  0
SECTION
  2
HEADER
  9
$ACADVER
  1
AC1018
  9
$ACADMAINTVER
 70
   104
  9
$DWGCODEPAGE
  3
ANSI_932
  9
$LASTSAVEDBY
  1
DOK
  9
$INSBASE
 10
267.0000000000001
 20
194.8999999999998
 30
0.0
  9
$EXTMIN
 10
72.12799120377167
 20
9153.648229243488
 30
-0.0000000000000052
  9
$EXTMAX
 10
12673.25029284475
 20
18065.27931793498
 30
0.00000000000001
  9
$LIMMIN
 10
0.0
 20
0.0
  9
$LIMMAX
 10
12600.0
 20
8910.0
  9
$ORTHOMODE
 70
     1
  9
$REGENMODE
 70
     1
  9
$FILLMODE
 70
     1
  9
$QTEXTMODE
 70
     0
  9
$MIRRTEXT
 70
     0
  9
$LTSCALE
 40
30.0
  9
$ATTMODE
 70
     1
  9
$TEXTSIZE
 40
0.2
  9
$TRACEWID
 40
0.05
  9
$TEXTSTYLE
  7
00
  9
$CLAYER
  8
SUNPOU
  9
$CELTYPE
  6
ByLayer
  9
$CECOLOR
 62
   256
  9
$CELTSCALE
 40
1.0
  9
$DISPSILH
 70
     0
  9
$DIMSCALE
 40
30.0
  9
$DIMASZ
 40
0.5
  9
$DIMEXO
 40
1.0
  9
$DIMDLI
 40
7.0
  9
$DIMRND
 40
0.0
  9
$DIMDLE
 40
3.0
  9
$DIMEXE
 40
1.5
  9
$DIMTP
 40
0.0
  9
$DIMTM
 40
0.0
  9
$DIMTXT
 40
3.0
  9
$DIMCEN
 40
0.0
  9
$DIMTSZ
 40
0.0
  9
$DIMTOL
 70
     0
  9
$DIMLIM
 70
     0
  9
$DIMTIH
 70
     0
  9
$DIMTOH
 70
     0
  9
$DIMSE1
 70
     0
  9
$DIMSE2
 70
     0
  9
$DIMTAD
 70
     1
  9
$DIMZIN
 70
     8
  9
$DIMBLK
  1
DOT
  9
$DIMASO
 70
     1
  9
$DIMSHO
 70
     0
  9
$DIMPOST
  1

  9
$DIMAPOST
  1

  9
$DIMALT
 70
     0
  9
$DIMALTD
 70
     2
  9
$DIMALTF
 40
25.4
  9
$DIMLFAC
 40
0.666666666666667
  9
$DIMTOFL
 70
     1
  9
$DIMTVP
 40
0.0
  9
$DIMTIX
 70
     0
  9
$DIMSOXD
 70
     0
  9
$DIMSAH
 70
     1
  9
$DIMBLK1
  1
DOT
  9
$DIMBLK2
  1
DOT
  9
$DIMSTYLE
  2
SUNPOU
  9
$DIMCLRD
 70
   256
  9
$DIMCLRE
 70
   256
  9
$DIMCLRT
 70
   256
  9
$DIMTFAC
 40
1.0
  9
$DIMGAP
 40
1.5
  9
$DIMJUST
 70
     0
  9
$DIMSD1
 70
     0
  9
$DIMSD2
 70
     0
  9
$DIMTOLJ
 70
     1
  9
$DIMTZIN
 70
     0
  9
$DIMALTZ
 70
     0
  9
$DIMALTTZ
 70
     0
  9
$DIMUPT
 70
     0
  9
$DIMDEC
 70
     4
  9
$DIMTDEC
 70
     4
  9
$DIMALTU
 70
     2
  9
$DIMALTTD
 70
     2
  9
$DIMTXSTY
  7
STANDARD
  9
$DIMAUNIT
 70
     0
  9
$DIMADEC
 70
     0
  9
$DIMALTRND
 40
0.0
  9
$DIMAZIN
 70
     0
  9
$DIMDSEP
 70
    46
  9
$DIMATFIT
 70
     3
  9
$DIMFRAC
 70
     0
  9
$DIMLDRBLK
  1
DOT
  9
$DIMLUNIT
 70
     2
  9
$DIMLWD
 70
    -2
  9
$DIMLWE
 70
    -2
  9
$DIMTMOVE
 70
     0
  9
$LUNITS
 70
     2
  9
$LUPREC
 70
     2
  9
$SKETCHINC
 40
0.1
  9
$FILLETRAD
 40
5.0
  9
$AUNITS
 70
     0
  9
$AUPREC
 70
     0
  9
$MENU
  1
A:\TIGER\MENU\TIGER
  9
$ELEVATION
 40
0.0
  9
$PELEVATION
 40
0.0
  9
$THICKNESS
 40
0.0
  9
$LIMCHECK
 70
     0
  9
$CHAMFERA
 40
0.0
  9
$CHAMFERB
 40
0.0
  9
$CHAMFERC
 40
0.0
  9
$CHAMFERD
 40
0.0
  9
$SKPOLY
 70
     0
  9
$TDCREATE
 40
2450266.571064815
  9
$TDUCREATE
 40
2450266.196064815
  9
$TDUPDATE
 40
2456430.620348577
  9
$TDUUPDATE
 40
2456430.245348577
  9
$TDINDWG
 40
0.2230063426
  9
$TDUSRTIMER
 40
0.2230061690
  9
$USRTIMER
 70
     1
  9
$ANGBASE
 50
0.0
  9
$ANGDIR
 70
     0
  9
$PDMODE
 70
     0
  9
$PDSIZE
 40
0.0
  9
$PLINEWID
 40
0.0
  9
$SPLFRAME
 70
     0
  9
$SPLINETYPE
 70
     6
  9
$SPLINESEGS
 70
     8
  9
$HANDSEED
  5
25535
  9
$SURFTAB1
 70
     6
  9
$SURFTAB2
 70
     6
  9
$SURFTYPE
 70
     6
  9
$SURFU
 70
     6
  9
$SURFV
 70
     6
  9
$UCSBASE
  2

  9
$UCSNAME
  2

  9
$UCSORG
 10
0.0
 20
0.0
 30
0.0
  9
$UCSXDIR
 10
1.0
 20
0.0
 30
0.0
  9
$UCSYDIR
 10
0.0
 20
1.0
 30
0.0
  9
$UCSORTHOREF
  2

  9
$UCSORTHOVIEW
 70
     0
  9
$UCSORGTOP
 10
0.0
 20
0.0
 30
0.0
  9
$UCSORGBOTTOM
 10
0.0
 20
0.0
 30
0.0
  9
$UCSORGLEFT
 10
0.0
 20
0.0
 30
0.0
  9
$UCSORGRIGHT
 10
0.0
 20
0.0
 30
0.0
  9
$UCSORGFRONT
 10
0.0
 20
0.0
 30
0.0
  9
$UCSORGBACK
 10
0.0
 20
0.0
 30
0.0
  9
$PUCSBASE
  2

  9
$PUCSNAME
  2

  9
$PUCSORG
 10
0.0
 20
0.0
 30
0.0
  9
$PUCSXDIR
 10
1.0
 20
0.0
 30
0.0
  9
$PUCSYDIR
 10
0.0
 20
1.0
 30
0.0
  9
$PUCSORTHOREF
  2

  9
$PUCSORTHOVIEW
 70
     0
  9
$PUCSORGTOP
 10
0.0
 20
0.0
 30
0.0
  9
$PUCSORGBOTTOM
 10
0.0
 20
0.0
 30
0.0
  9
$PUCSORGLEFT
 10
0.0
 20
0.0
 30
0.0
  9
$PUCSORGRIGHT
 10
0.0
 20
0.0
 30
0.0
  9
$PUCSORGFRONT
 10
0.0
 20
0.0
 30
0.0
  9
$PUCSORGBACK
 10
0.0
 20
0.0
 30
0.0
  9
$USERI1
 70
     3
  9
$USERI2
 70
     0
  9
$USERI3
 70
     0
  9
$USERI4
 70
     0
  9
$USERI5
 70
  1103
  9
$USERR1
 40
0.0
  9
$USERR2
 40
1.0
  9
$USERR3
 40
0.0
  9
$USERR4
 40
0.0
  9
$USERR5
 40
0.0
  9
$WORLDVIEW
 70
     1
  9
$SHADEDGE
 70
     3
  9
$SHADEDIF
 70
    70
  9
$TILEMODE
 70
     1
  9
$MAXACTVP
 70
    16
  9
$PINSBASE
 10
0.0
 20
0.0
 30
0.0
  9
$PLIMCHECK
 70
     0
  9
$PEXTMIN
 10
1.000000000000000E+20
 20
1.000000000000000E+20
 30
1.000000000000000E+20
  9
$PEXTMAX
 10
-1.000000000000000E+20
 20
-1.000000000000000E+20
 30
-1.000000000000000E+20
  9
$PLIMMIN
 10
0.0
 20
0.0
  9
$PLIMMAX
 10
12.0
 20
9.0
  9
$UNITMODE
 70
     0
  9
$VISRETAIN
 70
     0
  9
$PLINEGEN
 70
     1
  9
$PSLTSCALE
 70
     0
  9
$TREEDEPTH
 70
  3020
  9
$CMLSTYLE
  2
Standard
  9
$CMLJUST
 70
     0
  9
$CMLSCALE
 40
1.0
  9
$PROXYGRAPHICS
 70
     1
  9
$MEASUREMENT
 70
     0
  9
$CELWEIGHT
370
    -1
  9
$ENDCAPS
280
     0
  9
$JOINSTYLE
280
     0
  9
$LWDISPLAY
290
     0
  9
$INSUNITS
 70
     0
  9
$HYPERLINKBASE
  1

  9
$STYLESHEET
  1
monochrome.ctb
  9
$XEDIT
290
     1
  9
$CEPSNTYPE
380
     0
  9
$PSTYLEMODE
290
     1
  9
$FINGERPRINTGUID
  2
{F3EFB7FE-E4FD-421F-ABD7-18175B110929}
  9
$VERSIONGUID
  2
{D6FB491F-DFE8-49B8-8377-133F149D2DBA}
  9
$EXTNAMES
290
     1
  9
$PSVPSCALE
 40
0.0
  9
$OLESTARTUP
290
     0
  9
$SORTENTS
280
   127
  9
$INDEXCTL
280
     0
  9
$HIDETEXT
280
     0
  9
$XCLIPFRAME
290
     0
  9
$HALOGAP
280
     0
  9
$OBSCOLOR
 70
   257
  9
$OBSLTYPE
280
     0
  9
$INTERSECTIONDISPLAY
280
     0
  9
$INTERSECTIONCOLOR
 70
   257
  9
$DIMASSOC
280
     1
  9
$PROJECTNAME
  1

  0
ENDSEC
  0
SECTION
  2
CLASSES
  0
CLASS
  1
ACDBDICTIONARYWDFLT
  2
AcDbDictionaryWithDefault
  3
ObjectDBX Classes
 90
        0
 91
        1
280
     0
281
     0
  0
CLASS
  1
MATERIAL
  2
AcDbMaterial
  3
ObjectDBX Classes
 90
     1153
 91
        3
280
     0
281
     0
  0
CLASS
  1
VISUALSTYLE
  2
AcDbVisualStyle
  3
ObjectDBX Classes
 90
     4095
 91
       24
280
     0
281
     0
  0
CLASS
  1
SCALE
  2
AcDbScale
  3
ObjectDBX Classes
 90
     1153
 91
       17
280
     0
281
     0
  0
CLASS
  1
TABLESTYLE
  2
AcDbTableStyle
  3
ObjectDBX Classes
 90
     4095
 91
        1
280
     0
281
     0
  0
CLASS
  1
MLEADERSTYLE
  2
AcDbMLeaderStyle
  3
ACDB_MLEADERSTYLE_CLASS
 90
     4095
 91
        1
280
     0
281
     0
  0
CLASS
  1
DICTIONARYVAR
  2
AcDbDictionaryVar
  3
ObjectDBX Classes
 90
        0
 91
        5
280
     0
281
     0
  0
CLASS
  1
CELLSTYLEMAP
  2
AcDbCellStyleMap
  3
ObjectDBX Classes
 90
     1152
 91
        2
280
     0
281
     0
  0
ENDSEC
  0
SECTION
  2
TABLES
  0
TABLE
  2
VPORT
  5
23983
330
0
100
AcDbSymbolTable
 70
     1
  0
VPORT
  5
239EC
330
23983
100
AcDbSymbolTableRecord
100
AcDbViewportTableRecord
  2
*ACTIVE
 70
     0
 10
0.0
 20
0.0
 11
1.0
 21
1.0
 12
9574.639158480549
 22
13236.80271436656
 13
0.0
 23
0.0
 14
1.0
 24
1.0
 15
0.0
 25
0.0
 16
0.0
 26
0.0
 36
1.0
 17
0.0
 27
0.0
 37
0.0
 40
13635.38584384196
 41
2.762114537444933
 42
50.0
 43
0.0
 44
0.0
 50
0.0
 51
0.0
 71
     0
 72
 10000
 73
     1
 74
     0
 75
     0
 76
     0
 77
     0
 78
     0
281
     0
 65
     1
110
0.0
120
0.0
130
0.0
111
1.0
121
0.0
131
0.0
112
0.0
122
1.0
132
0.0
 79
     0
146
0.0
  0
ENDTAB
  0
TABLE
  2
LTYPE
  5
23980
330
0
100
AcDbSymbolTable
 70
     5
  0
LTYPE
  5
239D5
330
23980
100
AcDbSymbolTableRecord
100
AcDbLinetypeTableRecord
  2
ByBlock
 70
     0
  3

 72
    65
 73
     0
 40
0.0
  0
LTYPE
  5
239D6
330
23980
100
AcDbSymbolTableRecord
100
AcDbLinetypeTableRecord
  2
ByLayer
 70
     0
  3

 72
    65
 73
     0
 40
0.0
  0
LTYPE
  5
239D7
330
23980
100
AcDbSymbolTableRecord
100
AcDbLinetypeTableRecord
  2
CONTINUOUS
 70
     0
  3
実線
 72
    65
 73
     0
 40
0.0
  0
LTYPE
  5
239ED
330
23980
100
AcDbSymbolTableRecord
100
AcDbLinetypeTableRecord
  2
1PL-M
 70
     0
  3

 72
    65
 73
     4
 40
15.0
 49
12.0
 74
     0
 49
-1.0
 74
     0
 49
1.0
 74
     0
 49
-1.0
 74
     0
  0
LTYPE
  5
239EE
330
23980
100
AcDbSymbolTableRecord
100
AcDbLinetypeTableRecord
  2
1PL-S
 70
     0
  3

 72
    65
 73
     4
 40
4.0
 49
2.5
 74
     0
 49
-0.5
 74
     0
 49
0.5
 74
     0
 49
-0.5
 74
     0
  0
LTYPE
  5
239EF
330
23980
100
AcDbSymbolTableRecord
100
AcDbLinetypeTableRecord
  2
2PL-M
 70
     0
  3

 72
    65
 73
     6
 40
17.0
 49
12.0
 74
     0
 49
-1.0
 74
     0
 49
1.0
 74
     0
 49
-1.0
 74
     0
 49
1.0
 74
     0
 49
-1.0
 74
     0
  0
ENDTAB
  0
TABLE
  2
LAYER
  5
2397D
102
{ACAD_XDICTIONARY
360
23A1E
102
}
330
0
100
AcDbSymbolTable
 70
    19
  0
LAYER
  5
239CF
102
{ACAD_XDICTIONARY
360
2542E
102
}
330
2397D
100
AcDbSymbolTableRecord
100
AcDbLayerTableRecord
  2
0
 70
     0
 62
     7
  6
CONTINUOUS
370
    -3
390
2398A
  0
LAYER
  5
239EA
102
{ACAD_XDICTIONARY
360
25430
102
}
330
2397D
100
AcDbSymbolTableRecord
100
AcDbLayerTableRecord
  2
SUNPOU
 70
     0
 62
     4
  6
CONTINUOUS
370
    -3
390
2398A
  0
LAYER
  5
239F0
102
{ACAD_XDICTIONARY
360
25432
102
}
330
2397D
100
AcDbSymbolTableRecord
100
AcDbLayerTableRecord
  2
U2
 70
     0
 62
     4
  6
CONTINUOUS
370
    -3
390
2398A
  0
LAYER
  5
239F1
102
{ACAD_XDICTIONARY
360
25434
102
}
330
2397D
100
AcDbSymbolTableRecord
100
AcDbLayerTableRecord
  2
U3
 70
     0
 62
     6
  6
CONTINUOUS
370
    -3
390
2398A
  0
LAYER
  5
239F2
102
{ACAD_XDICTIONARY
360
25436
102
}
330
2397D
100
AcDbSymbolTableRecord
100
AcDbLayerTableRecord
  2
HIKIDASHI
 70
     0
 62
     6
  6
CONTINUOUS
370
    -3
390
2398A
  0
LAYER
  5
239F3
102
{ACAD_XDICTIONARY
360
25438
102
}
330
2397D
100
AcDbSymbolTableRecord
100
AcDbLayerTableRecord
  2
1PL-S1
 70
     0
 62
     6
  6
1PL-S
370
    -3
390
2398A
  0
LAYER
  5
239F4
102
{ACAD_XDICTIONARY
360
2543A
102
}
330
2397D
100
AcDbSymbolTableRecord
100
AcDbLayerTableRecord
  2
1PL-M1
 70
     0
 62
     6
  6
1PL-M
370
    -3
390
2398A
  0
LAYER
  5
239F5
102
{ACAD_XDICTIONARY
360
2543C
102
}
330
2397D
100
AcDbSymbolTableRecord
100
AcDbLayerTableRecord
  2
2PL-M2
 70
     0
 62
     1
  6
2PL-M
370
    -3
390
2398A
  0
LAYER
  5
239F6
102
{ACAD_XDICTIONARY
360
2543E
102
}
330
2397D
100
AcDbSymbolTableRecord
100
AcDbLayerTableRecord
  2
KISO
 70
     0
 62
     2
  6
CONTINUOUS
370
    -3
390
2398A
  0
LAYER
  5
239F7
102
{ACAD_XDICTIONARY
360
25440
102
}
330
2397D
100
AcDbSymbolTableRecord
100
AcDbLayerTableRecord
  2
HATCH
 70
     0
 62
     1
  6
CONTINUOUS
370
    -3
390
2398A
  0
LAYER
  5
239F8
102
{ACAD_XDICTIONARY
360
25442
102
}
330
2397D
100
AcDbSymbolTableRecord
100
AcDbLayerTableRecord
  2
NAME
 70
     0
 62
    20
  6
CONTINUOUS
370
    -3
390
2398A
  0
LAYER
  5
239F9
102
{ACAD_XDICTIONARY
360
25444
102
}
330
2397D
100
AcDbSymbolTableRecord
100
AcDbLayerTableRecord
  2
FILENAME
 70
     0
 62
     7
  6
CONTINUOUS
370
    -3
390
2398A
  0
LAYER
  5
239FA
102
{ACAD_XDICTIONARY
360
25446
102
}
330
2397D
100
AcDbSymbolTableRecord
100
AcDbLayerTableRecord
  2
HASHIRA
 70
     0
 62
     3
  6
CONTINUOUS
370
    -3
390
2398A
  0
LAYER
  5
239FB
102
{ACAD_XDICTIONARY
360
25448
102
}
330
2397D
100
AcDbSymbolTableRecord
100
AcDbLayerTableRecord
  2
YODOROGO
 70
     0
 62
   130
  6
CONTINUOUS
370
    -3
390
2398A
  0
LAYER
  5
239FC
102
{ACAD_XDICTIONARY
360
2544A
102
}
330
2397D
100
AcDbSymbolTableRecord
100
AcDbLayerTableRecord
  2
WAKUSEN-01
 70
     0
 62
    50
  6
CONTINUOUS
370
    -3
390
2398A
  0
LAYER
  5
239FD
102
{ACAD_XDICTIONARY
360
2544C
102
}
330
2397D
100
AcDbSymbolTableRecord
100
AcDbLayerTableRecord
  2
WAKUSEN-02
 70
     0
 62
   130
  6
CONTINUOUS
370
    -3
390
2398A
  0
LAYER
  5
239FE
102
{ACAD_XDICTIONARY
360
2544E
102
}
330
2397D
100
AcDbSymbolTableRecord
100
AcDbLayerTableRecord
  2
WAKUMOJI-01
 70
     0
 62
   130
  6
CONTINUOUS
370
    -3
390
2398A
  0
LAYER
  5
23A1A
102
{ACAD_XDICTIONARY
360
23A1B
102
}
330
2397D
100
AcDbSymbolTableRecord
100
AcDbLayerTableRecord
  2
waku
 70
     0
 62
     7
  6
CONTINUOUS
370
    -3
390
2398A
  0
LAYER
  5
23A1C
330
2397D
100
AcDbSymbolTableRecord
100
AcDbLayerTableRecord
  2
Defpoints
 70
     0
 62
     8
  6
CONTINUOUS
290
     0
370
    -3
390
2398A
  0
ENDTAB
  0
TABLE
  2
STYLE
  5
2397E
330
0
100
AcDbSymbolTable
 70
     8
  0
STYLE
  5
239D0
330
2397E
100
AcDbSymbolTableRecord
100
AcDbTextStyleTableRecord
  2
STANDARD
 70
     0
 40
3.0
 41
1.0
 50
0.0
 71
     0
 42
0.2
  3
ROMANS
  4
EXTFONT
  0
STYLE
  5
239D4
330
2397E
100
AcDbSymbolTableRecord
100
AcDbTextStyleTableRecord
  2
Annotative
 70
     0
 40
0.0
 41
1.0
 50
0.0
 71
     0
 42
0.2
  3
txt
  4

1001
AcadAnnotative
1000
AnnotativeData
1002
{
1070
     1
1070
     1
1002
}
  0
STYLE
  5
239EB
330
2397E
100
AcDbSymbolTableRecord
100
AcDbTextStyleTableRecord
  2
00
 70
     0
 40
0.0
 41
0.6666666666666666
 50
0.0
 71
     0
 42
0.2
  3
ROMANS
  4
BIGFONT
  0
STYLE
  5
239FF
330
2397E
100
AcDbSymbolTableRecord
100
AcDbTextStyleTableRecord
  2
01
 70
     0
 40
3.0
 41
1.0
 50
0.0
 71
     0
 42
0.2
  3
ROMANS
  4
BIGFONT
  0
STYLE
  5
23A00
330
2397E
100
AcDbSymbolTableRecord
100
AcDbTextStyleTableRecord
  2
WAKUMOJI
 70
     0
 40
3.0
 41
1.0
 50
0.0
 71
     0
 42
3.0
  3
SIMPLEX
  4
BIGFONT
  0
STYLE
  5
23A01
330
2397E
100
AcDbSymbolTableRecord
100
AcDbTextStyleTableRecord
  2
FILENAME
 70
     0
 40
75.0
 41
1.0
 50
0.0
 71
     0
 42
75.0
  3
romans
  4
bigfont
  0
STYLE
  5
23A1D
330
2397E
100
AcDbSymbolTableRecord
100
AcDbTextStyleTableRecord
  2
ＭＳ ゴシック
 70
     0
 40
1.0
 41
1.0
 50
0.0
 71
     0
 42
10.0
  3

  4

1001
ACAD
1000
MS Gothic
1071
    32817
  0
ENDTAB
  0
TABLE
  2
VIEW
  5
23981
330
0
100
AcDbSymbolTable
 70
     0
  0
ENDTAB
  0
TABLE
  2
UCS
  5
23982
330
0
100
AcDbSymbolTable
 70
     0
  0
ENDTAB
  0
TABLE
  2
APPID
  5
23984
330
0
100
AcDbSymbolTable
 70
     6
  0
APPID
  5
239D1
330
23984
100
AcDbSymbolTableRecord
100
AcDbRegAppTableRecord
  2
ACAD
 70
     0
  0
APPID
  5
239D8
330
23984
100
AcDbSymbolTableRecord
100
AcDbRegAppTableRecord
  2
AcadAnnotative
 70
     0
  0
APPID
  5
23A02
330
23984
100
AcDbSymbolTableRecord
100
AcDbRegAppTableRecord
  2
AUTOCAD_POSTSCRIPT_FIGURE
 70
     0
  0
APPID
  5
23A03
330
23984
100
AcDbSymbolTableRecord
100
AcDbRegAppTableRecord
  2
ACAD_PSEXT
 70
     0
  0
APPID
  5
23A04
330
23984
100
AcDbSymbolTableRecord
100
AcDbRegAppTableRecord
  2
ACAD_EXEMPT_FROM_CAD_STANDARDS
 70
     0
  0
APPID
  5
23A05
330
23984
100
AcDbSymbolTableRecord
100
AcDbRegAppTableRecord
  2
ACAD_MLEADERVER
 70
     0
  0
ENDTAB
  0
TABLE
  2
DIMSTYLE
  5
23985
330
0
100
AcDbSymbolTable
 70
     5
100
AcDbDimStyleTable
 71
     1
340
23A06
  0
DIMSTYLE
105
239D2
330
23985
100
AcDbSymbolTableRecord
100
AcDbDimStyleTableRecord
  2
Standard
 70
     0
340
239D0
  0
DIMSTYLE
105
239D3
330
23985
100
AcDbSymbolTableRecord
100
AcDbDimStyleTableRecord
  2
Annotative
 70
     0
340
239D0
1001
AcadAnnotative
1000
AnnotativeData
1002
{
1070
     1
1070
     1
1002
}
  0
DIMSTYLE
105
23A06
330
23985
100
AcDbSymbolTableRecord
100
AcDbDimStyleTableRecord
  2
SUNPOU
 70
     0
 40
30.0
 41
0.5
 42
1.0
 43
7.0
 44
1.5
 46
3.0
 73
     0
 74
     0
 77
     1
 78
     8
140
3.0
141
0.0
147
1.5
172
     1
173
     1
176
   256
177
   256
178
   256
271
     2
272
     2
279
     2
284
     8
285
     8
286
     8
340
239EB
  0
ENDTAB
  0
TABLE
  2
BLOCK_RECORD
  5
2397C
330
0
100
AcDbSymbolTable
 70
     9
  0
BLOCK_RECORD
  5
239E6
330
2397C
100
AcDbSymbolTableRecord
100
AcDbBlockTableRecord
  2
*Model_Space
340
239E9
  0
BLOCK_RECORD
  5
239E2
330
2397C
100
AcDbSymbolTableRecord
100
AcDbBlockTableRecord
  2
*Paper_Space
340
239E5
  0
BLOCK_RECORD
  5
23A0C
330
2397C
100
AcDbSymbolTableRecord
100
AcDbBlockTableRecord
  2
$MODEL_SPACE
340
0
  0
BLOCK_RECORD
  5
23A0E
330
2397C
100
AcDbSymbolTableRecord
100
AcDbBlockTableRecord
  2
$PAPER_SPACE
340
0
  0
BLOCK_RECORD
  5
23A10
330
2397C
100
AcDbSymbolTableRecord
100
AcDbBlockTableRecord
  2
DOT
340
0
  0
BLOCK_RECORD
  5
23A12
330
2397C
100
AcDbSymbolTableRecord
100
AcDbBlockTableRecord
  2
*U3
340
0
  0
BLOCK_RECORD
  5
23A14
330
2397C
100
AcDbSymbolTableRecord
100
AcDbBlockTableRecord
  2
*U4
340
0
  0
BLOCK_RECORD
  5
23A16
330
2397C
100
AcDbSymbolTableRecord
100
AcDbBlockTableRecord
  2
*U5
340
0
  0
BLOCK_RECORD
  5
23A18
330
2397C
100
AcDbSymbolTableRecord
100
AcDbBlockTableRecord
  2
*U6
340
0
  0
ENDTAB
  0
ENDSEC
  0
SECTION
  2
BLOCKS
  0
BLOCK
  5
239E7
330
239E6
100
AcDbEntity
  8
0
100
AcDbBlockBegin
  2
*Model_Space
 70
     0
 10
0.0
 20
0.0
 30
0.0
  3
*Model_Space
  1

  0
ENDBLK
  5
239E8
330
239E6
100
AcDbEntity
  8
0
100
AcDbBlockEnd
  0
BLOCK
  5
239E3
330
239E2
100
AcDbEntity
 67
     1
  8
0
100
AcDbBlockBegin
  2
*Paper_Space
 70
     0
 10
0.0
 20
0.0
 30
0.0
  3
*Paper_Space
  1

  0
ENDBLK
  5
239E4
330
239E2
100
AcDbEntity
 67
     1
  8
0
100
AcDbBlockEnd
  0
BLOCK
  5
23A0D
330
23A0C
100
AcDbEntity
  8
0
100
AcDbBlockBegin
  2
$MODEL_SPACE
 70
     0
 10
0.0
 20
0.0
 30
0.0
  3
$MODEL_SPACE
  1

  0
ENDBLK
  5
125F7
330
23A0C
100
AcDbEntity
  8
0
100
AcDbBlockEnd
  0
BLOCK
  5
23A0F
330
23A0E
100
AcDbEntity
  8
0
100
AcDbBlockBegin
  2
$PAPER_SPACE
 70
     0
 10
0.0
 20
0.0
 30
0.0
  3
$PAPER_SPACE
  1

  0
ENDBLK
  5
125F5
330
23A0E
100
AcDbEntity
  8
0
100
AcDbBlockEnd
  0
BLOCK
  5
23A11
330
23A10
100
AcDbEntity
  8
0
100
AcDbBlockBegin
  2
DOT
 70
     0
 10
0.0
 20
0.0
 30
0.0
  3
DOT
  1

  0
LWPOLYLINE
  5
12983
330
23A10
100
AcDbEntity
  8
0
  6
ByBlock
 62
     0
100
AcDbPolyline
 90
        2
 70
     1
 43
0.75
 10
-0.375
 20
0.0
 42
1.0
 10
0.375
 20
0.0
 42
1.0
  0
LINE
  5
12984
330
23A10
100
AcDbEntity
  8
0
  6
ByBlock
 62
     0
100
AcDbLine
 10
-0.75
 20
0.0
 30
0.0
 11
-1.5
 21
0.0
 31
0.0
  0
ENDBLK
  5
12985
330
23A10
100
AcDbEntity
  8
0
100
AcDbBlockEnd
  0
BLOCK
  5
23A13
330
23A12
100
AcDbEntity
  8
0
100
AcDbBlockBegin
  2
*U3
 70
     1
 10
0.0
 20
0.0
 30
0.0
  3
*U3
  1

  0
TEXT
  5
23743
330
23A12
100
AcDbEntity
  8
SUNPOU
100
AcDbText
 10
5078.075305331611
 20
1859.518566249727
 30
0.0
 40
90.0
  1
500
 50
90.0
 41
0.6666666666666666
  7
00
100
AcDbText
  0
ENDBLK
  5
23745
330
23A12
100
AcDbEntity
  8
0
100
AcDbBlockEnd
  0
BLOCK
  5
23A15
330
23A14
100
AcDbEntity
  8
0
100
AcDbBlockBegin
  2
*U4
 70
     1
 10
0.0
 20
0.0
 30
0.0
  3
*U4
  1

  0
TEXT
  5
23747
330
23A14
100
AcDbEntity
  8
SUNPOU
100
AcDbText
 10
2866.575305331612
 20
1135.23285196401
 30
0.0
 40
90.0
  1
700 □
 41
0.6666666666666666
  7
00
100
AcDbText
  0
ENDBLK
  5
23749
330
23A14
100
AcDbEntity
  8
0
100
AcDbBlockEnd
  0
BLOCK
  5
23A17
330
23A16
100
AcDbEntity
  8
0
100
AcDbBlockBegin
  2
*U5
 70
     1
 10
0.0
 20
0.0
 30
0.0
  3
*U5
  1

  0
TEXT
  5
2374B
330
23A16
100
AcDbEntity
  8
SUNPOU
100
AcDbText
 10
2866.575305331612
 20
925.2328519640114
 30
0.0
 40
90.0
  1
900 □
 41
0.6666666666666666
  7
00
100
AcDbText
  0
ENDBLK
  5
2374D
330
23A16
100
AcDbEntity
  8
0
100
AcDbBlockEnd
  0
BLOCK
  5
23A19
330
23A18
100
AcDbEntity
  8
0
100
AcDbBlockBegin
  2
*U6
 70
     1
 10
0.0
 20
0.0
 30
0.0
  3
*U6
  1

  0
TEXT
  5
2374F
330
23A18
100
AcDbEntity
  8
SUNPOU
100
AcDbText
 10
5078.075305331611
 20
1197.37570910687
 30
0.0
 40
90.0
  1
100
 50
90.0
 41
0.6666666666666666
  7
00
100
AcDbText
  0
ENDBLK
  5
23751
330
23A18
100
AcDbEntity
  8
0
100
AcDbBlockEnd
  0
ENDSEC
  0
SECTION
  2
ENTITIES
  0
LINE
  5
24CB2
330
239E6
100
AcDbEntity
  8
HIKIDASHI
370
     9
100
AcDbLine
 10
3395.014319957061
 20
10294.92697672105
 30
0.0
 11
4090.641673192629
 21
10294.92697672105
 31
0.0
  0
LINE
  5
24CB3
330
239E6
100
AcDbEntity
  8
HIKIDASHI
370
     9
100
AcDbLine
 10
3395.014319957061
 20
10264.92697672106
 30
0.0
 11
4090.641673192629
 21
10264.92697672106
 31
0.0
  0
TEXT
  5
24CB4
330
239E6
100
AcDbEntity
  8
HIKIDASHI
370
     9
100
AcDbText
 10
3425.014319957062
 20
10339.92697672105
 30
0.0
 40
90.0
  1
A  ~  A'
 41
0.6700000000000001
  7
00
100
AcDbText
  0
TEXT
  5
24CB5
330
239E6
100
AcDbEntity
  8
HIKIDASHI
370
     9
100
AcDbText
 10
3819.031599453622
 20
10339.92697672105
 30
0.0
 40
90.0
  1
断 面
  7
01
100
AcDbText
  0
TEXT
  5
24CB6
330
239E6
100
AcDbEntity
  8
SUNPOU
370
     9
100
AcDbText
 10
9724.316593020169
 20
12212.65968804734
 30
0.0
 40
41.65685357343746
  1
2
 41
0.6700000000000001
  7
00
100
AcDbText
  0
TEXT
  5
24CB7
330
239E6
100
AcDbEntity
  8
SUNPOU
370
     9
100
AcDbText
 10
9450.298559191898
 20
12167.4901043256
 30
0.0
 40
80.9994375039062
  1
N/mm
 41
0.6700000000000001
  7
01
100
AcDbText
  0
TEXT
  5
24CB8
330
239E6
100
AcDbEntity
  8
SUNPOU
370
     9
100
AcDbText
 10
9328.045751684539
 20
12167.4901043256
 30
0.0
 40
80.9994375039062
  1
18
 41
0.6700000000000001
  7
01
100
AcDbText
  0
LINE
  5
24CB9
330
239E6
100
AcDbEntity
  8
SUNPOU
370
     9
100
AcDbLine
 10
8794.194912977491
 20
12028.63296146846
 30
0.0
 11
8794.194912977491
 21
12103.77608879735
 31
0.0
  0
LINE
  5
24CBA
330
239E6
100
AcDbEntity
  8
SUNPOU
370
     9
100
AcDbLine
 10
8779.007412977499
 20
12028.63296146846
 30
0.0
 11
8779.007412977499
 21
12103.77608879735
 31
0.0
  0
LINE
  5
24CBB
330
239E6
100
AcDbEntity
  8
SUNPOU
370
     9
100
AcDbLine
 10
8763.819912977499
 20
12028.63296146846
 30
0.0
 11
8763.819912977499
 21
12103.77608879735
 31
0.0
  0
LINE
  5
24CBC
330
239E6
100
AcDbEntity
  8
SUNPOU
370
     9
100
AcDbLine
 10
8753.694912977492
 20
12028.63296146846
 30
0.0
 11
8804.319912977499
 21
12028.63296146846
 31
0.0
  0
LINE
  5
24CBD
330
239E6
100
AcDbEntity
  8
SUNPOU
370
     9
100
AcDbLine
 10
8753.694912977492
 20
12103.77608879735
 30
0.0
 11
8804.319912977499
 21
12103.77608879735
 31
0.0
  0
ARC
  5
24CBE
330
239E6
100
AcDbEntity
  8
SUNPOU
370
     9
100
AcDbCircle
 10
9824.327458512632
 20
12134.89878542325
 30
0.0
 40
202.5
100
AcDbArc
 50
328.3472725282766
 51
31.65272747172345
  0
TEXT
  5
24CBF
330
239E6
100
AcDbEntity
  8
SUNPOU
370
     9
100
AcDbText
 10
7841.022422813029
 20
12212.65968804734
 30
0.0
 40
41.65685357343746
  1
2
 41
0.6700000000000001
  7
00
100
AcDbText
  0
TEXT
  5
24CC0
330
239E6
100
AcDbEntity
  8
SUNPOU
370
     9
100
AcDbText
 10
7600.146281757479
 20
12167.4901043256
 30
0.0
 40
64.79955000312497
  1
K
 41
0.6700000000000001
  7
01
100
AcDbText
  0
TEXT
  5
24CC1
330
239E6
100
AcDbEntity
  8
SUNPOU
370
     9
100
AcDbText
 10
7477.893474250119
 20
12167.4901043256
 30
0.0
 40
80.9994375039062
  1
50  N/m
 41
0.6700000000000001
  7
01
100
AcDbText
  0
ARC
  5
24CC2
330
239E6
100
AcDbEntity
  8
SUNPOU
370
     9
100
AcDbCircle
 10
7278.723354084032
 20
12134.89878542325
 30
0.0
 40
202.5
100
AcDbArc
 50
148.3472725282766
 51
211.6527274717234
  0
TEXT
  5
24CC3
330
239E6
100
AcDbEntity
  8
SUNPOU
370
     9
100
AcDbText
 10
7576.447993366191
 20
12028.63296146846
 30
0.0
 40
80.9994375039062
  1
34 m/s
 41
0.6700000000000001
  7
01
100
AcDbText
  0
TEXT
  5
24CC4
330
239E6
100
AcDbEntity
  8
SUNPOU
370
     9
100
AcDbText
 10
7141.060907567538
 20
12028.63296146846
 30
0.0
 40
80.9994375039062
  1
基準風速   　　 , 地表面粗度区分
  7
01
100
AcDbText
  0
TEXT
  5
24CC5
330
239E6
100
AcDbEntity
  8
SUNPOU
370
     9
100
AcDbText
 10
7141.060907567538
 20
12167.4901043256
 30
0.0
 40
80.9994375039062
  1
地耐力   　　　 以上,コンクリート設計基準強度
  7
01
100
AcDbText
  0
TEXT
  5
24CC6
330
239E6
100
AcDbEntity
  8
SUNPOU
370
     9
100
AcDbText
 10
7292.935907567538
 20
11548.41867575418
 30
0.0
 40
81.0
  1
2
 41
0.6700000000000001
  7
01
100
AcDbText
  0
TEXT
  5
24CC7
330
239E6
100
AcDbEntity
  8
SUNPOU
370
     9
100
AcDbText
 10
7193.365379376071
 20
11548.41867575418
 30
0.0
 40
81.0
  1
注　）
  7
01
100
AcDbText
  0
TEXT
  5
24CC8
330
239E6
100
AcDbEntity
  8
SUNPOU
370
     9
100
AcDbText
 10
7193.365379376071
 20
11826.13296146846
 30
0.0
 40
81.0
  1
注　）
  7
01
100
AcDbText
  0
TEXT
  5
24CC9
330
239E6
100
AcDbEntity
  8
SUNPOU
370
     9
100
AcDbText
 10
7292.935907567538
 20
11826.13296146846
 30
0.0
 40
81.0
  1
1
 41
0.6700000000000001
  7
01
100
AcDbText
  0
TEXT
  5
24CCA
330
239E6
100
AcDbEntity
  8
SUNPOU
370
     9
100
AcDbText
 10
7478.521078147998
 20
11687.27581861132
 30
0.0
 40
81.0
  1
あわせて設計して下さい。
  7
01
100
AcDbText
  0
TEXT
  5
24CCB
330
239E6
100
AcDbEntity
  8
SUNPOU
370
     9
100
AcDbText
 10
7467.132006430587
 20
11551.0472333871
 30
0.0
 40
90.0
  1
その他現地の実情にあわせて設計して下さい。
  7
01
100
AcDbText
  0
TEXT
  5
24CCC
330
239E6
100
AcDbEntity
  8
SUNPOU
370
     9
100
AcDbText
 10
7478.521078147998
 20
11826.13296146846
 30
0.0
 40
81.0
  1
寒冷地の場合、凍結深度等を考慮し、実情に
  7
01
100
AcDbText
  0
TEXT
  5
24CCD
330
239E6
100
AcDbEntity
  8
SUNPOU
370
     9
100
AcDbText
 10
7023.55364172294
 20
12337.81870652696
 30
0.0
 40
81.0
  1
<下記条件での参考図>
  7
01
 72
     4
 11
7553.525070294369
 21
12378.31870652696
 31
0.0
100
AcDbText
  0
TEXT
  5
24CCE
330
239E6
100
AcDbEntity
  8
SUNPOU
370
     9
100
AcDbText
 10
8112.838320172651
 20
12488.4302449885
 30
0.0
 40
66.46153846153842
  1
/
 41
0.6700000000000001
  7
00
 11
8112.838320172651
 21
12479.56870652696
 31
0.0
100
AcDbText
 73
     1
  0
TEXT
  5
24CCF
330
239E6
100
AcDbEntity
  8
SUNPOU
370
     9
100
AcDbText
 10
8170.392818831588
 20
12471.81486037312
 30
0.0
 40
66.46153846153842
  1
20
 41
0.6700000000000001
  7
00
 11
8170.392818831588
 21
12462.95332191158
 31
0.0
100
AcDbText
 73
     1
  0
TEXT
  5
24CD0
330
239E6
100
AcDbEntity
  8
SUNPOU
370
     9
100
AcDbText
 10
8069.272805588822
 20
12505.04562960389
 30
0.0
 40
66.46153846153842
  1
1
 41
0.6700000000000001
  7
00
 11
8069.272805588822
 21
12496.18409114235
 31
0.0
100
AcDbText
 73
     1
  0
TEXT
  5
24CD1
330
239E6
100
AcDbEntity
  8
SUNPOU
370
     9
100
AcDbText
 10
7781.54037392105
 20
12490.64562960388
 30
0.0
 40
83.07692307692304
  1
（ S = 　　  ）
 41
0.6700000000000001
  7
00
 11
7781.54037392105
 21
12479.56870652696
 31
0.0
100
AcDbText
 73
     1
  0
TEXT
  5
24CD2
330
239E6
100
AcDbEntity
  8
SUNPOU
370
     9
100
AcDbText
 10
7136.375070294369
 20
12479.56870652696
 30
0.0
 40
108.0
  1
基礎断面図
  7
01
 72
     4
 11
7442.375070294369
 21
12533.56870652696
 31
0.0
100
AcDbText
  0
LINE
  5
24D3F
330
239E6
100
AcDbEntity
  8
KISO
370
     9
100
AcDbLine
 10
3686.577996574848
 20
12111.39529868896
 30
0.0
 11
2773.74192251248
 21
12111.39529868896
 31
0.0
  0
LINE
  5
24D40
330
239E6
100
AcDbEntity
  8
KISO
370
     9
100
AcDbLine
 10
2736.24192251248
 20
11976.39529868897
 30
0.0
 11
3180.327996574848
 21
11976.39529868897
 31
0.0
  0
LINE
  5
24D41
330
239E6
100
AcDbEntity
  8
KISO
370
     9
100
AcDbLine
 10
2736.24192251248
 20
11886.39529868896
 30
0.0
 11
3180.327996574848
 21
11886.39529868896
 31
0.0
  0
LINE
  5
24D42
330
239E6
100
AcDbEntity
  8
HATCH
370
     9
100
AcDbLine
 10
2950.567538398211
 20
12111.39529868896
 30
0.0
 11
2815.567538398211
 21
11976.39529868897
 31
0.0
  0
LINE
  5
24D43
330
239E6
100
AcDbEntity
  8
HATCH
370
     9
100
AcDbLine
 10
2995.11526561295
 20
12111.39529868896
 30
0.0
 11
2860.115265612949
 21
11976.39529868897
 31
0.0
  0
LINE
  5
24D44
330
239E6
100
AcDbEntity
  8
HATCH
370
     9
100
AcDbLine
 10
3039.662992827713
 20
12111.39529868896
 30
0.0
 11
2904.662992827713
 21
11976.39529868897
 31
0.0
  0
LINE
  5
24D45
330
239E6
100
AcDbEntity
  8
HIKIDASHI
370
     9
100
AcDbLine
 10
3807.666787409069
 20
11414.99468857844
 30
0.0
 11
4368.886920885281
 21
11619.2621120347
 31
0.0
  0
LINE
  5
24D46
330
239E6
100
AcDbEntity
  8
HATCH
370
     9
100
AcDbLine
 10
3686.577996574848
 20
11470.59757147421
 30
0.0
 11
3577.375723789599
 21
11361.39529868896
 31
0.0
  0
LINE
  5
24D47
330
239E6
100
AcDbEntity
  8
HATCH
370
     9
100
AcDbLine
 10
3686.577996574848
 20
11515.14529868896
 30
0.0
 11
3532.827996574848
 21
11361.39529868896
 31
0.0
  0
LINE
  5
24D48
330
239E6
100
AcDbEntity
  8
HATCH
370
     9
100
AcDbLine
 10
3686.577996574848
 20
11920.14529868896
 30
0.0
 11
3180.327996574848
 21
11413.89529868896
 31
0.0
  0
LINE
  5
24D49
330
239E6
100
AcDbEntity
  8
HATCH
370
     9
100
AcDbLine
 10
3686.577996574848
 20
11875.59757147421
 30
0.0
 11
3180.327996574848
 21
11369.34757147421
 31
0.0
  0
LINE
  5
24D4A
330
239E6
100
AcDbEntity
  8
HASHIRA
370
     9
100
AcDbLine
 10
3686.577996574848
 20
11361.39529868896
 30
0.0
 11
3686.577996574848
 21
13047.33966082019
 31
0.0
  0
LINE
  5
24D4B
330
239E6
100
AcDbEntity
  8
HASHIRA
370
     9
100
AcDbLine
 10
3799.077996574848
 20
11361.39529868896
 30
0.0
 11
3799.077996574848
 21
13047.33966082019
 31
0.0
  0
LINE
  5
24D4C
330
239E6
100
AcDbEntity
  8
1PL-M1
370
     9
100
AcDbLine
 10
3742.827996574848
 20
11046.39529868896
 30
0.0
 11
3742.827996574848
 21
13227.80011943502
 31
0.0
  0
LINE
  5
24D4D
330
239E6
100
AcDbEntity
  8
KISO
370
     9
100
AcDbLine
 10
4305.327996574848
 20
12111.39529868897
 30
0.0
 11
4305.327996574848
 21
11361.39529868897
 31
0.0
  0
LINE
  5
24D4E
330
239E6
100
AcDbEntity
  8
KISO
370
     9
100
AcDbLine
 10
3180.327996574848
 20
12111.39529868896
 30
0.0
 11
3180.327996574848
 21
11361.39529868896
 31
0.0
  0
LINE
  5
24D4F
330
239E6
100
AcDbEntity
  8
HATCH
370
     9
100
AcDbLine
 10
4305.327996574848
 20
11595.25211704472
 30
0.0
 11
4071.471178219089
 21
11361.39529868896
 31
0.0
  0
LINE
  5
24D50
330
239E6
100
AcDbEntity
  8
HATCH
370
     9
100
AcDbLine
 10
4305.327996574848
 20
11639.79984425947
 30
0.0
 11
4026.923451004349
 21
11361.39529868896
 31
0.0
  0
LINE
  5
24D51
330
239E6
100
AcDbEntity
  8
HATCH
370
     9
100
AcDbLine
 10
4305.327996574848
 20
11684.34757147422
 30
0.0
 11
3982.375723789579
 21
11361.39529868896
 31
0.0
  0
LINE
  5
24D52
330
239E6
100
AcDbEntity
  8
HATCH
370
     9
100
AcDbLine
 10
3686.577996574848
 20
11426.04984425946
 30
0.0
 11
3621.923451004348
 21
11361.39529868896
 31
0.0
  0
SOLID
  5
24D53
330
239E6
100
AcDbEntity
  8
HIKIDASHI
370
     9
100
AcDbTrace
 10
3811.08698884233
 20
11405.59776237058
 30
0.0
 11
3804.24658597582
 21
11424.3916147863
 31
0.0
 12
3751.285230161921
 22
11394.4734799789
 32
0.0
 13
3751.285230161921
 23
11394.4734799789
 33
0.0
  0
LINE
  5
24D54
330
239E6
100
AcDbEntity
  8
HIKIDASHI
370
     9
100
AcDbLine
 10
3718.282555927082
 20
11391.39529868896
 30
0.0
 11
3767.373437222612
 21
11391.39529868896
 31
0.0
  0
LINE
  5
24D55
330
239E6
100
AcDbEntity
  8
HIKIDASHI
370
     9
100
AcDbLine
 10
3718.282555927082
 20
11451.39529868896
 30
0.0
 11
3767.373437222612
 21
11451.39529868896
 31
0.0
  0
CIRCLE
  5
24D56
330
239E6
100
AcDbEntity
  8
HASHIRA
370
     9
100
AcDbCircle
 10
3742.827996574848
 20
11451.39529868896
 30
0.0
 40
9.0
  0
CIRCLE
  5
24D57
330
239E6
100
AcDbEntity
  8
HASHIRA
370
     9
100
AcDbCircle
 10
3742.827996574848
 20
11391.39529868896
 30
0.0
 40
9.0
  0
TEXT
  5
24D58
330
239E6
100
AcDbEntity
  8
SUNPOU
370
     9
100
AcDbText
 10
5086.630590975819
 20
10577.38753938496
 30
0.0
 40
90.0
  1
ベース筋
  7
01
 72
     4
 11
5290.630590975819
 21
10622.38753938496
 31
0.0
100
AcDbText
  0
LINE
  5
24D59
330
239E6
100
AcDbEntity
  8
HATCH
370
     9
100
AcDbLine
 10
5177.650950455671
 20
12111.39529868896
 30
0.0
 11
5042.650950455669
 21
11976.39529868897
 31
0.0
  0
LINE
  5
24D5A
330
239E6
100
AcDbEntity
  8
HATCH
370
     9
100
AcDbLine
 10
5133.103223240908
 20
12111.39529868896
 30
0.0
 11
4998.103223240909
 21
11976.39529868897
 31
0.0
  0
LINE
  5
24D5B
330
239E6
100
AcDbEntity
  8
HIKIDASHI
370
     9
100
AcDbLine
 10
4368.886920885281
 20
11619.2621120347
 30
0.0
 11
5159.846145916679
 21
11619.2621120347
 31
0.0
  0
TEXT
  5
24D5C
330
239E6
100
AcDbEntity
  8
HIKIDASHI
370
     9
100
AcDbText
 10
4659.022986027671
 20
11664.2621120347
 30
0.0
 40
90.0
  1
10   x 350
 41
0.6666666666666666
  7
00
 11
4659.022986027671
 21
11709.2621120347
 31
0.0
100
AcDbText
 73
     2
  0
LINE
  5
24D5D
330
239E6
100
AcDbEntity
  8
KISO
370
     9
100
AcDbLine
 10
4305.327996574848
 20
11886.39529868896
 30
0.0
 11
5692.827996574838
 21
11886.39529868896
 31
0.0
  0
LINE
  5
24D5E
330
239E6
100
AcDbEntity
  8
KISO
370
     9
100
AcDbLine
 10
4305.327996574848
 20
11976.39529868897
 30
0.0
 11
5692.827996574838
 21
11976.39529868897
 31
0.0
  0
LINE
  5
24D5F
330
239E6
100
AcDbEntity
  8
KISO
370
     9
100
AcDbLine
 10
5692.827996574838
 20
12111.39529868897
 30
0.0
 11
3799.077996574848
 21
12111.39529868896
 31
0.0
  0
LINE
  5
24D60
330
239E6
100
AcDbEntity
  8
HATCH
370
     9
100
AcDbLine
 10
4282.827996574837
 20
12111.39529868896
 30
0.0
 11
3799.077996574848
 21
11627.64529868896
 31
0.0
  0
LINE
  5
24D61
330
239E6
100
AcDbEntity
  8
HATCH
370
     9
100
AcDbLine
 10
4305.327996574848
 20
12044.79984425947
 30
0.0
 11
3799.077996574848
 21
11538.54984425946
 31
0.0
  0
LINE
  5
24D62
330
239E6
100
AcDbEntity
  8
HATCH
370
     9
100
AcDbLine
 10
4305.327996574848
 20
12089.34757147422
 30
0.0
 11
3799.077996574848
 21
11583.09757147422
 31
0.0
  0
LINE
  5
24D63
330
239E6
100
AcDbEntity
  8
HATCH
370
     9
100
AcDbLine
 10
3686.577996574848
 20
11964.69302590372
 30
0.0
 11
3180.327996574848
 21
11458.44302590371
 31
0.0
  0
LINE
  5
24D64
330
239E6
100
AcDbEntity
  8
HATCH
370
     9
100
AcDbLine
 10
3383.732542145339
 20
12111.39529868896
 30
0.0
 11
3180.327996574839
 21
11907.99075311847
 31
0.0
  0
LINE
  5
24D65
330
239E6
100
AcDbEntity
  8
HATCH
370
     9
100
AcDbLine
 10
3428.280269360097
 20
12111.39529868896
 30
0.0
 11
3180.327996574848
 21
11863.44302590372
 31
0.0
  0
LINE
  5
24D66
330
239E6
100
AcDbEntity
  8
HATCH
370
     9
100
AcDbLine
 10
3472.827996574848
 20
12111.39529868896
 30
0.0
 11
3180.327996574848
 21
11818.89529868896
 31
0.0
  0
LINE
  5
24D67
330
239E6
100
AcDbEntity
  8
HATCH
370
     9
100
AcDbLine
 10
3877.827996574848
 20
12111.39529868896
 30
0.0
 11
3799.077996574848
 21
12032.64529868896
 31
0.0
  0
LINE
  5
24D68
330
239E6
100
AcDbEntity
  8
HATCH
370
     9
100
AcDbLine
 10
3833.280269360097
 20
12111.39529868896
 30
0.0
 11
3799.077996574848
 21
12077.19302590372
 31
0.0
  0
LINE
  5
24D69
330
239E6
100
AcDbEntity
  8
HATCH
370
     9
100
AcDbLine
 10
3922.375723789599
 20
12111.39529868896
 30
0.0
 11
3799.077996574848
 21
11988.09757147421
 31
0.0
  0
LINE
  5
24D6A
330
239E6
100
AcDbEntity
  8
HATCH
370
     9
100
AcDbLine
 10
4683.555496026161
 20
12111.39529868896
 30
0.0
 11
4548.55549602616
 21
11976.39529868897
 31
0.0
  0
LINE
  5
24D6B
330
239E6
100
AcDbEntity
  8
HATCH
370
     9
100
AcDbLine
 10
4728.103223240909
 20
12111.39529868896
 30
0.0
 11
4593.103223240921
 21
11976.39529868897
 31
0.0
  0
LINE
  5
24D6C
330
239E6
100
AcDbEntity
  8
HATCH
370
     9
100
AcDbLine
 10
4639.007768811409
 20
12111.39529868896
 30
0.0
 11
4504.007768811422
 21
11976.39529868897
 31
0.0
  0
TEXT
  5
24D6D
330
239E6
100
AcDbEntity
  8
HIKIDASHI
370
     9
100
AcDbText
 10
4398.88692088528
 20
11664.2621120347
 30
0.0
 40
90.0
  1
鉄筋
  7
01
 11
4398.88692088528
 21
11709.2621120347
 31
0.0
100
AcDbText
 73
     2
  0
TEXT
  5
24D6E
330
239E6
100
AcDbEntity
  8
HIKIDASHI
370
     9
100
AcDbText
 10
4808.480146923733
 20
11679.2621120347
 30
0.0
 40
90.0
  1
%%c
 41
0.6666666666666666
  7
00
100
AcDbText
  0
LINE
  5
24D6F
330
239E6
100
AcDbEntity
  8
HATCH
370
     9
100
AcDbLine
 10
5088.55549602616
 20
12111.39529868896
 30
0.0
 11
4953.555496026162
 21
11976.39529868897
 31
0.0
  0
LINE
  5
24D70
330
239E6
100
AcDbEntity
  8
SUNPOU
370
     9
100
AcDbLine
 10
5443.445967442647
 20
12201.39529868897
 30
0.0
 11
5495.407491669713
 21
12111.39529868897
 31
0.0
  0
LINE
  5
24D71
330
239E6
100
AcDbEntity
  8
SUNPOU
370
     9
100
AcDbLine
 10
5495.407491669713
 20
12111.39529868897
 30
0.0
 11
5547.36901589678
 21
12201.39529868897
 31
0.0
  0
LINE
  5
24D72
330
239E6
100
AcDbEntity
  8
HATCH
370
     9
100
AcDbLine
 10
5627.198677670413
 20
12111.39529868896
 30
0.0
 11
5492.198677670411
 21
11976.39529868897
 31
0.0
  0
LINE
  5
24D73
330
239E6
100
AcDbEntity
  8
HATCH
370
     9
100
AcDbLine
 10
5582.650950455661
 20
12111.39529868896
 30
0.0
 11
5447.650950455661
 21
11976.39529868897
 31
0.0
  0
LINE
  5
24D74
330
239E6
100
AcDbEntity
  8
HATCH
370
     9
100
AcDbLine
 10
5538.103223240909
 20
12111.39529868896
 30
0.0
 11
5403.103223240909
 21
11976.39529868897
 31
0.0
  0
LINE
  5
24D75
330
239E6
100
AcDbEntity
  8
U3
370
     9
100
AcDbLine
 10
5692.827996574838
 20
11908.89529868897
 30
0.0
 11
5850.327996574847
 21
12066.39529868896
 31
0.0
  0
LINE
  5
24D76
330
239E6
100
AcDbEntity
  8
KISO
370
     9
100
AcDbLine
 10
5692.827996574838
 20
11886.39529868896
 30
0.0
 11
5692.827996574838
 21
12111.39529868896
 31
0.0
  0
LINE
  5
24D77
330
239E6
100
AcDbEntity
  8
U3
370
     9
100
AcDbLine
 10
5754.86858111466
 20
11970.93588322878
 30
0.0
 11
5816.909165654482
 21
11908.89529868897
 31
0.0
  0
LINE
  5
24D78
330
239E6
100
AcDbEntity
  8
U3
370
     9
100
AcDbLine
 10
5692.827996574847
 20
12004.35471414915
 30
0.0
 11
5754.868581114672
 21
12066.39529868896
 31
0.0
  0
TEXT
  5
24D79
330
239E6
100
AcDbEntity
  8
SUNPOU
370
     9
100
AcDbText
 10
5426.836063098284
 20
12246.39529868897
 30
0.0
 40
90.0
  1
F.L
 41
0.6666666666666666
  7
00
 72
     4
 11
5495.407491669713
 21
12291.39529868897
 31
0.0
100
AcDbText
  0
LINE
  5
24D7A
330
239E6
100
AcDbEntity
  8
SUNPOU
370
     9
100
AcDbLine
 10
5547.36901589678
 20
12201.39529868897
 30
0.0
 11
5443.445967442647
 21
12201.39529868897
 31
0.0
  0
TEXT
  5
24D7B
330
239E6
100
AcDbEntity
  8
SUNPOU
370
     9
100
AcDbText
 10
5573.450672418472
 20
10577.38753938496
 30
0.0
 40
90.0
  1
5-D13\U+00D75-D13
 41
0.6700000000000001
  7
01
 72
     4
 11
5916.873529561329
 21
10622.38753938496
 31
0.0
100
AcDbText
  0
TEXT
  5
24D7C
330
239E6
100
AcDbEntity
  8
SUNPOU
370
     9
100
AcDbText
 10
6029.960161001716
 20
12201.39529868897
 30
0.0
 40
90.0
  1
G.L
 41
0.6666666666666666
  7
00
 72
     4
 11
6101.388732430288
 21
12246.39529868897
 31
0.0
100
AcDbText
  0
LINE
  5
24D7D
330
239E6
100
AcDbEntity
  8
SUNPOU
370
     9
100
AcDbLine
 10
6153.350256657362
 20
12156.39529868897
 30
0.0
 11
6049.427208203216
 21
12156.39529868897
 31
0.0
  0
LINE
  5
24D7E
330
239E6
100
AcDbEntity
  8
SUNPOU
370
     9
100
AcDbLine
 10
6049.427208203216
 20
12156.39529868897
 30
0.0
 11
6101.388732430288
 21
12066.39529868896
 31
0.0
  0
LINE
  5
24D7F
330
239E6
100
AcDbEntity
  8
U3
370
     9
100
AcDbLine
 10
6069.868581114661
 20
11970.93588322878
 30
0.0
 11
6131.90916565448
 21
11908.89529868897
 31
0.0
  0
LINE
  5
24D80
330
239E6
100
AcDbEntity
  8
U3
370
     9
100
AcDbLine
 10
6384.868581114661
 20
12066.39529868897
 30
0.0
 11
5692.827996574838
 21
12066.39529868896
 31
0.0
  0
LINE
  5
24D81
330
239E6
100
AcDbEntity
  8
U3
370
     9
100
AcDbLine
 10
6007.827996574847
 20
11908.89529868897
 30
0.0
 11
6165.327996574838
 21
12066.39529868896
 31
0.0
  0
LINE
  5
24D82
330
239E6
100
AcDbEntity
  8
U3
370
     9
100
AcDbLine
 10
5802.598288844747
 20
12018.66559095887
 30
0.0
 11
5912.368581114661
 21
11908.89529868897
 31
0.0
  0
LINE
  5
24D83
330
239E6
100
AcDbEntity
  8
U3
370
     9
100
AcDbLine
 10
5850.327996574847
 20
12066.39529868896
 30
0.0
 11
6007.827996574847
 21
11908.89529868897
 31
0.0
  0
LINE
  5
24D84
330
239E6
100
AcDbEntity
  8
U3
370
     9
100
AcDbLine
 10
5960.098288844747
 20
11956.62500641906
 30
0.0
 11
6069.868581114661
 21
12066.39529868896
 31
0.0
  0
LINE
  5
24D85
330
239E6
100
AcDbEntity
  8
U3
370
     9
100
AcDbLine
 10
5912.368581114661
 20
12004.35471414915
 30
0.0
 11
5974.409165654481
 21
12066.39529868896
 31
0.0
  0
LINE
  5
24D86
330
239E6
100
AcDbEntity
  8
U3
370
     9
100
AcDbLine
 10
6275.098288844747
 20
11956.62500641906
 30
0.0
 11
6384.868581114661
 21
12066.39529868897
 31
0.0
  0
LINE
  5
24D87
330
239E6
100
AcDbEntity
  8
U3
370
     9
100
AcDbLine
 10
6165.327996574838
 20
12066.39529868896
 30
0.0
 11
6322.827996574837
 21
11908.89529868897
 31
0.0
  0
LINE
  5
24D88
330
239E6
100
AcDbEntity
  8
U3
370
     9
100
AcDbLine
 10
6117.598288844747
 20
12018.66559095887
 30
0.0
 11
6227.36858111466
 21
11908.89529868897
 31
0.0
  0
LINE
  5
24D89
330
239E6
100
AcDbEntity
  8
SUNPOU
370
     9
100
AcDbLine
 10
6101.388732430288
 20
12066.39529868896
 30
0.0
 11
6153.350256657362
 21
12156.39529868897
 31
0.0
  0
LINE
  5
24D8A
330
239E6
100
AcDbEntity
  8
U3
370
     9
100
AcDbLine
 10
6227.36858111466
 20
12004.35471414915
 30
0.0
 11
6289.409165654468
 21
12066.39529868896
 31
0.0
  0
LINE
  5
24D8C
330
239E6
100
AcDbEntity
  8
KISO
370
     9
100
AcDbLine
 10
3030.327996574839
 20
11211.39529868897
 30
0.0
 11
4455.327996574837
 21
11211.39529868897
 31
0.0
  0
LINE
  5
24D8D
330
239E6
100
AcDbEntity
  8
KISO
370
     9
100
AcDbLine
 10
3030.327996574848
 20
11211.39529868897
 30
0.0
 11
3030.327996574848
 21
11361.39529868896
 31
0.0
  0
LINE
  5
24D8E
330
239E6
100
AcDbEntity
  8
KISO
370
     9
100
AcDbLine
 10
4455.327996574837
 20
11211.39529868897
 30
0.0
 11
4455.327996574837
 21
11361.39529868896
 31
0.0
  0
LINE
  5
24D8F
330
239E6
100
AcDbEntity
  8
KISO
370
     9
100
AcDbLine
 10
3030.327996574848
 20
11361.39529868896
 30
0.0
 11
4455.327996574837
 21
11361.39529868896
 31
0.0
  0
LINE
  5
24D90
330
239E6
100
AcDbEntity
  8
SUNPOU
370
     9
100
AcDbLine
 10
4485.327996574848
 20
11361.39529868896
 30
0.0
 11
5937.827996574847
 21
11361.39529868896
 31
0.0
  0
LINE
  5
24D91
330
239E6
100
AcDbEntity
  8
SUNPOU
370
     9
100
AcDbLine
 10
4485.327996574848
 20
11211.39529868897
 30
0.0
 11
5937.827996574847
 21
11211.39529868897
 31
0.0
  0
LINE
  5
24D92
330
239E6
100
AcDbEntity
  8
SUNPOU
370
     9
100
AcDbLine
 10
5892.827996574848
 20
11346.39529868896
 30
0.0
 11
5892.827996574848
 21
11226.39529868897
 31
0.0
  0
LINE
  5
24D93
330
239E6
100
AcDbEntity
  8
SUNPOU
370
     9
100
AcDbLine
 10
5892.827996574848
 20
11211.39529868897
 30
0.0
 11
5892.827996574848
 21
10960.68101297468
 31
0.0
  0
LINE
  5
24D94
330
239E6
100
AcDbEntity
  8
SUNPOU
370
     9
100
AcDbLine
 10
5722.827996574847
 20
12111.39529868897
 30
0.0
 11
5937.827996574847
 21
12111.39529868897
 31
0.0
  0
LINE
  5
24D95
330
239E6
100
AcDbEntity
  8
SUNPOU
370
     9
100
AcDbLine
 10
4485.327996574848
 20
11361.39529868897
 30
0.0
 11
5937.827996574847
 21
11361.39529868897
 31
0.0
  0
LINE
  5
24D96
330
239E6
100
AcDbEntity
  8
SUNPOU
370
     9
100
AcDbLine
 10
5892.827996574848
 20
12096.39529868897
 30
0.0
 11
5892.827996574848
 21
11376.39529868897
 31
0.0
  0
LINE
  5
24D97
330
239E6
100
AcDbEntity
  8
SUNPOU
370
     9
100
AcDbLine
 10
3180.327996574839
 20
11181.39529868897
 30
0.0
 11
3180.327996574839
 21
10836.39529868897
 31
0.0
  0
LINE
  5
24D98
330
239E6
100
AcDbEntity
  8
SUNPOU
370
     9
100
AcDbLine
 10
4305.327996574837
 20
11181.39529868897
 30
0.0
 11
4305.327996574837
 21
10836.39529868897
 31
0.0
  0
LINE
  5
24D99
330
239E6
100
AcDbEntity
  8
SUNPOU
370
     9
100
AcDbLine
 10
3180.327996574848
 20
10881.39529868896
 30
0.0
 11
4305.327996574848
 21
10881.39529868896
 31
0.0
  0
LINE
  5
24D9A
330
239E6
100
AcDbEntity
  8
SUNPOU
370
     9
100
AcDbLine
 10
3030.327996574839
 20
11181.39529868897
 30
0.0
 11
3030.327996574839
 21
10626.39529868897
 31
0.0
  0
LINE
  5
24D9B
330
239E6
100
AcDbEntity
  8
SUNPOU
370
     9
100
AcDbLine
 10
4455.327996574837
 20
11181.39529868897
 30
0.0
 11
4455.327996574837
 21
10626.39529868897
 31
0.0
  0
LINE
  5
24D9C
330
239E6
100
AcDbEntity
  8
SUNPOU
370
     9
100
AcDbLine
 10
3030.327996574848
 20
10671.39529868897
 30
0.0
 11
4455.327996574837
 21
10671.39529868897
 31
0.0
  0
TEXT
  5
24DD3
330
239E6
100
AcDbEntity
  8
SUNPOU
370
     9
100
AcDbText
 10
3598.827996574848
 20
10716.39529868896
 30
0.0
 40
90.0
  1
950 □
 41
0.6666666666666666
  7
00
100
AcDbText
  0
LINE
  5
24DD4
330
239E6
100
AcDbEntity
  8
SUNPOU
370
     9
100
AcDbLine
 10
4444.077996574836
 20
10671.39529868897
 30
0.0
 11
4432.827996574837
 21
10671.39529868897
 31
0.0
  0
LINE
  5
24DD5
330
239E6
100
AcDbEntity
  8
SUNPOU
370
     9
100
AcDbLine
 10
3041.577996574839
 20
10671.39529868897
 30
0.0
 11
3052.827996574848
 21
10671.39529868897
 31
0.0
  0
TEXT
  5
24DD6
330
239E6
100
AcDbEntity
  8
SUNPOU
370
     9
100
AcDbText
 10
3598.827996574848
 20
10926.39529868896
 30
0.0
 40
90.0
  1
750 □
 41
0.6666666666666666
  7
00
100
AcDbText
  0
LINE
  5
24DD7
330
239E6
100
AcDbEntity
  8
SUNPOU
370
     9
100
AcDbLine
 10
4294.077996574837
 20
10881.39529868896
 30
0.0
 11
4282.827996574837
 21
10881.39529868896
 31
0.0
  0
LINE
  5
24DD8
330
239E6
100
AcDbEntity
  8
SUNPOU
370
     9
100
AcDbLine
 10
3191.577996574839
 20
10881.39529868896
 30
0.0
 11
3202.827996574839
 21
10881.39529868896
 31
0.0
  0
TEXT
  5
24DD9
330
239E6
100
AcDbEntity
  8
SUNPOU
370
     9
100
AcDbText
 10
5847.827996574847
 20
11650.68101297468
 30
0.0
 40
90.0
  1
500
 50
90.0
 41
0.6666666666666666
  7
00
100
AcDbText
  0
LINE
  5
24DDA
330
239E6
100
AcDbEntity
  8
SUNPOU
370
     9
100
AcDbLine
 10
5892.827996574848
 20
11372.64529868897
 30
0.0
 11
5892.827996574848
 21
11383.89529868897
 31
0.0
  0
LINE
  5
24DDB
330
239E6
100
AcDbEntity
  8
SUNPOU
370
     9
100
AcDbLine
 10
5892.827996574848
 20
12100.14529868897
 30
0.0
 11
5892.827996574848
 21
12088.89529868897
 31
0.0
  0
TEXT
  5
24DDC
330
239E6
100
AcDbEntity
  8
SUNPOU
370
     9
100
AcDbText
 10
5847.827996574847
 20
10988.53815583182
 30
0.0
 40
90.0
  1
100
 50
90.0
 41
0.6666666666666666
  7
00
100
AcDbText
  0
LINE
  5
24DDD
330
239E6
100
AcDbEntity
  8
SUNPOU
370
     9
100
AcDbLine
 10
5892.827996574848
 20
11222.64529868897
 30
0.0
 11
5892.827996574848
 21
11233.89529868897
 31
0.0
  0
LINE
  5
24DDE
330
239E6
100
AcDbEntity
  8
SUNPOU
370
     9
100
AcDbLine
 10
5892.827996574848
 20
11350.14529868896
 30
0.0
 11
5892.827996574848
 21
11338.89529868896
 31
0.0
  0
ARC
  5
24DDF
330
239E6
100
AcDbEntity
  8
SUNPOU
370
     9
100
AcDbCircle
 10
5892.827996574848
 20
11361.39529868896
 30
0.0
 40
5.625
100
AcDbArc
 50
270.0
 51
90.0
  0
ARC
  5
24DE0
330
239E6
100
AcDbEntity
  8
SUNPOU
370
     9
100
AcDbCircle
 10
5892.827996574848
 20
11361.39529868896
 30
0.0
 40
5.625
100
AcDbArc
 50
90.0
 51
270.0
  0
ARC
  5
24DE1
330
239E6
100
AcDbEntity
  8
SUNPOU
370
     9
100
AcDbCircle
 10
5892.827996574848
 20
11211.39529868897
 30
0.0
 40
5.625
100
AcDbArc
 50
90.0
 51
270.0
  0
ARC
  5
24DE2
330
239E6
100
AcDbEntity
  8
SUNPOU
370
     9
100
AcDbCircle
 10
5892.827996574848
 20
11211.39529868897
 30
0.0
 40
5.625
100
AcDbArc
 50
270.0
 51
90.0
  0
ARC
  5
24DE3
330
239E6
100
AcDbEntity
  8
SUNPOU
370
     9
100
AcDbCircle
 10
5892.827996574848
 20
12111.39529868897
 30
0.0
 40
5.625
100
AcDbArc
 50
270.0
 51
90.0
  0
ARC
  5
24DE4
330
239E6
100
AcDbEntity
  8
SUNPOU
370
     9
100
AcDbCircle
 10
5892.827996574848
 20
12111.39529868897
 30
0.0
 40
5.625
100
AcDbArc
 50
90.0
 51
270.0
  0
ARC
  5
24DE5
330
239E6
100
AcDbEntity
  8
SUNPOU
370
     9
100
AcDbCircle
 10
5892.827996574848
 20
11361.39529868897
 30
0.0
 40
5.625
100
AcDbArc
 50
90.0
 51
270.0
  0
ARC
  5
24DE6
330
239E6
100
AcDbEntity
  8
SUNPOU
370
     9
100
AcDbCircle
 10
5892.827996574848
 20
11361.39529868897
 30
0.0
 40
5.625
100
AcDbArc
 50
270.0
 51
90.0
  0
ARC
  5
24DE7
330
239E6
100
AcDbEntity
  8
SUNPOU
370
     9
100
AcDbCircle
 10
3180.327996574839
 20
10881.39529868896
 30
0.0
 40
5.625
100
AcDbArc
 50
0.0
 51
180.0
  0
ARC
  5
24DE8
330
239E6
100
AcDbEntity
  8
SUNPOU
370
     9
100
AcDbCircle
 10
3180.327996574839
 20
10881.39529868896
 30
0.0
 40
5.625
100
AcDbArc
 50
180.0
 51
0.0
  0
ARC
  5
24DE9
330
239E6
100
AcDbEntity
  8
SUNPOU
370
     9
100
AcDbCircle
 10
4305.327996574837
 20
10881.39529868896
 30
0.0
 40
5.625
100
AcDbArc
 50
180.0
 51
0.0
  0
ARC
  5
24DEA
330
239E6
100
AcDbEntity
  8
SUNPOU
370
     9
100
AcDbCircle
 10
4305.327996574837
 20
10881.39529868896
 30
0.0
 40
5.625
100
AcDbArc
 50
0.0
 51
180.0
  0
ARC
  5
24DEB
330
239E6
100
AcDbEntity
  8
SUNPOU
370
     9
100
AcDbCircle
 10
3030.327996574839
 20
10671.39529868897
 30
0.0
 40
5.625
100
AcDbArc
 50
0.0
 51
180.0
  0
ARC
  5
24DEC
330
239E6
100
AcDbEntity
  8
SUNPOU
370
     9
100
AcDbCircle
 10
3030.327996574839
 20
10671.39529868897
 30
0.0
 40
5.625
100
AcDbArc
 50
180.0
 51
0.0
  0
ARC
  5
24DED
330
239E6
100
AcDbEntity
  8
SUNPOU
370
     9
100
AcDbCircle
 10
4455.327996574837
 20
10671.39529868897
 30
0.0
 40
5.625
100
AcDbArc
 50
180.0
 51
0.0
  0
ARC
  5
24DEE
330
239E6
100
AcDbEntity
  8
SUNPOU
370
     9
100
AcDbCircle
 10
4455.327996574837
 20
10671.39529868897
 30
0.0
 40
5.625
100
AcDbArc
 50
0.0
 51
180.0
  0
CIRCLE
  5
24DEF
330
239E6
100
AcDbEntity
  8
HIKIDASHI
370
     9
100
AcDbCircle
 10
3742.827996574848
 20
11451.39529868896
 30
0.0
 40
9.0
  0
CIRCLE
  5
24DF0
330
239E6
100
AcDbEntity
  8
HIKIDASHI
370
     9
100
AcDbCircle
 10
3742.827996574848
 20
11391.39529868896
 30
0.0
 40
9.0
  0
ARC
  5
24DF1
330
239E6
100
AcDbEntity
  8
HIKIDASHI
370
     9
100
AcDbCircle
 10
3742.827996574848
 20
11391.39529868896
 30
0.0
 40
4.5
100
AcDbArc
 50
180.0
 51
0.0
  0
ARC
  5
24DF2
330
239E6
100
AcDbEntity
  8
HIKIDASHI
370
     9
100
AcDbCircle
 10
3742.827996574848
 20
11391.39529868896
 30
0.0
 40
4.5
100
AcDbArc
 50
0.0
 51
180.0
  0
ARC
  5
24DF3
330
239E6
100
AcDbEntity
  8
HIKIDASHI
370
     9
100
AcDbCircle
 10
3742.827996574848
 20
11451.39529868896
 30
0.0
 40
4.5
100
AcDbArc
 50
180.0
 51
0.0
  0
ARC
  5
24DF4
330
239E6
100
AcDbEntity
  8
HIKIDASHI
370
     9
100
AcDbCircle
 10
3742.827996574848
 20
11451.39529868896
 30
0.0
 40
4.5
100
AcDbArc
 50
0.0
 51
180.0
  0
LINE
  5
24DF5
330
239E6
100
AcDbEntity
  8
HATCH
370
     9
100
AcDbLine
 10
3137.026726385629
 20
11211.39529868896
 30
0.0
 11
3223.629266764059
 21
11361.39529868894
 31
0.0
  0
LINE
  5
24DF6
330
239E6
100
AcDbEntity
  8
HATCH
370
     9
100
AcDbLine
 10
3163.629266764071
 20
11361.39529868894
 30
0.0
 11
3193.62926676407
 21
11309.43377446188
 31
0.0
  0
LINE
  5
24DF7
330
239E6
100
AcDbEntity
  8
HATCH
370
     9
100
AcDbLine
 10
3167.02672638563
 20
11263.35682291602
 30
0.0
 11
3197.026726385621
 21
11211.39529868896
 31
0.0
  0
LINE
  5
24DF8
330
239E6
100
AcDbEntity
  8
HATCH
370
     9
100
AcDbLine
 10
3324.526726385629
 20
11211.39529868896
 30
0.0
 11
3411.129266764059
 21
11361.39529868894
 31
0.0
  0
LINE
  5
24DF9
330
239E6
100
AcDbEntity
  8
HATCH
370
     9
100
AcDbLine
 10
3351.129266764071
 20
11361.39529868894
 30
0.0
 11
3381.12926676407
 21
11309.43377446188
 31
0.0
  0
LINE
  5
24DFA
330
239E6
100
AcDbEntity
  8
HATCH
370
     9
100
AcDbLine
 10
3354.52672638562
 20
11263.35682291602
 30
0.0
 11
3384.52672638562
 21
11211.39529868896
 31
0.0
  0
LINE
  5
24DFB
330
239E6
100
AcDbEntity
  8
HATCH
370
     9
100
AcDbLine
 10
4262.02672638563
 20
11211.39529868896
 30
0.0
 11
4348.629266764059
 21
11361.39529868894
 31
0.0
  0
LINE
  5
24DFC
330
239E6
100
AcDbEntity
  8
HATCH
370
     9
100
AcDbLine
 10
4288.62926676407
 20
11361.39529868894
 30
0.0
 11
4318.629266764069
 21
11309.43377446189
 31
0.0
  0
LINE
  5
24DFD
330
239E6
100
AcDbEntity
  8
HATCH
370
     9
100
AcDbLine
 10
4292.026726385629
 20
11263.35682291602
 30
0.0
 11
4322.026726385618
 21
11211.39529868896
 31
0.0
  0
LINE
  5
24DFE
330
239E6
100
AcDbEntity
  8
HATCH
370
     9
100
AcDbLine
 10
4074.52672638563
 20
11211.39529868896
 30
0.0
 11
4161.12926676407
 21
11361.39529868894
 31
0.0
  0
LINE
  5
24DFF
330
239E6
100
AcDbEntity
  8
HATCH
370
     9
100
AcDbLine
 10
4101.12926676407
 20
11361.39529868894
 30
0.0
 11
4131.129266764069
 21
11309.43377446189
 31
0.0
  0
LINE
  5
24E00
330
239E6
100
AcDbEntity
  8
HATCH
370
     9
100
AcDbLine
 10
4104.526726385629
 20
11263.35682291602
 30
0.0
 11
4134.526726385618
 21
11211.39529868896
 31
0.0
  0
LINE
  5
24E01
330
239E6
100
AcDbEntity
  8
HATCH
370
     9
100
AcDbLine
 10
3699.52672638563
 20
11211.39529868896
 30
0.0
 11
3786.129266764059
 21
11361.39529868894
 31
0.0
  0
LINE
  5
24E02
330
239E6
100
AcDbEntity
  8
HATCH
370
     9
100
AcDbLine
 10
3726.129266764071
 20
11361.39529868894
 30
0.0
 11
3756.129266764071
 21
11309.43377446189
 31
0.0
  0
LINE
  5
24E03
330
239E6
100
AcDbEntity
  8
HATCH
370
     9
100
AcDbLine
 10
3729.526726385631
 20
11263.35682291602
 30
0.0
 11
3759.526726385621
 21
11211.39529868896
 31
0.0
  0
LINE
  5
24E04
330
239E6
100
AcDbEntity
  8
HATCH
370
     9
100
AcDbLine
 10
3512.02672638563
 20
11211.39529868896
 30
0.0
 11
3598.629266764059
 21
11361.39529868894
 31
0.0
  0
LINE
  5
24E05
330
239E6
100
AcDbEntity
  8
HATCH
370
     9
100
AcDbLine
 10
3538.629266764071
 20
11361.39529868894
 30
0.0
 11
3568.629266764071
 21
11309.43377446189
 31
0.0
  0
LINE
  5
24E06
330
239E6
100
AcDbEntity
  8
HATCH
370
     9
100
AcDbLine
 10
3542.02672638562
 20
11263.35682291602
 30
0.0
 11
3572.026726385621
 21
11211.39529868896
 31
0.0
  0
LINE
  5
24E07
330
239E6
100
AcDbEntity
  8
HATCH
370
     9
100
AcDbLine
 10
3887.02672638563
 20
11211.39529868896
 30
0.0
 11
3973.629266764071
 21
11361.39529868894
 31
0.0
  0
LINE
  5
24E08
330
239E6
100
AcDbEntity
  8
HATCH
370
     9
100
AcDbLine
 10
3913.62926676407
 20
11361.39529868894
 30
0.0
 11
3943.629266764071
 21
11309.43377446189
 31
0.0
  0
LINE
  5
24E09
330
239E6
100
AcDbEntity
  8
HATCH
370
     9
100
AcDbLine
 10
3917.026726385631
 20
11263.35682291602
 30
0.0
 11
3947.026726385619
 21
11211.39529868896
 31
0.0
  0
LINE
  5
24E0A
330
239E6
100
AcDbEntity
  8
HATCH
370
     9
100
AcDbLine
 10
5640.866472347887
 20
11886.39529868897
 30
0.0
 11
5692.827996574997
 21
11976.39529868904
 31
0.0
  0
LINE
  5
24E0B
330
239E6
100
AcDbEntity
  8
HATCH
370
     9
100
AcDbLine
 10
5656.827996574971
 20
11976.39529868904
 30
0.0
 11
5674.827996574979
 21
11945.21838415278
 31
0.0
  0
LINE
  5
24E0C
330
239E6
100
AcDbEntity
  8
HATCH
370
     9
100
AcDbLine
 10
5658.866472347898
 20
11917.57221322524
 30
0.0
 11
5676.86647234792
 21
11886.39529868897
 31
0.0
  0
LINE
  5
24E0D
330
239E6
100
AcDbEntity
  8
HATCH
370
     9
100
AcDbLine
 10
5505.86647234788
 20
11886.39529868897
 30
0.0
 11
5557.82799657499
 21
11976.39529868904
 31
0.0
  0
LINE
  5
24E0E
330
239E6
100
AcDbEntity
  8
HATCH
370
     9
100
AcDbLine
 10
5521.827996574961
 20
11976.39529868904
 30
0.0
 11
5539.827996574979
 21
11945.21838415278
 31
0.0
  0
LINE
  5
24E0F
330
239E6
100
AcDbEntity
  8
HATCH
370
     9
100
AcDbLine
 10
5523.866472347897
 20
11917.57221322524
 30
0.0
 11
5541.866472347908
 21
11886.39529868897
 31
0.0
  0
LINE
  5
24E10
330
239E6
100
AcDbEntity
  8
HATCH
370
     9
100
AcDbLine
 10
5370.866472347887
 20
11886.39529868897
 30
0.0
 11
5422.82799657499
 21
11976.39529868904
 31
0.0
  0
LINE
  5
24E11
330
239E6
100
AcDbEntity
  8
HATCH
370
     9
100
AcDbLine
 10
5386.827996574972
 20
11976.39529868904
 30
0.0
 11
5404.827996574979
 21
11945.21838415278
 31
0.0
  0
LINE
  5
24E12
330
239E6
100
AcDbEntity
  8
HATCH
370
     9
100
AcDbLine
 10
5388.866472347898
 20
11917.57221322524
 30
0.0
 11
5406.866472347909
 21
11886.39529868897
 31
0.0
  0
LINE
  5
24E13
330
239E6
100
AcDbEntity
  8
HATCH
370
     9
100
AcDbLine
 10
5235.866472347886
 20
11886.39529868897
 30
0.0
 11
5287.827996574989
 21
11976.39529868904
 31
0.0
  0
LINE
  5
24E14
330
239E6
100
AcDbEntity
  8
HATCH
370
     9
100
AcDbLine
 10
5251.827996574972
 20
11976.39529868904
 30
0.0
 11
5269.827996574979
 21
11945.21838415278
 31
0.0
  0
LINE
  5
24E15
330
239E6
100
AcDbEntity
  8
HATCH
370
     9
100
AcDbLine
 10
5253.866472347898
 20
11917.57221322523
 30
0.0
 11
5271.866472347909
 21
11886.39529868897
 31
0.0
  0
LINE
  5
24E16
330
239E6
100
AcDbEntity
  8
HATCH
370
     9
100
AcDbLine
 10
4965.86647234788
 20
11886.39529868897
 30
0.0
 11
5017.827996574997
 21
11976.39529868904
 31
0.0
  0
LINE
  5
24E17
330
239E6
100
AcDbEntity
  8
HATCH
370
     9
100
AcDbLine
 10
4981.82799657497
 20
11976.39529868904
 30
0.0
 11
4999.827996574978
 21
11945.21838415278
 31
0.0
  0
LINE
  5
24E18
330
239E6
100
AcDbEntity
  8
HATCH
370
     9
100
AcDbLine
 10
4983.866472347898
 20
11917.57221322523
 30
0.0
 11
5001.866472347909
 21
11886.39529868897
 31
0.0
  0
LINE
  5
24E19
330
239E6
100
AcDbEntity
  8
HATCH
370
     9
100
AcDbLine
 10
4695.866472347886
 20
11886.39529868897
 30
0.0
 11
4747.827996574996
 21
11976.39529868904
 31
0.0
  0
LINE
  5
24E1A
330
239E6
100
AcDbEntity
  8
HATCH
370
     9
100
AcDbLine
 10
4711.82799657497
 20
11976.39529868904
 30
0.0
 11
4729.827996574979
 21
11945.21838415278
 31
0.0
  0
LINE
  5
24E1B
330
239E6
100
AcDbEntity
  8
HATCH
370
     9
100
AcDbLine
 10
4713.866472347898
 20
11917.57221322523
 30
0.0
 11
4731.866472347909
 21
11886.39529868897
 31
0.0
  0
LINE
  5
24E1C
330
239E6
100
AcDbEntity
  8
HATCH
370
     9
100
AcDbLine
 10
4830.866472347887
 20
11886.39529868897
 30
0.0
 11
4882.82799657499
 21
11976.39529868904
 31
0.0
  0
LINE
  5
24E1D
330
239E6
100
AcDbEntity
  8
HATCH
370
     9
100
AcDbLine
 10
4846.827996574972
 20
11976.39529868904
 30
0.0
 11
4864.827996574979
 21
11945.21838415278
 31
0.0
  0
LINE
  5
24E1E
330
239E6
100
AcDbEntity
  8
HATCH
370
     9
100
AcDbLine
 10
4848.866472347896
 20
11917.57221322524
 30
0.0
 11
4866.866472347918
 21
11886.39529868897
 31
0.0
  0
LINE
  5
24E1F
330
239E6
100
AcDbEntity
  8
HATCH
370
     9
100
AcDbLine
 10
4425.866472347887
 20
11886.39529868897
 30
0.0
 11
4477.82799657499
 21
11976.39529868904
 31
0.0
  0
LINE
  5
24E20
330
239E6
100
AcDbEntity
  8
HATCH
370
     9
100
AcDbLine
 10
4441.82799657497
 20
11976.39529868904
 30
0.0
 11
4459.827996574978
 21
11945.21838415278
 31
0.0
  0
LINE
  5
24E21
330
239E6
100
AcDbEntity
  8
HATCH
370
     9
100
AcDbLine
 10
4443.866472347898
 20
11917.57221322523
 30
0.0
 11
4461.86647234792
 21
11886.39529868897
 31
0.0
  0
LINE
  5
24E22
330
239E6
100
AcDbEntity
  8
HATCH
370
     9
100
AcDbLine
 10
4305.327996574948
 20
11886.39529868897
 30
0.0
 11
4357.28952080206
 21
11976.39529868904
 31
0.0
  0
LINE
  5
24E23
330
239E6
100
AcDbEntity
  8
HATCH
370
     9
100
AcDbLine
 10
4321.289520802027
 20
11976.39529868904
 30
0.0
 11
4339.289520802049
 21
11945.21838415278
 31
0.0
  0
LINE
  5
24E24
330
239E6
100
AcDbEntity
  8
HATCH
370
     9
100
AcDbLine
 10
4323.32799657497
 20
11917.57221322523
 30
0.0
 11
4341.327996574977
 21
11886.39529868897
 31
0.0
  0
LINE
  5
24E25
330
239E6
100
AcDbEntity
  8
HATCH
370
     9
100
AcDbLine
 10
4560.866472347878
 20
11886.39529868897
 30
0.0
 11
4612.827996574997
 21
11976.39529868904
 31
0.0
  0
LINE
  5
24E26
330
239E6
100
AcDbEntity
  8
HATCH
370
     9
100
AcDbLine
 10
4576.827996574972
 20
11976.39529868904
 30
0.0
 11
4594.827996574979
 21
11945.21838415278
 31
0.0
  0
LINE
  5
24E27
330
239E6
100
AcDbEntity
  8
HATCH
370
     9
100
AcDbLine
 10
4578.866472347898
 20
11917.57221322523
 30
0.0
 11
4596.866472347907
 21
11886.39529868897
 31
0.0
  0
LINE
  5
24E28
330
239E6
100
AcDbEntity
  8
HATCH
370
     9
100
AcDbLine
 10
3112.827996574948
 20
11886.39529868896
 30
0.0
 11
3164.78952080206
 21
11976.39529868903
 31
0.0
  0
LINE
  5
24E29
330
239E6
100
AcDbEntity
  8
HATCH
370
     9
100
AcDbLine
 10
3128.789520802029
 20
11976.39529868903
 30
0.0
 11
3146.789520802038
 21
11945.21838415278
 31
0.0
  0
LINE
  5
24E2A
330
239E6
100
AcDbEntity
  8
HATCH
370
     9
100
AcDbLine
 10
3130.827996574961
 20
11917.57221322523
 30
0.0
 11
3148.827996574981
 21
11886.39529868896
 31
0.0
  0
LINE
  5
24E2B
330
239E6
100
AcDbEntity
  8
HATCH
370
     9
100
AcDbLine
 10
5100.866472347878
 20
11886.39529868897
 30
0.0
 11
5152.827996574997
 21
11976.39529868904
 31
0.0
  0
LINE
  5
24E2C
330
239E6
100
AcDbEntity
  8
HATCH
370
     9
100
AcDbLine
 10
5116.827996574972
 20
11976.39529868904
 30
0.0
 11
5134.827996574979
 21
11945.21838415278
 31
0.0
  0
LINE
  5
24E2D
330
239E6
100
AcDbEntity
  8
HATCH
370
     9
100
AcDbLine
 10
5118.866472347898
 20
11917.57221322524
 30
0.0
 11
5136.866472347907
 21
11886.39529868897
 31
0.0
  0
LINE
  5
24E2E
330
239E6
100
AcDbEntity
  8
HATCH
370
     9
100
AcDbLine
 10
2977.827996574948
 20
11886.39529868896
 30
0.0
 11
3029.78952080206
 21
11976.39529868903
 31
0.0
  0
LINE
  5
24E2F
330
239E6
100
AcDbEntity
  8
HATCH
370
     9
100
AcDbLine
 10
2993.789520802029
 20
11976.39529868903
 30
0.0
 11
3011.789520802038
 21
11945.21838415278
 31
0.0
  0
LINE
  5
24E30
330
239E6
100
AcDbEntity
  8
HATCH
370
     9
100
AcDbLine
 10
2995.827996574961
 20
11917.57221322523
 30
0.0
 11
3013.827996574982
 21
11886.39529868896
 31
0.0
  0
LINE
  5
24E31
330
239E6
100
AcDbEntity
  8
HATCH
370
     9
100
AcDbLine
 10
2842.827996574948
 20
11886.39529868896
 30
0.0
 11
2894.78952080206
 21
11976.39529868903
 31
0.0
  0
LINE
  5
24E32
330
239E6
100
AcDbEntity
  8
HATCH
370
     9
100
AcDbLine
 10
2858.789520802029
 20
11976.39529868903
 30
0.0
 11
2876.789520802038
 21
11945.21838415278
 31
0.0
  0
LINE
  5
24E33
330
239E6
100
AcDbEntity
  8
HATCH
370
     9
100
AcDbLine
 10
2860.827996574962
 20
11917.57221322523
 30
0.0
 11
2878.827996574981
 21
11886.39529868896
 31
0.0
  0
LINE
  5
24E48
330
239E6
100
AcDbEntity
  8
waku
  6
Continuous
370
     9
100
AcDbLine
 10
11522.72791292294
 20
9568.319999829432
 30
0.0
 11
11527.90069190277
 21
9573.493140689821
 31
0.0
  0
LINE
  5
24E49
330
239E6
100
AcDbEntity
  8
waku
  6
Continuous
370
     9
100
AcDbLine
 10
11628.73291449602
 20
9674.320074256982
 30
0.0
 11
11635.45654730776
 21
9681.04715885434
 31
0.0
  0
LINE
  5
24E4A
330
239E6
100
AcDbEntity
  8
waku
  6
Continuous
370
     9
100
AcDbLine
 10
11553.71826606591
 20
9599.311215918849
 30
0.0
 11
11556.44762628529
 21
9602.038349179762
 31
0.0
  0
LINE
  5
24E4B
330
239E6
100
AcDbEntity
  8
waku
  6
Continuous
370
     9
100
AcDbLine
 10
11573.72436957973
 20
9619.31152934062
 30
0.0
 11
11575.45516165082
 21
9621.047220720292
 31
0.0
  0
LINE
  5
24E4C
330
239E6
100
AcDbEntity
  8
waku
  6
Continuous
370
     9
100
AcDbLine
 10
11559.72927218866
 20
9605.319995083133
 30
0.0
 11
11566.44488795035
 21
9612.03872858649
 31
0.0
  0
LINE
  5
24E4D
330
239E6
100
AcDbEntity
  8
waku
  6
Continuous
370
     9
100
AcDbLine
 10
11547.29126411353
 20
9599.311215918849
 30
0.0
 11
11550.01795198271
 21
9602.038349179762
 31
0.0
  0
LINE
  5
24E4E
330
239E6
100
AcDbEntity
  8
waku
  6
Continuous
370
     9
100
AcDbLine
 10
11628.73291449602
 20
9680.747966992829
 30
0.0
 11
11635.45654730776
 21
9687.475107264141
 31
0.0
  0
LINE
  5
24E4F
330
239E6
100
AcDbEntity
  8
waku
  6
Continuous
370
     9
100
AcDbLine
 10
11559.72927218866
 20
9611.74788781898
 30
0.0
 11
11560.02055834789
 21
9612.03872858649
 31
0.0
  0
LINE
  5
24E50
330
239E6
100
AcDbEntity
  8
waku
  6
Continuous
370
     9
100
AcDbLine
 10
11597.29271575544
 20
9649.311776777429
 30
0.0
 11
11601.45712797004
 21
9653.475298208618
 31
0.0
  0
LINE
  5
24E51
330
239E6
100
AcDbEntity
  8
waku
  6
Continuous
370
     9
100
AcDbLine
 10
11568.72885648881
 20
9620.748808294244
 30
0.0
 11
11575.45516165082
 21
9627.476004239511
 31
0.0
  0
LINE
  5
24E52
330
239E6
100
AcDbEntity
  8
waku
  6
Continuous
370
     9
100
AcDbLine
 10
11507.0064773777
 20
9565.450703111451
 30
0.0
 11
11525.4546007923
 21
9583.903781508439
 31
0.0
  0
LINE
  5
24E53
330
239E6
100
AcDbEntity
  8
waku
  6
Continuous
370
     9
100
AcDbLine
 10
11628.73291449602
 20
9687.17630512036
 30
0.0
 11
11633.58946538237
 21
9692.039091490221
 31
0.0
  0
LINE
  5
24E54
330
239E6
100
AcDbEntity
  8
waku
  6
Continuous
370
     9
100
AcDbLine
 10
11540.86693451115
 20
9599.311215918849
 30
0.0
 11
11543.59095003034
 21
9602.038349179762
 31
0.0
  0
LINE
  5
24E55
330
239E6
100
AcDbEntity
  8
waku
  6
Continuous
370
     9
100
AcDbLine
 10
11592.73368651185
 20
9651.176631744528
 30
0.0
 11
11601.45712797004
 21
9659.903636336125
 31
0.0
  0
LINE
  5
24E56
330
239E6
100
AcDbEntity
  8
waku
  6
Continuous
370
     9
100
AcDbLine
 10
11568.72885648881
 20
9627.176199964448
 30
0.0
 11
11575.45516165082
 21
9633.90345158367
 31
0.0
  0
LINE
  5
24E57
330
239E6
100
AcDbEntity
  8
waku
  6
Continuous
370
     9
100
AcDbLine
 10
11492.72811087794
 20
9557.604738938222
 30
0.0
 11
11525.4546007923
 21
9590.331674244286
 31
0.0
  0
LINE
  5
24E58
330
239E6
100
AcDbEntity
  8
waku
  6
Continuous
370
     9
100
AcDbLine
 10
11592.73368651185
 20
9657.604580154327
 30
0.0
 11
11601.45712797004
 21
9666.331974463659
 31
0.0
  0
LINE
  5
24E59
330
239E6
100
AcDbEntity
  8
waku
  6
Continuous
370
     9
100
AcDbLine
 10
11534.43993255866
 20
9599.311215918849
 30
0.0
 11
11537.16394807774
 21
9602.038349179762
 31
0.0
  0
LINE
  5
24E5A
330
239E6
100
AcDbEntity
  8
waku
  6
Continuous
370
     9
100
AcDbLine
 10
11568.72885648881
 20
9633.6050391576
 30
0.0
 11
11575.16209392504
 21
9640.038721985281
 31
0.0
  0
LINE
  5
24E5B
330
239E6
100
AcDbEntity
  8
waku
  6
Continuous
370
     9
100
AcDbLine
 10
11492.72811087794
 20
9564.03307706573
 30
0.0
 11
11520.73790289372
 21
9592.03841516472
 31
0.0
  0
LINE
  5
24E5C
330
239E6
100
AcDbEntity
  8
waku
  6
Continuous
370
     9
100
AcDbLine
 10
11592.73368651185
 20
9664.033196651658
 30
0.0
 11
11601.45712797004
 21
9672.760312591195
 31
0.0
  0
LINE
  5
24E5D
330
239E6
100
AcDbEntity
  8
waku
  6
Continuous
370
     9
100
AcDbLine
 10
11528.00758590594
 20
9599.311215918849
 30
0.0
 11
11530.7333829919
 21
9602.038349179762
 31
0.0
  0
LINE
  5
24E5E
330
239E6
100
AcDbEntity
  8
waku
  6
Continuous
370
     9
100
AcDbLine
 10
11564.00859545699
 20
9635.311334686372
 30
0.0
 11
11568.73509197243
 21
9640.038721985281
 31
0.0
  0
LINE
  5
24E5F
330
239E6
100
AcDbEntity
  8
waku
  6
Continuous
370
     9
100
AcDbLine
 10
11492.72811087794
 20
9570.460941964601
 30
0.0
 11
11514.31268250789
 21
9592.03841516472
 31
0.0
  0
LINE
  5
24E60
330
239E6
100
AcDbEntity
  8
waku
  6
Continuous
370
     9
100
AcDbLine
 10
11592.73368651185
 20
9670.461145061459
 30
0.0
 11
11601.45712797004
 21
9679.188205327044
 31
0.0
  0
LINE
  5
24E61
330
239E6
100
AcDbEntity
  8
waku
  6
Continuous
370
     9
100
AcDbLine
 10
11521.57969317018
 20
9599.311215918849
 30
0.0
 11
11524.30459947259
 21
9602.038349179762
 31
0.0
  0
LINE
  5
24E62
330
239E6
100
AcDbEntity
  8
waku
  6
Continuous
370
     9
100
AcDbLine
 10
11557.57892115435
 20
9635.311334686372
 30
0.0
 11
11562.30452688659
 21
9640.038721985281
 31
0.0
  0
LINE
  5
24E63
330
239E6
100
AcDbEntity
  8
waku
  6
Continuous
370
     9
100
AcDbLine
 10
11515.15090965099
 20
9599.311215918849
 30
0.0
 11
11517.87759752011
 21
9602.038349179762
 31
0.0
  0
LINE
  5
24E64
330
239E6
100
AcDbEntity
  8
waku
  6
Continuous
370
     9
100
AcDbLine
 10
11592.73368651185
 20
9676.889483188993
 30
0.0
 11
11601.45712797004
 21
9685.61654345455
 31
0.0
  0
LINE
  5
24E65
330
239E6
100
AcDbEntity
  8
waku
  6
Continuous
370
     9
100
AcDbLine
 10
11535.14810533086
 20
9619.31152934062
 30
0.0
 11
11538.45558395182
 21
9622.616781003078
 31
0.0
  0
LINE
  5
24E66
330
239E6
100
AcDbEntity
  8
waku
  6
Continuous
370
     9
100
AcDbLine
 10
11573.14981431163
 20
9657.311512428428
 30
0.0
 11
11575.45516165082
 21
9659.616804093781
 31
0.0
  0
LINE
  5
24E67
330
239E6
100
AcDbEntity
  8
waku
  6
Continuous
370
     9
100
AcDbLine
 10
11551.14924685166
 20
9635.311334686372
 30
0.0
 11
11555.87752493405
 21
9640.038721985281
 31
0.0
  0
LINE
  5
24E68
330
239E6
100
AcDbEntity
  8
waku
  6
Continuous
370
     9
100
AcDbLine
 10
11508.72301691501
 20
9599.311215918849
 30
0.0
 11
11511.44703243432
 21
9602.038349179762
 31
0.0
  0
LINE
  5
24E69
330
239E6
100
AcDbEntity
  8
waku
  6
Continuous
370
     9
100
AcDbLine
 10
11592.73368651185
 20
9683.317431598794
 30
0.0
 11
11601.44822013649
 21
9692.039091490221
 31
0.0
  0
LINE
  5
24E6A
330
239E6
100
AcDbEntity
  8
waku
  6
Continuous
370
     9
100
AcDbLine
 10
11529.72768857695
 20
9620.317669147322
 30
0.0
 11
11538.45558395182
 21
9629.044673738924
 31
0.0
  0
LINE
  5
24E6B
330
239E6
100
AcDbEntity
  8
waku
  6
Continuous
370
     9
100
AcDbLine
 10
11566.72103079232
 20
9657.311512428428
 30
0.0
 11
11571.44841809132
 21
9662.038398661721
 31
0.0
  0
LINE
  5
24E6C
330
239E6
100
AcDbEntity
  8
waku
  6
Continuous
370
     9
100
AcDbLine
 10
11544.72313568255
 20
9635.311334686372
 30
0.0
 11
11549.45052298156
 21
9640.038721985281
 31
0.0
  0
LINE
  5
24E6D
330
239E6
100
AcDbEntity
  8
waku
  6
Continuous
370
     9
100
AcDbLine
 10
11502.29334261249
 20
9599.311215918849
 30
0.0
 11
11505.02003048178
 21
9602.038349179762
 31
0.0
  0
LINE
  5
24E6E
330
239E6
100
AcDbEntity
  8
waku
  6
Continuous
370
     9
100
AcDbLine
 10
11592.73368651185
 20
9689.745769726302
 30
0.0
 11
11595.0212181839
 21
9692.039091490221
 31
0.0
  0
LINE
  5
24E6F
330
239E6
100
AcDbEntity
  8
waku
  6
Continuous
370
     9
100
AcDbLine
 10
11529.72768857695
 20
9626.74600727483
 30
0.0
 11
11543.02441181234
 21
9640.038721985281
 31
0.0
  0
LINE
  5
24E70
330
239E6
100
AcDbEntity
  8
waku
  6
Continuous
370
     9
100
AcDbLine
 10
11560.29402883983
 20
9657.311512428428
 30
0.0
 11
11565.02141613872
 21
9662.038398661721
 31
0.0
  0
LINE
  5
24E71
330
239E6
100
AcDbEntity
  8
waku
  6
Continuous
370
     9
100
AcDbLine
 10
11495.86455909329
 20
9599.311215918849
 30
0.0
 11
11498.59302852941
 21
9602.038349179762
 31
0.0
  0
LINE
  5
24E72
330
239E6
100
AcDbEntity
  8
waku
  6
Continuous
370
     9
100
AcDbLine
 10
11553.86613610397
 20
9657.311512428428
 30
0.0
 11
11558.59263261947
 21
9662.038398661721
 31
0.0
  0
LINE
  5
24E73
330
239E6
100
AcDbEntity
  8
waku
  6
Continuous
370
     9
100
AcDbLine
 10
11529.72768857695
 20
9633.173900010675
 30
0.0
 11
11538.45558395182
 21
9641.901349993965
 31
0.0
  0
LINE
  5
24E74
330
239E6
100
AcDbEntity
  8
waku
  6
Continuous
370
     9
100
AcDbLine
 10
11525.43767590824
 20
9635.311334686372
 30
0.0
 11
11538.45558395182
 21
9648.329688121501
 31
0.0
  0
LINE
  5
24E75
330
239E6
100
AcDbEntity
  8
waku
  6
Continuous
370
     9
100
AcDbLine
 10
11569.44415552813
 20
9679.311133430887
 30
0.0
 11
11574.16352577674
 21
9684.038520729824
 31
0.0
  0
LINE
  5
24E76
330
239E6
100
AcDbEntity
  8
waku
  6
Continuous
370
     9
100
AcDbLine
 10
11547.43646180139
 20
9657.311512428428
 30
0.0
 11
11552.16473988366
 21
9662.038398661721
 31
0.0
  0
LINE
  5
24E77
330
239E6
100
AcDbEntity
  8
waku
  6
Continuous
370
     9
100
AcDbLine
 10
11433.0082127631
 20
9549.311100451927
 30
0.0
 11
11436.36290290199
 21
9552.667126765987
 31
0.0
  0
LINE
  5
24E78
330
239E6
100
AcDbEntity
  8
waku
  6
Continuous
370
     9
100
AcDbLine
 10
11563.00913652531
 20
9679.311133430887
 30
0.0
 11
11567.73652382443
 21
9684.038520729824
 31
0.0
  0
LINE
  5
24E79
330
239E6
100
AcDbEntity
  8
waku
  6
Continuous
370
     9
100
AcDbLine
 10
11519.00889238917
 20
9635.311334686372
 30
0.0
 11
11523.73717047138
 21
9640.038721985281
 31
0.0
  0
LINE
  5
24E7A
330
239E6
100
AcDbEntity
  8
waku
  6
Continuous
370
     9
100
AcDbLine
 10
11541.00678749887
 20
9657.311512428428
 30
0.0
 11
11545.73595636464
 21
9662.038398661721
 31
0.0
  0
LINE
  5
24E7B
330
239E6
100
AcDbEntity
  8
waku
  6
Continuous
370
     9
100
AcDbLine
 10
11529.72768857695
 20
9646.030520591764
 30
0.0
 11
11538.45558395182
 21
9654.757580857346
 31
0.0
  0
LINE
  5
24E7C
330
239E6
100
AcDbEntity
  8
waku
  6
Continuous
370
     9
100
AcDbLine
 10
11426.58032002723
 20
9549.311100451927
 30
0.0
 11
11436.36290290199
 21
9559.094963827879
 31
0.0
  0
LINE
  5
24E7D
330
239E6
100
AcDbEntity
  8
waku
  6
Continuous
370
     9
100
AcDbLine
 10
11556.58124378956
 20
9679.311133430887
 30
0.0
 11
11561.3068495218
 21
9684.038520729824
 31
0.0
  0
LINE
  5
24E7E
330
239E6
100
AcDbEntity
  8
waku
  6
Continuous
370
     9
100
AcDbLine
 10
11496.57985813262
 20
9619.31152934062
 30
0.0
 11
11499.45530682317
 21
9622.186087247845
 31
0.0
  0
LINE
  5
24E7F
330
239E6
100
AcDbEntity
  8
waku
  6
Continuous
370
     9
100
AcDbLine
 10
11529.72768857695
 20
9652.458914393251
 30
0.0
 11
11539.30895441192
 21
9662.038398661721
 31
0.0
  0
LINE
  5
24E80
330
239E6
100
AcDbEntity
  8
waku
  6
Continuous
370
     9
100
AcDbLine
 10
11512.57921808653
 20
9635.311334686372
 30
0.0
 11
11517.30927773557
 21
9640.038721985281
 31
0.0
  0
LINE
  5
24E81
330
239E6
100
AcDbEntity
  8
waku
  6
Continuous
370
     9
100
AcDbLine
 10
11425.63787123082
 20
9554.796098999721
 30
0.0
 11
11436.36290290199
 21
9565.523329792393
 31
0.0
  0
LINE
  5
24E82
330
239E6
100
AcDbEntity
  8
waku
  6
Continuous
370
     9
100
AcDbLine
 10
11550.15424183701
 20
9679.311133430887
 30
0.0
 11
11554.8798475692
 21
9684.038520729824
 31
0.0
  0
LINE
  5
24E83
330
239E6
100
AcDbEntity
  8
waku
  6
Continuous
370
     9
100
AcDbLine
 10
11492.72811087794
 20
9621.887229430084
 30
0.0
 11
11499.45530682317
 21
9628.614648071222
 31
0.0
  0
LINE
  5
24E84
330
239E6
100
AcDbEntity
  8
waku
  6
Continuous
370
     9
100
AcDbLine
 10
11528.15634672743
 20
9657.311512428428
 30
0.0
 11
11538.45558395182
 21
9667.614145764481
 31
0.0
  0
LINE
  5
24E85
330
239E6
100
AcDbEntity
  8
waku
  6
Continuous
370
     9
100
AcDbLine
 10
11506.15221613416
 20
9635.311334686372
 30
0.0
 11
11510.87960343299
 21
9640.038721985281
 31
0.0
  0
LINE
  5
24E86
330
239E6
100
AcDbEntity
  8
waku
  6
Continuous
370
     9
100
AcDbLine
 10
11425.63787123082
 20
9561.224882518942
 30
0.0
 11
11436.36290290199
 21
9571.951667919901
 31
0.0
  0
LINE
  5
24E87
330
239E6
100
AcDbEntity
  8
waku
  6
Continuous
370
     9
100
AcDbLine
 10
11543.72367675123
 20
9679.311133430887
 30
0.0
 11
11548.45017326674
 21
9684.038520729824
 31
0.0
  0
LINE
  5
24E88
330
239E6
100
AcDbEntity
  8
waku
  6
Continuous
370
     9
100
AcDbLine
 10
11492.72811087794
 20
9628.315122165929
 30
0.0
 11
11499.45530682317
 21
9635.042763502887
 31
0.0
  0
LINE
  5
24E89
330
239E6
100
AcDbEntity
  8
waku
  6
Continuous
370
     9
100
AcDbLine
 10
11529.72768857695
 20
9665.315145256634
 30
0.0
 11
11538.45558395182
 21
9674.04253956594
 31
0.0
  0
LINE
  5
24E8A
330
239E6
100
AcDbEntity
  8
waku
  6
Continuous
370
     9
100
AcDbLine
 10
11499.72521418161
 20
9635.311334686372
 30
0.0
 11
11504.4561646141
 21
9640.038721985281
 31
0.0
  0
LINE
  5
24E8B
330
239E6
100
AcDbEntity
  8
waku
  6
Continuous
370
     9
100
AcDbLine
 10
11521.72934477477
 20
9657.311512428428
 30
0.0
 11
11526.45227815709
 21
9662.038398661721
 31
0.0
  0
LINE
  5
24E8C
330
239E6
100
AcDbEntity
  8
waku
  6
Continuous
370
     9
100
AcDbLine
 10
11425.63787123082
 20
9567.652775254789
 30
0.0
 11
11436.36290290199
 21
9578.380061721388
 31
0.0
  0
LINE
  5
24E8D
330
239E6
100
AcDbEntity
  8
waku
  6
Continuous
370
     9
100
AcDbLine
 10
11529.72768857695
 20
9671.74348338414
 30
0.0
 11
11542.02584366429
 21
9684.038520729824
 31
0.0
  0
LINE
  5
24E8E
330
239E6
100
AcDbEntity
  8
waku
  6
Continuous
370
     9
100
AcDbLine
 10
11492.72811087794
 20
9634.743460293464
 30
0.0
 11
11498.02292717811
 21
9640.038721985281
 31
0.0
  0
LINE
  5
24E8F
330
239E6
100
AcDbEntity
  8
waku
  6
Continuous
370
     9
100
AcDbLine
 10
11515.29699812215
 20
9657.311512428428
 30
0.0
 11
11520.02171307102
 21
9662.038398661721
 31
0.0
  0
LINE
  5
24E90
330
239E6
100
AcDbEntity
  8
waku
  6
Continuous
370
     9
100
AcDbLine
 10
11425.63787123082
 20
9574.081113382296
 30
0.0
 11
11436.36290290199
 21
9584.807870946276
 31
0.0
  0
LINE
  5
24E91
330
239E6
100
AcDbEntity
  8
waku
  6
Continuous
370
     9
100
AcDbLine
 10
11529.72768857695
 20
9678.171821511677
 30
0.0
 11
11538.45558395182
 21
9686.898826103275
 31
0.0
  0
LINE
  5
24E92
330
239E6
100
AcDbEntity
  8
waku
  6
Continuous
370
     9
100
AcDbLine
 10
11508.86554225305
 20
9657.311512428428
 30
0.0
 11
11513.59382033515
 21
9662.038398661721
 31
0.0
  0
LINE
  5
24E93
330
239E6
100
AcDbEntity
  8
waku
  6
Continuous
370
     9
100
AcDbLine
 10
11425.63787123082
 20
9580.509033955118
 30
0.0
 11
11436.36290290199
 21
9591.236209073811
 31
0.0
  0
LINE
  5
24E94
330
239E6
100
AcDbEntity
  8
waku
  6
Continuous
370
     9
100
AcDbLine
 10
11529.72768857695
 20
9684.600159639208
 30
0.0
 11
11537.16751121128
 21
9692.039091490221
 31
0.0
  0
LINE
  5
24E95
330
239E6
100
AcDbEntity
  8
waku
  6
Continuous
370
     9
100
AcDbLine
 10
11502.43943108372
 20
9657.311512428428
 30
0.0
 11
11507.16503681595
 21
9662.038398661721
 31
0.0
  0
LINE
  5
24E96
330
239E6
100
AcDbEntity
  8
waku
  6
Continuous
370
     9
100
AcDbLine
 10
11524.43821697686
 20
9679.311133430887
 30
0.0
 11
11529.17183975937
 21
9684.038520729824
 31
0.0
  0
LINE
  5
24E97
330
239E6
100
AcDbEntity
  8
waku
  6
Continuous
370
     9
100
AcDbLine
 10
11425.63787123082
 20
9586.937344245676
 30
0.0
 11
11436.36290290199
 21
9597.664602875298
 31
0.0
  0
LINE
  5
24E98
330
239E6
100
AcDbEntity
  8
waku
  6
Continuous
370
     9
100
AcDbLine
 10
11529.72768857695
 20
9691.028497766716
 30
0.0
 11
11530.73783690882
 21
9692.039091490221
 31
0.0
  0
LINE
  5
24E99
330
239E6
100
AcDbEntity
  8
waku
  6
Continuous
370
     9
100
AcDbLine
 10
11496.01153834796
 20
9657.311512428428
 30
0.0
 11
11500.73803486358
 21
9662.038398661721
 31
0.0
  0
LINE
  5
24E9A
330
239E6
100
AcDbEntity
  8
waku
  6
Continuous
370
     9
100
AcDbLine
 10
11518.01121502438
 20
9679.311133430887
 30
0.0
 11
11522.73860232338
 21
9684.038520729824
 31
0.0
  0
LINE
  5
24E9B
330
239E6
100
AcDbEntity
  8
waku
  6
Continuous
370
     9
100
AcDbLine
 10
11425.63787123082
 20
9593.365682373184
 30
0.0
 11
11436.36290290199
 21
9604.092941002832
 31
0.0
  0
LINE
  5
24E9C
330
239E6
100
AcDbEntity
  8
waku
  6
Continuous
370
     9
100
AcDbLine
 10
11511.58421307189
 20
9679.311133430887
 30
0.0
 11
11516.31160037078
 21
9684.038520729824
 31
0.0
  0
LINE
  5
24E9D
330
239E6
100
AcDbEntity
  8
waku
  6
Continuous
370
     9
100
AcDbLine
 10
11492.72811087794
 20
9660.456590107727
 30
0.0
 11
11494.3101421276
 21
9662.038398661721
 31
0.0
  0
LINE
  5
24E9E
330
239E6
100
AcDbEntity
  8
waku
  6
Continuous
370
     9
100
AcDbLine
 10
11425.63787123082
 20
9599.794020500718
 30
0.0
 11
11436.36290290199
 21
9610.52127913034
 31
0.0
  0
LINE
  5
24E9F
330
239E6
100
AcDbEntity
  8
waku
  6
Continuous
370
     9
100
AcDbLine
 10
11505.15364798593
 20
9679.311133430887
 30
0.0
 11
11509.88014450161
 21
9684.038520729824
 31
0.0
  0
LINE
  5
24EA0
330
239E6
100
AcDbEntity
  8
waku
  6
Continuous
370
     9
100
AcDbLine
 10
11425.63787123082
 20
9606.221913236565
 30
0.0
 11
11436.36290290199
 21
9616.949171866188
 31
0.0
  0
LINE
  5
24EA1
330
239E6
100
AcDbEntity
  8
waku
  6
Continuous
370
     9
100
AcDbLine
 10
11498.72664603344
 20
9679.311133430887
 30
0.0
 11
11503.45314254907
 21
9684.038520729824
 31
0.0
  0
LINE
  5
24EA2
330
239E6
100
AcDbEntity
  8
waku
  6
Continuous
370
     9
100
AcDbLine
 10
11382.29947913221
 20
9569.311831428407
 30
0.0
 11
11387.36447332499
 21
9574.377744241642
 31
0.0
  0
LINE
  5
24EA3
330
239E6
100
AcDbEntity
  8
waku
  6
Continuous
370
     9
100
AcDbLine
 10
11492.72811087794
 20
9679.741381794462
 30
0.0
 11
11497.45906131032
 21
9684.468323701707
 31
0.0
  0
LINE
  5
24EA4
330
239E6
100
AcDbEntity
  8
waku
  6
Continuous
370
     9
100
AcDbLine
 10
11425.63787123082
 20
9612.650251364101
 30
0.0
 11
11436.36290290199
 21
9623.377565667675
 31
0.0
  0
LINE
  5
24EA5
330
239E6
100
AcDbEntity
  8
waku
  6
Continuous
370
     9
100
AcDbLine
 10
11378.63835951678
 20
9572.078632385888
 30
0.0
 11
11387.36447332499
 21
9580.80563697749
 31
0.0
  0
LINE
  5
24EA6
330
239E6
100
AcDbEntity
  8
waku
  6
Continuous
370
     9
100
AcDbLine
 10
11492.72811087794
 20
9686.169274530309
 30
0.0
 11
11497.45906131032
 21
9690.896661829246
 31
0.0
  0
LINE
  5
24EA7
330
239E6
100
AcDbEntity
  8
waku
  6
Continuous
370
     9
100
AcDbLine
 10
11425.63787123082
 20
9619.079034883297
 30
0.0
 11
11436.36290290199
 21
9629.806126491054
 31
0.0
  0
LINE
  5
24EA8
330
239E6
100
AcDbEntity
  8
waku
  6
Continuous
370
     9
100
AcDbLine
 10
11378.63835951678
 20
9578.506970513396
 30
0.0
 11
11387.36447332499
 21
9587.233975105025
 31
0.0
  0
LINE
  5
24EA9
330
239E6
100
AcDbEntity
  8
waku
  6
Continuous
370
     9
100
AcDbLine
 10
11425.63787123082
 20
9625.506927619142
 30
0.0
 11
11436.36290290199
 21
9636.234130574809
 31
0.0
  0
LINE
  5
24EAA
330
239E6
100
AcDbEntity
  8
waku
  6
Continuous
370
     9
100
AcDbLine
 10
11378.63835951678
 20
9584.935252966976
 30
0.0
 11
11387.36447332499
 21
9593.662535928377
 31
0.0
  0
LINE
  5
24EAB
330
239E6
100
AcDbEntity
  8
waku
  6
Continuous
370
     9
100
AcDbLine
 10
11425.63787123082
 20
9631.935265746676
 30
0.0
 11
11436.36290290199
 21
9642.662468702317
 31
0.0
  0
LINE
  5
24EAC
330
239E6
100
AcDbEntity
  8
waku
  6
Continuous
370
     9
100
AcDbLine
 10
11378.63835951678
 20
9591.363201376777
 30
0.0
 11
11387.36447332499
 21
9600.090651360066
 31
0.0
  0
LINE
  5
24EAD
330
239E6
100
AcDbEntity
  8
waku
  6
Continuous
370
     9
100
AcDbLine
 10
11425.63787123082
 20
9638.36310280854
 30
0.0
 11
11436.36290290199
 21
9649.090417112144
 31
0.0
  0
LINE
  5
24EAE
330
239E6
100
AcDbEntity
  8
waku
  6
Continuous
370
     9
100
AcDbLine
 10
11378.63835951678
 20
9597.791539504283
 30
0.0
 11
11387.36447332499
 21
9606.518989487572
 31
0.0
  0
LINE
  5
24EAF
330
239E6
100
AcDbEntity
  8
waku
  6
Continuous
370
     9
100
AcDbLine
 10
11425.63787123082
 20
9644.791440936074
 30
0.0
 11
11436.36290290199
 21
9655.518755239654
 31
0.0
  0
LINE
  5
24EB0
330
239E6
100
AcDbEntity
  8
waku
  6
Continuous
370
     9
100
AcDbLine
 10
11378.63835951678
 20
9604.21987763182
 30
0.0
 11
11387.36447332499
 21
9612.946882223448
 31
0.0
  0
LINE
  5
24EB1
330
239E6
100
AcDbEntity
  8
waku
  6
Continuous
370
     9
100
AcDbLine
 10
11425.63787123082
 20
9651.219834737563
 30
0.0
 11
11436.36290290199
 21
9661.947093367189
 31
0.0
  0
LINE
  5
24EB2
330
239E6
100
AcDbEntity
  8
waku
  6
Continuous
370
     9
100
AcDbLine
 10
11425.63787123082
 20
9657.648172865073
 30
0.0
 11
11436.36290290199
 21
9668.375876886379
 31
0.0
  0
LINE
  5
24EB3
330
239E6
100
AcDbEntity
  8
waku
  6
Continuous
370
     9
100
AcDbLine
 10
11378.63835951678
 20
9610.648215759354
 30
0.0
 11
11387.36447332499
 21
9619.375220350956
 31
0.0
  0
LINE
  5
24EB4
330
239E6
100
AcDbEntity
  8
waku
  6
Continuous
370
     9
100
AcDbLine
 10
11425.63787123082
 20
9664.076065600921
 30
0.0
 11
11436.36290290199
 21
9674.803769622227
 31
0.0
  0
LINE
  5
24EB5
330
239E6
100
AcDbEntity
  8
waku
  6
Continuous
370
     9
100
AcDbLine
 10
11378.63835951678
 20
9617.076108495201
 30
0.0
 11
11387.36447332499
 21
9625.803558478489
 31
0.0
  0
LINE
  5
24EB6
330
239E6
100
AcDbEntity
  8
waku
  6
Continuous
370
     9
100
AcDbLine
 10
11307.63936247994
 20
9552.504670150462
 30
0.0
 11
11340.36496161102
 21
9585.231939500278
 31
0.0
  0
LINE
  5
24EB7
330
239E6
100
AcDbEntity
  8
waku
  6
Continuous
370
     9
100
AcDbLine
 10
11425.63787123082
 20
9670.504403728452
 30
0.0
 11
11436.36290290199
 21
9681.232107749762
 31
0.0
  0
LINE
  5
24EB8
330
239E6
100
AcDbEntity
  8
waku
  6
Continuous
370
     9
100
AcDbLine
 10
11378.63835951678
 20
9623.504446622709
 30
0.0
 11
11387.36447332499
 21
9632.231896605995
 31
0.0
  0
LINE
  5
24EB9
330
239E6
100
AcDbEntity
  8
waku
  6
Continuous
370
     9
100
AcDbLine
 10
11307.63936247994
 20
9558.932896930061
 30
0.0
 11
11340.36496161102
 21
9591.659832236123
 31
0.0
  0
LINE
  5
24EBA
330
239E6
100
AcDbEntity
  8
waku
  6
Continuous
370
     9
100
AcDbLine
 10
11425.63787123082
 20
9676.932797529941
 30
0.0
 11
11436.36290290199
 21
9687.660000485609
 31
0.0
  0
LINE
  5
24EBB
330
239E6
100
AcDbEntity
  8
waku
  6
Continuous
370
     9
100
AcDbLine
 10
11378.63835951678
 20
9629.932784750241
 30
0.0
 11
11387.36447332499
 21
9638.66023473353
 31
0.0
  0
LINE
  5
24EBC
330
239E6
100
AcDbEntity
  8
waku
  6
Continuous
370
     9
100
AcDbLine
 10
11425.63787123082
 20
9683.361358353293
 30
0.0
 11
11434.3158827375
 21
9692.039091490221
 31
0.0
  0
LINE
  5
24EBD
330
239E6
100
AcDbEntity
  8
waku
  6
Continuous
370
     9
100
AcDbLine
 10
11307.63936247994
 20
9565.363829909335
 30
0.0
 11
11340.36496161102
 21
9598.088170363658
 31
0.0
  0
LINE
  5
24EBE
330
239E6
100
AcDbEntity
  8
waku
  6
Continuous
370
     9
100
AcDbLine
 10
11378.63835951678
 20
9636.361401247574
 30
0.0
 11
11387.36447332499
 21
9645.088183143332
 31
0.0
  0
LINE
  5
24EBF
330
239E6
100
AcDbEntity
  8
waku
  6
Continuous
370
     9
100
AcDbLine
 10
11329.63547602293
 20
9593.789305535498
 30
0.0
 11
11340.36496161102
 21
9604.517009556808
 31
0.0
  0
LINE
  5
24EC0
330
239E6
100
AcDbEntity
  8
waku
  6
Continuous
370
     9
100
AcDbLine
 10
11425.63787123082
 20
9689.789362437046
 30
0.0
 11
11427.88799000174
 21
9692.039091490221
 31
0.0
  0
LINE
  5
24EC1
330
239E6
100
AcDbEntity
  8
waku
  6
Continuous
370
     9
100
AcDbLine
 10
11378.63835951678
 20
9642.789015613594
 30
0.0
 11
11387.36447332499
 21
9651.516521270863
 31
0.0
  0
LINE
  5
24EC2
330
239E6
100
AcDbEntity
  8
waku
  6
Continuous
370
     9
100
AcDbLine
 10
11329.63547602293
 20
9600.217922032832
 30
0.0
 11
11340.36496161102
 21
9610.9448466187
 31
0.0
  0
LINE
  5
24EC3
330
239E6
100
AcDbEntity
  8
waku
  6
Continuous
370
     9
100
AcDbLine
 10
11378.63835951678
 20
9649.217353741128
 30
0.0
 11
11387.36447332499
 21
9657.945249116108
 31
0.0
  0
LINE
  5
24EC4
330
239E6
100
AcDbEntity
  8
waku
  6
Continuous
370
     9
100
AcDbLine
 10
11329.63547602293
 20
9606.645870442632
 30
0.0
 11
11340.36496161102
 21
9617.373184746208
 31
0.0
  0
LINE
  5
24EC5
330
239E6
100
AcDbEntity
  8
waku
  6
Continuous
370
     9
100
AcDbLine
 10
11378.63835951678
 20
9655.645691868665
 30
0.0
 11
11387.36447332499
 21
9664.373086178001
 31
0.0
  0
LINE
  5
24EC6
330
239E6
100
AcDbEntity
  8
waku
  6
Continuous
370
     9
100
AcDbLine
 10
11265.87498458083
 20
9549.311100451927
 30
0.0
 11
11270.36364193905
 21
9553.801539376742
 31
0.0
  0
LINE
  5
24EC7
330
239E6
100
AcDbEntity
  8
waku
  6
Continuous
370
     9
100
AcDbLine
 10
11378.63835951678
 20
9662.074029996198
 30
0.0
 11
11387.36447332499
 21
9670.801424305508
 31
0.0
  0
LINE
  5
24EC8
330
239E6
100
AcDbEntity
  8
waku
  6
Continuous
370
     9
100
AcDbLine
 10
11329.63547602293
 20
9613.074765309765
 30
0.0
 11
11340.36496161102
 21
9623.801077482054
 31
0.0
  0
LINE
  5
24EC9
330
239E6
100
AcDbEntity
  8
waku
  6
Continuous
370
     9
100
AcDbLine
 10
11259.44531027825
 20
9549.311100451927
 30
0.0
 11
11270.36364193905
 21
9560.229432112588
 31
0.0
  0
LINE
  5
24ECA
330
239E6
100
AcDbEntity
  8
waku
  6
Continuous
370
     9
100
AcDbLine
 10
11378.63835951678
 20
9668.502368123704
 30
0.0
 11
11387.36447332499
 21
9677.229372715309
 31
0.0
  0
LINE
  5
24ECB
330
239E6
100
AcDbEntity
  8
waku
  6
Continuous
370
     9
100
AcDbLine
 10
11329.63547602293
 20
9619.50215697994
 30
0.0
 11
11340.36496161102
 21
9630.229415609587
 31
0.0
  0
LINE
  5
24ECC
330
239E6
100
AcDbEntity
  8
waku
  6
Continuous
370
     9
100
AcDbLine
 10
11253.01830832577
 20
9549.311100451927
 30
0.0
 11
11269.74811063629
 21
9566.038703640904
 31
0.0
  0
LINE
  5
24ECD
330
239E6
100
AcDbEntity
  8
waku
  6
Continuous
370
     9
100
AcDbLine
 10
11378.63835951678
 20
9674.930260859552
 30
0.0
 11
11385.74502917393
 21
9682.038934779335
 31
0.0
  0
LINE
  5
24ECE
330
239E6
100
AcDbEntity
  8
waku
  6
Continuous
370
     9
100
AcDbLine
 10
11329.63547602293
 20
9625.930495107475
 30
0.0
 11
11340.36496161102
 21
9636.657753737097
 31
0.0
  0
LINE
  5
24ECF
330
239E6
100
AcDbEntity
  8
waku
  6
Continuous
370
     9
100
AcDbLine
 10
11246.59130637328
 20
9549.311100451927
 30
0.0
 11
11263.32110868375
 21
9566.038703640904
 31
0.0
  0
LINE
  5
24ED0
330
239E6
100
AcDbEntity
  8
waku
  6
Continuous
370
     9
100
AcDbLine
 10
11378.63835951678
 20
9681.358598987086
 30
0.0
 11
11379.31802722157
 21
9682.038934779335
 31
0.0
  0
LINE
  5
24ED1
330
239E6
100
AcDbEntity
  8
waku
  6
Continuous
370
     9
100
AcDbLine
 10
11329.63547602293
 20
9632.358833235009
 30
0.0
 11
11340.36496161102
 21
9643.086091864631
 31
0.0
  0
LINE
  5
24ED2
330
239E6
100
AcDbEntity
  8
waku
  6
Continuous
370
     9
100
AcDbLine
 10
11240.16163207082
 20
9549.311100451927
 30
0.0
 11
11256.89054359783
 21
9566.038703640904
 31
0.0
  0
LINE
  5
24ED3
330
239E6
100
AcDbEntity
  8
waku
  6
Continuous
370
     9
100
AcDbLine
 10
11329.63547602293
 20
9638.787171362544
 30
0.0
 11
11340.36496161102
 21
9649.514875383829
 31
0.0
  0
LINE
  5
24ED4
330
239E6
100
AcDbEntity
  8
waku
  6
Continuous
370
     9
100
AcDbLine
 10
11233.7381932517
 20
9549.311100451927
 30
0.0
 11
11250.46176007854
 21
9566.038703640904
 31
0.0
  0
LINE
  5
24ED5
330
239E6
100
AcDbEntity
  8
waku
  6
Continuous
370
     9
100
AcDbLine
 10
11329.63547602293
 20
9645.215064098387
 30
0.0
 11
11340.36496161102
 21
9655.942322728012
 31
0.0
  0
LINE
  5
24ED6
330
239E6
100
AcDbEntity
  8
waku
  6
Continuous
370
     9
100
AcDbLine
 10
11227.31030051588
 20
9549.311100451927
 30
0.0
 11
11244.03208577613
 21
9566.038703640904
 31
0.0
  0
LINE
  5
24ED7
330
239E6
100
AcDbEntity
  8
waku
  6
Continuous
370
     9
100
AcDbLine
 10
11329.63547602293
 20
9651.643402225897
 30
0.0
 11
11340.36496161102
 21
9662.371106247206
 31
0.0
  0
LINE
  5
24ED8
330
239E6
100
AcDbEntity
  8
waku
  6
Continuous
370
     9
100
AcDbLine
 10
11269.30539130551
 20
9591.311535941828
 30
0.0
 11
11270.36364193905
 21
9592.371122750179
 31
0.0
  0
LINE
  5
24ED9
330
239E6
100
AcDbEntity
  8
waku
  6
Continuous
370
     9
100
AcDbLine
 10
11220.87706307989
 20
9549.311100451927
 30
0.0
 11
11237.60508382359
 21
9566.038703640904
 31
0.0
  0
LINE
  5
24EDA
330
239E6
100
AcDbEntity
  8
waku
  6
Continuous
370
     9
100
AcDbLine
 10
11329.63547602293
 20
9658.072018723228
 30
0.0
 11
11340.36496161102
 21
9668.799221678897
 31
0.0
  0
LINE
  5
24EDB
330
239E6
100
AcDbEntity
  8
waku
  6
Continuous
370
     9
100
AcDbLine
 10
11262.87838935313
 20
9591.311535941828
 30
0.0
 11
11270.36364193905
 21
9598.799015486052
 31
0.0
  0
LINE
  5
24EDC
330
239E6
100
AcDbEntity
  8
waku
  6
Continuous
370
     9
100
AcDbLine
 10
11214.45006112741
 20
9549.311100451927
 30
0.0
 11
11231.36514637704
 21
9566.22752187655
 31
0.0
  0
LINE
  5
24EDD
330
239E6
100
AcDbEntity
  8
waku
  6
Continuous
370
     9
100
AcDbLine
 10
11329.63547602293
 20
9664.500022806985
 30
0.0
 11
11340.36496161102
 21
9675.227392784542
 31
0.0
  0
LINE
  5
24EDE
330
239E6
100
AcDbEntity
  8
waku
  6
Continuous
370
     9
100
AcDbLine
 10
11256.44782426718
 20
9591.311535941828
 30
0.0
 11
11267.17641907188
 21
9602.038349179762
 31
0.0
  0
LINE
  5
24EDF
330
239E6
100
AcDbEntity
  8
waku
  6
Continuous
370
     9
100
AcDbLine
 10
11208.02127760814
 20
9549.311100451927
 30
0.0
 11
11231.36514637704
 21
9572.655414612396
 31
0.0
  0
LINE
  5
24EE0
330
239E6
100
AcDbEntity
  8
waku
  6
Continuous
370
     9
100
AcDbLine
 10
11329.63547602293
 20
9670.927971216784
 30
0.0
 11
11340.36496161102
 21
9681.655675238097
 31
0.0
  0
LINE
  5
24EE1
330
239E6
100
AcDbEntity
  8
waku
  6
Continuous
370
     9
100
AcDbLine
 10
11250.01904074793
 20
9591.311535941828
 30
0.0
 11
11260.74852633596
 21
9602.038349179762
 31
0.0
  0
LINE
  5
24EE2
330
239E6
100
AcDbEntity
  8
waku
  6
Continuous
370
     9
100
AcDbLine
 10
11201.59160330569
 20
9549.311100451927
 30
0.0
 11
11231.36514637704
 21
9579.083891924815
 31
0.0
  0
LINE
  5
24EE3
330
239E6
100
AcDbEntity
  8
waku
  6
Continuous
370
     9
100
AcDbLine
 10
11329.63547602293
 20
9677.356309344318
 30
0.0
 11
11340.36496161102
 21
9688.083512299987
 31
0.0
  0
LINE
  5
24EE4
330
239E6
100
AcDbEntity
  8
waku
  6
Continuous
370
     9
100
AcDbLine
 10
11243.59203879562
 20
9591.311535941828
 30
0.0
 11
11254.31974281682
 21
9602.038349179762
 31
0.0
  0
LINE
  5
24EE5
330
239E6
100
AcDbEntity
  8
waku
  6
Continuous
370
     9
100
AcDbLine
 10
11195.58306291907
 20
9549.729593762576
 30
0.0
 11
11231.36514637704
 21
9585.514531414998
 31
0.0
  0
LINE
  5
24EE6
330
239E6
100
AcDbEntity
  8
waku
  6
Continuous
370
     9
100
AcDbLine
 10
11329.63547602293
 20
9683.785092863516
 30
0.0
 11
11337.89125621637
 21
9692.039091490221
 31
0.0
  0
LINE
  5
24EE7
330
239E6
100
AcDbEntity
  8
waku
  6
Continuous
370
     9
100
AcDbLine
 10
11237.16414605964
 20
9591.311535941828
 30
0.0
 11
11247.89274086434
 21
9602.038349179762
 31
0.0
  0
LINE
  5
24EE8
330
239E6
100
AcDbEntity
  8
waku
  6
Continuous
370
     9
100
AcDbLine
 10
11192.36863920026
 20
9552.944723032121
 30
0.0
 11
11205.46383857766
 21
9566.038703640904
 31
0.0
  0
LINE
  5
24EE9
330
239E6
100
AcDbEntity
  8
waku
  6
Continuous
370
     9
100
AcDbLine
 10
11329.63547602293
 20
9690.212985599361
 30
0.0
 11
11331.4633634805
 21
9692.039091490221
 31
0.0
  0
LINE
  5
24EEA
330
239E6
100
AcDbEntity
  8
waku
  6
Continuous
370
     9
100
AcDbLine
 10
11220.63566078894
 20
9581.212724973662
 30
0.0
 11
11241.46484812853
 21
9602.038349179762
 31
0.0
  0
LINE
  5
24EEB
330
239E6
100
AcDbEntity
  8
waku
  6
Continuous
370
     9
100
AcDbLine
 10
11266.73369974122
 20
9627.311209317635
 30
0.0
 11
11270.36364193905
 21
9630.940316405938
 31
0.0
  0
LINE
  5
24EEC
330
239E6
100
AcDbEntity
  8
waku
  6
Continuous
370
     9
100
AcDbLine
 10
11189.15550601952
 20
9556.158561480392
 30
0.0
 11
11201.51962124326
 21
9568.523891809105
 31
0.0
  0
LINE
  5
24EED
330
239E6
100
AcDbEntity
  8
waku
  6
Continuous
370
     9
100
AcDbLine
 10
11260.30669778874
 20
9627.311209317635
 30
0.0
 11
11270.36364193905
 21
9637.369044251206
 31
0.0
  0
LINE
  5
24EEE
330
239E6
100
AcDbEntity
  8
waku
  6
Continuous
370
     9
100
AcDbLine
 10
11220.63566078894
 20
9587.641675514749
 30
0.0
 11
11235.03250147581
 21
9602.038349179762
 31
0.0
  0
LINE
  5
24EEF
330
239E6
100
AcDbEntity
  8
waku
  6
Continuous
370
     9
100
AcDbLine
 10
11185.94196818748
 20
9559.372804668724
 30
0.0
 11
11198.3079547156
 21
9571.734503109352
 31
0.0
  0
LINE
  5
24EF0
330
239E6
100
AcDbEntity
  8
waku
  6
Continuous
370
     9
100
AcDbLine
 10
11253.87880505287
 20
9627.311209317635
 30
0.0
 11
11264.60650907414
 21
9638.038467947261
 31
0.0
  0
LINE
  5
24EF1
330
239E6
100
AcDbEntity
  8
waku
  6
Continuous
370
     9
100
AcDbLine
 10
11220.63566078894
 20
9594.069401228704
 30
0.0
 11
11231.36514637704
 21
9604.796604184372
 31
0.0
  0
LINE
  5
24EF2
330
239E6
100
AcDbEntity
  8
waku
  6
Continuous
370
     9
100
AcDbLine
 10
11182.7282647311
 20
9562.587213517813
 30
0.0
 11
11195.09009078876
 21
9574.95130977251
 31
0.0
  0
LINE
  5
24EF3
330
239E6
100
AcDbEntity
  8
waku
  6
Continuous
370
     9
100
AcDbLine
 10
11247.45536623392
 20
9627.311209317635
 30
0.0
 11
11258.17950712166
 21
9638.038467947261
 31
0.0
  0
LINE
  5
24EF4
330
239E6
100
AcDbEntity
  8
waku
  6
Continuous
370
     9
100
AcDbLine
 10
11220.63566078894
 20
9600.497739356216
 30
0.0
 11
11231.36514637704
 21
9611.224942311906
 31
0.0
  0
LINE
  5
24EF5
330
239E6
100
AcDbEntity
  8
waku
  6
Continuous
370
     9
100
AcDbLine
 10
11179.64091971415
 20
9565.925963871736
 30
0.0
 11
11191.87631928482
 21
9578.164025357461
 31
0.0
  0
LINE
  5
24EF6
330
239E6
100
AcDbEntity
  8
waku
  6
Continuous
370
     9
100
AcDbLine
 10
11241.02301958131
 20
9627.311209317635
 30
0.0
 11
11251.75339595267
 21
9638.038467947261
 31
0.0
  0
LINE
  5
24EF7
330
239E6
100
AcDbEntity
  8
waku
  6
Continuous
370
     9
100
AcDbLine
 10
11220.63566078894
 20
9606.926133157699
 30
0.0
 11
11231.36514637704
 21
9617.653336113395
 31
0.0
  0
LINE
  5
24EF8
330
239E6
100
AcDbEntity
  8
waku
  6
Continuous
370
     9
100
AcDbLine
 10
11179.64091971415
 20
9572.353884444561
 30
0.0
 11
11190.36506060183
 21
9583.082033857532
 31
0.0
  0
LINE
  5
24EF9
330
239E6
100
AcDbEntity
  8
waku
  6
Continuous
370
     9
100
AcDbLine
 10
11266.59384675345
 20
9659.311265400809
 30
0.0
 11
11270.36364193905
 21
9663.081505977913
 31
0.0
  0
LINE
  5
24EFA
330
239E6
100
AcDbEntity
  8
waku
  6
Continuous
370
     9
100
AcDbLine
 10
11220.63566078894
 20
9613.353970219591
 30
0.0
 11
11231.36514637704
 21
9624.082119632593
 31
0.0
  0
LINE
  5
24EFB
330
239E6
100
AcDbEntity
  8
waku
  6
Continuous
370
     9
100
AcDbLine
 10
11234.59512684533
 20
9627.311209317635
 30
0.0
 11
11245.32639400007
 21
9638.038467947261
 31
0.0
  0
LINE
  5
24EFC
330
239E6
100
AcDbEntity
  8
waku
  6
Continuous
370
     9
100
AcDbLine
 10
11179.64091971415
 20
9578.782222572069
 30
0.0
 11
11190.36506060183
 21
9589.509481201718
 31
0.0
  0
LINE
  5
24EFD
330
239E6
100
AcDbEntity
  8
waku
  6
Continuous
370
     9
100
AcDbLine
 10
11260.1704079345
 20
9659.311265400809
 30
0.0
 11
11270.36364193905
 21
9669.509844105448
 31
0.0
  0
LINE
  5
24EFE
330
239E6
100
AcDbEntity
  8
waku
  6
Continuous
370
     9
100
AcDbLine
 10
11220.63566078894
 20
9619.782308347126
 30
0.0
 11
11238.89404734758
 21
9638.038467947261
 31
0.0
  0
LINE
  5
24EFF
330
239E6
100
AcDbEntity
  8
waku
  6
Continuous
370
     9
100
AcDbLine
 10
11179.64091971415
 20
9585.210505025647
 30
0.0
 11
11190.36506060183
 21
9595.937819329224
 31
0.0
  0
LINE
  5
24F00
330
239E6
100
AcDbEntity
  8
waku
  6
Continuous
370
     9
100
AcDbLine
 10
11259.63682870105
 20
9665.210478211674
 30
0.0
 11
11270.36007880551
 21
9675.932837532808
 31
0.0
  0
LINE
  5
24F01
330
239E6
100
AcDbEntity
  8
waku
  6
Continuous
370
     9
100
AcDbLine
 10
11220.63566078894
 20
9626.210646474634
 30
0.0
 11
11232.46437304488
 21
9638.038467947261
 31
0.0
  0
LINE
  5
24F02
330
239E6
100
AcDbEntity
  8
waku
  6
Continuous
370
     9
100
AcDbLine
 10
11259.63682870105
 20
9671.639261730868
 30
0.0
 11
11268.33265587493
 21
9680.335534296506
 31
0.0
  0
LINE
  5
24F03
330
239E6
100
AcDbEntity
  8
waku
  6
Continuous
370
     9
100
AcDbLine
 10
11179.64091971415
 20
9591.639344218798
 30
0.0
 11
11190.36506060183
 21
9602.36615745676
 31
0.0
  0
LINE
  5
24F04
330
239E6
100
AcDbEntity
  8
waku
  6
Continuous
370
     9
100
AcDbLine
 10
11215.30966707107
 20
9627.311209317635
 30
0.0
 11
11226.03648030913
 21
9638.038467947261
 31
0.0
  0
LINE
  5
24F05
330
239E6
100
AcDbEntity
  8
waku
  6
Continuous
370
     9
100
AcDbLine
 10
11254.88360868457
 20
9673.31170749189
 30
0.0
 11
11263.60972249279
 21
9682.038934779335
 31
0.0
  0
LINE
  5
24F06
330
239E6
100
AcDbEntity
  8
waku
  6
Continuous
370
     9
100
AcDbLine
 10
11179.64091971415
 20
9598.067236954646
 30
0.0
 11
11190.36506060183
 21
9608.794551258249
 31
0.0
  0
LINE
  5
24F07
330
239E6
100
AcDbEntity
  8
waku
  6
Continuous
370
     9
100
AcDbLine
 10
11208.8826651187
 20
9627.311209317635
 30
0.0
 11
11219.60947835659
 21
9638.038467947261
 31
0.0
  0
LINE
  5
24F08
330
239E6
100
AcDbEntity
  8
waku
  6
Continuous
370
     9
100
AcDbLine
 10
11129.63679572198
 20
9554.495431778283
 30
0.0
 11
11146.51964747327
 21
9571.377148836633
 31
0.0
  0
LINE
  5
24F09
330
239E6
100
AcDbEntity
  8
waku
  6
Continuous
370
     9
100
AcDbLine
 10
11248.45304359872
 20
9673.31170749189
 30
0.0
 11
11257.17915740694
 21
9682.038934779335
 31
0.0
  0
LINE
  5
24F0A
330
239E6
100
AcDbEntity
  8
waku
  6
Continuous
370
     9
100
AcDbLine
 10
11179.64091971415
 20
9604.495575082182
 30
0.0
 11
11187.18051008488
 21
9612.03872858649
 31
0.0
  0
LINE
  5
24F0B
330
239E6
100
AcDbEntity
  8
waku
  6
Continuous
370
     9
100
AcDbLine
 10
11202.452990816
 20
9627.311209317635
 30
0.0
 11
11213.18247640409
 21
9638.038467947261
 31
0.0
  0
LINE
  5
24F0C
330
239E6
100
AcDbEntity
  8
waku
  6
Continuous
370
     9
100
AcDbLine
 10
11129.63679572198
 20
9560.92332451413
 30
0.0
 11
11162.36506720322
 21
9593.65073304883
 31
0.0
  0
LINE
  5
24F0D
330
239E6
100
AcDbEntity
  8
waku
  6
Continuous
370
     9
100
AcDbLine
 10
11242.02604164618
 20
9673.31170749189
 30
0.0
 11
11250.75215545439
 21
9682.038934779335
 31
0.0
  0
LINE
  5
24F0E
330
239E6
100
AcDbEntity
  8
waku
  6
Continuous
370
     9
100
AcDbLine
 10
11179.64091971415
 20
9610.923467818025
 30
0.0
 11
11180.75707126598
 21
9612.03872858649
 31
0.0
  0
LINE
  5
24F0F
330
239E6
100
AcDbEntity
  8
waku
  6
Continuous
370
     9
100
AcDbLine
 10
11196.02598886352
 20
9627.311209317635
 30
0.0
 11
11206.75102053482
 21
9638.038467947261
 31
0.0
  0
LINE
  5
24F10
330
239E6
100
AcDbEntity
  8
waku
  6
Continuous
370
     9
100
AcDbLine
 10
11134.19952634848
 20
9571.905620835982
 30
0.0
 11
11162.36506720322
 21
9600.079071176367
 31
0.0
  0
LINE
  5
24F11
330
239E6
100
AcDbEntity
  8
waku
  6
Continuous
370
     9
100
AcDbLine
 10
11235.59636734366
 20
9673.31170749189
 30
0.0
 11
11244.33138898542
 21
9682.038934779335
 31
0.0
  0
LINE
  5
24F12
330
239E6
100
AcDbEntity
  8
waku
  6
Continuous
370
     9
100
AcDbLine
 10
11189.59809612766
 20
9627.311209317635
 30
0.0
 11
11200.32312779889
 21
9638.038467947261
 31
0.0
  0
LINE
  5
24F13
330
239E6
100
AcDbEntity
  8
waku
  6
Continuous
370
     9
100
AcDbLine
 10
11151.63825396516
 20
9595.780373370097
 30
0.0
 11
11157.8951162957
 21
9602.038349179762
 31
0.0
  0
LINE
  5
24F14
330
239E6
100
AcDbEntity
  8
waku
  6
Continuous
370
     9
100
AcDbLine
 10
11229.16758382441
 20
9673.31170749189
 30
0.0
 11
11237.90171468297
 21
9682.038934779335
 31
0.0
  0
LINE
  5
24F15
330
239E6
100
AcDbEntity
  8
waku
  6
Continuous
370
     9
100
AcDbLine
 10
11183.1684218252
 20
9627.311209317635
 30
0.0
 11
11193.89701662991
 21
9638.038467947261
 31
0.0
  0
LINE
  5
24F16
330
239E6
100
AcDbEntity
  8
waku
  6
Continuous
370
     9
100
AcDbLine
 10
11179.64091971415
 20
9630.208426526621
 30
0.0
 11
11187.46645154393
 21
9638.038467947261
 31
0.0
  0
LINE
  5
24F17
330
239E6
100
AcDbEntity
  8
waku
  6
Continuous
370
     9
100
AcDbLine
 10
11222.74058187186
 20
9673.31170749189
 30
0.0
 11
11231.46847724697
 21
9682.038934779335
 31
0.0
  0
LINE
  5
24F18
330
239E6
100
AcDbEntity
  8
waku
  6
Continuous
370
     9
100
AcDbLine
 10
11179.64091971415
 20
9636.636374936422
 30
0.0
 11
11181.03944959146
 21
9638.038467947261
 31
0.0
  0
LINE
  5
24F19
330
239E6
100
AcDbEntity
  8
waku
  6
Continuous
370
     9
100
AcDbLine
 10
11216.31357991949
 20
9673.31170749189
 30
0.0
 11
11231.36514637704
 21
9688.363719341102
 31
0.0
  0
LINE
  5
24F1A
330
239E6
100
AcDbEntity
  8
waku
  6
Continuous
370
     9
100
AcDbLine
 10
11209.8839056168
 20
9673.31170749189
 30
0.0
 11
11218.6100194252
 21
9682.038934779335
 31
0.0
  0
LINE
  5
24F1B
330
239E6
100
AcDbEntity
  8
waku
  6
Continuous
370
     9
100
AcDbLine
 10
11220.63566078894
 20
9684.064798838988
 30
0.0
 11
11228.61173500683
 21
9692.039091490221
 31
0.0
  0
LINE
  5
24F1C
330
239E6
100
AcDbEntity
  8
waku
  6
Continuous
370
     9
100
AcDbLine
 10
11161.95263450689
 20
9631.806547550937
 30
0.0
 11
11162.36506720322
 21
9632.220761813984
 31
0.0
  0
LINE
  5
24F1D
330
239E6
100
AcDbEntity
  8
waku
  6
Continuous
370
     9
100
AcDbLine
 10
11220.63566078894
 20
9690.493136966519
 30
0.0
 11
11222.18473305446
 21
9692.039091490221
 31
0.0
  0
LINE
  5
24F1E
330
239E6
100
AcDbEntity
  8
waku
  6
Continuous
370
     9
100
AcDbLine
 10
11189.45557079002
 20
9659.311265400809
 30
0.0
 11
11190.36506060183
 21
9660.220309821113
 31
0.0
  0
LINE
  5
24F1F
330
239E6
100
AcDbEntity
  8
waku
  6
Continuous
370
     9
100
AcDbLine
 10
11203.45601288105
 20
9673.31170749189
 30
0.0
 11
11212.18301747254
 21
9682.038934779335
 31
0.0
  0
LINE
  5
24F20
330
239E6
100
AcDbEntity
  8
waku
  6
Continuous
370
     9
100
AcDbLine
 10
11156.88140483036
 20
9633.165437568763
 30
0.0
 11
11162.36506720322
 21
9638.648654549832
 31
0.0
  0
LINE
  5
24F21
330
239E6
100
AcDbEntity
  8
waku
  6
Continuous
370
     9
100
AcDbLine
 10
11197.02901092845
 20
9673.31170749189
 30
0.0
 11
11205.75601552017
 21
9682.038934779335
 31
0.0
  0
LINE
  5
24F22
330
239E6
100
AcDbEntity
  8
waku
  6
Continuous
370
     9
100
AcDbLine
 10
11183.02856883742
 20
9659.311265400809
 30
0.0
 11
11190.36506060183
 21
9666.648647948647
 31
0.0
  0
LINE
  5
24F23
330
239E6
100
AcDbEntity
  8
waku
  6
Continuous
370
     9
100
AcDbLine
 10
11151.8110659372
 20
9634.523826520926
 30
0.0
 11
11160.06951848083
 21
9642.782112042564
 31
0.0
  0
LINE
  5
24F24
330
239E6
100
AcDbEntity
  8
waku
  6
Continuous
370
     9
100
AcDbLine
 10
11190.59666427595
 20
9673.31170749189
 30
0.0
 11
11199.32545043421
 21
9682.038934779335
 31
0.0
  0
LINE
  5
24F25
330
239E6
100
AcDbEntity
  8
waku
  6
Continuous
370
     9
100
AcDbLine
 10
11179.64091971415
 20
9662.349783120486
 30
0.0
 11
11190.36506060183
 21
9673.076986076154
 31
0.0
  0
LINE
  5
24F26
330
239E6
100
AcDbEntity
  8
waku
  6
Continuous
370
     9
100
AcDbLine
 10
11146.7416178276
 20
9635.882326821016
 30
0.0
 11
11155.00096115456
 21
9644.140333972835
 31
0.0
  0
LINE
  5
24F27
330
239E6
100
AcDbEntity
  8
waku
  6
Continuous
370
     9
100
AcDbLine
 10
11179.64091971415
 20
9668.777620182378
 30
0.0
 11
11192.89755769846
 21
9682.038934779335
 31
0.0
  0
LINE
  5
24F28
330
239E6
100
AcDbEntity
  8
waku
  6
Continuous
370
     9
100
AcDbLine
 10
11141.67395128459
 20
9637.240326055469
 30
0.0
 11
11149.92973147802
 21
9645.498778598973
 31
0.0
  0
LINE
  5
24F29
330
239E6
100
AcDbEntity
  8
waku
  6
Continuous
370
     9
100
AcDbLine
 10
11179.64091971415
 20
9675.205958309913
 30
0.0
 11
11186.47144652924
 21
9682.038934779335
 31
0.0
  0
LINE
  5
24F2A
330
239E6
100
AcDbEntity
  8
waku
  6
Continuous
370
     9
100
AcDbLine
 10
11136.60004925813
 20
9638.598770681607
 30
0.0
 11
11144.85850180148
 21
9646.857223225111
 31
0.0
  0
LINE
  5
24F2B
330
239E6
100
AcDbEntity
  8
waku
  6
Continuous
370
     9
100
AcDbLine
 10
11179.64091971415
 20
9681.634296437421
 30
0.0
 11
11180.04177222667
 21
9682.038934779335
 31
0.0
  0
LINE
  5
24F2C
330
239E6
100
AcDbEntity
  8
waku
  6
Continuous
370
     9
100
AcDbLine
 10
11131.53238271501
 20
9639.95721530772
 30
0.0
 11
11139.79083525853
 21
9648.215667851253
 31
0.0
  0
LINE
  5
24F2D
330
239E6
100
AcDbEntity
  8
waku
  6
Continuous
370
     9
100
AcDbLine
 10
11129.63679572198
 20
9644.490857225544
 30
0.0
 11
11134.72227793214
 21
9649.574112477365
 31
0.0
  0
LINE
  5
24F2E
330
239E6
100
AcDbEntity
  8
waku
  6
Continuous
370
     9
100
AcDbLine
 10
11158.01002734915
 20
9672.862752677744
 30
0.0
 11
11162.36506720322
 21
9677.217792531608
 31
0.0
  0
LINE
  5
24F2F
330
239E6
100
AcDbEntity
  8
waku
  6
Continuous
370
     9
100
AcDbLine
 10
11129.63679572198
 20
9650.919195353075
 30
0.0
 11
11129.65104825572
 21
9650.932501429549
 31
0.0
  0
LINE
  5
24F30
330
239E6
100
AcDbEntity
  8
waku
  6
Continuous
370
     9
100
AcDbLine
 10
11152.93968845622
 20
9674.221197303886
 30
0.0
 11
11161.19814099969
 21
9682.479649847389
 31
0.0
  0
LINE
  5
24F31
330
239E6
100
AcDbEntity
  8
waku
  6
Continuous
370
     9
100
AcDbLine
 10
11147.87380347981
 20
9675.579641929997
 30
0.0
 11
11156.12869288986
 21
9683.837593407886
 31
0.0
  0
LINE
  5
24F32
330
239E6
100
AcDbEntity
  8
waku
  6
Continuous
370
     9
100
AcDbLine
 10
11142.79901067008
 20
9676.938364925931
 30
0.0
 11
11151.06191713035
 21
9685.196539099642
 31
0.0
  0
LINE
  5
24F33
330
239E6
100
AcDbEntity
  8
waku
  6
Continuous
370
     9
100
AcDbLine
 10
11137.73134412707
 20
9678.296531182274
 30
0.0
 11
11145.9871243205
 21
9686.554482660136
 31
0.0
  0
LINE
  5
24F34
330
239E6
100
AcDbEntity
  8
waku
  6
Continuous
370
     9
100
AcDbLine
 10
11132.65922366727
 20
9679.655254178213
 30
0.0
 11
11140.91678542735
 21
9687.913428351919
 31
0.0
  0
LINE
  5
24F35
330
239E6
100
AcDbEntity
  8
waku
  6
Continuous
370
     9
100
AcDbLine
 10
11129.63679572198
 20
9683.060440599035
 30
0.0
 11
11135.85000966778
 21
9689.271872978055
 31
0.0
  0
LINE
  5
24F36
330
239E6
100
AcDbEntity
  8
waku
  6
Continuous
370
     9
100
AcDbLine
 10
11129.63679572198
 20
9689.488333334852
 30
0.0
 11
11130.78056155801
 21
9690.630317604167
 31
0.0
  0
LINE
  5
24F37
330
239E6
100
AcDbEntity
  8
waku
  6
Continuous
370
     9
100
AcDbLine
 10
11522.72791292294
 20
9561.891606027945
 30
0.0
 11
11537.74295726283
 21
9576.908404097418
 31
0.0
  0
LINE
  5
24F38
330
239E6
100
AcDbEntity
  8
waku
  6
Continuous
370
     9
100
AcDbLine
 10
11628.73291449602
 20
9667.891736129474
 30
0.0
 11
11635.45654730776
 21
9674.618932074743
 31
0.0
  0
LINE
  5
24F39
330
239E6
100
AcDbEntity
  8
waku
  6
Continuous
370
     9
100
AcDbLine
 10
11560.14794036855
 20
9599.311215918849
 30
0.0
 11
11568.45538599688
 21
9607.619552330605
 31
0.0
  0
LINE
  5
24F3A
330
239E6
100
AcDbEntity
  8
waku
  6
Continuous
370
     9
100
AcDbLine
 10
11522.72791292294
 20
9555.463267900435
 30
0.0
 11
11546.52608120602
 21
9579.261436183541
 31
0.0
  0
LINE
  5
24F3B
330
239E6
100
AcDbEntity
  8
waku
  6
Continuous
370
     9
100
AcDbLine
 10
11628.73291449602
 20
9661.46339800194
 30
0.0
 11
11635.45654730776
 21
9668.190593947208
 31
0.0
  0
LINE
  5
24F3C
330
239E6
100
AcDbEntity
  8
waku
  6
Continuous
370
     9
100
AcDbLine
 10
11566.57494232097
 20
9599.311215918849
 30
0.0
 11
11569.30252097365
 21
9602.038349179762
 31
0.0
  0
LINE
  5
24F3D
330
239E6
100
AcDbEntity
  8
waku
  6
Continuous
370
     9
100
AcDbLine
 10
11592.73368651185
 20
9625.463279234445
 30
0.0
 11
11595.3035965096
 21
9628.038533932249
 31
0.0
  0
LINE
  5
24F3E
330
239E6
100
AcDbEntity
  8
waku
  6
Continuous
370
     9
100
AcDbLine
 10
11524.6128105156
 20
9550.918491190602
 30
0.0
 11
11555.3074235828
 21
9581.614301247768
 31
0.0
  0
LINE
  5
24F3F
330
239E6
100
AcDbEntity
  8
waku
  6
Continuous
370
     9
100
AcDbLine
 10
11628.73291449602
 20
9655.035004200453
 30
0.0
 11
11635.45654730776
 21
9661.762701211388
 31
0.0
  0
LINE
  5
24F40
330
239E6
100
AcDbEntity
  8
waku
  6
Continuous
370
     9
100
AcDbLine
 10
11573.00194427357
 20
9599.311215918849
 30
0.0
 11
11575.73397684287
 21
9602.038349179762
 31
0.0
  0
LINE
  5
24F41
330
239E6
100
AcDbEntity
  8
waku
  6
Continuous
370
     9
100
AcDbLine
 10
11593.00359387036
 20
9619.31152934062
 30
0.0
 11
11601.73059846197
 21
9628.038533932249
 31
0.0
  0
LINE
  5
24F42
330
239E6
100
AcDbEntity
  8
waku
  6
Continuous
370
     9
100
AcDbLine
 10
11533.39682524253
 20
9553.271523276695
 30
0.0
 11
11564.09411065965
 21
9583.967027127087
 31
0.0
  0
LINE
  5
24F43
330
239E6
100
AcDbEntity
  8
waku
  6
Continuous
370
     9
100
AcDbLine
 10
11628.73291449602
 20
9648.607000116696
 30
0.0
 11
11635.45654730776
 21
9655.334363083854
 31
0.0
  0
LINE
  5
24F44
330
239E6
100
AcDbEntity
  8
waku
  6
Continuous
370
     9
100
AcDbLine
 10
11571.08141534639
 20
9590.960121905743
 30
0.0
 11
11572.15926321361
 21
9592.03841516472
 31
0.0
  0
LINE
  5
24F45
330
239E6
100
AcDbEntity
  8
waku
  6
Continuous
370
     9
100
AcDbLine
 10
11599.43148660629
 20
9619.31152934062
 30
0.0
 11
11608.16027276443
 21
9628.038533932249
 31
0.0
  0
LINE
  5
24F46
330
239E6
100
AcDbEntity
  8
waku
  6
Continuous
370
     9
100
AcDbLine
 10
11579.43250935947
 20
9599.311215918849
 30
0.0
 11
11582.16454192895
 21
9602.038349179762
 31
0.0
  0
LINE
  5
24F47
330
239E6
100
AcDbEntity
  8
waku
  6
Continuous
370
     9
100
AcDbLine
 10
11542.17460448559
 20
9555.624471851855
 30
0.0
 11
11565.45611841922
 21
9578.906097133272
 31
0.0
  0
LINE
  5
24F48
330
239E6
100
AcDbEntity
  8
waku
  6
Continuous
370
     9
100
AcDbLine
 10
11628.73291449602
 20
9642.178884685003
 30
0.0
 11
11635.45654730776
 21
9648.906024956319
 31
0.0
  0
LINE
  5
24F49
330
239E6
100
AcDbEntity
  8
waku
  6
Continuous
370
     9
100
AcDbLine
 10
11575.36335347642
 20
9588.811328842226
 30
0.0
 11
11578.58893751624
 21
9592.03841516472
 31
0.0
  0
LINE
  5
24F4A
330
239E6
100
AcDbEntity
  8
waku
  6
Continuous
370
     9
100
AcDbLine
 10
11605.86205169207
 20
9619.31152934062
 30
0.0
 11
11614.58727471703
 21
9628.038533932249
 31
0.0
  0
LINE
  5
24F4B
330
239E6
100
AcDbEntity
  8
waku
  6
Continuous
370
     9
100
AcDbLine
 10
11585.85951131201
 20
9599.311215918849
 30
0.0
 11
11588.5879807479
 21
9602.038349179762
 31
0.0
  0
LINE
  5
24F4C
330
239E6
100
AcDbEntity
  8
waku
  6
Continuous
370
     9
100
AcDbLine
 10
11550.95505607887
 20
9557.977531774955
 30
0.0
 11
11565.45611841922
 21
9572.478148723472
 31
0.0
  0
LINE
  5
24F4D
330
239E6
100
AcDbEntity
  8
waku
  6
Continuous
370
     9
100
AcDbLine
 10
11612.28905364456
 20
9619.31152934062
 30
0.0
 11
11635.45654730776
 21
9642.478132220473
 31
0.0
  0
LINE
  5
24F4E
330
239E6
100
AcDbEntity
  8
waku
  6
Continuous
370
     9
100
AcDbLine
 10
11579.25994607135
 20
9586.279666692794
 30
0.0
 11
11585.01772103532
 21
9592.03841516472
 31
0.0
  0
LINE
  5
24F4F
330
239E6
100
AcDbEntity
  8
waku
  6
Continuous
370
     9
100
AcDbLine
 10
11592.2891856146
 20
9599.311215918849
 30
0.0
 11
11595.01765505042
 21
9602.038349179762
 31
0.0
  0
LINE
  5
24F50
330
239E6
100
AcDbEntity
  8
waku
  6
Continuous
370
     9
100
AcDbLine
 10
11559.73818002231
 20
9560.33009063241
 30
0.0
 11
11565.45611841922
 21
9566.049337367273
 31
0.0
  0
LINE
  5
24F51
330
239E6
100
AcDbEntity
  8
waku
  6
Continuous
370
     9
100
AcDbLine
 10
11618.71783716387
 20
9619.31152934062
 30
0.0
 11
11635.45654730776
 21
9636.049348701277
 31
0.0
  0
LINE
  5
24F52
330
239E6
100
AcDbEntity
  8
waku
  6
Continuous
370
     9
100
AcDbLine
 10
11583.15583682361
 20
9583.748460538842
 30
0.0
 11
11589.76826870166
 21
9590.361459812916
 31
0.0
  0
LINE
  5
24F53
330
239E6
100
AcDbEntity
  8
waku
  6
Continuous
370
     9
100
AcDbLine
 10
11598.71885991711
 20
9599.311215918849
 30
0.0
 11
11601.44465700296
 21
9602.038349179762
 31
0.0
  0
LINE
  5
24F54
330
239E6
100
AcDbEntity
  8
waku
  6
Continuous
370
     9
100
AcDbLine
 10
11587.05158196626
 20
9581.217348989154
 30
0.0
 11
11593.42938831707
 21
9587.595187758058
 31
0.0
  0
LINE
  5
24F55
330
239E6
100
AcDbEntity
  8
waku
  6
Continuous
370
     9
100
AcDbLine
 10
11605.14497108622
 20
9599.311215918849
 30
0.0
 11
11607.87254973883
 21
9602.038349179762
 31
0.0
  0
LINE
  5
24F56
330
239E6
100
AcDbEntity
  8
waku
  6
Continuous
370
     9
100
AcDbLine
 10
11590.94883244267
 20
9578.685259406372
 30
0.0
 11
11597.27400930497
 21
9585.009689051618
 31
0.0
  0
LINE
  5
24F57
330
239E6
100
AcDbEntity
  8
waku
  6
Continuous
370
     9
100
AcDbLine
 10
11611.57464538867
 20
9599.311215918849
 30
0.0
 11
11614.2995516912
 21
9602.038349179762
 31
0.0
  0
LINE
  5
24F58
330
239E6
100
AcDbEntity
  8
waku
  6
Continuous
370
     9
100
AcDbLine
 10
11594.84556963583
 20
9576.153503309775
 30
0.0
 11
11601.30213166509
 21
9582.612089960445
 31
0.0
  0
LINE
  5
24F59
330
239E6
100
AcDbEntity
  8
waku
  6
Continuous
370
     9
100
AcDbLine
 10
11618.00342890793
 20
9599.311215918849
 30
0.0
 11
11620.72922599377
 21
9602.038349179762
 31
0.0
  0
LINE
  5
24F5A
330
239E6
100
AcDbEntity
  8
waku
  6
Continuous
370
     9
100
AcDbLine
 10
11598.74230996313
 20
9573.621745176884
 30
0.0
 11
11605.52711714831
 21
9580.410546719727
 31
0.0
  0
LINE
  5
24F5B
330
239E6
100
AcDbEntity
  8
waku
  6
Continuous
370
     9
100
AcDbLine
 10
11624.43221242712
 20
9599.311215918849
 30
0.0
 11
11627.15890029641
 21
9602.038349179762
 31
0.0
  0
LINE
  5
24F5C
330
239E6
100
AcDbEntity
  8
waku
  6
Continuous
370
     9
100
AcDbLine
 10
11602.63754070641
 20
9571.090967838477
 30
0.0
 11
11609.96232750457
 21
9578.414774435513
 31
0.0
  0
LINE
  5
24F5D
330
239E6
100
AcDbEntity
  8
waku
  6
Continuous
370
     9
100
AcDbLine
 10
11691.81997371684
 20
9660.271919582108
 30
0.0
 11
11720.98422096906
 21
9689.43755868328
 31
0.0
  0
LINE
  5
24F5E
330
239E6
100
AcDbEntity
  8
waku
  6
Continuous
370
     9
100
AcDbLine
 10
11612.73088219195
 20
9581.181547555983
 30
0.0
 11
11616.58886493001
 21
9585.038639510853
 31
0.0
  0
LINE
  5
24F5F
330
239E6
100
AcDbEntity
  8
waku
  6
Continuous
370
     9
100
AcDbLine
 10
11630.86455907978
 20
9599.311215918849
 30
0.0
 11
11633.5859022489
 21
9602.038349179762
 31
0.0
  0
LINE
  5
24F60
330
239E6
100
AcDbEntity
  8
waku
  6
Continuous
370
     9
100
AcDbLine
 10
11606.53395648462
 20
9568.559420569004
 30
0.0
 11
11623.01586688261
 21
9585.038639510853
 31
0.0
  0
LINE
  5
24F61
330
239E6
100
AcDbEntity
  8
waku
  6
Continuous
370
     9
100
AcDbLine
 10
11718.08739347771
 20
9680.110221780038
 30
0.0
 11
11724.84042214053
 21
9686.866312510588
 31
0.0
  0
LINE
  5
24F62
330
239E6
100
AcDbEntity
  8
waku
  6
Continuous
370
     9
100
AcDbLine
 10
11610.43344388464
 20
9566.02587763057
 30
0.0
 11
11625.45483172601
 21
9581.051938576925
 31
0.0
  0
LINE
  5
24F63
330
239E6
100
AcDbEntity
  8
waku
  6
Continuous
370
     9
100
AcDbLine
 10
11721.94537621601
 20
9677.538919933393
 30
0.0
 11
11728.69751409532
 21
9684.294175554549
 31
0.0
  0
LINE
  5
24F64
330
239E6
100
AcDbEntity
  8
waku
  6
Continuous
370
     9
100
AcDbLine
 10
11614.32960474995
 20
9563.494495980981
 30
0.0
 11
11625.45483172601
 21
9574.62360044939
 31
0.0
  0
LINE
  5
24F65
330
239E6
100
AcDbEntity
  8
waku
  6
Continuous
370
     9
100
AcDbLine
 10
11725.79890503732
 20
9674.967618086773
 30
0.0
 11
11732.55905996715
 21
9681.722929381884
 31
0.0
  0
LINE
  5
24F66
330
239E6
100
AcDbEntity
  8
waku
  6
Continuous
370
     9
100
AcDbLine
 10
11618.22386560011
 20
9560.964348793646
 30
0.0
 11
11630.11362870612
 21
9572.853196355596
 31
0.0
  0
LINE
  5
24F67
330
239E6
100
AcDbEntity
  8
waku
  6
Continuous
370
     9
100
AcDbLine
 10
11729.65599699235
 20
9672.395926522421
 30
0.0
 11
11736.41347957173
 21
9679.151683209219
 31
0.0
  0
LINE
  5
24F68
330
239E6
100
AcDbEntity
  8
waku
  6
Continuous
370
     9
100
AcDbLine
 10
11622.12117990925
 20
9558.432217737989
 30
0.0
 11
11635.45654730776
 21
9571.766997394304
 31
0.0
  0
LINE
  5
24F69
330
239E6
100
AcDbEntity
  8
waku
  6
Continuous
370
     9
100
AcDbLine
 10
11733.51665208056
 20
9669.824736023709
 30
0.0
 11
11740.26878995987
 21
9676.580437036525
 31
0.0
  0
LINE
  5
24F6A
330
239E6
100
AcDbEntity
  8
waku
  6
Continuous
370
     9
100
AcDbLine
 10
11691.81997371684
 20
9628.130730010134
 30
0.0
 11
11695.72873110671
 21
9632.038596616574
 31
0.0
  0
LINE
  5
24F6B
330
239E6
100
AcDbEntity
  8
waku
  6
Continuous
370
     9
100
AcDbLine
 10
11626.01719856714
 20
9555.900928482241
 30
0.0
 11
11635.45654730776
 21
9565.338965473543
 31
0.0
  0
LINE
  5
24F6C
330
239E6
100
AcDbEntity
  8
waku
  6
Continuous
370
     9
100
AcDbLine
 10
11759.81970317584
 20
9689.702121341605
 30
0.0
 11
11762.16068184962
 21
9692.039091490221
 31
0.0
  0
LINE
  5
24F6D
330
239E6
100
AcDbEntity
  8
waku
  6
Continuous
370
     9
100
AcDbLine
 10
11696.42888682875
 20
9626.311249320529
 30
0.0
 11
11702.15484227593
 21
9632.038596616574
 31
0.0
  0
LINE
  5
24F6E
330
239E6
100
AcDbEntity
  8
waku
  6
Continuous
370
     9
100
AcDbLine
 10
11737.37107168526
 20
9667.253489851015
 30
0.0
 11
11744.12588191473
 21
9674.009190863861
 31
0.0
  0
LINE
  5
24F6F
330
239E6
100
AcDbEntity
  8
waku
  6
Continuous
370
     9
100
AcDbLine
 10
11629.91638230326
 20
9553.367582837816
 30
0.0
 11
11635.45654730776
 21
9558.910627346037
 31
0.0
  0
LINE
  5
24F70
330
239E6
100
AcDbEntity
  8
waku
  6
Continuous
370
     9
100
AcDbLine
 10
11759.81970317584
 20
9683.274228605757
 30
0.0
 11
11768.58768380209
 21
9692.039091490221
 31
0.0
  0
LINE
  5
24F71
330
239E6
100
AcDbEntity
  8
waku
  6
Continuous
370
     9
100
AcDbLine
 10
11702.86212426474
 20
9626.311249320529
 30
0.0
 11
11708.58273501174
 21
9632.038596616574
 31
0.0
  0
LINE
  5
24F72
330
239E6
100
AcDbEntity
  8
waku
  6
Continuous
370
     9
100
AcDbLine
 10
11741.22638207352
 20
9664.682243678349
 30
0.0
 11
11744.54722244483
 21
9668.001525178766
 31
0.0
  0
LINE
  5
24F73
330
239E6
100
AcDbEntity
  8
waku
  6
Continuous
370
     9
100
AcDbLine
 10
11633.10309766702
 20
9550.130593307418
 30
0.0
 11
11635.45654730776
 21
9552.482289218502
 31
0.0
  0
LINE
  5
24F74
330
239E6
100
AcDbEntity
  8
waku
  6
Continuous
370
     9
100
AcDbLine
 10
11766.28500881282
 20
9683.311196115241
 30
0.0
 11
11775.01112262117
 21
9692.039091490221
 31
0.0
  0
LINE
  5
24F75
330
239E6
100
AcDbEntity
  8
waku
  6
Continuous
370
     9
100
AcDbLine
 10
11709.28912621729
 20
9626.311249320529
 30
0.0
 11
11715.01240931432
 21
9632.038596616574
 31
0.0
  0
LINE
  5
24F76
330
239E6
100
AcDbEntity
  8
waku
  6
Continuous
370
     9
100
AcDbLine
 10
11759.81970317584
 20
9676.845890478247
 30
0.0
 11
11762.54550026168
 21
9679.573023739164
 31
0.0
  0
LINE
  5
24F77
330
239E6
100
AcDbEntity
  8
waku
  6
Continuous
370
     9
100
AcDbLine
 10
11691.81997371684
 20
9602.417822891709
 30
0.0
 11
11694.44511228291
 21
9605.038952932623
 31
0.0
  0
LINE
  5
24F78
330
239E6
100
AcDbEntity
  8
waku
  6
Continuous
370
     9
100
AcDbLine
 10
11772.71201076531
 20
9683.311196115241
 30
0.0
 11
11781.44079692363
 21
9692.039091490221
 31
0.0
  0
LINE
  5
24F79
330
239E6
100
AcDbEntity
  8
waku
  6
Continuous
370
     9
100
AcDbLine
 10
11714.81821854149
 20
9625.417849282992
 30
0.0
 11
11721.44030205019
 21
9632.038596616574
 31
0.0
  0
LINE
  5
24F7A
330
239E6
100
AcDbEntity
  8
waku
  6
Continuous
370
     9
100
AcDbLine
 10
11759.81970317584
 20
9670.417552350714
 30
0.0
 11
11762.54550026168
 21
9673.145131003318
 31
0.0
  0
LINE
  5
24F7B
330
239E6
100
AcDbEntity
  8
waku
  6
Continuous
370
     9
100
AcDbLine
 10
11695.14259565486
 20
9599.311215918849
 30
0.0
 11
11700.86676953527
 21
9605.038952932623
 31
0.0
  0
LINE
  5
24F7C
330
239E6
100
AcDbEntity
  8
waku
  6
Continuous
370
     9
100
AcDbLine
 10
11779.1479205514
 20
9683.311196115241
 30
0.0
 11
11787.86779887623
 21
9692.039091490221
 31
0.0
  0
LINE
  5
24F7D
330
239E6
100
AcDbEntity
  8
waku
  6
Continuous
370
     9
100
AcDbLine
 10
11714.81821854149
 20
9618.989511155483
 30
0.0
 11
11721.54630526996
 21
9625.716707100751
 31
0.0
  0
LINE
  5
24F7E
330
239E6
100
AcDbEntity
  8
waku
  6
Continuous
370
     9
100
AcDbLine
 10
11759.81970317584
 20
9663.98965961487
 30
0.0
 11
11762.54550026168
 21
9666.716792875785
 31
0.0
  0
LINE
  5
24F7F
330
239E6
100
AcDbEntity
  8
waku
  6
Continuous
370
     9
100
AcDbLine
 10
11722.14313012226
 20
9626.311249320529
 30
0.0
 11
11727.86730400256
 21
9632.038596616574
 31
0.0
  0
LINE
  5
24F80
330
239E6
100
AcDbEntity
  8
waku
  6
Continuous
370
     9
100
AcDbLine
 10
11701.5695976074
 20
9599.311215918849
 30
0.0
 11
11707.29377148769
 21
9605.038952932623
 31
0.0
  0
LINE
  5
24F81
330
239E6
100
AcDbEntity
  8
waku
  6
Continuous
370
     9
100
AcDbLine
 10
11785.57314093735
 20
9683.311196115241
 30
0.0
 11
11794.29747317874
 21
9692.039091490221
 31
0.0
  0
LINE
  5
24F82
330
239E6
100
AcDbEntity
  8
waku
  6
Continuous
370
     9
100
AcDbLine
 10
11714.81821854149
 20
9612.561618419638
 30
0.0
 11
11721.54630526996
 21
9619.288257625306
 31
0.0
  0
LINE
  5
24F83
330
239E6
100
AcDbEntity
  8
waku
  6
Continuous
370
     9
100
AcDbLine
 10
11759.81970317584
 20
9657.561321487335
 30
0.0
 11
11762.54550026168
 21
9660.288900139937
 31
0.0
  0
LINE
  5
24F84
330
239E6
100
AcDbEntity
  8
waku
  6
Continuous
370
     9
100
AcDbLine
 10
11728.57013207463
 20
9626.311249320529
 30
0.0
 11
11734.29608752175
 21
9632.038596616574
 31
0.0
  0
LINE
  5
24F85
330
239E6
100
AcDbEntity
  8
waku
  6
Continuous
370
     9
100
AcDbLine
 10
11707.99749034327
 20
9599.311215918849
 30
0.0
 11
11713.72611814043
 21
9605.038952932623
 31
0.0
  0
LINE
  5
24F86
330
239E6
100
AcDbEntity
  8
waku
  6
Continuous
370
     9
100
AcDbLine
 10
11791.99568897291
 20
9683.311196115241
 30
0.0
 11
11800.72269356452
 21
9692.039091490221
 31
0.0
  0
LINE
  5
24F87
330
239E6
100
AcDbEntity
  8
waku
  6
Continuous
370
     9
100
AcDbLine
 10
11714.81821854149
 20
9606.132834900414
 30
0.0
 11
11721.54630526996
 21
9612.860754607169
 31
0.0
  0
LINE
  5
24F88
330
239E6
100
AcDbEntity
  8
waku
  6
Continuous
370
     9
100
AcDbLine
 10
11759.81970317584
 20
9651.132872011892
 30
0.0
 11
11762.54550026168
 21
9653.860116620741
 31
0.0
  0
LINE
  5
24F89
330
239E6
100
AcDbEntity
  8
waku
  6
Continuous
370
     9
100
AcDbLine
 10
11734.99713402722
 20
9626.311249320529
 30
0.0
 11
11740.72398025773
 21
9632.038596616574
 31
0.0
  0
LINE
  5
24F8A
330
239E6
100
AcDbEntity
  8
waku
  6
Continuous
370
     9
100
AcDbLine
 10
11714.4271646459
 20
9599.311215918849
 30
0.0
 11
11721.54630526996
 21
9606.432583501524
 31
0.0
  0
LINE
  5
24F8B
330
239E6
100
AcDbEntity
  8
waku
  6
Continuous
370
     9
100
AcDbLine
 10
11798.42625405882
 20
9683.311196115241
 30
0.0
 11
11807.15236786704
 21
9692.039091490221
 31
0.0
  0
LINE
  5
24F8C
330
239E6
100
AcDbEntity
  8
waku
  6
Continuous
370
     9
100
AcDbLine
 10
11741.42680832969
 20
9626.311249320529
 30
0.0
 11
11744.54722244483
 21
9629.431719109458
 31
0.0
  0
LINE
  5
24F8D
330
239E6
100
AcDbEntity
  8
waku
  6
Continuous
370
     9
100
AcDbLine
 10
11779.6797182182
 20
9664.565105666312
 30
0.0
 11
11782.15342361285
 21
9667.038811060916
 31
0.0
  0
LINE
  5
24F8E
330
239E6
100
AcDbEntity
  8
waku
  6
Continuous
370
     9
100
AcDbLine
 10
11759.81970317584
 20
9644.704533884384
 30
0.0
 11
11762.54550026168
 21
9647.431778493206
 31
0.0
  0
LINE
  5
24F8F
330
239E6
100
AcDbEntity
  8
waku
  6
Continuous
370
     9
100
AcDbLine
 10
11691.81997371684
 20
9570.276577645778
 30
0.0
 11
11693.58105242239
 21
9572.038547134615
 31
0.0
  0
LINE
  5
24F90
330
239E6
100
AcDbEntity
  8
waku
  6
Continuous
370
     9
100
AcDbLine
 10
11804.85503757801
 20
9683.311196115241
 30
0.0
 11
11813.58115138624
 21
9692.039091490221
 31
0.0
  0
LINE
  5
24F91
330
239E6
100
AcDbEntity
  8
waku
  6
Continuous
370
     9
100
AcDbLine
 10
11714.81821854149
 20
9593.276548363077
 30
0.0
 11
11726.5801220454
 21
9605.038952932623
 31
0.0
  0
LINE
  5
24F92
330
239E6
100
AcDbEntity
  8
waku
  6
Continuous
370
     9
100
AcDbLine
 10
11780.79497898677
 20
9659.250692132232
 30
0.0
 11
11784.57100965569
 21
9663.028058976241
 31
0.0
  0
LINE
  5
24F93
330
239E6
100
AcDbEntity
  8
waku
  6
Continuous
370
     9
100
AcDbLine
 10
11759.81970317584
 20
9638.276752496446
 30
0.0
 11
11762.54550026168
 21
9641.00388575736
 31
0.0
  0
LINE
  5
24F94
330
239E6
100
AcDbEntity
  8
waku
  6
Continuous
370
     9
100
AcDbLine
 10
11691.81997371684
 20
9563.848239518243
 30
0.0
 11
11700.00894515814
 21
9572.038547134615
 31
0.0
  0
LINE
  5
24F95
330
239E6
100
AcDbEntity
  8
waku
  6
Continuous
370
     9
100
AcDbLine
 10
11811.28025796373
 20
9683.311196115241
 30
0.0
 11
11820.00904412211
 21
9692.039091490221
 31
0.0
  0
LINE
  5
24F96
330
239E6
100
AcDbEntity
  8
waku
  6
Continuous
370
     9
100
AcDbLine
 10
11714.81821854149
 20
9586.848210235572
 30
0.0
 11
11721.54630526996
 21
9593.575461854795
 31
0.0
  0
LINE
  5
24F97
330
239E6
100
AcDbEntity
  8
waku
  6
Continuous
370
     9
100
AcDbLine
 10
11781.90845818856
 20
9653.936723989817
 30
0.0
 11
11785.68448885743
 21
9657.71453622551
 31
0.0
  0
LINE
  5
24F98
330
239E6
100
AcDbEntity
  8
waku
  6
Continuous
370
     9
100
AcDbLine
 10
11727.28473168429
 20
9599.311215918849
 30
0.0
 11
11733.00979634786
 21
9605.038952932623
 31
0.0
  0
LINE
  5
24F99
330
239E6
100
AcDbEntity
  8
waku
  6
Continuous
370
     9
100
AcDbLine
 10
11759.81970317584
 20
9631.848414368938
 30
0.0
 11
11762.54550026168
 21
9634.575825999654
 31
0.0
  0
LINE
  5
24F9A
330
239E6
100
AcDbEntity
  8
waku
  6
Continuous
370
     9
100
AcDbLine
 10
11691.81997371684
 20
9557.419901390707
 30
0.0
 11
11706.43861946083
 21
9572.038547134615
 31
0.0
  0
LINE
  5
24F9B
330
239E6
100
AcDbEntity
  8
waku
  6
Continuous
370
     9
100
AcDbLine
 10
11817.70993226636
 20
9683.311196115241
 30
0.0
 11
11826.43960920818
 21
9692.039091490221
 31
0.0
  0
LINE
  5
24F9C
330
239E6
100
AcDbEntity
  8
waku
  6
Continuous
370
     9
100
AcDbLine
 10
11714.81821854149
 20
9580.419927782021
 30
0.0
 11
11721.54630526996
 21
9587.147123727287
 31
0.0
  0
LINE
  5
24F9D
330
239E6
100
AcDbEntity
  8
waku
  6
Continuous
370
     9
100
AcDbLine
 10
11783.02193739025
 20
9648.622755847398
 30
0.0
 11
11786.79707727579
 21
9652.400122691403
 31
0.0
  0
LINE
  5
24F9E
330
239E6
100
AcDbEntity
  8
waku
  6
Continuous
370
     9
100
AcDbLine
 10
11733.71084285333
 20
9599.311215918849
 30
0.0
 11
11739.43768908384
 21
9605.038952932623
 31
0.0
  0
LINE
  5
24F9F
330
239E6
100
AcDbEntity
  8
waku
  6
Continuous
370
     9
100
AcDbLine
 10
11759.81970317584
 20
9625.420076241404
 30
0.0
 11
11762.54550026168
 21
9628.147209502321
 31
0.0
  0
LINE
  5
24FA0
330
239E6
100
AcDbEntity
  8
waku
  6
Continuous
370
     9
100
AcDbLine
 10
11691.81997371684
 20
9550.991980817913
 30
0.0
 11
11712.8656214132
 21
9572.038547134615
 31
0.0
  0
LINE
  5
24FA1
330
239E6
100
AcDbEntity
  8
waku
  6
Continuous
370
     9
100
AcDbLine
 10
11824.13960656906
 20
9683.311196115241
 30
0.0
 11
11832.86661116055
 21
9692.039091490221
 31
0.0
  0
LINE
  5
24FA2
330
239E6
100
AcDbEntity
  8
waku
  6
Continuous
370
     9
100
AcDbLine
 10
11714.81821854149
 20
9573.991589654484
 30
0.0
 11
11721.54630526996
 21
9580.719230991441
 31
0.0
  0
LINE
  5
24FA3
330
239E6
100
AcDbEntity
  8
waku
  6
Continuous
370
     9
100
AcDbLine
 10
11784.13541659204
 20
9643.308787704981
 30
0.0
 11
11787.91411961095
 21
9647.086878310473
 31
0.0
  0
LINE
  5
24FA4
330
239E6
100
AcDbEntity
  8
waku
  6
Continuous
370
     9
100
AcDbLine
 10
11740.13784480587
 20
9599.311215918849
 30
0.0
 11
11744.54722244483
 21
9603.719257382726
 31
0.0
  0
LINE
  5
24FA5
330
239E6
100
AcDbEntity
  8
waku
  6
Continuous
370
     9
100
AcDbLine
 10
11759.81970317584
 20
9618.991738113869
 30
0.0
 11
11762.54550026168
 21
9621.718871374785
 31
0.0
  0
LINE
  5
24FA6
330
239E6
100
AcDbEntity
  8
waku
  6
Continuous
370
     9
100
AcDbLine
 10
11696.57141216661
 20
9549.311100451927
 30
0.0
 11
11721.54630526996
 21
9574.290837189952
 31
0.0
  0
LINE
  5
24FA7
330
239E6
100
AcDbEntity
  8
waku
  6
Continuous
370
     9
100
AcDbLine
 10
11830.56749930481
 20
9683.311196115241
 30
0.0
 11
11833.54716964862
 21
9686.290810785164
 31
0.0
  0
LINE
  5
24FA8
330
239E6
100
AcDbEntity
  8
waku
  6
Continuous
370
     9
100
AcDbLine
 10
11759.81970317584
 20
9612.563399986363
 30
0.0
 11
11762.54550026168
 21
9615.290533247275
 31
0.0
  0
LINE
  5
24FA9
330
239E6
100
AcDbEntity
  8
waku
  6
Continuous
370
     9
100
AcDbLine
 10
11808.40124613976
 20
9661.14405216688
 30
0.0
 11
11814.17886702179
 21
9666.925681574046
 31
0.0
  0
LINE
  5
24FAA
330
239E6
100
AcDbEntity
  8
waku
  6
Continuous
370
     9
100
AcDbLine
 10
11778.56623901646
 20
9631.311272002021
 30
0.0
 11
11783.29451709885
 21
9636.038603626971
 31
0.0
  0
LINE
  5
24FAB
330
239E6
100
AcDbEntity
  8
waku
  6
Continuous
370
     9
100
AcDbLine
 10
11785.25067736037
 20
9637.99481956256
 30
0.0
 11
11789.02670802936
 21
9641.772186406569
 31
0.0
  0
LINE
  5
24FAC
330
239E6
100
AcDbEntity
  8
waku
  6
Continuous
370
     9
100
AcDbLine
 10
11702.99574176912
 20
9549.311100451927
 30
0.0
 11
11725.72229766838
 21
9572.038547134615
 31
0.0
  0
LINE
  5
24FAD
330
239E6
100
AcDbEntity
  8
waku
  6
Continuous
370
     9
100
AcDbLine
 10
11830.8204817795
 20
9677.135395070697
 30
0.0
 11
11833.54716964862
 21
9679.862973723301
 31
0.0
  0
LINE
  5
24FAE
330
239E6
100
AcDbEntity
  8
waku
  6
Continuous
370
     9
100
AcDbLine
 10
11759.81970317584
 20
9606.135061858829
 30
0.0
 11
11762.54550026168
 21
9608.86264051143
 31
0.0
  0
LINE
  5
24FAF
330
239E6
100
AcDbEntity
  8
waku
  6
Continuous
370
     9
100
AcDbLine
 10
11806.69984991945
 20
9653.010309293975
 30
0.0
 11
11812.47568923477
 21
9658.791994375066
 31
0.0
  0
LINE
  5
24FB0
330
239E6
100
AcDbEntity
  8
waku
  6
Continuous
370
     9
100
AcDbLine
 10
11784.99502253565
 20
9631.311272002021
 30
0.0
 11
11790.14018723116
 21
9636.458663655837
 31
0.0
  0
LINE
  5
24FB1
330
239E6
100
AcDbEntity
  8
waku
  6
Continuous
370
     9
100
AcDbLine
 10
11709.42541607159
 20
9549.311100451927
 30
0.0
 11
11732.15197197084
 21
9572.038547134615
 31
0.0
  0
LINE
  5
24FB2
330
239E6
100
AcDbEntity
  8
waku
  6
Continuous
370
     9
100
AcDbLine
 10
11830.8204817795
 20
9670.707056943165
 30
0.0
 11
11833.54716964862
 21
9673.434301552013
 31
0.0
  0
LINE
  5
24FB3
330
239E6
100
AcDbEntity
  8
waku
  6
Continuous
370
     9
100
AcDbLine
 10
11739.8198351457
 20
9579.7073010929
 30
0.0
 11
11744.54722244483
 21
9584.434243000147
 31
0.0
  0
LINE
  5
24FB4
330
239E6
100
AcDbEntity
  8
waku
  6
Continuous
370
     9
100
AcDbLine
 10
11804.98954586566
 20
9644.877011812729
 30
0.0
 11
11810.77251144782
 21
9650.65841852405
 31
0.0
  0
LINE
  5
24FB5
330
239E6
100
AcDbEntity
  8
waku
  6
Continuous
370
     9
100
AcDbLine
 10
11759.81970317584
 20
9599.707169122984
 30
0.0
 11
11762.54550026168
 21
9602.434302383898
 31
0.0
  0
LINE
  5
24FB6
330
239E6
100
AcDbEntity
  8
waku
  6
Continuous
370
     9
100
AcDbLine
 10
11791.42380605491
 20
9631.311272002021
 30
0.0
 11
11796.15653805403
 21
9636.038603626971
 31
0.0
  0
LINE
  5
24FB7
330
239E6
100
AcDbEntity
  8
waku
  6
Continuous
370
     9
100
AcDbLine
 10
11715.84974567404
 20
9549.311100451927
 30
0.0
 11
11738.57808313994
 21
9572.038547134615
 31
0.0
  0
LINE
  5
24FB8
330
239E6
100
AcDbEntity
  8
waku
  6
Continuous
370
     9
100
AcDbLine
 10
11830.8204817795
 20
9664.278718815628
 30
0.0
 11
11833.54716964862
 21
9667.005907750523
 31
0.0
  0
LINE
  5
24FB9
330
239E6
100
AcDbEntity
  8
waku
  6
Continuous
370
     9
100
AcDbLine
 10
11739.8198351457
 20
9573.279408357056
 30
0.0
 11
11744.54722244483
 21
9578.006350264301
 31
0.0
  0
LINE
  5
24FBA
330
239E6
100
AcDbEntity
  8
waku
  6
Continuous
370
     9
100
AcDbLine
 10
11803.28280494516
 20
9636.743714331485
 30
0.0
 11
11809.06309817741
 21
9642.524452955273
 31
0.0
  0
LINE
  5
24FBB
330
239E6
100
AcDbEntity
  8
waku
  6
Continuous
370
     9
100
AcDbLine
 10
11759.81970317584
 20
9593.278830995449
 30
0.0
 11
11762.54550026168
 21
9596.00596425639
 31
0.0
  0
LINE
  5
24FBC
330
239E6
100
AcDbEntity
  8
waku
  6
Continuous
370
     9
100
AcDbLine
 10
11797.8525895741
 20
9631.311272002021
 30
0.0
 11
11802.57819530628
 21
9636.038603626971
 31
0.0
  0
LINE
  5
24FBD
330
239E6
100
AcDbEntity
  8
waku
  6
Continuous
370
     9
100
AcDbLine
 10
11722.28031075983
 20
9549.311100451927
 30
0.0
 11
11744.54722244483
 21
9571.578012136766
 31
0.0
  0
LINE
  5
24FBE
330
239E6
100
AcDbEntity
  8
waku
  6
Continuous
370
     9
100
AcDbLine
 10
11830.8204817795
 20
9657.850436362076
 30
0.0
 11
11833.54716964862
 21
9660.57795934072
 31
0.0
  0
LINE
  5
24FBF
330
239E6
100
AcDbEntity
  8
waku
  6
Continuous
370
     9
100
AcDbLine
 10
11759.81970317584
 20
9586.850492867942
 30
0.0
 11
11762.54550026168
 21
9589.578015846589
 31
0.0
  0
LINE
  5
24FC0
330
239E6
100
AcDbEntity
  8
waku
  6
Continuous
370
     9
100
AcDbLine
 10
11804.28048230996
 20
9631.311272002021
 30
0.0
 11
11809.00786960885
 21
9636.038603626971
 31
0.0
  0
LINE
  5
24FC1
330
239E6
100
AcDbEntity
  8
waku
  6
Continuous
370
     9
100
AcDbLine
 10
11778.31681967536
 20
9605.350281717434
 30
0.0
 11
11780.04850252995
 21
9607.077956046857
 31
0.0
  0
LINE
  5
24FC2
330
239E6
100
AcDbEntity
  8
waku
  6
Continuous
370
     9
100
AcDbLine
 10
11728.71800211267
 20
9549.32000828553
 30
0.0
 11
11744.53831461105
 21
9565.140766175634
 31
0.0
  0
LINE
  5
24FC3
330
239E6
100
AcDbEntity
  8
waku
  6
Continuous
370
     9
100
AcDbLine
 10
11830.8204817795
 20
9651.422487952274
 30
0.0
 11
11833.54716964862
 21
9654.149621213187
 31
0.0
  0
LINE
  5
24FC4
330
239E6
100
AcDbEntity
  8
waku
  6
Continuous
370
     9
100
AcDbLine
 10
11759.81970317584
 20
9580.422600132093
 30
0.0
 11
11762.54550026168
 21
9583.149677719054
 31
0.0
  0
LINE
  5
24FC5
330
239E6
100
AcDbEntity
  8
waku
  6
Continuous
370
     9
100
AcDbLine
 10
11810.70926582922
 20
9631.311272002021
 30
0.0
 11
11815.04649001573
 21
9635.649331298052
 31
0.0
  0
LINE
  5
24FC6
330
239E6
100
AcDbEntity
  8
waku
  6
Continuous
370
     9
100
AcDbLine
 10
11778.31681967536
 20
9598.922388981588
 30
0.0
 11
11780.04850252995
 21
9600.649617919351
 31
0.0
  0
LINE
  5
24FC7
330
239E6
100
AcDbEntity
  8
waku
  6
Continuous
370
     9
100
AcDbLine
 10
11759.81970317584
 20
9573.993788775894
 30
0.0
 11
11762.54550026168
 21
9576.721395265499
 31
0.0
  0
LINE
  5
24FC8
330
239E6
100
AcDbEntity
  8
waku
  6
Continuous
370
     9
100
AcDbLine
 10
11830.8204817795
 20
9644.994094150783
 30
0.0
 11
11833.54716964862
 21
9647.721283085681
 31
0.0
  0
LINE
  5
24FC9
330
239E6
100
AcDbEntity
  8
waku
  6
Continuous
370
     9
100
AcDbLine
 10
11778.31681967536
 20
9592.494050854051
 30
0.0
 11
11780.04850252995
 21
9594.221279791815
 31
0.0
  0
LINE
  5
24FCA
330
239E6
100
AcDbEntity
  8
waku
  6
Continuous
370
     9
100
AcDbLine
 10
11759.81970317584
 20
9567.566508453625
 30
0.0
 11
11762.54550026168
 21
9570.293057137964
 31
0.0
  0
LINE
  5
24FCB
330
239E6
100
AcDbEntity
  8
waku
  6
Continuous
370
     9
100
AcDbLine
 10
11830.8204817795
 20
9638.56575602325
 30
0.0
 11
11833.54716964862
 21
9641.292944958149
 31
0.0
  0
LINE
  5
24FCC
330
239E6
100
AcDbEntity
  8
waku
  6
Continuous
370
     9
100
AcDbLine
 10
11778.31681967536
 20
9586.065712726544
 30
0.0
 11
11780.04850252995
 21
9587.793387055969
 31
0.0
  0
LINE
  5
24FCD
330
239E6
100
AcDbEntity
  8
waku
  6
Continuous
370
     9
100
AcDbLine
 10
11759.81970317584
 20
9561.137585749518
 30
0.0
 11
11762.54550026168
 21
9563.86471901043
 31
0.0
  0
LINE
  5
24FCE
330
239E6
100
AcDbEntity
  8
waku
  6
Continuous
370
     9
100
AcDbLine
 10
11830.8204817795
 20
9632.137417895743
 30
0.0
 11
11833.54716964862
 21
9634.864606830612
 31
0.0
  0
LINE
  5
24FCF
330
239E6
100
AcDbEntity
  8
waku
  6
Continuous
370
     9
100
AcDbLine
 10
11778.31681967536
 20
9579.637819990699
 30
0.0
 11
11780.04850252995
 21
9581.365048928459
 31
0.0
  0
LINE
  5
24FD0
330
239E6
100
AcDbEntity
  8
waku
  6
Continuous
370
     9
100
AcDbLine
 10
11759.81970317584
 20
9554.70924762201
 30
0.0
 11
11762.54550026168
 21
9557.436965459498
 31
0.0
  0
LINE
  5
24FD1
330
239E6
100
AcDbEntity
  8
waku
  6
Continuous
370
     9
100
AcDbLine
 10
11830.8204817795
 20
9625.709079768208
 30
0.0
 11
11833.54716964862
 21
9628.436714094766
 31
0.0
  0
LINE
  5
24FD2
330
239E6
100
AcDbEntity
  8
waku
  6
Continuous
370
     9
100
AcDbLine
 10
11778.31681967536
 20
9573.209927254854
 30
0.0
 11
11781.14772919779
 21
9576.039166558564
 31
0.0
  0
LINE
  5
24FD3
330
239E6
100
AcDbEntity
  8
waku
  6
Continuous
370
     9
100
AcDbLine
 10
11760.84944874163
 20
9549.311100451927
 30
0.0
 11
11762.54550026168
 21
9551.008488147052
 31
0.0
  0
LINE
  5
24FD4
330
239E6
100
AcDbEntity
  8
waku
  6
Continuous
370
     9
100
AcDbLine
 10
11830.8204817795
 20
9619.28146540216
 30
0.0
 11
11833.54716964862
 21
9622.008375967231
 31
0.0
  0
LINE
  5
24FD5
330
239E6
100
AcDbEntity
  8
waku
  6
Continuous
370
     9
100
AcDbLine
 10
11778.31681967536
 20
9566.781143735658
 30
0.0
 11
11787.5800758504
 21
9576.039166558564
 31
0.0
  0
LINE
  5
24FD6
330
239E6
100
AcDbEntity
  8
waku
  6
Continuous
370
     9
100
AcDbLine
 10
11813.32015186139
 20
9601.780912788314
 30
0.0
 11
11815.04649001573
 21
9603.508141726075
 31
0.0
  0
LINE
  5
24FD7
330
239E6
100
AcDbEntity
  8
waku
  6
Continuous
370
     9
100
AcDbLine
 10
11783.27848299829
 20
9565.311379026322
 30
0.0
 11
11794.00975015297
 21
9576.039166558564
 31
0.0
  0
LINE
  5
24FD8
330
239E6
100
AcDbEntity
  8
waku
  6
Continuous
370
     9
100
AcDbLine
 10
11907.00027484602
 20
9689.034479212249
 30
0.0
 11
11910.00577790747
 21
9692.039091490221
 31
0.0
  0
LINE
  5
24FD9
330
239E6
100
AcDbEntity
  8
waku
  6
Continuous
370
     9
100
AcDbLine
 10
11813.32015186139
 20
9595.353020052469
 30
0.0
 11
11815.04649001573
 21
9597.080248990229
 31
0.0
  0
LINE
  5
24FDA
330
239E6
100
AcDbEntity
  8
waku
  6
Continuous
370
     9
100
AcDbLine
 10
11830.8204817795
 20
9612.85290457881
 30
0.0
 11
11833.54716964862
 21
9615.580037839723
 31
0.0
  0
LINE
  5
24FDB
330
239E6
100
AcDbEntity
  8
waku
  6
Continuous
370
     9
100
AcDbLine
 10
11789.71172043429
 20
9565.311379026322
 30
0.0
 11
11800.43318897209
 21
9576.039166558564
 31
0.0
  0
LINE
  5
24FDC
330
239E6
100
AcDbEntity
  8
waku
  6
Continuous
370
     9
100
AcDbLine
 10
11907.70755683501
 20
9683.311196115241
 30
0.0
 11
11916.43277985996
 21
9692.039091490221
 31
0.0
  0
LINE
  5
24FDD
330
239E6
100
AcDbEntity
  8
waku
  6
Continuous
370
     9
100
AcDbLine
 10
11813.32015186139
 20
9588.924681924961
 30
0.0
 11
11815.04649001573
 21
9590.651910862694
 31
0.0
  0
LINE
  5
24FDE
330
239E6
100
AcDbEntity
  8
waku
  6
Continuous
370
     9
100
AcDbLine
 10
11830.8204817795
 20
9606.424566451277
 30
0.0
 11
11833.54716964862
 21
9609.151922408033
 31
0.0
  0
LINE
  5
24FDF
330
239E6
100
AcDbEntity
  8
waku
  6
Continuous
370
     9
100
AcDbLine
 10
11796.13872238683
 20
9565.311379026322
 30
0.0
 11
11806.86019092464
 21
9576.039166558564
 31
0.0
  0
LINE
  5
24FE0
330
239E6
100
AcDbEntity
  8
waku
  6
Continuous
370
     9
100
AcDbLine
 10
11914.13366800422
 20
9683.311196115241
 30
0.0
 11
11922.86067259577
 21
9692.039091490221
 31
0.0
  0
LINE
  5
24FE1
330
239E6
100
AcDbEntity
  8
waku
  6
Continuous
370
     9
100
AcDbLine
 10
11813.32015186139
 20
9582.496343797426
 30
0.0
 11
11815.04649001573
 21
9584.223572735188
 31
0.0
  0
LINE
  5
24FE2
330
239E6
100
AcDbEntity
  8
waku
  6
Continuous
370
     9
100
AcDbLine
 10
11830.8204817795
 20
9599.996673715429
 30
0.0
 11
11833.54716964862
 21
9602.723361584684
 31
0.0
  0
LINE
  5
24FE3
330
239E6
100
AcDbEntity
  8
waku
  6
Continuous
370
     9
100
AcDbLine
 10
11802.55948885569
 20
9565.311379026322
 30
0.0
 11
11813.28986522722
 21
9576.039166558564
 31
0.0
  0
LINE
  5
24FE4
330
239E6
100
AcDbEntity
  8
waku
  6
Continuous
370
     9
100
AcDbLine
 10
11920.56423309007
 20
9683.311196115241
 30
0.0
 11
11929.29034689841
 21
9692.039091490221
 31
0.0
  0
LINE
  5
24FE5
330
239E6
100
AcDbEntity
  8
waku
  6
Continuous
370
     9
100
AcDbLine
 10
11813.32015186139
 20
9576.068005669894
 30
0.0
 11
11815.04649001573
 21
9577.795262444629
 31
0.0
  0
LINE
  5
24FE6
330
239E6
100
AcDbEntity
  8
waku
  6
Continuous
370
     9
100
AcDbLine
 10
11830.8204817795
 20
9593.567890196231
 30
0.0
 11
11833.54716964862
 21
9596.295468848834
 31
0.0
  0
LINE
  5
24FE7
330
239E6
100
AcDbEntity
  8
waku
  6
Continuous
370
     9
100
AcDbLine
 10
11808.99272629168
 20
9565.311379026322
 30
0.0
 11
11815.04649001573
 21
9571.366924317095
 31
0.0
  0
LINE
  5
24FE8
330
239E6
100
AcDbEntity
  8
waku
  6
Continuous
370
     9
100
AcDbLine
 10
11926.99212582587
 20
9683.311196115241
 30
0.0
 11
11935.71734885084
 21
9692.039091490221
 31
0.0
  0
LINE
  5
24FE9
330
239E6
100
AcDbEntity
  8
waku
  6
Continuous
370
     9
100
AcDbLine
 10
11830.8204817795
 20
9587.140442852074
 30
0.0
 11
11833.54716964862
 21
9589.8671307213
 31
0.0
  0
LINE
  5
24FEA
330
239E6
100
AcDbEntity
  8
waku
  6
Continuous
370
     9
100
AcDbLine
 10
11830.8204817795
 20
9580.711659332852
 30
0.0
 11
11833.54716964862
 21
9583.438792593764
 31
0.0
  0
LINE
  5
24FEB
330
239E6
100
AcDbEntity
  8
waku
  6
Continuous
370
     9
100
AcDbLine
 10
11933.41912777847
 20
9683.311196115241
 30
0.0
 11
11942.14435080344
 21
9692.039091490221
 31
0.0
  0
LINE
  5
24FEC
330
239E6
100
AcDbEntity
  8
waku
  6
Continuous
370
     9
100
AcDbLine
 10
11907.00027484602
 20
9656.893623684025
 30
0.0
 11
11912.14454875815
 21
9662.038398661721
 31
0.0
  0
LINE
  5
24FED
330
239E6
100
AcDbEntity
  8
waku
  6
Continuous
370
     9
100
AcDbLine
 10
11822.31973616154
 20
9565.783466370893
 30
0.0
 11
11828.57303535872
 21
9572.038547134615
 31
0.0
  0
LINE
  5
24FEE
330
239E6
100
AcDbEntity
  8
waku
  6
Continuous
370
     9
100
AcDbLine
 10
11939.84612973084
 20
9683.311196115241
 30
0.0
 11
11948.58026058934
 21
9692.039091490221
 31
0.0
  0
LINE
  5
24FEF
330
239E6
100
AcDbEntity
  8
waku
  6
Continuous
370
     9
100
AcDbLine
 10
11830.8204817795
 20
9574.283432553251
 30
0.0
 11
11833.54716964862
 21
9577.010454466259
 31
0.0
  0
LINE
  5
24FF0
330
239E6
100
AcDbEntity
  8
waku
  6
Continuous
370
     9
100
AcDbLine
 10
11907.00027484602
 20
9650.465229882534
 30
0.0
 11
11918.57778619414
 21
9662.038398661721
 31
0.0
  0
LINE
  5
24FF1
330
239E6
100
AcDbEntity
  8
waku
  6
Continuous
370
     9
100
AcDbLine
 10
11822.31973616154
 20
9559.355239591292
 30
0.0
 11
11833.54716964862
 21
9570.582533893436
 31
0.0
  0
LINE
  5
24FF2
330
239E6
100
AcDbEntity
  8
waku
  6
Continuous
370
     9
100
AcDbLine
 10
11946.27580403342
 20
9683.311196115241
 30
0.0
 11
11955.00726254207
 21
9692.039091490221
 31
0.0
  0
LINE
  5
24FF3
330
239E6
100
AcDbEntity
  8
waku
  6
Continuous
370
     9
100
AcDbLine
 10
11907.00027484602
 20
9644.037058776893
 30
0.0
 11
11925.00389736336
 21
9662.038398661721
 31
0.0
  0
LINE
  5
24FF4
330
239E6
100
AcDbEntity
  8
waku
  6
Continuous
370
     9
100
AcDbLine
 10
11822.31973616154
 20
9552.926762278872
 30
0.0
 11
11833.54716964862
 21
9564.154362787791
 31
0.0
  0
LINE
  5
24FF5
330
239E6
100
AcDbEntity
  8
waku
  6
Continuous
370
     9
100
AcDbLine
 10
11952.70458755268
 20
9683.311196115241
 30
0.0
 11
11959.72930514077
 21
9690.335913703236
 31
0.0
  0
LINE
  5
24FF6
330
239E6
100
AcDbEntity
  8
waku
  6
Continuous
370
     9
100
AcDbLine
 10
11907.00027484602
 20
9637.609110367092
 30
0.0
 11
11917.7288696509
 21
9648.335923605024
 31
0.0
  0
LINE
  5
24FF7
330
239E6
100
AcDbEntity
  8
waku
  6
Continuous
370
     9
100
AcDbLine
 10
11920.70319529446
 20
9651.311140032099
 30
0.0
 11
11931.4308993159
 21
9662.038398661721
 31
0.0
  0
LINE
  5
24FF8
330
239E6
100
AcDbEntity
  8
waku
  6
Continuous
370
     9
100
AcDbLine
 10
11825.13104845011
 20
9549.311100451927
 30
0.0
 11
11833.54716964862
 21
9557.725885475369
 31
0.0
  0
LINE
  5
24FF9
330
239E6
100
AcDbEntity
  8
waku
  6
Continuous
370
     9
100
AcDbLine
 10
11959.13158950528
 20
9683.311196115241
 30
0.0
 11
11959.72930514077
 21
9683.907575575702
 31
0.0
  0
LINE
  5
24FFA
330
239E6
100
AcDbEntity
  8
waku
  6
Continuous
370
     9
100
AcDbLine
 10
11907.00027484602
 20
9631.180326847868
 30
0.0
 11
11917.7288696509
 21
9641.907585477492
 31
0.0
  0
LINE
  5
24FFB
330
239E6
100
AcDbEntity
  8
waku
  6
Continuous
370
     9
100
AcDbLine
 10
11927.13108803044
 20
9651.311140032099
 30
0.0
 11
11937.86146440174
 21
9662.038398661721
 31
0.0
  0
LINE
  5
24FFC
330
239E6
100
AcDbEntity
  8
waku
  6
Continuous
370
     9
100
AcDbLine
 10
11907.00027484602
 20
9624.752879503709
 30
0.0
 11
11917.7288696509
 21
9635.479247349984
 31
0.0
  0
LINE
  5
24FFD
330
239E6
100
AcDbEntity
  8
waku
  6
Continuous
370
     9
100
AcDbLine
 10
11933.56165311629
 20
9651.311140032099
 30
0.0
 11
11944.28846635411
 21
9662.038398661721
 31
0.0
  0
LINE
  5
24FFE
330
239E6
100
AcDbEntity
  8
waku
  6
Continuous
370
     9
100
AcDbLine
 10
11907.00027484602
 20
9618.324095984512
 30
0.0
 11
11918.71496683188
 21
9630.038342578552
 31
0.0
  0
LINE
  5
24FFF
330
239E6
100
AcDbEntity
  8
waku
  6
Continuous
370
     9
100
AcDbLine
 10
11939.98865506883
 20
9651.311140032099
 30
0.0
 11
11950.71814065675
 21
9662.038398661721
 31
0.0
  0
LINE
  5
25000
330
239E6
100
AcDbEntity
  8
waku
  6
Continuous
370
     9
100
AcDbLine
 10
11907.00027484602
 20
9611.895757856981
 30
0.0
 11
11925.14464113434
 21
9630.038342578552
 31
0.0
  0
LINE
  5
25001
330
239E6
100
AcDbEntity
  8
waku
  6
Continuous
370
     9
100
AcDbLine
 10
11946.41743858808
 20
9651.311140032099
 30
0.0
 11
11957.14870574271
 21
9662.038398661721
 31
0.0
  0
LINE
  5
25002
330
239E6
100
AcDbEntity
  8
waku
  6
Continuous
370
     9
100
AcDbLine
 10
11907.00027484602
 20
9605.467419729471
 30
0.0
 11
11917.7288696509
 21
9616.195123750785
 31
0.0
  0
LINE
  5
25003
330
239E6
100
AcDbEntity
  8
waku
  6
Continuous
370
     9
100
AcDbLine
 10
11979.0014031645
 20
9677.467879960341
 30
0.0
 11
11983.57735729208
 21
9682.038934779335
 31
0.0
  0
LINE
  5
25004
330
239E6
100
AcDbEntity
  8
waku
  6
Continuous
370
     9
100
AcDbLine
 10
11920.84572063227
 20
9619.31152934062
 30
0.0
 11
11931.5734246536
 21
9630.038342578552
 31
0.0
  0
LINE
  5
25005
330
239E6
100
AcDbEntity
  8
waku
  6
Continuous
370
     9
100
AcDbLine
 10
11951.00051898234
 20
9649.467496843817
 30
0.0
 11
11959.72930514077
 21
9658.194668457305
 31
0.0
  0
LINE
  5
25006
330
239E6
100
AcDbEntity
  8
waku
  6
Continuous
370
     9
100
AcDbLine
 10
11907.00027484602
 20
9599.039081601935
 30
0.0
 11
11917.7288696509
 21
9609.766340231558
 31
0.0
  0
LINE
  5
25007
330
239E6
100
AcDbEntity
  8
waku
  6
Continuous
370
     9
100
AcDbLine
 10
11979.0014031645
 20
9671.039319136959
 30
0.0
 11
11989.99812376101
 21
9682.038934779335
 31
0.0
  0
LINE
  5
25008
330
239E6
100
AcDbEntity
  8
waku
  6
Continuous
370
     9
100
AcDbLine
 10
11927.2727225847
 20
9619.31152934062
 30
0.0
 11
11938.00398973967
 21
9630.038342578552
 31
0.0
  0
LINE
  5
25009
330
239E6
100
AcDbEntity
  8
waku
  6
Continuous
370
     9
100
AcDbLine
 10
11951.00051898234
 20
9643.039771129828
 30
0.0
 11
11959.72930514077
 21
9651.76633032977
 31
0.0
  0
LINE
  5
2500A
330
239E6
100
AcDbEntity
  8
waku
  6
Continuous
370
     9
100
AcDbLine
 10
11899.56399927007
 20
9585.174604776115
 30
0.0
 11
11917.7288696509
 21
9603.337946430073
 31
0.0
  0
LINE
  5
2500B
330
239E6
100
AcDbEntity
  8
waku
  6
Continuous
370
     9
100
AcDbLine
 10
11979.0014031645
 20
9664.611426401112
 30
0.0
 11
11996.42868884686
 21
9682.038934779335
 31
0.0
  0
LINE
  5
2500C
330
239E6
100
AcDbEntity
  8
waku
  6
Continuous
370
     9
100
AcDbLine
 10
11933.69972453741
 20
9619.31152934062
 30
0.0
 11
11944.43455482557
 21
9630.038342578552
 31
0.0
  0
LINE
  5
2500D
330
239E6
100
AcDbEntity
  8
waku
  6
Continuous
370
     9
100
AcDbLine
 10
11951.00051898234
 20
9636.610987610637
 30
0.0
 11
11959.72930514077
 21
9645.338493267878
 31
0.0
  0
LINE
  5
2500E
330
239E6
100
AcDbEntity
  8
waku
  6
Continuous
370
     9
100
AcDbLine
 10
11890.06314105428
 20
9569.242768834063
 30
0.0
 11
11917.7288696509
 21
9596.909998020271
 31
0.0
  0
LINE
  5
2500F
330
239E6
100
AcDbEntity
  8
waku
  6
Continuous
370
     9
100
AcDbLine
 10
11992.12798677802
 20
9671.311676149713
 30
0.0
 11
12002.85569079946
 21
9682.038934779335
 31
0.0
  0
LINE
  5
25010
330
239E6
100
AcDbEntity
  8
waku
  6
Continuous
370
     9
100
AcDbLine
 10
11940.13563432332
 20
9619.31152934062
 30
0.0
 11
11950.85443051111
 21
9630.038342578552
 31
0.0
  0
LINE
  5
25011
330
239E6
100
AcDbEntity
  8
waku
  6
Continuous
370
     9
100
AcDbLine
 10
11979.0014031645
 20
9658.182642881918
 30
0.0
 11
11989.72910718577
 21
9668.909957185521
 31
0.0
  0
LINE
  5
25012
330
239E6
100
AcDbEntity
  8
waku
  6
Continuous
370
     9
100
AcDbLine
 10
11951.00051898234
 20
9630.182649483101
 30
0.0
 11
11959.72930514077
 21
9638.910099466388
 31
0.0
  0
LINE
  5
25013
330
239E6
100
AcDbEntity
  8
waku
  6
Continuous
370
     9
100
AcDbLine
 10
11889.00021546239
 20
9561.754453227271
 30
0.0
 11
11917.7288696509
 21
9590.481826914627
 31
0.0
  0
LINE
  5
25014
330
239E6
100
AcDbEntity
  8
waku
  6
Continuous
370
     9
100
AcDbLine
 10
11998.55766108071
 20
9671.311676149713
 30
0.0
 11
12009.28269275183
 21
9682.038934779335
 31
0.0
  0
LINE
  5
25015
330
239E6
100
AcDbEntity
  8
waku
  6
Continuous
370
     9
100
AcDbLine
 10
11946.56085470916
 20
9619.31152934062
 30
0.0
 11
11959.72930514077
 21
9632.481761338885
 31
0.0
  0
LINE
  5
25016
330
239E6
100
AcDbEntity
  8
waku
  6
Continuous
370
     9
100
AcDbLine
 10
11979.0014031645
 20
9651.755195537759
 30
0.0
 11
11989.72910718577
 21
9662.481563384005
 31
0.0
  0
LINE
  5
25017
330
239E6
100
AcDbEntity
  8
waku
  6
Continuous
370
     9
100
AcDbLine
 10
11889.00021546239
 20
9555.326560491428
 30
0.0
 11
11905.50768031364
 21
9571.832729134952
 31
0.0
  0
LINE
  5
25018
330
239E6
100
AcDbEntity
  8
waku
  6
Continuous
370
     9
100
AcDbLine
 10
12022.99184868384
 20
9689.317971017011
 30
0.0
 11
12025.71319185277
 21
9692.039091490221
 31
0.0
  0
LINE
  5
25019
330
239E6
100
AcDbEntity
  8
waku
  6
Continuous
370
     9
100
AcDbLine
 10
11952.98429352812
 20
9619.31152934062
 30
0.0
 11
11959.72930514077
 21
9626.053423211349
 31
0.0
  0
LINE
  5
2501A
330
239E6
100
AcDbEntity
  8
waku
  6
Continuous
370
     9
100
AcDbLine
 10
12004.98466303308
 20
9671.311676149713
 30
0.0
 11
12015.71860253791
 21
9682.046729133741
 31
0.0
  0
LINE
  5
2501B
330
239E6
100
AcDbEntity
  8
waku
  6
Continuous
370
     9
100
AcDbLine
 10
11979.0014031645
 20
9645.325966626877
 30
0.0
 11
11989.72910718577
 21
9656.053670648161
 31
0.0
  0
LINE
  5
2501C
330
239E6
100
AcDbEntity
  8
waku
  6
Continuous
370
     9
100
AcDbLine
 10
12011.41522811916
 20
9671.311676149713
 30
0.0
 11
12031.72687032567
 21
9691.625322618861
 31
0.0
  0
LINE
  5
2501D
330
239E6
100
AcDbEntity
  8
waku
  6
Continuous
370
     9
100
AcDbLine
 10
11959.41396783069
 20
9619.31152934062
 30
0.0
 11
11959.72930514077
 21
9619.625474801548
 31
0.0
  0
LINE
  5
2501E
330
239E6
100
AcDbEntity
  8
waku
  6
Continuous
370
     9
100
AcDbLine
 10
11979.0014031645
 20
9638.898073891029
 30
0.0
 11
11994.14472030817
 21
9654.038663010748
 31
0.0
  0
LINE
  5
2501F
330
239E6
100
AcDbEntity
  8
waku
  6
Continuous
370
     9
100
AcDbLine
 10
11979.0014031645
 20
9632.469735763494
 30
0.0
 11
11989.72910718577
 21
9643.196938719164
 31
0.0
  0
LINE
  5
25020
330
239E6
100
AcDbEntity
  8
waku
  6
Continuous
370
     9
100
AcDbLine
 10
12017.84223007152
 20
9671.311676149713
 30
0.0
 11
12031.72687032567
 21
9685.196984491327
 31
0.0
  0
LINE
  5
25021
330
239E6
100
AcDbEntity
  8
waku
  6
Continuous
370
     9
100
AcDbLine
 10
11991.84204531907
 20
9645.311213027433
 30
0.0
 11
12000.57528539425
 21
9654.038663010748
 31
0.0
  0
LINE
  5
25022
330
239E6
100
AcDbEntity
  8
waku
  6
Continuous
370
     9
100
AcDbLine
 10
11979.0014031645
 20
9626.041397635987
 30
0.0
 11
11989.72910718577
 21
9636.768600591658
 31
0.0
  0
LINE
  5
25023
330
239E6
100
AcDbEntity
  8
waku
  6
Continuous
370
     9
100
AcDbLine
 10
12024.26923202401
 20
9671.311676149713
 30
0.0
 11
12031.72687032567
 21
9678.76864636382
 31
0.0
  0
LINE
  5
25024
330
239E6
100
AcDbEntity
  8
waku
  6
Continuous
370
     9
100
AcDbLine
 10
11998.27261040492
 20
9645.311213027433
 30
0.0
 11
12006.99872421326
 21
9654.038663010748
 31
0.0
  0
LINE
  5
25025
330
239E6
100
AcDbEntity
  8
waku
  6
Continuous
370
     9
100
AcDbLine
 10
11979.0014031645
 20
9619.61378326994
 30
0.0
 11
11989.72910718577
 21
9630.340262464121
 31
0.0
  0
LINE
  5
25026
330
239E6
100
AcDbEntity
  8
waku
  6
Continuous
370
     9
100
AcDbLine
 10
12004.70495705764
 20
9645.311213027433
 30
0.0
 11
12013.42572616568
 21
9654.038663010748
 31
0.0
  0
LINE
  5
25027
330
239E6
100
AcDbEntity
  8
waku
  6
Continuous
370
     9
100
AcDbLine
 10
11979.0014031645
 20
9613.185166772609
 30
0.0
 11
11989.72910718577
 21
9623.912425402229
 31
0.0
  0
LINE
  5
25028
330
239E6
100
AcDbEntity
  8
waku
  6
Continuous
370
     9
100
AcDbLine
 10
12011.00190463934
 20
9645.185167181795
 30
0.0
 11
12019.85540046832
 21
9654.038663010748
 31
0.0
  0
LINE
  5
25029
330
239E6
100
AcDbEntity
  8
waku
  6
Continuous
370
     9
100
AcDbLine
 10
11979.0014031645
 20
9606.757329710717
 30
0.0
 11
11989.72910718577
 21
9617.484087274721
 31
0.0
  0
LINE
  5
2502A
330
239E6
100
AcDbEntity
  8
waku
  6
Continuous
370
     9
100
AcDbLine
 10
12011.00190463934
 20
9638.756829054287
 30
0.0
 11
12026.28240242092
 21
9654.038663010748
 31
0.0
  0
LINE
  5
2502B
330
239E6
100
AcDbEntity
  8
waku
  6
Continuous
370
     9
100
AcDbLine
 10
11979.0014031645
 20
9600.328490517565
 30
0.0
 11
11989.72910718577
 21
9611.055749147189
 31
0.0
  0
LINE
  5
2502C
330
239E6
100
AcDbEntity
  8
waku
  6
Continuous
370
     9
100
AcDbLine
 10
12023.98329056489
 20
9645.311213027433
 30
0.0
 11
12031.72687032567
 21
9653.055683571444
 31
0.0
  0
LINE
  5
2502D
330
239E6
100
AcDbEntity
  8
waku
  6
Continuous
370
     9
100
AcDbLine
 10
12011.00190463934
 20
9632.328490926752
 30
0.0
 11
12019.72801844756
 21
9641.055551192337
 31
0.0
  0
LINE
  5
2502E
330
239E6
100
AcDbEntity
  8
waku
  6
Continuous
370
     9
100
AcDbLine
 10
12030.41029251761
 20
9645.311213027433
 30
0.0
 11
12031.72687032567
 21
9646.62734544391
 31
0.0
  0
LINE
  5
2502F
330
239E6
100
AcDbEntity
  8
waku
  6
Continuous
370
     9
100
AcDbLine
 10
11951.00051898234
 20
9565.90661278056
 30
0.0
 11
11989.72910718577
 21
9604.627411019652
 31
0.0
  0
LINE
  5
25030
330
239E6
100
AcDbEntity
  8
waku
  6
Continuous
370
     9
100
AcDbLine
 10
12011.00190463934
 20
9625.900486843001
 30
0.0
 11
12019.72801844756
 21
9634.62810384815
 31
0.0
  0
LINE
  5
25031
330
239E6
100
AcDbEntity
  8
waku
  6
Continuous
370
     9
100
AcDbLine
 10
12011.00190463934
 20
9619.47192601962
 30
0.0
 11
12019.72801844756
 21
9628.199320328953
 31
0.0
  0
LINE
  5
25032
330
239E6
100
AcDbEntity
  8
waku
  6
Continuous
370
     9
100
AcDbLine
 10
11951.00051898234
 20
9559.467256338171
 30
0.0
 11
11989.72910718577
 21
9598.199518283832
 31
0.0
  0
LINE
  5
25033
330
239E6
100
AcDbEntity
  8
waku
  6
Continuous
370
     9
100
AcDbLine
 10
11951.00051898234
 20
9553.043872453903
 30
0.0
 11
11989.72910718577
 21
9591.771180156298
 31
0.0
  0
LINE
  5
25034
330
239E6
100
AcDbEntity
  8
waku
  6
Continuous
370
     9
100
AcDbLine
 10
12011.00190463934
 20
9613.043977609821
 30
0.0
 11
12019.72801844756
 21
9621.770982201448
 31
0.0
  0
LINE
  5
25035
330
239E6
100
AcDbEntity
  8
waku
  6
Continuous
370
     9
100
AcDbLine
 10
12011.00190463934
 20
9606.615639482313
 30
0.0
 11
12019.72801844756
 21
9615.342644073914
 31
0.0
  0
LINE
  5
25036
330
239E6
100
AcDbEntity
  8
waku
  6
Continuous
370
     9
100
AcDbLine
 10
12011.00190463934
 20
9600.187301354781
 30
0.0
 11
12019.72801844756
 21
9608.914751338069
 31
0.0
  0
LINE
  5
25037
330
239E6
100
AcDbEntity
  8
waku
  6
Continuous
370
     9
100
AcDbLine
 10
12011.00190463934
 20
9593.758963227243
 30
0.0
 11
12019.72801844756
 21
9602.486413210533
 31
0.0
  0
LINE
  5
25038
330
239E6
100
AcDbEntity
  8
waku
  6
Continuous
370
     9
100
AcDbLine
 10
12011.00190463934
 20
9587.330569425754
 30
0.0
 11
12019.72801844756
 21
9596.058075083023
 31
0.0
  0
LINE
  5
25039
330
239E6
100
AcDbEntity
  8
waku
  6
Continuous
370
     9
100
AcDbLine
 10
12011.00190463934
 20
9580.902732363892
 30
0.0
 11
12019.72801844756
 21
9589.629681281536
 31
0.0
  0
LINE
  5
2503A
330
239E6
100
AcDbEntity
  8
waku
  6
Continuous
370
     9
100
AcDbLine
 10
12011.00190463934
 20
9574.474422073333
 30
0.0
 11
12019.72801844756
 21
9583.201899893598
 31
0.0
  0
LINE
  5
2503B
330
239E6
100
AcDbEntity
  8
waku
  6
Continuous
370
     9
100
AcDbLine
 10
12011.00190463934
 20
9568.046028271842
 30
0.0
 11
12019.72801844756
 21
9576.773506092136
 31
0.0
  0
LINE
  5
2503C
330
239E6
100
AcDbEntity
  8
waku
  6
Continuous
370
     9
100
AcDbLine
 10
12011.00190463934
 20
9561.617690144336
 30
0.0
 11
12019.72801844756
 21
9570.345307149514
 31
0.0
  0
LINE
  5
2503D
330
239E6
100
AcDbEntity
  8
waku
  6
Continuous
370
     9
100
AcDbLine
 10
12011.00190463934
 20
9555.189797408488
 30
0.0
 11
12019.72801844756
 21
9563.916802000091
 31
0.0
  0
LINE
  5
2503E
330
239E6
100
AcDbEntity
  8
waku
  6
Continuous
370
     9
100
AcDbLine
 10
12011.54884562331
 20
9549.311100451927
 30
0.0
 11
12019.72801844756
 21
9557.488463872584
 31
0.0
  0
LINE
  5
2503F
330
239E6
100
AcDbEntity
  8
waku
  6
Continuous
370
     9
100
AcDbLine
 10
12017.98030149265
 20
9549.311100451927
 30
0.0
 11
12019.72801844756
 21
9551.060598973714
 31
0.0
  0
LINE
  5
25040
330
239E6
100
AcDbEntity
  8
waku
  6
Continuous
370
     9
100
AcDbLine
 10
12011.00190463934
 20
9645.311213027433
 30
0.0
 11
12011.00190463934
 21
9549.311518006613
 31
0.0
  0
LINE
  5
25041
330
239E6
100
AcDbEntity
  8
waku
  6
Continuous
370
     9
100
AcDbLine
 10
12011.00190463934
 20
9549.311518006613
 30
0.0
 11
12019.72801844756
 21
9549.311518006613
 31
0.0
  0
LINE
  5
25042
330
239E6
100
AcDbEntity
  8
waku
  6
Continuous
370
     9
100
AcDbLine
 10
12019.72801844756
 20
9549.311518006613
 30
0.0
 11
12019.72801844756
 21
9645.311213027433
 31
0.0
  0
LINE
  5
25043
330
239E6
100
AcDbEntity
  8
waku
  6
Continuous
370
     9
100
AcDbLine
 10
12019.72801844756
 20
9645.311213027433
 30
0.0
 11
12031.72954267576
 21
9645.311213027433
 31
0.0
  0
LINE
  5
25044
330
239E6
100
AcDbEntity
  8
waku
  6
Continuous
370
     9
100
AcDbLine
 10
12031.72954267576
 20
9645.311213027433
 30
0.0
 11
12031.72954267576
 21
9654.038663010748
 31
0.0
  0
LINE
  5
25045
330
239E6
100
AcDbEntity
  8
waku
  6
Continuous
370
     9
100
AcDbLine
 10
12031.72954267576
 20
9654.038663010748
 30
0.0
 11
11989.72910718577
 21
9654.038663010748
 31
0.0
  0
LINE
  5
25046
330
239E6
100
AcDbEntity
  8
waku
  6
Continuous
370
     9
100
AcDbLine
 10
11989.72910718577
 20
9654.038663010748
 30
0.0
 11
11989.72910718577
 21
9671.311676149713
 31
0.0
  0
LINE
  5
25047
330
239E6
100
AcDbEntity
  8
waku
  6
Continuous
370
     9
100
AcDbLine
 10
11989.72910718577
 20
9671.311676149713
 30
0.0
 11
12025.36400477516
 21
9671.311676149713
 31
0.0
  0
LINE
  5
25048
330
239E6
100
AcDbEntity
  8
waku
  6
Continuous
370
     9
100
AcDbLine
 10
12025.36400477516
 20
9671.311676149713
 30
0.0
 11
12031.72954267576
 21
9677.674764396002
 31
0.0
  0
LINE
  5
25049
330
239E6
100
AcDbEntity
  8
waku
  6
Continuous
370
     9
100
AcDbLine
 10
12031.72954267576
 20
9677.674764396002
 30
0.0
 11
12031.72954267576
 21
9692.039091490221
 31
0.0
  0
LINE
  5
2504A
330
239E6
100
AcDbEntity
  8
waku
  6
Continuous
370
     9
100
AcDbLine
 10
12031.72954267576
 20
9692.039091490221
 30
0.0
 11
12023.00075651744
 21
9692.039091490221
 31
0.0
  0
LINE
  5
2504B
330
239E6
100
AcDbEntity
  8
waku
  6
Continuous
370
     9
100
AcDbLine
 10
12023.00075651744
 20
9692.039091490221
 30
0.0
 11
12023.00075651744
 21
9689.674952449092
 31
0.0
  0
LINE
  5
2504C
330
239E6
100
AcDbEntity
  8
waku
  6
Continuous
370
     9
100
AcDbLine
 10
12023.00075651744
 20
9689.674952449092
 30
0.0
 11
12015.36941546024
 21
9682.038934779335
 31
0.0
  0
LINE
  5
2504D
330
239E6
100
AcDbEntity
  8
waku
  6
Continuous
370
     9
100
AcDbLine
 10
12015.36941546024
 20
9682.038934779335
 30
0.0
 11
11979.0014031645
 21
9682.038934779335
 31
0.0
  0
LINE
  5
2504E
330
239E6
100
AcDbEntity
  8
waku
  6
Continuous
370
     9
100
AcDbLine
 10
11979.0014031645
 20
9682.038934779335
 30
0.0
 11
11979.0014031645
 21
9597.641331159989
 31
0.0
  0
LINE
  5
2504F
330
239E6
100
AcDbEntity
  8
waku
  6
Continuous
370
     9
100
AcDbLine
 10
11979.0014031645
 20
9597.641331159989
 30
0.0
 11
11951.00051898234
 21
9567.194940443991
 31
0.0
  0
LINE
  5
25050
330
239E6
100
AcDbEntity
  8
waku
  6
Continuous
370
     9
100
AcDbLine
 10
11951.00051898234
 20
9567.194940443991
 30
0.0
 11
11951.00051898234
 21
9549.377463812339
 31
0.0
  0
LINE
  5
25051
330
239E6
100
AcDbEntity
  8
waku
  6
Continuous
370
     9
100
AcDbLine
 10
11951.00051898234
 20
9549.377463812339
 30
0.0
 11
11989.72910718577
 21
9587.799177147832
 31
0.0
  0
LINE
  5
25052
330
239E6
100
AcDbEntity
  8
waku
  6
Continuous
370
     9
100
AcDbLine
 10
11989.72910718577
 20
9587.799177147832
 30
0.0
 11
11989.72910718577
 21
9645.311213027433
 31
0.0
  0
LINE
  5
25053
330
239E6
100
AcDbEntity
  8
waku
  6
Continuous
370
     9
100
AcDbLine
 10
11989.72910718577
 20
9645.311213027433
 30
0.0
 11
12011.00190463934
 21
9645.311213027433
 31
0.0
  0
LINE
  5
25054
330
239E6
100
AcDbEntity
  8
waku
  6
Continuous
370
     9
100
AcDbLine
 10
11951.00051898234
 20
9630.038342578552
 30
0.0
 11
11951.00051898234
 21
9651.311140032099
 31
0.0
  0
LINE
  5
25055
330
239E6
100
AcDbEntity
  8
waku
  6
Continuous
370
     9
100
AcDbLine
 10
11951.00051898234
 20
9651.311140032099
 30
0.0
 11
11917.7288696509
 21
9651.311140032099
 31
0.0
  0
LINE
  5
25056
330
239E6
100
AcDbEntity
  8
waku
  6
Continuous
370
     9
100
AcDbLine
 10
11917.7288696509
 20
9651.311140032099
 30
0.0
 11
11917.7288696509
 21
9630.038342578552
 31
0.0
  0
LINE
  5
25057
330
239E6
100
AcDbEntity
  8
waku
  6
Continuous
370
     9
100
AcDbLine
 10
11917.7288696509
 20
9630.038342578552
 30
0.0
 11
11951.00051898234
 21
9630.038342578552
 31
0.0
  0
LINE
  5
25058
330
239E6
100
AcDbEntity
  8
waku
  6
Continuous
370
     9
100
AcDbLine
 10
11917.7288696509
 20
9587.747066321197
 30
0.0
 11
11917.7288696509
 21
9619.31152934062
 31
0.0
  0
LINE
  5
25059
330
239E6
100
AcDbEntity
  8
waku
  6
Continuous
370
     9
100
AcDbLine
 10
11917.7288696509
 20
9619.31152934062
 30
0.0
 11
11959.72930514077
 21
9619.31152934062
 31
0.0
  0
LINE
  5
2505A
330
239E6
100
AcDbEntity
  8
waku
  6
Continuous
370
     9
100
AcDbLine
 10
11959.72930514077
 20
9619.31152934062
 30
0.0
 11
11959.72930514077
 21
9662.038844053412
 31
0.0
  0
LINE
  5
2505B
330
239E6
100
AcDbEntity
  8
waku
  6
Continuous
370
     9
100
AcDbLine
 10
11959.72930514077
 20
9662.038844053412
 30
0.0
 11
11907.00383797955
 21
9662.038844053412
 31
0.0
  0
LINE
  5
2505C
330
239E6
100
AcDbEntity
  8
waku
  6
Continuous
370
     9
100
AcDbLine
 10
11907.00383797955
 20
9662.038844053412
 30
0.0
 11
11907.00383797955
 21
9597.650350341524
 31
0.0
  0
LINE
  5
2505D
330
239E6
100
AcDbEntity
  8
waku
  6
Continuous
370
     9
100
AcDbLine
 10
11907.00383797955
 20
9597.650350341524
 30
0.0
 11
11889.00021546239
 21
9567.460366048711
 31
0.0
  0
LINE
  5
2505E
330
239E6
100
AcDbEntity
  8
waku
  6
Continuous
370
     9
100
AcDbLine
 10
11889.00021546239
 20
9567.460366048711
 30
0.0
 11
11889.00021546239
 21
9550.336837492585
 31
0.0
  0
LINE
  5
2505F
330
239E6
100
AcDbEntity
  8
waku
  6
Continuous
370
     9
100
AcDbLine
 10
11889.00021546239
 20
9550.336837492585
 30
0.0
 11
11917.7288696509
 21
9587.747066321197
 31
0.0
  0
LINE
  5
25060
330
239E6
100
AcDbEntity
  8
waku
  6
Continuous
370
     9
100
AcDbLine
 10
11907.00383797955
 20
9692.039091490221
 30
0.0
 11
11907.00383797955
 21
9683.311196115241
 31
0.0
  0
LINE
  5
25061
330
239E6
100
AcDbEntity
  8
waku
  6
Continuous
370
     9
100
AcDbLine
 10
11907.00383797955
 20
9683.311196115241
 30
0.0
 11
11959.72930514077
 21
9683.311196115241
 31
0.0
  0
LINE
  5
25062
330
239E6
100
AcDbEntity
  8
waku
  6
Continuous
370
     9
100
AcDbLine
 10
11959.72930514077
 20
9683.311196115241
 30
0.0
 11
11959.72930514077
 21
9692.039091490221
 31
0.0
  0
LINE
  5
25063
330
239E6
100
AcDbEntity
  8
waku
  6
Continuous
370
     9
100
AcDbLine
 10
11959.72930514077
 20
9692.039091490221
 30
0.0
 11
11907.00383797955
 21
9692.039091490221
 31
0.0
  0
LINE
  5
25064
330
239E6
100
AcDbEntity
  8
waku
  6
Continuous
370
     9
100
AcDbLine
 10
11436.36557525226
 20
9549.311518006613
 30
0.0
 11
11436.36557525226
 21
9692.039091490221
 31
0.0
  0
LINE
  5
25065
330
239E6
100
AcDbEntity
  8
waku
  6
Continuous
370
     9
100
AcDbLine
 10
11436.36557525226
 20
9692.039091490221
 30
0.0
 11
11425.63787123082
 21
9692.039091490221
 31
0.0
  0
LINE
  5
25066
330
239E6
100
AcDbEntity
  8
waku
  6
Continuous
370
     9
100
AcDbLine
 10
11425.63787123082
 20
9692.039091490221
 30
0.0
 11
11425.63787123082
 21
9549.311518006613
 31
0.0
  0
LINE
  5
25067
330
239E6
100
AcDbEntity
  8
waku
  6
Continuous
370
     9
100
AcDbLine
 10
11425.63787123082
 20
9549.311518006613
 30
0.0
 11
11436.36557525226
 21
9549.311518006613
 31
0.0
  0
LINE
  5
25068
330
239E6
100
AcDbEntity
  8
waku
  6
Continuous
370
     9
100
AcDbLine
 10
11387.36447332499
 20
9682.038934779335
 30
0.0
 11
11378.63835951678
 21
9682.038934779335
 31
0.0
  0
LINE
  5
25069
330
239E6
100
AcDbEntity
  8
waku
  6
Continuous
370
     9
100
AcDbLine
 10
11378.63835951678
 20
9682.038934779335
 30
0.0
 11
11378.63835951678
 21
9569.311831428407
 31
0.0
  0
LINE
  5
2506A
330
239E6
100
AcDbEntity
  8
waku
  6
Continuous
370
     9
100
AcDbLine
 10
11378.63835951678
 20
9569.311831428407
 30
0.0
 11
11387.36447332499
 21
9569.311831428407
 31
0.0
  0
LINE
  5
2506B
330
239E6
100
AcDbEntity
  8
waku
  6
Continuous
370
     9
100
AcDbLine
 10
11387.36447332499
 20
9569.311831428407
 30
0.0
 11
11387.36447332499
 21
9682.038934779335
 31
0.0
  0
LINE
  5
2506C
330
239E6
100
AcDbEntity
  8
waku
  6
Continuous
370
     9
100
AcDbLine
 10
11307.63936247994
 20
9549.596596519265
 30
0.0
 11
11340.36496161102
 21
9583.820047872464
 31
0.0
  0
LINE
  5
2506D
330
239E6
100
AcDbEntity
  8
waku
  6
Continuous
370
     9
100
AcDbLine
 10
11340.36496161102
 20
9583.820047872464
 30
0.0
 11
11340.36496161102
 21
9692.039091490221
 31
0.0
  0
LINE
  5
2506E
330
239E6
100
AcDbEntity
  8
waku
  6
Continuous
370
     9
100
AcDbLine
 10
11340.36496161102
 20
9692.039091490221
 30
0.0
 11
11329.63814837297
 21
9692.039091490221
 31
0.0
  0
LINE
  5
2506F
330
239E6
100
AcDbEntity
  8
waku
  6
Continuous
370
     9
100
AcDbLine
 10
11329.63814837297
 20
9692.039091490221
 30
0.0
 11
11329.63814837297
 21
9593.703734658843
 31
0.0
  0
LINE
  5
25070
330
239E6
100
AcDbEntity
  8
waku
  6
Continuous
370
     9
100
AcDbLine
 10
11329.63814837297
 20
9593.703734658843
 30
0.0
 11
11307.63936247994
 21
9566.500992368499
 31
0.0
  0
LINE
  5
25071
330
239E6
100
AcDbEntity
  8
waku
  6
Continuous
370
     9
100
AcDbLine
 10
11307.63936247994
 20
9566.500992368499
 30
0.0
 11
11307.63936247994
 21
9549.596596519265
 31
0.0
  0
LINE
  5
25072
330
239E6
100
AcDbEntity
  8
waku
  6
Continuous
370
     9
100
AcDbLine
 10
11179.64091971415
 20
9659.311265400809
 30
0.0
 11
11179.64091971415
 21
9682.038934779335
 31
0.0
  0
LINE
  5
25073
330
239E6
100
AcDbEntity
  8
waku
  6
Continuous
370
     9
100
AcDbLine
 10
11179.64091971415
 20
9682.038934779335
 30
0.0
 11
11220.63833313899
 21
9682.038934779335
 31
0.0
  0
LINE
  5
25074
330
239E6
100
AcDbEntity
  8
waku
  6
Continuous
370
     9
100
AcDbLine
 10
11220.63833313899
 20
9682.038934779335
 30
0.0
 11
11220.63833313899
 21
9692.039091490221
 31
0.0
  0
LINE
  5
25075
330
239E6
100
AcDbEntity
  8
waku
  6
Continuous
370
     9
100
AcDbLine
 10
11220.63833313899
 20
9692.039091490221
 30
0.0
 11
11231.36514637704
 21
9692.039091490221
 31
0.0
  0
LINE
  5
25076
330
239E6
100
AcDbEntity
  8
waku
  6
Continuous
370
     9
100
AcDbLine
 10
11231.36514637704
 20
9692.039091490221
 30
0.0
 11
11231.36514637704
 21
9682.038934779335
 31
0.0
  0
LINE
  5
25077
330
239E6
100
AcDbEntity
  8
waku
  6
Continuous
370
     9
100
AcDbLine
 10
11231.36514637704
 20
9682.038934779335
 30
0.0
 11
11263.99988560516
 21
9682.038934779335
 31
0.0
  0
LINE
  5
25078
330
239E6
100
AcDbEntity
  8
waku
  6
Continuous
370
     9
100
AcDbLine
 10
11263.99988560516
 20
9682.038934779335
 30
0.0
 11
11270.36453272231
 21
9675.67495574967
 31
0.0
  0
LINE
  5
25079
330
239E6
100
AcDbEntity
  8
waku
  6
Continuous
370
     9
100
AcDbLine
 10
11270.36453272231
 20
9675.67495574967
 30
0.0
 11
11270.36453272231
 21
9659.311265400809
 31
0.0
  0
LINE
  5
2507A
330
239E6
100
AcDbEntity
  8
waku
  6
Continuous
370
     9
100
AcDbLine
 10
11270.36453272231
 20
9659.311265400809
 30
0.0
 11
11259.63682870105
 21
9659.311265400809
 31
0.0
  0
LINE
  5
2507B
330
239E6
100
AcDbEntity
  8
waku
  6
Continuous
370
     9
100
AcDbLine
 10
11259.63682870105
 20
9659.311265400809
 30
0.0
 11
11259.63682870105
 21
9673.31170749189
 31
0.0
  0
LINE
  5
2507C
330
239E6
100
AcDbEntity
  8
waku
  6
Continuous
370
     9
100
AcDbLine
 10
11259.63682870105
 20
9673.31170749189
 30
0.0
 11
11190.36506060183
 21
9673.31170749189
 31
0.0
  0
LINE
  5
2507D
330
239E6
100
AcDbEntity
  8
waku
  6
Continuous
370
     9
100
AcDbLine
 10
11190.36506060183
 20
9673.31170749189
 30
0.0
 11
11190.36506060183
 21
9659.311265400809
 31
0.0
  0
LINE
  5
2507E
330
239E6
100
AcDbEntity
  8
waku
  6
Continuous
370
     9
100
AcDbLine
 10
11190.36506060183
 20
9659.311265400809
 30
0.0
 11
11179.64091971415
 21
9659.311265400809
 31
0.0
  0
LINE
  5
2507F
330
239E6
100
AcDbEntity
  8
waku
  6
Continuous
370
     9
100
AcDbLine
 10
11179.64091971415
 20
9627.311209317635
 30
0.0
 11
11220.63833313899
 21
9627.311209317635
 31
0.0
  0
LINE
  5
25080
330
239E6
100
AcDbEntity
  8
waku
  6
Continuous
370
     9
100
AcDbLine
 10
11220.63833313899
 20
9627.311209317635
 30
0.0
 11
11220.63833313899
 21
9575.674836163768
 31
0.0
  0
LINE
  5
25081
330
239E6
100
AcDbEntity
  8
waku
  6
Continuous
370
     9
100
AcDbLine
 10
11220.63833313899
 20
9575.674836163768
 30
0.0
 11
11211.00183873551
 21
9566.038703640904
 31
0.0
  0
LINE
  5
25082
330
239E6
100
AcDbEntity
  8
waku
  6
Continuous
370
     9
100
AcDbLine
 10
11211.00183873551
 20
9566.038703640904
 30
0.0
 11
11204.00562621494
 21
9566.038703640904
 31
0.0
  0
LINE
  5
25083
330
239E6
100
AcDbEntity
  8
waku
  6
Continuous
370
     9
100
AcDbLine
 10
11204.00562621494
 20
9566.038703640904
 30
0.0
 11
11190.36506060183
 21
9579.674787500186
 31
0.0
  0
LINE
  5
25084
330
239E6
100
AcDbEntity
  8
waku
  6
Continuous
370
     9
100
AcDbLine
 10
11190.36506060183
 20
9579.674787500186
 30
0.0
 11
11190.36506060183
 21
9612.03872858649
 31
0.0
  0
LINE
  5
25085
330
239E6
100
AcDbEntity
  8
waku
  6
Continuous
370
     9
100
AcDbLine
 10
11190.36506060183
 20
9612.03872858649
 30
0.0
 11
11179.64091971415
 21
9612.03872858649
 31
0.0
  0
LINE
  5
25086
330
239E6
100
AcDbEntity
  8
waku
  6
Continuous
370
     9
100
AcDbLine
 10
11179.64091971415
 20
9612.03872858649
 30
0.0
 11
11179.64091971415
 21
9565.675236192481
 31
0.0
  0
LINE
  5
25087
330
239E6
100
AcDbEntity
  8
waku
  6
Continuous
370
     9
100
AcDbLine
 10
11179.64091971415
 20
9565.675236192481
 30
0.0
 11
11196.00104692943
 21
9549.311518006613
 31
0.0
  0
LINE
  5
25088
330
239E6
100
AcDbEntity
  8
waku
  6
Continuous
370
     9
100
AcDbLine
 10
11196.00104692943
 20
9549.311518006613
 30
0.0
 11
11270.36453272231
 21
9549.311518006613
 31
0.0
  0
LINE
  5
25089
330
239E6
100
AcDbEntity
  8
waku
  6
Continuous
370
     9
100
AcDbLine
 10
11270.36453272231
 20
9549.311518006613
 30
0.0
 11
11270.36453272231
 21
9566.038703640904
 31
0.0
  0
LINE
  5
2508A
330
239E6
100
AcDbEntity
  8
waku
  6
Continuous
370
     9
100
AcDbLine
 10
11270.36453272231
 20
9566.038703640904
 30
0.0
 11
11231.36514637704
 21
9566.038703640904
 31
0.0
  0
LINE
  5
2508B
330
239E6
100
AcDbEntity
  8
waku
  6
Continuous
370
     9
100
AcDbLine
 10
11231.36514637704
 20
9566.038703640904
 30
0.0
 11
11231.36514637704
 21
9591.311535941828
 31
0.0
  0
LINE
  5
2508C
330
239E6
100
AcDbEntity
  8
waku
  6
Continuous
370
     9
100
AcDbLine
 10
11231.36514637704
 20
9591.311535941828
 30
0.0
 11
11270.36453272231
 21
9591.311535941828
 31
0.0
  0
LINE
  5
2508D
330
239E6
100
AcDbEntity
  8
waku
  6
Continuous
370
     9
100
AcDbLine
 10
11270.36453272231
 20
9591.311535941828
 30
0.0
 11
11270.36453272231
 21
9602.038349179762
 31
0.0
  0
LINE
  5
2508E
330
239E6
100
AcDbEntity
  8
waku
  6
Continuous
370
     9
100
AcDbLine
 10
11270.36453272231
 20
9602.038349179762
 30
0.0
 11
11231.36514637704
 21
9602.038349179762
 31
0.0
  0
LINE
  5
2508F
330
239E6
100
AcDbEntity
  8
waku
  6
Continuous
370
     9
100
AcDbLine
 10
11231.36514637704
 20
9602.038349179762
 30
0.0
 11
11231.36514637704
 21
9627.311209317635
 31
0.0
  0
LINE
  5
25090
330
239E6
100
AcDbEntity
  8
waku
  6
Continuous
370
     9
100
AcDbLine
 10
11231.36514637704
 20
9627.311209317635
 30
0.0
 11
11270.36453272231
 21
9627.311209317635
 31
0.0
  0
LINE
  5
25091
330
239E6
100
AcDbEntity
  8
waku
  6
Continuous
370
     9
100
AcDbLine
 10
11270.36453272231
 20
9627.311209317635
 30
0.0
 11
11270.36453272231
 21
9638.038467947261
 31
0.0
  0
LINE
  5
25092
330
239E6
100
AcDbEntity
  8
waku
  6
Continuous
370
     9
100
AcDbLine
 10
11270.36453272231
 20
9638.038467947261
 30
0.0
 11
11179.64091971415
 21
9638.038467947261
 31
0.0
  0
LINE
  5
25093
330
239E6
100
AcDbEntity
  8
waku
  6
Continuous
370
     9
100
AcDbLine
 10
11179.64091971415
 20
9638.038467947261
 30
0.0
 11
11179.64091971415
 21
9627.311209317635
 31
0.0
  0
LINE
  5
25094
330
239E6
100
AcDbEntity
  8
waku
  6
Continuous
370
     9
100
AcDbLine
 10
11162.36506720322
 20
9602.038349179762
 30
0.0
 11
11162.36506720322
 21
9591.582334083673
 31
0.0
  0
LINE
  5
25095
330
239E6
100
AcDbEntity
  8
waku
  6
Continuous
370
     9
100
AcDbLine
 10
11162.36506720322
 20
9591.582334083673
 30
0.0
 11
11129.63857728863
 21
9549.851360560612
 31
0.0
  0
LINE
  5
25096
330
239E6
100
AcDbEntity
  8
waku
  6
Continuous
370
     9
100
AcDbLine
 10
11129.63857728863
 20
9549.851360560612
 30
0.0
 11
11129.63857728863
 21
9566.823038390609
 31
0.0
  0
LINE
  5
25097
330
239E6
100
AcDbEntity
  8
waku
  6
Continuous
370
     9
100
AcDbLine
 10
11129.63857728863
 20
9566.823038390609
 30
0.0
 11
11151.63736318178
 21
9591.337814050964
 31
0.0
  0
LINE
  5
25098
330
239E6
100
AcDbEntity
  8
waku
  6
Continuous
370
     9
100
AcDbLine
 10
11151.63736318178
 20
9591.337814050964
 30
0.0
 11
11151.63736318178
 21
9602.038349179762
 31
0.0
  0
LINE
  5
25099
330
239E6
100
AcDbEntity
  8
waku
  6
Continuous
370
     9
100
AcDbLine
 10
11151.63736318178
 20
9602.038349179762
 30
0.0
 11
11162.36506720322
 21
9602.038349179762
 31
0.0
  0
LINE
  5
2509A
330
239E6
100
AcDbEntity
  8
waku
  6
Continuous
370
     9
100
AcDbLine
 10
11162.36506720322
 20
9642.166803435664
 30
0.0
 11
11162.36506720322
 21
9631.696090414113
 31
0.0
  0
LINE
  5
2509B
330
239E6
100
AcDbEntity
  8
waku
  6
Continuous
370
     9
100
AcDbLine
 10
11162.36506720322
 20
9631.696090414113
 30
0.0
 11
11129.63857728863
 21
9640.465240193513
 31
0.0
  0
LINE
  5
2509C
330
239E6
100
AcDbEntity
  8
waku
  6
Continuous
370
     9
100
AcDbLine
 10
11129.63857728863
 20
9640.465240193513
 30
0.0
 11
11129.63857728863
 21
9650.936120236956
 31
0.0
  0
LINE
  5
2509D
330
239E6
100
AcDbEntity
  8
waku
  6
Continuous
370
     9
100
AcDbLine
 10
11129.63857728863
 20
9650.936120236956
 30
0.0
 11
11162.36506720322
 21
9642.166803435664
 31
0.0
  0
LINE
  5
2509E
330
239E6
100
AcDbEntity
  8
waku
  6
Continuous
370
     9
100
AcDbLine
 10
11162.36506720322
 20
9682.166984887542
 30
0.0
 11
11129.63857728863
 21
9690.935856297144
 31
0.0
  0
LINE
  5
2509F
330
239E6
100
AcDbEntity
  8
waku
  6
Continuous
370
     9
100
AcDbLine
 10
11129.63857728863
 20
9690.935856297144
 30
0.0
 11
11129.63857728863
 21
9680.465143275593
 31
0.0
  0
LINE
  5
250A0
330
239E6
100
AcDbEntity
  8
waku
  6
Continuous
370
     9
100
AcDbLine
 10
11129.63857728863
 20
9680.465143275593
 30
0.0
 11
11162.36506720322
 21
9671.695826474305
 31
0.0
  0
LINE
  5
250A1
330
239E6
100
AcDbEntity
  8
waku
  6
Continuous
370
     9
100
AcDbLine
 10
11162.36506720322
 20
9671.695826474305
 30
0.0
 11
11162.36506720322
 21
9682.166984887542
 31
0.0
  0
LINE
  5
250A2
330
239E6
100
AcDbEntity
  8
waku
  6
Continuous
370
     9
100
AcDbLine
 10
11635.45654730776
 20
9549.768072316325
 30
0.0
 11
11570.39640294153
 21
9592.03841516472
 31
0.0
  0
LINE
  5
250A3
330
239E6
100
AcDbEntity
  8
waku
  6
Continuous
370
     9
100
AcDbLine
 10
11570.39640294153
 20
9592.03841516472
 30
0.0
 11
11587.73639185433
 21
9592.03841516472
 31
0.0
  0
LINE
  5
250A4
330
239E6
100
AcDbEntity
  8
waku
  6
Continuous
370
     9
100
AcDbLine
 10
11587.73639185433
 20
9592.03841516472
 30
0.0
 11
11612.73088219195
 21
9577.321337859379
 31
0.0
  0
LINE
  5
250A5
330
239E6
100
AcDbEntity
  8
waku
  6
Continuous
370
     9
100
AcDbLine
 10
11612.73088219195
 20
9577.321337859379
 30
0.0
 11
11612.73088219195
 21
9585.038639510853
 31
0.0
  0
LINE
  5
250A6
330
239E6
100
AcDbEntity
  8
waku
  6
Continuous
370
     9
100
AcDbLine
 10
11612.73088219195
 20
9585.038639510853
 30
0.0
 11
11625.45483172601
 21
9585.038639510853
 31
0.0
  0
LINE
  5
250A7
330
239E6
100
AcDbEntity
  8
waku
  6
Continuous
370
     9
100
AcDbLine
 10
11625.45483172601
 20
9585.038639510853
 30
0.0
 11
11625.45483172601
 21
9573.665562944212
 31
0.0
  0
LINE
  5
250A8
330
239E6
100
AcDbEntity
  8
waku
  6
Continuous
370
     9
100
AcDbLine
 10
11625.45483172601
 20
9573.665562944212
 30
0.0
 11
11635.45654730776
 21
9572.250553574637
 31
0.0
  0
LINE
  5
250A9
330
239E6
100
AcDbEntity
  8
waku
  6
Continuous
370
     9
100
AcDbLine
 10
11635.45654730776
 20
9572.250553574637
 30
0.0
 11
11635.45654730776
 21
9549.768072316325
 31
0.0
  0
LINE
  5
250AA
330
239E6
100
AcDbEntity
  8
waku
  6
Continuous
370
     9
100
AcDbLine
 10
11565.45611841922
 20
9561.862683405683
 30
0.0
 11
11522.72969448978
 21
9550.413890253343
 31
0.0
  0
LINE
  5
250AB
330
239E6
100
AcDbEntity
  8
waku
  6
Continuous
370
     9
100
AcDbLine
 10
11522.72969448978
 20
9550.413890253343
 30
0.0
 11
11522.72969448978
 21
9569.152548228599
 31
0.0
  0
LINE
  5
250AC
330
239E6
100
AcDbEntity
  8
waku
  6
Continuous
370
     9
100
AcDbLine
 10
11522.72969448978
 20
9569.152548228599
 30
0.0
 11
11529.26269966216
 21
9574.635626024779
 31
0.0
  0
LINE
  5
250AD
330
239E6
100
AcDbEntity
  8
waku
  6
Continuous
370
     9
100
AcDbLine
 10
11529.26269966216
 20
9574.635626024779
 30
0.0
 11
11565.45611841922
 21
9584.333584480296
 31
0.0
  0
LINE
  5
250AE
330
239E6
100
AcDbEntity
  8
waku
  6
Continuous
370
     9
100
AcDbLine
 10
11565.45611841922
 20
9584.333584480296
 30
0.0
 11
11565.45611841922
 21
9561.862683405683
 31
0.0
  0
LINE
  5
250AF
330
239E6
100
AcDbEntity
  8
waku
  6
Continuous
370
     9
100
AcDbLine
 10
11525.4546007923
 20
9580.934800564888
 30
0.0
 11
11525.4546007923
 21
9592.03841516472
 31
0.0
  0
LINE
  5
250B0
330
239E6
100
AcDbEntity
  8
waku
  6
Continuous
370
     9
100
AcDbLine
 10
11525.4546007923
 20
9592.03841516472
 30
0.0
 11
11514.25032767256
 21
9592.03841516472
 31
0.0
  0
LINE
  5
250B1
330
239E6
100
AcDbEntity
  8
waku
  6
Continuous
370
     9
100
AcDbLine
 10
11514.25032767256
 20
9592.03841516472
 30
0.0
 11
11492.72811087794
 21
9573.979118687409
 31
0.0
  0
LINE
  5
250B2
330
239E6
100
AcDbEntity
  8
waku
  6
Continuous
370
     9
100
AcDbLine
 10
11492.72811087794
 20
9573.979118687409
 30
0.0
 11
11492.72811087794
 21
9553.473230034102
 31
0.0
  0
LINE
  5
250B3
330
239E6
100
AcDbEntity
  8
waku
  6
Continuous
370
     9
100
AcDbLine
 10
11492.72811087794
 20
9553.473230034102
 30
0.0
 11
11525.4546007923
 21
9580.934800564888
 31
0.0
  0
LINE
  5
250B4
330
239E6
100
AcDbEntity
  8
waku
  6
Continuous
370
     9
100
AcDbLine
 10
11635.45654730776
 20
9602.038349179762
 30
0.0
 11
11568.45538599688
 21
9602.038349179762
 31
0.0
  0
LINE
  5
250B5
330
239E6
100
AcDbEntity
  8
waku
  6
Continuous
370
     9
100
AcDbLine
 10
11568.45538599688
 20
9602.038349179762
 30
0.0
 11
11568.45538599688
 21
9612.03872858649
 31
0.0
  0
LINE
  5
250B6
330
239E6
100
AcDbEntity
  8
waku
  6
Continuous
370
     9
100
AcDbLine
 10
11568.45538599688
 20
9612.03872858649
 30
0.0
 11
11559.72927218866
 21
9612.03872858649
 31
0.0
  0
LINE
  5
250B7
330
239E6
100
AcDbEntity
  8
waku
  6
Continuous
370
     9
100
AcDbLine
 10
11559.72927218866
 20
9612.03872858649
 30
0.0
 11
11559.72927218866
 21
9602.038349179762
 31
0.0
  0
LINE
  5
250B8
330
239E6
100
AcDbEntity
  8
waku
  6
Continuous
370
     9
100
AcDbLine
 10
11559.72927218866
 20
9602.038349179762
 30
0.0
 11
11492.72811087794
 21
9602.038349179762
 31
0.0
  0
LINE
  5
250B9
330
239E6
100
AcDbEntity
  8
waku
  6
Continuous
370
     9
100
AcDbLine
 10
11492.72811087794
 20
9602.038349179762
 30
0.0
 11
11492.72811087794
 21
9599.311215918849
 31
0.0
  0
LINE
  5
250BA
330
239E6
100
AcDbEntity
  8
waku
  6
Continuous
370
     9
100
AcDbLine
 10
11492.72811087794
 20
9599.311215918849
 30
0.0
 11
11635.45654730776
 21
9599.311215918849
 31
0.0
  0
LINE
  5
250BB
330
239E6
100
AcDbEntity
  8
waku
  6
Continuous
370
     9
100
AcDbLine
 10
11635.45654730776
 20
9599.311215918849
 30
0.0
 11
11635.45654730776
 21
9602.038349179762
 31
0.0
  0
LINE
  5
250BC
330
239E6
100
AcDbEntity
  8
waku
  6
Continuous
370
     9
100
AcDbLine
 10
11635.45654730776
 20
9692.039091490221
 30
0.0
 11
11635.45654730776
 21
9635.675219689481
 31
0.0
  0
LINE
  5
250BD
330
239E6
100
AcDbEntity
  8
waku
  6
Continuous
370
     9
100
AcDbLine
 10
11635.45654730776
 20
9635.675219689481
 30
0.0
 11
11619.0937477424
 21
9619.31152934062
 31
0.0
  0
LINE
  5
250BE
330
239E6
100
AcDbEntity
  8
waku
  6
Continuous
370
     9
100
AcDbLine
 10
11619.0937477424
 20
9619.31152934062
 30
0.0
 11
11592.73368651185
 21
9619.31152934062
 31
0.0
  0
LINE
  5
250BF
330
239E6
100
AcDbEntity
  8
waku
  6
Continuous
370
     9
100
AcDbLine
 10
11592.73368651185
 20
9619.31152934062
 30
0.0
 11
11592.73368651185
 21
9628.038533932249
 31
0.0
  0
LINE
  5
250C0
330
239E6
100
AcDbEntity
  8
waku
  6
Continuous
370
     9
100
AcDbLine
 10
11592.73368651185
 20
9628.038533932249
 30
0.0
 11
11615.09323966623
 21
9628.038533932249
 31
0.0
  0
LINE
  5
250C1
330
239E6
100
AcDbEntity
  8
waku
  6
Continuous
370
     9
100
AcDbLine
 10
11615.09323966623
 20
9628.038533932249
 30
0.0
 11
11628.73291449602
 21
9641.675035346212
 31
0.0
  0
LINE
  5
250C2
330
239E6
100
AcDbEntity
  8
waku
  6
Continuous
370
     9
100
AcDbLine
 10
11628.73291449602
 20
9641.675035346212
 30
0.0
 11
11628.73291449602
 21
9692.039091490221
 31
0.0
  0
LINE
  5
250C3
330
239E6
100
AcDbEntity
  8
waku
  6
Continuous
370
     9
100
AcDbLine
 10
11628.73291449602
 20
9692.039091490221
 30
0.0
 11
11635.45654730776
 21
9692.039091490221
 31
0.0
  0
LINE
  5
250C4
330
239E6
100
AcDbEntity
  8
waku
  6
Continuous
370
     9
100
AcDbLine
 10
11592.73368651185
 20
9692.039091490221
 30
0.0
 11
11592.73368651185
 21
9649.311776777429
 31
0.0
  0
LINE
  5
250C5
330
239E6
100
AcDbEntity
  8
waku
  6
Continuous
370
     9
100
AcDbLine
 10
11592.73368651185
 20
9649.311776777429
 30
0.0
 11
11601.45712797004
 21
9649.311776777429
 31
0.0
  0
LINE
  5
250C6
330
239E6
100
AcDbEntity
  8
waku
  6
Continuous
370
     9
100
AcDbLine
 10
11601.45712797004
 20
9649.311776777429
 30
0.0
 11
11601.45712797004
 21
9692.039091490221
 31
0.0
  0
LINE
  5
250C7
330
239E6
100
AcDbEntity
  8
waku
  6
Continuous
370
     9
100
AcDbLine
 10
11601.45712797004
 20
9692.039091490221
 30
0.0
 11
11592.73368651185
 21
9692.039091490221
 31
0.0
  0
LINE
  5
250C8
330
239E6
100
AcDbEntity
  8
waku
  6
Continuous
370
     9
100
AcDbLine
 10
11499.45530682317
 20
9635.311334686372
 30
0.0
 11
11529.72947014348
 21
9635.311334686372
 31
0.0
  0
LINE
  5
250C9
330
239E6
100
AcDbEntity
  8
waku
  6
Continuous
370
     9
100
AcDbLine
 10
11529.72947014348
 20
9635.311334686372
 30
0.0
 11
11529.72947014348
 21
9619.31152934062
 31
0.0
  0
LINE
  5
250CA
330
239E6
100
AcDbEntity
  8
waku
  6
Continuous
370
     9
100
AcDbLine
 10
11529.72947014348
 20
9619.31152934062
 30
0.0
 11
11538.4564747352
 21
9619.31152934062
 31
0.0
  0
LINE
  5
250CB
330
239E6
100
AcDbEntity
  8
waku
  6
Continuous
370
     9
100
AcDbLine
 10
11538.4564747352
 20
9619.31152934062
 30
0.0
 11
11538.4564747352
 21
9635.311334686372
 31
0.0
  0
LINE
  5
250CC
330
239E6
100
AcDbEntity
  8
waku
  6
Continuous
370
     9
100
AcDbLine
 10
11538.4564747352
 20
9635.311334686372
 30
0.0
 11
11568.72885648881
 21
9635.311334686372
 31
0.0
  0
LINE
  5
250CD
330
239E6
100
AcDbEntity
  8
waku
  6
Continuous
370
     9
100
AcDbLine
 10
11568.72885648881
 20
9635.311334686372
 30
0.0
 11
11568.72885648881
 21
9619.31152934062
 31
0.0
  0
LINE
  5
250CE
330
239E6
100
AcDbEntity
  8
waku
  6
Continuous
370
     9
100
AcDbLine
 10
11568.72885648881
 20
9619.31152934062
 30
0.0
 11
11575.45516165082
 21
9619.31152934062
 31
0.0
  0
LINE
  5
250CF
330
239E6
100
AcDbEntity
  8
waku
  6
Continuous
370
     9
100
AcDbLine
 10
11575.45516165082
 20
9619.31152934062
 30
0.0
 11
11575.45516165082
 21
9640.038721985281
 31
0.0
  0
LINE
  5
250D0
330
239E6
100
AcDbEntity
  8
waku
  6
Continuous
370
     9
100
AcDbLine
 10
11575.45516165082
 20
9640.038721985281
 30
0.0
 11
11538.4564747352
 21
9640.038721985281
 31
0.0
  0
LINE
  5
250D1
330
239E6
100
AcDbEntity
  8
waku
  6
Continuous
370
     9
100
AcDbLine
 10
11538.4564747352
 20
9640.038721985281
 30
0.0
 11
11538.4564747352
 21
9657.311512428428
 31
0.0
  0
LINE
  5
250D2
330
239E6
100
AcDbEntity
  8
waku
  6
Continuous
370
     9
100
AcDbLine
 10
11538.4564747352
 20
9657.311512428428
 30
0.0
 11
11575.45516165082
 21
9657.311512428428
 31
0.0
  0
LINE
  5
250D3
330
239E6
100
AcDbEntity
  8
waku
  6
Continuous
370
     9
100
AcDbLine
 10
11575.45516165082
 20
9657.311512428428
 30
0.0
 11
11575.45516165082
 21
9662.038844053412
 31
0.0
  0
LINE
  5
250D4
330
239E6
100
AcDbEntity
  8
waku
  6
Continuous
370
     9
100
AcDbLine
 10
11575.45516165082
 20
9662.038844053412
 30
0.0
 11
11538.4564747352
 21
9662.038844053412
 31
0.0
  0
LINE
  5
250D5
330
239E6
100
AcDbEntity
  8
waku
  6
Continuous
370
     9
100
AcDbLine
 10
11538.4564747352
 20
9662.038844053412
 30
0.0
 11
11538.4564747352
 21
9679.311133430887
 31
0.0
  0
LINE
  5
250D6
330
239E6
100
AcDbEntity
  8
waku
  6
Continuous
370
     9
100
AcDbLine
 10
11538.4564747352
 20
9679.311133430887
 30
0.0
 11
11575.45516165082
 21
9679.311133430887
 31
0.0
  0
LINE
  5
250D7
330
239E6
100
AcDbEntity
  8
waku
  6
Continuous
370
     9
100
AcDbLine
 10
11575.45516165082
 20
9679.311133430887
 30
0.0
 11
11575.45516165082
 21
9684.038520729824
 31
0.0
  0
LINE
  5
250D8
330
239E6
100
AcDbEntity
  8
waku
  6
Continuous
370
     9
100
AcDbLine
 10
11575.45516165082
 20
9684.038520729824
 30
0.0
 11
11538.4564747352
 21
9684.038520729824
 31
0.0
  0
LINE
  5
250D9
330
239E6
100
AcDbEntity
  8
waku
  6
Continuous
370
     9
100
AcDbLine
 10
11538.4564747352
 20
9684.038520729824
 30
0.0
 11
11538.4564747352
 21
9692.039091490221
 31
0.0
  0
LINE
  5
250DA
330
239E6
100
AcDbEntity
  8
waku
  6
Continuous
370
     9
100
AcDbLine
 10
11538.4564747352
 20
9692.039091490221
 30
0.0
 11
11529.72947014348
 21
9692.039091490221
 31
0.0
  0
LINE
  5
250DB
330
239E6
100
AcDbEntity
  8
waku
  6
Continuous
370
     9
100
AcDbLine
 10
11529.72947014348
 20
9692.039091490221
 30
0.0
 11
11529.72947014348
 21
9684.038520729824
 31
0.0
  0
LINE
  5
250DC
330
239E6
100
AcDbEntity
  8
waku
  6
Continuous
370
     9
100
AcDbLine
 10
11529.72947014348
 20
9684.038520729824
 30
0.0
 11
11497.46173366023
 21
9684.038520729824
 31
0.0
  0
LINE
  5
250DD
330
239E6
100
AcDbEntity
  8
waku
  6
Continuous
370
     9
100
AcDbLine
 10
11497.46173366023
 20
9684.038520729824
 30
0.0
 11
11497.46173366023
 21
9692.039091490221
 31
0.0
  0
LINE
  5
250DE
330
239E6
100
AcDbEntity
  8
waku
  6
Continuous
370
     9
100
AcDbLine
 10
11497.46173366023
 20
9692.039091490221
 30
0.0
 11
11492.72811087794
 21
9692.039091490221
 31
0.0
  0
LINE
  5
250DF
330
239E6
100
AcDbEntity
  8
waku
  6
Continuous
370
     9
100
AcDbLine
 10
11492.72811087794
 20
9692.039091490221
 30
0.0
 11
11492.72811087794
 21
9679.311133430887
 31
0.0
  0
LINE
  5
250E0
330
239E6
100
AcDbEntity
  8
waku
  6
Continuous
370
     9
100
AcDbLine
 10
11492.72811087794
 20
9679.311133430887
 30
0.0
 11
11529.72947014348
 21
9679.311133430887
 31
0.0
  0
LINE
  5
250E1
330
239E6
100
AcDbEntity
  8
waku
  6
Continuous
370
     9
100
AcDbLine
 10
11529.72947014348
 20
9679.311133430887
 30
0.0
 11
11529.72947014348
 21
9662.038844053412
 31
0.0
  0
LINE
  5
250E2
330
239E6
100
AcDbEntity
  8
waku
  6
Continuous
370
     9
100
AcDbLine
 10
11529.72947014348
 20
9662.038844053412
 30
0.0
 11
11492.72811087794
 21
9662.038844053412
 31
0.0
  0
LINE
  5
250E3
330
239E6
100
AcDbEntity
  8
waku
  6
Continuous
370
     9
100
AcDbLine
 10
11492.72811087794
 20
9662.038844053412
 30
0.0
 11
11492.72811087794
 21
9657.311512428428
 31
0.0
  0
LINE
  5
250E4
330
239E6
100
AcDbEntity
  8
waku
  6
Continuous
370
     9
100
AcDbLine
 10
11492.72811087794
 20
9657.311512428428
 30
0.0
 11
11529.72947014348
 21
9657.311512428428
 31
0.0
  0
LINE
  5
250E5
330
239E6
100
AcDbEntity
  8
waku
  6
Continuous
370
     9
100
AcDbLine
 10
11529.72947014348
 20
9657.311512428428
 30
0.0
 11
11529.72947014348
 21
9640.038721985281
 31
0.0
  0
LINE
  5
250E6
330
239E6
100
AcDbEntity
  8
waku
  6
Continuous
370
     9
100
AcDbLine
 10
11529.72947014348
 20
9640.038721985281
 30
0.0
 11
11492.72811087794
 21
9640.038721985281
 31
0.0
  0
LINE
  5
250E7
330
239E6
100
AcDbEntity
  8
waku
  6
Continuous
370
     9
100
AcDbLine
 10
11492.72811087794
 20
9640.038721985281
 30
0.0
 11
11492.72811087794
 21
9619.31152934062
 31
0.0
  0
LINE
  5
250E8
330
239E6
100
AcDbEntity
  8
waku
  6
Continuous
370
     9
100
AcDbLine
 10
11492.72811087794
 20
9619.31152934062
 30
0.0
 11
11499.45530682317
 21
9619.31152934062
 31
0.0
  0
LINE
  5
250E9
330
239E6
100
AcDbEntity
  8
waku
  6
Continuous
370
     9
100
AcDbLine
 10
11499.45530682317
 20
9619.31152934062
 30
0.0
 11
11499.45530682317
 21
9635.311334686372
 31
0.0
  0
LINE
  5
250EA
330
239E6
100
AcDbEntity
  8
waku
  6
Continuous
370
     9
100
AcDbLine
 10
11717.72395386632
 20
9680.354686138768
 30
0.0
 11
11691.81997371684
 21
9654.454269122789
 31
0.0
  0
LINE
  5
250EB
330
239E6
100
AcDbEntity
  8
waku
  6
Continuous
370
     9
100
AcDbLine
 10
11691.81997371684
 20
9654.454269122789
 30
0.0
 11
11691.81997371684
 21
9664.168651396536
 31
0.0
  0
LINE
  5
250EC
330
239E6
100
AcDbEntity
  8
waku
  6
Continuous
370
     9
100
AcDbLine
 10
11691.81997371684
 20
9664.168651396536
 30
0.0
 11
11718.64680542871
 21
9690.995538782344
 31
0.0
  0
LINE
  5
250ED
330
239E6
100
AcDbEntity
  8
waku
  6
Continuous
370
     9
100
AcDbLine
 10
11718.64680542871
 20
9690.995538782344
 30
0.0
 11
11744.54722244483
 21
9673.72909517068
 31
0.0
  0
LINE
  5
250EE
330
239E6
100
AcDbEntity
  8
waku
  6
Continuous
370
     9
100
AcDbLine
 10
11744.54722244483
 20
9673.72909517068
 30
0.0
 11
11744.54722244483
 21
9662.469537808645
 31
0.0
  0
LINE
  5
250EF
330
239E6
100
AcDbEntity
  8
waku
  6
Continuous
370
     9
100
AcDbLine
 10
11744.54722244483
 20
9662.469537808645
 30
0.0
 11
11717.72395386632
 21
9680.354686138768
 31
0.0
  0
LINE
  5
250F0
330
239E6
100
AcDbEntity
  8
waku
  6
Continuous
370
     9
100
AcDbLine
 10
11714.81821854149
 20
9626.311249320529
 30
0.0
 11
11691.81997371684
 21
9626.311249320529
 31
0.0
  0
LINE
  5
250F1
330
239E6
100
AcDbEntity
  8
waku
  6
Continuous
370
     9
100
AcDbLine
 10
11691.81997371684
 20
9626.311249320529
 30
0.0
 11
11691.81997371684
 21
9632.038596616574
 31
0.0
  0
LINE
  5
250F2
330
239E6
100
AcDbEntity
  8
waku
  6
Continuous
370
     9
100
AcDbLine
 10
11691.81997371684
 20
9632.038596616574
 30
0.0
 11
11744.54722244483
 21
9632.038596616574
 31
0.0
  0
LINE
  5
250F3
330
239E6
100
AcDbEntity
  8
waku
  6
Continuous
370
     9
100
AcDbLine
 10
11744.54722244483
 20
9632.038596616574
 30
0.0
 11
11744.54722244483
 21
9626.311249320529
 31
0.0
  0
LINE
  5
250F4
330
239E6
100
AcDbEntity
  8
waku
  6
Continuous
370
     9
100
AcDbLine
 10
11744.54722244483
 20
9626.311249320529
 30
0.0
 11
11721.54630526996
 21
9626.311249320529
 31
0.0
  0
LINE
  5
250F5
330
239E6
100
AcDbEntity
  8
waku
  6
Continuous
370
     9
100
AcDbLine
 10
11721.54630526996
 20
9626.311249320529
 30
0.0
 11
11721.54630526996
 21
9605.038952932623
 31
0.0
  0
LINE
  5
250F6
330
239E6
100
AcDbEntity
  8
waku
  6
Continuous
370
     9
100
AcDbLine
 10
11721.54630526996
 20
9605.038952932623
 30
0.0
 11
11744.54722244483
 21
9605.038952932623
 31
0.0
  0
LINE
  5
250F7
330
239E6
100
AcDbEntity
  8
waku
  6
Continuous
370
     9
100
AcDbLine
 10
11744.54722244483
 20
9605.038952932623
 30
0.0
 11
11744.54722244483
 21
9599.311215918849
 31
0.0
  0
LINE
  5
250F8
330
239E6
100
AcDbEntity
  8
waku
  6
Continuous
370
     9
100
AcDbLine
 10
11744.54722244483
 20
9599.311215918849
 30
0.0
 11
11721.54630526996
 21
9599.311215918849
 31
0.0
  0
LINE
  5
250F9
330
239E6
100
AcDbEntity
  8
waku
  6
Continuous
370
     9
100
AcDbLine
 10
11721.54630526996
 20
9599.311215918849
 30
0.0
 11
11721.54630526996
 21
9572.038547134615
 31
0.0
  0
LINE
  5
250FA
330
239E6
100
AcDbEntity
  8
waku
  6
Continuous
370
     9
100
AcDbLine
 10
11721.54630526996
 20
9572.038547134615
 30
0.0
 11
11739.8198351457
 21
9572.038547134615
 31
0.0
  0
LINE
  5
250FB
330
239E6
100
AcDbEntity
  8
waku
  6
Continuous
370
     9
100
AcDbLine
 10
11739.8198351457
 20
9572.038547134615
 30
0.0
 11
11739.8198351457
 21
9585.038639510853
 31
0.0
  0
LINE
  5
250FC
330
239E6
100
AcDbEntity
  8
waku
  6
Continuous
370
     9
100
AcDbLine
 10
11739.8198351457
 20
9585.038639510853
 30
0.0
 11
11744.54722244483
 21
9585.038639510853
 31
0.0
  0
LINE
  5
250FD
330
239E6
100
AcDbEntity
  8
waku
  6
Continuous
370
     9
100
AcDbLine
 10
11744.54722244483
 20
9585.038639510853
 30
0.0
 11
11744.54722244483
 21
9565.675236192481
 31
0.0
  0
LINE
  5
250FE
330
239E6
100
AcDbEntity
  8
waku
  6
Continuous
370
     9
100
AcDbLine
 10
11744.54722244483
 20
9565.675236192481
 30
0.0
 11
11728.18442287928
 21
9549.311518006613
 31
0.0
  0
LINE
  5
250FF
330
239E6
100
AcDbEntity
  8
waku
  6
Continuous
370
     9
100
AcDbLine
 10
11728.18442287928
 20
9549.311518006613
 30
0.0
 11
11691.81997371684
 21
9549.311518006613
 31
0.0
  0
LINE
  5
25100
330
239E6
100
AcDbEntity
  8
waku
  6
Continuous
370
     9
100
AcDbLine
 10
11691.81997371684
 20
9549.311518006613
 30
0.0
 11
11691.81997371684
 21
9572.038547134615
 31
0.0
  0
LINE
  5
25101
330
239E6
100
AcDbEntity
  8
waku
  6
Continuous
370
     9
100
AcDbLine
 10
11691.81997371684
 20
9572.038547134615
 30
0.0
 11
11714.81821854149
 21
9572.038547134615
 31
0.0
  0
LINE
  5
25102
330
239E6
100
AcDbEntity
  8
waku
  6
Continuous
370
     9
100
AcDbLine
 10
11714.81821854149
 20
9572.038547134615
 30
0.0
 11
11714.81821854149
 21
9599.311215918849
 31
0.0
  0
LINE
  5
25103
330
239E6
100
AcDbEntity
  8
waku
  6
Continuous
370
     9
100
AcDbLine
 10
11714.81821854149
 20
9599.311215918849
 30
0.0
 11
11691.81997371684
 21
9599.311215918849
 31
0.0
  0
LINE
  5
25104
330
239E6
100
AcDbEntity
  8
waku
  6
Continuous
370
     9
100
AcDbLine
 10
11691.81997371684
 20
9599.311215918849
 30
0.0
 11
11691.81997371684
 21
9605.038952932623
 31
0.0
  0
LINE
  5
25105
330
239E6
100
AcDbEntity
  8
waku
  6
Continuous
370
     9
100
AcDbLine
 10
11691.81997371684
 20
9605.038952932623
 30
0.0
 11
11714.81821854149
 21
9605.038952932623
 31
0.0
  0
LINE
  5
25106
330
239E6
100
AcDbEntity
  8
waku
  6
Continuous
370
     9
100
AcDbLine
 10
11714.81821854149
 20
9605.038952932623
 30
0.0
 11
11714.81821854149
 21
9626.311249320529
 31
0.0
  0
LINE
  5
25107
330
239E6
100
AcDbEntity
  8
waku
  6
Continuous
370
     9
100
AcDbLine
 10
11691.81997371684
 20
9581.675041538209
 30
0.0
 11
11691.81997371684
 21
9585.038639510853
 31
0.0
  0
LINE
  5
25108
330
239E6
100
AcDbEntity
  8
waku
  6
Continuous
370
     9
100
AcDbLine
 10
11691.81997371684
 20
9585.038639510853
 30
0.0
 11
11694.54577080281
 21
9585.038639510853
 31
0.0
  0
LINE
  5
25109
330
239E6
100
AcDbEntity
  8
waku
  6
Continuous
370
     9
100
AcDbLine
 10
11694.54577080281
 20
9585.038639510853
 30
0.0
 11
11694.54577080281
 21
9581.675041538209
 31
0.0
  0
LINE
  5
2510A
330
239E6
100
AcDbEntity
  8
waku
  6
Continuous
370
     9
100
AcDbLine
 10
11815.04738079923
 20
9631.311272002021
 30
0.0
 11
11815.04738079923
 21
9636.038603626971
 31
0.0
  0
LINE
  5
2510B
330
239E6
100
AcDbEntity
  8
waku
  6
Continuous
370
     9
100
AcDbLine
 10
11815.04738079923
 20
9636.038603626971
 30
0.0
 11
11807.70910746788
 21
9636.038603626971
 31
0.0
  0
LINE
  5
2510C
330
239E6
100
AcDbEntity
  8
waku
  6
Continuous
370
     9
100
AcDbLine
 10
11807.70910746788
 20
9636.038603626971
 30
0.0
 11
11814.2029181725
 21
9667.038811060916
 31
0.0
  0
LINE
  5
2510D
330
239E6
100
AcDbEntity
  8
waku
  6
Continuous
370
     9
100
AcDbLine
 10
11814.2029181725
 20
9667.038811060916
 30
0.0
 11
11809.63676266213
 21
9667.038811060916
 31
0.0
  0
LINE
  5
2510E
330
239E6
100
AcDbEntity
  8
waku
  6
Continuous
370
     9
100
AcDbLine
 10
11809.63676266213
 20
9667.038811060916
 30
0.0
 11
11803.13671647388
 21
9636.038603626971
 31
0.0
  0
LINE
  5
2510F
330
239E6
100
AcDbEntity
  8
waku
  6
Continuous
370
     9
100
AcDbLine
 10
11803.13671647388
 20
9636.038603626971
 30
0.0
 11
11790.23015635069
 21
9636.038603626971
 31
0.0
  0
LINE
  5
25110
330
239E6
100
AcDbEntity
  8
waku
  6
Continuous
370
     9
100
AcDbLine
 10
11790.23015635069
 20
9636.038603626971
 30
0.0
 11
11783.72832859573
 21
9667.038811060916
 31
0.0
  0
LINE
  5
25111
330
239E6
100
AcDbEntity
  8
waku
  6
Continuous
370
     9
100
AcDbLine
 10
11783.72832859573
 20
9667.038811060916
 30
0.0
 11
11779.16573621883
 21
9667.038811060916
 31
0.0
  0
LINE
  5
25112
330
239E6
100
AcDbEntity
  8
waku
  6
Continuous
370
     9
100
AcDbLine
 10
11779.16573621883
 20
9667.038811060916
 30
0.0
 11
11785.65954692322
 21
9636.038603626971
 31
0.0
  0
LINE
  5
25113
330
239E6
100
AcDbEntity
  8
waku
  6
Continuous
370
     9
100
AcDbLine
 10
11785.65954692322
 20
9636.038603626971
 30
0.0
 11
11778.32038280884
 21
9636.038603626971
 31
0.0
  0
LINE
  5
25114
330
239E6
100
AcDbEntity
  8
waku
  6
Continuous
370
     9
100
AcDbLine
 10
11778.32038280884
 20
9636.038603626971
 30
0.0
 11
11778.32038280884
 21
9631.311272002021
 31
0.0
  0
LINE
  5
25115
330
239E6
100
AcDbEntity
  8
waku
  6
Continuous
370
     9
100
AcDbLine
 10
11778.32038280884
 20
9631.311272002021
 30
0.0
 11
11815.04738079923
 21
9631.311272002021
 31
0.0
  0
LINE
  5
25116
330
239E6
100
AcDbEntity
  8
waku
  6
Continuous
370
     9
100
AcDbLine
 10
11822.31973616154
 20
9572.038547134615
 30
0.0
 11
11830.8204817795
 21
9572.038547134615
 31
0.0
  0
LINE
  5
25117
330
239E6
100
AcDbEntity
  8
waku
  6
Continuous
370
     9
100
AcDbLine
 10
11830.8204817795
 20
9572.038547134615
 30
0.0
 11
11830.8204817795
 21
9683.311196115241
 31
0.0
  0
LINE
  5
25118
330
239E6
100
AcDbEntity
  8
waku
  6
Continuous
370
     9
100
AcDbLine
 10
11830.8204817795
 20
9683.311196115241
 30
0.0
 11
11762.54550026168
 21
9683.311196115241
 31
0.0
  0
LINE
  5
25119
330
239E6
100
AcDbEntity
  8
waku
  6
Continuous
370
     9
100
AcDbLine
 10
11762.54550026168
 20
9683.311196115241
 30
0.0
 11
11762.54550026168
 21
9549.311518006613
 31
0.0
  0
LINE
  5
2511A
330
239E6
100
AcDbEntity
  8
waku
  6
Continuous
370
     9
100
AcDbLine
 10
11762.54550026168
 20
9549.311518006613
 30
0.0
 11
11759.81970317584
 21
9549.311518006613
 31
0.0
  0
LINE
  5
2511B
330
239E6
100
AcDbEntity
  8
waku
  6
Continuous
370
     9
100
AcDbLine
 10
11759.81970317584
 20
9549.311518006613
 30
0.0
 11
11759.81970317584
 21
9692.039091490221
 31
0.0
  0
LINE
  5
2511C
330
239E6
100
AcDbEntity
  8
waku
  6
Continuous
370
     9
100
AcDbLine
 10
11759.81970317584
 20
9692.039091490221
 30
0.0
 11
11833.54716964862
 21
9692.039091490221
 31
0.0
  0
LINE
  5
2511D
330
239E6
100
AcDbEntity
  8
waku
  6
Continuous
370
     9
100
AcDbLine
 10
11833.54716964862
 20
9692.039091490221
 30
0.0
 11
11833.54716964862
 21
9555.674884622728
 31
0.0
  0
LINE
  5
2511E
330
239E6
100
AcDbEntity
  8
waku
  6
Continuous
370
     9
100
AcDbLine
 10
11833.54716964862
 20
9555.674884622728
 30
0.0
 11
11827.18163174802
 21
9549.311518006613
 31
0.0
  0
LINE
  5
2511F
330
239E6
100
AcDbEntity
  8
waku
  6
Continuous
370
     9
100
AcDbLine
 10
11827.18163174802
 20
9549.311518006613
 30
0.0
 11
11822.31973616154
 21
9549.311518006613
 31
0.0
  0
LINE
  5
25120
330
239E6
100
AcDbEntity
  8
waku
  6
Continuous
370
     9
100
AcDbLine
 10
11822.31973616154
 20
9549.311518006613
 30
0.0
 11
11822.31973616154
 21
9572.038547134615
 31
0.0
  0
LINE
  5
25121
330
239E6
100
AcDbEntity
  8
waku
  6
Continuous
370
     9
100
AcDbLine
 10
11796.31776984238
 20
9624.038471247864
 30
0.0
 11
11796.31776984238
 21
9583.311410573093
 31
0.0
  0
LINE
  5
25122
330
239E6
100
AcDbEntity
  8
waku
  6
Continuous
370
     9
100
AcDbLine
 10
11796.31776984238
 20
9583.311410573093
 30
0.0
 11
11797.04553984878
 21
9583.311410573093
 31
0.0
  0
LINE
  5
25123
330
239E6
100
AcDbEntity
  8
waku
  6
Continuous
370
     9
100
AcDbLine
 10
11797.04553984878
 20
9583.311410573093
 30
0.0
 11
11797.04553984878
 21
9624.038471247864
 31
0.0
  0
LINE
  5
25124
330
239E6
100
AcDbEntity
  8
waku
  6
Continuous
370
     9
100
AcDbLine
 10
11797.04553984878
 20
9624.038471247864
 30
0.0
 11
11796.31776984238
 21
9624.038471247864
 31
0.0
  0
LINE
  5
25125
330
239E6
100
AcDbEntity
  8
waku
  6
Continuous
370
     9
100
AcDbLine
 10
11813.32015186139
 20
9608.038610228184
 30
0.0
 11
11815.04738079923
 21
9608.038610228184
 31
0.0
  0
LINE
  5
25126
330
239E6
100
AcDbEntity
  8
waku
  6
Continuous
370
     9
100
AcDbLine
 10
11815.04738079923
 20
9608.038610228184
 30
0.0
 11
11815.04738079923
 21
9565.311379026322
 31
0.0
  0
LINE
  5
25127
330
239E6
100
AcDbEntity
  8
waku
  6
Continuous
370
     9
100
AcDbLine
 10
11815.04738079923
 20
9565.311379026322
 30
0.0
 11
11778.32038280884
 21
9565.311379026322
 31
0.0
  0
LINE
  5
25128
330
239E6
100
AcDbEntity
  8
waku
  6
Continuous
370
     9
100
AcDbLine
 10
11778.32038280884
 20
9565.311379026322
 30
0.0
 11
11778.32038280884
 21
9608.038610228184
 31
0.0
  0
LINE
  5
25129
330
239E6
100
AcDbEntity
  8
waku
  6
Continuous
370
     9
100
AcDbLine
 10
11778.32038280884
 20
9608.038610228184
 30
0.0
 11
11780.04583017973
 21
9608.038610228184
 31
0.0
  0
LINE
  5
2512A
330
239E6
100
AcDbEntity
  8
waku
  6
Continuous
370
     9
100
AcDbLine
 10
11780.04583017973
 20
9608.038610228184
 30
0.0
 11
11780.04583017973
 21
9576.039166558564
 31
0.0
  0
LINE
  5
2512B
330
239E6
100
AcDbEntity
  8
waku
  6
Continuous
370
     9
100
AcDbLine
 10
11780.04583017973
 20
9576.039166558564
 30
0.0
 11
11813.32015186139
 21
9576.039166558564
 31
0.0
  0
LINE
  5
2512C
330
239E6
100
AcDbEntity
  8
waku
  6
Continuous
370
     9
100
AcDbLine
 10
11813.32015186139
 20
9576.039166558564
 30
0.0
 11
11813.32015186139
 21
9608.038610228184
 31
0.0
  0
LINE
  5
2512D
330
239E6
100
AcDbEntity
  8
waku
  6
Continuous
370
     9
100
AcDbLine
 10
11809.68397418016
 20
9611.674787909402
 30
0.0
 11
11818.68088613029
 21
9611.674787909402
 31
0.0
  0
LINE
  5
2512E
330
239E6
100
AcDbEntity
  8
waku
  6
Continuous
370
     9
100
AcDbLine
 10
11818.68088613029
 20
9611.674787909402
 30
0.0
 11
11818.68088613029
 21
9561.675312693038
 31
0.0
  0
LINE
  5
2512F
330
239E6
100
AcDbEntity
  8
waku
  6
Continuous
370
     9
100
AcDbLine
 10
11818.68088613029
 20
9561.675312693038
 30
0.0
 11
11774.68153277742
 21
9561.675312693038
 31
0.0
  0
LINE
  5
25130
330
239E6
100
AcDbEntity
  8
waku
  6
Continuous
370
     9
100
AcDbLine
 10
11774.68153277742
 20
9561.675312693038
 30
0.0
 11
11774.68153277742
 21
9611.674787909402
 31
0.0
  0
LINE
  5
25131
330
239E6
100
AcDbEntity
  8
waku
  6
Continuous
370
     9
100
AcDbLine
 10
11774.68153277742
 20
9611.674787909402
 30
0.0
 11
11783.68289864428
 21
9611.674787909402
 31
0.0
  0
LINE
  5
25132
330
239E6
100
AcDbEntity
  8
waku
  6
Continuous
370
     9
100
AcDbLine
 10
11783.68289864428
 20
9611.674787909402
 30
0.0
 11
11783.68289864428
 21
9579.674787500186
 31
0.0
  0
LINE
  5
25133
330
239E6
100
AcDbEntity
  8
waku
  6
Continuous
370
     9
100
AcDbLine
 10
11783.68289864428
 20
9579.674787500186
 30
0.0
 11
11809.68397418016
 21
9579.674787500186
 31
0.0
  0
LINE
  5
25134
330
239E6
100
AcDbEntity
  8
waku
  6
Continuous
370
     9
100
AcDbLine
 10
11809.68397418016
 20
9579.674787500186
 30
0.0
 11
11809.68397418016
 21
9611.674787909402
 31
0.0
  0
LINE
  5
25135
330
239E6
100
AcDbEntity
  8
waku
  6
Continuous
370
     9
100
AcDbLine
 10
11792.68248294467
 20
9627.675094320771
 30
0.0
 11
11792.68248294467
 21
9579.674787500186
 31
0.0
  0
LINE
  5
25136
330
239E6
100
AcDbEntity
  8
waku
  6
Continuous
370
     9
100
AcDbLine
 10
11792.68248294467
 20
9579.674787500186
 30
0.0
 11
11800.68260831337
 21
9579.674787500186
 31
0.0
  0
LINE
  5
25137
330
239E6
100
AcDbEntity
  8
waku
  6
Continuous
370
     9
100
AcDbLine
 10
11800.68260831337
 20
9579.674787500186
 30
0.0
 11
11800.68260831337
 21
9627.675094320771
 31
0.0
  0
LINE
  5
25138
330
239E6
100
AcDbEntity
  8
waku
  6
Continuous
370
     9
100
AcDbLine
 10
11800.68260831337
 20
9627.675094320771
 30
0.0
 11
11792.68248294467
 21
9627.675094320771
 31
0.0
  0
LINE
  5
25139
330
239E6
100
AcDbEntity
  8
waku
  6
Continuous
370
     9
100
AcDbLine
 10
11818.68088613029
 20
9627.675094320771
 30
0.0
 11
11818.68088613029
 21
9639.674781308194
 31
0.0
  0
LINE
  5
2513A
330
239E6
100
AcDbEntity
  8
waku
  6
Continuous
370
     9
100
AcDbLine
 10
11818.68088613029
 20
9639.674781308194
 30
0.0
 11
11812.1835122922
 21
9639.674781308194
 31
0.0
  0
LINE
  5
2513B
330
239E6
100
AcDbEntity
  8
waku
  6
Continuous
370
     9
100
AcDbLine
 10
11812.1835122922
 20
9639.674781308194
 30
0.0
 11
11818.68088613029
 21
9670.674988742165
 31
0.0
  0
LINE
  5
2513C
330
239E6
100
AcDbEntity
  8
waku
  6
Continuous
370
     9
100
AcDbLine
 10
11818.68088613029
 20
9670.674988742165
 30
0.0
 11
11806.68826973587
 21
9670.674988742165
 31
0.0
  0
LINE
  5
2513D
330
239E6
100
AcDbEntity
  8
waku
  6
Continuous
370
     9
100
AcDbLine
 10
11806.68826973587
 20
9670.674988742165
 30
0.0
 11
11800.18466041438
 21
9639.674781308194
 31
0.0
  0
LINE
  5
2513E
330
239E6
100
AcDbEntity
  8
waku
  6
Continuous
370
     9
100
AcDbLine
 10
11800.18466041438
 20
9639.674781308194
 30
0.0
 11
11793.18488476033
 21
9639.674781308194
 31
0.0
  0
LINE
  5
2513F
330
239E6
100
AcDbEntity
  8
waku
  6
Continuous
370
     9
100
AcDbLine
 10
11793.18488476033
 20
9639.674781308194
 30
0.0
 11
11786.68216622211
 21
9670.674988742165
 31
0.0
  0
LINE
  5
25140
330
239E6
100
AcDbEntity
  8
waku
  6
Continuous
370
     9
100
AcDbLine
 10
11786.68216622211
 20
9670.674988742165
 30
0.0
 11
11774.68153277742
 21
9670.674988742165
 31
0.0
  0
LINE
  5
25141
330
239E6
100
AcDbEntity
  8
waku
  6
Continuous
370
     9
100
AcDbLine
 10
11774.68153277742
 20
9670.674988742165
 30
0.0
 11
11781.18246974905
 21
9639.674781308194
 31
0.0
  0
LINE
  5
25142
330
239E6
100
AcDbEntity
  8
waku
  6
Continuous
370
     9
100
AcDbLine
 10
11781.18246974905
 20
9639.674781308194
 30
0.0
 11
11774.68153277742
 21
9639.674781308194
 31
0.0
  0
LINE
  5
25143
330
239E6
100
AcDbEntity
  8
waku
  6
Continuous
370
     9
100
AcDbLine
 10
11774.68153277742
 20
9639.674781308194
 30
0.0
 11
11774.68153277742
 21
9627.675094320771
 31
0.0
  0
LINE
  5
25144
330
239E6
100
AcDbEntity
  8
waku
  6
Continuous
370
     9
100
AcDbLine
 10
11774.68153277742
 20
9627.675094320771
 30
0.0
 11
11818.68088613029
 21
9627.675094320771
 31
0.0
  0
LINE
  5
25145
330
239E6
100
AcDbEntity
  8
waku
  6
Continuous
370
     9
100
AcDbLine
 10
11166.00124488431
 20
9684.95686270149
 30
0.0
 11
11125.99972725744
 21
9695.675157823531
 31
0.0
  0
LINE
  5
25146
330
239E6
100
AcDbEntity
  8
waku
  6
Continuous
370
     9
100
AcDbLine
 10
11125.99972725744
 20
9695.675157823531
 30
0.0
 11
11125.99972725744
 21
9677.674764396002
 31
0.0
  0
LINE
  5
25147
330
239E6
100
AcDbEntity
  8
waku
  6
Continuous
370
     9
100
AcDbLine
 10
11125.99972725744
 20
9677.674764396002
 30
0.0
 11
11166.00124488431
 21
9666.956803317713
 31
0.0
  0
LINE
  5
25148
330
239E6
100
AcDbEntity
  8
waku
  6
Continuous
370
     9
100
AcDbLine
 10
11166.00124488431
 20
9666.956803317713
 30
0.0
 11
11166.00124488431
 21
9684.95686270149
 31
0.0
  0
LINE
  5
25149
330
239E6
100
AcDbEntity
  8
waku
  6
Continuous
370
     9
100
AcDbLine
 10
11166.00124488431
 20
9644.957182315252
 30
0.0
 11
11166.00124488431
 21
9626.957122931505
 31
0.0
  0
LINE
  5
2514A
330
239E6
100
AcDbEntity
  8
waku
  6
Continuous
370
     9
100
AcDbLine
 10
11166.00124488431
 20
9626.957122931505
 30
0.0
 11
11125.99972725744
 21
9637.675084009794
 31
0.0
  0
LINE
  5
2514B
330
239E6
100
AcDbEntity
  8
waku
  6
Continuous
370
     9
100
AcDbLine
 10
11125.99972725744
 20
9637.675084009794
 30
0.0
 11
11125.99972725744
 21
9655.675087719588
 31
0.0
  0
LINE
  5
2514C
330
239E6
100
AcDbEntity
  8
waku
  6
Continuous
370
     9
100
AcDbLine
 10
11125.99972725744
 20
9655.675087719588
 30
0.0
 11
11166.00124488431
 21
9644.957182315252
 31
0.0
  0
LINE
  5
2514D
330
239E6
100
AcDbEntity
  8
waku
  6
Continuous
370
     9
100
AcDbLine
 10
11166.00124488431
 20
9605.674972252669
 30
0.0
 11
11166.00124488431
 21
9591.675031227227
 31
0.0
  0
LINE
  5
2514E
330
239E6
100
AcDbEntity
  8
waku
  6
Continuous
370
     9
100
AcDbLine
 10
11166.00124488431
 20
9591.675031227227
 30
0.0
 11
11125.99972725744
 21
9545.674922770707
 31
0.0
  0
LINE
  5
2514F
330
239E6
100
AcDbEntity
  8
waku
  6
Continuous
370
     9
100
AcDbLine
 10
11125.99972725744
 20
9545.674922770707
 30
0.0
 11
11125.99972725744
 21
9569.67488132212
 31
0.0
  0
LINE
  5
25150
330
239E6
100
AcDbEntity
  8
waku
  6
Continuous
370
     9
100
AcDbLine
 10
11125.99972725744
 20
9569.67488132212
 30
0.0
 11
11148.00118550056
 21
9591.675031227227
 31
0.0
  0
LINE
  5
25151
330
239E6
100
AcDbEntity
  8
waku
  6
Continuous
370
     9
100
AcDbLine
 10
11148.00118550056
 20
9591.675031227227
 30
0.0
 11
11148.00118550056
 21
9605.674972252669
 31
0.0
  0
LINE
  5
25152
330
239E6
100
AcDbEntity
  8
waku
  6
Continuous
370
     9
100
AcDbLine
 10
11148.00118550056
 20
9605.674972252669
 30
0.0
 11
11166.00124488431
 21
9605.674972252669
 31
0.0
  0
LINE
  5
25153
330
239E6
100
AcDbEntity
  8
waku
  6
Continuous
370
     9
100
AcDbLine
 10
11176.00117889929
 20
9655.675087719588
 30
0.0
 11
11176.00117889929
 21
9685.674889764738
 31
0.0
  0
LINE
  5
25154
330
239E6
100
AcDbEntity
  8
waku
  6
Continuous
370
     9
100
AcDbLine
 10
11176.00117889929
 20
9685.674889764738
 30
0.0
 11
11217.00126467439
 21
9685.674889764738
 31
0.0
  0
LINE
  5
25155
330
239E6
100
AcDbEntity
  8
waku
  6
Continuous
370
     9
100
AcDbLine
 10
11217.00126467439
 20
9685.674889764738
 30
0.0
 11
11217.00126467439
 21
9695.675157823531
 31
0.0
  0
LINE
  5
25156
330
239E6
100
AcDbEntity
  8
waku
  6
Continuous
370
     9
100
AcDbLine
 10
11217.00126467439
 20
9695.675157823531
 30
0.0
 11
11235.00221484164
 21
9695.675157823531
 31
0.0
  0
LINE
  5
25157
330
239E6
100
AcDbEntity
  8
waku
  6
Continuous
370
     9
100
AcDbLine
 10
11235.00221484164
 20
9695.675157823531
 30
0.0
 11
11235.00221484164
 21
9685.674889764738
 31
0.0
  0
LINE
  5
25158
330
239E6
100
AcDbEntity
  8
waku
  6
Continuous
370
     9
100
AcDbLine
 10
11235.00221484164
 20
9685.674889764738
 30
0.0
 11
11263.99988560516
 21
9685.674889764738
 31
0.0
  0
LINE
  5
25159
330
239E6
100
AcDbEntity
  8
waku
  6
Continuous
370
     9
100
AcDbLine
 10
11263.99988560516
 20
9685.674889764738
 30
0.0
 11
11273.99981962013
 21
9675.67495574967
 31
0.0
  0
LINE
  5
2515A
330
239E6
100
AcDbEntity
  8
waku
  6
Continuous
370
     9
100
AcDbLine
 10
11273.99981962013
 20
9675.67495574967
 30
0.0
 11
11273.99981962013
 21
9655.675087719588
 31
0.0
  0
LINE
  5
2515B
330
239E6
100
AcDbEntity
  8
waku
  6
Continuous
370
     9
100
AcDbLine
 10
11273.99981962013
 20
9655.675087719588
 30
0.0
 11
11255.99976023645
 21
9655.675087719588
 31
0.0
  0
LINE
  5
2515C
330
239E6
100
AcDbEntity
  8
waku
  6
Continuous
370
     9
100
AcDbLine
 10
11255.99976023645
 20
9655.675087719588
 30
0.0
 11
11255.99976023645
 21
9669.675084418985
 31
0.0
  0
LINE
  5
2515D
330
239E6
100
AcDbEntity
  8
waku
  6
Continuous
370
     9
100
AcDbLine
 10
11255.99976023645
 20
9669.675084418985
 30
0.0
 11
11194.00212906642
 21
9669.675084418985
 31
0.0
  0
LINE
  5
2515E
330
239E6
100
AcDbEntity
  8
waku
  6
Continuous
370
     9
100
AcDbLine
 10
11194.00212906642
 20
9669.675084418985
 30
0.0
 11
11194.00212906642
 21
9655.675087719588
 31
0.0
  0
LINE
  5
2515F
330
239E6
100
AcDbEntity
  8
waku
  6
Continuous
370
     9
100
AcDbLine
 10
11194.00212906642
 20
9655.675087719588
 30
0.0
 11
11176.00117889929
 21
9655.675087719588
 31
0.0
  0
LINE
  5
25160
330
239E6
100
AcDbEntity
  8
waku
  6
Continuous
370
     9
100
AcDbLine
 10
11176.00117889929
 20
9623.675031636418
 30
0.0
 11
11217.00126467439
 21
9623.675031636418
 31
0.0
  0
LINE
  5
25161
330
239E6
100
AcDbEntity
  8
waku
  6
Continuous
370
     9
100
AcDbLine
 10
11217.00126467439
 20
9623.675031636418
 30
0.0
 11
11217.00126467439
 21
9575.674836163768
 31
0.0
  0
LINE
  5
25162
330
239E6
100
AcDbEntity
  8
waku
  6
Continuous
370
     9
100
AcDbLine
 10
11217.00126467439
 20
9575.674836163768
 30
0.0
 11
11211.00183873551
 21
9569.67488132212
 31
0.0
  0
LINE
  5
25163
330
239E6
100
AcDbEntity
  8
waku
  6
Continuous
370
     9
100
AcDbLine
 10
11211.00183873551
 20
9569.67488132212
 30
0.0
 11
11204.00562621494
 21
9569.67488132212
 31
0.0
  0
LINE
  5
25164
330
239E6
100
AcDbEntity
  8
waku
  6
Continuous
370
     9
100
AcDbLine
 10
11204.00562621494
 20
9569.67488132212
 30
0.0
 11
11194.00212906642
 21
9579.674787500186
 31
0.0
  0
LINE
  5
25165
330
239E6
100
AcDbEntity
  8
waku
  6
Continuous
370
     9
100
AcDbLine
 10
11194.00212906642
 20
9579.674787500186
 30
0.0
 11
11194.00212906642
 21
9615.674906267713
 31
0.0
  0
LINE
  5
25166
330
239E6
100
AcDbEntity
  8
waku
  6
Continuous
370
     9
100
AcDbLine
 10
11194.00212906642
 20
9615.674906267713
 30
0.0
 11
11176.00117889929
 21
9615.674906267713
 31
0.0
  0
LINE
  5
25167
330
239E6
100
AcDbEntity
  8
waku
  6
Continuous
370
     9
100
AcDbLine
 10
11176.00117889929
 20
9615.674906267713
 30
0.0
 11
11176.00117889929
 21
9565.675236192481
 31
0.0
  0
LINE
  5
25168
330
239E6
100
AcDbEntity
  8
waku
  6
Continuous
370
     9
100
AcDbLine
 10
11176.00117889929
 20
9565.675236192481
 30
0.0
 11
11196.00104692943
 21
9545.674922770707
 31
0.0
  0
LINE
  5
25169
330
239E6
100
AcDbEntity
  8
waku
  6
Continuous
370
     9
100
AcDbLine
 10
11196.00104692943
 20
9545.674922770707
 30
0.0
 11
11273.99981962013
 21
9545.674922770707
 31
0.0
  0
LINE
  5
2516A
330
239E6
100
AcDbEntity
  8
waku
  6
Continuous
370
     9
100
AcDbLine
 10
11273.99981962013
 20
9545.674922770707
 30
0.0
 11
11273.99981962013
 21
9569.67488132212
 31
0.0
  0
LINE
  5
2516B
330
239E6
100
AcDbEntity
  8
waku
  6
Continuous
370
     9
100
AcDbLine
 10
11273.99981962013
 20
9569.67488132212
 30
0.0
 11
11235.00221484164
 21
9569.67488132212
 31
0.0
  0
LINE
  5
2516C
330
239E6
100
AcDbEntity
  8
waku
  6
Continuous
370
     9
100
AcDbLine
 10
11235.00221484164
 20
9569.67488132212
 30
0.0
 11
11235.00221484164
 21
9587.674912868894
 31
0.0
  0
LINE
  5
2516D
330
239E6
100
AcDbEntity
  8
waku
  6
Continuous
370
     9
100
AcDbLine
 10
11235.00221484164
 20
9587.674912868894
 30
0.0
 11
11273.99981962013
 21
9587.674912868894
 31
0.0
  0
LINE
  5
2516E
330
239E6
100
AcDbEntity
  8
waku
  6
Continuous
370
     9
100
AcDbLine
 10
11273.99981962013
 20
9587.674912868894
 30
0.0
 11
11273.99981962013
 21
9605.674972252669
 31
0.0
  0
LINE
  5
2516F
330
239E6
100
AcDbEntity
  8
waku
  6
Continuous
370
     9
100
AcDbLine
 10
11273.99981962013
 20
9605.674972252669
 30
0.0
 11
11235.00221484164
 21
9605.674972252669
 31
0.0
  0
LINE
  5
25170
330
239E6
100
AcDbEntity
  8
waku
  6
Continuous
370
     9
100
AcDbLine
 10
11235.00221484164
 20
9605.674972252669
 30
0.0
 11
11235.00221484164
 21
9623.675031636418
 31
0.0
  0
LINE
  5
25171
330
239E6
100
AcDbEntity
  8
waku
  6
Continuous
370
     9
100
AcDbLine
 10
11235.00221484164
 20
9623.675031636418
 30
0.0
 11
11273.99981962013
 21
9623.675031636418
 31
0.0
  0
LINE
  5
25172
330
239E6
100
AcDbEntity
  8
waku
  6
Continuous
370
     9
100
AcDbLine
 10
11273.99981962013
 20
9623.675031636418
 30
0.0
 11
11273.99981962013
 21
9641.675035346212
 31
0.0
  0
LINE
  5
25173
330
239E6
100
AcDbEntity
  8
waku
  6
Continuous
370
     9
100
AcDbLine
 10
11273.99981962013
 20
9641.675035346212
 30
0.0
 11
11176.00117889929
 21
9641.675035346212
 31
0.0
  0
LINE
  5
25174
330
239E6
100
AcDbEntity
  8
waku
  6
Continuous
370
     9
100
AcDbLine
 10
11176.00117889929
 20
9641.675035346212
 30
0.0
 11
11176.00117889929
 21
9623.675031636418
 31
0.0
  0
LINE
  5
25175
330
239E6
100
AcDbEntity
  8
waku
  6
Continuous
370
     9
100
AcDbLine
 10
11304.0005124487
 20
9545.674922770707
 30
0.0
 11
11344.00203007562
 21
9583.674850184539
 31
0.0
  0
LINE
  5
25176
330
239E6
100
AcDbEntity
  8
waku
  6
Continuous
370
     9
100
AcDbLine
 10
11344.00203007562
 20
9583.674850184539
 30
0.0
 11
11344.00203007562
 21
9695.675157823531
 31
0.0
  0
LINE
  5
25177
330
239E6
100
AcDbEntity
  8
waku
  6
Continuous
370
     9
100
AcDbLine
 10
11344.00203007562
 20
9695.675157823531
 30
0.0
 11
11326.00107990861
 21
9695.675157823531
 31
0.0
  0
LINE
  5
25178
330
239E6
100
AcDbEntity
  8
waku
  6
Continuous
370
     9
100
AcDbLine
 10
11326.00107990861
 20
9695.675157823531
 30
0.0
 11
11326.00107990861
 21
9593.674728525655
 31
0.0
  0
LINE
  5
25179
330
239E6
100
AcDbEntity
  8
waku
  6
Continuous
370
     9
100
AcDbLine
 10
11326.00107990861
 20
9593.674728525655
 30
0.0
 11
11304.0005124487
 21
9569.67488132212
 31
0.0
  0
LINE
  5
2517A
330
239E6
100
AcDbEntity
  8
waku
  6
Continuous
370
     9
100
AcDbLine
 10
11304.0005124487
 20
9569.67488132212
 30
0.0
 11
11304.0005124487
 21
9545.674922770707
 31
0.0
  0
LINE
  5
2517B
330
239E6
100
AcDbEntity
  8
waku
  6
Continuous
370
     9
100
AcDbLine
 10
11391.00065100627
 20
9685.674889764738
 30
0.0
 11
11375.00218183551
 21
9685.674889764738
 31
0.0
  0
LINE
  5
2517C
330
239E6
100
AcDbEntity
  8
waku
  6
Continuous
370
     9
100
AcDbLine
 10
11375.00218183551
 20
9685.674889764738
 30
0.0
 11
11375.00218183551
 21
9565.675236192481
 31
0.0
  0
LINE
  5
2517D
330
239E6
100
AcDbEntity
  8
waku
  6
Continuous
370
     9
100
AcDbLine
 10
11375.00218183551
 20
9565.675236192481
 30
0.0
 11
11391.00065100627
 21
9565.675236192481
 31
0.0
  0
LINE
  5
2517E
330
239E6
100
AcDbEntity
  8
waku
  6
Continuous
370
     9
100
AcDbLine
 10
11391.00065100627
 20
9565.675236192481
 30
0.0
 11
11391.00065100627
 21
9685.674889764738
 31
0.0
  0
LINE
  5
2517F
330
239E6
100
AcDbEntity
  8
waku
  6
Continuous
370
     9
100
AcDbLine
 10
11440.00175293346
 20
9545.674922770707
 30
0.0
 11
11440.00175293346
 21
9695.675157823531
 31
0.0
  0
LINE
  5
25180
330
239E6
100
AcDbEntity
  8
waku
  6
Continuous
370
     9
100
AcDbLine
 10
11440.00175293346
 20
9695.675157823531
 30
0.0
 11
11422.0016935496
 21
9695.675157823531
 31
0.0
  0
LINE
  5
25181
330
239E6
100
AcDbEntity
  8
waku
  6
Continuous
370
     9
100
AcDbLine
 10
11422.0016935496
 20
9695.675157823531
 30
0.0
 11
11422.0016935496
 21
9545.674922770707
 31
0.0
  0
LINE
  5
25182
330
239E6
100
AcDbEntity
  8
waku
  6
Continuous
370
     9
100
AcDbLine
 10
11422.0016935496
 20
9545.674922770707
 30
0.0
 11
11440.00175293346
 21
9545.674922770707
 31
0.0
  0
LINE
  5
25183
330
239E6
100
AcDbEntity
  8
waku
  6
Continuous
370
     9
100
AcDbLine
 10
11503.09148450432
 20
9631.674711613438
 30
0.0
 11
11526.09062011235
 21
9631.674711613438
 31
0.0
  0
LINE
  5
25184
330
239E6
100
AcDbEntity
  8
waku
  6
Continuous
370
     9
100
AcDbLine
 10
11526.09062011235
 20
9631.674711613438
 30
0.0
 11
11526.09062011235
 21
9615.674906267713
 31
0.0
  0
LINE
  5
25185
330
239E6
100
AcDbEntity
  8
waku
  6
Continuous
370
     9
100
AcDbLine
 10
11526.09062011235
 20
9615.674906267713
 30
0.0
 11
11542.09265241642
 21
9615.674906267713
 31
0.0
  0
LINE
  5
25186
330
239E6
100
AcDbEntity
  8
waku
  6
Continuous
370
     9
100
AcDbLine
 10
11542.09265241642
 20
9615.674906267713
 30
0.0
 11
11542.09265241642
 21
9631.674711613438
 31
0.0
  0
LINE
  5
25187
330
239E6
100
AcDbEntity
  8
waku
  6
Continuous
370
     9
100
AcDbLine
 10
11542.09265241642
 20
9631.674711613438
 30
0.0
 11
11565.09178802421
 21
9631.674711613438
 31
0.0
  0
LINE
  5
25188
330
239E6
100
AcDbEntity
  8
waku
  6
Continuous
370
     9
100
AcDbLine
 10
11565.09178802421
 20
9631.674711613438
 30
0.0
 11
11565.09178802421
 21
9615.674906267713
 31
0.0
  0
LINE
  5
25189
330
239E6
100
AcDbEntity
  8
waku
  6
Continuous
370
     9
100
AcDbLine
 10
11565.09178802421
 20
9615.674906267713
 30
0.0
 11
11579.09223011542
 21
9615.674906267713
 31
0.0
  0
LINE
  5
2518A
330
239E6
100
AcDbEntity
  8
waku
  6
Continuous
370
     9
100
AcDbLine
 10
11579.09223011542
 20
9615.674906267713
 30
0.0
 11
11579.09223011542
 21
9643.674899666528
 31
0.0
  0
LINE
  5
2518B
330
239E6
100
AcDbEntity
  8
waku
  6
Continuous
370
     9
100
AcDbLine
 10
11579.09223011542
 20
9643.674899666528
 30
0.0
 11
11542.09265241642
 21
9643.674899666528
 31
0.0
  0
LINE
  5
2518C
330
239E6
100
AcDbEntity
  8
waku
  6
Continuous
370
     9
100
AcDbLine
 10
11542.09265241642
 20
9643.674899666528
 30
0.0
 11
11542.09265241642
 21
9653.67483368157
 31
0.0
  0
LINE
  5
2518D
330
239E6
100
AcDbEntity
  8
waku
  6
Continuous
370
     9
100
AcDbLine
 10
11542.09265241642
 20
9653.67483368157
 30
0.0
 11
11579.09223011542
 21
9653.67483368157
 31
0.0
  0
LINE
  5
2518E
330
239E6
100
AcDbEntity
  8
waku
  6
Continuous
370
     9
100
AcDbLine
 10
11579.09223011542
 20
9653.67483368157
 30
0.0
 11
11579.09223011542
 21
9665.675021734628
 31
0.0
  0
LINE
  5
2518F
330
239E6
100
AcDbEntity
  8
waku
  6
Continuous
370
     9
100
AcDbLine
 10
11579.09223011542
 20
9665.675021734628
 30
0.0
 11
11542.09265241642
 21
9665.675021734628
 31
0.0
  0
LINE
  5
25190
330
239E6
100
AcDbEntity
  8
waku
  6
Continuous
370
     9
100
AcDbLine
 10
11542.09265241642
 20
9665.675021734628
 30
0.0
 11
11542.09265241642
 21
9675.67495574967
 31
0.0
  0
LINE
  5
25191
330
239E6
100
AcDbEntity
  8
waku
  6
Continuous
370
     9
100
AcDbLine
 10
11542.09265241642
 20
9675.67495574967
 30
0.0
 11
11579.09223011542
 21
9675.67495574967
 31
0.0
  0
LINE
  5
25192
330
239E6
100
AcDbEntity
  8
waku
  6
Continuous
370
     9
100
AcDbLine
 10
11579.09223011542
 20
9675.67495574967
 30
0.0
 11
11579.09223011542
 21
9687.675088128777
 31
0.0
  0
LINE
  5
25193
330
239E6
100
AcDbEntity
  8
waku
  6
Continuous
370
     9
100
AcDbLine
 10
11579.09223011542
 20
9687.675088128777
 30
0.0
 11
11542.09265241642
 21
9687.675088128777
 31
0.0
  0
LINE
  5
25194
330
239E6
100
AcDbEntity
  8
waku
  6
Continuous
370
     9
100
AcDbLine
 10
11542.09265241642
 20
9687.675088128777
 30
0.0
 11
11542.09265241642
 21
9695.675157823531
 31
0.0
  0
LINE
  5
25195
330
239E6
100
AcDbEntity
  8
waku
  6
Continuous
370
     9
100
AcDbLine
 10
11542.09265241642
 20
9695.675157823531
 30
0.0
 11
11526.09062011235
 21
9695.675157823531
 31
0.0
  0
LINE
  5
25196
330
239E6
100
AcDbEntity
  8
waku
  6
Continuous
370
     9
100
AcDbLine
 10
11526.09062011235
 20
9695.675157823531
 30
0.0
 11
11526.09062011235
 21
9687.675088128777
 31
0.0
  0
LINE
  5
25197
330
239E6
100
AcDbEntity
  8
waku
  6
Continuous
370
     9
100
AcDbLine
 10
11526.09062011235
 20
9687.675088128777
 30
0.0
 11
11501.09256664143
 21
9687.675088128777
 31
0.0
  0
LINE
  5
25198
330
239E6
100
AcDbEntity
  8
waku
  6
Continuous
370
     9
100
AcDbLine
 10
11501.09256664143
 20
9687.675088128777
 30
0.0
 11
11501.09256664143
 21
9695.675157823531
 31
0.0
  0
LINE
  5
25199
330
239E6
100
AcDbEntity
  8
waku
  6
Continuous
370
     9
100
AcDbLine
 10
11501.09256664143
 20
9695.675157823531
 30
0.0
 11
11489.09104241336
 21
9695.675157823531
 31
0.0
  0
LINE
  5
2519A
330
239E6
100
AcDbEntity
  8
waku
  6
Continuous
370
     9
100
AcDbLine
 10
11489.09104241336
 20
9695.675157823531
 30
0.0
 11
11489.09104241336
 21
9675.67495574967
 31
0.0
  0
LINE
  5
2519B
330
239E6
100
AcDbEntity
  8
waku
  6
Continuous
370
     9
100
AcDbLine
 10
11489.09104241336
 20
9675.67495574967
 30
0.0
 11
11526.09062011235
 21
9675.67495574967
 31
0.0
  0
LINE
  5
2519C
330
239E6
100
AcDbEntity
  8
waku
  6
Continuous
370
     9
100
AcDbLine
 10
11526.09062011235
 20
9675.67495574967
 30
0.0
 11
11526.09062011235
 21
9665.675021734628
 31
0.0
  0
LINE
  5
2519D
330
239E6
100
AcDbEntity
  8
waku
  6
Continuous
370
     9
100
AcDbLine
 10
11526.09062011235
 20
9665.675021734628
 30
0.0
 11
11489.09104241336
 21
9665.675021734628
 31
0.0
  0
LINE
  5
2519E
330
239E6
100
AcDbEntity
  8
waku
  6
Continuous
370
     9
100
AcDbLine
 10
11489.09104241336
 20
9665.675021734628
 30
0.0
 11
11489.09104241336
 21
9653.67483368157
 31
0.0
  0
LINE
  5
2519F
330
239E6
100
AcDbEntity
  8
waku
  6
Continuous
370
     9
100
AcDbLine
 10
11489.09104241336
 20
9653.67483368157
 30
0.0
 11
11526.09062011235
 21
9653.67483368157
 31
0.0
  0
LINE
  5
251A0
330
239E6
100
AcDbEntity
  8
waku
  6
Continuous
370
     9
100
AcDbLine
 10
11526.09062011235
 20
9653.67483368157
 30
0.0
 11
11526.09062011235
 21
9643.674899666528
 31
0.0
  0
LINE
  5
251A1
330
239E6
100
AcDbEntity
  8
waku
  6
Continuous
370
     9
100
AcDbLine
 10
11526.09062011235
 20
9643.674899666528
 30
0.0
 11
11489.09104241336
 21
9643.674899666528
 31
0.0
  0
LINE
  5
251A2
330
239E6
100
AcDbEntity
  8
waku
  6
Continuous
370
     9
100
AcDbLine
 10
11489.09104241336
 20
9643.674899666528
 30
0.0
 11
11489.09104241336
 21
9615.674906267713
 31
0.0
  0
LINE
  5
251A3
330
239E6
100
AcDbEntity
  8
waku
  6
Continuous
370
     9
100
AcDbLine
 10
11489.09104241336
 20
9615.674906267713
 30
0.0
 11
11503.09148450432
 21
9615.674906267713
 31
0.0
  0
LINE
  5
251A4
330
239E6
100
AcDbEntity
  8
waku
  6
Continuous
370
     9
100
AcDbLine
 10
11503.09148450432
 20
9615.674906267713
 30
0.0
 11
11503.09148450432
 21
9631.674711613438
 31
0.0
  0
LINE
  5
251A5
330
239E6
100
AcDbEntity
  8
waku
  6
Continuous
370
     9
100
AcDbLine
 10
11589.09127334707
 20
9695.675157823531
 30
0.0
 11
11589.09127334707
 21
9645.675153704521
 31
0.0
  0
LINE
  5
251A6
330
239E6
100
AcDbEntity
  8
waku
  6
Continuous
370
     9
100
AcDbLine
 10
11589.09127334707
 20
9645.675153704521
 30
0.0
 11
11605.09152408448
 21
9645.675153704521
 31
0.0
  0
LINE
  5
251A7
330
239E6
100
AcDbEntity
  8
waku
  6
Continuous
370
     9
100
AcDbLine
 10
11605.09152408448
 20
9645.675153704521
 30
0.0
 11
11605.09152408448
 21
9695.675157823531
 31
0.0
  0
LINE
  5
251A8
330
239E6
100
AcDbEntity
  8
waku
  6
Continuous
370
     9
100
AcDbLine
 10
11605.09152408448
 20
9695.675157823531
 30
0.0
 11
11589.09127334707
 21
9695.675157823531
 31
0.0
  0
LINE
  5
251A9
330
239E6
100
AcDbEntity
  8
waku
  6
Continuous
370
     9
100
AcDbLine
 10
11639.09094342232
 20
9695.675157823531
 30
0.0
 11
11639.09094342232
 21
9635.675219689481
 31
0.0
  0
LINE
  5
251AA
330
239E6
100
AcDbEntity
  8
waku
  6
Continuous
370
     9
100
AcDbLine
 10
11639.09094342232
 20
9635.675219689481
 30
0.0
 11
11619.0937477424
 21
9615.674906267713
 31
0.0
  0
LINE
  5
251AB
330
239E6
100
AcDbEntity
  8
waku
  6
Continuous
370
     9
100
AcDbLine
 10
11619.0937477424
 20
9615.674906267713
 30
0.0
 11
11589.09127334707
 21
9615.674906267713
 31
0.0
  0
LINE
  5
251AC
330
239E6
100
AcDbEntity
  8
waku
  6
Continuous
370
     9
100
AcDbLine
 10
11589.09127334707
 20
9615.674906267713
 30
0.0
 11
11589.09127334707
 21
9631.674711613438
 31
0.0
  0
LINE
  5
251AD
330
239E6
100
AcDbEntity
  8
waku
  6
Continuous
370
     9
100
AcDbLine
 10
11589.09127334707
 20
9631.674711613438
 30
0.0
 11
11615.09323966623
 21
9631.674711613438
 31
0.0
  0
LINE
  5
251AE
330
239E6
100
AcDbEntity
  8
waku
  6
Continuous
370
     9
100
AcDbLine
 10
11615.09323966623
 20
9631.674711613438
 30
0.0
 11
11625.09317368139
 21
9641.675035346212
 31
0.0
  0
LINE
  5
251AF
330
239E6
100
AcDbEntity
  8
waku
  6
Continuous
370
     9
100
AcDbLine
 10
11625.09317368139
 20
9641.675035346212
 30
0.0
 11
11625.09317368139
 21
9695.675157823531
 31
0.0
  0
LINE
  5
251B0
330
239E6
100
AcDbEntity
  8
waku
  6
Continuous
370
     9
100
AcDbLine
 10
11625.09317368139
 20
9695.675157823531
 30
0.0
 11
11639.09094342232
 21
9695.675157823531
 31
0.0
  0
LINE
  5
251B1
330
239E6
100
AcDbEntity
  8
waku
  6
Continuous
370
     9
100
AcDbLine
 10
11718.18270729754
 20
9675.67495574967
 30
0.0
 11
11688.18290525224
 21
9645.675153704521
 31
0.0
  0
LINE
  5
251B2
330
239E6
100
AcDbEntity
  8
waku
  6
Continuous
370
     9
100
AcDbLine
 10
11688.18290525224
 20
9645.675153704521
 30
0.0
 11
11688.18290525224
 21
9665.675021734628
 31
0.0
  0
LINE
  5
251B3
330
239E6
100
AcDbEntity
  8
waku
  6
Continuous
370
     9
100
AcDbLine
 10
11688.18290525224
 20
9665.675021734628
 30
0.0
 11
11718.18270729754
 21
9695.675157823531
 31
0.0
  0
LINE
  5
251B4
330
239E6
100
AcDbEntity
  8
waku
  6
Continuous
370
     9
100
AcDbLine
 10
11718.18270729754
 20
9695.675157823531
 30
0.0
 11
11748.18161855915
 21
9675.67495574967
 31
0.0
  0
LINE
  5
251B5
330
239E6
100
AcDbEntity
  8
waku
  6
Continuous
370
     9
100
AcDbLine
 10
11748.18161855915
 20
9675.67495574967
 30
0.0
 11
11748.18161855915
 21
9655.675087719588
 31
0.0
  0
LINE
  5
251B6
330
239E6
100
AcDbEntity
  8
waku
  6
Continuous
370
     9
100
AcDbLine
 10
11748.18161855915
 20
9655.675087719588
 30
0.0
 11
11718.18270729754
 21
9675.67495574967
 31
0.0
  0
LINE
  5
251B7
330
239E6
100
AcDbEntity
  8
waku
  6
Continuous
370
     9
100
AcDbLine
 10
11711.18293164353
 20
9622.675071639312
 30
0.0
 11
11688.18290525224
 21
9622.675071639312
 31
0.0
  0
LINE
  5
251B8
330
239E6
100
AcDbEntity
  8
waku
  6
Continuous
370
     9
100
AcDbLine
 10
11688.18290525224
 20
9622.675071639312
 30
0.0
 11
11688.18290525224
 21
9635.675219689481
 31
0.0
  0
LINE
  5
251B9
330
239E6
100
AcDbEntity
  8
waku
  6
Continuous
370
     9
100
AcDbLine
 10
11688.18290525224
 20
9635.675219689481
 30
0.0
 11
11748.18161855915
 21
9635.675219689481
 31
0.0
  0
LINE
  5
251BA
330
239E6
100
AcDbEntity
  8
waku
  6
Continuous
370
     9
100
AcDbLine
 10
11748.18161855915
 20
9635.675219689481
 30
0.0
 11
11748.18161855915
 21
9622.675071639312
 31
0.0
  0
LINE
  5
251BB
330
239E6
100
AcDbEntity
  8
waku
  6
Continuous
370
     9
100
AcDbLine
 10
11748.18161855915
 20
9622.675071639312
 30
0.0
 11
11725.18782765148
 21
9622.675071639312
 31
0.0
  0
LINE
  5
251BC
330
239E6
100
AcDbEntity
  8
waku
  6
Continuous
370
     9
100
AcDbLine
 10
11725.18782765148
 20
9622.675071639312
 30
0.0
 11
11725.18782765148
 21
9608.675130613846
 31
0.0
  0
LINE
  5
251BD
330
239E6
100
AcDbEntity
  8
waku
  6
Continuous
370
     9
100
AcDbLine
 10
11725.18782765148
 20
9608.675130613846
 30
0.0
 11
11748.18161855915
 21
9608.675130613846
 31
0.0
  0
LINE
  5
251BE
330
239E6
100
AcDbEntity
  8
waku
  6
Continuous
370
     9
100
AcDbLine
 10
11748.18161855915
 20
9608.675130613846
 30
0.0
 11
11748.18161855915
 21
9595.675038237628
 31
0.0
  0
LINE
  5
251BF
330
239E6
100
AcDbEntity
  8
waku
  6
Continuous
370
     9
100
AcDbLine
 10
11748.18161855915
 20
9595.675038237628
 30
0.0
 11
11725.18782765148
 21
9595.675038237628
 31
0.0
  0
LINE
  5
251C0
330
239E6
100
AcDbEntity
  8
waku
  6
Continuous
370
     9
100
AcDbLine
 10
11725.18782765148
 20
9595.675038237628
 30
0.0
 11
11725.18782765148
 21
9575.674836163768
 31
0.0
  0
LINE
  5
251C1
330
239E6
100
AcDbEntity
  8
waku
  6
Continuous
370
     9
100
AcDbLine
 10
11725.18782765148
 20
9575.674836163768
 30
0.0
 11
11736.18365746449
 21
9575.674836163768
 31
0.0
  0
LINE
  5
251C2
330
239E6
100
AcDbEntity
  8
waku
  6
Continuous
370
     9
100
AcDbLine
 10
11736.18365746449
 20
9575.674836163768
 30
0.0
 11
11736.18365746449
 21
9588.674817192076
 31
0.0
  0
LINE
  5
251C3
330
239E6
100
AcDbEntity
  8
waku
  6
Continuous
370
     9
100
AcDbLine
 10
11736.18365746449
 20
9588.674817192076
 30
0.0
 11
11748.18161855915
 21
9588.674817192076
 31
0.0
  0
LINE
  5
251C4
330
239E6
100
AcDbEntity
  8
waku
  6
Continuous
370
     9
100
AcDbLine
 10
11748.18161855915
 20
9588.674817192076
 30
0.0
 11
11748.18161855915
 21
9565.675236192481
 31
0.0
  0
LINE
  5
251C5
330
239E6
100
AcDbEntity
  8
waku
  6
Continuous
370
     9
100
AcDbLine
 10
11748.18161855915
 20
9565.675236192481
 30
0.0
 11
11728.18442287928
 21
9545.674922770707
 31
0.0
  0
LINE
  5
251C6
330
239E6
100
AcDbEntity
  8
waku
  6
Continuous
370
     9
100
AcDbLine
 10
11728.18442287928
 20
9545.674922770707
 30
0.0
 11
11688.18290525224
 21
9545.674922770707
 31
0.0
  0
LINE
  5
251C7
330
239E6
100
AcDbEntity
  8
waku
  6
Continuous
370
     9
100
AcDbLine
 10
11688.18290525224
 20
9545.674922770707
 30
0.0
 11
11688.18290525224
 21
9575.674836163768
 31
0.0
  0
LINE
  5
251C8
330
239E6
100
AcDbEntity
  8
waku
  6
Continuous
370
     9
100
AcDbLine
 10
11688.18290525224
 20
9575.674836163768
 30
0.0
 11
11711.18293164353
 21
9575.674836163768
 31
0.0
  0
LINE
  5
251C9
330
239E6
100
AcDbEntity
  8
waku
  6
Continuous
370
     9
100
AcDbLine
 10
11711.18293164353
 20
9575.674836163768
 30
0.0
 11
11711.18293164353
 21
9595.675038237628
 31
0.0
  0
LINE
  5
251CA
330
239E6
100
AcDbEntity
  8
waku
  6
Continuous
370
     9
100
AcDbLine
 10
11711.18293164353
 20
9595.675038237628
 30
0.0
 11
11688.18290525224
 21
9595.675038237628
 31
0.0
  0
LINE
  5
251CB
330
239E6
100
AcDbEntity
  8
waku
  6
Continuous
370
     9
100
AcDbLine
 10
11688.18290525224
 20
9595.675038237628
 30
0.0
 11
11688.18290525224
 21
9608.675130613846
 31
0.0
  0
LINE
  5
251CC
330
239E6
100
AcDbEntity
  8
waku
  6
Continuous
370
     9
100
AcDbLine
 10
11688.18290525224
 20
9608.675130613846
 30
0.0
 11
11711.18293164353
 21
9608.675130613846
 31
0.0
  0
LINE
  5
251CD
330
239E6
100
AcDbEntity
  8
waku
  6
Continuous
370
     9
100
AcDbLine
 10
11711.18293164353
 20
9608.675130613846
 30
0.0
 11
11711.18293164353
 21
9622.675071639312
 31
0.0
  0
LINE
  5
251CE
330
239E6
100
AcDbEntity
  8
waku
  6
Continuous
370
     9
100
AcDbLine
 10
11688.18290525224
 20
9581.675041538209
 30
0.0
 11
11688.18290525224
 21
9588.674817192076
 31
0.0
  0
LINE
  5
251CF
330
239E6
100
AcDbEntity
  8
waku
  6
Continuous
370
     9
100
AcDbLine
 10
11688.18290525224
 20
9588.674817192076
 30
0.0
 11
11698.1819484839
 21
9588.674817192076
 31
0.0
  0
LINE
  5
251D0
330
239E6
100
AcDbEntity
  8
waku
  6
Continuous
370
     9
100
AcDbLine
 10
11698.1819484839
 20
9588.674817192076
 30
0.0
 11
11698.1819484839
 21
9581.675041538209
 31
0.0
  0
LINE
  5
251D1
330
239E6
100
AcDbEntity
  8
waku
  6
Continuous
370
     9
100
AcDbLine
 10
11698.1819484839
 20
9581.675041538209
 30
0.0
 11
11688.18290525224
 21
9581.675041538209
 31
0.0
  0
LINE
  5
251D2
330
239E6
100
AcDbEntity
  8
waku
  6
Continuous
370
     9
100
AcDbLine
 10
11818.68088613029
 20
9575.674836163768
 30
0.0
 11
11827.18163174802
 21
9575.674836163768
 31
0.0
  0
LINE
  5
251D3
330
239E6
100
AcDbEntity
  8
waku
  6
Continuous
370
     9
100
AcDbLine
 10
11827.18163174802
 20
9575.674836163768
 30
0.0
 11
11827.18163174802
 21
9679.675018434025
 31
0.0
  0
LINE
  5
251D4
330
239E6
100
AcDbEntity
  8
waku
  6
Continuous
370
     9
100
AcDbLine
 10
11827.18163174802
 20
9679.675018434025
 30
0.0
 11
11766.18256872628
 21
9679.675018434025
 31
0.0
  0
LINE
  5
251D5
330
239E6
100
AcDbEntity
  8
waku
  6
Continuous
370
     9
100
AcDbLine
 10
11766.18256872628
 20
9679.675018434025
 30
0.0
 11
11766.18256872628
 21
9545.674922770707
 31
0.0
  0
LINE
  5
251D6
330
239E6
100
AcDbEntity
  8
waku
  6
Continuous
370
     9
100
AcDbLine
 10
11766.18256872628
 20
9545.674922770707
 30
0.0
 11
11756.18174392786
 21
9545.674922770707
 31
0.0
  0
LINE
  5
251D7
330
239E6
100
AcDbEntity
  8
waku
  6
Continuous
370
     9
100
AcDbLine
 10
11756.18174392786
 20
9545.674922770707
 30
0.0
 11
11756.18174392786
 21
9695.675157823531
 31
0.0
  0
LINE
  5
251D8
330
239E6
100
AcDbEntity
  8
waku
  6
Continuous
370
     9
100
AcDbLine
 10
11756.18174392786
 20
9695.675157823531
 30
0.0
 11
11837.18245654649
 21
9695.675157823531
 31
0.0
  0
LINE
  5
251D9
330
239E6
100
AcDbEntity
  8
waku
  6
Continuous
370
     9
100
AcDbLine
 10
11837.18245654649
 20
9695.675157823531
 30
0.0
 11
11837.18245654649
 21
9555.674884622728
 31
0.0
  0
LINE
  5
251DA
330
239E6
100
AcDbEntity
  8
waku
  6
Continuous
370
     9
100
AcDbLine
 10
11837.18245654649
 20
9555.674884622728
 30
0.0
 11
11827.18163174802
 21
9545.674922770707
 31
0.0
  0
LINE
  5
251DB
330
239E6
100
AcDbEntity
  8
waku
  6
Continuous
370
     9
100
AcDbLine
 10
11827.18163174802
 20
9545.674922770707
 30
0.0
 11
11818.68088613029
 21
9545.674922770707
 31
0.0
  0
LINE
  5
251DC
330
239E6
100
AcDbEntity
  8
waku
  6
Continuous
370
     9
100
AcDbLine
 10
11818.68088613029
 20
9545.674922770707
 30
0.0
 11
11818.68088613029
 21
9575.674836163768
 31
0.0
  0
LINE
  5
251DD
330
239E6
100
AcDbEntity
  8
waku
  6
Continuous
370
     9
100
AcDbLine
 10
11903.3649879483
 20
9695.675157823531
 30
0.0
 11
11903.3649879483
 21
9679.675018434025
 31
0.0
  0
LINE
  5
251DE
330
239E6
100
AcDbEntity
  8
waku
  6
Continuous
370
     9
100
AcDbLine
 10
11903.3649879483
 20
9679.675018434025
 30
0.0
 11
11963.36548282198
 21
9679.675018434025
 31
0.0
  0
LINE
  5
251DF
330
239E6
100
AcDbEntity
  8
waku
  6
Continuous
370
     9
100
AcDbLine
 10
11963.36548282198
 20
9679.675018434025
 30
0.0
 11
11963.36548282198
 21
9695.675157823531
 31
0.0
  0
LINE
  5
251E0
330
239E6
100
AcDbEntity
  8
waku
  6
Continuous
370
     9
100
AcDbLine
 10
11963.36548282198
 20
9695.675157823531
 30
0.0
 11
11903.3649879483
 21
9695.675157823531
 31
0.0
  0
LINE
  5
251E1
330
239E6
100
AcDbEntity
  8
waku
  6
Continuous
370
     9
100
AcDbLine
 10
11947.36701365122
 20
9633.674965651458
 30
0.0
 11
11947.36701365122
 21
9647.675407742539
 31
0.0
  0
LINE
  5
251E2
330
239E6
100
AcDbEntity
  8
waku
  6
Continuous
370
     9
100
AcDbLine
 10
11947.36701365122
 20
9647.675407742539
 30
0.0
 11
11921.36504733199
 21
9647.675407742539
 31
0.0
  0
LINE
  5
251E3
330
239E6
100
AcDbEntity
  8
waku
  6
Continuous
370
     9
100
AcDbLine
 10
11921.36504733199
 20
9647.675407742539
 30
0.0
 11
11921.36504733199
 21
9633.674965651458
 31
0.0
  0
LINE
  5
251E4
330
239E6
100
AcDbEntity
  8
waku
  6
Continuous
370
     9
100
AcDbLine
 10
11921.36504733199
 20
9633.674965651458
 30
0.0
 11
11947.36701365122
 21
9633.674965651458
 31
0.0
  0
LINE
  5
251E5
330
239E6
100
AcDbEntity
  8
waku
  6
Continuous
370
     9
100
AcDbLine
 10
11921.36504733199
 20
9587.674912868894
 30
0.0
 11
11921.36504733199
 21
9615.674906267713
 31
0.0
  0
LINE
  5
251E6
330
239E6
100
AcDbEntity
  8
waku
  6
Continuous
370
     9
100
AcDbLine
 10
11921.36504733199
 20
9615.674906267713
 30
0.0
 11
11963.36548282198
 21
9615.674906267713
 31
0.0
  0
LINE
  5
251E7
330
239E6
100
AcDbEntity
  8
waku
  6
Continuous
370
     9
100
AcDbLine
 10
11963.36548282198
 20
9615.674906267713
 30
0.0
 11
11963.36548282198
 21
9665.675021734628
 31
0.0
  0
LINE
  5
251E8
330
239E6
100
AcDbEntity
  8
waku
  6
Continuous
370
     9
100
AcDbLine
 10
11963.36548282198
 20
9665.675021734628
 30
0.0
 11
11903.3649879483
 21
9665.675021734628
 31
0.0
  0
LINE
  5
251E9
330
239E6
100
AcDbEntity
  8
waku
  6
Continuous
370
     9
100
AcDbLine
 10
11903.3649879483
 20
9665.675021734628
 30
0.0
 11
11903.3649879483
 21
9597.674846883959
 31
0.0
  0
LINE
  5
251EA
330
239E6
100
AcDbEntity
  8
waku
  6
Continuous
370
     9
100
AcDbLine
 10
11903.3649879483
 20
9597.674846883959
 30
0.0
 11
11885.36581934794
 21
9569.67488132212
 31
0.0
  0
LINE
  5
251EB
330
239E6
100
AcDbEntity
  8
waku
  6
Continuous
370
     9
100
AcDbLine
 10
11885.36581934794
 20
9569.67488132212
 30
0.0
 11
11885.36581934794
 21
9545.674922770707
 31
0.0
  0
LINE
  5
251EC
330
239E6
100
AcDbEntity
  8
waku
  6
Continuous
370
     9
100
AcDbLine
 10
11885.36581934794
 20
9545.674922770707
 30
0.0
 11
11921.36504733199
 21
9587.674912868894
 31
0.0
  0
LINE
  5
251ED
330
239E6
100
AcDbEntity
  8
waku
  6
Continuous
370
     9
100
AcDbLine
 10
12007.36572695824
 20
9641.675035346212
 30
0.0
 11
12007.36572695824
 21
9545.674922770707
 31
0.0
  0
LINE
  5
251EE
330
239E6
100
AcDbEntity
  8
waku
  6
Continuous
370
     9
100
AcDbLine
 10
12007.36572695824
 20
9545.674922770707
 30
0.0
 11
12023.36508691215
 21
9545.674922770707
 31
0.0
  0
LINE
  5
251EF
330
239E6
100
AcDbEntity
  8
waku
  6
Continuous
370
     9
100
AcDbLine
 10
12023.36508691215
 20
9545.674922770707
 30
0.0
 11
12023.36508691215
 21
9641.675035346212
 31
0.0
  0
LINE
  5
251F0
330
239E6
100
AcDbEntity
  8
waku
  6
Continuous
370
     9
100
AcDbLine
 10
12023.36508691215
 20
9641.675035346212
 30
0.0
 11
12035.36572035684
 21
9641.675035346212
 31
0.0
  0
LINE
  5
251F1
330
239E6
100
AcDbEntity
  8
waku
  6
Continuous
370
     9
100
AcDbLine
 10
12035.36572035684
 20
9641.675035346212
 30
0.0
 11
12035.36572035684
 21
9657.67517473572
 31
0.0
  0
LINE
  5
251F2
330
239E6
100
AcDbEntity
  8
waku
  6
Continuous
370
     9
100
AcDbLine
 10
12035.36572035684
 20
9657.67517473572
 30
0.0
 11
11993.36528486698
 21
9657.67517473572
 31
0.0
  0
LINE
  5
251F3
330
239E6
100
AcDbEntity
  8
waku
  6
Continuous
370
     9
100
AcDbLine
 10
11993.36528486698
 20
9657.67517473572
 30
0.0
 11
11993.36528486698
 21
9667.67510875076
 31
0.0
  0
LINE
  5
251F4
330
239E6
100
AcDbEntity
  8
waku
  6
Continuous
370
     9
100
AcDbLine
 10
11993.36528486698
 20
9667.67510875076
 30
0.0
 11
12025.36400477516
 21
9667.67510875076
 31
0.0
  0
LINE
  5
251F5
330
239E6
100
AcDbEntity
  8
waku
  6
Continuous
370
     9
100
AcDbLine
 10
12025.36400477516
 20
9667.67510875076
 30
0.0
 11
12035.36572035684
 21
9677.674764396002
 31
0.0
  0
LINE
  5
251F6
330
239E6
100
AcDbEntity
  8
waku
  6
Continuous
370
     9
100
AcDbLine
 10
12035.36572035684
 20
9677.674764396002
 30
0.0
 11
12035.36572035684
 21
9695.675157823531
 31
0.0
  0
LINE
  5
251F7
330
239E6
100
AcDbEntity
  8
waku
  6
Continuous
370
     9
100
AcDbLine
 10
12035.36572035684
 20
9695.675157823531
 30
0.0
 11
12019.36636040293
 21
9695.675157823531
 31
0.0
  0
LINE
  5
251F8
330
239E6
100
AcDbEntity
  8
waku
  6
Continuous
370
     9
100
AcDbLine
 10
12019.36636040293
 20
9695.675157823531
 30
0.0
 11
12019.36636040293
 21
9689.674952449092
 31
0.0
  0
LINE
  5
251F9
330
239E6
100
AcDbEntity
  8
waku
  6
Continuous
370
     9
100
AcDbLine
 10
12019.36636040293
 20
9689.674952449092
 30
0.0
 11
12015.36941546024
 21
9685.674889764738
 31
0.0
  0
LINE
  5
251FA
330
239E6
100
AcDbEntity
  8
waku
  6
Continuous
370
     9
100
AcDbLine
 10
12015.36941546024
 20
9685.674889764738
 30
0.0
 11
11975.36433469991
 21
9685.674889764738
 31
0.0
  0
LINE
  5
251FB
330
239E6
100
AcDbEntity
  8
waku
  6
Continuous
370
     9
100
AcDbLine
 10
11975.36433469991
 20
9685.674889764738
 30
0.0
 11
11975.36433469991
 21
9597.674846883959
 31
0.0
  0
LINE
  5
251FC
330
239E6
100
AcDbEntity
  8
waku
  6
Continuous
370
     9
100
AcDbLine
 10
11975.36433469991
 20
9597.674846883959
 30
0.0
 11
11947.36701365122
 21
9570.674924830212
 31
0.0
  0
LINE
  5
251FD
330
239E6
100
AcDbEntity
  8
waku
  6
Continuous
370
     9
100
AcDbLine
 10
11947.36701365122
 20
9570.674924830212
 30
0.0
 11
11947.36701365122
 21
9545.674922770707
 31
0.0
  0
LINE
  5
251FE
330
239E6
100
AcDbEntity
  8
waku
  6
Continuous
370
     9
100
AcDbLine
 10
11947.36701365122
 20
9545.674922770707
 30
0.0
 11
11993.36528486698
 21
9587.674912868894
 31
0.0
  0
LINE
  5
251FF
330
239E6
100
AcDbEntity
  8
waku
  6
Continuous
370
     9
100
AcDbLine
 10
11993.36528486698
 20
9587.674912868894
 30
0.0
 11
11993.36528486698
 21
9641.675035346212
 31
0.0
  0
LINE
  5
25200
330
239E6
100
AcDbEntity
  8
waku
  6
Continuous
370
     9
100
AcDbLine
 10
11993.36528486698
 20
9641.675035346212
 30
0.0
 11
12007.36572695824
 21
9641.675035346212
 31
0.0
  0
LINE
  5
25201
330
239E6
100
AcDbEntity
  8
waku
  6
Continuous
370
     9
100
AcDbLine
 10
11529.09256004028
 20
9579.238776881778
 30
0.0
 11
11529.09256004028
 21
9595.675038237628
 31
0.0
  0
LINE
  5
25202
330
239E6
100
AcDbEntity
  8
waku
  6
Continuous
370
     9
100
AcDbLine
 10
11529.09256004028
 20
9595.675038237628
 30
0.0
 11
11512.92751438099
 21
9595.675038237628
 31
0.0
  0
LINE
  5
25203
330
239E6
100
AcDbEntity
  8
waku
  6
Continuous
370
     9
100
AcDbLine
 10
11512.92751438099
 20
9595.675038237628
 30
0.0
 11
11489.09104241336
 21
9575.674836163768
 31
0.0
  0
LINE
  5
25204
330
239E6
100
AcDbEntity
  8
waku
  6
Continuous
370
     9
100
AcDbLine
 10
11489.09104241336
 20
9575.674836163768
 30
0.0
 11
11489.09104241336
 21
9545.674922770707
 31
0.0
  0
LINE
  5
25205
330
239E6
100
AcDbEntity
  8
waku
  6
Continuous
370
     9
100
AcDbLine
 10
11489.09104241336
 20
9545.674922770707
 30
0.0
 11
11529.09256004028
 21
9579.238776881778
 31
0.0
  0
LINE
  5
25206
330
239E6
100
AcDbEntity
  8
waku
  6
Continuous
370
     9
100
AcDbLine
 10
11569.09229610043
 20
9559.072304526123
 30
0.0
 11
11519.09262602524
 21
9545.674922770707
 31
0.0
  0
LINE
  5
25207
330
239E6
100
AcDbEntity
  8
waku
  6
Continuous
370
     9
100
AcDbLine
 10
11519.09262602524
 20
9545.674922770707
 30
0.0
 11
11519.09262602524
 21
9570.848015172108
 31
0.0
  0
LINE
  5
25208
330
239E6
100
AcDbEntity
  8
waku
  6
Continuous
370
     9
100
AcDbLine
 10
11519.09262602524
 20
9570.848015172108
 30
0.0
 11
11527.54437855804
 21
9577.939541512202
 31
0.0
  0
LINE
  5
25209
330
239E6
100
AcDbEntity
  8
waku
  6
Continuous
370
     9
100
AcDbLine
 10
11527.54437855804
 20
9577.939541512202
 30
0.0
 11
11569.09229610043
 21
9589.072551962933
 31
0.0
  0
LINE
  5
2520A
330
239E6
100
AcDbEntity
  8
waku
  6
Continuous
370
     9
100
AcDbLine
 10
11569.09229610043
 20
9589.072551962933
 30
0.0
 11
11569.09229610043
 21
9559.072304526123
 31
0.0
  0
LINE
  5
2520B
330
239E6
100
AcDbEntity
  8
waku
  6
Continuous
370
     9
100
AcDbLine
 10
11639.09094342232
 20
9545.674922770707
 30
0.0
 11
11564.09411065965
 21
9595.675038237628
 31
0.0
  0
LINE
  5
2520C
330
239E6
100
AcDbEntity
  8
waku
  6
Continuous
370
     9
100
AcDbLine
 10
11564.09411065965
 20
9595.675038237628
 30
0.0
 11
11589.09127334707
 21
9595.675038237628
 31
0.0
  0
LINE
  5
2520D
330
239E6
100
AcDbEntity
  8
waku
  6
Continuous
370
     9
100
AcDbLine
 10
11589.09127334707
 20
9595.675038237628
 30
0.0
 11
11609.09203216047
 21
9582.755506081644
 31
0.0
  0
LINE
  5
2520E
330
239E6
100
AcDbEntity
  8
waku
  6
Continuous
370
     9
100
AcDbLine
 10
11609.09203216047
 20
9582.755506081644
 30
0.0
 11
11609.09203216047
 21
9588.674817192076
 31
0.0
  0
LINE
  5
2520F
330
239E6
100
AcDbEntity
  8
waku
  6
Continuous
370
     9
100
AcDbLine
 10
11609.09203216047
 20
9588.674817192076
 30
0.0
 11
11629.09100940723
 21
9588.674817192076
 31
0.0
  0
LINE
  5
25210
330
239E6
100
AcDbEntity
  8
waku
  6
Continuous
370
     9
100
AcDbLine
 10
11629.09100940723
 20
9588.674817192076
 30
0.0
 11
11629.09100940723
 21
9576.691999414547
 31
0.0
  0
LINE
  5
25211
330
239E6
100
AcDbEntity
  8
waku
  6
Continuous
370
     9
100
AcDbLine
 10
11629.09100940723
 20
9576.691999414547
 30
0.0
 11
11639.09094342232
 21
9575.674836163768
 31
0.0
  0
LINE
  5
25212
330
239E6
100
AcDbEntity
  8
waku
  6
Continuous
370
     9
100
AcDbLine
 10
11639.09094342232
 20
9575.674836163768
 30
0.0
 11
11639.09094342232
 21
9545.674922770707
 31
0.0
  0
LINE
  5
25213
330
239E6
100
AcDbEntity
  8
waku
  6
Continuous
370
     9
100
AcDbLine
 10
11639.09094342232
 20
9605.674972252669
 30
0.0
 11
11572.09156367827
 21
9605.674972252669
 31
0.0
  0
LINE
  5
25214
330
239E6
100
AcDbEntity
  8
waku
  6
Continuous
370
     9
100
AcDbLine
 10
11572.09156367827
 20
9605.674972252669
 30
0.0
 11
11572.09156367827
 21
9615.674906267713
 31
0.0
  0
LINE
  5
25215
330
239E6
100
AcDbEntity
  8
waku
  6
Continuous
370
     9
100
AcDbLine
 10
11572.09156367827
 20
9615.674906267713
 30
0.0
 11
11556.09309450744
 21
9615.674906267713
 31
0.0
  0
LINE
  5
25216
330
239E6
100
AcDbEntity
  8
waku
  6
Continuous
370
     9
100
AcDbLine
 10
11556.09309450744
 20
9615.674906267713
 30
0.0
 11
11556.09309450744
 21
9605.674972252669
 31
0.0
  0
LINE
  5
25217
330
239E6
100
AcDbEntity
  8
waku
  6
Continuous
370
     9
100
AcDbLine
 10
11556.09309450744
 20
9605.674972252669
 30
0.0
 11
11489.09104241336
 21
9605.674972252669
 31
0.0
  0
LINE
  5
25218
330
239E6
100
AcDbEntity
  8
waku
  6
Continuous
370
     9
100
AcDbLine
 10
11489.09104241336
 20
9605.674972252669
 30
0.0
 11
11489.09104241336
 21
9595.675038237628
 31
0.0
  0
LINE
  5
25219
330
239E6
100
AcDbEntity
  8
waku
  6
Continuous
370
     9
100
AcDbLine
 10
11489.09104241336
 20
9595.675038237628
 30
0.0
 11
11639.09094342232
 21
9595.675038237628
 31
0.0
  0
LINE
  5
2521A
330
239E6
100
AcDbEntity
  8
waku
  6
Continuous
370
     9
100
AcDbLine
 10
11639.09094342232
 20
9595.675038237628
 30
0.0
 11
11639.09094342232
 21
9605.674972252669
 31
0.0
  0
LINE
  5
2521B
330
239E6
100
AcDbEntity
  8
waku
  6
Continuous
370
     9
100
AcDbLine
 10
11085.13414976994
 20
9559.674919470104
 30
0.0
 11
11096.00616069583
 21
9559.674919470104
 31
0.0
  0
LINE
  5
2521C
330
239E6
100
AcDbEntity
  8
waku
  6
Continuous
370
     9
100
AcDbLine
 10
11085.13414976994
 20
9598.613287155192
 30
0.0
 11
11096.00616069583
 21
9598.613287155192
 31
0.0
  0
LINE
  5
2521D
330
239E6
100
AcDbEntity
  8
waku
  6
Continuous
370
     9
100
AcDbLine
 10
11085.13414976994
 20
9602.613349839543
 30
0.0
 11
11096.00616069583
 21
9602.613349839543
 31
0.0
  0
LINE
  5
2521E
330
239E6
100
AcDbEntity
  8
waku
  6
Continuous
370
     9
100
AcDbLine
 10
11083.13345034022
 20
9598.613287155192
 30
0.0
 11
11083.13345034022
 21
9559.674919470104
 31
0.0
  0
LINE
  5
2521F
330
239E6
100
AcDbEntity
  8
waku
  6
Continuous
370
     9
100
AcDbLine
 10
11085.13414976994
 20
9598.613287155192
 30
0.0
 11
11085.13414976994
 21
9559.674919470104
 31
0.0
  0
LINE
  5
25220
330
239E6
100
AcDbEntity
  8
waku
  6
Continuous
370
     9
100
AcDbLine
 10
11063.00085558932
 20
9587.739049270918
 30
0.0
 11
11056.00107993544
 21
9571.929398335877
 31
0.0
  0
LINE
  5
25221
330
239E6
100
AcDbEntity
  8
waku
  6
Continuous
370
     9
100
AcDbLine
 10
11065.00244580231
 20
9609.675034937025
 30
0.0
 11
11071.82762791732
 21
9609.675034937025
 31
0.0
  0
LINE
  5
25222
330
239E6
100
AcDbEntity
  8
waku
  6
Continuous
370
     9
100
AcDbLine
 10
11021.72640853891
 20
9581.863442219145
 30
0.0
 11
11046.00203670384
 21
9581.863442219145
 31
0.0
  0
LINE
  5
25223
330
239E6
100
AcDbEntity
  8
waku
  6
Continuous
370
     9
100
AcDbLine
 10
11086.32601790751
 20
9675.67495574967
 30
0.0
 11
11096.00616069583
 21
9675.67495574967
 31
0.0
  0
LINE
  5
25224
330
239E6
100
AcDbEntity
  8
waku
  6
Continuous
370
     9
100
AcDbLine
 10
11085.55192716645
 20
9679.675018434025
 30
0.0
 11
11094.00100734921
 21
9679.675018434025
 31
0.0
  0
LINE
  5
25225
330
239E6
100
AcDbEntity
  8
waku
  6
Continuous
370
     9
100
AcDbLine
 10
11081.75184534668
 20
9679.675018434025
 30
0.0
 11
11080.38983758729
 21
9685.674889764738
 31
0.0
  0
LINE
  5
25226
330
239E6
100
AcDbEntity
  8
waku
  6
Continuous
370
     9
100
AcDbLine
 10
11085.55192716645
 20
9679.675018434025
 30
0.0
 11
11084.39569036329
 21
9685.674889764738
 31
0.0
  0
LINE
  5
25227
330
239E6
100
AcDbEntity
  8
waku
  6
Continuous
370
     9
100
AcDbLine
 10
11070.05942294505
 20
9633.442025802475
 30
0.0
 11
11082.11795730834
 21
9636.672897054246
 31
0.0
  0
LINE
  5
25228
330
239E6
100
AcDbEntity
  8
waku
  6
Continuous
370
     9
100
AcDbLine
 10
11070.05942294505
 20
9657.879665191137
 30
0.0
 11
11082.11795730834
 21
9657.879665191137
 31
0.0
  0
LINE
  5
25229
330
239E6
100
AcDbEntity
  8
waku
  6
Continuous
370
     9
100
AcDbLine
 10
11035.00086219048
 20
9653.642264414898
 30
0.0
 11
11035.00086219048
 21
9625.674840282751
 31
0.0
  0
LINE
  5
2522A
330
239E6
100
AcDbEntity
  8
waku
  6
Continuous
370
     9
100
AcDbLine
 10
11037.00245240346
 20
9654.089938727992
 30
0.0
 11
11037.00245240346
 21
9625.674840282751
 31
0.0
  0
LINE
  5
2522B
330
239E6
100
AcDbEntity
  8
waku
  6
Continuous
370
     9
100
AcDbLine
 10
11037.00245240346
 20
9659.879529511426
 30
0.0
 11
11046.00203670384
 21
9659.879529511426
 31
0.0
  0
LINE
  5
2522C
330
239E6
100
AcDbEntity
  8
waku
  6
Continuous
370
     9
100
AcDbLine
 10
11037.00245240346
 20
9663.880093261422
 30
0.0
 11
11046.00203670384
 21
9663.880093261422
 31
0.0
  0
LINE
  5
2522D
330
239E6
100
AcDbEntity
  8
waku
  6
Continuous
370
     9
100
AcDbLine
 10
11035.00086219048
 20
9659.879529511426
 30
0.0
 11
11035.00086219048
 21
9657.642382773234
 31
0.0
  0
LINE
  5
2522E
330
239E6
100
AcDbEntity
  8
waku
  6
Continuous
370
     9
100
AcDbLine
 10
11037.00245240346
 20
9659.879529511426
 30
0.0
 11
11037.00245240346
 21
9658.090001412345
 31
0.0
  0
LINE
  5
2522F
330
239E6
100
AcDbEntity
  8
waku
  6
Continuous
370
     9
100
AcDbLine
 10
11037.00245240346
 20
9675.67495574967
 30
0.0
 11
11046.00203670384
 21
9675.67495574967
 31
0.0
  0
LINE
  5
25230
330
239E6
100
AcDbEntity
  8
waku
  6
Continuous
370
     9
100
AcDbLine
 10
11037.00245240346
 20
9679.675018434025
 30
0.0
 11
11046.00203670384
 21
9679.675018434025
 31
0.0
  0
LINE
  5
25231
330
239E6
100
AcDbEntity
  8
waku
  6
Continuous
370
     9
100
AcDbLine
 10
11037.00245240346
 20
9675.67495574967
 30
0.0
 11
11037.00245240346
 21
9663.880093261422
 31
0.0
  0
LINE
  5
25232
330
239E6
100
AcDbEntity
  8
waku
  6
Continuous
370
     9
100
AcDbLine
 10
11035.00086219048
 20
9675.67495574967
 30
0.0
 11
11035.00086219048
 21
9663.880093261422
 31
0.0
  0
LINE
  5
25233
330
239E6
100
AcDbEntity
  8
waku
  6
Continuous
370
     9
100
AcDbLine
 10
11028.0010865366
 20
9679.675018434025
 30
0.0
 11
11035.00086219048
 21
9679.675018434025
 31
0.0
  0
LINE
  5
25234
330
239E6
100
AcDbEntity
  8
waku
  6
Continuous
370
     9
100
AcDbLine
 10
11015.00188494372
 20
9662.180645629749
 30
0.0
 11
11015.00188494372
 21
9625.674840282751
 31
0.0
  0
LINE
  5
25235
330
239E6
100
AcDbEntity
  8
waku
  6
Continuous
370
     9
100
AcDbLine
 10
11013.00029473069
 20
9661.434002151016
 30
0.0
 11
11013.00029473069
 21
9625.674840282751
 31
0.0
  0
LINE
  5
25236
330
239E6
100
AcDbEntity
  8
waku
  6
Continuous
370
     9
100
AcDbLine
 10
11015.00188494372
 20
9675.67495574967
 30
0.0
 11
11035.00086219048
 21
9675.67495574967
 31
0.0
  0
LINE
  5
25237
330
239E6
100
AcDbEntity
  8
waku
  6
Continuous
370
     9
100
AcDbLine
 10
11015.00188494372
 20
9679.675018434025
 30
0.0
 11
11026.00216867371
 21
9679.675018434025
 31
0.0
  0
LINE
  5
25238
330
239E6
100
AcDbEntity
  8
waku
  6
Continuous
370
     9
100
AcDbLine
 10
11013.00029473069
 20
9675.67495574967
 30
0.0
 11
11013.00029473069
 21
9665.434454553102
 31
0.0
  0
LINE
  5
25239
330
239E6
100
AcDbEntity
  8
waku
  6
Continuous
370
     9
100
AcDbLine
 10
11015.00188494372
 20
9675.67495574967
 30
0.0
 11
11015.00188494372
 21
9666.180986683899
 31
0.0
  0
LINE
  5
2523A
330
239E6
100
AcDbEntity
  8
waku
  6
Continuous
370
     9
100
AcDbLine
 10
11096.00616069583
 20
9598.613287155192
 30
0.0
 11
11096.00616069583
 21
9602.613349839543
 31
0.0
  0
LINE
  5
2523B
330
239E6
100
AcDbEntity
  8
waku
  6
Continuous
370
     9
100
AcDbLine
 10
11096.00616069583
 20
9555.674884622728
 30
0.0
 11
11096.00616069583
 21
9559.674919470104
 31
0.0
  0
LINE
  5
2523C
330
239E6
100
AcDbEntity
  8
waku
  6
Continuous
370
     9
100
AcDbLine
 10
11074.13297525681
 20
9559.674919470104
 30
0.0
 11
11074.13297525681
 21
9555.674884622728
 31
0.0
  0
LINE
  5
2523D
330
239E6
100
AcDbEntity
  8
waku
  6
Continuous
370
     9
100
AcDbLine
 10
11074.13297525681
 20
9602.613349839543
 30
0.0
 11
11074.13297525681
 21
9598.613287155192
 31
0.0
  0
LINE
  5
2523E
330
239E6
100
AcDbEntity
  8
waku
  6
Continuous
370
     9
100
AcDbLine
 10
11083.13345034022
 20
9615.674906267713
 30
0.0
 11
11085.13414976994
 21
9615.674906267713
 31
0.0
  0
LINE
  5
2523F
330
239E6
100
AcDbEntity
  8
waku
  6
Continuous
370
     9
100
AcDbLine
 10
11063.00085558932
 20
9615.674906267713
 30
0.0
 11
11065.00244580231
 21
9615.674906267713
 31
0.0
  0
LINE
  5
25240
330
239E6
100
AcDbEntity
  8
waku
  6
Continuous
370
     9
100
AcDbLine
 10
11063.00085558932
 20
9555.674884622728
 30
0.0
 11
11065.00244580231
 21
9555.674884622728
 31
0.0
  0
LINE
  5
25241
330
239E6
100
AcDbEntity
  8
waku
  6
Continuous
370
     9
100
AcDbLine
 10
11072.00043988948
 20
9584.517531244435
 30
0.0
 11
11072.00043988948
 21
9580.517941788745
 31
0.0
  0
LINE
  5
25242
330
239E6
100
AcDbEntity
  8
waku
  6
Continuous
370
     9
100
AcDbLine
 10
11056.00107993544
 20
9575.929906411888
 30
0.0
 11
11056.00107993544
 21
9571.929398335877
 31
0.0
  0
LINE
  5
25243
330
239E6
100
AcDbEntity
  8
waku
  6
Continuous
370
     9
100
AcDbLine
 10
11071.82762791732
 20
9609.675034937025
 30
0.0
 11
11071.82762791732
 21
9607.674780899003
 31
0.0
  0
LINE
  5
25244
330
239E6
100
AcDbEntity
  8
waku
  6
Continuous
370
     9
100
AcDbLine
 10
11056.00107993544
 20
9609.675034937025
 30
0.0
 11
11056.00107993544
 21
9607.674780899003
 31
0.0
  0
LINE
  5
25245
330
239E6
100
AcDbEntity
  8
waku
  6
Continuous
370
     9
100
AcDbLine
 10
11032.86565447323
 20
9570.796349737134
 30
0.0
 11
11036.86616254922
 21
9570.796349737134
 31
0.0
  0
LINE
  5
25246
330
239E6
100
AcDbEntity
  8
waku
  6
Continuous
370
     9
100
AcDbLine
 10
11006.00586377705
 20
9585.863449229542
 30
0.0
 11
11006.00586377705
 21
9581.863442219145
 31
0.0
  0
LINE
  5
25247
330
239E6
100
AcDbEntity
  8
waku
  6
Continuous
370
     9
100
AcDbLine
 10
11046.00203670384
 20
9585.863449229542
 30
0.0
 11
11046.00203670384
 21
9581.863442219145
 31
0.0
  0
LINE
  5
25248
330
239E6
100
AcDbEntity
  8
waku
  6
Continuous
370
     9
100
AcDbLine
 10
11038.00012976825
 20
9596.930597385505
 30
0.0
 11
11038.00012976825
 21
9592.930590375104
 31
0.0
  0
LINE
  5
25249
330
239E6
100
AcDbEntity
  8
waku
  6
Continuous
370
     9
100
AcDbLine
 10
11014.00331679567
 20
9596.930597385505
 30
0.0
 11
11014.00331679567
 21
9592.930590375104
 31
0.0
  0
LINE
  5
2524A
330
239E6
100
AcDbEntity
  8
waku
  6
Continuous
370
     9
100
AcDbLine
 10
11046.00203670384
 20
9599.73077488207
 30
0.0
 11
11046.00203670384
 21
9595.730712197715
 31
0.0
  0
LINE
  5
2524B
330
239E6
100
AcDbEntity
  8
waku
  6
Continuous
370
     9
100
AcDbLine
 10
11006.00586377705
 20
9599.73077488207
 30
0.0
 11
11006.00586377705
 21
9595.730712197715
 31
0.0
  0
LINE
  5
2524C
330
239E6
100
AcDbEntity
  8
waku
  6
Continuous
370
     9
100
AcDbLine
 10
11046.00203670384
 20
9641.98107510483
 30
0.0
 11
11046.00203670384
 21
9637.981457812138
 31
0.0
  0
LINE
  5
2524D
330
239E6
100
AcDbEntity
  8
waku
  6
Continuous
370
     9
100
AcDbLine
 10
11028.0010865366
 20
9641.98107510483
 30
0.0
 11
11028.0010865366
 21
9637.981457812138
 31
0.0
  0
LINE
  5
2524E
330
239E6
100
AcDbEntity
  8
waku
  6
Continuous
370
     9
100
AcDbLine
 10
11022.00076981434
 20
9659.651099253167
 30
0.0
 11
11022.00076981434
 21
9655.650980894858
 31
0.0
  0
LINE
  5
2524F
330
239E6
100
AcDbEntity
  8
waku
  6
Continuous
370
     9
100
AcDbLine
 10
11006.00586377705
 20
9653.681959948469
 30
0.0
 11
11006.00586377705
 21
9649.681841590133
 31
0.0
  0
LINE
  5
25250
330
239E6
100
AcDbEntity
  8
waku
  6
Continuous
370
     9
100
AcDbLine
 10
11094.00100734921
 20
9625.674840282751
 30
0.0
 11
11096.00616069583
 21
9625.674840282751
 31
0.0
  0
LINE
  5
25251
330
239E6
100
AcDbEntity
  8
waku
  6
Continuous
370
     9
100
AcDbLine
 10
11080.38983758729
 20
9685.674889764738
 30
0.0
 11
11084.39569036329
 21
9685.674889764738
 31
0.0
  0
LINE
  5
25252
330
239E6
100
AcDbEntity
  8
waku
  6
Continuous
370
     9
100
AcDbLine
 10
11035.00086219048
 20
9625.674840282751
 30
0.0
 11
11037.00245240346
 21
9625.674840282751
 31
0.0
  0
LINE
  5
25253
330
239E6
100
AcDbEntity
  8
waku
  6
Continuous
370
     9
100
AcDbLine
 10
11013.00029473069
 20
9625.674840282751
 30
0.0
 11
11015.00188494372
 21
9625.674840282751
 31
0.0
  0
LINE
  5
25254
330
239E6
100
AcDbEntity
  8
waku
  6
Continuous
370
     9
100
AcDbLine
 10
11035.00086219048
 20
9685.674889764738
 30
0.0
 11
11037.00245240346
 21
9685.674889764738
 31
0.0
  0
LINE
  5
25255
330
239E6
100
AcDbEntity
  8
waku
  6
Continuous
370
     9
100
AcDbLine
 10
11013.00029473069
 20
9685.674889764738
 30
0.0
 11
11015.00188494372
 21
9685.674889764738
 31
0.0
  0
LINE
  5
25256
330
239E6
100
AcDbEntity
  8
waku
  6
Continuous
370
     9
100
AcDbLine
 10
11065.00244580231
 20
9587.046799251188
 30
0.0
 11
11065.00244580231
 21
9555.674884622728
 31
0.0
  0
LINE
  5
25257
330
239E6
100
AcDbEntity
  8
waku
  6
Continuous
370
     9
100
AcDbLine
 10
11065.00244580231
 20
9615.674906267713
 30
0.0
 11
11065.00244580231
 21
9609.675034937025
 31
0.0
  0
LINE
  5
25258
330
239E6
100
AcDbEntity
  8
waku
  6
Continuous
370
     9
100
AcDbLine
 10
11085.13414976994
 20
9615.674906267713
 30
0.0
 11
11085.13414976994
 21
9602.613349839543
 31
0.0
  0
LINE
  5
25259
330
239E6
100
AcDbEntity
  8
waku
  6
Continuous
370
     9
100
AcDbLine
 10
11096.00616069583
 20
9625.674840282751
 30
0.0
 11
11086.32601790751
 21
9675.67495574967
 31
0.0
  0
LINE
  5
2525A
330
239E6
100
AcDbEntity
  8
waku
  6
Continuous
370
     9
100
AcDbLine
 10
11068.05961429879
 20
9657.879665191137
 30
0.0
 11
11068.05961429879
 21
9632.905774218905
 31
0.0
  0
LINE
  5
2525B
330
239E6
100
AcDbEntity
  8
waku
  6
Continuous
370
     9
100
AcDbLine
 10
11037.00245240346
 20
9685.674889764738
 30
0.0
 11
11037.00245240346
 21
9679.675018434025
 31
0.0
  0
LINE
  5
2525C
330
239E6
100
AcDbEntity
  8
waku
  6
Continuous
370
     9
100
AcDbLine
 10
11015.00188494372
 20
9685.674889764738
 30
0.0
 11
11015.00188494372
 21
9679.675018434025
 31
0.0
  0
LINE
  5
2525D
330
239E6
100
AcDbEntity
  8
waku
  6
Continuous
370
     9
100
AcDbLine
 10
11074.13297525681
 20
9555.674884622728
 30
0.0
 11
11096.00616069583
 21
9555.674884622728
 31
0.0
  0
LINE
  5
2525E
330
239E6
100
AcDbEntity
  8
waku
  6
Continuous
370
     9
100
AcDbLine
 10
11074.13297525681
 20
9559.674919470104
 30
0.0
 11
11083.13345034022
 21
9559.674919470104
 31
0.0
  0
LINE
  5
2525F
330
239E6
100
AcDbEntity
  8
waku
  6
Continuous
370
     9
100
AcDbLine
 10
11063.00085558932
 20
9587.739049270918
 30
0.0
 11
11063.00085558932
 21
9555.674884622728
 31
0.0
  0
LINE
  5
25260
330
239E6
100
AcDbEntity
  8
waku
  6
Continuous
370
     9
100
AcDbLine
 10
11071.82762791732
 20
9607.674780899003
 30
0.0
 11
11064.62119052377
 21
9591.400168886263
 31
0.0
  0
LINE
  5
25261
330
239E6
100
AcDbEntity
  8
waku
  6
Continuous
370
     9
100
AcDbLine
 10
11070.05675059491
 20
9607.674780899003
 30
0.0
 11
11056.00107993544
 21
9575.929906411888
 31
0.0
  0
LINE
  5
25262
330
239E6
100
AcDbEntity
  8
waku
  6
Continuous
370
     9
100
AcDbLine
 10
11063.00085558932
 20
9615.674906267713
 30
0.0
 11
11063.00085558932
 21
9609.675034937025
 31
0.0
  0
LINE
  5
25263
330
239E6
100
AcDbEntity
  8
waku
  6
Continuous
370
     9
100
AcDbLine
 10
11056.00107993544
 20
9609.675034937025
 30
0.0
 11
11063.00085558932
 21
9609.675034937025
 31
0.0
  0
LINE
  5
25264
330
239E6
100
AcDbEntity
  8
waku
  6
Continuous
370
     9
100
AcDbLine
 10
11056.00107993544
 20
9607.674780899003
 30
0.0
 11
11070.05675059491
 21
9607.674780899003
 31
0.0
  0
LINE
  5
25265
330
239E6
100
AcDbEntity
  8
waku
  6
Continuous
370
     9
100
AcDbLine
 10
11065.00244580231
 20
9587.046799251188
 30
0.0
 11
11072.00043988948
 21
9580.517941788745
 31
0.0
  0
LINE
  5
25266
330
239E6
100
AcDbEntity
  8
waku
  6
Continuous
370
     9
100
AcDbLine
 10
11064.62119052377
 20
9591.400168886263
 30
0.0
 11
11072.00043988948
 21
9584.517531244435
 31
0.0
  0
LINE
  5
25267
330
239E6
100
AcDbEntity
  8
waku
  6
Continuous
370
     9
100
AcDbLine
 10
11083.13345034022
 20
9615.674906267713
 30
0.0
 11
11083.13345034022
 21
9602.613349839543
 31
0.0
  0
LINE
  5
25268
330
239E6
100
AcDbEntity
  8
waku
  6
Continuous
370
     9
100
AcDbLine
 10
11074.13297525681
 20
9602.613349839543
 30
0.0
 11
11083.13345034022
 21
9602.613349839543
 31
0.0
  0
LINE
  5
25269
330
239E6
100
AcDbEntity
  8
waku
  6
Continuous
370
     9
100
AcDbLine
 10
11074.13297525681
 20
9598.613287155192
 30
0.0
 11
11083.13345034022
 21
9598.613287155192
 31
0.0
  0
LINE
  5
2526A
330
239E6
100
AcDbEntity
  8
waku
  6
Continuous
370
     9
100
AcDbLine
 10
11013.48755322936
 20
9559.674919470104
 30
0.0
 11
11038.11325925534
 21
9559.674919470104
 31
0.0
  0
LINE
  5
2526B
330
239E6
100
AcDbEntity
  8
waku
  6
Continuous
370
     9
100
AcDbLine
 10
11038.11325925534
 20
9559.674919470104
 30
0.0
 11
11032.86565447323
 21
9570.796349737134
 31
0.0
  0
LINE
  5
2526C
330
239E6
100
AcDbEntity
  8
waku
  6
Continuous
370
     9
100
AcDbLine
 10
11044.00222805751
 20
9555.674884622728
 30
0.0
 11
11036.86616254922
 21
9570.796349737134
 31
0.0
  0
LINE
  5
2526D
330
239E6
100
AcDbEntity
  8
waku
  6
Continuous
370
     9
100
AcDbLine
 10
11008.00210928991
 20
9555.674884622728
 30
0.0
 11
11044.00222805751
 21
9555.674884622728
 31
0.0
  0
LINE
  5
2526E
330
239E6
100
AcDbEntity
  8
waku
  6
Continuous
370
     9
100
AcDbLine
 10
11021.72640853891
 20
9581.863442219145
 30
0.0
 11
11013.48755322936
 21
9559.674919470104
 31
0.0
  0
LINE
  5
2526F
330
239E6
100
AcDbEntity
  8
waku
  6
Continuous
370
     9
100
AcDbLine
 10
11017.72768202957
 20
9581.863442219145
 30
0.0
 11
11008.00210928991
 21
9555.674884622728
 31
0.0
  0
LINE
  5
25270
330
239E6
100
AcDbEntity
  8
waku
  6
Continuous
370
     9
100
AcDbLine
 10
11006.00586377705
 20
9585.863449229542
 30
0.0
 11
11046.00203670384
 21
9585.863449229542
 31
0.0
  0
LINE
  5
25271
330
239E6
100
AcDbEntity
  8
waku
  6
Continuous
370
     9
100
AcDbLine
 10
11006.00586377705
 20
9581.863442219145
 30
0.0
 11
11017.72768202957
 21
9581.863442219145
 31
0.0
  0
LINE
  5
25272
330
239E6
100
AcDbEntity
  8
waku
  6
Continuous
370
     9
100
AcDbLine
 10
11014.00331679567
 20
9592.930590375104
 30
0.0
 11
11038.00012976825
 21
9592.930590375104
 31
0.0
  0
LINE
  5
25273
330
239E6
100
AcDbEntity
  8
waku
  6
Continuous
370
     9
100
AcDbLine
 10
11014.00331679567
 20
9596.930597385505
 30
0.0
 11
11038.00012976825
 21
9596.930597385505
 31
0.0
  0
LINE
  5
25274
330
239E6
100
AcDbEntity
  8
waku
  6
Continuous
370
     9
100
AcDbLine
 10
11026.00216867371
 20
9615.674906267713
 30
0.0
 11
11046.00203670384
 21
9599.73077488207
 31
0.0
  0
LINE
  5
25275
330
239E6
100
AcDbEntity
  8
waku
  6
Continuous
370
     9
100
AcDbLine
 10
11026.00216867371
 20
9611.674787909402
 30
0.0
 11
11046.00203670384
 21
9595.730712197715
 31
0.0
  0
LINE
  5
25276
330
239E6
100
AcDbEntity
  8
waku
  6
Continuous
370
     9
100
AcDbLine
 10
11026.00216867371
 20
9611.674787909402
 30
0.0
 11
11006.00586377705
 21
9595.730712197715
 31
0.0
  0
LINE
  5
25277
330
239E6
100
AcDbEntity
  8
waku
  6
Continuous
370
     9
100
AcDbLine
 10
11026.00216867371
 20
9615.674906267713
 30
0.0
 11
11006.00586377705
 21
9599.73077488207
 31
0.0
  0
LINE
  5
25278
330
239E6
100
AcDbEntity
  8
waku
  6
Continuous
370
     9
100
AcDbLine
 10
11094.00100734921
 20
9625.674840282751
 30
0.0
 11
11082.65866280863
 21
9675.67495574967
 31
0.0
  0
LINE
  5
25279
330
239E6
100
AcDbEntity
  8
waku
  6
Continuous
370
     9
100
AcDbLine
 10
11070.05942294505
 20
9657.879665191137
 30
0.0
 11
11070.05942294505
 21
9633.442025802475
 31
0.0
  0
LINE
  5
2527A
330
239E6
100
AcDbEntity
  8
waku
  6
Continuous
370
     9
100
AcDbLine
 10
11096.00616069583
 20
9685.674889764738
 30
0.0
 11
11096.00616069583
 21
9679.675018434025
 31
0.0
  0
LINE
  5
2527B
330
239E6
100
AcDbEntity
  8
waku
  6
Continuous
370
     9
100
AcDbLine
 10
11094.00100734921
 20
9685.674889764738
 30
0.0
 11
11094.00100734921
 21
9679.675018434025
 31
0.0
  0
LINE
  5
2527C
330
239E6
100
AcDbEntity
  8
waku
  6
Continuous
370
     9
100
AcDbLine
 10
11094.00100734921
 20
9685.674889764738
 30
0.0
 11
11096.00616069583
 21
9685.674889764738
 31
0.0
  0
LINE
  5
2527D
330
239E6
100
AcDbEntity
  8
waku
  6
Continuous
370
     9
100
AcDbLine
 10
11082.11795730834
 20
9632.672834369893
 30
0.0
 11
11082.11795730834
 21
9636.672897054246
 31
0.0
  0
LINE
  5
2527E
330
239E6
100
AcDbEntity
  8
waku
  6
Continuous
370
     9
100
AcDbLine
 10
11056.00107993544
 20
9629.675181336905
 30
0.0
 11
11068.05961429879
 21
9632.905774218905
 31
0.0
  0
LINE
  5
2527F
330
239E6
100
AcDbEntity
  8
waku
  6
Continuous
370
     9
100
AcDbLine
 10
11056.00107993544
 20
9625.674840282751
 30
0.0
 11
11082.11795730834
 21
9632.672834369893
 31
0.0
  0
LINE
  5
25280
330
239E6
100
AcDbEntity
  8
waku
  6
Continuous
370
     9
100
AcDbLine
 10
11056.00107993544
 20
9625.674840282751
 30
0.0
 11
11056.00107993544
 21
9629.675181336905
 31
0.0
  0
LINE
  5
25281
330
239E6
100
AcDbEntity
  8
waku
  6
Continuous
370
     9
100
AcDbLine
 10
11056.00107993544
 20
9661.8798392234
 30
0.0
 11
11082.11795730834
 21
9661.8798392234
 31
0.0
  0
LINE
  5
25282
330
239E6
100
AcDbEntity
  8
waku
  6
Continuous
370
     9
100
AcDbLine
 10
11056.00107993544
 20
9657.879665191137
 30
0.0
 11
11068.05961429879
 21
9657.879665191137
 31
0.0
  0
LINE
  5
25283
330
239E6
100
AcDbEntity
  8
waku
  6
Continuous
370
     9
100
AcDbLine
 10
11056.00107993544
 20
9661.8798392234
 30
0.0
 11
11056.00107993544
 21
9657.879665191137
 31
0.0
  0
LINE
  5
25284
330
239E6
100
AcDbEntity
  8
waku
  6
Continuous
370
     9
100
AcDbLine
 10
11082.11795730834
 20
9661.8798392234
 30
0.0
 11
11082.11795730834
 21
9657.879665191137
 31
0.0
  0
LINE
  5
25285
330
239E6
100
AcDbEntity
  8
waku
  6
Continuous
370
     9
100
AcDbLine
 10
11056.00107993544
 20
9679.675018434025
 30
0.0
 11
11081.75184534668
 21
9679.675018434025
 31
0.0
  0
LINE
  5
25286
330
239E6
100
AcDbEntity
  8
waku
  6
Continuous
370
     9
100
AcDbLine
 10
11056.00107993544
 20
9675.67495574967
 30
0.0
 11
11082.65866280863
 21
9675.67495574967
 31
0.0
  0
LINE
  5
25287
330
239E6
100
AcDbEntity
  8
waku
  6
Continuous
370
     9
100
AcDbLine
 10
11096.00616069583
 20
9679.675018434025
 30
0.0
 11
11096.00616069583
 21
9675.67495574967
 31
0.0
  0
LINE
  5
25288
330
239E6
100
AcDbEntity
  8
waku
  6
Continuous
370
     9
100
AcDbLine
 10
11056.00107993544
 20
9675.67495574967
 30
0.0
 11
11056.00107993544
 21
9679.675018434025
 31
0.0
  0
LINE
  5
25289
330
239E6
100
AcDbEntity
  8
waku
  6
Continuous
370
     9
100
AcDbLine
 10
11006.00586377705
 20
9675.67495574967
 30
0.0
 11
11006.00586377705
 21
9679.675018434025
 31
0.0
  0
LINE
  5
2528A
330
239E6
100
AcDbEntity
  8
waku
  6
Continuous
370
     9
100
AcDbLine
 10
11026.00216867371
 20
9685.674889764738
 30
0.0
 11
11028.0010865366
 21
9685.674889764738
 31
0.0
  0
LINE
  5
2528B
330
239E6
100
AcDbEntity
  8
waku
  6
Continuous
370
     9
100
AcDbLine
 10
11046.00203670384
 20
9679.675018434025
 30
0.0
 11
11046.00203670384
 21
9675.67495574967
 31
0.0
  0
LINE
  5
2528C
330
239E6
100
AcDbEntity
  8
waku
  6
Continuous
370
     9
100
AcDbLine
 10
11046.00203670384
 20
9663.880093261422
 30
0.0
 11
11046.00203670384
 21
9659.879529511426
 31
0.0
  0
LINE
  5
2528D
330
239E6
100
AcDbEntity
  8
waku
  6
Continuous
370
     9
100
AcDbLine
 10
11026.00216867371
 20
9663.880093261422
 30
0.0
 11
11026.00216867371
 21
9659.879529511426
 31
0.0
  0
LINE
  5
2528E
330
239E6
100
AcDbEntity
  8
waku
  6
Continuous
370
     9
100
AcDbLine
 10
11037.00245240346
 20
9654.089938727992
 30
0.0
 11
11046.00203670384
 21
9637.981457812138
 31
0.0
  0
LINE
  5
2528F
330
239E6
100
AcDbEntity
  8
waku
  6
Continuous
370
     9
100
AcDbLine
 10
11037.00245240346
 20
9658.090001412345
 30
0.0
 11
11046.00203670384
 21
9641.98107510483
 31
0.0
  0
LINE
  5
25290
330
239E6
100
AcDbEntity
  8
waku
  6
Continuous
370
     9
100
AcDbLine
 10
11035.00086219048
 20
9653.642264414898
 30
0.0
 11
11028.0010865366
 21
9637.981457812138
 31
0.0
  0
LINE
  5
25291
330
239E6
100
AcDbEntity
  8
waku
  6
Continuous
370
     9
100
AcDbLine
 10
11035.00086219048
 20
9657.642382773234
 30
0.0
 11
11028.0010865366
 21
9641.98107510483
 31
0.0
  0
LINE
  5
25292
330
239E6
100
AcDbEntity
  8
waku
  6
Continuous
370
     9
100
AcDbLine
 10
11026.00216867371
 20
9659.879529511426
 30
0.0
 11
11035.00086219048
 21
9659.879529511426
 31
0.0
  0
LINE
  5
25293
330
239E6
100
AcDbEntity
  8
waku
  6
Continuous
370
     9
100
AcDbLine
 10
11026.00216867371
 20
9663.880093261422
 30
0.0
 11
11035.00086219048
 21
9663.880093261422
 31
0.0
  0
LINE
  5
25294
330
239E6
100
AcDbEntity
  8
waku
  6
Continuous
370
     9
100
AcDbLine
 10
11026.00216867371
 20
9685.674889764738
 30
0.0
 11
11026.00216867371
 21
9679.675018434025
 31
0.0
  0
LINE
  5
25295
330
239E6
100
AcDbEntity
  8
waku
  6
Continuous
370
     9
100
AcDbLine
 10
11028.0010865366
 20
9685.674889764738
 30
0.0
 11
11028.0010865366
 21
9679.675018434025
 31
0.0
  0
LINE
  5
25296
330
239E6
100
AcDbEntity
  8
waku
  6
Continuous
370
     9
100
AcDbLine
 10
11035.00086219048
 20
9685.674889764738
 30
0.0
 11
11035.00086219048
 21
9679.675018434025
 31
0.0
  0
LINE
  5
25297
330
239E6
100
AcDbEntity
  8
waku
  6
Continuous
370
     9
100
AcDbLine
 10
11015.00188494372
 20
9666.180986683899
 30
0.0
 11
11022.00076981434
 21
9659.651099253167
 31
0.0
  0
LINE
  5
25298
330
239E6
100
AcDbEntity
  8
waku
  6
Continuous
370
     9
100
AcDbLine
 10
11015.00188494372
 20
9662.180645629749
 30
0.0
 11
11022.00076981434
 21
9655.650980894858
 31
0.0
  0
LINE
  5
25299
330
239E6
100
AcDbEntity
  8
waku
  6
Continuous
370
     9
100
AcDbLine
 10
11013.00029473069
 20
9661.434002151016
 30
0.0
 11
11006.00586377705
 21
9649.681841590133
 31
0.0
  0
LINE
  5
2529A
330
239E6
100
AcDbEntity
  8
waku
  6
Continuous
370
     9
100
AcDbLine
 10
11013.00029473069
 20
9665.434454553102
 30
0.0
 11
11006.00586377705
 21
9653.681959948469
 31
0.0
  0
LINE
  5
2529B
330
239E6
100
AcDbEntity
  8
waku
  6
Continuous
370
     9
100
AcDbLine
 10
11006.00586377705
 20
9675.67495574967
 30
0.0
 11
11013.00029473069
 21
9675.67495574967
 31
0.0
  0
LINE
  5
2529C
330
239E6
100
AcDbEntity
  8
waku
  6
Continuous
370
     9
100
AcDbLine
 10
11006.00586377705
 20
9679.675018434025
 30
0.0
 11
11013.00029473069
 21
9679.675018434025
 31
0.0
  0
LINE
  5
2529D
330
239E6
100
AcDbEntity
  8
waku
  6
Continuous
370
     9
100
AcDbLine
 10
11013.00029473069
 20
9685.674889764738
 30
0.0
 11
11013.00029473069
 21
9679.675018434025
 31
0.0
  0
LINE
  5
2529E
330
239E6
100
AcDbEntity
  8
waku
  6
Continuous
370
     9
100
AcDbLine
 10
9812.667145154364
 20
9656.333411875102
 30
0.0
 11
9820.241773004148
 21
9656.333411875102
 31
0.0
  0
LINE
  5
2529F
330
239E6
100
AcDbEntity
  8
waku
  6
Continuous
370
     9
100
AcDbLine
 10
9820.241773004148
 20
9656.333411875102
 30
0.0
 11
9812.667145154364
 21
9656.333411875102
 31
0.0
  0
LINE
  5
252A0
330
239E6
100
AcDbEntity
  8
waku
  6
Continuous
370
     9
100
AcDbLine
 10
9598.911207472188
 20
9656.333411875102
 30
0.0
 11
9606.483608363582
 21
9656.333411875102
 31
0.0
  0
LINE
  5
252A1
330
239E6
100
AcDbEntity
  8
waku
  6
Continuous
370
     9
100
AcDbLine
 10
9606.483608363582
 20
9656.333411875102
 30
0.0
 11
9598.911207472188
 21
9656.333411875102
 31
0.0
  0
LINE
  5
252A2
330
239E6
100
AcDbEntity
  8
waku
  6
Continuous
370
     9
100
AcDbLine
 10
8662.014390084459
 20
9466.443636888822
 30
0.0
 11
8765.650264229433
 21
9570.080045503878
 31
0.0
  0
CIRCLE
  5
252A3
330
239E6
100
AcDbEntity
  8
waku
  6
Continuous
370
     9
100
AcDbCircle
 10
9816.458170676639
 20
9656.333411875102
 30
0.0
 40
7.57575727722086
  0
CIRCLE
  5
252A4
330
239E6
100
AcDbEntity
  8
waku
  6
Continuous
370
     9
100
AcDbCircle
 10
9602.695552119213
 20
9656.333411875102
 30
0.0
 40
7.57575727722086
  0
TEXT
  5
252A5
330
239E6
100
AcDbEntity
  8
waku
  6
Continuous
370
     9
100
AcDbText
 10
8662.30300389356
 20
9521.769566667067
 30
0.0
 40
46.5512727226176
  1
1
 41
0.9999838574972839
  7
ＭＳ ゴシック
100
AcDbText
  0
TEXT
  5
252A6
330
239E6
100
AcDbEntity
  8
waku
  6
Continuous
370
     9
100
AcDbText
 10
8553.370749640547
 20
9503.508737230021
 30
0.0
 40
38.79272726884801
  1
：
 41
1.000001355027592
  7
ＭＳ ゴシック
100
AcDbText
  0
TEXT
  5
252A7
330
239E6
100
AcDbEntity
  8
waku
  6
Continuous
370
     9
100
AcDbText
 10
8807.0584239598
 20
9743.884739187766
 30
0.0
 40
38.79272726884801
  1
製
 41
1.000001355027592
  7
ＭＳ ゴシック
100
AcDbText
  0
TEXT
  5
252A8
330
239E6
100
AcDbEntity
  8
waku
  6
Continuous
370
     9
100
AcDbText
 10
8807.0584239598
 20
9678.429977792294
 30
0.0
 40
38.79272726884801
  1
図
 41
1.000001355027592
  7
ＭＳ ゴシック
100
AcDbText
  0
TEXT
  5
252A9
330
239E6
100
AcDbEntity
  8
waku
  6
Continuous
370
     9
100
AcDbText
 10
8391.23524535678
 20
9743.884739187766
 30
0.0
 40
38.79272726884801
  1
担
 41
1.00000135502762
  7
ＭＳ ゴシック
100
AcDbText
  0
TEXT
  5
252AA
330
239E6
100
AcDbEntity
  8
waku
  6
Continuous
370
     9
100
AcDbText
 10
8391.23524535678
 20
9678.429977792294
 30
0.0
 40
38.79272726884801
  1
当
 41
1.00000135502762
  7
ＭＳ ゴシック
100
AcDbText
  0
TEXT
  5
252AB
330
239E6
100
AcDbEntity
  8
waku
  6
Continuous
370
     9
100
AcDbText
 10
8417.208277367437
 20
9500.557738975579
 30
0.0
 40
38.79272726884801
  1
縮尺
 41
1.000001355027592
  7
ＭＳ ゴシック
100
AcDbText
  0
TEXT
  5
252AC
330
239E6
100
AcDbEntity
  8
waku
  6
Continuous
370
     9
100
AcDbText
 10
6812.976271499088
 20
9476.931249904826
 30
0.0
 40
60.613636357575
  1
基礎伏図・基礎断面図
 41
0.999999605274567
  7
ＭＳ ゴシック
100
AcDbText
  0
TEXT
  5
252AD
330
239E6
100
AcDbEntity
  8
waku
  6
Continuous
370
     9
100
AcDbText
 10
8739.416337923008
 20
9474.680085833512
 30
0.0
 40
46.5512727226176
  1
30
 41
1.000001355027607
  7
ＭＳ ゴシック
100
AcDbText
  0
TEXT
  5
252AE
330
239E6
100
AcDbEntity
  8
waku
  6
Continuous
370
     9
100
AcDbText
 10
6823.409587312413
 20
9682.744813698835
 30
0.0
 40
60.613636357575
  1
YOTC-350型　N連棟
 41
1.000000737467706
  7
ＭＳ ゴシック
100
AcDbText
  0
LWPOLYLINE
  5
252AF
330
239E6
100
AcDbEntity
  8
Defpoints
370
     9
100
AcDbPolyline
 90
        4
 70
     1
 43
0.0
 10
12672.52549989857
 20
9154.979686698275
 10
12672.52549989857
 20
18064.07059489826
 10
72.52550115847225
 20
18064.07059489826
 10
72.52550115847225
 20
9154.979686698275
  0
LWPOLYLINE
  5
252B0
330
239E6
100
AcDbEntity
  8
waku
  6
Continuous
370
     9
100
AcDbPolyline
 90
        4
 70
   129
 43
0.0
 10
12351.31268498101
 20
9415.207275845984
 10
393.738316076202
 20
9415.207275845984
 10
393.738316076202
 20
17803.84300575055
 10
12351.31268498101
 20
17803.84300575055
  0
TEXT
  5
252B1
330
239E6
100
AcDbEntity
  8
waku
  6
Continuous
370
     9
100
AcDbText
 10
10370.55767237364
 20
9573.672053738944
 30
0.0
 40
95.454545445
  1
1
 41
1.000000737467706
  7
ＭＳ ゴシック
 72
     4
 11
10401.56828612227
 21
9620.914785621621
 31
0.0
100
AcDbText
  0
LINE
  5
252B2
330
239E6
100
AcDbEntity
  8
0
370
     9
100
AcDbLine
 10
10701.31268498101
 20
9415.207275845984
 30
0.0
 11
10701.31268498101
 21
9835.207275845984
 31
0.0
  0
LINE
  5
252B3
330
239E6
100
AcDbEntity
  8
0
370
     9
100
AcDbLine
 10
12351.31268498101
 20
9835.207275845984
 30
0.0
 11
393.738316076202
 21
9835.207275845984
 31
0.0
  0
LINE
  5
252B4
330
239E6
100
AcDbEntity
  8
0
370
     9
100
AcDbLine
 10
10041.31268498101
 20
9835.207275845984
 30
0.0
 11
10041.31268498101
 21
9415.207275845984
 31
0.0
  0
LINE
  5
252B5
330
239E6
100
AcDbEntity
  8
0
370
     9
100
AcDbLine
 10
9201.31268498101
 20
9835.207275845984
 30
0.0
 11
9201.31268498101
 21
9415.207275845984
 31
0.0
  0
LINE
  5
252B6
330
239E6
100
AcDbEntity
  8
0
370
     9
100
AcDbLine
 10
8361.312684981008
 20
9835.207275845984
 30
0.0
 11
8361.312684981008
 21
9415.207275845984
 31
0.0
  0
LINE
  5
252B7
330
239E6
100
AcDbEntity
  8
0
370
     9
100
AcDbLine
 10
6561.31268498101
 20
9835.207275845984
 30
0.0
 11
6561.31268498101
 21
9415.207275845984
 31
0.0
  0
LINE
  5
252B8
330
239E6
100
AcDbEntity
  8
0
370
     9
100
AcDbLine
 10
5961.31268498101
 20
9835.207275845984
 30
0.0
 11
5961.31268498101
 21
9415.207275845984
 31
0.0
  0
LINE
  5
252B9
330
239E6
100
AcDbEntity
  8
0
370
     9
100
AcDbLine
 10
4161.312684981011
 20
9835.207275845984
 30
0.0
 11
4161.312684981011
 21
9415.207275845984
 31
0.0
  0
LINE
  5
252BA
330
239E6
100
AcDbEntity
  8
0
370
     9
100
AcDbLine
 10
2361.31268498101
 20
9835.207275845984
 30
0.0
 11
2361.31268498101
 21
9415.207275845984
 31
0.0
  0
LINE
  5
252BB
330
239E6
100
AcDbEntity
  8
0
370
     9
100
AcDbLine
 10
6561.31268498101
 20
9625.207275845983
 30
0.0
 11
10041.31268498101
 21
9625.207275845983
 31
0.0
  0
TEXT
  5
252BC
330
239E6
100
AcDbEntity
  8
waku
  6
Continuous
370
     9
100
AcDbText
 10
415.0179586850298
 20
9777.037083231803
 30
0.0
 40
38.79272726884801
  1
備　考
 41
0.9999991678363107
  7
ＭＳ ゴシック
100
AcDbText
  0
TEXT
  5
252BD
330
239E6
100
AcDbEntity
  8
waku
  6
Continuous
370
     9
100
AcDbText
 10
2379.173550739799
 20
9777.037083231803
 30
0.0
 40
38.79272726884801
  1
設計監理
 41
0.9999991678363107
  7
ＭＳ ゴシック
100
AcDbText
  0
TEXT
  5
252BE
330
239E6
100
AcDbEntity
  8
waku
  6
Continuous
370
     9
100
AcDbText
 10
4174.85594263898
 20
9777.037083231803
 30
0.0
 40
38.79272726884801
  1
御注文先
 41
0.9999991678363107
  7
ＭＳ ゴシック
100
AcDbText
  0
TEXT
  5
252BF
330
239E6
100
AcDbEntity
  8
waku
  6
Continuous
370
     9
100
AcDbText
 10
5979.576849936723
 20
9777.037083231803
 30
0.0
 40
38.79272726884801
  1
受領印
 41
0.9999991678363107
  7
ＭＳ ゴシック
100
AcDbText
  0
TEXT
  5
252C0
330
239E6
100
AcDbEntity
  8
waku
  6
Continuous
370
     9
100
AcDbText
 10
6577.512173402159
 20
9777.037083231803
 30
0.0
 40
38.79272726884801
  1
名　称
 41
0.9999991678363107
  7
ＭＳ ゴシック
100
AcDbText
  0
TEXT
  5
252C1
330
239E6
100
AcDbEntity
  8
waku
  6
Continuous
370
     9
100
AcDbText
 10
4063.832144069396
 20
9593.400012936967
 30
0.0
 40
58.18909090327196
  1
殿
 41
1.000001355027602
  7
ＭＳ ゴシック
100
AcDbText
  0
TEXT
  5
252C2
330
239E6
100
AcDbEntity
  8
waku
  6
Continuous
370
     9
100
AcDbText
 10
5862.500893346998
 20
9593.400012936967
 30
0.0
 40
58.18909090327196
  1
殿
 41
1.000001355027602
  7
ＭＳ ゴシック
100
AcDbText
  0
TEXT
  5
252C3
330
239E6
100
AcDbEntity
  8
waku
  6
Continuous
370
     9
100
AcDbText
 10
6577.512173402159
 20
9567.210186455227
 30
0.0
 40
38.79272726884801
  1
図面名
 41
0.9999991678363107
  7
ＭＳ ゴシック
100
AcDbText
  0
TEXT
  5
252C4
330
239E6
100
AcDbEntity
  8
waku
  6
Continuous
370
     9
100
AcDbText
 10
9240.520930037233
 20
9757.699603036332
 30
0.0
 40
38.79272726884801
  1
日　付
 41
0.9999991678363107
  7
ＭＳ ゴシック
100
AcDbText
  0
TEXT
  5
252C5
330
239E6
100
AcDbEntity
  8
waku
  6
Continuous
370
     9
100
AcDbText
 10
9240.520930037233
 20
9549.255060926432
 30
0.0
 40
38.79272726884801
  1
検　図
 41
0.9999991678363107
  7
ＭＳ ゴシック
100
AcDbText
  0
TEXT
  5
252C6
330
239E6
100
AcDbEntity
  8
waku
  6
Continuous
370
     9
100
AcDbText
 10
10078.29227294753
 20
9757.699603036332
 30
0.0
 40
38.79272726884801
  1
図面　No.
 41
0.9999991678363107
  7
ＭＳ ゴシック
100
AcDbText
  0
LINE
  5
252C7
330
239E6
100
AcDbEntity
  8
0
370
     9
100
AcDbLine
 10
8781.312684981022
 20
9625.207275845983
 30
0.0
 11
8781.312684981022
 21
9835.207275845984
 31
0.0
  0
LINE
  5
252C8
330
239E6
100
AcDbEntity
  8
waku
  6
Continuous
370
     9
100
AcDbLine
 10
8467.373805905728
 20
9625.207275845983
 30
0.0
 11
8467.373805905962
 21
9835.207275845984
 31
0.0
  0
LINE
  5
252C9
330
239E6
100
AcDbEntity
  8
waku
  6
Continuous
370
     9
100
AcDbLine
 10
8887.373805905729
 20
9625.207275845983
 30
0.0
 11
8887.373805905729
 21
9835.207275845984
 31
0.0
  0
LINE
  5
252CA
330
239E6
100
AcDbEntity
  8
waku
  6
Continuous
370
     9
100
AcDbLine
 10
8895.58957108044
 20
9466.443636888822
 30
0.0
 11
8999.225445225409
 21
9570.080045503878
 31
0.0
  0
TEXT
  5
252CB
330
239E6
100
AcDbEntity
  8
waku
  6
Continuous
370
     9
100
AcDbText
 10
8895.8781848896
 20
9521.769566667067
 30
0.0
 40
46.5512727226176
  1
1
 41
0.9999838574972839
  7
ＭＳ ゴシック
100
AcDbText
  0
TEXT
  5
252CC
330
239E6
100
AcDbEntity
  8
waku
  6
Continuous
370
     9
100
AcDbText
 10
8972.991518918931
 20
9474.680085833512
 30
0.0
 40
46.5512727226176
  1
20
 41
1.000001355027607
  7
ＭＳ ゴシック
100
AcDbText
  0
LINE
  5
252CD
330
239E6
100
AcDbEntity
  8
waku
  6
Continuous
370
     9
100
AcDbLine
 10
8824.843785834358
 20
9514.971207752802
 30
0.0
 11
8832.416186725522
 21
9514.971207752802
 31
0.0
  0
LINE
  5
252CE
330
239E6
100
AcDbEntity
  8
waku
  6
Continuous
370
     9
100
AcDbLine
 10
8832.416186725522
 20
9514.971207752802
 30
0.0
 11
8824.843785834358
 21
9514.971207752802
 31
0.0
  0
CIRCLE
  5
252CF
330
239E6
100
AcDbEntity
  8
waku
  6
Continuous
370
     9
100
AcDbCircle
 10
8828.628130481378
 20
9514.971207752802
 30
0.0
 40
7.57575727722086
  0
TEXT
  5
252D0
330
239E6
100
AcDbEntity
  8
SUNPOU
370
     9
100
AcDbText
 10
9790.25215764374
 20
12167.4901043256
 30
0.0
 40
80.9994375039062
  1
以上
  7
01
100
AcDbText
  0
LINE
  5
252D1
330
239E6
100
AcDbEntity
  8
HATCH
370
     9
100
AcDbLine
 10
3030.327996574848
 20
11351.34720397278
 30
0.0
 11
3036.12926676407
 21
11361.39529868894
 31
0.0
  0
LINE
  5
252D2
330
239E6
100
AcDbEntity
  8
HATCH
370
     9
100
AcDbLine
 10
4449.52672638563
 20
11211.39529868896
 30
0.0
 11
4455.327996574837
 21
11221.44339340511
 31
0.0
  0
LINE
  5
252DF
330
239E6
100
AcDbEntity
  8
1PL-M1
370
     9
100
AcDbLine
 10
1290.803575608923
 20
16113.3062111507
 30
0.0
 11
10952.11489093658
 21
16113.3062111507
 31
0.0
  0
LINE
  5
252E0
330
239E6
100
AcDbEntity
  8
2PL-M2
370
     9
100
AcDbLine
 10
10870.1510348864
 20
15108.3062111507
 30
0.0
 11
6139.151034886403
 21
15108.3062111507
 31
0.0
  0
LINE
  5
252E1
330
239E6
100
AcDbEntity
  8
2PL-M2
370
     9
100
AcDbLine
 10
10870.1510348864
 20
17133.3062111507
 30
0.0
 11
6139.151034886403
 21
17133.3062111507
 31
0.0
  0
LINE
  5
252E2
330
239E6
100
AcDbEntity
  8
U3
370
     9
100
AcDbLine
 10
6139.151034886403
 20
14713.3062111507
 30
0.0
 11
10824.1510348864
 21
14713.3062111507
 31
0.0
  0
LINE
  5
252E3
330
239E6
100
AcDbEntity
  8
U3
370
     9
100
AcDbLine
 10
6139.151034886403
 20
17313.3062111507
 30
0.0
 11
10824.1510348864
 21
17313.3062111507
 31
0.0
  0
TEXT
  5
252E4
330
239E6
100
AcDbEntity
  8
SUNPOU
370
     9
100
AcDbText
 10
5709.436749172117
 20
14358.3062111507
 30
0.0
 40
90.0
  1
3500 \U+00D7（ N - 2 ）
 41
0.6666666666666666
  7
00
 72
     4
 11
6099.151034886403
 21
14403.3062111507
 31
0.0
100
AcDbText
  0
TEXT
  5
252E5
330
239E6
100
AcDbEntity
  8
SUNPOU
370
     9
100
AcDbText
 10
5626.008177743545
 20
14148.3062111507
 30
0.0
 40
90.0
  1
L ＝ 3500 \U+00D7 N ＋ 750
 41
0.6666666666666666
  7
00
 72
     4
 11
6099.151034886403
 21
14193.3062111507
 31
0.0
100
AcDbText
  0
LINE
  5
252E6
330
239E6
100
AcDbEntity
  8
SUNPOU
370
     9
100
AcDbLine
 10
5264.151034886403
 20
14313.3062111507
 30
0.0
 11
6934.151034886402
 21
14313.3062111507
 31
0.0
  0
LINE
  5
252E7
330
239E6
100
AcDbEntity
  8
SUNPOU
370
     9
100
AcDbLine
 10
1374.151034886399
 20
14103.3062111507
 30
0.0
 11
10824.1510348864
 21
14103.30621115069
 31
0.0
  0
LINE
  5
252EB
330
239E6
100
AcDbEntity
  8
U2
370
     9
100
AcDbLine
 10
6059.151034886402
 20
14613.3062111507
 30
0.0
 11
6059.151034886402
 21
17413.3062111507
 31
0.0
  0
LINE
  5
252EC
330
239E6
100
AcDbEntity
  8
U2
370
     9
100
AcDbLine
 10
6139.151034886403
 20
14613.3062111507
 30
0.0
 11
6139.151034886403
 21
17413.3062111507
 31
0.0
  0
LINE
  5
252ED
330
239E6
100
AcDbEntity
  8
2PL-M2
370
     9
100
AcDbLine
 10
1328.15103488641
 20
15108.3062111507
 30
0.0
 11
6059.151034886402
 21
15108.3062111507
 31
0.0
  0
TEXT
  5
252EE
330
239E6
100
AcDbEntity
  8
SUNPOU
370
     9
100
AcDbText
 10
2974.151034886404
 20
14758.3062111507
 30
0.0
 40
90.0
  1
（土間コン前面位置）
  7
01
 72
     4
 11
3499.151034886404
 21
14803.3062111507
 31
0.0
100
AcDbText
  0
LINE
  5
252EF
330
239E6
100
AcDbEntity
  8
U3
370
     9
100
AcDbLine
 10
1374.151034886399
 20
14713.3062111507
 30
0.0
 11
6059.151034886408
 21
14713.3062111507
 31
0.0
  0
LINE
  5
252F0
330
239E6
100
AcDbEntity
  8
SUNPOU
370
     9
100
AcDbLine
 10
1749.151034886407
 20
14313.3062111507
 30
0.0
 11
5234.151034886403
 21
14313.3062111507
 31
0.0
  0
LINE
  5
252F1
330
239E6
100
AcDbEntity
  8
SUNPOU
370
     9
100
AcDbLine
 10
1749.151034886414
 20
15683.3062111507
 30
0.0
 11
1749.151034886407
 21
14283.3062111507
 31
0.0
  0
LINE
  5
252F2
330
239E6
100
AcDbEntity
  8
SUNPOU
370
     9
100
AcDbLine
 10
1749.15103488641
 20
15328.24805911614
 30
0.0
 11
1749.151034886407
 21
14283.3062111507
 31
0.0
  0
LINE
  5
252F4
330
239E6
100
AcDbEntity
  8
SUNPOU
370
     9
100
AcDbLine
 10
1374.151034886399
 20
14313.3062111507
 30
0.0
 11
1734.151034886406
 21
14313.3062111507
 31
0.0
  0
TEXT
  5
252F5
330
239E6
100
AcDbEntity
  8
SUNPOU
370
     9
100
AcDbText
 10
3384.86532060069
 20
14358.3062111507
 30
0.0
 40
90.0
  1
3500
 41
0.6666666666666666
  7
00
 72
     1
 11
3499.151034886404
 21
14403.3062111507
 31
0.0
100
AcDbText
 73
     2
  0
LINE
  5
252F6
330
239E6
100
AcDbEntity
  8
1PL-M1
370
     9
100
AcDbLine
 10
1749.15103488641
 20
15713.3062111507
 30
0.0
 11
1749.15103488641
 21
16513.3062111507
 31
0.0
  0
LINE
  5
252F7
330
239E6
100
AcDbEntity
  8
SUNPOU
370
     9
100
AcDbLine
 10
5249.151034886404
 20
15683.3062111507
 30
0.0
 11
5249.151034886404
 21
14283.3062111507
 31
0.0
  0
LINE
  5
252F8
330
239E6
100
AcDbEntity
  8
SUNPOU
370
     9
100
AcDbLine
 10
5249.151034886404
 20
15328.24805911614
 30
0.0
 11
5249.151034886404
 21
14283.3062111507
 31
0.0
  0
LINE
  5
252F9
330
239E6
100
AcDbEntity
  8
1PL-M1
370
     9
100
AcDbLine
 10
5249.151034886404
 20
15713.3062111507
 30
0.0
 11
5249.151034886404
 21
16513.3062111507
 31
0.0
  0
LINE
  5
252FA
330
239E6
100
AcDbEntity
  8
2PL-M2
370
     9
100
AcDbLine
 10
1328.15103488641
 20
17133.3062111507
 30
0.0
 11
6059.151034886402
 21
17133.3062111507
 31
0.0
  0
TEXT
  5
252FB
330
239E6
100
AcDbEntity
  8
SUNPOU
370
     9
100
AcDbText
 10
2974.151034886404
 20
17358.3062111507
 30
0.0
 40
90.0
  1
（土間コン後面位置）
  7
01
 72
     4
 11
3499.151034886404
 21
17403.3062111507
 31
0.0
100
AcDbText
  0
TEXT
  5
252FC
330
239E6
100
AcDbEntity
  8
SUNPOU
370
     9
100
AcDbText
 10
3082.151034886404
 20
17178.3062111507
 30
0.0
 40
90.0
  1
（屋根後面位置）
  7
01
 72
     4
 11
3499.151034886404
 21
17223.3062111507
 31
0.0
100
AcDbText
  0
LINE
  5
252FD
330
239E6
100
AcDbEntity
  8
U3
370
     9
100
AcDbLine
 10
1374.151034886399
 20
17313.3062111507
 30
0.0
 11
6059.151034886402
 21
17313.3062111507
 31
0.0
  0
TEXT
  5
25306
330
239E6
100
AcDbEntity
  8
SUNPOU
370
     9
100
AcDbText
 10
8584.865320600686
 20
14358.3062111507
 30
0.0
 40
90.0
  1
3500
 41
0.6666666666666666
  7
00
 72
     1
 11
8699.1510348864
 21
14403.3062111507
 31
0.0
100
AcDbText
 73
     2
  0
LINE
  5
25307
330
239E6
100
AcDbEntity
  8
SUNPOU
370
     9
100
AcDbLine
 10
6964.1510348864
 20
14313.3062111507
 30
0.0
 11
10449.15103488641
 21
14313.3062111507
 31
0.0
  0
LINE
  5
25308
330
239E6
100
AcDbEntity
  8
SUNPOU
370
     9
100
AcDbLine
 10
6949.151034886402
 20
15683.3062111507
 30
0.0
 11
6949.151034886402
 21
14283.3062111507
 31
0.0
  0
LINE
  5
25309
330
239E6
100
AcDbEntity
  8
SUNPOU
370
     9
100
AcDbLine
 10
6949.151034886402
 20
15328.24805911614
 30
0.0
 11
6949.151034886402
 21
14283.3062111507
 31
0.0
  0
LINE
  5
2530A
330
239E6
100
AcDbEntity
  8
1PL-M1
370
     9
100
AcDbLine
 10
6949.151034886402
 20
15713.3062111507
 30
0.0
 11
6949.151034886402
 21
16513.3062111507
 31
0.0
  0
LINE
  5
25310
330
239E6
100
AcDbEntity
  8
SUNPOU
370
     9
100
AcDbLine
 10
10464.15103488639
 20
14313.3062111507
 30
0.0
 11
10784.15103488639
 21
14313.3062111507
 31
0.0
  0
LINE
  5
25329
330
239E6
100
AcDbEntity
  8
SUNPOU
370
     9
100
AcDbLine
 10
1737.901034886407
 20
14313.3062111507
 30
0.0
 11
1726.651034886407
 21
14313.3062111507
 31
0.0
  0
LINE
  5
2532A
330
239E6
100
AcDbEntity
  8
SUNPOU
370
     9
100
AcDbLine
 10
1760.401034886407
 20
14313.3062111507
 30
0.0
 11
1771.651034886406
 21
14313.3062111507
 31
0.0
  0
LINE
  5
2532B
330
239E6
100
AcDbEntity
  8
SUNPOU
370
     9
100
AcDbLine
 10
5237.901034886403
 20
14313.3062111507
 30
0.0
 11
5226.651034886403
 21
14313.3062111507
 31
0.0
  0
LINE
  5
2532C
330
239E6
100
AcDbEntity
  8
SUNPOU
370
     9
100
AcDbLine
 10
5260.401034886402
 20
14313.3062111507
 30
0.0
 11
5271.651034886404
 21
14313.3062111507
 31
0.0
  0
LINE
  5
2532E
330
239E6
100
AcDbEntity
  8
SUNPOU
370
     9
100
AcDbLine
 10
6937.9010348864
 20
14313.3062111507
 30
0.0
 11
6926.6510348864
 21
14313.3062111507
 31
0.0
  0
LINE
  5
2532F
330
239E6
100
AcDbEntity
  8
SUNPOU
370
     9
100
AcDbLine
 10
6960.401034886404
 20
14313.3062111507
 30
0.0
 11
6971.651034886399
 21
14313.3062111507
 31
0.0
  0
TEXT
  5
25343
330
239E6
100
AcDbEntity
  8
HIKIDASHI
370
     9
100
AcDbText
 10
5443.496294273307
 20
13705.70321396809
 30
0.0
 40
135.0
  1
基 礎 伏 図
  7
01
 72
     2
 11
6289.496294273307
 21
13705.70321396809
 31
0.0
100
AcDbText
  0
TEXT
  5
25344
330
239E6
100
AcDbEntity
  8
HIKIDASHI
370
     9
100
AcDbText
 10
6390.746294273307
 20
13732.49671102793
 30
0.0
 40
90.0
  1
(S=
 41
0.6700000000000001
  7
00
100
AcDbText
  0
TEXT
  5
25345
330
239E6
100
AcDbEntity
  8
HIKIDASHI
370
     9
100
AcDbText
 10
6683.404028908504
 20
13703.05790092762
 30
0.0
 40
90.0
  1
30
 41
0.6700000000000001
  7
00
100
AcDbText
  0
TEXT
  5
25346
330
239E6
100
AcDbEntity
  8
HIKIDASHI
370
     9
100
AcDbText
 10
6820.008791978745
 20
13732.49671102793
 30
0.0
 40
90.0
  1
)
 41
0.6700000000000001
  7
00
100
AcDbText
  0
TEXT
  5
25347
330
239E6
100
AcDbEntity
  8
HIKIDASHI
370
     9
100
AcDbText
 10
6631.321979800539
 20
13732.49671102793
 30
0.0
 40
90.0
  1
/
 41
0.6700000000000001
  7
00
100
AcDbText
  0
TEXT
  5
25348
330
239E6
100
AcDbEntity
  8
HIKIDASHI
370
     9
100
AcDbText
 10
6594.042699703192
 20
13750.00337349465
 30
0.0
 40
90.0
  1
1
 41
0.6700000000000001
  7
00
100
AcDbText
  0
TEXT
  5
25349
330
239E6
100
AcDbEntity
  8
HIKIDASHI
370
     9
100
AcDbText
 10
5594.773479448099
 20
13525.70321396809
 30
0.0
 40
120.0
  1
（  ：スパン数）
  7
01
 72
     4
 11
6150.773479448099
 21
13585.70321396809
 31
0.0
100
AcDbText
  0
TEXT
  5
2534A
330
239E6
100
AcDbEntity
  8
HIKIDASHI
370
     9
100
AcDbText
 10
5773.363162758399
 20
13525.70321396809
 30
0.0
 40
120.0
  1
N
 41
0.6666666666666666
  7
00
 72
     4
 11
5815.26792466316
 21
13585.70321396809
 31
0.0
100
AcDbText
  0
TEXT
  5
2534B
330
239E6
100
AcDbEntity
  8
SUNPOU
370
     9
100
AcDbText
 10
3082.151034886403
 20
14973.3062111507
 30
0.0
 40
90.0
  1
（鼻隠し外面）
  7
01
 72
     4
 11
3445.151034886404
 21
15018.3062111507
 31
0.0
100
AcDbText
  0
ARC
  5
2536C
330
239E6
100
AcDbEntity
  8
SUNPOU
370
     9
100
AcDbCircle
 10
6949.151034886402
 20
14313.3062111507
 30
0.0
 40
5.624999999998181
100
AcDbArc
 50
0.0
 51
180.0
  0
ARC
  5
2536D
330
239E6
100
AcDbEntity
  8
SUNPOU
370
     9
100
AcDbCircle
 10
6949.151034886402
 20
14313.3062111507
 30
0.0
 40
5.624999999998181
100
AcDbArc
 50
180.0
 51
0.0
  0
ARC
  5
2536E
330
239E6
100
AcDbEntity
  8
SUNPOU
370
     9
100
AcDbCircle
 10
6949.151034886402
 20
14313.3062111507
 30
0.0
 40
5.624999999998181
100
AcDbArc
 50
180.0
 51
0.0
  0
ARC
  5
2536F
330
239E6
100
AcDbEntity
  8
SUNPOU
370
     9
100
AcDbCircle
 10
6949.151034886402
 20
14313.3062111507
 30
0.0
 40
5.624999999998181
100
AcDbArc
 50
0.0
 51
180.0
  0
ARC
  5
25372
330
239E6
100
AcDbEntity
  8
SUNPOU
370
     9
100
AcDbCircle
 10
5249.151034886404
 20
14313.3062111507
 30
0.0
 40
5.625
100
AcDbArc
 50
0.0
 51
180.0
  0
ARC
  5
25373
330
239E6
100
AcDbEntity
  8
SUNPOU
370
     9
100
AcDbCircle
 10
5249.151034886404
 20
14313.3062111507
 30
0.0
 40
5.625
100
AcDbArc
 50
180.0
 51
0.0
  0
ARC
  5
25374
330
239E6
100
AcDbEntity
  8
SUNPOU
370
     9
100
AcDbCircle
 10
5249.151034886404
 20
14313.3062111507
 30
0.0
 40
5.625
100
AcDbArc
 50
180.0
 51
0.0
  0
ARC
  5
25375
330
239E6
100
AcDbEntity
  8
SUNPOU
370
     9
100
AcDbCircle
 10
5249.151034886404
 20
14313.3062111507
 30
0.0
 40
5.625
100
AcDbArc
 50
0.0
 51
180.0
  0
ARC
  5
25376
330
239E6
100
AcDbEntity
  8
SUNPOU
370
     9
100
AcDbCircle
 10
1749.151034886407
 20
14313.3062111507
 30
0.0
 40
5.625
100
AcDbArc
 50
0.0
 51
180.0
  0
ARC
  5
25377
330
239E6
100
AcDbEntity
  8
SUNPOU
370
     9
100
AcDbCircle
 10
1749.151034886407
 20
14313.3062111507
 30
0.0
 40
5.625
100
AcDbArc
 50
180.0
 51
0.0
  0
ARC
  5
25378
330
239E6
100
AcDbEntity
  8
SUNPOU
370
     9
100
AcDbCircle
 10
1749.151034886407
 20
14313.3062111507
 30
0.0
 40
5.625
100
AcDbArc
 50
180.0
 51
0.0
  0
ARC
  5
25379
330
239E6
100
AcDbEntity
  8
SUNPOU
370
     9
100
AcDbCircle
 10
1749.151034886407
 20
14313.3062111507
 30
0.0
 40
5.625
100
AcDbArc
 50
0.0
 51
180.0
  0
LINE
  5
2538A
330
239E6
100
AcDbEntity
  8
HASHIRA
  6
Continuous
370
     9
100
AcDbLine
 10
6981.651034886403
 20
16075.8062111507
 30
0.0
 11
6916.651034886402
 21
16075.8062111507
 31
0.0
  0
LINE
  5
2538B
330
239E6
100
AcDbEntity
  8
HASHIRA
  6
Continuous
370
     9
100
AcDbLine
 10
6916.651034886402
 20
16075.8062111507
 30
0.0
 11
6916.651034886402
 21
16150.8062111507
 31
0.0
  0
LINE
  5
2538C
330
239E6
100
AcDbEntity
  8
HASHIRA
  6
Continuous
370
     9
100
AcDbLine
 10
6916.651034886402
 20
16150.8062111507
 30
0.0
 11
6981.651034886403
 21
16150.8062111507
 31
0.0
  0
LINE
  5
2538D
330
239E6
100
AcDbEntity
  8
HASHIRA
  6
Continuous
370
     9
100
AcDbLine
 10
6981.651034886403
 20
16150.8062111507
 30
0.0
 11
6981.651034886403
 21
16075.8062111507
 31
0.0
  0
LINE
  5
25392
330
239E6
100
AcDbEntity
  8
HASHIRA
  6
Continuous
370
     9
100
AcDbLine
 10
5281.651034886402
 20
16075.8062111507
 30
0.0
 11
5216.651034886403
 21
16075.8062111507
 31
0.0
  0
LINE
  5
25393
330
239E6
100
AcDbEntity
  8
HASHIRA
  6
Continuous
370
     9
100
AcDbLine
 10
5216.651034886403
 20
16075.8062111507
 30
0.0
 11
5216.651034886403
 21
16150.8062111507
 31
0.0
  0
LINE
  5
25394
330
239E6
100
AcDbEntity
  8
HASHIRA
  6
Continuous
370
     9
100
AcDbLine
 10
5216.651034886403
 20
16150.8062111507
 30
0.0
 11
5281.651034886402
 21
16150.8062111507
 31
0.0
  0
LINE
  5
25395
330
239E6
100
AcDbEntity
  8
HASHIRA
  6
Continuous
370
     9
100
AcDbLine
 10
5281.651034886402
 20
16150.8062111507
 30
0.0
 11
5281.651034886402
 21
16075.8062111507
 31
0.0
  0
LINE
  5
2539A
330
239E6
100
AcDbEntity
  8
HASHIRA
  6
Continuous
370
     9
100
AcDbLine
 10
1781.65103488641
 20
16075.8062111507
 30
0.0
 11
1716.651034886414
 21
16075.8062111507
 31
0.0
  0
LINE
  5
2539B
330
239E6
100
AcDbEntity
  8
HASHIRA
  6
Continuous
370
     9
100
AcDbLine
 10
1716.651034886414
 20
16075.8062111507
 30
0.0
 11
1716.651034886414
 21
16150.8062111507
 31
0.0
  0
LINE
  5
2539C
330
239E6
100
AcDbEntity
  8
HASHIRA
  6
Continuous
370
     9
100
AcDbLine
 10
1716.651034886414
 20
16150.8062111507
 30
0.0
 11
1781.65103488641
 21
16150.8062111507
 31
0.0
  0
LINE
  5
2539D
330
239E6
100
AcDbEntity
  8
HASHIRA
  6
Continuous
370
     9
100
AcDbLine
 10
1781.65103488641
 20
16150.8062111507
 30
0.0
 11
1781.65103488641
 21
16075.8062111507
 31
0.0
  0
LINE
  5
253A2
330
239E6
100
AcDbEntity
  8
SUNPOU
370
     9
100
AcDbLine
 10
1374.151034886399
 20
15071.50224158788
 30
0.0
 11
1374.151034886399
 21
14073.3062111507
 31
0.0
  0
LINE
  5
253A3
330
239E6
100
AcDbEntity
  8
2PL-M2
370
     9
100
AcDbLine
 10
1328.15103488641
 20
17133.3062111507
 30
0.0
 11
1328.15103488641
 21
15108.3062111507
 31
0.0
  0
LINE
  5
253A4
330
239E6
100
AcDbEntity
  8
U3
370
     9
100
AcDbLine
 10
1374.151034886399
 20
14713.3062111507
 30
0.0
 11
1374.151034886399
 21
17313.3062111507
 31
0.0
  0
TEXT
  5
253A5
330
239E6
100
AcDbEntity
  8
SUNPOU
370
     9
100
AcDbText
 10
1473.463191689795
 20
14358.3062111507
 30
0.0
 40
90.0
  1
375
 41
0.6666666666666666
  7
00
 72
     4
 11
1559.177477404081
 21
14403.3062111507
 31
0.0
100
AcDbText
  0
LINE
  5
253A6
330
239E6
100
AcDbEntity
  8
SUNPOU
370
     9
100
AcDbLine
 10
1385.401034886399
 20
14103.3062111507
 30
0.0
 11
1396.651034886399
 21
14103.3062111507
 31
0.0
  0
LINE
  5
253A7
330
239E6
100
AcDbEntity
  8
SUNPOU
370
     9
100
AcDbLine
 10
1385.401034886399
 20
14313.3062111507
 30
0.0
 11
1396.651034886399
 21
14313.3062111507
 31
0.0
  0
ARC
  5
253A8
330
239E6
100
AcDbEntity
  8
SUNPOU
370
     9
100
AcDbCircle
 10
1374.151034886399
 20
14313.3062111507
 30
0.0
 40
5.625
100
AcDbArc
 50
0.0
 51
180.0
  0
ARC
  5
253A9
330
239E6
100
AcDbEntity
  8
SUNPOU
370
     9
100
AcDbCircle
 10
1374.151034886399
 20
14313.3062111507
 30
0.0
 40
5.625
100
AcDbArc
 50
180.0
 51
0.0
  0
ARC
  5
253AA
330
239E6
100
AcDbEntity
  8
SUNPOU
370
     9
100
AcDbCircle
 10
1374.151034886399
 20
14103.3062111507
 30
0.0
 40
5.625
100
AcDbArc
 50
0.0
 51
180.0
  0
ARC
  5
253AB
330
239E6
100
AcDbEntity
  8
SUNPOU
370
     9
100
AcDbCircle
 10
1374.151034886399
 20
14103.3062111507
 30
0.0
 40
5.625
100
AcDbArc
 50
180.0
 51
0.0
  0
LINE
  5
253AC
330
239E6
100
AcDbEntity
  8
U2
370
     9
100
AcDbLine
 10
1374.15103488641
 20
15738.3062111507
 30
0.0
 11
2124.151034886399
 21
15738.3062111507
 31
0.0
  0
LINE
  5
253AD
330
239E6
100
AcDbEntity
  8
U2
370
     9
100
AcDbLine
 10
2124.151034886399
 20
15738.3062111507
 30
0.0
 11
2124.151034886399
 21
16488.3062111507
 31
0.0
  0
LINE
  5
253AE
330
239E6
100
AcDbEntity
  8
U2
370
     9
100
AcDbLine
 10
2124.151034886399
 20
16488.3062111507
 30
0.0
 11
1374.15103488641
 21
16488.3062111507
 31
0.0
  0
LINE
  5
253AF
330
239E6
100
AcDbEntity
  8
U2
370
     9
100
AcDbLine
 10
1374.15103488641
 20
16488.3062111507
 30
0.0
 11
1374.15103488641
 21
15738.3062111507
 31
0.0
  0
LINE
  5
253B0
330
239E6
100
AcDbEntity
  8
U2
370
     9
100
AcDbLine
 10
6574.151034886402
 20
15738.3062111507
 30
0.0
 11
7324.151034886402
 21
15738.3062111507
 31
0.0
  0
LINE
  5
253B1
330
239E6
100
AcDbEntity
  8
U2
370
     9
100
AcDbLine
 10
7324.151034886402
 20
15738.3062111507
 30
0.0
 11
7324.151034886402
 21
16488.30621115069
 31
0.0
  0
LINE
  5
253B2
330
239E6
100
AcDbEntity
  8
U2
370
     9
100
AcDbLine
 10
7324.151034886402
 20
16488.30621115069
 30
0.0
 11
6574.151034886402
 21
16488.30621115069
 31
0.0
  0
LINE
  5
253B3
330
239E6
100
AcDbEntity
  8
U2
370
     9
100
AcDbLine
 10
6574.151034886402
 20
16488.3062111507
 30
0.0
 11
6574.151034886402
 21
15738.3062111507
 31
0.0
  0
LINE
  5
253B4
330
239E6
100
AcDbEntity
  8
U2
370
     9
100
AcDbLine
 10
4874.151034886403
 20
15738.3062111507
 30
0.0
 11
5624.151034886402
 21
15738.3062111507
 31
0.0
  0
LINE
  5
253B5
330
239E6
100
AcDbEntity
  8
U2
370
     9
100
AcDbLine
 10
5624.151034886402
 20
15738.3062111507
 30
0.0
 11
5624.151034886402
 21
16488.3062111507
 31
0.0
  0
LINE
  5
253B6
330
239E6
100
AcDbEntity
  8
U2
370
     9
100
AcDbLine
 10
5624.151034886402
 20
16488.3062111507
 30
0.0
 11
4874.151034886403
 21
16488.3062111507
 31
0.0
  0
LINE
  5
253B7
330
239E6
100
AcDbEntity
  8
U2
370
     9
100
AcDbLine
 10
4874.151034886403
 20
16488.3062111507
 30
0.0
 11
4874.151034886403
 21
15738.3062111507
 31
0.0
  0
LINE
  5
253BF
330
239E6
100
AcDbEntity
  8
SUNPOU
370
     9
100
AcDbLine
 10
10824.1510348864
 20
15071.50224158788
 30
0.0
 11
10824.1510348864
 21
14073.3062111507
 31
0.0
  0
LINE
  5
253C0
330
239E6
100
AcDbEntity
  8
1PL-S1
370
     9
100
AcDbLine
 10
11158.35613474512
 20
16113.30621115069
 30
0.0
 11
11364.1510348864
 21
16113.3062111507
 31
0.0
  0
TEXT
  5
253C1
330
239E6
100
AcDbEntity
  8
SUNPOU
370
     9
100
AcDbText
 10
11289.1510348864
 20
15294.73478257927
 30
0.0
 40
90.0
  1
1400
 50
90.0
 41
0.6666666666666666
  7
00
 72
     1
 11
11244.1510348864
 21
15413.3062111507
 31
0.0
100
AcDbText
 73
     2
  0
TEXT
  5
253C2
330
239E6
100
AcDbEntity
  8
SUNPOU
370
     9
100
AcDbText
 10
11289.1510348864
 20
16594.73478257927
 30
0.0
 40
90.0
  1
1200
 50
90.0
 41
0.6666666666666666
  7
00
 72
     1
 11
11244.1510348864
 21
16713.3062111507
 31
0.0
100
AcDbText
 73
     2
  0
LINE
  5
253C3
330
239E6
100
AcDbEntity
  8
SUNPOU
370
     9
100
AcDbLine
 10
10854.1510348864
 20
14713.3062111507
 30
0.0
 11
11574.1510348864
 21
14713.3062111507
 31
0.0
  0
LINE
  5
253C4
330
239E6
100
AcDbEntity
  8
SUNPOU
370
     9
100
AcDbLine
 10
10854.1510348864
 20
17313.3062111507
 30
0.0
 11
11574.1510348864
 21
17313.3062111507
 31
0.0
  0
LINE
  5
253C5
330
239E6
100
AcDbEntity
  8
2PL-M2
370
     9
100
AcDbLine
 10
10870.1510348864
 20
17133.3062111507
 30
0.0
 11
10870.1510348864
 21
15108.3062111507
 31
0.0
  0
LINE
  5
253C6
330
239E6
100
AcDbEntity
  8
U3
370
     9
100
AcDbLine
 10
10824.1510348864
 20
14713.3062111507
 30
0.0
 11
10824.1510348864
 21
17313.3062111507
 31
0.0
  0
TEXT
  5
253C7
330
239E6
100
AcDbEntity
  8
SUNPOU
370
     9
100
AcDbText
 10
10363.43674917212
 20
15483.3062111507
 30
0.0
 40
90.0
  1
750
 41
0.6666666666666666
  7
00
 72
     1
 11
10449.15103488641
 21
15528.3062111507
 31
0.0
100
AcDbText
 73
     2
  0
LINE
  5
253C8
330
239E6
100
AcDbEntity
  8
SUNPOU
370
     9
100
AcDbLine
 10
10074.1510348864
 20
15708.3062111507
 30
0.0
 11
10074.1510348864
 21
15408.3062111507
 31
0.0
  0
LINE
  5
253C9
330
239E6
100
AcDbEntity
  8
SUNPOU
370
     9
100
AcDbLine
 10
10074.1510348864
 20
15438.3062111507
 30
0.0
 11
10824.1510348864
 21
15438.3062111507
 31
0.0
  0
LINE
  5
253CA
330
239E6
100
AcDbEntity
  8
SUNPOU
370
     9
100
AcDbLine
 10
10449.15103488641
 20
15401.67338962024
 30
0.0
 11
10449.15103488641
 21
14283.3062111507
 31
0.0
  0
LINE
  5
253CB
330
239E6
100
AcDbEntity
  8
SUNPOU
370
     9
100
AcDbLine
 10
10449.15103488641
 20
15071.50224158788
 30
0.0
 11
10449.15103488641
 21
14283.3062111507
 31
0.0
  0
LINE
  5
253CC
330
239E6
100
AcDbEntity
  8
SUNPOU
370
     9
100
AcDbLine
 10
10464.1510348864
 20
14313.3062111507
 30
0.0
 11
10824.1510348864
 21
14313.3062111507
 31
0.0
  0
TEXT
  5
253CD
330
239E6
100
AcDbEntity
  8
SUNPOU
370
     9
100
AcDbText
 10
10549.45721533142
 20
14358.3062111507
 30
0.0
 40
90.0
  1
375
 41
0.6666666666666666
  7
00
 72
     4
 11
10635.17150104571
 21
14403.3062111507
 31
0.0
100
AcDbText
  0
LINE
  5
253CE
330
239E6
100
AcDbEntity
  8
HIKIDASHI
370
     9
100
AcDbLine
 10
10386.65103488639
 20
16202.76773537776
 30
0.0
 11
10174.27855803521
 21
16570.60765541311
 31
0.0
  0
LINE
  5
253CF
330
239E6
100
AcDbEntity
  8
HIKIDASHI
370
     9
100
AcDbLine
 10
10030.27855803521
 20
16570.60765541311
 30
0.0
 11
10174.27855803521
 21
16570.60765541311
 31
0.0
  0
TEXT
  5
253D0
330
239E6
100
AcDbEntity
  8
HIKIDASHI
370
     9
100
AcDbText
 10
10060.27855803521
 20
16615.60765541311
 30
0.0
 40
90.0
  1
柱
  7
01
 72
     2
 11
10144.27855803521
 21
16660.60765541311
 31
0.0
100
AcDbText
 73
     2
  0
TEXT
  5
253D1
330
239E6
100
AcDbEntity
  8
SUNPOU
370
     9
100
AcDbText
 10
10614.85705045189
 20
16174.93478257927
 30
0.0
 40
90.0
  1
75
 50
90.0
 41
0.6666666666666666
  7
00
 72
     1
 11
10569.85705045189
 21
16232.07763972213
 31
0.0
100
AcDbText
 73
     2
  0
LINE
  5
253D2
330
239E6
100
AcDbEntity
  8
SUNPOU
370
     9
100
AcDbLine
 10
10659.85705045189
 20
16180.8062111507
 30
0.0
 11
10659.85705045189
 21
16280.64906829355
 31
0.0
  0
LINE
  5
253D3
330
239E6
100
AcDbEntity
  8
1PL-M1
370
     9
100
AcDbLine
 10
10449.15103488641
 20
15638.02835072503
 30
0.0
 11
10449.15103488641
 21
16513.3062111507
 31
0.0
  0
LINE
  5
253D4
330
239E6
100
AcDbEntity
  8
SUNPOU
370
     9
100
AcDbLine
 10
10416.65103488641
 20
16045.8062111507
 30
0.0
 11
10416.65103488641
 21
15869.36336726505
 31
0.0
  0
LINE
  5
253D5
330
239E6
100
AcDbEntity
  8
SUNPOU
370
     9
100
AcDbLine
 10
10481.6510348864
 20
16045.8062111507
 30
0.0
 11
10481.6510348864
 21
15869.36336726505
 31
0.0
  0
LINE
  5
253D6
330
239E6
100
AcDbEntity
  8
SUNPOU
370
     9
100
AcDbLine
 10
10511.6510348864
 20
16150.8062111507
 30
0.0
 11
10689.85705045189
 21
16150.8062111507
 31
0.0
  0
LINE
  5
253D7
330
239E6
100
AcDbEntity
  8
SUNPOU
370
     9
100
AcDbLine
 10
10511.6510348864
 20
16075.8062111507
 30
0.0
 11
10689.85705045189
 21
16075.8062111507
 31
0.0
  0
LINE
  5
253D8
330
239E6
100
AcDbEntity
  8
SUNPOU
370
     9
100
AcDbLine
 10
10401.6510348864
 20
15899.36336726505
 30
0.0
 11
10386.6510348864
 21
15899.36336726505
 31
0.0
  0
TEXT
  5
253D9
330
239E6
100
AcDbEntity
  8
SUNPOU
370
     9
100
AcDbText
 10
10278.23674917212
 20
15944.36336726505
 30
0.0
 40
90.0
  1
65
 41
0.6666666666666666
  7
00
 72
     1
 11
10336.80817774355
 21
15989.36336726505
 31
0.0
100
AcDbText
 73
     2
  0
LINE
  5
253DA
330
239E6
100
AcDbEntity
  8
SUNPOU
370
     9
100
AcDbLine
 10
10386.6510348864
 20
15899.36336726505
 30
0.0
 11
10289.6653206007
 21
15899.36336726505
 31
0.0
  0
LINE
  5
253DB
330
239E6
100
AcDbEntity
  8
SUNPOU
370
     9
100
AcDbLine
 10
10466.6510348864
 20
15899.36336726505
 30
0.0
 11
10416.65103488641
 21
15899.36336726505
 31
0.0
  0
SOLID
  5
253DC
330
239E6
100
AcDbEntity
  8
HIKIDASHI
370
     9
100
AcDbTrace
 10
10395.31128892422
 20
16207.76773537776
 30
0.0
 11
10377.99078084854
 21
16197.76773537776
 31
0.0
 12
10416.65103488641
 22
16150.8062111507
 32
0.0
 13
10416.65103488641
 23
16150.8062111507
 33
0.0
  0
LINE
  5
253DD
330
239E6
100
AcDbEntity
  8
SUNPOU
370
     9
100
AcDbLine
 10
10659.85705045189
 20
16165.8062111507
 30
0.0
 11
10659.85705045189
 21
16180.8062111507
 31
0.0
  0
LINE
  5
253DE
330
239E6
100
AcDbEntity
  8
SUNPOU
370
     9
100
AcDbLine
 10
10659.85705045189
 20
16090.8062111507
 30
0.0
 11
10659.85705045189
 21
16150.8062111507
 31
0.0
  0
LINE
  5
253DF
330
239E6
100
AcDbEntity
  8
SUNPOU
370
     9
100
AcDbLine
 10
11334.1510348864
 20
17298.3062111507
 30
0.0
 11
11334.1510348864
 21
16128.3062111507
 31
0.0
  0
LINE
  5
253E0
330
239E6
100
AcDbEntity
  8
SUNPOU
370
     9
100
AcDbLine
 10
11544.1510348864
 20
17298.3062111507
 30
0.0
 11
11544.1510348864
 21
14728.3062111507
 31
0.0
  0
LINE
  5
253E1
330
239E6
100
AcDbEntity
  8
SUNPOU
370
     9
100
AcDbLine
 10
11334.1510348864
 20
16098.3062111507
 30
0.0
 11
11334.1510348864
 21
14728.3062111507
 31
0.0
  0
TEXT
  5
253E2
330
239E6
100
AcDbEntity
  8
SUNPOU
370
     9
100
AcDbText
 10
11499.1510348864
 20
15899.02049686499
 30
0.0
 40
90.0
  1
2600
 50
90.0
 41
0.6666666666666666
  7
00
 72
     1
 11
11454.1510348864
 21
16013.3062111507
 31
0.0
100
AcDbText
 73
     2
  0
LINE
  5
253E3
330
239E6
100
AcDbEntity
  8
SUNPOU
370
     9
100
AcDbLine
 10
10812.9010348864
 20
14103.3062111507
 30
0.0
 11
10801.6510348864
 21
14103.3062111507
 31
0.0
  0
LINE
  5
253E4
330
239E6
100
AcDbEntity
  8
SUNPOU
370
     9
100
AcDbLine
 10
10437.9010348864
 20
14313.3062111507
 30
0.0
 11
10426.6510348864
 21
14313.3062111507
 31
0.0
  0
LINE
  5
253E5
330
239E6
100
AcDbEntity
  8
SUNPOU
370
     9
100
AcDbLine
 10
10460.4010348864
 20
14313.3062111507
 30
0.0
 11
10471.6510348864
 21
14313.3062111507
 31
0.0
  0
LINE
  5
253E6
330
239E6
100
AcDbEntity
  8
SUNPOU
370
     9
100
AcDbLine
 10
10085.40103488642
 20
15438.3062111507
 30
0.0
 11
10096.6510348864
 21
15438.3062111507
 31
0.0
  0
LINE
  5
253E7
330
239E6
100
AcDbEntity
  8
SUNPOU
370
     9
100
AcDbLine
 10
10470.4010348864
 20
15899.36336726505
 30
0.0
 11
10459.1510348864
 21
15899.36336726505
 31
0.0
  0
LINE
  5
253E8
330
239E6
100
AcDbEntity
  8
SUNPOU
370
     9
100
AcDbLine
 10
10405.4010348864
 20
15899.36336726505
 30
0.0
 11
10394.1510348864
 21
15899.36336726505
 31
0.0
  0
LINE
  5
253E9
330
239E6
100
AcDbEntity
  8
SUNPOU
370
     9
100
AcDbLine
 10
10812.9010348864
 20
14313.3062111507
 30
0.0
 11
10801.6510348864
 21
14313.3062111507
 31
0.0
  0
LINE
  5
253EA
330
239E6
100
AcDbEntity
  8
SUNPOU
370
     9
100
AcDbLine
 10
11334.1510348864
 20
14724.5562111507
 30
0.0
 11
11334.1510348864
 21
14735.8062111507
 31
0.0
  0
LINE
  5
253EB
330
239E6
100
AcDbEntity
  8
SUNPOU
370
     9
100
AcDbLine
 10
11544.1510348864
 20
14724.5562111507
 30
0.0
 11
11544.1510348864
 21
14735.8062111507
 31
0.0
  0
LINE
  5
253EC
330
239E6
100
AcDbEntity
  8
SUNPOU
370
     9
100
AcDbLine
 10
10812.9010348864
 20
15438.3062111507
 30
0.0
 11
10801.6510348864
 21
15438.3062111507
 31
0.0
  0
LINE
  5
253ED
330
239E6
100
AcDbEntity
  8
SUNPOU
370
     9
100
AcDbLine
 10
10854.1510348864
 20
16488.3062111507
 30
0.0
 11
11154.1510348864
 21
16488.3062111507
 31
0.0
  0
LINE
  5
253EE
330
239E6
100
AcDbEntity
  8
SUNPOU
370
     9
100
AcDbLine
 10
10854.1510348864
 20
15738.3062111507
 30
0.0
 11
11154.1510348864
 21
15738.3062111507
 31
0.0
  0
LINE
  5
253EF
330
239E6
100
AcDbEntity
  8
SUNPOU
370
     9
100
AcDbLine
 10
11124.1510348864
 20
16488.3062111507
 30
0.0
 11
11124.15103488641
 21
15738.3062111507
 31
0.0
  0
TEXT
  5
253F0
330
239E6
100
AcDbEntity
  8
SUNPOU
370
     9
100
AcDbText
 10
11079.1510348864
 20
16027.59192543642
 30
0.0
 40
90.0
  1
750
 50
90.0
 41
0.6666666666666666
  7
00
100
AcDbText
  0
LINE
  5
253F1
330
239E6
100
AcDbEntity
  8
SUNPOU
370
     9
100
AcDbLine
 10
10659.85705045189
 20
16087.0562111507
 30
0.0
 11
10659.85705045189
 21
16098.3062111507
 31
0.0
  0
LINE
  5
253F2
330
239E6
100
AcDbEntity
  8
SUNPOU
370
     9
100
AcDbLine
 10
10659.85705045189
 20
16162.0562111507
 30
0.0
 11
10659.85705045189
 21
16173.3062111507
 31
0.0
  0
LINE
  5
253F3
330
239E6
100
AcDbEntity
  8
SUNPOU
370
     9
100
AcDbLine
 10
11334.1510348864
 20
16124.5562111507
 30
0.0
 11
11334.1510348864
 21
16135.8062111507
 31
0.0
  0
LINE
  5
253F4
330
239E6
100
AcDbEntity
  8
SUNPOU
370
     9
100
AcDbLine
 10
11334.1510348864
 20
16102.0562111507
 30
0.0
 11
11334.1510348864
 21
16090.8062111507
 31
0.0
  0
LINE
  5
253F5
330
239E6
100
AcDbEntity
  8
SUNPOU
370
     9
100
AcDbLine
 10
11334.1510348864
 20
17302.0562111507
 30
0.0
 11
11334.1510348864
 21
17290.8062111507
 31
0.0
  0
LINE
  5
253F6
330
239E6
100
AcDbEntity
  8
SUNPOU
370
     9
100
AcDbLine
 10
11544.1510348864
 20
17302.0562111507
 30
0.0
 11
11544.1510348864
 21
17290.8062111507
 31
0.0
  0
ARC
  5
253F7
330
239E6
100
AcDbEntity
  8
SUNPOU
370
     9
100
AcDbCircle
 10
11544.1510348864
 20
17313.30621115069
 30
0.0
 40
5.625000000001816
100
AcDbArc
 50
270.0
 51
90.0
  0
ARC
  5
253F8
330
239E6
100
AcDbEntity
  8
SUNPOU
370
     9
100
AcDbCircle
 10
11544.1510348864
 20
17313.30621115069
 30
0.0
 40
5.625000000001816
100
AcDbArc
 50
90.0
 51
270.0
  0
ARC
  5
253F9
330
239E6
100
AcDbEntity
  8
SUNPOU
370
     9
100
AcDbCircle
 10
11334.1510348864
 20
17313.30621115069
 30
0.0
 40
5.625000000001816
100
AcDbArc
 50
270.0
 51
90.0
  0
ARC
  5
253FA
330
239E6
100
AcDbEntity
  8
SUNPOU
370
     9
100
AcDbCircle
 10
11334.1510348864
 20
17313.30621115069
 30
0.0
 40
5.625000000001816
100
AcDbArc
 50
90.0
 51
270.0
  0
ARC
  5
253FB
330
239E6
100
AcDbEntity
  8
SUNPOU
370
     9
100
AcDbCircle
 10
11334.1510348864
 20
16113.3062111507
 30
0.0
 40
5.625
100
AcDbArc
 50
270.0
 51
90.0
  0
ARC
  5
253FC
330
239E6
100
AcDbEntity
  8
SUNPOU
370
     9
100
AcDbCircle
 10
11334.1510348864
 20
16113.3062111507
 30
0.0
 40
5.625
100
AcDbArc
 50
90.0
 51
270.0
  0
ARC
  5
253FD
330
239E6
100
AcDbEntity
  8
SUNPOU
370
     9
100
AcDbCircle
 10
11334.1510348864
 20
16113.3062111507
 30
0.0
 40
5.625
100
AcDbArc
 50
90.0
 51
270.0
  0
ARC
  5
253FE
330
239E6
100
AcDbEntity
  8
SUNPOU
370
     9
100
AcDbCircle
 10
11334.1510348864
 20
16113.3062111507
 30
0.0
 40
5.625
100
AcDbArc
 50
270.0
 51
90.0
  0
ARC
  5
253FF
330
239E6
100
AcDbEntity
  8
SUNPOU
370
     9
100
AcDbCircle
 10
10659.85705045189
 20
16150.8062111507
 30
0.0
 40
5.625
100
AcDbArc
 50
90.0
 51
270.0
  0
ARC
  5
25400
330
239E6
100
AcDbEntity
  8
SUNPOU
370
     9
100
AcDbCircle
 10
10659.85705045189
 20
16150.8062111507
 30
0.0
 40
5.625
100
AcDbArc
 50
270.0
 51
90.0
  0
ARC
  5
25401
330
239E6
100
AcDbEntity
  8
SUNPOU
370
     9
100
AcDbCircle
 10
10659.85705045189
 20
16075.8062111507
 30
0.0
 40
5.625
100
AcDbArc
 50
90.0
 51
270.0
  0
ARC
  5
25402
330
239E6
100
AcDbEntity
  8
SUNPOU
370
     9
100
AcDbCircle
 10
10659.85705045189
 20
16075.8062111507
 30
0.0
 40
5.625
100
AcDbArc
 50
270.0
 51
90.0
  0
LINE
  5
25403
330
239E6
100
AcDbEntity
  8
SUNPOU
370
     9
100
AcDbLine
 10
11124.1510348864
 20
15749.5562111507
 30
0.0
 11
11124.1510348864
 21
15760.8062111507
 31
0.0
  0
LINE
  5
25404
330
239E6
100
AcDbEntity
  8
SUNPOU
370
     9
100
AcDbLine
 10
11124.1510348864
 20
16477.0562111507
 30
0.0
 11
11124.1510348864
 21
16465.8062111507
 31
0.0
  0
ARC
  5
25405
330
239E6
100
AcDbEntity
  8
SUNPOU
370
     9
100
AcDbCircle
 10
10824.1510348864
 20
15438.3062111507
 30
0.0
 40
5.625
100
AcDbArc
 50
180.0
 51
0.0
  0
ARC
  5
25406
330
239E6
100
AcDbEntity
  8
SUNPOU
370
     9
100
AcDbCircle
 10
10824.1510348864
 20
15438.3062111507
 30
0.0
 40
5.625
100
AcDbArc
 50
0.0
 51
180.0
  0
ARC
  5
25407
330
239E6
100
AcDbEntity
  8
SUNPOU
370
     9
100
AcDbCircle
 10
11544.1510348864
 20
14713.3062111507
 30
0.0
 40
5.625
100
AcDbArc
 50
90.0
 51
270.0
  0
ARC
  5
25408
330
239E6
100
AcDbEntity
  8
SUNPOU
370
     9
100
AcDbCircle
 10
11544.1510348864
 20
14713.3062111507
 30
0.0
 40
5.625
100
AcDbArc
 50
270.0
 51
90.0
  0
ARC
  5
25409
330
239E6
100
AcDbEntity
  8
SUNPOU
370
     9
100
AcDbCircle
 10
11334.1510348864
 20
14713.3062111507
 30
0.0
 40
5.625
100
AcDbArc
 50
90.0
 51
270.0
  0
ARC
  5
2540A
330
239E6
100
AcDbEntity
  8
SUNPOU
370
     9
100
AcDbCircle
 10
11334.1510348864
 20
14713.3062111507
 30
0.0
 40
5.625
100
AcDbArc
 50
270.0
 51
90.0
  0
ARC
  5
2540B
330
239E6
100
AcDbEntity
  8
SUNPOU
370
     9
100
AcDbCircle
 10
10824.1510348864
 20
14313.3062111507
 30
0.0
 40
5.625
100
AcDbArc
 50
180.0
 51
0.0
  0
ARC
  5
2540C
330
239E6
100
AcDbEntity
  8
SUNPOU
370
     9
100
AcDbCircle
 10
10824.1510348864
 20
14313.3062111507
 30
0.0
 40
5.625
100
AcDbArc
 50
0.0
 51
180.0
  0
ARC
  5
2540D
330
239E6
100
AcDbEntity
  8
SUNPOU
370
     9
100
AcDbCircle
 10
10416.65103488641
 20
15899.36336726505
 30
0.0
 40
5.625
100
AcDbArc
 50
180.0
 51
0.0
  0
ARC
  5
2540E
330
239E6
100
AcDbEntity
  8
SUNPOU
370
     9
100
AcDbCircle
 10
10416.65103488641
 20
15899.36336726505
 30
0.0
 40
5.625
100
AcDbArc
 50
0.0
 51
180.0
  0
ARC
  5
2540F
330
239E6
100
AcDbEntity
  8
SUNPOU
370
     9
100
AcDbCircle
 10
10481.6510348864
 20
15899.36336726505
 30
0.0
 40
5.625
100
AcDbArc
 50
180.0
 51
0.0
  0
ARC
  5
25410
330
239E6
100
AcDbEntity
  8
SUNPOU
370
     9
100
AcDbCircle
 10
10481.6510348864
 20
15899.36336726505
 30
0.0
 40
5.625
100
AcDbArc
 50
0.0
 51
180.0
  0
ARC
  5
25411
330
239E6
100
AcDbEntity
  8
SUNPOU
370
     9
100
AcDbCircle
 10
10074.1510348864
 20
15438.3062111507
 30
0.0
 40
5.625
100
AcDbArc
 50
0.0
 51
180.0
  0
ARC
  5
25412
330
239E6
100
AcDbEntity
  8
SUNPOU
370
     9
100
AcDbCircle
 10
10074.1510348864
 20
15438.3062111507
 30
0.0
 40
5.625
100
AcDbArc
 50
180.0
 51
0.0
  0
ARC
  5
25413
330
239E6
100
AcDbEntity
  8
SUNPOU
370
     9
100
AcDbCircle
 10
10449.15103488641
 20
14313.3062111507
 30
0.0
 40
5.625
100
AcDbArc
 50
0.0
 51
180.0
  0
ARC
  5
25414
330
239E6
100
AcDbEntity
  8
SUNPOU
370
     9
100
AcDbCircle
 10
10449.15103488641
 20
14313.3062111507
 30
0.0
 40
5.625
100
AcDbArc
 50
180.0
 51
0.0
  0
ARC
  5
25415
330
239E6
100
AcDbEntity
  8
SUNPOU
370
     9
100
AcDbCircle
 10
10449.15103488641
 20
14313.3062111507
 30
0.0
 40
5.625
100
AcDbArc
 50
180.0
 51
0.0
  0
ARC
  5
25416
330
239E6
100
AcDbEntity
  8
SUNPOU
370
     9
100
AcDbCircle
 10
10449.15103488641
 20
14313.3062111507
 30
0.0
 40
5.625
100
AcDbArc
 50
0.0
 51
180.0
  0
ARC
  5
25417
330
239E6
100
AcDbEntity
  8
SUNPOU
370
     9
100
AcDbCircle
 10
10824.1510348864
 20
14103.3062111507
 30
0.0
 40
5.625
100
AcDbArc
 50
180.0
 51
0.0
  0
ARC
  5
25418
330
239E6
100
AcDbEntity
  8
SUNPOU
370
     9
100
AcDbCircle
 10
10824.1510348864
 20
14103.3062111507
 30
0.0
 40
5.625
100
AcDbArc
 50
0.0
 51
180.0
  0
ARC
  5
25419
330
239E6
100
AcDbEntity
  8
SUNPOU
370
     9
100
AcDbCircle
 10
11124.1510348864
 20
16488.3062111507
 30
0.0
 40
5.625
100
AcDbArc
 50
270.0
 51
90.0
  0
ARC
  5
2541A
330
239E6
100
AcDbEntity
  8
SUNPOU
370
     9
100
AcDbCircle
 10
11124.1510348864
 20
16488.3062111507
 30
0.0
 40
5.625
100
AcDbArc
 50
90.0
 51
270.0
  0
ARC
  5
2541B
330
239E6
100
AcDbEntity
  8
SUNPOU
370
     9
100
AcDbCircle
 10
11124.1510348864
 20
15738.3062111507
 30
0.0
 40
5.625
100
AcDbArc
 50
90.0
 51
270.0
  0
ARC
  5
2541C
330
239E6
100
AcDbEntity
  8
SUNPOU
370
     9
100
AcDbCircle
 10
11124.1510348864
 20
15738.3062111507
 30
0.0
 40
5.625
100
AcDbArc
 50
270.0
 51
90.0
  0
LINE
  5
2541D
330
239E6
100
AcDbEntity
  8
HASHIRA
  6
Continuous
370
     9
100
AcDbLine
 10
10481.6510348864
 20
16075.8062111507
 30
0.0
 11
10416.65103488641
 21
16075.8062111507
 31
0.0
  0
LINE
  5
2541E
330
239E6
100
AcDbEntity
  8
HASHIRA
  6
Continuous
370
     9
100
AcDbLine
 10
10416.65103488641
 20
16075.8062111507
 30
0.0
 11
10416.65103488641
 21
16150.8062111507
 31
0.0
  0
LINE
  5
2541F
330
239E6
100
AcDbEntity
  8
HASHIRA
  6
Continuous
370
     9
100
AcDbLine
 10
10416.65103488641
 20
16150.8062111507
 30
0.0
 11
10481.6510348864
 21
16150.8062111507
 31
0.0
  0
LINE
  5
25420
330
239E6
100
AcDbEntity
  8
HASHIRA
  6
Continuous
370
     9
100
AcDbLine
 10
10481.6510348864
 20
16150.8062111507
 30
0.0
 11
10481.6510348864
 21
16075.8062111507
 31
0.0
  0
LINE
  5
25421
330
239E6
100
AcDbEntity
  8
U2
370
     9
100
AcDbLine
 10
10074.1510348864
 20
15738.3062111507
 30
0.0
 11
10824.1510348864
 21
15738.3062111507
 31
0.0
  0
LINE
  5
25422
330
239E6
100
AcDbEntity
  8
U2
370
     9
100
AcDbLine
 10
10824.1510348864
 20
15738.3062111507
 30
0.0
 11
10824.1510348864
 21
16488.3062111507
 31
0.0
  0
LINE
  5
25423
330
239E6
100
AcDbEntity
  8
U2
370
     9
100
AcDbLine
 10
10824.1510348864
 20
16488.3062111507
 30
0.0
 11
10074.1510348864
 21
16488.3062111507
 31
0.0
  0
LINE
  5
25424
330
239E6
100
AcDbEntity
  8
U2
370
     9
100
AcDbLine
 10
10074.1510348864
 20
16488.3062111507
 30
0.0
 11
10074.1510348864
 21
15738.3062111507
 31
0.0
  0
ENDSEC
  0
SECTION
  2
OBJECTS
  0
DICTIONARY
  5
23987
330
0
100
AcDbDictionary
281
     1
  3
ACAD_COLOR
350
239DD
  3
ACAD_GROUP
350
23988
  3
ACAD_LAYOUT
350
239DC
  3
ACAD_MATERIAL
350
2398B
  3
ACAD_MLEADERSTYLE
350
239E0
  3
ACAD_MLINESTYLE
350
239D9
  3
ACAD_PLOTSETTINGS
350
239DB
  3
ACAD_PLOTSTYLENAME
350
23989
  3
ACAD_SCALELIST
350
239BD
  3
ACAD_TABLESTYLE
350
239DE
  3
ACAD_VISUALSTYLE
350
239A4
  3
ACDB_RECOMPOSE_DATA
350
25503
  3
AcDbVariableDictionary
350
25459
  0
DICTIONARY
  5
23A1E
330
2397D
100
AcDbDictionary
280
     1
281
     1
  3
ACAD_LAYERSTATES
360
23A1F
  0
DICTIONARY
  5
2542E
330
239CF
100
AcDbDictionary
280
     1
281
     1
  3
ADSK_XREC_LAYER_RECONCILED
360
2542F
  0
DICTIONARY
  5
25430
330
239EA
100
AcDbDictionary
280
     1
281
     1
  3
ADSK_XREC_LAYER_RECONCILED
360
25431
  0
DICTIONARY
  5
25432
330
239F0
100
AcDbDictionary
280
     1
281
     1
  3
ADSK_XREC_LAYER_RECONCILED
360
25433
  0
DICTIONARY
  5
25434
330
239F1
100
AcDbDictionary
280
     1
281
     1
  3
ADSK_XREC_LAYER_RECONCILED
360
25435
  0
DICTIONARY
  5
25436
330
239F2
100
AcDbDictionary
280
     1
281
     1
  3
ADSK_XREC_LAYER_RECONCILED
360
25437
  0
DICTIONARY
  5
25438
330
239F3
100
AcDbDictionary
280
     1
281
     1
  3
ADSK_XREC_LAYER_RECONCILED
360
25439
  0
DICTIONARY
  5
2543A
330
239F4
100
AcDbDictionary
280
     1
281
     1
  3
ADSK_XREC_LAYER_RECONCILED
360
2543B
  0
DICTIONARY
  5
2543C
330
239F5
100
AcDbDictionary
280
     1
281
     1
  3
ADSK_XREC_LAYER_RECONCILED
360
2543D
  0
DICTIONARY
  5
2543E
330
239F6
100
AcDbDictionary
280
     1
281
     1
  3
ADSK_XREC_LAYER_RECONCILED
360
2543F
  0
DICTIONARY
  5
25440
330
239F7
100
AcDbDictionary
280
     1
281
     1
  3
ADSK_XREC_LAYER_RECONCILED
360
25441
  0
DICTIONARY
  5
25442
330
239F8
100
AcDbDictionary
280
     1
281
     1
  3
ADSK_XREC_LAYER_RECONCILED
360
25443
  0
DICTIONARY
  5
25444
330
239F9
100
AcDbDictionary
280
     1
281
     1
  3
ADSK_XREC_LAYER_RECONCILED
360
25445
  0
DICTIONARY
  5
25446
330
239FA
100
AcDbDictionary
280
     1
281
     1
  3
ADSK_XREC_LAYER_RECONCILED
360
25447
  0
DICTIONARY
  5
25448
330
239FB
100
AcDbDictionary
280
     1
281
     1
  3
ADSK_XREC_LAYER_RECONCILED
360
25449
  0
DICTIONARY
  5
2544A
330
239FC
100
AcDbDictionary
280
     1
281
     1
  3
ADSK_XREC_LAYER_RECONCILED
360
2544B
  0
DICTIONARY
  5
2544C
330
239FD
100
AcDbDictionary
280
     1
281
     1
  3
ADSK_XREC_LAYER_RECONCILED
360
2544D
  0
DICTIONARY
  5
2544E
330
239FE
100
AcDbDictionary
280
     1
281
     1
  3
ADSK_XREC_LAYER_RECONCILED
360
2544F
  0
DICTIONARY
  5
23A1B
330
23A1A
100
AcDbDictionary
280
     1
281
     1
  3
ADSK_XREC_LAYER_RECONCILED
360
25450
  0
DICTIONARY
  5
239DD
102
{ACAD_REACTORS
330
23987
102
}
330
23987
100
AcDbDictionary
281
     1
  0
DICTIONARY
  5
23988
102
{ACAD_REACTORS
330
23987
102
}
330
23987
100
AcDbDictionary
281
     1
  0
DICTIONARY
  5
239DC
102
{ACAD_REACTORS
330
23987
102
}
330
23987
100
AcDbDictionary
281
     1
  3
Model
350
239E9
  3
レイアウト1
350
239E5
  0
DICTIONARY
  5
2398B
102
{ACAD_REACTORS
330
23987
102
}
330
23987
100
AcDbDictionary
281
     1
  3
ByBlock
350
23994
  3
ByLayer
350
2398C
  3
Global
350
2399C
  0
DICTIONARY
  5
239E0
102
{ACAD_REACTORS
330
23987
102
}
330
23987
100
AcDbDictionary
281
     1
  3
Standard
350
239E1
  0
DICTIONARY
  5
239D9
102
{ACAD_REACTORS
330
23987
102
}
330
23987
100
AcDbDictionary
281
     1
  3
Standard
350
239DA
  0
DICTIONARY
  5
239DB
102
{ACAD_REACTORS
330
23987
102
}
330
23987
100
AcDbDictionary
281
     1
  0
ACDBDICTIONARYWDFLT
  5
23989
102
{ACAD_REACTORS
330
23987
102
}
330
23987
100
AcDbDictionary
281
     1
  3
Normal
350
2398A
100
AcDbDictionaryWithDefault
340
2398A
  0
DICTIONARY
  5
239BD
102
{ACAD_REACTORS
330
23987
102
}
330
23987
100
AcDbDictionary
281
     1
  3
A0
350
239BE
  3
A1
350
239BF
  3
A2
350
239C0
  3
A3
350
239C1
  3
A4
350
239C2
  3
A5
350
239C3
  3
A6
350
239C4
  3
A7
350
239C5
  3
A8
350
239C6
  3
A9
350
239C7
  3
B0
350
239C8
  3
B1
350
239C9
  3
B2
350
239CA
  3
B3
350
239CB
  3
B4
350
239CC
  3
B5
350
239CD
  3
B6
350
239CE
  0
DICTIONARY
  5
239DE
102
{ACAD_REACTORS
330
23987
102
}
330
23987
100
AcDbDictionary
281
     1
  3
Standard
350
239DF
  0
DICTIONARY
  5
239A4
102
{ACAD_REACTORS
330
23987
102
}
330
23987
100
AcDbDictionary
281
     1
  3
2dWireframe
350
239AA
  3
Basic
350
239A9
  3
Brighten
350
239B0
  3
ColorChange
350
239B4
  3
Conceptual
350
239AD
  3
Dim
350
239AF
  3
EdgeColorOff
350
239BC
  3
Facepattern
350
239B3
  3
Flat
350
239A5
  3
FlatWithEdges
350
239A6
  3
Gouraud
350
239A7
  3
GouraudWithEdges
350
239A8
  3
Hidden
350
239AC
  3
JitterOff
350
239BA
  3
Linepattern
350
239B2
  3
OverhangOff
350
239BB
  3
Realistic
350
239AE
  3
Shaded
350
239B9
  3
Shaded with edges
350
239B8
  3
Shades of Gray
350
239B5
  3
Sketchy
350
239B6
  3
Thicken
350
239B1
  3
Wireframe
350
239AB
  3
X-Ray
350
239B7
  0
XRECORD
  5
25503
102
{ACAD_REACTORS
330
23987
102
}
330
23987
100
AcDbXrecord
280
     1
 90
        1
330
239DF
  0
DICTIONARY
  5
25459
102
{ACAD_REACTORS
330
23987
102
}
330
23987
100
AcDbDictionary
281
     1
  3
CANNOSCALE
350
2545C
  3
CMLEADERSTYLE
350
2545B
  3
CTABLESTYLE
350
2545A
  3
XCLIPFRAME
350
25501
  0
DICTIONARY
  5
23A1F
102
{ACAD_REACTORS
330
23A1E
102
}
330
23A1E
100
AcDbDictionary
281
     1
  0
XRECORD
  5
2542F
102
{ACAD_REACTORS
330
2542E
102
}
330
2542E
100
AcDbXrecord
280
     1
290
     1
  0
XRECORD
  5
25431
102
{ACAD_REACTORS
330
25430
102
}
330
25430
100
AcDbXrecord
280
     1
290
     1
  0
XRECORD
  5
25433
102
{ACAD_REACTORS
330
25432
102
}
330
25432
100
AcDbXrecord
280
     1
290
     1
  0
XRECORD
  5
25435
102
{ACAD_REACTORS
330
25434
102
}
330
25434
100
AcDbXrecord
280
     1
290
     1
  0
XRECORD
  5
25437
102
{ACAD_REACTORS
330
25436
102
}
330
25436
100
AcDbXrecord
280
     1
290
     1
  0
XRECORD
  5
25439
102
{ACAD_REACTORS
330
25438
102
}
330
25438
100
AcDbXrecord
280
     1
290
     1
  0
XRECORD
  5
2543B
102
{ACAD_REACTORS
330
2543A
102
}
330
2543A
100
AcDbXrecord
280
     1
290
     1
  0
XRECORD
  5
2543D
102
{ACAD_REACTORS
330
2543C
102
}
330
2543C
100
AcDbXrecord
280
     1
290
     1
  0
XRECORD
  5
2543F
102
{ACAD_REACTORS
330
2543E
102
}
330
2543E
100
AcDbXrecord
280
     1
290
     1
  0
XRECORD
  5
25441
102
{ACAD_REACTORS
330
25440
102
}
330
25440
100
AcDbXrecord
280
     1
290
     1
  0
XRECORD
  5
25443
102
{ACAD_REACTORS
330
25442
102
}
330
25442
100
AcDbXrecord
280
     1
290
     1
  0
XRECORD
  5
25445
102
{ACAD_REACTORS
330
25444
102
}
330
25444
100
AcDbXrecord
280
     1
290
     1
  0
XRECORD
  5
25447
102
{ACAD_REACTORS
330
25446
102
}
330
25446
100
AcDbXrecord
280
     1
290
     1
  0
XRECORD
  5
25449
102
{ACAD_REACTORS
330
25448
102
}
330
25448
100
AcDbXrecord
280
     1
290
     1
  0
XRECORD
  5
2544B
102
{ACAD_REACTORS
330
2544A
102
}
330
2544A
100
AcDbXrecord
280
     1
290
     1
  0
XRECORD
  5
2544D
102
{ACAD_REACTORS
330
2544C
102
}
330
2544C
100
AcDbXrecord
280
     1
290
     1
  0
XRECORD
  5
2544F
102
{ACAD_REACTORS
330
2544E
102
}
330
2544E
100
AcDbXrecord
280
     1
290
     1
  0
XRECORD
  5
25450
102
{ACAD_REACTORS
330
23A1B
102
}
330
23A1B
100
AcDbXrecord
280
     1
290
     1
  0
LAYOUT
  5
239E9
102
{ACAD_REACTORS
330
239DC
102
}
330
239DC
100
AcDbPlotSettings
  1

  2
SHARP MX-2300FG
  4
A3
  6

 40
5.027082920074462
 41
5.027099609375
 42
5.027099609375
 43
5.027069091796875
 44
296.9259948730469
 45
419.8619995117186
 46
-5.048942298200983
 47
-4.209674366995158
 48
72.52550115847225
 49
9154.979686698275
140
12619.34088749459
141
18064.07059489826
142
1.0
143
30.0
 70
 11940
 72
     1
 73
     1
 74
     4
  7
monochrome.ctb
 75
     0
147
0.0321998973070933
 76
     0
 77
     2
 78
   300
148
-72.52550115847225
149
-9154.979686698275
100
AcDbLayout
  1
Model
 70
     1
 71
     0
 10
0.0
 20
0.0
 11
12.0
 21
9.0
 12
0.0
 22
0.0
 32
0.0
 14
0.0
 24
0.0
 34
0.0
 15
0.0
 25
0.0
 35
0.0
146
0.0
 13
0.0
 23
0.0
 33
0.0
 16
1.0
 26
0.0
 36
0.0
 17
0.0
 27
1.0
 37
0.0
 76
     0
330
239E6
331
239EC
1001
ACAD_PSEXT
1000
SHARP MX-2300FG
1000
SHARP MX-2300FG
1000
S2_IP_192.168.11.200
1000

1070
     0
  0
LAYOUT
  5
239E5
102
{ACAD_REACTORS
330
239DC
102
}
330
239DC
100
AcDbPlotSettings
  1

  2
SHARP MX-2300FG
  4

  6

 40
0.0
 41
0.0
 42
0.0
 43
0.0
 44
0.0
 45
0.0
 46
0.0
 47
0.0
 48
0.0
 49
0.0
140
0.0
141
0.0
142
1.0
143
1.0
 70
   688
 72
     0
 73
     0
 74
     5
  7

 75
    16
147
1.0
 76
     0
 77
     2
 78
   300
148
0.0
149
0.0
100
AcDbLayout
  1
レイアウト1
 70
     0
 71
     1
 10
0.0
 20
0.0
 11
12.0
 21
9.0
 12
0.0
 22
0.0
 32
0.0
 14
1.000000000000000E+20
 24
1.000000000000000E+20
 34
1.000000000000000E+20
 15
-1.000000000000000E+20
 25
-1.000000000000000E+20
 35
-1.000000000000000E+20
146
0.0
 13
0.0
 23
0.0
 33
0.0
 16
1.0
 26
0.0
 36
0.0
 17
0.0
 27
1.0
 37
0.0
 76
     0
330
239E2
  0
MATERIAL
  5
23994
102
{ACAD_XDICTIONARY
360
23995
102
}
102
{ACAD_REACTORS
330
2398B
102
}
330
2398B
100
AcDbMaterial
  1
ByBlock
 72
     0
 43
0.0208333333333333
 43
0.0
 43
0.0
 43
0.0
 43
0.0
 43
0.0208333333333333
 43
0.0
 43
0.0
 43
0.0
 43
0.0
 43
1.0
 43
0.0
 43
0.0
 43
0.0
 43
0.0
 43
1.0
 77
     0
 47
0.0208333333333333
 47
0.0
 47
0.0
 47
0.0
 47
0.0
 47
0.0208333333333333
 47
0.0
 47
0.0
 47
0.0
 47
0.0
 47
1.0
 47
0.0
 47
0.0
 47
0.0
 47
0.0
 47
1.0
171
     0
 49
0.0208333333333333
 49
0.0
 49
0.0
 49
0.0
 49
0.0
 49
0.0208333333333333
 49
0.0
 49
0.0
 49
0.0
 49
0.0
 49
1.0
 49
0.0
 49
0.0
 49
0.0
 49
0.0
 49
1.0
175
     0
142
0.0208333333333333
142
0.0
142
0.0
142
0.0
142
0.0
142
0.0208333333333333
142
0.0
142
0.0
142
0.0
142
0.0
142
1.0
142
0.0
142
0.0
142
0.0
142
0.0
142
1.0
179
     0
144
0.0208333333333333
144
0.0
144
0.0
144
0.0
144
0.0
144
0.0208333333333333
144
0.0
144
0.0
144
0.0
144
0.0
144
1.0
144
0.0
144
0.0
144
0.0
144
0.0
144
1.0
147
0.0208333333333333
147
0.0
147
0.0
147
0.0
147
0.0
147
0.0208333333333333
147
0.0
147
0.0
147
0.0
147
0.0
147
1.0
147
0.0
147
0.0
147
0.0
147
0.0
147
1.0
  0
MATERIAL
  5
2398C
102
{ACAD_XDICTIONARY
360
2398D
102
}
102
{ACAD_REACTORS
330
2398B
102
}
330
2398B
100
AcDbMaterial
  1
ByLayer
 72
     0
 43
0.0208333333333333
 43
0.0
 43
0.0
 43
0.0
 43
0.0
 43
0.0208333333333333
 43
0.0
 43
0.0
 43
0.0
 43
0.0
 43
1.0
 43
0.0
 43
0.0
 43
0.0
 43
0.0
 43
1.0
 77
     0
 47
0.0208333333333333
 47
0.0
 47
0.0
 47
0.0
 47
0.0
 47
0.0208333333333333
 47
0.0
 47
0.0
 47
0.0
 47
0.0
 47
1.0
 47
0.0
 47
0.0
 47
0.0
 47
0.0
 47
1.0
171
     0
 49
0.0208333333333333
 49
0.0
 49
0.0
 49
0.0
 49
0.0
 49
0.0208333333333333
 49
0.0
 49
0.0
 49
0.0
 49
0.0
 49
1.0
 49
0.0
 49
0.0
 49
0.0
 49
0.0
 49
1.0
175
     0
142
0.0208333333333333
142
0.0
142
0.0
142
0.0
142
0.0
142
0.0208333333333333
142
0.0
142
0.0
142
0.0
142
0.0
142
1.0
142
0.0
142
0.0
142
0.0
142
0.0
142
1.0
179
     0
144
0.0208333333333333
144
0.0
144
0.0
144
0.0
144
0.0
144
0.0208333333333333
144
0.0
144
0.0
144
0.0
144
0.0
144
1.0
144
0.0
144
0.0
144
0.0
144
0.0
144
1.0
147
0.0208333333333333
147
0.0
147
0.0
147
0.0
147
0.0
147
0.0208333333333333
147
0.0
147
0.0
147
0.0
147
0.0
147
1.0
147
0.0
147
0.0
147
0.0
147
0.0
147
1.0
  0
MATERIAL
  5
2399C
102
{ACAD_XDICTIONARY
360
2399D
102
}
102
{ACAD_REACTORS
330
2398B
102
}
330
2398B
100
AcDbMaterial
  1
Global
 72
     0
 43
0.0208333333333333
 43
0.0
 43
0.0
 43
0.0
 43
0.0
 43
0.0208333333333333
 43
0.0
 43
0.0
 43
0.0
 43
0.0
 43
1.0
 43
0.0
 43
0.0
 43
0.0
 43
0.0
 43
1.0
 77
     0
 47
0.0208333333333333
 47
0.0
 47
0.0
 47
0.0
 47
0.0
 47
0.0208333333333333
 47
0.0
 47
0.0
 47
0.0
 47
0.0
 47
1.0
 47
0.0
 47
0.0
 47
0.0
 47
0.0
 47
1.0
171
     0
 49
0.0208333333333333
 49
0.0
 49
0.0
 49
0.0
 49
0.0
 49
0.0208333333333333
 49
0.0
 49
0.0
 49
0.0
 49
0.0
 49
1.0
 49
0.0
 49
0.0
 49
0.0
 49
0.0
 49
1.0
175
     0
142
0.0208333333333333
142
0.0
142
0.0
142
0.0
142
0.0
142
0.0208333333333333
142
0.0
142
0.0
142
0.0
142
0.0
142
1.0
142
0.0
142
0.0
142
0.0
142
0.0
142
1.0
179
     0
144
0.0208333333333333
144
0.0
144
0.0
144
0.0
144
0.0
144
0.0208333333333333
144
0.0
144
0.0
144
0.0
144
0.0
144
1.0
144
0.0
144
0.0
144
0.0
144
0.0
144
1.0
147
0.0208333333333333
147
0.0
147
0.0
147
0.0
147
0.0
147
0.0208333333333333
147
0.0
147
0.0
147
0.0
147
0.0
147
1.0
147
0.0
147
0.0
147
0.0
147
0.0
147
1.0
  0
MLEADERSTYLE
  5
239E1
102
{ACAD_REACTORS
330
239E0
102
}
330
239E0
100
AcDbMLeaderStyle
170
     2
171
     1
172
     0
 90
        2
 40
0.0
 41
0.0
173
     1
 91
-1056964608
340
239D5
 92
       -2
290
     1
 42
0.09
291
     1
 43
0.36
  3
Standard
 44
0.18
300

342
239D0
174
     1
178
     6
175
     1
176
     0
 93
-1056964608
 45
0.18
292
     0
297
     0
 46
0.18
 94
-1056964608
 47
1.0
 49
1.0
140
1.0
293
     1
141
0.0
294
     1
177
     0
142
1.0
295
     0
296
     0
143
0.125
1001
ACAD_MLEADERVER
1070
     2
  0
MLINESTYLE
  5
239DA
102
{ACAD_REACTORS
330
239D9
102
}
330
239D9
100
AcDbMlineStyle
  2
STANDARD
 70
     0
  3

 62
   256
 51
90.0
 52
90.0
 71
     2
 49
0.5
 62
   256
  6
BYLAYER
 49
-0.5
 62
   256
  6
BYLAYER
  0
ACDBPLACEHOLDER
  5
2398A
102
{ACAD_REACTORS
330
23989
102
}
330
23989
  0
SCALE
  5
239BE
102
{ACAD_REACTORS
330
239BD
102
}
330
239BD
100
AcDbScale
 70
     0
300
1:1
140
1.0
141
1.0
290
     1
  0
SCALE
  5
239BF
102
{ACAD_REACTORS
330
239BD
102
}
330
239BD
100
AcDbScale
 70
     0
300
1/128" = 1'-0"
140
0.0078125
141
12.0
290
     0
  0
SCALE
  5
239C0
102
{ACAD_REACTORS
330
239BD
102
}
330
239BD
100
AcDbScale
 70
     0
300
1/64" = 1'-0"
140
0.015625
141
12.0
290
     0
  0
SCALE
  5
239C1
102
{ACAD_REACTORS
330
239BD
102
}
330
239BD
100
AcDbScale
 70
     0
300
1/32" = 1'-0"
140
0.03125
141
12.0
290
     0
  0
SCALE
  5
239C2
102
{ACAD_REACTORS
330
239BD
102
}
330
239BD
100
AcDbScale
 70
     0
300
1/16" = 1'-0"
140
0.0625
141
12.0
290
     0
  0
SCALE
  5
239C3
102
{ACAD_REACTORS
330
239BD
102
}
330
239BD
100
AcDbScale
 70
     0
300
3/32" = 1'-0"
140
0.09375
141
12.0
290
     0
  0
SCALE
  5
239C4
102
{ACAD_REACTORS
330
239BD
102
}
330
239BD
100
AcDbScale
 70
     0
300
1/8" = 1'-0"
140
0.125
141
12.0
290
     0
  0
SCALE
  5
239C5
102
{ACAD_REACTORS
330
239BD
102
}
330
239BD
100
AcDbScale
 70
     0
300
3/16" = 1'-0"
140
0.1875
141
12.0
290
     0
  0
SCALE
  5
239C6
102
{ACAD_REACTORS
330
239BD
102
}
330
239BD
100
AcDbScale
 70
     0
300
1/4" = 1'-0"
140
0.25
141
12.0
290
     0
  0
SCALE
  5
239C7
102
{ACAD_REACTORS
330
239BD
102
}
330
239BD
100
AcDbScale
 70
     0
300
3/8" = 1'-0"
140
0.375
141
12.0
290
     0
  0
SCALE
  5
239C8
102
{ACAD_REACTORS
330
239BD
102
}
330
239BD
100
AcDbScale
 70
     0
300
1/2" = 1'-0"
140
0.5
141
12.0
290
     0
  0
SCALE
  5
239C9
102
{ACAD_REACTORS
330
239BD
102
}
330
239BD
100
AcDbScale
 70
     0
300
3/4" = 1'-0"
140
0.75
141
12.0
290
     0
  0
SCALE
  5
239CA
102
{ACAD_REACTORS
330
239BD
102
}
330
239BD
100
AcDbScale
 70
     0
300
1" = 1'-0"
140
1.0
141
12.0
290
     0
  0
SCALE
  5
239CB
102
{ACAD_REACTORS
330
239BD
102
}
330
239BD
100
AcDbScale
 70
     0
300
1-1/2" = 1'-0"
140
1.5
141
12.0
290
     0
  0
SCALE
  5
239CC
102
{ACAD_REACTORS
330
239BD
102
}
330
239BD
100
AcDbScale
 70
     0
300
3" = 1'-0"
140
3.0
141
12.0
290
     0
  0
SCALE
  5
239CD
102
{ACAD_REACTORS
330
239BD
102
}
330
239BD
100
AcDbScale
 70
     0
300
6" = 1'-0"
140
6.0
141
12.0
290
     0
  0
SCALE
  5
239CE
102
{ACAD_REACTORS
330
239BD
102
}
330
239BD
100
AcDbScale
 70
     0
300
1'-0" = 1'-0"
140
12.0
141
12.0
290
     0
  0
TABLESTYLE
  5
239DF
102
{ACAD_XDICTIONARY
360
2545E
102
}
102
{ACAD_REACTORS
330
239DE
102
}
330
239DE
100
AcDbTableStyle
  3
Standard
 70
     0
 71
     0
 40
0.06
 41
0.06
280
     0
281
     0
  7
STANDARD
140
0.18
170
     2
 62
     0
 63
     7
283
     0
274
    -2
284
     1
 64
     0
275
    -2
285
     1
 65
     0
276
    -2
286
     1
 66
     0
277
    -2
287
     1
 67
     0
278
    -2
288
     1
 68
     0
279
    -2
289
     1
 69
     0
  7
STANDARD
140
0.25
170
     5
 62
     0
 63
     7
283
     0
274
    -2
284
     1
 64
     0
275
    -2
285
     1
 65
     0
276
    -2
286
     1
 66
     0
277
    -2
287
     1
 67
     0
278
    -2
288
     1
 68
     0
279
    -2
289
     1
 69
     0
  7
STANDARD
140
0.18
170
     5
 62
     0
 63
     7
283
     0
274
    -2
284
     1
 64
     0
275
    -2
285
     1
 65
     0
276
    -2
286
     1
 66
     0
277
    -2
287
     1
 67
     0
278
    -2
288
     1
 68
     0
279
    -2
289
     1
 69
     0
  0
VISUALSTYLE
  5
239AA
102
{ACAD_XDICTIONARY
360
2550E
102
}
102
{ACAD_REACTORS
330
239A4
102
}
330
239A4
100
AcDbVisualStyle
  2

 70
     4
 71
     0
 72
     2
 73
     0
 90
        0
 40
-0.6
 41
-30.0
 62
     5
 63
     7
421
 16777215
 74
     1
 91
        4
 64
     7
 65
   257
 75
     1
175
     1
 42
1.0
 92
        0
 66
   257
 43
1.0
 76
     1
 77
     6
 78
     2
 67
     7
 79
     5
170
     0
171
     0
290
     0
174
     0
 93
        1
 44
0.0
173
     0
291
     0
 45
0.0
1001
ACAD
1000
AcDbSavedByObjectVersion
1070
     0
  0
VISUALSTYLE
  5
239A9
102
{ACAD_XDICTIONARY
360
2550C
102
}
102
{ACAD_REACTORS
330
239A4
102
}
330
239A4
100
AcDbVisualStyle
  2

 70
     7
 71
     1
 72
     0
 73
     1
 90
        0
 40
-0.6
 41
-30.0
 62
     5
 63
     7
421
 16777215
 74
     0
 91
        4
 64
     7
 65
   257
 75
     1
175
     1
 42
1.0
 92
        8
 66
     7
 43
1.0
 76
     1
 77
     6
 78
     2
 67
     7
 79
     5
170
     0
171
     0
290
     0
174
     0
 93
        1
 44
0.0
173
     0
291
     1
 45
0.0
1001
ACAD
1000
AcDbSavedByObjectVersion
1070
     0
  0
VISUALSTYLE
  5
239B0
102
{ACAD_XDICTIONARY
360
2551A
102
}
102
{ACAD_REACTORS
330
239A4
102
}
330
239A4
100
AcDbVisualStyle
  2

 70
    12
 71
     2
 72
     2
 73
     0
 90
        0
 40
-0.6
 41
-30.0
 62
     5
 63
     7
421
 16777215
 74
     1
 91
        4
 64
     7
 65
   257
 75
     1
175
     1
 42
1.0
 92
        8
 66
     7
 43
1.0
 76
     1
 77
     6
 78
     2
 67
     7
 79
     5
170
     0
171
     0
290
     0
174
     0
 93
        1
 44
50.0
173
     0
291
     1
 45
0.0
1001
ACAD
1000
AcDbSavedByObjectVersion
1070
     0
  0
VISUALSTYLE
  5
239B4
102
{ACAD_XDICTIONARY
360
25522
102
}
102
{ACAD_REACTORS
330
239A4
102
}
330
239A4
100
AcDbVisualStyle
  2

 70
    16
 71
     2
 72
     2
 73
     3
 90
        0
 40
-0.6
 41
-30.0
 62
     5
 63
     8
421
  8421504
 74
     1
 91
        4
 64
     7
 65
   257
 75
     1
175
     1
 42
1.0
 92
        8
 66
     8
424
  8421504
 43
1.0
 76
     1
 77
     6
 78
     2
 67
     7
 79
     5
170
     0
171
     0
290
     0
174
     0
 93
        1
 44
0.0
173
     0
291
     1
 45
0.0
1001
ACAD
1000
AcDbSavedByObjectVersion
1070
     0
  0
VISUALSTYLE
  5
239AD
102
{ACAD_XDICTIONARY
360
25514
102
}
102
{ACAD_REACTORS
330
239A4
102
}
330
239A4
100
AcDbVisualStyle
  2

 70
     9
 71
     3
 72
     2
 73
     0
 90
        0
 40
-0.6
 41
-30.0
 62
     5
 63
     7
421
 16777215
 74
     2
 91
        2
 64
     7
 65
   257
 75
     1
175
     1
 42
179.0
 92
        8
 66
     7
 43
1.0
 76
     1
 77
     6
 78
     2
 67
     7
 79
     3
170
     0
171
     0
290
     0
174
     0
 93
        1
 44
0.0
173
     0
291
     0
 45
0.0
1001
ACAD
1000
AcDbSavedByObjectVersion
1070
     0
  0
VISUALSTYLE
  5
239AF
102
{ACAD_XDICTIONARY
360
25518
102
}
102
{ACAD_REACTORS
330
239A4
102
}
330
239A4
100
AcDbVisualStyle
  2

 70
    11
 71
     2
 72
     2
 73
     0
 90
        0
 40
-0.6
 41
-30.0
 62
     5
 63
     7
421
 16777215
 74
     1
 91
        4
 64
     7
 65
   257
 75
     1
175
     1
 42
1.0
 92
        8
 66
     7
 43
1.0
 76
     1
 77
     6
 78
     2
 67
     7
 79
     5
170
     0
171
     0
290
     0
174
     0
 93
        1
 44
-50.0
173
     0
291
     1
 45
0.0
1001
ACAD
1000
AcDbSavedByObjectVersion
1070
     0
  0
VISUALSTYLE
  5
239BC
102
{ACAD_XDICTIONARY
360
25532
102
}
102
{ACAD_REACTORS
330
239A4
102
}
330
239A4
100
AcDbVisualStyle
  2

 70
    22
 71
     2
 72
     2
 73
     0
 90
        0
 40
-0.6
 41
-30.0
 62
     5
 63
     7
421
 16777215
 74
     1
 91
        4
 64
     7
 65
   257
 75
     1
175
     1
 42
1.0
 92
        8
 66
     7
 43
1.0
 76
     1
 77
     6
 78
     2
 67
     7
 79
     5
170
     0
171
     0
290
     0
174
     0
 93
        1
 44
0.0
173
     0
291
     1
 45
0.0
1001
ACAD
1000
AcDbSavedByObjectVersion
1070
     0
  0
VISUALSTYLE
  5
239B3
102
{ACAD_XDICTIONARY
360
25520
102
}
102
{ACAD_REACTORS
330
239A4
102
}
330
239A4
100
AcDbVisualStyle
  2

 70
    15
 71
     2
 72
     2
 73
     0
 90
        0
 40
-0.6
 41
-30.0
 62
     5
 63
     7
421
 16777215
 74
     1
 91
        4
 64
     7
 65
   257
 75
     1
175
     1
 42
1.0
 92
        8
 66
     7
 43
1.0
 76
     1
 77
     6
 78
     2
 67
     7
 79
     5
170
     0
171
     0
290
     0
174
     0
 93
        1
 44
0.0
173
     0
291
     1
 45
0.0
1001
ACAD
1000
AcDbSavedByObjectVersion
1070
     0
  0
VISUALSTYLE
  5
239A5
102
{ACAD_XDICTIONARY
360
25504
102
}
102
{ACAD_REACTORS
330
239A4
102
}
330
239A4
100
AcDbVisualStyle
  2

 70
     0
 71
     2
 72
     1
 73
     1
 90
        2
 40
-0.6
 41
30.0
 62
     5
 63
     7
421
 16777215
 74
     0
 91
        0
 64
     7
 65
   257
 75
     1
175
     1
 42
1.0
 92
        8
 66
     7
 43
1.0
 76
     1
 77
     6
 78
     2
 67
     7
 79
     5
170
     0
171
     0
290
     0
174
     0
 93
       13
 44
0.0
173
     0
291
     1
 45
0.0
1001
ACAD
1000
AcDbSavedByObjectVersion
1070
     0
  0
VISUALSTYLE
  5
239A6
102
{ACAD_XDICTIONARY
360
25506
102
}
102
{ACAD_REACTORS
330
239A4
102
}
330
239A4
100
AcDbVisualStyle
  2

 70
     1
 71
     2
 72
     1
 73
     1
 90
        2
 40
-0.6
 41
30.0
 62
     5
 63
     7
421
 16777215
 74
     1
 91
        0
 64
     7
 65
   257
 75
     1
175
     1
 42
1.0
 92
        0
 66
   257
 43
1.0
 76
     1
 77
     6
 78
     2
 67
     7
 79
     5
170
     0
171
     0
290
     0
174
     0
 93
       13
 44
0.0
173
     0
291
     1
 45
0.0
1001
ACAD
1000
AcDbSavedByObjectVersion
1070
     0
  0
VISUALSTYLE
  5
239A7
102
{ACAD_XDICTIONARY
360
25508
102
}
102
{ACAD_REACTORS
330
239A4
102
}
330
239A4
100
AcDbVisualStyle
  2

 70
     2
 71
     2
 72
     2
 73
     1
 90
        2
 40
-0.6
 41
30.0
 62
     5
 63
     7
421
 16777215
 74
     0
 91
        0
 64
     7
 65
   257
 75
     1
175
     1
 42
1.0
 92
        0
 66
     7
 43
1.0
 76
     1
 77
     6
 78
     2
 67
     7
 79
     5
170
     0
171
     0
290
     0
174
     0
 93
       13
 44
0.0
173
     0
291
     1
 45
0.0
1001
ACAD
1000
AcDbSavedByObjectVersion
1070
     0
  0
VISUALSTYLE
  5
239A8
102
{ACAD_XDICTIONARY
360
2550A
102
}
102
{ACAD_REACTORS
330
239A4
102
}
330
239A4
100
AcDbVisualStyle
  2

 70
     3
 71
     2
 72
     2
 73
     1
 90
        2
 40
-0.6
 41
30.0
 62
     5
 63
     7
421
 16777215
 74
     1
 91
        0
 64
     7
 65
   257
 75
     1
175
     1
 42
1.0
 92
        0
 66
   257
 43
1.0
 76
     1
 77
     6
 78
     2
 67
     7
 79
     5
170
     0
171
     0
290
     0
174
     0
 93
       13
 44
0.0
173
     0
291
     1
 45
0.0
1001
ACAD
1000
AcDbSavedByObjectVersion
1070
     0
  0
VISUALSTYLE
  5
239AC
102
{ACAD_XDICTIONARY
360
25512
102
}
102
{ACAD_REACTORS
330
239A4
102
}
330
239A4
100
AcDbVisualStyle
  2

 70
     6
 71
     1
 72
     2
 73
     2
 90
        0
 40
-0.6
 41
-30.0
 62
     5
 63
     7
421
 16777215
 74
     2
 91
        2
 64
     7
 65
   257
 75
     2
175
     1
 42
40.0
 92
        0
 66
   257
 43
1.0
 76
     1
 77
     6
 78
     2
 67
     7
 79
     3
170
     0
171
     0
290
     0
174
     0
 93
        1
 44
0.0
173
     0
291
     0
 45
0.0
1001
ACAD
1000
AcDbSavedByObjectVersion
1070
     0
  0
VISUALSTYLE
  5
239BA
102
{ACAD_XDICTIONARY
360
2552E
102
}
102
{ACAD_REACTORS
330
239A4
102
}
330
239A4
100
AcDbVisualStyle
  2

 70
    20
 71
     2
 72
     2
 73
     0
 90
        0
 40
-0.6
 41
-30.0
 62
     5
 63
     7
421
 16777215
 74
     1
 91
        4
 64
     7
 65
   257
 75
     1
175
     1
 42
1.0
 92
       10
 66
     7
 43
1.0
 76
     1
 77
     6
 78
     2
 67
     7
 79
     5
170
     0
171
     0
290
     0
174
     0
 93
        1
 44
0.0
173
     0
291
     1
 45
0.0
1001
ACAD
1000
AcDbSavedByObjectVersion
1070
     0
  0
VISUALSTYLE
  5
239B2
102
{ACAD_XDICTIONARY
360
2551E
102
}
102
{ACAD_REACTORS
330
239A4
102
}
330
239A4
100
AcDbVisualStyle
  2

 70
    14
 71
     2
 72
     2
 73
     0
 90
        0
 40
-0.6
 41
-30.0
 62
     5
 63
     7
421
 16777215
 74
     1
 91
        4
 64
     7
 65
   257
 75
     7
175
     7
 42
1.0
 92
        8
 66
     7
 43
1.0
 76
     1
 77
     6
 78
     2
 67
     7
 79
     5
170
     0
171
     0
290
     0
174
     0
 93
        1
 44
0.0
173
     0
291
     1
 45
0.0
1001
ACAD
1000
AcDbSavedByObjectVersion
1070
     0
  0
VISUALSTYLE
  5
239BB
102
{ACAD_XDICTIONARY
360
25530
102
}
102
{ACAD_REACTORS
330
239A4
102
}
330
239A4
100
AcDbVisualStyle
  2

 70
    21
 71
     2
 72
     2
 73
     0
 90
        0
 40
-0.6
 41
-30.0
 62
     5
 63
     7
421
 16777215
 74
     1
 91
        4
 64
     7
 65
   257
 75
     1
175
     1
 42
1.0
 92
        9
 66
     7
 43
1.0
 76
     1
 77
     6
 78
     2
 67
     7
 79
     5
170
     0
171
     0
290
     0
174
     0
 93
        1
 44
0.0
173
     0
291
     1
 45
0.0
1001
ACAD
1000
AcDbSavedByObjectVersion
1070
     0
  0
VISUALSTYLE
  5
239AE
102
{ACAD_XDICTIONARY
360
25516
102
}
102
{ACAD_REACTORS
330
239A4
102
}
330
239A4
100
AcDbVisualStyle
  2

 70
     8
 71
     2
 72
     3
 73
     0
 90
        2
 40
-0.6
 41
30.0
 62
     5
 63
     7
421
 16777215
 74
     0
 91
        0
 64
     7
 65
   257
 75
     1
175
     1
 42
1.0
 92
        8
 66
   257
 43
1.0
 76
     1
 77
     6
 78
     2
 67
     7
 79
     3
170
     0
171
     0
290
     0
174
     0
 93
       13
 44
0.0
173
     0
291
     0
 45
0.0
1001
ACAD
1000
AcDbSavedByObjectVersion
1070
     0
  0
VISUALSTYLE
  5
239B9
102
{ACAD_XDICTIONARY
360
2552C
102
}
102
{ACAD_REACTORS
330
239A4
102
}
330
239A4
100
AcDbVisualStyle
  2

 70
    27
 71
     2
 72
     2
 73
     1
 90
        2
 40
-0.6
 41
30.0
 62
     5
 63
     7
421
 16777215
 74
     0
 91
        4
 64
     7
 65
   257
 75
     1
175
     1
 42
1.0
 92
        8
 66
   257
 43
1.0
 76
     1
 77
     6
 78
     2
 67
     8
425
  7895160
 79
     3
170
     0
171
     0
290
     0
174
     0
 93
        5
 44
0.0
173
     0
291
     0
 45
0.0
1001
ACAD
1000
AcDbSavedByObjectVersion
1070
     0
  0
VISUALSTYLE
  5
239B8
102
{ACAD_XDICTIONARY
360
2552A
102
}
102
{ACAD_REACTORS
330
239A4
102
}
330
239A4
100
AcDbVisualStyle
  2

 70
    26
 71
     2
 72
     2
 73
     1
 90
        2
 40
-0.6
 41
30.0
 62
     5
 63
     7
421
 16777215
 74
     1
 91
       10
 64
     7
 65
   257
 75
     2
175
     1
 42
1.0
 92
        8
 66
   257
 43
1.0
 76
     1
 77
     6
 78
     2
 67
     7
 79
     3
170
     0
171
     0
290
     0
174
     0
 93
        5
 44
0.0
173
     0
291
     0
 45
0.0
1001
ACAD
1000
AcDbSavedByObjectVersion
1070
     0
  0
VISUALSTYLE
  5
239B5
102
{ACAD_XDICTIONARY
360
25524
102
}
102
{ACAD_REACTORS
330
239A4
102
}
330
239A4
100
AcDbVisualStyle
  2

 70
    23
 71
     2
 72
     2
 73
     3
 90
        0
 40
-0.6
 41
-30.0
 62
     5
 63
     7
421
 16777215
 74
     2
 91
        2
 64
     7
 65
     7
 75
     1
175
     1
 42
40.0
 92
        8
 66
     7
 43
1.0
 76
     1
 77
     6
 78
     2
 67
     7
 79
     3
170
     0
171
     0
290
     0
174
     0
 93
        1
 44
0.0
173
     0
291
     0
 45
0.0
1001
ACAD
1000
AcDbSavedByObjectVersion
1070
     0
  0
VISUALSTYLE
  5
239B6
102
{ACAD_XDICTIONARY
360
25526
102
}
102
{ACAD_REACTORS
330
239A4
102
}
330
239A4
100
AcDbVisualStyle
  2

 70
    24
 71
     1
 72
     2
 73
     2
 90
        0
 40
-0.6
 41
-30.0
 62
     5
 63
     7
421
 16777215
 74
     2
 91
        2
 64
     7
 65
     7
 75
     1
175
     1
 42
40.0
 92
       11
 66
     7
 43
1.0
 76
     1
 77
     6
 78
     2
 67
     7
 79
     6
170
     0
171
     0
290
     0
174
     0
 93
        1
 44
0.0
173
     0
291
     0
 45
0.0
1001
ACAD
1000
AcDbSavedByObjectVersion
1070
     0
  0
VISUALSTYLE
  5
239B1
102
{ACAD_XDICTIONARY
360
2551C
102
}
102
{ACAD_REACTORS
330
239A4
102
}
330
239A4
100
AcDbVisualStyle
  2

 70
    13
 71
     2
 72
     2
 73
     0
 90
        0
 40
-0.6
 41
-30.0
 62
     5
 63
     7
421
 16777215
 74
     1
 91
        4
 64
     7
 65
   257
 75
     1
175
     1
 42
1.0
 92
       12
 66
     7
 43
1.0
 76
     1
 77
     6
 78
     2
 67
     7
 79
     5
170
     0
171
     0
290
     0
174
     0
 93
        1
 44
0.0
173
     0
291
     1
 45
0.0
1001
ACAD
1000
AcDbSavedByObjectVersion
1070
     0
  0
VISUALSTYLE
  5
239AB
102
{ACAD_XDICTIONARY
360
25510
102
}
102
{ACAD_REACTORS
330
239A4
102
}
330
239A4
100
AcDbVisualStyle
  2

 70
     5
 71
     0
 72
     2
 73
     0
 90
        0
 40
-0.6
 41
-30.0
 62
     5
 63
     7
421
 16777215
 74
     1
 91
        4
 64
     7
 65
   257
 75
     1
175
     1
 42
1.0
 92
        0
 66
   257
 43
1.0
 76
     1
 77
     6
 78
     2
 67
     7
 79
     3
170
     0
171
     0
290
     0
174
     0
 93
        1
 44
0.0
173
     0
291
     0
 45
0.0
1001
ACAD
1000
AcDbSavedByObjectVersion
1070
     0
  0
VISUALSTYLE
  5
239B7
102
{ACAD_XDICTIONARY
360
25528
102
}
102
{ACAD_REACTORS
330
239A4
102
}
330
239A4
100
AcDbVisualStyle
  2

 70
    25
 71
     2
 72
     2
 73
     1
 90
        1
 40
0.5
 41
-30.0
 62
     5
 63
     7
421
 16777215
 74
     1
 91
        0
 64
     7
 65
   257
 75
     1
175
     1
 42
1.0
 92
        8
 66
     7
 43
1.0
 76
     1
 77
     6
 78
     2
 67
     7
 79
     3
170
     0
171
     0
290
     0
174
     0
 93
       13
 44
0.0
173
     0
291
     0
 45
0.0
1001
ACAD
1000
AcDbSavedByObjectVersion
1070
     0
  0
DICTIONARYVAR
  5
2545C
102
{ACAD_REACTORS
330
25459
102
}
330
25459
100
DictionaryVariables
280
     0
  1
1:1
  0
DICTIONARYVAR
  5
2545B
102
{ACAD_REACTORS
330
25459
102
}
330
25459
100
DictionaryVariables
280
     0
  1
STANDARD
  0
DICTIONARYVAR
  5
2545A
102
{ACAD_REACTORS
330
25459
102
}
330
25459
100
DictionaryVariables
280
     0
  1
STANDARD
  0
DICTIONARYVAR
  5
25501
102
{ACAD_REACTORS
330
25459
102
}
330
25459
100
DictionaryVariables
280
     0
  1
2
  0
DICTIONARY
  5
23995
330
23994
100
AcDbDictionary
280
     1
281
     1
  3
ACAD_XREC_ROUNDTRIP
360
25462
  3
BUMPTILE
360
23997
  3
DIFFUSETILE
360
23996
  3
OPACITYTILE
360
2399A
  3
REFLECTIONTILE
360
23999
  3
REFRACTIONTILE
360
2399B
  3
SPECULARTILE
360
23998
  0
DICTIONARY
  5
2398D
330
2398C
100
AcDbDictionary
280
     1
281
     1
  3
ACAD_XREC_ROUNDTRIP
360
25461
  3
BUMPTILE
360
2398F
  3
DIFFUSETILE
360
2398E
  3
OPACITYTILE
360
23992
  3
REFLECTIONTILE
360
23991
  3
REFRACTIONTILE
360
23993
  3
SPECULARTILE
360
23990
  0
DICTIONARY
  5
2399D
330
2399C
100
AcDbDictionary
280
     1
281
     1
  3
ACAD_XREC_ROUNDTRIP
360
25463
  3
BUMPTILE
360
2399F
  3
DIFFUSETILE
360
2399E
  3
OPACITYTILE
360
239A2
  3
REFLECTIONTILE
360
239A1
  3
REFRACTIONTILE
360
239A3
  3
SPECULARTILE
360
239A0
  0
DICTIONARY
  5
2545E
330
239DF
100
AcDbDictionary
280
     1
281
     1
  3
ACAD_ROUNDTRIP_2008_TABLESTYLE_CELLSTYLEMAP
360
25502
  3
ACAD_XREC_ROUNDTRIP
360
25534
  0
DICTIONARY
  5
2550E
330
239AA
100
AcDbDictionary
280
     1
281
     1
  3
ACAD_XREC_ROUNDTRIP
360
2550F
  0
DICTIONARY
  5
2550C
330
239A9
100
AcDbDictionary
280
     1
281
     1
  3
ACAD_XREC_ROUNDTRIP
360
2550D
  0
DICTIONARY
  5
2551A
330
239B0
100
AcDbDictionary
280
     1
281
     1
  3
ACAD_XREC_ROUNDTRIP
360
2551B
  0
DICTIONARY
  5
25522
330
239B4
100
AcDbDictionary
280
     1
281
     1
  3
ACAD_XREC_ROUNDTRIP
360
25523
  0
DICTIONARY
  5
25514
330
239AD
100
AcDbDictionary
280
     1
281
     1
  3
ACAD_XREC_ROUNDTRIP
360
25515
  0
DICTIONARY
  5
25518
330
239AF
100
AcDbDictionary
280
     1
281
     1
  3
ACAD_XREC_ROUNDTRIP
360
25519
  0
DICTIONARY
  5
25532
330
239BC
100
AcDbDictionary
280
     1
281
     1
  3
ACAD_XREC_ROUNDTRIP
360
25533
  0
DICTIONARY
  5
25520
330
239B3
100
AcDbDictionary
280
     1
281
     1
  3
ACAD_XREC_ROUNDTRIP
360
25521
  0
DICTIONARY
  5
25504
330
239A5
100
AcDbDictionary
280
     1
281
     1
  3
ACAD_XREC_ROUNDTRIP
360
25505
  0
DICTIONARY
  5
25506
330
239A6
100
AcDbDictionary
280
     1
281
     1
  3
ACAD_XREC_ROUNDTRIP
360
25507
  0
DICTIONARY
  5
25508
330
239A7
100
AcDbDictionary
280
     1
281
     1
  3
ACAD_XREC_ROUNDTRIP
360
25509
  0
DICTIONARY
  5
2550A
330
239A8
100
AcDbDictionary
280
     1
281
     1
  3
ACAD_XREC_ROUNDTRIP
360
2550B
  0
DICTIONARY
  5
25512
330
239AC
100
AcDbDictionary
280
     1
281
     1
  3
ACAD_XREC_ROUNDTRIP
360
25513
  0
DICTIONARY
  5
2552E
330
239BA
100
AcDbDictionary
280
     1
281
     1
  3
ACAD_XREC_ROUNDTRIP
360
2552F
  0
DICTIONARY
  5
2551E
330
239B2
100
AcDbDictionary
280
     1
281
     1
  3
ACAD_XREC_ROUNDTRIP
360
2551F
  0
DICTIONARY
  5
25530
330
239BB
100
AcDbDictionary
280
     1
281
     1
  3
ACAD_XREC_ROUNDTRIP
360
25531
  0
DICTIONARY
  5
25516
330
239AE
100
AcDbDictionary
280
     1
281
     1
  3
ACAD_XREC_ROUNDTRIP
360
25517
  0
DICTIONARY
  5
2552C
330
239B9
100
AcDbDictionary
280
     1
281
     1
  3
ACAD_XREC_ROUNDTRIP
360
2552D
  0
DICTIONARY
  5
2552A
330
239B8
100
AcDbDictionary
280
     1
281
     1
  3
ACAD_XREC_ROUNDTRIP
360
2552B
  0
DICTIONARY
  5
25524
330
239B5
100
AcDbDictionary
280
     1
281
     1
  3
ACAD_XREC_ROUNDTRIP
360
25525
  0
DICTIONARY
  5
25526
330
239B6
100
AcDbDictionary
280
     1
281
     1
  3
ACAD_XREC_ROUNDTRIP
360
25527
  0
DICTIONARY
  5
2551C
330
239B1
100
AcDbDictionary
280
     1
281
     1
  3
ACAD_XREC_ROUNDTRIP
360
2551D
  0
DICTIONARY
  5
25510
330
239AB
100
AcDbDictionary
280
     1
281
     1
  3
ACAD_XREC_ROUNDTRIP
360
25511
  0
DICTIONARY
  5
25528
330
239B7
100
AcDbDictionary
280
     1
281
     1
  3
ACAD_XREC_ROUNDTRIP
360
25529
  0
XRECORD
  5
25462
102
{ACAD_REACTORS
330
23995
102
}
330
23995
100
AcDbXrecord
280
     1
102
MATERIAL
148
0.0
149
0.0
149
0.0
 93
        0
 94
      127
282
     0
 72
     0
 77
     0
171
     0
175
     0
179
     0
273
     0
  0
XRECORD
  5
23997
102
{ACAD_REACTORS
330
23995
102
}
330
23995
100
AcDbXrecord
280
     1
270
     1
271
     1
  0
XRECORD
  5
23996
102
{ACAD_REACTORS
330
23995
102
}
330
23995
100
AcDbXrecord
280
     1
270
     1
271
     1
  0
XRECORD
  5
2399A
102
{ACAD_REACTORS
330
23995
102
}
330
23995
100
AcDbXrecord
280
     1
270
     1
271
     1
  0
XRECORD
  5
23999
102
{ACAD_REACTORS
330
23995
102
}
330
23995
100
AcDbXrecord
280
     1
270
     1
271
     1
  0
XRECORD
  5
2399B
102
{ACAD_REACTORS
330
23995
102
}
330
23995
100
AcDbXrecord
280
     1
270
     1
271
     1
  0
XRECORD
  5
23998
102
{ACAD_REACTORS
330
23995
102
}
330
23995
100
AcDbXrecord
280
     1
270
     1
271
     1
  0
XRECORD
  5
25461
102
{ACAD_REACTORS
330
2398D
102
}
330
2398D
100
AcDbXrecord
280
     1
102
MATERIAL
148
0.0
149
0.0
149
0.0
 93
        0
 94
      127
282
     0
 72
     0
 77
     0
171
     0
175
     0
179
     0
273
     0
  0
XRECORD
  5
2398F
102
{ACAD_REACTORS
330
2398D
102
}
330
2398D
100
AcDbXrecord
280
     1
270
     1
271
     1
  0
XRECORD
  5
2398E
102
{ACAD_REACTORS
330
2398D
102
}
330
2398D
100
AcDbXrecord
280
     1
270
     1
271
     1
  0
XRECORD
  5
23992
102
{ACAD_REACTORS
330
2398D
102
}
330
2398D
100
AcDbXrecord
280
     1
270
     1
271
     1
  0
XRECORD
  5
23991
102
{ACAD_REACTORS
330
2398D
102
}
330
2398D
100
AcDbXrecord
280
     1
270
     1
271
     1
  0
XRECORD
  5
23993
102
{ACAD_REACTORS
330
2398D
102
}
330
2398D
100
AcDbXrecord
280
     1
270
     1
271
     1
  0
XRECORD
  5
23990
102
{ACAD_REACTORS
330
2398D
102
}
330
2398D
100
AcDbXrecord
280
     1
270
     1
271
     1
  0
XRECORD
  5
25463
102
{ACAD_REACTORS
330
2399D
102
}
330
2399D
100
AcDbXrecord
280
     1
102
MATERIAL
148
0.0
149
0.0
149
0.0
 93
        0
 94
      127
282
     0
 72
     0
 77
     0
171
     0
175
     0
179
     0
273
     0
  0
XRECORD
  5
2399F
102
{ACAD_REACTORS
330
2399D
102
}
330
2399D
100
AcDbXrecord
280
     1
270
     1
271
     1
  0
XRECORD
  5
2399E
102
{ACAD_REACTORS
330
2399D
102
}
330
2399D
100
AcDbXrecord
280
     1
270
     1
271
     1
  0
XRECORD
  5
239A2
102
{ACAD_REACTORS
330
2399D
102
}
330
2399D
100
AcDbXrecord
280
     1
270
     1
271
     1
  0
XRECORD
  5
239A1
102
{ACAD_REACTORS
330
2399D
102
}
330
2399D
100
AcDbXrecord
280
     1
270
     1
271
     1
  0
XRECORD
  5
239A3
102
{ACAD_REACTORS
330
2399D
102
}
330
2399D
100
AcDbXrecord
280
     1
270
     1
271
     1
  0
XRECORD
  5
239A0
102
{ACAD_REACTORS
330
2399D
102
}
330
2399D
100
AcDbXrecord
280
     1
270
     1
271
     1
  0
CELLSTYLEMAP
  5
25502
102
{ACAD_REACTORS
330
2545E
102
}
330
2545E
100
AcDbCellStyleMap
 90
        3
300
CELLSTYLE
  1
TABLEFORMAT_BEGIN
 90
        5
170
     1
 91
        0
 92
    32768
 62
   257
 93
        1
300
CONTENTFORMAT
  1
CONTENTFORMAT_BEGIN
 90
        0
 91
        0
 92
      512
 93
        0
300

 40
0.0
140
1.0
 94
        5
 62
     0
340
239D0
144
0.25
309
CONTENTFORMAT_END
171
     1
301
MARGIN
  1
CELLMARGIN_BEGIN
 40
0.06
 40
0.06
 40
0.06
 40
0.06
 40
0.18
 40
0.18
309
CELLMARGIN_END
 94
        6
 95
        1
302
GRIDFORMAT
  1
GRIDFORMAT_BEGIN
 90
        0
 91
        1
 62
     0
 92
       -2
340
0
 93
        0
 40
0.045
309
GRIDFORMAT_END
 95
        2
302
GRIDFORMAT
  1
GRIDFORMAT_BEGIN
 90
        0
 91
        1
 62
     0
 92
       -2
340
0
 93
        0
 40
0.045
309
GRIDFORMAT_END
 95
        4
302
GRIDFORMAT
  1
GRIDFORMAT_BEGIN
 90
        0
 91
        1
 62
     0
 92
       -2
340
0
 93
        0
 40
0.045
309
GRIDFORMAT_END
 95
        8
302
GRIDFORMAT
  1
GRIDFORMAT_BEGIN
 90
        0
 91
        1
 62
     0
 92
       -2
340
0
 93
        0
 40
0.045
309
GRIDFORMAT_END
 95
       16
302
GRIDFORMAT
  1
GRIDFORMAT_BEGIN
 90
        0
 91
        1
 62
     0
 92
       -2
340
0
 93
        0
 40
0.045
309
GRIDFORMAT_END
 95
       32
302
GRIDFORMAT
  1
GRIDFORMAT_BEGIN
 90
        0
 91
        1
 62
     0
 92
       -2
340
0
 93
        0
 40
0.045
309
GRIDFORMAT_END
309
TABLEFORMAT_END
  1
CELLSTYLE_BEGIN
 90
        1
 91
        1
300
_TITLE
309
CELLSTYLE_END
300
CELLSTYLE
  1
TABLEFORMAT_BEGIN
 90
        5
170
     1
 91
        0
 92
        0
 62
   257
 93
        1
300
CONTENTFORMAT
  1
CONTENTFORMAT_BEGIN
 90
        0
 91
        0
 92
      512
 93
        0
300

 40
0.0
140
1.0
 94
        5
 62
     0
340
239D0
144
0.18
309
CONTENTFORMAT_END
171
     1
301
MARGIN
  1
CELLMARGIN_BEGIN
 40
0.06
 40
0.06
 40
0.06
 40
0.06
 40
0.18
 40
0.18
309
CELLMARGIN_END
 94
        6
 95
        1
302
GRIDFORMAT
  1
GRIDFORMAT_BEGIN
 90
        0
 91
        1
 62
     0
 92
       -2
340
0
 93
        0
 40
0.045
309
GRIDFORMAT_END
 95
        2
302
GRIDFORMAT
  1
GRIDFORMAT_BEGIN
 90
        0
 91
        1
 62
     0
 92
       -2
340
0
 93
        0
 40
0.045
309
GRIDFORMAT_END
 95
        4
302
GRIDFORMAT
  1
GRIDFORMAT_BEGIN
 90
        0
 91
        1
 62
     0
 92
       -2
340
0
 93
        0
 40
0.045
309
GRIDFORMAT_END
 95
        8
302
GRIDFORMAT
  1
GRIDFORMAT_BEGIN
 90
        0
 91
        1
 62
     0
 92
       -2
340
0
 93
        0
 40
0.045
309
GRIDFORMAT_END
 95
       16
302
GRIDFORMAT
  1
GRIDFORMAT_BEGIN
 90
        0
 91
        1
 62
     0
 92
       -2
340
0
 93
        0
 40
0.045
309
GRIDFORMAT_END
 95
       32
302
GRIDFORMAT
  1
GRIDFORMAT_BEGIN
 90
        0
 91
        1
 62
     0
 92
       -2
340
0
 93
        0
 40
0.045
309
GRIDFORMAT_END
309
TABLEFORMAT_END
  1
CELLSTYLE_BEGIN
 90
        2
 91
        1
300
_HEADER
309
CELLSTYLE_END
300
CELLSTYLE
  1
TABLEFORMAT_BEGIN
 90
        5
170
     1
 91
        0
 92
        0
 62
   257
 93
        1
300
CONTENTFORMAT
  1
CONTENTFORMAT_BEGIN
 90
        0
 91
        0
 92
      512
 93
        0
300

 40
0.0
140
1.0
 94
        2
 62
     0
340
239D0
144
0.18
309
CONTENTFORMAT_END
171
     1
301
MARGIN
  1
CELLMARGIN_BEGIN
 40
0.06
 40
0.06
 40
0.06
 40
0.06
 40
0.18
 40
0.18
309
CELLMARGIN_END
 94
        6
 95
        1
302
GRIDFORMAT
  1
GRIDFORMAT_BEGIN
 90
        0
 91
        1
 62
     0
 92
       -2
340
0
 93
        0
 40
0.045
309
GRIDFORMAT_END
 95
        2
302
GRIDFORMAT
  1
GRIDFORMAT_BEGIN
 90
        0
 91
        1
 62
     0
 92
       -2
340
0
 93
        0
 40
0.045
309
GRIDFORMAT_END
 95
        4
302
GRIDFORMAT
  1
GRIDFORMAT_BEGIN
 90
        0
 91
        1
 62
     0
 92
       -2
340
0
 93
        0
 40
0.045
309
GRIDFORMAT_END
 95
        8
302
GRIDFORMAT
  1
GRIDFORMAT_BEGIN
 90
        0
 91
        1
 62
     0
 92
       -2
340
0
 93
        0
 40
0.045
309
GRIDFORMAT_END
 95
       16
302
GRIDFORMAT
  1
GRIDFORMAT_BEGIN
 90
        0
 91
        1
 62
     0
 92
       -2
340
0
 93
        0
 40
0.045
309
GRIDFORMAT_END
 95
       32
302
GRIDFORMAT
  1
GRIDFORMAT_BEGIN
 90
        0
 91
        1
 62
     0
 92
       -2
340
0
 93
        0
 40
0.045
309
GRIDFORMAT_END
309
TABLEFORMAT_END
  1
CELLSTYLE_BEGIN
 90
        3
 91
        2
300
_DATA
309
CELLSTYLE_END
  0
XRECORD
  5
25534
102
{ACAD_REACTORS
330
2545E
102
}
330
2545E
100
AcDbXrecord
280
     1
102
ACAD_ROUNDTRIP_PRE2007_TABLESTYLE
 90
      512
 91
        0
  1

 92
      512
 93
        0
  2

 94
      512
 95
        0
  3

  0
XRECORD
  5
2550F
102
{ACAD_REACTORS
330
2550E
102
}
330
2550E
100
AcDbXrecord
280
     1
102
RTVSPropertyOp0
 70
     1
102
RTVSPropertyOp1
 70
     1
102
RTVSPropertyOp2
 70
     1
102
RTVSPropertyOp3
 70
     1
102
RTVSPropertyOp4
 70
     1
102
RTVSPropertyOp5
 70
     1
102
RTVSPropertyOp6
 70
     1
102
RTVSPropertyOp7
 70
     1
102
RTVSPropertyOp8
 70
     1
102
RTVSPropertyOp9
 70
     1
102
RTVSPropertyOp10
 70
     1
102
RTVSPropertyOp11
 70
     1
102
RTVSPropertyOp12
 70
     1
102
RTVSPropertyOp13
 70
     1
102
RTVSPropertyOp14
 70
     1
102
RTVSPropertyOp15
 70
     1
102
RTVSPropertyOp16
 70
     1
102
RTVSPropertyOp17
 70
     1
102
RTVSPropertyOp18
 70
     1
102
RTVSPropertyOp19
 70
     1
102
RTVSPropertyOp20
 70
     1
102
RTVSPropertyOp21
 70
     1
102
RTVSPropertyOp22
 70
     1
102
RTVSPropertyOp23
 70
     1
102
RTVSPropertyOp24
 70
     1
102
RTVSPropertyOp25
 70
     1
102
RTVSPropertyOp26
 70
     1
102
RTVSPropertyOp27
 70
     1
102
RTVSPropertyOp28
 70
     1
102
RTVSPropertyOp29
 70
     1
102
RTVSPropertyOp30
 70
     1
102
RTVSPropertyOp31
 70
     1
102
RTVSPropertyOp32
 70
     1
  0
XRECORD
  5
2550D
102
{ACAD_REACTORS
330
2550C
102
}
330
2550C
100
AcDbXrecord
280
     1
102
RTVSPropertyOp0
 70
     1
102
RTVSPropertyOp1
 70
     1
102
RTVSPropertyOp2
 70
     1
102
RTVSPropertyOp3
 70
     1
102
RTVSPropertyOp4
 70
     1
102
RTVSPropertyOp5
 70
     1
102
RTVSPropertyOp6
 70
     1
102
RTVSPropertyOp7
 70
     1
102
RTVSPropertyOp8
 70
     1
102
RTVSPropertyOp9
 70
     1
102
RTVSPropertyOp10
 70
     1
102
RTVSPropertyOp11
 70
     1
102
RTVSPropertyOp12
 70
     1
102
RTVSPropertyOp13
 70
     1
102
RTVSPropertyOp14
 70
     1
102
RTVSPropertyOp15
 70
     1
102
RTVSPropertyOp16
 70
     1
102
RTVSPropertyOp17
 70
     1
102
RTVSPropertyOp18
 70
     1
102
RTVSPropertyOp19
 70
     1
102
RTVSPropertyOp20
 70
     1
102
RTVSPropertyOp21
 70
     1
102
RTVSPropertyOp22
 70
     1
102
RTVSPropertyOp23
 70
     1
102
RTVSPropertyOp24
 70
     1
102
RTVSPropertyOp25
 70
     1
102
RTVSPropertyOp26
 70
     1
102
RTVSPropertyOp27
 70
     1
102
RTVSPropertyOp28
 70
     1
102
RTVSPropertyOp29
 70
     1
102
RTVSPropertyOp30
 70
     1
102
RTVSPropertyOp31
 70
     1
102
RTVSPropertyOp32
 70
     1
  0
XRECORD
  5
2551B
102
{ACAD_REACTORS
330
2551A
102
}
330
2551A
100
AcDbXrecord
280
     1
102
RTVSPropertyOp0
 70
     1
102
RTVSPropertyOp1
 70
     1
102
RTVSPropertyOp2
 70
     1
102
RTVSPropertyOp3
 70
     1
102
RTVSPropertyOp4
 70
     1
102
RTVSPropertyOp5
 70
     1
102
RTVSPropertyOp6
 70
     1
102
RTVSPropertyOp7
 70
     1
102
RTVSPropertyOp8
 70
     1
102
RTVSPropertyOp9
 70
     1
102
RTVSPropertyOp10
 70
     1
102
RTVSPropertyOp11
 70
     1
102
RTVSPropertyOp12
 70
     1
102
RTVSPropertyOp13
 70
     1
102
RTVSPropertyOp14
 70
     1
102
RTVSPropertyOp15
 70
     1
102
RTVSPropertyOp16
 70
     1
102
RTVSPropertyOp17
 70
     1
102
RTVSPropertyOp18
 70
     1
102
RTVSPropertyOp19
 70
     1
102
RTVSPropertyOp20
 70
     1
102
RTVSPropertyOp21
 70
     1
102
RTVSPropertyOp22
 70
     1
102
RTVSPropertyOp23
 70
     1
102
RTVSPropertyOp24
 70
     1
102
RTVSPropertyOp25
 70
     1
102
RTVSPropertyOp26
 70
     1
102
RTVSPropertyOp27
 70
     1
102
RTVSPropertyOp28
 70
     1
102
RTVSPropertyOp29
 70
     1
102
RTVSPropertyOp30
 70
     1
102
RTVSPropertyOp31
 70
     1
102
RTVSPropertyOp32
 70
     1
  0
XRECORD
  5
25523
102
{ACAD_REACTORS
330
25522
102
}
330
25522
100
AcDbXrecord
280
     1
102
RTVSPropertyOp0
 70
     1
102
RTVSPropertyOp1
 70
     1
102
RTVSPropertyOp2
 70
     1
102
RTVSPropertyOp3
 70
     1
102
RTVSPropertyOp4
 70
     1
102
RTVSPropertyOp5
 70
     1
102
RTVSPropertyOp6
 70
     1
102
RTVSPropertyOp7
 70
     1
102
RTVSPropertyOp8
 70
     1
102
RTVSPropertyOp9
 70
     1
102
RTVSPropertyOp10
 70
     1
102
RTVSPropertyOp11
 70
     1
102
RTVSPropertyOp12
 70
     1
102
RTVSPropertyOp13
 70
     1
102
RTVSPropertyOp14
 70
     1
102
RTVSPropertyOp15
 70
     1
102
RTVSPropertyOp16
 70
     1
102
RTVSPropertyOp17
 70
     1
102
RTVSPropertyOp18
 70
     1
102
RTVSPropertyOp19
 70
     1
102
RTVSPropertyOp20
 70
     1
102
RTVSPropertyOp21
 70
     1
102
RTVSPropertyOp22
 70
     1
102
RTVSPropertyOp23
 70
     1
102
RTVSPropertyOp24
 70
     1
102
RTVSPropertyOp25
 70
     1
102
RTVSPropertyOp26
 70
     1
102
RTVSPropertyOp27
 70
     1
102
RTVSPropertyOp28
 70
     1
102
RTVSPropertyOp29
 70
     1
102
RTVSPropertyOp30
 70
     1
102
RTVSPropertyOp31
 70
     1
102
RTVSPropertyOp32
 70
     1
  0
XRECORD
  5
25515
102
{ACAD_REACTORS
330
25514
102
}
330
25514
100
AcDbXrecord
280
     1
102
RTVSPropertyOp0
 70
     1
102
RTVSPropertyOp1
 70
     1
102
RTVSPropertyOp2
 70
     1
102
RTVSPropertyOp3
 70
     1
102
RTVSPropertyOp4
 70
     1
102
RTVSPropertyOp5
 70
     1
102
RTVSPropertyOp6
 70
     1
102
RTVSPropertyOp7
 70
     1
102
RTVSPropertyOp8
 70
     1
102
RTVSPropertyOp9
 70
     1
102
RTVSPropertyOp10
 70
     1
102
RTVSPropertyOp11
 70
     1
102
RTVSPropertyOp12
 70
     1
102
RTVSPropertyOp13
 70
     1
102
RTVSPropertyOp14
 70
     1
102
RTVSPropertyOp15
 70
     1
102
RTVSPropertyOp16
 70
     1
102
RTVSPropertyOp17
 70
     1
102
RTVSPropertyOp18
 70
     1
102
RTVSPropertyOp19
 70
     1
102
RTVSPropertyOp20
 70
     1
102
RTVSPropertyOp21
 70
     1
102
RTVSPropertyOp22
 70
     1
102
RTVSPropertyOp23
 70
     1
102
RTVSPropertyOp24
 70
     1
102
RTVSPropertyOp25
 70
     1
102
RTVSPropertyOp26
 70
     1
102
RTVSPropertyOp27
 70
     1
102
RTVSPropertyOp28
 70
     1
102
RTVSPropertyOp29
 70
     1
102
RTVSPropertyOp30
 70
     1
102
RTVSPropertyOp31
 70
     1
102
RTVSPropertyOp32
 70
     1
  0
XRECORD
  5
25519
102
{ACAD_REACTORS
330
25518
102
}
330
25518
100
AcDbXrecord
280
     1
102
RTVSPropertyOp0
 70
     1
102
RTVSPropertyOp1
 70
     1
102
RTVSPropertyOp2
 70
     1
102
RTVSPropertyOp3
 70
     1
102
RTVSPropertyOp4
 70
     1
102
RTVSPropertyOp5
 70
     1
102
RTVSPropertyOp6
 70
     1
102
RTVSPropertyOp7
 70
     1
102
RTVSPropertyOp8
 70
     1
102
RTVSPropertyOp9
 70
     1
102
RTVSPropertyOp10
 70
     1
102
RTVSPropertyOp11
 70
     1
102
RTVSPropertyOp12
 70
     1
102
RTVSPropertyOp13
 70
     1
102
RTVSPropertyOp14
 70
     1
102
RTVSPropertyOp15
 70
     1
102
RTVSPropertyOp16
 70
     1
102
RTVSPropertyOp17
 70
     1
102
RTVSPropertyOp18
 70
     1
102
RTVSPropertyOp19
 70
     1
102
RTVSPropertyOp20
 70
     1
102
RTVSPropertyOp21
 70
     1
102
RTVSPropertyOp22
 70
     1
102
RTVSPropertyOp23
 70
     1
102
RTVSPropertyOp24
 70
     1
102
RTVSPropertyOp25
 70
     1
102
RTVSPropertyOp26
 70
     1
102
RTVSPropertyOp27
 70
     1
102
RTVSPropertyOp28
 70
     1
102
RTVSPropertyOp29
 70
     1
102
RTVSPropertyOp30
 70
     1
102
RTVSPropertyOp31
 70
     1
102
RTVSPropertyOp32
 70
     1
  0
XRECORD
  5
25533
102
{ACAD_REACTORS
330
25532
102
}
330
25532
100
AcDbXrecord
280
     1
102
RTVSPropertyOp0
 70
     0
102
RTVSPropertyOp1
 70
     0
102
RTVSPropertyOp2
 70
     0
102
RTVSPropertyOp3
 70
     0
102
RTVSPropertyOp4
 70
     0
102
RTVSPropertyOp5
 70
     0
102
RTVSPropertyOp6
 70
     0
102
RTVSPropertyOp7
 70
     0
102
RTVSPropertyOp8
 70
     0
102
RTVSPropertyOp9
 70
     0
102
RTVSPropertyOp10
 70
     0
102
RTVSPropertyOp11
 70
     0
102
RTVSPropertyOp12
 70
     0
102
RTVSPropertyOp13
 70
     0
102
RTVSPropertyOp14
 70
     2
102
RTVSPropertyOp15
 70
     0
102
RTVSPropertyOp16
 70
     0
102
RTVSPropertyOp17
 70
     0
102
RTVSPropertyOp18
 70
     0
102
RTVSPropertyOp19
 70
     0
102
RTVSPropertyOp20
 70
     0
102
RTVSPropertyOp21
 70
     0
102
RTVSPropertyOp22
 70
     0
102
RTVSPropertyOp23
 70
     0
102
RTVSPropertyOp24
 70
     0
102
RTVSPropertyOp25
 70
     0
102
RTVSPropertyOp26
 70
     0
102
RTVSPropertyOp27
 70
     0
102
RTVSPropertyOp28
 70
     0
102
RTVSPropertyOp29
 70
     0
102
RTVSPropertyOp30
 70
     0
102
RTVSPropertyOp31
 70
     0
102
RTVSPropertyOp32
 70
     0
  0
XRECORD
  5
25521
102
{ACAD_REACTORS
330
25520
102
}
330
25520
100
AcDbXrecord
280
     1
102
RTVSPropertyOp0
 70
     1
102
RTVSPropertyOp1
 70
     1
102
RTVSPropertyOp2
 70
     1
102
RTVSPropertyOp3
 70
     1
102
RTVSPropertyOp4
 70
     1
102
RTVSPropertyOp5
 70
     1
102
RTVSPropertyOp6
 70
     1
102
RTVSPropertyOp7
 70
     1
102
RTVSPropertyOp8
 70
     1
102
RTVSPropertyOp9
 70
     1
102
RTVSPropertyOp10
 70
     1
102
RTVSPropertyOp11
 70
     1
102
RTVSPropertyOp12
 70
     1
102
RTVSPropertyOp13
 70
     1
102
RTVSPropertyOp14
 70
     1
102
RTVSPropertyOp15
 70
     1
102
RTVSPropertyOp16
 70
     1
102
RTVSPropertyOp17
 70
     1
102
RTVSPropertyOp18
 70
     1
102
RTVSPropertyOp19
 70
     1
102
RTVSPropertyOp20
 70
     1
102
RTVSPropertyOp21
 70
     1
102
RTVSPropertyOp22
 70
     1
102
RTVSPropertyOp23
 70
     1
102
RTVSPropertyOp24
 70
     1
102
RTVSPropertyOp25
 70
     1
102
RTVSPropertyOp26
 70
     1
102
RTVSPropertyOp27
 70
     1
102
RTVSPropertyOp28
 70
     1
102
RTVSPropertyOp29
 70
     1
102
RTVSPropertyOp30
 70
     1
102
RTVSPropertyOp31
 70
     1
102
RTVSPropertyOp32
 70
     1
  0
XRECORD
  5
25505
102
{ACAD_REACTORS
330
25504
102
}
330
25504
100
AcDbXrecord
280
     1
102
RTVSPropertyOp0
 70
     1
102
RTVSPropertyOp1
 70
     1
102
RTVSPropertyOp2
 70
     1
102
RTVSPropertyOp3
 70
     1
102
RTVSPropertyOp4
 70
     1
102
RTVSPropertyOp5
 70
     1
102
RTVSPropertyOp6
 70
     1
102
RTVSPropertyOp7
 70
     1
102
RTVSPropertyOp8
 70
     1
102
RTVSPropertyOp9
 70
     1
102
RTVSPropertyOp10
 70
     1
102
RTVSPropertyOp11
 70
     1
102
RTVSPropertyOp12
 70
     1
102
RTVSPropertyOp13
 70
     1
102
RTVSPropertyOp14
 70
     1
102
RTVSPropertyOp15
 70
     1
102
RTVSPropertyOp16
 70
     1
102
RTVSPropertyOp17
 70
     1
102
RTVSPropertyOp18
 70
     1
102
RTVSPropertyOp19
 70
     1
102
RTVSPropertyOp20
 70
     1
102
RTVSPropertyOp21
 70
     1
102
RTVSPropertyOp22
 70
     1
102
RTVSPropertyOp23
 70
     1
102
RTVSPropertyOp24
 70
     1
102
RTVSPropertyOp25
 70
     1
102
RTVSPropertyOp26
 70
     1
102
RTVSPropertyOp27
 70
     1
102
RTVSPropertyOp28
 70
     1
102
RTVSPropertyOp29
 70
     1
102
RTVSPropertyOp30
 70
     1
102
RTVSPropertyOp31
 70
     1
102
RTVSPropertyOp32
 70
     1
  0
XRECORD
  5
25507
102
{ACAD_REACTORS
330
25506
102
}
330
25506
100
AcDbXrecord
280
     1
102
RTVSPropertyOp0
 70
     1
102
RTVSPropertyOp1
 70
     1
102
RTVSPropertyOp2
 70
     1
102
RTVSPropertyOp3
 70
     1
102
RTVSPropertyOp4
 70
     1
102
RTVSPropertyOp5
 70
     1
102
RTVSPropertyOp6
 70
     1
102
RTVSPropertyOp7
 70
     1
102
RTVSPropertyOp8
 70
     1
102
RTVSPropertyOp9
 70
     1
102
RTVSPropertyOp10
 70
     1
102
RTVSPropertyOp11
 70
     1
102
RTVSPropertyOp12
 70
     1
102
RTVSPropertyOp13
 70
     1
102
RTVSPropertyOp14
 70
     1
102
RTVSPropertyOp15
 70
     1
102
RTVSPropertyOp16
 70
     1
102
RTVSPropertyOp17
 70
     1
102
RTVSPropertyOp18
 70
     1
102
RTVSPropertyOp19
 70
     1
102
RTVSPropertyOp20
 70
     1
102
RTVSPropertyOp21
 70
     1
102
RTVSPropertyOp22
 70
     1
102
RTVSPropertyOp23
 70
     1
102
RTVSPropertyOp24
 70
     1
102
RTVSPropertyOp25
 70
     1
102
RTVSPropertyOp26
 70
     1
102
RTVSPropertyOp27
 70
     1
102
RTVSPropertyOp28
 70
     1
102
RTVSPropertyOp29
 70
     1
102
RTVSPropertyOp30
 70
     1
102
RTVSPropertyOp31
 70
     1
102
RTVSPropertyOp32
 70
     1
  0
XRECORD
  5
25509
102
{ACAD_REACTORS
330
25508
102
}
330
25508
100
AcDbXrecord
280
     1
102
RTVSPropertyOp0
 70
     1
102
RTVSPropertyOp1
 70
     1
102
RTVSPropertyOp2
 70
     1
102
RTVSPropertyOp3
 70
     1
102
RTVSPropertyOp4
 70
     1
102
RTVSPropertyOp5
 70
     1
102
RTVSPropertyOp6
 70
     1
102
RTVSPropertyOp7
 70
     1
102
RTVSPropertyOp8
 70
     1
102
RTVSPropertyOp9
 70
     1
102
RTVSPropertyOp10
 70
     1
102
RTVSPropertyOp11
 70
     1
102
RTVSPropertyOp12
 70
     1
102
RTVSPropertyOp13
 70
     1
102
RTVSPropertyOp14
 70
     1
102
RTVSPropertyOp15
 70
     1
102
RTVSPropertyOp16
 70
     1
102
RTVSPropertyOp17
 70
     1
102
RTVSPropertyOp18
 70
     1
102
RTVSPropertyOp19
 70
     1
102
RTVSPropertyOp20
 70
     1
102
RTVSPropertyOp21
 70
     1
102
RTVSPropertyOp22
 70
     1
102
RTVSPropertyOp23
 70
     1
102
RTVSPropertyOp24
 70
     1
102
RTVSPropertyOp25
 70
     1
102
RTVSPropertyOp26
 70
     1
102
RTVSPropertyOp27
 70
     1
102
RTVSPropertyOp28
 70
     1
102
RTVSPropertyOp29
 70
     1
102
RTVSPropertyOp30
 70
     1
102
RTVSPropertyOp31
 70
     1
102
RTVSPropertyOp32
 70
     1
  0
XRECORD
  5
2550B
102
{ACAD_REACTORS
330
2550A
102
}
330
2550A
100
AcDbXrecord
280
     1
102
RTVSPropertyOp0
 70
     1
102
RTVSPropertyOp1
 70
     1
102
RTVSPropertyOp2
 70
     1
102
RTVSPropertyOp3
 70
     1
102
RTVSPropertyOp4
 70
     1
102
RTVSPropertyOp5
 70
     1
102
RTVSPropertyOp6
 70
     1
102
RTVSPropertyOp7
 70
     1
102
RTVSPropertyOp8
 70
     1
102
RTVSPropertyOp9
 70
     1
102
RTVSPropertyOp10
 70
     1
102
RTVSPropertyOp11
 70
     1
102
RTVSPropertyOp12
 70
     1
102
RTVSPropertyOp13
 70
     1
102
RTVSPropertyOp14
 70
     1
102
RTVSPropertyOp15
 70
     1
102
RTVSPropertyOp16
 70
     1
102
RTVSPropertyOp17
 70
     1
102
RTVSPropertyOp18
 70
     1
102
RTVSPropertyOp19
 70
     1
102
RTVSPropertyOp20
 70
     1
102
RTVSPropertyOp21
 70
     1
102
RTVSPropertyOp22
 70
     1
102
RTVSPropertyOp23
 70
     1
102
RTVSPropertyOp24
 70
     1
102
RTVSPropertyOp25
 70
     1
102
RTVSPropertyOp26
 70
     1
102
RTVSPropertyOp27
 70
     1
102
RTVSPropertyOp28
 70
     1
102
RTVSPropertyOp29
 70
     1
102
RTVSPropertyOp30
 70
     1
102
RTVSPropertyOp31
 70
     1
102
RTVSPropertyOp32
 70
     1
  0
XRECORD
  5
25513
102
{ACAD_REACTORS
330
25512
102
}
330
25512
100
AcDbXrecord
280
     1
102
RTVSPropertyOp0
 70
     1
102
RTVSPropertyOp1
 70
     1
102
RTVSPropertyOp2
 70
     1
102
RTVSPropertyOp3
 70
     1
102
RTVSPropertyOp4
 70
     1
102
RTVSPropertyOp5
 70
     1
102
RTVSPropertyOp6
 70
     1
102
RTVSPropertyOp7
 70
     1
102
RTVSPropertyOp8
 70
     1
102
RTVSPropertyOp9
 70
     1
102
RTVSPropertyOp10
 70
     1
102
RTVSPropertyOp11
 70
     1
102
RTVSPropertyOp12
 70
     1
102
RTVSPropertyOp13
 70
     1
102
RTVSPropertyOp14
 70
     1
102
RTVSPropertyOp15
 70
     1
102
RTVSPropertyOp16
 70
     1
102
RTVSPropertyOp17
 70
     1
102
RTVSPropertyOp18
 70
     1
102
RTVSPropertyOp19
 70
     1
102
RTVSPropertyOp20
 70
     1
102
RTVSPropertyOp21
 70
     1
102
RTVSPropertyOp22
 70
     1
102
RTVSPropertyOp23
 70
     1
102
RTVSPropertyOp24
 70
     1
102
RTVSPropertyOp25
 70
     1
102
RTVSPropertyOp26
 70
     1
102
RTVSPropertyOp27
 70
     1
102
RTVSPropertyOp28
 70
     1
102
RTVSPropertyOp29
 70
     1
102
RTVSPropertyOp30
 70
     1
102
RTVSPropertyOp31
 70
     1
102
RTVSPropertyOp32
 70
     1
  0
XRECORD
  5
2552F
102
{ACAD_REACTORS
330
2552E
102
}
330
2552E
100
AcDbXrecord
280
     1
102
RTVSPropertyOp0
 70
     0
102
RTVSPropertyOp1
 70
     0
102
RTVSPropertyOp2
 70
     0
102
RTVSPropertyOp3
 70
     0
102
RTVSPropertyOp4
 70
     0
102
RTVSPropertyOp5
 70
     0
102
RTVSPropertyOp6
 70
     0
102
RTVSPropertyOp7
 70
     0
102
RTVSPropertyOp8
 70
     0
102
RTVSPropertyOp9
 70
     0
102
RTVSPropertyOp10
 70
     0
102
RTVSPropertyOp11
 70
     0
102
RTVSPropertyOp12
 70
     0
102
RTVSPropertyOp13
 70
     0
102
RTVSPropertyOp14
 70
     2
102
RTVSPropertyOp15
 70
     0
102
RTVSPropertyOp16
 70
     0
102
RTVSPropertyOp17
 70
     0
102
RTVSPropertyOp18
 70
     0
102
RTVSPropertyOp19
 70
     0
102
RTVSPropertyOp20
 70
     0
102
RTVSPropertyOp21
 70
     0
102
RTVSPropertyOp22
 70
     0
102
RTVSPropertyOp23
 70
     0
102
RTVSPropertyOp24
 70
     0
102
RTVSPropertyOp25
 70
     0
102
RTVSPropertyOp26
 70
     0
102
RTVSPropertyOp27
 70
     0
102
RTVSPropertyOp28
 70
     0
102
RTVSPropertyOp29
 70
     0
102
RTVSPropertyOp30
 70
     0
102
RTVSPropertyOp31
 70
     0
102
RTVSPropertyOp32
 70
     0
  0
XRECORD
  5
2551F
102
{ACAD_REACTORS
330
2551E
102
}
330
2551E
100
AcDbXrecord
280
     1
102
RTVSPropertyOp0
 70
     1
102
RTVSPropertyOp1
 70
     1
102
RTVSPropertyOp2
 70
     1
102
RTVSPropertyOp3
 70
     1
102
RTVSPropertyOp4
 70
     1
102
RTVSPropertyOp5
 70
     1
102
RTVSPropertyOp6
 70
     1
102
RTVSPropertyOp7
 70
     1
102
RTVSPropertyOp8
 70
     1
102
RTVSPropertyOp9
 70
     1
102
RTVSPropertyOp10
 70
     1
102
RTVSPropertyOp11
 70
     1
102
RTVSPropertyOp12
 70
     1
102
RTVSPropertyOp13
 70
     1
102
RTVSPropertyOp14
 70
     1
102
RTVSPropertyOp15
 70
     1
102
RTVSPropertyOp16
 70
     1
102
RTVSPropertyOp17
 70
     1
102
RTVSPropertyOp18
 70
     1
102
RTVSPropertyOp19
 70
     1
102
RTVSPropertyOp20
 70
     1
102
RTVSPropertyOp21
 70
     1
102
RTVSPropertyOp22
 70
     1
102
RTVSPropertyOp23
 70
     1
102
RTVSPropertyOp24
 70
     1
102
RTVSPropertyOp25
 70
     1
102
RTVSPropertyOp26
 70
     1
102
RTVSPropertyOp27
 70
     1
102
RTVSPropertyOp28
 70
     1
102
RTVSPropertyOp29
 70
     1
102
RTVSPropertyOp30
 70
     1
102
RTVSPropertyOp31
 70
     1
102
RTVSPropertyOp32
 70
     1
  0
XRECORD
  5
25531
102
{ACAD_REACTORS
330
25530
102
}
330
25530
100
AcDbXrecord
280
     1
102
RTVSPropertyOp0
 70
     0
102
RTVSPropertyOp1
 70
     0
102
RTVSPropertyOp2
 70
     0
102
RTVSPropertyOp3
 70
     0
102
RTVSPropertyOp4
 70
     0
102
RTVSPropertyOp5
 70
     0
102
RTVSPropertyOp6
 70
     0
102
RTVSPropertyOp7
 70
     0
102
RTVSPropertyOp8
 70
     0
102
RTVSPropertyOp9
 70
     0
102
RTVSPropertyOp10
 70
     0
102
RTVSPropertyOp11
 70
     0
102
RTVSPropertyOp12
 70
     0
102
RTVSPropertyOp13
 70
     0
102
RTVSPropertyOp14
 70
     2
102
RTVSPropertyOp15
 70
     0
102
RTVSPropertyOp16
 70
     0
102
RTVSPropertyOp17
 70
     0
102
RTVSPropertyOp18
 70
     0
102
RTVSPropertyOp19
 70
     0
102
RTVSPropertyOp20
 70
     0
102
RTVSPropertyOp21
 70
     0
102
RTVSPropertyOp22
 70
     0
102
RTVSPropertyOp23
 70
     0
102
RTVSPropertyOp24
 70
     0
102
RTVSPropertyOp25
 70
     0
102
RTVSPropertyOp26
 70
     0
102
RTVSPropertyOp27
 70
     0
102
RTVSPropertyOp28
 70
     0
102
RTVSPropertyOp29
 70
     0
102
RTVSPropertyOp30
 70
     0
102
RTVSPropertyOp31
 70
     0
102
RTVSPropertyOp32
 70
     0
  0
XRECORD
  5
25517
102
{ACAD_REACTORS
330
25516
102
}
330
25516
100
AcDbXrecord
280
     1
102
RTVSPropertyOp0
 70
     1
102
RTVSPropertyOp1
 70
     1
102
RTVSPropertyOp2
 70
     1
102
RTVSPropertyOp3
 70
     1
102
RTVSPropertyOp4
 70
     1
102
RTVSPropertyOp5
 70
     1
102
RTVSPropertyOp6
 70
     1
102
RTVSPropertyOp7
 70
     1
102
RTVSPropertyOp8
 70
     1
102
RTVSPropertyOp9
 70
     1
102
RTVSPropertyOp10
 70
     1
102
RTVSPropertyOp11
 70
     1
102
RTVSPropertyOp12
 70
     1
102
RTVSPropertyOp13
 70
     1
102
RTVSPropertyOp14
 70
     1
102
RTVSPropertyOp15
 70
     1
102
RTVSPropertyOp16
 70
     1
102
RTVSPropertyOp17
 70
     1
102
RTVSPropertyOp18
 70
     1
102
RTVSPropertyOp19
 70
     1
102
RTVSPropertyOp20
 70
     1
102
RTVSPropertyOp21
 70
     1
102
RTVSPropertyOp22
 70
     1
102
RTVSPropertyOp23
 70
     1
102
RTVSPropertyOp24
 70
     1
102
RTVSPropertyOp25
 70
     1
102
RTVSPropertyOp26
 70
     1
102
RTVSPropertyOp27
 70
     1
102
RTVSPropertyOp28
 70
     1
102
RTVSPropertyOp29
 70
     1
102
RTVSPropertyOp30
 70
     1
102
RTVSPropertyOp31
 70
     1
102
RTVSPropertyOp32
 70
     1
  0
XRECORD
  5
2552D
102
{ACAD_REACTORS
330
2552C
102
}
330
2552C
100
AcDbXrecord
280
     1
102
RTVSPropertyOp0
 70
     1
102
RTVSPropertyOp1
 70
     1
102
RTVSPropertyOp2
 70
     1
102
RTVSPropertyOp3
 70
     1
102
RTVSPropertyOp4
 70
     1
102
RTVSPropertyOp5
 70
     1
102
RTVSPropertyOp6
 70
     1
102
RTVSPropertyOp7
 70
     1
102
RTVSPropertyOp8
 70
     1
102
RTVSPropertyOp9
 70
     1
102
RTVSPropertyOp10
 70
     1
102
RTVSPropertyOp11
 70
     1
102
RTVSPropertyOp12
 70
     1
102
RTVSPropertyOp13
 70
     1
102
RTVSPropertyOp14
 70
     1
102
RTVSPropertyOp15
 70
     1
102
RTVSPropertyOp16
 70
     1
102
RTVSPropertyOp17
 70
     1
102
RTVSPropertyOp18
 70
     1
102
RTVSPropertyOp19
 70
     1
102
RTVSPropertyOp20
 70
     1
102
RTVSPropertyOp21
 70
     1
102
RTVSPropertyOp22
 70
     1
102
RTVSPropertyOp23
 70
     1
102
RTVSPropertyOp24
 70
     1
102
RTVSPropertyOp25
 70
     1
102
RTVSPropertyOp26
 70
     1
102
RTVSPropertyOp27
 70
     1
102
RTVSPropertyOp28
 70
     1
102
RTVSPropertyOp29
 70
     1
102
RTVSPropertyOp30
 70
     1
102
RTVSPropertyOp31
 70
     1
102
RTVSPropertyOp32
 70
     1
  0
XRECORD
  5
2552B
102
{ACAD_REACTORS
330
2552A
102
}
330
2552A
100
AcDbXrecord
280
     1
102
RTVSPropertyOp0
 70
     1
102
RTVSPropertyOp1
 70
     1
102
RTVSPropertyOp2
 70
     1
102
RTVSPropertyOp3
 70
     1
102
RTVSPropertyOp4
 70
     1
102
RTVSPropertyOp5
 70
     1
102
RTVSPropertyOp6
 70
     1
102
RTVSPropertyOp7
 70
     1
102
RTVSPropertyOp8
 70
     1
102
RTVSPropertyOp9
 70
     1
102
RTVSPropertyOp10
 70
     1
102
RTVSPropertyOp11
 70
     1
102
RTVSPropertyOp12
 70
     1
102
RTVSPropertyOp13
 70
     1
102
RTVSPropertyOp14
 70
     1
102
RTVSPropertyOp15
 70
     1
102
RTVSPropertyOp16
 70
     1
102
RTVSPropertyOp17
 70
     1
102
RTVSPropertyOp18
 70
     1
102
RTVSPropertyOp19
 70
     1
102
RTVSPropertyOp20
 70
     1
102
RTVSPropertyOp21
 70
     1
102
RTVSPropertyOp22
 70
     1
102
RTVSPropertyOp23
 70
     1
102
RTVSPropertyOp24
 70
     1
102
RTVSPropertyOp25
 70
     1
102
RTVSPropertyOp26
 70
     1
102
RTVSPropertyOp27
 70
     1
102
RTVSPropertyOp28
 70
     1
102
RTVSPropertyOp29
 70
     1
102
RTVSPropertyOp30
 70
     1
102
RTVSPropertyOp31
 70
     1
102
RTVSPropertyOp32
 70
     1
  0
XRECORD
  5
25525
102
{ACAD_REACTORS
330
25524
102
}
330
25524
100
AcDbXrecord
280
     1
102
RTVSPropertyOp0
 70
     1
102
RTVSPropertyOp1
 70
     1
102
RTVSPropertyOp2
 70
     1
102
RTVSPropertyOp3
 70
     1
102
RTVSPropertyOp4
 70
     1
102
RTVSPropertyOp5
 70
     1
102
RTVSPropertyOp6
 70
     1
102
RTVSPropertyOp7
 70
     1
102
RTVSPropertyOp8
 70
     1
102
RTVSPropertyOp9
 70
     1
102
RTVSPropertyOp10
 70
     1
102
RTVSPropertyOp11
 70
     1
102
RTVSPropertyOp12
 70
     1
102
RTVSPropertyOp13
 70
     1
102
RTVSPropertyOp14
 70
     1
102
RTVSPropertyOp15
 70
     1
102
RTVSPropertyOp16
 70
     1
102
RTVSPropertyOp17
 70
     1
102
RTVSPropertyOp18
 70
     1
102
RTVSPropertyOp19
 70
     1
102
RTVSPropertyOp20
 70
     1
102
RTVSPropertyOp21
 70
     1
102
RTVSPropertyOp22
 70
     1
102
RTVSPropertyOp23
 70
     1
102
RTVSPropertyOp24
 70
     1
102
RTVSPropertyOp25
 70
     1
102
RTVSPropertyOp26
 70
     1
102
RTVSPropertyOp27
 70
     1
102
RTVSPropertyOp28
 70
     1
102
RTVSPropertyOp29
 70
     1
102
RTVSPropertyOp30
 70
     1
102
RTVSPropertyOp31
 70
     1
102
RTVSPropertyOp32
 70
     1
  0
XRECORD
  5
25527
102
{ACAD_REACTORS
330
25526
102
}
330
25526
100
AcDbXrecord
280
     1
102
RTVSPropertyOp0
 70
     1
102
RTVSPropertyOp1
 70
     1
102
RTVSPropertyOp2
 70
     1
102
RTVSPropertyOp3
 70
     1
102
RTVSPropertyOp4
 70
     1
102
RTVSPropertyOp5
 70
     1
102
RTVSPropertyOp6
 70
     1
102
RTVSPropertyOp7
 70
     1
102
RTVSPropertyOp8
 70
     1
102
RTVSPropertyOp9
 70
     1
102
RTVSPropertyOp10
 70
     1
102
RTVSPropertyOp11
 70
     1
102
RTVSPropertyOp12
 70
     1
102
RTVSPropertyOp13
 70
     1
102
RTVSPropertyOp14
 70
     1
102
RTVSPropertyOp15
 70
     1
102
RTVSPropertyOp16
 70
     1
102
RTVSPropertyOp17
 70
     1
102
RTVSPropertyOp18
 70
     1
102
RTVSPropertyOp19
 70
     1
102
RTVSPropertyOp20
 70
     1
102
RTVSPropertyOp21
 70
     1
102
RTVSPropertyOp22
 70
     1
102
RTVSPropertyOp23
 70
     1
102
RTVSPropertyOp24
 70
     1
102
RTVSPropertyOp25
 70
     1
102
RTVSPropertyOp26
 70
     1
102
RTVSPropertyOp27
 70
     1
102
RTVSPropertyOp28
 70
     1
102
RTVSPropertyOp29
 70
     1
102
RTVSPropertyOp30
 70
     1
102
RTVSPropertyOp31
 70
     1
102
RTVSPropertyOp32
 70
     1
  0
XRECORD
  5
2551D
102
{ACAD_REACTORS
330
2551C
102
}
330
2551C
100
AcDbXrecord
280
     1
102
RTVSPropertyOp0
 70
     1
102
RTVSPropertyOp1
 70
     1
102
RTVSPropertyOp2
 70
     1
102
RTVSPropertyOp3
 70
     1
102
RTVSPropertyOp4
 70
     1
102
RTVSPropertyOp5
 70
     1
102
RTVSPropertyOp6
 70
     1
102
RTVSPropertyOp7
 70
     1
102
RTVSPropertyOp8
 70
     1
102
RTVSPropertyOp9
 70
     1
102
RTVSPropertyOp10
 70
     1
102
RTVSPropertyOp11
 70
     1
102
RTVSPropertyOp12
 70
     1
102
RTVSPropertyOp13
 70
     1
102
RTVSPropertyOp14
 70
     1
102
RTVSPropertyOp15
 70
     1
102
RTVSPropertyOp16
 70
     1
102
RTVSPropertyOp17
 70
     1
102
RTVSPropertyOp18
 70
     1
102
RTVSPropertyOp19
 70
     1
102
RTVSPropertyOp20
 70
     1
102
RTVSPropertyOp21
 70
     1
102
RTVSPropertyOp22
 70
     1
102
RTVSPropertyOp23
 70
     1
102
RTVSPropertyOp24
 70
     1
102
RTVSPropertyOp25
 70
     1
102
RTVSPropertyOp26
 70
     1
102
RTVSPropertyOp27
 70
     1
102
RTVSPropertyOp28
 70
     1
102
RTVSPropertyOp29
 70
     1
102
RTVSPropertyOp30
 70
     1
102
RTVSPropertyOp31
 70
     1
102
RTVSPropertyOp32
 70
     1
  0
XRECORD
  5
25511
102
{ACAD_REACTORS
330
25510
102
}
330
25510
100
AcDbXrecord
280
     1
102
RTVSPropertyOp0
 70
     1
102
RTVSPropertyOp1
 70
     1
102
RTVSPropertyOp2
 70
     1
102
RTVSPropertyOp3
 70
     1
102
RTVSPropertyOp4
 70
     1
102
RTVSPropertyOp5
 70
     1
102
RTVSPropertyOp6
 70
     1
102
RTVSPropertyOp7
 70
     1
102
RTVSPropertyOp8
 70
     1
102
RTVSPropertyOp9
 70
     1
102
RTVSPropertyOp10
 70
     1
102
RTVSPropertyOp11
 70
     1
102
RTVSPropertyOp12
 70
     1
102
RTVSPropertyOp13
 70
     1
102
RTVSPropertyOp14
 70
     1
102
RTVSPropertyOp15
 70
     1
102
RTVSPropertyOp16
 70
     1
102
RTVSPropertyOp17
 70
     1
102
RTVSPropertyOp18
 70
     1
102
RTVSPropertyOp19
 70
     1
102
RTVSPropertyOp20
 70
     1
102
RTVSPropertyOp21
 70
     1
102
RTVSPropertyOp22
 70
     1
102
RTVSPropertyOp23
 70
     1
102
RTVSPropertyOp24
 70
     1
102
RTVSPropertyOp25
 70
     1
102
RTVSPropertyOp26
 70
     1
102
RTVSPropertyOp27
 70
     1
102
RTVSPropertyOp28
 70
     1
102
RTVSPropertyOp29
 70
     1
102
RTVSPropertyOp30
 70
     1
102
RTVSPropertyOp31
 70
     1
102
RTVSPropertyOp32
 70
     1
  0
XRECORD
  5
25529
102
{ACAD_REACTORS
330
25528
102
}
330
25528
100
AcDbXrecord
280
     1
102
RTVSPropertyOp0
 70
     1
102
RTVSPropertyOp1
 70
     1
102
RTVSPropertyOp2
 70
     1
102
RTVSPropertyOp3
 70
     1
102
RTVSPropertyOp4
 70
     1
102
RTVSPropertyOp5
 70
     1
102
RTVSPropertyOp6
 70
     1
102
RTVSPropertyOp7
 70
     1
102
RTVSPropertyOp8
 70
     1
102
RTVSPropertyOp9
 70
     1
102
RTVSPropertyOp10
 70
     1
102
RTVSPropertyOp11
 70
     1
102
RTVSPropertyOp12
 70
     1
102
RTVSPropertyOp13
 70
     1
102
RTVSPropertyOp14
 70
     1
102
RTVSPropertyOp15
 70
     1
102
RTVSPropertyOp16
 70
     1
102
RTVSPropertyOp17
 70
     1
102
RTVSPropertyOp18
 70
     1
102
RTVSPropertyOp19
 70
     1
102
RTVSPropertyOp20
 70
     1
102
RTVSPropertyOp21
 70
     1
102
RTVSPropertyOp22
 70
     1
102
RTVSPropertyOp23
 70
     1
102
RTVSPropertyOp24
 70
     1
102
RTVSPropertyOp25
 70
     1
102
RTVSPropertyOp26
 70
     1
102
RTVSPropertyOp27
 70
     1
102
RTVSPropertyOp28
 70
     1
102
RTVSPropertyOp29
 70
     1
102
RTVSPropertyOp30
 70
     1
102
RTVSPropertyOp31
 70
     1
102
RTVSPropertyOp32
 70
     1
  0
ENDSEC
  0
EOF
