  0
SECTION
  2
HEADER
  9
$ACADVER
  1
AC1018
  9
$ACADMAINTVER
 70
   104
  9
$DWGCODEPAGE
  3
ANSI_932
  9
$LASTSAVEDBY
  1
DOK
  9
$INSBASE
 10
267.0000000000001
 20
194.8999999999998
 30
0.0
  9
$EXTMIN
 10
12633.28303038815
 20
156.042224454377
 30
-0.0000000000000053
  9
$EXTMAX
 10
25236.53073514487
 20
9066.218027305618
 30
0.0000000000000099
  9
$LIMMIN
 10
0.0
 20
0.0
  9
$LIMMAX
 10
12600.0
 20
8910.0
  9
$ORTHOMODE
 70
     0
  9
$REGENMODE
 70
     1
  9
$FILLMODE
 70
     1
  9
$QTEXTMODE
 70
     0
  9
$MIRRTEXT
 70
     0
  9
$LTSCALE
 40
30.0
  9
$ATTMODE
 70
     1
  9
$TEXTSIZE
 40
0.2
  9
$TRACEWID
 40
0.05
  9
$TEXTSTYLE
  7
00
  9
$CLAYER
  8
SUNPOU
  9
$CELTYPE
  6
ByLayer
  9
$CECOLOR
 62
   256
  9
$CELTSCALE
 40
1.0
  9
$DISPSILH
 70
     0
  9
$DIMSCALE
 40
30.0
  9
$DIMASZ
 40
0.5
  9
$DIMEXO
 40
1.0
  9
$DIMDLI
 40
7.0
  9
$DIMRND
 40
0.0
  9
$DIMDLE
 40
3.0
  9
$DIMEXE
 40
1.5
  9
$DIMTP
 40
0.0
  9
$DIMTM
 40
0.0
  9
$DIMTXT
 40
3.0
  9
$DIMCEN
 40
0.0
  9
$DIMTSZ
 40
0.0
  9
$DIMTOL
 70
     0
  9
$DIMLIM
 70
     0
  9
$DIMTIH
 70
     0
  9
$DIMTOH
 70
     0
  9
$DIMSE1
 70
     0
  9
$DIMSE2
 70
     0
  9
$DIMTAD
 70
     1
  9
$DIMZIN
 70
     8
  9
$DIMBLK
  1
DOT
  9
$DIMASO
 70
     1
  9
$DIMSHO
 70
     0
  9
$DIMPOST
  1

  9
$DIMAPOST
  1

  9
$DIMALT
 70
     0
  9
$DIMALTD
 70
     2
  9
$DIMALTF
 40
25.4
  9
$DIMLFAC
 40
1.0
  9
$DIMTOFL
 70
     1
  9
$DIMTVP
 40
0.0
  9
$DIMTIX
 70
     0
  9
$DIMSOXD
 70
     0
  9
$DIMSAH
 70
     1
  9
$DIMBLK1
  1
DOT
  9
$DIMBLK2
  1
DOT
  9
$DIMSTYLE
  2
SUNPOU
  9
$DIMCLRD
 70
   256
  9
$DIMCLRE
 70
   256
  9
$DIMCLRT
 70
   256
  9
$DIMTFAC
 40
1.0
  9
$DIMGAP
 40
1.5
  9
$DIMJUST
 70
     0
  9
$DIMSD1
 70
     0
  9
$DIMSD2
 70
     0
  9
$DIMTOLJ
 70
     1
  9
$DIMTZIN
 70
     0
  9
$DIMALTZ
 70
     0
  9
$DIMALTTZ
 70
     0
  9
$DIMUPT
 70
     0
  9
$DIMDEC
 70
     4
  9
$DIMTDEC
 70
     4
  9
$DIMALTU
 70
     2
  9
$DIMALTTD
 70
     2
  9
$DIMTXSTY
  7
STANDARD
  9
$DIMAUNIT
 70
     0
  9
$DIMADEC
 70
     0
  9
$DIMALTRND
 40
0.0
  9
$DIMAZIN
 70
     0
  9
$DIMDSEP
 70
    46
  9
$DIMATFIT
 70
     3
  9
$DIMFRAC
 70
     0
  9
$DIMLDRBLK
  1
DOT
  9
$DIMLUNIT
 70
     2
  9
$DIMLWD
 70
    -2
  9
$DIMLWE
 70
    -2
  9
$DIMTMOVE
 70
     0
  9
$LUNITS
 70
     2
  9
$LUPREC
 70
     2
  9
$SKETCHINC
 40
0.1
  9
$FILLETRAD
 40
5.0
  9
$AUNITS
 70
     0
  9
$AUPREC
 70
     0
  9
$MENU
  1
A:\TIGER\MENU\TIGER
  9
$ELEVATION
 40
0.0
  9
$PELEVATION
 40
0.0
  9
$THICKNESS
 40
0.0
  9
$LIMCHECK
 70
     0
  9
$CHAMFERA
 40
0.0
  9
$CHAMFERB
 40
0.0
  9
$CHAMFERC
 40
0.0
  9
$CHAMFERD
 40
0.0
  9
$SKPOLY
 70
     0
  9
$TDCREATE
 40
2450266.571064815
  9
$TDUCREATE
 40
2450266.196064815
  9
$TDUPDATE
 40
2456430.606095752
  9
$TDUUPDATE
 40
2456430.231095752
  9
$TDINDWG
 40
0.2730109606
  9
$TDUSRTIMER
 40
0.2730109606
  9
$USRTIMER
 70
     1
  9
$ANGBASE
 50
0.0
  9
$ANGDIR
 70
     0
  9
$PDMODE
 70
     0
  9
$PDSIZE
 40
0.0
  9
$PLINEWID
 40
0.0
  9
$SPLFRAME
 70
     0
  9
$SPLINETYPE
 70
     6
  9
$SPLINESEGS
 70
     8
  9
$HANDSEED
  5
27D55
  9
$SURFTAB1
 70
     6
  9
$SURFTAB2
 70
     6
  9
$SURFTYPE
 70
     6
  9
$SURFU
 70
     6
  9
$SURFV
 70
     6
  9
$UCSBASE
  2

  9
$UCSNAME
  2

  9
$UCSORG
 10
0.0
 20
0.0
 30
0.0
  9
$UCSXDIR
 10
1.0
 20
0.0
 30
0.0
  9
$UCSYDIR
 10
0.0
 20
1.0
 30
0.0
  9
$UCSORTHOREF
  2

  9
$UCSORTHOVIEW
 70
     0
  9
$UCSORGTOP
 10
0.0
 20
0.0
 30
0.0
  9
$UCSORGBOTTOM
 10
0.0
 20
0.0
 30
0.0
  9
$UCSORGLEFT
 10
0.0
 20
0.0
 30
0.0
  9
$UCSORGRIGHT
 10
0.0
 20
0.0
 30
0.0
  9
$UCSORGFRONT
 10
0.0
 20
0.0
 30
0.0
  9
$UCSORGBACK
 10
0.0
 20
0.0
 30
0.0
  9
$PUCSBASE
  2

  9
$PUCSNAME
  2

  9
$PUCSORG
 10
0.0
 20
0.0
 30
0.0
  9
$PUCSXDIR
 10
1.0
 20
0.0
 30
0.0
  9
$PUCSYDIR
 10
0.0
 20
1.0
 30
0.0
  9
$PUCSORTHOREF
  2

  9
$PUCSORTHOVIEW
 70
     0
  9
$PUCSORGTOP
 10
0.0
 20
0.0
 30
0.0
  9
$PUCSORGBOTTOM
 10
0.0
 20
0.0
 30
0.0
  9
$PUCSORGLEFT
 10
0.0
 20
0.0
 30
0.0
  9
$PUCSORGRIGHT
 10
0.0
 20
0.0
 30
0.0
  9
$PUCSORGFRONT
 10
0.0
 20
0.0
 30
0.0
  9
$PUCSORGBACK
 10
0.0
 20
0.0
 30
0.0
  9
$USERI1
 70
     3
  9
$USERI2
 70
     0
  9
$USERI3
 70
     0
  9
$USERI4
 70
     0
  9
$USERI5
 70
  1103
  9
$USERR1
 40
0.0
  9
$USERR2
 40
1.0
  9
$USERR3
 40
0.0
  9
$USERR4
 40
0.0
  9
$USERR5
 40
0.0
  9
$WORLDVIEW
 70
     1
  9
$SHADEDGE
 70
     3
  9
$SHADEDIF
 70
    70
  9
$TILEMODE
 70
     1
  9
$MAXACTVP
 70
    16
  9
$PINSBASE
 10
0.0
 20
0.0
 30
0.0
  9
$PLIMCHECK
 70
     0
  9
$PEXTMIN
 10
1.000000000000000E+20
 20
1.000000000000000E+20
 30
1.000000000000000E+20
  9
$PEXTMAX
 10
-1.000000000000000E+20
 20
-1.000000000000000E+20
 30
-1.000000000000000E+20
  9
$PLIMMIN
 10
0.0
 20
0.0
  9
$PLIMMAX
 10
12.0
 20
9.0
  9
$UNITMODE
 70
     0
  9
$VISRETAIN
 70
     0
  9
$PLINEGEN
 70
     1
  9
$PSLTSCALE
 70
     0
  9
$TREEDEPTH
 70
  3020
  9
$CMLSTYLE
  2
Standard
  9
$CMLJUST
 70
     0
  9
$CMLSCALE
 40
1.0
  9
$PROXYGRAPHICS
 70
     1
  9
$MEASUREMENT
 70
     0
  9
$CELWEIGHT
370
    -1
  9
$ENDCAPS
280
     0
  9
$JOINSTYLE
280
     0
  9
$LWDISPLAY
290
     0
  9
$INSUNITS
 70
     0
  9
$HYPERLINKBASE
  1

  9
$STYLESHEET
  1
monochrome.ctb
  9
$XEDIT
290
     1
  9
$CEPSNTYPE
380
     0
  9
$PSTYLEMODE
290
     1
  9
$FINGERPRINTGUID
  2
{954087AE-A6C2-4379-AC25-036BA582E4F3}
  9
$VERSIONGUID
  2
{9F562084-1A23-42F7-B0EA-D49063E3899A}
  9
$EXTNAMES
290
     1
  9
$PSVPSCALE
 40
0.0
  9
$OLESTARTUP
290
     0
  9
$SORTENTS
280
   127
  9
$INDEXCTL
280
     0
  9
$HIDETEXT
280
     0
  9
$XCLIPFRAME
290
     0
  9
$HALOGAP
280
     0
  9
$OBSCOLOR
 70
   257
  9
$OBSLTYPE
280
     0
  9
$INTERSECTIONDISPLAY
280
     0
  9
$INTERSECTIONCOLOR
 70
   257
  9
$DIMASSOC
280
     1
  9
$PROJECTNAME
  1

  0
ENDSEC
  0
SECTION
  2
CLASSES
  0
CLASS
  1
ACDBDICTIONARYWDFLT
  2
AcDbDictionaryWithDefault
  3
ObjectDBX Classes
 90
        0
 91
        1
280
     0
281
     0
  0
CLASS
  1
MATERIAL
  2
AcDbMaterial
  3
ObjectDBX Classes
 90
     1153
 91
        3
280
     0
281
     0
  0
CLASS
  1
VISUALSTYLE
  2
AcDbVisualStyle
  3
ObjectDBX Classes
 90
     4095
 91
       24
280
     0
281
     0
  0
CLASS
  1
SCALE
  2
AcDbScale
  3
ObjectDBX Classes
 90
     1153
 91
       17
280
     0
281
     0
  0
CLASS
  1
TABLESTYLE
  2
AcDbTableStyle
  3
ObjectDBX Classes
 90
     4095
 91
        1
280
     0
281
     0
  0
CLASS
  1
MLEADERSTYLE
  2
AcDbMLeaderStyle
  3
ACDB_MLEADERSTYLE_CLASS
 90
     4095
 91
        1
280
     0
281
     0
  0
CLASS
  1
DICTIONARYVAR
  2
AcDbDictionaryVar
  3
ObjectDBX Classes
 90
        0
 91
        5
280
     0
281
     0
  0
CLASS
  1
CELLSTYLEMAP
  2
AcDbCellStyleMap
  3
ObjectDBX Classes
 90
     1152
 91
        3
280
     0
281
     0
  0
ENDSEC
  0
SECTION
  2
TABLES
  0
TABLE
  2
VPORT
  5
27287
330
0
100
AcDbSymbolTable
 70
     1
  0
VPORT
  5
272F0
330
27287
100
AcDbSymbolTableRecord
100
AcDbViewportTableRecord
  2
*ACTIVE
 70
     0
 10
0.0
 20
0.0
 11
1.0
 21
1.0
 12
24922.28107026825
 22
6348.603027888437
 13
0.0
 23
0.0
 14
1.0
 24
1.0
 15
0.0
 25
0.0
 16
0.0
 26
0.0
 36
1.0
 17
0.0
 27
0.0
 37
0.0
 40
15765.97900219755
 41
2.762114537444933
 42
50.0
 43
0.0
 44
0.0
 50
0.0
 51
0.0
 71
     0
 72
 10000
 73
     1
 74
     0
 75
     0
 76
     0
 77
     0
 78
     0
281
     0
 65
     1
110
0.0
120
0.0
130
0.0
111
1.0
121
0.0
131
0.0
112
0.0
122
1.0
132
0.0
 79
     0
146
0.0
  0
ENDTAB
  0
TABLE
  2
LTYPE
  5
27284
330
0
100
AcDbSymbolTable
 70
     5
  0
LTYPE
  5
272D9
330
27284
100
AcDbSymbolTableRecord
100
AcDbLinetypeTableRecord
  2
ByBlock
 70
     0
  3

 72
    65
 73
     0
 40
0.0
  0
LTYPE
  5
272DA
330
27284
100
AcDbSymbolTableRecord
100
AcDbLinetypeTableRecord
  2
ByLayer
 70
     0
  3

 72
    65
 73
     0
 40
0.0
  0
LTYPE
  5
272DB
330
27284
100
AcDbSymbolTableRecord
100
AcDbLinetypeTableRecord
  2
CONTINUOUS
 70
     0
  3
実線
 72
    65
 73
     0
 40
0.0
  0
LTYPE
  5
272F1
330
27284
100
AcDbSymbolTableRecord
100
AcDbLinetypeTableRecord
  2
1PL-M
 70
     0
  3

 72
    65
 73
     4
 40
15.0
 49
12.0
 74
     0
 49
-1.0
 74
     0
 49
1.0
 74
     0
 49
-1.0
 74
     0
  0
LTYPE
  5
272F2
330
27284
100
AcDbSymbolTableRecord
100
AcDbLinetypeTableRecord
  2
1PL-S
 70
     0
  3

 72
    65
 73
     4
 40
4.0
 49
2.5
 74
     0
 49
-0.5
 74
     0
 49
0.5
 74
     0
 49
-0.5
 74
     0
  0
LTYPE
  5
272F3
330
27284
100
AcDbSymbolTableRecord
100
AcDbLinetypeTableRecord
  2
2PL-M
 70
     0
  3

 72
    65
 73
     6
 40
17.0
 49
12.0
 74
     0
 49
-1.0
 74
     0
 49
1.0
 74
     0
 49
-1.0
 74
     0
 49
1.0
 74
     0
 49
-1.0
 74
     0
  0
ENDTAB
  0
TABLE
  2
LAYER
  5
27281
102
{ACAD_XDICTIONARY
360
27323
102
}
330
0
100
AcDbSymbolTable
 70
    19
  0
LAYER
  5
272D3
102
{ACAD_XDICTIONARY
360
27C70
102
}
330
27281
100
AcDbSymbolTableRecord
100
AcDbLayerTableRecord
  2
0
 70
     0
 62
     7
  6
CONTINUOUS
370
    -3
390
2728E
  0
LAYER
  5
272EE
102
{ACAD_XDICTIONARY
360
27C72
102
}
330
27281
100
AcDbSymbolTableRecord
100
AcDbLayerTableRecord
  2
SUNPOU
 70
     0
 62
     4
  6
CONTINUOUS
370
    -3
390
2728E
  0
LAYER
  5
272F4
102
{ACAD_XDICTIONARY
360
27C74
102
}
330
27281
100
AcDbSymbolTableRecord
100
AcDbLayerTableRecord
  2
U2
 70
     0
 62
     4
  6
CONTINUOUS
370
    -3
390
2728E
  0
LAYER
  5
272F5
102
{ACAD_XDICTIONARY
360
27C76
102
}
330
27281
100
AcDbSymbolTableRecord
100
AcDbLayerTableRecord
  2
U3
 70
     0
 62
     6
  6
CONTINUOUS
370
    -3
390
2728E
  0
LAYER
  5
272F6
102
{ACAD_XDICTIONARY
360
27C78
102
}
330
27281
100
AcDbSymbolTableRecord
100
AcDbLayerTableRecord
  2
HIKIDASHI
 70
     0
 62
     6
  6
CONTINUOUS
370
    -3
390
2728E
  0
LAYER
  5
272F7
102
{ACAD_XDICTIONARY
360
27C7A
102
}
330
27281
100
AcDbSymbolTableRecord
100
AcDbLayerTableRecord
  2
1PL-S1
 70
     0
 62
     6
  6
1PL-S
370
    -3
390
2728E
  0
LAYER
  5
272F8
102
{ACAD_XDICTIONARY
360
27C7C
102
}
330
27281
100
AcDbSymbolTableRecord
100
AcDbLayerTableRecord
  2
1PL-M1
 70
     0
 62
     6
  6
1PL-M
370
    -3
390
2728E
  0
LAYER
  5
272F9
102
{ACAD_XDICTIONARY
360
27C7E
102
}
330
27281
100
AcDbSymbolTableRecord
100
AcDbLayerTableRecord
  2
2PL-M2
 70
     0
 62
     1
  6
2PL-M
370
    -3
390
2728E
  0
LAYER
  5
272FA
102
{ACAD_XDICTIONARY
360
27C80
102
}
330
27281
100
AcDbSymbolTableRecord
100
AcDbLayerTableRecord
  2
KISO
 70
     0
 62
     2
  6
CONTINUOUS
370
    -3
390
2728E
  0
LAYER
  5
272FB
102
{ACAD_XDICTIONARY
360
27C82
102
}
330
27281
100
AcDbSymbolTableRecord
100
AcDbLayerTableRecord
  2
HATCH
 70
     0
 62
     1
  6
CONTINUOUS
370
    -3
390
2728E
  0
LAYER
  5
272FC
102
{ACAD_XDICTIONARY
360
27C84
102
}
330
27281
100
AcDbSymbolTableRecord
100
AcDbLayerTableRecord
  2
NAME
 70
     0
 62
    20
  6
CONTINUOUS
370
    -3
390
2728E
  0
LAYER
  5
272FD
102
{ACAD_XDICTIONARY
360
27C86
102
}
330
27281
100
AcDbSymbolTableRecord
100
AcDbLayerTableRecord
  2
FILENAME
 70
     0
 62
     7
  6
CONTINUOUS
370
    -3
390
2728E
  0
LAYER
  5
272FE
102
{ACAD_XDICTIONARY
360
27C88
102
}
330
27281
100
AcDbSymbolTableRecord
100
AcDbLayerTableRecord
  2
HASHIRA
 70
     0
 62
     3
  6
CONTINUOUS
370
    -3
390
2728E
  0
LAYER
  5
272FF
102
{ACAD_XDICTIONARY
360
27C8A
102
}
330
27281
100
AcDbSymbolTableRecord
100
AcDbLayerTableRecord
  2
YODOROGO
 70
     0
 62
   130
  6
CONTINUOUS
370
    -3
390
2728E
  0
LAYER
  5
27300
102
{ACAD_XDICTIONARY
360
27C8C
102
}
330
27281
100
AcDbSymbolTableRecord
100
AcDbLayerTableRecord
  2
WAKUSEN-01
 70
     0
 62
    50
  6
CONTINUOUS
370
    -3
390
2728E
  0
LAYER
  5
27301
102
{ACAD_XDICTIONARY
360
27C8E
102
}
330
27281
100
AcDbSymbolTableRecord
100
AcDbLayerTableRecord
  2
WAKUSEN-02
 70
     0
 62
   130
  6
CONTINUOUS
370
    -3
390
2728E
  0
LAYER
  5
27302
102
{ACAD_XDICTIONARY
360
27C90
102
}
330
27281
100
AcDbSymbolTableRecord
100
AcDbLayerTableRecord
  2
WAKUMOJI-01
 70
     0
 62
   130
  6
CONTINUOUS
370
    -3
390
2728E
  0
LAYER
  5
2731E
102
{ACAD_XDICTIONARY
360
2731F
102
}
330
27281
100
AcDbSymbolTableRecord
100
AcDbLayerTableRecord
  2
waku
 70
     0
 62
     7
  6
CONTINUOUS
370
    -3
390
2728E
  0
LAYER
  5
27320
330
27281
100
AcDbSymbolTableRecord
100
AcDbLayerTableRecord
  2
Defpoints
 70
     0
 62
     8
  6
CONTINUOUS
290
     0
370
    -3
390
2728E
  0
ENDTAB
  0
TABLE
  2
STYLE
  5
27282
330
0
100
AcDbSymbolTable
 70
     8
  0
STYLE
  5
272D4
330
27282
100
AcDbSymbolTableRecord
100
AcDbTextStyleTableRecord
  2
STANDARD
 70
     0
 40
3.0
 41
1.0
 50
0.0
 71
     0
 42
0.2
  3
ROMANS
  4
EXTFONT
  0
STYLE
  5
272D8
330
27282
100
AcDbSymbolTableRecord
100
AcDbTextStyleTableRecord
  2
Annotative
 70
     0
 40
0.0
 41
1.0
 50
0.0
 71
     0
 42
0.2
  3
txt
  4

1001
AcadAnnotative
1000
AnnotativeData
1002
{
1070
     1
1070
     1
1002
}
  0
STYLE
  5
272EF
330
27282
100
AcDbSymbolTableRecord
100
AcDbTextStyleTableRecord
  2
00
 70
     0
 40
0.0
 41
0.6666666666666666
 50
0.0
 71
     0
 42
0.2
  3
ROMANS
  4
BIGFONT
  0
STYLE
  5
27303
330
27282
100
AcDbSymbolTableRecord
100
AcDbTextStyleTableRecord
  2
01
 70
     0
 40
3.0
 41
1.0
 50
0.0
 71
     0
 42
0.2
  3
ROMANS
  4
BIGFONT
  0
STYLE
  5
27304
330
27282
100
AcDbSymbolTableRecord
100
AcDbTextStyleTableRecord
  2
WAKUMOJI
 70
     0
 40
3.0
 41
1.0
 50
0.0
 71
     0
 42
3.0
  3
SIMPLEX
  4
BIGFONT
  0
STYLE
  5
27305
330
27282
100
AcDbSymbolTableRecord
100
AcDbTextStyleTableRecord
  2
FILENAME
 70
     0
 40
75.0
 41
1.0
 50
0.0
 71
     0
 42
75.0
  3
romans
  4
bigfont
  0
STYLE
  5
27321
330
27282
100
AcDbSymbolTableRecord
100
AcDbTextStyleTableRecord
  2
ＭＳ ゴシック
 70
     0
 40
1.0
 41
1.0
 50
0.0
 71
     0
 42
10.0
  3

  4

1001
ACAD
1000
MS Gothic
1071
    32817
  0
ENDTAB
  0
TABLE
  2
VIEW
  5
27285
330
0
100
AcDbSymbolTable
 70
     0
  0
ENDTAB
  0
TABLE
  2
UCS
  5
27286
330
0
100
AcDbSymbolTable
 70
     0
  0
ENDTAB
  0
TABLE
  2
APPID
  5
27288
330
0
100
AcDbSymbolTable
 70
     6
  0
APPID
  5
272D5
330
27288
100
AcDbSymbolTableRecord
100
AcDbRegAppTableRecord
  2
ACAD
 70
     0
  0
APPID
  5
272DC
330
27288
100
AcDbSymbolTableRecord
100
AcDbRegAppTableRecord
  2
AcadAnnotative
 70
     0
  0
APPID
  5
27306
330
27288
100
AcDbSymbolTableRecord
100
AcDbRegAppTableRecord
  2
AUTOCAD_POSTSCRIPT_FIGURE
 70
     0
  0
APPID
  5
27307
330
27288
100
AcDbSymbolTableRecord
100
AcDbRegAppTableRecord
  2
ACAD_PSEXT
 70
     0
  0
APPID
  5
27308
330
27288
100
AcDbSymbolTableRecord
100
AcDbRegAppTableRecord
  2
ACAD_EXEMPT_FROM_CAD_STANDARDS
 70
     0
  0
APPID
  5
27309
330
27288
100
AcDbSymbolTableRecord
100
AcDbRegAppTableRecord
  2
ACAD_MLEADERVER
 70
     0
  0
ENDTAB
  0
TABLE
  2
DIMSTYLE
  5
27289
330
0
100
AcDbSymbolTable
 70
     6
100
AcDbDimStyleTable
 71
     1
340
2730A
  0
DIMSTYLE
105
272D6
330
27289
100
AcDbSymbolTableRecord
100
AcDbDimStyleTableRecord
  2
Standard
 70
     0
340
272D4
  0
DIMSTYLE
105
272D7
330
27289
100
AcDbSymbolTableRecord
100
AcDbDimStyleTableRecord
  2
Annotative
 70
     0
340
272D4
1001
AcadAnnotative
1000
AnnotativeData
1002
{
1070
     1
1070
     1
1002
}
  0
DIMSTYLE
105
2730A
330
27289
100
AcDbSymbolTableRecord
100
AcDbDimStyleTableRecord
  2
SUNPOU
 70
     0
 40
30.0
 41
0.5
 42
1.0
 43
7.0
 44
1.5
 46
3.0
 73
     0
 74
     0
 77
     1
 78
     8
140
3.0
141
0.0
147
1.5
172
     1
173
     1
176
   256
177
   256
178
   256
271
     2
272
     2
279
     2
284
     8
285
     8
286
     8
340
272EF
  0
DIMSTYLE
105
27322
330
27289
100
AcDbSymbolTableRecord
100
AcDbDimStyleTableRecord
  2
SUNPOU_申請図
 70
     0
 40
40.0
 41
0.5
 42
1.0
 43
7.0
 44
1.0
 46
3.0
 73
     0
 74
     0
 77
     1
 78
     8
140
2.0
141
0.0
147
1.0
172
     1
173
     1
176
   256
177
   256
178
   256
271
     2
272
     2
279
     2
284
     8
285
     8
286
     8
340
272EF
  0
ENDTAB
  0
TABLE
  2
BLOCK_RECORD
  5
27280
330
0
100
AcDbSymbolTable
 70
     9
  0
BLOCK_RECORD
  5
272EA
330
27280
100
AcDbSymbolTableRecord
100
AcDbBlockTableRecord
  2
*Model_Space
340
272ED
  0
BLOCK_RECORD
  5
272E6
330
27280
100
AcDbSymbolTableRecord
100
AcDbBlockTableRecord
  2
*Paper_Space
340
272E9
  0
BLOCK_RECORD
  5
27310
330
27280
100
AcDbSymbolTableRecord
100
AcDbBlockTableRecord
  2
$MODEL_SPACE
340
0
  0
BLOCK_RECORD
  5
27312
330
27280
100
AcDbSymbolTableRecord
100
AcDbBlockTableRecord
  2
$PAPER_SPACE
340
0
  0
BLOCK_RECORD
  5
27314
330
27280
100
AcDbSymbolTableRecord
100
AcDbBlockTableRecord
  2
DOT
340
0
  0
BLOCK_RECORD
  5
27316
330
27280
100
AcDbSymbolTableRecord
100
AcDbBlockTableRecord
  2
*U3
340
0
  0
BLOCK_RECORD
  5
27318
330
27280
100
AcDbSymbolTableRecord
100
AcDbBlockTableRecord
  2
*U4
340
0
  0
BLOCK_RECORD
  5
2731A
330
27280
100
AcDbSymbolTableRecord
100
AcDbBlockTableRecord
  2
*U5
340
0
  0
BLOCK_RECORD
  5
2731C
330
27280
100
AcDbSymbolTableRecord
100
AcDbBlockTableRecord
  2
*U6
340
0
  0
ENDTAB
  0
ENDSEC
  0
SECTION
  2
BLOCKS
  0
BLOCK
  5
272EB
330
272EA
100
AcDbEntity
  8
0
100
AcDbBlockBegin
  2
*Model_Space
 70
     0
 10
0.0
 20
0.0
 30
0.0
  3
*Model_Space
  1

  0
ENDBLK
  5
272EC
330
272EA
100
AcDbEntity
  8
0
100
AcDbBlockEnd
  0
BLOCK
  5
272E7
330
272E6
100
AcDbEntity
 67
     1
  8
0
100
AcDbBlockBegin
  2
*Paper_Space
 70
     0
 10
0.0
 20
0.0
 30
0.0
  3
*Paper_Space
  1

  0
ENDBLK
  5
272E8
330
272E6
100
AcDbEntity
 67
     1
  8
0
100
AcDbBlockEnd
  0
BLOCK
  5
27311
330
27310
100
AcDbEntity
  8
0
100
AcDbBlockBegin
  2
$MODEL_SPACE
 70
     0
 10
0.0
 20
0.0
 30
0.0
  3
$MODEL_SPACE
  1

  0
ENDBLK
  5
125F7
330
27310
100
AcDbEntity
  8
0
100
AcDbBlockEnd
  0
BLOCK
  5
27313
330
27312
100
AcDbEntity
  8
0
100
AcDbBlockBegin
  2
$PAPER_SPACE
 70
     0
 10
0.0
 20
0.0
 30
0.0
  3
$PAPER_SPACE
  1

  0
ENDBLK
  5
125F5
330
27312
100
AcDbEntity
  8
0
100
AcDbBlockEnd
  0
BLOCK
  5
27315
330
27314
100
AcDbEntity
  8
0
100
AcDbBlockBegin
  2
DOT
 70
     0
 10
0.0
 20
0.0
 30
0.0
  3
DOT
  1

  0
LWPOLYLINE
  5
12983
330
27314
100
AcDbEntity
  8
0
  6
ByBlock
 62
     0
100
AcDbPolyline
 90
        2
 70
     1
 43
0.75
 10
-0.375
 20
0.0
 42
1.0
 10
0.375
 20
0.0
 42
1.0
  0
LINE
  5
12984
330
27314
100
AcDbEntity
  8
0
  6
ByBlock
 62
     0
100
AcDbLine
 10
-0.75
 20
0.0
 30
0.0
 11
-1.5
 21
0.0
 31
0.0
  0
ENDBLK
  5
12985
330
27314
100
AcDbEntity
  8
0
100
AcDbBlockEnd
  0
BLOCK
  5
27317
330
27316
100
AcDbEntity
  8
0
100
AcDbBlockBegin
  2
*U3
 70
     1
 10
0.0
 20
0.0
 30
0.0
  3
*U3
  1

  0
TEXT
  5
27047
330
27316
100
AcDbEntity
  8
SUNPOU
100
AcDbText
 10
5078.075305331611
 20
1859.518566249727
 30
0.0
 40
90.0
  1
500
 50
90.0
 41
0.6666666666666666
  7
00
100
AcDbText
  0
ENDBLK
  5
27049
330
27316
100
AcDbEntity
  8
0
100
AcDbBlockEnd
  0
BLOCK
  5
27319
330
27318
100
AcDbEntity
  8
0
100
AcDbBlockBegin
  2
*U4
 70
     1
 10
0.0
 20
0.0
 30
0.0
  3
*U4
  1

  0
TEXT
  5
2704B
330
27318
100
AcDbEntity
  8
SUNPOU
100
AcDbText
 10
2866.57530533161
 20
1135.23285196401
 30
0.0
 40
90.0
  1
700 □
 41
0.6666666666666666
  7
00
100
AcDbText
  0
ENDBLK
  5
2704D
330
27318
100
AcDbEntity
  8
0
100
AcDbBlockEnd
  0
BLOCK
  5
2731B
330
2731A
100
AcDbEntity
  8
0
100
AcDbBlockBegin
  2
*U5
 70
     1
 10
0.0
 20
0.0
 30
0.0
  3
*U5
  1

  0
TEXT
  5
2704F
330
2731A
100
AcDbEntity
  8
SUNPOU
100
AcDbText
 10
2866.57530533161
 20
925.2328519640114
 30
0.0
 40
90.0
  1
900 □
 41
0.6666666666666666
  7
00
100
AcDbText
  0
ENDBLK
  5
27051
330
2731A
100
AcDbEntity
  8
0
100
AcDbBlockEnd
  0
BLOCK
  5
2731D
330
2731C
100
AcDbEntity
  8
0
100
AcDbBlockBegin
  2
*U6
 70
     1
 10
0.0
 20
0.0
 30
0.0
  3
*U6
  1

  0
TEXT
  5
27053
330
2731C
100
AcDbEntity
  8
SUNPOU
100
AcDbText
 10
5078.075305331611
 20
1197.37570910687
 30
0.0
 40
90.0
  1
100
 50
90.0
 41
0.6666666666666666
  7
00
100
AcDbText
  0
ENDBLK
  5
27055
330
2731C
100
AcDbEntity
  8
0
100
AcDbBlockEnd
  0
ENDSEC
  0
SECTION
  2
ENTITIES
  0
LINE
  5
23C08
330
272EA
100
AcDbEntity
  8
HIKIDASHI
370
     9
100
AcDbLine
 10
15957.49165212633
 20
1296.624721838493
 30
0.0
 11
16653.1190053619
 21
1296.624721838493
 31
0.0
  0
LINE
  5
23C09
330
272EA
100
AcDbEntity
  8
HIKIDASHI
370
     9
100
AcDbLine
 10
15957.49165212633
 20
1266.624721838493
 30
0.0
 11
16653.1190053619
 21
1266.624721838493
 31
0.0
  0
TEXT
  5
23C0A
330
272EA
100
AcDbEntity
  8
HIKIDASHI
370
     9
100
AcDbText
 10
15987.49165212633
 20
1341.624721838493
 30
0.0
 40
90.0
  1
A  ~  A'
 41
0.6700000000000001
  7
00
100
AcDbText
  0
TEXT
  5
23C0B
330
272EA
100
AcDbEntity
  8
HIKIDASHI
370
     9
100
AcDbText
 10
16381.50893162289
 20
1341.624721838493
 30
0.0
 40
90.0
  1
断 面
  7
01
100
AcDbText
  0
TEXT
  5
23C89
330
272EA
100
AcDbEntity
  8
SUNPOU
370
     9
100
AcDbText
 10
22286.79392518944
 20
3214.357433164779
 30
0.0
 40
41.65685357343746
  1
2
 41
0.6700000000000001
  7
00
100
AcDbText
  0
TEXT
  5
23C8A
330
272EA
100
AcDbEntity
  8
SUNPOU
370
     9
100
AcDbText
 10
22012.77589136117
 20
3169.187849443039
 30
0.0
 40
80.9994375039062
  1
N/mm
 41
0.6700000000000001
  7
01
100
AcDbText
  0
TEXT
  5
23C8B
330
272EA
100
AcDbEntity
  8
SUNPOU
370
     9
100
AcDbText
 10
21890.52308385381
 20
3169.187849443039
 30
0.0
 40
80.9994375039062
  1
18
 41
0.6700000000000001
  7
01
100
AcDbText
  0
LINE
  5
23C8C
330
272EA
100
AcDbEntity
  8
SUNPOU
370
     9
100
AcDbLine
 10
21356.67224514676
 20
3030.330706585901
 30
0.0
 11
21356.67224514676
 21
3105.473833914802
 31
0.0
  0
LINE
  5
23C8D
330
272EA
100
AcDbEntity
  8
SUNPOU
370
     9
100
AcDbLine
 10
21341.48474514677
 20
3030.330706585901
 30
0.0
 11
21341.48474514677
 21
3105.473833914802
 31
0.0
  0
LINE
  5
23C8E
330
272EA
100
AcDbEntity
  8
SUNPOU
370
     9
100
AcDbLine
 10
21326.29724514677
 20
3030.330706585901
 30
0.0
 11
21326.29724514677
 21
3105.473833914802
 31
0.0
  0
LINE
  5
23C8F
330
272EA
100
AcDbEntity
  8
SUNPOU
370
     9
100
AcDbLine
 10
21316.17224514676
 20
3030.330706585897
 30
0.0
 11
21366.79724514677
 21
3030.330706585897
 31
0.0
  0
LINE
  5
23C90
330
272EA
100
AcDbEntity
  8
SUNPOU
370
     9
100
AcDbLine
 10
21316.17224514676
 20
3105.473833914802
 30
0.0
 11
21366.79724514677
 21
3105.473833914802
 31
0.0
  0
ARC
  5
23C91
330
272EA
100
AcDbEntity
  8
SUNPOU
370
     9
100
AcDbCircle
 10
22386.8047906819
 20
3136.596530540691
 30
0.0
 40
202.5
100
AcDbArc
 50
328.3472725282609
 51
31.65272747173912
  0
TEXT
  5
23C92
330
272EA
100
AcDbEntity
  8
SUNPOU
370
     9
100
AcDbText
 10
20403.4997549823
 20
3214.357433164779
 30
0.0
 40
41.65685357343746
  1
2
 41
0.6700000000000001
  7
00
100
AcDbText
  0
TEXT
  5
23C93
330
272EA
100
AcDbEntity
  8
SUNPOU
370
     9
100
AcDbText
 10
20162.62361392675
 20
3169.187849443039
 30
0.0
 40
64.79955000312497
  1
K
 41
0.6700000000000001
  7
01
100
AcDbText
  0
TEXT
  5
23C94
330
272EA
100
AcDbEntity
  8
SUNPOU
370
     9
100
AcDbText
 10
20040.37080641939
 20
3169.187849443039
 30
0.0
 40
80.9994375039062
  1
50  N/m
 41
0.6700000000000001
  7
01
100
AcDbText
  0
ARC
  5
23C95
330
272EA
100
AcDbEntity
  8
SUNPOU
370
     9
100
AcDbCircle
 10
19841.2006862533
 20
3136.596530540691
 30
0.0
 40
202.5
100
AcDbArc
 50
148.3472725282608
 51
211.6527274717391
  0
TEXT
  5
23C96
330
272EA
100
AcDbEntity
  8
SUNPOU
370
     9
100
AcDbText
 10
20138.92532553546
 20
3030.330706585901
 30
0.0
 40
80.9994375039062
  1
34 m/s
 41
0.6700000000000001
  7
01
100
AcDbText
  0
TEXT
  5
23C97
330
272EA
100
AcDbEntity
  8
SUNPOU
370
     9
100
AcDbText
 10
19703.53823973681
 20
3030.330706585901
 30
0.0
 40
80.9994375039062
  1
基準風速   　　 , 地表面粗度区分
  7
01
100
AcDbText
  0
TEXT
  5
23C98
330
272EA
100
AcDbEntity
  8
SUNPOU
370
     9
100
AcDbText
 10
19703.53823973681
 20
3169.187849443039
 30
0.0
 40
80.9994375039062
  1
地耐力   　　　 以上,コンクリート設計基準強度
  7
01
100
AcDbText
  0
TEXT
  5
23C99
330
272EA
100
AcDbEntity
  8
SUNPOU
370
     9
100
AcDbText
 10
19855.41323973681
 20
2550.116420871614
 30
0.0
 40
81.0
  1
2
 41
0.6700000000000001
  7
01
100
AcDbText
  0
TEXT
  5
23C9A
330
272EA
100
AcDbEntity
  8
SUNPOU
370
     9
100
AcDbText
 10
19755.84271154534
 20
2550.116420871614
 30
0.0
 40
81.0
  1
注　）
  7
01
100
AcDbText
  0
TEXT
  5
23C9B
330
272EA
100
AcDbEntity
  8
SUNPOU
370
     9
100
AcDbText
 10
19755.84271154534
 20
2827.830706585901
 30
0.0
 40
81.0
  1
注　）
  7
01
100
AcDbText
  0
TEXT
  5
23C9C
330
272EA
100
AcDbEntity
  8
SUNPOU
370
     9
100
AcDbText
 10
19855.41323973681
 20
2827.830706585901
 30
0.0
 40
81.0
  1
1
 41
0.6700000000000001
  7
01
100
AcDbText
  0
TEXT
  5
23C9D
330
272EA
100
AcDbEntity
  8
SUNPOU
370
     9
100
AcDbText
 10
20040.99841031727
 20
2688.973563728754
 30
0.0
 40
81.0
  1
あわせて設計して下さい。
  7
01
100
AcDbText
  0
TEXT
  5
23C9E
330
272EA
100
AcDbEntity
  8
SUNPOU
370
     9
100
AcDbText
 10
20029.60933859986
 20
2552.744978504541
 30
0.0
 40
90.0
  1
その他現地の実情にあわせて設計して下さい。
  7
01
100
AcDbText
  0
TEXT
  5
23C9F
330
272EA
100
AcDbEntity
  8
SUNPOU
370
     9
100
AcDbText
 10
20040.99841031727
 20
2827.830706585901
 30
0.0
 40
81.0
  1
寒冷地の場合、凍結深度等を考慮し、実情に
  7
01
100
AcDbText
  0
TEXT
  5
23CA0
330
272EA
100
AcDbEntity
  8
SUNPOU
370
     9
100
AcDbText
 10
19586.03097389221
 20
3339.516451644402
 30
0.0
 40
81.0
  1
<下記条件での参考図>
  7
01
 72
     4
 11
20116.00240246364
 21
3380.016451644402
 31
0.0
100
AcDbText
  0
TEXT
  5
23CA1
330
272EA
100
AcDbEntity
  8
SUNPOU
370
     9
100
AcDbText
 10
20675.31565234192
 20
3490.12799010594
 30
0.0
 40
66.46153846153842
  1
/
 41
0.6700000000000001
  7
00
 11
20675.31565234192
 21
3481.266451644402
 31
0.0
100
AcDbText
 73
     1
  0
TEXT
  5
23CA2
330
272EA
100
AcDbEntity
  8
SUNPOU
370
     9
100
AcDbText
 10
20732.87015100086
 20
3473.512605490555
 30
0.0
 40
66.46153846153842
  1
20
 41
0.6700000000000001
  7
00
 11
20732.87015100086
 21
3464.651067029016
 31
0.0
100
AcDbText
 73
     1
  0
TEXT
  5
23CA3
330
272EA
100
AcDbEntity
  8
SUNPOU
370
     9
100
AcDbText
 10
20631.75013775809
 20
3506.743374721324
 30
0.0
 40
66.46153846153842
  1
1
 41
0.6700000000000001
  7
00
 11
20631.75013775809
 21
3497.881836259786
 31
0.0
100
AcDbText
 73
     1
  0
TEXT
  5
23CA4
330
272EA
100
AcDbEntity
  8
SUNPOU
370
     9
100
AcDbText
 10
20344.01770609032
 20
3492.343374721325
 30
0.0
 40
83.07692307692304
  1
（ S = 　　  ）
 41
0.6700000000000001
  7
00
 11
20344.01770609032
 21
3481.266451644402
 31
0.0
100
AcDbText
 73
     1
  0
TEXT
  5
23CA5
330
272EA
100
AcDbEntity
  8
SUNPOU
370
     9
100
AcDbText
 10
19698.85240246364
 20
3481.266451644401
 30
0.0
 40
108.0
  1
基礎断面図
  7
01
 72
     4
 11
20004.85240246364
 21
3535.266451644401
 31
0.0
100
AcDbText
  0
LINE
  5
25D33
330
272EA
100
AcDbEntity
  8
1PL-M1
370
     9
100
AcDbLine
 10
14209.62071446976
 20
7111.140460528125
 30
0.0
 11
23137.25587722228
 21
7111.140460528122
 31
0.0
  0
LINE
  5
25D34
330
272EA
100
AcDbEntity
  8
2PL-M2
370
     9
100
AcDbLine
 10
23076.41255853325
 20
6106.140460528125
 30
0.0
 11
18695.41255853326
 21
6106.140460528123
 31
0.0
  0
LINE
  5
25D35
330
272EA
100
AcDbEntity
  8
2PL-M2
370
     9
100
AcDbLine
 10
23076.41255853325
 20
8131.140460528124
 30
0.0
 11
18695.41255853326
 21
8131.140460528124
 31
0.0
  0
LINE
  5
25D36
330
272EA
100
AcDbEntity
  8
U3
370
     9
100
AcDbLine
 10
18695.41255853326
 20
5711.140460528124
 30
0.0
 11
23030.41255853325
 21
5711.140460528124
 31
0.0
  0
LINE
  5
25D37
330
272EA
100
AcDbEntity
  8
U3
370
     9
100
AcDbLine
 10
18695.41255853326
 20
8311.140460528124
 30
0.0
 11
23030.41255853325
 21
8311.140460528124
 31
0.0
  0
TEXT
  5
25D38
330
272EA
100
AcDbEntity
  8
SUNPOU
370
     9
100
AcDbText
 10
18265.69827281897
 20
5356.140460528123
 30
0.0
 40
90.0
  1
3150 \U+00D7（ N - 2 ）
 41
0.6666666666666666
  7
00
 72
     4
 11
18655.41255853326
 21
5401.140460528123
 31
0.0
100
AcDbText
  0
TEXT
  5
25D39
330
272EA
100
AcDbEntity
  8
SUNPOU
370
     9
100
AcDbText
 10
18182.2697013904
 20
5146.140460528123
 30
0.0
 40
90.0
  1
L ＝ 3150 \U+00D7 N ＋ 750
 41
0.6666666666666666
  7
00
 72
     4
 11
18655.41255853326
 21
5191.140460528123
 31
0.0
100
AcDbText
  0
LINE
  5
25D3A
330
272EA
100
AcDbEntity
  8
SUNPOU
370
     9
100
AcDbLine
 10
17820.41255853326
 20
5311.140460528124
 30
0.0
 11
19490.41255853326
 21
5311.140460528124
 31
0.0
  0
LINE
  5
25D3B
330
272EA
100
AcDbEntity
  8
SUNPOU
370
     9
100
AcDbLine
 10
14280.41255853327
 20
5101.140460528124
 30
0.0
 11
23030.41255853325
 21
5101.140460528124
 31
0.0
  0
LINE
  5
25D3C
330
272EA
100
AcDbEntity
  8
SUNPOU
370
     9
100
AcDbLine
 10
14280.41255853327
 20
6069.336490965302
 30
0.0
 11
14280.41255853327
 21
5071.140460528124
 31
0.0
  0
LINE
  5
25D3D
330
272EA
100
AcDbEntity
  8
2PL-M2
370
     9
100
AcDbLine
 10
14234.41255853328
 20
8131.140460528124
 30
0.0
 11
14234.41255853328
 21
6106.140460528123
 31
0.0
  0
LINE
  5
25D3E
330
272EA
100
AcDbEntity
  8
U3
370
     9
100
AcDbLine
 10
14280.41255853327
 20
5711.140460528124
 30
0.0
 11
14280.41255853327
 21
8311.140460528124
 31
0.0
  0
LINE
  5
25D3F
330
272EA
100
AcDbEntity
  8
U2
370
     9
100
AcDbLine
 10
18615.41255853326
 20
5611.140460528124
 30
0.0
 11
18615.41255853326
 21
8411.140460528121
 31
0.0
  0
LINE
  5
25D40
330
272EA
100
AcDbEntity
  8
U2
370
     9
100
AcDbLine
 10
18695.41255853326
 20
5611.140460528124
 30
0.0
 11
18695.41255853326
 21
8411.140460528121
 31
0.0
  0
LINE
  5
25D41
330
272EA
100
AcDbEntity
  8
2PL-M2
370
     9
100
AcDbLine
 10
14234.41255853328
 20
6106.140460528125
 30
0.0
 11
18615.41255853326
 21
6106.140460528123
 31
0.0
  0
TEXT
  5
25D42
330
272EA
100
AcDbEntity
  8
SUNPOU
370
     9
100
AcDbText
 10
15705.41255853326
 20
5756.140460528124
 30
0.0
 40
90.0
  1
（土間コン前面位置）
  7
01
 72
     4
 11
16230.41255853326
 21
5801.140460528124
 31
0.0
100
AcDbText
  0
LINE
  5
25D44
330
272EA
100
AcDbEntity
  8
U3
370
     9
100
AcDbLine
 10
14280.41255853327
 20
5711.140460528124
 30
0.0
 11
18615.41255853326
 21
5711.140460528124
 31
0.0
  0
LINE
  5
25D45
330
272EA
100
AcDbEntity
  8
SUNPOU
370
     9
100
AcDbLine
 10
14670.41255853327
 20
5311.140460528124
 30
0.0
 11
17790.41255853326
 21
5311.140460528124
 31
0.0
  0
LINE
  5
25D46
330
272EA
100
AcDbEntity
  8
SUNPOU
370
     9
100
AcDbLine
 10
14655.41255853328
 20
6681.140460528124
 30
0.0
 11
14655.41255853327
 21
5281.140460528124
 31
0.0
  0
LINE
  5
25D47
330
272EA
100
AcDbEntity
  8
SUNPOU
370
     9
100
AcDbLine
 10
14655.41255853327
 20
6326.082308493572
 30
0.0
 11
14655.41255853327
 21
5281.140460528124
 31
0.0
  0
TEXT
  5
25D48
330
272EA
100
AcDbEntity
  8
SUNPOU
370
     9
100
AcDbText
 10
14379.72471533666
 20
5356.140460528123
 30
0.0
 40
90.0
  1
375
 41
0.6666666666666666
  7
00
 72
     4
 11
14465.43900105095
 21
5401.140460528123
 31
0.0
100
AcDbText
  0
LINE
  5
25D49
330
272EA
100
AcDbEntity
  8
SUNPOU
370
     9
100
AcDbLine
 10
14280.41255853327
 20
5311.140460528124
 30
0.0
 11
14640.41255853327
 21
5311.140460528124
 31
0.0
  0
TEXT
  5
25D4B
330
272EA
100
AcDbEntity
  8
SUNPOU
370
     9
100
AcDbText
 10
16116.12684424754
 20
5356.140460528123
 30
0.0
 40
90.0
  1
3150
 41
0.6666666666666666
  7
00
 72
     1
 11
16230.41255853326
 21
5401.140460528123
 31
0.0
100
AcDbText
 73
     2
  0
LINE
  5
25D4C
330
272EA
100
AcDbEntity
  8
1PL-M1
370
     9
100
AcDbLine
 10
14655.41255853328
 20
6711.140460528127
 30
0.0
 11
14655.41255853328
 21
7511.140460528126
 31
0.0
  0
LINE
  5
25D4F
330
272EA
100
AcDbEntity
  8
SUNPOU
370
     9
100
AcDbLine
 10
17805.41255853326
 20
6681.140460528124
 30
0.0
 11
17805.41255853326
 21
5281.140460528124
 31
0.0
  0
LINE
  5
25D50
330
272EA
100
AcDbEntity
  8
SUNPOU
370
     9
100
AcDbLine
 10
17805.41255853326
 20
6326.082308493572
 30
0.0
 11
17805.41255853326
 21
5281.140460528124
 31
0.0
  0
LINE
  5
25D52
330
272EA
100
AcDbEntity
  8
1PL-M1
370
     9
100
AcDbLine
 10
17805.41255853326
 20
6711.140460528127
 30
0.0
 11
17805.41255853326
 21
7511.140460528126
 31
0.0
  0
LINE
  5
25D54
330
272EA
100
AcDbEntity
  8
2PL-M2
370
     9
100
AcDbLine
 10
14234.41255853328
 20
8131.140460528124
 30
0.0
 11
18615.41255853326
 21
8131.140460528124
 31
0.0
  0
TEXT
  5
25D55
330
272EA
100
AcDbEntity
  8
SUNPOU
370
     9
100
AcDbText
 10
15705.41255853326
 20
8356.140460528122
 30
0.0
 40
90.0
  1
（土間コン後面位置）
  7
01
 72
     4
 11
16230.41255853326
 21
8401.140460528123
 31
0.0
100
AcDbText
  0
TEXT
  5
25D56
330
272EA
100
AcDbEntity
  8
SUNPOU
370
     9
100
AcDbText
 10
15813.41255853326
 20
8176.140460528124
 30
0.0
 40
90.0
  1
（屋根後面位置）
  7
01
 72
     4
 11
16230.41255853326
 21
8221.140460528124
 31
0.0
100
AcDbText
  0
LINE
  5
25D57
330
272EA
100
AcDbEntity
  8
U3
370
     9
100
AcDbLine
 10
14280.41255853327
 20
8311.140460528124
 30
0.0
 11
18615.41255853326
 21
8311.140460528124
 31
0.0
  0
LINE
  5
25D58
330
272EA
100
AcDbEntity
  8
SUNPOU
370
     9
100
AcDbLine
 10
23030.41255853325
 20
6069.336490965302
 30
0.0
 11
23030.41255853325
 21
5071.140460528124
 31
0.0
  0
LINE
  5
25D59
330
272EA
100
AcDbEntity
  8
1PL-S1
370
     9
100
AcDbLine
 10
23364.61765839197
 20
7111.140460528121
 30
0.0
 11
23570.41255853325
 21
7111.140460528122
 31
0.0
  0
TEXT
  5
25D5A
330
272EA
100
AcDbEntity
  8
SUNPOU
370
     9
100
AcDbText
 10
23495.41255853325
 20
6292.569031956694
 30
0.0
 40
90.0
  1
1400
 50
90.0
 41
0.6666666666666666
  7
00
 72
     1
 11
23450.41255853325
 21
6411.140460528122
 31
0.0
100
AcDbText
 73
     2
  0
TEXT
  5
25D5B
330
272EA
100
AcDbEntity
  8
SUNPOU
370
     9
100
AcDbText
 10
23495.41255853325
 20
7592.569031956696
 30
0.0
 40
90.0
  1
1200
 50
90.0
 41
0.6666666666666666
  7
00
 72
     1
 11
23450.41255853325
 21
7711.140460528124
 31
0.0
100
AcDbText
 73
     2
  0
LINE
  5
25D5C
330
272EA
100
AcDbEntity
  8
SUNPOU
370
     9
100
AcDbLine
 10
23060.41255853325
 20
5711.140460528124
 30
0.0
 11
23780.41255853325
 21
5711.140460528124
 31
0.0
  0
LINE
  5
25D5D
330
272EA
100
AcDbEntity
  8
SUNPOU
370
     9
100
AcDbLine
 10
23060.41255853325
 20
8311.140460528124
 30
0.0
 11
23780.41255853325
 21
8311.140460528124
 31
0.0
  0
LINE
  5
25D5E
330
272EA
100
AcDbEntity
  8
2PL-M2
370
     9
100
AcDbLine
 10
23076.41255853325
 20
8131.140460528124
 30
0.0
 11
23076.41255853325
 21
6106.140460528123
 31
0.0
  0
LINE
  5
25D5F
330
272EA
100
AcDbEntity
  8
U3
370
     9
100
AcDbLine
 10
23030.41255853325
 20
5711.140460528124
 30
0.0
 11
23030.41255853325
 21
8311.140460528124
 31
0.0
  0
TEXT
  5
25D60
330
272EA
100
AcDbEntity
  8
SUNPOU
370
     9
100
AcDbText
 10
20966.12684424754
 20
5356.140460528123
 30
0.0
 40
90.0
  1
3150
 41
0.6666666666666666
  7
00
 72
     1
 11
21080.41255853325
 21
5401.140460528123
 31
0.0
100
AcDbText
 73
     2
  0
LINE
  5
25D61
330
272EA
100
AcDbEntity
  8
SUNPOU
370
     9
100
AcDbLine
 10
19520.41255853326
 20
5311.140460528124
 30
0.0
 11
22640.41255853325
 21
5311.140460528124
 31
0.0
  0
LINE
  5
25D62
330
272EA
100
AcDbEntity
  8
SUNPOU
370
     9
100
AcDbLine
 10
19505.41255853326
 20
6681.140460528124
 30
0.0
 11
19505.41255853326
 21
5281.140460528124
 31
0.0
  0
LINE
  5
25D63
330
272EA
100
AcDbEntity
  8
SUNPOU
370
     9
100
AcDbLine
 10
19505.41255853326
 20
6326.082308493572
 30
0.0
 11
19505.41255853326
 21
5281.140460528124
 31
0.0
  0
LINE
  5
25D65
330
272EA
100
AcDbEntity
  8
1PL-M1
370
     9
100
AcDbLine
 10
19505.41255853326
 20
6711.140460528127
 30
0.0
 11
19505.41255853326
 21
7511.140460528126
 31
0.0
  0
TEXT
  5
25D67
330
272EA
100
AcDbEntity
  8
SUNPOU
370
     9
100
AcDbText
 10
22569.69827281896
 20
6481.140460528123
 30
0.0
 40
90.0
  1
750
 41
0.6666666666666666
  7
00
 72
     1
 11
22655.41255853325
 21
6526.140460528124
 31
0.0
100
AcDbText
 73
     2
  0
LINE
  5
25D68
330
272EA
100
AcDbEntity
  8
SUNPOU
370
     9
100
AcDbLine
 10
22280.41255853325
 20
6706.140460528124
 30
0.0
 11
22280.41255853325
 21
6406.140460528124
 31
0.0
  0
LINE
  5
25D69
330
272EA
100
AcDbEntity
  8
SUNPOU
370
     9
100
AcDbLine
 10
22280.41255853325
 20
6436.140460528124
 30
0.0
 11
23030.41255853325
 21
6436.140460528125
 31
0.0
  0
LINE
  5
25D6A
330
272EA
100
AcDbEntity
  8
SUNPOU
370
     9
100
AcDbLine
 10
22655.41255853325
 20
6399.507638997667
 30
0.0
 11
22655.41255853325
 21
5281.140460528124
 31
0.0
  0
LINE
  5
25D6B
330
272EA
100
AcDbEntity
  8
SUNPOU
370
     9
100
AcDbLine
 10
22655.41255853325
 20
6069.336490965302
 30
0.0
 11
22655.41255853325
 21
5281.140460528124
 31
0.0
  0
LINE
  5
25D6C
330
272EA
100
AcDbEntity
  8
SUNPOU
370
     9
100
AcDbLine
 10
22670.41255853325
 20
5311.140460528124
 30
0.0
 11
23030.41255853325
 21
5311.140460528124
 31
0.0
  0
TEXT
  5
25D6D
330
272EA
100
AcDbEntity
  8
SUNPOU
370
     9
100
AcDbText
 10
22755.71873897828
 20
5356.140460528123
 30
0.0
 40
90.0
  1
375
 41
0.6666666666666666
  7
00
 72
     4
 11
22841.43302469256
 21
5401.140460528123
 31
0.0
100
AcDbText
  0
LINE
  5
25D70
330
272EA
100
AcDbEntity
  8
HIKIDASHI
370
     9
100
AcDbLine
 10
22592.91255853324
 20
7200.601984755184
 30
0.0
 11
22380.54008168206
 21
7568.441904790539
 31
0.0
  0
LINE
  5
25D72
330
272EA
100
AcDbEntity
  8
HIKIDASHI
370
     9
100
AcDbLine
 10
22236.54008168206
 20
7568.441904790539
 30
0.0
 11
22380.54008168206
 21
7568.441904790539
 31
0.0
  0
TEXT
  5
25D73
330
272EA
100
AcDbEntity
  8
HIKIDASHI
370
     9
100
AcDbText
 10
22266.54008168206
 20
7613.441904790541
 30
0.0
 40
90.0
  1
柱
  7
01
 72
     2
 11
22350.54008168206
 21
7658.44190479054
 31
0.0
100
AcDbText
 73
     2
  0
TEXT
  5
25D74
330
272EA
100
AcDbEntity
  8
SUNPOU
370
     9
100
AcDbText
 10
22821.11857409874
 20
7172.769031956696
 30
0.0
 40
90.0
  1
75
 50
90.0
 41
0.6666666666666666
  7
00
 72
     1
 11
22776.11857409874
 21
7229.911889099553
 31
0.0
100
AcDbText
 73
     2
  0
LINE
  5
25D75
330
272EA
100
AcDbEntity
  8
SUNPOU
370
     9
100
AcDbLine
 10
22866.11857409874
 20
7178.640460528125
 30
0.0
 11
22866.11857409874
 21
7278.483317670979
 31
0.0
  0
LINE
  5
25D76
330
272EA
100
AcDbEntity
  8
1PL-M1
370
     9
100
AcDbLine
 10
22655.41255853325
 20
6635.862600102452
 30
0.0
 11
22655.41255853325
 21
7511.140460528124
 31
0.0
  0
LINE
  5
25D77
330
272EA
100
AcDbEntity
  8
SUNPOU
370
     9
100
AcDbLine
 10
22622.91255853325
 20
7043.640460528123
 30
0.0
 11
22622.91255853325
 21
6867.197616642473
 31
0.0
  0
LINE
  5
25D78
330
272EA
100
AcDbEntity
  8
SUNPOU
370
     9
100
AcDbLine
 10
22687.91255853325
 20
7043.640460528123
 30
0.0
 11
22687.91255853325
 21
6867.197616642473
 31
0.0
  0
LINE
  5
25D79
330
272EA
100
AcDbEntity
  8
SUNPOU
370
     9
100
AcDbLine
 10
22717.91255853325
 20
7148.640460528124
 30
0.0
 11
22896.11857409874
 21
7148.640460528124
 31
0.0
  0
LINE
  5
25D7A
330
272EA
100
AcDbEntity
  8
SUNPOU
370
     9
100
AcDbLine
 10
22717.91255853325
 20
7073.640460528124
 30
0.0
 11
22896.11857409874
 21
7073.640460528124
 31
0.0
  0
LINE
  5
25D7B
330
272EA
100
AcDbEntity
  8
SUNPOU
370
     9
100
AcDbLine
 10
22607.91255853325
 20
6897.197616642472
 30
0.0
 11
22592.91255853325
 21
6897.197616642472
 31
0.0
  0
TEXT
  5
25D7C
330
272EA
100
AcDbEntity
  8
SUNPOU
370
     9
100
AcDbText
 10
22484.49827281897
 20
6942.197616642473
 30
0.0
 40
90.0
  1
65
 41
0.6666666666666666
  7
00
 72
     1
 11
22543.06970139039
 21
6987.197616642472
 31
0.0
100
AcDbText
 73
     2
  0
LINE
  5
25D7D
330
272EA
100
AcDbEntity
  8
SUNPOU
370
     9
100
AcDbLine
 10
22592.91255853325
 20
6897.197616642472
 30
0.0
 11
22495.92684424755
 21
6897.197616642472
 31
0.0
  0
LINE
  5
25D7E
330
272EA
100
AcDbEntity
  8
SUNPOU
370
     9
100
AcDbLine
 10
22672.91255853325
 20
6897.197616642472
 30
0.0
 11
22622.91255853325
 21
6897.197616642472
 31
0.0
  0
SOLID
  5
25D7F
330
272EA
100
AcDbEntity
  8
HIKIDASHI
370
     9
100
AcDbTrace
 10
22601.57281257107
 20
7205.601984755188
 30
0.0
 11
22584.25230449539
 21
7195.601984755183
 31
0.0
 12
22622.91255853325
 22
7148.640460528124
 32
0.0
 13
22622.91255853325
 23
7148.640460528124
 33
0.0
  0
LINE
  5
25D81
330
272EA
100
AcDbEntity
  8
SUNPOU
370
     9
100
AcDbLine
 10
22866.11857409874
 20
7163.640460528124
 30
0.0
 11
22866.11857409874
 21
7178.640460528125
 31
0.0
  0
LINE
  5
25D82
330
272EA
100
AcDbEntity
  8
SUNPOU
370
     9
100
AcDbLine
 10
22866.11857409874
 20
7088.640460528123
 30
0.0
 11
22866.11857409874
 21
7148.640460528124
 31
0.0
  0
LINE
  5
25D83
330
272EA
100
AcDbEntity
  8
SUNPOU
370
     9
100
AcDbLine
 10
23540.41255853325
 20
8296.140460528125
 30
0.0
 11
23540.41255853325
 21
7126.140460528124
 31
0.0
  0
LINE
  5
25D84
330
272EA
100
AcDbEntity
  8
SUNPOU
370
     9
100
AcDbLine
 10
23750.41255853325
 20
8296.140460528125
 30
0.0
 11
23750.41255853325
 21
5726.140460528124
 31
0.0
  0
LINE
  5
25D85
330
272EA
100
AcDbEntity
  8
SUNPOU
370
     9
100
AcDbLine
 10
23540.41255853325
 20
7096.140460528125
 30
0.0
 11
23540.41255853325
 21
5726.140460528124
 31
0.0
  0
TEXT
  5
25D87
330
272EA
100
AcDbEntity
  8
SUNPOU
370
     9
100
AcDbText
 10
23705.41255853325
 20
6896.85474624241
 30
0.0
 40
90.0
  1
2600
 50
90.0
 41
0.6666666666666666
  7
00
 72
     1
 11
23660.41255853325
 21
7011.140460528124
 31
0.0
100
AcDbText
 73
     2
  0
LINE
  5
25D8A
330
272EA
100
AcDbEntity
  8
SUNPOU
370
     9
100
AcDbLine
 10
14291.66255853327
 20
5101.140460528124
 30
0.0
 11
14302.91255853327
 21
5101.140460528124
 31
0.0
  0
LINE
  5
25D8C
330
272EA
100
AcDbEntity
  8
SUNPOU
370
     9
100
AcDbLine
 10
14291.66255853327
 20
5311.140460528124
 30
0.0
 11
14302.91255853327
 21
5311.140460528124
 31
0.0
  0
LINE
  5
25D8E
330
272EA
100
AcDbEntity
  8
SUNPOU
370
     9
100
AcDbLine
 10
14644.16255853327
 20
5311.140460528124
 30
0.0
 11
14632.91255853327
 21
5311.140460528124
 31
0.0
  0
LINE
  5
25D90
330
272EA
100
AcDbEntity
  8
SUNPOU
370
     9
100
AcDbLine
 10
14666.66255853327
 20
5311.140460528124
 30
0.0
 11
14677.91255853327
 21
5311.140460528124
 31
0.0
  0
LINE
  5
25D92
330
272EA
100
AcDbEntity
  8
SUNPOU
370
     9
100
AcDbLine
 10
17794.16255853326
 20
5311.140460528124
 30
0.0
 11
17782.91255853326
 21
5311.140460528124
 31
0.0
  0
LINE
  5
25D94
330
272EA
100
AcDbEntity
  8
SUNPOU
370
     9
100
AcDbLine
 10
17816.66255853326
 20
5311.140460528124
 30
0.0
 11
17827.91255853326
 21
5311.140460528124
 31
0.0
  0
LINE
  5
25D96
330
272EA
100
AcDbEntity
  8
SUNPOU
370
     9
100
AcDbLine
 10
23019.16255853325
 20
5101.140460528124
 30
0.0
 11
23007.91255853325
 21
5101.140460528124
 31
0.0
  0
LINE
  5
25D98
330
272EA
100
AcDbEntity
  8
SUNPOU
370
     9
100
AcDbLine
 10
19494.16255853326
 20
5311.140460528124
 30
0.0
 11
19482.91255853326
 21
5311.140460528124
 31
0.0
  0
LINE
  5
25D9A
330
272EA
100
AcDbEntity
  8
SUNPOU
370
     9
100
AcDbLine
 10
19516.66255853326
 20
5311.140460528124
 30
0.0
 11
19527.91255853326
 21
5311.140460528124
 31
0.0
  0
LINE
  5
25D9C
330
272EA
100
AcDbEntity
  8
SUNPOU
370
     9
100
AcDbLine
 10
22644.16255853325
 20
5311.140460528124
 30
0.0
 11
22632.91255853325
 21
5311.140460528124
 31
0.0
  0
LINE
  5
25D9E
330
272EA
100
AcDbEntity
  8
SUNPOU
370
     9
100
AcDbLine
 10
22666.66255853325
 20
5311.140460528124
 30
0.0
 11
22677.91255853325
 21
5311.140460528124
 31
0.0
  0
LINE
  5
25DA0
330
272EA
100
AcDbEntity
  8
SUNPOU
370
     9
100
AcDbLine
 10
22291.66255853327
 20
6436.140460528124
 30
0.0
 11
22302.91255853325
 21
6436.140460528124
 31
0.0
  0
LINE
  5
25DA2
330
272EA
100
AcDbEntity
  8
SUNPOU
370
     9
100
AcDbLine
 10
22676.66255853325
 20
6897.197616642472
 30
0.0
 11
22665.41255853325
 21
6897.197616642472
 31
0.0
  0
LINE
  5
25DA4
330
272EA
100
AcDbEntity
  8
SUNPOU
370
     9
100
AcDbLine
 10
22611.66255853325
 20
6897.197616642472
 30
0.0
 11
22600.41255853325
 21
6897.197616642472
 31
0.0
  0
LINE
  5
25DA6
330
272EA
100
AcDbEntity
  8
SUNPOU
370
     9
100
AcDbLine
 10
23019.16255853325
 20
5311.140460528124
 30
0.0
 11
23007.91255853325
 21
5311.140460528124
 31
0.0
  0
LINE
  5
25DA8
330
272EA
100
AcDbEntity
  8
SUNPOU
370
     9
100
AcDbLine
 10
23540.41255853325
 20
5722.390460528123
 30
0.0
 11
23540.41255853325
 21
5733.640460528125
 31
0.0
  0
LINE
  5
25DAA
330
272EA
100
AcDbEntity
  8
SUNPOU
370
     9
100
AcDbLine
 10
23750.41255853325
 20
5722.390460528123
 30
0.0
 11
23750.41255853325
 21
5733.640460528125
 31
0.0
  0
LINE
  5
25DAC
330
272EA
100
AcDbEntity
  8
SUNPOU
370
     9
100
AcDbLine
 10
23019.16255853325
 20
6436.140460528124
 30
0.0
 11
23007.91255853325
 21
6436.140460528124
 31
0.0
  0
LINE
  5
25DAD
330
272EA
100
AcDbEntity
  8
SUNPOU
370
     9
100
AcDbLine
 10
23060.41255853325
 20
7486.140460528122
 30
0.0
 11
23360.41255853325
 21
7486.140460528122
 31
0.0
  0
LINE
  5
25DAE
330
272EA
100
AcDbEntity
  8
SUNPOU
370
     9
100
AcDbLine
 10
23060.41255853325
 20
6736.140460528122
 30
0.0
 11
23360.41255853325
 21
6736.140460528122
 31
0.0
  0
LINE
  5
25DAF
330
272EA
100
AcDbEntity
  8
SUNPOU
370
     9
100
AcDbLine
 10
23330.41255853325
 20
7486.140460528122
 30
0.0
 11
23330.41255853326
 21
6736.140460528125
 31
0.0
  0
TEXT
  5
25DB2
330
272EA
100
AcDbEntity
  8
SUNPOU
370
     9
100
AcDbText
 10
23285.41255853325
 20
7025.426174813842
 30
0.0
 40
90.0
  1
750
 50
90.0
 41
0.6666666666666666
  7
00
100
AcDbText
  0
LINE
  5
25DB4
330
272EA
100
AcDbEntity
  8
SUNPOU
370
     9
100
AcDbLine
 10
22866.11857409874
 20
7084.890460528121
 30
0.0
 11
22866.11857409874
 21
7096.140460528125
 31
0.0
  0
LINE
  5
25DB6
330
272EA
100
AcDbEntity
  8
SUNPOU
370
     9
100
AcDbLine
 10
22866.11857409874
 20
7159.890460528124
 30
0.0
 11
22866.11857409874
 21
7171.140460528125
 31
0.0
  0
LINE
  5
25DB8
330
272EA
100
AcDbEntity
  8
SUNPOU
370
     9
100
AcDbLine
 10
23540.41255853325
 20
7122.390460528125
 30
0.0
 11
23540.41255853325
 21
7133.640460528124
 31
0.0
  0
LINE
  5
25DBA
330
272EA
100
AcDbEntity
  8
SUNPOU
370
     9
100
AcDbLine
 10
23540.41255853325
 20
7099.890460528124
 30
0.0
 11
23540.41255853325
 21
7088.640460528123
 31
0.0
  0
LINE
  5
25DBC
330
272EA
100
AcDbEntity
  8
SUNPOU
370
     9
100
AcDbLine
 10
23540.41255853325
 20
8299.890460528123
 30
0.0
 11
23540.41255853325
 21
8288.640460528124
 31
0.0
  0
LINE
  5
25DBE
330
272EA
100
AcDbEntity
  8
SUNPOU
370
     9
100
AcDbLine
 10
23750.41255853325
 20
8299.890460528123
 30
0.0
 11
23750.41255853325
 21
8288.640460528124
 31
0.0
  0
TEXT
  5
25DCB
330
272EA
100
AcDbEntity
  8
HIKIDASHI
370
     9
100
AcDbText
 10
17999.75781792017
 20
4703.537463345514
 30
0.0
 40
135.0
  1
基 礎 伏 図
  7
01
 72
     2
 11
18845.75781792017
 21
4703.537463345514
 31
0.0
100
AcDbText
  0
TEXT
  5
25DCC
330
272EA
100
AcDbEntity
  8
HIKIDASHI
370
     9
100
AcDbText
 10
18947.00781792017
 20
4730.330960405352
 30
0.0
 40
90.0
  1
(S=
 41
0.6700000000000001
  7
00
100
AcDbText
  0
TEXT
  5
25DCD
330
272EA
100
AcDbEntity
  8
HIKIDASHI
370
     9
100
AcDbText
 10
19239.66555255536
 20
4700.892150305044
 30
0.0
 40
90.0
  1
30
 41
0.6700000000000001
  7
00
100
AcDbText
  0
TEXT
  5
25DCE
330
272EA
100
AcDbEntity
  8
HIKIDASHI
370
     9
100
AcDbText
 10
19376.27031562561
 20
4730.330960405352
 30
0.0
 40
90.0
  1
)
 41
0.6700000000000001
  7
00
100
AcDbText
  0
TEXT
  5
25DCF
330
272EA
100
AcDbEntity
  8
HIKIDASHI
370
     9
100
AcDbText
 10
19187.5835034474
 20
4730.330960405352
 30
0.0
 40
90.0
  1
/
 41
0.6700000000000001
  7
00
100
AcDbText
  0
TEXT
  5
25DD0
330
272EA
100
AcDbEntity
  8
HIKIDASHI
370
     9
100
AcDbText
 10
19150.30422335005
 20
4747.837622872077
 30
0.0
 40
90.0
  1
1
 41
0.6700000000000001
  7
00
100
AcDbText
  0
TEXT
  5
25DD1
330
272EA
100
AcDbEntity
  8
HIKIDASHI
370
     9
100
AcDbText
 10
18151.03500309496
 20
4523.537463345515
 30
0.0
 40
120.0
  1
（  ：スパン数）
  7
01
 72
     4
 11
18707.03500309496
 21
4583.537463345516
 31
0.0
100
AcDbText
  0
TEXT
  5
25DD2
330
272EA
100
AcDbEntity
  8
HIKIDASHI
370
     9
100
AcDbText
 10
18329.62468640525
 20
4523.537463345515
 30
0.0
 40
120.0
  1
N
 41
0.6666666666666666
  7
00
 72
     4
 11
18371.52944831002
 21
4583.537463345516
 31
0.0
100
AcDbText
  0
LINE
  5
26868
330
272EA
100
AcDbEntity
  8
KISO
370
     9
100
AcDbLine
 10
16249.05532874412
 20
3113.093043806402
 30
0.0
 11
15336.21925468175
 21
3113.093043806402
 31
0.0
  0
LINE
  5
26869
330
272EA
100
AcDbEntity
  8
KISO
370
     9
100
AcDbLine
 10
15298.71925468175
 20
2978.093043806402
 30
0.0
 11
15742.80532874412
 21
2978.093043806402
 31
0.0
  0
LINE
  5
2686A
330
272EA
100
AcDbEntity
  8
KISO
370
     9
100
AcDbLine
 10
15298.71925468175
 20
2888.093043806399
 30
0.0
 11
15742.80532874412
 21
2888.093043806401
 31
0.0
  0
LINE
  5
2686B
330
272EA
100
AcDbEntity
  8
HATCH
370
     9
100
AcDbLine
 10
15513.04487056748
 20
3113.093043806402
 30
0.0
 11
15378.04487056748
 21
2978.093043806403
 31
0.0
  0
LINE
  5
2686C
330
272EA
100
AcDbEntity
  8
HATCH
370
     9
100
AcDbLine
 10
15557.59259778222
 20
3113.093043806402
 30
0.0
 11
15422.59259778222
 21
2978.093043806403
 31
0.0
  0
LINE
  5
2686D
330
272EA
100
AcDbEntity
  8
HATCH
370
     9
100
AcDbLine
 10
15602.14032499698
 20
3113.093043806402
 30
0.0
 11
15467.14032499698
 21
2978.093043806403
 31
0.0
  0
LINE
  5
26870
330
272EA
100
AcDbEntity
  8
HIKIDASHI
370
     9
100
AcDbLine
 10
16370.14411957834
 20
2416.692433695876
 30
0.0
 11
16931.36425305455
 21
2620.959857152137
 31
0.0
  0
LINE
  5
26871
330
272EA
100
AcDbEntity
  8
HATCH
370
     9
100
AcDbLine
 10
16249.05532874412
 20
2472.295316591652
 30
0.0
 11
16139.85305595887
 21
2363.093043806402
 31
0.0
  0
LINE
  5
26872
330
272EA
100
AcDbEntity
  8
HATCH
370
     9
100
AcDbLine
 10
16249.05532874412
 20
2516.843043806402
 30
0.0
 11
16095.30532874412
 21
2363.093043806402
 31
0.0
  0
LINE
  5
26873
330
272EA
100
AcDbEntity
  8
HATCH
370
     9
100
AcDbLine
 10
16249.05532874412
 20
2921.843043806399
 30
0.0
 11
15742.80532874412
 21
2415.593043806397
 31
0.0
  0
LINE
  5
26874
330
272EA
100
AcDbEntity
  8
HATCH
370
     9
100
AcDbLine
 10
16249.05532874412
 20
2877.295316591651
 30
0.0
 11
15742.80532874412
 21
2371.045316591651
 31
0.0
  0
LINE
  5
26875
330
272EA
100
AcDbEntity
  8
HASHIRA
370
     9
100
AcDbLine
 10
16249.05532874412
 20
2363.093043806402
 30
0.0
 11
16249.05532874412
 21
4049.037405937632
 31
0.0
  0
LINE
  5
26876
330
272EA
100
AcDbEntity
  8
HASHIRA
370
     9
100
AcDbLine
 10
16361.55532874412
 20
2363.093043806402
 30
0.0
 11
16361.55532874412
 21
4049.037405937632
 31
0.0
  0
LINE
  5
26877
330
272EA
100
AcDbEntity
  8
1PL-M1
370
     9
100
AcDbLine
 10
16305.30532874412
 20
2048.093043806403
 30
0.0
 11
16305.30532874412
 21
4229.497864552458
 31
0.0
  0
LINE
  5
26878
330
272EA
100
AcDbEntity
  8
KISO
370
     9
100
AcDbLine
 10
16867.80532874412
 20
3113.093043806405
 30
0.0
 11
16867.80532874412
 21
2363.093043806405
 31
0.0
  0
LINE
  5
26879
330
272EA
100
AcDbEntity
  8
KISO
370
     9
100
AcDbLine
 10
15742.80532874412
 20
3113.093043806402
 30
0.0
 11
15742.80532874412
 21
2363.093043806402
 31
0.0
  0
LINE
  5
2687A
330
272EA
100
AcDbEntity
  8
HATCH
370
     9
100
AcDbLine
 10
16867.80532874412
 20
2596.949862162153
 30
0.0
 11
16633.94851038836
 21
2363.093043806402
 31
0.0
  0
LINE
  5
2687B
330
272EA
100
AcDbEntity
  8
HATCH
370
     9
100
AcDbLine
 10
16867.80532874412
 20
2641.497589376907
 30
0.0
 11
16589.40078317362
 21
2363.093043806402
 31
0.0
  0
LINE
  5
2687C
330
272EA
100
AcDbEntity
  8
HATCH
370
     9
100
AcDbLine
 10
16867.80532874412
 20
2686.04531659166
 30
0.0
 11
16544.85305595885
 21
2363.093043806402
 31
0.0
  0
LINE
  5
2687D
330
272EA
100
AcDbEntity
  8
HATCH
370
     9
100
AcDbLine
 10
16249.05532874412
 20
2427.747589376899
 30
0.0
 11
16184.40078317362
 21
2363.093043806402
 31
0.0
  0
SOLID
  5
2687E
330
272EA
100
AcDbEntity
  8
HIKIDASHI
370
     9
100
AcDbTrace
 10
16373.5643210116
 20
2407.295507488016
 30
0.0
 11
16366.72391814509
 21
2426.089359903734
 31
0.0
 12
16313.76256233119
 22
2396.171225096334
 32
0.0
 13
16313.76256233119
 23
2396.171225096334
 33
0.0
  0
LINE
  5
2687F
330
272EA
100
AcDbEntity
  8
HIKIDASHI
370
     9
100
AcDbLine
 10
16280.75988809635
 20
2393.093043806402
 30
0.0
 11
16329.85076939188
 21
2393.093043806402
 31
0.0
  0
LINE
  5
26880
330
272EA
100
AcDbEntity
  8
HIKIDASHI
370
     9
100
AcDbLine
 10
16280.75988809635
 20
2453.093043806402
 30
0.0
 11
16329.85076939188
 21
2453.093043806402
 31
0.0
  0
CIRCLE
  5
26883
330
272EA
100
AcDbEntity
  8
HASHIRA
370
     9
100
AcDbCircle
 10
16305.30532874412
 20
2453.093043806402
 30
0.0
 40
9.0
  0
CIRCLE
  5
26884
330
272EA
100
AcDbEntity
  8
HASHIRA
370
     9
100
AcDbCircle
 10
16305.30532874412
 20
2393.093043806402
 30
0.0
 40
9.0
  0
TEXT
  5
26885
330
272EA
100
AcDbEntity
  8
SUNPOU
370
     9
100
AcDbText
 10
17649.10792314509
 20
1579.0852845024
 30
0.0
 40
90.0
  1
ベース筋
  7
01
 72
     4
 11
17853.10792314509
 21
1624.0852845024
 31
0.0
100
AcDbText
  0
LINE
  5
26886
330
272EA
100
AcDbEntity
  8
HATCH
370
     9
100
AcDbLine
 10
17740.12828262494
 20
3113.093043806402
 30
0.0
 11
17605.12828262494
 21
2978.093043806405
 31
0.0
  0
LINE
  5
26887
330
272EA
100
AcDbEntity
  8
HATCH
370
     9
100
AcDbLine
 10
17695.58055541018
 20
3113.093043806402
 30
0.0
 11
17560.58055541018
 21
2978.093043806405
 31
0.0
  0
LINE
  5
26888
330
272EA
100
AcDbEntity
  8
HIKIDASHI
370
     9
100
AcDbLine
 10
16931.36425305455
 20
2620.959857152137
 30
0.0
 11
17722.32347808595
 21
2620.959857152137
 31
0.0
  0
TEXT
  5
26889
330
272EA
100
AcDbEntity
  8
HIKIDASHI
370
     9
100
AcDbText
 10
17221.50031819694
 20
2665.959857152137
 30
0.0
 40
90.0
  1
10   x 350
 41
0.6666666666666666
  7
00
 11
17221.50031819694
 21
2710.959857152137
 31
0.0
100
AcDbText
 73
     2
  0
LINE
  5
2688B
330
272EA
100
AcDbEntity
  8
KISO
370
     9
100
AcDbLine
 10
16867.80532874412
 20
2888.093043806402
 30
0.0
 11
18255.3053287441
 21
2888.093043806402
 31
0.0
  0
LINE
  5
2688C
330
272EA
100
AcDbEntity
  8
KISO
370
     9
100
AcDbLine
 10
16867.80532874412
 20
2978.093043806405
 30
0.0
 11
18255.3053287441
 21
2978.093043806406
 31
0.0
  0
LINE
  5
2688D
330
272EA
100
AcDbEntity
  8
KISO
370
     9
100
AcDbLine
 10
18255.3053287441
 20
3113.093043806405
 30
0.0
 11
16361.55532874412
 21
3113.093043806402
 31
0.0
  0
LINE
  5
2688E
330
272EA
100
AcDbEntity
  8
HATCH
370
     9
100
AcDbLine
 10
16845.3053287441
 20
3113.093043806403
 30
0.0
 11
16361.55532874412
 21
2629.343043806402
 31
0.0
  0
LINE
  5
2688F
330
272EA
100
AcDbEntity
  8
HATCH
370
     9
100
AcDbLine
 10
16867.80532874412
 20
3046.497589376903
 30
0.0
 11
16361.55532874412
 21
2540.2475893769
 31
0.0
  0
LINE
  5
26890
330
272EA
100
AcDbEntity
  8
HATCH
370
     9
100
AcDbLine
 10
16867.80532874412
 20
3091.045316591659
 30
0.0
 11
16361.55532874412
 21
2584.795316591653
 31
0.0
  0
LINE
  5
26891
330
272EA
100
AcDbEntity
  8
HATCH
370
     9
100
AcDbLine
 10
16249.05532874412
 20
2966.390771021155
 30
0.0
 11
15742.80532874412
 21
2460.140771021151
 31
0.0
  0
LINE
  5
26892
330
272EA
100
AcDbEntity
  8
HATCH
370
     9
100
AcDbLine
 10
15946.20987431461
 20
3113.093043806402
 30
0.0
 11
15742.80532874411
 21
2909.688498235911
 31
0.0
  0
LINE
  5
26893
330
272EA
100
AcDbEntity
  8
HATCH
370
     9
100
AcDbLine
 10
15990.75760152937
 20
3113.093043806402
 30
0.0
 11
15742.80532874412
 21
2865.140771021153
 31
0.0
  0
LINE
  5
26894
330
272EA
100
AcDbEntity
  8
HATCH
370
     9
100
AcDbLine
 10
16035.30532874412
 20
3113.093043806402
 30
0.0
 11
15742.80532874412
 21
2820.593043806404
 31
0.0
  0
LINE
  5
26896
330
272EA
100
AcDbEntity
  8
HATCH
370
     9
100
AcDbLine
 10
16440.30532874412
 20
3113.093043806403
 30
0.0
 11
16361.55532874412
 21
3034.343043806397
 31
0.0
  0
LINE
  5
26897
330
272EA
100
AcDbEntity
  8
HATCH
370
     9
100
AcDbLine
 10
16395.75760152937
 20
3113.093043806403
 30
0.0
 11
16361.55532874412
 21
3078.890771021156
 31
0.0
  0
LINE
  5
26898
330
272EA
100
AcDbEntity
  8
HATCH
370
     9
100
AcDbLine
 10
16484.85305595887
 20
3113.093043806403
 30
0.0
 11
16361.55532874412
 21
2989.795316591651
 31
0.0
  0
LINE
  5
26899
330
272EA
100
AcDbEntity
  8
HATCH
370
     9
100
AcDbLine
 10
17246.03282819543
 20
3113.093043806402
 30
0.0
 11
17111.03282819543
 21
2978.093043806403
 31
0.0
  0
LINE
  5
2689A
330
272EA
100
AcDbEntity
  8
HATCH
370
     9
100
AcDbLine
 10
17290.58055541018
 20
3113.093043806402
 30
0.0
 11
17155.58055541019
 21
2978.093043806403
 31
0.0
  0
LINE
  5
2689B
330
272EA
100
AcDbEntity
  8
HATCH
370
     9
100
AcDbLine
 10
17201.48510098068
 20
3113.093043806402
 30
0.0
 11
17066.48510098069
 21
2978.093043806403
 31
0.0
  0
TEXT
  5
2689D
330
272EA
100
AcDbEntity
  8
HIKIDASHI
370
     9
100
AcDbText
 10
16961.36425305455
 20
2665.959857152137
 30
0.0
 40
90.0
  1
鉄筋
  7
01
 11
16961.36425305455
 21
2710.959857152137
 31
0.0
100
AcDbText
 73
     2
  0
TEXT
  5
268A0
330
272EA
100
AcDbEntity
  8
HIKIDASHI
370
     9
100
AcDbText
 10
17370.957479093
 20
2680.959857152137
 30
0.0
 40
90.0
  1
%%c
 41
0.6666666666666666
  7
00
100
AcDbText
  0
LINE
  5
268A3
330
272EA
100
AcDbEntity
  8
HATCH
370
     9
100
AcDbLine
 10
17651.03282819543
 20
3113.093043806402
 30
0.0
 11
17516.03282819543
 21
2978.093043806405
 31
0.0
  0
LINE
  5
268A5
330
272EA
100
AcDbEntity
  8
SUNPOU
370
     9
100
AcDbLine
 10
18005.92329961192
 20
3203.093043806406
 30
0.0
 11
18057.88482383898
 21
3113.093043806405
 31
0.0
  0
LINE
  5
268A6
330
272EA
100
AcDbEntity
  8
SUNPOU
370
     9
100
AcDbLine
 10
18057.88482383898
 20
3113.093043806405
 30
0.0
 11
18109.84634806605
 21
3203.093043806406
 31
0.0
  0
LINE
  5
268A7
330
272EA
100
AcDbEntity
  8
HATCH
370
     9
100
AcDbLine
 10
18189.67600983968
 20
3113.093043806403
 30
0.0
 11
18054.67600983968
 21
2978.093043806405
 31
0.0
  0
LINE
  5
268A9
330
272EA
100
AcDbEntity
  8
HATCH
370
     9
100
AcDbLine
 10
18145.12828262493
 20
3113.093043806403
 30
0.0
 11
18010.12828262493
 21
2978.093043806405
 31
0.0
  0
LINE
  5
268AA
330
272EA
100
AcDbEntity
  8
HATCH
370
     9
100
AcDbLine
 10
18100.58055541018
 20
3113.093043806403
 30
0.0
 11
17965.58055541018
 21
2978.093043806405
 31
0.0
  0
LINE
  5
268AD
330
272EA
100
AcDbEntity
  8
U3
370
     9
100
AcDbLine
 10
18255.3053287441
 20
2910.593043806406
 30
0.0
 11
18412.80532874412
 21
3068.093043806404
 31
0.0
  0
LINE
  5
268AE
330
272EA
100
AcDbEntity
  8
KISO
370
     9
100
AcDbLine
 10
18255.3053287441
 20
2888.093043806402
 30
0.0
 11
18255.3053287441
 21
3113.093043806403
 31
0.0
  0
LINE
  5
268B0
330
272EA
100
AcDbEntity
  8
U3
370
     9
100
AcDbLine
 10
18317.34591328393
 20
2972.633628346219
 30
0.0
 11
18379.38649782375
 21
2910.593043806404
 31
0.0
  0
LINE
  5
268B1
330
272EA
100
AcDbEntity
  8
U3
370
     9
100
AcDbLine
 10
18255.30532874411
 20
3006.052459266586
 30
0.0
 11
18317.34591328394
 21
3068.093043806404
 31
0.0
  0
TEXT
  5
268B2
330
272EA
100
AcDbEntity
  8
SUNPOU
370
     9
100
AcDbText
 10
17989.31339526755
 20
3248.093043806405
 30
0.0
 40
90.0
  1
F.L
 41
0.6666666666666666
  7
00
 72
     4
 11
18057.88482383898
 21
3293.093043806405
 31
0.0
100
AcDbText
  0
LINE
  5
268B3
330
272EA
100
AcDbEntity
  8
SUNPOU
370
     9
100
AcDbLine
 10
18109.84634806605
 20
3203.093043806406
 30
0.0
 11
18005.92329961192
 21
3203.093043806406
 31
0.0
  0
TEXT
  5
268B4
330
272EA
100
AcDbEntity
  8
SUNPOU
370
     9
100
AcDbText
 10
18135.92800458774
 20
1579.0852845024
 30
0.0
 40
90.0
  1
4-D13\U+00D74-D13
 41
0.6700000000000001
  7
01
 72
     4
 11
18479.3508617306
 21
1624.0852845024
 31
0.0
100
AcDbText
  0
TEXT
  5
268B5
330
272EA
100
AcDbEntity
  8
SUNPOU
370
     9
100
AcDbText
 10
18592.43749317099
 20
3203.093043806403
 30
0.0
 40
90.0
  1
G.L
 41
0.6666666666666666
  7
00
 72
     4
 11
18663.86606459956
 21
3248.093043806404
 31
0.0
100
AcDbText
  0
LINE
  5
268B6
330
272EA
100
AcDbEntity
  8
SUNPOU
370
     9
100
AcDbLine
 10
18715.82758882663
 20
3158.093043806405
 30
0.0
 11
18611.90454037249
 21
3158.093043806405
 31
0.0
  0
LINE
  5
268B7
330
272EA
100
AcDbEntity
  8
SUNPOU
370
     9
100
AcDbLine
 10
18611.90454037249
 20
3158.093043806405
 30
0.0
 11
18663.86606459956
 21
3068.093043806404
 31
0.0
  0
LINE
  5
268B8
330
272EA
100
AcDbEntity
  8
U3
370
     9
100
AcDbLine
 10
18632.34591328393
 20
2972.633628346219
 30
0.0
 11
18694.38649782375
 21
2910.593043806404
 31
0.0
  0
LINE
  5
268B9
330
272EA
100
AcDbEntity
  8
U3
370
     9
100
AcDbLine
 10
18947.34591328393
 20
3068.093043806405
 30
0.0
 11
18255.3053287441
 21
3068.093043806404
 31
0.0
  0
LINE
  5
268BA
330
272EA
100
AcDbEntity
  8
U3
370
     9
100
AcDbLine
 10
18570.30532874412
 20
2910.593043806406
 30
0.0
 11
18727.8053287441
 21
3068.093043806404
 31
0.0
  0
LINE
  5
268BB
330
272EA
100
AcDbEntity
  8
U3
370
     9
100
AcDbLine
 10
18365.07562101401
 20
3020.363336076313
 30
0.0
 11
18474.84591328393
 21
2910.593043806402
 31
0.0
  0
LINE
  5
268BC
330
272EA
100
AcDbEntity
  8
U3
370
     9
100
AcDbLine
 10
18412.80532874412
 20
3068.093043806404
 30
0.0
 11
18570.30532874412
 21
2910.593043806406
 31
0.0
  0
LINE
  5
268BD
330
272EA
100
AcDbEntity
  8
U3
370
     9
100
AcDbLine
 10
18522.57562101401
 20
2958.322751536499
 30
0.0
 11
18632.34591328393
 21
3068.093043806404
 31
0.0
  0
LINE
  5
268BE
330
272EA
100
AcDbEntity
  8
U3
370
     9
100
AcDbLine
 10
18474.84591328393
 20
3006.052459266589
 30
0.0
 11
18536.88649782375
 21
3068.093043806404
 31
0.0
  0
LINE
  5
268BF
330
272EA
100
AcDbEntity
  8
U3
370
     9
100
AcDbLine
 10
18837.57562101401
 20
2958.322751536497
 30
0.0
 11
18947.34591328393
 21
3068.093043806405
 31
0.0
  0
LINE
  5
268C0
330
272EA
100
AcDbEntity
  8
U3
370
     9
100
AcDbLine
 10
18727.8053287441
 20
3068.093043806404
 30
0.0
 11
18885.3053287441
 21
2910.593043806407
 31
0.0
  0
LINE
  5
268C1
330
272EA
100
AcDbEntity
  8
U3
370
     9
100
AcDbLine
 10
18680.07562101402
 20
3020.363336076313
 30
0.0
 11
18789.84591328393
 21
2910.593043806402
 31
0.0
  0
LINE
  5
268C2
330
272EA
100
AcDbEntity
  8
SUNPOU
370
     9
100
AcDbLine
 10
18663.86606459956
 20
3068.093043806404
 30
0.0
 11
18715.82758882663
 21
3158.093043806405
 31
0.0
  0
LINE
  5
268C3
330
272EA
100
AcDbEntity
  8
U3
370
     9
100
AcDbLine
 10
18789.84591328393
 20
3006.052459266591
 30
0.0
 11
18851.88649782374
 21
3068.093043806404
 31
0.0
  0
TEXT
  5
26903
330
272EA
100
AcDbEntity
  8
SUNPOU
370
     9
100
AcDbText
 10
15813.41255853326
 20
5971.140460528125
 30
0.0
 40
90.0
  1
（鼻隠し外面）
  7
01
 72
     4
 11
16176.41255853326
 21
6016.140460528124
 31
0.0
100
AcDbText
  0
LINE
  5
2692F
330
272EA
100
AcDbEntity
  8
KISO
370
     9
100
AcDbLine
 10
15592.80532874411
 20
2213.093043806402
 30
0.0
 11
17017.80532874411
 21
2213.093043806404
 31
0.0
  0
LINE
  5
26932
330
272EA
100
AcDbEntity
  8
KISO
370
     9
100
AcDbLine
 10
15592.80532874412
 20
2213.093043806402
 30
0.0
 11
15592.80532874412
 21
2363.093043806401
 31
0.0
  0
LINE
  5
26936
330
272EA
100
AcDbEntity
  8
KISO
370
     9
100
AcDbLine
 10
17017.80532874411
 20
2213.093043806404
 30
0.0
 11
17017.80532874411
 21
2363.093043806403
 31
0.0
  0
LINE
  5
26938
330
272EA
100
AcDbEntity
  8
KISO
370
     9
100
AcDbLine
 10
15592.80532874412
 20
2363.093043806401
 30
0.0
 11
17017.80532874411
 21
2363.093043806403
 31
0.0
  0
LINE
  5
26F5D
330
272EA
100
AcDbEntity
  8
SUNPOU
370
     9
100
AcDbLine
 10
17047.80532874412
 20
2363.093043806402
 30
0.0
 11
18500.30532874412
 21
2363.093043806402
 31
0.0
  0
LINE
  5
26F5E
330
272EA
100
AcDbEntity
  8
SUNPOU
370
     9
100
AcDbLine
 10
17047.80532874412
 20
2213.093043806404
 30
0.0
 11
18500.30532874412
 21
2213.093043806404
 31
0.0
  0
LINE
  5
26F5F
330
272EA
100
AcDbEntity
  8
SUNPOU
370
     9
100
AcDbLine
 10
18455.30532874412
 20
2348.093043806402
 30
0.0
 11
18455.30532874412
 21
2228.093043806405
 31
0.0
  0
LINE
  5
26F60
330
272EA
100
AcDbEntity
  8
SUNPOU
370
     9
100
AcDbLine
 10
18455.30532874412
 20
2213.093043806404
 30
0.0
 11
18455.30532874412
 21
1962.378758092118
 31
0.0
  0
LINE
  5
26F64
330
272EA
100
AcDbEntity
  8
SUNPOU
370
     9
100
AcDbLine
 10
18285.30532874412
 20
3113.093043806405
 30
0.0
 11
18500.30532874412
 21
3113.093043806405
 31
0.0
  0
LINE
  5
26F65
330
272EA
100
AcDbEntity
  8
SUNPOU
370
     9
100
AcDbLine
 10
17047.80532874412
 20
2363.093043806405
 30
0.0
 11
18500.30532874412
 21
2363.093043806405
 31
0.0
  0
LINE
  5
26F66
330
272EA
100
AcDbEntity
  8
SUNPOU
370
     9
100
AcDbLine
 10
18455.30532874412
 20
3098.093043806404
 30
0.0
 11
18455.30532874412
 21
2378.093043806405
 31
0.0
  0
LINE
  5
26F6A
330
272EA
100
AcDbEntity
  8
SUNPOU
370
     9
100
AcDbLine
 10
15742.80532874411
 20
2183.093043806405
 30
0.0
 11
15742.80532874411
 21
1838.093043806402
 31
0.0
  0
LINE
  5
26F6B
330
272EA
100
AcDbEntity
  8
SUNPOU
370
     9
100
AcDbLine
 10
16867.8053287441
 20
2183.093043806405
 30
0.0
 11
16867.8053287441
 21
1838.093043806402
 31
0.0
  0
LINE
  5
26F6C
330
272EA
100
AcDbEntity
  8
SUNPOU
370
     9
100
AcDbLine
 10
15742.80532874412
 20
1883.093043806402
 30
0.0
 11
16867.80532874412
 21
1883.093043806402
 31
0.0
  0
LINE
  5
26F70
330
272EA
100
AcDbEntity
  8
SUNPOU
370
     9
100
AcDbLine
 10
15592.80532874411
 20
2183.093043806405
 30
0.0
 11
15592.80532874411
 21
1628.093043806403
 31
0.0
  0
LINE
  5
26F71
330
272EA
100
AcDbEntity
  8
SUNPOU
370
     9
100
AcDbLine
 10
17017.80532874411
 20
2183.093043806405
 30
0.0
 11
17017.80532874411
 21
1628.093043806403
 31
0.0
  0
LINE
  5
26F72
330
272EA
100
AcDbEntity
  8
SUNPOU
370
     9
100
AcDbLine
 10
15592.80532874412
 20
1673.093043806403
 30
0.0
 11
17017.80532874411
 21
1673.093043806403
 31
0.0
  0
ARC
  5
26F76
330
272EA
100
AcDbEntity
  8
SUNPOU
370
     9
100
AcDbCircle
 10
23750.41255853325
 20
8311.14046052812
 30
0.0
 40
5.625000000001816
100
AcDbArc
 50
270.0
 51
90.0
  0
ARC
  5
26F77
330
272EA
100
AcDbEntity
  8
SUNPOU
370
     9
100
AcDbCircle
 10
23750.41255853325
 20
8311.14046052812
 30
0.0
 40
5.625000000001816
100
AcDbArc
 50
90.0
 51
270.0
  0
ARC
  5
26F78
330
272EA
100
AcDbEntity
  8
SUNPOU
370
     9
100
AcDbCircle
 10
23540.41255853325
 20
8311.14046052812
 30
0.0
 40
5.625000000001816
100
AcDbArc
 50
270.0
 51
90.0
  0
ARC
  5
26F79
330
272EA
100
AcDbEntity
  8
SUNPOU
370
     9
100
AcDbCircle
 10
23540.41255853325
 20
8311.14046052812
 30
0.0
 40
5.625000000001816
100
AcDbArc
 50
90.0
 51
270.0
  0
ARC
  5
26F7A
330
272EA
100
AcDbEntity
  8
SUNPOU
370
     9
100
AcDbCircle
 10
23540.41255853325
 20
7111.140460528122
 30
0.0
 40
5.625
100
AcDbArc
 50
270.0
 51
90.0
  0
ARC
  5
26F7B
330
272EA
100
AcDbEntity
  8
SUNPOU
370
     9
100
AcDbCircle
 10
23540.41255853325
 20
7111.140460528122
 30
0.0
 40
5.625
100
AcDbArc
 50
90.0
 51
270.0
  0
ARC
  5
26F7C
330
272EA
100
AcDbEntity
  8
SUNPOU
370
     9
100
AcDbCircle
 10
23540.41255853325
 20
7111.140460528122
 30
0.0
 40
5.625
100
AcDbArc
 50
90.0
 51
270.0
  0
ARC
  5
26F7D
330
272EA
100
AcDbEntity
  8
SUNPOU
370
     9
100
AcDbCircle
 10
23540.41255853325
 20
7111.140460528122
 30
0.0
 40
5.625
100
AcDbArc
 50
270.0
 51
90.0
  0
ARC
  5
26F7E
330
272EA
100
AcDbEntity
  8
SUNPOU
370
     9
100
AcDbCircle
 10
22866.11857409874
 20
7148.640460528124
 30
0.0
 40
5.625
100
AcDbArc
 50
90.0
 51
270.0
  0
ARC
  5
26F7F
330
272EA
100
AcDbEntity
  8
SUNPOU
370
     9
100
AcDbCircle
 10
22866.11857409874
 20
7148.640460528124
 30
0.0
 40
5.625
100
AcDbArc
 50
270.0
 51
90.0
  0
ARC
  5
26F80
330
272EA
100
AcDbEntity
  8
SUNPOU
370
     9
100
AcDbCircle
 10
22866.11857409874
 20
7073.640460528124
 30
0.0
 40
5.625
100
AcDbArc
 50
90.0
 51
270.0
  0
ARC
  5
26F81
330
272EA
100
AcDbEntity
  8
SUNPOU
370
     9
100
AcDbCircle
 10
22866.11857409874
 20
7073.640460528124
 30
0.0
 40
5.625
100
AcDbArc
 50
270.0
 51
90.0
  0
LINE
  5
26F83
330
272EA
100
AcDbEntity
  8
SUNPOU
370
     9
100
AcDbLine
 10
23330.41255853325
 20
6747.390460528122
 30
0.0
 11
23330.41255853325
 21
6758.640460528124
 31
0.0
  0
LINE
  5
26F85
330
272EA
100
AcDbEntity
  8
SUNPOU
370
     9
100
AcDbLine
 10
23330.41255853325
 20
7474.890460528124
 30
0.0
 11
23330.41255853325
 21
7463.640460528124
 31
0.0
  0
ARC
  5
26F86
330
272EA
100
AcDbEntity
  8
SUNPOU
370
     9
100
AcDbCircle
 10
23030.41255853325
 20
6436.140460528124
 30
0.0
 40
5.625
100
AcDbArc
 50
180.0
 51
0.0
  0
ARC
  5
26F87
330
272EA
100
AcDbEntity
  8
SUNPOU
370
     9
100
AcDbCircle
 10
23030.41255853325
 20
6436.140460528124
 30
0.0
 40
5.625
100
AcDbArc
 50
0.0
 51
180.0
  0
ARC
  5
26F88
330
272EA
100
AcDbEntity
  8
SUNPOU
370
     9
100
AcDbCircle
 10
23750.41255853325
 20
5711.140460528124
 30
0.0
 40
5.625
100
AcDbArc
 50
90.0
 51
270.0
  0
ARC
  5
26F89
330
272EA
100
AcDbEntity
  8
SUNPOU
370
     9
100
AcDbCircle
 10
23750.41255853325
 20
5711.140460528124
 30
0.0
 40
5.625
100
AcDbArc
 50
270.0
 51
90.0
  0
ARC
  5
26F8A
330
272EA
100
AcDbEntity
  8
SUNPOU
370
     9
100
AcDbCircle
 10
23540.41255853325
 20
5711.140460528124
 30
0.0
 40
5.625
100
AcDbArc
 50
90.0
 51
270.0
  0
ARC
  5
26F8B
330
272EA
100
AcDbEntity
  8
SUNPOU
370
     9
100
AcDbCircle
 10
23540.41255853325
 20
5711.140460528124
 30
0.0
 40
5.625
100
AcDbArc
 50
270.0
 51
90.0
  0
ARC
  5
26F8C
330
272EA
100
AcDbEntity
  8
SUNPOU
370
     9
100
AcDbCircle
 10
23030.41255853325
 20
5311.140460528124
 30
0.0
 40
5.625
100
AcDbArc
 50
180.0
 51
0.0
  0
ARC
  5
26F8D
330
272EA
100
AcDbEntity
  8
SUNPOU
370
     9
100
AcDbCircle
 10
23030.41255853325
 20
5311.140460528124
 30
0.0
 40
5.625
100
AcDbArc
 50
0.0
 51
180.0
  0
ARC
  5
26F8E
330
272EA
100
AcDbEntity
  8
SUNPOU
370
     9
100
AcDbCircle
 10
22622.91255853325
 20
6897.197616642472
 30
0.0
 40
5.625
100
AcDbArc
 50
180.0
 51
0.0
  0
ARC
  5
26F8F
330
272EA
100
AcDbEntity
  8
SUNPOU
370
     9
100
AcDbCircle
 10
22622.91255853325
 20
6897.197616642472
 30
0.0
 40
5.625
100
AcDbArc
 50
0.0
 51
180.0
  0
ARC
  5
26F90
330
272EA
100
AcDbEntity
  8
SUNPOU
370
     9
100
AcDbCircle
 10
22687.91255853325
 20
6897.197616642472
 30
0.0
 40
5.625
100
AcDbArc
 50
180.0
 51
0.0
  0
ARC
  5
26F91
330
272EA
100
AcDbEntity
  8
SUNPOU
370
     9
100
AcDbCircle
 10
22687.91255853325
 20
6897.197616642472
 30
0.0
 40
5.625
100
AcDbArc
 50
0.0
 51
180.0
  0
ARC
  5
26F92
330
272EA
100
AcDbEntity
  8
SUNPOU
370
     9
100
AcDbCircle
 10
22280.41255853325
 20
6436.140460528124
 30
0.0
 40
5.625
100
AcDbArc
 50
0.0
 51
180.0
  0
ARC
  5
26F93
330
272EA
100
AcDbEntity
  8
SUNPOU
370
     9
100
AcDbCircle
 10
22280.41255853325
 20
6436.140460528124
 30
0.0
 40
5.625
100
AcDbArc
 50
180.0
 51
0.0
  0
ARC
  5
26F94
330
272EA
100
AcDbEntity
  8
SUNPOU
370
     9
100
AcDbCircle
 10
22655.41255853325
 20
5311.140460528124
 30
0.0
 40
5.625
100
AcDbArc
 50
0.0
 51
180.0
  0
ARC
  5
26F95
330
272EA
100
AcDbEntity
  8
SUNPOU
370
     9
100
AcDbCircle
 10
22655.41255853325
 20
5311.140460528124
 30
0.0
 40
5.625
100
AcDbArc
 50
180.0
 51
0.0
  0
ARC
  5
26F96
330
272EA
100
AcDbEntity
  8
SUNPOU
370
     9
100
AcDbCircle
 10
22655.41255853325
 20
5311.140460528124
 30
0.0
 40
5.625
100
AcDbArc
 50
180.0
 51
0.0
  0
ARC
  5
26F97
330
272EA
100
AcDbEntity
  8
SUNPOU
370
     9
100
AcDbCircle
 10
22655.41255853325
 20
5311.140460528124
 30
0.0
 40
5.625
100
AcDbArc
 50
0.0
 51
180.0
  0
ARC
  5
26F98
330
272EA
100
AcDbEntity
  8
SUNPOU
370
     9
100
AcDbCircle
 10
19505.41255853326
 20
5311.140460528124
 30
0.0
 40
5.625
100
AcDbArc
 50
0.0
 51
180.0
  0
ARC
  5
26F99
330
272EA
100
AcDbEntity
  8
SUNPOU
370
     9
100
AcDbCircle
 10
19505.41255853326
 20
5311.140460528124
 30
0.0
 40
5.625
100
AcDbArc
 50
180.0
 51
0.0
  0
ARC
  5
26F9A
330
272EA
100
AcDbEntity
  8
SUNPOU
370
     9
100
AcDbCircle
 10
19505.41255853326
 20
5311.140460528124
 30
0.0
 40
5.625
100
AcDbArc
 50
180.0
 51
0.0
  0
ARC
  5
26F9B
330
272EA
100
AcDbEntity
  8
SUNPOU
370
     9
100
AcDbCircle
 10
19505.41255853326
 20
5311.140460528124
 30
0.0
 40
5.625
100
AcDbArc
 50
0.0
 51
180.0
  0
ARC
  5
26F9C
330
272EA
100
AcDbEntity
  8
SUNPOU
370
     9
100
AcDbCircle
 10
23030.41255853325
 20
5101.140460528124
 30
0.0
 40
5.625
100
AcDbArc
 50
180.0
 51
0.0
  0
ARC
  5
26F9D
330
272EA
100
AcDbEntity
  8
SUNPOU
370
     9
100
AcDbCircle
 10
23030.41255853325
 20
5101.140460528124
 30
0.0
 40
5.625
100
AcDbArc
 50
0.0
 51
180.0
  0
ARC
  5
26F9E
330
272EA
100
AcDbEntity
  8
SUNPOU
370
     9
100
AcDbCircle
 10
17805.41255853326
 20
5311.140460528124
 30
0.0
 40
5.625
100
AcDbArc
 50
0.0
 51
180.0
  0
ARC
  5
26F9F
330
272EA
100
AcDbEntity
  8
SUNPOU
370
     9
100
AcDbCircle
 10
17805.41255853326
 20
5311.140460528124
 30
0.0
 40
5.625
100
AcDbArc
 50
180.0
 51
0.0
  0
ARC
  5
26FA0
330
272EA
100
AcDbEntity
  8
SUNPOU
370
     9
100
AcDbCircle
 10
17805.41255853326
 20
5311.140460528124
 30
0.0
 40
5.625
100
AcDbArc
 50
180.0
 51
0.0
  0
ARC
  5
26FA1
330
272EA
100
AcDbEntity
  8
SUNPOU
370
     9
100
AcDbCircle
 10
17805.41255853326
 20
5311.140460528124
 30
0.0
 40
5.625
100
AcDbArc
 50
0.0
 51
180.0
  0
ARC
  5
26FA2
330
272EA
100
AcDbEntity
  8
SUNPOU
370
     9
100
AcDbCircle
 10
14655.41255853327
 20
5311.140460528124
 30
0.0
 40
5.625
100
AcDbArc
 50
0.0
 51
180.0
  0
ARC
  5
26FA3
330
272EA
100
AcDbEntity
  8
SUNPOU
370
     9
100
AcDbCircle
 10
14655.41255853327
 20
5311.140460528124
 30
0.0
 40
5.625
100
AcDbArc
 50
180.0
 51
0.0
  0
ARC
  5
26FA4
330
272EA
100
AcDbEntity
  8
SUNPOU
370
     9
100
AcDbCircle
 10
14655.41255853327
 20
5311.140460528124
 30
0.0
 40
5.625
100
AcDbArc
 50
180.0
 51
0.0
  0
ARC
  5
26FA5
330
272EA
100
AcDbEntity
  8
SUNPOU
370
     9
100
AcDbCircle
 10
14655.41255853327
 20
5311.140460528124
 30
0.0
 40
5.625
100
AcDbArc
 50
0.0
 51
180.0
  0
ARC
  5
26FA6
330
272EA
100
AcDbEntity
  8
SUNPOU
370
     9
100
AcDbCircle
 10
14280.41255853327
 20
5311.140460528124
 30
0.0
 40
5.625
100
AcDbArc
 50
0.0
 51
180.0
  0
ARC
  5
26FA7
330
272EA
100
AcDbEntity
  8
SUNPOU
370
     9
100
AcDbCircle
 10
14280.41255853327
 20
5311.140460528124
 30
0.0
 40
5.625
100
AcDbArc
 50
180.0
 51
0.0
  0
ARC
  5
26FA8
330
272EA
100
AcDbEntity
  8
SUNPOU
370
     9
100
AcDbCircle
 10
14280.41255853327
 20
5101.140460528124
 30
0.0
 40
5.625
100
AcDbArc
 50
0.0
 51
180.0
  0
ARC
  5
26FA9
330
272EA
100
AcDbEntity
  8
SUNPOU
370
     9
100
AcDbCircle
 10
14280.41255853327
 20
5101.140460528124
 30
0.0
 40
5.625
100
AcDbArc
 50
180.0
 51
0.0
  0
ARC
  5
26FAA
330
272EA
100
AcDbEntity
  8
SUNPOU
370
     9
100
AcDbCircle
 10
23330.41255853325
 20
7486.140460528122
 30
0.0
 40
5.625
100
AcDbArc
 50
270.0
 51
90.0
  0
ARC
  5
26FAB
330
272EA
100
AcDbEntity
  8
SUNPOU
370
     9
100
AcDbCircle
 10
23330.41255853325
 20
7486.140460528122
 30
0.0
 40
5.625
100
AcDbArc
 50
90.0
 51
270.0
  0
ARC
  5
26FAC
330
272EA
100
AcDbEntity
  8
SUNPOU
370
     9
100
AcDbCircle
 10
23330.41255853325
 20
6736.140460528122
 30
0.0
 40
5.625
100
AcDbArc
 50
90.0
 51
270.0
  0
ARC
  5
26FAD
330
272EA
100
AcDbEntity
  8
SUNPOU
370
     9
100
AcDbCircle
 10
23330.41255853325
 20
6736.140460528122
 30
0.0
 40
5.625
100
AcDbArc
 50
270.0
 51
90.0
  0
TEXT
  5
26FAE
330
272EA
100
AcDbEntity
  8
SUNPOU
370
     9
100
AcDbText
 10
16161.30532874412
 20
1718.093043806403
 30
0.0
 40
90.0
  1
950 □
 41
0.6666666666666666
  7
00
100
AcDbText
  0
LINE
  5
26FB0
330
272EA
100
AcDbEntity
  8
SUNPOU
370
     9
100
AcDbLine
 10
17006.55532874411
 20
1673.093043806403
 30
0.0
 11
16995.30532874411
 21
1673.093043806403
 31
0.0
  0
LINE
  5
26FB2
330
272EA
100
AcDbEntity
  8
SUNPOU
370
     9
100
AcDbLine
 10
15604.05532874411
 20
1673.093043806403
 30
0.0
 11
15615.30532874412
 21
1673.093043806403
 31
0.0
  0
TEXT
  5
26FB3
330
272EA
100
AcDbEntity
  8
SUNPOU
370
     9
100
AcDbText
 10
16161.30532874412
 20
1928.093043806402
 30
0.0
 40
90.0
  1
750 □
 41
0.6666666666666666
  7
00
100
AcDbText
  0
LINE
  5
26FB5
330
272EA
100
AcDbEntity
  8
SUNPOU
370
     9
100
AcDbLine
 10
16856.5553287441
 20
1883.093043806402
 30
0.0
 11
16845.3053287441
 21
1883.093043806402
 31
0.0
  0
LINE
  5
26FB7
330
272EA
100
AcDbEntity
  8
SUNPOU
370
     9
100
AcDbLine
 10
15754.05532874411
 20
1883.093043806402
 30
0.0
 11
15765.30532874411
 21
1883.093043806402
 31
0.0
  0
TEXT
  5
26FB8
330
272EA
100
AcDbEntity
  8
SUNPOU
370
     9
100
AcDbText
 10
18410.30532874412
 20
2652.378758092119
 30
0.0
 40
90.0
  1
500
 50
90.0
 41
0.6666666666666666
  7
00
100
AcDbText
  0
LINE
  5
26FBA
330
272EA
100
AcDbEntity
  8
SUNPOU
370
     9
100
AcDbLine
 10
18455.30532874412
 20
2374.343043806405
 30
0.0
 11
18455.30532874412
 21
2385.593043806405
 31
0.0
  0
LINE
  5
26FBC
330
272EA
100
AcDbEntity
  8
SUNPOU
370
     9
100
AcDbLine
 10
18455.30532874412
 20
3101.843043806404
 30
0.0
 11
18455.30532874412
 21
3090.593043806404
 31
0.0
  0
TEXT
  5
26FBD
330
272EA
100
AcDbEntity
  8
SUNPOU
370
     9
100
AcDbText
 10
18410.30532874412
 20
1990.235900949262
 30
0.0
 40
90.0
  1
100
 50
90.0
 41
0.6666666666666666
  7
00
100
AcDbText
  0
LINE
  5
26FBF
330
272EA
100
AcDbEntity
  8
SUNPOU
370
     9
100
AcDbLine
 10
18455.30532874412
 20
2224.343043806404
 30
0.0
 11
18455.30532874412
 21
2235.593043806404
 31
0.0
  0
LINE
  5
26FC1
330
272EA
100
AcDbEntity
  8
SUNPOU
370
     9
100
AcDbLine
 10
18455.30532874412
 20
2351.843043806402
 30
0.0
 11
18455.30532874412
 21
2340.593043806402
 31
0.0
  0
ARC
  5
26FC2
330
272EA
100
AcDbEntity
  8
SUNPOU
370
     9
100
AcDbCircle
 10
18455.30532874412
 20
2363.093043806402
 30
0.0
 40
5.625
100
AcDbArc
 50
270.0
 51
90.0
  0
ARC
  5
26FC3
330
272EA
100
AcDbEntity
  8
SUNPOU
370
     9
100
AcDbCircle
 10
18455.30532874412
 20
2363.093043806402
 30
0.0
 40
5.625
100
AcDbArc
 50
90.0
 51
270.0
  0
ARC
  5
26FC4
330
272EA
100
AcDbEntity
  8
SUNPOU
370
     9
100
AcDbCircle
 10
18455.30532874412
 20
2213.093043806404
 30
0.0
 40
5.625
100
AcDbArc
 50
90.0
 51
270.0
  0
ARC
  5
26FC5
330
272EA
100
AcDbEntity
  8
SUNPOU
370
     9
100
AcDbCircle
 10
18455.30532874412
 20
2213.093043806404
 30
0.0
 40
5.625
100
AcDbArc
 50
270.0
 51
90.0
  0
ARC
  5
26FC6
330
272EA
100
AcDbEntity
  8
SUNPOU
370
     9
100
AcDbCircle
 10
18455.30532874412
 20
3113.093043806405
 30
0.0
 40
5.625
100
AcDbArc
 50
270.0
 51
90.0
  0
ARC
  5
26FC7
330
272EA
100
AcDbEntity
  8
SUNPOU
370
     9
100
AcDbCircle
 10
18455.30532874412
 20
3113.093043806405
 30
0.0
 40
5.625
100
AcDbArc
 50
90.0
 51
270.0
  0
ARC
  5
26FC8
330
272EA
100
AcDbEntity
  8
SUNPOU
370
     9
100
AcDbCircle
 10
18455.30532874412
 20
2363.093043806405
 30
0.0
 40
5.625
100
AcDbArc
 50
90.0
 51
270.0
  0
ARC
  5
26FC9
330
272EA
100
AcDbEntity
  8
SUNPOU
370
     9
100
AcDbCircle
 10
18455.30532874412
 20
2363.093043806405
 30
0.0
 40
5.625
100
AcDbArc
 50
270.0
 51
90.0
  0
ARC
  5
26FCA
330
272EA
100
AcDbEntity
  8
SUNPOU
370
     9
100
AcDbCircle
 10
15742.80532874411
 20
1883.093043806402
 30
0.0
 40
5.625
100
AcDbArc
 50
0.0
 51
180.0
  0
ARC
  5
26FCB
330
272EA
100
AcDbEntity
  8
SUNPOU
370
     9
100
AcDbCircle
 10
15742.80532874411
 20
1883.093043806402
 30
0.0
 40
5.625
100
AcDbArc
 50
180.0
 51
0.0
  0
ARC
  5
26FCC
330
272EA
100
AcDbEntity
  8
SUNPOU
370
     9
100
AcDbCircle
 10
16867.8053287441
 20
1883.093043806402
 30
0.0
 40
5.625
100
AcDbArc
 50
180.0
 51
0.0
  0
ARC
  5
26FCD
330
272EA
100
AcDbEntity
  8
SUNPOU
370
     9
100
AcDbCircle
 10
16867.8053287441
 20
1883.093043806402
 30
0.0
 40
5.625
100
AcDbArc
 50
0.0
 51
180.0
  0
ARC
  5
26FCE
330
272EA
100
AcDbEntity
  8
SUNPOU
370
     9
100
AcDbCircle
 10
15592.80532874411
 20
1673.093043806403
 30
0.0
 40
5.625
100
AcDbArc
 50
0.0
 51
180.0
  0
ARC
  5
26FCF
330
272EA
100
AcDbEntity
  8
SUNPOU
370
     9
100
AcDbCircle
 10
15592.80532874411
 20
1673.093043806403
 30
0.0
 40
5.625
100
AcDbArc
 50
180.0
 51
0.0
  0
ARC
  5
26FD0
330
272EA
100
AcDbEntity
  8
SUNPOU
370
     9
100
AcDbCircle
 10
17017.80532874411
 20
1673.093043806403
 30
0.0
 40
5.625
100
AcDbArc
 50
180.0
 51
0.0
  0
ARC
  5
26FD1
330
272EA
100
AcDbEntity
  8
SUNPOU
370
     9
100
AcDbCircle
 10
17017.80532874411
 20
1673.093043806403
 30
0.0
 40
5.625
100
AcDbArc
 50
0.0
 51
180.0
  0
CIRCLE
  5
26FD2
330
272EA
100
AcDbEntity
  8
HIKIDASHI
370
     9
100
AcDbCircle
 10
16305.30532874412
 20
2453.093043806402
 30
0.0
 40
9.0
  0
CIRCLE
  5
26FD4
330
272EA
100
AcDbEntity
  8
HIKIDASHI
370
     9
100
AcDbCircle
 10
16305.30532874412
 20
2393.093043806402
 30
0.0
 40
9.0
  0
ARC
  5
26FD6
330
272EA
100
AcDbEntity
  8
HIKIDASHI
370
     9
100
AcDbCircle
 10
16305.30532874412
 20
2393.093043806402
 30
0.0
 40
4.5
100
AcDbArc
 50
180.0
 51
0.0
  0
ARC
  5
26FD7
330
272EA
100
AcDbEntity
  8
HIKIDASHI
370
     9
100
AcDbCircle
 10
16305.30532874412
 20
2393.093043806402
 30
0.0
 40
4.5
100
AcDbArc
 50
0.0
 51
180.0
  0
ARC
  5
26FD8
330
272EA
100
AcDbEntity
  8
HIKIDASHI
370
     9
100
AcDbCircle
 10
16305.30532874412
 20
2453.093043806402
 30
0.0
 40
4.5
100
AcDbArc
 50
180.0
 51
0.0
  0
ARC
  5
26FD9
330
272EA
100
AcDbEntity
  8
HIKIDASHI
370
     9
100
AcDbCircle
 10
16305.30532874412
 20
2453.093043806402
 30
0.0
 40
4.5
100
AcDbArc
 50
0.0
 51
180.0
  0
LINE
  5
26FDA
330
272EA
100
AcDbEntity
  8
HATCH
370
     9
100
AcDbLine
 10
15699.5040585549
 20
2213.093043806399
 30
0.0
 11
15786.10659893333
 21
2363.093043806376
 31
0.0
  0
LINE
  5
26FDB
330
272EA
100
AcDbEntity
  8
HATCH
370
     9
100
AcDbLine
 10
15726.10659893334
 20
2363.093043806374
 30
0.0
 11
15756.10659893334
 21
2311.13151957932
 31
0.0
  0
LINE
  5
26FDC
330
272EA
100
AcDbEntity
  8
HATCH
370
     9
100
AcDbLine
 10
15729.5040585549
 20
2265.054568033458
 30
0.0
 11
15759.50405855489
 21
2213.093043806399
 31
0.0
  0
LINE
  5
26FDD
330
272EA
100
AcDbEntity
  8
HATCH
370
     9
100
AcDbLine
 10
15887.0040585549
 20
2213.093043806399
 30
0.0
 11
15973.60659893333
 21
2363.093043806376
 31
0.0
  0
LINE
  5
26FDE
330
272EA
100
AcDbEntity
  8
HATCH
370
     9
100
AcDbLine
 10
15913.60659893334
 20
2363.093043806375
 30
0.0
 11
15943.60659893334
 21
2311.13151957932
 31
0.0
  0
LINE
  5
26FDF
330
272EA
100
AcDbEntity
  8
HATCH
370
     9
100
AcDbLine
 10
15917.00405855489
 20
2265.054568033459
 30
0.0
 11
15947.00405855489
 21
2213.093043806399
 31
0.0
  0
LINE
  5
26FE0
330
272EA
100
AcDbEntity
  8
HATCH
370
     9
100
AcDbLine
 10
16824.5040585549
 20
2213.0930438064
 30
0.0
 11
16911.10659893333
 21
2363.093043806379
 31
0.0
  0
LINE
  5
26FE1
330
272EA
100
AcDbEntity
  8
HATCH
370
     9
100
AcDbLine
 10
16851.10659893334
 20
2363.093043806377
 30
0.0
 11
16881.10659893334
 21
2311.131519579323
 31
0.0
  0
LINE
  5
26FE2
330
272EA
100
AcDbEntity
  8
HATCH
370
     9
100
AcDbLine
 10
16854.5040585549
 20
2265.054568033461
 30
0.0
 11
16884.50405855489
 21
2213.0930438064
 31
0.0
  0
LINE
  5
26FE3
330
272EA
100
AcDbEntity
  8
HATCH
370
     9
100
AcDbLine
 10
16637.0040585549
 20
2213.0930438064
 30
0.0
 11
16723.60659893334
 21
2363.093043806379
 31
0.0
  0
LINE
  5
26FE4
330
272EA
100
AcDbEntity
  8
HATCH
370
     9
100
AcDbLine
 10
16663.60659893334
 20
2363.093043806377
 30
0.0
 11
16693.60659893334
 21
2311.131519579323
 31
0.0
  0
LINE
  5
26FE5
330
272EA
100
AcDbEntity
  8
HATCH
370
     9
100
AcDbLine
 10
16667.0040585549
 20
2265.054568033461
 30
0.0
 11
16697.00405855489
 21
2213.0930438064
 31
0.0
  0
LINE
  5
26FE6
330
272EA
100
AcDbEntity
  8
HATCH
370
     9
100
AcDbLine
 10
16262.0040585549
 20
2213.0930438064
 30
0.0
 11
16348.60659893333
 21
2363.093043806379
 31
0.0
  0
LINE
  5
26FE7
330
272EA
100
AcDbEntity
  8
HATCH
370
     9
100
AcDbLine
 10
16288.60659893334
 20
2363.093043806377
 30
0.0
 11
16318.60659893334
 21
2311.131519579323
 31
0.0
  0
LINE
  5
26FE8
330
272EA
100
AcDbEntity
  8
HATCH
370
     9
100
AcDbLine
 10
16292.0040585549
 20
2265.054568033461
 30
0.0
 11
16322.00405855489
 21
2213.0930438064
 31
0.0
  0
LINE
  5
26FE9
330
272EA
100
AcDbEntity
  8
HATCH
370
     9
100
AcDbLine
 10
16074.5040585549
 20
2213.0930438064
 30
0.0
 11
16161.10659893333
 21
2363.093043806379
 31
0.0
  0
LINE
  5
26FEA
330
272EA
100
AcDbEntity
  8
HATCH
370
     9
100
AcDbLine
 10
16101.10659893334
 20
2363.093043806377
 30
0.0
 11
16131.10659893334
 21
2311.131519579323
 31
0.0
  0
LINE
  5
26FEB
330
272EA
100
AcDbEntity
  8
HATCH
370
     9
100
AcDbLine
 10
16104.50405855489
 20
2265.054568033461
 30
0.0
 11
16134.50405855489
 21
2213.0930438064
 31
0.0
  0
LINE
  5
26FEC
330
272EA
100
AcDbEntity
  8
HATCH
370
     9
100
AcDbLine
 10
16449.5040585549
 20
2213.0930438064
 30
0.0
 11
16536.10659893334
 21
2363.093043806379
 31
0.0
  0
LINE
  5
26FED
330
272EA
100
AcDbEntity
  8
HATCH
370
     9
100
AcDbLine
 10
16476.10659893334
 20
2363.093043806377
 30
0.0
 11
16506.10659893334
 21
2311.131519579323
 31
0.0
  0
LINE
  5
26FEE
330
272EA
100
AcDbEntity
  8
HATCH
370
     9
100
AcDbLine
 10
16479.5040585549
 20
2265.054568033461
 30
0.0
 11
16509.50405855489
 21
2213.0930438064
 31
0.0
  0
LINE
  5
26FEF
330
272EA
100
AcDbEntity
  8
HATCH
370
     9
100
AcDbLine
 10
18203.34380451716
 20
2888.093043806406
 30
0.0
 11
18255.30532874427
 21
2978.093043806479
 31
0.0
  0
LINE
  5
26FF0
330
272EA
100
AcDbEntity
  8
HATCH
370
     9
100
AcDbLine
 10
18219.30532874424
 20
2978.093043806476
 30
0.0
 11
18237.30532874425
 21
2946.916129270216
 31
0.0
  0
LINE
  5
26FF1
330
272EA
100
AcDbEntity
  8
HATCH
370
     9
100
AcDbLine
 10
18221.34380451717
 20
2919.269958342672
 30
0.0
 11
18239.34380451719
 21
2888.093043806406
 31
0.0
  0
LINE
  5
26FF2
330
272EA
100
AcDbEntity
  8
HATCH
370
     9
100
AcDbLine
 10
18068.34380451715
 20
2888.093043806406
 30
0.0
 11
18120.30532874426
 21
2978.093043806479
 31
0.0
  0
LINE
  5
26FF3
330
272EA
100
AcDbEntity
  8
HATCH
370
     9
100
AcDbLine
 10
18084.30532874423
 20
2978.093043806476
 30
0.0
 11
18102.30532874425
 21
2946.916129270216
 31
0.0
  0
LINE
  5
26FF4
330
272EA
100
AcDbEntity
  8
HATCH
370
     9
100
AcDbLine
 10
18086.34380451717
 20
2919.269958342672
 30
0.0
 11
18104.34380451718
 21
2888.093043806406
 31
0.0
  0
LINE
  5
26FF5
330
272EA
100
AcDbEntity
  8
HATCH
370
     9
100
AcDbLine
 10
17933.34380451716
 20
2888.093043806406
 30
0.0
 11
17985.30532874426
 21
2978.093043806479
 31
0.0
  0
LINE
  5
26FF6
330
272EA
100
AcDbEntity
  8
HATCH
370
     9
100
AcDbLine
 10
17949.30532874424
 20
2978.093043806476
 30
0.0
 11
17967.30532874425
 21
2946.916129270216
 31
0.0
  0
LINE
  5
26FF7
330
272EA
100
AcDbEntity
  8
HATCH
370
     9
100
AcDbLine
 10
17951.34380451717
 20
2919.269958342672
 30
0.0
 11
17969.34380451718
 21
2888.093043806406
 31
0.0
  0
LINE
  5
26FF8
330
272EA
100
AcDbEntity
  8
HATCH
370
     9
100
AcDbLine
 10
17798.34380451716
 20
2888.093043806405
 30
0.0
 11
17850.30532874426
 21
2978.093043806476
 31
0.0
  0
LINE
  5
26FF9
330
272EA
100
AcDbEntity
  8
HATCH
370
     9
100
AcDbLine
 10
17814.30532874424
 20
2978.093043806476
 30
0.0
 11
17832.30532874425
 21
2946.916129270213
 31
0.0
  0
LINE
  5
26FFA
330
272EA
100
AcDbEntity
  8
HATCH
370
     9
100
AcDbLine
 10
17816.34380451717
 20
2919.269958342671
 30
0.0
 11
17834.34380451718
 21
2888.093043806405
 31
0.0
  0
LINE
  5
26FFB
330
272EA
100
AcDbEntity
  8
HATCH
370
     9
100
AcDbLine
 10
17528.34380451715
 20
2888.093043806405
 30
0.0
 11
17580.30532874427
 21
2978.093043806476
 31
0.0
  0
LINE
  5
26FFC
330
272EA
100
AcDbEntity
  8
HATCH
370
     9
100
AcDbLine
 10
17544.30532874424
 20
2978.093043806476
 30
0.0
 11
17562.30532874425
 21
2946.916129270213
 31
0.0
  0
LINE
  5
26FFD
330
272EA
100
AcDbEntity
  8
HATCH
370
     9
100
AcDbLine
 10
17546.34380451717
 20
2919.269958342671
 30
0.0
 11
17564.34380451718
 21
2888.093043806405
 31
0.0
  0
LINE
  5
26FFE
330
272EA
100
AcDbEntity
  8
HATCH
370
     9
100
AcDbLine
 10
17258.34380451716
 20
2888.093043806405
 30
0.0
 11
17310.30532874427
 21
2978.093043806476
 31
0.0
  0
LINE
  5
26FFF
330
272EA
100
AcDbEntity
  8
HATCH
370
     9
100
AcDbLine
 10
17274.30532874424
 20
2978.093043806476
 30
0.0
 11
17292.30532874425
 21
2946.916129270213
 31
0.0
  0
LINE
  5
27000
330
272EA
100
AcDbEntity
  8
HATCH
370
     9
100
AcDbLine
 10
17276.34380451717
 20
2919.269958342671
 30
0.0
 11
17294.34380451718
 21
2888.093043806405
 31
0.0
  0
LINE
  5
27001
330
272EA
100
AcDbEntity
  8
HATCH
370
     9
100
AcDbLine
 10
17393.34380451716
 20
2888.093043806406
 30
0.0
 11
17445.30532874426
 21
2978.093043806479
 31
0.0
  0
LINE
  5
27002
330
272EA
100
AcDbEntity
  8
HATCH
370
     9
100
AcDbLine
 10
17409.30532874424
 20
2978.093043806476
 30
0.0
 11
17427.30532874425
 21
2946.916129270216
 31
0.0
  0
LINE
  5
27003
330
272EA
100
AcDbEntity
  8
HATCH
370
     9
100
AcDbLine
 10
17411.34380451717
 20
2919.269958342672
 30
0.0
 11
17429.34380451719
 21
2888.093043806406
 31
0.0
  0
LINE
  5
27004
330
272EA
100
AcDbEntity
  8
HATCH
370
     9
100
AcDbLine
 10
16988.34380451716
 20
2888.093043806405
 30
0.0
 11
17040.30532874426
 21
2978.093043806476
 31
0.0
  0
LINE
  5
27005
330
272EA
100
AcDbEntity
  8
HATCH
370
     9
100
AcDbLine
 10
17004.30532874424
 20
2978.093043806476
 30
0.0
 11
17022.30532874425
 21
2946.916129270213
 31
0.0
  0
LINE
  5
27006
330
272EA
100
AcDbEntity
  8
HATCH
370
     9
100
AcDbLine
 10
17006.34380451717
 20
2919.269958342671
 30
0.0
 11
17024.34380451719
 21
2888.093043806405
 31
0.0
  0
LINE
  5
27007
330
272EA
100
AcDbEntity
  8
HATCH
370
     9
100
AcDbLine
 10
16867.80532874422
 20
2888.093043806405
 30
0.0
 11
16919.76685297133
 21
2978.093043806476
 31
0.0
  0
LINE
  5
27008
330
272EA
100
AcDbEntity
  8
HATCH
370
     9
100
AcDbLine
 10
16883.7668529713
 20
2978.093043806476
 30
0.0
 11
16901.76685297132
 21
2946.916129270213
 31
0.0
  0
LINE
  5
27009
330
272EA
100
AcDbEntity
  8
HATCH
370
     9
100
AcDbLine
 10
16885.80532874424
 20
2919.269958342671
 30
0.0
 11
16903.80532874425
 21
2888.093043806405
 31
0.0
  0
LINE
  5
2700A
330
272EA
100
AcDbEntity
  8
HATCH
370
     9
100
AcDbLine
 10
17123.34380451715
 20
2888.093043806405
 30
0.0
 11
17175.30532874427
 21
2978.093043806476
 31
0.0
  0
LINE
  5
2700B
330
272EA
100
AcDbEntity
  8
HATCH
370
     9
100
AcDbLine
 10
17139.30532874424
 20
2978.093043806476
 30
0.0
 11
17157.30532874425
 21
2946.916129270213
 31
0.0
  0
LINE
  5
2700C
330
272EA
100
AcDbEntity
  8
HATCH
370
     9
100
AcDbLine
 10
17141.34380451717
 20
2919.269958342671
 30
0.0
 11
17159.34380451718
 21
2888.093043806405
 31
0.0
  0
LINE
  5
2700D
330
272EA
100
AcDbEntity
  8
HATCH
370
     9
100
AcDbLine
 10
15675.30532874422
 20
2888.093043806401
 30
0.0
 11
15727.26685297133
 21
2978.093043806473
 31
0.0
  0
LINE
  5
2700E
330
272EA
100
AcDbEntity
  8
HATCH
370
     9
100
AcDbLine
 10
15691.2668529713
 20
2978.093043806472
 30
0.0
 11
15709.26685297131
 21
2946.916129270211
 31
0.0
  0
LINE
  5
2700F
330
272EA
100
AcDbEntity
  8
HATCH
370
     9
100
AcDbLine
 10
15693.30532874423
 20
2919.269958342666
 30
0.0
 11
15711.30532874425
 21
2888.093043806401
 31
0.0
  0
LINE
  5
27010
330
272EA
100
AcDbEntity
  8
HATCH
370
     9
100
AcDbLine
 10
17663.34380451715
 20
2888.093043806406
 30
0.0
 11
17715.30532874427
 21
2978.093043806479
 31
0.0
  0
LINE
  5
27011
330
272EA
100
AcDbEntity
  8
HATCH
370
     9
100
AcDbLine
 10
17679.30532874424
 20
2978.093043806476
 30
0.0
 11
17697.30532874425
 21
2946.916129270216
 31
0.0
  0
LINE
  5
27012
330
272EA
100
AcDbEntity
  8
HATCH
370
     9
100
AcDbLine
 10
17681.34380451717
 20
2919.269958342672
 30
0.0
 11
17699.34380451718
 21
2888.093043806406
 31
0.0
  0
LINE
  5
27013
330
272EA
100
AcDbEntity
  8
HATCH
370
     9
100
AcDbLine
 10
15540.30532874422
 20
2888.093043806401
 30
0.0
 11
15592.26685297133
 21
2978.093043806473
 31
0.0
  0
LINE
  5
27014
330
272EA
100
AcDbEntity
  8
HATCH
370
     9
100
AcDbLine
 10
15556.2668529713
 20
2978.093043806472
 30
0.0
 11
15574.26685297131
 21
2946.916129270211
 31
0.0
  0
LINE
  5
27015
330
272EA
100
AcDbEntity
  8
HATCH
370
     9
100
AcDbLine
 10
15558.30532874423
 20
2919.269958342666
 30
0.0
 11
15576.30532874425
 21
2888.093043806401
 31
0.0
  0
LINE
  5
27016
330
272EA
100
AcDbEntity
  8
HATCH
370
     9
100
AcDbLine
 10
15405.30532874422
 20
2888.093043806401
 30
0.0
 11
15457.26685297133
 21
2978.093043806473
 31
0.0
  0
LINE
  5
27017
330
272EA
100
AcDbEntity
  8
HATCH
370
     9
100
AcDbLine
 10
15421.2668529713
 20
2978.093043806472
 30
0.0
 11
15439.26685297131
 21
2946.916129270211
 31
0.0
  0
LINE
  5
27018
330
272EA
100
AcDbEntity
  8
HATCH
370
     9
100
AcDbLine
 10
15423.30532874423
 20
2919.269958342666
 30
0.0
 11
15441.30532874425
 21
2888.093043806401
 31
0.0
  0
LINE
  5
27019
330
272EA
100
AcDbEntity
  8
HASHIRA
  6
Continuous
370
     9
100
AcDbLine
 10
22687.91255853325
 20
7073.640460528124
 30
0.0
 11
22622.91255853325
 21
7073.640460528124
 31
0.0
  0
LINE
  5
2701A
330
272EA
100
AcDbEntity
  8
HASHIRA
  6
Continuous
370
     9
100
AcDbLine
 10
22622.91255853325
 20
7073.640460528124
 30
0.0
 11
22622.91255853325
 21
7148.640460528124
 31
0.0
  0
LINE
  5
2701B
330
272EA
100
AcDbEntity
  8
HASHIRA
  6
Continuous
370
     9
100
AcDbLine
 10
22622.91255853325
 20
7148.640460528124
 30
0.0
 11
22687.91255853325
 21
7148.640460528124
 31
0.0
  0
LINE
  5
2701C
330
272EA
100
AcDbEntity
  8
HASHIRA
  6
Continuous
370
     9
100
AcDbLine
 10
22687.91255853325
 20
7148.640460528124
 30
0.0
 11
22687.91255853325
 21
7073.640460528124
 31
0.0
  0
LINE
  5
2701D
330
272EA
100
AcDbEntity
  8
U2
370
     9
100
AcDbLine
 10
22280.41255853325
 20
6736.140460528122
 30
0.0
 11
23030.41255853325
 21
6736.140460528122
 31
0.0
  0
LINE
  5
2701E
330
272EA
100
AcDbEntity
  8
U2
370
     9
100
AcDbLine
 10
23030.41255853325
 20
6736.140460528122
 30
0.0
 11
23030.41255853325
 21
7486.140460528122
 31
0.0
  0
LINE
  5
2701F
330
272EA
100
AcDbEntity
  8
U2
370
     9
100
AcDbLine
 10
23030.41255853325
 20
7486.140460528122
 30
0.0
 11
22280.41255853325
 21
7486.140460528122
 31
0.0
  0
LINE
  5
27020
330
272EA
100
AcDbEntity
  8
U2
370
     9
100
AcDbLine
 10
22280.41255853325
 20
7486.140460528125
 30
0.0
 11
22280.41255853325
 21
6736.140460528122
 31
0.0
  0
LINE
  5
27021
330
272EA
100
AcDbEntity
  8
HASHIRA
  6
Continuous
370
     9
100
AcDbLine
 10
19537.91255853326
 20
7073.640460528124
 30
0.0
 11
19472.91255853326
 21
7073.640460528124
 31
0.0
  0
LINE
  5
27022
330
272EA
100
AcDbEntity
  8
HASHIRA
  6
Continuous
370
     9
100
AcDbLine
 10
19472.91255853326
 20
7073.640460528124
 30
0.0
 11
19472.91255853326
 21
7148.640460528124
 31
0.0
  0
LINE
  5
27023
330
272EA
100
AcDbEntity
  8
HASHIRA
  6
Continuous
370
     9
100
AcDbLine
 10
19472.91255853326
 20
7148.640460528124
 30
0.0
 11
19537.91255853326
 21
7148.640460528124
 31
0.0
  0
LINE
  5
27024
330
272EA
100
AcDbEntity
  8
HASHIRA
  6
Continuous
370
     9
100
AcDbLine
 10
19537.91255853326
 20
7148.640460528124
 30
0.0
 11
19537.91255853326
 21
7073.640460528124
 31
0.0
  0
LINE
  5
27029
330
272EA
100
AcDbEntity
  8
HASHIRA
  6
Continuous
370
     9
100
AcDbLine
 10
17837.91255853326
 20
7073.640460528124
 30
0.0
 11
17772.91255853326
 21
7073.640460528124
 31
0.0
  0
LINE
  5
2702A
330
272EA
100
AcDbEntity
  8
HASHIRA
  6
Continuous
370
     9
100
AcDbLine
 10
17772.91255853326
 20
7073.640460528124
 30
0.0
 11
17772.91255853326
 21
7148.640460528124
 31
0.0
  0
LINE
  5
2702B
330
272EA
100
AcDbEntity
  8
HASHIRA
  6
Continuous
370
     9
100
AcDbLine
 10
17772.91255853326
 20
7148.640460528124
 30
0.0
 11
17837.91255853326
 21
7148.640460528124
 31
0.0
  0
LINE
  5
2702C
330
272EA
100
AcDbEntity
  8
HASHIRA
  6
Continuous
370
     9
100
AcDbLine
 10
17837.91255853326
 20
7148.640460528124
 30
0.0
 11
17837.91255853326
 21
7073.640460528124
 31
0.0
  0
LINE
  5
27031
330
272EA
100
AcDbEntity
  8
HASHIRA
  6
Continuous
370
     9
100
AcDbLine
 10
14687.91255853328
 20
7073.640460528124
 30
0.0
 11
14622.91255853327
 21
7073.640460528124
 31
0.0
  0
LINE
  5
27032
330
272EA
100
AcDbEntity
  8
HASHIRA
  6
Continuous
370
     9
100
AcDbLine
 10
14622.91255853327
 20
7073.640460528124
 30
0.0
 11
14622.91255853327
 21
7148.640460528124
 31
0.0
  0
LINE
  5
27033
330
272EA
100
AcDbEntity
  8
HASHIRA
  6
Continuous
370
     9
100
AcDbLine
 10
14622.91255853327
 20
7148.640460528124
 30
0.0
 11
14687.91255853328
 21
7148.640460528124
 31
0.0
  0
LINE
  5
27034
330
272EA
100
AcDbEntity
  8
HASHIRA
  6
Continuous
370
     9
100
AcDbLine
 10
14687.91255853328
 20
7148.640460528124
 30
0.0
 11
14687.91255853328
 21
7073.640460528124
 31
0.0
  0
LINE
  5
277B2
330
272EA
100
AcDbEntity
  8
waku
  6
Continuous
370
     9
100
AcDbLine
 10
24085.20524509222
 20
570.0177449468683
 30
0.0
 11
24090.37802407204
 21
575.1908858072567
 31
0.0
  0
LINE
  5
277B3
330
272EA
100
AcDbEntity
  8
waku
  6
Continuous
370
     9
100
AcDbLine
 10
24191.21024666529
 20
676.0178193744159
 30
0.0
 11
24197.93387947703
 21
682.7449039717757
 31
0.0
  0
LINE
  5
277B4
330
272EA
100
AcDbEntity
  8
waku
  6
Continuous
370
     9
100
AcDbLine
 10
24116.19559823518
 20
601.0089610362829
 30
0.0
 11
24118.92495845456
 21
603.7360942971973
 31
0.0
  0
LINE
  5
277B5
330
272EA
100
AcDbEntity
  8
waku
  6
Continuous
370
     9
100
AcDbLine
 10
24136.201701749
 20
621.0092744580523
 30
0.0
 11
24137.93249382009
 21
622.7449658377245
 31
0.0
  0
LINE
  5
277B6
330
272EA
100
AcDbEntity
  8
waku
  6
Continuous
370
     9
100
AcDbLine
 10
24122.20660435793
 20
607.0177402005684
 30
0.0
 11
24128.92222011962
 21
613.7364737039262
 31
0.0
  0
LINE
  5
277B7
330
272EA
100
AcDbEntity
  8
waku
  6
Continuous
370
     9
100
AcDbLine
 10
24109.76859628281
 20
601.0089610362829
 30
0.0
 11
24112.49528415198
 21
603.7360942971973
 31
0.0
  0
LINE
  5
277B8
330
272EA
100
AcDbEntity
  8
waku
  6
Continuous
370
     9
100
AcDbLine
 10
24191.21024666529
 20
682.4457121102621
 30
0.0
 11
24197.93387947703
 21
689.1728523815762
 31
0.0
  0
LINE
  5
277B9
330
272EA
100
AcDbEntity
  8
waku
  6
Continuous
370
     9
100
AcDbLine
 10
24122.20660435793
 20
613.4456329364147
 30
0.0
 11
24122.49789051717
 21
613.7364737039262
 31
0.0
  0
LINE
  5
277BA
330
272EA
100
AcDbEntity
  8
waku
  6
Continuous
370
     9
100
AcDbLine
 10
24159.77004792472
 20
651.0095218948626
 30
0.0
 11
24163.93446013931
 21
655.1730433260545
 31
0.0
  0
LINE
  5
277BB
330
272EA
100
AcDbEntity
  8
waku
  6
Continuous
370
     9
100
AcDbLine
 10
24131.20618865808
 20
622.4465534116788
 30
0.0
 11
24137.93249382009
 21
629.173749356947
 31
0.0
  0
LINE
  5
277BC
330
272EA
100
AcDbEntity
  8
waku
  6
Continuous
370
     9
100
AcDbLine
 10
24069.48380954697
 20
567.1484482288868
 30
0.0
 11
24087.93193296157
 21
585.6015266258745
 31
0.0
  0
LINE
  5
277BD
330
272EA
100
AcDbEntity
  8
waku
  6
Continuous
370
     9
100
AcDbLine
 10
24191.21024666529
 20
688.8740502377968
 30
0.0
 11
24196.06679755164
 21
693.7368366076551
 31
0.0
  0
LINE
  5
277BE
330
272EA
100
AcDbEntity
  8
waku
  6
Continuous
370
     9
100
AcDbLine
 10
24103.34426668042
 20
601.0089610362829
 30
0.0
 11
24106.06828219961
 21
603.7360942971973
 31
0.0
  0
LINE
  5
277BF
330
272EA
100
AcDbEntity
  8
waku
  6
Continuous
370
     9
100
AcDbLine
 10
24155.21101868112
 20
652.8743768619606
 30
0.0
 11
24163.93446013931
 21
661.6013814535618
 31
0.0
  0
LINE
  5
277C0
330
272EA
100
AcDbEntity
  8
waku
  6
Continuous
370
     9
100
AcDbLine
 10
24131.20618865808
 20
628.8739450818829
 30
0.0
 11
24137.93249382009
 21
635.6011967011053
 31
0.0
  0
LINE
  5
277C1
330
272EA
100
AcDbEntity
  8
waku
  6
Continuous
370
     9
100
AcDbLine
 10
24055.20544304722
 20
559.3024840556571
 30
0.0
 11
24087.93193296157
 21
592.029419361721
 31
0.0
  0
LINE
  5
277C2
330
272EA
100
AcDbEntity
  8
waku
  6
Continuous
370
     9
100
AcDbLine
 10
24155.21101868112
 20
659.3023252717612
 30
0.0
 11
24163.93446013931
 21
668.0297195810963
 31
0.0
  0
LINE
  5
277C3
330
272EA
100
AcDbEntity
  8
waku
  6
Continuous
370
     9
100
AcDbLine
 10
24096.91726472793
 20
601.0089610362829
 30
0.0
 11
24099.64128024701
 21
603.7360942971973
 31
0.0
  0
LINE
  5
277C4
330
272EA
100
AcDbEntity
  8
waku
  6
Continuous
370
     9
100
AcDbLine
 10
24131.20618865808
 20
635.3027842750325
 30
0.0
 11
24137.63942609431
 21
641.7364671027152
 31
0.0
  0
LINE
  5
277C5
330
272EA
100
AcDbEntity
  8
waku
  6
Continuous
370
     9
100
AcDbLine
 10
24055.20544304722
 20
565.7308221831645
 30
0.0
 11
24083.21523506299
 21
593.7361602821566
 31
0.0
  0
LINE
  5
277C6
330
272EA
100
AcDbEntity
  8
waku
  6
Continuous
370
     9
100
AcDbLine
 10
24155.21101868112
 20
665.730941769094
 30
0.0
 11
24163.93446013931
 21
674.4580577086308
 31
0.0
  0
LINE
  5
277C7
330
272EA
100
AcDbEntity
  8
waku
  6
Continuous
370
     9
100
AcDbLine
 10
24090.48491807521
 20
601.0089610362829
 30
0.0
 11
24093.21071516117
 21
603.7360942971973
 31
0.0
  0
LINE
  5
277C8
330
272EA
100
AcDbEntity
  8
waku
  6
Continuous
370
     9
100
AcDbLine
 10
24126.48592762626
 20
637.0090798038072
 30
0.0
 11
24131.2124241417
 21
641.7364671027152
 31
0.0
  0
LINE
  5
277C9
330
272EA
100
AcDbEntity
  8
waku
  6
Continuous
370
     9
100
AcDbLine
 10
24055.20544304722
 20
572.1586870820337
 30
0.0
 11
24076.79001467716
 21
593.7361602821566
 31
0.0
  0
LINE
  5
277CA
330
272EA
100
AcDbEntity
  8
waku
  6
Continuous
370
     9
100
AcDbLine
 10
24155.21101868112
 20
672.1588901788947
 30
0.0
 11
24163.93446013931
 21
680.8859504444772
 31
0.0
  0
LINE
  5
277CB
330
272EA
100
AcDbEntity
  8
waku
  6
Continuous
370
     9
100
AcDbLine
 10
24084.05702533945
 20
601.0089610362829
 30
0.0
 11
24086.78193164186
 21
603.7360942971973
 31
0.0
  0
LINE
  5
277CC
330
272EA
100
AcDbEntity
  8
waku
  6
Continuous
370
     9
100
AcDbLine
 10
24120.05625332362
 20
637.0090798038072
 30
0.0
 11
24124.78185905586
 21
641.7364671027152
 31
0.0
  0
LINE
  5
277CD
330
272EA
100
AcDbEntity
  8
waku
  6
Continuous
370
     9
100
AcDbLine
 10
24077.62824182026
 20
601.0089610362829
 30
0.0
 11
24080.35492968938
 21
603.7360942971973
 31
0.0
  0
LINE
  5
277CE
330
272EA
100
AcDbEntity
  8
waku
  6
Continuous
370
     9
100
AcDbLine
 10
24155.21101868112
 20
678.5872283064291
 30
0.0
 11
24163.93446013931
 21
687.3142885719844
 31
0.0
  0
LINE
  5
277CF
330
272EA
100
AcDbEntity
  8
waku
  6
Continuous
370
     9
100
AcDbLine
 10
24097.62543750014
 20
621.0092744580523
 30
0.0
 11
24100.93291612109
 21
624.3145261205118
 31
0.0
  0
LINE
  5
277D0
330
272EA
100
AcDbEntity
  8
waku
  6
Continuous
370
     9
100
AcDbLine
 10
24135.6271464809
 20
659.0092575458639
 30
0.0
 11
24137.93249382009
 21
661.3145492112161
 31
0.0
  0
LINE
  5
277D1
330
272EA
100
AcDbEntity
  8
waku
  6
Continuous
370
     9
100
AcDbLine
 10
24113.62657902093
 20
637.0090798038072
 30
0.0
 11
24118.35485710332
 21
641.7364671027152
 31
0.0
  0
LINE
  5
277D2
330
272EA
100
AcDbEntity
  8
waku
  6
Continuous
370
     9
100
AcDbLine
 10
24071.20034908428
 20
601.0089610362829
 30
0.0
 11
24073.92436460359
 21
603.7360942971973
 31
0.0
  0
LINE
  5
277D3
330
272EA
100
AcDbEntity
  8
waku
  6
Continuous
370
     9
100
AcDbLine
 10
24155.21101868112
 20
685.0151767162295
 30
0.0
 11
24163.92555230577
 21
693.7368366076551
 31
0.0
  0
LINE
  5
277D4
330
272EA
100
AcDbEntity
  8
waku
  6
Continuous
370
     9
100
AcDbLine
 10
24092.20502074622
 20
622.0154142647571
 30
0.0
 11
24100.93291612109
 21
630.742418856358
 31
0.0
  0
LINE
  5
277D5
330
272EA
100
AcDbEntity
  8
waku
  6
Continuous
370
     9
100
AcDbLine
 10
24129.19836296159
 20
659.0092575458639
 30
0.0
 11
24133.92575026059
 21
663.7361437791569
 31
0.0
  0
LINE
  5
277D6
330
272EA
100
AcDbEntity
  8
waku
  6
Continuous
370
     9
100
AcDbLine
 10
24107.20046785183
 20
637.0090798038072
 30
0.0
 11
24111.92785515083
 21
641.7364671027152
 31
0.0
  0
LINE
  5
277D7
330
272EA
100
AcDbEntity
  8
waku
  6
Continuous
370
     9
100
AcDbLine
 10
24064.77067478176
 20
601.0089610362829
 30
0.0
 11
24067.49736265105
 21
603.7360942971973
 31
0.0
  0
LINE
  5
277D8
330
272EA
100
AcDbEntity
  8
waku
  6
Continuous
370
     9
100
AcDbLine
 10
24155.21101868112
 20
691.4435148437369
 30
0.0
 11
24157.49855035317
 21
693.7368366076551
 31
0.0
  0
LINE
  5
277D9
330
272EA
100
AcDbEntity
  8
waku
  6
Continuous
370
     9
100
AcDbLine
 10
24092.20502074622
 20
628.4437523922642
 30
0.0
 11
24105.50174398161
 21
641.7364671027152
 31
0.0
  0
LINE
  5
277DA
330
272EA
100
AcDbEntity
  8
waku
  6
Continuous
370
     9
100
AcDbLine
 10
24122.7713610091
 20
659.0092575458639
 30
0.0
 11
24127.49874830799
 21
663.7361437791569
 31
0.0
  0
LINE
  5
277DB
330
272EA
100
AcDbEntity
  8
waku
  6
Continuous
370
     9
100
AcDbLine
 10
24058.34189126256
 20
601.0089610362829
 30
0.0
 11
24061.07036069868
 21
603.7360942971973
 31
0.0
  0
LINE
  5
277DC
330
272EA
100
AcDbEntity
  8
waku
  6
Continuous
370
     9
100
AcDbLine
 10
24116.34346827324
 20
659.0092575458639
 30
0.0
 11
24121.06996478874
 21
663.7361437791569
 31
0.0
  0
LINE
  5
277DD
330
272EA
100
AcDbEntity
  8
waku
  6
Continuous
370
     9
100
AcDbLine
 10
24092.20502074622
 20
634.8716451281107
 30
0.0
 11
24100.93291612109
 21
643.5990951113998
 31
0.0
  0
LINE
  5
277DE
330
272EA
100
AcDbEntity
  8
waku
  6
Continuous
370
     9
100
AcDbLine
 10
24087.91500807752
 20
637.0090798038072
 30
0.0
 11
24100.93291612109
 21
650.0274332389343
 31
0.0
  0
LINE
  5
277DF
330
272EA
100
AcDbEntity
  8
waku
  6
Continuous
370
     9
100
AcDbLine
 10
24131.9214876974
 20
681.0088785483238
 30
0.0
 11
24136.64085794601
 21
685.7362658472592
 31
0.0
  0
LINE
  5
277E0
330
272EA
100
AcDbEntity
  8
waku
  6
Continuous
370
     9
100
AcDbLine
 10
24109.91379397066
 20
659.0092575458639
 30
0.0
 11
24114.64207205293
 21
663.7361437791569
 31
0.0
  0
LINE
  5
277E1
330
272EA
100
AcDbEntity
  8
waku
  6
Continuous
370
     9
100
AcDbLine
 10
23995.48554493237
 20
551.0088455693638
 30
0.0
 11
23998.84023507126
 21
554.3648718834227
 31
0.0
  0
LINE
  5
277E2
330
272EA
100
AcDbEntity
  8
waku
  6
Continuous
370
     9
100
AcDbLine
 10
24125.48646869458
 20
681.0088785483238
 30
0.0
 11
24130.2138559937
 21
685.7362658472592
 31
0.0
  0
LINE
  5
277E3
330
272EA
100
AcDbEntity
  8
waku
  6
Continuous
370
     9
100
AcDbLine
 10
24081.48622455844
 20
637.0090798038072
 30
0.0
 11
24086.21450264065
 21
641.7364671027152
 31
0.0
  0
LINE
  5
277E4
330
272EA
100
AcDbEntity
  8
waku
  6
Continuous
370
     9
100
AcDbLine
 10
24103.48411966814
 20
659.0092575458639
 30
0.0
 11
24108.21328853391
 21
663.7361437791569
 31
0.0
  0
LINE
  5
277E5
330
272EA
100
AcDbEntity
  8
waku
  6
Continuous
370
     9
100
AcDbLine
 10
24092.20502074622
 20
647.7282657091982
 30
0.0
 11
24100.93291612109
 21
656.4553259747809
 31
0.0
  0
LINE
  5
277E6
330
272EA
100
AcDbEntity
  8
waku
  6
Continuous
370
     9
100
AcDbLine
 10
23989.0576521965
 20
551.0088455693638
 30
0.0
 11
23998.84023507126
 21
560.7927089453149
 31
0.0
  0
LINE
  5
277E7
330
272EA
100
AcDbEntity
  8
waku
  6
Continuous
370
     9
100
AcDbLine
 10
24119.05857595883
 20
681.0088785483238
 30
0.0
 11
24123.78418169107
 21
685.7362658472592
 31
0.0
  0
LINE
  5
277E8
330
272EA
100
AcDbEntity
  8
waku
  6
Continuous
370
     9
100
AcDbLine
 10
24059.05719030189
 20
621.0092744580523
 30
0.0
 11
24061.93263899244
 21
623.883832365278
 31
0.0
  0
LINE
  5
277E9
330
272EA
100
AcDbEntity
  8
waku
  6
Continuous
370
     9
100
AcDbLine
 10
24092.20502074622
 20
654.1566595106868
 30
0.0
 11
24101.78628658119
 21
663.7361437791569
 31
0.0
  0
LINE
  5
277EA
330
272EA
100
AcDbEntity
  8
waku
  6
Continuous
370
     9
100
AcDbLine
 10
24075.0565502558
 20
637.0090798038072
 30
0.0
 11
24079.78660990484
 21
641.7364671027152
 31
0.0
  0
LINE
  5
277EB
330
272EA
100
AcDbEntity
  8
waku
  6
Continuous
370
     9
100
AcDbLine
 10
23988.11520340009
 20
556.4938441171543
 30
0.0
 11
23998.84023507126
 21
567.2210749098267
 31
0.0
  0
LINE
  5
277EC
330
272EA
100
AcDbEntity
  8
waku
  6
Continuous
370
     9
100
AcDbLine
 10
24112.63157400628
 20
681.0088785483238
 30
0.0
 11
24117.35717973847
 21
685.7362658472592
 31
0.0
  0
LINE
  5
277ED
330
272EA
100
AcDbEntity
  8
waku
  6
Continuous
370
     9
100
AcDbLine
 10
24055.20544304722
 20
623.584974547517
 30
0.0
 11
24061.93263899244
 21
630.3123931886566
 31
0.0
  0
LINE
  5
277EE
330
272EA
100
AcDbEntity
  8
waku
  6
Continuous
370
     9
100
AcDbLine
 10
24090.6336788967
 20
659.0092575458639
 30
0.0
 11
24100.93291612109
 21
669.3118908819142
 31
0.0
  0
LINE
  5
277EF
330
272EA
100
AcDbEntity
  8
waku
  6
Continuous
370
     9
100
AcDbLine
 10
24068.62954830343
 20
637.0090798038072
 30
0.0
 11
24073.35693560226
 21
641.7364671027152
 31
0.0
  0
LINE
  5
277F0
330
272EA
100
AcDbEntity
  8
waku
  6
Continuous
370
     9
100
AcDbLine
 10
23988.11520340009
 20
562.922627636377
 30
0.0
 11
23998.84023507126
 21
573.6494130373339
 31
0.0
  0
LINE
  5
277F1
330
272EA
100
AcDbEntity
  8
waku
  6
Continuous
370
     9
100
AcDbLine
 10
24106.2010089205
 20
681.0088785483238
 30
0.0
 11
24110.92750543601
 21
685.7362658472592
 31
0.0
  0
LINE
  5
277F2
330
272EA
100
AcDbEntity
  8
waku
  6
Continuous
370
     9
100
AcDbLine
 10
24055.20544304722
 20
630.0128672833633
 30
0.0
 11
24061.93263899244
 21
636.7405086203197
 31
0.0
  0
LINE
  5
277F3
330
272EA
100
AcDbEntity
  8
waku
  6
Continuous
370
     9
100
AcDbLine
 10
24092.20502074622
 20
667.0128903740677
 30
0.0
 11
24100.93291612109
 21
675.7402846833756
 31
0.0
  0
LINE
  5
277F4
330
272EA
100
AcDbEntity
  8
waku
  6
Continuous
370
     9
100
AcDbLine
 10
24062.20254635089
 20
637.0090798038072
 30
0.0
 11
24066.93349678337
 21
641.7364671027152
 31
0.0
  0
LINE
  5
277F5
330
272EA
100
AcDbEntity
  8
waku
  6
Continuous
370
     9
100
AcDbLine
 10
24084.20667694404
 20
659.0092575458639
 30
0.0
 11
24088.92961032636
 21
663.7361437791569
 31
0.0
  0
LINE
  5
277F6
330
272EA
100
AcDbEntity
  8
waku
  6
Continuous
370
     9
100
AcDbLine
 10
23988.11520340009
 20
569.3505203722232
 30
0.0
 11
23998.84023507126
 21
580.0778068388226
 31
0.0
  0
LINE
  5
277F7
330
272EA
100
AcDbEntity
  8
waku
  6
Continuous
370
     9
100
AcDbLine
 10
24092.20502074622
 20
673.4412285015751
 30
0.0
 11
24104.50317583356
 21
685.7362658472592
 31
0.0
  0
LINE
  5
277F8
330
272EA
100
AcDbEntity
  8
waku
  6
Continuous
370
     9
100
AcDbLine
 10
24055.20544304722
 20
636.441205410898
 30
0.0
 11
24060.50025934738
 21
641.7364671027152
 31
0.0
  0
LINE
  5
277F9
330
272EA
100
AcDbEntity
  8
waku
  6
Continuous
370
     9
100
AcDbLine
 10
24077.77433029143
 20
659.0092575458639
 30
0.0
 11
24082.49904524029
 21
663.7361437791569
 31
0.0
  0
LINE
  5
277FA
330
272EA
100
AcDbEntity
  8
waku
  6
Continuous
370
     9
100
AcDbLine
 10
23988.11520340009
 20
575.7788584997306
 30
0.0
 11
23998.84023507126
 21
586.5056160637103
 31
0.0
  0
LINE
  5
277FB
330
272EA
100
AcDbEntity
  8
waku
  6
Continuous
370
     9
100
AcDbLine
 10
24092.20502074622
 20
679.8695666291096
 30
0.0
 11
24100.93291612109
 21
688.5965712207108
 31
0.0
  0
LINE
  5
277FC
330
272EA
100
AcDbEntity
  8
waku
  6
Continuous
370
     9
100
AcDbLine
 10
24071.34287442232
 20
659.0092575458639
 30
0.0
 11
24076.07115250442
 21
663.7361437791569
 31
0.0
  0
LINE
  5
277FD
330
272EA
100
AcDbEntity
  8
waku
  6
Continuous
370
     9
100
AcDbLine
 10
23988.11520340009
 20
582.2067790725541
 30
0.0
 11
23998.84023507126
 21
592.9339541912448
 31
0.0
  0
LINE
  5
277FE
330
272EA
100
AcDbEntity
  8
waku
  6
Continuous
370
     9
100
AcDbLine
 10
24092.20502074622
 20
686.2979047566441
 30
0.0
 11
24099.64484338055
 21
693.7368366076551
 31
0.0
  0
LINE
  5
277FF
330
272EA
100
AcDbEntity
  8
waku
  6
Continuous
370
     9
100
AcDbLine
 10
24064.91676325299
 20
659.0092575458639
 30
0.0
 11
24069.64236898522
 21
663.7361437791569
 31
0.0
  0
LINE
  5
27800
330
272EA
100
AcDbEntity
  8
waku
  6
Continuous
370
     9
100
AcDbLine
 10
24086.91554914613
 20
681.0088785483238
 30
0.0
 11
24091.64917192864
 21
685.7362658472592
 31
0.0
  0
LINE
  5
27801
330
272EA
100
AcDbEntity
  8
waku
  6
Continuous
370
     9
100
AcDbLine
 10
23988.11520340009
 20
588.6350893631115
 30
0.0
 11
23998.84023507126
 21
599.3623479927338
 31
0.0
  0
LINE
  5
27802
330
272EA
100
AcDbEntity
  8
waku
  6
Continuous
370
     9
100
AcDbLine
 10
24092.20502074622
 20
692.7262428841514
 30
0.0
 11
24093.21516907809
 21
693.7368366076551
 31
0.0
  0
LINE
  5
27803
330
272EA
100
AcDbEntity
  8
waku
  6
Continuous
370
     9
100
AcDbLine
 10
24058.48887051723
 20
659.0092575458639
 30
0.0
 11
24063.21536703285
 21
663.7361437791569
 31
0.0
  0
LINE
  5
27804
330
272EA
100
AcDbEntity
  8
waku
  6
Continuous
370
     9
100
AcDbLine
 10
24080.48854719365
 20
681.0088785483238
 30
0.0
 11
24085.21593449265
 21
685.7362658472592
 31
0.0
  0
LINE
  5
27805
330
272EA
100
AcDbEntity
  8
waku
  6
Continuous
370
     9
100
AcDbLine
 10
23988.11520340009
 20
595.0634274906187
 30
0.0
 11
23998.84023507126
 21
605.7906861202682
 31
0.0
  0
LINE
  5
27806
330
272EA
100
AcDbEntity
  8
waku
  6
Continuous
370
     9
100
AcDbLine
 10
24074.06154524116
 20
681.0088785483238
 30
0.0
 11
24078.78893254005
 21
685.7362658472592
 31
0.0
  0
LINE
  5
27807
330
272EA
100
AcDbEntity
  8
waku
  6
Continuous
370
     9
100
AcDbLine
 10
24055.20544304722
 20
662.1543352251647
 30
0.0
 11
24056.78747429687
 21
663.7361437791569
 31
0.0
  0
LINE
  5
27808
330
272EA
100
AcDbEntity
  8
waku
  6
Continuous
370
     9
100
AcDbLine
 10
23988.11520340009
 20
601.4917656181531
 30
0.0
 11
23998.84023507126
 21
612.2190242477755
 31
0.0
  0
LINE
  5
27809
330
272EA
100
AcDbEntity
  8
waku
  6
Continuous
370
     9
100
AcDbLine
 10
24067.6309801552
 20
681.0088785483238
 30
0.0
 11
24072.35747667088
 21
685.7362658472592
 31
0.0
  0
LINE
  5
2780A
330
272EA
100
AcDbEntity
  8
waku
  6
Continuous
370
     9
100
AcDbLine
 10
23988.11520340009
 20
607.9196583539998
 30
0.0
 11
23998.84023507126
 21
618.6469169836217
 31
0.0
  0
LINE
  5
2780B
330
272EA
100
AcDbEntity
  8
waku
  6
Continuous
370
     9
100
AcDbLine
 10
24061.20397820271
 20
681.0088785483238
 30
0.0
 11
24065.93047471834
 21
685.7362658472592
 31
0.0
  0
LINE
  5
2780C
330
272EA
100
AcDbEntity
  8
waku
  6
Continuous
370
     9
100
AcDbLine
 10
23944.77681130148
 20
571.0095765458445
 30
0.0
 11
23949.84180549427
 21
576.0754893590782
 31
0.0
  0
LINE
  5
2780D
330
272EA
100
AcDbEntity
  8
waku
  6
Continuous
370
     9
100
AcDbLine
 10
24055.20544304722
 20
681.4391269118969
 30
0.0
 11
24059.93639347959
 21
686.1660688191441
 31
0.0
  0
LINE
  5
2780E
330
272EA
100
AcDbEntity
  8
waku
  6
Continuous
370
     9
100
AcDbLine
 10
23988.11520340009
 20
614.3479964815343
 30
0.0
 11
23998.84023507126
 21
625.0753107851104
 31
0.0
  0
LINE
  5
2780F
330
272EA
100
AcDbEntity
  8
waku
  6
Continuous
370
     9
100
AcDbLine
 10
23941.11569168605
 20
573.7763775033235
 30
0.0
 11
23949.84180549427
 21
582.5033820949247
 31
0.0
  0
LINE
  5
27810
330
272EA
100
AcDbEntity
  8
waku
  6
Continuous
370
     9
100
AcDbLine
 10
24055.20544304722
 20
687.8670196477432
 30
0.0
 11
24059.93639347959
 21
692.5944069466786
 31
0.0
  0
LINE
  5
27811
330
272EA
100
AcDbEntity
  8
waku
  6
Continuous
370
     9
100
AcDbLine
 10
23988.11520340009
 20
620.7767800007295
 30
0.0
 11
23998.84023507126
 21
631.5038716084891
 31
0.0
  0
LINE
  5
27812
330
272EA
100
AcDbEntity
  8
waku
  6
Continuous
370
     9
100
AcDbLine
 10
23941.11569168605
 20
580.2047156308307
 30
0.0
 11
23949.84180549427
 21
588.9317202224592
 31
0.0
  0
LINE
  5
27813
330
272EA
100
AcDbEntity
  8
waku
  6
Continuous
370
     9
100
AcDbLine
 10
23988.11520340009
 20
627.204672736576
 30
0.0
 11
23998.84023507126
 21
637.9318756922437
 31
0.0
  0
LINE
  5
27814
330
272EA
100
AcDbEntity
  8
waku
  6
Continuous
370
     9
100
AcDbLine
 10
23941.11569168605
 20
586.6329980844112
 30
0.0
 11
23949.84180549427
 21
595.3602810458106
 31
0.0
  0
LINE
  5
27815
330
272EA
100
AcDbEntity
  8
waku
  6
Continuous
370
     9
100
AcDbLine
 10
23988.11520340009
 20
633.6330108641105
 30
0.0
 11
23998.84023507126
 21
644.3602138197511
 31
0.0
  0
LINE
  5
27816
330
272EA
100
AcDbEntity
  8
waku
  6
Continuous
370
     9
100
AcDbLine
 10
23941.11569168605
 20
593.0609464942117
 30
0.0
 11
23949.84180549427
 21
601.788396477501
 31
0.0
  0
LINE
  5
27817
330
272EA
100
AcDbEntity
  8
waku
  6
Continuous
370
     9
100
AcDbLine
 10
23988.11520340009
 20
640.0608479259752
 30
0.0
 11
23998.84023507126
 21
650.788162229579
 31
0.0
  0
LINE
  5
27818
330
272EA
100
AcDbEntity
  8
waku
  6
Continuous
370
     9
100
AcDbLine
 10
23941.11569168605
 20
599.4892846217188
 30
0.0
 11
23949.84180549427
 21
608.2167346050082
 31
0.0
  0
LINE
  5
27819
330
272EA
100
AcDbEntity
  8
waku
  6
Continuous
370
     9
100
AcDbLine
 10
23988.11520340009
 20
646.4891860535098
 30
0.0
 11
23998.84023507126
 21
657.2165003570862
 31
0.0
  0
LINE
  5
2781A
330
272EA
100
AcDbEntity
  8
waku
  6
Continuous
370
     9
100
AcDbLine
 10
23941.11569168605
 20
605.9176227492534
 30
0.0
 11
23949.84180549427
 21
614.6446273408819
 31
0.0
  0
LINE
  5
2781B
330
272EA
100
AcDbEntity
  8
waku
  6
Continuous
370
     9
100
AcDbLine
 10
23988.11520340009
 20
652.9175798549986
 30
0.0
 11
23998.84023507126
 21
663.6448384846207
 31
0.0
  0
LINE
  5
2781C
330
272EA
100
AcDbEntity
  8
waku
  6
Continuous
370
     9
100
AcDbLine
 10
23988.11520340009
 20
659.3459179825059
 30
0.0
 11
23998.84023507126
 21
670.0736220038161
 31
0.0
  0
LINE
  5
2781D
330
272EA
100
AcDbEntity
  8
waku
  6
Continuous
370
     9
100
AcDbLine
 10
23941.11569168605
 20
612.345960876788
 30
0.0
 11
23949.84180549427
 21
621.0729654683891
 31
0.0
  0
LINE
  5
2781E
330
272EA
100
AcDbEntity
  8
waku
  6
Continuous
370
     9
100
AcDbLine
 10
23988.11520340009
 20
665.7738107183522
 30
0.0
 11
23998.84023507126
 21
676.5015147396625
 31
0.0
  0
LINE
  5
2781F
330
272EA
100
AcDbEntity
  8
waku
  6
Continuous
370
     9
100
AcDbLine
 10
23941.11569168605
 20
618.7738536126342
 30
0.0
 11
23949.84180549427
 21
627.5013035959235
 31
0.0
  0
LINE
  5
27820
330
272EA
100
AcDbEntity
  8
waku
  6
Continuous
370
     9
100
AcDbLine
 10
23870.11669464921
 20
554.2024152678967
 30
0.0
 11
23902.8422937803
 21
586.929684617713
 31
0.0
  0
LINE
  5
27821
330
272EA
100
AcDbEntity
  8
waku
  6
Continuous
370
     9
100
AcDbLine
 10
23988.11520340009
 20
672.2021488458867
 30
0.0
 11
23998.84023507126
 21
682.929852867197
 31
0.0
  0
LINE
  5
27822
330
272EA
100
AcDbEntity
  8
waku
  6
Continuous
370
     9
100
AcDbLine
 10
23941.11569168605
 20
625.2021917401416
 30
0.0
 11
23949.84180549427
 21
633.9296417234309
 31
0.0
  0
LINE
  5
27823
330
272EA
100
AcDbEntity
  8
waku
  6
Continuous
370
     9
100
AcDbLine
 10
23870.11669464921
 20
560.6306420474956
 30
0.0
 11
23902.8422937803
 21
593.3575773535593
 31
0.0
  0
LINE
  5
27824
330
272EA
100
AcDbEntity
  8
waku
  6
Continuous
370
     9
100
AcDbLine
 10
23988.11520340009
 20
678.6305426473753
 30
0.0
 11
23998.84023507126
 21
689.3577456030433
 31
0.0
  0
LINE
  5
27825
330
272EA
100
AcDbEntity
  8
waku
  6
Continuous
370
     9
100
AcDbLine
 10
23941.11569168605
 20
631.6305298676761
 30
0.0
 11
23949.84180549427
 21
640.3579798509653
 31
0.0
  0
LINE
  5
27826
330
272EA
100
AcDbEntity
  8
waku
  6
Continuous
370
     9
100
AcDbLine
 10
23988.11520340009
 20
685.0591034707267
 30
0.0
 11
23996.79321490677
 21
693.7368366076551
 31
0.0
  0
LINE
  5
27827
330
272EA
100
AcDbEntity
  8
waku
  6
Continuous
370
     9
100
AcDbLine
 10
23870.11669464921
 20
567.0615750267696
 30
0.0
 11
23902.8422937803
 21
599.785915481094
 31
0.0
  0
LINE
  5
27828
330
272EA
100
AcDbEntity
  8
waku
  6
Continuous
370
     9
100
AcDbLine
 10
23941.11569168605
 20
638.0591463650088
 30
0.0
 11
23949.84180549427
 21
646.785928260766
 31
0.0
  0
LINE
  5
27829
330
272EA
100
AcDbEntity
  8
waku
  6
Continuous
370
     9
100
AcDbLine
 10
23892.11280819221
 20
595.4870506529332
 30
0.0
 11
23902.8422937803
 21
606.2147546742435
 31
0.0
  0
LINE
  5
2782A
330
272EA
100
AcDbEntity
  8
waku
  6
Continuous
370
     9
100
AcDbLine
 10
23988.11520340009
 20
691.4871075544815
 30
0.0
 11
23990.36532217101
 21
693.7368366076551
 31
0.0
  0
LINE
  5
2782B
330
272EA
100
AcDbEntity
  8
waku
  6
Continuous
370
     9
100
AcDbLine
 10
23941.11569168605
 20
644.4867607310298
 30
0.0
 11
23949.84180549427
 21
653.2142663883005
 31
0.0
  0
LINE
  5
2782C
330
272EA
100
AcDbEntity
  8
waku
  6
Continuous
370
     9
100
AcDbLine
 10
23892.11280819221
 20
601.915667150266
 30
0.0
 11
23902.8422937803
 21
612.6425917361358
 31
0.0
  0
LINE
  5
2782D
330
272EA
100
AcDbEntity
  8
waku
  6
Continuous
370
     9
100
AcDbLine
 10
23941.11569168605
 20
650.9150988585641
 30
0.0
 11
23949.84180549427
 21
659.6429942335417
 31
0.0
  0
LINE
  5
2782E
330
272EA
100
AcDbEntity
  8
waku
  6
Continuous
370
     9
100
AcDbLine
 10
23892.11280819221
 20
608.3436155600666
 30
0.0
 11
23902.8422937803
 21
619.0709298636428
 31
0.0
  0
LINE
  5
2782F
330
272EA
100
AcDbEntity
  8
waku
  6
Continuous
370
     9
100
AcDbLine
 10
23941.11569168605
 20
657.3434369860988
 30
0.0
 11
23949.84180549427
 21
666.0708312954339
 31
0.0
  0
LINE
  5
27830
330
272EA
100
AcDbEntity
  8
waku
  6
Continuous
370
     9
100
AcDbLine
 10
23828.3523167501
 20
551.0088455693638
 30
0.0
 11
23832.84097410832
 21
555.4992844941771
 31
0.0
  0
LINE
  5
27831
330
272EA
100
AcDbEntity
  8
waku
  6
Continuous
370
     9
100
AcDbLine
 10
23941.11569168605
 20
663.7717751136332
 30
0.0
 11
23949.84180549427
 21
672.4991694229411
 31
0.0
  0
LINE
  5
27832
330
272EA
100
AcDbEntity
  8
waku
  6
Continuous
370
     9
100
AcDbLine
 10
23892.11280819221
 20
614.7725104271976
 30
0.0
 11
23902.8422937803
 21
625.4988225994893
 31
0.0
  0
LINE
  5
27833
330
272EA
100
AcDbEntity
  8
waku
  6
Continuous
370
     9
100
AcDbLine
 10
23821.92264244752
 20
551.0088455693638
 30
0.0
 11
23832.84097410832
 21
561.9271772300235
 31
0.0
  0
LINE
  5
27834
330
272EA
100
AcDbEntity
  8
waku
  6
Continuous
370
     9
100
AcDbLine
 10
23941.11569168605
 20
670.2001132411405
 30
0.0
 11
23949.84180549427
 21
678.9271178327417
 31
0.0
  0
LINE
  5
27835
330
272EA
100
AcDbEntity
  8
waku
  6
Continuous
370
     9
100
AcDbLine
 10
23892.11280819221
 20
621.1999020973743
 30
0.0
 11
23902.8422937803
 21
631.9271607270239
 31
0.0
  0
LINE
  5
27836
330
272EA
100
AcDbEntity
  8
waku
  6
Continuous
370
     9
100
AcDbLine
 10
23815.49564049504
 20
551.0088455693638
 30
0.0
 11
23832.22544280556
 21
567.736448758338
 31
0.0
  0
LINE
  5
27837
330
272EA
100
AcDbEntity
  8
waku
  6
Continuous
370
     9
100
AcDbLine
 10
23941.11569168605
 20
676.628005976987
 30
0.0
 11
23948.22236134321
 21
683.7366798967705
 31
0.0
  0
LINE
  5
27838
330
272EA
100
AcDbEntity
  8
waku
  6
Continuous
370
     9
100
AcDbLine
 10
23892.11280819221
 20
627.6282402249089
 30
0.0
 11
23902.8422937803
 21
638.3554988545311
 31
0.0
  0
LINE
  5
27839
330
272EA
100
AcDbEntity
  8
waku
  6
Continuous
370
     9
100
AcDbLine
 10
23809.06863854255
 20
551.0088455693638
 30
0.0
 11
23825.79844085302
 21
567.736448758338
 31
0.0
  0
LINE
  5
2783A
330
272EA
100
AcDbEntity
  8
waku
  6
Continuous
370
     9
100
AcDbLine
 10
23941.11569168605
 20
683.0563441045215
 30
0.0
 11
23941.79535939084
 21
683.7366798967705
 31
0.0
  0
LINE
  5
2783B
330
272EA
100
AcDbEntity
  8
waku
  6
Continuous
370
     9
100
AcDbLine
 10
23892.11280819221
 20
634.0565783524433
 30
0.0
 11
23902.8422937803
 21
644.7838369820656
 31
0.0
  0
LINE
  5
2783C
330
272EA
100
AcDbEntity
  8
waku
  6
Continuous
370
     9
100
AcDbLine
 10
23802.63896424009
 20
551.0088455693638
 30
0.0
 11
23819.36787576711
 21
567.736448758338
 31
0.0
  0
LINE
  5
2783D
330
272EA
100
AcDbEntity
  8
waku
  6
Continuous
370
     9
100
AcDbLine
 10
23892.11280819221
 20
640.4849164799778
 30
0.0
 11
23902.8422937803
 21
651.2126205012608
 31
0.0
  0
LINE
  5
2783E
330
272EA
100
AcDbEntity
  8
waku
  6
Continuous
370
     9
100
AcDbLine
 10
23796.21552542097
 20
551.0088455693638
 30
0.0
 11
23812.93909224781
 21
567.736448758338
 31
0.0
  0
LINE
  5
2783F
330
272EA
100
AcDbEntity
  8
waku
  6
Continuous
370
     9
100
AcDbLine
 10
23892.11280819221
 20
646.9128092158244
 30
0.0
 11
23902.8422937803
 21
657.6400678454464
 31
0.0
  0
LINE
  5
27840
330
272EA
100
AcDbEntity
  8
waku
  6
Continuous
370
     9
100
AcDbLine
 10
23789.78763268515
 20
551.0088455693638
 30
0.0
 11
23806.5094179454
 21
567.736448758338
 31
0.0
  0
LINE
  5
27841
330
272EA
100
AcDbEntity
  8
waku
  6
Continuous
370
     9
100
AcDbLine
 10
23892.11280819221
 20
653.3411473433316
 30
0.0
 11
23902.8422937803
 21
664.0688513646417
 31
0.0
  0
LINE
  5
27842
330
272EA
100
AcDbEntity
  8
waku
  6
Continuous
370
     9
100
AcDbLine
 10
23831.78272347478
 20
593.0092810592632
 30
0.0
 11
23832.84097410832
 21
594.0688678676142
 31
0.0
  0
LINE
  5
27843
330
272EA
100
AcDbEntity
  8
waku
  6
Continuous
370
     9
100
AcDbLine
 10
23783.35439524916
 20
551.0088455693638
 30
0.0
 11
23800.08241599286
 21
567.736448758338
 31
0.0
  0
LINE
  5
27844
330
272EA
100
AcDbEntity
  8
waku
  6
Continuous
370
     9
100
AcDbLine
 10
23892.11280819221
 20
659.7697638406644
 30
0.0
 11
23902.8422937803
 21
670.4969667963322
 31
0.0
  0
LINE
  5
27845
330
272EA
100
AcDbEntity
  8
waku
  6
Continuous
370
     9
100
AcDbLine
 10
23825.3557215224
 20
593.0092810592632
 30
0.0
 11
23832.84097410832
 21
600.4967606034878
 31
0.0
  0
LINE
  5
27846
330
272EA
100
AcDbEntity
  8
waku
  6
Continuous
370
     9
100
AcDbLine
 10
23776.92739329668
 20
551.0088455693638
 30
0.0
 11
23793.84247854631
 21
567.9252669939851
 31
0.0
  0
LINE
  5
27847
330
272EA
100
AcDbEntity
  8
waku
  6
Continuous
370
     9
100
AcDbLine
 10
23892.11280819221
 20
666.197767924419
 30
0.0
 11
23902.8422937803
 21
676.9251379019769
 31
0.0
  0
LINE
  5
27848
330
272EA
100
AcDbEntity
  8
waku
  6
Continuous
370
     9
100
AcDbLine
 10
23818.92515643645
 20
593.0092810592632
 30
0.0
 11
23829.65375124116
 21
603.7360942971973
 31
0.0
  0
LINE
  5
27849
330
272EA
100
AcDbEntity
  8
waku
  6
Continuous
370
     9
100
AcDbLine
 10
23770.49860977742
 20
551.0088455693638
 30
0.0
 11
23793.84247854631
 21
574.3531597298313
 31
0.0
  0
LINE
  5
2784A
330
272EA
100
AcDbEntity
  8
waku
  6
Continuous
370
     9
100
AcDbLine
 10
23892.11280819221
 20
672.6257163342197
 30
0.0
 11
23902.8422937803
 21
683.35342035553
 31
0.0
  0
LINE
  5
2784B
330
272EA
100
AcDbEntity
  8
waku
  6
Continuous
370
     9
100
AcDbLine
 10
23812.4963729172
 20
593.0092810592632
 30
0.0
 11
23823.22585850523
 21
603.7360942971973
 31
0.0
  0
LINE
  5
2784C
330
272EA
100
AcDbEntity
  8
waku
  6
Continuous
370
     9
100
AcDbLine
 10
23764.06893547496
 20
551.0088455693638
 30
0.0
 11
23793.84247854631
 21
580.7816370422515
 31
0.0
  0
LINE
  5
2784D
330
272EA
100
AcDbEntity
  8
waku
  6
Continuous
370
     9
100
AcDbLine
 10
23892.11280819221
 20
679.0540544617543
 30
0.0
 11
23902.8422937803
 21
689.7812574174221
 31
0.0
  0
LINE
  5
2784E
330
272EA
100
AcDbEntity
  8
waku
  6
Continuous
370
     9
100
AcDbLine
 10
23806.06937096489
 20
593.0092810592632
 30
0.0
 11
23816.7970749861
 21
603.7360942971973
 31
0.0
  0
LINE
  5
2784F
330
272EA
100
AcDbEntity
  8
waku
  6
Continuous
370
     9
100
AcDbLine
 10
23758.06039508834
 20
551.4273388800082
 30
0.0
 11
23793.84247854631
 21
587.2122765324328
 31
0.0
  0
LINE
  5
27850
330
272EA
100
AcDbEntity
  8
waku
  6
Continuous
370
     9
100
AcDbLine
 10
23892.11280819221
 20
685.4828379809496
 30
0.0
 11
23900.36858838564
 21
693.7368366076551
 31
0.0
  0
LINE
  5
27851
330
272EA
100
AcDbEntity
  8
waku
  6
Continuous
370
     9
100
AcDbLine
 10
23799.64147822891
 20
593.0092810592632
 30
0.0
 11
23810.37007303361
 21
603.7360942971973
 31
0.0
  0
LINE
  5
27852
330
272EA
100
AcDbEntity
  8
waku
  6
Continuous
370
     9
100
AcDbLine
 10
23754.84597136953
 20
554.6424681495555
 30
0.0
 11
23767.94117074693
 21
567.736448758338
 31
0.0
  0
LINE
  5
27853
330
272EA
100
AcDbEntity
  8
waku
  6
Continuous
370
     9
100
AcDbLine
 10
23892.11280819221
 20
691.9107307167958
 30
0.0
 11
23893.94069564977
 21
693.7368366076551
 31
0.0
  0
LINE
  5
27854
330
272EA
100
AcDbEntity
  8
waku
  6
Continuous
370
     9
100
AcDbLine
 10
23783.11299295822
 20
582.9104700910975
 30
0.0
 11
23803.9421802978
 21
603.7360942971973
 31
0.0
  0
LINE
  5
27855
330
272EA
100
AcDbEntity
  8
waku
  6
Continuous
370
     9
100
AcDbLine
 10
23829.2110319105
 20
629.008954435072
 30
0.0
 11
23832.84097410832
 21
632.638061523372
 31
0.0
  0
LINE
  5
27856
330
272EA
100
AcDbEntity
  8
waku
  6
Continuous
370
     9
100
AcDbLine
 10
23751.63283818879
 20
557.8563065978285
 30
0.0
 11
23763.99695341254
 21
570.2216369265405
 31
0.0
  0
LINE
  5
27857
330
272EA
100
AcDbEntity
  8
waku
  6
Continuous
370
     9
100
AcDbLine
 10
23822.78402995801
 20
629.008954435072
 30
0.0
 11
23832.84097410832
 21
639.0667893686403
 31
0.0
  0
LINE
  5
27858
330
272EA
100
AcDbEntity
  8
waku
  6
Continuous
370
     9
100
AcDbLine
 10
23783.11299295822
 20
589.3394206321827
 30
0.0
 11
23797.50983364508
 21
603.7360942971973
 31
0.0
  0
LINE
  5
27859
330
272EA
100
AcDbEntity
  8
waku
  6
Continuous
370
     9
100
AcDbLine
 10
23748.41930035676
 20
561.07054978616
 30
0.0
 11
23760.78528688487
 21
573.4322482267871
 31
0.0
  0
LINE
  5
2785A
330
272EA
100
AcDbEntity
  8
waku
  6
Continuous
370
     9
100
AcDbLine
 10
23816.35613722214
 20
629.008954435072
 30
0.0
 11
23827.08384124341
 21
639.7362130646942
 31
0.0
  0
LINE
  5
2785B
330
272EA
100
AcDbEntity
  8
waku
  6
Continuous
370
     9
100
AcDbLine
 10
23783.11299295822
 20
595.7671463461393
 30
0.0
 11
23793.84247854631
 21
606.4943493018072
 31
0.0
  0
LINE
  5
2785C
330
272EA
100
AcDbEntity
  8
waku
  6
Continuous
370
     9
100
AcDbLine
 10
23745.20559690037
 20
564.2849586352495
 30
0.0
 11
23757.56742295803
 21
576.6490548899455
 31
0.0
  0
LINE
  5
2785D
330
272EA
100
AcDbEntity
  8
waku
  6
Continuous
370
     9
100
AcDbLine
 10
23809.9326984032
 20
629.008954435072
 30
0.0
 11
23820.65683929093
 21
639.7362130646942
 31
0.0
  0
LINE
  5
2785E
330
272EA
100
AcDbEntity
  8
waku
  6
Continuous
370
     9
100
AcDbLine
 10
23783.11299295822
 20
602.1954844736463
 30
0.0
 11
23793.84247854631
 21
612.9226874293417
 31
0.0
  0
LINE
  5
2785F
330
272EA
100
AcDbEntity
  8
waku
  6
Continuous
370
     9
100
AcDbLine
 10
23742.11825188342
 20
567.6237089891729
 30
0.0
 11
23754.35365145409
 21
579.8617704748957
 31
0.0
  0
LINE
  5
27860
330
272EA
100
AcDbEntity
  8
waku
  6
Continuous
370
     9
100
AcDbLine
 10
23803.50035175058
 20
629.008954435072
 30
0.0
 11
23814.23072812194
 21
639.7362130646942
 31
0.0
  0
LINE
  5
27861
330
272EA
100
AcDbEntity
  8
waku
  6
Continuous
370
     9
100
AcDbLine
 10
23783.11299295822
 20
608.6238782751353
 30
0.0
 11
23793.84247854631
 21
619.3510812308304
 31
0.0
  0
LINE
  5
27862
330
272EA
100
AcDbEntity
  8
waku
  6
Continuous
370
     9
100
AcDbLine
 10
23742.11825188342
 20
574.0516295619962
 30
0.0
 11
23752.8423927711
 21
584.7797789749675
 31
0.0
  0
LINE
  5
27863
330
272EA
100
AcDbEntity
  8
waku
  6
Continuous
370
     9
100
AcDbLine
 10
23829.07117892272
 20
661.0090105182425
 30
0.0
 11
23832.84097410832
 21
664.7792510953477
 31
0.0
  0
LINE
  5
27864
330
272EA
100
AcDbEntity
  8
waku
  6
Continuous
370
     9
100
AcDbLine
 10
23783.11299295822
 20
615.0517153370273
 30
0.0
 11
23793.84247854631
 21
625.7798647500258
 31
0.0
  0
LINE
  5
27865
330
272EA
100
AcDbEntity
  8
waku
  6
Continuous
370
     9
100
AcDbLine
 10
23797.0724590146
 20
629.008954435072
 30
0.0
 11
23807.80372616934
 21
639.7362130646942
 31
0.0
  0
LINE
  5
27866
330
272EA
100
AcDbEntity
  8
waku
  6
Continuous
370
     9
100
AcDbLine
 10
23742.11825188342
 20
580.4799676895036
 30
0.0
 11
23752.8423927711
 21
591.2072263191531
 31
0.0
  0
LINE
  5
27867
330
272EA
100
AcDbEntity
  8
waku
  6
Continuous
370
     9
100
AcDbLine
 10
23822.64774010377
 20
661.0090105182425
 30
0.0
 11
23832.84097410832
 21
671.2075892228822
 31
0.0
  0
LINE
  5
27868
330
272EA
100
AcDbEntity
  8
waku
  6
Continuous
370
     9
100
AcDbLine
 10
23783.11299295822
 20
621.4800534645618
 30
0.0
 11
23801.37137951685
 21
639.7362130646942
 31
0.0
  0
LINE
  5
27869
330
272EA
100
AcDbEntity
  8
waku
  6
Continuous
370
     9
100
AcDbLine
 10
23742.11825188342
 20
586.9082501430839
 30
0.0
 11
23752.8423927711
 21
597.6355644466602
 31
0.0
  0
LINE
  5
2786A
330
272EA
100
AcDbEntity
  8
waku
  6
Continuous
370
     9
100
AcDbLine
 10
23822.11416087032
 20
666.9082233291065
 30
0.0
 11
23832.83741097478
 21
677.6305826502412
 31
0.0
  0
LINE
  5
2786B
330
272EA
100
AcDbEntity
  8
waku
  6
Continuous
370
     9
100
AcDbLine
 10
23783.11299295822
 20
627.9083915920693
 30
0.0
 11
23794.94170521415
 21
639.7362130646942
 31
0.0
  0
LINE
  5
2786C
330
272EA
100
AcDbEntity
  8
waku
  6
Continuous
370
     9
100
AcDbLine
 10
23822.11416087032
 20
673.3370068483018
 30
0.0
 11
23830.8099880442
 21
682.0332794139412
 31
0.0
  0
LINE
  5
2786D
330
272EA
100
AcDbEntity
  8
waku
  6
Continuous
370
     9
100
AcDbLine
 10
23742.11825188342
 20
593.3370893362335
 30
0.0
 11
23752.8423927711
 21
604.0639025741946
 31
0.0
  0
LINE
  5
2786E
330
272EA
100
AcDbEntity
  8
waku
  6
Continuous
370
     9
100
AcDbLine
 10
23777.78699924034
 20
629.008954435072
 30
0.0
 11
23788.5138124784
 21
639.7362130646942
 31
0.0
  0
LINE
  5
2786F
330
272EA
100
AcDbEntity
  8
waku
  6
Continuous
370
     9
100
AcDbLine
 10
23817.36094085384
 20
675.0094526093253
 30
0.0
 11
23826.08705466206
 21
683.7366798967705
 31
0.0
  0
LINE
  5
27870
330
272EA
100
AcDbEntity
  8
waku
  6
Continuous
370
     9
100
AcDbLine
 10
23742.11825188342
 20
599.7649820720797
 30
0.0
 11
23752.8423927711
 21
610.4922963756835
 31
0.0
  0
LINE
  5
27871
330
272EA
100
AcDbEntity
  8
waku
  6
Continuous
370
     9
100
AcDbLine
 10
23771.35999728797
 20
629.008954435072
 30
0.0
 11
23782.08681052586
 21
639.7362130646942
 31
0.0
  0
LINE
  5
27872
330
272EA
100
AcDbEntity
  8
waku
  6
Continuous
370
     9
100
AcDbLine
 10
23692.11412789125
 20
556.1931768957183
 30
0.0
 11
23708.99697964254
 21
573.074893954068
 31
0.0
  0
LINE
  5
27873
330
272EA
100
AcDbEntity
  8
waku
  6
Continuous
370
     9
100
AcDbLine
 10
23810.93037576799
 20
675.0094526093253
 30
0.0
 11
23819.65648957621
 21
683.7366798967705
 31
0.0
  0
LINE
  5
27874
330
272EA
100
AcDbEntity
  8
waku
  6
Continuous
370
     9
100
AcDbLine
 10
23742.11825188342
 20
606.1933201996144
 30
0.0
 11
23749.65784225415
 21
613.7364737039262
 31
0.0
  0
LINE
  5
27875
330
272EA
100
AcDbEntity
  8
waku
  6
Continuous
370
     9
100
AcDbLine
 10
23764.93032298529
 20
629.008954435072
 30
0.0
 11
23775.65980857337
 21
639.7362130646942
 31
0.0
  0
LINE
  5
27876
330
272EA
100
AcDbEntity
  8
waku
  6
Continuous
370
     9
100
AcDbLine
 10
23692.11412789125
 20
562.6210696315647
 30
0.0
 11
23724.84239937249
 21
595.3484781662664
 31
0.0
  0
LINE
  5
27877
330
272EA
100
AcDbEntity
  8
waku
  6
Continuous
370
     9
100
AcDbLine
 10
23804.50337381545
 20
675.0094526093253
 30
0.0
 11
23813.22948762367
 21
683.7366798967705
 31
0.0
  0
LINE
  5
27878
330
272EA
100
AcDbEntity
  8
waku
  6
Continuous
370
     9
100
AcDbLine
 10
23742.11825188342
 20
612.6212129354607
 30
0.0
 11
23743.23440343526
 21
613.7364737039262
 31
0.0
  0
LINE
  5
27879
330
272EA
100
AcDbEntity
  8
waku
  6
Continuous
370
     9
100
AcDbLine
 10
23758.5033210328
 20
629.008954435072
 30
0.0
 11
23769.22835270409
 21
639.7362130646942
 31
0.0
  0
LINE
  5
2787A
330
272EA
100
AcDbEntity
  8
waku
  6
Continuous
370
     9
100
AcDbLine
 10
23696.67685851775
 20
573.6033659534187
 30
0.0
 11
23724.84239937249
 21
601.7768162938008
 31
0.0
  0
LINE
  5
2787B
330
272EA
100
AcDbEntity
  8
waku
  6
Continuous
370
     9
100
AcDbLine
 10
23798.07369951293
 20
675.0094526093253
 30
0.0
 11
23806.80872115469
 21
683.7366798967705
 31
0.0
  0
LINE
  5
2787C
330
272EA
100
AcDbEntity
  8
waku
  6
Continuous
370
     9
100
AcDbLine
 10
23752.07542829693
 20
629.008954435072
 30
0.0
 11
23762.80045996816
 21
639.7362130646942
 31
0.0
  0
LINE
  5
2787D
330
272EA
100
AcDbEntity
  8
waku
  6
Continuous
370
     9
100
AcDbLine
 10
23714.11558613444
 20
597.47811848753
 30
0.0
 11
23720.37244846497
 21
603.7360942971973
 31
0.0
  0
LINE
  5
2787E
330
272EA
100
AcDbEntity
  8
waku
  6
Continuous
370
     9
100
AcDbLine
 10
23791.64491599368
 20
675.0094526093253
 30
0.0
 11
23800.37904685224
 21
683.7366798967705
 31
0.0
  0
LINE
  5
2787F
330
272EA
100
AcDbEntity
  8
waku
  6
Continuous
370
     9
100
AcDbLine
 10
23745.64575399447
 20
629.008954435072
 30
0.0
 11
23756.37434879918
 21
639.7362130646942
 31
0.0
  0
LINE
  5
27880
330
272EA
100
AcDbEntity
  8
waku
  6
Continuous
370
     9
100
AcDbLine
 10
23742.11825188342
 20
631.9061716440557
 30
0.0
 11
23749.9437837132
 21
639.7362130646942
 31
0.0
  0
LINE
  5
27881
330
272EA
100
AcDbEntity
  8
waku
  6
Continuous
370
     9
100
AcDbLine
 10
23785.21791404113
 20
675.0094526093253
 30
0.0
 11
23793.94580941624
 21
683.7366798967705
 31
0.0
  0
LINE
  5
27882
330
272EA
100
AcDbEntity
  8
waku
  6
Continuous
370
     9
100
AcDbLine
 10
23742.11825188342
 20
638.3341200538561
 30
0.0
 11
23743.51678176073
 21
639.7362130646942
 31
0.0
  0
LINE
  5
27883
330
272EA
100
AcDbEntity
  8
waku
  6
Continuous
370
     9
100
AcDbLine
 10
23778.79091208876
 20
675.0094526093253
 30
0.0
 11
23793.84247854631
 21
690.0614644585366
 31
0.0
  0
LINE
  5
27884
330
272EA
100
AcDbEntity
  8
waku
  6
Continuous
370
     9
100
AcDbLine
 10
23772.36123778607
 20
675.0094526093253
 30
0.0
 11
23781.08735159447
 21
683.7366798967705
 31
0.0
  0
LINE
  5
27885
330
272EA
100
AcDbEntity
  8
waku
  6
Continuous
370
     9
100
AcDbLine
 10
23783.11299295822
 20
685.7625439564217
 30
0.0
 11
23791.0890671761
 21
693.7368366076551
 31
0.0
  0
LINE
  5
27886
330
272EA
100
AcDbEntity
  8
waku
  6
Continuous
370
     9
100
AcDbLine
 10
23724.42996667617
 20
633.5042926683727
 30
0.0
 11
23724.84239937249
 21
633.9185069314188
 31
0.0
  0
LINE
  5
27887
330
272EA
100
AcDbEntity
  8
waku
  6
Continuous
370
     9
100
AcDbLine
 10
23783.11299295822
 20
692.1908820839563
 30
0.0
 11
23784.66206522373
 21
693.7368366076551
 31
0.0
  0
LINE
  5
27888
330
272EA
100
AcDbEntity
  8
waku
  6
Continuous
370
     9
100
AcDbLine
 10
23751.93290295929
 20
661.0090105182425
 30
0.0
 11
23752.8423927711
 21
661.9180549385474
 31
0.0
  0
LINE
  5
27889
330
272EA
100
AcDbEntity
  8
waku
  6
Continuous
370
     9
100
AcDbLine
 10
23765.93334505032
 20
675.0094526093253
 30
0.0
 11
23774.66034964181
 21
683.7366798967705
 31
0.0
  0
LINE
  5
2788A
330
272EA
100
AcDbEntity
  8
waku
  6
Continuous
370
     9
100
AcDbLine
 10
23719.35873699963
 20
634.8631826862003
 30
0.0
 11
23724.84239937249
 21
640.3463996672654
 31
0.0
  0
LINE
  5
2788B
330
272EA
100
AcDbEntity
  8
waku
  6
Continuous
370
     9
100
AcDbLine
 10
23759.50634309772
 20
675.0094526093253
 30
0.0
 11
23768.23334768944
 21
683.7366798967705
 31
0.0
  0
LINE
  5
2788C
330
272EA
100
AcDbEntity
  8
waku
  6
Continuous
370
     9
100
AcDbLine
 10
23745.50590100669
 20
661.0090105182425
 30
0.0
 11
23752.8423927711
 21
668.3463930660819
 31
0.0
  0
LINE
  5
2788D
330
272EA
100
AcDbEntity
  8
waku
  6
Continuous
370
     9
100
AcDbLine
 10
23714.28839810647
 20
636.2215716383579
 30
0.0
 11
23722.54685065011
 21
644.4798571600004
 31
0.0
  0
LINE
  5
2788E
330
272EA
100
AcDbEntity
  8
waku
  6
Continuous
370
     9
100
AcDbLine
 10
23753.07399644522
 20
675.0094526093253
 30
0.0
 11
23761.80278260348
 21
683.7366798967705
 31
0.0
  0
LINE
  5
2788F
330
272EA
100
AcDbEntity
  8
waku
  6
Continuous
370
     9
100
AcDbLine
 10
23742.11825188342
 20
664.0475282379211
 30
0.0
 11
23752.8423927711
 21
674.7747311935889
 31
0.0
  0
LINE
  5
27890
330
272EA
100
AcDbEntity
  8
waku
  6
Continuous
370
     9
100
AcDbLine
 10
23709.21894999687
 20
637.5800719384515
 30
0.0
 11
23717.47829332384
 21
645.8380790902682
 31
0.0
  0
LINE
  5
27891
330
272EA
100
AcDbEntity
  8
waku
  6
Continuous
370
     9
100
AcDbLine
 10
23742.11825188342
 20
670.4753652998132
 30
0.0
 11
23755.37488986773
 21
683.7366798967705
 31
0.0
  0
LINE
  5
27892
330
272EA
100
AcDbEntity
  8
waku
  6
Continuous
370
     9
100
AcDbLine
 10
23704.15128345386
 20
638.9380711729025
 30
0.0
 11
23712.40706364729
 21
647.1965237164075
 31
0.0
  0
LINE
  5
27893
330
272EA
100
AcDbEntity
  8
waku
  6
Continuous
370
     9
100
AcDbLine
 10
23742.11825188342
 20
676.9037034273479
 30
0.0
 11
23748.94877869851
 21
683.7366798967705
 31
0.0
  0
LINE
  5
27894
330
272EA
100
AcDbEntity
  8
waku
  6
Continuous
370
     9
100
AcDbLine
 10
23699.0773814274
 20
640.296515799042
 30
0.0
 11
23707.33583397075
 21
648.5549683425468
 31
0.0
  0
LINE
  5
27895
330
272EA
100
AcDbEntity
  8
waku
  6
Continuous
370
     9
100
AcDbLine
 10
23742.11825188342
 20
683.3320415548549
 30
0.0
 11
23742.51910439594
 21
683.7366798967705
 31
0.0
  0
LINE
  5
27896
330
272EA
100
AcDbEntity
  8
waku
  6
Continuous
370
     9
100
AcDbLine
 10
23694.00971488428
 20
641.6549604251541
 30
0.0
 11
23702.2681674278
 21
649.9134129686861
 31
0.0
  0
LINE
  5
27897
330
272EA
100
AcDbEntity
  8
waku
  6
Continuous
370
     9
100
AcDbLine
 10
23692.11412789125
 20
646.1886023429777
 30
0.0
 11
23697.19961010141
 21
651.2718575947982
 31
0.0
  0
LINE
  5
27898
330
272EA
100
AcDbEntity
  8
waku
  6
Continuous
370
     9
100
AcDbLine
 10
23720.48735951842
 20
674.5604977951789
 30
0.0
 11
23724.84239937249
 21
678.9155376490415
 31
0.0
  0
LINE
  5
27899
330
272EA
100
AcDbEntity
  8
waku
  6
Continuous
370
     9
100
AcDbLine
 10
23692.11412789125
 20
652.6169404705122
 30
0.0
 11
23692.12838042499
 21
652.6302465469833
 31
0.0
  0
LINE
  5
2789A
330
272EA
100
AcDbEntity
  8
waku
  6
Continuous
370
     9
100
AcDbLine
 10
23715.41702062549
 20
675.9189424213182
 30
0.0
 11
23723.67547316896
 21
684.1773949648231
 31
0.0
  0
LINE
  5
2789B
330
272EA
100
AcDbEntity
  8
waku
  6
Continuous
370
     9
100
AcDbLine
 10
23710.35113564908
 20
677.2773870474302
 30
0.0
 11
23718.60602505913
 21
685.5353385253201
 31
0.0
  0
LINE
  5
2789C
330
272EA
100
AcDbEntity
  8
waku
  6
Continuous
370
     9
100
AcDbLine
 10
23705.27634283935
 20
678.6361100433678
 30
0.0
 11
23713.53924929962
 21
686.8942842170745
 31
0.0
  0
LINE
  5
2789D
330
272EA
100
AcDbEntity
  8
waku
  6
Continuous
370
     9
100
AcDbLine
 10
23700.20867629635
 20
679.9942762997089
 30
0.0
 11
23708.46445648977
 21
688.2522277775715
 31
0.0
  0
LINE
  5
2789E
330
272EA
100
AcDbEntity
  8
waku
  6
Continuous
370
     9
100
AcDbLine
 10
23695.13655583654
 20
681.3529992956463
 30
0.0
 11
23703.39411759662
 21
689.6111734693532
 31
0.0
  0
LINE
  5
2789F
330
272EA
100
AcDbEntity
  8
waku
  6
Continuous
370
     9
100
AcDbLine
 10
23692.11412789125
 20
684.7581857164696
 30
0.0
 11
23698.32734183705
 21
690.9696180954925
 31
0.0
  0
LINE
  5
278A0
330
272EA
100
AcDbEntity
  8
waku
  6
Continuous
370
     9
100
AcDbLine
 10
23692.11412789125
 20
691.1860784522888
 30
0.0
 11
23693.25789372728
 21
692.3280627216045
 31
0.0
  0
LINE
  5
278A1
330
272EA
100
AcDbEntity
  8
waku
  6
Continuous
370
     9
100
AcDbLine
 10
24085.20524509222
 20
563.5893511453796
 30
0.0
 11
24100.2202894321
 21
578.6061492148527
 31
0.0
  0
LINE
  5
278A2
330
272EA
100
AcDbEntity
  8
waku
  6
Continuous
370
     9
100
AcDbLine
 10
24191.21024666529
 20
669.5894812469086
 30
0.0
 11
24197.93387947703
 21
676.3166771921769
 31
0.0
  0
LINE
  5
278A3
330
272EA
100
AcDbEntity
  8
waku
  6
Continuous
370
     9
100
AcDbLine
 10
24122.62527253782
 20
601.0089610362829
 30
0.0
 11
24130.93271816615
 21
609.3172974480385
 31
0.0
  0
LINE
  5
278A4
330
272EA
100
AcDbEntity
  8
waku
  6
Continuous
370
     9
100
AcDbLine
 10
24085.20524509222
 20
557.1610130178724
 30
0.0
 11
24109.00341337529
 21
580.9591813009737
 31
0.0
  0
LINE
  5
278A5
330
272EA
100
AcDbEntity
  8
waku
  6
Continuous
370
     9
100
AcDbLine
 10
24191.21024666529
 20
663.1611431193741
 30
0.0
 11
24197.93387947703
 21
669.8883390646424
 31
0.0
  0
LINE
  5
278A6
330
272EA
100
AcDbEntity
  8
waku
  6
Continuous
370
     9
100
AcDbLine
 10
24129.05227449024
 20
601.0089610362829
 30
0.0
 11
24131.77985314292
 21
603.7360942971973
 31
0.0
  0
LINE
  5
278A7
330
272EA
100
AcDbEntity
  8
waku
  6
Continuous
370
     9
100
AcDbLine
 10
24155.21101868112
 20
627.1610243518771
 30
0.0
 11
24157.78092867887
 21
629.7362790496809
 31
0.0
  0
LINE
  5
278A8
330
272EA
100
AcDbEntity
  8
waku
  6
Continuous
370
     9
100
AcDbLine
 10
24087.09014268487
 20
552.6162363080366
 30
0.0
 11
24117.78475575207
 21
583.3120463652049
 31
0.0
  0
LINE
  5
278A9
330
272EA
100
AcDbEntity
  8
waku
  6
Continuous
370
     9
100
AcDbLine
 10
24191.21024666529
 20
656.7327493178853
 30
0.0
 11
24197.93387947703
 21
663.4604463288232
 31
0.0
  0
LINE
  5
278AA
330
272EA
100
AcDbEntity
  8
waku
  6
Continuous
370
     9
100
AcDbLine
 10
24135.47927644284
 20
601.0089610362829
 30
0.0
 11
24138.21130901214
 21
603.7360942971973
 31
0.0
  0
LINE
  5
278AB
330
272EA
100
AcDbEntity
  8
waku
  6
Continuous
370
     9
100
AcDbLine
 10
24155.48092603963
 20
621.0092744580523
 30
0.0
 11
24164.20793063124
 21
629.7362790496809
 31
0.0
  0
LINE
  5
278AC
330
272EA
100
AcDbEntity
  8
waku
  6
Continuous
370
     9
100
AcDbLine
 10
24095.8741574118
 20
554.9692683941301
 30
0.0
 11
24126.57144282892
 21
585.6647722445232
 31
0.0
  0
LINE
  5
278AD
330
272EA
100
AcDbEntity
  8
waku
  6
Continuous
370
     9
100
AcDbLine
 10
24191.21024666529
 20
650.3047452341307
 30
0.0
 11
24197.93387947703
 21
657.0321082012887
 31
0.0
  0
LINE
  5
278AE
330
272EA
100
AcDbEntity
  8
waku
  6
Continuous
370
     9
100
AcDbLine
 10
24133.55874751566
 20
592.6578670231775
 30
0.0
 11
24134.63659538289
 21
593.7361602821566
 31
0.0
  0
LINE
  5
278AF
330
272EA
100
AcDbEntity
  8
waku
  6
Continuous
370
     9
100
AcDbLine
 10
24161.90881877556
 20
621.0092744580523
 30
0.0
 11
24170.6376049337
 21
629.7362790496809
 31
0.0
  0
LINE
  5
278B0
330
272EA
100
AcDbEntity
  8
waku
  6
Continuous
370
     9
100
AcDbLine
 10
24141.90984152874
 20
601.0089610362829
 30
0.0
 11
24144.64187409822
 21
603.7360942971973
 31
0.0
  0
LINE
  5
278B1
330
272EA
100
AcDbEntity
  8
waku
  6
Continuous
370
     9
100
AcDbLine
 10
24104.65193665487
 20
557.3222169692926
 30
0.0
 11
24127.93345058849
 21
580.603842250708
 31
0.0
  0
LINE
  5
278B2
330
272EA
100
AcDbEntity
  8
waku
  6
Continuous
370
     9
100
AcDbLine
 10
24191.21024666529
 20
643.8766298024402
 30
0.0
 11
24197.93387947703
 21
650.6037700737542
 31
0.0
  0
LINE
  5
278B3
330
272EA
100
AcDbEntity
  8
waku
  6
Continuous
370
     9
100
AcDbLine
 10
24137.8406856457
 20
590.5090739596617
 30
0.0
 11
24141.06626968552
 21
593.7361602821566
 31
0.0
  0
LINE
  5
278B4
330
272EA
100
AcDbEntity
  8
waku
  6
Continuous
370
     9
100
AcDbLine
 10
24168.33938386134
 20
621.0092744580523
 30
0.0
 11
24177.0646068863
 21
629.7362790496809
 31
0.0
  0
LINE
  5
278B5
330
272EA
100
AcDbEntity
  8
waku
  6
Continuous
370
     9
100
AcDbLine
 10
24148.33684348129
 20
601.0089610362829
 30
0.0
 11
24151.06531291717
 21
603.7360942971973
 31
0.0
  0
LINE
  5
278B6
330
272EA
100
AcDbEntity
  8
waku
  6
Continuous
370
     9
100
AcDbLine
 10
24113.43238824815
 20
559.6752768923907
 30
0.0
 11
24127.93345058849
 21
574.1758938409075
 31
0.0
  0
LINE
  5
278B7
330
272EA
100
AcDbEntity
  8
waku
  6
Continuous
370
     9
100
AcDbLine
 10
24174.76638581383
 20
621.0092744580523
 30
0.0
 11
24197.93387947703
 21
644.1758773379079
 31
0.0
  0
LINE
  5
278B8
330
272EA
100
AcDbEntity
  8
waku
  6
Continuous
370
     9
100
AcDbLine
 10
24141.73727824062
 20
587.9774118102305
 30
0.0
 11
24147.49505320459
 21
593.7361602821566
 31
0.0
  0
LINE
  5
278B9
330
272EA
100
AcDbEntity
  8
waku
  6
Continuous
370
     9
100
AcDbLine
 10
24154.76651778387
 20
601.0089610362829
 30
0.0
 11
24157.49498721969
 21
603.7360942971973
 31
0.0
  0
LINE
  5
278BA
330
272EA
100
AcDbEntity
  8
waku
  6
Continuous
370
     9
100
AcDbLine
 10
24122.21551219158
 20
562.0278357498462
 30
0.0
 11
24127.93345058849
 21
567.7470824847076
 31
0.0
  0
LINE
  5
278BB
330
272EA
100
AcDbEntity
  8
waku
  6
Continuous
370
     9
100
AcDbLine
 10
24181.19516933314
 20
621.0092744580523
 30
0.0
 11
24197.93387947703
 21
637.7470938187124
 31
0.0
  0
LINE
  5
278BC
330
272EA
100
AcDbEntity
  8
waku
  6
Continuous
370
     9
100
AcDbLine
 10
24145.63316899288
 20
585.446205656277
 30
0.0
 11
24152.24560087093
 21
592.0592049303523
 31
0.0
  0
LINE
  5
278BD
330
272EA
100
AcDbEntity
  8
waku
  6
Continuous
370
     9
100
AcDbLine
 10
24161.19619208638
 20
601.0089610362829
 30
0.0
 11
24163.92198917223
 21
603.7360942971973
 31
0.0
  0
LINE
  5
278BE
330
272EA
100
AcDbEntity
  8
waku
  6
Continuous
370
     9
100
AcDbLine
 10
24149.52891413553
 20
582.9150941065891
 30
0.0
 11
24155.90672048635
 21
589.2929328754926
 31
0.0
  0
LINE
  5
278BF
330
272EA
100
AcDbEntity
  8
waku
  6
Continuous
370
     9
100
AcDbLine
 10
24167.62230325549
 20
601.0089610362829
 30
0.0
 11
24170.3498819081
 21
603.7360942971973
 31
0.0
  0
LINE
  5
278C0
330
272EA
100
AcDbEntity
  8
waku
  6
Continuous
370
     9
100
AcDbLine
 10
24153.42616461194
 20
580.3830045238063
 30
0.0
 11
24159.75134147424
 21
586.7074341690531
 31
0.0
  0
LINE
  5
278C1
330
272EA
100
AcDbEntity
  8
waku
  6
Continuous
370
     9
100
AcDbLine
 10
24174.05197755794
 20
601.0089610362829
 30
0.0
 11
24176.77688386047
 21
603.7360942971973
 31
0.0
  0
LINE
  5
278C2
330
272EA
100
AcDbEntity
  8
waku
  6
Continuous
370
     9
100
AcDbLine
 10
24157.32290180511
 20
577.8512484272105
 30
0.0
 11
24163.77946383436
 21
584.3098350778801
 31
0.0
  0
LINE
  5
278C3
330
272EA
100
AcDbEntity
  8
waku
  6
Continuous
370
     9
100
AcDbLine
 10
24180.4807610772
 20
601.0089610362829
 30
0.0
 11
24183.20655816304
 21
603.7360942971973
 31
0.0
  0
LINE
  5
278C4
330
272EA
100
AcDbEntity
  8
waku
  6
Continuous
370
     9
100
AcDbLine
 10
24161.2196421324
 20
575.3194902943196
 30
0.0
 11
24168.00444931758
 21
582.108291837163
 31
0.0
  0
LINE
  5
278C5
330
272EA
100
AcDbEntity
  8
waku
  6
Continuous
370
     9
100
AcDbLine
 10
24186.90954459639
 20
601.0089610362829
 30
0.0
 11
24189.63623246568
 21
603.7360942971973
 31
0.0
  0
LINE
  5
278C6
330
272EA
100
AcDbEntity
  8
waku
  6
Continuous
370
     9
100
AcDbLine
 10
24165.11487287569
 20
572.7887129559129
 30
0.0
 11
24172.43965967384
 21
580.1125195529457
 31
0.0
  0
LINE
  5
278C7
330
272EA
100
AcDbEntity
  8
waku
  6
Continuous
370
     9
100
AcDbLine
 10
24254.29730588611
 20
661.9696646995416
 30
0.0
 11
24283.46155313833
 21
691.1353038007164
 31
0.0
  0
LINE
  5
278C8
330
272EA
100
AcDbEntity
  8
waku
  6
Continuous
370
     9
100
AcDbLine
 10
24175.20821436122
 20
582.8792926734204
 30
0.0
 11
24179.06619709928
 21
586.7363846282897
 31
0.0
  0
LINE
  5
278C9
330
272EA
100
AcDbEntity
  8
waku
  6
Continuous
370
     9
100
AcDbLine
 10
24193.34189124906
 20
601.0089610362829
 30
0.0
 11
24196.06323441817
 21
603.7360942971973
 31
0.0
  0
LINE
  5
278CA
330
272EA
100
AcDbEntity
  8
waku
  6
Continuous
370
     9
100
AcDbLine
 10
24169.01128865389
 20
570.25716568644
 30
0.0
 11
24185.49319905188
 21
586.7363846282897
 31
0.0
  0
LINE
  5
278CB
330
272EA
100
AcDbEntity
  8
waku
  6
Continuous
370
     9
100
AcDbLine
 10
24280.56472564698
 20
681.8079668974732
 30
0.0
 11
24287.3177543098
 21
688.5640576280239
 31
0.0
  0
LINE
  5
278CC
330
272EA
100
AcDbEntity
  8
waku
  6
Continuous
370
     9
100
AcDbLine
 10
24172.91077605391
 20
567.7236227480042
 30
0.0
 11
24187.93216389528
 21
582.749683694361
 31
0.0
  0
LINE
  5
278CD
330
272EA
100
AcDbEntity
  8
waku
  6
Continuous
370
     9
100
AcDbLine
 10
24284.42270838528
 20
679.2366650508264
 30
0.0
 11
24291.17484626459
 21
685.9919206719824
 31
0.0
  0
LINE
  5
278CE
330
272EA
100
AcDbEntity
  8
waku
  6
Continuous
370
     9
100
AcDbLine
 10
24176.80693691922
 20
565.1922410984171
 30
0.0
 11
24187.93216389528
 21
576.3213455668265
 31
0.0
  0
LINE
  5
278CF
330
272EA
100
AcDbEntity
  8
waku
  6
Continuous
370
     9
100
AcDbLine
 10
24288.27623720659
 20
676.665363204207
 30
0.0
 11
24295.03639213642
 21
683.4206744993171
 31
0.0
  0
LINE
  5
278D0
330
272EA
100
AcDbEntity
  8
waku
  6
Continuous
370
     9
100
AcDbLine
 10
24180.70119776938
 20
562.6620939110815
 30
0.0
 11
24192.59096087539
 21
574.5509414730312
 31
0.0
  0
LINE
  5
278D1
330
272EA
100
AcDbEntity
  8
waku
  6
Continuous
370
     9
100
AcDbLine
 10
24292.13332916162
 20
674.0936716398537
 30
0.0
 11
24298.890811741
 21
680.8494283266517
 31
0.0
  0
LINE
  5
278D2
330
272EA
100
AcDbEntity
  8
waku
  6
Continuous
370
     9
100
AcDbLine
 10
24184.59851207852
 20
560.1299628554223
 30
0.0
 11
24197.93387947703
 21
573.4647425117383
 31
0.0
  0
LINE
  5
278D3
330
272EA
100
AcDbEntity
  8
waku
  6
Continuous
370
     9
100
AcDbLine
 10
24295.99398424983
 20
671.5224811411426
 30
0.0
 11
24302.74612212914
 21
678.2781821539592
 31
0.0
  0
LINE
  5
278D4
330
272EA
100
AcDbEntity
  8
waku
  6
Continuous
370
     9
100
AcDbLine
 10
24254.29730588611
 20
629.828475127566
 30
0.0
 11
24258.20606327598
 21
633.7363417340075
 31
0.0
  0
LINE
  5
278D5
330
272EA
100
AcDbEntity
  8
waku
  6
Continuous
370
     9
100
AcDbLine
 10
24188.49453073641
 20
557.5986735996738
 30
0.0
 11
24197.93387947703
 21
567.036710590979
 31
0.0
  0
LINE
  5
278D6
330
272EA
100
AcDbEntity
  8
waku
  6
Continuous
370
     9
100
AcDbLine
 10
24322.29703534511
 20
691.3998664590381
 30
0.0
 11
24324.63801401889
 21
693.7368366076551
 31
0.0
  0
LINE
  5
278D7
330
272EA
100
AcDbEntity
  8
waku
  6
Continuous
370
     9
100
AcDbLine
 10
24258.90621899802
 20
628.0089944379652
 30
0.0
 11
24264.6321744452
 21
633.7363417340075
 31
0.0
  0
LINE
  5
278D8
330
272EA
100
AcDbEntity
  8
waku
  6
Continuous
370
     9
100
AcDbLine
 10
24299.84840385453
 20
668.9512349684499
 30
0.0
 11
24306.603214084
 21
675.7069359812938
 31
0.0
  0
LINE
  5
278D9
330
272EA
100
AcDbEntity
  8
waku
  6
Continuous
370
     9
100
AcDbLine
 10
24192.39371447253
 20
555.0653279552498
 30
0.0
 11
24197.93387947703
 21
560.6083724634718
 31
0.0
  0
LINE
  5
278DA
330
272EA
100
AcDbEntity
  8
waku
  6
Continuous
370
     9
100
AcDbLine
 10
24322.29703534511
 20
684.9719737231915
 30
0.0
 11
24331.06501597137
 21
693.7368366076551
 31
0.0
  0
LINE
  5
278DB
330
272EA
100
AcDbEntity
  8
waku
  6
Continuous
370
     9
100
AcDbLine
 10
24265.33945643401
 20
628.0089944379652
 30
0.0
 11
24271.06006718101
 21
633.7363417340075
 31
0.0
  0
LINE
  5
278DC
330
272EA
100
AcDbEntity
  8
waku
  6
Continuous
370
     9
100
AcDbLine
 10
24303.7037142428
 20
666.3799887957848
 30
0.0
 11
24307.0245546141
 21
669.6992702962014
 31
0.0
  0
LINE
  5
278DD
330
272EA
100
AcDbEntity
  8
waku
  6
Continuous
370
     9
100
AcDbLine
 10
24195.58042983629
 20
551.8283384248532
 30
0.0
 11
24197.93387947703
 21
554.1800343359373
 31
0.0
  0
LINE
  5
278DE
330
272EA
100
AcDbEntity
  8
waku
  6
Continuous
370
     9
100
AcDbLine
 10
24328.76234098209
 20
685.0089412326777
 30
0.0
 11
24337.48845479044
 21
693.7368366076551
 31
0.0
  0
LINE
  5
278DF
330
272EA
100
AcDbEntity
  8
waku
  6
Continuous
370
     9
100
AcDbLine
 10
24271.76645838656
 20
628.0089944379652
 30
0.0
 11
24277.48974148359
 21
633.7363417340075
 31
0.0
  0
LINE
  5
278E0
330
272EA
100
AcDbEntity
  8
waku
  6
Continuous
370
     9
100
AcDbLine
 10
24322.29703534511
 20
678.5436355956845
 30
0.0
 11
24325.02283243096
 21
681.2707688565986
 31
0.0
  0
LINE
  5
278E1
330
272EA
100
AcDbEntity
  8
waku
  6
Continuous
370
     9
100
AcDbLine
 10
24254.29730588611
 20
604.1155680091431
 30
0.0
 11
24256.92244445218
 21
606.7366980500593
 31
0.0
  0
LINE
  5
278E2
330
272EA
100
AcDbEntity
  8
waku
  6
Continuous
370
     9
100
AcDbLine
 10
24335.18934293458
 20
685.0089412326777
 30
0.0
 11
24343.9181290929
 21
693.7368366076551
 31
0.0
  0
LINE
  5
278E3
330
272EA
100
AcDbEntity
  8
waku
  6
Continuous
370
     9
100
AcDbLine
 10
24277.29555071076
 20
627.1155944004257
 30
0.0
 11
24283.91763421946
 21
633.7363417340075
 31
0.0
  0
LINE
  5
278E4
330
272EA
100
AcDbEntity
  8
waku
  6
Continuous
370
     9
100
AcDbLine
 10
24322.29703534511
 20
672.1152974681498
 30
0.0
 11
24325.02283243096
 21
674.8428761207524
 31
0.0
  0
LINE
  5
278E5
330
272EA
100
AcDbEntity
  8
waku
  6
Continuous
370
     9
100
AcDbLine
 10
24257.61992782413
 20
601.0089610362829
 30
0.0
 11
24263.34410170454
 21
606.7366980500593
 31
0.0
  0
LINE
  5
278E6
330
272EA
100
AcDbEntity
  8
waku
  6
Continuous
370
     9
100
AcDbLine
 10
24341.62525272067
 20
685.0089412326777
 30
0.0
 11
24350.3451310455
 21
693.7368366076551
 31
0.0
  0
LINE
  5
278E7
330
272EA
100
AcDbEntity
  8
waku
  6
Continuous
370
     9
100
AcDbLine
 10
24277.29555071076
 20
620.6872562729186
 30
0.0
 11
24284.02363743924
 21
627.4144522181869
 31
0.0
  0
LINE
  5
278E8
330
272EA
100
AcDbEntity
  8
waku
  6
Continuous
370
     9
100
AcDbLine
 10
24322.29703534511
 20
665.6874047323034
 30
0.0
 11
24325.02283243096
 21
668.4145379932179
 31
0.0
  0
LINE
  5
278E9
330
272EA
100
AcDbEntity
  8
waku
  6
Continuous
370
     9
100
AcDbLine
 10
24284.62046229153
 20
628.0089944379652
 30
0.0
 11
24290.34463617183
 21
633.7363417340075
 31
0.0
  0
LINE
  5
278EA
330
272EA
100
AcDbEntity
  8
waku
  6
Continuous
370
     9
100
AcDbLine
 10
24264.04692977667
 20
601.0089610362829
 30
0.0
 11
24269.77110365697
 21
606.7366980500593
 31
0.0
  0
LINE
  5
278EB
330
272EA
100
AcDbEntity
  8
waku
  6
Continuous
370
     9
100
AcDbLine
 10
24348.05047310662
 20
685.0089412326777
 30
0.0
 11
24356.77480534802
 21
693.7368366076551
 31
0.0
  0
LINE
  5
278EC
330
272EA
100
AcDbEntity
  8
waku
  6
Continuous
370
     9
100
AcDbLine
 10
24277.29555071076
 20
614.2593635370722
 30
0.0
 11
24284.02363743924
 21
620.9860027427439
 31
0.0
  0
LINE
  5
278ED
330
272EA
100
AcDbEntity
  8
waku
  6
Continuous
370
     9
100
AcDbLine
 10
24322.29703534511
 20
659.259066604769
 30
0.0
 11
24325.02283243096
 21
661.9866452573715
 31
0.0
  0
LINE
  5
278EE
330
272EA
100
AcDbEntity
  8
waku
  6
Continuous
370
     9
100
AcDbLine
 10
24291.0474642439
 20
628.0089944379652
 30
0.0
 11
24296.77341969102
 21
633.7363417340075
 31
0.0
  0
LINE
  5
278EF
330
272EA
100
AcDbEntity
  8
waku
  6
Continuous
370
     9
100
AcDbLine
 10
24270.47482251254
 20
601.0089610362829
 30
0.0
 11
24276.2034503097
 21
606.7366980500593
 31
0.0
  0
LINE
  5
278F0
330
272EA
100
AcDbEntity
  8
waku
  6
Continuous
370
     9
100
AcDbLine
 10
24354.47302114218
 20
685.0089412326777
 30
0.0
 11
24363.20002573379
 21
693.7368366076551
 31
0.0
  0
LINE
  5
278F1
330
272EA
100
AcDbEntity
  8
waku
  6
Continuous
370
     9
100
AcDbLine
 10
24277.29555071076
 20
607.8305800178497
 30
0.0
 11
24284.02363743924
 21
614.558499724604
 31
0.0
  0
LINE
  5
278F2
330
272EA
100
AcDbEntity
  8
waku
  6
Continuous
370
     9
100
AcDbLine
 10
24322.29703534511
 20
652.8306171293261
 30
0.0
 11
24325.02283243096
 21
655.5578617381761
 31
0.0
  0
LINE
  5
278F3
330
272EA
100
AcDbEntity
  8
waku
  6
Continuous
370
     9
100
AcDbLine
 10
24297.4744661965
 20
628.0089944379652
 30
0.0
 11
24303.201312427
 21
633.7363417340075
 31
0.0
  0
LINE
  5
278F4
330
272EA
100
AcDbEntity
  8
waku
  6
Continuous
370
     9
100
AcDbLine
 10
24276.90449681517
 20
601.0089610362829
 30
0.0
 11
24284.02363743924
 21
608.1303286189595
 31
0.0
  0
LINE
  5
278F5
330
272EA
100
AcDbEntity
  8
waku
  6
Continuous
370
     9
100
AcDbLine
 10
24360.90358622809
 20
685.0089412326777
 30
0.0
 11
24369.62970003631
 21
693.7368366076551
 31
0.0
  0
LINE
  5
278F6
330
272EA
100
AcDbEntity
  8
waku
  6
Continuous
370
     9
100
AcDbLine
 10
24303.90414049896
 20
628.0089944379652
 30
0.0
 11
24307.0245546141
 21
631.1294642268931
 31
0.0
  0
LINE
  5
278F7
330
272EA
100
AcDbEntity
  8
waku
  6
Continuous
370
     9
100
AcDbLine
 10
24342.15705038747
 20
666.2628507837471
 30
0.0
 11
24344.63075578213
 21
668.7365561783517
 31
0.0
  0
LINE
  5
278F8
330
272EA
100
AcDbEntity
  8
waku
  6
Continuous
370
     9
100
AcDbLine
 10
24322.29703534511
 20
646.4022790018189
 30
0.0
 11
24325.02283243096
 21
649.1295236106416
 31
0.0
  0
LINE
  5
278F9
330
272EA
100
AcDbEntity
  8
waku
  6
Continuous
370
     9
100
AcDbLine
 10
24254.29730588611
 20
571.9743227632132
 30
0.0
 11
24256.05838459166
 21
573.7362922520477
 31
0.0
  0
LINE
  5
278FA
330
272EA
100
AcDbEntity
  8
waku
  6
Continuous
370
     9
100
AcDbLine
 10
24367.33236974728
 20
685.0089412326777
 30
0.0
 11
24376.05848355551
 21
693.7368366076551
 31
0.0
  0
LINE
  5
278FB
330
272EA
100
AcDbEntity
  8
waku
  6
Continuous
370
     9
100
AcDbLine
 10
24277.29555071076
 20
594.9742934805143
 30
0.0
 11
24289.05745421467
 21
606.7366980500593
 31
0.0
  0
LINE
  5
278FC
330
272EA
100
AcDbEntity
  8
waku
  6
Continuous
370
     9
100
AcDbLine
 10
24343.27231115604
 20
660.9484372496681
 30
0.0
 11
24347.04834182496
 21
664.725804093674
 31
0.0
  0
LINE
  5
278FD
330
272EA
100
AcDbEntity
  8
waku
  6
Continuous
370
     9
100
AcDbLine
 10
24322.29703534511
 20
639.9744976138808
 30
0.0
 11
24325.02283243096
 21
642.7016308747952
 31
0.0
  0
LINE
  5
278FE
330
272EA
100
AcDbEntity
  8
waku
  6
Continuous
370
     9
100
AcDbLine
 10
24254.29730588611
 20
565.5459846356789
 30
0.0
 11
24262.48627732741
 21
573.7362922520477
 31
0.0
  0
LINE
  5
278FF
330
272EA
100
AcDbEntity
  8
waku
  6
Continuous
370
     9
100
AcDbLine
 10
24373.757590133
 20
685.0089412326777
 30
0.0
 11
24382.48637629138
 21
693.7368366076551
 31
0.0
  0
LINE
  5
27900
330
272EA
100
AcDbEntity
  8
waku
  6
Continuous
370
     9
100
AcDbLine
 10
24277.29555071076
 20
588.5459553530072
 30
0.0
 11
24284.02363743924
 21
595.2732069722295
 31
0.0
  0
LINE
  5
27901
330
272EA
100
AcDbEntity
  8
waku
  6
Continuous
370
     9
100
AcDbLine
 10
24344.38579035783
 20
655.6344691072498
 30
0.0
 11
24348.1618210267
 21
659.4122813429438
 31
0.0
  0
LINE
  5
27902
330
272EA
100
AcDbEntity
  8
waku
  6
Continuous
370
     9
100
AcDbLine
 10
24289.76206385356
 20
601.0089610362829
 30
0.0
 11
24295.48712851713
 21
606.7366980500593
 31
0.0
  0
LINE
  5
27903
330
272EA
100
AcDbEntity
  8
waku
  6
Continuous
370
     9
100
AcDbLine
 10
24322.29703534511
 20
633.5461594863735
 30
0.0
 11
24325.02283243096
 21
636.2735711170862
 31
0.0
  0
LINE
  5
27904
330
272EA
100
AcDbEntity
  8
waku
  6
Continuous
370
     9
100
AcDbLine
 10
24254.29730588611
 20
559.1176465081444
 30
0.0
 11
24268.9159516301
 21
573.7362922520477
 31
0.0
  0
LINE
  5
27905
330
272EA
100
AcDbEntity
  8
waku
  6
Continuous
370
     9
100
AcDbLine
 10
24380.18726443563
 20
685.0089412326777
 30
0.0
 11
24388.91694137745
 21
693.7368366076551
 31
0.0
  0
LINE
  5
27906
330
272EA
100
AcDbEntity
  8
waku
  6
Continuous
370
     9
100
AcDbLine
 10
24277.29555071076
 20
582.1176728994543
 30
0.0
 11
24284.02363743924
 21
588.8448688447223
 31
0.0
  0
LINE
  5
27907
330
272EA
100
AcDbEntity
  8
waku
  6
Continuous
370
     9
100
AcDbLine
 10
24345.49926955952
 20
650.3205009648318
 30
0.0
 11
24349.27440944506
 21
654.0978678088377
 31
0.0
  0
LINE
  5
27908
330
272EA
100
AcDbEntity
  8
waku
  6
Continuous
370
     9
100
AcDbLine
 10
24296.1881750226
 20
601.0089610362829
 30
0.0
 11
24301.91502125311
 21
606.7366980500593
 31
0.0
  0
LINE
  5
27909
330
272EA
100
AcDbEntity
  8
waku
  6
Continuous
370
     9
100
AcDbLine
 10
24322.29703534511
 20
627.1178213588391
 30
0.0
 11
24325.02283243096
 21
629.8449546197534
 31
0.0
  0
LINE
  5
2790A
330
272EA
100
AcDbEntity
  8
waku
  6
Continuous
370
     9
100
AcDbLine
 10
24254.29730588611
 20
552.6897259353481
 30
0.0
 11
24275.34295358247
 21
573.7362922520477
 31
0.0
  0
LINE
  5
2790B
330
272EA
100
AcDbEntity
  8
waku
  6
Continuous
370
     9
100
AcDbLine
 10
24386.61693873833
 20
685.0089412326777
 30
0.0
 11
24395.34394332982
 21
693.7368366076551
 31
0.0
  0
LINE
  5
2790C
330
272EA
100
AcDbEntity
  8
waku
  6
Continuous
370
     9
100
AcDbLine
 10
24277.29555071076
 20
575.6893347719198
 30
0.0
 11
24284.02363743924
 21
582.416976108876
 31
0.0
  0
LINE
  5
2790D
330
272EA
100
AcDbEntity
  8
waku
  6
Continuous
370
     9
100
AcDbLine
 10
24346.61274876131
 20
645.0065328224136
 30
0.0
 11
24350.39145178022
 21
648.7846234279059
 31
0.0
  0
LINE
  5
2790E
330
272EA
100
AcDbEntity
  8
waku
  6
Continuous
370
     9
100
AcDbLine
 10
24302.61517697514
 20
601.0089610362829
 30
0.0
 11
24307.0245546141
 21
605.4170025001584
 31
0.0
  0
LINE
  5
2790F
330
272EA
100
AcDbEntity
  8
waku
  6
Continuous
370
     9
100
AcDbLine
 10
24322.29703534511
 20
620.6894832313046
 30
0.0
 11
24325.02283243096
 21
623.4166164922188
 31
0.0
  0
LINE
  5
27910
330
272EA
100
AcDbEntity
  8
waku
  6
Continuous
370
     9
100
AcDbLine
 10
24259.04874433589
 20
551.0088455693638
 30
0.0
 11
24284.02363743924
 21
575.9885823073871
 31
0.0
  0
LINE
  5
27911
330
272EA
100
AcDbEntity
  8
waku
  6
Continuous
370
     9
100
AcDbLine
 10
24393.04483147408
 20
685.0089412326777
 30
0.0
 11
24396.02450181789
 21
687.9885559025987
 31
0.0
  0
LINE
  5
27912
330
272EA
100
AcDbEntity
  8
waku
  6
Continuous
370
     9
100
AcDbLine
 10
24322.29703534511
 20
614.2611451037972
 30
0.0
 11
24325.02283243096
 21
616.9882783647117
 31
0.0
  0
LINE
  5
27913
330
272EA
100
AcDbEntity
  8
waku
  6
Continuous
370
     9
100
AcDbLine
 10
24370.87857830903
 20
662.8417972843143
 30
0.0
 11
24376.65619919106
 21
668.6234266914797
 31
0.0
  0
LINE
  5
27914
330
272EA
100
AcDbEntity
  8
waku
  6
Continuous
370
     9
100
AcDbLine
 10
24341.04357118573
 20
633.0090171194532
 30
0.0
 11
24345.77184926812
 21
637.7363487444072
 31
0.0
  0
LINE
  5
27915
330
272EA
100
AcDbEntity
  8
waku
  6
Continuous
370
     9
100
AcDbLine
 10
24347.72800952964
 20
639.6925646799955
 30
0.0
 11
24351.50404019863
 21
643.4699315240012
 31
0.0
  0
LINE
  5
27916
330
272EA
100
AcDbEntity
  8
waku
  6
Continuous
370
     9
100
AcDbLine
 10
24265.47307393839
 20
551.0088455693638
 30
0.0
 11
24288.19962983765
 21
573.7362922520477
 31
0.0
  0
LINE
  5
27917
330
272EA
100
AcDbEntity
  8
waku
  6
Continuous
370
     9
100
AcDbLine
 10
24393.29781394877
 20
678.8331401881314
 30
0.0
 11
24396.02450181789
 21
681.5607188407339
 31
0.0
  0
LINE
  5
27918
330
272EA
100
AcDbEntity
  8
waku
  6
Continuous
370
     9
100
AcDbLine
 10
24322.29703534511
 20
607.8328069762627
 30
0.0
 11
24325.02283243096
 21
610.5603856288653
 31
0.0
  0
LINE
  5
27919
330
272EA
100
AcDbEntity
  8
waku
  6
Continuous
370
     9
100
AcDbLine
 10
24369.17718208872
 20
654.7080544114087
 30
0.0
 11
24374.95302140404
 21
660.489739492501
 31
0.0
  0
LINE
  5
2791A
330
272EA
100
AcDbEntity
  8
waku
  6
Continuous
370
     9
100
AcDbLine
 10
24347.47235470492
 20
633.0090171194532
 30
0.0
 11
24352.61751940043
 21
638.1564087732712
 31
0.0
  0
LINE
  5
2791B
330
272EA
100
AcDbEntity
  8
waku
  6
Continuous
370
     9
100
AcDbLine
 10
24271.90274824086
 20
551.0088455693638
 30
0.0
 11
24294.62930414011
 21
573.7362922520477
 31
0.0
  0
LINE
  5
2791C
330
272EA
100
AcDbEntity
  8
waku
  6
Continuous
370
     9
100
AcDbLine
 10
24393.29781394877
 20
672.4048020605968
 30
0.0
 11
24396.02450181789
 21
675.1320466694468
 31
0.0
  0
LINE
  5
2791D
330
272EA
100
AcDbEntity
  8
waku
  6
Continuous
370
     9
100
AcDbLine
 10
24302.29716731497
 20
581.4050462103351
 30
0.0
 11
24307.0245546141
 21
586.1319881175822
 31
0.0
  0
LINE
  5
2791E
330
272EA
100
AcDbEntity
  8
waku
  6
Continuous
370
     9
100
AcDbLine
 10
24367.46687803493
 20
646.5747569301639
 30
0.0
 11
24373.24984361709
 21
652.3561636414852
 31
0.0
  0
LINE
  5
2791F
330
272EA
100
AcDbEntity
  8
waku
  6
Continuous
370
     9
100
AcDbLine
 10
24322.29703534511
 20
601.4049142404163
 30
0.0
 11
24325.02283243096
 21
604.1320475013307
 31
0.0
  0
LINE
  5
27920
330
272EA
100
AcDbEntity
  8
waku
  6
Continuous
370
     9
100
AcDbLine
 10
24353.90113822418
 20
633.0090171194532
 30
0.0
 11
24358.6338702233
 21
637.7363487444072
 31
0.0
  0
LINE
  5
27921
330
272EA
100
AcDbEntity
  8
waku
  6
Continuous
370
     9
100
AcDbLine
 10
24278.32707784331
 20
551.0088455693638
 30
0.0
 11
24301.05541530921
 21
573.7362922520477
 31
0.0
  0
LINE
  5
27922
330
272EA
100
AcDbEntity
  8
waku
  6
Continuous
370
     9
100
AcDbLine
 10
24393.29781394877
 20
665.9764639330624
 30
0.0
 11
24396.02450181789
 21
668.7036528679582
 31
0.0
  0
LINE
  5
27923
330
272EA
100
AcDbEntity
  8
waku
  6
Continuous
370
     9
100
AcDbLine
 10
24302.29716731497
 20
574.9771534744885
 30
0.0
 11
24307.0245546141
 21
579.7040953817357
 31
0.0
  0
LINE
  5
27924
330
272EA
100
AcDbEntity
  8
waku
  6
Continuous
370
     9
100
AcDbLine
 10
24365.76013711444
 20
638.4414594489189
 30
0.0
 11
24371.54043034668
 21
644.2221980727081
 31
0.0
  0
LINE
  5
27925
330
272EA
100
AcDbEntity
  8
waku
  6
Continuous
370
     9
100
AcDbLine
 10
24322.29703534511
 20
594.9765761128818
 30
0.0
 11
24325.02283243096
 21
597.7037093738235
 31
0.0
  0
LINE
  5
27926
330
272EA
100
AcDbEntity
  8
waku
  6
Continuous
370
     9
100
AcDbLine
 10
24360.32992174337
 20
633.0090171194532
 30
0.0
 11
24365.05552747556
 21
637.7363487444072
 31
0.0
  0
LINE
  5
27927
330
272EA
100
AcDbEntity
  8
waku
  6
Continuous
370
     9
100
AcDbLine
 10
24284.7576429291
 20
551.0088455693638
 30
0.0
 11
24307.0245546141
 21
573.2757572542014
 31
0.0
  0
LINE
  5
27928
330
272EA
100
AcDbEntity
  8
waku
  6
Continuous
370
     9
100
AcDbLine
 10
24393.29781394877
 20
659.5481814795093
 30
0.0
 11
24396.02450181789
 21
662.2757044581576
 31
0.0
  0
LINE
  5
27929
330
272EA
100
AcDbEntity
  8
waku
  6
Continuous
370
     9
100
AcDbLine
 10
24322.29703534511
 20
588.5482379853747
 30
0.0
 11
24325.02283243096
 21
591.2757609640229
 31
0.0
  0
LINE
  5
2792A
330
272EA
100
AcDbEntity
  8
waku
  6
Continuous
370
     9
100
AcDbLine
 10
24366.75781447923
 20
633.0090171194532
 30
0.0
 11
24371.48520177812
 21
637.7363487444072
 31
0.0
  0
LINE
  5
2792B
330
272EA
100
AcDbEntity
  8
waku
  6
Continuous
370
     9
100
AcDbLine
 10
24340.79415184463
 20
607.0480268348692
 30
0.0
 11
24342.52583469922
 21
608.7757011642914
 31
0.0
  0
LINE
  5
2792C
330
272EA
100
AcDbEntity
  8
waku
  6
Continuous
370
     9
100
AcDbLine
 10
24291.19533428195
 20
551.0177534029626
 30
0.0
 11
24307.01564678032
 21
566.8385112930682
 31
0.0
  0
LINE
  5
2792D
330
272EA
100
AcDbEntity
  8
waku
  6
Continuous
370
     9
100
AcDbLine
 10
24393.29781394877
 20
653.1202330697087
 30
0.0
 11
24396.02450181789
 21
655.8473663306231
 31
0.0
  0
LINE
  5
2792E
330
272EA
100
AcDbEntity
  8
waku
  6
Continuous
370
     9
100
AcDbLine
 10
24322.29703534511
 20
582.1203452495283
 30
0.0
 11
24325.02283243096
 21
584.8474228364883
 31
0.0
  0
LINE
  5
2792F
330
272EA
100
AcDbEntity
  8
waku
  6
Continuous
370
     9
100
AcDbLine
 10
24373.18659799849
 20
633.0090171194532
 30
0.0
 11
24377.523822185
 21
637.3470764154862
 31
0.0
  0
LINE
  5
27930
330
272EA
100
AcDbEntity
  8
waku
  6
Continuous
370
     9
100
AcDbLine
 10
24340.79415184463
 20
600.6201340990227
 30
0.0
 11
24342.52583469922
 21
602.3473630367844
 31
0.0
  0
LINE
  5
27931
330
272EA
100
AcDbEntity
  8
waku
  6
Continuous
370
     9
100
AcDbLine
 10
24322.29703534511
 20
575.6915338933286
 30
0.0
 11
24325.02283243096
 21
578.4191403829354
 31
0.0
  0
LINE
  5
27932
330
272EA
100
AcDbEntity
  8
waku
  6
Continuous
370
     9
100
AcDbLine
 10
24393.29781394877
 20
646.6918392682202
 30
0.0
 11
24396.02450181789
 21
649.4190282031159
 31
0.0
  0
LINE
  5
27933
330
272EA
100
AcDbEntity
  8
waku
  6
Continuous
370
     9
100
AcDbLine
 10
24340.79415184463
 20
594.1917959714883
 30
0.0
 11
24342.52583469922
 21
595.9190249092499
 31
0.0
  0
LINE
  5
27934
330
272EA
100
AcDbEntity
  8
waku
  6
Continuous
370
     9
100
AcDbLine
 10
24322.29703534511
 20
569.2642535710603
 30
0.0
 11
24325.02283243096
 21
571.9908022554007
 31
0.0
  0
LINE
  5
27935
330
272EA
100
AcDbEntity
  8
waku
  6
Continuous
370
     9
100
AcDbLine
 10
24393.29781394877
 20
640.2635011406855
 30
0.0
 11
24396.02450181789
 21
642.9906900755812
 31
0.0
  0
LINE
  5
27936
330
272EA
100
AcDbEntity
  8
waku
  6
Continuous
370
     9
100
AcDbLine
 10
24340.79415184463
 20
587.7634578439811
 30
0.0
 11
24342.52583469922
 21
589.4911321734033
 31
0.0
  0
LINE
  5
27937
330
272EA
100
AcDbEntity
  8
waku
  6
Continuous
370
     9
100
AcDbLine
 10
24322.29703534511
 20
562.8353308669519
 30
0.0
 11
24325.02283243096
 21
565.5624641278664
 31
0.0
  0
LINE
  5
27938
330
272EA
100
AcDbEntity
  8
waku
  6
Continuous
370
     9
100
AcDbLine
 10
24393.29781394877
 20
633.8351630131782
 30
0.0
 11
24396.02450181789
 21
636.5623519480467
 31
0.0
  0
LINE
  5
27939
330
272EA
100
AcDbEntity
  8
waku
  6
Continuous
370
     9
100
AcDbLine
 10
24340.79415184463
 20
581.3355651081345
 30
0.0
 11
24342.52583469922
 21
583.0627940458962
 31
0.0
  0
LINE
  5
2793A
330
272EA
100
AcDbEntity
  8
waku
  6
Continuous
370
     9
100
AcDbLine
 10
24322.29703534511
 20
556.4069927394448
 30
0.0
 11
24325.02283243096
 21
559.1347105769328
 31
0.0
  0
LINE
  5
2793B
330
272EA
100
AcDbEntity
  8
waku
  6
Continuous
370
     9
100
AcDbLine
 10
24393.29781394877
 20
627.4068248856438
 30
0.0
 11
24396.02450181789
 21
630.1344592122005
 31
0.0
  0
LINE
  5
2793C
330
272EA
100
AcDbEntity
  8
waku
  6
Continuous
370
     9
100
AcDbLine
 10
24340.79415184463
 20
574.9076723722883
 30
0.0
 11
24343.62506136706
 21
577.7369116759983
 31
0.0
  0
LINE
  5
2793D
330
272EA
100
AcDbEntity
  8
waku
  6
Continuous
370
     9
100
AcDbLine
 10
24323.3267809109
 20
551.0088455693638
 30
0.0
 11
24325.02283243096
 21
552.7062332644853
 31
0.0
  0
LINE
  5
2793E
330
272EA
100
AcDbEntity
  8
waku
  6
Continuous
370
     9
100
AcDbLine
 10
24393.29781394877
 20
620.9792105195957
 30
0.0
 11
24396.02450181789
 21
623.7061210846659
 31
0.0
  0
LINE
  5
2793F
330
272EA
100
AcDbEntity
  8
waku
  6
Continuous
370
     9
100
AcDbLine
 10
24340.79415184463
 20
568.4788888530928
 30
0.0
 11
24350.05740801967
 21
577.7369116759983
 31
0.0
  0
LINE
  5
27940
330
272EA
100
AcDbEntity
  8
waku
  6
Continuous
370
     9
100
AcDbLine
 10
24375.79748403066
 20
603.4786579057489
 30
0.0
 11
24377.523822185
 21
605.2058868435104
 31
0.0
  0
LINE
  5
27941
330
272EA
100
AcDbEntity
  8
waku
  6
Continuous
370
     9
100
AcDbLine
 10
24345.75581516756
 20
567.0091241437567
 30
0.0
 11
24356.48708232224
 21
577.7369116759983
 31
0.0
  0
LINE
  5
27942
330
272EA
100
AcDbEntity
  8
waku
  6
Continuous
370
     9
100
AcDbLine
 10
24469.47760701529
 20
690.7322243296821
 30
0.0
 11
24472.48311007675
 21
693.7368366076551
 31
0.0
  0
LINE
  5
27943
330
272EA
100
AcDbEntity
  8
waku
  6
Continuous
370
     9
100
AcDbLine
 10
24375.79748403066
 20
597.0507651699026
 30
0.0
 11
24377.523822185
 21
598.7779941076643
 31
0.0
  0
LINE
  5
27944
330
272EA
100
AcDbEntity
  8
waku
  6
Continuous
370
     9
100
AcDbLine
 10
24393.29781394877
 20
614.5506496962442
 30
0.0
 11
24396.02450181789
 21
617.2777829571587
 31
0.0
  0
LINE
  5
27945
330
272EA
100
AcDbEntity
  8
waku
  6
Continuous
370
     9
100
AcDbLine
 10
24352.18905260356
 20
567.0091241437567
 30
0.0
 11
24362.91052114137
 21
577.7369116759983
 31
0.0
  0
LINE
  5
27946
330
272EA
100
AcDbEntity
  8
waku
  6
Continuous
370
     9
100
AcDbLine
 10
24470.18488900428
 20
685.0089412326777
 30
0.0
 11
24478.91011202923
 21
693.7368366076551
 31
0.0
  0
LINE
  5
27947
330
272EA
100
AcDbEntity
  8
waku
  6
Continuous
370
     9
100
AcDbLine
 10
24375.79748403066
 20
590.6224270423954
 30
0.0
 11
24377.523822185
 21
592.3496559801296
 31
0.0
  0
LINE
  5
27948
330
272EA
100
AcDbEntity
  8
waku
  6
Continuous
370
     9
100
AcDbLine
 10
24393.29781394877
 20
608.1223115687097
 30
0.0
 11
24396.02450181789
 21
610.8496675254682
 31
0.0
  0
LINE
  5
27949
330
272EA
100
AcDbEntity
  8
waku
  6
Continuous
370
     9
100
AcDbLine
 10
24358.6160545561
 20
567.0091241437567
 30
0.0
 11
24369.33752309391
 21
577.7369116759983
 31
0.0
  0
LINE
  5
2794A
330
272EA
100
AcDbEntity
  8
waku
  6
Continuous
370
     9
100
AcDbLine
 10
24476.61100017349
 20
685.0089412326777
 30
0.0
 11
24485.33800476504
 21
693.7368366076551
 31
0.0
  0
LINE
  5
2794B
330
272EA
100
AcDbEntity
  8
waku
  6
Continuous
370
     9
100
AcDbLine
 10
24375.79748403066
 20
584.1940889148608
 30
0.0
 11
24377.523822185
 21
585.9213178526223
 31
0.0
  0
LINE
  5
2794C
330
272EA
100
AcDbEntity
  8
waku
  6
Continuous
370
     9
100
AcDbLine
 10
24393.29781394877
 20
601.6944188328633
 30
0.0
 11
24396.02450181789
 21
604.4211067021168
 31
0.0
  0
LINE
  5
2794D
330
272EA
100
AcDbEntity
  8
waku
  6
Continuous
370
     9
100
AcDbLine
 10
24365.03682102496
 20
567.0091241437567
 30
0.0
 11
24375.76719739649
 21
577.7369116759983
 31
0.0
  0
LINE
  5
2794E
330
272EA
100
AcDbEntity
  8
waku
  6
Continuous
370
     9
100
AcDbLine
 10
24483.04156525934
 20
685.0089412326777
 30
0.0
 11
24491.76767906768
 21
693.7368366076551
 31
0.0
  0
LINE
  5
2794F
330
272EA
100
AcDbEntity
  8
waku
  6
Continuous
370
     9
100
AcDbLine
 10
24375.79748403066
 20
577.7657507873263
 30
0.0
 11
24377.523822185
 21
579.4930075620649
 31
0.0
  0
LINE
  5
27950
330
272EA
100
AcDbEntity
  8
waku
  6
Continuous
370
     9
100
AcDbLine
 10
24393.29781394877
 20
595.265635313668
 30
0.0
 11
24396.02450181789
 21
597.9932139662706
 31
0.0
  0
LINE
  5
27951
330
272EA
100
AcDbEntity
  8
waku
  6
Continuous
370
     9
100
AcDbLine
 10
24371.47005846096
 20
567.0091241437567
 30
0.0
 11
24377.523822185
 21
573.0646694345304
 31
0.0
  0
LINE
  5
27952
330
272EA
100
AcDbEntity
  8
waku
  6
Continuous
370
     9
100
AcDbLine
 10
24489.46945799514
 20
685.0089412326777
 30
0.0
 11
24498.19468102011
 21
693.7368366076551
 31
0.0
  0
LINE
  5
27953
330
272EA
100
AcDbEntity
  8
waku
  6
Continuous
370
     9
100
AcDbLine
 10
24393.29781394877
 20
588.8381879695097
 30
0.0
 11
24396.02450181789
 21
591.5648758387359
 31
0.0
  0
LINE
  5
27954
330
272EA
100
AcDbEntity
  8
waku
  6
Continuous
370
     9
100
AcDbLine
 10
24393.29781394877
 20
582.4094044502873
 30
0.0
 11
24396.02450181789
 21
585.1365377112015
 31
0.0
  0
LINE
  5
27955
330
272EA
100
AcDbEntity
  8
waku
  6
Continuous
370
     9
100
AcDbLine
 10
24495.89645994775
 20
685.0089412326777
 30
0.0
 11
24504.62168297271
 21
693.7368366076551
 31
0.0
  0
LINE
  5
27956
330
272EA
100
AcDbEntity
  8
waku
  6
Continuous
370
     9
100
AcDbLine
 10
24469.47760701529
 20
658.5913688014588
 30
0.0
 11
24474.62188092742
 21
663.7361437791569
 31
0.0
  0
LINE
  5
27957
330
272EA
100
AcDbEntity
  8
waku
  6
Continuous
370
     9
100
AcDbLine
 10
24384.79706833081
 20
567.4812114883261
 30
0.0
 11
24391.05036752799
 21
573.7362922520477
 31
0.0
  0
LINE
  5
27958
330
272EA
100
AcDbEntity
  8
waku
  6
Continuous
370
     9
100
AcDbLine
 10
24502.32346190011
 20
685.0089412326777
 30
0.0
 11
24511.05759275862
 21
693.7368366076551
 31
0.0
  0
LINE
  5
27959
330
272EA
100
AcDbEntity
  8
waku
  6
Continuous
370
     9
100
AcDbLine
 10
24393.29781394877
 20
575.9811776706881
 30
0.0
 11
24396.02450181789
 21
578.7081995836941
 31
0.0
  0
LINE
  5
2795A
330
272EA
100
AcDbEntity
  8
waku
  6
Continuous
370
     9
100
AcDbLine
 10
24469.47760701529
 20
652.1629749999703
 30
0.0
 11
24481.05511836341
 21
663.7361437791569
 31
0.0
  0
LINE
  5
2795B
330
272EA
100
AcDbEntity
  8
waku
  6
Continuous
370
     9
100
AcDbLine
 10
24384.79706833081
 20
561.0529847087271
 30
0.0
 11
24396.02450181789
 21
572.2802790108707
 31
0.0
  0
LINE
  5
2795C
330
272EA
100
AcDbEntity
  8
waku
  6
Continuous
370
     9
100
AcDbLine
 10
24508.75313620269
 20
685.0089412326777
 30
0.0
 11
24517.48459471134
 21
693.7368366076551
 31
0.0
  0
LINE
  5
2795D
330
272EA
100
AcDbEntity
  8
waku
  6
Continuous
370
     9
100
AcDbLine
 10
24469.47760701529
 20
645.7348038943255
 30
0.0
 11
24487.48122953263
 21
663.7361437791569
 31
0.0
  0
LINE
  5
2795E
330
272EA
100
AcDbEntity
  8
waku
  6
Continuous
370
     9
100
AcDbLine
 10
24384.79706833081
 20
554.6245073963071
 30
0.0
 11
24396.02450181789
 21
565.8521079052261
 31
0.0
  0
LINE
  5
2795F
330
272EA
100
AcDbEntity
  8
waku
  6
Continuous
370
     9
100
AcDbLine
 10
24515.18191972195
 20
685.0089412326777
 30
0.0
 11
24522.20663731004
 21
692.03365882067
 31
0.0
  0
LINE
  5
27960
330
272EA
100
AcDbEntity
  8
waku
  6
Continuous
370
     9
100
AcDbLine
 10
24469.47760701529
 20
639.3068554845248
 30
0.0
 11
24480.20620182017
 21
650.033668722459
 31
0.0
  0
LINE
  5
27961
330
272EA
100
AcDbEntity
  8
waku
  6
Continuous
370
     9
100
AcDbLine
 10
24483.18052746373
 20
653.0088851495348
 30
0.0
 11
24493.90823148517
 21
663.7361437791569
 31
0.0
  0
LINE
  5
27962
330
272EA
100
AcDbEntity
  8
waku
  6
Continuous
370
     9
100
AcDbLine
 10
24387.60838061938
 20
551.0088455693638
 30
0.0
 11
24396.02450181789
 21
559.423630592806
 31
0.0
  0
LINE
  5
27963
330
272EA
100
AcDbEntity
  8
waku
  6
Continuous
370
     9
100
AcDbLine
 10
24521.60892167455
 20
685.0089412326777
 30
0.0
 11
24522.20663731004
 21
685.6053206931355
 31
0.0
  0
LINE
  5
27964
330
272EA
100
AcDbEntity
  8
waku
  6
Continuous
370
     9
100
AcDbLine
 10
24469.47760701529
 20
632.8780719653023
 30
0.0
 11
24480.20620182017
 21
643.6053305949243
 31
0.0
  0
LINE
  5
27965
330
272EA
100
AcDbEntity
  8
waku
  6
Continuous
370
     9
100
AcDbLine
 10
24489.60842019971
 20
653.0088851495348
 30
0.0
 11
24500.33879657101
 21
663.7361437791569
 31
0.0
  0
LINE
  5
27966
330
272EA
100
AcDbEntity
  8
waku
  6
Continuous
370
     9
100
AcDbLine
 10
24469.47760701529
 20
626.450624621144
 30
0.0
 11
24480.20620182017
 21
637.1769924674172
 31
0.0
  0
LINE
  5
27967
330
272EA
100
AcDbEntity
  8
waku
  6
Continuous
370
     9
100
AcDbLine
 10
24496.03898528556
 20
653.0088851495348
 30
0.0
 11
24506.76579852338
 21
663.7361437791569
 31
0.0
  0
LINE
  5
27968
330
272EA
100
AcDbEntity
  8
waku
  6
Continuous
370
     9
100
AcDbLine
 10
24469.47760701529
 20
620.0218411019486
 30
0.0
 11
24481.19229900115
 21
631.7360876959865
 31
0.0
  0
LINE
  5
27969
330
272EA
100
AcDbEntity
  8
waku
  6
Continuous
370
     9
100
AcDbLine
 10
24502.4659872381
 20
653.0088851495348
 30
0.0
 11
24513.19547282602
 21
663.7361437791569
 31
0.0
  0
LINE
  5
2796A
330
272EA
100
AcDbEntity
  8
waku
  6
Continuous
370
     9
100
AcDbLine
 10
24469.47760701529
 20
613.5935029744141
 30
0.0
 11
24487.62197330361
 21
631.7360876959865
 31
0.0
  0
LINE
  5
2796B
330
272EA
100
AcDbEntity
  8
waku
  6
Continuous
370
     9
100
AcDbLine
 10
24508.89477075735
 20
653.0088851495348
 30
0.0
 11
24519.62603791198
 21
663.7361437791569
 31
0.0
  0
LINE
  5
2796C
330
272EA
100
AcDbEntity
  8
waku
  6
Continuous
370
     9
100
AcDbLine
 10
24469.47760701529
 20
607.1651648469069
 30
0.0
 11
24480.20620182017
 21
617.8928688682171
 31
0.0
  0
LINE
  5
2796D
330
272EA
100
AcDbEntity
  8
waku
  6
Continuous
370
     9
100
AcDbLine
 10
24541.47873533377
 20
679.1656250777722
 30
0.0
 11
24546.05468946136
 21
683.7366798967705
 31
0.0
  0
LINE
  5
2796E
330
272EA
100
AcDbEntity
  8
waku
  6
Continuous
370
     9
100
AcDbLine
 10
24483.32305280155
 20
621.0092744580523
 30
0.0
 11
24494.05075682287
 21
631.7360876959865
 31
0.0
  0
LINE
  5
2796F
330
272EA
100
AcDbEntity
  8
waku
  6
Continuous
370
     9
100
AcDbLine
 10
24513.47785115161
 20
651.1652419612492
 30
0.0
 11
24522.20663731004
 21
659.8924135747401
 31
0.0
  0
LINE
  5
27970
330
272EA
100
AcDbEntity
  8
waku
  6
Continuous
370
     9
100
AcDbLine
 10
24469.47760701529
 20
600.7368267193724
 30
0.0
 11
24480.20620182017
 21
611.4640853489945
 31
0.0
  0
LINE
  5
27971
330
272EA
100
AcDbEntity
  8
waku
  6
Continuous
370
     9
100
AcDbLine
 10
24541.47873533377
 20
672.7370642543937
 30
0.0
 11
24552.47545593028
 21
683.7366798967705
 31
0.0
  0
LINE
  5
27972
330
272EA
100
AcDbEntity
  8
waku
  6
Continuous
370
     9
100
AcDbLine
 10
24489.75005475397
 20
621.0092744580523
 30
0.0
 11
24500.48132190894
 21
631.7360876959865
 31
0.0
  0
LINE
  5
27973
330
272EA
100
AcDbEntity
  8
waku
  6
Continuous
370
     9
100
AcDbLine
 10
24513.47785115161
 20
644.7375162472654
 30
0.0
 11
24522.20663731004
 21
653.4640754472056
 31
0.0
  0
LINE
  5
27974
330
272EA
100
AcDbEntity
  8
waku
  6
Continuous
370
     9
100
AcDbLine
 10
24462.04133143934
 20
586.8723498935524
 30
0.0
 11
24480.20620182017
 21
605.0356915475057
 31
0.0
  0
LINE
  5
27975
330
272EA
100
AcDbEntity
  8
waku
  6
Continuous
370
     9
100
AcDbLine
 10
24541.47873533377
 20
666.3091715185474
 30
0.0
 11
24558.90602101614
 21
683.7366798967705
 31
0.0
  0
LINE
  5
27976
330
272EA
100
AcDbEntity
  8
waku
  6
Continuous
370
     9
100
AcDbLine
 10
24496.17705670668
 20
621.0092744580523
 30
0.0
 11
24506.91188699484
 21
631.7360876959865
 31
0.0
  0
LINE
  5
27977
330
272EA
100
AcDbEntity
  8
waku
  6
Continuous
370
     9
100
AcDbLine
 10
24513.47785115161
 20
638.30873272807
 30
0.0
 11
24522.20663731004
 21
647.0362383853133
 31
0.0
  0
LINE
  5
27978
330
272EA
100
AcDbEntity
  8
waku
  6
Continuous
370
     9
100
AcDbLine
 10
24452.54047322355
 20
570.9405139514965
 30
0.0
 11
24480.20620182017
 21
598.6077431377053
 31
0.0
  0
LINE
  5
27979
330
272EA
100
AcDbEntity
  8
waku
  6
Continuous
370
     9
100
AcDbLine
 10
24554.60531894729
 20
673.0094212671482
 30
0.0
 11
24565.33302296873
 21
683.7366798967705
 31
0.0
  0
LINE
  5
2797A
330
272EA
100
AcDbEntity
  8
waku
  6
Continuous
370
     9
100
AcDbLine
 10
24502.6129664926
 20
621.0092744580523
 30
0.0
 11
24513.33176268038
 21
631.7360876959865
 31
0.0
  0
LINE
  5
2797B
330
272EA
100
AcDbEntity
  8
waku
  6
Continuous
370
     9
100
AcDbLine
 10
24541.47873533377
 20
659.880387999352
 30
0.0
 11
24552.20643935504
 21
670.6077023029556
 31
0.0
  0
LINE
  5
2797C
330
272EA
100
AcDbEntity
  8
waku
  6
Continuous
370
     9
100
AcDbLine
 10
24513.47785115161
 20
631.8803946005353
 30
0.0
 11
24522.20663731004
 21
640.6078445838248
 31
0.0
  0
LINE
  5
2797D
330
272EA
100
AcDbEntity
  8
waku
  6
Continuous
370
     9
100
AcDbLine
 10
24451.47754763166
 20
563.4521983447084
 30
0.0
 11
24480.20620182017
 21
592.1795720320606
 31
0.0
  0
LINE
  5
2797E
330
272EA
100
AcDbEntity
  8
waku
  6
Continuous
370
     9
100
AcDbLine
 10
24561.03499324998
 20
673.0094212671482
 30
0.0
 11
24571.7600249211
 21
683.7366798967705
 31
0.0
  0
LINE
  5
2797F
330
272EA
100
AcDbEntity
  8
waku
  6
Continuous
370
     9
100
AcDbLine
 10
24509.03818687843
 20
621.0092744580523
 30
0.0
 11
24522.20663731004
 21
634.1795064563175
 31
0.0
  0
LINE
  5
27980
330
272EA
100
AcDbEntity
  8
waku
  6
Continuous
370
     9
100
AcDbLine
 10
24541.47873533377
 20
653.4529406551937
 30
0.0
 11
24552.20643935504
 21
664.1793085014398
 31
0.0
  0
LINE
  5
27981
330
272EA
100
AcDbEntity
  8
waku
  6
Continuous
370
     9
100
AcDbLine
 10
24451.47754763166
 20
557.024305608862
 30
0.0
 11
24467.98501248291
 21
573.5304742523893
 31
0.0
  0
LINE
  5
27982
330
272EA
100
AcDbEntity
  8
waku
  6
Continuous
370
     9
100
AcDbLine
 10
24585.46918085311
 20
691.0157161344486
 30
0.0
 11
24588.19052402204
 21
693.7368366076551
 31
0.0
  0
LINE
  5
27983
330
272EA
100
AcDbEntity
  8
waku
  6
Continuous
370
     9
100
AcDbLine
 10
24515.46162569739
 20
621.0092744580523
 30
0.0
 11
24522.20663731004
 21
627.751168328783
 31
0.0
  0
LINE
  5
27984
330
272EA
100
AcDbEntity
  8
waku
  6
Continuous
370
     9
100
AcDbLine
 10
24567.46199520235
 20
673.0094212671482
 30
0.0
 11
24578.19593470718
 21
683.7444742511761
 31
0.0
  0
LINE
  5
27985
330
272EA
100
AcDbEntity
  8
waku
  6
Continuous
370
     9
100
AcDbLine
 10
24541.47873533377
 20
647.0237117443103
 30
0.0
 11
24552.20643935504
 21
657.7514157655932
 31
0.0
  0
LINE
  5
27986
330
272EA
100
AcDbEntity
  8
waku
  6
Continuous
370
     9
100
AcDbLine
 10
24573.89256028843
 20
673.0094212671482
 30
0.0
 11
24594.20420249494
 21
693.3230677362971
 31
0.0
  0
LINE
  5
27987
330
272EA
100
AcDbEntity
  8
waku
  6
Continuous
370
     9
100
AcDbLine
 10
24521.89129999996
 20
621.0092744580523
 30
0.0
 11
24522.20663731004
 21
621.3232199189824
 31
0.0
  0
LINE
  5
27988
330
272EA
100
AcDbEntity
  8
waku
  6
Continuous
370
     9
100
AcDbLine
 10
24541.47873533377
 20
640.5958190084637
 30
0.0
 11
24556.62205247744
 21
655.736408128183
 31
0.0
  0
LINE
  5
27989
330
272EA
100
AcDbEntity
  8
waku
  6
Continuous
370
     9
100
AcDbLine
 10
24541.47873533377
 20
634.1674808809292
 30
0.0
 11
24552.20643935504
 21
644.8946838365972
 31
0.0
  0
LINE
  5
2798A
330
272EA
100
AcDbEntity
  8
waku
  6
Continuous
370
     9
100
AcDbLine
 10
24580.31956224079
 20
673.0094212671482
 30
0.0
 11
24594.20420249494
 21
686.8947296087625
 31
0.0
  0
LINE
  5
2798B
330
272EA
100
AcDbEntity
  8
waku
  6
Continuous
370
     9
100
AcDbLine
 10
24554.31937748834
 20
647.0089581448664
 30
0.0
 11
24563.05261756352
 21
655.736408128183
 31
0.0
  0
LINE
  5
2798C
330
272EA
100
AcDbEntity
  8
waku
  6
Continuous
370
     9
100
AcDbLine
 10
24541.47873533377
 20
627.7391427534221
 30
0.0
 11
24552.20643935504
 21
638.46634570909
 31
0.0
  0
LINE
  5
2798D
330
272EA
100
AcDbEntity
  8
waku
  6
Continuous
370
     9
100
AcDbLine
 10
24586.74656419328
 20
673.0094212671482
 30
0.0
 11
24594.20420249494
 21
680.4663914812553
 31
0.0
  0
LINE
  5
2798E
330
272EA
100
AcDbEntity
  8
waku
  6
Continuous
370
     9
100
AcDbLine
 10
24560.74994257419
 20
647.0089581448664
 30
0.0
 11
24569.47605638253
 21
655.736408128183
 31
0.0
  0
LINE
  5
2798F
330
272EA
100
AcDbEntity
  8
waku
  6
Continuous
370
     9
100
AcDbLine
 10
24541.47873533377
 20
621.3115283873738
 30
0.0
 11
24552.20643935504
 21
632.0380075815554
 31
0.0
  0
LINE
  5
27990
330
272EA
100
AcDbEntity
  8
waku
  6
Continuous
370
     9
100
AcDbLine
 10
24567.18228922691
 20
647.0089581448664
 30
0.0
 11
24575.90305833495
 21
655.736408128183
 31
0.0
  0
LINE
  5
27991
330
272EA
100
AcDbEntity
  8
waku
  6
Continuous
370
     9
100
AcDbLine
 10
24541.47873533377
 20
614.8829118900413
 30
0.0
 11
24552.20643935504
 21
625.6101705196632
 31
0.0
  0
LINE
  5
27992
330
272EA
100
AcDbEntity
  8
waku
  6
Continuous
370
     9
100
AcDbLine
 10
24573.47923680861
 20
646.8829122992302
 30
0.0
 11
24582.33273263759
 21
655.736408128183
 31
0.0
  0
LINE
  5
27993
330
272EA
100
AcDbEntity
  8
waku
  6
Continuous
370
     9
100
AcDbLine
 10
24541.47873533377
 20
608.455074828149
 30
0.0
 11
24552.20643935504
 21
619.1818323921561
 31
0.0
  0
LINE
  5
27994
330
272EA
100
AcDbEntity
  8
waku
  6
Continuous
370
     9
100
AcDbLine
 10
24573.47923680861
 20
640.4545741717229
 30
0.0
 11
24588.75973459019
 21
655.736408128183
 31
0.0
  0
LINE
  5
27995
330
272EA
100
AcDbEntity
  8
waku
  6
Continuous
370
     9
100
AcDbLine
 10
24541.47873533377
 20
602.0262356349993
 30
0.0
 11
24552.20643935504
 21
612.7534942646216
 31
0.0
  0
LINE
  5
27996
330
272EA
100
AcDbEntity
  8
waku
  6
Continuous
370
     9
100
AcDbLine
 10
24586.46062273416
 20
647.0089581448664
 30
0.0
 11
24594.20420249494
 21
654.7534286888784
 31
0.0
  0
LINE
  5
27997
330
272EA
100
AcDbEntity
  8
waku
  6
Continuous
370
     9
100
AcDbLine
 10
24573.47923680861
 20
634.0262360441884
 30
0.0
 11
24582.20535061683
 21
642.7532963097709
 31
0.0
  0
LINE
  5
27998
330
272EA
100
AcDbEntity
  8
waku
  6
Continuous
370
     9
100
AcDbLine
 10
24592.88762468688
 20
647.0089581448664
 30
0.0
 11
24594.20420249494
 21
648.325090561344
 31
0.0
  0
LINE
  5
27999
330
272EA
100
AcDbEntity
  8
waku
  6
Continuous
370
     9
100
AcDbLine
 10
24513.47785115161
 20
567.6043578979951
 30
0.0
 11
24552.20643935504
 21
606.3251561370869
 31
0.0
  0
LINE
  5
2799A
330
272EA
100
AcDbEntity
  8
waku
  6
Continuous
370
     9
100
AcDbLine
 10
24573.47923680861
 20
627.5982319604336
 30
0.0
 11
24582.20535061683
 21
636.3258489655853
 31
0.0
  0
LINE
  5
2799B
330
272EA
100
AcDbEntity
  8
waku
  6
Continuous
370
     9
100
AcDbLine
 10
24573.47923680861
 20
621.1696711370549
 30
0.0
 11
24582.20535061683
 21
629.8970654463901
 31
0.0
  0
LINE
  5
2799C
330
272EA
100
AcDbEntity
  8
waku
  6
Continuous
370
     9
100
AcDbLine
 10
24513.47785115161
 20
561.1650014556071
 30
0.0
 11
24552.20643935504
 21
599.8972634012678
 31
0.0
  0
LINE
  5
2799D
330
272EA
100
AcDbEntity
  8
waku
  6
Continuous
370
     9
100
AcDbLine
 10
24513.47785115161
 20
554.7416175713406
 30
0.0
 11
24552.20643935504
 21
593.4689252737333
 31
0.0
  0
LINE
  5
2799E
330
272EA
100
AcDbEntity
  8
waku
  6
Continuous
370
     9
100
AcDbLine
 10
24573.47923680861
 20
614.7417227272544
 30
0.0
 11
24582.20535061683
 21
623.4687273188828
 31
0.0
  0
LINE
  5
2799F
330
272EA
100
AcDbEntity
  8
waku
  6
Continuous
370
     9
100
AcDbLine
 10
24573.47923680861
 20
608.3133845997472
 30
0.0
 11
24582.20535061683
 21
617.0403891913482
 31
0.0
  0
LINE
  5
279A0
330
272EA
100
AcDbEntity
  8
waku
  6
Continuous
370
     9
100
AcDbLine
 10
24573.47923680861
 20
601.8850464722127
 30
0.0
 11
24582.20535061683
 21
610.612496455502
 31
0.0
  0
LINE
  5
279A1
330
272EA
100
AcDbEntity
  8
waku
  6
Continuous
370
     9
100
AcDbLine
 10
24573.47923680861
 20
595.456708344678
 30
0.0
 11
24582.20535061683
 21
604.1841583279675
 31
0.0
  0
LINE
  5
279A2
330
272EA
100
AcDbEntity
  8
waku
  6
Continuous
370
     9
100
AcDbLine
 10
24573.47923680861
 20
589.0283145431895
 30
0.0
 11
24582.20535061683
 21
597.7558202004603
 31
0.0
  0
LINE
  5
279A3
330
272EA
100
AcDbEntity
  8
waku
  6
Continuous
370
     9
100
AcDbLine
 10
24573.47923680861
 20
582.6004774813244
 30
0.0
 11
24582.20535061683
 21
591.3274263989714
 31
0.0
  0
LINE
  5
279A4
330
272EA
100
AcDbEntity
  8
waku
  6
Continuous
370
     9
100
AcDbLine
 10
24573.47923680861
 20
576.1721671907671
 30
0.0
 11
24582.20535061683
 21
584.8996450110335
 31
0.0
  0
LINE
  5
279A5
330
272EA
100
AcDbEntity
  8
waku
  6
Continuous
370
     9
100
AcDbLine
 10
24573.47923680861
 20
569.7437733892784
 30
0.0
 11
24582.20535061683
 21
578.4712512095722
 31
0.0
  0
LINE
  5
279A6
330
272EA
100
AcDbEntity
  8
waku
  6
Continuous
370
     9
100
AcDbLine
 10
24573.47923680861
 20
563.3154352617712
 30
0.0
 11
24582.20535061683
 21
572.0430522669501
 31
0.0
  0
LINE
  5
279A7
330
272EA
100
AcDbEntity
  8
waku
  6
Continuous
370
     9
100
AcDbLine
 10
24573.47923680861
 20
556.8875425259248
 30
0.0
 11
24582.20535061683
 21
565.6145471175258
 31
0.0
  0
LINE
  5
279A8
330
272EA
100
AcDbEntity
  8
waku
  6
Continuous
370
     9
100
AcDbLine
 10
24574.02617779258
 20
551.0088455693638
 30
0.0
 11
24582.20535061683
 21
559.1862089900187
 31
0.0
  0
LINE
  5
279A9
330
272EA
100
AcDbEntity
  8
waku
  6
Continuous
370
     9
100
AcDbLine
 10
24580.45763366192
 20
551.0088455693638
 30
0.0
 11
24582.20535061683
 21
552.7583440911493
 31
0.0
  0
LINE
  5
279AA
330
272EA
100
AcDbEntity
  8
waku
  6
Continuous
370
     9
100
AcDbLine
 10
24573.47923680861
 20
647.0089581448664
 30
0.0
 11
24573.47923680861
 21
551.0092631240476
 31
0.0
  0
LINE
  5
279AB
330
272EA
100
AcDbEntity
  8
waku
  6
Continuous
370
     9
100
AcDbLine
 10
24573.47923680861
 20
551.0092631240476
 30
0.0
 11
24582.20535061683
 21
551.0092631240476
 31
0.0
  0
LINE
  5
279AC
330
272EA
100
AcDbEntity
  8
waku
  6
Continuous
370
     9
100
AcDbLine
 10
24582.20535061683
 20
551.0092631240476
 30
0.0
 11
24582.20535061683
 21
647.0089581448664
 31
0.0
  0
LINE
  5
279AD
330
272EA
100
AcDbEntity
  8
waku
  6
Continuous
370
     9
100
AcDbLine
 10
24582.20535061683
 20
647.0089581448664
 30
0.0
 11
24594.20687484503
 21
647.0089581448664
 31
0.0
  0
LINE
  5
279AE
330
272EA
100
AcDbEntity
  8
waku
  6
Continuous
370
     9
100
AcDbLine
 10
24594.20687484503
 20
647.0089581448664
 30
0.0
 11
24594.20687484503
 21
655.736408128183
 31
0.0
  0
LINE
  5
279AF
330
272EA
100
AcDbEntity
  8
waku
  6
Continuous
370
     9
100
AcDbLine
 10
24594.20687484503
 20
655.736408128183
 30
0.0
 11
24552.20643935504
 21
655.736408128183
 31
0.0
  0
LINE
  5
279B0
330
272EA
100
AcDbEntity
  8
waku
  6
Continuous
370
     9
100
AcDbLine
 10
24552.20643935504
 20
655.736408128183
 30
0.0
 11
24552.20643935504
 21
673.0094212671482
 31
0.0
  0
LINE
  5
279B1
330
272EA
100
AcDbEntity
  8
waku
  6
Continuous
370
     9
100
AcDbLine
 10
24552.20643935504
 20
673.0094212671482
 30
0.0
 11
24587.84133694444
 21
673.0094212671482
 31
0.0
  0
LINE
  5
279B2
330
272EA
100
AcDbEntity
  8
waku
  6
Continuous
370
     9
100
AcDbLine
 10
24587.84133694444
 20
673.0094212671482
 30
0.0
 11
24594.20687484503
 21
679.3725095134377
 31
0.0
  0
LINE
  5
279B3
330
272EA
100
AcDbEntity
  8
waku
  6
Continuous
370
     9
100
AcDbLine
 10
24594.20687484503
 20
679.3725095134377
 30
0.0
 11
24594.20687484503
 21
693.7368366076551
 31
0.0
  0
LINE
  5
279B4
330
272EA
100
AcDbEntity
  8
waku
  6
Continuous
370
     9
100
AcDbLine
 10
24594.20687484503
 20
693.7368366076551
 30
0.0
 11
24585.47808868671
 21
693.7368366076551
 31
0.0
  0
LINE
  5
279B5
330
272EA
100
AcDbEntity
  8
waku
  6
Continuous
370
     9
100
AcDbLine
 10
24585.47808868671
 20
693.7368366076551
 30
0.0
 11
24585.47808868671
 21
691.3726975665268
 31
0.0
  0
LINE
  5
279B6
330
272EA
100
AcDbEntity
  8
waku
  6
Continuous
370
     9
100
AcDbLine
 10
24585.47808868671
 20
691.3726975665268
 30
0.0
 11
24577.84674762951
 21
683.7366798967705
 31
0.0
  0
LINE
  5
279B7
330
272EA
100
AcDbEntity
  8
waku
  6
Continuous
370
     9
100
AcDbLine
 10
24577.84674762951
 20
683.7366798967705
 30
0.0
 11
24541.47873533377
 21
683.7366798967705
 31
0.0
  0
LINE
  5
279B8
330
272EA
100
AcDbEntity
  8
waku
  6
Continuous
370
     9
100
AcDbLine
 10
24541.47873533377
 20
683.7366798967705
 30
0.0
 11
24541.47873533377
 21
599.3390762774252
 31
0.0
  0
LINE
  5
279B9
330
272EA
100
AcDbEntity
  8
waku
  6
Continuous
370
     9
100
AcDbLine
 10
24541.47873533377
 20
599.3390762774252
 30
0.0
 11
24513.47785115161
 21
568.8926855614282
 31
0.0
  0
LINE
  5
279BA
330
272EA
100
AcDbEntity
  8
waku
  6
Continuous
370
     9
100
AcDbLine
 10
24513.47785115161
 20
568.8926855614282
 30
0.0
 11
24513.47785115161
 21
551.0752089297747
 31
0.0
  0
LINE
  5
279BB
330
272EA
100
AcDbEntity
  8
waku
  6
Continuous
370
     9
100
AcDbLine
 10
24513.47785115161
 20
551.0752089297747
 30
0.0
 11
24552.20643935504
 21
589.4969222652671
 31
0.0
  0
LINE
  5
279BC
330
272EA
100
AcDbEntity
  8
waku
  6
Continuous
370
     9
100
AcDbLine
 10
24552.20643935504
 20
589.4969222652671
 30
0.0
 11
24552.20643935504
 21
647.0089581448664
 31
0.0
  0
LINE
  5
279BD
330
272EA
100
AcDbEntity
  8
waku
  6
Continuous
370
     9
100
AcDbLine
 10
24552.20643935504
 20
647.0089581448664
 30
0.0
 11
24573.47923680861
 21
647.0089581448664
 31
0.0
  0
LINE
  5
279BE
330
272EA
100
AcDbEntity
  8
waku
  6
Continuous
370
     9
100
AcDbLine
 10
24513.47785115161
 20
631.7360876959865
 30
0.0
 11
24513.47785115161
 21
653.0088851495348
 31
0.0
  0
LINE
  5
279BF
330
272EA
100
AcDbEntity
  8
waku
  6
Continuous
370
     9
100
AcDbLine
 10
24513.47785115161
 20
653.0088851495348
 30
0.0
 11
24480.20620182017
 21
653.0088851495348
 31
0.0
  0
LINE
  5
279C0
330
272EA
100
AcDbEntity
  8
waku
  6
Continuous
370
     9
100
AcDbLine
 10
24480.20620182017
 20
653.0088851495348
 30
0.0
 11
24480.20620182017
 21
631.7360876959865
 31
0.0
  0
LINE
  5
279C1
330
272EA
100
AcDbEntity
  8
waku
  6
Continuous
370
     9
100
AcDbLine
 10
24480.20620182017
 20
631.7360876959865
 30
0.0
 11
24513.47785115161
 21
631.7360876959865
 31
0.0
  0
LINE
  5
279C2
330
272EA
100
AcDbEntity
  8
waku
  6
Continuous
370
     9
100
AcDbLine
 10
24480.20620182017
 20
589.4448114386305
 30
0.0
 11
24480.20620182017
 21
621.0092744580523
 31
0.0
  0
LINE
  5
279C3
330
272EA
100
AcDbEntity
  8
waku
  6
Continuous
370
     9
100
AcDbLine
 10
24480.20620182017
 20
621.0092744580523
 30
0.0
 11
24522.20663731004
 21
621.0092744580523
 31
0.0
  0
LINE
  5
279C4
330
272EA
100
AcDbEntity
  8
waku
  6
Continuous
370
     9
100
AcDbLine
 10
24522.20663731004
 20
621.0092744580523
 30
0.0
 11
24522.20663731004
 21
663.736589170845
 31
0.0
  0
LINE
  5
279C5
330
272EA
100
AcDbEntity
  8
waku
  6
Continuous
370
     9
100
AcDbLine
 10
24522.20663731004
 20
663.736589170845
 30
0.0
 11
24469.48117014882
 21
663.736589170845
 31
0.0
  0
LINE
  5
279C6
330
272EA
100
AcDbEntity
  8
waku
  6
Continuous
370
     9
100
AcDbLine
 10
24469.48117014882
 20
663.736589170845
 30
0.0
 11
24469.48117014882
 21
599.3480954589593
 31
0.0
  0
LINE
  5
279C7
330
272EA
100
AcDbEntity
  8
waku
  6
Continuous
370
     9
100
AcDbLine
 10
24469.48117014882
 20
599.3480954589593
 30
0.0
 11
24451.47754763166
 21
569.158111166149
 31
0.0
  0
LINE
  5
279C8
330
272EA
100
AcDbEntity
  8
waku
  6
Continuous
370
     9
100
AcDbLine
 10
24451.47754763166
 20
569.158111166149
 30
0.0
 11
24451.47754763166
 21
552.0345826100183
 31
0.0
  0
LINE
  5
279C9
330
272EA
100
AcDbEntity
  8
waku
  6
Continuous
370
     9
100
AcDbLine
 10
24451.47754763166
 20
552.0345826100183
 30
0.0
 11
24480.20620182017
 21
589.4448114386305
 31
0.0
  0
LINE
  5
279CA
330
272EA
100
AcDbEntity
  8
waku
  6
Continuous
370
     9
100
AcDbLine
 10
24469.48117014882
 20
693.7368366076551
 30
0.0
 11
24469.48117014882
 21
685.0089412326777
 31
0.0
  0
LINE
  5
279CB
330
272EA
100
AcDbEntity
  8
waku
  6
Continuous
370
     9
100
AcDbLine
 10
24469.48117014882
 20
685.0089412326777
 30
0.0
 11
24522.20663731004
 21
685.0089412326777
 31
0.0
  0
LINE
  5
279CC
330
272EA
100
AcDbEntity
  8
waku
  6
Continuous
370
     9
100
AcDbLine
 10
24522.20663731004
 20
685.0089412326777
 30
0.0
 11
24522.20663731004
 21
693.7368366076551
 31
0.0
  0
LINE
  5
279CD
330
272EA
100
AcDbEntity
  8
waku
  6
Continuous
370
     9
100
AcDbLine
 10
24522.20663731004
 20
693.7368366076551
 30
0.0
 11
24469.48117014882
 21
693.7368366076551
 31
0.0
  0
LINE
  5
279CE
330
272EA
100
AcDbEntity
  8
waku
  6
Continuous
370
     9
100
AcDbLine
 10
23998.84290742154
 20
551.0092631240476
 30
0.0
 11
23998.84290742154
 21
693.7368366076551
 31
0.0
  0
LINE
  5
279CF
330
272EA
100
AcDbEntity
  8
waku
  6
Continuous
370
     9
100
AcDbLine
 10
23998.84290742154
 20
693.7368366076551
 30
0.0
 11
23988.11520340009
 21
693.7368366076551
 31
0.0
  0
LINE
  5
279D0
330
272EA
100
AcDbEntity
  8
waku
  6
Continuous
370
     9
100
AcDbLine
 10
23988.11520340009
 20
693.7368366076551
 30
0.0
 11
23988.11520340009
 21
551.0092631240476
 31
0.0
  0
LINE
  5
279D1
330
272EA
100
AcDbEntity
  8
waku
  6
Continuous
370
     9
100
AcDbLine
 10
23988.11520340009
 20
551.0092631240476
 30
0.0
 11
23998.84290742154
 21
551.0092631240476
 31
0.0
  0
LINE
  5
279D2
330
272EA
100
AcDbEntity
  8
waku
  6
Continuous
370
     9
100
AcDbLine
 10
23949.84180549427
 20
683.7366798967705
 30
0.0
 11
23941.11569168605
 21
683.7366798967705
 31
0.0
  0
LINE
  5
279D3
330
272EA
100
AcDbEntity
  8
waku
  6
Continuous
370
     9
100
AcDbLine
 10
23941.11569168605
 20
683.7366798967705
 30
0.0
 11
23941.11569168605
 21
571.0095765458445
 31
0.0
  0
LINE
  5
279D4
330
272EA
100
AcDbEntity
  8
waku
  6
Continuous
370
     9
100
AcDbLine
 10
23941.11569168605
 20
571.0095765458445
 30
0.0
 11
23949.84180549427
 21
571.0095765458445
 31
0.0
  0
LINE
  5
279D5
330
272EA
100
AcDbEntity
  8
waku
  6
Continuous
370
     9
100
AcDbLine
 10
23949.84180549427
 20
571.0095765458445
 30
0.0
 11
23949.84180549427
 21
683.7366798967705
 31
0.0
  0
LINE
  5
279D6
330
272EA
100
AcDbEntity
  8
waku
  6
Continuous
370
     9
100
AcDbLine
 10
23870.11669464921
 20
551.2943416366996
 30
0.0
 11
23902.8422937803
 21
585.5177929898998
 31
0.0
  0
LINE
  5
279D7
330
272EA
100
AcDbEntity
  8
waku
  6
Continuous
370
     9
100
AcDbLine
 10
23902.8422937803
 20
585.5177929898998
 30
0.0
 11
23902.8422937803
 21
693.7368366076551
 31
0.0
  0
LINE
  5
279D8
330
272EA
100
AcDbEntity
  8
waku
  6
Continuous
370
     9
100
AcDbLine
 10
23902.8422937803
 20
693.7368366076551
 30
0.0
 11
23892.11548054224
 21
693.7368366076551
 31
0.0
  0
LINE
  5
279D9
330
272EA
100
AcDbEntity
  8
waku
  6
Continuous
370
     9
100
AcDbLine
 10
23892.11548054224
 20
693.7368366076551
 30
0.0
 11
23892.11548054224
 21
595.4014797762791
 31
0.0
  0
LINE
  5
279DA
330
272EA
100
AcDbEntity
  8
waku
  6
Continuous
370
     9
100
AcDbLine
 10
23892.11548054224
 20
595.4014797762791
 30
0.0
 11
23870.11669464921
 21
568.1987374859327
 31
0.0
  0
LINE
  5
279DB
330
272EA
100
AcDbEntity
  8
waku
  6
Continuous
370
     9
100
AcDbLine
 10
23870.11669464921
 20
568.1987374859327
 30
0.0
 11
23870.11669464921
 21
551.2943416366996
 31
0.0
  0
LINE
  5
279DC
330
272EA
100
AcDbEntity
  8
waku
  6
Continuous
370
     9
100
AcDbLine
 10
23742.11825188342
 20
661.0090105182425
 30
0.0
 11
23742.11825188342
 21
683.7366798967705
 31
0.0
  0
LINE
  5
279DD
330
272EA
100
AcDbEntity
  8
waku
  6
Continuous
370
     9
100
AcDbLine
 10
23742.11825188342
 20
683.7366798967705
 30
0.0
 11
23783.11566530826
 21
683.7366798967705
 31
0.0
  0
LINE
  5
279DE
330
272EA
100
AcDbEntity
  8
waku
  6
Continuous
370
     9
100
AcDbLine
 10
23783.11566530826
 20
683.7366798967705
 30
0.0
 11
23783.11566530826
 21
693.7368366076551
 31
0.0
  0
LINE
  5
279DF
330
272EA
100
AcDbEntity
  8
waku
  6
Continuous
370
     9
100
AcDbLine
 10
23783.11566530826
 20
693.7368366076551
 30
0.0
 11
23793.84247854631
 21
693.7368366076551
 31
0.0
  0
LINE
  5
279E0
330
272EA
100
AcDbEntity
  8
waku
  6
Continuous
370
     9
100
AcDbLine
 10
23793.84247854631
 20
693.7368366076551
 30
0.0
 11
23793.84247854631
 21
683.7366798967705
 31
0.0
  0
LINE
  5
279E1
330
272EA
100
AcDbEntity
  8
waku
  6
Continuous
370
     9
100
AcDbLine
 10
23793.84247854631
 20
683.7366798967705
 30
0.0
 11
23826.47721777443
 21
683.7366798967705
 31
0.0
  0
LINE
  5
279E2
330
272EA
100
AcDbEntity
  8
waku
  6
Continuous
370
     9
100
AcDbLine
 10
23826.47721777443
 20
683.7366798967705
 30
0.0
 11
23832.84186489158
 21
677.3727008671047
 31
0.0
  0
LINE
  5
279E3
330
272EA
100
AcDbEntity
  8
waku
  6
Continuous
370
     9
100
AcDbLine
 10
23832.84186489158
 20
677.3727008671047
 30
0.0
 11
23832.84186489158
 21
661.0090105182425
 31
0.0
  0
LINE
  5
279E4
330
272EA
100
AcDbEntity
  8
waku
  6
Continuous
370
     9
100
AcDbLine
 10
23832.84186489158
 20
661.0090105182425
 30
0.0
 11
23822.11416087032
 21
661.0090105182425
 31
0.0
  0
LINE
  5
279E5
330
272EA
100
AcDbEntity
  8
waku
  6
Continuous
370
     9
100
AcDbLine
 10
23822.11416087032
 20
661.0090105182425
 30
0.0
 11
23822.11416087032
 21
675.0094526093253
 31
0.0
  0
LINE
  5
279E6
330
272EA
100
AcDbEntity
  8
waku
  6
Continuous
370
     9
100
AcDbLine
 10
23822.11416087032
 20
675.0094526093253
 30
0.0
 11
23752.8423927711
 21
675.0094526093253
 31
0.0
  0
LINE
  5
279E7
330
272EA
100
AcDbEntity
  8
waku
  6
Continuous
370
     9
100
AcDbLine
 10
23752.8423927711
 20
675.0094526093253
 30
0.0
 11
23752.8423927711
 21
661.0090105182425
 31
0.0
  0
LINE
  5
279E8
330
272EA
100
AcDbEntity
  8
waku
  6
Continuous
370
     9
100
AcDbLine
 10
23752.8423927711
 20
661.0090105182425
 30
0.0
 11
23742.11825188342
 21
661.0090105182425
 31
0.0
  0
LINE
  5
279E9
330
272EA
100
AcDbEntity
  8
waku
  6
Continuous
370
     9
100
AcDbLine
 10
23742.11825188342
 20
629.008954435072
 30
0.0
 11
23783.11566530826
 21
629.008954435072
 31
0.0
  0
LINE
  5
279EA
330
272EA
100
AcDbEntity
  8
waku
  6
Continuous
370
     9
100
AcDbLine
 10
23783.11566530826
 20
629.008954435072
 30
0.0
 11
23783.11566530826
 21
577.3725812812026
 31
0.0
  0
LINE
  5
279EB
330
272EA
100
AcDbEntity
  8
waku
  6
Continuous
370
     9
100
AcDbLine
 10
23783.11566530826
 20
577.3725812812026
 30
0.0
 11
23773.47917090478
 21
567.736448758338
 31
0.0
  0
LINE
  5
279EC
330
272EA
100
AcDbEntity
  8
waku
  6
Continuous
370
     9
100
AcDbLine
 10
23773.47917090478
 20
567.736448758338
 30
0.0
 11
23766.48295838421
 21
567.736448758338
 31
0.0
  0
LINE
  5
279ED
330
272EA
100
AcDbEntity
  8
waku
  6
Continuous
370
     9
100
AcDbLine
 10
23766.48295838421
 20
567.736448758338
 30
0.0
 11
23752.8423927711
 21
581.3725326176209
 31
0.0
  0
LINE
  5
279EE
330
272EA
100
AcDbEntity
  8
waku
  6
Continuous
370
     9
100
AcDbLine
 10
23752.8423927711
 20
581.3725326176209
 30
0.0
 11
23752.8423927711
 21
613.7364737039262
 31
0.0
  0
LINE
  5
279EF
330
272EA
100
AcDbEntity
  8
waku
  6
Continuous
370
     9
100
AcDbLine
 10
23752.8423927711
 20
613.7364737039262
 30
0.0
 11
23742.11825188342
 21
613.7364737039262
 31
0.0
  0
LINE
  5
279F0
330
272EA
100
AcDbEntity
  8
waku
  6
Continuous
370
     9
100
AcDbLine
 10
23742.11825188342
 20
613.7364737039262
 30
0.0
 11
23742.11825188342
 21
567.3729813099144
 31
0.0
  0
LINE
  5
279F1
330
272EA
100
AcDbEntity
  8
waku
  6
Continuous
370
     9
100
AcDbLine
 10
23742.11825188342
 20
567.3729813099144
 30
0.0
 11
23758.4783790987
 21
551.0092631240476
 31
0.0
  0
LINE
  5
279F2
330
272EA
100
AcDbEntity
  8
waku
  6
Continuous
370
     9
100
AcDbLine
 10
23758.4783790987
 20
551.0092631240476
 30
0.0
 11
23832.84186489158
 21
551.0092631240476
 31
0.0
  0
LINE
  5
279F3
330
272EA
100
AcDbEntity
  8
waku
  6
Continuous
370
     9
100
AcDbLine
 10
23832.84186489158
 20
551.0092631240476
 30
0.0
 11
23832.84186489158
 21
567.736448758338
 31
0.0
  0
LINE
  5
279F4
330
272EA
100
AcDbEntity
  8
waku
  6
Continuous
370
     9
100
AcDbLine
 10
23832.84186489158
 20
567.736448758338
 30
0.0
 11
23793.84247854631
 21
567.736448758338
 31
0.0
  0
LINE
  5
279F5
330
272EA
100
AcDbEntity
  8
waku
  6
Continuous
370
     9
100
AcDbLine
 10
23793.84247854631
 20
567.736448758338
 30
0.0
 11
23793.84247854631
 21
593.0092810592632
 31
0.0
  0
LINE
  5
279F6
330
272EA
100
AcDbEntity
  8
waku
  6
Continuous
370
     9
100
AcDbLine
 10
23793.84247854631
 20
593.0092810592632
 30
0.0
 11
23832.84186489158
 21
593.0092810592632
 31
0.0
  0
LINE
  5
279F7
330
272EA
100
AcDbEntity
  8
waku
  6
Continuous
370
     9
100
AcDbLine
 10
23832.84186489158
 20
593.0092810592632
 30
0.0
 11
23832.84186489158
 21
603.7360942971973
 31
0.0
  0
LINE
  5
279F8
330
272EA
100
AcDbEntity
  8
waku
  6
Continuous
370
     9
100
AcDbLine
 10
23832.84186489158
 20
603.7360942971973
 30
0.0
 11
23793.84247854631
 21
603.7360942971973
 31
0.0
  0
LINE
  5
279F9
330
272EA
100
AcDbEntity
  8
waku
  6
Continuous
370
     9
100
AcDbLine
 10
23793.84247854631
 20
603.7360942971973
 30
0.0
 11
23793.84247854631
 21
629.008954435072
 31
0.0
  0
LINE
  5
279FA
330
272EA
100
AcDbEntity
  8
waku
  6
Continuous
370
     9
100
AcDbLine
 10
23793.84247854631
 20
629.008954435072
 30
0.0
 11
23832.84186489158
 21
629.008954435072
 31
0.0
  0
LINE
  5
279FB
330
272EA
100
AcDbEntity
  8
waku
  6
Continuous
370
     9
100
AcDbLine
 10
23832.84186489158
 20
629.008954435072
 30
0.0
 11
23832.84186489158
 21
639.7362130646942
 31
0.0
  0
LINE
  5
279FC
330
272EA
100
AcDbEntity
  8
waku
  6
Continuous
370
     9
100
AcDbLine
 10
23832.84186489158
 20
639.7362130646942
 30
0.0
 11
23742.11825188342
 21
639.7362130646942
 31
0.0
  0
LINE
  5
279FD
330
272EA
100
AcDbEntity
  8
waku
  6
Continuous
370
     9
100
AcDbLine
 10
23742.11825188342
 20
639.7362130646942
 30
0.0
 11
23742.11825188342
 21
629.008954435072
 31
0.0
  0
LINE
  5
279FE
330
272EA
100
AcDbEntity
  8
waku
  6
Continuous
370
     9
100
AcDbLine
 10
23724.84239937249
 20
603.7360942971973
 30
0.0
 11
23724.84239937249
 21
593.2800792011094
 31
0.0
  0
LINE
  5
279FF
330
272EA
100
AcDbEntity
  8
waku
  6
Continuous
370
     9
100
AcDbLine
 10
23724.84239937249
 20
593.2800792011094
 30
0.0
 11
23692.1159094579
 21
551.5491056780465
 31
0.0
  0
LINE
  5
27A00
330
272EA
100
AcDbEntity
  8
waku
  6
Continuous
370
     9
100
AcDbLine
 10
23692.1159094579
 20
551.5491056780465
 30
0.0
 11
23692.1159094579
 21
568.5207835080436
 31
0.0
  0
LINE
  5
27A01
330
272EA
100
AcDbEntity
  8
waku
  6
Continuous
370
     9
100
AcDbLine
 10
23692.1159094579
 20
568.5207835080436
 30
0.0
 11
23714.11469535105
 21
593.0355591683983
 31
0.0
  0
LINE
  5
27A02
330
272EA
100
AcDbEntity
  8
waku
  6
Continuous
370
     9
100
AcDbLine
 10
23714.11469535105
 20
593.0355591683983
 30
0.0
 11
23714.11469535105
 21
603.7360942971973
 31
0.0
  0
LINE
  5
27A03
330
272EA
100
AcDbEntity
  8
waku
  6
Continuous
370
     9
100
AcDbLine
 10
23714.11469535105
 20
603.7360942971973
 30
0.0
 11
23724.84239937249
 21
603.7360942971973
 31
0.0
  0
LINE
  5
27A04
330
272EA
100
AcDbEntity
  8
waku
  6
Continuous
370
     9
100
AcDbLine
 10
23724.84239937249
 20
643.8645485530977
 30
0.0
 11
23724.84239937249
 21
633.3938355315476
 31
0.0
  0
LINE
  5
27A05
330
272EA
100
AcDbEntity
  8
waku
  6
Continuous
370
     9
100
AcDbLine
 10
23724.84239937249
 20
633.3938355315476
 30
0.0
 11
23692.1159094579
 21
642.162985310948
 31
0.0
  0
LINE
  5
27A06
330
272EA
100
AcDbEntity
  8
waku
  6
Continuous
370
     9
100
AcDbLine
 10
23692.1159094579
 20
642.162985310948
 30
0.0
 11
23692.1159094579
 21
652.6338653543879
 31
0.0
  0
LINE
  5
27A07
330
272EA
100
AcDbEntity
  8
waku
  6
Continuous
370
     9
100
AcDbLine
 10
23692.1159094579
 20
652.6338653543879
 30
0.0
 11
23724.84239937249
 21
643.8645485530977
 31
0.0
  0
LINE
  5
27A08
330
272EA
100
AcDbEntity
  8
waku
  6
Continuous
370
     9
100
AcDbLine
 10
23724.84239937249
 20
683.864730004976
 30
0.0
 11
23692.1159094579
 21
692.633601414578
 31
0.0
  0
LINE
  5
27A09
330
272EA
100
AcDbEntity
  8
waku
  6
Continuous
370
     9
100
AcDbLine
 10
23692.1159094579
 20
692.633601414578
 30
0.0
 11
23692.1159094579
 21
682.1628883930278
 31
0.0
  0
LINE
  5
27A0A
330
272EA
100
AcDbEntity
  8
waku
  6
Continuous
370
     9
100
AcDbLine
 10
23692.1159094579
 20
682.1628883930278
 30
0.0
 11
23724.84239937249
 21
673.3935715917377
 31
0.0
  0
LINE
  5
27A0B
330
272EA
100
AcDbEntity
  8
waku
  6
Continuous
370
     9
100
AcDbLine
 10
23724.84239937249
 20
673.3935715917377
 30
0.0
 11
23724.84239937249
 21
683.864730004976
 31
0.0
  0
LINE
  5
27A0C
330
272EA
100
AcDbEntity
  8
waku
  6
Continuous
370
     9
100
AcDbLine
 10
24197.93387947703
 20
551.4658174337601
 30
0.0
 11
24132.8737351108
 21
593.7361602821566
 31
0.0
  0
LINE
  5
27A0D
330
272EA
100
AcDbEntity
  8
waku
  6
Continuous
370
     9
100
AcDbLine
 10
24132.8737351108
 20
593.7361602821566
 30
0.0
 11
24150.2137240236
 21
593.7361602821566
 31
0.0
  0
LINE
  5
27A0E
330
272EA
100
AcDbEntity
  8
waku
  6
Continuous
370
     9
100
AcDbLine
 10
24150.2137240236
 20
593.7361602821566
 30
0.0
 11
24175.20821436122
 21
579.0190829768162
 31
0.0
  0
LINE
  5
27A0F
330
272EA
100
AcDbEntity
  8
waku
  6
Continuous
370
     9
100
AcDbLine
 10
24175.20821436122
 20
579.0190829768162
 30
0.0
 11
24175.20821436122
 21
586.7363846282897
 31
0.0
  0
LINE
  5
27A10
330
272EA
100
AcDbEntity
  8
waku
  6
Continuous
370
     9
100
AcDbLine
 10
24175.20821436122
 20
586.7363846282897
 30
0.0
 11
24187.93216389528
 21
586.7363846282897
 31
0.0
  0
LINE
  5
27A11
330
272EA
100
AcDbEntity
  8
waku
  6
Continuous
370
     9
100
AcDbLine
 10
24187.93216389528
 20
586.7363846282897
 30
0.0
 11
24187.93216389528
 21
575.3633080616472
 31
0.0
  0
LINE
  5
27A12
330
272EA
100
AcDbEntity
  8
waku
  6
Continuous
370
     9
100
AcDbLine
 10
24187.93216389528
 20
575.3633080616472
 30
0.0
 11
24197.93387947703
 21
573.9482986920719
 31
0.0
  0
LINE
  5
27A13
330
272EA
100
AcDbEntity
  8
waku
  6
Continuous
370
     9
100
AcDbLine
 10
24197.93387947703
 20
573.9482986920719
 30
0.0
 11
24197.93387947703
 21
551.4658174337601
 31
0.0
  0
LINE
  5
27A14
330
272EA
100
AcDbEntity
  8
waku
  6
Continuous
370
     9
100
AcDbLine
 10
24127.93345058849
 20
563.5604285231202
 30
0.0
 11
24085.20702665905
 21
552.1116353707801
 31
0.0
  0
LINE
  5
27A15
330
272EA
100
AcDbEntity
  8
waku
  6
Continuous
370
     9
100
AcDbLine
 10
24085.20702665905
 20
552.1116353707801
 30
0.0
 11
24085.20702665905
 21
570.850293346035
 31
0.0
  0
LINE
  5
27A16
330
272EA
100
AcDbEntity
  8
waku
  6
Continuous
370
     9
100
AcDbLine
 10
24085.20702665905
 20
570.850293346035
 30
0.0
 11
24091.74003183143
 21
576.3333711422148
 31
0.0
  0
LINE
  5
27A17
330
272EA
100
AcDbEntity
  8
waku
  6
Continuous
370
     9
100
AcDbLine
 10
24091.74003183143
 20
576.3333711422148
 30
0.0
 11
24127.93345058849
 21
586.0313295977321
 31
0.0
  0
LINE
  5
27A18
330
272EA
100
AcDbEntity
  8
waku
  6
Continuous
370
     9
100
AcDbLine
 10
24127.93345058849
 20
586.0313295977321
 30
0.0
 11
24127.93345058849
 21
563.5604285231202
 31
0.0
  0
LINE
  5
27A19
330
272EA
100
AcDbEntity
  8
waku
  6
Continuous
370
     9
100
AcDbLine
 10
24087.93193296157
 20
582.6325456823232
 30
0.0
 11
24087.93193296157
 21
593.7361602821566
 31
0.0
  0
LINE
  5
27A1A
330
272EA
100
AcDbEntity
  8
waku
  6
Continuous
370
     9
100
AcDbLine
 10
24087.93193296157
 20
593.7361602821566
 30
0.0
 11
24076.72765984183
 21
593.7361602821566
 31
0.0
  0
LINE
  5
27A1B
330
272EA
100
AcDbEntity
  8
waku
  6
Continuous
370
     9
100
AcDbLine
 10
24076.72765984183
 20
593.7361602821566
 30
0.0
 11
24055.20544304722
 21
575.6768638048432
 31
0.0
  0
LINE
  5
27A1C
330
272EA
100
AcDbEntity
  8
waku
  6
Continuous
370
     9
100
AcDbLine
 10
24055.20544304722
 20
575.6768638048432
 30
0.0
 11
24055.20544304722
 21
555.1709751515373
 31
0.0
  0
LINE
  5
27A1D
330
272EA
100
AcDbEntity
  8
waku
  6
Continuous
370
     9
100
AcDbLine
 10
24055.20544304722
 20
555.1709751515373
 30
0.0
 11
24087.93193296157
 21
582.6325456823232
 31
0.0
  0
LINE
  5
27A1E
330
272EA
100
AcDbEntity
  8
waku
  6
Continuous
370
     9
100
AcDbLine
 10
24197.93387947703
 20
603.7360942971973
 30
0.0
 11
24130.93271816615
 21
603.7360942971973
 31
0.0
  0
LINE
  5
27A1F
330
272EA
100
AcDbEntity
  8
waku
  6
Continuous
370
     9
100
AcDbLine
 10
24130.93271816615
 20
603.7360942971973
 30
0.0
 11
24130.93271816615
 21
613.7364737039262
 31
0.0
  0
LINE
  5
27A20
330
272EA
100
AcDbEntity
  8
waku
  6
Continuous
370
     9
100
AcDbLine
 10
24130.93271816615
 20
613.7364737039262
 30
0.0
 11
24122.20660435793
 21
613.7364737039262
 31
0.0
  0
LINE
  5
27A21
330
272EA
100
AcDbEntity
  8
waku
  6
Continuous
370
     9
100
AcDbLine
 10
24122.20660435793
 20
613.7364737039262
 30
0.0
 11
24122.20660435793
 21
603.7360942971973
 31
0.0
  0
LINE
  5
27A22
330
272EA
100
AcDbEntity
  8
waku
  6
Continuous
370
     9
100
AcDbLine
 10
24122.20660435793
 20
603.7360942971973
 30
0.0
 11
24055.20544304722
 21
603.7360942971973
 31
0.0
  0
LINE
  5
27A23
330
272EA
100
AcDbEntity
  8
waku
  6
Continuous
370
     9
100
AcDbLine
 10
24055.20544304722
 20
603.7360942971973
 30
0.0
 11
24055.20544304722
 21
601.0089610362829
 31
0.0
  0
LINE
  5
27A24
330
272EA
100
AcDbEntity
  8
waku
  6
Continuous
370
     9
100
AcDbLine
 10
24055.20544304722
 20
601.0089610362829
 30
0.0
 11
24197.93387947703
 21
601.0089610362829
 31
0.0
  0
LINE
  5
27A25
330
272EA
100
AcDbEntity
  8
waku
  6
Continuous
370
     9
100
AcDbLine
 10
24197.93387947703
 20
601.0089610362829
 30
0.0
 11
24197.93387947703
 21
603.7360942971973
 31
0.0
  0
LINE
  5
27A26
330
272EA
100
AcDbEntity
  8
waku
  6
Continuous
370
     9
100
AcDbLine
 10
24197.93387947703
 20
693.7368366076551
 30
0.0
 11
24197.93387947703
 21
637.3729648069147
 31
0.0
  0
LINE
  5
27A27
330
272EA
100
AcDbEntity
  8
waku
  6
Continuous
370
     9
100
AcDbLine
 10
24197.93387947703
 20
637.3729648069147
 30
0.0
 11
24181.57107991167
 21
621.0092744580523
 31
0.0
  0
LINE
  5
27A28
330
272EA
100
AcDbEntity
  8
waku
  6
Continuous
370
     9
100
AcDbLine
 10
24181.57107991167
 20
621.0092744580523
 30
0.0
 11
24155.21101868112
 21
621.0092744580523
 31
0.0
  0
LINE
  5
27A29
330
272EA
100
AcDbEntity
  8
waku
  6
Continuous
370
     9
100
AcDbLine
 10
24155.21101868112
 20
621.0092744580523
 30
0.0
 11
24155.21101868112
 21
629.7362790496809
 31
0.0
  0
LINE
  5
27A2A
330
272EA
100
AcDbEntity
  8
waku
  6
Continuous
370
     9
100
AcDbLine
 10
24155.21101868112
 20
629.7362790496809
 30
0.0
 11
24177.5705718355
 21
629.7362790496809
 31
0.0
  0
LINE
  5
27A2B
330
272EA
100
AcDbEntity
  8
waku
  6
Continuous
370
     9
100
AcDbLine
 10
24177.5705718355
 20
629.7362790496809
 30
0.0
 11
24191.21024666529
 21
643.3727804636474
 31
0.0
  0
LINE
  5
27A2C
330
272EA
100
AcDbEntity
  8
waku
  6
Continuous
370
     9
100
AcDbLine
 10
24191.21024666529
 20
643.3727804636474
 30
0.0
 11
24191.21024666529
 21
693.7368366076551
 31
0.0
  0
LINE
  5
27A2D
330
272EA
100
AcDbEntity
  8
waku
  6
Continuous
370
     9
100
AcDbLine
 10
24191.21024666529
 20
693.7368366076551
 30
0.0
 11
24197.93387947703
 21
693.7368366076551
 31
0.0
  0
LINE
  5
27A2E
330
272EA
100
AcDbEntity
  8
waku
  6
Continuous
370
     9
100
AcDbLine
 10
24155.21101868112
 20
693.7368366076551
 30
0.0
 11
24155.21101868112
 21
651.0095218948626
 31
0.0
  0
LINE
  5
27A2F
330
272EA
100
AcDbEntity
  8
waku
  6
Continuous
370
     9
100
AcDbLine
 10
24155.21101868112
 20
651.0095218948626
 30
0.0
 11
24163.93446013931
 21
651.0095218948626
 31
0.0
  0
LINE
  5
27A30
330
272EA
100
AcDbEntity
  8
waku
  6
Continuous
370
     9
100
AcDbLine
 10
24163.93446013931
 20
651.0095218948626
 30
0.0
 11
24163.93446013931
 21
693.7368366076551
 31
0.0
  0
LINE
  5
27A31
330
272EA
100
AcDbEntity
  8
waku
  6
Continuous
370
     9
100
AcDbLine
 10
24163.93446013931
 20
693.7368366076551
 30
0.0
 11
24155.21101868112
 21
693.7368366076551
 31
0.0
  0
LINE
  5
27A32
330
272EA
100
AcDbEntity
  8
waku
  6
Continuous
370
     9
100
AcDbLine
 10
24061.93263899244
 20
637.0090798038072
 30
0.0
 11
24092.20680231275
 21
637.0090798038072
 31
0.0
  0
LINE
  5
27A33
330
272EA
100
AcDbEntity
  8
waku
  6
Continuous
370
     9
100
AcDbLine
 10
24092.20680231275
 20
637.0090798038072
 30
0.0
 11
24092.20680231275
 21
621.0092744580523
 31
0.0
  0
LINE
  5
27A34
330
272EA
100
AcDbEntity
  8
waku
  6
Continuous
370
     9
100
AcDbLine
 10
24092.20680231275
 20
621.0092744580523
 30
0.0
 11
24100.93380690447
 21
621.0092744580523
 31
0.0
  0
LINE
  5
27A35
330
272EA
100
AcDbEntity
  8
waku
  6
Continuous
370
     9
100
AcDbLine
 10
24100.93380690447
 20
621.0092744580523
 30
0.0
 11
24100.93380690447
 21
637.0090798038072
 31
0.0
  0
LINE
  5
27A36
330
272EA
100
AcDbEntity
  8
waku
  6
Continuous
370
     9
100
AcDbLine
 10
24100.93380690447
 20
637.0090798038072
 30
0.0
 11
24131.20618865808
 21
637.0090798038072
 31
0.0
  0
LINE
  5
27A37
330
272EA
100
AcDbEntity
  8
waku
  6
Continuous
370
     9
100
AcDbLine
 10
24131.20618865808
 20
637.0090798038072
 30
0.0
 11
24131.20618865808
 21
621.0092744580523
 31
0.0
  0
LINE
  5
27A38
330
272EA
100
AcDbEntity
  8
waku
  6
Continuous
370
     9
100
AcDbLine
 10
24131.20618865808
 20
621.0092744580523
 30
0.0
 11
24137.93249382009
 21
621.0092744580523
 31
0.0
  0
LINE
  5
27A39
330
272EA
100
AcDbEntity
  8
waku
  6
Continuous
370
     9
100
AcDbLine
 10
24137.93249382009
 20
621.0092744580523
 30
0.0
 11
24137.93249382009
 21
641.7364671027152
 31
0.0
  0
LINE
  5
27A3A
330
272EA
100
AcDbEntity
  8
waku
  6
Continuous
370
     9
100
AcDbLine
 10
24137.93249382009
 20
641.7364671027152
 30
0.0
 11
24100.93380690447
 21
641.7364671027152
 31
0.0
  0
LINE
  5
27A3B
330
272EA
100
AcDbEntity
  8
waku
  6
Continuous
370
     9
100
AcDbLine
 10
24100.93380690447
 20
641.7364671027152
 30
0.0
 11
24100.93380690447
 21
659.0092575458639
 31
0.0
  0
LINE
  5
27A3C
330
272EA
100
AcDbEntity
  8
waku
  6
Continuous
370
     9
100
AcDbLine
 10
24100.93380690447
 20
659.0092575458639
 30
0.0
 11
24137.93249382009
 21
659.0092575458639
 31
0.0
  0
LINE
  5
27A3D
330
272EA
100
AcDbEntity
  8
waku
  6
Continuous
370
     9
100
AcDbLine
 10
24137.93249382009
 20
659.0092575458639
 30
0.0
 11
24137.93249382009
 21
663.736589170845
 31
0.0
  0
LINE
  5
27A3E
330
272EA
100
AcDbEntity
  8
waku
  6
Continuous
370
     9
100
AcDbLine
 10
24137.93249382009
 20
663.736589170845
 30
0.0
 11
24100.93380690447
 21
663.736589170845
 31
0.0
  0
LINE
  5
27A3F
330
272EA
100
AcDbEntity
  8
waku
  6
Continuous
370
     9
100
AcDbLine
 10
24100.93380690447
 20
663.736589170845
 30
0.0
 11
24100.93380690447
 21
681.0088785483238
 31
0.0
  0
LINE
  5
27A40
330
272EA
100
AcDbEntity
  8
waku
  6
Continuous
370
     9
100
AcDbLine
 10
24100.93380690447
 20
681.0088785483238
 30
0.0
 11
24137.93249382009
 21
681.0088785483238
 31
0.0
  0
LINE
  5
27A41
330
272EA
100
AcDbEntity
  8
waku
  6
Continuous
370
     9
100
AcDbLine
 10
24137.93249382009
 20
681.0088785483238
 30
0.0
 11
24137.93249382009
 21
685.7362658472592
 31
0.0
  0
LINE
  5
27A42
330
272EA
100
AcDbEntity
  8
waku
  6
Continuous
370
     9
100
AcDbLine
 10
24137.93249382009
 20
685.7362658472592
 30
0.0
 11
24100.93380690447
 21
685.7362658472592
 31
0.0
  0
LINE
  5
27A43
330
272EA
100
AcDbEntity
  8
waku
  6
Continuous
370
     9
100
AcDbLine
 10
24100.93380690447
 20
685.7362658472592
 30
0.0
 11
24100.93380690447
 21
693.7368366076551
 31
0.0
  0
LINE
  5
27A44
330
272EA
100
AcDbEntity
  8
waku
  6
Continuous
370
     9
100
AcDbLine
 10
24100.93380690447
 20
693.7368366076551
 30
0.0
 11
24092.20680231275
 21
693.7368366076551
 31
0.0
  0
LINE
  5
27A45
330
272EA
100
AcDbEntity
  8
waku
  6
Continuous
370
     9
100
AcDbLine
 10
24092.20680231275
 20
693.7368366076551
 30
0.0
 11
24092.20680231275
 21
685.7362658472592
 31
0.0
  0
LINE
  5
27A46
330
272EA
100
AcDbEntity
  8
waku
  6
Continuous
370
     9
100
AcDbLine
 10
24092.20680231275
 20
685.7362658472592
 30
0.0
 11
24059.9390658295
 21
685.7362658472592
 31
0.0
  0
LINE
  5
27A47
330
272EA
100
AcDbEntity
  8
waku
  6
Continuous
370
     9
100
AcDbLine
 10
24059.9390658295
 20
685.7362658472592
 30
0.0
 11
24059.9390658295
 21
693.7368366076551
 31
0.0
  0
LINE
  5
27A48
330
272EA
100
AcDbEntity
  8
waku
  6
Continuous
370
     9
100
AcDbLine
 10
24059.9390658295
 20
693.7368366076551
 30
0.0
 11
24055.20544304722
 21
693.7368366076551
 31
0.0
  0
LINE
  5
27A49
330
272EA
100
AcDbEntity
  8
waku
  6
Continuous
370
     9
100
AcDbLine
 10
24055.20544304722
 20
693.7368366076551
 30
0.0
 11
24055.20544304722
 21
681.0088785483238
 31
0.0
  0
LINE
  5
27A4A
330
272EA
100
AcDbEntity
  8
waku
  6
Continuous
370
     9
100
AcDbLine
 10
24055.20544304722
 20
681.0088785483238
 30
0.0
 11
24092.20680231275
 21
681.0088785483238
 31
0.0
  0
LINE
  5
27A4B
330
272EA
100
AcDbEntity
  8
waku
  6
Continuous
370
     9
100
AcDbLine
 10
24092.20680231275
 20
681.0088785483238
 30
0.0
 11
24092.20680231275
 21
663.736589170845
 31
0.0
  0
LINE
  5
27A4C
330
272EA
100
AcDbEntity
  8
waku
  6
Continuous
370
     9
100
AcDbLine
 10
24092.20680231275
 20
663.736589170845
 30
0.0
 11
24055.20544304722
 21
663.736589170845
 31
0.0
  0
LINE
  5
27A4D
330
272EA
100
AcDbEntity
  8
waku
  6
Continuous
370
     9
100
AcDbLine
 10
24055.20544304722
 20
663.736589170845
 30
0.0
 11
24055.20544304722
 21
659.0092575458639
 31
0.0
  0
LINE
  5
27A4E
330
272EA
100
AcDbEntity
  8
waku
  6
Continuous
370
     9
100
AcDbLine
 10
24055.20544304722
 20
659.0092575458639
 30
0.0
 11
24092.20680231275
 21
659.0092575458639
 31
0.0
  0
LINE
  5
27A4F
330
272EA
100
AcDbEntity
  8
waku
  6
Continuous
370
     9
100
AcDbLine
 10
24092.20680231275
 20
659.0092575458639
 30
0.0
 11
24092.20680231275
 21
641.7364671027152
 31
0.0
  0
LINE
  5
27A50
330
272EA
100
AcDbEntity
  8
waku
  6
Continuous
370
     9
100
AcDbLine
 10
24092.20680231275
 20
641.7364671027152
 30
0.0
 11
24055.20544304722
 21
641.7364671027152
 31
0.0
  0
LINE
  5
27A51
330
272EA
100
AcDbEntity
  8
waku
  6
Continuous
370
     9
100
AcDbLine
 10
24055.20544304722
 20
641.7364671027152
 30
0.0
 11
24055.20544304722
 21
621.0092744580523
 31
0.0
  0
LINE
  5
27A52
330
272EA
100
AcDbEntity
  8
waku
  6
Continuous
370
     9
100
AcDbLine
 10
24055.20544304722
 20
621.0092744580523
 30
0.0
 11
24061.93263899244
 21
621.0092744580523
 31
0.0
  0
LINE
  5
27A53
330
272EA
100
AcDbEntity
  8
waku
  6
Continuous
370
     9
100
AcDbLine
 10
24061.93263899244
 20
621.0092744580523
 30
0.0
 11
24061.93263899244
 21
637.0090798038072
 31
0.0
  0
LINE
  5
27A54
330
272EA
100
AcDbEntity
  8
waku
  6
Continuous
370
     9
100
AcDbLine
 10
24280.20128603559
 20
682.0524312562028
 30
0.0
 11
24254.29730588611
 21
656.1520142402205
 31
0.0
  0
LINE
  5
27A55
330
272EA
100
AcDbEntity
  8
waku
  6
Continuous
370
     9
100
AcDbLine
 10
24254.29730588611
 20
656.1520142402205
 30
0.0
 11
24254.29730588611
 21
665.8663965139712
 31
0.0
  0
LINE
  5
27A56
330
272EA
100
AcDbEntity
  8
waku
  6
Continuous
370
     9
100
AcDbLine
 10
24254.29730588611
 20
665.8663965139712
 30
0.0
 11
24281.12413759798
 21
692.6932838997763
 31
0.0
  0
LINE
  5
27A57
330
272EA
100
AcDbEntity
  8
waku
  6
Continuous
370
     9
100
AcDbLine
 10
24281.12413759798
 20
692.6932838997763
 30
0.0
 11
24307.0245546141
 21
675.4268402881153
 31
0.0
  0
LINE
  5
27A58
330
272EA
100
AcDbEntity
  8
waku
  6
Continuous
370
     9
100
AcDbLine
 10
24307.0245546141
 20
675.4268402881153
 30
0.0
 11
24307.0245546141
 21
664.1672829260787
 31
0.0
  0
LINE
  5
27A59
330
272EA
100
AcDbEntity
  8
waku
  6
Continuous
370
     9
100
AcDbLine
 10
24307.0245546141
 20
664.1672829260787
 30
0.0
 11
24280.20128603559
 21
682.0524312562028
 31
0.0
  0
LINE
  5
27A5A
330
272EA
100
AcDbEntity
  8
waku
  6
Continuous
370
     9
100
AcDbLine
 10
24277.29555071076
 20
628.0089944379652
 30
0.0
 11
24254.29730588611
 21
628.0089944379652
 31
0.0
  0
LINE
  5
27A5B
330
272EA
100
AcDbEntity
  8
waku
  6
Continuous
370
     9
100
AcDbLine
 10
24254.29730588611
 20
628.0089944379652
 30
0.0
 11
24254.29730588611
 21
633.7363417340075
 31
0.0
  0
LINE
  5
27A5C
330
272EA
100
AcDbEntity
  8
waku
  6
Continuous
370
     9
100
AcDbLine
 10
24254.29730588611
 20
633.7363417340075
 30
0.0
 11
24307.0245546141
 21
633.7363417340075
 31
0.0
  0
LINE
  5
27A5D
330
272EA
100
AcDbEntity
  8
waku
  6
Continuous
370
     9
100
AcDbLine
 10
24307.0245546141
 20
633.7363417340075
 30
0.0
 11
24307.0245546141
 21
628.0089944379652
 31
0.0
  0
LINE
  5
27A5E
330
272EA
100
AcDbEntity
  8
waku
  6
Continuous
370
     9
100
AcDbLine
 10
24307.0245546141
 20
628.0089944379652
 30
0.0
 11
24284.02363743924
 21
628.0089944379652
 31
0.0
  0
LINE
  5
27A5F
330
272EA
100
AcDbEntity
  8
waku
  6
Continuous
370
     9
100
AcDbLine
 10
24284.02363743924
 20
628.0089944379652
 30
0.0
 11
24284.02363743924
 21
606.7366980500593
 31
0.0
  0
LINE
  5
27A60
330
272EA
100
AcDbEntity
  8
waku
  6
Continuous
370
     9
100
AcDbLine
 10
24284.02363743924
 20
606.7366980500593
 30
0.0
 11
24307.0245546141
 21
606.7366980500593
 31
0.0
  0
LINE
  5
27A61
330
272EA
100
AcDbEntity
  8
waku
  6
Continuous
370
     9
100
AcDbLine
 10
24307.0245546141
 20
606.7366980500593
 30
0.0
 11
24307.0245546141
 21
601.0089610362829
 31
0.0
  0
LINE
  5
27A62
330
272EA
100
AcDbEntity
  8
waku
  6
Continuous
370
     9
100
AcDbLine
 10
24307.0245546141
 20
601.0089610362829
 30
0.0
 11
24284.02363743924
 21
601.0089610362829
 31
0.0
  0
LINE
  5
27A63
330
272EA
100
AcDbEntity
  8
waku
  6
Continuous
370
     9
100
AcDbLine
 10
24284.02363743924
 20
601.0089610362829
 30
0.0
 11
24284.02363743924
 21
573.7362922520477
 31
0.0
  0
LINE
  5
27A64
330
272EA
100
AcDbEntity
  8
waku
  6
Continuous
370
     9
100
AcDbLine
 10
24284.02363743924
 20
573.7362922520477
 30
0.0
 11
24302.29716731497
 21
573.7362922520477
 31
0.0
  0
LINE
  5
27A65
330
272EA
100
AcDbEntity
  8
waku
  6
Continuous
370
     9
100
AcDbLine
 10
24302.29716731497
 20
573.7362922520477
 30
0.0
 11
24302.29716731497
 21
586.7363846282897
 31
0.0
  0
LINE
  5
27A66
330
272EA
100
AcDbEntity
  8
waku
  6
Continuous
370
     9
100
AcDbLine
 10
24302.29716731497
 20
586.7363846282897
 30
0.0
 11
24307.0245546141
 21
586.7363846282897
 31
0.0
  0
LINE
  5
27A67
330
272EA
100
AcDbEntity
  8
waku
  6
Continuous
370
     9
100
AcDbLine
 10
24307.0245546141
 20
586.7363846282897
 30
0.0
 11
24307.0245546141
 21
567.3729813099144
 31
0.0
  0
LINE
  5
27A68
330
272EA
100
AcDbEntity
  8
waku
  6
Continuous
370
     9
100
AcDbLine
 10
24307.0245546141
 20
567.3729813099144
 30
0.0
 11
24290.66175504855
 21
551.0092631240476
 31
0.0
  0
LINE
  5
27A69
330
272EA
100
AcDbEntity
  8
waku
  6
Continuous
370
     9
100
AcDbLine
 10
24290.66175504855
 20
551.0092631240476
 30
0.0
 11
24254.29730588611
 21
551.0092631240476
 31
0.0
  0
LINE
  5
27A6A
330
272EA
100
AcDbEntity
  8
waku
  6
Continuous
370
     9
100
AcDbLine
 10
24254.29730588611
 20
551.0092631240476
 30
0.0
 11
24254.29730588611
 21
573.7362922520477
 31
0.0
  0
LINE
  5
27A6B
330
272EA
100
AcDbEntity
  8
waku
  6
Continuous
370
     9
100
AcDbLine
 10
24254.29730588611
 20
573.7362922520477
 30
0.0
 11
24277.29555071076
 21
573.7362922520477
 31
0.0
  0
LINE
  5
27A6C
330
272EA
100
AcDbEntity
  8
waku
  6
Continuous
370
     9
100
AcDbLine
 10
24277.29555071076
 20
573.7362922520477
 30
0.0
 11
24277.29555071076
 21
601.0089610362829
 31
0.0
  0
LINE
  5
27A6D
330
272EA
100
AcDbEntity
  8
waku
  6
Continuous
370
     9
100
AcDbLine
 10
24277.29555071076
 20
601.0089610362829
 30
0.0
 11
24254.29730588611
 21
601.0089610362829
 31
0.0
  0
LINE
  5
27A6E
330
272EA
100
AcDbEntity
  8
waku
  6
Continuous
370
     9
100
AcDbLine
 10
24254.29730588611
 20
601.0089610362829
 30
0.0
 11
24254.29730588611
 21
606.7366980500593
 31
0.0
  0
LINE
  5
27A6F
330
272EA
100
AcDbEntity
  8
waku
  6
Continuous
370
     9
100
AcDbLine
 10
24254.29730588611
 20
606.7366980500593
 30
0.0
 11
24277.29555071076
 21
606.7366980500593
 31
0.0
  0
LINE
  5
27A70
330
272EA
100
AcDbEntity
  8
waku
  6
Continuous
370
     9
100
AcDbLine
 10
24277.29555071076
 20
606.7366980500593
 30
0.0
 11
24277.29555071076
 21
628.0089944379652
 31
0.0
  0
LINE
  5
27A71
330
272EA
100
AcDbEntity
  8
waku
  6
Continuous
370
     9
100
AcDbLine
 10
24254.29730588611
 20
583.3727866556419
 30
0.0
 11
24254.29730588611
 21
586.7363846282897
 31
0.0
  0
LINE
  5
27A72
330
272EA
100
AcDbEntity
  8
waku
  6
Continuous
370
     9
100
AcDbLine
 10
24254.29730588611
 20
586.7363846282897
 30
0.0
 11
24257.02310297208
 21
586.7363846282897
 31
0.0
  0
LINE
  5
27A73
330
272EA
100
AcDbEntity
  8
waku
  6
Continuous
370
     9
100
AcDbLine
 10
24257.02310297208
 20
586.7363846282897
 30
0.0
 11
24257.02310297208
 21
583.3727866556419
 31
0.0
  0
LINE
  5
27A74
330
272EA
100
AcDbEntity
  8
waku
  6
Continuous
370
     9
100
AcDbLine
 10
24377.5247129685
 20
633.0090171194532
 30
0.0
 11
24377.5247129685
 21
637.7363487444072
 31
0.0
  0
LINE
  5
27A75
330
272EA
100
AcDbEntity
  8
waku
  6
Continuous
370
     9
100
AcDbLine
 10
24377.5247129685
 20
637.7363487444072
 30
0.0
 11
24370.18643963715
 21
637.7363487444072
 31
0.0
  0
LINE
  5
27A76
330
272EA
100
AcDbEntity
  8
waku
  6
Continuous
370
     9
100
AcDbLine
 10
24370.18643963715
 20
637.7363487444072
 30
0.0
 11
24376.68025034177
 21
668.7365561783517
 31
0.0
  0
LINE
  5
27A77
330
272EA
100
AcDbEntity
  8
waku
  6
Continuous
370
     9
100
AcDbLine
 10
24376.68025034177
 20
668.7365561783517
 30
0.0
 11
24372.1140948314
 21
668.7365561783517
 31
0.0
  0
LINE
  5
27A78
330
272EA
100
AcDbEntity
  8
waku
  6
Continuous
370
     9
100
AcDbLine
 10
24372.1140948314
 20
668.7365561783517
 30
0.0
 11
24365.61404864316
 21
637.7363487444072
 31
0.0
  0
LINE
  5
27A79
330
272EA
100
AcDbEntity
  8
waku
  6
Continuous
370
     9
100
AcDbLine
 10
24365.61404864316
 20
637.7363487444072
 30
0.0
 11
24352.70748851996
 21
637.7363487444072
 31
0.0
  0
LINE
  5
27A7A
330
272EA
100
AcDbEntity
  8
waku
  6
Continuous
370
     9
100
AcDbLine
 10
24352.70748851996
 20
637.7363487444072
 30
0.0
 11
24346.205660765
 21
668.7365561783517
 31
0.0
  0
LINE
  5
27A7B
330
272EA
100
AcDbEntity
  8
waku
  6
Continuous
370
     9
100
AcDbLine
 10
24346.205660765
 20
668.7365561783517
 30
0.0
 11
24341.6430683881
 21
668.7365561783517
 31
0.0
  0
LINE
  5
27A7C
330
272EA
100
AcDbEntity
  8
waku
  6
Continuous
370
     9
100
AcDbLine
 10
24341.6430683881
 20
668.7365561783517
 30
0.0
 11
24348.13687909249
 21
637.7363487444072
 31
0.0
  0
LINE
  5
27A7D
330
272EA
100
AcDbEntity
  8
waku
  6
Continuous
370
     9
100
AcDbLine
 10
24348.13687909249
 20
637.7363487444072
 30
0.0
 11
24340.79771497811
 21
637.7363487444072
 31
0.0
  0
LINE
  5
27A7E
330
272EA
100
AcDbEntity
  8
waku
  6
Continuous
370
     9
100
AcDbLine
 10
24340.79771497811
 20
637.7363487444072
 30
0.0
 11
24340.79771497811
 21
633.0090171194532
 31
0.0
  0
LINE
  5
27A7F
330
272EA
100
AcDbEntity
  8
waku
  6
Continuous
370
     9
100
AcDbLine
 10
24340.79771497811
 20
633.0090171194532
 30
0.0
 11
24377.5247129685
 21
633.0090171194532
 31
0.0
  0
LINE
  5
27A80
330
272EA
100
AcDbEntity
  8
waku
  6
Continuous
370
     9
100
AcDbLine
 10
24384.79706833081
 20
573.7362922520477
 30
0.0
 11
24393.29781394877
 21
573.7362922520477
 31
0.0
  0
LINE
  5
27A81
330
272EA
100
AcDbEntity
  8
waku
  6
Continuous
370
     9
100
AcDbLine
 10
24393.29781394877
 20
573.7362922520477
 30
0.0
 11
24393.29781394877
 21
685.0089412326777
 31
0.0
  0
LINE
  5
27A82
330
272EA
100
AcDbEntity
  8
waku
  6
Continuous
370
     9
100
AcDbLine
 10
24393.29781394877
 20
685.0089412326777
 30
0.0
 11
24325.02283243096
 21
685.0089412326777
 31
0.0
  0
LINE
  5
27A83
330
272EA
100
AcDbEntity
  8
waku
  6
Continuous
370
     9
100
AcDbLine
 10
24325.02283243096
 20
685.0089412326777
 30
0.0
 11
24325.02283243096
 21
551.0092631240476
 31
0.0
  0
LINE
  5
27A84
330
272EA
100
AcDbEntity
  8
waku
  6
Continuous
370
     9
100
AcDbLine
 10
24325.02283243096
 20
551.0092631240476
 30
0.0
 11
24322.29703534511
 21
551.0092631240476
 31
0.0
  0
LINE
  5
27A85
330
272EA
100
AcDbEntity
  8
waku
  6
Continuous
370
     9
100
AcDbLine
 10
24322.29703534511
 20
551.0092631240476
 30
0.0
 11
24322.29703534511
 21
693.7368366076551
 31
0.0
  0
LINE
  5
27A86
330
272EA
100
AcDbEntity
  8
waku
  6
Continuous
370
     9
100
AcDbLine
 10
24322.29703534511
 20
693.7368366076551
 30
0.0
 11
24396.02450181789
 21
693.7368366076551
 31
0.0
  0
LINE
  5
27A87
330
272EA
100
AcDbEntity
  8
waku
  6
Continuous
370
     9
100
AcDbLine
 10
24396.02450181789
 20
693.7368366076551
 30
0.0
 11
24396.02450181789
 21
557.3726297401626
 31
0.0
  0
LINE
  5
27A88
330
272EA
100
AcDbEntity
  8
waku
  6
Continuous
370
     9
100
AcDbLine
 10
24396.02450181789
 20
557.3726297401626
 30
0.0
 11
24389.65896391729
 21
551.0092631240476
 31
0.0
  0
LINE
  5
27A89
330
272EA
100
AcDbEntity
  8
waku
  6
Continuous
370
     9
100
AcDbLine
 10
24389.65896391729
 20
551.0092631240476
 30
0.0
 11
24384.79706833081
 21
551.0092631240476
 31
0.0
  0
LINE
  5
27A8A
330
272EA
100
AcDbEntity
  8
waku
  6
Continuous
370
     9
100
AcDbLine
 10
24384.79706833081
 20
551.0092631240476
 30
0.0
 11
24384.79706833081
 21
573.7362922520477
 31
0.0
  0
LINE
  5
27A8B
330
272EA
100
AcDbEntity
  8
waku
  6
Continuous
370
     9
100
AcDbLine
 10
24358.79510201165
 20
625.7362163652998
 30
0.0
 11
24358.79510201165
 21
585.0091556905281
 31
0.0
  0
LINE
  5
27A8C
330
272EA
100
AcDbEntity
  8
waku
  6
Continuous
370
     9
100
AcDbLine
 10
24358.79510201165
 20
585.0091556905281
 30
0.0
 11
24359.52287201805
 21
585.0091556905281
 31
0.0
  0
LINE
  5
27A8D
330
272EA
100
AcDbEntity
  8
waku
  6
Continuous
370
     9
100
AcDbLine
 10
24359.52287201805
 20
585.0091556905281
 30
0.0
 11
24359.52287201805
 21
625.7362163652998
 31
0.0
  0
LINE
  5
27A8E
330
272EA
100
AcDbEntity
  8
waku
  6
Continuous
370
     9
100
AcDbLine
 10
24359.52287201805
 20
625.7362163652998
 30
0.0
 11
24358.79510201165
 21
625.7362163652998
 31
0.0
  0
LINE
  5
27A8F
330
272EA
100
AcDbEntity
  8
waku
  6
Continuous
370
     9
100
AcDbLine
 10
24375.79748403066
 20
609.736355345618
 30
0.0
 11
24377.5247129685
 21
609.736355345618
 31
0.0
  0
LINE
  5
27A90
330
272EA
100
AcDbEntity
  8
waku
  6
Continuous
370
     9
100
AcDbLine
 10
24377.5247129685
 20
609.736355345618
 30
0.0
 11
24377.5247129685
 21
567.0091241437567
 31
0.0
  0
LINE
  5
27A91
330
272EA
100
AcDbEntity
  8
waku
  6
Continuous
370
     9
100
AcDbLine
 10
24377.5247129685
 20
567.0091241437567
 30
0.0
 11
24340.79771497811
 21
567.0091241437567
 31
0.0
  0
LINE
  5
27A92
330
272EA
100
AcDbEntity
  8
waku
  6
Continuous
370
     9
100
AcDbLine
 10
24340.79771497811
 20
567.0091241437567
 30
0.0
 11
24340.79771497811
 21
609.736355345618
 31
0.0
  0
LINE
  5
27A93
330
272EA
100
AcDbEntity
  8
waku
  6
Continuous
370
     9
100
AcDbLine
 10
24340.79771497811
 20
609.736355345618
 30
0.0
 11
24342.52316234901
 21
609.736355345618
 31
0.0
  0
LINE
  5
27A94
330
272EA
100
AcDbEntity
  8
waku
  6
Continuous
370
     9
100
AcDbLine
 10
24342.52316234901
 20
609.736355345618
 30
0.0
 11
24342.52316234901
 21
577.7369116759983
 31
0.0
  0
LINE
  5
27A95
330
272EA
100
AcDbEntity
  8
waku
  6
Continuous
370
     9
100
AcDbLine
 10
24342.52316234901
 20
577.7369116759983
 30
0.0
 11
24375.79748403066
 21
577.7369116759983
 31
0.0
  0
LINE
  5
27A96
330
272EA
100
AcDbEntity
  8
waku
  6
Continuous
370
     9
100
AcDbLine
 10
24375.79748403066
 20
577.7369116759983
 30
0.0
 11
24375.79748403066
 21
609.736355345618
 31
0.0
  0
LINE
  5
27A97
330
272EA
100
AcDbEntity
  8
waku
  6
Continuous
370
     9
100
AcDbLine
 10
24372.16130634944
 20
613.372533026837
 30
0.0
 11
24381.15821829956
 21
613.372533026837
 31
0.0
  0
LINE
  5
27A98
330
272EA
100
AcDbEntity
  8
waku
  6
Continuous
370
     9
100
AcDbLine
 10
24381.15821829956
 20
613.372533026837
 30
0.0
 11
24381.15821829956
 21
563.3730578104732
 31
0.0
  0
LINE
  5
27A99
330
272EA
100
AcDbEntity
  8
waku
  6
Continuous
370
     9
100
AcDbLine
 10
24381.15821829956
 20
563.3730578104732
 30
0.0
 11
24337.15886494669
 21
563.3730578104732
 31
0.0
  0
LINE
  5
27A9A
330
272EA
100
AcDbEntity
  8
waku
  6
Continuous
370
     9
100
AcDbLine
 10
24337.15886494669
 20
563.3730578104732
 30
0.0
 11
24337.15886494669
 21
613.372533026837
 31
0.0
  0
LINE
  5
27A9B
330
272EA
100
AcDbEntity
  8
waku
  6
Continuous
370
     9
100
AcDbLine
 10
24337.15886494669
 20
613.372533026837
 30
0.0
 11
24346.16023081355
 21
613.372533026837
 31
0.0
  0
LINE
  5
27A9C
330
272EA
100
AcDbEntity
  8
waku
  6
Continuous
370
     9
100
AcDbLine
 10
24346.16023081355
 20
613.372533026837
 30
0.0
 11
24346.16023081355
 21
581.3725326176209
 31
0.0
  0
LINE
  5
27A9D
330
272EA
100
AcDbEntity
  8
waku
  6
Continuous
370
     9
100
AcDbLine
 10
24346.16023081355
 20
581.3725326176209
 30
0.0
 11
24372.16130634944
 21
581.3725326176209
 31
0.0
  0
LINE
  5
27A9E
330
272EA
100
AcDbEntity
  8
waku
  6
Continuous
370
     9
100
AcDbLine
 10
24372.16130634944
 20
581.3725326176209
 30
0.0
 11
24372.16130634944
 21
613.372533026837
 31
0.0
  0
LINE
  5
27A9F
330
272EA
100
AcDbEntity
  8
waku
  6
Continuous
370
     9
100
AcDbLine
 10
24355.15981511394
 20
629.3728394382068
 30
0.0
 11
24355.15981511394
 21
581.3725326176209
 31
0.0
  0
LINE
  5
27AA0
330
272EA
100
AcDbEntity
  8
waku
  6
Continuous
370
     9
100
AcDbLine
 10
24355.15981511394
 20
581.3725326176209
 30
0.0
 11
24363.15994048264
 21
581.3725326176209
 31
0.0
  0
LINE
  5
27AA1
330
272EA
100
AcDbEntity
  8
waku
  6
Continuous
370
     9
100
AcDbLine
 10
24363.15994048264
 20
581.3725326176209
 30
0.0
 11
24363.15994048264
 21
629.3728394382068
 31
0.0
  0
LINE
  5
27AA2
330
272EA
100
AcDbEntity
  8
waku
  6
Continuous
370
     9
100
AcDbLine
 10
24363.15994048264
 20
629.3728394382068
 30
0.0
 11
24355.15981511394
 21
629.3728394382068
 31
0.0
  0
LINE
  5
27AA3
330
272EA
100
AcDbEntity
  8
waku
  6
Continuous
370
     9
100
AcDbLine
 10
24381.15821829956
 20
629.3728394382068
 30
0.0
 11
24381.15821829956
 21
641.3725264256262
 31
0.0
  0
LINE
  5
27AA4
330
272EA
100
AcDbEntity
  8
waku
  6
Continuous
370
     9
100
AcDbLine
 10
24381.15821829956
 20
641.3725264256262
 30
0.0
 11
24374.66084446147
 21
641.3725264256262
 31
0.0
  0
LINE
  5
27AA5
330
272EA
100
AcDbEntity
  8
waku
  6
Continuous
370
     9
100
AcDbLine
 10
24374.66084446147
 20
641.3725264256262
 30
0.0
 11
24381.15821829956
 21
672.3727338595981
 31
0.0
  0
LINE
  5
27AA6
330
272EA
100
AcDbEntity
  8
waku
  6
Continuous
370
     9
100
AcDbLine
 10
24381.15821829956
 20
672.3727338595981
 30
0.0
 11
24369.16560190514
 21
672.3727338595981
 31
0.0
  0
LINE
  5
27AA7
330
272EA
100
AcDbEntity
  8
waku
  6
Continuous
370
     9
100
AcDbLine
 10
24369.16560190514
 20
672.3727338595981
 30
0.0
 11
24362.66199258366
 21
641.3725264256262
 31
0.0
  0
LINE
  5
27AA8
330
272EA
100
AcDbEntity
  8
waku
  6
Continuous
370
     9
100
AcDbLine
 10
24362.66199258366
 20
641.3725264256262
 30
0.0
 11
24355.6622169296
 21
641.3725264256262
 31
0.0
  0
LINE
  5
27AA9
330
272EA
100
AcDbEntity
  8
waku
  6
Continuous
370
     9
100
AcDbLine
 10
24355.6622169296
 20
641.3725264256262
 30
0.0
 11
24349.15949839138
 21
672.3727338595981
 31
0.0
  0
LINE
  5
27AAA
330
272EA
100
AcDbEntity
  8
waku
  6
Continuous
370
     9
100
AcDbLine
 10
24349.15949839138
 20
672.3727338595981
 30
0.0
 11
24337.15886494669
 21
672.3727338595981
 31
0.0
  0
LINE
  5
27AAB
330
272EA
100
AcDbEntity
  8
waku
  6
Continuous
370
     9
100
AcDbLine
 10
24337.15886494669
 20
672.3727338595981
 30
0.0
 11
24343.65980191832
 21
641.3725264256262
 31
0.0
  0
LINE
  5
27AAC
330
272EA
100
AcDbEntity
  8
waku
  6
Continuous
370
     9
100
AcDbLine
 10
24343.65980191832
 20
641.3725264256262
 30
0.0
 11
24337.15886494669
 21
641.3725264256262
 31
0.0
  0
LINE
  5
27AAD
330
272EA
100
AcDbEntity
  8
waku
  6
Continuous
370
     9
100
AcDbLine
 10
24337.15886494669
 20
641.3725264256262
 30
0.0
 11
24337.15886494669
 21
629.3728394382068
 31
0.0
  0
LINE
  5
27AAE
330
272EA
100
AcDbEntity
  8
waku
  6
Continuous
370
     9
100
AcDbLine
 10
24337.15886494669
 20
629.3728394382068
 30
0.0
 11
24381.15821829956
 21
629.3728394382068
 31
0.0
  0
LINE
  5
27AAF
330
272EA
100
AcDbEntity
  8
waku
  6
Continuous
370
     9
100
AcDbLine
 10
23728.47857705358
 20
686.6546078189238
 30
0.0
 11
23688.47705942672
 21
697.372902940966
 31
0.0
  0
LINE
  5
27AB0
330
272EA
100
AcDbEntity
  8
waku
  6
Continuous
370
     9
100
AcDbLine
 10
23688.47705942672
 20
697.372902940966
 30
0.0
 11
23688.47705942672
 21
679.3725095134377
 31
0.0
  0
LINE
  5
27AB1
330
272EA
100
AcDbEntity
  8
waku
  6
Continuous
370
     9
100
AcDbLine
 10
23688.47705942672
 20
679.3725095134377
 30
0.0
 11
23728.47857705358
 21
668.6545484351483
 31
0.0
  0
LINE
  5
27AB2
330
272EA
100
AcDbEntity
  8
waku
  6
Continuous
370
     9
100
AcDbLine
 10
23728.47857705358
 20
668.6545484351483
 30
0.0
 11
23728.47857705358
 21
686.6546078189238
 31
0.0
  0
LINE
  5
27AB3
330
272EA
100
AcDbEntity
  8
waku
  6
Continuous
370
     9
100
AcDbLine
 10
23728.47857705358
 20
646.6549274326879
 30
0.0
 11
23728.47857705358
 21
628.6548680489395
 31
0.0
  0
LINE
  5
27AB4
330
272EA
100
AcDbEntity
  8
waku
  6
Continuous
370
     9
100
AcDbLine
 10
23728.47857705358
 20
628.6548680489395
 30
0.0
 11
23688.47705942672
 21
639.3728291272291
 31
0.0
  0
LINE
  5
27AB5
330
272EA
100
AcDbEntity
  8
waku
  6
Continuous
370
     9
100
AcDbLine
 10
23688.47705942672
 20
639.3728291272291
 30
0.0
 11
23688.47705942672
 21
657.3728328370235
 31
0.0
  0
LINE
  5
27AB6
330
272EA
100
AcDbEntity
  8
waku
  6
Continuous
370
     9
100
AcDbLine
 10
23688.47705942672
 20
657.3728328370235
 30
0.0
 11
23728.47857705358
 21
646.6549274326879
 31
0.0
  0
LINE
  5
27AB7
330
272EA
100
AcDbEntity
  8
waku
  6
Continuous
370
     9
100
AcDbLine
 10
23728.47857705358
 20
607.3727173701045
 30
0.0
 11
23728.47857705358
 21
593.3727763446642
 31
0.0
  0
LINE
  5
27AB8
330
272EA
100
AcDbEntity
  8
waku
  6
Continuous
370
     9
100
AcDbLine
 10
23728.47857705358
 20
593.3727763446642
 30
0.0
 11
23688.47705942672
 21
547.3726678881448
 31
0.0
  0
LINE
  5
27AB9
330
272EA
100
AcDbEntity
  8
waku
  6
Continuous
370
     9
100
AcDbLine
 10
23688.47705942672
 20
547.3726678881448
 30
0.0
 11
23688.47705942672
 21
571.3726264395573
 31
0.0
  0
LINE
  5
27ABA
330
272EA
100
AcDbEntity
  8
waku
  6
Continuous
370
     9
100
AcDbLine
 10
23688.47705942672
 20
571.3726264395573
 30
0.0
 11
23710.47851766983
 21
593.3727763446642
 31
0.0
  0
LINE
  5
27ABB
330
272EA
100
AcDbEntity
  8
waku
  6
Continuous
370
     9
100
AcDbLine
 10
23710.47851766983
 20
593.3727763446642
 30
0.0
 11
23710.47851766983
 21
607.3727173701045
 31
0.0
  0
LINE
  5
27ABC
330
272EA
100
AcDbEntity
  8
waku
  6
Continuous
370
     9
100
AcDbLine
 10
23710.47851766983
 20
607.3727173701045
 30
0.0
 11
23728.47857705358
 21
607.3727173701045
 31
0.0
  0
LINE
  5
27ABD
330
272EA
100
AcDbEntity
  8
waku
  6
Continuous
370
     9
100
AcDbLine
 10
23738.47851106856
 20
657.3728328370235
 30
0.0
 11
23738.47851106856
 21
687.3726348821727
 31
0.0
  0
LINE
  5
27ABE
330
272EA
100
AcDbEntity
  8
waku
  6
Continuous
370
     9
100
AcDbLine
 10
23738.47851106856
 20
687.3726348821727
 30
0.0
 11
23779.47859684366
 21
687.3726348821727
 31
0.0
  0
LINE
  5
27ABF
330
272EA
100
AcDbEntity
  8
waku
  6
Continuous
370
     9
100
AcDbLine
 10
23779.47859684366
 20
687.3726348821727
 30
0.0
 11
23779.47859684366
 21
697.372902940966
 31
0.0
  0
LINE
  5
27AC0
330
272EA
100
AcDbEntity
  8
waku
  6
Continuous
370
     9
100
AcDbLine
 10
23779.47859684366
 20
697.372902940966
 30
0.0
 11
23797.47954701091
 21
697.372902940966
 31
0.0
  0
LINE
  5
27AC1
330
272EA
100
AcDbEntity
  8
waku
  6
Continuous
370
     9
100
AcDbLine
 10
23797.47954701091
 20
697.372902940966
 30
0.0
 11
23797.47954701091
 21
687.3726348821727
 31
0.0
  0
LINE
  5
27AC2
330
272EA
100
AcDbEntity
  8
waku
  6
Continuous
370
     9
100
AcDbLine
 10
23797.47954701091
 20
687.3726348821727
 30
0.0
 11
23826.47721777443
 21
687.3726348821727
 31
0.0
  0
LINE
  5
27AC3
330
272EA
100
AcDbEntity
  8
waku
  6
Continuous
370
     9
100
AcDbLine
 10
23826.47721777443
 20
687.3726348821727
 30
0.0
 11
23836.47715178941
 21
677.3727008671047
 31
0.0
  0
LINE
  5
27AC4
330
272EA
100
AcDbEntity
  8
waku
  6
Continuous
370
     9
100
AcDbLine
 10
23836.47715178941
 20
677.3727008671047
 30
0.0
 11
23836.47715178941
 21
657.3728328370235
 31
0.0
  0
LINE
  5
27AC5
330
272EA
100
AcDbEntity
  8
waku
  6
Continuous
370
     9
100
AcDbLine
 10
23836.47715178941
 20
657.3728328370235
 30
0.0
 11
23818.47709240572
 21
657.3728328370235
 31
0.0
  0
LINE
  5
27AC6
330
272EA
100
AcDbEntity
  8
waku
  6
Continuous
370
     9
100
AcDbLine
 10
23818.47709240572
 20
657.3728328370235
 30
0.0
 11
23818.47709240572
 21
671.3728295364179
 31
0.0
  0
LINE
  5
27AC7
330
272EA
100
AcDbEntity
  8
waku
  6
Continuous
370
     9
100
AcDbLine
 10
23818.47709240572
 20
671.3728295364179
 30
0.0
 11
23756.47946123569
 21
671.3728295364179
 31
0.0
  0
LINE
  5
27AC8
330
272EA
100
AcDbEntity
  8
waku
  6
Continuous
370
     9
100
AcDbLine
 10
23756.47946123569
 20
671.3728295364179
 30
0.0
 11
23756.47946123569
 21
657.3728328370235
 31
0.0
  0
LINE
  5
27AC9
330
272EA
100
AcDbEntity
  8
waku
  6
Continuous
370
     9
100
AcDbLine
 10
23756.47946123569
 20
657.3728328370235
 30
0.0
 11
23738.47851106856
 21
657.3728328370235
 31
0.0
  0
LINE
  5
27ACA
330
272EA
100
AcDbEntity
  8
waku
  6
Continuous
370
     9
100
AcDbLine
 10
23738.47851106856
 20
625.372776753853
 30
0.0
 11
23779.47859684366
 21
625.372776753853
 31
0.0
  0
LINE
  5
27ACB
330
272EA
100
AcDbEntity
  8
waku
  6
Continuous
370
     9
100
AcDbLine
 10
23779.47859684366
 20
625.372776753853
 30
0.0
 11
23779.47859684366
 21
577.3725812812026
 31
0.0
  0
LINE
  5
27ACC
330
272EA
100
AcDbEntity
  8
waku
  6
Continuous
370
     9
100
AcDbLine
 10
23779.47859684366
 20
577.3725812812026
 30
0.0
 11
23773.47917090478
 21
571.3726264395573
 31
0.0
  0
LINE
  5
27ACD
330
272EA
100
AcDbEntity
  8
waku
  6
Continuous
370
     9
100
AcDbLine
 10
23773.47917090478
 20
571.3726264395573
 30
0.0
 11
23766.48295838421
 21
571.3726264395573
 31
0.0
  0
LINE
  5
27ACE
330
272EA
100
AcDbEntity
  8
waku
  6
Continuous
370
     9
100
AcDbLine
 10
23766.48295838421
 20
571.3726264395573
 30
0.0
 11
23756.47946123569
 21
581.3725326176209
 31
0.0
  0
LINE
  5
27ACF
330
272EA
100
AcDbEntity
  8
waku
  6
Continuous
370
     9
100
AcDbLine
 10
23756.47946123569
 20
581.3725326176209
 30
0.0
 11
23756.47946123569
 21
617.3726513851452
 31
0.0
  0
LINE
  5
27AD0
330
272EA
100
AcDbEntity
  8
waku
  6
Continuous
370
     9
100
AcDbLine
 10
23756.47946123569
 20
617.3726513851452
 30
0.0
 11
23738.47851106856
 21
617.3726513851452
 31
0.0
  0
LINE
  5
27AD1
330
272EA
100
AcDbEntity
  8
waku
  6
Continuous
370
     9
100
AcDbLine
 10
23738.47851106856
 20
617.3726513851452
 30
0.0
 11
23738.47851106856
 21
567.3729813099144
 31
0.0
  0
LINE
  5
27AD2
330
272EA
100
AcDbEntity
  8
waku
  6
Continuous
370
     9
100
AcDbLine
 10
23738.47851106856
 20
567.3729813099144
 30
0.0
 11
23758.4783790987
 21
547.3726678881448
 31
0.0
  0
LINE
  5
27AD3
330
272EA
100
AcDbEntity
  8
waku
  6
Continuous
370
     9
100
AcDbLine
 10
23758.4783790987
 20
547.3726678881448
 30
0.0
 11
23836.47715178941
 21
547.3726678881448
 31
0.0
  0
LINE
  5
27AD4
330
272EA
100
AcDbEntity
  8
waku
  6
Continuous
370
     9
100
AcDbLine
 10
23836.47715178941
 20
547.3726678881448
 30
0.0
 11
23836.47715178941
 21
571.3726264395573
 31
0.0
  0
LINE
  5
27AD5
330
272EA
100
AcDbEntity
  8
waku
  6
Continuous
370
     9
100
AcDbLine
 10
23836.47715178941
 20
571.3726264395573
 30
0.0
 11
23797.47954701091
 21
571.3726264395573
 31
0.0
  0
LINE
  5
27AD6
330
272EA
100
AcDbEntity
  8
waku
  6
Continuous
370
     9
100
AcDbLine
 10
23797.47954701091
 20
571.3726264395573
 30
0.0
 11
23797.47954701091
 21
589.3726579863287
 31
0.0
  0
LINE
  5
27AD7
330
272EA
100
AcDbEntity
  8
waku
  6
Continuous
370
     9
100
AcDbLine
 10
23797.47954701091
 20
589.3726579863287
 30
0.0
 11
23836.47715178941
 21
589.3726579863287
 31
0.0
  0
LINE
  5
27AD8
330
272EA
100
AcDbEntity
  8
waku
  6
Continuous
370
     9
100
AcDbLine
 10
23836.47715178941
 20
589.3726579863287
 30
0.0
 11
23836.47715178941
 21
607.3727173701045
 31
0.0
  0
LINE
  5
27AD9
330
272EA
100
AcDbEntity
  8
waku
  6
Continuous
370
     9
100
AcDbLine
 10
23836.47715178941
 20
607.3727173701045
 30
0.0
 11
23797.47954701091
 21
607.3727173701045
 31
0.0
  0
LINE
  5
27ADA
330
272EA
100
AcDbEntity
  8
waku
  6
Continuous
370
     9
100
AcDbLine
 10
23797.47954701091
 20
607.3727173701045
 30
0.0
 11
23797.47954701091
 21
625.372776753853
 31
0.0
  0
LINE
  5
27ADB
330
272EA
100
AcDbEntity
  8
waku
  6
Continuous
370
     9
100
AcDbLine
 10
23797.47954701091
 20
625.372776753853
 30
0.0
 11
23836.47715178941
 21
625.372776753853
 31
0.0
  0
LINE
  5
27ADC
330
272EA
100
AcDbEntity
  8
waku
  6
Continuous
370
     9
100
AcDbLine
 10
23836.47715178941
 20
625.372776753853
 30
0.0
 11
23836.47715178941
 21
643.3727804636474
 31
0.0
  0
LINE
  5
27ADD
330
272EA
100
AcDbEntity
  8
waku
  6
Continuous
370
     9
100
AcDbLine
 10
23836.47715178941
 20
643.3727804636474
 30
0.0
 11
23738.47851106856
 21
643.3727804636474
 31
0.0
  0
LINE
  5
27ADE
330
272EA
100
AcDbEntity
  8
waku
  6
Continuous
370
     9
100
AcDbLine
 10
23738.47851106856
 20
643.3727804636474
 30
0.0
 11
23738.47851106856
 21
625.372776753853
 31
0.0
  0
LINE
  5
27ADF
330
272EA
100
AcDbEntity
  8
waku
  6
Continuous
370
     9
100
AcDbLine
 10
23866.47784461797
 20
547.3726678881448
 30
0.0
 11
23906.47936224489
 21
585.3725953019746
 31
0.0
  0
LINE
  5
27AE0
330
272EA
100
AcDbEntity
  8
waku
  6
Continuous
370
     9
100
AcDbLine
 10
23906.47936224489
 20
585.3725953019746
 30
0.0
 11
23906.47936224489
 21
697.372902940966
 31
0.0
  0
LINE
  5
27AE1
330
272EA
100
AcDbEntity
  8
waku
  6
Continuous
370
     9
100
AcDbLine
 10
23906.47936224489
 20
697.372902940966
 30
0.0
 11
23888.47841207788
 21
697.372902940966
 31
0.0
  0
LINE
  5
27AE2
330
272EA
100
AcDbEntity
  8
waku
  6
Continuous
370
     9
100
AcDbLine
 10
23888.47841207788
 20
697.372902940966
 30
0.0
 11
23888.47841207788
 21
595.3724736430886
 31
0.0
  0
LINE
  5
27AE3
330
272EA
100
AcDbEntity
  8
waku
  6
Continuous
370
     9
100
AcDbLine
 10
23888.47841207788
 20
595.3724736430886
 30
0.0
 11
23866.47784461797
 21
571.3726264395573
 31
0.0
  0
LINE
  5
27AE4
330
272EA
100
AcDbEntity
  8
waku
  6
Continuous
370
     9
100
AcDbLine
 10
23866.47784461797
 20
571.3726264395573
 30
0.0
 11
23866.47784461797
 21
547.3726678881448
 31
0.0
  0
LINE
  5
27AE5
330
272EA
100
AcDbEntity
  8
waku
  6
Continuous
370
     9
100
AcDbLine
 10
23953.47798317554
 20
687.3726348821727
 30
0.0
 11
23937.47951400478
 21
687.3726348821727
 31
0.0
  0
LINE
  5
27AE6
330
272EA
100
AcDbEntity
  8
waku
  6
Continuous
370
     9
100
AcDbLine
 10
23937.47951400478
 20
687.3726348821727
 30
0.0
 11
23937.47951400478
 21
567.3729813099144
 31
0.0
  0
LINE
  5
27AE7
330
272EA
100
AcDbEntity
  8
waku
  6
Continuous
370
     9
100
AcDbLine
 10
23937.47951400478
 20
567.3729813099144
 30
0.0
 11
23953.47798317554
 21
567.3729813099144
 31
0.0
  0
LINE
  5
27AE8
330
272EA
100
AcDbEntity
  8
waku
  6
Continuous
370
     9
100
AcDbLine
 10
23953.47798317554
 20
567.3729813099144
 30
0.0
 11
23953.47798317554
 21
687.3726348821727
 31
0.0
  0
LINE
  5
27AE9
330
272EA
100
AcDbEntity
  8
waku
  6
Continuous
370
     9
100
AcDbLine
 10
24002.47908510273
 20
547.3726678881448
 30
0.0
 11
24002.47908510273
 21
697.372902940966
 31
0.0
  0
LINE
  5
27AEA
330
272EA
100
AcDbEntity
  8
waku
  6
Continuous
370
     9
100
AcDbLine
 10
24002.47908510273
 20
697.372902940966
 30
0.0
 11
23984.47902571887
 21
697.372902940966
 31
0.0
  0
LINE
  5
27AEB
330
272EA
100
AcDbEntity
  8
waku
  6
Continuous
370
     9
100
AcDbLine
 10
23984.47902571887
 20
697.372902940966
 30
0.0
 11
23984.47902571887
 21
547.3726678881448
 31
0.0
  0
LINE
  5
27AEC
330
272EA
100
AcDbEntity
  8
waku
  6
Continuous
370
     9
100
AcDbLine
 10
23984.47902571887
 20
547.3726678881448
 30
0.0
 11
24002.47908510273
 21
547.3726678881448
 31
0.0
  0
LINE
  5
27AED
330
272EA
100
AcDbEntity
  8
waku
  6
Continuous
370
     9
100
AcDbLine
 10
24065.56881667359
 20
633.3724567308727
 30
0.0
 11
24088.56795228162
 21
633.3724567308727
 31
0.0
  0
LINE
  5
27AEE
330
272EA
100
AcDbEntity
  8
waku
  6
Continuous
370
     9
100
AcDbLine
 10
24088.56795228162
 20
633.3724567308727
 30
0.0
 11
24088.56795228162
 21
617.3726513851452
 31
0.0
  0
LINE
  5
27AEF
330
272EA
100
AcDbEntity
  8
waku
  6
Continuous
370
     9
100
AcDbLine
 10
24088.56795228162
 20
617.3726513851452
 30
0.0
 11
24104.56998458569
 21
617.3726513851452
 31
0.0
  0
LINE
  5
27AF0
330
272EA
100
AcDbEntity
  8
waku
  6
Continuous
370
     9
100
AcDbLine
 10
24104.56998458569
 20
617.3726513851452
 30
0.0
 11
24104.56998458569
 21
633.3724567308727
 31
0.0
  0
LINE
  5
27AF1
330
272EA
100
AcDbEntity
  8
waku
  6
Continuous
370
     9
100
AcDbLine
 10
24104.56998458569
 20
633.3724567308727
 30
0.0
 11
24127.56912019348
 21
633.3724567308727
 31
0.0
  0
LINE
  5
27AF2
330
272EA
100
AcDbEntity
  8
waku
  6
Continuous
370
     9
100
AcDbLine
 10
24127.56912019348
 20
633.3724567308727
 30
0.0
 11
24127.56912019348
 21
617.3726513851452
 31
0.0
  0
LINE
  5
27AF3
330
272EA
100
AcDbEntity
  8
waku
  6
Continuous
370
     9
100
AcDbLine
 10
24127.56912019348
 20
617.3726513851452
 30
0.0
 11
24141.56956228469
 21
617.3726513851452
 31
0.0
  0
LINE
  5
27AF4
330
272EA
100
AcDbEntity
  8
waku
  6
Continuous
370
     9
100
AcDbLine
 10
24141.56956228469
 20
617.3726513851452
 30
0.0
 11
24141.56956228469
 21
645.3726447839617
 31
0.0
  0
LINE
  5
27AF5
330
272EA
100
AcDbEntity
  8
waku
  6
Continuous
370
     9
100
AcDbLine
 10
24141.56956228469
 20
645.3726447839617
 30
0.0
 11
24104.56998458569
 21
645.3726447839617
 31
0.0
  0
LINE
  5
27AF6
330
272EA
100
AcDbEntity
  8
waku
  6
Continuous
370
     9
100
AcDbLine
 10
24104.56998458569
 20
645.3726447839617
 30
0.0
 11
24104.56998458569
 21
655.3725787990023
 31
0.0
  0
LINE
  5
27AF7
330
272EA
100
AcDbEntity
  8
waku
  6
Continuous
370
     9
100
AcDbLine
 10
24104.56998458569
 20
655.3725787990023
 30
0.0
 11
24141.56956228469
 21
655.3725787990023
 31
0.0
  0
LINE
  5
27AF8
330
272EA
100
AcDbEntity
  8
waku
  6
Continuous
370
     9
100
AcDbLine
 10
24141.56956228469
 20
655.3725787990023
 30
0.0
 11
24141.56956228469
 21
667.3727668520641
 31
0.0
  0
LINE
  5
27AF9
330
272EA
100
AcDbEntity
  8
waku
  6
Continuous
370
     9
100
AcDbLine
 10
24141.56956228469
 20
667.3727668520641
 30
0.0
 11
24104.56998458569
 21
667.3727668520641
 31
0.0
  0
LINE
  5
27AFA
330
272EA
100
AcDbEntity
  8
waku
  6
Continuous
370
     9
100
AcDbLine
 10
24104.56998458569
 20
667.3727668520641
 30
0.0
 11
24104.56998458569
 21
677.3727008671047
 31
0.0
  0
LINE
  5
27AFB
330
272EA
100
AcDbEntity
  8
waku
  6
Continuous
370
     9
100
AcDbLine
 10
24104.56998458569
 20
677.3727008671047
 30
0.0
 11
24141.56956228469
 21
677.3727008671047
 31
0.0
  0
LINE
  5
27AFC
330
272EA
100
AcDbEntity
  8
waku
  6
Continuous
370
     9
100
AcDbLine
 10
24141.56956228469
 20
677.3727008671047
 30
0.0
 11
24141.56956228469
 21
689.3728332462123
 31
0.0
  0
LINE
  5
27AFD
330
272EA
100
AcDbEntity
  8
waku
  6
Continuous
370
     9
100
AcDbLine
 10
24141.56956228469
 20
689.3728332462123
 30
0.0
 11
24104.56998458569
 21
689.3728332462123
 31
0.0
  0
LINE
  5
27AFE
330
272EA
100
AcDbEntity
  8
waku
  6
Continuous
370
     9
100
AcDbLine
 10
24104.56998458569
 20
689.3728332462123
 30
0.0
 11
24104.56998458569
 21
697.372902940966
 31
0.0
  0
LINE
  5
27AFF
330
272EA
100
AcDbEntity
  8
waku
  6
Continuous
370
     9
100
AcDbLine
 10
24104.56998458569
 20
697.372902940966
 30
0.0
 11
24088.56795228162
 21
697.372902940966
 31
0.0
  0
LINE
  5
27B00
330
272EA
100
AcDbEntity
  8
waku
  6
Continuous
370
     9
100
AcDbLine
 10
24088.56795228162
 20
697.372902940966
 30
0.0
 11
24088.56795228162
 21
689.3728332462123
 31
0.0
  0
LINE
  5
27B01
330
272EA
100
AcDbEntity
  8
waku
  6
Continuous
370
     9
100
AcDbLine
 10
24088.56795228162
 20
689.3728332462123
 30
0.0
 11
24063.56989881071
 21
689.3728332462123
 31
0.0
  0
LINE
  5
27B02
330
272EA
100
AcDbEntity
  8
waku
  6
Continuous
370
     9
100
AcDbLine
 10
24063.56989881071
 20
689.3728332462123
 30
0.0
 11
24063.56989881071
 21
697.372902940966
 31
0.0
  0
LINE
  5
27B03
330
272EA
100
AcDbEntity
  8
waku
  6
Continuous
370
     9
100
AcDbLine
 10
24063.56989881071
 20
697.372902940966
 30
0.0
 11
24051.56837458263
 21
697.372902940966
 31
0.0
  0
LINE
  5
27B04
330
272EA
100
AcDbEntity
  8
waku
  6
Continuous
370
     9
100
AcDbLine
 10
24051.56837458263
 20
697.372902940966
 30
0.0
 11
24051.56837458263
 21
677.3727008671047
 31
0.0
  0
LINE
  5
27B05
330
272EA
100
AcDbEntity
  8
waku
  6
Continuous
370
     9
100
AcDbLine
 10
24051.56837458263
 20
677.3727008671047
 30
0.0
 11
24088.56795228162
 21
677.3727008671047
 31
0.0
  0
LINE
  5
27B06
330
272EA
100
AcDbEntity
  8
waku
  6
Continuous
370
     9
100
AcDbLine
 10
24088.56795228162
 20
677.3727008671047
 30
0.0
 11
24088.56795228162
 21
667.3727668520641
 31
0.0
  0
LINE
  5
27B07
330
272EA
100
AcDbEntity
  8
waku
  6
Continuous
370
     9
100
AcDbLine
 10
24088.56795228162
 20
667.3727668520641
 30
0.0
 11
24051.56837458263
 21
667.3727668520641
 31
0.0
  0
LINE
  5
27B08
330
272EA
100
AcDbEntity
  8
waku
  6
Continuous
370
     9
100
AcDbLine
 10
24051.56837458263
 20
667.3727668520641
 30
0.0
 11
24051.56837458263
 21
655.3725787990023
 31
0.0
  0
LINE
  5
27B09
330
272EA
100
AcDbEntity
  8
waku
  6
Continuous
370
     9
100
AcDbLine
 10
24051.56837458263
 20
655.3725787990023
 30
0.0
 11
24088.56795228162
 21
655.3725787990023
 31
0.0
  0
LINE
  5
27B0A
330
272EA
100
AcDbEntity
  8
waku
  6
Continuous
370
     9
100
AcDbLine
 10
24088.56795228162
 20
655.3725787990023
 30
0.0
 11
24088.56795228162
 21
645.3726447839617
 31
0.0
  0
LINE
  5
27B0B
330
272EA
100
AcDbEntity
  8
waku
  6
Continuous
370
     9
100
AcDbLine
 10
24088.56795228162
 20
645.3726447839617
 30
0.0
 11
24051.56837458263
 21
645.3726447839617
 31
0.0
  0
LINE
  5
27B0C
330
272EA
100
AcDbEntity
  8
waku
  6
Continuous
370
     9
100
AcDbLine
 10
24051.56837458263
 20
645.3726447839617
 30
0.0
 11
24051.56837458263
 21
617.3726513851452
 31
0.0
  0
LINE
  5
27B0D
330
272EA
100
AcDbEntity
  8
waku
  6
Continuous
370
     9
100
AcDbLine
 10
24051.56837458263
 20
617.3726513851452
 30
0.0
 11
24065.56881667359
 21
617.3726513851452
 31
0.0
  0
LINE
  5
27B0E
330
272EA
100
AcDbEntity
  8
waku
  6
Continuous
370
     9
100
AcDbLine
 10
24065.56881667359
 20
617.3726513851452
 30
0.0
 11
24065.56881667359
 21
633.3724567308727
 31
0.0
  0
LINE
  5
27B0F
330
272EA
100
AcDbEntity
  8
waku
  6
Continuous
370
     9
100
AcDbLine
 10
24151.56860551634
 20
697.372902940966
 30
0.0
 11
24151.56860551634
 21
647.3728988219553
 31
0.0
  0
LINE
  5
27B10
330
272EA
100
AcDbEntity
  8
waku
  6
Continuous
370
     9
100
AcDbLine
 10
24151.56860551634
 20
647.3728988219553
 30
0.0
 11
24167.56885625376
 21
647.3728988219553
 31
0.0
  0
LINE
  5
27B11
330
272EA
100
AcDbEntity
  8
waku
  6
Continuous
370
     9
100
AcDbLine
 10
24167.56885625376
 20
647.3728988219553
 30
0.0
 11
24167.56885625376
 21
697.372902940966
 31
0.0
  0
LINE
  5
27B12
330
272EA
100
AcDbEntity
  8
waku
  6
Continuous
370
     9
100
AcDbLine
 10
24167.56885625376
 20
697.372902940966
 30
0.0
 11
24151.56860551634
 21
697.372902940966
 31
0.0
  0
LINE
  5
27B13
330
272EA
100
AcDbEntity
  8
waku
  6
Continuous
370
     9
100
AcDbLine
 10
24201.56827559159
 20
697.372902940966
 30
0.0
 11
24201.56827559159
 21
637.3729648069147
 31
0.0
  0
LINE
  5
27B14
330
272EA
100
AcDbEntity
  8
waku
  6
Continuous
370
     9
100
AcDbLine
 10
24201.56827559159
 20
637.3729648069147
 30
0.0
 11
24181.57107991167
 21
617.3726513851452
 31
0.0
  0
LINE
  5
27B15
330
272EA
100
AcDbEntity
  8
waku
  6
Continuous
370
     9
100
AcDbLine
 10
24181.57107991167
 20
617.3726513851452
 30
0.0
 11
24151.56860551634
 21
617.3726513851452
 31
0.0
  0
LINE
  5
27B16
330
272EA
100
AcDbEntity
  8
waku
  6
Continuous
370
     9
100
AcDbLine
 10
24151.56860551634
 20
617.3726513851452
 30
0.0
 11
24151.56860551634
 21
633.3724567308727
 31
0.0
  0
LINE
  5
27B17
330
272EA
100
AcDbEntity
  8
waku
  6
Continuous
370
     9
100
AcDbLine
 10
24151.56860551634
 20
633.3724567308727
 30
0.0
 11
24177.5705718355
 21
633.3724567308727
 31
0.0
  0
LINE
  5
27B18
330
272EA
100
AcDbEntity
  8
waku
  6
Continuous
370
     9
100
AcDbLine
 10
24177.5705718355
 20
633.3724567308727
 30
0.0
 11
24187.57050585066
 21
643.3727804636474
 31
0.0
  0
LINE
  5
27B19
330
272EA
100
AcDbEntity
  8
waku
  6
Continuous
370
     9
100
AcDbLine
 10
24187.57050585066
 20
643.3727804636474
 30
0.0
 11
24187.57050585066
 21
697.372902940966
 31
0.0
  0
LINE
  5
27B1A
330
272EA
100
AcDbEntity
  8
waku
  6
Continuous
370
     9
100
AcDbLine
 10
24187.57050585066
 20
697.372902940966
 30
0.0
 11
24201.56827559159
 21
697.372902940966
 31
0.0
  0
LINE
  5
27B1B
330
272EA
100
AcDbEntity
  8
waku
  6
Continuous
370
     9
100
AcDbLine
 10
24280.66003946681
 20
677.3727008671047
 30
0.0
 11
24250.66023742151
 21
647.3728988219553
 31
0.0
  0
LINE
  5
27B1C
330
272EA
100
AcDbEntity
  8
waku
  6
Continuous
370
     9
100
AcDbLine
 10
24250.66023742151
 20
647.3728988219553
 30
0.0
 11
24250.66023742151
 21
667.3727668520641
 31
0.0
  0
LINE
  5
27B1D
330
272EA
100
AcDbEntity
  8
waku
  6
Continuous
370
     9
100
AcDbLine
 10
24250.66023742151
 20
667.3727668520641
 30
0.0
 11
24280.66003946681
 21
697.372902940966
 31
0.0
  0
LINE
  5
27B1E
330
272EA
100
AcDbEntity
  8
waku
  6
Continuous
370
     9
100
AcDbLine
 10
24280.66003946681
 20
697.372902940966
 30
0.0
 11
24310.65895072842
 21
677.3727008671047
 31
0.0
  0
LINE
  5
27B1F
330
272EA
100
AcDbEntity
  8
waku
  6
Continuous
370
     9
100
AcDbLine
 10
24310.65895072842
 20
677.3727008671047
 30
0.0
 11
24310.65895072842
 21
657.3728328370235
 31
0.0
  0
LINE
  5
27B20
330
272EA
100
AcDbEntity
  8
waku
  6
Continuous
370
     9
100
AcDbLine
 10
24310.65895072842
 20
657.3728328370235
 30
0.0
 11
24280.66003946681
 21
677.3727008671047
 31
0.0
  0
LINE
  5
27B21
330
272EA
100
AcDbEntity
  8
waku
  6
Continuous
370
     9
100
AcDbLine
 10
24273.66026381281
 20
624.372816756746
 30
0.0
 11
24250.66023742151
 21
624.372816756746
 31
0.0
  0
LINE
  5
27B22
330
272EA
100
AcDbEntity
  8
waku
  6
Continuous
370
     9
100
AcDbLine
 10
24250.66023742151
 20
624.372816756746
 30
0.0
 11
24250.66023742151
 21
637.3729648069147
 31
0.0
  0
LINE
  5
27B23
330
272EA
100
AcDbEntity
  8
waku
  6
Continuous
370
     9
100
AcDbLine
 10
24250.66023742151
 20
637.3729648069147
 30
0.0
 11
24310.65895072842
 21
637.3729648069147
 31
0.0
  0
LINE
  5
27B24
330
272EA
100
AcDbEntity
  8
waku
  6
Continuous
370
     9
100
AcDbLine
 10
24310.65895072842
 20
637.3729648069147
 30
0.0
 11
24310.65895072842
 21
624.372816756746
 31
0.0
  0
LINE
  5
27B25
330
272EA
100
AcDbEntity
  8
waku
  6
Continuous
370
     9
100
AcDbLine
 10
24310.65895072842
 20
624.372816756746
 30
0.0
 11
24287.66515982075
 21
624.372816756746
 31
0.0
  0
LINE
  5
27B26
330
272EA
100
AcDbEntity
  8
waku
  6
Continuous
370
     9
100
AcDbLine
 10
24287.66515982075
 20
624.372816756746
 30
0.0
 11
24287.66515982075
 21
610.3728757312782
 31
0.0
  0
LINE
  5
27B27
330
272EA
100
AcDbEntity
  8
waku
  6
Continuous
370
     9
100
AcDbLine
 10
24287.66515982075
 20
610.3728757312782
 30
0.0
 11
24310.65895072842
 21
610.3728757312782
 31
0.0
  0
LINE
  5
27B28
330
272EA
100
AcDbEntity
  8
waku
  6
Continuous
370
     9
100
AcDbLine
 10
24310.65895072842
 20
610.3728757312782
 30
0.0
 11
24310.65895072842
 21
597.3727833550638
 31
0.0
  0
LINE
  5
27B29
330
272EA
100
AcDbEntity
  8
waku
  6
Continuous
370
     9
100
AcDbLine
 10
24310.65895072842
 20
597.3727833550638
 30
0.0
 11
24287.66515982075
 21
597.3727833550638
 31
0.0
  0
LINE
  5
27B2A
330
272EA
100
AcDbEntity
  8
waku
  6
Continuous
370
     9
100
AcDbLine
 10
24287.66515982075
 20
597.3727833550638
 30
0.0
 11
24287.66515982075
 21
577.3725812812026
 31
0.0
  0
LINE
  5
27B2B
330
272EA
100
AcDbEntity
  8
waku
  6
Continuous
370
     9
100
AcDbLine
 10
24287.66515982075
 20
577.3725812812026
 30
0.0
 11
24298.66098963376
 21
577.3725812812026
 31
0.0
  0
LINE
  5
27B2C
330
272EA
100
AcDbEntity
  8
waku
  6
Continuous
370
     9
100
AcDbLine
 10
24298.66098963376
 20
577.3725812812026
 30
0.0
 11
24298.66098963376
 21
590.3725623095088
 31
0.0
  0
LINE
  5
27B2D
330
272EA
100
AcDbEntity
  8
waku
  6
Continuous
370
     9
100
AcDbLine
 10
24298.66098963376
 20
590.3725623095088
 30
0.0
 11
24310.65895072842
 21
590.3725623095088
 31
0.0
  0
LINE
  5
27B2E
330
272EA
100
AcDbEntity
  8
waku
  6
Continuous
370
     9
100
AcDbLine
 10
24310.65895072842
 20
590.3725623095088
 30
0.0
 11
24310.65895072842
 21
567.3729813099144
 31
0.0
  0
LINE
  5
27B2F
330
272EA
100
AcDbEntity
  8
waku
  6
Continuous
370
     9
100
AcDbLine
 10
24310.65895072842
 20
567.3729813099144
 30
0.0
 11
24290.66175504855
 21
547.3726678881448
 31
0.0
  0
LINE
  5
27B30
330
272EA
100
AcDbEntity
  8
waku
  6
Continuous
370
     9
100
AcDbLine
 10
24290.66175504855
 20
547.3726678881448
 30
0.0
 11
24250.66023742151
 21
547.3726678881448
 31
0.0
  0
LINE
  5
27B31
330
272EA
100
AcDbEntity
  8
waku
  6
Continuous
370
     9
100
AcDbLine
 10
24250.66023742151
 20
547.3726678881448
 30
0.0
 11
24250.66023742151
 21
577.3725812812026
 31
0.0
  0
LINE
  5
27B32
330
272EA
100
AcDbEntity
  8
waku
  6
Continuous
370
     9
100
AcDbLine
 10
24250.66023742151
 20
577.3725812812026
 30
0.0
 11
24273.66026381281
 21
577.3725812812026
 31
0.0
  0
LINE
  5
27B33
330
272EA
100
AcDbEntity
  8
waku
  6
Continuous
370
     9
100
AcDbLine
 10
24273.66026381281
 20
577.3725812812026
 30
0.0
 11
24273.66026381281
 21
597.3727833550638
 31
0.0
  0
LINE
  5
27B34
330
272EA
100
AcDbEntity
  8
waku
  6
Continuous
370
     9
100
AcDbLine
 10
24273.66026381281
 20
597.3727833550638
 30
0.0
 11
24250.66023742151
 21
597.3727833550638
 31
0.0
  0
LINE
  5
27B35
330
272EA
100
AcDbEntity
  8
waku
  6
Continuous
370
     9
100
AcDbLine
 10
24250.66023742151
 20
597.3727833550638
 30
0.0
 11
24250.66023742151
 21
610.3728757312782
 31
0.0
  0
LINE
  5
27B36
330
272EA
100
AcDbEntity
  8
waku
  6
Continuous
370
     9
100
AcDbLine
 10
24250.66023742151
 20
610.3728757312782
 30
0.0
 11
24273.66026381281
 21
610.3728757312782
 31
0.0
  0
LINE
  5
27B37
330
272EA
100
AcDbEntity
  8
waku
  6
Continuous
370
     9
100
AcDbLine
 10
24273.66026381281
 20
610.3728757312782
 30
0.0
 11
24273.66026381281
 21
624.372816756746
 31
0.0
  0
LINE
  5
27B38
330
272EA
100
AcDbEntity
  8
waku
  6
Continuous
370
     9
100
AcDbLine
 10
24250.66023742151
 20
583.3727866556419
 30
0.0
 11
24250.66023742151
 21
590.3725623095088
 31
0.0
  0
LINE
  5
27B39
330
272EA
100
AcDbEntity
  8
waku
  6
Continuous
370
     9
100
AcDbLine
 10
24250.66023742151
 20
590.3725623095088
 30
0.0
 11
24260.65928065317
 21
590.3725623095088
 31
0.0
  0
LINE
  5
27B3A
330
272EA
100
AcDbEntity
  8
waku
  6
Continuous
370
     9
100
AcDbLine
 10
24260.65928065317
 20
590.3725623095088
 30
0.0
 11
24260.65928065317
 21
583.3727866556419
 31
0.0
  0
LINE
  5
27B3B
330
272EA
100
AcDbEntity
  8
waku
  6
Continuous
370
     9
100
AcDbLine
 10
24260.65928065317
 20
583.3727866556419
 30
0.0
 11
24250.66023742151
 21
583.3727866556419
 31
0.0
  0
LINE
  5
27B3C
330
272EA
100
AcDbEntity
  8
waku
  6
Continuous
370
     9
100
AcDbLine
 10
24381.15821829956
 20
577.3725812812026
 30
0.0
 11
24389.65896391729
 21
577.3725812812026
 31
0.0
  0
LINE
  5
27B3D
330
272EA
100
AcDbEntity
  8
waku
  6
Continuous
370
     9
100
AcDbLine
 10
24389.65896391729
 20
577.3725812812026
 30
0.0
 11
24389.65896391729
 21
681.3727635514587
 31
0.0
  0
LINE
  5
27B3E
330
272EA
100
AcDbEntity
  8
waku
  6
Continuous
370
     9
100
AcDbLine
 10
24389.65896391729
 20
681.3727635514587
 30
0.0
 11
24328.65990089555
 21
681.3727635514587
 31
0.0
  0
LINE
  5
27B3F
330
272EA
100
AcDbEntity
  8
waku
  6
Continuous
370
     9
100
AcDbLine
 10
24328.65990089555
 20
681.3727635514587
 30
0.0
 11
24328.65990089555
 21
547.3726678881448
 31
0.0
  0
LINE
  5
27B40
330
272EA
100
AcDbEntity
  8
waku
  6
Continuous
370
     9
100
AcDbLine
 10
24328.65990089555
 20
547.3726678881448
 30
0.0
 11
24318.65907609713
 21
547.3726678881448
 31
0.0
  0
LINE
  5
27B41
330
272EA
100
AcDbEntity
  8
waku
  6
Continuous
370
     9
100
AcDbLine
 10
24318.65907609713
 20
547.3726678881448
 30
0.0
 11
24318.65907609713
 21
697.372902940966
 31
0.0
  0
LINE
  5
27B42
330
272EA
100
AcDbEntity
  8
waku
  6
Continuous
370
     9
100
AcDbLine
 10
24318.65907609713
 20
697.372902940966
 30
0.0
 11
24399.65978871577
 21
697.372902940966
 31
0.0
  0
LINE
  5
27B43
330
272EA
100
AcDbEntity
  8
waku
  6
Continuous
370
     9
100
AcDbLine
 10
24399.65978871577
 20
697.372902940966
 30
0.0
 11
24399.65978871577
 21
557.3726297401626
 31
0.0
  0
LINE
  5
27B44
330
272EA
100
AcDbEntity
  8
waku
  6
Continuous
370
     9
100
AcDbLine
 10
24399.65978871577
 20
557.3726297401626
 30
0.0
 11
24389.65896391729
 21
547.3726678881448
 31
0.0
  0
LINE
  5
27B45
330
272EA
100
AcDbEntity
  8
waku
  6
Continuous
370
     9
100
AcDbLine
 10
24389.65896391729
 20
547.3726678881448
 30
0.0
 11
24381.15821829956
 21
547.3726678881448
 31
0.0
  0
LINE
  5
27B46
330
272EA
100
AcDbEntity
  8
waku
  6
Continuous
370
     9
100
AcDbLine
 10
24381.15821829956
 20
547.3726678881448
 30
0.0
 11
24381.15821829956
 21
577.3725812812026
 31
0.0
  0
LINE
  5
27B47
330
272EA
100
AcDbEntity
  8
waku
  6
Continuous
370
     9
100
AcDbLine
 10
24465.84232011757
 20
697.372902940966
 30
0.0
 11
24465.84232011757
 21
681.3727635514587
 31
0.0
  0
LINE
  5
27B48
330
272EA
100
AcDbEntity
  8
waku
  6
Continuous
370
     9
100
AcDbLine
 10
24465.84232011757
 20
681.3727635514587
 30
0.0
 11
24525.84281499125
 21
681.3727635514587
 31
0.0
  0
LINE
  5
27B49
330
272EA
100
AcDbEntity
  8
waku
  6
Continuous
370
     9
100
AcDbLine
 10
24525.84281499125
 20
681.3727635514587
 30
0.0
 11
24525.84281499125
 21
697.372902940966
 31
0.0
  0
LINE
  5
27B4A
330
272EA
100
AcDbEntity
  8
waku
  6
Continuous
370
     9
100
AcDbLine
 10
24525.84281499125
 20
697.372902940966
 30
0.0
 11
24465.84232011757
 21
697.372902940966
 31
0.0
  0
LINE
  5
27B4B
330
272EA
100
AcDbEntity
  8
waku
  6
Continuous
370
     9
100
AcDbLine
 10
24509.84434582049
 20
635.3727107688937
 30
0.0
 11
24509.84434582049
 21
649.3731528599765
 31
0.0
  0
LINE
  5
27B4C
330
272EA
100
AcDbEntity
  8
waku
  6
Continuous
370
     9
100
AcDbLine
 10
24509.84434582049
 20
649.3731528599765
 30
0.0
 11
24483.84237950127
 21
649.3731528599765
 31
0.0
  0
LINE
  5
27B4D
330
272EA
100
AcDbEntity
  8
waku
  6
Continuous
370
     9
100
AcDbLine
 10
24483.84237950127
 20
649.3731528599765
 30
0.0
 11
24483.84237950127
 21
635.3727107688937
 31
0.0
  0
LINE
  5
27B4E
330
272EA
100
AcDbEntity
  8
waku
  6
Continuous
370
     9
100
AcDbLine
 10
24483.84237950127
 20
635.3727107688937
 30
0.0
 11
24509.84434582049
 21
635.3727107688937
 31
0.0
  0
LINE
  5
27B4F
330
272EA
100
AcDbEntity
  8
waku
  6
Continuous
370
     9
100
AcDbLine
 10
24483.84237950127
 20
589.3726579863287
 30
0.0
 11
24483.84237950127
 21
617.3726513851452
 31
0.0
  0
LINE
  5
27B50
330
272EA
100
AcDbEntity
  8
waku
  6
Continuous
370
     9
100
AcDbLine
 10
24483.84237950127
 20
617.3726513851452
 30
0.0
 11
24525.84281499125
 21
617.3726513851452
 31
0.0
  0
LINE
  5
27B51
330
272EA
100
AcDbEntity
  8
waku
  6
Continuous
370
     9
100
AcDbLine
 10
24525.84281499125
 20
617.3726513851452
 30
0.0
 11
24525.84281499125
 21
667.3727668520641
 31
0.0
  0
LINE
  5
27B52
330
272EA
100
AcDbEntity
  8
waku
  6
Continuous
370
     9
100
AcDbLine
 10
24525.84281499125
 20
667.3727668520641
 30
0.0
 11
24465.84232011757
 21
667.3727668520641
 31
0.0
  0
LINE
  5
27B53
330
272EA
100
AcDbEntity
  8
waku
  6
Continuous
370
     9
100
AcDbLine
 10
24465.84232011757
 20
667.3727668520641
 30
0.0
 11
24465.84232011757
 21
599.3725920013965
 31
0.0
  0
LINE
  5
27B54
330
272EA
100
AcDbEntity
  8
waku
  6
Continuous
370
     9
100
AcDbLine
 10
24465.84232011757
 20
599.3725920013965
 30
0.0
 11
24447.84315151721
 21
571.3726264395573
 31
0.0
  0
LINE
  5
27B55
330
272EA
100
AcDbEntity
  8
waku
  6
Continuous
370
     9
100
AcDbLine
 10
24447.84315151721
 20
571.3726264395573
 30
0.0
 11
24447.84315151721
 21
547.3726678881448
 31
0.0
  0
LINE
  5
27B56
330
272EA
100
AcDbEntity
  8
waku
  6
Continuous
370
     9
100
AcDbLine
 10
24447.84315151721
 20
547.3726678881448
 30
0.0
 11
24483.84237950127
 21
589.3726579863287
 31
0.0
  0
LINE
  5
27B57
330
272EA
100
AcDbEntity
  8
waku
  6
Continuous
370
     9
100
AcDbLine
 10
24569.84305912751
 20
643.3727804636474
 30
0.0
 11
24569.84305912751
 21
547.3726678881448
 31
0.0
  0
LINE
  5
27B58
330
272EA
100
AcDbEntity
  8
waku
  6
Continuous
370
     9
100
AcDbLine
 10
24569.84305912751
 20
547.3726678881448
 30
0.0
 11
24585.84241908142
 21
547.3726678881448
 31
0.0
  0
LINE
  5
27B59
330
272EA
100
AcDbEntity
  8
waku
  6
Continuous
370
     9
100
AcDbLine
 10
24585.84241908142
 20
547.3726678881448
 30
0.0
 11
24585.84241908142
 21
643.3727804636474
 31
0.0
  0
LINE
  5
27B5A
330
272EA
100
AcDbEntity
  8
waku
  6
Continuous
370
     9
100
AcDbLine
 10
24585.84241908142
 20
643.3727804636474
 30
0.0
 11
24597.84305252612
 21
643.3727804636474
 31
0.0
  0
LINE
  5
27B5B
330
272EA
100
AcDbEntity
  8
waku
  6
Continuous
370
     9
100
AcDbLine
 10
24597.84305252612
 20
643.3727804636474
 30
0.0
 11
24597.84305252612
 21
659.3729198531546
 31
0.0
  0
LINE
  5
27B5C
330
272EA
100
AcDbEntity
  8
waku
  6
Continuous
370
     9
100
AcDbLine
 10
24597.84305252612
 20
659.3729198531546
 30
0.0
 11
24555.84261703625
 21
659.3729198531546
 31
0.0
  0
LINE
  5
27B5D
330
272EA
100
AcDbEntity
  8
waku
  6
Continuous
370
     9
100
AcDbLine
 10
24555.84261703625
 20
659.3729198531546
 30
0.0
 11
24555.84261703625
 21
669.3728538681953
 31
0.0
  0
LINE
  5
27B5E
330
272EA
100
AcDbEntity
  8
waku
  6
Continuous
370
     9
100
AcDbLine
 10
24555.84261703625
 20
669.3728538681953
 30
0.0
 11
24587.84133694444
 21
669.3728538681953
 31
0.0
  0
LINE
  5
27B5F
330
272EA
100
AcDbEntity
  8
waku
  6
Continuous
370
     9
100
AcDbLine
 10
24587.84133694444
 20
669.3728538681953
 30
0.0
 11
24597.84305252612
 21
679.3725095134377
 31
0.0
  0
LINE
  5
27B60
330
272EA
100
AcDbEntity
  8
waku
  6
Continuous
370
     9
100
AcDbLine
 10
24597.84305252612
 20
679.3725095134377
 30
0.0
 11
24597.84305252612
 21
697.372902940966
 31
0.0
  0
LINE
  5
27B61
330
272EA
100
AcDbEntity
  8
waku
  6
Continuous
370
     9
100
AcDbLine
 10
24597.84305252612
 20
697.372902940966
 30
0.0
 11
24581.8436925722
 21
697.372902940966
 31
0.0
  0
LINE
  5
27B62
330
272EA
100
AcDbEntity
  8
waku
  6
Continuous
370
     9
100
AcDbLine
 10
24581.8436925722
 20
697.372902940966
 30
0.0
 11
24581.8436925722
 21
691.3726975665268
 31
0.0
  0
LINE
  5
27B63
330
272EA
100
AcDbEntity
  8
waku
  6
Continuous
370
     9
100
AcDbLine
 10
24581.8436925722
 20
691.3726975665268
 30
0.0
 11
24577.84674762951
 21
687.3726348821727
 31
0.0
  0
LINE
  5
27B64
330
272EA
100
AcDbEntity
  8
waku
  6
Continuous
370
     9
100
AcDbLine
 10
24577.84674762951
 20
687.3726348821727
 30
0.0
 11
24537.84166686918
 21
687.3726348821727
 31
0.0
  0
LINE
  5
27B65
330
272EA
100
AcDbEntity
  8
waku
  6
Continuous
370
     9
100
AcDbLine
 10
24537.84166686918
 20
687.3726348821727
 30
0.0
 11
24537.84166686918
 21
599.3725920013965
 31
0.0
  0
LINE
  5
27B66
330
272EA
100
AcDbEntity
  8
waku
  6
Continuous
370
     9
100
AcDbLine
 10
24537.84166686918
 20
599.3725920013965
 30
0.0
 11
24509.84434582049
 21
572.3726699476501
 31
0.0
  0
LINE
  5
27B67
330
272EA
100
AcDbEntity
  8
waku
  6
Continuous
370
     9
100
AcDbLine
 10
24509.84434582049
 20
572.3726699476501
 30
0.0
 11
24509.84434582049
 21
547.3726678881448
 31
0.0
  0
LINE
  5
27B68
330
272EA
100
AcDbEntity
  8
waku
  6
Continuous
370
     9
100
AcDbLine
 10
24509.84434582049
 20
547.3726678881448
 30
0.0
 11
24555.84261703625
 21
589.3726579863287
 31
0.0
  0
LINE
  5
27B69
330
272EA
100
AcDbEntity
  8
waku
  6
Continuous
370
     9
100
AcDbLine
 10
24555.84261703625
 20
589.3726579863287
 30
0.0
 11
24555.84261703625
 21
643.3727804636474
 31
0.0
  0
LINE
  5
27B6A
330
272EA
100
AcDbEntity
  8
waku
  6
Continuous
370
     9
100
AcDbLine
 10
24555.84261703625
 20
643.3727804636474
 30
0.0
 11
24569.84305912751
 21
643.3727804636474
 31
0.0
  0
LINE
  5
27B6B
330
272EA
100
AcDbEntity
  8
waku
  6
Continuous
370
     9
100
AcDbLine
 10
24091.56989220955
 20
580.936521999216
 30
0.0
 11
24091.56989220955
 21
597.3727833550638
 31
0.0
  0
LINE
  5
27B6C
330
272EA
100
AcDbEntity
  8
waku
  6
Continuous
370
     9
100
AcDbLine
 10
24091.56989220955
 20
597.3727833550638
 30
0.0
 11
24075.40484655026
 21
597.3727833550638
 31
0.0
  0
LINE
  5
27B6D
330
272EA
100
AcDbEntity
  8
waku
  6
Continuous
370
     9
100
AcDbLine
 10
24075.40484655026
 20
597.3727833550638
 30
0.0
 11
24051.56837458263
 21
577.3725812812026
 31
0.0
  0
LINE
  5
27B6E
330
272EA
100
AcDbEntity
  8
waku
  6
Continuous
370
     9
100
AcDbLine
 10
24051.56837458263
 20
577.3725812812026
 30
0.0
 11
24051.56837458263
 21
547.3726678881448
 31
0.0
  0
LINE
  5
27B6F
330
272EA
100
AcDbEntity
  8
waku
  6
Continuous
370
     9
100
AcDbLine
 10
24051.56837458263
 20
547.3726678881448
 30
0.0
 11
24091.56989220955
 21
580.936521999216
 31
0.0
  0
LINE
  5
27B70
330
272EA
100
AcDbEntity
  8
waku
  6
Continuous
370
     9
100
AcDbLine
 10
24131.5696282697
 20
560.7700496435573
 30
0.0
 11
24081.56995819451
 21
547.3726678881448
 31
0.0
  0
LINE
  5
27B71
330
272EA
100
AcDbEntity
  8
waku
  6
Continuous
370
     9
100
AcDbLine
 10
24081.56995819451
 20
547.3726678881448
 30
0.0
 11
24081.56995819451
 21
572.5457602895458
 31
0.0
  0
LINE
  5
27B72
330
272EA
100
AcDbEntity
  8
waku
  6
Continuous
370
     9
100
AcDbLine
 10
24081.56995819451
 20
572.5457602895458
 30
0.0
 11
24090.02171072731
 21
579.6372866296368
 31
0.0
  0
LINE
  5
27B73
330
272EA
100
AcDbEntity
  8
waku
  6
Continuous
370
     9
100
AcDbLine
 10
24090.02171072731
 20
579.6372866296368
 30
0.0
 11
24131.5696282697
 21
590.7702970803675
 31
0.0
  0
LINE
  5
27B74
330
272EA
100
AcDbEntity
  8
waku
  6
Continuous
370
     9
100
AcDbLine
 10
24131.5696282697
 20
590.7702970803675
 30
0.0
 11
24131.5696282697
 21
560.7700496435573
 31
0.0
  0
LINE
  5
27B75
330
272EA
100
AcDbEntity
  8
waku
  6
Continuous
370
     9
100
AcDbLine
 10
24201.56827559159
 20
547.3726678881448
 30
0.0
 11
24126.57144282892
 21
597.3727833550638
 31
0.0
  0
LINE
  5
27B76
330
272EA
100
AcDbEntity
  8
waku
  6
Continuous
370
     9
100
AcDbLine
 10
24126.57144282892
 20
597.3727833550638
 30
0.0
 11
24151.56860551634
 21
597.3727833550638
 31
0.0
  0
LINE
  5
27B77
330
272EA
100
AcDbEntity
  8
waku
  6
Continuous
370
     9
100
AcDbLine
 10
24151.56860551634
 20
597.3727833550638
 30
0.0
 11
24171.56936432974
 21
584.45325119908
 31
0.0
  0
LINE
  5
27B78
330
272EA
100
AcDbEntity
  8
waku
  6
Continuous
370
     9
100
AcDbLine
 10
24171.56936432974
 20
584.45325119908
 30
0.0
 11
24171.56936432974
 21
590.3725623095088
 31
0.0
  0
LINE
  5
27B79
330
272EA
100
AcDbEntity
  8
waku
  6
Continuous
370
     9
100
AcDbLine
 10
24171.56936432974
 20
590.3725623095088
 30
0.0
 11
24191.5683415765
 21
590.3725623095088
 31
0.0
  0
LINE
  5
27B7A
330
272EA
100
AcDbEntity
  8
waku
  6
Continuous
370
     9
100
AcDbLine
 10
24191.5683415765
 20
590.3725623095088
 30
0.0
 11
24191.5683415765
 21
578.3897445319835
 31
0.0
  0
LINE
  5
27B7B
330
272EA
100
AcDbEntity
  8
waku
  6
Continuous
370
     9
100
AcDbLine
 10
24191.5683415765
 20
578.3897445319835
 30
0.0
 11
24201.56827559159
 21
577.3725812812026
 31
0.0
  0
LINE
  5
27B7C
330
272EA
100
AcDbEntity
  8
waku
  6
Continuous
370
     9
100
AcDbLine
 10
24201.56827559159
 20
577.3725812812026
 30
0.0
 11
24201.56827559159
 21
547.3726678881448
 31
0.0
  0
LINE
  5
27B7D
330
272EA
100
AcDbEntity
  8
waku
  6
Continuous
370
     9
100
AcDbLine
 10
24201.56827559159
 20
607.3727173701045
 30
0.0
 11
24134.56889584754
 21
607.3727173701045
 31
0.0
  0
LINE
  5
27B7E
330
272EA
100
AcDbEntity
  8
waku
  6
Continuous
370
     9
100
AcDbLine
 10
24134.56889584754
 20
607.3727173701045
 30
0.0
 11
24134.56889584754
 21
617.3726513851452
 31
0.0
  0
LINE
  5
27B7F
330
272EA
100
AcDbEntity
  8
waku
  6
Continuous
370
     9
100
AcDbLine
 10
24134.56889584754
 20
617.3726513851452
 30
0.0
 11
24118.57042667671
 21
617.3726513851452
 31
0.0
  0
LINE
  5
27B80
330
272EA
100
AcDbEntity
  8
waku
  6
Continuous
370
     9
100
AcDbLine
 10
24118.57042667671
 20
617.3726513851452
 30
0.0
 11
24118.57042667671
 21
607.3727173701045
 31
0.0
  0
LINE
  5
27B81
330
272EA
100
AcDbEntity
  8
waku
  6
Continuous
370
     9
100
AcDbLine
 10
24118.57042667671
 20
607.3727173701045
 30
0.0
 11
24051.56837458263
 21
607.3727173701045
 31
0.0
  0
LINE
  5
27B82
330
272EA
100
AcDbEntity
  8
waku
  6
Continuous
370
     9
100
AcDbLine
 10
24051.56837458263
 20
607.3727173701045
 30
0.0
 11
24051.56837458263
 21
597.3727833550638
 31
0.0
  0
LINE
  5
27B83
330
272EA
100
AcDbEntity
  8
waku
  6
Continuous
370
     9
100
AcDbLine
 10
24051.56837458263
 20
597.3727833550638
 30
0.0
 11
24201.56827559159
 21
597.3727833550638
 31
0.0
  0
LINE
  5
27B84
330
272EA
100
AcDbEntity
  8
waku
  6
Continuous
370
     9
100
AcDbLine
 10
24201.56827559159
 20
597.3727833550638
 30
0.0
 11
24201.56827559159
 21
607.3727173701045
 31
0.0
  0
LINE
  5
27B85
330
272EA
100
AcDbEntity
  8
waku
  6
Continuous
370
     9
100
AcDbLine
 10
23647.61148193921
 20
561.3726645875393
 30
0.0
 11
23658.48349286511
 21
561.3726645875393
 31
0.0
  0
LINE
  5
27B86
330
272EA
100
AcDbEntity
  8
waku
  6
Continuous
370
     9
100
AcDbLine
 10
23647.61148193921
 20
600.3110322726261
 30
0.0
 11
23658.48349286511
 21
600.3110322726261
 31
0.0
  0
LINE
  5
27B87
330
272EA
100
AcDbEntity
  8
waku
  6
Continuous
370
     9
100
AcDbLine
 10
23647.61148193921
 20
604.31109495698
 30
0.0
 11
23658.48349286511
 21
604.31109495698
 31
0.0
  0
LINE
  5
27B88
330
272EA
100
AcDbEntity
  8
waku
  6
Continuous
370
     9
100
AcDbLine
 10
23645.61078250949
 20
600.3110322726261
 30
0.0
 11
23645.61078250949
 21
561.3726645875393
 31
0.0
  0
LINE
  5
27B89
330
272EA
100
AcDbEntity
  8
waku
  6
Continuous
370
     9
100
AcDbLine
 10
23647.61148193921
 20
600.3110322726261
 30
0.0
 11
23647.61148193921
 21
561.3726645875393
 31
0.0
  0
LINE
  5
27B8A
330
272EA
100
AcDbEntity
  8
waku
  6
Continuous
370
     9
100
AcDbLine
 10
23625.47818775859
 20
589.4367943883535
 30
0.0
 11
23618.47841210471
 21
573.6271434533099
 31
0.0
  0
LINE
  5
27B8B
330
272EA
100
AcDbEntity
  8
waku
  6
Continuous
370
     9
100
AcDbLine
 10
23627.47977797158
 20
611.3727800544584
 30
0.0
 11
23634.30496008659
 21
611.3727800544584
 31
0.0
  0
LINE
  5
27B8C
330
272EA
100
AcDbEntity
  8
waku
  6
Continuous
370
     9
100
AcDbLine
 10
23584.20374070818
 20
583.5611873365777
 30
0.0
 11
23608.47936887311
 21
583.5611873365777
 31
0.0
  0
LINE
  5
27B8D
330
272EA
100
AcDbEntity
  8
waku
  6
Continuous
370
     9
100
AcDbLine
 10
23648.80335007678
 20
677.3727008671047
 30
0.0
 11
23658.48349286511
 21
677.3727008671047
 31
0.0
  0
LINE
  5
27B8E
330
272EA
100
AcDbEntity
  8
waku
  6
Continuous
370
     9
100
AcDbLine
 10
23648.02925933572
 20
681.3727635514587
 30
0.0
 11
23656.47833951848
 21
681.3727635514587
 31
0.0
  0
LINE
  5
27B8F
330
272EA
100
AcDbEntity
  8
waku
  6
Continuous
370
     9
100
AcDbLine
 10
23644.22917751595
 20
681.3727635514587
 30
0.0
 11
23642.86716975656
 21
687.3726348821727
 31
0.0
  0
LINE
  5
27B90
330
272EA
100
AcDbEntity
  8
waku
  6
Continuous
370
     9
100
AcDbLine
 10
23648.02925933572
 20
681.3727635514587
 30
0.0
 11
23646.87302253256
 21
687.3726348821727
 31
0.0
  0
LINE
  5
27B91
330
272EA
100
AcDbEntity
  8
waku
  6
Continuous
370
     9
100
AcDbLine
 10
23632.53675511433
 20
635.1397709199098
 30
0.0
 11
23644.59528947761
 21
638.3706421716815
 31
0.0
  0
LINE
  5
27B92
330
272EA
100
AcDbEntity
  8
waku
  6
Continuous
370
     9
100
AcDbLine
 10
23632.53675511433
 20
659.5774103085714
 30
0.0
 11
23644.59528947761
 21
659.5774103085714
 31
0.0
  0
LINE
  5
27B93
330
272EA
100
AcDbEntity
  8
waku
  6
Continuous
370
     9
100
AcDbLine
 10
23597.47819435975
 20
655.3400095323342
 30
0.0
 11
23597.47819435975
 21
627.3725854001858
 31
0.0
  0
LINE
  5
27B94
330
272EA
100
AcDbEntity
  8
waku
  6
Continuous
370
     9
100
AcDbLine
 10
23599.47978457273
 20
655.7876838454249
 30
0.0
 11
23599.47978457273
 21
627.3725854001858
 31
0.0
  0
LINE
  5
27B95
330
272EA
100
AcDbEntity
  8
waku
  6
Continuous
370
     9
100
AcDbLine
 10
23599.47978457273
 20
661.5772746288585
 30
0.0
 11
23608.47936887311
 21
661.5772746288585
 31
0.0
  0
LINE
  5
27B96
330
272EA
100
AcDbEntity
  8
waku
  6
Continuous
370
     9
100
AcDbLine
 10
23599.47978457273
 20
665.5778383788547
 30
0.0
 11
23608.47936887311
 21
665.5778383788547
 31
0.0
  0
LINE
  5
27B97
330
272EA
100
AcDbEntity
  8
waku
  6
Continuous
370
     9
100
AcDbLine
 10
23597.47819435975
 20
661.5772746288585
 30
0.0
 11
23597.47819435975
 21
659.3401278906695
 31
0.0
  0
LINE
  5
27B98
330
272EA
100
AcDbEntity
  8
waku
  6
Continuous
370
     9
100
AcDbLine
 10
23599.47978457273
 20
661.5772746288585
 30
0.0
 11
23599.47978457273
 21
659.7877465297787
 31
0.0
  0
LINE
  5
27B99
330
272EA
100
AcDbEntity
  8
waku
  6
Continuous
370
     9
100
AcDbLine
 10
23599.47978457273
 20
677.3727008671047
 30
0.0
 11
23608.47936887311
 21
677.3727008671047
 31
0.0
  0
LINE
  5
27B9A
330
272EA
100
AcDbEntity
  8
waku
  6
Continuous
370
     9
100
AcDbLine
 10
23599.47978457273
 20
681.3727635514587
 30
0.0
 11
23608.47936887311
 21
681.3727635514587
 31
0.0
  0
LINE
  5
27B9B
330
272EA
100
AcDbEntity
  8
waku
  6
Continuous
370
     9
100
AcDbLine
 10
23599.47978457273
 20
677.3727008671047
 30
0.0
 11
23599.47978457273
 21
665.5778383788547
 31
0.0
  0
LINE
  5
27B9C
330
272EA
100
AcDbEntity
  8
waku
  6
Continuous
370
     9
100
AcDbLine
 10
23597.47819435975
 20
677.3727008671047
 30
0.0
 11
23597.47819435975
 21
665.5778383788547
 31
0.0
  0
LINE
  5
27B9D
330
272EA
100
AcDbEntity
  8
waku
  6
Continuous
370
     9
100
AcDbLine
 10
23590.47841870587
 20
681.3727635514587
 30
0.0
 11
23597.47819435975
 21
681.3727635514587
 31
0.0
  0
LINE
  5
27B9E
330
272EA
100
AcDbEntity
  8
waku
  6
Continuous
370
     9
100
AcDbLine
 10
23577.47921711299
 20
663.8783907471824
 30
0.0
 11
23577.47921711299
 21
627.3725854001858
 31
0.0
  0
LINE
  5
27B9F
330
272EA
100
AcDbEntity
  8
waku
  6
Continuous
370
     9
100
AcDbLine
 10
23575.47762689996
 20
663.1317472684494
 30
0.0
 11
23575.47762689996
 21
627.3725854001858
 31
0.0
  0
LINE
  5
27BA0
330
272EA
100
AcDbEntity
  8
waku
  6
Continuous
370
     9
100
AcDbLine
 10
23577.47921711299
 20
677.3727008671047
 30
0.0
 11
23597.47819435975
 21
677.3727008671047
 31
0.0
  0
LINE
  5
27BA1
330
272EA
100
AcDbEntity
  8
waku
  6
Continuous
370
     9
100
AcDbLine
 10
23577.47921711299
 20
681.3727635514587
 30
0.0
 11
23588.47950084298
 21
681.3727635514587
 31
0.0
  0
LINE
  5
27BA2
330
272EA
100
AcDbEntity
  8
waku
  6
Continuous
370
     9
100
AcDbLine
 10
23575.47762689996
 20
677.3727008671047
 30
0.0
 11
23575.47762689996
 21
667.1321996705374
 31
0.0
  0
LINE
  5
27BA3
330
272EA
100
AcDbEntity
  8
waku
  6
Continuous
370
     9
100
AcDbLine
 10
23577.47921711299
 20
677.3727008671047
 30
0.0
 11
23577.47921711299
 21
667.8787318013347
 31
0.0
  0
LINE
  5
27BA4
330
272EA
100
AcDbEntity
  8
waku
  6
Continuous
370
     9
100
AcDbLine
 10
23658.48349286511
 20
600.3110322726261
 30
0.0
 11
23658.48349286511
 21
604.31109495698
 31
0.0
  0
LINE
  5
27BA5
330
272EA
100
AcDbEntity
  8
waku
  6
Continuous
370
     9
100
AcDbLine
 10
23658.48349286511
 20
557.3726297401626
 30
0.0
 11
23658.48349286511
 21
561.3726645875393
 31
0.0
  0
LINE
  5
27BA6
330
272EA
100
AcDbEntity
  8
waku
  6
Continuous
370
     9
100
AcDbLine
 10
23636.61030742608
 20
561.3726645875393
 30
0.0
 11
23636.61030742608
 21
557.3726297401626
 31
0.0
  0
LINE
  5
27BA7
330
272EA
100
AcDbEntity
  8
waku
  6
Continuous
370
     9
100
AcDbLine
 10
23636.61030742608
 20
604.31109495698
 30
0.0
 11
23636.61030742608
 21
600.3110322726261
 31
0.0
  0
LINE
  5
27BA8
330
272EA
100
AcDbEntity
  8
waku
  6
Continuous
370
     9
100
AcDbLine
 10
23645.61078250949
 20
617.3726513851452
 30
0.0
 11
23647.61148193921
 21
617.3726513851452
 31
0.0
  0
LINE
  5
27BA9
330
272EA
100
AcDbEntity
  8
waku
  6
Continuous
370
     9
100
AcDbLine
 10
23625.47818775859
 20
617.3726513851452
 30
0.0
 11
23627.47977797158
 21
617.3726513851452
 31
0.0
  0
LINE
  5
27BAA
330
272EA
100
AcDbEntity
  8
waku
  6
Continuous
370
     9
100
AcDbLine
 10
23625.47818775859
 20
557.3726297401626
 30
0.0
 11
23627.47977797158
 21
557.3726297401626
 31
0.0
  0
LINE
  5
27BAB
330
272EA
100
AcDbEntity
  8
waku
  6
Continuous
370
     9
100
AcDbLine
 10
23634.47777205875
 20
586.2152763618687
 30
0.0
 11
23634.47777205875
 21
582.2156869061799
 31
0.0
  0
LINE
  5
27BAC
330
272EA
100
AcDbEntity
  8
waku
  6
Continuous
370
     9
100
AcDbLine
 10
23618.47841210471
 20
577.6276515293246
 30
0.0
 11
23618.47841210471
 21
573.6271434533099
 31
0.0
  0
LINE
  5
27BAD
330
272EA
100
AcDbEntity
  8
waku
  6
Continuous
370
     9
100
AcDbLine
 10
23634.30496008659
 20
611.3727800544584
 30
0.0
 11
23634.30496008659
 21
609.3725260164374
 31
0.0
  0
LINE
  5
27BAE
330
272EA
100
AcDbEntity
  8
waku
  6
Continuous
370
     9
100
AcDbLine
 10
23618.47841210471
 20
611.3727800544584
 30
0.0
 11
23618.47841210471
 21
609.3725260164374
 31
0.0
  0
LINE
  5
27BAF
330
272EA
100
AcDbEntity
  8
waku
  6
Continuous
370
     9
100
AcDbLine
 10
23595.3429866425
 20
572.4940948545699
 30
0.0
 11
23599.34349471849
 21
572.4940948545699
 31
0.0
  0
LINE
  5
27BB0
330
272EA
100
AcDbEntity
  8
waku
  6
Continuous
370
     9
100
AcDbLine
 10
23568.48319594632
 20
587.5611943469776
 30
0.0
 11
23568.48319594632
 21
583.5611873365777
 31
0.0
  0
LINE
  5
27BB1
330
272EA
100
AcDbEntity
  8
waku
  6
Continuous
370
     9
100
AcDbLine
 10
23608.47936887311
 20
587.5611943469776
 30
0.0
 11
23608.47936887311
 21
583.5611873365777
 31
0.0
  0
LINE
  5
27BB2
330
272EA
100
AcDbEntity
  8
waku
  6
Continuous
370
     9
100
AcDbLine
 10
23600.47746193752
 20
598.6283425029396
 30
0.0
 11
23600.47746193752
 21
594.6283354925399
 31
0.0
  0
LINE
  5
27BB3
330
272EA
100
AcDbEntity
  8
waku
  6
Continuous
370
     9
100
AcDbLine
 10
23576.48064896494
 20
598.6283425029396
 30
0.0
 11
23576.48064896494
 21
594.6283354925399
 31
0.0
  0
LINE
  5
27BB4
330
272EA
100
AcDbEntity
  8
waku
  6
Continuous
370
     9
100
AcDbLine
 10
23608.47936887311
 20
601.4285199995048
 30
0.0
 11
23608.47936887311
 21
597.4284573151508
 31
0.0
  0
LINE
  5
27BB5
330
272EA
100
AcDbEntity
  8
waku
  6
Continuous
370
     9
100
AcDbLine
 10
23568.48319594632
 20
601.4285199995048
 30
0.0
 11
23568.48319594632
 21
597.4284573151508
 31
0.0
  0
LINE
  5
27BB6
330
272EA
100
AcDbEntity
  8
waku
  6
Continuous
370
     9
100
AcDbLine
 10
23608.47936887311
 20
643.6788202222633
 30
0.0
 11
23608.47936887311
 21
639.6792029295702
 31
0.0
  0
LINE
  5
27BB7
330
272EA
100
AcDbEntity
  8
waku
  6
Continuous
370
     9
100
AcDbLine
 10
23590.47841870587
 20
643.6788202222633
 30
0.0
 11
23590.47841870587
 21
639.6792029295702
 31
0.0
  0
LINE
  5
27BB8
330
272EA
100
AcDbEntity
  8
waku
  6
Continuous
370
     9
100
AcDbLine
 10
23584.47810198361
 20
661.3488443706009
 30
0.0
 11
23584.47810198361
 21
657.3487260122929
 31
0.0
  0
LINE
  5
27BB9
330
272EA
100
AcDbEntity
  8
waku
  6
Continuous
370
     9
100
AcDbLine
 10
23568.48319594632
 20
655.3797050659031
 30
0.0
 11
23568.48319594632
 21
651.3795867075677
 31
0.0
  0
LINE
  5
27BBA
330
272EA
100
AcDbEntity
  8
waku
  6
Continuous
370
     9
100
AcDbLine
 10
23656.47833951848
 20
627.3725854001858
 30
0.0
 11
23658.48349286511
 21
627.3725854001858
 31
0.0
  0
LINE
  5
27BBB
330
272EA
100
AcDbEntity
  8
waku
  6
Continuous
370
     9
100
AcDbLine
 10
23642.86716975656
 20
687.3726348821727
 30
0.0
 11
23646.87302253256
 21
687.3726348821727
 31
0.0
  0
LINE
  5
27BBC
330
272EA
100
AcDbEntity
  8
waku
  6
Continuous
370
     9
100
AcDbLine
 10
23597.47819435975
 20
627.3725854001858
 30
0.0
 11
23599.47978457273
 21
627.3725854001858
 31
0.0
  0
LINE
  5
27BBD
330
272EA
100
AcDbEntity
  8
waku
  6
Continuous
370
     9
100
AcDbLine
 10
23575.47762689996
 20
627.3725854001858
 30
0.0
 11
23577.47921711299
 21
627.3725854001858
 31
0.0
  0
LINE
  5
27BBE
330
272EA
100
AcDbEntity
  8
waku
  6
Continuous
370
     9
100
AcDbLine
 10
23597.47819435975
 20
687.3726348821727
 30
0.0
 11
23599.47978457273
 21
687.3726348821727
 31
0.0
  0
LINE
  5
27BBF
330
272EA
100
AcDbEntity
  8
waku
  6
Continuous
370
     9
100
AcDbLine
 10
23575.47762689996
 20
687.3726348821727
 30
0.0
 11
23577.47921711299
 21
687.3726348821727
 31
0.0
  0
LINE
  5
27BC0
330
272EA
100
AcDbEntity
  8
waku
  6
Continuous
370
     9
100
AcDbLine
 10
23627.47977797158
 20
588.7445443686247
 30
0.0
 11
23627.47977797158
 21
557.3726297401626
 31
0.0
  0
LINE
  5
27BC1
330
272EA
100
AcDbEntity
  8
waku
  6
Continuous
370
     9
100
AcDbLine
 10
23627.47977797158
 20
617.3726513851452
 30
0.0
 11
23627.47977797158
 21
611.3727800544584
 31
0.0
  0
LINE
  5
27BC2
330
272EA
100
AcDbEntity
  8
waku
  6
Continuous
370
     9
100
AcDbLine
 10
23647.61148193921
 20
617.3726513851452
 30
0.0
 11
23647.61148193921
 21
604.31109495698
 31
0.0
  0
LINE
  5
27BC3
330
272EA
100
AcDbEntity
  8
waku
  6
Continuous
370
     9
100
AcDbLine
 10
23658.48349286511
 20
627.3725854001858
 30
0.0
 11
23648.80335007678
 21
677.3727008671047
 31
0.0
  0
LINE
  5
27BC4
330
272EA
100
AcDbEntity
  8
waku
  6
Continuous
370
     9
100
AcDbLine
 10
23630.53694646806
 20
659.5774103085714
 30
0.0
 11
23630.53694646806
 21
634.6035193363386
 31
0.0
  0
LINE
  5
27BC5
330
272EA
100
AcDbEntity
  8
waku
  6
Continuous
370
     9
100
AcDbLine
 10
23599.47978457273
 20
687.3726348821727
 30
0.0
 11
23599.47978457273
 21
681.3727635514587
 31
0.0
  0
LINE
  5
27BC6
330
272EA
100
AcDbEntity
  8
waku
  6
Continuous
370
     9
100
AcDbLine
 10
23577.47921711299
 20
687.3726348821727
 30
0.0
 11
23577.47921711299
 21
681.3727635514587
 31
0.0
  0
LINE
  5
27BC7
330
272EA
100
AcDbEntity
  8
waku
  6
Continuous
370
     9
100
AcDbLine
 10
23636.61030742608
 20
557.3726297401626
 30
0.0
 11
23658.48349286511
 21
557.3726297401626
 31
0.0
  0
LINE
  5
27BC8
330
272EA
100
AcDbEntity
  8
waku
  6
Continuous
370
     9
100
AcDbLine
 10
23636.61030742608
 20
561.3726645875393
 30
0.0
 11
23645.61078250949
 21
561.3726645875393
 31
0.0
  0
LINE
  5
27BC9
330
272EA
100
AcDbEntity
  8
waku
  6
Continuous
370
     9
100
AcDbLine
 10
23625.47818775859
 20
589.4367943883535
 30
0.0
 11
23625.47818775859
 21
557.3726297401626
 31
0.0
  0
LINE
  5
27BCA
330
272EA
100
AcDbEntity
  8
waku
  6
Continuous
370
     9
100
AcDbLine
 10
23634.30496008659
 20
609.3725260164374
 30
0.0
 11
23627.09852269304
 21
593.097914003698
 31
0.0
  0
LINE
  5
27BCB
330
272EA
100
AcDbEntity
  8
waku
  6
Continuous
370
     9
100
AcDbLine
 10
23632.53408276418
 20
609.3725260164374
 30
0.0
 11
23618.47841210471
 21
577.6276515293246
 31
0.0
  0
LINE
  5
27BCC
330
272EA
100
AcDbEntity
  8
waku
  6
Continuous
370
     9
100
AcDbLine
 10
23625.47818775859
 20
617.3726513851452
 30
0.0
 11
23625.47818775859
 21
611.3727800544584
 31
0.0
  0
LINE
  5
27BCD
330
272EA
100
AcDbEntity
  8
waku
  6
Continuous
370
     9
100
AcDbLine
 10
23618.47841210471
 20
611.3727800544584
 30
0.0
 11
23625.47818775859
 21
611.3727800544584
 31
0.0
  0
LINE
  5
27BCE
330
272EA
100
AcDbEntity
  8
waku
  6
Continuous
370
     9
100
AcDbLine
 10
23618.47841210471
 20
609.3725260164374
 30
0.0
 11
23632.53408276418
 21
609.3725260164374
 31
0.0
  0
LINE
  5
27BCF
330
272EA
100
AcDbEntity
  8
waku
  6
Continuous
370
     9
100
AcDbLine
 10
23627.47977797158
 20
588.7445443686247
 30
0.0
 11
23634.47777205875
 21
582.2156869061799
 31
0.0
  0
LINE
  5
27BD0
330
272EA
100
AcDbEntity
  8
waku
  6
Continuous
370
     9
100
AcDbLine
 10
23627.09852269304
 20
593.097914003698
 30
0.0
 11
23634.47777205875
 21
586.2152763618687
 31
0.0
  0
LINE
  5
27BD1
330
272EA
100
AcDbEntity
  8
waku
  6
Continuous
370
     9
100
AcDbLine
 10
23645.61078250949
 20
617.3726513851452
 30
0.0
 11
23645.61078250949
 21
604.31109495698
 31
0.0
  0
LINE
  5
27BD2
330
272EA
100
AcDbEntity
  8
waku
  6
Continuous
370
     9
100
AcDbLine
 10
23636.61030742608
 20
604.31109495698
 30
0.0
 11
23645.61078250949
 21
604.31109495698
 31
0.0
  0
LINE
  5
27BD3
330
272EA
100
AcDbEntity
  8
waku
  6
Continuous
370
     9
100
AcDbLine
 10
23636.61030742608
 20
600.3110322726261
 30
0.0
 11
23645.61078250949
 21
600.3110322726261
 31
0.0
  0
LINE
  5
27BD4
330
272EA
100
AcDbEntity
  8
waku
  6
Continuous
370
     9
100
AcDbLine
 10
23575.96488539863
 20
561.3726645875393
 30
0.0
 11
23600.59059142461
 21
561.3726645875393
 31
0.0
  0
LINE
  5
27BD5
330
272EA
100
AcDbEntity
  8
waku
  6
Continuous
370
     9
100
AcDbLine
 10
23600.59059142461
 20
561.3726645875393
 30
0.0
 11
23595.3429866425
 21
572.4940948545699
 31
0.0
  0
LINE
  5
27BD6
330
272EA
100
AcDbEntity
  8
waku
  6
Continuous
370
     9
100
AcDbLine
 10
23606.47956022678
 20
557.3726297401626
 30
0.0
 11
23599.34349471849
 21
572.4940948545699
 31
0.0
  0
LINE
  5
27BD7
330
272EA
100
AcDbEntity
  8
waku
  6
Continuous
370
     9
100
AcDbLine
 10
23570.47944145918
 20
557.3726297401626
 30
0.0
 11
23606.47956022678
 21
557.3726297401626
 31
0.0
  0
LINE
  5
27BD8
330
272EA
100
AcDbEntity
  8
waku
  6
Continuous
370
     9
100
AcDbLine
 10
23584.20374070818
 20
583.5611873365777
 30
0.0
 11
23575.96488539863
 21
561.3726645875393
 31
0.0
  0
LINE
  5
27BD9
330
272EA
100
AcDbEntity
  8
waku
  6
Continuous
370
     9
100
AcDbLine
 10
23580.20501419884
 20
583.5611873365777
 30
0.0
 11
23570.47944145918
 21
557.3726297401626
 31
0.0
  0
LINE
  5
27BDA
330
272EA
100
AcDbEntity
  8
waku
  6
Continuous
370
     9
100
AcDbLine
 10
23568.48319594632
 20
587.5611943469776
 30
0.0
 11
23608.47936887311
 21
587.5611943469776
 31
0.0
  0
LINE
  5
27BDB
330
272EA
100
AcDbEntity
  8
waku
  6
Continuous
370
     9
100
AcDbLine
 10
23568.48319594632
 20
583.5611873365777
 30
0.0
 11
23580.20501419884
 21
583.5611873365777
 31
0.0
  0
LINE
  5
27BDC
330
272EA
100
AcDbEntity
  8
waku
  6
Continuous
370
     9
100
AcDbLine
 10
23576.48064896494
 20
594.6283354925399
 30
0.0
 11
23600.47746193752
 21
594.6283354925399
 31
0.0
  0
LINE
  5
27BDD
330
272EA
100
AcDbEntity
  8
waku
  6
Continuous
370
     9
100
AcDbLine
 10
23576.48064896494
 20
598.6283425029396
 30
0.0
 11
23600.47746193752
 21
598.6283425029396
 31
0.0
  0
LINE
  5
27BDE
330
272EA
100
AcDbEntity
  8
waku
  6
Continuous
370
     9
100
AcDbLine
 10
23588.47950084298
 20
617.3726513851452
 30
0.0
 11
23608.47936887311
 21
601.4285199995048
 31
0.0
  0
LINE
  5
27BDF
330
272EA
100
AcDbEntity
  8
waku
  6
Continuous
370
     9
100
AcDbLine
 10
23588.47950084298
 20
613.372533026837
 30
0.0
 11
23608.47936887311
 21
597.4284573151508
 31
0.0
  0
LINE
  5
27BE0
330
272EA
100
AcDbEntity
  8
waku
  6
Continuous
370
     9
100
AcDbLine
 10
23588.47950084298
 20
613.372533026837
 30
0.0
 11
23568.48319594632
 21
597.4284573151508
 31
0.0
  0
LINE
  5
27BE1
330
272EA
100
AcDbEntity
  8
waku
  6
Continuous
370
     9
100
AcDbLine
 10
23588.47950084298
 20
617.3726513851452
 30
0.0
 11
23568.48319594632
 21
601.4285199995048
 31
0.0
  0
LINE
  5
27BE2
330
272EA
100
AcDbEntity
  8
waku
  6
Continuous
370
     9
100
AcDbLine
 10
23656.47833951848
 20
627.3725854001858
 30
0.0
 11
23645.1359949779
 21
677.3727008671047
 31
0.0
  0
LINE
  5
27BE3
330
272EA
100
AcDbEntity
  8
waku
  6
Continuous
370
     9
100
AcDbLine
 10
23632.53675511433
 20
659.5774103085714
 30
0.0
 11
23632.53675511433
 21
635.1397709199098
 31
0.0
  0
LINE
  5
27BE4
330
272EA
100
AcDbEntity
  8
waku
  6
Continuous
370
     9
100
AcDbLine
 10
23658.48349286511
 20
687.3726348821727
 30
0.0
 11
23658.48349286511
 21
681.3727635514587
 31
0.0
  0
LINE
  5
27BE5
330
272EA
100
AcDbEntity
  8
waku
  6
Continuous
370
     9
100
AcDbLine
 10
23656.47833951848
 20
687.3726348821727
 30
0.0
 11
23656.47833951848
 21
681.3727635514587
 31
0.0
  0
LINE
  5
27BE6
330
272EA
100
AcDbEntity
  8
waku
  6
Continuous
370
     9
100
AcDbLine
 10
23656.47833951848
 20
687.3726348821727
 30
0.0
 11
23658.48349286511
 21
687.3726348821727
 31
0.0
  0
LINE
  5
27BE7
330
272EA
100
AcDbEntity
  8
waku
  6
Continuous
370
     9
100
AcDbLine
 10
23644.59528947761
 20
634.3705794873276
 30
0.0
 11
23644.59528947761
 21
638.3706421716815
 31
0.0
  0
LINE
  5
27BE8
330
272EA
100
AcDbEntity
  8
waku
  6
Continuous
370
     9
100
AcDbLine
 10
23618.47841210471
 20
631.3729264543382
 30
0.0
 11
23630.53694646806
 21
634.6035193363386
 31
0.0
  0
LINE
  5
27BE9
330
272EA
100
AcDbEntity
  8
waku
  6
Continuous
370
     9
100
AcDbLine
 10
23618.47841210471
 20
627.3725854001858
 30
0.0
 11
23644.59528947761
 21
634.3705794873276
 31
0.0
  0
LINE
  5
27BEA
330
272EA
100
AcDbEntity
  8
waku
  6
Continuous
370
     9
100
AcDbLine
 10
23618.47841210471
 20
627.3725854001858
 30
0.0
 11
23618.47841210471
 21
631.3729264543382
 31
0.0
  0
LINE
  5
27BEB
330
272EA
100
AcDbEntity
  8
waku
  6
Continuous
370
     9
100
AcDbLine
 10
23618.47841210471
 20
663.5775843408337
 30
0.0
 11
23644.59528947761
 21
663.5775843408337
 31
0.0
  0
LINE
  5
27BEC
330
272EA
100
AcDbEntity
  8
waku
  6
Continuous
370
     9
100
AcDbLine
 10
23618.47841210471
 20
659.5774103085714
 30
0.0
 11
23630.53694646806
 21
659.5774103085714
 31
0.0
  0
LINE
  5
27BED
330
272EA
100
AcDbEntity
  8
waku
  6
Continuous
370
     9
100
AcDbLine
 10
23618.47841210471
 20
663.5775843408337
 30
0.0
 11
23618.47841210471
 21
659.5774103085714
 31
0.0
  0
LINE
  5
27BEE
330
272EA
100
AcDbEntity
  8
waku
  6
Continuous
370
     9
100
AcDbLine
 10
23644.59528947761
 20
663.5775843408337
 30
0.0
 11
23644.59528947761
 21
659.5774103085714
 31
0.0
  0
LINE
  5
27BEF
330
272EA
100
AcDbEntity
  8
waku
  6
Continuous
370
     9
100
AcDbLine
 10
23618.47841210471
 20
681.3727635514587
 30
0.0
 11
23644.22917751595
 21
681.3727635514587
 31
0.0
  0
LINE
  5
27BF0
330
272EA
100
AcDbEntity
  8
waku
  6
Continuous
370
     9
100
AcDbLine
 10
23618.47841210471
 20
677.3727008671047
 30
0.0
 11
23645.1359949779
 21
677.3727008671047
 31
0.0
  0
LINE
  5
27BF1
330
272EA
100
AcDbEntity
  8
waku
  6
Continuous
370
     9
100
AcDbLine
 10
23658.48349286511
 20
681.3727635514587
 30
0.0
 11
23658.48349286511
 21
677.3727008671047
 31
0.0
  0
LINE
  5
27BF2
330
272EA
100
AcDbEntity
  8
waku
  6
Continuous
370
     9
100
AcDbLine
 10
23618.47841210471
 20
677.3727008671047
 30
0.0
 11
23618.47841210471
 21
681.3727635514587
 31
0.0
  0
LINE
  5
27BF3
330
272EA
100
AcDbEntity
  8
waku
  6
Continuous
370
     9
100
AcDbLine
 10
23568.48319594632
 20
677.3727008671047
 30
0.0
 11
23568.48319594632
 21
681.3727635514587
 31
0.0
  0
LINE
  5
27BF4
330
272EA
100
AcDbEntity
  8
waku
  6
Continuous
370
     9
100
AcDbLine
 10
23588.47950084298
 20
687.3726348821727
 30
0.0
 11
23590.47841870587
 21
687.3726348821727
 31
0.0
  0
LINE
  5
27BF5
330
272EA
100
AcDbEntity
  8
waku
  6
Continuous
370
     9
100
AcDbLine
 10
23608.47936887311
 20
681.3727635514587
 30
0.0
 11
23608.47936887311
 21
677.3727008671047
 31
0.0
  0
LINE
  5
27BF6
330
272EA
100
AcDbEntity
  8
waku
  6
Continuous
370
     9
100
AcDbLine
 10
23608.47936887311
 20
665.5778383788547
 30
0.0
 11
23608.47936887311
 21
661.5772746288585
 31
0.0
  0
LINE
  5
27BF7
330
272EA
100
AcDbEntity
  8
waku
  6
Continuous
370
     9
100
AcDbLine
 10
23588.47950084298
 20
665.5778383788547
 30
0.0
 11
23588.47950084298
 21
661.5772746288585
 31
0.0
  0
LINE
  5
27BF8
330
272EA
100
AcDbEntity
  8
waku
  6
Continuous
370
     9
100
AcDbLine
 10
23599.47978457273
 20
655.7876838454249
 30
0.0
 11
23608.47936887311
 21
639.6792029295702
 31
0.0
  0
LINE
  5
27BF9
330
272EA
100
AcDbEntity
  8
waku
  6
Continuous
370
     9
100
AcDbLine
 10
23599.47978457273
 20
659.7877465297787
 30
0.0
 11
23608.47936887311
 21
643.6788202222633
 31
0.0
  0
LINE
  5
27BFA
330
272EA
100
AcDbEntity
  8
waku
  6
Continuous
370
     9
100
AcDbLine
 10
23597.47819435975
 20
655.3400095323342
 30
0.0
 11
23590.47841870587
 21
639.6792029295702
 31
0.0
  0
LINE
  5
27BFB
330
272EA
100
AcDbEntity
  8
waku
  6
Continuous
370
     9
100
AcDbLine
 10
23597.47819435975
 20
659.3401278906695
 30
0.0
 11
23590.47841870587
 21
643.6788202222633
 31
0.0
  0
LINE
  5
27BFC
330
272EA
100
AcDbEntity
  8
waku
  6
Continuous
370
     9
100
AcDbLine
 10
23588.47950084298
 20
661.5772746288585
 30
0.0
 11
23597.47819435975
 21
661.5772746288585
 31
0.0
  0
LINE
  5
27BFD
330
272EA
100
AcDbEntity
  8
waku
  6
Continuous
370
     9
100
AcDbLine
 10
23588.47950084298
 20
665.5778383788547
 30
0.0
 11
23597.47819435975
 21
665.5778383788547
 31
0.0
  0
LINE
  5
27BFE
330
272EA
100
AcDbEntity
  8
waku
  6
Continuous
370
     9
100
AcDbLine
 10
23588.47950084298
 20
687.3726348821727
 30
0.0
 11
23588.47950084298
 21
681.3727635514587
 31
0.0
  0
LINE
  5
27BFF
330
272EA
100
AcDbEntity
  8
waku
  6
Continuous
370
     9
100
AcDbLine
 10
23590.47841870587
 20
687.3726348821727
 30
0.0
 11
23590.47841870587
 21
681.3727635514587
 31
0.0
  0
LINE
  5
27C00
330
272EA
100
AcDbEntity
  8
waku
  6
Continuous
370
     9
100
AcDbLine
 10
23597.47819435975
 20
687.3726348821727
 30
0.0
 11
23597.47819435975
 21
681.3727635514587
 31
0.0
  0
LINE
  5
27C01
330
272EA
100
AcDbEntity
  8
waku
  6
Continuous
370
     9
100
AcDbLine
 10
23577.47921711299
 20
667.8787318013347
 30
0.0
 11
23584.47810198361
 21
661.3488443706009
 31
0.0
  0
LINE
  5
27C02
330
272EA
100
AcDbEntity
  8
waku
  6
Continuous
370
     9
100
AcDbLine
 10
23577.47921711299
 20
663.8783907471824
 30
0.0
 11
23584.47810198361
 21
657.3487260122929
 31
0.0
  0
LINE
  5
27C03
330
272EA
100
AcDbEntity
  8
waku
  6
Continuous
370
     9
100
AcDbLine
 10
23575.47762689996
 20
663.1317472684494
 30
0.0
 11
23568.48319594632
 21
651.3795867075677
 31
0.0
  0
LINE
  5
27C04
330
272EA
100
AcDbEntity
  8
waku
  6
Continuous
370
     9
100
AcDbLine
 10
23575.47762689996
 20
667.1321996705374
 30
0.0
 11
23568.48319594632
 21
655.3797050659031
 31
0.0
  0
LINE
  5
27C05
330
272EA
100
AcDbEntity
  8
waku
  6
Continuous
370
     9
100
AcDbLine
 10
23568.48319594632
 20
677.3727008671047
 30
0.0
 11
23575.47762689996
 21
677.3727008671047
 31
0.0
  0
LINE
  5
27C06
330
272EA
100
AcDbEntity
  8
waku
  6
Continuous
370
     9
100
AcDbLine
 10
23568.48319594632
 20
681.3727635514587
 30
0.0
 11
23575.47762689996
 21
681.3727635514587
 31
0.0
  0
LINE
  5
27C07
330
272EA
100
AcDbEntity
  8
waku
  6
Continuous
370
     9
100
AcDbLine
 10
23575.47762689996
 20
687.3726348821727
 30
0.0
 11
23575.47762689996
 21
681.3727635514587
 31
0.0
  0
LINE
  5
27C08
330
272EA
100
AcDbEntity
  8
waku
  6
Continuous
370
     9
100
AcDbLine
 10
22375.14447732363
 20
658.0311569925343
 30
0.0
 11
22382.71910517342
 21
658.0311569925343
 31
0.0
  0
LINE
  5
27C09
330
272EA
100
AcDbEntity
  8
waku
  6
Continuous
370
     9
100
AcDbLine
 10
22382.71910517342
 20
658.0311569925343
 30
0.0
 11
22375.14447732363
 21
658.0311569925343
 31
0.0
  0
LINE
  5
27C0A
330
272EA
100
AcDbEntity
  8
waku
  6
Continuous
370
     9
100
AcDbLine
 10
22161.38853964146
 20
658.0311569925343
 30
0.0
 11
22168.96094053285
 21
658.0311569925343
 31
0.0
  0
LINE
  5
27C0B
330
272EA
100
AcDbEntity
  8
waku
  6
Continuous
370
     9
100
AcDbLine
 10
22168.96094053285
 20
658.0311569925343
 30
0.0
 11
22161.38853964146
 21
658.0311569925343
 31
0.0
  0
LINE
  5
27C0C
330
272EA
100
AcDbEntity
  8
waku
  6
Continuous
370
     9
100
AcDbLine
 10
21224.49172225373
 20
468.1413820062571
 30
0.0
 11
21328.1275963987
 21
571.7777906213141
 31
0.0
  0
CIRCLE
  5
27C0D
330
272EA
100
AcDbEntity
  8
waku
  6
Continuous
370
     9
100
AcDbCircle
 10
22378.93550284591
 20
658.0311569925343
 30
0.0
 40
7.57575727722086
  0
CIRCLE
  5
27C0E
330
272EA
100
AcDbEntity
  8
waku
  6
Continuous
370
     9
100
AcDbCircle
 10
22165.17288428848
 20
658.0311569925343
 30
0.0
 40
7.57575727722086
  0
TEXT
  5
27C0F
330
272EA
100
AcDbEntity
  8
waku
  6
Continuous
370
     9
100
AcDbText
 10
21224.78033606283
 20
523.4673117845032
 30
0.0
 40
46.5512727226176
  1
1
 41
0.9999838574972839
  7
ＭＳ ゴシック
100
AcDbText
  0
TEXT
  5
27C10
330
272EA
100
AcDbEntity
  8
waku
  6
Continuous
370
     9
100
AcDbText
 10
21115.84808180982
 20
505.2064823474538
 30
0.0
 40
38.79272726884801
  1
：
 41
1.000001355027592
  7
ＭＳ ゴシック
100
AcDbText
  0
TEXT
  5
27C11
330
272EA
100
AcDbEntity
  8
waku
  6
Continuous
370
     9
100
AcDbText
 10
21369.53575612907
 20
745.5824843052014
 30
0.0
 40
38.79272726884801
  1
製
 41
1.000001355027592
  7
ＭＳ ゴシック
100
AcDbText
  0
TEXT
  5
27C12
330
272EA
100
AcDbEntity
  8
waku
  6
Continuous
370
     9
100
AcDbText
 10
21369.53575612907
 20
680.127722909725
 30
0.0
 40
38.79272726884801
  1
図
 41
1.000001355027592
  7
ＭＳ ゴシック
100
AcDbText
  0
TEXT
  5
27C13
330
272EA
100
AcDbEntity
  8
waku
  6
Continuous
370
     9
100
AcDbText
 10
20953.71257752605
 20
745.5824843052014
 30
0.0
 40
38.79272726884801
  1
担
 41
1.00000135502762
  7
ＭＳ ゴシック
100
AcDbText
  0
TEXT
  5
27C14
330
272EA
100
AcDbEntity
  8
waku
  6
Continuous
370
     9
100
AcDbText
 10
20953.71257752605
 20
680.127722909725
 30
0.0
 40
38.79272726884801
  1
当
 41
1.00000135502762
  7
ＭＳ ゴシック
100
AcDbText
  0
TEXT
  5
27C15
330
272EA
100
AcDbEntity
  8
waku
  6
Continuous
370
     9
100
AcDbText
 10
20979.68560953671
 20
502.2554840930169
 30
0.0
 40
38.79272726884801
  1
縮尺
 41
1.000001355027592
  7
ＭＳ ゴシック
100
AcDbText
  0
TEXT
  5
27C16
330
272EA
100
AcDbEntity
  8
waku
  6
Continuous
370
     9
100
AcDbText
 10
19375.45360366836
 20
478.6289950222599
 30
0.0
 40
60.613636357575
  1
基礎伏図・基礎断面図
 41
0.999999605274567
  7
ＭＳ ゴシック
100
AcDbText
  0
TEXT
  5
27C17
330
272EA
100
AcDbEntity
  8
waku
  6
Continuous
370
     9
100
AcDbText
 10
21301.89367009228
 20
476.377830950947
 30
0.0
 40
46.5512727226176
  1
30
 41
1.000001355027607
  7
ＭＳ ゴシック
100
AcDbText
  0
TEXT
  5
27C18
330
272EA
100
AcDbEntity
  8
waku
  6
Continuous
370
     9
100
AcDbText
 10
19385.88691948168
 20
684.4425588162684
 30
0.0
 40
60.613636357575
  1
YOTC-315型　N連棟
 41
1.000000737467706
  7
ＭＳ ゴシック
100
AcDbText
  0
LWPOLYLINE
  5
27C19
330
272EA
100
AcDbEntity
  8
Defpoints
370
     9
100
AcDbPolyline
 90
        4
 70
     1
 43
0.0
 10
25235.00283206784
 20
156.6774318157113
 10
25235.00283206784
 20
9065.768340015692
 10
12635.00283332774
 20
9065.768340015692
 10
12635.00283332774
 20
156.6774318157113
  0
LWPOLYLINE
  5
27C1A
330
272EA
100
AcDbEntity
  8
waku
  6
Continuous
370
     9
100
AcDbPolyline
 90
        4
 70
   129
 43
0.0
 10
24913.79001715028
 20
416.9050209634186
 10
12956.21564824547
 20
416.9050209634186
 10
12956.21564824547
 20
8805.540750867981
 10
24913.79001715028
 20
8805.540750867981
  0
TEXT
  5
27C1B
330
272EA
100
AcDbEntity
  8
waku
  6
Continuous
370
     9
100
AcDbText
 10
22933.03500454292
 20
575.3697988563798
 30
0.0
 40
95.454545445
  1
1
 41
1.000000737467706
  7
ＭＳ ゴシック
 72
     4
 11
22964.04561829155
 21
622.6125307390574
 31
0.0
100
AcDbText
  0
LINE
  5
27C1C
330
272EA
100
AcDbEntity
  8
0
370
     9
100
AcDbLine
 10
23263.79001715028
 20
416.9050209634186
 30
0.0
 11
23263.79001715028
 21
836.9050209634186
 31
0.0
  0
LINE
  5
27C1D
330
272EA
100
AcDbEntity
  8
0
370
     9
100
AcDbLine
 10
24913.79001715028
 20
836.9050209634186
 30
0.0
 11
12956.21564824547
 21
836.9050209634186
 31
0.0
  0
LINE
  5
27C1E
330
272EA
100
AcDbEntity
  8
0
370
     9
100
AcDbLine
 10
22603.79001715028
 20
836.9050209634186
 30
0.0
 11
22603.79001715028
 21
416.9050209634186
 31
0.0
  0
LINE
  5
27C1F
330
272EA
100
AcDbEntity
  8
0
370
     9
100
AcDbLine
 10
21763.79001715028
 20
836.9050209634186
 30
0.0
 11
21763.79001715028
 21
416.9050209634186
 31
0.0
  0
LINE
  5
27C20
330
272EA
100
AcDbEntity
  8
0
370
     9
100
AcDbLine
 10
20923.79001715028
 20
836.9050209634186
 30
0.0
 11
20923.79001715028
 21
416.9050209634186
 31
0.0
  0
LINE
  5
27C21
330
272EA
100
AcDbEntity
  8
0
370
     9
100
AcDbLine
 10
19123.79001715028
 20
836.9050209634186
 30
0.0
 11
19123.79001715028
 21
416.9050209634186
 31
0.0
  0
LINE
  5
27C22
330
272EA
100
AcDbEntity
  8
0
370
     9
100
AcDbLine
 10
18523.79001715028
 20
836.9050209634186
 30
0.0
 11
18523.79001715028
 21
416.9050209634186
 31
0.0
  0
LINE
  5
27C23
330
272EA
100
AcDbEntity
  8
0
370
     9
100
AcDbLine
 10
16723.79001715028
 20
836.9050209634186
 30
0.0
 11
16723.79001715028
 21
416.9050209634186
 31
0.0
  0
LINE
  5
27C24
330
272EA
100
AcDbEntity
  8
0
370
     9
100
AcDbLine
 10
14923.79001715028
 20
836.9050209634186
 30
0.0
 11
14923.79001715028
 21
416.9050209634186
 31
0.0
  0
LINE
  5
27C25
330
272EA
100
AcDbEntity
  8
0
370
     9
100
AcDbLine
 10
19123.79001715028
 20
626.9050209634187
 30
0.0
 11
22603.79001715028
 21
626.9050209634187
 31
0.0
  0
TEXT
  5
27C26
330
272EA
100
AcDbEntity
  8
waku
  6
Continuous
370
     9
100
AcDbText
 10
12977.4952908543
 20
778.7348283492392
 30
0.0
 40
38.79272726884801
  1
備　考
 41
0.9999991678363107
  7
ＭＳ ゴシック
100
AcDbText
  0
TEXT
  5
27C27
330
272EA
100
AcDbEntity
  8
waku
  6
Continuous
370
     9
100
AcDbText
 10
14941.65088290907
 20
778.7348283492392
 30
0.0
 40
38.79272726884801
  1
設計監理
 41
0.9999991678363107
  7
ＭＳ ゴシック
100
AcDbText
  0
TEXT
  5
27C28
330
272EA
100
AcDbEntity
  8
waku
  6
Continuous
370
     9
100
AcDbText
 10
16737.33327480825
 20
778.7348283492392
 30
0.0
 40
38.79272726884801
  1
御注文先
 41
0.9999991678363107
  7
ＭＳ ゴシック
100
AcDbText
  0
TEXT
  5
27C29
330
272EA
100
AcDbEntity
  8
waku
  6
Continuous
370
     9
100
AcDbText
 10
18542.05418210599
 20
778.7348283492392
 30
0.0
 40
38.79272726884801
  1
受領印
 41
0.9999991678363107
  7
ＭＳ ゴシック
100
AcDbText
  0
TEXT
  5
27C2A
330
272EA
100
AcDbEntity
  8
waku
  6
Continuous
370
     9
100
AcDbText
 10
19139.98950557143
 20
778.7348283492392
 30
0.0
 40
38.79272726884801
  1
名　称
 41
0.9999991678363107
  7
ＭＳ ゴシック
100
AcDbText
  0
TEXT
  5
27C2B
330
272EA
100
AcDbEntity
  8
waku
  6
Continuous
370
     9
100
AcDbText
 10
16626.30947623867
 20
595.097758054404
 30
0.0
 40
58.18909090327196
  1
殿
 41
1.000001355027602
  7
ＭＳ ゴシック
100
AcDbText
  0
TEXT
  5
27C2C
330
272EA
100
AcDbEntity
  8
waku
  6
Continuous
370
     9
100
AcDbText
 10
18424.97822551626
 20
595.097758054404
 30
0.0
 40
58.18909090327196
  1
殿
 41
1.000001355027602
  7
ＭＳ ゴシック
100
AcDbText
  0
TEXT
  5
27C2D
330
272EA
100
AcDbEntity
  8
waku
  6
Continuous
370
     9
100
AcDbText
 10
19139.98950557143
 20
568.9079315726631
 30
0.0
 40
38.79272726884801
  1
図面名
 41
0.9999991678363107
  7
ＭＳ ゴシック
100
AcDbText
  0
TEXT
  5
27C2E
330
272EA
100
AcDbEntity
  8
waku
  6
Continuous
370
     9
100
AcDbText
 10
21802.9982622065
 20
759.3973481537667
 30
0.0
 40
38.79272726884801
  1
日　付
 41
0.9999991678363107
  7
ＭＳ ゴシック
100
AcDbText
  0
TEXT
  5
27C2F
330
272EA
100
AcDbEntity
  8
waku
  6
Continuous
370
     9
100
AcDbText
 10
21802.9982622065
 20
550.9528060438659
 30
0.0
 40
38.79272726884801
  1
検　図
 41
0.9999991678363107
  7
ＭＳ ゴシック
100
AcDbText
  0
TEXT
  5
27C30
330
272EA
100
AcDbEntity
  8
waku
  6
Continuous
370
     9
100
AcDbText
 10
22640.7696051168
 20
759.3973481537667
 30
0.0
 40
38.79272726884801
  1
図面　No.
 41
0.9999991678363107
  7
ＭＳ ゴシック
100
AcDbText
  0
LINE
  5
27C31
330
272EA
100
AcDbEntity
  8
0
370
     9
100
AcDbLine
 10
21343.79001715029
 20
626.9050209634187
 30
0.0
 11
21343.79001715029
 21
836.9050209634186
 31
0.0
  0
LINE
  5
27C32
330
272EA
100
AcDbEntity
  8
waku
  6
Continuous
370
     9
100
AcDbLine
 10
21029.851138075
 20
626.9050209634187
 30
0.0
 11
21029.85113807523
 21
836.9050209634186
 31
0.0
  0
LINE
  5
27C33
330
272EA
100
AcDbEntity
  8
waku
  6
Continuous
370
     9
100
AcDbLine
 10
21449.851138075
 20
626.9050209634187
 30
0.0
 11
21449.851138075
 21
836.9050209634186
 31
0.0
  0
LINE
  5
27C34
330
272EA
100
AcDbEntity
  8
waku
  6
Continuous
370
     9
100
AcDbLine
 10
21458.06690324971
 20
468.1413820062571
 30
0.0
 11
21561.70277739468
 21
571.7777906213141
 31
0.0
  0
TEXT
  5
27C35
330
272EA
100
AcDbEntity
  8
waku
  6
Continuous
370
     9
100
AcDbText
 10
21458.35551705887
 20
523.4673117845032
 30
0.0
 40
46.5512727226176
  1
1
 41
0.9999838574972839
  7
ＭＳ ゴシック
100
AcDbText
  0
TEXT
  5
27C36
330
272EA
100
AcDbEntity
  8
waku
  6
Continuous
370
     9
100
AcDbText
 10
21535.4688510882
 20
476.377830950947
 30
0.0
 40
46.5512727226176
  1
20
 41
1.000001355027607
  7
ＭＳ ゴシック
100
AcDbText
  0
LINE
  5
27C37
330
272EA
100
AcDbEntity
  8
waku
  6
Continuous
370
     9
100
AcDbLine
 10
21387.32111800363
 20
516.6689528702371
 30
0.0
 11
21394.89351889479
 21
516.6689528702371
 31
0.0
  0
LINE
  5
27C38
330
272EA
100
AcDbEntity
  8
waku
  6
Continuous
370
     9
100
AcDbLine
 10
21394.89351889479
 20
516.6689528702371
 30
0.0
 11
21387.32111800363
 21
516.6689528702371
 31
0.0
  0
CIRCLE
  5
27C39
330
272EA
100
AcDbEntity
  8
waku
  6
Continuous
370
     9
100
AcDbCircle
 10
21391.10546265065
 20
516.6689528702371
 30
0.0
 40
7.57575727722086
  0
TEXT
  5
27C42
330
272EA
100
AcDbEntity
  8
SUNPOU
370
     9
100
AcDbText
 10
22352.72948981301
 20
3169.187849443039
 30
0.0
 40
80.9994375039062
  1
以上
  7
01
100
AcDbText
  0
LINE
  5
27C4B
330
272EA
100
AcDbEntity
  8
HATCH
370
     9
100
AcDbLine
 10
15592.80532874412
 20
2353.044949090221
 30
0.0
 11
15598.60659893334
 21
2363.093043806376
 31
0.0
  0
LINE
  5
27C4E
330
272EA
100
AcDbEntity
  8
HATCH
370
     9
100
AcDbLine
 10
17012.0040585549
 20
2213.093043806401
 30
0.0
 11
17017.80532874411
 21
2223.141138522553
 31
0.0
  0
LINE
  5
27C5C
330
272EA
100
AcDbEntity
  8
U2
370
     9
100
AcDbLine
 10
19130.41255853326
 20
6736.140460528122
 30
0.0
 11
19880.41255853326
 21
6736.140460528122
 31
0.0
  0
LINE
  5
27C5D
330
272EA
100
AcDbEntity
  8
U2
370
     9
100
AcDbLine
 10
19880.41255853326
 20
6736.140460528122
 30
0.0
 11
19880.41255853326
 21
7486.140460528122
 31
0.0
  0
LINE
  5
27C5E
330
272EA
100
AcDbEntity
  8
U2
370
     9
100
AcDbLine
 10
19880.41255853326
 20
7486.140460528122
 30
0.0
 11
19130.41255853326
 21
7486.140460528122
 31
0.0
  0
LINE
  5
27C5F
330
272EA
100
AcDbEntity
  8
U2
370
     9
100
AcDbLine
 10
19130.41255853326
 20
7486.140460528122
 30
0.0
 11
19130.41255853326
 21
6736.140460528122
 31
0.0
  0
LINE
  5
27C60
330
272EA
100
AcDbEntity
  8
U2
370
     9
100
AcDbLine
 10
17430.41255853326
 20
6736.140460528126
 30
0.0
 11
18180.41255853326
 21
6736.140460528126
 31
0.0
  0
LINE
  5
27C61
330
272EA
100
AcDbEntity
  8
U2
370
     9
100
AcDbLine
 10
18180.41255853326
 20
6736.140460528126
 30
0.0
 11
18180.41255853326
 21
7486.140460528126
 31
0.0
  0
LINE
  5
27C62
330
272EA
100
AcDbEntity
  8
U2
370
     9
100
AcDbLine
 10
18180.41255853326
 20
7486.140460528126
 30
0.0
 11
17430.41255853326
 21
7486.140460528126
 31
0.0
  0
LINE
  5
27C63
330
272EA
100
AcDbEntity
  8
U2
370
     9
100
AcDbLine
 10
17430.41255853326
 20
7486.140460528128
 30
0.0
 11
17430.41255853326
 21
6736.140460528126
 31
0.0
  0
LINE
  5
27C64
330
272EA
100
AcDbEntity
  8
U2
370
     9
100
AcDbLine
 10
14280.41255853328
 20
6736.140460528126
 30
0.0
 11
15030.41255853327
 21
6736.140460528126
 31
0.0
  0
LINE
  5
27C65
330
272EA
100
AcDbEntity
  8
U2
370
     9
100
AcDbLine
 10
15030.41255853327
 20
6736.140460528126
 30
0.0
 11
15030.41255853327
 21
7486.140460528126
 31
0.0
  0
LINE
  5
27C66
330
272EA
100
AcDbEntity
  8
U2
370
     9
100
AcDbLine
 10
15030.41255853327
 20
7486.140460528126
 30
0.0
 11
14280.41255853328
 21
7486.140460528126
 31
0.0
  0
LINE
  5
27C67
330
272EA
100
AcDbEntity
  8
U2
370
     9
100
AcDbLine
 10
14280.41255853328
 20
7486.140460528128
 30
0.0
 11
14280.41255853328
 21
6736.140460528126
 31
0.0
  0
ENDSEC
  0
SECTION
  2
OBJECTS
  0
DICTIONARY
  5
2728B
330
0
100
AcDbDictionary
281
     1
  3
ACAD_COLOR
350
272E1
  3
ACAD_GROUP
350
2728C
  3
ACAD_LAYOUT
350
272E0
  3
ACAD_MATERIAL
350
2728F
  3
ACAD_MLEADERSTYLE
350
272E4
  3
ACAD_MLINESTYLE
350
272DD
  3
ACAD_PLOTSETTINGS
350
272DF
  3
ACAD_PLOTSTYLENAME
350
2728D
  3
ACAD_SCALELIST
350
272C1
  3
ACAD_TABLESTYLE
350
272E2
  3
ACAD_VISUALSTYLE
350
272A8
  3
ACDB_RECOMPOSE_DATA
350
27D23
  3
AcDbVariableDictionary
350
27C9B
  0
DICTIONARY
  5
27323
330
27281
100
AcDbDictionary
280
     1
281
     1
  3
ACAD_LAYERSTATES
360
27324
  0
DICTIONARY
  5
27C70
330
272D3
100
AcDbDictionary
280
     1
281
     1
  3
ADSK_XREC_LAYER_RECONCILED
360
27C71
  0
DICTIONARY
  5
27C72
330
272EE
100
AcDbDictionary
280
     1
281
     1
  3
ADSK_XREC_LAYER_RECONCILED
360
27C73
  0
DICTIONARY
  5
27C74
330
272F4
100
AcDbDictionary
280
     1
281
     1
  3
ADSK_XREC_LAYER_RECONCILED
360
27C75
  0
DICTIONARY
  5
27C76
330
272F5
100
AcDbDictionary
280
     1
281
     1
  3
ADSK_XREC_LAYER_RECONCILED
360
27C77
  0
DICTIONARY
  5
27C78
330
272F6
100
AcDbDictionary
280
     1
281
     1
  3
ADSK_XREC_LAYER_RECONCILED
360
27C79
  0
DICTIONARY
  5
27C7A
330
272F7
100
AcDbDictionary
280
     1
281
     1
  3
ADSK_XREC_LAYER_RECONCILED
360
27C7B
  0
DICTIONARY
  5
27C7C
330
272F8
100
AcDbDictionary
280
     1
281
     1
  3
ADSK_XREC_LAYER_RECONCILED
360
27C7D
  0
DICTIONARY
  5
27C7E
330
272F9
100
AcDbDictionary
280
     1
281
     1
  3
ADSK_XREC_LAYER_RECONCILED
360
27C7F
  0
DICTIONARY
  5
27C80
330
272FA
100
AcDbDictionary
280
     1
281
     1
  3
ADSK_XREC_LAYER_RECONCILED
360
27C81
  0
DICTIONARY
  5
27C82
330
272FB
100
AcDbDictionary
280
     1
281
     1
  3
ADSK_XREC_LAYER_RECONCILED
360
27C83
  0
DICTIONARY
  5
27C84
330
272FC
100
AcDbDictionary
280
     1
281
     1
  3
ADSK_XREC_LAYER_RECONCILED
360
27C85
  0
DICTIONARY
  5
27C86
330
272FD
100
AcDbDictionary
280
     1
281
     1
  3
ADSK_XREC_LAYER_RECONCILED
360
27C87
  0
DICTIONARY
  5
27C88
330
272FE
100
AcDbDictionary
280
     1
281
     1
  3
ADSK_XREC_LAYER_RECONCILED
360
27C89
  0
DICTIONARY
  5
27C8A
330
272FF
100
AcDbDictionary
280
     1
281
     1
  3
ADSK_XREC_LAYER_RECONCILED
360
27C8B
  0
DICTIONARY
  5
27C8C
330
27300
100
AcDbDictionary
280
     1
281
     1
  3
ADSK_XREC_LAYER_RECONCILED
360
27C8D
  0
DICTIONARY
  5
27C8E
330
27301
100
AcDbDictionary
280
     1
281
     1
  3
ADSK_XREC_LAYER_RECONCILED
360
27C8F
  0
DICTIONARY
  5
27C90
330
27302
100
AcDbDictionary
280
     1
281
     1
  3
ADSK_XREC_LAYER_RECONCILED
360
27C91
  0
DICTIONARY
  5
2731F
330
2731E
100
AcDbDictionary
280
     1
281
     1
  3
ADSK_XREC_LAYER_RECONCILED
360
27C92
  0
DICTIONARY
  5
272E1
102
{ACAD_REACTORS
330
2728B
102
}
330
2728B
100
AcDbDictionary
281
     1
  0
DICTIONARY
  5
2728C
102
{ACAD_REACTORS
330
2728B
102
}
330
2728B
100
AcDbDictionary
281
     1
  0
DICTIONARY
  5
272E0
102
{ACAD_REACTORS
330
2728B
102
}
330
2728B
100
AcDbDictionary
281
     1
  3
Model
350
272ED
  3
レイアウト1
350
272E9
  0
DICTIONARY
  5
2728F
102
{ACAD_REACTORS
330
2728B
102
}
330
2728B
100
AcDbDictionary
281
     1
  3
ByBlock
350
27298
  3
ByLayer
350
27290
  3
Global
350
272A0
  0
DICTIONARY
  5
272E4
102
{ACAD_REACTORS
330
2728B
102
}
330
2728B
100
AcDbDictionary
281
     1
  3
Standard
350
272E5
  0
DICTIONARY
  5
272DD
102
{ACAD_REACTORS
330
2728B
102
}
330
2728B
100
AcDbDictionary
281
     1
  3
Standard
350
272DE
  0
DICTIONARY
  5
272DF
102
{ACAD_REACTORS
330
2728B
102
}
330
2728B
100
AcDbDictionary
281
     1
  0
ACDBDICTIONARYWDFLT
  5
2728D
102
{ACAD_REACTORS
330
2728B
102
}
330
2728B
100
AcDbDictionary
281
     1
  3
Normal
350
2728E
100
AcDbDictionaryWithDefault
340
2728E
  0
DICTIONARY
  5
272C1
102
{ACAD_REACTORS
330
2728B
102
}
330
2728B
100
AcDbDictionary
281
     1
  3
A0
350
272C2
  3
A1
350
272C3
  3
A2
350
272C4
  3
A3
350
272C5
  3
A4
350
272C6
  3
A5
350
272C7
  3
A6
350
272C8
  3
A7
350
272C9
  3
A8
350
272CA
  3
A9
350
272CB
  3
B0
350
272CC
  3
B1
350
272CD
  3
B2
350
272CE
  3
B3
350
272CF
  3
B4
350
272D0
  3
B5
350
272D1
  3
B6
350
272D2
  0
DICTIONARY
  5
272E2
102
{ACAD_REACTORS
330
2728B
102
}
330
2728B
100
AcDbDictionary
281
     1
  3
Standard
350
272E3
  0
DICTIONARY
  5
272A8
102
{ACAD_REACTORS
330
2728B
102
}
330
2728B
100
AcDbDictionary
281
     1
  3
2dWireframe
350
272AE
  3
Basic
350
272AD
  3
Brighten
350
272B4
  3
ColorChange
350
272B8
  3
Conceptual
350
272B1
  3
Dim
350
272B3
  3
EdgeColorOff
350
272C0
  3
Facepattern
350
272B7
  3
Flat
350
272A9
  3
FlatWithEdges
350
272AA
  3
Gouraud
350
272AB
  3
GouraudWithEdges
350
272AC
  3
Hidden
350
272B0
  3
JitterOff
350
272BE
  3
Linepattern
350
272B6
  3
OverhangOff
350
272BF
  3
Realistic
350
272B2
  3
Shaded
350
272BD
  3
Shaded with edges
350
272BC
  3
Shades of Gray
350
272B9
  3
Sketchy
350
272BA
  3
Thicken
350
272B5
  3
Wireframe
350
272AF
  3
X-Ray
350
272BB
  0
XRECORD
  5
27D23
102
{ACAD_REACTORS
330
2728B
102
}
330
2728B
100
AcDbXrecord
280
     1
 90
        1
330
272E3
  0
DICTIONARY
  5
27C9B
102
{ACAD_REACTORS
330
2728B
102
}
330
2728B
100
AcDbDictionary
281
     1
  3
CANNOSCALE
350
27C9E
  3
CMLEADERSTYLE
350
27C9D
  3
CTABLESTYLE
350
27C9C
  3
XCLIPFRAME
350
27CE6
  0
DICTIONARY
  5
27324
102
{ACAD_REACTORS
330
27323
102
}
330
27323
100
AcDbDictionary
281
     1
  0
XRECORD
  5
27C71
102
{ACAD_REACTORS
330
27C70
102
}
330
27C70
100
AcDbXrecord
280
     1
290
     1
  0
XRECORD
  5
27C73
102
{ACAD_REACTORS
330
27C72
102
}
330
27C72
100
AcDbXrecord
280
     1
290
     1
  0
XRECORD
  5
27C75
102
{ACAD_REACTORS
330
27C74
102
}
330
27C74
100
AcDbXrecord
280
     1
290
     1
  0
XRECORD
  5
27C77
102
{ACAD_REACTORS
330
27C76
102
}
330
27C76
100
AcDbXrecord
280
     1
290
     1
  0
XRECORD
  5
27C79
102
{ACAD_REACTORS
330
27C78
102
}
330
27C78
100
AcDbXrecord
280
     1
290
     1
  0
XRECORD
  5
27C7B
102
{ACAD_REACTORS
330
27C7A
102
}
330
27C7A
100
AcDbXrecord
280
     1
290
     1
  0
XRECORD
  5
27C7D
102
{ACAD_REACTORS
330
27C7C
102
}
330
27C7C
100
AcDbXrecord
280
     1
290
     1
  0
XRECORD
  5
27C7F
102
{ACAD_REACTORS
330
27C7E
102
}
330
27C7E
100
AcDbXrecord
280
     1
290
     1
  0
XRECORD
  5
27C81
102
{ACAD_REACTORS
330
27C80
102
}
330
27C80
100
AcDbXrecord
280
     1
290
     1
  0
XRECORD
  5
27C83
102
{ACAD_REACTORS
330
27C82
102
}
330
27C82
100
AcDbXrecord
280
     1
290
     1
  0
XRECORD
  5
27C85
102
{ACAD_REACTORS
330
27C84
102
}
330
27C84
100
AcDbXrecord
280
     1
290
     1
  0
XRECORD
  5
27C87
102
{ACAD_REACTORS
330
27C86
102
}
330
27C86
100
AcDbXrecord
280
     1
290
     1
  0
XRECORD
  5
27C89
102
{ACAD_REACTORS
330
27C88
102
}
330
27C88
100
AcDbXrecord
280
     1
290
     1
  0
XRECORD
  5
27C8B
102
{ACAD_REACTORS
330
27C8A
102
}
330
27C8A
100
AcDbXrecord
280
     1
290
     1
  0
XRECORD
  5
27C8D
102
{ACAD_REACTORS
330
27C8C
102
}
330
27C8C
100
AcDbXrecord
280
     1
290
     1
  0
XRECORD
  5
27C8F
102
{ACAD_REACTORS
330
27C8E
102
}
330
27C8E
100
AcDbXrecord
280
     1
290
     1
  0
XRECORD
  5
27C91
102
{ACAD_REACTORS
330
27C90
102
}
330
27C90
100
AcDbXrecord
280
     1
290
     1
  0
XRECORD
  5
27C92
102
{ACAD_REACTORS
330
2731F
102
}
330
2731F
100
AcDbXrecord
280
     1
290
     1
  0
LAYOUT
  5
272ED
102
{ACAD_REACTORS
330
272E0
102
}
330
272E0
100
AcDbPlotSettings
  1

  2
SHARP MX-2300FG
  4
A3
  6

 40
5.027082920074462
 41
5.027099609375
 42
5.027099609375
 43
5.027069091796875
 44
296.9259948730469
 45
419.8619995117186
 46
-5.048942298200926
 47
-5.096084573728147
 48
12635.00283332774
 49
156.6774318157113
140
25235.00283206784
141
9065.768340015692
142
1.0
143
30.0
 70
 11940
 72
     1
 73
     1
 74
     4
  7
monochrome.ctb
 75
     0
147
0.0321998973070933
 76
     0
 77
     2
 78
   300
148
-12635.00283332774
149
-156.6774318157113
100
AcDbLayout
  1
Model
 70
     1
 71
     0
 10
0.0
 20
0.0
 11
12.0
 21
9.0
 12
0.0
 22
0.0
 32
0.0
 14
0.0
 24
0.0
 34
0.0
 15
0.0
 25
0.0
 35
0.0
146
0.0
 13
0.0
 23
0.0
 33
0.0
 16
1.0
 26
0.0
 36
0.0
 17
0.0
 27
1.0
 37
0.0
 76
     0
330
272EA
331
272F0
1001
ACAD_PSEXT
1000
SHARP MX-2300FG
1000
SHARP MX-2300FG
1000
S2_IP_192.168.11.200
1000

1070
     0
  0
LAYOUT
  5
272E9
102
{ACAD_REACTORS
330
272E0
102
}
330
272E0
100
AcDbPlotSettings
  1

  2
SHARP MX-2300FG
  4

  6

 40
0.0
 41
0.0
 42
0.0
 43
0.0
 44
0.0
 45
0.0
 46
0.0
 47
0.0
 48
0.0
 49
0.0
140
0.0
141
0.0
142
1.0
143
1.0
 70
   688
 72
     0
 73
     0
 74
     5
  7

 75
    16
147
1.0
 76
     0
 77
     2
 78
   300
148
0.0
149
0.0
100
AcDbLayout
  1
レイアウト1
 70
     0
 71
     1
 10
0.0
 20
0.0
 11
12.0
 21
9.0
 12
0.0
 22
0.0
 32
0.0
 14
1.000000000000000E+20
 24
1.000000000000000E+20
 34
1.000000000000000E+20
 15
-1.000000000000000E+20
 25
-1.000000000000000E+20
 35
-1.000000000000000E+20
146
0.0
 13
0.0
 23
0.0
 33
0.0
 16
1.0
 26
0.0
 36
0.0
 17
0.0
 27
1.0
 37
0.0
 76
     0
330
272E6
  0
MATERIAL
  5
27298
102
{ACAD_XDICTIONARY
360
27299
102
}
102
{ACAD_REACTORS
330
2728F
102
}
330
2728F
100
AcDbMaterial
  1
ByBlock
 72
     0
 43
0.0208333333333333
 43
0.0
 43
0.0
 43
0.0
 43
0.0
 43
0.0208333333333333
 43
0.0
 43
0.0
 43
0.0
 43
0.0
 43
1.0
 43
0.0
 43
0.0
 43
0.0
 43
0.0
 43
1.0
 77
     0
 47
0.0208333333333333
 47
0.0
 47
0.0
 47
0.0
 47
0.0
 47
0.0208333333333333
 47
0.0
 47
0.0
 47
0.0
 47
0.0
 47
1.0
 47
0.0
 47
0.0
 47
0.0
 47
0.0
 47
1.0
171
     0
 49
0.0208333333333333
 49
0.0
 49
0.0
 49
0.0
 49
0.0
 49
0.0208333333333333
 49
0.0
 49
0.0
 49
0.0
 49
0.0
 49
1.0
 49
0.0
 49
0.0
 49
0.0
 49
0.0
 49
1.0
175
     0
142
0.0208333333333333
142
0.0
142
0.0
142
0.0
142
0.0
142
0.0208333333333333
142
0.0
142
0.0
142
0.0
142
0.0
142
1.0
142
0.0
142
0.0
142
0.0
142
0.0
142
1.0
179
     0
144
0.0208333333333333
144
0.0
144
0.0
144
0.0
144
0.0
144
0.0208333333333333
144
0.0
144
0.0
144
0.0
144
0.0
144
1.0
144
0.0
144
0.0
144
0.0
144
0.0
144
1.0
147
0.0208333333333333
147
0.0
147
0.0
147
0.0
147
0.0
147
0.0208333333333333
147
0.0
147
0.0
147
0.0
147
0.0
147
1.0
147
0.0
147
0.0
147
0.0
147
0.0
147
1.0
  0
MATERIAL
  5
27290
102
{ACAD_XDICTIONARY
360
27291
102
}
102
{ACAD_REACTORS
330
2728F
102
}
330
2728F
100
AcDbMaterial
  1
ByLayer
 72
     0
 43
0.0208333333333333
 43
0.0
 43
0.0
 43
0.0
 43
0.0
 43
0.0208333333333333
 43
0.0
 43
0.0
 43
0.0
 43
0.0
 43
1.0
 43
0.0
 43
0.0
 43
0.0
 43
0.0
 43
1.0
 77
     0
 47
0.0208333333333333
 47
0.0
 47
0.0
 47
0.0
 47
0.0
 47
0.0208333333333333
 47
0.0
 47
0.0
 47
0.0
 47
0.0
 47
1.0
 47
0.0
 47
0.0
 47
0.0
 47
0.0
 47
1.0
171
     0
 49
0.0208333333333333
 49
0.0
 49
0.0
 49
0.0
 49
0.0
 49
0.0208333333333333
 49
0.0
 49
0.0
 49
0.0
 49
0.0
 49
1.0
 49
0.0
 49
0.0
 49
0.0
 49
0.0
 49
1.0
175
     0
142
0.0208333333333333
142
0.0
142
0.0
142
0.0
142
0.0
142
0.0208333333333333
142
0.0
142
0.0
142
0.0
142
0.0
142
1.0
142
0.0
142
0.0
142
0.0
142
0.0
142
1.0
179
     0
144
0.0208333333333333
144
0.0
144
0.0
144
0.0
144
0.0
144
0.0208333333333333
144
0.0
144
0.0
144
0.0
144
0.0
144
1.0
144
0.0
144
0.0
144
0.0
144
0.0
144
1.0
147
0.0208333333333333
147
0.0
147
0.0
147
0.0
147
0.0
147
0.0208333333333333
147
0.0
147
0.0
147
0.0
147
0.0
147
1.0
147
0.0
147
0.0
147
0.0
147
0.0
147
1.0
  0
MATERIAL
  5
272A0
102
{ACAD_XDICTIONARY
360
272A1
102
}
102
{ACAD_REACTORS
330
2728F
102
}
330
2728F
100
AcDbMaterial
  1
Global
 72
     0
 43
0.0208333333333333
 43
0.0
 43
0.0
 43
0.0
 43
0.0
 43
0.0208333333333333
 43
0.0
 43
0.0
 43
0.0
 43
0.0
 43
1.0
 43
0.0
 43
0.0
 43
0.0
 43
0.0
 43
1.0
 77
     0
 47
0.0208333333333333
 47
0.0
 47
0.0
 47
0.0
 47
0.0
 47
0.0208333333333333
 47
0.0
 47
0.0
 47
0.0
 47
0.0
 47
1.0
 47
0.0
 47
0.0
 47
0.0
 47
0.0
 47
1.0
171
     0
 49
0.0208333333333333
 49
0.0
 49
0.0
 49
0.0
 49
0.0
 49
0.0208333333333333
 49
0.0
 49
0.0
 49
0.0
 49
0.0
 49
1.0
 49
0.0
 49
0.0
 49
0.0
 49
0.0
 49
1.0
175
     0
142
0.0208333333333333
142
0.0
142
0.0
142
0.0
142
0.0
142
0.0208333333333333
142
0.0
142
0.0
142
0.0
142
0.0
142
1.0
142
0.0
142
0.0
142
0.0
142
0.0
142
1.0
179
     0
144
0.0208333333333333
144
0.0
144
0.0
144
0.0
144
0.0
144
0.0208333333333333
144
0.0
144
0.0
144
0.0
144
0.0
144
1.0
144
0.0
144
0.0
144
0.0
144
0.0
144
1.0
147
0.0208333333333333
147
0.0
147
0.0
147
0.0
147
0.0
147
0.0208333333333333
147
0.0
147
0.0
147
0.0
147
0.0
147
1.0
147
0.0
147
0.0
147
0.0
147
0.0
147
1.0
  0
MLEADERSTYLE
  5
272E5
102
{ACAD_REACTORS
330
272E4
102
}
330
272E4
100
AcDbMLeaderStyle
170
     2
171
     1
172
     0
 90
        2
 40
0.0
 41
0.0
173
     1
 91
-1056964608
340
272D9
 92
       -2
290
     1
 42
0.09
291
     1
 43
0.36
  3
Standard
 44
0.18
300

342
272D4
174
     1
178
     6
175
     1
176
     0
 93
-1056964608
 45
0.18
292
     0
297
     0
 46
0.18
 94
-1056964608
 47
1.0
 49
1.0
140
1.0
293
     1
141
0.0
294
     1
177
     0
142
1.0
295
     0
296
     0
143
0.125
1001
ACAD_MLEADERVER
1070
     2
  0
MLINESTYLE
  5
272DE
102
{ACAD_REACTORS
330
272DD
102
}
330
272DD
100
AcDbMlineStyle
  2
STANDARD
 70
     0
  3

 62
   256
 51
90.0
 52
90.0
 71
     2
 49
0.5
 62
   256
  6
BYLAYER
 49
-0.5
 62
   256
  6
BYLAYER
  0
ACDBPLACEHOLDER
  5
2728E
102
{ACAD_REACTORS
330
2728D
102
}
330
2728D
  0
SCALE
  5
272C2
102
{ACAD_REACTORS
330
272C1
102
}
330
272C1
100
AcDbScale
 70
     0
300
1:1
140
1.0
141
1.0
290
     1
  0
SCALE
  5
272C3
102
{ACAD_REACTORS
330
272C1
102
}
330
272C1
100
AcDbScale
 70
     0
300
1/128" = 1'-0"
140
0.0078125
141
12.0
290
     0
  0
SCALE
  5
272C4
102
{ACAD_REACTORS
330
272C1
102
}
330
272C1
100
AcDbScale
 70
     0
300
1/64" = 1'-0"
140
0.015625
141
12.0
290
     0
  0
SCALE
  5
272C5
102
{ACAD_REACTORS
330
272C1
102
}
330
272C1
100
AcDbScale
 70
     0
300
1/32" = 1'-0"
140
0.03125
141
12.0
290
     0
  0
SCALE
  5
272C6
102
{ACAD_REACTORS
330
272C1
102
}
330
272C1
100
AcDbScale
 70
     0
300
1/16" = 1'-0"
140
0.0625
141
12.0
290
     0
  0
SCALE
  5
272C7
102
{ACAD_REACTORS
330
272C1
102
}
330
272C1
100
AcDbScale
 70
     0
300
3/32" = 1'-0"
140
0.09375
141
12.0
290
     0
  0
SCALE
  5
272C8
102
{ACAD_REACTORS
330
272C1
102
}
330
272C1
100
AcDbScale
 70
     0
300
1/8" = 1'-0"
140
0.125
141
12.0
290
     0
  0
SCALE
  5
272C9
102
{ACAD_REACTORS
330
272C1
102
}
330
272C1
100
AcDbScale
 70
     0
300
3/16" = 1'-0"
140
0.1875
141
12.0
290
     0
  0
SCALE
  5
272CA
102
{ACAD_REACTORS
330
272C1
102
}
330
272C1
100
AcDbScale
 70
     0
300
1/4" = 1'-0"
140
0.25
141
12.0
290
     0
  0
SCALE
  5
272CB
102
{ACAD_REACTORS
330
272C1
102
}
330
272C1
100
AcDbScale
 70
     0
300
3/8" = 1'-0"
140
0.375
141
12.0
290
     0
  0
SCALE
  5
272CC
102
{ACAD_REACTORS
330
272C1
102
}
330
272C1
100
AcDbScale
 70
     0
300
1/2" = 1'-0"
140
0.5
141
12.0
290
     0
  0
SCALE
  5
272CD
102
{ACAD_REACTORS
330
272C1
102
}
330
272C1
100
AcDbScale
 70
     0
300
3/4" = 1'-0"
140
0.75
141
12.0
290
     0
  0
SCALE
  5
272CE
102
{ACAD_REACTORS
330
272C1
102
}
330
272C1
100
AcDbScale
 70
     0
300
1" = 1'-0"
140
1.0
141
12.0
290
     0
  0
SCALE
  5
272CF
102
{ACAD_REACTORS
330
272C1
102
}
330
272C1
100
AcDbScale
 70
     0
300
1-1/2" = 1'-0"
140
1.5
141
12.0
290
     0
  0
SCALE
  5
272D0
102
{ACAD_REACTORS
330
272C1
102
}
330
272C1
100
AcDbScale
 70
     0
300
3" = 1'-0"
140
3.0
141
12.0
290
     0
  0
SCALE
  5
272D1
102
{ACAD_REACTORS
330
272C1
102
}
330
272C1
100
AcDbScale
 70
     0
300
6" = 1'-0"
140
6.0
141
12.0
290
     0
  0
SCALE
  5
272D2
102
{ACAD_REACTORS
330
272C1
102
}
330
272C1
100
AcDbScale
 70
     0
300
1'-0" = 1'-0"
140
12.0
141
12.0
290
     0
  0
TABLESTYLE
  5
272E3
102
{ACAD_XDICTIONARY
360
27CA0
102
}
102
{ACAD_REACTORS
330
272E2
102
}
330
272E2
100
AcDbTableStyle
  3
Standard
 70
     0
 71
     0
 40
0.06
 41
0.06
280
     0
281
     0
  7
STANDARD
140
0.18
170
     2
 62
     0
 63
     7
283
     0
274
    -2
284
     1
 64
     0
275
    -2
285
     1
 65
     0
276
    -2
286
     1
 66
     0
277
    -2
287
     1
 67
     0
278
    -2
288
     1
 68
     0
279
    -2
289
     1
 69
     0
  7
STANDARD
140
0.25
170
     5
 62
     0
 63
     7
283
     0
274
    -2
284
     1
 64
     0
275
    -2
285
     1
 65
     0
276
    -2
286
     1
 66
     0
277
    -2
287
     1
 67
     0
278
    -2
288
     1
 68
     0
279
    -2
289
     1
 69
     0
  7
STANDARD
140
0.18
170
     5
 62
     0
 63
     7
283
     0
274
    -2
284
     1
 64
     0
275
    -2
285
     1
 65
     0
276
    -2
286
     1
 66
     0
277
    -2
287
     1
 67
     0
278
    -2
288
     1
 68
     0
279
    -2
289
     1
 69
     0
  0
VISUALSTYLE
  5
272AE
102
{ACAD_XDICTIONARY
360
27D2E
102
}
102
{ACAD_REACTORS
330
272A8
102
}
330
272A8
100
AcDbVisualStyle
  2

 70
     4
 71
     0
 72
     2
 73
     0
 90
        0
 40
-0.6
 41
-30.0
 62
     5
 63
     7
421
 16777215
 74
     1
 91
        4
 64
     7
 65
   257
 75
     1
175
     1
 42
1.0
 92
        0
 66
   257
 43
1.0
 76
     1
 77
     6
 78
     2
 67
     7
 79
     5
170
     0
171
     0
290
     0
174
     0
 93
        1
 44
0.0
173
     0
291
     0
 45
0.0
1001
ACAD
1000
AcDbSavedByObjectVersion
1070
     0
  0
VISUALSTYLE
  5
272AD
102
{ACAD_XDICTIONARY
360
27D2C
102
}
102
{ACAD_REACTORS
330
272A8
102
}
330
272A8
100
AcDbVisualStyle
  2

 70
     7
 71
     1
 72
     0
 73
     1
 90
        0
 40
-0.6
 41
-30.0
 62
     5
 63
     7
421
 16777215
 74
     0
 91
        4
 64
     7
 65
   257
 75
     1
175
     1
 42
1.0
 92
        8
 66
     7
 43
1.0
 76
     1
 77
     6
 78
     2
 67
     7
 79
     5
170
     0
171
     0
290
     0
174
     0
 93
        1
 44
0.0
173
     0
291
     1
 45
0.0
1001
ACAD
1000
AcDbSavedByObjectVersion
1070
     0
  0
VISUALSTYLE
  5
272B4
102
{ACAD_XDICTIONARY
360
27D3A
102
}
102
{ACAD_REACTORS
330
272A8
102
}
330
272A8
100
AcDbVisualStyle
  2

 70
    12
 71
     2
 72
     2
 73
     0
 90
        0
 40
-0.6
 41
-30.0
 62
     5
 63
     7
421
 16777215
 74
     1
 91
        4
 64
     7
 65
   257
 75
     1
175
     1
 42
1.0
 92
        8
 66
     7
 43
1.0
 76
     1
 77
     6
 78
     2
 67
     7
 79
     5
170
     0
171
     0
290
     0
174
     0
 93
        1
 44
50.0
173
     0
291
     1
 45
0.0
1001
ACAD
1000
AcDbSavedByObjectVersion
1070
     0
  0
VISUALSTYLE
  5
272B8
102
{ACAD_XDICTIONARY
360
27D42
102
}
102
{ACAD_REACTORS
330
272A8
102
}
330
272A8
100
AcDbVisualStyle
  2

 70
    16
 71
     2
 72
     2
 73
     3
 90
        0
 40
-0.6
 41
-30.0
 62
     5
 63
     8
421
  8421504
 74
     1
 91
        4
 64
     7
 65
   257
 75
     1
175
     1
 42
1.0
 92
        8
 66
     8
424
  8421504
 43
1.0
 76
     1
 77
     6
 78
     2
 67
     7
 79
     5
170
     0
171
     0
290
     0
174
     0
 93
        1
 44
0.0
173
     0
291
     1
 45
0.0
1001
ACAD
1000
AcDbSavedByObjectVersion
1070
     0
  0
VISUALSTYLE
  5
272B1
102
{ACAD_XDICTIONARY
360
27D34
102
}
102
{ACAD_REACTORS
330
272A8
102
}
330
272A8
100
AcDbVisualStyle
  2

 70
     9
 71
     3
 72
     2
 73
     0
 90
        0
 40
-0.6
 41
-30.0
 62
     5
 63
     7
421
 16777215
 74
     2
 91
        2
 64
     7
 65
   257
 75
     1
175
     1
 42
179.0
 92
        8
 66
     7
 43
1.0
 76
     1
 77
     6
 78
     2
 67
     7
 79
     3
170
     0
171
     0
290
     0
174
     0
 93
        1
 44
0.0
173
     0
291
     0
 45
0.0
1001
ACAD
1000
AcDbSavedByObjectVersion
1070
     0
  0
VISUALSTYLE
  5
272B3
102
{ACAD_XDICTIONARY
360
27D38
102
}
102
{ACAD_REACTORS
330
272A8
102
}
330
272A8
100
AcDbVisualStyle
  2

 70
    11
 71
     2
 72
     2
 73
     0
 90
        0
 40
-0.6
 41
-30.0
 62
     5
 63
     7
421
 16777215
 74
     1
 91
        4
 64
     7
 65
   257
 75
     1
175
     1
 42
1.0
 92
        8
 66
     7
 43
1.0
 76
     1
 77
     6
 78
     2
 67
     7
 79
     5
170
     0
171
     0
290
     0
174
     0
 93
        1
 44
-50.0
173
     0
291
     1
 45
0.0
1001
ACAD
1000
AcDbSavedByObjectVersion
1070
     0
  0
VISUALSTYLE
  5
272C0
102
{ACAD_XDICTIONARY
360
27D52
102
}
102
{ACAD_REACTORS
330
272A8
102
}
330
272A8
100
AcDbVisualStyle
  2

 70
    22
 71
     2
 72
     2
 73
     0
 90
        0
 40
-0.6
 41
-30.0
 62
     5
 63
     7
421
 16777215
 74
     1
 91
        4
 64
     7
 65
   257
 75
     1
175
     1
 42
1.0
 92
        8
 66
     7
 43
1.0
 76
     1
 77
     6
 78
     2
 67
     7
 79
     5
170
     0
171
     0
290
     0
174
     0
 93
        1
 44
0.0
173
     0
291
     1
 45
0.0
1001
ACAD
1000
AcDbSavedByObjectVersion
1070
     0
  0
VISUALSTYLE
  5
272B7
102
{ACAD_XDICTIONARY
360
27D40
102
}
102
{ACAD_REACTORS
330
272A8
102
}
330
272A8
100
AcDbVisualStyle
  2

 70
    15
 71
     2
 72
     2
 73
     0
 90
        0
 40
-0.6
 41
-30.0
 62
     5
 63
     7
421
 16777215
 74
     1
 91
        4
 64
     7
 65
   257
 75
     1
175
     1
 42
1.0
 92
        8
 66
     7
 43
1.0
 76
     1
 77
     6
 78
     2
 67
     7
 79
     5
170
     0
171
     0
290
     0
174
     0
 93
        1
 44
0.0
173
     0
291
     1
 45
0.0
1001
ACAD
1000
AcDbSavedByObjectVersion
1070
     0
  0
VISUALSTYLE
  5
272A9
102
{ACAD_XDICTIONARY
360
27D24
102
}
102
{ACAD_REACTORS
330
272A8
102
}
330
272A8
100
AcDbVisualStyle
  2

 70
     0
 71
     2
 72
     1
 73
     1
 90
        2
 40
-0.6
 41
30.0
 62
     5
 63
     7
421
 16777215
 74
     0
 91
        0
 64
     7
 65
   257
 75
     1
175
     1
 42
1.0
 92
        8
 66
     7
 43
1.0
 76
     1
 77
     6
 78
     2
 67
     7
 79
     5
170
     0
171
     0
290
     0
174
     0
 93
       13
 44
0.0
173
     0
291
     1
 45
0.0
1001
ACAD
1000
AcDbSavedByObjectVersion
1070
     0
  0
VISUALSTYLE
  5
272AA
102
{ACAD_XDICTIONARY
360
27D26
102
}
102
{ACAD_REACTORS
330
272A8
102
}
330
272A8
100
AcDbVisualStyle
  2

 70
     1
 71
     2
 72
     1
 73
     1
 90
        2
 40
-0.6
 41
30.0
 62
     5
 63
     7
421
 16777215
 74
     1
 91
        0
 64
     7
 65
   257
 75
     1
175
     1
 42
1.0
 92
        0
 66
   257
 43
1.0
 76
     1
 77
     6
 78
     2
 67
     7
 79
     5
170
     0
171
     0
290
     0
174
     0
 93
       13
 44
0.0
173
     0
291
     1
 45
0.0
1001
ACAD
1000
AcDbSavedByObjectVersion
1070
     0
  0
VISUALSTYLE
  5
272AB
102
{ACAD_XDICTIONARY
360
27D28
102
}
102
{ACAD_REACTORS
330
272A8
102
}
330
272A8
100
AcDbVisualStyle
  2

 70
     2
 71
     2
 72
     2
 73
     1
 90
        2
 40
-0.6
 41
30.0
 62
     5
 63
     7
421
 16777215
 74
     0
 91
        0
 64
     7
 65
   257
 75
     1
175
     1
 42
1.0
 92
        0
 66
     7
 43
1.0
 76
     1
 77
     6
 78
     2
 67
     7
 79
     5
170
     0
171
     0
290
     0
174
     0
 93
       13
 44
0.0
173
     0
291
     1
 45
0.0
1001
ACAD
1000
AcDbSavedByObjectVersion
1070
     0
  0
VISUALSTYLE
  5
272AC
102
{ACAD_XDICTIONARY
360
27D2A
102
}
102
{ACAD_REACTORS
330
272A8
102
}
330
272A8
100
AcDbVisualStyle
  2

 70
     3
 71
     2
 72
     2
 73
     1
 90
        2
 40
-0.6
 41
30.0
 62
     5
 63
     7
421
 16777215
 74
     1
 91
        0
 64
     7
 65
   257
 75
     1
175
     1
 42
1.0
 92
        0
 66
   257
 43
1.0
 76
     1
 77
     6
 78
     2
 67
     7
 79
     5
170
     0
171
     0
290
     0
174
     0
 93
       13
 44
0.0
173
     0
291
     1
 45
0.0
1001
ACAD
1000
AcDbSavedByObjectVersion
1070
     0
  0
VISUALSTYLE
  5
272B0
102
{ACAD_XDICTIONARY
360
27D32
102
}
102
{ACAD_REACTORS
330
272A8
102
}
330
272A8
100
AcDbVisualStyle
  2

 70
     6
 71
     1
 72
     2
 73
     2
 90
        0
 40
-0.6
 41
-30.0
 62
     5
 63
     7
421
 16777215
 74
     2
 91
        2
 64
     7
 65
   257
 75
     2
175
     1
 42
40.0
 92
        0
 66
   257
 43
1.0
 76
     1
 77
     6
 78
     2
 67
     7
 79
     3
170
     0
171
     0
290
     0
174
     0
 93
        1
 44
0.0
173
     0
291
     0
 45
0.0
1001
ACAD
1000
AcDbSavedByObjectVersion
1070
     0
  0
VISUALSTYLE
  5
272BE
102
{ACAD_XDICTIONARY
360
27D4E
102
}
102
{ACAD_REACTORS
330
272A8
102
}
330
272A8
100
AcDbVisualStyle
  2

 70
    20
 71
     2
 72
     2
 73
     0
 90
        0
 40
-0.6
 41
-30.0
 62
     5
 63
     7
421
 16777215
 74
     1
 91
        4
 64
     7
 65
   257
 75
     1
175
     1
 42
1.0
 92
       10
 66
     7
 43
1.0
 76
     1
 77
     6
 78
     2
 67
     7
 79
     5
170
     0
171
     0
290
     0
174
     0
 93
        1
 44
0.0
173
     0
291
     1
 45
0.0
1001
ACAD
1000
AcDbSavedByObjectVersion
1070
     0
  0
VISUALSTYLE
  5
272B6
102
{ACAD_XDICTIONARY
360
27D3E
102
}
102
{ACAD_REACTORS
330
272A8
102
}
330
272A8
100
AcDbVisualStyle
  2

 70
    14
 71
     2
 72
     2
 73
     0
 90
        0
 40
-0.6
 41
-30.0
 62
     5
 63
     7
421
 16777215
 74
     1
 91
        4
 64
     7
 65
   257
 75
     7
175
     7
 42
1.0
 92
        8
 66
     7
 43
1.0
 76
     1
 77
     6
 78
     2
 67
     7
 79
     5
170
     0
171
     0
290
     0
174
     0
 93
        1
 44
0.0
173
     0
291
     1
 45
0.0
1001
ACAD
1000
AcDbSavedByObjectVersion
1070
     0
  0
VISUALSTYLE
  5
272BF
102
{ACAD_XDICTIONARY
360
27D50
102
}
102
{ACAD_REACTORS
330
272A8
102
}
330
272A8
100
AcDbVisualStyle
  2

 70
    21
 71
     2
 72
     2
 73
     0
 90
        0
 40
-0.6
 41
-30.0
 62
     5
 63
     7
421
 16777215
 74
     1
 91
        4
 64
     7
 65
   257
 75
     1
175
     1
 42
1.0
 92
        9
 66
     7
 43
1.0
 76
     1
 77
     6
 78
     2
 67
     7
 79
     5
170
     0
171
     0
290
     0
174
     0
 93
        1
 44
0.0
173
     0
291
     1
 45
0.0
1001
ACAD
1000
AcDbSavedByObjectVersion
1070
     0
  0
VISUALSTYLE
  5
272B2
102
{ACAD_XDICTIONARY
360
27D36
102
}
102
{ACAD_REACTORS
330
272A8
102
}
330
272A8
100
AcDbVisualStyle
  2

 70
     8
 71
     2
 72
     3
 73
     0
 90
        2
 40
-0.6
 41
30.0
 62
     5
 63
     7
421
 16777215
 74
     0
 91
        0
 64
     7
 65
   257
 75
     1
175
     1
 42
1.0
 92
        8
 66
   257
 43
1.0
 76
     1
 77
     6
 78
     2
 67
     7
 79
     3
170
     0
171
     0
290
     0
174
     0
 93
       13
 44
0.0
173
     0
291
     0
 45
0.0
1001
ACAD
1000
AcDbSavedByObjectVersion
1070
     0
  0
VISUALSTYLE
  5
272BD
102
{ACAD_XDICTIONARY
360
27D4C
102
}
102
{ACAD_REACTORS
330
272A8
102
}
330
272A8
100
AcDbVisualStyle
  2

 70
    27
 71
     2
 72
     2
 73
     1
 90
        2
 40
-0.6
 41
30.0
 62
     5
 63
     7
421
 16777215
 74
     0
 91
        4
 64
     7
 65
   257
 75
     1
175
     1
 42
1.0
 92
        8
 66
   257
 43
1.0
 76
     1
 77
     6
 78
     2
 67
     8
425
  7895160
 79
     3
170
     0
171
     0
290
     0
174
     0
 93
        5
 44
0.0
173
     0
291
     0
 45
0.0
1001
ACAD
1000
AcDbSavedByObjectVersion
1070
     0
  0
VISUALSTYLE
  5
272BC
102
{ACAD_XDICTIONARY
360
27D4A
102
}
102
{ACAD_REACTORS
330
272A8
102
}
330
272A8
100
AcDbVisualStyle
  2

 70
    26
 71
     2
 72
     2
 73
     1
 90
        2
 40
-0.6
 41
30.0
 62
     5
 63
     7
421
 16777215
 74
     1
 91
       10
 64
     7
 65
   257
 75
     2
175
     1
 42
1.0
 92
        8
 66
   257
 43
1.0
 76
     1
 77
     6
 78
     2
 67
     7
 79
     3
170
     0
171
     0
290
     0
174
     0
 93
        5
 44
0.0
173
     0
291
     0
 45
0.0
1001
ACAD
1000
AcDbSavedByObjectVersion
1070
     0
  0
VISUALSTYLE
  5
272B9
102
{ACAD_XDICTIONARY
360
27D44
102
}
102
{ACAD_REACTORS
330
272A8
102
}
330
272A8
100
AcDbVisualStyle
  2

 70
    23
 71
     2
 72
     2
 73
     3
 90
        0
 40
-0.6
 41
-30.0
 62
     5
 63
     7
421
 16777215
 74
     2
 91
        2
 64
     7
 65
     7
 75
     1
175
     1
 42
40.0
 92
        8
 66
     7
 43
1.0
 76
     1
 77
     6
 78
     2
 67
     7
 79
     3
170
     0
171
     0
290
     0
174
     0
 93
        1
 44
0.0
173
     0
291
     0
 45
0.0
1001
ACAD
1000
AcDbSavedByObjectVersion
1070
     0
  0
VISUALSTYLE
  5
272BA
102
{ACAD_XDICTIONARY
360
27D46
102
}
102
{ACAD_REACTORS
330
272A8
102
}
330
272A8
100
AcDbVisualStyle
  2

 70
    24
 71
     1
 72
     2
 73
     2
 90
        0
 40
-0.6
 41
-30.0
 62
     5
 63
     7
421
 16777215
 74
     2
 91
        2
 64
     7
 65
     7
 75
     1
175
     1
 42
40.0
 92
       11
 66
     7
 43
1.0
 76
     1
 77
     6
 78
     2
 67
     7
 79
     6
170
     0
171
     0
290
     0
174
     0
 93
        1
 44
0.0
173
     0
291
     0
 45
0.0
1001
ACAD
1000
AcDbSavedByObjectVersion
1070
     0
  0
VISUALSTYLE
  5
272B5
102
{ACAD_XDICTIONARY
360
27D3C
102
}
102
{ACAD_REACTORS
330
272A8
102
}
330
272A8
100
AcDbVisualStyle
  2

 70
    13
 71
     2
 72
     2
 73
     0
 90
        0
 40
-0.6
 41
-30.0
 62
     5
 63
     7
421
 16777215
 74
     1
 91
        4
 64
     7
 65
   257
 75
     1
175
     1
 42
1.0
 92
       12
 66
     7
 43
1.0
 76
     1
 77
     6
 78
     2
 67
     7
 79
     5
170
     0
171
     0
290
     0
174
     0
 93
        1
 44
0.0
173
     0
291
     1
 45
0.0
1001
ACAD
1000
AcDbSavedByObjectVersion
1070
     0
  0
VISUALSTYLE
  5
272AF
102
{ACAD_XDICTIONARY
360
27D30
102
}
102
{ACAD_REACTORS
330
272A8
102
}
330
272A8
100
AcDbVisualStyle
  2

 70
     5
 71
     0
 72
     2
 73
     0
 90
        0
 40
-0.6
 41
-30.0
 62
     5
 63
     7
421
 16777215
 74
     1
 91
        4
 64
     7
 65
   257
 75
     1
175
     1
 42
1.0
 92
        0
 66
   257
 43
1.0
 76
     1
 77
     6
 78
     2
 67
     7
 79
     3
170
     0
171
     0
290
     0
174
     0
 93
        1
 44
0.0
173
     0
291
     0
 45
0.0
1001
ACAD
1000
AcDbSavedByObjectVersion
1070
     0
  0
VISUALSTYLE
  5
272BB
102
{ACAD_XDICTIONARY
360
27D48
102
}
102
{ACAD_REACTORS
330
272A8
102
}
330
272A8
100
AcDbVisualStyle
  2

 70
    25
 71
     2
 72
     2
 73
     1
 90
        1
 40
0.5
 41
-30.0
 62
     5
 63
     7
421
 16777215
 74
     1
 91
        0
 64
     7
 65
   257
 75
     1
175
     1
 42
1.0
 92
        8
 66
     7
 43
1.0
 76
     1
 77
     6
 78
     2
 67
     7
 79
     3
170
     0
171
     0
290
     0
174
     0
 93
       13
 44
0.0
173
     0
291
     0
 45
0.0
1001
ACAD
1000
AcDbSavedByObjectVersion
1070
     0
  0
DICTIONARYVAR
  5
27C9E
102
{ACAD_REACTORS
330
27C9B
102
}
330
27C9B
100
DictionaryVariables
280
     0
  1
1:1
  0
DICTIONARYVAR
  5
27C9D
102
{ACAD_REACTORS
330
27C9B
102
}
330
27C9B
100
DictionaryVariables
280
     0
  1
STANDARD
  0
DICTIONARYVAR
  5
27C9C
102
{ACAD_REACTORS
330
27C9B
102
}
330
27C9B
100
DictionaryVariables
280
     0
  1
STANDARD
  0
DICTIONARYVAR
  5
27CE6
102
{ACAD_REACTORS
330
27C9B
102
}
330
27C9B
100
DictionaryVariables
280
     0
  1
2
  0
DICTIONARY
  5
27299
330
27298
100
AcDbDictionary
280
     1
281
     1
  3
ACAD_XREC_ROUNDTRIP
360
27CA4
  3
BUMPTILE
360
2729B
  3
DIFFUSETILE
360
2729A
  3
OPACITYTILE
360
2729E
  3
REFLECTIONTILE
360
2729D
  3
REFRACTIONTILE
360
2729F
  3
SPECULARTILE
360
2729C
  0
DICTIONARY
  5
27291
330
27290
100
AcDbDictionary
280
     1
281
     1
  3
ACAD_XREC_ROUNDTRIP
360
27CA3
  3
BUMPTILE
360
27293
  3
DIFFUSETILE
360
27292
  3
OPACITYTILE
360
27296
  3
REFLECTIONTILE
360
27295
  3
REFRACTIONTILE
360
27297
  3
SPECULARTILE
360
27294
  0
DICTIONARY
  5
272A1
330
272A0
100
AcDbDictionary
280
     1
281
     1
  3
ACAD_XREC_ROUNDTRIP
360
27CA5
  3
BUMPTILE
360
272A3
  3
DIFFUSETILE
360
272A2
  3
OPACITYTILE
360
272A6
  3
REFLECTIONTILE
360
272A5
  3
REFRACTIONTILE
360
272A7
  3
SPECULARTILE
360
272A4
  0
DICTIONARY
  5
27CA0
330
272E3
100
AcDbDictionary
280
     1
281
     1
  3
ACAD_ROUNDTRIP_2008_TABLESTYLE_CELLSTYLEMAP
360
27D22
  3
ACAD_XREC_ROUNDTRIP
360
27D54
  0
DICTIONARY
  5
27D2E
330
272AE
100
AcDbDictionary
280
     1
281
     1
  3
ACAD_XREC_ROUNDTRIP
360
27D2F
  0
DICTIONARY
  5
27D2C
330
272AD
100
AcDbDictionary
280
     1
281
     1
  3
ACAD_XREC_ROUNDTRIP
360
27D2D
  0
DICTIONARY
  5
27D3A
330
272B4
100
AcDbDictionary
280
     1
281
     1
  3
ACAD_XREC_ROUNDTRIP
360
27D3B
  0
DICTIONARY
  5
27D42
330
272B8
100
AcDbDictionary
280
     1
281
     1
  3
ACAD_XREC_ROUNDTRIP
360
27D43
  0
DICTIONARY
  5
27D34
330
272B1
100
AcDbDictionary
280
     1
281
     1
  3
ACAD_XREC_ROUNDTRIP
360
27D35
  0
DICTIONARY
  5
27D38
330
272B3
100
AcDbDictionary
280
     1
281
     1
  3
ACAD_XREC_ROUNDTRIP
360
27D39
  0
DICTIONARY
  5
27D52
330
272C0
100
AcDbDictionary
280
     1
281
     1
  3
ACAD_XREC_ROUNDTRIP
360
27D53
  0
DICTIONARY
  5
27D40
330
272B7
100
AcDbDictionary
280
     1
281
     1
  3
ACAD_XREC_ROUNDTRIP
360
27D41
  0
DICTIONARY
  5
27D24
330
272A9
100
AcDbDictionary
280
     1
281
     1
  3
ACAD_XREC_ROUNDTRIP
360
27D25
  0
DICTIONARY
  5
27D26
330
272AA
100
AcDbDictionary
280
     1
281
     1
  3
ACAD_XREC_ROUNDTRIP
360
27D27
  0
DICTIONARY
  5
27D28
330
272AB
100
AcDbDictionary
280
     1
281
     1
  3
ACAD_XREC_ROUNDTRIP
360
27D29
  0
DICTIONARY
  5
27D2A
330
272AC
100
AcDbDictionary
280
     1
281
     1
  3
ACAD_XREC_ROUNDTRIP
360
27D2B
  0
DICTIONARY
  5
27D32
330
272B0
100
AcDbDictionary
280
     1
281
     1
  3
ACAD_XREC_ROUNDTRIP
360
27D33
  0
DICTIONARY
  5
27D4E
330
272BE
100
AcDbDictionary
280
     1
281
     1
  3
ACAD_XREC_ROUNDTRIP
360
27D4F
  0
DICTIONARY
  5
27D3E
330
272B6
100
AcDbDictionary
280
     1
281
     1
  3
ACAD_XREC_ROUNDTRIP
360
27D3F
  0
DICTIONARY
  5
27D50
330
272BF
100
AcDbDictionary
280
     1
281
     1
  3
ACAD_XREC_ROUNDTRIP
360
27D51
  0
DICTIONARY
  5
27D36
330
272B2
100
AcDbDictionary
280
     1
281
     1
  3
ACAD_XREC_ROUNDTRIP
360
27D37
  0
DICTIONARY
  5
27D4C
330
272BD
100
AcDbDictionary
280
     1
281
     1
  3
ACAD_XREC_ROUNDTRIP
360
27D4D
  0
DICTIONARY
  5
27D4A
330
272BC
100
AcDbDictionary
280
     1
281
     1
  3
ACAD_XREC_ROUNDTRIP
360
27D4B
  0
DICTIONARY
  5
27D44
330
272B9
100
AcDbDictionary
280
     1
281
     1
  3
ACAD_XREC_ROUNDTRIP
360
27D45
  0
DICTIONARY
  5
27D46
330
272BA
100
AcDbDictionary
280
     1
281
     1
  3
ACAD_XREC_ROUNDTRIP
360
27D47
  0
DICTIONARY
  5
27D3C
330
272B5
100
AcDbDictionary
280
     1
281
     1
  3
ACAD_XREC_ROUNDTRIP
360
27D3D
  0
DICTIONARY
  5
27D30
330
272AF
100
AcDbDictionary
280
     1
281
     1
  3
ACAD_XREC_ROUNDTRIP
360
27D31
  0
DICTIONARY
  5
27D48
330
272BB
100
AcDbDictionary
280
     1
281
     1
  3
ACAD_XREC_ROUNDTRIP
360
27D49
  0
XRECORD
  5
27CA4
102
{ACAD_REACTORS
330
27299
102
}
330
27299
100
AcDbXrecord
280
     1
102
MATERIAL
148
0.0
149
0.0
149
0.0
 93
        0
 94
      127
282
     0
 72
     0
 77
     0
171
     0
175
     0
179
     0
273
     0
  0
XRECORD
  5
2729B
102
{ACAD_REACTORS
330
27299
102
}
330
27299
100
AcDbXrecord
280
     1
270
     1
271
     1
  0
XRECORD
  5
2729A
102
{ACAD_REACTORS
330
27299
102
}
330
27299
100
AcDbXrecord
280
     1
270
     1
271
     1
  0
XRECORD
  5
2729E
102
{ACAD_REACTORS
330
27299
102
}
330
27299
100
AcDbXrecord
280
     1
270
     1
271
     1
  0
XRECORD
  5
2729D
102
{ACAD_REACTORS
330
27299
102
}
330
27299
100
AcDbXrecord
280
     1
270
     1
271
     1
  0
XRECORD
  5
2729F
102
{ACAD_REACTORS
330
27299
102
}
330
27299
100
AcDbXrecord
280
     1
270
     1
271
     1
  0
XRECORD
  5
2729C
102
{ACAD_REACTORS
330
27299
102
}
330
27299
100
AcDbXrecord
280
     1
270
     1
271
     1
  0
XRECORD
  5
27CA3
102
{ACAD_REACTORS
330
27291
102
}
330
27291
100
AcDbXrecord
280
     1
102
MATERIAL
148
0.0
149
0.0
149
0.0
 93
        0
 94
      127
282
     0
 72
     0
 77
     0
171
     0
175
     0
179
     0
273
     0
  0
XRECORD
  5
27293
102
{ACAD_REACTORS
330
27291
102
}
330
27291
100
AcDbXrecord
280
     1
270
     1
271
     1
  0
XRECORD
  5
27292
102
{ACAD_REACTORS
330
27291
102
}
330
27291
100
AcDbXrecord
280
     1
270
     1
271
     1
  0
XRECORD
  5
27296
102
{ACAD_REACTORS
330
27291
102
}
330
27291
100
AcDbXrecord
280
     1
270
     1
271
     1
  0
XRECORD
  5
27295
102
{ACAD_REACTORS
330
27291
102
}
330
27291
100
AcDbXrecord
280
     1
270
     1
271
     1
  0
XRECORD
  5
27297
102
{ACAD_REACTORS
330
27291
102
}
330
27291
100
AcDbXrecord
280
     1
270
     1
271
     1
  0
XRECORD
  5
27294
102
{ACAD_REACTORS
330
27291
102
}
330
27291
100
AcDbXrecord
280
     1
270
     1
271
     1
  0
XRECORD
  5
27CA5
102
{ACAD_REACTORS
330
272A1
102
}
330
272A1
100
AcDbXrecord
280
     1
102
MATERIAL
148
0.0
149
0.0
149
0.0
 93
        0
 94
      127
282
     0
 72
     0
 77
     0
171
     0
175
     0
179
     0
273
     0
  0
XRECORD
  5
272A3
102
{ACAD_REACTORS
330
272A1
102
}
330
272A1
100
AcDbXrecord
280
     1
270
     1
271
     1
  0
XRECORD
  5
272A2
102
{ACAD_REACTORS
330
272A1
102
}
330
272A1
100
AcDbXrecord
280
     1
270
     1
271
     1
  0
XRECORD
  5
272A6
102
{ACAD_REACTORS
330
272A1
102
}
330
272A1
100
AcDbXrecord
280
     1
270
     1
271
     1
  0
XRECORD
  5
272A5
102
{ACAD_REACTORS
330
272A1
102
}
330
272A1
100
AcDbXrecord
280
     1
270
     1
271
     1
  0
XRECORD
  5
272A7
102
{ACAD_REACTORS
330
272A1
102
}
330
272A1
100
AcDbXrecord
280
     1
270
     1
271
     1
  0
XRECORD
  5
272A4
102
{ACAD_REACTORS
330
272A1
102
}
330
272A1
100
AcDbXrecord
280
     1
270
     1
271
     1
  0
CELLSTYLEMAP
  5
27D22
102
{ACAD_REACTORS
330
27CA0
102
}
330
27CA0
100
AcDbCellStyleMap
 90
        3
300
CELLSTYLE
  1
TABLEFORMAT_BEGIN
 90
        5
170
     1
 91
        0
 92
    32768
 62
   257
 93
        1
300
CONTENTFORMAT
  1
CONTENTFORMAT_BEGIN
 90
        0
 91
        0
 92
      512
 93
        0
300

 40
0.0
140
1.0
 94
        5
 62
     0
340
272D4
144
0.25
309
CONTENTFORMAT_END
171
     1
301
MARGIN
  1
CELLMARGIN_BEGIN
 40
0.06
 40
0.06
 40
0.06
 40
0.06
 40
0.18
 40
0.18
309
CELLMARGIN_END
 94
        6
 95
        1
302
GRIDFORMAT
  1
GRIDFORMAT_BEGIN
 90
        0
 91
        1
 62
     0
 92
       -2
340
0
 93
        0
 40
0.045
309
GRIDFORMAT_END
 95
        2
302
GRIDFORMAT
  1
GRIDFORMAT_BEGIN
 90
        0
 91
        1
 62
     0
 92
       -2
340
0
 93
        0
 40
0.045
309
GRIDFORMAT_END
 95
        4
302
GRIDFORMAT
  1
GRIDFORMAT_BEGIN
 90
        0
 91
        1
 62
     0
 92
       -2
340
0
 93
        0
 40
0.045
309
GRIDFORMAT_END
 95
        8
302
GRIDFORMAT
  1
GRIDFORMAT_BEGIN
 90
        0
 91
        1
 62
     0
 92
       -2
340
0
 93
        0
 40
0.045
309
GRIDFORMAT_END
 95
       16
302
GRIDFORMAT
  1
GRIDFORMAT_BEGIN
 90
        0
 91
        1
 62
     0
 92
       -2
340
0
 93
        0
 40
0.045
309
GRIDFORMAT_END
 95
       32
302
GRIDFORMAT
  1
GRIDFORMAT_BEGIN
 90
        0
 91
        1
 62
     0
 92
       -2
340
0
 93
        0
 40
0.045
309
GRIDFORMAT_END
309
TABLEFORMAT_END
  1
CELLSTYLE_BEGIN
 90
        1
 91
        1
300
_TITLE
309
CELLSTYLE_END
300
CELLSTYLE
  1
TABLEFORMAT_BEGIN
 90
        5
170
     1
 91
        0
 92
        0
 62
   257
 93
        1
300
CONTENTFORMAT
  1
CONTENTFORMAT_BEGIN
 90
        0
 91
        0
 92
      512
 93
        0
300

 40
0.0
140
1.0
 94
        5
 62
     0
340
272D4
144
0.18
309
CONTENTFORMAT_END
171
     1
301
MARGIN
  1
CELLMARGIN_BEGIN
 40
0.06
 40
0.06
 40
0.06
 40
0.06
 40
0.18
 40
0.18
309
CELLMARGIN_END
 94
        6
 95
        1
302
GRIDFORMAT
  1
GRIDFORMAT_BEGIN
 90
        0
 91
        1
 62
     0
 92
       -2
340
0
 93
        0
 40
0.045
309
GRIDFORMAT_END
 95
        2
302
GRIDFORMAT
  1
GRIDFORMAT_BEGIN
 90
        0
 91
        1
 62
     0
 92
       -2
340
0
 93
        0
 40
0.045
309
GRIDFORMAT_END
 95
        4
302
GRIDFORMAT
  1
GRIDFORMAT_BEGIN
 90
        0
 91
        1
 62
     0
 92
       -2
340
0
 93
        0
 40
0.045
309
GRIDFORMAT_END
 95
        8
302
GRIDFORMAT
  1
GRIDFORMAT_BEGIN
 90
        0
 91
        1
 62
     0
 92
       -2
340
0
 93
        0
 40
0.045
309
GRIDFORMAT_END
 95
       16
302
GRIDFORMAT
  1
GRIDFORMAT_BEGIN
 90
        0
 91
        1
 62
     0
 92
       -2
340
0
 93
        0
 40
0.045
309
GRIDFORMAT_END
 95
       32
302
GRIDFORMAT
  1
GRIDFORMAT_BEGIN
 90
        0
 91
        1
 62
     0
 92
       -2
340
0
 93
        0
 40
0.045
309
GRIDFORMAT_END
309
TABLEFORMAT_END
  1
CELLSTYLE_BEGIN
 90
        2
 91
        1
300
_HEADER
309
CELLSTYLE_END
300
CELLSTYLE
  1
TABLEFORMAT_BEGIN
 90
        5
170
     1
 91
        0
 92
        0
 62
   257
 93
        1
300
CONTENTFORMAT
  1
CONTENTFORMAT_BEGIN
 90
        0
 91
        0
 92
      512
 93
        0
300

 40
0.0
140
1.0
 94
        2
 62
     0
340
272D4
144
0.18
309
CONTENTFORMAT_END
171
     1
301
MARGIN
  1
CELLMARGIN_BEGIN
 40
0.06
 40
0.06
 40
0.06
 40
0.06
 40
0.18
 40
0.18
309
CELLMARGIN_END
 94
        6
 95
        1
302
GRIDFORMAT
  1
GRIDFORMAT_BEGIN
 90
        0
 91
        1
 62
     0
 92
       -2
340
0
 93
        0
 40
0.045
309
GRIDFORMAT_END
 95
        2
302
GRIDFORMAT
  1
GRIDFORMAT_BEGIN
 90
        0
 91
        1
 62
     0
 92
       -2
340
0
 93
        0
 40
0.045
309
GRIDFORMAT_END
 95
        4
302
GRIDFORMAT
  1
GRIDFORMAT_BEGIN
 90
        0
 91
        1
 62
     0
 92
       -2
340
0
 93
        0
 40
0.045
309
GRIDFORMAT_END
 95
        8
302
GRIDFORMAT
  1
GRIDFORMAT_BEGIN
 90
        0
 91
        1
 62
     0
 92
       -2
340
0
 93
        0
 40
0.045
309
GRIDFORMAT_END
 95
       16
302
GRIDFORMAT
  1
GRIDFORMAT_BEGIN
 90
        0
 91
        1
 62
     0
 92
       -2
340
0
 93
        0
 40
0.045
309
GRIDFORMAT_END
 95
       32
302
GRIDFORMAT
  1
GRIDFORMAT_BEGIN
 90
        0
 91
        1
 62
     0
 92
       -2
340
0
 93
        0
 40
0.045
309
GRIDFORMAT_END
309
TABLEFORMAT_END
  1
CELLSTYLE_BEGIN
 90
        3
 91
        2
300
_DATA
309
CELLSTYLE_END
  0
XRECORD
  5
27D54
102
{ACAD_REACTORS
330
27CA0
102
}
330
27CA0
100
AcDbXrecord
280
     1
102
ACAD_ROUNDTRIP_PRE2007_TABLESTYLE
 90
      512
 91
        0
  1

 92
      512
 93
        0
  2

 94
      512
 95
        0
  3

  0
XRECORD
  5
27D2F
102
{ACAD_REACTORS
330
27D2E
102
}
330
27D2E
100
AcDbXrecord
280
     1
102
RTVSPropertyOp0
 70
     1
102
RTVSPropertyOp1
 70
     1
102
RTVSPropertyOp2
 70
     1
102
RTVSPropertyOp3
 70
     1
102
RTVSPropertyOp4
 70
     1
102
RTVSPropertyOp5
 70
     1
102
RTVSPropertyOp6
 70
     1
102
RTVSPropertyOp7
 70
     1
102
RTVSPropertyOp8
 70
     1
102
RTVSPropertyOp9
 70
     1
102
RTVSPropertyOp10
 70
     1
102
RTVSPropertyOp11
 70
     1
102
RTVSPropertyOp12
 70
     1
102
RTVSPropertyOp13
 70
     1
102
RTVSPropertyOp14
 70
     1
102
RTVSPropertyOp15
 70
     1
102
RTVSPropertyOp16
 70
     1
102
RTVSPropertyOp17
 70
     1
102
RTVSPropertyOp18
 70
     1
102
RTVSPropertyOp19
 70
     1
102
RTVSPropertyOp20
 70
     1
102
RTVSPropertyOp21
 70
     1
102
RTVSPropertyOp22
 70
     1
102
RTVSPropertyOp23
 70
     1
102
RTVSPropertyOp24
 70
     1
102
RTVSPropertyOp25
 70
     1
102
RTVSPropertyOp26
 70
     1
102
RTVSPropertyOp27
 70
     1
102
RTVSPropertyOp28
 70
     1
102
RTVSPropertyOp29
 70
     1
102
RTVSPropertyOp30
 70
     1
102
RTVSPropertyOp31
 70
     1
102
RTVSPropertyOp32
 70
     1
  0
XRECORD
  5
27D2D
102
{ACAD_REACTORS
330
27D2C
102
}
330
27D2C
100
AcDbXrecord
280
     1
102
RTVSPropertyOp0
 70
     1
102
RTVSPropertyOp1
 70
     1
102
RTVSPropertyOp2
 70
     1
102
RTVSPropertyOp3
 70
     1
102
RTVSPropertyOp4
 70
     1
102
RTVSPropertyOp5
 70
     1
102
RTVSPropertyOp6
 70
     1
102
RTVSPropertyOp7
 70
     1
102
RTVSPropertyOp8
 70
     1
102
RTVSPropertyOp9
 70
     1
102
RTVSPropertyOp10
 70
     1
102
RTVSPropertyOp11
 70
     1
102
RTVSPropertyOp12
 70
     1
102
RTVSPropertyOp13
 70
     1
102
RTVSPropertyOp14
 70
     1
102
RTVSPropertyOp15
 70
     1
102
RTVSPropertyOp16
 70
     1
102
RTVSPropertyOp17
 70
     1
102
RTVSPropertyOp18
 70
     1
102
RTVSPropertyOp19
 70
     1
102
RTVSPropertyOp20
 70
     1
102
RTVSPropertyOp21
 70
     1
102
RTVSPropertyOp22
 70
     1
102
RTVSPropertyOp23
 70
     1
102
RTVSPropertyOp24
 70
     1
102
RTVSPropertyOp25
 70
     1
102
RTVSPropertyOp26
 70
     1
102
RTVSPropertyOp27
 70
     1
102
RTVSPropertyOp28
 70
     1
102
RTVSPropertyOp29
 70
     1
102
RTVSPropertyOp30
 70
     1
102
RTVSPropertyOp31
 70
     1
102
RTVSPropertyOp32
 70
     1
  0
XRECORD
  5
27D3B
102
{ACAD_REACTORS
330
27D3A
102
}
330
27D3A
100
AcDbXrecord
280
     1
102
RTVSPropertyOp0
 70
     1
102
RTVSPropertyOp1
 70
     1
102
RTVSPropertyOp2
 70
     1
102
RTVSPropertyOp3
 70
     1
102
RTVSPropertyOp4
 70
     1
102
RTVSPropertyOp5
 70
     1
102
RTVSPropertyOp6
 70
     1
102
RTVSPropertyOp7
 70
     1
102
RTVSPropertyOp8
 70
     1
102
RTVSPropertyOp9
 70
     1
102
RTVSPropertyOp10
 70
     1
102
RTVSPropertyOp11
 70
     1
102
RTVSPropertyOp12
 70
     1
102
RTVSPropertyOp13
 70
     1
102
RTVSPropertyOp14
 70
     1
102
RTVSPropertyOp15
 70
     1
102
RTVSPropertyOp16
 70
     1
102
RTVSPropertyOp17
 70
     1
102
RTVSPropertyOp18
 70
     1
102
RTVSPropertyOp19
 70
     1
102
RTVSPropertyOp20
 70
     1
102
RTVSPropertyOp21
 70
     1
102
RTVSPropertyOp22
 70
     1
102
RTVSPropertyOp23
 70
     1
102
RTVSPropertyOp24
 70
     1
102
RTVSPropertyOp25
 70
     1
102
RTVSPropertyOp26
 70
     1
102
RTVSPropertyOp27
 70
     1
102
RTVSPropertyOp28
 70
     1
102
RTVSPropertyOp29
 70
     1
102
RTVSPropertyOp30
 70
     1
102
RTVSPropertyOp31
 70
     1
102
RTVSPropertyOp32
 70
     1
  0
XRECORD
  5
27D43
102
{ACAD_REACTORS
330
27D42
102
}
330
27D42
100
AcDbXrecord
280
     1
102
RTVSPropertyOp0
 70
     1
102
RTVSPropertyOp1
 70
     1
102
RTVSPropertyOp2
 70
     1
102
RTVSPropertyOp3
 70
     1
102
RTVSPropertyOp4
 70
     1
102
RTVSPropertyOp5
 70
     1
102
RTVSPropertyOp6
 70
     1
102
RTVSPropertyOp7
 70
     1
102
RTVSPropertyOp8
 70
     1
102
RTVSPropertyOp9
 70
     1
102
RTVSPropertyOp10
 70
     1
102
RTVSPropertyOp11
 70
     1
102
RTVSPropertyOp12
 70
     1
102
RTVSPropertyOp13
 70
     1
102
RTVSPropertyOp14
 70
     1
102
RTVSPropertyOp15
 70
     1
102
RTVSPropertyOp16
 70
     1
102
RTVSPropertyOp17
 70
     1
102
RTVSPropertyOp18
 70
     1
102
RTVSPropertyOp19
 70
     1
102
RTVSPropertyOp20
 70
     1
102
RTVSPropertyOp21
 70
     1
102
RTVSPropertyOp22
 70
     1
102
RTVSPropertyOp23
 70
     1
102
RTVSPropertyOp24
 70
     1
102
RTVSPropertyOp25
 70
     1
102
RTVSPropertyOp26
 70
     1
102
RTVSPropertyOp27
 70
     1
102
RTVSPropertyOp28
 70
     1
102
RTVSPropertyOp29
 70
     1
102
RTVSPropertyOp30
 70
     1
102
RTVSPropertyOp31
 70
     1
102
RTVSPropertyOp32
 70
     1
  0
XRECORD
  5
27D35
102
{ACAD_REACTORS
330
27D34
102
}
330
27D34
100
AcDbXrecord
280
     1
102
RTVSPropertyOp0
 70
     1
102
RTVSPropertyOp1
 70
     1
102
RTVSPropertyOp2
 70
     1
102
RTVSPropertyOp3
 70
     1
102
RTVSPropertyOp4
 70
     1
102
RTVSPropertyOp5
 70
     1
102
RTVSPropertyOp6
 70
     1
102
RTVSPropertyOp7
 70
     1
102
RTVSPropertyOp8
 70
     1
102
RTVSPropertyOp9
 70
     1
102
RTVSPropertyOp10
 70
     1
102
RTVSPropertyOp11
 70
     1
102
RTVSPropertyOp12
 70
     1
102
RTVSPropertyOp13
 70
     1
102
RTVSPropertyOp14
 70
     1
102
RTVSPropertyOp15
 70
     1
102
RTVSPropertyOp16
 70
     1
102
RTVSPropertyOp17
 70
     1
102
RTVSPropertyOp18
 70
     1
102
RTVSPropertyOp19
 70
     1
102
RTVSPropertyOp20
 70
     1
102
RTVSPropertyOp21
 70
     1
102
RTVSPropertyOp22
 70
     1
102
RTVSPropertyOp23
 70
     1
102
RTVSPropertyOp24
 70
     1
102
RTVSPropertyOp25
 70
     1
102
RTVSPropertyOp26
 70
     1
102
RTVSPropertyOp27
 70
     1
102
RTVSPropertyOp28
 70
     1
102
RTVSPropertyOp29
 70
     1
102
RTVSPropertyOp30
 70
     1
102
RTVSPropertyOp31
 70
     1
102
RTVSPropertyOp32
 70
     1
  0
XRECORD
  5
27D39
102
{ACAD_REACTORS
330
27D38
102
}
330
27D38
100
AcDbXrecord
280
     1
102
RTVSPropertyOp0
 70
     1
102
RTVSPropertyOp1
 70
     1
102
RTVSPropertyOp2
 70
     1
102
RTVSPropertyOp3
 70
     1
102
RTVSPropertyOp4
 70
     1
102
RTVSPropertyOp5
 70
     1
102
RTVSPropertyOp6
 70
     1
102
RTVSPropertyOp7
 70
     1
102
RTVSPropertyOp8
 70
     1
102
RTVSPropertyOp9
 70
     1
102
RTVSPropertyOp10
 70
     1
102
RTVSPropertyOp11
 70
     1
102
RTVSPropertyOp12
 70
     1
102
RTVSPropertyOp13
 70
     1
102
RTVSPropertyOp14
 70
     1
102
RTVSPropertyOp15
 70
     1
102
RTVSPropertyOp16
 70
     1
102
RTVSPropertyOp17
 70
     1
102
RTVSPropertyOp18
 70
     1
102
RTVSPropertyOp19
 70
     1
102
RTVSPropertyOp20
 70
     1
102
RTVSPropertyOp21
 70
     1
102
RTVSPropertyOp22
 70
     1
102
RTVSPropertyOp23
 70
     1
102
RTVSPropertyOp24
 70
     1
102
RTVSPropertyOp25
 70
     1
102
RTVSPropertyOp26
 70
     1
102
RTVSPropertyOp27
 70
     1
102
RTVSPropertyOp28
 70
     1
102
RTVSPropertyOp29
 70
     1
102
RTVSPropertyOp30
 70
     1
102
RTVSPropertyOp31
 70
     1
102
RTVSPropertyOp32
 70
     1
  0
XRECORD
  5
27D53
102
{ACAD_REACTORS
330
27D52
102
}
330
27D52
100
AcDbXrecord
280
     1
102
RTVSPropertyOp0
 70
     0
102
RTVSPropertyOp1
 70
     0
102
RTVSPropertyOp2
 70
     0
102
RTVSPropertyOp3
 70
     0
102
RTVSPropertyOp4
 70
     0
102
RTVSPropertyOp5
 70
     0
102
RTVSPropertyOp6
 70
     0
102
RTVSPropertyOp7
 70
     0
102
RTVSPropertyOp8
 70
     0
102
RTVSPropertyOp9
 70
     0
102
RTVSPropertyOp10
 70
     0
102
RTVSPropertyOp11
 70
     0
102
RTVSPropertyOp12
 70
     0
102
RTVSPropertyOp13
 70
     0
102
RTVSPropertyOp14
 70
     2
102
RTVSPropertyOp15
 70
     0
102
RTVSPropertyOp16
 70
     0
102
RTVSPropertyOp17
 70
     0
102
RTVSPropertyOp18
 70
     0
102
RTVSPropertyOp19
 70
     0
102
RTVSPropertyOp20
 70
     0
102
RTVSPropertyOp21
 70
     0
102
RTVSPropertyOp22
 70
     0
102
RTVSPropertyOp23
 70
     0
102
RTVSPropertyOp24
 70
     0
102
RTVSPropertyOp25
 70
     0
102
RTVSPropertyOp26
 70
     0
102
RTVSPropertyOp27
 70
     0
102
RTVSPropertyOp28
 70
     0
102
RTVSPropertyOp29
 70
     0
102
RTVSPropertyOp30
 70
     0
102
RTVSPropertyOp31
 70
     0
102
RTVSPropertyOp32
 70
     0
  0
XRECORD
  5
27D41
102
{ACAD_REACTORS
330
27D40
102
}
330
27D40
100
AcDbXrecord
280
     1
102
RTVSPropertyOp0
 70
     1
102
RTVSPropertyOp1
 70
     1
102
RTVSPropertyOp2
 70
     1
102
RTVSPropertyOp3
 70
     1
102
RTVSPropertyOp4
 70
     1
102
RTVSPropertyOp5
 70
     1
102
RTVSPropertyOp6
 70
     1
102
RTVSPropertyOp7
 70
     1
102
RTVSPropertyOp8
 70
     1
102
RTVSPropertyOp9
 70
     1
102
RTVSPropertyOp10
 70
     1
102
RTVSPropertyOp11
 70
     1
102
RTVSPropertyOp12
 70
     1
102
RTVSPropertyOp13
 70
     1
102
RTVSPropertyOp14
 70
     1
102
RTVSPropertyOp15
 70
     1
102
RTVSPropertyOp16
 70
     1
102
RTVSPropertyOp17
 70
     1
102
RTVSPropertyOp18
 70
     1
102
RTVSPropertyOp19
 70
     1
102
RTVSPropertyOp20
 70
     1
102
RTVSPropertyOp21
 70
     1
102
RTVSPropertyOp22
 70
     1
102
RTVSPropertyOp23
 70
     1
102
RTVSPropertyOp24
 70
     1
102
RTVSPropertyOp25
 70
     1
102
RTVSPropertyOp26
 70
     1
102
RTVSPropertyOp27
 70
     1
102
RTVSPropertyOp28
 70
     1
102
RTVSPropertyOp29
 70
     1
102
RTVSPropertyOp30
 70
     1
102
RTVSPropertyOp31
 70
     1
102
RTVSPropertyOp32
 70
     1
  0
XRECORD
  5
27D25
102
{ACAD_REACTORS
330
27D24
102
}
330
27D24
100
AcDbXrecord
280
     1
102
RTVSPropertyOp0
 70
     1
102
RTVSPropertyOp1
 70
     1
102
RTVSPropertyOp2
 70
     1
102
RTVSPropertyOp3
 70
     1
102
RTVSPropertyOp4
 70
     1
102
RTVSPropertyOp5
 70
     1
102
RTVSPropertyOp6
 70
     1
102
RTVSPropertyOp7
 70
     1
102
RTVSPropertyOp8
 70
     1
102
RTVSPropertyOp9
 70
     1
102
RTVSPropertyOp10
 70
     1
102
RTVSPropertyOp11
 70
     1
102
RTVSPropertyOp12
 70
     1
102
RTVSPropertyOp13
 70
     1
102
RTVSPropertyOp14
 70
     1
102
RTVSPropertyOp15
 70
     1
102
RTVSPropertyOp16
 70
     1
102
RTVSPropertyOp17
 70
     1
102
RTVSPropertyOp18
 70
     1
102
RTVSPropertyOp19
 70
     1
102
RTVSPropertyOp20
 70
     1
102
RTVSPropertyOp21
 70
     1
102
RTVSPropertyOp22
 70
     1
102
RTVSPropertyOp23
 70
     1
102
RTVSPropertyOp24
 70
     1
102
RTVSPropertyOp25
 70
     1
102
RTVSPropertyOp26
 70
     1
102
RTVSPropertyOp27
 70
     1
102
RTVSPropertyOp28
 70
     1
102
RTVSPropertyOp29
 70
     1
102
RTVSPropertyOp30
 70
     1
102
RTVSPropertyOp31
 70
     1
102
RTVSPropertyOp32
 70
     1
  0
XRECORD
  5
27D27
102
{ACAD_REACTORS
330
27D26
102
}
330
27D26
100
AcDbXrecord
280
     1
102
RTVSPropertyOp0
 70
     1
102
RTVSPropertyOp1
 70
     1
102
RTVSPropertyOp2
 70
     1
102
RTVSPropertyOp3
 70
     1
102
RTVSPropertyOp4
 70
     1
102
RTVSPropertyOp5
 70
     1
102
RTVSPropertyOp6
 70
     1
102
RTVSPropertyOp7
 70
     1
102
RTVSPropertyOp8
 70
     1
102
RTVSPropertyOp9
 70
     1
102
RTVSPropertyOp10
 70
     1
102
RTVSPropertyOp11
 70
     1
102
RTVSPropertyOp12
 70
     1
102
RTVSPropertyOp13
 70
     1
102
RTVSPropertyOp14
 70
     1
102
RTVSPropertyOp15
 70
     1
102
RTVSPropertyOp16
 70
     1
102
RTVSPropertyOp17
 70
     1
102
RTVSPropertyOp18
 70
     1
102
RTVSPropertyOp19
 70
     1
102
RTVSPropertyOp20
 70
     1
102
RTVSPropertyOp21
 70
     1
102
RTVSPropertyOp22
 70
     1
102
RTVSPropertyOp23
 70
     1
102
RTVSPropertyOp24
 70
     1
102
RTVSPropertyOp25
 70
     1
102
RTVSPropertyOp26
 70
     1
102
RTVSPropertyOp27
 70
     1
102
RTVSPropertyOp28
 70
     1
102
RTVSPropertyOp29
 70
     1
102
RTVSPropertyOp30
 70
     1
102
RTVSPropertyOp31
 70
     1
102
RTVSPropertyOp32
 70
     1
  0
XRECORD
  5
27D29
102
{ACAD_REACTORS
330
27D28
102
}
330
27D28
100
AcDbXrecord
280
     1
102
RTVSPropertyOp0
 70
     1
102
RTVSPropertyOp1
 70
     1
102
RTVSPropertyOp2
 70
     1
102
RTVSPropertyOp3
 70
     1
102
RTVSPropertyOp4
 70
     1
102
RTVSPropertyOp5
 70
     1
102
RTVSPropertyOp6
 70
     1
102
RTVSPropertyOp7
 70
     1
102
RTVSPropertyOp8
 70
     1
102
RTVSPropertyOp9
 70
     1
102
RTVSPropertyOp10
 70
     1
102
RTVSPropertyOp11
 70
     1
102
RTVSPropertyOp12
 70
     1
102
RTVSPropertyOp13
 70
     1
102
RTVSPropertyOp14
 70
     1
102
RTVSPropertyOp15
 70
     1
102
RTVSPropertyOp16
 70
     1
102
RTVSPropertyOp17
 70
     1
102
RTVSPropertyOp18
 70
     1
102
RTVSPropertyOp19
 70
     1
102
RTVSPropertyOp20
 70
     1
102
RTVSPropertyOp21
 70
     1
102
RTVSPropertyOp22
 70
     1
102
RTVSPropertyOp23
 70
     1
102
RTVSPropertyOp24
 70
     1
102
RTVSPropertyOp25
 70
     1
102
RTVSPropertyOp26
 70
     1
102
RTVSPropertyOp27
 70
     1
102
RTVSPropertyOp28
 70
     1
102
RTVSPropertyOp29
 70
     1
102
RTVSPropertyOp30
 70
     1
102
RTVSPropertyOp31
 70
     1
102
RTVSPropertyOp32
 70
     1
  0
XRECORD
  5
27D2B
102
{ACAD_REACTORS
330
27D2A
102
}
330
27D2A
100
AcDbXrecord
280
     1
102
RTVSPropertyOp0
 70
     1
102
RTVSPropertyOp1
 70
     1
102
RTVSPropertyOp2
 70
     1
102
RTVSPropertyOp3
 70
     1
102
RTVSPropertyOp4
 70
     1
102
RTVSPropertyOp5
 70
     1
102
RTVSPropertyOp6
 70
     1
102
RTVSPropertyOp7
 70
     1
102
RTVSPropertyOp8
 70
     1
102
RTVSPropertyOp9
 70
     1
102
RTVSPropertyOp10
 70
     1
102
RTVSPropertyOp11
 70
     1
102
RTVSPropertyOp12
 70
     1
102
RTVSPropertyOp13
 70
     1
102
RTVSPropertyOp14
 70
     1
102
RTVSPropertyOp15
 70
     1
102
RTVSPropertyOp16
 70
     1
102
RTVSPropertyOp17
 70
     1
102
RTVSPropertyOp18
 70
     1
102
RTVSPropertyOp19
 70
     1
102
RTVSPropertyOp20
 70
     1
102
RTVSPropertyOp21
 70
     1
102
RTVSPropertyOp22
 70
     1
102
RTVSPropertyOp23
 70
     1
102
RTVSPropertyOp24
 70
     1
102
RTVSPropertyOp25
 70
     1
102
RTVSPropertyOp26
 70
     1
102
RTVSPropertyOp27
 70
     1
102
RTVSPropertyOp28
 70
     1
102
RTVSPropertyOp29
 70
     1
102
RTVSPropertyOp30
 70
     1
102
RTVSPropertyOp31
 70
     1
102
RTVSPropertyOp32
 70
     1
  0
XRECORD
  5
27D33
102
{ACAD_REACTORS
330
27D32
102
}
330
27D32
100
AcDbXrecord
280
     1
102
RTVSPropertyOp0
 70
     1
102
RTVSPropertyOp1
 70
     1
102
RTVSPropertyOp2
 70
     1
102
RTVSPropertyOp3
 70
     1
102
RTVSPropertyOp4
 70
     1
102
RTVSPropertyOp5
 70
     1
102
RTVSPropertyOp6
 70
     1
102
RTVSPropertyOp7
 70
     1
102
RTVSPropertyOp8
 70
     1
102
RTVSPropertyOp9
 70
     1
102
RTVSPropertyOp10
 70
     1
102
RTVSPropertyOp11
 70
     1
102
RTVSPropertyOp12
 70
     1
102
RTVSPropertyOp13
 70
     1
102
RTVSPropertyOp14
 70
     1
102
RTVSPropertyOp15
 70
     1
102
RTVSPropertyOp16
 70
     1
102
RTVSPropertyOp17
 70
     1
102
RTVSPropertyOp18
 70
     1
102
RTVSPropertyOp19
 70
     1
102
RTVSPropertyOp20
 70
     1
102
RTVSPropertyOp21
 70
     1
102
RTVSPropertyOp22
 70
     1
102
RTVSPropertyOp23
 70
     1
102
RTVSPropertyOp24
 70
     1
102
RTVSPropertyOp25
 70
     1
102
RTVSPropertyOp26
 70
     1
102
RTVSPropertyOp27
 70
     1
102
RTVSPropertyOp28
 70
     1
102
RTVSPropertyOp29
 70
     1
102
RTVSPropertyOp30
 70
     1
102
RTVSPropertyOp31
 70
     1
102
RTVSPropertyOp32
 70
     1
  0
XRECORD
  5
27D4F
102
{ACAD_REACTORS
330
27D4E
102
}
330
27D4E
100
AcDbXrecord
280
     1
102
RTVSPropertyOp0
 70
     0
102
RTVSPropertyOp1
 70
     0
102
RTVSPropertyOp2
 70
     0
102
RTVSPropertyOp3
 70
     0
102
RTVSPropertyOp4
 70
     0
102
RTVSPropertyOp5
 70
     0
102
RTVSPropertyOp6
 70
     0
102
RTVSPropertyOp7
 70
     0
102
RTVSPropertyOp8
 70
     0
102
RTVSPropertyOp9
 70
     0
102
RTVSPropertyOp10
 70
     0
102
RTVSPropertyOp11
 70
     0
102
RTVSPropertyOp12
 70
     0
102
RTVSPropertyOp13
 70
     0
102
RTVSPropertyOp14
 70
     2
102
RTVSPropertyOp15
 70
     0
102
RTVSPropertyOp16
 70
     0
102
RTVSPropertyOp17
 70
     0
102
RTVSPropertyOp18
 70
     0
102
RTVSPropertyOp19
 70
     0
102
RTVSPropertyOp20
 70
     0
102
RTVSPropertyOp21
 70
     0
102
RTVSPropertyOp22
 70
     0
102
RTVSPropertyOp23
 70
     0
102
RTVSPropertyOp24
 70
     0
102
RTVSPropertyOp25
 70
     0
102
RTVSPropertyOp26
 70
     0
102
RTVSPropertyOp27
 70
     0
102
RTVSPropertyOp28
 70
     0
102
RTVSPropertyOp29
 70
     0
102
RTVSPropertyOp30
 70
     0
102
RTVSPropertyOp31
 70
     0
102
RTVSPropertyOp32
 70
     0
  0
XRECORD
  5
27D3F
102
{ACAD_REACTORS
330
27D3E
102
}
330
27D3E
100
AcDbXrecord
280
     1
102
RTVSPropertyOp0
 70
     1
102
RTVSPropertyOp1
 70
     1
102
RTVSPropertyOp2
 70
     1
102
RTVSPropertyOp3
 70
     1
102
RTVSPropertyOp4
 70
     1
102
RTVSPropertyOp5
 70
     1
102
RTVSPropertyOp6
 70
     1
102
RTVSPropertyOp7
 70
     1
102
RTVSPropertyOp8
 70
     1
102
RTVSPropertyOp9
 70
     1
102
RTVSPropertyOp10
 70
     1
102
RTVSPropertyOp11
 70
     1
102
RTVSPropertyOp12
 70
     1
102
RTVSPropertyOp13
 70
     1
102
RTVSPropertyOp14
 70
     1
102
RTVSPropertyOp15
 70
     1
102
RTVSPropertyOp16
 70
     1
102
RTVSPropertyOp17
 70
     1
102
RTVSPropertyOp18
 70
     1
102
RTVSPropertyOp19
 70
     1
102
RTVSPropertyOp20
 70
     1
102
RTVSPropertyOp21
 70
     1
102
RTVSPropertyOp22
 70
     1
102
RTVSPropertyOp23
 70
     1
102
RTVSPropertyOp24
 70
     1
102
RTVSPropertyOp25
 70
     1
102
RTVSPropertyOp26
 70
     1
102
RTVSPropertyOp27
 70
     1
102
RTVSPropertyOp28
 70
     1
102
RTVSPropertyOp29
 70
     1
102
RTVSPropertyOp30
 70
     1
102
RTVSPropertyOp31
 70
     1
102
RTVSPropertyOp32
 70
     1
  0
XRECORD
  5
27D51
102
{ACAD_REACTORS
330
27D50
102
}
330
27D50
100
AcDbXrecord
280
     1
102
RTVSPropertyOp0
 70
     0
102
RTVSPropertyOp1
 70
     0
102
RTVSPropertyOp2
 70
     0
102
RTVSPropertyOp3
 70
     0
102
RTVSPropertyOp4
 70
     0
102
RTVSPropertyOp5
 70
     0
102
RTVSPropertyOp6
 70
     0
102
RTVSPropertyOp7
 70
     0
102
RTVSPropertyOp8
 70
     0
102
RTVSPropertyOp9
 70
     0
102
RTVSPropertyOp10
 70
     0
102
RTVSPropertyOp11
 70
     0
102
RTVSPropertyOp12
 70
     0
102
RTVSPropertyOp13
 70
     0
102
RTVSPropertyOp14
 70
     2
102
RTVSPropertyOp15
 70
     0
102
RTVSPropertyOp16
 70
     0
102
RTVSPropertyOp17
 70
     0
102
RTVSPropertyOp18
 70
     0
102
RTVSPropertyOp19
 70
     0
102
RTVSPropertyOp20
 70
     0
102
RTVSPropertyOp21
 70
     0
102
RTVSPropertyOp22
 70
     0
102
RTVSPropertyOp23
 70
     0
102
RTVSPropertyOp24
 70
     0
102
RTVSPropertyOp25
 70
     0
102
RTVSPropertyOp26
 70
     0
102
RTVSPropertyOp27
 70
     0
102
RTVSPropertyOp28
 70
     0
102
RTVSPropertyOp29
 70
     0
102
RTVSPropertyOp30
 70
     0
102
RTVSPropertyOp31
 70
     0
102
RTVSPropertyOp32
 70
     0
  0
XRECORD
  5
27D37
102
{ACAD_REACTORS
330
27D36
102
}
330
27D36
100
AcDbXrecord
280
     1
102
RTVSPropertyOp0
 70
     1
102
RTVSPropertyOp1
 70
     1
102
RTVSPropertyOp2
 70
     1
102
RTVSPropertyOp3
 70
     1
102
RTVSPropertyOp4
 70
     1
102
RTVSPropertyOp5
 70
     1
102
RTVSPropertyOp6
 70
     1
102
RTVSPropertyOp7
 70
     1
102
RTVSPropertyOp8
 70
     1
102
RTVSPropertyOp9
 70
     1
102
RTVSPropertyOp10
 70
     1
102
RTVSPropertyOp11
 70
     1
102
RTVSPropertyOp12
 70
     1
102
RTVSPropertyOp13
 70
     1
102
RTVSPropertyOp14
 70
     1
102
RTVSPropertyOp15
 70
     1
102
RTVSPropertyOp16
 70
     1
102
RTVSPropertyOp17
 70
     1
102
RTVSPropertyOp18
 70
     1
102
RTVSPropertyOp19
 70
     1
102
RTVSPropertyOp20
 70
     1
102
RTVSPropertyOp21
 70
     1
102
RTVSPropertyOp22
 70
     1
102
RTVSPropertyOp23
 70
     1
102
RTVSPropertyOp24
 70
     1
102
RTVSPropertyOp25
 70
     1
102
RTVSPropertyOp26
 70
     1
102
RTVSPropertyOp27
 70
     1
102
RTVSPropertyOp28
 70
     1
102
RTVSPropertyOp29
 70
     1
102
RTVSPropertyOp30
 70
     1
102
RTVSPropertyOp31
 70
     1
102
RTVSPropertyOp32
 70
     1
  0
XRECORD
  5
27D4D
102
{ACAD_REACTORS
330
27D4C
102
}
330
27D4C
100
AcDbXrecord
280
     1
102
RTVSPropertyOp0
 70
     1
102
RTVSPropertyOp1
 70
     1
102
RTVSPropertyOp2
 70
     1
102
RTVSPropertyOp3
 70
     1
102
RTVSPropertyOp4
 70
     1
102
RTVSPropertyOp5
 70
     1
102
RTVSPropertyOp6
 70
     1
102
RTVSPropertyOp7
 70
     1
102
RTVSPropertyOp8
 70
     1
102
RTVSPropertyOp9
 70
     1
102
RTVSPropertyOp10
 70
     1
102
RTVSPropertyOp11
 70
     1
102
RTVSPropertyOp12
 70
     1
102
RTVSPropertyOp13
 70
     1
102
RTVSPropertyOp14
 70
     1
102
RTVSPropertyOp15
 70
     1
102
RTVSPropertyOp16
 70
     1
102
RTVSPropertyOp17
 70
     1
102
RTVSPropertyOp18
 70
     1
102
RTVSPropertyOp19
 70
     1
102
RTVSPropertyOp20
 70
     1
102
RTVSPropertyOp21
 70
     1
102
RTVSPropertyOp22
 70
     1
102
RTVSPropertyOp23
 70
     1
102
RTVSPropertyOp24
 70
     1
102
RTVSPropertyOp25
 70
     1
102
RTVSPropertyOp26
 70
     1
102
RTVSPropertyOp27
 70
     1
102
RTVSPropertyOp28
 70
     1
102
RTVSPropertyOp29
 70
     1
102
RTVSPropertyOp30
 70
     1
102
RTVSPropertyOp31
 70
     1
102
RTVSPropertyOp32
 70
     1
  0
XRECORD
  5
27D4B
102
{ACAD_REACTORS
330
27D4A
102
}
330
27D4A
100
AcDbXrecord
280
     1
102
RTVSPropertyOp0
 70
     1
102
RTVSPropertyOp1
 70
     1
102
RTVSPropertyOp2
 70
     1
102
RTVSPropertyOp3
 70
     1
102
RTVSPropertyOp4
 70
     1
102
RTVSPropertyOp5
 70
     1
102
RTVSPropertyOp6
 70
     1
102
RTVSPropertyOp7
 70
     1
102
RTVSPropertyOp8
 70
     1
102
RTVSPropertyOp9
 70
     1
102
RTVSPropertyOp10
 70
     1
102
RTVSPropertyOp11
 70
     1
102
RTVSPropertyOp12
 70
     1
102
RTVSPropertyOp13
 70
     1
102
RTVSPropertyOp14
 70
     1
102
RTVSPropertyOp15
 70
     1
102
RTVSPropertyOp16
 70
     1
102
RTVSPropertyOp17
 70
     1
102
RTVSPropertyOp18
 70
     1
102
RTVSPropertyOp19
 70
     1
102
RTVSPropertyOp20
 70
     1
102
RTVSPropertyOp21
 70
     1
102
RTVSPropertyOp22
 70
     1
102
RTVSPropertyOp23
 70
     1
102
RTVSPropertyOp24
 70
     1
102
RTVSPropertyOp25
 70
     1
102
RTVSPropertyOp26
 70
     1
102
RTVSPropertyOp27
 70
     1
102
RTVSPropertyOp28
 70
     1
102
RTVSPropertyOp29
 70
     1
102
RTVSPropertyOp30
 70
     1
102
RTVSPropertyOp31
 70
     1
102
RTVSPropertyOp32
 70
     1
  0
XRECORD
  5
27D45
102
{ACAD_REACTORS
330
27D44
102
}
330
27D44
100
AcDbXrecord
280
     1
102
RTVSPropertyOp0
 70
     1
102
RTVSPropertyOp1
 70
     1
102
RTVSPropertyOp2
 70
     1
102
RTVSPropertyOp3
 70
     1
102
RTVSPropertyOp4
 70
     1
102
RTVSPropertyOp5
 70
     1
102
RTVSPropertyOp6
 70
     1
102
RTVSPropertyOp7
 70
     1
102
RTVSPropertyOp8
 70
     1
102
RTVSPropertyOp9
 70
     1
102
RTVSPropertyOp10
 70
     1
102
RTVSPropertyOp11
 70
     1
102
RTVSPropertyOp12
 70
     1
102
RTVSPropertyOp13
 70
     1
102
RTVSPropertyOp14
 70
     1
102
RTVSPropertyOp15
 70
     1
102
RTVSPropertyOp16
 70
     1
102
RTVSPropertyOp17
 70
     1
102
RTVSPropertyOp18
 70
     1
102
RTVSPropertyOp19
 70
     1
102
RTVSPropertyOp20
 70
     1
102
RTVSPropertyOp21
 70
     1
102
RTVSPropertyOp22
 70
     1
102
RTVSPropertyOp23
 70
     1
102
RTVSPropertyOp24
 70
     1
102
RTVSPropertyOp25
 70
     1
102
RTVSPropertyOp26
 70
     1
102
RTVSPropertyOp27
 70
     1
102
RTVSPropertyOp28
 70
     1
102
RTVSPropertyOp29
 70
     1
102
RTVSPropertyOp30
 70
     1
102
RTVSPropertyOp31
 70
     1
102
RTVSPropertyOp32
 70
     1
  0
XRECORD
  5
27D47
102
{ACAD_REACTORS
330
27D46
102
}
330
27D46
100
AcDbXrecord
280
     1
102
RTVSPropertyOp0
 70
     1
102
RTVSPropertyOp1
 70
     1
102
RTVSPropertyOp2
 70
     1
102
RTVSPropertyOp3
 70
     1
102
RTVSPropertyOp4
 70
     1
102
RTVSPropertyOp5
 70
     1
102
RTVSPropertyOp6
 70
     1
102
RTVSPropertyOp7
 70
     1
102
RTVSPropertyOp8
 70
     1
102
RTVSPropertyOp9
 70
     1
102
RTVSPropertyOp10
 70
     1
102
RTVSPropertyOp11
 70
     1
102
RTVSPropertyOp12
 70
     1
102
RTVSPropertyOp13
 70
     1
102
RTVSPropertyOp14
 70
     1
102
RTVSPropertyOp15
 70
     1
102
RTVSPropertyOp16
 70
     1
102
RTVSPropertyOp17
 70
     1
102
RTVSPropertyOp18
 70
     1
102
RTVSPropertyOp19
 70
     1
102
RTVSPropertyOp20
 70
     1
102
RTVSPropertyOp21
 70
     1
102
RTVSPropertyOp22
 70
     1
102
RTVSPropertyOp23
 70
     1
102
RTVSPropertyOp24
 70
     1
102
RTVSPropertyOp25
 70
     1
102
RTVSPropertyOp26
 70
     1
102
RTVSPropertyOp27
 70
     1
102
RTVSPropertyOp28
 70
     1
102
RTVSPropertyOp29
 70
     1
102
RTVSPropertyOp30
 70
     1
102
RTVSPropertyOp31
 70
     1
102
RTVSPropertyOp32
 70
     1
  0
XRECORD
  5
27D3D
102
{ACAD_REACTORS
330
27D3C
102
}
330
27D3C
100
AcDbXrecord
280
     1
102
RTVSPropertyOp0
 70
     1
102
RTVSPropertyOp1
 70
     1
102
RTVSPropertyOp2
 70
     1
102
RTVSPropertyOp3
 70
     1
102
RTVSPropertyOp4
 70
     1
102
RTVSPropertyOp5
 70
     1
102
RTVSPropertyOp6
 70
     1
102
RTVSPropertyOp7
 70
     1
102
RTVSPropertyOp8
 70
     1
102
RTVSPropertyOp9
 70
     1
102
RTVSPropertyOp10
 70
     1
102
RTVSPropertyOp11
 70
     1
102
RTVSPropertyOp12
 70
     1
102
RTVSPropertyOp13
 70
     1
102
RTVSPropertyOp14
 70
     1
102
RTVSPropertyOp15
 70
     1
102
RTVSPropertyOp16
 70
     1
102
RTVSPropertyOp17
 70
     1
102
RTVSPropertyOp18
 70
     1
102
RTVSPropertyOp19
 70
     1
102
RTVSPropertyOp20
 70
     1
102
RTVSPropertyOp21
 70
     1
102
RTVSPropertyOp22
 70
     1
102
RTVSPropertyOp23
 70
     1
102
RTVSPropertyOp24
 70
     1
102
RTVSPropertyOp25
 70
     1
102
RTVSPropertyOp26
 70
     1
102
RTVSPropertyOp27
 70
     1
102
RTVSPropertyOp28
 70
     1
102
RTVSPropertyOp29
 70
     1
102
RTVSPropertyOp30
 70
     1
102
RTVSPropertyOp31
 70
     1
102
RTVSPropertyOp32
 70
     1
  0
XRECORD
  5
27D31
102
{ACAD_REACTORS
330
27D30
102
}
330
27D30
100
AcDbXrecord
280
     1
102
RTVSPropertyOp0
 70
     1
102
RTVSPropertyOp1
 70
     1
102
RTVSPropertyOp2
 70
     1
102
RTVSPropertyOp3
 70
     1
102
RTVSPropertyOp4
 70
     1
102
RTVSPropertyOp5
 70
     1
102
RTVSPropertyOp6
 70
     1
102
RTVSPropertyOp7
 70
     1
102
RTVSPropertyOp8
 70
     1
102
RTVSPropertyOp9
 70
     1
102
RTVSPropertyOp10
 70
     1
102
RTVSPropertyOp11
 70
     1
102
RTVSPropertyOp12
 70
     1
102
RTVSPropertyOp13
 70
     1
102
RTVSPropertyOp14
 70
     1
102
RTVSPropertyOp15
 70
     1
102
RTVSPropertyOp16
 70
     1
102
RTVSPropertyOp17
 70
     1
102
RTVSPropertyOp18
 70
     1
102
RTVSPropertyOp19
 70
     1
102
RTVSPropertyOp20
 70
     1
102
RTVSPropertyOp21
 70
     1
102
RTVSPropertyOp22
 70
     1
102
RTVSPropertyOp23
 70
     1
102
RTVSPropertyOp24
 70
     1
102
RTVSPropertyOp25
 70
     1
102
RTVSPropertyOp26
 70
     1
102
RTVSPropertyOp27
 70
     1
102
RTVSPropertyOp28
 70
     1
102
RTVSPropertyOp29
 70
     1
102
RTVSPropertyOp30
 70
     1
102
RTVSPropertyOp31
 70
     1
102
RTVSPropertyOp32
 70
     1
  0
XRECORD
  5
27D49
102
{ACAD_REACTORS
330
27D48
102
}
330
27D48
100
AcDbXrecord
280
     1
102
RTVSPropertyOp0
 70
     1
102
RTVSPropertyOp1
 70
     1
102
RTVSPropertyOp2
 70
     1
102
RTVSPropertyOp3
 70
     1
102
RTVSPropertyOp4
 70
     1
102
RTVSPropertyOp5
 70
     1
102
RTVSPropertyOp6
 70
     1
102
RTVSPropertyOp7
 70
     1
102
RTVSPropertyOp8
 70
     1
102
RTVSPropertyOp9
 70
     1
102
RTVSPropertyOp10
 70
     1
102
RTVSPropertyOp11
 70
     1
102
RTVSPropertyOp12
 70
     1
102
RTVSPropertyOp13
 70
     1
102
RTVSPropertyOp14
 70
     1
102
RTVSPropertyOp15
 70
     1
102
RTVSPropertyOp16
 70
     1
102
RTVSPropertyOp17
 70
     1
102
RTVSPropertyOp18
 70
     1
102
RTVSPropertyOp19
 70
     1
102
RTVSPropertyOp20
 70
     1
102
RTVSPropertyOp21
 70
     1
102
RTVSPropertyOp22
 70
     1
102
RTVSPropertyOp23
 70
     1
102
RTVSPropertyOp24
 70
     1
102
RTVSPropertyOp25
 70
     1
102
RTVSPropertyOp26
 70
     1
102
RTVSPropertyOp27
 70
     1
102
RTVSPropertyOp28
 70
     1
102
RTVSPropertyOp29
 70
     1
102
RTVSPropertyOp30
 70
     1
102
RTVSPropertyOp31
 70
     1
102
RTVSPropertyOp32
 70
     1
  0
ENDSEC
  0
EOF
