  0
SECTION
  2
HEADER
  9
$ACADVER
  1
AC1015
  9
$ACADMAINTVER
 70
    13
  9
$DWGCODEPAGE
  3
ANSI_932
  9
$INSBASE
 10
267.0
 20
194.8999999999998
 30
0.0
  9
$EXTMIN
 10
325.4974662390304
 20
122.7681178119601
 30
-0.0000000000000053
  9
$EXTMAX
 10
12286.99954069103
 20
8431.707478684501
 30
0.00000000000001
  9
$LIMMIN
 10
0.0
 20
0.0
  9
$LIMMAX
 10
12600.0
 20
8910.0
  9
$ORTHOMODE
 70
     0
  9
$REGENMODE
 70
     1
  9
$FILLMODE
 70
     1
  9
$QTEXTMODE
 70
     0
  9
$MIRRTEXT
 70
     0
  9
$LTSCALE
 40
30.0
  9
$ATTMODE
 70
     1
  9
$TEXTSIZE
 40
0.2
  9
$TRACEWID
 40
0.05
  9
$TEXTSTYLE
  7
00
  9
$CLAYER
  8
SUNPOU
  9
$CELTYPE
  6
ByLayer
  9
$CECOLOR
 62
   256
  9
$CELTSCALE
 40
1.0
  9
$DISPSILH
 70
     0
  9
$DIMSCALE
 40
30.0
  9
$DIMASZ
 40
0.5
  9
$DIMEXO
 40
1.0
  9
$DIMDLI
 40
7.0
  9
$DIMRND
 40
0.0
  9
$DIMDLE
 40
3.0
  9
$DIMEXE
 40
1.5
  9
$DIMTP
 40
0.0
  9
$DIMTM
 40
0.0
  9
$DIMTXT
 40
3.0
  9
$DIMCEN
 40
0.0
  9
$DIMTSZ
 40
0.0
  9
$DIMTOL
 70
     0
  9
$DIMLIM
 70
     0
  9
$DIMTIH
 70
     0
  9
$DIMTOH
 70
     0
  9
$DIMSE1
 70
     0
  9
$DIMSE2
 70
     0
  9
$DIMTAD
 70
     1
  9
$DIMZIN
 70
     8
  9
$DIMBLK
  1
DOT
  9
$DIMASO
 70
     1
  9
$DIMSHO
 70
     0
  9
$DIMPOST
  1

  9
$DIMAPOST
  1

  9
$DIMALT
 70
     0
  9
$DIMALTD
 70
     2
  9
$DIMALTF
 40
25.4
  9
$DIMLFAC
 40
1.0
  9
$DIMTOFL
 70
     1
  9
$DIMTVP
 40
0.0
  9
$DIMTIX
 70
     0
  9
$DIMSOXD
 70
     0
  9
$DIMSAH
 70
     1
  9
$DIMBLK1
  1
DOT
  9
$DIMBLK2
  1
DOT
  9
$DIMSTYLE
  2
SUNPOU
  9
$DIMCLRD
 70
   256
  9
$DIMCLRE
 70
   256
  9
$DIMCLRT
 70
   256
  9
$DIMTFAC
 40
1.0
  9
$DIMGAP
 40
1.5
  9
$DIMJUST
 70
     0
  9
$DIMSD1
 70
     0
  9
$DIMSD2
 70
     0
  9
$DIMTOLJ
 70
     1
  9
$DIMTZIN
 70
     0
  9
$DIMALTZ
 70
     0
  9
$DIMALTTZ
 70
     0
  9
$DIMUPT
 70
     0
  9
$DIMDEC
 70
     4
  9
$DIMTDEC
 70
     4
  9
$DIMALTU
 70
     2
  9
$DIMALTTD
 70
     2
  9
$DIMTXSTY
  7
STANDARD
  9
$DIMAUNIT
 70
     0
  9
$DIMADEC
 70
     0
  9
$DIMALTRND
 40
0.0
  9
$DIMAZIN
 70
     0
  9
$DIMDSEP
 70
    46
  9
$DIMATFIT
 70
     3
  9
$DIMFRAC
 70
     0
  9
$DIMLDRBLK
  1
DOT
  9
$DIMLUNIT
 70
     2
  9
$DIMLWD
 70
    -2
  9
$DIMLWE
 70
    -2
  9
$DIMTMOVE
 70
     0
  9
$LUNITS
 70
     2
  9
$LUPREC
 70
     2
  9
$SKETCHINC
 40
0.1
  9
$FILLETRAD
 40
5.0
  9
$AUNITS
 70
     0
  9
$AUPREC
 70
     0
  9
$MENU
  1
A:\TIGER\MENU\TIGER
  9
$ELEVATION
 40
0.0
  9
$PELEVATION
 40
0.0
  9
$THICKNESS
 40
0.0
  9
$LIMCHECK
 70
     0
  9
$CHAMFERA
 40
0.0
  9
$CHAMFERB
 40
0.0
  9
$CHAMFERC
 40
0.0
  9
$CHAMFERD
 40
0.0
  9
$SKPOLY
 70
     0
  9
$TDCREATE
 40
2450266.571064815
  9
$TDUCREATE
 40
2450266.196064815
  9
$TDUPDATE
 40
2456330.574556748
  9
$TDUUPDATE
 40
2456330.199556747
  9
$TDINDWG
 40
0.3040652431
  9
$TDUSRTIMER
 40
0.3040650579
  9
$USRTIMER
 70
     1
  9
$ANGBASE
 50
0.0
  9
$ANGDIR
 70
     0
  9
$PDMODE
 70
     0
  9
$PDSIZE
 40
0.0
  9
$PLINEWID
 40
0.0
  9
$SPLFRAME
 70
     0
  9
$SPLINETYPE
 70
     6
  9
$SPLINESEGS
 70
     8
  9
$HANDSEED
  5
28084
  9
$SURFTAB1
 70
     6
  9
$SURFTAB2
 70
     6
  9
$SURFTYPE
 70
     6
  9
$SURFU
 70
     6
  9
$SURFV
 70
     6
  9
$UCSBASE
  2

  9
$UCSNAME
  2

  9
$UCSORG
 10
0.0
 20
0.0
 30
0.0
  9
$UCSXDIR
 10
1.0
 20
0.0
 30
0.0
  9
$UCSYDIR
 10
0.0
 20
1.0
 30
0.0
  9
$UCSORTHOREF
  2

  9
$UCSORTHOVIEW
 70
     0
  9
$UCSORGTOP
 10
0.0
 20
0.0
 30
0.0
  9
$UCSORGBOTTOM
 10
0.0
 20
0.0
 30
0.0
  9
$UCSORGLEFT
 10
0.0
 20
0.0
 30
0.0
  9
$UCSORGRIGHT
 10
0.0
 20
0.0
 30
0.0
  9
$UCSORGFRONT
 10
0.0
 20
0.0
 30
0.0
  9
$UCSORGBACK
 10
0.0
 20
0.0
 30
0.0
  9
$PUCSBASE
  2

  9
$PUCSNAME
  2

  9
$PUCSORG
 10
0.0
 20
0.0
 30
0.0
  9
$PUCSXDIR
 10
1.0
 20
0.0
 30
0.0
  9
$PUCSYDIR
 10
0.0
 20
1.0
 30
0.0
  9
$PUCSORTHOREF
  2

  9
$PUCSORTHOVIEW
 70
     0
  9
$PUCSORGTOP
 10
0.0
 20
0.0
 30
0.0
  9
$PUCSORGBOTTOM
 10
0.0
 20
0.0
 30
0.0
  9
$PUCSORGLEFT
 10
0.0
 20
0.0
 30
0.0
  9
$PUCSORGRIGHT
 10
0.0
 20
0.0
 30
0.0
  9
$PUCSORGFRONT
 10
0.0
 20
0.0
 30
0.0
  9
$PUCSORGBACK
 10
0.0
 20
0.0
 30
0.0
  9
$USERI1
 70
     3
  9
$USERI2
 70
     0
  9
$USERI3
 70
     0
  9
$USERI4
 70
     0
  9
$USERI5
 70
  1103
  9
$USERR1
 40
0.0
  9
$USERR2
 40
1.0
  9
$USERR3
 40
0.0
  9
$USERR4
 40
0.0
  9
$USERR5
 40
0.0
  9
$WORLDVIEW
 70
     1
  9
$SHADEDGE
 70
     3
  9
$SHADEDIF
 70
    70
  9
$TILEMODE
 70
     1
  9
$MAXACTVP
 70
    16
  9
$PINSBASE
 10
0.0
 20
0.0
 30
0.0
  9
$PLIMCHECK
 70
     0
  9
$PEXTMIN
 10
1.000000000000000E+20
 20
1.000000000000000E+20
 30
1.000000000000000E+20
  9
$PEXTMAX
 10
-1.000000000000000E+20
 20
-1.000000000000000E+20
 30
-1.000000000000000E+20
  9
$PLIMMIN
 10
0.0
 20
0.0
  9
$PLIMMAX
 10
12.0
 20
9.0
  9
$UNITMODE
 70
     0
  9
$VISRETAIN
 70
     0
  9
$PLINEGEN
 70
     1
  9
$PSLTSCALE
 70
     0
  9
$TREEDEPTH
 70
  3020
  9
$CMLSTYLE
  2
Standard
  9
$CMLJUST
 70
     0
  9
$CMLSCALE
 40
1.0
  9
$PROXYGRAPHICS
 70
     1
  9
$MEASUREMENT
 70
     0
  9
$CELWEIGHT
370
    -1
  9
$ENDCAPS
280
     0
  9
$JOINSTYLE
280
     0
  9
$LWDISPLAY
290
     0
  9
$INSUNITS
 70
     0
  9
$HYPERLINKBASE
  1

  9
$STYLESHEET
  1

  9
$XEDIT
290
     1
  9
$CEPSNTYPE
380
     0
  9
$PSTYLEMODE
290
     1
  9
$FINGERPRINTGUID
  2
{63968B36-32AD-459A-A2FB-8E36EB3DC2CD}
  9
$VERSIONGUID
  2
{781C5D45-DDA7-4ED9-975E-61011BCC3D5B}
  9
$EXTNAMES
290
     1
  9
$PSVPSCALE
 40
0.0
  9
$OLESTARTUP
290
     0
  0
ENDSEC
  0
SECTION
  2
CLASSES
  0
CLASS
  1
ACDBDICTIONARYWDFLT
  2
AcDbDictionaryWithDefault
  3
AutoCAD 2000
 90
        0
280
     0
281
     0
  0
CLASS
  1
ACDBPLACEHOLDER
  2
AcDbPlaceHolder
  3
AutoCAD 2000
 90
        0
280
     0
281
     0
  0
CLASS
  1
LAYOUT
  2
AcDbLayout
  3
AutoCAD 2000
 90
        0
280
     0
281
     0
  0
CLASS
  1
DICTIONARYVAR
  2
AcDbDictionaryVar
  3
AutoCAD 2000
 90
        0
280
     0
281
     0
  0
ENDSEC
  0
SECTION
  2
TABLES
  0
TABLE
  2
VPORT
  5
27C35
330
0
100
AcDbSymbolTable
 70
     2
  0
VPORT
  5
28083
330
27C35
100
AcDbSymbolTableRecord
100
AcDbViewportTableRecord
  2
*Active
 70
     0
 10
0.0
 20
0.0
 11
1.0
 21
1.0
 12
6306.248503465031
 22
4277.23779824823
 13
0.0
 23
0.0
 14
1.0
 24
1.0
 15
0.0
 25
0.0
 16
0.0
 26
0.0
 36
1.0
 17
0.0
 27
0.0
 37
0.0
 40
8372.629037979738
 41
1.527918781725888
 42
50.0
 43
0.0
 44
0.0
 50
0.0
 51
0.0
 71
     0
 72
 10000
 73
     1
 74
     0
 75
     0
 76
     0
 77
     0
 78
     0
281
     0
 65
     1
110
0.0
120
0.0
130
0.0
111
1.0
121
0.0
131
0.0
112
0.0
122
1.0
132
0.0
 79
     0
146
0.0
  0
ENDTAB
  0
TABLE
  2
LTYPE
  5
27C32
330
0
100
AcDbSymbolTable
 70
     4
  0
LTYPE
  5
27C40
330
27C32
100
AcDbSymbolTableRecord
100
AcDbLinetypeTableRecord
  2
ByBlock
 70
     0
  3

 72
    65
 73
     0
 40
0.0
  0
LTYPE
  5
27C41
330
27C32
100
AcDbSymbolTableRecord
100
AcDbLinetypeTableRecord
  2
ByLayer
 70
     0
  3

 72
    65
 73
     0
 40
0.0
  0
LTYPE
  5
27C42
330
27C32
100
AcDbSymbolTableRecord
100
AcDbLinetypeTableRecord
  2
CONTINUOUS
 70
     0
  3
実線
 72
    65
 73
     0
 40
0.0
  0
LTYPE
  5
27C52
330
27C32
100
AcDbSymbolTableRecord
100
AcDbLinetypeTableRecord
  2
1PL-M
 70
     0
  3

 72
    65
 73
     4
 40
15.0
 49
12.0
 74
     0
 49
-1.0
 74
     0
 49
1.0
 74
     0
 49
-1.0
 74
     0
  0
LTYPE
  5
27C53
330
27C32
100
AcDbSymbolTableRecord
100
AcDbLinetypeTableRecord
  2
1PL-S
 70
     0
  3

 72
    65
 73
     4
 40
4.0
 49
2.5
 74
     0
 49
-0.5
 74
     0
 49
0.5
 74
     0
 49
-0.5
 74
     0
  0
LTYPE
  5
27C54
330
27C32
100
AcDbSymbolTableRecord
100
AcDbLinetypeTableRecord
  2
2PL-L
 70
     0
  3

 72
    65
 73
     6
 40
60.0
 49
50.0
 74
     0
 49
-2.0
 74
     0
 49
2.0
 74
     0
 49
-2.0
 74
     0
 49
2.0
 74
     0
 49
-2.0
 74
     0
  0
ENDTAB
  0
TABLE
  2
LAYER
  5
27C2F
330
0
100
AcDbSymbolTable
 70
    17
  0
LAYER
  5
27C3D
330
27C2F
100
AcDbSymbolTableRecord
100
AcDbLayerTableRecord
  2
0
 70
     0
 62
     7
  6
CONTINUOUS
370
    -3
390
27C3C
  0
LAYER
  5
27C4F
330
27C2F
100
AcDbSymbolTableRecord
100
AcDbLayerTableRecord
  2
SUNPOU
 70
     0
 62
     4
  6
CONTINUOUS
370
    -3
390
27C3C
  0
LAYER
  5
27C55
330
27C2F
100
AcDbSymbolTableRecord
100
AcDbLayerTableRecord
  2
U2
 70
     0
 62
     4
  6
CONTINUOUS
370
    -3
390
27C3C
  0
LAYER
  5
27C56
330
27C2F
100
AcDbSymbolTableRecord
100
AcDbLayerTableRecord
  2
U3
 70
     0
 62
     6
  6
CONTINUOUS
370
    -3
390
27C3C
  0
LAYER
  5
27C57
330
27C2F
100
AcDbSymbolTableRecord
100
AcDbLayerTableRecord
  2
HIKIDASHI
 70
     0
 62
     6
  6
CONTINUOUS
370
    -3
390
27C3C
  0
LAYER
  5
27C58
330
27C2F
100
AcDbSymbolTableRecord
100
AcDbLayerTableRecord
  2
1PL-S1
 70
     0
 62
     6
  6
1PL-S
370
    -3
390
27C3C
  0
LAYER
  5
27C59
330
27C2F
100
AcDbSymbolTableRecord
100
AcDbLayerTableRecord
  2
1PL-M1
 70
     0
 62
     6
  6
1PL-M
370
    -3
390
27C3C
  0
LAYER
  5
27C5A
330
27C2F
100
AcDbSymbolTableRecord
100
AcDbLayerTableRecord
  2
2PL-L2
 70
     0
 62
     1
  6
2PL-L
370
    -3
390
27C3C
  0
LAYER
  5
27C5B
330
27C2F
100
AcDbSymbolTableRecord
100
AcDbLayerTableRecord
  2
KISO
 70
     0
 62
     2
  6
CONTINUOUS
370
    -3
390
27C3C
  0
LAYER
  5
27C5C
330
27C2F
100
AcDbSymbolTableRecord
100
AcDbLayerTableRecord
  2
HATCH
 70
     0
 62
     1
  6
CONTINUOUS
370
    -3
390
27C3C
  0
LAYER
  5
27C5D
330
27C2F
100
AcDbSymbolTableRecord
100
AcDbLayerTableRecord
  2
NAME
 70
     0
 62
    20
  6
CONTINUOUS
370
    -3
390
27C3C
  0
LAYER
  5
27C5E
330
27C2F
100
AcDbSymbolTableRecord
100
AcDbLayerTableRecord
  2
FILENAME
 70
     0
 62
     7
  6
CONTINUOUS
370
    -3
390
27C3C
  0
LAYER
  5
27C5F
330
27C2F
100
AcDbSymbolTableRecord
100
AcDbLayerTableRecord
  2
HASHIRA
 70
     0
 62
     3
  6
CONTINUOUS
370
    -3
390
27C3C
  0
LAYER
  5
27C60
330
27C2F
100
AcDbSymbolTableRecord
100
AcDbLayerTableRecord
  2
YODOROGO
 70
     0
 62
   130
  6
CONTINUOUS
370
    -3
390
27C3C
  0
LAYER
  5
27C61
330
27C2F
100
AcDbSymbolTableRecord
100
AcDbLayerTableRecord
  2
WAKUSEN-01
 70
     0
 62
    50
  6
CONTINUOUS
370
    -3
390
27C3C
  0
LAYER
  5
27C62
330
27C2F
100
AcDbSymbolTableRecord
100
AcDbLayerTableRecord
  2
WAKUSEN-02
 70
     0
 62
   130
  6
CONTINUOUS
370
    -3
390
27C3C
  0
LAYER
  5
27C63
330
27C2F
100
AcDbSymbolTableRecord
100
AcDbLayerTableRecord
  2
WAKUMOJI-01
 70
     0
 62
   130
  6
CONTINUOUS
370
    -3
390
27C3C
  0
ENDTAB
  0
TABLE
  2
STYLE
  5
27C30
330
0
100
AcDbSymbolTable
 70
     5
  0
STYLE
  5
27C3E
330
27C30
100
AcDbSymbolTableRecord
100
AcDbTextStyleTableRecord
  2
STANDARD
 70
     0
 40
3.0
 41
1.0
 50
0.0
 71
     0
 42
0.2
  3
ROMANS
  4
EXTFONT
  0
STYLE
  5
27C50
330
27C30
100
AcDbSymbolTableRecord
100
AcDbTextStyleTableRecord
  2
00
 70
     0
 40
0.0
 41
0.6666666666666666
 50
0.0
 71
     0
 42
0.2
  3
ROMANS
  4
BIGFONT
  0
STYLE
  5
27C64
330
27C30
100
AcDbSymbolTableRecord
100
AcDbTextStyleTableRecord
  2
01
 70
     0
 40
3.0
 41
1.0
 50
0.0
 71
     0
 42
0.2
  3
ROMANS
  4
BIGFONT
  0
STYLE
  5
27C65
330
27C30
100
AcDbSymbolTableRecord
100
AcDbTextStyleTableRecord
  2
WAKUMOJI
 70
     0
 40
3.0
 41
1.0
 50
0.0
 71
     0
 42
3.0
  3
SIMPLEX
  4
BIGFONT
  0
STYLE
  5
27C66
330
27C30
100
AcDbSymbolTableRecord
100
AcDbTextStyleTableRecord
  2
FILENAME
 70
     0
 40
75.0
 41
1.0
 50
0.0
 71
     0
 42
75.0
  3
romans
  4
bigfont
  0
ENDTAB
  0
TABLE
  2
VIEW
  5
27C33
330
0
100
AcDbSymbolTable
 70
     0
  0
ENDTAB
  0
TABLE
  2
UCS
  5
27C34
330
0
100
AcDbSymbolTable
 70
     0
  0
ENDTAB
  0
TABLE
  2
APPID
  5
27C36
330
0
100
AcDbSymbolTable
 70
     5
  0
APPID
  5
27C3F
330
27C36
100
AcDbSymbolTableRecord
100
AcDbRegAppTableRecord
  2
ACAD
 70
     0
  0
APPID
  5
27C67
330
27C36
100
AcDbSymbolTableRecord
100
AcDbRegAppTableRecord
  2
AUTOCAD_POSTSCRIPT_FIGURE
 70
     0
  0
APPID
  5
27C68
330
27C36
100
AcDbSymbolTableRecord
100
AcDbRegAppTableRecord
  2
ACAD_PSEXT
 70
     0
  0
APPID
  5
27C69
330
27C36
100
AcDbSymbolTableRecord
100
AcDbRegAppTableRecord
  2
ACAD_EXEMPT_FROM_CAD_STANDARDS
 70
     0
  0
APPID
  5
27C6A
330
27C36
100
AcDbSymbolTableRecord
100
AcDbRegAppTableRecord
  2
ACAD_MLEADERVER
 70
     0
  0
ENDTAB
  0
TABLE
  2
DIMSTYLE
  5
27C37
330
0
100
AcDbSymbolTable
 70
     1
100
AcDbDimStyleTable
 71
     0
  0
DIMSTYLE
105
27C6B
330
27C37
100
AcDbSymbolTableRecord
100
AcDbDimStyleTableRecord
  2
SUNPOU
 70
     0
 40
30.0
 41
0.5
 42
1.0
 43
7.0
 44
1.5
 46
3.0
 73
     0
 74
     0
 77
     1
 78
     8
140
3.0
141
0.0
147
1.5
172
     1
173
     1
176
   256
177
   256
178
   256
271
     2
272
     2
279
     2
284
     8
285
     8
286
     8
340
27C50
  0
ENDTAB
  0
TABLE
  2
BLOCK_RECORD
  5
27C2E
330
0
100
AcDbSymbolTable
 70
     8
  0
BLOCK_RECORD
  5
27C4B
330
27C2E
100
AcDbSymbolTableRecord
100
AcDbBlockTableRecord
  2
*Model_Space
340
27C4E
  0
BLOCK_RECORD
  5
27C47
330
27C2E
100
AcDbSymbolTableRecord
100
AcDbBlockTableRecord
  2
*Paper_Space
340
27C4A
  0
BLOCK_RECORD
  5
27C70
330
27C2E
100
AcDbSymbolTableRecord
100
AcDbBlockTableRecord
  2
$MODEL_SPACE
340
0
  0
BLOCK_RECORD
  5
27C73
330
27C2E
100
AcDbSymbolTableRecord
100
AcDbBlockTableRecord
  2
$PAPER_SPACE
340
0
  0
BLOCK_RECORD
  5
27C76
330
27C2E
100
AcDbSymbolTableRecord
100
AcDbBlockTableRecord
  2
DOT
340
0
  0
BLOCK_RECORD
  5
27C7E
330
27C2E
100
AcDbSymbolTableRecord
100
AcDbBlockTableRecord
  2
*U3
340
0
  0
BLOCK_RECORD
  5
27C82
330
27C2E
100
AcDbSymbolTableRecord
100
AcDbBlockTableRecord
  2
*U4
340
0
  0
BLOCK_RECORD
  5
27C86
330
27C2E
100
AcDbSymbolTableRecord
100
AcDbBlockTableRecord
  2
*U5
340
0
  0
BLOCK_RECORD
  5
27C8A
330
27C2E
100
AcDbSymbolTableRecord
100
AcDbBlockTableRecord
  2
*U6
340
0
  0
ENDTAB
  0
ENDSEC
  0
SECTION
  2
BLOCKS
  0
BLOCK
  5
27C4C
330
27C4B
100
AcDbEntity
  8
0
100
AcDbBlockBegin
  2
*Model_Space
 70
     0
 10
0.0
 20
0.0
 30
0.0
  3
*Model_Space
  1

  0
ENDBLK
  5
27C4D
330
27C4B
100
AcDbEntity
  8
0
100
AcDbBlockEnd
  0
BLOCK
  5
27C48
330
27C47
100
AcDbEntity
 67
     1
  8
0
100
AcDbBlockBegin
  2
*Paper_Space
 70
     0
 10
0.0
 20
0.0
 30
0.0
  3
*Paper_Space
  1

  0
ENDBLK
  5
27C49
330
27C47
100
AcDbEntity
 67
     1
  8
0
100
AcDbBlockEnd
  0
BLOCK
  5
27C71
330
27C70
100
AcDbEntity
  8
0
100
AcDbBlockBegin
  2
$MODEL_SPACE
 70
     0
 10
0.0
 20
0.0
 30
0.0
  3
$MODEL_SPACE
  1

  0
ENDBLK
  5
27C72
330
27C70
100
AcDbEntity
  8
0
100
AcDbBlockEnd
  0
BLOCK
  5
27C74
330
27C73
100
AcDbEntity
  8
0
100
AcDbBlockBegin
  2
$PAPER_SPACE
 70
     0
 10
0.0
 20
0.0
 30
0.0
  3
$PAPER_SPACE
  1

  0
ENDBLK
  5
27C75
330
27C73
100
AcDbEntity
  8
0
100
AcDbBlockEnd
  0
BLOCK
  5
27C77
330
27C76
100
AcDbEntity
  8
0
100
AcDbBlockBegin
  2
DOT
 70
     0
 10
0.0
 20
0.0
 30
0.0
  3
DOT
  1

  0
LWPOLYLINE
  5
27C78
330
27C76
100
AcDbEntity
  8
0
  6
ByBlock
 62
     0
100
AcDbPolyline
 90
        2
 70
     1
 43
0.75
 10
-0.375
 20
0.0
 42
1.0
 10
0.375
 20
0.0
 42
1.0
  0
LINE
  5
27C7C
330
27C76
100
AcDbEntity
  8
0
  6
ByBlock
 62
     0
100
AcDbLine
 10
-0.75
 20
0.0
 30
0.0
 11
-1.5
 21
0.0
 31
0.0
  0
ENDBLK
  5
27C7D
330
27C76
100
AcDbEntity
  8
0
100
AcDbBlockEnd
  0
BLOCK
  5
27C7F
330
27C7E
100
AcDbEntity
  8
0
100
AcDbBlockBegin
  2
*U3
 70
     1
 10
0.0
 20
0.0
 30
0.0
  3
*U3
  1

  0
TEXT
  5
27C80
330
27C7E
100
AcDbEntity
  8
SUNPOU
100
AcDbText
 10
1405.036707340869
 20
941.7125251995903
 30
0.0
 40
90.0
  1
900 □
 41
0.6666666666666666
  7
00
100
AcDbText
  0
ENDBLK
  5
27C81
330
27C7E
100
AcDbEntity
  8
0
100
AcDbBlockEnd
  0
BLOCK
  5
27C83
330
27C82
100
AcDbEntity
  8
0
100
AcDbBlockBegin
  2
*U4
 70
     1
 10
0.0
 20
0.0
 30
0.0
  3
*U4
  1

  0
TEXT
  5
27C84
330
27C82
100
AcDbEntity
  8
SUNPOU
100
AcDbText
 10
1405.036707340869
 20
1151.712525199589
 30
0.0
 40
90.0
  1
700 □
 41
0.6666666666666666
  7
00
100
AcDbText
  0
ENDBLK
  5
27C85
330
27C82
100
AcDbEntity
  8
0
100
AcDbBlockEnd
  0
BLOCK
  5
27C87
330
27C86
100
AcDbEntity
  8
0
100
AcDbBlockBegin
  2
*U5
 70
     1
 10
0.0
 20
0.0
 30
0.0
  3
*U5
  1

  0
TEXT
  5
27C88
330
27C86
100
AcDbEntity
  8
SUNPOU
100
AcDbText
 10
3616.53670734087
 20
1875.998239485305
 30
0.0
 40
90.0
  1
500
 50
90.0
 41
0.6666666666666666
  7
00
100
AcDbText
  0
ENDBLK
  5
27C89
330
27C86
100
AcDbEntity
  8
0
100
AcDbBlockEnd
  0
BLOCK
  5
27C8B
330
27C8A
100
AcDbEntity
  8
0
100
AcDbBlockBegin
  2
*U6
 70
     1
 10
0.0
 20
0.0
 30
0.0
  3
*U6
  1

  0
TEXT
  5
27C8C
330
27C8A
100
AcDbEntity
  8
SUNPOU
100
AcDbText
 10
3616.53670734087
 20
1213.855382342448
 30
0.0
 40
90.0
  1
100
 50
90.0
 41
0.6666666666666666
  7
00
100
AcDbText
  0
ENDBLK
  5
27C8D
330
27C8A
100
AcDbEntity
  8
0
100
AcDbBlockEnd
  0
ENDSEC
  0
SECTION
  2
ENTITIES
  0
TEXT
  5
27C8E
330
27C4B
100
AcDbEntity
  8
NAME
100
AcDbText
 10
9402.694977008243
 20
716.2499999999992
 30
0.0
 40
120.0
  1
YOTC
 41
0.7
  7
01
100
AcDbText
  0
TEXT
  5
27C8F
330
27C4B
100
AcDbEntity
  8
NAME
100
AcDbText
 10
8327.765992739108
 20
716.2499999999992
 30
0.0
 40
120.0
  1
ヨド自転車置場      型
  7
01
100
AcDbText
  0
TEXT
  5
27C90
330
27C4B
100
AcDbEntity
  8
NAME
100
AcDbText
 10
8685.634258449118
 20
405.7500000000024
 30
0.0
 40
120.0
  1
型（一般地用）背合せ
 41
0.7
  7
01
100
AcDbText
  0
TEXT
  5
27C91
330
27C4B
100
AcDbEntity
  8
NAME
100
AcDbText
 10
8101.484605933894
 20
405.7500000000024
 30
0.0
 40
120.0
  1
YOTC-315
 41
0.6
  7
01
 72
     2
 11
8650.056034505322
 21
405.7500000000024
 31
0.0
100
AcDbText
  0
TEXT
  5
27C92
330
27C4B
100
AcDbEntity
  8
NAME
100
AcDbText
 10
9685.26209933479
 20
405.7500000000025
 30
0.0
 40
120.0
  1
<3／3>
 41
0.6
  7
01
 72
     2
 11
10059.66209933478
 21
405.7500000000025
 31
0.0
100
AcDbText
  0
LINE
  5
27C93
330
27C4B
100
AcDbEntity
  8
2PL-L2
100
AcDbLine
 10
2204.340641334933
 20
7705.127478609066
 30
0.0
 11
6560.340641334936
 21
7705.127478609066
 31
0.0
  0
LINE
  5
27C94
330
27C4B
100
AcDbEntity
  8
2PL-L2
100
AcDbLine
 10
2204.340641334935
 20
3635.127478609064
 30
0.0
 11
6560.340641334936
 21
3635.127478609064
 31
0.0
  0
TEXT
  5
27C95
330
27C4B
100
AcDbEntity
  8
SUNPOU
100
AcDbText
 10
6210.626355620645
 20
2885.127478609063
 30
0.0
 40
90.0
  1
3150 ×（ N - 2 ）
 41
0.6666666666666666
  7
00
 72
     4
 11
6600.340641334931
 21
2930.127478609063
 31
0.0
100
AcDbText
  0
TEXT
  5
27C96
330
27C4B
100
AcDbEntity
  8
SUNPOU
100
AcDbText
 10
6127.197784192073
 20
2675.127478609063
 30
0.0
 40
90.0
  1
L ＝ 3150 × N ＋ 700
 41
0.6666666666666666
  7
00
 72
     4
 11
6600.340641334931
 21
2720.127478609063
 31
0.0
100
AcDbText
  0
LINE
  5
27C97
330
27C4B
100
AcDbEntity
  8
SUNPOU
100
AcDbLine
 10
5765.34064133493
 20
2840.127478609062
 30
0.0
 11
7435.340641334931
 21
2840.127478609062
 31
0.0
  0
LINE
  5
27C98
330
27C4B
100
AcDbEntity
  8
1PL-M1
100
AcDbLine
 10
2188.757913271066
 20
4640.127478609064
 30
0.0
 11
11082.18396002396
 21
4640.127478609062
 31
0.0
  0
LINE
  5
27C99
330
27C4B
100
AcDbEntity
  8
U3
100
AcDbLine
 10
2250.340641334932
 20
3240.127478609062
 30
0.0
 11
6560.340641334936
 21
3240.127478609063
 31
0.0
  0
LINE
  5
27C9A
330
27C4B
100
AcDbEntity
  8
U3
100
AcDbLine
 10
2250.340641334932
 20
8100.127478609064
 30
0.0
 11
6560.340641334933
 21
8100.127478609064
 31
0.0
  0
LINE
  5
27C9B
330
27C4B
100
AcDbEntity
  8
SUNPOU
100
AcDbLine
 10
2265.340641334927
 20
2630.127478609063
 30
0.0
 11
10935.34064133492
 21
2630.127478609063
 31
0.0
  0
LINE
  5
27C9C
330
27C4B
100
AcDbEntity
  8
1PL-M1
100
AcDbLine
 10
2188.757913271066
 20
6700.127478609063
 30
0.0
 11
11082.18396002396
 21
6700.127478609061
 31
0.0
  0
LINE
  5
27C9D
330
27C4B
100
AcDbEntity
  8
2PL-L2
100
AcDbLine
 10
2204.340641334933
 20
7705.127478609066
 30
0.0
 11
2204.340641334935
 21
3635.127478609064
 31
0.0
  0
LINE
  5
27C9E
330
27C4B
100
AcDbEntity
  8
1PL-M1
100
AcDbLine
 10
2600.340641334933
 20
4239.849618183392
 30
0.0
 11
2600.340641334933
 21
7100.127478609064
 31
0.0
  0
LINE
  5
27C9F
330
27C4B
100
AcDbEntity
  8
1PL-M1
100
AcDbLine
 10
5750.340641334936
 20
4239.849618183392
 30
0.0
 11
5750.340641334936
 21
7100.127478609064
 31
0.0
  0
LINE
  5
27CA0
330
27C4B
100
AcDbEntity
  8
U3
100
AcDbLine
 10
2250.340641334932
 20
3240.127478609062
 30
0.0
 11
2250.340641334932
 21
8100.127478609064
 31
0.0
  0
TEXT
  5
27CA1
330
27C4B
100
AcDbEntity
  8
SUNPOU
100
AcDbText
 10
3675.340641334936
 20
3285.127478609062
 30
0.0
 40
90.0
  1
（土間コン前面位置）
  7
01
 72
     4
 11
4200.340641334936
 21
3330.127478609062
 31
0.0
100
AcDbText
  0
TEXT
  5
27CA2
330
27C4B
100
AcDbEntity
  8
SUNPOU
100
AcDbText
 10
3783.340641334936
 20
3499.969545146267
 30
0.0
 40
90.0
  1
（屋根前面位置）
  7
01
 72
     4
 11
4200.340641334936
 21
3544.969545146267
 31
0.0
100
AcDbText
  0
LINE
  5
27CA3
330
27C4B
100
AcDbEntity
  8
SUNPOU
100
AcDbLine
 10
2615.340641334928
 20
2840.127478609062
 30
0.0
 11
5735.34064133493
 21
2840.127478609062
 31
0.0
  0
LINE
  5
27CA4
330
27C4B
100
AcDbEntity
  8
SUNPOU
100
AcDbLine
 10
2600.340641334933
 20
4209.849618183391
 30
0.0
 11
2600.340641334929
 21
2810.127478609063
 31
0.0
  0
LINE
  5
27CA5
330
27C4B
100
AcDbEntity
  8
SUNPOU
100
AcDbLine
 10
2250.340641334932
 20
3604.969545146267
 30
0.0
 11
2250.340641334929
 21
2600.127478609063
 31
0.0
  0
TEXT
  5
27CA6
330
27C4B
100
AcDbEntity
  8
SUNPOU
100
AcDbText
 10
2339.626355620642
 20
2885.127478609063
 30
0.0
 40
90.0
  1
350
 41
0.6666666666666666
  7
00
 72
     4
 11
2425.340641334928
 21
2930.127478609063
 31
0.0
100
AcDbText
  0
LINE
  5
27CA7
330
27C4B
100
AcDbEntity
  8
SUNPOU
100
AcDbLine
 10
2265.340641334927
 20
2840.127478609062
 30
0.0
 11
2585.340641334929
 21
2840.127478609062
 31
0.0
  0
LINE
  5
27CA8
330
27C4B
100
AcDbEntity
  8
SUNPOU
100
AcDbLine
 10
5750.340641334936
 20
4209.849618183391
 30
0.0
 11
5750.34064133493
 21
2810.127478609063
 31
0.0
  0
TEXT
  5
27CA9
330
27C4B
100
AcDbEntity
  8
SUNPOU
100
AcDbText
 10
4061.054927049212
 20
2885.127478609063
 30
0.0
 40
90.0
  1
3150
 41
0.6666666666666666
  7
00
 72
     4
 11
4175.340641334926
 21
2930.127478609063
 31
0.0
100
AcDbText
  0
TEXT
  5
27CAA
330
27C4B
100
AcDbEntity
  8
SUNPOU
100
AcDbText
 10
3675.340641334936
 20
8145.127478609062
 30
0.0
 40
90.0
  1
（土間コン後面位置）
  7
01
 72
     4
 11
4200.340641334936
 21
8190.127478609062
 31
0.0
100
AcDbText
  0
TEXT
  5
27CAB
330
27C4B
100
AcDbEntity
  8
SUNPOU
100
AcDbText
 10
3783.340641334936
 20
7761.685412071864
 30
0.0
 40
90.0
  1
（屋根後面位置）
  7
01
 72
     4
 11
4200.340641334936
 21
7806.685412071864
 31
0.0
100
AcDbText
  0
LINE
  5
27CAC
330
27C4B
100
AcDbEntity
  8
2PL-L2
100
AcDbLine
 10
10996.34064133492
 20
7705.127478609063
 30
0.0
 11
10996.34064133492
 21
3635.127478609064
 31
0.0
  0
LINE
  5
27CAD
330
27C4B
100
AcDbEntity
  8
1PL-M1
100
AcDbLine
 10
7450.340641334934
 20
4239.849618183392
 30
0.0
 11
7450.340641334934
 21
7100.127478609064
 31
0.0
  0
LINE
  5
27CAE
330
27C4B
100
AcDbEntity
  8
SUNPOU
100
AcDbLine
 10
11250.34064133493
 20
4975.127478609064
 30
0.0
 11
11250.34064133493
 21
4305.127478609064
 31
0.0
  0
LINE
  5
27CAF
330
27C4B
100
AcDbEntity
  8
1PL-M1
100
AcDbLine
 10
10600.34064133492
 20
4239.849618183392
 30
0.0
 11
10600.34064133492
 21
6010.639079486154
 31
0.0
  0
LINE
  5
27CB0
330
27C4B
100
AcDbEntity
  8
SUNPOU
100
AcDbLine
 10
10567.84064133492
 20
4572.627478609063
 30
0.0
 11
10567.84064133492
 21
4396.184634723411
 31
0.0
  0
LINE
  5
27CB1
330
27C4B
100
AcDbEntity
  8
SUNPOU
100
AcDbLine
 10
10632.84064133492
 20
4572.627478609063
 30
0.0
 11
10632.84064133492
 21
4396.184634723411
 31
0.0
  0
LINE
  5
27CB2
330
27C4B
100
AcDbEntity
  8
SUNPOU
100
AcDbLine
 10
11460.34064133492
 20
4640.127478609062
 30
0.0
 11
11460.34064133492
 21
3255.127478609062
 31
0.0
  0
LINE
  5
27CB3
330
27C4B
100
AcDbEntity
  8
SUNPOU
100
AcDbLine
 10
11670.34064133493
 20
8085.127478609058
 30
0.0
 11
11670.34064133493
 21
3255.127478609062
 31
0.0
  0
LINE
  5
27CB4
330
27C4B
100
AcDbEntity
  8
U3
100
AcDbLine
 10
10950.34064133492
 20
3240.127478609063
 30
0.0
 11
10950.34064133492
 21
8100.127478609062
 31
0.0
  0
LINE
  5
27CB5
330
27C4B
100
AcDbEntity
  8
U2
100
AcDbLine
 10
6560.340641334936
 20
3140.127478609063
 30
0.0
 11
6560.340641334931
 21
8200.127478609061
 31
0.0
  0
LINE
  5
27CB6
330
27C4B
100
AcDbEntity
  8
U2
100
AcDbLine
 10
6640.340641334934
 20
3140.127478609063
 30
0.0
 11
6640.34064133493
 21
8200.127478609061
 31
0.0
  0
LINE
  5
27CB7
330
27C4B
100
AcDbEntity
  8
2PL-L2
100
AcDbLine
 10
6640.340641334934
 20
3635.127478609064
 30
0.0
 11
10996.34064133492
 21
3635.127478609064
 31
0.0
  0
LINE
  5
27CB8
330
27C4B
100
AcDbEntity
  8
U3
100
AcDbLine
 10
6640.340641334937
 20
3240.127478609063
 30
0.0
 11
10950.34064133492
 21
3240.127478609063
 31
0.0
  0
LINE
  5
27CB9
330
27C4B
100
AcDbEntity
  8
SUNPOU
100
AcDbLine
 10
7465.34064133493
 20
2840.127478609062
 30
0.0
 11
10585.34064133492
 21
2840.127478609062
 31
0.0
  0
LINE
  5
27CBA
330
27C4B
100
AcDbEntity
  8
SUNPOU
100
AcDbLine
 10
7450.340641334934
 20
4209.849618183391
 30
0.0
 11
7450.340641334931
 21
2810.127478609063
 31
0.0
  0
LINE
  5
27CBB
330
27C4B
100
AcDbEntity
  8
SUNPOU
100
AcDbLine
 10
10600.34064133492
 20
4029.643868126107
 30
0.0
 11
10600.34064133492
 21
2810.127478609063
 31
0.0
  0
LINE
  5
27CBC
330
27C4B
100
AcDbEntity
  8
SUNPOU
100
AcDbLine
 10
10600.34064133492
 20
3604.969545146267
 30
0.0
 11
10600.34064133492
 21
2810.127478609063
 31
0.0
  0
TEXT
  5
27CBD
330
27C4B
100
AcDbEntity
  8
SUNPOU
100
AcDbText
 10
8911.054927049217
 20
2885.127478609063
 30
0.0
 40
90.0
  1
3150
 41
0.6666666666666666
  7
00
 72
     4
 11
9025.340641334931
 21
2930.127478609063
 31
0.0
100
AcDbText
  0
LINE
  5
27CBE
330
27C4B
100
AcDbEntity
  8
SUNPOU
100
AcDbLine
 10
10615.34064133492
 20
2840.127478609062
 30
0.0
 11
10935.34064133492
 21
2840.127478609062
 31
0.0
  0
TEXT
  5
27CBF
330
27C4B
100
AcDbEntity
  8
SUNPOU
100
AcDbText
 10
10689.62635562064
 20
2885.127478609063
 30
0.0
 40
90.0
  1
350
 41
0.6666666666666666
  7
00
 72
     4
 11
10775.34064133492
 21
2930.127478609063
 31
0.0
100
AcDbText
  0
LINE
  5
27CC0
330
27C4B
100
AcDbEntity
  8
SUNPOU
100
AcDbLine
 10
10537.84064133492
 20
4426.184634723411
 30
0.0
 11
10440.85492704922
 21
4426.184634723411
 31
0.0
  0
LINE
  5
27CC1
330
27C4B
100
AcDbEntity
  8
SUNPOU
100
AcDbLine
 10
10265.34064133492
 20
4065.127478609062
 30
0.0
 11
10935.34064133492
 21
4065.127478609062
 31
0.0
  0
LINE
  5
27CC2
330
27C4B
100
AcDbEntity
  8
SUNPOU
100
AcDbLine
 10
10250.34064133492
 20
4260.127478609063
 30
0.0
 11
10250.34064133492
 21
4035.127478609063
 31
0.0
  0
TEXT
  5
27CC3
330
27C4B
100
AcDbEntity
  8
SUNPOU
100
AcDbText
 10
10514.62635562064
 20
4110.127478609063
 30
0.0
 40
90.0
  1
700
 41
0.6666666666666666
  7
00
 72
     1
 11
10600.34064133492
 21
4155.127478609063
 31
0.0
100
AcDbText
 73
     2
  0
LINE
  5
27CC4
330
27C4B
100
AcDbEntity
  8
SUNPOU
100
AcDbLine
 10
10617.84064133492
 20
4426.184634723411
 30
0.0
 11
10567.84064133492
 21
4426.184634723411
 31
0.0
  0
LINE
  5
27CC5
330
27C4B
100
AcDbEntity
  8
SUNPOU
100
AcDbLine
 10
10552.84064133492
 20
4426.184634723411
 30
0.0
 11
10537.84064133492
 21
4426.184634723411
 31
0.0
  0
LINE
  5
27CC6
330
27C4B
100
AcDbEntity
  8
SUNPOU
100
AcDbLine
 10
10950.34064133492
 20
3604.969545146267
 30
0.0
 11
10950.34064133492
 21
2600.127478609063
 31
0.0
  0
LINE
  5
27CC7
330
27C4B
100
AcDbEntity
  8
SUNPOU
100
AcDbLine
 10
10980.34064133492
 20
3240.127478609063
 30
0.0
 11
11700.34064133492
 21
3240.127478609063
 31
0.0
  0
TEXT
  5
27CC8
330
27C4B
100
AcDbEntity
  8
SUNPOU
100
AcDbText
 10
11415.34064133493
 20
3821.556050037634
 30
0.0
 40
90.0
  1
1400
 50
90.0
 41
0.6666666666666666
  7
00
 72
     1
 11
11370.34064133493
 21
3940.127478609062
 31
0.0
100
AcDbText
 73
     2
  0
LINE
  5
27CC9
330
27C4B
100
AcDbEntity
  8
SUNPOU
100
AcDbLine
 10
10980.34064133492
 20
4290.127478609064
 30
0.0
 11
11280.34064133492
 21
4290.127478609064
 31
0.0
  0
LINE
  5
27CCA
330
27C4B
100
AcDbEntity
  8
2PL-L2
100
AcDbLine
 10
6640.34064133493
 20
7705.127478609066
 30
0.0
 11
10996.34064133492
 21
7705.127478609063
 31
0.0
  0
LINE
  5
27CCB
330
27C4B
100
AcDbEntity
  8
U3
100
AcDbLine
 10
6640.340641334933
 20
8100.127478609064
 30
0.0
 11
10950.34064133492
 21
8100.127478609062
 31
0.0
  0
TEXT
  5
27CCC
330
27C4B
100
AcDbEntity
  8
HIKIDASHI
100
AcDbText
 10
10211.46816448372
 20
7202.428922871478
 30
0.0
 40
90.0
  1
柱
  7
01
 72
     2
 11
10295.46816448372
 21
7247.428922871478
 31
0.0
100
AcDbText
 73
     2
  0
TEXT
  5
27CCD
330
27C4B
100
AcDbEntity
  8
HIKIDASHI
100
AcDbText
 10
10211.46816448372
 20
5142.428922871479
 30
0.0
 40
90.0
  1
柱
  7
01
 72
     2
 11
10295.46816448372
 21
5187.428922871479
 31
0.0
100
AcDbText
 73
     2
  0
TEXT
  5
27CCE
330
27C4B
100
AcDbEntity
  8
SUNPOU
100
AcDbText
 10
10429.42635562065
 20
4471.184634723411
 30
0.0
 40
90.0
  1
65
 41
0.6666666666666666
  7
00
 72
     1
 11
10487.99778419208
 21
4516.184634723411
 31
0.0
100
AcDbText
 73
     2
  0
LINE
  5
27CCF
330
27C4B
100
AcDbEntity
  8
HIKIDASHI
100
AcDbLine
 10
10537.84064133492
 20
4729.589002836124
 30
0.0
 11
10325.46816448372
 21
5097.428922871479
 31
0.0
  0
LINE
  5
27CD0
330
27C4B
100
AcDbEntity
  8
HIKIDASHI
100
AcDbLine
 10
10181.46816448372
 20
5097.428922871479
 30
0.0
 11
10325.46816448372
 21
5097.428922871479
 31
0.0
  0
LINE
  5
27CD1
330
27C4B
100
AcDbEntity
  8
SUNPOU
100
AcDbLine
 10
10811.04665690042
 20
4707.627478609063
 30
0.0
 11
10811.04665690042
 21
4807.47033575192
 31
0.0
  0
TEXT
  5
27CD2
330
27C4B
100
AcDbEntity
  8
SUNPOU
100
AcDbText
 10
10766.04665690042
 20
4701.756050037633
 30
0.0
 40
90.0
  1
75
 50
90.0
 41
0.6666666666666666
  7
00
 72
     1
 11
10721.04665690042
 21
4758.89890718049
 31
0.0
100
AcDbText
 73
     2
  0
LINE
  5
27CD3
330
27C4B
100
AcDbEntity
  8
SUNPOU
100
AcDbLine
 10
10662.84064133492
 20
4677.627478609063
 30
0.0
 11
10841.04665690042
 21
4677.627478609063
 31
0.0
  0
LINE
  5
27CD4
330
27C4B
100
AcDbEntity
  8
SUNPOU
100
AcDbLine
 10
10662.84064133492
 20
4602.627478609064
 30
0.0
 11
10841.04665690042
 21
4602.627478609064
 31
0.0
  0
SOLID
  5
27CD5
330
27C4B
100
AcDbEntity
  8
HIKIDASHI
100
AcDbTrace
 10
10546.50089537277
 20
4734.589002836126
 30
0.0
 11
10529.18038729707
 21
4724.589002836121
 31
0.0
 12
10567.84064133492
 22
4677.627478609063
 32
0.0
 13
10567.84064133492
 23
4677.627478609063
 33
0.0
  0
LINE
  5
27CD6
330
27C4B
100
AcDbEntity
  8
SUNPOU
100
AcDbLine
 10
10811.04665690042
 20
4617.627478609064
 30
0.0
 11
10811.04665690042
 21
4677.627478609063
 31
0.0
  0
LINE
  5
27CD7
330
27C4B
100
AcDbEntity
  8
SUNPOU
100
AcDbLine
 10
10811.04665690042
 20
4692.627478609064
 30
0.0
 11
10811.04665690042
 21
4707.627478609063
 31
0.0
  0
LINE
  5
27CD8
330
27C4B
100
AcDbEntity
  8
1PL-M1
100
AcDbLine
 10
10600.34064133492
 20
6221.464312890519
 30
0.0
 11
10600.34064133492
 21
7100.127478609064
 31
0.0
  0
TEXT
  5
27CD9
330
27C4B
100
AcDbEntity
  8
SUNPOU
100
AcDbText
 10
10429.42635562065
 20
6531.184634723411
 30
0.0
 40
90.0
  1
65
 41
0.6666666666666666
  7
00
 72
     1
 11
10487.99778419208
 21
6576.184634723411
 31
0.0
100
AcDbText
 73
     2
  0
LINE
  5
27CDA
330
27C4B
100
AcDbEntity
  8
SUNPOU
100
AcDbLine
 10
10567.84064133492
 20
6632.627478609062
 30
0.0
 11
10567.84064133492
 21
6456.184634723411
 31
0.0
  0
LINE
  5
27CDB
330
27C4B
100
AcDbEntity
  8
SUNPOU
100
AcDbLine
 10
10632.84064133492
 20
6632.627478609062
 30
0.0
 11
10632.84064133492
 21
6456.184634723411
 31
0.0
  0
LINE
  5
27CDC
330
27C4B
100
AcDbEntity
  8
SUNPOU
100
AcDbLine
 10
10537.84064133492
 20
6486.184634723412
 30
0.0
 11
10440.85492704922
 21
6486.184634723412
 31
0.0
  0
LINE
  5
27CDD
330
27C4B
100
AcDbEntity
  8
SUNPOU
100
AcDbLine
 10
10265.34064133492
 20
6050.127478609063
 30
0.0
 11
10935.34064133492
 21
6050.127478609063
 31
0.0
  0
LINE
  5
27CDE
330
27C4B
100
AcDbEntity
  8
SUNPOU
100
AcDbLine
 10
10250.34064133492
 20
6320.127478609062
 30
0.0
 11
10250.34064133492
 21
6020.127478609063
 31
0.0
  0
TEXT
  5
27CDF
330
27C4B
100
AcDbEntity
  8
SUNPOU
100
AcDbText
 10
10514.62635562064
 20
6095.127478609064
 30
0.0
 40
90.0
  1
700
 41
0.6666666666666666
  7
00
 72
     1
 11
10600.34064133492
 21
6140.127478609064
 31
0.0
100
AcDbText
 73
     2
  0
LINE
  5
27CE0
330
27C4B
100
AcDbEntity
  8
SUNPOU
100
AcDbLine
 10
10617.84064133492
 20
6486.184634723412
 30
0.0
 11
10567.84064133492
 21
6486.184634723412
 31
0.0
  0
LINE
  5
27CE1
330
27C4B
100
AcDbEntity
  8
SUNPOU
100
AcDbLine
 10
10552.84064133492
 20
6486.184634723412
 30
0.0
 11
10537.84064133492
 21
6486.184634723412
 31
0.0
  0
LINE
  5
27CE2
330
27C4B
100
AcDbEntity
  8
HIKIDASHI
100
AcDbLine
 10
10537.84064133492
 20
6789.589002836125
 30
0.0
 11
10325.46816448372
 21
7157.42892287148
 31
0.0
  0
LINE
  5
27CE3
330
27C4B
100
AcDbEntity
  8
HIKIDASHI
100
AcDbLine
 10
10181.46816448372
 20
7157.42892287148
 30
0.0
 11
10325.46816448372
 21
7157.42892287148
 31
0.0
  0
TEXT
  5
27CE4
330
27C4B
100
AcDbEntity
  8
SUNPOU
100
AcDbText
 10
10766.04665690042
 20
6761.756050037632
 30
0.0
 40
90.0
  1
75
 50
90.0
 41
0.6666666666666666
  7
00
 72
     1
 11
10721.04665690042
 21
6818.898907180489
 31
0.0
100
AcDbText
 73
     2
  0
LINE
  5
27CE5
330
27C4B
100
AcDbEntity
  8
SUNPOU
100
AcDbLine
 10
10662.84064133492
 20
6737.627478609063
 30
0.0
 11
10841.04665690042
 21
6737.627478609063
 31
0.0
  0
LINE
  5
27CE6
330
27C4B
100
AcDbEntity
  8
SUNPOU
100
AcDbLine
 10
10662.84064133492
 20
6662.627478609064
 30
0.0
 11
10841.04665690042
 21
6662.627478609064
 31
0.0
  0
SOLID
  5
27CE7
330
27C4B
100
AcDbEntity
  8
HIKIDASHI
100
AcDbTrace
 10
10546.50089537277
 20
6794.589002836126
 30
0.0
 11
10529.18038729707
 21
6784.589002836122
 31
0.0
 12
10567.84064133492
 22
6737.627478609063
 32
0.0
 13
10567.84064133492
 23
6737.627478609063
 33
0.0
  0
LINE
  5
27CE8
330
27C4B
100
AcDbEntity
  8
SUNPOU
100
AcDbLine
 10
10811.04665690042
 20
6677.627478609064
 30
0.0
 11
10811.04665690042
 21
6737.627478609063
 31
0.0
  0
LINE
  5
27CE9
330
27C4B
100
AcDbEntity
  8
SUNPOU
100
AcDbLine
 10
10811.04665690042
 20
6767.627478609063
 30
0.0
 11
10811.04665690042
 21
6867.470335751919
 31
0.0
  0
LINE
  5
27CEA
330
27C4B
100
AcDbEntity
  8
SUNPOU
100
AcDbLine
 10
10811.04665690042
 20
6752.627478609062
 30
0.0
 11
10811.04665690042
 21
6767.627478609063
 31
0.0
  0
LINE
  5
27CEB
330
27C4B
100
AcDbEntity
  8
SUNPOU
100
AcDbLine
 10
11460.34064133492
 20
8085.127478609058
 30
0.0
 11
11460.34064133492
 21
6715.127478609064
 31
0.0
  0
LINE
  5
27CEC
330
27C4B
100
AcDbEntity
  8
SUNPOU
100
AcDbLine
 10
11460.34064133492
 20
4655.127478609063
 30
0.0
 11
11460.34064133492
 21
6685.127478609064
 31
0.0
  0
LINE
  5
27CED
330
27C4B
100
AcDbEntity
  8
1PL-S1
100
AcDbLine
 10
11284.54574119365
 20
4640.127478609062
 30
0.0
 11
11490.34064133493
 21
4640.127478609062
 31
0.0
  0
LINE
  5
27CEE
330
27C4B
100
AcDbEntity
  8
SUNPOU
100
AcDbLine
 10
11310.34064133493
 20
4640.127478609064
 30
0.0
 11
11490.34064133493
 21
4640.127478609064
 31
0.0
  0
TEXT
  5
27CEF
330
27C4B
100
AcDbEntity
  8
SUNPOU
100
AcDbText
 10
11205.34064133493
 20
4554.413192894778
 30
0.0
 40
90.0
  1
700
 50
90.0
 41
0.6666666666666666
  7
00
 72
     1
 11
11160.34064133492
 21
4640.127478609064
 31
0.0
100
AcDbText
 73
     2
  0
LINE
  5
27CF0
330
27C4B
100
AcDbEntity
  8
SUNPOU
100
AcDbLine
 10
10980.34064133492
 20
4990.127478609064
 30
0.0
 11
11280.34064133492
 21
4990.127478609064
 31
0.0
  0
TEXT
  5
27CF1
330
27C4B
100
AcDbEntity
  8
SUNPOU
100
AcDbText
 10
11415.34064133493
 20
5555.841764323349
 30
0.0
 40
90.0
  1
2060
 50
90.0
 41
0.6666666666666666
  7
00
 72
     1
 11
11370.34064133493
 21
5670.127478609064
 31
0.0
100
AcDbText
 73
     2
  0
TEXT
  5
27CF2
330
27C4B
100
AcDbEntity
  8
SUNPOU
100
AcDbText
 10
11625.34064133492
 20
5555.841764323348
 30
0.0
 40
90.0
  1
4860
 50
90.0
 41
0.6666666666666666
  7
00
 72
     4
 11
11580.34064133492
 21
5670.127478609063
 31
0.0
100
AcDbText
  0
LINE
  5
27CF3
330
27C4B
100
AcDbEntity
  8
SUNPOU
100
AcDbLine
 10
11250.34064133493
 20
7035.127478609064
 30
0.0
 11
11250.34064133493
 21
6365.127478609064
 31
0.0
  0
LINE
  5
27CF4
330
27C4B
100
AcDbEntity
  8
SUNPOU
100
AcDbLine
 10
10980.34064133492
 20
6350.127478609064
 30
0.0
 11
11280.34064133492
 21
6350.127478609064
 31
0.0
  0
LINE
  5
27CF5
330
27C4B
100
AcDbEntity
  8
1PL-S1
100
AcDbLine
 10
11284.54574119365
 20
6700.127478609061
 30
0.0
 11
11490.34064133493
 21
6700.127478609061
 31
0.0
  0
LINE
  5
27CF6
330
27C4B
100
AcDbEntity
  8
SUNPOU
100
AcDbLine
 10
11310.34064133493
 20
6700.127478609063
 30
0.0
 11
11490.34064133493
 21
6700.127478609063
 31
0.0
  0
TEXT
  5
27CF7
330
27C4B
100
AcDbEntity
  8
SUNPOU
100
AcDbText
 10
11205.34064133493
 20
6614.413192894777
 30
0.0
 40
90.0
  1
700
 50
90.0
 41
0.6666666666666666
  7
00
 72
     1
 11
11160.34064133492
 21
6700.127478609063
 31
0.0
100
AcDbText
 73
     2
  0
LINE
  5
27CF8
330
27C4B
100
AcDbEntity
  8
SUNPOU
100
AcDbLine
 10
10980.34064133492
 20
7050.127478609063
 30
0.0
 11
11280.34064133492
 21
7050.127478609063
 31
0.0
  0
TEXT
  5
27CF9
330
27C4B
100
AcDbEntity
  8
SUNPOU
100
AcDbText
 10
11415.34064133493
 20
7281.556050037635
 30
0.0
 40
90.0
  1
1400
 50
90.0
 41
0.6666666666666666
  7
00
 72
     4
 11
11370.34064133493
 21
7400.127478609063
 31
0.0
100
AcDbText
  0
LINE
  5
27CFA
330
27C4B
100
AcDbEntity
  8
SUNPOU
100
AcDbLine
 10
10980.34064133492
 20
8100.127478609062
 30
0.0
 11
11700.34064133492
 21
8100.127478609062
 31
0.0
  0
TEXT
  5
27CFB
330
27C4B
100
AcDbEntity
  8
HIKIDASHI
100
AcDbText
 10
5894.710814203683
 20
2258.800640501877
 30
0.0
 40
135.0
  1
基 礎 伏 図
  7
01
 72
     2
 11
6740.710814203684
 21
2258.800640501877
 31
0.0
100
AcDbText
  0
TEXT
  5
27CFC
330
27C4B
100
AcDbEntity
  8
HIKIDASHI
100
AcDbText
 10
6841.960814203685
 20
2285.594137561715
 30
0.0
 40
90.0
  1
(S=
 41
0.6700000000000001
  7
00
100
AcDbText
  0
TEXT
  5
27CFD
330
27C4B
100
AcDbEntity
  8
HIKIDASHI
100
AcDbText
 10
7134.618548838879
 20
2256.155327461405
 30
0.0
 40
90.0
  1
30
 41
0.6700000000000001
  7
00
100
AcDbText
  0
TEXT
  5
27CFE
330
27C4B
100
AcDbEntity
  8
HIKIDASHI
100
AcDbText
 10
7271.223311909122
 20
2285.594137561715
 30
0.0
 40
90.0
  1
)
 41
0.6700000000000001
  7
00
100
AcDbText
  0
TEXT
  5
27CFF
330
27C4B
100
AcDbEntity
  8
HIKIDASHI
100
AcDbText
 10
7082.536499730915
 20
2285.594137561715
 30
0.0
 40
90.0
  1
/
 41
0.6700000000000001
  7
00
100
AcDbText
  0
TEXT
  5
27D00
330
27C4B
100
AcDbEntity
  8
HIKIDASHI
100
AcDbText
 10
7045.257219633568
 20
2303.100800028437
 30
0.0
 40
90.0
  1
1
 41
0.6700000000000001
  7
00
100
AcDbText
  0
TEXT
  5
27D01
330
27C4B
100
AcDbEntity
  8
HIKIDASHI
100
AcDbText
 10
6045.987999378475
 20
2078.800640501877
 30
0.0
 40
120.0
  1
（  ：スパン数）
  7
01
 72
     4
 11
6601.987999378474
 21
2138.800640501876
 31
0.0
100
AcDbText
  0
TEXT
  5
27D02
330
27C4B
100
AcDbEntity
  8
HIKIDASHI
100
AcDbText
 10
6224.577682688776
 20
2078.800640501877
 30
0.0
 40
120.0
  1
N
 41
0.6666666666666666
  7
00
 72
     4
 11
6266.482444593537
 21
2138.800640501876
 31
0.0
100
AcDbText
  0
LINE
  5
27D03
330
27C4B
100
AcDbEntity
  8
HIKIDASHI
100
AcDbLine
 10
1201.223030723082
 20
520.2442032316803
 30
0.0
 11
1896.850383958654
 21
520.2442032316803
 31
0.0
  0
LINE
  5
27D04
330
27C4B
100
AcDbEntity
  8
HIKIDASHI
100
AcDbLine
 10
1201.223030723082
 20
490.2442032316802
 30
0.0
 11
1896.850383958654
 21
490.2442032316802
 31
0.0
  0
TEXT
  5
27D05
330
27C4B
100
AcDbEntity
  8
HIKIDASHI
100
AcDbText
 10
1231.223030723082
 20
565.2442032316803
 30
0.0
 40
90.0
  1
A  ~  A'
 41
0.6700000000000001
  7
00
100
AcDbText
  0
TEXT
  5
27D06
330
27C4B
100
AcDbEntity
  8
HIKIDASHI
100
AcDbText
 10
1625.240310219643
 20
565.2442032316803
 30
0.0
 40
90.0
  1
断 面
  7
01
100
AcDbText
  0
LINE
  5
27D24
330
27C4B
100
AcDbEntity
  8
KISO
100
AcDbLine
 10
1492.78670734087
 20
2336.712525199589
 30
0.0
 11
579.950633278502
 21
2336.712525199589
 31
0.0
  0
LINE
  5
27D25
330
27C4B
100
AcDbEntity
  8
KISO
100
AcDbLine
 10
579.950633278502
 20
2201.712525199589
 30
0.0
 11
1024.03670734087
 21
2201.712525199589
 31
0.0
  0
LINE
  5
27D26
330
27C4B
100
AcDbEntity
  8
KISO
100
AcDbLine
 10
579.950633278502
 20
2111.712525199587
 30
0.0
 11
1024.03670734087
 21
2111.712525199588
 31
0.0
  0
LINE
  5
27D27
330
27C4B
100
AcDbEntity
  8
HATCH
100
AcDbLine
 10
794.2762491642314
 20
2336.712525199589
 30
0.0
 11
659.2762491642313
 21
2201.712525199589
 31
0.0
  0
LINE
  5
27D28
330
27C4B
100
AcDbEntity
  8
HATCH
100
AcDbLine
 10
838.8239763789751
 20
2336.712525199589
 30
0.0
 11
703.8239763789788
 21
2201.712525199589
 31
0.0
  0
LINE
  5
27D29
330
27C4B
100
AcDbEntity
  8
HATCH
100
AcDbLine
 10
883.3717035937334
 20
2336.712525199589
 30
0.0
 11
748.371703593737
 21
2201.712525199589
 31
0.0
  0
LINE
  5
27D2A
330
27C4B
100
AcDbEntity
  8
HIKIDASHI
100
AcDbLine
 10
1613.875498175096
 20
1640.311915089062
 30
0.0
 11
2124.975705355999
 21
1826.337177230213
 31
0.0
  0
LINE
  5
27D2B
330
27C4B
100
AcDbEntity
  8
HATCH
100
AcDbLine
 10
1492.78670734087
 20
1695.914797984838
 30
0.0
 11
1383.584434555621
 21
1586.712525199589
 31
0.0
  0
LINE
  5
27D2C
330
27C4B
100
AcDbEntity
  8
HATCH
100
AcDbLine
 10
1492.78670734087
 20
1740.462525199589
 30
0.0
 11
1339.036707340869
 21
1586.712525199589
 31
0.0
  0
LINE
  5
27D2D
330
27C4B
100
AcDbEntity
  8
HATCH
100
AcDbLine
 10
1492.78670734087
 20
2145.462525199585
 30
0.0
 11
1024.03670734087
 21
1676.712525199584
 31
0.0
  0
LINE
  5
27D2E
330
27C4B
100
AcDbEntity
  8
HATCH
100
AcDbLine
 10
1492.78670734087
 20
2100.914797984838
 30
0.0
 11
1024.03670734087
 21
1632.164797984836
 31
0.0
  0
LINE
  5
27D2F
330
27C4B
100
AcDbEntity
  8
HASHIRA
100
AcDbLine
 10
1492.78670734087
 20
1586.712525199589
 30
0.0
 11
1492.78670734087
 21
3272.656887330819
 31
0.0
  0
LINE
  5
27D30
330
27C4B
100
AcDbEntity
  8
HASHIRA
100
AcDbLine
 10
1605.286707340869
 20
1586.712525199589
 30
0.0
 11
1605.286707340869
 21
3272.656887330819
 31
0.0
  0
LINE
  5
27D31
330
27C4B
100
AcDbEntity
  8
1PL-M1
100
AcDbLine
 10
1549.036707340871
 20
1271.712525199589
 30
0.0
 11
1549.036707340871
 21
3453.117345945646
 31
0.0
  0
LINE
  5
27D32
330
27C4B
100
AcDbEntity
  8
KISO
100
AcDbLine
 10
2074.036707340871
 20
2336.712525199591
 30
0.0
 11
2074.036707340871
 21
1586.712525199591
 31
0.0
  0
LINE
  5
27D33
330
27C4B
100
AcDbEntity
  8
KISO
100
AcDbLine
 10
1024.03670734087
 20
2336.712525199589
 30
0.0
 11
1024.03670734087
 21
1586.712525199589
 31
0.0
  0
LINE
  5
27D34
330
27C4B
100
AcDbEntity
  8
HATCH
100
AcDbLine
 10
2074.036707340871
 20
1783.069343555339
 30
0.0
 11
1877.67988898512
 21
1586.712525199589
 31
0.0
  0
LINE
  5
27D35
330
27C4B
100
AcDbEntity
  8
HATCH
100
AcDbLine
 10
2074.036707340871
 20
1827.617070770091
 30
0.0
 11
1833.132161770372
 21
1586.712525199589
 31
0.0
  0
LINE
  5
27D36
330
27C4B
100
AcDbEntity
  8
HATCH
100
AcDbLine
 10
2074.036707340871
 20
1872.164797984845
 30
0.0
 11
1788.584434555606
 21
1586.712525199589
 31
0.0
  0
LINE
  5
27D37
330
27C4B
100
AcDbEntity
  8
HATCH
100
AcDbLine
 10
1492.78670734087
 20
1651.367070770086
 30
0.0
 11
1428.132161770375
 21
1586.712525199589
 31
0.0
  0
SOLID
  5
27D38
330
27C4B
100
AcDbEntity
  8
HIKIDASHI
100
AcDbTrace
 10
1617.295699608356
 20
1630.914988881202
 30
0.0
 11
1610.455296741842
 21
1649.708841296919
 31
0.0
 12
1557.493940927943
 22
1619.790706489521
 32
0.0
 13
1557.493940927943
 23
1619.790706489521
 33
0.0
  0
LINE
  5
27D39
330
27C4B
100
AcDbEntity
  8
HIKIDASHI
100
AcDbLine
 10
1524.4912666931
 20
1616.712525199589
 30
0.0
 11
1573.58214798864
 21
1616.712525199589
 31
0.0
  0
LINE
  5
27D3A
330
27C4B
100
AcDbEntity
  8
HIKIDASHI
100
AcDbLine
 10
1524.4912666931
 20
1676.712525199588
 30
0.0
 11
1573.58214798864
 21
1676.712525199588
 31
0.0
  0
CIRCLE
  5
27D3B
330
27C4B
100
AcDbEntity
  8
HASHIRA
100
AcDbCircle
 10
1549.036707340871
 20
1676.712525199588
 30
0.0
 40
9.0
  0
CIRCLE
  5
27D3C
330
27C4B
100
AcDbEntity
  8
HASHIRA
100
AcDbCircle
 10
1549.036707340871
 20
1616.712525199589
 30
0.0
 40
9.0
  0
TEXT
  5
27D3D
330
27C4B
100
AcDbEntity
  8
SUNPOU
100
AcDbText
 10
2571.613279986268
 20
898.6362762333939
 30
0.0
 40
90.0
  1
ベース筋
  7
01
 72
     4
 11
2775.613279986267
 21
943.6362762333939
 31
0.0
100
AcDbText
  0
LINE
  5
27D3E
330
27C4B
100
AcDbEntity
  8
HATCH
100
AcDbLine
 10
2946.35966122169
 20
2336.712525199589
 30
0.0
 11
2811.35966122169
 21
2201.71252519959
 31
0.0
  0
LINE
  5
27D3F
330
27C4B
100
AcDbEntity
  8
HATCH
100
AcDbLine
 10
2901.811934006931
 20
2336.712525199589
 30
0.0
 11
2766.811934006931
 21
2201.71252519959
 31
0.0
  0
LINE
  5
27D40
330
27C4B
100
AcDbEntity
  8
HIKIDASHI
100
AcDbLine
 10
2124.975705355999
 20
1826.337177230213
 30
0.0
 11
2915.9349303874
 21
1826.337177230213
 31
0.0
  0
TEXT
  5
27D41
330
27C4B
100
AcDbEntity
  8
HIKIDASHI
100
AcDbText
 10
2415.111770498388
 20
1871.337177230213
 30
0.0
 40
90.0
  1
10   x 350
 41
0.6666666666666666
  7
00
 11
2415.111770498388
 21
1916.337177230214
 31
0.0
100
AcDbText
 73
     2
  0
LINE
  5
27D42
330
27C4B
100
AcDbEntity
  8
KISO
100
AcDbLine
 10
2074.036707340871
 20
2111.712525199588
 30
0.0
 11
3461.536707340871
 21
2111.712525199588
 31
0.0
  0
LINE
  5
27D43
330
27C4B
100
AcDbEntity
  8
KISO
100
AcDbLine
 10
2074.036707340871
 20
2201.71252519959
 30
0.0
 11
3461.536707340871
 21
2201.712525199593
 31
0.0
  0
LINE
  5
27D44
330
27C4B
100
AcDbEntity
  8
KISO
100
AcDbLine
 10
3461.536707340871
 20
2336.712525199591
 30
0.0
 11
1605.286707340869
 21
2336.712525199589
 31
0.0
  0
LINE
  5
27D45
330
27C4B
100
AcDbEntity
  8
HATCH
100
AcDbLine
 10
2074.036707340871
 20
2321.712525199589
 30
0.0
 11
1605.286707340869
 21
1852.962525199589
 31
0.0
  0
LINE
  5
27D46
330
27C4B
100
AcDbEntity
  8
HATCH
100
AcDbLine
 10
2074.036707340871
 20
2232.617070770087
 30
0.0
 11
1605.286707340869
 21
1763.867070770086
 31
0.0
  0
LINE
  5
27D47
330
27C4B
100
AcDbEntity
  8
HATCH
100
AcDbLine
 10
2074.036707340871
 20
2277.164797984843
 30
0.0
 11
1605.286707340869
 21
1808.41479798484
 31
0.0
  0
LINE
  5
27D48
330
27C4B
100
AcDbEntity
  8
HATCH
100
AcDbLine
 10
1492.78670734087
 20
2190.010252414342
 30
0.0
 11
1024.03670734087
 21
1721.260252414339
 31
0.0
  0
LINE
  5
27D49
330
27C4B
100
AcDbEntity
  8
HATCH
100
AcDbLine
 10
1189.941252911364
 20
2336.712525199589
 30
0.0
 11
1024.03670734087
 21
2170.807979629099
 31
0.0
  0
LINE
  5
27D4A
330
27C4B
100
AcDbEntity
  8
HATCH
100
AcDbLine
 10
1234.488980126122
 20
2336.712525199589
 30
0.0
 11
1024.03670734087
 21
2126.260252414339
 31
0.0
  0
LINE
  5
27D4B
330
27C4B
100
AcDbEntity
  8
HATCH
100
AcDbLine
 10
1279.036707340871
 20
2336.712525199589
 30
0.0
 11
1024.03670734087
 21
2081.712525199589
 31
0.0
  0
LINE
  5
27D4C
330
27C4B
100
AcDbEntity
  8
HATCH
100
AcDbLine
 10
1684.036707340873
 20
2336.712525199589
 30
0.0
 11
1605.286707340869
 21
2257.962525199583
 31
0.0
  0
LINE
  5
27D4D
330
27C4B
100
AcDbEntity
  8
HATCH
100
AcDbLine
 10
1639.48898012612
 20
2336.712525199589
 30
0.0
 11
1605.286707340869
 21
2302.510252414343
 31
0.0
  0
LINE
  5
27D4E
330
27C4B
100
AcDbEntity
  8
HATCH
100
AcDbLine
 10
1728.584434555622
 20
2336.712525199589
 30
0.0
 11
1605.286707340869
 21
2213.414797984837
 31
0.0
  0
LINE
  5
27D4F
330
27C4B
100
AcDbEntity
  8
HATCH
100
AcDbLine
 10
2452.264206792181
 20
2336.712525199589
 30
0.0
 11
2317.264206792184
 21
2201.712525199589
 31
0.0
  0
LINE
  5
27D50
330
27C4B
100
AcDbEntity
  8
HATCH
100
AcDbLine
 10
2496.811934006939
 20
2336.712525199589
 30
0.0
 11
2361.811934006939
 21
2201.712525199589
 31
0.0
  0
LINE
  5
27D51
330
27C4B
100
AcDbEntity
  8
HATCH
100
AcDbLine
 10
2407.716479577437
 20
2336.712525199589
 30
0.0
 11
2272.716479577441
 21
2201.712525199589
 31
0.0
  0
TEXT
  5
27D52
330
27C4B
100
AcDbEntity
  8
HIKIDASHI
100
AcDbText
 10
2154.975705355999
 20
1871.337177230213
 30
0.0
 40
90.0
  1
鉄筋
  7
01
 11
2154.975705355999
 21
1916.337177230214
 31
0.0
100
AcDbText
 73
     2
  0
TEXT
  5
27D53
330
27C4B
100
AcDbEntity
  8
HIKIDASHI
100
AcDbText
 10
2564.568931394453
 20
1886.337177230213
 30
0.0
 40
90.0
  1
%%c
 41
0.6666666666666666
  7
00
100
AcDbText
  0
LINE
  5
27D54
330
27C4B
100
AcDbEntity
  8
HATCH
100
AcDbLine
 10
2857.264206792187
 20
2336.712525199589
 30
0.0
 11
2722.264206792187
 21
2201.71252519959
 31
0.0
  0
LINE
  5
27D55
330
27C4B
100
AcDbEntity
  8
SUNPOU
100
AcDbLine
 10
3212.154678208669
 20
2426.712525199592
 30
0.0
 11
3264.116202435737
 21
2336.712525199591
 31
0.0
  0
LINE
  5
27D56
330
27C4B
100
AcDbEntity
  8
SUNPOU
100
AcDbLine
 10
3264.116202435737
 20
2336.712525199591
 30
0.0
 11
3316.077726662803
 21
2426.712525199592
 31
0.0
  0
LINE
  5
27D57
330
27C4B
100
AcDbEntity
  8
HATCH
100
AcDbLine
 10
3395.907388436436
 20
2336.712525199589
 30
0.0
 11
3260.907388436436
 21
2201.71252519959
 31
0.0
  0
LINE
  5
27D58
330
27C4B
100
AcDbEntity
  8
HATCH
100
AcDbLine
 10
3351.359661221682
 20
2336.712525199589
 30
0.0
 11
3216.359661221682
 21
2201.71252519959
 31
0.0
  0
LINE
  5
27D59
330
27C4B
100
AcDbEntity
  8
HATCH
100
AcDbLine
 10
3306.811934006934
 20
2336.712525199589
 30
0.0
 11
3171.811934006936
 21
2201.71252519959
 31
0.0
  0
LINE
  5
27D5A
330
27C4B
100
AcDbEntity
  8
U3
100
AcDbLine
 10
3461.536707340871
 20
2134.212525199593
 30
0.0
 11
3619.036707340871
 21
2291.712525199589
 31
0.0
  0
LINE
  5
27D5B
330
27C4B
100
AcDbEntity
  8
KISO
100
AcDbLine
 10
3461.536707340871
 20
2111.712525199588
 30
0.0
 11
3461.536707340871
 21
2336.712525199589
 31
0.0
  0
LINE
  5
27D5C
330
27C4B
100
AcDbEntity
  8
U3
100
AcDbLine
 10
3523.577291880684
 20
2196.253109739406
 30
0.0
 11
3585.617876420502
 21
2134.212525199592
 31
0.0
  0
LINE
  5
27D5D
330
27C4B
100
AcDbEntity
  8
U3
100
AcDbLine
 10
3461.536707340873
 20
2229.671940659772
 30
0.0
 11
3523.577291880691
 21
2291.712525199589
 31
0.0
  0
TEXT
  5
27D5E
330
27C4B
100
AcDbEntity
  8
SUNPOU
100
AcDbText
 10
3195.544773864309
 20
2471.712525199591
 30
0.0
 40
90.0
  1
F.L
 41
0.6666666666666666
  7
00
 72
     4
 11
3264.116202435737
 21
2516.712525199591
 31
0.0
100
AcDbText
  0
LINE
  5
27D5F
330
27C4B
100
AcDbEntity
  8
SUNPOU
100
AcDbLine
 10
3316.077726662803
 20
2426.712525199592
 30
0.0
 11
3212.154678208669
 21
2426.712525199592
 31
0.0
  0
TEXT
  5
27D60
330
27C4B
100
AcDbEntity
  8
SUNPOU
100
AcDbText
 10
3058.433361428913
 20
898.6362762333937
 30
0.0
 40
90.0
  1
5-D13×5-D13
 41
0.6700000000000001
  7
01
 72
     4
 11
3401.856218571771
 21
943.6362762333939
 31
0.0
100
AcDbText
  0
TEXT
  5
27D61
330
27C4B
100
AcDbEntity
  8
SUNPOU
100
AcDbText
 10
3798.668871767744
 20
2426.712525199591
 30
0.0
 40
90.0
  1
G.L
 41
0.6666666666666666
  7
00
 72
     4
 11
3870.097443196316
 21
2471.712525199591
 31
0.0
100
AcDbText
  0
LINE
  5
27D62
330
27C4B
100
AcDbEntity
  8
SUNPOU
100
AcDbLine
 10
3922.058967423382
 20
2381.712525199589
 30
0.0
 11
3818.135918969249
 21
2381.712525199589
 31
0.0
  0
LINE
  5
27D63
330
27C4B
100
AcDbEntity
  8
SUNPOU
100
AcDbLine
 10
3818.135918969249
 20
2381.712525199589
 30
0.0
 11
3870.097443196316
 21
2291.712525199589
 31
0.0
  0
LINE
  5
27D64
330
27C4B
100
AcDbEntity
  8
U3
100
AcDbLine
 10
3838.577291880687
 20
2196.253109739406
 30
0.0
 11
3900.617876420503
 21
2134.212525199592
 31
0.0
  0
LINE
  5
27D65
330
27C4B
100
AcDbEntity
  8
U3
100
AcDbLine
 10
4153.577291880679
 20
2291.712525199591
 30
0.0
 11
3461.536707340871
 21
2291.712525199589
 31
0.0
  0
LINE
  5
27D66
330
27C4B
100
AcDbEntity
  8
U3
100
AcDbLine
 10
3776.53670734087
 20
2134.212525199593
 30
0.0
 11
3934.036707340871
 21
2291.712525199589
 31
0.0
  0
LINE
  5
27D67
330
27C4B
100
AcDbEntity
  8
U3
100
AcDbLine
 10
3571.306999610777
 20
2243.982817469499
 30
0.0
 11
3681.077291880687
 21
2134.212525199589
 31
0.0
  0
LINE
  5
27D68
330
27C4B
100
AcDbEntity
  8
U3
100
AcDbLine
 10
3619.036707340871
 20
2291.712525199589
 30
0.0
 11
3776.53670734087
 21
2134.212525199593
 31
0.0
  0
LINE
  5
27D69
330
27C4B
100
AcDbEntity
  8
U3
100
AcDbLine
 10
3728.806999610777
 20
2181.942232929685
 30
0.0
 11
3838.577291880687
 21
2291.712525199589
 31
0.0
  0
LINE
  5
27D6A
330
27C4B
100
AcDbEntity
  8
U3
100
AcDbLine
 10
3681.077291880687
 20
2229.671940659776
 30
0.0
 11
3743.1178764205
 21
2291.712525199589
 31
0.0
  0
LINE
  5
27D6B
330
27C4B
100
AcDbEntity
  8
U3
100
AcDbLine
 10
4043.806999610772
 20
2181.942232929684
 30
0.0
 11
4153.577291880679
 21
2291.712525199591
 31
0.0
  0
LINE
  5
27D6C
330
27C4B
100
AcDbEntity
  8
U3
100
AcDbLine
 10
3934.036707340871
 20
2291.712525199589
 30
0.0
 11
4091.536707340867
 21
2134.212525199594
 31
0.0
  0
LINE
  5
27D6D
330
27C4B
100
AcDbEntity
  8
U3
100
AcDbLine
 10
3886.306999610777
 20
2243.982817469499
 30
0.0
 11
3996.077291880682
 21
2134.212525199589
 31
0.0
  0
LINE
  5
27D6E
330
27C4B
100
AcDbEntity
  8
SUNPOU
100
AcDbLine
 10
3870.097443196316
 20
2291.712525199589
 30
0.0
 11
3922.058967423382
 21
2381.712525199589
 31
0.0
  0
LINE
  5
27D6F
330
27C4B
100
AcDbEntity
  8
U3
100
AcDbLine
 10
3996.07729188068
 20
2229.671940659779
 30
0.0
 11
4058.117876420496
 21
2291.712525199589
 31
0.0
  0
LINE
  5
27D70
330
27C4B
100
AcDbEntity
  8
KISO
100
AcDbLine
 10
874.0367073408688
 20
1436.712525199589
 30
0.0
 11
2224.036707340871
 21
1436.712525199591
 31
0.0
  0
LINE
  5
27D71
330
27C4B
100
AcDbEntity
  8
KISO
100
AcDbLine
 10
874.0367073408705
 20
1436.712525199589
 30
0.0
 11
874.0367073408705
 21
1586.712525199586
 31
0.0
  0
LINE
  5
27D72
330
27C4B
100
AcDbEntity
  8
KISO
100
AcDbLine
 10
2224.036707340868
 20
1436.712525199591
 30
0.0
 11
2224.036707340871
 21
1586.712525199589
 31
0.0
  0
LINE
  5
27D73
330
27C4B
100
AcDbEntity
  8
KISO
100
AcDbLine
 10
874.0367073408688
 20
1586.712525199586
 30
0.0
 11
2224.036707340871
 21
1586.712525199589
 31
0.0
  0
LINE
  5
27D74
330
27C4B
100
AcDbEntity
  8
SUNPOU
100
AcDbLine
 10
2495.340641334933
 20
7260.127478609078
 30
0.0
 11
2600.340641334933
 21
7260.127478609078
 31
0.0
  0
TEXT
  5
27D75
330
27C4B
100
AcDbEntity
  8
SUNPOU
100
AcDbText
 10
2279.447784192076
 20
7206.556050037649
 30
0.0
 40
90.0
  1
A'
 50
0.0000000000000509
 41
0.6700000000000001
  7
00
 72
     4
 11
2315.340641334933
 21
7260.127478609078
 31
0.0
100
AcDbText
  0
LINE
  5
27D76
330
27C4B
100
AcDbEntity
  8
SUNPOU
100
AcDbLine
 10
2600.340641334933
 20
7260.127478609078
 30
0.0
 11
2600.340641334933
 21
7110.127478609077
 31
0.0
  0
LINE
  5
27D77
330
27C4B
100
AcDbEntity
  8
SUNPOU
100
AcDbLine
 10
2495.340641334935
 20
6140.127478609077
 30
0.0
 11
2600.340641334938
 21
6140.127478609077
 31
0.0
  0
TEXT
  5
27D78
330
27C4B
100
AcDbEntity
  8
SUNPOU
100
AcDbText
 10
2289.497784192081
 20
6095.127478609077
 30
0.0
 40
90.0
  1
A
 50
0.0000000000000509
 41
0.6700000000000001
  7
00
 72
     4
 11
2315.340641334939
 21
6140.127478609077
 31
0.0
100
AcDbText
  0
LINE
  5
27D79
330
27C4B
100
AcDbEntity
  8
SUNPOU
100
AcDbLine
 10
2600.340641334938
 20
6140.12747860908
 30
0.0
 11
2600.340641334938
 21
6290.127478609081
 31
0.0
  0
LINE
  5
27D7A
330
27C4B
100
AcDbEntity
  8
SUNPOU
100
AcDbLine
 10
2495.340641334935
 20
6125.127478609077
 30
0.0
 11
2405.34064133494
 21
6140.127478609077
 31
0.0
  0
LINE
  5
27D7B
330
27C4B
100
AcDbEntity
  8
SUNPOU
100
AcDbLine
 10
2405.34064133494
 20
6140.127478609077
 30
0.0
 11
2495.340641334935
 21
6155.127478609077
 31
0.0
  0
SOLID
  5
27D7C
330
27C4B
100
AcDbEntity
  8
SUNPOU
100
AcDbTrace
 10
2495.340641334935
 20
6125.127478609077
 30
0.0
 11
2495.340641334935
 21
6155.127478609077
 31
0.0
 12
2405.34064133494
 22
6140.127478609077
 32
0.0
 13
2405.34064133494
 23
6140.127478609077
 33
0.0
  0
LINE
  5
27D7D
330
27C4B
100
AcDbEntity
  8
SUNPOU
100
AcDbLine
 10
2495.340641334935
 20
6155.127478609077
 30
0.0
 11
2495.340641334935
 21
6125.127478609077
 31
0.0
  0
LINE
  5
27D7E
330
27C4B
100
AcDbEntity
  8
SUNPOU
100
AcDbLine
 10
2495.340641334933
 20
7275.127478609078
 30
0.0
 11
2405.340641334933
 21
7260.127478609078
 31
0.0
  0
LINE
  5
27D7F
330
27C4B
100
AcDbEntity
  8
SUNPOU
100
AcDbLine
 10
2405.340641334933
 20
7260.127478609078
 30
0.0
 11
2495.340641334933
 21
7245.127478609077
 31
0.0
  0
SOLID
  5
27D80
330
27C4B
100
AcDbEntity
  8
SUNPOU
100
AcDbTrace
 10
2495.340641334933
 20
7275.127478609078
 30
0.0
 11
2495.340641334933
 21
7245.127478609077
 31
0.0
 12
2405.340641334933
 22
7260.127478609078
 32
0.0
 13
2405.340641334933
 23
7260.127478609078
 33
0.0
  0
LINE
  5
27D81
330
27C4B
100
AcDbEntity
  8
SUNPOU
100
AcDbLine
 10
2495.340641334933
 20
7245.127478609077
 30
0.0
 11
2495.340641334933
 21
7275.127478609078
 31
0.0
  0
TEXT
  5
27D82
330
27C4B
100
AcDbEntity
  8
FILENAME
100
AcDbText
 10
10422.92857142857
 20
130.4999999999999
 30
0.0
 40
75.0
  1
＜YOTC-315-SA_3_JIS_GL.DXF ＞
  7
FILENAME
 72
     2
 11
12286.5
 21
130.4999999999999
 31
0.0
100
AcDbText
  0
LINE
  5
27D83
330
27C4B
100
AcDbEntity
  8
WAKUSEN-01
100
AcDbLine
 10
325.5000000000006
 20
310.4999999999997
 30
0.0
 11
12286.5
 21
310.4999999999997
 31
0.0
  0
LINE
  5
27D84
330
27C4B
100
AcDbEntity
  8
WAKUSEN-01
100
AcDbLine
 10
325.5000000000006
 20
8431.500000000003
 30
0.0
 11
12286.5
 21
8431.500000000003
 31
0.0
  0
LINE
  5
27D85
330
27C4B
100
AcDbEntity
  8
WAKUSEN-01
100
AcDbLine
 10
325.5000000000006
 20
310.4999999999997
 30
0.0
 11
325.5000000000006
 21
8431.500000000003
 31
0.0
  0
LINE
  5
27D86
330
27C4B
100
AcDbEntity
  8
WAKUSEN-01
100
AcDbLine
 10
12286.5
 20
310.4999999999997
 30
0.0
 11
12286.5
 21
8431.500000000003
 31
0.0
  0
LINE
  5
27D87
330
27C4B
100
AcDbEntity
  8
WAKUSEN-01
100
AcDbLine
 10
7710.0
 20
931.4999999999999
 30
0.0
 11
12286.5
 21
931.4999999999995
 31
0.0
  0
LINE
  5
27D88
330
27C4B
100
AcDbEntity
  8
WAKUSEN-02
100
AcDbLine
 10
7710.0
 20
620.9999999999999
 30
0.0
 11
10075.49999999999
 21
620.9999999999999
 31
0.0
  0
TEXT
  5
27D89
330
27C4B
100
AcDbEntity
  8
WAKUMOJI-01
100
AcDbText
 10
7751.347597486038
 20
797.2136285022457
 30
0.0
 40
90.0
  1
名　称
  7
WAKUMOJI
100
AcDbText
  0
TEXT
  5
27D8A
330
27C4B
100
AcDbEntity
  8
WAKUMOJI-01
100
AcDbText
 10
7746.18955690947
 20
494.6733656174329
 30
0.0
 40
90.0
  1
機種名
  7
WAKUMOJI
100
AcDbText
  0
LINE
  5
27D8B
330
27C4B
100
AcDbEntity
  8
WAKUSEN-01
100
AcDbLine
 10
7710.0
 20
310.4999999999989
 30
0.0
 11
7710.0
 21
931.4999999999999
 31
0.0
  0
LINE
  5
27D8C
330
27C4B
100
AcDbEntity
  8
WAKUSEN-02
100
AcDbLine
 10
10075.49999999999
 20
310.4999999999973
 30
0.0
 11
10075.49999999999
 21
931.4999999999999
 31
0.0
  0
LINE
  5
27D8D
330
27C4B
100
AcDbEntity
  8
YODOROGO
100
AcDbLine
 10
11241.60162798446
 20
748.4060611609828
 30
0.0
 11
11186.10162798447
 21
748.4060611609828
 31
0.0
1001
AUTOCAD_POSTSCRIPT_FIGURE
1002
{
1000
PSFILL
1000
Grayscale
1000
Grayscale
1070
    25
1002
}
  0
LINE
  5
27D8E
330
27C4B
100
AcDbEntity
  8
YODOROGO
100
AcDbLine
 10
11186.10162798447
 20
730.4060611609828
 30
0.0
 11
11241.60162798446
 21
730.4060611609828
 31
0.0
1001
AUTOCAD_POSTSCRIPT_FIGURE
1002
{
1000
PSFILL
1000
Grayscale
1000
Grayscale
1070
    25
1002
}
  0
LINE
  5
27D8F
330
27C4B
100
AcDbEntity
  8
YODOROGO
100
AcDbLine
 10
11241.60162798446
 20
715.4060611609828
 30
0.0
 11
11186.10162798447
 21
715.4060611609828
 31
0.0
1001
AUTOCAD_POSTSCRIPT_FIGURE
1002
{
1000
PSFILL
1000
Grayscale
1000
Grayscale
1070
    25
1002
}
  0
LINE
  5
27D90
330
27C4B
100
AcDbEntity
  8
YODOROGO
100
AcDbLine
 10
11186.10162798447
 20
697.406061160983
 30
0.0
 11
11241.60162798446
 21
697.406061160983
 31
0.0
1001
AUTOCAD_POSTSCRIPT_FIGURE
1002
{
1000
PSFILL
1000
Grayscale
1000
Grayscale
1070
    25
1002
}
  0
LINE
  5
27D91
330
27C4B
100
AcDbEntity
  8
YODOROGO
100
AcDbLine
 10
11241.60162798446
 20
682.4060611609829
 30
0.0
 11
11186.10162798447
 21
682.4060611609829
 31
0.0
1001
AUTOCAD_POSTSCRIPT_FIGURE
1002
{
1000
PSFILL
1000
Grayscale
1000
Grayscale
1070
    25
1002
}
  0
LINE
  5
27D92
330
27C4B
100
AcDbEntity
  8
YODOROGO
100
AcDbLine
 10
11220.60162798447
 20
640.4060611609828
 30
0.0
 11
11241.60162798446
 21
640.4060611609828
 31
0.0
1001
AUTOCAD_POSTSCRIPT_FIGURE
1002
{
1000
PSFILL
1000
Grayscale
1000
Grayscale
1070
    25
1002
}
  0
LINE
  5
27D93
330
27C4B
100
AcDbEntity
  8
YODOROGO
100
AcDbLine
 10
11151.60162798447
 20
535.4060611609829
 30
0.0
 11
11226.60162798446
 21
555.5022505933164
 31
0.0
  0
LINE
  5
27D94
330
27C4B
100
AcDbEntity
  8
YODOROGO
100
AcDbLine
 10
11231.10162798446
 20
640.4060611609828
 30
0.0
 11
11207.10162798447
 21
640.4060611609828
 31
0.0
  0
ARC
  5
27D95
330
27C4B
100
AcDbEntity
  8
YODOROGO
100
AcDbCircle
 10
11345.38040618545
 20
677.9492284624735
 30
0.0
 40
143.2075740771177
100
AcDbArc
 50
213.9611167766784
 51
264.4787207431779
  0
ARC
  5
27D96
330
27C4B
100
AcDbEntity
  8
YODOROGO
100
AcDbCircle
 10
11345.38040618547
 20
677.9492284624883
 30
0.0
 40
143.2075740771305
100
AcDbArc
 50
208.141144204866
 51
212.9210361185994
  0
LINE
  5
27D97
330
27C4B
100
AcDbEntity
  8
YODOROGO
100
AcDbLine
 10
11164.27870236948
 20
583.8028730048376
 30
0.0
 11
11225.1690496907
 21
600.1183923964076
 31
0.0
  0
LINE
  5
27D98
330
27C4B
100
AcDbEntity
  8
YODOROGO
100
AcDbLine
 10
11151.60162798447
 20
535.4060611609829
 30
0.0
 11
11226.60162798446
 21
555.5022505933164
 31
0.0
  0
LINE
  5
27D99
330
27C4B
100
AcDbEntity
  8
YODOROGO
100
AcDbLine
 10
11231.10162798446
 20
640.4060611609828
 30
0.0
 11
11207.10162798447
 21
640.4060611609828
 31
0.0
  0
ARC
  5
27D9A
330
27C4B
100
AcDbEntity
  8
YODOROGO
100
AcDbCircle
 10
11345.38040618545
 20
677.9492284624735
 30
0.0
 40
143.2075740771177
100
AcDbArc
 50
213.9611167766784
 51
264.4787207431779
  0
LINE
  5
27D9B
330
27C4B
100
AcDbEntity
  8
YODOROGO
100
AcDbLine
 10
10797.60162798446
 20
682.4060611609829
 30
0.0
 11
10662.60162798446
 21
682.4060611609829
 31
0.0
  0
LINE
  5
27D9C
330
27C4B
100
AcDbEntity
  8
YODOROGO
100
AcDbLine
 10
10692.60162798446
 20
535.4060611609829
 30
0.0
 11
10797.60162798446
 21
535.4060611609829
 31
0.0
  0
LINE
  5
27D9D
330
27C4B
100
AcDbEntity
  8
YODOROGO
100
AcDbLine
 10
10773.60162798447
 20
721.4060611609824
 30
0.0
 11
10686.60162798446
 21
721.4060611609824
 31
0.0
  0
LINE
  5
27D9E
330
27C4B
100
AcDbEntity
  8
YODOROGO
100
AcDbLine
 10
10719.60162798446
 20
760.4060611609829
 30
0.0
 11
10746.60162798447
 21
760.4060611609829
 31
0.0
  0
LINE
  5
27D9F
330
27C4B
100
AcDbEntity
  8
YODOROGO
100
AcDbLine
 10
10662.60162798446
 20
640.4060611609828
 30
0.0
 11
10662.60162798446
 21
565.4060611609828
 31
0.0
  0
LINE
  5
27DA0
330
27C4B
100
AcDbEntity
  8
YODOROGO
100
AcDbLine
 10
10686.60162798446
 20
586.4060611609825
 30
0.0
 11
10686.60162798446
 21
640.4060611609828
 31
0.0
  0
LINE
  5
27DA1
330
27C4B
100
AcDbEntity
  8
YODOROGO
100
AcDbLine
 10
10719.60162798446
 20
655.4060611609838
 30
0.0
 11
10719.60162798446
 21
580.406061160983
 31
0.0
  0
LINE
  5
27DA2
330
27C4B
100
AcDbEntity
  8
YODOROGO
100
AcDbLine
 10
10446.60162798447
 20
631.4060611609833
 30
0.0
 11
10416.60162798446
 21
607.4896552667143
 31
0.0
  0
LINE
  5
27DA3
330
27C4B
100
AcDbEntity
  8
YODOROGO
100
AcDbLine
 10
10476.60162798446
 20
607.4896552667143
 30
0.0
 11
10446.60162798447
 21
631.4060611609833
 31
0.0
  0
LINE
  5
27DA4
330
27C4B
100
AcDbEntity
  8
YODOROGO
100
AcDbLine
 10
10446.60162798447
 20
640.4060611609828
 30
0.0
 11
10476.60162798446
 21
616.4896552667137
 31
0.0
  0
LINE
  5
27DA5
330
27C4B
100
AcDbEntity
  8
YODOROGO
100
AcDbLine
 10
10416.60162798446
 20
616.4896552667137
 30
0.0
 11
10446.60162798447
 21
640.4060611609828
 31
0.0
  0
LINE
  5
27DA6
330
27C4B
100
AcDbEntity
  8
YODOROGO
100
AcDbLine
 10
10515.34245150633
 20
622.406061160983
 30
0.0
 11
10515.34245150633
 21
631.4060611609825
 31
0.0
  0
LINE
  5
27DA7
330
27C4B
100
AcDbEntity
  8
YODOROGO
100
AcDbLine
 10
10491.60162798447
 20
631.4060611609825
 30
0.0
 11
10491.60162798447
 21
625.4060611609819
 31
0.0
  0
LINE
  5
27DA8
330
27C4B
100
AcDbEntity
  8
YODOROGO
100
AcDbLine
 10
10536.8008200866
 20
640.4060611609828
 30
0.0
 11
10536.8008200866
 21
620.813863977996
 31
0.0
1001
AUTOCAD_POSTSCRIPT_FIGURE
1002
{
1000
PSFILL
1000
Grayscale
1000
Grayscale
1070
   100
1002
}
  0
LINE
  5
27DA9
330
27C4B
100
AcDbEntity
  8
YODOROGO
100
AcDbLine
 10
10530.80082008658
 20
620.813863977996
 30
0.0
 11
10530.80082008658
 21
640.4060611609828
 31
0.0
1001
AUTOCAD_POSTSCRIPT_FIGURE
1002
{
1000
PSFILL
1000
Grayscale
1000
Grayscale
1070
   100
1002
}
  0
LINE
  5
27DAA
330
27C4B
100
AcDbEntity
  8
YODOROGO
100
AcDbLine
 10
10428.60162798447
 20
603.2894640162218
 30
0.0
 11
10428.60162798447
 21
612.2894640162221
 31
0.0
  0
LINE
  5
27DAB
330
27C4B
100
AcDbEntity
  8
YODOROGO
100
AcDbLine
 10
10464.60162798447
 20
603.2894640162218
 30
0.0
 11
10428.60162798447
 21
603.2894640162218
 31
0.0
  0
LINE
  5
27DAC
330
27C4B
100
AcDbEntity
  8
YODOROGO
100
AcDbLine
 10
10464.60162798447
 20
612.2894640162221
 30
0.0
 11
10464.60162798447
 21
603.2894640162218
 31
0.0
  0
LINE
  5
27DAD
330
27C4B
100
AcDbEntity
  8
YODOROGO
100
AcDbLine
 10
10428.60162798447
 20
612.2894640162221
 30
0.0
 11
10464.60162798447
 21
612.2894640162221
 31
0.0
  0
LINE
  5
27DAE
330
27C4B
100
AcDbEntity
  8
YODOROGO
100
AcDbLine
 10
10434.1910958434
 20
588.1885715139279
 30
0.0
 11
10419.60162798446
 21
553.4060611609827
 31
0.0
1001
AUTOCAD_POSTSCRIPT_FIGURE
1002
{
1000
PSFILL
1000
Grayscale
1000
Grayscale
1070
   100
1002
}
  0
LINE
  5
27DAF
330
27C4B
100
AcDbEntity
  8
YODOROGO
100
AcDbLine
 10
10416.60162798446
 20
588.1885715139279
 30
0.0
 11
10434.1910958434
 21
588.1885715139279
 31
0.0
1001
AUTOCAD_POSTSCRIPT_FIGURE
1002
{
1000
PSFILL
1000
Grayscale
1000
Grayscale
1070
   100
1002
}
  0
LINE
  5
27DB0
330
27C4B
100
AcDbEntity
  8
YODOROGO
100
AcDbLine
 10
10416.60162798446
 20
595.688571513928
 30
0.0
 11
10416.60162798446
 21
588.1885715139279
 31
0.0
1001
AUTOCAD_POSTSCRIPT_FIGURE
1002
{
1000
PSFILL
1000
Grayscale
1000
Grayscale
1070
   100
1002
}
  0
LINE
  5
27DB1
330
27C4B
100
AcDbEntity
  8
YODOROGO
100
AcDbLine
 10
10476.60162798446
 20
595.688571513928
 30
0.0
 11
10416.60162798446
 21
595.688571513928
 31
0.0
1001
AUTOCAD_POSTSCRIPT_FIGURE
1002
{
1000
PSFILL
1000
Grayscale
1000
Grayscale
1070
   100
1002
}
  0
LINE
  5
27DB2
330
27C4B
100
AcDbEntity
  8
YODOROGO
100
AcDbLine
 10
10476.60162798446
 20
588.1885715139279
 30
0.0
 11
10476.60162798446
 21
595.688571513928
 31
0.0
1001
AUTOCAD_POSTSCRIPT_FIGURE
1002
{
1000
PSFILL
1000
Grayscale
1000
Grayscale
1070
   100
1002
}
  0
LINE
  5
27DB3
330
27C4B
100
AcDbEntity
  8
YODOROGO
100
AcDbLine
 10
10441.69109584339
 20
588.1885715139279
 30
0.0
 11
10476.60162798446
 21
588.1885715139279
 31
0.0
1001
AUTOCAD_POSTSCRIPT_FIGURE
1002
{
1000
PSFILL
1000
Grayscale
1000
Grayscale
1070
   100
1002
}
  0
LINE
  5
27DB4
330
27C4B
100
AcDbEntity
  8
YODOROGO
100
AcDbLine
 10
10430.83001935679
 20
560.9060611609827
 30
0.0
 11
10441.69109584339
 21
588.1885715139279
 31
0.0
1001
AUTOCAD_POSTSCRIPT_FIGURE
1002
{
1000
PSFILL
1000
Grayscale
1000
Grayscale
1070
   100
1002
}
  0
LINE
  5
27DB5
330
27C4B
100
AcDbEntity
  8
YODOROGO
100
AcDbLine
 10
10463.27054655324
 20
560.9060611609827
 30
0.0
 11
10430.83001935679
 21
560.9060611609827
 31
0.0
1001
AUTOCAD_POSTSCRIPT_FIGURE
1002
{
1000
PSFILL
1000
Grayscale
1000
Grayscale
1070
   100
1002
}
  0
LINE
  5
27DB6
330
27C4B
100
AcDbEntity
  8
YODOROGO
100
AcDbLine
 10
10456.8993767966
 20
576.0876790116348
 30
0.0
 11
10463.27054655324
 21
560.9060611609827
 31
0.0
1001
AUTOCAD_POSTSCRIPT_FIGURE
1002
{
1000
PSFILL
1000
Grayscale
1000
Grayscale
1070
   100
1002
}
  0
LINE
  5
27DB7
330
27C4B
100
AcDbEntity
  8
YODOROGO
100
AcDbLine
 10
10462.8993767966
 20
576.0876790116348
 30
0.0
 11
10456.8993767966
 21
576.0876790116348
 31
0.0
1001
AUTOCAD_POSTSCRIPT_FIGURE
1002
{
1000
PSFILL
1000
Grayscale
1000
Grayscale
1070
   100
1002
}
  0
LINE
  5
27DB8
330
27C4B
100
AcDbEntity
  8
YODOROGO
100
AcDbLine
 10
10473.60162798447
 20
553.4060611609827
 30
0.0
 11
10462.8993767966
 21
576.0876790116348
 31
0.0
1001
AUTOCAD_POSTSCRIPT_FIGURE
1002
{
1000
PSFILL
1000
Grayscale
1000
Grayscale
1070
   100
1002
}
  0
LINE
  5
27DB9
330
27C4B
100
AcDbEntity
  8
YODOROGO
100
AcDbLine
 10
10419.60162798446
 20
553.4060611609827
 30
0.0
 11
10473.60162798447
 21
553.4060611609827
 31
0.0
1001
AUTOCAD_POSTSCRIPT_FIGURE
1002
{
1000
PSFILL
1000
Grayscale
1000
Grayscale
1070
   100
1002
}
  0
LINE
  5
27DBA
330
27C4B
100
AcDbEntity
  8
YODOROGO
100
AcDbLine
 10
10416.60162798446
 20
607.4896552667143
 30
0.0
 11
10416.60162798446
 21
616.4896552667137
 31
0.0
  0
LINE
  5
27DBB
330
27C4B
100
AcDbEntity
  8
YODOROGO
100
AcDbLine
 10
10476.60162798446
 20
616.4896552667137
 30
0.0
 11
10476.60162798446
 21
607.4896552667143
 31
0.0
  0
ARC
  5
27DBC
330
27C4B
100
AcDbEntity
  8
YODOROGO
100
AcDbCircle
 10
10584.72766580511
 20
600.3291619969972
 30
0.0
 40
65.99999999999997
100
AcDbArc
 50
280.3644312771313
 51
3.541483659218056
  0
ARC
  5
27DBD
330
27C4B
100
AcDbEntity
  8
YODOROGO
100
AcDbCircle
 10
10588.40851153474
 20
612.5991776107142
 30
0.0
 40
41.99999999999936
100
AcDbArc
 50
281.2490582504155
 51
348.7509417495832
  0
LINE
  5
27DBE
330
27C4B
100
AcDbEntity
  8
YODOROGO
100
AcDbLine
 10
10596.60162798446
 20
571.4060611609824
 30
0.0
 11
10596.60162798446
 21
535.4060611609829
 31
0.0
  0
LINE
  5
27DBF
330
27C4B
100
AcDbEntity
  8
YODOROGO
100
AcDbLine
 10
10507.53333890132
 20
603.9939618982182
 30
0.0
 11
10515.34245150633
 21
622.406061160983
 31
0.0
  0
LINE
  5
27DC0
330
27C4B
100
AcDbEntity
  8
YODOROGO
100
AcDbLine
 10
10515.60162798446
 20
593.6701837306505
 30
0.0
 11
10507.53333890132
 21
603.9939618982182
 31
0.0
  0
LINE
  5
27DC1
330
27C4B
100
AcDbEntity
  8
YODOROGO
100
AcDbLine
 10
10515.60162798446
 20
586.1701837306497
 30
0.0
 11
10515.60162798446
 21
593.6701837306505
 31
0.0
  0
LINE
  5
27DC2
330
27C4B
100
AcDbEntity
  8
YODOROGO
100
AcDbLine
 10
10506.60162798447
 20
594.4638989060739
 30
0.0
 11
10515.60162798446
 21
586.1701837306497
 31
0.0
  0
LINE
  5
27DC3
330
27C4B
100
AcDbEntity
  8
YODOROGO
100
AcDbLine
 10
10506.60162798447
 20
553.4060611609827
 30
0.0
 11
10506.60162798447
 21
594.4638989060739
 31
0.0
  0
LINE
  5
27DC4
330
27C4B
100
AcDbEntity
  8
YODOROGO
100
AcDbLine
 10
10500.60162798446
 20
553.4060611609827
 30
0.0
 11
10506.60162798447
 21
553.4060611609827
 31
0.0
  0
LINE
  5
27DC5
330
27C4B
100
AcDbEntity
  8
YODOROGO
100
AcDbLine
 10
10500.60162798446
 20
592.5020061336555
 30
0.0
 11
10500.60162798446
 21
553.4060611609827
 31
0.0
  0
LINE
  5
27DC6
330
27C4B
100
AcDbEntity
  8
YODOROGO
100
AcDbLine
 10
10491.60162798447
 20
574.7880296375358
 30
0.0
 11
10500.60162798446
 21
592.5020061336555
 31
0.0
  0
LINE
  5
27DC7
330
27C4B
100
AcDbEntity
  8
YODOROGO
100
AcDbLine
 10
10491.60162798447
 20
583.788029637536
 30
0.0
 11
10491.60162798447
 21
574.7880296375358
 31
0.0
  0
LINE
  5
27DC8
330
27C4B
100
AcDbEntity
  8
YODOROGO
100
AcDbLine
 10
10509.68579035926
 20
625.4060611609819
 30
0.0
 11
10491.60162798447
 21
583.788029637536
 31
0.0
  0
LINE
  5
27DC9
330
27C4B
100
AcDbEntity
  8
YODOROGO
100
AcDbLine
 10
10491.60162798447
 20
625.4060611609819
 30
0.0
 11
10509.68579035926
 21
625.4060611609819
 31
0.0
  0
LINE
  5
27DCA
330
27C4B
100
AcDbEntity
  8
YODOROGO
100
AcDbLine
 10
10518.80082008659
 20
620.813863977996
 30
0.0
 11
10530.80082008658
 21
620.813863977996
 31
0.0
1001
AUTOCAD_POSTSCRIPT_FIGURE
1002
{
1000
PSFILL
1000
Grayscale
1000
Grayscale
1070
   100
1002
}
  0
LINE
  5
27DCB
330
27C4B
100
AcDbEntity
  8
YODOROGO
100
AcDbLine
 10
10518.80082008659
 20
611.8138639779965
 30
0.0
 11
10518.80082008659
 21
620.813863977996
 31
0.0
1001
AUTOCAD_POSTSCRIPT_FIGURE
1002
{
1000
PSFILL
1000
Grayscale
1000
Grayscale
1070
   100
1002
}
  0
LINE
  5
27DCC
330
27C4B
100
AcDbEntity
  8
YODOROGO
100
AcDbLine
 10
10530.80082008658
 20
611.8138639779965
 30
0.0
 11
10518.80082008659
 21
611.8138639779965
 31
0.0
1001
AUTOCAD_POSTSCRIPT_FIGURE
1002
{
1000
PSFILL
1000
Grayscale
1000
Grayscale
1070
   100
1002
}
  0
LINE
  5
27DCD
330
27C4B
100
AcDbEntity
  8
YODOROGO
100
AcDbLine
 10
10530.80082008658
 20
562.4060611609831
 30
0.0
 11
10530.80082008658
 21
611.8138639779965
 31
0.0
1001
AUTOCAD_POSTSCRIPT_FIGURE
1002
{
1000
PSFILL
1000
Grayscale
1000
Grayscale
1070
   100
1002
}
  0
LINE
  5
27DCE
330
27C4B
100
AcDbEntity
  8
YODOROGO
100
AcDbLine
 10
10518.8008200866
 20
562.4060611609831
 30
0.0
 11
10530.80082008658
 21
562.4060611609831
 31
0.0
1001
AUTOCAD_POSTSCRIPT_FIGURE
1002
{
1000
PSFILL
1000
Grayscale
1000
Grayscale
1070
   100
1002
}
  0
LINE
  5
27DCF
330
27C4B
100
AcDbEntity
  8
YODOROGO
100
AcDbLine
 10
10518.8008200866
 20
553.4060611609827
 30
0.0
 11
10518.8008200866
 21
562.4060611609831
 31
0.0
1001
AUTOCAD_POSTSCRIPT_FIGURE
1002
{
1000
PSFILL
1000
Grayscale
1000
Grayscale
1070
   100
1002
}
  0
LINE
  5
27DD0
330
27C4B
100
AcDbEntity
  8
YODOROGO
100
AcDbLine
 10
10551.60162798447
 20
553.4060611609827
 30
0.0
 11
10518.8008200866
 21
553.4060611609827
 31
0.0
1001
AUTOCAD_POSTSCRIPT_FIGURE
1002
{
1000
PSFILL
1000
Grayscale
1000
Grayscale
1070
   100
1002
}
  0
LINE
  5
27DD1
330
27C4B
100
AcDbEntity
  8
YODOROGO
100
AcDbLine
 10
10551.60162798447
 20
562.4060611609831
 30
0.0
 11
10551.60162798447
 21
553.4060611609827
 31
0.0
1001
AUTOCAD_POSTSCRIPT_FIGURE
1002
{
1000
PSFILL
1000
Grayscale
1000
Grayscale
1070
   100
1002
}
  0
LINE
  5
27DD2
330
27C4B
100
AcDbEntity
  8
YODOROGO
100
AcDbLine
 10
10536.8008200866
 20
562.4060611609831
 30
0.0
 11
10551.60162798447
 21
562.4060611609831
 31
0.0
1001
AUTOCAD_POSTSCRIPT_FIGURE
1002
{
1000
PSFILL
1000
Grayscale
1000
Grayscale
1070
   100
1002
}
  0
LINE
  5
27DD3
330
27C4B
100
AcDbEntity
  8
YODOROGO
100
AcDbLine
 10
10536.8008200866
 20
611.8138639779965
 30
0.0
 11
10536.8008200866
 21
562.4060611609831
 31
0.0
1001
AUTOCAD_POSTSCRIPT_FIGURE
1002
{
1000
PSFILL
1000
Grayscale
1000
Grayscale
1070
   100
1002
}
  0
LINE
  5
27DD4
330
27C4B
100
AcDbEntity
  8
YODOROGO
100
AcDbLine
 10
10551.60162798447
 20
611.8138639779965
 30
0.0
 11
10536.8008200866
 21
611.8138639779965
 31
0.0
1001
AUTOCAD_POSTSCRIPT_FIGURE
1002
{
1000
PSFILL
1000
Grayscale
1000
Grayscale
1070
   100
1002
}
  0
LINE
  5
27DD5
330
27C4B
100
AcDbEntity
  8
YODOROGO
100
AcDbLine
 10
10551.60162798447
 20
620.813863977996
 30
0.0
 11
10551.60162798447
 21
611.8138639779965
 31
0.0
1001
AUTOCAD_POSTSCRIPT_FIGURE
1002
{
1000
PSFILL
1000
Grayscale
1000
Grayscale
1070
   100
1002
}
  0
LINE
  5
27DD6
330
27C4B
100
AcDbEntity
  8
YODOROGO
100
AcDbLine
 10
10536.8008200866
 20
620.813863977996
 30
0.0
 11
10551.60162798447
 21
620.813863977996
 31
0.0
1001
AUTOCAD_POSTSCRIPT_FIGURE
1002
{
1000
PSFILL
1000
Grayscale
1000
Grayscale
1070
   100
1002
}
  0
LINE
  5
27DD7
330
27C4B
100
AcDbEntity
  8
YODOROGO
100
AcDbLine
 10
10650.60162798447
 20
625.406061160983
 30
0.0
 11
10629.60162798447
 21
625.406061160983
 31
0.0
  0
LINE
  5
27DD8
330
27C4B
100
AcDbEntity
  8
YODOROGO
100
AcDbLine
 10
10650.60162798447
 20
604.4060611609832
 30
0.0
 11
10650.60162798447
 21
625.406061160983
 31
0.0
  0
LINE
  5
27DD9
330
27C4B
100
AcDbEntity
  8
YODOROGO
100
AcDbLine
 10
10629.60162798447
 20
625.406061160983
 30
0.0
 11
10629.60162798447
 21
604.4060611609832
 31
0.0
  0
ARC
  5
27DDA
330
27C4B
100
AcDbEntity
  8
YODOROGO
100
AcDbCircle
 10
10692.60162798446
 20
565.4060611609828
 30
0.0
 40
30.0
100
AcDbArc
 50
180.0
 51
270.0
  0
ARC
  5
27DDB
330
27C4B
100
AcDbEntity
  8
YODOROGO
100
AcDbCircle
 10
10701.60162798446
 20
586.4060611609825
 30
0.0
 40
15.0
100
AcDbArc
 50
180.0
 51
270.0
  0
LINE
  5
27DDC
330
27C4B
100
AcDbEntity
  8
YODOROGO
100
AcDbLine
 10
10710.60162798447
 20
571.4060611609824
 30
0.0
 11
10701.60162798446
 21
571.4060611609824
 31
0.0
  0
ARC
  5
27DDD
330
27C4B
100
AcDbEntity
  8
YODOROGO
100
AcDbCircle
 10
10710.60162798447
 20
580.4060611609819
 30
0.0
 40
8.999999999998637
100
AcDbArc
 50
270.0
 51
0.0000000000054281
  0
LINE
  5
27DDE
330
27C4B
100
AcDbEntity
  8
YODOROGO
100
AcDbLine
 10
10425.60162798447
 20
709.0449677976399
 30
0.0
 11
10416.60162798446
 21
691.4162804818772
 31
0.0
1001
AUTOCAD_POSTSCRIPT_FIGURE
1002
{
1000
PSFILL
1000
Grayscale
1000
Grayscale
1070
   100
1002
}
  0
LINE
  5
27DDF
330
27C4B
100
AcDbEntity
  8
YODOROGO
100
AcDbLine
 10
10425.60162798447
 20
655.406061160983
 30
0.0
 11
10425.60162798447
 21
709.0449677976399
 31
0.0
1001
AUTOCAD_POSTSCRIPT_FIGURE
1002
{
1000
PSFILL
1000
Grayscale
1000
Grayscale
1070
   100
1002
}
  0
LINE
  5
27DE0
330
27C4B
100
AcDbEntity
  8
YODOROGO
100
AcDbLine
 10
10431.60162798447
 20
655.406061160983
 30
0.0
 11
10425.60162798447
 21
655.406061160983
 31
0.0
1001
AUTOCAD_POSTSCRIPT_FIGURE
1002
{
1000
PSFILL
1000
Grayscale
1000
Grayscale
1070
   100
1002
}
  0
LINE
  5
27DE1
330
27C4B
100
AcDbEntity
  8
YODOROGO
100
AcDbLine
 10
10431.60162798447
 20
710.1642495319751
 30
0.0
 11
10431.60162798447
 21
655.406061160983
 31
0.0
1001
AUTOCAD_POSTSCRIPT_FIGURE
1002
{
1000
PSFILL
1000
Grayscale
1000
Grayscale
1070
   100
1002
}
  0
LINE
  5
27DE2
330
27C4B
100
AcDbEntity
  8
YODOROGO
100
AcDbLine
 10
10440.60162798446
 20
700.3705343565512
 30
0.0
 11
10431.60162798447
 21
710.1642495319751
 31
0.0
1001
AUTOCAD_POSTSCRIPT_FIGURE
1002
{
1000
PSFILL
1000
Grayscale
1000
Grayscale
1070
   100
1002
}
  0
LINE
  5
27DE3
330
27C4B
100
AcDbEntity
  8
YODOROGO
100
AcDbLine
 10
10440.60162798446
 20
706.3705343565509
 30
0.0
 11
10440.60162798446
 21
700.3705343565512
 31
0.0
1001
AUTOCAD_POSTSCRIPT_FIGURE
1002
{
1000
PSFILL
1000
Grayscale
1000
Grayscale
1070
   100
1002
}
  0
LINE
  5
27DE4
330
27C4B
100
AcDbEntity
  8
YODOROGO
100
AcDbLine
 10
10431.60162798447
 20
719.1642495319745
 30
0.0
 11
10440.60162798446
 21
706.3705343565509
 31
0.0
1001
AUTOCAD_POSTSCRIPT_FIGURE
1002
{
1000
PSFILL
1000
Grayscale
1000
Grayscale
1070
   100
1002
}
  0
LINE
  5
27DE5
330
27C4B
100
AcDbEntity
  8
YODOROGO
100
AcDbLine
 10
10431.60162798447
 20
727.4060611609828
 30
0.0
 11
10431.60162798447
 21
719.1642495319745
 31
0.0
1001
AUTOCAD_POSTSCRIPT_FIGURE
1002
{
1000
PSFILL
1000
Grayscale
1000
Grayscale
1070
   100
1002
}
  0
LINE
  5
27DE6
330
27C4B
100
AcDbEntity
  8
YODOROGO
100
AcDbLine
 10
10458.60162798446
 20
727.4060611609828
 30
0.0
 11
10431.60162798447
 21
727.4060611609828
 31
0.0
1001
AUTOCAD_POSTSCRIPT_FIGURE
1002
{
1000
PSFILL
1000
Grayscale
1000
Grayscale
1070
   100
1002
}
  0
LINE
  5
27DE7
330
27C4B
100
AcDbEntity
  8
YODOROGO
100
AcDbLine
 10
10458.60162798446
 20
712.7131308511124
 30
0.0
 11
10458.60162798446
 21
727.4060611609828
 31
0.0
1001
AUTOCAD_POSTSCRIPT_FIGURE
1002
{
1000
PSFILL
1000
Grayscale
1000
Grayscale
1070
   100
1002
}
  0
LINE
  5
27DE8
330
27C4B
100
AcDbEntity
  8
YODOROGO
100
AcDbLine
 10
10446.60162798447
 20
712.7131308511124
 30
0.0
 11
10458.60162798446
 21
712.7131308511124
 31
0.0
1001
AUTOCAD_POSTSCRIPT_FIGURE
1002
{
1000
PSFILL
1000
Grayscale
1000
Grayscale
1070
   100
1002
}
  0
LINE
  5
27DE9
330
27C4B
100
AcDbEntity
  8
YODOROGO
100
AcDbLine
 10
10446.60162798447
 20
706.7131308511119
 30
0.0
 11
10446.60162798447
 21
712.7131308511124
 31
0.0
1001
AUTOCAD_POSTSCRIPT_FIGURE
1002
{
1000
PSFILL
1000
Grayscale
1000
Grayscale
1070
   100
1002
}
  0
LINE
  5
27DEA
330
27C4B
100
AcDbEntity
  8
YODOROGO
100
AcDbLine
 10
10458.60162798446
 20
706.7131308511119
 30
0.0
 11
10446.60162798447
 21
706.7131308511119
 31
0.0
1001
AUTOCAD_POSTSCRIPT_FIGURE
1002
{
1000
PSFILL
1000
Grayscale
1000
Grayscale
1070
   100
1002
}
  0
LINE
  5
27DEB
330
27C4B
100
AcDbEntity
  8
YODOROGO
100
AcDbLine
 10
10458.60162798446
 20
704.8571917366647
 30
0.0
 11
10458.60162798446
 21
706.7131308511119
 31
0.0
1001
AUTOCAD_POSTSCRIPT_FIGURE
1002
{
1000
PSFILL
1000
Grayscale
1000
Grayscale
1070
   100
1002
}
  0
LINE
  5
27DEC
330
27C4B
100
AcDbEntity
  8
YODOROGO
100
AcDbLine
 10
10443.60162798447
 20
679.8656179355313
 30
0.0
 11
10458.60162798446
 21
704.8571917366647
 31
0.0
1001
AUTOCAD_POSTSCRIPT_FIGURE
1002
{
1000
PSFILL
1000
Grayscale
1000
Grayscale
1070
   100
1002
}
  0
LINE
  5
27DED
330
27C4B
100
AcDbEntity
  8
YODOROGO
100
AcDbLine
 10
10443.60162798447
 20
673.8656179355309
 30
0.0
 11
10443.60162798447
 21
679.8656179355313
 31
0.0
1001
AUTOCAD_POSTSCRIPT_FIGURE
1002
{
1000
PSFILL
1000
Grayscale
1000
Grayscale
1070
   100
1002
}
  0
LINE
  5
27DEE
330
27C4B
100
AcDbEntity
  8
YODOROGO
100
AcDbLine
 10
10458.60162798446
 20
692.8571917366638
 30
0.0
 11
10443.60162798447
 21
673.8656179355309
 31
0.0
1001
AUTOCAD_POSTSCRIPT_FIGURE
1002
{
1000
PSFILL
1000
Grayscale
1000
Grayscale
1070
   100
1002
}
  0
LINE
  5
27DEF
330
27C4B
100
AcDbEntity
  8
YODOROGO
100
AcDbLine
 10
10458.60162798446
 20
655.406061160983
 30
0.0
 11
10458.60162798446
 21
692.8571917366638
 31
0.0
1001
AUTOCAD_POSTSCRIPT_FIGURE
1002
{
1000
PSFILL
1000
Grayscale
1000
Grayscale
1070
   100
1002
}
  0
LINE
  5
27DF0
330
27C4B
100
AcDbEntity
  8
YODOROGO
100
AcDbLine
 10
10464.60162798447
 20
655.406061160983
 30
0.0
 11
10458.60162798446
 21
655.406061160983
 31
0.0
1001
AUTOCAD_POSTSCRIPT_FIGURE
1002
{
1000
PSFILL
1000
Grayscale
1000
Grayscale
1070
   100
1002
}
  0
LINE
  5
27DF1
330
27C4B
100
AcDbEntity
  8
YODOROGO
100
AcDbLine
 10
10464.60162798447
 20
693.5283795595521
 30
0.0
 11
10464.60162798447
 21
655.406061160983
 31
0.0
1001
AUTOCAD_POSTSCRIPT_FIGURE
1002
{
1000
PSFILL
1000
Grayscale
1000
Grayscale
1070
   100
1002
}
  0
LINE
  5
27DF2
330
27C4B
100
AcDbEntity
  8
YODOROGO
100
AcDbLine
 10
10476.60162798446
 20
673.8656179355309
 30
0.0
 11
10464.60162798447
 21
693.5283795595521
 31
0.0
1001
AUTOCAD_POSTSCRIPT_FIGURE
1002
{
1000
PSFILL
1000
Grayscale
1000
Grayscale
1070
   100
1002
}
  0
LINE
  5
27DF3
330
27C4B
100
AcDbEntity
  8
YODOROGO
100
AcDbLine
 10
10476.60162798446
 20
679.8656179355313
 30
0.0
 11
10476.60162798446
 21
673.8656179355309
 31
0.0
1001
AUTOCAD_POSTSCRIPT_FIGURE
1002
{
1000
PSFILL
1000
Grayscale
1000
Grayscale
1070
   100
1002
}
  0
LINE
  5
27DF4
330
27C4B
100
AcDbEntity
  8
YODOROGO
100
AcDbLine
 10
10464.60162798447
 20
705.5283795595531
 30
0.0
 11
10476.60162798446
 21
679.8656179355313
 31
0.0
1001
AUTOCAD_POSTSCRIPT_FIGURE
1002
{
1000
PSFILL
1000
Grayscale
1000
Grayscale
1070
   100
1002
}
  0
LINE
  5
27DF5
330
27C4B
100
AcDbEntity
  8
YODOROGO
100
AcDbLine
 10
10464.60162798447
 20
706.7131308511128
 30
0.0
 11
10464.60162798447
 21
705.5283795595531
 31
0.0
1001
AUTOCAD_POSTSCRIPT_FIGURE
1002
{
1000
PSFILL
1000
Grayscale
1000
Grayscale
1070
   100
1002
}
  0
LINE
  5
27DF6
330
27C4B
100
AcDbEntity
  8
YODOROGO
100
AcDbLine
 10
10476.60162798446
 20
706.7131308511119
 30
0.0
 11
10464.60162798447
 21
706.7131308511128
 31
0.0
1001
AUTOCAD_POSTSCRIPT_FIGURE
1002
{
1000
PSFILL
1000
Grayscale
1000
Grayscale
1070
   100
1002
}
  0
LINE
  5
27DF7
330
27C4B
100
AcDbEntity
  8
YODOROGO
100
AcDbLine
 10
10476.60162798446
 20
712.7131308511124
 30
0.0
 11
10476.60162798446
 21
706.7131308511119
 31
0.0
1001
AUTOCAD_POSTSCRIPT_FIGURE
1002
{
1000
PSFILL
1000
Grayscale
1000
Grayscale
1070
   100
1002
}
  0
LINE
  5
27DF8
330
27C4B
100
AcDbEntity
  8
YODOROGO
100
AcDbLine
 10
10464.60162798447
 20
712.7131308511124
 30
0.0
 11
10476.60162798446
 21
712.7131308511124
 31
0.0
1001
AUTOCAD_POSTSCRIPT_FIGURE
1002
{
1000
PSFILL
1000
Grayscale
1000
Grayscale
1070
   100
1002
}
  0
LINE
  5
27DF9
330
27C4B
100
AcDbEntity
  8
YODOROGO
100
AcDbLine
 10
10464.60162798447
 20
727.4060611609828
 30
0.0
 11
10464.60162798447
 21
712.7131308511124
 31
0.0
1001
AUTOCAD_POSTSCRIPT_FIGURE
1002
{
1000
PSFILL
1000
Grayscale
1000
Grayscale
1070
   100
1002
}
  0
LINE
  5
27DFA
330
27C4B
100
AcDbEntity
  8
YODOROGO
100
AcDbLine
 10
10476.60162798446
 20
727.4060611609828
 30
0.0
 11
10464.60162798447
 21
727.4060611609828
 31
0.0
1001
AUTOCAD_POSTSCRIPT_FIGURE
1002
{
1000
PSFILL
1000
Grayscale
1000
Grayscale
1070
   100
1002
}
  0
LINE
  5
27DFB
330
27C4B
100
AcDbEntity
  8
YODOROGO
100
AcDbLine
 10
10476.60162798446
 20
733.4060611609828
 30
0.0
 11
10476.60162798446
 21
727.4060611609828
 31
0.0
1001
AUTOCAD_POSTSCRIPT_FIGURE
1002
{
1000
PSFILL
1000
Grayscale
1000
Grayscale
1070
   100
1002
}
  0
LINE
  5
27DFC
330
27C4B
100
AcDbEntity
  8
YODOROGO
100
AcDbLine
 10
10464.60162798447
 20
733.4060611609828
 30
0.0
 11
10476.60162798446
 21
733.4060611609828
 31
0.0
1001
AUTOCAD_POSTSCRIPT_FIGURE
1002
{
1000
PSFILL
1000
Grayscale
1000
Grayscale
1070
   100
1002
}
  0
LINE
  5
27DFD
330
27C4B
100
AcDbEntity
  8
YODOROGO
100
AcDbLine
 10
10464.60162798447
 20
742.4060611609832
 30
0.0
 11
10464.60162798447
 21
733.4060611609828
 31
0.0
1001
AUTOCAD_POSTSCRIPT_FIGURE
1002
{
1000
PSFILL
1000
Grayscale
1000
Grayscale
1070
   100
1002
}
  0
LINE
  5
27DFE
330
27C4B
100
AcDbEntity
  8
YODOROGO
100
AcDbLine
 10
10458.60162798446
 20
742.4060611609832
 30
0.0
 11
10464.60162798447
 21
742.4060611609832
 31
0.0
1001
AUTOCAD_POSTSCRIPT_FIGURE
1002
{
1000
PSFILL
1000
Grayscale
1000
Grayscale
1070
   100
1002
}
  0
LINE
  5
27DFF
330
27C4B
100
AcDbEntity
  8
YODOROGO
100
AcDbLine
 10
10458.60162798446
 20
733.4060611609828
 30
0.0
 11
10458.60162798446
 21
742.4060611609832
 31
0.0
1001
AUTOCAD_POSTSCRIPT_FIGURE
1002
{
1000
PSFILL
1000
Grayscale
1000
Grayscale
1070
   100
1002
}
  0
LINE
  5
27E00
330
27C4B
100
AcDbEntity
  8
YODOROGO
100
AcDbLine
 10
10449.60162798447
 20
733.4060611609828
 30
0.0
 11
10458.60162798446
 21
733.4060611609828
 31
0.0
1001
AUTOCAD_POSTSCRIPT_FIGURE
1002
{
1000
PSFILL
1000
Grayscale
1000
Grayscale
1070
   100
1002
}
  0
LINE
  5
27E01
330
27C4B
100
AcDbEntity
  8
YODOROGO
100
AcDbLine
 10
10449.60162798447
 20
742.4060611609832
 30
0.0
 11
10449.60162798447
 21
733.4060611609828
 31
0.0
1001
AUTOCAD_POSTSCRIPT_FIGURE
1002
{
1000
PSFILL
1000
Grayscale
1000
Grayscale
1070
   100
1002
}
  0
LINE
  5
27E02
330
27C4B
100
AcDbEntity
  8
YODOROGO
100
AcDbLine
 10
10443.60162798447
 20
742.4060611609832
 30
0.0
 11
10449.60162798447
 21
742.4060611609832
 31
0.0
1001
AUTOCAD_POSTSCRIPT_FIGURE
1002
{
1000
PSFILL
1000
Grayscale
1000
Grayscale
1070
   100
1002
}
  0
LINE
  5
27E03
330
27C4B
100
AcDbEntity
  8
YODOROGO
100
AcDbLine
 10
10443.60162798447
 20
733.4060611609828
 30
0.0
 11
10443.60162798447
 21
742.4060611609832
 31
0.0
1001
AUTOCAD_POSTSCRIPT_FIGURE
1002
{
1000
PSFILL
1000
Grayscale
1000
Grayscale
1070
   100
1002
}
  0
LINE
  5
27E04
330
27C4B
100
AcDbEntity
  8
YODOROGO
100
AcDbLine
 10
10431.60162798447
 20
733.4060611609828
 30
0.0
 11
10443.60162798447
 21
733.4060611609828
 31
0.0
1001
AUTOCAD_POSTSCRIPT_FIGURE
1002
{
1000
PSFILL
1000
Grayscale
1000
Grayscale
1070
   100
1002
}
  0
LINE
  5
27E05
330
27C4B
100
AcDbEntity
  8
YODOROGO
100
AcDbLine
 10
10431.60162798447
 20
742.4060611609832
 30
0.0
 11
10431.60162798447
 21
733.4060611609828
 31
0.0
1001
AUTOCAD_POSTSCRIPT_FIGURE
1002
{
1000
PSFILL
1000
Grayscale
1000
Grayscale
1070
   100
1002
}
  0
LINE
  5
27E06
330
27C4B
100
AcDbEntity
  8
YODOROGO
100
AcDbLine
 10
10425.60162798447
 20
742.4060611609832
 30
0.0
 11
10431.60162798447
 21
742.4060611609832
 31
0.0
1001
AUTOCAD_POSTSCRIPT_FIGURE
1002
{
1000
PSFILL
1000
Grayscale
1000
Grayscale
1070
   100
1002
}
  0
LINE
  5
27E07
330
27C4B
100
AcDbEntity
  8
YODOROGO
100
AcDbLine
 10
10425.60162798447
 20
733.4060611609828
 30
0.0
 11
10425.60162798447
 21
742.4060611609832
 31
0.0
1001
AUTOCAD_POSTSCRIPT_FIGURE
1002
{
1000
PSFILL
1000
Grayscale
1000
Grayscale
1070
   100
1002
}
  0
LINE
  5
27E08
330
27C4B
100
AcDbEntity
  8
YODOROGO
100
AcDbLine
 10
10416.60162798446
 20
733.4060611609828
 30
0.0
 11
10425.60162798447
 21
733.4060611609828
 31
0.0
1001
AUTOCAD_POSTSCRIPT_FIGURE
1002
{
1000
PSFILL
1000
Grayscale
1000
Grayscale
1070
   100
1002
}
  0
LINE
  5
27E09
330
27C4B
100
AcDbEntity
  8
YODOROGO
100
AcDbLine
 10
10416.60162798446
 20
727.4060611609828
 30
0.0
 11
10416.60162798446
 21
733.4060611609828
 31
0.0
1001
AUTOCAD_POSTSCRIPT_FIGURE
1002
{
1000
PSFILL
1000
Grayscale
1000
Grayscale
1070
   100
1002
}
  0
LINE
  5
27E0A
330
27C4B
100
AcDbEntity
  8
YODOROGO
100
AcDbLine
 10
10425.60162798447
 20
727.4060611609828
 30
0.0
 11
10416.60162798446
 21
727.4060611609828
 31
0.0
1001
AUTOCAD_POSTSCRIPT_FIGURE
1002
{
1000
PSFILL
1000
Grayscale
1000
Grayscale
1070
   100
1002
}
  0
LINE
  5
27E0B
330
27C4B
100
AcDbEntity
  8
YODOROGO
100
AcDbLine
 10
10425.60162798447
 20
718.0449677976392
 30
0.0
 11
10425.60162798447
 21
727.4060611609828
 31
0.0
1001
AUTOCAD_POSTSCRIPT_FIGURE
1002
{
1000
PSFILL
1000
Grayscale
1000
Grayscale
1070
   100
1002
}
  0
LINE
  5
27E0C
330
27C4B
100
AcDbEntity
  8
YODOROGO
100
AcDbLine
 10
10416.60162798446
 20
697.4162804818766
 30
0.0
 11
10425.60162798447
 21
718.0449677976392
 31
0.0
1001
AUTOCAD_POSTSCRIPT_FIGURE
1002
{
1000
PSFILL
1000
Grayscale
1000
Grayscale
1070
   100
1002
}
  0
LINE
  5
27E0D
330
27C4B
100
AcDbEntity
  8
YODOROGO
100
AcDbLine
 10
10416.60162798446
 20
691.4162804818772
 30
0.0
 11
10416.60162798446
 21
697.4162804818766
 31
0.0
1001
AUTOCAD_POSTSCRIPT_FIGURE
1002
{
1000
PSFILL
1000
Grayscale
1000
Grayscale
1070
   100
1002
}
  0
LINE
  5
27E0E
330
27C4B
100
AcDbEntity
  8
YODOROGO
100
AcDbLine
 10
10596.60162798446
 20
700.406061160983
 30
0.0
 11
10650.60162798447
 21
684.3291096151149
 31
0.0
1001
AUTOCAD_POSTSCRIPT_FIGURE
1002
{
1000
PSFILL
1000
Grayscale
1000
Grayscale
1070
   100
1002
}
  0
LINE
  5
27E0F
330
27C4B
100
AcDbEntity
  8
YODOROGO
100
AcDbLine
 10
10650.60162798447
 20
657.3291096151146
 30
0.0
 11
10596.60162798446
 21
673.4060611609827
 31
0.0
1001
AUTOCAD_POSTSCRIPT_FIGURE
1002
{
1000
PSFILL
1000
Grayscale
1000
Grayscale
1070
   100
1002
}
  0
LINE
  5
27E10
330
27C4B
100
AcDbEntity
  8
YODOROGO
100
AcDbLine
 10
10650.60162798447
 20
744.329109615115
 30
0.0
 11
10596.60162798446
 21
760.4060611609829
 31
0.0
1001
AUTOCAD_POSTSCRIPT_FIGURE
1002
{
1000
PSFILL
1000
Grayscale
1000
Grayscale
1070
   100
1002
}
  0
LINE
  5
27E11
330
27C4B
100
AcDbEntity
  8
YODOROGO
100
AcDbLine
 10
10596.60162798446
 20
734.9060611609829
 30
0.0
 11
10650.60162798447
 21
718.829109615115
 31
0.0
1001
AUTOCAD_POSTSCRIPT_FIGURE
1002
{
1000
PSFILL
1000
Grayscale
1000
Grayscale
1070
   100
1002
}
  0
LINE
  5
27E12
330
27C4B
100
AcDbEntity
  8
YODOROGO
100
AcDbLine
 10
10596.60162798446
 20
673.4060611609827
 30
0.0
 11
10596.60162798446
 21
700.406061160983
 31
0.0
1001
AUTOCAD_POSTSCRIPT_FIGURE
1002
{
1000
PSFILL
1000
Grayscale
1000
Grayscale
1070
   100
1002
}
  0
LINE
  5
27E13
330
27C4B
100
AcDbEntity
  8
YODOROGO
100
AcDbLine
 10
10596.60162798446
 20
760.4060611609829
 30
0.0
 11
10596.60162798446
 21
734.9060611609829
 31
0.0
1001
AUTOCAD_POSTSCRIPT_FIGURE
1002
{
1000
PSFILL
1000
Grayscale
1000
Grayscale
1070
   100
1002
}
  0
LINE
  5
27E14
330
27C4B
100
AcDbEntity
  8
YODOROGO
100
AcDbLine
 10
10530.08862007752
 20
727.4060611609828
 30
0.0
 11
10548.60162798447
 21
655.406061160983
 31
0.0
1001
AUTOCAD_POSTSCRIPT_FIGURE
1002
{
1000
PSFILL
1000
Grayscale
1000
Grayscale
1070
   100
1002
}
  0
LINE
  5
27E15
330
27C4B
100
AcDbEntity
  8
YODOROGO
100
AcDbLine
 10
10491.60162798447
 20
727.4060611609828
 30
0.0
 11
10530.08862007752
 21
727.4060611609828
 31
0.0
1001
AUTOCAD_POSTSCRIPT_FIGURE
1002
{
1000
PSFILL
1000
Grayscale
1000
Grayscale
1070
   100
1002
}
  0
LINE
  5
27E16
330
27C4B
100
AcDbEntity
  8
YODOROGO
100
AcDbLine
 10
10491.60162798447
 20
733.4060611609828
 30
0.0
 11
10491.60162798447
 21
727.4060611609828
 31
0.0
1001
AUTOCAD_POSTSCRIPT_FIGURE
1002
{
1000
PSFILL
1000
Grayscale
1000
Grayscale
1070
   100
1002
}
  0
LINE
  5
27E17
330
27C4B
100
AcDbEntity
  8
YODOROGO
100
AcDbLine
 10
10528.72757944497
 20
733.4060611609828
 30
0.0
 11
10491.60162798447
 21
733.4060611609828
 31
0.0
1001
AUTOCAD_POSTSCRIPT_FIGURE
1002
{
1000
PSFILL
1000
Grayscale
1000
Grayscale
1070
   100
1002
}
  0
LINE
  5
27E18
330
27C4B
100
AcDbEntity
  8
YODOROGO
100
AcDbLine
 10
10526.68601849614
 20
742.4060611609832
 30
0.0
 11
10528.72757944497
 21
733.4060611609828
 31
0.0
1001
AUTOCAD_POSTSCRIPT_FIGURE
1002
{
1000
PSFILL
1000
Grayscale
1000
Grayscale
1070
   100
1002
}
  0
LINE
  5
27E19
330
27C4B
100
AcDbEntity
  8
YODOROGO
100
AcDbLine
 10
10534.18601849614
 20
742.4060611609832
 30
0.0
 11
10526.68601849614
 21
742.4060611609832
 31
0.0
1001
AUTOCAD_POSTSCRIPT_FIGURE
1002
{
1000
PSFILL
1000
Grayscale
1000
Grayscale
1070
   100
1002
}
  0
LINE
  5
27E1A
330
27C4B
100
AcDbEntity
  8
YODOROGO
100
AcDbLine
 10
10535.92757944497
 20
733.4060611609828
 30
0.0
 11
10534.18601849614
 21
742.4060611609832
 31
0.0
1001
AUTOCAD_POSTSCRIPT_FIGURE
1002
{
1000
PSFILL
1000
Grayscale
1000
Grayscale
1070
   100
1002
}
  0
LINE
  5
27E1B
330
27C4B
100
AcDbEntity
  8
YODOROGO
100
AcDbLine
 10
10545.60162798447
 20
733.4060611609828
 30
0.0
 11
10535.92757944497
 21
733.4060611609828
 31
0.0
1001
AUTOCAD_POSTSCRIPT_FIGURE
1002
{
1000
PSFILL
1000
Grayscale
1000
Grayscale
1070
   100
1002
}
  0
LINE
  5
27E1C
330
27C4B
100
AcDbEntity
  8
YODOROGO
100
AcDbLine
 10
10545.60162798447
 20
742.4060611609832
 30
0.0
 11
10545.60162798447
 21
733.4060611609828
 31
0.0
1001
AUTOCAD_POSTSCRIPT_FIGURE
1002
{
1000
PSFILL
1000
Grayscale
1000
Grayscale
1070
   100
1002
}
  0
LINE
  5
27E1D
330
27C4B
100
AcDbEntity
  8
YODOROGO
100
AcDbLine
 10
10551.60162798447
 20
742.4060611609832
 30
0.0
 11
10545.60162798447
 21
742.4060611609832
 31
0.0
1001
AUTOCAD_POSTSCRIPT_FIGURE
1002
{
1000
PSFILL
1000
Grayscale
1000
Grayscale
1070
   100
1002
}
  0
LINE
  5
27E1E
330
27C4B
100
AcDbEntity
  8
YODOROGO
100
AcDbLine
 10
10551.60162798447
 20
733.4060611609828
 30
0.0
 11
10551.60162798447
 21
742.4060611609832
 31
0.0
1001
AUTOCAD_POSTSCRIPT_FIGURE
1002
{
1000
PSFILL
1000
Grayscale
1000
Grayscale
1070
   100
1002
}
  0
LINE
  5
27E1F
330
27C4B
100
AcDbEntity
  8
YODOROGO
100
AcDbLine
 10
10551.60162798447
 20
727.4060611609828
 30
0.0
 11
10551.60162798447
 21
733.4060611609828
 31
0.0
1001
AUTOCAD_POSTSCRIPT_FIGURE
1002
{
1000
PSFILL
1000
Grayscale
1000
Grayscale
1070
   100
1002
}
  0
LINE
  5
27E20
330
27C4B
100
AcDbEntity
  8
YODOROGO
100
AcDbLine
 10
10537.08862007752
 20
727.4060611609828
 30
0.0
 11
10551.60162798447
 21
727.4060611609828
 31
0.0
1001
AUTOCAD_POSTSCRIPT_FIGURE
1002
{
1000
PSFILL
1000
Grayscale
1000
Grayscale
1070
   100
1002
}
  0
LINE
  5
27E21
330
27C4B
100
AcDbEntity
  8
YODOROGO
100
AcDbLine
 10
10551.60162798447
 20
655.406061160983
 30
0.0
 11
10537.08862007752
 21
727.4060611609828
 31
0.0
1001
AUTOCAD_POSTSCRIPT_FIGURE
1002
{
1000
PSFILL
1000
Grayscale
1000
Grayscale
1070
   100
1002
}
  0
LINE
  5
27E22
330
27C4B
100
AcDbEntity
  8
YODOROGO
100
AcDbLine
 10
10548.60162798447
 20
655.406061160983
 30
0.0
 11
10551.60162798447
 21
655.406061160983
 31
0.0
1001
AUTOCAD_POSTSCRIPT_FIGURE
1002
{
1000
PSFILL
1000
Grayscale
1000
Grayscale
1070
   100
1002
}
  0
LINE
  5
27E23
330
27C4B
100
AcDbEntity
  8
YODOROGO
100
AcDbLine
 10
10529.27595747517
 20
665.902791112048
 30
0.0
 11
10491.60162798447
 21
655.406061160983
 31
0.0
  0
LINE
  5
27E24
330
27C4B
100
AcDbEntity
  8
YODOROGO
100
AcDbLine
 10
10529.27595747517
 20
674.5008673234024
 30
0.0
 11
10529.27595747517
 21
665.902791112048
 31
0.0
  0
LINE
  5
27E25
330
27C4B
100
AcDbEntity
  8
YODOROGO
100
AcDbLine
 10
10512.68879272982
 20
670.0563499251625
 30
0.0
 11
10529.27595747517
 21
674.5008673234024
 31
0.0
  0
LINE
  5
27E26
330
27C4B
100
AcDbEntity
  8
YODOROGO
100
AcDbLine
 10
10512.68879272982
 20
702.2131308511124
 30
0.0
 11
10512.68879272982
 21
670.0563499251625
 31
0.0
  0
LINE
  5
27E27
330
27C4B
100
AcDbEntity
  8
YODOROGO
100
AcDbLine
 10
10529.27595747517
 20
702.2131308511124
 30
0.0
 11
10512.68879272982
 21
702.2131308511124
 31
0.0
  0
LINE
  5
27E28
330
27C4B
100
AcDbEntity
  8
YODOROGO
100
AcDbLine
 10
10529.27595747517
 20
709.7131308511116
 30
0.0
 11
10529.27595747517
 21
702.2131308511124
 31
0.0
  0
LINE
  5
27E29
330
27C4B
100
AcDbEntity
  8
YODOROGO
100
AcDbLine
 10
10491.60162798447
 20
709.7131308511116
 30
0.0
 11
10529.27595747517
 21
709.7131308511116
 31
0.0
  0
LINE
  5
27E2A
330
27C4B
100
AcDbEntity
  8
YODOROGO
100
AcDbLine
 10
10491.60162798447
 20
702.2131308511124
 30
0.0
 11
10491.60162798447
 21
709.7131308511116
 31
0.0
  0
LINE
  5
27E2B
330
27C4B
100
AcDbEntity
  8
YODOROGO
100
AcDbLine
 10
10508.18879272982
 20
702.2131308511124
 30
0.0
 11
10491.60162798447
 21
702.2131308511124
 31
0.0
  0
LINE
  5
27E2C
330
27C4B
100
AcDbEntity
  8
YODOROGO
100
AcDbLine
 10
10508.18879272982
 20
669.252502347869
 30
0.0
 11
10508.18879272982
 21
702.2131308511124
 31
0.0
  0
LINE
  5
27E2D
330
27C4B
100
AcDbEntity
  8
YODOROGO
100
AcDbLine
 10
10491.60162798447
 20
664.4060611609823
 30
0.0
 11
10508.18879272982
 21
669.252502347869
 31
0.0
  0
LINE
  5
27E2E
330
27C4B
100
AcDbEntity
  8
YODOROGO
100
AcDbLine
 10
10491.60162798447
 20
655.406061160983
 30
0.0
 11
10491.60162798447
 21
664.4060611609823
 31
0.0
  0
LINE
  5
27E2F
330
27C4B
100
AcDbEntity
  8
YODOROGO
100
AcDbLine
 10
10500.60162798446
 20
640.4060611609828
 30
0.0
 11
10500.60162798446
 21
631.4060611609825
 31
0.0
  0
LINE
  5
27E30
330
27C4B
100
AcDbEntity
  8
YODOROGO
100
AcDbLine
 10
10500.60162798446
 20
640.4060611609828
 30
0.0
 11
10500.60162798446
 21
640.4060611609828
 31
0.0
  0
LINE
  5
27E31
330
27C4B
100
AcDbEntity
  8
YODOROGO
100
AcDbLine
 10
10506.60162798447
 20
640.4060611609828
 30
0.0
 11
10500.60162798446
 21
640.4060611609828
 31
0.0
  0
LINE
  5
27E32
330
27C4B
100
AcDbEntity
  8
YODOROGO
100
AcDbLine
 10
10506.60162798447
 20
631.4060611609825
 30
0.0
 11
10506.60162798447
 21
640.4060611609828
 31
0.0
  0
LINE
  5
27E33
330
27C4B
100
AcDbEntity
  8
YODOROGO
100
AcDbLine
 10
10515.34245150633
 20
631.4060611609825
 30
0.0
 11
10506.60162798447
 21
631.4060611609825
 31
0.0
  0
LINE
  5
27E34
330
27C4B
100
AcDbEntity
  8
YODOROGO
100
AcDbLine
 10
10500.60162798446
 20
631.4060611609825
 30
0.0
 11
10491.60162798447
 21
631.4060611609825
 31
0.0
  0
LINE
  5
27E35
330
27C4B
100
AcDbEntity
  8
YODOROGO
100
AcDbLine
 10
10530.80082008658
 20
640.4060611609828
 30
0.0
 11
10536.8008200866
 21
640.4060611609828
 31
0.0
1001
AUTOCAD_POSTSCRIPT_FIGURE
1002
{
1000
PSFILL
1000
Grayscale
1000
Grayscale
1070
   100
1002
}
  0
LINE
  5
27E36
330
27C4B
100
AcDbEntity
  8
YODOROGO
100
AcDbLine
 10
10650.60162798447
 20
684.3291096151149
 30
0.0
 11
10650.60162798447
 21
657.3291096151146
 31
0.0
1001
AUTOCAD_POSTSCRIPT_FIGURE
1002
{
1000
PSFILL
1000
Grayscale
1000
Grayscale
1070
   100
1002
}
  0
LINE
  5
27E37
330
27C4B
100
AcDbEntity
  8
YODOROGO
100
AcDbLine
 10
10650.60162798447
 20
718.829109615115
 30
0.0
 11
10650.60162798447
 21
744.329109615115
 31
0.0
1001
AUTOCAD_POSTSCRIPT_FIGURE
1002
{
1000
PSFILL
1000
Grayscale
1000
Grayscale
1070
   100
1002
}
  0
LINE
  5
27E38
330
27C4B
100
AcDbEntity
  8
YODOROGO
100
AcDbLine
 10
10662.60162798446
 20
682.4060611609829
 30
0.0
 11
10662.60162798446
 21
655.4060611609838
 31
0.0
  0
LINE
  5
27E39
330
27C4B
100
AcDbEntity
  8
YODOROGO
100
AcDbLine
 10
10686.60162798446
 20
640.4060611609828
 30
0.0
 11
10662.60162798446
 21
640.4060611609828
 31
0.0
  0
LINE
  5
27E3A
330
27C4B
100
AcDbEntity
  8
YODOROGO
100
AcDbLine
 10
10662.60162798446
 20
655.4060611609838
 30
0.0
 11
10719.60162798446
 21
655.4060611609838
 31
0.0
  0
LINE
  5
27E3B
330
27C4B
100
AcDbEntity
  8
YODOROGO
100
AcDbLine
 10
10686.60162798446
 20
700.406061160983
 30
0.0
 11
10662.60162798446
 21
700.406061160983
 31
0.0
  0
LINE
  5
27E3C
330
27C4B
100
AcDbEntity
  8
YODOROGO
100
AcDbLine
 10
10686.60162798446
 20
721.4060611609824
 30
0.0
 11
10686.60162798446
 21
700.406061160983
 31
0.0
  0
LINE
  5
27E3D
330
27C4B
100
AcDbEntity
  8
YODOROGO
100
AcDbLine
 10
10719.60162798446
 20
745.4060611609828
 30
0.0
 11
10719.60162798446
 21
760.4060611609829
 31
0.0
  0
LINE
  5
27E3E
330
27C4B
100
AcDbEntity
  8
YODOROGO
100
AcDbLine
 10
10662.60162798446
 20
745.4060611609828
 30
0.0
 11
10719.60162798446
 21
745.4060611609828
 31
0.0
  0
LINE
  5
27E3F
330
27C4B
100
AcDbEntity
  8
YODOROGO
100
AcDbLine
 10
10662.60162798446
 20
700.406061160983
 30
0.0
 11
10662.60162798446
 21
745.4060611609828
 31
0.0
  0
LINE
  5
27E40
330
27C4B
100
AcDbEntity
  8
YODOROGO
100
AcDbLine
 10
10875.60162798447
 20
760.4060611609829
 30
0.0
 11
10875.60162798447
 21
607.4060611609829
 31
0.0
  0
LINE
  5
27E41
330
27C4B
100
AcDbEntity
  8
YODOROGO
100
AcDbLine
 10
10902.60162798446
 20
592.4060611609831
 30
0.0
 11
10902.60162798446
 21
760.4060611609829
 31
0.0
  0
LINE
  5
27E42
330
27C4B
100
AcDbEntity
  8
YODOROGO
100
AcDbLine
 10
10973.10162798446
 20
559.4060611609823
 30
0.0
 11
10973.10162798446
 21
752.9060611609828
 31
0.0
  0
LINE
  5
27E43
330
27C4B
100
AcDbEntity
  8
YODOROGO
100
AcDbLine
 10
10949.10162798447
 20
752.9060611609828
 30
0.0
 11
10949.10162798447
 21
559.4060611609823
 31
0.0
  0
LINE
  5
27E44
330
27C4B
100
AcDbEntity
  8
YODOROGO
100
AcDbLine
 10
11019.60162798446
 20
760.4060611609829
 30
0.0
 11
11019.60162798446
 21
535.4060611609829
 31
0.0
  0
LINE
  5
27E45
330
27C4B
100
AcDbEntity
  8
YODOROGO
100
AcDbLine
 10
11046.60162798447
 20
535.4060611609829
 30
0.0
 11
11046.60162798447
 21
760.4060611609829
 31
0.0
  0
LINE
  5
27E46
330
27C4B
100
AcDbEntity
  8
YODOROGO
100
AcDbLine
 10
10746.60162798446
 20
625.406061160983
 30
0.0
 11
10746.60162798446
 21
655.4060611609838
 31
0.0
  0
LINE
  5
27E47
330
27C4B
100
AcDbEntity
  8
YODOROGO
100
AcDbLine
 10
11207.10162798447
 20
640.4060611609828
 30
0.0
 11
11207.10162798447
 21
625.406061160983
 31
0.0
  0
LINE
  5
27E48
330
27C4B
100
AcDbEntity
  8
YODOROGO
100
AcDbLine
 10
11207.10162798447
 20
640.4060611609828
 30
0.0
 11
11207.10162798447
 21
625.406061160983
 31
0.0
  0
ARC
  5
27E49
330
27C4B
100
AcDbEntity
  8
YODOROGO
100
AcDbCircle
 10
10840.09184107006
 20
606.8316991658524
 30
0.0
 40
35.51443169202812
100
AcDbArc
 50
274.052441629071
 51
0.9266642149310715
  0
ARC
  5
27E4A
330
27C4B
100
AcDbEntity
  8
YODOROGO
100
AcDbCircle
 10
10840.94481401992
 20
597.229023228915
 30
0.0
 40
61.84515883532068
100
AcDbArc
 50
271.5351210653777
 51
355.5272775058505
  0
LINE
  5
27E4B
330
27C4B
100
AcDbEntity
  8
YODOROGO
100
AcDbLine
 10
10842.60162798446
 20
571.4060611609824
 30
0.0
 11
10842.60162798446
 21
535.4060611609829
 31
0.0
  0
LINE
  5
27E4C
330
27C4B
100
AcDbEntity
  8
YODOROGO
100
AcDbLine
 10
10797.60162798446
 20
625.406061160983
 30
0.0
 11
10746.60162798446
 21
625.406061160983
 31
0.0
  0
LINE
  5
27E4D
330
27C4B
100
AcDbEntity
  8
YODOROGO
100
AcDbLine
 10
10797.60162798446
 20
601.4060611609833
 30
0.0
 11
10797.60162798446
 21
625.406061160983
 31
0.0
  0
LINE
  5
27E4E
330
27C4B
100
AcDbEntity
  8
YODOROGO
100
AcDbLine
 10
10746.60162798446
 20
601.4060611609833
 30
0.0
 11
10797.60162798446
 21
601.4060611609833
 31
0.0
  0
LINE
  5
27E4F
330
27C4B
100
AcDbEntity
  8
YODOROGO
100
AcDbLine
 10
10746.60162798446
 20
571.4060611609824
 30
0.0
 11
10746.60162798446
 21
601.4060611609833
 31
0.0
  0
LINE
  5
27E50
330
27C4B
100
AcDbEntity
  8
YODOROGO
100
AcDbLine
 10
10797.60162798446
 20
571.4060611609824
 30
0.0
 11
10746.60162798446
 21
571.4060611609824
 31
0.0
  0
LINE
  5
27E51
330
27C4B
100
AcDbEntity
  8
YODOROGO
100
AcDbLine
 10
10797.60162798446
 20
535.4060611609829
 30
0.0
 11
10797.60162798446
 21
571.4060611609824
 31
0.0
  0
LINE
  5
27E52
330
27C4B
100
AcDbEntity
  8
YODOROGO
100
AcDbLine
 10
10949.10162798447
 20
559.4060611609823
 30
0.0
 11
10973.10162798446
 21
559.4060611609823
 31
0.0
  0
LINE
  5
27E53
330
27C4B
100
AcDbEntity
  8
YODOROGO
100
AcDbLine
 10
11019.60162798446
 20
535.4060611609829
 30
0.0
 11
11046.60162798447
 21
535.4060611609829
 31
0.0
  0
LINE
  5
27E54
330
27C4B
100
AcDbEntity
  8
YODOROGO
100
AcDbLine
 10
11151.60162798447
 20
573.1655445639615
 30
0.0
 11
11151.60162798447
 21
535.4060611609829
 31
0.0
  0
LINE
  5
27E55
330
27C4B
100
AcDbEntity
  8
YODOROGO
100
AcDbLine
 10
11106.60162798446
 20
535.4060611609829
 30
0.0
 11
11151.60162798447
 21
573.1655445639615
 31
0.0
  0
LINE
  5
27E56
330
27C4B
100
AcDbEntity
  8
YODOROGO
100
AcDbLine
 10
11106.60162798446
 20
580.406061160983
 30
0.0
 11
11106.60162798446
 21
535.4060611609829
 31
0.0
  0
LINE
  5
27E57
330
27C4B
100
AcDbEntity
  8
YODOROGO
100
AcDbLine
 10
11142.35423576229
 20
610.4060611609829
 30
0.0
 11
11106.60162798446
 21
580.406061160983
 31
0.0
  0
LINE
  5
27E58
330
27C4B
100
AcDbEntity
  8
YODOROGO
100
AcDbLine
 10
11106.60162798446
 20
610.4060611609829
 30
0.0
 11
11142.35423576229
 21
610.4060611609829
 31
0.0
  0
LINE
  5
27E59
330
27C4B
100
AcDbEntity
  8
YODOROGO
100
AcDbLine
 10
11106.60162798446
 20
625.406061160983
 30
0.0
 11
11106.60162798446
 21
610.4060611609829
 31
0.0
  0
LINE
  5
27E5A
330
27C4B
100
AcDbEntity
  8
YODOROGO
100
AcDbLine
 10
11207.10162798447
 20
625.406061160983
 30
0.0
 11
11106.60162798446
 21
625.406061160983
 31
0.0
  0
LINE
  5
27E5B
330
27C4B
100
AcDbEntity
  8
YODOROGO
100
AcDbLine
 10
11219.10162798447
 20
610.4060611609829
 30
0.0
 11
11166.60162798446
 21
610.4060611609829
 31
0.0
  0
LINE
  5
27E5C
330
27C4B
100
AcDbEntity
  8
YODOROGO
100
AcDbLine
 10
11166.60162798446
 20
585.7520390316213
 30
0.0
 11
11164.27870236948
 21
583.8028730048376
 31
0.0
  0
LINE
  5
27E5D
330
27C4B
100
AcDbEntity
  8
YODOROGO
100
AcDbLine
 10
11166.60162798446
 20
610.4060611609829
 30
0.0
 11
11166.60162798446
 21
585.7520390316213
 31
0.0
  0
LINE
  5
27E5E
330
27C4B
100
AcDbEntity
  8
YODOROGO
100
AcDbLine
 10
11151.60162798447
 20
573.1655445639615
 30
0.0
 11
11151.60162798447
 21
535.4060611609829
 31
0.0
  0
LINE
  5
27E5F
330
27C4B
100
AcDbEntity
  8
YODOROGO
100
AcDbLine
 10
11106.60162798446
 20
535.4060611609829
 30
0.0
 11
11151.60162798447
 21
573.1655445639615
 31
0.0
  0
LINE
  5
27E60
330
27C4B
100
AcDbEntity
  8
YODOROGO
100
AcDbLine
 10
11106.60162798446
 20
580.406061160983
 30
0.0
 11
11106.60162798446
 21
535.4060611609829
 31
0.0
  0
LINE
  5
27E61
330
27C4B
100
AcDbEntity
  8
YODOROGO
100
AcDbLine
 10
11142.35423576229
 20
610.4060611609829
 30
0.0
 11
11106.60162798446
 21
580.406061160983
 31
0.0
  0
LINE
  5
27E62
330
27C4B
100
AcDbEntity
  8
YODOROGO
100
AcDbLine
 10
11106.60162798446
 20
610.4060611609829
 30
0.0
 11
11142.35423576229
 21
610.4060611609829
 31
0.0
  0
LINE
  5
27E63
330
27C4B
100
AcDbEntity
  8
YODOROGO
100
AcDbLine
 10
11106.60162798446
 20
625.406061160983
 30
0.0
 11
11106.60162798446
 21
610.4060611609829
 31
0.0
  0
LINE
  5
27E64
330
27C4B
100
AcDbEntity
  8
YODOROGO
100
AcDbLine
 10
11207.10162798447
 20
625.406061160983
 30
0.0
 11
11106.60162798446
 21
625.406061160983
 31
0.0
  0
LINE
  5
27E65
330
27C4B
100
AcDbEntity
  8
YODOROGO
100
AcDbLine
 10
10797.60162798446
 20
655.4060611609838
 30
0.0
 11
10797.60162798446
 21
682.4060611609829
 31
0.0
  0
LINE
  5
27E66
330
27C4B
100
AcDbEntity
  8
YODOROGO
100
AcDbLine
 10
10746.60162798446
 20
655.4060611609838
 30
0.0
 11
10797.60162798446
 21
655.4060611609838
 31
0.0
  0
LINE
  5
27E67
330
27C4B
100
AcDbEntity
  8
YODOROGO
100
AcDbLine
 10
10773.60162798447
 20
700.406061160983
 30
0.0
 11
10773.60162798447
 21
721.4060611609824
 31
0.0
  0
LINE
  5
27E68
330
27C4B
100
AcDbEntity
  8
YODOROGO
100
AcDbLine
 10
10797.60162798446
 20
700.406061160983
 30
0.0
 11
10773.60162798447
 21
700.406061160983
 31
0.0
  0
LINE
  5
27E69
330
27C4B
100
AcDbEntity
  8
YODOROGO
100
AcDbLine
 10
10797.60162798446
 20
730.4060611609828
 30
0.0
 11
10797.60162798446
 21
700.406061160983
 31
0.0
  0
ARC
  5
27E6A
330
27C4B
100
AcDbEntity
  8
YODOROGO
100
AcDbCircle
 10
10782.60162798446
 20
730.4060611609828
 30
0.0
 40
15.0
100
AcDbArc
 50
0.0
 51
90.0
  0
LINE
  5
27E6B
330
27C4B
100
AcDbEntity
  8
YODOROGO
100
AcDbLine
 10
10746.60162798447
 20
745.4060611609828
 30
0.0
 11
10782.60162798446
 21
745.4060611609828
 31
0.0
  0
LINE
  5
27E6C
330
27C4B
100
AcDbEntity
  8
YODOROGO
100
AcDbLine
 10
10746.60162798447
 20
760.4060611609829
 30
0.0
 11
10746.60162798447
 21
745.4060611609828
 31
0.0
  0
LINE
  5
27E6D
330
27C4B
100
AcDbEntity
  8
YODOROGO
100
AcDbLine
 10
10902.60162798446
 20
760.4060611609829
 30
0.0
 11
10875.60162798447
 21
760.4060611609829
 31
0.0
  0
LINE
  5
27E6E
330
27C4B
100
AcDbEntity
  8
YODOROGO
100
AcDbLine
 10
10973.10162798446
 20
752.9060611609828
 30
0.0
 11
10949.10162798447
 21
752.9060611609828
 31
0.0
  0
LINE
  5
27E6F
330
27C4B
100
AcDbEntity
  8
YODOROGO
100
AcDbLine
 10
11046.60162798447
 20
760.4060611609829
 30
0.0
 11
11019.60162798446
 21
760.4060611609829
 31
0.0
  0
LINE
  5
27E70
330
27C4B
100
AcDbEntity
  8
YODOROGO
100
AcDbLine
 10
11127.60162798447
 20
640.4060611609828
 30
0.0
 11
11127.60162798447
 21
664.4060611609833
 31
0.0
1001
AUTOCAD_POSTSCRIPT_FIGURE
1002
{
1000
PSFILL
1000
Grayscale
1000
Grayscale
1070
    25
1002
}
  0
LINE
  5
27E71
330
27C4B
100
AcDbEntity
  8
YODOROGO
100
AcDbLine
 10
11106.60162798446
 20
640.4060611609828
 30
0.0
 11
11127.60162798447
 21
640.4060611609828
 31
0.0
1001
AUTOCAD_POSTSCRIPT_FIGURE
1002
{
1000
PSFILL
1000
Grayscale
1000
Grayscale
1070
    25
1002
}
  0
LINE
  5
27E72
330
27C4B
100
AcDbEntity
  8
YODOROGO
100
AcDbLine
 10
11106.60162798446
 20
682.4060611609829
 30
0.0
 11
11106.60162798446
 21
640.4060611609828
 31
0.0
1001
AUTOCAD_POSTSCRIPT_FIGURE
1002
{
1000
PSFILL
1000
Grayscale
1000
Grayscale
1070
    25
1002
}
  0
LINE
  5
27E73
330
27C4B
100
AcDbEntity
  8
YODOROGO
100
AcDbLine
 10
11162.10162798447
 20
682.4060611609829
 30
0.0
 11
11106.60162798446
 21
682.4060611609829
 31
0.0
1001
AUTOCAD_POSTSCRIPT_FIGURE
1002
{
1000
PSFILL
1000
Grayscale
1000
Grayscale
1070
    25
1002
}
  0
LINE
  5
27E74
330
27C4B
100
AcDbEntity
  8
YODOROGO
100
AcDbLine
 10
11162.10162798447
 20
697.406061160983
 30
0.0
 11
11162.10162798447
 21
682.4060611609829
 31
0.0
1001
AUTOCAD_POSTSCRIPT_FIGURE
1002
{
1000
PSFILL
1000
Grayscale
1000
Grayscale
1070
    25
1002
}
  0
LINE
  5
27E75
330
27C4B
100
AcDbEntity
  8
YODOROGO
100
AcDbLine
 10
11106.60162798446
 20
697.406061160983
 30
0.0
 11
11162.10162798447
 21
697.406061160983
 31
0.0
1001
AUTOCAD_POSTSCRIPT_FIGURE
1002
{
1000
PSFILL
1000
Grayscale
1000
Grayscale
1070
    25
1002
}
  0
LINE
  5
27E76
330
27C4B
100
AcDbEntity
  8
YODOROGO
100
AcDbLine
 10
11106.60162798446
 20
715.4060611609828
 30
0.0
 11
11106.60162798446
 21
697.406061160983
 31
0.0
1001
AUTOCAD_POSTSCRIPT_FIGURE
1002
{
1000
PSFILL
1000
Grayscale
1000
Grayscale
1070
    25
1002
}
  0
LINE
  5
27E77
330
27C4B
100
AcDbEntity
  8
YODOROGO
100
AcDbLine
 10
11162.10162798447
 20
715.4060611609828
 30
0.0
 11
11106.60162798446
 21
715.4060611609828
 31
0.0
1001
AUTOCAD_POSTSCRIPT_FIGURE
1002
{
1000
PSFILL
1000
Grayscale
1000
Grayscale
1070
    25
1002
}
  0
LINE
  5
27E78
330
27C4B
100
AcDbEntity
  8
YODOROGO
100
AcDbLine
 10
11162.10162798447
 20
730.4060611609828
 30
0.0
 11
11162.10162798447
 21
715.4060611609828
 31
0.0
1001
AUTOCAD_POSTSCRIPT_FIGURE
1002
{
1000
PSFILL
1000
Grayscale
1000
Grayscale
1070
    25
1002
}
  0
LINE
  5
27E79
330
27C4B
100
AcDbEntity
  8
YODOROGO
100
AcDbLine
 10
11106.60162798446
 20
730.4060611609828
 30
0.0
 11
11162.10162798447
 21
730.4060611609828
 31
0.0
1001
AUTOCAD_POSTSCRIPT_FIGURE
1002
{
1000
PSFILL
1000
Grayscale
1000
Grayscale
1070
    25
1002
}
  0
LINE
  5
27E7A
330
27C4B
100
AcDbEntity
  8
YODOROGO
100
AcDbLine
 10
11106.60162798446
 20
760.4060611609829
 30
0.0
 11
11106.60162798446
 21
730.4060611609828
 31
0.0
1001
AUTOCAD_POSTSCRIPT_FIGURE
1002
{
1000
PSFILL
1000
Grayscale
1000
Grayscale
1070
    25
1002
}
  0
LINE
  5
27E7B
330
27C4B
100
AcDbEntity
  8
YODOROGO
100
AcDbLine
 10
11124.60162798446
 20
760.4060611609829
 30
0.0
 11
11106.60162798446
 21
760.4060611609829
 31
0.0
1001
AUTOCAD_POSTSCRIPT_FIGURE
1002
{
1000
PSFILL
1000
Grayscale
1000
Grayscale
1070
    25
1002
}
  0
LINE
  5
27E7C
330
27C4B
100
AcDbEntity
  8
YODOROGO
100
AcDbLine
 10
11124.60162798446
 20
748.4060611609828
 30
0.0
 11
11124.60162798446
 21
760.4060611609829
 31
0.0
1001
AUTOCAD_POSTSCRIPT_FIGURE
1002
{
1000
PSFILL
1000
Grayscale
1000
Grayscale
1070
    25
1002
}
  0
LINE
  5
27E7D
330
27C4B
100
AcDbEntity
  8
YODOROGO
100
AcDbLine
 10
11162.10162798447
 20
748.4060611609828
 30
0.0
 11
11124.60162798446
 21
748.4060611609828
 31
0.0
1001
AUTOCAD_POSTSCRIPT_FIGURE
1002
{
1000
PSFILL
1000
Grayscale
1000
Grayscale
1070
    25
1002
}
  0
LINE
  5
27E7E
330
27C4B
100
AcDbEntity
  8
YODOROGO
100
AcDbLine
 10
11162.10162798447
 20
760.4060611609829
 30
0.0
 11
11162.10162798447
 21
748.4060611609828
 31
0.0
1001
AUTOCAD_POSTSCRIPT_FIGURE
1002
{
1000
PSFILL
1000
Grayscale
1000
Grayscale
1070
    25
1002
}
  0
LINE
  5
27E7F
330
27C4B
100
AcDbEntity
  8
YODOROGO
100
AcDbLine
 10
11186.10162798447
 20
760.4060611609829
 30
0.0
 11
11162.10162798447
 21
760.4060611609829
 31
0.0
1001
AUTOCAD_POSTSCRIPT_FIGURE
1002
{
1000
PSFILL
1000
Grayscale
1000
Grayscale
1070
    25
1002
}
  0
LINE
  5
27E80
330
27C4B
100
AcDbEntity
  8
YODOROGO
100
AcDbLine
 10
11186.10162798447
 20
748.4060611609828
 30
0.0
 11
11186.10162798447
 21
760.4060611609829
 31
0.0
1001
AUTOCAD_POSTSCRIPT_FIGURE
1002
{
1000
PSFILL
1000
Grayscale
1000
Grayscale
1070
    25
1002
}
  0
LINE
  5
27E81
330
27C4B
100
AcDbEntity
  8
YODOROGO
100
AcDbLine
 10
11186.10162798447
 20
715.4060611609828
 30
0.0
 11
11186.10162798447
 21
730.4060611609828
 31
0.0
1001
AUTOCAD_POSTSCRIPT_FIGURE
1002
{
1000
PSFILL
1000
Grayscale
1000
Grayscale
1070
    25
1002
}
  0
LINE
  5
27E82
330
27C4B
100
AcDbEntity
  8
YODOROGO
100
AcDbLine
 10
11186.10162798447
 20
682.4060611609829
 30
0.0
 11
11186.10162798447
 21
697.406061160983
 31
0.0
1001
AUTOCAD_POSTSCRIPT_FIGURE
1002
{
1000
PSFILL
1000
Grayscale
1000
Grayscale
1070
    25
1002
}
  0
LINE
  5
27E83
330
27C4B
100
AcDbEntity
  8
YODOROGO
100
AcDbLine
 10
11220.60162798447
 20
664.4060611609833
 30
0.0
 11
11220.60162798447
 21
640.4060611609828
 31
0.0
1001
AUTOCAD_POSTSCRIPT_FIGURE
1002
{
1000
PSFILL
1000
Grayscale
1000
Grayscale
1070
    25
1002
}
  0
LINE
  5
27E84
330
27C4B
100
AcDbEntity
  8
YODOROGO
100
AcDbLine
 10
11186.10162798447
 20
664.4060611609833
 30
0.0
 11
11220.60162798447
 21
664.4060611609833
 31
0.0
1001
AUTOCAD_POSTSCRIPT_FIGURE
1002
{
1000
PSFILL
1000
Grayscale
1000
Grayscale
1070
    25
1002
}
  0
LINE
  5
27E85
330
27C4B
100
AcDbEntity
  8
YODOROGO
100
AcDbLine
 10
11186.10162798447
 20
640.4060611609828
 30
0.0
 11
11186.10162798447
 21
664.4060611609833
 31
0.0
1001
AUTOCAD_POSTSCRIPT_FIGURE
1002
{
1000
PSFILL
1000
Grayscale
1000
Grayscale
1070
    25
1002
}
  0
LINE
  5
27E86
330
27C4B
100
AcDbEntity
  8
YODOROGO
100
AcDbLine
 10
11162.10162798447
 20
640.4060611609828
 30
0.0
 11
11186.10162798447
 21
640.4060611609828
 31
0.0
1001
AUTOCAD_POSTSCRIPT_FIGURE
1002
{
1000
PSFILL
1000
Grayscale
1000
Grayscale
1070
    25
1002
}
  0
LINE
  5
27E87
330
27C4B
100
AcDbEntity
  8
YODOROGO
100
AcDbLine
 10
11162.10162798447
 20
664.4060611609833
 30
0.0
 11
11162.10162798447
 21
640.4060611609828
 31
0.0
1001
AUTOCAD_POSTSCRIPT_FIGURE
1002
{
1000
PSFILL
1000
Grayscale
1000
Grayscale
1070
    25
1002
}
  0
LINE
  5
27E88
330
27C4B
100
AcDbEntity
  8
YODOROGO
100
AcDbLine
 10
11127.60162798447
 20
664.4060611609833
 30
0.0
 11
11162.10162798447
 21
664.4060611609833
 31
0.0
1001
AUTOCAD_POSTSCRIPT_FIGURE
1002
{
1000
PSFILL
1000
Grayscale
1000
Grayscale
1070
    25
1002
}
  0
ARC
  5
27E89
330
27C4B
100
AcDbEntity
  8
YODOROGO
100
AcDbCircle
 10
11647.31921000922
 20
601.0052765683409
 30
0.0
 40
66.83298041652057
100
AcDbArc
 50
281.0262749542535
 51
357.771135755738
  0
LINE
  5
27E8A
330
27C4B
100
AcDbEntity
  8
YODOROGO
100
AcDbLine
 10
11780.10162798446
 20
715.4060611609828
 30
0.0
 11
11687.10162798447
 21
715.4060611609828
 31
0.0
  0
LINE
  5
27E8B
330
27C4B
100
AcDbEntity
  8
YODOROGO
100
AcDbLine
 10
11780.10162798446
 20
760.4060611609829
 30
0.0
 11
11687.10162798447
 21
760.4060611609829
 31
0.0
  0
LINE
  5
27E8C
330
27C4B
100
AcDbEntity
  8
YODOROGO
100
AcDbLine
 10
11687.10162798447
 20
736.4060611609825
 30
0.0
 11
11780.10162798446
 21
736.4060611609825
 31
0.0
  0
LINE
  5
27E8D
330
27C4B
100
AcDbEntity
  8
YODOROGO
100
AcDbLine
 10
11546.85162798447
 20
586.4060611609825
 30
0.0
 11
11546.85162798447
 21
658.4060611609827
 31
0.0
  0
LINE
  5
27E8E
330
27C4B
100
AcDbEntity
  8
YODOROGO
100
AcDbLine
 10
11536.35162798447
 20
634.4060611609833
 30
0.0
 11
11536.35162798447
 21
586.4060611609825
 31
0.0
  0
LINE
  5
27E8F
330
27C4B
100
AcDbEntity
  8
YODOROGO
100
AcDbLine
 10
11521.35162798447
 20
559.4060611609831
 30
0.0
 11
11521.35162798447
 21
634.4060611609833
 31
0.0
  0
LINE
  5
27E90
330
27C4B
100
AcDbEntity
  8
YODOROGO
100
AcDbLine
 10
11587.35162798447
 20
634.4060611609833
 30
0.0
 11
11587.35162798447
 21
559.4060611609831
 31
0.0
  0
LINE
  5
27E91
330
27C4B
100
AcDbEntity
  8
YODOROGO
100
AcDbLine
 10
11572.35162798446
 20
586.4060611609825
 30
0.0
 11
11572.35162798446
 21
634.4060611609833
 31
0.0
  0
LINE
  5
27E92
330
27C4B
100
AcDbEntity
  8
YODOROGO
100
AcDbLine
 10
11561.85162798446
 20
658.4060611609827
 30
0.0
 11
11561.85162798446
 21
586.4060611609825
 31
0.0
  0
LINE
  5
27E93
330
27C4B
100
AcDbEntity
  8
YODOROGO
100
AcDbLine
 10
11615.10162798446
 20
760.4060611609829
 30
0.0
 11
11615.10162798446
 21
550.4060611609828
 31
0.0
  0
LINE
  5
27E94
330
27C4B
100
AcDbEntity
  8
YODOROGO
100
AcDbLine
 10
11492.10162798447
 20
535.4060611609829
 30
0.0
 11
11492.10162798447
 21
760.4060611609829
 31
0.0
  0
LINE
  5
27E95
330
27C4B
100
AcDbEntity
  8
YODOROGO
100
AcDbLine
 10
11511.60162798447
 20
736.4060611609825
 30
0.0
 11
11511.60162798447
 21
535.4060611609829
 31
0.0
  0
LINE
  5
27E96
330
27C4B
100
AcDbEntity
  8
YODOROGO
100
AcDbLine
 10
11597.10162798446
 20
580.406061160983
 30
0.0
 11
11597.10162798446
 21
736.4060611609825
 31
0.0
  0
LINE
  5
27E97
330
27C4B
100
AcDbEntity
  8
YODOROGO
100
AcDbLine
 10
11393.10162798446
 20
610.4060611609829
 30
0.0
 11
11393.10162798446
 21
629.9060611609831
 31
0.0
  0
LINE
  5
27E98
330
27C4B
100
AcDbEntity
  8
YODOROGO
100
AcDbLine
 10
11481.60162798447
 20
629.9060611609831
 30
0.0
 11
11481.60162798447
 21
610.4060611609829
 31
0.0
  0
LINE
  5
27E99
330
27C4B
100
AcDbEntity
  8
YODOROGO
100
AcDbLine
 10
11687.10162798447
 20
715.4060611609828
 30
0.0
 11
11687.10162798447
 21
613.4060611609827
 31
0.0
  0
LINE
  5
27E9A
330
27C4B
100
AcDbEntity
  8
YODOROGO
100
AcDbLine
 10
11231.10162798446
 20
625.406061160983
 30
0.0
 11
11231.10162798446
 21
640.4060611609828
 31
0.0
  0
LINE
  5
27E9B
330
27C4B
100
AcDbEntity
  8
YODOROGO
100
AcDbLine
 10
11231.10162798446
 20
625.406061160983
 30
0.0
 11
11231.10162798446
 21
640.4060611609828
 31
0.0
  0
ARC
  5
27E9C
330
27C4B
100
AcDbEntity
  8
YODOROGO
100
AcDbCircle
 10
11451.60162798447
 20
565.4060611609828
 30
0.0
 40
30.0
100
AcDbArc
 50
270.0
 51
0.0
  0
LINE
  5
27E9D
330
27C4B
100
AcDbEntity
  8
YODOROGO
100
AcDbLine
 10
11463.60162798446
 20
599.9060611609831
 30
0.0
 11
11481.60162798447
 21
599.9060611609831
 31
0.0
  0
LINE
  5
27E9E
330
27C4B
100
AcDbEntity
  8
YODOROGO
100
AcDbLine
 10
11481.60162798447
 20
610.4060611609829
 30
0.0
 11
11448.60162798446
 21
610.4060611609829
 31
0.0
  0
LINE
  5
27E9F
330
27C4B
100
AcDbEntity
  8
YODOROGO
100
AcDbLine
 10
11331.60162798447
 20
625.406061160983
 30
0.0
 11
11231.10162798446
 21
625.406061160983
 31
0.0
  0
LINE
  5
27EA0
330
27C4B
100
AcDbEntity
  8
YODOROGO
100
AcDbLine
 10
11331.60162798447
 20
610.4060611609829
 30
0.0
 11
11331.60162798447
 21
625.406061160983
 31
0.0
  0
LINE
  5
27EA1
330
27C4B
100
AcDbEntity
  8
YODOROGO
100
AcDbLine
 10
11256.60162798447
 20
610.4060611609829
 30
0.0
 11
11331.60162798447
 21
610.4060611609829
 31
0.0
  0
ARC
  5
27EA2
330
27C4B
100
AcDbEntity
  8
YODOROGO
100
AcDbCircle
 10
11336.27206076301
 20
700.8321431073384
 30
0.0
 40
120.5166136069605
100
AcDbArc
 50
228.6181454618993
 51
245.660289248906
  0
LINE
  5
27EA3
330
27C4B
100
AcDbEntity
  8
YODOROGO
100
AcDbLine
 10
11289.60162798447
 20
601.4060611609833
 30
0.0
 11
11286.60162798448
 21
591.0273059512126
 31
0.0
  0
LINE
  5
27EA4
330
27C4B
100
AcDbEntity
  8
YODOROGO
100
AcDbLine
 10
11321.10162798447
 20
601.4060611609833
 30
0.0
 11
11289.60162798447
 21
601.4060611609833
 31
0.0
  0
LINE
  5
27EA5
330
27C4B
100
AcDbEntity
  8
YODOROGO
100
AcDbLine
 10
11316.60162798447
 20
581.9316459275352
 30
0.0
 11
11321.10162798447
 21
601.4060611609833
 31
0.0
  0
ARC
  5
27EA6
330
27C4B
100
AcDbEntity
  8
YODOROGO
100
AcDbCircle
 10
11336.27206076267
 20
700.832143107376
 30
0.0
 40
120.516613606984
100
AcDbArc
 50
260.6062929796992
 51
267.7790355655586
  0
LINE
  5
27EA7
330
27C4B
100
AcDbEntity
  8
YODOROGO
100
AcDbLine
 10
11331.60162798447
 20
535.4060611609821
 30
0.0
 11
11331.60162798447
 21
580.406061160983
 31
0.0
  0
LINE
  5
27EA8
330
27C4B
100
AcDbEntity
  8
YODOROGO
100
AcDbLine
 10
11226.60162798446
 20
555.5022505933164
 30
0.0
 11
11226.60162798446
 21
597.949158949178
 31
0.0
  0
LINE
  5
27EA9
330
27C4B
100
AcDbEntity
  8
YODOROGO
100
AcDbLine
 10
11331.60162798447
 20
625.406061160983
 30
0.0
 11
11231.10162798446
 21
625.406061160983
 31
0.0
  0
LINE
  5
27EAA
330
27C4B
100
AcDbEntity
  8
YODOROGO
100
AcDbLine
 10
11331.60162798447
 20
610.4060611609829
 30
0.0
 11
11331.60162798447
 21
625.406061160983
 31
0.0
  0
LINE
  5
27EAB
330
27C4B
100
AcDbEntity
  8
YODOROGO
100
AcDbLine
 10
11256.60162798447
 20
610.4060611609829
 30
0.0
 11
11331.60162798447
 21
610.4060611609829
 31
0.0
  0
ARC
  5
27EAC
330
27C4B
100
AcDbEntity
  8
YODOROGO
100
AcDbCircle
 10
11336.27206076301
 20
700.8321431073384
 30
0.0
 40
120.5166136069605
100
AcDbArc
 50
228.6181454618993
 51
245.660289248906
  0
LINE
  5
27EAD
330
27C4B
100
AcDbEntity
  8
YODOROGO
100
AcDbLine
 10
11289.60162798447
 20
601.4060611609833
 30
0.0
 11
11286.60162798448
 21
591.0273059512126
 31
0.0
  0
LINE
  5
27EAE
330
27C4B
100
AcDbEntity
  8
YODOROGO
100
AcDbLine
 10
11321.10162798447
 20
601.4060611609833
 30
0.0
 11
11289.60162798447
 21
601.4060611609833
 31
0.0
  0
LINE
  5
27EAF
330
27C4B
100
AcDbEntity
  8
YODOROGO
100
AcDbLine
 10
11316.60162798447
 20
581.9316459275352
 30
0.0
 11
11321.10162798447
 21
601.4060611609833
 31
0.0
  0
ARC
  5
27EB0
330
27C4B
100
AcDbEntity
  8
YODOROGO
100
AcDbCircle
 10
11336.27206076267
 20
700.832143107376
 30
0.0
 40
120.516613606984
100
AcDbArc
 50
260.6062929796992
 51
267.7790355655586
  0
LINE
  5
27EB1
330
27C4B
100
AcDbEntity
  8
YODOROGO
100
AcDbLine
 10
11331.60162798447
 20
535.4060611609821
 30
0.0
 11
11331.60162798447
 21
580.406061160983
 31
0.0
  0
LINE
  5
27EB2
330
27C4B
100
AcDbEntity
  8
YODOROGO
100
AcDbLine
 10
11226.60162798446
 20
555.5022505933164
 30
0.0
 11
11226.60162798446
 21
597.949158949178
 31
0.0
  0
LINE
  5
27EB3
330
27C4B
100
AcDbEntity
  8
YODOROGO
100
AcDbLine
 10
11412.60162798447
 20
590.1560611609832
 30
0.0
 11
11393.10162798446
 21
590.1560611609832
 31
0.0
  0
LINE
  5
27EB4
330
27C4B
100
AcDbEntity
  8
YODOROGO
100
AcDbLine
 10
11412.60162798447
 20
600.6560611609824
 30
0.0
 11
11412.60162798447
 21
590.1560611609832
 31
0.0
  0
LINE
  5
27EB5
330
27C4B
100
AcDbEntity
  8
YODOROGO
100
AcDbLine
 10
11393.10162798446
 20
600.6560611609824
 30
0.0
 11
11412.60162798447
 21
600.6560611609824
 31
0.0
  0
LINE
  5
27EB6
330
27C4B
100
AcDbEntity
  8
YODOROGO
100
AcDbLine
 10
11393.10162798446
 20
590.1560611609832
 30
0.0
 11
11393.10162798446
 21
600.6560611609824
 31
0.0
  0
LINE
  5
27EB7
330
27C4B
100
AcDbEntity
  8
YODOROGO
100
AcDbLine
 10
11411.10162798447
 20
591.6560611609829
 30
0.0
 11
11394.60162798447
 21
591.6560611609829
 31
0.0
  0
LINE
  5
27EB8
330
27C4B
100
AcDbEntity
  8
YODOROGO
100
AcDbLine
 10
11411.10162798447
 20
599.156061160983
 30
0.0
 11
11411.10162798447
 21
591.6560611609829
 31
0.0
  0
LINE
  5
27EB9
330
27C4B
100
AcDbEntity
  8
YODOROGO
100
AcDbLine
 10
11394.60162798447
 20
599.156061160983
 30
0.0
 11
11411.10162798447
 21
599.156061160983
 31
0.0
  0
LINE
  5
27EBA
330
27C4B
100
AcDbEntity
  8
YODOROGO
100
AcDbLine
 10
11394.60162798447
 20
591.6560611609829
 30
0.0
 11
11394.60162798447
 21
599.156061160983
 31
0.0
  0
LINE
  5
27EBB
330
27C4B
100
AcDbEntity
  8
YODOROGO
100
AcDbLine
 10
11409.60162798447
 20
593.1560611609824
 30
0.0
 11
11396.10162798446
 21
593.1560611609824
 31
0.0
  0
LINE
  5
27EBC
330
27C4B
100
AcDbEntity
  8
YODOROGO
100
AcDbLine
 10
11409.60162798447
 20
597.6560611609833
 30
0.0
 11
11409.60162798447
 21
593.1560611609824
 31
0.0
  0
LINE
  5
27EBD
330
27C4B
100
AcDbEntity
  8
YODOROGO
100
AcDbLine
 10
11396.10162798446
 20
597.6560611609833
 30
0.0
 11
11409.60162798447
 21
597.6560611609833
 31
0.0
  0
LINE
  5
27EBE
330
27C4B
100
AcDbEntity
  8
YODOROGO
100
AcDbLine
 10
11396.10162798446
 20
593.1560611609824
 30
0.0
 11
11396.10162798446
 21
597.6560611609833
 31
0.0
  0
LINE
  5
27EBF
330
27C4B
100
AcDbEntity
  8
YODOROGO
100
AcDbLine
 10
11408.10162798447
 20
594.6560611609827
 30
0.0
 11
11397.60162798447
 21
594.6560611609827
 31
0.0
  0
LINE
  5
27EC0
330
27C4B
100
AcDbEntity
  8
YODOROGO
100
AcDbLine
 10
11408.10162798447
 20
596.1560611609829
 30
0.0
 11
11408.10162798447
 21
594.6560611609827
 31
0.0
  0
LINE
  5
27EC1
330
27C4B
100
AcDbEntity
  8
YODOROGO
100
AcDbLine
 10
11397.60162798447
 20
596.1560611609829
 30
0.0
 11
11408.10162798447
 21
596.1560611609829
 31
0.0
  0
LINE
  5
27EC2
330
27C4B
100
AcDbEntity
  8
YODOROGO
100
AcDbLine
 10
11397.60162798447
 20
594.6560611609827
 30
0.0
 11
11397.60162798447
 21
596.1560611609829
 31
0.0
  0
LINE
  5
27EC3
330
27C4B
100
AcDbEntity
  8
YODOROGO
100
AcDbLine
 10
11424.60162798446
 20
610.4060611609829
 30
0.0
 11
11393.10162798446
 21
610.4060611609829
 31
0.0
  0
LINE
  5
27EC4
330
27C4B
100
AcDbEntity
  8
YODOROGO
100
AcDbLine
 10
11424.60162798446
 20
580.406061160983
 30
0.0
 11
11424.60162798446
 21
610.4060611609829
 31
0.0
  0
LINE
  5
27EC5
330
27C4B
100
AcDbEntity
  8
YODOROGO
100
AcDbLine
 10
11393.10162798446
 20
580.406061160983
 30
0.0
 11
11424.60162798446
 21
580.406061160983
 31
0.0
  0
LINE
  5
27EC6
330
27C4B
100
AcDbEntity
  8
YODOROGO
100
AcDbLine
 10
11393.10162798446
 20
535.4060611609829
 30
0.0
 11
11393.10162798446
 21
580.406061160983
 31
0.0
  0
LINE
  5
27EC7
330
27C4B
100
AcDbEntity
  8
YODOROGO
100
AcDbLine
 10
11451.60162798447
 20
535.4060611609829
 30
0.0
 11
11393.10162798446
 21
535.4060611609829
 31
0.0
  0
LINE
  5
27EC8
330
27C4B
100
AcDbEntity
  8
YODOROGO
100
AcDbLine
 10
11463.60162798446
 20
589.4060611609823
 30
0.0
 11
11463.60162798446
 21
599.9060611609831
 31
0.0
  0
ARC
  5
27EC9
330
27C4B
100
AcDbEntity
  8
YODOROGO
100
AcDbCircle
 10
11454.60162798446
 20
589.4060611609843
 30
0.0
 40
9.000000000001408
100
AcDbArc
 50
270.0
 51
359.9999999999877
  0
LINE
  5
27ECA
330
27C4B
100
AcDbEntity
  8
YODOROGO
100
AcDbLine
 10
11448.60162798446
 20
580.406061160983
 30
0.0
 11
11454.60162798446
 21
580.406061160983
 31
0.0
  0
LINE
  5
27ECB
330
27C4B
100
AcDbEntity
  8
YODOROGO
100
AcDbLine
 10
11448.60162798446
 20
610.4060611609829
 30
0.0
 11
11448.60162798446
 21
580.406061160983
 31
0.0
  0
LINE
  5
27ECC
330
27C4B
100
AcDbEntity
  8
YODOROGO
100
AcDbLine
 10
11587.35162798447
 20
580.406061160983
 30
0.0
 11
11597.10162798446
 21
580.406061160983
 31
0.0
  0
LINE
  5
27ECD
330
27C4B
100
AcDbEntity
  8
YODOROGO
100
AcDbLine
 10
11600.10162798446
 20
535.4060611609829
 30
0.0
 11
11587.35162798447
 21
535.4060611609829
 31
0.0
  0
LINE
  5
27ECE
330
27C4B
100
AcDbEntity
  8
YODOROGO
100
AcDbLine
 10
11536.35162798447
 20
586.4060611609825
 30
0.0
 11
11546.85162798447
 21
586.4060611609825
 31
0.0
  0
LINE
  5
27ECF
330
27C4B
100
AcDbEntity
  8
YODOROGO
100
AcDbLine
 10
11587.35162798447
 20
559.4060611609831
 30
0.0
 11
11521.35162798447
 21
559.4060611609831
 31
0.0
  0
LINE
  5
27ED0
330
27C4B
100
AcDbEntity
  8
YODOROGO
100
AcDbLine
 10
11561.85162798446
 20
586.4060611609825
 30
0.0
 11
11572.35162798446
 21
586.4060611609825
 31
0.0
  0
LINE
  5
27ED1
330
27C4B
100
AcDbEntity
  8
YODOROGO
100
AcDbLine
 10
11587.35162798447
 20
535.4060611609829
 30
0.0
 11
11587.35162798447
 21
580.406061160983
 31
0.0
  0
LINE
  5
27ED2
330
27C4B
100
AcDbEntity
  8
YODOROGO
100
AcDbLine
 10
11511.60162798447
 20
535.4060611609829
 30
0.0
 11
11492.10162798447
 21
535.4060611609829
 31
0.0
  0
LINE
  5
27ED3
330
27C4B
100
AcDbEntity
  8
YODOROGO
100
AcDbLine
 10
11481.60162798447
 20
599.9060611609831
 30
0.0
 11
11481.60162798447
 21
565.4060611609828
 31
0.0
  0
ARC
  5
27ED4
330
27C4B
100
AcDbEntity
  8
YODOROGO
100
AcDbCircle
 10
11600.10162798446
 20
550.4060611609828
 30
0.0
 40
15.0
100
AcDbArc
 50
270.0
 51
0.0
  0
LINE
  5
27ED5
330
27C4B
100
AcDbEntity
  8
YODOROGO
100
AcDbLine
 10
11660.10162798446
 20
571.4060611609824
 30
0.0
 11
11660.10162798446
 21
535.4060611609829
 31
0.0
  0
ARC
  5
27ED6
330
27C4B
100
AcDbEntity
  8
YODOROGO
100
AcDbCircle
 10
11639.89552333754
 20
614.0742712911499
 30
0.0
 40
47.21083372187828
100
AcDbArc
 50
295.3405244216011
 51
359.1890230341867
  0
LINE
  5
27ED7
330
27C4B
100
AcDbEntity
  8
YODOROGO
100
AcDbLine
 10
11481.60162798447
 20
697.406061160983
 30
0.0
 11
11436.60162798447
 21
727.4060611609828
 31
0.0
  0
LINE
  5
27ED8
330
27C4B
100
AcDbEntity
  8
YODOROGO
100
AcDbLine
 10
11436.60162798447
 20
760.4060611609829
 30
0.0
 11
11481.60162798447
 21
730.4060611609828
 31
0.0
  0
LINE
  5
27ED9
330
27C4B
100
AcDbEntity
  8
YODOROGO
100
AcDbLine
 10
11448.60162798446
 20
629.9060611609831
 30
0.0
 11
11481.60162798447
 21
629.9060611609831
 31
0.0
  0
LINE
  5
27EDA
330
27C4B
100
AcDbEntity
  8
YODOROGO
100
AcDbLine
 10
11481.60162798447
 20
650.9060611609827
 30
0.0
 11
11448.60162798446
 21
650.9060611609827
 31
0.0
  0
LINE
  5
27EDB
330
27C4B
100
AcDbEntity
  8
YODOROGO
100
AcDbLine
 10
11393.10162798446
 20
673.4060611609827
 30
0.0
 11
11481.60162798447
 21
673.4060611609827
 31
0.0
  0
LINE
  5
27EDC
330
27C4B
100
AcDbEntity
  8
YODOROGO
100
AcDbLine
 10
11280.60162798447
 20
760.4060611609829
 30
0.0
 11
11258.10162798447
 21
760.4060611609829
 31
0.0
  0
LINE
  5
27EDD
330
27C4B
100
AcDbEntity
  8
YODOROGO
100
AcDbLine
 10
11280.60162798447
 20
685.4060611609829
 30
0.0
 11
11280.60162798447
 21
760.4060611609829
 31
0.0
  0
LINE
  5
27EDE
330
27C4B
100
AcDbEntity
  8
YODOROGO
100
AcDbLine
 10
11258.10162798447
 20
685.4060611609829
 30
0.0
 11
11280.60162798447
 21
685.4060611609829
 31
0.0
  0
LINE
  5
27EDF
330
27C4B
100
AcDbEntity
  8
YODOROGO
100
AcDbLine
 10
11258.10162798447
 20
760.4060611609829
 30
0.0
 11
11258.10162798447
 21
685.4060611609829
 31
0.0
  0
LINE
  5
27EE0
330
27C4B
100
AcDbEntity
  8
YODOROGO
100
AcDbLine
 10
11310.60162798447
 20
760.4060611609829
 30
0.0
 11
11331.60162798447
 21
760.4060611609829
 31
0.0
  0
LINE
  5
27EE1
330
27C4B
100
AcDbEntity
  8
YODOROGO
100
AcDbLine
 10
11310.60162798447
 20
679.4060611609832
 30
0.0
 11
11310.60162798447
 21
760.4060611609829
 31
0.0
  0
ARC
  5
27EE2
330
27C4B
100
AcDbEntity
  8
YODOROGO
100
AcDbCircle
 10
11295.60162798447
 20
679.4060611609832
 30
0.0
 40
15.0
100
AcDbArc
 50
270.0
 51
0.0
  0
LINE
  5
27EE3
330
27C4B
100
AcDbEntity
  8
YODOROGO
100
AcDbLine
 10
11258.10162798447
 20
664.4060611609833
 30
0.0
 11
11295.60162798447
 21
664.4060611609833
 31
0.0
  0
LINE
  5
27EE4
330
27C4B
100
AcDbEntity
  8
YODOROGO
100
AcDbLine
 10
11258.10162798447
 20
640.4060611609828
 30
0.0
 11
11258.10162798447
 21
664.4060611609833
 31
0.0
  0
LINE
  5
27EE5
330
27C4B
100
AcDbEntity
  8
YODOROGO
100
AcDbLine
 10
11301.60162798446
 20
640.4060611609828
 30
0.0
 11
11258.10162798447
 21
640.4060611609828
 31
0.0
  0
ARC
  5
27EE6
330
27C4B
100
AcDbEntity
  8
YODOROGO
100
AcDbCircle
 10
11301.60162798446
 20
670.4060611609828
 30
0.0
 40
30.0
100
AcDbArc
 50
270.0
 51
0.0
  0
LINE
  5
27EE7
330
27C4B
100
AcDbEntity
  8
YODOROGO
100
AcDbLine
 10
11331.60162798447
 20
760.4060611609829
 30
0.0
 11
11331.60162798447
 21
670.4060611609828
 31
0.0
  0
LINE
  5
27EE8
330
27C4B
100
AcDbEntity
  8
YODOROGO
100
AcDbLine
 10
11241.60162798446
 20
730.4060611609828
 30
0.0
 11
11241.60162798446
 21
748.4060611609828
 31
0.0
1001
AUTOCAD_POSTSCRIPT_FIGURE
1002
{
1000
PSFILL
1000
Grayscale
1000
Grayscale
1070
    25
1002
}
  0
LINE
  5
27EE9
330
27C4B
100
AcDbEntity
  8
YODOROGO
100
AcDbLine
 10
11241.60162798446
 20
697.406061160983
 30
0.0
 11
11241.60162798446
 21
715.4060611609828
 31
0.0
1001
AUTOCAD_POSTSCRIPT_FIGURE
1002
{
1000
PSFILL
1000
Grayscale
1000
Grayscale
1070
    25
1002
}
  0
LINE
  5
27EEA
330
27C4B
100
AcDbEntity
  8
YODOROGO
100
AcDbLine
 10
11241.60162798446
 20
640.4060611609828
 30
0.0
 11
11241.60162798446
 21
682.4060611609829
 31
0.0
1001
AUTOCAD_POSTSCRIPT_FIGURE
1002
{
1000
PSFILL
1000
Grayscale
1000
Grayscale
1070
    25
1002
}
  0
LINE
  5
27EEB
330
27C4B
100
AcDbEntity
  8
YODOROGO
100
AcDbLine
 10
11393.10162798446
 20
715.4060611609828
 30
0.0
 11
11436.60162798447
 21
760.4060611609829
 31
0.0
  0
LINE
  5
27EEC
330
27C4B
100
AcDbEntity
  8
YODOROGO
100
AcDbLine
 10
11393.10162798446
 20
682.4060611609829
 30
0.0
 11
11393.10162798446
 21
715.4060611609828
 31
0.0
  0
LINE
  5
27EED
330
27C4B
100
AcDbEntity
  8
YODOROGO
100
AcDbLine
 10
11436.60162798447
 20
727.4060611609828
 30
0.0
 11
11393.10162798446
 21
682.4060611609829
 31
0.0
  0
LINE
  5
27EEE
330
27C4B
100
AcDbEntity
  8
YODOROGO
100
AcDbLine
 10
11424.60162798446
 20
629.9060611609831
 30
0.0
 11
11424.60162798446
 21
650.9060611609827
 31
0.0
  0
LINE
  5
27EEF
330
27C4B
100
AcDbEntity
  8
YODOROGO
100
AcDbLine
 10
11393.10162798446
 20
629.9060611609831
 30
0.0
 11
11424.60162798446
 21
629.9060611609831
 31
0.0
  0
LINE
  5
27EF0
330
27C4B
100
AcDbEntity
  8
YODOROGO
100
AcDbLine
 10
11448.60162798446
 20
650.9060611609827
 30
0.0
 11
11448.60162798446
 21
629.9060611609831
 31
0.0
  0
LINE
  5
27EF1
330
27C4B
100
AcDbEntity
  8
YODOROGO
100
AcDbLine
 10
11393.10162798446
 20
650.9060611609827
 30
0.0
 11
11393.10162798446
 21
673.4060611609827
 31
0.0
  0
LINE
  5
27EF2
330
27C4B
100
AcDbEntity
  8
YODOROGO
100
AcDbLine
 10
11424.60162798446
 20
650.9060611609827
 30
0.0
 11
11393.10162798446
 21
650.9060611609827
 31
0.0
  0
LINE
  5
27EF3
330
27C4B
100
AcDbEntity
  8
YODOROGO
100
AcDbLine
 10
11492.10162798447
 20
760.4060611609829
 30
0.0
 11
11615.10162798446
 21
760.4060611609829
 31
0.0
  0
LINE
  5
27EF4
330
27C4B
100
AcDbEntity
  8
YODOROGO
100
AcDbLine
 10
11597.10162798446
 20
736.4060611609825
 30
0.0
 11
11511.60162798447
 21
736.4060611609825
 31
0.0
  0
LINE
  5
27EF5
330
27C4B
100
AcDbEntity
  8
YODOROGO
100
AcDbLine
 10
11577.60162798447
 20
682.4060611609829
 30
0.0
 11
11587.35162798447
 21
682.4060611609829
 31
0.0
  0
LINE
  5
27EF6
330
27C4B
100
AcDbEntity
  8
YODOROGO
100
AcDbLine
 10
11587.35162798447
 20
727.4060611609828
 30
0.0
 11
11577.60162798447
 21
682.4060611609829
 31
0.0
  0
LINE
  5
27EF7
330
27C4B
100
AcDbEntity
  8
YODOROGO
100
AcDbLine
 10
11569.35162798446
 20
727.4060611609828
 30
0.0
 11
11587.35162798447
 21
727.4060611609828
 31
0.0
  0
LINE
  5
27EF8
330
27C4B
100
AcDbEntity
  8
YODOROGO
100
AcDbLine
 10
11559.60162798447
 20
682.4060611609829
 30
0.0
 11
11569.35162798446
 21
727.4060611609828
 31
0.0
  0
LINE
  5
27EF9
330
27C4B
100
AcDbEntity
  8
YODOROGO
100
AcDbLine
 10
11549.10162798447
 20
682.4060611609829
 30
0.0
 11
11559.60162798447
 21
682.4060611609829
 31
0.0
  0
LINE
  5
27EFA
330
27C4B
100
AcDbEntity
  8
YODOROGO
100
AcDbLine
 10
11539.35162798447
 20
727.4060611609828
 30
0.0
 11
11549.10162798447
 21
682.4060611609829
 31
0.0
  0
LINE
  5
27EFB
330
27C4B
100
AcDbEntity
  8
YODOROGO
100
AcDbLine
 10
11521.35162798447
 20
727.4060611609828
 30
0.0
 11
11539.35162798447
 21
727.4060611609828
 31
0.0
  0
LINE
  5
27EFC
330
27C4B
100
AcDbEntity
  8
YODOROGO
100
AcDbLine
 10
11531.10162798447
 20
682.4060611609829
 30
0.0
 11
11521.35162798447
 21
727.4060611609828
 31
0.0
  0
LINE
  5
27EFD
330
27C4B
100
AcDbEntity
  8
YODOROGO
100
AcDbLine
 10
11521.35162798447
 20
682.4060611609829
 30
0.0
 11
11531.10162798447
 21
682.4060611609829
 31
0.0
  0
LINE
  5
27EFE
330
27C4B
100
AcDbEntity
  8
YODOROGO
100
AcDbLine
 10
11521.35162798447
 20
658.4060611609827
 30
0.0
 11
11521.35162798447
 21
682.4060611609829
 31
0.0
  0
LINE
  5
27EFF
330
27C4B
100
AcDbEntity
  8
YODOROGO
100
AcDbLine
 10
11587.35162798447
 20
658.4060611609827
 30
0.0
 11
11521.35162798447
 21
658.4060611609827
 31
0.0
  0
LINE
  5
27F00
330
27C4B
100
AcDbEntity
  8
YODOROGO
100
AcDbLine
 10
11587.35162798447
 20
682.4060611609829
 30
0.0
 11
11587.35162798447
 21
658.4060611609827
 31
0.0
  0
LINE
  5
27F01
330
27C4B
100
AcDbEntity
  8
YODOROGO
100
AcDbLine
 10
11481.60162798447
 20
730.4060611609828
 30
0.0
 11
11481.60162798447
 21
697.406061160983
 31
0.0
  0
LINE
  5
27F02
330
27C4B
100
AcDbEntity
  8
YODOROGO
100
AcDbLine
 10
11546.85162798447
 20
658.4060611609827
 30
0.0
 11
11561.85162798446
 21
658.4060611609827
 31
0.0
  0
LINE
  5
27F03
330
27C4B
100
AcDbEntity
  8
YODOROGO
100
AcDbLine
 10
11521.35162798447
 20
634.4060611609833
 30
0.0
 11
11536.35162798447
 21
634.4060611609833
 31
0.0
  0
LINE
  5
27F04
330
27C4B
100
AcDbEntity
  8
YODOROGO
100
AcDbLine
 10
11572.35162798446
 20
634.4060611609833
 30
0.0
 11
11587.35162798447
 21
634.4060611609833
 31
0.0
  0
LINE
  5
27F05
330
27C4B
100
AcDbEntity
  8
YODOROGO
100
AcDbLine
 10
11481.60162798447
 20
673.4060611609827
 30
0.0
 11
11481.60162798447
 21
650.9060611609827
 31
0.0
  0
LINE
  5
27F06
330
27C4B
100
AcDbEntity
  8
YODOROGO
100
AcDbLine
 10
11687.10162798447
 20
760.4060611609829
 30
0.0
 11
11687.10162798447
 21
736.4060611609825
 31
0.0
  0
LINE
  5
27F07
330
27C4B
100
AcDbEntity
  8
YODOROGO
100
AcDbLine
 10
11825.10162798447
 20
598.4060611609827
 30
0.0
 11
11825.10162798446
 21
679.4060611609832
 31
0.0
  0
LINE
  5
27F08
330
27C4B
100
AcDbEntity
  8
YODOROGO
100
AcDbLine
 10
11798.10162798446
 20
745.4060611609828
 30
0.0
 11
11798.10162798446
 21
613.4060611609827
 31
0.0
  0
LINE
  5
27F09
330
27C4B
100
AcDbEntity
  8
YODOROGO
100
AcDbLine
 10
11870.10162798447
 20
535.4060611609829
 30
0.0
 11
11870.10162798446
 21
679.4060611609832
 31
0.0
  0
LINE
  5
27F0A
330
27C4B
100
AcDbEntity
  8
YODOROGO
100
AcDbLine
 10
11846.10162798447
 20
679.4060611609832
 30
0.0
 11
11846.10162798447
 21
535.4060611609829
 31
0.0
  0
LINE
  5
27F0B
330
27C4B
100
AcDbEntity
  8
YODOROGO
100
AcDbLine
 10
11714.10162798447
 20
598.4060611609827
 30
0.0
 11
11714.10162798447
 21
640.4060611609828
 31
0.0
  0
ARC
  5
27F0C
330
27C4B
100
AcDbEntity
  8
YODOROGO
100
AcDbCircle
 10
11757.71807441852
 20
602.921381733209
 30
0.0
 40
67.53466821599572
100
AcDbArc
 50
268.6284910216979
 51
356.1663845733032
  0
LINE
  5
27F0D
330
27C4B
100
AcDbEntity
  8
YODOROGO
100
AcDbLine
 10
11756.10162798446
 20
572.9060611609829
 30
0.0
 11
11756.10162798446
 21
535.4060611609829
 31
0.0
  0
ARC
  5
27F0E
330
27C4B
100
AcDbEntity
  8
YODOROGO
100
AcDbCircle
 10
11756.81927839671
 20
614.1896088816206
 30
0.0
 40
41.28978486885457
100
AcDbArc
 50
269.0041020930593
 51
358.9126445549248
  0
LINE
  5
27F0F
330
27C4B
100
AcDbEntity
  8
YODOROGO
100
AcDbLine
 10
11846.10162798447
 20
535.4060611609829
 30
0.0
 11
11870.10162798447
 21
535.4060611609829
 31
0.0
  0
LINE
  5
27F10
330
27C4B
100
AcDbEntity
  8
YODOROGO
100
AcDbLine
 10
11825.10162798446
 20
679.4060611609832
 30
0.0
 11
11846.10162798447
 21
679.4060611609832
 31
0.0
  0
LINE
  5
27F11
330
27C4B
100
AcDbEntity
  8
YODOROGO
100
AcDbLine
 10
11858.10162798446
 20
745.4060611609828
 30
0.0
 11
11798.10162798446
 21
745.4060611609828
 31
0.0
  0
LINE
  5
27F12
330
27C4B
100
AcDbEntity
  8
YODOROGO
100
AcDbLine
 10
11825.10162798446
 20
718.4060611609829
 30
0.0
 11
11873.10162798447
 21
718.4060611609829
 31
0.0
  0
LINE
  5
27F13
330
27C4B
100
AcDbEntity
  8
YODOROGO
100
AcDbLine
 10
11888.10162798447
 20
703.4060611609828
 30
0.0
 11
11825.10162798446
 21
703.4060611609828
 31
0.0
  0
LINE
  5
27F14
330
27C4B
100
AcDbEntity
  8
YODOROGO
100
AcDbLine
 10
11714.10162798447
 20
667.4060611609831
 30
0.0
 11
11756.10162798446
 21
667.4060611609831
 31
0.0
  0
LINE
  5
27F15
330
27C4B
100
AcDbEntity
  8
YODOROGO
100
AcDbLine
 10
11714.10162798447
 20
688.4060611609828
 30
0.0
 11
11714.10162798447
 21
667.4060611609831
 31
0.0
  0
LINE
  5
27F16
330
27C4B
100
AcDbEntity
  8
YODOROGO
100
AcDbLine
 10
11756.10162798446
 20
688.4060611609828
 30
0.0
 11
11714.10162798447
 21
688.4060611609828
 31
0.0
  0
LINE
  5
27F17
330
27C4B
100
AcDbEntity
  8
YODOROGO
100
AcDbLine
 10
11756.10162798446
 20
667.4060611609831
 30
0.0
 11
11756.10162798446
 21
688.4060611609828
 31
0.0
  0
LINE
  5
27F18
330
27C4B
100
AcDbEntity
  8
YODOROGO
100
AcDbLine
 10
11825.10162798446
 20
703.4060611609828
 30
0.0
 11
11825.10162798446
 21
718.4060611609829
 31
0.0
  0
LINE
  5
27F19
330
27C4B
100
AcDbEntity
  8
YODOROGO
100
AcDbLine
 10
11780.10162798446
 20
640.4060611609828
 30
0.0
 11
11780.10162798446
 21
715.4060611609828
 31
0.0
  0
LINE
  5
27F1A
330
27C4B
100
AcDbEntity
  8
YODOROGO
100
AcDbLine
 10
11714.10162798447
 20
640.4060611609828
 30
0.0
 11
11780.10162798446
 21
640.4060611609828
 31
0.0
  0
LINE
  5
27F1B
330
27C4B
100
AcDbEntity
  8
YODOROGO
100
AcDbLine
 10
11780.10162798446
 20
736.4060611609825
 30
0.0
 11
11780.10162798446
 21
760.4060611609829
 31
0.0
  0
ARC
  5
27F1C
330
27C4B
100
AcDbEntity
  8
YODOROGO
100
AcDbCircle
 10
11858.10162798446
 20
751.4060611609817
 30
0.0
 40
5.999999999997952
100
AcDbArc
 50
270.0
 51
0.0000000000081422
  0
LINE
  5
27F1D
330
27C4B
100
AcDbEntity
  8
YODOROGO
100
AcDbLine
 10
11864.10162798447
 20
760.4060611609829
 30
0.0
 11
11864.10162798447
 21
751.4060611609825
 31
0.0
  0
LINE
  5
27F1E
330
27C4B
100
AcDbEntity
  8
YODOROGO
100
AcDbLine
 10
11888.10162798447
 20
760.4060611609829
 30
0.0
 11
11864.10162798447
 21
760.4060611609829
 31
0.0
  0
LINE
  5
27F1F
330
27C4B
100
AcDbEntity
  8
YODOROGO
100
AcDbLine
 10
11888.10162798447
 20
733.4060611609828
 30
0.0
 11
11888.10162798447
 21
760.4060611609829
 31
0.0
  0
ARC
  5
27F20
330
27C4B
100
AcDbEntity
  8
YODOROGO
100
AcDbCircle
 10
11873.10162798447
 20
733.4060611609828
 30
0.0
 40
15.0
100
AcDbArc
 50
270.0
 51
0.0
  0
LINE
  5
27F21
330
27C4B
100
AcDbEntity
  8
YODOROGO
100
AcDbLine
 10
11888.10162798447
 20
679.4060611609832
 30
0.0
 11
11888.10162798447
 21
703.4060611609828
 31
0.0
  0
LINE
  5
27F22
330
27C4B
100
AcDbEntity
  8
YODOROGO
100
AcDbLine
 10
11870.10162798446
 20
679.4060611609832
 30
0.0
 11
11888.10162798447
 21
679.4060611609832
 31
0.0
  0
LINE
  5
27F23
330
27C4B
100
AcDbEntity
  8
SUNPOU
100
AcDbLine
 10
2254.03670734087
 20
1586.712525199589
 30
0.0
 11
3706.536707340871
 21
1586.712525199589
 31
0.0
  0
LINE
  5
27F24
330
27C4B
100
AcDbEntity
  8
SUNPOU
100
AcDbLine
 10
2254.036707340869
 20
1436.712525199591
 30
0.0
 11
3706.536707340871
 21
1436.712525199591
 31
0.0
  0
LINE
  5
27F25
330
27C4B
100
AcDbEntity
  8
SUNPOU
100
AcDbLine
 10
3661.536707340871
 20
1571.712525199589
 30
0.0
 11
3661.536707340871
 21
1451.712525199591
 31
0.0
  0
LINE
  5
27F26
330
27C4B
100
AcDbEntity
  8
SUNPOU
100
AcDbLine
 10
3661.536707340871
 20
1436.712525199591
 30
0.0
 11
3661.536707340871
 21
1185.998239485305
 31
0.0
  0
LINE
  5
27F27
330
27C4B
100
AcDbEntity
  8
SUNPOU
100
AcDbLine
 10
3491.536707340871
 20
2336.712525199591
 30
0.0
 11
3706.536707340871
 21
2336.712525199591
 31
0.0
  0
LINE
  5
27F28
330
27C4B
100
AcDbEntity
  8
SUNPOU
100
AcDbLine
 10
2254.03670734087
 20
1586.712525199591
 30
0.0
 11
3706.536707340871
 21
1586.712525199591
 31
0.0
  0
LINE
  5
27F29
330
27C4B
100
AcDbEntity
  8
SUNPOU
100
AcDbLine
 10
3661.536707340871
 20
2321.712525199592
 30
0.0
 11
3661.536707340871
 21
1601.712525199592
 31
0.0
  0
LINE
  5
27F2A
330
27C4B
100
AcDbEntity
  8
SUNPOU
100
AcDbLine
 10
1024.036707340868
 20
1406.712525199591
 30
0.0
 11
1024.036707340868
 21
1061.712525199589
 31
0.0
  0
LINE
  5
27F2B
330
27C4B
100
AcDbEntity
  8
SUNPOU
100
AcDbLine
 10
2074.036707340868
 20
1406.712525199591
 30
0.0
 11
2074.036707340868
 21
1061.712525199589
 31
0.0
  0
LINE
  5
27F2C
330
27C4B
100
AcDbEntity
  8
SUNPOU
100
AcDbLine
 10
1039.036707340869
 20
1106.712525199589
 30
0.0
 11
2059.036707340868
 21
1106.712525199589
 31
0.0
  0
LINE
  5
27F2D
330
27C4B
100
AcDbEntity
  8
SUNPOU
100
AcDbLine
 10
874.0367073408688
 20
1406.712525199591
 30
0.0
 11
874.0367073408688
 21
851.7125251995903
 31
0.0
  0
LINE
  5
27F2E
330
27C4B
100
AcDbEntity
  8
SUNPOU
100
AcDbLine
 10
2224.036707340868
 20
1406.712525199591
 30
0.0
 11
2224.036707340868
 21
851.7125251995903
 31
0.0
  0
LINE
  5
27F2F
330
27C4B
100
AcDbEntity
  8
SUNPOU
100
AcDbLine
 10
889.0367073408686
 20
896.7125251995904
 30
0.0
 11
2209.036707340869
 21
896.7125251995904
 31
0.0
  0
LINE
  5
27F30
330
27C4B
100
AcDbEntity
  8
SUNPOU
100
AcDbLine
 10
11460.34064133492
 20
8088.87747860906
 30
0.0
 11
11460.34064133492
 21
8077.627478609063
 31
0.0
  0
LINE
  5
27F31
330
27C4B
100
AcDbEntity
  8
SUNPOU
100
AcDbLine
 10
11670.34064133493
 20
8088.87747860906
 30
0.0
 11
11670.34064133493
 21
8077.627478609063
 31
0.0
  0
LINE
  5
27F32
330
27C4B
100
AcDbEntity
  8
SUNPOU
100
AcDbLine
 10
11460.34064133492
 20
6688.877478609064
 30
0.0
 11
11460.34064133492
 21
6677.627478609064
 31
0.0
  0
LINE
  5
27F33
330
27C4B
100
AcDbEntity
  8
SUNPOU
100
AcDbLine
 10
11460.34064133492
 20
6688.877478609064
 30
0.0
 11
11460.34064133492
 21
6677.627478609064
 31
0.0
  0
LINE
  5
27F34
330
27C4B
100
AcDbEntity
  8
SUNPOU
100
AcDbLine
 10
11460.34064133492
 20
6711.377478609063
 30
0.0
 11
11460.34064133492
 21
6722.627478609064
 31
0.0
  0
LINE
  5
27F35
330
27C4B
100
AcDbEntity
  8
SUNPOU
100
AcDbLine
 10
11250.34064133493
 20
7038.877478609062
 30
0.0
 11
11250.34064133493
 21
7027.627478609064
 31
0.0
  0
LINE
  5
27F36
330
27C4B
100
AcDbEntity
  8
SUNPOU
100
AcDbLine
 10
11250.34064133493
 20
6361.377478609064
 30
0.0
 11
11250.34064133493
 21
6372.627478609063
 31
0.0
  0
LINE
  5
27F37
330
27C4B
100
AcDbEntity
  8
SUNPOU
100
AcDbLine
 10
11460.34064133492
 20
4628.877478609063
 30
0.0
 11
11460.34064133492
 21
4617.627478609064
 31
0.0
  0
LINE
  5
27F38
330
27C4B
100
AcDbEntity
  8
SUNPOU
100
AcDbLine
 10
11460.34064133492
 20
4651.377478609063
 30
0.0
 11
11460.34064133492
 21
4662.627478609063
 31
0.0
  0
LINE
  5
27F39
330
27C4B
100
AcDbEntity
  8
SUNPOU
100
AcDbLine
 10
11460.34064133492
 20
4651.377478609063
 30
0.0
 11
11460.34064133492
 21
4662.627478609063
 31
0.0
  0
LINE
  5
27F3A
330
27C4B
100
AcDbEntity
  8
SUNPOU
100
AcDbLine
 10
11250.34064133493
 20
4978.877478609064
 30
0.0
 11
11250.34064133493
 21
4967.627478609063
 31
0.0
  0
LINE
  5
27F3B
330
27C4B
100
AcDbEntity
  8
SUNPOU
100
AcDbLine
 10
10811.04665690042
 20
6748.877478609063
 30
0.0
 11
10811.04665690042
 21
6760.127478609064
 31
0.0
  0
LINE
  5
27F3C
330
27C4B
100
AcDbEntity
  8
SUNPOU
100
AcDbLine
 10
10811.04665690042
 20
6673.877478609063
 30
0.0
 11
10811.04665690042
 21
6685.127478609064
 31
0.0
  0
LINE
  5
27F3D
330
27C4B
100
AcDbEntity
  8
SUNPOU
100
AcDbLine
 10
10621.59064133492
 20
6486.184634723412
 30
0.0
 11
10610.34064133492
 21
6486.184634723412
 31
0.0
  0
LINE
  5
27F3E
330
27C4B
100
AcDbEntity
  8
SUNPOU
100
AcDbLine
 10
10556.59064133492
 20
6486.184634723412
 30
0.0
 11
10545.34064133492
 21
6486.184634723412
 31
0.0
  0
LINE
  5
27F3F
330
27C4B
100
AcDbEntity
  8
SUNPOU
100
AcDbLine
 10
10261.59064133492
 20
6050.127478609063
 30
0.0
 11
10272.84064133492
 21
6050.127478609063
 31
0.0
  0
LINE
  5
27F40
330
27C4B
100
AcDbEntity
  8
SUNPOU
100
AcDbLine
 10
10811.04665690042
 20
4688.877478609064
 30
0.0
 11
10811.04665690042
 21
4700.127478609063
 31
0.0
  0
LINE
  5
27F41
330
27C4B
100
AcDbEntity
  8
SUNPOU
100
AcDbLine
 10
10811.04665690042
 20
4613.877478609063
 30
0.0
 11
10811.04665690042
 21
4625.127478609063
 31
0.0
  0
LINE
  5
27F42
330
27C4B
100
AcDbEntity
  8
SUNPOU
100
AcDbLine
 10
10939.09064133492
 20
6050.127478609063
 30
0.0
 11
10927.84064133492
 21
6050.127478609063
 31
0.0
  0
LINE
  5
27F43
330
27C4B
100
AcDbEntity
  8
SUNPOU
100
AcDbLine
 10
11250.34064133493
 20
4301.377478609063
 30
0.0
 11
11250.34064133493
 21
4312.627478609063
 31
0.0
  0
LINE
  5
27F44
330
27C4B
100
AcDbEntity
  8
SUNPOU
100
AcDbLine
 10
11460.34064133492
 20
3251.377478609063
 30
0.0
 11
11460.34064133492
 21
3262.627478609063
 31
0.0
  0
LINE
  5
27F45
330
27C4B
100
AcDbEntity
  8
SUNPOU
100
AcDbLine
 10
11670.34064133493
 20
3251.377478609063
 30
0.0
 11
11670.34064133493
 21
3262.627478609063
 31
0.0
  0
LINE
  5
27F46
330
27C4B
100
AcDbEntity
  8
SUNPOU
100
AcDbLine
 10
10621.59064133492
 20
4426.184634723411
 30
0.0
 11
10610.34064133492
 21
4426.184634723411
 31
0.0
  0
LINE
  5
27F47
330
27C4B
100
AcDbEntity
  8
SUNPOU
100
AcDbLine
 10
10556.59064133492
 20
4426.184634723411
 30
0.0
 11
10545.34064133492
 21
4426.184634723411
 31
0.0
  0
LINE
  5
27F48
330
27C4B
100
AcDbEntity
  8
SUNPOU
100
AcDbLine
 10
10261.59064133492
 20
4065.127478609062
 30
0.0
 11
10272.84064133492
 21
4065.127478609062
 31
0.0
  0
LINE
  5
27F49
330
27C4B
100
AcDbEntity
  8
SUNPOU
100
AcDbLine
 10
10589.09064133492
 20
2840.127478609062
 30
0.0
 11
10577.84064133492
 21
2840.127478609062
 31
0.0
  0
LINE
  5
27F4A
330
27C4B
100
AcDbEntity
  8
SUNPOU
100
AcDbLine
 10
10611.59064133492
 20
2840.127478609062
 30
0.0
 11
10622.84064133492
 21
2840.127478609062
 31
0.0
  0
LINE
  5
27F4B
330
27C4B
100
AcDbEntity
  8
SUNPOU
100
AcDbLine
 10
7439.09064133493
 20
2840.127478609062
 30
0.0
 11
7427.84064133493
 21
2840.127478609062
 31
0.0
  0
LINE
  5
27F4C
330
27C4B
100
AcDbEntity
  8
SUNPOU
100
AcDbLine
 10
7461.590641334931
 20
2840.127478609062
 30
0.0
 11
7472.84064133493
 21
2840.127478609062
 31
0.0
  0
LINE
  5
27F4D
330
27C4B
100
AcDbEntity
  8
SUNPOU
100
AcDbLine
 10
10939.09064133492
 20
2630.127478609063
 30
0.0
 11
10927.84064133492
 21
2630.127478609063
 31
0.0
  0
LINE
  5
27F4E
330
27C4B
100
AcDbEntity
  8
SUNPOU
100
AcDbLine
 10
10939.09064133492
 20
2840.127478609062
 30
0.0
 11
10927.84064133492
 21
2840.127478609062
 31
0.0
  0
LINE
  5
27F4F
330
27C4B
100
AcDbEntity
  8
SUNPOU
100
AcDbLine
 10
10939.09064133492
 20
4065.127478609062
 30
0.0
 11
10927.84064133492
 21
4065.127478609062
 31
0.0
  0
LINE
  5
27F50
330
27C4B
100
AcDbEntity
  8
SUNPOU
100
AcDbLine
 10
5739.09064133493
 20
2840.127478609062
 30
0.0
 11
5727.840641334932
 21
2840.127478609062
 31
0.0
  0
LINE
  5
27F51
330
27C4B
100
AcDbEntity
  8
SUNPOU
100
AcDbLine
 10
5761.59064133493
 20
2840.127478609062
 30
0.0
 11
5772.84064133493
 21
2840.127478609062
 31
0.0
  0
LINE
  5
27F52
330
27C4B
100
AcDbEntity
  8
SUNPOU
100
AcDbLine
 10
2589.090641334928
 20
2840.127478609062
 30
0.0
 11
2577.840641334928
 21
2840.127478609062
 31
0.0
  0
LINE
  5
27F53
330
27C4B
100
AcDbEntity
  8
SUNPOU
100
AcDbLine
 10
2611.590641334929
 20
2840.127478609062
 30
0.0
 11
2622.840641334929
 21
2840.127478609062
 31
0.0
  0
LINE
  5
27F54
330
27C4B
100
AcDbEntity
  8
SUNPOU
100
AcDbLine
 10
2261.590641334929
 20
2840.127478609062
 30
0.0
 11
2272.840641334929
 21
2840.127478609062
 31
0.0
  0
LINE
  5
27F55
330
27C4B
100
AcDbEntity
  8
SUNPOU
100
AcDbLine
 10
2261.590641334929
 20
2630.127478609063
 30
0.0
 11
2272.840641334929
 21
2630.127478609063
 31
0.0
  0
ARC
  5
27F56
330
27C4B
100
AcDbEntity
  8
SUNPOU
100
AcDbCircle
 10
2250.340641334929
 20
2630.127478609063
 30
0.0
 40
5.625
100
AcDbArc
 50
0.0
 51
180.0
  0
ARC
  5
27F57
330
27C4B
100
AcDbEntity
  8
SUNPOU
100
AcDbCircle
 10
2250.340641334929
 20
2630.127478609063
 30
0.0
 40
5.625
100
AcDbArc
 50
180.0
 51
0.0
  0
ARC
  5
27F58
330
27C4B
100
AcDbEntity
  8
SUNPOU
100
AcDbCircle
 10
2250.340641334929
 20
2840.127478609062
 30
0.0
 40
5.625
100
AcDbArc
 50
0.0
 51
180.0
  0
ARC
  5
27F59
330
27C4B
100
AcDbEntity
  8
SUNPOU
100
AcDbCircle
 10
2250.340641334929
 20
2840.127478609062
 30
0.0
 40
5.625
100
AcDbArc
 50
180.0
 51
0.0
  0
ARC
  5
27F5A
330
27C4B
100
AcDbEntity
  8
SUNPOU
100
AcDbCircle
 10
2600.340641334929
 20
2840.127478609062
 30
0.0
 40
5.625
100
AcDbArc
 50
0.0
 51
180.0
  0
ARC
  5
27F5B
330
27C4B
100
AcDbEntity
  8
SUNPOU
100
AcDbCircle
 10
2600.340641334929
 20
2840.127478609062
 30
0.0
 40
5.625
100
AcDbArc
 50
180.0
 51
0.0
  0
ARC
  5
27F5C
330
27C4B
100
AcDbEntity
  8
SUNPOU
100
AcDbCircle
 10
2600.340641334929
 20
2840.127478609062
 30
0.0
 40
5.625
100
AcDbArc
 50
180.0
 51
0.0
  0
ARC
  5
27F5D
330
27C4B
100
AcDbEntity
  8
SUNPOU
100
AcDbCircle
 10
2600.340641334929
 20
2840.127478609062
 30
0.0
 40
5.625
100
AcDbArc
 50
0.0
 51
180.0
  0
ARC
  5
27F5E
330
27C4B
100
AcDbEntity
  8
SUNPOU
100
AcDbCircle
 10
5750.34064133493
 20
2840.127478609062
 30
0.0
 40
5.625
100
AcDbArc
 50
0.0
 51
180.0
  0
ARC
  5
27F5F
330
27C4B
100
AcDbEntity
  8
SUNPOU
100
AcDbCircle
 10
5750.34064133493
 20
2840.127478609062
 30
0.0
 40
5.625
100
AcDbArc
 50
180.0
 51
0.0
  0
ARC
  5
27F60
330
27C4B
100
AcDbEntity
  8
SUNPOU
100
AcDbCircle
 10
5750.34064133493
 20
2840.127478609062
 30
0.0
 40
5.625
100
AcDbArc
 50
180.0
 51
0.0
  0
ARC
  5
27F61
330
27C4B
100
AcDbEntity
  8
SUNPOU
100
AcDbCircle
 10
5750.34064133493
 20
2840.127478609062
 30
0.0
 40
5.625
100
AcDbArc
 50
0.0
 51
180.0
  0
ARC
  5
27F62
330
27C4B
100
AcDbEntity
  8
SUNPOU
100
AcDbCircle
 10
10950.34064133492
 20
4065.127478609062
 30
0.0
 40
5.625
100
AcDbArc
 50
180.0
 51
0.0
  0
ARC
  5
27F63
330
27C4B
100
AcDbEntity
  8
SUNPOU
100
AcDbCircle
 10
10950.34064133492
 20
4065.127478609062
 30
0.0
 40
5.625
100
AcDbArc
 50
0.0
 51
180.0
  0
ARC
  5
27F64
330
27C4B
100
AcDbEntity
  8
SUNPOU
100
AcDbCircle
 10
10950.34064133492
 20
2840.127478609062
 30
0.0
 40
5.625
100
AcDbArc
 50
180.0
 51
0.0
  0
ARC
  5
27F65
330
27C4B
100
AcDbEntity
  8
SUNPOU
100
AcDbCircle
 10
10950.34064133492
 20
2840.127478609062
 30
0.0
 40
5.625
100
AcDbArc
 50
0.0
 51
180.0
  0
ARC
  5
27F66
330
27C4B
100
AcDbEntity
  8
SUNPOU
100
AcDbCircle
 10
10950.34064133492
 20
2630.127478609063
 30
0.0
 40
5.625
100
AcDbArc
 50
180.0
 51
0.0
  0
ARC
  5
27F67
330
27C4B
100
AcDbEntity
  8
SUNPOU
100
AcDbCircle
 10
10950.34064133492
 20
2630.127478609063
 30
0.0
 40
5.625
100
AcDbArc
 50
0.0
 51
180.0
  0
ARC
  5
27F68
330
27C4B
100
AcDbEntity
  8
SUNPOU
100
AcDbCircle
 10
7450.340641334931
 20
2840.127478609062
 30
0.0
 40
5.625
100
AcDbArc
 50
0.0
 51
180.0
  0
ARC
  5
27F69
330
27C4B
100
AcDbEntity
  8
SUNPOU
100
AcDbCircle
 10
7450.340641334931
 20
2840.127478609062
 30
0.0
 40
5.625
100
AcDbArc
 50
180.0
 51
0.0
  0
ARC
  5
27F6A
330
27C4B
100
AcDbEntity
  8
SUNPOU
100
AcDbCircle
 10
7450.340641334931
 20
2840.127478609062
 30
0.0
 40
5.625
100
AcDbArc
 50
180.0
 51
0.0
  0
ARC
  5
27F6B
330
27C4B
100
AcDbEntity
  8
SUNPOU
100
AcDbCircle
 10
7450.340641334931
 20
2840.127478609062
 30
0.0
 40
5.625
100
AcDbArc
 50
0.0
 51
180.0
  0
ARC
  5
27F6C
330
27C4B
100
AcDbEntity
  8
SUNPOU
100
AcDbCircle
 10
10600.34064133492
 20
2840.127478609062
 30
0.0
 40
5.625
100
AcDbArc
 50
0.0
 51
180.0
  0
ARC
  5
27F6D
330
27C4B
100
AcDbEntity
  8
SUNPOU
100
AcDbCircle
 10
10600.34064133492
 20
2840.127478609062
 30
0.0
 40
5.625
100
AcDbArc
 50
180.0
 51
0.0
  0
ARC
  5
27F6E
330
27C4B
100
AcDbEntity
  8
SUNPOU
100
AcDbCircle
 10
10600.34064133492
 20
2840.127478609062
 30
0.0
 40
5.625
100
AcDbArc
 50
180.0
 51
0.0
  0
ARC
  5
27F6F
330
27C4B
100
AcDbEntity
  8
SUNPOU
100
AcDbCircle
 10
10600.34064133492
 20
2840.127478609062
 30
0.0
 40
5.625
100
AcDbArc
 50
0.0
 51
180.0
  0
ARC
  5
27F70
330
27C4B
100
AcDbEntity
  8
SUNPOU
100
AcDbCircle
 10
10250.34064133492
 20
4065.127478609062
 30
0.0
 40
5.625
100
AcDbArc
 50
0.0
 51
180.0
  0
ARC
  5
27F71
330
27C4B
100
AcDbEntity
  8
SUNPOU
100
AcDbCircle
 10
10250.34064133492
 20
4065.127478609062
 30
0.0
 40
5.625
100
AcDbArc
 50
180.0
 51
0.0
  0
ARC
  5
27F72
330
27C4B
100
AcDbEntity
  8
SUNPOU
100
AcDbCircle
 10
10567.84064133492
 20
4426.184634723411
 30
0.0
 40
5.625
100
AcDbArc
 50
180.0
 51
0.0
  0
ARC
  5
27F73
330
27C4B
100
AcDbEntity
  8
SUNPOU
100
AcDbCircle
 10
10567.84064133492
 20
4426.184634723411
 30
0.0
 40
5.625
100
AcDbArc
 50
0.0
 51
180.0
  0
ARC
  5
27F74
330
27C4B
100
AcDbEntity
  8
SUNPOU
100
AcDbCircle
 10
10632.84064133492
 20
4426.184634723411
 30
0.0
 40
5.625
100
AcDbArc
 50
180.0
 51
0.0
  0
ARC
  5
27F75
330
27C4B
100
AcDbEntity
  8
SUNPOU
100
AcDbCircle
 10
10632.84064133492
 20
4426.184634723411
 30
0.0
 40
5.625
100
AcDbArc
 50
0.0
 51
180.0
  0
ARC
  5
27F76
330
27C4B
100
AcDbEntity
  8
SUNPOU
100
AcDbCircle
 10
11670.34064133493
 20
3240.127478609063
 30
0.0
 40
5.625
100
AcDbArc
 50
90.0
 51
270.0
  0
ARC
  5
27F77
330
27C4B
100
AcDbEntity
  8
SUNPOU
100
AcDbCircle
 10
11670.34064133493
 20
3240.127478609063
 30
0.0
 40
5.625
100
AcDbArc
 50
270.0
 51
90.0
  0
ARC
  5
27F78
330
27C4B
100
AcDbEntity
  8
SUNPOU
100
AcDbCircle
 10
11460.34064133492
 20
3240.127478609063
 30
0.0
 40
5.625
100
AcDbArc
 50
90.0
 51
270.0
  0
ARC
  5
27F79
330
27C4B
100
AcDbEntity
  8
SUNPOU
100
AcDbCircle
 10
11460.34064133492
 20
3240.127478609063
 30
0.0
 40
5.625
100
AcDbArc
 50
270.0
 51
90.0
  0
ARC
  5
27F7A
330
27C4B
100
AcDbEntity
  8
SUNPOU
100
AcDbCircle
 10
11250.34064133493
 20
4290.127478609064
 30
0.0
 40
5.625
100
AcDbArc
 50
90.0
 51
270.0
  0
ARC
  5
27F7B
330
27C4B
100
AcDbEntity
  8
SUNPOU
100
AcDbCircle
 10
11250.34064133493
 20
4290.127478609064
 30
0.0
 40
5.625
100
AcDbArc
 50
270.0
 51
90.0
  0
ARC
  5
27F7C
330
27C4B
100
AcDbEntity
  8
SUNPOU
100
AcDbCircle
 10
10950.34064133492
 20
6050.127478609063
 30
0.0
 40
5.625
100
AcDbArc
 50
180.0
 51
0.0
  0
ARC
  5
27F7D
330
27C4B
100
AcDbEntity
  8
SUNPOU
100
AcDbCircle
 10
10950.34064133492
 20
6050.127478609063
 30
0.0
 40
5.625
100
AcDbArc
 50
0.0
 51
180.0
  0
ARC
  5
27F7E
330
27C4B
100
AcDbEntity
  8
SUNPOU
100
AcDbCircle
 10
10811.04665690042
 20
4602.627478609064
 30
0.0
 40
5.625
100
AcDbArc
 50
90.0
 51
270.0
  0
ARC
  5
27F7F
330
27C4B
100
AcDbEntity
  8
SUNPOU
100
AcDbCircle
 10
10811.04665690042
 20
4602.627478609064
 30
0.0
 40
5.625
100
AcDbArc
 50
270.0
 51
90.0
  0
ARC
  5
27F80
330
27C4B
100
AcDbEntity
  8
SUNPOU
100
AcDbCircle
 10
10811.04665690042
 20
4677.627478609063
 30
0.0
 40
5.625
100
AcDbArc
 50
90.0
 51
270.0
  0
ARC
  5
27F81
330
27C4B
100
AcDbEntity
  8
SUNPOU
100
AcDbCircle
 10
10811.04665690042
 20
4677.627478609063
 30
0.0
 40
5.625
100
AcDbArc
 50
270.0
 51
90.0
  0
ARC
  5
27F82
330
27C4B
100
AcDbEntity
  8
SUNPOU
100
AcDbCircle
 10
10250.34064133492
 20
6050.127478609063
 30
0.0
 40
5.625
100
AcDbArc
 50
0.0
 51
180.0
  0
ARC
  5
27F83
330
27C4B
100
AcDbEntity
  8
SUNPOU
100
AcDbCircle
 10
10250.34064133492
 20
6050.127478609063
 30
0.0
 40
5.625
100
AcDbArc
 50
180.0
 51
0.0
  0
ARC
  5
27F84
330
27C4B
100
AcDbEntity
  8
SUNPOU
100
AcDbCircle
 10
10567.84064133492
 20
6486.184634723412
 30
0.0
 40
5.625
100
AcDbArc
 50
180.0
 51
0.0
  0
ARC
  5
27F85
330
27C4B
100
AcDbEntity
  8
SUNPOU
100
AcDbCircle
 10
10567.84064133492
 20
6486.184634723412
 30
0.0
 40
5.625
100
AcDbArc
 50
0.0
 51
180.0
  0
ARC
  5
27F86
330
27C4B
100
AcDbEntity
  8
SUNPOU
100
AcDbCircle
 10
10632.84064133492
 20
6486.184634723412
 30
0.0
 40
5.625
100
AcDbArc
 50
180.0
 51
0.0
  0
ARC
  5
27F87
330
27C4B
100
AcDbEntity
  8
SUNPOU
100
AcDbCircle
 10
10632.84064133492
 20
6486.184634723412
 30
0.0
 40
5.625
100
AcDbArc
 50
0.0
 51
180.0
  0
ARC
  5
27F88
330
27C4B
100
AcDbEntity
  8
SUNPOU
100
AcDbCircle
 10
10811.04665690042
 20
6662.627478609064
 30
0.0
 40
5.625
100
AcDbArc
 50
90.0
 51
270.0
  0
ARC
  5
27F89
330
27C4B
100
AcDbEntity
  8
SUNPOU
100
AcDbCircle
 10
10811.04665690042
 20
6662.627478609064
 30
0.0
 40
5.625
100
AcDbArc
 50
270.0
 51
90.0
  0
ARC
  5
27F8A
330
27C4B
100
AcDbEntity
  8
SUNPOU
100
AcDbCircle
 10
10811.04665690042
 20
6737.627478609063
 30
0.0
 40
5.625
100
AcDbArc
 50
90.0
 51
270.0
  0
ARC
  5
27F8B
330
27C4B
100
AcDbEntity
  8
SUNPOU
100
AcDbCircle
 10
10811.04665690042
 20
6737.627478609063
 30
0.0
 40
5.625
100
AcDbArc
 50
270.0
 51
90.0
  0
ARC
  5
27F8C
330
27C4B
100
AcDbEntity
  8
SUNPOU
100
AcDbCircle
 10
11250.34064133493
 20
4990.127478609064
 30
0.0
 40
5.625
100
AcDbArc
 50
270.0
 51
90.0
  0
ARC
  5
27F8D
330
27C4B
100
AcDbEntity
  8
SUNPOU
100
AcDbCircle
 10
11250.34064133493
 20
4990.127478609064
 30
0.0
 40
5.625
100
AcDbArc
 50
90.0
 51
270.0
  0
ARC
  5
27F8E
330
27C4B
100
AcDbEntity
  8
SUNPOU
100
AcDbCircle
 10
11460.34064133492
 20
4640.127478609064
 30
0.0
 40
5.625
100
AcDbArc
 50
90.0
 51
270.0
  0
ARC
  5
27F8F
330
27C4B
100
AcDbEntity
  8
SUNPOU
100
AcDbCircle
 10
11460.34064133492
 20
4640.127478609064
 30
0.0
 40
5.625
100
AcDbArc
 50
270.0
 51
90.0
  0
ARC
  5
27F90
330
27C4B
100
AcDbEntity
  8
SUNPOU
100
AcDbCircle
 10
11460.34064133492
 20
4640.127478609064
 30
0.0
 40
5.625
100
AcDbArc
 50
90.0
 51
270.0
  0
ARC
  5
27F91
330
27C4B
100
AcDbEntity
  8
SUNPOU
100
AcDbCircle
 10
11460.34064133492
 20
4640.127478609064
 30
0.0
 40
5.625
100
AcDbArc
 50
270.0
 51
90.0
  0
ARC
  5
27F92
330
27C4B
100
AcDbEntity
  8
SUNPOU
100
AcDbCircle
 10
11460.34064133492
 20
4640.127478609064
 30
0.0
 40
5.625
100
AcDbArc
 50
270.0
 51
90.0
  0
ARC
  5
27F93
330
27C4B
100
AcDbEntity
  8
SUNPOU
100
AcDbCircle
 10
11460.34064133492
 20
4640.127478609064
 30
0.0
 40
5.625
100
AcDbArc
 50
90.0
 51
270.0
  0
ARC
  5
27F94
330
27C4B
100
AcDbEntity
  8
SUNPOU
100
AcDbCircle
 10
11250.34064133493
 20
6350.127478609064
 30
0.0
 40
5.625
100
AcDbArc
 50
90.0
 51
270.0
  0
ARC
  5
27F95
330
27C4B
100
AcDbEntity
  8
SUNPOU
100
AcDbCircle
 10
11250.34064133493
 20
6350.127478609064
 30
0.0
 40
5.625
100
AcDbArc
 50
270.0
 51
90.0
  0
ARC
  5
27F96
330
27C4B
100
AcDbEntity
  8
SUNPOU
100
AcDbCircle
 10
11250.34064133493
 20
7050.127478609063
 30
0.0
 40
5.625
100
AcDbArc
 50
270.0
 51
90.0
  0
ARC
  5
27F97
330
27C4B
100
AcDbEntity
  8
SUNPOU
100
AcDbCircle
 10
11250.34064133493
 20
7050.127478609063
 30
0.0
 40
5.625
100
AcDbArc
 50
90.0
 51
270.0
  0
ARC
  5
27F98
330
27C4B
100
AcDbEntity
  8
SUNPOU
100
AcDbCircle
 10
11460.34064133492
 20
6700.127478609063
 30
0.0
 40
5.625
100
AcDbArc
 50
90.0
 51
270.0
  0
ARC
  5
27F99
330
27C4B
100
AcDbEntity
  8
SUNPOU
100
AcDbCircle
 10
11460.34064133492
 20
6700.127478609063
 30
0.0
 40
5.625
100
AcDbArc
 50
270.0
 51
90.0
  0
ARC
  5
27F9A
330
27C4B
100
AcDbEntity
  8
SUNPOU
100
AcDbCircle
 10
11460.34064133492
 20
6700.127478609063
 30
0.0
 40
5.625
100
AcDbArc
 50
270.0
 51
90.0
  0
ARC
  5
27F9B
330
27C4B
100
AcDbEntity
  8
SUNPOU
100
AcDbCircle
 10
11460.34064133492
 20
6700.127478609063
 30
0.0
 40
5.625
100
AcDbArc
 50
90.0
 51
270.0
  0
ARC
  5
27F9C
330
27C4B
100
AcDbEntity
  8
SUNPOU
100
AcDbCircle
 10
11460.34064133492
 20
6700.127478609063
 30
0.0
 40
5.625
100
AcDbArc
 50
270.0
 51
90.0
  0
ARC
  5
27F9D
330
27C4B
100
AcDbEntity
  8
SUNPOU
100
AcDbCircle
 10
11460.34064133492
 20
6700.127478609063
 30
0.0
 40
5.625
100
AcDbArc
 50
90.0
 51
270.0
  0
ARC
  5
27F9E
330
27C4B
100
AcDbEntity
  8
SUNPOU
100
AcDbCircle
 10
11670.34064133493
 20
8100.127478609062
 30
0.0
 40
5.625
100
AcDbArc
 50
270.0
 51
90.0
  0
ARC
  5
27F9F
330
27C4B
100
AcDbEntity
  8
SUNPOU
100
AcDbCircle
 10
11670.34064133493
 20
8100.127478609062
 30
0.0
 40
5.625
100
AcDbArc
 50
90.0
 51
270.0
  0
ARC
  5
27FA0
330
27C4B
100
AcDbEntity
  8
SUNPOU
100
AcDbCircle
 10
11460.34064133492
 20
8100.127478609062
 30
0.0
 40
5.625
100
AcDbArc
 50
270.0
 51
90.0
  0
ARC
  5
27FA1
330
27C4B
100
AcDbEntity
  8
SUNPOU
100
AcDbCircle
 10
11460.34064133492
 20
8100.127478609062
 30
0.0
 40
5.625
100
AcDbArc
 50
90.0
 51
270.0
  0
TEXT
  5
27FA2
330
27C4B
100
AcDbEntity
  8
SUNPOU
100
AcDbText
 10
1405.036707340869
 20
941.7125251995903
 30
0.0
 40
90.0
  1
900 □
 41
0.6666666666666666
  7
00
100
AcDbText
  0
LINE
  5
27FA3
330
27C4B
100
AcDbEntity
  8
SUNPOU
100
AcDbLine
 10
2212.786707340868
 20
896.7125251995904
 30
0.0
 11
2201.536707340868
 21
896.7125251995904
 31
0.0
  0
LINE
  5
27FA4
330
27C4B
100
AcDbEntity
  8
SUNPOU
100
AcDbLine
 10
885.2867073408686
 20
896.7125251995904
 30
0.0
 11
896.5367073408687
 21
896.7125251995904
 31
0.0
  0
TEXT
  5
27FA5
330
27C4B
100
AcDbEntity
  8
SUNPOU
100
AcDbText
 10
1405.036707340869
 20
1151.712525199589
 30
0.0
 40
90.0
  1
700 □
 41
0.6666666666666666
  7
00
100
AcDbText
  0
LINE
  5
27FA6
330
27C4B
100
AcDbEntity
  8
SUNPOU
100
AcDbLine
 10
2062.786707340868
 20
1106.712525199589
 30
0.0
 11
2051.536707340869
 21
1106.712525199589
 31
0.0
  0
LINE
  5
27FA7
330
27C4B
100
AcDbEntity
  8
SUNPOU
100
AcDbLine
 10
1035.286707340869
 20
1106.712525199589
 30
0.0
 11
1046.536707340869
 21
1106.712525199589
 31
0.0
  0
TEXT
  5
27FA8
330
27C4B
100
AcDbEntity
  8
SUNPOU
100
AcDbText
 10
3616.53670734087
 20
1875.998239485305
 30
0.0
 40
90.0
  1
500
 50
90.0
 41
0.6666666666666666
  7
00
100
AcDbText
  0
LINE
  5
27FA9
330
27C4B
100
AcDbEntity
  8
SUNPOU
100
AcDbLine
 10
3661.536707340871
 20
1597.962525199592
 30
0.0
 11
3661.536707340871
 21
1609.21252519959
 31
0.0
  0
LINE
  5
27FAA
330
27C4B
100
AcDbEntity
  8
SUNPOU
100
AcDbLine
 10
3661.536707340871
 20
2325.462525199592
 30
0.0
 11
3661.536707340871
 21
2314.212525199591
 31
0.0
  0
TEXT
  5
27FAB
330
27C4B
100
AcDbEntity
  8
SUNPOU
100
AcDbText
 10
3616.53670734087
 20
1213.855382342448
 30
0.0
 40
90.0
  1
100
 50
90.0
 41
0.6666666666666666
  7
00
100
AcDbText
  0
LINE
  5
27FAC
330
27C4B
100
AcDbEntity
  8
SUNPOU
100
AcDbLine
 10
3661.536707340871
 20
1447.962525199591
 30
0.0
 11
3661.536707340871
 21
1459.212525199591
 31
0.0
  0
LINE
  5
27FAD
330
27C4B
100
AcDbEntity
  8
SUNPOU
100
AcDbLine
 10
3661.536707340871
 20
1575.462525199589
 30
0.0
 11
3661.536707340871
 21
1564.212525199589
 31
0.0
  0
ARC
  5
27FAE
330
27C4B
100
AcDbEntity
  8
SUNPOU
100
AcDbCircle
 10
3661.536707340871
 20
1586.712525199589
 30
0.0
 40
5.625
100
AcDbArc
 50
270.0
 51
90.0
  0
ARC
  5
27FAF
330
27C4B
100
AcDbEntity
  8
SUNPOU
100
AcDbCircle
 10
3661.536707340871
 20
1586.712525199589
 30
0.0
 40
5.625
100
AcDbArc
 50
90.0
 51
270.0
  0
ARC
  5
27FB0
330
27C4B
100
AcDbEntity
  8
SUNPOU
100
AcDbCircle
 10
3661.536707340871
 20
1436.712525199591
 30
0.0
 40
5.625
100
AcDbArc
 50
90.0
 51
270.0
  0
ARC
  5
27FB1
330
27C4B
100
AcDbEntity
  8
SUNPOU
100
AcDbCircle
 10
3661.536707340871
 20
1436.712525199591
 30
0.0
 40
5.625
100
AcDbArc
 50
270.0
 51
90.0
  0
ARC
  5
27FB2
330
27C4B
100
AcDbEntity
  8
SUNPOU
100
AcDbCircle
 10
3661.536707340871
 20
2336.712525199591
 30
0.0
 40
5.625
100
AcDbArc
 50
270.0
 51
90.0
  0
ARC
  5
27FB3
330
27C4B
100
AcDbEntity
  8
SUNPOU
100
AcDbCircle
 10
3661.536707340871
 20
2336.712525199591
 30
0.0
 40
5.625
100
AcDbArc
 50
90.0
 51
270.0
  0
ARC
  5
27FB4
330
27C4B
100
AcDbEntity
  8
SUNPOU
100
AcDbCircle
 10
3661.536707340871
 20
1586.712525199591
 30
0.0
 40
5.625
100
AcDbArc
 50
90.0
 51
270.0
  0
ARC
  5
27FB5
330
27C4B
100
AcDbEntity
  8
SUNPOU
100
AcDbCircle
 10
3661.536707340871
 20
1586.712525199591
 30
0.0
 40
5.625
100
AcDbArc
 50
270.0
 51
90.0
  0
ARC
  5
27FB6
330
27C4B
100
AcDbEntity
  8
SUNPOU
100
AcDbCircle
 10
1024.036707340868
 20
1106.712525199589
 30
0.0
 40
5.625
100
AcDbArc
 50
0.0
 51
180.0
  0
ARC
  5
27FB7
330
27C4B
100
AcDbEntity
  8
SUNPOU
100
AcDbCircle
 10
1024.036707340868
 20
1106.712525199589
 30
0.0
 40
5.625
100
AcDbArc
 50
180.0
 51
0.0
  0
ARC
  5
27FB8
330
27C4B
100
AcDbEntity
  8
SUNPOU
100
AcDbCircle
 10
2074.036707340868
 20
1106.712525199589
 30
0.0
 40
5.625
100
AcDbArc
 50
180.0
 51
0.0
  0
ARC
  5
27FB9
330
27C4B
100
AcDbEntity
  8
SUNPOU
100
AcDbCircle
 10
2074.036707340868
 20
1106.712525199589
 30
0.0
 40
5.625
100
AcDbArc
 50
0.0
 51
180.0
  0
ARC
  5
27FBA
330
27C4B
100
AcDbEntity
  8
SUNPOU
100
AcDbCircle
 10
874.0367073408688
 20
896.7125251995904
 30
0.0
 40
5.625
100
AcDbArc
 50
0.0
 51
180.0
  0
ARC
  5
27FBB
330
27C4B
100
AcDbEntity
  8
SUNPOU
100
AcDbCircle
 10
874.0367073408688
 20
896.7125251995904
 30
0.0
 40
5.625
100
AcDbArc
 50
180.0
 51
0.0
  0
ARC
  5
27FBC
330
27C4B
100
AcDbEntity
  8
SUNPOU
100
AcDbCircle
 10
2224.036707340868
 20
896.7125251995904
 30
0.0
 40
5.625
100
AcDbArc
 50
180.0
 51
0.0
  0
ARC
  5
27FBD
330
27C4B
100
AcDbEntity
  8
SUNPOU
100
AcDbCircle
 10
2224.036707340868
 20
896.7125251995904
 30
0.0
 40
5.625
100
AcDbArc
 50
0.0
 51
180.0
  0
CIRCLE
  5
27FBE
330
27C4B
100
AcDbEntity
  8
HIKIDASHI
100
AcDbCircle
 10
1549.036707340871
 20
1676.712525199588
 30
0.0
 40
9.0
  0
CIRCLE
  5
27FBF
330
27C4B
100
AcDbEntity
  8
HIKIDASHI
100
AcDbCircle
 10
1549.036707340871
 20
1616.712525199589
 30
0.0
 40
9.0
  0
ARC
  5
27FC0
330
27C4B
100
AcDbEntity
  8
HIKIDASHI
100
AcDbCircle
 10
1549.036707340871
 20
1616.712525199589
 30
0.0
 40
4.5
100
AcDbArc
 50
180.0
 51
0.0
  0
ARC
  5
27FC1
330
27C4B
100
AcDbEntity
  8
HIKIDASHI
100
AcDbCircle
 10
1549.036707340871
 20
1616.712525199589
 30
0.0
 40
4.5
100
AcDbArc
 50
0.0
 51
180.0
  0
ARC
  5
27FC2
330
27C4B
100
AcDbEntity
  8
HIKIDASHI
100
AcDbCircle
 10
1549.036707340871
 20
1676.712525199588
 30
0.0
 40
4.5
100
AcDbArc
 50
180.0
 51
0.0
  0
ARC
  5
27FC3
330
27C4B
100
AcDbEntity
  8
HIKIDASHI
100
AcDbCircle
 10
1549.036707340871
 20
1676.712525199588
 30
0.0
 40
4.5
100
AcDbArc
 50
0.0
 51
180.0
  0
LINE
  5
27FC4
330
27C4B
100
AcDbEntity
  8
HATCH
100
AcDbLine
 10
943.2354371516904
 20
1436.712525199586
 30
0.0
 11
1029.837977530134
 21
1586.712525199585
 31
0.0
  0
LINE
  5
27FC5
330
27C4B
100
AcDbEntity
  8
HATCH
100
AcDbLine
 10
969.8379775301345
 20
1586.712525199584
 30
0.0
 11
999.8379775301344
 21
1534.751000972522
 31
0.0
  0
LINE
  5
27FC6
330
27C4B
100
AcDbEntity
  8
HATCH
100
AcDbLine
 10
973.2354371516903
 20
1488.674049426653
 30
0.0
 11
1003.23543715169
 21
1436.712525199586
 31
0.0
  0
LINE
  5
27FC7
330
27C4B
100
AcDbEntity
  8
HATCH
100
AcDbLine
 10
1130.735437151687
 20
1436.712525199586
 30
0.0
 11
1217.337977530132
 21
1586.712525199585
 31
0.0
  0
LINE
  5
27FC8
330
27C4B
100
AcDbEntity
  8
HATCH
100
AcDbLine
 10
1157.337977530133
 20
1586.712525199584
 30
0.0
 11
1187.337977530133
 21
1534.751000972522
 31
0.0
  0
LINE
  5
27FC9
330
27C4B
100
AcDbEntity
  8
HATCH
100
AcDbLine
 10
1160.735437151687
 20
1488.674049426653
 30
0.0
 11
1190.735437151688
 21
1436.712525199586
 31
0.0
  0
LINE
  5
27FCA
330
27C4B
100
AcDbEntity
  8
HATCH
100
AcDbLine
 10
2068.235437151691
 20
1436.712525199588
 30
0.0
 11
2154.837977530136
 21
1586.712525199588
 31
0.0
  0
LINE
  5
27FCB
330
27C4B
100
AcDbEntity
  8
HATCH
100
AcDbLine
 10
2094.837977530136
 20
1586.712525199586
 30
0.0
 11
2124.837977530137
 21
1534.751000972524
 31
0.0
  0
LINE
  5
27FCC
330
27C4B
100
AcDbEntity
  8
HATCH
100
AcDbLine
 10
2098.235437151691
 20
1488.674049426656
 30
0.0
 11
2128.235437151691
 21
1436.712525199588
 31
0.0
  0
LINE
  5
27FCD
330
27C4B
100
AcDbEntity
  8
HATCH
100
AcDbLine
 10
1880.735437151692
 20
1436.712525199588
 30
0.0
 11
1967.337977530136
 21
1586.712525199588
 31
0.0
  0
LINE
  5
27FCE
330
27C4B
100
AcDbEntity
  8
HATCH
100
AcDbLine
 10
1907.337977530136
 20
1586.712525199586
 30
0.0
 11
1937.337977530136
 21
1534.751000972524
 31
0.0
  0
LINE
  5
27FCF
330
27C4B
100
AcDbEntity
  8
HATCH
100
AcDbLine
 10
1910.735437151691
 20
1488.674049426656
 30
0.0
 11
1940.735437151692
 21
1436.712525199588
 31
0.0
  0
LINE
  5
27FD0
330
27C4B
100
AcDbEntity
  8
HATCH
100
AcDbLine
 10
1505.73543715169
 20
1436.712525199588
 30
0.0
 11
1592.337977530134
 21
1586.712525199588
 31
0.0
  0
LINE
  5
27FD1
330
27C4B
100
AcDbEntity
  8
HATCH
100
AcDbLine
 10
1532.337977530134
 20
1586.712525199586
 30
0.0
 11
1562.337977530134
 21
1534.751000972524
 31
0.0
  0
LINE
  5
27FD2
330
27C4B
100
AcDbEntity
  8
HATCH
100
AcDbLine
 10
1535.73543715169
 20
1488.674049426656
 30
0.0
 11
1565.73543715169
 21
1436.712525199588
 31
0.0
  0
LINE
  5
27FD3
330
27C4B
100
AcDbEntity
  8
HATCH
100
AcDbLine
 10
1318.235437151688
 20
1436.712525199588
 30
0.0
 11
1404.837977530132
 21
1586.712525199588
 31
0.0
  0
LINE
  5
27FD4
330
27C4B
100
AcDbEntity
  8
HATCH
100
AcDbLine
 10
1344.837977530133
 20
1586.712525199586
 30
0.0
 11
1374.837977530133
 21
1534.751000972524
 31
0.0
  0
LINE
  5
27FD5
330
27C4B
100
AcDbEntity
  8
HATCH
100
AcDbLine
 10
1348.235437151688
 20
1488.674049426656
 30
0.0
 11
1378.235437151688
 21
1436.712525199588
 31
0.0
  0
LINE
  5
27FD6
330
27C4B
100
AcDbEntity
  8
HATCH
100
AcDbLine
 10
1693.23543715169
 20
1436.712525199588
 30
0.0
 11
1779.837977530133
 21
1586.712525199588
 31
0.0
  0
LINE
  5
27FD7
330
27C4B
100
AcDbEntity
  8
HATCH
100
AcDbLine
 10
1719.837977530134
 20
1586.712525199586
 30
0.0
 11
1749.837977530134
 21
1534.751000972524
 31
0.0
  0
LINE
  5
27FD8
330
27C4B
100
AcDbEntity
  8
HATCH
100
AcDbLine
 10
1723.23543715169
 20
1488.674049426656
 30
0.0
 11
1753.23543715169
 21
1436.712525199588
 31
0.0
  0
LINE
  5
27FD9
330
27C4B
100
AcDbEntity
  8
HATCH
100
AcDbLine
 10
3409.575183113921
 20
2111.712525199592
 30
0.0
 11
3461.53670734103
 21
2201.712525199669
 31
0.0
  0
LINE
  5
27FDA
330
27C4B
100
AcDbEntity
  8
HATCH
100
AcDbLine
 10
3425.536707341001
 20
2201.712525199669
 30
0.0
 11
3443.536707341016
 21
2170.535610663404
 31
0.0
  0
LINE
  5
27FDB
330
27C4B
100
AcDbEntity
  8
HATCH
100
AcDbLine
 10
3427.575183113936
 20
2142.889439735859
 30
0.0
 11
3445.57518311395
 21
2111.712525199592
 31
0.0
  0
LINE
  5
27FDC
330
27C4B
100
AcDbEntity
  8
HATCH
100
AcDbLine
 10
3274.575183113917
 20
2111.712525199592
 30
0.0
 11
3326.536707341027
 21
2201.712525199669
 31
0.0
  0
LINE
  5
27FDD
330
27C4B
100
AcDbEntity
  8
HATCH
100
AcDbLine
 10
3290.536707340997
 20
2201.712525199669
 30
0.0
 11
3308.536707341012
 21
2170.535610663404
 31
0.0
  0
LINE
  5
27FDE
330
27C4B
100
AcDbEntity
  8
HATCH
100
AcDbLine
 10
3292.575183113932
 20
2142.889439735859
 30
0.0
 11
3310.575183113947
 21
2111.712525199592
 31
0.0
  0
LINE
  5
27FDF
330
27C4B
100
AcDbEntity
  8
HATCH
100
AcDbLine
 10
3139.575183113919
 20
2111.712525199592
 30
0.0
 11
3191.536707341031
 21
2201.712525199669
 31
0.0
  0
LINE
  5
27FE0
330
27C4B
100
AcDbEntity
  8
HATCH
100
AcDbLine
 10
3155.536707341001
 20
2201.712525199669
 30
0.0
 11
3173.536707341016
 21
2170.535610663404
 31
0.0
  0
LINE
  5
27FE1
330
27C4B
100
AcDbEntity
  8
HATCH
100
AcDbLine
 10
3157.575183113936
 20
2142.889439735859
 30
0.0
 11
3175.57518311395
 21
2111.712525199592
 31
0.0
  0
LINE
  5
27FE2
330
27C4B
100
AcDbEntity
  8
HATCH
100
AcDbLine
 10
3004.575183113919
 20
2111.71252519959
 30
0.0
 11
3056.536707341031
 21
2201.712525199669
 31
0.0
  0
LINE
  5
27FE3
330
27C4B
100
AcDbEntity
  8
HATCH
100
AcDbLine
 10
3020.536707340999
 20
2201.712525199668
 30
0.0
 11
3038.536707341016
 21
2170.535610663403
 31
0.0
  0
LINE
  5
27FE4
330
27C4B
100
AcDbEntity
  8
HATCH
100
AcDbLine
 10
3022.575183113936
 20
2142.889439735859
 30
0.0
 11
3040.575183113951
 21
2111.71252519959
 31
0.0
  0
LINE
  5
27FE5
330
27C4B
100
AcDbEntity
  8
HATCH
100
AcDbLine
 10
2734.57518311392
 20
2111.71252519959
 30
0.0
 11
2786.53670734103
 21
2201.712525199669
 31
0.0
  0
LINE
  5
27FE6
330
27C4B
100
AcDbEntity
  8
HATCH
100
AcDbLine
 10
2750.536707341
 20
2201.712525199668
 30
0.0
 11
2768.536707341016
 21
2170.535610663403
 31
0.0
  0
LINE
  5
27FE7
330
27C4B
100
AcDbEntity
  8
HATCH
100
AcDbLine
 10
2752.575183113936
 20
2142.889439735859
 30
0.0
 11
2770.575183113951
 21
2111.71252519959
 31
0.0
  0
LINE
  5
27FE8
330
27C4B
100
AcDbEntity
  8
HATCH
100
AcDbLine
 10
2464.57518311392
 20
2111.71252519959
 30
0.0
 11
2516.53670734103
 21
2201.712525199669
 31
0.0
  0
LINE
  5
27FE9
330
27C4B
100
AcDbEntity
  8
HATCH
100
AcDbLine
 10
2480.536707341001
 20
2201.712525199668
 30
0.0
 11
2498.536707341016
 21
2170.535610663403
 31
0.0
  0
LINE
  5
27FEA
330
27C4B
100
AcDbEntity
  8
HATCH
100
AcDbLine
 10
2482.575183113936
 20
2142.889439735859
 30
0.0
 11
2500.575183113951
 21
2111.71252519959
 31
0.0
  0
LINE
  5
27FEB
330
27C4B
100
AcDbEntity
  8
HATCH
100
AcDbLine
 10
2599.57518311392
 20
2111.712525199592
 30
0.0
 11
2651.536707341032
 21
2201.712525199669
 31
0.0
  0
LINE
  5
27FEC
330
27C4B
100
AcDbEntity
  8
HATCH
100
AcDbLine
 10
2615.536707341
 20
2201.712525199669
 30
0.0
 11
2633.536707341016
 21
2170.535610663404
 31
0.0
  0
LINE
  5
27FED
330
27C4B
100
AcDbEntity
  8
HATCH
100
AcDbLine
 10
2617.575183113935
 20
2142.889439735859
 30
0.0
 11
2635.575183113951
 21
2111.712525199592
 31
0.0
  0
LINE
  5
27FEE
330
27C4B
100
AcDbEntity
  8
HATCH
100
AcDbLine
 10
2194.57518311392
 20
2111.71252519959
 30
0.0
 11
2246.536707341031
 21
2201.712525199669
 31
0.0
  0
LINE
  5
27FEF
330
27C4B
100
AcDbEntity
  8
HATCH
100
AcDbLine
 10
2210.536707341
 20
2201.712525199668
 30
0.0
 11
2228.536707341016
 21
2170.535610663403
 31
0.0
  0
LINE
  5
27FF0
330
27C4B
100
AcDbEntity
  8
HATCH
100
AcDbLine
 10
2212.575183113935
 20
2142.889439735859
 30
0.0
 11
2230.575183113951
 21
2111.71252519959
 31
0.0
  0
LINE
  5
27FF1
330
27C4B
100
AcDbEntity
  8
HATCH
100
AcDbLine
 10
2074.036707340987
 20
2111.71252519959
 30
0.0
 11
2125.998231568098
 21
2201.712525199669
 31
0.0
  0
LINE
  5
27FF2
330
27C4B
100
AcDbEntity
  8
HATCH
100
AcDbLine
 10
2089.998231568066
 20
2201.712525199668
 30
0.0
 11
2107.998231568081
 21
2170.535610663403
 31
0.0
  0
LINE
  5
27FF3
330
27C4B
100
AcDbEntity
  8
HATCH
100
AcDbLine
 10
2092.036707341001
 20
2142.889439735859
 30
0.0
 11
2110.036707341018
 21
2111.71252519959
 31
0.0
  0
LINE
  5
27FF4
330
27C4B
100
AcDbEntity
  8
HATCH
100
AcDbLine
 10
2329.57518311392
 20
2111.71252519959
 30
0.0
 11
2381.53670734103
 21
2201.712525199669
 31
0.0
  0
LINE
  5
27FF5
330
27C4B
100
AcDbEntity
  8
HATCH
100
AcDbLine
 10
2345.536707341
 20
2201.712525199668
 30
0.0
 11
2363.536707341016
 21
2170.535610663403
 31
0.0
  0
LINE
  5
27FF6
330
27C4B
100
AcDbEntity
  8
HATCH
100
AcDbLine
 10
2347.575183113935
 20
2142.889439735859
 30
0.0
 11
2365.575183113951
 21
2111.71252519959
 31
0.0
  0
LINE
  5
27FF7
330
27C4B
100
AcDbEntity
  8
HATCH
100
AcDbLine
 10
956.5367073409829
 20
2111.712525199588
 30
0.0
 11
1008.498231568094
 21
2201.712525199664
 31
0.0
  0
LINE
  5
27FF8
330
27C4B
100
AcDbEntity
  8
HATCH
100
AcDbLine
 10
972.4982315680632
 20
2201.712525199664
 30
0.0
 11
990.4982315680785
 21
2170.535610663399
 31
0.0
  0
LINE
  5
27FF9
330
27C4B
100
AcDbEntity
  8
HATCH
100
AcDbLine
 10
974.5367073409983
 20
2142.889439735855
 30
0.0
 11
992.5367073410138
 21
2111.712525199588
 31
0.0
  0
LINE
  5
27FFA
330
27C4B
100
AcDbEntity
  8
HATCH
100
AcDbLine
 10
2869.575183113919
 20
2111.712525199592
 30
0.0
 11
2921.536707341032
 21
2201.712525199669
 31
0.0
  0
LINE
  5
27FFB
330
27C4B
100
AcDbEntity
  8
HATCH
100
AcDbLine
 10
2885.536707341
 20
2201.712525199669
 30
0.0
 11
2903.536707341016
 21
2170.535610663404
 31
0.0
  0
LINE
  5
27FFC
330
27C4B
100
AcDbEntity
  8
HATCH
100
AcDbLine
 10
2887.575183113936
 20
2142.889439735859
 30
0.0
 11
2905.575183113951
 21
2111.712525199592
 31
0.0
  0
LINE
  5
27FFD
330
27C4B
100
AcDbEntity
  8
HATCH
100
AcDbLine
 10
821.5367073409828
 20
2111.712525199588
 30
0.0
 11
873.4982315680941
 21
2201.712525199664
 31
0.0
  0
LINE
  5
27FFE
330
27C4B
100
AcDbEntity
  8
HATCH
100
AcDbLine
 10
837.4982315680631
 20
2201.712525199664
 30
0.0
 11
855.4982315680787
 21
2170.535610663399
 31
0.0
  0
LINE
  5
27FFF
330
27C4B
100
AcDbEntity
  8
HATCH
100
AcDbLine
 10
839.5367073409984
 20
2142.889439735855
 30
0.0
 11
857.5367073410138
 21
2111.712525199588
 31
0.0
  0
LINE
  5
28000
330
27C4B
100
AcDbEntity
  8
HATCH
100
AcDbLine
 10
686.5367073409828
 20
2111.712525199588
 30
0.0
 11
738.4982315680938
 21
2201.712525199664
 31
0.0
  0
LINE
  5
28001
330
27C4B
100
AcDbEntity
  8
HATCH
100
AcDbLine
 10
702.4982315680631
 20
2201.712525199664
 30
0.0
 11
720.4982315680784
 21
2170.535610663399
 31
0.0
  0
LINE
  5
28002
330
27C4B
100
AcDbEntity
  8
HATCH
100
AcDbLine
 10
704.5367073409984
 20
2142.889439735855
 30
0.0
 11
722.5367073410137
 21
2111.712525199588
 31
0.0
  0
LINE
  5
28003
330
27C4B
100
AcDbEntity
  8
HASHIRA
  6
Continuous
100
AcDbLine
 10
2632.840641334933
 20
6662.627478609064
 30
0.0
 11
2567.840641334933
 21
6662.627478609064
 31
0.0
  0
LINE
  5
28004
330
27C4B
100
AcDbEntity
  8
HASHIRA
  6
Continuous
100
AcDbLine
 10
2567.840641334933
 20
6662.627478609064
 30
0.0
 11
2567.840641334933
 21
6737.627478609063
 31
0.0
  0
LINE
  5
28005
330
27C4B
100
AcDbEntity
  8
HASHIRA
  6
Continuous
100
AcDbLine
 10
2567.840641334933
 20
6737.627478609063
 30
0.0
 11
2632.840641334933
 21
6737.627478609063
 31
0.0
  0
LINE
  5
28006
330
27C4B
100
AcDbEntity
  8
HASHIRA
  6
Continuous
100
AcDbLine
 10
2632.840641334933
 20
6737.627478609063
 30
0.0
 11
2632.840641334933
 21
6662.627478609064
 31
0.0
  0
LINE
  5
28007
330
27C4B
100
AcDbEntity
  8
U2
100
AcDbLine
 10
2250.340641334933
 20
6350.127478609064
 30
0.0
 11
2950.340641334933
 21
6350.127478609064
 31
0.0
  0
LINE
  5
28008
330
27C4B
100
AcDbEntity
  8
U2
100
AcDbLine
 10
2950.340641334933
 20
6350.127478609064
 30
0.0
 11
2950.340641334933
 21
7050.127478609063
 31
0.0
  0
LINE
  5
28009
330
27C4B
100
AcDbEntity
  8
U2
100
AcDbLine
 10
2950.340641334933
 20
7050.127478609063
 30
0.0
 11
2250.340641334933
 21
7050.127478609063
 31
0.0
  0
LINE
  5
2800A
330
27C4B
100
AcDbEntity
  8
U2
100
AcDbLine
 10
2250.340641334933
 20
7050.127478609063
 30
0.0
 11
2250.340641334933
 21
6350.127478609064
 31
0.0
  0
LINE
  5
2800B
330
27C4B
100
AcDbEntity
  8
HASHIRA
  6
Continuous
100
AcDbLine
 10
2632.840641334933
 20
4602.627478609064
 30
0.0
 11
2567.840641334933
 21
4602.627478609064
 31
0.0
  0
LINE
  5
2800C
330
27C4B
100
AcDbEntity
  8
HASHIRA
  6
Continuous
100
AcDbLine
 10
2567.840641334933
 20
4602.627478609064
 30
0.0
 11
2567.840641334933
 21
4677.627478609063
 31
0.0
  0
LINE
  5
2800D
330
27C4B
100
AcDbEntity
  8
HASHIRA
  6
Continuous
100
AcDbLine
 10
2567.840641334933
 20
4677.627478609063
 30
0.0
 11
2632.840641334933
 21
4677.627478609063
 31
0.0
  0
LINE
  5
2800E
330
27C4B
100
AcDbEntity
  8
HASHIRA
  6
Continuous
100
AcDbLine
 10
2632.840641334933
 20
4677.627478609063
 30
0.0
 11
2632.840641334933
 21
4602.627478609064
 31
0.0
  0
LINE
  5
2800F
330
27C4B
100
AcDbEntity
  8
U2
100
AcDbLine
 10
2250.340641334933
 20
4290.127478609064
 30
0.0
 11
2950.340641334933
 21
4290.127478609064
 31
0.0
  0
LINE
  5
28010
330
27C4B
100
AcDbEntity
  8
U2
100
AcDbLine
 10
2950.340641334933
 20
4290.127478609064
 30
0.0
 11
2950.340641334933
 21
4990.127478609064
 31
0.0
  0
LINE
  5
28011
330
27C4B
100
AcDbEntity
  8
U2
100
AcDbLine
 10
2950.340641334933
 20
4990.127478609064
 30
0.0
 11
2250.340641334933
 21
4990.127478609064
 31
0.0
  0
LINE
  5
28012
330
27C4B
100
AcDbEntity
  8
U2
100
AcDbLine
 10
2250.340641334933
 20
4990.127478609064
 30
0.0
 11
2250.340641334933
 21
4290.127478609064
 31
0.0
  0
LINE
  5
28013
330
27C4B
100
AcDbEntity
  8
HASHIRA
  6
Continuous
100
AcDbLine
 10
5782.840641334935
 20
6662.627478609064
 30
0.0
 11
5717.840641334936
 21
6662.627478609064
 31
0.0
  0
LINE
  5
28014
330
27C4B
100
AcDbEntity
  8
HASHIRA
  6
Continuous
100
AcDbLine
 10
5717.840641334936
 20
6662.627478609064
 30
0.0
 11
5717.840641334936
 21
6737.627478609063
 31
0.0
  0
LINE
  5
28015
330
27C4B
100
AcDbEntity
  8
HASHIRA
  6
Continuous
100
AcDbLine
 10
5717.840641334936
 20
6737.627478609063
 30
0.0
 11
5782.840641334935
 21
6737.627478609063
 31
0.0
  0
LINE
  5
28016
330
27C4B
100
AcDbEntity
  8
HASHIRA
  6
Continuous
100
AcDbLine
 10
5782.840641334935
 20
6737.627478609063
 30
0.0
 11
5782.840641334935
 21
6662.627478609064
 31
0.0
  0
LINE
  5
28017
330
27C4B
100
AcDbEntity
  8
U2
100
AcDbLine
 10
5400.340641334936
 20
6350.127478609064
 30
0.0
 11
6100.340641334937
 21
6350.127478609064
 31
0.0
  0
LINE
  5
28018
330
27C4B
100
AcDbEntity
  8
U2
100
AcDbLine
 10
6100.340641334937
 20
6350.127478609064
 30
0.0
 11
6100.340641334937
 21
7050.127478609063
 31
0.0
  0
LINE
  5
28019
330
27C4B
100
AcDbEntity
  8
U2
100
AcDbLine
 10
6100.340641334937
 20
7050.127478609063
 30
0.0
 11
5400.340641334936
 21
7050.127478609063
 31
0.0
  0
LINE
  5
2801A
330
27C4B
100
AcDbEntity
  8
U2
100
AcDbLine
 10
5400.340641334936
 20
7050.127478609063
 30
0.0
 11
5400.340641334936
 21
6350.127478609064
 31
0.0
  0
LINE
  5
2801B
330
27C4B
100
AcDbEntity
  8
HASHIRA
  6
Continuous
100
AcDbLine
 10
5782.840641334935
 20
4602.627478609064
 30
0.0
 11
5717.840641334936
 21
4602.627478609064
 31
0.0
  0
LINE
  5
2801C
330
27C4B
100
AcDbEntity
  8
HASHIRA
  6
Continuous
100
AcDbLine
 10
5717.840641334936
 20
4602.627478609064
 30
0.0
 11
5717.840641334936
 21
4677.627478609063
 31
0.0
  0
LINE
  5
2801D
330
27C4B
100
AcDbEntity
  8
HASHIRA
  6
Continuous
100
AcDbLine
 10
5717.840641334936
 20
4677.627478609063
 30
0.0
 11
5782.840641334935
 21
4677.627478609063
 31
0.0
  0
LINE
  5
2801E
330
27C4B
100
AcDbEntity
  8
HASHIRA
  6
Continuous
100
AcDbLine
 10
5782.840641334935
 20
4677.627478609063
 30
0.0
 11
5782.840641334935
 21
4602.627478609064
 31
0.0
  0
LINE
  5
2801F
330
27C4B
100
AcDbEntity
  8
U2
100
AcDbLine
 10
5400.340641334936
 20
4290.127478609064
 30
0.0
 11
6100.340641334937
 21
4290.127478609064
 31
0.0
  0
LINE
  5
28020
330
27C4B
100
AcDbEntity
  8
U2
100
AcDbLine
 10
6100.340641334937
 20
4290.127478609064
 30
0.0
 11
6100.340641334937
 21
4990.127478609064
 31
0.0
  0
LINE
  5
28021
330
27C4B
100
AcDbEntity
  8
U2
100
AcDbLine
 10
6100.340641334937
 20
4990.127478609064
 30
0.0
 11
5400.340641334936
 21
4990.127478609064
 31
0.0
  0
LINE
  5
28022
330
27C4B
100
AcDbEntity
  8
U2
100
AcDbLine
 10
5400.340641334936
 20
4990.127478609064
 30
0.0
 11
5400.340641334936
 21
4290.127478609064
 31
0.0
  0
LINE
  5
28023
330
27C4B
100
AcDbEntity
  8
HASHIRA
  6
Continuous
100
AcDbLine
 10
7482.840641334934
 20
6662.627478609064
 30
0.0
 11
7417.840641334937
 21
6662.627478609064
 31
0.0
  0
LINE
  5
28024
330
27C4B
100
AcDbEntity
  8
HASHIRA
  6
Continuous
100
AcDbLine
 10
7417.840641334937
 20
6662.627478609064
 30
0.0
 11
7417.840641334937
 21
6737.627478609063
 31
0.0
  0
LINE
  5
28025
330
27C4B
100
AcDbEntity
  8
HASHIRA
  6
Continuous
100
AcDbLine
 10
7417.840641334937
 20
6737.627478609063
 30
0.0
 11
7482.840641334934
 21
6737.627478609063
 31
0.0
  0
LINE
  5
28026
330
27C4B
100
AcDbEntity
  8
HASHIRA
  6
Continuous
100
AcDbLine
 10
7482.840641334934
 20
6737.627478609063
 30
0.0
 11
7482.840641334934
 21
6662.627478609064
 31
0.0
  0
LINE
  5
28027
330
27C4B
100
AcDbEntity
  8
HASHIRA
  6
Continuous
100
AcDbLine
 10
7482.840641334934
 20
4602.627478609064
 30
0.0
 11
7417.840641334937
 21
4602.627478609064
 31
0.0
  0
LINE
  5
28028
330
27C4B
100
AcDbEntity
  8
HASHIRA
  6
Continuous
100
AcDbLine
 10
7417.840641334937
 20
4602.627478609064
 30
0.0
 11
7417.840641334937
 21
4677.627478609063
 31
0.0
  0
LINE
  5
28029
330
27C4B
100
AcDbEntity
  8
HASHIRA
  6
Continuous
100
AcDbLine
 10
7417.840641334937
 20
4677.627478609063
 30
0.0
 11
7482.840641334934
 21
4677.627478609063
 31
0.0
  0
LINE
  5
2802A
330
27C4B
100
AcDbEntity
  8
HASHIRA
  6
Continuous
100
AcDbLine
 10
7482.840641334934
 20
4677.627478609063
 30
0.0
 11
7482.840641334934
 21
4602.627478609064
 31
0.0
  0
LINE
  5
2802B
330
27C4B
100
AcDbEntity
  8
U2
100
AcDbLine
 10
7100.340641334935
 20
4290.127478609064
 30
0.0
 11
7800.340641334933
 21
4290.127478609064
 31
0.0
  0
LINE
  5
2802C
330
27C4B
100
AcDbEntity
  8
U2
100
AcDbLine
 10
7800.340641334933
 20
4290.127478609064
 30
0.0
 11
7800.340641334933
 21
4990.127478609064
 31
0.0
  0
LINE
  5
2802D
330
27C4B
100
AcDbEntity
  8
U2
100
AcDbLine
 10
7800.340641334933
 20
4990.127478609064
 30
0.0
 11
7100.340641334935
 21
4990.127478609064
 31
0.0
  0
LINE
  5
2802E
330
27C4B
100
AcDbEntity
  8
U2
100
AcDbLine
 10
7100.340641334935
 20
4990.127478609064
 30
0.0
 11
7100.340641334935
 21
4290.127478609064
 31
0.0
  0
LINE
  5
2802F
330
27C4B
100
AcDbEntity
  8
U2
100
AcDbLine
 10
7100.340641334935
 20
6350.127478609064
 30
0.0
 11
7800.340641334933
 21
6350.127478609064
 31
0.0
  0
LINE
  5
28030
330
27C4B
100
AcDbEntity
  8
U2
100
AcDbLine
 10
7800.340641334933
 20
6350.127478609064
 30
0.0
 11
7800.340641334933
 21
7050.127478609063
 31
0.0
  0
LINE
  5
28031
330
27C4B
100
AcDbEntity
  8
U2
100
AcDbLine
 10
7800.340641334933
 20
7050.127478609063
 30
0.0
 11
7100.340641334935
 21
7050.127478609063
 31
0.0
  0
LINE
  5
28032
330
27C4B
100
AcDbEntity
  8
U2
100
AcDbLine
 10
7100.340641334935
 20
7050.127478609063
 30
0.0
 11
7100.340641334935
 21
6350.127478609064
 31
0.0
  0
LINE
  5
28033
330
27C4B
100
AcDbEntity
  8
HASHIRA
  6
Continuous
100
AcDbLine
 10
10632.84064133492
 20
6662.627478609064
 30
0.0
 11
10567.84064133492
 21
6662.627478609064
 31
0.0
  0
LINE
  5
28034
330
27C4B
100
AcDbEntity
  8
HASHIRA
  6
Continuous
100
AcDbLine
 10
10567.84064133492
 20
6662.627478609064
 30
0.0
 11
10567.84064133492
 21
6737.627478609063
 31
0.0
  0
LINE
  5
28035
330
27C4B
100
AcDbEntity
  8
HASHIRA
  6
Continuous
100
AcDbLine
 10
10567.84064133492
 20
6737.627478609063
 30
0.0
 11
10632.84064133492
 21
6737.627478609063
 31
0.0
  0
LINE
  5
28036
330
27C4B
100
AcDbEntity
  8
HASHIRA
  6
Continuous
100
AcDbLine
 10
10632.84064133492
 20
6737.627478609063
 30
0.0
 11
10632.84064133492
 21
6662.627478609064
 31
0.0
  0
LINE
  5
28037
330
27C4B
100
AcDbEntity
  8
U2
100
AcDbLine
 10
10250.34064133492
 20
6350.127478609064
 30
0.0
 11
10950.34064133492
 21
6350.127478609064
 31
0.0
  0
LINE
  5
28038
330
27C4B
100
AcDbEntity
  8
U2
100
AcDbLine
 10
10950.34064133492
 20
6350.127478609064
 30
0.0
 11
10950.34064133492
 21
7050.127478609063
 31
0.0
  0
LINE
  5
28039
330
27C4B
100
AcDbEntity
  8
U2
100
AcDbLine
 10
10950.34064133492
 20
7050.127478609063
 30
0.0
 11
10250.34064133492
 21
7050.127478609063
 31
0.0
  0
LINE
  5
2803A
330
27C4B
100
AcDbEntity
  8
U2
100
AcDbLine
 10
10250.34064133492
 20
7050.127478609063
 30
0.0
 11
10250.34064133492
 21
6350.127478609064
 31
0.0
  0
LINE
  5
2803B
330
27C4B
100
AcDbEntity
  8
HASHIRA
  6
Continuous
100
AcDbLine
 10
10632.84064133492
 20
4602.627478609064
 30
0.0
 11
10567.84064133492
 21
4602.627478609064
 31
0.0
  0
LINE
  5
2803C
330
27C4B
100
AcDbEntity
  8
HASHIRA
  6
Continuous
100
AcDbLine
 10
10567.84064133492
 20
4602.627478609064
 30
0.0
 11
10567.84064133492
 21
4677.627478609063
 31
0.0
  0
LINE
  5
2803D
330
27C4B
100
AcDbEntity
  8
HASHIRA
  6
Continuous
100
AcDbLine
 10
10567.84064133492
 20
4677.627478609063
 30
0.0
 11
10632.84064133492
 21
4677.627478609063
 31
0.0
  0
LINE
  5
2803E
330
27C4B
100
AcDbEntity
  8
HASHIRA
  6
Continuous
100
AcDbLine
 10
10632.84064133492
 20
4677.627478609063
 30
0.0
 11
10632.84064133492
 21
4602.627478609064
 31
0.0
  0
LINE
  5
2803F
330
27C4B
100
AcDbEntity
  8
U2
100
AcDbLine
 10
10250.34064133492
 20
4290.127478609064
 30
0.0
 11
10950.34064133492
 21
4290.127478609064
 31
0.0
  0
LINE
  5
28040
330
27C4B
100
AcDbEntity
  8
U2
100
AcDbLine
 10
10950.34064133492
 20
4290.127478609064
 30
0.0
 11
10950.34064133492
 21
4990.127478609064
 31
0.0
  0
LINE
  5
28041
330
27C4B
100
AcDbEntity
  8
U2
100
AcDbLine
 10
10950.34064133492
 20
4990.127478609064
 30
0.0
 11
10250.34064133492
 21
4990.127478609064
 31
0.0
  0
LINE
  5
28042
330
27C4B
100
AcDbEntity
  8
U2
100
AcDbLine
 10
10250.34064133492
 20
4990.127478609064
 30
0.0
 11
10250.34064133492
 21
4290.127478609064
 31
0.0
  0
TEXT
  5
28064
330
27C4B
100
AcDbEntity
  8
SUNPOU
100
AcDbText
 10
4349.481753594831
 20
1268.312208565051
 30
0.0
 40
89.9993750043402
  1
地耐力   　　　 以上,コンクリート設計基準強度　　　　　以上
  7
01
100
AcDbText
  0
TEXT
  5
28065
330
27C4B
100
AcDbEntity
  8
SUNPOU
100
AcDbText
 10
4658.46797648672
 20
924.7736948948173
 30
0.0
 40
90.0
  1
寒冷地の場合、凍結深度等を考慮し、実情に
  7
01
100
AcDbText
  0
TEXT
  5
28066
330
27C4B
100
AcDbEntity
  8
SUNPOU
100
AcDbText
 10
4658.46797648672
 20
616.2022663233881
 30
0.0
 40
90.0
  1
その他現地の実情にあわせて設計して下さい。
  7
01
100
AcDbText
  0
TEXT
  5
28067
330
27C4B
100
AcDbEntity
  8
SUNPOU
100
AcDbText
 10
4349.481753594831
 20
1114.026494279337
 30
0.0
 40
89.9993750043402
  1
基準風速   　　 , 地表面粗度区分
  7
01
100
AcDbText
  0
TEXT
  5
28068
330
27C4B
100
AcDbEntity
  8
SUNPOU
100
AcDbText
 10
4218.918124878597
 20
1457.566211011005
 30
0.0
 40
90.0
  1
<下記条件での参考図>
  7
01
 72
     4
 11
4807.775267735741
 21
1502.566211011005
 31
0.0
100
AcDbText
  0
TEXT
  5
28069
330
27C4B
100
AcDbEntity
  8
SUNPOU
100
AcDbText
 10
4341.628311184584
 20
924.7736948948173
 30
0.0
 40
90.0
  1
注　）
  7
01
100
AcDbText
  0
TEXT
  5
2806A
330
27C4B
100
AcDbEntity
  8
SUNPOU
100
AcDbText
 10
4341.628311184584
 20
616.2022663233881
 30
0.0
 40
90.0
  1
注　）
  7
01
100
AcDbText
  0
ARC
  5
2806B
330
27C4B
100
AcDbEntity
  8
SUNPOU
100
AcDbCircle
 10
4502.44002750203
 20
1232.099632006882
 30
0.0
 40
225.0
100
AcDbArc
 50
148.347272528265
 51
211.6527274717349
  0
TEXT
  5
2806C
330
27C4B
100
AcDbEntity
  8
SUNPOU
100
AcDbText
 10
4658.46797648672
 20
770.4879806090992
 30
0.0
 40
90.0
  1
あわせて設計して下さい。
  7
01
100
AcDbText
  0
TEXT
  5
2806D
330
27C4B
100
AcDbEntity
  8
SUNPOU
100
AcDbText
 10
4452.262231397323
 20
924.7736948948173
 30
0.0
 40
90.0
  1
1
 41
0.6700000000000001
  7
01
100
AcDbText
  0
TEXT
  5
2806E
330
27C4B
100
AcDbEntity
  8
SUNPOU
100
AcDbText
 10
4452.262231397323
 20
616.2022663233881
 30
0.0
 40
90.0
  1
2
 41
0.6700000000000001
  7
01
100
AcDbText
  0
TEXT
  5
2806F
330
27C4B
100
AcDbEntity
  8
SUNPOU
100
AcDbText
 10
4833.245182259994
 20
1114.026494279337
 30
0.0
 40
89.9993750043402
  1
34 m/s
 41
0.6700000000000001
  7
01
100
AcDbText
  0
TEXT
  5
28070
330
27C4B
100
AcDbEntity
  8
SUNPOU
100
AcDbText
 10
4723.740161019904
 20
1268.312208565051
 30
0.0
 40
89.9993750043402
  1
50  N/m
 41
0.6700000000000001
  7
01
100
AcDbText
  0
TEXT
  5
28071
330
27C4B
100
AcDbEntity
  8
SUNPOU
100
AcDbText
 10
4859.576613805855
 20
1268.312208565051
 30
0.0
 40
71.99950000347218
  1
K
 41
0.6700000000000001
  7
01
100
AcDbText
  0
TEXT
  5
28072
330
27C4B
100
AcDbEntity
  8
SUNPOU
100
AcDbText
 10
5127.216770534254
 20
1318.500634922536
 30
0.0
 40
46.28539285937498
  1
2
 41
0.6700000000000001
  7
00
100
AcDbText
  0
LINE
  5
28073
330
27C4B
100
AcDbEntity
  8
SUNPOU
100
AcDbLine
 10
6152.547315161434
 20
1114.026494279337
 30
0.0
 11
6152.547315161434
 21
1197.518857978119
 31
0.0
  0
LINE
  5
28074
330
27C4B
100
AcDbEntity
  8
SUNPOU
100
AcDbLine
 10
6169.422315161434
 20
1114.026494279337
 30
0.0
 11
6169.422315161434
 21
1197.518857978119
 31
0.0
  0
LINE
  5
28075
330
27C4B
100
AcDbEntity
  8
SUNPOU
100
AcDbLine
 10
6186.297315161434
 20
1114.026494279337
 30
0.0
 11
6186.297315161434
 21
1197.518857978119
 31
0.0
  0
LINE
  5
28076
330
27C4B
100
AcDbEntity
  8
SUNPOU
100
AcDbLine
 10
6141.297315161434
 20
1114.026494279336
 30
0.0
 11
6197.547315161437
 21
1114.026494279336
 31
0.0
  0
LINE
  5
28077
330
27C4B
100
AcDbEntity
  8
SUNPOU
100
AcDbLine
 10
6141.297315161434
 20
1197.518857978119
 30
0.0
 11
6197.547315161437
 21
1197.518857978119
 31
0.0
  0
TEXT
  5
28078
330
27C4B
100
AcDbEntity
  8
SUNPOU
100
AcDbText
 10
4277.271098330635
 20
1699.227763126989
 30
0.0
 40
120.0
  1
基礎断面図
  7
01
 72
     4
 11
4617.271098330635
 21
1759.227763126989
 31
0.0
100
AcDbText
  0
TEXT
  5
28079
330
27C4B
100
AcDbEntity
  8
SUNPOU
100
AcDbText
 10
4994.12143569361
 20
1711.535455434683
 30
0.0
 40
92.30769230769228
  1
（ S = 　　  ）
 41
0.6700000000000001
  7
00
 11
4994.12143569361
 21
1699.227763126991
 31
0.0
100
AcDbText
 73
     1
  0
TEXT
  5
2807A
330
27C4B
100
AcDbEntity
  8
SUNPOU
100
AcDbText
 10
5313.82413754669
 20
1727.53545543468
 30
0.0
 40
73.84615384615381
  1
1
 41
0.6700000000000001
  7
00
 11
5313.82413754669
 21
1717.689301588527
 31
0.0
100
AcDbText
 73
     1
  0
TEXT
  5
2807B
330
27C4B
100
AcDbEntity
  8
SUNPOU
100
AcDbText
 10
5426.179707816429
 20
1690.612378511602
 30
0.0
 40
73.84615384615381
  1
20
 41
0.6700000000000001
  7
00
 11
5426.179707816429
 21
1680.766224665448
 31
0.0
100
AcDbText
 73
     1
  0
TEXT
  5
2807C
330
27C4B
100
AcDbEntity
  8
SUNPOU
100
AcDbText
 10
5362.230264862059
 20
1709.073916973145
 30
0.0
 40
73.84615384615381
  1
/
 41
0.6700000000000001
  7
00
 11
5362.230264862059
 21
1699.227763126991
 31
0.0
100
AcDbText
 73
     1
  0
TEXT
  5
2807D
330
27C4B
100
AcDbEntity
  8
SUNPOU
100
AcDbText
 10
6768.492231881544
 20
1268.312208565051
 30
0.0
 40
89.9993750043402
  1
18
 41
0.6700000000000001
  7
01
100
AcDbText
  0
TEXT
  5
2807E
330
27C4B
100
AcDbEntity
  8
SUNPOU
100
AcDbText
 10
6904.328684667494
 20
1268.312208565051
 30
0.0
 40
89.9993750043402
  1
N/mm
 41
0.6700000000000001
  7
01
100
AcDbText
  0
TEXT
  5
2807F
330
27C4B
100
AcDbEntity
  8
SUNPOU
100
AcDbText
 10
7208.793166698895
 20
1318.500634922536
 30
0.0
 40
46.28539285937498
  1
2
 41
0.6700000000000001
  7
00
100
AcDbText
  0
ARC
  5
28080
330
27C4B
100
AcDbEntity
  8
SUNPOU
100
AcDbCircle
 10
7357.670431232512
 20
1254.583912792671
 30
0.0
 40
225.0
100
AcDbArc
 50
328.347272528265
 51
31.65272747173496
  0
ENDSEC
  0
SECTION
  2
OBJECTS
  0
DICTIONARY
  5
27C39
330
0
100
AcDbDictionary
281
     1
  3
ACAD_GROUP
350
27C3A
  3
ACAD_LAYOUT
350
27C46
  3
ACAD_MLINESTYLE
350
27C43
  3
ACAD_PLOTSETTINGS
350
27C45
  3
ACAD_PLOTSTYLENAME
350
27C3B
  3
AcDbVariableDictionary
350
28081
  0
DICTIONARY
  5
27C3A
102
{ACAD_REACTORS
330
27C39
102
}
330
27C39
100
AcDbDictionary
281
     1
  0
DICTIONARY
  5
27C46
102
{ACAD_REACTORS
330
27C39
102
}
330
27C39
100
AcDbDictionary
281
     1
  3
Model
350
27C4E
  3
ﾚｲｱｳﾄ1
350
27C4A
  0
DICTIONARY
  5
27C43
102
{ACAD_REACTORS
330
27C39
102
}
330
27C39
100
AcDbDictionary
281
     1
  3
Standard
350
27C44
  0
DICTIONARY
  5
27C45
102
{ACAD_REACTORS
330
27C39
102
}
330
27C39
100
AcDbDictionary
281
     1
  0
ACDBDICTIONARYWDFLT
  5
27C3B
102
{ACAD_REACTORS
330
27C39
102
}
330
27C39
100
AcDbDictionary
281
     1
  3
Normal
350
27C3C
100
AcDbDictionaryWithDefault
340
27C3C
  0
DICTIONARY
  5
28081
102
{ACAD_REACTORS
330
27C39
102
}
330
27C39
100
AcDbDictionary
281
     1
  3
DIMASSOC
350
28082
  0
LAYOUT
  5
27C4E
102
{ACAD_REACTORS
330
27C46
102
}
330
27C46
100
AcDbPlotSettings
  1

  2
Muratec V-1200 Is@Web Printer
  4

  6

 40
0.0
 41
0.0
 42
0.0
 43
0.0
 44
0.0
 45
0.0
 46
0.0
 47
0.0
 48
0.0
 49
0.0
140
0.0
141
0.0
142
1.0
143
1.0
 70
  1712
 72
     0
 73
     0
 74
     0
  7

 75
     0
147
1.0
148
0.0
149
0.0
100
AcDbLayout
  1
Model
 70
     1
 71
     0
 10
0.0
 20
0.0
 11
12.0
 21
9.0
 12
0.0
 22
0.0
 32
0.0
 14
0.0
 24
0.0
 34
0.0
 15
0.0
 25
0.0
 35
0.0
146
0.0
 13
0.0
 23
0.0
 33
0.0
 16
1.0
 26
0.0
 36
0.0
 17
0.0
 27
1.0
 37
0.0
 76
     0
330
27C4B
  0
LAYOUT
  5
27C4A
102
{ACAD_REACTORS
330
27C46
102
}
330
27C46
100
AcDbPlotSettings
  1

  2
Muratec V-1200 Is@Web Printer
  4

  6

 40
0.0
 41
0.0
 42
0.0
 43
0.0
 44
0.0
 45
0.0
 46
0.0
 47
0.0
 48
0.0
 49
0.0
140
0.0
141
0.0
142
1.0
143
1.0
 70
   688
 72
     0
 73
     0
 74
     5
  7

 75
    16
147
1.0
148
0.0
149
0.0
100
AcDbLayout
  1
ﾚｲｱｳﾄ1
 70
     0
 71
     1
 10
0.0
 20
0.0
 11
12.0
 21
9.0
 12
0.0
 22
0.0
 32
0.0
 14
1.000000000000000E+20
 24
1.000000000000000E+20
 34
1.000000000000000E+20
 15
-1.000000000000000E+20
 25
-1.000000000000000E+20
 35
-1.000000000000000E+20
146
0.0
 13
0.0
 23
0.0
 33
0.0
 16
1.0
 26
0.0
 36
0.0
 17
0.0
 27
1.0
 37
0.0
 76
     0
330
27C47
  0
MLINESTYLE
  5
27C44
102
{ACAD_REACTORS
330
27C43
102
}
330
27C43
100
AcDbMlineStyle
  2
STANDARD
 70
     0
  3

 62
   256
 51
90.0
 52
90.0
 71
     2
 49
0.5
 62
   256
  6
BYLAYER
 49
-0.5
 62
   256
  6
BYLAYER
  0
ACDBPLACEHOLDER
  5
27C3C
102
{ACAD_REACTORS
330
27C3B
102
}
330
27C3B
  0
DICTIONARYVAR
  5
28082
102
{ACAD_REACTORS
330
28081
102
}
330
28081
100
DictionaryVariables
280
     0
  1
1
  0
ENDSEC
  0
EOF
