  0
SECTION
  2
HEADER
  9
$ACADVER
  1
AC1015
  9
$ACADMAINTVER
 70
    13
  9
$DWGCODEPAGE
  3
ANSI_932
  9
$INSBASE
 10
267.0
 20
194.8999999999998
 30
0.0
  9
$EXTMIN
 10
325.4974662390304
 20
122.7681178119601
 30
-0.0000000000000053
  9
$EXTMAX
 10
12286.99954069103
 20
8431.707478684501
 30
0.0000000000000099
  9
$LIMMIN
 10
0.0
 20
0.0
  9
$LIMMAX
 10
12600.0
 20
8910.0
  9
$ORTHOMODE
 70
     0
  9
$REGENMODE
 70
     1
  9
$FILLMODE
 70
     1
  9
$QTEXTMODE
 70
     0
  9
$MIRRTEXT
 70
     0
  9
$LTSCALE
 40
30.0
  9
$ATTMODE
 70
     1
  9
$TEXTSIZE
 40
0.2
  9
$TRACEWID
 40
0.05
  9
$TEXTSTYLE
  7
00
  9
$CLAYER
  8
SUNPOU
  9
$CELTYPE
  6
ByLayer
  9
$CECOLOR
 62
   256
  9
$CELTSCALE
 40
1.0
  9
$DISPSILH
 70
     0
  9
$DIMSCALE
 40
30.0
  9
$DIMASZ
 40
0.5
  9
$DIMEXO
 40
1.0
  9
$DIMDLI
 40
7.0
  9
$DIMRND
 40
0.0
  9
$DIMDLE
 40
3.0
  9
$DIMEXE
 40
1.5
  9
$DIMTP
 40
0.0
  9
$DIMTM
 40
0.0
  9
$DIMTXT
 40
3.0
  9
$DIMCEN
 40
0.0
  9
$DIMTSZ
 40
0.0
  9
$DIMTOL
 70
     0
  9
$DIMLIM
 70
     0
  9
$DIMTIH
 70
     0
  9
$DIMTOH
 70
     0
  9
$DIMSE1
 70
     0
  9
$DIMSE2
 70
     0
  9
$DIMTAD
 70
     1
  9
$DIMZIN
 70
     8
  9
$DIMBLK
  1
DOT
  9
$DIMASO
 70
     1
  9
$DIMSHO
 70
     0
  9
$DIMPOST
  1

  9
$DIMAPOST
  1

  9
$DIMALT
 70
     0
  9
$DIMALTD
 70
     2
  9
$DIMALTF
 40
25.4
  9
$DIMLFAC
 40
1.0
  9
$DIMTOFL
 70
     1
  9
$DIMTVP
 40
0.0
  9
$DIMTIX
 70
     0
  9
$DIMSOXD
 70
     0
  9
$DIMSAH
 70
     1
  9
$DIMBLK1
  1
DOT
  9
$DIMBLK2
  1
DOT
  9
$DIMSTYLE
  2
SUNPOU
  9
$DIMCLRD
 70
   256
  9
$DIMCLRE
 70
   256
  9
$DIMCLRT
 70
   256
  9
$DIMTFAC
 40
1.0
  9
$DIMGAP
 40
1.5
  9
$DIMJUST
 70
     0
  9
$DIMSD1
 70
     0
  9
$DIMSD2
 70
     0
  9
$DIMTOLJ
 70
     1
  9
$DIMTZIN
 70
     0
  9
$DIMALTZ
 70
     0
  9
$DIMALTTZ
 70
     0
  9
$DIMUPT
 70
     0
  9
$DIMDEC
 70
     4
  9
$DIMTDEC
 70
     4
  9
$DIMALTU
 70
     2
  9
$DIMALTTD
 70
     2
  9
$DIMTXSTY
  7
STANDARD
  9
$DIMAUNIT
 70
     0
  9
$DIMADEC
 70
     0
  9
$DIMALTRND
 40
0.0
  9
$DIMAZIN
 70
     0
  9
$DIMDSEP
 70
    46
  9
$DIMATFIT
 70
     3
  9
$DIMFRAC
 70
     0
  9
$DIMLDRBLK
  1
DOT
  9
$DIMLUNIT
 70
     2
  9
$DIMLWD
 70
    -2
  9
$DIMLWE
 70
    -2
  9
$DIMTMOVE
 70
     0
  9
$LUNITS
 70
     2
  9
$LUPREC
 70
     2
  9
$SKETCHINC
 40
0.1
  9
$FILLETRAD
 40
5.0
  9
$AUNITS
 70
     0
  9
$AUPREC
 70
     0
  9
$MENU
  1
A:\TIGER\MENU\TIGER
  9
$ELEVATION
 40
0.0
  9
$PELEVATION
 40
0.0
  9
$THICKNESS
 40
0.0
  9
$LIMCHECK
 70
     0
  9
$CHAMFERA
 40
0.0
  9
$CHAMFERB
 40
0.0
  9
$CHAMFERC
 40
0.0
  9
$CHAMFERD
 40
0.0
  9
$SKPOLY
 70
     0
  9
$TDCREATE
 40
2450266.571064815
  9
$TDUCREATE
 40
2450266.196064815
  9
$TDUPDATE
 40
2456330.548863379
  9
$TDUUPDATE
 40
2456330.173863380
  9
$TDINDWG
 40
0.2329953356
  9
$TDUSRTIMER
 40
0.2329951505
  9
$USRTIMER
 70
     1
  9
$ANGBASE
 50
0.0
  9
$ANGDIR
 70
     0
  9
$PDMODE
 70
     0
  9
$PDSIZE
 40
0.0
  9
$PLINEWID
 40
0.0
  9
$SPLFRAME
 70
     0
  9
$SPLINETYPE
 70
     6
  9
$SPLINESEGS
 70
     8
  9
$HANDSEED
  5
27A74
  9
$SURFTAB1
 70
     6
  9
$SURFTAB2
 70
     6
  9
$SURFTYPE
 70
     6
  9
$SURFU
 70
     6
  9
$SURFV
 70
     6
  9
$UCSBASE
  2

  9
$UCSNAME
  2

  9
$UCSORG
 10
0.0
 20
0.0
 30
0.0
  9
$UCSXDIR
 10
1.0
 20
0.0
 30
0.0
  9
$UCSYDIR
 10
0.0
 20
1.0
 30
0.0
  9
$UCSORTHOREF
  2

  9
$UCSORTHOVIEW
 70
     0
  9
$UCSORGTOP
 10
0.0
 20
0.0
 30
0.0
  9
$UCSORGBOTTOM
 10
0.0
 20
0.0
 30
0.0
  9
$UCSORGLEFT
 10
0.0
 20
0.0
 30
0.0
  9
$UCSORGRIGHT
 10
0.0
 20
0.0
 30
0.0
  9
$UCSORGFRONT
 10
0.0
 20
0.0
 30
0.0
  9
$UCSORGBACK
 10
0.0
 20
0.0
 30
0.0
  9
$PUCSBASE
  2

  9
$PUCSNAME
  2

  9
$PUCSORG
 10
0.0
 20
0.0
 30
0.0
  9
$PUCSXDIR
 10
1.0
 20
0.0
 30
0.0
  9
$PUCSYDIR
 10
0.0
 20
1.0
 30
0.0
  9
$PUCSORTHOREF
  2

  9
$PUCSORTHOVIEW
 70
     0
  9
$PUCSORGTOP
 10
0.0
 20
0.0
 30
0.0
  9
$PUCSORGBOTTOM
 10
0.0
 20
0.0
 30
0.0
  9
$PUCSORGLEFT
 10
0.0
 20
0.0
 30
0.0
  9
$PUCSORGRIGHT
 10
0.0
 20
0.0
 30
0.0
  9
$PUCSORGFRONT
 10
0.0
 20
0.0
 30
0.0
  9
$PUCSORGBACK
 10
0.0
 20
0.0
 30
0.0
  9
$USERI1
 70
     3
  9
$USERI2
 70
     0
  9
$USERI3
 70
     0
  9
$USERI4
 70
     0
  9
$USERI5
 70
  1103
  9
$USERR1
 40
0.0
  9
$USERR2
 40
1.0
  9
$USERR3
 40
0.0
  9
$USERR4
 40
0.0
  9
$USERR5
 40
0.0
  9
$WORLDVIEW
 70
     1
  9
$SHADEDGE
 70
     3
  9
$SHADEDIF
 70
    70
  9
$TILEMODE
 70
     1
  9
$MAXACTVP
 70
    16
  9
$PINSBASE
 10
0.0
 20
0.0
 30
0.0
  9
$PLIMCHECK
 70
     0
  9
$PEXTMIN
 10
1.000000000000000E+20
 20
1.000000000000000E+20
 30
1.000000000000000E+20
  9
$PEXTMAX
 10
-1.000000000000000E+20
 20
-1.000000000000000E+20
 30
-1.000000000000000E+20
  9
$PLIMMIN
 10
0.0
 20
0.0
  9
$PLIMMAX
 10
12.0
 20
9.0
  9
$UNITMODE
 70
     0
  9
$VISRETAIN
 70
     0
  9
$PLINEGEN
 70
     1
  9
$PSLTSCALE
 70
     0
  9
$TREEDEPTH
 70
  3020
  9
$CMLSTYLE
  2
Standard
  9
$CMLJUST
 70
     0
  9
$CMLSCALE
 40
1.0
  9
$PROXYGRAPHICS
 70
     1
  9
$MEASUREMENT
 70
     0
  9
$CELWEIGHT
370
    -1
  9
$ENDCAPS
280
     0
  9
$JOINSTYLE
280
     0
  9
$LWDISPLAY
290
     0
  9
$INSUNITS
 70
     0
  9
$HYPERLINKBASE
  1

  9
$STYLESHEET
  1

  9
$XEDIT
290
     1
  9
$CEPSNTYPE
380
     0
  9
$PSTYLEMODE
290
     1
  9
$FINGERPRINTGUID
  2
{E6CE56CC-996C-4690-9620-B35A183B852E}
  9
$VERSIONGUID
  2
{7AEBFD93-0A84-4B24-9CB0-0744CB10F634}
  9
$EXTNAMES
290
     1
  9
$PSVPSCALE
 40
0.0
  9
$OLESTARTUP
290
     0
  0
ENDSEC
  0
SECTION
  2
CLASSES
  0
CLASS
  1
ACDBDICTIONARYWDFLT
  2
AcDbDictionaryWithDefault
  3
AutoCAD 2000
 90
        0
280
     0
281
     0
  0
CLASS
  1
ACDBPLACEHOLDER
  2
AcDbPlaceHolder
  3
AutoCAD 2000
 90
        0
280
     0
281
     0
  0
CLASS
  1
LAYOUT
  2
AcDbLayout
  3
AutoCAD 2000
 90
        0
280
     0
281
     0
  0
CLASS
  1
DICTIONARYVAR
  2
AcDbDictionaryVar
  3
AutoCAD 2000
 90
        0
280
     0
281
     0
  0
ENDSEC
  0
SECTION
  2
TABLES
  0
TABLE
  2
VPORT
  5
2767F
330
0
100
AcDbSymbolTable
 70
     2
  0
VPORT
  5
27A73
330
2767F
100
AcDbSymbolTableRecord
100
AcDbViewportTableRecord
  2
*Active
 70
     0
 10
0.0
 20
0.0
 11
1.0
 21
1.0
 12
6306.248503465031
 22
4277.23779824823
 13
0.0
 23
0.0
 14
1.0
 24
1.0
 15
0.0
 25
0.0
 16
0.0
 26
0.0
 36
1.0
 17
0.0
 27
0.0
 37
0.0
 40
8372.629037979738
 41
1.527918781725888
 42
50.0
 43
0.0
 44
0.0
 50
0.0
 51
0.0
 71
     0
 72
 10000
 73
     1
 74
     0
 75
     0
 76
     0
 77
     0
 78
     0
281
     0
 65
     1
110
0.0
120
0.0
130
0.0
111
1.0
121
0.0
131
0.0
112
0.0
122
1.0
132
0.0
 79
     0
146
0.0
  0
ENDTAB
  0
TABLE
  2
LTYPE
  5
2767C
330
0
100
AcDbSymbolTable
 70
     4
  0
LTYPE
  5
2768A
330
2767C
100
AcDbSymbolTableRecord
100
AcDbLinetypeTableRecord
  2
ByBlock
 70
     0
  3

 72
    65
 73
     0
 40
0.0
  0
LTYPE
  5
2768B
330
2767C
100
AcDbSymbolTableRecord
100
AcDbLinetypeTableRecord
  2
ByLayer
 70
     0
  3

 72
    65
 73
     0
 40
0.0
  0
LTYPE
  5
2768C
330
2767C
100
AcDbSymbolTableRecord
100
AcDbLinetypeTableRecord
  2
CONTINUOUS
 70
     0
  3
実線
 72
    65
 73
     0
 40
0.0
  0
LTYPE
  5
2769C
330
2767C
100
AcDbSymbolTableRecord
100
AcDbLinetypeTableRecord
  2
1PL-M
 70
     0
  3

 72
    65
 73
     4
 40
15.0
 49
12.0
 74
     0
 49
-1.0
 74
     0
 49
1.0
 74
     0
 49
-1.0
 74
     0
  0
LTYPE
  5
2769D
330
2767C
100
AcDbSymbolTableRecord
100
AcDbLinetypeTableRecord
  2
1PL-S
 70
     0
  3

 72
    65
 73
     4
 40
4.0
 49
2.5
 74
     0
 49
-0.5
 74
     0
 49
0.5
 74
     0
 49
-0.5
 74
     0
  0
LTYPE
  5
2769E
330
2767C
100
AcDbSymbolTableRecord
100
AcDbLinetypeTableRecord
  2
2PL-M
 70
     0
  3

 72
    65
 73
     6
 40
17.0
 49
12.0
 74
     0
 49
-1.0
 74
     0
 49
1.0
 74
     0
 49
-1.0
 74
     0
 49
1.0
 74
     0
 49
-1.0
 74
     0
  0
ENDTAB
  0
TABLE
  2
LAYER
  5
27679
330
0
100
AcDbSymbolTable
 70
    17
  0
LAYER
  5
27687
330
27679
100
AcDbSymbolTableRecord
100
AcDbLayerTableRecord
  2
0
 70
     0
 62
     7
  6
CONTINUOUS
370
    -3
390
27686
  0
LAYER
  5
27699
330
27679
100
AcDbSymbolTableRecord
100
AcDbLayerTableRecord
  2
SUNPOU
 70
     0
 62
     4
  6
CONTINUOUS
370
    -3
390
27686
  0
LAYER
  5
2769F
330
27679
100
AcDbSymbolTableRecord
100
AcDbLayerTableRecord
  2
U2
 70
     0
 62
     4
  6
CONTINUOUS
370
    -3
390
27686
  0
LAYER
  5
276A0
330
27679
100
AcDbSymbolTableRecord
100
AcDbLayerTableRecord
  2
U3
 70
     0
 62
     6
  6
CONTINUOUS
370
    -3
390
27686
  0
LAYER
  5
276A1
330
27679
100
AcDbSymbolTableRecord
100
AcDbLayerTableRecord
  2
HIKIDASHI
 70
     0
 62
     6
  6
CONTINUOUS
370
    -3
390
27686
  0
LAYER
  5
276A2
330
27679
100
AcDbSymbolTableRecord
100
AcDbLayerTableRecord
  2
1PL-S1
 70
     0
 62
     6
  6
1PL-S
370
    -3
390
27686
  0
LAYER
  5
276A3
330
27679
100
AcDbSymbolTableRecord
100
AcDbLayerTableRecord
  2
1PL-M1
 70
     0
 62
     6
  6
1PL-M
370
    -3
390
27686
  0
LAYER
  5
276A4
330
27679
100
AcDbSymbolTableRecord
100
AcDbLayerTableRecord
  2
2PL-M2
 70
     0
 62
     1
  6
2PL-M
370
    -3
390
27686
  0
LAYER
  5
276A5
330
27679
100
AcDbSymbolTableRecord
100
AcDbLayerTableRecord
  2
KISO
 70
     0
 62
     2
  6
CONTINUOUS
370
    -3
390
27686
  0
LAYER
  5
276A6
330
27679
100
AcDbSymbolTableRecord
100
AcDbLayerTableRecord
  2
HATCH
 70
     0
 62
     1
  6
CONTINUOUS
370
    -3
390
27686
  0
LAYER
  5
276A7
330
27679
100
AcDbSymbolTableRecord
100
AcDbLayerTableRecord
  2
NAME
 70
     0
 62
    20
  6
CONTINUOUS
370
    -3
390
27686
  0
LAYER
  5
276A8
330
27679
100
AcDbSymbolTableRecord
100
AcDbLayerTableRecord
  2
FILENAME
 70
     0
 62
     7
  6
CONTINUOUS
370
    -3
390
27686
  0
LAYER
  5
276A9
330
27679
100
AcDbSymbolTableRecord
100
AcDbLayerTableRecord
  2
HASHIRA
 70
     0
 62
     3
  6
CONTINUOUS
370
    -3
390
27686
  0
LAYER
  5
276AA
330
27679
100
AcDbSymbolTableRecord
100
AcDbLayerTableRecord
  2
YODOROGO
 70
     0
 62
   130
  6
CONTINUOUS
370
    -3
390
27686
  0
LAYER
  5
276AB
330
27679
100
AcDbSymbolTableRecord
100
AcDbLayerTableRecord
  2
WAKUSEN-01
 70
     0
 62
    50
  6
CONTINUOUS
370
    -3
390
27686
  0
LAYER
  5
276AC
330
27679
100
AcDbSymbolTableRecord
100
AcDbLayerTableRecord
  2
WAKUSEN-02
 70
     0
 62
   130
  6
CONTINUOUS
370
    -3
390
27686
  0
LAYER
  5
276AD
330
27679
100
AcDbSymbolTableRecord
100
AcDbLayerTableRecord
  2
WAKUMOJI-01
 70
     0
 62
   130
  6
CONTINUOUS
370
    -3
390
27686
  0
ENDTAB
  0
TABLE
  2
STYLE
  5
2767A
330
0
100
AcDbSymbolTable
 70
     5
  0
STYLE
  5
27688
330
2767A
100
AcDbSymbolTableRecord
100
AcDbTextStyleTableRecord
  2
STANDARD
 70
     0
 40
3.0
 41
1.0
 50
0.0
 71
     0
 42
0.2
  3
ROMANS
  4
EXTFONT
  0
STYLE
  5
2769A
330
2767A
100
AcDbSymbolTableRecord
100
AcDbTextStyleTableRecord
  2
00
 70
     0
 40
0.0
 41
0.6666666666666666
 50
0.0
 71
     0
 42
0.2
  3
ROMANS
  4
BIGFONT
  0
STYLE
  5
276AE
330
2767A
100
AcDbSymbolTableRecord
100
AcDbTextStyleTableRecord
  2
01
 70
     0
 40
3.0
 41
1.0
 50
0.0
 71
     0
 42
0.2
  3
ROMANS
  4
BIGFONT
  0
STYLE
  5
276AF
330
2767A
100
AcDbSymbolTableRecord
100
AcDbTextStyleTableRecord
  2
WAKUMOJI
 70
     0
 40
3.0
 41
1.0
 50
0.0
 71
     0
 42
3.0
  3
SIMPLEX
  4
BIGFONT
  0
STYLE
  5
276B0
330
2767A
100
AcDbSymbolTableRecord
100
AcDbTextStyleTableRecord
  2
FILENAME
 70
     0
 40
75.0
 41
1.0
 50
0.0
 71
     0
 42
75.0
  3
romans
  4
bigfont
  0
ENDTAB
  0
TABLE
  2
VIEW
  5
2767D
330
0
100
AcDbSymbolTable
 70
     0
  0
ENDTAB
  0
TABLE
  2
UCS
  5
2767E
330
0
100
AcDbSymbolTable
 70
     0
  0
ENDTAB
  0
TABLE
  2
APPID
  5
27680
330
0
100
AcDbSymbolTable
 70
     5
  0
APPID
  5
27689
330
27680
100
AcDbSymbolTableRecord
100
AcDbRegAppTableRecord
  2
ACAD
 70
     0
  0
APPID
  5
276B1
330
27680
100
AcDbSymbolTableRecord
100
AcDbRegAppTableRecord
  2
AUTOCAD_POSTSCRIPT_FIGURE
 70
     0
  0
APPID
  5
276B2
330
27680
100
AcDbSymbolTableRecord
100
AcDbRegAppTableRecord
  2
ACAD_PSEXT
 70
     0
  0
APPID
  5
276B3
330
27680
100
AcDbSymbolTableRecord
100
AcDbRegAppTableRecord
  2
ACAD_EXEMPT_FROM_CAD_STANDARDS
 70
     0
  0
APPID
  5
276B4
330
27680
100
AcDbSymbolTableRecord
100
AcDbRegAppTableRecord
  2
ACAD_MLEADERVER
 70
     0
  0
ENDTAB
  0
TABLE
  2
DIMSTYLE
  5
27681
330
0
100
AcDbSymbolTable
 70
     1
100
AcDbDimStyleTable
 71
     0
  0
DIMSTYLE
105
276B5
330
27681
100
AcDbSymbolTableRecord
100
AcDbDimStyleTableRecord
  2
SUNPOU
 70
     0
 40
30.0
 41
0.5
 42
1.0
 43
7.0
 44
1.5
 46
3.0
 73
     0
 74
     0
 77
     1
 78
     8
140
3.0
141
0.0
147
1.5
172
     1
173
     1
176
   256
177
   256
178
   256
271
     2
272
     2
279
     2
284
     8
285
     8
286
     8
340
2769A
  0
ENDTAB
  0
TABLE
  2
BLOCK_RECORD
  5
27678
330
0
100
AcDbSymbolTable
 70
     8
  0
BLOCK_RECORD
  5
27695
330
27678
100
AcDbSymbolTableRecord
100
AcDbBlockTableRecord
  2
*Model_Space
340
27698
  0
BLOCK_RECORD
  5
27691
330
27678
100
AcDbSymbolTableRecord
100
AcDbBlockTableRecord
  2
*Paper_Space
340
27694
  0
BLOCK_RECORD
  5
276BA
330
27678
100
AcDbSymbolTableRecord
100
AcDbBlockTableRecord
  2
$MODEL_SPACE
340
0
  0
BLOCK_RECORD
  5
276BD
330
27678
100
AcDbSymbolTableRecord
100
AcDbBlockTableRecord
  2
$PAPER_SPACE
340
0
  0
BLOCK_RECORD
  5
276C0
330
27678
100
AcDbSymbolTableRecord
100
AcDbBlockTableRecord
  2
DOT
340
0
  0
BLOCK_RECORD
  5
276C8
330
27678
100
AcDbSymbolTableRecord
100
AcDbBlockTableRecord
  2
*U3
340
0
  0
BLOCK_RECORD
  5
276CC
330
27678
100
AcDbSymbolTableRecord
100
AcDbBlockTableRecord
  2
*U4
340
0
  0
BLOCK_RECORD
  5
276D0
330
27678
100
AcDbSymbolTableRecord
100
AcDbBlockTableRecord
  2
*U5
340
0
  0
BLOCK_RECORD
  5
276D4
330
27678
100
AcDbSymbolTableRecord
100
AcDbBlockTableRecord
  2
*U6
340
0
  0
ENDTAB
  0
ENDSEC
  0
SECTION
  2
BLOCKS
  0
BLOCK
  5
27696
330
27695
100
AcDbEntity
  8
0
100
AcDbBlockBegin
  2
*Model_Space
 70
     0
 10
0.0
 20
0.0
 30
0.0
  3
*Model_Space
  1

  0
ENDBLK
  5
27697
330
27695
100
AcDbEntity
  8
0
100
AcDbBlockEnd
  0
BLOCK
  5
27692
330
27691
100
AcDbEntity
 67
     1
  8
0
100
AcDbBlockBegin
  2
*Paper_Space
 70
     0
 10
0.0
 20
0.0
 30
0.0
  3
*Paper_Space
  1

  0
ENDBLK
  5
27693
330
27691
100
AcDbEntity
 67
     1
  8
0
100
AcDbBlockEnd
  0
BLOCK
  5
276BB
330
276BA
100
AcDbEntity
  8
0
100
AcDbBlockBegin
  2
$MODEL_SPACE
 70
     0
 10
0.0
 20
0.0
 30
0.0
  3
$MODEL_SPACE
  1

  0
ENDBLK
  5
276BC
330
276BA
100
AcDbEntity
  8
0
100
AcDbBlockEnd
  0
BLOCK
  5
276BE
330
276BD
100
AcDbEntity
  8
0
100
AcDbBlockBegin
  2
$PAPER_SPACE
 70
     0
 10
0.0
 20
0.0
 30
0.0
  3
$PAPER_SPACE
  1

  0
ENDBLK
  5
276BF
330
276BD
100
AcDbEntity
  8
0
100
AcDbBlockEnd
  0
BLOCK
  5
276C1
330
276C0
100
AcDbEntity
  8
0
100
AcDbBlockBegin
  2
DOT
 70
     0
 10
0.0
 20
0.0
 30
0.0
  3
DOT
  1

  0
LWPOLYLINE
  5
276C2
330
276C0
100
AcDbEntity
  8
0
  6
ByBlock
 62
     0
100
AcDbPolyline
 90
        2
 70
     1
 43
0.75
 10
-0.375
 20
0.0
 42
1.0
 10
0.375
 20
0.0
 42
1.0
  0
LINE
  5
276C6
330
276C0
100
AcDbEntity
  8
0
  6
ByBlock
 62
     0
100
AcDbLine
 10
-0.75
 20
0.0
 30
0.0
 11
-1.5
 21
0.0
 31
0.0
  0
ENDBLK
  5
276C7
330
276C0
100
AcDbEntity
  8
0
100
AcDbBlockEnd
  0
BLOCK
  5
276C9
330
276C8
100
AcDbEntity
  8
0
100
AcDbBlockBegin
  2
*U3
 70
     1
 10
0.0
 20
0.0
 30
0.0
  3
*U3
  1

  0
TEXT
  5
276CA
330
276C8
100
AcDbEntity
  8
SUNPOU
100
AcDbText
 10
5078.075305331611
 20
1859.518566249726
 30
0.0
 40
90.0
  1
500
 50
90.0
 41
0.6666666666666666
  7
00
100
AcDbText
  0
ENDBLK
  5
276CB
330
276C8
100
AcDbEntity
  8
0
100
AcDbBlockEnd
  0
BLOCK
  5
276CD
330
276CC
100
AcDbEntity
  8
0
100
AcDbBlockBegin
  2
*U4
 70
     1
 10
0.0
 20
0.0
 30
0.0
  3
*U4
  1

  0
TEXT
  5
276CE
330
276CC
100
AcDbEntity
  8
SUNPOU
100
AcDbText
 10
2866.575305331609
 20
1135.23285196401
 30
0.0
 40
90.0
  1
700 □
 41
0.6666666666666666
  7
00
100
AcDbText
  0
ENDBLK
  5
276CF
330
276CC
100
AcDbEntity
  8
0
100
AcDbBlockEnd
  0
BLOCK
  5
276D1
330
276D0
100
AcDbEntity
  8
0
100
AcDbBlockBegin
  2
*U5
 70
     1
 10
0.0
 20
0.0
 30
0.0
  3
*U5
  1

  0
TEXT
  5
276D2
330
276D0
100
AcDbEntity
  8
SUNPOU
100
AcDbText
 10
2866.575305331609
 20
925.2328519640114
 30
0.0
 40
90.0
  1
900 □
 41
0.6666666666666666
  7
00
100
AcDbText
  0
ENDBLK
  5
276D3
330
276D0
100
AcDbEntity
  8
0
100
AcDbBlockEnd
  0
BLOCK
  5
276D5
330
276D4
100
AcDbEntity
  8
0
100
AcDbBlockBegin
  2
*U6
 70
     1
 10
0.0
 20
0.0
 30
0.0
  3
*U6
  1

  0
TEXT
  5
276D6
330
276D4
100
AcDbEntity
  8
SUNPOU
100
AcDbText
 10
5078.075305331611
 20
1197.375709106869
 30
0.0
 40
90.0
  1
100
 50
90.0
 41
0.6666666666666666
  7
00
100
AcDbText
  0
ENDBLK
  5
276D7
330
276D4
100
AcDbEntity
  8
0
100
AcDbBlockEnd
  0
ENDSEC
  0
SECTION
  2
ENTITIES
  0
TEXT
  5
276D8
330
27695
100
AcDbEntity
  8
NAME
100
AcDbText
 10
9402.694977008243
 20
716.2499999999992
 30
0.0
 40
120.0
  1
YOTC
 41
0.7
  7
01
100
AcDbText
  0
TEXT
  5
276D9
330
27695
100
AcDbEntity
  8
NAME
100
AcDbText
 10
8327.765992739108
 20
716.2499999999992
 30
0.0
 40
120.0
  1
ヨド自転車置場      型
  7
01
100
AcDbText
  0
TEXT
  5
276DA
330
27695
100
AcDbEntity
  8
NAME
100
AcDbText
 10
8862.031985478221
 20
405.75
 30
0.0
 40
120.0
  1
型（一般地用）
 41
0.8
  7
01
100
AcDbText
  0
TEXT
  5
276DB
330
27695
100
AcDbEntity
  8
NAME
100
AcDbText
 10
8192.031985478225
 20
405.75
 30
0.0
 40
120.0
  1
YOTC-280
 41
0.7
  7
01
 72
     2
 11
8832.031985478225
 21
405.75
 31
0.0
100
AcDbText
  0
TEXT
  5
276DC
330
27695
100
AcDbEntity
  8
NAME
100
AcDbText
 10
9641.100000000001
 20
405.7500000000001
 30
0.0
 40
120.0
  1
<3／3>
 41
0.6
  7
01
 72
     2
 11
10015.49999999999
 21
405.7500000000001
 31
0.0
100
AcDbText
  0
LINE
  5
276DD
330
27695
100
AcDbEntity
  8
HIKIDASHI
100
AcDbLine
 10
2662.761628713823
 20
503.7645299961011
 30
0.0
 11
3358.388981949395
 21
503.7645299961011
 31
0.0
  0
LINE
  5
276DE
330
27695
100
AcDbEntity
  8
HIKIDASHI
100
AcDbLine
 10
2662.761628713823
 20
473.7645299961012
 30
0.0
 11
3358.388981949395
 21
473.7645299961012
 31
0.0
  0
TEXT
  5
276DF
330
27695
100
AcDbEntity
  8
HIKIDASHI
100
AcDbText
 10
2692.761628713823
 20
548.7645299961013
 30
0.0
 40
90.0
  1
A  ~  A'
 41
0.6700000000000001
  7
00
100
AcDbText
  0
TEXT
  5
276E0
330
27695
100
AcDbEntity
  8
HIKIDASHI
100
AcDbText
 10
3086.778908210385
 20
548.7645299961013
 30
0.0
 40
90.0
  1
断 面
  7
01
100
AcDbText
  0
TEXT
  5
276FE
330
27695
100
AcDbEntity
  8
HIKIDASHI
100
AcDbText
 10
5471.872987121663
 20
4008.480853603641
 30
0.0
 40
135.0
  1
基 礎 伏 図
  7
01
 72
     2
 11
6317.872987121663
 21
4008.480853603641
 31
0.0
100
AcDbText
  0
TEXT
  5
276FF
330
27695
100
AcDbEntity
  8
HIKIDASHI
100
AcDbText
 10
6419.122987121664
 20
4035.274350663478
 30
0.0
 40
90.0
  1
(S=
 41
0.6700000000000001
  7
00
100
AcDbText
  0
TEXT
  5
27700
330
27695
100
AcDbEntity
  8
HIKIDASHI
100
AcDbText
 10
6711.780721756864
 20
4005.835540563169
 30
0.0
 40
90.0
  1
30
 41
0.6700000000000001
  7
00
100
AcDbText
  0
TEXT
  5
27701
330
27695
100
AcDbEntity
  8
HIKIDASHI
100
AcDbText
 10
6848.385484827101
 20
4035.274350663478
 30
0.0
 40
90.0
  1
)
 41
0.6700000000000001
  7
00
100
AcDbText
  0
TEXT
  5
27702
330
27695
100
AcDbEntity
  8
HIKIDASHI
100
AcDbText
 10
6659.698672648898
 20
4035.274350663478
 30
0.0
 40
90.0
  1
/
 41
0.6700000000000001
  7
00
100
AcDbText
  0
TEXT
  5
27703
330
27695
100
AcDbEntity
  8
HIKIDASHI
100
AcDbText
 10
6622.419392551552
 20
4052.781013130203
 30
0.0
 40
90.0
  1
1
 41
0.6700000000000001
  7
00
100
AcDbText
  0
TEXT
  5
27704
330
27695
100
AcDbEntity
  8
HIKIDASHI
100
AcDbText
 10
5623.150172296452
 20
3828.480853603641
 30
0.0
 40
120.0
  1
（  ：スパン数）
  7
01
 72
     4
 11
6179.150172296452
 21
3888.48085360364
 31
0.0
100
AcDbText
  0
TEXT
  5
27705
330
27695
100
AcDbEntity
  8
HIKIDASHI
100
AcDbText
 10
5801.739855606758
 20
3828.480853603641
 30
0.0
 40
120.0
  1
N
 41
0.6666666666666666
  7
00
 72
     4
 11
5843.64461751152
 21
3888.48085360364
 31
0.0
100
AcDbText
  0
LINE
  5
27706
330
27695
100
AcDbEntity
  8
1PL-M1
100
AcDbLine
 10
2077.657814504666
 20
6416.08385078625
 30
0.0
 11
10259.37104642379
 21
6416.08385078625
 31
0.0
  0
LINE
  5
27707
330
27695
100
AcDbEntity
  8
2PL-M2
100
AcDbLine
 10
10173.52772773475
 20
5411.08385078625
 30
0.0
 11
6167.527727734763
 21
5411.08385078625
 31
0.0
  0
LINE
  5
27708
330
27695
100
AcDbEntity
  8
2PL-M2
100
AcDbLine
 10
10173.52772773475
 20
7436.08385078625
 30
0.0
 11
6167.527727734763
 21
7436.08385078625
 31
0.0
  0
LINE
  5
27709
330
27695
100
AcDbEntity
  8
U3
100
AcDbLine
 10
6167.527727734763
 20
5016.08385078625
 30
0.0
 11
10127.52772773475
 21
5016.08385078625
 31
0.0
  0
LINE
  5
2770A
330
27695
100
AcDbEntity
  8
U3
100
AcDbLine
 10
6167.527727734763
 20
7616.08385078625
 30
0.0
 11
10127.52772773475
 21
7616.08385078625
 31
0.0
  0
TEXT
  5
2770B
330
27695
100
AcDbEntity
  8
SUNPOU
100
AcDbText
 10
5737.813442020478
 20
4661.083850786249
 30
0.0
 40
90.0
  1
2800 ×（ N - 2 ）
 41
0.6666666666666666
  7
00
 72
     4
 11
6127.527727734763
 21
4706.083850786249
 31
0.0
100
AcDbText
  0
TEXT
  5
2770C
330
27695
100
AcDbEntity
  8
SUNPOU
100
AcDbText
 10
5654.384870591906
 20
4451.08385078625
 30
0.0
 40
90.0
  1
L ＝ 2800 × N ＋ 700
 41
0.6666666666666666
  7
00
 72
     4
 11
6127.527727734763
 21
4496.083850786249
 31
0.0
100
AcDbText
  0
LINE
  5
2770D
330
27695
100
AcDbEntity
  8
SUNPOU
100
AcDbLine
 10
5292.527727734763
 20
4616.08385078625
 30
0.0
 11
6962.527727734763
 21
4616.08385078625
 31
0.0
  0
LINE
  5
2770E
330
27695
100
AcDbEntity
  8
SUNPOU
100
AcDbLine
 10
2142.527727734766
 20
4406.08385078625
 30
0.0
 11
10112.52772773475
 21
4406.08385078625
 31
0.0
  0
LINE
  5
2770F
330
27695
100
AcDbEntity
  8
SUNPOU
100
AcDbLine
 10
2127.52772773477
 20
5374.279881223426
 30
0.0
 11
2127.527727734766
 21
4376.08385078625
 31
0.0
  0
LINE
  5
27710
330
27695
100
AcDbEntity
  8
2PL-M2
100
AcDbLine
 10
2081.527727734775
 20
7436.08385078625
 30
0.0
 11
2081.527727734775
 21
5411.08385078625
 31
0.0
  0
LINE
  5
27711
330
27695
100
AcDbEntity
  8
U3
100
AcDbLine
 10
2127.52772773477
 20
5016.08385078625
 30
0.0
 11
2127.52772773477
 21
7616.08385078625
 31
0.0
  0
LINE
  5
27712
330
27695
100
AcDbEntity
  8
U2
100
AcDbLine
 10
6087.527727734763
 20
4916.08385078625
 30
0.0
 11
6087.527727734763
 21
7716.083850786251
 31
0.0
  0
LINE
  5
27713
330
27695
100
AcDbEntity
  8
U2
100
AcDbLine
 10
6167.527727734763
 20
4916.08385078625
 30
0.0
 11
6167.527727734763
 21
7716.083850786251
 31
0.0
  0
LINE
  5
27714
330
27695
100
AcDbEntity
  8
2PL-M2
100
AcDbLine
 10
2081.527727734775
 20
5411.08385078625
 30
0.0
 11
6087.527727734763
 21
5411.08385078625
 31
0.0
  0
TEXT
  5
27715
330
27695
100
AcDbEntity
  8
SUNPOU
100
AcDbText
 10
3352.527727734763
 20
5061.08385078625
 30
0.0
 40
90.0
  1
（土間コン前面位置）
  7
01
 72
     4
 11
3877.527727734763
 21
5106.08385078625
 31
0.0
100
AcDbText
  0
LINE
  5
27716
330
27695
100
AcDbEntity
  8
U3
100
AcDbLine
 10
2127.52772773477
 20
5016.08385078625
 30
0.0
 11
6087.527727734763
 21
5016.08385078625
 31
0.0
  0
LINE
  5
27717
330
27695
100
AcDbEntity
  8
SUNPOU
100
AcDbLine
 10
2492.527727734767
 20
4616.08385078625
 30
0.0
 11
5262.527727734763
 21
4616.08385078625
 31
0.0
  0
LINE
  5
27718
330
27695
100
AcDbEntity
  8
SUNPOU
100
AcDbLine
 10
2477.527727734774
 20
5986.083850786251
 30
0.0
 11
2477.527727734767
 21
4586.08385078625
 31
0.0
  0
LINE
  5
27719
330
27695
100
AcDbEntity
  8
SUNPOU
100
AcDbLine
 10
2477.52772773477
 20
5631.025698751698
 30
0.0
 11
2477.527727734767
 21
4586.08385078625
 31
0.0
  0
TEXT
  5
2771A
330
27695
100
AcDbEntity
  8
SUNPOU
100
AcDbText
 10
2233.16984943736
 20
4661.083850786249
 30
0.0
 40
90.0
  1
350
 41
0.6666666666666666
  7
00
 72
     4
 11
2318.884135151646
 21
4706.083850786249
 31
0.0
100
AcDbText
  0
LINE
  5
2771B
330
27695
100
AcDbEntity
  8
SUNPOU
100
AcDbLine
 10
2142.527727734766
 20
4616.08385078625
 30
0.0
 11
2462.527727734771
 21
4616.08385078625
 31
0.0
  0
LINE
  5
2771C
330
27695
100
AcDbEntity
  8
SUNPOU
100
AcDbLine
 10
2127.527727734766
 20
4646.08385078625
 30
0.0
 11
2127.527727734766
 21
4646.08385078625
 31
0.0
  0
TEXT
  5
2771D
330
27695
100
AcDbEntity
  8
SUNPOU
100
AcDbText
 10
3763.242013449049
 20
4661.083850786249
 30
0.0
 40
90.0
  1
2800
 41
0.6666666666666666
  7
00
 72
     1
 11
3877.527727734763
 21
4706.083850786249
 31
0.0
100
AcDbText
 73
     2
  0
LINE
  5
2771E
330
27695
100
AcDbEntity
  8
1PL-M1
100
AcDbLine
 10
2477.527727734774
 20
6016.083850786253
 30
0.0
 11
2477.527727734774
 21
6816.083850786252
 31
0.0
  0
LINE
  5
2771F
330
27695
100
AcDbEntity
  8
SUNPOU
100
AcDbLine
 10
5277.527727734764
 20
5986.083850786251
 30
0.0
 11
5277.527727734764
 21
4586.08385078625
 31
0.0
  0
LINE
  5
27720
330
27695
100
AcDbEntity
  8
SUNPOU
100
AcDbLine
 10
5277.527727734764
 20
5631.025698751698
 30
0.0
 11
5277.527727734764
 21
4586.08385078625
 31
0.0
  0
LINE
  5
27721
330
27695
100
AcDbEntity
  8
1PL-M1
100
AcDbLine
 10
5277.527727734764
 20
6016.083850786253
 30
0.0
 11
5277.527727734764
 21
6816.083850786252
 31
0.0
  0
LINE
  5
27722
330
27695
100
AcDbEntity
  8
2PL-M2
100
AcDbLine
 10
2081.527727734775
 20
7436.08385078625
 30
0.0
 11
6087.527727734763
 21
7436.08385078625
 31
0.0
  0
TEXT
  5
27723
330
27695
100
AcDbEntity
  8
SUNPOU
100
AcDbText
 10
3352.527727734763
 20
7661.083850786249
 30
0.0
 40
90.0
  1
（土間コン後面位置）
  7
01
 72
     4
 11
3877.527727734763
 21
7706.083850786249
 31
0.0
100
AcDbText
  0
TEXT
  5
27724
330
27695
100
AcDbEntity
  8
SUNPOU
100
AcDbText
 10
3460.527727734763
 20
7481.08385078625
 30
0.0
 40
90.0
  1
（屋根後面位置）
  7
01
 72
     4
 11
3877.527727734763
 21
7526.08385078625
 31
0.0
100
AcDbText
  0
LINE
  5
27725
330
27695
100
AcDbEntity
  8
U3
100
AcDbLine
 10
2127.52772773477
 20
7616.08385078625
 30
0.0
 11
6087.527727734763
 21
7616.08385078625
 31
0.0
  0
LINE
  5
27726
330
27695
100
AcDbEntity
  8
SUNPOU
100
AcDbLine
 10
10127.52772773475
 20
5374.279881223426
 30
0.0
 11
10127.52772773475
 21
4376.08385078625
 31
0.0
  0
LINE
  5
27727
330
27695
100
AcDbEntity
  8
1PL-S1
100
AcDbLine
 10
10461.73282759347
 20
6416.083850786248
 30
0.0
 11
10667.52772773475
 21
6416.08385078625
 31
0.0
  0
TEXT
  5
27728
330
27695
100
AcDbEntity
  8
SUNPOU
100
AcDbText
 10
10592.52772773475
 20
5597.512422214822
 30
0.0
 40
90.0
  1
1400
 50
90.0
 41
0.6666666666666666
  7
00
 72
     1
 11
10547.52772773475
 21
5716.08385078625
 31
0.0
100
AcDbText
 73
     2
  0
TEXT
  5
27729
330
27695
100
AcDbEntity
  8
SUNPOU
100
AcDbText
 10
10592.52772773475
 20
6897.512422214821
 30
0.0
 40
90.0
  1
1200
 50
90.0
 41
0.6666666666666666
  7
00
 72
     1
 11
10547.52772773475
 21
7016.083850786251
 31
0.0
100
AcDbText
 73
     2
  0
LINE
  5
2772A
330
27695
100
AcDbEntity
  8
SUNPOU
100
AcDbLine
 10
10157.52772773475
 20
5016.08385078625
 30
0.0
 11
10877.52772773475
 21
5016.08385078625
 31
0.0
  0
LINE
  5
2772B
330
27695
100
AcDbEntity
  8
SUNPOU
100
AcDbLine
 10
10157.52772773475
 20
7616.08385078625
 30
0.0
 11
10877.52772773475
 21
7616.08385078625
 31
0.0
  0
LINE
  5
2772C
330
27695
100
AcDbEntity
  8
2PL-M2
100
AcDbLine
 10
10173.52772773475
 20
7436.08385078625
 30
0.0
 11
10173.52772773475
 21
5411.08385078625
 31
0.0
  0
LINE
  5
2772D
330
27695
100
AcDbEntity
  8
U3
100
AcDbLine
 10
10127.52772773475
 20
5016.08385078625
 30
0.0
 11
10127.52772773475
 21
7616.08385078625
 31
0.0
  0
TEXT
  5
2772E
330
27695
100
AcDbEntity
  8
SUNPOU
100
AcDbText
 10
8263.242013449044
 20
4661.083850786249
 30
0.0
 40
90.0
  1
2800
 41
0.6666666666666666
  7
00
 72
     1
 11
8377.527727734758
 21
4706.083850786249
 31
0.0
100
AcDbText
 73
     2
  0
LINE
  5
2772F
330
27695
100
AcDbEntity
  8
SUNPOU
100
AcDbLine
 10
6992.527727734763
 20
4616.08385078625
 30
0.0
 11
9762.527727734756
 21
4616.08385078625
 31
0.0
  0
LINE
  5
27730
330
27695
100
AcDbEntity
  8
SUNPOU
100
AcDbLine
 10
6977.527727734763
 20
5986.083850786251
 30
0.0
 11
6977.527727734763
 21
4586.08385078625
 31
0.0
  0
LINE
  5
27731
330
27695
100
AcDbEntity
  8
SUNPOU
100
AcDbLine
 10
6977.527727734763
 20
5631.025698751698
 30
0.0
 11
6977.527727734763
 21
4586.08385078625
 31
0.0
  0
LINE
  5
27732
330
27695
100
AcDbEntity
  8
1PL-M1
100
AcDbLine
 10
6977.527727734763
 20
6016.083850786253
 30
0.0
 11
6977.527727734763
 21
6816.083850786252
 31
0.0
  0
TEXT
  5
27733
330
27695
100
AcDbEntity
  8
SUNPOU
100
AcDbText
 10
9691.813442020469
 20
5811.08385078625
 30
0.0
 40
90.0
  1
700
 41
0.6666666666666666
  7
00
 72
     1
 11
9777.527727734756
 21
5856.08385078625
 31
0.0
100
AcDbText
 73
     2
  0
LINE
  5
27734
330
27695
100
AcDbEntity
  8
SUNPOU
100
AcDbLine
 10
9427.52772773476
 20
6036.08385078625
 30
0.0
 11
9427.52772773476
 21
5736.083850786251
 31
0.0
  0
LINE
  5
27735
330
27695
100
AcDbEntity
  8
SUNPOU
100
AcDbLine
 10
9442.527727734756
 20
5766.08385078625
 30
0.0
 11
10112.52772773475
 21
5766.08385078625
 31
0.0
  0
LINE
  5
27736
330
27695
100
AcDbEntity
  8
SUNPOU
100
AcDbLine
 10
9777.527727734765
 20
5731.917411318054
 30
0.0
 11
9777.527727734756
 21
4586.08385078625
 31
0.0
  0
LINE
  5
27737
330
27695
100
AcDbEntity
  8
SUNPOU
100
AcDbLine
 10
9777.527727734756
 20
5374.279881223426
 30
0.0
 11
9777.527727734756
 21
4586.08385078625
 31
0.0
  0
LINE
  5
27738
330
27695
100
AcDbEntity
  8
SUNPOU
100
AcDbLine
 10
9792.527727734757
 20
4616.08385078625
 30
0.0
 11
10112.52772773475
 21
4616.08385078625
 31
0.0
  0
TEXT
  5
27739
330
27695
100
AcDbEntity
  8
SUNPOU
100
AcDbText
 10
9866.81344202047
 20
4661.083850786249
 30
0.0
 40
90.0
  1
350
 41
0.6666666666666666
  7
00
 72
     4
 11
9952.527727734755
 21
4706.083850786249
 31
0.0
100
AcDbText
  0
LINE
  5
2773A
330
27695
100
AcDbEntity
  8
SUNPOU
100
AcDbLine
 10
10127.52772773475
 20
4646.08385078625
 30
0.0
 11
10127.52772773475
 21
4646.08385078625
 31
0.0
  0
LINE
  5
2773B
330
27695
100
AcDbEntity
  8
SUNPOU
100
AcDbLine
 10
10127.52772773475
 20
5796.083850786249
 30
0.0
 11
10127.52772773475
 21
5796.083850786249
 31
0.0
  0
LINE
  5
2773C
330
27695
100
AcDbEntity
  8
HIKIDASHI
100
AcDbLine
 10
9715.027727734749
 20
6505.545375013309
 30
0.0
 11
9502.65525088356
 21
6873.385295048665
 31
0.0
  0
LINE
  5
2773D
330
27695
100
AcDbEntity
  8
HIKIDASHI
100
AcDbLine
 10
9358.655250883559
 20
6873.385295048665
 30
0.0
 11
9502.65525088356
 21
6873.385295048665
 31
0.0
  0
TEXT
  5
2773E
330
27695
100
AcDbEntity
  8
HIKIDASHI
100
AcDbText
 10
9388.655250883559
 20
6918.385295048667
 30
0.0
 40
90.0
  1
柱
  7
01
 72
     2
 11
9472.65525088356
 21
6963.385295048666
 31
0.0
100
AcDbText
 73
     2
  0
TEXT
  5
2773F
330
27695
100
AcDbEntity
  8
SUNPOU
100
AcDbText
 10
9943.233743300247
 20
6477.712422214821
 30
0.0
 40
90.0
  1
75
 50
90.0
 41
0.6666666666666666
  7
00
 72
     1
 11
9898.233743300247
 21
6534.855279357678
 31
0.0
100
AcDbText
 73
     2
  0
LINE
  5
27740
330
27695
100
AcDbEntity
  8
SUNPOU
100
AcDbLine
 10
9988.233743300249
 20
6483.58385078625
 30
0.0
 11
9988.233743300249
 21
6583.426707929105
 31
0.0
  0
LINE
  5
27741
330
27695
100
AcDbEntity
  8
1PL-M1
100
AcDbLine
 10
9777.527727734756
 20
5940.805990360579
 30
0.0
 11
9777.527727734756
 21
6816.083850786251
 31
0.0
  0
LINE
  5
27742
330
27695
100
AcDbEntity
  8
SUNPOU
100
AcDbLine
 10
9745.027727734758
 20
6348.58385078625
 30
0.0
 11
9745.027727734758
 21
6172.141006900598
 31
0.0
  0
LINE
  5
27743
330
27695
100
AcDbEntity
  8
SUNPOU
100
AcDbLine
 10
9810.027727734755
 20
6348.58385078625
 30
0.0
 11
9810.027727734755
 21
6172.141006900598
 31
0.0
  0
LINE
  5
27744
330
27695
100
AcDbEntity
  8
SUNPOU
100
AcDbLine
 10
9840.027727734756
 20
6453.583850786251
 30
0.0
 11
10018.23374330024
 21
6453.583850786251
 31
0.0
  0
LINE
  5
27745
330
27695
100
AcDbEntity
  8
SUNPOU
100
AcDbLine
 10
9840.027727734756
 20
6378.58385078625
 30
0.0
 11
10018.23374330024
 21
6378.58385078625
 31
0.0
  0
LINE
  5
27746
330
27695
100
AcDbEntity
  8
SUNPOU
100
AcDbLine
 10
9730.027727734757
 20
6202.141006900598
 30
0.0
 11
9715.027727734756
 21
6202.141006900598
 31
0.0
  0
TEXT
  5
27747
330
27695
100
AcDbEntity
  8
SUNPOU
100
AcDbText
 10
9606.613442020467
 20
6247.141006900598
 30
0.0
 40
90.0
  1
65
 41
0.6666666666666666
  7
00
 72
     1
 11
9665.184870591897
 21
6292.141006900598
 31
0.0
100
AcDbText
 73
     2
  0
LINE
  5
27748
330
27695
100
AcDbEntity
  8
SUNPOU
100
AcDbLine
 10
9715.027727734756
 20
6202.141006900598
 30
0.0
 11
9618.042013449041
 21
6202.141006900598
 31
0.0
  0
LINE
  5
27749
330
27695
100
AcDbEntity
  8
SUNPOU
100
AcDbLine
 10
9795.027727734757
 20
6202.141006900598
 30
0.0
 11
9745.027727734758
 21
6202.141006900598
 31
0.0
  0
SOLID
  5
2774A
330
27695
100
AcDbEntity
  8
HIKIDASHI
100
AcDbTrace
 10
9723.687981772592
 20
6510.545375013314
 30
0.0
 11
9706.367473696905
 21
6500.545375013309
 31
0.0
 12
9745.027727734758
 22
6453.583850786251
 32
0.0
 13
9745.027727734758
 23
6453.583850786251
 33
0.0
  0
LINE
  5
2774B
330
27695
100
AcDbEntity
  8
SUNPOU
100
AcDbLine
 10
9988.233743300249
 20
6468.58385078625
 30
0.0
 11
9988.233743300249
 21
6483.58385078625
 31
0.0
  0
LINE
  5
2774C
330
27695
100
AcDbEntity
  8
SUNPOU
100
AcDbLine
 10
9988.233743300249
 20
6393.583850786249
 30
0.0
 11
9988.233743300249
 21
6453.583850786251
 31
0.0
  0
LINE
  5
2774D
330
27695
100
AcDbEntity
  8
SUNPOU
100
AcDbLine
 10
10637.52772773475
 20
7601.08385078625
 30
0.0
 11
10637.52772773475
 21
6431.08385078625
 31
0.0
  0
LINE
  5
2774E
330
27695
100
AcDbEntity
  8
SUNPOU
100
AcDbLine
 10
10847.52772773475
 20
7601.08385078625
 30
0.0
 11
10847.52772773475
 21
5031.08385078625
 31
0.0
  0
LINE
  5
2774F
330
27695
100
AcDbEntity
  8
SUNPOU
100
AcDbLine
 10
10637.52772773475
 20
6401.08385078625
 30
0.0
 11
10637.52772773475
 21
5031.08385078625
 31
0.0
  0
LINE
  5
27750
330
27695
100
AcDbEntity
  8
SUNPOU
100
AcDbLine
 10
10607.52772773475
 20
5016.08385078625
 30
0.0
 11
10607.52772773475
 21
5016.08385078625
 31
0.0
  0
TEXT
  5
27751
330
27695
100
AcDbEntity
  8
SUNPOU
100
AcDbText
 10
10802.52772773475
 20
6201.798136500535
 30
0.0
 40
90.0
  1
2600
 50
90.0
 41
0.6666666666666666
  7
00
 72
     1
 11
10757.52772773475
 21
6316.08385078625
 31
0.0
100
AcDbText
 73
     2
  0
LINE
  5
27752
330
27695
100
AcDbEntity
  8
SUNPOU
100
AcDbLine
 10
10607.52772773475
 20
7616.08385078625
 30
0.0
 11
10607.52772773475
 21
7616.08385078625
 31
0.0
  0
LINE
  5
27753
330
27695
100
AcDbEntity
  8
SUNPOU
100
AcDbLine
 10
6767.527727734763
 20
6976.083850786254
 30
0.0
 11
6977.527727734763
 21
6976.083850786254
 31
0.0
  0
TEXT
  5
27754
330
27695
100
AcDbEntity
  8
SUNPOU
100
AcDbText
 10
6551.634870591906
 20
6922.512422214825
 30
0.0
 40
90.0
  1
A'
 50
0.0000000000000509
 41
0.6700000000000001
  7
00
 72
     4
 11
6587.527727734763
 21
6976.083850786254
 31
0.0
100
AcDbText
  0
LINE
  5
27755
330
27695
100
AcDbEntity
  8
SUNPOU
100
AcDbLine
 10
6977.527727734763
 20
6976.083850786254
 30
0.0
 11
6977.527727734763
 21
6826.083850786253
 31
0.0
  0
TEXT
  5
27756
330
27695
100
AcDbEntity
  8
SUNPOU
100
AcDbText
 10
6561.684870591914
 20
5811.083850786253
 30
0.0
 40
90.0
  1
A
 50
0.0000000000000509
 41
0.6700000000000001
  7
00
 72
     4
 11
6587.52772773477
 21
5856.083850786252
 31
0.0
100
AcDbText
  0
LINE
  5
27757
330
27695
100
AcDbEntity
  8
SUNPOU
100
AcDbLine
 10
6767.527727734763
 20
5856.083850786252
 30
0.0
 11
6977.527727734771
 21
5856.083850786252
 31
0.0
  0
LINE
  5
27758
330
27695
100
AcDbEntity
  8
SUNPOU
100
AcDbLine
 10
6977.527727734771
 20
5856.083850786257
 30
0.0
 11
6977.527727734771
 21
6006.083850786257
 31
0.0
  0
LINE
  5
27759
330
27695
100
AcDbEntity
  8
SUNPOU
100
AcDbLine
 10
2138.77772773477
 20
4406.08385078625
 30
0.0
 11
2150.027727734771
 21
4406.08385078625
 31
0.0
  0
LINE
  5
2775A
330
27695
100
AcDbEntity
  8
SUNPOU
100
AcDbLine
 10
2138.77772773477
 20
4616.08385078625
 30
0.0
 11
2150.027727734771
 21
4616.08385078625
 31
0.0
  0
LINE
  5
2775B
330
27695
100
AcDbEntity
  8
SUNPOU
100
AcDbLine
 10
2466.277727734767
 20
4616.08385078625
 30
0.0
 11
2455.027727734767
 21
4616.08385078625
 31
0.0
  0
LINE
  5
2775C
330
27695
100
AcDbEntity
  8
SUNPOU
100
AcDbLine
 10
2488.77772773477
 20
4616.08385078625
 30
0.0
 11
2500.027727734771
 21
4616.08385078625
 31
0.0
  0
LINE
  5
2775D
330
27695
100
AcDbEntity
  8
SUNPOU
100
AcDbLine
 10
5266.277727734763
 20
4616.08385078625
 30
0.0
 11
5255.027727734763
 21
4616.08385078625
 31
0.0
  0
LINE
  5
2775E
330
27695
100
AcDbEntity
  8
SUNPOU
100
AcDbLine
 10
5288.777727734763
 20
4616.08385078625
 30
0.0
 11
5300.027727734764
 21
4616.08385078625
 31
0.0
  0
LINE
  5
2775F
330
27695
100
AcDbEntity
  8
SUNPOU
100
AcDbLine
 10
10116.27772773475
 20
4406.08385078625
 30
0.0
 11
10105.02772773474
 21
4406.08385078625
 31
0.0
  0
LINE
  5
27760
330
27695
100
AcDbEntity
  8
SUNPOU
100
AcDbLine
 10
10157.52772773475
 20
6766.083850786251
 30
0.0
 11
10457.52772773475
 21
6766.083850786251
 31
0.0
  0
LINE
  5
27761
330
27695
100
AcDbEntity
  8
SUNPOU
100
AcDbLine
 10
10157.52772773475
 20
6066.08385078625
 30
0.0
 11
10457.52772773475
 21
6066.08385078625
 31
0.0
  0
LINE
  5
27762
330
27695
100
AcDbEntity
  8
SUNPOU
100
AcDbLine
 10
10427.52772773475
 20
6751.083850786246
 30
0.0
 11
10427.52772773475
 21
6081.083850786249
 31
0.0
  0
TEXT
  5
27763
330
27695
100
AcDbEntity
  8
SUNPOU
100
AcDbText
 10
10382.52772773475
 20
6330.369565071964
 30
0.0
 40
90.0
  1
700
 50
90.0
 41
0.6666666666666666
  7
00
100
AcDbText
  0
LINE
  5
27764
330
27695
100
AcDbEntity
  8
SUNPOU
100
AcDbLine
 10
6767.527727734763
 20
5841.083850786254
 30
0.0
 11
6677.527727734771
 21
5856.083850786252
 31
0.0
  0
LINE
  5
27765
330
27695
100
AcDbEntity
  8
SUNPOU
100
AcDbLine
 10
6677.527727734771
 20
5856.083850786252
 30
0.0
 11
6767.527727734763
 21
5871.083850786254
 31
0.0
  0
SOLID
  5
27766
330
27695
100
AcDbEntity
  8
SUNPOU
100
AcDbTrace
 10
6767.527727734763
 20
5841.083850786254
 30
0.0
 11
6767.527727734763
 21
5871.083850786254
 31
0.0
 12
6677.527727734771
 22
5856.083850786252
 32
0.0
 13
6677.527727734771
 23
5856.083850786252
 33
0.0
  0
LINE
  5
27767
330
27695
100
AcDbEntity
  8
SUNPOU
100
AcDbLine
 10
6767.527727734763
 20
5871.083850786254
 30
0.0
 11
6767.527727734763
 21
5841.083850786254
 31
0.0
  0
LINE
  5
27768
330
27695
100
AcDbEntity
  8
SUNPOU
100
AcDbLine
 10
6966.277727734762
 20
4616.08385078625
 30
0.0
 11
6955.027727734763
 21
4616.08385078625
 31
0.0
  0
LINE
  5
27769
330
27695
100
AcDbEntity
  8
SUNPOU
100
AcDbLine
 10
6988.777727734763
 20
4616.08385078625
 30
0.0
 11
7000.027727734765
 21
4616.08385078625
 31
0.0
  0
LINE
  5
2776A
330
27695
100
AcDbEntity
  8
SUNPOU
100
AcDbLine
 10
6767.527727734763
 20
6991.083850786252
 30
0.0
 11
6677.527727734762
 21
6976.083850786254
 31
0.0
  0
LINE
  5
2776B
330
27695
100
AcDbEntity
  8
SUNPOU
100
AcDbLine
 10
6677.527727734762
 20
6976.083850786254
 30
0.0
 11
6767.527727734763
 21
6961.083850786254
 31
0.0
  0
SOLID
  5
2776C
330
27695
100
AcDbEntity
  8
SUNPOU
100
AcDbTrace
 10
6767.527727734763
 20
6991.083850786252
 30
0.0
 11
6767.527727734763
 21
6961.083850786254
 31
0.0
 12
6677.527727734762
 22
6976.083850786254
 32
0.0
 13
6677.527727734762
 23
6976.083850786254
 33
0.0
  0
LINE
  5
2776D
330
27695
100
AcDbEntity
  8
SUNPOU
100
AcDbLine
 10
6767.527727734763
 20
6961.083850786254
 30
0.0
 11
6767.527727734763
 21
6991.083850786252
 31
0.0
  0
LINE
  5
2776E
330
27695
100
AcDbEntity
  8
SUNPOU
100
AcDbLine
 10
9766.277727734756
 20
4616.08385078625
 30
0.0
 11
9755.027727734756
 21
4616.08385078625
 31
0.0
  0
LINE
  5
2776F
330
27695
100
AcDbEntity
  8
SUNPOU
100
AcDbLine
 10
9788.777727734748
 20
4616.08385078625
 30
0.0
 11
9800.027727734757
 21
4616.08385078625
 31
0.0
  0
LINE
  5
27770
330
27695
100
AcDbEntity
  8
SUNPOU
100
AcDbLine
 10
10116.27772773475
 20
4616.08385078625
 30
0.0
 11
10105.02772773474
 21
4616.08385078625
 31
0.0
  0
LINE
  5
27771
330
27695
100
AcDbEntity
  8
SUNPOU
100
AcDbLine
 10
9438.777727734757
 20
5766.08385078625
 30
0.0
 11
9450.027727734756
 21
5766.08385078625
 31
0.0
  0
LINE
  5
27772
330
27695
100
AcDbEntity
  8
SUNPOU
100
AcDbLine
 10
10116.27772773475
 20
5766.08385078625
 30
0.0
 11
10105.02772773474
 21
5766.08385078625
 31
0.0
  0
LINE
  5
27773
330
27695
100
AcDbEntity
  8
SUNPOU
100
AcDbLine
 10
9733.777727734766
 20
6202.141006900598
 30
0.0
 11
9722.527727734757
 21
6202.141006900598
 31
0.0
  0
LINE
  5
27774
330
27695
100
AcDbEntity
  8
SUNPOU
100
AcDbLine
 10
9798.777727734757
 20
6202.141006900598
 30
0.0
 11
9787.527727734756
 21
6202.141006900598
 31
0.0
  0
LINE
  5
27775
330
27695
100
AcDbEntity
  8
SUNPOU
100
AcDbLine
 10
9988.233743300249
 20
6464.83385078625
 30
0.0
 11
9988.233743300249
 21
6476.08385078625
 31
0.0
  0
LINE
  5
27776
330
27695
100
AcDbEntity
  8
SUNPOU
100
AcDbLine
 10
9988.233743300249
 20
6389.833850786249
 30
0.0
 11
9988.233743300249
 21
6401.08385078625
 31
0.0
  0
LINE
  5
27777
330
27695
100
AcDbEntity
  8
SUNPOU
100
AcDbLine
 10
10637.52772773475
 20
5027.333850786249
 30
0.0
 11
10637.52772773475
 21
5038.58385078625
 31
0.0
  0
LINE
  5
27778
330
27695
100
AcDbEntity
  8
SUNPOU
100
AcDbLine
 10
10847.52772773475
 20
5027.333850786249
 30
0.0
 11
10847.52772773475
 21
5038.58385078625
 31
0.0
  0
LINE
  5
27779
330
27695
100
AcDbEntity
  8
SUNPOU
100
AcDbLine
 10
10637.52772773475
 20
6427.333850786251
 30
0.0
 11
10637.52772773475
 21
6438.58385078625
 31
0.0
  0
LINE
  5
2777A
330
27695
100
AcDbEntity
  8
SUNPOU
100
AcDbLine
 10
10637.52772773475
 20
6404.83385078625
 30
0.0
 11
10637.52772773475
 21
6393.583850786249
 31
0.0
  0
LINE
  5
2777B
330
27695
100
AcDbEntity
  8
SUNPOU
100
AcDbLine
 10
10637.52772773475
 20
7604.833850786249
 30
0.0
 11
10637.52772773475
 21
7593.58385078625
 31
0.0
  0
LINE
  5
2777C
330
27695
100
AcDbEntity
  8
SUNPOU
100
AcDbLine
 10
10847.52772773475
 20
7604.833850786249
 30
0.0
 11
10847.52772773475
 21
7593.58385078625
 31
0.0
  0
TEXT
  5
2777D
330
27695
100
AcDbEntity
  8
SUNPOU
100
AcDbText
 10
3460.527727734763
 20
5276.08385078625
 30
0.0
 40
90.0
  1
（鼻隠し外面）
  7
01
 72
     4
 11
3823.527727734763
 21
5321.08385078625
 31
0.0
100
AcDbText
  0
LINE
  5
2777E
330
27695
100
AcDbEntity
  8
KISO
100
AcDbLine
 10
2954.325305331611
 20
2320.23285196401
 30
0.0
 11
2041.489231269243
 21
2320.23285196401
 31
0.0
  0
LINE
  5
2777F
330
27695
100
AcDbEntity
  8
KISO
100
AcDbLine
 10
2041.489231269243
 20
2185.23285196401
 30
0.0
 11
2485.575305331611
 21
2185.23285196401
 31
0.0
  0
LINE
  5
27780
330
27695
100
AcDbEntity
  8
KISO
100
AcDbLine
 10
2041.489231269243
 20
2095.232851964007
 30
0.0
 11
2485.575305331611
 21
2095.232851964008
 31
0.0
  0
LINE
  5
27781
330
27695
100
AcDbEntity
  8
HATCH
100
AcDbLine
 10
2255.814847154972
 20
2320.23285196401
 30
0.0
 11
2120.814847154972
 21
2185.23285196401
 31
0.0
  0
LINE
  5
27782
330
27695
100
AcDbEntity
  8
HATCH
100
AcDbLine
 10
2300.362574369715
 20
2320.23285196401
 30
0.0
 11
2165.362574369718
 21
2185.23285196401
 31
0.0
  0
LINE
  5
27783
330
27695
100
AcDbEntity
  8
HATCH
100
AcDbLine
 10
2344.910301584473
 20
2320.23285196401
 30
0.0
 11
2209.910301584478
 21
2185.23285196401
 31
0.0
  0
LINE
  5
27784
330
27695
100
AcDbEntity
  8
HIKIDASHI
100
AcDbLine
 10
3075.414096165838
 20
1623.832241853484
 30
0.0
 11
3586.51430334674
 21
1809.857503994635
 31
0.0
  0
LINE
  5
27785
330
27695
100
AcDbEntity
  8
HATCH
100
AcDbLine
 10
2954.325305331611
 20
1679.43512474926
 30
0.0
 11
2845.123032546363
 21
1570.23285196401
 31
0.0
  0
LINE
  5
27786
330
27695
100
AcDbEntity
  8
HATCH
100
AcDbLine
 10
2954.325305331611
 20
1723.982851964009
 30
0.0
 11
2800.57530533161
 21
1570.23285196401
 31
0.0
  0
LINE
  5
27787
330
27695
100
AcDbEntity
  8
HATCH
100
AcDbLine
 10
2954.325305331611
 20
2128.982851964007
 30
0.0
 11
2485.575305331611
 21
1660.232851964005
 31
0.0
  0
LINE
  5
27788
330
27695
100
AcDbEntity
  8
HATCH
100
AcDbLine
 10
2954.325305331611
 20
2084.435124749258
 30
0.0
 11
2485.575305331611
 21
1615.685124749258
 31
0.0
  0
LINE
  5
27789
330
27695
100
AcDbEntity
  8
HASHIRA
100
AcDbLine
 10
2954.325305331611
 20
1570.23285196401
 30
0.0
 11
2954.325305331611
 21
3256.17721409524
 31
0.0
  0
LINE
  5
2778A
330
27695
100
AcDbEntity
  8
HASHIRA
100
AcDbLine
 10
3066.82530533161
 20
1570.23285196401
 30
0.0
 11
3066.82530533161
 21
3256.17721409524
 31
0.0
  0
LINE
  5
2778B
330
27695
100
AcDbEntity
  8
1PL-M1
100
AcDbLine
 10
3010.57530533161
 20
1255.23285196401
 30
0.0
 11
3010.57530533161
 21
3436.637672710066
 31
0.0
  0
LINE
  5
2778C
330
27695
100
AcDbEntity
  8
KISO
100
AcDbLine
 10
3535.575305331612
 20
2320.232851964012
 30
0.0
 11
3535.575305331612
 21
1570.232851964012
 31
0.0
  0
LINE
  5
2778D
330
27695
100
AcDbEntity
  8
KISO
100
AcDbLine
 10
2485.575305331611
 20
2320.23285196401
 30
0.0
 11
2485.575305331611
 21
1570.23285196401
 31
0.0
  0
LINE
  5
2778E
330
27695
100
AcDbEntity
  8
HATCH
100
AcDbLine
 10
3535.575305331612
 20
1766.58967031976
 30
0.0
 11
3339.21848697586
 21
1570.23285196401
 31
0.0
  0
LINE
  5
2778F
330
27695
100
AcDbEntity
  8
HATCH
100
AcDbLine
 10
3535.575305331612
 20
1811.137397534512
 30
0.0
 11
3294.670759761114
 21
1570.23285196401
 31
0.0
  0
LINE
  5
27790
330
27695
100
AcDbEntity
  8
HATCH
100
AcDbLine
 10
3535.575305331612
 20
1855.685124749268
 30
0.0
 11
3250.123032546348
 21
1570.23285196401
 31
0.0
  0
LINE
  5
27791
330
27695
100
AcDbEntity
  8
HATCH
100
AcDbLine
 10
2954.325305331611
 20
1634.887397534507
 30
0.0
 11
2889.670759761117
 21
1570.23285196401
 31
0.0
  0
SOLID
  5
27792
330
27695
100
AcDbEntity
  8
HIKIDASHI
100
AcDbTrace
 10
3078.834297599096
 20
1614.435315645624
 30
0.0
 11
3071.993894732583
 21
1633.229168061341
 31
0.0
 12
3019.032538918684
 22
1603.311033253941
 32
0.0
 13
3019.032538918684
 23
1603.311033253941
 33
0.0
  0
LINE
  5
27793
330
27695
100
AcDbEntity
  8
HIKIDASHI
100
AcDbLine
 10
2986.029864683841
 20
1600.23285196401
 30
0.0
 11
3035.12074597938
 21
1600.23285196401
 31
0.0
  0
LINE
  5
27794
330
27695
100
AcDbEntity
  8
HIKIDASHI
100
AcDbLine
 10
2986.029864683841
 20
1660.23285196401
 30
0.0
 11
3035.12074597938
 21
1660.23285196401
 31
0.0
  0
CIRCLE
  5
27795
330
27695
100
AcDbEntity
  8
HASHIRA
100
AcDbCircle
 10
3010.57530533161
 20
1660.23285196401
 30
0.0
 40
9.0
  0
CIRCLE
  5
27796
330
27695
100
AcDbEntity
  8
HASHIRA
100
AcDbCircle
 10
3010.57530533161
 20
1600.23285196401
 30
0.0
 40
9.0
  0
TEXT
  5
27797
330
27695
100
AcDbEntity
  8
SUNPOU
100
AcDbText
 10
4354.377899732589
 20
786.2250926600079
 30
0.0
 40
90.0
  1
ベース筋
  7
01
 72
     4
 11
4558.377899732589
 21
831.2250926600079
 31
0.0
100
AcDbText
  0
LINE
  5
27798
330
27695
100
AcDbEntity
  8
HATCH
100
AcDbLine
 10
4407.89825921243
 20
2320.23285196401
 30
0.0
 11
4272.89825921243
 21
2185.232851964012
 31
0.0
  0
LINE
  5
27799
330
27695
100
AcDbEntity
  8
HATCH
100
AcDbLine
 10
4363.350531997672
 20
2320.23285196401
 30
0.0
 11
4228.350531997672
 21
2185.232851964012
 31
0.0
  0
LINE
  5
2779A
330
27695
100
AcDbEntity
  8
HIKIDASHI
100
AcDbLine
 10
3586.51430334674
 20
1809.857503994635
 30
0.0
 11
4377.473528378141
 21
1809.857503994635
 31
0.0
  0
TEXT
  5
2779B
330
27695
100
AcDbEntity
  8
HIKIDASHI
100
AcDbText
 10
3876.650368489129
 20
1854.857503994636
 30
0.0
 40
90.0
  1
10   x 350
 41
0.6666666666666666
  7
00
 11
3876.650368489129
 21
1899.857503994636
 31
0.0
100
AcDbText
 73
     2
  0
LINE
  5
2779C
330
27695
100
AcDbEntity
  8
KISO
100
AcDbLine
 10
3535.575305331612
 20
2095.23285196401
 30
0.0
 11
4923.075305331611
 21
2095.23285196401
 31
0.0
  0
LINE
  5
2779D
330
27695
100
AcDbEntity
  8
KISO
100
AcDbLine
 10
3535.575305331612
 20
2185.232851964012
 30
0.0
 11
4923.075305331611
 21
2185.232851964014
 31
0.0
  0
LINE
  5
2779E
330
27695
100
AcDbEntity
  8
KISO
100
AcDbLine
 10
4923.075305331611
 20
2320.232851964012
 30
0.0
 11
3066.82530533161
 21
2320.23285196401
 31
0.0
  0
LINE
  5
2779F
330
27695
100
AcDbEntity
  8
HATCH
100
AcDbLine
 10
3535.575305331612
 20
2305.232851964011
 30
0.0
 11
3066.82530533161
 21
1836.482851964009
 31
0.0
  0
LINE
  5
277A0
330
27695
100
AcDbEntity
  8
HATCH
100
AcDbLine
 10
3535.575305331612
 20
2216.137397534508
 30
0.0
 11
3066.82530533161
 21
1747.387397534507
 31
0.0
  0
LINE
  5
277A1
330
27695
100
AcDbEntity
  8
HATCH
100
AcDbLine
 10
3535.575305331612
 20
2260.685124749265
 30
0.0
 11
3066.82530533161
 21
1791.935124749261
 31
0.0
  0
LINE
  5
277A2
330
27695
100
AcDbEntity
  8
HATCH
100
AcDbLine
 10
2954.325305331611
 20
2173.530579178763
 30
0.0
 11
2485.575305331611
 21
1704.78057917876
 31
0.0
  0
LINE
  5
277A3
330
27695
100
AcDbEntity
  8
HATCH
100
AcDbLine
 10
2651.479850902106
 20
2320.23285196401
 30
0.0
 11
2485.575305331611
 21
2154.328306393519
 31
0.0
  0
LINE
  5
277A4
330
27695
100
AcDbEntity
  8
HATCH
100
AcDbLine
 10
2696.027578116864
 20
2320.23285196401
 30
0.0
 11
2485.575305331611
 21
2109.78057917876
 31
0.0
  0
LINE
  5
277A5
330
27695
100
AcDbEntity
  8
HATCH
100
AcDbLine
 10
2740.575305331611
 20
2320.23285196401
 30
0.0
 11
2485.575305331611
 21
2065.232851964009
 31
0.0
  0
LINE
  5
277A6
330
27695
100
AcDbEntity
  8
HATCH
100
AcDbLine
 10
3145.575305331615
 20
2320.23285196401
 30
0.0
 11
3066.82530533161
 21
2241.482851964005
 31
0.0
  0
LINE
  5
277A7
330
27695
100
AcDbEntity
  8
HATCH
100
AcDbLine
 10
3101.027578116859
 20
2320.23285196401
 30
0.0
 11
3066.82530533161
 21
2286.030579178763
 31
0.0
  0
LINE
  5
277A8
330
27695
100
AcDbEntity
  8
HATCH
100
AcDbLine
 10
3190.123032546362
 20
2320.23285196401
 30
0.0
 11
3066.82530533161
 21
2196.935124749259
 31
0.0
  0
LINE
  5
277A9
330
27695
100
AcDbEntity
  8
HATCH
100
AcDbLine
 10
3913.802804782921
 20
2320.23285196401
 30
0.0
 11
3778.802804782925
 21
2185.23285196401
 31
0.0
  0
LINE
  5
277AA
330
27695
100
AcDbEntity
  8
HATCH
100
AcDbLine
 10
3958.350531997679
 20
2320.23285196401
 30
0.0
 11
3823.350531997679
 21
2185.23285196401
 31
0.0
  0
LINE
  5
277AB
330
27695
100
AcDbEntity
  8
HATCH
100
AcDbLine
 10
3869.255077568178
 20
2320.23285196401
 30
0.0
 11
3734.255077568183
 21
2185.23285196401
 31
0.0
  0
TEXT
  5
277AC
330
27695
100
AcDbEntity
  8
HIKIDASHI
100
AcDbText
 10
3616.51430334674
 20
1854.857503994636
 30
0.0
 40
90.0
  1
鉄筋
  7
01
 11
3616.51430334674
 21
1899.857503994636
 31
0.0
100
AcDbText
 73
     2
  0
TEXT
  5
277AD
330
27695
100
AcDbEntity
  8
HIKIDASHI
100
AcDbText
 10
4026.107529385194
 20
1869.857503994635
 30
0.0
 40
90.0
  1
%%c
 41
0.6666666666666666
  7
00
100
AcDbText
  0
LINE
  5
277AE
330
27695
100
AcDbEntity
  8
HATCH
100
AcDbLine
 10
4318.802804782928
 20
2320.23285196401
 30
0.0
 11
4183.802804782927
 21
2185.232851964012
 31
0.0
  0
LINE
  5
277AF
330
27695
100
AcDbEntity
  8
SUNPOU
100
AcDbLine
 10
4673.69327619941
 20
2410.232851964013
 30
0.0
 11
4725.654800426477
 21
2320.232851964012
 31
0.0
  0
LINE
  5
277B0
330
27695
100
AcDbEntity
  8
SUNPOU
100
AcDbLine
 10
4725.654800426477
 20
2320.232851964012
 30
0.0
 11
4777.616324653543
 21
2410.232851964013
 31
0.0
  0
LINE
  5
277B1
330
27695
100
AcDbEntity
  8
HATCH
100
AcDbLine
 10
4857.445986427177
 20
2320.23285196401
 30
0.0
 11
4722.445986427177
 21
2185.232851964012
 31
0.0
  0
LINE
  5
277B2
330
27695
100
AcDbEntity
  8
HATCH
100
AcDbLine
 10
4812.898259212423
 20
2320.23285196401
 30
0.0
 11
4677.898259212422
 21
2185.232851964012
 31
0.0
  0
LINE
  5
277B3
330
27695
100
AcDbEntity
  8
HATCH
100
AcDbLine
 10
4768.350531997676
 20
2320.23285196401
 30
0.0
 11
4633.350531997676
 21
2185.232851964012
 31
0.0
  0
LINE
  5
277B4
330
27695
100
AcDbEntity
  8
U3
100
AcDbLine
 10
4923.075305331611
 20
2117.732851964014
 30
0.0
 11
5080.575305331611
 21
2275.23285196401
 31
0.0
  0
LINE
  5
277B5
330
27695
100
AcDbEntity
  8
KISO
100
AcDbLine
 10
4923.075305331611
 20
2095.23285196401
 30
0.0
 11
4923.075305331611
 21
2320.23285196401
 31
0.0
  0
LINE
  5
277B6
330
27695
100
AcDbEntity
  8
U3
100
AcDbLine
 10
4985.115889871424
 20
2179.773436503827
 30
0.0
 11
5047.156474411244
 21
2117.732851964012
 31
0.0
  0
LINE
  5
277B7
330
27695
100
AcDbEntity
  8
U3
100
AcDbLine
 10
4923.075305331614
 20
2213.192267424192
 30
0.0
 11
4985.115889871431
 21
2275.23285196401
 31
0.0
  0
TEXT
  5
277B8
330
27695
100
AcDbEntity
  8
SUNPOU
100
AcDbText
 10
4657.083371855048
 20
2455.232851964013
 30
0.0
 40
90.0
  1
F.L
 41
0.6666666666666666
  7
00
 72
     4
 11
4725.654800426477
 21
2500.232851964013
 31
0.0
100
AcDbText
  0
LINE
  5
277B9
330
27695
100
AcDbEntity
  8
SUNPOU
100
AcDbLine
 10
4777.616324653543
 20
2410.232851964013
 30
0.0
 11
4673.69327619941
 21
2410.232851964013
 31
0.0
  0
TEXT
  5
277BA
330
27695
100
AcDbEntity
  8
SUNPOU
100
AcDbText
 10
4841.197981175234
 20
786.2250926600079
 30
0.0
 40
90.0
  1
5-D13×5-D13
 41
0.6700000000000001
  7
01
 72
     4
 11
5184.620838318092
 21
831.2250926600079
 31
0.0
100
AcDbText
  0
TEXT
  5
277BB
330
27695
100
AcDbEntity
  8
SUNPOU
100
AcDbText
 10
5260.207469758484
 20
2410.232851964011
 30
0.0
 40
90.0
  1
G.L
 41
0.6666666666666666
  7
00
 72
     4
 11
5331.636041187056
 21
2455.23285196401
 31
0.0
100
AcDbText
  0
LINE
  5
277BC
330
27695
100
AcDbEntity
  8
SUNPOU
100
AcDbLine
 10
5383.597565414122
 20
2365.232851964012
 30
0.0
 11
5279.674516959989
 21
2365.232851964012
 31
0.0
  0
LINE
  5
277BD
330
27695
100
AcDbEntity
  8
SUNPOU
100
AcDbLine
 10
5279.674516959989
 20
2365.232851964012
 30
0.0
 11
5331.636041187056
 21
2275.23285196401
 31
0.0
  0
LINE
  5
277BE
330
27695
100
AcDbEntity
  8
U3
100
AcDbLine
 10
5300.115889871428
 20
2179.773436503827
 30
0.0
 11
5362.156474411244
 21
2117.732851964012
 31
0.0
  0
LINE
  5
277BF
330
27695
100
AcDbEntity
  8
U3
100
AcDbLine
 10
5615.115889871419
 20
2275.232851964013
 30
0.0
 11
4923.075305331611
 21
2275.23285196401
 31
0.0
  0
LINE
  5
277C0
330
27695
100
AcDbEntity
  8
U3
100
AcDbLine
 10
5238.075305331611
 20
2117.732851964014
 30
0.0
 11
5395.575305331611
 21
2275.23285196401
 31
0.0
  0
LINE
  5
277C1
330
27695
100
AcDbEntity
  8
U3
100
AcDbLine
 10
5032.845597601518
 20
2227.503144233919
 30
0.0
 11
5142.615889871429
 21
2117.73285196401
 31
0.0
  0
LINE
  5
277C2
330
27695
100
AcDbEntity
  8
U3
100
AcDbLine
 10
5080.575305331611
 20
2275.23285196401
 30
0.0
 11
5238.075305331611
 21
2117.732851964014
 31
0.0
  0
LINE
  5
277C3
330
27695
100
AcDbEntity
  8
U3
100
AcDbLine
 10
5190.345597601517
 20
2165.462559694107
 30
0.0
 11
5300.115889871428
 21
2275.23285196401
 31
0.0
  0
LINE
  5
277C4
330
27695
100
AcDbEntity
  8
U3
100
AcDbLine
 10
5142.615889871429
 20
2213.192267424197
 30
0.0
 11
5204.65647441124
 21
2275.23285196401
 31
0.0
  0
LINE
  5
277C5
330
27695
100
AcDbEntity
  8
U3
100
AcDbLine
 10
5505.345597601514
 20
2165.462559694105
 30
0.0
 11
5615.115889871419
 21
2275.232851964013
 31
0.0
  0
LINE
  5
277C6
330
27695
100
AcDbEntity
  8
U3
100
AcDbLine
 10
5395.575305331611
 20
2275.23285196401
 30
0.0
 11
5553.075305331606
 21
2117.732851964015
 31
0.0
  0
LINE
  5
277C7
330
27695
100
AcDbEntity
  8
U3
100
AcDbLine
 10
5347.845597601518
 20
2227.503144233919
 30
0.0
 11
5457.615889871424
 21
2117.73285196401
 31
0.0
  0
LINE
  5
277C8
330
27695
100
AcDbEntity
  8
SUNPOU
100
AcDbLine
 10
5331.636041187056
 20
2275.23285196401
 30
0.0
 11
5383.597565414122
 21
2365.232851964012
 31
0.0
  0
LINE
  5
277C9
330
27695
100
AcDbEntity
  8
U3
100
AcDbLine
 10
5457.61588987142
 20
2213.192267424199
 30
0.0
 11
5519.656474411236
 21
2275.23285196401
 31
0.0
  0
LINE
  5
277CA
330
27695
100
AcDbEntity
  8
KISO
100
AcDbLine
 10
2335.575305331609
 20
1420.23285196401
 30
0.0
 11
3685.575305331612
 21
1420.232851964012
 31
0.0
  0
LINE
  5
277CB
330
27695
100
AcDbEntity
  8
KISO
100
AcDbLine
 10
2335.575305331611
 20
1420.23285196401
 30
0.0
 11
2335.575305331611
 21
1570.232851964008
 31
0.0
  0
LINE
  5
277CC
330
27695
100
AcDbEntity
  8
KISO
100
AcDbLine
 10
3685.575305331609
 20
1420.232851964012
 30
0.0
 11
3685.575305331612
 21
1570.23285196401
 31
0.0
  0
LINE
  5
277CD
330
27695
100
AcDbEntity
  8
KISO
100
AcDbLine
 10
2335.575305331609
 20
1570.232851964008
 30
0.0
 11
3685.575305331612
 21
1570.23285196401
 31
0.0
  0
TEXT
  5
277CE
330
27695
100
AcDbEntity
  8
FILENAME
100
AcDbText
 10
10651.5
 20
130.4999999999999
 30
0.0
 40
75.0
  1
＜YOTC-280_3_JIS_GL.DXF ＞
  7
FILENAME
 72
     2
 11
12286.5
 21
130.4999999999999
 31
0.0
100
AcDbText
  0
LINE
  5
277CF
330
27695
100
AcDbEntity
  8
WAKUSEN-01
100
AcDbLine
 10
325.5000000000006
 20
310.4999999999997
 30
0.0
 11
12286.5
 21
310.4999999999997
 31
0.0
  0
LINE
  5
277D0
330
27695
100
AcDbEntity
  8
WAKUSEN-01
100
AcDbLine
 10
325.5000000000006
 20
8431.500000000003
 30
0.0
 11
12286.5
 21
8431.500000000003
 31
0.0
  0
LINE
  5
277D1
330
27695
100
AcDbEntity
  8
WAKUSEN-01
100
AcDbLine
 10
325.5000000000006
 20
310.4999999999997
 30
0.0
 11
325.5000000000006
 21
8431.500000000003
 31
0.0
  0
LINE
  5
277D2
330
27695
100
AcDbEntity
  8
WAKUSEN-01
100
AcDbLine
 10
12286.5
 20
310.4999999999997
 30
0.0
 11
12286.5
 21
8431.500000000003
 31
0.0
  0
LINE
  5
277D3
330
27695
100
AcDbEntity
  8
WAKUSEN-01
100
AcDbLine
 10
7710.0
 20
931.4999999999999
 30
0.0
 11
12286.5
 21
931.4999999999995
 31
0.0
  0
LINE
  5
277D4
330
27695
100
AcDbEntity
  8
WAKUSEN-02
100
AcDbLine
 10
7710.0
 20
620.9999999999999
 30
0.0
 11
10075.49999999999
 21
620.9999999999999
 31
0.0
  0
TEXT
  5
277D5
330
27695
100
AcDbEntity
  8
WAKUMOJI-01
100
AcDbText
 10
7751.347597486038
 20
797.2136285022457
 30
0.0
 40
90.0
  1
名　称
  7
WAKUMOJI
100
AcDbText
  0
TEXT
  5
277D6
330
27695
100
AcDbEntity
  8
WAKUMOJI-01
100
AcDbText
 10
7746.18955690947
 20
494.6733656174329
 30
0.0
 40
90.0
  1
機種名
  7
WAKUMOJI
100
AcDbText
  0
LINE
  5
277D7
330
27695
100
AcDbEntity
  8
WAKUSEN-01
100
AcDbLine
 10
7710.0
 20
310.4999999999989
 30
0.0
 11
7710.0
 21
931.4999999999999
 31
0.0
  0
LINE
  5
277D8
330
27695
100
AcDbEntity
  8
WAKUSEN-02
100
AcDbLine
 10
10075.49999999999
 20
310.4999999999973
 30
0.0
 11
10075.49999999999
 21
931.4999999999999
 31
0.0
  0
LINE
  5
277D9
330
27695
100
AcDbEntity
  8
YODOROGO
100
AcDbLine
 10
11241.60162798446
 20
748.4060611609828
 30
0.0
 11
11186.10162798447
 21
748.4060611609828
 31
0.0
1001
AUTOCAD_POSTSCRIPT_FIGURE
1002
{
1000
PSFILL
1000
Grayscale
1000
Grayscale
1070
    25
1002
}
  0
LINE
  5
277DA
330
27695
100
AcDbEntity
  8
YODOROGO
100
AcDbLine
 10
11186.10162798447
 20
730.4060611609828
 30
0.0
 11
11241.60162798446
 21
730.4060611609828
 31
0.0
1001
AUTOCAD_POSTSCRIPT_FIGURE
1002
{
1000
PSFILL
1000
Grayscale
1000
Grayscale
1070
    25
1002
}
  0
LINE
  5
277DB
330
27695
100
AcDbEntity
  8
YODOROGO
100
AcDbLine
 10
11241.60162798446
 20
715.4060611609828
 30
0.0
 11
11186.10162798447
 21
715.4060611609828
 31
0.0
1001
AUTOCAD_POSTSCRIPT_FIGURE
1002
{
1000
PSFILL
1000
Grayscale
1000
Grayscale
1070
    25
1002
}
  0
LINE
  5
277DC
330
27695
100
AcDbEntity
  8
YODOROGO
100
AcDbLine
 10
11186.10162798447
 20
697.406061160983
 30
0.0
 11
11241.60162798446
 21
697.406061160983
 31
0.0
1001
AUTOCAD_POSTSCRIPT_FIGURE
1002
{
1000
PSFILL
1000
Grayscale
1000
Grayscale
1070
    25
1002
}
  0
LINE
  5
277DD
330
27695
100
AcDbEntity
  8
YODOROGO
100
AcDbLine
 10
11241.60162798446
 20
682.4060611609829
 30
0.0
 11
11186.10162798447
 21
682.4060611609829
 31
0.0
1001
AUTOCAD_POSTSCRIPT_FIGURE
1002
{
1000
PSFILL
1000
Grayscale
1000
Grayscale
1070
    25
1002
}
  0
LINE
  5
277DE
330
27695
100
AcDbEntity
  8
YODOROGO
100
AcDbLine
 10
11220.60162798447
 20
640.4060611609828
 30
0.0
 11
11241.60162798446
 21
640.4060611609828
 31
0.0
1001
AUTOCAD_POSTSCRIPT_FIGURE
1002
{
1000
PSFILL
1000
Grayscale
1000
Grayscale
1070
    25
1002
}
  0
LINE
  5
277DF
330
27695
100
AcDbEntity
  8
YODOROGO
100
AcDbLine
 10
11151.60162798447
 20
535.4060611609829
 30
0.0
 11
11226.60162798446
 21
555.5022505933164
 31
0.0
  0
LINE
  5
277E0
330
27695
100
AcDbEntity
  8
YODOROGO
100
AcDbLine
 10
11231.10162798446
 20
640.4060611609828
 30
0.0
 11
11207.10162798447
 21
640.4060611609828
 31
0.0
  0
ARC
  5
277E1
330
27695
100
AcDbEntity
  8
YODOROGO
100
AcDbCircle
 10
11345.38040618545
 20
677.9492284624735
 30
0.0
 40
143.2075740771177
100
AcDbArc
 50
213.9611167766784
 51
264.4787207431779
  0
ARC
  5
277E2
330
27695
100
AcDbEntity
  8
YODOROGO
100
AcDbCircle
 10
11345.38040618547
 20
677.9492284624883
 30
0.0
 40
143.2075740771305
100
AcDbArc
 50
208.141144204866
 51
212.9210361185994
  0
LINE
  5
277E3
330
27695
100
AcDbEntity
  8
YODOROGO
100
AcDbLine
 10
11164.27870236948
 20
583.8028730048376
 30
0.0
 11
11225.1690496907
 21
600.1183923964076
 31
0.0
  0
LINE
  5
277E4
330
27695
100
AcDbEntity
  8
YODOROGO
100
AcDbLine
 10
11151.60162798447
 20
535.4060611609829
 30
0.0
 11
11226.60162798446
 21
555.5022505933164
 31
0.0
  0
LINE
  5
277E5
330
27695
100
AcDbEntity
  8
YODOROGO
100
AcDbLine
 10
11231.10162798446
 20
640.4060611609828
 30
0.0
 11
11207.10162798447
 21
640.4060611609828
 31
0.0
  0
ARC
  5
277E6
330
27695
100
AcDbEntity
  8
YODOROGO
100
AcDbCircle
 10
11345.38040618545
 20
677.9492284624735
 30
0.0
 40
143.2075740771177
100
AcDbArc
 50
213.9611167766784
 51
264.4787207431779
  0
LINE
  5
277E7
330
27695
100
AcDbEntity
  8
YODOROGO
100
AcDbLine
 10
10797.60162798446
 20
682.4060611609829
 30
0.0
 11
10662.60162798446
 21
682.4060611609829
 31
0.0
  0
LINE
  5
277E8
330
27695
100
AcDbEntity
  8
YODOROGO
100
AcDbLine
 10
10692.60162798446
 20
535.4060611609829
 30
0.0
 11
10797.60162798446
 21
535.4060611609829
 31
0.0
  0
LINE
  5
277E9
330
27695
100
AcDbEntity
  8
YODOROGO
100
AcDbLine
 10
10773.60162798447
 20
721.4060611609824
 30
0.0
 11
10686.60162798446
 21
721.4060611609824
 31
0.0
  0
LINE
  5
277EA
330
27695
100
AcDbEntity
  8
YODOROGO
100
AcDbLine
 10
10719.60162798446
 20
760.4060611609829
 30
0.0
 11
10746.60162798447
 21
760.4060611609829
 31
0.0
  0
LINE
  5
277EB
330
27695
100
AcDbEntity
  8
YODOROGO
100
AcDbLine
 10
10662.60162798446
 20
640.4060611609828
 30
0.0
 11
10662.60162798446
 21
565.4060611609828
 31
0.0
  0
LINE
  5
277EC
330
27695
100
AcDbEntity
  8
YODOROGO
100
AcDbLine
 10
10686.60162798446
 20
586.4060611609825
 30
0.0
 11
10686.60162798446
 21
640.4060611609828
 31
0.0
  0
LINE
  5
277ED
330
27695
100
AcDbEntity
  8
YODOROGO
100
AcDbLine
 10
10719.60162798446
 20
655.4060611609838
 30
0.0
 11
10719.60162798446
 21
580.406061160983
 31
0.0
  0
LINE
  5
277EE
330
27695
100
AcDbEntity
  8
YODOROGO
100
AcDbLine
 10
10446.60162798447
 20
631.4060611609833
 30
0.0
 11
10416.60162798446
 21
607.4896552667143
 31
0.0
  0
LINE
  5
277EF
330
27695
100
AcDbEntity
  8
YODOROGO
100
AcDbLine
 10
10476.60162798446
 20
607.4896552667143
 30
0.0
 11
10446.60162798447
 21
631.4060611609833
 31
0.0
  0
LINE
  5
277F0
330
27695
100
AcDbEntity
  8
YODOROGO
100
AcDbLine
 10
10446.60162798447
 20
640.4060611609828
 30
0.0
 11
10476.60162798446
 21
616.4896552667137
 31
0.0
  0
LINE
  5
277F1
330
27695
100
AcDbEntity
  8
YODOROGO
100
AcDbLine
 10
10416.60162798446
 20
616.4896552667137
 30
0.0
 11
10446.60162798447
 21
640.4060611609828
 31
0.0
  0
LINE
  5
277F2
330
27695
100
AcDbEntity
  8
YODOROGO
100
AcDbLine
 10
10515.34245150633
 20
622.406061160983
 30
0.0
 11
10515.34245150633
 21
631.4060611609825
 31
0.0
  0
LINE
  5
277F3
330
27695
100
AcDbEntity
  8
YODOROGO
100
AcDbLine
 10
10491.60162798447
 20
631.4060611609825
 30
0.0
 11
10491.60162798447
 21
625.4060611609819
 31
0.0
  0
LINE
  5
277F4
330
27695
100
AcDbEntity
  8
YODOROGO
100
AcDbLine
 10
10536.8008200866
 20
640.4060611609828
 30
0.0
 11
10536.8008200866
 21
620.813863977996
 31
0.0
1001
AUTOCAD_POSTSCRIPT_FIGURE
1002
{
1000
PSFILL
1000
Grayscale
1000
Grayscale
1070
   100
1002
}
  0
LINE
  5
277F5
330
27695
100
AcDbEntity
  8
YODOROGO
100
AcDbLine
 10
10530.80082008658
 20
620.813863977996
 30
0.0
 11
10530.80082008658
 21
640.4060611609828
 31
0.0
1001
AUTOCAD_POSTSCRIPT_FIGURE
1002
{
1000
PSFILL
1000
Grayscale
1000
Grayscale
1070
   100
1002
}
  0
LINE
  5
277F6
330
27695
100
AcDbEntity
  8
YODOROGO
100
AcDbLine
 10
10428.60162798447
 20
603.2894640162218
 30
0.0
 11
10428.60162798447
 21
612.2894640162221
 31
0.0
  0
LINE
  5
277F7
330
27695
100
AcDbEntity
  8
YODOROGO
100
AcDbLine
 10
10464.60162798447
 20
603.2894640162218
 30
0.0
 11
10428.60162798447
 21
603.2894640162218
 31
0.0
  0
LINE
  5
277F8
330
27695
100
AcDbEntity
  8
YODOROGO
100
AcDbLine
 10
10464.60162798447
 20
612.2894640162221
 30
0.0
 11
10464.60162798447
 21
603.2894640162218
 31
0.0
  0
LINE
  5
277F9
330
27695
100
AcDbEntity
  8
YODOROGO
100
AcDbLine
 10
10428.60162798447
 20
612.2894640162221
 30
0.0
 11
10464.60162798447
 21
612.2894640162221
 31
0.0
  0
LINE
  5
277FA
330
27695
100
AcDbEntity
  8
YODOROGO
100
AcDbLine
 10
10434.1910958434
 20
588.1885715139279
 30
0.0
 11
10419.60162798446
 21
553.4060611609827
 31
0.0
1001
AUTOCAD_POSTSCRIPT_FIGURE
1002
{
1000
PSFILL
1000
Grayscale
1000
Grayscale
1070
   100
1002
}
  0
LINE
  5
277FB
330
27695
100
AcDbEntity
  8
YODOROGO
100
AcDbLine
 10
10416.60162798446
 20
588.1885715139279
 30
0.0
 11
10434.1910958434
 21
588.1885715139279
 31
0.0
1001
AUTOCAD_POSTSCRIPT_FIGURE
1002
{
1000
PSFILL
1000
Grayscale
1000
Grayscale
1070
   100
1002
}
  0
LINE
  5
277FC
330
27695
100
AcDbEntity
  8
YODOROGO
100
AcDbLine
 10
10416.60162798446
 20
595.688571513928
 30
0.0
 11
10416.60162798446
 21
588.1885715139279
 31
0.0
1001
AUTOCAD_POSTSCRIPT_FIGURE
1002
{
1000
PSFILL
1000
Grayscale
1000
Grayscale
1070
   100
1002
}
  0
LINE
  5
277FD
330
27695
100
AcDbEntity
  8
YODOROGO
100
AcDbLine
 10
10476.60162798446
 20
595.688571513928
 30
0.0
 11
10416.60162798446
 21
595.688571513928
 31
0.0
1001
AUTOCAD_POSTSCRIPT_FIGURE
1002
{
1000
PSFILL
1000
Grayscale
1000
Grayscale
1070
   100
1002
}
  0
LINE
  5
277FE
330
27695
100
AcDbEntity
  8
YODOROGO
100
AcDbLine
 10
10476.60162798446
 20
588.1885715139279
 30
0.0
 11
10476.60162798446
 21
595.688571513928
 31
0.0
1001
AUTOCAD_POSTSCRIPT_FIGURE
1002
{
1000
PSFILL
1000
Grayscale
1000
Grayscale
1070
   100
1002
}
  0
LINE
  5
277FF
330
27695
100
AcDbEntity
  8
YODOROGO
100
AcDbLine
 10
10441.69109584339
 20
588.1885715139279
 30
0.0
 11
10476.60162798446
 21
588.1885715139279
 31
0.0
1001
AUTOCAD_POSTSCRIPT_FIGURE
1002
{
1000
PSFILL
1000
Grayscale
1000
Grayscale
1070
   100
1002
}
  0
LINE
  5
27800
330
27695
100
AcDbEntity
  8
YODOROGO
100
AcDbLine
 10
10430.83001935679
 20
560.9060611609827
 30
0.0
 11
10441.69109584339
 21
588.1885715139279
 31
0.0
1001
AUTOCAD_POSTSCRIPT_FIGURE
1002
{
1000
PSFILL
1000
Grayscale
1000
Grayscale
1070
   100
1002
}
  0
LINE
  5
27801
330
27695
100
AcDbEntity
  8
YODOROGO
100
AcDbLine
 10
10463.27054655324
 20
560.9060611609827
 30
0.0
 11
10430.83001935679
 21
560.9060611609827
 31
0.0
1001
AUTOCAD_POSTSCRIPT_FIGURE
1002
{
1000
PSFILL
1000
Grayscale
1000
Grayscale
1070
   100
1002
}
  0
LINE
  5
27802
330
27695
100
AcDbEntity
  8
YODOROGO
100
AcDbLine
 10
10456.8993767966
 20
576.0876790116348
 30
0.0
 11
10463.27054655324
 21
560.9060611609827
 31
0.0
1001
AUTOCAD_POSTSCRIPT_FIGURE
1002
{
1000
PSFILL
1000
Grayscale
1000
Grayscale
1070
   100
1002
}
  0
LINE
  5
27803
330
27695
100
AcDbEntity
  8
YODOROGO
100
AcDbLine
 10
10462.8993767966
 20
576.0876790116348
 30
0.0
 11
10456.8993767966
 21
576.0876790116348
 31
0.0
1001
AUTOCAD_POSTSCRIPT_FIGURE
1002
{
1000
PSFILL
1000
Grayscale
1000
Grayscale
1070
   100
1002
}
  0
LINE
  5
27804
330
27695
100
AcDbEntity
  8
YODOROGO
100
AcDbLine
 10
10473.60162798447
 20
553.4060611609827
 30
0.0
 11
10462.8993767966
 21
576.0876790116348
 31
0.0
1001
AUTOCAD_POSTSCRIPT_FIGURE
1002
{
1000
PSFILL
1000
Grayscale
1000
Grayscale
1070
   100
1002
}
  0
LINE
  5
27805
330
27695
100
AcDbEntity
  8
YODOROGO
100
AcDbLine
 10
10419.60162798446
 20
553.4060611609827
 30
0.0
 11
10473.60162798447
 21
553.4060611609827
 31
0.0
1001
AUTOCAD_POSTSCRIPT_FIGURE
1002
{
1000
PSFILL
1000
Grayscale
1000
Grayscale
1070
   100
1002
}
  0
LINE
  5
27806
330
27695
100
AcDbEntity
  8
YODOROGO
100
AcDbLine
 10
10416.60162798446
 20
607.4896552667143
 30
0.0
 11
10416.60162798446
 21
616.4896552667137
 31
0.0
  0
LINE
  5
27807
330
27695
100
AcDbEntity
  8
YODOROGO
100
AcDbLine
 10
10476.60162798446
 20
616.4896552667137
 30
0.0
 11
10476.60162798446
 21
607.4896552667143
 31
0.0
  0
ARC
  5
27808
330
27695
100
AcDbEntity
  8
YODOROGO
100
AcDbCircle
 10
10584.72766580511
 20
600.3291619969972
 30
0.0
 40
65.99999999999997
100
AcDbArc
 50
280.3644312771313
 51
3.541483659218056
  0
ARC
  5
27809
330
27695
100
AcDbEntity
  8
YODOROGO
100
AcDbCircle
 10
10588.40851153474
 20
612.5991776107142
 30
0.0
 40
41.99999999999936
100
AcDbArc
 50
281.2490582504155
 51
348.7509417495832
  0
LINE
  5
2780A
330
27695
100
AcDbEntity
  8
YODOROGO
100
AcDbLine
 10
10596.60162798446
 20
571.4060611609824
 30
0.0
 11
10596.60162798446
 21
535.4060611609829
 31
0.0
  0
LINE
  5
2780B
330
27695
100
AcDbEntity
  8
YODOROGO
100
AcDbLine
 10
10507.53333890132
 20
603.9939618982182
 30
0.0
 11
10515.34245150633
 21
622.406061160983
 31
0.0
  0
LINE
  5
2780C
330
27695
100
AcDbEntity
  8
YODOROGO
100
AcDbLine
 10
10515.60162798446
 20
593.6701837306505
 30
0.0
 11
10507.53333890132
 21
603.9939618982182
 31
0.0
  0
LINE
  5
2780D
330
27695
100
AcDbEntity
  8
YODOROGO
100
AcDbLine
 10
10515.60162798446
 20
586.1701837306497
 30
0.0
 11
10515.60162798446
 21
593.6701837306505
 31
0.0
  0
LINE
  5
2780E
330
27695
100
AcDbEntity
  8
YODOROGO
100
AcDbLine
 10
10506.60162798447
 20
594.4638989060739
 30
0.0
 11
10515.60162798446
 21
586.1701837306497
 31
0.0
  0
LINE
  5
2780F
330
27695
100
AcDbEntity
  8
YODOROGO
100
AcDbLine
 10
10506.60162798447
 20
553.4060611609827
 30
0.0
 11
10506.60162798447
 21
594.4638989060739
 31
0.0
  0
LINE
  5
27810
330
27695
100
AcDbEntity
  8
YODOROGO
100
AcDbLine
 10
10500.60162798446
 20
553.4060611609827
 30
0.0
 11
10506.60162798447
 21
553.4060611609827
 31
0.0
  0
LINE
  5
27811
330
27695
100
AcDbEntity
  8
YODOROGO
100
AcDbLine
 10
10500.60162798446
 20
592.5020061336555
 30
0.0
 11
10500.60162798446
 21
553.4060611609827
 31
0.0
  0
LINE
  5
27812
330
27695
100
AcDbEntity
  8
YODOROGO
100
AcDbLine
 10
10491.60162798447
 20
574.7880296375358
 30
0.0
 11
10500.60162798446
 21
592.5020061336555
 31
0.0
  0
LINE
  5
27813
330
27695
100
AcDbEntity
  8
YODOROGO
100
AcDbLine
 10
10491.60162798447
 20
583.788029637536
 30
0.0
 11
10491.60162798447
 21
574.7880296375358
 31
0.0
  0
LINE
  5
27814
330
27695
100
AcDbEntity
  8
YODOROGO
100
AcDbLine
 10
10509.68579035926
 20
625.4060611609819
 30
0.0
 11
10491.60162798447
 21
583.788029637536
 31
0.0
  0
LINE
  5
27815
330
27695
100
AcDbEntity
  8
YODOROGO
100
AcDbLine
 10
10491.60162798447
 20
625.4060611609819
 30
0.0
 11
10509.68579035926
 21
625.4060611609819
 31
0.0
  0
LINE
  5
27816
330
27695
100
AcDbEntity
  8
YODOROGO
100
AcDbLine
 10
10518.80082008659
 20
620.813863977996
 30
0.0
 11
10530.80082008658
 21
620.813863977996
 31
0.0
1001
AUTOCAD_POSTSCRIPT_FIGURE
1002
{
1000
PSFILL
1000
Grayscale
1000
Grayscale
1070
   100
1002
}
  0
LINE
  5
27817
330
27695
100
AcDbEntity
  8
YODOROGO
100
AcDbLine
 10
10518.80082008659
 20
611.8138639779965
 30
0.0
 11
10518.80082008659
 21
620.813863977996
 31
0.0
1001
AUTOCAD_POSTSCRIPT_FIGURE
1002
{
1000
PSFILL
1000
Grayscale
1000
Grayscale
1070
   100
1002
}
  0
LINE
  5
27818
330
27695
100
AcDbEntity
  8
YODOROGO
100
AcDbLine
 10
10530.80082008658
 20
611.8138639779965
 30
0.0
 11
10518.80082008659
 21
611.8138639779965
 31
0.0
1001
AUTOCAD_POSTSCRIPT_FIGURE
1002
{
1000
PSFILL
1000
Grayscale
1000
Grayscale
1070
   100
1002
}
  0
LINE
  5
27819
330
27695
100
AcDbEntity
  8
YODOROGO
100
AcDbLine
 10
10530.80082008658
 20
562.4060611609831
 30
0.0
 11
10530.80082008658
 21
611.8138639779965
 31
0.0
1001
AUTOCAD_POSTSCRIPT_FIGURE
1002
{
1000
PSFILL
1000
Grayscale
1000
Grayscale
1070
   100
1002
}
  0
LINE
  5
2781A
330
27695
100
AcDbEntity
  8
YODOROGO
100
AcDbLine
 10
10518.8008200866
 20
562.4060611609831
 30
0.0
 11
10530.80082008658
 21
562.4060611609831
 31
0.0
1001
AUTOCAD_POSTSCRIPT_FIGURE
1002
{
1000
PSFILL
1000
Grayscale
1000
Grayscale
1070
   100
1002
}
  0
LINE
  5
2781B
330
27695
100
AcDbEntity
  8
YODOROGO
100
AcDbLine
 10
10518.8008200866
 20
553.4060611609827
 30
0.0
 11
10518.8008200866
 21
562.4060611609831
 31
0.0
1001
AUTOCAD_POSTSCRIPT_FIGURE
1002
{
1000
PSFILL
1000
Grayscale
1000
Grayscale
1070
   100
1002
}
  0
LINE
  5
2781C
330
27695
100
AcDbEntity
  8
YODOROGO
100
AcDbLine
 10
10551.60162798447
 20
553.4060611609827
 30
0.0
 11
10518.8008200866
 21
553.4060611609827
 31
0.0
1001
AUTOCAD_POSTSCRIPT_FIGURE
1002
{
1000
PSFILL
1000
Grayscale
1000
Grayscale
1070
   100
1002
}
  0
LINE
  5
2781D
330
27695
100
AcDbEntity
  8
YODOROGO
100
AcDbLine
 10
10551.60162798447
 20
562.4060611609831
 30
0.0
 11
10551.60162798447
 21
553.4060611609827
 31
0.0
1001
AUTOCAD_POSTSCRIPT_FIGURE
1002
{
1000
PSFILL
1000
Grayscale
1000
Grayscale
1070
   100
1002
}
  0
LINE
  5
2781E
330
27695
100
AcDbEntity
  8
YODOROGO
100
AcDbLine
 10
10536.8008200866
 20
562.4060611609831
 30
0.0
 11
10551.60162798447
 21
562.4060611609831
 31
0.0
1001
AUTOCAD_POSTSCRIPT_FIGURE
1002
{
1000
PSFILL
1000
Grayscale
1000
Grayscale
1070
   100
1002
}
  0
LINE
  5
2781F
330
27695
100
AcDbEntity
  8
YODOROGO
100
AcDbLine
 10
10536.8008200866
 20
611.8138639779965
 30
0.0
 11
10536.8008200866
 21
562.4060611609831
 31
0.0
1001
AUTOCAD_POSTSCRIPT_FIGURE
1002
{
1000
PSFILL
1000
Grayscale
1000
Grayscale
1070
   100
1002
}
  0
LINE
  5
27820
330
27695
100
AcDbEntity
  8
YODOROGO
100
AcDbLine
 10
10551.60162798447
 20
611.8138639779965
 30
0.0
 11
10536.8008200866
 21
611.8138639779965
 31
0.0
1001
AUTOCAD_POSTSCRIPT_FIGURE
1002
{
1000
PSFILL
1000
Grayscale
1000
Grayscale
1070
   100
1002
}
  0
LINE
  5
27821
330
27695
100
AcDbEntity
  8
YODOROGO
100
AcDbLine
 10
10551.60162798447
 20
620.813863977996
 30
0.0
 11
10551.60162798447
 21
611.8138639779965
 31
0.0
1001
AUTOCAD_POSTSCRIPT_FIGURE
1002
{
1000
PSFILL
1000
Grayscale
1000
Grayscale
1070
   100
1002
}
  0
LINE
  5
27822
330
27695
100
AcDbEntity
  8
YODOROGO
100
AcDbLine
 10
10536.8008200866
 20
620.813863977996
 30
0.0
 11
10551.60162798447
 21
620.813863977996
 31
0.0
1001
AUTOCAD_POSTSCRIPT_FIGURE
1002
{
1000
PSFILL
1000
Grayscale
1000
Grayscale
1070
   100
1002
}
  0
LINE
  5
27823
330
27695
100
AcDbEntity
  8
YODOROGO
100
AcDbLine
 10
10650.60162798447
 20
625.406061160983
 30
0.0
 11
10629.60162798447
 21
625.406061160983
 31
0.0
  0
LINE
  5
27824
330
27695
100
AcDbEntity
  8
YODOROGO
100
AcDbLine
 10
10650.60162798447
 20
604.4060611609832
 30
0.0
 11
10650.60162798447
 21
625.406061160983
 31
0.0
  0
LINE
  5
27825
330
27695
100
AcDbEntity
  8
YODOROGO
100
AcDbLine
 10
10629.60162798447
 20
625.406061160983
 30
0.0
 11
10629.60162798447
 21
604.4060611609832
 31
0.0
  0
ARC
  5
27826
330
27695
100
AcDbEntity
  8
YODOROGO
100
AcDbCircle
 10
10692.60162798446
 20
565.4060611609828
 30
0.0
 40
30.0
100
AcDbArc
 50
180.0
 51
270.0
  0
ARC
  5
27827
330
27695
100
AcDbEntity
  8
YODOROGO
100
AcDbCircle
 10
10701.60162798446
 20
586.4060611609825
 30
0.0
 40
15.0
100
AcDbArc
 50
180.0
 51
270.0
  0
LINE
  5
27828
330
27695
100
AcDbEntity
  8
YODOROGO
100
AcDbLine
 10
10710.60162798447
 20
571.4060611609824
 30
0.0
 11
10701.60162798446
 21
571.4060611609824
 31
0.0
  0
ARC
  5
27829
330
27695
100
AcDbEntity
  8
YODOROGO
100
AcDbCircle
 10
10710.60162798447
 20
580.4060611609819
 30
0.0
 40
8.999999999998637
100
AcDbArc
 50
270.0
 51
0.0000000000054281
  0
LINE
  5
2782A
330
27695
100
AcDbEntity
  8
YODOROGO
100
AcDbLine
 10
10425.60162798447
 20
709.0449677976399
 30
0.0
 11
10416.60162798446
 21
691.4162804818772
 31
0.0
1001
AUTOCAD_POSTSCRIPT_FIGURE
1002
{
1000
PSFILL
1000
Grayscale
1000
Grayscale
1070
   100
1002
}
  0
LINE
  5
2782B
330
27695
100
AcDbEntity
  8
YODOROGO
100
AcDbLine
 10
10425.60162798447
 20
655.406061160983
 30
0.0
 11
10425.60162798447
 21
709.0449677976399
 31
0.0
1001
AUTOCAD_POSTSCRIPT_FIGURE
1002
{
1000
PSFILL
1000
Grayscale
1000
Grayscale
1070
   100
1002
}
  0
LINE
  5
2782C
330
27695
100
AcDbEntity
  8
YODOROGO
100
AcDbLine
 10
10431.60162798447
 20
655.406061160983
 30
0.0
 11
10425.60162798447
 21
655.406061160983
 31
0.0
1001
AUTOCAD_POSTSCRIPT_FIGURE
1002
{
1000
PSFILL
1000
Grayscale
1000
Grayscale
1070
   100
1002
}
  0
LINE
  5
2782D
330
27695
100
AcDbEntity
  8
YODOROGO
100
AcDbLine
 10
10431.60162798447
 20
710.1642495319751
 30
0.0
 11
10431.60162798447
 21
655.406061160983
 31
0.0
1001
AUTOCAD_POSTSCRIPT_FIGURE
1002
{
1000
PSFILL
1000
Grayscale
1000
Grayscale
1070
   100
1002
}
  0
LINE
  5
2782E
330
27695
100
AcDbEntity
  8
YODOROGO
100
AcDbLine
 10
10440.60162798446
 20
700.3705343565512
 30
0.0
 11
10431.60162798447
 21
710.1642495319751
 31
0.0
1001
AUTOCAD_POSTSCRIPT_FIGURE
1002
{
1000
PSFILL
1000
Grayscale
1000
Grayscale
1070
   100
1002
}
  0
LINE
  5
2782F
330
27695
100
AcDbEntity
  8
YODOROGO
100
AcDbLine
 10
10440.60162798446
 20
706.3705343565509
 30
0.0
 11
10440.60162798446
 21
700.3705343565512
 31
0.0
1001
AUTOCAD_POSTSCRIPT_FIGURE
1002
{
1000
PSFILL
1000
Grayscale
1000
Grayscale
1070
   100
1002
}
  0
LINE
  5
27830
330
27695
100
AcDbEntity
  8
YODOROGO
100
AcDbLine
 10
10431.60162798447
 20
719.1642495319745
 30
0.0
 11
10440.60162798446
 21
706.3705343565509
 31
0.0
1001
AUTOCAD_POSTSCRIPT_FIGURE
1002
{
1000
PSFILL
1000
Grayscale
1000
Grayscale
1070
   100
1002
}
  0
LINE
  5
27831
330
27695
100
AcDbEntity
  8
YODOROGO
100
AcDbLine
 10
10431.60162798447
 20
727.4060611609828
 30
0.0
 11
10431.60162798447
 21
719.1642495319745
 31
0.0
1001
AUTOCAD_POSTSCRIPT_FIGURE
1002
{
1000
PSFILL
1000
Grayscale
1000
Grayscale
1070
   100
1002
}
  0
LINE
  5
27832
330
27695
100
AcDbEntity
  8
YODOROGO
100
AcDbLine
 10
10458.60162798446
 20
727.4060611609828
 30
0.0
 11
10431.60162798447
 21
727.4060611609828
 31
0.0
1001
AUTOCAD_POSTSCRIPT_FIGURE
1002
{
1000
PSFILL
1000
Grayscale
1000
Grayscale
1070
   100
1002
}
  0
LINE
  5
27833
330
27695
100
AcDbEntity
  8
YODOROGO
100
AcDbLine
 10
10458.60162798446
 20
712.7131308511124
 30
0.0
 11
10458.60162798446
 21
727.4060611609828
 31
0.0
1001
AUTOCAD_POSTSCRIPT_FIGURE
1002
{
1000
PSFILL
1000
Grayscale
1000
Grayscale
1070
   100
1002
}
  0
LINE
  5
27834
330
27695
100
AcDbEntity
  8
YODOROGO
100
AcDbLine
 10
10446.60162798447
 20
712.7131308511124
 30
0.0
 11
10458.60162798446
 21
712.7131308511124
 31
0.0
1001
AUTOCAD_POSTSCRIPT_FIGURE
1002
{
1000
PSFILL
1000
Grayscale
1000
Grayscale
1070
   100
1002
}
  0
LINE
  5
27835
330
27695
100
AcDbEntity
  8
YODOROGO
100
AcDbLine
 10
10446.60162798447
 20
706.7131308511119
 30
0.0
 11
10446.60162798447
 21
712.7131308511124
 31
0.0
1001
AUTOCAD_POSTSCRIPT_FIGURE
1002
{
1000
PSFILL
1000
Grayscale
1000
Grayscale
1070
   100
1002
}
  0
LINE
  5
27836
330
27695
100
AcDbEntity
  8
YODOROGO
100
AcDbLine
 10
10458.60162798446
 20
706.7131308511119
 30
0.0
 11
10446.60162798447
 21
706.7131308511119
 31
0.0
1001
AUTOCAD_POSTSCRIPT_FIGURE
1002
{
1000
PSFILL
1000
Grayscale
1000
Grayscale
1070
   100
1002
}
  0
LINE
  5
27837
330
27695
100
AcDbEntity
  8
YODOROGO
100
AcDbLine
 10
10458.60162798446
 20
704.8571917366647
 30
0.0
 11
10458.60162798446
 21
706.7131308511119
 31
0.0
1001
AUTOCAD_POSTSCRIPT_FIGURE
1002
{
1000
PSFILL
1000
Grayscale
1000
Grayscale
1070
   100
1002
}
  0
LINE
  5
27838
330
27695
100
AcDbEntity
  8
YODOROGO
100
AcDbLine
 10
10443.60162798447
 20
679.8656179355313
 30
0.0
 11
10458.60162798446
 21
704.8571917366647
 31
0.0
1001
AUTOCAD_POSTSCRIPT_FIGURE
1002
{
1000
PSFILL
1000
Grayscale
1000
Grayscale
1070
   100
1002
}
  0
LINE
  5
27839
330
27695
100
AcDbEntity
  8
YODOROGO
100
AcDbLine
 10
10443.60162798447
 20
673.8656179355309
 30
0.0
 11
10443.60162798447
 21
679.8656179355313
 31
0.0
1001
AUTOCAD_POSTSCRIPT_FIGURE
1002
{
1000
PSFILL
1000
Grayscale
1000
Grayscale
1070
   100
1002
}
  0
LINE
  5
2783A
330
27695
100
AcDbEntity
  8
YODOROGO
100
AcDbLine
 10
10458.60162798446
 20
692.8571917366638
 30
0.0
 11
10443.60162798447
 21
673.8656179355309
 31
0.0
1001
AUTOCAD_POSTSCRIPT_FIGURE
1002
{
1000
PSFILL
1000
Grayscale
1000
Grayscale
1070
   100
1002
}
  0
LINE
  5
2783B
330
27695
100
AcDbEntity
  8
YODOROGO
100
AcDbLine
 10
10458.60162798446
 20
655.406061160983
 30
0.0
 11
10458.60162798446
 21
692.8571917366638
 31
0.0
1001
AUTOCAD_POSTSCRIPT_FIGURE
1002
{
1000
PSFILL
1000
Grayscale
1000
Grayscale
1070
   100
1002
}
  0
LINE
  5
2783C
330
27695
100
AcDbEntity
  8
YODOROGO
100
AcDbLine
 10
10464.60162798447
 20
655.406061160983
 30
0.0
 11
10458.60162798446
 21
655.406061160983
 31
0.0
1001
AUTOCAD_POSTSCRIPT_FIGURE
1002
{
1000
PSFILL
1000
Grayscale
1000
Grayscale
1070
   100
1002
}
  0
LINE
  5
2783D
330
27695
100
AcDbEntity
  8
YODOROGO
100
AcDbLine
 10
10464.60162798447
 20
693.5283795595521
 30
0.0
 11
10464.60162798447
 21
655.406061160983
 31
0.0
1001
AUTOCAD_POSTSCRIPT_FIGURE
1002
{
1000
PSFILL
1000
Grayscale
1000
Grayscale
1070
   100
1002
}
  0
LINE
  5
2783E
330
27695
100
AcDbEntity
  8
YODOROGO
100
AcDbLine
 10
10476.60162798446
 20
673.8656179355309
 30
0.0
 11
10464.60162798447
 21
693.5283795595521
 31
0.0
1001
AUTOCAD_POSTSCRIPT_FIGURE
1002
{
1000
PSFILL
1000
Grayscale
1000
Grayscale
1070
   100
1002
}
  0
LINE
  5
2783F
330
27695
100
AcDbEntity
  8
YODOROGO
100
AcDbLine
 10
10476.60162798446
 20
679.8656179355313
 30
0.0
 11
10476.60162798446
 21
673.8656179355309
 31
0.0
1001
AUTOCAD_POSTSCRIPT_FIGURE
1002
{
1000
PSFILL
1000
Grayscale
1000
Grayscale
1070
   100
1002
}
  0
LINE
  5
27840
330
27695
100
AcDbEntity
  8
YODOROGO
100
AcDbLine
 10
10464.60162798447
 20
705.5283795595531
 30
0.0
 11
10476.60162798446
 21
679.8656179355313
 31
0.0
1001
AUTOCAD_POSTSCRIPT_FIGURE
1002
{
1000
PSFILL
1000
Grayscale
1000
Grayscale
1070
   100
1002
}
  0
LINE
  5
27841
330
27695
100
AcDbEntity
  8
YODOROGO
100
AcDbLine
 10
10464.60162798447
 20
706.7131308511128
 30
0.0
 11
10464.60162798447
 21
705.5283795595531
 31
0.0
1001
AUTOCAD_POSTSCRIPT_FIGURE
1002
{
1000
PSFILL
1000
Grayscale
1000
Grayscale
1070
   100
1002
}
  0
LINE
  5
27842
330
27695
100
AcDbEntity
  8
YODOROGO
100
AcDbLine
 10
10476.60162798446
 20
706.7131308511119
 30
0.0
 11
10464.60162798447
 21
706.7131308511128
 31
0.0
1001
AUTOCAD_POSTSCRIPT_FIGURE
1002
{
1000
PSFILL
1000
Grayscale
1000
Grayscale
1070
   100
1002
}
  0
LINE
  5
27843
330
27695
100
AcDbEntity
  8
YODOROGO
100
AcDbLine
 10
10476.60162798446
 20
712.7131308511124
 30
0.0
 11
10476.60162798446
 21
706.7131308511119
 31
0.0
1001
AUTOCAD_POSTSCRIPT_FIGURE
1002
{
1000
PSFILL
1000
Grayscale
1000
Grayscale
1070
   100
1002
}
  0
LINE
  5
27844
330
27695
100
AcDbEntity
  8
YODOROGO
100
AcDbLine
 10
10464.60162798447
 20
712.7131308511124
 30
0.0
 11
10476.60162798446
 21
712.7131308511124
 31
0.0
1001
AUTOCAD_POSTSCRIPT_FIGURE
1002
{
1000
PSFILL
1000
Grayscale
1000
Grayscale
1070
   100
1002
}
  0
LINE
  5
27845
330
27695
100
AcDbEntity
  8
YODOROGO
100
AcDbLine
 10
10464.60162798447
 20
727.4060611609828
 30
0.0
 11
10464.60162798447
 21
712.7131308511124
 31
0.0
1001
AUTOCAD_POSTSCRIPT_FIGURE
1002
{
1000
PSFILL
1000
Grayscale
1000
Grayscale
1070
   100
1002
}
  0
LINE
  5
27846
330
27695
100
AcDbEntity
  8
YODOROGO
100
AcDbLine
 10
10476.60162798446
 20
727.4060611609828
 30
0.0
 11
10464.60162798447
 21
727.4060611609828
 31
0.0
1001
AUTOCAD_POSTSCRIPT_FIGURE
1002
{
1000
PSFILL
1000
Grayscale
1000
Grayscale
1070
   100
1002
}
  0
LINE
  5
27847
330
27695
100
AcDbEntity
  8
YODOROGO
100
AcDbLine
 10
10476.60162798446
 20
733.4060611609828
 30
0.0
 11
10476.60162798446
 21
727.4060611609828
 31
0.0
1001
AUTOCAD_POSTSCRIPT_FIGURE
1002
{
1000
PSFILL
1000
Grayscale
1000
Grayscale
1070
   100
1002
}
  0
LINE
  5
27848
330
27695
100
AcDbEntity
  8
YODOROGO
100
AcDbLine
 10
10464.60162798447
 20
733.4060611609828
 30
0.0
 11
10476.60162798446
 21
733.4060611609828
 31
0.0
1001
AUTOCAD_POSTSCRIPT_FIGURE
1002
{
1000
PSFILL
1000
Grayscale
1000
Grayscale
1070
   100
1002
}
  0
LINE
  5
27849
330
27695
100
AcDbEntity
  8
YODOROGO
100
AcDbLine
 10
10464.60162798447
 20
742.4060611609832
 30
0.0
 11
10464.60162798447
 21
733.4060611609828
 31
0.0
1001
AUTOCAD_POSTSCRIPT_FIGURE
1002
{
1000
PSFILL
1000
Grayscale
1000
Grayscale
1070
   100
1002
}
  0
LINE
  5
2784A
330
27695
100
AcDbEntity
  8
YODOROGO
100
AcDbLine
 10
10458.60162798446
 20
742.4060611609832
 30
0.0
 11
10464.60162798447
 21
742.4060611609832
 31
0.0
1001
AUTOCAD_POSTSCRIPT_FIGURE
1002
{
1000
PSFILL
1000
Grayscale
1000
Grayscale
1070
   100
1002
}
  0
LINE
  5
2784B
330
27695
100
AcDbEntity
  8
YODOROGO
100
AcDbLine
 10
10458.60162798446
 20
733.4060611609828
 30
0.0
 11
10458.60162798446
 21
742.4060611609832
 31
0.0
1001
AUTOCAD_POSTSCRIPT_FIGURE
1002
{
1000
PSFILL
1000
Grayscale
1000
Grayscale
1070
   100
1002
}
  0
LINE
  5
2784C
330
27695
100
AcDbEntity
  8
YODOROGO
100
AcDbLine
 10
10449.60162798447
 20
733.4060611609828
 30
0.0
 11
10458.60162798446
 21
733.4060611609828
 31
0.0
1001
AUTOCAD_POSTSCRIPT_FIGURE
1002
{
1000
PSFILL
1000
Grayscale
1000
Grayscale
1070
   100
1002
}
  0
LINE
  5
2784D
330
27695
100
AcDbEntity
  8
YODOROGO
100
AcDbLine
 10
10449.60162798447
 20
742.4060611609832
 30
0.0
 11
10449.60162798447
 21
733.4060611609828
 31
0.0
1001
AUTOCAD_POSTSCRIPT_FIGURE
1002
{
1000
PSFILL
1000
Grayscale
1000
Grayscale
1070
   100
1002
}
  0
LINE
  5
2784E
330
27695
100
AcDbEntity
  8
YODOROGO
100
AcDbLine
 10
10443.60162798447
 20
742.4060611609832
 30
0.0
 11
10449.60162798447
 21
742.4060611609832
 31
0.0
1001
AUTOCAD_POSTSCRIPT_FIGURE
1002
{
1000
PSFILL
1000
Grayscale
1000
Grayscale
1070
   100
1002
}
  0
LINE
  5
2784F
330
27695
100
AcDbEntity
  8
YODOROGO
100
AcDbLine
 10
10443.60162798447
 20
733.4060611609828
 30
0.0
 11
10443.60162798447
 21
742.4060611609832
 31
0.0
1001
AUTOCAD_POSTSCRIPT_FIGURE
1002
{
1000
PSFILL
1000
Grayscale
1000
Grayscale
1070
   100
1002
}
  0
LINE
  5
27850
330
27695
100
AcDbEntity
  8
YODOROGO
100
AcDbLine
 10
10431.60162798447
 20
733.4060611609828
 30
0.0
 11
10443.60162798447
 21
733.4060611609828
 31
0.0
1001
AUTOCAD_POSTSCRIPT_FIGURE
1002
{
1000
PSFILL
1000
Grayscale
1000
Grayscale
1070
   100
1002
}
  0
LINE
  5
27851
330
27695
100
AcDbEntity
  8
YODOROGO
100
AcDbLine
 10
10431.60162798447
 20
742.4060611609832
 30
0.0
 11
10431.60162798447
 21
733.4060611609828
 31
0.0
1001
AUTOCAD_POSTSCRIPT_FIGURE
1002
{
1000
PSFILL
1000
Grayscale
1000
Grayscale
1070
   100
1002
}
  0
LINE
  5
27852
330
27695
100
AcDbEntity
  8
YODOROGO
100
AcDbLine
 10
10425.60162798447
 20
742.4060611609832
 30
0.0
 11
10431.60162798447
 21
742.4060611609832
 31
0.0
1001
AUTOCAD_POSTSCRIPT_FIGURE
1002
{
1000
PSFILL
1000
Grayscale
1000
Grayscale
1070
   100
1002
}
  0
LINE
  5
27853
330
27695
100
AcDbEntity
  8
YODOROGO
100
AcDbLine
 10
10425.60162798447
 20
733.4060611609828
 30
0.0
 11
10425.60162798447
 21
742.4060611609832
 31
0.0
1001
AUTOCAD_POSTSCRIPT_FIGURE
1002
{
1000
PSFILL
1000
Grayscale
1000
Grayscale
1070
   100
1002
}
  0
LINE
  5
27854
330
27695
100
AcDbEntity
  8
YODOROGO
100
AcDbLine
 10
10416.60162798446
 20
733.4060611609828
 30
0.0
 11
10425.60162798447
 21
733.4060611609828
 31
0.0
1001
AUTOCAD_POSTSCRIPT_FIGURE
1002
{
1000
PSFILL
1000
Grayscale
1000
Grayscale
1070
   100
1002
}
  0
LINE
  5
27855
330
27695
100
AcDbEntity
  8
YODOROGO
100
AcDbLine
 10
10416.60162798446
 20
727.4060611609828
 30
0.0
 11
10416.60162798446
 21
733.4060611609828
 31
0.0
1001
AUTOCAD_POSTSCRIPT_FIGURE
1002
{
1000
PSFILL
1000
Grayscale
1000
Grayscale
1070
   100
1002
}
  0
LINE
  5
27856
330
27695
100
AcDbEntity
  8
YODOROGO
100
AcDbLine
 10
10425.60162798447
 20
727.4060611609828
 30
0.0
 11
10416.60162798446
 21
727.4060611609828
 31
0.0
1001
AUTOCAD_POSTSCRIPT_FIGURE
1002
{
1000
PSFILL
1000
Grayscale
1000
Grayscale
1070
   100
1002
}
  0
LINE
  5
27857
330
27695
100
AcDbEntity
  8
YODOROGO
100
AcDbLine
 10
10425.60162798447
 20
718.0449677976392
 30
0.0
 11
10425.60162798447
 21
727.4060611609828
 31
0.0
1001
AUTOCAD_POSTSCRIPT_FIGURE
1002
{
1000
PSFILL
1000
Grayscale
1000
Grayscale
1070
   100
1002
}
  0
LINE
  5
27858
330
27695
100
AcDbEntity
  8
YODOROGO
100
AcDbLine
 10
10416.60162798446
 20
697.4162804818766
 30
0.0
 11
10425.60162798447
 21
718.0449677976392
 31
0.0
1001
AUTOCAD_POSTSCRIPT_FIGURE
1002
{
1000
PSFILL
1000
Grayscale
1000
Grayscale
1070
   100
1002
}
  0
LINE
  5
27859
330
27695
100
AcDbEntity
  8
YODOROGO
100
AcDbLine
 10
10416.60162798446
 20
691.4162804818772
 30
0.0
 11
10416.60162798446
 21
697.4162804818766
 31
0.0
1001
AUTOCAD_POSTSCRIPT_FIGURE
1002
{
1000
PSFILL
1000
Grayscale
1000
Grayscale
1070
   100
1002
}
  0
LINE
  5
2785A
330
27695
100
AcDbEntity
  8
YODOROGO
100
AcDbLine
 10
10596.60162798446
 20
700.406061160983
 30
0.0
 11
10650.60162798447
 21
684.3291096151149
 31
0.0
1001
AUTOCAD_POSTSCRIPT_FIGURE
1002
{
1000
PSFILL
1000
Grayscale
1000
Grayscale
1070
   100
1002
}
  0
LINE
  5
2785B
330
27695
100
AcDbEntity
  8
YODOROGO
100
AcDbLine
 10
10650.60162798447
 20
657.3291096151146
 30
0.0
 11
10596.60162798446
 21
673.4060611609827
 31
0.0
1001
AUTOCAD_POSTSCRIPT_FIGURE
1002
{
1000
PSFILL
1000
Grayscale
1000
Grayscale
1070
   100
1002
}
  0
LINE
  5
2785C
330
27695
100
AcDbEntity
  8
YODOROGO
100
AcDbLine
 10
10650.60162798447
 20
744.329109615115
 30
0.0
 11
10596.60162798446
 21
760.4060611609829
 31
0.0
1001
AUTOCAD_POSTSCRIPT_FIGURE
1002
{
1000
PSFILL
1000
Grayscale
1000
Grayscale
1070
   100
1002
}
  0
LINE
  5
2785D
330
27695
100
AcDbEntity
  8
YODOROGO
100
AcDbLine
 10
10596.60162798446
 20
734.9060611609829
 30
0.0
 11
10650.60162798447
 21
718.829109615115
 31
0.0
1001
AUTOCAD_POSTSCRIPT_FIGURE
1002
{
1000
PSFILL
1000
Grayscale
1000
Grayscale
1070
   100
1002
}
  0
LINE
  5
2785E
330
27695
100
AcDbEntity
  8
YODOROGO
100
AcDbLine
 10
10596.60162798446
 20
673.4060611609827
 30
0.0
 11
10596.60162798446
 21
700.406061160983
 31
0.0
1001
AUTOCAD_POSTSCRIPT_FIGURE
1002
{
1000
PSFILL
1000
Grayscale
1000
Grayscale
1070
   100
1002
}
  0
LINE
  5
2785F
330
27695
100
AcDbEntity
  8
YODOROGO
100
AcDbLine
 10
10596.60162798446
 20
760.4060611609829
 30
0.0
 11
10596.60162798446
 21
734.9060611609829
 31
0.0
1001
AUTOCAD_POSTSCRIPT_FIGURE
1002
{
1000
PSFILL
1000
Grayscale
1000
Grayscale
1070
   100
1002
}
  0
LINE
  5
27860
330
27695
100
AcDbEntity
  8
YODOROGO
100
AcDbLine
 10
10530.08862007752
 20
727.4060611609828
 30
0.0
 11
10548.60162798447
 21
655.406061160983
 31
0.0
1001
AUTOCAD_POSTSCRIPT_FIGURE
1002
{
1000
PSFILL
1000
Grayscale
1000
Grayscale
1070
   100
1002
}
  0
LINE
  5
27861
330
27695
100
AcDbEntity
  8
YODOROGO
100
AcDbLine
 10
10491.60162798447
 20
727.4060611609828
 30
0.0
 11
10530.08862007752
 21
727.4060611609828
 31
0.0
1001
AUTOCAD_POSTSCRIPT_FIGURE
1002
{
1000
PSFILL
1000
Grayscale
1000
Grayscale
1070
   100
1002
}
  0
LINE
  5
27862
330
27695
100
AcDbEntity
  8
YODOROGO
100
AcDbLine
 10
10491.60162798447
 20
733.4060611609828
 30
0.0
 11
10491.60162798447
 21
727.4060611609828
 31
0.0
1001
AUTOCAD_POSTSCRIPT_FIGURE
1002
{
1000
PSFILL
1000
Grayscale
1000
Grayscale
1070
   100
1002
}
  0
LINE
  5
27863
330
27695
100
AcDbEntity
  8
YODOROGO
100
AcDbLine
 10
10528.72757944497
 20
733.4060611609828
 30
0.0
 11
10491.60162798447
 21
733.4060611609828
 31
0.0
1001
AUTOCAD_POSTSCRIPT_FIGURE
1002
{
1000
PSFILL
1000
Grayscale
1000
Grayscale
1070
   100
1002
}
  0
LINE
  5
27864
330
27695
100
AcDbEntity
  8
YODOROGO
100
AcDbLine
 10
10526.68601849614
 20
742.4060611609832
 30
0.0
 11
10528.72757944497
 21
733.4060611609828
 31
0.0
1001
AUTOCAD_POSTSCRIPT_FIGURE
1002
{
1000
PSFILL
1000
Grayscale
1000
Grayscale
1070
   100
1002
}
  0
LINE
  5
27865
330
27695
100
AcDbEntity
  8
YODOROGO
100
AcDbLine
 10
10534.18601849614
 20
742.4060611609832
 30
0.0
 11
10526.68601849614
 21
742.4060611609832
 31
0.0
1001
AUTOCAD_POSTSCRIPT_FIGURE
1002
{
1000
PSFILL
1000
Grayscale
1000
Grayscale
1070
   100
1002
}
  0
LINE
  5
27866
330
27695
100
AcDbEntity
  8
YODOROGO
100
AcDbLine
 10
10535.92757944497
 20
733.4060611609828
 30
0.0
 11
10534.18601849614
 21
742.4060611609832
 31
0.0
1001
AUTOCAD_POSTSCRIPT_FIGURE
1002
{
1000
PSFILL
1000
Grayscale
1000
Grayscale
1070
   100
1002
}
  0
LINE
  5
27867
330
27695
100
AcDbEntity
  8
YODOROGO
100
AcDbLine
 10
10545.60162798447
 20
733.4060611609828
 30
0.0
 11
10535.92757944497
 21
733.4060611609828
 31
0.0
1001
AUTOCAD_POSTSCRIPT_FIGURE
1002
{
1000
PSFILL
1000
Grayscale
1000
Grayscale
1070
   100
1002
}
  0
LINE
  5
27868
330
27695
100
AcDbEntity
  8
YODOROGO
100
AcDbLine
 10
10545.60162798447
 20
742.4060611609832
 30
0.0
 11
10545.60162798447
 21
733.4060611609828
 31
0.0
1001
AUTOCAD_POSTSCRIPT_FIGURE
1002
{
1000
PSFILL
1000
Grayscale
1000
Grayscale
1070
   100
1002
}
  0
LINE
  5
27869
330
27695
100
AcDbEntity
  8
YODOROGO
100
AcDbLine
 10
10551.60162798447
 20
742.4060611609832
 30
0.0
 11
10545.60162798447
 21
742.4060611609832
 31
0.0
1001
AUTOCAD_POSTSCRIPT_FIGURE
1002
{
1000
PSFILL
1000
Grayscale
1000
Grayscale
1070
   100
1002
}
  0
LINE
  5
2786A
330
27695
100
AcDbEntity
  8
YODOROGO
100
AcDbLine
 10
10551.60162798447
 20
733.4060611609828
 30
0.0
 11
10551.60162798447
 21
742.4060611609832
 31
0.0
1001
AUTOCAD_POSTSCRIPT_FIGURE
1002
{
1000
PSFILL
1000
Grayscale
1000
Grayscale
1070
   100
1002
}
  0
LINE
  5
2786B
330
27695
100
AcDbEntity
  8
YODOROGO
100
AcDbLine
 10
10551.60162798447
 20
727.4060611609828
 30
0.0
 11
10551.60162798447
 21
733.4060611609828
 31
0.0
1001
AUTOCAD_POSTSCRIPT_FIGURE
1002
{
1000
PSFILL
1000
Grayscale
1000
Grayscale
1070
   100
1002
}
  0
LINE
  5
2786C
330
27695
100
AcDbEntity
  8
YODOROGO
100
AcDbLine
 10
10537.08862007752
 20
727.4060611609828
 30
0.0
 11
10551.60162798447
 21
727.4060611609828
 31
0.0
1001
AUTOCAD_POSTSCRIPT_FIGURE
1002
{
1000
PSFILL
1000
Grayscale
1000
Grayscale
1070
   100
1002
}
  0
LINE
  5
2786D
330
27695
100
AcDbEntity
  8
YODOROGO
100
AcDbLine
 10
10551.60162798447
 20
655.406061160983
 30
0.0
 11
10537.08862007752
 21
727.4060611609828
 31
0.0
1001
AUTOCAD_POSTSCRIPT_FIGURE
1002
{
1000
PSFILL
1000
Grayscale
1000
Grayscale
1070
   100
1002
}
  0
LINE
  5
2786E
330
27695
100
AcDbEntity
  8
YODOROGO
100
AcDbLine
 10
10548.60162798447
 20
655.406061160983
 30
0.0
 11
10551.60162798447
 21
655.406061160983
 31
0.0
1001
AUTOCAD_POSTSCRIPT_FIGURE
1002
{
1000
PSFILL
1000
Grayscale
1000
Grayscale
1070
   100
1002
}
  0
LINE
  5
2786F
330
27695
100
AcDbEntity
  8
YODOROGO
100
AcDbLine
 10
10529.27595747517
 20
665.902791112048
 30
0.0
 11
10491.60162798447
 21
655.406061160983
 31
0.0
  0
LINE
  5
27870
330
27695
100
AcDbEntity
  8
YODOROGO
100
AcDbLine
 10
10529.27595747517
 20
674.5008673234024
 30
0.0
 11
10529.27595747517
 21
665.902791112048
 31
0.0
  0
LINE
  5
27871
330
27695
100
AcDbEntity
  8
YODOROGO
100
AcDbLine
 10
10512.68879272982
 20
670.0563499251625
 30
0.0
 11
10529.27595747517
 21
674.5008673234024
 31
0.0
  0
LINE
  5
27872
330
27695
100
AcDbEntity
  8
YODOROGO
100
AcDbLine
 10
10512.68879272982
 20
702.2131308511124
 30
0.0
 11
10512.68879272982
 21
670.0563499251625
 31
0.0
  0
LINE
  5
27873
330
27695
100
AcDbEntity
  8
YODOROGO
100
AcDbLine
 10
10529.27595747517
 20
702.2131308511124
 30
0.0
 11
10512.68879272982
 21
702.2131308511124
 31
0.0
  0
LINE
  5
27874
330
27695
100
AcDbEntity
  8
YODOROGO
100
AcDbLine
 10
10529.27595747517
 20
709.7131308511116
 30
0.0
 11
10529.27595747517
 21
702.2131308511124
 31
0.0
  0
LINE
  5
27875
330
27695
100
AcDbEntity
  8
YODOROGO
100
AcDbLine
 10
10491.60162798447
 20
709.7131308511116
 30
0.0
 11
10529.27595747517
 21
709.7131308511116
 31
0.0
  0
LINE
  5
27876
330
27695
100
AcDbEntity
  8
YODOROGO
100
AcDbLine
 10
10491.60162798447
 20
702.2131308511124
 30
0.0
 11
10491.60162798447
 21
709.7131308511116
 31
0.0
  0
LINE
  5
27877
330
27695
100
AcDbEntity
  8
YODOROGO
100
AcDbLine
 10
10508.18879272982
 20
702.2131308511124
 30
0.0
 11
10491.60162798447
 21
702.2131308511124
 31
0.0
  0
LINE
  5
27878
330
27695
100
AcDbEntity
  8
YODOROGO
100
AcDbLine
 10
10508.18879272982
 20
669.252502347869
 30
0.0
 11
10508.18879272982
 21
702.2131308511124
 31
0.0
  0
LINE
  5
27879
330
27695
100
AcDbEntity
  8
YODOROGO
100
AcDbLine
 10
10491.60162798447
 20
664.4060611609823
 30
0.0
 11
10508.18879272982
 21
669.252502347869
 31
0.0
  0
LINE
  5
2787A
330
27695
100
AcDbEntity
  8
YODOROGO
100
AcDbLine
 10
10491.60162798447
 20
655.406061160983
 30
0.0
 11
10491.60162798447
 21
664.4060611609823
 31
0.0
  0
LINE
  5
2787B
330
27695
100
AcDbEntity
  8
YODOROGO
100
AcDbLine
 10
10500.60162798446
 20
640.4060611609828
 30
0.0
 11
10500.60162798446
 21
631.4060611609825
 31
0.0
  0
LINE
  5
2787C
330
27695
100
AcDbEntity
  8
YODOROGO
100
AcDbLine
 10
10500.60162798446
 20
640.4060611609828
 30
0.0
 11
10500.60162798446
 21
640.4060611609828
 31
0.0
  0
LINE
  5
2787D
330
27695
100
AcDbEntity
  8
YODOROGO
100
AcDbLine
 10
10506.60162798447
 20
640.4060611609828
 30
0.0
 11
10500.60162798446
 21
640.4060611609828
 31
0.0
  0
LINE
  5
2787E
330
27695
100
AcDbEntity
  8
YODOROGO
100
AcDbLine
 10
10506.60162798447
 20
631.4060611609825
 30
0.0
 11
10506.60162798447
 21
640.4060611609828
 31
0.0
  0
LINE
  5
2787F
330
27695
100
AcDbEntity
  8
YODOROGO
100
AcDbLine
 10
10515.34245150633
 20
631.4060611609825
 30
0.0
 11
10506.60162798447
 21
631.4060611609825
 31
0.0
  0
LINE
  5
27880
330
27695
100
AcDbEntity
  8
YODOROGO
100
AcDbLine
 10
10500.60162798446
 20
631.4060611609825
 30
0.0
 11
10491.60162798447
 21
631.4060611609825
 31
0.0
  0
LINE
  5
27881
330
27695
100
AcDbEntity
  8
YODOROGO
100
AcDbLine
 10
10530.80082008658
 20
640.4060611609828
 30
0.0
 11
10536.8008200866
 21
640.4060611609828
 31
0.0
1001
AUTOCAD_POSTSCRIPT_FIGURE
1002
{
1000
PSFILL
1000
Grayscale
1000
Grayscale
1070
   100
1002
}
  0
LINE
  5
27882
330
27695
100
AcDbEntity
  8
YODOROGO
100
AcDbLine
 10
10650.60162798447
 20
684.3291096151149
 30
0.0
 11
10650.60162798447
 21
657.3291096151146
 31
0.0
1001
AUTOCAD_POSTSCRIPT_FIGURE
1002
{
1000
PSFILL
1000
Grayscale
1000
Grayscale
1070
   100
1002
}
  0
LINE
  5
27883
330
27695
100
AcDbEntity
  8
YODOROGO
100
AcDbLine
 10
10650.60162798447
 20
718.829109615115
 30
0.0
 11
10650.60162798447
 21
744.329109615115
 31
0.0
1001
AUTOCAD_POSTSCRIPT_FIGURE
1002
{
1000
PSFILL
1000
Grayscale
1000
Grayscale
1070
   100
1002
}
  0
LINE
  5
27884
330
27695
100
AcDbEntity
  8
YODOROGO
100
AcDbLine
 10
10662.60162798446
 20
682.4060611609829
 30
0.0
 11
10662.60162798446
 21
655.4060611609838
 31
0.0
  0
LINE
  5
27885
330
27695
100
AcDbEntity
  8
YODOROGO
100
AcDbLine
 10
10686.60162798446
 20
640.4060611609828
 30
0.0
 11
10662.60162798446
 21
640.4060611609828
 31
0.0
  0
LINE
  5
27886
330
27695
100
AcDbEntity
  8
YODOROGO
100
AcDbLine
 10
10662.60162798446
 20
655.4060611609838
 30
0.0
 11
10719.60162798446
 21
655.4060611609838
 31
0.0
  0
LINE
  5
27887
330
27695
100
AcDbEntity
  8
YODOROGO
100
AcDbLine
 10
10686.60162798446
 20
700.406061160983
 30
0.0
 11
10662.60162798446
 21
700.406061160983
 31
0.0
  0
LINE
  5
27888
330
27695
100
AcDbEntity
  8
YODOROGO
100
AcDbLine
 10
10686.60162798446
 20
721.4060611609824
 30
0.0
 11
10686.60162798446
 21
700.406061160983
 31
0.0
  0
LINE
  5
27889
330
27695
100
AcDbEntity
  8
YODOROGO
100
AcDbLine
 10
10719.60162798446
 20
745.4060611609828
 30
0.0
 11
10719.60162798446
 21
760.4060611609829
 31
0.0
  0
LINE
  5
2788A
330
27695
100
AcDbEntity
  8
YODOROGO
100
AcDbLine
 10
10662.60162798446
 20
745.4060611609828
 30
0.0
 11
10719.60162798446
 21
745.4060611609828
 31
0.0
  0
LINE
  5
2788B
330
27695
100
AcDbEntity
  8
YODOROGO
100
AcDbLine
 10
10662.60162798446
 20
700.406061160983
 30
0.0
 11
10662.60162798446
 21
745.4060611609828
 31
0.0
  0
LINE
  5
2788C
330
27695
100
AcDbEntity
  8
YODOROGO
100
AcDbLine
 10
10875.60162798447
 20
760.4060611609829
 30
0.0
 11
10875.60162798447
 21
607.4060611609829
 31
0.0
  0
LINE
  5
2788D
330
27695
100
AcDbEntity
  8
YODOROGO
100
AcDbLine
 10
10902.60162798446
 20
592.4060611609831
 30
0.0
 11
10902.60162798446
 21
760.4060611609829
 31
0.0
  0
LINE
  5
2788E
330
27695
100
AcDbEntity
  8
YODOROGO
100
AcDbLine
 10
10973.10162798446
 20
559.4060611609823
 30
0.0
 11
10973.10162798446
 21
752.9060611609828
 31
0.0
  0
LINE
  5
2788F
330
27695
100
AcDbEntity
  8
YODOROGO
100
AcDbLine
 10
10949.10162798447
 20
752.9060611609828
 30
0.0
 11
10949.10162798447
 21
559.4060611609823
 31
0.0
  0
LINE
  5
27890
330
27695
100
AcDbEntity
  8
YODOROGO
100
AcDbLine
 10
11019.60162798446
 20
760.4060611609829
 30
0.0
 11
11019.60162798446
 21
535.4060611609829
 31
0.0
  0
LINE
  5
27891
330
27695
100
AcDbEntity
  8
YODOROGO
100
AcDbLine
 10
11046.60162798447
 20
535.4060611609829
 30
0.0
 11
11046.60162798447
 21
760.4060611609829
 31
0.0
  0
LINE
  5
27892
330
27695
100
AcDbEntity
  8
YODOROGO
100
AcDbLine
 10
10746.60162798446
 20
625.406061160983
 30
0.0
 11
10746.60162798446
 21
655.4060611609838
 31
0.0
  0
LINE
  5
27893
330
27695
100
AcDbEntity
  8
YODOROGO
100
AcDbLine
 10
11207.10162798447
 20
640.4060611609828
 30
0.0
 11
11207.10162798447
 21
625.406061160983
 31
0.0
  0
LINE
  5
27894
330
27695
100
AcDbEntity
  8
YODOROGO
100
AcDbLine
 10
11207.10162798447
 20
640.4060611609828
 30
0.0
 11
11207.10162798447
 21
625.406061160983
 31
0.0
  0
ARC
  5
27895
330
27695
100
AcDbEntity
  8
YODOROGO
100
AcDbCircle
 10
10840.09184107006
 20
606.8316991658524
 30
0.0
 40
35.51443169202812
100
AcDbArc
 50
274.052441629071
 51
0.9266642149310715
  0
ARC
  5
27896
330
27695
100
AcDbEntity
  8
YODOROGO
100
AcDbCircle
 10
10840.94481401992
 20
597.229023228915
 30
0.0
 40
61.84515883532068
100
AcDbArc
 50
271.5351210653777
 51
355.5272775058505
  0
LINE
  5
27897
330
27695
100
AcDbEntity
  8
YODOROGO
100
AcDbLine
 10
10842.60162798446
 20
571.4060611609824
 30
0.0
 11
10842.60162798446
 21
535.4060611609829
 31
0.0
  0
LINE
  5
27898
330
27695
100
AcDbEntity
  8
YODOROGO
100
AcDbLine
 10
10797.60162798446
 20
625.406061160983
 30
0.0
 11
10746.60162798446
 21
625.406061160983
 31
0.0
  0
LINE
  5
27899
330
27695
100
AcDbEntity
  8
YODOROGO
100
AcDbLine
 10
10797.60162798446
 20
601.4060611609833
 30
0.0
 11
10797.60162798446
 21
625.406061160983
 31
0.0
  0
LINE
  5
2789A
330
27695
100
AcDbEntity
  8
YODOROGO
100
AcDbLine
 10
10746.60162798446
 20
601.4060611609833
 30
0.0
 11
10797.60162798446
 21
601.4060611609833
 31
0.0
  0
LINE
  5
2789B
330
27695
100
AcDbEntity
  8
YODOROGO
100
AcDbLine
 10
10746.60162798446
 20
571.4060611609824
 30
0.0
 11
10746.60162798446
 21
601.4060611609833
 31
0.0
  0
LINE
  5
2789C
330
27695
100
AcDbEntity
  8
YODOROGO
100
AcDbLine
 10
10797.60162798446
 20
571.4060611609824
 30
0.0
 11
10746.60162798446
 21
571.4060611609824
 31
0.0
  0
LINE
  5
2789D
330
27695
100
AcDbEntity
  8
YODOROGO
100
AcDbLine
 10
10797.60162798446
 20
535.4060611609829
 30
0.0
 11
10797.60162798446
 21
571.4060611609824
 31
0.0
  0
LINE
  5
2789E
330
27695
100
AcDbEntity
  8
YODOROGO
100
AcDbLine
 10
10949.10162798447
 20
559.4060611609823
 30
0.0
 11
10973.10162798446
 21
559.4060611609823
 31
0.0
  0
LINE
  5
2789F
330
27695
100
AcDbEntity
  8
YODOROGO
100
AcDbLine
 10
11019.60162798446
 20
535.4060611609829
 30
0.0
 11
11046.60162798447
 21
535.4060611609829
 31
0.0
  0
LINE
  5
278A0
330
27695
100
AcDbEntity
  8
YODOROGO
100
AcDbLine
 10
11151.60162798447
 20
573.1655445639615
 30
0.0
 11
11151.60162798447
 21
535.4060611609829
 31
0.0
  0
LINE
  5
278A1
330
27695
100
AcDbEntity
  8
YODOROGO
100
AcDbLine
 10
11106.60162798446
 20
535.4060611609829
 30
0.0
 11
11151.60162798447
 21
573.1655445639615
 31
0.0
  0
LINE
  5
278A2
330
27695
100
AcDbEntity
  8
YODOROGO
100
AcDbLine
 10
11106.60162798446
 20
580.406061160983
 30
0.0
 11
11106.60162798446
 21
535.4060611609829
 31
0.0
  0
LINE
  5
278A3
330
27695
100
AcDbEntity
  8
YODOROGO
100
AcDbLine
 10
11142.35423576229
 20
610.4060611609829
 30
0.0
 11
11106.60162798446
 21
580.406061160983
 31
0.0
  0
LINE
  5
278A4
330
27695
100
AcDbEntity
  8
YODOROGO
100
AcDbLine
 10
11106.60162798446
 20
610.4060611609829
 30
0.0
 11
11142.35423576229
 21
610.4060611609829
 31
0.0
  0
LINE
  5
278A5
330
27695
100
AcDbEntity
  8
YODOROGO
100
AcDbLine
 10
11106.60162798446
 20
625.406061160983
 30
0.0
 11
11106.60162798446
 21
610.4060611609829
 31
0.0
  0
LINE
  5
278A6
330
27695
100
AcDbEntity
  8
YODOROGO
100
AcDbLine
 10
11207.10162798447
 20
625.406061160983
 30
0.0
 11
11106.60162798446
 21
625.406061160983
 31
0.0
  0
LINE
  5
278A7
330
27695
100
AcDbEntity
  8
YODOROGO
100
AcDbLine
 10
11219.10162798447
 20
610.4060611609829
 30
0.0
 11
11166.60162798446
 21
610.4060611609829
 31
0.0
  0
LINE
  5
278A8
330
27695
100
AcDbEntity
  8
YODOROGO
100
AcDbLine
 10
11166.60162798446
 20
585.7520390316213
 30
0.0
 11
11164.27870236948
 21
583.8028730048376
 31
0.0
  0
LINE
  5
278A9
330
27695
100
AcDbEntity
  8
YODOROGO
100
AcDbLine
 10
11166.60162798446
 20
610.4060611609829
 30
0.0
 11
11166.60162798446
 21
585.7520390316213
 31
0.0
  0
LINE
  5
278AA
330
27695
100
AcDbEntity
  8
YODOROGO
100
AcDbLine
 10
11151.60162798447
 20
573.1655445639615
 30
0.0
 11
11151.60162798447
 21
535.4060611609829
 31
0.0
  0
LINE
  5
278AB
330
27695
100
AcDbEntity
  8
YODOROGO
100
AcDbLine
 10
11106.60162798446
 20
535.4060611609829
 30
0.0
 11
11151.60162798447
 21
573.1655445639615
 31
0.0
  0
LINE
  5
278AC
330
27695
100
AcDbEntity
  8
YODOROGO
100
AcDbLine
 10
11106.60162798446
 20
580.406061160983
 30
0.0
 11
11106.60162798446
 21
535.4060611609829
 31
0.0
  0
LINE
  5
278AD
330
27695
100
AcDbEntity
  8
YODOROGO
100
AcDbLine
 10
11142.35423576229
 20
610.4060611609829
 30
0.0
 11
11106.60162798446
 21
580.406061160983
 31
0.0
  0
LINE
  5
278AE
330
27695
100
AcDbEntity
  8
YODOROGO
100
AcDbLine
 10
11106.60162798446
 20
610.4060611609829
 30
0.0
 11
11142.35423576229
 21
610.4060611609829
 31
0.0
  0
LINE
  5
278AF
330
27695
100
AcDbEntity
  8
YODOROGO
100
AcDbLine
 10
11106.60162798446
 20
625.406061160983
 30
0.0
 11
11106.60162798446
 21
610.4060611609829
 31
0.0
  0
LINE
  5
278B0
330
27695
100
AcDbEntity
  8
YODOROGO
100
AcDbLine
 10
11207.10162798447
 20
625.406061160983
 30
0.0
 11
11106.60162798446
 21
625.406061160983
 31
0.0
  0
LINE
  5
278B1
330
27695
100
AcDbEntity
  8
YODOROGO
100
AcDbLine
 10
10797.60162798446
 20
655.4060611609838
 30
0.0
 11
10797.60162798446
 21
682.4060611609829
 31
0.0
  0
LINE
  5
278B2
330
27695
100
AcDbEntity
  8
YODOROGO
100
AcDbLine
 10
10746.60162798446
 20
655.4060611609838
 30
0.0
 11
10797.60162798446
 21
655.4060611609838
 31
0.0
  0
LINE
  5
278B3
330
27695
100
AcDbEntity
  8
YODOROGO
100
AcDbLine
 10
10773.60162798447
 20
700.406061160983
 30
0.0
 11
10773.60162798447
 21
721.4060611609824
 31
0.0
  0
LINE
  5
278B4
330
27695
100
AcDbEntity
  8
YODOROGO
100
AcDbLine
 10
10797.60162798446
 20
700.406061160983
 30
0.0
 11
10773.60162798447
 21
700.406061160983
 31
0.0
  0
LINE
  5
278B5
330
27695
100
AcDbEntity
  8
YODOROGO
100
AcDbLine
 10
10797.60162798446
 20
730.4060611609828
 30
0.0
 11
10797.60162798446
 21
700.406061160983
 31
0.0
  0
ARC
  5
278B6
330
27695
100
AcDbEntity
  8
YODOROGO
100
AcDbCircle
 10
10782.60162798446
 20
730.4060611609828
 30
0.0
 40
15.0
100
AcDbArc
 50
0.0
 51
90.0
  0
LINE
  5
278B7
330
27695
100
AcDbEntity
  8
YODOROGO
100
AcDbLine
 10
10746.60162798447
 20
745.4060611609828
 30
0.0
 11
10782.60162798446
 21
745.4060611609828
 31
0.0
  0
LINE
  5
278B8
330
27695
100
AcDbEntity
  8
YODOROGO
100
AcDbLine
 10
10746.60162798447
 20
760.4060611609829
 30
0.0
 11
10746.60162798447
 21
745.4060611609828
 31
0.0
  0
LINE
  5
278B9
330
27695
100
AcDbEntity
  8
YODOROGO
100
AcDbLine
 10
10902.60162798446
 20
760.4060611609829
 30
0.0
 11
10875.60162798447
 21
760.4060611609829
 31
0.0
  0
LINE
  5
278BA
330
27695
100
AcDbEntity
  8
YODOROGO
100
AcDbLine
 10
10973.10162798446
 20
752.9060611609828
 30
0.0
 11
10949.10162798447
 21
752.9060611609828
 31
0.0
  0
LINE
  5
278BB
330
27695
100
AcDbEntity
  8
YODOROGO
100
AcDbLine
 10
11046.60162798447
 20
760.4060611609829
 30
0.0
 11
11019.60162798446
 21
760.4060611609829
 31
0.0
  0
LINE
  5
278BC
330
27695
100
AcDbEntity
  8
YODOROGO
100
AcDbLine
 10
11127.60162798447
 20
640.4060611609828
 30
0.0
 11
11127.60162798447
 21
664.4060611609833
 31
0.0
1001
AUTOCAD_POSTSCRIPT_FIGURE
1002
{
1000
PSFILL
1000
Grayscale
1000
Grayscale
1070
    25
1002
}
  0
LINE
  5
278BD
330
27695
100
AcDbEntity
  8
YODOROGO
100
AcDbLine
 10
11106.60162798446
 20
640.4060611609828
 30
0.0
 11
11127.60162798447
 21
640.4060611609828
 31
0.0
1001
AUTOCAD_POSTSCRIPT_FIGURE
1002
{
1000
PSFILL
1000
Grayscale
1000
Grayscale
1070
    25
1002
}
  0
LINE
  5
278BE
330
27695
100
AcDbEntity
  8
YODOROGO
100
AcDbLine
 10
11106.60162798446
 20
682.4060611609829
 30
0.0
 11
11106.60162798446
 21
640.4060611609828
 31
0.0
1001
AUTOCAD_POSTSCRIPT_FIGURE
1002
{
1000
PSFILL
1000
Grayscale
1000
Grayscale
1070
    25
1002
}
  0
LINE
  5
278BF
330
27695
100
AcDbEntity
  8
YODOROGO
100
AcDbLine
 10
11162.10162798447
 20
682.4060611609829
 30
0.0
 11
11106.60162798446
 21
682.4060611609829
 31
0.0
1001
AUTOCAD_POSTSCRIPT_FIGURE
1002
{
1000
PSFILL
1000
Grayscale
1000
Grayscale
1070
    25
1002
}
  0
LINE
  5
278C0
330
27695
100
AcDbEntity
  8
YODOROGO
100
AcDbLine
 10
11162.10162798447
 20
697.406061160983
 30
0.0
 11
11162.10162798447
 21
682.4060611609829
 31
0.0
1001
AUTOCAD_POSTSCRIPT_FIGURE
1002
{
1000
PSFILL
1000
Grayscale
1000
Grayscale
1070
    25
1002
}
  0
LINE
  5
278C1
330
27695
100
AcDbEntity
  8
YODOROGO
100
AcDbLine
 10
11106.60162798446
 20
697.406061160983
 30
0.0
 11
11162.10162798447
 21
697.406061160983
 31
0.0
1001
AUTOCAD_POSTSCRIPT_FIGURE
1002
{
1000
PSFILL
1000
Grayscale
1000
Grayscale
1070
    25
1002
}
  0
LINE
  5
278C2
330
27695
100
AcDbEntity
  8
YODOROGO
100
AcDbLine
 10
11106.60162798446
 20
715.4060611609828
 30
0.0
 11
11106.60162798446
 21
697.406061160983
 31
0.0
1001
AUTOCAD_POSTSCRIPT_FIGURE
1002
{
1000
PSFILL
1000
Grayscale
1000
Grayscale
1070
    25
1002
}
  0
LINE
  5
278C3
330
27695
100
AcDbEntity
  8
YODOROGO
100
AcDbLine
 10
11162.10162798447
 20
715.4060611609828
 30
0.0
 11
11106.60162798446
 21
715.4060611609828
 31
0.0
1001
AUTOCAD_POSTSCRIPT_FIGURE
1002
{
1000
PSFILL
1000
Grayscale
1000
Grayscale
1070
    25
1002
}
  0
LINE
  5
278C4
330
27695
100
AcDbEntity
  8
YODOROGO
100
AcDbLine
 10
11162.10162798447
 20
730.4060611609828
 30
0.0
 11
11162.10162798447
 21
715.4060611609828
 31
0.0
1001
AUTOCAD_POSTSCRIPT_FIGURE
1002
{
1000
PSFILL
1000
Grayscale
1000
Grayscale
1070
    25
1002
}
  0
LINE
  5
278C5
330
27695
100
AcDbEntity
  8
YODOROGO
100
AcDbLine
 10
11106.60162798446
 20
730.4060611609828
 30
0.0
 11
11162.10162798447
 21
730.4060611609828
 31
0.0
1001
AUTOCAD_POSTSCRIPT_FIGURE
1002
{
1000
PSFILL
1000
Grayscale
1000
Grayscale
1070
    25
1002
}
  0
LINE
  5
278C6
330
27695
100
AcDbEntity
  8
YODOROGO
100
AcDbLine
 10
11106.60162798446
 20
760.4060611609829
 30
0.0
 11
11106.60162798446
 21
730.4060611609828
 31
0.0
1001
AUTOCAD_POSTSCRIPT_FIGURE
1002
{
1000
PSFILL
1000
Grayscale
1000
Grayscale
1070
    25
1002
}
  0
LINE
  5
278C7
330
27695
100
AcDbEntity
  8
YODOROGO
100
AcDbLine
 10
11124.60162798446
 20
760.4060611609829
 30
0.0
 11
11106.60162798446
 21
760.4060611609829
 31
0.0
1001
AUTOCAD_POSTSCRIPT_FIGURE
1002
{
1000
PSFILL
1000
Grayscale
1000
Grayscale
1070
    25
1002
}
  0
LINE
  5
278C8
330
27695
100
AcDbEntity
  8
YODOROGO
100
AcDbLine
 10
11124.60162798446
 20
748.4060611609828
 30
0.0
 11
11124.60162798446
 21
760.4060611609829
 31
0.0
1001
AUTOCAD_POSTSCRIPT_FIGURE
1002
{
1000
PSFILL
1000
Grayscale
1000
Grayscale
1070
    25
1002
}
  0
LINE
  5
278C9
330
27695
100
AcDbEntity
  8
YODOROGO
100
AcDbLine
 10
11162.10162798447
 20
748.4060611609828
 30
0.0
 11
11124.60162798446
 21
748.4060611609828
 31
0.0
1001
AUTOCAD_POSTSCRIPT_FIGURE
1002
{
1000
PSFILL
1000
Grayscale
1000
Grayscale
1070
    25
1002
}
  0
LINE
  5
278CA
330
27695
100
AcDbEntity
  8
YODOROGO
100
AcDbLine
 10
11162.10162798447
 20
760.4060611609829
 30
0.0
 11
11162.10162798447
 21
748.4060611609828
 31
0.0
1001
AUTOCAD_POSTSCRIPT_FIGURE
1002
{
1000
PSFILL
1000
Grayscale
1000
Grayscale
1070
    25
1002
}
  0
LINE
  5
278CB
330
27695
100
AcDbEntity
  8
YODOROGO
100
AcDbLine
 10
11186.10162798447
 20
760.4060611609829
 30
0.0
 11
11162.10162798447
 21
760.4060611609829
 31
0.0
1001
AUTOCAD_POSTSCRIPT_FIGURE
1002
{
1000
PSFILL
1000
Grayscale
1000
Grayscale
1070
    25
1002
}
  0
LINE
  5
278CC
330
27695
100
AcDbEntity
  8
YODOROGO
100
AcDbLine
 10
11186.10162798447
 20
748.4060611609828
 30
0.0
 11
11186.10162798447
 21
760.4060611609829
 31
0.0
1001
AUTOCAD_POSTSCRIPT_FIGURE
1002
{
1000
PSFILL
1000
Grayscale
1000
Grayscale
1070
    25
1002
}
  0
LINE
  5
278CD
330
27695
100
AcDbEntity
  8
YODOROGO
100
AcDbLine
 10
11186.10162798447
 20
715.4060611609828
 30
0.0
 11
11186.10162798447
 21
730.4060611609828
 31
0.0
1001
AUTOCAD_POSTSCRIPT_FIGURE
1002
{
1000
PSFILL
1000
Grayscale
1000
Grayscale
1070
    25
1002
}
  0
LINE
  5
278CE
330
27695
100
AcDbEntity
  8
YODOROGO
100
AcDbLine
 10
11186.10162798447
 20
682.4060611609829
 30
0.0
 11
11186.10162798447
 21
697.406061160983
 31
0.0
1001
AUTOCAD_POSTSCRIPT_FIGURE
1002
{
1000
PSFILL
1000
Grayscale
1000
Grayscale
1070
    25
1002
}
  0
LINE
  5
278CF
330
27695
100
AcDbEntity
  8
YODOROGO
100
AcDbLine
 10
11220.60162798447
 20
664.4060611609833
 30
0.0
 11
11220.60162798447
 21
640.4060611609828
 31
0.0
1001
AUTOCAD_POSTSCRIPT_FIGURE
1002
{
1000
PSFILL
1000
Grayscale
1000
Grayscale
1070
    25
1002
}
  0
LINE
  5
278D0
330
27695
100
AcDbEntity
  8
YODOROGO
100
AcDbLine
 10
11186.10162798447
 20
664.4060611609833
 30
0.0
 11
11220.60162798447
 21
664.4060611609833
 31
0.0
1001
AUTOCAD_POSTSCRIPT_FIGURE
1002
{
1000
PSFILL
1000
Grayscale
1000
Grayscale
1070
    25
1002
}
  0
LINE
  5
278D1
330
27695
100
AcDbEntity
  8
YODOROGO
100
AcDbLine
 10
11186.10162798447
 20
640.4060611609828
 30
0.0
 11
11186.10162798447
 21
664.4060611609833
 31
0.0
1001
AUTOCAD_POSTSCRIPT_FIGURE
1002
{
1000
PSFILL
1000
Grayscale
1000
Grayscale
1070
    25
1002
}
  0
LINE
  5
278D2
330
27695
100
AcDbEntity
  8
YODOROGO
100
AcDbLine
 10
11162.10162798447
 20
640.4060611609828
 30
0.0
 11
11186.10162798447
 21
640.4060611609828
 31
0.0
1001
AUTOCAD_POSTSCRIPT_FIGURE
1002
{
1000
PSFILL
1000
Grayscale
1000
Grayscale
1070
    25
1002
}
  0
LINE
  5
278D3
330
27695
100
AcDbEntity
  8
YODOROGO
100
AcDbLine
 10
11162.10162798447
 20
664.4060611609833
 30
0.0
 11
11162.10162798447
 21
640.4060611609828
 31
0.0
1001
AUTOCAD_POSTSCRIPT_FIGURE
1002
{
1000
PSFILL
1000
Grayscale
1000
Grayscale
1070
    25
1002
}
  0
LINE
  5
278D4
330
27695
100
AcDbEntity
  8
YODOROGO
100
AcDbLine
 10
11127.60162798447
 20
664.4060611609833
 30
0.0
 11
11162.10162798447
 21
664.4060611609833
 31
0.0
1001
AUTOCAD_POSTSCRIPT_FIGURE
1002
{
1000
PSFILL
1000
Grayscale
1000
Grayscale
1070
    25
1002
}
  0
ARC
  5
278D5
330
27695
100
AcDbEntity
  8
YODOROGO
100
AcDbCircle
 10
11647.31921000922
 20
601.0052765683409
 30
0.0
 40
66.83298041652057
100
AcDbArc
 50
281.0262749542535
 51
357.771135755738
  0
LINE
  5
278D6
330
27695
100
AcDbEntity
  8
YODOROGO
100
AcDbLine
 10
11780.10162798446
 20
715.4060611609828
 30
0.0
 11
11687.10162798447
 21
715.4060611609828
 31
0.0
  0
LINE
  5
278D7
330
27695
100
AcDbEntity
  8
YODOROGO
100
AcDbLine
 10
11780.10162798446
 20
760.4060611609829
 30
0.0
 11
11687.10162798447
 21
760.4060611609829
 31
0.0
  0
LINE
  5
278D8
330
27695
100
AcDbEntity
  8
YODOROGO
100
AcDbLine
 10
11687.10162798447
 20
736.4060611609825
 30
0.0
 11
11780.10162798446
 21
736.4060611609825
 31
0.0
  0
LINE
  5
278D9
330
27695
100
AcDbEntity
  8
YODOROGO
100
AcDbLine
 10
11546.85162798447
 20
586.4060611609825
 30
0.0
 11
11546.85162798447
 21
658.4060611609827
 31
0.0
  0
LINE
  5
278DA
330
27695
100
AcDbEntity
  8
YODOROGO
100
AcDbLine
 10
11536.35162798447
 20
634.4060611609833
 30
0.0
 11
11536.35162798447
 21
586.4060611609825
 31
0.0
  0
LINE
  5
278DB
330
27695
100
AcDbEntity
  8
YODOROGO
100
AcDbLine
 10
11521.35162798447
 20
559.4060611609831
 30
0.0
 11
11521.35162798447
 21
634.4060611609833
 31
0.0
  0
LINE
  5
278DC
330
27695
100
AcDbEntity
  8
YODOROGO
100
AcDbLine
 10
11587.35162798447
 20
634.4060611609833
 30
0.0
 11
11587.35162798447
 21
559.4060611609831
 31
0.0
  0
LINE
  5
278DD
330
27695
100
AcDbEntity
  8
YODOROGO
100
AcDbLine
 10
11572.35162798446
 20
586.4060611609825
 30
0.0
 11
11572.35162798446
 21
634.4060611609833
 31
0.0
  0
LINE
  5
278DE
330
27695
100
AcDbEntity
  8
YODOROGO
100
AcDbLine
 10
11561.85162798446
 20
658.4060611609827
 30
0.0
 11
11561.85162798446
 21
586.4060611609825
 31
0.0
  0
LINE
  5
278DF
330
27695
100
AcDbEntity
  8
YODOROGO
100
AcDbLine
 10
11615.10162798446
 20
760.4060611609829
 30
0.0
 11
11615.10162798446
 21
550.4060611609828
 31
0.0
  0
LINE
  5
278E0
330
27695
100
AcDbEntity
  8
YODOROGO
100
AcDbLine
 10
11492.10162798447
 20
535.4060611609829
 30
0.0
 11
11492.10162798447
 21
760.4060611609829
 31
0.0
  0
LINE
  5
278E1
330
27695
100
AcDbEntity
  8
YODOROGO
100
AcDbLine
 10
11511.60162798447
 20
736.4060611609825
 30
0.0
 11
11511.60162798447
 21
535.4060611609829
 31
0.0
  0
LINE
  5
278E2
330
27695
100
AcDbEntity
  8
YODOROGO
100
AcDbLine
 10
11597.10162798446
 20
580.406061160983
 30
0.0
 11
11597.10162798446
 21
736.4060611609825
 31
0.0
  0
LINE
  5
278E3
330
27695
100
AcDbEntity
  8
YODOROGO
100
AcDbLine
 10
11393.10162798446
 20
610.4060611609829
 30
0.0
 11
11393.10162798446
 21
629.9060611609831
 31
0.0
  0
LINE
  5
278E4
330
27695
100
AcDbEntity
  8
YODOROGO
100
AcDbLine
 10
11481.60162798447
 20
629.9060611609831
 30
0.0
 11
11481.60162798447
 21
610.4060611609829
 31
0.0
  0
LINE
  5
278E5
330
27695
100
AcDbEntity
  8
YODOROGO
100
AcDbLine
 10
11687.10162798447
 20
715.4060611609828
 30
0.0
 11
11687.10162798447
 21
613.4060611609827
 31
0.0
  0
LINE
  5
278E6
330
27695
100
AcDbEntity
  8
YODOROGO
100
AcDbLine
 10
11231.10162798446
 20
625.406061160983
 30
0.0
 11
11231.10162798446
 21
640.4060611609828
 31
0.0
  0
LINE
  5
278E7
330
27695
100
AcDbEntity
  8
YODOROGO
100
AcDbLine
 10
11231.10162798446
 20
625.406061160983
 30
0.0
 11
11231.10162798446
 21
640.4060611609828
 31
0.0
  0
ARC
  5
278E8
330
27695
100
AcDbEntity
  8
YODOROGO
100
AcDbCircle
 10
11451.60162798447
 20
565.4060611609828
 30
0.0
 40
30.0
100
AcDbArc
 50
270.0
 51
0.0
  0
LINE
  5
278E9
330
27695
100
AcDbEntity
  8
YODOROGO
100
AcDbLine
 10
11463.60162798446
 20
599.9060611609831
 30
0.0
 11
11481.60162798447
 21
599.9060611609831
 31
0.0
  0
LINE
  5
278EA
330
27695
100
AcDbEntity
  8
YODOROGO
100
AcDbLine
 10
11481.60162798447
 20
610.4060611609829
 30
0.0
 11
11448.60162798446
 21
610.4060611609829
 31
0.0
  0
LINE
  5
278EB
330
27695
100
AcDbEntity
  8
YODOROGO
100
AcDbLine
 10
11331.60162798447
 20
625.406061160983
 30
0.0
 11
11231.10162798446
 21
625.406061160983
 31
0.0
  0
LINE
  5
278EC
330
27695
100
AcDbEntity
  8
YODOROGO
100
AcDbLine
 10
11331.60162798447
 20
610.4060611609829
 30
0.0
 11
11331.60162798447
 21
625.406061160983
 31
0.0
  0
LINE
  5
278ED
330
27695
100
AcDbEntity
  8
YODOROGO
100
AcDbLine
 10
11256.60162798447
 20
610.4060611609829
 30
0.0
 11
11331.60162798447
 21
610.4060611609829
 31
0.0
  0
ARC
  5
278EE
330
27695
100
AcDbEntity
  8
YODOROGO
100
AcDbCircle
 10
11336.27206076301
 20
700.8321431073384
 30
0.0
 40
120.5166136069605
100
AcDbArc
 50
228.6181454618993
 51
245.660289248906
  0
LINE
  5
278EF
330
27695
100
AcDbEntity
  8
YODOROGO
100
AcDbLine
 10
11289.60162798447
 20
601.4060611609833
 30
0.0
 11
11286.60162798448
 21
591.0273059512126
 31
0.0
  0
LINE
  5
278F0
330
27695
100
AcDbEntity
  8
YODOROGO
100
AcDbLine
 10
11321.10162798447
 20
601.4060611609833
 30
0.0
 11
11289.60162798447
 21
601.4060611609833
 31
0.0
  0
LINE
  5
278F1
330
27695
100
AcDbEntity
  8
YODOROGO
100
AcDbLine
 10
11316.60162798447
 20
581.9316459275352
 30
0.0
 11
11321.10162798447
 21
601.4060611609833
 31
0.0
  0
ARC
  5
278F2
330
27695
100
AcDbEntity
  8
YODOROGO
100
AcDbCircle
 10
11336.27206076267
 20
700.832143107376
 30
0.0
 40
120.516613606984
100
AcDbArc
 50
260.6062929796992
 51
267.7790355655586
  0
LINE
  5
278F3
330
27695
100
AcDbEntity
  8
YODOROGO
100
AcDbLine
 10
11331.60162798447
 20
535.4060611609821
 30
0.0
 11
11331.60162798447
 21
580.406061160983
 31
0.0
  0
LINE
  5
278F4
330
27695
100
AcDbEntity
  8
YODOROGO
100
AcDbLine
 10
11226.60162798446
 20
555.5022505933164
 30
0.0
 11
11226.60162798446
 21
597.949158949178
 31
0.0
  0
LINE
  5
278F5
330
27695
100
AcDbEntity
  8
YODOROGO
100
AcDbLine
 10
11331.60162798447
 20
625.406061160983
 30
0.0
 11
11231.10162798446
 21
625.406061160983
 31
0.0
  0
LINE
  5
278F6
330
27695
100
AcDbEntity
  8
YODOROGO
100
AcDbLine
 10
11331.60162798447
 20
610.4060611609829
 30
0.0
 11
11331.60162798447
 21
625.406061160983
 31
0.0
  0
LINE
  5
278F7
330
27695
100
AcDbEntity
  8
YODOROGO
100
AcDbLine
 10
11256.60162798447
 20
610.4060611609829
 30
0.0
 11
11331.60162798447
 21
610.4060611609829
 31
0.0
  0
ARC
  5
278F8
330
27695
100
AcDbEntity
  8
YODOROGO
100
AcDbCircle
 10
11336.27206076301
 20
700.8321431073384
 30
0.0
 40
120.5166136069605
100
AcDbArc
 50
228.6181454618993
 51
245.660289248906
  0
LINE
  5
278F9
330
27695
100
AcDbEntity
  8
YODOROGO
100
AcDbLine
 10
11289.60162798447
 20
601.4060611609833
 30
0.0
 11
11286.60162798448
 21
591.0273059512126
 31
0.0
  0
LINE
  5
278FA
330
27695
100
AcDbEntity
  8
YODOROGO
100
AcDbLine
 10
11321.10162798447
 20
601.4060611609833
 30
0.0
 11
11289.60162798447
 21
601.4060611609833
 31
0.0
  0
LINE
  5
278FB
330
27695
100
AcDbEntity
  8
YODOROGO
100
AcDbLine
 10
11316.60162798447
 20
581.9316459275352
 30
0.0
 11
11321.10162798447
 21
601.4060611609833
 31
0.0
  0
ARC
  5
278FC
330
27695
100
AcDbEntity
  8
YODOROGO
100
AcDbCircle
 10
11336.27206076267
 20
700.832143107376
 30
0.0
 40
120.516613606984
100
AcDbArc
 50
260.6062929796992
 51
267.7790355655586
  0
LINE
  5
278FD
330
27695
100
AcDbEntity
  8
YODOROGO
100
AcDbLine
 10
11331.60162798447
 20
535.4060611609821
 30
0.0
 11
11331.60162798447
 21
580.406061160983
 31
0.0
  0
LINE
  5
278FE
330
27695
100
AcDbEntity
  8
YODOROGO
100
AcDbLine
 10
11226.60162798446
 20
555.5022505933164
 30
0.0
 11
11226.60162798446
 21
597.949158949178
 31
0.0
  0
LINE
  5
278FF
330
27695
100
AcDbEntity
  8
YODOROGO
100
AcDbLine
 10
11412.60162798447
 20
590.1560611609832
 30
0.0
 11
11393.10162798446
 21
590.1560611609832
 31
0.0
  0
LINE
  5
27900
330
27695
100
AcDbEntity
  8
YODOROGO
100
AcDbLine
 10
11412.60162798447
 20
600.6560611609824
 30
0.0
 11
11412.60162798447
 21
590.1560611609832
 31
0.0
  0
LINE
  5
27901
330
27695
100
AcDbEntity
  8
YODOROGO
100
AcDbLine
 10
11393.10162798446
 20
600.6560611609824
 30
0.0
 11
11412.60162798447
 21
600.6560611609824
 31
0.0
  0
LINE
  5
27902
330
27695
100
AcDbEntity
  8
YODOROGO
100
AcDbLine
 10
11393.10162798446
 20
590.1560611609832
 30
0.0
 11
11393.10162798446
 21
600.6560611609824
 31
0.0
  0
LINE
  5
27903
330
27695
100
AcDbEntity
  8
YODOROGO
100
AcDbLine
 10
11411.10162798447
 20
591.6560611609829
 30
0.0
 11
11394.60162798447
 21
591.6560611609829
 31
0.0
  0
LINE
  5
27904
330
27695
100
AcDbEntity
  8
YODOROGO
100
AcDbLine
 10
11411.10162798447
 20
599.156061160983
 30
0.0
 11
11411.10162798447
 21
591.6560611609829
 31
0.0
  0
LINE
  5
27905
330
27695
100
AcDbEntity
  8
YODOROGO
100
AcDbLine
 10
11394.60162798447
 20
599.156061160983
 30
0.0
 11
11411.10162798447
 21
599.156061160983
 31
0.0
  0
LINE
  5
27906
330
27695
100
AcDbEntity
  8
YODOROGO
100
AcDbLine
 10
11394.60162798447
 20
591.6560611609829
 30
0.0
 11
11394.60162798447
 21
599.156061160983
 31
0.0
  0
LINE
  5
27907
330
27695
100
AcDbEntity
  8
YODOROGO
100
AcDbLine
 10
11409.60162798447
 20
593.1560611609824
 30
0.0
 11
11396.10162798446
 21
593.1560611609824
 31
0.0
  0
LINE
  5
27908
330
27695
100
AcDbEntity
  8
YODOROGO
100
AcDbLine
 10
11409.60162798447
 20
597.6560611609833
 30
0.0
 11
11409.60162798447
 21
593.1560611609824
 31
0.0
  0
LINE
  5
27909
330
27695
100
AcDbEntity
  8
YODOROGO
100
AcDbLine
 10
11396.10162798446
 20
597.6560611609833
 30
0.0
 11
11409.60162798447
 21
597.6560611609833
 31
0.0
  0
LINE
  5
2790A
330
27695
100
AcDbEntity
  8
YODOROGO
100
AcDbLine
 10
11396.10162798446
 20
593.1560611609824
 30
0.0
 11
11396.10162798446
 21
597.6560611609833
 31
0.0
  0
LINE
  5
2790B
330
27695
100
AcDbEntity
  8
YODOROGO
100
AcDbLine
 10
11408.10162798447
 20
594.6560611609827
 30
0.0
 11
11397.60162798447
 21
594.6560611609827
 31
0.0
  0
LINE
  5
2790C
330
27695
100
AcDbEntity
  8
YODOROGO
100
AcDbLine
 10
11408.10162798447
 20
596.1560611609829
 30
0.0
 11
11408.10162798447
 21
594.6560611609827
 31
0.0
  0
LINE
  5
2790D
330
27695
100
AcDbEntity
  8
YODOROGO
100
AcDbLine
 10
11397.60162798447
 20
596.1560611609829
 30
0.0
 11
11408.10162798447
 21
596.1560611609829
 31
0.0
  0
LINE
  5
2790E
330
27695
100
AcDbEntity
  8
YODOROGO
100
AcDbLine
 10
11397.60162798447
 20
594.6560611609827
 30
0.0
 11
11397.60162798447
 21
596.1560611609829
 31
0.0
  0
LINE
  5
2790F
330
27695
100
AcDbEntity
  8
YODOROGO
100
AcDbLine
 10
11424.60162798446
 20
610.4060611609829
 30
0.0
 11
11393.10162798446
 21
610.4060611609829
 31
0.0
  0
LINE
  5
27910
330
27695
100
AcDbEntity
  8
YODOROGO
100
AcDbLine
 10
11424.60162798446
 20
580.406061160983
 30
0.0
 11
11424.60162798446
 21
610.4060611609829
 31
0.0
  0
LINE
  5
27911
330
27695
100
AcDbEntity
  8
YODOROGO
100
AcDbLine
 10
11393.10162798446
 20
580.406061160983
 30
0.0
 11
11424.60162798446
 21
580.406061160983
 31
0.0
  0
LINE
  5
27912
330
27695
100
AcDbEntity
  8
YODOROGO
100
AcDbLine
 10
11393.10162798446
 20
535.4060611609829
 30
0.0
 11
11393.10162798446
 21
580.406061160983
 31
0.0
  0
LINE
  5
27913
330
27695
100
AcDbEntity
  8
YODOROGO
100
AcDbLine
 10
11451.60162798447
 20
535.4060611609829
 30
0.0
 11
11393.10162798446
 21
535.4060611609829
 31
0.0
  0
LINE
  5
27914
330
27695
100
AcDbEntity
  8
YODOROGO
100
AcDbLine
 10
11463.60162798446
 20
589.4060611609823
 30
0.0
 11
11463.60162798446
 21
599.9060611609831
 31
0.0
  0
ARC
  5
27915
330
27695
100
AcDbEntity
  8
YODOROGO
100
AcDbCircle
 10
11454.60162798446
 20
589.4060611609843
 30
0.0
 40
9.000000000001408
100
AcDbArc
 50
270.0
 51
359.9999999999877
  0
LINE
  5
27916
330
27695
100
AcDbEntity
  8
YODOROGO
100
AcDbLine
 10
11448.60162798446
 20
580.406061160983
 30
0.0
 11
11454.60162798446
 21
580.406061160983
 31
0.0
  0
LINE
  5
27917
330
27695
100
AcDbEntity
  8
YODOROGO
100
AcDbLine
 10
11448.60162798446
 20
610.4060611609829
 30
0.0
 11
11448.60162798446
 21
580.406061160983
 31
0.0
  0
LINE
  5
27918
330
27695
100
AcDbEntity
  8
YODOROGO
100
AcDbLine
 10
11587.35162798447
 20
580.406061160983
 30
0.0
 11
11597.10162798446
 21
580.406061160983
 31
0.0
  0
LINE
  5
27919
330
27695
100
AcDbEntity
  8
YODOROGO
100
AcDbLine
 10
11600.10162798446
 20
535.4060611609829
 30
0.0
 11
11587.35162798447
 21
535.4060611609829
 31
0.0
  0
LINE
  5
2791A
330
27695
100
AcDbEntity
  8
YODOROGO
100
AcDbLine
 10
11536.35162798447
 20
586.4060611609825
 30
0.0
 11
11546.85162798447
 21
586.4060611609825
 31
0.0
  0
LINE
  5
2791B
330
27695
100
AcDbEntity
  8
YODOROGO
100
AcDbLine
 10
11587.35162798447
 20
559.4060611609831
 30
0.0
 11
11521.35162798447
 21
559.4060611609831
 31
0.0
  0
LINE
  5
2791C
330
27695
100
AcDbEntity
  8
YODOROGO
100
AcDbLine
 10
11561.85162798446
 20
586.4060611609825
 30
0.0
 11
11572.35162798446
 21
586.4060611609825
 31
0.0
  0
LINE
  5
2791D
330
27695
100
AcDbEntity
  8
YODOROGO
100
AcDbLine
 10
11587.35162798447
 20
535.4060611609829
 30
0.0
 11
11587.35162798447
 21
580.406061160983
 31
0.0
  0
LINE
  5
2791E
330
27695
100
AcDbEntity
  8
YODOROGO
100
AcDbLine
 10
11511.60162798447
 20
535.4060611609829
 30
0.0
 11
11492.10162798447
 21
535.4060611609829
 31
0.0
  0
LINE
  5
2791F
330
27695
100
AcDbEntity
  8
YODOROGO
100
AcDbLine
 10
11481.60162798447
 20
599.9060611609831
 30
0.0
 11
11481.60162798447
 21
565.4060611609828
 31
0.0
  0
ARC
  5
27920
330
27695
100
AcDbEntity
  8
YODOROGO
100
AcDbCircle
 10
11600.10162798446
 20
550.4060611609828
 30
0.0
 40
15.0
100
AcDbArc
 50
270.0
 51
0.0
  0
LINE
  5
27921
330
27695
100
AcDbEntity
  8
YODOROGO
100
AcDbLine
 10
11660.10162798446
 20
571.4060611609824
 30
0.0
 11
11660.10162798446
 21
535.4060611609829
 31
0.0
  0
ARC
  5
27922
330
27695
100
AcDbEntity
  8
YODOROGO
100
AcDbCircle
 10
11639.89552333754
 20
614.0742712911499
 30
0.0
 40
47.21083372187828
100
AcDbArc
 50
295.3405244216011
 51
359.1890230341867
  0
LINE
  5
27923
330
27695
100
AcDbEntity
  8
YODOROGO
100
AcDbLine
 10
11481.60162798447
 20
697.406061160983
 30
0.0
 11
11436.60162798447
 21
727.4060611609828
 31
0.0
  0
LINE
  5
27924
330
27695
100
AcDbEntity
  8
YODOROGO
100
AcDbLine
 10
11436.60162798447
 20
760.4060611609829
 30
0.0
 11
11481.60162798447
 21
730.4060611609828
 31
0.0
  0
LINE
  5
27925
330
27695
100
AcDbEntity
  8
YODOROGO
100
AcDbLine
 10
11448.60162798446
 20
629.9060611609831
 30
0.0
 11
11481.60162798447
 21
629.9060611609831
 31
0.0
  0
LINE
  5
27926
330
27695
100
AcDbEntity
  8
YODOROGO
100
AcDbLine
 10
11481.60162798447
 20
650.9060611609827
 30
0.0
 11
11448.60162798446
 21
650.9060611609827
 31
0.0
  0
LINE
  5
27927
330
27695
100
AcDbEntity
  8
YODOROGO
100
AcDbLine
 10
11393.10162798446
 20
673.4060611609827
 30
0.0
 11
11481.60162798447
 21
673.4060611609827
 31
0.0
  0
LINE
  5
27928
330
27695
100
AcDbEntity
  8
YODOROGO
100
AcDbLine
 10
11280.60162798447
 20
760.4060611609829
 30
0.0
 11
11258.10162798447
 21
760.4060611609829
 31
0.0
  0
LINE
  5
27929
330
27695
100
AcDbEntity
  8
YODOROGO
100
AcDbLine
 10
11280.60162798447
 20
685.4060611609829
 30
0.0
 11
11280.60162798447
 21
760.4060611609829
 31
0.0
  0
LINE
  5
2792A
330
27695
100
AcDbEntity
  8
YODOROGO
100
AcDbLine
 10
11258.10162798447
 20
685.4060611609829
 30
0.0
 11
11280.60162798447
 21
685.4060611609829
 31
0.0
  0
LINE
  5
2792B
330
27695
100
AcDbEntity
  8
YODOROGO
100
AcDbLine
 10
11258.10162798447
 20
760.4060611609829
 30
0.0
 11
11258.10162798447
 21
685.4060611609829
 31
0.0
  0
LINE
  5
2792C
330
27695
100
AcDbEntity
  8
YODOROGO
100
AcDbLine
 10
11310.60162798447
 20
760.4060611609829
 30
0.0
 11
11331.60162798447
 21
760.4060611609829
 31
0.0
  0
LINE
  5
2792D
330
27695
100
AcDbEntity
  8
YODOROGO
100
AcDbLine
 10
11310.60162798447
 20
679.4060611609832
 30
0.0
 11
11310.60162798447
 21
760.4060611609829
 31
0.0
  0
ARC
  5
2792E
330
27695
100
AcDbEntity
  8
YODOROGO
100
AcDbCircle
 10
11295.60162798447
 20
679.4060611609832
 30
0.0
 40
15.0
100
AcDbArc
 50
270.0
 51
0.0
  0
LINE
  5
2792F
330
27695
100
AcDbEntity
  8
YODOROGO
100
AcDbLine
 10
11258.10162798447
 20
664.4060611609833
 30
0.0
 11
11295.60162798447
 21
664.4060611609833
 31
0.0
  0
LINE
  5
27930
330
27695
100
AcDbEntity
  8
YODOROGO
100
AcDbLine
 10
11258.10162798447
 20
640.4060611609828
 30
0.0
 11
11258.10162798447
 21
664.4060611609833
 31
0.0
  0
LINE
  5
27931
330
27695
100
AcDbEntity
  8
YODOROGO
100
AcDbLine
 10
11301.60162798446
 20
640.4060611609828
 30
0.0
 11
11258.10162798447
 21
640.4060611609828
 31
0.0
  0
ARC
  5
27932
330
27695
100
AcDbEntity
  8
YODOROGO
100
AcDbCircle
 10
11301.60162798446
 20
670.4060611609828
 30
0.0
 40
30.0
100
AcDbArc
 50
270.0
 51
0.0
  0
LINE
  5
27933
330
27695
100
AcDbEntity
  8
YODOROGO
100
AcDbLine
 10
11331.60162798447
 20
760.4060611609829
 30
0.0
 11
11331.60162798447
 21
670.4060611609828
 31
0.0
  0
LINE
  5
27934
330
27695
100
AcDbEntity
  8
YODOROGO
100
AcDbLine
 10
11241.60162798446
 20
730.4060611609828
 30
0.0
 11
11241.60162798446
 21
748.4060611609828
 31
0.0
1001
AUTOCAD_POSTSCRIPT_FIGURE
1002
{
1000
PSFILL
1000
Grayscale
1000
Grayscale
1070
    25
1002
}
  0
LINE
  5
27935
330
27695
100
AcDbEntity
  8
YODOROGO
100
AcDbLine
 10
11241.60162798446
 20
697.406061160983
 30
0.0
 11
11241.60162798446
 21
715.4060611609828
 31
0.0
1001
AUTOCAD_POSTSCRIPT_FIGURE
1002
{
1000
PSFILL
1000
Grayscale
1000
Grayscale
1070
    25
1002
}
  0
LINE
  5
27936
330
27695
100
AcDbEntity
  8
YODOROGO
100
AcDbLine
 10
11241.60162798446
 20
640.4060611609828
 30
0.0
 11
11241.60162798446
 21
682.4060611609829
 31
0.0
1001
AUTOCAD_POSTSCRIPT_FIGURE
1002
{
1000
PSFILL
1000
Grayscale
1000
Grayscale
1070
    25
1002
}
  0
LINE
  5
27937
330
27695
100
AcDbEntity
  8
YODOROGO
100
AcDbLine
 10
11393.10162798446
 20
715.4060611609828
 30
0.0
 11
11436.60162798447
 21
760.4060611609829
 31
0.0
  0
LINE
  5
27938
330
27695
100
AcDbEntity
  8
YODOROGO
100
AcDbLine
 10
11393.10162798446
 20
682.4060611609829
 30
0.0
 11
11393.10162798446
 21
715.4060611609828
 31
0.0
  0
LINE
  5
27939
330
27695
100
AcDbEntity
  8
YODOROGO
100
AcDbLine
 10
11436.60162798447
 20
727.4060611609828
 30
0.0
 11
11393.10162798446
 21
682.4060611609829
 31
0.0
  0
LINE
  5
2793A
330
27695
100
AcDbEntity
  8
YODOROGO
100
AcDbLine
 10
11424.60162798446
 20
629.9060611609831
 30
0.0
 11
11424.60162798446
 21
650.9060611609827
 31
0.0
  0
LINE
  5
2793B
330
27695
100
AcDbEntity
  8
YODOROGO
100
AcDbLine
 10
11393.10162798446
 20
629.9060611609831
 30
0.0
 11
11424.60162798446
 21
629.9060611609831
 31
0.0
  0
LINE
  5
2793C
330
27695
100
AcDbEntity
  8
YODOROGO
100
AcDbLine
 10
11448.60162798446
 20
650.9060611609827
 30
0.0
 11
11448.60162798446
 21
629.9060611609831
 31
0.0
  0
LINE
  5
2793D
330
27695
100
AcDbEntity
  8
YODOROGO
100
AcDbLine
 10
11393.10162798446
 20
650.9060611609827
 30
0.0
 11
11393.10162798446
 21
673.4060611609827
 31
0.0
  0
LINE
  5
2793E
330
27695
100
AcDbEntity
  8
YODOROGO
100
AcDbLine
 10
11424.60162798446
 20
650.9060611609827
 30
0.0
 11
11393.10162798446
 21
650.9060611609827
 31
0.0
  0
LINE
  5
2793F
330
27695
100
AcDbEntity
  8
YODOROGO
100
AcDbLine
 10
11492.10162798447
 20
760.4060611609829
 30
0.0
 11
11615.10162798446
 21
760.4060611609829
 31
0.0
  0
LINE
  5
27940
330
27695
100
AcDbEntity
  8
YODOROGO
100
AcDbLine
 10
11597.10162798446
 20
736.4060611609825
 30
0.0
 11
11511.60162798447
 21
736.4060611609825
 31
0.0
  0
LINE
  5
27941
330
27695
100
AcDbEntity
  8
YODOROGO
100
AcDbLine
 10
11577.60162798447
 20
682.4060611609829
 30
0.0
 11
11587.35162798447
 21
682.4060611609829
 31
0.0
  0
LINE
  5
27942
330
27695
100
AcDbEntity
  8
YODOROGO
100
AcDbLine
 10
11587.35162798447
 20
727.4060611609828
 30
0.0
 11
11577.60162798447
 21
682.4060611609829
 31
0.0
  0
LINE
  5
27943
330
27695
100
AcDbEntity
  8
YODOROGO
100
AcDbLine
 10
11569.35162798446
 20
727.4060611609828
 30
0.0
 11
11587.35162798447
 21
727.4060611609828
 31
0.0
  0
LINE
  5
27944
330
27695
100
AcDbEntity
  8
YODOROGO
100
AcDbLine
 10
11559.60162798447
 20
682.4060611609829
 30
0.0
 11
11569.35162798446
 21
727.4060611609828
 31
0.0
  0
LINE
  5
27945
330
27695
100
AcDbEntity
  8
YODOROGO
100
AcDbLine
 10
11549.10162798447
 20
682.4060611609829
 30
0.0
 11
11559.60162798447
 21
682.4060611609829
 31
0.0
  0
LINE
  5
27946
330
27695
100
AcDbEntity
  8
YODOROGO
100
AcDbLine
 10
11539.35162798447
 20
727.4060611609828
 30
0.0
 11
11549.10162798447
 21
682.4060611609829
 31
0.0
  0
LINE
  5
27947
330
27695
100
AcDbEntity
  8
YODOROGO
100
AcDbLine
 10
11521.35162798447
 20
727.4060611609828
 30
0.0
 11
11539.35162798447
 21
727.4060611609828
 31
0.0
  0
LINE
  5
27948
330
27695
100
AcDbEntity
  8
YODOROGO
100
AcDbLine
 10
11531.10162798447
 20
682.4060611609829
 30
0.0
 11
11521.35162798447
 21
727.4060611609828
 31
0.0
  0
LINE
  5
27949
330
27695
100
AcDbEntity
  8
YODOROGO
100
AcDbLine
 10
11521.35162798447
 20
682.4060611609829
 30
0.0
 11
11531.10162798447
 21
682.4060611609829
 31
0.0
  0
LINE
  5
2794A
330
27695
100
AcDbEntity
  8
YODOROGO
100
AcDbLine
 10
11521.35162798447
 20
658.4060611609827
 30
0.0
 11
11521.35162798447
 21
682.4060611609829
 31
0.0
  0
LINE
  5
2794B
330
27695
100
AcDbEntity
  8
YODOROGO
100
AcDbLine
 10
11587.35162798447
 20
658.4060611609827
 30
0.0
 11
11521.35162798447
 21
658.4060611609827
 31
0.0
  0
LINE
  5
2794C
330
27695
100
AcDbEntity
  8
YODOROGO
100
AcDbLine
 10
11587.35162798447
 20
682.4060611609829
 30
0.0
 11
11587.35162798447
 21
658.4060611609827
 31
0.0
  0
LINE
  5
2794D
330
27695
100
AcDbEntity
  8
YODOROGO
100
AcDbLine
 10
11481.60162798447
 20
730.4060611609828
 30
0.0
 11
11481.60162798447
 21
697.406061160983
 31
0.0
  0
LINE
  5
2794E
330
27695
100
AcDbEntity
  8
YODOROGO
100
AcDbLine
 10
11546.85162798447
 20
658.4060611609827
 30
0.0
 11
11561.85162798446
 21
658.4060611609827
 31
0.0
  0
LINE
  5
2794F
330
27695
100
AcDbEntity
  8
YODOROGO
100
AcDbLine
 10
11521.35162798447
 20
634.4060611609833
 30
0.0
 11
11536.35162798447
 21
634.4060611609833
 31
0.0
  0
LINE
  5
27950
330
27695
100
AcDbEntity
  8
YODOROGO
100
AcDbLine
 10
11572.35162798446
 20
634.4060611609833
 30
0.0
 11
11587.35162798447
 21
634.4060611609833
 31
0.0
  0
LINE
  5
27951
330
27695
100
AcDbEntity
  8
YODOROGO
100
AcDbLine
 10
11481.60162798447
 20
673.4060611609827
 30
0.0
 11
11481.60162798447
 21
650.9060611609827
 31
0.0
  0
LINE
  5
27952
330
27695
100
AcDbEntity
  8
YODOROGO
100
AcDbLine
 10
11687.10162798447
 20
760.4060611609829
 30
0.0
 11
11687.10162798447
 21
736.4060611609825
 31
0.0
  0
LINE
  5
27953
330
27695
100
AcDbEntity
  8
YODOROGO
100
AcDbLine
 10
11825.10162798447
 20
598.4060611609827
 30
0.0
 11
11825.10162798446
 21
679.4060611609832
 31
0.0
  0
LINE
  5
27954
330
27695
100
AcDbEntity
  8
YODOROGO
100
AcDbLine
 10
11798.10162798446
 20
745.4060611609828
 30
0.0
 11
11798.10162798446
 21
613.4060611609827
 31
0.0
  0
LINE
  5
27955
330
27695
100
AcDbEntity
  8
YODOROGO
100
AcDbLine
 10
11870.10162798447
 20
535.4060611609829
 30
0.0
 11
11870.10162798446
 21
679.4060611609832
 31
0.0
  0
LINE
  5
27956
330
27695
100
AcDbEntity
  8
YODOROGO
100
AcDbLine
 10
11846.10162798447
 20
679.4060611609832
 30
0.0
 11
11846.10162798447
 21
535.4060611609829
 31
0.0
  0
LINE
  5
27957
330
27695
100
AcDbEntity
  8
YODOROGO
100
AcDbLine
 10
11714.10162798447
 20
598.4060611609827
 30
0.0
 11
11714.10162798447
 21
640.4060611609828
 31
0.0
  0
ARC
  5
27958
330
27695
100
AcDbEntity
  8
YODOROGO
100
AcDbCircle
 10
11757.71807441852
 20
602.921381733209
 30
0.0
 40
67.53466821599572
100
AcDbArc
 50
268.6284910216979
 51
356.1663845733032
  0
LINE
  5
27959
330
27695
100
AcDbEntity
  8
YODOROGO
100
AcDbLine
 10
11756.10162798446
 20
572.9060611609829
 30
0.0
 11
11756.10162798446
 21
535.4060611609829
 31
0.0
  0
ARC
  5
2795A
330
27695
100
AcDbEntity
  8
YODOROGO
100
AcDbCircle
 10
11756.81927839671
 20
614.1896088816206
 30
0.0
 40
41.28978486885457
100
AcDbArc
 50
269.0041020930593
 51
358.9126445549248
  0
LINE
  5
2795B
330
27695
100
AcDbEntity
  8
YODOROGO
100
AcDbLine
 10
11846.10162798447
 20
535.4060611609829
 30
0.0
 11
11870.10162798447
 21
535.4060611609829
 31
0.0
  0
LINE
  5
2795C
330
27695
100
AcDbEntity
  8
YODOROGO
100
AcDbLine
 10
11825.10162798446
 20
679.4060611609832
 30
0.0
 11
11846.10162798447
 21
679.4060611609832
 31
0.0
  0
LINE
  5
2795D
330
27695
100
AcDbEntity
  8
YODOROGO
100
AcDbLine
 10
11858.10162798446
 20
745.4060611609828
 30
0.0
 11
11798.10162798446
 21
745.4060611609828
 31
0.0
  0
LINE
  5
2795E
330
27695
100
AcDbEntity
  8
YODOROGO
100
AcDbLine
 10
11825.10162798446
 20
718.4060611609829
 30
0.0
 11
11873.10162798447
 21
718.4060611609829
 31
0.0
  0
LINE
  5
2795F
330
27695
100
AcDbEntity
  8
YODOROGO
100
AcDbLine
 10
11888.10162798447
 20
703.4060611609828
 30
0.0
 11
11825.10162798446
 21
703.4060611609828
 31
0.0
  0
LINE
  5
27960
330
27695
100
AcDbEntity
  8
YODOROGO
100
AcDbLine
 10
11714.10162798447
 20
667.4060611609831
 30
0.0
 11
11756.10162798446
 21
667.4060611609831
 31
0.0
  0
LINE
  5
27961
330
27695
100
AcDbEntity
  8
YODOROGO
100
AcDbLine
 10
11714.10162798447
 20
688.4060611609828
 30
0.0
 11
11714.10162798447
 21
667.4060611609831
 31
0.0
  0
LINE
  5
27962
330
27695
100
AcDbEntity
  8
YODOROGO
100
AcDbLine
 10
11756.10162798446
 20
688.4060611609828
 30
0.0
 11
11714.10162798447
 21
688.4060611609828
 31
0.0
  0
LINE
  5
27963
330
27695
100
AcDbEntity
  8
YODOROGO
100
AcDbLine
 10
11756.10162798446
 20
667.4060611609831
 30
0.0
 11
11756.10162798446
 21
688.4060611609828
 31
0.0
  0
LINE
  5
27964
330
27695
100
AcDbEntity
  8
YODOROGO
100
AcDbLine
 10
11825.10162798446
 20
703.4060611609828
 30
0.0
 11
11825.10162798446
 21
718.4060611609829
 31
0.0
  0
LINE
  5
27965
330
27695
100
AcDbEntity
  8
YODOROGO
100
AcDbLine
 10
11780.10162798446
 20
640.4060611609828
 30
0.0
 11
11780.10162798446
 21
715.4060611609828
 31
0.0
  0
LINE
  5
27966
330
27695
100
AcDbEntity
  8
YODOROGO
100
AcDbLine
 10
11714.10162798447
 20
640.4060611609828
 30
0.0
 11
11780.10162798446
 21
640.4060611609828
 31
0.0
  0
LINE
  5
27967
330
27695
100
AcDbEntity
  8
YODOROGO
100
AcDbLine
 10
11780.10162798446
 20
736.4060611609825
 30
0.0
 11
11780.10162798446
 21
760.4060611609829
 31
0.0
  0
ARC
  5
27968
330
27695
100
AcDbEntity
  8
YODOROGO
100
AcDbCircle
 10
11858.10162798446
 20
751.4060611609817
 30
0.0
 40
5.999999999997952
100
AcDbArc
 50
270.0
 51
0.0000000000081422
  0
LINE
  5
27969
330
27695
100
AcDbEntity
  8
YODOROGO
100
AcDbLine
 10
11864.10162798447
 20
760.4060611609829
 30
0.0
 11
11864.10162798447
 21
751.4060611609825
 31
0.0
  0
LINE
  5
2796A
330
27695
100
AcDbEntity
  8
YODOROGO
100
AcDbLine
 10
11888.10162798447
 20
760.4060611609829
 30
0.0
 11
11864.10162798447
 21
760.4060611609829
 31
0.0
  0
LINE
  5
2796B
330
27695
100
AcDbEntity
  8
YODOROGO
100
AcDbLine
 10
11888.10162798447
 20
733.4060611609828
 30
0.0
 11
11888.10162798447
 21
760.4060611609829
 31
0.0
  0
ARC
  5
2796C
330
27695
100
AcDbEntity
  8
YODOROGO
100
AcDbCircle
 10
11873.10162798447
 20
733.4060611609828
 30
0.0
 40
15.0
100
AcDbArc
 50
270.0
 51
0.0
  0
LINE
  5
2796D
330
27695
100
AcDbEntity
  8
YODOROGO
100
AcDbLine
 10
11888.10162798447
 20
679.4060611609832
 30
0.0
 11
11888.10162798447
 21
703.4060611609828
 31
0.0
  0
LINE
  5
2796E
330
27695
100
AcDbEntity
  8
YODOROGO
100
AcDbLine
 10
11870.10162798446
 20
679.4060611609832
 30
0.0
 11
11888.10162798447
 21
679.4060611609832
 31
0.0
  0
LINE
  5
2796F
330
27695
100
AcDbEntity
  8
SUNPOU
100
AcDbLine
 10
3715.575305331611
 20
1570.23285196401
 30
0.0
 11
5168.075305331611
 21
1570.23285196401
 31
0.0
  0
LINE
  5
27970
330
27695
100
AcDbEntity
  8
SUNPOU
100
AcDbLine
 10
3715.575305331611
 20
1420.232851964012
 30
0.0
 11
5168.075305331611
 21
1420.232851964012
 31
0.0
  0
LINE
  5
27971
330
27695
100
AcDbEntity
  8
SUNPOU
100
AcDbLine
 10
5123.075305331611
 20
1555.23285196401
 30
0.0
 11
5123.075305331611
 21
1435.232851964012
 31
0.0
  0
LINE
  5
27972
330
27695
100
AcDbEntity
  8
SUNPOU
100
AcDbLine
 10
5123.075305331611
 20
1420.232851964012
 30
0.0
 11
5123.075305331611
 21
1169.518566249726
 31
0.0
  0
LINE
  5
27973
330
27695
100
AcDbEntity
  8
SUNPOU
100
AcDbLine
 10
4953.075305331611
 20
2320.232851964012
 30
0.0
 11
5168.075305331612
 21
2320.232851964012
 31
0.0
  0
LINE
  5
27974
330
27695
100
AcDbEntity
  8
SUNPOU
100
AcDbLine
 10
3715.575305331611
 20
1570.232851964012
 30
0.0
 11
5168.075305331611
 21
1570.232851964012
 31
0.0
  0
LINE
  5
27975
330
27695
100
AcDbEntity
  8
SUNPOU
100
AcDbLine
 10
5123.075305331612
 20
2305.232851964012
 30
0.0
 11
5123.075305331611
 21
1585.232851964013
 31
0.0
  0
LINE
  5
27976
330
27695
100
AcDbEntity
  8
SUNPOU
100
AcDbLine
 10
2485.575305331609
 20
1390.232851964012
 30
0.0
 11
2485.575305331609
 21
1045.23285196401
 31
0.0
  0
LINE
  5
27977
330
27695
100
AcDbEntity
  8
SUNPOU
100
AcDbLine
 10
3535.575305331609
 20
1390.232851964012
 30
0.0
 11
3535.575305331609
 21
1045.23285196401
 31
0.0
  0
LINE
  5
27978
330
27695
100
AcDbEntity
  8
SUNPOU
100
AcDbLine
 10
2500.575305331609
 20
1090.23285196401
 30
0.0
 11
3520.575305331609
 21
1090.23285196401
 31
0.0
  0
LINE
  5
27979
330
27695
100
AcDbEntity
  8
SUNPOU
100
AcDbLine
 10
2335.575305331609
 20
1390.232851964012
 30
0.0
 11
2335.575305331609
 21
835.2328519640115
 31
0.0
  0
LINE
  5
2797A
330
27695
100
AcDbEntity
  8
SUNPOU
100
AcDbLine
 10
3685.575305331609
 20
1390.232851964012
 30
0.0
 11
3685.575305331609
 21
835.2328519640115
 31
0.0
  0
LINE
  5
2797B
330
27695
100
AcDbEntity
  8
SUNPOU
100
AcDbLine
 10
2350.575305331609
 20
880.2328519640113
 30
0.0
 11
3670.575305331609
 21
880.2328519640113
 31
0.0
  0
ARC
  5
2797C
330
27695
100
AcDbEntity
  8
SUNPOU
100
AcDbCircle
 10
10847.52772773475
 20
7616.083850786248
 30
0.0
 40
5.625000000001817
100
AcDbArc
 50
270.0
 51
90.0
  0
ARC
  5
2797D
330
27695
100
AcDbEntity
  8
SUNPOU
100
AcDbCircle
 10
10847.52772773475
 20
7616.083850786248
 30
0.0
 40
5.625000000001817
100
AcDbArc
 50
90.0
 51
270.0
  0
ARC
  5
2797E
330
27695
100
AcDbEntity
  8
SUNPOU
100
AcDbCircle
 10
10637.52772773475
 20
7616.083850786248
 30
0.0
 40
5.625000000001817
100
AcDbArc
 50
270.0
 51
90.0
  0
ARC
  5
2797F
330
27695
100
AcDbEntity
  8
SUNPOU
100
AcDbCircle
 10
10637.52772773475
 20
7616.083850786248
 30
0.0
 40
5.625000000001817
100
AcDbArc
 50
90.0
 51
270.0
  0
ARC
  5
27980
330
27695
100
AcDbEntity
  8
SUNPOU
100
AcDbCircle
 10
10637.52772773475
 20
6416.08385078625
 30
0.0
 40
5.625
100
AcDbArc
 50
270.0
 51
90.0
  0
ARC
  5
27981
330
27695
100
AcDbEntity
  8
SUNPOU
100
AcDbCircle
 10
10637.52772773475
 20
6416.08385078625
 30
0.0
 40
5.625
100
AcDbArc
 50
90.0
 51
270.0
  0
ARC
  5
27982
330
27695
100
AcDbEntity
  8
SUNPOU
100
AcDbCircle
 10
10637.52772773475
 20
6416.08385078625
 30
0.0
 40
5.625
100
AcDbArc
 50
90.0
 51
270.0
  0
ARC
  5
27983
330
27695
100
AcDbEntity
  8
SUNPOU
100
AcDbCircle
 10
10637.52772773475
 20
6416.08385078625
 30
0.0
 40
5.625
100
AcDbArc
 50
270.0
 51
90.0
  0
ARC
  5
27984
330
27695
100
AcDbEntity
  8
SUNPOU
100
AcDbCircle
 10
10847.52772773475
 20
5016.08385078625
 30
0.0
 40
5.625
100
AcDbArc
 50
90.0
 51
270.0
  0
ARC
  5
27985
330
27695
100
AcDbEntity
  8
SUNPOU
100
AcDbCircle
 10
10847.52772773475
 20
5016.08385078625
 30
0.0
 40
5.625
100
AcDbArc
 50
270.0
 51
90.0
  0
ARC
  5
27986
330
27695
100
AcDbEntity
  8
SUNPOU
100
AcDbCircle
 10
10637.52772773475
 20
5016.08385078625
 30
0.0
 40
5.625
100
AcDbArc
 50
90.0
 51
270.0
  0
ARC
  5
27987
330
27695
100
AcDbEntity
  8
SUNPOU
100
AcDbCircle
 10
10637.52772773475
 20
5016.08385078625
 30
0.0
 40
5.625
100
AcDbArc
 50
270.0
 51
90.0
  0
ARC
  5
27988
330
27695
100
AcDbEntity
  8
SUNPOU
100
AcDbCircle
 10
9988.233743300249
 20
6378.58385078625
 30
0.0
 40
5.625
100
AcDbArc
 50
90.0
 51
270.0
  0
ARC
  5
27989
330
27695
100
AcDbEntity
  8
SUNPOU
100
AcDbCircle
 10
9988.233743300249
 20
6378.58385078625
 30
0.0
 40
5.625
100
AcDbArc
 50
270.0
 51
90.0
  0
ARC
  5
2798A
330
27695
100
AcDbEntity
  8
SUNPOU
100
AcDbCircle
 10
9988.233743300249
 20
6453.583850786251
 30
0.0
 40
5.625
100
AcDbArc
 50
90.0
 51
270.0
  0
ARC
  5
2798B
330
27695
100
AcDbEntity
  8
SUNPOU
100
AcDbCircle
 10
9988.233743300249
 20
6453.583850786251
 30
0.0
 40
5.625
100
AcDbArc
 50
270.0
 51
90.0
  0
ARC
  5
2798C
330
27695
100
AcDbEntity
  8
SUNPOU
100
AcDbCircle
 10
9810.027727734761
 20
6202.141006900598
 30
0.0
 40
5.624999999996362
100
AcDbArc
 50
180.0
 51
0.0
  0
ARC
  5
2798D
330
27695
100
AcDbEntity
  8
SUNPOU
100
AcDbCircle
 10
9810.027727734761
 20
6202.141006900598
 30
0.0
 40
5.624999999996362
100
AcDbArc
 50
0.0
 51
180.0
  0
ARC
  5
2798E
330
27695
100
AcDbEntity
  8
SUNPOU
100
AcDbCircle
 10
9745.027727734758
 20
6202.141006900598
 30
0.0
 40
5.625
100
AcDbArc
 50
180.0
 51
0.0
  0
ARC
  5
2798F
330
27695
100
AcDbEntity
  8
SUNPOU
100
AcDbCircle
 10
9745.027727734758
 20
6202.141006900598
 30
0.0
 40
5.625
100
AcDbArc
 50
0.0
 51
180.0
  0
ARC
  5
27990
330
27695
100
AcDbEntity
  8
SUNPOU
100
AcDbCircle
 10
10127.52772773475
 20
5766.08385078625
 30
0.0
 40
5.625
100
AcDbArc
 50
180.0
 51
0.0
  0
ARC
  5
27991
330
27695
100
AcDbEntity
  8
SUNPOU
100
AcDbCircle
 10
10127.52772773475
 20
5766.08385078625
 30
0.0
 40
5.625
100
AcDbArc
 50
0.0
 51
180.0
  0
ARC
  5
27992
330
27695
100
AcDbEntity
  8
SUNPOU
100
AcDbCircle
 10
9427.527727734755
 20
5766.08385078625
 30
0.0
 40
5.625
100
AcDbArc
 50
0.0
 51
180.0
  0
ARC
  5
27993
330
27695
100
AcDbEntity
  8
SUNPOU
100
AcDbCircle
 10
9427.527727734755
 20
5766.08385078625
 30
0.0
 40
5.625
100
AcDbArc
 50
180.0
 51
0.0
  0
ARC
  5
27994
330
27695
100
AcDbEntity
  8
SUNPOU
100
AcDbCircle
 10
10127.52772773475
 20
4616.08385078625
 30
0.0
 40
5.625
100
AcDbArc
 50
180.0
 51
0.0
  0
ARC
  5
27995
330
27695
100
AcDbEntity
  8
SUNPOU
100
AcDbCircle
 10
10127.52772773475
 20
4616.08385078625
 30
0.0
 40
5.625
100
AcDbArc
 50
0.0
 51
180.0
  0
ARC
  5
27996
330
27695
100
AcDbEntity
  8
SUNPOU
100
AcDbCircle
 10
9777.527727734756
 20
4616.08385078625
 30
0.0
 40
5.625
100
AcDbArc
 50
0.0
 51
180.0
  0
ARC
  5
27997
330
27695
100
AcDbEntity
  8
SUNPOU
100
AcDbCircle
 10
9777.527727734756
 20
4616.08385078625
 30
0.0
 40
5.625
100
AcDbArc
 50
180.0
 51
0.0
  0
ARC
  5
27998
330
27695
100
AcDbEntity
  8
SUNPOU
100
AcDbCircle
 10
9777.527727734756
 20
4616.08385078625
 30
0.0
 40
5.625
100
AcDbArc
 50
180.0
 51
0.0
  0
ARC
  5
27999
330
27695
100
AcDbEntity
  8
SUNPOU
100
AcDbCircle
 10
9777.527727734756
 20
4616.08385078625
 30
0.0
 40
5.625
100
AcDbArc
 50
0.0
 51
180.0
  0
ARC
  5
2799A
330
27695
100
AcDbEntity
  8
SUNPOU
100
AcDbCircle
 10
6977.527727734763
 20
4616.08385078625
 30
0.0
 40
5.625
100
AcDbArc
 50
0.0
 51
180.0
  0
ARC
  5
2799B
330
27695
100
AcDbEntity
  8
SUNPOU
100
AcDbCircle
 10
6977.527727734763
 20
4616.08385078625
 30
0.0
 40
5.625
100
AcDbArc
 50
180.0
 51
0.0
  0
ARC
  5
2799C
330
27695
100
AcDbEntity
  8
SUNPOU
100
AcDbCircle
 10
6977.527727734763
 20
4616.08385078625
 30
0.0
 40
5.625
100
AcDbArc
 50
180.0
 51
0.0
  0
ARC
  5
2799D
330
27695
100
AcDbEntity
  8
SUNPOU
100
AcDbCircle
 10
6977.527727734763
 20
4616.08385078625
 30
0.0
 40
5.625
100
AcDbArc
 50
0.0
 51
180.0
  0
LINE
  5
2799E
330
27695
100
AcDbEntity
  8
SUNPOU
100
AcDbLine
 10
10427.52772773475
 20
6077.333850786249
 30
0.0
 11
10427.52772773475
 21
6088.58385078625
 31
0.0
  0
LINE
  5
2799F
330
27695
100
AcDbEntity
  8
SUNPOU
100
AcDbLine
 10
10427.52772773475
 20
6754.833850786249
 30
0.0
 11
10427.52772773475
 21
6743.58385078625
 31
0.0
  0
ARC
  5
279A0
330
27695
100
AcDbEntity
  8
SUNPOU
100
AcDbCircle
 10
10127.52772773475
 20
4406.08385078625
 30
0.0
 40
5.625
100
AcDbArc
 50
180.0
 51
0.0
  0
ARC
  5
279A1
330
27695
100
AcDbEntity
  8
SUNPOU
100
AcDbCircle
 10
10127.52772773475
 20
4406.08385078625
 30
0.0
 40
5.625
100
AcDbArc
 50
0.0
 51
180.0
  0
ARC
  5
279A2
330
27695
100
AcDbEntity
  8
SUNPOU
100
AcDbCircle
 10
5277.527727734764
 20
4616.08385078625
 30
0.0
 40
5.625
100
AcDbArc
 50
0.0
 51
180.0
  0
ARC
  5
279A3
330
27695
100
AcDbEntity
  8
SUNPOU
100
AcDbCircle
 10
5277.527727734764
 20
4616.08385078625
 30
0.0
 40
5.625
100
AcDbArc
 50
180.0
 51
0.0
  0
ARC
  5
279A4
330
27695
100
AcDbEntity
  8
SUNPOU
100
AcDbCircle
 10
5277.527727734764
 20
4616.08385078625
 30
0.0
 40
5.625
100
AcDbArc
 50
180.0
 51
0.0
  0
ARC
  5
279A5
330
27695
100
AcDbEntity
  8
SUNPOU
100
AcDbCircle
 10
5277.527727734764
 20
4616.08385078625
 30
0.0
 40
5.625
100
AcDbArc
 50
0.0
 51
180.0
  0
ARC
  5
279A6
330
27695
100
AcDbEntity
  8
SUNPOU
100
AcDbCircle
 10
2477.527727734767
 20
4616.08385078625
 30
0.0
 40
5.625
100
AcDbArc
 50
0.0
 51
180.0
  0
ARC
  5
279A7
330
27695
100
AcDbEntity
  8
SUNPOU
100
AcDbCircle
 10
2477.527727734767
 20
4616.08385078625
 30
0.0
 40
5.625
100
AcDbArc
 50
180.0
 51
0.0
  0
ARC
  5
279A8
330
27695
100
AcDbEntity
  8
SUNPOU
100
AcDbCircle
 10
2477.527727734767
 20
4616.08385078625
 30
0.0
 40
5.625
100
AcDbArc
 50
180.0
 51
0.0
  0
ARC
  5
279A9
330
27695
100
AcDbEntity
  8
SUNPOU
100
AcDbCircle
 10
2477.527727734767
 20
4616.08385078625
 30
0.0
 40
5.625
100
AcDbArc
 50
0.0
 51
180.0
  0
ARC
  5
279AA
330
27695
100
AcDbEntity
  8
SUNPOU
100
AcDbCircle
 10
2127.527727734766
 20
4616.08385078625
 30
0.0
 40
5.625
100
AcDbArc
 50
0.0
 51
180.0
  0
ARC
  5
279AB
330
27695
100
AcDbEntity
  8
SUNPOU
100
AcDbCircle
 10
2127.527727734766
 20
4616.08385078625
 30
0.0
 40
5.625
100
AcDbArc
 50
180.0
 51
0.0
  0
ARC
  5
279AC
330
27695
100
AcDbEntity
  8
SUNPOU
100
AcDbCircle
 10
2127.527727734766
 20
4406.08385078625
 30
0.0
 40
5.625
100
AcDbArc
 50
0.0
 51
180.0
  0
ARC
  5
279AD
330
27695
100
AcDbEntity
  8
SUNPOU
100
AcDbCircle
 10
2127.527727734766
 20
4406.08385078625
 30
0.0
 40
5.625
100
AcDbArc
 50
180.0
 51
0.0
  0
ARC
  5
279AE
330
27695
100
AcDbEntity
  8
SUNPOU
100
AcDbCircle
 10
10427.52772773475
 20
6766.083850786251
 30
0.0
 40
5.625
100
AcDbArc
 50
270.0
 51
90.0
  0
ARC
  5
279AF
330
27695
100
AcDbEntity
  8
SUNPOU
100
AcDbCircle
 10
10427.52772773475
 20
6766.083850786251
 30
0.0
 40
5.625
100
AcDbArc
 50
90.0
 51
270.0
  0
ARC
  5
279B0
330
27695
100
AcDbEntity
  8
SUNPOU
100
AcDbCircle
 10
10427.52772773475
 20
6066.08385078625
 30
0.0
 40
5.625
100
AcDbArc
 50
90.0
 51
270.0
  0
ARC
  5
279B1
330
27695
100
AcDbEntity
  8
SUNPOU
100
AcDbCircle
 10
10427.52772773475
 20
6066.08385078625
 30
0.0
 40
5.625
100
AcDbArc
 50
270.0
 51
90.0
  0
TEXT
  5
279B2
330
27695
100
AcDbEntity
  8
SUNPOU
100
AcDbText
 10
2866.575305331609
 20
925.2328519640114
 30
0.0
 40
90.0
  1
900 □
 41
0.6666666666666666
  7
00
100
AcDbText
  0
LINE
  5
279B3
330
27695
100
AcDbEntity
  8
SUNPOU
100
AcDbLine
 10
3674.325305331609
 20
880.2328519640113
 30
0.0
 11
3663.075305331609
 21
880.2328519640113
 31
0.0
  0
LINE
  5
279B4
330
27695
100
AcDbEntity
  8
SUNPOU
100
AcDbLine
 10
2346.825305331609
 20
880.2328519640113
 30
0.0
 11
2358.075305331609
 21
880.2328519640113
 31
0.0
  0
TEXT
  5
279B5
330
27695
100
AcDbEntity
  8
SUNPOU
100
AcDbText
 10
2866.575305331609
 20
1135.23285196401
 30
0.0
 40
90.0
  1
700 □
 41
0.6666666666666666
  7
00
100
AcDbText
  0
LINE
  5
279B6
330
27695
100
AcDbEntity
  8
SUNPOU
100
AcDbLine
 10
3524.325305331609
 20
1090.23285196401
 30
0.0
 11
3513.075305331609
 21
1090.23285196401
 31
0.0
  0
LINE
  5
279B7
330
27695
100
AcDbEntity
  8
SUNPOU
100
AcDbLine
 10
2496.825305331609
 20
1090.23285196401
 30
0.0
 11
2508.075305331609
 21
1090.23285196401
 31
0.0
  0
TEXT
  5
279B8
330
27695
100
AcDbEntity
  8
SUNPOU
100
AcDbText
 10
5078.075305331611
 20
1859.518566249726
 30
0.0
 40
90.0
  1
500
 50
90.0
 41
0.6666666666666666
  7
00
100
AcDbText
  0
LINE
  5
279B9
330
27695
100
AcDbEntity
  8
SUNPOU
100
AcDbLine
 10
5123.075305331611
 20
1581.482851964013
 30
0.0
 11
5123.075305331611
 21
1592.732851964012
 31
0.0
  0
LINE
  5
279BA
330
27695
100
AcDbEntity
  8
SUNPOU
100
AcDbLine
 10
5123.075305331612
 20
2308.982851964012
 30
0.0
 11
5123.075305331612
 21
2297.732851964012
 31
0.0
  0
TEXT
  5
279BB
330
27695
100
AcDbEntity
  8
SUNPOU
100
AcDbText
 10
5078.075305331611
 20
1197.375709106869
 30
0.0
 40
90.0
  1
100
 50
90.0
 41
0.6666666666666666
  7
00
100
AcDbText
  0
LINE
  5
279BC
330
27695
100
AcDbEntity
  8
SUNPOU
100
AcDbLine
 10
5123.075305331611
 20
1431.482851964012
 30
0.0
 11
5123.075305331611
 21
1442.732851964012
 31
0.0
  0
LINE
  5
279BD
330
27695
100
AcDbEntity
  8
SUNPOU
100
AcDbLine
 10
5123.075305331611
 20
1558.98285196401
 30
0.0
 11
5123.075305331611
 21
1547.73285196401
 31
0.0
  0
ARC
  5
279BE
330
27695
100
AcDbEntity
  8
SUNPOU
100
AcDbCircle
 10
5123.075305331611
 20
1570.23285196401
 30
0.0
 40
5.625
100
AcDbArc
 50
270.0
 51
90.0
  0
ARC
  5
279BF
330
27695
100
AcDbEntity
  8
SUNPOU
100
AcDbCircle
 10
5123.075305331611
 20
1570.23285196401
 30
0.0
 40
5.625
100
AcDbArc
 50
90.0
 51
270.0
  0
ARC
  5
279C0
330
27695
100
AcDbEntity
  8
SUNPOU
100
AcDbCircle
 10
5123.075305331611
 20
1420.232851964012
 30
0.0
 40
5.625
100
AcDbArc
 50
90.0
 51
270.0
  0
ARC
  5
279C1
330
27695
100
AcDbEntity
  8
SUNPOU
100
AcDbCircle
 10
5123.075305331611
 20
1420.232851964012
 30
0.0
 40
5.625
100
AcDbArc
 50
270.0
 51
90.0
  0
ARC
  5
279C2
330
27695
100
AcDbEntity
  8
SUNPOU
100
AcDbCircle
 10
5123.075305331612
 20
2320.232851964012
 30
0.0
 40
5.625
100
AcDbArc
 50
270.0
 51
90.0
  0
ARC
  5
279C3
330
27695
100
AcDbEntity
  8
SUNPOU
100
AcDbCircle
 10
5123.075305331612
 20
2320.232851964012
 30
0.0
 40
5.625
100
AcDbArc
 50
90.0
 51
270.0
  0
ARC
  5
279C4
330
27695
100
AcDbEntity
  8
SUNPOU
100
AcDbCircle
 10
5123.075305331611
 20
1570.232851964012
 30
0.0
 40
5.625
100
AcDbArc
 50
90.0
 51
270.0
  0
ARC
  5
279C5
330
27695
100
AcDbEntity
  8
SUNPOU
100
AcDbCircle
 10
5123.075305331611
 20
1570.232851964012
 30
0.0
 40
5.625
100
AcDbArc
 50
270.0
 51
90.0
  0
ARC
  5
279C6
330
27695
100
AcDbEntity
  8
SUNPOU
100
AcDbCircle
 10
2485.575305331609
 20
1090.23285196401
 30
0.0
 40
5.625
100
AcDbArc
 50
0.0
 51
180.0
  0
ARC
  5
279C7
330
27695
100
AcDbEntity
  8
SUNPOU
100
AcDbCircle
 10
2485.575305331609
 20
1090.23285196401
 30
0.0
 40
5.625
100
AcDbArc
 50
180.0
 51
0.0
  0
ARC
  5
279C8
330
27695
100
AcDbEntity
  8
SUNPOU
100
AcDbCircle
 10
3535.575305331609
 20
1090.23285196401
 30
0.0
 40
5.625
100
AcDbArc
 50
180.0
 51
0.0
  0
ARC
  5
279C9
330
27695
100
AcDbEntity
  8
SUNPOU
100
AcDbCircle
 10
3535.575305331609
 20
1090.23285196401
 30
0.0
 40
5.625
100
AcDbArc
 50
0.0
 51
180.0
  0
ARC
  5
279CA
330
27695
100
AcDbEntity
  8
SUNPOU
100
AcDbCircle
 10
2335.575305331609
 20
880.2328519640113
 30
0.0
 40
5.625
100
AcDbArc
 50
0.0
 51
180.0
  0
ARC
  5
279CB
330
27695
100
AcDbEntity
  8
SUNPOU
100
AcDbCircle
 10
2335.575305331609
 20
880.2328519640113
 30
0.0
 40
5.625
100
AcDbArc
 50
180.0
 51
0.0
  0
ARC
  5
279CC
330
27695
100
AcDbEntity
  8
SUNPOU
100
AcDbCircle
 10
3685.575305331609
 20
880.2328519640113
 30
0.0
 40
5.625
100
AcDbArc
 50
180.0
 51
0.0
  0
ARC
  5
279CD
330
27695
100
AcDbEntity
  8
SUNPOU
100
AcDbCircle
 10
3685.575305331609
 20
880.2328519640113
 30
0.0
 40
5.625
100
AcDbArc
 50
0.0
 51
180.0
  0
CIRCLE
  5
279CE
330
27695
100
AcDbEntity
  8
HIKIDASHI
100
AcDbCircle
 10
3010.57530533161
 20
1660.23285196401
 30
0.0
 40
9.0
  0
CIRCLE
  5
279CF
330
27695
100
AcDbEntity
  8
HIKIDASHI
100
AcDbCircle
 10
3010.57530533161
 20
1600.23285196401
 30
0.0
 40
9.0
  0
ARC
  5
279D0
330
27695
100
AcDbEntity
  8
HIKIDASHI
100
AcDbCircle
 10
3010.57530533161
 20
1600.23285196401
 30
0.0
 40
4.5
100
AcDbArc
 50
180.0
 51
0.0
  0
ARC
  5
279D1
330
27695
100
AcDbEntity
  8
HIKIDASHI
100
AcDbCircle
 10
3010.57530533161
 20
1600.23285196401
 30
0.0
 40
4.5
100
AcDbArc
 50
0.0
 51
180.0
  0
ARC
  5
279D2
330
27695
100
AcDbEntity
  8
HIKIDASHI
100
AcDbCircle
 10
3010.57530533161
 20
1660.23285196401
 30
0.0
 40
4.5
100
AcDbArc
 50
180.0
 51
0.0
  0
ARC
  5
279D3
330
27695
100
AcDbEntity
  8
HIKIDASHI
100
AcDbCircle
 10
3010.57530533161
 20
1660.23285196401
 30
0.0
 40
4.5
100
AcDbArc
 50
0.0
 51
180.0
  0
LINE
  5
279D4
330
27695
100
AcDbEntity
  8
HATCH
100
AcDbLine
 10
2404.774035142397
 20
1420.232851964007
 30
0.0
 11
2491.376575520828
 21
1570.232851963984
 31
0.0
  0
LINE
  5
279D5
330
27695
100
AcDbEntity
  8
HATCH
100
AcDbLine
 10
2431.376575520836
 20
1570.232851963981
 30
0.0
 11
2461.376575520832
 21
1518.271327736928
 31
0.0
  0
LINE
  5
279D6
330
27695
100
AcDbEntity
  8
HATCH
100
AcDbLine
 10
2434.774035142392
 20
1472.194376191065
 30
0.0
 11
2464.774035142388
 21
1420.232851964007
 31
0.0
  0
LINE
  5
279D7
330
27695
100
AcDbEntity
  8
HATCH
100
AcDbLine
 10
2592.274035142395
 20
1420.232851964007
 30
0.0
 11
2678.876575520826
 21
1570.232851963984
 31
0.0
  0
LINE
  5
279D8
330
27695
100
AcDbEntity
  8
HATCH
100
AcDbLine
 10
2618.876575520836
 20
1570.232851963982
 30
0.0
 11
2648.876575520831
 21
1518.271327736928
 31
0.0
  0
LINE
  5
279D9
330
27695
100
AcDbEntity
  8
HATCH
100
AcDbLine
 10
2622.274035142391
 20
1472.194376191066
 30
0.0
 11
2652.274035142387
 21
1420.232851964007
 31
0.0
  0
LINE
  5
279DA
330
27695
100
AcDbEntity
  8
HATCH
100
AcDbLine
 10
3529.774035142399
 20
1420.232851964009
 30
0.0
 11
3616.376575520831
 21
1570.232851963987
 31
0.0
  0
LINE
  5
279DB
330
27695
100
AcDbEntity
  8
HATCH
100
AcDbLine
 10
3556.37657552084
 20
1570.232851963985
 30
0.0
 11
3586.376575520835
 21
1518.271327736931
 31
0.0
  0
LINE
  5
279DC
330
27695
100
AcDbEntity
  8
HATCH
100
AcDbLine
 10
3559.774035142395
 20
1472.194376191069
 30
0.0
 11
3589.77403514239
 21
1420.232851964009
 31
0.0
  0
LINE
  5
279DD
330
27695
100
AcDbEntity
  8
HATCH
100
AcDbLine
 10
3342.274035142398
 20
1420.232851964009
 30
0.0
 11
3428.87657552083
 21
1570.232851963987
 31
0.0
  0
LINE
  5
279DE
330
27695
100
AcDbEntity
  8
HATCH
100
AcDbLine
 10
3368.876575520839
 20
1570.232851963985
 30
0.0
 11
3398.876575520834
 21
1518.271327736931
 31
0.0
  0
LINE
  5
279DF
330
27695
100
AcDbEntity
  8
HATCH
100
AcDbLine
 10
3372.274035142393
 20
1472.194376191069
 30
0.0
 11
3402.274035142389
 21
1420.232851964009
 31
0.0
  0
LINE
  5
279E0
330
27695
100
AcDbEntity
  8
HATCH
100
AcDbLine
 10
2967.274035142397
 20
1420.232851964009
 30
0.0
 11
3053.876575520828
 21
1570.232851963987
 31
0.0
  0
LINE
  5
279E1
330
27695
100
AcDbEntity
  8
HATCH
100
AcDbLine
 10
2993.876575520836
 20
1570.232851963985
 30
0.0
 11
3023.876575520832
 21
1518.271327736931
 31
0.0
  0
LINE
  5
279E2
330
27695
100
AcDbEntity
  8
HATCH
100
AcDbLine
 10
2997.274035142392
 20
1472.194376191069
 30
0.0
 11
3027.274035142387
 21
1420.232851964009
 31
0.0
  0
LINE
  5
279E3
330
27695
100
AcDbEntity
  8
HATCH
100
AcDbLine
 10
2779.774035142395
 20
1420.232851964009
 30
0.0
 11
2866.376575520826
 21
1570.232851963987
 31
0.0
  0
LINE
  5
279E4
330
27695
100
AcDbEntity
  8
HATCH
100
AcDbLine
 10
2806.376575520836
 20
1570.232851963985
 30
0.0
 11
2836.376575520831
 21
1518.271327736931
 31
0.0
  0
LINE
  5
279E5
330
27695
100
AcDbEntity
  8
HATCH
100
AcDbLine
 10
2809.774035142391
 20
1472.194376191069
 30
0.0
 11
2839.774035142387
 21
1420.232851964009
 31
0.0
  0
LINE
  5
279E6
330
27695
100
AcDbEntity
  8
HATCH
100
AcDbLine
 10
3154.774035142397
 20
1420.232851964009
 30
0.0
 11
3241.376575520828
 21
1570.232851963987
 31
0.0
  0
LINE
  5
279E7
330
27695
100
AcDbEntity
  8
HATCH
100
AcDbLine
 10
3181.376575520837
 20
1570.232851963985
 30
0.0
 11
3211.376575520833
 21
1518.271327736931
 31
0.0
  0
LINE
  5
279E8
330
27695
100
AcDbEntity
  8
HATCH
100
AcDbLine
 10
3184.774035142393
 20
1472.194376191069
 30
0.0
 11
3214.774035142389
 21
1420.232851964009
 31
0.0
  0
LINE
  5
279E9
330
27695
100
AcDbEntity
  8
HATCH
100
AcDbLine
 10
4871.113781104652
 20
2095.232851964014
 30
0.0
 11
4923.07530533176
 21
2185.232851964086
 31
0.0
  0
LINE
  5
279EA
330
27695
100
AcDbEntity
  8
HATCH
100
AcDbLine
 10
4887.075305331731
 20
2185.232851964084
 30
0.0
 11
4905.075305331745
 21
2154.055937427823
 31
0.0
  0
LINE
  5
279EB
330
27695
100
AcDbEntity
  8
HATCH
100
AcDbLine
 10
4889.113781104667
 20
2126.40976650028
 30
0.0
 11
4907.113781104681
 21
2095.232851964014
 31
0.0
  0
LINE
  5
279EC
330
27695
100
AcDbEntity
  8
HATCH
100
AcDbLine
 10
4736.113781104648
 20
2095.232851964014
 30
0.0
 11
4788.075305331758
 21
2185.232851964086
 31
0.0
  0
LINE
  5
279ED
330
27695
100
AcDbEntity
  8
HATCH
100
AcDbLine
 10
4752.075305331728
 20
2185.232851964084
 30
0.0
 11
4770.075305331742
 21
2154.055937427823
 31
0.0
  0
LINE
  5
279EE
330
27695
100
AcDbEntity
  8
HATCH
100
AcDbLine
 10
4754.113781104662
 20
2126.40976650028
 30
0.0
 11
4772.113781104677
 21
2095.232851964014
 31
0.0
  0
LINE
  5
279EF
330
27695
100
AcDbEntity
  8
HATCH
100
AcDbLine
 10
4601.11378110465
 20
2095.232851964014
 30
0.0
 11
4653.07530533176
 21
2185.232851964086
 31
0.0
  0
LINE
  5
279F0
330
27695
100
AcDbEntity
  8
HATCH
100
AcDbLine
 10
4617.075305331731
 20
2185.232851964084
 30
0.0
 11
4635.075305331746
 21
2154.055937427823
 31
0.0
  0
LINE
  5
279F1
330
27695
100
AcDbEntity
  8
HATCH
100
AcDbLine
 10
4619.113781104666
 20
2126.40976650028
 30
0.0
 11
4637.113781104681
 21
2095.232851964014
 31
0.0
  0
LINE
  5
279F2
330
27695
100
AcDbEntity
  8
HATCH
100
AcDbLine
 10
4466.113781104652
 20
2095.232851964012
 30
0.0
 11
4518.07530533176
 21
2185.232851964083
 31
0.0
  0
LINE
  5
279F3
330
27695
100
AcDbEntity
  8
HATCH
100
AcDbLine
 10
4482.075305331731
 20
2185.232851964083
 30
0.0
 11
4500.075305331746
 21
2154.055937427821
 31
0.0
  0
LINE
  5
279F4
330
27695
100
AcDbEntity
  8
HATCH
100
AcDbLine
 10
4484.113781104666
 20
2126.409766500279
 30
0.0
 11
4502.113781104681
 21
2095.232851964012
 31
0.0
  0
LINE
  5
279F5
330
27695
100
AcDbEntity
  8
HATCH
100
AcDbLine
 10
4196.113781104652
 20
2095.232851964012
 30
0.0
 11
4248.07530533176
 21
2185.232851964083
 31
0.0
  0
LINE
  5
279F6
330
27695
100
AcDbEntity
  8
HATCH
100
AcDbLine
 10
4212.075305331731
 20
2185.232851964083
 30
0.0
 11
4230.075305331745
 21
2154.055937427821
 31
0.0
  0
LINE
  5
279F7
330
27695
100
AcDbEntity
  8
HATCH
100
AcDbLine
 10
4214.113781104667
 20
2126.409766500279
 30
0.0
 11
4232.113781104681
 21
2095.232851964012
 31
0.0
  0
LINE
  5
279F8
330
27695
100
AcDbEntity
  8
HATCH
100
AcDbLine
 10
3926.113781104652
 20
2095.232851964012
 30
0.0
 11
3978.07530533176
 21
2185.232851964083
 31
0.0
  0
LINE
  5
279F9
330
27695
100
AcDbEntity
  8
HATCH
100
AcDbLine
 10
3942.07530533173
 20
2185.232851964083
 30
0.0
 11
3960.075305331746
 21
2154.055937427821
 31
0.0
  0
LINE
  5
279FA
330
27695
100
AcDbEntity
  8
HATCH
100
AcDbLine
 10
3944.113781104667
 20
2126.409766500279
 30
0.0
 11
3962.11378110468
 21
2095.232851964012
 31
0.0
  0
LINE
  5
279FB
330
27695
100
AcDbEntity
  8
HATCH
100
AcDbLine
 10
4061.11378110465
 20
2095.232851964014
 30
0.0
 11
4113.075305331761
 21
2185.232851964086
 31
0.0
  0
LINE
  5
279FC
330
27695
100
AcDbEntity
  8
HATCH
100
AcDbLine
 10
4077.075305331731
 20
2185.232851964084
 30
0.0
 11
4095.075305331746
 21
2154.055937427823
 31
0.0
  0
LINE
  5
279FD
330
27695
100
AcDbEntity
  8
HATCH
100
AcDbLine
 10
4079.113781104665
 20
2126.40976650028
 30
0.0
 11
4097.11378110468
 21
2095.232851964014
 31
0.0
  0
LINE
  5
279FE
330
27695
100
AcDbEntity
  8
HATCH
100
AcDbLine
 10
3656.113781104652
 20
2095.232851964012
 30
0.0
 11
3708.07530533176
 21
2185.232851964083
 31
0.0
  0
LINE
  5
279FF
330
27695
100
AcDbEntity
  8
HATCH
100
AcDbLine
 10
3672.07530533173
 20
2185.232851964083
 30
0.0
 11
3690.075305331745
 21
2154.055937427821
 31
0.0
  0
LINE
  5
27A00
330
27695
100
AcDbEntity
  8
HATCH
100
AcDbLine
 10
3674.113781104666
 20
2126.409766500279
 30
0.0
 11
3692.11378110468
 21
2095.232851964012
 31
0.0
  0
LINE
  5
27A01
330
27695
100
AcDbEntity
  8
HATCH
100
AcDbLine
 10
3535.575305331718
 20
2095.232851964012
 30
0.0
 11
3587.536829558827
 21
2185.232851964083
 31
0.0
  0
LINE
  5
27A02
330
27695
100
AcDbEntity
  8
HATCH
100
AcDbLine
 10
3551.536829558798
 20
2185.232851964083
 30
0.0
 11
3569.536829558813
 21
2154.055937427821
 31
0.0
  0
LINE
  5
27A03
330
27695
100
AcDbEntity
  8
HATCH
100
AcDbLine
 10
3553.575305331733
 20
2126.409766500279
 30
0.0
 11
3571.575305331747
 21
2095.232851964012
 31
0.0
  0
LINE
  5
27A04
330
27695
100
AcDbEntity
  8
HATCH
100
AcDbLine
 10
3791.113781104652
 20
2095.232851964012
 30
0.0
 11
3843.07530533176
 21
2185.232851964083
 31
0.0
  0
LINE
  5
27A05
330
27695
100
AcDbEntity
  8
HATCH
100
AcDbLine
 10
3807.075305331731
 20
2185.232851964083
 30
0.0
 11
3825.075305331746
 21
2154.055937427821
 31
0.0
  0
LINE
  5
27A06
330
27695
100
AcDbEntity
  8
HATCH
100
AcDbLine
 10
3809.113781104667
 20
2126.409766500279
 30
0.0
 11
3827.11378110468
 21
2095.232851964012
 31
0.0
  0
LINE
  5
27A07
330
27695
100
AcDbEntity
  8
HATCH
100
AcDbLine
 10
2418.075305331715
 20
2095.232851964008
 30
0.0
 11
2470.036829558822
 21
2185.232851964081
 31
0.0
  0
LINE
  5
27A08
330
27695
100
AcDbEntity
  8
HATCH
100
AcDbLine
 10
2434.036829558794
 20
2185.23285196408
 30
0.0
 11
2452.036829558808
 21
2154.055937427818
 31
0.0
  0
LINE
  5
27A09
330
27695
100
AcDbEntity
  8
HATCH
100
AcDbLine
 10
2436.075305331729
 20
2126.409766500274
 30
0.0
 11
2454.075305331743
 21
2095.232851964008
 31
0.0
  0
LINE
  5
27A0A
330
27695
100
AcDbEntity
  8
HATCH
100
AcDbLine
 10
4331.113781104652
 20
2095.232851964014
 30
0.0
 11
4383.07530533176
 21
2185.232851964086
 31
0.0
  0
LINE
  5
27A0B
330
27695
100
AcDbEntity
  8
HATCH
100
AcDbLine
 10
4347.075305331729
 20
2185.232851964084
 30
0.0
 11
4365.075305331745
 21
2154.055937427823
 31
0.0
  0
LINE
  5
27A0C
330
27695
100
AcDbEntity
  8
HATCH
100
AcDbLine
 10
4349.113781104665
 20
2126.40976650028
 30
0.0
 11
4367.113781104681
 21
2095.232851964014
 31
0.0
  0
LINE
  5
27A0D
330
27695
100
AcDbEntity
  8
HATCH
100
AcDbLine
 10
2283.075305331715
 20
2095.232851964008
 30
0.0
 11
2335.036829558823
 21
2185.232851964081
 31
0.0
  0
LINE
  5
27A0E
330
27695
100
AcDbEntity
  8
HATCH
100
AcDbLine
 10
2299.036829558794
 20
2185.23285196408
 30
0.0
 11
2317.036829558808
 21
2154.055937427818
 31
0.0
  0
LINE
  5
27A0F
330
27695
100
AcDbEntity
  8
HATCH
100
AcDbLine
 10
2301.075305331729
 20
2126.409766500274
 30
0.0
 11
2319.075305331744
 21
2095.232851964008
 31
0.0
  0
LINE
  5
27A10
330
27695
100
AcDbEntity
  8
HATCH
100
AcDbLine
 10
2148.075305331714
 20
2095.232851964008
 30
0.0
 11
2200.036829558822
 21
2185.232851964081
 31
0.0
  0
LINE
  5
27A11
330
27695
100
AcDbEntity
  8
HATCH
100
AcDbLine
 10
2164.036829558793
 20
2185.23285196408
 30
0.0
 11
2182.036829558808
 21
2154.055937427818
 31
0.0
  0
LINE
  5
27A12
330
27695
100
AcDbEntity
  8
HATCH
100
AcDbLine
 10
2166.075305331728
 20
2126.409766500274
 30
0.0
 11
2184.075305331743
 21
2095.232851964008
 31
0.0
  0
LINE
  5
27A13
330
27695
100
AcDbEntity
  8
HASHIRA
  6
Continuous
100
AcDbLine
 10
9810.027727734755
 20
6378.58385078625
 30
0.0
 11
9745.027727734758
 21
6378.58385078625
 31
0.0
  0
LINE
  5
27A14
330
27695
100
AcDbEntity
  8
HASHIRA
  6
Continuous
100
AcDbLine
 10
9745.027727734758
 20
6378.58385078625
 30
0.0
 11
9745.027727734758
 21
6453.583850786251
 31
0.0
  0
LINE
  5
27A15
330
27695
100
AcDbEntity
  8
HASHIRA
  6
Continuous
100
AcDbLine
 10
9745.027727734758
 20
6453.583850786251
 30
0.0
 11
9810.027727734755
 21
6453.583850786251
 31
0.0
  0
LINE
  5
27A16
330
27695
100
AcDbEntity
  8
HASHIRA
  6
Continuous
100
AcDbLine
 10
9810.027727734755
 20
6453.583850786251
 30
0.0
 11
9810.027727734755
 21
6378.58385078625
 31
0.0
  0
LINE
  5
27A17
330
27695
100
AcDbEntity
  8
U2
100
AcDbLine
 10
9427.52772773476
 20
6066.08385078625
 30
0.0
 11
10127.52772773475
 21
6066.08385078625
 31
0.0
  0
LINE
  5
27A18
330
27695
100
AcDbEntity
  8
U2
100
AcDbLine
 10
10127.52772773475
 20
6066.08385078625
 30
0.0
 11
10127.52772773475
 21
6766.083850786251
 31
0.0
  0
LINE
  5
27A19
330
27695
100
AcDbEntity
  8
U2
100
AcDbLine
 10
10127.52772773475
 20
6766.083850786251
 30
0.0
 11
9427.52772773476
 21
6766.083850786251
 31
0.0
  0
LINE
  5
27A1A
330
27695
100
AcDbEntity
  8
U2
100
AcDbLine
 10
9427.52772773476
 20
6766.083850786251
 30
0.0
 11
9427.52772773476
 21
6066.08385078625
 31
0.0
  0
LINE
  5
27A1B
330
27695
100
AcDbEntity
  8
HASHIRA
  6
Continuous
100
AcDbLine
 10
7010.027727734763
 20
6378.58385078625
 30
0.0
 11
6945.027727734764
 21
6378.58385078625
 31
0.0
  0
LINE
  5
27A1C
330
27695
100
AcDbEntity
  8
HASHIRA
  6
Continuous
100
AcDbLine
 10
6945.027727734764
 20
6378.58385078625
 30
0.0
 11
6945.027727734764
 21
6453.583850786251
 31
0.0
  0
LINE
  5
27A1D
330
27695
100
AcDbEntity
  8
HASHIRA
  6
Continuous
100
AcDbLine
 10
6945.027727734764
 20
6453.583850786251
 30
0.0
 11
7010.027727734763
 21
6453.583850786251
 31
0.0
  0
LINE
  5
27A1E
330
27695
100
AcDbEntity
  8
HASHIRA
  6
Continuous
100
AcDbLine
 10
7010.027727734763
 20
6453.583850786251
 30
0.0
 11
7010.027727734763
 21
6378.58385078625
 31
0.0
  0
LINE
  5
27A1F
330
27695
100
AcDbEntity
  8
U2
100
AcDbLine
 10
6627.527727734762
 20
6066.08385078625
 30
0.0
 11
7327.527727734763
 21
6066.08385078625
 31
0.0
  0
LINE
  5
27A20
330
27695
100
AcDbEntity
  8
U2
100
AcDbLine
 10
7327.527727734763
 20
6066.08385078625
 30
0.0
 11
7327.527727734763
 21
6766.083850786251
 31
0.0
  0
LINE
  5
27A21
330
27695
100
AcDbEntity
  8
U2
100
AcDbLine
 10
7327.527727734763
 20
6766.083850786251
 30
0.0
 11
6627.527727734762
 21
6766.083850786251
 31
0.0
  0
LINE
  5
27A22
330
27695
100
AcDbEntity
  8
U2
100
AcDbLine
 10
6627.527727734762
 20
6766.083850786251
 30
0.0
 11
6627.527727734762
 21
6066.08385078625
 31
0.0
  0
LINE
  5
27A23
330
27695
100
AcDbEntity
  8
HASHIRA
  6
Continuous
100
AcDbLine
 10
5310.027727734762
 20
6378.58385078625
 30
0.0
 11
5245.027727734763
 21
6378.58385078625
 31
0.0
  0
LINE
  5
27A24
330
27695
100
AcDbEntity
  8
HASHIRA
  6
Continuous
100
AcDbLine
 10
5245.027727734763
 20
6378.58385078625
 30
0.0
 11
5245.027727734763
 21
6453.583850786251
 31
0.0
  0
LINE
  5
27A25
330
27695
100
AcDbEntity
  8
HASHIRA
  6
Continuous
100
AcDbLine
 10
5245.027727734763
 20
6453.583850786251
 30
0.0
 11
5310.027727734762
 21
6453.583850786251
 31
0.0
  0
LINE
  5
27A26
330
27695
100
AcDbEntity
  8
HASHIRA
  6
Continuous
100
AcDbLine
 10
5310.027727734762
 20
6453.583850786251
 30
0.0
 11
5310.027727734762
 21
6378.58385078625
 31
0.0
  0
LINE
  5
27A27
330
27695
100
AcDbEntity
  8
U2
100
AcDbLine
 10
4927.527727734763
 20
6066.08385078625
 30
0.0
 11
5627.527727734763
 21
6066.08385078625
 31
0.0
  0
LINE
  5
27A28
330
27695
100
AcDbEntity
  8
U2
100
AcDbLine
 10
5627.527727734763
 20
6066.08385078625
 30
0.0
 11
5627.527727734763
 21
6766.083850786251
 31
0.0
  0
LINE
  5
27A29
330
27695
100
AcDbEntity
  8
U2
100
AcDbLine
 10
5627.527727734763
 20
6766.083850786251
 30
0.0
 11
4927.527727734763
 21
6766.083850786251
 31
0.0
  0
LINE
  5
27A2A
330
27695
100
AcDbEntity
  8
U2
100
AcDbLine
 10
4927.527727734763
 20
6766.083850786251
 30
0.0
 11
4927.527727734763
 21
6066.08385078625
 31
0.0
  0
LINE
  5
27A2B
330
27695
100
AcDbEntity
  8
HASHIRA
  6
Continuous
100
AcDbLine
 10
2510.027727734775
 20
6378.58385078625
 30
0.0
 11
2445.027727734774
 21
6378.58385078625
 31
0.0
  0
LINE
  5
27A2C
330
27695
100
AcDbEntity
  8
HASHIRA
  6
Continuous
100
AcDbLine
 10
2445.027727734774
 20
6378.58385078625
 30
0.0
 11
2445.027727734774
 21
6453.583850786251
 31
0.0
  0
LINE
  5
27A2D
330
27695
100
AcDbEntity
  8
HASHIRA
  6
Continuous
100
AcDbLine
 10
2445.027727734774
 20
6453.583850786251
 30
0.0
 11
2510.027727734775
 21
6453.583850786251
 31
0.0
  0
LINE
  5
27A2E
330
27695
100
AcDbEntity
  8
HASHIRA
  6
Continuous
100
AcDbLine
 10
2510.027727734775
 20
6453.583850786251
 30
0.0
 11
2510.027727734775
 21
6378.58385078625
 31
0.0
  0
LINE
  5
27A2F
330
27695
100
AcDbEntity
  8
U2
100
AcDbLine
 10
2127.527727734773
 20
6066.08385078625
 30
0.0
 11
2827.527727734774
 21
6066.08385078625
 31
0.0
  0
LINE
  5
27A30
330
27695
100
AcDbEntity
  8
U2
100
AcDbLine
 10
2827.527727734774
 20
6066.08385078625
 30
0.0
 11
2827.527727734774
 21
6766.083850786251
 31
0.0
  0
LINE
  5
27A31
330
27695
100
AcDbEntity
  8
U2
100
AcDbLine
 10
2827.527727734774
 20
6766.083850786251
 30
0.0
 11
2127.527727734773
 21
6766.083850786251
 31
0.0
  0
LINE
  5
27A32
330
27695
100
AcDbEntity
  8
U2
100
AcDbLine
 10
2127.527727734773
 20
6766.083850786251
 30
0.0
 11
2127.527727734773
 21
6066.08385078625
 31
0.0
  0
TEXT
  5
27A54
330
27695
100
AcDbEntity
  8
SUNPOU
100
AcDbText
 10
6780.625039175767
 20
2599.664111331842
 30
0.0
 40
89.9993750043402
  1
基準風速   　　 , 地表面粗度区分
  7
01
100
AcDbText
  0
TEXT
  5
27A55
330
27695
100
AcDbEntity
  8
SUNPOU
100
AcDbText
 10
7089.611262067657
 20
2256.125597661603
 30
0.0
 40
90.0
  1
あわせて設計して下さい。
  7
01
100
AcDbText
  0
TEXT
  5
27A56
330
27695
100
AcDbEntity
  8
SUNPOU
100
AcDbText
 10
6780.625039175767
 20
2753.949825617556
 30
0.0
 40
89.9993750043402
  1
地耐力   　　　 以上,コンクリート設計基準強度　　　　　以上
  7
01
100
AcDbText
  0
TEXT
  5
27A57
330
27695
100
AcDbEntity
  8
SUNPOU
100
AcDbText
 10
7089.611262067657
 20
2410.411311947321
 30
0.0
 40
90.0
  1
寒冷地の場合、凍結深度等を考慮し、実情に
  7
01
100
AcDbText
  0
TEXT
  5
27A58
330
27695
100
AcDbEntity
  8
SUNPOU
100
AcDbText
 10
7089.611262067657
 20
2101.839883375892
 30
0.0
 40
90.0
  1
その他現地の実情にあわせて設計して下さい。
  7
01
100
AcDbText
  0
TEXT
  5
27A59
330
27695
100
AcDbEntity
  8
SUNPOU
100
AcDbText
 10
6708.414383911571
 20
3184.865380179495
 30
0.0
 40
120.0
  1
基礎断面図
  7
01
 72
     4
 11
7048.414383911572
 21
3244.865380179495
 31
0.0
100
AcDbText
  0
TEXT
  5
27A5A
330
27695
100
AcDbEntity
  8
SUNPOU
100
AcDbText
 10
7154.883446600841
 20
2753.949825617556
 30
0.0
 40
89.9993750043402
  1
50  N/m
 41
0.6700000000000001
  7
01
100
AcDbText
  0
TEXT
  5
27A5B
330
27695
100
AcDbEntity
  8
SUNPOU
100
AcDbText
 10
6650.061410459535
 20
2943.203828063511
 30
0.0
 40
90.0
  1
<下記条件での参考図>
  7
01
 72
     4
 11
7238.918553316678
 21
2988.203828063512
 31
0.0
100
AcDbText
  0
ARC
  5
27A5C
330
27695
100
AcDbEntity
  8
SUNPOU
100
AcDbCircle
 10
6933.583313082967
 20
2717.737249059387
 30
0.0
 40
225.0
100
AcDbArc
 50
148.3472725282761
 51
211.6527274717238
  0
TEXT
  5
27A5D
330
27695
100
AcDbEntity
  8
SUNPOU
100
AcDbText
 10
6772.77159676552
 20
2101.839883375892
 30
0.0
 40
90.0
  1
注　）
  7
01
100
AcDbText
  0
TEXT
  5
27A5E
330
27695
100
AcDbEntity
  8
SUNPOU
100
AcDbText
 10
6883.405516978263
 20
2101.839883375892
 30
0.0
 40
90.0
  1
2
 41
0.6700000000000001
  7
01
100
AcDbText
  0
TEXT
  5
27A5F
330
27695
100
AcDbEntity
  8
SUNPOU
100
AcDbText
 10
6772.77159676552
 20
2410.411311947321
 30
0.0
 40
90.0
  1
注　）
  7
01
100
AcDbText
  0
TEXT
  5
27A60
330
27695
100
AcDbEntity
  8
SUNPOU
100
AcDbText
 10
6883.405516978263
 20
2410.411311947321
 30
0.0
 40
90.0
  1
1
 41
0.6700000000000001
  7
01
100
AcDbText
  0
TEXT
  5
27A61
330
27695
100
AcDbEntity
  8
SUNPOU
100
AcDbText
 10
7264.38846784093
 20
2599.664111331842
 30
0.0
 40
89.9993750043402
  1
34 m/s
 41
0.6700000000000001
  7
01
100
AcDbText
  0
TEXT
  5
27A62
330
27695
100
AcDbEntity
  8
SUNPOU
100
AcDbText
 10
7425.264721274547
 20
3197.173072487188
 30
0.0
 40
92.30769230769228
  1
（ S = 　　  ）
 41
0.6700000000000001
  7
00
 11
7425.264721274547
 21
3184.865380179496
 31
0.0
100
AcDbText
 73
     1
  0
TEXT
  5
27A63
330
27695
100
AcDbEntity
  8
SUNPOU
100
AcDbText
 10
7290.719899386792
 20
2753.949825617556
 30
0.0
 40
71.99950000347218
  1
K
 41
0.6700000000000001
  7
01
100
AcDbText
  0
TEXT
  5
27A64
330
27695
100
AcDbEntity
  8
SUNPOU
100
AcDbText
 10
7558.360056115191
 20
2804.138251975042
 30
0.0
 40
46.28539285937498
  1
2
 41
0.6700000000000001
  7
00
100
AcDbText
  0
TEXT
  5
27A65
330
27695
100
AcDbEntity
  8
SUNPOU
100
AcDbText
 10
7793.373550442997
 20
3194.71153402565
 30
0.0
 40
73.84615384615381
  1
/
 41
0.6700000000000001
  7
00
 11
7793.373550442997
 21
3184.865380179496
 31
0.0
100
AcDbText
 73
     1
  0
TEXT
  5
27A66
330
27695
100
AcDbEntity
  8
SUNPOU
100
AcDbText
 10
7744.967423127626
 20
3213.173072487185
 30
0.0
 40
73.84615384615381
  1
1
 41
0.6700000000000001
  7
00
 11
7744.967423127626
 21
3203.326918641032
 31
0.0
100
AcDbText
 73
     1
  0
TEXT
  5
27A67
330
27695
100
AcDbEntity
  8
SUNPOU
100
AcDbText
 10
7857.322993397367
 20
3176.249995564107
 30
0.0
 40
73.84615384615381
  1
20
 41
0.6700000000000001
  7
00
 11
7857.322993397367
 21
3166.403841717954
 31
0.0
100
AcDbText
 73
     1
  0
LINE
  5
27A68
330
27695
100
AcDbEntity
  8
SUNPOU
100
AcDbLine
 10
8583.690600742372
 20
2599.664111331842
 30
0.0
 11
8583.690600742372
 21
2683.156475030624
 31
0.0
  0
LINE
  5
27A69
330
27695
100
AcDbEntity
  8
SUNPOU
100
AcDbLine
 10
8600.56560074237
 20
2599.664111331842
 30
0.0
 11
8600.56560074237
 21
2683.156475030624
 31
0.0
  0
LINE
  5
27A6A
330
27695
100
AcDbEntity
  8
SUNPOU
100
AcDbLine
 10
8617.440600742371
 20
2599.664111331842
 30
0.0
 11
8617.440600742371
 21
2683.156475030624
 31
0.0
  0
LINE
  5
27A6B
330
27695
100
AcDbEntity
  8
SUNPOU
100
AcDbLine
 10
8572.440600742371
 20
2599.664111331841
 30
0.0
 11
8628.690600742372
 21
2599.664111331841
 31
0.0
  0
LINE
  5
27A6C
330
27695
100
AcDbEntity
  8
SUNPOU
100
AcDbLine
 10
8572.440600742371
 20
2683.156475030624
 30
0.0
 11
8628.690600742372
 21
2683.156475030624
 31
0.0
  0
TEXT
  5
27A6D
330
27695
100
AcDbEntity
  8
SUNPOU
100
AcDbText
 10
9335.471970248431
 20
2753.949825617556
 30
0.0
 40
89.9993750043402
  1
N/mm
 41
0.6700000000000001
  7
01
100
AcDbText
  0
TEXT
  5
27A6E
330
27695
100
AcDbEntity
  8
SUNPOU
100
AcDbText
 10
9199.635517462482
 20
2753.949825617556
 30
0.0
 40
89.9993750043402
  1
18
 41
0.6700000000000001
  7
01
100
AcDbText
  0
TEXT
  5
27A6F
330
27695
100
AcDbEntity
  8
SUNPOU
100
AcDbText
 10
9639.93645227983
 20
2804.138251975042
 30
0.0
 40
46.28539285937498
  1
2
 41
0.6700000000000001
  7
00
100
AcDbText
  0
ARC
  5
27A70
330
27695
100
AcDbEntity
  8
SUNPOU
100
AcDbCircle
 10
9788.81371681345
 20
2740.221529845177
 30
0.0
 40
225.0
100
AcDbArc
 50
328.3472725282761
 51
31.65272747172387
  0
ENDSEC
  0
SECTION
  2
OBJECTS
  0
DICTIONARY
  5
27683
330
0
100
AcDbDictionary
281
     1
  3
ACAD_GROUP
350
27684
  3
ACAD_LAYOUT
350
27690
  3
ACAD_MLINESTYLE
350
2768D
  3
ACAD_PLOTSETTINGS
350
2768F
  3
ACAD_PLOTSTYLENAME
350
27685
  3
AcDbVariableDictionary
350
27A71
  0
DICTIONARY
  5
27684
102
{ACAD_REACTORS
330
27683
102
}
330
27683
100
AcDbDictionary
281
     1
  0
DICTIONARY
  5
27690
102
{ACAD_REACTORS
330
27683
102
}
330
27683
100
AcDbDictionary
281
     1
  3
Model
350
27698
  3
ﾚｲｱｳﾄ1
350
27694
  0
DICTIONARY
  5
2768D
102
{ACAD_REACTORS
330
27683
102
}
330
27683
100
AcDbDictionary
281
     1
  3
Standard
350
2768E
  0
DICTIONARY
  5
2768F
102
{ACAD_REACTORS
330
27683
102
}
330
27683
100
AcDbDictionary
281
     1
  0
ACDBDICTIONARYWDFLT
  5
27685
102
{ACAD_REACTORS
330
27683
102
}
330
27683
100
AcDbDictionary
281
     1
  3
Normal
350
27686
100
AcDbDictionaryWithDefault
340
27686
  0
DICTIONARY
  5
27A71
102
{ACAD_REACTORS
330
27683
102
}
330
27683
100
AcDbDictionary
281
     1
  3
DIMASSOC
350
27A72
  0
LAYOUT
  5
27698
102
{ACAD_REACTORS
330
27690
102
}
330
27690
100
AcDbPlotSettings
  1

  2
Muratec V-1200 Is@Web Printer
  4

  6

 40
0.0
 41
0.0
 42
0.0
 43
0.0
 44
0.0
 45
0.0
 46
0.0
 47
0.0
 48
0.0
 49
0.0
140
0.0
141
0.0
142
1.0
143
1.0
 70
  1712
 72
     0
 73
     0
 74
     0
  7

 75
     0
147
1.0
148
0.0
149
0.0
100
AcDbLayout
  1
Model
 70
     1
 71
     0
 10
0.0
 20
0.0
 11
12.0
 21
9.0
 12
0.0
 22
0.0
 32
0.0
 14
0.0
 24
0.0
 34
0.0
 15
0.0
 25
0.0
 35
0.0
146
0.0
 13
0.0
 23
0.0
 33
0.0
 16
1.0
 26
0.0
 36
0.0
 17
0.0
 27
1.0
 37
0.0
 76
     0
330
27695
  0
LAYOUT
  5
27694
102
{ACAD_REACTORS
330
27690
102
}
330
27690
100
AcDbPlotSettings
  1

  2
Muratec V-1200 Is@Web Printer
  4

  6

 40
0.0
 41
0.0
 42
0.0
 43
0.0
 44
0.0
 45
0.0
 46
0.0
 47
0.0
 48
0.0
 49
0.0
140
0.0
141
0.0
142
1.0
143
1.0
 70
   688
 72
     0
 73
     0
 74
     5
  7

 75
    16
147
1.0
148
0.0
149
0.0
100
AcDbLayout
  1
ﾚｲｱｳﾄ1
 70
     0
 71
     1
 10
0.0
 20
0.0
 11
12.0
 21
9.0
 12
0.0
 22
0.0
 32
0.0
 14
1.000000000000000E+20
 24
1.000000000000000E+20
 34
1.000000000000000E+20
 15
-1.000000000000000E+20
 25
-1.000000000000000E+20
 35
-1.000000000000000E+20
146
0.0
 13
0.0
 23
0.0
 33
0.0
 16
1.0
 26
0.0
 36
0.0
 17
0.0
 27
1.0
 37
0.0
 76
     0
330
27691
  0
MLINESTYLE
  5
2768E
102
{ACAD_REACTORS
330
2768D
102
}
330
2768D
100
AcDbMlineStyle
  2
STANDARD
 70
     0
  3

 62
   256
 51
90.0
 52
90.0
 71
     2
 49
0.5
 62
   256
  6
BYLAYER
 49
-0.5
 62
   256
  6
BYLAYER
  0
ACDBPLACEHOLDER
  5
27686
102
{ACAD_REACTORS
330
27685
102
}
330
27685
  0
DICTIONARYVAR
  5
27A72
102
{ACAD_REACTORS
330
27A71
102
}
330
27A71
100
DictionaryVariables
280
     0
  1
1
  0
ENDSEC
  0
EOF
