  0
SECTION
  2
HEADER
  9
$ACADVER
  1
AC1015
  9
$ACADMAINTVER
 70
    13
  9
$DWGCODEPAGE
  3
ANSI_932
  9
$INSBASE
 10
267.0
 20
194.8999999999998
 30
0.0
  9
$EXTMIN
 10
325.4974662390304
 20
122.7681178119601
 30
-0.000000000000013
  9
$EXTMAX
 10
12286.99954069103
 20
8431.707478684501
 30
0.0000000000000023
  9
$LIMMIN
 10
0.0
 20
0.0
  9
$LIMMAX
 10
12600.0
 20
8910.0
  9
$ORTHOMODE
 70
     0
  9
$REGENMODE
 70
     1
  9
$FILLMODE
 70
     1
  9
$QTEXTMODE
 70
     0
  9
$MIRRTEXT
 70
     0
  9
$LTSCALE
 40
30.0
  9
$ATTMODE
 70
     1
  9
$TEXTSIZE
 40
0.2
  9
$TRACEWID
 40
0.05
  9
$TEXTSTYLE
  7
00
  9
$CLAYER
  8
SUNPOU
  9
$CELTYPE
  6
ByLayer
  9
$CECOLOR
 62
   256
  9
$CELTSCALE
 40
1.0
  9
$DISPSILH
 70
     0
  9
$DIMSCALE
 40
30.0
  9
$DIMASZ
 40
0.5
  9
$DIMEXO
 40
1.0
  9
$DIMDLI
 40
7.0
  9
$DIMRND
 40
0.0
  9
$DIMDLE
 40
3.0
  9
$DIMEXE
 40
1.5
  9
$DIMTP
 40
0.0
  9
$DIMTM
 40
0.0
  9
$DIMTXT
 40
3.0
  9
$DIMCEN
 40
0.0
  9
$DIMTSZ
 40
0.0
  9
$DIMTOL
 70
     0
  9
$DIMLIM
 70
     0
  9
$DIMTIH
 70
     0
  9
$DIMTOH
 70
     0
  9
$DIMSE1
 70
     0
  9
$DIMSE2
 70
     0
  9
$DIMTAD
 70
     1
  9
$DIMZIN
 70
     8
  9
$DIMBLK
  1
DOT
  9
$DIMASO
 70
     1
  9
$DIMSHO
 70
     0
  9
$DIMPOST
  1

  9
$DIMAPOST
  1

  9
$DIMALT
 70
     0
  9
$DIMALTD
 70
     2
  9
$DIMALTF
 40
25.4
  9
$DIMLFAC
 40
1.0
  9
$DIMTOFL
 70
     1
  9
$DIMTVP
 40
0.0
  9
$DIMTIX
 70
     0
  9
$DIMSOXD
 70
     0
  9
$DIMSAH
 70
     1
  9
$DIMBLK1
  1
DOT
  9
$DIMBLK2
  1
DOT
  9
$DIMSTYLE
  2
SUNPOU
  9
$DIMCLRD
 70
   256
  9
$DIMCLRE
 70
   256
  9
$DIMCLRT
 70
   256
  9
$DIMTFAC
 40
1.0
  9
$DIMGAP
 40
1.5
  9
$DIMJUST
 70
     0
  9
$DIMSD1
 70
     0
  9
$DIMSD2
 70
     0
  9
$DIMTOLJ
 70
     1
  9
$DIMTZIN
 70
     0
  9
$DIMALTZ
 70
     0
  9
$DIMALTTZ
 70
     0
  9
$DIMUPT
 70
     0
  9
$DIMDEC
 70
     4
  9
$DIMTDEC
 70
     4
  9
$DIMALTU
 70
     2
  9
$DIMALTTD
 70
     2
  9
$DIMTXSTY
  7
STANDARD
  9
$DIMAUNIT
 70
     0
  9
$DIMADEC
 70
     0
  9
$DIMALTRND
 40
0.0
  9
$DIMAZIN
 70
     0
  9
$DIMDSEP
 70
    46
  9
$DIMATFIT
 70
     3
  9
$DIMFRAC
 70
     0
  9
$DIMLDRBLK
  1
DOT
  9
$DIMLUNIT
 70
     2
  9
$DIMLWD
 70
    -2
  9
$DIMLWE
 70
    -2
  9
$DIMTMOVE
 70
     0
  9
$LUNITS
 70
     2
  9
$LUPREC
 70
     2
  9
$SKETCHINC
 40
0.1
  9
$FILLETRAD
 40
5.0
  9
$AUNITS
 70
     0
  9
$AUPREC
 70
     0
  9
$MENU
  1
A:\TIGER\MENU\TIGER
  9
$ELEVATION
 40
0.0
  9
$PELEVATION
 40
0.0
  9
$THICKNESS
 40
0.0
  9
$LIMCHECK
 70
     0
  9
$CHAMFERA
 40
0.0
  9
$CHAMFERB
 40
0.0
  9
$CHAMFERC
 40
0.0
  9
$CHAMFERD
 40
0.0
  9
$SKPOLY
 70
     0
  9
$TDCREATE
 40
2450266.571064815
  9
$TDUCREATE
 40
2450266.196064815
  9
$TDUPDATE
 40
2456330.572562569
  9
$TDUUPDATE
 40
2456330.197562569
  9
$TDINDWG
 40
0.2850430208
  9
$TDUSRTIMER
 40
0.2850428356
  9
$USRTIMER
 70
     1
  9
$ANGBASE
 50
0.0
  9
$ANGDIR
 70
     0
  9
$PDMODE
 70
     0
  9
$PDSIZE
 40
0.0
  9
$PLINEWID
 40
0.0
  9
$SPLFRAME
 70
     0
  9
$SPLINETYPE
 70
     6
  9
$SPLINESEGS
 70
     8
  9
$HANDSEED
  5
283D8
  9
$SURFTAB1
 70
     6
  9
$SURFTAB2
 70
     6
  9
$SURFTYPE
 70
     6
  9
$SURFU
 70
     6
  9
$SURFV
 70
     6
  9
$UCSBASE
  2

  9
$UCSNAME
  2

  9
$UCSORG
 10
0.0
 20
0.0
 30
0.0
  9
$UCSXDIR
 10
1.0
 20
0.0
 30
0.0
  9
$UCSYDIR
 10
0.0
 20
1.0
 30
0.0
  9
$UCSORTHOREF
  2

  9
$UCSORTHOVIEW
 70
     0
  9
$UCSORGTOP
 10
0.0
 20
0.0
 30
0.0
  9
$UCSORGBOTTOM
 10
0.0
 20
0.0
 30
0.0
  9
$UCSORGLEFT
 10
0.0
 20
0.0
 30
0.0
  9
$UCSORGRIGHT
 10
0.0
 20
0.0
 30
0.0
  9
$UCSORGFRONT
 10
0.0
 20
0.0
 30
0.0
  9
$UCSORGBACK
 10
0.0
 20
0.0
 30
0.0
  9
$PUCSBASE
  2

  9
$PUCSNAME
  2

  9
$PUCSORG
 10
0.0
 20
0.0
 30
0.0
  9
$PUCSXDIR
 10
1.0
 20
0.0
 30
0.0
  9
$PUCSYDIR
 10
0.0
 20
1.0
 30
0.0
  9
$PUCSORTHOREF
  2

  9
$PUCSORTHOVIEW
 70
     0
  9
$PUCSORGTOP
 10
0.0
 20
0.0
 30
0.0
  9
$PUCSORGBOTTOM
 10
0.0
 20
0.0
 30
0.0
  9
$PUCSORGLEFT
 10
0.0
 20
0.0
 30
0.0
  9
$PUCSORGRIGHT
 10
0.0
 20
0.0
 30
0.0
  9
$PUCSORGFRONT
 10
0.0
 20
0.0
 30
0.0
  9
$PUCSORGBACK
 10
0.0
 20
0.0
 30
0.0
  9
$USERI1
 70
     3
  9
$USERI2
 70
     0
  9
$USERI3
 70
     0
  9
$USERI4
 70
     0
  9
$USERI5
 70
  1103
  9
$USERR1
 40
0.0
  9
$USERR2
 40
1.0
  9
$USERR3
 40
0.0
  9
$USERR4
 40
0.0
  9
$USERR5
 40
0.0
  9
$WORLDVIEW
 70
     1
  9
$SHADEDGE
 70
     3
  9
$SHADEDIF
 70
    70
  9
$TILEMODE
 70
     1
  9
$MAXACTVP
 70
    16
  9
$PINSBASE
 10
0.0
 20
0.0
 30
0.0
  9
$PLIMCHECK
 70
     0
  9
$PEXTMIN
 10
1.000000000000000E+20
 20
1.000000000000000E+20
 30
1.000000000000000E+20
  9
$PEXTMAX
 10
-1.000000000000000E+20
 20
-1.000000000000000E+20
 30
-1.000000000000000E+20
  9
$PLIMMIN
 10
0.0
 20
0.0
  9
$PLIMMAX
 10
12.0
 20
9.0
  9
$UNITMODE
 70
     0
  9
$VISRETAIN
 70
     0
  9
$PLINEGEN
 70
     1
  9
$PSLTSCALE
 70
     0
  9
$TREEDEPTH
 70
  3020
  9
$CMLSTYLE
  2
Standard
  9
$CMLJUST
 70
     0
  9
$CMLSCALE
 40
1.0
  9
$PROXYGRAPHICS
 70
     1
  9
$MEASUREMENT
 70
     0
  9
$CELWEIGHT
370
    -1
  9
$ENDCAPS
280
     0
  9
$JOINSTYLE
280
     0
  9
$LWDISPLAY
290
     0
  9
$INSUNITS
 70
     0
  9
$HYPERLINKBASE
  1

  9
$STYLESHEET
  1

  9
$XEDIT
290
     1
  9
$CEPSNTYPE
380
     0
  9
$PSTYLEMODE
290
     1
  9
$FINGERPRINTGUID
  2
{419A2E5B-C6EE-4753-A46D-E2261560D9BA}
  9
$VERSIONGUID
  2
{D71F8B64-2105-488D-A965-56E0AB1CF12B}
  9
$EXTNAMES
290
     1
  9
$PSVPSCALE
 40
0.0
  9
$OLESTARTUP
290
     0
  0
ENDSEC
  0
SECTION
  2
CLASSES
  0
CLASS
  1
ACDBDICTIONARYWDFLT
  2
AcDbDictionaryWithDefault
  3
AutoCAD 2000
 90
        0
280
     0
281
     0
  0
CLASS
  1
ACDBPLACEHOLDER
  2
AcDbPlaceHolder
  3
AutoCAD 2000
 90
        0
280
     0
281
     0
  0
CLASS
  1
LAYOUT
  2
AcDbLayout
  3
AutoCAD 2000
 90
        0
280
     0
281
     0
  0
CLASS
  1
DICTIONARYVAR
  2
AcDbDictionaryVar
  3
AutoCAD 2000
 90
        0
280
     0
281
     0
  0
ENDSEC
  0
SECTION
  2
TABLES
  0
TABLE
  2
VPORT
  5
27F89
330
0
100
AcDbSymbolTable
 70
     2
  0
VPORT
  5
283D7
330
27F89
100
AcDbSymbolTableRecord
100
AcDbViewportTableRecord
  2
*Active
 70
     0
 10
0.0
 20
0.0
 11
1.0
 21
1.0
 12
6306.248503465031
 22
4277.23779824823
 13
0.0
 23
0.0
 14
1.0
 24
1.0
 15
0.0
 25
0.0
 16
0.0
 26
0.0
 36
1.0
 17
0.0
 27
0.0
 37
0.0
 40
8372.125211525563
 41
1.527918781725888
 42
50.0
 43
0.0
 44
0.0
 50
0.0
 51
0.0
 71
     0
 72
 10000
 73
     1
 74
     0
 75
     0
 76
     0
 77
     0
 78
     0
281
     0
 65
     1
110
0.0
120
0.0
130
0.0
111
1.0
121
0.0
131
0.0
112
0.0
122
1.0
132
0.0
 79
     0
146
0.0
  0
ENDTAB
  0
TABLE
  2
LTYPE
  5
27F86
330
0
100
AcDbSymbolTable
 70
     4
  0
LTYPE
  5
27F94
330
27F86
100
AcDbSymbolTableRecord
100
AcDbLinetypeTableRecord
  2
ByBlock
 70
     0
  3

 72
    65
 73
     0
 40
0.0
  0
LTYPE
  5
27F95
330
27F86
100
AcDbSymbolTableRecord
100
AcDbLinetypeTableRecord
  2
ByLayer
 70
     0
  3

 72
    65
 73
     0
 40
0.0
  0
LTYPE
  5
27F96
330
27F86
100
AcDbSymbolTableRecord
100
AcDbLinetypeTableRecord
  2
CONTINUOUS
 70
     0
  3
実線
 72
    65
 73
     0
 40
0.0
  0
LTYPE
  5
27FA6
330
27F86
100
AcDbSymbolTableRecord
100
AcDbLinetypeTableRecord
  2
1PL-M
 70
     0
  3

 72
    65
 73
     4
 40
15.0
 49
12.0
 74
     0
 49
-1.0
 74
     0
 49
1.0
 74
     0
 49
-1.0
 74
     0
  0
LTYPE
  5
27FA7
330
27F86
100
AcDbSymbolTableRecord
100
AcDbLinetypeTableRecord
  2
1PL-S
 70
     0
  3

 72
    65
 73
     4
 40
4.0
 49
2.5
 74
     0
 49
-0.5
 74
     0
 49
0.5
 74
     0
 49
-0.5
 74
     0
  0
LTYPE
  5
27FA8
330
27F86
100
AcDbSymbolTableRecord
100
AcDbLinetypeTableRecord
  2
2PL-L
 70
     0
  3

 72
    65
 73
     6
 40
60.0
 49
50.0
 74
     0
 49
-2.0
 74
     0
 49
2.0
 74
     0
 49
-2.0
 74
     0
 49
2.0
 74
     0
 49
-2.0
 74
     0
  0
ENDTAB
  0
TABLE
  2
LAYER
  5
27F83
330
0
100
AcDbSymbolTable
 70
    17
  0
LAYER
  5
27F91
330
27F83
100
AcDbSymbolTableRecord
100
AcDbLayerTableRecord
  2
0
 70
     0
 62
     7
  6
CONTINUOUS
370
    -3
390
27F90
  0
LAYER
  5
27FA3
330
27F83
100
AcDbSymbolTableRecord
100
AcDbLayerTableRecord
  2
SUNPOU
 70
     0
 62
     4
  6
CONTINUOUS
370
    -3
390
27F90
  0
LAYER
  5
27FA9
330
27F83
100
AcDbSymbolTableRecord
100
AcDbLayerTableRecord
  2
U2
 70
     0
 62
     4
  6
CONTINUOUS
370
    -3
390
27F90
  0
LAYER
  5
27FAA
330
27F83
100
AcDbSymbolTableRecord
100
AcDbLayerTableRecord
  2
U3
 70
     0
 62
     6
  6
CONTINUOUS
370
    -3
390
27F90
  0
LAYER
  5
27FAB
330
27F83
100
AcDbSymbolTableRecord
100
AcDbLayerTableRecord
  2
HIKIDASHI
 70
     0
 62
     6
  6
CONTINUOUS
370
    -3
390
27F90
  0
LAYER
  5
27FAC
330
27F83
100
AcDbSymbolTableRecord
100
AcDbLayerTableRecord
  2
1PL-S1
 70
     0
 62
     6
  6
1PL-S
370
    -3
390
27F90
  0
LAYER
  5
27FAD
330
27F83
100
AcDbSymbolTableRecord
100
AcDbLayerTableRecord
  2
1PL-M1
 70
     0
 62
     6
  6
1PL-M
370
    -3
390
27F90
  0
LAYER
  5
27FAE
330
27F83
100
AcDbSymbolTableRecord
100
AcDbLayerTableRecord
  2
2PL-L2
 70
     0
 62
     1
  6
2PL-L
370
    -3
390
27F90
  0
LAYER
  5
27FAF
330
27F83
100
AcDbSymbolTableRecord
100
AcDbLayerTableRecord
  2
KISO
 70
     0
 62
     2
  6
CONTINUOUS
370
    -3
390
27F90
  0
LAYER
  5
27FB0
330
27F83
100
AcDbSymbolTableRecord
100
AcDbLayerTableRecord
  2
HATCH
 70
     0
 62
     1
  6
CONTINUOUS
370
    -3
390
27F90
  0
LAYER
  5
27FB1
330
27F83
100
AcDbSymbolTableRecord
100
AcDbLayerTableRecord
  2
NAME
 70
     0
 62
    20
  6
CONTINUOUS
370
    -3
390
27F90
  0
LAYER
  5
27FB2
330
27F83
100
AcDbSymbolTableRecord
100
AcDbLayerTableRecord
  2
FILENAME
 70
     0
 62
     7
  6
CONTINUOUS
370
    -3
390
27F90
  0
LAYER
  5
27FB3
330
27F83
100
AcDbSymbolTableRecord
100
AcDbLayerTableRecord
  2
HASHIRA
 70
     0
 62
     3
  6
CONTINUOUS
370
    -3
390
27F90
  0
LAYER
  5
27FB4
330
27F83
100
AcDbSymbolTableRecord
100
AcDbLayerTableRecord
  2
YODOROGO
 70
     0
 62
   130
  6
CONTINUOUS
370
    -3
390
27F90
  0
LAYER
  5
27FB5
330
27F83
100
AcDbSymbolTableRecord
100
AcDbLayerTableRecord
  2
WAKUSEN-01
 70
     0
 62
    50
  6
CONTINUOUS
370
    -3
390
27F90
  0
LAYER
  5
27FB6
330
27F83
100
AcDbSymbolTableRecord
100
AcDbLayerTableRecord
  2
WAKUSEN-02
 70
     0
 62
   130
  6
CONTINUOUS
370
    -3
390
27F90
  0
LAYER
  5
27FB7
330
27F83
100
AcDbSymbolTableRecord
100
AcDbLayerTableRecord
  2
WAKUMOJI-01
 70
     0
 62
   130
  6
CONTINUOUS
370
    -3
390
27F90
  0
ENDTAB
  0
TABLE
  2
STYLE
  5
27F84
330
0
100
AcDbSymbolTable
 70
     5
  0
STYLE
  5
27F92
330
27F84
100
AcDbSymbolTableRecord
100
AcDbTextStyleTableRecord
  2
STANDARD
 70
     0
 40
3.0
 41
1.0
 50
0.0
 71
     0
 42
0.2
  3
ROMANS
  4
EXTFONT
  0
STYLE
  5
27FA4
330
27F84
100
AcDbSymbolTableRecord
100
AcDbTextStyleTableRecord
  2
00
 70
     0
 40
0.0
 41
0.6666666666666666
 50
0.0
 71
     0
 42
0.2
  3
ROMANS
  4
BIGFONT
  0
STYLE
  5
27FB8
330
27F84
100
AcDbSymbolTableRecord
100
AcDbTextStyleTableRecord
  2
01
 70
     0
 40
3.0
 41
1.0
 50
0.0
 71
     0
 42
0.2
  3
ROMANS
  4
BIGFONT
  0
STYLE
  5
27FB9
330
27F84
100
AcDbSymbolTableRecord
100
AcDbTextStyleTableRecord
  2
WAKUMOJI
 70
     0
 40
3.0
 41
1.0
 50
0.0
 71
     0
 42
3.0
  3
SIMPLEX
  4
BIGFONT
  0
STYLE
  5
27FBA
330
27F84
100
AcDbSymbolTableRecord
100
AcDbTextStyleTableRecord
  2
FILENAME
 70
     0
 40
75.0
 41
1.0
 50
0.0
 71
     0
 42
75.0
  3
romans
  4
bigfont
  0
ENDTAB
  0
TABLE
  2
VIEW
  5
27F87
330
0
100
AcDbSymbolTable
 70
     0
  0
ENDTAB
  0
TABLE
  2
UCS
  5
27F88
330
0
100
AcDbSymbolTable
 70
     0
  0
ENDTAB
  0
TABLE
  2
APPID
  5
27F8A
330
0
100
AcDbSymbolTable
 70
     5
  0
APPID
  5
27F93
330
27F8A
100
AcDbSymbolTableRecord
100
AcDbRegAppTableRecord
  2
ACAD
 70
     0
  0
APPID
  5
27FBB
330
27F8A
100
AcDbSymbolTableRecord
100
AcDbRegAppTableRecord
  2
AUTOCAD_POSTSCRIPT_FIGURE
 70
     0
  0
APPID
  5
27FBC
330
27F8A
100
AcDbSymbolTableRecord
100
AcDbRegAppTableRecord
  2
ACAD_PSEXT
 70
     0
  0
APPID
  5
27FBD
330
27F8A
100
AcDbSymbolTableRecord
100
AcDbRegAppTableRecord
  2
ACAD_EXEMPT_FROM_CAD_STANDARDS
 70
     0
  0
APPID
  5
27FBE
330
27F8A
100
AcDbSymbolTableRecord
100
AcDbRegAppTableRecord
  2
ACAD_MLEADERVER
 70
     0
  0
ENDTAB
  0
TABLE
  2
DIMSTYLE
  5
27F8B
330
0
100
AcDbSymbolTable
 70
     1
100
AcDbDimStyleTable
 71
     0
  0
DIMSTYLE
105
27FBF
330
27F8B
100
AcDbSymbolTableRecord
100
AcDbDimStyleTableRecord
  2
SUNPOU
 70
     0
 40
30.0
 41
0.5
 42
1.0
 43
7.0
 44
1.5
 46
3.0
 73
     0
 74
     0
 77
     1
 78
     8
140
3.0
141
0.0
147
1.5
172
     1
173
     1
176
   256
177
   256
178
   256
271
     2
272
     2
279
     2
284
     8
285
     8
286
     8
340
27FA4
  0
ENDTAB
  0
TABLE
  2
BLOCK_RECORD
  5
27F82
330
0
100
AcDbSymbolTable
 70
     8
  0
BLOCK_RECORD
  5
27F9F
330
27F82
100
AcDbSymbolTableRecord
100
AcDbBlockTableRecord
  2
*Model_Space
340
27FA2
  0
BLOCK_RECORD
  5
27F9B
330
27F82
100
AcDbSymbolTableRecord
100
AcDbBlockTableRecord
  2
*Paper_Space
340
27F9E
  0
BLOCK_RECORD
  5
27FC4
330
27F82
100
AcDbSymbolTableRecord
100
AcDbBlockTableRecord
  2
$MODEL_SPACE
340
0
  0
BLOCK_RECORD
  5
27FC7
330
27F82
100
AcDbSymbolTableRecord
100
AcDbBlockTableRecord
  2
$PAPER_SPACE
340
0
  0
BLOCK_RECORD
  5
27FCA
330
27F82
100
AcDbSymbolTableRecord
100
AcDbBlockTableRecord
  2
DOT
340
0
  0
BLOCK_RECORD
  5
27FD2
330
27F82
100
AcDbSymbolTableRecord
100
AcDbBlockTableRecord
  2
*U3
340
0
  0
BLOCK_RECORD
  5
27FD6
330
27F82
100
AcDbSymbolTableRecord
100
AcDbBlockTableRecord
  2
*U4
340
0
  0
BLOCK_RECORD
  5
27FDA
330
27F82
100
AcDbSymbolTableRecord
100
AcDbBlockTableRecord
  2
*U5
340
0
  0
BLOCK_RECORD
  5
27FDE
330
27F82
100
AcDbSymbolTableRecord
100
AcDbBlockTableRecord
  2
*U6
340
0
  0
ENDTAB
  0
ENDSEC
  0
SECTION
  2
BLOCKS
  0
BLOCK
  5
27FA0
330
27F9F
100
AcDbEntity
  8
0
100
AcDbBlockBegin
  2
*Model_Space
 70
     0
 10
0.0
 20
0.0
 30
0.0
  3
*Model_Space
  1

  0
ENDBLK
  5
27FA1
330
27F9F
100
AcDbEntity
  8
0
100
AcDbBlockEnd
  0
BLOCK
  5
27F9C
330
27F9B
100
AcDbEntity
 67
     1
  8
0
100
AcDbBlockBegin
  2
*Paper_Space
 70
     0
 10
0.0
 20
0.0
 30
0.0
  3
*Paper_Space
  1

  0
ENDBLK
  5
27F9D
330
27F9B
100
AcDbEntity
 67
     1
  8
0
100
AcDbBlockEnd
  0
BLOCK
  5
27FC5
330
27FC4
100
AcDbEntity
  8
0
100
AcDbBlockBegin
  2
$MODEL_SPACE
 70
     0
 10
0.0
 20
0.0
 30
0.0
  3
$MODEL_SPACE
  1

  0
ENDBLK
  5
27FC6
330
27FC4
100
AcDbEntity
  8
0
100
AcDbBlockEnd
  0
BLOCK
  5
27FC8
330
27FC7
100
AcDbEntity
  8
0
100
AcDbBlockBegin
  2
$PAPER_SPACE
 70
     0
 10
0.0
 20
0.0
 30
0.0
  3
$PAPER_SPACE
  1

  0
ENDBLK
  5
27FC9
330
27FC7
100
AcDbEntity
  8
0
100
AcDbBlockEnd
  0
BLOCK
  5
27FCB
330
27FCA
100
AcDbEntity
  8
0
100
AcDbBlockBegin
  2
DOT
 70
     0
 10
0.0
 20
0.0
 30
0.0
  3
DOT
  1

  0
LWPOLYLINE
  5
27FCC
330
27FCA
100
AcDbEntity
  8
0
  6
ByBlock
 62
     0
100
AcDbPolyline
 90
        2
 70
     1
 43
0.75
 10
-0.375
 20
0.0
 42
1.0
 10
0.375
 20
0.0
 42
1.0
  0
LINE
  5
27FD0
330
27FCA
100
AcDbEntity
  8
0
  6
ByBlock
 62
     0
100
AcDbLine
 10
-0.75
 20
0.0
 30
0.0
 11
-1.5
 21
0.0
 31
0.0
  0
ENDBLK
  5
27FD1
330
27FCA
100
AcDbEntity
  8
0
100
AcDbBlockEnd
  0
BLOCK
  5
27FD3
330
27FD2
100
AcDbEntity
  8
0
100
AcDbBlockBegin
  2
*U3
 70
     1
 10
0.0
 20
0.0
 30
0.0
  3
*U3
  1

  0
TEXT
  5
27FD4
330
27FD2
100
AcDbEntity
  8
SUNPOU
100
AcDbText
 10
1405.036707340869
 20
941.7125251995903
 30
0.0
 40
90.0
  1
900 □
 41
0.6666666666666666
  7
00
100
AcDbText
  0
ENDBLK
  5
27FD5
330
27FD2
100
AcDbEntity
  8
0
100
AcDbBlockEnd
  0
BLOCK
  5
27FD7
330
27FD6
100
AcDbEntity
  8
0
100
AcDbBlockBegin
  2
*U4
 70
     1
 10
0.0
 20
0.0
 30
0.0
  3
*U4
  1

  0
TEXT
  5
27FD8
330
27FD6
100
AcDbEntity
  8
SUNPOU
100
AcDbText
 10
1405.036707340869
 20
1151.712525199589
 30
0.0
 40
90.0
  1
700 □
 41
0.6666666666666666
  7
00
100
AcDbText
  0
ENDBLK
  5
27FD9
330
27FD6
100
AcDbEntity
  8
0
100
AcDbBlockEnd
  0
BLOCK
  5
27FDB
330
27FDA
100
AcDbEntity
  8
0
100
AcDbBlockBegin
  2
*U5
 70
     1
 10
0.0
 20
0.0
 30
0.0
  3
*U5
  1

  0
TEXT
  5
27FDC
330
27FDA
100
AcDbEntity
  8
SUNPOU
100
AcDbText
 10
3616.53670734087
 20
1875.998239485305
 30
0.0
 40
90.0
  1
500
 50
90.0
 41
0.6666666666666666
  7
00
100
AcDbText
  0
ENDBLK
  5
27FDD
330
27FDA
100
AcDbEntity
  8
0
100
AcDbBlockEnd
  0
BLOCK
  5
27FDF
330
27FDE
100
AcDbEntity
  8
0
100
AcDbBlockBegin
  2
*U6
 70
     1
 10
0.0
 20
0.0
 30
0.0
  3
*U6
  1

  0
TEXT
  5
27FE0
330
27FDE
100
AcDbEntity
  8
SUNPOU
100
AcDbText
 10
3616.53670734087
 20
1213.855382342448
 30
0.0
 40
90.0
  1
100
 50
90.0
 41
0.6666666666666666
  7
00
100
AcDbText
  0
ENDBLK
  5
27FE1
330
27FDE
100
AcDbEntity
  8
0
100
AcDbBlockEnd
  0
ENDSEC
  0
SECTION
  2
ENTITIES
  0
TEXT
  5
27FE2
330
27F9F
100
AcDbEntity
  8
NAME
100
AcDbText
 10
9402.694977008243
 20
716.2499999999992
 30
0.0
 40
120.0
  1
YOTC
 41
0.7
  7
01
100
AcDbText
  0
TEXT
  5
27FE3
330
27F9F
100
AcDbEntity
  8
NAME
100
AcDbText
 10
8327.765992739108
 20
716.2499999999992
 30
0.0
 40
120.0
  1
ヨド自転車置場      型
  7
01
100
AcDbText
  0
TEXT
  5
27FE4
330
27F9F
100
AcDbEntity
  8
NAME
100
AcDbText
 10
8685.634258449118
 20
405.7500000000011
 30
0.0
 40
120.0
  1
型（一般地用）背合せ
 41
0.7
  7
01
100
AcDbText
  0
TEXT
  5
27FE5
330
27F9F
100
AcDbEntity
  8
NAME
100
AcDbText
 10
8101.484605933894
 20
405.7500000000011
 30
0.0
 40
120.0
  1
YOTC-280
 41
0.6
  7
01
 72
     2
 11
8650.056034505322
 21
405.7500000000011
 31
0.0
100
AcDbText
  0
TEXT
  5
27FE6
330
27F9F
100
AcDbEntity
  8
NAME
100
AcDbText
 10
9685.26209933479
 20
405.7500000000015
 30
0.0
 40
120.0
  1
<3／3>
 41
0.6
  7
01
 72
     2
 11
10059.66209933478
 21
405.7500000000015
 31
0.0
100
AcDbText
  0
LINE
  5
27FE7
330
27F9F
100
AcDbEntity
  8
2PL-L2
100
AcDbLine
 10
2554.340641334933
 20
7705.127478609063
 30
0.0
 11
6560.340641334936
 21
7705.127478609059
 31
0.0
  0
LINE
  5
27FE8
330
27F9F
100
AcDbEntity
  8
2PL-L2
100
AcDbLine
 10
2554.340641334935
 20
3635.127478609062
 30
0.0
 11
6560.340641334936
 21
3635.127478609062
 31
0.0
  0
TEXT
  5
27FE9
330
27F9F
100
AcDbEntity
  8
SUNPOU
100
AcDbText
 10
6210.626355620645
 20
2885.127478609063
 30
0.0
 40
90.0
  1
2800 ×（ N - 2 ）
 41
0.6666666666666666
  7
00
 72
     4
 11
6600.340641334931
 21
2930.127478609063
 31
0.0
100
AcDbText
  0
TEXT
  5
27FEA
330
27F9F
100
AcDbEntity
  8
SUNPOU
100
AcDbText
 10
6127.197784192073
 20
2675.127478609063
 30
0.0
 40
90.0
  1
L ＝ 2800 × N ＋ 700
 41
0.6666666666666666
  7
00
 72
     4
 11
6600.340641334931
 21
2720.127478609063
 31
0.0
100
AcDbText
  0
LINE
  5
27FEB
330
27F9F
100
AcDbEntity
  8
SUNPOU
100
AcDbLine
 10
5765.34064133493
 20
2840.127478609062
 30
0.0
 11
7435.340641334931
 21
2840.127478609062
 31
0.0
  0
LINE
  5
27FEC
330
27F9F
100
AcDbEntity
  8
1PL-M1
100
AcDbLine
 10
2538.757913271066
 20
4640.127478609064
 30
0.0
 11
10732.18396002396
 21
4640.127478609062
 31
0.0
  0
LINE
  5
27FED
330
27F9F
100
AcDbEntity
  8
U3
100
AcDbLine
 10
2600.340641334932
 20
3240.127478609062
 30
0.0
 11
6560.340641334936
 21
3240.127478609063
 31
0.0
  0
LINE
  5
27FEE
330
27F9F
100
AcDbEntity
  8
U3
100
AcDbLine
 10
2600.340641334932
 20
8100.127478609064
 30
0.0
 11
6560.340641334933
 21
8100.127478609064
 31
0.0
  0
LINE
  5
27FEF
330
27F9F
100
AcDbEntity
  8
SUNPOU
100
AcDbLine
 10
2615.340641334928
 20
2630.127478609063
 30
0.0
 11
10585.34064133492
 21
2630.127478609063
 31
0.0
  0
LINE
  5
27FF0
330
27F9F
100
AcDbEntity
  8
1PL-M1
100
AcDbLine
 10
2538.757913271066
 20
6700.127478609063
 30
0.0
 11
10732.18396002396
 21
6700.127478609061
 31
0.0
  0
LINE
  5
27FF1
330
27F9F
100
AcDbEntity
  8
2PL-L2
100
AcDbLine
 10
2554.340641334933
 20
7705.127478609063
 30
0.0
 11
2554.340641334935
 21
3635.127478609062
 31
0.0
  0
LINE
  5
27FF2
330
27F9F
100
AcDbEntity
  8
1PL-M1
100
AcDbLine
 10
2950.340641334933
 20
4239.849618183392
 30
0.0
 11
2950.340641334933
 21
7100.127478609064
 31
0.0
  0
LINE
  5
27FF3
330
27F9F
100
AcDbEntity
  8
1PL-M1
100
AcDbLine
 10
5750.340641334936
 20
4239.849618183392
 30
0.0
 11
5750.340641334936
 21
7100.127478609064
 31
0.0
  0
LINE
  5
27FF4
330
27F9F
100
AcDbEntity
  8
U3
100
AcDbLine
 10
2600.340641334932
 20
3240.127478609062
 30
0.0
 11
2600.340641334932
 21
8100.127478609064
 31
0.0
  0
TEXT
  5
27FF5
330
27F9F
100
AcDbEntity
  8
SUNPOU
100
AcDbText
 10
3850.340641334933
 20
3285.127478609062
 30
0.0
 40
90.0
  1
（土間コン前面位置）
  7
01
 72
     4
 11
4375.340641334933
 21
3330.127478609062
 31
0.0
100
AcDbText
  0
TEXT
  5
27FF6
330
27F9F
100
AcDbEntity
  8
SUNPOU
100
AcDbText
 10
3958.340641334933
 20
3499.969545146267
 30
0.0
 40
90.0
  1
（屋根前面位置）
  7
01
 72
     4
 11
4375.340641334933
 21
3544.969545146267
 31
0.0
100
AcDbText
  0
LINE
  5
27FF7
330
27F9F
100
AcDbEntity
  8
SUNPOU
100
AcDbLine
 10
2965.340641334929
 20
2840.127478609062
 30
0.0
 11
5735.34064133493
 21
2840.127478609062
 31
0.0
  0
LINE
  5
27FF8
330
27F9F
100
AcDbEntity
  8
SUNPOU
100
AcDbLine
 10
2950.340641334933
 20
4209.849618183391
 30
0.0
 11
2950.340641334929
 21
2810.127478609063
 31
0.0
  0
LINE
  5
27FF9
330
27F9F
100
AcDbEntity
  8
SUNPOU
100
AcDbLine
 10
2600.340641334932
 20
3604.969545146265
 30
0.0
 11
2600.340641334929
 21
2600.127478609063
 31
0.0
  0
TEXT
  5
27FFA
330
27F9F
100
AcDbEntity
  8
SUNPOU
100
AcDbText
 10
2689.626355620643
 20
2885.127478609063
 30
0.0
 40
90.0
  1
350
 41
0.6666666666666666
  7
00
 72
     4
 11
2775.340641334929
 21
2930.127478609063
 31
0.0
100
AcDbText
  0
LINE
  5
27FFB
330
27F9F
100
AcDbEntity
  8
SUNPOU
100
AcDbLine
 10
2615.340641334928
 20
2840.127478609062
 30
0.0
 11
2935.340641334929
 21
2840.127478609062
 31
0.0
  0
LINE
  5
27FFC
330
27F9F
100
AcDbEntity
  8
SUNPOU
100
AcDbLine
 10
5750.340641334936
 20
4209.849618183391
 30
0.0
 11
5750.34064133493
 21
2810.127478609063
 31
0.0
  0
TEXT
  5
27FFD
330
27F9F
100
AcDbEntity
  8
SUNPOU
100
AcDbText
 10
4236.054927049212
 20
2885.127478609063
 30
0.0
 40
90.0
  1
2800
 41
0.6666666666666666
  7
00
 72
     4
 11
4350.340641334926
 21
2930.127478609063
 31
0.0
100
AcDbText
  0
TEXT
  5
27FFE
330
27F9F
100
AcDbEntity
  8
SUNPOU
100
AcDbText
 10
3850.340641334933
 20
8145.127478609062
 30
0.0
 40
90.0
  1
（土間コン後面位置）
  7
01
 72
     4
 11
4375.340641334933
 21
8190.127478609062
 31
0.0
100
AcDbText
  0
TEXT
  5
27FFF
330
27F9F
100
AcDbEntity
  8
SUNPOU
100
AcDbText
 10
3958.340641334933
 20
7761.685412071859
 30
0.0
 40
90.0
  1
（屋根後面位置）
  7
01
 72
     4
 11
4375.340641334933
 21
7806.685412071859
 31
0.0
100
AcDbText
  0
LINE
  5
28000
330
27F9F
100
AcDbEntity
  8
2PL-L2
100
AcDbLine
 10
10646.34064133492
 20
7705.127478609059
 30
0.0
 11
10646.34064133492
 21
3635.127478609062
 31
0.0
  0
LINE
  5
28001
330
27F9F
100
AcDbEntity
  8
1PL-M1
100
AcDbLine
 10
7450.340641334934
 20
4239.849618183392
 30
0.0
 11
7450.340641334934
 21
7100.127478609064
 31
0.0
  0
LINE
  5
28002
330
27F9F
100
AcDbEntity
  8
SUNPOU
100
AcDbLine
 10
10900.34064133492
 20
4975.127478609064
 30
0.0
 11
10900.34064133492
 21
4305.127478609064
 31
0.0
  0
LINE
  5
28003
330
27F9F
100
AcDbEntity
  8
1PL-M1
100
AcDbLine
 10
10250.34064133492
 20
4239.849618183392
 30
0.0
 11
10250.34064133492
 21
6010.639079486154
 31
0.0
  0
LINE
  5
28004
330
27F9F
100
AcDbEntity
  8
SUNPOU
100
AcDbLine
 10
10217.84064133492
 20
4572.627478609063
 30
0.0
 11
10217.84064133492
 21
4396.184634723411
 31
0.0
  0
LINE
  5
28005
330
27F9F
100
AcDbEntity
  8
SUNPOU
100
AcDbLine
 10
10282.84064133492
 20
4572.627478609063
 30
0.0
 11
10282.84064133492
 21
4396.184634723411
 31
0.0
  0
LINE
  5
28006
330
27F9F
100
AcDbEntity
  8
SUNPOU
100
AcDbLine
 10
11110.34064133493
 20
4640.127478609062
 30
0.0
 11
11110.34064133493
 21
3255.127478609062
 31
0.0
  0
LINE
  5
28007
330
27F9F
100
AcDbEntity
  8
SUNPOU
100
AcDbLine
 10
11320.34064133492
 20
8085.127478609058
 30
0.0
 11
11320.34064133492
 21
3255.127478609062
 31
0.0
  0
LINE
  5
28008
330
27F9F
100
AcDbEntity
  8
U3
100
AcDbLine
 10
10600.34064133492
 20
3240.127478609063
 30
0.0
 11
10600.34064133492
 21
8100.127478609062
 31
0.0
  0
LINE
  5
28009
330
27F9F
100
AcDbEntity
  8
U2
100
AcDbLine
 10
6560.340641334936
 20
3140.127478609063
 30
0.0
 11
6560.340641334931
 21
8200.127478609061
 31
0.0
  0
LINE
  5
2800A
330
27F9F
100
AcDbEntity
  8
U2
100
AcDbLine
 10
6640.340641334934
 20
3140.127478609063
 30
0.0
 11
6640.34064133493
 21
8200.127478609061
 31
0.0
  0
LINE
  5
2800B
330
27F9F
100
AcDbEntity
  8
2PL-L2
100
AcDbLine
 10
6640.340641334934
 20
3635.127478609062
 30
0.0
 11
10646.34064133492
 21
3635.127478609062
 31
0.0
  0
LINE
  5
2800C
330
27F9F
100
AcDbEntity
  8
U3
100
AcDbLine
 10
6640.340641334937
 20
3240.127478609063
 30
0.0
 11
10600.34064133492
 21
3240.127478609063
 31
0.0
  0
LINE
  5
2800D
330
27F9F
100
AcDbEntity
  8
SUNPOU
100
AcDbLine
 10
7465.34064133493
 20
2840.127478609062
 30
0.0
 11
10235.34064133492
 21
2840.127478609062
 31
0.0
  0
LINE
  5
2800E
330
27F9F
100
AcDbEntity
  8
SUNPOU
100
AcDbLine
 10
7450.340641334934
 20
4209.849618183391
 30
0.0
 11
7450.340641334931
 21
2810.127478609063
 31
0.0
  0
LINE
  5
2800F
330
27F9F
100
AcDbEntity
  8
SUNPOU
100
AcDbLine
 10
10250.34064133492
 20
4029.643868126107
 30
0.0
 11
10250.34064133492
 21
2810.127478609063
 31
0.0
  0
LINE
  5
28010
330
27F9F
100
AcDbEntity
  8
SUNPOU
100
AcDbLine
 10
10250.34064133492
 20
3604.969545146265
 30
0.0
 11
10250.34064133492
 21
2810.127478609063
 31
0.0
  0
TEXT
  5
28011
330
27F9F
100
AcDbEntity
  8
SUNPOU
100
AcDbText
 10
8736.054927049217
 20
2885.127478609063
 30
0.0
 40
90.0
  1
2800
 41
0.6666666666666666
  7
00
 72
     4
 11
8850.340641334931
 21
2930.127478609063
 31
0.0
100
AcDbText
  0
LINE
  5
28012
330
27F9F
100
AcDbEntity
  8
SUNPOU
100
AcDbLine
 10
10265.34064133492
 20
2840.127478609062
 30
0.0
 11
10585.34064133492
 21
2840.127478609062
 31
0.0
  0
TEXT
  5
28013
330
27F9F
100
AcDbEntity
  8
SUNPOU
100
AcDbText
 10
10339.62635562064
 20
2885.127478609063
 30
0.0
 40
90.0
  1
350
 41
0.6666666666666666
  7
00
 72
     4
 11
10425.34064133492
 21
2930.127478609063
 31
0.0
100
AcDbText
  0
LINE
  5
28014
330
27F9F
100
AcDbEntity
  8
SUNPOU
100
AcDbLine
 10
10187.84064133492
 20
4426.184634723411
 30
0.0
 11
10090.85492704921
 21
4426.184634723411
 31
0.0
  0
LINE
  5
28015
330
27F9F
100
AcDbEntity
  8
SUNPOU
100
AcDbLine
 10
9915.340641334935
 20
4065.127478609062
 30
0.0
 11
10585.34064133492
 21
4065.127478609062
 31
0.0
  0
LINE
  5
28016
330
27F9F
100
AcDbEntity
  8
SUNPOU
100
AcDbLine
 10
9900.340641334935
 20
4260.127478609063
 30
0.0
 11
9900.340641334935
 21
4035.127478609063
 31
0.0
  0
TEXT
  5
28017
330
27F9F
100
AcDbEntity
  8
SUNPOU
100
AcDbText
 10
10164.62635562064
 20
4110.127478609063
 30
0.0
 40
90.0
  1
700
 41
0.6666666666666666
  7
00
 72
     1
 11
10250.34064133492
 21
4155.127478609063
 31
0.0
100
AcDbText
 73
     2
  0
LINE
  5
28018
330
27F9F
100
AcDbEntity
  8
SUNPOU
100
AcDbLine
 10
10267.84064133492
 20
4426.184634723411
 30
0.0
 11
10217.84064133492
 21
4426.184634723411
 31
0.0
  0
LINE
  5
28019
330
27F9F
100
AcDbEntity
  8
SUNPOU
100
AcDbLine
 10
10202.84064133492
 20
4426.184634723411
 30
0.0
 11
10187.84064133492
 21
4426.184634723411
 31
0.0
  0
LINE
  5
2801A
330
27F9F
100
AcDbEntity
  8
SUNPOU
100
AcDbLine
 10
10600.34064133492
 20
3604.969545146265
 30
0.0
 11
10600.34064133492
 21
2600.127478609063
 31
0.0
  0
LINE
  5
2801B
330
27F9F
100
AcDbEntity
  8
SUNPOU
100
AcDbLine
 10
10630.34064133492
 20
3240.127478609063
 30
0.0
 11
11350.34064133493
 21
3240.127478609063
 31
0.0
  0
TEXT
  5
2801C
330
27F9F
100
AcDbEntity
  8
SUNPOU
100
AcDbText
 10
11065.34064133493
 20
3821.556050037634
 30
0.0
 40
90.0
  1
1400
 50
90.0
 41
0.6666666666666666
  7
00
 72
     1
 11
11020.34064133492
 21
3940.127478609062
 31
0.0
100
AcDbText
 73
     2
  0
LINE
  5
2801D
330
27F9F
100
AcDbEntity
  8
SUNPOU
100
AcDbLine
 10
10630.34064133492
 20
4290.127478609064
 30
0.0
 11
10930.34064133492
 21
4290.127478609064
 31
0.0
  0
LINE
  5
2801E
330
27F9F
100
AcDbEntity
  8
2PL-L2
100
AcDbLine
 10
6640.34064133493
 20
7705.127478609059
 30
0.0
 11
10646.34064133492
 21
7705.127478609059
 31
0.0
  0
LINE
  5
2801F
330
27F9F
100
AcDbEntity
  8
U3
100
AcDbLine
 10
6640.340641334933
 20
8100.127478609064
 30
0.0
 11
10600.34064133492
 21
8100.127478609062
 31
0.0
  0
TEXT
  5
28020
330
27F9F
100
AcDbEntity
  8
HIKIDASHI
100
AcDbText
 10
9861.468164483735
 20
7202.428922871478
 30
0.0
 40
90.0
  1
柱
  7
01
 72
     2
 11
9945.468164483735
 21
7247.428922871478
 31
0.0
100
AcDbText
 73
     2
  0
TEXT
  5
28021
330
27F9F
100
AcDbEntity
  8
HIKIDASHI
100
AcDbText
 10
9861.468164483735
 20
5142.428922871479
 30
0.0
 40
90.0
  1
柱
  7
01
 72
     2
 11
9945.468164483735
 21
5187.428922871479
 31
0.0
100
AcDbText
 73
     2
  0
TEXT
  5
28022
330
27F9F
100
AcDbEntity
  8
SUNPOU
100
AcDbText
 10
10079.42635562065
 20
4471.184634723411
 30
0.0
 40
90.0
  1
65
 41
0.6666666666666666
  7
00
 72
     1
 11
10137.99778419208
 21
4516.184634723411
 31
0.0
100
AcDbText
 73
     2
  0
LINE
  5
28023
330
27F9F
100
AcDbEntity
  8
HIKIDASHI
100
AcDbLine
 10
10187.84064133491
 20
4729.589002836124
 30
0.0
 11
9975.468164483736
 21
5097.428922871479
 31
0.0
  0
LINE
  5
28024
330
27F9F
100
AcDbEntity
  8
HIKIDASHI
100
AcDbLine
 10
9831.468164483737
 20
5097.428922871479
 30
0.0
 11
9975.468164483736
 21
5097.428922871479
 31
0.0
  0
LINE
  5
28025
330
27F9F
100
AcDbEntity
  8
SUNPOU
100
AcDbLine
 10
10461.04665690042
 20
4707.627478609063
 30
0.0
 11
10461.04665690042
 21
4807.47033575192
 31
0.0
  0
TEXT
  5
28026
330
27F9F
100
AcDbEntity
  8
SUNPOU
100
AcDbText
 10
10416.04665690042
 20
4701.756050037633
 30
0.0
 40
90.0
  1
75
 50
90.0
 41
0.6666666666666666
  7
00
 72
     1
 11
10371.04665690042
 21
4758.89890718049
 31
0.0
100
AcDbText
 73
     2
  0
LINE
  5
28027
330
27F9F
100
AcDbEntity
  8
SUNPOU
100
AcDbLine
 10
10312.84064133492
 20
4677.627478609063
 30
0.0
 11
10491.04665690042
 21
4677.627478609063
 31
0.0
  0
LINE
  5
28028
330
27F9F
100
AcDbEntity
  8
SUNPOU
100
AcDbLine
 10
10312.84064133492
 20
4602.627478609064
 30
0.0
 11
10491.04665690042
 21
4602.627478609064
 31
0.0
  0
SOLID
  5
28029
330
27F9F
100
AcDbEntity
  8
HIKIDASHI
100
AcDbTrace
 10
10196.50089537277
 20
4734.589002836126
 30
0.0
 11
10179.18038729707
 21
4724.589002836121
 31
0.0
 12
10217.84064133492
 22
4677.627478609063
 32
0.0
 13
10217.84064133492
 23
4677.627478609063
 33
0.0
  0
LINE
  5
2802A
330
27F9F
100
AcDbEntity
  8
SUNPOU
100
AcDbLine
 10
10461.04665690042
 20
4617.627478609064
 30
0.0
 11
10461.04665690042
 21
4677.627478609063
 31
0.0
  0
LINE
  5
2802B
330
27F9F
100
AcDbEntity
  8
SUNPOU
100
AcDbLine
 10
10461.04665690042
 20
4692.627478609064
 30
0.0
 11
10461.04665690042
 21
4707.627478609063
 31
0.0
  0
LINE
  5
2802C
330
27F9F
100
AcDbEntity
  8
1PL-M1
100
AcDbLine
 10
10250.34064133492
 20
6221.464312890519
 30
0.0
 11
10250.34064133492
 21
7100.127478609064
 31
0.0
  0
TEXT
  5
2802D
330
27F9F
100
AcDbEntity
  8
SUNPOU
100
AcDbText
 10
10079.42635562065
 20
6531.184634723411
 30
0.0
 40
90.0
  1
65
 41
0.6666666666666666
  7
00
 72
     1
 11
10137.99778419208
 21
6576.184634723411
 31
0.0
100
AcDbText
 73
     2
  0
LINE
  5
2802E
330
27F9F
100
AcDbEntity
  8
SUNPOU
100
AcDbLine
 10
10217.84064133492
 20
6632.627478609062
 30
0.0
 11
10217.84064133492
 21
6456.184634723411
 31
0.0
  0
LINE
  5
2802F
330
27F9F
100
AcDbEntity
  8
SUNPOU
100
AcDbLine
 10
10282.84064133492
 20
6632.627478609062
 30
0.0
 11
10282.84064133492
 21
6456.184634723411
 31
0.0
  0
LINE
  5
28030
330
27F9F
100
AcDbEntity
  8
SUNPOU
100
AcDbLine
 10
10187.84064133492
 20
6486.184634723412
 30
0.0
 11
10090.85492704921
 21
6486.184634723412
 31
0.0
  0
LINE
  5
28031
330
27F9F
100
AcDbEntity
  8
SUNPOU
100
AcDbLine
 10
9915.340641334935
 20
6050.127478609063
 30
0.0
 11
10585.34064133492
 21
6050.127478609063
 31
0.0
  0
LINE
  5
28032
330
27F9F
100
AcDbEntity
  8
SUNPOU
100
AcDbLine
 10
9900.340641334935
 20
6320.127478609062
 30
0.0
 11
9900.340641334935
 21
6020.127478609063
 31
0.0
  0
TEXT
  5
28033
330
27F9F
100
AcDbEntity
  8
SUNPOU
100
AcDbText
 10
10164.62635562064
 20
6095.127478609064
 30
0.0
 40
90.0
  1
700
 41
0.6666666666666666
  7
00
 72
     1
 11
10250.34064133492
 21
6140.127478609064
 31
0.0
100
AcDbText
 73
     2
  0
LINE
  5
28034
330
27F9F
100
AcDbEntity
  8
SUNPOU
100
AcDbLine
 10
10267.84064133492
 20
6486.184634723412
 30
0.0
 11
10217.84064133492
 21
6486.184634723412
 31
0.0
  0
LINE
  5
28035
330
27F9F
100
AcDbEntity
  8
SUNPOU
100
AcDbLine
 10
10202.84064133492
 20
6486.184634723412
 30
0.0
 11
10187.84064133492
 21
6486.184634723412
 31
0.0
  0
LINE
  5
28036
330
27F9F
100
AcDbEntity
  8
HIKIDASHI
100
AcDbLine
 10
10187.84064133491
 20
6789.589002836125
 30
0.0
 11
9975.468164483736
 21
7157.42892287148
 31
0.0
  0
LINE
  5
28037
330
27F9F
100
AcDbEntity
  8
HIKIDASHI
100
AcDbLine
 10
9831.468164483737
 20
7157.42892287148
 30
0.0
 11
9975.468164483736
 21
7157.42892287148
 31
0.0
  0
TEXT
  5
28038
330
27F9F
100
AcDbEntity
  8
SUNPOU
100
AcDbText
 10
10416.04665690042
 20
6761.756050037632
 30
0.0
 40
90.0
  1
75
 50
90.0
 41
0.6666666666666666
  7
00
 72
     1
 11
10371.04665690042
 21
6818.898907180489
 31
0.0
100
AcDbText
 73
     2
  0
LINE
  5
28039
330
27F9F
100
AcDbEntity
  8
SUNPOU
100
AcDbLine
 10
10312.84064133492
 20
6737.627478609063
 30
0.0
 11
10491.04665690042
 21
6737.627478609063
 31
0.0
  0
LINE
  5
2803A
330
27F9F
100
AcDbEntity
  8
SUNPOU
100
AcDbLine
 10
10312.84064133492
 20
6662.627478609064
 30
0.0
 11
10491.04665690042
 21
6662.627478609064
 31
0.0
  0
SOLID
  5
2803B
330
27F9F
100
AcDbEntity
  8
HIKIDASHI
100
AcDbTrace
 10
10196.50089537277
 20
6794.589002836126
 30
0.0
 11
10179.18038729707
 21
6784.589002836122
 31
0.0
 12
10217.84064133492
 22
6737.627478609063
 32
0.0
 13
10217.84064133492
 23
6737.627478609063
 33
0.0
  0
LINE
  5
2803C
330
27F9F
100
AcDbEntity
  8
SUNPOU
100
AcDbLine
 10
10461.04665690042
 20
6677.627478609064
 30
0.0
 11
10461.04665690042
 21
6737.627478609063
 31
0.0
  0
LINE
  5
2803D
330
27F9F
100
AcDbEntity
  8
SUNPOU
100
AcDbLine
 10
10461.04665690042
 20
6767.627478609063
 30
0.0
 11
10461.04665690042
 21
6867.470335751919
 31
0.0
  0
LINE
  5
2803E
330
27F9F
100
AcDbEntity
  8
SUNPOU
100
AcDbLine
 10
10461.04665690042
 20
6752.627478609062
 30
0.0
 11
10461.04665690042
 21
6767.627478609063
 31
0.0
  0
LINE
  5
2803F
330
27F9F
100
AcDbEntity
  8
SUNPOU
100
AcDbLine
 10
11110.34064133493
 20
8085.127478609058
 30
0.0
 11
11110.34064133493
 21
6715.127478609064
 31
0.0
  0
LINE
  5
28040
330
27F9F
100
AcDbEntity
  8
SUNPOU
100
AcDbLine
 10
11110.34064133493
 20
4655.127478609063
 30
0.0
 11
11110.34064133493
 21
6685.127478609064
 31
0.0
  0
LINE
  5
28041
330
27F9F
100
AcDbEntity
  8
1PL-S1
100
AcDbLine
 10
10934.54574119365
 20
4640.127478609062
 30
0.0
 11
11140.34064133492
 21
4640.127478609062
 31
0.0
  0
LINE
  5
28042
330
27F9F
100
AcDbEntity
  8
SUNPOU
100
AcDbLine
 10
10960.34064133492
 20
4640.127478609064
 30
0.0
 11
11140.34064133492
 21
4640.127478609064
 31
0.0
  0
TEXT
  5
28043
330
27F9F
100
AcDbEntity
  8
SUNPOU
100
AcDbText
 10
10855.34064133492
 20
4554.413192894778
 30
0.0
 40
90.0
  1
700
 50
90.0
 41
0.6666666666666666
  7
00
 72
     1
 11
10810.34064133492
 21
4640.127478609064
 31
0.0
100
AcDbText
 73
     2
  0
LINE
  5
28044
330
27F9F
100
AcDbEntity
  8
SUNPOU
100
AcDbLine
 10
10630.34064133492
 20
4990.127478609064
 30
0.0
 11
10930.34064133492
 21
4990.127478609064
 31
0.0
  0
TEXT
  5
28045
330
27F9F
100
AcDbEntity
  8
SUNPOU
100
AcDbText
 10
11065.34064133493
 20
5555.841764323349
 30
0.0
 40
90.0
  1
2060
 50
90.0
 41
0.6666666666666666
  7
00
 72
     1
 11
11020.34064133492
 21
5670.127478609064
 31
0.0
100
AcDbText
 73
     2
  0
TEXT
  5
28046
330
27F9F
100
AcDbEntity
  8
SUNPOU
100
AcDbText
 10
11275.34064133492
 20
5555.841764323348
 30
0.0
 40
90.0
  1
4860
 50
90.0
 41
0.6666666666666666
  7
00
 72
     4
 11
11230.34064133493
 21
5670.127478609063
 31
0.0
100
AcDbText
  0
LINE
  5
28047
330
27F9F
100
AcDbEntity
  8
SUNPOU
100
AcDbLine
 10
10900.34064133492
 20
7035.127478609064
 30
0.0
 11
10900.34064133492
 21
6365.127478609064
 31
0.0
  0
LINE
  5
28048
330
27F9F
100
AcDbEntity
  8
SUNPOU
100
AcDbLine
 10
10630.34064133492
 20
6350.127478609064
 30
0.0
 11
10930.34064133492
 21
6350.127478609064
 31
0.0
  0
LINE
  5
28049
330
27F9F
100
AcDbEntity
  8
1PL-S1
100
AcDbLine
 10
10934.54574119365
 20
6700.127478609061
 30
0.0
 11
11140.34064133492
 21
6700.127478609061
 31
0.0
  0
LINE
  5
2804A
330
27F9F
100
AcDbEntity
  8
SUNPOU
100
AcDbLine
 10
10960.34064133492
 20
6700.127478609063
 30
0.0
 11
11140.34064133492
 21
6700.127478609063
 31
0.0
  0
TEXT
  5
2804B
330
27F9F
100
AcDbEntity
  8
SUNPOU
100
AcDbText
 10
10855.34064133492
 20
6614.413192894777
 30
0.0
 40
90.0
  1
700
 50
90.0
 41
0.6666666666666666
  7
00
 72
     1
 11
10810.34064133492
 21
6700.127478609063
 31
0.0
100
AcDbText
 73
     2
  0
LINE
  5
2804C
330
27F9F
100
AcDbEntity
  8
SUNPOU
100
AcDbLine
 10
10630.34064133492
 20
7050.127478609063
 30
0.0
 11
10930.34064133492
 21
7050.127478609063
 31
0.0
  0
TEXT
  5
2804D
330
27F9F
100
AcDbEntity
  8
SUNPOU
100
AcDbText
 10
11065.34064133493
 20
7281.556050037635
 30
0.0
 40
90.0
  1
1400
 50
90.0
 41
0.6666666666666666
  7
00
 72
     4
 11
11020.34064133492
 21
7400.127478609063
 31
0.0
100
AcDbText
  0
LINE
  5
2804E
330
27F9F
100
AcDbEntity
  8
SUNPOU
100
AcDbLine
 10
10630.34064133492
 20
8100.127478609062
 30
0.0
 11
11350.34064133493
 21
8100.127478609062
 31
0.0
  0
TEXT
  5
2804F
330
27F9F
100
AcDbEntity
  8
HIKIDASHI
100
AcDbText
 10
5894.710814203683
 20
2258.800640501877
 30
0.0
 40
135.0
  1
基 礎 伏 図
  7
01
 72
     2
 11
6740.710814203684
 21
2258.800640501877
 31
0.0
100
AcDbText
  0
TEXT
  5
28050
330
27F9F
100
AcDbEntity
  8
HIKIDASHI
100
AcDbText
 10
6841.960814203685
 20
2285.594137561715
 30
0.0
 40
90.0
  1
(S=
 41
0.6700000000000001
  7
00
100
AcDbText
  0
TEXT
  5
28051
330
27F9F
100
AcDbEntity
  8
HIKIDASHI
100
AcDbText
 10
7134.618548838879
 20
2256.155327461405
 30
0.0
 40
90.0
  1
30
 41
0.6700000000000001
  7
00
100
AcDbText
  0
TEXT
  5
28052
330
27F9F
100
AcDbEntity
  8
HIKIDASHI
100
AcDbText
 10
7271.223311909122
 20
2285.594137561715
 30
0.0
 40
90.0
  1
)
 41
0.6700000000000001
  7
00
100
AcDbText
  0
TEXT
  5
28053
330
27F9F
100
AcDbEntity
  8
HIKIDASHI
100
AcDbText
 10
7082.536499730915
 20
2285.594137561715
 30
0.0
 40
90.0
  1
/
 41
0.6700000000000001
  7
00
100
AcDbText
  0
TEXT
  5
28054
330
27F9F
100
AcDbEntity
  8
HIKIDASHI
100
AcDbText
 10
7045.257219633568
 20
2303.100800028437
 30
0.0
 40
90.0
  1
1
 41
0.6700000000000001
  7
00
100
AcDbText
  0
TEXT
  5
28055
330
27F9F
100
AcDbEntity
  8
HIKIDASHI
100
AcDbText
 10
6045.987999378475
 20
2078.800640501877
 30
0.0
 40
120.0
  1
（  ：スパン数）
  7
01
 72
     4
 11
6601.987999378474
 21
2138.800640501876
 31
0.0
100
AcDbText
  0
TEXT
  5
28056
330
27F9F
100
AcDbEntity
  8
HIKIDASHI
100
AcDbText
 10
6224.577682688776
 20
2078.800640501877
 30
0.0
 40
120.0
  1
N
 41
0.6666666666666666
  7
00
 72
     4
 11
6266.482444593537
 21
2138.800640501876
 31
0.0
100
AcDbText
  0
LINE
  5
28057
330
27F9F
100
AcDbEntity
  8
HIKIDASHI
100
AcDbLine
 10
1201.223030723082
 20
520.2442032316803
 30
0.0
 11
1896.850383958654
 21
520.2442032316803
 31
0.0
  0
LINE
  5
28058
330
27F9F
100
AcDbEntity
  8
HIKIDASHI
100
AcDbLine
 10
1201.223030723082
 20
490.2442032316802
 30
0.0
 11
1896.850383958654
 21
490.2442032316802
 31
0.0
  0
TEXT
  5
28059
330
27F9F
100
AcDbEntity
  8
HIKIDASHI
100
AcDbText
 10
1231.223030723082
 20
565.2442032316803
 30
0.0
 40
90.0
  1
A  ~  A'
 41
0.6700000000000001
  7
00
100
AcDbText
  0
TEXT
  5
2805A
330
27F9F
100
AcDbEntity
  8
HIKIDASHI
100
AcDbText
 10
1625.240310219643
 20
565.2442032316803
 30
0.0
 40
90.0
  1
断 面
  7
01
100
AcDbText
  0
LINE
  5
28078
330
27F9F
100
AcDbEntity
  8
KISO
100
AcDbLine
 10
1492.78670734087
 20
2336.712525199589
 30
0.0
 11
579.950633278502
 21
2336.712525199589
 31
0.0
  0
LINE
  5
28079
330
27F9F
100
AcDbEntity
  8
KISO
100
AcDbLine
 10
579.950633278502
 20
2201.712525199589
 30
0.0
 11
1024.03670734087
 21
2201.712525199589
 31
0.0
  0
LINE
  5
2807A
330
27F9F
100
AcDbEntity
  8
KISO
100
AcDbLine
 10
579.950633278502
 20
2111.712525199587
 30
0.0
 11
1024.03670734087
 21
2111.712525199588
 31
0.0
  0
LINE
  5
2807B
330
27F9F
100
AcDbEntity
  8
HATCH
100
AcDbLine
 10
794.2762491642314
 20
2336.712525199589
 30
0.0
 11
659.2762491642313
 21
2201.712525199589
 31
0.0
  0
LINE
  5
2807C
330
27F9F
100
AcDbEntity
  8
HATCH
100
AcDbLine
 10
838.8239763789751
 20
2336.712525199589
 30
0.0
 11
703.8239763789788
 21
2201.712525199589
 31
0.0
  0
LINE
  5
2807D
330
27F9F
100
AcDbEntity
  8
HATCH
100
AcDbLine
 10
883.3717035937334
 20
2336.712525199589
 30
0.0
 11
748.371703593737
 21
2201.712525199589
 31
0.0
  0
LINE
  5
2807E
330
27F9F
100
AcDbEntity
  8
HIKIDASHI
100
AcDbLine
 10
1613.875498175096
 20
1640.311915089062
 30
0.0
 11
2124.975705355999
 21
1826.337177230213
 31
0.0
  0
LINE
  5
2807F
330
27F9F
100
AcDbEntity
  8
HATCH
100
AcDbLine
 10
1492.78670734087
 20
1695.914797984838
 30
0.0
 11
1383.584434555621
 21
1586.712525199589
 31
0.0
  0
LINE
  5
28080
330
27F9F
100
AcDbEntity
  8
HATCH
100
AcDbLine
 10
1492.78670734087
 20
1740.462525199589
 30
0.0
 11
1339.036707340869
 21
1586.712525199589
 31
0.0
  0
LINE
  5
28081
330
27F9F
100
AcDbEntity
  8
HATCH
100
AcDbLine
 10
1492.78670734087
 20
2145.462525199585
 30
0.0
 11
1024.03670734087
 21
1676.712525199584
 31
0.0
  0
LINE
  5
28082
330
27F9F
100
AcDbEntity
  8
HATCH
100
AcDbLine
 10
1492.78670734087
 20
2100.914797984838
 30
0.0
 11
1024.03670734087
 21
1632.164797984836
 31
0.0
  0
LINE
  5
28083
330
27F9F
100
AcDbEntity
  8
HASHIRA
100
AcDbLine
 10
1492.78670734087
 20
1586.712525199589
 30
0.0
 11
1492.78670734087
 21
3272.656887330819
 31
0.0
  0
LINE
  5
28084
330
27F9F
100
AcDbEntity
  8
HASHIRA
100
AcDbLine
 10
1605.286707340869
 20
1586.712525199589
 30
0.0
 11
1605.286707340869
 21
3272.656887330819
 31
0.0
  0
LINE
  5
28085
330
27F9F
100
AcDbEntity
  8
1PL-M1
100
AcDbLine
 10
1549.036707340871
 20
1271.712525199589
 30
0.0
 11
1549.036707340871
 21
3453.117345945646
 31
0.0
  0
LINE
  5
28086
330
27F9F
100
AcDbEntity
  8
KISO
100
AcDbLine
 10
2074.036707340871
 20
2336.712525199591
 30
0.0
 11
2074.036707340871
 21
1586.712525199591
 31
0.0
  0
LINE
  5
28087
330
27F9F
100
AcDbEntity
  8
KISO
100
AcDbLine
 10
1024.03670734087
 20
2336.712525199589
 30
0.0
 11
1024.03670734087
 21
1586.712525199589
 31
0.0
  0
LINE
  5
28088
330
27F9F
100
AcDbEntity
  8
HATCH
100
AcDbLine
 10
2074.036707340871
 20
1783.069343555339
 30
0.0
 11
1877.67988898512
 21
1586.712525199589
 31
0.0
  0
LINE
  5
28089
330
27F9F
100
AcDbEntity
  8
HATCH
100
AcDbLine
 10
2074.036707340871
 20
1827.617070770091
 30
0.0
 11
1833.132161770372
 21
1586.712525199589
 31
0.0
  0
LINE
  5
2808A
330
27F9F
100
AcDbEntity
  8
HATCH
100
AcDbLine
 10
2074.036707340871
 20
1872.164797984845
 30
0.0
 11
1788.584434555606
 21
1586.712525199589
 31
0.0
  0
LINE
  5
2808B
330
27F9F
100
AcDbEntity
  8
HATCH
100
AcDbLine
 10
1492.78670734087
 20
1651.367070770086
 30
0.0
 11
1428.132161770375
 21
1586.712525199589
 31
0.0
  0
SOLID
  5
2808C
330
27F9F
100
AcDbEntity
  8
HIKIDASHI
100
AcDbTrace
 10
1617.295699608356
 20
1630.914988881202
 30
0.0
 11
1610.455296741842
 21
1649.708841296919
 31
0.0
 12
1557.493940927943
 22
1619.790706489521
 32
0.0
 13
1557.493940927943
 23
1619.790706489521
 33
0.0
  0
LINE
  5
2808D
330
27F9F
100
AcDbEntity
  8
HIKIDASHI
100
AcDbLine
 10
1524.4912666931
 20
1616.712525199589
 30
0.0
 11
1573.58214798864
 21
1616.712525199589
 31
0.0
  0
LINE
  5
2808E
330
27F9F
100
AcDbEntity
  8
HIKIDASHI
100
AcDbLine
 10
1524.4912666931
 20
1676.712525199588
 30
0.0
 11
1573.58214798864
 21
1676.712525199588
 31
0.0
  0
CIRCLE
  5
2808F
330
27F9F
100
AcDbEntity
  8
HASHIRA
100
AcDbCircle
 10
1549.036707340871
 20
1676.712525199588
 30
0.0
 40
9.0
  0
CIRCLE
  5
28090
330
27F9F
100
AcDbEntity
  8
HASHIRA
100
AcDbCircle
 10
1549.036707340871
 20
1616.712525199589
 30
0.0
 40
9.0
  0
TEXT
  5
28091
330
27F9F
100
AcDbEntity
  8
SUNPOU
100
AcDbText
 10
2571.613279986268
 20
898.6362762333939
 30
0.0
 40
90.0
  1
ベース筋
  7
01
 72
     4
 11
2775.613279986267
 21
943.6362762333939
 31
0.0
100
AcDbText
  0
LINE
  5
28092
330
27F9F
100
AcDbEntity
  8
HATCH
100
AcDbLine
 10
2946.35966122169
 20
2336.712525199589
 30
0.0
 11
2811.35966122169
 21
2201.71252519959
 31
0.0
  0
LINE
  5
28093
330
27F9F
100
AcDbEntity
  8
HATCH
100
AcDbLine
 10
2901.811934006931
 20
2336.712525199589
 30
0.0
 11
2766.811934006931
 21
2201.71252519959
 31
0.0
  0
LINE
  5
28094
330
27F9F
100
AcDbEntity
  8
HIKIDASHI
100
AcDbLine
 10
2124.975705355999
 20
1826.337177230213
 30
0.0
 11
2915.9349303874
 21
1826.337177230213
 31
0.0
  0
TEXT
  5
28095
330
27F9F
100
AcDbEntity
  8
HIKIDASHI
100
AcDbText
 10
2415.111770498388
 20
1871.337177230213
 30
0.0
 40
90.0
  1
10   x 350
 41
0.6666666666666666
  7
00
 11
2415.111770498388
 21
1916.337177230214
 31
0.0
100
AcDbText
 73
     2
  0
LINE
  5
28096
330
27F9F
100
AcDbEntity
  8
KISO
100
AcDbLine
 10
2074.036707340871
 20
2111.712525199588
 30
0.0
 11
3461.536707340871
 21
2111.712525199588
 31
0.0
  0
LINE
  5
28097
330
27F9F
100
AcDbEntity
  8
KISO
100
AcDbLine
 10
2074.036707340871
 20
2201.71252519959
 30
0.0
 11
3461.536707340871
 21
2201.712525199593
 31
0.0
  0
LINE
  5
28098
330
27F9F
100
AcDbEntity
  8
KISO
100
AcDbLine
 10
3461.536707340871
 20
2336.712525199591
 30
0.0
 11
1605.286707340869
 21
2336.712525199589
 31
0.0
  0
LINE
  5
28099
330
27F9F
100
AcDbEntity
  8
HATCH
100
AcDbLine
 10
2074.036707340871
 20
2321.712525199589
 30
0.0
 11
1605.286707340869
 21
1852.962525199589
 31
0.0
  0
LINE
  5
2809A
330
27F9F
100
AcDbEntity
  8
HATCH
100
AcDbLine
 10
2074.036707340871
 20
2232.617070770087
 30
0.0
 11
1605.286707340869
 21
1763.867070770086
 31
0.0
  0
LINE
  5
2809B
330
27F9F
100
AcDbEntity
  8
HATCH
100
AcDbLine
 10
2074.036707340871
 20
2277.164797984843
 30
0.0
 11
1605.286707340869
 21
1808.41479798484
 31
0.0
  0
LINE
  5
2809C
330
27F9F
100
AcDbEntity
  8
HATCH
100
AcDbLine
 10
1492.78670734087
 20
2190.010252414342
 30
0.0
 11
1024.03670734087
 21
1721.260252414339
 31
0.0
  0
LINE
  5
2809D
330
27F9F
100
AcDbEntity
  8
HATCH
100
AcDbLine
 10
1189.941252911364
 20
2336.712525199589
 30
0.0
 11
1024.03670734087
 21
2170.807979629099
 31
0.0
  0
LINE
  5
2809E
330
27F9F
100
AcDbEntity
  8
HATCH
100
AcDbLine
 10
1234.488980126122
 20
2336.712525199589
 30
0.0
 11
1024.03670734087
 21
2126.260252414339
 31
0.0
  0
LINE
  5
2809F
330
27F9F
100
AcDbEntity
  8
HATCH
100
AcDbLine
 10
1279.036707340871
 20
2336.712525199589
 30
0.0
 11
1024.03670734087
 21
2081.712525199589
 31
0.0
  0
LINE
  5
280A0
330
27F9F
100
AcDbEntity
  8
HATCH
100
AcDbLine
 10
1684.036707340873
 20
2336.712525199589
 30
0.0
 11
1605.286707340869
 21
2257.962525199583
 31
0.0
  0
LINE
  5
280A1
330
27F9F
100
AcDbEntity
  8
HATCH
100
AcDbLine
 10
1639.48898012612
 20
2336.712525199589
 30
0.0
 11
1605.286707340869
 21
2302.510252414343
 31
0.0
  0
LINE
  5
280A2
330
27F9F
100
AcDbEntity
  8
HATCH
100
AcDbLine
 10
1728.584434555622
 20
2336.712525199589
 30
0.0
 11
1605.286707340869
 21
2213.414797984837
 31
0.0
  0
LINE
  5
280A3
330
27F9F
100
AcDbEntity
  8
HATCH
100
AcDbLine
 10
2452.264206792181
 20
2336.712525199589
 30
0.0
 11
2317.264206792184
 21
2201.712525199589
 31
0.0
  0
LINE
  5
280A4
330
27F9F
100
AcDbEntity
  8
HATCH
100
AcDbLine
 10
2496.811934006939
 20
2336.712525199589
 30
0.0
 11
2361.811934006939
 21
2201.712525199589
 31
0.0
  0
LINE
  5
280A5
330
27F9F
100
AcDbEntity
  8
HATCH
100
AcDbLine
 10
2407.716479577437
 20
2336.712525199589
 30
0.0
 11
2272.716479577441
 21
2201.712525199589
 31
0.0
  0
TEXT
  5
280A6
330
27F9F
100
AcDbEntity
  8
HIKIDASHI
100
AcDbText
 10
2154.975705355999
 20
1871.337177230213
 30
0.0
 40
90.0
  1
鉄筋
  7
01
 11
2154.975705355999
 21
1916.337177230214
 31
0.0
100
AcDbText
 73
     2
  0
TEXT
  5
280A7
330
27F9F
100
AcDbEntity
  8
HIKIDASHI
100
AcDbText
 10
2564.568931394453
 20
1886.337177230213
 30
0.0
 40
90.0
  1
%%c
 41
0.6666666666666666
  7
00
100
AcDbText
  0
LINE
  5
280A8
330
27F9F
100
AcDbEntity
  8
HATCH
100
AcDbLine
 10
2857.264206792187
 20
2336.712525199589
 30
0.0
 11
2722.264206792187
 21
2201.71252519959
 31
0.0
  0
LINE
  5
280A9
330
27F9F
100
AcDbEntity
  8
SUNPOU
100
AcDbLine
 10
3212.154678208669
 20
2426.712525199592
 30
0.0
 11
3264.116202435737
 21
2336.712525199591
 31
0.0
  0
LINE
  5
280AA
330
27F9F
100
AcDbEntity
  8
SUNPOU
100
AcDbLine
 10
3264.116202435737
 20
2336.712525199591
 30
0.0
 11
3316.077726662803
 21
2426.712525199592
 31
0.0
  0
LINE
  5
280AB
330
27F9F
100
AcDbEntity
  8
HATCH
100
AcDbLine
 10
3395.907388436436
 20
2336.712525199589
 30
0.0
 11
3260.907388436436
 21
2201.71252519959
 31
0.0
  0
LINE
  5
280AC
330
27F9F
100
AcDbEntity
  8
HATCH
100
AcDbLine
 10
3351.359661221682
 20
2336.712525199589
 30
0.0
 11
3216.359661221682
 21
2201.71252519959
 31
0.0
  0
LINE
  5
280AD
330
27F9F
100
AcDbEntity
  8
HATCH
100
AcDbLine
 10
3306.811934006934
 20
2336.712525199589
 30
0.0
 11
3171.811934006936
 21
2201.71252519959
 31
0.0
  0
LINE
  5
280AE
330
27F9F
100
AcDbEntity
  8
U3
100
AcDbLine
 10
3461.536707340871
 20
2134.212525199593
 30
0.0
 11
3619.036707340871
 21
2291.712525199589
 31
0.0
  0
LINE
  5
280AF
330
27F9F
100
AcDbEntity
  8
KISO
100
AcDbLine
 10
3461.536707340871
 20
2111.712525199588
 30
0.0
 11
3461.536707340871
 21
2336.712525199589
 31
0.0
  0
LINE
  5
280B0
330
27F9F
100
AcDbEntity
  8
U3
100
AcDbLine
 10
3523.577291880684
 20
2196.253109739406
 30
0.0
 11
3585.617876420502
 21
2134.212525199592
 31
0.0
  0
LINE
  5
280B1
330
27F9F
100
AcDbEntity
  8
U3
100
AcDbLine
 10
3461.536707340873
 20
2229.671940659772
 30
0.0
 11
3523.577291880691
 21
2291.712525199589
 31
0.0
  0
TEXT
  5
280B2
330
27F9F
100
AcDbEntity
  8
SUNPOU
100
AcDbText
 10
3195.544773864309
 20
2471.712525199591
 30
0.0
 40
90.0
  1
F.L
 41
0.6666666666666666
  7
00
 72
     4
 11
3264.116202435737
 21
2516.712525199591
 31
0.0
100
AcDbText
  0
LINE
  5
280B3
330
27F9F
100
AcDbEntity
  8
SUNPOU
100
AcDbLine
 10
3316.077726662803
 20
2426.712525199592
 30
0.0
 11
3212.154678208669
 21
2426.712525199592
 31
0.0
  0
TEXT
  5
280B4
330
27F9F
100
AcDbEntity
  8
SUNPOU
100
AcDbText
 10
3058.433361428913
 20
898.6362762333937
 30
0.0
 40
90.0
  1
5-D13×5-D13
 41
0.6700000000000001
  7
01
 72
     4
 11
3401.856218571771
 21
943.6362762333939
 31
0.0
100
AcDbText
  0
TEXT
  5
280B5
330
27F9F
100
AcDbEntity
  8
SUNPOU
100
AcDbText
 10
3798.668871767744
 20
2426.712525199591
 30
0.0
 40
90.0
  1
G.L
 41
0.6666666666666666
  7
00
 72
     4
 11
3870.097443196316
 21
2471.712525199591
 31
0.0
100
AcDbText
  0
LINE
  5
280B6
330
27F9F
100
AcDbEntity
  8
SUNPOU
100
AcDbLine
 10
3922.058967423382
 20
2381.712525199589
 30
0.0
 11
3818.135918969249
 21
2381.712525199589
 31
0.0
  0
LINE
  5
280B7
330
27F9F
100
AcDbEntity
  8
SUNPOU
100
AcDbLine
 10
3818.135918969249
 20
2381.712525199589
 30
0.0
 11
3870.097443196316
 21
2291.712525199589
 31
0.0
  0
LINE
  5
280B8
330
27F9F
100
AcDbEntity
  8
U3
100
AcDbLine
 10
3838.577291880687
 20
2196.253109739406
 30
0.0
 11
3900.617876420503
 21
2134.212525199592
 31
0.0
  0
LINE
  5
280B9
330
27F9F
100
AcDbEntity
  8
U3
100
AcDbLine
 10
4153.577291880679
 20
2291.712525199591
 30
0.0
 11
3461.536707340871
 21
2291.712525199589
 31
0.0
  0
LINE
  5
280BA
330
27F9F
100
AcDbEntity
  8
U3
100
AcDbLine
 10
3776.53670734087
 20
2134.212525199593
 30
0.0
 11
3934.036707340871
 21
2291.712525199589
 31
0.0
  0
LINE
  5
280BB
330
27F9F
100
AcDbEntity
  8
U3
100
AcDbLine
 10
3571.306999610777
 20
2243.982817469499
 30
0.0
 11
3681.077291880687
 21
2134.212525199589
 31
0.0
  0
LINE
  5
280BC
330
27F9F
100
AcDbEntity
  8
U3
100
AcDbLine
 10
3619.036707340871
 20
2291.712525199589
 30
0.0
 11
3776.53670734087
 21
2134.212525199593
 31
0.0
  0
LINE
  5
280BD
330
27F9F
100
AcDbEntity
  8
U3
100
AcDbLine
 10
3728.806999610777
 20
2181.942232929685
 30
0.0
 11
3838.577291880687
 21
2291.712525199589
 31
0.0
  0
LINE
  5
280BE
330
27F9F
100
AcDbEntity
  8
U3
100
AcDbLine
 10
3681.077291880687
 20
2229.671940659776
 30
0.0
 11
3743.1178764205
 21
2291.712525199589
 31
0.0
  0
LINE
  5
280BF
330
27F9F
100
AcDbEntity
  8
U3
100
AcDbLine
 10
4043.806999610772
 20
2181.942232929684
 30
0.0
 11
4153.577291880679
 21
2291.712525199591
 31
0.0
  0
LINE
  5
280C0
330
27F9F
100
AcDbEntity
  8
U3
100
AcDbLine
 10
3934.036707340871
 20
2291.712525199589
 30
0.0
 11
4091.536707340867
 21
2134.212525199594
 31
0.0
  0
LINE
  5
280C1
330
27F9F
100
AcDbEntity
  8
U3
100
AcDbLine
 10
3886.306999610777
 20
2243.982817469499
 30
0.0
 11
3996.077291880682
 21
2134.212525199589
 31
0.0
  0
LINE
  5
280C2
330
27F9F
100
AcDbEntity
  8
SUNPOU
100
AcDbLine
 10
3870.097443196316
 20
2291.712525199589
 30
0.0
 11
3922.058967423382
 21
2381.712525199589
 31
0.0
  0
LINE
  5
280C3
330
27F9F
100
AcDbEntity
  8
U3
100
AcDbLine
 10
3996.07729188068
 20
2229.671940659779
 30
0.0
 11
4058.117876420496
 21
2291.712525199589
 31
0.0
  0
LINE
  5
280C4
330
27F9F
100
AcDbEntity
  8
KISO
100
AcDbLine
 10
874.0367073408688
 20
1436.712525199589
 30
0.0
 11
2224.036707340871
 21
1436.712525199591
 31
0.0
  0
LINE
  5
280C5
330
27F9F
100
AcDbEntity
  8
KISO
100
AcDbLine
 10
874.0367073408705
 20
1436.712525199589
 30
0.0
 11
874.0367073408705
 21
1586.712525199586
 31
0.0
  0
LINE
  5
280C6
330
27F9F
100
AcDbEntity
  8
KISO
100
AcDbLine
 10
2224.036707340868
 20
1436.712525199591
 30
0.0
 11
2224.036707340871
 21
1586.712525199589
 31
0.0
  0
LINE
  5
280C7
330
27F9F
100
AcDbEntity
  8
KISO
100
AcDbLine
 10
874.0367073408688
 20
1586.712525199586
 30
0.0
 11
2224.036707340871
 21
1586.712525199589
 31
0.0
  0
LINE
  5
280C8
330
27F9F
100
AcDbEntity
  8
SUNPOU
100
AcDbLine
 10
2845.340641334933
 20
7260.127478609078
 30
0.0
 11
2950.340641334933
 21
7260.127478609078
 31
0.0
  0
TEXT
  5
280C9
330
27F9F
100
AcDbEntity
  8
SUNPOU
100
AcDbText
 10
2629.447784192076
 20
7206.556050037649
 30
0.0
 40
90.0
  1
A'
 50
0.0000000000000509
 41
0.6700000000000001
  7
00
 72
     4
 11
2665.340641334933
 21
7260.127478609078
 31
0.0
100
AcDbText
  0
LINE
  5
280CA
330
27F9F
100
AcDbEntity
  8
SUNPOU
100
AcDbLine
 10
2950.340641334933
 20
7260.127478609078
 30
0.0
 11
2950.340641334933
 21
7110.127478609077
 31
0.0
  0
LINE
  5
280CB
330
27F9F
100
AcDbEntity
  8
SUNPOU
100
AcDbLine
 10
2845.340641334935
 20
6140.127478609077
 30
0.0
 11
2950.340641334937
 21
6140.127478609077
 31
0.0
  0
TEXT
  5
280CC
330
27F9F
100
AcDbEntity
  8
SUNPOU
100
AcDbText
 10
2639.497784192082
 20
6095.127478609077
 30
0.0
 40
90.0
  1
A
 50
0.0000000000000509
 41
0.6700000000000001
  7
00
 72
     4
 11
2665.340641334939
 21
6140.127478609077
 31
0.0
100
AcDbText
  0
LINE
  5
280CD
330
27F9F
100
AcDbEntity
  8
SUNPOU
100
AcDbLine
 10
2950.340641334937
 20
6140.12747860908
 30
0.0
 11
2950.340641334937
 21
6290.127478609081
 31
0.0
  0
LINE
  5
280CE
330
27F9F
100
AcDbEntity
  8
SUNPOU
100
AcDbLine
 10
2845.340641334935
 20
6125.127478609077
 30
0.0
 11
2755.340641334939
 21
6140.127478609077
 31
0.0
  0
LINE
  5
280CF
330
27F9F
100
AcDbEntity
  8
SUNPOU
100
AcDbLine
 10
2755.340641334939
 20
6140.127478609077
 30
0.0
 11
2845.340641334935
 21
6155.127478609077
 31
0.0
  0
SOLID
  5
280D0
330
27F9F
100
AcDbEntity
  8
SUNPOU
100
AcDbTrace
 10
2845.340641334935
 20
6125.127478609077
 30
0.0
 11
2845.340641334935
 21
6155.127478609077
 31
0.0
 12
2755.340641334939
 22
6140.127478609077
 32
0.0
 13
2755.340641334939
 23
6140.127478609077
 33
0.0
  0
LINE
  5
280D1
330
27F9F
100
AcDbEntity
  8
SUNPOU
100
AcDbLine
 10
2845.340641334935
 20
6155.127478609077
 30
0.0
 11
2845.340641334935
 21
6125.127478609077
 31
0.0
  0
LINE
  5
280D2
330
27F9F
100
AcDbEntity
  8
SUNPOU
100
AcDbLine
 10
2845.340641334933
 20
7275.127478609078
 30
0.0
 11
2755.340641334933
 21
7260.127478609078
 31
0.0
  0
LINE
  5
280D3
330
27F9F
100
AcDbEntity
  8
SUNPOU
100
AcDbLine
 10
2755.340641334933
 20
7260.127478609078
 30
0.0
 11
2845.340641334933
 21
7245.127478609077
 31
0.0
  0
SOLID
  5
280D4
330
27F9F
100
AcDbEntity
  8
SUNPOU
100
AcDbTrace
 10
2845.340641334933
 20
7275.127478609078
 30
0.0
 11
2845.340641334933
 21
7245.127478609077
 31
0.0
 12
2755.340641334933
 22
7260.127478609078
 32
0.0
 13
2755.340641334933
 23
7260.127478609078
 33
0.0
  0
LINE
  5
280D5
330
27F9F
100
AcDbEntity
  8
SUNPOU
100
AcDbLine
 10
2845.340641334933
 20
7245.127478609077
 30
0.0
 11
2845.340641334933
 21
7275.127478609078
 31
0.0
  0
TEXT
  5
280D6
330
27F9F
100
AcDbEntity
  8
FILENAME
100
AcDbText
 10
10887.21428571428
 20
130.4999999999999
 30
0.0
 40
75.0
  1
＜YOTC-280-SA_3.DXF ＞
  7
FILENAME
 72
     2
 11
12286.5
 21
130.4999999999999
 31
0.0
100
AcDbText
  0
LINE
  5
280D7
330
27F9F
100
AcDbEntity
  8
WAKUSEN-01
100
AcDbLine
 10
325.5000000000006
 20
310.4999999999997
 30
0.0
 11
12286.5
 21
310.4999999999997
 31
0.0
  0
LINE
  5
280D8
330
27F9F
100
AcDbEntity
  8
WAKUSEN-01
100
AcDbLine
 10
325.5000000000006
 20
8431.500000000003
 30
0.0
 11
12286.5
 21
8431.500000000003
 31
0.0
  0
LINE
  5
280D9
330
27F9F
100
AcDbEntity
  8
WAKUSEN-01
100
AcDbLine
 10
325.5000000000006
 20
310.4999999999997
 30
0.0
 11
325.5000000000006
 21
8431.500000000003
 31
0.0
  0
LINE
  5
280DA
330
27F9F
100
AcDbEntity
  8
WAKUSEN-01
100
AcDbLine
 10
12286.5
 20
310.4999999999997
 30
0.0
 11
12286.5
 21
8431.500000000003
 31
0.0
  0
LINE
  5
280DB
330
27F9F
100
AcDbEntity
  8
WAKUSEN-01
100
AcDbLine
 10
7710.0
 20
931.4999999999999
 30
0.0
 11
12286.5
 21
931.4999999999995
 31
0.0
  0
LINE
  5
280DC
330
27F9F
100
AcDbEntity
  8
WAKUSEN-02
100
AcDbLine
 10
7710.0
 20
620.9999999999999
 30
0.0
 11
10075.49999999999
 21
620.9999999999999
 31
0.0
  0
TEXT
  5
280DD
330
27F9F
100
AcDbEntity
  8
WAKUMOJI-01
100
AcDbText
 10
7751.347597486038
 20
797.2136285022457
 30
0.0
 40
90.0
  1
名　称
  7
WAKUMOJI
100
AcDbText
  0
TEXT
  5
280DE
330
27F9F
100
AcDbEntity
  8
WAKUMOJI-01
100
AcDbText
 10
7746.18955690947
 20
494.6733656174329
 30
0.0
 40
90.0
  1
機種名
  7
WAKUMOJI
100
AcDbText
  0
LINE
  5
280DF
330
27F9F
100
AcDbEntity
  8
WAKUSEN-01
100
AcDbLine
 10
7710.0
 20
310.4999999999989
 30
0.0
 11
7710.0
 21
931.4999999999999
 31
0.0
  0
LINE
  5
280E0
330
27F9F
100
AcDbEntity
  8
WAKUSEN-02
100
AcDbLine
 10
10075.49999999999
 20
310.4999999999973
 30
0.0
 11
10075.49999999999
 21
931.4999999999999
 31
0.0
  0
LINE
  5
280E1
330
27F9F
100
AcDbEntity
  8
YODOROGO
100
AcDbLine
 10
11241.60162798446
 20
748.4060611609828
 30
0.0
 11
11186.10162798447
 21
748.4060611609828
 31
0.0
1001
AUTOCAD_POSTSCRIPT_FIGURE
1002
{
1000
PSFILL
1000
Grayscale
1000
Grayscale
1070
    25
1002
}
  0
LINE
  5
280E2
330
27F9F
100
AcDbEntity
  8
YODOROGO
100
AcDbLine
 10
11186.10162798447
 20
730.4060611609828
 30
0.0
 11
11241.60162798446
 21
730.4060611609828
 31
0.0
1001
AUTOCAD_POSTSCRIPT_FIGURE
1002
{
1000
PSFILL
1000
Grayscale
1000
Grayscale
1070
    25
1002
}
  0
LINE
  5
280E3
330
27F9F
100
AcDbEntity
  8
YODOROGO
100
AcDbLine
 10
11241.60162798446
 20
715.4060611609828
 30
0.0
 11
11186.10162798447
 21
715.4060611609828
 31
0.0
1001
AUTOCAD_POSTSCRIPT_FIGURE
1002
{
1000
PSFILL
1000
Grayscale
1000
Grayscale
1070
    25
1002
}
  0
LINE
  5
280E4
330
27F9F
100
AcDbEntity
  8
YODOROGO
100
AcDbLine
 10
11186.10162798447
 20
697.406061160983
 30
0.0
 11
11241.60162798446
 21
697.406061160983
 31
0.0
1001
AUTOCAD_POSTSCRIPT_FIGURE
1002
{
1000
PSFILL
1000
Grayscale
1000
Grayscale
1070
    25
1002
}
  0
LINE
  5
280E5
330
27F9F
100
AcDbEntity
  8
YODOROGO
100
AcDbLine
 10
11241.60162798446
 20
682.4060611609829
 30
0.0
 11
11186.10162798447
 21
682.4060611609829
 31
0.0
1001
AUTOCAD_POSTSCRIPT_FIGURE
1002
{
1000
PSFILL
1000
Grayscale
1000
Grayscale
1070
    25
1002
}
  0
LINE
  5
280E6
330
27F9F
100
AcDbEntity
  8
YODOROGO
100
AcDbLine
 10
11220.60162798447
 20
640.4060611609828
 30
0.0
 11
11241.60162798446
 21
640.4060611609828
 31
0.0
1001
AUTOCAD_POSTSCRIPT_FIGURE
1002
{
1000
PSFILL
1000
Grayscale
1000
Grayscale
1070
    25
1002
}
  0
LINE
  5
280E7
330
27F9F
100
AcDbEntity
  8
YODOROGO
100
AcDbLine
 10
11151.60162798447
 20
535.4060611609829
 30
0.0
 11
11226.60162798446
 21
555.5022505933164
 31
0.0
  0
LINE
  5
280E8
330
27F9F
100
AcDbEntity
  8
YODOROGO
100
AcDbLine
 10
11231.10162798446
 20
640.4060611609828
 30
0.0
 11
11207.10162798447
 21
640.4060611609828
 31
0.0
  0
ARC
  5
280E9
330
27F9F
100
AcDbEntity
  8
YODOROGO
100
AcDbCircle
 10
11345.38040618545
 20
677.9492284624735
 30
0.0
 40
143.2075740771177
100
AcDbArc
 50
213.9611167766784
 51
264.4787207431779
  0
ARC
  5
280EA
330
27F9F
100
AcDbEntity
  8
YODOROGO
100
AcDbCircle
 10
11345.38040618547
 20
677.9492284624883
 30
0.0
 40
143.2075740771305
100
AcDbArc
 50
208.141144204866
 51
212.9210361185994
  0
LINE
  5
280EB
330
27F9F
100
AcDbEntity
  8
YODOROGO
100
AcDbLine
 10
11164.27870236948
 20
583.8028730048376
 30
0.0
 11
11225.1690496907
 21
600.1183923964076
 31
0.0
  0
LINE
  5
280EC
330
27F9F
100
AcDbEntity
  8
YODOROGO
100
AcDbLine
 10
11151.60162798447
 20
535.4060611609829
 30
0.0
 11
11226.60162798446
 21
555.5022505933164
 31
0.0
  0
LINE
  5
280ED
330
27F9F
100
AcDbEntity
  8
YODOROGO
100
AcDbLine
 10
11231.10162798446
 20
640.4060611609828
 30
0.0
 11
11207.10162798447
 21
640.4060611609828
 31
0.0
  0
ARC
  5
280EE
330
27F9F
100
AcDbEntity
  8
YODOROGO
100
AcDbCircle
 10
11345.38040618545
 20
677.9492284624735
 30
0.0
 40
143.2075740771177
100
AcDbArc
 50
213.9611167766784
 51
264.4787207431779
  0
LINE
  5
280EF
330
27F9F
100
AcDbEntity
  8
YODOROGO
100
AcDbLine
 10
10797.60162798446
 20
682.4060611609829
 30
0.0
 11
10662.60162798446
 21
682.4060611609829
 31
0.0
  0
LINE
  5
280F0
330
27F9F
100
AcDbEntity
  8
YODOROGO
100
AcDbLine
 10
10692.60162798446
 20
535.4060611609829
 30
0.0
 11
10797.60162798446
 21
535.4060611609829
 31
0.0
  0
LINE
  5
280F1
330
27F9F
100
AcDbEntity
  8
YODOROGO
100
AcDbLine
 10
10773.60162798447
 20
721.4060611609824
 30
0.0
 11
10686.60162798446
 21
721.4060611609824
 31
0.0
  0
LINE
  5
280F2
330
27F9F
100
AcDbEntity
  8
YODOROGO
100
AcDbLine
 10
10719.60162798446
 20
760.4060611609829
 30
0.0
 11
10746.60162798447
 21
760.4060611609829
 31
0.0
  0
LINE
  5
280F3
330
27F9F
100
AcDbEntity
  8
YODOROGO
100
AcDbLine
 10
10662.60162798446
 20
640.4060611609828
 30
0.0
 11
10662.60162798446
 21
565.4060611609828
 31
0.0
  0
LINE
  5
280F4
330
27F9F
100
AcDbEntity
  8
YODOROGO
100
AcDbLine
 10
10686.60162798446
 20
586.4060611609825
 30
0.0
 11
10686.60162798446
 21
640.4060611609828
 31
0.0
  0
LINE
  5
280F5
330
27F9F
100
AcDbEntity
  8
YODOROGO
100
AcDbLine
 10
10719.60162798446
 20
655.4060611609838
 30
0.0
 11
10719.60162798446
 21
580.406061160983
 31
0.0
  0
LINE
  5
280F6
330
27F9F
100
AcDbEntity
  8
YODOROGO
100
AcDbLine
 10
10446.60162798447
 20
631.4060611609833
 30
0.0
 11
10416.60162798446
 21
607.4896552667143
 31
0.0
  0
LINE
  5
280F7
330
27F9F
100
AcDbEntity
  8
YODOROGO
100
AcDbLine
 10
10476.60162798446
 20
607.4896552667143
 30
0.0
 11
10446.60162798447
 21
631.4060611609833
 31
0.0
  0
LINE
  5
280F8
330
27F9F
100
AcDbEntity
  8
YODOROGO
100
AcDbLine
 10
10446.60162798447
 20
640.4060611609828
 30
0.0
 11
10476.60162798446
 21
616.4896552667137
 31
0.0
  0
LINE
  5
280F9
330
27F9F
100
AcDbEntity
  8
YODOROGO
100
AcDbLine
 10
10416.60162798446
 20
616.4896552667137
 30
0.0
 11
10446.60162798447
 21
640.4060611609828
 31
0.0
  0
LINE
  5
280FA
330
27F9F
100
AcDbEntity
  8
YODOROGO
100
AcDbLine
 10
10515.34245150633
 20
622.406061160983
 30
0.0
 11
10515.34245150633
 21
631.4060611609825
 31
0.0
  0
LINE
  5
280FB
330
27F9F
100
AcDbEntity
  8
YODOROGO
100
AcDbLine
 10
10491.60162798447
 20
631.4060611609825
 30
0.0
 11
10491.60162798447
 21
625.4060611609819
 31
0.0
  0
LINE
  5
280FC
330
27F9F
100
AcDbEntity
  8
YODOROGO
100
AcDbLine
 10
10536.8008200866
 20
640.4060611609828
 30
0.0
 11
10536.8008200866
 21
620.813863977996
 31
0.0
1001
AUTOCAD_POSTSCRIPT_FIGURE
1002
{
1000
PSFILL
1000
Grayscale
1000
Grayscale
1070
   100
1002
}
  0
LINE
  5
280FD
330
27F9F
100
AcDbEntity
  8
YODOROGO
100
AcDbLine
 10
10530.80082008658
 20
620.813863977996
 30
0.0
 11
10530.80082008658
 21
640.4060611609828
 31
0.0
1001
AUTOCAD_POSTSCRIPT_FIGURE
1002
{
1000
PSFILL
1000
Grayscale
1000
Grayscale
1070
   100
1002
}
  0
LINE
  5
280FE
330
27F9F
100
AcDbEntity
  8
YODOROGO
100
AcDbLine
 10
10428.60162798447
 20
603.2894640162218
 30
0.0
 11
10428.60162798447
 21
612.2894640162221
 31
0.0
  0
LINE
  5
280FF
330
27F9F
100
AcDbEntity
  8
YODOROGO
100
AcDbLine
 10
10464.60162798447
 20
603.2894640162218
 30
0.0
 11
10428.60162798447
 21
603.2894640162218
 31
0.0
  0
LINE
  5
28100
330
27F9F
100
AcDbEntity
  8
YODOROGO
100
AcDbLine
 10
10464.60162798447
 20
612.2894640162221
 30
0.0
 11
10464.60162798447
 21
603.2894640162218
 31
0.0
  0
LINE
  5
28101
330
27F9F
100
AcDbEntity
  8
YODOROGO
100
AcDbLine
 10
10428.60162798447
 20
612.2894640162221
 30
0.0
 11
10464.60162798447
 21
612.2894640162221
 31
0.0
  0
LINE
  5
28102
330
27F9F
100
AcDbEntity
  8
YODOROGO
100
AcDbLine
 10
10434.1910958434
 20
588.1885715139279
 30
0.0
 11
10419.60162798446
 21
553.4060611609827
 31
0.0
1001
AUTOCAD_POSTSCRIPT_FIGURE
1002
{
1000
PSFILL
1000
Grayscale
1000
Grayscale
1070
   100
1002
}
  0
LINE
  5
28103
330
27F9F
100
AcDbEntity
  8
YODOROGO
100
AcDbLine
 10
10416.60162798446
 20
588.1885715139279
 30
0.0
 11
10434.1910958434
 21
588.1885715139279
 31
0.0
1001
AUTOCAD_POSTSCRIPT_FIGURE
1002
{
1000
PSFILL
1000
Grayscale
1000
Grayscale
1070
   100
1002
}
  0
LINE
  5
28104
330
27F9F
100
AcDbEntity
  8
YODOROGO
100
AcDbLine
 10
10416.60162798446
 20
595.688571513928
 30
0.0
 11
10416.60162798446
 21
588.1885715139279
 31
0.0
1001
AUTOCAD_POSTSCRIPT_FIGURE
1002
{
1000
PSFILL
1000
Grayscale
1000
Grayscale
1070
   100
1002
}
  0
LINE
  5
28105
330
27F9F
100
AcDbEntity
  8
YODOROGO
100
AcDbLine
 10
10476.60162798446
 20
595.688571513928
 30
0.0
 11
10416.60162798446
 21
595.688571513928
 31
0.0
1001
AUTOCAD_POSTSCRIPT_FIGURE
1002
{
1000
PSFILL
1000
Grayscale
1000
Grayscale
1070
   100
1002
}
  0
LINE
  5
28106
330
27F9F
100
AcDbEntity
  8
YODOROGO
100
AcDbLine
 10
10476.60162798446
 20
588.1885715139279
 30
0.0
 11
10476.60162798446
 21
595.688571513928
 31
0.0
1001
AUTOCAD_POSTSCRIPT_FIGURE
1002
{
1000
PSFILL
1000
Grayscale
1000
Grayscale
1070
   100
1002
}
  0
LINE
  5
28107
330
27F9F
100
AcDbEntity
  8
YODOROGO
100
AcDbLine
 10
10441.69109584339
 20
588.1885715139279
 30
0.0
 11
10476.60162798446
 21
588.1885715139279
 31
0.0
1001
AUTOCAD_POSTSCRIPT_FIGURE
1002
{
1000
PSFILL
1000
Grayscale
1000
Grayscale
1070
   100
1002
}
  0
LINE
  5
28108
330
27F9F
100
AcDbEntity
  8
YODOROGO
100
AcDbLine
 10
10430.83001935679
 20
560.9060611609827
 30
0.0
 11
10441.69109584339
 21
588.1885715139279
 31
0.0
1001
AUTOCAD_POSTSCRIPT_FIGURE
1002
{
1000
PSFILL
1000
Grayscale
1000
Grayscale
1070
   100
1002
}
  0
LINE
  5
28109
330
27F9F
100
AcDbEntity
  8
YODOROGO
100
AcDbLine
 10
10463.27054655324
 20
560.9060611609827
 30
0.0
 11
10430.83001935679
 21
560.9060611609827
 31
0.0
1001
AUTOCAD_POSTSCRIPT_FIGURE
1002
{
1000
PSFILL
1000
Grayscale
1000
Grayscale
1070
   100
1002
}
  0
LINE
  5
2810A
330
27F9F
100
AcDbEntity
  8
YODOROGO
100
AcDbLine
 10
10456.8993767966
 20
576.0876790116348
 30
0.0
 11
10463.27054655324
 21
560.9060611609827
 31
0.0
1001
AUTOCAD_POSTSCRIPT_FIGURE
1002
{
1000
PSFILL
1000
Grayscale
1000
Grayscale
1070
   100
1002
}
  0
LINE
  5
2810B
330
27F9F
100
AcDbEntity
  8
YODOROGO
100
AcDbLine
 10
10462.8993767966
 20
576.0876790116348
 30
0.0
 11
10456.8993767966
 21
576.0876790116348
 31
0.0
1001
AUTOCAD_POSTSCRIPT_FIGURE
1002
{
1000
PSFILL
1000
Grayscale
1000
Grayscale
1070
   100
1002
}
  0
LINE
  5
2810C
330
27F9F
100
AcDbEntity
  8
YODOROGO
100
AcDbLine
 10
10473.60162798447
 20
553.4060611609827
 30
0.0
 11
10462.8993767966
 21
576.0876790116348
 31
0.0
1001
AUTOCAD_POSTSCRIPT_FIGURE
1002
{
1000
PSFILL
1000
Grayscale
1000
Grayscale
1070
   100
1002
}
  0
LINE
  5
2810D
330
27F9F
100
AcDbEntity
  8
YODOROGO
100
AcDbLine
 10
10419.60162798446
 20
553.4060611609827
 30
0.0
 11
10473.60162798447
 21
553.4060611609827
 31
0.0
1001
AUTOCAD_POSTSCRIPT_FIGURE
1002
{
1000
PSFILL
1000
Grayscale
1000
Grayscale
1070
   100
1002
}
  0
LINE
  5
2810E
330
27F9F
100
AcDbEntity
  8
YODOROGO
100
AcDbLine
 10
10416.60162798446
 20
607.4896552667143
 30
0.0
 11
10416.60162798446
 21
616.4896552667137
 31
0.0
  0
LINE
  5
2810F
330
27F9F
100
AcDbEntity
  8
YODOROGO
100
AcDbLine
 10
10476.60162798446
 20
616.4896552667137
 30
0.0
 11
10476.60162798446
 21
607.4896552667143
 31
0.0
  0
ARC
  5
28110
330
27F9F
100
AcDbEntity
  8
YODOROGO
100
AcDbCircle
 10
10584.72766580511
 20
600.3291619969972
 30
0.0
 40
65.99999999999997
100
AcDbArc
 50
280.3644312771313
 51
3.541483659218056
  0
ARC
  5
28111
330
27F9F
100
AcDbEntity
  8
YODOROGO
100
AcDbCircle
 10
10588.40851153474
 20
612.5991776107142
 30
0.0
 40
41.99999999999936
100
AcDbArc
 50
281.2490582504155
 51
348.7509417495832
  0
LINE
  5
28112
330
27F9F
100
AcDbEntity
  8
YODOROGO
100
AcDbLine
 10
10596.60162798446
 20
571.4060611609824
 30
0.0
 11
10596.60162798446
 21
535.4060611609829
 31
0.0
  0
LINE
  5
28113
330
27F9F
100
AcDbEntity
  8
YODOROGO
100
AcDbLine
 10
10507.53333890132
 20
603.9939618982182
 30
0.0
 11
10515.34245150633
 21
622.406061160983
 31
0.0
  0
LINE
  5
28114
330
27F9F
100
AcDbEntity
  8
YODOROGO
100
AcDbLine
 10
10515.60162798446
 20
593.6701837306505
 30
0.0
 11
10507.53333890132
 21
603.9939618982182
 31
0.0
  0
LINE
  5
28115
330
27F9F
100
AcDbEntity
  8
YODOROGO
100
AcDbLine
 10
10515.60162798446
 20
586.1701837306497
 30
0.0
 11
10515.60162798446
 21
593.6701837306505
 31
0.0
  0
LINE
  5
28116
330
27F9F
100
AcDbEntity
  8
YODOROGO
100
AcDbLine
 10
10506.60162798447
 20
594.4638989060739
 30
0.0
 11
10515.60162798446
 21
586.1701837306497
 31
0.0
  0
LINE
  5
28117
330
27F9F
100
AcDbEntity
  8
YODOROGO
100
AcDbLine
 10
10506.60162798447
 20
553.4060611609827
 30
0.0
 11
10506.60162798447
 21
594.4638989060739
 31
0.0
  0
LINE
  5
28118
330
27F9F
100
AcDbEntity
  8
YODOROGO
100
AcDbLine
 10
10500.60162798446
 20
553.4060611609827
 30
0.0
 11
10506.60162798447
 21
553.4060611609827
 31
0.0
  0
LINE
  5
28119
330
27F9F
100
AcDbEntity
  8
YODOROGO
100
AcDbLine
 10
10500.60162798446
 20
592.5020061336555
 30
0.0
 11
10500.60162798446
 21
553.4060611609827
 31
0.0
  0
LINE
  5
2811A
330
27F9F
100
AcDbEntity
  8
YODOROGO
100
AcDbLine
 10
10491.60162798447
 20
574.7880296375358
 30
0.0
 11
10500.60162798446
 21
592.5020061336555
 31
0.0
  0
LINE
  5
2811B
330
27F9F
100
AcDbEntity
  8
YODOROGO
100
AcDbLine
 10
10491.60162798447
 20
583.788029637536
 30
0.0
 11
10491.60162798447
 21
574.7880296375358
 31
0.0
  0
LINE
  5
2811C
330
27F9F
100
AcDbEntity
  8
YODOROGO
100
AcDbLine
 10
10509.68579035926
 20
625.4060611609819
 30
0.0
 11
10491.60162798447
 21
583.788029637536
 31
0.0
  0
LINE
  5
2811D
330
27F9F
100
AcDbEntity
  8
YODOROGO
100
AcDbLine
 10
10491.60162798447
 20
625.4060611609819
 30
0.0
 11
10509.68579035926
 21
625.4060611609819
 31
0.0
  0
LINE
  5
2811E
330
27F9F
100
AcDbEntity
  8
YODOROGO
100
AcDbLine
 10
10518.80082008659
 20
620.813863977996
 30
0.0
 11
10530.80082008658
 21
620.813863977996
 31
0.0
1001
AUTOCAD_POSTSCRIPT_FIGURE
1002
{
1000
PSFILL
1000
Grayscale
1000
Grayscale
1070
   100
1002
}
  0
LINE
  5
2811F
330
27F9F
100
AcDbEntity
  8
YODOROGO
100
AcDbLine
 10
10518.80082008659
 20
611.8138639779965
 30
0.0
 11
10518.80082008659
 21
620.813863977996
 31
0.0
1001
AUTOCAD_POSTSCRIPT_FIGURE
1002
{
1000
PSFILL
1000
Grayscale
1000
Grayscale
1070
   100
1002
}
  0
LINE
  5
28120
330
27F9F
100
AcDbEntity
  8
YODOROGO
100
AcDbLine
 10
10530.80082008658
 20
611.8138639779965
 30
0.0
 11
10518.80082008659
 21
611.8138639779965
 31
0.0
1001
AUTOCAD_POSTSCRIPT_FIGURE
1002
{
1000
PSFILL
1000
Grayscale
1000
Grayscale
1070
   100
1002
}
  0
LINE
  5
28121
330
27F9F
100
AcDbEntity
  8
YODOROGO
100
AcDbLine
 10
10530.80082008658
 20
562.4060611609831
 30
0.0
 11
10530.80082008658
 21
611.8138639779965
 31
0.0
1001
AUTOCAD_POSTSCRIPT_FIGURE
1002
{
1000
PSFILL
1000
Grayscale
1000
Grayscale
1070
   100
1002
}
  0
LINE
  5
28122
330
27F9F
100
AcDbEntity
  8
YODOROGO
100
AcDbLine
 10
10518.8008200866
 20
562.4060611609831
 30
0.0
 11
10530.80082008658
 21
562.4060611609831
 31
0.0
1001
AUTOCAD_POSTSCRIPT_FIGURE
1002
{
1000
PSFILL
1000
Grayscale
1000
Grayscale
1070
   100
1002
}
  0
LINE
  5
28123
330
27F9F
100
AcDbEntity
  8
YODOROGO
100
AcDbLine
 10
10518.8008200866
 20
553.4060611609827
 30
0.0
 11
10518.8008200866
 21
562.4060611609831
 31
0.0
1001
AUTOCAD_POSTSCRIPT_FIGURE
1002
{
1000
PSFILL
1000
Grayscale
1000
Grayscale
1070
   100
1002
}
  0
LINE
  5
28124
330
27F9F
100
AcDbEntity
  8
YODOROGO
100
AcDbLine
 10
10551.60162798447
 20
553.4060611609827
 30
0.0
 11
10518.8008200866
 21
553.4060611609827
 31
0.0
1001
AUTOCAD_POSTSCRIPT_FIGURE
1002
{
1000
PSFILL
1000
Grayscale
1000
Grayscale
1070
   100
1002
}
  0
LINE
  5
28125
330
27F9F
100
AcDbEntity
  8
YODOROGO
100
AcDbLine
 10
10551.60162798447
 20
562.4060611609831
 30
0.0
 11
10551.60162798447
 21
553.4060611609827
 31
0.0
1001
AUTOCAD_POSTSCRIPT_FIGURE
1002
{
1000
PSFILL
1000
Grayscale
1000
Grayscale
1070
   100
1002
}
  0
LINE
  5
28126
330
27F9F
100
AcDbEntity
  8
YODOROGO
100
AcDbLine
 10
10536.8008200866
 20
562.4060611609831
 30
0.0
 11
10551.60162798447
 21
562.4060611609831
 31
0.0
1001
AUTOCAD_POSTSCRIPT_FIGURE
1002
{
1000
PSFILL
1000
Grayscale
1000
Grayscale
1070
   100
1002
}
  0
LINE
  5
28127
330
27F9F
100
AcDbEntity
  8
YODOROGO
100
AcDbLine
 10
10536.8008200866
 20
611.8138639779965
 30
0.0
 11
10536.8008200866
 21
562.4060611609831
 31
0.0
1001
AUTOCAD_POSTSCRIPT_FIGURE
1002
{
1000
PSFILL
1000
Grayscale
1000
Grayscale
1070
   100
1002
}
  0
LINE
  5
28128
330
27F9F
100
AcDbEntity
  8
YODOROGO
100
AcDbLine
 10
10551.60162798447
 20
611.8138639779965
 30
0.0
 11
10536.8008200866
 21
611.8138639779965
 31
0.0
1001
AUTOCAD_POSTSCRIPT_FIGURE
1002
{
1000
PSFILL
1000
Grayscale
1000
Grayscale
1070
   100
1002
}
  0
LINE
  5
28129
330
27F9F
100
AcDbEntity
  8
YODOROGO
100
AcDbLine
 10
10551.60162798447
 20
620.813863977996
 30
0.0
 11
10551.60162798447
 21
611.8138639779965
 31
0.0
1001
AUTOCAD_POSTSCRIPT_FIGURE
1002
{
1000
PSFILL
1000
Grayscale
1000
Grayscale
1070
   100
1002
}
  0
LINE
  5
2812A
330
27F9F
100
AcDbEntity
  8
YODOROGO
100
AcDbLine
 10
10536.8008200866
 20
620.813863977996
 30
0.0
 11
10551.60162798447
 21
620.813863977996
 31
0.0
1001
AUTOCAD_POSTSCRIPT_FIGURE
1002
{
1000
PSFILL
1000
Grayscale
1000
Grayscale
1070
   100
1002
}
  0
LINE
  5
2812B
330
27F9F
100
AcDbEntity
  8
YODOROGO
100
AcDbLine
 10
10650.60162798447
 20
625.406061160983
 30
0.0
 11
10629.60162798447
 21
625.406061160983
 31
0.0
  0
LINE
  5
2812C
330
27F9F
100
AcDbEntity
  8
YODOROGO
100
AcDbLine
 10
10650.60162798447
 20
604.4060611609832
 30
0.0
 11
10650.60162798447
 21
625.406061160983
 31
0.0
  0
LINE
  5
2812D
330
27F9F
100
AcDbEntity
  8
YODOROGO
100
AcDbLine
 10
10629.60162798447
 20
625.406061160983
 30
0.0
 11
10629.60162798447
 21
604.4060611609832
 31
0.0
  0
ARC
  5
2812E
330
27F9F
100
AcDbEntity
  8
YODOROGO
100
AcDbCircle
 10
10692.60162798446
 20
565.4060611609828
 30
0.0
 40
30.0
100
AcDbArc
 50
180.0
 51
270.0
  0
ARC
  5
2812F
330
27F9F
100
AcDbEntity
  8
YODOROGO
100
AcDbCircle
 10
10701.60162798446
 20
586.4060611609825
 30
0.0
 40
15.0
100
AcDbArc
 50
180.0
 51
270.0
  0
LINE
  5
28130
330
27F9F
100
AcDbEntity
  8
YODOROGO
100
AcDbLine
 10
10710.60162798447
 20
571.4060611609824
 30
0.0
 11
10701.60162798446
 21
571.4060611609824
 31
0.0
  0
ARC
  5
28131
330
27F9F
100
AcDbEntity
  8
YODOROGO
100
AcDbCircle
 10
10710.60162798447
 20
580.4060611609819
 30
0.0
 40
8.999999999998637
100
AcDbArc
 50
270.0
 51
0.0000000000054281
  0
LINE
  5
28132
330
27F9F
100
AcDbEntity
  8
YODOROGO
100
AcDbLine
 10
10425.60162798447
 20
709.0449677976399
 30
0.0
 11
10416.60162798446
 21
691.4162804818772
 31
0.0
1001
AUTOCAD_POSTSCRIPT_FIGURE
1002
{
1000
PSFILL
1000
Grayscale
1000
Grayscale
1070
   100
1002
}
  0
LINE
  5
28133
330
27F9F
100
AcDbEntity
  8
YODOROGO
100
AcDbLine
 10
10425.60162798447
 20
655.406061160983
 30
0.0
 11
10425.60162798447
 21
709.0449677976399
 31
0.0
1001
AUTOCAD_POSTSCRIPT_FIGURE
1002
{
1000
PSFILL
1000
Grayscale
1000
Grayscale
1070
   100
1002
}
  0
LINE
  5
28134
330
27F9F
100
AcDbEntity
  8
YODOROGO
100
AcDbLine
 10
10431.60162798447
 20
655.406061160983
 30
0.0
 11
10425.60162798447
 21
655.406061160983
 31
0.0
1001
AUTOCAD_POSTSCRIPT_FIGURE
1002
{
1000
PSFILL
1000
Grayscale
1000
Grayscale
1070
   100
1002
}
  0
LINE
  5
28135
330
27F9F
100
AcDbEntity
  8
YODOROGO
100
AcDbLine
 10
10431.60162798447
 20
710.1642495319751
 30
0.0
 11
10431.60162798447
 21
655.406061160983
 31
0.0
1001
AUTOCAD_POSTSCRIPT_FIGURE
1002
{
1000
PSFILL
1000
Grayscale
1000
Grayscale
1070
   100
1002
}
  0
LINE
  5
28136
330
27F9F
100
AcDbEntity
  8
YODOROGO
100
AcDbLine
 10
10440.60162798446
 20
700.3705343565512
 30
0.0
 11
10431.60162798447
 21
710.1642495319751
 31
0.0
1001
AUTOCAD_POSTSCRIPT_FIGURE
1002
{
1000
PSFILL
1000
Grayscale
1000
Grayscale
1070
   100
1002
}
  0
LINE
  5
28137
330
27F9F
100
AcDbEntity
  8
YODOROGO
100
AcDbLine
 10
10440.60162798446
 20
706.3705343565509
 30
0.0
 11
10440.60162798446
 21
700.3705343565512
 31
0.0
1001
AUTOCAD_POSTSCRIPT_FIGURE
1002
{
1000
PSFILL
1000
Grayscale
1000
Grayscale
1070
   100
1002
}
  0
LINE
  5
28138
330
27F9F
100
AcDbEntity
  8
YODOROGO
100
AcDbLine
 10
10431.60162798447
 20
719.1642495319745
 30
0.0
 11
10440.60162798446
 21
706.3705343565509
 31
0.0
1001
AUTOCAD_POSTSCRIPT_FIGURE
1002
{
1000
PSFILL
1000
Grayscale
1000
Grayscale
1070
   100
1002
}
  0
LINE
  5
28139
330
27F9F
100
AcDbEntity
  8
YODOROGO
100
AcDbLine
 10
10431.60162798447
 20
727.4060611609828
 30
0.0
 11
10431.60162798447
 21
719.1642495319745
 31
0.0
1001
AUTOCAD_POSTSCRIPT_FIGURE
1002
{
1000
PSFILL
1000
Grayscale
1000
Grayscale
1070
   100
1002
}
  0
LINE
  5
2813A
330
27F9F
100
AcDbEntity
  8
YODOROGO
100
AcDbLine
 10
10458.60162798446
 20
727.4060611609828
 30
0.0
 11
10431.60162798447
 21
727.4060611609828
 31
0.0
1001
AUTOCAD_POSTSCRIPT_FIGURE
1002
{
1000
PSFILL
1000
Grayscale
1000
Grayscale
1070
   100
1002
}
  0
LINE
  5
2813B
330
27F9F
100
AcDbEntity
  8
YODOROGO
100
AcDbLine
 10
10458.60162798446
 20
712.7131308511124
 30
0.0
 11
10458.60162798446
 21
727.4060611609828
 31
0.0
1001
AUTOCAD_POSTSCRIPT_FIGURE
1002
{
1000
PSFILL
1000
Grayscale
1000
Grayscale
1070
   100
1002
}
  0
LINE
  5
2813C
330
27F9F
100
AcDbEntity
  8
YODOROGO
100
AcDbLine
 10
10446.60162798447
 20
712.7131308511124
 30
0.0
 11
10458.60162798446
 21
712.7131308511124
 31
0.0
1001
AUTOCAD_POSTSCRIPT_FIGURE
1002
{
1000
PSFILL
1000
Grayscale
1000
Grayscale
1070
   100
1002
}
  0
LINE
  5
2813D
330
27F9F
100
AcDbEntity
  8
YODOROGO
100
AcDbLine
 10
10446.60162798447
 20
706.7131308511119
 30
0.0
 11
10446.60162798447
 21
712.7131308511124
 31
0.0
1001
AUTOCAD_POSTSCRIPT_FIGURE
1002
{
1000
PSFILL
1000
Grayscale
1000
Grayscale
1070
   100
1002
}
  0
LINE
  5
2813E
330
27F9F
100
AcDbEntity
  8
YODOROGO
100
AcDbLine
 10
10458.60162798446
 20
706.7131308511119
 30
0.0
 11
10446.60162798447
 21
706.7131308511119
 31
0.0
1001
AUTOCAD_POSTSCRIPT_FIGURE
1002
{
1000
PSFILL
1000
Grayscale
1000
Grayscale
1070
   100
1002
}
  0
LINE
  5
2813F
330
27F9F
100
AcDbEntity
  8
YODOROGO
100
AcDbLine
 10
10458.60162798446
 20
704.8571917366647
 30
0.0
 11
10458.60162798446
 21
706.7131308511119
 31
0.0
1001
AUTOCAD_POSTSCRIPT_FIGURE
1002
{
1000
PSFILL
1000
Grayscale
1000
Grayscale
1070
   100
1002
}
  0
LINE
  5
28140
330
27F9F
100
AcDbEntity
  8
YODOROGO
100
AcDbLine
 10
10443.60162798447
 20
679.8656179355313
 30
0.0
 11
10458.60162798446
 21
704.8571917366647
 31
0.0
1001
AUTOCAD_POSTSCRIPT_FIGURE
1002
{
1000
PSFILL
1000
Grayscale
1000
Grayscale
1070
   100
1002
}
  0
LINE
  5
28141
330
27F9F
100
AcDbEntity
  8
YODOROGO
100
AcDbLine
 10
10443.60162798447
 20
673.8656179355309
 30
0.0
 11
10443.60162798447
 21
679.8656179355313
 31
0.0
1001
AUTOCAD_POSTSCRIPT_FIGURE
1002
{
1000
PSFILL
1000
Grayscale
1000
Grayscale
1070
   100
1002
}
  0
LINE
  5
28142
330
27F9F
100
AcDbEntity
  8
YODOROGO
100
AcDbLine
 10
10458.60162798446
 20
692.8571917366638
 30
0.0
 11
10443.60162798447
 21
673.8656179355309
 31
0.0
1001
AUTOCAD_POSTSCRIPT_FIGURE
1002
{
1000
PSFILL
1000
Grayscale
1000
Grayscale
1070
   100
1002
}
  0
LINE
  5
28143
330
27F9F
100
AcDbEntity
  8
YODOROGO
100
AcDbLine
 10
10458.60162798446
 20
655.406061160983
 30
0.0
 11
10458.60162798446
 21
692.8571917366638
 31
0.0
1001
AUTOCAD_POSTSCRIPT_FIGURE
1002
{
1000
PSFILL
1000
Grayscale
1000
Grayscale
1070
   100
1002
}
  0
LINE
  5
28144
330
27F9F
100
AcDbEntity
  8
YODOROGO
100
AcDbLine
 10
10464.60162798447
 20
655.406061160983
 30
0.0
 11
10458.60162798446
 21
655.406061160983
 31
0.0
1001
AUTOCAD_POSTSCRIPT_FIGURE
1002
{
1000
PSFILL
1000
Grayscale
1000
Grayscale
1070
   100
1002
}
  0
LINE
  5
28145
330
27F9F
100
AcDbEntity
  8
YODOROGO
100
AcDbLine
 10
10464.60162798447
 20
693.5283795595521
 30
0.0
 11
10464.60162798447
 21
655.406061160983
 31
0.0
1001
AUTOCAD_POSTSCRIPT_FIGURE
1002
{
1000
PSFILL
1000
Grayscale
1000
Grayscale
1070
   100
1002
}
  0
LINE
  5
28146
330
27F9F
100
AcDbEntity
  8
YODOROGO
100
AcDbLine
 10
10476.60162798446
 20
673.8656179355309
 30
0.0
 11
10464.60162798447
 21
693.5283795595521
 31
0.0
1001
AUTOCAD_POSTSCRIPT_FIGURE
1002
{
1000
PSFILL
1000
Grayscale
1000
Grayscale
1070
   100
1002
}
  0
LINE
  5
28147
330
27F9F
100
AcDbEntity
  8
YODOROGO
100
AcDbLine
 10
10476.60162798446
 20
679.8656179355313
 30
0.0
 11
10476.60162798446
 21
673.8656179355309
 31
0.0
1001
AUTOCAD_POSTSCRIPT_FIGURE
1002
{
1000
PSFILL
1000
Grayscale
1000
Grayscale
1070
   100
1002
}
  0
LINE
  5
28148
330
27F9F
100
AcDbEntity
  8
YODOROGO
100
AcDbLine
 10
10464.60162798447
 20
705.5283795595531
 30
0.0
 11
10476.60162798446
 21
679.8656179355313
 31
0.0
1001
AUTOCAD_POSTSCRIPT_FIGURE
1002
{
1000
PSFILL
1000
Grayscale
1000
Grayscale
1070
   100
1002
}
  0
LINE
  5
28149
330
27F9F
100
AcDbEntity
  8
YODOROGO
100
AcDbLine
 10
10464.60162798447
 20
706.7131308511128
 30
0.0
 11
10464.60162798447
 21
705.5283795595531
 31
0.0
1001
AUTOCAD_POSTSCRIPT_FIGURE
1002
{
1000
PSFILL
1000
Grayscale
1000
Grayscale
1070
   100
1002
}
  0
LINE
  5
2814A
330
27F9F
100
AcDbEntity
  8
YODOROGO
100
AcDbLine
 10
10476.60162798446
 20
706.7131308511119
 30
0.0
 11
10464.60162798447
 21
706.7131308511128
 31
0.0
1001
AUTOCAD_POSTSCRIPT_FIGURE
1002
{
1000
PSFILL
1000
Grayscale
1000
Grayscale
1070
   100
1002
}
  0
LINE
  5
2814B
330
27F9F
100
AcDbEntity
  8
YODOROGO
100
AcDbLine
 10
10476.60162798446
 20
712.7131308511124
 30
0.0
 11
10476.60162798446
 21
706.7131308511119
 31
0.0
1001
AUTOCAD_POSTSCRIPT_FIGURE
1002
{
1000
PSFILL
1000
Grayscale
1000
Grayscale
1070
   100
1002
}
  0
LINE
  5
2814C
330
27F9F
100
AcDbEntity
  8
YODOROGO
100
AcDbLine
 10
10464.60162798447
 20
712.7131308511124
 30
0.0
 11
10476.60162798446
 21
712.7131308511124
 31
0.0
1001
AUTOCAD_POSTSCRIPT_FIGURE
1002
{
1000
PSFILL
1000
Grayscale
1000
Grayscale
1070
   100
1002
}
  0
LINE
  5
2814D
330
27F9F
100
AcDbEntity
  8
YODOROGO
100
AcDbLine
 10
10464.60162798447
 20
727.4060611609828
 30
0.0
 11
10464.60162798447
 21
712.7131308511124
 31
0.0
1001
AUTOCAD_POSTSCRIPT_FIGURE
1002
{
1000
PSFILL
1000
Grayscale
1000
Grayscale
1070
   100
1002
}
  0
LINE
  5
2814E
330
27F9F
100
AcDbEntity
  8
YODOROGO
100
AcDbLine
 10
10476.60162798446
 20
727.4060611609828
 30
0.0
 11
10464.60162798447
 21
727.4060611609828
 31
0.0
1001
AUTOCAD_POSTSCRIPT_FIGURE
1002
{
1000
PSFILL
1000
Grayscale
1000
Grayscale
1070
   100
1002
}
  0
LINE
  5
2814F
330
27F9F
100
AcDbEntity
  8
YODOROGO
100
AcDbLine
 10
10476.60162798446
 20
733.4060611609828
 30
0.0
 11
10476.60162798446
 21
727.4060611609828
 31
0.0
1001
AUTOCAD_POSTSCRIPT_FIGURE
1002
{
1000
PSFILL
1000
Grayscale
1000
Grayscale
1070
   100
1002
}
  0
LINE
  5
28150
330
27F9F
100
AcDbEntity
  8
YODOROGO
100
AcDbLine
 10
10464.60162798447
 20
733.4060611609828
 30
0.0
 11
10476.60162798446
 21
733.4060611609828
 31
0.0
1001
AUTOCAD_POSTSCRIPT_FIGURE
1002
{
1000
PSFILL
1000
Grayscale
1000
Grayscale
1070
   100
1002
}
  0
LINE
  5
28151
330
27F9F
100
AcDbEntity
  8
YODOROGO
100
AcDbLine
 10
10464.60162798447
 20
742.4060611609832
 30
0.0
 11
10464.60162798447
 21
733.4060611609828
 31
0.0
1001
AUTOCAD_POSTSCRIPT_FIGURE
1002
{
1000
PSFILL
1000
Grayscale
1000
Grayscale
1070
   100
1002
}
  0
LINE
  5
28152
330
27F9F
100
AcDbEntity
  8
YODOROGO
100
AcDbLine
 10
10458.60162798446
 20
742.4060611609832
 30
0.0
 11
10464.60162798447
 21
742.4060611609832
 31
0.0
1001
AUTOCAD_POSTSCRIPT_FIGURE
1002
{
1000
PSFILL
1000
Grayscale
1000
Grayscale
1070
   100
1002
}
  0
LINE
  5
28153
330
27F9F
100
AcDbEntity
  8
YODOROGO
100
AcDbLine
 10
10458.60162798446
 20
733.4060611609828
 30
0.0
 11
10458.60162798446
 21
742.4060611609832
 31
0.0
1001
AUTOCAD_POSTSCRIPT_FIGURE
1002
{
1000
PSFILL
1000
Grayscale
1000
Grayscale
1070
   100
1002
}
  0
LINE
  5
28154
330
27F9F
100
AcDbEntity
  8
YODOROGO
100
AcDbLine
 10
10449.60162798447
 20
733.4060611609828
 30
0.0
 11
10458.60162798446
 21
733.4060611609828
 31
0.0
1001
AUTOCAD_POSTSCRIPT_FIGURE
1002
{
1000
PSFILL
1000
Grayscale
1000
Grayscale
1070
   100
1002
}
  0
LINE
  5
28155
330
27F9F
100
AcDbEntity
  8
YODOROGO
100
AcDbLine
 10
10449.60162798447
 20
742.4060611609832
 30
0.0
 11
10449.60162798447
 21
733.4060611609828
 31
0.0
1001
AUTOCAD_POSTSCRIPT_FIGURE
1002
{
1000
PSFILL
1000
Grayscale
1000
Grayscale
1070
   100
1002
}
  0
LINE
  5
28156
330
27F9F
100
AcDbEntity
  8
YODOROGO
100
AcDbLine
 10
10443.60162798447
 20
742.4060611609832
 30
0.0
 11
10449.60162798447
 21
742.4060611609832
 31
0.0
1001
AUTOCAD_POSTSCRIPT_FIGURE
1002
{
1000
PSFILL
1000
Grayscale
1000
Grayscale
1070
   100
1002
}
  0
LINE
  5
28157
330
27F9F
100
AcDbEntity
  8
YODOROGO
100
AcDbLine
 10
10443.60162798447
 20
733.4060611609828
 30
0.0
 11
10443.60162798447
 21
742.4060611609832
 31
0.0
1001
AUTOCAD_POSTSCRIPT_FIGURE
1002
{
1000
PSFILL
1000
Grayscale
1000
Grayscale
1070
   100
1002
}
  0
LINE
  5
28158
330
27F9F
100
AcDbEntity
  8
YODOROGO
100
AcDbLine
 10
10431.60162798447
 20
733.4060611609828
 30
0.0
 11
10443.60162798447
 21
733.4060611609828
 31
0.0
1001
AUTOCAD_POSTSCRIPT_FIGURE
1002
{
1000
PSFILL
1000
Grayscale
1000
Grayscale
1070
   100
1002
}
  0
LINE
  5
28159
330
27F9F
100
AcDbEntity
  8
YODOROGO
100
AcDbLine
 10
10431.60162798447
 20
742.4060611609832
 30
0.0
 11
10431.60162798447
 21
733.4060611609828
 31
0.0
1001
AUTOCAD_POSTSCRIPT_FIGURE
1002
{
1000
PSFILL
1000
Grayscale
1000
Grayscale
1070
   100
1002
}
  0
LINE
  5
2815A
330
27F9F
100
AcDbEntity
  8
YODOROGO
100
AcDbLine
 10
10425.60162798447
 20
742.4060611609832
 30
0.0
 11
10431.60162798447
 21
742.4060611609832
 31
0.0
1001
AUTOCAD_POSTSCRIPT_FIGURE
1002
{
1000
PSFILL
1000
Grayscale
1000
Grayscale
1070
   100
1002
}
  0
LINE
  5
2815B
330
27F9F
100
AcDbEntity
  8
YODOROGO
100
AcDbLine
 10
10425.60162798447
 20
733.4060611609828
 30
0.0
 11
10425.60162798447
 21
742.4060611609832
 31
0.0
1001
AUTOCAD_POSTSCRIPT_FIGURE
1002
{
1000
PSFILL
1000
Grayscale
1000
Grayscale
1070
   100
1002
}
  0
LINE
  5
2815C
330
27F9F
100
AcDbEntity
  8
YODOROGO
100
AcDbLine
 10
10416.60162798446
 20
733.4060611609828
 30
0.0
 11
10425.60162798447
 21
733.4060611609828
 31
0.0
1001
AUTOCAD_POSTSCRIPT_FIGURE
1002
{
1000
PSFILL
1000
Grayscale
1000
Grayscale
1070
   100
1002
}
  0
LINE
  5
2815D
330
27F9F
100
AcDbEntity
  8
YODOROGO
100
AcDbLine
 10
10416.60162798446
 20
727.4060611609828
 30
0.0
 11
10416.60162798446
 21
733.4060611609828
 31
0.0
1001
AUTOCAD_POSTSCRIPT_FIGURE
1002
{
1000
PSFILL
1000
Grayscale
1000
Grayscale
1070
   100
1002
}
  0
LINE
  5
2815E
330
27F9F
100
AcDbEntity
  8
YODOROGO
100
AcDbLine
 10
10425.60162798447
 20
727.4060611609828
 30
0.0
 11
10416.60162798446
 21
727.4060611609828
 31
0.0
1001
AUTOCAD_POSTSCRIPT_FIGURE
1002
{
1000
PSFILL
1000
Grayscale
1000
Grayscale
1070
   100
1002
}
  0
LINE
  5
2815F
330
27F9F
100
AcDbEntity
  8
YODOROGO
100
AcDbLine
 10
10425.60162798447
 20
718.0449677976392
 30
0.0
 11
10425.60162798447
 21
727.4060611609828
 31
0.0
1001
AUTOCAD_POSTSCRIPT_FIGURE
1002
{
1000
PSFILL
1000
Grayscale
1000
Grayscale
1070
   100
1002
}
  0
LINE
  5
28160
330
27F9F
100
AcDbEntity
  8
YODOROGO
100
AcDbLine
 10
10416.60162798446
 20
697.4162804818766
 30
0.0
 11
10425.60162798447
 21
718.0449677976392
 31
0.0
1001
AUTOCAD_POSTSCRIPT_FIGURE
1002
{
1000
PSFILL
1000
Grayscale
1000
Grayscale
1070
   100
1002
}
  0
LINE
  5
28161
330
27F9F
100
AcDbEntity
  8
YODOROGO
100
AcDbLine
 10
10416.60162798446
 20
691.4162804818772
 30
0.0
 11
10416.60162798446
 21
697.4162804818766
 31
0.0
1001
AUTOCAD_POSTSCRIPT_FIGURE
1002
{
1000
PSFILL
1000
Grayscale
1000
Grayscale
1070
   100
1002
}
  0
LINE
  5
28162
330
27F9F
100
AcDbEntity
  8
YODOROGO
100
AcDbLine
 10
10596.60162798446
 20
700.406061160983
 30
0.0
 11
10650.60162798447
 21
684.3291096151149
 31
0.0
1001
AUTOCAD_POSTSCRIPT_FIGURE
1002
{
1000
PSFILL
1000
Grayscale
1000
Grayscale
1070
   100
1002
}
  0
LINE
  5
28163
330
27F9F
100
AcDbEntity
  8
YODOROGO
100
AcDbLine
 10
10650.60162798447
 20
657.3291096151146
 30
0.0
 11
10596.60162798446
 21
673.4060611609827
 31
0.0
1001
AUTOCAD_POSTSCRIPT_FIGURE
1002
{
1000
PSFILL
1000
Grayscale
1000
Grayscale
1070
   100
1002
}
  0
LINE
  5
28164
330
27F9F
100
AcDbEntity
  8
YODOROGO
100
AcDbLine
 10
10650.60162798447
 20
744.329109615115
 30
0.0
 11
10596.60162798446
 21
760.4060611609829
 31
0.0
1001
AUTOCAD_POSTSCRIPT_FIGURE
1002
{
1000
PSFILL
1000
Grayscale
1000
Grayscale
1070
   100
1002
}
  0
LINE
  5
28165
330
27F9F
100
AcDbEntity
  8
YODOROGO
100
AcDbLine
 10
10596.60162798446
 20
734.9060611609829
 30
0.0
 11
10650.60162798447
 21
718.829109615115
 31
0.0
1001
AUTOCAD_POSTSCRIPT_FIGURE
1002
{
1000
PSFILL
1000
Grayscale
1000
Grayscale
1070
   100
1002
}
  0
LINE
  5
28166
330
27F9F
100
AcDbEntity
  8
YODOROGO
100
AcDbLine
 10
10596.60162798446
 20
673.4060611609827
 30
0.0
 11
10596.60162798446
 21
700.406061160983
 31
0.0
1001
AUTOCAD_POSTSCRIPT_FIGURE
1002
{
1000
PSFILL
1000
Grayscale
1000
Grayscale
1070
   100
1002
}
  0
LINE
  5
28167
330
27F9F
100
AcDbEntity
  8
YODOROGO
100
AcDbLine
 10
10596.60162798446
 20
760.4060611609829
 30
0.0
 11
10596.60162798446
 21
734.9060611609829
 31
0.0
1001
AUTOCAD_POSTSCRIPT_FIGURE
1002
{
1000
PSFILL
1000
Grayscale
1000
Grayscale
1070
   100
1002
}
  0
LINE
  5
28168
330
27F9F
100
AcDbEntity
  8
YODOROGO
100
AcDbLine
 10
10530.08862007752
 20
727.4060611609828
 30
0.0
 11
10548.60162798447
 21
655.406061160983
 31
0.0
1001
AUTOCAD_POSTSCRIPT_FIGURE
1002
{
1000
PSFILL
1000
Grayscale
1000
Grayscale
1070
   100
1002
}
  0
LINE
  5
28169
330
27F9F
100
AcDbEntity
  8
YODOROGO
100
AcDbLine
 10
10491.60162798447
 20
727.4060611609828
 30
0.0
 11
10530.08862007752
 21
727.4060611609828
 31
0.0
1001
AUTOCAD_POSTSCRIPT_FIGURE
1002
{
1000
PSFILL
1000
Grayscale
1000
Grayscale
1070
   100
1002
}
  0
LINE
  5
2816A
330
27F9F
100
AcDbEntity
  8
YODOROGO
100
AcDbLine
 10
10491.60162798447
 20
733.4060611609828
 30
0.0
 11
10491.60162798447
 21
727.4060611609828
 31
0.0
1001
AUTOCAD_POSTSCRIPT_FIGURE
1002
{
1000
PSFILL
1000
Grayscale
1000
Grayscale
1070
   100
1002
}
  0
LINE
  5
2816B
330
27F9F
100
AcDbEntity
  8
YODOROGO
100
AcDbLine
 10
10528.72757944497
 20
733.4060611609828
 30
0.0
 11
10491.60162798447
 21
733.4060611609828
 31
0.0
1001
AUTOCAD_POSTSCRIPT_FIGURE
1002
{
1000
PSFILL
1000
Grayscale
1000
Grayscale
1070
   100
1002
}
  0
LINE
  5
2816C
330
27F9F
100
AcDbEntity
  8
YODOROGO
100
AcDbLine
 10
10526.68601849614
 20
742.4060611609832
 30
0.0
 11
10528.72757944497
 21
733.4060611609828
 31
0.0
1001
AUTOCAD_POSTSCRIPT_FIGURE
1002
{
1000
PSFILL
1000
Grayscale
1000
Grayscale
1070
   100
1002
}
  0
LINE
  5
2816D
330
27F9F
100
AcDbEntity
  8
YODOROGO
100
AcDbLine
 10
10534.18601849614
 20
742.4060611609832
 30
0.0
 11
10526.68601849614
 21
742.4060611609832
 31
0.0
1001
AUTOCAD_POSTSCRIPT_FIGURE
1002
{
1000
PSFILL
1000
Grayscale
1000
Grayscale
1070
   100
1002
}
  0
LINE
  5
2816E
330
27F9F
100
AcDbEntity
  8
YODOROGO
100
AcDbLine
 10
10535.92757944497
 20
733.4060611609828
 30
0.0
 11
10534.18601849614
 21
742.4060611609832
 31
0.0
1001
AUTOCAD_POSTSCRIPT_FIGURE
1002
{
1000
PSFILL
1000
Grayscale
1000
Grayscale
1070
   100
1002
}
  0
LINE
  5
2816F
330
27F9F
100
AcDbEntity
  8
YODOROGO
100
AcDbLine
 10
10545.60162798447
 20
733.4060611609828
 30
0.0
 11
10535.92757944497
 21
733.4060611609828
 31
0.0
1001
AUTOCAD_POSTSCRIPT_FIGURE
1002
{
1000
PSFILL
1000
Grayscale
1000
Grayscale
1070
   100
1002
}
  0
LINE
  5
28170
330
27F9F
100
AcDbEntity
  8
YODOROGO
100
AcDbLine
 10
10545.60162798447
 20
742.4060611609832
 30
0.0
 11
10545.60162798447
 21
733.4060611609828
 31
0.0
1001
AUTOCAD_POSTSCRIPT_FIGURE
1002
{
1000
PSFILL
1000
Grayscale
1000
Grayscale
1070
   100
1002
}
  0
LINE
  5
28171
330
27F9F
100
AcDbEntity
  8
YODOROGO
100
AcDbLine
 10
10551.60162798447
 20
742.4060611609832
 30
0.0
 11
10545.60162798447
 21
742.4060611609832
 31
0.0
1001
AUTOCAD_POSTSCRIPT_FIGURE
1002
{
1000
PSFILL
1000
Grayscale
1000
Grayscale
1070
   100
1002
}
  0
LINE
  5
28172
330
27F9F
100
AcDbEntity
  8
YODOROGO
100
AcDbLine
 10
10551.60162798447
 20
733.4060611609828
 30
0.0
 11
10551.60162798447
 21
742.4060611609832
 31
0.0
1001
AUTOCAD_POSTSCRIPT_FIGURE
1002
{
1000
PSFILL
1000
Grayscale
1000
Grayscale
1070
   100
1002
}
  0
LINE
  5
28173
330
27F9F
100
AcDbEntity
  8
YODOROGO
100
AcDbLine
 10
10551.60162798447
 20
727.4060611609828
 30
0.0
 11
10551.60162798447
 21
733.4060611609828
 31
0.0
1001
AUTOCAD_POSTSCRIPT_FIGURE
1002
{
1000
PSFILL
1000
Grayscale
1000
Grayscale
1070
   100
1002
}
  0
LINE
  5
28174
330
27F9F
100
AcDbEntity
  8
YODOROGO
100
AcDbLine
 10
10537.08862007752
 20
727.4060611609828
 30
0.0
 11
10551.60162798447
 21
727.4060611609828
 31
0.0
1001
AUTOCAD_POSTSCRIPT_FIGURE
1002
{
1000
PSFILL
1000
Grayscale
1000
Grayscale
1070
   100
1002
}
  0
LINE
  5
28175
330
27F9F
100
AcDbEntity
  8
YODOROGO
100
AcDbLine
 10
10551.60162798447
 20
655.406061160983
 30
0.0
 11
10537.08862007752
 21
727.4060611609828
 31
0.0
1001
AUTOCAD_POSTSCRIPT_FIGURE
1002
{
1000
PSFILL
1000
Grayscale
1000
Grayscale
1070
   100
1002
}
  0
LINE
  5
28176
330
27F9F
100
AcDbEntity
  8
YODOROGO
100
AcDbLine
 10
10548.60162798447
 20
655.406061160983
 30
0.0
 11
10551.60162798447
 21
655.406061160983
 31
0.0
1001
AUTOCAD_POSTSCRIPT_FIGURE
1002
{
1000
PSFILL
1000
Grayscale
1000
Grayscale
1070
   100
1002
}
  0
LINE
  5
28177
330
27F9F
100
AcDbEntity
  8
YODOROGO
100
AcDbLine
 10
10529.27595747517
 20
665.902791112048
 30
0.0
 11
10491.60162798447
 21
655.406061160983
 31
0.0
  0
LINE
  5
28178
330
27F9F
100
AcDbEntity
  8
YODOROGO
100
AcDbLine
 10
10529.27595747517
 20
674.5008673234024
 30
0.0
 11
10529.27595747517
 21
665.902791112048
 31
0.0
  0
LINE
  5
28179
330
27F9F
100
AcDbEntity
  8
YODOROGO
100
AcDbLine
 10
10512.68879272982
 20
670.0563499251625
 30
0.0
 11
10529.27595747517
 21
674.5008673234024
 31
0.0
  0
LINE
  5
2817A
330
27F9F
100
AcDbEntity
  8
YODOROGO
100
AcDbLine
 10
10512.68879272982
 20
702.2131308511124
 30
0.0
 11
10512.68879272982
 21
670.0563499251625
 31
0.0
  0
LINE
  5
2817B
330
27F9F
100
AcDbEntity
  8
YODOROGO
100
AcDbLine
 10
10529.27595747517
 20
702.2131308511124
 30
0.0
 11
10512.68879272982
 21
702.2131308511124
 31
0.0
  0
LINE
  5
2817C
330
27F9F
100
AcDbEntity
  8
YODOROGO
100
AcDbLine
 10
10529.27595747517
 20
709.7131308511116
 30
0.0
 11
10529.27595747517
 21
702.2131308511124
 31
0.0
  0
LINE
  5
2817D
330
27F9F
100
AcDbEntity
  8
YODOROGO
100
AcDbLine
 10
10491.60162798447
 20
709.7131308511116
 30
0.0
 11
10529.27595747517
 21
709.7131308511116
 31
0.0
  0
LINE
  5
2817E
330
27F9F
100
AcDbEntity
  8
YODOROGO
100
AcDbLine
 10
10491.60162798447
 20
702.2131308511124
 30
0.0
 11
10491.60162798447
 21
709.7131308511116
 31
0.0
  0
LINE
  5
2817F
330
27F9F
100
AcDbEntity
  8
YODOROGO
100
AcDbLine
 10
10508.18879272982
 20
702.2131308511124
 30
0.0
 11
10491.60162798447
 21
702.2131308511124
 31
0.0
  0
LINE
  5
28180
330
27F9F
100
AcDbEntity
  8
YODOROGO
100
AcDbLine
 10
10508.18879272982
 20
669.252502347869
 30
0.0
 11
10508.18879272982
 21
702.2131308511124
 31
0.0
  0
LINE
  5
28181
330
27F9F
100
AcDbEntity
  8
YODOROGO
100
AcDbLine
 10
10491.60162798447
 20
664.4060611609823
 30
0.0
 11
10508.18879272982
 21
669.252502347869
 31
0.0
  0
LINE
  5
28182
330
27F9F
100
AcDbEntity
  8
YODOROGO
100
AcDbLine
 10
10491.60162798447
 20
655.406061160983
 30
0.0
 11
10491.60162798447
 21
664.4060611609823
 31
0.0
  0
LINE
  5
28183
330
27F9F
100
AcDbEntity
  8
YODOROGO
100
AcDbLine
 10
10500.60162798446
 20
640.4060611609828
 30
0.0
 11
10500.60162798446
 21
631.4060611609825
 31
0.0
  0
LINE
  5
28184
330
27F9F
100
AcDbEntity
  8
YODOROGO
100
AcDbLine
 10
10500.60162798446
 20
640.4060611609828
 30
0.0
 11
10500.60162798446
 21
640.4060611609828
 31
0.0
  0
LINE
  5
28185
330
27F9F
100
AcDbEntity
  8
YODOROGO
100
AcDbLine
 10
10506.60162798447
 20
640.4060611609828
 30
0.0
 11
10500.60162798446
 21
640.4060611609828
 31
0.0
  0
LINE
  5
28186
330
27F9F
100
AcDbEntity
  8
YODOROGO
100
AcDbLine
 10
10506.60162798447
 20
631.4060611609825
 30
0.0
 11
10506.60162798447
 21
640.4060611609828
 31
0.0
  0
LINE
  5
28187
330
27F9F
100
AcDbEntity
  8
YODOROGO
100
AcDbLine
 10
10515.34245150633
 20
631.4060611609825
 30
0.0
 11
10506.60162798447
 21
631.4060611609825
 31
0.0
  0
LINE
  5
28188
330
27F9F
100
AcDbEntity
  8
YODOROGO
100
AcDbLine
 10
10500.60162798446
 20
631.4060611609825
 30
0.0
 11
10491.60162798447
 21
631.4060611609825
 31
0.0
  0
LINE
  5
28189
330
27F9F
100
AcDbEntity
  8
YODOROGO
100
AcDbLine
 10
10530.80082008658
 20
640.4060611609828
 30
0.0
 11
10536.8008200866
 21
640.4060611609828
 31
0.0
1001
AUTOCAD_POSTSCRIPT_FIGURE
1002
{
1000
PSFILL
1000
Grayscale
1000
Grayscale
1070
   100
1002
}
  0
LINE
  5
2818A
330
27F9F
100
AcDbEntity
  8
YODOROGO
100
AcDbLine
 10
10650.60162798447
 20
684.3291096151149
 30
0.0
 11
10650.60162798447
 21
657.3291096151146
 31
0.0
1001
AUTOCAD_POSTSCRIPT_FIGURE
1002
{
1000
PSFILL
1000
Grayscale
1000
Grayscale
1070
   100
1002
}
  0
LINE
  5
2818B
330
27F9F
100
AcDbEntity
  8
YODOROGO
100
AcDbLine
 10
10650.60162798447
 20
718.829109615115
 30
0.0
 11
10650.60162798447
 21
744.329109615115
 31
0.0
1001
AUTOCAD_POSTSCRIPT_FIGURE
1002
{
1000
PSFILL
1000
Grayscale
1000
Grayscale
1070
   100
1002
}
  0
LINE
  5
2818C
330
27F9F
100
AcDbEntity
  8
YODOROGO
100
AcDbLine
 10
10662.60162798446
 20
682.4060611609829
 30
0.0
 11
10662.60162798446
 21
655.4060611609838
 31
0.0
  0
LINE
  5
2818D
330
27F9F
100
AcDbEntity
  8
YODOROGO
100
AcDbLine
 10
10686.60162798446
 20
640.4060611609828
 30
0.0
 11
10662.60162798446
 21
640.4060611609828
 31
0.0
  0
LINE
  5
2818E
330
27F9F
100
AcDbEntity
  8
YODOROGO
100
AcDbLine
 10
10662.60162798446
 20
655.4060611609838
 30
0.0
 11
10719.60162798446
 21
655.4060611609838
 31
0.0
  0
LINE
  5
2818F
330
27F9F
100
AcDbEntity
  8
YODOROGO
100
AcDbLine
 10
10686.60162798446
 20
700.406061160983
 30
0.0
 11
10662.60162798446
 21
700.406061160983
 31
0.0
  0
LINE
  5
28190
330
27F9F
100
AcDbEntity
  8
YODOROGO
100
AcDbLine
 10
10686.60162798446
 20
721.4060611609824
 30
0.0
 11
10686.60162798446
 21
700.406061160983
 31
0.0
  0
LINE
  5
28191
330
27F9F
100
AcDbEntity
  8
YODOROGO
100
AcDbLine
 10
10719.60162798446
 20
745.4060611609828
 30
0.0
 11
10719.60162798446
 21
760.4060611609829
 31
0.0
  0
LINE
  5
28192
330
27F9F
100
AcDbEntity
  8
YODOROGO
100
AcDbLine
 10
10662.60162798446
 20
745.4060611609828
 30
0.0
 11
10719.60162798446
 21
745.4060611609828
 31
0.0
  0
LINE
  5
28193
330
27F9F
100
AcDbEntity
  8
YODOROGO
100
AcDbLine
 10
10662.60162798446
 20
700.406061160983
 30
0.0
 11
10662.60162798446
 21
745.4060611609828
 31
0.0
  0
LINE
  5
28194
330
27F9F
100
AcDbEntity
  8
YODOROGO
100
AcDbLine
 10
10875.60162798447
 20
760.4060611609829
 30
0.0
 11
10875.60162798447
 21
607.4060611609829
 31
0.0
  0
LINE
  5
28195
330
27F9F
100
AcDbEntity
  8
YODOROGO
100
AcDbLine
 10
10902.60162798446
 20
592.4060611609831
 30
0.0
 11
10902.60162798446
 21
760.4060611609829
 31
0.0
  0
LINE
  5
28196
330
27F9F
100
AcDbEntity
  8
YODOROGO
100
AcDbLine
 10
10973.10162798446
 20
559.4060611609823
 30
0.0
 11
10973.10162798446
 21
752.9060611609828
 31
0.0
  0
LINE
  5
28197
330
27F9F
100
AcDbEntity
  8
YODOROGO
100
AcDbLine
 10
10949.10162798447
 20
752.9060611609828
 30
0.0
 11
10949.10162798447
 21
559.4060611609823
 31
0.0
  0
LINE
  5
28198
330
27F9F
100
AcDbEntity
  8
YODOROGO
100
AcDbLine
 10
11019.60162798446
 20
760.4060611609829
 30
0.0
 11
11019.60162798446
 21
535.4060611609829
 31
0.0
  0
LINE
  5
28199
330
27F9F
100
AcDbEntity
  8
YODOROGO
100
AcDbLine
 10
11046.60162798447
 20
535.4060611609829
 30
0.0
 11
11046.60162798447
 21
760.4060611609829
 31
0.0
  0
LINE
  5
2819A
330
27F9F
100
AcDbEntity
  8
YODOROGO
100
AcDbLine
 10
10746.60162798446
 20
625.406061160983
 30
0.0
 11
10746.60162798446
 21
655.4060611609838
 31
0.0
  0
LINE
  5
2819B
330
27F9F
100
AcDbEntity
  8
YODOROGO
100
AcDbLine
 10
11207.10162798447
 20
640.4060611609828
 30
0.0
 11
11207.10162798447
 21
625.406061160983
 31
0.0
  0
LINE
  5
2819C
330
27F9F
100
AcDbEntity
  8
YODOROGO
100
AcDbLine
 10
11207.10162798447
 20
640.4060611609828
 30
0.0
 11
11207.10162798447
 21
625.406061160983
 31
0.0
  0
ARC
  5
2819D
330
27F9F
100
AcDbEntity
  8
YODOROGO
100
AcDbCircle
 10
10840.09184107006
 20
606.8316991658524
 30
0.0
 40
35.51443169202812
100
AcDbArc
 50
274.052441629071
 51
0.9266642149310715
  0
ARC
  5
2819E
330
27F9F
100
AcDbEntity
  8
YODOROGO
100
AcDbCircle
 10
10840.94481401992
 20
597.229023228915
 30
0.0
 40
61.84515883532068
100
AcDbArc
 50
271.5351210653777
 51
355.5272775058505
  0
LINE
  5
2819F
330
27F9F
100
AcDbEntity
  8
YODOROGO
100
AcDbLine
 10
10842.60162798446
 20
571.4060611609824
 30
0.0
 11
10842.60162798446
 21
535.4060611609829
 31
0.0
  0
LINE
  5
281A0
330
27F9F
100
AcDbEntity
  8
YODOROGO
100
AcDbLine
 10
10797.60162798446
 20
625.406061160983
 30
0.0
 11
10746.60162798446
 21
625.406061160983
 31
0.0
  0
LINE
  5
281A1
330
27F9F
100
AcDbEntity
  8
YODOROGO
100
AcDbLine
 10
10797.60162798446
 20
601.4060611609833
 30
0.0
 11
10797.60162798446
 21
625.406061160983
 31
0.0
  0
LINE
  5
281A2
330
27F9F
100
AcDbEntity
  8
YODOROGO
100
AcDbLine
 10
10746.60162798446
 20
601.4060611609833
 30
0.0
 11
10797.60162798446
 21
601.4060611609833
 31
0.0
  0
LINE
  5
281A3
330
27F9F
100
AcDbEntity
  8
YODOROGO
100
AcDbLine
 10
10746.60162798446
 20
571.4060611609824
 30
0.0
 11
10746.60162798446
 21
601.4060611609833
 31
0.0
  0
LINE
  5
281A4
330
27F9F
100
AcDbEntity
  8
YODOROGO
100
AcDbLine
 10
10797.60162798446
 20
571.4060611609824
 30
0.0
 11
10746.60162798446
 21
571.4060611609824
 31
0.0
  0
LINE
  5
281A5
330
27F9F
100
AcDbEntity
  8
YODOROGO
100
AcDbLine
 10
10797.60162798446
 20
535.4060611609829
 30
0.0
 11
10797.60162798446
 21
571.4060611609824
 31
0.0
  0
LINE
  5
281A6
330
27F9F
100
AcDbEntity
  8
YODOROGO
100
AcDbLine
 10
10949.10162798447
 20
559.4060611609823
 30
0.0
 11
10973.10162798446
 21
559.4060611609823
 31
0.0
  0
LINE
  5
281A7
330
27F9F
100
AcDbEntity
  8
YODOROGO
100
AcDbLine
 10
11019.60162798446
 20
535.4060611609829
 30
0.0
 11
11046.60162798447
 21
535.4060611609829
 31
0.0
  0
LINE
  5
281A8
330
27F9F
100
AcDbEntity
  8
YODOROGO
100
AcDbLine
 10
11151.60162798447
 20
573.1655445639615
 30
0.0
 11
11151.60162798447
 21
535.4060611609829
 31
0.0
  0
LINE
  5
281A9
330
27F9F
100
AcDbEntity
  8
YODOROGO
100
AcDbLine
 10
11106.60162798446
 20
535.4060611609829
 30
0.0
 11
11151.60162798447
 21
573.1655445639615
 31
0.0
  0
LINE
  5
281AA
330
27F9F
100
AcDbEntity
  8
YODOROGO
100
AcDbLine
 10
11106.60162798446
 20
580.406061160983
 30
0.0
 11
11106.60162798446
 21
535.4060611609829
 31
0.0
  0
LINE
  5
281AB
330
27F9F
100
AcDbEntity
  8
YODOROGO
100
AcDbLine
 10
11142.35423576229
 20
610.4060611609829
 30
0.0
 11
11106.60162798446
 21
580.406061160983
 31
0.0
  0
LINE
  5
281AC
330
27F9F
100
AcDbEntity
  8
YODOROGO
100
AcDbLine
 10
11106.60162798446
 20
610.4060611609829
 30
0.0
 11
11142.35423576229
 21
610.4060611609829
 31
0.0
  0
LINE
  5
281AD
330
27F9F
100
AcDbEntity
  8
YODOROGO
100
AcDbLine
 10
11106.60162798446
 20
625.406061160983
 30
0.0
 11
11106.60162798446
 21
610.4060611609829
 31
0.0
  0
LINE
  5
281AE
330
27F9F
100
AcDbEntity
  8
YODOROGO
100
AcDbLine
 10
11207.10162798447
 20
625.406061160983
 30
0.0
 11
11106.60162798446
 21
625.406061160983
 31
0.0
  0
LINE
  5
281AF
330
27F9F
100
AcDbEntity
  8
YODOROGO
100
AcDbLine
 10
11219.10162798447
 20
610.4060611609829
 30
0.0
 11
11166.60162798446
 21
610.4060611609829
 31
0.0
  0
LINE
  5
281B0
330
27F9F
100
AcDbEntity
  8
YODOROGO
100
AcDbLine
 10
11166.60162798446
 20
585.7520390316213
 30
0.0
 11
11164.27870236948
 21
583.8028730048376
 31
0.0
  0
LINE
  5
281B1
330
27F9F
100
AcDbEntity
  8
YODOROGO
100
AcDbLine
 10
11166.60162798446
 20
610.4060611609829
 30
0.0
 11
11166.60162798446
 21
585.7520390316213
 31
0.0
  0
LINE
  5
281B2
330
27F9F
100
AcDbEntity
  8
YODOROGO
100
AcDbLine
 10
11151.60162798447
 20
573.1655445639615
 30
0.0
 11
11151.60162798447
 21
535.4060611609829
 31
0.0
  0
LINE
  5
281B3
330
27F9F
100
AcDbEntity
  8
YODOROGO
100
AcDbLine
 10
11106.60162798446
 20
535.4060611609829
 30
0.0
 11
11151.60162798447
 21
573.1655445639615
 31
0.0
  0
LINE
  5
281B4
330
27F9F
100
AcDbEntity
  8
YODOROGO
100
AcDbLine
 10
11106.60162798446
 20
580.406061160983
 30
0.0
 11
11106.60162798446
 21
535.4060611609829
 31
0.0
  0
LINE
  5
281B5
330
27F9F
100
AcDbEntity
  8
YODOROGO
100
AcDbLine
 10
11142.35423576229
 20
610.4060611609829
 30
0.0
 11
11106.60162798446
 21
580.406061160983
 31
0.0
  0
LINE
  5
281B6
330
27F9F
100
AcDbEntity
  8
YODOROGO
100
AcDbLine
 10
11106.60162798446
 20
610.4060611609829
 30
0.0
 11
11142.35423576229
 21
610.4060611609829
 31
0.0
  0
LINE
  5
281B7
330
27F9F
100
AcDbEntity
  8
YODOROGO
100
AcDbLine
 10
11106.60162798446
 20
625.406061160983
 30
0.0
 11
11106.60162798446
 21
610.4060611609829
 31
0.0
  0
LINE
  5
281B8
330
27F9F
100
AcDbEntity
  8
YODOROGO
100
AcDbLine
 10
11207.10162798447
 20
625.406061160983
 30
0.0
 11
11106.60162798446
 21
625.406061160983
 31
0.0
  0
LINE
  5
281B9
330
27F9F
100
AcDbEntity
  8
YODOROGO
100
AcDbLine
 10
10797.60162798446
 20
655.4060611609838
 30
0.0
 11
10797.60162798446
 21
682.4060611609829
 31
0.0
  0
LINE
  5
281BA
330
27F9F
100
AcDbEntity
  8
YODOROGO
100
AcDbLine
 10
10746.60162798446
 20
655.4060611609838
 30
0.0
 11
10797.60162798446
 21
655.4060611609838
 31
0.0
  0
LINE
  5
281BB
330
27F9F
100
AcDbEntity
  8
YODOROGO
100
AcDbLine
 10
10773.60162798447
 20
700.406061160983
 30
0.0
 11
10773.60162798447
 21
721.4060611609824
 31
0.0
  0
LINE
  5
281BC
330
27F9F
100
AcDbEntity
  8
YODOROGO
100
AcDbLine
 10
10797.60162798446
 20
700.406061160983
 30
0.0
 11
10773.60162798447
 21
700.406061160983
 31
0.0
  0
LINE
  5
281BD
330
27F9F
100
AcDbEntity
  8
YODOROGO
100
AcDbLine
 10
10797.60162798446
 20
730.4060611609828
 30
0.0
 11
10797.60162798446
 21
700.406061160983
 31
0.0
  0
ARC
  5
281BE
330
27F9F
100
AcDbEntity
  8
YODOROGO
100
AcDbCircle
 10
10782.60162798446
 20
730.4060611609828
 30
0.0
 40
15.0
100
AcDbArc
 50
0.0
 51
90.0
  0
LINE
  5
281BF
330
27F9F
100
AcDbEntity
  8
YODOROGO
100
AcDbLine
 10
10746.60162798447
 20
745.4060611609828
 30
0.0
 11
10782.60162798446
 21
745.4060611609828
 31
0.0
  0
LINE
  5
281C0
330
27F9F
100
AcDbEntity
  8
YODOROGO
100
AcDbLine
 10
10746.60162798447
 20
760.4060611609829
 30
0.0
 11
10746.60162798447
 21
745.4060611609828
 31
0.0
  0
LINE
  5
281C1
330
27F9F
100
AcDbEntity
  8
YODOROGO
100
AcDbLine
 10
10902.60162798446
 20
760.4060611609829
 30
0.0
 11
10875.60162798447
 21
760.4060611609829
 31
0.0
  0
LINE
  5
281C2
330
27F9F
100
AcDbEntity
  8
YODOROGO
100
AcDbLine
 10
10973.10162798446
 20
752.9060611609828
 30
0.0
 11
10949.10162798447
 21
752.9060611609828
 31
0.0
  0
LINE
  5
281C3
330
27F9F
100
AcDbEntity
  8
YODOROGO
100
AcDbLine
 10
11046.60162798447
 20
760.4060611609829
 30
0.0
 11
11019.60162798446
 21
760.4060611609829
 31
0.0
  0
LINE
  5
281C4
330
27F9F
100
AcDbEntity
  8
YODOROGO
100
AcDbLine
 10
11127.60162798447
 20
640.4060611609828
 30
0.0
 11
11127.60162798447
 21
664.4060611609833
 31
0.0
1001
AUTOCAD_POSTSCRIPT_FIGURE
1002
{
1000
PSFILL
1000
Grayscale
1000
Grayscale
1070
    25
1002
}
  0
LINE
  5
281C5
330
27F9F
100
AcDbEntity
  8
YODOROGO
100
AcDbLine
 10
11106.60162798446
 20
640.4060611609828
 30
0.0
 11
11127.60162798447
 21
640.4060611609828
 31
0.0
1001
AUTOCAD_POSTSCRIPT_FIGURE
1002
{
1000
PSFILL
1000
Grayscale
1000
Grayscale
1070
    25
1002
}
  0
LINE
  5
281C6
330
27F9F
100
AcDbEntity
  8
YODOROGO
100
AcDbLine
 10
11106.60162798446
 20
682.4060611609829
 30
0.0
 11
11106.60162798446
 21
640.4060611609828
 31
0.0
1001
AUTOCAD_POSTSCRIPT_FIGURE
1002
{
1000
PSFILL
1000
Grayscale
1000
Grayscale
1070
    25
1002
}
  0
LINE
  5
281C7
330
27F9F
100
AcDbEntity
  8
YODOROGO
100
AcDbLine
 10
11162.10162798447
 20
682.4060611609829
 30
0.0
 11
11106.60162798446
 21
682.4060611609829
 31
0.0
1001
AUTOCAD_POSTSCRIPT_FIGURE
1002
{
1000
PSFILL
1000
Grayscale
1000
Grayscale
1070
    25
1002
}
  0
LINE
  5
281C8
330
27F9F
100
AcDbEntity
  8
YODOROGO
100
AcDbLine
 10
11162.10162798447
 20
697.406061160983
 30
0.0
 11
11162.10162798447
 21
682.4060611609829
 31
0.0
1001
AUTOCAD_POSTSCRIPT_FIGURE
1002
{
1000
PSFILL
1000
Grayscale
1000
Grayscale
1070
    25
1002
}
  0
LINE
  5
281C9
330
27F9F
100
AcDbEntity
  8
YODOROGO
100
AcDbLine
 10
11106.60162798446
 20
697.406061160983
 30
0.0
 11
11162.10162798447
 21
697.406061160983
 31
0.0
1001
AUTOCAD_POSTSCRIPT_FIGURE
1002
{
1000
PSFILL
1000
Grayscale
1000
Grayscale
1070
    25
1002
}
  0
LINE
  5
281CA
330
27F9F
100
AcDbEntity
  8
YODOROGO
100
AcDbLine
 10
11106.60162798446
 20
715.4060611609828
 30
0.0
 11
11106.60162798446
 21
697.406061160983
 31
0.0
1001
AUTOCAD_POSTSCRIPT_FIGURE
1002
{
1000
PSFILL
1000
Grayscale
1000
Grayscale
1070
    25
1002
}
  0
LINE
  5
281CB
330
27F9F
100
AcDbEntity
  8
YODOROGO
100
AcDbLine
 10
11162.10162798447
 20
715.4060611609828
 30
0.0
 11
11106.60162798446
 21
715.4060611609828
 31
0.0
1001
AUTOCAD_POSTSCRIPT_FIGURE
1002
{
1000
PSFILL
1000
Grayscale
1000
Grayscale
1070
    25
1002
}
  0
LINE
  5
281CC
330
27F9F
100
AcDbEntity
  8
YODOROGO
100
AcDbLine
 10
11162.10162798447
 20
730.4060611609828
 30
0.0
 11
11162.10162798447
 21
715.4060611609828
 31
0.0
1001
AUTOCAD_POSTSCRIPT_FIGURE
1002
{
1000
PSFILL
1000
Grayscale
1000
Grayscale
1070
    25
1002
}
  0
LINE
  5
281CD
330
27F9F
100
AcDbEntity
  8
YODOROGO
100
AcDbLine
 10
11106.60162798446
 20
730.4060611609828
 30
0.0
 11
11162.10162798447
 21
730.4060611609828
 31
0.0
1001
AUTOCAD_POSTSCRIPT_FIGURE
1002
{
1000
PSFILL
1000
Grayscale
1000
Grayscale
1070
    25
1002
}
  0
LINE
  5
281CE
330
27F9F
100
AcDbEntity
  8
YODOROGO
100
AcDbLine
 10
11106.60162798446
 20
760.4060611609829
 30
0.0
 11
11106.60162798446
 21
730.4060611609828
 31
0.0
1001
AUTOCAD_POSTSCRIPT_FIGURE
1002
{
1000
PSFILL
1000
Grayscale
1000
Grayscale
1070
    25
1002
}
  0
LINE
  5
281CF
330
27F9F
100
AcDbEntity
  8
YODOROGO
100
AcDbLine
 10
11124.60162798446
 20
760.4060611609829
 30
0.0
 11
11106.60162798446
 21
760.4060611609829
 31
0.0
1001
AUTOCAD_POSTSCRIPT_FIGURE
1002
{
1000
PSFILL
1000
Grayscale
1000
Grayscale
1070
    25
1002
}
  0
LINE
  5
281D0
330
27F9F
100
AcDbEntity
  8
YODOROGO
100
AcDbLine
 10
11124.60162798446
 20
748.4060611609828
 30
0.0
 11
11124.60162798446
 21
760.4060611609829
 31
0.0
1001
AUTOCAD_POSTSCRIPT_FIGURE
1002
{
1000
PSFILL
1000
Grayscale
1000
Grayscale
1070
    25
1002
}
  0
LINE
  5
281D1
330
27F9F
100
AcDbEntity
  8
YODOROGO
100
AcDbLine
 10
11162.10162798447
 20
748.4060611609828
 30
0.0
 11
11124.60162798446
 21
748.4060611609828
 31
0.0
1001
AUTOCAD_POSTSCRIPT_FIGURE
1002
{
1000
PSFILL
1000
Grayscale
1000
Grayscale
1070
    25
1002
}
  0
LINE
  5
281D2
330
27F9F
100
AcDbEntity
  8
YODOROGO
100
AcDbLine
 10
11162.10162798447
 20
760.4060611609829
 30
0.0
 11
11162.10162798447
 21
748.4060611609828
 31
0.0
1001
AUTOCAD_POSTSCRIPT_FIGURE
1002
{
1000
PSFILL
1000
Grayscale
1000
Grayscale
1070
    25
1002
}
  0
LINE
  5
281D3
330
27F9F
100
AcDbEntity
  8
YODOROGO
100
AcDbLine
 10
11186.10162798447
 20
760.4060611609829
 30
0.0
 11
11162.10162798447
 21
760.4060611609829
 31
0.0
1001
AUTOCAD_POSTSCRIPT_FIGURE
1002
{
1000
PSFILL
1000
Grayscale
1000
Grayscale
1070
    25
1002
}
  0
LINE
  5
281D4
330
27F9F
100
AcDbEntity
  8
YODOROGO
100
AcDbLine
 10
11186.10162798447
 20
748.4060611609828
 30
0.0
 11
11186.10162798447
 21
760.4060611609829
 31
0.0
1001
AUTOCAD_POSTSCRIPT_FIGURE
1002
{
1000
PSFILL
1000
Grayscale
1000
Grayscale
1070
    25
1002
}
  0
LINE
  5
281D5
330
27F9F
100
AcDbEntity
  8
YODOROGO
100
AcDbLine
 10
11186.10162798447
 20
715.4060611609828
 30
0.0
 11
11186.10162798447
 21
730.4060611609828
 31
0.0
1001
AUTOCAD_POSTSCRIPT_FIGURE
1002
{
1000
PSFILL
1000
Grayscale
1000
Grayscale
1070
    25
1002
}
  0
LINE
  5
281D6
330
27F9F
100
AcDbEntity
  8
YODOROGO
100
AcDbLine
 10
11186.10162798447
 20
682.4060611609829
 30
0.0
 11
11186.10162798447
 21
697.406061160983
 31
0.0
1001
AUTOCAD_POSTSCRIPT_FIGURE
1002
{
1000
PSFILL
1000
Grayscale
1000
Grayscale
1070
    25
1002
}
  0
LINE
  5
281D7
330
27F9F
100
AcDbEntity
  8
YODOROGO
100
AcDbLine
 10
11220.60162798447
 20
664.4060611609833
 30
0.0
 11
11220.60162798447
 21
640.4060611609828
 31
0.0
1001
AUTOCAD_POSTSCRIPT_FIGURE
1002
{
1000
PSFILL
1000
Grayscale
1000
Grayscale
1070
    25
1002
}
  0
LINE
  5
281D8
330
27F9F
100
AcDbEntity
  8
YODOROGO
100
AcDbLine
 10
11186.10162798447
 20
664.4060611609833
 30
0.0
 11
11220.60162798447
 21
664.4060611609833
 31
0.0
1001
AUTOCAD_POSTSCRIPT_FIGURE
1002
{
1000
PSFILL
1000
Grayscale
1000
Grayscale
1070
    25
1002
}
  0
LINE
  5
281D9
330
27F9F
100
AcDbEntity
  8
YODOROGO
100
AcDbLine
 10
11186.10162798447
 20
640.4060611609828
 30
0.0
 11
11186.10162798447
 21
664.4060611609833
 31
0.0
1001
AUTOCAD_POSTSCRIPT_FIGURE
1002
{
1000
PSFILL
1000
Grayscale
1000
Grayscale
1070
    25
1002
}
  0
LINE
  5
281DA
330
27F9F
100
AcDbEntity
  8
YODOROGO
100
AcDbLine
 10
11162.10162798447
 20
640.4060611609828
 30
0.0
 11
11186.10162798447
 21
640.4060611609828
 31
0.0
1001
AUTOCAD_POSTSCRIPT_FIGURE
1002
{
1000
PSFILL
1000
Grayscale
1000
Grayscale
1070
    25
1002
}
  0
LINE
  5
281DB
330
27F9F
100
AcDbEntity
  8
YODOROGO
100
AcDbLine
 10
11162.10162798447
 20
664.4060611609833
 30
0.0
 11
11162.10162798447
 21
640.4060611609828
 31
0.0
1001
AUTOCAD_POSTSCRIPT_FIGURE
1002
{
1000
PSFILL
1000
Grayscale
1000
Grayscale
1070
    25
1002
}
  0
LINE
  5
281DC
330
27F9F
100
AcDbEntity
  8
YODOROGO
100
AcDbLine
 10
11127.60162798447
 20
664.4060611609833
 30
0.0
 11
11162.10162798447
 21
664.4060611609833
 31
0.0
1001
AUTOCAD_POSTSCRIPT_FIGURE
1002
{
1000
PSFILL
1000
Grayscale
1000
Grayscale
1070
    25
1002
}
  0
ARC
  5
281DD
330
27F9F
100
AcDbEntity
  8
YODOROGO
100
AcDbCircle
 10
11647.31921000922
 20
601.0052765683409
 30
0.0
 40
66.83298041652057
100
AcDbArc
 50
281.0262749542535
 51
357.771135755738
  0
LINE
  5
281DE
330
27F9F
100
AcDbEntity
  8
YODOROGO
100
AcDbLine
 10
11780.10162798446
 20
715.4060611609828
 30
0.0
 11
11687.10162798447
 21
715.4060611609828
 31
0.0
  0
LINE
  5
281DF
330
27F9F
100
AcDbEntity
  8
YODOROGO
100
AcDbLine
 10
11780.10162798446
 20
760.4060611609829
 30
0.0
 11
11687.10162798447
 21
760.4060611609829
 31
0.0
  0
LINE
  5
281E0
330
27F9F
100
AcDbEntity
  8
YODOROGO
100
AcDbLine
 10
11687.10162798447
 20
736.4060611609825
 30
0.0
 11
11780.10162798446
 21
736.4060611609825
 31
0.0
  0
LINE
  5
281E1
330
27F9F
100
AcDbEntity
  8
YODOROGO
100
AcDbLine
 10
11546.85162798447
 20
586.4060611609825
 30
0.0
 11
11546.85162798447
 21
658.4060611609827
 31
0.0
  0
LINE
  5
281E2
330
27F9F
100
AcDbEntity
  8
YODOROGO
100
AcDbLine
 10
11536.35162798447
 20
634.4060611609833
 30
0.0
 11
11536.35162798447
 21
586.4060611609825
 31
0.0
  0
LINE
  5
281E3
330
27F9F
100
AcDbEntity
  8
YODOROGO
100
AcDbLine
 10
11521.35162798447
 20
559.4060611609831
 30
0.0
 11
11521.35162798447
 21
634.4060611609833
 31
0.0
  0
LINE
  5
281E4
330
27F9F
100
AcDbEntity
  8
YODOROGO
100
AcDbLine
 10
11587.35162798447
 20
634.4060611609833
 30
0.0
 11
11587.35162798447
 21
559.4060611609831
 31
0.0
  0
LINE
  5
281E5
330
27F9F
100
AcDbEntity
  8
YODOROGO
100
AcDbLine
 10
11572.35162798446
 20
586.4060611609825
 30
0.0
 11
11572.35162798446
 21
634.4060611609833
 31
0.0
  0
LINE
  5
281E6
330
27F9F
100
AcDbEntity
  8
YODOROGO
100
AcDbLine
 10
11561.85162798446
 20
658.4060611609827
 30
0.0
 11
11561.85162798446
 21
586.4060611609825
 31
0.0
  0
LINE
  5
281E7
330
27F9F
100
AcDbEntity
  8
YODOROGO
100
AcDbLine
 10
11615.10162798446
 20
760.4060611609829
 30
0.0
 11
11615.10162798446
 21
550.4060611609828
 31
0.0
  0
LINE
  5
281E8
330
27F9F
100
AcDbEntity
  8
YODOROGO
100
AcDbLine
 10
11492.10162798447
 20
535.4060611609829
 30
0.0
 11
11492.10162798447
 21
760.4060611609829
 31
0.0
  0
LINE
  5
281E9
330
27F9F
100
AcDbEntity
  8
YODOROGO
100
AcDbLine
 10
11511.60162798447
 20
736.4060611609825
 30
0.0
 11
11511.60162798447
 21
535.4060611609829
 31
0.0
  0
LINE
  5
281EA
330
27F9F
100
AcDbEntity
  8
YODOROGO
100
AcDbLine
 10
11597.10162798446
 20
580.406061160983
 30
0.0
 11
11597.10162798446
 21
736.4060611609825
 31
0.0
  0
LINE
  5
281EB
330
27F9F
100
AcDbEntity
  8
YODOROGO
100
AcDbLine
 10
11393.10162798446
 20
610.4060611609829
 30
0.0
 11
11393.10162798446
 21
629.9060611609831
 31
0.0
  0
LINE
  5
281EC
330
27F9F
100
AcDbEntity
  8
YODOROGO
100
AcDbLine
 10
11481.60162798447
 20
629.9060611609831
 30
0.0
 11
11481.60162798447
 21
610.4060611609829
 31
0.0
  0
LINE
  5
281ED
330
27F9F
100
AcDbEntity
  8
YODOROGO
100
AcDbLine
 10
11687.10162798447
 20
715.4060611609828
 30
0.0
 11
11687.10162798447
 21
613.4060611609827
 31
0.0
  0
LINE
  5
281EE
330
27F9F
100
AcDbEntity
  8
YODOROGO
100
AcDbLine
 10
11231.10162798446
 20
625.406061160983
 30
0.0
 11
11231.10162798446
 21
640.4060611609828
 31
0.0
  0
LINE
  5
281EF
330
27F9F
100
AcDbEntity
  8
YODOROGO
100
AcDbLine
 10
11231.10162798446
 20
625.406061160983
 30
0.0
 11
11231.10162798446
 21
640.4060611609828
 31
0.0
  0
ARC
  5
281F0
330
27F9F
100
AcDbEntity
  8
YODOROGO
100
AcDbCircle
 10
11451.60162798447
 20
565.4060611609828
 30
0.0
 40
30.0
100
AcDbArc
 50
270.0
 51
0.0
  0
LINE
  5
281F1
330
27F9F
100
AcDbEntity
  8
YODOROGO
100
AcDbLine
 10
11463.60162798446
 20
599.9060611609831
 30
0.0
 11
11481.60162798447
 21
599.9060611609831
 31
0.0
  0
LINE
  5
281F2
330
27F9F
100
AcDbEntity
  8
YODOROGO
100
AcDbLine
 10
11481.60162798447
 20
610.4060611609829
 30
0.0
 11
11448.60162798446
 21
610.4060611609829
 31
0.0
  0
LINE
  5
281F3
330
27F9F
100
AcDbEntity
  8
YODOROGO
100
AcDbLine
 10
11331.60162798447
 20
625.406061160983
 30
0.0
 11
11231.10162798446
 21
625.406061160983
 31
0.0
  0
LINE
  5
281F4
330
27F9F
100
AcDbEntity
  8
YODOROGO
100
AcDbLine
 10
11331.60162798447
 20
610.4060611609829
 30
0.0
 11
11331.60162798447
 21
625.406061160983
 31
0.0
  0
LINE
  5
281F5
330
27F9F
100
AcDbEntity
  8
YODOROGO
100
AcDbLine
 10
11256.60162798447
 20
610.4060611609829
 30
0.0
 11
11331.60162798447
 21
610.4060611609829
 31
0.0
  0
ARC
  5
281F6
330
27F9F
100
AcDbEntity
  8
YODOROGO
100
AcDbCircle
 10
11336.27206076301
 20
700.8321431073384
 30
0.0
 40
120.5166136069605
100
AcDbArc
 50
228.6181454618993
 51
245.660289248906
  0
LINE
  5
281F7
330
27F9F
100
AcDbEntity
  8
YODOROGO
100
AcDbLine
 10
11289.60162798447
 20
601.4060611609833
 30
0.0
 11
11286.60162798448
 21
591.0273059512126
 31
0.0
  0
LINE
  5
281F8
330
27F9F
100
AcDbEntity
  8
YODOROGO
100
AcDbLine
 10
11321.10162798447
 20
601.4060611609833
 30
0.0
 11
11289.60162798447
 21
601.4060611609833
 31
0.0
  0
LINE
  5
281F9
330
27F9F
100
AcDbEntity
  8
YODOROGO
100
AcDbLine
 10
11316.60162798447
 20
581.9316459275352
 30
0.0
 11
11321.10162798447
 21
601.4060611609833
 31
0.0
  0
ARC
  5
281FA
330
27F9F
100
AcDbEntity
  8
YODOROGO
100
AcDbCircle
 10
11336.27206076267
 20
700.832143107376
 30
0.0
 40
120.516613606984
100
AcDbArc
 50
260.6062929796992
 51
267.7790355655586
  0
LINE
  5
281FB
330
27F9F
100
AcDbEntity
  8
YODOROGO
100
AcDbLine
 10
11331.60162798447
 20
535.4060611609821
 30
0.0
 11
11331.60162798447
 21
580.406061160983
 31
0.0
  0
LINE
  5
281FC
330
27F9F
100
AcDbEntity
  8
YODOROGO
100
AcDbLine
 10
11226.60162798446
 20
555.5022505933164
 30
0.0
 11
11226.60162798446
 21
597.949158949178
 31
0.0
  0
LINE
  5
281FD
330
27F9F
100
AcDbEntity
  8
YODOROGO
100
AcDbLine
 10
11331.60162798447
 20
625.406061160983
 30
0.0
 11
11231.10162798446
 21
625.406061160983
 31
0.0
  0
LINE
  5
281FE
330
27F9F
100
AcDbEntity
  8
YODOROGO
100
AcDbLine
 10
11331.60162798447
 20
610.4060611609829
 30
0.0
 11
11331.60162798447
 21
625.406061160983
 31
0.0
  0
LINE
  5
281FF
330
27F9F
100
AcDbEntity
  8
YODOROGO
100
AcDbLine
 10
11256.60162798447
 20
610.4060611609829
 30
0.0
 11
11331.60162798447
 21
610.4060611609829
 31
0.0
  0
ARC
  5
28200
330
27F9F
100
AcDbEntity
  8
YODOROGO
100
AcDbCircle
 10
11336.27206076301
 20
700.8321431073384
 30
0.0
 40
120.5166136069605
100
AcDbArc
 50
228.6181454618993
 51
245.660289248906
  0
LINE
  5
28201
330
27F9F
100
AcDbEntity
  8
YODOROGO
100
AcDbLine
 10
11289.60162798447
 20
601.4060611609833
 30
0.0
 11
11286.60162798448
 21
591.0273059512126
 31
0.0
  0
LINE
  5
28202
330
27F9F
100
AcDbEntity
  8
YODOROGO
100
AcDbLine
 10
11321.10162798447
 20
601.4060611609833
 30
0.0
 11
11289.60162798447
 21
601.4060611609833
 31
0.0
  0
LINE
  5
28203
330
27F9F
100
AcDbEntity
  8
YODOROGO
100
AcDbLine
 10
11316.60162798447
 20
581.9316459275352
 30
0.0
 11
11321.10162798447
 21
601.4060611609833
 31
0.0
  0
ARC
  5
28204
330
27F9F
100
AcDbEntity
  8
YODOROGO
100
AcDbCircle
 10
11336.27206076267
 20
700.832143107376
 30
0.0
 40
120.516613606984
100
AcDbArc
 50
260.6062929796992
 51
267.7790355655586
  0
LINE
  5
28205
330
27F9F
100
AcDbEntity
  8
YODOROGO
100
AcDbLine
 10
11331.60162798447
 20
535.4060611609821
 30
0.0
 11
11331.60162798447
 21
580.406061160983
 31
0.0
  0
LINE
  5
28206
330
27F9F
100
AcDbEntity
  8
YODOROGO
100
AcDbLine
 10
11226.60162798446
 20
555.5022505933164
 30
0.0
 11
11226.60162798446
 21
597.949158949178
 31
0.0
  0
LINE
  5
28207
330
27F9F
100
AcDbEntity
  8
YODOROGO
100
AcDbLine
 10
11412.60162798447
 20
590.1560611609832
 30
0.0
 11
11393.10162798446
 21
590.1560611609832
 31
0.0
  0
LINE
  5
28208
330
27F9F
100
AcDbEntity
  8
YODOROGO
100
AcDbLine
 10
11412.60162798447
 20
600.6560611609824
 30
0.0
 11
11412.60162798447
 21
590.1560611609832
 31
0.0
  0
LINE
  5
28209
330
27F9F
100
AcDbEntity
  8
YODOROGO
100
AcDbLine
 10
11393.10162798446
 20
600.6560611609824
 30
0.0
 11
11412.60162798447
 21
600.6560611609824
 31
0.0
  0
LINE
  5
2820A
330
27F9F
100
AcDbEntity
  8
YODOROGO
100
AcDbLine
 10
11393.10162798446
 20
590.1560611609832
 30
0.0
 11
11393.10162798446
 21
600.6560611609824
 31
0.0
  0
LINE
  5
2820B
330
27F9F
100
AcDbEntity
  8
YODOROGO
100
AcDbLine
 10
11411.10162798447
 20
591.6560611609829
 30
0.0
 11
11394.60162798447
 21
591.6560611609829
 31
0.0
  0
LINE
  5
2820C
330
27F9F
100
AcDbEntity
  8
YODOROGO
100
AcDbLine
 10
11411.10162798447
 20
599.156061160983
 30
0.0
 11
11411.10162798447
 21
591.6560611609829
 31
0.0
  0
LINE
  5
2820D
330
27F9F
100
AcDbEntity
  8
YODOROGO
100
AcDbLine
 10
11394.60162798447
 20
599.156061160983
 30
0.0
 11
11411.10162798447
 21
599.156061160983
 31
0.0
  0
LINE
  5
2820E
330
27F9F
100
AcDbEntity
  8
YODOROGO
100
AcDbLine
 10
11394.60162798447
 20
591.6560611609829
 30
0.0
 11
11394.60162798447
 21
599.156061160983
 31
0.0
  0
LINE
  5
2820F
330
27F9F
100
AcDbEntity
  8
YODOROGO
100
AcDbLine
 10
11409.60162798447
 20
593.1560611609824
 30
0.0
 11
11396.10162798446
 21
593.1560611609824
 31
0.0
  0
LINE
  5
28210
330
27F9F
100
AcDbEntity
  8
YODOROGO
100
AcDbLine
 10
11409.60162798447
 20
597.6560611609833
 30
0.0
 11
11409.60162798447
 21
593.1560611609824
 31
0.0
  0
LINE
  5
28211
330
27F9F
100
AcDbEntity
  8
YODOROGO
100
AcDbLine
 10
11396.10162798446
 20
597.6560611609833
 30
0.0
 11
11409.60162798447
 21
597.6560611609833
 31
0.0
  0
LINE
  5
28212
330
27F9F
100
AcDbEntity
  8
YODOROGO
100
AcDbLine
 10
11396.10162798446
 20
593.1560611609824
 30
0.0
 11
11396.10162798446
 21
597.6560611609833
 31
0.0
  0
LINE
  5
28213
330
27F9F
100
AcDbEntity
  8
YODOROGO
100
AcDbLine
 10
11408.10162798447
 20
594.6560611609827
 30
0.0
 11
11397.60162798447
 21
594.6560611609827
 31
0.0
  0
LINE
  5
28214
330
27F9F
100
AcDbEntity
  8
YODOROGO
100
AcDbLine
 10
11408.10162798447
 20
596.1560611609829
 30
0.0
 11
11408.10162798447
 21
594.6560611609827
 31
0.0
  0
LINE
  5
28215
330
27F9F
100
AcDbEntity
  8
YODOROGO
100
AcDbLine
 10
11397.60162798447
 20
596.1560611609829
 30
0.0
 11
11408.10162798447
 21
596.1560611609829
 31
0.0
  0
LINE
  5
28216
330
27F9F
100
AcDbEntity
  8
YODOROGO
100
AcDbLine
 10
11397.60162798447
 20
594.6560611609827
 30
0.0
 11
11397.60162798447
 21
596.1560611609829
 31
0.0
  0
LINE
  5
28217
330
27F9F
100
AcDbEntity
  8
YODOROGO
100
AcDbLine
 10
11424.60162798446
 20
610.4060611609829
 30
0.0
 11
11393.10162798446
 21
610.4060611609829
 31
0.0
  0
LINE
  5
28218
330
27F9F
100
AcDbEntity
  8
YODOROGO
100
AcDbLine
 10
11424.60162798446
 20
580.406061160983
 30
0.0
 11
11424.60162798446
 21
610.4060611609829
 31
0.0
  0
LINE
  5
28219
330
27F9F
100
AcDbEntity
  8
YODOROGO
100
AcDbLine
 10
11393.10162798446
 20
580.406061160983
 30
0.0
 11
11424.60162798446
 21
580.406061160983
 31
0.0
  0
LINE
  5
2821A
330
27F9F
100
AcDbEntity
  8
YODOROGO
100
AcDbLine
 10
11393.10162798446
 20
535.4060611609829
 30
0.0
 11
11393.10162798446
 21
580.406061160983
 31
0.0
  0
LINE
  5
2821B
330
27F9F
100
AcDbEntity
  8
YODOROGO
100
AcDbLine
 10
11451.60162798447
 20
535.4060611609829
 30
0.0
 11
11393.10162798446
 21
535.4060611609829
 31
0.0
  0
LINE
  5
2821C
330
27F9F
100
AcDbEntity
  8
YODOROGO
100
AcDbLine
 10
11463.60162798446
 20
589.4060611609823
 30
0.0
 11
11463.60162798446
 21
599.9060611609831
 31
0.0
  0
ARC
  5
2821D
330
27F9F
100
AcDbEntity
  8
YODOROGO
100
AcDbCircle
 10
11454.60162798446
 20
589.4060611609843
 30
0.0
 40
9.000000000001408
100
AcDbArc
 50
270.0
 51
359.9999999999877
  0
LINE
  5
2821E
330
27F9F
100
AcDbEntity
  8
YODOROGO
100
AcDbLine
 10
11448.60162798446
 20
580.406061160983
 30
0.0
 11
11454.60162798446
 21
580.406061160983
 31
0.0
  0
LINE
  5
2821F
330
27F9F
100
AcDbEntity
  8
YODOROGO
100
AcDbLine
 10
11448.60162798446
 20
610.4060611609829
 30
0.0
 11
11448.60162798446
 21
580.406061160983
 31
0.0
  0
LINE
  5
28220
330
27F9F
100
AcDbEntity
  8
YODOROGO
100
AcDbLine
 10
11587.35162798447
 20
580.406061160983
 30
0.0
 11
11597.10162798446
 21
580.406061160983
 31
0.0
  0
LINE
  5
28221
330
27F9F
100
AcDbEntity
  8
YODOROGO
100
AcDbLine
 10
11600.10162798446
 20
535.4060611609829
 30
0.0
 11
11587.35162798447
 21
535.4060611609829
 31
0.0
  0
LINE
  5
28222
330
27F9F
100
AcDbEntity
  8
YODOROGO
100
AcDbLine
 10
11536.35162798447
 20
586.4060611609825
 30
0.0
 11
11546.85162798447
 21
586.4060611609825
 31
0.0
  0
LINE
  5
28223
330
27F9F
100
AcDbEntity
  8
YODOROGO
100
AcDbLine
 10
11587.35162798447
 20
559.4060611609831
 30
0.0
 11
11521.35162798447
 21
559.4060611609831
 31
0.0
  0
LINE
  5
28224
330
27F9F
100
AcDbEntity
  8
YODOROGO
100
AcDbLine
 10
11561.85162798446
 20
586.4060611609825
 30
0.0
 11
11572.35162798446
 21
586.4060611609825
 31
0.0
  0
LINE
  5
28225
330
27F9F
100
AcDbEntity
  8
YODOROGO
100
AcDbLine
 10
11587.35162798447
 20
535.4060611609829
 30
0.0
 11
11587.35162798447
 21
580.406061160983
 31
0.0
  0
LINE
  5
28226
330
27F9F
100
AcDbEntity
  8
YODOROGO
100
AcDbLine
 10
11511.60162798447
 20
535.4060611609829
 30
0.0
 11
11492.10162798447
 21
535.4060611609829
 31
0.0
  0
LINE
  5
28227
330
27F9F
100
AcDbEntity
  8
YODOROGO
100
AcDbLine
 10
11481.60162798447
 20
599.9060611609831
 30
0.0
 11
11481.60162798447
 21
565.4060611609828
 31
0.0
  0
ARC
  5
28228
330
27F9F
100
AcDbEntity
  8
YODOROGO
100
AcDbCircle
 10
11600.10162798446
 20
550.4060611609828
 30
0.0
 40
15.0
100
AcDbArc
 50
270.0
 51
0.0
  0
LINE
  5
28229
330
27F9F
100
AcDbEntity
  8
YODOROGO
100
AcDbLine
 10
11660.10162798446
 20
571.4060611609824
 30
0.0
 11
11660.10162798446
 21
535.4060611609829
 31
0.0
  0
ARC
  5
2822A
330
27F9F
100
AcDbEntity
  8
YODOROGO
100
AcDbCircle
 10
11639.89552333754
 20
614.0742712911499
 30
0.0
 40
47.21083372187828
100
AcDbArc
 50
295.3405244216011
 51
359.1890230341867
  0
LINE
  5
2822B
330
27F9F
100
AcDbEntity
  8
YODOROGO
100
AcDbLine
 10
11481.60162798447
 20
697.406061160983
 30
0.0
 11
11436.60162798447
 21
727.4060611609828
 31
0.0
  0
LINE
  5
2822C
330
27F9F
100
AcDbEntity
  8
YODOROGO
100
AcDbLine
 10
11436.60162798447
 20
760.4060611609829
 30
0.0
 11
11481.60162798447
 21
730.4060611609828
 31
0.0
  0
LINE
  5
2822D
330
27F9F
100
AcDbEntity
  8
YODOROGO
100
AcDbLine
 10
11448.60162798446
 20
629.9060611609831
 30
0.0
 11
11481.60162798447
 21
629.9060611609831
 31
0.0
  0
LINE
  5
2822E
330
27F9F
100
AcDbEntity
  8
YODOROGO
100
AcDbLine
 10
11481.60162798447
 20
650.9060611609827
 30
0.0
 11
11448.60162798446
 21
650.9060611609827
 31
0.0
  0
LINE
  5
2822F
330
27F9F
100
AcDbEntity
  8
YODOROGO
100
AcDbLine
 10
11393.10162798446
 20
673.4060611609827
 30
0.0
 11
11481.60162798447
 21
673.4060611609827
 31
0.0
  0
LINE
  5
28230
330
27F9F
100
AcDbEntity
  8
YODOROGO
100
AcDbLine
 10
11280.60162798447
 20
760.4060611609829
 30
0.0
 11
11258.10162798447
 21
760.4060611609829
 31
0.0
  0
LINE
  5
28231
330
27F9F
100
AcDbEntity
  8
YODOROGO
100
AcDbLine
 10
11280.60162798447
 20
685.4060611609829
 30
0.0
 11
11280.60162798447
 21
760.4060611609829
 31
0.0
  0
LINE
  5
28232
330
27F9F
100
AcDbEntity
  8
YODOROGO
100
AcDbLine
 10
11258.10162798447
 20
685.4060611609829
 30
0.0
 11
11280.60162798447
 21
685.4060611609829
 31
0.0
  0
LINE
  5
28233
330
27F9F
100
AcDbEntity
  8
YODOROGO
100
AcDbLine
 10
11258.10162798447
 20
760.4060611609829
 30
0.0
 11
11258.10162798447
 21
685.4060611609829
 31
0.0
  0
LINE
  5
28234
330
27F9F
100
AcDbEntity
  8
YODOROGO
100
AcDbLine
 10
11310.60162798447
 20
760.4060611609829
 30
0.0
 11
11331.60162798447
 21
760.4060611609829
 31
0.0
  0
LINE
  5
28235
330
27F9F
100
AcDbEntity
  8
YODOROGO
100
AcDbLine
 10
11310.60162798447
 20
679.4060611609832
 30
0.0
 11
11310.60162798447
 21
760.4060611609829
 31
0.0
  0
ARC
  5
28236
330
27F9F
100
AcDbEntity
  8
YODOROGO
100
AcDbCircle
 10
11295.60162798447
 20
679.4060611609832
 30
0.0
 40
15.0
100
AcDbArc
 50
270.0
 51
0.0
  0
LINE
  5
28237
330
27F9F
100
AcDbEntity
  8
YODOROGO
100
AcDbLine
 10
11258.10162798447
 20
664.4060611609833
 30
0.0
 11
11295.60162798447
 21
664.4060611609833
 31
0.0
  0
LINE
  5
28238
330
27F9F
100
AcDbEntity
  8
YODOROGO
100
AcDbLine
 10
11258.10162798447
 20
640.4060611609828
 30
0.0
 11
11258.10162798447
 21
664.4060611609833
 31
0.0
  0
LINE
  5
28239
330
27F9F
100
AcDbEntity
  8
YODOROGO
100
AcDbLine
 10
11301.60162798446
 20
640.4060611609828
 30
0.0
 11
11258.10162798447
 21
640.4060611609828
 31
0.0
  0
ARC
  5
2823A
330
27F9F
100
AcDbEntity
  8
YODOROGO
100
AcDbCircle
 10
11301.60162798446
 20
670.4060611609828
 30
0.0
 40
30.0
100
AcDbArc
 50
270.0
 51
0.0
  0
LINE
  5
2823B
330
27F9F
100
AcDbEntity
  8
YODOROGO
100
AcDbLine
 10
11331.60162798447
 20
760.4060611609829
 30
0.0
 11
11331.60162798447
 21
670.4060611609828
 31
0.0
  0
LINE
  5
2823C
330
27F9F
100
AcDbEntity
  8
YODOROGO
100
AcDbLine
 10
11241.60162798446
 20
730.4060611609828
 30
0.0
 11
11241.60162798446
 21
748.4060611609828
 31
0.0
1001
AUTOCAD_POSTSCRIPT_FIGURE
1002
{
1000
PSFILL
1000
Grayscale
1000
Grayscale
1070
    25
1002
}
  0
LINE
  5
2823D
330
27F9F
100
AcDbEntity
  8
YODOROGO
100
AcDbLine
 10
11241.60162798446
 20
697.406061160983
 30
0.0
 11
11241.60162798446
 21
715.4060611609828
 31
0.0
1001
AUTOCAD_POSTSCRIPT_FIGURE
1002
{
1000
PSFILL
1000
Grayscale
1000
Grayscale
1070
    25
1002
}
  0
LINE
  5
2823E
330
27F9F
100
AcDbEntity
  8
YODOROGO
100
AcDbLine
 10
11241.60162798446
 20
640.4060611609828
 30
0.0
 11
11241.60162798446
 21
682.4060611609829
 31
0.0
1001
AUTOCAD_POSTSCRIPT_FIGURE
1002
{
1000
PSFILL
1000
Grayscale
1000
Grayscale
1070
    25
1002
}
  0
LINE
  5
2823F
330
27F9F
100
AcDbEntity
  8
YODOROGO
100
AcDbLine
 10
11393.10162798446
 20
715.4060611609828
 30
0.0
 11
11436.60162798447
 21
760.4060611609829
 31
0.0
  0
LINE
  5
28240
330
27F9F
100
AcDbEntity
  8
YODOROGO
100
AcDbLine
 10
11393.10162798446
 20
682.4060611609829
 30
0.0
 11
11393.10162798446
 21
715.4060611609828
 31
0.0
  0
LINE
  5
28241
330
27F9F
100
AcDbEntity
  8
YODOROGO
100
AcDbLine
 10
11436.60162798447
 20
727.4060611609828
 30
0.0
 11
11393.10162798446
 21
682.4060611609829
 31
0.0
  0
LINE
  5
28242
330
27F9F
100
AcDbEntity
  8
YODOROGO
100
AcDbLine
 10
11424.60162798446
 20
629.9060611609831
 30
0.0
 11
11424.60162798446
 21
650.9060611609827
 31
0.0
  0
LINE
  5
28243
330
27F9F
100
AcDbEntity
  8
YODOROGO
100
AcDbLine
 10
11393.10162798446
 20
629.9060611609831
 30
0.0
 11
11424.60162798446
 21
629.9060611609831
 31
0.0
  0
LINE
  5
28244
330
27F9F
100
AcDbEntity
  8
YODOROGO
100
AcDbLine
 10
11448.60162798446
 20
650.9060611609827
 30
0.0
 11
11448.60162798446
 21
629.9060611609831
 31
0.0
  0
LINE
  5
28245
330
27F9F
100
AcDbEntity
  8
YODOROGO
100
AcDbLine
 10
11393.10162798446
 20
650.9060611609827
 30
0.0
 11
11393.10162798446
 21
673.4060611609827
 31
0.0
  0
LINE
  5
28246
330
27F9F
100
AcDbEntity
  8
YODOROGO
100
AcDbLine
 10
11424.60162798446
 20
650.9060611609827
 30
0.0
 11
11393.10162798446
 21
650.9060611609827
 31
0.0
  0
LINE
  5
28247
330
27F9F
100
AcDbEntity
  8
YODOROGO
100
AcDbLine
 10
11492.10162798447
 20
760.4060611609829
 30
0.0
 11
11615.10162798446
 21
760.4060611609829
 31
0.0
  0
LINE
  5
28248
330
27F9F
100
AcDbEntity
  8
YODOROGO
100
AcDbLine
 10
11597.10162798446
 20
736.4060611609825
 30
0.0
 11
11511.60162798447
 21
736.4060611609825
 31
0.0
  0
LINE
  5
28249
330
27F9F
100
AcDbEntity
  8
YODOROGO
100
AcDbLine
 10
11577.60162798447
 20
682.4060611609829
 30
0.0
 11
11587.35162798447
 21
682.4060611609829
 31
0.0
  0
LINE
  5
2824A
330
27F9F
100
AcDbEntity
  8
YODOROGO
100
AcDbLine
 10
11587.35162798447
 20
727.4060611609828
 30
0.0
 11
11577.60162798447
 21
682.4060611609829
 31
0.0
  0
LINE
  5
2824B
330
27F9F
100
AcDbEntity
  8
YODOROGO
100
AcDbLine
 10
11569.35162798446
 20
727.4060611609828
 30
0.0
 11
11587.35162798447
 21
727.4060611609828
 31
0.0
  0
LINE
  5
2824C
330
27F9F
100
AcDbEntity
  8
YODOROGO
100
AcDbLine
 10
11559.60162798447
 20
682.4060611609829
 30
0.0
 11
11569.35162798446
 21
727.4060611609828
 31
0.0
  0
LINE
  5
2824D
330
27F9F
100
AcDbEntity
  8
YODOROGO
100
AcDbLine
 10
11549.10162798447
 20
682.4060611609829
 30
0.0
 11
11559.60162798447
 21
682.4060611609829
 31
0.0
  0
LINE
  5
2824E
330
27F9F
100
AcDbEntity
  8
YODOROGO
100
AcDbLine
 10
11539.35162798447
 20
727.4060611609828
 30
0.0
 11
11549.10162798447
 21
682.4060611609829
 31
0.0
  0
LINE
  5
2824F
330
27F9F
100
AcDbEntity
  8
YODOROGO
100
AcDbLine
 10
11521.35162798447
 20
727.4060611609828
 30
0.0
 11
11539.35162798447
 21
727.4060611609828
 31
0.0
  0
LINE
  5
28250
330
27F9F
100
AcDbEntity
  8
YODOROGO
100
AcDbLine
 10
11531.10162798447
 20
682.4060611609829
 30
0.0
 11
11521.35162798447
 21
727.4060611609828
 31
0.0
  0
LINE
  5
28251
330
27F9F
100
AcDbEntity
  8
YODOROGO
100
AcDbLine
 10
11521.35162798447
 20
682.4060611609829
 30
0.0
 11
11531.10162798447
 21
682.4060611609829
 31
0.0
  0
LINE
  5
28252
330
27F9F
100
AcDbEntity
  8
YODOROGO
100
AcDbLine
 10
11521.35162798447
 20
658.4060611609827
 30
0.0
 11
11521.35162798447
 21
682.4060611609829
 31
0.0
  0
LINE
  5
28253
330
27F9F
100
AcDbEntity
  8
YODOROGO
100
AcDbLine
 10
11587.35162798447
 20
658.4060611609827
 30
0.0
 11
11521.35162798447
 21
658.4060611609827
 31
0.0
  0
LINE
  5
28254
330
27F9F
100
AcDbEntity
  8
YODOROGO
100
AcDbLine
 10
11587.35162798447
 20
682.4060611609829
 30
0.0
 11
11587.35162798447
 21
658.4060611609827
 31
0.0
  0
LINE
  5
28255
330
27F9F
100
AcDbEntity
  8
YODOROGO
100
AcDbLine
 10
11481.60162798447
 20
730.4060611609828
 30
0.0
 11
11481.60162798447
 21
697.406061160983
 31
0.0
  0
LINE
  5
28256
330
27F9F
100
AcDbEntity
  8
YODOROGO
100
AcDbLine
 10
11546.85162798447
 20
658.4060611609827
 30
0.0
 11
11561.85162798446
 21
658.4060611609827
 31
0.0
  0
LINE
  5
28257
330
27F9F
100
AcDbEntity
  8
YODOROGO
100
AcDbLine
 10
11521.35162798447
 20
634.4060611609833
 30
0.0
 11
11536.35162798447
 21
634.4060611609833
 31
0.0
  0
LINE
  5
28258
330
27F9F
100
AcDbEntity
  8
YODOROGO
100
AcDbLine
 10
11572.35162798446
 20
634.4060611609833
 30
0.0
 11
11587.35162798447
 21
634.4060611609833
 31
0.0
  0
LINE
  5
28259
330
27F9F
100
AcDbEntity
  8
YODOROGO
100
AcDbLine
 10
11481.60162798447
 20
673.4060611609827
 30
0.0
 11
11481.60162798447
 21
650.9060611609827
 31
0.0
  0
LINE
  5
2825A
330
27F9F
100
AcDbEntity
  8
YODOROGO
100
AcDbLine
 10
11687.10162798447
 20
760.4060611609829
 30
0.0
 11
11687.10162798447
 21
736.4060611609825
 31
0.0
  0
LINE
  5
2825B
330
27F9F
100
AcDbEntity
  8
YODOROGO
100
AcDbLine
 10
11825.10162798447
 20
598.4060611609827
 30
0.0
 11
11825.10162798446
 21
679.4060611609832
 31
0.0
  0
LINE
  5
2825C
330
27F9F
100
AcDbEntity
  8
YODOROGO
100
AcDbLine
 10
11798.10162798446
 20
745.4060611609828
 30
0.0
 11
11798.10162798446
 21
613.4060611609827
 31
0.0
  0
LINE
  5
2825D
330
27F9F
100
AcDbEntity
  8
YODOROGO
100
AcDbLine
 10
11870.10162798447
 20
535.4060611609829
 30
0.0
 11
11870.10162798446
 21
679.4060611609832
 31
0.0
  0
LINE
  5
2825E
330
27F9F
100
AcDbEntity
  8
YODOROGO
100
AcDbLine
 10
11846.10162798447
 20
679.4060611609832
 30
0.0
 11
11846.10162798447
 21
535.4060611609829
 31
0.0
  0
LINE
  5
2825F
330
27F9F
100
AcDbEntity
  8
YODOROGO
100
AcDbLine
 10
11714.10162798447
 20
598.4060611609827
 30
0.0
 11
11714.10162798447
 21
640.4060611609828
 31
0.0
  0
ARC
  5
28260
330
27F9F
100
AcDbEntity
  8
YODOROGO
100
AcDbCircle
 10
11757.71807441852
 20
602.921381733209
 30
0.0
 40
67.53466821599572
100
AcDbArc
 50
268.6284910216979
 51
356.1663845733032
  0
LINE
  5
28261
330
27F9F
100
AcDbEntity
  8
YODOROGO
100
AcDbLine
 10
11756.10162798446
 20
572.9060611609829
 30
0.0
 11
11756.10162798446
 21
535.4060611609829
 31
0.0
  0
ARC
  5
28262
330
27F9F
100
AcDbEntity
  8
YODOROGO
100
AcDbCircle
 10
11756.81927839671
 20
614.1896088816206
 30
0.0
 40
41.28978486885457
100
AcDbArc
 50
269.0041020930593
 51
358.9126445549248
  0
LINE
  5
28263
330
27F9F
100
AcDbEntity
  8
YODOROGO
100
AcDbLine
 10
11846.10162798447
 20
535.4060611609829
 30
0.0
 11
11870.10162798447
 21
535.4060611609829
 31
0.0
  0
LINE
  5
28264
330
27F9F
100
AcDbEntity
  8
YODOROGO
100
AcDbLine
 10
11825.10162798446
 20
679.4060611609832
 30
0.0
 11
11846.10162798447
 21
679.4060611609832
 31
0.0
  0
LINE
  5
28265
330
27F9F
100
AcDbEntity
  8
YODOROGO
100
AcDbLine
 10
11858.10162798446
 20
745.4060611609828
 30
0.0
 11
11798.10162798446
 21
745.4060611609828
 31
0.0
  0
LINE
  5
28266
330
27F9F
100
AcDbEntity
  8
YODOROGO
100
AcDbLine
 10
11825.10162798446
 20
718.4060611609829
 30
0.0
 11
11873.10162798447
 21
718.4060611609829
 31
0.0
  0
LINE
  5
28267
330
27F9F
100
AcDbEntity
  8
YODOROGO
100
AcDbLine
 10
11888.10162798447
 20
703.4060611609828
 30
0.0
 11
11825.10162798446
 21
703.4060611609828
 31
0.0
  0
LINE
  5
28268
330
27F9F
100
AcDbEntity
  8
YODOROGO
100
AcDbLine
 10
11714.10162798447
 20
667.4060611609831
 30
0.0
 11
11756.10162798446
 21
667.4060611609831
 31
0.0
  0
LINE
  5
28269
330
27F9F
100
AcDbEntity
  8
YODOROGO
100
AcDbLine
 10
11714.10162798447
 20
688.4060611609828
 30
0.0
 11
11714.10162798447
 21
667.4060611609831
 31
0.0
  0
LINE
  5
2826A
330
27F9F
100
AcDbEntity
  8
YODOROGO
100
AcDbLine
 10
11756.10162798446
 20
688.4060611609828
 30
0.0
 11
11714.10162798447
 21
688.4060611609828
 31
0.0
  0
LINE
  5
2826B
330
27F9F
100
AcDbEntity
  8
YODOROGO
100
AcDbLine
 10
11756.10162798446
 20
667.4060611609831
 30
0.0
 11
11756.10162798446
 21
688.4060611609828
 31
0.0
  0
LINE
  5
2826C
330
27F9F
100
AcDbEntity
  8
YODOROGO
100
AcDbLine
 10
11825.10162798446
 20
703.4060611609828
 30
0.0
 11
11825.10162798446
 21
718.4060611609829
 31
0.0
  0
LINE
  5
2826D
330
27F9F
100
AcDbEntity
  8
YODOROGO
100
AcDbLine
 10
11780.10162798446
 20
640.4060611609828
 30
0.0
 11
11780.10162798446
 21
715.4060611609828
 31
0.0
  0
LINE
  5
2826E
330
27F9F
100
AcDbEntity
  8
YODOROGO
100
AcDbLine
 10
11714.10162798447
 20
640.4060611609828
 30
0.0
 11
11780.10162798446
 21
640.4060611609828
 31
0.0
  0
LINE
  5
2826F
330
27F9F
100
AcDbEntity
  8
YODOROGO
100
AcDbLine
 10
11780.10162798446
 20
736.4060611609825
 30
0.0
 11
11780.10162798446
 21
760.4060611609829
 31
0.0
  0
ARC
  5
28270
330
27F9F
100
AcDbEntity
  8
YODOROGO
100
AcDbCircle
 10
11858.10162798446
 20
751.4060611609817
 30
0.0
 40
5.999999999997952
100
AcDbArc
 50
270.0
 51
0.0000000000081422
  0
LINE
  5
28271
330
27F9F
100
AcDbEntity
  8
YODOROGO
100
AcDbLine
 10
11864.10162798447
 20
760.4060611609829
 30
0.0
 11
11864.10162798447
 21
751.4060611609825
 31
0.0
  0
LINE
  5
28272
330
27F9F
100
AcDbEntity
  8
YODOROGO
100
AcDbLine
 10
11888.10162798447
 20
760.4060611609829
 30
0.0
 11
11864.10162798447
 21
760.4060611609829
 31
0.0
  0
LINE
  5
28273
330
27F9F
100
AcDbEntity
  8
YODOROGO
100
AcDbLine
 10
11888.10162798447
 20
733.4060611609828
 30
0.0
 11
11888.10162798447
 21
760.4060611609829
 31
0.0
  0
ARC
  5
28274
330
27F9F
100
AcDbEntity
  8
YODOROGO
100
AcDbCircle
 10
11873.10162798447
 20
733.4060611609828
 30
0.0
 40
15.0
100
AcDbArc
 50
270.0
 51
0.0
  0
LINE
  5
28275
330
27F9F
100
AcDbEntity
  8
YODOROGO
100
AcDbLine
 10
11888.10162798447
 20
679.4060611609832
 30
0.0
 11
11888.10162798447
 21
703.4060611609828
 31
0.0
  0
LINE
  5
28276
330
27F9F
100
AcDbEntity
  8
YODOROGO
100
AcDbLine
 10
11870.10162798446
 20
679.4060611609832
 30
0.0
 11
11888.10162798447
 21
679.4060611609832
 31
0.0
  0
LINE
  5
28277
330
27F9F
100
AcDbEntity
  8
SUNPOU
100
AcDbLine
 10
2254.03670734087
 20
1586.712525199589
 30
0.0
 11
3706.536707340871
 21
1586.712525199589
 31
0.0
  0
LINE
  5
28278
330
27F9F
100
AcDbEntity
  8
SUNPOU
100
AcDbLine
 10
2254.036707340869
 20
1436.712525199591
 30
0.0
 11
3706.536707340871
 21
1436.712525199591
 31
0.0
  0
LINE
  5
28279
330
27F9F
100
AcDbEntity
  8
SUNPOU
100
AcDbLine
 10
3661.536707340871
 20
1571.712525199589
 30
0.0
 11
3661.536707340871
 21
1451.712525199591
 31
0.0
  0
LINE
  5
2827A
330
27F9F
100
AcDbEntity
  8
SUNPOU
100
AcDbLine
 10
3661.536707340871
 20
1436.712525199591
 30
0.0
 11
3661.536707340871
 21
1185.998239485305
 31
0.0
  0
LINE
  5
2827B
330
27F9F
100
AcDbEntity
  8
SUNPOU
100
AcDbLine
 10
3491.536707340871
 20
2336.712525199591
 30
0.0
 11
3706.536707340871
 21
2336.712525199591
 31
0.0
  0
LINE
  5
2827C
330
27F9F
100
AcDbEntity
  8
SUNPOU
100
AcDbLine
 10
2254.03670734087
 20
1586.712525199591
 30
0.0
 11
3706.536707340871
 21
1586.712525199591
 31
0.0
  0
LINE
  5
2827D
330
27F9F
100
AcDbEntity
  8
SUNPOU
100
AcDbLine
 10
3661.536707340871
 20
2321.712525199592
 30
0.0
 11
3661.536707340871
 21
1601.712525199592
 31
0.0
  0
LINE
  5
2827E
330
27F9F
100
AcDbEntity
  8
SUNPOU
100
AcDbLine
 10
1024.036707340868
 20
1406.712525199591
 30
0.0
 11
1024.036707340868
 21
1061.712525199589
 31
0.0
  0
LINE
  5
2827F
330
27F9F
100
AcDbEntity
  8
SUNPOU
100
AcDbLine
 10
2074.036707340868
 20
1406.712525199591
 30
0.0
 11
2074.036707340868
 21
1061.712525199589
 31
0.0
  0
LINE
  5
28280
330
27F9F
100
AcDbEntity
  8
SUNPOU
100
AcDbLine
 10
1039.036707340869
 20
1106.712525199589
 30
0.0
 11
2059.036707340868
 21
1106.712525199589
 31
0.0
  0
LINE
  5
28281
330
27F9F
100
AcDbEntity
  8
SUNPOU
100
AcDbLine
 10
874.0367073408688
 20
1406.712525199591
 30
0.0
 11
874.0367073408688
 21
851.7125251995903
 31
0.0
  0
LINE
  5
28282
330
27F9F
100
AcDbEntity
  8
SUNPOU
100
AcDbLine
 10
2224.036707340868
 20
1406.712525199591
 30
0.0
 11
2224.036707340868
 21
851.7125251995903
 31
0.0
  0
LINE
  5
28283
330
27F9F
100
AcDbEntity
  8
SUNPOU
100
AcDbLine
 10
889.0367073408686
 20
896.7125251995904
 30
0.0
 11
2209.036707340869
 21
896.7125251995904
 31
0.0
  0
LINE
  5
28284
330
27F9F
100
AcDbEntity
  8
SUNPOU
100
AcDbLine
 10
11110.34064133493
 20
8088.87747860906
 30
0.0
 11
11110.34064133493
 21
8077.627478609063
 31
0.0
  0
LINE
  5
28285
330
27F9F
100
AcDbEntity
  8
SUNPOU
100
AcDbLine
 10
11320.34064133492
 20
8088.87747860906
 30
0.0
 11
11320.34064133492
 21
8077.627478609063
 31
0.0
  0
LINE
  5
28286
330
27F9F
100
AcDbEntity
  8
SUNPOU
100
AcDbLine
 10
11110.34064133493
 20
6688.877478609064
 30
0.0
 11
11110.34064133493
 21
6677.627478609064
 31
0.0
  0
LINE
  5
28287
330
27F9F
100
AcDbEntity
  8
SUNPOU
100
AcDbLine
 10
11110.34064133493
 20
6688.877478609064
 30
0.0
 11
11110.34064133493
 21
6677.627478609064
 31
0.0
  0
LINE
  5
28288
330
27F9F
100
AcDbEntity
  8
SUNPOU
100
AcDbLine
 10
11110.34064133493
 20
6711.377478609063
 30
0.0
 11
11110.34064133493
 21
6722.627478609064
 31
0.0
  0
LINE
  5
28289
330
27F9F
100
AcDbEntity
  8
SUNPOU
100
AcDbLine
 10
10900.34064133492
 20
7038.877478609062
 30
0.0
 11
10900.34064133492
 21
7027.627478609064
 31
0.0
  0
LINE
  5
2828A
330
27F9F
100
AcDbEntity
  8
SUNPOU
100
AcDbLine
 10
10900.34064133492
 20
6361.377478609064
 30
0.0
 11
10900.34064133492
 21
6372.627478609063
 31
0.0
  0
LINE
  5
2828B
330
27F9F
100
AcDbEntity
  8
SUNPOU
100
AcDbLine
 10
11110.34064133493
 20
4628.877478609063
 30
0.0
 11
11110.34064133493
 21
4617.627478609064
 31
0.0
  0
LINE
  5
2828C
330
27F9F
100
AcDbEntity
  8
SUNPOU
100
AcDbLine
 10
11110.34064133493
 20
4651.377478609063
 30
0.0
 11
11110.34064133493
 21
4662.627478609063
 31
0.0
  0
LINE
  5
2828D
330
27F9F
100
AcDbEntity
  8
SUNPOU
100
AcDbLine
 10
11110.34064133493
 20
4651.377478609063
 30
0.0
 11
11110.34064133493
 21
4662.627478609063
 31
0.0
  0
LINE
  5
2828E
330
27F9F
100
AcDbEntity
  8
SUNPOU
100
AcDbLine
 10
10900.34064133492
 20
4978.877478609064
 30
0.0
 11
10900.34064133492
 21
4967.627478609063
 31
0.0
  0
LINE
  5
2828F
330
27F9F
100
AcDbEntity
  8
SUNPOU
100
AcDbLine
 10
10461.04665690042
 20
6748.877478609063
 30
0.0
 11
10461.04665690042
 21
6760.127478609064
 31
0.0
  0
LINE
  5
28290
330
27F9F
100
AcDbEntity
  8
SUNPOU
100
AcDbLine
 10
10461.04665690042
 20
6673.877478609063
 30
0.0
 11
10461.04665690042
 21
6685.127478609064
 31
0.0
  0
LINE
  5
28291
330
27F9F
100
AcDbEntity
  8
SUNPOU
100
AcDbLine
 10
10271.59064133492
 20
6486.184634723412
 30
0.0
 11
10260.34064133492
 21
6486.184634723412
 31
0.0
  0
LINE
  5
28292
330
27F9F
100
AcDbEntity
  8
SUNPOU
100
AcDbLine
 10
10206.59064133492
 20
6486.184634723412
 30
0.0
 11
10195.34064133492
 21
6486.184634723412
 31
0.0
  0
LINE
  5
28293
330
27F9F
100
AcDbEntity
  8
SUNPOU
100
AcDbLine
 10
9911.590641334935
 20
6050.127478609063
 30
0.0
 11
9922.840641334937
 21
6050.127478609063
 31
0.0
  0
LINE
  5
28294
330
27F9F
100
AcDbEntity
  8
SUNPOU
100
AcDbLine
 10
10461.04665690042
 20
4688.877478609064
 30
0.0
 11
10461.04665690042
 21
4700.127478609063
 31
0.0
  0
LINE
  5
28295
330
27F9F
100
AcDbEntity
  8
SUNPOU
100
AcDbLine
 10
10461.04665690042
 20
4613.877478609063
 30
0.0
 11
10461.04665690042
 21
4625.127478609063
 31
0.0
  0
LINE
  5
28296
330
27F9F
100
AcDbEntity
  8
SUNPOU
100
AcDbLine
 10
10589.09064133492
 20
6050.127478609063
 30
0.0
 11
10577.84064133492
 21
6050.127478609063
 31
0.0
  0
LINE
  5
28297
330
27F9F
100
AcDbEntity
  8
SUNPOU
100
AcDbLine
 10
10900.34064133492
 20
4301.377478609063
 30
0.0
 11
10900.34064133492
 21
4312.627478609063
 31
0.0
  0
LINE
  5
28298
330
27F9F
100
AcDbEntity
  8
SUNPOU
100
AcDbLine
 10
11110.34064133493
 20
3251.377478609063
 30
0.0
 11
11110.34064133493
 21
3262.627478609063
 31
0.0
  0
LINE
  5
28299
330
27F9F
100
AcDbEntity
  8
SUNPOU
100
AcDbLine
 10
11320.34064133492
 20
3251.377478609063
 30
0.0
 11
11320.34064133492
 21
3262.627478609063
 31
0.0
  0
LINE
  5
2829A
330
27F9F
100
AcDbEntity
  8
SUNPOU
100
AcDbLine
 10
10271.59064133492
 20
4426.184634723411
 30
0.0
 11
10260.34064133492
 21
4426.184634723411
 31
0.0
  0
LINE
  5
2829B
330
27F9F
100
AcDbEntity
  8
SUNPOU
100
AcDbLine
 10
10206.59064133492
 20
4426.184634723411
 30
0.0
 11
10195.34064133492
 21
4426.184634723411
 31
0.0
  0
LINE
  5
2829C
330
27F9F
100
AcDbEntity
  8
SUNPOU
100
AcDbLine
 10
9911.590641334935
 20
4065.127478609062
 30
0.0
 11
9922.840641334937
 21
4065.127478609062
 31
0.0
  0
LINE
  5
2829D
330
27F9F
100
AcDbEntity
  8
SUNPOU
100
AcDbLine
 10
10239.09064133492
 20
2840.127478609062
 30
0.0
 11
10227.84064133492
 21
2840.127478609062
 31
0.0
  0
LINE
  5
2829E
330
27F9F
100
AcDbEntity
  8
SUNPOU
100
AcDbLine
 10
10261.59064133492
 20
2840.127478609062
 30
0.0
 11
10272.84064133492
 21
2840.127478609062
 31
0.0
  0
LINE
  5
2829F
330
27F9F
100
AcDbEntity
  8
SUNPOU
100
AcDbLine
 10
7439.09064133493
 20
2840.127478609062
 30
0.0
 11
7427.84064133493
 21
2840.127478609062
 31
0.0
  0
LINE
  5
282A0
330
27F9F
100
AcDbEntity
  8
SUNPOU
100
AcDbLine
 10
7461.590641334931
 20
2840.127478609062
 30
0.0
 11
7472.84064133493
 21
2840.127478609062
 31
0.0
  0
LINE
  5
282A1
330
27F9F
100
AcDbEntity
  8
SUNPOU
100
AcDbLine
 10
10589.09064133492
 20
2630.127478609063
 30
0.0
 11
10577.84064133492
 21
2630.127478609063
 31
0.0
  0
LINE
  5
282A2
330
27F9F
100
AcDbEntity
  8
SUNPOU
100
AcDbLine
 10
10589.09064133492
 20
2840.127478609062
 30
0.0
 11
10577.84064133492
 21
2840.127478609062
 31
0.0
  0
LINE
  5
282A3
330
27F9F
100
AcDbEntity
  8
SUNPOU
100
AcDbLine
 10
10589.09064133492
 20
4065.127478609062
 30
0.0
 11
10577.84064133492
 21
4065.127478609062
 31
0.0
  0
LINE
  5
282A4
330
27F9F
100
AcDbEntity
  8
SUNPOU
100
AcDbLine
 10
5739.09064133493
 20
2840.127478609062
 30
0.0
 11
5727.840641334932
 21
2840.127478609062
 31
0.0
  0
LINE
  5
282A5
330
27F9F
100
AcDbEntity
  8
SUNPOU
100
AcDbLine
 10
5761.59064133493
 20
2840.127478609062
 30
0.0
 11
5772.84064133493
 21
2840.127478609062
 31
0.0
  0
LINE
  5
282A6
330
27F9F
100
AcDbEntity
  8
SUNPOU
100
AcDbLine
 10
2939.090641334928
 20
2840.127478609062
 30
0.0
 11
2927.840641334928
 21
2840.127478609062
 31
0.0
  0
LINE
  5
282A7
330
27F9F
100
AcDbEntity
  8
SUNPOU
100
AcDbLine
 10
2961.590641334929
 20
2840.127478609062
 30
0.0
 11
2972.840641334929
 21
2840.127478609062
 31
0.0
  0
LINE
  5
282A8
330
27F9F
100
AcDbEntity
  8
SUNPOU
100
AcDbLine
 10
2611.590641334929
 20
2840.127478609062
 30
0.0
 11
2622.840641334929
 21
2840.127478609062
 31
0.0
  0
LINE
  5
282A9
330
27F9F
100
AcDbEntity
  8
SUNPOU
100
AcDbLine
 10
2611.590641334929
 20
2630.127478609063
 30
0.0
 11
2622.840641334929
 21
2630.127478609063
 31
0.0
  0
ARC
  5
282AA
330
27F9F
100
AcDbEntity
  8
SUNPOU
100
AcDbCircle
 10
2600.340641334929
 20
2630.127478609063
 30
0.0
 40
5.625
100
AcDbArc
 50
0.0
 51
180.0
  0
ARC
  5
282AB
330
27F9F
100
AcDbEntity
  8
SUNPOU
100
AcDbCircle
 10
2600.340641334929
 20
2630.127478609063
 30
0.0
 40
5.625
100
AcDbArc
 50
180.0
 51
0.0
  0
ARC
  5
282AC
330
27F9F
100
AcDbEntity
  8
SUNPOU
100
AcDbCircle
 10
2600.340641334929
 20
2840.127478609062
 30
0.0
 40
5.625
100
AcDbArc
 50
0.0
 51
180.0
  0
ARC
  5
282AD
330
27F9F
100
AcDbEntity
  8
SUNPOU
100
AcDbCircle
 10
2600.340641334929
 20
2840.127478609062
 30
0.0
 40
5.625
100
AcDbArc
 50
180.0
 51
0.0
  0
ARC
  5
282AE
330
27F9F
100
AcDbEntity
  8
SUNPOU
100
AcDbCircle
 10
2950.340641334929
 20
2840.127478609062
 30
0.0
 40
5.625
100
AcDbArc
 50
0.0
 51
180.0
  0
ARC
  5
282AF
330
27F9F
100
AcDbEntity
  8
SUNPOU
100
AcDbCircle
 10
2950.340641334929
 20
2840.127478609062
 30
0.0
 40
5.625
100
AcDbArc
 50
180.0
 51
0.0
  0
ARC
  5
282B0
330
27F9F
100
AcDbEntity
  8
SUNPOU
100
AcDbCircle
 10
2950.340641334929
 20
2840.127478609062
 30
0.0
 40
5.625
100
AcDbArc
 50
180.0
 51
0.0
  0
ARC
  5
282B1
330
27F9F
100
AcDbEntity
  8
SUNPOU
100
AcDbCircle
 10
2950.340641334929
 20
2840.127478609062
 30
0.0
 40
5.625
100
AcDbArc
 50
0.0
 51
180.0
  0
ARC
  5
282B2
330
27F9F
100
AcDbEntity
  8
SUNPOU
100
AcDbCircle
 10
5750.34064133493
 20
2840.127478609062
 30
0.0
 40
5.625
100
AcDbArc
 50
0.0
 51
180.0
  0
ARC
  5
282B3
330
27F9F
100
AcDbEntity
  8
SUNPOU
100
AcDbCircle
 10
5750.34064133493
 20
2840.127478609062
 30
0.0
 40
5.625
100
AcDbArc
 50
180.0
 51
0.0
  0
ARC
  5
282B4
330
27F9F
100
AcDbEntity
  8
SUNPOU
100
AcDbCircle
 10
5750.34064133493
 20
2840.127478609062
 30
0.0
 40
5.625
100
AcDbArc
 50
180.0
 51
0.0
  0
ARC
  5
282B5
330
27F9F
100
AcDbEntity
  8
SUNPOU
100
AcDbCircle
 10
5750.34064133493
 20
2840.127478609062
 30
0.0
 40
5.625
100
AcDbArc
 50
0.0
 51
180.0
  0
ARC
  5
282B6
330
27F9F
100
AcDbEntity
  8
SUNPOU
100
AcDbCircle
 10
10600.34064133492
 20
4065.127478609062
 30
0.0
 40
5.625
100
AcDbArc
 50
180.0
 51
0.0
  0
ARC
  5
282B7
330
27F9F
100
AcDbEntity
  8
SUNPOU
100
AcDbCircle
 10
10600.34064133492
 20
4065.127478609062
 30
0.0
 40
5.625
100
AcDbArc
 50
0.0
 51
180.0
  0
ARC
  5
282B8
330
27F9F
100
AcDbEntity
  8
SUNPOU
100
AcDbCircle
 10
10600.34064133492
 20
2840.127478609062
 30
0.0
 40
5.625
100
AcDbArc
 50
180.0
 51
0.0
  0
ARC
  5
282B9
330
27F9F
100
AcDbEntity
  8
SUNPOU
100
AcDbCircle
 10
10600.34064133492
 20
2840.127478609062
 30
0.0
 40
5.625
100
AcDbArc
 50
0.0
 51
180.0
  0
ARC
  5
282BA
330
27F9F
100
AcDbEntity
  8
SUNPOU
100
AcDbCircle
 10
10600.34064133492
 20
2630.127478609063
 30
0.0
 40
5.625
100
AcDbArc
 50
180.0
 51
0.0
  0
ARC
  5
282BB
330
27F9F
100
AcDbEntity
  8
SUNPOU
100
AcDbCircle
 10
10600.34064133492
 20
2630.127478609063
 30
0.0
 40
5.625
100
AcDbArc
 50
0.0
 51
180.0
  0
ARC
  5
282BC
330
27F9F
100
AcDbEntity
  8
SUNPOU
100
AcDbCircle
 10
7450.340641334931
 20
2840.127478609062
 30
0.0
 40
5.625
100
AcDbArc
 50
0.0
 51
180.0
  0
ARC
  5
282BD
330
27F9F
100
AcDbEntity
  8
SUNPOU
100
AcDbCircle
 10
7450.340641334931
 20
2840.127478609062
 30
0.0
 40
5.625
100
AcDbArc
 50
180.0
 51
0.0
  0
ARC
  5
282BE
330
27F9F
100
AcDbEntity
  8
SUNPOU
100
AcDbCircle
 10
7450.340641334931
 20
2840.127478609062
 30
0.0
 40
5.625
100
AcDbArc
 50
180.0
 51
0.0
  0
ARC
  5
282BF
330
27F9F
100
AcDbEntity
  8
SUNPOU
100
AcDbCircle
 10
7450.340641334931
 20
2840.127478609062
 30
0.0
 40
5.625
100
AcDbArc
 50
0.0
 51
180.0
  0
ARC
  5
282C0
330
27F9F
100
AcDbEntity
  8
SUNPOU
100
AcDbCircle
 10
10250.34064133492
 20
2840.127478609062
 30
0.0
 40
5.625
100
AcDbArc
 50
0.0
 51
180.0
  0
ARC
  5
282C1
330
27F9F
100
AcDbEntity
  8
SUNPOU
100
AcDbCircle
 10
10250.34064133492
 20
2840.127478609062
 30
0.0
 40
5.625
100
AcDbArc
 50
180.0
 51
0.0
  0
ARC
  5
282C2
330
27F9F
100
AcDbEntity
  8
SUNPOU
100
AcDbCircle
 10
10250.34064133492
 20
2840.127478609062
 30
0.0
 40
5.625
100
AcDbArc
 50
180.0
 51
0.0
  0
ARC
  5
282C3
330
27F9F
100
AcDbEntity
  8
SUNPOU
100
AcDbCircle
 10
10250.34064133492
 20
2840.127478609062
 30
0.0
 40
5.625
100
AcDbArc
 50
0.0
 51
180.0
  0
ARC
  5
282C4
330
27F9F
100
AcDbEntity
  8
SUNPOU
100
AcDbCircle
 10
9900.340641334935
 20
4065.127478609062
 30
0.0
 40
5.625
100
AcDbArc
 50
0.0
 51
180.0
  0
ARC
  5
282C5
330
27F9F
100
AcDbEntity
  8
SUNPOU
100
AcDbCircle
 10
9900.340641334935
 20
4065.127478609062
 30
0.0
 40
5.625
100
AcDbArc
 50
180.0
 51
0.0
  0
ARC
  5
282C6
330
27F9F
100
AcDbEntity
  8
SUNPOU
100
AcDbCircle
 10
10217.84064133492
 20
4426.184634723411
 30
0.0
 40
5.625
100
AcDbArc
 50
180.0
 51
0.0
  0
ARC
  5
282C7
330
27F9F
100
AcDbEntity
  8
SUNPOU
100
AcDbCircle
 10
10217.84064133492
 20
4426.184634723411
 30
0.0
 40
5.625
100
AcDbArc
 50
0.0
 51
180.0
  0
ARC
  5
282C8
330
27F9F
100
AcDbEntity
  8
SUNPOU
100
AcDbCircle
 10
10282.84064133492
 20
4426.184634723411
 30
0.0
 40
5.625
100
AcDbArc
 50
180.0
 51
0.0
  0
ARC
  5
282C9
330
27F9F
100
AcDbEntity
  8
SUNPOU
100
AcDbCircle
 10
10282.84064133492
 20
4426.184634723411
 30
0.0
 40
5.625
100
AcDbArc
 50
0.0
 51
180.0
  0
ARC
  5
282CA
330
27F9F
100
AcDbEntity
  8
SUNPOU
100
AcDbCircle
 10
11320.34064133492
 20
3240.127478609063
 30
0.0
 40
5.625
100
AcDbArc
 50
90.0
 51
270.0
  0
ARC
  5
282CB
330
27F9F
100
AcDbEntity
  8
SUNPOU
100
AcDbCircle
 10
11320.34064133492
 20
3240.127478609063
 30
0.0
 40
5.625
100
AcDbArc
 50
270.0
 51
90.0
  0
ARC
  5
282CC
330
27F9F
100
AcDbEntity
  8
SUNPOU
100
AcDbCircle
 10
11110.34064133493
 20
3240.127478609063
 30
0.0
 40
5.625
100
AcDbArc
 50
90.0
 51
270.0
  0
ARC
  5
282CD
330
27F9F
100
AcDbEntity
  8
SUNPOU
100
AcDbCircle
 10
11110.34064133493
 20
3240.127478609063
 30
0.0
 40
5.625
100
AcDbArc
 50
270.0
 51
90.0
  0
ARC
  5
282CE
330
27F9F
100
AcDbEntity
  8
SUNPOU
100
AcDbCircle
 10
10900.34064133492
 20
4290.127478609064
 30
0.0
 40
5.625
100
AcDbArc
 50
90.0
 51
270.0
  0
ARC
  5
282CF
330
27F9F
100
AcDbEntity
  8
SUNPOU
100
AcDbCircle
 10
10900.34064133492
 20
4290.127478609064
 30
0.0
 40
5.625
100
AcDbArc
 50
270.0
 51
90.0
  0
ARC
  5
282D0
330
27F9F
100
AcDbEntity
  8
SUNPOU
100
AcDbCircle
 10
10600.34064133492
 20
6050.127478609063
 30
0.0
 40
5.625
100
AcDbArc
 50
180.0
 51
0.0
  0
ARC
  5
282D1
330
27F9F
100
AcDbEntity
  8
SUNPOU
100
AcDbCircle
 10
10600.34064133492
 20
6050.127478609063
 30
0.0
 40
5.625
100
AcDbArc
 50
0.0
 51
180.0
  0
ARC
  5
282D2
330
27F9F
100
AcDbEntity
  8
SUNPOU
100
AcDbCircle
 10
10461.04665690042
 20
4602.627478609064
 30
0.0
 40
5.625
100
AcDbArc
 50
90.0
 51
270.0
  0
ARC
  5
282D3
330
27F9F
100
AcDbEntity
  8
SUNPOU
100
AcDbCircle
 10
10461.04665690042
 20
4602.627478609064
 30
0.0
 40
5.625
100
AcDbArc
 50
270.0
 51
90.0
  0
ARC
  5
282D4
330
27F9F
100
AcDbEntity
  8
SUNPOU
100
AcDbCircle
 10
10461.04665690042
 20
4677.627478609063
 30
0.0
 40
5.625
100
AcDbArc
 50
90.0
 51
270.0
  0
ARC
  5
282D5
330
27F9F
100
AcDbEntity
  8
SUNPOU
100
AcDbCircle
 10
10461.04665690042
 20
4677.627478609063
 30
0.0
 40
5.625
100
AcDbArc
 50
270.0
 51
90.0
  0
ARC
  5
282D6
330
27F9F
100
AcDbEntity
  8
SUNPOU
100
AcDbCircle
 10
9900.340641334935
 20
6050.127478609063
 30
0.0
 40
5.625
100
AcDbArc
 50
0.0
 51
180.0
  0
ARC
  5
282D7
330
27F9F
100
AcDbEntity
  8
SUNPOU
100
AcDbCircle
 10
9900.340641334935
 20
6050.127478609063
 30
0.0
 40
5.625
100
AcDbArc
 50
180.0
 51
0.0
  0
ARC
  5
282D8
330
27F9F
100
AcDbEntity
  8
SUNPOU
100
AcDbCircle
 10
10217.84064133492
 20
6486.184634723412
 30
0.0
 40
5.625
100
AcDbArc
 50
180.0
 51
0.0
  0
ARC
  5
282D9
330
27F9F
100
AcDbEntity
  8
SUNPOU
100
AcDbCircle
 10
10217.84064133492
 20
6486.184634723412
 30
0.0
 40
5.625
100
AcDbArc
 50
0.0
 51
180.0
  0
ARC
  5
282DA
330
27F9F
100
AcDbEntity
  8
SUNPOU
100
AcDbCircle
 10
10282.84064133492
 20
6486.184634723412
 30
0.0
 40
5.625
100
AcDbArc
 50
180.0
 51
0.0
  0
ARC
  5
282DB
330
27F9F
100
AcDbEntity
  8
SUNPOU
100
AcDbCircle
 10
10282.84064133492
 20
6486.184634723412
 30
0.0
 40
5.625
100
AcDbArc
 50
0.0
 51
180.0
  0
ARC
  5
282DC
330
27F9F
100
AcDbEntity
  8
SUNPOU
100
AcDbCircle
 10
10461.04665690042
 20
6662.627478609064
 30
0.0
 40
5.625
100
AcDbArc
 50
90.0
 51
270.0
  0
ARC
  5
282DD
330
27F9F
100
AcDbEntity
  8
SUNPOU
100
AcDbCircle
 10
10461.04665690042
 20
6662.627478609064
 30
0.0
 40
5.625
100
AcDbArc
 50
270.0
 51
90.0
  0
ARC
  5
282DE
330
27F9F
100
AcDbEntity
  8
SUNPOU
100
AcDbCircle
 10
10461.04665690042
 20
6737.627478609063
 30
0.0
 40
5.625
100
AcDbArc
 50
90.0
 51
270.0
  0
ARC
  5
282DF
330
27F9F
100
AcDbEntity
  8
SUNPOU
100
AcDbCircle
 10
10461.04665690042
 20
6737.627478609063
 30
0.0
 40
5.625
100
AcDbArc
 50
270.0
 51
90.0
  0
ARC
  5
282E0
330
27F9F
100
AcDbEntity
  8
SUNPOU
100
AcDbCircle
 10
10900.34064133492
 20
4990.127478609064
 30
0.0
 40
5.625
100
AcDbArc
 50
270.0
 51
90.0
  0
ARC
  5
282E1
330
27F9F
100
AcDbEntity
  8
SUNPOU
100
AcDbCircle
 10
10900.34064133492
 20
4990.127478609064
 30
0.0
 40
5.625
100
AcDbArc
 50
90.0
 51
270.0
  0
ARC
  5
282E2
330
27F9F
100
AcDbEntity
  8
SUNPOU
100
AcDbCircle
 10
11110.34064133493
 20
4640.127478609064
 30
0.0
 40
5.625
100
AcDbArc
 50
90.0
 51
270.0
  0
ARC
  5
282E3
330
27F9F
100
AcDbEntity
  8
SUNPOU
100
AcDbCircle
 10
11110.34064133493
 20
4640.127478609064
 30
0.0
 40
5.625
100
AcDbArc
 50
270.0
 51
90.0
  0
ARC
  5
282E4
330
27F9F
100
AcDbEntity
  8
SUNPOU
100
AcDbCircle
 10
11110.34064133493
 20
4640.127478609064
 30
0.0
 40
5.625
100
AcDbArc
 50
90.0
 51
270.0
  0
ARC
  5
282E5
330
27F9F
100
AcDbEntity
  8
SUNPOU
100
AcDbCircle
 10
11110.34064133493
 20
4640.127478609064
 30
0.0
 40
5.625
100
AcDbArc
 50
270.0
 51
90.0
  0
ARC
  5
282E6
330
27F9F
100
AcDbEntity
  8
SUNPOU
100
AcDbCircle
 10
11110.34064133493
 20
4640.127478609064
 30
0.0
 40
5.625
100
AcDbArc
 50
270.0
 51
90.0
  0
ARC
  5
282E7
330
27F9F
100
AcDbEntity
  8
SUNPOU
100
AcDbCircle
 10
11110.34064133493
 20
4640.127478609064
 30
0.0
 40
5.625
100
AcDbArc
 50
90.0
 51
270.0
  0
ARC
  5
282E8
330
27F9F
100
AcDbEntity
  8
SUNPOU
100
AcDbCircle
 10
10900.34064133492
 20
6350.127478609064
 30
0.0
 40
5.625
100
AcDbArc
 50
90.0
 51
270.0
  0
ARC
  5
282E9
330
27F9F
100
AcDbEntity
  8
SUNPOU
100
AcDbCircle
 10
10900.34064133492
 20
6350.127478609064
 30
0.0
 40
5.625
100
AcDbArc
 50
270.0
 51
90.0
  0
ARC
  5
282EA
330
27F9F
100
AcDbEntity
  8
SUNPOU
100
AcDbCircle
 10
10900.34064133492
 20
7050.127478609063
 30
0.0
 40
5.625
100
AcDbArc
 50
270.0
 51
90.0
  0
ARC
  5
282EB
330
27F9F
100
AcDbEntity
  8
SUNPOU
100
AcDbCircle
 10
10900.34064133492
 20
7050.127478609063
 30
0.0
 40
5.625
100
AcDbArc
 50
90.0
 51
270.0
  0
ARC
  5
282EC
330
27F9F
100
AcDbEntity
  8
SUNPOU
100
AcDbCircle
 10
11110.34064133493
 20
6700.127478609063
 30
0.0
 40
5.625
100
AcDbArc
 50
90.0
 51
270.0
  0
ARC
  5
282ED
330
27F9F
100
AcDbEntity
  8
SUNPOU
100
AcDbCircle
 10
11110.34064133493
 20
6700.127478609063
 30
0.0
 40
5.625
100
AcDbArc
 50
270.0
 51
90.0
  0
ARC
  5
282EE
330
27F9F
100
AcDbEntity
  8
SUNPOU
100
AcDbCircle
 10
11110.34064133493
 20
6700.127478609063
 30
0.0
 40
5.625
100
AcDbArc
 50
270.0
 51
90.0
  0
ARC
  5
282EF
330
27F9F
100
AcDbEntity
  8
SUNPOU
100
AcDbCircle
 10
11110.34064133493
 20
6700.127478609063
 30
0.0
 40
5.625
100
AcDbArc
 50
90.0
 51
270.0
  0
ARC
  5
282F0
330
27F9F
100
AcDbEntity
  8
SUNPOU
100
AcDbCircle
 10
11110.34064133493
 20
6700.127478609063
 30
0.0
 40
5.625
100
AcDbArc
 50
270.0
 51
90.0
  0
ARC
  5
282F1
330
27F9F
100
AcDbEntity
  8
SUNPOU
100
AcDbCircle
 10
11110.34064133493
 20
6700.127478609063
 30
0.0
 40
5.625
100
AcDbArc
 50
90.0
 51
270.0
  0
ARC
  5
282F2
330
27F9F
100
AcDbEntity
  8
SUNPOU
100
AcDbCircle
 10
11320.34064133492
 20
8100.127478609062
 30
0.0
 40
5.625
100
AcDbArc
 50
270.0
 51
90.0
  0
ARC
  5
282F3
330
27F9F
100
AcDbEntity
  8
SUNPOU
100
AcDbCircle
 10
11320.34064133492
 20
8100.127478609062
 30
0.0
 40
5.625
100
AcDbArc
 50
90.0
 51
270.0
  0
ARC
  5
282F4
330
27F9F
100
AcDbEntity
  8
SUNPOU
100
AcDbCircle
 10
11110.34064133493
 20
8100.127478609062
 30
0.0
 40
5.625
100
AcDbArc
 50
270.0
 51
90.0
  0
ARC
  5
282F5
330
27F9F
100
AcDbEntity
  8
SUNPOU
100
AcDbCircle
 10
11110.34064133493
 20
8100.127478609062
 30
0.0
 40
5.625
100
AcDbArc
 50
90.0
 51
270.0
  0
TEXT
  5
282F6
330
27F9F
100
AcDbEntity
  8
SUNPOU
100
AcDbText
 10
1405.036707340869
 20
941.7125251995903
 30
0.0
 40
90.0
  1
900 □
 41
0.6666666666666666
  7
00
100
AcDbText
  0
LINE
  5
282F7
330
27F9F
100
AcDbEntity
  8
SUNPOU
100
AcDbLine
 10
2212.786707340868
 20
896.7125251995904
 30
0.0
 11
2201.536707340868
 21
896.7125251995904
 31
0.0
  0
LINE
  5
282F8
330
27F9F
100
AcDbEntity
  8
SUNPOU
100
AcDbLine
 10
885.2867073408686
 20
896.7125251995904
 30
0.0
 11
896.5367073408687
 21
896.7125251995904
 31
0.0
  0
TEXT
  5
282F9
330
27F9F
100
AcDbEntity
  8
SUNPOU
100
AcDbText
 10
1405.036707340869
 20
1151.712525199589
 30
0.0
 40
90.0
  1
700 □
 41
0.6666666666666666
  7
00
100
AcDbText
  0
LINE
  5
282FA
330
27F9F
100
AcDbEntity
  8
SUNPOU
100
AcDbLine
 10
2062.786707340868
 20
1106.712525199589
 30
0.0
 11
2051.536707340869
 21
1106.712525199589
 31
0.0
  0
LINE
  5
282FB
330
27F9F
100
AcDbEntity
  8
SUNPOU
100
AcDbLine
 10
1035.286707340869
 20
1106.712525199589
 30
0.0
 11
1046.536707340869
 21
1106.712525199589
 31
0.0
  0
TEXT
  5
282FC
330
27F9F
100
AcDbEntity
  8
SUNPOU
100
AcDbText
 10
3616.53670734087
 20
1875.998239485305
 30
0.0
 40
90.0
  1
500
 50
90.0
 41
0.6666666666666666
  7
00
100
AcDbText
  0
LINE
  5
282FD
330
27F9F
100
AcDbEntity
  8
SUNPOU
100
AcDbLine
 10
3661.536707340871
 20
1597.962525199592
 30
0.0
 11
3661.536707340871
 21
1609.21252519959
 31
0.0
  0
LINE
  5
282FE
330
27F9F
100
AcDbEntity
  8
SUNPOU
100
AcDbLine
 10
3661.536707340871
 20
2325.462525199592
 30
0.0
 11
3661.536707340871
 21
2314.212525199591
 31
0.0
  0
TEXT
  5
282FF
330
27F9F
100
AcDbEntity
  8
SUNPOU
100
AcDbText
 10
3616.53670734087
 20
1213.855382342448
 30
0.0
 40
90.0
  1
100
 50
90.0
 41
0.6666666666666666
  7
00
100
AcDbText
  0
LINE
  5
28300
330
27F9F
100
AcDbEntity
  8
SUNPOU
100
AcDbLine
 10
3661.536707340871
 20
1447.962525199591
 30
0.0
 11
3661.536707340871
 21
1459.212525199591
 31
0.0
  0
LINE
  5
28301
330
27F9F
100
AcDbEntity
  8
SUNPOU
100
AcDbLine
 10
3661.536707340871
 20
1575.462525199589
 30
0.0
 11
3661.536707340871
 21
1564.212525199589
 31
0.0
  0
ARC
  5
28302
330
27F9F
100
AcDbEntity
  8
SUNPOU
100
AcDbCircle
 10
3661.536707340871
 20
1586.712525199589
 30
0.0
 40
5.625
100
AcDbArc
 50
270.0
 51
90.0
  0
ARC
  5
28303
330
27F9F
100
AcDbEntity
  8
SUNPOU
100
AcDbCircle
 10
3661.536707340871
 20
1586.712525199589
 30
0.0
 40
5.625
100
AcDbArc
 50
90.0
 51
270.0
  0
ARC
  5
28304
330
27F9F
100
AcDbEntity
  8
SUNPOU
100
AcDbCircle
 10
3661.536707340871
 20
1436.712525199591
 30
0.0
 40
5.625
100
AcDbArc
 50
90.0
 51
270.0
  0
ARC
  5
28305
330
27F9F
100
AcDbEntity
  8
SUNPOU
100
AcDbCircle
 10
3661.536707340871
 20
1436.712525199591
 30
0.0
 40
5.625
100
AcDbArc
 50
270.0
 51
90.0
  0
ARC
  5
28306
330
27F9F
100
AcDbEntity
  8
SUNPOU
100
AcDbCircle
 10
3661.536707340871
 20
2336.712525199591
 30
0.0
 40
5.625
100
AcDbArc
 50
270.0
 51
90.0
  0
ARC
  5
28307
330
27F9F
100
AcDbEntity
  8
SUNPOU
100
AcDbCircle
 10
3661.536707340871
 20
2336.712525199591
 30
0.0
 40
5.625
100
AcDbArc
 50
90.0
 51
270.0
  0
ARC
  5
28308
330
27F9F
100
AcDbEntity
  8
SUNPOU
100
AcDbCircle
 10
3661.536707340871
 20
1586.712525199591
 30
0.0
 40
5.625
100
AcDbArc
 50
90.0
 51
270.0
  0
ARC
  5
28309
330
27F9F
100
AcDbEntity
  8
SUNPOU
100
AcDbCircle
 10
3661.536707340871
 20
1586.712525199591
 30
0.0
 40
5.625
100
AcDbArc
 50
270.0
 51
90.0
  0
ARC
  5
2830A
330
27F9F
100
AcDbEntity
  8
SUNPOU
100
AcDbCircle
 10
1024.036707340868
 20
1106.712525199589
 30
0.0
 40
5.625
100
AcDbArc
 50
0.0
 51
180.0
  0
ARC
  5
2830B
330
27F9F
100
AcDbEntity
  8
SUNPOU
100
AcDbCircle
 10
1024.036707340868
 20
1106.712525199589
 30
0.0
 40
5.625
100
AcDbArc
 50
180.0
 51
0.0
  0
ARC
  5
2830C
330
27F9F
100
AcDbEntity
  8
SUNPOU
100
AcDbCircle
 10
2074.036707340868
 20
1106.712525199589
 30
0.0
 40
5.625
100
AcDbArc
 50
180.0
 51
0.0
  0
ARC
  5
2830D
330
27F9F
100
AcDbEntity
  8
SUNPOU
100
AcDbCircle
 10
2074.036707340868
 20
1106.712525199589
 30
0.0
 40
5.625
100
AcDbArc
 50
0.0
 51
180.0
  0
ARC
  5
2830E
330
27F9F
100
AcDbEntity
  8
SUNPOU
100
AcDbCircle
 10
874.0367073408688
 20
896.7125251995904
 30
0.0
 40
5.625
100
AcDbArc
 50
0.0
 51
180.0
  0
ARC
  5
2830F
330
27F9F
100
AcDbEntity
  8
SUNPOU
100
AcDbCircle
 10
874.0367073408688
 20
896.7125251995904
 30
0.0
 40
5.625
100
AcDbArc
 50
180.0
 51
0.0
  0
ARC
  5
28310
330
27F9F
100
AcDbEntity
  8
SUNPOU
100
AcDbCircle
 10
2224.036707340868
 20
896.7125251995904
 30
0.0
 40
5.625
100
AcDbArc
 50
180.0
 51
0.0
  0
ARC
  5
28311
330
27F9F
100
AcDbEntity
  8
SUNPOU
100
AcDbCircle
 10
2224.036707340868
 20
896.7125251995904
 30
0.0
 40
5.625
100
AcDbArc
 50
0.0
 51
180.0
  0
CIRCLE
  5
28312
330
27F9F
100
AcDbEntity
  8
HIKIDASHI
100
AcDbCircle
 10
1549.036707340871
 20
1676.712525199588
 30
0.0
 40
9.0
  0
CIRCLE
  5
28313
330
27F9F
100
AcDbEntity
  8
HIKIDASHI
100
AcDbCircle
 10
1549.036707340871
 20
1616.712525199589
 30
0.0
 40
9.0
  0
ARC
  5
28314
330
27F9F
100
AcDbEntity
  8
HIKIDASHI
100
AcDbCircle
 10
1549.036707340871
 20
1616.712525199589
 30
0.0
 40
4.5
100
AcDbArc
 50
180.0
 51
0.0
  0
ARC
  5
28315
330
27F9F
100
AcDbEntity
  8
HIKIDASHI
100
AcDbCircle
 10
1549.036707340871
 20
1616.712525199589
 30
0.0
 40
4.5
100
AcDbArc
 50
0.0
 51
180.0
  0
ARC
  5
28316
330
27F9F
100
AcDbEntity
  8
HIKIDASHI
100
AcDbCircle
 10
1549.036707340871
 20
1676.712525199588
 30
0.0
 40
4.5
100
AcDbArc
 50
180.0
 51
0.0
  0
ARC
  5
28317
330
27F9F
100
AcDbEntity
  8
HIKIDASHI
100
AcDbCircle
 10
1549.036707340871
 20
1676.712525199588
 30
0.0
 40
4.5
100
AcDbArc
 50
0.0
 51
180.0
  0
LINE
  5
28318
330
27F9F
100
AcDbEntity
  8
HATCH
100
AcDbLine
 10
943.2354371516904
 20
1436.712525199586
 30
0.0
 11
1029.837977530134
 21
1586.712525199585
 31
0.0
  0
LINE
  5
28319
330
27F9F
100
AcDbEntity
  8
HATCH
100
AcDbLine
 10
969.8379775301345
 20
1586.712525199584
 30
0.0
 11
999.8379775301344
 21
1534.751000972522
 31
0.0
  0
LINE
  5
2831A
330
27F9F
100
AcDbEntity
  8
HATCH
100
AcDbLine
 10
973.2354371516903
 20
1488.674049426653
 30
0.0
 11
1003.23543715169
 21
1436.712525199586
 31
0.0
  0
LINE
  5
2831B
330
27F9F
100
AcDbEntity
  8
HATCH
100
AcDbLine
 10
1130.735437151687
 20
1436.712525199586
 30
0.0
 11
1217.337977530132
 21
1586.712525199585
 31
0.0
  0
LINE
  5
2831C
330
27F9F
100
AcDbEntity
  8
HATCH
100
AcDbLine
 10
1157.337977530133
 20
1586.712525199584
 30
0.0
 11
1187.337977530133
 21
1534.751000972522
 31
0.0
  0
LINE
  5
2831D
330
27F9F
100
AcDbEntity
  8
HATCH
100
AcDbLine
 10
1160.735437151687
 20
1488.674049426653
 30
0.0
 11
1190.735437151688
 21
1436.712525199586
 31
0.0
  0
LINE
  5
2831E
330
27F9F
100
AcDbEntity
  8
HATCH
100
AcDbLine
 10
2068.235437151691
 20
1436.712525199588
 30
0.0
 11
2154.837977530136
 21
1586.712525199588
 31
0.0
  0
LINE
  5
2831F
330
27F9F
100
AcDbEntity
  8
HATCH
100
AcDbLine
 10
2094.837977530136
 20
1586.712525199586
 30
0.0
 11
2124.837977530137
 21
1534.751000972524
 31
0.0
  0
LINE
  5
28320
330
27F9F
100
AcDbEntity
  8
HATCH
100
AcDbLine
 10
2098.235437151691
 20
1488.674049426656
 30
0.0
 11
2128.235437151691
 21
1436.712525199588
 31
0.0
  0
LINE
  5
28321
330
27F9F
100
AcDbEntity
  8
HATCH
100
AcDbLine
 10
1880.735437151692
 20
1436.712525199588
 30
0.0
 11
1967.337977530136
 21
1586.712525199588
 31
0.0
  0
LINE
  5
28322
330
27F9F
100
AcDbEntity
  8
HATCH
100
AcDbLine
 10
1907.337977530136
 20
1586.712525199586
 30
0.0
 11
1937.337977530136
 21
1534.751000972524
 31
0.0
  0
LINE
  5
28323
330
27F9F
100
AcDbEntity
  8
HATCH
100
AcDbLine
 10
1910.735437151691
 20
1488.674049426656
 30
0.0
 11
1940.735437151692
 21
1436.712525199588
 31
0.0
  0
LINE
  5
28324
330
27F9F
100
AcDbEntity
  8
HATCH
100
AcDbLine
 10
1505.73543715169
 20
1436.712525199588
 30
0.0
 11
1592.337977530134
 21
1586.712525199588
 31
0.0
  0
LINE
  5
28325
330
27F9F
100
AcDbEntity
  8
HATCH
100
AcDbLine
 10
1532.337977530134
 20
1586.712525199586
 30
0.0
 11
1562.337977530134
 21
1534.751000972524
 31
0.0
  0
LINE
  5
28326
330
27F9F
100
AcDbEntity
  8
HATCH
100
AcDbLine
 10
1535.73543715169
 20
1488.674049426656
 30
0.0
 11
1565.73543715169
 21
1436.712525199588
 31
0.0
  0
LINE
  5
28327
330
27F9F
100
AcDbEntity
  8
HATCH
100
AcDbLine
 10
1318.235437151688
 20
1436.712525199588
 30
0.0
 11
1404.837977530132
 21
1586.712525199588
 31
0.0
  0
LINE
  5
28328
330
27F9F
100
AcDbEntity
  8
HATCH
100
AcDbLine
 10
1344.837977530133
 20
1586.712525199586
 30
0.0
 11
1374.837977530133
 21
1534.751000972524
 31
0.0
  0
LINE
  5
28329
330
27F9F
100
AcDbEntity
  8
HATCH
100
AcDbLine
 10
1348.235437151688
 20
1488.674049426656
 30
0.0
 11
1378.235437151688
 21
1436.712525199588
 31
0.0
  0
LINE
  5
2832A
330
27F9F
100
AcDbEntity
  8
HATCH
100
AcDbLine
 10
1693.23543715169
 20
1436.712525199588
 30
0.0
 11
1779.837977530133
 21
1586.712525199588
 31
0.0
  0
LINE
  5
2832B
330
27F9F
100
AcDbEntity
  8
HATCH
100
AcDbLine
 10
1719.837977530134
 20
1586.712525199586
 30
0.0
 11
1749.837977530134
 21
1534.751000972524
 31
0.0
  0
LINE
  5
2832C
330
27F9F
100
AcDbEntity
  8
HATCH
100
AcDbLine
 10
1723.23543715169
 20
1488.674049426656
 30
0.0
 11
1753.23543715169
 21
1436.712525199588
 31
0.0
  0
LINE
  5
2832D
330
27F9F
100
AcDbEntity
  8
HATCH
100
AcDbLine
 10
3409.575183113921
 20
2111.712525199592
 30
0.0
 11
3461.53670734103
 21
2201.712525199669
 31
0.0
  0
LINE
  5
2832E
330
27F9F
100
AcDbEntity
  8
HATCH
100
AcDbLine
 10
3425.536707341001
 20
2201.712525199669
 30
0.0
 11
3443.536707341016
 21
2170.535610663404
 31
0.0
  0
LINE
  5
2832F
330
27F9F
100
AcDbEntity
  8
HATCH
100
AcDbLine
 10
3427.575183113936
 20
2142.889439735859
 30
0.0
 11
3445.57518311395
 21
2111.712525199592
 31
0.0
  0
LINE
  5
28330
330
27F9F
100
AcDbEntity
  8
HATCH
100
AcDbLine
 10
3274.575183113917
 20
2111.712525199592
 30
0.0
 11
3326.536707341027
 21
2201.712525199669
 31
0.0
  0
LINE
  5
28331
330
27F9F
100
AcDbEntity
  8
HATCH
100
AcDbLine
 10
3290.536707340997
 20
2201.712525199669
 30
0.0
 11
3308.536707341012
 21
2170.535610663404
 31
0.0
  0
LINE
  5
28332
330
27F9F
100
AcDbEntity
  8
HATCH
100
AcDbLine
 10
3292.575183113932
 20
2142.889439735859
 30
0.0
 11
3310.575183113947
 21
2111.712525199592
 31
0.0
  0
LINE
  5
28333
330
27F9F
100
AcDbEntity
  8
HATCH
100
AcDbLine
 10
3139.575183113919
 20
2111.712525199592
 30
0.0
 11
3191.536707341031
 21
2201.712525199669
 31
0.0
  0
LINE
  5
28334
330
27F9F
100
AcDbEntity
  8
HATCH
100
AcDbLine
 10
3155.536707341001
 20
2201.712525199669
 30
0.0
 11
3173.536707341016
 21
2170.535610663404
 31
0.0
  0
LINE
  5
28335
330
27F9F
100
AcDbEntity
  8
HATCH
100
AcDbLine
 10
3157.575183113936
 20
2142.889439735859
 30
0.0
 11
3175.57518311395
 21
2111.712525199592
 31
0.0
  0
LINE
  5
28336
330
27F9F
100
AcDbEntity
  8
HATCH
100
AcDbLine
 10
3004.575183113919
 20
2111.71252519959
 30
0.0
 11
3056.536707341031
 21
2201.712525199669
 31
0.0
  0
LINE
  5
28337
330
27F9F
100
AcDbEntity
  8
HATCH
100
AcDbLine
 10
3020.536707340999
 20
2201.712525199668
 30
0.0
 11
3038.536707341016
 21
2170.535610663403
 31
0.0
  0
LINE
  5
28338
330
27F9F
100
AcDbEntity
  8
HATCH
100
AcDbLine
 10
3022.575183113936
 20
2142.889439735859
 30
0.0
 11
3040.575183113951
 21
2111.71252519959
 31
0.0
  0
LINE
  5
28339
330
27F9F
100
AcDbEntity
  8
HATCH
100
AcDbLine
 10
2734.57518311392
 20
2111.71252519959
 30
0.0
 11
2786.53670734103
 21
2201.712525199669
 31
0.0
  0
LINE
  5
2833A
330
27F9F
100
AcDbEntity
  8
HATCH
100
AcDbLine
 10
2750.536707341
 20
2201.712525199668
 30
0.0
 11
2768.536707341016
 21
2170.535610663403
 31
0.0
  0
LINE
  5
2833B
330
27F9F
100
AcDbEntity
  8
HATCH
100
AcDbLine
 10
2752.575183113936
 20
2142.889439735859
 30
0.0
 11
2770.575183113951
 21
2111.71252519959
 31
0.0
  0
LINE
  5
2833C
330
27F9F
100
AcDbEntity
  8
HATCH
100
AcDbLine
 10
2464.57518311392
 20
2111.71252519959
 30
0.0
 11
2516.53670734103
 21
2201.712525199669
 31
0.0
  0
LINE
  5
2833D
330
27F9F
100
AcDbEntity
  8
HATCH
100
AcDbLine
 10
2480.536707341001
 20
2201.712525199668
 30
0.0
 11
2498.536707341016
 21
2170.535610663403
 31
0.0
  0
LINE
  5
2833E
330
27F9F
100
AcDbEntity
  8
HATCH
100
AcDbLine
 10
2482.575183113936
 20
2142.889439735859
 30
0.0
 11
2500.575183113951
 21
2111.71252519959
 31
0.0
  0
LINE
  5
2833F
330
27F9F
100
AcDbEntity
  8
HATCH
100
AcDbLine
 10
2599.57518311392
 20
2111.712525199592
 30
0.0
 11
2651.536707341032
 21
2201.712525199669
 31
0.0
  0
LINE
  5
28340
330
27F9F
100
AcDbEntity
  8
HATCH
100
AcDbLine
 10
2615.536707341
 20
2201.712525199669
 30
0.0
 11
2633.536707341016
 21
2170.535610663404
 31
0.0
  0
LINE
  5
28341
330
27F9F
100
AcDbEntity
  8
HATCH
100
AcDbLine
 10
2617.575183113935
 20
2142.889439735859
 30
0.0
 11
2635.575183113951
 21
2111.712525199592
 31
0.0
  0
LINE
  5
28342
330
27F9F
100
AcDbEntity
  8
HATCH
100
AcDbLine
 10
2194.57518311392
 20
2111.71252519959
 30
0.0
 11
2246.536707341031
 21
2201.712525199669
 31
0.0
  0
LINE
  5
28343
330
27F9F
100
AcDbEntity
  8
HATCH
100
AcDbLine
 10
2210.536707341
 20
2201.712525199668
 30
0.0
 11
2228.536707341016
 21
2170.535610663403
 31
0.0
  0
LINE
  5
28344
330
27F9F
100
AcDbEntity
  8
HATCH
100
AcDbLine
 10
2212.575183113935
 20
2142.889439735859
 30
0.0
 11
2230.575183113951
 21
2111.71252519959
 31
0.0
  0
LINE
  5
28345
330
27F9F
100
AcDbEntity
  8
HATCH
100
AcDbLine
 10
2074.036707340987
 20
2111.71252519959
 30
0.0
 11
2125.998231568098
 21
2201.712525199669
 31
0.0
  0
LINE
  5
28346
330
27F9F
100
AcDbEntity
  8
HATCH
100
AcDbLine
 10
2089.998231568066
 20
2201.712525199668
 30
0.0
 11
2107.998231568081
 21
2170.535610663403
 31
0.0
  0
LINE
  5
28347
330
27F9F
100
AcDbEntity
  8
HATCH
100
AcDbLine
 10
2092.036707341001
 20
2142.889439735859
 30
0.0
 11
2110.036707341018
 21
2111.71252519959
 31
0.0
  0
LINE
  5
28348
330
27F9F
100
AcDbEntity
  8
HATCH
100
AcDbLine
 10
2329.57518311392
 20
2111.71252519959
 30
0.0
 11
2381.53670734103
 21
2201.712525199669
 31
0.0
  0
LINE
  5
28349
330
27F9F
100
AcDbEntity
  8
HATCH
100
AcDbLine
 10
2345.536707341
 20
2201.712525199668
 30
0.0
 11
2363.536707341016
 21
2170.535610663403
 31
0.0
  0
LINE
  5
2834A
330
27F9F
100
AcDbEntity
  8
HATCH
100
AcDbLine
 10
2347.575183113935
 20
2142.889439735859
 30
0.0
 11
2365.575183113951
 21
2111.71252519959
 31
0.0
  0
LINE
  5
2834B
330
27F9F
100
AcDbEntity
  8
HATCH
100
AcDbLine
 10
956.5367073409829
 20
2111.712525199588
 30
0.0
 11
1008.498231568094
 21
2201.712525199664
 31
0.0
  0
LINE
  5
2834C
330
27F9F
100
AcDbEntity
  8
HATCH
100
AcDbLine
 10
972.4982315680632
 20
2201.712525199664
 30
0.0
 11
990.4982315680785
 21
2170.535610663399
 31
0.0
  0
LINE
  5
2834D
330
27F9F
100
AcDbEntity
  8
HATCH
100
AcDbLine
 10
974.5367073409983
 20
2142.889439735855
 30
0.0
 11
992.5367073410138
 21
2111.712525199588
 31
0.0
  0
LINE
  5
2834E
330
27F9F
100
AcDbEntity
  8
HATCH
100
AcDbLine
 10
2869.575183113919
 20
2111.712525199592
 30
0.0
 11
2921.536707341032
 21
2201.712525199669
 31
0.0
  0
LINE
  5
2834F
330
27F9F
100
AcDbEntity
  8
HATCH
100
AcDbLine
 10
2885.536707341
 20
2201.712525199669
 30
0.0
 11
2903.536707341016
 21
2170.535610663404
 31
0.0
  0
LINE
  5
28350
330
27F9F
100
AcDbEntity
  8
HATCH
100
AcDbLine
 10
2887.575183113936
 20
2142.889439735859
 30
0.0
 11
2905.575183113951
 21
2111.712525199592
 31
0.0
  0
LINE
  5
28351
330
27F9F
100
AcDbEntity
  8
HATCH
100
AcDbLine
 10
821.5367073409828
 20
2111.712525199588
 30
0.0
 11
873.4982315680941
 21
2201.712525199664
 31
0.0
  0
LINE
  5
28352
330
27F9F
100
AcDbEntity
  8
HATCH
100
AcDbLine
 10
837.4982315680631
 20
2201.712525199664
 30
0.0
 11
855.4982315680787
 21
2170.535610663399
 31
0.0
  0
LINE
  5
28353
330
27F9F
100
AcDbEntity
  8
HATCH
100
AcDbLine
 10
839.5367073409984
 20
2142.889439735855
 30
0.0
 11
857.5367073410138
 21
2111.712525199588
 31
0.0
  0
LINE
  5
28354
330
27F9F
100
AcDbEntity
  8
HATCH
100
AcDbLine
 10
686.5367073409828
 20
2111.712525199588
 30
0.0
 11
738.4982315680938
 21
2201.712525199664
 31
0.0
  0
LINE
  5
28355
330
27F9F
100
AcDbEntity
  8
HATCH
100
AcDbLine
 10
702.4982315680631
 20
2201.712525199664
 30
0.0
 11
720.4982315680784
 21
2170.535610663399
 31
0.0
  0
LINE
  5
28356
330
27F9F
100
AcDbEntity
  8
HATCH
100
AcDbLine
 10
704.5367073409984
 20
2142.889439735855
 30
0.0
 11
722.5367073410137
 21
2111.712525199588
 31
0.0
  0
LINE
  5
28357
330
27F9F
100
AcDbEntity
  8
HASHIRA
  6
Continuous
100
AcDbLine
 10
2982.840641334933
 20
6662.627478609064
 30
0.0
 11
2917.840641334933
 21
6662.627478609064
 31
0.0
  0
LINE
  5
28358
330
27F9F
100
AcDbEntity
  8
HASHIRA
  6
Continuous
100
AcDbLine
 10
2917.840641334933
 20
6662.627478609064
 30
0.0
 11
2917.840641334933
 21
6737.627478609063
 31
0.0
  0
LINE
  5
28359
330
27F9F
100
AcDbEntity
  8
HASHIRA
  6
Continuous
100
AcDbLine
 10
2917.840641334933
 20
6737.627478609063
 30
0.0
 11
2982.840641334933
 21
6737.627478609063
 31
0.0
  0
LINE
  5
2835A
330
27F9F
100
AcDbEntity
  8
HASHIRA
  6
Continuous
100
AcDbLine
 10
2982.840641334933
 20
6737.627478609063
 30
0.0
 11
2982.840641334933
 21
6662.627478609064
 31
0.0
  0
LINE
  5
2835B
330
27F9F
100
AcDbEntity
  8
U2
100
AcDbLine
 10
2600.340641334933
 20
6350.127478609064
 30
0.0
 11
3300.340641334933
 21
6350.127478609064
 31
0.0
  0
LINE
  5
2835C
330
27F9F
100
AcDbEntity
  8
U2
100
AcDbLine
 10
3300.340641334933
 20
6350.127478609064
 30
0.0
 11
3300.340641334933
 21
7050.127478609063
 31
0.0
  0
LINE
  5
2835D
330
27F9F
100
AcDbEntity
  8
U2
100
AcDbLine
 10
3300.340641334933
 20
7050.127478609063
 30
0.0
 11
2600.340641334933
 21
7050.127478609063
 31
0.0
  0
LINE
  5
2835E
330
27F9F
100
AcDbEntity
  8
U2
100
AcDbLine
 10
2600.340641334933
 20
7050.127478609063
 30
0.0
 11
2600.340641334933
 21
6350.127478609064
 31
0.0
  0
LINE
  5
2835F
330
27F9F
100
AcDbEntity
  8
HASHIRA
  6
Continuous
100
AcDbLine
 10
2982.840641334933
 20
4602.627478609064
 30
0.0
 11
2917.840641334933
 21
4602.627478609064
 31
0.0
  0
LINE
  5
28360
330
27F9F
100
AcDbEntity
  8
HASHIRA
  6
Continuous
100
AcDbLine
 10
2917.840641334933
 20
4602.627478609064
 30
0.0
 11
2917.840641334933
 21
4677.627478609063
 31
0.0
  0
LINE
  5
28361
330
27F9F
100
AcDbEntity
  8
HASHIRA
  6
Continuous
100
AcDbLine
 10
2917.840641334933
 20
4677.627478609063
 30
0.0
 11
2982.840641334933
 21
4677.627478609063
 31
0.0
  0
LINE
  5
28362
330
27F9F
100
AcDbEntity
  8
HASHIRA
  6
Continuous
100
AcDbLine
 10
2982.840641334933
 20
4677.627478609063
 30
0.0
 11
2982.840641334933
 21
4602.627478609064
 31
0.0
  0
LINE
  5
28363
330
27F9F
100
AcDbEntity
  8
U2
100
AcDbLine
 10
2600.340641334933
 20
4290.127478609064
 30
0.0
 11
3300.340641334933
 21
4290.127478609064
 31
0.0
  0
LINE
  5
28364
330
27F9F
100
AcDbEntity
  8
U2
100
AcDbLine
 10
3300.340641334933
 20
4290.127478609064
 30
0.0
 11
3300.340641334933
 21
4990.127478609064
 31
0.0
  0
LINE
  5
28365
330
27F9F
100
AcDbEntity
  8
U2
100
AcDbLine
 10
3300.340641334933
 20
4990.127478609064
 30
0.0
 11
2600.340641334933
 21
4990.127478609064
 31
0.0
  0
LINE
  5
28366
330
27F9F
100
AcDbEntity
  8
U2
100
AcDbLine
 10
2600.340641334933
 20
4990.127478609064
 30
0.0
 11
2600.340641334933
 21
4290.127478609064
 31
0.0
  0
LINE
  5
28367
330
27F9F
100
AcDbEntity
  8
HASHIRA
  6
Continuous
100
AcDbLine
 10
5782.840641334935
 20
6662.627478609064
 30
0.0
 11
5717.840641334936
 21
6662.627478609064
 31
0.0
  0
LINE
  5
28368
330
27F9F
100
AcDbEntity
  8
HASHIRA
  6
Continuous
100
AcDbLine
 10
5717.840641334936
 20
6662.627478609064
 30
0.0
 11
5717.840641334936
 21
6737.627478609063
 31
0.0
  0
LINE
  5
28369
330
27F9F
100
AcDbEntity
  8
HASHIRA
  6
Continuous
100
AcDbLine
 10
5717.840641334936
 20
6737.627478609063
 30
0.0
 11
5782.840641334935
 21
6737.627478609063
 31
0.0
  0
LINE
  5
2836A
330
27F9F
100
AcDbEntity
  8
HASHIRA
  6
Continuous
100
AcDbLine
 10
5782.840641334935
 20
6737.627478609063
 30
0.0
 11
5782.840641334935
 21
6662.627478609064
 31
0.0
  0
LINE
  5
2836B
330
27F9F
100
AcDbEntity
  8
U2
100
AcDbLine
 10
5400.340641334936
 20
6350.127478609064
 30
0.0
 11
6100.340641334937
 21
6350.127478609064
 31
0.0
  0
LINE
  5
2836C
330
27F9F
100
AcDbEntity
  8
U2
100
AcDbLine
 10
6100.340641334937
 20
6350.127478609064
 30
0.0
 11
6100.340641334937
 21
7050.127478609063
 31
0.0
  0
LINE
  5
2836D
330
27F9F
100
AcDbEntity
  8
U2
100
AcDbLine
 10
6100.340641334937
 20
7050.127478609063
 30
0.0
 11
5400.340641334936
 21
7050.127478609063
 31
0.0
  0
LINE
  5
2836E
330
27F9F
100
AcDbEntity
  8
U2
100
AcDbLine
 10
5400.340641334936
 20
7050.127478609063
 30
0.0
 11
5400.340641334936
 21
6350.127478609064
 31
0.0
  0
LINE
  5
2836F
330
27F9F
100
AcDbEntity
  8
HASHIRA
  6
Continuous
100
AcDbLine
 10
5782.840641334935
 20
4602.627478609064
 30
0.0
 11
5717.840641334936
 21
4602.627478609064
 31
0.0
  0
LINE
  5
28370
330
27F9F
100
AcDbEntity
  8
HASHIRA
  6
Continuous
100
AcDbLine
 10
5717.840641334936
 20
4602.627478609064
 30
0.0
 11
5717.840641334936
 21
4677.627478609063
 31
0.0
  0
LINE
  5
28371
330
27F9F
100
AcDbEntity
  8
HASHIRA
  6
Continuous
100
AcDbLine
 10
5717.840641334936
 20
4677.627478609063
 30
0.0
 11
5782.840641334935
 21
4677.627478609063
 31
0.0
  0
LINE
  5
28372
330
27F9F
100
AcDbEntity
  8
HASHIRA
  6
Continuous
100
AcDbLine
 10
5782.840641334935
 20
4677.627478609063
 30
0.0
 11
5782.840641334935
 21
4602.627478609064
 31
0.0
  0
LINE
  5
28373
330
27F9F
100
AcDbEntity
  8
U2
100
AcDbLine
 10
5400.340641334936
 20
4290.127478609064
 30
0.0
 11
6100.340641334937
 21
4290.127478609064
 31
0.0
  0
LINE
  5
28374
330
27F9F
100
AcDbEntity
  8
U2
100
AcDbLine
 10
6100.340641334937
 20
4290.127478609064
 30
0.0
 11
6100.340641334937
 21
4990.127478609064
 31
0.0
  0
LINE
  5
28375
330
27F9F
100
AcDbEntity
  8
U2
100
AcDbLine
 10
6100.340641334937
 20
4990.127478609064
 30
0.0
 11
5400.340641334936
 21
4990.127478609064
 31
0.0
  0
LINE
  5
28376
330
27F9F
100
AcDbEntity
  8
U2
100
AcDbLine
 10
5400.340641334936
 20
4990.127478609064
 30
0.0
 11
5400.340641334936
 21
4290.127478609064
 31
0.0
  0
LINE
  5
28377
330
27F9F
100
AcDbEntity
  8
HASHIRA
  6
Continuous
100
AcDbLine
 10
7482.840641334934
 20
6662.627478609064
 30
0.0
 11
7417.840641334937
 21
6662.627478609064
 31
0.0
  0
LINE
  5
28378
330
27F9F
100
AcDbEntity
  8
HASHIRA
  6
Continuous
100
AcDbLine
 10
7417.840641334937
 20
6662.627478609064
 30
0.0
 11
7417.840641334937
 21
6737.627478609063
 31
0.0
  0
LINE
  5
28379
330
27F9F
100
AcDbEntity
  8
HASHIRA
  6
Continuous
100
AcDbLine
 10
7417.840641334937
 20
6737.627478609063
 30
0.0
 11
7482.840641334934
 21
6737.627478609063
 31
0.0
  0
LINE
  5
2837A
330
27F9F
100
AcDbEntity
  8
HASHIRA
  6
Continuous
100
AcDbLine
 10
7482.840641334934
 20
6737.627478609063
 30
0.0
 11
7482.840641334934
 21
6662.627478609064
 31
0.0
  0
LINE
  5
2837B
330
27F9F
100
AcDbEntity
  8
HASHIRA
  6
Continuous
100
AcDbLine
 10
7482.840641334934
 20
4602.627478609064
 30
0.0
 11
7417.840641334937
 21
4602.627478609064
 31
0.0
  0
LINE
  5
2837C
330
27F9F
100
AcDbEntity
  8
HASHIRA
  6
Continuous
100
AcDbLine
 10
7417.840641334937
 20
4602.627478609064
 30
0.0
 11
7417.840641334937
 21
4677.627478609063
 31
0.0
  0
LINE
  5
2837D
330
27F9F
100
AcDbEntity
  8
HASHIRA
  6
Continuous
100
AcDbLine
 10
7417.840641334937
 20
4677.627478609063
 30
0.0
 11
7482.840641334934
 21
4677.627478609063
 31
0.0
  0
LINE
  5
2837E
330
27F9F
100
AcDbEntity
  8
HASHIRA
  6
Continuous
100
AcDbLine
 10
7482.840641334934
 20
4677.627478609063
 30
0.0
 11
7482.840641334934
 21
4602.627478609064
 31
0.0
  0
LINE
  5
2837F
330
27F9F
100
AcDbEntity
  8
U2
100
AcDbLine
 10
7100.340641334935
 20
4290.127478609064
 30
0.0
 11
7800.340641334933
 21
4290.127478609064
 31
0.0
  0
LINE
  5
28380
330
27F9F
100
AcDbEntity
  8
U2
100
AcDbLine
 10
7800.340641334933
 20
4290.127478609064
 30
0.0
 11
7800.340641334933
 21
4990.127478609064
 31
0.0
  0
LINE
  5
28381
330
27F9F
100
AcDbEntity
  8
U2
100
AcDbLine
 10
7800.340641334933
 20
4990.127478609064
 30
0.0
 11
7100.340641334935
 21
4990.127478609064
 31
0.0
  0
LINE
  5
28382
330
27F9F
100
AcDbEntity
  8
U2
100
AcDbLine
 10
7100.340641334935
 20
4990.127478609064
 30
0.0
 11
7100.340641334935
 21
4290.127478609064
 31
0.0
  0
LINE
  5
28383
330
27F9F
100
AcDbEntity
  8
U2
100
AcDbLine
 10
7100.340641334935
 20
6350.127478609064
 30
0.0
 11
7800.340641334933
 21
6350.127478609064
 31
0.0
  0
LINE
  5
28384
330
27F9F
100
AcDbEntity
  8
U2
100
AcDbLine
 10
7800.340641334933
 20
6350.127478609064
 30
0.0
 11
7800.340641334933
 21
7050.127478609063
 31
0.0
  0
LINE
  5
28385
330
27F9F
100
AcDbEntity
  8
U2
100
AcDbLine
 10
7800.340641334933
 20
7050.127478609063
 30
0.0
 11
7100.340641334935
 21
7050.127478609063
 31
0.0
  0
LINE
  5
28386
330
27F9F
100
AcDbEntity
  8
U2
100
AcDbLine
 10
7100.340641334935
 20
7050.127478609063
 30
0.0
 11
7100.340641334935
 21
6350.127478609064
 31
0.0
  0
LINE
  5
28387
330
27F9F
100
AcDbEntity
  8
HASHIRA
  6
Continuous
100
AcDbLine
 10
10282.84064133492
 20
6662.627478609064
 30
0.0
 11
10217.84064133492
 21
6662.627478609064
 31
0.0
  0
LINE
  5
28388
330
27F9F
100
AcDbEntity
  8
HASHIRA
  6
Continuous
100
AcDbLine
 10
10217.84064133492
 20
6662.627478609064
 30
0.0
 11
10217.84064133492
 21
6737.627478609063
 31
0.0
  0
LINE
  5
28389
330
27F9F
100
AcDbEntity
  8
HASHIRA
  6
Continuous
100
AcDbLine
 10
10217.84064133492
 20
6737.627478609063
 30
0.0
 11
10282.84064133492
 21
6737.627478609063
 31
0.0
  0
LINE
  5
2838A
330
27F9F
100
AcDbEntity
  8
HASHIRA
  6
Continuous
100
AcDbLine
 10
10282.84064133492
 20
6737.627478609063
 30
0.0
 11
10282.84064133492
 21
6662.627478609064
 31
0.0
  0
LINE
  5
2838B
330
27F9F
100
AcDbEntity
  8
U2
100
AcDbLine
 10
9900.340641334935
 20
6350.127478609064
 30
0.0
 11
10600.34064133492
 21
6350.127478609064
 31
0.0
  0
LINE
  5
2838C
330
27F9F
100
AcDbEntity
  8
U2
100
AcDbLine
 10
10600.34064133492
 20
6350.127478609064
 30
0.0
 11
10600.34064133492
 21
7050.127478609063
 31
0.0
  0
LINE
  5
2838D
330
27F9F
100
AcDbEntity
  8
U2
100
AcDbLine
 10
10600.34064133492
 20
7050.127478609063
 30
0.0
 11
9900.340641334935
 21
7050.127478609063
 31
0.0
  0
LINE
  5
2838E
330
27F9F
100
AcDbEntity
  8
U2
100
AcDbLine
 10
9900.340641334935
 20
7050.127478609063
 30
0.0
 11
9900.340641334935
 21
6350.127478609064
 31
0.0
  0
LINE
  5
2838F
330
27F9F
100
AcDbEntity
  8
HASHIRA
  6
Continuous
100
AcDbLine
 10
10282.84064133492
 20
4602.627478609064
 30
0.0
 11
10217.84064133492
 21
4602.627478609064
 31
0.0
  0
LINE
  5
28390
330
27F9F
100
AcDbEntity
  8
HASHIRA
  6
Continuous
100
AcDbLine
 10
10217.84064133492
 20
4602.627478609064
 30
0.0
 11
10217.84064133492
 21
4677.627478609063
 31
0.0
  0
LINE
  5
28391
330
27F9F
100
AcDbEntity
  8
HASHIRA
  6
Continuous
100
AcDbLine
 10
10217.84064133492
 20
4677.627478609063
 30
0.0
 11
10282.84064133492
 21
4677.627478609063
 31
0.0
  0
LINE
  5
28392
330
27F9F
100
AcDbEntity
  8
HASHIRA
  6
Continuous
100
AcDbLine
 10
10282.84064133492
 20
4677.627478609063
 30
0.0
 11
10282.84064133492
 21
4602.627478609064
 31
0.0
  0
LINE
  5
28393
330
27F9F
100
AcDbEntity
  8
U2
100
AcDbLine
 10
9900.340641334935
 20
4290.127478609064
 30
0.0
 11
10600.34064133492
 21
4290.127478609064
 31
0.0
  0
LINE
  5
28394
330
27F9F
100
AcDbEntity
  8
U2
100
AcDbLine
 10
10600.34064133492
 20
4290.127478609064
 30
0.0
 11
10600.34064133492
 21
4990.127478609064
 31
0.0
  0
LINE
  5
28395
330
27F9F
100
AcDbEntity
  8
U2
100
AcDbLine
 10
10600.34064133492
 20
4990.127478609064
 30
0.0
 11
9900.340641334935
 21
4990.127478609064
 31
0.0
  0
LINE
  5
28396
330
27F9F
100
AcDbEntity
  8
U2
100
AcDbLine
 10
9900.340641334935
 20
4990.127478609064
 30
0.0
 11
9900.340641334935
 21
4290.127478609064
 31
0.0
  0
TEXT
  5
283B8
330
27F9F
100
AcDbEntity
  8
SUNPOU
100
AcDbText
 10
4616.002589179537
 20
637.4256686874002
 30
0.0
 40
90.0
  1
その他現地の実情にあわせて設計して下さい。
  7
01
100
AcDbText
  0
TEXT
  5
283B9
330
27F9F
100
AcDbEntity
  8
SUNPOU
100
AcDbText
 10
4616.002589179537
 20
945.9970972588294
 30
0.0
 40
90.0
  1
寒冷地の場合、凍結深度等を考慮し、実情に
  7
01
100
AcDbText
  0
TEXT
  5
283BA
330
27F9F
100
AcDbEntity
  8
SUNPOU
100
AcDbText
 10
4307.016366287647
 20
1289.535610929063
 30
0.0
 40
89.9993750043402
  1
地耐力   　　　 以上,コンクリート設計基準強度　　　　　以上
  7
01
100
AcDbText
  0
TEXT
  5
283BB
330
27F9F
100
AcDbEntity
  8
SUNPOU
100
AcDbText
 10
4299.1629238774
 20
637.4256686874002
 30
0.0
 40
90.0
  1
注　）
  7
01
100
AcDbText
  0
TEXT
  5
283BC
330
27F9F
100
AcDbEntity
  8
SUNPOU
100
AcDbText
 10
4299.1629238774
 20
945.9970972588294
 30
0.0
 40
90.0
  1
注　）
  7
01
100
AcDbText
  0
TEXT
  5
283BD
330
27F9F
100
AcDbEntity
  8
SUNPOU
100
AcDbText
 10
4176.452737571414
 20
1478.789613375018
 30
0.0
 40
90.0
  1
<下記条件での参考図>
  7
01
 72
     4
 11
4765.309880428557
 21
1523.789613375018
 31
0.0
100
AcDbText
  0
TEXT
  5
283BE
330
27F9F
100
AcDbEntity
  8
SUNPOU
100
AcDbText
 10
4307.016366287647
 20
1135.24989664335
 30
0.0
 40
89.9993750043402
  1
基準風速   　　 , 地表面粗度区分
  7
01
100
AcDbText
  0
ARC
  5
283BF
330
27F9F
100
AcDbEntity
  8
SUNPOU
100
AcDbCircle
 10
4459.974640194847
 20
1253.323034370895
 30
0.0
 40
225.0
100
AcDbArc
 50
148.347272528265
 51
211.6527274717349
  0
TEXT
  5
283C0
330
27F9F
100
AcDbEntity
  8
SUNPOU
100
AcDbText
 10
4616.002589179537
 20
791.7113829731113
 30
0.0
 40
90.0
  1
あわせて設計して下さい。
  7
01
100
AcDbText
  0
TEXT
  5
283C1
330
27F9F
100
AcDbEntity
  8
SUNPOU
100
AcDbText
 10
4409.79684409014
 20
945.9970972588294
 30
0.0
 40
90.0
  1
1
 41
0.6700000000000001
  7
01
100
AcDbText
  0
TEXT
  5
283C2
330
27F9F
100
AcDbEntity
  8
SUNPOU
100
AcDbText
 10
4409.79684409014
 20
637.4256686874002
 30
0.0
 40
90.0
  1
2
 41
0.6700000000000001
  7
01
100
AcDbText
  0
TEXT
  5
283C3
330
27F9F
100
AcDbEntity
  8
SUNPOU
100
AcDbText
 10
4817.111226498671
 20
1289.535610929063
 30
0.0
 40
71.99950000347218
  1
K
 41
0.6700000000000001
  7
01
100
AcDbText
  0
TEXT
  5
283C4
330
27F9F
100
AcDbEntity
  8
SUNPOU
100
AcDbText
 10
4681.27477371272
 20
1289.535610929063
 30
0.0
 40
89.9993750043402
  1
50  N/m
 41
0.6700000000000001
  7
01
100
AcDbText
  0
TEXT
  5
283C5
330
27F9F
100
AcDbEntity
  8
SUNPOU
100
AcDbText
 10
4790.77979495281
 20
1135.24989664335
 30
0.0
 40
89.9993750043402
  1
34 m/s
 41
0.6700000000000001
  7
01
100
AcDbText
  0
TEXT
  5
283C6
330
27F9F
100
AcDbEntity
  8
SUNPOU
100
AcDbText
 10
5084.75138322707
 20
1339.724037286549
 30
0.0
 40
46.28539285937498
  1
2
 41
0.6700000000000001
  7
00
100
AcDbText
  0
LINE
  5
283C7
330
27F9F
100
AcDbEntity
  8
SUNPOU
100
AcDbLine
 10
6143.831927854251
 20
1135.24989664335
 30
0.0
 11
6143.831927854251
 21
1218.742260342131
 31
0.0
  0
LINE
  5
283C8
330
27F9F
100
AcDbEntity
  8
SUNPOU
100
AcDbLine
 10
6126.956927854251
 20
1135.24989664335
 30
0.0
 11
6126.956927854251
 21
1218.742260342131
 31
0.0
  0
LINE
  5
283C9
330
27F9F
100
AcDbEntity
  8
SUNPOU
100
AcDbLine
 10
6110.081927854252
 20
1135.24989664335
 30
0.0
 11
6110.081927854252
 21
1218.742260342131
 31
0.0
  0
LINE
  5
283CA
330
27F9F
100
AcDbEntity
  8
SUNPOU
100
AcDbLine
 10
6098.831927854251
 20
1135.249896643349
 30
0.0
 11
6155.081927854253
 21
1135.249896643349
 31
0.0
  0
LINE
  5
283CB
330
27F9F
100
AcDbEntity
  8
SUNPOU
100
AcDbLine
 10
6098.831927854251
 20
1218.742260342131
 30
0.0
 11
6155.081927854253
 21
1218.742260342131
 31
0.0
  0
TEXT
  5
283CC
330
27F9F
100
AcDbEntity
  8
SUNPOU
100
AcDbText
 10
4234.805711023452
 20
1720.451165491002
 30
0.0
 40
120.0
  1
基礎断面図
  7
01
 72
     4
 11
4574.805711023452
 21
1780.451165491002
 31
0.0
100
AcDbText
  0
TEXT
  5
283CD
330
27F9F
100
AcDbEntity
  8
SUNPOU
100
AcDbText
 10
5319.764877554875
 20
1730.297319337157
 30
0.0
 40
73.84615384615381
  1
/
 41
0.6700000000000001
  7
00
 11
5319.764877554875
 21
1720.451165491003
 31
0.0
100
AcDbText
 73
     1
  0
TEXT
  5
283CE
330
27F9F
100
AcDbEntity
  8
SUNPOU
100
AcDbText
 10
4951.656048386427
 20
1732.758857798696
 30
0.0
 40
92.30769230769228
  1
（ S = 　　  ）
 41
0.6700000000000001
  7
00
 11
4951.656048386427
 21
1720.451165491003
 31
0.0
100
AcDbText
 73
     1
  0
TEXT
  5
283CF
330
27F9F
100
AcDbEntity
  8
SUNPOU
100
AcDbText
 10
5271.358750239507
 20
1748.758857798693
 30
0.0
 40
73.84615384615381
  1
1
 41
0.6700000000000001
  7
00
 11
5271.358750239507
 21
1738.912703952539
 31
0.0
100
AcDbText
 73
     1
  0
TEXT
  5
283D0
330
27F9F
100
AcDbEntity
  8
SUNPOU
100
AcDbText
 10
5383.714320509245
 20
1711.835780875615
 30
0.0
 40
73.84615384615381
  1
20
 41
0.6700000000000001
  7
00
 11
5383.714320509245
 21
1701.989627029461
 31
0.0
100
AcDbText
 73
     1
  0
TEXT
  5
283D1
330
27F9F
100
AcDbEntity
  8
SUNPOU
100
AcDbText
 10
6726.026844574359
 20
1289.535610929063
 30
0.0
 40
89.9993750043402
  1
18
 41
0.6700000000000001
  7
01
100
AcDbText
  0
TEXT
  5
283D2
330
27F9F
100
AcDbEntity
  8
SUNPOU
100
AcDbText
 10
6861.86329736031
 20
1289.535610929063
 30
0.0
 40
89.9993750043402
  1
N/mm
 41
0.6700000000000001
  7
01
100
AcDbText
  0
TEXT
  5
283D3
330
27F9F
100
AcDbEntity
  8
SUNPOU
100
AcDbText
 10
7166.327779391711
 20
1339.724037286549
 30
0.0
 40
46.28539285937498
  1
2
 41
0.6700000000000001
  7
00
100
AcDbText
  0
ARC
  5
283D4
330
27F9F
100
AcDbEntity
  8
SUNPOU
100
AcDbCircle
 10
7315.205043925328
 20
1275.807315156684
 30
0.0
 40
225.0
100
AcDbArc
 50
328.347272528265
 51
31.65272747173496
  0
ENDSEC
  0
SECTION
  2
OBJECTS
  0
DICTIONARY
  5
27F8D
330
0
100
AcDbDictionary
281
     1
  3
ACAD_GROUP
350
27F8E
  3
ACAD_LAYOUT
350
27F9A
  3
ACAD_MLINESTYLE
350
27F97
  3
ACAD_PLOTSETTINGS
350
27F99
  3
ACAD_PLOTSTYLENAME
350
27F8F
  3
AcDbVariableDictionary
350
283D5
  0
DICTIONARY
  5
27F8E
102
{ACAD_REACTORS
330
27F8D
102
}
330
27F8D
100
AcDbDictionary
281
     1
  0
DICTIONARY
  5
27F9A
102
{ACAD_REACTORS
330
27F8D
102
}
330
27F8D
100
AcDbDictionary
281
     1
  3
Model
350
27FA2
  3
ﾚｲｱｳﾄ1
350
27F9E
  0
DICTIONARY
  5
27F97
102
{ACAD_REACTORS
330
27F8D
102
}
330
27F8D
100
AcDbDictionary
281
     1
  3
Standard
350
27F98
  0
DICTIONARY
  5
27F99
102
{ACAD_REACTORS
330
27F8D
102
}
330
27F8D
100
AcDbDictionary
281
     1
  0
ACDBDICTIONARYWDFLT
  5
27F8F
102
{ACAD_REACTORS
330
27F8D
102
}
330
27F8D
100
AcDbDictionary
281
     1
  3
Normal
350
27F90
100
AcDbDictionaryWithDefault
340
27F90
  0
DICTIONARY
  5
283D5
102
{ACAD_REACTORS
330
27F8D
102
}
330
27F8D
100
AcDbDictionary
281
     1
  3
DIMASSOC
350
283D6
  0
LAYOUT
  5
27FA2
102
{ACAD_REACTORS
330
27F9A
102
}
330
27F9A
100
AcDbPlotSettings
  1

  2
Muratec V-1200 Is@Web Printer
  4

  6

 40
0.0
 41
0.0
 42
0.0
 43
0.0
 44
0.0
 45
0.0
 46
0.0
 47
0.0
 48
0.0
 49
0.0
140
0.0
141
0.0
142
1.0
143
1.0
 70
  1712
 72
     0
 73
     0
 74
     0
  7

 75
     0
147
1.0
148
0.0
149
0.0
100
AcDbLayout
  1
Model
 70
     1
 71
     0
 10
0.0
 20
0.0
 11
12.0
 21
9.0
 12
0.0
 22
0.0
 32
0.0
 14
0.0
 24
0.0
 34
0.0
 15
0.0
 25
0.0
 35
0.0
146
0.0
 13
0.0
 23
0.0
 33
0.0
 16
1.0
 26
0.0
 36
0.0
 17
0.0
 27
1.0
 37
0.0
 76
     0
330
27F9F
  0
LAYOUT
  5
27F9E
102
{ACAD_REACTORS
330
27F9A
102
}
330
27F9A
100
AcDbPlotSettings
  1

  2
Muratec V-1200 Is@Web Printer
  4

  6

 40
0.0
 41
0.0
 42
0.0
 43
0.0
 44
0.0
 45
0.0
 46
0.0
 47
0.0
 48
0.0
 49
0.0
140
0.0
141
0.0
142
1.0
143
1.0
 70
   688
 72
     0
 73
     0
 74
     5
  7

 75
    16
147
1.0
148
0.0
149
0.0
100
AcDbLayout
  1
ﾚｲｱｳﾄ1
 70
     0
 71
     1
 10
0.0
 20
0.0
 11
12.0
 21
9.0
 12
0.0
 22
0.0
 32
0.0
 14
1.000000000000000E+20
 24
1.000000000000000E+20
 34
1.000000000000000E+20
 15
-1.000000000000000E+20
 25
-1.000000000000000E+20
 35
-1.000000000000000E+20
146
0.0
 13
0.0
 23
0.0
 33
0.0
 16
1.0
 26
0.0
 36
0.0
 17
0.0
 27
1.0
 37
0.0
 76
     0
330
27F9B
  0
MLINESTYLE
  5
27F98
102
{ACAD_REACTORS
330
27F97
102
}
330
27F97
100
AcDbMlineStyle
  2
STANDARD
 70
     0
  3

 62
   256
 51
90.0
 52
90.0
 71
     2
 49
0.5
 62
   256
  6
BYLAYER
 49
-0.5
 62
   256
  6
BYLAYER
  0
ACDBPLACEHOLDER
  5
27F90
102
{ACAD_REACTORS
330
27F8F
102
}
330
27F8F
  0
DICTIONARYVAR
  5
283D6
102
{ACAD_REACTORS
330
283D5
102
}
330
283D5
100
DictionaryVariables
280
     0
  1
1
  0
ENDSEC
  0
EOF
