  0
SECTION
  2
HEADER
  9
$ACADVER
  1
AC1015
  9
$ACADMAINTVER
 70
    13
  9
$DWGCODEPAGE
  3
ANSI_932
  9
$INSBASE
 10
267.0
 20
194.8999999999998
 30
0.0
  9
$EXTMIN
 10
325.4974662390304
 20
122.7681178119601
 30
-0.000000000000013
  9
$EXTMAX
 10
12286.99954069103
 20
8431.707478684501
 30
0.0000000000000023
  9
$LIMMIN
 10
0.0
 20
0.0
  9
$LIMMAX
 10
12600.0
 20
8910.0
  9
$ORTHOMODE
 70
     0
  9
$REGENMODE
 70
     1
  9
$FILLMODE
 70
     1
  9
$QTEXTMODE
 70
     0
  9
$MIRRTEXT
 70
     0
  9
$LTSCALE
 40
30.0
  9
$ATTMODE
 70
     1
  9
$TEXTSIZE
 40
0.2
  9
$TRACEWID
 40
0.05
  9
$TEXTSTYLE
  7
00
  9
$CLAYER
  8
SUNPOU
  9
$CELTYPE
  6
ByLayer
  9
$CECOLOR
 62
   256
  9
$CELTSCALE
 40
1.0
  9
$DISPSILH
 70
     0
  9
$DIMSCALE
 40
30.0
  9
$DIMASZ
 40
0.5
  9
$DIMEXO
 40
1.0
  9
$DIMDLI
 40
7.0
  9
$DIMRND
 40
0.0
  9
$DIMDLE
 40
3.0
  9
$DIMEXE
 40
1.5
  9
$DIMTP
 40
0.0
  9
$DIMTM
 40
0.0
  9
$DIMTXT
 40
3.0
  9
$DIMCEN
 40
0.0
  9
$DIMTSZ
 40
0.0
  9
$DIMTOL
 70
     0
  9
$DIMLIM
 70
     0
  9
$DIMTIH
 70
     0
  9
$DIMTOH
 70
     0
  9
$DIMSE1
 70
     0
  9
$DIMSE2
 70
     0
  9
$DIMTAD
 70
     1
  9
$DIMZIN
 70
     8
  9
$DIMBLK
  1
DOT
  9
$DIMASO
 70
     1
  9
$DIMSHO
 70
     0
  9
$DIMPOST
  1

  9
$DIMAPOST
  1

  9
$DIMALT
 70
     0
  9
$DIMALTD
 70
     2
  9
$DIMALTF
 40
25.4
  9
$DIMLFAC
 40
1.0
  9
$DIMTOFL
 70
     1
  9
$DIMTVP
 40
0.0
  9
$DIMTIX
 70
     0
  9
$DIMSOXD
 70
     0
  9
$DIMSAH
 70
     1
  9
$DIMBLK1
  1
DOT
  9
$DIMBLK2
  1
DOT
  9
$DIMSTYLE
  2
SUNPOU
  9
$DIMCLRD
 70
   256
  9
$DIMCLRE
 70
   256
  9
$DIMCLRT
 70
   256
  9
$DIMTFAC
 40
1.0
  9
$DIMGAP
 40
1.5
  9
$DIMJUST
 70
     0
  9
$DIMSD1
 70
     0
  9
$DIMSD2
 70
     0
  9
$DIMTOLJ
 70
     1
  9
$DIMTZIN
 70
     0
  9
$DIMALTZ
 70
     0
  9
$DIMALTTZ
 70
     0
  9
$DIMUPT
 70
     0
  9
$DIMDEC
 70
     4
  9
$DIMTDEC
 70
     4
  9
$DIMALTU
 70
     2
  9
$DIMALTTD
 70
     2
  9
$DIMTXSTY
  7
STANDARD
  9
$DIMAUNIT
 70
     0
  9
$DIMADEC
 70
     0
  9
$DIMALTRND
 40
0.0
  9
$DIMAZIN
 70
     0
  9
$DIMDSEP
 70
    46
  9
$DIMATFIT
 70
     3
  9
$DIMFRAC
 70
     0
  9
$DIMLDRBLK
  1
DOT
  9
$DIMLUNIT
 70
     2
  9
$DIMLWD
 70
    -2
  9
$DIMLWE
 70
    -2
  9
$DIMTMOVE
 70
     0
  9
$LUNITS
 70
     2
  9
$LUPREC
 70
     2
  9
$SKETCHINC
 40
0.1
  9
$FILLETRAD
 40
5.0
  9
$AUNITS
 70
     0
  9
$AUPREC
 70
     0
  9
$MENU
  1
A:\TIGER\MENU\TIGER
  9
$ELEVATION
 40
0.0
  9
$PELEVATION
 40
0.0
  9
$THICKNESS
 40
0.0
  9
$LIMCHECK
 70
     0
  9
$CHAMFERA
 40
0.0
  9
$CHAMFERB
 40
0.0
  9
$CHAMFERC
 40
0.0
  9
$CHAMFERD
 40
0.0
  9
$SKPOLY
 70
     0
  9
$TDCREATE
 40
2450266.571064815
  9
$TDUCREATE
 40
2450266.196064815
  9
$TDUPDATE
 40
2456330.561085243
  9
$TDUUPDATE
 40
2456330.186085243
  9
$TDINDWG
 40
0.2648766319
  9
$TDUSRTIMER
 40
0.2648764583
  9
$USRTIMER
 70
     1
  9
$ANGBASE
 50
0.0
  9
$ANGDIR
 70
     0
  9
$PDMODE
 70
     0
  9
$PDSIZE
 40
0.0
  9
$PLINEWID
 40
0.0
  9
$SPLFRAME
 70
     0
  9
$SPLINETYPE
 70
     6
  9
$SPLINESEGS
 70
     8
  9
$HANDSEED
  5
2B6F6
  9
$SURFTAB1
 70
     6
  9
$SURFTAB2
 70
     6
  9
$SURFTYPE
 70
     6
  9
$SURFU
 70
     6
  9
$SURFV
 70
     6
  9
$UCSBASE
  2

  9
$UCSNAME
  2

  9
$UCSORG
 10
0.0
 20
0.0
 30
0.0
  9
$UCSXDIR
 10
1.0
 20
0.0
 30
0.0
  9
$UCSYDIR
 10
0.0
 20
1.0
 30
0.0
  9
$UCSORTHOREF
  2

  9
$UCSORTHOVIEW
 70
     0
  9
$UCSORGTOP
 10
0.0
 20
0.0
 30
0.0
  9
$UCSORGBOTTOM
 10
0.0
 20
0.0
 30
0.0
  9
$UCSORGLEFT
 10
0.0
 20
0.0
 30
0.0
  9
$UCSORGRIGHT
 10
0.0
 20
0.0
 30
0.0
  9
$UCSORGFRONT
 10
0.0
 20
0.0
 30
0.0
  9
$UCSORGBACK
 10
0.0
 20
0.0
 30
0.0
  9
$PUCSBASE
  2

  9
$PUCSNAME
  2

  9
$PUCSORG
 10
0.0
 20
0.0
 30
0.0
  9
$PUCSXDIR
 10
1.0
 20
0.0
 30
0.0
  9
$PUCSYDIR
 10
0.0
 20
1.0
 30
0.0
  9
$PUCSORTHOREF
  2

  9
$PUCSORTHOVIEW
 70
     0
  9
$PUCSORGTOP
 10
0.0
 20
0.0
 30
0.0
  9
$PUCSORGBOTTOM
 10
0.0
 20
0.0
 30
0.0
  9
$PUCSORGLEFT
 10
0.0
 20
0.0
 30
0.0
  9
$PUCSORGRIGHT
 10
0.0
 20
0.0
 30
0.0
  9
$PUCSORGFRONT
 10
0.0
 20
0.0
 30
0.0
  9
$PUCSORGBACK
 10
0.0
 20
0.0
 30
0.0
  9
$USERI1
 70
     3
  9
$USERI2
 70
     0
  9
$USERI3
 70
     0
  9
$USERI4
 70
     0
  9
$USERI5
 70
  1103
  9
$USERR1
 40
0.0
  9
$USERR2
 40
1.0
  9
$USERR3
 40
0.0
  9
$USERR4
 40
0.0
  9
$USERR5
 40
0.0
  9
$WORLDVIEW
 70
     1
  9
$SHADEDGE
 70
     3
  9
$SHADEDIF
 70
    70
  9
$TILEMODE
 70
     1
  9
$MAXACTVP
 70
    16
  9
$PINSBASE
 10
0.0
 20
0.0
 30
0.0
  9
$PLIMCHECK
 70
     0
  9
$PEXTMIN
 10
1.000000000000000E+20
 20
1.000000000000000E+20
 30
1.000000000000000E+20
  9
$PEXTMAX
 10
-1.000000000000000E+20
 20
-1.000000000000000E+20
 30
-1.000000000000000E+20
  9
$PLIMMIN
 10
0.0
 20
0.0
  9
$PLIMMAX
 10
12.0
 20
9.0
  9
$UNITMODE
 70
     0
  9
$VISRETAIN
 70
     0
  9
$PLINEGEN
 70
     1
  9
$PSLTSCALE
 70
     0
  9
$TREEDEPTH
 70
  3020
  9
$CMLSTYLE
  2
Standard
  9
$CMLJUST
 70
     0
  9
$CMLSCALE
 40
1.0
  9
$PROXYGRAPHICS
 70
     1
  9
$MEASUREMENT
 70
     0
  9
$CELWEIGHT
370
    -1
  9
$ENDCAPS
280
     0
  9
$JOINSTYLE
280
     0
  9
$LWDISPLAY
290
     0
  9
$INSUNITS
 70
     0
  9
$HYPERLINKBASE
  1

  9
$STYLESHEET
  1

  9
$XEDIT
290
     1
  9
$CEPSNTYPE
380
     0
  9
$PSTYLEMODE
290
     1
  9
$FINGERPRINTGUID
  2
{7BDE7F33-52DA-4FF6-862D-E4C7B03E718C}
  9
$VERSIONGUID
  2
{258EBC81-6DC8-4CA1-9C53-825CB6EEA7B4}
  9
$EXTNAMES
290
     1
  9
$PSVPSCALE
 40
0.0
  9
$OLESTARTUP
290
     0
  0
ENDSEC
  0
SECTION
  2
CLASSES
  0
CLASS
  1
ACDBDICTIONARYWDFLT
  2
AcDbDictionaryWithDefault
  3
AutoCAD 2000
 90
        0
280
     0
281
     0
  0
CLASS
  1
ACDBPLACEHOLDER
  2
AcDbPlaceHolder
  3
AutoCAD 2000
 90
        0
280
     0
281
     0
  0
CLASS
  1
LAYOUT
  2
AcDbLayout
  3
AutoCAD 2000
 90
        0
280
     0
281
     0
  0
CLASS
  1
DICTIONARYVAR
  2
AcDbDictionaryVar
  3
AutoCAD 2000
 90
        0
280
     0
281
     0
  0
ENDSEC
  0
SECTION
  2
TABLES
  0
TABLE
  2
VPORT
  5
2B2C2
330
0
100
AcDbSymbolTable
 70
     2
  0
VPORT
  5
2B6F5
330
2B2C2
100
AcDbSymbolTableRecord
100
AcDbViewportTableRecord
  2
*Active
 70
     0
 10
0.0
 20
0.0
 11
1.0
 21
1.0
 12
6306.248503465031
 22
4277.23779824823
 13
0.0
 23
0.0
 14
1.0
 24
1.0
 15
0.0
 25
0.0
 16
0.0
 26
0.0
 36
1.0
 17
0.0
 27
0.0
 37
0.0
 40
8372.629037979738
 41
1.527918781725888
 42
50.0
 43
0.0
 44
0.0
 50
0.0
 51
0.0
 71
     0
 72
 10000
 73
     1
 74
     0
 75
     0
 76
     0
 77
     0
 78
     0
281
     0
 65
     1
110
0.0
120
0.0
130
0.0
111
1.0
121
0.0
131
0.0
112
0.0
122
1.0
132
0.0
 79
     0
146
0.0
  0
ENDTAB
  0
TABLE
  2
LTYPE
  5
2B2BF
330
0
100
AcDbSymbolTable
 70
     3
  0
LTYPE
  5
2B2CD
330
2B2BF
100
AcDbSymbolTableRecord
100
AcDbLinetypeTableRecord
  2
ByBlock
 70
     0
  3

 72
    65
 73
     0
 40
0.0
  0
LTYPE
  5
2B2CE
330
2B2BF
100
AcDbSymbolTableRecord
100
AcDbLinetypeTableRecord
  2
ByLayer
 70
     0
  3

 72
    65
 73
     0
 40
0.0
  0
LTYPE
  5
2B2CF
330
2B2BF
100
AcDbSymbolTableRecord
100
AcDbLinetypeTableRecord
  2
CONTINUOUS
 70
     0
  3
実線
 72
    65
 73
     0
 40
0.0
  0
LTYPE
  5
2B2DF
330
2B2BF
100
AcDbSymbolTableRecord
100
AcDbLinetypeTableRecord
  2
1PL-M
 70
     0
  3

 72
    65
 73
     4
 40
15.0
 49
12.0
 74
     0
 49
-1.0
 74
     0
 49
1.0
 74
     0
 49
-1.0
 74
     0
  0
LTYPE
  5
2B2E0
330
2B2BF
100
AcDbSymbolTableRecord
100
AcDbLinetypeTableRecord
  2
2PL-L
 70
     0
  3

 72
    65
 73
     6
 40
60.0
 49
50.0
 74
     0
 49
-2.0
 74
     0
 49
2.0
 74
     0
 49
-2.0
 74
     0
 49
2.0
 74
     0
 49
-2.0
 74
     0
  0
ENDTAB
  0
TABLE
  2
LAYER
  5
2B2BC
330
0
100
AcDbSymbolTable
 70
    16
  0
LAYER
  5
2B2CA
330
2B2BC
100
AcDbSymbolTableRecord
100
AcDbLayerTableRecord
  2
0
 70
     0
 62
     7
  6
CONTINUOUS
370
    -3
390
2B2C9
  0
LAYER
  5
2B2DC
330
2B2BC
100
AcDbSymbolTableRecord
100
AcDbLayerTableRecord
  2
SUNPOU
 70
     0
 62
     4
  6
CONTINUOUS
370
    -3
390
2B2C9
  0
LAYER
  5
2B2E1
330
2B2BC
100
AcDbSymbolTableRecord
100
AcDbLayerTableRecord
  2
U2
 70
     0
 62
     4
  6
CONTINUOUS
370
    -3
390
2B2C9
  0
LAYER
  5
2B2E2
330
2B2BC
100
AcDbSymbolTableRecord
100
AcDbLayerTableRecord
  2
U3
 70
     0
 62
     6
  6
CONTINUOUS
370
    -3
390
2B2C9
  0
LAYER
  5
2B2E3
330
2B2BC
100
AcDbSymbolTableRecord
100
AcDbLayerTableRecord
  2
HIKIDASHI
 70
     0
 62
     6
  6
CONTINUOUS
370
    -3
390
2B2C9
  0
LAYER
  5
2B2E4
330
2B2BC
100
AcDbSymbolTableRecord
100
AcDbLayerTableRecord
  2
1PL-M1
 70
     0
 62
     6
  6
1PL-M
370
    -3
390
2B2C9
  0
LAYER
  5
2B2E5
330
2B2BC
100
AcDbSymbolTableRecord
100
AcDbLayerTableRecord
  2
2PL-L2
 70
     0
 62
     1
  6
2PL-L
370
    -3
390
2B2C9
  0
LAYER
  5
2B2E6
330
2B2BC
100
AcDbSymbolTableRecord
100
AcDbLayerTableRecord
  2
KISO
 70
     0
 62
     2
  6
CONTINUOUS
370
    -3
390
2B2C9
  0
LAYER
  5
2B2E7
330
2B2BC
100
AcDbSymbolTableRecord
100
AcDbLayerTableRecord
  2
HATCH
 70
     0
 62
     1
  6
CONTINUOUS
370
    -3
390
2B2C9
  0
LAYER
  5
2B2E8
330
2B2BC
100
AcDbSymbolTableRecord
100
AcDbLayerTableRecord
  2
NAME
 70
     0
 62
    20
  6
CONTINUOUS
370
    -3
390
2B2C9
  0
LAYER
  5
2B2E9
330
2B2BC
100
AcDbSymbolTableRecord
100
AcDbLayerTableRecord
  2
FILENAME
 70
     0
 62
     7
  6
CONTINUOUS
370
    -3
390
2B2C9
  0
LAYER
  5
2B2EA
330
2B2BC
100
AcDbSymbolTableRecord
100
AcDbLayerTableRecord
  2
HASHIRA
 70
     0
 62
     3
  6
CONTINUOUS
370
    -3
390
2B2C9
  0
LAYER
  5
2B2EB
330
2B2BC
100
AcDbSymbolTableRecord
100
AcDbLayerTableRecord
  2
YODOROGO
 70
     0
 62
   130
  6
CONTINUOUS
370
    -3
390
2B2C9
  0
LAYER
  5
2B2EC
330
2B2BC
100
AcDbSymbolTableRecord
100
AcDbLayerTableRecord
  2
WAKUSEN-01
 70
     0
 62
    50
  6
CONTINUOUS
370
    -3
390
2B2C9
  0
LAYER
  5
2B2ED
330
2B2BC
100
AcDbSymbolTableRecord
100
AcDbLayerTableRecord
  2
WAKUSEN-02
 70
     0
 62
   130
  6
CONTINUOUS
370
    -3
390
2B2C9
  0
LAYER
  5
2B2EE
330
2B2BC
100
AcDbSymbolTableRecord
100
AcDbLayerTableRecord
  2
WAKUMOJI-01
 70
     0
 62
   130
  6
CONTINUOUS
370
    -3
390
2B2C9
  0
ENDTAB
  0
TABLE
  2
STYLE
  5
2B2BD
330
0
100
AcDbSymbolTable
 70
     5
  0
STYLE
  5
2B2CB
330
2B2BD
100
AcDbSymbolTableRecord
100
AcDbTextStyleTableRecord
  2
STANDARD
 70
     0
 40
3.0
 41
1.0
 50
0.0
 71
     0
 42
0.2
  3
ROMANS
  4
EXTFONT
  0
STYLE
  5
2B2DD
330
2B2BD
100
AcDbSymbolTableRecord
100
AcDbTextStyleTableRecord
  2
00
 70
     0
 40
0.0
 41
0.6666666666666666
 50
0.0
 71
     0
 42
0.2
  3
ROMANS
  4
BIGFONT
  0
STYLE
  5
2B2EF
330
2B2BD
100
AcDbSymbolTableRecord
100
AcDbTextStyleTableRecord
  2
01
 70
     0
 40
3.0
 41
1.0
 50
0.0
 71
     0
 42
0.2
  3
ROMANS
  4
BIGFONT
  0
STYLE
  5
2B2F0
330
2B2BD
100
AcDbSymbolTableRecord
100
AcDbTextStyleTableRecord
  2
WAKUMOJI
 70
     0
 40
3.0
 41
1.0
 50
0.0
 71
     0
 42
3.0
  3
SIMPLEX
  4
BIGFONT
  0
STYLE
  5
2B2F1
330
2B2BD
100
AcDbSymbolTableRecord
100
AcDbTextStyleTableRecord
  2
FILENAME
 70
     0
 40
75.0
 41
1.0
 50
0.0
 71
     0
 42
75.0
  3
romans
  4
bigfont
  0
ENDTAB
  0
TABLE
  2
VIEW
  5
2B2C0
330
0
100
AcDbSymbolTable
 70
     0
  0
ENDTAB
  0
TABLE
  2
UCS
  5
2B2C1
330
0
100
AcDbSymbolTable
 70
     0
  0
ENDTAB
  0
TABLE
  2
APPID
  5
2B2C3
330
0
100
AcDbSymbolTable
 70
     5
  0
APPID
  5
2B2CC
330
2B2C3
100
AcDbSymbolTableRecord
100
AcDbRegAppTableRecord
  2
ACAD
 70
     0
  0
APPID
  5
2B2F2
330
2B2C3
100
AcDbSymbolTableRecord
100
AcDbRegAppTableRecord
  2
AUTOCAD_POSTSCRIPT_FIGURE
 70
     0
  0
APPID
  5
2B2F3
330
2B2C3
100
AcDbSymbolTableRecord
100
AcDbRegAppTableRecord
  2
ACAD_PSEXT
 70
     0
  0
APPID
  5
2B2F4
330
2B2C3
100
AcDbSymbolTableRecord
100
AcDbRegAppTableRecord
  2
ACAD_EXEMPT_FROM_CAD_STANDARDS
 70
     0
  0
APPID
  5
2B2F5
330
2B2C3
100
AcDbSymbolTableRecord
100
AcDbRegAppTableRecord
  2
ACAD_MLEADERVER
 70
     0
  0
ENDTAB
  0
TABLE
  2
DIMSTYLE
  5
2B2C4
330
0
100
AcDbSymbolTable
 70
     1
100
AcDbDimStyleTable
 71
     0
  0
DIMSTYLE
105
2B2F6
330
2B2C4
100
AcDbSymbolTableRecord
100
AcDbDimStyleTableRecord
  2
SUNPOU
 70
     0
 40
30.0
 41
0.5
 42
1.0
 43
7.0
 44
1.5
 46
3.0
 73
     0
 74
     0
 77
     1
 78
     8
140
3.0
141
0.0
147
1.5
172
     1
173
     1
176
   256
177
   256
178
   256
271
     2
272
     2
279
     2
284
     8
285
     8
286
     8
340
2B2DD
  0
ENDTAB
  0
TABLE
  2
BLOCK_RECORD
  5
2B2BB
330
0
100
AcDbSymbolTable
 70
    17
  0
BLOCK_RECORD
  5
2B2D8
330
2B2BB
100
AcDbSymbolTableRecord
100
AcDbBlockTableRecord
  2
*Model_Space
340
2B2DB
  0
BLOCK_RECORD
  5
2B2D4
330
2B2BB
100
AcDbSymbolTableRecord
100
AcDbBlockTableRecord
  2
*Paper_Space
340
2B2D7
  0
BLOCK_RECORD
  5
2B2FB
330
2B2BB
100
AcDbSymbolTableRecord
100
AcDbBlockTableRecord
  2
$MODEL_SPACE
340
0
  0
BLOCK_RECORD
  5
2B2FE
330
2B2BB
100
AcDbSymbolTableRecord
100
AcDbBlockTableRecord
  2
$PAPER_SPACE
340
0
  0
BLOCK_RECORD
  5
2B301
330
2B2BB
100
AcDbSymbolTableRecord
100
AcDbBlockTableRecord
  2
DOT
340
0
  0
BLOCK_RECORD
  5
2B309
330
2B2BB
100
AcDbSymbolTableRecord
100
AcDbBlockTableRecord
  2
*U3
340
0
  0
BLOCK_RECORD
  5
2B30D
330
2B2BB
100
AcDbSymbolTableRecord
100
AcDbBlockTableRecord
  2
*U4
340
0
  0
BLOCK_RECORD
  5
2B311
330
2B2BB
100
AcDbSymbolTableRecord
100
AcDbBlockTableRecord
  2
*U5
340
0
  0
BLOCK_RECORD
  5
2B315
330
2B2BB
100
AcDbSymbolTableRecord
100
AcDbBlockTableRecord
  2
*U6
340
0
  0
BLOCK_RECORD
  5
2B319
330
2B2BB
100
AcDbSymbolTableRecord
100
AcDbBlockTableRecord
  2
*U7
340
0
  0
BLOCK_RECORD
  5
2B31D
330
2B2BB
100
AcDbSymbolTableRecord
100
AcDbBlockTableRecord
  2
*U8
340
0
  0
BLOCK_RECORD
  5
2B321
330
2B2BB
100
AcDbSymbolTableRecord
100
AcDbBlockTableRecord
  2
*U9
340
0
  0
BLOCK_RECORD
  5
2B325
330
2B2BB
100
AcDbSymbolTableRecord
100
AcDbBlockTableRecord
  2
*U10
340
0
  0
BLOCK_RECORD
  5
2B329
330
2B2BB
100
AcDbSymbolTableRecord
100
AcDbBlockTableRecord
  2
*U11
340
0
  0
BLOCK_RECORD
  5
2B32D
330
2B2BB
100
AcDbSymbolTableRecord
100
AcDbBlockTableRecord
  2
*U12
340
0
  0
BLOCK_RECORD
  5
2B331
330
2B2BB
100
AcDbSymbolTableRecord
100
AcDbBlockTableRecord
  2
*U13
340
0
  0
BLOCK_RECORD
  5
2B335
330
2B2BB
100
AcDbSymbolTableRecord
100
AcDbBlockTableRecord
  2
*U14
340
0
  0
BLOCK_RECORD
  5
2B339
330
2B2BB
100
AcDbSymbolTableRecord
100
AcDbBlockTableRecord
  2
*U15
340
0
  0
ENDTAB
  0
ENDSEC
  0
SECTION
  2
BLOCKS
  0
BLOCK
  5
2B2D9
330
2B2D8
100
AcDbEntity
  8
0
100
AcDbBlockBegin
  2
*Model_Space
 70
     0
 10
0.0
 20
0.0
 30
0.0
  3
*Model_Space
  1

  0
ENDBLK
  5
2B2DA
330
2B2D8
100
AcDbEntity
  8
0
100
AcDbBlockEnd
  0
BLOCK
  5
2B2D5
330
2B2D4
100
AcDbEntity
 67
     1
  8
0
100
AcDbBlockBegin
  2
*Paper_Space
 70
     0
 10
0.0
 20
0.0
 30
0.0
  3
*Paper_Space
  1

  0
ENDBLK
  5
2B2D6
330
2B2D4
100
AcDbEntity
 67
     1
  8
0
100
AcDbBlockEnd
  0
BLOCK
  5
2B2FC
330
2B2FB
100
AcDbEntity
  8
0
100
AcDbBlockBegin
  2
$MODEL_SPACE
 70
     0
 10
0.0
 20
0.0
 30
0.0
  3
$MODEL_SPACE
  1

  0
ENDBLK
  5
2B2FD
330
2B2FB
100
AcDbEntity
  8
0
100
AcDbBlockEnd
  0
BLOCK
  5
2B2FF
330
2B2FE
100
AcDbEntity
  8
0
100
AcDbBlockBegin
  2
$PAPER_SPACE
 70
     0
 10
0.0
 20
0.0
 30
0.0
  3
$PAPER_SPACE
  1

  0
ENDBLK
  5
2B300
330
2B2FE
100
AcDbEntity
  8
0
100
AcDbBlockEnd
  0
BLOCK
  5
2B302
330
2B301
100
AcDbEntity
  8
0
100
AcDbBlockBegin
  2
DOT
 70
     0
 10
0.0
 20
0.0
 30
0.0
  3
DOT
  1

  0
LWPOLYLINE
  5
2B303
330
2B301
100
AcDbEntity
  8
0
  6
ByBlock
 62
     0
100
AcDbPolyline
 90
        2
 70
     1
 43
0.75
 10
-0.375
 20
0.0
 42
1.0
 10
0.375
 20
0.0
 42
1.0
  0
LINE
  5
2B307
330
2B301
100
AcDbEntity
  8
0
  6
ByBlock
 62
     0
100
AcDbLine
 10
-0.75
 20
0.0
 30
0.0
 11
-1.5
 21
0.0
 31
0.0
  0
ENDBLK
  5
2B308
330
2B301
100
AcDbEntity
  8
0
100
AcDbBlockEnd
  0
BLOCK
  5
2B30A
330
2B309
100
AcDbEntity
  8
0
100
AcDbBlockBegin
  2
*U3
 70
     1
 10
0.0
 20
0.0
 30
0.0
  3
*U3
  1

  0
TEXT
  5
2B30B
330
2B309
100
AcDbEntity
  8
SUNPOU
100
AcDbText
 10
2326.201129534437
 20
4056.619741444836
 30
0.0
 40
90.0
  1
900 □
 41
0.6666666666666666
  7
00
100
AcDbText
  0
ENDBLK
  5
2B30C
330
2B309
100
AcDbEntity
  8
0
100
AcDbBlockEnd
  0
BLOCK
  5
2B30E
330
2B30D
100
AcDbEntity
  8
0
100
AcDbBlockBegin
  2
*U4
 70
     1
 10
0.0
 20
0.0
 30
0.0
  3
*U4
  1

  0
TEXT
  5
2B30F
330
2B30D
100
AcDbEntity
  8
SUNPOU
100
AcDbText
 10
2326.201129534437
 20
4266.619741444836
 30
0.0
 40
90.0
  1
700 □
 41
0.6666666666666666
  7
00
100
AcDbText
  0
ENDBLK
  5
2B310
330
2B30D
100
AcDbEntity
  8
0
100
AcDbBlockEnd
  0
BLOCK
  5
2B312
330
2B311
100
AcDbEntity
  8
0
100
AcDbBlockBegin
  2
*U5
 70
     1
 10
0.0
 20
0.0
 30
0.0
  3
*U5
  1

  0
TEXT
  5
2B313
330
2B311
100
AcDbEntity
  8
SUNPOU
100
AcDbText
 10
4537.701129534437
 20
4990.905455730555
 30
0.0
 40
90.0
  1
500
 50
90.0
 41
0.6666666666666666
  7
00
100
AcDbText
  0
ENDBLK
  5
2B314
330
2B311
100
AcDbEntity
  8
0
100
AcDbBlockEnd
  0
BLOCK
  5
2B316
330
2B315
100
AcDbEntity
  8
0
100
AcDbBlockBegin
  2
*U6
 70
     1
 10
0.0
 20
0.0
 30
0.0
  3
*U6
  1

  0
TEXT
  5
2B317
330
2B315
100
AcDbEntity
  8
SUNPOU
100
AcDbText
 10
4537.701129534437
 20
4328.762598587696
 30
0.0
 40
90.0
  1
100
 50
90.0
 41
0.6666666666666666
  7
00
100
AcDbText
  0
ENDBLK
  5
2B318
330
2B315
100
AcDbEntity
  8
0
100
AcDbBlockEnd
  0
BLOCK
  5
2B31A
330
2B319
100
AcDbEntity
  8
0
100
AcDbBlockBegin
  2
*U7
 70
     1
 10
0.0
 20
0.0
 30
0.0
  3
*U7
  1

  0
TEXT
  5
2B31B
330
2B319
100
AcDbEntity
  8
SUNPOU
100
AcDbText
 10
9483.290281843457
 20
3293.164299082426
 30
0.0
 40
90.0
  1
700
 41
0.6666666666666666
  7
00
100
AcDbText
  0
ENDBLK
  5
2B31C
330
2B319
100
AcDbEntity
  8
0
100
AcDbBlockEnd
  0
BLOCK
  5
2B31E
330
2B31D
100
AcDbEntity
  8
0
100
AcDbBlockBegin
  2
*U8
 70
     1
 10
0.0
 20
0.0
 30
0.0
  3
*U8
  1

  0
TEXT
  5
2B31F
330
2B31D
100
AcDbEntity
  8
SUNPOU
100
AcDbText
 10
10594.00456755771
 20
4847.919120369754
 30
0.0
 40
90.0
  1
4860
 50
90.0
 41
0.6666666666666666
  7
00
100
AcDbText
  0
ENDBLK
  5
2B320
330
2B31D
100
AcDbEntity
  8
0
100
AcDbBlockEnd
  0
BLOCK
  5
2B322
330
2B321
100
AcDbEntity
  8
0
100
AcDbBlockBegin
  2
*U9
 70
     1
 10
0.0
 20
0.0
 30
0.0
  3
*U9
  1

  0
TEXT
  5
2B323
330
2B321
100
AcDbEntity
  8
SUNPOU
100
AcDbText
 10
10384.00456755772
 20
6573.633406084039
 30
0.0
 40
90.0
  1
1400
 50
90.0
 41
0.6666666666666666
  7
00
100
AcDbText
  0
ENDBLK
  5
2B324
330
2B321
100
AcDbEntity
  8
0
100
AcDbBlockEnd
  0
BLOCK
  5
2B326
330
2B325
100
AcDbEntity
  8
0
100
AcDbBlockBegin
  2
*U10
 70
     1
 10
0.0
 20
0.0
 30
0.0
  3
*U10
  1

  0
TEXT
  5
2B327
330
2B325
100
AcDbEntity
  8
SUNPOU
100
AcDbText
 10
10384.00456755772
 20
3113.63340608404
 30
0.0
 40
90.0
  1
1400
 50
90.0
 41
0.6666666666666666
  7
00
100
AcDbText
  0
ENDBLK
  5
2B328
330
2B325
100
AcDbEntity
  8
0
100
AcDbBlockEnd
  0
BLOCK
  5
2B32A
330
2B329
100
AcDbEntity
  8
0
100
AcDbBlockBegin
  2
*U11
 70
     1
 10
0.0
 20
0.0
 30
0.0
  3
*U11
  1

  0
TEXT
  5
2B32B
330
2B329
100
AcDbEntity
  8
SUNPOU
100
AcDbText
 10
10174.00456755772
 20
3846.490548941183
 30
0.0
 40
90.0
  1
700
 50
90.0
 41
0.6666666666666666
  7
00
100
AcDbText
  0
ENDBLK
  5
2B32C
330
2B329
100
AcDbEntity
  8
0
100
AcDbBlockEnd
  0
BLOCK
  5
2B32E
330
2B32D
100
AcDbEntity
  8
0
100
AcDbBlockBegin
  2
*U12
 70
     1
 10
0.0
 20
0.0
 30
0.0
  3
*U12
  1

  0
TEXT
  5
2B32F
330
2B32D
100
AcDbEntity
  8
SUNPOU
100
AcDbText
 10
10384.00456755772
 20
4847.919120369754
 30
0.0
 40
90.0
  1
2060
 50
90.0
 41
0.6666666666666666
  7
00
100
AcDbText
  0
ENDBLK
  5
2B330
330
2B32D
100
AcDbEntity
  8
0
100
AcDbBlockEnd
  0
BLOCK
  5
2B332
330
2B331
100
AcDbEntity
  8
0
100
AcDbBlockBegin
  2
*U13
 70
     1
 10
0.0
 20
0.0
 30
0.0
  3
*U13
  1

  0
TEXT
  5
2B333
330
2B331
100
AcDbEntity
  8
SUNPOU
100
AcDbText
 10
8054.718853272026
 20
1967.204834655466
 30
0.0
 40
90.0
  1
3500
 41
0.6666666666666666
  7
00
100
AcDbText
  0
ENDBLK
  5
2B334
330
2B331
100
AcDbEntity
  8
0
100
AcDbBlockEnd
  0
BLOCK
  5
2B336
330
2B335
100
AcDbEntity
  8
0
100
AcDbBlockBegin
  2
*U14
 70
     1
 10
0.0
 20
0.0
 30
0.0
  3
*U14
  1

  0
TEXT
  5
2B337
330
2B335
100
AcDbEntity
  8
SUNPOU
100
AcDbText
 10
8054.718853272026
 20
2177.204834655467
 30
0.0
 40
90.0
  1
2800
 41
0.6666666666666666
  7
00
100
AcDbText
  0
ENDBLK
  5
2B338
330
2B335
100
AcDbEntity
  8
0
100
AcDbBlockEnd
  0
BLOCK
  5
2B33A
330
2B339
100
AcDbEntity
  8
0
100
AcDbBlockBegin
  2
*U15
 70
     1
 10
0.0
 20
0.0
 30
0.0
  3
*U15
  1

  0
TEXT
  5
2B33B
330
2B339
100
AcDbEntity
  8
SUNPOU
100
AcDbText
 10
9658.290281843457
 20
2177.204834655467
 30
0.0
 40
90.0
  1
350
 41
0.6666666666666666
  7
00
100
AcDbText
  0
ENDBLK
  5
2B33C
330
2B339
100
AcDbEntity
  8
0
100
AcDbBlockEnd
  0
ENDSEC
  0
SECTION
  2
ENTITIES
  0
TEXT
  5
2B33D
330
2B2D8
100
AcDbEntity
  8
NAME
100
AcDbText
 10
9402.694977008243
 20
716.2499999999992
 30
0.0
 40
120.0
  1
YOTC
 41
0.7
  7
01
100
AcDbText
  0
TEXT
  5
2B33E
330
2B2D8
100
AcDbEntity
  8
NAME
100
AcDbText
 10
8327.765992739108
 20
716.2499999999992
 30
0.0
 40
120.0
  1
ヨド自転車置場      型
  7
01
100
AcDbText
  0
TEXT
  5
2B33F
330
2B2D8
100
AcDbEntity
  8
NAME
100
AcDbText
 10
8685.634258449118
 20
405.7500000000011
 30
0.0
 40
120.0
  1
型（一般地用）背合せ
 41
0.7
  7
01
100
AcDbText
  0
TEXT
  5
2B340
330
2B2D8
100
AcDbEntity
  8
NAME
100
AcDbText
 10
8101.484605933894
 20
405.7500000000011
 30
0.0
 40
120.0
  1
YOTC-280
 41
0.6
  7
01
 72
     2
 11
8650.056034505322
 21
405.7500000000011
 31
0.0
100
AcDbText
  0
TEXT
  5
2B341
330
2B2D8
100
AcDbEntity
  8
NAME
100
AcDbText
 10
9685.26209933479
 20
405.7500000000015
 30
0.0
 40
120.0
  1
<3／3>
 41
0.6
  7
01
 72
     2
 11
10059.66209933478
 21
405.7500000000015
 31
0.0
100
AcDbText
  0
LINE
  5
2B342
330
2B2D8
100
AcDbEntity
  8
HIKIDASHI
100
AcDbLine
 10
2122.38745291665
 20
3635.151419476927
 30
0.0
 11
2818.014806152222
 21
3635.151419476927
 31
0.0
  0
LINE
  5
2B343
330
2B2D8
100
AcDbEntity
  8
HIKIDASHI
100
AcDbLine
 10
2122.38745291665
 20
3605.151419476927
 30
0.0
 11
2818.014806152222
 21
3605.151419476927
 31
0.0
  0
TEXT
  5
2B344
330
2B2D8
100
AcDbEntity
  8
HIKIDASHI
100
AcDbText
 10
2152.38745291665
 20
3680.151419476926
 30
0.0
 40
90.0
  1
A  ~  A'
 41
0.6700000000000001
  7
00
100
AcDbText
  0
TEXT
  5
2B345
330
2B2D8
100
AcDbEntity
  8
HIKIDASHI
100
AcDbText
 10
2546.404732413212
 20
3680.151419476926
 30
0.0
 40
90.0
  1
断 面
  7
01
100
AcDbText
  0
LINE
  5
2B363
330
2B2D8
100
AcDbEntity
  8
KISO
100
AcDbLine
 10
2413.951129534439
 20
5451.619741444837
 30
0.0
 11
1501.11505547207
 21
5451.619741444837
 31
0.0
  0
LINE
  5
2B364
330
2B2D8
100
AcDbEntity
  8
KISO
100
AcDbLine
 10
1501.11505547207
 20
5316.619741444836
 30
0.0
 11
1945.201129534437
 21
5316.619741444836
 31
0.0
  0
LINE
  5
2B365
330
2B2D8
100
AcDbEntity
  8
KISO
100
AcDbLine
 10
1501.11505547207
 20
5226.619741444834
 30
0.0
 11
1945.201129534437
 21
5226.619741444834
 31
0.0
  0
LINE
  5
2B366
330
2B2D8
100
AcDbEntity
  8
HATCH
100
AcDbLine
 10
1715.440671357798
 20
5451.619741444837
 30
0.0
 11
1580.440671357798
 21
5316.619741444836
 31
0.0
  0
LINE
  5
2B367
330
2B2D8
100
AcDbEntity
  8
HATCH
100
AcDbLine
 10
1759.988398572543
 20
5451.619741444837
 30
0.0
 11
1624.988398572546
 21
5316.619741444836
 31
0.0
  0
LINE
  5
2B368
330
2B2D8
100
AcDbEntity
  8
HATCH
100
AcDbLine
 10
1804.536125787301
 20
5451.619741444837
 30
0.0
 11
1669.536125787304
 21
5316.619741444836
 31
0.0
  0
LINE
  5
2B369
330
2B2D8
100
AcDbEntity
  8
HIKIDASHI
100
AcDbLine
 10
2535.039920368665
 20
4755.219131334309
 30
0.0
 11
3046.140127549567
 21
4941.244393475461
 31
0.0
  0
LINE
  5
2B36A
330
2B2D8
100
AcDbEntity
  8
HATCH
100
AcDbLine
 10
2413.951129534439
 20
4810.822014230085
 30
0.0
 11
2304.748856749189
 21
4701.619741444836
 31
0.0
  0
LINE
  5
2B36B
330
2B2D8
100
AcDbEntity
  8
HATCH
100
AcDbLine
 10
2413.951129534439
 20
4855.369741444836
 30
0.0
 11
2260.201129534438
 21
4701.619741444836
 31
0.0
  0
LINE
  5
2B36C
330
2B2D8
100
AcDbEntity
  8
HATCH
100
AcDbLine
 10
2413.951129534439
 20
5260.369741444834
 30
0.0
 11
1945.201129534437
 21
4791.619741444829
 31
0.0
  0
LINE
  5
2B36D
330
2B2D8
100
AcDbEntity
  8
HATCH
100
AcDbLine
 10
2413.951129534439
 20
5215.822014230084
 30
0.0
 11
1945.201129534437
 21
4747.072014230083
 31
0.0
  0
LINE
  5
2B36E
330
2B2D8
100
AcDbEntity
  8
HASHIRA
100
AcDbLine
 10
2413.951129534439
 20
4701.619741444836
 30
0.0
 11
2413.951129534439
 21
6387.564103576066
 31
0.0
  0
LINE
  5
2B36F
330
2B2D8
100
AcDbEntity
  8
HASHIRA
100
AcDbLine
 10
2526.451129534438
 20
4701.619741444836
 30
0.0
 11
2526.451129534438
 21
6387.564103576066
 31
0.0
  0
LINE
  5
2B370
330
2B2D8
100
AcDbEntity
  8
1PL-M1
100
AcDbLine
 10
2470.201129534439
 20
4386.619741444836
 30
0.0
 11
2470.201129534439
 21
6568.024562190892
 31
0.0
  0
LINE
  5
2B371
330
2B2D8
100
AcDbEntity
  8
KISO
100
AcDbLine
 10
2995.201129534438
 20
5451.619741444837
 30
0.0
 11
2995.201129534438
 21
4701.619741444839
 31
0.0
  0
LINE
  5
2B372
330
2B2D8
100
AcDbEntity
  8
KISO
100
AcDbLine
 10
1945.201129534437
 20
5451.619741444837
 30
0.0
 11
1945.201129534437
 21
4701.619741444836
 31
0.0
  0
LINE
  5
2B373
330
2B2D8
100
AcDbEntity
  8
HATCH
100
AcDbLine
 10
2995.201129534438
 20
4897.976559800586
 30
0.0
 11
2798.844311178688
 21
4701.619741444836
 31
0.0
  0
LINE
  5
2B374
330
2B2D8
100
AcDbEntity
  8
HATCH
100
AcDbLine
 10
2995.201129534438
 20
4942.524287015338
 30
0.0
 11
2754.296583963939
 21
4701.619741444836
 31
0.0
  0
LINE
  5
2B375
330
2B2D8
100
AcDbEntity
  8
HATCH
100
AcDbLine
 10
2995.201129534438
 20
4987.072014230093
 30
0.0
 11
2709.748856749175
 21
4701.619741444836
 31
0.0
  0
LINE
  5
2B376
330
2B2D8
100
AcDbEntity
  8
HATCH
100
AcDbLine
 10
2413.951129534439
 20
4766.274287015334
 30
0.0
 11
2349.296583963944
 21
4701.619741444836
 31
0.0
  0
SOLID
  5
2B377
330
2B2D8
100
AcDbEntity
  8
HIKIDASHI
100
AcDbTrace
 10
2538.460121801924
 20
4745.822205126449
 30
0.0
 11
2531.61971893541
 21
4764.616057542166
 31
0.0
 12
2478.65836312151
 22
4734.697922734768
 32
0.0
 13
2478.65836312151
 23
4734.697922734768
 33
0.0
  0
LINE
  5
2B378
330
2B2D8
100
AcDbEntity
  8
HIKIDASHI
100
AcDbLine
 10
2445.655688886668
 20
4731.619741444836
 30
0.0
 11
2494.746570182208
 21
4731.619741444836
 31
0.0
  0
LINE
  5
2B379
330
2B2D8
100
AcDbEntity
  8
HIKIDASHI
100
AcDbLine
 10
2445.655688886668
 20
4791.619741444836
 30
0.0
 11
2494.746570182208
 21
4791.619741444836
 31
0.0
  0
CIRCLE
  5
2B37A
330
2B2D8
100
AcDbEntity
  8
HASHIRA
100
AcDbCircle
 10
2470.201129534439
 20
4791.619741444836
 30
0.0
 40
9.0
  0
CIRCLE
  5
2B37B
330
2B2D8
100
AcDbEntity
  8
HASHIRA
100
AcDbCircle
 10
2470.201129534439
 20
4731.619741444836
 30
0.0
 40
9.0
  0
TEXT
  5
2B37C
330
2B2D8
100
AcDbEntity
  8
SUNPOU
100
AcDbText
 10
3814.003723935417
 20
3917.611982140834
 30
0.0
 40
90.0
  1
ベース筋
  7
01
 72
     4
 11
4018.003723935417
 21
3962.611982140833
 31
0.0
100
AcDbText
  0
LINE
  5
2B37D
330
2B2D8
100
AcDbEntity
  8
HATCH
100
AcDbLine
 10
3867.524083415258
 20
5451.619741444837
 30
0.0
 11
3732.524083415256
 21
5316.619741444839
 31
0.0
  0
LINE
  5
2B37E
330
2B2D8
100
AcDbEntity
  8
HATCH
100
AcDbLine
 10
3822.976356200499
 20
5451.619741444837
 30
0.0
 11
3687.976356200499
 21
5316.619741444839
 31
0.0
  0
LINE
  5
2B37F
330
2B2D8
100
AcDbEntity
  8
HIKIDASHI
100
AcDbLine
 10
3046.140127549567
 20
4941.244393475461
 30
0.0
 11
3837.099352580968
 21
4941.244393475461
 31
0.0
  0
TEXT
  5
2B380
330
2B2D8
100
AcDbEntity
  8
HIKIDASHI
100
AcDbText
 10
3336.276192691956
 20
4986.244393475461
 30
0.0
 40
90.0
  1
10   x 350
 41
0.6666666666666666
  7
00
 11
3336.276192691956
 21
5031.244393475461
 31
0.0
100
AcDbText
 73
     2
  0
LINE
  5
2B381
330
2B2D8
100
AcDbEntity
  8
KISO
100
AcDbLine
 10
2995.201129534438
 20
5226.619741444836
 30
0.0
 11
4382.701129534438
 21
5226.619741444836
 31
0.0
  0
LINE
  5
2B382
330
2B2D8
100
AcDbEntity
  8
KISO
100
AcDbLine
 10
2995.201129534438
 20
5316.619741444839
 30
0.0
 11
4382.701129534438
 21
5316.619741444839
 31
0.0
  0
LINE
  5
2B383
330
2B2D8
100
AcDbEntity
  8
KISO
100
AcDbLine
 10
4382.701129534438
 20
5451.619741444837
 30
0.0
 11
2526.451129534438
 21
5451.619741444837
 31
0.0
  0
LINE
  5
2B384
330
2B2D8
100
AcDbEntity
  8
HATCH
100
AcDbLine
 10
2995.201129534438
 20
5436.619741444836
 30
0.0
 11
2526.451129534438
 21
4967.869741444836
 31
0.0
  0
LINE
  5
2B385
330
2B2D8
100
AcDbEntity
  8
HATCH
100
AcDbLine
 10
2995.201129534438
 20
5347.524287015334
 30
0.0
 11
2526.451129534438
 21
4878.774287015334
 31
0.0
  0
LINE
  5
2B386
330
2B2D8
100
AcDbEntity
  8
HATCH
100
AcDbLine
 10
2995.201129534438
 20
5392.07201423009
 30
0.0
 11
2526.451129534438
 21
4923.322014230087
 31
0.0
  0
LINE
  5
2B387
330
2B2D8
100
AcDbEntity
  8
HATCH
100
AcDbLine
 10
2413.951129534439
 20
5304.917468659589
 30
0.0
 11
1945.201129534437
 21
4836.167468659586
 31
0.0
  0
LINE
  5
2B388
330
2B2D8
100
AcDbEntity
  8
HATCH
100
AcDbLine
 10
2111.105675104933
 20
5451.619741444837
 30
0.0
 11
1945.201129534437
 21
5285.715195874345
 31
0.0
  0
LINE
  5
2B389
330
2B2D8
100
AcDbEntity
  8
HATCH
100
AcDbLine
 10
2155.65340231969
 20
5451.619741444837
 30
0.0
 11
1945.201129534437
 21
5241.167468659586
 31
0.0
  0
LINE
  5
2B38A
330
2B2D8
100
AcDbEntity
  8
HATCH
100
AcDbLine
 10
2200.201129534439
 20
5451.619741444837
 30
0.0
 11
1945.201129534437
 21
5196.619741444836
 31
0.0
  0
LINE
  5
2B38B
330
2B2D8
100
AcDbEntity
  8
HATCH
100
AcDbLine
 10
2605.201129534441
 20
5451.619741444837
 30
0.0
 11
2526.451129534438
 21
5372.86974144483
 31
0.0
  0
LINE
  5
2B38C
330
2B2D8
100
AcDbEntity
  8
HATCH
100
AcDbLine
 10
2560.653402319687
 20
5451.619741444837
 30
0.0
 11
2526.451129534438
 21
5417.417468659589
 31
0.0
  0
LINE
  5
2B38D
330
2B2D8
100
AcDbEntity
  8
HATCH
100
AcDbLine
 10
2649.74885674919
 20
5451.619741444837
 30
0.0
 11
2526.451129534438
 21
5328.322014230084
 31
0.0
  0
LINE
  5
2B38E
330
2B2D8
100
AcDbEntity
  8
HATCH
100
AcDbLine
 10
3373.428628985748
 20
5451.619741444837
 30
0.0
 11
3238.428628985752
 21
5316.619741444836
 31
0.0
  0
LINE
  5
2B38F
330
2B2D8
100
AcDbEntity
  8
HATCH
100
AcDbLine
 10
3417.976356200507
 20
5451.619741444837
 30
0.0
 11
3282.976356200506
 21
5316.619741444836
 31
0.0
  0
LINE
  5
2B390
330
2B2D8
100
AcDbEntity
  8
HATCH
100
AcDbLine
 10
3328.880901771004
 20
5451.619741444837
 30
0.0
 11
3193.880901771008
 21
5316.619741444836
 31
0.0
  0
TEXT
  5
2B391
330
2B2D8
100
AcDbEntity
  8
HIKIDASHI
100
AcDbText
 10
3076.140127549567
 20
4986.244393475461
 30
0.0
 40
90.0
  1
鉄筋
  7
01
 11
3076.140127549567
 21
5031.244393475461
 31
0.0
100
AcDbText
 73
     2
  0
TEXT
  5
2B392
330
2B2D8
100
AcDbEntity
  8
HIKIDASHI
100
AcDbText
 10
3485.733353588021
 20
5001.244393475461
 30
0.0
 40
90.0
  1
%%c
 41
0.6666666666666666
  7
00
100
AcDbText
  0
LINE
  5
2B393
330
2B2D8
100
AcDbEntity
  8
HATCH
100
AcDbLine
 10
3778.428628985756
 20
5451.619741444837
 30
0.0
 11
3643.428628985756
 21
5316.619741444839
 31
0.0
  0
LINE
  5
2B394
330
2B2D8
100
AcDbEntity
  8
SUNPOU
100
AcDbLine
 10
4133.319100402237
 20
5541.619741444838
 30
0.0
 11
4185.280624629304
 21
5451.619741444837
 31
0.0
  0
LINE
  5
2B395
330
2B2D8
100
AcDbEntity
  8
SUNPOU
100
AcDbLine
 10
4185.280624629304
 20
5451.619741444837
 30
0.0
 11
4237.24214885637
 21
5541.619741444838
 31
0.0
  0
LINE
  5
2B396
330
2B2D8
100
AcDbEntity
  8
HATCH
100
AcDbLine
 10
4317.071810630005
 20
5451.619741444837
 30
0.0
 11
4182.071810630005
 21
5316.619741444839
 31
0.0
  0
LINE
  5
2B397
330
2B2D8
100
AcDbEntity
  8
HATCH
100
AcDbLine
 10
4272.52408341525
 20
5451.619741444837
 30
0.0
 11
4137.524083415249
 21
5316.619741444839
 31
0.0
  0
LINE
  5
2B398
330
2B2D8
100
AcDbEntity
  8
HATCH
100
AcDbLine
 10
4227.976356200502
 20
5451.619741444837
 30
0.0
 11
4092.976356200503
 21
5316.619741444839
 31
0.0
  0
LINE
  5
2B399
330
2B2D8
100
AcDbEntity
  8
U3
100
AcDbLine
 10
4382.701129534438
 20
5249.11974144484
 30
0.0
 11
4540.201129534437
 21
5406.619741444836
 31
0.0
  0
LINE
  5
2B39A
330
2B2D8
100
AcDbEntity
  8
KISO
100
AcDbLine
 10
4382.701129534438
 20
5226.619741444836
 30
0.0
 11
4382.701129534438
 21
5451.619741444837
 31
0.0
  0
LINE
  5
2B39B
330
2B2D8
100
AcDbEntity
  8
U3
100
AcDbLine
 10
4444.74171407425
 20
5311.160325984652
 30
0.0
 11
4506.782298614071
 21
5249.119741444838
 31
0.0
  0
LINE
  5
2B39C
330
2B2D8
100
AcDbEntity
  8
U3
100
AcDbLine
 10
4382.701129534441
 20
5344.579156905018
 30
0.0
 11
4444.741714074257
 21
5406.619741444836
 31
0.0
  0
TEXT
  5
2B39D
330
2B2D8
100
AcDbEntity
  8
SUNPOU
100
AcDbText
 10
4116.709196057875
 20
5586.619741444838
 30
0.0
 40
90.0
  1
F.L
 41
0.6666666666666666
  7
00
 72
     4
 11
4185.280624629304
 21
5631.619741444838
 31
0.0
100
AcDbText
  0
LINE
  5
2B39E
330
2B2D8
100
AcDbEntity
  8
SUNPOU
100
AcDbLine
 10
4237.24214885637
 20
5541.619741444838
 30
0.0
 11
4133.319100402237
 21
5541.619741444838
 31
0.0
  0
TEXT
  5
2B39F
330
2B2D8
100
AcDbEntity
  8
SUNPOU
100
AcDbText
 10
4300.823805378061
 20
3917.611982140834
 30
0.0
 40
90.0
  1
5-D13×5-D13
 41
0.6700000000000001
  7
01
 72
     4
 11
4644.246662520919
 21
3962.611982140833
 31
0.0
100
AcDbText
  0
TEXT
  5
2B3A0
330
2B2D8
100
AcDbEntity
  8
SUNPOU
100
AcDbText
 10
4719.83329396131
 20
5541.619741444836
 30
0.0
 40
90.0
  1
G.L
 41
0.6666666666666666
  7
00
 72
     4
 11
4791.261865389882
 21
5586.619741444836
 31
0.0
100
AcDbText
  0
LINE
  5
2B3A1
330
2B2D8
100
AcDbEntity
  8
SUNPOU
100
AcDbLine
 10
4843.223389616949
 20
5496.619741444837
 30
0.0
 11
4739.300341162816
 21
5496.619741444837
 31
0.0
  0
LINE
  5
2B3A2
330
2B2D8
100
AcDbEntity
  8
SUNPOU
100
AcDbLine
 10
4739.300341162816
 20
5496.619741444837
 30
0.0
 11
4791.261865389882
 21
5406.619741444836
 31
0.0
  0
LINE
  5
2B3A3
330
2B2D8
100
AcDbEntity
  8
U3
100
AcDbLine
 10
4759.741714074254
 20
5311.160325984652
 30
0.0
 11
4821.782298614071
 21
5249.119741444838
 31
0.0
  0
LINE
  5
2B3A4
330
2B2D8
100
AcDbEntity
  8
U3
100
AcDbLine
 10
5074.741714074246
 20
5406.619741444838
 30
0.0
 11
4382.701129534438
 21
5406.619741444836
 31
0.0
  0
LINE
  5
2B3A5
330
2B2D8
100
AcDbEntity
  8
U3
100
AcDbLine
 10
4697.701129534438
 20
5249.11974144484
 30
0.0
 11
4855.201129534439
 21
5406.619741444836
 31
0.0
  0
LINE
  5
2B3A6
330
2B2D8
100
AcDbEntity
  8
U3
100
AcDbLine
 10
4492.471421804345
 20
5358.890033714745
 30
0.0
 11
4602.241714074255
 21
5249.119741444836
 31
0.0
  0
LINE
  5
2B3A7
330
2B2D8
100
AcDbEntity
  8
U3
100
AcDbLine
 10
4540.201129534437
 20
5406.619741444836
 30
0.0
 11
4697.701129534438
 21
5249.11974144484
 31
0.0
  0
LINE
  5
2B3A8
330
2B2D8
100
AcDbEntity
  8
U3
100
AcDbLine
 10
4649.971421804344
 20
5296.849449174932
 30
0.0
 11
4759.741714074254
 21
5406.619741444836
 31
0.0
  0
LINE
  5
2B3A9
330
2B2D8
100
AcDbEntity
  8
U3
100
AcDbLine
 10
4602.241714074255
 20
5344.579156905023
 30
0.0
 11
4664.282298614066
 21
5406.619741444836
 31
0.0
  0
LINE
  5
2B3AA
330
2B2D8
100
AcDbEntity
  8
U3
100
AcDbLine
 10
4964.971421804341
 20
5296.84944917493
 30
0.0
 11
5074.741714074246
 21
5406.619741444838
 31
0.0
  0
LINE
  5
2B3AB
330
2B2D8
100
AcDbEntity
  8
U3
100
AcDbLine
 10
4855.201129534439
 20
5406.619741444836
 30
0.0
 11
5012.701129534434
 21
5249.11974144484
 31
0.0
  0
LINE
  5
2B3AC
330
2B2D8
100
AcDbEntity
  8
U3
100
AcDbLine
 10
4807.471421804343
 20
5358.890033714745
 30
0.0
 11
4917.241714074251
 21
5249.119741444836
 31
0.0
  0
LINE
  5
2B3AD
330
2B2D8
100
AcDbEntity
  8
SUNPOU
100
AcDbLine
 10
4791.261865389882
 20
5406.619741444836
 30
0.0
 11
4843.223389616949
 21
5496.619741444837
 31
0.0
  0
LINE
  5
2B3AE
330
2B2D8
100
AcDbEntity
  8
U3
100
AcDbLine
 10
4917.241714074247
 20
5344.579156905025
 30
0.0
 11
4979.282298614062
 21
5406.619741444836
 31
0.0
  0
LINE
  5
2B3AF
330
2B2D8
100
AcDbEntity
  8
KISO
100
AcDbLine
 10
1795.201129534437
 20
4551.619741444836
 30
0.0
 11
3145.201129534438
 21
4551.619741444837
 31
0.0
  0
LINE
  5
2B3B0
330
2B2D8
100
AcDbEntity
  8
KISO
100
AcDbLine
 10
1795.201129534437
 20
4551.619741444836
 30
0.0
 11
1795.201129534437
 21
4701.619741444834
 31
0.0
  0
LINE
  5
2B3B1
330
2B2D8
100
AcDbEntity
  8
KISO
100
AcDbLine
 10
3145.201129534437
 20
4551.619741444837
 30
0.0
 11
3145.201129534438
 21
4701.619741444836
 31
0.0
  0
LINE
  5
2B3B2
330
2B2D8
100
AcDbEntity
  8
KISO
100
AcDbLine
 10
1795.201129534437
 20
4701.619741444834
 30
0.0
 11
3145.201129534438
 21
4701.619741444836
 31
0.0
  0
LINE
  5
2B3B3
330
2B2D8
100
AcDbEntity
  8
2PL-L2
100
AcDbLine
 10
6373.004567557741
 20
6997.204834655467
 30
0.0
 11
9965.004567557741
 21
6997.204834655467
 31
0.0
  0
LINE
  5
2B3B4
330
2B2D8
100
AcDbEntity
  8
2PL-L2
100
AcDbLine
 10
6373.004567557742
 20
2927.204834655467
 30
0.0
 11
9965.004567557741
 21
2927.204834655467
 31
0.0
  0
LINE
  5
2B3B5
330
2B2D8
100
AcDbEntity
  8
1PL-M1
100
AcDbLine
 10
6357.421839493874
 20
5992.204834655467
 30
0.0
 11
9996.063384907939
 21
5992.204834655467
 31
0.0
  0
LINE
  5
2B3B6
330
2B2D8
100
AcDbEntity
  8
U3
100
AcDbLine
 10
6419.004567557738
 20
7392.204834655466
 30
0.0
 11
9919.004567557742
 21
7392.204834655466
 31
0.0
  0
LINE
  5
2B3B7
330
2B2D8
100
AcDbEntity
  8
U3
100
AcDbLine
 10
6419.004567557738
 20
2532.204834655466
 30
0.0
 11
9919.004567557742
 21
2532.204834655467
 31
0.0
  0
LINE
  5
2B3B8
330
2B2D8
100
AcDbEntity
  8
1PL-M1
100
AcDbLine
 10
6357.421839493874
 20
3932.204834655467
 30
0.0
 11
9996.063384907939
 21
3932.204834655467
 31
0.0
  0
LINE
  5
2B3B9
330
2B2D8
100
AcDbEntity
  8
U3
100
AcDbLine
 10
6419.004567557738
 20
2532.204834655466
 30
0.0
 11
6419.004567557738
 21
7392.204834655466
 31
0.0
  0
LINE
  5
2B3BA
330
2B2D8
100
AcDbEntity
  8
SUNPOU
100
AcDbLine
 10
6769.004567557741
 20
3501.926974229796
 30
0.0
 11
6769.004567557735
 21
2102.204834655466
 31
0.0
  0
LINE
  5
2B3BB
330
2B2D8
100
AcDbEntity
  8
SUNPOU
100
AcDbLine
 10
6434.004567557734
 20
2132.204834655467
 30
0.0
 11
6754.004567557736
 21
2132.204834655467
 31
0.0
  0
TEXT
  5
2B3BC
330
2B2D8
100
AcDbEntity
  8
SUNPOU
100
AcDbText
 10
6508.29028184345
 20
2177.204834655467
 30
0.0
 40
90.0
  1
350
 41
0.6666666666666666
  7
00
 72
     4
 11
6594.004567557735
 21
2222.204834655467
 31
0.0
100
AcDbText
  0
TEXT
  5
2B3BD
330
2B2D8
100
AcDbEntity
  8
SUNPOU
100
AcDbText
 10
7602.004567557741
 20
2792.046901192671
 30
0.0
 40
90.0
  1
（屋根前面位置）
  7
01
 72
     4
 11
8019.004567557741
 21
2837.046901192671
 31
0.0
100
AcDbText
  0
TEXT
  5
2B3BE
330
2B2D8
100
AcDbEntity
  8
SUNPOU
100
AcDbText
 10
7494.004567557741
 20
2577.204834655466
 30
0.0
 40
90.0
  1
（土間コン前面位置）
  7
01
 72
     4
 11
8019.004567557741
 21
2622.204834655466
 31
0.0
100
AcDbText
  0
TEXT
  5
2B3BF
330
2B2D8
100
AcDbEntity
  8
SUNPOU
100
AcDbText
 10
7602.004567557741
 20
7053.762768118267
 30
0.0
 40
90.0
  1
（屋根後面位置）
  7
01
 72
     4
 11
8019.004567557741
 21
7098.762768118267
 31
0.0
100
AcDbText
  0
TEXT
  5
2B3C0
330
2B2D8
100
AcDbEntity
  8
SUNPOU
100
AcDbText
 10
7494.004567557741
 20
7437.204834655469
 30
0.0
 40
90.0
  1
（土間コン後面位置）
  7
01
 72
     4
 11
8019.004567557741
 21
7482.204834655468
 31
0.0
100
AcDbText
  0
LINE
  5
2B3C1
330
2B2D8
100
AcDbEntity
  8
2PL-L2
100
AcDbLine
 10
6373.004567557741
 20
6997.204834655467
 30
0.0
 11
6373.004567557742
 21
2927.204834655467
 31
0.0
  0
LINE
  5
2B3C2
330
2B2D8
100
AcDbEntity
  8
1PL-M1
100
AcDbLine
 10
9569.004567557742
 20
3531.926974229797
 30
0.0
 11
9569.004567557742
 21
6392.204834655466
 31
0.0
  0
LINE
  5
2B3C3
330
2B2D8
100
AcDbEntity
  8
1PL-M1
100
AcDbLine
 10
6769.004567557741
 20
3531.926974229797
 30
0.0
 11
6769.004567557741
 21
6392.204834655466
 31
0.0
  0
LINE
  5
2B3C4
330
2B2D8
100
AcDbEntity
  8
U3
100
AcDbLine
 10
9919.004567557742
 20
2532.204834655466
 30
0.0
 11
9919.004567557742
 21
7392.204834655466
 31
0.0
  0
LINE
  5
2B3C5
330
2B2D8
100
AcDbEntity
  8
2PL-L2
100
AcDbLine
 10
9965.004567557741
 20
6997.204834655467
 30
0.0
 11
9965.004567557741
 21
2927.204834655467
 31
0.0
  0
LINE
  5
2B3C6
330
2B2D8
100
AcDbEntity
  8
SUNPOU
100
AcDbLine
 10
6664.004567557739
 20
6552.204834655483
 30
0.0
 11
6769.004567557741
 21
6552.204834655483
 31
0.0
  0
TEXT
  5
2B3C7
330
2B2D8
100
AcDbEntity
  8
SUNPOU
100
AcDbText
 10
6448.111710414884
 20
6498.633406084055
 30
0.0
 40
90.0
  1
A'
 50
0.0000000000000509
 41
0.6700000000000001
  7
00
 72
     4
 11
6484.00456755774
 21
6552.204834655483
 31
0.0
100
AcDbText
  0
LINE
  5
2B3C8
330
2B2D8
100
AcDbEntity
  8
SUNPOU
100
AcDbLine
 10
6769.004567557741
 20
6552.204834655483
 30
0.0
 11
6769.004567557741
 21
6402.204834655481
 31
0.0
  0
LINE
  5
2B3C9
330
2B2D8
100
AcDbEntity
  8
SUNPOU
100
AcDbLine
 10
6664.004567557743
 20
5432.204834655482
 30
0.0
 11
6769.004567557743
 21
5432.204834655482
 31
0.0
  0
TEXT
  5
2B3CA
330
2B2D8
100
AcDbEntity
  8
SUNPOU
100
AcDbText
 10
6458.16171041489
 20
5387.204834655482
 30
0.0
 40
90.0
  1
A
 50
0.0000000000000509
 41
0.6700000000000001
  7
00
 72
     4
 11
6484.004567557747
 21
5432.204834655482
 31
0.0
100
AcDbText
  0
LINE
  5
2B3CB
330
2B2D8
100
AcDbEntity
  8
SUNPOU
100
AcDbLine
 10
6769.004567557743
 20
5432.204834655486
 30
0.0
 11
6769.004567557743
 21
5582.204834655485
 31
0.0
  0
LINE
  5
2B3CC
330
2B2D8
100
AcDbEntity
  8
SUNPOU
100
AcDbLine
 10
6664.004567557743
 20
5417.204834655481
 30
0.0
 11
6574.004567557746
 21
5432.204834655482
 31
0.0
  0
LINE
  5
2B3CD
330
2B2D8
100
AcDbEntity
  8
SUNPOU
100
AcDbLine
 10
6574.004567557746
 20
5432.204834655482
 30
0.0
 11
6664.004567557743
 21
5447.204834655481
 31
0.0
  0
SOLID
  5
2B3CE
330
2B2D8
100
AcDbEntity
  8
SUNPOU
100
AcDbTrace
 10
6664.004567557743
 20
5417.204834655481
 30
0.0
 11
6664.004567557743
 21
5447.204834655481
 31
0.0
 12
6574.004567557746
 22
5432.204834655482
 32
0.0
 13
6574.004567557746
 23
5432.204834655482
 33
0.0
  0
LINE
  5
2B3CF
330
2B2D8
100
AcDbEntity
  8
SUNPOU
100
AcDbLine
 10
6664.004567557743
 20
5447.204834655481
 30
0.0
 11
6664.004567557743
 21
5417.204834655481
 31
0.0
  0
LINE
  5
2B3D0
330
2B2D8
100
AcDbEntity
  8
SUNPOU
100
AcDbLine
 10
6664.004567557739
 20
6567.204834655481
 30
0.0
 11
6574.00456755774
 21
6552.204834655483
 31
0.0
  0
LINE
  5
2B3D1
330
2B2D8
100
AcDbEntity
  8
SUNPOU
100
AcDbLine
 10
6574.00456755774
 20
6552.204834655483
 30
0.0
 11
6664.004567557739
 21
6537.204834655482
 31
0.0
  0
SOLID
  5
2B3D2
330
2B2D8
100
AcDbEntity
  8
SUNPOU
100
AcDbTrace
 10
6664.004567557739
 20
6567.204834655481
 30
0.0
 11
6664.004567557739
 21
6537.204834655482
 31
0.0
 12
6574.00456755774
 22
6552.204834655483
 32
0.0
 13
6574.00456755774
 23
6552.204834655483
 33
0.0
  0
LINE
  5
2B3D3
330
2B2D8
100
AcDbEntity
  8
SUNPOU
100
AcDbLine
 10
6664.004567557739
 20
6537.204834655482
 30
0.0
 11
6664.004567557739
 21
6567.204834655481
 31
0.0
  0
LINE
  5
2B3D4
330
2B2D8
100
AcDbEntity
  8
SUNPOU
100
AcDbLine
 10
9219.004567557743
 20
5612.204834655466
 30
0.0
 11
9219.004567557743
 21
5312.204834655466
 31
0.0
  0
LINE
  5
2B3D5
330
2B2D8
100
AcDbEntity
  8
SUNPOU
100
AcDbLine
 10
9234.004567557734
 20
5342.204834655466
 30
0.0
 11
9904.004567557734
 21
5342.204834655466
 31
0.0
  0
TEXT
  5
2B3D6
330
2B2D8
100
AcDbEntity
  8
SUNPOU
100
AcDbText
 10
9483.290281843457
 20
5387.204834655466
 30
0.0
 40
90.0
  1
700
 41
0.6666666666666666
  7
00
 72
     1
 11
9569.004567557742
 21
5432.204834655466
 31
0.0
100
AcDbText
 73
     2
  0
LINE
  5
2B3D7
330
2B2D8
100
AcDbEntity
  8
SUNPOU
100
AcDbLine
 10
9631.504567557742
 20
5954.704834655466
 30
0.0
 11
9809.710583123225
 21
5954.704834655466
 31
0.0
  0
LINE
  5
2B3D8
330
2B2D8
100
AcDbEntity
  8
SUNPOU
100
AcDbLine
 10
9631.504567557742
 20
6029.704834655467
 30
0.0
 11
9809.710583123225
 21
6029.704834655467
 31
0.0
  0
LINE
  5
2B3D9
330
2B2D8
100
AcDbEntity
  8
SUNPOU
100
AcDbLine
 10
9779.710583123225
 20
5969.704834655466
 30
0.0
 11
9779.710583123225
 21
6029.704834655467
 31
0.0
  0
LINE
  5
2B3DA
330
2B2D8
100
AcDbEntity
  8
SUNPOU
100
AcDbLine
 10
9779.710583123225
 20
6044.704834655466
 30
0.0
 11
9779.710583123225
 21
6059.704834655466
 31
0.0
  0
LINE
  5
2B3DB
330
2B2D8
100
AcDbEntity
  8
SUNPOU
100
AcDbLine
 10
9779.710583123225
 20
6059.704834655466
 30
0.0
 11
9779.710583123225
 21
6159.547691798323
 31
0.0
  0
TEXT
  5
2B3DC
330
2B2D8
100
AcDbEntity
  8
SUNPOU
100
AcDbText
 10
9734.710583123224
 20
6053.833406084038
 30
0.0
 40
90.0
  1
75
 50
90.0
 41
0.6666666666666666
  7
00
 72
     1
 11
9689.710583123224
 21
6110.976263226895
 31
0.0
100
AcDbText
 73
     2
  0
LINE
  5
2B3DD
330
2B2D8
100
AcDbEntity
  8
SUNPOU
100
AcDbLine
 10
9601.504567557736
 20
5924.704834655466
 30
0.0
 11
9601.504567557736
 21
5748.261990769814
 31
0.0
  0
LINE
  5
2B3DE
330
2B2D8
100
AcDbEntity
  8
SUNPOU
100
AcDbLine
 10
9536.504567557734
 20
5924.704834655466
 30
0.0
 11
9536.504567557734
 21
5748.261990769814
 31
0.0
  0
LINE
  5
2B3DF
330
2B2D8
100
AcDbEntity
  8
SUNPOU
100
AcDbLine
 10
9586.504567557742
 20
5778.261990769816
 30
0.0
 11
9536.504567557734
 21
5778.261990769816
 31
0.0
  0
LINE
  5
2B3E0
330
2B2D8
100
AcDbEntity
  8
SUNPOU
100
AcDbLine
 10
9521.504567557734
 20
5778.261990769816
 30
0.0
 11
9506.504567557742
 21
5778.261990769816
 31
0.0
  0
LINE
  5
2B3E1
330
2B2D8
100
AcDbEntity
  8
SUNPOU
100
AcDbLine
 10
9506.504567557742
 20
5778.261990769816
 30
0.0
 11
9409.518853272027
 21
5778.261990769816
 31
0.0
  0
TEXT
  5
2B3E2
330
2B2D8
100
AcDbEntity
  8
SUNPOU
100
AcDbText
 10
9398.090281843451
 20
5823.261990769815
 30
0.0
 40
90.0
  1
65
 41
0.6666666666666666
  7
00
 72
     1
 11
9456.661710414881
 21
5868.261990769815
 31
0.0
100
AcDbText
 73
     2
  0
SOLID
  5
2B3E3
330
2B2D8
100
AcDbEntity
  8
HIKIDASHI
100
AcDbTrace
 10
9515.164821595572
 20
6086.66635888253
 30
0.0
 11
9497.84431351988
 21
6076.666358882526
 31
0.0
 12
9536.504567557734
 22
6029.704834655467
 32
0.0
 13
9536.504567557734
 23
6029.704834655467
 33
0.0
  0
LINE
  5
2B3E4
330
2B2D8
100
AcDbEntity
  8
HIKIDASHI
100
AcDbLine
 10
9506.504567557728
 20
6081.666358882527
 30
0.0
 11
9294.132090706538
 21
6449.506278917882
 31
0.0
  0
TEXT
  5
2B3E5
330
2B2D8
100
AcDbEntity
  8
HIKIDASHI
100
AcDbText
 10
9180.132090706536
 20
6494.506278917882
 30
0.0
 40
90.0
  1
柱
  7
01
 72
     2
 11
9264.132090706537
 21
6539.506278917882
 31
0.0
100
AcDbText
 73
     2
  0
LINE
  5
2B3E6
330
2B2D8
100
AcDbEntity
  8
HIKIDASHI
100
AcDbLine
 10
9150.13209070654
 20
6449.506278917882
 30
0.0
 11
9294.132090706538
 21
6449.506278917882
 31
0.0
  0
LINE
  5
2B3E7
330
2B2D8
100
AcDbEntity
  8
SUNPOU
100
AcDbLine
 10
9230.254567557734
 20
5342.204834655466
 30
0.0
 11
9241.504567557734
 21
5342.204834655466
 31
0.0
  0
LINE
  5
2B3E8
330
2B2D8
100
AcDbEntity
  8
SUNPOU
100
AcDbLine
 10
9907.754567557736
 20
5342.204834655466
 30
0.0
 11
9896.504567557736
 21
5342.204834655466
 31
0.0
  0
LINE
  5
2B3E9
330
2B2D8
100
AcDbEntity
  8
SUNPOU
100
AcDbLine
 10
9949.004567557736
 20
5642.204834655466
 30
0.0
 11
10249.00456755772
 21
5642.204834655466
 31
0.0
  0
LINE
  5
2B3EA
330
2B2D8
100
AcDbEntity
  8
SUNPOU
100
AcDbLine
 10
10219.00456755772
 20
6327.204834655467
 30
0.0
 11
10219.00456755772
 21
5657.204834655466
 31
0.0
  0
TEXT
  5
2B3EB
330
2B2D8
100
AcDbEntity
  8
SUNPOU
100
AcDbText
 10
10174.00456755772
 20
5906.490548941182
 30
0.0
 40
90.0
  1
700
 50
90.0
 41
0.6666666666666666
  7
00
100
AcDbText
  0
LINE
  5
2B3EC
330
2B2D8
100
AcDbEntity
  8
SUNPOU
100
AcDbLine
 10
9525.254567557736
 20
5778.261990769816
 30
0.0
 11
9514.004567557735
 21
5778.261990769816
 31
0.0
  0
LINE
  5
2B3ED
330
2B2D8
100
AcDbEntity
  8
SUNPOU
100
AcDbLine
 10
9590.254567557735
 20
5778.261990769816
 30
0.0
 11
9579.004567557735
 21
5778.261990769816
 31
0.0
  0
LINE
  5
2B3EE
330
2B2D8
100
AcDbEntity
  8
SUNPOU
100
AcDbLine
 10
9779.710583123225
 20
5965.954834655466
 30
0.0
 11
9779.710583123225
 21
5977.204834655466
 31
0.0
  0
LINE
  5
2B3EF
330
2B2D8
100
AcDbEntity
  8
SUNPOU
100
AcDbLine
 10
9779.710583123225
 20
6040.954834655466
 30
0.0
 11
9779.710583123225
 21
6052.204834655467
 31
0.0
  0
LINE
  5
2B3F0
330
2B2D8
100
AcDbEntity
  8
SUNPOU
100
AcDbLine
 10
9949.004567557743
 20
6342.204834655468
 30
0.0
 11
10249.00456755772
 21
6342.204834655468
 31
0.0
  0
LINE
  5
2B3F1
330
2B2D8
100
AcDbEntity
  8
SUNPOU
100
AcDbLine
 10
10219.00456755772
 20
6330.954834655468
 30
0.0
 11
10219.00456755772
 21
6319.704834655468
 31
0.0
  0
LINE
  5
2B3F2
330
2B2D8
100
AcDbEntity
  8
SUNPOU
100
AcDbLine
 10
9631.504567557742
 20
3894.704834655467
 30
0.0
 11
9809.710583123225
 21
3894.704834655467
 31
0.0
  0
LINE
  5
2B3F3
330
2B2D8
100
AcDbEntity
  8
SUNPOU
100
AcDbLine
 10
9631.504567557742
 20
3969.704834655468
 30
0.0
 11
9809.710583123225
 21
3969.704834655468
 31
0.0
  0
LINE
  5
2B3F4
330
2B2D8
100
AcDbEntity
  8
SUNPOU
100
AcDbLine
 10
9779.710583123225
 20
3909.704834655467
 30
0.0
 11
9779.710583123225
 21
3969.704834655468
 31
0.0
  0
LINE
  5
2B3F5
330
2B2D8
100
AcDbEntity
  8
SUNPOU
100
AcDbLine
 10
9779.710583123225
 20
3984.704834655468
 30
0.0
 11
9779.710583123225
 21
3999.704834655467
 31
0.0
  0
LINE
  5
2B3F6
330
2B2D8
100
AcDbEntity
  8
SUNPOU
100
AcDbLine
 10
9779.710583123225
 20
3999.704834655467
 30
0.0
 11
9779.710583123225
 21
4099.547691798322
 31
0.0
  0
TEXT
  5
2B3F7
330
2B2D8
100
AcDbEntity
  8
SUNPOU
100
AcDbText
 10
9734.710583123224
 20
3993.833406084038
 30
0.0
 40
90.0
  1
75
 50
90.0
 41
0.6666666666666666
  7
00
 72
     1
 11
9689.710583123224
 21
4050.976263226895
 31
0.0
100
AcDbText
 73
     2
  0
LINE
  5
2B3F8
330
2B2D8
100
AcDbEntity
  8
SUNPOU
100
AcDbLine
 10
9601.504567557736
 20
3864.704834655468
 30
0.0
 11
9601.504567557736
 21
3688.261990769816
 31
0.0
  0
LINE
  5
2B3F9
330
2B2D8
100
AcDbEntity
  8
SUNPOU
100
AcDbLine
 10
9536.504567557734
 20
3864.704834655468
 30
0.0
 11
9536.504567557734
 21
3688.261990769816
 31
0.0
  0
LINE
  5
2B3FA
330
2B2D8
100
AcDbEntity
  8
SUNPOU
100
AcDbLine
 10
9586.504567557742
 20
3718.261990769816
 30
0.0
 11
9536.504567557734
 21
3718.261990769816
 31
0.0
  0
LINE
  5
2B3FB
330
2B2D8
100
AcDbEntity
  8
SUNPOU
100
AcDbLine
 10
9521.504567557734
 20
3718.261990769816
 30
0.0
 11
9506.504567557742
 21
3718.261990769816
 31
0.0
  0
LINE
  5
2B3FC
330
2B2D8
100
AcDbEntity
  8
SUNPOU
100
AcDbLine
 10
9506.504567557742
 20
3718.261990769816
 30
0.0
 11
9409.518853272027
 21
3718.261990769816
 31
0.0
  0
TEXT
  5
2B3FD
330
2B2D8
100
AcDbEntity
  8
SUNPOU
100
AcDbText
 10
9398.090281843451
 20
3763.261990769815
 30
0.0
 40
90.0
  1
65
 41
0.6666666666666666
  7
00
 72
     1
 11
9456.661710414881
 21
3808.261990769815
 31
0.0
100
AcDbText
 73
     2
  0
SOLID
  5
2B3FE
330
2B2D8
100
AcDbEntity
  8
HIKIDASHI
100
AcDbTrace
 10
9515.164821595572
 20
4026.666358882532
 30
0.0
 11
9497.84431351988
 21
4016.666358882527
 31
0.0
 12
9536.504567557734
 22
3969.704834655468
 32
0.0
 13
9536.504567557734
 23
3969.704834655468
 33
0.0
  0
LINE
  5
2B3FF
330
2B2D8
100
AcDbEntity
  8
HIKIDASHI
100
AcDbLine
 10
9506.504567557728
 20
4021.666358882526
 30
0.0
 11
9294.132090706538
 21
4389.506278917882
 31
0.0
  0
TEXT
  5
2B400
330
2B2D8
100
AcDbEntity
  8
HIKIDASHI
100
AcDbText
 10
9180.132090706536
 20
4434.506278917884
 30
0.0
 40
90.0
  1
柱
  7
01
 72
     2
 11
9264.132090706537
 21
4479.506278917884
 31
0.0
100
AcDbText
 73
     2
  0
LINE
  5
2B401
330
2B2D8
100
AcDbEntity
  8
HIKIDASHI
100
AcDbLine
 10
9150.13209070654
 20
4389.506278917882
 30
0.0
 11
9294.132090706538
 21
4389.506278917882
 31
0.0
  0
LINE
  5
2B402
330
2B2D8
100
AcDbEntity
  8
SUNPOU
100
AcDbLine
 10
9525.254567557736
 20
3718.261990769816
 30
0.0
 11
9514.004567557735
 21
3718.261990769816
 31
0.0
  0
LINE
  5
2B403
330
2B2D8
100
AcDbEntity
  8
SUNPOU
100
AcDbLine
 10
9590.254567557735
 20
3718.261990769816
 30
0.0
 11
9579.004567557735
 21
3718.261990769816
 31
0.0
  0
LINE
  5
2B404
330
2B2D8
100
AcDbEntity
  8
SUNPOU
100
AcDbLine
 10
9779.710583123225
 20
3905.954834655466
 30
0.0
 11
9779.710583123225
 21
3917.204834655468
 31
0.0
  0
LINE
  5
2B405
330
2B2D8
100
AcDbEntity
  8
SUNPOU
100
AcDbLine
 10
9779.710583123225
 20
3980.954834655467
 30
0.0
 11
9779.710583123225
 21
3992.204834655467
 31
0.0
  0
LINE
  5
2B406
330
2B2D8
100
AcDbEntity
  8
SUNPOU
100
AcDbLine
 10
9569.004567557742
 20
3506.252883623627
 30
0.0
 11
9569.004567557742
 21
3416.896717844887
 31
0.0
  0
TEXT
  5
2B407
330
2B2D8
100
AcDbEntity
  8
HIKIDASHI
100
AcDbText
 10
7543.775065030335
 20
1526.361478450244
 30
0.0
 40
135.0
  1
基 礎 伏 図
  7
01
 72
     2
 11
8389.775065030335
 21
1526.361478450244
 31
0.0
100
AcDbText
  0
TEXT
  5
2B408
330
2B2D8
100
AcDbEntity
  8
HIKIDASHI
100
AcDbText
 10
8491.025065030335
 20
1553.154975510082
 30
0.0
 40
90.0
  1
(S=
 41
0.6700000000000001
  7
00
100
AcDbText
  0
TEXT
  5
2B409
330
2B2D8
100
AcDbEntity
  8
HIKIDASHI
100
AcDbText
 10
8783.682799665534
 20
1523.716165409773
 30
0.0
 40
90.0
  1
30
 41
0.6700000000000001
  7
00
100
AcDbText
  0
TEXT
  5
2B40A
330
2B2D8
100
AcDbEntity
  8
HIKIDASHI
100
AcDbText
 10
8920.28756273577
 20
1553.154975510082
 30
0.0
 40
90.0
  1
)
 41
0.6700000000000001
  7
00
100
AcDbText
  0
TEXT
  5
2B40B
330
2B2D8
100
AcDbEntity
  8
HIKIDASHI
100
AcDbText
 10
8731.600750557571
 20
1553.154975510082
 30
0.0
 40
90.0
  1
/
 41
0.6700000000000001
  7
00
100
AcDbText
  0
TEXT
  5
2B40C
330
2B2D8
100
AcDbEntity
  8
HIKIDASHI
100
AcDbText
 10
8694.321470460222
 20
1570.661637976806
 30
0.0
 40
90.0
  1
1
 41
0.6700000000000001
  7
00
100
AcDbText
  0
TEXT
  5
2B40D
330
2B2D8
100
AcDbEntity
  8
FILENAME
100
AcDbText
 10
10258.64285714285
 20
130.4999999999999
 30
0.0
 40
75.0
  1
＜YOTC-280-SA-1_3_JIS_GL.DXF ＞
  7
FILENAME
 72
     2
 11
12286.5
 21
130.4999999999999
 31
0.0
100
AcDbText
  0
LINE
  5
2B40E
330
2B2D8
100
AcDbEntity
  8
WAKUSEN-01
100
AcDbLine
 10
325.5000000000006
 20
310.4999999999997
 30
0.0
 11
12286.5
 21
310.4999999999997
 31
0.0
  0
LINE
  5
2B40F
330
2B2D8
100
AcDbEntity
  8
WAKUSEN-01
100
AcDbLine
 10
325.5000000000006
 20
8431.500000000003
 30
0.0
 11
12286.5
 21
8431.500000000003
 31
0.0
  0
LINE
  5
2B410
330
2B2D8
100
AcDbEntity
  8
WAKUSEN-01
100
AcDbLine
 10
325.5000000000006
 20
310.4999999999997
 30
0.0
 11
325.5000000000006
 21
8431.500000000003
 31
0.0
  0
LINE
  5
2B411
330
2B2D8
100
AcDbEntity
  8
WAKUSEN-01
100
AcDbLine
 10
12286.5
 20
310.4999999999997
 30
0.0
 11
12286.5
 21
8431.500000000003
 31
0.0
  0
LINE
  5
2B412
330
2B2D8
100
AcDbEntity
  8
WAKUSEN-01
100
AcDbLine
 10
7710.0
 20
931.4999999999999
 30
0.0
 11
12286.5
 21
931.4999999999995
 31
0.0
  0
LINE
  5
2B413
330
2B2D8
100
AcDbEntity
  8
WAKUSEN-02
100
AcDbLine
 10
7710.0
 20
620.9999999999999
 30
0.0
 11
10075.49999999999
 21
620.9999999999999
 31
0.0
  0
TEXT
  5
2B414
330
2B2D8
100
AcDbEntity
  8
WAKUMOJI-01
100
AcDbText
 10
7751.347597486038
 20
797.2136285022457
 30
0.0
 40
90.0
  1
名　称
  7
WAKUMOJI
100
AcDbText
  0
TEXT
  5
2B415
330
2B2D8
100
AcDbEntity
  8
WAKUMOJI-01
100
AcDbText
 10
7746.18955690947
 20
494.6733656174329
 30
0.0
 40
90.0
  1
機種名
  7
WAKUMOJI
100
AcDbText
  0
LINE
  5
2B416
330
2B2D8
100
AcDbEntity
  8
WAKUSEN-01
100
AcDbLine
 10
7710.0
 20
310.4999999999989
 30
0.0
 11
7710.0
 21
931.4999999999999
 31
0.0
  0
LINE
  5
2B417
330
2B2D8
100
AcDbEntity
  8
WAKUSEN-02
100
AcDbLine
 10
10075.49999999999
 20
310.4999999999973
 30
0.0
 11
10075.49999999999
 21
931.4999999999999
 31
0.0
  0
LINE
  5
2B418
330
2B2D8
100
AcDbEntity
  8
YODOROGO
100
AcDbLine
 10
11241.60162798446
 20
748.4060611609828
 30
0.0
 11
11186.10162798447
 21
748.4060611609828
 31
0.0
1001
AUTOCAD_POSTSCRIPT_FIGURE
1002
{
1000
PSFILL
1000
Grayscale
1000
Grayscale
1070
    25
1002
}
  0
LINE
  5
2B419
330
2B2D8
100
AcDbEntity
  8
YODOROGO
100
AcDbLine
 10
11186.10162798447
 20
730.4060611609828
 30
0.0
 11
11241.60162798446
 21
730.4060611609828
 31
0.0
1001
AUTOCAD_POSTSCRIPT_FIGURE
1002
{
1000
PSFILL
1000
Grayscale
1000
Grayscale
1070
    25
1002
}
  0
LINE
  5
2B41A
330
2B2D8
100
AcDbEntity
  8
YODOROGO
100
AcDbLine
 10
11241.60162798446
 20
715.4060611609828
 30
0.0
 11
11186.10162798447
 21
715.4060611609828
 31
0.0
1001
AUTOCAD_POSTSCRIPT_FIGURE
1002
{
1000
PSFILL
1000
Grayscale
1000
Grayscale
1070
    25
1002
}
  0
LINE
  5
2B41B
330
2B2D8
100
AcDbEntity
  8
YODOROGO
100
AcDbLine
 10
11186.10162798447
 20
697.406061160983
 30
0.0
 11
11241.60162798446
 21
697.406061160983
 31
0.0
1001
AUTOCAD_POSTSCRIPT_FIGURE
1002
{
1000
PSFILL
1000
Grayscale
1000
Grayscale
1070
    25
1002
}
  0
LINE
  5
2B41C
330
2B2D8
100
AcDbEntity
  8
YODOROGO
100
AcDbLine
 10
11241.60162798446
 20
682.4060611609829
 30
0.0
 11
11186.10162798447
 21
682.4060611609829
 31
0.0
1001
AUTOCAD_POSTSCRIPT_FIGURE
1002
{
1000
PSFILL
1000
Grayscale
1000
Grayscale
1070
    25
1002
}
  0
LINE
  5
2B41D
330
2B2D8
100
AcDbEntity
  8
YODOROGO
100
AcDbLine
 10
11220.60162798447
 20
640.4060611609828
 30
0.0
 11
11241.60162798446
 21
640.4060611609828
 31
0.0
1001
AUTOCAD_POSTSCRIPT_FIGURE
1002
{
1000
PSFILL
1000
Grayscale
1000
Grayscale
1070
    25
1002
}
  0
LINE
  5
2B41E
330
2B2D8
100
AcDbEntity
  8
YODOROGO
100
AcDbLine
 10
11151.60162798447
 20
535.4060611609829
 30
0.0
 11
11226.60162798446
 21
555.5022505933164
 31
0.0
  0
LINE
  5
2B41F
330
2B2D8
100
AcDbEntity
  8
YODOROGO
100
AcDbLine
 10
11231.10162798446
 20
640.4060611609828
 30
0.0
 11
11207.10162798447
 21
640.4060611609828
 31
0.0
  0
ARC
  5
2B420
330
2B2D8
100
AcDbEntity
  8
YODOROGO
100
AcDbCircle
 10
11345.38040618545
 20
677.9492284624735
 30
0.0
 40
143.2075740771177
100
AcDbArc
 50
213.9611167766784
 51
264.4787207431779
  0
ARC
  5
2B421
330
2B2D8
100
AcDbEntity
  8
YODOROGO
100
AcDbCircle
 10
11345.38040618547
 20
677.9492284624883
 30
0.0
 40
143.2075740771305
100
AcDbArc
 50
208.141144204866
 51
212.9210361185994
  0
LINE
  5
2B422
330
2B2D8
100
AcDbEntity
  8
YODOROGO
100
AcDbLine
 10
11164.27870236948
 20
583.8028730048376
 30
0.0
 11
11225.1690496907
 21
600.1183923964076
 31
0.0
  0
LINE
  5
2B423
330
2B2D8
100
AcDbEntity
  8
YODOROGO
100
AcDbLine
 10
11151.60162798447
 20
535.4060611609829
 30
0.0
 11
11226.60162798446
 21
555.5022505933164
 31
0.0
  0
LINE
  5
2B424
330
2B2D8
100
AcDbEntity
  8
YODOROGO
100
AcDbLine
 10
11231.10162798446
 20
640.4060611609828
 30
0.0
 11
11207.10162798447
 21
640.4060611609828
 31
0.0
  0
ARC
  5
2B425
330
2B2D8
100
AcDbEntity
  8
YODOROGO
100
AcDbCircle
 10
11345.38040618545
 20
677.9492284624735
 30
0.0
 40
143.2075740771177
100
AcDbArc
 50
213.9611167766784
 51
264.4787207431779
  0
LINE
  5
2B426
330
2B2D8
100
AcDbEntity
  8
YODOROGO
100
AcDbLine
 10
10797.60162798446
 20
682.4060611609829
 30
0.0
 11
10662.60162798446
 21
682.4060611609829
 31
0.0
  0
LINE
  5
2B427
330
2B2D8
100
AcDbEntity
  8
YODOROGO
100
AcDbLine
 10
10692.60162798446
 20
535.4060611609829
 30
0.0
 11
10797.60162798446
 21
535.4060611609829
 31
0.0
  0
LINE
  5
2B428
330
2B2D8
100
AcDbEntity
  8
YODOROGO
100
AcDbLine
 10
10773.60162798447
 20
721.4060611609824
 30
0.0
 11
10686.60162798446
 21
721.4060611609824
 31
0.0
  0
LINE
  5
2B429
330
2B2D8
100
AcDbEntity
  8
YODOROGO
100
AcDbLine
 10
10719.60162798446
 20
760.4060611609829
 30
0.0
 11
10746.60162798447
 21
760.4060611609829
 31
0.0
  0
LINE
  5
2B42A
330
2B2D8
100
AcDbEntity
  8
YODOROGO
100
AcDbLine
 10
10662.60162798446
 20
640.4060611609828
 30
0.0
 11
10662.60162798446
 21
565.4060611609828
 31
0.0
  0
LINE
  5
2B42B
330
2B2D8
100
AcDbEntity
  8
YODOROGO
100
AcDbLine
 10
10686.60162798446
 20
586.4060611609825
 30
0.0
 11
10686.60162798446
 21
640.4060611609828
 31
0.0
  0
LINE
  5
2B42C
330
2B2D8
100
AcDbEntity
  8
YODOROGO
100
AcDbLine
 10
10719.60162798446
 20
655.4060611609838
 30
0.0
 11
10719.60162798446
 21
580.406061160983
 31
0.0
  0
LINE
  5
2B42D
330
2B2D8
100
AcDbEntity
  8
YODOROGO
100
AcDbLine
 10
10446.60162798447
 20
631.4060611609833
 30
0.0
 11
10416.60162798446
 21
607.4896552667143
 31
0.0
  0
LINE
  5
2B42E
330
2B2D8
100
AcDbEntity
  8
YODOROGO
100
AcDbLine
 10
10476.60162798446
 20
607.4896552667143
 30
0.0
 11
10446.60162798447
 21
631.4060611609833
 31
0.0
  0
LINE
  5
2B42F
330
2B2D8
100
AcDbEntity
  8
YODOROGO
100
AcDbLine
 10
10446.60162798447
 20
640.4060611609828
 30
0.0
 11
10476.60162798446
 21
616.4896552667137
 31
0.0
  0
LINE
  5
2B430
330
2B2D8
100
AcDbEntity
  8
YODOROGO
100
AcDbLine
 10
10416.60162798446
 20
616.4896552667137
 30
0.0
 11
10446.60162798447
 21
640.4060611609828
 31
0.0
  0
LINE
  5
2B431
330
2B2D8
100
AcDbEntity
  8
YODOROGO
100
AcDbLine
 10
10515.34245150633
 20
622.406061160983
 30
0.0
 11
10515.34245150633
 21
631.4060611609825
 31
0.0
  0
LINE
  5
2B432
330
2B2D8
100
AcDbEntity
  8
YODOROGO
100
AcDbLine
 10
10491.60162798447
 20
631.4060611609825
 30
0.0
 11
10491.60162798447
 21
625.4060611609819
 31
0.0
  0
LINE
  5
2B433
330
2B2D8
100
AcDbEntity
  8
YODOROGO
100
AcDbLine
 10
10536.8008200866
 20
640.4060611609828
 30
0.0
 11
10536.8008200866
 21
620.813863977996
 31
0.0
1001
AUTOCAD_POSTSCRIPT_FIGURE
1002
{
1000
PSFILL
1000
Grayscale
1000
Grayscale
1070
   100
1002
}
  0
LINE
  5
2B434
330
2B2D8
100
AcDbEntity
  8
YODOROGO
100
AcDbLine
 10
10530.80082008658
 20
620.813863977996
 30
0.0
 11
10530.80082008658
 21
640.4060611609828
 31
0.0
1001
AUTOCAD_POSTSCRIPT_FIGURE
1002
{
1000
PSFILL
1000
Grayscale
1000
Grayscale
1070
   100
1002
}
  0
LINE
  5
2B435
330
2B2D8
100
AcDbEntity
  8
YODOROGO
100
AcDbLine
 10
10428.60162798447
 20
603.2894640162218
 30
0.0
 11
10428.60162798447
 21
612.2894640162221
 31
0.0
  0
LINE
  5
2B436
330
2B2D8
100
AcDbEntity
  8
YODOROGO
100
AcDbLine
 10
10464.60162798447
 20
603.2894640162218
 30
0.0
 11
10428.60162798447
 21
603.2894640162218
 31
0.0
  0
LINE
  5
2B437
330
2B2D8
100
AcDbEntity
  8
YODOROGO
100
AcDbLine
 10
10464.60162798447
 20
612.2894640162221
 30
0.0
 11
10464.60162798447
 21
603.2894640162218
 31
0.0
  0
LINE
  5
2B438
330
2B2D8
100
AcDbEntity
  8
YODOROGO
100
AcDbLine
 10
10428.60162798447
 20
612.2894640162221
 30
0.0
 11
10464.60162798447
 21
612.2894640162221
 31
0.0
  0
LINE
  5
2B439
330
2B2D8
100
AcDbEntity
  8
YODOROGO
100
AcDbLine
 10
10434.1910958434
 20
588.1885715139279
 30
0.0
 11
10419.60162798446
 21
553.4060611609827
 31
0.0
1001
AUTOCAD_POSTSCRIPT_FIGURE
1002
{
1000
PSFILL
1000
Grayscale
1000
Grayscale
1070
   100
1002
}
  0
LINE
  5
2B43A
330
2B2D8
100
AcDbEntity
  8
YODOROGO
100
AcDbLine
 10
10416.60162798446
 20
588.1885715139279
 30
0.0
 11
10434.1910958434
 21
588.1885715139279
 31
0.0
1001
AUTOCAD_POSTSCRIPT_FIGURE
1002
{
1000
PSFILL
1000
Grayscale
1000
Grayscale
1070
   100
1002
}
  0
LINE
  5
2B43B
330
2B2D8
100
AcDbEntity
  8
YODOROGO
100
AcDbLine
 10
10416.60162798446
 20
595.688571513928
 30
0.0
 11
10416.60162798446
 21
588.1885715139279
 31
0.0
1001
AUTOCAD_POSTSCRIPT_FIGURE
1002
{
1000
PSFILL
1000
Grayscale
1000
Grayscale
1070
   100
1002
}
  0
LINE
  5
2B43C
330
2B2D8
100
AcDbEntity
  8
YODOROGO
100
AcDbLine
 10
10476.60162798446
 20
595.688571513928
 30
0.0
 11
10416.60162798446
 21
595.688571513928
 31
0.0
1001
AUTOCAD_POSTSCRIPT_FIGURE
1002
{
1000
PSFILL
1000
Grayscale
1000
Grayscale
1070
   100
1002
}
  0
LINE
  5
2B43D
330
2B2D8
100
AcDbEntity
  8
YODOROGO
100
AcDbLine
 10
10476.60162798446
 20
588.1885715139279
 30
0.0
 11
10476.60162798446
 21
595.688571513928
 31
0.0
1001
AUTOCAD_POSTSCRIPT_FIGURE
1002
{
1000
PSFILL
1000
Grayscale
1000
Grayscale
1070
   100
1002
}
  0
LINE
  5
2B43E
330
2B2D8
100
AcDbEntity
  8
YODOROGO
100
AcDbLine
 10
10441.69109584339
 20
588.1885715139279
 30
0.0
 11
10476.60162798446
 21
588.1885715139279
 31
0.0
1001
AUTOCAD_POSTSCRIPT_FIGURE
1002
{
1000
PSFILL
1000
Grayscale
1000
Grayscale
1070
   100
1002
}
  0
LINE
  5
2B43F
330
2B2D8
100
AcDbEntity
  8
YODOROGO
100
AcDbLine
 10
10430.83001935679
 20
560.9060611609827
 30
0.0
 11
10441.69109584339
 21
588.1885715139279
 31
0.0
1001
AUTOCAD_POSTSCRIPT_FIGURE
1002
{
1000
PSFILL
1000
Grayscale
1000
Grayscale
1070
   100
1002
}
  0
LINE
  5
2B440
330
2B2D8
100
AcDbEntity
  8
YODOROGO
100
AcDbLine
 10
10463.27054655324
 20
560.9060611609827
 30
0.0
 11
10430.83001935679
 21
560.9060611609827
 31
0.0
1001
AUTOCAD_POSTSCRIPT_FIGURE
1002
{
1000
PSFILL
1000
Grayscale
1000
Grayscale
1070
   100
1002
}
  0
LINE
  5
2B441
330
2B2D8
100
AcDbEntity
  8
YODOROGO
100
AcDbLine
 10
10456.8993767966
 20
576.0876790116348
 30
0.0
 11
10463.27054655324
 21
560.9060611609827
 31
0.0
1001
AUTOCAD_POSTSCRIPT_FIGURE
1002
{
1000
PSFILL
1000
Grayscale
1000
Grayscale
1070
   100
1002
}
  0
LINE
  5
2B442
330
2B2D8
100
AcDbEntity
  8
YODOROGO
100
AcDbLine
 10
10462.8993767966
 20
576.0876790116348
 30
0.0
 11
10456.8993767966
 21
576.0876790116348
 31
0.0
1001
AUTOCAD_POSTSCRIPT_FIGURE
1002
{
1000
PSFILL
1000
Grayscale
1000
Grayscale
1070
   100
1002
}
  0
LINE
  5
2B443
330
2B2D8
100
AcDbEntity
  8
YODOROGO
100
AcDbLine
 10
10473.60162798447
 20
553.4060611609827
 30
0.0
 11
10462.8993767966
 21
576.0876790116348
 31
0.0
1001
AUTOCAD_POSTSCRIPT_FIGURE
1002
{
1000
PSFILL
1000
Grayscale
1000
Grayscale
1070
   100
1002
}
  0
LINE
  5
2B444
330
2B2D8
100
AcDbEntity
  8
YODOROGO
100
AcDbLine
 10
10419.60162798446
 20
553.4060611609827
 30
0.0
 11
10473.60162798447
 21
553.4060611609827
 31
0.0
1001
AUTOCAD_POSTSCRIPT_FIGURE
1002
{
1000
PSFILL
1000
Grayscale
1000
Grayscale
1070
   100
1002
}
  0
LINE
  5
2B445
330
2B2D8
100
AcDbEntity
  8
YODOROGO
100
AcDbLine
 10
10416.60162798446
 20
607.4896552667143
 30
0.0
 11
10416.60162798446
 21
616.4896552667137
 31
0.0
  0
LINE
  5
2B446
330
2B2D8
100
AcDbEntity
  8
YODOROGO
100
AcDbLine
 10
10476.60162798446
 20
616.4896552667137
 30
0.0
 11
10476.60162798446
 21
607.4896552667143
 31
0.0
  0
ARC
  5
2B447
330
2B2D8
100
AcDbEntity
  8
YODOROGO
100
AcDbCircle
 10
10584.72766580511
 20
600.3291619969972
 30
0.0
 40
65.99999999999997
100
AcDbArc
 50
280.3644312771313
 51
3.541483659218056
  0
ARC
  5
2B448
330
2B2D8
100
AcDbEntity
  8
YODOROGO
100
AcDbCircle
 10
10588.40851153474
 20
612.5991776107142
 30
0.0
 40
41.99999999999936
100
AcDbArc
 50
281.2490582504155
 51
348.7509417495832
  0
LINE
  5
2B449
330
2B2D8
100
AcDbEntity
  8
YODOROGO
100
AcDbLine
 10
10596.60162798446
 20
571.4060611609824
 30
0.0
 11
10596.60162798446
 21
535.4060611609829
 31
0.0
  0
LINE
  5
2B44A
330
2B2D8
100
AcDbEntity
  8
YODOROGO
100
AcDbLine
 10
10507.53333890132
 20
603.9939618982182
 30
0.0
 11
10515.34245150633
 21
622.406061160983
 31
0.0
  0
LINE
  5
2B44B
330
2B2D8
100
AcDbEntity
  8
YODOROGO
100
AcDbLine
 10
10515.60162798446
 20
593.6701837306505
 30
0.0
 11
10507.53333890132
 21
603.9939618982182
 31
0.0
  0
LINE
  5
2B44C
330
2B2D8
100
AcDbEntity
  8
YODOROGO
100
AcDbLine
 10
10515.60162798446
 20
586.1701837306497
 30
0.0
 11
10515.60162798446
 21
593.6701837306505
 31
0.0
  0
LINE
  5
2B44D
330
2B2D8
100
AcDbEntity
  8
YODOROGO
100
AcDbLine
 10
10506.60162798447
 20
594.4638989060739
 30
0.0
 11
10515.60162798446
 21
586.1701837306497
 31
0.0
  0
LINE
  5
2B44E
330
2B2D8
100
AcDbEntity
  8
YODOROGO
100
AcDbLine
 10
10506.60162798447
 20
553.4060611609827
 30
0.0
 11
10506.60162798447
 21
594.4638989060739
 31
0.0
  0
LINE
  5
2B44F
330
2B2D8
100
AcDbEntity
  8
YODOROGO
100
AcDbLine
 10
10500.60162798446
 20
553.4060611609827
 30
0.0
 11
10506.60162798447
 21
553.4060611609827
 31
0.0
  0
LINE
  5
2B450
330
2B2D8
100
AcDbEntity
  8
YODOROGO
100
AcDbLine
 10
10500.60162798446
 20
592.5020061336555
 30
0.0
 11
10500.60162798446
 21
553.4060611609827
 31
0.0
  0
LINE
  5
2B451
330
2B2D8
100
AcDbEntity
  8
YODOROGO
100
AcDbLine
 10
10491.60162798447
 20
574.7880296375358
 30
0.0
 11
10500.60162798446
 21
592.5020061336555
 31
0.0
  0
LINE
  5
2B452
330
2B2D8
100
AcDbEntity
  8
YODOROGO
100
AcDbLine
 10
10491.60162798447
 20
583.788029637536
 30
0.0
 11
10491.60162798447
 21
574.7880296375358
 31
0.0
  0
LINE
  5
2B453
330
2B2D8
100
AcDbEntity
  8
YODOROGO
100
AcDbLine
 10
10509.68579035926
 20
625.4060611609819
 30
0.0
 11
10491.60162798447
 21
583.788029637536
 31
0.0
  0
LINE
  5
2B454
330
2B2D8
100
AcDbEntity
  8
YODOROGO
100
AcDbLine
 10
10491.60162798447
 20
625.4060611609819
 30
0.0
 11
10509.68579035926
 21
625.4060611609819
 31
0.0
  0
LINE
  5
2B455
330
2B2D8
100
AcDbEntity
  8
YODOROGO
100
AcDbLine
 10
10518.80082008659
 20
620.813863977996
 30
0.0
 11
10530.80082008658
 21
620.813863977996
 31
0.0
1001
AUTOCAD_POSTSCRIPT_FIGURE
1002
{
1000
PSFILL
1000
Grayscale
1000
Grayscale
1070
   100
1002
}
  0
LINE
  5
2B456
330
2B2D8
100
AcDbEntity
  8
YODOROGO
100
AcDbLine
 10
10518.80082008659
 20
611.8138639779965
 30
0.0
 11
10518.80082008659
 21
620.813863977996
 31
0.0
1001
AUTOCAD_POSTSCRIPT_FIGURE
1002
{
1000
PSFILL
1000
Grayscale
1000
Grayscale
1070
   100
1002
}
  0
LINE
  5
2B457
330
2B2D8
100
AcDbEntity
  8
YODOROGO
100
AcDbLine
 10
10530.80082008658
 20
611.8138639779965
 30
0.0
 11
10518.80082008659
 21
611.8138639779965
 31
0.0
1001
AUTOCAD_POSTSCRIPT_FIGURE
1002
{
1000
PSFILL
1000
Grayscale
1000
Grayscale
1070
   100
1002
}
  0
LINE
  5
2B458
330
2B2D8
100
AcDbEntity
  8
YODOROGO
100
AcDbLine
 10
10530.80082008658
 20
562.4060611609831
 30
0.0
 11
10530.80082008658
 21
611.8138639779965
 31
0.0
1001
AUTOCAD_POSTSCRIPT_FIGURE
1002
{
1000
PSFILL
1000
Grayscale
1000
Grayscale
1070
   100
1002
}
  0
LINE
  5
2B459
330
2B2D8
100
AcDbEntity
  8
YODOROGO
100
AcDbLine
 10
10518.8008200866
 20
562.4060611609831
 30
0.0
 11
10530.80082008658
 21
562.4060611609831
 31
0.0
1001
AUTOCAD_POSTSCRIPT_FIGURE
1002
{
1000
PSFILL
1000
Grayscale
1000
Grayscale
1070
   100
1002
}
  0
LINE
  5
2B45A
330
2B2D8
100
AcDbEntity
  8
YODOROGO
100
AcDbLine
 10
10518.8008200866
 20
553.4060611609827
 30
0.0
 11
10518.8008200866
 21
562.4060611609831
 31
0.0
1001
AUTOCAD_POSTSCRIPT_FIGURE
1002
{
1000
PSFILL
1000
Grayscale
1000
Grayscale
1070
   100
1002
}
  0
LINE
  5
2B45B
330
2B2D8
100
AcDbEntity
  8
YODOROGO
100
AcDbLine
 10
10551.60162798447
 20
553.4060611609827
 30
0.0
 11
10518.8008200866
 21
553.4060611609827
 31
0.0
1001
AUTOCAD_POSTSCRIPT_FIGURE
1002
{
1000
PSFILL
1000
Grayscale
1000
Grayscale
1070
   100
1002
}
  0
LINE
  5
2B45C
330
2B2D8
100
AcDbEntity
  8
YODOROGO
100
AcDbLine
 10
10551.60162798447
 20
562.4060611609831
 30
0.0
 11
10551.60162798447
 21
553.4060611609827
 31
0.0
1001
AUTOCAD_POSTSCRIPT_FIGURE
1002
{
1000
PSFILL
1000
Grayscale
1000
Grayscale
1070
   100
1002
}
  0
LINE
  5
2B45D
330
2B2D8
100
AcDbEntity
  8
YODOROGO
100
AcDbLine
 10
10536.8008200866
 20
562.4060611609831
 30
0.0
 11
10551.60162798447
 21
562.4060611609831
 31
0.0
1001
AUTOCAD_POSTSCRIPT_FIGURE
1002
{
1000
PSFILL
1000
Grayscale
1000
Grayscale
1070
   100
1002
}
  0
LINE
  5
2B45E
330
2B2D8
100
AcDbEntity
  8
YODOROGO
100
AcDbLine
 10
10536.8008200866
 20
611.8138639779965
 30
0.0
 11
10536.8008200866
 21
562.4060611609831
 31
0.0
1001
AUTOCAD_POSTSCRIPT_FIGURE
1002
{
1000
PSFILL
1000
Grayscale
1000
Grayscale
1070
   100
1002
}
  0
LINE
  5
2B45F
330
2B2D8
100
AcDbEntity
  8
YODOROGO
100
AcDbLine
 10
10551.60162798447
 20
611.8138639779965
 30
0.0
 11
10536.8008200866
 21
611.8138639779965
 31
0.0
1001
AUTOCAD_POSTSCRIPT_FIGURE
1002
{
1000
PSFILL
1000
Grayscale
1000
Grayscale
1070
   100
1002
}
  0
LINE
  5
2B460
330
2B2D8
100
AcDbEntity
  8
YODOROGO
100
AcDbLine
 10
10551.60162798447
 20
620.813863977996
 30
0.0
 11
10551.60162798447
 21
611.8138639779965
 31
0.0
1001
AUTOCAD_POSTSCRIPT_FIGURE
1002
{
1000
PSFILL
1000
Grayscale
1000
Grayscale
1070
   100
1002
}
  0
LINE
  5
2B461
330
2B2D8
100
AcDbEntity
  8
YODOROGO
100
AcDbLine
 10
10536.8008200866
 20
620.813863977996
 30
0.0
 11
10551.60162798447
 21
620.813863977996
 31
0.0
1001
AUTOCAD_POSTSCRIPT_FIGURE
1002
{
1000
PSFILL
1000
Grayscale
1000
Grayscale
1070
   100
1002
}
  0
LINE
  5
2B462
330
2B2D8
100
AcDbEntity
  8
YODOROGO
100
AcDbLine
 10
10650.60162798447
 20
625.406061160983
 30
0.0
 11
10629.60162798447
 21
625.406061160983
 31
0.0
  0
LINE
  5
2B463
330
2B2D8
100
AcDbEntity
  8
YODOROGO
100
AcDbLine
 10
10650.60162798447
 20
604.4060611609832
 30
0.0
 11
10650.60162798447
 21
625.406061160983
 31
0.0
  0
LINE
  5
2B464
330
2B2D8
100
AcDbEntity
  8
YODOROGO
100
AcDbLine
 10
10629.60162798447
 20
625.406061160983
 30
0.0
 11
10629.60162798447
 21
604.4060611609832
 31
0.0
  0
ARC
  5
2B465
330
2B2D8
100
AcDbEntity
  8
YODOROGO
100
AcDbCircle
 10
10692.60162798446
 20
565.4060611609828
 30
0.0
 40
30.0
100
AcDbArc
 50
180.0
 51
270.0
  0
ARC
  5
2B466
330
2B2D8
100
AcDbEntity
  8
YODOROGO
100
AcDbCircle
 10
10701.60162798446
 20
586.4060611609825
 30
0.0
 40
15.0
100
AcDbArc
 50
180.0
 51
270.0
  0
LINE
  5
2B467
330
2B2D8
100
AcDbEntity
  8
YODOROGO
100
AcDbLine
 10
10710.60162798447
 20
571.4060611609824
 30
0.0
 11
10701.60162798446
 21
571.4060611609824
 31
0.0
  0
ARC
  5
2B468
330
2B2D8
100
AcDbEntity
  8
YODOROGO
100
AcDbCircle
 10
10710.60162798447
 20
580.4060611609819
 30
0.0
 40
8.999999999998637
100
AcDbArc
 50
270.0
 51
0.0000000000054281
  0
LINE
  5
2B469
330
2B2D8
100
AcDbEntity
  8
YODOROGO
100
AcDbLine
 10
10425.60162798447
 20
709.0449677976399
 30
0.0
 11
10416.60162798446
 21
691.4162804818772
 31
0.0
1001
AUTOCAD_POSTSCRIPT_FIGURE
1002
{
1000
PSFILL
1000
Grayscale
1000
Grayscale
1070
   100
1002
}
  0
LINE
  5
2B46A
330
2B2D8
100
AcDbEntity
  8
YODOROGO
100
AcDbLine
 10
10425.60162798447
 20
655.406061160983
 30
0.0
 11
10425.60162798447
 21
709.0449677976399
 31
0.0
1001
AUTOCAD_POSTSCRIPT_FIGURE
1002
{
1000
PSFILL
1000
Grayscale
1000
Grayscale
1070
   100
1002
}
  0
LINE
  5
2B46B
330
2B2D8
100
AcDbEntity
  8
YODOROGO
100
AcDbLine
 10
10431.60162798447
 20
655.406061160983
 30
0.0
 11
10425.60162798447
 21
655.406061160983
 31
0.0
1001
AUTOCAD_POSTSCRIPT_FIGURE
1002
{
1000
PSFILL
1000
Grayscale
1000
Grayscale
1070
   100
1002
}
  0
LINE
  5
2B46C
330
2B2D8
100
AcDbEntity
  8
YODOROGO
100
AcDbLine
 10
10431.60162798447
 20
710.1642495319751
 30
0.0
 11
10431.60162798447
 21
655.406061160983
 31
0.0
1001
AUTOCAD_POSTSCRIPT_FIGURE
1002
{
1000
PSFILL
1000
Grayscale
1000
Grayscale
1070
   100
1002
}
  0
LINE
  5
2B46D
330
2B2D8
100
AcDbEntity
  8
YODOROGO
100
AcDbLine
 10
10440.60162798446
 20
700.3705343565512
 30
0.0
 11
10431.60162798447
 21
710.1642495319751
 31
0.0
1001
AUTOCAD_POSTSCRIPT_FIGURE
1002
{
1000
PSFILL
1000
Grayscale
1000
Grayscale
1070
   100
1002
}
  0
LINE
  5
2B46E
330
2B2D8
100
AcDbEntity
  8
YODOROGO
100
AcDbLine
 10
10440.60162798446
 20
706.3705343565509
 30
0.0
 11
10440.60162798446
 21
700.3705343565512
 31
0.0
1001
AUTOCAD_POSTSCRIPT_FIGURE
1002
{
1000
PSFILL
1000
Grayscale
1000
Grayscale
1070
   100
1002
}
  0
LINE
  5
2B46F
330
2B2D8
100
AcDbEntity
  8
YODOROGO
100
AcDbLine
 10
10431.60162798447
 20
719.1642495319745
 30
0.0
 11
10440.60162798446
 21
706.3705343565509
 31
0.0
1001
AUTOCAD_POSTSCRIPT_FIGURE
1002
{
1000
PSFILL
1000
Grayscale
1000
Grayscale
1070
   100
1002
}
  0
LINE
  5
2B470
330
2B2D8
100
AcDbEntity
  8
YODOROGO
100
AcDbLine
 10
10431.60162798447
 20
727.4060611609828
 30
0.0
 11
10431.60162798447
 21
719.1642495319745
 31
0.0
1001
AUTOCAD_POSTSCRIPT_FIGURE
1002
{
1000
PSFILL
1000
Grayscale
1000
Grayscale
1070
   100
1002
}
  0
LINE
  5
2B471
330
2B2D8
100
AcDbEntity
  8
YODOROGO
100
AcDbLine
 10
10458.60162798446
 20
727.4060611609828
 30
0.0
 11
10431.60162798447
 21
727.4060611609828
 31
0.0
1001
AUTOCAD_POSTSCRIPT_FIGURE
1002
{
1000
PSFILL
1000
Grayscale
1000
Grayscale
1070
   100
1002
}
  0
LINE
  5
2B472
330
2B2D8
100
AcDbEntity
  8
YODOROGO
100
AcDbLine
 10
10458.60162798446
 20
712.7131308511124
 30
0.0
 11
10458.60162798446
 21
727.4060611609828
 31
0.0
1001
AUTOCAD_POSTSCRIPT_FIGURE
1002
{
1000
PSFILL
1000
Grayscale
1000
Grayscale
1070
   100
1002
}
  0
LINE
  5
2B473
330
2B2D8
100
AcDbEntity
  8
YODOROGO
100
AcDbLine
 10
10446.60162798447
 20
712.7131308511124
 30
0.0
 11
10458.60162798446
 21
712.7131308511124
 31
0.0
1001
AUTOCAD_POSTSCRIPT_FIGURE
1002
{
1000
PSFILL
1000
Grayscale
1000
Grayscale
1070
   100
1002
}
  0
LINE
  5
2B474
330
2B2D8
100
AcDbEntity
  8
YODOROGO
100
AcDbLine
 10
10446.60162798447
 20
706.7131308511119
 30
0.0
 11
10446.60162798447
 21
712.7131308511124
 31
0.0
1001
AUTOCAD_POSTSCRIPT_FIGURE
1002
{
1000
PSFILL
1000
Grayscale
1000
Grayscale
1070
   100
1002
}
  0
LINE
  5
2B475
330
2B2D8
100
AcDbEntity
  8
YODOROGO
100
AcDbLine
 10
10458.60162798446
 20
706.7131308511119
 30
0.0
 11
10446.60162798447
 21
706.7131308511119
 31
0.0
1001
AUTOCAD_POSTSCRIPT_FIGURE
1002
{
1000
PSFILL
1000
Grayscale
1000
Grayscale
1070
   100
1002
}
  0
LINE
  5
2B476
330
2B2D8
100
AcDbEntity
  8
YODOROGO
100
AcDbLine
 10
10458.60162798446
 20
704.8571917366647
 30
0.0
 11
10458.60162798446
 21
706.7131308511119
 31
0.0
1001
AUTOCAD_POSTSCRIPT_FIGURE
1002
{
1000
PSFILL
1000
Grayscale
1000
Grayscale
1070
   100
1002
}
  0
LINE
  5
2B477
330
2B2D8
100
AcDbEntity
  8
YODOROGO
100
AcDbLine
 10
10443.60162798447
 20
679.8656179355313
 30
0.0
 11
10458.60162798446
 21
704.8571917366647
 31
0.0
1001
AUTOCAD_POSTSCRIPT_FIGURE
1002
{
1000
PSFILL
1000
Grayscale
1000
Grayscale
1070
   100
1002
}
  0
LINE
  5
2B478
330
2B2D8
100
AcDbEntity
  8
YODOROGO
100
AcDbLine
 10
10443.60162798447
 20
673.8656179355309
 30
0.0
 11
10443.60162798447
 21
679.8656179355313
 31
0.0
1001
AUTOCAD_POSTSCRIPT_FIGURE
1002
{
1000
PSFILL
1000
Grayscale
1000
Grayscale
1070
   100
1002
}
  0
LINE
  5
2B479
330
2B2D8
100
AcDbEntity
  8
YODOROGO
100
AcDbLine
 10
10458.60162798446
 20
692.8571917366638
 30
0.0
 11
10443.60162798447
 21
673.8656179355309
 31
0.0
1001
AUTOCAD_POSTSCRIPT_FIGURE
1002
{
1000
PSFILL
1000
Grayscale
1000
Grayscale
1070
   100
1002
}
  0
LINE
  5
2B47A
330
2B2D8
100
AcDbEntity
  8
YODOROGO
100
AcDbLine
 10
10458.60162798446
 20
655.406061160983
 30
0.0
 11
10458.60162798446
 21
692.8571917366638
 31
0.0
1001
AUTOCAD_POSTSCRIPT_FIGURE
1002
{
1000
PSFILL
1000
Grayscale
1000
Grayscale
1070
   100
1002
}
  0
LINE
  5
2B47B
330
2B2D8
100
AcDbEntity
  8
YODOROGO
100
AcDbLine
 10
10464.60162798447
 20
655.406061160983
 30
0.0
 11
10458.60162798446
 21
655.406061160983
 31
0.0
1001
AUTOCAD_POSTSCRIPT_FIGURE
1002
{
1000
PSFILL
1000
Grayscale
1000
Grayscale
1070
   100
1002
}
  0
LINE
  5
2B47C
330
2B2D8
100
AcDbEntity
  8
YODOROGO
100
AcDbLine
 10
10464.60162798447
 20
693.5283795595521
 30
0.0
 11
10464.60162798447
 21
655.406061160983
 31
0.0
1001
AUTOCAD_POSTSCRIPT_FIGURE
1002
{
1000
PSFILL
1000
Grayscale
1000
Grayscale
1070
   100
1002
}
  0
LINE
  5
2B47D
330
2B2D8
100
AcDbEntity
  8
YODOROGO
100
AcDbLine
 10
10476.60162798446
 20
673.8656179355309
 30
0.0
 11
10464.60162798447
 21
693.5283795595521
 31
0.0
1001
AUTOCAD_POSTSCRIPT_FIGURE
1002
{
1000
PSFILL
1000
Grayscale
1000
Grayscale
1070
   100
1002
}
  0
LINE
  5
2B47E
330
2B2D8
100
AcDbEntity
  8
YODOROGO
100
AcDbLine
 10
10476.60162798446
 20
679.8656179355313
 30
0.0
 11
10476.60162798446
 21
673.8656179355309
 31
0.0
1001
AUTOCAD_POSTSCRIPT_FIGURE
1002
{
1000
PSFILL
1000
Grayscale
1000
Grayscale
1070
   100
1002
}
  0
LINE
  5
2B47F
330
2B2D8
100
AcDbEntity
  8
YODOROGO
100
AcDbLine
 10
10464.60162798447
 20
705.5283795595531
 30
0.0
 11
10476.60162798446
 21
679.8656179355313
 31
0.0
1001
AUTOCAD_POSTSCRIPT_FIGURE
1002
{
1000
PSFILL
1000
Grayscale
1000
Grayscale
1070
   100
1002
}
  0
LINE
  5
2B480
330
2B2D8
100
AcDbEntity
  8
YODOROGO
100
AcDbLine
 10
10464.60162798447
 20
706.7131308511128
 30
0.0
 11
10464.60162798447
 21
705.5283795595531
 31
0.0
1001
AUTOCAD_POSTSCRIPT_FIGURE
1002
{
1000
PSFILL
1000
Grayscale
1000
Grayscale
1070
   100
1002
}
  0
LINE
  5
2B481
330
2B2D8
100
AcDbEntity
  8
YODOROGO
100
AcDbLine
 10
10476.60162798446
 20
706.7131308511119
 30
0.0
 11
10464.60162798447
 21
706.7131308511128
 31
0.0
1001
AUTOCAD_POSTSCRIPT_FIGURE
1002
{
1000
PSFILL
1000
Grayscale
1000
Grayscale
1070
   100
1002
}
  0
LINE
  5
2B482
330
2B2D8
100
AcDbEntity
  8
YODOROGO
100
AcDbLine
 10
10476.60162798446
 20
712.7131308511124
 30
0.0
 11
10476.60162798446
 21
706.7131308511119
 31
0.0
1001
AUTOCAD_POSTSCRIPT_FIGURE
1002
{
1000
PSFILL
1000
Grayscale
1000
Grayscale
1070
   100
1002
}
  0
LINE
  5
2B483
330
2B2D8
100
AcDbEntity
  8
YODOROGO
100
AcDbLine
 10
10464.60162798447
 20
712.7131308511124
 30
0.0
 11
10476.60162798446
 21
712.7131308511124
 31
0.0
1001
AUTOCAD_POSTSCRIPT_FIGURE
1002
{
1000
PSFILL
1000
Grayscale
1000
Grayscale
1070
   100
1002
}
  0
LINE
  5
2B484
330
2B2D8
100
AcDbEntity
  8
YODOROGO
100
AcDbLine
 10
10464.60162798447
 20
727.4060611609828
 30
0.0
 11
10464.60162798447
 21
712.7131308511124
 31
0.0
1001
AUTOCAD_POSTSCRIPT_FIGURE
1002
{
1000
PSFILL
1000
Grayscale
1000
Grayscale
1070
   100
1002
}
  0
LINE
  5
2B485
330
2B2D8
100
AcDbEntity
  8
YODOROGO
100
AcDbLine
 10
10476.60162798446
 20
727.4060611609828
 30
0.0
 11
10464.60162798447
 21
727.4060611609828
 31
0.0
1001
AUTOCAD_POSTSCRIPT_FIGURE
1002
{
1000
PSFILL
1000
Grayscale
1000
Grayscale
1070
   100
1002
}
  0
LINE
  5
2B486
330
2B2D8
100
AcDbEntity
  8
YODOROGO
100
AcDbLine
 10
10476.60162798446
 20
733.4060611609828
 30
0.0
 11
10476.60162798446
 21
727.4060611609828
 31
0.0
1001
AUTOCAD_POSTSCRIPT_FIGURE
1002
{
1000
PSFILL
1000
Grayscale
1000
Grayscale
1070
   100
1002
}
  0
LINE
  5
2B487
330
2B2D8
100
AcDbEntity
  8
YODOROGO
100
AcDbLine
 10
10464.60162798447
 20
733.4060611609828
 30
0.0
 11
10476.60162798446
 21
733.4060611609828
 31
0.0
1001
AUTOCAD_POSTSCRIPT_FIGURE
1002
{
1000
PSFILL
1000
Grayscale
1000
Grayscale
1070
   100
1002
}
  0
LINE
  5
2B488
330
2B2D8
100
AcDbEntity
  8
YODOROGO
100
AcDbLine
 10
10464.60162798447
 20
742.4060611609832
 30
0.0
 11
10464.60162798447
 21
733.4060611609828
 31
0.0
1001
AUTOCAD_POSTSCRIPT_FIGURE
1002
{
1000
PSFILL
1000
Grayscale
1000
Grayscale
1070
   100
1002
}
  0
LINE
  5
2B489
330
2B2D8
100
AcDbEntity
  8
YODOROGO
100
AcDbLine
 10
10458.60162798446
 20
742.4060611609832
 30
0.0
 11
10464.60162798447
 21
742.4060611609832
 31
0.0
1001
AUTOCAD_POSTSCRIPT_FIGURE
1002
{
1000
PSFILL
1000
Grayscale
1000
Grayscale
1070
   100
1002
}
  0
LINE
  5
2B48A
330
2B2D8
100
AcDbEntity
  8
YODOROGO
100
AcDbLine
 10
10458.60162798446
 20
733.4060611609828
 30
0.0
 11
10458.60162798446
 21
742.4060611609832
 31
0.0
1001
AUTOCAD_POSTSCRIPT_FIGURE
1002
{
1000
PSFILL
1000
Grayscale
1000
Grayscale
1070
   100
1002
}
  0
LINE
  5
2B48B
330
2B2D8
100
AcDbEntity
  8
YODOROGO
100
AcDbLine
 10
10449.60162798447
 20
733.4060611609828
 30
0.0
 11
10458.60162798446
 21
733.4060611609828
 31
0.0
1001
AUTOCAD_POSTSCRIPT_FIGURE
1002
{
1000
PSFILL
1000
Grayscale
1000
Grayscale
1070
   100
1002
}
  0
LINE
  5
2B48C
330
2B2D8
100
AcDbEntity
  8
YODOROGO
100
AcDbLine
 10
10449.60162798447
 20
742.4060611609832
 30
0.0
 11
10449.60162798447
 21
733.4060611609828
 31
0.0
1001
AUTOCAD_POSTSCRIPT_FIGURE
1002
{
1000
PSFILL
1000
Grayscale
1000
Grayscale
1070
   100
1002
}
  0
LINE
  5
2B48D
330
2B2D8
100
AcDbEntity
  8
YODOROGO
100
AcDbLine
 10
10443.60162798447
 20
742.4060611609832
 30
0.0
 11
10449.60162798447
 21
742.4060611609832
 31
0.0
1001
AUTOCAD_POSTSCRIPT_FIGURE
1002
{
1000
PSFILL
1000
Grayscale
1000
Grayscale
1070
   100
1002
}
  0
LINE
  5
2B48E
330
2B2D8
100
AcDbEntity
  8
YODOROGO
100
AcDbLine
 10
10443.60162798447
 20
733.4060611609828
 30
0.0
 11
10443.60162798447
 21
742.4060611609832
 31
0.0
1001
AUTOCAD_POSTSCRIPT_FIGURE
1002
{
1000
PSFILL
1000
Grayscale
1000
Grayscale
1070
   100
1002
}
  0
LINE
  5
2B48F
330
2B2D8
100
AcDbEntity
  8
YODOROGO
100
AcDbLine
 10
10431.60162798447
 20
733.4060611609828
 30
0.0
 11
10443.60162798447
 21
733.4060611609828
 31
0.0
1001
AUTOCAD_POSTSCRIPT_FIGURE
1002
{
1000
PSFILL
1000
Grayscale
1000
Grayscale
1070
   100
1002
}
  0
LINE
  5
2B490
330
2B2D8
100
AcDbEntity
  8
YODOROGO
100
AcDbLine
 10
10431.60162798447
 20
742.4060611609832
 30
0.0
 11
10431.60162798447
 21
733.4060611609828
 31
0.0
1001
AUTOCAD_POSTSCRIPT_FIGURE
1002
{
1000
PSFILL
1000
Grayscale
1000
Grayscale
1070
   100
1002
}
  0
LINE
  5
2B491
330
2B2D8
100
AcDbEntity
  8
YODOROGO
100
AcDbLine
 10
10425.60162798447
 20
742.4060611609832
 30
0.0
 11
10431.60162798447
 21
742.4060611609832
 31
0.0
1001
AUTOCAD_POSTSCRIPT_FIGURE
1002
{
1000
PSFILL
1000
Grayscale
1000
Grayscale
1070
   100
1002
}
  0
LINE
  5
2B492
330
2B2D8
100
AcDbEntity
  8
YODOROGO
100
AcDbLine
 10
10425.60162798447
 20
733.4060611609828
 30
0.0
 11
10425.60162798447
 21
742.4060611609832
 31
0.0
1001
AUTOCAD_POSTSCRIPT_FIGURE
1002
{
1000
PSFILL
1000
Grayscale
1000
Grayscale
1070
   100
1002
}
  0
LINE
  5
2B493
330
2B2D8
100
AcDbEntity
  8
YODOROGO
100
AcDbLine
 10
10416.60162798446
 20
733.4060611609828
 30
0.0
 11
10425.60162798447
 21
733.4060611609828
 31
0.0
1001
AUTOCAD_POSTSCRIPT_FIGURE
1002
{
1000
PSFILL
1000
Grayscale
1000
Grayscale
1070
   100
1002
}
  0
LINE
  5
2B494
330
2B2D8
100
AcDbEntity
  8
YODOROGO
100
AcDbLine
 10
10416.60162798446
 20
727.4060611609828
 30
0.0
 11
10416.60162798446
 21
733.4060611609828
 31
0.0
1001
AUTOCAD_POSTSCRIPT_FIGURE
1002
{
1000
PSFILL
1000
Grayscale
1000
Grayscale
1070
   100
1002
}
  0
LINE
  5
2B495
330
2B2D8
100
AcDbEntity
  8
YODOROGO
100
AcDbLine
 10
10425.60162798447
 20
727.4060611609828
 30
0.0
 11
10416.60162798446
 21
727.4060611609828
 31
0.0
1001
AUTOCAD_POSTSCRIPT_FIGURE
1002
{
1000
PSFILL
1000
Grayscale
1000
Grayscale
1070
   100
1002
}
  0
LINE
  5
2B496
330
2B2D8
100
AcDbEntity
  8
YODOROGO
100
AcDbLine
 10
10425.60162798447
 20
718.0449677976392
 30
0.0
 11
10425.60162798447
 21
727.4060611609828
 31
0.0
1001
AUTOCAD_POSTSCRIPT_FIGURE
1002
{
1000
PSFILL
1000
Grayscale
1000
Grayscale
1070
   100
1002
}
  0
LINE
  5
2B497
330
2B2D8
100
AcDbEntity
  8
YODOROGO
100
AcDbLine
 10
10416.60162798446
 20
697.4162804818766
 30
0.0
 11
10425.60162798447
 21
718.0449677976392
 31
0.0
1001
AUTOCAD_POSTSCRIPT_FIGURE
1002
{
1000
PSFILL
1000
Grayscale
1000
Grayscale
1070
   100
1002
}
  0
LINE
  5
2B498
330
2B2D8
100
AcDbEntity
  8
YODOROGO
100
AcDbLine
 10
10416.60162798446
 20
691.4162804818772
 30
0.0
 11
10416.60162798446
 21
697.4162804818766
 31
0.0
1001
AUTOCAD_POSTSCRIPT_FIGURE
1002
{
1000
PSFILL
1000
Grayscale
1000
Grayscale
1070
   100
1002
}
  0
LINE
  5
2B499
330
2B2D8
100
AcDbEntity
  8
YODOROGO
100
AcDbLine
 10
10596.60162798446
 20
700.406061160983
 30
0.0
 11
10650.60162798447
 21
684.3291096151149
 31
0.0
1001
AUTOCAD_POSTSCRIPT_FIGURE
1002
{
1000
PSFILL
1000
Grayscale
1000
Grayscale
1070
   100
1002
}
  0
LINE
  5
2B49A
330
2B2D8
100
AcDbEntity
  8
YODOROGO
100
AcDbLine
 10
10650.60162798447
 20
657.3291096151146
 30
0.0
 11
10596.60162798446
 21
673.4060611609827
 31
0.0
1001
AUTOCAD_POSTSCRIPT_FIGURE
1002
{
1000
PSFILL
1000
Grayscale
1000
Grayscale
1070
   100
1002
}
  0
LINE
  5
2B49B
330
2B2D8
100
AcDbEntity
  8
YODOROGO
100
AcDbLine
 10
10650.60162798447
 20
744.329109615115
 30
0.0
 11
10596.60162798446
 21
760.4060611609829
 31
0.0
1001
AUTOCAD_POSTSCRIPT_FIGURE
1002
{
1000
PSFILL
1000
Grayscale
1000
Grayscale
1070
   100
1002
}
  0
LINE
  5
2B49C
330
2B2D8
100
AcDbEntity
  8
YODOROGO
100
AcDbLine
 10
10596.60162798446
 20
734.9060611609829
 30
0.0
 11
10650.60162798447
 21
718.829109615115
 31
0.0
1001
AUTOCAD_POSTSCRIPT_FIGURE
1002
{
1000
PSFILL
1000
Grayscale
1000
Grayscale
1070
   100
1002
}
  0
LINE
  5
2B49D
330
2B2D8
100
AcDbEntity
  8
YODOROGO
100
AcDbLine
 10
10596.60162798446
 20
673.4060611609827
 30
0.0
 11
10596.60162798446
 21
700.406061160983
 31
0.0
1001
AUTOCAD_POSTSCRIPT_FIGURE
1002
{
1000
PSFILL
1000
Grayscale
1000
Grayscale
1070
   100
1002
}
  0
LINE
  5
2B49E
330
2B2D8
100
AcDbEntity
  8
YODOROGO
100
AcDbLine
 10
10596.60162798446
 20
760.4060611609829
 30
0.0
 11
10596.60162798446
 21
734.9060611609829
 31
0.0
1001
AUTOCAD_POSTSCRIPT_FIGURE
1002
{
1000
PSFILL
1000
Grayscale
1000
Grayscale
1070
   100
1002
}
  0
LINE
  5
2B49F
330
2B2D8
100
AcDbEntity
  8
YODOROGO
100
AcDbLine
 10
10530.08862007752
 20
727.4060611609828
 30
0.0
 11
10548.60162798447
 21
655.406061160983
 31
0.0
1001
AUTOCAD_POSTSCRIPT_FIGURE
1002
{
1000
PSFILL
1000
Grayscale
1000
Grayscale
1070
   100
1002
}
  0
LINE
  5
2B4A0
330
2B2D8
100
AcDbEntity
  8
YODOROGO
100
AcDbLine
 10
10491.60162798447
 20
727.4060611609828
 30
0.0
 11
10530.08862007752
 21
727.4060611609828
 31
0.0
1001
AUTOCAD_POSTSCRIPT_FIGURE
1002
{
1000
PSFILL
1000
Grayscale
1000
Grayscale
1070
   100
1002
}
  0
LINE
  5
2B4A1
330
2B2D8
100
AcDbEntity
  8
YODOROGO
100
AcDbLine
 10
10491.60162798447
 20
733.4060611609828
 30
0.0
 11
10491.60162798447
 21
727.4060611609828
 31
0.0
1001
AUTOCAD_POSTSCRIPT_FIGURE
1002
{
1000
PSFILL
1000
Grayscale
1000
Grayscale
1070
   100
1002
}
  0
LINE
  5
2B4A2
330
2B2D8
100
AcDbEntity
  8
YODOROGO
100
AcDbLine
 10
10528.72757944497
 20
733.4060611609828
 30
0.0
 11
10491.60162798447
 21
733.4060611609828
 31
0.0
1001
AUTOCAD_POSTSCRIPT_FIGURE
1002
{
1000
PSFILL
1000
Grayscale
1000
Grayscale
1070
   100
1002
}
  0
LINE
  5
2B4A3
330
2B2D8
100
AcDbEntity
  8
YODOROGO
100
AcDbLine
 10
10526.68601849614
 20
742.4060611609832
 30
0.0
 11
10528.72757944497
 21
733.4060611609828
 31
0.0
1001
AUTOCAD_POSTSCRIPT_FIGURE
1002
{
1000
PSFILL
1000
Grayscale
1000
Grayscale
1070
   100
1002
}
  0
LINE
  5
2B4A4
330
2B2D8
100
AcDbEntity
  8
YODOROGO
100
AcDbLine
 10
10534.18601849614
 20
742.4060611609832
 30
0.0
 11
10526.68601849614
 21
742.4060611609832
 31
0.0
1001
AUTOCAD_POSTSCRIPT_FIGURE
1002
{
1000
PSFILL
1000
Grayscale
1000
Grayscale
1070
   100
1002
}
  0
LINE
  5
2B4A5
330
2B2D8
100
AcDbEntity
  8
YODOROGO
100
AcDbLine
 10
10535.92757944497
 20
733.4060611609828
 30
0.0
 11
10534.18601849614
 21
742.4060611609832
 31
0.0
1001
AUTOCAD_POSTSCRIPT_FIGURE
1002
{
1000
PSFILL
1000
Grayscale
1000
Grayscale
1070
   100
1002
}
  0
LINE
  5
2B4A6
330
2B2D8
100
AcDbEntity
  8
YODOROGO
100
AcDbLine
 10
10545.60162798447
 20
733.4060611609828
 30
0.0
 11
10535.92757944497
 21
733.4060611609828
 31
0.0
1001
AUTOCAD_POSTSCRIPT_FIGURE
1002
{
1000
PSFILL
1000
Grayscale
1000
Grayscale
1070
   100
1002
}
  0
LINE
  5
2B4A7
330
2B2D8
100
AcDbEntity
  8
YODOROGO
100
AcDbLine
 10
10545.60162798447
 20
742.4060611609832
 30
0.0
 11
10545.60162798447
 21
733.4060611609828
 31
0.0
1001
AUTOCAD_POSTSCRIPT_FIGURE
1002
{
1000
PSFILL
1000
Grayscale
1000
Grayscale
1070
   100
1002
}
  0
LINE
  5
2B4A8
330
2B2D8
100
AcDbEntity
  8
YODOROGO
100
AcDbLine
 10
10551.60162798447
 20
742.4060611609832
 30
0.0
 11
10545.60162798447
 21
742.4060611609832
 31
0.0
1001
AUTOCAD_POSTSCRIPT_FIGURE
1002
{
1000
PSFILL
1000
Grayscale
1000
Grayscale
1070
   100
1002
}
  0
LINE
  5
2B4A9
330
2B2D8
100
AcDbEntity
  8
YODOROGO
100
AcDbLine
 10
10551.60162798447
 20
733.4060611609828
 30
0.0
 11
10551.60162798447
 21
742.4060611609832
 31
0.0
1001
AUTOCAD_POSTSCRIPT_FIGURE
1002
{
1000
PSFILL
1000
Grayscale
1000
Grayscale
1070
   100
1002
}
  0
LINE
  5
2B4AA
330
2B2D8
100
AcDbEntity
  8
YODOROGO
100
AcDbLine
 10
10551.60162798447
 20
727.4060611609828
 30
0.0
 11
10551.60162798447
 21
733.4060611609828
 31
0.0
1001
AUTOCAD_POSTSCRIPT_FIGURE
1002
{
1000
PSFILL
1000
Grayscale
1000
Grayscale
1070
   100
1002
}
  0
LINE
  5
2B4AB
330
2B2D8
100
AcDbEntity
  8
YODOROGO
100
AcDbLine
 10
10537.08862007752
 20
727.4060611609828
 30
0.0
 11
10551.60162798447
 21
727.4060611609828
 31
0.0
1001
AUTOCAD_POSTSCRIPT_FIGURE
1002
{
1000
PSFILL
1000
Grayscale
1000
Grayscale
1070
   100
1002
}
  0
LINE
  5
2B4AC
330
2B2D8
100
AcDbEntity
  8
YODOROGO
100
AcDbLine
 10
10551.60162798447
 20
655.406061160983
 30
0.0
 11
10537.08862007752
 21
727.4060611609828
 31
0.0
1001
AUTOCAD_POSTSCRIPT_FIGURE
1002
{
1000
PSFILL
1000
Grayscale
1000
Grayscale
1070
   100
1002
}
  0
LINE
  5
2B4AD
330
2B2D8
100
AcDbEntity
  8
YODOROGO
100
AcDbLine
 10
10548.60162798447
 20
655.406061160983
 30
0.0
 11
10551.60162798447
 21
655.406061160983
 31
0.0
1001
AUTOCAD_POSTSCRIPT_FIGURE
1002
{
1000
PSFILL
1000
Grayscale
1000
Grayscale
1070
   100
1002
}
  0
LINE
  5
2B4AE
330
2B2D8
100
AcDbEntity
  8
YODOROGO
100
AcDbLine
 10
10529.27595747517
 20
665.902791112048
 30
0.0
 11
10491.60162798447
 21
655.406061160983
 31
0.0
  0
LINE
  5
2B4AF
330
2B2D8
100
AcDbEntity
  8
YODOROGO
100
AcDbLine
 10
10529.27595747517
 20
674.5008673234024
 30
0.0
 11
10529.27595747517
 21
665.902791112048
 31
0.0
  0
LINE
  5
2B4B0
330
2B2D8
100
AcDbEntity
  8
YODOROGO
100
AcDbLine
 10
10512.68879272982
 20
670.0563499251625
 30
0.0
 11
10529.27595747517
 21
674.5008673234024
 31
0.0
  0
LINE
  5
2B4B1
330
2B2D8
100
AcDbEntity
  8
YODOROGO
100
AcDbLine
 10
10512.68879272982
 20
702.2131308511124
 30
0.0
 11
10512.68879272982
 21
670.0563499251625
 31
0.0
  0
LINE
  5
2B4B2
330
2B2D8
100
AcDbEntity
  8
YODOROGO
100
AcDbLine
 10
10529.27595747517
 20
702.2131308511124
 30
0.0
 11
10512.68879272982
 21
702.2131308511124
 31
0.0
  0
LINE
  5
2B4B3
330
2B2D8
100
AcDbEntity
  8
YODOROGO
100
AcDbLine
 10
10529.27595747517
 20
709.7131308511116
 30
0.0
 11
10529.27595747517
 21
702.2131308511124
 31
0.0
  0
LINE
  5
2B4B4
330
2B2D8
100
AcDbEntity
  8
YODOROGO
100
AcDbLine
 10
10491.60162798447
 20
709.7131308511116
 30
0.0
 11
10529.27595747517
 21
709.7131308511116
 31
0.0
  0
LINE
  5
2B4B5
330
2B2D8
100
AcDbEntity
  8
YODOROGO
100
AcDbLine
 10
10491.60162798447
 20
702.2131308511124
 30
0.0
 11
10491.60162798447
 21
709.7131308511116
 31
0.0
  0
LINE
  5
2B4B6
330
2B2D8
100
AcDbEntity
  8
YODOROGO
100
AcDbLine
 10
10508.18879272982
 20
702.2131308511124
 30
0.0
 11
10491.60162798447
 21
702.2131308511124
 31
0.0
  0
LINE
  5
2B4B7
330
2B2D8
100
AcDbEntity
  8
YODOROGO
100
AcDbLine
 10
10508.18879272982
 20
669.252502347869
 30
0.0
 11
10508.18879272982
 21
702.2131308511124
 31
0.0
  0
LINE
  5
2B4B8
330
2B2D8
100
AcDbEntity
  8
YODOROGO
100
AcDbLine
 10
10491.60162798447
 20
664.4060611609823
 30
0.0
 11
10508.18879272982
 21
669.252502347869
 31
0.0
  0
LINE
  5
2B4B9
330
2B2D8
100
AcDbEntity
  8
YODOROGO
100
AcDbLine
 10
10491.60162798447
 20
655.406061160983
 30
0.0
 11
10491.60162798447
 21
664.4060611609823
 31
0.0
  0
LINE
  5
2B4BA
330
2B2D8
100
AcDbEntity
  8
YODOROGO
100
AcDbLine
 10
10500.60162798446
 20
640.4060611609828
 30
0.0
 11
10500.60162798446
 21
631.4060611609825
 31
0.0
  0
LINE
  5
2B4BB
330
2B2D8
100
AcDbEntity
  8
YODOROGO
100
AcDbLine
 10
10500.60162798446
 20
640.4060611609828
 30
0.0
 11
10500.60162798446
 21
640.4060611609828
 31
0.0
  0
LINE
  5
2B4BC
330
2B2D8
100
AcDbEntity
  8
YODOROGO
100
AcDbLine
 10
10506.60162798447
 20
640.4060611609828
 30
0.0
 11
10500.60162798446
 21
640.4060611609828
 31
0.0
  0
LINE
  5
2B4BD
330
2B2D8
100
AcDbEntity
  8
YODOROGO
100
AcDbLine
 10
10506.60162798447
 20
631.4060611609825
 30
0.0
 11
10506.60162798447
 21
640.4060611609828
 31
0.0
  0
LINE
  5
2B4BE
330
2B2D8
100
AcDbEntity
  8
YODOROGO
100
AcDbLine
 10
10515.34245150633
 20
631.4060611609825
 30
0.0
 11
10506.60162798447
 21
631.4060611609825
 31
0.0
  0
LINE
  5
2B4BF
330
2B2D8
100
AcDbEntity
  8
YODOROGO
100
AcDbLine
 10
10500.60162798446
 20
631.4060611609825
 30
0.0
 11
10491.60162798447
 21
631.4060611609825
 31
0.0
  0
LINE
  5
2B4C0
330
2B2D8
100
AcDbEntity
  8
YODOROGO
100
AcDbLine
 10
10530.80082008658
 20
640.4060611609828
 30
0.0
 11
10536.8008200866
 21
640.4060611609828
 31
0.0
1001
AUTOCAD_POSTSCRIPT_FIGURE
1002
{
1000
PSFILL
1000
Grayscale
1000
Grayscale
1070
   100
1002
}
  0
LINE
  5
2B4C1
330
2B2D8
100
AcDbEntity
  8
YODOROGO
100
AcDbLine
 10
10650.60162798447
 20
684.3291096151149
 30
0.0
 11
10650.60162798447
 21
657.3291096151146
 31
0.0
1001
AUTOCAD_POSTSCRIPT_FIGURE
1002
{
1000
PSFILL
1000
Grayscale
1000
Grayscale
1070
   100
1002
}
  0
LINE
  5
2B4C2
330
2B2D8
100
AcDbEntity
  8
YODOROGO
100
AcDbLine
 10
10650.60162798447
 20
718.829109615115
 30
0.0
 11
10650.60162798447
 21
744.329109615115
 31
0.0
1001
AUTOCAD_POSTSCRIPT_FIGURE
1002
{
1000
PSFILL
1000
Grayscale
1000
Grayscale
1070
   100
1002
}
  0
LINE
  5
2B4C3
330
2B2D8
100
AcDbEntity
  8
YODOROGO
100
AcDbLine
 10
10662.60162798446
 20
682.4060611609829
 30
0.0
 11
10662.60162798446
 21
655.4060611609838
 31
0.0
  0
LINE
  5
2B4C4
330
2B2D8
100
AcDbEntity
  8
YODOROGO
100
AcDbLine
 10
10686.60162798446
 20
640.4060611609828
 30
0.0
 11
10662.60162798446
 21
640.4060611609828
 31
0.0
  0
LINE
  5
2B4C5
330
2B2D8
100
AcDbEntity
  8
YODOROGO
100
AcDbLine
 10
10662.60162798446
 20
655.4060611609838
 30
0.0
 11
10719.60162798446
 21
655.4060611609838
 31
0.0
  0
LINE
  5
2B4C6
330
2B2D8
100
AcDbEntity
  8
YODOROGO
100
AcDbLine
 10
10686.60162798446
 20
700.406061160983
 30
0.0
 11
10662.60162798446
 21
700.406061160983
 31
0.0
  0
LINE
  5
2B4C7
330
2B2D8
100
AcDbEntity
  8
YODOROGO
100
AcDbLine
 10
10686.60162798446
 20
721.4060611609824
 30
0.0
 11
10686.60162798446
 21
700.406061160983
 31
0.0
  0
LINE
  5
2B4C8
330
2B2D8
100
AcDbEntity
  8
YODOROGO
100
AcDbLine
 10
10719.60162798446
 20
745.4060611609828
 30
0.0
 11
10719.60162798446
 21
760.4060611609829
 31
0.0
  0
LINE
  5
2B4C9
330
2B2D8
100
AcDbEntity
  8
YODOROGO
100
AcDbLine
 10
10662.60162798446
 20
745.4060611609828
 30
0.0
 11
10719.60162798446
 21
745.4060611609828
 31
0.0
  0
LINE
  5
2B4CA
330
2B2D8
100
AcDbEntity
  8
YODOROGO
100
AcDbLine
 10
10662.60162798446
 20
700.406061160983
 30
0.0
 11
10662.60162798446
 21
745.4060611609828
 31
0.0
  0
LINE
  5
2B4CB
330
2B2D8
100
AcDbEntity
  8
YODOROGO
100
AcDbLine
 10
10875.60162798447
 20
760.4060611609829
 30
0.0
 11
10875.60162798447
 21
607.4060611609829
 31
0.0
  0
LINE
  5
2B4CC
330
2B2D8
100
AcDbEntity
  8
YODOROGO
100
AcDbLine
 10
10902.60162798446
 20
592.4060611609831
 30
0.0
 11
10902.60162798446
 21
760.4060611609829
 31
0.0
  0
LINE
  5
2B4CD
330
2B2D8
100
AcDbEntity
  8
YODOROGO
100
AcDbLine
 10
10973.10162798446
 20
559.4060611609823
 30
0.0
 11
10973.10162798446
 21
752.9060611609828
 31
0.0
  0
LINE
  5
2B4CE
330
2B2D8
100
AcDbEntity
  8
YODOROGO
100
AcDbLine
 10
10949.10162798447
 20
752.9060611609828
 30
0.0
 11
10949.10162798447
 21
559.4060611609823
 31
0.0
  0
LINE
  5
2B4CF
330
2B2D8
100
AcDbEntity
  8
YODOROGO
100
AcDbLine
 10
11019.60162798446
 20
760.4060611609829
 30
0.0
 11
11019.60162798446
 21
535.4060611609829
 31
0.0
  0
LINE
  5
2B4D0
330
2B2D8
100
AcDbEntity
  8
YODOROGO
100
AcDbLine
 10
11046.60162798447
 20
535.4060611609829
 30
0.0
 11
11046.60162798447
 21
760.4060611609829
 31
0.0
  0
LINE
  5
2B4D1
330
2B2D8
100
AcDbEntity
  8
YODOROGO
100
AcDbLine
 10
10746.60162798446
 20
625.406061160983
 30
0.0
 11
10746.60162798446
 21
655.4060611609838
 31
0.0
  0
LINE
  5
2B4D2
330
2B2D8
100
AcDbEntity
  8
YODOROGO
100
AcDbLine
 10
11207.10162798447
 20
640.4060611609828
 30
0.0
 11
11207.10162798447
 21
625.406061160983
 31
0.0
  0
LINE
  5
2B4D3
330
2B2D8
100
AcDbEntity
  8
YODOROGO
100
AcDbLine
 10
11207.10162798447
 20
640.4060611609828
 30
0.0
 11
11207.10162798447
 21
625.406061160983
 31
0.0
  0
ARC
  5
2B4D4
330
2B2D8
100
AcDbEntity
  8
YODOROGO
100
AcDbCircle
 10
10840.09184107006
 20
606.8316991658524
 30
0.0
 40
35.51443169202812
100
AcDbArc
 50
274.052441629071
 51
0.9266642149310715
  0
ARC
  5
2B4D5
330
2B2D8
100
AcDbEntity
  8
YODOROGO
100
AcDbCircle
 10
10840.94481401992
 20
597.229023228915
 30
0.0
 40
61.84515883532068
100
AcDbArc
 50
271.5351210653777
 51
355.5272775058505
  0
LINE
  5
2B4D6
330
2B2D8
100
AcDbEntity
  8
YODOROGO
100
AcDbLine
 10
10842.60162798446
 20
571.4060611609824
 30
0.0
 11
10842.60162798446
 21
535.4060611609829
 31
0.0
  0
LINE
  5
2B4D7
330
2B2D8
100
AcDbEntity
  8
YODOROGO
100
AcDbLine
 10
10797.60162798446
 20
625.406061160983
 30
0.0
 11
10746.60162798446
 21
625.406061160983
 31
0.0
  0
LINE
  5
2B4D8
330
2B2D8
100
AcDbEntity
  8
YODOROGO
100
AcDbLine
 10
10797.60162798446
 20
601.4060611609833
 30
0.0
 11
10797.60162798446
 21
625.406061160983
 31
0.0
  0
LINE
  5
2B4D9
330
2B2D8
100
AcDbEntity
  8
YODOROGO
100
AcDbLine
 10
10746.60162798446
 20
601.4060611609833
 30
0.0
 11
10797.60162798446
 21
601.4060611609833
 31
0.0
  0
LINE
  5
2B4DA
330
2B2D8
100
AcDbEntity
  8
YODOROGO
100
AcDbLine
 10
10746.60162798446
 20
571.4060611609824
 30
0.0
 11
10746.60162798446
 21
601.4060611609833
 31
0.0
  0
LINE
  5
2B4DB
330
2B2D8
100
AcDbEntity
  8
YODOROGO
100
AcDbLine
 10
10797.60162798446
 20
571.4060611609824
 30
0.0
 11
10746.60162798446
 21
571.4060611609824
 31
0.0
  0
LINE
  5
2B4DC
330
2B2D8
100
AcDbEntity
  8
YODOROGO
100
AcDbLine
 10
10797.60162798446
 20
535.4060611609829
 30
0.0
 11
10797.60162798446
 21
571.4060611609824
 31
0.0
  0
LINE
  5
2B4DD
330
2B2D8
100
AcDbEntity
  8
YODOROGO
100
AcDbLine
 10
10949.10162798447
 20
559.4060611609823
 30
0.0
 11
10973.10162798446
 21
559.4060611609823
 31
0.0
  0
LINE
  5
2B4DE
330
2B2D8
100
AcDbEntity
  8
YODOROGO
100
AcDbLine
 10
11019.60162798446
 20
535.4060611609829
 30
0.0
 11
11046.60162798447
 21
535.4060611609829
 31
0.0
  0
LINE
  5
2B4DF
330
2B2D8
100
AcDbEntity
  8
YODOROGO
100
AcDbLine
 10
11151.60162798447
 20
573.1655445639615
 30
0.0
 11
11151.60162798447
 21
535.4060611609829
 31
0.0
  0
LINE
  5
2B4E0
330
2B2D8
100
AcDbEntity
  8
YODOROGO
100
AcDbLine
 10
11106.60162798446
 20
535.4060611609829
 30
0.0
 11
11151.60162798447
 21
573.1655445639615
 31
0.0
  0
LINE
  5
2B4E1
330
2B2D8
100
AcDbEntity
  8
YODOROGO
100
AcDbLine
 10
11106.60162798446
 20
580.406061160983
 30
0.0
 11
11106.60162798446
 21
535.4060611609829
 31
0.0
  0
LINE
  5
2B4E2
330
2B2D8
100
AcDbEntity
  8
YODOROGO
100
AcDbLine
 10
11142.35423576229
 20
610.4060611609829
 30
0.0
 11
11106.60162798446
 21
580.406061160983
 31
0.0
  0
LINE
  5
2B4E3
330
2B2D8
100
AcDbEntity
  8
YODOROGO
100
AcDbLine
 10
11106.60162798446
 20
610.4060611609829
 30
0.0
 11
11142.35423576229
 21
610.4060611609829
 31
0.0
  0
LINE
  5
2B4E4
330
2B2D8
100
AcDbEntity
  8
YODOROGO
100
AcDbLine
 10
11106.60162798446
 20
625.406061160983
 30
0.0
 11
11106.60162798446
 21
610.4060611609829
 31
0.0
  0
LINE
  5
2B4E5
330
2B2D8
100
AcDbEntity
  8
YODOROGO
100
AcDbLine
 10
11207.10162798447
 20
625.406061160983
 30
0.0
 11
11106.60162798446
 21
625.406061160983
 31
0.0
  0
LINE
  5
2B4E6
330
2B2D8
100
AcDbEntity
  8
YODOROGO
100
AcDbLine
 10
11219.10162798447
 20
610.4060611609829
 30
0.0
 11
11166.60162798446
 21
610.4060611609829
 31
0.0
  0
LINE
  5
2B4E7
330
2B2D8
100
AcDbEntity
  8
YODOROGO
100
AcDbLine
 10
11166.60162798446
 20
585.7520390316213
 30
0.0
 11
11164.27870236948
 21
583.8028730048376
 31
0.0
  0
LINE
  5
2B4E8
330
2B2D8
100
AcDbEntity
  8
YODOROGO
100
AcDbLine
 10
11166.60162798446
 20
610.4060611609829
 30
0.0
 11
11166.60162798446
 21
585.7520390316213
 31
0.0
  0
LINE
  5
2B4E9
330
2B2D8
100
AcDbEntity
  8
YODOROGO
100
AcDbLine
 10
11151.60162798447
 20
573.1655445639615
 30
0.0
 11
11151.60162798447
 21
535.4060611609829
 31
0.0
  0
LINE
  5
2B4EA
330
2B2D8
100
AcDbEntity
  8
YODOROGO
100
AcDbLine
 10
11106.60162798446
 20
535.4060611609829
 30
0.0
 11
11151.60162798447
 21
573.1655445639615
 31
0.0
  0
LINE
  5
2B4EB
330
2B2D8
100
AcDbEntity
  8
YODOROGO
100
AcDbLine
 10
11106.60162798446
 20
580.406061160983
 30
0.0
 11
11106.60162798446
 21
535.4060611609829
 31
0.0
  0
LINE
  5
2B4EC
330
2B2D8
100
AcDbEntity
  8
YODOROGO
100
AcDbLine
 10
11142.35423576229
 20
610.4060611609829
 30
0.0
 11
11106.60162798446
 21
580.406061160983
 31
0.0
  0
LINE
  5
2B4ED
330
2B2D8
100
AcDbEntity
  8
YODOROGO
100
AcDbLine
 10
11106.60162798446
 20
610.4060611609829
 30
0.0
 11
11142.35423576229
 21
610.4060611609829
 31
0.0
  0
LINE
  5
2B4EE
330
2B2D8
100
AcDbEntity
  8
YODOROGO
100
AcDbLine
 10
11106.60162798446
 20
625.406061160983
 30
0.0
 11
11106.60162798446
 21
610.4060611609829
 31
0.0
  0
LINE
  5
2B4EF
330
2B2D8
100
AcDbEntity
  8
YODOROGO
100
AcDbLine
 10
11207.10162798447
 20
625.406061160983
 30
0.0
 11
11106.60162798446
 21
625.406061160983
 31
0.0
  0
LINE
  5
2B4F0
330
2B2D8
100
AcDbEntity
  8
YODOROGO
100
AcDbLine
 10
10797.60162798446
 20
655.4060611609838
 30
0.0
 11
10797.60162798446
 21
682.4060611609829
 31
0.0
  0
LINE
  5
2B4F1
330
2B2D8
100
AcDbEntity
  8
YODOROGO
100
AcDbLine
 10
10746.60162798446
 20
655.4060611609838
 30
0.0
 11
10797.60162798446
 21
655.4060611609838
 31
0.0
  0
LINE
  5
2B4F2
330
2B2D8
100
AcDbEntity
  8
YODOROGO
100
AcDbLine
 10
10773.60162798447
 20
700.406061160983
 30
0.0
 11
10773.60162798447
 21
721.4060611609824
 31
0.0
  0
LINE
  5
2B4F3
330
2B2D8
100
AcDbEntity
  8
YODOROGO
100
AcDbLine
 10
10797.60162798446
 20
700.406061160983
 30
0.0
 11
10773.60162798447
 21
700.406061160983
 31
0.0
  0
LINE
  5
2B4F4
330
2B2D8
100
AcDbEntity
  8
YODOROGO
100
AcDbLine
 10
10797.60162798446
 20
730.4060611609828
 30
0.0
 11
10797.60162798446
 21
700.406061160983
 31
0.0
  0
ARC
  5
2B4F5
330
2B2D8
100
AcDbEntity
  8
YODOROGO
100
AcDbCircle
 10
10782.60162798446
 20
730.4060611609828
 30
0.0
 40
15.0
100
AcDbArc
 50
0.0
 51
90.0
  0
LINE
  5
2B4F6
330
2B2D8
100
AcDbEntity
  8
YODOROGO
100
AcDbLine
 10
10746.60162798447
 20
745.4060611609828
 30
0.0
 11
10782.60162798446
 21
745.4060611609828
 31
0.0
  0
LINE
  5
2B4F7
330
2B2D8
100
AcDbEntity
  8
YODOROGO
100
AcDbLine
 10
10746.60162798447
 20
760.4060611609829
 30
0.0
 11
10746.60162798447
 21
745.4060611609828
 31
0.0
  0
LINE
  5
2B4F8
330
2B2D8
100
AcDbEntity
  8
YODOROGO
100
AcDbLine
 10
10902.60162798446
 20
760.4060611609829
 30
0.0
 11
10875.60162798447
 21
760.4060611609829
 31
0.0
  0
LINE
  5
2B4F9
330
2B2D8
100
AcDbEntity
  8
YODOROGO
100
AcDbLine
 10
10973.10162798446
 20
752.9060611609828
 30
0.0
 11
10949.10162798447
 21
752.9060611609828
 31
0.0
  0
LINE
  5
2B4FA
330
2B2D8
100
AcDbEntity
  8
YODOROGO
100
AcDbLine
 10
11046.60162798447
 20
760.4060611609829
 30
0.0
 11
11019.60162798446
 21
760.4060611609829
 31
0.0
  0
LINE
  5
2B4FB
330
2B2D8
100
AcDbEntity
  8
YODOROGO
100
AcDbLine
 10
11127.60162798447
 20
640.4060611609828
 30
0.0
 11
11127.60162798447
 21
664.4060611609833
 31
0.0
1001
AUTOCAD_POSTSCRIPT_FIGURE
1002
{
1000
PSFILL
1000
Grayscale
1000
Grayscale
1070
    25
1002
}
  0
LINE
  5
2B4FC
330
2B2D8
100
AcDbEntity
  8
YODOROGO
100
AcDbLine
 10
11106.60162798446
 20
640.4060611609828
 30
0.0
 11
11127.60162798447
 21
640.4060611609828
 31
0.0
1001
AUTOCAD_POSTSCRIPT_FIGURE
1002
{
1000
PSFILL
1000
Grayscale
1000
Grayscale
1070
    25
1002
}
  0
LINE
  5
2B4FD
330
2B2D8
100
AcDbEntity
  8
YODOROGO
100
AcDbLine
 10
11106.60162798446
 20
682.4060611609829
 30
0.0
 11
11106.60162798446
 21
640.4060611609828
 31
0.0
1001
AUTOCAD_POSTSCRIPT_FIGURE
1002
{
1000
PSFILL
1000
Grayscale
1000
Grayscale
1070
    25
1002
}
  0
LINE
  5
2B4FE
330
2B2D8
100
AcDbEntity
  8
YODOROGO
100
AcDbLine
 10
11162.10162798447
 20
682.4060611609829
 30
0.0
 11
11106.60162798446
 21
682.4060611609829
 31
0.0
1001
AUTOCAD_POSTSCRIPT_FIGURE
1002
{
1000
PSFILL
1000
Grayscale
1000
Grayscale
1070
    25
1002
}
  0
LINE
  5
2B4FF
330
2B2D8
100
AcDbEntity
  8
YODOROGO
100
AcDbLine
 10
11162.10162798447
 20
697.406061160983
 30
0.0
 11
11162.10162798447
 21
682.4060611609829
 31
0.0
1001
AUTOCAD_POSTSCRIPT_FIGURE
1002
{
1000
PSFILL
1000
Grayscale
1000
Grayscale
1070
    25
1002
}
  0
LINE
  5
2B500
330
2B2D8
100
AcDbEntity
  8
YODOROGO
100
AcDbLine
 10
11106.60162798446
 20
697.406061160983
 30
0.0
 11
11162.10162798447
 21
697.406061160983
 31
0.0
1001
AUTOCAD_POSTSCRIPT_FIGURE
1002
{
1000
PSFILL
1000
Grayscale
1000
Grayscale
1070
    25
1002
}
  0
LINE
  5
2B501
330
2B2D8
100
AcDbEntity
  8
YODOROGO
100
AcDbLine
 10
11106.60162798446
 20
715.4060611609828
 30
0.0
 11
11106.60162798446
 21
697.406061160983
 31
0.0
1001
AUTOCAD_POSTSCRIPT_FIGURE
1002
{
1000
PSFILL
1000
Grayscale
1000
Grayscale
1070
    25
1002
}
  0
LINE
  5
2B502
330
2B2D8
100
AcDbEntity
  8
YODOROGO
100
AcDbLine
 10
11162.10162798447
 20
715.4060611609828
 30
0.0
 11
11106.60162798446
 21
715.4060611609828
 31
0.0
1001
AUTOCAD_POSTSCRIPT_FIGURE
1002
{
1000
PSFILL
1000
Grayscale
1000
Grayscale
1070
    25
1002
}
  0
LINE
  5
2B503
330
2B2D8
100
AcDbEntity
  8
YODOROGO
100
AcDbLine
 10
11162.10162798447
 20
730.4060611609828
 30
0.0
 11
11162.10162798447
 21
715.4060611609828
 31
0.0
1001
AUTOCAD_POSTSCRIPT_FIGURE
1002
{
1000
PSFILL
1000
Grayscale
1000
Grayscale
1070
    25
1002
}
  0
LINE
  5
2B504
330
2B2D8
100
AcDbEntity
  8
YODOROGO
100
AcDbLine
 10
11106.60162798446
 20
730.4060611609828
 30
0.0
 11
11162.10162798447
 21
730.4060611609828
 31
0.0
1001
AUTOCAD_POSTSCRIPT_FIGURE
1002
{
1000
PSFILL
1000
Grayscale
1000
Grayscale
1070
    25
1002
}
  0
LINE
  5
2B505
330
2B2D8
100
AcDbEntity
  8
YODOROGO
100
AcDbLine
 10
11106.60162798446
 20
760.4060611609829
 30
0.0
 11
11106.60162798446
 21
730.4060611609828
 31
0.0
1001
AUTOCAD_POSTSCRIPT_FIGURE
1002
{
1000
PSFILL
1000
Grayscale
1000
Grayscale
1070
    25
1002
}
  0
LINE
  5
2B506
330
2B2D8
100
AcDbEntity
  8
YODOROGO
100
AcDbLine
 10
11124.60162798446
 20
760.4060611609829
 30
0.0
 11
11106.60162798446
 21
760.4060611609829
 31
0.0
1001
AUTOCAD_POSTSCRIPT_FIGURE
1002
{
1000
PSFILL
1000
Grayscale
1000
Grayscale
1070
    25
1002
}
  0
LINE
  5
2B507
330
2B2D8
100
AcDbEntity
  8
YODOROGO
100
AcDbLine
 10
11124.60162798446
 20
748.4060611609828
 30
0.0
 11
11124.60162798446
 21
760.4060611609829
 31
0.0
1001
AUTOCAD_POSTSCRIPT_FIGURE
1002
{
1000
PSFILL
1000
Grayscale
1000
Grayscale
1070
    25
1002
}
  0
LINE
  5
2B508
330
2B2D8
100
AcDbEntity
  8
YODOROGO
100
AcDbLine
 10
11162.10162798447
 20
748.4060611609828
 30
0.0
 11
11124.60162798446
 21
748.4060611609828
 31
0.0
1001
AUTOCAD_POSTSCRIPT_FIGURE
1002
{
1000
PSFILL
1000
Grayscale
1000
Grayscale
1070
    25
1002
}
  0
LINE
  5
2B509
330
2B2D8
100
AcDbEntity
  8
YODOROGO
100
AcDbLine
 10
11162.10162798447
 20
760.4060611609829
 30
0.0
 11
11162.10162798447
 21
748.4060611609828
 31
0.0
1001
AUTOCAD_POSTSCRIPT_FIGURE
1002
{
1000
PSFILL
1000
Grayscale
1000
Grayscale
1070
    25
1002
}
  0
LINE
  5
2B50A
330
2B2D8
100
AcDbEntity
  8
YODOROGO
100
AcDbLine
 10
11186.10162798447
 20
760.4060611609829
 30
0.0
 11
11162.10162798447
 21
760.4060611609829
 31
0.0
1001
AUTOCAD_POSTSCRIPT_FIGURE
1002
{
1000
PSFILL
1000
Grayscale
1000
Grayscale
1070
    25
1002
}
  0
LINE
  5
2B50B
330
2B2D8
100
AcDbEntity
  8
YODOROGO
100
AcDbLine
 10
11186.10162798447
 20
748.4060611609828
 30
0.0
 11
11186.10162798447
 21
760.4060611609829
 31
0.0
1001
AUTOCAD_POSTSCRIPT_FIGURE
1002
{
1000
PSFILL
1000
Grayscale
1000
Grayscale
1070
    25
1002
}
  0
LINE
  5
2B50C
330
2B2D8
100
AcDbEntity
  8
YODOROGO
100
AcDbLine
 10
11186.10162798447
 20
715.4060611609828
 30
0.0
 11
11186.10162798447
 21
730.4060611609828
 31
0.0
1001
AUTOCAD_POSTSCRIPT_FIGURE
1002
{
1000
PSFILL
1000
Grayscale
1000
Grayscale
1070
    25
1002
}
  0
LINE
  5
2B50D
330
2B2D8
100
AcDbEntity
  8
YODOROGO
100
AcDbLine
 10
11186.10162798447
 20
682.4060611609829
 30
0.0
 11
11186.10162798447
 21
697.406061160983
 31
0.0
1001
AUTOCAD_POSTSCRIPT_FIGURE
1002
{
1000
PSFILL
1000
Grayscale
1000
Grayscale
1070
    25
1002
}
  0
LINE
  5
2B50E
330
2B2D8
100
AcDbEntity
  8
YODOROGO
100
AcDbLine
 10
11220.60162798447
 20
664.4060611609833
 30
0.0
 11
11220.60162798447
 21
640.4060611609828
 31
0.0
1001
AUTOCAD_POSTSCRIPT_FIGURE
1002
{
1000
PSFILL
1000
Grayscale
1000
Grayscale
1070
    25
1002
}
  0
LINE
  5
2B50F
330
2B2D8
100
AcDbEntity
  8
YODOROGO
100
AcDbLine
 10
11186.10162798447
 20
664.4060611609833
 30
0.0
 11
11220.60162798447
 21
664.4060611609833
 31
0.0
1001
AUTOCAD_POSTSCRIPT_FIGURE
1002
{
1000
PSFILL
1000
Grayscale
1000
Grayscale
1070
    25
1002
}
  0
LINE
  5
2B510
330
2B2D8
100
AcDbEntity
  8
YODOROGO
100
AcDbLine
 10
11186.10162798447
 20
640.4060611609828
 30
0.0
 11
11186.10162798447
 21
664.4060611609833
 31
0.0
1001
AUTOCAD_POSTSCRIPT_FIGURE
1002
{
1000
PSFILL
1000
Grayscale
1000
Grayscale
1070
    25
1002
}
  0
LINE
  5
2B511
330
2B2D8
100
AcDbEntity
  8
YODOROGO
100
AcDbLine
 10
11162.10162798447
 20
640.4060611609828
 30
0.0
 11
11186.10162798447
 21
640.4060611609828
 31
0.0
1001
AUTOCAD_POSTSCRIPT_FIGURE
1002
{
1000
PSFILL
1000
Grayscale
1000
Grayscale
1070
    25
1002
}
  0
LINE
  5
2B512
330
2B2D8
100
AcDbEntity
  8
YODOROGO
100
AcDbLine
 10
11162.10162798447
 20
664.4060611609833
 30
0.0
 11
11162.10162798447
 21
640.4060611609828
 31
0.0
1001
AUTOCAD_POSTSCRIPT_FIGURE
1002
{
1000
PSFILL
1000
Grayscale
1000
Grayscale
1070
    25
1002
}
  0
LINE
  5
2B513
330
2B2D8
100
AcDbEntity
  8
YODOROGO
100
AcDbLine
 10
11127.60162798447
 20
664.4060611609833
 30
0.0
 11
11162.10162798447
 21
664.4060611609833
 31
0.0
1001
AUTOCAD_POSTSCRIPT_FIGURE
1002
{
1000
PSFILL
1000
Grayscale
1000
Grayscale
1070
    25
1002
}
  0
ARC
  5
2B514
330
2B2D8
100
AcDbEntity
  8
YODOROGO
100
AcDbCircle
 10
11647.31921000922
 20
601.0052765683409
 30
0.0
 40
66.83298041652057
100
AcDbArc
 50
281.0262749542535
 51
357.771135755738
  0
LINE
  5
2B515
330
2B2D8
100
AcDbEntity
  8
YODOROGO
100
AcDbLine
 10
11780.10162798446
 20
715.4060611609828
 30
0.0
 11
11687.10162798447
 21
715.4060611609828
 31
0.0
  0
LINE
  5
2B516
330
2B2D8
100
AcDbEntity
  8
YODOROGO
100
AcDbLine
 10
11780.10162798446
 20
760.4060611609829
 30
0.0
 11
11687.10162798447
 21
760.4060611609829
 31
0.0
  0
LINE
  5
2B517
330
2B2D8
100
AcDbEntity
  8
YODOROGO
100
AcDbLine
 10
11687.10162798447
 20
736.4060611609825
 30
0.0
 11
11780.10162798446
 21
736.4060611609825
 31
0.0
  0
LINE
  5
2B518
330
2B2D8
100
AcDbEntity
  8
YODOROGO
100
AcDbLine
 10
11546.85162798447
 20
586.4060611609825
 30
0.0
 11
11546.85162798447
 21
658.4060611609827
 31
0.0
  0
LINE
  5
2B519
330
2B2D8
100
AcDbEntity
  8
YODOROGO
100
AcDbLine
 10
11536.35162798447
 20
634.4060611609833
 30
0.0
 11
11536.35162798447
 21
586.4060611609825
 31
0.0
  0
LINE
  5
2B51A
330
2B2D8
100
AcDbEntity
  8
YODOROGO
100
AcDbLine
 10
11521.35162798447
 20
559.4060611609831
 30
0.0
 11
11521.35162798447
 21
634.4060611609833
 31
0.0
  0
LINE
  5
2B51B
330
2B2D8
100
AcDbEntity
  8
YODOROGO
100
AcDbLine
 10
11587.35162798447
 20
634.4060611609833
 30
0.0
 11
11587.35162798447
 21
559.4060611609831
 31
0.0
  0
LINE
  5
2B51C
330
2B2D8
100
AcDbEntity
  8
YODOROGO
100
AcDbLine
 10
11572.35162798446
 20
586.4060611609825
 30
0.0
 11
11572.35162798446
 21
634.4060611609833
 31
0.0
  0
LINE
  5
2B51D
330
2B2D8
100
AcDbEntity
  8
YODOROGO
100
AcDbLine
 10
11561.85162798446
 20
658.4060611609827
 30
0.0
 11
11561.85162798446
 21
586.4060611609825
 31
0.0
  0
LINE
  5
2B51E
330
2B2D8
100
AcDbEntity
  8
YODOROGO
100
AcDbLine
 10
11615.10162798446
 20
760.4060611609829
 30
0.0
 11
11615.10162798446
 21
550.4060611609828
 31
0.0
  0
LINE
  5
2B51F
330
2B2D8
100
AcDbEntity
  8
YODOROGO
100
AcDbLine
 10
11492.10162798447
 20
535.4060611609829
 30
0.0
 11
11492.10162798447
 21
760.4060611609829
 31
0.0
  0
LINE
  5
2B520
330
2B2D8
100
AcDbEntity
  8
YODOROGO
100
AcDbLine
 10
11511.60162798447
 20
736.4060611609825
 30
0.0
 11
11511.60162798447
 21
535.4060611609829
 31
0.0
  0
LINE
  5
2B521
330
2B2D8
100
AcDbEntity
  8
YODOROGO
100
AcDbLine
 10
11597.10162798446
 20
580.406061160983
 30
0.0
 11
11597.10162798446
 21
736.4060611609825
 31
0.0
  0
LINE
  5
2B522
330
2B2D8
100
AcDbEntity
  8
YODOROGO
100
AcDbLine
 10
11393.10162798446
 20
610.4060611609829
 30
0.0
 11
11393.10162798446
 21
629.9060611609831
 31
0.0
  0
LINE
  5
2B523
330
2B2D8
100
AcDbEntity
  8
YODOROGO
100
AcDbLine
 10
11481.60162798447
 20
629.9060611609831
 30
0.0
 11
11481.60162798447
 21
610.4060611609829
 31
0.0
  0
LINE
  5
2B524
330
2B2D8
100
AcDbEntity
  8
YODOROGO
100
AcDbLine
 10
11687.10162798447
 20
715.4060611609828
 30
0.0
 11
11687.10162798447
 21
613.4060611609827
 31
0.0
  0
LINE
  5
2B525
330
2B2D8
100
AcDbEntity
  8
YODOROGO
100
AcDbLine
 10
11231.10162798446
 20
625.406061160983
 30
0.0
 11
11231.10162798446
 21
640.4060611609828
 31
0.0
  0
LINE
  5
2B526
330
2B2D8
100
AcDbEntity
  8
YODOROGO
100
AcDbLine
 10
11231.10162798446
 20
625.406061160983
 30
0.0
 11
11231.10162798446
 21
640.4060611609828
 31
0.0
  0
ARC
  5
2B527
330
2B2D8
100
AcDbEntity
  8
YODOROGO
100
AcDbCircle
 10
11451.60162798447
 20
565.4060611609828
 30
0.0
 40
30.0
100
AcDbArc
 50
270.0
 51
0.0
  0
LINE
  5
2B528
330
2B2D8
100
AcDbEntity
  8
YODOROGO
100
AcDbLine
 10
11463.60162798446
 20
599.9060611609831
 30
0.0
 11
11481.60162798447
 21
599.9060611609831
 31
0.0
  0
LINE
  5
2B529
330
2B2D8
100
AcDbEntity
  8
YODOROGO
100
AcDbLine
 10
11481.60162798447
 20
610.4060611609829
 30
0.0
 11
11448.60162798446
 21
610.4060611609829
 31
0.0
  0
LINE
  5
2B52A
330
2B2D8
100
AcDbEntity
  8
YODOROGO
100
AcDbLine
 10
11331.60162798447
 20
625.406061160983
 30
0.0
 11
11231.10162798446
 21
625.406061160983
 31
0.0
  0
LINE
  5
2B52B
330
2B2D8
100
AcDbEntity
  8
YODOROGO
100
AcDbLine
 10
11331.60162798447
 20
610.4060611609829
 30
0.0
 11
11331.60162798447
 21
625.406061160983
 31
0.0
  0
LINE
  5
2B52C
330
2B2D8
100
AcDbEntity
  8
YODOROGO
100
AcDbLine
 10
11256.60162798447
 20
610.4060611609829
 30
0.0
 11
11331.60162798447
 21
610.4060611609829
 31
0.0
  0
ARC
  5
2B52D
330
2B2D8
100
AcDbEntity
  8
YODOROGO
100
AcDbCircle
 10
11336.27206076301
 20
700.8321431073384
 30
0.0
 40
120.5166136069605
100
AcDbArc
 50
228.6181454618993
 51
245.660289248906
  0
LINE
  5
2B52E
330
2B2D8
100
AcDbEntity
  8
YODOROGO
100
AcDbLine
 10
11289.60162798447
 20
601.4060611609833
 30
0.0
 11
11286.60162798448
 21
591.0273059512126
 31
0.0
  0
LINE
  5
2B52F
330
2B2D8
100
AcDbEntity
  8
YODOROGO
100
AcDbLine
 10
11321.10162798447
 20
601.4060611609833
 30
0.0
 11
11289.60162798447
 21
601.4060611609833
 31
0.0
  0
LINE
  5
2B530
330
2B2D8
100
AcDbEntity
  8
YODOROGO
100
AcDbLine
 10
11316.60162798447
 20
581.9316459275352
 30
0.0
 11
11321.10162798447
 21
601.4060611609833
 31
0.0
  0
ARC
  5
2B531
330
2B2D8
100
AcDbEntity
  8
YODOROGO
100
AcDbCircle
 10
11336.27206076267
 20
700.832143107376
 30
0.0
 40
120.516613606984
100
AcDbArc
 50
260.6062929796992
 51
267.7790355655586
  0
LINE
  5
2B532
330
2B2D8
100
AcDbEntity
  8
YODOROGO
100
AcDbLine
 10
11331.60162798447
 20
535.4060611609821
 30
0.0
 11
11331.60162798447
 21
580.406061160983
 31
0.0
  0
LINE
  5
2B533
330
2B2D8
100
AcDbEntity
  8
YODOROGO
100
AcDbLine
 10
11226.60162798446
 20
555.5022505933164
 30
0.0
 11
11226.60162798446
 21
597.949158949178
 31
0.0
  0
LINE
  5
2B534
330
2B2D8
100
AcDbEntity
  8
YODOROGO
100
AcDbLine
 10
11331.60162798447
 20
625.406061160983
 30
0.0
 11
11231.10162798446
 21
625.406061160983
 31
0.0
  0
LINE
  5
2B535
330
2B2D8
100
AcDbEntity
  8
YODOROGO
100
AcDbLine
 10
11331.60162798447
 20
610.4060611609829
 30
0.0
 11
11331.60162798447
 21
625.406061160983
 31
0.0
  0
LINE
  5
2B536
330
2B2D8
100
AcDbEntity
  8
YODOROGO
100
AcDbLine
 10
11256.60162798447
 20
610.4060611609829
 30
0.0
 11
11331.60162798447
 21
610.4060611609829
 31
0.0
  0
ARC
  5
2B537
330
2B2D8
100
AcDbEntity
  8
YODOROGO
100
AcDbCircle
 10
11336.27206076301
 20
700.8321431073384
 30
0.0
 40
120.5166136069605
100
AcDbArc
 50
228.6181454618993
 51
245.660289248906
  0
LINE
  5
2B538
330
2B2D8
100
AcDbEntity
  8
YODOROGO
100
AcDbLine
 10
11289.60162798447
 20
601.4060611609833
 30
0.0
 11
11286.60162798448
 21
591.0273059512126
 31
0.0
  0
LINE
  5
2B539
330
2B2D8
100
AcDbEntity
  8
YODOROGO
100
AcDbLine
 10
11321.10162798447
 20
601.4060611609833
 30
0.0
 11
11289.60162798447
 21
601.4060611609833
 31
0.0
  0
LINE
  5
2B53A
330
2B2D8
100
AcDbEntity
  8
YODOROGO
100
AcDbLine
 10
11316.60162798447
 20
581.9316459275352
 30
0.0
 11
11321.10162798447
 21
601.4060611609833
 31
0.0
  0
ARC
  5
2B53B
330
2B2D8
100
AcDbEntity
  8
YODOROGO
100
AcDbCircle
 10
11336.27206076267
 20
700.832143107376
 30
0.0
 40
120.516613606984
100
AcDbArc
 50
260.6062929796992
 51
267.7790355655586
  0
LINE
  5
2B53C
330
2B2D8
100
AcDbEntity
  8
YODOROGO
100
AcDbLine
 10
11331.60162798447
 20
535.4060611609821
 30
0.0
 11
11331.60162798447
 21
580.406061160983
 31
0.0
  0
LINE
  5
2B53D
330
2B2D8
100
AcDbEntity
  8
YODOROGO
100
AcDbLine
 10
11226.60162798446
 20
555.5022505933164
 30
0.0
 11
11226.60162798446
 21
597.949158949178
 31
0.0
  0
LINE
  5
2B53E
330
2B2D8
100
AcDbEntity
  8
YODOROGO
100
AcDbLine
 10
11412.60162798447
 20
590.1560611609832
 30
0.0
 11
11393.10162798446
 21
590.1560611609832
 31
0.0
  0
LINE
  5
2B53F
330
2B2D8
100
AcDbEntity
  8
YODOROGO
100
AcDbLine
 10
11412.60162798447
 20
600.6560611609824
 30
0.0
 11
11412.60162798447
 21
590.1560611609832
 31
0.0
  0
LINE
  5
2B540
330
2B2D8
100
AcDbEntity
  8
YODOROGO
100
AcDbLine
 10
11393.10162798446
 20
600.6560611609824
 30
0.0
 11
11412.60162798447
 21
600.6560611609824
 31
0.0
  0
LINE
  5
2B541
330
2B2D8
100
AcDbEntity
  8
YODOROGO
100
AcDbLine
 10
11393.10162798446
 20
590.1560611609832
 30
0.0
 11
11393.10162798446
 21
600.6560611609824
 31
0.0
  0
LINE
  5
2B542
330
2B2D8
100
AcDbEntity
  8
YODOROGO
100
AcDbLine
 10
11411.10162798447
 20
591.6560611609829
 30
0.0
 11
11394.60162798447
 21
591.6560611609829
 31
0.0
  0
LINE
  5
2B543
330
2B2D8
100
AcDbEntity
  8
YODOROGO
100
AcDbLine
 10
11411.10162798447
 20
599.156061160983
 30
0.0
 11
11411.10162798447
 21
591.6560611609829
 31
0.0
  0
LINE
  5
2B544
330
2B2D8
100
AcDbEntity
  8
YODOROGO
100
AcDbLine
 10
11394.60162798447
 20
599.156061160983
 30
0.0
 11
11411.10162798447
 21
599.156061160983
 31
0.0
  0
LINE
  5
2B545
330
2B2D8
100
AcDbEntity
  8
YODOROGO
100
AcDbLine
 10
11394.60162798447
 20
591.6560611609829
 30
0.0
 11
11394.60162798447
 21
599.156061160983
 31
0.0
  0
LINE
  5
2B546
330
2B2D8
100
AcDbEntity
  8
YODOROGO
100
AcDbLine
 10
11409.60162798447
 20
593.1560611609824
 30
0.0
 11
11396.10162798446
 21
593.1560611609824
 31
0.0
  0
LINE
  5
2B547
330
2B2D8
100
AcDbEntity
  8
YODOROGO
100
AcDbLine
 10
11409.60162798447
 20
597.6560611609833
 30
0.0
 11
11409.60162798447
 21
593.1560611609824
 31
0.0
  0
LINE
  5
2B548
330
2B2D8
100
AcDbEntity
  8
YODOROGO
100
AcDbLine
 10
11396.10162798446
 20
597.6560611609833
 30
0.0
 11
11409.60162798447
 21
597.6560611609833
 31
0.0
  0
LINE
  5
2B549
330
2B2D8
100
AcDbEntity
  8
YODOROGO
100
AcDbLine
 10
11396.10162798446
 20
593.1560611609824
 30
0.0
 11
11396.10162798446
 21
597.6560611609833
 31
0.0
  0
LINE
  5
2B54A
330
2B2D8
100
AcDbEntity
  8
YODOROGO
100
AcDbLine
 10
11408.10162798447
 20
594.6560611609827
 30
0.0
 11
11397.60162798447
 21
594.6560611609827
 31
0.0
  0
LINE
  5
2B54B
330
2B2D8
100
AcDbEntity
  8
YODOROGO
100
AcDbLine
 10
11408.10162798447
 20
596.1560611609829
 30
0.0
 11
11408.10162798447
 21
594.6560611609827
 31
0.0
  0
LINE
  5
2B54C
330
2B2D8
100
AcDbEntity
  8
YODOROGO
100
AcDbLine
 10
11397.60162798447
 20
596.1560611609829
 30
0.0
 11
11408.10162798447
 21
596.1560611609829
 31
0.0
  0
LINE
  5
2B54D
330
2B2D8
100
AcDbEntity
  8
YODOROGO
100
AcDbLine
 10
11397.60162798447
 20
594.6560611609827
 30
0.0
 11
11397.60162798447
 21
596.1560611609829
 31
0.0
  0
LINE
  5
2B54E
330
2B2D8
100
AcDbEntity
  8
YODOROGO
100
AcDbLine
 10
11424.60162798446
 20
610.4060611609829
 30
0.0
 11
11393.10162798446
 21
610.4060611609829
 31
0.0
  0
LINE
  5
2B54F
330
2B2D8
100
AcDbEntity
  8
YODOROGO
100
AcDbLine
 10
11424.60162798446
 20
580.406061160983
 30
0.0
 11
11424.60162798446
 21
610.4060611609829
 31
0.0
  0
LINE
  5
2B550
330
2B2D8
100
AcDbEntity
  8
YODOROGO
100
AcDbLine
 10
11393.10162798446
 20
580.406061160983
 30
0.0
 11
11424.60162798446
 21
580.406061160983
 31
0.0
  0
LINE
  5
2B551
330
2B2D8
100
AcDbEntity
  8
YODOROGO
100
AcDbLine
 10
11393.10162798446
 20
535.4060611609829
 30
0.0
 11
11393.10162798446
 21
580.406061160983
 31
0.0
  0
LINE
  5
2B552
330
2B2D8
100
AcDbEntity
  8
YODOROGO
100
AcDbLine
 10
11451.60162798447
 20
535.4060611609829
 30
0.0
 11
11393.10162798446
 21
535.4060611609829
 31
0.0
  0
LINE
  5
2B553
330
2B2D8
100
AcDbEntity
  8
YODOROGO
100
AcDbLine
 10
11463.60162798446
 20
589.4060611609823
 30
0.0
 11
11463.60162798446
 21
599.9060611609831
 31
0.0
  0
ARC
  5
2B554
330
2B2D8
100
AcDbEntity
  8
YODOROGO
100
AcDbCircle
 10
11454.60162798446
 20
589.4060611609843
 30
0.0
 40
9.000000000001408
100
AcDbArc
 50
270.0
 51
359.9999999999877
  0
LINE
  5
2B555
330
2B2D8
100
AcDbEntity
  8
YODOROGO
100
AcDbLine
 10
11448.60162798446
 20
580.406061160983
 30
0.0
 11
11454.60162798446
 21
580.406061160983
 31
0.0
  0
LINE
  5
2B556
330
2B2D8
100
AcDbEntity
  8
YODOROGO
100
AcDbLine
 10
11448.60162798446
 20
610.4060611609829
 30
0.0
 11
11448.60162798446
 21
580.406061160983
 31
0.0
  0
LINE
  5
2B557
330
2B2D8
100
AcDbEntity
  8
YODOROGO
100
AcDbLine
 10
11587.35162798447
 20
580.406061160983
 30
0.0
 11
11597.10162798446
 21
580.406061160983
 31
0.0
  0
LINE
  5
2B558
330
2B2D8
100
AcDbEntity
  8
YODOROGO
100
AcDbLine
 10
11600.10162798446
 20
535.4060611609829
 30
0.0
 11
11587.35162798447
 21
535.4060611609829
 31
0.0
  0
LINE
  5
2B559
330
2B2D8
100
AcDbEntity
  8
YODOROGO
100
AcDbLine
 10
11536.35162798447
 20
586.4060611609825
 30
0.0
 11
11546.85162798447
 21
586.4060611609825
 31
0.0
  0
LINE
  5
2B55A
330
2B2D8
100
AcDbEntity
  8
YODOROGO
100
AcDbLine
 10
11587.35162798447
 20
559.4060611609831
 30
0.0
 11
11521.35162798447
 21
559.4060611609831
 31
0.0
  0
LINE
  5
2B55B
330
2B2D8
100
AcDbEntity
  8
YODOROGO
100
AcDbLine
 10
11561.85162798446
 20
586.4060611609825
 30
0.0
 11
11572.35162798446
 21
586.4060611609825
 31
0.0
  0
LINE
  5
2B55C
330
2B2D8
100
AcDbEntity
  8
YODOROGO
100
AcDbLine
 10
11587.35162798447
 20
535.4060611609829
 30
0.0
 11
11587.35162798447
 21
580.406061160983
 31
0.0
  0
LINE
  5
2B55D
330
2B2D8
100
AcDbEntity
  8
YODOROGO
100
AcDbLine
 10
11511.60162798447
 20
535.4060611609829
 30
0.0
 11
11492.10162798447
 21
535.4060611609829
 31
0.0
  0
LINE
  5
2B55E
330
2B2D8
100
AcDbEntity
  8
YODOROGO
100
AcDbLine
 10
11481.60162798447
 20
599.9060611609831
 30
0.0
 11
11481.60162798447
 21
565.4060611609828
 31
0.0
  0
ARC
  5
2B55F
330
2B2D8
100
AcDbEntity
  8
YODOROGO
100
AcDbCircle
 10
11600.10162798446
 20
550.4060611609828
 30
0.0
 40
15.0
100
AcDbArc
 50
270.0
 51
0.0
  0
LINE
  5
2B560
330
2B2D8
100
AcDbEntity
  8
YODOROGO
100
AcDbLine
 10
11660.10162798446
 20
571.4060611609824
 30
0.0
 11
11660.10162798446
 21
535.4060611609829
 31
0.0
  0
ARC
  5
2B561
330
2B2D8
100
AcDbEntity
  8
YODOROGO
100
AcDbCircle
 10
11639.89552333754
 20
614.0742712911499
 30
0.0
 40
47.21083372187828
100
AcDbArc
 50
295.3405244216011
 51
359.1890230341867
  0
LINE
  5
2B562
330
2B2D8
100
AcDbEntity
  8
YODOROGO
100
AcDbLine
 10
11481.60162798447
 20
697.406061160983
 30
0.0
 11
11436.60162798447
 21
727.4060611609828
 31
0.0
  0
LINE
  5
2B563
330
2B2D8
100
AcDbEntity
  8
YODOROGO
100
AcDbLine
 10
11436.60162798447
 20
760.4060611609829
 30
0.0
 11
11481.60162798447
 21
730.4060611609828
 31
0.0
  0
LINE
  5
2B564
330
2B2D8
100
AcDbEntity
  8
YODOROGO
100
AcDbLine
 10
11448.60162798446
 20
629.9060611609831
 30
0.0
 11
11481.60162798447
 21
629.9060611609831
 31
0.0
  0
LINE
  5
2B565
330
2B2D8
100
AcDbEntity
  8
YODOROGO
100
AcDbLine
 10
11481.60162798447
 20
650.9060611609827
 30
0.0
 11
11448.60162798446
 21
650.9060611609827
 31
0.0
  0
LINE
  5
2B566
330
2B2D8
100
AcDbEntity
  8
YODOROGO
100
AcDbLine
 10
11393.10162798446
 20
673.4060611609827
 30
0.0
 11
11481.60162798447
 21
673.4060611609827
 31
0.0
  0
LINE
  5
2B567
330
2B2D8
100
AcDbEntity
  8
YODOROGO
100
AcDbLine
 10
11280.60162798447
 20
760.4060611609829
 30
0.0
 11
11258.10162798447
 21
760.4060611609829
 31
0.0
  0
LINE
  5
2B568
330
2B2D8
100
AcDbEntity
  8
YODOROGO
100
AcDbLine
 10
11280.60162798447
 20
685.4060611609829
 30
0.0
 11
11280.60162798447
 21
760.4060611609829
 31
0.0
  0
LINE
  5
2B569
330
2B2D8
100
AcDbEntity
  8
YODOROGO
100
AcDbLine
 10
11258.10162798447
 20
685.4060611609829
 30
0.0
 11
11280.60162798447
 21
685.4060611609829
 31
0.0
  0
LINE
  5
2B56A
330
2B2D8
100
AcDbEntity
  8
YODOROGO
100
AcDbLine
 10
11258.10162798447
 20
760.4060611609829
 30
0.0
 11
11258.10162798447
 21
685.4060611609829
 31
0.0
  0
LINE
  5
2B56B
330
2B2D8
100
AcDbEntity
  8
YODOROGO
100
AcDbLine
 10
11310.60162798447
 20
760.4060611609829
 30
0.0
 11
11331.60162798447
 21
760.4060611609829
 31
0.0
  0
LINE
  5
2B56C
330
2B2D8
100
AcDbEntity
  8
YODOROGO
100
AcDbLine
 10
11310.60162798447
 20
679.4060611609832
 30
0.0
 11
11310.60162798447
 21
760.4060611609829
 31
0.0
  0
ARC
  5
2B56D
330
2B2D8
100
AcDbEntity
  8
YODOROGO
100
AcDbCircle
 10
11295.60162798447
 20
679.4060611609832
 30
0.0
 40
15.0
100
AcDbArc
 50
270.0
 51
0.0
  0
LINE
  5
2B56E
330
2B2D8
100
AcDbEntity
  8
YODOROGO
100
AcDbLine
 10
11258.10162798447
 20
664.4060611609833
 30
0.0
 11
11295.60162798447
 21
664.4060611609833
 31
0.0
  0
LINE
  5
2B56F
330
2B2D8
100
AcDbEntity
  8
YODOROGO
100
AcDbLine
 10
11258.10162798447
 20
640.4060611609828
 30
0.0
 11
11258.10162798447
 21
664.4060611609833
 31
0.0
  0
LINE
  5
2B570
330
2B2D8
100
AcDbEntity
  8
YODOROGO
100
AcDbLine
 10
11301.60162798446
 20
640.4060611609828
 30
0.0
 11
11258.10162798447
 21
640.4060611609828
 31
0.0
  0
ARC
  5
2B571
330
2B2D8
100
AcDbEntity
  8
YODOROGO
100
AcDbCircle
 10
11301.60162798446
 20
670.4060611609828
 30
0.0
 40
30.0
100
AcDbArc
 50
270.0
 51
0.0
  0
LINE
  5
2B572
330
2B2D8
100
AcDbEntity
  8
YODOROGO
100
AcDbLine
 10
11331.60162798447
 20
760.4060611609829
 30
0.0
 11
11331.60162798447
 21
670.4060611609828
 31
0.0
  0
LINE
  5
2B573
330
2B2D8
100
AcDbEntity
  8
YODOROGO
100
AcDbLine
 10
11241.60162798446
 20
730.4060611609828
 30
0.0
 11
11241.60162798446
 21
748.4060611609828
 31
0.0
1001
AUTOCAD_POSTSCRIPT_FIGURE
1002
{
1000
PSFILL
1000
Grayscale
1000
Grayscale
1070
    25
1002
}
  0
LINE
  5
2B574
330
2B2D8
100
AcDbEntity
  8
YODOROGO
100
AcDbLine
 10
11241.60162798446
 20
697.406061160983
 30
0.0
 11
11241.60162798446
 21
715.4060611609828
 31
0.0
1001
AUTOCAD_POSTSCRIPT_FIGURE
1002
{
1000
PSFILL
1000
Grayscale
1000
Grayscale
1070
    25
1002
}
  0
LINE
  5
2B575
330
2B2D8
100
AcDbEntity
  8
YODOROGO
100
AcDbLine
 10
11241.60162798446
 20
640.4060611609828
 30
0.0
 11
11241.60162798446
 21
682.4060611609829
 31
0.0
1001
AUTOCAD_POSTSCRIPT_FIGURE
1002
{
1000
PSFILL
1000
Grayscale
1000
Grayscale
1070
    25
1002
}
  0
LINE
  5
2B576
330
2B2D8
100
AcDbEntity
  8
YODOROGO
100
AcDbLine
 10
11393.10162798446
 20
715.4060611609828
 30
0.0
 11
11436.60162798447
 21
760.4060611609829
 31
0.0
  0
LINE
  5
2B577
330
2B2D8
100
AcDbEntity
  8
YODOROGO
100
AcDbLine
 10
11393.10162798446
 20
682.4060611609829
 30
0.0
 11
11393.10162798446
 21
715.4060611609828
 31
0.0
  0
LINE
  5
2B578
330
2B2D8
100
AcDbEntity
  8
YODOROGO
100
AcDbLine
 10
11436.60162798447
 20
727.4060611609828
 30
0.0
 11
11393.10162798446
 21
682.4060611609829
 31
0.0
  0
LINE
  5
2B579
330
2B2D8
100
AcDbEntity
  8
YODOROGO
100
AcDbLine
 10
11424.60162798446
 20
629.9060611609831
 30
0.0
 11
11424.60162798446
 21
650.9060611609827
 31
0.0
  0
LINE
  5
2B57A
330
2B2D8
100
AcDbEntity
  8
YODOROGO
100
AcDbLine
 10
11393.10162798446
 20
629.9060611609831
 30
0.0
 11
11424.60162798446
 21
629.9060611609831
 31
0.0
  0
LINE
  5
2B57B
330
2B2D8
100
AcDbEntity
  8
YODOROGO
100
AcDbLine
 10
11448.60162798446
 20
650.9060611609827
 30
0.0
 11
11448.60162798446
 21
629.9060611609831
 31
0.0
  0
LINE
  5
2B57C
330
2B2D8
100
AcDbEntity
  8
YODOROGO
100
AcDbLine
 10
11393.10162798446
 20
650.9060611609827
 30
0.0
 11
11393.10162798446
 21
673.4060611609827
 31
0.0
  0
LINE
  5
2B57D
330
2B2D8
100
AcDbEntity
  8
YODOROGO
100
AcDbLine
 10
11424.60162798446
 20
650.9060611609827
 30
0.0
 11
11393.10162798446
 21
650.9060611609827
 31
0.0
  0
LINE
  5
2B57E
330
2B2D8
100
AcDbEntity
  8
YODOROGO
100
AcDbLine
 10
11492.10162798447
 20
760.4060611609829
 30
0.0
 11
11615.10162798446
 21
760.4060611609829
 31
0.0
  0
LINE
  5
2B57F
330
2B2D8
100
AcDbEntity
  8
YODOROGO
100
AcDbLine
 10
11597.10162798446
 20
736.4060611609825
 30
0.0
 11
11511.60162798447
 21
736.4060611609825
 31
0.0
  0
LINE
  5
2B580
330
2B2D8
100
AcDbEntity
  8
YODOROGO
100
AcDbLine
 10
11577.60162798447
 20
682.4060611609829
 30
0.0
 11
11587.35162798447
 21
682.4060611609829
 31
0.0
  0
LINE
  5
2B581
330
2B2D8
100
AcDbEntity
  8
YODOROGO
100
AcDbLine
 10
11587.35162798447
 20
727.4060611609828
 30
0.0
 11
11577.60162798447
 21
682.4060611609829
 31
0.0
  0
LINE
  5
2B582
330
2B2D8
100
AcDbEntity
  8
YODOROGO
100
AcDbLine
 10
11569.35162798446
 20
727.4060611609828
 30
0.0
 11
11587.35162798447
 21
727.4060611609828
 31
0.0
  0
LINE
  5
2B583
330
2B2D8
100
AcDbEntity
  8
YODOROGO
100
AcDbLine
 10
11559.60162798447
 20
682.4060611609829
 30
0.0
 11
11569.35162798446
 21
727.4060611609828
 31
0.0
  0
LINE
  5
2B584
330
2B2D8
100
AcDbEntity
  8
YODOROGO
100
AcDbLine
 10
11549.10162798447
 20
682.4060611609829
 30
0.0
 11
11559.60162798447
 21
682.4060611609829
 31
0.0
  0
LINE
  5
2B585
330
2B2D8
100
AcDbEntity
  8
YODOROGO
100
AcDbLine
 10
11539.35162798447
 20
727.4060611609828
 30
0.0
 11
11549.10162798447
 21
682.4060611609829
 31
0.0
  0
LINE
  5
2B586
330
2B2D8
100
AcDbEntity
  8
YODOROGO
100
AcDbLine
 10
11521.35162798447
 20
727.4060611609828
 30
0.0
 11
11539.35162798447
 21
727.4060611609828
 31
0.0
  0
LINE
  5
2B587
330
2B2D8
100
AcDbEntity
  8
YODOROGO
100
AcDbLine
 10
11531.10162798447
 20
682.4060611609829
 30
0.0
 11
11521.35162798447
 21
727.4060611609828
 31
0.0
  0
LINE
  5
2B588
330
2B2D8
100
AcDbEntity
  8
YODOROGO
100
AcDbLine
 10
11521.35162798447
 20
682.4060611609829
 30
0.0
 11
11531.10162798447
 21
682.4060611609829
 31
0.0
  0
LINE
  5
2B589
330
2B2D8
100
AcDbEntity
  8
YODOROGO
100
AcDbLine
 10
11521.35162798447
 20
658.4060611609827
 30
0.0
 11
11521.35162798447
 21
682.4060611609829
 31
0.0
  0
LINE
  5
2B58A
330
2B2D8
100
AcDbEntity
  8
YODOROGO
100
AcDbLine
 10
11587.35162798447
 20
658.4060611609827
 30
0.0
 11
11521.35162798447
 21
658.4060611609827
 31
0.0
  0
LINE
  5
2B58B
330
2B2D8
100
AcDbEntity
  8
YODOROGO
100
AcDbLine
 10
11587.35162798447
 20
682.4060611609829
 30
0.0
 11
11587.35162798447
 21
658.4060611609827
 31
0.0
  0
LINE
  5
2B58C
330
2B2D8
100
AcDbEntity
  8
YODOROGO
100
AcDbLine
 10
11481.60162798447
 20
730.4060611609828
 30
0.0
 11
11481.60162798447
 21
697.406061160983
 31
0.0
  0
LINE
  5
2B58D
330
2B2D8
100
AcDbEntity
  8
YODOROGO
100
AcDbLine
 10
11546.85162798447
 20
658.4060611609827
 30
0.0
 11
11561.85162798446
 21
658.4060611609827
 31
0.0
  0
LINE
  5
2B58E
330
2B2D8
100
AcDbEntity
  8
YODOROGO
100
AcDbLine
 10
11521.35162798447
 20
634.4060611609833
 30
0.0
 11
11536.35162798447
 21
634.4060611609833
 31
0.0
  0
LINE
  5
2B58F
330
2B2D8
100
AcDbEntity
  8
YODOROGO
100
AcDbLine
 10
11572.35162798446
 20
634.4060611609833
 30
0.0
 11
11587.35162798447
 21
634.4060611609833
 31
0.0
  0
LINE
  5
2B590
330
2B2D8
100
AcDbEntity
  8
YODOROGO
100
AcDbLine
 10
11481.60162798447
 20
673.4060611609827
 30
0.0
 11
11481.60162798447
 21
650.9060611609827
 31
0.0
  0
LINE
  5
2B591
330
2B2D8
100
AcDbEntity
  8
YODOROGO
100
AcDbLine
 10
11687.10162798447
 20
760.4060611609829
 30
0.0
 11
11687.10162798447
 21
736.4060611609825
 31
0.0
  0
LINE
  5
2B592
330
2B2D8
100
AcDbEntity
  8
YODOROGO
100
AcDbLine
 10
11825.10162798447
 20
598.4060611609827
 30
0.0
 11
11825.10162798446
 21
679.4060611609832
 31
0.0
  0
LINE
  5
2B593
330
2B2D8
100
AcDbEntity
  8
YODOROGO
100
AcDbLine
 10
11798.10162798446
 20
745.4060611609828
 30
0.0
 11
11798.10162798446
 21
613.4060611609827
 31
0.0
  0
LINE
  5
2B594
330
2B2D8
100
AcDbEntity
  8
YODOROGO
100
AcDbLine
 10
11870.10162798447
 20
535.4060611609829
 30
0.0
 11
11870.10162798446
 21
679.4060611609832
 31
0.0
  0
LINE
  5
2B595
330
2B2D8
100
AcDbEntity
  8
YODOROGO
100
AcDbLine
 10
11846.10162798447
 20
679.4060611609832
 30
0.0
 11
11846.10162798447
 21
535.4060611609829
 31
0.0
  0
LINE
  5
2B596
330
2B2D8
100
AcDbEntity
  8
YODOROGO
100
AcDbLine
 10
11714.10162798447
 20
598.4060611609827
 30
0.0
 11
11714.10162798447
 21
640.4060611609828
 31
0.0
  0
ARC
  5
2B597
330
2B2D8
100
AcDbEntity
  8
YODOROGO
100
AcDbCircle
 10
11757.71807441852
 20
602.921381733209
 30
0.0
 40
67.53466821599572
100
AcDbArc
 50
268.6284910216979
 51
356.1663845733032
  0
LINE
  5
2B598
330
2B2D8
100
AcDbEntity
  8
YODOROGO
100
AcDbLine
 10
11756.10162798446
 20
572.9060611609829
 30
0.0
 11
11756.10162798446
 21
535.4060611609829
 31
0.0
  0
ARC
  5
2B599
330
2B2D8
100
AcDbEntity
  8
YODOROGO
100
AcDbCircle
 10
11756.81927839671
 20
614.1896088816206
 30
0.0
 40
41.28978486885457
100
AcDbArc
 50
269.0041020930593
 51
358.9126445549248
  0
LINE
  5
2B59A
330
2B2D8
100
AcDbEntity
  8
YODOROGO
100
AcDbLine
 10
11846.10162798447
 20
535.4060611609829
 30
0.0
 11
11870.10162798447
 21
535.4060611609829
 31
0.0
  0
LINE
  5
2B59B
330
2B2D8
100
AcDbEntity
  8
YODOROGO
100
AcDbLine
 10
11825.10162798446
 20
679.4060611609832
 30
0.0
 11
11846.10162798447
 21
679.4060611609832
 31
0.0
  0
LINE
  5
2B59C
330
2B2D8
100
AcDbEntity
  8
YODOROGO
100
AcDbLine
 10
11858.10162798446
 20
745.4060611609828
 30
0.0
 11
11798.10162798446
 21
745.4060611609828
 31
0.0
  0
LINE
  5
2B59D
330
2B2D8
100
AcDbEntity
  8
YODOROGO
100
AcDbLine
 10
11825.10162798446
 20
718.4060611609829
 30
0.0
 11
11873.10162798447
 21
718.4060611609829
 31
0.0
  0
LINE
  5
2B59E
330
2B2D8
100
AcDbEntity
  8
YODOROGO
100
AcDbLine
 10
11888.10162798447
 20
703.4060611609828
 30
0.0
 11
11825.10162798446
 21
703.4060611609828
 31
0.0
  0
LINE
  5
2B59F
330
2B2D8
100
AcDbEntity
  8
YODOROGO
100
AcDbLine
 10
11714.10162798447
 20
667.4060611609831
 30
0.0
 11
11756.10162798446
 21
667.4060611609831
 31
0.0
  0
LINE
  5
2B5A0
330
2B2D8
100
AcDbEntity
  8
YODOROGO
100
AcDbLine
 10
11714.10162798447
 20
688.4060611609828
 30
0.0
 11
11714.10162798447
 21
667.4060611609831
 31
0.0
  0
LINE
  5
2B5A1
330
2B2D8
100
AcDbEntity
  8
YODOROGO
100
AcDbLine
 10
11756.10162798446
 20
688.4060611609828
 30
0.0
 11
11714.10162798447
 21
688.4060611609828
 31
0.0
  0
LINE
  5
2B5A2
330
2B2D8
100
AcDbEntity
  8
YODOROGO
100
AcDbLine
 10
11756.10162798446
 20
667.4060611609831
 30
0.0
 11
11756.10162798446
 21
688.4060611609828
 31
0.0
  0
LINE
  5
2B5A3
330
2B2D8
100
AcDbEntity
  8
YODOROGO
100
AcDbLine
 10
11825.10162798446
 20
703.4060611609828
 30
0.0
 11
11825.10162798446
 21
718.4060611609829
 31
0.0
  0
LINE
  5
2B5A4
330
2B2D8
100
AcDbEntity
  8
YODOROGO
100
AcDbLine
 10
11780.10162798446
 20
640.4060611609828
 30
0.0
 11
11780.10162798446
 21
715.4060611609828
 31
0.0
  0
LINE
  5
2B5A5
330
2B2D8
100
AcDbEntity
  8
YODOROGO
100
AcDbLine
 10
11714.10162798447
 20
640.4060611609828
 30
0.0
 11
11780.10162798446
 21
640.4060611609828
 31
0.0
  0
LINE
  5
2B5A6
330
2B2D8
100
AcDbEntity
  8
YODOROGO
100
AcDbLine
 10
11780.10162798446
 20
736.4060611609825
 30
0.0
 11
11780.10162798446
 21
760.4060611609829
 31
0.0
  0
ARC
  5
2B5A7
330
2B2D8
100
AcDbEntity
  8
YODOROGO
100
AcDbCircle
 10
11858.10162798446
 20
751.4060611609817
 30
0.0
 40
5.999999999997952
100
AcDbArc
 50
270.0
 51
0.0000000000081422
  0
LINE
  5
2B5A8
330
2B2D8
100
AcDbEntity
  8
YODOROGO
100
AcDbLine
 10
11864.10162798447
 20
760.4060611609829
 30
0.0
 11
11864.10162798447
 21
751.4060611609825
 31
0.0
  0
LINE
  5
2B5A9
330
2B2D8
100
AcDbEntity
  8
YODOROGO
100
AcDbLine
 10
11888.10162798447
 20
760.4060611609829
 30
0.0
 11
11864.10162798447
 21
760.4060611609829
 31
0.0
  0
LINE
  5
2B5AA
330
2B2D8
100
AcDbEntity
  8
YODOROGO
100
AcDbLine
 10
11888.10162798447
 20
733.4060611609828
 30
0.0
 11
11888.10162798447
 21
760.4060611609829
 31
0.0
  0
ARC
  5
2B5AB
330
2B2D8
100
AcDbEntity
  8
YODOROGO
100
AcDbCircle
 10
11873.10162798447
 20
733.4060611609828
 30
0.0
 40
15.0
100
AcDbArc
 50
270.0
 51
0.0
  0
LINE
  5
2B5AC
330
2B2D8
100
AcDbEntity
  8
YODOROGO
100
AcDbLine
 10
11888.10162798447
 20
679.4060611609832
 30
0.0
 11
11888.10162798447
 21
703.4060611609828
 31
0.0
  0
LINE
  5
2B5AD
330
2B2D8
100
AcDbEntity
  8
YODOROGO
100
AcDbLine
 10
11870.10162798446
 20
679.4060611609832
 30
0.0
 11
11888.10162798447
 21
679.4060611609832
 31
0.0
  0
LINE
  5
2B5AE
330
2B2D8
100
AcDbEntity
  8
SUNPOU
100
AcDbLine
 10
9569.004567557742
 20
3192.331984815486
 30
0.0
 11
9569.004567557742
 21
2087.204834655467
 31
0.0
  0
LINE
  5
2B5AF
330
2B2D8
100
AcDbEntity
  8
SUNPOU
100
AcDbLine
 10
9919.004567557747
 20
2162.204834655466
 30
0.0
 11
9919.004567557747
 21
2177.204834655467
 31
0.0
  0
LINE
  5
2B5B0
330
2B2D8
100
AcDbEntity
  8
SUNPOU
100
AcDbLine
 10
9584.004567557743
 20
2132.204834655467
 30
0.0
 11
9904.004567557745
 21
2132.204834655467
 31
0.0
  0
LINE
  5
2B5B1
330
2B2D8
100
AcDbEntity
  8
SUNPOU
100
AcDbLine
 10
6769.004567557741
 20
3501.926974229796
 30
0.0
 11
6769.004567557741
 21
2087.204834655467
 31
0.0
  0
LINE
  5
2B5B2
330
2B2D8
100
AcDbEntity
  8
SUNPOU
100
AcDbLine
 10
9569.004567557742
 20
3192.331984815486
 30
0.0
 11
9569.004567557742
 21
2087.204834655467
 31
0.0
  0
LINE
  5
2B5B3
330
2B2D8
100
AcDbEntity
  8
SUNPOU
100
AcDbLine
 10
6784.00456755774
 20
2132.204834655467
 30
0.0
 11
9554.004567557742
 21
2132.204834655467
 31
0.0
  0
ARC
  5
2B5B4
330
2B2D8
100
AcDbEntity
  8
SUNPOU
100
AcDbCircle
 10
9779.710583123225
 20
3969.704834655468
 30
0.0
 40
5.625
100
AcDbArc
 50
90.0
 51
270.0
  0
ARC
  5
2B5B5
330
2B2D8
100
AcDbEntity
  8
SUNPOU
100
AcDbCircle
 10
9779.710583123225
 20
3969.704834655468
 30
0.0
 40
5.625
100
AcDbArc
 50
270.0
 51
90.0
  0
ARC
  5
2B5B6
330
2B2D8
100
AcDbEntity
  8
SUNPOU
100
AcDbCircle
 10
9779.710583123225
 20
3894.704834655467
 30
0.0
 40
5.625
100
AcDbArc
 50
90.0
 51
270.0
  0
ARC
  5
2B5B7
330
2B2D8
100
AcDbEntity
  8
SUNPOU
100
AcDbCircle
 10
9779.710583123225
 20
3894.704834655467
 30
0.0
 40
5.625
100
AcDbArc
 50
270.0
 51
90.0
  0
ARC
  5
2B5B8
330
2B2D8
100
AcDbEntity
  8
SUNPOU
100
AcDbCircle
 10
9601.504567557736
 20
3718.261990769816
 30
0.0
 40
5.625
100
AcDbArc
 50
180.0
 51
0.0
  0
ARC
  5
2B5B9
330
2B2D8
100
AcDbEntity
  8
SUNPOU
100
AcDbCircle
 10
9601.504567557736
 20
3718.261990769816
 30
0.0
 40
5.625
100
AcDbArc
 50
0.0
 51
180.0
  0
ARC
  5
2B5BA
330
2B2D8
100
AcDbEntity
  8
SUNPOU
100
AcDbCircle
 10
9536.504567557734
 20
3718.261990769816
 30
0.0
 40
5.625
100
AcDbArc
 50
180.0
 51
0.0
  0
ARC
  5
2B5BB
330
2B2D8
100
AcDbEntity
  8
SUNPOU
100
AcDbCircle
 10
9536.504567557734
 20
3718.261990769816
 30
0.0
 40
5.625
100
AcDbArc
 50
0.0
 51
180.0
  0
LINE
  5
2B5BC
330
2B2D8
100
AcDbEntity
  8
SUNPOU
100
AcDbLine
 10
9919.004567557742
 20
3552.204834655468
 30
0.0
 11
9919.004567557742
 21
3203.164299082426
 31
0.0
  0
LINE
  5
2B5BD
330
2B2D8
100
AcDbEntity
  8
SUNPOU
100
AcDbLine
 10
9219.004567557743
 20
3552.204834655468
 30
0.0
 11
9219.004567557743
 21
3203.164299082426
 31
0.0
  0
LINE
  5
2B5BE
330
2B2D8
100
AcDbEntity
  8
SUNPOU
100
AcDbLine
 10
9904.004567557741
 20
3248.164299082425
 30
0.0
 11
9234.004567557743
 21
3248.164299082425
 31
0.0
  0
LINE
  5
2B5BF
330
2B2D8
100
AcDbEntity
  8
SUNPOU
100
AcDbLine
 10
9949.004567557743
 20
2532.204834655467
 30
0.0
 11
10684.00456755772
 21
2532.204834655467
 31
0.0
  0
LINE
  5
2B5C0
330
2B2D8
100
AcDbEntity
  8
SUNPOU
100
AcDbLine
 10
9949.004567557743
 20
7392.204834655466
 30
0.0
 11
10684.00456755772
 21
7392.204834655466
 31
0.0
  0
LINE
  5
2B5C1
330
2B2D8
100
AcDbEntity
  8
SUNPOU
100
AcDbLine
 10
10639.00456755772
 20
2547.204834655467
 30
0.0
 11
10639.00456755772
 21
7377.204834655467
 31
0.0
  0
LINE
  5
2B5C2
330
2B2D8
100
AcDbEntity
  8
SUNPOU
100
AcDbLine
 10
10026.06338490794
 20
5992.204834655467
 30
0.0
 11
10474.00456755772
 21
5992.204834655463
 31
0.0
  0
LINE
  5
2B5C3
330
2B2D8
100
AcDbEntity
  8
SUNPOU
100
AcDbLine
 10
9949.004567557743
 20
7392.204834655466
 30
0.0
 11
10474.00456755772
 21
7392.204834655466
 31
0.0
  0
LINE
  5
2B5C4
330
2B2D8
100
AcDbEntity
  8
SUNPOU
100
AcDbLine
 10
10429.00456755772
 20
6007.204834655465
 30
0.0
 11
10429.00456755772
 21
7377.204834655467
 31
0.0
  0
LINE
  5
2B5C5
330
2B2D8
100
AcDbEntity
  8
SUNPOU
100
AcDbLine
 10
10026.06338490794
 20
3932.204834655467
 30
0.0
 11
10474.00456755772
 21
3932.204834655467
 31
0.0
  0
LINE
  5
2B5C6
330
2B2D8
100
AcDbEntity
  8
SUNPOU
100
AcDbLine
 10
9949.004567557743
 20
2532.204834655467
 30
0.0
 11
10474.00456755772
 21
2532.204834655467
 31
0.0
  0
LINE
  5
2B5C7
330
2B2D8
100
AcDbEntity
  8
SUNPOU
100
AcDbLine
 10
10429.00456755772
 20
3917.204834655466
 30
0.0
 11
10429.00456755772
 21
2547.204834655467
 31
0.0
  0
LINE
  5
2B5C8
330
2B2D8
100
AcDbEntity
  8
SUNPOU
100
AcDbLine
 10
9949.004567557743
 20
3582.204834655467
 30
0.0
 11
10264.00456755772
 21
3582.204834655467
 31
0.0
  0
LINE
  5
2B5C9
330
2B2D8
100
AcDbEntity
  8
SUNPOU
100
AcDbLine
 10
9949.004567557743
 20
4282.204834655466
 30
0.0
 11
10264.00456755772
 21
4282.204834655465
 31
0.0
  0
LINE
  5
2B5CA
330
2B2D8
100
AcDbEntity
  8
SUNPOU
100
AcDbLine
 10
10219.00456755772
 20
3597.204834655467
 30
0.0
 11
10219.00456755772
 21
4267.204834655466
 31
0.0
  0
LINE
  5
2B5CB
330
2B2D8
100
AcDbEntity
  8
SUNPOU
100
AcDbLine
 10
10026.06338490794
 20
3932.204834655467
 30
0.0
 11
10474.00456755771
 21
3932.204834655467
 31
0.0
  0
LINE
  5
2B5CC
330
2B2D8
100
AcDbEntity
  8
SUNPOU
100
AcDbLine
 10
10026.06338490794
 20
5992.204834655467
 30
0.0
 11
10474.00456755772
 21
5992.204834655463
 31
0.0
  0
LINE
  5
2B5CD
330
2B2D8
100
AcDbEntity
  8
SUNPOU
100
AcDbLine
 10
10429.00456755772
 20
3947.204834655467
 30
0.0
 11
10429.00456755772
 21
5977.204834655465
 31
0.0
  0
ARC
  5
2B5CE
330
2B2D8
100
AcDbEntity
  8
SUNPOU
100
AcDbCircle
 10
10219.00456755772
 20
6342.204834655467
 30
0.0
 40
5.625000000000908
100
AcDbArc
 50
270.0
 51
90.0
  0
ARC
  5
2B5CF
330
2B2D8
100
AcDbEntity
  8
SUNPOU
100
AcDbCircle
 10
10219.00456755772
 20
6342.204834655467
 30
0.0
 40
5.625000000001817
100
AcDbArc
 50
90.0
 51
270.0
  0
ARC
  5
2B5D0
330
2B2D8
100
AcDbEntity
  8
SUNPOU
100
AcDbCircle
 10
9779.710583123225
 20
6029.704834655467
 30
0.0
 40
5.625
100
AcDbArc
 50
90.0
 51
270.0
  0
ARC
  5
2B5D1
330
2B2D8
100
AcDbEntity
  8
SUNPOU
100
AcDbCircle
 10
9779.710583123225
 20
6029.704834655467
 30
0.0
 40
5.625
100
AcDbArc
 50
270.0
 51
90.0
  0
ARC
  5
2B5D2
330
2B2D8
100
AcDbEntity
  8
SUNPOU
100
AcDbCircle
 10
9779.710583123225
 20
5954.704834655466
 30
0.0
 40
5.625
100
AcDbArc
 50
90.0
 51
270.0
  0
ARC
  5
2B5D3
330
2B2D8
100
AcDbEntity
  8
SUNPOU
100
AcDbCircle
 10
9779.710583123225
 20
5954.704834655466
 30
0.0
 40
5.625
100
AcDbArc
 50
270.0
 51
90.0
  0
ARC
  5
2B5D4
330
2B2D8
100
AcDbEntity
  8
SUNPOU
100
AcDbCircle
 10
9601.504567557736
 20
5778.261990769816
 30
0.0
 40
5.625
100
AcDbArc
 50
180.0
 51
0.0
  0
ARC
  5
2B5D5
330
2B2D8
100
AcDbEntity
  8
SUNPOU
100
AcDbCircle
 10
9601.504567557736
 20
5778.261990769816
 30
0.0
 40
5.625
100
AcDbArc
 50
0.0
 51
180.0
  0
ARC
  5
2B5D6
330
2B2D8
100
AcDbEntity
  8
SUNPOU
100
AcDbCircle
 10
9536.504567557734
 20
5778.261990769816
 30
0.0
 40
5.625
100
AcDbArc
 50
180.0
 51
0.0
  0
ARC
  5
2B5D7
330
2B2D8
100
AcDbEntity
  8
SUNPOU
100
AcDbCircle
 10
9536.504567557734
 20
5778.261990769816
 30
0.0
 40
5.625
100
AcDbArc
 50
0.0
 51
180.0
  0
LINE
  5
2B5D8
330
2B2D8
100
AcDbEntity
  8
SUNPOU
100
AcDbLine
 10
10219.00456755772
 20
5653.454834655466
 30
0.0
 11
10219.00456755772
 21
5664.704834655466
 31
0.0
  0
ARC
  5
2B5D9
330
2B2D8
100
AcDbEntity
  8
SUNPOU
100
AcDbCircle
 10
9919.004567557735
 20
5342.204834655466
 30
0.0
 40
5.625
100
AcDbArc
 50
180.0
 51
0.0
  0
ARC
  5
2B5DA
330
2B2D8
100
AcDbEntity
  8
SUNPOU
100
AcDbCircle
 10
9919.004567557735
 20
5342.204834655466
 30
0.0
 40
5.625
100
AcDbArc
 50
0.0
 51
180.0
  0
ARC
  5
2B5DB
330
2B2D8
100
AcDbEntity
  8
SUNPOU
100
AcDbCircle
 10
9219.004567557735
 20
5342.204834655466
 30
0.0
 40
5.625
100
AcDbArc
 50
0.0
 51
180.0
  0
ARC
  5
2B5DC
330
2B2D8
100
AcDbEntity
  8
SUNPOU
100
AcDbCircle
 10
9219.004567557735
 20
5342.204834655466
 30
0.0
 40
5.625
100
AcDbArc
 50
180.0
 51
0.0
  0
LINE
  5
2B5DD
330
2B2D8
100
AcDbEntity
  8
SUNPOU
100
AcDbLine
 10
6419.004567557741
 20
2502.204834655466
 30
0.0
 11
6419.004567557741
 21
1877.204834655465
 31
0.0
  0
LINE
  5
2B5DE
330
2B2D8
100
AcDbEntity
  8
SUNPOU
100
AcDbLine
 10
9919.004567557742
 20
2502.204834655467
 30
0.0
 11
9919.004567557742
 21
1877.204834655465
 31
0.0
  0
LINE
  5
2B5DF
330
2B2D8
100
AcDbEntity
  8
SUNPOU
100
AcDbLine
 10
6434.00456755774
 20
1922.204834655465
 30
0.0
 11
9904.004567557741
 21
1922.204834655465
 31
0.0
  0
LINE
  5
2B5E0
330
2B2D8
100
AcDbEntity
  8
SUNPOU
100
AcDbLine
 10
6757.754567557736
 20
2132.204834655467
 30
0.0
 11
6746.504567557734
 21
2132.204834655467
 31
0.0
  0
LINE
  5
2B5E1
330
2B2D8
100
AcDbEntity
  8
SUNPOU
100
AcDbLine
 10
6430.254567557736
 20
2132.204834655467
 30
0.0
 11
6441.504567557736
 21
2132.204834655467
 31
0.0
  0
LINE
  5
2B5E2
330
2B2D8
100
AcDbEntity
  8
SUNPOU
100
AcDbLine
 10
3175.201129534439
 20
4701.619741444836
 30
0.0
 11
4627.701129534438
 21
4701.619741444836
 31
0.0
  0
LINE
  5
2B5E3
330
2B2D8
100
AcDbEntity
  8
SUNPOU
100
AcDbLine
 10
3175.201129534439
 20
4551.619741444837
 30
0.0
 11
4627.701129534438
 21
4551.619741444837
 31
0.0
  0
LINE
  5
2B5E4
330
2B2D8
100
AcDbEntity
  8
SUNPOU
100
AcDbLine
 10
4582.701129534438
 20
4686.619741444836
 30
0.0
 11
4582.701129534438
 21
4566.619741444838
 31
0.0
  0
LINE
  5
2B5E5
330
2B2D8
100
AcDbEntity
  8
SUNPOU
100
AcDbLine
 10
4582.701129534438
 20
4551.619741444837
 30
0.0
 11
4582.701129534438
 21
4300.905455730553
 31
0.0
  0
LINE
  5
2B5E6
330
2B2D8
100
AcDbEntity
  8
SUNPOU
100
AcDbLine
 10
4412.701129534438
 20
5451.619741444837
 30
0.0
 11
4627.701129534438
 21
5451.619741444837
 31
0.0
  0
LINE
  5
2B5E7
330
2B2D8
100
AcDbEntity
  8
SUNPOU
100
AcDbLine
 10
3175.201129534439
 20
4701.619741444839
 30
0.0
 11
4627.701129534438
 21
4701.619741444839
 31
0.0
  0
LINE
  5
2B5E8
330
2B2D8
100
AcDbEntity
  8
SUNPOU
100
AcDbLine
 10
4582.701129534438
 20
5436.619741444838
 30
0.0
 11
4582.701129534438
 21
4716.619741444839
 31
0.0
  0
LINE
  5
2B5E9
330
2B2D8
100
AcDbEntity
  8
SUNPOU
100
AcDbLine
 10
1945.201129534436
 20
4521.619741444838
 30
0.0
 11
1945.201129534436
 21
4176.619741444836
 31
0.0
  0
LINE
  5
2B5EA
330
2B2D8
100
AcDbEntity
  8
SUNPOU
100
AcDbLine
 10
2995.201129534438
 20
4521.619741444838
 30
0.0
 11
2995.201129534438
 21
4176.619741444836
 31
0.0
  0
LINE
  5
2B5EB
330
2B2D8
100
AcDbEntity
  8
SUNPOU
100
AcDbLine
 10
1960.201129534436
 20
4221.619741444835
 30
0.0
 11
2980.201129534437
 21
4221.619741444835
 31
0.0
  0
LINE
  5
2B5EC
330
2B2D8
100
AcDbEntity
  8
SUNPOU
100
AcDbLine
 10
1795.201129534437
 20
4521.619741444838
 30
0.0
 11
1795.201129534437
 21
3966.619741444837
 31
0.0
  0
LINE
  5
2B5ED
330
2B2D8
100
AcDbEntity
  8
SUNPOU
100
AcDbLine
 10
3145.201129534437
 20
4521.619741444838
 30
0.0
 11
3145.201129534437
 21
3966.619741444837
 31
0.0
  0
LINE
  5
2B5EE
330
2B2D8
100
AcDbEntity
  8
SUNPOU
100
AcDbLine
 10
1810.201129534436
 20
4011.619741444837
 30
0.0
 11
3130.201129534439
 21
4011.619741444837
 31
0.0
  0
TEXT
  5
2B5EF
330
2B2D8
100
AcDbEntity
  8
SUNPOU
100
AcDbText
 10
2326.201129534437
 20
4056.619741444836
 30
0.0
 40
90.0
  1
900 □
 41
0.6666666666666666
  7
00
100
AcDbText
  0
LINE
  5
2B5F0
330
2B2D8
100
AcDbEntity
  8
SUNPOU
100
AcDbLine
 10
3133.951129534437
 20
4011.619741444837
 30
0.0
 11
3122.701129534438
 21
4011.619741444837
 31
0.0
  0
LINE
  5
2B5F1
330
2B2D8
100
AcDbEntity
  8
SUNPOU
100
AcDbLine
 10
1806.451129534436
 20
4011.619741444837
 30
0.0
 11
1817.701129534436
 21
4011.619741444837
 31
0.0
  0
TEXT
  5
2B5F2
330
2B2D8
100
AcDbEntity
  8
SUNPOU
100
AcDbText
 10
2326.201129534437
 20
4266.619741444836
 30
0.0
 40
90.0
  1
700 □
 41
0.6666666666666666
  7
00
100
AcDbText
  0
LINE
  5
2B5F3
330
2B2D8
100
AcDbEntity
  8
SUNPOU
100
AcDbLine
 10
2983.951129534437
 20
4221.619741444835
 30
0.0
 11
2972.701129534437
 21
4221.619741444835
 31
0.0
  0
LINE
  5
2B5F4
330
2B2D8
100
AcDbEntity
  8
SUNPOU
100
AcDbLine
 10
1956.451129534436
 20
4221.619741444835
 30
0.0
 11
1967.701129534436
 21
4221.619741444835
 31
0.0
  0
TEXT
  5
2B5F5
330
2B2D8
100
AcDbEntity
  8
SUNPOU
100
AcDbText
 10
4537.701129534437
 20
4990.905455730555
 30
0.0
 40
90.0
  1
500
 50
90.0
 41
0.6666666666666666
  7
00
100
AcDbText
  0
LINE
  5
2B5F6
330
2B2D8
100
AcDbEntity
  8
SUNPOU
100
AcDbLine
 10
4582.701129534438
 20
4712.869741444839
 30
0.0
 11
4582.701129534438
 21
4724.119741444837
 31
0.0
  0
LINE
  5
2B5F7
330
2B2D8
100
AcDbEntity
  8
SUNPOU
100
AcDbLine
 10
4582.701129534438
 20
5440.369741444838
 30
0.0
 11
4582.701129534438
 21
5429.119741444838
 31
0.0
  0
TEXT
  5
2B5F8
330
2B2D8
100
AcDbEntity
  8
SUNPOU
100
AcDbText
 10
4537.701129534437
 20
4328.762598587696
 30
0.0
 40
90.0
  1
100
 50
90.0
 41
0.6666666666666666
  7
00
100
AcDbText
  0
LINE
  5
2B5F9
330
2B2D8
100
AcDbEntity
  8
SUNPOU
100
AcDbLine
 10
4582.701129534438
 20
4562.869741444838
 30
0.0
 11
4582.701129534438
 21
4574.119741444838
 31
0.0
  0
LINE
  5
2B5FA
330
2B2D8
100
AcDbEntity
  8
SUNPOU
100
AcDbLine
 10
4582.701129534438
 20
4690.369741444835
 30
0.0
 11
4582.701129534438
 21
4679.119741444836
 31
0.0
  0
ARC
  5
2B5FB
330
2B2D8
100
AcDbEntity
  8
SUNPOU
100
AcDbCircle
 10
6419.004567557735
 20
2132.204834655467
 30
0.0
 40
5.625
100
AcDbArc
 50
0.0
 51
180.0
  0
ARC
  5
2B5FC
330
2B2D8
100
AcDbEntity
  8
SUNPOU
100
AcDbCircle
 10
6419.004567557735
 20
2132.204834655467
 30
0.0
 40
5.625
100
AcDbArc
 50
180.0
 51
0.0
  0
ARC
  5
2B5FD
330
2B2D8
100
AcDbEntity
  8
SUNPOU
100
AcDbCircle
 10
6769.004567557735
 20
2132.204834655467
 30
0.0
 40
5.625
100
AcDbArc
 50
180.0
 51
0.0
  0
ARC
  5
2B5FE
330
2B2D8
100
AcDbEntity
  8
SUNPOU
100
AcDbCircle
 10
6769.004567557735
 20
2132.204834655467
 30
0.0
 40
5.625
100
AcDbArc
 50
0.0
 51
180.0
  0
TEXT
  5
2B5FF
330
2B2D8
100
AcDbEntity
  8
SUNPOU
100
AcDbText
 10
8054.718853272026
 20
1967.204834655466
 30
0.0
 40
90.0
  1
3500
 41
0.6666666666666666
  7
00
100
AcDbText
  0
LINE
  5
2B600
330
2B2D8
100
AcDbEntity
  8
SUNPOU
100
AcDbLine
 10
9907.754567557743
 20
1922.204834655465
 30
0.0
 11
9896.504567557743
 21
1922.204834655465
 31
0.0
  0
LINE
  5
2B601
330
2B2D8
100
AcDbEntity
  8
SUNPOU
100
AcDbLine
 10
6430.25456755774
 20
1922.204834655465
 30
0.0
 11
6441.50456755774
 21
1922.204834655465
 31
0.0
  0
ARC
  5
2B602
330
2B2D8
100
AcDbEntity
  8
SUNPOU
100
AcDbCircle
 10
10219.00456755772
 20
5642.204834655466
 30
0.0
 40
5.625
100
AcDbArc
 50
90.0
 51
270.0
  0
ARC
  5
2B603
330
2B2D8
100
AcDbEntity
  8
SUNPOU
100
AcDbCircle
 10
10219.00456755772
 20
5642.204834655466
 30
0.0
 40
5.625
100
AcDbArc
 50
270.0
 51
90.0
  0
TEXT
  5
2B604
330
2B2D8
100
AcDbEntity
  8
SUNPOU
100
AcDbText
 10
10384.00456755772
 20
4847.919120369754
 30
0.0
 40
90.0
  1
2060
 50
90.0
 41
0.6666666666666666
  7
00
100
AcDbText
  0
LINE
  5
2B605
330
2B2D8
100
AcDbEntity
  8
SUNPOU
100
AcDbLine
 10
10429.00456755772
 20
5980.954834655465
 30
0.0
 11
10429.00456755772
 21
5969.704834655465
 31
0.0
  0
LINE
  5
2B606
330
2B2D8
100
AcDbEntity
  8
SUNPOU
100
AcDbLine
 10
10429.00456755772
 20
3943.454834655467
 30
0.0
 11
10429.00456755772
 21
3954.704834655466
 31
0.0
  0
TEXT
  5
2B607
330
2B2D8
100
AcDbEntity
  8
SUNPOU
100
AcDbText
 10
10174.00456755772
 20
3846.490548941183
 30
0.0
 40
90.0
  1
700
 50
90.0
 41
0.6666666666666666
  7
00
100
AcDbText
  0
LINE
  5
2B608
330
2B2D8
100
AcDbEntity
  8
SUNPOU
100
AcDbLine
 10
10219.00456755772
 20
4270.954834655467
 30
0.0
 11
10219.00456755772
 21
4259.704834655468
 31
0.0
  0
LINE
  5
2B609
330
2B2D8
100
AcDbEntity
  8
SUNPOU
100
AcDbLine
 10
10219.00456755772
 20
3593.454834655467
 30
0.0
 11
10219.00456755772
 21
3604.704834655468
 31
0.0
  0
TEXT
  5
2B60A
330
2B2D8
100
AcDbEntity
  8
SUNPOU
100
AcDbText
 10
10384.00456755772
 20
3113.63340608404
 30
0.0
 40
90.0
  1
1400
 50
90.0
 41
0.6666666666666666
  7
00
100
AcDbText
  0
LINE
  5
2B60B
330
2B2D8
100
AcDbEntity
  8
SUNPOU
100
AcDbLine
 10
10429.00456755772
 20
2543.454834655467
 30
0.0
 11
10429.00456755772
 21
2554.704834655467
 31
0.0
  0
LINE
  5
2B60C
330
2B2D8
100
AcDbEntity
  8
SUNPOU
100
AcDbLine
 10
10429.00456755772
 20
3920.954834655466
 30
0.0
 11
10429.00456755772
 21
3909.704834655467
 31
0.0
  0
TEXT
  5
2B60D
330
2B2D8
100
AcDbEntity
  8
SUNPOU
100
AcDbText
 10
10384.00456755772
 20
6573.633406084039
 30
0.0
 40
90.0
  1
1400
 50
90.0
 41
0.6666666666666666
  7
00
100
AcDbText
  0
LINE
  5
2B60E
330
2B2D8
100
AcDbEntity
  8
SUNPOU
100
AcDbLine
 10
10429.00456755772
 20
7380.954834655466
 30
0.0
 11
10429.00456755772
 21
7369.704834655466
 31
0.0
  0
LINE
  5
2B60F
330
2B2D8
100
AcDbEntity
  8
SUNPOU
100
AcDbLine
 10
10429.00456755772
 20
6003.454834655465
 30
0.0
 11
10429.00456755772
 21
6014.704834655464
 31
0.0
  0
TEXT
  5
2B610
330
2B2D8
100
AcDbEntity
  8
SUNPOU
100
AcDbText
 10
10594.00456755771
 20
4847.919120369754
 30
0.0
 40
90.0
  1
4860
 50
90.0
 41
0.6666666666666666
  7
00
100
AcDbText
  0
LINE
  5
2B611
330
2B2D8
100
AcDbEntity
  8
SUNPOU
100
AcDbLine
 10
10639.00456755772
 20
7380.954834655466
 30
0.0
 11
10639.00456755772
 21
7369.704834655466
 31
0.0
  0
LINE
  5
2B612
330
2B2D8
100
AcDbEntity
  8
SUNPOU
100
AcDbLine
 10
10639.00456755772
 20
2543.454834655467
 30
0.0
 11
10639.00456755772
 21
2554.704834655467
 31
0.0
  0
TEXT
  5
2B613
330
2B2D8
100
AcDbEntity
  8
SUNPOU
100
AcDbText
 10
9483.290281843457
 20
3293.164299082426
 30
0.0
 40
90.0
  1
700
 41
0.6666666666666666
  7
00
100
AcDbText
  0
LINE
  5
2B614
330
2B2D8
100
AcDbEntity
  8
SUNPOU
100
AcDbLine
 10
9230.254567557741
 20
3248.164299082425
 30
0.0
 11
9241.504567557742
 21
3248.164299082425
 31
0.0
  0
LINE
  5
2B615
330
2B2D8
100
AcDbEntity
  8
SUNPOU
100
AcDbLine
 10
9907.754567557743
 20
3248.164299082425
 30
0.0
 11
9896.504567557743
 21
3248.164299082425
 31
0.0
  0
TEXT
  5
2B616
330
2B2D8
100
AcDbEntity
  8
SUNPOU
100
AcDbText
 10
8054.718853272026
 20
2177.204834655467
 30
0.0
 40
90.0
  1
2800
 41
0.6666666666666666
  7
00
100
AcDbText
  0
LINE
  5
2B617
330
2B2D8
100
AcDbEntity
  8
SUNPOU
100
AcDbLine
 10
9557.754567557742
 20
2132.204834655467
 30
0.0
 11
9546.504567557743
 21
2132.204834655467
 31
0.0
  0
LINE
  5
2B618
330
2B2D8
100
AcDbEntity
  8
SUNPOU
100
AcDbLine
 10
6780.25456755774
 20
2132.204834655467
 30
0.0
 11
6791.504567557741
 21
2132.204834655467
 31
0.0
  0
TEXT
  5
2B619
330
2B2D8
100
AcDbEntity
  8
SUNPOU
100
AcDbText
 10
9658.290281843457
 20
2177.204834655467
 30
0.0
 40
90.0
  1
350
 41
0.6666666666666666
  7
00
100
AcDbText
  0
LINE
  5
2B61A
330
2B2D8
100
AcDbEntity
  8
SUNPOU
100
AcDbLine
 10
9907.754567557745
 20
2132.204834655467
 30
0.0
 11
9896.504567557746
 21
2132.204834655467
 31
0.0
  0
LINE
  5
2B61B
330
2B2D8
100
AcDbEntity
  8
SUNPOU
100
AcDbLine
 10
9580.254567557743
 20
2132.204834655467
 30
0.0
 11
9591.504567557739
 21
2132.204834655467
 31
0.0
  0
ARC
  5
2B61C
330
2B2D8
100
AcDbEntity
  8
SUNPOU
100
AcDbCircle
 10
9569.004567557742
 20
2132.204834655467
 30
0.0
 40
5.625
100
AcDbArc
 50
0.0
 51
180.0
  0
ARC
  5
2B61D
330
2B2D8
100
AcDbEntity
  8
SUNPOU
100
AcDbCircle
 10
9569.004567557742
 20
2132.204834655467
 30
0.0
 40
5.625
100
AcDbArc
 50
180.0
 51
0.0
  0
ARC
  5
2B61E
330
2B2D8
100
AcDbEntity
  8
SUNPOU
100
AcDbCircle
 10
9919.004567557747
 20
2132.204834655467
 30
0.0
 40
5.625
100
AcDbArc
 50
180.0
 51
0.0
  0
ARC
  5
2B61F
330
2B2D8
100
AcDbEntity
  8
SUNPOU
100
AcDbCircle
 10
9919.004567557747
 20
2132.204834655467
 30
0.0
 40
5.625
100
AcDbArc
 50
0.0
 51
180.0
  0
ARC
  5
2B620
330
2B2D8
100
AcDbEntity
  8
SUNPOU
100
AcDbCircle
 10
6769.004567557741
 20
2132.204834655467
 30
0.0
 40
5.625
100
AcDbArc
 50
0.0
 51
180.0
  0
ARC
  5
2B621
330
2B2D8
100
AcDbEntity
  8
SUNPOU
100
AcDbCircle
 10
6769.004567557741
 20
2132.204834655467
 30
0.0
 40
5.625
100
AcDbArc
 50
180.0
 51
0.0
  0
ARC
  5
2B622
330
2B2D8
100
AcDbEntity
  8
SUNPOU
100
AcDbCircle
 10
9569.004567557742
 20
2132.204834655467
 30
0.0
 40
5.625
100
AcDbArc
 50
180.0
 51
0.0
  0
ARC
  5
2B623
330
2B2D8
100
AcDbEntity
  8
SUNPOU
100
AcDbCircle
 10
9569.004567557742
 20
2132.204834655467
 30
0.0
 40
5.625
100
AcDbArc
 50
0.0
 51
180.0
  0
ARC
  5
2B624
330
2B2D8
100
AcDbEntity
  8
SUNPOU
100
AcDbCircle
 10
9919.004567557742
 20
3248.164299082425
 30
0.0
 40
5.625
100
AcDbArc
 50
180.0
 51
0.0
  0
ARC
  5
2B625
330
2B2D8
100
AcDbEntity
  8
SUNPOU
100
AcDbCircle
 10
9919.004567557742
 20
3248.164299082425
 30
0.0
 40
5.625
100
AcDbArc
 50
0.0
 51
180.0
  0
ARC
  5
2B626
330
2B2D8
100
AcDbEntity
  8
SUNPOU
100
AcDbCircle
 10
9219.004567557743
 20
3248.164299082425
 30
0.0
 40
5.625
100
AcDbArc
 50
0.0
 51
180.0
  0
ARC
  5
2B627
330
2B2D8
100
AcDbEntity
  8
SUNPOU
100
AcDbCircle
 10
9219.004567557743
 20
3248.164299082425
 30
0.0
 40
5.625
100
AcDbArc
 50
180.0
 51
0.0
  0
ARC
  5
2B628
330
2B2D8
100
AcDbEntity
  8
SUNPOU
100
AcDbCircle
 10
10639.00456755772
 20
2532.204834655467
 30
0.0
 40
5.625
100
AcDbArc
 50
90.0
 51
270.0
  0
ARC
  5
2B629
330
2B2D8
100
AcDbEntity
  8
SUNPOU
100
AcDbCircle
 10
10639.00456755772
 20
2532.204834655467
 30
0.0
 40
5.625
100
AcDbArc
 50
270.0
 51
90.0
  0
ARC
  5
2B62A
330
2B2D8
100
AcDbEntity
  8
SUNPOU
100
AcDbCircle
 10
10639.00456755772
 20
7392.204834655466
 30
0.0
 40
5.625
100
AcDbArc
 50
270.0
 51
90.0
  0
ARC
  5
2B62B
330
2B2D8
100
AcDbEntity
  8
SUNPOU
100
AcDbCircle
 10
10639.00456755772
 20
7392.204834655466
 30
0.0
 40
5.625
100
AcDbArc
 50
90.0
 51
270.0
  0
ARC
  5
2B62C
330
2B2D8
100
AcDbEntity
  8
SUNPOU
100
AcDbCircle
 10
10429.00456755772
 20
5992.204834655463
 30
0.0
 40
5.625
100
AcDbArc
 50
90.0
 51
270.0
  0
ARC
  5
2B62D
330
2B2D8
100
AcDbEntity
  8
SUNPOU
100
AcDbCircle
 10
10429.00456755772
 20
5992.204834655463
 30
0.0
 40
5.625
100
AcDbArc
 50
270.0
 51
90.0
  0
ARC
  5
2B62E
330
2B2D8
100
AcDbEntity
  8
SUNPOU
100
AcDbCircle
 10
10429.00456755772
 20
7392.204834655466
 30
0.0
 40
5.625
100
AcDbArc
 50
270.0
 51
90.0
  0
ARC
  5
2B62F
330
2B2D8
100
AcDbEntity
  8
SUNPOU
100
AcDbCircle
 10
10429.00456755772
 20
7392.204834655466
 30
0.0
 40
5.625
100
AcDbArc
 50
90.0
 51
270.0
  0
ARC
  5
2B630
330
2B2D8
100
AcDbEntity
  8
SUNPOU
100
AcDbCircle
 10
10429.00456755772
 20
3932.204834655467
 30
0.0
 40
5.625
100
AcDbArc
 50
270.0
 51
90.0
  0
ARC
  5
2B631
330
2B2D8
100
AcDbEntity
  8
SUNPOU
100
AcDbCircle
 10
10429.00456755772
 20
3932.204834655467
 30
0.0
 40
5.625
100
AcDbArc
 50
90.0
 51
270.0
  0
ARC
  5
2B632
330
2B2D8
100
AcDbEntity
  8
SUNPOU
100
AcDbCircle
 10
10429.00456755772
 20
2532.204834655467
 30
0.0
 40
5.625
100
AcDbArc
 50
90.0
 51
270.0
  0
ARC
  5
2B633
330
2B2D8
100
AcDbEntity
  8
SUNPOU
100
AcDbCircle
 10
10429.00456755772
 20
2532.204834655467
 30
0.0
 40
5.625
100
AcDbArc
 50
270.0
 51
90.0
  0
ARC
  5
2B634
330
2B2D8
100
AcDbEntity
  8
SUNPOU
100
AcDbCircle
 10
10219.00456755772
 20
3582.204834655467
 30
0.0
 40
5.625
100
AcDbArc
 50
90.0
 51
270.0
  0
ARC
  5
2B635
330
2B2D8
100
AcDbEntity
  8
SUNPOU
100
AcDbCircle
 10
10219.00456755772
 20
3582.204834655467
 30
0.0
 40
5.625
100
AcDbArc
 50
270.0
 51
90.0
  0
ARC
  5
2B636
330
2B2D8
100
AcDbEntity
  8
SUNPOU
100
AcDbCircle
 10
10219.00456755772
 20
4282.204834655466
 30
0.0
 40
5.625
100
AcDbArc
 50
270.0
 51
90.0
  0
ARC
  5
2B637
330
2B2D8
100
AcDbEntity
  8
SUNPOU
100
AcDbCircle
 10
10219.00456755772
 20
4282.204834655466
 30
0.0
 40
5.625
100
AcDbArc
 50
90.0
 51
270.0
  0
ARC
  5
2B638
330
2B2D8
100
AcDbEntity
  8
SUNPOU
100
AcDbCircle
 10
10429.00456755772
 20
3932.204834655467
 30
0.0
 40
5.625
100
AcDbArc
 50
90.0
 51
270.0
  0
ARC
  5
2B639
330
2B2D8
100
AcDbEntity
  8
SUNPOU
100
AcDbCircle
 10
10429.00456755772
 20
3932.204834655467
 30
0.0
 40
5.625
100
AcDbArc
 50
270.0
 51
90.0
  0
ARC
  5
2B63A
330
2B2D8
100
AcDbEntity
  8
SUNPOU
100
AcDbCircle
 10
10429.00456755772
 20
5992.204834655463
 30
0.0
 40
5.625
100
AcDbArc
 50
270.0
 51
90.0
  0
ARC
  5
2B63B
330
2B2D8
100
AcDbEntity
  8
SUNPOU
100
AcDbCircle
 10
10429.00456755772
 20
5992.204834655463
 30
0.0
 40
5.625
100
AcDbArc
 50
90.0
 51
270.0
  0
ARC
  5
2B63C
330
2B2D8
100
AcDbEntity
  8
SUNPOU
100
AcDbCircle
 10
6419.004567557741
 20
1922.204834655465
 30
0.0
 40
5.625
100
AcDbArc
 50
0.0
 51
180.0
  0
ARC
  5
2B63D
330
2B2D8
100
AcDbEntity
  8
SUNPOU
100
AcDbCircle
 10
6419.004567557741
 20
1922.204834655465
 30
0.0
 40
5.625
100
AcDbArc
 50
180.0
 51
0.0
  0
ARC
  5
2B63E
330
2B2D8
100
AcDbEntity
  8
SUNPOU
100
AcDbCircle
 10
9919.004567557742
 20
1922.204834655465
 30
0.0
 40
5.625
100
AcDbArc
 50
180.0
 51
0.0
  0
ARC
  5
2B63F
330
2B2D8
100
AcDbEntity
  8
SUNPOU
100
AcDbCircle
 10
9919.004567557742
 20
1922.204834655465
 30
0.0
 40
5.625
100
AcDbArc
 50
0.0
 51
180.0
  0
ARC
  5
2B640
330
2B2D8
100
AcDbEntity
  8
SUNPOU
100
AcDbCircle
 10
4582.701129534438
 20
4701.619741444836
 30
0.0
 40
5.625
100
AcDbArc
 50
270.0
 51
90.0
  0
ARC
  5
2B641
330
2B2D8
100
AcDbEntity
  8
SUNPOU
100
AcDbCircle
 10
4582.701129534438
 20
4701.619741444836
 30
0.0
 40
5.625
100
AcDbArc
 50
90.0
 51
270.0
  0
ARC
  5
2B642
330
2B2D8
100
AcDbEntity
  8
SUNPOU
100
AcDbCircle
 10
4582.701129534438
 20
4551.619741444837
 30
0.0
 40
5.625
100
AcDbArc
 50
90.0
 51
270.0
  0
ARC
  5
2B643
330
2B2D8
100
AcDbEntity
  8
SUNPOU
100
AcDbCircle
 10
4582.701129534438
 20
4551.619741444837
 30
0.0
 40
5.625
100
AcDbArc
 50
270.0
 51
90.0
  0
ARC
  5
2B644
330
2B2D8
100
AcDbEntity
  8
SUNPOU
100
AcDbCircle
 10
4582.701129534438
 20
5451.619741444837
 30
0.0
 40
5.625
100
AcDbArc
 50
270.0
 51
90.0
  0
ARC
  5
2B645
330
2B2D8
100
AcDbEntity
  8
SUNPOU
100
AcDbCircle
 10
4582.701129534438
 20
5451.619741444837
 30
0.0
 40
5.625
100
AcDbArc
 50
90.0
 51
270.0
  0
ARC
  5
2B646
330
2B2D8
100
AcDbEntity
  8
SUNPOU
100
AcDbCircle
 10
4582.701129534438
 20
4701.619741444839
 30
0.0
 40
5.625
100
AcDbArc
 50
90.0
 51
270.0
  0
ARC
  5
2B647
330
2B2D8
100
AcDbEntity
  8
SUNPOU
100
AcDbCircle
 10
4582.701129534438
 20
4701.619741444839
 30
0.0
 40
5.625
100
AcDbArc
 50
270.0
 51
90.0
  0
ARC
  5
2B648
330
2B2D8
100
AcDbEntity
  8
SUNPOU
100
AcDbCircle
 10
1945.201129534436
 20
4221.619741444835
 30
0.0
 40
5.625
100
AcDbArc
 50
0.0
 51
180.0
  0
ARC
  5
2B649
330
2B2D8
100
AcDbEntity
  8
SUNPOU
100
AcDbCircle
 10
1945.201129534436
 20
4221.619741444835
 30
0.0
 40
5.625
100
AcDbArc
 50
180.0
 51
0.0
  0
ARC
  5
2B64A
330
2B2D8
100
AcDbEntity
  8
SUNPOU
100
AcDbCircle
 10
2995.201129534438
 20
4221.619741444835
 30
0.0
 40
5.625
100
AcDbArc
 50
180.0
 51
0.0
  0
ARC
  5
2B64B
330
2B2D8
100
AcDbEntity
  8
SUNPOU
100
AcDbCircle
 10
2995.201129534438
 20
4221.619741444835
 30
0.0
 40
5.625
100
AcDbArc
 50
0.0
 51
180.0
  0
ARC
  5
2B64C
330
2B2D8
100
AcDbEntity
  8
SUNPOU
100
AcDbCircle
 10
1795.201129534437
 20
4011.619741444837
 30
0.0
 40
5.625
100
AcDbArc
 50
0.0
 51
180.0
  0
ARC
  5
2B64D
330
2B2D8
100
AcDbEntity
  8
SUNPOU
100
AcDbCircle
 10
1795.201129534437
 20
4011.619741444837
 30
0.0
 40
5.625
100
AcDbArc
 50
180.0
 51
0.0
  0
ARC
  5
2B64E
330
2B2D8
100
AcDbEntity
  8
SUNPOU
100
AcDbCircle
 10
3145.201129534437
 20
4011.619741444837
 30
0.0
 40
5.625
100
AcDbArc
 50
180.0
 51
0.0
  0
ARC
  5
2B64F
330
2B2D8
100
AcDbEntity
  8
SUNPOU
100
AcDbCircle
 10
3145.201129534437
 20
4011.619741444837
 30
0.0
 40
5.625
100
AcDbArc
 50
0.0
 51
180.0
  0
CIRCLE
  5
2B650
330
2B2D8
100
AcDbEntity
  8
HIKIDASHI
100
AcDbCircle
 10
2470.201129534439
 20
4791.619741444836
 30
0.0
 40
9.0
  0
CIRCLE
  5
2B651
330
2B2D8
100
AcDbEntity
  8
HIKIDASHI
100
AcDbCircle
 10
2470.201129534439
 20
4731.619741444836
 30
0.0
 40
9.0
  0
ARC
  5
2B652
330
2B2D8
100
AcDbEntity
  8
HIKIDASHI
100
AcDbCircle
 10
2470.201129534439
 20
4731.619741444836
 30
0.0
 40
4.5
100
AcDbArc
 50
180.0
 51
0.0
  0
ARC
  5
2B653
330
2B2D8
100
AcDbEntity
  8
HIKIDASHI
100
AcDbCircle
 10
2470.201129534439
 20
4731.619741444836
 30
0.0
 40
4.5
100
AcDbArc
 50
0.0
 51
180.0
  0
ARC
  5
2B654
330
2B2D8
100
AcDbEntity
  8
HIKIDASHI
100
AcDbCircle
 10
2470.201129534439
 20
4791.619741444836
 30
0.0
 40
4.5
100
AcDbArc
 50
180.0
 51
0.0
  0
ARC
  5
2B655
330
2B2D8
100
AcDbEntity
  8
HIKIDASHI
100
AcDbCircle
 10
2470.201129534439
 20
4791.619741444836
 30
0.0
 40
4.5
100
AcDbArc
 50
0.0
 51
180.0
  0
LINE
  5
2B656
330
2B2D8
100
AcDbEntity
  8
HATCH
100
AcDbLine
 10
1864.399859345224
 20
4551.619741444834
 30
0.0
 11
1951.002399723654
 21
4701.61974144481
 31
0.0
  0
LINE
  5
2B657
330
2B2D8
100
AcDbEntity
  8
HATCH
100
AcDbLine
 10
1891.002399723664
 20
4701.619741444807
 30
0.0
 11
1921.002399723659
 21
4649.658217217754
 31
0.0
  0
LINE
  5
2B658
330
2B2D8
100
AcDbEntity
  8
HATCH
100
AcDbLine
 10
1894.399859345218
 20
4603.581265671891
 30
0.0
 11
1924.399859345214
 21
4551.619741444834
 31
0.0
  0
LINE
  5
2B659
330
2B2D8
100
AcDbEntity
  8
HATCH
100
AcDbLine
 10
2051.899859345223
 20
4551.619741444834
 30
0.0
 11
2138.502399723654
 21
4701.61974144481
 31
0.0
  0
LINE
  5
2B65A
330
2B2D8
100
AcDbEntity
  8
HATCH
100
AcDbLine
 10
2078.502399723663
 20
4701.619741444807
 30
0.0
 11
2108.502399723658
 21
4649.658217217754
 31
0.0
  0
LINE
  5
2B65B
330
2B2D8
100
AcDbEntity
  8
HATCH
100
AcDbLine
 10
2081.899859345217
 20
4603.581265671891
 30
0.0
 11
2111.899859345212
 21
4551.619741444834
 31
0.0
  0
LINE
  5
2B65C
330
2B2D8
100
AcDbEntity
  8
HATCH
100
AcDbLine
 10
2989.399859345227
 20
4551.619741444834
 30
0.0
 11
3076.002399723657
 21
4701.619741444812
 31
0.0
  0
LINE
  5
2B65D
330
2B2D8
100
AcDbEntity
  8
HATCH
100
AcDbLine
 10
3016.002399723667
 20
4701.61974144481
 30
0.0
 11
3046.002399723662
 21
4649.658217217757
 31
0.0
  0
LINE
  5
2B65E
330
2B2D8
100
AcDbEntity
  8
HATCH
100
AcDbLine
 10
3019.399859345222
 20
4603.581265671895
 30
0.0
 11
3049.399859345217
 21
4551.619741444834
 31
0.0
  0
LINE
  5
2B65F
330
2B2D8
100
AcDbEntity
  8
HATCH
100
AcDbLine
 10
2801.899859345225
 20
4551.619741444834
 30
0.0
 11
2888.502399723657
 21
4701.619741444812
 31
0.0
  0
LINE
  5
2B660
330
2B2D8
100
AcDbEntity
  8
HATCH
100
AcDbLine
 10
2828.502399723666
 20
4701.61974144481
 30
0.0
 11
2858.502399723662
 21
4649.658217217757
 31
0.0
  0
LINE
  5
2B661
330
2B2D8
100
AcDbEntity
  8
HATCH
100
AcDbLine
 10
2831.899859345221
 20
4603.581265671895
 30
0.0
 11
2861.899859345216
 21
4551.619741444834
 31
0.0
  0
LINE
  5
2B662
330
2B2D8
100
AcDbEntity
  8
HATCH
100
AcDbLine
 10
2426.899859345224
 20
4551.619741444834
 30
0.0
 11
2513.502399723654
 21
4701.619741444812
 31
0.0
  0
LINE
  5
2B663
330
2B2D8
100
AcDbEntity
  8
HATCH
100
AcDbLine
 10
2453.502399723664
 20
4701.61974144481
 30
0.0
 11
2483.502399723659
 21
4649.658217217757
 31
0.0
  0
LINE
  5
2B664
330
2B2D8
100
AcDbEntity
  8
HATCH
100
AcDbLine
 10
2456.899859345219
 20
4603.581265671895
 30
0.0
 11
2486.899859345215
 21
4551.619741444834
 31
0.0
  0
LINE
  5
2B665
330
2B2D8
100
AcDbEntity
  8
HATCH
100
AcDbLine
 10
2239.399859345223
 20
4551.619741444834
 30
0.0
 11
2326.002399723654
 21
4701.619741444812
 31
0.0
  0
LINE
  5
2B666
330
2B2D8
100
AcDbEntity
  8
HATCH
100
AcDbLine
 10
2266.002399723663
 20
4701.61974144481
 30
0.0
 11
2296.002399723658
 21
4649.658217217757
 31
0.0
  0
LINE
  5
2B667
330
2B2D8
100
AcDbEntity
  8
HATCH
100
AcDbLine
 10
2269.399859345217
 20
4603.581265671895
 30
0.0
 11
2299.399859345212
 21
4551.619741444834
 31
0.0
  0
LINE
  5
2B668
330
2B2D8
100
AcDbEntity
  8
HATCH
100
AcDbLine
 10
2614.399859345224
 20
4551.619741444834
 30
0.0
 11
2701.002399723655
 21
4701.619741444812
 31
0.0
  0
LINE
  5
2B669
330
2B2D8
100
AcDbEntity
  8
HATCH
100
AcDbLine
 10
2641.002399723665
 20
4701.61974144481
 30
0.0
 11
2671.00239972366
 21
4649.658217217757
 31
0.0
  0
LINE
  5
2B66A
330
2B2D8
100
AcDbEntity
  8
HATCH
100
AcDbLine
 10
2644.399859345221
 20
4603.581265671895
 30
0.0
 11
2674.399859345216
 21
4551.619741444834
 31
0.0
  0
LINE
  5
2B66B
330
2B2D8
100
AcDbEntity
  8
HATCH
100
AcDbLine
 10
4330.739605307488
 20
5226.61974144484
 30
0.0
 11
4382.701129534599
 21
5316.619741444917
 31
0.0
  0
LINE
  5
2B66C
330
2B2D8
100
AcDbEntity
  8
HATCH
100
AcDbLine
 10
4346.701129534568
 20
5316.619741444917
 30
0.0
 11
4364.701129534584
 21
5285.442826908652
 31
0.0
  0
LINE
  5
2B66D
330
2B2D8
100
AcDbEntity
  8
HATCH
100
AcDbLine
 10
4348.739605307501
 20
5257.796655981106
 30
0.0
 11
4366.739605307519
 21
5226.61974144484
 31
0.0
  0
LINE
  5
2B66E
330
2B2D8
100
AcDbEntity
  8
HATCH
100
AcDbLine
 10
4195.739605307484
 20
5226.61974144484
 30
0.0
 11
4247.701129534594
 21
5316.619741444917
 31
0.0
  0
LINE
  5
2B66F
330
2B2D8
100
AcDbEntity
  8
HATCH
100
AcDbLine
 10
4211.701129534564
 20
5316.619741444917
 30
0.0
 11
4229.70112953458
 21
5285.442826908652
 31
0.0
  0
LINE
  5
2B670
330
2B2D8
100
AcDbEntity
  8
HATCH
100
AcDbLine
 10
4213.739605307499
 20
5257.796655981106
 30
0.0
 11
4231.739605307516
 21
5226.61974144484
 31
0.0
  0
LINE
  5
2B671
330
2B2D8
100
AcDbEntity
  8
HATCH
100
AcDbLine
 10
4060.739605307488
 20
5226.61974144484
 30
0.0
 11
4112.701129534599
 21
5316.619741444917
 31
0.0
  0
LINE
  5
2B672
330
2B2D8
100
AcDbEntity
  8
HATCH
100
AcDbLine
 10
4076.701129534568
 20
5316.619741444917
 30
0.0
 11
4094.701129534583
 21
5285.442826908652
 31
0.0
  0
LINE
  5
2B673
330
2B2D8
100
AcDbEntity
  8
HATCH
100
AcDbLine
 10
4078.739605307503
 20
5257.796655981106
 30
0.0
 11
4096.739605307519
 21
5226.61974144484
 31
0.0
  0
LINE
  5
2B674
330
2B2D8
100
AcDbEntity
  8
HATCH
100
AcDbLine
 10
3925.739605307487
 20
5226.619741444838
 30
0.0
 11
3977.701129534599
 21
5316.619741444915
 31
0.0
  0
LINE
  5
2B675
330
2B2D8
100
AcDbEntity
  8
HATCH
100
AcDbLine
 10
3941.701129534568
 20
5316.619741444914
 30
0.0
 11
3959.701129534583
 21
5285.44282690865
 31
0.0
  0
LINE
  5
2B676
330
2B2D8
100
AcDbEntity
  8
HATCH
100
AcDbLine
 10
3943.739605307504
 20
5257.796655981106
 30
0.0
 11
3961.739605307519
 21
5226.619741444838
 31
0.0
  0
LINE
  5
2B677
330
2B2D8
100
AcDbEntity
  8
HATCH
100
AcDbLine
 10
3655.739605307487
 20
5226.619741444838
 30
0.0
 11
3707.701129534599
 21
5316.619741444915
 31
0.0
  0
LINE
  5
2B678
330
2B2D8
100
AcDbEntity
  8
HATCH
100
AcDbLine
 10
3671.701129534568
 20
5316.619741444914
 30
0.0
 11
3689.701129534583
 21
5285.44282690865
 31
0.0
  0
LINE
  5
2B679
330
2B2D8
100
AcDbEntity
  8
HATCH
100
AcDbLine
 10
3673.739605307503
 20
5257.796655981106
 30
0.0
 11
3691.739605307519
 21
5226.619741444838
 31
0.0
  0
LINE
  5
2B67A
330
2B2D8
100
AcDbEntity
  8
HATCH
100
AcDbLine
 10
3385.739605307488
 20
5226.619741444838
 30
0.0
 11
3437.701129534599
 21
5316.619741444915
 31
0.0
  0
LINE
  5
2B67B
330
2B2D8
100
AcDbEntity
  8
HATCH
100
AcDbLine
 10
3401.701129534568
 20
5316.619741444914
 30
0.0
 11
3419.701129534583
 21
5285.44282690865
 31
0.0
  0
LINE
  5
2B67C
330
2B2D8
100
AcDbEntity
  8
HATCH
100
AcDbLine
 10
3403.739605307503
 20
5257.796655981106
 30
0.0
 11
3421.739605307517
 21
5226.619741444838
 31
0.0
  0
LINE
  5
2B67D
330
2B2D8
100
AcDbEntity
  8
HATCH
100
AcDbLine
 10
3520.739605307488
 20
5226.61974144484
 30
0.0
 11
3572.701129534599
 21
5316.619741444917
 31
0.0
  0
LINE
  5
2B67E
330
2B2D8
100
AcDbEntity
  8
HATCH
100
AcDbLine
 10
3536.701129534567
 20
5316.619741444917
 30
0.0
 11
3554.701129534584
 21
5285.442826908652
 31
0.0
  0
LINE
  5
2B67F
330
2B2D8
100
AcDbEntity
  8
HATCH
100
AcDbLine
 10
3538.739605307503
 20
5257.796655981106
 30
0.0
 11
3556.739605307519
 21
5226.61974144484
 31
0.0
  0
LINE
  5
2B680
330
2B2D8
100
AcDbEntity
  8
HATCH
100
AcDbLine
 10
3115.739605307487
 20
5226.619741444838
 30
0.0
 11
3167.701129534599
 21
5316.619741444915
 31
0.0
  0
LINE
  5
2B681
330
2B2D8
100
AcDbEntity
  8
HATCH
100
AcDbLine
 10
3131.701129534568
 20
5316.619741444914
 30
0.0
 11
3149.701129534583
 21
5285.44282690865
 31
0.0
  0
LINE
  5
2B682
330
2B2D8
100
AcDbEntity
  8
HATCH
100
AcDbLine
 10
3133.739605307503
 20
5257.796655981106
 30
0.0
 11
3151.739605307519
 21
5226.619741444838
 31
0.0
  0
LINE
  5
2B683
330
2B2D8
100
AcDbEntity
  8
HATCH
100
AcDbLine
 10
2995.201129534554
 20
5226.619741444838
 30
0.0
 11
3047.162653761665
 21
5316.619741444915
 31
0.0
  0
LINE
  5
2B684
330
2B2D8
100
AcDbEntity
  8
HATCH
100
AcDbLine
 10
3011.162653761635
 20
5316.619741444914
 30
0.0
 11
3029.16265376165
 21
5285.44282690865
 31
0.0
  0
LINE
  5
2B685
330
2B2D8
100
AcDbEntity
  8
HATCH
100
AcDbLine
 10
3013.20112953457
 20
5257.796655981106
 30
0.0
 11
3031.201129534585
 21
5226.619741444838
 31
0.0
  0
LINE
  5
2B686
330
2B2D8
100
AcDbEntity
  8
HATCH
100
AcDbLine
 10
3250.739605307487
 20
5226.619741444838
 30
0.0
 11
3302.701129534599
 21
5316.619741444915
 31
0.0
  0
LINE
  5
2B687
330
2B2D8
100
AcDbEntity
  8
HATCH
100
AcDbLine
 10
3266.701129534568
 20
5316.619741444914
 30
0.0
 11
3284.701129534584
 21
5285.44282690865
 31
0.0
  0
LINE
  5
2B688
330
2B2D8
100
AcDbEntity
  8
HATCH
100
AcDbLine
 10
3268.739605307505
 20
5257.796655981106
 30
0.0
 11
3286.739605307519
 21
5226.619741444838
 31
0.0
  0
LINE
  5
2B689
330
2B2D8
100
AcDbEntity
  8
HATCH
100
AcDbLine
 10
1877.70112953455
 20
5226.619741444834
 30
0.0
 11
1929.662653761661
 21
5316.619741444911
 31
0.0
  0
LINE
  5
2B68A
330
2B2D8
100
AcDbEntity
  8
HATCH
100
AcDbLine
 10
1893.66265376163
 20
5316.619741444911
 30
0.0
 11
1911.662653761646
 21
5285.442826908647
 31
0.0
  0
LINE
  5
2B68B
330
2B2D8
100
AcDbEntity
  8
HATCH
100
AcDbLine
 10
1895.701129534566
 20
5257.796655981103
 30
0.0
 11
1913.701129534581
 21
5226.619741444834
 31
0.0
  0
LINE
  5
2B68C
330
2B2D8
100
AcDbEntity
  8
HATCH
100
AcDbLine
 10
3790.739605307487
 20
5226.61974144484
 30
0.0
 11
3842.701129534599
 21
5316.619741444917
 31
0.0
  0
LINE
  5
2B68D
330
2B2D8
100
AcDbEntity
  8
HATCH
100
AcDbLine
 10
3806.701129534568
 20
5316.619741444917
 30
0.0
 11
3824.701129534583
 21
5285.442826908652
 31
0.0
  0
LINE
  5
2B68E
330
2B2D8
100
AcDbEntity
  8
HATCH
100
AcDbLine
 10
3808.739605307503
 20
5257.796655981106
 30
0.0
 11
3826.739605307519
 21
5226.61974144484
 31
0.0
  0
LINE
  5
2B68F
330
2B2D8
100
AcDbEntity
  8
HATCH
100
AcDbLine
 10
1742.701129534549
 20
5226.619741444834
 30
0.0
 11
1794.662653761661
 21
5316.619741444911
 31
0.0
  0
LINE
  5
2B690
330
2B2D8
100
AcDbEntity
  8
HATCH
100
AcDbLine
 10
1758.66265376163
 20
5316.619741444911
 30
0.0
 11
1776.662653761646
 21
5285.442826908647
 31
0.0
  0
LINE
  5
2B691
330
2B2D8
100
AcDbEntity
  8
HATCH
100
AcDbLine
 10
1760.701129534566
 20
5257.796655981103
 30
0.0
 11
1778.701129534582
 21
5226.619741444834
 31
0.0
  0
LINE
  5
2B692
330
2B2D8
100
AcDbEntity
  8
HATCH
100
AcDbLine
 10
1607.701129534549
 20
5226.619741444834
 30
0.0
 11
1659.662653761661
 21
5316.619741444911
 31
0.0
  0
LINE
  5
2B693
330
2B2D8
100
AcDbEntity
  8
HATCH
100
AcDbLine
 10
1623.66265376163
 20
5316.619741444911
 30
0.0
 11
1641.662653761646
 21
5285.442826908647
 31
0.0
  0
LINE
  5
2B694
330
2B2D8
100
AcDbEntity
  8
HATCH
100
AcDbLine
 10
1625.701129534566
 20
5257.796655981103
 30
0.0
 11
1643.701129534581
 21
5226.619741444834
 31
0.0
  0
LINE
  5
2B695
330
2B2D8
100
AcDbEntity
  8
HASHIRA
  6
Continuous
100
AcDbLine
 10
6801.504567557739
 20
5954.704834655466
 30
0.0
 11
6736.504567557741
 21
5954.704834655466
 31
0.0
  0
LINE
  5
2B696
330
2B2D8
100
AcDbEntity
  8
HASHIRA
  6
Continuous
100
AcDbLine
 10
6736.504567557741
 20
5954.704834655466
 30
0.0
 11
6736.504567557741
 21
6029.704834655468
 31
0.0
  0
LINE
  5
2B697
330
2B2D8
100
AcDbEntity
  8
HASHIRA
  6
Continuous
100
AcDbLine
 10
6736.504567557741
 20
6029.704834655468
 30
0.0
 11
6801.504567557739
 21
6029.704834655468
 31
0.0
  0
LINE
  5
2B698
330
2B2D8
100
AcDbEntity
  8
HASHIRA
  6
Continuous
100
AcDbLine
 10
6801.504567557739
 20
6029.704834655468
 30
0.0
 11
6801.504567557739
 21
5954.704834655466
 31
0.0
  0
LINE
  5
2B699
330
2B2D8
100
AcDbEntity
  8
U2
100
AcDbLine
 10
6419.004567557741
 20
5642.204834655466
 30
0.0
 11
7119.004567557741
 21
5642.204834655466
 31
0.0
  0
LINE
  5
2B69A
330
2B2D8
100
AcDbEntity
  8
U2
100
AcDbLine
 10
7119.004567557741
 20
5642.204834655466
 30
0.0
 11
7119.004567557741
 21
6342.204834655468
 31
0.0
  0
LINE
  5
2B69B
330
2B2D8
100
AcDbEntity
  8
U2
100
AcDbLine
 10
7119.004567557741
 20
6342.204834655468
 30
0.0
 11
6419.004567557741
 21
6342.204834655468
 31
0.0
  0
LINE
  5
2B69C
330
2B2D8
100
AcDbEntity
  8
U2
100
AcDbLine
 10
6419.004567557741
 20
6342.204834655468
 30
0.0
 11
6419.004567557741
 21
5642.204834655466
 31
0.0
  0
LINE
  5
2B69D
330
2B2D8
100
AcDbEntity
  8
HASHIRA
  6
Continuous
100
AcDbLine
 10
6801.504567557739
 20
3894.704834655467
 30
0.0
 11
6736.504567557741
 21
3894.704834655467
 31
0.0
  0
LINE
  5
2B69E
330
2B2D8
100
AcDbEntity
  8
HASHIRA
  6
Continuous
100
AcDbLine
 10
6736.504567557741
 20
3894.704834655467
 30
0.0
 11
6736.504567557741
 21
3969.704834655468
 31
0.0
  0
LINE
  5
2B69F
330
2B2D8
100
AcDbEntity
  8
HASHIRA
  6
Continuous
100
AcDbLine
 10
6736.504567557741
 20
3969.704834655468
 30
0.0
 11
6801.504567557739
 21
3969.704834655468
 31
0.0
  0
LINE
  5
2B6A0
330
2B2D8
100
AcDbEntity
  8
HASHIRA
  6
Continuous
100
AcDbLine
 10
6801.504567557739
 20
3969.704834655468
 30
0.0
 11
6801.504567557739
 21
3894.704834655467
 31
0.0
  0
LINE
  5
2B6A1
330
2B2D8
100
AcDbEntity
  8
U2
100
AcDbLine
 10
6419.004567557741
 20
3582.204834655467
 30
0.0
 11
7119.004567557741
 21
3582.204834655467
 31
0.0
  0
LINE
  5
2B6A2
330
2B2D8
100
AcDbEntity
  8
U2
100
AcDbLine
 10
7119.004567557741
 20
3582.204834655467
 30
0.0
 11
7119.004567557741
 21
4282.204834655466
 31
0.0
  0
LINE
  5
2B6A3
330
2B2D8
100
AcDbEntity
  8
U2
100
AcDbLine
 10
7119.004567557741
 20
4282.204834655466
 30
0.0
 11
6419.004567557741
 21
4282.204834655466
 31
0.0
  0
LINE
  5
2B6A4
330
2B2D8
100
AcDbEntity
  8
U2
100
AcDbLine
 10
6419.004567557741
 20
4282.204834655466
 30
0.0
 11
6419.004567557741
 21
3582.204834655467
 31
0.0
  0
LINE
  5
2B6A5
330
2B2D8
100
AcDbEntity
  8
HASHIRA
  6
Continuous
100
AcDbLine
 10
9601.504567557743
 20
5954.704834655466
 30
0.0
 11
9536.504567557742
 21
5954.704834655466
 31
0.0
  0
LINE
  5
2B6A6
330
2B2D8
100
AcDbEntity
  8
HASHIRA
  6
Continuous
100
AcDbLine
 10
9536.504567557742
 20
5954.704834655466
 30
0.0
 11
9536.504567557742
 21
6029.704834655468
 31
0.0
  0
LINE
  5
2B6A7
330
2B2D8
100
AcDbEntity
  8
HASHIRA
  6
Continuous
100
AcDbLine
 10
9536.504567557742
 20
6029.704834655468
 30
0.0
 11
9601.504567557743
 21
6029.704834655468
 31
0.0
  0
LINE
  5
2B6A8
330
2B2D8
100
AcDbEntity
  8
HASHIRA
  6
Continuous
100
AcDbLine
 10
9601.504567557743
 20
6029.704834655468
 30
0.0
 11
9601.504567557743
 21
5954.704834655466
 31
0.0
  0
LINE
  5
2B6A9
330
2B2D8
100
AcDbEntity
  8
U2
100
AcDbLine
 10
9219.004567557743
 20
5642.204834655466
 30
0.0
 11
9919.004567557742
 21
5642.204834655466
 31
0.0
  0
LINE
  5
2B6AA
330
2B2D8
100
AcDbEntity
  8
U2
100
AcDbLine
 10
9919.004567557742
 20
5642.204834655466
 30
0.0
 11
9919.004567557742
 21
6342.204834655468
 31
0.0
  0
LINE
  5
2B6AB
330
2B2D8
100
AcDbEntity
  8
U2
100
AcDbLine
 10
9919.004567557742
 20
6342.204834655468
 30
0.0
 11
9219.004567557743
 21
6342.204834655468
 31
0.0
  0
LINE
  5
2B6AC
330
2B2D8
100
AcDbEntity
  8
U2
100
AcDbLine
 10
9219.004567557743
 20
6342.204834655468
 30
0.0
 11
9219.004567557743
 21
5642.204834655466
 31
0.0
  0
LINE
  5
2B6AD
330
2B2D8
100
AcDbEntity
  8
HASHIRA
  6
Continuous
100
AcDbLine
 10
9601.504567557743
 20
3894.704834655467
 30
0.0
 11
9536.504567557742
 21
3894.704834655467
 31
0.0
  0
LINE
  5
2B6AE
330
2B2D8
100
AcDbEntity
  8
HASHIRA
  6
Continuous
100
AcDbLine
 10
9536.504567557742
 20
3894.704834655467
 30
0.0
 11
9536.504567557742
 21
3969.704834655468
 31
0.0
  0
LINE
  5
2B6AF
330
2B2D8
100
AcDbEntity
  8
HASHIRA
  6
Continuous
100
AcDbLine
 10
9536.504567557742
 20
3969.704834655468
 30
0.0
 11
9601.504567557743
 21
3969.704834655468
 31
0.0
  0
LINE
  5
2B6B0
330
2B2D8
100
AcDbEntity
  8
HASHIRA
  6
Continuous
100
AcDbLine
 10
9601.504567557743
 20
3969.704834655468
 30
0.0
 11
9601.504567557743
 21
3894.704834655467
 31
0.0
  0
LINE
  5
2B6B1
330
2B2D8
100
AcDbEntity
  8
U2
100
AcDbLine
 10
9219.004567557743
 20
3582.204834655467
 30
0.0
 11
9919.004567557742
 21
3582.204834655467
 31
0.0
  0
LINE
  5
2B6B2
330
2B2D8
100
AcDbEntity
  8
U2
100
AcDbLine
 10
9919.004567557742
 20
3582.204834655467
 30
0.0
 11
9919.004567557742
 21
4282.204834655466
 31
0.0
  0
LINE
  5
2B6B3
330
2B2D8
100
AcDbEntity
  8
U2
100
AcDbLine
 10
9919.004567557742
 20
4282.204834655466
 30
0.0
 11
9219.004567557743
 21
4282.204834655466
 31
0.0
  0
LINE
  5
2B6B4
330
2B2D8
100
AcDbEntity
  8
U2
100
AcDbLine
 10
9219.004567557743
 20
4282.204834655466
 30
0.0
 11
9219.004567557743
 21
3582.204834655467
 31
0.0
  0
TEXT
  5
2B6D6
330
2B2D8
100
AcDbEntity
  8
SUNPOU
100
AcDbText
 10
2487.032681770157
 20
2270.701511171329
 30
0.0
 40
89.9993750043402
  1
34 m/s
 41
0.6700000000000001
  7
01
100
AcDbText
  0
TEXT
  5
2B6D7
330
2B2D8
100
AcDbEntity
  8
SUNPOU
100
AcDbText
 10
2377.527660530068
 20
2424.987225457042
 30
0.0
 40
89.9993750043402
  1
50  N/m
 41
0.6700000000000001
  7
01
100
AcDbText
  0
TEXT
  5
2B6D8
330
2B2D8
100
AcDbEntity
  8
SUNPOU
100
AcDbText
 10
2647.908935203773
 20
2868.210472326674
 30
0.0
 40
92.30769230769228
  1
（ S = 　　  ）
 41
0.6700000000000001
  7
00
 11
2647.908935203773
 21
2855.902780018982
 31
0.0
100
AcDbText
 73
     1
  0
TEXT
  5
2B6D9
330
2B2D8
100
AcDbEntity
  8
SUNPOU
100
AcDbText
 10
2003.269253104994
 20
2270.701511171329
 30
0.0
 40
89.9993750043402
  1
基準風速   　　 , 地表面粗度区分
  7
01
100
AcDbText
  0
TEXT
  5
2B6DA
330
2B2D8
100
AcDbEntity
  8
SUNPOU
100
AcDbText
 10
2312.255475996883
 20
1927.162997501088
 30
0.0
 40
90.0
  1
あわせて設計して下さい。
  7
01
100
AcDbText
  0
TEXT
  5
2B6DB
330
2B2D8
100
AcDbEntity
  8
SUNPOU
100
AcDbText
 10
2003.269253104994
 20
2424.987225457042
 30
0.0
 40
89.9993750043402
  1
地耐力   　　　 以上,コンクリート設計基準強度　　　　　以上
  7
01
100
AcDbText
  0
TEXT
  5
2B6DC
330
2B2D8
100
AcDbEntity
  8
SUNPOU
100
AcDbText
 10
2312.255475996883
 20
2081.448711786807
 30
0.0
 40
90.0
  1
寒冷地の場合、凍結深度等を考慮し、実情に
  7
01
100
AcDbText
  0
TEXT
  5
2B6DD
330
2B2D8
100
AcDbEntity
  8
SUNPOU
100
AcDbText
 10
2312.255475996883
 20
1772.877283215378
 30
0.0
 40
90.0
  1
その他現地の実情にあわせて設計して下さい。
  7
01
100
AcDbText
  0
TEXT
  5
2B6DE
330
2B2D8
100
AcDbEntity
  8
SUNPOU
100
AcDbText
 10
1872.705624388762
 20
2614.241227902997
 30
0.0
 40
90.0
  1
<下記条件での参考図>
  7
01
 72
     4
 11
2461.562767245905
 21
2659.241227902997
 31
0.0
100
AcDbText
  0
TEXT
  5
2B6DF
330
2B2D8
100
AcDbEntity
  8
SUNPOU
100
AcDbText
 10
2513.364113316018
 20
2424.987225457042
 30
0.0
 40
71.99950000347218
  1
K
 41
0.6700000000000001
  7
01
100
AcDbText
  0
ARC
  5
2B6E0
330
2B2D8
100
AcDbEntity
  8
SUNPOU
100
AcDbCircle
 10
2156.227527012193
 20
2388.774648898874
 30
0.0
 40
225.0
100
AcDbArc
 50
148.3472725282829
 51
211.652727471717
  0
TEXT
  5
2B6E1
330
2B2D8
100
AcDbEntity
  8
SUNPOU
100
AcDbText
 10
1995.415810694748
 20
2081.448711786807
 30
0.0
 40
90.0
  1
注　）
  7
01
100
AcDbText
  0
TEXT
  5
2B6E2
330
2B2D8
100
AcDbEntity
  8
SUNPOU
100
AcDbText
 10
2106.049730907487
 20
2081.448711786807
 30
0.0
 40
90.0
  1
1
 41
0.6700000000000001
  7
01
100
AcDbText
  0
TEXT
  5
2B6E3
330
2B2D8
100
AcDbEntity
  8
SUNPOU
100
AcDbText
 10
1995.415810694748
 20
1772.877283215378
 30
0.0
 40
90.0
  1
注　）
  7
01
100
AcDbText
  0
TEXT
  5
2B6E4
330
2B2D8
100
AcDbEntity
  8
SUNPOU
100
AcDbText
 10
2106.049730907487
 20
1772.877283215378
 30
0.0
 40
90.0
  1
2
 41
0.6700000000000001
  7
01
100
AcDbText
  0
TEXT
  5
2B6E5
330
2B2D8
100
AcDbEntity
  8
SUNPOU
100
AcDbText
 10
1931.0585978408
 20
2855.902780018981
 30
0.0
 40
120.0
  1
基礎断面図
  7
01
 72
     4
 11
2271.058597840799
 21
2915.902780018981
 31
0.0
100
AcDbText
  0
TEXT
  5
2B6E6
330
2B2D8
100
AcDbEntity
  8
SUNPOU
100
AcDbText
 10
4558.116184177657
 20
2424.987225457042
 30
0.0
 40
89.9993750043402
  1
N/mm
 41
0.6700000000000001
  7
01
100
AcDbText
  0
TEXT
  5
2B6E7
330
2B2D8
100
AcDbEntity
  8
SUNPOU
100
AcDbText
 10
2781.004270044416
 20
2475.175651814528
 30
0.0
 40
46.28539285937498
  1
2
 41
0.6700000000000001
  7
00
100
AcDbText
  0
TEXT
  5
2B6E8
330
2B2D8
100
AcDbEntity
  8
SUNPOU
100
AcDbText
 10
2967.611637056854
 20
2884.210472326671
 30
0.0
 40
73.84615384615381
  1
1
 41
0.6700000000000001
  7
00
 11
2967.611637056854
 21
2874.364318480518
 31
0.0
100
AcDbText
 73
     1
  0
TEXT
  5
2B6E9
330
2B2D8
100
AcDbEntity
  8
SUNPOU
100
AcDbText
 10
3079.967207326591
 20
2847.287395403593
 30
0.0
 40
73.84615384615381
  1
20
 41
0.6700000000000001
  7
00
 11
3079.967207326591
 21
2837.44124155744
 31
0.0
100
AcDbText
 73
     1
  0
TEXT
  5
2B6EA
330
2B2D8
100
AcDbEntity
  8
SUNPOU
100
AcDbText
 10
3016.017764372222
 20
2865.748933865136
 30
0.0
 40
73.84615384615381
  1
/
 41
0.6700000000000001
  7
00
 11
3016.017764372222
 21
2855.902780018982
 31
0.0
100
AcDbText
 73
     1
  0
TEXT
  5
2B6EB
330
2B2D8
100
AcDbEntity
  8
SUNPOU
100
AcDbText
 10
4422.279731391706
 20
2424.987225457042
 30
0.0
 40
89.9993750043402
  1
18
 41
0.6700000000000001
  7
01
100
AcDbText
  0
LINE
  5
2B6EC
330
2B2D8
100
AcDbEntity
  8
SUNPOU
100
AcDbLine
 10
3806.334814671597
 20
2270.701511171329
 30
0.0
 11
3806.334814671597
 21
2354.19387487011
 31
0.0
  0
LINE
  5
2B6ED
330
2B2D8
100
AcDbEntity
  8
SUNPOU
100
AcDbLine
 10
3823.209814671598
 20
2270.701511171329
 30
0.0
 11
3823.209814671598
 21
2354.19387487011
 31
0.0
  0
LINE
  5
2B6EE
330
2B2D8
100
AcDbEntity
  8
SUNPOU
100
AcDbLine
 10
3840.084814671598
 20
2270.701511171329
 30
0.0
 11
3840.084814671598
 21
2354.19387487011
 31
0.0
  0
LINE
  5
2B6EF
330
2B2D8
100
AcDbEntity
  8
SUNPOU
100
AcDbLine
 10
3795.084814671597
 20
2270.701511171328
 30
0.0
 11
3851.334814671599
 21
2270.701511171328
 31
0.0
  0
LINE
  5
2B6F0
330
2B2D8
100
AcDbEntity
  8
SUNPOU
100
AcDbLine
 10
3795.084814671597
 20
2354.19387487011
 30
0.0
 11
3851.334814671599
 21
2354.19387487011
 31
0.0
  0
ARC
  5
2B6F1
330
2B2D8
100
AcDbEntity
  8
SUNPOU
100
AcDbCircle
 10
5011.457930742675
 20
2411.258929684663
 30
0.0
 40
225.0
100
AcDbArc
 50
328.3472725282829
 51
31.65272747171703
  0
TEXT
  5
2B6F2
330
2B2D8
100
AcDbEntity
  8
SUNPOU
100
AcDbText
 10
4862.580666209056
 20
2475.175651814528
 30
0.0
 40
46.28539285937498
  1
2
 41
0.6700000000000001
  7
00
100
AcDbText
  0
ENDSEC
  0
SECTION
  2
OBJECTS
  0
DICTIONARY
  5
2B2C6
330
0
100
AcDbDictionary
281
     1
  3
ACAD_GROUP
350
2B2C7
  3
ACAD_LAYOUT
350
2B2D3
  3
ACAD_MLINESTYLE
350
2B2D0
  3
ACAD_PLOTSETTINGS
350
2B2D2
  3
ACAD_PLOTSTYLENAME
350
2B2C8
  3
AcDbVariableDictionary
350
2B6F3
  0
DICTIONARY
  5
2B2C7
102
{ACAD_REACTORS
330
2B2C6
102
}
330
2B2C6
100
AcDbDictionary
281
     1
  0
DICTIONARY
  5
2B2D3
102
{ACAD_REACTORS
330
2B2C6
102
}
330
2B2C6
100
AcDbDictionary
281
     1
  3
Model
350
2B2DB
  3
ﾚｲｱｳﾄ1
350
2B2D7
  0
DICTIONARY
  5
2B2D0
102
{ACAD_REACTORS
330
2B2C6
102
}
330
2B2C6
100
AcDbDictionary
281
     1
  3
Standard
350
2B2D1
  0
DICTIONARY
  5
2B2D2
102
{ACAD_REACTORS
330
2B2C6
102
}
330
2B2C6
100
AcDbDictionary
281
     1
  0
ACDBDICTIONARYWDFLT
  5
2B2C8
102
{ACAD_REACTORS
330
2B2C6
102
}
330
2B2C6
100
AcDbDictionary
281
     1
  3
Normal
350
2B2C9
100
AcDbDictionaryWithDefault
340
2B2C9
  0
DICTIONARY
  5
2B6F3
102
{ACAD_REACTORS
330
2B2C6
102
}
330
2B2C6
100
AcDbDictionary
281
     1
  3
DIMASSOC
350
2B6F4
  0
LAYOUT
  5
2B2DB
102
{ACAD_REACTORS
330
2B2D3
102
}
330
2B2D3
100
AcDbPlotSettings
  1

  2
Muratec V-1200 Is@Web Printer
  4

  6

 40
0.0
 41
0.0
 42
0.0
 43
0.0
 44
0.0
 45
0.0
 46
0.0
 47
0.0
 48
0.0
 49
0.0
140
0.0
141
0.0
142
1.0
143
1.0
 70
  1712
 72
     0
 73
     0
 74
     0
  7

 75
     0
147
1.0
148
0.0
149
0.0
100
AcDbLayout
  1
Model
 70
     1
 71
     0
 10
0.0
 20
0.0
 11
12.0
 21
9.0
 12
0.0
 22
0.0
 32
0.0
 14
0.0
 24
0.0
 34
0.0
 15
0.0
 25
0.0
 35
0.0
146
0.0
 13
0.0
 23
0.0
 33
0.0
 16
1.0
 26
0.0
 36
0.0
 17
0.0
 27
1.0
 37
0.0
 76
     0
330
2B2D8
  0
LAYOUT
  5
2B2D7
102
{ACAD_REACTORS
330
2B2D3
102
}
330
2B2D3
100
AcDbPlotSettings
  1

  2
Muratec V-1200 Is@Web Printer
  4

  6

 40
0.0
 41
0.0
 42
0.0
 43
0.0
 44
0.0
 45
0.0
 46
0.0
 47
0.0
 48
0.0
 49
0.0
140
0.0
141
0.0
142
1.0
143
1.0
 70
   688
 72
     0
 73
     0
 74
     5
  7

 75
    16
147
1.0
148
0.0
149
0.0
100
AcDbLayout
  1
ﾚｲｱｳﾄ1
 70
     0
 71
     1
 10
0.0
 20
0.0
 11
12.0
 21
9.0
 12
0.0
 22
0.0
 32
0.0
 14
1.000000000000000E+20
 24
1.000000000000000E+20
 34
1.000000000000000E+20
 15
-1.000000000000000E+20
 25
-1.000000000000000E+20
 35
-1.000000000000000E+20
146
0.0
 13
0.0
 23
0.0
 33
0.0
 16
1.0
 26
0.0
 36
0.0
 17
0.0
 27
1.0
 37
0.0
 76
     0
330
2B2D4
  0
MLINESTYLE
  5
2B2D1
102
{ACAD_REACTORS
330
2B2D0
102
}
330
2B2D0
100
AcDbMlineStyle
  2
STANDARD
 70
     0
  3

 62
   256
 51
90.0
 52
90.0
 71
     2
 49
0.5
 62
   256
  6
BYLAYER
 49
-0.5
 62
   256
  6
BYLAYER
  0
ACDBPLACEHOLDER
  5
2B2C9
102
{ACAD_REACTORS
330
2B2C8
102
}
330
2B2C8
  0
DICTIONARYVAR
  5
2B6F4
102
{ACAD_REACTORS
330
2B6F3
102
}
330
2B6F3
100
DictionaryVariables
280
     0
  1
1
  0
ENDSEC
  0
EOF
