  0
SECTION
  2
HEADER
  9
$ACADVER
  1
AC1015
  9
$ACADMAINTVER
 70
    13
  9
$DWGCODEPAGE
  3
ANSI_932
  9
$INSBASE
 10
267.0
 20
194.8999999999998
 30
0.0
  9
$EXTMIN
 10
325.4974662390304
 20
122.7681178119601
 30
-0.000000000000013
  9
$EXTMAX
 10
12286.99954069103
 20
8431.707478684501
 30
0.0000000000000023
  9
$LIMMIN
 10
0.0
 20
0.0
  9
$LIMMAX
 10
12600.0
 20
8910.0
  9
$ORTHOMODE
 70
     0
  9
$REGENMODE
 70
     1
  9
$FILLMODE
 70
     1
  9
$QTEXTMODE
 70
     0
  9
$MIRRTEXT
 70
     0
  9
$LTSCALE
 40
30.0
  9
$ATTMODE
 70
     1
  9
$TEXTSIZE
 40
0.2
  9
$TRACEWID
 40
0.05
  9
$TEXTSTYLE
  7
00
  9
$CLAYER
  8
SUNPOU
  9
$CELTYPE
  6
ByLayer
  9
$CECOLOR
 62
   256
  9
$CELTSCALE
 40
1.0
  9
$DISPSILH
 70
     0
  9
$DIMSCALE
 40
30.0
  9
$DIMASZ
 40
0.5
  9
$DIMEXO
 40
1.0
  9
$DIMDLI
 40
7.0
  9
$DIMRND
 40
0.0
  9
$DIMDLE
 40
3.0
  9
$DIMEXE
 40
1.5
  9
$DIMTP
 40
0.0
  9
$DIMTM
 40
0.0
  9
$DIMTXT
 40
3.0
  9
$DIMCEN
 40
0.0
  9
$DIMTSZ
 40
0.0
  9
$DIMTOL
 70
     0
  9
$DIMLIM
 70
     0
  9
$DIMTIH
 70
     0
  9
$DIMTOH
 70
     0
  9
$DIMSE1
 70
     0
  9
$DIMSE2
 70
     0
  9
$DIMTAD
 70
     1
  9
$DIMZIN
 70
     8
  9
$DIMBLK
  1
DOT
  9
$DIMASO
 70
     1
  9
$DIMSHO
 70
     0
  9
$DIMPOST
  1

  9
$DIMAPOST
  1

  9
$DIMALT
 70
     0
  9
$DIMALTD
 70
     2
  9
$DIMALTF
 40
25.4
  9
$DIMLFAC
 40
1.0
  9
$DIMTOFL
 70
     1
  9
$DIMTVP
 40
0.0
  9
$DIMTIX
 70
     0
  9
$DIMSOXD
 70
     0
  9
$DIMSAH
 70
     1
  9
$DIMBLK1
  1
DOT
  9
$DIMBLK2
  1
DOT
  9
$DIMSTYLE
  2
SUNPOU
  9
$DIMCLRD
 70
   256
  9
$DIMCLRE
 70
   256
  9
$DIMCLRT
 70
   256
  9
$DIMTFAC
 40
1.0
  9
$DIMGAP
 40
1.5
  9
$DIMJUST
 70
     0
  9
$DIMSD1
 70
     0
  9
$DIMSD2
 70
     0
  9
$DIMTOLJ
 70
     1
  9
$DIMTZIN
 70
     0
  9
$DIMALTZ
 70
     0
  9
$DIMALTTZ
 70
     0
  9
$DIMUPT
 70
     0
  9
$DIMDEC
 70
     4
  9
$DIMTDEC
 70
     4
  9
$DIMALTU
 70
     2
  9
$DIMALTTD
 70
     2
  9
$DIMTXSTY
  7
STANDARD
  9
$DIMAUNIT
 70
     0
  9
$DIMADEC
 70
     0
  9
$DIMALTRND
 40
0.0
  9
$DIMAZIN
 70
     0
  9
$DIMDSEP
 70
    46
  9
$DIMATFIT
 70
     3
  9
$DIMFRAC
 70
     0
  9
$DIMLDRBLK
  1
DOT
  9
$DIMLUNIT
 70
     2
  9
$DIMLWD
 70
    -2
  9
$DIMLWE
 70
    -2
  9
$DIMTMOVE
 70
     0
  9
$LUNITS
 70
     2
  9
$LUPREC
 70
     2
  9
$SKETCHINC
 40
0.1
  9
$FILLETRAD
 40
5.0
  9
$AUNITS
 70
     0
  9
$AUPREC
 70
     0
  9
$MENU
  1
A:\TIGER\MENU\TIGER
  9
$ELEVATION
 40
0.0
  9
$PELEVATION
 40
0.0
  9
$THICKNESS
 40
0.0
  9
$LIMCHECK
 70
     0
  9
$CHAMFERA
 40
0.0
  9
$CHAMFERB
 40
0.0
  9
$CHAMFERC
 40
0.0
  9
$CHAMFERD
 40
0.0
  9
$SKPOLY
 70
     0
  9
$TDCREATE
 40
2450266.571064815
  9
$TDUCREATE
 40
2450266.196064815
  9
$TDUPDATE
 40
2456330.512322581
  9
$TDUUPDATE
 40
2456330.137322580
  9
$TDINDWG
 40
0.3022580208
  9
$TDUSRTIMER
 40
0.3022574769
  9
$USRTIMER
 70
     1
  9
$ANGBASE
 50
0.0
  9
$ANGDIR
 70
     0
  9
$PDMODE
 70
     0
  9
$PDSIZE
 40
0.0
  9
$PLINEWID
 40
0.0
  9
$SPLFRAME
 70
     0
  9
$SPLINETYPE
 70
     6
  9
$SPLINESEGS
 70
     8
  9
$HANDSEED
  5
2C049
  9
$SURFTAB1
 70
     6
  9
$SURFTAB2
 70
     6
  9
$SURFTYPE
 70
     6
  9
$SURFU
 70
     6
  9
$SURFV
 70
     6
  9
$UCSBASE
  2

  9
$UCSNAME
  2

  9
$UCSORG
 10
0.0
 20
0.0
 30
0.0
  9
$UCSXDIR
 10
1.0
 20
0.0
 30
0.0
  9
$UCSYDIR
 10
0.0
 20
1.0
 30
0.0
  9
$UCSORTHOREF
  2

  9
$UCSORTHOVIEW
 70
     0
  9
$UCSORGTOP
 10
0.0
 20
0.0
 30
0.0
  9
$UCSORGBOTTOM
 10
0.0
 20
0.0
 30
0.0
  9
$UCSORGLEFT
 10
0.0
 20
0.0
 30
0.0
  9
$UCSORGRIGHT
 10
0.0
 20
0.0
 30
0.0
  9
$UCSORGFRONT
 10
0.0
 20
0.0
 30
0.0
  9
$UCSORGBACK
 10
0.0
 20
0.0
 30
0.0
  9
$PUCSBASE
  2

  9
$PUCSNAME
  2

  9
$PUCSORG
 10
0.0
 20
0.0
 30
0.0
  9
$PUCSXDIR
 10
1.0
 20
0.0
 30
0.0
  9
$PUCSYDIR
 10
0.0
 20
1.0
 30
0.0
  9
$PUCSORTHOREF
  2

  9
$PUCSORTHOVIEW
 70
     0
  9
$PUCSORGTOP
 10
0.0
 20
0.0
 30
0.0
  9
$PUCSORGBOTTOM
 10
0.0
 20
0.0
 30
0.0
  9
$PUCSORGLEFT
 10
0.0
 20
0.0
 30
0.0
  9
$PUCSORGRIGHT
 10
0.0
 20
0.0
 30
0.0
  9
$PUCSORGFRONT
 10
0.0
 20
0.0
 30
0.0
  9
$PUCSORGBACK
 10
0.0
 20
0.0
 30
0.0
  9
$USERI1
 70
     3
  9
$USERI2
 70
     0
  9
$USERI3
 70
     0
  9
$USERI4
 70
     0
  9
$USERI5
 70
  1103
  9
$USERR1
 40
0.0
  9
$USERR2
 40
1.0
  9
$USERR3
 40
0.0
  9
$USERR4
 40
0.0
  9
$USERR5
 40
0.0
  9
$WORLDVIEW
 70
     1
  9
$SHADEDGE
 70
     3
  9
$SHADEDIF
 70
    70
  9
$TILEMODE
 70
     1
  9
$MAXACTVP
 70
    16
  9
$PINSBASE
 10
0.0
 20
0.0
 30
0.0
  9
$PLIMCHECK
 70
     0
  9
$PEXTMIN
 10
1.000000000000000E+20
 20
1.000000000000000E+20
 30
1.000000000000000E+20
  9
$PEXTMAX
 10
-1.000000000000000E+20
 20
-1.000000000000000E+20
 30
-1.000000000000000E+20
  9
$PLIMMIN
 10
0.0
 20
0.0
  9
$PLIMMAX
 10
12.0
 20
9.0
  9
$UNITMODE
 70
     0
  9
$VISRETAIN
 70
     0
  9
$PLINEGEN
 70
     1
  9
$PSLTSCALE
 70
     0
  9
$TREEDEPTH
 70
  3020
  9
$CMLSTYLE
  2
Standard
  9
$CMLJUST
 70
     0
  9
$CMLSCALE
 40
1.0
  9
$PROXYGRAPHICS
 70
     1
  9
$MEASUREMENT
 70
     0
  9
$CELWEIGHT
370
    -1
  9
$ENDCAPS
280
     0
  9
$JOINSTYLE
280
     0
  9
$LWDISPLAY
290
     0
  9
$INSUNITS
 70
     0
  9
$HYPERLINKBASE
  1

  9
$STYLESHEET
  1

  9
$XEDIT
290
     1
  9
$CEPSNTYPE
380
     0
  9
$PSTYLEMODE
290
     1
  9
$FINGERPRINTGUID
  2
{374A7253-50BE-4A80-85E5-B15342850D05}
  9
$VERSIONGUID
  2
{EE598931-1CF3-47CA-A21B-101897AE767F}
  9
$EXTNAMES
290
     1
  9
$PSVPSCALE
 40
0.0
  9
$OLESTARTUP
290
     0
  0
ENDSEC
  0
SECTION
  2
CLASSES
  0
CLASS
  1
ACDBDICTIONARYWDFLT
  2
AcDbDictionaryWithDefault
  3
AutoCAD 2000
 90
        0
280
     0
281
     0
  0
CLASS
  1
ACDBPLACEHOLDER
  2
AcDbPlaceHolder
  3
AutoCAD 2000
 90
        0
280
     0
281
     0
  0
CLASS
  1
LAYOUT
  2
AcDbLayout
  3
AutoCAD 2000
 90
        0
280
     0
281
     0
  0
CLASS
  1
DICTIONARYVAR
  2
AcDbDictionaryVar
  3
AutoCAD 2000
 90
        0
280
     0
281
     0
  0
ENDSEC
  0
SECTION
  2
TABLES
  0
TABLE
  2
VPORT
  5
2B891
330
0
100
AcDbSymbolTable
 70
     2
  0
VPORT
  5
2C048
330
2B891
100
AcDbSymbolTableRecord
100
AcDbViewportTableRecord
  2
*Active
 70
     0
 10
0.0
 20
0.0
 11
1.0
 21
1.0
 12
6306.248503465031
 22
4277.23779824823
 13
0.0
 23
0.0
 14
1.0
 24
1.0
 15
0.0
 25
0.0
 16
0.0
 26
0.0
 36
1.0
 17
0.0
 27
0.0
 37
0.0
 40
8372.125211525563
 41
1.527918781725888
 42
50.0
 43
0.0
 44
0.0
 50
0.0
 51
0.0
 71
     0
 72
 10000
 73
     1
 74
     0
 75
     0
 76
     0
 77
     0
 78
     0
281
     0
 65
     1
110
0.0
120
0.0
130
0.0
111
1.0
121
0.0
131
0.0
112
0.0
122
1.0
132
0.0
 79
     0
146
0.0
  0
ENDTAB
  0
TABLE
  2
LTYPE
  5
2B88E
330
0
100
AcDbSymbolTable
 70
     7
  0
LTYPE
  5
2B89C
330
2B88E
100
AcDbSymbolTableRecord
100
AcDbLinetypeTableRecord
  2
ByBlock
 70
     0
  3

 72
    65
 73
     0
 40
0.0
  0
LTYPE
  5
2B89D
330
2B88E
100
AcDbSymbolTableRecord
100
AcDbLinetypeTableRecord
  2
ByLayer
 70
     0
  3

 72
    65
 73
     0
 40
0.0
  0
LTYPE
  5
2B89E
330
2B88E
100
AcDbSymbolTableRecord
100
AcDbLinetypeTableRecord
  2
CONTINUOUS
 70
     0
  3
実線
 72
    65
 73
     0
 40
0.0
  0
LTYPE
  5
2B8AE
330
2B88E
100
AcDbSymbolTableRecord
100
AcDbLinetypeTableRecord
  2
HIDE-L
 70
     0
  3

 72
    65
 73
     2
 40
3.0
 49
2.0
 74
     0
 49
-1.0
 74
     0
  0
LTYPE
  5
2B8AF
330
2B88E
100
AcDbSymbolTableRecord
100
AcDbLinetypeTableRecord
  2
HIDE-S
 70
     0
  3

 72
    65
 73
     2
 40
1.0
 49
0.5
 74
     0
 49
-0.5
 74
     0
  0
LTYPE
  5
2B8B0
330
2B88E
100
AcDbSymbolTableRecord
100
AcDbLinetypeTableRecord
  2
1PL-M
 70
     0
  3

 72
    65
 73
     4
 40
15.0
 49
12.0
 74
     0
 49
-1.0
 74
     0
 49
1.0
 74
     0
 49
-1.0
 74
     0
  0
LTYPE
  5
2B8B1
330
2B88E
100
AcDbSymbolTableRecord
100
AcDbLinetypeTableRecord
  2
1PL-S
 70
     0
  3

 72
    65
 73
     4
 40
4.0
 49
2.5
 74
     0
 49
-0.5
 74
     0
 49
0.5
 74
     0
 49
-0.5
 74
     0
  0
LTYPE
  5
2B8B2
330
2B88E
100
AcDbSymbolTableRecord
100
AcDbLinetypeTableRecord
  2
HIDDEN
 70
     0
  3
__ __ __ __ __ __ __ __ __ __ __ __ __ __ __ __
 72
    65
 73
     2
 40
0.375
 49
0.25
 74
     0
 49
-0.125
 74
     0
  0
LTYPE
  5
2B8B3
330
2B88E
100
AcDbSymbolTableRecord
100
AcDbLinetypeTableRecord
  2
KAKURE-1
 70
     0
  3

 72
    65
 73
     2
 40
2.0
 49
1.0
 74
     0
 49
-1.0
 74
     0
  0
ENDTAB
  0
TABLE
  2
LAYER
  5
2B88B
330
0
100
AcDbSymbolTable
 70
    27
  0
LAYER
  5
2B899
330
2B88B
100
AcDbSymbolTableRecord
100
AcDbLayerTableRecord
  2
0
 70
     0
 62
     7
  6
CONTINUOUS
370
    -3
390
2B898
  0
LAYER
  5
2B8AB
330
2B88B
100
AcDbSymbolTableRecord
100
AcDbLayerTableRecord
  2
SUNPOU
 70
     0
 62
     4
  6
CONTINUOUS
370
    -3
390
2B898
  0
LAYER
  5
2B8B4
330
2B88B
100
AcDbSymbolTableRecord
100
AcDbLayerTableRecord
  2
U1
 70
     0
 62
     3
  6
CONTINUOUS
370
    -3
390
2B898
  0
LAYER
  5
2B8B5
330
2B88B
100
AcDbSymbolTableRecord
100
AcDbLayerTableRecord
  2
U2
 70
     0
 62
     4
  6
CONTINUOUS
370
    -3
390
2B898
  0
LAYER
  5
2B8B6
330
2B88B
100
AcDbSymbolTableRecord
100
AcDbLayerTableRecord
  2
U3
 70
     0
 62
     6
  6
CONTINUOUS
370
    -3
390
2B898
  0
LAYER
  5
2B8B7
330
2B88B
100
AcDbSymbolTableRecord
100
AcDbLayerTableRecord
  2
HIKIDASHI
 70
     0
 62
     6
  6
CONTINUOUS
370
    -3
390
2B898
  0
LAYER
  5
2B8B8
330
2B88B
100
AcDbSymbolTableRecord
100
AcDbLayerTableRecord
  2
1PL-M1
 70
     0
 62
     6
  6
1PL-M
370
    -3
390
2B898
  0
LAYER
  5
2B8B9
330
2B88B
100
AcDbSymbolTableRecord
100
AcDbLayerTableRecord
  2
YANE
 70
     0
 62
     1
  6
CONTINUOUS
370
    -3
390
2B898
  0
LAYER
  5
2B8BA
330
2B88B
100
AcDbSymbolTableRecord
100
AcDbLayerTableRecord
  2
KISO
 70
     0
 62
     2
  6
CONTINUOUS
370
    -3
390
2B898
  0
LAYER
  5
2B8BB
330
2B88B
100
AcDbSymbolTableRecord
100
AcDbLayerTableRecord
  2
HATCH
 70
     0
 62
     1
  6
CONTINUOUS
370
    -3
390
2B898
  0
LAYER
  5
2B8BC
330
2B88B
100
AcDbSymbolTableRecord
100
AcDbLayerTableRecord
  2
HARI
 70
     0
 62
     3
  6
CONTINUOUS
370
    -3
390
2B898
  0
LAYER
  5
2B8BD
330
2B88B
100
AcDbSymbolTableRecord
100
AcDbLayerTableRecord
  2
NAME
 70
     0
 62
    20
  6
CONTINUOUS
370
    -3
390
2B898
  0
LAYER
  5
2B8BE
330
2B88B
100
AcDbSymbolTableRecord
100
AcDbLayerTableRecord
  2
FILENAME
 70
     0
 62
     7
  6
CONTINUOUS
370
    -3
390
2B898
  0
LAYER
  5
2B8BF
330
2B88B
100
AcDbSymbolTableRecord
100
AcDbLayerTableRecord
  2
KERABA
 70
     0
 62
     2
  6
CONTINUOUS
370
    -3
390
2B898
  0
LAYER
  5
2B8C0
330
2B88B
100
AcDbSymbolTableRecord
100
AcDbLayerTableRecord
  2
HASHIRA
 70
     0
 62
     3
  6
CONTINUOUS
370
    -3
390
2B898
  0
LAYER
  5
2B8C1
330
2B88B
100
AcDbSymbolTableRecord
100
AcDbLayerTableRecord
  2
KETA
 70
     0
 62
     2
  6
CONTINUOUS
370
    -3
390
2B898
  0
LAYER
  5
2B8C2
330
2B88B
100
AcDbSymbolTableRecord
100
AcDbLayerTableRecord
  2
BOLT
 70
     0
 62
     4
  6
CONTINUOUS
370
    -3
390
2B898
  0
LAYER
  5
2B8C3
330
2B88B
100
AcDbSymbolTableRecord
100
AcDbLayerTableRecord
  2
KETA_KANAGU
 70
     0
 62
     4
  6
CONTINUOUS
370
    -3
390
2B898
  0
LAYER
  5
2B8C4
330
2B88B
100
AcDbSymbolTableRecord
100
AcDbLayerTableRecord
  2
鼻隠し
 70
     0
 62
     7
  6
CONTINUOUS
370
    -3
390
2B898
  0
LAYER
  5
2B8C5
330
2B88B
100
AcDbSymbolTableRecord
100
AcDbLayerTableRecord
  2
鼻隠しコ-ナ-
 70
     0
 62
     7
  6
CONTINUOUS
370
    -3
390
2B898
  0
LAYER
  5
2B8C6
330
2B88B
100
AcDbSymbolTableRecord
100
AcDbLayerTableRecord
  2
ケラバキャップ
 70
     0
 62
     7
  6
CONTINUOUS
370
    -3
390
2B898
  0
LAYER
  5
2B8C7
330
2B88B
100
AcDbSymbolTableRecord
100
AcDbLayerTableRecord
  2
YANEUKE-FUREME
 70
     0
 62
     2
  6
CONTINUOUS
370
    -3
390
2B898
  0
LAYER
  5
2B8C8
330
2B88B
100
AcDbSymbolTableRecord
100
AcDbLayerTableRecord
  2
YODOROGO
 70
     0
 62
   130
  6
CONTINUOUS
370
    -3
390
2B898
  0
LAYER
  5
2B8C9
330
2B88B
100
AcDbSymbolTableRecord
100
AcDbLayerTableRecord
  2
WAKUSEN-01
 70
     0
 62
    50
  6
CONTINUOUS
370
    -3
390
2B898
  0
LAYER
  5
2B8CA
330
2B88B
100
AcDbSymbolTableRecord
100
AcDbLayerTableRecord
  2
WAKUSEN-02
 70
     0
 62
   130
  6
CONTINUOUS
370
    -3
390
2B898
  0
LAYER
  5
2B8CB
330
2B88B
100
AcDbSymbolTableRecord
100
AcDbLayerTableRecord
  2
WAKUMOJI-01
 70
     0
 62
   130
  6
CONTINUOUS
370
    -3
390
2B898
  0
LAYER
  5
2B8CC
330
2B88B
100
AcDbSymbolTableRecord
100
AcDbLayerTableRecord
  2
SANKAKU
 70
     0
 62
     2
  6
CONTINUOUS
370
    -3
390
2B898
  0
ENDTAB
  0
TABLE
  2
STYLE
  5
2B88C
330
0
100
AcDbSymbolTable
 70
     5
  0
STYLE
  5
2B89A
330
2B88C
100
AcDbSymbolTableRecord
100
AcDbTextStyleTableRecord
  2
STANDARD
 70
     0
 40
3.0
 41
1.0
 50
0.0
 71
     0
 42
0.2
  3
ROMANS
  4
EXTFONT
  0
STYLE
  5
2B8AC
330
2B88C
100
AcDbSymbolTableRecord
100
AcDbTextStyleTableRecord
  2
00
 70
     0
 40
0.0
 41
0.6666666666666666
 50
0.0
 71
     0
 42
0.2
  3
ROMANS
  4
BIGFONT
  0
STYLE
  5
2B8CD
330
2B88C
100
AcDbSymbolTableRecord
100
AcDbTextStyleTableRecord
  2
01
 70
     0
 40
3.0
 41
1.0
 50
0.0
 71
     0
 42
0.2
  3
ROMANS
  4
BIGFONT
  0
STYLE
  5
2B8CE
330
2B88C
100
AcDbSymbolTableRecord
100
AcDbTextStyleTableRecord
  2
FILENAME
 70
     0
 40
75.0
 41
1.0
 50
0.0
 71
     0
 42
75.0
  3
romans
  4
bigfont
  0
STYLE
  5
2B8CF
330
2B88C
100
AcDbSymbolTableRecord
100
AcDbTextStyleTableRecord
  2
WAKUMOJI
 70
     0
 40
3.0
 41
1.0
 50
0.0
 71
     0
 42
3.0
  3
SIMPLEX
  4
BIGFONT
  0
ENDTAB
  0
TABLE
  2
VIEW
  5
2B88F
330
0
100
AcDbSymbolTable
 70
     0
  0
ENDTAB
  0
TABLE
  2
UCS
  5
2B890
330
0
100
AcDbSymbolTable
 70
     0
  0
ENDTAB
  0
TABLE
  2
APPID
  5
2B892
330
0
100
AcDbSymbolTable
 70
     9
  0
APPID
  5
2B89B
330
2B892
100
AcDbSymbolTableRecord
100
AcDbRegAppTableRecord
  2
ACAD
 70
     0
  0
APPID
  5
2B8D0
330
2B892
100
AcDbSymbolTableRecord
100
AcDbRegAppTableRecord
  2
AUTOCAD_POSTSCRIPT_FIGURE
 70
     0
  0
APPID
  5
2B8D1
330
2B892
100
AcDbSymbolTableRecord
100
AcDbRegAppTableRecord
  2
ACAD_PSEXT
 70
     0
  0
APPID
  5
2B8D2
330
2B892
100
AcDbSymbolTableRecord
100
AcDbRegAppTableRecord
  2
ACAD_EXEMPT_FROM_CAD_STANDARDS
 70
     0
  0
APPID
  5
2B8D3
330
2B892
100
AcDbSymbolTableRecord
100
AcDbRegAppTableRecord
  2
ACLAYERTOOLS
 70
     0
  0
APPID
  5
2B8D4
330
2B892
100
AcDbSymbolTableRecord
100
AcDbRegAppTableRecord
  2
ACAD_DSTYLE_DIMJAG
 70
     0
  0
APPID
  5
2B8D5
330
2B892
100
AcDbSymbolTableRecord
100
AcDbRegAppTableRecord
  2
ACAD_DSTYLE_DIMBREAK
 70
     0
  0
APPID
  5
2B8D6
330
2B892
100
AcDbSymbolTableRecord
100
AcDbRegAppTableRecord
  2
ACAD_DSTYLE_DIMTALN
 70
     0
  0
APPID
  5
2B8D7
330
2B892
100
AcDbSymbolTableRecord
100
AcDbRegAppTableRecord
  2
ACAD_MLEADERVER
 70
     0
  0
ENDTAB
  0
TABLE
  2
DIMSTYLE
  5
2B893
330
0
100
AcDbSymbolTable
 70
     1
100
AcDbDimStyleTable
 71
     0
  0
DIMSTYLE
105
2B8D8
330
2B893
100
AcDbSymbolTableRecord
100
AcDbDimStyleTableRecord
  2
SUNPOU
 70
     0
 40
30.0
 41
0.5
 42
1.0
 43
7.0
 44
1.5
 46
3.0
 73
     0
 74
     0
 77
     1
 78
     8
140
3.0
141
0.0
147
1.5
172
     1
173
     1
176
   256
177
   256
178
   256
271
     2
272
     2
279
     2
284
     8
285
     8
286
     8
340
2B8AC
  0
ENDTAB
  0
TABLE
  2
BLOCK_RECORD
  5
2B88A
330
0
100
AcDbSymbolTable
 70
     3
  0
BLOCK_RECORD
  5
2B8A7
330
2B88A
100
AcDbSymbolTableRecord
100
AcDbBlockTableRecord
  2
*Model_Space
340
2B8AA
  0
BLOCK_RECORD
  5
2B8A3
330
2B88A
100
AcDbSymbolTableRecord
100
AcDbBlockTableRecord
  2
*Paper_Space
340
2B8A6
  0
BLOCK_RECORD
  5
2B8DD
330
2B88A
100
AcDbSymbolTableRecord
100
AcDbBlockTableRecord
  2
$MODEL_SPACE
340
0
  0
BLOCK_RECORD
  5
2B8E0
330
2B88A
100
AcDbSymbolTableRecord
100
AcDbBlockTableRecord
  2
$PAPER_SPACE
340
0
  0
BLOCK_RECORD
  5
2B8E3
330
2B88A
100
AcDbSymbolTableRecord
100
AcDbBlockTableRecord
  2
DOT
340
0
  0
ENDTAB
  0
ENDSEC
  0
SECTION
  2
BLOCKS
  0
BLOCK
  5
2B8A8
330
2B8A7
100
AcDbEntity
  8
0
100
AcDbBlockBegin
  2
*Model_Space
 70
     0
 10
0.0
 20
0.0
 30
0.0
  3
*Model_Space
  1

  0
ENDBLK
  5
2B8A9
330
2B8A7
100
AcDbEntity
  8
0
100
AcDbBlockEnd
  0
BLOCK
  5
2B8A4
330
2B8A3
100
AcDbEntity
 67
     1
  8
0
100
AcDbBlockBegin
  2
*Paper_Space
 70
     0
 10
0.0
 20
0.0
 30
0.0
  3
*Paper_Space
  1

  0
ENDBLK
  5
2B8A5
330
2B8A3
100
AcDbEntity
 67
     1
  8
0
100
AcDbBlockEnd
  0
BLOCK
  5
2B8DE
330
2B8DD
100
AcDbEntity
  8
0
100
AcDbBlockBegin
  2
$MODEL_SPACE
 70
     0
 10
0.0
 20
0.0
 30
0.0
  3
$MODEL_SPACE
  1

  0
ENDBLK
  5
2B8DF
330
2B8DD
100
AcDbEntity
  8
0
100
AcDbBlockEnd
  0
BLOCK
  5
2B8E1
330
2B8E0
100
AcDbEntity
  8
0
100
AcDbBlockBegin
  2
$PAPER_SPACE
 70
     0
 10
0.0
 20
0.0
 30
0.0
  3
$PAPER_SPACE
  1

  0
ENDBLK
  5
2B8E2
330
2B8E0
100
AcDbEntity
  8
0
100
AcDbBlockEnd
  0
BLOCK
  5
2B8E4
330
2B8E3
100
AcDbEntity
  8
0
100
AcDbBlockBegin
  2
DOT
 70
     0
 10
0.0
 20
0.0
 30
0.0
  3
DOT
  1

  0
LWPOLYLINE
  5
2B8E5
330
2B8E3
100
AcDbEntity
  8
0
  6
ByBlock
 62
     0
100
AcDbPolyline
 90
        2
 70
     1
 43
0.75
 10
-0.375
 20
0.0
 42
1.0
 10
0.375
 20
0.0
 42
1.0
  0
LINE
  5
2B8E9
330
2B8E3
100
AcDbEntity
  8
0
  6
ByBlock
 62
     0
100
AcDbLine
 10
-0.75
 20
0.0
 30
0.0
 11
-1.5
 21
0.0
 31
0.0
  0
ENDBLK
  5
2B8EA
330
2B8E3
100
AcDbEntity
  8
0
100
AcDbBlockEnd
  0
ENDSEC
  0
SECTION
  2
ENTITIES
  0
TEXT
  5
2B8EB
330
2B8A7
100
AcDbEntity
  8
NAME
100
AcDbText
 10
9402.694977008239
 20
716.2499999999992
 30
0.0
 40
120.0
  1
YOTC
 41
0.7
  7
01
100
AcDbText
  0
TEXT
  5
2B8EC
330
2B8A7
100
AcDbEntity
  8
NAME
100
AcDbText
 10
8327.765992739108
 20
716.2499999999992
 30
0.0
 40
120.0
  1
ヨド自転車置場      型
  7
01
100
AcDbText
  0
TEXT
  5
2B8ED
330
2B8A7
100
AcDbEntity
  8
NAME
100
AcDbText
 10
8862.031985478219
 20
405.75
 30
0.0
 40
120.0
  1
型（一般地用）
 41
0.8
  7
01
100
AcDbText
  0
TEXT
  5
2B8EE
330
2B8A7
100
AcDbEntity
  8
NAME
100
AcDbText
 10
8192.031985478219
 20
405.75
 30
0.0
 40
120.0
  1
YOTC-245
 41
0.7
  7
01
 72
     2
 11
8832.03198547822
 21
405.75
 31
0.0
100
AcDbText
  0
TEXT
  5
2B8EF
330
2B8A7
100
AcDbEntity
  8
NAME
100
AcDbText
 10
9641.100000000001
 20
405.75
 30
0.0
 40
120.0
  1
<1／3>
 41
0.6
  7
01
 72
     2
 11
10015.49999999999
 21
405.75
 31
0.0
100
AcDbText
  0
TEXT
  5
2B8F0
330
2B8A7
100
AcDbEntity
  8
HIKIDASHI
100
AcDbText
 10
5462.579123612234
 20
4717.327533957401
 30
0.0
 40
135.0
  1
正 面 立 面 図
  7
01
 72
     2
 11
6551.579123612234
 21
4717.327533957401
 31
0.0
100
AcDbText
  0
TEXT
  5
2B8F1
330
2B8A7
100
AcDbEntity
  8
HIKIDASHI
100
AcDbText
 10
6652.829123612234
 20
4744.121031017239
 30
0.0
 40
90.0
  1
(S=
 41
0.6700000000000001
  7
00
100
AcDbText
  0
TEXT
  5
2B8F2
330
2B8A7
100
AcDbEntity
  8
HIKIDASHI
100
AcDbText
 10
6945.486858247431
 20
4714.682220916929
 30
0.0
 40
90.0
  1
30
 41
0.6700000000000001
  7
00
100
AcDbText
  0
TEXT
  5
2B8F3
330
2B8A7
100
AcDbEntity
  8
HIKIDASHI
100
AcDbText
 10
7082.09162131767
 20
4744.121031017239
 30
0.0
 40
90.0
  1
)
 41
0.6700000000000001
  7
00
100
AcDbText
  0
TEXT
  5
2B8F4
330
2B8A7
100
AcDbEntity
  8
HIKIDASHI
100
AcDbText
 10
6893.404809139465
 20
4744.121031017239
 30
0.0
 40
90.0
  1
/
 41
0.6700000000000001
  7
00
100
AcDbText
  0
TEXT
  5
2B8F5
330
2B8A7
100
AcDbEntity
  8
HIKIDASHI
100
AcDbText
 10
6856.125529042117
 20
4761.627693483961
 30
0.0
 40
90.0
  1
1
 41
0.6700000000000001
  7
00
100
AcDbText
  0
LINE
  5
2B8F6
330
2B8A7
100
AcDbEntity
  8
鼻隠し
100
AcDbLine
 10
7905.006149832288
 20
7171.716018454462
 30
0.0
 11
4706.993850167715
 21
7171.716018454462
 31
0.0
  0
LINE
  5
2B8F7
330
2B8A7
100
AcDbEntity
  8
KETA
100
AcDbLine
 10
5046.200000000006
 20
7065.089508150592
 30
0.0
 11
4703.000000000002
 21
7065.089508150592
 31
0.0
  0
LINE
  5
2B8F8
330
2B8A7
100
AcDbEntity
  8
KETA
100
AcDbLine
 10
5046.200000000006
 20
7047.939173463936
 30
0.0
 11
4703.000000000002
 21
7047.939173463936
 31
0.0
  0
LINE
  5
2B8F9
330
2B8A7
100
AcDbEntity
  8
鼻隠しコ-ナ-
100
AcDbLine
 10
4684.993850167717
 20
7289.292408947417
 30
0.0
 11
4684.993850167717
 21
7179.373021880245
 31
0.0
  0
LINE
  5
2B8FA
330
2B8A7
100
AcDbEntity
  8
U2
100
AcDbLine
 10
4686.993850167715
 20
7084.165018962249
 30
0.0
 11
4686.993850167715
 21
6976.318376858272
 31
0.0
  0
LINE
  5
2B8FB
330
2B8A7
100
AcDbEntity
  8
ケラバキャップ
100
AcDbLine
 10
4684.893850167717
 20
6973.523419242461
 30
0.0
 11
4684.893850167717
 21
7088.853551436732
 31
0.0
  0
ARC
  5
2B8FC
330
2B8A7
100
AcDbEntity
  8
ケラバキャップ
100
AcDbCircle
 10
4694.893850167717
 20
7088.853551436732
 30
0.0
 40
10.0
100
AcDbArc
 50
152.8732468827502
 51
180.0
  0
LINE
  5
2B8FD
330
2B8A7
100
AcDbEntity
  8
U2
100
AcDbLine
 10
4685.993850167717
 20
7174.577190356933
 30
0.0
 11
4685.993850167717
 21
6976.318376858272
 31
0.0
  0
LINE
  5
2B8FE
330
2B8A7
100
AcDbEntity
  8
鼻隠しコ-ナ-
100
AcDbLine
 10
4706.993850167717
 20
7299.925906786477
 30
0.0
 11
4706.993850167717
 21
7301.292408947418
 31
0.0
  0
LINE
  5
2B8FF
330
2B8A7
100
AcDbEntity
  8
鼻隠しコ-ナ-
100
AcDbLine
 10
4706.993850167717
 20
7301.292408947418
 30
0.0
 11
4696.993850167717
 21
7301.292408947418
 31
0.0
  0
LINE
  5
2B900
330
2B8A7
100
AcDbEntity
  8
鼻隠しコ-ナ-
100
AcDbLine
 10
4696.993850167717
 20
7167.373021880244
 30
0.0
 11
4706.993850167717
 21
7167.373021880244
 31
0.0
  0
LINE
  5
2B901
330
2B8A7
100
AcDbEntity
  8
U2
100
AcDbLine
 10
4758.993850167717
 20
7094.165018962249
 30
0.0
 11
4696.993850167717
 21
7094.165018962249
 31
0.0
  0
LINE
  5
2B902
330
2B8A7
100
AcDbEntity
  8
U2
100
AcDbLine
 10
4758.993850167717
 20
7095.165018962248
 30
0.0
 11
4696.993850167717
 21
7095.165018962248
 31
0.0
  0
LINE
  5
2B903
330
2B8A7
100
AcDbEntity
  8
U2
100
AcDbLine
 10
4758.993850167717
 20
7083.165018962249
 30
0.0
 11
4758.993850167717
 21
7076.165018962249
 31
0.0
  0
LINE
  5
2B904
330
2B8A7
100
AcDbEntity
  8
U2
100
AcDbLine
 10
4759.993850167717
 20
7093.165018962249
 30
0.0
 11
4759.993850167717
 21
7076.165018962249
 31
0.0
  0
ARC
  5
2B905
330
2B8A7
100
AcDbEntity
  8
U2
100
AcDbCircle
 10
4759.993850167717
 20
7076.165018962249
 30
0.0
 40
1.0
100
AcDbArc
 50
180.0
 51
0.0
  0
ARC
  5
2B906
330
2B8A7
100
AcDbEntity
  8
U2
100
AcDbCircle
 10
4758.993850167717
 20
7093.165018962249
 30
0.0
 40
2.0
100
AcDbArc
 50
0.0
 51
90.0
  0
ARC
  5
2B907
330
2B8A7
100
AcDbEntity
  8
U2
100
AcDbCircle
 10
4758.993850167717
 20
7093.165018962249
 30
0.0
 40
1.0
100
AcDbArc
 50
0.0
 51
90.0
  0
LINE
  5
2B908
330
2B8A7
100
AcDbEntity
  8
U2
100
AcDbLine
 10
4758.993850167717
 20
7083.165018962249
 30
0.0
 11
4760.993850167717
 21
7083.165018962249
 31
0.0
  0
LINE
  5
2B909
330
2B8A7
100
AcDbEntity
  8
ケラバキャップ
100
AcDbLine
 10
4762.893850167714
 20
7068.205041624693
 30
0.0
 11
4762.893850167716
 21
7096.853551436732
 31
0.0
  0
ARC
  5
2B90A
330
2B8A7
100
AcDbEntity
  8
ケラバキャップ
100
AcDbCircle
 10
4760.893850167716
 20
7096.853551436732
 30
0.0
 40
2.0
100
AcDbArc
 50
0.0
 51
87.1340160173907
  0
LINE
  5
2B90B
330
2B8A7
100
AcDbEntity
  8
KETA
100
AcDbLine
 10
4766.000000000004
 20
7108.979651847272
 30
0.0
 11
4766.000000000004
 21
7098.270170603566
 31
0.0
  0
LINE
  5
2B90C
330
2B8A7
100
AcDbEntity
  8
KETA
100
AcDbLine
 10
4703.000000000002
 20
7007.144442994489
 30
0.0
 11
4703.000000000002
 21
7065.089508150592
 31
0.0
  0
LINE
  5
2B90D
330
2B8A7
100
AcDbEntity
  8
KETA
100
AcDbLine
 10
4747.000000000002
 20
7007.144442994489
 30
0.0
 11
4766.000000000004
 21
6976.299646785882
 31
0.0
  0
LINE
  5
2B90E
330
2B8A7
100
AcDbEntity
  8
KETA
100
AcDbLine
 10
4703.000000000002
 20
7007.144442994489
 30
0.0
 11
4747.000000000002
 21
7007.144442994489
 31
0.0
  0
LINE
  5
2B90F
330
2B8A7
100
AcDbEntity
  8
KETA
100
AcDbLine
 10
4760.993850167717
 20
7117.106687182364
 30
0.0
 11
4766.000000000004
 21
7108.979651847272
 31
0.0
  0
LINE
  5
2B910
330
2B8A7
100
AcDbEntity
  8
ケラバキャップ
100
AcDbLine
 10
4762.893850167716
 20
7068.205041624685
 30
0.0
 11
4762.387878085927
 21
7065.089508150592
 31
0.0
  0
LINE
  5
2B911
330
2B8A7
100
AcDbEntity
  8
ケラバキャップ
100
AcDbLine
 10
4762.893850167716
 20
7070.70355143673
 30
0.0
 11
4761.982112517535
 21
7065.089508150592
 31
0.0
  0
LINE
  5
2B912
330
2B8A7
100
AcDbEntity
  8
U2
100
AcDbLine
 10
4760.993850167717
 20
7166.509104897588
 30
0.0
 11
4760.993850167717
 21
7076.165018962249
 31
0.0
  0
ARC
  5
2B913
330
2B8A7
100
AcDbEntity
  8
鼻隠しコ-ナ-
100
AcDbCircle
 10
4696.993850167717
 20
7289.292408947417
 30
0.0
 40
12.0
100
AcDbArc
 50
90.0
 51
180.0
  0
ARC
  5
2B914
330
2B8A7
100
AcDbEntity
  8
鼻隠しコ-ナ-
100
AcDbCircle
 10
4696.993850167717
 20
7179.373021880245
 30
0.0
 40
12.0
100
AcDbArc
 50
180.0
 51
270.0
  0
ARC
  5
2B915
330
2B8A7
100
AcDbEntity
  8
U2
100
AcDbCircle
 10
4696.993850167717
 20
7084.165018962249
 30
0.0
 40
11.0
100
AcDbArc
 50
90.0
 51
180.0
  0
ARC
  5
2B916
330
2B8A7
100
AcDbEntity
  8
U2
100
AcDbCircle
 10
4696.993850167717
 20
7084.165018962249
 30
0.0
 40
10.0
100
AcDbArc
 50
90.0
 51
180.0
  0
LINE
  5
2B917
330
2B8A7
100
AcDbEntity
  8
U2
100
AcDbLine
 10
4706.993850167717
 20
6966.318376858271
 30
0.0
 11
4706.993850167717
 21
6965.31837685827
 31
0.0
  0
LINE
  5
2B918
330
2B8A7
100
AcDbEntity
  8
U2
100
AcDbLine
 10
4735.993850167717
 20
6967.318376858272
 30
0.0
 11
4742.993850167716
 21
6967.318376858272
 31
0.0
  0
ARC
  5
2B919
330
2B8A7
100
AcDbEntity
  8
U2
100
AcDbCircle
 10
4742.993850167716
 20
6966.318376858271
 30
0.0
 40
1.0
100
AcDbArc
 50
270.0
 51
90.0
  0
LINE
  5
2B91A
330
2B8A7
100
AcDbEntity
  8
U2
100
AcDbLine
 10
4735.993850167717
 20
6967.318376858272
 30
0.0
 11
4735.993850167717
 21
6966.318376858271
 31
0.0
  0
LINE
  5
2B91B
330
2B8A7
100
AcDbEntity
  8
U2
100
AcDbLine
 10
4696.993850167717
 20
6965.31837685827
 30
0.0
 11
4742.993850167716
 21
6965.31837685827
 31
0.0
  0
LINE
  5
2B91C
330
2B8A7
100
AcDbEntity
  8
U2
100
AcDbLine
 10
4696.993850167717
 20
6966.318376858271
 30
0.0
 11
4742.993850167716
 21
6966.318376858271
 31
0.0
  0
ARC
  5
2B91D
330
2B8A7
100
AcDbEntity
  8
ケラバキャップ
100
AcDbCircle
 10
4745.042539062231
 20
6967.021929054503
 30
0.0
 40
1.0
100
AcDbArc
 50
270.0
 51
350.8162397358911
  0
ARC
  5
2B91E
330
2B8A7
100
AcDbEntity
  8
ケラバキャップ
100
AcDbCircle
 10
4745.042539062231
 20
6964.52341924246
 30
0.0
 40
1.0
100
AcDbArc
 50
270.0
 51
350.8162397358911
  0
LINE
  5
2B91F
330
2B8A7
100
AcDbEntity
  8
ケラバキャップ
100
AcDbLine
 10
4745.042539062231
 20
6966.021929054503
 30
0.0
 11
4743.948899223859
 21
6966.021929054503
 31
0.0
  0
LINE
  5
2B920
330
2B8A7
100
AcDbEntity
  8
ケラバキャップ
100
AcDbLine
 10
4745.042539062231
 20
6963.523419242457
 30
0.0
 11
4694.893850167717
 21
6963.523419242457
 31
0.0
  0
ARC
  5
2B921
330
2B8A7
100
AcDbEntity
  8
U2
100
AcDbCircle
 10
4696.993850167717
 20
6976.318376858272
 30
0.0
 40
10.0
100
AcDbArc
 50
180.0
 51
270.0
  0
ARC
  5
2B922
330
2B8A7
100
AcDbEntity
  8
U2
100
AcDbCircle
 10
4696.993850167717
 20
6976.318376858272
 30
0.0
 40
11.0
100
AcDbArc
 50
180.0
 51
270.0
  0
ARC
  5
2B923
330
2B8A7
100
AcDbEntity
  8
ケラバキャップ
100
AcDbCircle
 10
4694.893850167717
 20
6973.523419242461
 30
0.0
 40
10.0
100
AcDbArc
 50
180.0
 51
270.0
  0
ARC
  5
2B924
330
2B8A7
100
AcDbEntity
  8
ケラバキャップ
100
AcDbCircle
 10
4694.893850167717
 20
6976.021929054502
 30
0.0
 40
10.0
100
AcDbArc
 50
180.0
 51
255.1396841696524
  0
LINE
  5
2B925
330
2B8A7
100
AcDbEntity
  8
KETA
100
AcDbLine
 10
4766.000000000004
 20
6984.259594194552
 30
0.0
 11
4766.000000000004
 21
6965.590165542177
 31
0.0
  0
LINE
  5
2B926
330
2B8A7
100
AcDbEntity
  8
ケラバキャップ
100
AcDbLine
 10
4751.730296490062
 20
6999.465230823847
 30
0.0
 11
4746.029720603873
 21
6964.363817851992
 31
0.0
  0
LINE
  5
2B927
330
2B8A7
100
AcDbEntity
  8
ケラバキャップ
100
AcDbLine
 10
4751.409189689021
 20
6999.986518920654
 30
0.0
 11
4746.029720603873
 21
6966.862327664031
 31
0.0
  0
LINE
  5
2B928
330
2B8A7
100
AcDbEntity
  8
KETA
100
AcDbLine
 10
5047.500000000002
 20
7102.919073359314
 30
0.0
 11
5047.500000000002
 21
7098.270170603566
 31
0.0
  0
LINE
  5
2B929
330
2B8A7
100
AcDbEntity
  8
KETA_KANAGU
100
AcDbLine
 10
5002.000000000005
 20
6970.954008829903
 30
0.0
 11
5002.000000000005
 21
7047.939173463936
 31
0.0
  0
LINE
  5
2B92A
330
2B8A7
100
AcDbEntity
  8
KETA_KANAGU
100
AcDbLine
 10
5046.000000000002
 20
7047.939173463936
 30
0.0
 11
5046.000000000002
 21
7019.339798629222
 31
0.0
  0
CIRCLE
  5
2B92B
330
2B8A7
100
AcDbEntity
  8
KETA_KANAGU
100
AcDbCircle
 10
5018.000000000005
 20
7034.863451001993
 30
0.0
 40
6.0
  0
CIRCLE
  5
2B92C
330
2B8A7
100
AcDbEntity
  8
KETA_KANAGU
100
AcDbCircle
 10
5018.000000000005
 20
6985.113779697785
 30
0.0
 40
6.0
  0
CIRCLE
  5
2B92D
330
2B8A7
100
AcDbEntity
  8
KETA
100
AcDbCircle
 10
5018.000000000005
 20
7124.739642036643
 30
0.0
 40
6.0
  0
LINE
  5
2B92E
330
2B8A7
100
AcDbEntity
  8
KETA_KANAGU
100
AcDbLine
 10
5046.200000000006
 20
6978.449538266016
 30
0.0
 11
5002.000000000005
 21
6978.449538266021
 31
0.0
  0
LINE
  5
2B92F
330
2B8A7
100
AcDbEntity
  8
KETA_KANAGU
100
AcDbLine
 10
5046.200000000006
 20
6970.954008829903
 30
0.0
 11
5002.000000000005
 21
6970.954008829903
 31
0.0
  0
LINE
  5
2B930
330
2B8A7
100
AcDbEntity
  8
KETA
100
AcDbLine
 10
5114.500000000004
 20
7098.270170603566
 30
0.0
 11
5114.500000000004
 21
7102.919073359314
 31
0.0
  0
LINE
  5
2B931
330
2B8A7
100
AcDbEntity
  8
KETA_KANAGU
100
AcDbLine
 10
5116.000000000004
 20
7047.939173463936
 30
0.0
 11
5116.000000000006
 21
7019.339798629222
 31
0.0
  0
LINE
  5
2B932
330
2B8A7
100
AcDbEntity
  8
KETA_KANAGU
100
AcDbLine
 10
5160.000000000007
 20
7047.939173463936
 30
0.0
 11
5160.000000000002
 21
6970.954008829903
 31
0.0
  0
CIRCLE
  5
2B933
330
2B8A7
100
AcDbEntity
  8
KETA_KANAGU
100
AcDbCircle
 10
5144.000000000005
 20
7034.863451001993
 30
0.0
 40
6.0
  0
CIRCLE
  5
2B934
330
2B8A7
100
AcDbEntity
  8
KETA_KANAGU
100
AcDbCircle
 10
5144.000000000005
 20
6985.113779697785
 30
0.0
 40
6.0
  0
CIRCLE
  5
2B935
330
2B8A7
100
AcDbEntity
  8
KETA
100
AcDbCircle
 10
5144.000000000005
 20
7124.739642036643
 30
0.0
 40
6.0
  0
LINE
  5
2B936
330
2B8A7
100
AcDbEntity
  8
KETA_KANAGU
100
AcDbLine
 10
5160.000000000002
 20
6978.449538266021
 30
0.0
 11
5115.800000000007
 21
6978.449538266016
 31
0.0
  0
LINE
  5
2B937
330
2B8A7
100
AcDbEntity
  8
KETA_KANAGU
100
AcDbLine
 10
5160.000000000002
 20
6970.954008829903
 30
0.0
 11
5115.800000000007
 21
6970.954008829903
 31
0.0
  0
LINE
  5
2B938
330
2B8A7
100
AcDbEntity
  8
KETA
100
AcDbLine
 10
5114.500000000004
 20
7102.919073359314
 30
0.0
 11
5047.500000000002
 21
7102.919073359314
 31
0.0
  0
LINE
  5
2B939
330
2B8A7
100
AcDbEntity
  8
HASHIRA
100
AcDbLine
 10
5102.800000000007
 20
7026.08003744125
 30
0.0
 11
5059.200000000005
 21
7026.08003744125
 31
0.0
  0
LINE
  5
2B93A
330
2B8A7
100
AcDbEntity
  8
KETA
100
AcDbLine
 10
4999.000000000004
 20
6984.259594194552
 30
0.0
 11
4999.000000000004
 21
6965.590165542177
 31
0.0
  0
LINE
  5
2B93B
330
2B8A7
100
AcDbEntity
  8
KETA
100
AcDbLine
 10
5163.000000000002
 20
6984.259594194552
 30
0.0
 11
5163.000000000002
 21
6965.590165542177
 31
0.0
  0
LINE
  5
2B93C
330
2B8A7
100
AcDbEntity
  8
KETA
100
AcDbLine
 10
5047.500000000002
 20
7098.270170603566
 30
0.0
 11
4766.000000000004
 21
7098.270170603566
 31
0.0
  0
LINE
  5
2B93D
330
2B8A7
100
AcDbEntity
  8
KETA
100
AcDbLine
 10
4999.000000000002
 20
6984.259594194554
 30
0.0
 11
4766.000000000004
 21
6984.259594194552
 31
0.0
  0
LINE
  5
2B93E
330
2B8A7
100
AcDbEntity
  8
KETA
100
AcDbLine
 10
4703.000000000002
 20
7065.089508150592
 30
0.0
 11
5046.200000000006
 21
7065.089508150592
 31
0.0
  0
LINE
  5
2B93F
330
2B8A7
100
AcDbEntity
  8
KETA
100
AcDbLine
 10
4703.000000000002
 20
7047.939173463936
 30
0.0
 11
5046.200000000006
 21
7047.939173463936
 31
0.0
  0
LINE
  5
2B940
330
2B8A7
100
AcDbEntity
  8
KETA
100
AcDbLine
 10
5046.200000000006
 20
6965.59016554218
 30
0.0
 11
4766.000000000004
 21
6965.590165542177
 31
0.0
  0
LINE
  5
2B941
330
2B8A7
100
AcDbEntity
  8
KETA
100
AcDbLine
 10
7496.2
 20
7047.939173463936
 30
0.0
 11
5115.800000000007
 21
7047.939173463936
 31
0.0
  0
LINE
  5
2B942
330
2B8A7
100
AcDbEntity
  8
KETA
100
AcDbLine
 10
7496.2
 20
7065.089508150592
 30
0.0
 11
5115.800000000007
 21
7065.089508150592
 31
0.0
  0
LINE
  5
2B943
330
2B8A7
100
AcDbEntity
  8
ケラバキャップ
100
AcDbLine
 10
7860.590810310985
 20
6999.986518920654
 30
0.0
 11
7865.97027939613
 21
6966.862327664031
 31
0.0
  0
LINE
  5
2B944
330
2B8A7
100
AcDbEntity
  8
ケラバキャップ
100
AcDbLine
 10
7860.269703509939
 20
6999.465230823847
 30
0.0
 11
7865.97027939613
 21
6964.363817851992
 31
0.0
  0
LINE
  5
2B945
330
2B8A7
100
AcDbEntity
  8
HASHIRA
100
AcDbLine
 10
7509.199999999999
 20
7026.08003744125
 30
0.0
 11
7552.800000000002
 21
7026.08003744125
 31
0.0
  0
LINE
  5
2B946
330
2B8A7
100
AcDbEntity
  8
KETA_KANAGU
100
AcDbLine
 10
7565.800000000002
 20
6970.954008829903
 30
0.0
 11
7610.000000000002
 21
6970.954008829903
 31
0.0
  0
LINE
  5
2B947
330
2B8A7
100
AcDbEntity
  8
KETA_KANAGU
100
AcDbLine
 10
7565.800000000002
 20
6978.449538266016
 30
0.0
 11
7610.000000000002
 21
6978.449538266021
 31
0.0
  0
LINE
  5
2B948
330
2B8A7
100
AcDbEntity
  8
KETA
100
AcDbLine
 10
7496.2
 20
6965.59016554218
 30
0.0
 11
5114.500000000004
 21
6965.590165542177
 31
0.0
  0
LINE
  5
2B949
330
2B8A7
100
AcDbEntity
  8
KETA
100
AcDbLine
 10
7449.000000000002
 20
6984.259594194552
 30
0.0
 11
5163.000000000002
 21
6984.259594194552
 31
0.0
  0
LINE
  5
2B94A
330
2B8A7
100
AcDbEntity
  8
KETA
100
AcDbLine
 10
4740.493850167715
 20
6965.59016554218
 30
0.0
 11
5021.993850167715
 21
6965.590165542177
 31
0.0
  0
LINE
  5
2B94B
330
2B8A7
100
AcDbEntity
  8
KETA
100
AcDbLine
 10
4788.993850167717
 20
6984.259594194554
 30
0.0
 11
4999.000000000002
 21
6984.259594194552
 31
0.0
  0
LINE
  5
2B94C
330
2B8A7
100
AcDbEntity
  8
KETA
100
AcDbLine
 10
7449.000000000002
 20
6984.259594194552
 30
0.0
 11
7449.000000000002
 21
6965.590165542177
 31
0.0
  0
LINE
  5
2B94D
330
2B8A7
100
AcDbEntity
  8
KETA
100
AcDbLine
 10
7613.000000000003
 20
6984.259594194552
 30
0.0
 11
7613.000000000003
 21
6965.590165542177
 31
0.0
  0
LINE
  5
2B94E
330
2B8A7
100
AcDbEntity
  8
KETA
100
AcDbLine
 10
7613.000000000003
 20
6984.259594194554
 30
0.0
 11
7846.000000000002
 21
6984.259594194552
 31
0.0
  0
LINE
  5
2B94F
330
2B8A7
100
AcDbEntity
  8
KETA
100
AcDbLine
 10
7909.000000000003
 20
7047.939173463936
 30
0.0
 11
7565.800000000002
 21
7047.939173463936
 31
0.0
  0
LINE
  5
2B950
330
2B8A7
100
AcDbEntity
  8
KETA
100
AcDbLine
 10
7909.000000000003
 20
7007.144442994489
 30
0.0
 11
7865.000000000003
 21
7007.144442994489
 31
0.0
  0
LINE
  5
2B951
330
2B8A7
100
AcDbEntity
  8
KETA
100
AcDbLine
 10
7865.000000000003
 20
7007.144442994489
 30
0.0
 11
7846.000000000002
 21
6976.299646785882
 31
0.0
  0
LINE
  5
2B952
330
2B8A7
100
AcDbEntity
  8
KETA
100
AcDbLine
 10
7846.000000000002
 20
6984.259594194552
 30
0.0
 11
7846.000000000002
 21
6965.590165542177
 31
0.0
  0
LINE
  5
2B953
330
2B8A7
100
AcDbEntity
  8
KETA
100
AcDbLine
 10
7909.000000000003
 20
7007.144442994489
 30
0.0
 11
7909.000000000003
 21
7065.089508150592
 31
0.0
  0
LINE
  5
2B954
330
2B8A7
100
AcDbEntity
  8
KETA
100
AcDbLine
 10
7565.800000000002
 20
6965.59016554218
 30
0.0
 11
7846.000000000002
 21
6965.590165542177
 31
0.0
  0
LINE
  5
2B955
330
2B8A7
100
AcDbEntity
  8
KETA
100
AcDbLine
 10
7909.000000000003
 20
7065.089508150592
 30
0.0
 11
7565.800000000002
 21
7065.089508150592
 31
0.0
  0
LINE
  5
2B956
330
2B8A7
100
AcDbEntity
  8
KETA_KANAGU
100
AcDbLine
 10
7566.000000000002
 20
7047.939173463936
 30
0.0
 11
7566.000000000002
 21
7019.339798629222
 31
0.0
  0
CIRCLE
  5
2B957
330
2B8A7
100
AcDbEntity
  8
KETA_KANAGU
100
AcDbCircle
 10
7594.000000000002
 20
7034.863451001993
 30
0.0
 40
6.0
  0
LINE
  5
2B958
330
2B8A7
100
AcDbEntity
  8
KETA_KANAGU
100
AcDbLine
 10
7496.000000000002
 20
7047.939173463936
 30
0.0
 11
7495.999999999998
 21
7019.339798629222
 31
0.0
  0
CIRCLE
  5
2B959
330
2B8A7
100
AcDbEntity
  8
KETA_KANAGU
100
AcDbCircle
 10
7468.000000000003
 20
7034.863451001993
 30
0.0
 40
6.0
  0
CIRCLE
  5
2B95A
330
2B8A7
100
AcDbEntity
  8
KETA_KANAGU
100
AcDbCircle
 10
7594.000000000002
 20
6985.113779697785
 30
0.0
 40
6.0
  0
CIRCLE
  5
2B95B
330
2B8A7
100
AcDbEntity
  8
KETA_KANAGU
100
AcDbCircle
 10
7468.000000000003
 20
6985.113779697785
 30
0.0
 40
6.0
  0
LINE
  5
2B95C
330
2B8A7
100
AcDbEntity
  8
KETA_KANAGU
100
AcDbLine
 10
7452.000000000002
 20
6970.954008829903
 30
0.0
 11
7496.2
 21
6970.954008829903
 31
0.0
  0
LINE
  5
2B95D
330
2B8A7
100
AcDbEntity
  8
KETA_KANAGU
100
AcDbLine
 10
7452.000000000002
 20
6978.449538266021
 30
0.0
 11
7496.2
 21
6978.449538266016
 31
0.0
  0
LINE
  5
2B95E
330
2B8A7
100
AcDbEntity
  8
KETA_KANAGU
100
AcDbLine
 10
7451.999999999997
 20
7047.939173463936
 30
0.0
 11
7452.000000000002
 21
6970.954008829903
 31
0.0
  0
LINE
  5
2B95F
330
2B8A7
100
AcDbEntity
  8
KETA_KANAGU
100
AcDbLine
 10
7610.000000000002
 20
6970.954008829903
 30
0.0
 11
7610.000000000002
 21
7047.939173463936
 31
0.0
  0
LINE
  5
2B960
330
2B8A7
100
AcDbEntity
  8
KETA
100
AcDbLine
 10
5114.500000000004
 20
7098.270170603566
 30
0.0
 11
7497.500000000002
 21
7098.270170603566
 31
0.0
  0
LINE
  5
2B961
330
2B8A7
100
AcDbEntity
  8
KETA
100
AcDbLine
 10
4740.493850167715
 20
7098.270170603566
 30
0.0
 11
5021.993850167715
 21
7098.270170603566
 31
0.0
  0
LINE
  5
2B962
330
2B8A7
100
AcDbEntity
  8
KETA
100
AcDbLine
 10
7846.000000000002
 20
7108.979651847272
 30
0.0
 11
7846.000000000002
 21
7098.270170603566
 31
0.0
  0
LINE
  5
2B963
330
2B8A7
100
AcDbEntity
  8
KETA
100
AcDbLine
 10
7851.006149832288
 20
7117.106687182364
 30
0.0
 11
7846.000000000002
 21
7108.979651847272
 31
0.0
  0
LINE
  5
2B964
330
2B8A7
100
AcDbEntity
  8
KETA
100
AcDbLine
 10
7564.500000000002
 20
7098.270170603566
 30
0.0
 11
7846.000000000002
 21
7098.270170603566
 31
0.0
  0
LINE
  5
2B965
330
2B8A7
100
AcDbEntity
  8
KETA
100
AcDbLine
 10
7564.500000000002
 20
7102.919073359314
 30
0.0
 11
7564.500000000002
 21
7098.270170603566
 31
0.0
  0
LINE
  5
2B966
330
2B8A7
100
AcDbEntity
  8
KETA
100
AcDbLine
 10
7497.500000000002
 20
7102.919073359314
 30
0.0
 11
7564.500000000002
 21
7102.919073359314
 31
0.0
  0
LINE
  5
2B967
330
2B8A7
100
AcDbEntity
  8
KETA
100
AcDbLine
 10
7497.500000000002
 20
7098.270170603566
 30
0.0
 11
7497.500000000002
 21
7102.919073359314
 31
0.0
  0
CIRCLE
  5
2B968
330
2B8A7
100
AcDbEntity
  8
KETA
100
AcDbCircle
 10
7468.000000000003
 20
7124.739642036643
 30
0.0
 40
6.0
  0
CIRCLE
  5
2B969
330
2B8A7
100
AcDbEntity
  8
KETA
100
AcDbCircle
 10
7594.000000000002
 20
7124.739642036643
 30
0.0
 40
6.0
  0
LINE
  5
2B96A
330
2B8A7
100
AcDbEntity
  8
ケラバキャップ
100
AcDbLine
 10
7849.106149832287
 20
7068.205041624685
 30
0.0
 11
7849.612121914081
 21
7065.089508150592
 31
0.0
  0
LINE
  5
2B96B
330
2B8A7
100
AcDbEntity
  8
ケラバキャップ
100
AcDbLine
 10
7866.957460937773
 20
6963.523419242457
 30
0.0
 11
7917.10614983229
 21
6963.523419242457
 31
0.0
  0
ARC
  5
2B96C
330
2B8A7
100
AcDbEntity
  8
ケラバキャップ
100
AcDbCircle
 10
7866.957460937773
 20
6964.52341924246
 30
0.0
 40
1.0
100
AcDbArc
 50
189.1837602641087
 51
270.0
  0
ARC
  5
2B96D
330
2B8A7
100
AcDbEntity
  8
ケラバキャップ
100
AcDbCircle
 10
7917.10614983229
 20
6973.523419242461
 30
0.0
 40
10.0
100
AcDbArc
 50
270.0
 51
0.0
  0
LINE
  5
2B96E
330
2B8A7
100
AcDbEntity
  8
ケラバキャップ
100
AcDbLine
 10
7927.106149832292
 20
6973.523419242461
 30
0.0
 11
7927.106149832292
 21
7088.853551436732
 31
0.0
  0
ARC
  5
2B96F
330
2B8A7
100
AcDbEntity
  8
ケラバキャップ
100
AcDbCircle
 10
7851.10614983229
 20
7096.853551436732
 30
0.0
 40
2.0
100
AcDbArc
 50
92.86598398260926
 51
180.0
  0
LINE
  5
2B970
330
2B8A7
100
AcDbEntity
  8
ケラバキャップ
100
AcDbLine
 10
7849.106149832292
 20
7068.205041624693
 30
0.0
 11
7849.106149832287
 21
7096.853551436732
 31
0.0
  0
ARC
  5
2B971
330
2B8A7
100
AcDbEntity
  8
ケラバキャップ
100
AcDbCircle
 10
7866.957460937773
 20
6967.021929054503
 30
0.0
 40
1.0
100
AcDbArc
 50
189.1837602641087
 51
270.0
  0
LINE
  5
2B972
330
2B8A7
100
AcDbEntity
  8
ケラバキャップ
100
AcDbLine
 10
7866.957460937773
 20
6966.021929054503
 30
0.0
 11
7868.051100776146
 21
6966.021929054503
 31
0.0
  0
LINE
  5
2B973
330
2B8A7
100
AcDbEntity
  8
ケラバキャップ
100
AcDbLine
 10
7849.106149832287
 20
7070.70355143673
 30
0.0
 11
7850.017887482467
 21
7065.089508150592
 31
0.0
  0
ARC
  5
2B974
330
2B8A7
100
AcDbEntity
  8
ケラバキャップ
100
AcDbCircle
 10
7917.10614983229
 20
7088.853551436732
 30
0.0
 40
10.0
100
AcDbArc
 50
0.0
 51
27.12675311724963
  0
ARC
  5
2B975
330
2B8A7
100
AcDbEntity
  8
ケラバキャップ
100
AcDbCircle
 10
7917.10614983229
 20
6976.021929054502
 30
0.0
 40
10.0
100
AcDbArc
 50
284.8603158303476
 51
0.0
  0
ARC
  5
2B976
330
2B8A7
100
AcDbEntity
  8
U2
100
AcDbCircle
 10
7915.006149832287
 20
7084.165018962249
 30
0.0
 40
10.0
100
AcDbArc
 50
0.0
 51
90.0
  0
ARC
  5
2B977
330
2B8A7
100
AcDbEntity
  8
U2
100
AcDbCircle
 10
7915.006149832287
 20
7084.165018962249
 30
0.0
 40
11.0
100
AcDbArc
 50
0.0
 51
90.0
  0
LINE
  5
2B978
330
2B8A7
100
AcDbEntity
  8
U2
100
AcDbLine
 10
7853.006149832291
 20
7083.165018962249
 30
0.0
 11
7851.006149832288
 21
7083.165018962249
 31
0.0
  0
ARC
  5
2B979
330
2B8A7
100
AcDbEntity
  8
U2
100
AcDbCircle
 10
7853.006149832291
 20
7093.165018962249
 30
0.0
 40
1.0
100
AcDbArc
 50
90.0
 51
180.0
  0
ARC
  5
2B97A
330
2B8A7
100
AcDbEntity
  8
U2
100
AcDbCircle
 10
7853.006149832291
 20
7093.165018962249
 30
0.0
 40
2.0
100
AcDbArc
 50
90.0
 51
180.0
  0
ARC
  5
2B97B
330
2B8A7
100
AcDbEntity
  8
U2
100
AcDbCircle
 10
7852.00614983229
 20
7076.165018962249
 30
0.0
 40
1.0
100
AcDbArc
 50
180.0
 51
0.0
  0
LINE
  5
2B97C
330
2B8A7
100
AcDbEntity
  8
U2
100
AcDbLine
 10
7851.006149832288
 20
7166.509104897588
 30
0.0
 11
7851.006149832288
 21
7076.165018962249
 31
0.0
  0
LINE
  5
2B97D
330
2B8A7
100
AcDbEntity
  8
U2
100
AcDbLine
 10
7852.00614983229
 20
7093.165018962249
 30
0.0
 11
7852.00614983229
 21
7076.165018962249
 31
0.0
  0
LINE
  5
2B97E
330
2B8A7
100
AcDbEntity
  8
U2
100
AcDbLine
 10
7853.006149832291
 20
7083.165018962249
 30
0.0
 11
7853.006149832291
 21
7076.165018962249
 31
0.0
  0
LINE
  5
2B97F
330
2B8A7
100
AcDbEntity
  8
U2
100
AcDbLine
 10
7853.006149832291
 20
7095.165018962248
 30
0.0
 11
7915.006149832287
 21
7095.165018962248
 31
0.0
  0
LINE
  5
2B980
330
2B8A7
100
AcDbEntity
  8
U2
100
AcDbLine
 10
7853.006149832291
 20
7094.165018962249
 30
0.0
 11
7915.006149832287
 21
7094.165018962249
 31
0.0
  0
LINE
  5
2B981
330
2B8A7
100
AcDbEntity
  8
U2
100
AcDbLine
 10
7905.006149832288
 20
6966.318376858271
 30
0.0
 11
7905.006149832288
 21
6965.31837685827
 31
0.0
  0
ARC
  5
2B982
330
2B8A7
100
AcDbEntity
  8
U2
100
AcDbCircle
 10
7915.006149832287
 20
6976.318376858272
 30
0.0
 40
10.0
100
AcDbArc
 50
270.0
 51
0.0
  0
ARC
  5
2B983
330
2B8A7
100
AcDbEntity
  8
U2
100
AcDbCircle
 10
7915.006149832287
 20
6976.318376858272
 30
0.0
 40
11.0
100
AcDbArc
 50
270.0
 51
0.0
  0
LINE
  5
2B984
330
2B8A7
100
AcDbEntity
  8
U2
100
AcDbLine
 10
7876.006149832289
 20
6967.318376858272
 30
0.0
 11
7869.006149832292
 21
6967.318376858272
 31
0.0
  0
ARC
  5
2B985
330
2B8A7
100
AcDbEntity
  8
U2
100
AcDbCircle
 10
7869.006149832292
 20
6966.318376858271
 30
0.0
 40
1.0
100
AcDbArc
 50
90.0
 51
270.0
  0
LINE
  5
2B986
330
2B8A7
100
AcDbEntity
  8
U2
100
AcDbLine
 10
7876.006149832289
 20
6967.318376858272
 30
0.0
 11
7876.006149832289
 21
6966.318376858271
 31
0.0
  0
LINE
  5
2B987
330
2B8A7
100
AcDbEntity
  8
U2
100
AcDbLine
 10
7915.006149832287
 20
6965.31837685827
 30
0.0
 11
7869.006149832292
 21
6965.31837685827
 31
0.0
  0
LINE
  5
2B988
330
2B8A7
100
AcDbEntity
  8
U2
100
AcDbLine
 10
7915.006149832287
 20
6966.318376858271
 30
0.0
 11
7869.006149832292
 21
6966.318376858271
 31
0.0
  0
LINE
  5
2B989
330
2B8A7
100
AcDbEntity
  8
U2
100
AcDbLine
 10
7926.00614983228
 20
7174.577190356933
 30
0.0
 11
7926.00614983228
 21
6976.318376858272
 31
0.0
  0
LINE
  5
2B98A
330
2B8A7
100
AcDbEntity
  8
U2
100
AcDbLine
 10
7925.006149832291
 20
7084.165018962249
 30
0.0
 11
7925.006149832291
 21
6976.318376858272
 31
0.0
  0
ARC
  5
2B98B
330
2B8A7
100
AcDbEntity
  8
鼻隠しコ-ナ-
100
AcDbCircle
 10
7915.006149832287
 20
7179.373021880245
 30
0.0
 40
12.0
100
AcDbArc
 50
270.0
 51
0.0
  0
ARC
  5
2B98C
330
2B8A7
100
AcDbEntity
  8
鼻隠しコ-ナ-
100
AcDbCircle
 10
7915.006149832287
 20
7289.292408947417
 30
0.0
 40
12.0
100
AcDbArc
 50
0.0
 51
90.0
  0
LINE
  5
2B98D
330
2B8A7
100
AcDbEntity
  8
鼻隠しコ-ナ-
100
AcDbLine
 10
7915.006149832287
 20
7167.373021880244
 30
0.0
 11
7905.006149832288
 21
7167.373021880244
 31
0.0
  0
LINE
  5
2B98E
330
2B8A7
100
AcDbEntity
  8
鼻隠しコ-ナ-
100
AcDbLine
 10
7927.00614983228
 20
7289.292408947417
 30
0.0
 11
7927.00614983228
 21
7179.373021880245
 31
0.0
  0
LINE
  5
2B98F
330
2B8A7
100
AcDbEntity
  8
鼻隠しコ-ナ-
100
AcDbLine
 10
7905.006149832288
 20
7301.292408947418
 30
0.0
 11
7915.006149832287
 21
7301.292408947418
 31
0.0
  0
LINE
  5
2B990
330
2B8A7
100
AcDbEntity
  8
鼻隠しコ-ナ-
100
AcDbLine
 10
7905.006149832288
 20
7299.925906786477
 30
0.0
 11
7905.006149832288
 21
7301.292408947418
 31
0.0
  0
LINE
  5
2B991
330
2B8A7
100
AcDbEntity
  8
HASHIRA
100
AcDbLine
 10
7498.500000000003
 20
5095.925906786473
 30
0.0
 11
7498.499999999997
 21
6783.285412400179
 31
0.0
  0
LINE
  5
2B992
330
2B8A7
100
AcDbEntity
  8
HASHIRA
100
AcDbLine
 10
7563.500000000003
 20
5095.925906786473
 30
0.0
 11
7563.499999999997
 21
6783.285412400179
 31
0.0
  0
LINE
  5
2B993
330
2B8A7
100
AcDbEntity
  8
1PL-M1
100
AcDbLine
 10
7531.000000000003
 20
5000.662751615202
 30
0.0
 11
7531.000000000003
 21
7326.509901909125
 31
0.0
  0
LINE
  5
2B994
330
2B8A7
100
AcDbEntity
  8
SUNPOU
100
AcDbLine
 10
4959.56379146521
 20
5185.92590678647
 30
0.0
 11
4855.640743011077
 21
5185.92590678647
 31
0.0
  0
TEXT
  5
2B995
330
2B8A7
100
AcDbEntity
  8
SUNPOU
100
AcDbText
 10
4839.030838666715
 20
5230.925906786469
 30
0.0
 40
90.0
  1
F.L
 41
0.6666666666666666
  7
00
 72
     4
 11
4907.602267238144
 21
5275.925906786469
 31
0.0
100
AcDbText
  0
LINE
  5
2B996
330
2B8A7
100
AcDbEntity
  8
KISO
100
AcDbLine
 10
4731.0
 20
5095.925906786473
 30
0.0
 11
4731.0
 21
5045.92590678647
 31
0.0
  0
LINE
  5
2B997
330
2B8A7
100
AcDbEntity
  8
SUNPOU
100
AcDbLine
 10
4407.494707517444
 20
5045.92590678647
 30
0.0
 11
4459.456231744511
 21
5135.92590678647
 31
0.0
  0
LINE
  5
2B998
330
2B8A7
100
AcDbEntity
  8
SUNPOU
100
AcDbLine
 10
4855.640743011077
 20
5185.92590678647
 30
0.0
 11
4907.602267238144
 21
5095.925906786473
 31
0.0
  0
LINE
  5
2B999
330
2B8A7
100
AcDbEntity
  8
SUNPOU
100
AcDbLine
 10
4907.602267238144
 20
5095.925906786473
 30
0.0
 11
4959.56379146521
 21
5185.92590678647
 31
0.0
  0
LINE
  5
2B99A
330
2B8A7
100
AcDbEntity
  8
HASHIRA
100
AcDbLine
 10
5048.500000000005
 20
5095.925906786473
 30
0.0
 11
5048.500000000002
 21
6783.285412400179
 31
0.0
  0
LINE
  5
2B99B
330
2B8A7
100
AcDbEntity
  8
HASHIRA
100
AcDbLine
 10
5113.500000000005
 20
5095.925906786473
 30
0.0
 11
5113.500000000001
 21
6783.285412400179
 31
0.0
  0
LINE
  5
2B99C
330
2B8A7
100
AcDbEntity
  8
KISO
100
AcDbLine
 10
7881.000000000003
 20
5095.925906786473
 30
0.0
 11
4731.0
 21
5095.925906786473
 31
0.0
  0
LINE
  5
2B99D
330
2B8A7
100
AcDbEntity
  8
KISO
100
AcDbLine
 10
4731.0
 20
5045.92590678647
 30
0.0
 11
7881.000000000003
 21
5045.925906786477
 31
0.0
  0
LINE
  5
2B99E
330
2B8A7
100
AcDbEntity
  8
1PL-M1
100
AcDbLine
 10
5081.000000000002
 20
5000.662751615202
 30
0.0
 11
5081.000000000002
 21
7326.509901909125
 31
0.0
  0
LINE
  5
2B99F
330
2B8A7
100
AcDbEntity
  8
SUNPOU
100
AcDbLine
 10
4355.533183290377
 20
5135.92590678647
 30
0.0
 11
4407.494707517444
 21
5045.92590678647
 31
0.0
  0
LINE
  5
2B9A0
330
2B8A7
100
AcDbEntity
  8
SUNPOU
100
AcDbLine
 10
4459.456231744511
 20
5135.92590678647
 30
0.0
 11
4355.533183290377
 21
5135.92590678647
 31
0.0
  0
TEXT
  5
2B9A1
330
2B8A7
100
AcDbEntity
  8
SUNPOU
100
AcDbText
 10
4336.066136088873
 20
5180.92590678647
 30
0.0
 40
90.0
  1
G.L
 41
0.6666666666666666
  7
00
 72
     4
 11
4407.494707517444
 21
5225.92590678647
 31
0.0
100
AcDbText
  0
LINE
  5
2B9A2
330
2B8A7
100
AcDbEntity
  8
U3
100
AcDbLine
 10
4731.0
 20
5045.92590678647
 30
0.0
 11
4269.639610306795
 21
5045.92590678647
 31
0.0
  0
LINE
  5
2B9A3
330
2B8A7
100
AcDbEntity
  8
KISO
100
AcDbLine
 10
7881.000000000003
 20
5095.925906786473
 30
0.0
 11
7881.000000000003
 21
5045.92590678647
 31
0.0
  0
LINE
  5
2B9A4
330
2B8A7
100
AcDbEntity
  8
鼻隠し
100
AcDbLine
 10
7905.006149832288
 20
7299.925906786477
 30
0.0
 11
7905.006149832292
 21
7166.509104897588
 31
0.0
  0
LINE
  5
2B9A5
330
2B8A7
100
AcDbEntity
  8
HASHIRA
  6
HIDE-L
 62
     6
100
AcDbLine
 10
6436.470352243384
 20
3203.451916760077
 30
0.0
 11
6436.470352243384
 21
775.1259195111079
 31
0.0
  0
LINE
  5
2B9A6
330
2B8A7
100
AcDbEntity
  8
HASHIRA
  6
HIDE-L
 62
     6
100
AcDbLine
 10
6439.170352243381
 20
3203.173374806844
 30
0.0
 11
6439.170352243381
 21
775.1259195111079
 31
0.0
  0
LINE
  5
2B9A7
330
2B8A7
100
AcDbEntity
  8
HASHIRA
  6
HIDE-L
 62
     6
100
AcDbLine
 10
6441.438728861786
 20
3202.939360712785
 30
0.0
 11
6441.438728861786
 21
775.1259195111079
 31
0.0
  0
LINE
  5
2B9A8
330
2B8A7
100
AcDbEntity
  8
HASHIRA
  6
HIDE-L
 62
     6
100
AcDbLine
 10
6439.81238326506
 20
3203.107140519875
 30
0.0
 11
6439.81238326506
 21
775.1259195111079
 31
0.0
  0
LINE
  5
2B9A9
330
2B8A7
100
AcDbEntity
  8
HASHIRA
  6
HIDE-L
 62
     6
100
AcDbLine
 10
6451.870352243378
 20
3201.863195989787
 30
0.0
 11
6451.870352243378
 21
775.1259195111079
 31
0.0
  0
LINE
  5
2B9AA
330
2B8A7
100
AcDbEntity
  8
HASHIRA
100
AcDbLine
 10
6454.17035224338
 20
3201.625919511108
 30
0.0
 11
6454.17035224338
 21
775.1259195111079
 31
0.0
  0
LINE
  5
2B9AB
330
2B8A7
100
AcDbEntity
  8
HASHIRA
  6
1PL-S
 62
     6
100
AcDbLine
 10
6416.670352243383
 20
3183.375919511107
 30
0.0
 11
6416.670352243383
 21
3156.875919511108
 31
0.0
  0
LINE
  5
2B9AC
330
2B8A7
100
AcDbEntity
  8
HASHIRA
  6
1PL-S
 62
     6
100
AcDbLine
 10
6416.670352243383
 20
3011.875919511108
 30
0.0
 11
6416.670352243383
 21
2985.375919511108
 31
0.0
  0
LINE
  5
2B9AD
330
2B8A7
100
AcDbEntity
  8
HASHIRA
  6
1PL-S
 62
     6
100
AcDbLine
 10
6416.670352243383
 20
846.8759195111079
 30
0.0
 11
6416.670352243383
 21
823.3759195111078
 31
0.0
  0
LINE
  5
2B9AE
330
2B8A7
100
AcDbEntity
  8
HASHIRA
  6
1PL-S
 62
     6
100
AcDbLine
 10
6416.670352243383
 20
806.1259195111079
 30
0.0
 11
6416.670352243383
 21
784.1259195111079
 31
0.0
  0
LINE
  5
2B9AF
330
2B8A7
100
AcDbEntity
  8
HASHIRA
  6
HIDE-L
 62
     6
100
AcDbLine
 10
6434.170352243381
 20
3203.689193238756
 30
0.0
 11
6434.170352243381
 21
775.1259195111079
 31
0.0
  0
LINE
  5
2B9B0
330
2B8A7
100
AcDbEntity
  8
HASHIRA
  6
HIDE-L
 62
     6
100
AcDbLine
 10
6381.470352243383
 20
775.1259195111079
 30
0.0
 11
6381.470352243383
 21
3209.125919511107
 31
0.0
  0
LINE
  5
2B9B1
330
2B8A7
100
AcDbEntity
  8
HASHIRA
100
AcDbLine
 10
6379.170352243383
 20
775.1259195111079
 30
0.0
 11
6379.170352243383
 21
3209.125919511107
 31
0.0
  0
LINE
  5
2B9B2
330
2B8A7
100
AcDbEntity
  8
HASHIRA
  6
1PL-S
 62
     6
100
AcDbLine
 10
6428.420352243382
 20
795.1259195111078
 30
0.0
 11
6404.920352243381
 21
795.1259195111078
 31
0.0
  0
LINE
  5
2B9B3
330
2B8A7
100
AcDbEntity
  8
HASHIRA
  6
1PL-S
 62
     6
100
AcDbLine
 10
6427.670352243383
 20
795.1259195111078
 30
0.0
 11
6405.67035224338
 21
795.1259195111078
 31
0.0
  0
LINE
  5
2B9B4
330
2B8A7
100
AcDbEntity
  8
HASHIRA
100
AcDbLine
 10
6379.170352243383
 20
775.1259195111079
 30
0.0
 11
6454.17035224338
 21
775.1259195111079
 31
0.0
  0
CIRCLE
  5
2B9B5
330
2B8A7
100
AcDbEntity
  8
HASHIRA
100
AcDbCircle
 10
6416.670352243383
 20
795.1259195111078
 30
0.0
 40
6.75
  0
LINE
  5
2B9B6
330
2B8A7
100
AcDbEntity
  8
HASHIRA
  6
1PL-S
 62
     6
100
AcDbLine
 10
6428.420352243382
 20
835.1259195111079
 30
0.0
 11
6404.920352243381
 21
835.1259195111079
 31
0.0
  0
CIRCLE
  5
2B9B7
330
2B8A7
100
AcDbEntity
  8
HASHIRA
100
AcDbCircle
 10
6416.670352243383
 20
835.1259195111079
 30
0.0
 40
6.75
  0
CIRCLE
  5
2B9B8
330
2B8A7
100
AcDbEntity
  8
HASHIRA
  6
HIDE-L
 62
     6
100
AcDbCircle
 10
6416.670352243383
 20
2998.625919511107
 30
0.0
 40
8.25
  0
LINE
  5
2B9B9
330
2B8A7
100
AcDbEntity
  8
HASHIRA
  6
1PL-S
 62
     6
100
AcDbLine
 10
6429.920352243382
 20
2998.625919511107
 30
0.0
 11
6403.420352243381
 21
2998.625919511107
 31
0.0
  0
CIRCLE
  5
2B9BA
330
2B8A7
100
AcDbEntity
  8
HASHIRA
100
AcDbCircle
 10
6416.670352243383
 20
2998.625919511107
 30
0.0
 40
7.25
  0
CIRCLE
  5
2B9BB
330
2B8A7
100
AcDbEntity
  8
HASHIRA
100
AcDbCircle
 10
6416.670352243383
 20
2998.625919511107
 30
0.0
 40
5.0
  0
CIRCLE
  5
2B9BC
330
2B8A7
100
AcDbEntity
  8
HASHIRA
100
AcDbCircle
 10
6416.670352243383
 20
2998.625919511107
 30
0.0
 40
4.0
  0
LINE
  5
2B9BD
330
2B8A7
100
AcDbEntity
  8
HASHIRA
100
AcDbLine
 10
6454.17035224338
 20
3201.625919511108
 30
0.0
 11
6381.470352243383
 21
3209.125919511107
 31
0.0
  0
LINE
  5
2B9BE
330
2B8A7
100
AcDbEntity
  8
HASHIRA
  6
1PL-S
 62
     6
100
AcDbLine
 10
6429.920352243382
 20
3170.125919511108
 30
0.0
 11
6403.420352243381
 21
3170.125919511108
 31
0.0
  0
CIRCLE
  5
2B9BF
330
2B8A7
100
AcDbEntity
  8
HASHIRA
100
AcDbCircle
 10
6416.670352243383
 20
3170.125919511108
 30
0.0
 40
7.25
  0
CIRCLE
  5
2B9C0
330
2B8A7
100
AcDbEntity
  8
HASHIRA
  6
HIDE-L
 62
     6
100
AcDbCircle
 10
6416.670352243383
 20
3170.125919511108
 30
0.0
 40
8.25
  0
CIRCLE
  5
2B9C1
330
2B8A7
100
AcDbEntity
  8
HASHIRA
100
AcDbCircle
 10
6416.670352243383
 20
3170.125919511108
 30
0.0
 40
5.0
  0
CIRCLE
  5
2B9C2
330
2B8A7
100
AcDbEntity
  8
HASHIRA
100
AcDbCircle
 10
6416.670352243383
 20
3170.125919511108
 30
0.0
 40
4.0
  0
LINE
  5
2B9C3
330
2B8A7
100
AcDbEntity
  8
HASHIRA
100
AcDbLine
 10
6379.170352243383
 20
3209.125919511107
 30
0.0
 11
6381.470352243383
 21
3209.125919511107
 31
0.0
  0
LINE
  5
2B9C4
330
2B8A7
100
AcDbEntity
  8
SANKAKU
  6
1PL-S
 62
     6
100
AcDbLine
 10
6416.670352243383
 20
3190.125919511108
 30
0.0
 11
6416.670352243383
 21
3150.125919511108
 31
0.0
  0
LINE
  5
2B9C5
330
2B8A7
100
AcDbEntity
  8
SANKAKU
  6
1PL-S
 62
     6
100
AcDbLine
 10
6416.670352243383
 20
3018.625919511108
 30
0.0
 11
6416.670352243383
 21
2978.625919511108
 31
0.0
  0
LINE
  5
2B9C6
330
2B8A7
100
AcDbEntity
  8
SANKAKU
  6
HIDE-S
 62
     6
100
AcDbLine
 10
6454.675978573263
 20
2968.125919511107
 30
0.0
 11
6378.669921481595
 21
2968.125919511107
 31
0.0
  0
LINE
  5
2B9C7
330
2B8A7
100
AcDbEntity
  8
SANKAKU
100
AcDbLine
 10
6167.923492966728
 20
3310.50762131524
 30
0.0
 11
6665.417211520035
 21
3260.50762131524
 31
0.0
  0
LINE
  5
2B9C8
330
2B8A7
100
AcDbEntity
  8
SANKAKU
  6
HIDE-S
 62
     6
100
AcDbLine
 10
6167.923492966728
 20
3310.50762131524
 30
0.0
 11
6159.823492966729
 21
3229.913638909605
 31
0.0
  0
LINE
  5
2B9C9
330
2B8A7
100
AcDbEntity
  8
SANKAKU
  6
HIDE-S
 62
     6
100
AcDbLine
 10
6665.417211520035
 20
3260.50762131524
 30
0.0
 11
6657.317211520035
 21
3179.913638909605
 31
0.0
  0
LINE
  5
2B9CA
330
2B8A7
100
AcDbEntity
  8
SANKAKU
  6
HIDE-L
 62
     6
100
AcDbLine
 10
6167.693492966725
 20
3308.219150209895
 30
0.0
 11
6665.187211520038
 21
3258.219150209895
 31
0.0
  0
LINE
  5
2B9CB
330
2B8A7
100
AcDbEntity
  8
SANKAKU
  6
1PL-S
 62
     6
100
AcDbLine
 10
6436.670352243382
 20
3170.125919511108
 30
0.0
 11
6396.670352243383
 21
3170.125919511108
 31
0.0
  0
CIRCLE
  5
2B9CC
330
2B8A7
100
AcDbEntity
  8
SANKAKU
  6
HIDE-S
 62
     6
100
AcDbCircle
 10
6416.670352243383
 20
3170.125919511108
 30
0.0
 40
6.0
  0
CIRCLE
  5
2B9CD
330
2B8A7
100
AcDbEntity
  8
SANKAKU
  6
HIDE-S
 62
     6
100
AcDbCircle
 10
6416.670352243383
 20
3170.125919511108
 30
0.0
 40
11.0
  0
CIRCLE
  5
2B9CE
330
2B8A7
100
AcDbEntity
  8
SANKAKU
  6
HIDE-S
 62
     6
100
AcDbCircle
 10
6416.670352243383
 20
3170.125919511108
 30
0.0
 40
12.5
  0
CIRCLE
  5
2B9CF
330
2B8A7
100
AcDbEntity
  8
SANKAKU
  6
HIDE-S
 62
     6
100
AcDbCircle
 10
6416.670352243383
 20
2998.625919511107
 30
0.0
 40
12.5
  0
CIRCLE
  5
2B9D0
330
2B8A7
100
AcDbEntity
  8
SANKAKU
  6
HIDE-S
 62
     6
100
AcDbCircle
 10
6416.670352243383
 20
2998.625919511107
 30
0.0
 40
11.0
  0
CIRCLE
  5
2B9D1
330
2B8A7
100
AcDbEntity
  8
SANKAKU
  6
HIDE-S
 62
     6
100
AcDbCircle
 10
6416.670352243383
 20
2998.625919511107
 30
0.0
 40
6.0
  0
LINE
  5
2B9D2
330
2B8A7
100
AcDbEntity
  8
SANKAKU
  6
1PL-S
 62
     6
100
AcDbLine
 10
6436.670352243382
 20
2998.625919511107
 30
0.0
 11
6396.670352243383
 21
2998.625919511107
 31
0.0
  0
LINE
  5
2B9D3
330
2B8A7
100
AcDbEntity
  8
SANKAKU
  6
1PL-S
 62
     6
100
AcDbLine
 10
6215.622864822056
 20
3285.110378854553
 30
0.0
 11
6211.622864822056
 21
3245.31088137029
 31
0.0
  0
LINE
  5
2B9D4
330
2B8A7
100
AcDbEntity
  8
SANKAKU
  6
1PL-S
 62
     6
100
AcDbLine
 10
6613.617839664707
 20
3245.110378854555
 30
0.0
 11
6609.617839664707
 21
3205.310881370291
 31
0.0
  0
LINE
  5
2B9D5
330
2B8A7
100
AcDbEntity
  8
SANKAKU
  6
1PL-S
 62
     6
100
AcDbLine
 10
6193.723116079926
 20
3267.210630112423
 30
0.0
 11
6233.522613564193
 21
3263.210630112423
 31
0.0
  0
LINE
  5
2B9D6
330
2B8A7
100
AcDbEntity
  8
SANKAKU
  6
1PL-S
 62
     6
100
AcDbLine
 10
6591.71809092257
 20
3227.210630112421
 30
0.0
 11
6631.517588406834
 21
3223.210630112421
 31
0.0
  0
CIRCLE
  5
2B9D7
330
2B8A7
100
AcDbEntity
  8
SANKAKU
  6
HIDE-S
 62
     6
100
AcDbCircle
 10
6611.617839664707
 20
3225.210630112423
 30
0.0
 40
12.5
  0
CIRCLE
  5
2B9D8
330
2B8A7
100
AcDbEntity
  8
SANKAKU
  6
HIDE-S
 62
     6
100
AcDbCircle
 10
6611.617839664707
 20
3225.210630112423
 30
0.0
 40
11.0
  0
CIRCLE
  5
2B9D9
330
2B8A7
100
AcDbEntity
  8
SANKAKU
  6
HIDE-S
 62
     6
100
AcDbCircle
 10
6611.617839664707
 20
3225.210630112423
 30
0.0
 40
6.0
  0
CIRCLE
  5
2B9DA
330
2B8A7
100
AcDbEntity
  8
SANKAKU
  6
HIDE-S
 62
     6
100
AcDbCircle
 10
6213.622864822056
 20
3265.210630112423
 30
0.0
 40
12.5
  0
CIRCLE
  5
2B9DB
330
2B8A7
100
AcDbEntity
  8
SANKAKU
  6
HIDE-S
 62
     6
100
AcDbCircle
 10
6213.622864822056
 20
3265.210630112423
 30
0.0
 40
11.0
  0
CIRCLE
  5
2B9DC
330
2B8A7
100
AcDbEntity
  8
SANKAKU
  6
HIDE-S
 62
     6
100
AcDbCircle
 10
6213.622864822056
 20
3265.210630112423
 30
0.0
 40
6.0
  0
ARC
  5
2B9DD
330
2B8A7
100
AcDbEntity
  8
SANKAKU
100
AcDbCircle
 10
5946.873352376291
 20
2833.489323784367
 30
0.0
 40
450.0
100
AcDbArc
 50
17.30831855327305
 51
61.75631760499999
  0
ARC
  5
2B9DE
330
2B8A7
100
AcDbEntity
  8
SANKAKU
  6
HIDE-L
 62
     6
100
AcDbCircle
 10
5946.873352376291
 20
2833.489323784367
 30
0.0
 40
452.3
100
AcDbArc
 50
17.31777187835253
 51
61.87697552248227
  0
ARC
  5
2B9DF
330
2B8A7
100
AcDbEntity
  8
SANKAKU
100
AcDbCircle
 10
6788.458266472495
 20
2855.410905938129
 30
0.0
 40
350.0
100
AcDbArc
 50
112.0050756645566
 51
161.3442910395519
  0
ARC
  5
2B9E0
330
2B8A7
100
AcDbEntity
  8
SANKAKU
  6
HIDE-L
 62
     6
100
AcDbCircle
 10
6788.458266472495
 20
2855.410905938129
 30
0.0
 40
352.3
100
AcDbArc
 50
112.0050756645566
 51
161.3406776024143
  0
ARC
  5
2B9E1
330
2B8A7
100
AcDbEntity
  8
SANKAKU
  6
HIDE-S
 62
     6
100
AcDbCircle
 10
6788.458266472495
 20
2855.410905938129
 30
0.0
 40
370.0
100
AcDbArc
 50
120.2149754166317
 51
147.1532297771698
  0
ARC
  5
2B9E2
330
2B8A7
100
AcDbEntity
  8
SANKAKU
100
AcDbCircle
 10
6788.458266472495
 20
2855.410905938129
 30
0.0
 40
376.0
100
AcDbArc
 50
120.2149754166317
 51
147.1532297771698
  0
LINE
  5
2B9E3
330
2B8A7
100
AcDbEntity
  8
SANKAKU
  6
HIDE-S
 62
     6
100
AcDbLine
 10
6236.282764630151
 20
3241.023400120059
 30
0.0
 11
6370.770352243379
 21
3227.506888996631
 31
0.0
  0
LINE
  5
2B9E4
330
2B8A7
100
AcDbEntity
  8
SANKAKU
  6
HIDE-S
 62
     6
100
AcDbLine
 10
6448.17035224338
 20
3202.039230757963
 30
0.0
 11
6448.17035224338
 21
3064.775059233131
 31
0.0
  0
LINE
  5
2B9E5
330
2B8A7
100
AcDbEntity
  8
SANKAKU
100
AcDbLine
 10
6454.17035224338
 20
3202.039230757963
 30
0.0
 11
6454.17035224338
 21
3064.775059233131
 31
0.0
  0
ARC
  5
2B9E6
330
2B8A7
100
AcDbEntity
  8
SANKAKU
  6
HIDE-S
 62
     6
100
AcDbCircle
 10
6464.170352243383
 20
3202.039230757963
 30
0.0
 40
10.0
100
AcDbArc
 50
84.26082952271237
 51
180.0
  0
LINE
  5
2B9E7
330
2B8A7
100
AcDbEntity
  8
SANKAKU
100
AcDbLine
 10
6379.170352243383
 20
3211.587090002925
 30
0.0
 11
6379.170352243383
 21
3074.032966193084
 31
0.0
  0
LINE
  5
2B9E8
330
2B8A7
100
AcDbEntity
  8
SANKAKU
  6
HIDE-S
 62
     6
100
AcDbLine
 10
6385.170352243381
 20
3211.587090002925
 30
0.0
 11
6385.170352243381
 21
3074.032966193084
 31
0.0
  0
ARC
  5
2B9E9
330
2B8A7
100
AcDbEntity
  8
SANKAKU
  6
HIDE-S
 62
     6
100
AcDbCircle
 10
5946.873352376291
 20
2833.489323784367
 30
0.0
 40
470.0
100
AcDbArc
 50
29.66617416804087
 51
53.68668615359335
  0
ARC
  5
2B9EA
330
2B8A7
100
AcDbEntity
  8
SANKAKU
100
AcDbCircle
 10
5946.873352376291
 20
2833.489323784367
 30
0.0
 40
476.0
100
AcDbArc
 50
29.66617416804087
 51
53.68668615359335
  0
LINE
  5
2B9EB
330
2B8A7
100
AcDbEntity
  8
SANKAKU
  6
HIDE-S
 62
     6
100
AcDbLine
 10
6235.682764630152
 20
3235.053475497421
 30
0.0
 11
6370.170352243381
 21
3221.536964373991
 31
0.0
  0
LINE
  5
2B9EC
330
2B8A7
100
AcDbEntity
  8
SANKAKU
  6
HIDE-S
 62
     6
100
AcDbLine
 10
6465.17035224338
 20
3211.98910512903
 30
0.0
 11
6595.20537793251
 21
3198.92009331645
 31
0.0
  0
LINE
  5
2B9ED
330
2B8A7
100
AcDbEntity
  8
SANKAKU
  6
HIDE-S
 62
     6
100
AcDbLine
 10
6465.770352243379
 20
3217.959029751669
 30
0.0
 11
6595.805377932514
 21
3204.890017939092
 31
0.0
  0
ARC
  5
2B9EE
330
2B8A7
100
AcDbEntity
  8
SANKAKU
  6
HIDE-S
 62
     6
100
AcDbCircle
 10
6369.170352243383
 20
3211.587090002925
 30
0.0
 40
10.0
100
AcDbArc
 50
0.0
 51
84.26082952271237
  0
ARC
  5
2B9EF
330
2B8A7
100
AcDbEntity
  8
SANKAKU
  6
HIDE-S
 62
     6
100
AcDbCircle
 10
6234.682764630153
 20
3225.103601126355
 30
0.0
 40
10.0
100
AcDbArc
 50
84.26082952271237
 51
172.5416982018535
  0
ARC
  5
2B9F0
330
2B8A7
100
AcDbEntity
  8
SANKAKU
100
AcDbCircle
 10
6234.682764630153
 20
3225.103601126355
 30
0.0
 40
10.0
100
AcDbArc
 50
172.5416982018535
 51
233.6866861535933
  0
ARC
  5
2B9F1
330
2B8A7
100
AcDbEntity
  8
SANKAKU
100
AcDbCircle
 10
6369.170352243383
 20
3074.032966193084
 30
0.0
 40
10.0
100
AcDbArc
 50
209.666174168041
 51
0.0
  0
ARC
  5
2B9F2
330
2B8A7
100
AcDbEntity
  8
SANKAKU
  6
HIDE-S
 62
     6
100
AcDbCircle
 10
6234.682764630153
 20
3225.103601126355
 30
0.0
 40
16.0
100
AcDbArc
 50
84.26082952271237
 51
233.6866861535933
  0
ARC
  5
2B9F3
330
2B8A7
100
AcDbEntity
  8
SANKAKU
  6
HIDE-S
 62
     6
100
AcDbCircle
 10
6369.170352243383
 20
3211.587090002925
 30
0.0
 40
16.0
100
AcDbArc
 50
0.0
 51
84.26082952271237
  0
ARC
  5
2B9F4
330
2B8A7
100
AcDbEntity
  8
SANKAKU
  6
HIDE-S
 62
     6
100
AcDbCircle
 10
6369.170352243383
 20
3074.032966193084
 30
0.0
 40
16.0
100
AcDbArc
 50
209.666174168041
 51
0.0
  0
ARC
  5
2B9F5
330
2B8A7
100
AcDbEntity
  8
SANKAKU
  6
HIDE-S
 62
     6
100
AcDbCircle
 10
6464.170352243383
 20
3202.039230757963
 30
0.0
 40
16.0
100
AcDbArc
 50
84.26082952271237
 51
180.0
  0
ARC
  5
2B9F6
330
2B8A7
100
AcDbEntity
  8
SANKAKU
  6
HIDE-S
 62
     6
100
AcDbCircle
 10
6594.205377932509
 20
3188.970218945385
 30
0.0
 40
16.0
100
AcDbArc
 50
300.2149754166317
 51
84.26082952271237
  0
ARC
  5
2B9F7
330
2B8A7
100
AcDbEntity
  8
SANKAKU
  6
HIDE-S
 62
     6
100
AcDbCircle
 10
6464.170352243383
 20
3064.775059233131
 30
0.0
 40
16.0
100
AcDbArc
 50
180.0
 51
327.1532297771698
  0
ARC
  5
2B9F8
330
2B8A7
100
AcDbEntity
  8
SANKAKU
100
AcDbCircle
 10
6594.205377932509
 20
3188.970218945385
 30
0.0
 40
10.0
100
AcDbArc
 50
300.2149754166317
 51
355.9799608436297
  0
ARC
  5
2B9F9
330
2B8A7
100
AcDbEntity
  8
SANKAKU
  6
HIDE-S
 62
     6
100
AcDbCircle
 10
6594.205377932509
 20
3188.970218945385
 30
0.0
 40
10.0
100
AcDbArc
 50
355.9799608436297
 51
84.26082952271237
  0
ARC
  5
2B9FA
330
2B8A7
100
AcDbEntity
  8
SANKAKU
100
AcDbCircle
 10
6464.170352243383
 20
3064.775059233131
 30
0.0
 40
10.0
100
AcDbArc
 50
180.0
 51
327.1532297771698
  0
LINE
  5
2B9FB
330
2B8A7
100
AcDbEntity
  8
SANKAKU
100
AcDbLine
 10
6456.84802373333
 20
2967.369143287932
 30
0.0
 11
6454.670504959423
 21
2968.125919511107
 31
0.0
  0
LINE
  5
2B9FC
330
2B8A7
100
AcDbEntity
  8
SANKAKU
100
AcDbLine
 10
6376.49627900432
 20
2967.370393826275
 30
0.0
 11
6378.670199527338
 21
2968.125919511107
 31
0.0
  0
CIRCLE
  5
2B9FD
330
2B8A7
100
AcDbEntity
  8
HARI
  6
HIDE-L
 62
     6
100
AcDbCircle
 10
6611.617839664707
 20
3225.210630112423
 30
0.0
 40
8.249999999999998
  0
CIRCLE
  5
2B9FE
330
2B8A7
100
AcDbEntity
  8
HARI
100
AcDbCircle
 10
6611.617839664707
 20
3225.210630112423
 30
0.0
 40
7.249999999999998
  0
CIRCLE
  5
2B9FF
330
2B8A7
100
AcDbEntity
  8
HARI
100
AcDbCircle
 10
6611.617839664707
 20
3225.210630112423
 30
0.0
 40
3.999999999999999
  0
CIRCLE
  5
2BA00
330
2B8A7
100
AcDbEntity
  8
HARI
100
AcDbCircle
 10
6611.617839664707
 20
3225.210630112423
 30
0.0
 40
4.999999999999999
  0
LINE
  5
2BA01
330
2B8A7
100
AcDbEntity
  8
HARI
  6
HIDE-L
 62
     6
100
AcDbLine
 10
5734.573957825348
 20
3348.734187898575
 30
0.0
 11
7097.706746661413
 21
3211.734187898577
 31
0.0
  0
LINE
  5
2BA02
330
2B8A7
100
AcDbEntity
  8
HARI
100
AcDbLine
 10
5734.803957825349
 20
3351.02265900392
 30
0.0
 11
7097.936746661416
 21
3214.022659003922
 31
0.0
  0
LINE
  5
2BA03
330
2B8A7
100
AcDbEntity
  8
HARI
  6
1PL-S
 62
     6
100
AcDbLine
 10
5725.581526921261
 20
3314.26063011242
 30
0.0
 11
5746.476263100498
 21
3312.160630112423
 31
0.0
  0
LINE
  5
2BA04
330
2B8A7
100
AcDbEntity
  8
HARI
  6
1PL-S
 62
     6
100
AcDbLine
 10
5760.40608721999
 20
3310.760630112421
 30
0.0
 11
5781.300823399232
 21
3308.660630112422
 31
0.0
  0
LINE
  5
2BA05
330
2B8A7
100
AcDbEntity
  8
HARI
  6
1PL-S
 62
     6
100
AcDbLine
 10
6200.439281280395
 20
3266.535630112422
 30
0.0
 11
6226.806448363721
 21
3263.885630112423
 31
0.0
  0
LINE
  5
2BA06
330
2B8A7
100
AcDbEntity
  8
HARI
  6
1PL-S
 62
     6
100
AcDbLine
 10
6598.434256123043
 20
3226.535630112422
 30
0.0
 11
6624.80142320637
 21
3223.885630112423
 31
0.0
  0
LINE
  5
2BA07
330
2B8A7
100
AcDbEntity
  8
HARI
  6
1PL-S
 62
     6
100
AcDbLine
 10
7043.939881087536
 20
3181.760630112423
 30
0.0
 11
7064.834617266773
 21
3179.660630112424
 31
0.0
  0
LINE
  5
2BA08
330
2B8A7
100
AcDbEntity
  8
HARI
  6
1PL-S
 62
     6
100
AcDbLine
 10
7078.764441386266
 20
3178.260630112424
 30
0.0
 11
7099.659177565502
 21
3176.160630112423
 31
0.0
  0
LINE
  5
2BA09
330
2B8A7
100
AcDbEntity
  8
HARI
  6
HIDE-L
 62
     6
100
AcDbLine
 10
7100.616621032488
 20
3140.687072326272
 30
0.0
 11
5717.584083454283
 21
3279.687072326268
 31
0.0
  0
LINE
  5
2BA0A
330
2B8A7
100
AcDbEntity
  8
HARI
100
AcDbLine
 10
7100.386621032484
 20
3138.398601220925
 30
0.0
 11
5717.354083454278
 21
3277.398601220923
 31
0.0
  0
LINE
  5
2BA0B
330
2B8A7
100
AcDbEntity
  8
HARI
  6
1PL-S
 62
     6
100
AcDbLine
 10
5737.078895010882
 20
3323.65799820204
 30
0.0
 11
5734.97889501088
 21
3302.763262022802
 31
0.0
  0
LINE
  5
2BA0C
330
2B8A7
100
AcDbEntity
  8
HARI
100
AcDbLine
 10
5717.354083454278
 20
3277.398601220923
 30
0.0
 11
5718.154083454282
 21
3285.358500717775
 31
0.0
  0
CIRCLE
  5
2BA0D
330
2B8A7
100
AcDbEntity
  8
HARI
100
AcDbCircle
 10
5736.028895010878
 20
3313.210630112421
 30
0.0
 40
5.999999999999999
  0
LINE
  5
2BA0E
330
2B8A7
100
AcDbEntity
  8
HARI
  6
1PL-S
 62
     6
100
AcDbLine
 10
5771.903455309614
 20
3320.157998202041
 30
0.0
 11
5769.803455309614
 21
3299.263262022801
 31
0.0
  0
CIRCLE
  5
2BA0F
330
2B8A7
100
AcDbEntity
  8
HARI
100
AcDbCircle
 10
5770.853455309611
 20
3309.710630112423
 30
0.0
 40
5.999999999999999
  0
LINE
  5
2BA10
330
2B8A7
100
AcDbEntity
  8
HARI
  6
1PL-S
 62
     6
100
AcDbLine
 10
6214.94786482206
 20
3278.394213654086
 30
0.0
 11
6212.297864822058
 21
3252.027046570759
 31
0.0
  0
CIRCLE
  5
2BA11
330
2B8A7
100
AcDbEntity
  8
HARI
100
AcDbCircle
 10
6213.622864822056
 20
3265.210630112423
 30
0.0
 40
7.249999999999998
  0
CIRCLE
  5
2BA12
330
2B8A7
100
AcDbEntity
  8
HARI
  6
HIDE-L
 62
     6
100
AcDbCircle
 10
6213.622864822056
 20
3265.210630112423
 30
0.0
 40
8.249999999999998
  0
CIRCLE
  5
2BA13
330
2B8A7
100
AcDbEntity
  8
HARI
100
AcDbCircle
 10
6213.622864822056
 20
3265.210630112423
 30
0.0
 40
4.999999999999999
  0
CIRCLE
  5
2BA14
330
2B8A7
100
AcDbEntity
  8
HARI
100
AcDbCircle
 10
6213.622864822056
 20
3265.210630112423
 30
0.0
 40
3.999999999999999
  0
LINE
  5
2BA15
330
2B8A7
100
AcDbEntity
  8
HARI
  6
1PL-S
 62
     6
100
AcDbLine
 10
6612.942839664704
 20
3238.394213654085
 30
0.0
 11
6610.292839664703
 21
3212.02704657076
 31
0.0
  0
LINE
  5
2BA16
330
2B8A7
100
AcDbEntity
  8
HARI
  6
1PL-S
 62
     6
100
AcDbLine
 10
7055.437249177149
 20
3191.157998202044
 30
0.0
 11
7053.33724917715
 21
3170.263262022805
 31
0.0
  0
LINE
  5
2BA17
330
2B8A7
100
AcDbEntity
  8
HARI
  6
1PL-S
 62
     6
100
AcDbLine
 10
7090.261809475888
 20
3187.657998202044
 30
0.0
 11
7088.161809475888
 21
3166.763262022805
 31
0.0
  0
CIRCLE
  5
2BA18
330
2B8A7
100
AcDbEntity
  8
HARI
100
AcDbCircle
 10
7054.387249177153
 20
3180.710630112423
 30
0.0
 40
5.999999999999999
  0
CIRCLE
  5
2BA19
330
2B8A7
100
AcDbEntity
  8
HARI
100
AcDbCircle
 10
7089.211809475886
 20
3177.210630112423
 30
0.0
 40
5.999999999999999
  0
LINE
  5
2BA1A
330
2B8A7
100
AcDbEntity
  8
HARI
100
AcDbLine
 10
7100.386621032484
 20
3138.398601220925
 30
0.0
 11
7101.186621032486
 21
3146.358500717779
 31
0.0
  0
LINE
  5
2BA1B
330
2B8A7
100
AcDbEntity
  8
KETA_KANAGU
  6
HIDE-S
 62
     6
100
AcDbLine
 10
7112.273087112669
 20
3229.667445434735
 30
0.0
 11
7103.873087112674
 21
3146.088500717779
 31
0.0
  0
LINE
  5
2BA1C
330
2B8A7
100
AcDbEntity
  8
KETA_KANAGU
  6
HIDE-S
 62
     6
100
AcDbLine
 10
7038.425971540367
 20
3198.897922824682
 30
0.0
 11
7033.825971540368
 21
3153.128500717778
 31
0.0
  0
LINE
  5
2BA1D
330
2B8A7
100
AcDbEntity
  8
KETA_KANAGU
100
AcDbLine
 10
7099.636746661416
 20
3230.937445434735
 30
0.0
 11
7091.236746661415
 21
3147.358500717778
 31
0.0
  0
LINE
  5
2BA1E
330
2B8A7
100
AcDbEntity
  8
KETA_KANAGU
  6
HIDE-S
 62
     6
100
AcDbLine
 10
7036.137500435017
 20
3199.127922824683
 30
0.0
 11
7031.53750043502
 21
3153.358500717779
 31
0.0
  0
LINE
  5
2BA1F
330
2B8A7
100
AcDbEntity
  8
KETA_KANAGU
100
AcDbLine
 10
7114.561558218017
 20
3229.437445434735
 30
0.0
 11
7106.161558218015
 21
3145.858500717779
 31
0.0
  0
LINE
  5
2BA20
330
2B8A7
100
AcDbEntity
  8
KETA_KANAGU
  6
HIDE-S
 62
     6
100
AcDbLine
 10
7106.161558218015
 20
3145.858500717779
 30
0.0
 11
7031.53750043502
 21
3153.358500717779
 31
0.0
  0
LINE
  5
2BA21
330
2B8A7
100
AcDbEntity
  8
KETA_KANAGU
  6
HIDE-S
 62
     6
100
AcDbLine
 10
7097.436746661418
 20
3209.047721818389
 30
0.0
 11
7051.667324554516
 21
3213.647721818389
 31
0.0
  0
LINE
  5
2BA22
330
2B8A7
100
AcDbEntity
  8
KETA_KANAGU
  6
1PL-S
 62
     6
100
AcDbLine
 10
7100.156671284057
 20
3176.110630112424
 30
0.0
 11
7043.442387368981
 21
3181.810630112423
 31
0.0
  0
LINE
  5
2BA23
330
2B8A7
100
AcDbEntity
  8
KETA_KANAGU
  6
HIDE-S
 62
     6
100
AcDbLine
 10
7046.19238736898
 20
3209.172784632856
 30
0.0
 11
7045.09238736898
 21
3198.227922824683
 31
0.0
  0
LINE
  5
2BA24
330
2B8A7
100
AcDbEntity
  8
KETA_KANAGU
  6
HIDE-S
 62
     6
100
AcDbLine
 10
7045.09238736898
 20
3198.227922824683
 30
0.0
 11
7036.137500435017
 21
3199.127922824683
 31
0.0
  0
CIRCLE
  5
2BA25
330
2B8A7
100
AcDbEntity
  8
KETA_KANAGU
100
AcDbCircle
 10
7054.387249177153
 20
3180.710630112423
 30
0.0
 40
5.999999999999999
  0
LINE
  5
2BA26
330
2B8A7
100
AcDbEntity
  8
KETA_KANAGU
  6
1PL-S
 62
     6
100
AcDbLine
 10
7055.487249177152
 20
3191.655491920597
 30
0.0
 11
7053.287249177156
 21
3169.765768304252
 31
0.0
  0
ARC
  5
2BA27
330
2B8A7
100
AcDbEntity
  8
KETA_KANAGU
  6
HIDE-S
 62
     6
100
AcDbCircle
 10
7051.167324554517
 20
3208.672784632855
 30
0.0
 40
4.999999999999999
100
AcDbArc
 50
84.26082952271237
 51
174.2608295227396
  0
ARC
  5
2BA28
330
2B8A7
100
AcDbEntity
  8
KETA_KANAGU
  6
HIDE-S
 62
     6
100
AcDbCircle
 10
7089.211809475886
 20
3177.210630112423
 30
0.0
 40
5.999999999999999
100
AcDbArc
 50
320.7035197607908
 51
27.81813928464915
  0
LINE
  5
2BA29
330
2B8A7
100
AcDbEntity
  8
KETA_KANAGU
  6
1PL-S
 62
     6
100
AcDbLine
 10
7090.311809475882
 20
3188.155491920597
 30
0.0
 11
7088.111809475885
 21
3166.265768304251
 31
0.0
  0
ARC
  5
2BA2A
330
2B8A7
100
AcDbEntity
  8
KETA_KANAGU
100
AcDbCircle
 10
7089.211809475886
 20
3177.210630112423
 30
0.0
 40
5.999999999999999
100
AcDbArc
 50
27.81813928464915
 51
320.7035197607908
  0
LINE
  5
2BA2B
330
2B8A7
100
AcDbEntity
  8
KETA_KANAGU
  6
HIDE-S
 62
     6
100
AcDbLine
 10
7112.361558218021
 20
3207.547721818389
 30
0.0
 11
7097.436746661418
 21
3209.047721818389
 31
0.0
  0
LINE
  5
2BA2C
330
2B8A7
100
AcDbEntity
  8
KETA_KANAGU
100
AcDbLine
 10
7114.561558218017
 20
3229.437445434735
 30
0.0
 11
7099.636746661416
 21
3230.937445434735
 31
0.0
  0
LINE
  5
2BA2D
330
2B8A7
100
AcDbEntity
  8
KETA_KANAGU
  6
HIDE-S
 62
     6
100
AcDbLine
 10
7111.961558218017
 20
3203.567772069963
 30
0.0
 11
7109.673087112671
 21
3203.797772069963
 31
0.0
  0
LINE
  5
2BA2E
330
2B8A7
100
AcDbEntity
  8
KETA_KANAGU
  6
HIDE-S
 62
     6
100
AcDbLine
 10
7113.161558218017
 20
3215.507621315242
 30
0.0
 11
7110.873087112675
 21
3215.737621315241
 31
0.0
  0
LINE
  5
2BA2F
330
2B8A7
100
AcDbEntity
  8
KETA_KANAGU
  6
1PL-S
 62
     6
100
AcDbLine
 10
7117.536495403553
 20
3209.037696692603
 30
0.0
 11
7105.298149927141
 21
3210.2676966926
 31
0.0
  0
LINE
  5
2BA30
330
2B8A7
100
AcDbEntity
  8
KETA_KANAGU
  6
1PL-S
 62
     6
100
AcDbLine
 10
7112.536495403553
 20
3159.288324837271
 30
0.0
 11
7100.298149927141
 21
3160.518324837271
 31
0.0
  0
LINE
  5
2BA31
330
2B8A7
100
AcDbEntity
  8
KETA_KANAGU
  6
HIDE-S
 62
     6
100
AcDbLine
 10
7108.161558218016
 20
3165.758249459911
 30
0.0
 11
7105.873087112674
 21
3165.98824945991
 31
0.0
  0
LINE
  5
2BA32
330
2B8A7
100
AcDbEntity
  8
KETA_KANAGU
  6
HIDE-S
 62
     6
100
AcDbLine
 10
7106.961558218017
 20
3153.818400214632
 30
0.0
 11
7104.673087112669
 21
3154.048400214632
 31
0.0
  0
LINE
  5
2BA33
330
2B8A7
100
AcDbEntity
  8
KETA_KANAGU
  6
HIDE-S
 62
     6
100
AcDbLine
 10
5723.867617374093
 20
3369.207445434732
 30
0.0
 11
5715.467617374095
 21
3285.628500717777
 31
0.0
  0
LINE
  5
2BA34
330
2B8A7
100
AcDbEntity
  8
KETA_KANAGU
  6
HIDE-S
 62
     6
100
AcDbLine
 10
5790.114732946399
 20
3324.357922824681
 30
0.0
 11
5785.514732946403
 21
3278.588500717776
 31
0.0
  0
LINE
  5
2BA35
330
2B8A7
100
AcDbEntity
  8
KETA_KANAGU
100
AcDbLine
 10
5736.503957825348
 20
3367.937445434733
 30
0.0
 11
5728.103957825346
 21
3284.358500717778
 31
0.0
  0
LINE
  5
2BA36
330
2B8A7
100
AcDbEntity
  8
KETA_KANAGU
  6
HIDE-S
 62
     6
100
AcDbLine
 10
5792.403204051744
 20
3324.12792282468
 30
0.0
 11
5787.803204051741
 21
3278.358500717775
 31
0.0
  0
LINE
  5
2BA37
330
2B8A7
100
AcDbEntity
  8
KETA_KANAGU
100
AcDbLine
 10
5721.579146268748
 20
3369.437445434732
 30
0.0
 11
5713.179146268746
 21
3285.858500717778
 31
0.0
  0
LINE
  5
2BA38
330
2B8A7
100
AcDbEntity
  8
KETA_KANAGU
  6
HIDE-S
 62
     6
100
AcDbLine
 10
5713.179146268746
 20
3285.858500717778
 30
0.0
 11
5787.803204051741
 21
3278.358500717775
 31
0.0
  0
LINE
  5
2BA39
330
2B8A7
100
AcDbEntity
  8
KETA_KANAGU
  6
HIDE-S
 62
     6
100
AcDbLine
 10
5734.303957825346
 20
3346.047721818386
 30
0.0
 11
5780.073379932254
 21
3341.447721818386
 31
0.0
  0
LINE
  5
2BA3A
330
2B8A7
100
AcDbEntity
  8
KETA_KANAGU
  6
1PL-S
 62
     6
100
AcDbLine
 10
5725.084033202707
 20
3314.310630112422
 30
0.0
 11
5781.798317117782
 21
3308.610630112422
 31
0.0
  0
LINE
  5
2BA3B
330
2B8A7
100
AcDbEntity
  8
KETA_KANAGU
  6
HIDE-S
 62
     6
100
AcDbLine
 10
5784.548317117783
 20
3335.972784632855
 30
0.0
 11
5783.448317117784
 21
3325.027922824681
 31
0.0
  0
LINE
  5
2BA3C
330
2B8A7
100
AcDbEntity
  8
KETA_KANAGU
  6
HIDE-S
 62
     6
100
AcDbLine
 10
5783.448317117784
 20
3325.027922824681
 30
0.0
 11
5792.403204051744
 21
3324.12792282468
 31
0.0
  0
CIRCLE
  5
2BA3D
330
2B8A7
100
AcDbEntity
  8
KETA_KANAGU
100
AcDbCircle
 10
5770.853455309611
 20
3309.710630112423
 30
0.0
 40
5.999999999999999
  0
LINE
  5
2BA3E
330
2B8A7
100
AcDbEntity
  8
KETA_KANAGU
  6
1PL-S
 62
     6
100
AcDbLine
 10
5771.953455309612
 20
3320.655491920595
 30
0.0
 11
5769.753455309611
 21
3298.765768304248
 31
0.0
  0
ARC
  5
2BA3F
330
2B8A7
100
AcDbEntity
  8
KETA_KANAGU
  6
HIDE-S
 62
     6
100
AcDbCircle
 10
5779.573379932253
 20
3336.472784632855
 30
0.0
 40
4.999999999999999
100
AcDbArc
 50
354.2608295227396
 51
84.26082952271237
  0
ARC
  5
2BA40
330
2B8A7
100
AcDbEntity
  8
KETA_KANAGU
  6
HIDE-S
 62
     6
100
AcDbCircle
 10
5736.028895010878
 20
3313.210630112421
 30
0.0
 40
5.999999999999999
100
AcDbArc
 50
140.7035197607907
 51
207.8181392846492
  0
LINE
  5
2BA41
330
2B8A7
100
AcDbEntity
  8
KETA_KANAGU
  6
1PL-S
 62
     6
100
AcDbLine
 10
5737.128895010878
 20
3324.155491920595
 30
0.0
 11
5734.928895010881
 21
3302.265768304248
 31
0.0
  0
ARC
  5
2BA42
330
2B8A7
100
AcDbEntity
  8
KETA_KANAGU
100
AcDbCircle
 10
5736.028895010878
 20
3313.210630112421
 30
0.0
 40
5.999999999999999
100
AcDbArc
 50
207.8181392846492
 51
140.7035197607907
  0
LINE
  5
2BA43
330
2B8A7
100
AcDbEntity
  8
KETA_KANAGU
  6
HIDE-S
 62
     6
100
AcDbLine
 10
5719.37914626875
 20
3347.547721818386
 30
0.0
 11
5734.303957825346
 21
3346.047721818386
 31
0.0
  0
LINE
  5
2BA44
330
2B8A7
100
AcDbEntity
  8
KETA_KANAGU
100
AcDbLine
 10
5721.579146268748
 20
3369.437445434732
 30
0.0
 11
5736.503957825348
 21
3367.937445434733
 31
0.0
  0
LINE
  5
2BA45
330
2B8A7
100
AcDbEntity
  8
KETA_KANAGU
  6
HIDE-S
 62
     6
100
AcDbLine
 10
5718.979146268749
 20
3343.567772069961
 30
0.0
 11
5721.26761737409
 21
3343.33777206996
 31
0.0
  0
LINE
  5
2BA46
330
2B8A7
100
AcDbEntity
  8
KETA_KANAGU
  6
HIDE-S
 62
     6
100
AcDbLine
 10
5720.179146268746
 20
3355.507621315239
 30
0.0
 11
5722.467617374094
 21
3355.27762131524
 31
0.0
  0
LINE
  5
2BA47
330
2B8A7
100
AcDbEntity
  8
KETA_KANAGU
  6
1PL-S
 62
     6
100
AcDbLine
 10
5714.604209083216
 20
3350.037696692599
 30
0.0
 11
5726.842554559624
 21
3348.807696692599
 31
0.0
  0
LINE
  5
2BA48
330
2B8A7
100
AcDbEntity
  8
KETA_KANAGU
  6
1PL-S
 62
     6
100
AcDbLine
 10
5709.604209083217
 20
3300.288324837268
 30
0.0
 11
5721.842554559625
 21
3299.05832483727
 31
0.0
  0
LINE
  5
2BA49
330
2B8A7
100
AcDbEntity
  8
KETA_KANAGU
  6
HIDE-S
 62
     6
100
AcDbLine
 10
5715.179146268746
 20
3305.758249459908
 30
0.0
 11
5717.467617374095
 21
3305.528249459907
 31
0.0
  0
LINE
  5
2BA4A
330
2B8A7
100
AcDbEntity
  8
KETA_KANAGU
  6
HIDE-S
 62
     6
100
AcDbLine
 10
5713.979146268749
 20
3293.818400214629
 30
0.0
 11
5716.26761737409
 21
3293.588400214629
 31
0.0
  0
LINE
  5
2BA4B
330
2B8A7
100
AcDbEntity
  8
KETA
100
AcDbLine
 10
7035.744442645706
 20
3149.217047200484
 30
0.0
 11
7036.76444264571
 21
3159.365919058973
 31
0.0
  0
LINE
  5
2BA4C
330
2B8A7
100
AcDbEntity
  8
KETA
100
AcDbLine
 10
7114.231558218016
 20
3226.153986892283
 30
0.0
 11
7105.791558218013
 21
3142.177047200484
 31
0.0
  0
LINE
  5
2BA4D
330
2B8A7
100
AcDbEntity
  8
KETA
100
AcDbLine
 10
7033.455971540367
 20
3149.447047200484
 30
0.0
 11
7034.475971540363
 21
3159.595919058972
 31
0.0
  0
LINE
  5
2BA4E
330
2B8A7
100
AcDbEntity
  8
KETA
100
AcDbLine
 10
7116.520029323364
 20
3225.923986892284
 30
0.0
 11
7108.080029323362
 21
3141.947047200484
 31
0.0
  0
LINE
  5
2BA4F
330
2B8A7
100
AcDbEntity
  8
KETA
100
AcDbLine
 10
7099.769127313926
 20
3137.254616296397
 30
0.0
 11
7040.666873549795
 21
3143.194616296398
 31
0.0
  0
LINE
  5
2BA50
330
2B8A7
100
AcDbEntity
  8
KETA
100
AcDbLine
 10
7099.539127313929
 20
3134.966145191053
 30
0.0
 11
7040.436873549798
 21
3140.906145191053
 31
0.0
  0
ARC
  5
2BA51
330
2B8A7
100
AcDbEntity
  8
KETA
100
AcDbCircle
 10
7041.216873549797
 20
3148.667047200484
 30
0.0
 40
7.799999999999999
100
AcDbArc
 50
174.2608295227396
 51
264.2608295227124
  0
ARC
  5
2BA52
330
2B8A7
100
AcDbEntity
  8
KETA
100
AcDbCircle
 10
7041.216873549797
 20
3148.667047200484
 30
0.0
 40
5.5
100
AcDbArc
 50
174.2608295227396
 51
264.2608295227124
  0
LINE
  5
2BA53
330
2B8A7
100
AcDbEntity
  8
KETA
  6
1PL-S
 62
     6
100
AcDbLine
 10
7068.740506713306
 20
3130.523739412753
 30
0.0
 11
7070.400506713311
 21
3147.040530868723
 31
0.0
  0
ARC
  5
2BA54
330
2B8A7
100
AcDbEntity
  8
KETA
100
AcDbCircle
 10
7100.319127313929
 20
3142.727047200484
 30
0.0
 40
7.799999999999999
100
AcDbArc
 50
264.2608295227124
 51
354.2608295227396
  0
ARC
  5
2BA55
330
2B8A7
100
AcDbEntity
  8
KETA
100
AcDbCircle
 10
7100.319127313929
 20
3142.727047200484
 30
0.0
 40
5.5
100
AcDbArc
 50
264.2608295227124
 51
354.2608295227396
  0
LINE
  5
2BA56
330
2B8A7
100
AcDbEntity
  8
KETA
100
AcDbLine
 10
7106.011558218014
 20
3144.366019562119
 30
0.0
 11
7108.300029323363
 21
3144.136019562119
 31
0.0
  0
LINE
  5
2BA57
330
2B8A7
100
AcDbEntity
  8
KETA
100
AcDbLine
 10
7106.811558218017
 20
3152.325919058973
 30
0.0
 11
7109.100029323359
 21
3152.095919058973
 31
0.0
  0
LINE
  5
2BA58
330
2B8A7
100
AcDbEntity
  8
KETA
100
AcDbLine
 10
7050.206873549796
 20
3238.116417796371
 30
0.0
 11
7109.309127313927
 21
3232.17641779637
 31
0.0
  0
LINE
  5
2BA59
330
2B8A7
100
AcDbEntity
  8
KETA
100
AcDbLine
 10
7050.436873549799
 20
3240.404888901716
 30
0.0
 11
7109.539127313929
 21
3234.464888901715
 31
0.0
  0
LINE
  5
2BA5A
330
2B8A7
100
AcDbEntity
  8
KETA
100
AcDbLine
 10
7043.164442645711
 20
3223.045115033795
 30
0.0
 11
7044.184442645709
 21
3233.193986892283
 31
0.0
  0
LINE
  5
2BA5B
330
2B8A7
100
AcDbEntity
  8
KETA
100
AcDbLine
 10
7040.875971540365
 20
3223.275115033796
 30
0.0
 11
7041.895971540369
 21
3233.423986892283
 31
0.0
  0
LINE
  5
2BA5C
330
2B8A7
100
AcDbEntity
  8
KETA
100
AcDbLine
 10
7034.475971540363
 20
3159.595919058972
 30
0.0
 11
7036.76444264571
 21
3159.365919058973
 31
0.0
  0
LINE
  5
2BA5D
330
2B8A7
100
AcDbEntity
  8
KETA
100
AcDbLine
 10
7040.875971540365
 20
3223.275115033796
 30
0.0
 11
7043.164442645711
 21
3223.045115033795
 31
0.0
  0
ARC
  5
2BA5E
330
2B8A7
100
AcDbEntity
  8
KETA
100
AcDbCircle
 10
7049.656873549792
 20
3232.643986892284
 30
0.0
 40
7.799999999999999
100
AcDbArc
 50
84.26082952271237
 51
174.2608295227396
  0
ARC
  5
2BA5F
330
2B8A7
100
AcDbEntity
  8
KETA
100
AcDbCircle
 10
7049.656873549792
 20
3232.643986892284
 30
0.0
 40
5.5
100
AcDbArc
 50
84.26082952271237
 51
174.2608295227396
  0
LINE
  5
2BA60
330
2B8A7
100
AcDbEntity
  8
KETA
  6
1PL-S
 62
     6
100
AcDbLine
 10
7117.312435101658
 20
3158.808324837272
 30
0.0
 11
7100.795643645686
 21
3160.468324837271
 31
0.0
  0
LINE
  5
2BA61
330
2B8A7
100
AcDbEntity
  8
KETA
100
AcDbLine
 10
7109.111558218012
 20
3175.210630112423
 30
0.0
 11
7111.400029323362
 21
3174.980630112425
 31
0.0
  0
LINE
  5
2BA62
330
2B8A7
100
AcDbEntity
  8
KETA
  6
1PL-S
 62
     6
100
AcDbLine
 10
7122.312435101658
 20
3208.557696692603
 30
0.0
 11
7105.795643645689
 21
3210.217696692602
 31
0.0
  0
LINE
  5
2BA63
330
2B8A7
100
AcDbEntity
  8
KETA
  6
1PL-S
 62
     6
100
AcDbLine
 10
7081.067975306074
 20
3228.180503224045
 30
0.0
 11
7082.727975306077
 21
3244.697294680015
 31
0.0
  0
ARC
  5
2BA64
330
2B8A7
100
AcDbEntity
  8
KETA
100
AcDbCircle
 10
7108.759127313923
 20
3226.703986892283
 30
0.0
 40
7.799999999999999
100
AcDbArc
 50
354.2608295227396
 51
84.26082952271237
  0
ARC
  5
2BA65
330
2B8A7
100
AcDbEntity
  8
KETA
100
AcDbCircle
 10
7108.759127313934
 20
3226.703986892283
 30
0.0
 40
5.5
100
AcDbArc
 50
354.2608295227396
 51
84.26082952271237
  0
LINE
  5
2BA66
330
2B8A7
100
AcDbEntity
  8
KETA
100
AcDbLine
 10
5782.856261841057
 20
3275.13704720048
 30
0.0
 11
5783.876261841054
 21
3285.285919058969
 31
0.0
  0
LINE
  5
2BA67
330
2B8A7
100
AcDbEntity
  8
KETA
100
AcDbLine
 10
5721.249146268746
 20
3366.15398689228
 30
0.0
 11
5712.80914626875
 21
3282.17704720048
 31
0.0
  0
LINE
  5
2BA68
330
2B8A7
100
AcDbEntity
  8
KETA
100
AcDbLine
 10
5785.144732946398
 20
3274.907047200479
 30
0.0
 11
5786.164732946402
 21
3285.055919058969
 31
0.0
  0
LINE
  5
2BA69
330
2B8A7
100
AcDbEntity
  8
KETA
100
AcDbLine
 10
5718.960675163405
 20
3366.38398689228
 30
0.0
 11
5710.520675163402
 21
3282.40704720048
 31
0.0
  0
LINE
  5
2BA6A
330
2B8A7
100
AcDbEntity
  8
KETA
100
AcDbLine
 10
5717.731577172834
 20
3276.154616296393
 30
0.0
 11
5776.833830936971
 21
3270.214616296394
 31
0.0
  0
LINE
  5
2BA6B
330
2B8A7
100
AcDbEntity
  8
KETA
100
AcDbLine
 10
5717.501577172835
 20
3273.866145191049
 30
0.0
 11
5776.603830936966
 21
3267.926145191051
 31
0.0
  0
ARC
  5
2BA6C
330
2B8A7
100
AcDbEntity
  8
KETA
100
AcDbCircle
 10
5777.383830936966
 20
3275.687047200481
 30
0.0
 40
7.799999999999999
100
AcDbArc
 50
264.2608295227124
 51
354.2608295227396
  0
ARC
  5
2BA6D
330
2B8A7
100
AcDbEntity
  8
KETA
100
AcDbCircle
 10
5777.383830936966
 20
3275.687047200481
 30
0.0
 40
5.5
100
AcDbArc
 50
264.2608295227124
 51
354.2608295227396
  0
LINE
  5
2BA6E
330
2B8A7
100
AcDbEntity
  8
KETA
  6
1PL-S
 62
     6
100
AcDbLine
 10
5746.800197773453
 20
3263.383739412751
 30
0.0
 11
5748.460197773455
 21
3279.90053086872
 31
0.0
  0
ARC
  5
2BA6F
330
2B8A7
100
AcDbEntity
  8
KETA
100
AcDbCircle
 10
5718.281577172835
 20
3281.627047200481
 30
0.0
 40
7.799999999999999
100
AcDbArc
 50
174.2608295227396
 51
264.2608295227124
  0
ARC
  5
2BA70
330
2B8A7
100
AcDbEntity
  8
KETA
100
AcDbCircle
 10
5718.281577172835
 20
3281.627047200481
 30
0.0
 40
5.5
100
AcDbArc
 50
174.2608295227396
 51
264.2608295227124
  0
LINE
  5
2BA71
330
2B8A7
100
AcDbEntity
  8
KETA
100
AcDbLine
 10
5713.029146268747
 20
3284.366019562117
 30
0.0
 11
5710.740675163402
 21
3284.596019562116
 31
0.0
  0
LINE
  5
2BA72
330
2B8A7
100
AcDbEntity
  8
KETA
100
AcDbLine
 10
5713.829146268746
 20
3292.325919058971
 30
0.0
 11
5711.540675163405
 21
3292.555919058969
 31
0.0
  0
LINE
  5
2BA73
330
2B8A7
100
AcDbEntity
  8
KETA
100
AcDbLine
 10
5786.37383093697
 20
3365.136417796367
 30
0.0
 11
5727.271577172832
 21
3371.076417796369
 31
0.0
  0
LINE
  5
2BA74
330
2B8A7
100
AcDbEntity
  8
KETA
100
AcDbLine
 10
5786.603830936968
 20
3367.424888901711
 30
0.0
 11
5727.501577172835
 21
3373.364888901714
 31
0.0
  0
LINE
  5
2BA75
330
2B8A7
100
AcDbEntity
  8
KETA
100
AcDbLine
 10
5790.276261841054
 20
3348.965115033794
 30
0.0
 11
5791.296261841056
 21
3359.113986892281
 31
0.0
  0
LINE
  5
2BA76
330
2B8A7
100
AcDbEntity
  8
KETA
100
AcDbLine
 10
5792.5647329464
 20
3348.735115033792
 30
0.0
 11
5793.5847329464
 21
3358.883986892277
 31
0.0
  0
LINE
  5
2BA77
330
2B8A7
100
AcDbEntity
  8
KETA
100
AcDbLine
 10
5786.164732946402
 20
3285.055919058969
 30
0.0
 11
5783.876261841054
 21
3285.285919058969
 31
0.0
  0
LINE
  5
2BA78
330
2B8A7
100
AcDbEntity
  8
KETA
100
AcDbLine
 10
5792.5647329464
 20
3348.735115033792
 30
0.0
 11
5790.276261841054
 21
3348.965115033794
 31
0.0
  0
ARC
  5
2BA79
330
2B8A7
100
AcDbEntity
  8
KETA
100
AcDbCircle
 10
5785.823830936969
 20
3359.66398689228
 30
0.0
 40
7.799999999999999
100
AcDbArc
 50
354.2608295227396
 51
84.26082952271237
  0
ARC
  5
2BA7A
330
2B8A7
100
AcDbEntity
  8
KETA
100
AcDbCircle
 10
5785.823830936969
 20
3359.66398689228
 30
0.0
 40
5.5
100
AcDbArc
 50
354.2608295227396
 51
84.26082952271237
  0
LINE
  5
2BA7B
330
2B8A7
100
AcDbEntity
  8
KETA
  6
1PL-S
 62
     6
100
AcDbLine
 10
5704.828269385107
 20
3300.768324837269
 30
0.0
 11
5721.345060841073
 21
3299.10832483727
 31
0.0
  0
LINE
  5
2BA7C
330
2B8A7
100
AcDbEntity
  8
KETA
100
AcDbLine
 10
5716.129146268752
 20
3315.210630112421
 30
0.0
 11
5713.840675163402
 21
3315.440630112421
 31
0.0
  0
LINE
  5
2BA7D
330
2B8A7
100
AcDbEntity
  8
KETA
  6
1PL-S
 62
     6
100
AcDbLine
 10
5709.828269385106
 20
3350.517696692598
 30
0.0
 11
5726.345060841074
 21
3348.857696692598
 31
0.0
  0
LINE
  5
2BA7E
330
2B8A7
100
AcDbEntity
  8
KETA
  6
1PL-S
 62
     6
100
AcDbLine
 10
5754.152729180688
 20
3361.540503224043
 30
0.0
 11
5755.812729180687
 21
3378.057294680012
 31
0.0
  0
ARC
  5
2BA7F
330
2B8A7
100
AcDbEntity
  8
KETA
100
AcDbCircle
 10
5726.721577172836
 20
3365.603986892281
 30
0.0
 40
7.799999999999999
100
AcDbArc
 50
84.26082952271237
 51
174.2608295227396
  0
ARC
  5
2BA80
330
2B8A7
100
AcDbEntity
  8
KETA
100
AcDbCircle
 10
5726.721577172836
 20
3365.603986892281
 30
0.0
 40
5.5
100
AcDbArc
 50
84.26082952271237
 51
174.2608295227396
  0
LINE
  5
2BA81
330
2B8A7
100
AcDbEntity
  8
YANEUKE-FUREME
  6
Continuous
100
AcDbLine
 10
5742.206611022374
 20
3437.696215938776
 30
0.0
 11
5735.930354374529
 21
3375.210628780692
 31
0.0
  0
LINE
  5
2BA82
330
2B8A7
100
AcDbEntity
  8
YANEUKE-FUREME
  6
Continuous
100
AcDbLine
 10
5738.261902760626
 20
3382.413675505745
 30
0.0
 11
5737.522343856263
 21
3375.050724152723
 31
0.0
  0
LINE
  5
2BA83
330
2B8A7
100
AcDbEntity
  8
BOLT
  6
Continuous
100
AcDbLine
 10
5752.748761876492
 20
3377.554074667231
 30
0.0
 11
5758.624002552761
 21
3436.04719946283
 31
0.0
  0
LINE
  5
2BA84
330
2B8A7
100
AcDbEntity
  8
BOLT
  6
Continuous
100
AcDbLine
 10
5764.593963109269
 20
3435.447557107941
 30
0.0
 11
5758.718722433
 21
3376.95443231234
 31
0.0
  0
LINE
  5
2BA85
330
2B8A7
100
AcDbEntity
  8
YANEUKE-FUREME
  6
Continuous
100
AcDbLine
 10
5742.832697822391
 20
3367.884125185677
 30
0.0
 11
5760.643080149296
 21
3366.095192160258
 31
0.0
  0
LINE
  5
2BA86
330
2B8A7
100
AcDbEntity
  8
YANEUKE-FUREME
  6
Continuous
100
AcDbLine
 10
5742.992602450361
 20
3369.476114667416
 30
0.0
 11
5760.802984777266
 21
3367.687181641993
 31
0.0
  0
LINE
  5
2BA87
330
2B8A7
100
AcDbEntity
  8
YANEUKE-FUREME
  6
Continuous
100
AcDbLine
 10
5737.362439228293
 20
3373.458734670988
 30
0.0
 11
5745.720384007397
 21
3372.619235374144
 31
0.0
  0
LINE
  5
2BA88
330
2B8A7
100
AcDbEntity
  8
YANEUKE-FUREME
  6
Continuous
100
AcDbLine
 10
5737.522343856263
 20
3375.050724152723
 30
0.0
 11
5745.880288635369
 21
3374.211224855877
 31
0.0
  0
ARC
  5
2BA89
330
2B8A7
100
AcDbEntity
  8
YANEUKE-FUREME
  6
Continuous
100
AcDbCircle
 10
5737.522343856263
 20
3375.050724152723
 30
0.0
 40
1.6
100
AcDbArc
 50
174.2642619770784
 51
264.2642619770798
  0
LINE
  5
2BA8A
330
2B8A7
100
AcDbEntity
  8
YANEUKE-FUREME
  6
Continuous
100
AcDbLine
 10
5743.332399784797
 20
3372.859092316099
 30
0.0
 11
5743.15250707833
 21
3371.068104149147
 31
0.0
  0
LINE
  5
2BA8B
330
2B8A7
100
AcDbEntity
  8
YANEUKE-FUREME
  6
Continuous
100
AcDbLine
 10
5741.740410303063
 20
3373.018996944069
 30
0.0
 11
5741.560517596596
 21
3371.228008777119
 31
0.0
  0
LINE
  5
2BA8C
330
2B8A7
100
AcDbEntity
  8
YANEUKE-FUREME
  6
Continuous
100
AcDbLine
 10
5741.560517596596
 20
3371.228008777119
 30
0.0
 11
5741.400612968623
 21
3369.636019295383
 31
0.0
  0
LINE
  5
2BA8D
330
2B8A7
100
AcDbEntity
  8
YANEUKE-FUREME
  6
Continuous
100
AcDbLine
 10
5743.15250707833
 20
3371.068104149147
 30
0.0
 11
5742.992602450361
 21
3369.476114667416
 31
0.0
  0
ARC
  5
2BA8E
330
2B8A7
100
AcDbEntity
  8
YANEUKE-FUREME
  6
Continuous
100
AcDbCircle
 10
5742.992602450361
 20
3369.476114667416
 30
0.0
 40
1.6
100
AcDbArc
 50
174.2642619770784
 51
264.2642619770798
  0
LINE
  5
2BA8F
330
2B8A7
100
AcDbEntity
  8
YANEUKE-FUREME
  6
Continuous
100
AcDbLine
 10
5745.880288635369
 20
3374.211224855877
 30
0.0
 11
5745.720384007397
 21
3372.619235374144
 31
0.0
  0
LINE
  5
2BA90
330
2B8A7
100
AcDbEntity
  8
BOLT
  6
Continuous
100
AcDbLine
 10
5751.848043942509
 20
3368.586645174325
 30
0.0
 11
5752.027936648977
 21
3370.377633341277
 31
0.0
  0
LINE
  5
2BA91
330
2B8A7
100
AcDbEntity
  8
BOLT
  6
Continuous
100
AcDbLine
 10
5757.65809987104
 20
3366.3950133377
 30
0.0
 11
5756.929789407578
 21
3359.144049985431
 31
0.0
  0
LINE
  5
2BA92
330
2B8A7
100
AcDbEntity
  8
BOLT
  6
KAKURE-1
100
AcDbLine
 10
5751.407355367875
 20
3359.19622543104
 30
0.0
 11
5756.382322498295
 21
3358.696523468631
 31
0.0
  0
LINE
  5
2BA93
330
2B8A7
100
AcDbEntity
  8
BOLT
  6
KAKURE-1
100
AcDbLine
 10
5750.959828851074
 20
3359.743692340323
 30
0.0
 11
5751.407355367875
 21
3359.196225431037
 31
0.0
  0
LINE
  5
2BA94
330
2B8A7
100
AcDbEntity
  8
BOLT
  6
KAKURE-1
100
AcDbLine
 10
5756.929789407578
 20
3359.14404998543
 30
0.0
 11
5756.382322498298
 21
3358.69652346863
 31
0.0
  0
LINE
  5
2BA95
330
2B8A7
100
AcDbEntity
  8
BOLT
  6
Continuous
100
AcDbLine
 10
5757.997897205482
 20
3369.777990986388
 30
0.0
 11
5757.818004499014
 21
3367.987002819437
 31
0.0
  0
LINE
  5
2BA96
330
2B8A7
100
AcDbEntity
  8
BOLT
  6
Continuous
100
AcDbLine
 10
5750.959828851074
 20
3359.743692340323
 30
0.0
 11
5751.688139314539
 21
3366.994655692592
 31
0.0
  0
LINE
  5
2BA97
330
2B8A7
100
AcDbEntity
  8
YANEUKE-FUREME
  6
Continuous
100
AcDbLine
 10
5760.802984777266
 20
3367.687181641993
 30
0.0
 11
5760.643080149296
 21
3366.095192160258
 31
0.0
  0
ARC
  5
2BA98
330
2B8A7
100
AcDbEntity
  8
BOLT
  6
Continuous
100
AcDbCircle
 10
5751.212021895639
 20
3375.328529559784
 30
0.0
 40
2.367985148190903
100
AcDbArc
 50
46.70819553224974
 51
121.8203284219297
  0
LINE
  5
2BA99
330
2B8A7
100
AcDbEntity
  8
BOLT
  6
Continuous
100
AcDbLine
 10
5749.804903789383
 20
3375.761811903866
 30
0.0
 11
5749.963484434137
 21
3377.340619982523
 31
0.0
  0
LINE
  5
2BA9A
330
2B8A7
100
AcDbEntity
  8
BOLT
  6
Continuous
100
AcDbLine
 10
5752.835783046094
 20
3377.052116920012
 30
0.0
 11
5752.662777248213
 21
3375.329693910759
 31
0.0
  0
LINE
  5
2BA9B
330
2B8A7
100
AcDbEntity
  8
BOLT
  6
Continuous
100
AcDbLine
 10
5761.405908834102
 20
3376.191305468984
 30
0.0
 11
5761.189862463673
 21
3374.040376170329
 31
0.0
  0
LINE
  5
2BA9C
330
2B8A7
100
AcDbEntity
  8
BOLT
  6
Continuous
100
AcDbLine
 10
5758.533610222148
 20
3376.479808531495
 30
0.0
 11
5758.33198900484
 21
3374.472494163438
 31
0.0
  0
LINE
  5
2BA9D
330
2B8A7
100
AcDbEntity
  8
BOLT
  6
Continuous
100
AcDbLine
 10
5751.448679260741
 20
3377.684659215301
 30
0.0
 11
5760.018805048751
 21
3376.823847764271
 31
0.0
  0
ARC
  5
2BA9E
330
2B8A7
100
AcDbEntity
  8
BOLT
  6
Continuous
100
AcDbCircle
 10
5754.874441601834
 20
3368.699170005021
 30
0.0
 40
8.598130661459229
100
AcDbArc
 50
64.81279441394973
 51
103.7157295402129
  0
ARC
  5
2BA9F
330
2B8A7
100
AcDbEntity
  8
BOLT
  6
Continuous
100
AcDbCircle
 10
5759.78214768365
 20
3374.467718108757
 30
0.0
 40
2.367985148190903
100
AcDbArc
 50
46.70819553224974
 51
121.8203284219297
  0
LINE
  5
2BAA0
330
2B8A7
100
AcDbEntity
  8
BOLT
  6
Continuous
100
AcDbLine
 10
5752.662777248213
 20
3375.329693910759
 30
0.0
 11
5752.323907967173
 21
3371.955955839832
 31
0.0
  0
LINE
  5
2BAA1
330
2B8A7
100
AcDbEntity
  8
BOLT
  6
Continuous
100
AcDbLine
 10
5749.451609355215
 20
3372.244458902341
 30
0.0
 11
5749.804903789383
 21
3375.761811903866
 31
0.0
  0
LINE
  5
2BAA2
330
2B8A7
100
AcDbEntity
  8
BOLT
  6
Continuous
100
AcDbLine
 10
5758.33198900484
 20
3374.472494163438
 30
0.0
 11
5758.021735143223
 21
3371.383647451313
 31
0.0
  0
LINE
  5
2BAA3
330
2B8A7
100
AcDbEntity
  8
BOLT
  6
Continuous
100
AcDbLine
 10
5761.189862463673
 20
3374.040376170329
 30
0.0
 11
5760.894033755182
 21
3371.095144388803
 31
0.0
  0
LINE
  5
2BAA4
330
2B8A7
100
AcDbEntity
  8
YANEUKE-FUREME
  6
Continuous
100
AcDbLine
 10
5767.73884801549
 20
3436.739725412229
 30
0.0
 11
5743.958505132082
 21
3439.12830079254
 31
0.0
  0
LINE
  5
2BAA5
330
2B8A7
100
AcDbEntity
  8
YANEUKE-FUREME
  6
Continuous
100
AcDbLine
 10
5767.578943387517
 20
3435.147735930496
 30
0.0
 11
5743.798600504108
 21
3437.536311310807
 31
0.0
  0
LINE
  5
2BAA6
330
2B8A7
100
AcDbEntity
  8
YANEUKE-FUREME
100
AcDbLine
 10
5746.619847539731
 20
3381.5741762089
 30
0.0
 11
5736.669913278891
 21
3382.573580133716
 31
0.0
  0
LINE
  5
2BAA7
330
2B8A7
100
AcDbEntity
  8
YANEUKE-FUREME
100
AcDbLine
 10
5745.946727784754
 20
3434.908470146248
 30
0.0
 11
5741.966754080418
 21
3435.308231716174
 31
0.0
  0
ARC
  5
2BAA8
330
2B8A7
100
AcDbEntity
  8
YANEUKE-FUREME
  6
Continuous
100
AcDbCircle
 10
5743.798600504108
 20
3437.536311310807
 30
0.0
 40
1.6
100
AcDbArc
 50
84.26426197707984
 51
174.2642619770784
  0
LINE
  5
2BAA9
330
2B8A7
100
AcDbEntity
  8
YANEUKE-FUREME
  6
Continuous
100
AcDbLine
 10
5743.798600504108
 20
3437.536311310807
 30
0.0
 11
5743.558743562157
 21
3435.148327088203
 31
0.0
  0
LINE
  5
2BAAA
330
2B8A7
100
AcDbEntity
  8
YANEUKE-FUREME
  6
HIDDEN
100
AcDbLine
 10
5743.558743562157
 20
3435.148327088203
 30
0.0
 11
5738.261902760626
 21
3382.413675505745
 31
0.0
  0
LINE
  5
2BAAB
330
2B8A7
100
AcDbEntity
  8
YANEUKE-FUREME
100
AcDbLine
 10
5748.176571578878
 20
3437.096573583886
 30
0.0
 11
5745.946727784754
 21
3434.908470146248
 31
0.0
  0
LINE
  5
2BAAC
330
2B8A7
100
AcDbEntity
  8
YANEUKE-FUREME
  6
Continuous
100
AcDbLine
 10
5767.73884801549
 20
3436.739725412229
 30
0.0
 11
5767.578943387517
 21
3435.147735930496
 31
0.0
  0
LINE
  5
2BAAD
330
2B8A7
100
AcDbEntity
  8
BOLT
100
AcDbLine
 10
5760.180896576901
 20
3450.179102871528
 30
0.0
 11
5759.730240135118
 21
3445.692426505142
 31
0.0
  0
LINE
  5
2BAAE
330
2B8A7
100
AcDbEntity
  8
BOLT
100
AcDbLine
 10
5765.878723752953
 20
3449.606794483013
 30
0.0
 11
5765.428067311169
 21
3445.120118116625
 31
0.0
  0
LINE
  5
2BAAF
330
2B8A7
100
AcDbEntity
  8
BOLT
100
AcDbLine
 10
5768.751022364909
 20
3449.318291420502
 30
0.0
 11
5768.300365923128
 21
3444.831615054113
 31
0.0
  0
ARC
  5
2BAB0
330
2B8A7
100
AcDbEntity
  8
BOLT
100
AcDbCircle
 10
5767.127261214455
 20
3447.594704060274
 30
0.0
 40
2.367985148190903
100
AcDbArc
 50
46.70819553224974
 51
121.8203284219297
  0
ARC
  5
2BAB1
330
2B8A7
100
AcDbEntity
  8
BOLT
100
AcDbCircle
 10
5762.219555132634
 20
3441.826155956539
 30
0.0
 40
8.598130661459229
100
AcDbArc
 50
64.81279441394973
 51
103.7157295402129
  0
LINE
  5
2BAB2
330
2B8A7
100
AcDbEntity
  8
BOLT
100
AcDbLine
 10
5760.093875407299
 20
3450.681060618748
 30
0.0
 11
5760.19470564476
 21
3451.684913224605
 31
0.0
  0
LINE
  5
2BAB3
330
2B8A7
100
AcDbEntity
  8
BOLT
100
AcDbLine
 10
5766.164666201263
 20
3451.085270869713
 30
0.0
 11
5766.063835963806
 21
3450.081418263859
 31
0.0
  0
LINE
  5
2BAB4
330
2B8A7
100
AcDbEntity
  8
BOLT
100
AcDbLine
 10
5758.793792791546
 20
3450.811645166817
 30
0.0
 11
5767.363918579557
 21
3449.950833715791
 31
0.0
  0
LINE
  5
2BAB5
330
2B8A7
100
AcDbEntity
  8
BOLT
100
AcDbLine
 10
5756.857941523161
 20
3445.980929567652
 30
0.0
 11
5757.308597964938
 21
3450.467605934039
 31
0.0
  0
LINE
  5
2BAB6
330
2B8A7
100
AcDbEntity
  8
BOLT
100
AcDbLine
 10
5768.300365923128
 20
3444.831615054113
 30
0.0
 11
5756.857941523161
 21
3445.980929567652
 31
0.0
  0
ARC
  5
2BAB7
330
2B8A7
100
AcDbEntity
  8
BOLT
100
AcDbCircle
 10
5758.557135426446
 20
3448.455515511301
 30
0.0
 40
2.367985148190903
100
AcDbArc
 50
46.70819553224974
 51
121.8203284219297
  0
LINE
  5
2BAB8
330
2B8A7
100
AcDbEntity
  8
BOLT
100
AcDbLine
 10
5763.698991435532
 20
3456.555229548683
 30
0.0
 11
5760.19470564476
 21
3451.684913224605
 31
0.0
  0
LINE
  5
2BAB9
330
2B8A7
100
AcDbEntity
  8
BOLT
100
AcDbLine
 10
5763.698991435532
 20
3456.555229548682
 30
0.0
 11
5766.164666201263
 21
3451.085270869716
 31
0.0
  0
LINE
  5
2BABA
330
2B8A7
100
AcDbEntity
  8
YANEUKE-FUREME
100
AcDbLine
 10
5752.156545283213
 20
3436.69681201396
 30
0.0
 11
5746.619847539731
 21
3381.5741762089
 31
0.0
  0
LINE
  5
2BABB
330
2B8A7
100
AcDbEntity
  8
YANEUKE-FUREME
  6
Continuous
100
AcDbLine
 10
7107.934044550551
 20
3300.435444335504
 30
0.0
 11
7101.650301220928
 21
3237.950609617252
 31
0.0
  0
LINE
  5
2BABC
330
2B8A7
100
AcDbEntity
  8
YANEUKE-FUREME
  6
Continuous
100
AcDbLine
 10
7100.798772002621
 20
3245.473567678438
 30
0.0
 11
7100.058330909639
 21
3238.110704988707
 31
0.0
  0
LINE
  5
2BABD
330
2B8A7
100
AcDbEntity
  8
BOLT
  6
Continuous
100
AcDbLine
 10
7085.634601712335
 20
3243.594007421378
 30
0.0
 11
7091.516850715342
 21
3302.086427853637
 31
0.0
  0
LINE
  5
2BABE
330
2B8A7
100
AcDbEntity
  8
BOLT
  6
Continuous
100
AcDbLine
 10
7085.546962047992
 20
3302.686785496595
 30
0.0
 11
7079.664713044984
 21
3244.194365064334
 31
0.0
  0
LINE
  5
2BABF
330
2B8A7
100
AcDbEntity
  8
YANEUKE-FUREME
  6
Continuous
100
AcDbLine
 10
7093.428048835034
 20
3232.144185097581
 30
0.0
 11
7075.617880977441
 21
3233.935252065736
 31
0.0
  0
LINE
  5
2BAC0
330
2B8A7
100
AcDbEntity
  8
YANEUKE-FUREME
  6
Continuous
100
AcDbLine
 10
7093.588144206492
 20
3233.736155408877
 30
0.0
 11
7075.777976348901
 21
3235.527222377029
 31
0.0
  0
LINE
  5
2BAC1
330
2B8A7
100
AcDbEntity
  8
YANEUKE-FUREME
  6
Continuous
100
AcDbLine
 10
7099.898235538181
 20
3236.518734677415
 30
0.0
 11
7091.540391403896
 21
3237.359235377555
 31
0.0
  0
LINE
  5
2BAC2
330
2B8A7
100
AcDbEntity
  8
YANEUKE-FUREME
  6
Continuous
100
AcDbLine
 10
7100.058330909639
 20
3238.110704988707
 30
0.0
 11
7091.700486775349
 21
3238.951205688847
 31
0.0
  0
ARC
  5
2BAC3
330
2B8A7
100
AcDbEntity
  8
YANEUKE-FUREME
  6
Continuous
100
AcDbCircle
 10
7100.058330909639
 20
3238.110704988707
 30
0.0
 40
1.599999999999999
100
AcDbArc
 50
264.2573970684186
 51
354.2573970683913
  0
LINE
  5
2BAC4
330
2B8A7
100
AcDbEntity
  8
YANEUKE-FUREME
  6
Continuous
100
AcDbLine
 10
7093.928346870829
 20
3237.119092320372
 30
0.0
 11
7093.748239577944
 21
3235.328125720168
 31
0.0
  0
LINE
  5
2BAC5
330
2B8A7
100
AcDbEntity
  8
YANEUKE-FUREME
  6
Continuous
100
AcDbLine
 10
7095.520317182125
 20
3236.958996948917
 30
0.0
 11
7095.34020988924
 21
3235.168030348712
 31
0.0
  0
LINE
  5
2BAC6
330
2B8A7
100
AcDbEntity
  8
YANEUKE-FUREME
  6
Continuous
100
AcDbLine
 10
7095.34020988924
 20
3235.168030348712
 30
0.0
 11
7095.180114517788
 21
3233.576060037417
 31
0.0
  0
LINE
  5
2BAC7
330
2B8A7
100
AcDbEntity
  8
YANEUKE-FUREME
  6
Continuous
100
AcDbLine
 10
7093.748239577944
 20
3235.328125720168
 30
0.0
 11
7093.588144206492
 21
3233.736155408877
 31
0.0
  0
ARC
  5
2BAC8
330
2B8A7
100
AcDbEntity
  8
YANEUKE-FUREME
  6
Continuous
100
AcDbCircle
 10
7093.588144206492
 20
3233.736155408877
 30
0.0
 40
1.599999999999999
100
AcDbArc
 50
264.2573970684186
 51
354.2573970683913
  0
LINE
  5
2BAC9
330
2B8A7
100
AcDbEntity
  8
YANEUKE-FUREME
  6
Continuous
100
AcDbLine
 10
7091.700486775349
 20
3238.951205688847
 30
0.0
 11
7091.540391403896
 21
3237.359235377555
 31
0.0
  0
LINE
  5
2BACA
330
2B8A7
100
AcDbEntity
  8
BOLT
  6
Continuous
100
AcDbLine
 10
7084.732809349922
 20
3234.626685912592
 30
0.0
 11
7084.91291664281
 21
3236.4176525128
 31
0.0
  0
LINE
  5
2BACB
330
2B8A7
100
AcDbEntity
  8
BOLT
  6
Continuous
100
AcDbLine
 10
7078.602825311121
 20
3233.635073244256
 30
0.0
 11
7077.873646076826
 21
3226.384197206741
 31
0.0
  0
LINE
  5
2BACC
330
2B8A7
100
AcDbEntity
  8
BOLT
  6
KAKURE-1
100
AcDbLine
 10
7083.296014218323
 20
3225.336378645084
 30
0.0
 11
7078.321106995528
 21
3225.836676680883
 31
0.0
  0
LINE
  5
2BACD
330
2B8A7
100
AcDbEntity
  8
BOLT
  6
KAKURE-1
100
AcDbLine
 10
7083.843534744175
 20
3225.783839563784
 30
0.0
 11
7083.296014218323
 21
3225.336378645084
 31
0.0
  0
LINE
  5
2BACE
330
2B8A7
100
AcDbEntity
  8
BOLT
  6
KAKURE-1
100
AcDbLine
 10
7077.873646076826
 20
3226.384197206739
 30
0.0
 11
7078.321106995528
 21
3225.83667668088
 31
0.0
  0
LINE
  5
2BACF
330
2B8A7
100
AcDbEntity
  8
BOLT
  6
Continuous
100
AcDbLine
 10
7078.943027975459
 20
3237.018010155756
 30
0.0
 11
7078.762920682573
 21
3235.227043555551
 31
0.0
  0
LINE
  5
2BAD0
330
2B8A7
100
AcDbEntity
  8
BOLT
  6
Continuous
100
AcDbLine
 10
7083.843534744175
 20
3225.783839563784
 30
0.0
 11
7084.57271397847
 21
3233.034715601301
 31
0.0
  0
LINE
  5
2BAD1
330
2B8A7
100
AcDbEntity
  8
YANEUKE-FUREME
  6
Continuous
100
AcDbLine
 10
7075.777976348901
 20
3235.527222377029
 30
0.0
 11
7075.617880977441
 21
3233.935252065736
 31
0.0
  0
ARC
  5
2BAD2
330
2B8A7
100
AcDbEntity
  8
BOLT
  6
Continuous
100
AcDbCircle
 10
7086.697729009042
 20
3241.107165821071
 30
0.0
 40
2.3679851481909
100
AcDbArc
 50
46.70133062349818
 51
121.8134635132155
  0
LINE
  5
2BAD3
330
2B8A7
100
AcDbEntity
  8
BOLT
  6
Continuous
100
AcDbLine
 10
7088.162926850992
 20
3241.251769550621
 30
0.0
 11
7088.321696659907
 21
3242.830558617564
 31
0.0
  0
LINE
  5
2BAD4
330
2B8A7
100
AcDbEntity
  8
BOLT
  6
Continuous
100
AcDbLine
 10
7085.449432635636
 20
3243.119405823206
 30
0.0
 11
7085.276220466447
 21
3241.39700355505
 31
0.0
  0
LINE
  5
2BAD5
330
2B8A7
100
AcDbEntity
  8
BOLT
  6
Continuous
100
AcDbLine
 10
7076.87941004749
 20
3243.981244099897
 30
0.0
 11
7076.663105964456
 21
3241.830340702335
 31
0.0
  0
LINE
  5
2BAD6
330
2B8A7
100
AcDbEntity
  8
BOLT
  6
Continuous
100
AcDbLine
 10
7079.751674071761
 20
3243.692396894255
 30
0.0
 11
7079.549812349019
 21
3241.685106697905
 31
0.0
  0
LINE
  5
2BAD7
330
2B8A7
100
AcDbEntity
  8
BOLT
  6
Continuous
100
AcDbLine
 10
7086.934668672736
 20
3243.463267104511
 30
0.0
 11
7078.364646084584
 21
3244.325105381202
 31
0.0
  0
ARC
  5
2BAD8
330
2B8A7
100
AcDbEntity
  8
BOLT
  6
Continuous
100
AcDbCircle
 10
7081.789331802362
 20
3235.339205776821
 30
0.0
 40
8.598130661459228
100
AcDbArc
 50
64.80592950519754
 51
103.7088646315127
  0
ARC
  5
2BAD9
330
2B8A7
100
AcDbEntity
  8
BOLT
  6
Continuous
100
AcDbCircle
 10
7078.127706420898
 20
3241.969004097761
 30
0.0
 40
2.3679851481909
100
AcDbArc
 50
46.70133062349818
 51
121.8134635132155
  0
LINE
  5
2BADA
330
2B8A7
100
AcDbEntity
  8
BOLT
  6
Continuous
100
AcDbLine
 10
7085.276220466447
 20
3241.39700355505
 30
0.0
 11
7084.936946962532
 21
3238.023306110049
 31
0.0
  0
LINE
  5
2BADB
330
2B8A7
100
AcDbEntity
  8
BOLT
  6
Continuous
100
AcDbLine
 10
7087.809210986801
 20
3237.734458904405
 30
0.0
 11
7088.162926850992
 21
3241.251769550621
 31
0.0
  0
LINE
  5
2BADC
330
2B8A7
100
AcDbEntity
  8
BOLT
  6
Continuous
100
AcDbLine
 10
7079.549812349019
 20
3241.685106697905
 30
0.0
 11
7079.239188398656
 21
3238.596297181099
 31
0.0
  0
LINE
  5
2BADD
330
2B8A7
100
AcDbEntity
  8
BOLT
  6
Continuous
100
AcDbLine
 10
7076.663105964456
 20
3241.830340702335
 30
0.0
 11
7076.366924374385
 21
3238.885144386741
 31
0.0
  0
LINE
  5
2BADE
330
2B8A7
100
AcDbEntity
  8
YANEUKE-FUREME
  6
Continuous
100
AcDbLine
 10
7082.722113085772
 20
3304.578934629365
 30
0.0
 11
7106.502169610706
 21
3302.187510018256
 31
0.0
  0
LINE
  5
2BADF
330
2B8A7
100
AcDbEntity
  8
YANEUKE-FUREME
  6
Continuous
100
AcDbLine
 10
7082.562017714313
 20
3302.986964318075
 30
0.0
 11
7106.342074239257
 21
3300.595539706963
 31
0.0
  0
LINE
  5
2BAE0
330
2B8A7
100
AcDbEntity
  8
YANEUKE-FUREME
100
AcDbLine
 10
7092.44092786833
 20
3246.31406837858
 30
0.0
 11
7102.390742313909
 21
3245.313472306984
 31
0.0
  0
LINE
  5
2BAE1
330
2B8A7
100
AcDbEntity
  8
YANEUKE-FUREME
100
AcDbLine
 10
7103.713975715129
 20
3298.447727297205
 30
0.0
 11
7107.693901493366
 21
3298.047488868565
 31
0.0
  0
ARC
  5
2BAE2
330
2B8A7
100
AcDbEntity
  8
YANEUKE-FUREME
  6
Continuous
100
AcDbCircle
 10
7106.342074239257
 20
3300.595539706963
 30
0.0
 40
1.599999999999999
100
AcDbArc
 50
354.2573970683913
 51
84.25739706841865
  0
LINE
  5
2BAE3
330
2B8A7
100
AcDbEntity
  8
YANEUKE-FUREME
  6
Continuous
100
AcDbLine
 10
7106.342074239257
 20
3300.595539706963
 30
0.0
 11
7106.10193118207
 21
3298.20758424002
 31
0.0
  0
LINE
  5
2BAE4
330
2B8A7
100
AcDbEntity
  8
YANEUKE-FUREME
  6
HIDDEN
100
AcDbLine
 10
7106.10193118207
 20
3298.20758424002
 30
0.0
 11
7100.798772002621
 21
3245.473567678438
 31
0.0
  0
LINE
  5
2BAE5
330
2B8A7
100
AcDbEntity
  8
YANEUKE-FUREME
100
AcDbLine
 10
7101.964155883201
 20
3301.035801978463
 30
0.0
 11
7103.713975715129
 21
3298.447727297205
 31
0.0
  0
LINE
  5
2BAE6
330
2B8A7
100
AcDbEntity
  8
YANEUKE-FUREME
  6
Continuous
100
AcDbLine
 10
7082.722113085772
 20
3304.578934629365
 30
0.0
 11
7082.562017714313
 21
3302.986964318075
 31
0.0
  0
LINE
  5
2BAE7
330
2B8A7
100
AcDbEntity
  8
BOLT
100
AcDbLine
 10
7092.803307842498
 20
3316.245511193145
 30
0.0
 11
7092.352113831656
 21
3311.758888854483
 31
0.0
  0
LINE
  5
2BAE8
330
2B8A7
100
AcDbEntity
  8
BOLT
100
AcDbLine
 10
7087.105549278617
 20
3316.818502264196
 30
0.0
 11
7086.654355267782
 21
3312.331879925532
 31
0.0
  0
LINE
  5
2BAE9
330
2B8A7
100
AcDbEntity
  8
BOLT
100
AcDbLine
 10
7084.233285254346
 20
3317.107349469838
 30
0.0
 11
7083.782091243512
 21
3312.620727131173
 31
0.0
  0
ARC
  5
2BAEA
330
2B8A7
100
AcDbEntity
  8
BOLT
100
AcDbCircle
 10
7085.481581627752
 20
3315.095109467705
 30
0.0
 40
2.3679851481909
100
AcDbArc
 50
46.70133062349818
 51
121.8134635132155
  0
ARC
  5
2BAEB
330
2B8A7
100
AcDbEntity
  8
BOLT
100
AcDbCircle
 10
7089.143207009226
 20
3308.46531114676
 30
0.0
 40
8.598130661459228
100
AcDbArc
 50
64.80592950519754
 51
103.7088646315127
  0
LINE
  5
2BAEC
330
2B8A7
100
AcDbEntity
  8
BOLT
100
AcDbLine
 10
7092.988476919193
 20
3316.720112791319
 30
0.0
 11
7093.089427432786
 21
3317.723953308969
 31
0.0
  0
LINE
  5
2BAED
330
2B8A7
100
AcDbEntity
  8
BOLT
100
AcDbLine
 10
7087.119538765437
 20
3318.324310951924
 30
0.0
 11
7087.018588251841
 21
3317.320470434276
 31
0.0
  0
LINE
  5
2BAEE
330
2B8A7
100
AcDbEntity
  8
BOLT
100
AcDbLine
 10
7094.288543879592
 20
3316.589372474452
 30
0.0
 11
7085.71852129144
 21
3317.451210751145
 31
0.0
  0
LINE
  5
2BAEF
330
2B8A7
100
AcDbEntity
  8
BOLT
100
AcDbLine
 10
7095.224377855926
 20
3311.470041648838
 30
0.0
 11
7095.675571866769
 21
3315.956663987504
 31
0.0
  0
LINE
  5
2BAF0
330
2B8A7
100
AcDbEntity
  8
BOLT
100
AcDbLine
 10
7083.782091243512
 20
3312.620727131173
 30
0.0
 11
7095.224377855926
 21
3311.470041648838
 31
0.0
  0
ARC
  5
2BAF1
330
2B8A7
100
AcDbEntity
  8
BOLT
100
AcDbCircle
 10
7094.051604215906
 20
3314.233271191012
 30
0.0
 40
2.3679851481909
100
AcDbArc
 50
46.70133062349818
 51
121.8134635132155
  0
LINE
  5
2BAF2
330
2B8A7
100
AcDbEntity
  8
BOLT
100
AcDbLine
 10
7090.62440806927
 20
3323.194207374136
 30
0.0
 11
7093.089427432786
 21
3317.723953308969
 31
0.0
  0
LINE
  5
2BAF3
330
2B8A7
100
AcDbEntity
  8
BOLT
100
AcDbLine
 10
7090.62440806927
 20
3323.194207374135
 30
0.0
 11
7087.119538765437
 21
3318.324310951926
 31
0.0
  0
LINE
  5
2BAF4
330
2B8A7
100
AcDbEntity
  8
YANEUKE-FUREME
100
AcDbLine
 10
7097.984230104964
 20
3301.4360404071
 30
0.0
 11
7092.44092786833
 21
3246.31406837858
 31
0.0
  0
LINE
  5
2BAF5
330
2B8A7
100
AcDbEntity
  8
YANE
  6
1PL-S
 62
     6
100
AcDbLine
 10
5492.861686247982
 20
3453.715465387825
 30
0.0
 11
5494.860494097614
 21
3473.615333909509
 31
0.0
  0
LINE
  5
2BAF6
330
2B8A7
100
AcDbEntity
  8
YANE
  6
1PL-S
 62
     6
100
AcDbLine
 10
5761.509911290698
 20
3426.731559417778
 30
0.0
 11
5763.508719140328
 21
3446.631427939461
 31
0.0
  0
LINE
  5
2BAF7
330
2B8A7
100
AcDbEntity
  8
YANE
  6
1PL-S
 62
     6
100
AcDbLine
 10
7086.841154834742
 20
3293.610956632222
 30
0.0
 11
7088.839962684374
 21
3313.510825153905
 31
0.0
  0
LINE
  5
2BAF8
330
2B8A7
100
AcDbEntity
  8
YANE
  6
HIDE-L
 62
     6
100
AcDbLine
 10
5479.881212011378
 20
3464.567068430366
 30
0.0
 11
7425.093360005833
 21
3269.18360112874
 31
0.0
  0
LINE
  5
2BAF9
330
2B8A7
100
AcDbEntity
  8
BOLT
  6
1PL-S
 62
     6
100
AcDbLine
 10
5765.203191583029
 20
3471.470723317883
 30
0.0
 11
5752.394076702723
 21
3344.021639454145
 31
0.0
  0
LINE
  5
2BAFA
330
2B8A7
100
AcDbEntity
  8
BOLT
  6
1PL-S
 62
     6
100
AcDbLine
 10
7092.118437708426
 20
3338.110723317864
 30
0.0
 11
7079.309322828106
 21
3210.661639454148
 31
0.0
  0
LINE
  5
2BAFB
330
2B8A7
100
AcDbEntity
  8
鼻隠し
100
AcDbLine
 10
5418.9724685315
 20
3413.498634268911
 30
0.0
 11
5413.026015178846
 21
3354.296525416904
 31
0.0
  0
LINE
  5
2BAFC
330
2B8A7
100
AcDbEntity
  8
鼻隠し
100
AcDbLine
 10
5419.951243864534
 20
3413.237228671359
 30
0.0
 11
5414.021008604926
 21
3354.196585024423
 31
0.0
  0
LINE
  5
2BAFD
330
2B8A7
100
AcDbEntity
  8
鼻隠し
  6
1PL-S
 62
     6
100
AcDbLine
 10
5493.521292838353
 20
3460.282421999977
 30
0.0
 11
5494.620637155652
 21
3471.227349686901
 31
0.0
  0
LINE
  5
2BAFE
330
2B8A7
100
AcDbEntity
  8
鼻隠し
  6
1PL-S
 62
     6
100
AcDbLine
 10
5468.646457186252
 20
3462.780931812017
 30
0.0
 11
5469.745801503551
 21
3473.725859498944
 31
0.0
  0
LINE
  5
2BAFF
330
2B8A7
100
AcDbEntity
  8
鼻隠し
100
AcDbLine
 10
5508.548339871466
 20
3464.803246865497
 30
0.0
 11
5452.757418145279
 21
3470.407069431614
 31
0.0
  0
LINE
  5
2BB00
330
2B8A7
100
AcDbEntity
  8
鼻隠し
100
AcDbLine
 10
5508.448399478984
 20
3463.808253439413
 30
0.0
 11
5452.657477752801
 21
3469.412076005529
 31
0.0
  0
LINE
  5
2BB01
330
2B8A7
100
AcDbEntity
  8
鼻隠し
100
AcDbLine
 10
5441.622446930566
 20
3463.966161368968
 30
0.0
 11
5418.9724685315
 21
3413.498634268911
 31
0.0
  0
LINE
  5
2BB02
330
2B8A7
100
AcDbEntity
  8
鼻隠し
100
AcDbLine
 10
5442.534776648513
 20
3463.556705039492
 30
0.0
 11
5419.951243864534
 21
3413.237228671359
 31
0.0
  0
ARC
  5
2BB03
330
2B8A7
100
AcDbEntity
  8
鼻隠し
100
AcDbCircle
 10
5451.65807382798
 20
3459.462141744688
 30
0.0
 40
10.0
100
AcDbArc
 50
84.26426197707984
 51
155.8293131541628
  0
ARC
  5
2BB04
330
2B8A7
100
AcDbEntity
  8
鼻隠し
100
AcDbCircle
 10
5451.65807382798
 20
3459.462141744688
 30
0.0
 40
11.0
100
AcDbArc
 50
84.26426197707984
 51
155.8293131541628
  0
LINE
  5
2BB05
330
2B8A7
100
AcDbEntity
  8
鼻隠し
100
AcDbLine
 10
5508.348459086504
 20
3462.81326001333
 30
0.0
 11
5501.383505103913
 21
3463.512842760701
 31
0.0
  0
LINE
  5
2BB06
330
2B8A7
100
AcDbEntity
  8
鼻隠し
100
AcDbLine
 10
5501.383505103913
 20
3463.512842760701
 30
0.0
 11
5501.483445496393
 21
3464.507836186785
 31
0.0
  0
ARC
  5
2BB07
330
2B8A7
100
AcDbEntity
  8
鼻隠し
100
AcDbCircle
 10
5508.448399478984
 20
3463.808253439413
 30
0.0
 40
1.0
100
AcDbArc
 50
264.2642619770798
 51
84.26426197707984
  0
LINE
  5
2BB08
330
2B8A7
100
AcDbEntity
  8
鼻隠し
100
AcDbLine
 10
5422.971538940953
 20
3343.247246838766
 30
0.0
 11
5474.711197097328
 21
3338.050346429719
 31
0.0
  0
LINE
  5
2BB09
330
2B8A7
100
AcDbEntity
  8
鼻隠し
100
AcDbLine
 10
5422.871598548473
 20
3342.252253412681
 30
0.0
 11
5474.611256704843
 21
3337.055353003635
 31
0.0
  0
LINE
  5
2BB0A
330
2B8A7
100
AcDbEntity
  8
鼻隠し
  6
1PL-S
 62
     6
100
AcDbLine
 10
5430.829340707779
 20
3336.427792946165
 30
0.0
 11
5431.928685025078
 21
3347.37272063309
 31
0.0
  0
ARC
  5
2BB0B
330
2B8A7
100
AcDbEntity
  8
鼻隠し
100
AcDbCircle
 10
5423.970942865769
 20
3353.197181099607
 30
0.0
 40
10.0
100
AcDbArc
 50
174.2642619770655
 51
264.2642619770798
  0
ARC
  5
2BB0C
330
2B8A7
100
AcDbEntity
  8
鼻隠し
100
AcDbCircle
 10
5423.970942865769
 20
3353.197181099607
 30
0.0
 40
11.0
100
AcDbArc
 50
174.2642619770655
 51
264.2642619770798
  0
LINE
  5
2BB0D
330
2B8A7
100
AcDbEntity
  8
鼻隠し
  6
1PL-S
 62
     6
100
AcDbLine
 10
5464.161620481593
 20
3333.079789798031
 30
0.0
 11
5465.260964798893
 21
3344.024717484957
 31
0.0
  0
LINE
  5
2BB0E
330
2B8A7
100
AcDbEntity
  8
鼻隠し
100
AcDbLine
 10
5475.110958667253
 20
3342.030320134057
 30
0.0
 11
5475.810541414622
 21
3348.995274116644
 31
0.0
  0
LINE
  5
2BB0F
330
2B8A7
100
AcDbEntity
  8
鼻隠し
100
AcDbLine
 10
5475.80613091589
 20
3338.945399463321
 30
0.0
 11
5476.805534840706
 21
3348.895333724164
 31
0.0
  0
LINE
  5
2BB10
330
2B8A7
100
AcDbEntity
  8
鼻隠し
100
AcDbLine
 10
5476.801124341974
 20
3338.845459070841
 30
0.0
 11
5477.800528266794
 21
3348.79539333168
 31
0.0
  0
ARC
  5
2BB11
330
2B8A7
100
AcDbEntity
  8
鼻隠し
100
AcDbCircle
 10
5474.811137489806
 20
3339.045339855803
 30
0.0
 40
1.0
100
AcDbArc
 50
264.2642619770798
 51
354.2642619770656
  0
LINE
  5
2BB12
330
2B8A7
100
AcDbEntity
  8
鼻隠し
100
AcDbLine
 10
5477.100945519421
 20
3341.830439349093
 30
0.0
 11
5476.105952093333
 21
3341.930379741574
 31
0.0
  0
LINE
  5
2BB13
330
2B8A7
100
AcDbEntity
  8
鼻隠し
100
AcDbLine
 10
5472.621269852671
 20
3337.255233788599
 30
0.0
 11
5472.72121024516
 21
3338.250227214683
 31
0.0
  0
LINE
  5
2BB14
330
2B8A7
100
AcDbEntity
  8
鼻隠し
100
AcDbLine
 10
5476.105952093333
 20
3341.930379741574
 30
0.0
 11
5475.110958667253
 21
3342.030320134057
 31
0.0
  0
ARC
  5
2BB15
330
2B8A7
100
AcDbEntity
  8
鼻隠し
100
AcDbCircle
 10
5474.811137489806
 20
3339.045339855803
 30
0.0
 40
2.0
100
AcDbArc
 50
264.2642619770798
 51
354.2642619770656
  0
ARC
  5
2BB16
330
2B8A7
100
AcDbEntity
  8
鼻隠し
100
AcDbCircle
 10
5476.805534840706
 20
3348.895333724164
 30
0.0
 40
1.0
100
AcDbArc
 50
354.2642619770656
 51
174.2642619770655
  0
LINE
  5
2BB17
330
2B8A7
100
AcDbEntity
  8
KERABA
100
AcDbLine
 10
5440.084102719977
 20
3338.513309692085
 30
0.0
 11
5713.400457683564
 21
3311.060521492048
 31
0.0
  0
LINE
  5
2BB18
330
2B8A7
100
AcDbEntity
  8
KERABA
100
AcDbLine
 10
7110.968226469196
 20
3170.684245960416
 30
0.0
 11
7413.156066644784
 21
3140.331511400965
 31
0.0
  0
LINE
  5
2BB19
330
2B8A7
100
AcDbEntity
  8
KERABA
100
AcDbLine
 10
7426.19828786364
 20
3270.17815350494
 30
0.0
 11
5453.126323938835
 21
3468.359951796062
 31
0.0
  0
LINE
  5
2BB1A
330
2B8A7
100
AcDbEntity
  8
KERABA
100
AcDbLine
 10
5477.992338593477
 20
3445.761692677375
 30
0.0
 11
5459.087463497874
 21
3447.660560134526
 31
0.0
  0
LINE
  5
2BB1B
330
2B8A7
100
AcDbEntity
  8
KERABA
  6
HIDE-L
 62
     6
100
AcDbLine
 10
7426.138323628149
 20
3269.581157449292
 30
0.0
 11
5453.066359703348
 21
3467.762955740413
 31
0.0
  0
LINE
  5
2BB1C
330
2B8A7
100
AcDbEntity
  8
KERABA
  6
HIDE-L
 62
     6
100
AcDbLine
 10
5478.052302828967
 20
3446.358688733026
 30
0.0
 11
5459.744423789015
 21
3448.197591954688
 31
0.0
  0
LINE
  5
2BB1D
330
2B8A7
100
AcDbEntity
  8
KERABA
  6
HIDE-L
 62
     6
100
AcDbLine
 10
5478.79186173333
 20
3453.72164008605
 30
0.0
 11
5467.846934046399
 21
3454.820984403347
 31
0.0
  0
LINE
  5
2BB1E
330
2B8A7
100
AcDbEntity
  8
KERABA
  6
HIDE-L
 62
     6
100
AcDbLine
 10
5440.184043112458
 20
3339.508303118169
 30
0.0
 11
5713.500457683742
 21
3312.055508930941
 31
0.0
  0
LINE
  5
2BB1F
330
2B8A7
100
AcDbEntity
  8
KERABA
  6
HIDE-L
 62
     6
100
AcDbLine
 10
7111.068226469375
 20
3171.679233399309
 30
0.0
 11
7413.25600703727
 21
3141.326504827049
 31
0.0
  0
LINE
  5
2BB20
330
2B8A7
100
AcDbEntity
  8
KERABA
100
AcDbLine
 10
5440.28398350494
 20
3340.503296544251
 30
0.0
 11
5713.600457683924
 21
3313.050496369831
 31
0.0
  0
LINE
  5
2BB21
330
2B8A7
100
AcDbEntity
  8
KERABA
100
AcDbLine
 10
7111.168226469555
 20
3172.6742208382
 30
0.0
 11
7413.355947429749
 21
3142.321498253132
 31
0.0
  0
LINE
  5
2BB22
330
2B8A7
100
AcDbEntity
  8
KERABA
100
AcDbLine
 10
7403.67233310326
 20
3206.008134320499
 30
0.0
 11
7397.356100298418
 21
3143.124549791973
 31
0.0
  0
LINE
  5
2BB23
330
2B8A7
100
AcDbEntity
  8
KERABA
100
AcDbLine
 10
7413.275995115764
 20
3141.525503512265
 30
0.0
 11
7413.156066644784
 21
3140.331511400965
 31
0.0
  0
LINE
  5
2BB24
330
2B8A7
100
AcDbEntity
  8
KERABA
  6
1PL-M
 62
     6
100
AcDbLine
 10
7388.279025743321
 20
3137.805083886344
 30
0.0
 11
7389.33839390362
 21
3148.352014202837
 31
0.0
  0
LINE
  5
2BB25
330
2B8A7
100
AcDbEntity
  8
KERABA
  6
HIDE-L
 62
     6
100
AcDbLine
 10
7410.218428810811
 20
3271.180203729008
 30
0.0
 11
7410.278393046294
 21
3271.777199784648
 31
0.0
  0
LINE
  5
2BB26
330
2B8A7
100
AcDbEntity
  8
KERABA
100
AcDbLine
 10
7426.19828786364
 20
3270.17815350494
 30
0.0
 11
7424.999003153861
 21
3258.238232391931
 31
0.0
  0
LINE
  5
2BB27
330
2B8A7
100
AcDbEntity
  8
KERABA
  6
1PL-M
 62
     6
100
AcDbLine
 10
7087.34085679714
 20
3298.585923762634
 30
0.0
 11
7088.400224957455
 21
3309.132854079124
 31
0.0
  0
LINE
  5
2BB28
330
2B8A7
100
AcDbEntity
  8
KERABA
  6
1PL-M
 62
     6
100
AcDbLine
 10
7391.873219913101
 20
3278.651034372219
 30
0.0
 11
7390.813851752797
 21
3268.10410405573
 31
0.0
  0
LINE
  5
2BB29
330
2B8A7
100
AcDbEntity
  8
KERABA
100
AcDbLine
 10
7423.904069335302
 20
3257.343179358334
 30
0.0
 11
7424.999003153861
 21
3258.238232391931
 31
0.0
  0
LINE
  5
2BB2A
330
2B8A7
100
AcDbEntity
  8
KERABA
100
AcDbLine
 10
5467.047410906547
 20
3446.861036994675
 30
0.0
 11
5456.203878322288
 21
3338.904250264548
 31
0.0
  0
LINE
  5
2BB2B
330
2B8A7
100
AcDbEntity
  8
KERABA
  6
1PL-M
 62
     6
100
AcDbLine
 10
5465.021107856936
 20
3341.636733262357
 30
0.0
 11
5463.961739696632
 21
3331.089802945864
 31
0.0
  0
LINE
  5
2BB2C
330
2B8A7
100
AcDbEntity
  8
KERABA
  6
HIDE-L
 62
     6
100
AcDbLine
 10
5456.203878322288
 20
3338.904250264548
 30
0.0
 11
5456.003997537322
 21
3336.914263412379
 31
0.0
  0
LINE
  5
2BB2D
330
2B8A7
100
AcDbEntity
  8
KERABA
100
AcDbLine
 10
5440.28398350494
 20
3340.503296544251
 30
0.0
 11
5440.084102719977
 21
3338.513309692085
 31
0.0
  0
LINE
  5
2BB2E
330
2B8A7
100
AcDbEntity
  8
KERABA
  6
1PL-M
 62
     6
100
AcDbLine
 10
5762.009613253095
 20
3431.706526548198
 30
0.0
 11
5763.068981413401
 21
3442.253456864689
 31
0.0
  0
LINE
  5
2BB2F
330
2B8A7
100
AcDbEntity
  8
KERABA
100
AcDbLine
 10
5453.126323938835
 20
3468.359951796062
 30
0.0
 11
5451.927039229055
 21
3456.420030683053
 31
0.0
  0
LINE
  5
2BB30
330
2B8A7
100
AcDbEntity
  8
KERABA
  6
HIDE-L
 62
     6
100
AcDbLine
 10
5467.047410906547
 20
3446.861036994675
 30
0.0
 11
5469.046218756178
 21
3466.760905516356
 31
0.0
  0
LINE
  5
2BB31
330
2B8A7
100
AcDbEntity
  8
KERABA
  6
1PL-M
 62
     6
100
AcDbLine
 10
5468.486552558284
 20
3461.188942330287
 30
0.0
 11
5469.545920718586
 21
3471.735872646779
 31
0.0
  0
LINE
  5
2BB32
330
2B8A7
100
AcDbEntity
  8
KERABA
  6
1PL-M
 62
     6
100
AcDbLine
 10
5482.416460523461
 20
3459.789776835545
 30
0.0
 11
5483.475828683767
 21
3470.336707152034
 31
0.0
  0
LINE
  5
2BB33
330
2B8A7
100
AcDbEntity
  8
KERABA
  6
1PL-M
 62
     6
100
AcDbLine
 10
5489.445789240271
 20
3469.737064797143
 30
0.0
 11
5488.386421079965
 21
3459.190134480655
 31
0.0
  0
LINE
  5
2BB34
330
2B8A7
100
AcDbEntity
  8
KERABA
  6
HIDE-L
 62
     6
100
AcDbLine
 10
5459.087463497874
 20
3447.660560134526
 30
0.0
 11
5467.846934046399
 21
3454.820984403347
 31
0.0
  0
LINE
  5
2BB35
330
2B8A7
100
AcDbEntity
  8
KERABA
100
AcDbLine
 10
5459.087463497874
 20
3447.660560134526
 30
0.0
 11
5451.927039229055
 21
3456.420030683053
 31
0.0
  0
LINE
  5
2BB36
330
2B8A7
100
AcDbEntity
  8
KISO
100
AcDbLine
 10
5016.67035224338
 20
1125.125919511106
 30
0.0
 11
6066.670352243383
 21
1125.125919511106
 31
0.0
  0
LINE
  5
2BB37
330
2B8A7
100
AcDbEntity
  8
KISO
100
AcDbLine
 10
5016.67035224338
 20
1185.125919511107
 30
0.0
 11
6066.670352243383
 21
1185.125919511108
 31
0.0
  0
LINE
  5
2BB38
330
2B8A7
100
AcDbEntity
  8
KISO
100
AcDbLine
 10
6379.170352243383
 20
1275.125919511107
 30
0.0
 11
5016.67035224338
 21
1275.125919511107
 31
0.0
  0
LINE
  5
2BB39
330
2B8A7
100
AcDbEntity
  8
U3
100
AcDbLine
 10
5016.67035224338
 20
1225.125919511109
 30
0.0
 11
4555.309962550174
 21
1225.125919511109
 31
0.0
  0
LINE
  5
2BB3A
330
2B8A7
100
AcDbEntity
  8
U3
100
AcDbLine
 10
4838.49015739678
 20
1193.306114357713
 30
0.0
 11
4911.670352243383
 21
1120.125919511109
 31
0.0
  0
LINE
  5
2BB3B
330
2B8A7
100
AcDbEntity
  8
U3
100
AcDbLine
 10
4870.309962550173
 20
1225.125919511109
 30
0.0
 11
4975.30996255017
 21
1120.125919511111
 31
0.0
  0
LINE
  5
2BB3C
330
2B8A7
100
AcDbEntity
  8
U3
100
AcDbLine
 10
4555.309962550174
 20
1120.125919511109
 30
0.0
 11
4660.309962550171
 21
1225.125919511107
 31
0.0
  0
LINE
  5
2BB3D
330
2B8A7
100
AcDbEntity
  8
U3
100
AcDbLine
 10
4628.490157396779
 20
1193.306114357713
 30
0.0
 11
4701.670352243383
 21
1120.125919511109
 31
0.0
  0
LINE
  5
2BB3E
330
2B8A7
100
AcDbEntity
  8
U3
100
AcDbLine
 10
4596.670352243386
 20
1161.486309204319
 30
0.0
 11
4638.030741936595
 21
1120.125919511107
 31
0.0
  0
LINE
  5
2BB3F
330
2B8A7
100
AcDbEntity
  8
U3
100
AcDbLine
 10
4555.309962550177
 20
1183.765529817895
 30
0.0
 11
4596.670352243388
 21
1225.125919511109
 31
0.0
  0
LINE
  5
2BB40
330
2B8A7
100
AcDbEntity
  8
U3
100
AcDbLine
 10
4733.490157396778
 20
1151.945724664504
 30
0.0
 11
4806.670352243386
 21
1225.125919511107
 31
0.0
  0
LINE
  5
2BB41
330
2B8A7
100
AcDbEntity
  8
U3
100
AcDbLine
 10
4660.309962550171
 20
1225.125919511107
 30
0.0
 11
4765.309962550174
 21
1120.125919511109
 31
0.0
  0
LINE
  5
2BB42
330
2B8A7
100
AcDbEntity
  8
U3
100
AcDbLine
 10
4701.670352243383
 20
1183.765529817899
 30
0.0
 11
4743.030741936592
 21
1225.125919511107
 31
0.0
  0
LINE
  5
2BB43
330
2B8A7
100
AcDbEntity
  8
U3
100
AcDbLine
 10
4765.309962550174
 20
1120.125919511109
 30
0.0
 11
4870.309962550173
 21
1225.125919511109
 31
0.0
  0
LINE
  5
2BB44
330
2B8A7
100
AcDbEntity
  8
U3
100
AcDbLine
 10
4806.670352243386
 20
1161.486309204319
 30
0.0
 11
4848.030741936597
 21
1120.125919511109
 31
0.0
  0
LINE
  5
2BB45
330
2B8A7
100
AcDbEntity
  8
HATCH
100
AcDbLine
 10
5214.484064450439
 20
1275.125919511107
 30
0.0
 11
5124.484064450439
 21
1185.125919511109
 31
0.0
  0
LINE
  5
2BB46
330
2B8A7
100
AcDbEntity
  8
U3
100
AcDbLine
 10
4943.490157396777
 20
1151.945724664504
 30
0.0
 11
5016.67035224338
 21
1225.125919511109
 31
0.0
  0
LINE
  5
2BB47
330
2B8A7
100
AcDbEntity
  8
U3
100
AcDbLine
 10
4911.670352243381
 20
1183.765529817899
 30
0.0
 11
4953.030741936592
 21
1225.125919511109
 31
0.0
  0
LINE
  5
2BB48
330
2B8A7
100
AcDbEntity
  8
KISO
100
AcDbLine
 10
5016.67035224338
 20
1275.125919511107
 30
0.0
 11
5016.67035224338
 21
1125.125919511106
 31
0.0
  0
LINE
  5
2BB49
330
2B8A7
100
AcDbEntity
  8
HATCH
100
AcDbLine
 10
5273.881034070109
 20
1275.125919511107
 30
0.0
 11
5183.881034070112
 21
1185.125919511109
 31
0.0
  0
LINE
  5
2BB4A
330
2B8A7
100
AcDbEntity
  8
HATCH
100
AcDbLine
 10
5244.18254926028
 20
1275.125919511107
 30
0.0
 11
5154.18254926028
 21
1185.125919511109
 31
0.0
  0
LINE
  5
2BB4B
330
2B8A7
100
AcDbEntity
  8
KISO
100
AcDbLine
 10
7616.670352243383
 20
1275.125919511109
 30
0.0
 11
6454.17035224338
 21
1275.125919511107
 31
0.0
  0
LINE
  5
2BB4C
330
2B8A7
100
AcDbEntity
  8
KISO
100
AcDbLine
 10
6766.67035224338
 20
1185.125919511109
 30
0.0
 11
7616.670352243383
 21
1185.125919511111
 31
0.0
  0
LINE
  5
2BB4D
330
2B8A7
100
AcDbEntity
  8
KISO
100
AcDbLine
 10
6766.67035224338
 20
1125.125919511107
 30
0.0
 11
7616.670352243383
 21
1125.125919511107
 31
0.0
  0
LINE
  5
2BB4E
330
2B8A7
100
AcDbEntity
  8
HATCH
100
AcDbLine
 10
6379.170352243383
 20
1117.927434701272
 30
0.0
 11
6066.670352243383
 21
805.427434701273
 31
0.0
  0
LINE
  5
2BB4F
330
2B8A7
100
AcDbEntity
  8
HATCH
100
AcDbLine
 10
6379.170352243383
 20
1147.625919511105
 30
0.0
 11
6066.670352243383
 21
835.1259195111037
 31
0.0
  0
LINE
  5
2BB50
330
2B8A7
100
AcDbEntity
  8
HATCH
100
AcDbLine
 10
6379.170352243383
 20
1177.324404320942
 30
0.0
 11
6066.670352243383
 21
864.8244043209421
 31
0.0
  0
LINE
  5
2BB51
330
2B8A7
100
AcDbEntity
  8
HATCH
100
AcDbLine
 10
6379.170352243383
 20
818.2289498914393
 30
0.0
 11
6336.067321863051
 21
775.1259195111079
 31
0.0
  0
LINE
  5
2BB52
330
2B8A7
100
AcDbEntity
  8
HATCH
100
AcDbLine
 10
6379.170352243383
 20
877.6259195111091
 30
0.0
 11
6276.670352243383
 21
775.1259195111079
 31
0.0
  0
LINE
  5
2BB53
330
2B8A7
100
AcDbEntity
  8
HATCH
100
AcDbLine
 10
6379.170352243383
 20
847.9274347012747
 30
0.0
 11
6306.368837053216
 21
775.1259195111079
 31
0.0
  0
LINE
  5
2BB54
330
2B8A7
100
AcDbEntity
  8
HATCH
100
AcDbLine
 10
5952.121066053532
 20
1275.125919511109
 30
0.0
 11
5862.121066053536
 21
1185.125919511111
 31
0.0
  0
LINE
  5
2BB55
330
2B8A7
100
AcDbEntity
  8
HATCH
100
AcDbLine
 10
5922.422581243697
 20
1275.125919511109
 30
0.0
 11
5832.422581243703
 21
1185.125919511109
 31
0.0
  0
LINE
  5
2BB56
330
2B8A7
100
AcDbEntity
  8
HATCH
100
AcDbLine
 10
5628.992246919052
 20
1275.125919511109
 30
0.0
 11
5538.992246919056
 21
1185.125919511109
 31
0.0
  0
LINE
  5
2BB57
330
2B8A7
100
AcDbEntity
  8
HATCH
100
AcDbLine
 10
5569.595277299383
 20
1275.125919511109
 30
0.0
 11
5479.595277299385
 21
1185.125919511109
 31
0.0
  0
LINE
  5
2BB58
330
2B8A7
100
AcDbEntity
  8
HATCH
100
AcDbLine
 10
5599.293762109218
 20
1275.125919511109
 30
0.0
 11
5509.293762109217
 21
1185.125919511109
 31
0.0
  0
LINE
  5
2BB59
330
2B8A7
100
AcDbEntity
  8
KISO
100
AcDbLine
 10
6066.670352243383
 20
1275.125919511109
 30
0.0
 11
6066.670352243383
 21
775.1259195111079
 31
0.0
  0
LINE
  5
2BB5A
330
2B8A7
100
AcDbEntity
  8
HATCH
100
AcDbLine
 10
6236.670352243383
 20
1275.125919511109
 30
0.0
 11
6066.670352243383
 21
1105.125919511108
 31
0.0
  0
LINE
  5
2BB5B
330
2B8A7
100
AcDbEntity
  8
HATCH
100
AcDbLine
 10
6206.971867433548
 20
1275.125919511109
 30
0.0
 11
6066.670352243383
 21
1134.824404320939
 31
0.0
  0
LINE
  5
2BB5C
330
2B8A7
100
AcDbEntity
  8
HATCH
100
AcDbLine
 10
6177.273382623712
 20
1275.125919511107
 30
0.0
 11
6066.670352243383
 21
1164.522889130778
 31
0.0
  0
LINE
  5
2BB5D
330
2B8A7
100
AcDbEntity
  8
HATCH
100
AcDbLine
 10
5981.819550863368
 20
1275.125919511109
 30
0.0
 11
5891.819550863368
 21
1185.125919511109
 31
0.0
  0
LINE
  5
2BB5E
330
2B8A7
100
AcDbEntity
  8
HATCH
100
AcDbLine
 10
6892.626765645911
 20
1275.125919511109
 30
0.0
 11
6802.626765645908
 21
1185.125919511109
 31
0.0
  0
LINE
  5
2BB5F
330
2B8A7
100
AcDbEntity
  8
HATCH
100
AcDbLine
 10
6922.325250455752
 20
1275.125919511109
 30
0.0
 11
6832.32525045575
 21
1185.125919511109
 31
0.0
  0
LINE
  5
2BB60
330
2B8A7
100
AcDbEntity
  8
HATCH
100
AcDbLine
 10
6766.67035224338
 20
1235.427434701278
 30
0.0
 11
6454.17035224338
 21
922.9274347012747
 31
0.0
  0
LINE
  5
2BB61
330
2B8A7
100
AcDbEntity
  8
HATCH
100
AcDbLine
 10
6766.67035224338
 20
1205.728949891438
 30
0.0
 11
6454.17035224338
 21
893.2289498914393
 31
0.0
  0
LINE
  5
2BB62
330
2B8A7
100
AcDbEntity
  8
KISO
100
AcDbLine
 10
6766.67035224338
 20
1275.125919511109
 30
0.0
 11
6766.67035224338
 21
775.12591951111
 31
0.0
  0
LINE
  5
2BB63
330
2B8A7
100
AcDbEntity
  8
HATCH
100
AcDbLine
 10
6766.67035224338
 20
965.4274347012792
 30
0.0
 11
6576.368837053205
 21
775.1259195111079
 31
0.0
  0
LINE
  5
2BB64
330
2B8A7
100
AcDbEntity
  8
HATCH
100
AcDbLine
 10
6766.67035224338
 20
935.7289498914408
 30
0.0
 11
6606.067321863051
 21
775.1259195111079
 31
0.0
  0
LINE
  5
2BB65
330
2B8A7
100
AcDbEntity
  8
HATCH
100
AcDbLine
 10
6766.67035224338
 20
906.0304650816076
 30
0.0
 11
6635.765806672882
 21
775.1259195111079
 31
0.0
  0
LINE
  5
2BB66
330
2B8A7
100
AcDbEntity
  8
HATCH
100
AcDbLine
 10
6766.67035224338
 20
1265.125919511107
 30
0.0
 11
6454.17035224338
 21
952.6259195111091
 31
0.0
  0
LINE
  5
2BB67
330
2B8A7
100
AcDbEntity
  8
HATCH
100
AcDbLine
 10
6536.368837053216
 20
1275.125919511109
 30
0.0
 11
6454.17035224338
 21
1192.927434701273
 31
0.0
  0
LINE
  5
2BB68
330
2B8A7
100
AcDbEntity
  8
HATCH
100
AcDbLine
 10
6506.670352243384
 20
1275.125919511109
 30
0.0
 11
6454.17035224338
 21
1222.625919511104
 31
0.0
  0
LINE
  5
2BB69
330
2B8A7
100
AcDbEntity
  8
HATCH
100
AcDbLine
 10
6476.971867433547
 20
1275.125919511109
 30
0.0
 11
6454.17035224338
 21
1252.324404320942
 31
0.0
  0
LINE
  5
2BB6A
330
2B8A7
100
AcDbEntity
  8
HATCH
100
AcDbLine
 10
6952.023735265581
 20
1275.125919511109
 30
0.0
 11
6862.023735265582
 21
1185.125919511109
 31
0.0
  0
LINE
  5
2BB6B
330
2B8A7
100
AcDbEntity
  8
HATCH
100
AcDbLine
 10
7245.45406959023
 20
1275.125919511109
 30
0.0
 11
7155.454069590232
 21
1185.125919511109
 31
0.0
  0
LINE
  5
2BB6C
330
2B8A7
100
AcDbEntity
  8
HATCH
100
AcDbLine
 10
7304.851039209897
 20
1275.125919511109
 30
0.0
 11
7214.851039209898
 21
1185.125919511109
 31
0.0
  0
LINE
  5
2BB6D
330
2B8A7
100
AcDbEntity
  8
HATCH
100
AcDbLine
 10
7275.152554400063
 20
1275.125919511109
 30
0.0
 11
7185.152554400061
 21
1185.125919511111
 31
0.0
  0
LINE
  5
2BB6E
330
2B8A7
100
AcDbEntity
  8
U3
100
AcDbLine
 10
7794.85054708999
 20
1151.945724664505
 30
0.0
 11
7868.030741936592
 21
1225.125919511109
 31
0.0
  0
LINE
  5
2BB6F
330
2B8A7
100
AcDbEntity
  8
U3
100
AcDbLine
 10
7826.670352243382
 20
1120.125919511109
 30
0.0
 11
7931.670352243383
 21
1225.125919511109
 31
0.0
  0
LINE
  5
2BB70
330
2B8A7
100
AcDbEntity
  8
U3
100
AcDbLine
 10
8078.030741936592
 20
1225.125919511109
 30
0.0
 11
7616.670352243383
 21
1225.125919511109
 31
0.0
  0
LINE
  5
2BB71
330
2B8A7
100
AcDbEntity
  8
HATCH
100
AcDbLine
 10
7616.670352243383
 20
1234.117928600275
 30
0.0
 11
7567.678343154212
 21
1185.125919511111
 31
0.0
  0
LINE
  5
2BB72
330
2B8A7
100
AcDbEntity
  8
HATCH
100
AcDbLine
 10
7616.670352243383
 20
1263.816413410111
 30
0.0
 11
7537.979858344384
 21
1185.125919511111
 31
0.0
  0
LINE
  5
2BB73
330
2B8A7
100
AcDbEntity
  8
HATCH
100
AcDbLine
 10
7598.281373534554
 20
1275.125919511109
 30
0.0
 11
7508.281373534547
 21
1185.125919511111
 31
0.0
  0
LINE
  5
2BB74
330
2B8A7
100
AcDbEntity
  8
U3
100
AcDbLine
 10
7616.670352243383
 20
1120.125919511109
 30
0.0
 11
7721.67035224338
 21
1225.125919511109
 31
0.0
  0
LINE
  5
2BB75
330
2B8A7
100
AcDbEntity
  8
U3
100
AcDbLine
 10
7689.85054708999
 20
1193.306114357713
 30
0.0
 11
7763.030741936592
 21
1120.125919511109
 31
0.0
  0
LINE
  5
2BB76
330
2B8A7
100
AcDbEntity
  8
KISO
100
AcDbLine
 10
7616.670352243383
 20
1125.125919511107
 30
0.0
 11
7616.670352243383
 21
1275.125919511109
 31
0.0
  0
LINE
  5
2BB77
330
2B8A7
100
AcDbEntity
  8
U3
100
AcDbLine
 10
7658.030741936592
 20
1161.486309204319
 30
0.0
 11
7699.391131629802
 21
1120.125919511109
 31
0.0
  0
LINE
  5
2BB78
330
2B8A7
100
AcDbEntity
  8
U3
100
AcDbLine
 10
7616.670352243389
 20
1183.765529817895
 30
0.0
 11
7658.030741936599
 21
1225.125919511109
 31
0.0
  0
LINE
  5
2BB79
330
2B8A7
100
AcDbEntity
  8
U3
100
AcDbLine
 10
7763.030741936592
 20
1183.765529817899
 30
0.0
 11
7804.391131629795
 21
1225.125919511109
 31
0.0
  0
LINE
  5
2BB7A
330
2B8A7
100
AcDbEntity
  8
U3
100
AcDbLine
 10
7721.67035224338
 20
1225.125919511109
 30
0.0
 11
7826.670352243382
 21
1120.125919511109
 31
0.0
  0
LINE
  5
2BB7B
330
2B8A7
100
AcDbEntity
  8
U3
100
AcDbLine
 10
7899.85054708999
 20
1193.306114357713
 30
0.0
 11
7973.030741936591
 21
1120.125919511109
 31
0.0
  0
LINE
  5
2BB7C
330
2B8A7
100
AcDbEntity
  8
U3
100
AcDbLine
 10
7931.670352243383
 20
1225.125919511109
 30
0.0
 11
8036.670352243381
 21
1120.125919511109
 31
0.0
  0
LINE
  5
2BB7D
330
2B8A7
100
AcDbEntity
  8
U3
100
AcDbLine
 10
7868.030741936592
 20
1161.486309204319
 30
0.0
 11
7909.391131629803
 21
1120.125919511109
 31
0.0
  0
LINE
  5
2BB7E
330
2B8A7
100
AcDbEntity
  8
U3
100
AcDbLine
 10
8004.850547089983
 20
1151.945724664504
 30
0.0
 11
8078.030741936592
 21
1225.125919511109
 31
0.0
  0
LINE
  5
2BB7F
330
2B8A7
100
AcDbEntity
  8
U3
100
AcDbLine
 10
7973.030741936591
 20
1183.765529817899
 30
0.0
 11
8014.391131629793
 21
1225.125919511109
 31
0.0
  0
LINE
  5
2BB80
330
2B8A7
100
AcDbEntity
  8
KISO
100
AcDbLine
 10
5966.670352243379
 20
675.1259195111079
 30
0.0
 11
6866.670352243383
 21
675.1259195111079
 31
0.0
  0
LINE
  5
2BB81
330
2B8A7
100
AcDbEntity
  8
KISO
100
AcDbLine
 10
5966.670352243379
 20
775.1259195111079
 30
0.0
 11
6866.670352243383
 21
775.1259195111079
 31
0.0
  0
LINE
  5
2BB82
330
2B8A7
100
AcDbEntity
  8
KISO
100
AcDbLine
 10
5966.670352243379
 20
675.1259195111079
 30
0.0
 11
5966.670352243379
 21
775.1259195111079
 31
0.0
  0
LINE
  5
2BB83
330
2B8A7
100
AcDbEntity
  8
KISO
100
AcDbLine
 10
6866.670352243383
 20
675.1259195111079
 30
0.0
 11
6866.670352243383
 21
775.1259195111079
 31
0.0
  0
LINE
  5
2BB84
330
2B8A7
100
AcDbEntity
  8
1PL-M1
100
AcDbLine
 10
6416.670352243383
 20
535.1259195111091
 30
0.0
 11
6416.670352243383
 21
3460.723022657499
 31
0.0
  0
LINE
  5
2BB85
330
2B8A7
100
AcDbEntity
  8
SUNPOU
100
AcDbLine
 10
5553.464229004191
 20
1275.125919511107
 30
0.0
 11
5605.425753231254
 21
1365.125919511107
 31
0.0
  0
LINE
  5
2BB86
330
2B8A7
100
AcDbEntity
  8
SUNPOU
100
AcDbLine
 10
5501.502704777122
 20
1365.125919511107
 30
0.0
 11
5553.464229004191
 21
1275.125919511107
 31
0.0
  0
TEXT
  5
2BB87
330
2B8A7
100
AcDbEntity
  8
SUNPOU
100
AcDbText
 10
5484.892800432763
 20
1410.125919511107
 30
0.0
 40
90.0
  1
F.L
 41
0.6666666666666666
  7
00
 72
     4
 11
5553.464229004191
 21
1455.125919511107
 31
0.0
100
AcDbText
  0
LINE
  5
2BB88
330
2B8A7
100
AcDbEntity
  8
SUNPOU
100
AcDbLine
 10
5605.425753231254
 20
1365.125919511107
 30
0.0
 11
5501.502704777122
 21
1365.125919511107
 31
0.0
  0
LINE
  5
2BB89
330
2B8A7
100
AcDbEntity
  8
SUNPOU
100
AcDbLine
 10
4641.203535533754
 20
1315.125919511109
 30
0.0
 11
4693.165059760818
 21
1225.125919511109
 31
0.0
  0
LINE
  5
2BB8A
330
2B8A7
100
AcDbEntity
  8
SUNPOU
100
AcDbLine
 10
4693.165059760818
 20
1225.125919511109
 30
0.0
 11
4745.12658398789
 21
1315.125919511109
 31
0.0
  0
TEXT
  5
2BB8B
330
2B8A7
100
AcDbEntity
  8
SUNPOU
100
AcDbText
 10
4621.736488332246
 20
1360.125919511109
 30
0.0
 40
90.0
  1
G.L
 41
0.6666666666666666
  7
00
 72
     4
 11
4693.165059760818
 21
1405.125919511108
 31
0.0
100
AcDbText
  0
LINE
  5
2BB8C
330
2B8A7
100
AcDbEntity
  8
SUNPOU
100
AcDbLine
 10
4745.12658398789
 20
1315.125919511109
 30
0.0
 11
4641.203535533754
 21
1315.125919511109
 31
0.0
  0
TEXT
  5
2BB8D
330
2B8A7
100
AcDbEntity
  8
HIKIDASHI
100
AcDbText
 10
4182.522137429629
 20
772.6108029001565
 30
0.0
 40
135.0
  1
側 面 断 面 図
  7
01
 72
     2
 11
5271.52213742963
 21
772.6108029001565
 31
0.0
100
AcDbText
  0
TEXT
  5
2BB8E
330
2B8A7
100
AcDbEntity
  8
HIKIDASHI
100
AcDbText
 10
5372.77213742963
 20
799.4042999599945
 30
0.0
 40
90.0
  1
(S=
 41
0.6700000000000001
  7
00
100
AcDbText
  0
TEXT
  5
2BB8F
330
2B8A7
100
AcDbEntity
  8
HIKIDASHI
100
AcDbText
 10
5665.429872064826
 20
769.965489859685
 30
0.0
 40
90.0
  1
30
 41
0.6700000000000001
  7
00
100
AcDbText
  0
TEXT
  5
2BB90
330
2B8A7
100
AcDbEntity
  8
HIKIDASHI
100
AcDbText
 10
5802.034635135068
 20
799.4042999599945
 30
0.0
 40
90.0
  1
)
 41
0.6700000000000001
  7
00
100
AcDbText
  0
TEXT
  5
2BB91
330
2B8A7
100
AcDbEntity
  8
HIKIDASHI
100
AcDbText
 10
5613.34782295686
 20
799.4042999599945
 30
0.0
 40
90.0
  1
/
 41
0.6700000000000001
  7
00
100
AcDbText
  0
TEXT
  5
2BB92
330
2B8A7
100
AcDbEntity
  8
HIKIDASHI
100
AcDbText
 10
5576.068542859514
 20
816.910962426718
 30
0.0
 40
90.0
  1
1
 41
0.6700000000000001
  7
00
100
AcDbText
  0
TEXT
  5
2BB93
330
2B8A7
100
AcDbEntity
  8
HIKIDASHI
100
AcDbText
 10
7100.413636530989
 20
983.3872312722746
 30
0.0
 40
90.0
  1
10   x 350
 41
0.6666666666666666
  7
00
 11
7100.413636530989
 21
1028.387231272274
 31
0.0
100
AcDbText
 73
     2
  0
LINE
  5
2BB94
330
2B8A7
100
AcDbEntity
  8
HIKIDASHI
100
AcDbLine
 10
6810.277571388599
 20
938.3872312722756
 30
0.0
 11
7601.236796420002
 21
938.3872312722756
 31
0.0
  0
TEXT
  5
2BB95
330
2B8A7
100
AcDbEntity
  8
HIKIDASHI
100
AcDbText
 10
6840.2775713886
 20
983.3872312722746
 30
0.0
 40
90.0
  1
鉄筋
  7
01
 11
6840.2775713886
 21
1028.387231272274
 31
0.0
100
AcDbText
 73
     2
  0
LINE
  5
2BB96
330
2B8A7
100
AcDbEntity
  8
HIKIDASHI
100
AcDbLine
 10
6478.69006521525
 20
817.699248970606
 30
0.0
 11
6810.277571388599
 21
938.3872312722756
 31
0.0
  0
LINE
  5
2BB97
330
2B8A7
100
AcDbEntity
  8
HIKIDASHI
100
AcDbLine
 10
6400.306725144869
 20
835.1259195111101
 30
0.0
 11
6433.033979341892
 21
835.1259195111101
 31
0.0
  0
LINE
  5
2BB98
330
2B8A7
100
AcDbEntity
  8
HIKIDASHI
100
AcDbLine
 10
6400.306725144869
 20
795.12591951111
 30
0.0
 11
6433.033979341892
 21
795.12591951111
 31
0.0
  0
SOLID
  5
2BB99
330
2B8A7
100
AcDbEntity
  8
HIKIDASHI
100
AcDbTrace
 10
6482.110266648503
 20
808.3023227627471
 30
0.0
 11
6475.269863781992
 21
827.0961751784639
 31
0.0
 12
6422.308507968096
 22
797.1780403710643
 32
0.0
 13
6422.308507968096
 23
797.1780403710643
 33
0.0
  0
TEXT
  5
2BB9A
330
2B8A7
100
AcDbEntity
  8
HIKIDASHI
100
AcDbText
 10
7249.870797427059
 20
998.3872312722752
 30
0.0
 40
90.0
  1
%%c
 41
0.6666666666666666
  7
00
100
AcDbText
  0
TEXT
  5
2BB9B
330
2B8A7
100
AcDbEntity
  8
HIKIDASHI
100
AcDbText
 10
8473.27122074242
 20
4034.335714136729
 30
0.0
 40
90.0
  1
1.6
 41
0.6700000000000001
  7
00
100
AcDbText
  0
TEXT
  5
2BB9C
330
2B8A7
100
AcDbEntity
  8
HIKIDASHI
100
AcDbText
 10
7543.728215902678
 20
4034.335714136729
 30
0.0
 40
90.0
  1
屋根受フレーム
  7
01
 72
     2
 11
8269.728215902679
 21
4034.335714136729
 31
0.0
100
AcDbText
  0
TEXT
  5
2BB9D
330
2B8A7
100
AcDbEntity
  8
HIKIDASHI
100
AcDbText
 10
8337.19774680574
 20
4041.83571413673
 30
0.0
 40
75.0
  1
ア
  7
01
 72
     1
 11
8369.697746805739
 21
4079.335714136729
 31
0.0
100
AcDbText
 73
     2
  0
CIRCLE
  5
2BB9E
330
2B8A7
100
AcDbEntity
  8
HIKIDASHI
100
AcDbCircle
 10
8369.697746805739
 20
4079.335714136729
 30
0.0
 40
60.0
  0
LINE
  5
2BB9F
330
2B8A7
100
AcDbEntity
  8
HIKIDASHI
100
AcDbLine
 10
7513.72821590268
 20
3989.335714136729
 30
0.0
 11
8638.228363599564
 21
3989.335714136729
 31
0.0
  0
TEXT
  5
2BBA0
330
2B8A7
100
AcDbEntity
  8
HIKIDASHI
100
AcDbText
 10
5036.995569189897
 20
4034.335714136729
 30
0.0
 40
90.0
  1
0.6
 41
0.6700000000000001
  7
00
100
AcDbText
  0
TEXT
  5
2BBA1
330
2B8A7
100
AcDbEntity
  8
HIKIDASHI
100
AcDbText
 10
4545.452564350158
 20
4034.335714136729
 30
0.0
 40
90.0
  1
鼻隠し
  7
01
 72
     2
 11
4833.452564350158
 21
4034.335714136729
 31
0.0
100
AcDbText
  0
TEXT
  5
2BBA2
330
2B8A7
100
AcDbEntity
  8
HIKIDASHI
100
AcDbText
 10
4900.922095253217
 20
4041.83571413673
 30
0.0
 40
75.0
  1
ア
  7
01
 72
     1
 11
4933.422095253217
 21
4079.335714136729
 31
0.0
100
AcDbText
 73
     2
  0
CIRCLE
  5
2BBA3
330
2B8A7
100
AcDbEntity
  8
HIKIDASHI
100
AcDbCircle
 10
4933.422095253217
 20
4079.335714136729
 30
0.0
 40
60.0
  0
LINE
  5
2BBA4
330
2B8A7
100
AcDbEntity
  8
HIKIDASHI
100
AcDbLine
 10
4515.452564350158
 20
3989.335714136729
 30
0.0
 11
5201.95271204704
 21
3989.335714136729
 31
0.0
  0
TEXT
  5
2BBA5
330
2B8A7
100
AcDbEntity
  8
HIKIDASHI
100
AcDbText
 10
6180.621932573711
 20
2695.221056410115
 30
0.0
 40
90.0
  1
0.6
 41
0.6700000000000001
  7
00
100
AcDbText
  0
TEXT
  5
2BBA6
330
2B8A7
100
AcDbEntity
  8
HIKIDASHI
100
AcDbText
 10
5518.07892773397
 20
2695.221056410115
 30
0.0
 40
90.0
  1
ケラバ包み
 41
0.9
  7
01
 72
     2
 11
5977.07892773397
 21
2695.221056410115
 31
0.0
100
AcDbText
  0
TEXT
  5
2BBA7
330
2B8A7
100
AcDbEntity
  8
HIKIDASHI
100
AcDbText
 10
6044.548458637032
 20
2702.721056410116
 30
0.0
 40
75.0
  1
ア
  7
01
 72
     1
 11
6077.048458637032
 21
2740.221056410116
 31
0.0
100
AcDbText
 73
     2
  0
CIRCLE
  5
2BBA8
330
2B8A7
100
AcDbEntity
  8
HIKIDASHI
100
AcDbCircle
 10
6077.048458637032
 20
2740.221056410116
 30
0.0
 40
60.0
  0
LINE
  5
2BBA9
330
2B8A7
100
AcDbEntity
  8
HIKIDASHI
100
AcDbLine
 10
5488.07892773397
 20
2650.221056410115
 30
0.0
 11
6345.579075430855
 21
2650.221056410115
 31
0.0
  0
TEXT
  5
2BBAA
330
2B8A7
100
AcDbEntity
  8
HIKIDASHI
100
AcDbText
 10
6175.962606173354
 20
2895.742481839631
 30
0.0
 40
90.0
  1
2.3
 41
0.6700000000000001
  7
00
100
AcDbText
  0
TEXT
  5
2BBAB
330
2B8A7
100
AcDbEntity
  8
HIKIDASHI
100
AcDbText
 10
5672.419601333614
 20
2895.742481839631
 30
0.0
 40
90.0
  1
桁金具
  7
01
 72
     2
 11
5972.419601333614
 21
2895.742481839631
 31
0.0
100
AcDbText
  0
TEXT
  5
2BBAC
330
2B8A7
100
AcDbEntity
  8
HIKIDASHI
100
AcDbText
 10
6039.889132236677
 20
2903.24248183963
 30
0.0
 40
75.0
  1
ア
  7
01
 72
     1
 11
6072.389132236676
 21
2940.742481839631
 31
0.0
100
AcDbText
 73
     2
  0
CIRCLE
  5
2BBAD
330
2B8A7
100
AcDbEntity
  8
HIKIDASHI
100
AcDbCircle
 10
6072.389132236676
 20
2940.742481839631
 30
0.0
 40
60.0
  0
LINE
  5
2BBAE
330
2B8A7
100
AcDbEntity
  8
HIKIDASHI
100
AcDbLine
 10
5654.419601333614
 20
2850.742481839629
 30
0.0
 11
6340.919749030497
 21
2850.742481839629
 31
0.0
  0
TEXT
  5
2BBAF
330
2B8A7
100
AcDbEntity
  8
HIKIDASHI
100
AcDbText
 10
7415.37833336045
 20
2716.981056570896
 30
0.0
 40
90.0
  1
2.3
 41
0.6700000000000001
  7
00
100
AcDbText
  0
TEXT
  5
2BBB0
330
2B8A7
100
AcDbEntity
  8
HIKIDASHI
100
AcDbText
 10
6666.435328520711
 20
2716.981056570896
 30
0.0
 40
90.0
  1
三角プレート
 41
0.9
  7
01
 72
     2
 11
7211.835328520712
 21
2716.981056570896
 31
0.0
100
AcDbText
  0
TEXT
  5
2BBB1
330
2B8A7
100
AcDbEntity
  8
HIKIDASHI
100
AcDbText
 10
7279.304859423771
 20
2724.481056570896
 30
0.0
 40
75.0
  1
ア
  7
01
 72
     1
 11
7311.80485942377
 21
2761.981056570895
 31
0.0
100
AcDbText
 73
     2
  0
CIRCLE
  5
2BBB2
330
2B8A7
100
AcDbEntity
  8
HIKIDASHI
100
AcDbCircle
 10
7311.80485942377
 20
2761.981056570895
 30
0.0
 40
60.0
  0
LINE
  5
2BBB3
330
2B8A7
100
AcDbEntity
  8
HIKIDASHI
100
AcDbLine
 10
6636.43532852071
 20
2671.981056570896
 30
0.0
 11
7580.335476217594
 21
2671.981056570896
 31
0.0
  0
TEXT
  5
2BBB4
330
2B8A7
100
AcDbEntity
  8
HIKIDASHI
100
AcDbText
 10
6194.976524556523
 20
3610.688555534784
 30
0.0
 40
90.0
  1
1.6
 41
0.6700000000000001
  7
00
100
AcDbText
  0
TEXT
  5
2BBB5
330
2B8A7
100
AcDbEntity
  8
HIKIDASHI
100
AcDbText
 10
5907.433519716785
 20
3610.688555534784
 30
0.0
 40
90.0
  1
桁
  7
01
 72
     2
 11
5991.433519716785
 21
3610.688555534784
 31
0.0
100
AcDbText
  0
TEXT
  5
2BBB6
330
2B8A7
100
AcDbEntity
  8
HIKIDASHI
100
AcDbText
 10
6058.903050619846
 20
3618.188555534786
 30
0.0
 40
75.0
  1
ア
  7
01
 72
     1
 11
6091.403050619845
 21
3655.688555534786
 31
0.0
100
AcDbText
 73
     2
  0
CIRCLE
  5
2BBB7
330
2B8A7
100
AcDbEntity
  8
HIKIDASHI
100
AcDbCircle
 10
6091.403050619845
 20
3655.688555534786
 30
0.0
 40
60.0
  0
LINE
  5
2BBB8
330
2B8A7
100
AcDbEntity
  8
HIKIDASHI
100
AcDbLine
 10
5877.433519716785
 20
3565.688555534785
 30
0.0
 11
6359.933667413669
 21
3565.688555534785
 31
0.0
  0
TEXT
  5
2BBB9
330
2B8A7
100
AcDbEntity
  8
HIKIDASHI
100
AcDbText
 10
8491.202561274411
 20
3824.335714136732
 30
0.0
 40
90.0
  1
0.5
 41
0.6700000000000001
  7
00
100
AcDbText
  0
TEXT
  5
2BBBA
330
2B8A7
100
AcDbEntity
  8
HIKIDASHI
100
AcDbText
 10
8103.515990100481
 20
3824.335714136732
 30
0.0
 40
90.0
  1
66
 41
0.6666666666666666
  7
00
100
AcDbText
  0
CIRCLE
  5
2BBBB
330
2B8A7
100
AcDbEntity
  8
HIKIDASHI
100
AcDbCircle
 10
8372.730384457776
 20
3869.335714136735
 30
0.0
 40
60.0
  0
TEXT
  5
2BBBC
330
2B8A7
100
AcDbEntity
  8
HIKIDASHI
100
AcDbText
 10
8340.230384457775
 20
3831.835714136735
 30
0.0
 40
75.0
  1
ア
  7
01
 72
     1
 11
8372.730384457776
 21
3869.335714136735
 31
0.0
100
AcDbText
 73
     2
  0
TEXT
  5
2BBBD
330
2B8A7
100
AcDbEntity
  8
HIKIDASHI
100
AcDbText
 10
7556.054233842374
 20
3824.335714136732
 30
0.0
 40
90.0
  1
ヨドルーフ
  7
01
100
AcDbText
  0
LINE
  5
2BBBE
330
2B8A7
100
AcDbEntity
  8
HIKIDASHI
100
AcDbLine
 10
7515.574696561038
 20
3779.335714136733
 30
0.0
 11
8640.373425452738
 21
3779.335714136733
 31
0.0
  0
TEXT
  5
2BBBF
330
2B8A7
100
AcDbEntity
  8
HIKIDASHI
100
AcDbText
 10
6946.664380436462
 20
1953.850153502007
 30
0.0
 40
90.0
  1
2.3
 41
0.6700000000000001
  7
00
100
AcDbText
  0
TEXT
  5
2BBC0
330
2B8A7
100
AcDbEntity
  8
HIKIDASHI
100
AcDbText
 10
6659.121375596722
 20
1953.850153502007
 30
0.0
 40
90.0
  1
柱
  7
01
 72
     2
 11
6743.121375596721
 21
1953.850153502007
 31
0.0
100
AcDbText
  0
TEXT
  5
2BBC1
330
2B8A7
100
AcDbEntity
  8
HIKIDASHI
100
AcDbText
 10
6810.590906499782
 20
1961.350153502007
 30
0.0
 40
75.0
  1
ア
  7
01
 72
     1
 11
6843.090906499782
 21
1998.850153502007
 31
0.0
100
AcDbText
 73
     2
  0
CIRCLE
  5
2BBC2
330
2B8A7
100
AcDbEntity
  8
HIKIDASHI
100
AcDbCircle
 10
6843.090906499782
 20
1998.850153502007
 30
0.0
 40
60.0
  0
LINE
  5
2BBC3
330
2B8A7
100
AcDbEntity
  8
HIKIDASHI
100
AcDbLine
 10
6629.121375596721
 20
1908.850153502007
 30
0.0
 11
7111.621523293608
 21
1908.850153502007
 31
0.0
  0
TEXT
  5
2BBC4
330
2B8A7
100
AcDbEntity
  8
HIKIDASHI
100
AcDbText
 10
7148.097974491887
 20
2940.810425701556
 30
0.0
 40
90.0
  1
2.3
 41
0.6700000000000001
  7
00
100
AcDbText
  0
TEXT
  5
2BBC5
330
2B8A7
100
AcDbEntity
  8
HIKIDASHI
100
AcDbText
 10
6860.554969652149
 20
2940.810425701556
 30
0.0
 40
90.0
  1
梁
  7
01
 72
     2
 11
6944.554969652148
 21
2940.810425701556
 31
0.0
100
AcDbText
  0
TEXT
  5
2BBC6
330
2B8A7
100
AcDbEntity
  8
HIKIDASHI
100
AcDbText
 10
7012.024500555205
 20
2948.310425701555
 30
0.0
 40
75.0
  1
ア
  7
01
 72
     1
 11
7044.524500555205
 21
2985.810425701556
 31
0.0
100
AcDbText
 73
     2
  0
CIRCLE
  5
2BBC7
330
2B8A7
100
AcDbEntity
  8
HIKIDASHI
100
AcDbCircle
 10
7044.524500555205
 20
2985.810425701556
 30
0.0
 40
60.0
  0
LINE
  5
2BBC8
330
2B8A7
100
AcDbEntity
  8
HIKIDASHI
100
AcDbLine
 10
6830.554969652144
 20
2895.810425701557
 30
0.0
 11
7313.055117349029
 21
2895.810425701557
 31
0.0
  0
TEXT
  5
2BBC9
330
2B8A7
100
AcDbEntity
  8
HIKIDASHI
100
AcDbText
 10
8702.380882607796
 20
3131.70785144848
 30
0.0
 40
120.0
  1
※断面図のため樹脂キャップ
  7
01
100
AcDbText
  0
TEXT
  5
2BBCA
330
2B8A7
100
AcDbEntity
  8
HIKIDASHI
100
AcDbText
 10
8702.380882607796
 20
2971.70785144848
 30
0.0
 40
120.0
  1
　厚さ（　　　）を含んでおりません。
  7
01
100
AcDbText
  0
TEXT
  5
2BBCB
330
2B8A7
100
AcDbEntity
  8
HIKIDASHI
100
AcDbText
 10
9256.086867375939
 20
2971.70785144848
 30
0.0
 40
120.0
  1
10 mm
 41
0.6666666666666666
  7
01
100
AcDbText
  0
LINE
  5
2BBCC
330
2B8A7
100
AcDbEntity
  8
HASHIRA
100
AcDbLine
 10
2406.34597697571
 20
2968.125919511109
 30
0.0
 11
2406.34597697571
 21
1275.125919511107
 31
0.0
  0
LINE
  5
2BBCD
330
2B8A7
100
AcDbEntity
  8
HASHIRA
  6
1PL-S
 62
     6
100
AcDbLine
 10
2368.84597697571
 20
3183.375919511107
 30
0.0
 11
2368.84597697571
 21
3156.875919511108
 31
0.0
  0
LINE
  5
2BBCE
330
2B8A7
100
AcDbEntity
  8
HASHIRA
  6
1PL-S
 62
     6
100
AcDbLine
 10
2368.84597697571
 20
3011.875919511108
 30
0.0
 11
2368.84597697571
 21
2985.375919511108
 31
0.0
  0
LINE
  5
2BBCF
330
2B8A7
100
AcDbEntity
  8
HASHIRA
100
AcDbLine
 10
2331.345976975711
 20
1275.125919511107
 30
0.0
 11
2331.345976975711
 21
2968.125919511107
 31
0.0
  0
LINE
  5
2BBD0
330
2B8A7
100
AcDbEntity
  8
HASHIRA
  6
1PL-S
 62
     6
100
AcDbLine
 10
2382.095976975711
 20
2998.625919511107
 30
0.0
 11
2355.595976975711
 21
2998.625919511107
 31
0.0
  0
CIRCLE
  5
2BBD1
330
2B8A7
100
AcDbEntity
  8
HASHIRA
100
AcDbCircle
 10
2368.84597697571
 20
2998.625919511107
 30
0.0
 40
7.25
  0
CIRCLE
  5
2BBD2
330
2B8A7
100
AcDbEntity
  8
HASHIRA
100
AcDbCircle
 10
2368.84597697571
 20
2998.625919511107
 30
0.0
 40
5.0
  0
CIRCLE
  5
2BBD3
330
2B8A7
100
AcDbEntity
  8
HASHIRA
100
AcDbCircle
 10
2368.84597697571
 20
2998.625919511107
 30
0.0
 40
4.0
  0
LINE
  5
2BBD4
330
2B8A7
100
AcDbEntity
  8
HASHIRA
  6
1PL-S
 62
     6
100
AcDbLine
 10
2382.095976975711
 20
3170.125919511108
 30
0.0
 11
2355.595976975711
 21
3170.125919511108
 31
0.0
  0
CIRCLE
  5
2BBD5
330
2B8A7
100
AcDbEntity
  8
HASHIRA
100
AcDbCircle
 10
2368.84597697571
 20
3170.125919511108
 30
0.0
 40
7.25
  0
CIRCLE
  5
2BBD6
330
2B8A7
100
AcDbEntity
  8
HASHIRA
100
AcDbCircle
 10
2368.84597697571
 20
3170.125919511108
 30
0.0
 40
5.0
  0
CIRCLE
  5
2BBD7
330
2B8A7
100
AcDbEntity
  8
HASHIRA
100
AcDbCircle
 10
2368.84597697571
 20
3170.125919511108
 30
0.0
 40
4.0
  0
LINE
  5
2BBD8
330
2B8A7
100
AcDbEntity
  8
HARI
100
AcDbLine
 10
2986.487430714912
 20
3145.039369997068
 30
0.0
 11
2609.792836252367
 21
3182.898601220927
 31
0.0
  0
LINE
  5
2BBD9
330
2B8A7
100
AcDbEntity
  8
HARI
100
AcDbLine
 10
2112.29911769906
 20
3232.898601220924
 30
0.0
 11
1735.604523236512
 21
3270.757832444783
 31
0.0
  0
LINE
  5
2BBDA
330
2B8A7
100
AcDbEntity
  8
KETA
100
AcDbLine
 10
2985.631596272696
 20
3149.447047200484
 30
0.0
 11
2988.519344111302
 21
3178.179775409993
 31
0.0
  0
LINE
  5
2BBDB
330
2B8A7
100
AcDbEntity
  8
KETA
100
AcDbLine
 10
3063.143851201526
 20
3170.684245960416
 30
0.0
 11
3060.255654055692
 21
3141.947047200484
 31
0.0
  0
LINE
  5
2BBDC
330
2B8A7
100
AcDbEntity
  8
KETA
100
AcDbLine
 10
3051.714752046262
 20
3134.966145191053
 30
0.0
 11
2992.612498282129
 21
3140.906145191053
 31
0.0
  0
ARC
  5
2BBDD
330
2B8A7
100
AcDbEntity
  8
KETA
100
AcDbCircle
 10
2993.392498282128
 20
3148.667047200484
 30
0.0
 40
7.799999999999999
100
AcDbArc
 50
174.2608295227396
 51
264.2608295227124
  0
ARC
  5
2BBDE
330
2B8A7
100
AcDbEntity
  8
KETA
100
AcDbCircle
 10
3052.494752046261
 20
3142.727047200484
 30
0.0
 40
7.799999999999999
100
AcDbArc
 50
264.2608295227124
 51
354.2608295227396
  0
LINE
  5
2BBDF
330
2B8A7
100
AcDbEntity
  8
KETA
100
AcDbLine
 10
1737.320357678727
 20
3274.907047200479
 30
0.0
 11
1740.20058950612
 21
3303.564992042473
 31
0.0
  0
LINE
  5
2BBE0
330
2B8A7
100
AcDbEntity
  8
KETA
100
AcDbLine
 10
1665.57608241589
 20
3311.060521492048
 30
0.0
 11
1662.696299895732
 21
3282.40704720048
 31
0.0
  0
LINE
  5
2BBE1
330
2B8A7
100
AcDbEntity
  8
KETA
100
AcDbLine
 10
1669.677201905165
 20
3273.866145191049
 30
0.0
 11
1728.779455669298
 21
3267.926145191051
 31
0.0
  0
ARC
  5
2BBE2
330
2B8A7
100
AcDbEntity
  8
KETA
100
AcDbCircle
 10
1729.559455669297
 20
3275.687047200481
 30
0.0
 40
7.799999999999999
100
AcDbArc
 50
264.2608295227124
 51
354.2608295227396
  0
ARC
  5
2BBE3
330
2B8A7
100
AcDbEntity
  8
KETA
100
AcDbCircle
 10
1670.457201905164
 20
3281.627047200481
 30
0.0
 40
7.799999999999999
100
AcDbArc
 50
174.2608295227396
 51
264.2608295227124
  0
LINE
  5
2BBE4
330
2B8A7
100
AcDbEntity
  8
BOLT
100
AcDbLine
 10
1712.35652130923
 20
3450.179102871528
 30
0.0
 11
1711.905864867448
 21
3445.692426505142
 31
0.0
  0
LINE
  5
2BBE5
330
2B8A7
100
AcDbEntity
  8
BOLT
100
AcDbLine
 10
1718.054348485283
 20
3449.606794483013
 30
0.0
 11
1717.603692043501
 21
3445.120118116625
 31
0.0
  0
LINE
  5
2BBE6
330
2B8A7
100
AcDbEntity
  8
BOLT
100
AcDbLine
 10
1720.92664709724
 20
3449.318291420502
 30
0.0
 11
1720.475990655458
 21
3444.831615054113
 31
0.0
  0
ARC
  5
2BBE7
330
2B8A7
100
AcDbEntity
  8
BOLT
100
AcDbCircle
 10
1719.302885946786
 20
3447.594704060274
 30
0.0
 40
2.367985148190903
100
AcDbArc
 50
46.70819553224974
 51
121.8203284219297
  0
ARC
  5
2BBE8
330
2B8A7
100
AcDbEntity
  8
BOLT
100
AcDbCircle
 10
1714.395179864966
 20
3441.826155956539
 30
0.0
 40
8.598130661459229
100
AcDbArc
 50
64.81279441394973
 51
103.7157295402129
  0
LINE
  5
2BBE9
330
2B8A7
100
AcDbEntity
  8
BOLT
100
AcDbLine
 10
1712.269500139628
 20
3450.681060618748
 30
0.0
 11
1712.37033037709
 21
3451.684913224605
 31
0.0
  0
LINE
  5
2BBEA
330
2B8A7
100
AcDbEntity
  8
BOLT
100
AcDbLine
 10
1718.340290933593
 20
3451.085270869713
 30
0.0
 11
1718.239460696135
 21
3450.081418263859
 31
0.0
  0
LINE
  5
2BBEB
330
2B8A7
100
AcDbEntity
  8
BOLT
100
AcDbLine
 10
1710.969417523877
 20
3450.811645166817
 30
0.0
 11
1719.539543311887
 21
3449.950833715791
 31
0.0
  0
LINE
  5
2BBEC
330
2B8A7
100
AcDbEntity
  8
BOLT
100
AcDbLine
 10
1709.033566255491
 20
3445.980929567652
 30
0.0
 11
1709.48422269727
 21
3450.467605934039
 31
0.0
  0
LINE
  5
2BBED
330
2B8A7
100
AcDbEntity
  8
BOLT
100
AcDbLine
 10
1720.475990655458
 20
3444.831615054113
 30
0.0
 11
1709.033566255491
 21
3445.980929567652
 31
0.0
  0
ARC
  5
2BBEE
330
2B8A7
100
AcDbEntity
  8
BOLT
100
AcDbCircle
 10
1710.732760158776
 20
3448.455515511301
 30
0.0
 40
2.367985148190903
100
AcDbArc
 50
46.70819553224974
 51
121.8203284219297
  0
LINE
  5
2BBEF
330
2B8A7
100
AcDbEntity
  8
BOLT
100
AcDbLine
 10
1715.874616167861
 20
3456.555229548683
 30
0.0
 11
1712.37033037709
 21
3451.684913224605
 31
0.0
  0
LINE
  5
2BBF0
330
2B8A7
100
AcDbEntity
  8
BOLT
100
AcDbLine
 10
1715.874616167861
 20
3456.555229548682
 30
0.0
 11
1718.340290933593
 21
3451.085270869716
 31
0.0
  0
LINE
  5
2BBF1
330
2B8A7
100
AcDbEntity
  8
BOLT
100
AcDbLine
 10
3044.97893257483
 20
3316.245511193145
 30
0.0
 11
3044.527738563987
 21
3311.758888854483
 31
0.0
  0
LINE
  5
2BBF2
330
2B8A7
100
AcDbEntity
  8
BOLT
100
AcDbLine
 10
3039.281174010947
 20
3316.818502264196
 30
0.0
 11
3038.829980000112
 21
3312.331879925532
 31
0.0
  0
LINE
  5
2BBF3
330
2B8A7
100
AcDbEntity
  8
BOLT
100
AcDbLine
 10
3036.408909986677
 20
3317.107349469838
 30
0.0
 11
3035.957715975841
 21
3312.620727131173
 31
0.0
  0
ARC
  5
2BBF4
330
2B8A7
100
AcDbEntity
  8
BOLT
100
AcDbCircle
 10
3037.657206360084
 20
3315.095109467705
 30
0.0
 40
2.3679851481909
100
AcDbArc
 50
46.70133062349818
 51
121.8134635132155
  0
ARC
  5
2BBF5
330
2B8A7
100
AcDbEntity
  8
BOLT
100
AcDbCircle
 10
3041.318831741556
 20
3308.46531114676
 30
0.0
 40
8.598130661459228
100
AcDbArc
 50
64.80592950519754
 51
103.7088646315127
  0
LINE
  5
2BBF6
330
2B8A7
100
AcDbEntity
  8
BOLT
100
AcDbLine
 10
3045.164101651522
 20
3316.720112791319
 30
0.0
 11
3045.265052165117
 21
3317.723953308969
 31
0.0
  0
LINE
  5
2BBF7
330
2B8A7
100
AcDbEntity
  8
BOLT
100
AcDbLine
 10
3039.295163497766
 20
3318.324310951924
 30
0.0
 11
3039.19421298417
 21
3317.320470434276
 31
0.0
  0
LINE
  5
2BBF8
330
2B8A7
100
AcDbEntity
  8
BOLT
100
AcDbLine
 10
3046.464168611922
 20
3316.589372474452
 30
0.0
 11
3037.89414602377
 21
3317.451210751145
 31
0.0
  0
LINE
  5
2BBF9
330
2B8A7
100
AcDbEntity
  8
BOLT
100
AcDbLine
 10
3047.400002588257
 20
3311.470041648838
 30
0.0
 11
3047.851196599099
 21
3315.956663987504
 31
0.0
  0
LINE
  5
2BBFA
330
2B8A7
100
AcDbEntity
  8
BOLT
100
AcDbLine
 10
3035.957715975841
 20
3312.620727131173
 30
0.0
 11
3047.400002588257
 21
3311.470041648838
 31
0.0
  0
ARC
  5
2BBFB
330
2B8A7
100
AcDbEntity
  8
BOLT
100
AcDbCircle
 10
3046.227228948236
 20
3314.233271191012
 30
0.0
 40
2.3679851481909
100
AcDbArc
 50
46.70133062349818
 51
121.8134635132155
  0
LINE
  5
2BBFC
330
2B8A7
100
AcDbEntity
  8
BOLT
100
AcDbLine
 10
3042.800032801599
 20
3323.194207374136
 30
0.0
 11
3045.265052165117
 21
3317.723953308969
 31
0.0
  0
LINE
  5
2BBFD
330
2B8A7
100
AcDbEntity
  8
BOLT
100
AcDbLine
 10
3042.800032801599
 20
3323.194207374135
 30
0.0
 11
3039.295163497766
 21
3318.324310951926
 31
0.0
  0
LINE
  5
2BBFE
330
2B8A7
100
AcDbEntity
  8
BOLT
  6
1PL-S
 62
     6
100
AcDbLine
 10
1717.378816315358
 20
3471.470723317883
 30
0.0
 11
1710.974258875205
 21
3407.746181386014
 31
0.0
  0
LINE
  5
2BBFF
330
2B8A7
100
AcDbEntity
  8
BOLT
  6
1PL-S
 62
     6
100
AcDbLine
 10
3044.294062440757
 20
3338.110723317864
 30
0.0
 11
3037.897494282109
 21
3274.465673733383
 31
0.0
  0
LINE
  5
2BC00
330
2B8A7
100
AcDbEntity
  8
鼻隠し
100
AcDbLine
 10
1371.14809326383
 20
3413.498634268911
 30
0.0
 11
1365.201639911175
 21
3354.296525416904
 31
0.0
  0
LINE
  5
2BC01
330
2B8A7
100
AcDbEntity
  8
鼻隠し
100
AcDbLine
 10
1421.421724273471
 20
3468.750892368522
 30
0.0
 11
1404.933042877609
 21
3470.407069431614
 31
0.0
  0
LINE
  5
2BC02
330
2B8A7
100
AcDbEntity
  8
鼻隠し
100
AcDbLine
 10
1393.798071662896
 20
3463.966161368968
 30
0.0
 11
1371.14809326383
 21
3413.498634268911
 31
0.0
  0
ARC
  5
2BC03
330
2B8A7
100
AcDbEntity
  8
鼻隠し
100
AcDbCircle
 10
1403.83369856031
 20
3459.462141744688
 30
0.0
 40
11.0
100
AcDbArc
 50
84.26426197707984
 51
155.8293131541628
  0
LINE
  5
2BC04
330
2B8A7
100
AcDbEntity
  8
鼻隠し
100
AcDbLine
 10
1375.047223280803
 20
3342.252253412681
 30
0.0
 11
1408.379503054616
 21
3338.904250264545
 31
0.0
  0
ARC
  5
2BC05
330
2B8A7
100
AcDbEntity
  8
鼻隠し
100
AcDbCircle
 10
1376.146567598099
 20
3353.197181099607
 30
0.0
 40
11.0
100
AcDbArc
 50
174.2642619770655
 51
264.2642619770798
  0
LINE
  5
2BC06
330
2B8A7
100
AcDbEntity
  8
KERABA
100
AcDbLine
 10
1392.259727452308
 20
3338.513309692085
 30
0.0
 11
3349.411796559771
 21
3141.930557680671
 31
0.0
  0
LINE
  5
2BC07
330
2B8A7
100
AcDbEntity
  8
KERABA
100
AcDbLine
 10
3362.454017778632
 20
3271.777199784647
 30
0.0
 11
1421.221843488505
 21
3466.760905516355
 31
0.0
  0
LINE
  5
2BC08
330
2B8A7
100
AcDbEntity
  8
鼻隠し
100
AcDbLine
 10
1421.421724273471
 20
3468.750892368522
 30
0.0
 11
1408.379503054618
 21
3338.904250264548
 31
0.0
  0
LINE
  5
2BC09
330
2B8A7
100
AcDbEntity
  8
U3
100
AcDbLine
 10
968.8459769757107
 20
1225.125919511109
 30
0.0
 11
507.4855872825036
 21
1225.125919511109
 31
0.0
  0
LINE
  5
2BC0A
330
2B8A7
100
AcDbEntity
  8
U3
100
AcDbLine
 10
4030.206366668919
 20
1225.125919511111
 30
0.0
 11
3568.845976975709
 21
1225.125919511111
 31
0.0
  0
LINE
  5
2BC0B
330
2B8A7
100
AcDbEntity
  8
1PL-M1
100
AcDbLine
 10
2368.84597697571
 20
1075.12591951111
 30
0.0
 11
2368.84597697571
 21
3460.723022657499
 31
0.0
  0
LINE
  5
2BC0C
330
2B8A7
100
AcDbEntity
  8
SUNPOU
100
AcDbLine
 10
1228.689753794258
 20
1275.125919511107
 30
0.0
 11
1280.651278021321
 21
1365.125919511107
 31
0.0
  0
LINE
  5
2BC0D
330
2B8A7
100
AcDbEntity
  8
SUNPOU
100
AcDbLine
 10
1176.728229567187
 20
1365.125919511107
 30
0.0
 11
1228.689753794258
 21
1275.125919511107
 31
0.0
  0
TEXT
  5
2BC0E
330
2B8A7
100
AcDbEntity
  8
SUNPOU
100
AcDbText
 10
1160.118325222829
 20
1410.125919511107
 30
0.0
 40
90.0
  1
F.L
 41
0.6666666666666666
  7
00
 72
     4
 11
1228.689753794258
 21
1455.125919511107
 31
0.0
100
AcDbText
  0
LINE
  5
2BC0F
330
2B8A7
100
AcDbEntity
  8
SUNPOU
100
AcDbLine
 10
1280.651278021321
 20
1365.125919511107
 30
0.0
 11
1176.728229567187
 21
1365.125919511107
 31
0.0
  0
LINE
  5
2BC10
330
2B8A7
100
AcDbEntity
  8
SUNPOU
100
AcDbLine
 10
593.3791602660867
 20
1315.125919511109
 30
0.0
 11
645.3406844931496
 21
1225.125919511109
 31
0.0
  0
LINE
  5
2BC11
330
2B8A7
100
AcDbEntity
  8
SUNPOU
100
AcDbLine
 10
645.3406844931496
 20
1225.125919511109
 30
0.0
 11
697.3022087202198
 21
1315.125919511109
 31
0.0
  0
TEXT
  5
2BC12
330
2B8A7
100
AcDbEntity
  8
SUNPOU
100
AcDbText
 10
573.9121130645782
 20
1360.125919511109
 30
0.0
 40
90.0
  1
G.L
 41
0.6666666666666666
  7
00
 72
     4
 11
645.3406844931496
 21
1405.125919511108
 31
0.0
100
AcDbText
  0
LINE
  5
2BC13
330
2B8A7
100
AcDbEntity
  8
SUNPOU
100
AcDbLine
 10
697.3022087202198
 20
1315.125919511109
 30
0.0
 11
593.3791602660867
 21
1315.125919511109
 31
0.0
  0
TEXT
  5
2BC14
330
2B8A7
100
AcDbEntity
  8
SUNPOU
100
AcDbText
 10
2733.476553251557
 20
3821.659309314529
 30
0.0
 40
90.0
  1
10
 41
0.6666666666666666
  7
00
 72
     4
 11
2794.905124680128
 21
3866.659309314529
 31
0.0
100
AcDbText
  0
LINE
  5
2BC15
330
2B8A7
100
AcDbEntity
  8
SUNPOU
100
AcDbLine
 10
2944.90512468013
 20
3776.659309314529
 30
0.0
 11
2644.905124680129
 21
3776.659309314529
 31
0.0
  0
LINE
  5
2BC16
330
2B8A7
100
AcDbEntity
  8
SUNPOU
100
AcDbLine
 10
2644.905124680129
 20
3776.659309314529
 30
0.0
 11
2944.90512468013
 21
3756.659309314528
 31
0.0
  0
TEXT
  5
2BC17
330
2B8A7
100
AcDbEntity
  8
SUNPOU
100
AcDbText
 10
2985.233801697598
 20
3721.659309314529
 30
0.0
 40
90.0
  1
1
 41
0.6666666666666666
  7
00
 72
     4
 11
3009.519515983312
 21
3766.659309314529
 31
0.0
100
AcDbText
  0
LINE
  5
2BC18
330
2B8A7
100
AcDbEntity
  8
SUNPOU
100
AcDbLine
 10
2944.90512468013
 20
3776.659309314529
 30
0.0
 11
2944.90512468013
 21
3756.659309314528
 31
0.0
  0
LINE
  5
2BC19
330
2B8A7
100
AcDbEntity
  8
KERABA
100
AcDbLine
 10
1392.45960823727
 20
3340.503296544251
 30
0.0
 11
1392.259727452308
 21
3338.513309692085
 31
0.0
  0
LINE
  5
2BC1A
330
2B8A7
100
AcDbEntity
  8
SANKAKU
  6
1PL-S
 62
     6
100
AcDbLine
 10
2368.84597697571
 20
3190.125919511108
 30
0.0
 11
2368.84597697571
 21
3150.125919511108
 31
0.0
  0
LINE
  5
2BC1B
330
2B8A7
100
AcDbEntity
  8
SANKAKU
  6
1PL-S
 62
     6
100
AcDbLine
 10
2368.84597697571
 20
3018.625919511108
 30
0.0
 11
2368.84597697571
 21
2978.625919511108
 31
0.0
  0
LINE
  5
2BC1C
330
2B8A7
100
AcDbEntity
  8
SANKAKU
100
AcDbLine
 10
2406.851603305592
 20
2968.125919511107
 30
0.0
 11
2330.845546213925
 21
2968.125919511107
 31
0.0
  0
LINE
  5
2BC1D
330
2B8A7
100
AcDbEntity
  8
SANKAKU
100
AcDbLine
 10
2115.611609841308
 20
3265.85748189148
 30
0.0
 11
2111.999117699056
 21
3229.913638909605
 31
0.0
  0
LINE
  5
2BC1E
330
2B8A7
100
AcDbEntity
  8
SANKAKU
100
AcDbLine
 10
2613.108323776104
 20
3215.887285560985
 30
0.0
 11
2609.492836252365
 21
3179.913638909605
 31
0.0
  0
LINE
  5
2BC1F
330
2B8A7
100
AcDbEntity
  8
SANKAKU
  6
1PL-S
 62
     6
100
AcDbLine
 10
2388.84597697571
 20
3170.125919511108
 30
0.0
 11
2348.845976975711
 21
3170.125919511108
 31
0.0
  0
CIRCLE
  5
2BC20
330
2B8A7
100
AcDbEntity
  8
SANKAKU
100
AcDbCircle
 10
2368.84597697571
 20
3170.125919511108
 30
0.0
 40
6.0
  0
CIRCLE
  5
2BC21
330
2B8A7
100
AcDbEntity
  8
SANKAKU
100
AcDbCircle
 10
2368.84597697571
 20
3170.125919511108
 30
0.0
 40
11.0
  0
CIRCLE
  5
2BC22
330
2B8A7
100
AcDbEntity
  8
SANKAKU
100
AcDbCircle
 10
2368.84597697571
 20
3170.125919511108
 30
0.0
 40
12.5
  0
CIRCLE
  5
2BC23
330
2B8A7
100
AcDbEntity
  8
SANKAKU
100
AcDbCircle
 10
2368.84597697571
 20
2998.625919511107
 30
0.0
 40
12.5
  0
CIRCLE
  5
2BC24
330
2B8A7
100
AcDbEntity
  8
SANKAKU
100
AcDbCircle
 10
2368.84597697571
 20
2998.625919511107
 30
0.0
 40
11.0
  0
CIRCLE
  5
2BC25
330
2B8A7
100
AcDbEntity
  8
SANKAKU
100
AcDbCircle
 10
2368.84597697571
 20
2998.625919511107
 30
0.0
 40
6.0
  0
LINE
  5
2BC26
330
2B8A7
100
AcDbEntity
  8
SANKAKU
  6
1PL-S
 62
     6
100
AcDbLine
 10
2388.84597697571
 20
2998.625919511107
 30
0.0
 11
2348.845976975711
 21
2998.625919511107
 31
0.0
  0
ARC
  5
2BC27
330
2B8A7
100
AcDbEntity
  8
SANKAKU
100
AcDbCircle
 10
1899.048977108617
 20
2833.489323784367
 30
0.0
 40
450.0
100
AcDbArc
 50
17.30831855327305
 51
61.75631760499999
  0
ARC
  5
2BC28
330
2B8A7
100
AcDbEntity
  8
SANKAKU
100
AcDbCircle
 10
2740.63389120482
 20
2855.410905938129
 30
0.0
 40
350.0
100
AcDbArc
 50
112.0050756645566
 51
161.3442910395519
  0
ARC
  5
2BC29
330
2B8A7
100
AcDbEntity
  8
SANKAKU
100
AcDbCircle
 10
2740.63389120482
 20
2855.410905938129
 30
0.0
 40
370.0
100
AcDbArc
 50
120.2149754166317
 51
147.1532297771698
  0
ARC
  5
2BC2A
330
2B8A7
100
AcDbEntity
  8
SANKAKU
100
AcDbCircle
 10
2740.63389120482
 20
2855.410905938129
 30
0.0
 40
376.0
100
AcDbArc
 50
120.2149754166317
 51
147.1532297771698
  0
LINE
  5
2BC2B
330
2B8A7
100
AcDbEntity
  8
SANKAKU
100
AcDbLine
 10
2188.458389362483
 20
3241.023400120059
 30
0.0
 11
2322.945976975709
 21
3227.506888996631
 31
0.0
  0
LINE
  5
2BC2C
330
2B8A7
100
AcDbEntity
  8
SANKAKU
100
AcDbLine
 10
2400.345976975711
 20
3202.039230757963
 30
0.0
 11
2400.345976975711
 21
3064.775059233131
 31
0.0
  0
LINE
  5
2BC2D
330
2B8A7
100
AcDbEntity
  8
SANKAKU
100
AcDbLine
 10
2406.34597697571
 20
3202.039230757963
 30
0.0
 11
2406.34597697571
 21
3064.775059233131
 31
0.0
  0
ARC
  5
2BC2E
330
2B8A7
100
AcDbEntity
  8
SANKAKU
100
AcDbCircle
 10
2416.345976975711
 20
3202.039230757963
 30
0.0
 40
10.0
100
AcDbArc
 50
84.26082952271237
 51
180.0
  0
LINE
  5
2BC2F
330
2B8A7
100
AcDbEntity
  8
SANKAKU
100
AcDbLine
 10
2331.345976975711
 20
3211.587090002925
 30
0.0
 11
2331.345976975711
 21
3074.032966193084
 31
0.0
  0
LINE
  5
2BC30
330
2B8A7
100
AcDbEntity
  8
SANKAKU
100
AcDbLine
 10
2337.345976975711
 20
3211.587090002925
 30
0.0
 11
2337.345976975711
 21
3074.032966193084
 31
0.0
  0
ARC
  5
2BC31
330
2B8A7
100
AcDbEntity
  8
SANKAKU
100
AcDbCircle
 10
1899.048977108617
 20
2833.489323784367
 30
0.0
 40
470.0
100
AcDbArc
 50
29.66617416802954
 51
53.68668615360108
  0
ARC
  5
2BC32
330
2B8A7
100
AcDbEntity
  8
SANKAKU
100
AcDbCircle
 10
1899.048977108617
 20
2833.489323784367
 30
0.0
 40
476.0
100
AcDbArc
 50
29.66617416802954
 51
53.68668615360108
  0
LINE
  5
2BC33
330
2B8A7
100
AcDbEntity
  8
SANKAKU
100
AcDbLine
 10
2187.858389362481
 20
3235.053475497421
 30
0.0
 11
2322.34597697571
 21
3221.536964373991
 31
0.0
  0
LINE
  5
2BC34
330
2B8A7
100
AcDbEntity
  8
SANKAKU
100
AcDbLine
 10
2417.345976975711
 20
3211.98910512903
 30
0.0
 11
2547.381002664838
 21
3198.92009331645
 31
0.0
  0
LINE
  5
2BC35
330
2B8A7
100
AcDbEntity
  8
SANKAKU
100
AcDbLine
 10
2417.945976975711
 20
3217.959029751669
 30
0.0
 11
2547.981002664839
 21
3204.890017939092
 31
0.0
  0
ARC
  5
2BC36
330
2B8A7
100
AcDbEntity
  8
SANKAKU
100
AcDbCircle
 10
2321.345976975711
 20
3211.587090002925
 30
0.0
 40
10.0
100
AcDbArc
 50
0.0
 51
84.26082952271237
  0
ARC
  5
2BC37
330
2B8A7
100
AcDbEntity
  8
SANKAKU
100
AcDbCircle
 10
2186.85838936248
 20
3225.103601126355
 30
0.0
 40
10.0
100
AcDbArc
 50
84.26082952271237
 51
233.6866861536011
  0
ARC
  5
2BC38
330
2B8A7
100
AcDbEntity
  8
SANKAKU
100
AcDbCircle
 10
2321.345976975711
 20
3074.032966193084
 30
0.0
 40
10.0
100
AcDbArc
 50
209.6661741680295
 51
0.0
  0
ARC
  5
2BC39
330
2B8A7
100
AcDbEntity
  8
SANKAKU
100
AcDbCircle
 10
2186.85838936248
 20
3225.103601126355
 30
0.0
 40
16.0
100
AcDbArc
 50
84.26082952271237
 51
233.6866861536011
  0
ARC
  5
2BC3A
330
2B8A7
100
AcDbEntity
  8
SANKAKU
100
AcDbCircle
 10
2321.345976975711
 20
3211.587090002925
 30
0.0
 40
16.0
100
AcDbArc
 50
0.0
 51
84.26082952271237
  0
ARC
  5
2BC3B
330
2B8A7
100
AcDbEntity
  8
SANKAKU
100
AcDbCircle
 10
2321.345976975711
 20
3074.032966193084
 30
0.0
 40
16.0
100
AcDbArc
 50
209.6661741680295
 51
0.0
  0
ARC
  5
2BC3C
330
2B8A7
100
AcDbEntity
  8
SANKAKU
100
AcDbCircle
 10
2416.345976975711
 20
3202.039230757963
 30
0.0
 40
16.0
100
AcDbArc
 50
84.26082952271237
 51
180.0
  0
ARC
  5
2BC3D
330
2B8A7
100
AcDbEntity
  8
SANKAKU
100
AcDbCircle
 10
2546.381002664838
 20
3188.970218945385
 30
0.0
 40
16.0
100
AcDbArc
 50
300.2149754166317
 51
84.26082952271237
  0
ARC
  5
2BC3E
330
2B8A7
100
AcDbEntity
  8
SANKAKU
100
AcDbCircle
 10
2416.345976975711
 20
3064.775059233131
 30
0.0
 40
16.0
100
AcDbArc
 50
180.0
 51
327.1532297771698
  0
ARC
  5
2BC3F
330
2B8A7
100
AcDbEntity
  8
SANKAKU
100
AcDbCircle
 10
2546.381002664838
 20
3188.970218945385
 30
0.0
 40
10.0
100
AcDbArc
 50
300.2149754166317
 51
84.26082952271237
  0
ARC
  5
2BC40
330
2B8A7
100
AcDbEntity
  8
SANKAKU
100
AcDbCircle
 10
2416.345976975711
 20
3064.775059233131
 30
0.0
 40
10.0
100
AcDbArc
 50
180.0
 51
327.1532297771698
  0
LINE
  5
2BC41
330
2B8A7
100
AcDbEntity
  8
SANKAKU
100
AcDbLine
 10
2409.023648465659
 20
2967.369143287932
 30
0.0
 11
2406.846129691753
 21
2968.125919511107
 31
0.0
  0
LINE
  5
2BC42
330
2B8A7
100
AcDbEntity
  8
SANKAKU
100
AcDbLine
 10
2328.671903736649
 20
2967.370393826275
 30
0.0
 11
2330.845824259667
 21
2968.125919511107
 31
0.0
  0
TEXT
  5
2BC43
330
2B8A7
100
AcDbEntity
  8
HIKIDASHI
100
AcDbText
 10
1497.790449377063
 20
772.1542897016529
 30
0.0
 40
135.0
  1
側 面 立 面 図
  7
01
 72
     2
 11
2586.790449377063
 21
772.1542897016529
 31
0.0
100
AcDbText
  0
TEXT
  5
2BC44
330
2B8A7
100
AcDbEntity
  8
HIKIDASHI
100
AcDbText
 10
2688.040449377063
 20
798.9477867614909
 30
0.0
 40
90.0
  1
(S=
 41
0.6700000000000001
  7
00
100
AcDbText
  0
TEXT
  5
2BC45
330
2B8A7
100
AcDbEntity
  8
HIKIDASHI
100
AcDbText
 10
2980.69818401226
 20
769.5089766611812
 30
0.0
 40
90.0
  1
30
 41
0.6700000000000001
  7
00
100
AcDbText
  0
TEXT
  5
2BC46
330
2B8A7
100
AcDbEntity
  8
HIKIDASHI
100
AcDbText
 10
3117.302947082499
 20
798.9477867614909
 30
0.0
 40
90.0
  1
)
 41
0.6700000000000001
  7
00
100
AcDbText
  0
TEXT
  5
2BC47
330
2B8A7
100
AcDbEntity
  8
HIKIDASHI
100
AcDbText
 10
2928.616134904293
 20
798.9477867614909
 30
0.0
 40
90.0
  1
/
 41
0.6700000000000001
  7
00
100
AcDbText
  0
TEXT
  5
2BC48
330
2B8A7
100
AcDbEntity
  8
HIKIDASHI
100
AcDbText
 10
2891.336854806946
 20
816.4544492282143
 30
0.0
 40
90.0
  1
1
 41
0.6700000000000001
  7
00
100
AcDbText
  0
LINE
  5
2BC49
330
2B8A7
100
AcDbEntity
  8
KETA_KANAGU
100
AcDbLine
 10
7091.236746661415
 20
3147.358500717778
 30
0.0
 11
7106.161558218015
 21
3145.858500717779
 31
0.0
  0
LINE
  5
2BC4A
330
2B8A7
100
AcDbEntity
  8
KETA_KANAGU
100
AcDbLine
 10
5728.103957825346
 20
3284.358500717778
 30
0.0
 11
5713.17914626875
 21
3285.858500717778
 31
0.0
  0
TEXT
  5
2BC4B
330
2B8A7
100
AcDbEntity
  8
FILENAME
100
AcDbText
 10
10487.21428571428
 20
130.4999999999999
 30
0.0
 40
75.0
  1
＜YOTC-245-1_1_JIS_GL.DXF ＞
  7
FILENAME
 72
     2
 11
12286.5
 21
130.4999999999999
 31
0.0
100
AcDbText
  0
LINE
  5
2BC4C
330
2B8A7
100
AcDbEntity
  8
WAKUSEN-01
100
AcDbLine
 10
325.5000000000006
 20
310.4999999999997
 30
0.0
 11
12286.5
 21
310.4999999999997
 31
0.0
  0
LINE
  5
2BC4D
330
2B8A7
100
AcDbEntity
  8
WAKUSEN-01
100
AcDbLine
 10
325.5000000000006
 20
8431.500000000003
 30
0.0
 11
12286.5
 21
8431.500000000003
 31
0.0
  0
LINE
  5
2BC4E
330
2B8A7
100
AcDbEntity
  8
WAKUSEN-01
100
AcDbLine
 10
325.5000000000006
 20
310.4999999999997
 30
0.0
 11
325.5000000000006
 21
8431.500000000003
 31
0.0
  0
LINE
  5
2BC4F
330
2B8A7
100
AcDbEntity
  8
WAKUSEN-01
100
AcDbLine
 10
12286.5
 20
310.4999999999997
 30
0.0
 11
12286.5
 21
8431.500000000003
 31
0.0
  0
LINE
  5
2BC50
330
2B8A7
100
AcDbEntity
  8
WAKUSEN-01
100
AcDbLine
 10
7710.0
 20
931.4999999999999
 30
0.0
 11
12286.5
 21
931.4999999999995
 31
0.0
  0
LINE
  5
2BC51
330
2B8A7
100
AcDbEntity
  8
WAKUSEN-02
100
AcDbLine
 10
7710.0
 20
620.9999999999999
 30
0.0
 11
10075.49999999999
 21
620.9999999999999
 31
0.0
  0
TEXT
  5
2BC52
330
2B8A7
100
AcDbEntity
  8
WAKUMOJI-01
100
AcDbText
 10
7751.347597486038
 20
797.2136285022457
 30
0.0
 40
90.0
  1
名　称
  7
WAKUMOJI
100
AcDbText
  0
TEXT
  5
2BC53
330
2B8A7
100
AcDbEntity
  8
WAKUMOJI-01
100
AcDbText
 10
7746.18955690947
 20
494.6733656174329
 30
0.0
 40
90.0
  1
機種名
  7
WAKUMOJI
100
AcDbText
  0
LINE
  5
2BC54
330
2B8A7
100
AcDbEntity
  8
WAKUSEN-01
100
AcDbLine
 10
7710.0
 20
310.4999999999989
 30
0.0
 11
7710.0
 21
931.4999999999999
 31
0.0
  0
LINE
  5
2BC55
330
2B8A7
100
AcDbEntity
  8
WAKUSEN-02
100
AcDbLine
 10
10075.49999999999
 20
310.4999999999973
 30
0.0
 11
10075.49999999999
 21
931.4999999999999
 31
0.0
  0
LINE
  5
2BC56
330
2B8A7
100
AcDbEntity
  8
YODOROGO
100
AcDbLine
 10
11241.60162798446
 20
748.4060611609828
 30
0.0
 11
11186.10162798447
 21
748.4060611609828
 31
0.0
1001
AUTOCAD_POSTSCRIPT_FIGURE
1002
{
1000
PSFILL
1000
Grayscale
1000
Grayscale
1070
    25
1002
}
  0
LINE
  5
2BC57
330
2B8A7
100
AcDbEntity
  8
YODOROGO
100
AcDbLine
 10
11186.10162798447
 20
730.4060611609828
 30
0.0
 11
11241.60162798446
 21
730.4060611609828
 31
0.0
1001
AUTOCAD_POSTSCRIPT_FIGURE
1002
{
1000
PSFILL
1000
Grayscale
1000
Grayscale
1070
    25
1002
}
  0
LINE
  5
2BC58
330
2B8A7
100
AcDbEntity
  8
YODOROGO
100
AcDbLine
 10
11241.60162798446
 20
715.4060611609828
 30
0.0
 11
11186.10162798447
 21
715.4060611609828
 31
0.0
1001
AUTOCAD_POSTSCRIPT_FIGURE
1002
{
1000
PSFILL
1000
Grayscale
1000
Grayscale
1070
    25
1002
}
  0
LINE
  5
2BC59
330
2B8A7
100
AcDbEntity
  8
YODOROGO
100
AcDbLine
 10
11186.10162798447
 20
697.406061160983
 30
0.0
 11
11241.60162798446
 21
697.406061160983
 31
0.0
1001
AUTOCAD_POSTSCRIPT_FIGURE
1002
{
1000
PSFILL
1000
Grayscale
1000
Grayscale
1070
    25
1002
}
  0
LINE
  5
2BC5A
330
2B8A7
100
AcDbEntity
  8
YODOROGO
100
AcDbLine
 10
11241.60162798446
 20
682.4060611609828
 30
0.0
 11
11186.10162798447
 21
682.4060611609828
 31
0.0
1001
AUTOCAD_POSTSCRIPT_FIGURE
1002
{
1000
PSFILL
1000
Grayscale
1000
Grayscale
1070
    25
1002
}
  0
LINE
  5
2BC5B
330
2B8A7
100
AcDbEntity
  8
YODOROGO
100
AcDbLine
 10
11220.60162798447
 20
640.4060611609827
 30
0.0
 11
11241.60162798446
 21
640.4060611609827
 31
0.0
1001
AUTOCAD_POSTSCRIPT_FIGURE
1002
{
1000
PSFILL
1000
Grayscale
1000
Grayscale
1070
    25
1002
}
  0
LINE
  5
2BC5C
330
2B8A7
100
AcDbEntity
  8
YODOROGO
100
AcDbLine
 10
11151.60162798447
 20
535.4060611609829
 30
0.0
 11
11226.60162798446
 21
555.5022505933163
 31
0.0
  0
LINE
  5
2BC5D
330
2B8A7
100
AcDbEntity
  8
YODOROGO
100
AcDbLine
 10
11231.10162798446
 20
640.4060611609827
 30
0.0
 11
11207.10162798447
 21
640.4060611609827
 31
0.0
  0
ARC
  5
2BC5E
330
2B8A7
100
AcDbEntity
  8
YODOROGO
100
AcDbCircle
 10
11345.38040618545
 20
677.9492284624735
 30
0.0
 40
143.2075740771177
100
AcDbArc
 50
213.9611167766784
 51
264.4787207431779
  0
ARC
  5
2BC5F
330
2B8A7
100
AcDbEntity
  8
YODOROGO
100
AcDbCircle
 10
11345.38040618547
 20
677.9492284624883
 30
0.0
 40
143.2075740771305
100
AcDbArc
 50
208.141144204866
 51
212.9210361185994
  0
LINE
  5
2BC60
330
2B8A7
100
AcDbEntity
  8
YODOROGO
100
AcDbLine
 10
11164.27870236948
 20
583.8028730048376
 30
0.0
 11
11225.1690496907
 21
600.1183923964076
 31
0.0
  0
LINE
  5
2BC61
330
2B8A7
100
AcDbEntity
  8
YODOROGO
100
AcDbLine
 10
11151.60162798447
 20
535.4060611609829
 30
0.0
 11
11226.60162798446
 21
555.5022505933163
 31
0.0
  0
LINE
  5
2BC62
330
2B8A7
100
AcDbEntity
  8
YODOROGO
100
AcDbLine
 10
11231.10162798446
 20
640.4060611609827
 30
0.0
 11
11207.10162798447
 21
640.4060611609827
 31
0.0
  0
ARC
  5
2BC63
330
2B8A7
100
AcDbEntity
  8
YODOROGO
100
AcDbCircle
 10
11345.38040618545
 20
677.9492284624735
 30
0.0
 40
143.2075740771177
100
AcDbArc
 50
213.9611167766784
 51
264.4787207431779
  0
LINE
  5
2BC64
330
2B8A7
100
AcDbEntity
  8
YODOROGO
100
AcDbLine
 10
10797.60162798446
 20
682.4060611609828
 30
0.0
 11
10662.60162798446
 21
682.4060611609828
 31
0.0
  0
LINE
  5
2BC65
330
2B8A7
100
AcDbEntity
  8
YODOROGO
100
AcDbLine
 10
10692.60162798446
 20
535.4060611609829
 30
0.0
 11
10797.60162798446
 21
535.4060611609829
 31
0.0
  0
LINE
  5
2BC66
330
2B8A7
100
AcDbEntity
  8
YODOROGO
100
AcDbLine
 10
10773.60162798447
 20
721.4060611609824
 30
0.0
 11
10686.60162798446
 21
721.4060611609824
 31
0.0
  0
LINE
  5
2BC67
330
2B8A7
100
AcDbEntity
  8
YODOROGO
100
AcDbLine
 10
10719.60162798446
 20
760.4060611609829
 30
0.0
 11
10746.60162798447
 21
760.4060611609829
 31
0.0
  0
LINE
  5
2BC68
330
2B8A7
100
AcDbEntity
  8
YODOROGO
100
AcDbLine
 10
10662.60162798446
 20
640.4060611609827
 30
0.0
 11
10662.60162798446
 21
565.4060611609827
 31
0.0
  0
LINE
  5
2BC69
330
2B8A7
100
AcDbEntity
  8
YODOROGO
100
AcDbLine
 10
10686.60162798446
 20
586.4060611609825
 30
0.0
 11
10686.60162798446
 21
640.4060611609827
 31
0.0
  0
LINE
  5
2BC6A
330
2B8A7
100
AcDbEntity
  8
YODOROGO
100
AcDbLine
 10
10719.60162798446
 20
655.4060611609838
 30
0.0
 11
10719.60162798446
 21
580.406061160983
 31
0.0
  0
LINE
  5
2BC6B
330
2B8A7
100
AcDbEntity
  8
YODOROGO
100
AcDbLine
 10
10446.60162798447
 20
631.4060611609833
 30
0.0
 11
10416.60162798446
 21
607.4896552667143
 31
0.0
  0
LINE
  5
2BC6C
330
2B8A7
100
AcDbEntity
  8
YODOROGO
100
AcDbLine
 10
10476.60162798446
 20
607.4896552667143
 30
0.0
 11
10446.60162798447
 21
631.4060611609833
 31
0.0
  0
LINE
  5
2BC6D
330
2B8A7
100
AcDbEntity
  8
YODOROGO
100
AcDbLine
 10
10446.60162798447
 20
640.4060611609827
 30
0.0
 11
10476.60162798446
 21
616.4896552667136
 31
0.0
  0
LINE
  5
2BC6E
330
2B8A7
100
AcDbEntity
  8
YODOROGO
100
AcDbLine
 10
10416.60162798446
 20
616.4896552667136
 30
0.0
 11
10446.60162798447
 21
640.4060611609827
 31
0.0
  0
LINE
  5
2BC6F
330
2B8A7
100
AcDbEntity
  8
YODOROGO
100
AcDbLine
 10
10515.34245150633
 20
622.406061160983
 30
0.0
 11
10515.34245150633
 21
631.4060611609825
 31
0.0
  0
LINE
  5
2BC70
330
2B8A7
100
AcDbEntity
  8
YODOROGO
100
AcDbLine
 10
10491.60162798447
 20
631.4060611609825
 30
0.0
 11
10491.60162798447
 21
625.4060611609819
 31
0.0
  0
LINE
  5
2BC71
330
2B8A7
100
AcDbEntity
  8
YODOROGO
100
AcDbLine
 10
10536.8008200866
 20
640.4060611609827
 30
0.0
 11
10536.8008200866
 21
620.813863977996
 31
0.0
1001
AUTOCAD_POSTSCRIPT_FIGURE
1002
{
1000
PSFILL
1000
Grayscale
1000
Grayscale
1070
   100
1002
}
  0
LINE
  5
2BC72
330
2B8A7
100
AcDbEntity
  8
YODOROGO
100
AcDbLine
 10
10530.80082008658
 20
620.813863977996
 30
0.0
 11
10530.80082008658
 21
640.4060611609827
 31
0.0
1001
AUTOCAD_POSTSCRIPT_FIGURE
1002
{
1000
PSFILL
1000
Grayscale
1000
Grayscale
1070
   100
1002
}
  0
LINE
  5
2BC73
330
2B8A7
100
AcDbEntity
  8
YODOROGO
100
AcDbLine
 10
10428.60162798447
 20
603.2894640162218
 30
0.0
 11
10428.60162798447
 21
612.2894640162221
 31
0.0
  0
LINE
  5
2BC74
330
2B8A7
100
AcDbEntity
  8
YODOROGO
100
AcDbLine
 10
10464.60162798447
 20
603.2894640162218
 30
0.0
 11
10428.60162798447
 21
603.2894640162218
 31
0.0
  0
LINE
  5
2BC75
330
2B8A7
100
AcDbEntity
  8
YODOROGO
100
AcDbLine
 10
10464.60162798447
 20
612.2894640162221
 30
0.0
 11
10464.60162798447
 21
603.2894640162218
 31
0.0
  0
LINE
  5
2BC76
330
2B8A7
100
AcDbEntity
  8
YODOROGO
100
AcDbLine
 10
10428.60162798447
 20
612.2894640162221
 30
0.0
 11
10464.60162798447
 21
612.2894640162221
 31
0.0
  0
LINE
  5
2BC77
330
2B8A7
100
AcDbEntity
  8
YODOROGO
100
AcDbLine
 10
10434.1910958434
 20
588.1885715139278
 30
0.0
 11
10419.60162798446
 21
553.4060611609827
 31
0.0
1001
AUTOCAD_POSTSCRIPT_FIGURE
1002
{
1000
PSFILL
1000
Grayscale
1000
Grayscale
1070
   100
1002
}
  0
LINE
  5
2BC78
330
2B8A7
100
AcDbEntity
  8
YODOROGO
100
AcDbLine
 10
10416.60162798446
 20
588.1885715139278
 30
0.0
 11
10434.1910958434
 21
588.1885715139278
 31
0.0
1001
AUTOCAD_POSTSCRIPT_FIGURE
1002
{
1000
PSFILL
1000
Grayscale
1000
Grayscale
1070
   100
1002
}
  0
LINE
  5
2BC79
330
2B8A7
100
AcDbEntity
  8
YODOROGO
100
AcDbLine
 10
10416.60162798446
 20
595.688571513928
 30
0.0
 11
10416.60162798446
 21
588.1885715139278
 31
0.0
1001
AUTOCAD_POSTSCRIPT_FIGURE
1002
{
1000
PSFILL
1000
Grayscale
1000
Grayscale
1070
   100
1002
}
  0
LINE
  5
2BC7A
330
2B8A7
100
AcDbEntity
  8
YODOROGO
100
AcDbLine
 10
10476.60162798446
 20
595.688571513928
 30
0.0
 11
10416.60162798446
 21
595.688571513928
 31
0.0
1001
AUTOCAD_POSTSCRIPT_FIGURE
1002
{
1000
PSFILL
1000
Grayscale
1000
Grayscale
1070
   100
1002
}
  0
LINE
  5
2BC7B
330
2B8A7
100
AcDbEntity
  8
YODOROGO
100
AcDbLine
 10
10476.60162798446
 20
588.1885715139278
 30
0.0
 11
10476.60162798446
 21
595.688571513928
 31
0.0
1001
AUTOCAD_POSTSCRIPT_FIGURE
1002
{
1000
PSFILL
1000
Grayscale
1000
Grayscale
1070
   100
1002
}
  0
LINE
  5
2BC7C
330
2B8A7
100
AcDbEntity
  8
YODOROGO
100
AcDbLine
 10
10441.69109584339
 20
588.1885715139278
 30
0.0
 11
10476.60162798446
 21
588.1885715139278
 31
0.0
1001
AUTOCAD_POSTSCRIPT_FIGURE
1002
{
1000
PSFILL
1000
Grayscale
1000
Grayscale
1070
   100
1002
}
  0
LINE
  5
2BC7D
330
2B8A7
100
AcDbEntity
  8
YODOROGO
100
AcDbLine
 10
10430.83001935679
 20
560.9060611609827
 30
0.0
 11
10441.69109584339
 21
588.1885715139278
 31
0.0
1001
AUTOCAD_POSTSCRIPT_FIGURE
1002
{
1000
PSFILL
1000
Grayscale
1000
Grayscale
1070
   100
1002
}
  0
LINE
  5
2BC7E
330
2B8A7
100
AcDbEntity
  8
YODOROGO
100
AcDbLine
 10
10463.27054655324
 20
560.9060611609827
 30
0.0
 11
10430.83001935679
 21
560.9060611609827
 31
0.0
1001
AUTOCAD_POSTSCRIPT_FIGURE
1002
{
1000
PSFILL
1000
Grayscale
1000
Grayscale
1070
   100
1002
}
  0
LINE
  5
2BC7F
330
2B8A7
100
AcDbEntity
  8
YODOROGO
100
AcDbLine
 10
10456.8993767966
 20
576.0876790116348
 30
0.0
 11
10463.27054655324
 21
560.9060611609827
 31
0.0
1001
AUTOCAD_POSTSCRIPT_FIGURE
1002
{
1000
PSFILL
1000
Grayscale
1000
Grayscale
1070
   100
1002
}
  0
LINE
  5
2BC80
330
2B8A7
100
AcDbEntity
  8
YODOROGO
100
AcDbLine
 10
10462.8993767966
 20
576.0876790116348
 30
0.0
 11
10456.8993767966
 21
576.0876790116348
 31
0.0
1001
AUTOCAD_POSTSCRIPT_FIGURE
1002
{
1000
PSFILL
1000
Grayscale
1000
Grayscale
1070
   100
1002
}
  0
LINE
  5
2BC81
330
2B8A7
100
AcDbEntity
  8
YODOROGO
100
AcDbLine
 10
10473.60162798447
 20
553.4060611609827
 30
0.0
 11
10462.8993767966
 21
576.0876790116348
 31
0.0
1001
AUTOCAD_POSTSCRIPT_FIGURE
1002
{
1000
PSFILL
1000
Grayscale
1000
Grayscale
1070
   100
1002
}
  0
LINE
  5
2BC82
330
2B8A7
100
AcDbEntity
  8
YODOROGO
100
AcDbLine
 10
10419.60162798446
 20
553.4060611609827
 30
0.0
 11
10473.60162798447
 21
553.4060611609827
 31
0.0
1001
AUTOCAD_POSTSCRIPT_FIGURE
1002
{
1000
PSFILL
1000
Grayscale
1000
Grayscale
1070
   100
1002
}
  0
LINE
  5
2BC83
330
2B8A7
100
AcDbEntity
  8
YODOROGO
100
AcDbLine
 10
10416.60162798446
 20
607.4896552667143
 30
0.0
 11
10416.60162798446
 21
616.4896552667136
 31
0.0
  0
LINE
  5
2BC84
330
2B8A7
100
AcDbEntity
  8
YODOROGO
100
AcDbLine
 10
10476.60162798446
 20
616.4896552667136
 30
0.0
 11
10476.60162798446
 21
607.4896552667143
 31
0.0
  0
ARC
  5
2BC85
330
2B8A7
100
AcDbEntity
  8
YODOROGO
100
AcDbCircle
 10
10584.72766580511
 20
600.3291619969972
 30
0.0
 40
65.99999999999997
100
AcDbArc
 50
280.3644312771313
 51
3.541483659218056
  0
ARC
  5
2BC86
330
2B8A7
100
AcDbEntity
  8
YODOROGO
100
AcDbCircle
 10
10588.40851153474
 20
612.5991776107142
 30
0.0
 40
41.99999999999936
100
AcDbArc
 50
281.2490582504155
 51
348.7509417495832
  0
LINE
  5
2BC87
330
2B8A7
100
AcDbEntity
  8
YODOROGO
100
AcDbLine
 10
10596.60162798446
 20
571.4060611609824
 30
0.0
 11
10596.60162798446
 21
535.4060611609829
 31
0.0
  0
LINE
  5
2BC88
330
2B8A7
100
AcDbEntity
  8
YODOROGO
100
AcDbLine
 10
10507.53333890132
 20
603.9939618982182
 30
0.0
 11
10515.34245150633
 21
622.406061160983
 31
0.0
  0
LINE
  5
2BC89
330
2B8A7
100
AcDbEntity
  8
YODOROGO
100
AcDbLine
 10
10515.60162798446
 20
593.6701837306505
 30
0.0
 11
10507.53333890132
 21
603.9939618982182
 31
0.0
  0
LINE
  5
2BC8A
330
2B8A7
100
AcDbEntity
  8
YODOROGO
100
AcDbLine
 10
10515.60162798446
 20
586.1701837306497
 30
0.0
 11
10515.60162798446
 21
593.6701837306505
 31
0.0
  0
LINE
  5
2BC8B
330
2B8A7
100
AcDbEntity
  8
YODOROGO
100
AcDbLine
 10
10506.60162798447
 20
594.4638989060739
 30
0.0
 11
10515.60162798446
 21
586.1701837306497
 31
0.0
  0
LINE
  5
2BC8C
330
2B8A7
100
AcDbEntity
  8
YODOROGO
100
AcDbLine
 10
10506.60162798447
 20
553.4060611609827
 30
0.0
 11
10506.60162798447
 21
594.4638989060739
 31
0.0
  0
LINE
  5
2BC8D
330
2B8A7
100
AcDbEntity
  8
YODOROGO
100
AcDbLine
 10
10500.60162798446
 20
553.4060611609827
 30
0.0
 11
10506.60162798447
 21
553.4060611609827
 31
0.0
  0
LINE
  5
2BC8E
330
2B8A7
100
AcDbEntity
  8
YODOROGO
100
AcDbLine
 10
10500.60162798446
 20
592.5020061336555
 30
0.0
 11
10500.60162798446
 21
553.4060611609827
 31
0.0
  0
LINE
  5
2BC8F
330
2B8A7
100
AcDbEntity
  8
YODOROGO
100
AcDbLine
 10
10491.60162798447
 20
574.7880296375358
 30
0.0
 11
10500.60162798446
 21
592.5020061336555
 31
0.0
  0
LINE
  5
2BC90
330
2B8A7
100
AcDbEntity
  8
YODOROGO
100
AcDbLine
 10
10491.60162798447
 20
583.788029637536
 30
0.0
 11
10491.60162798447
 21
574.7880296375358
 31
0.0
  0
LINE
  5
2BC91
330
2B8A7
100
AcDbEntity
  8
YODOROGO
100
AcDbLine
 10
10509.68579035926
 20
625.4060611609819
 30
0.0
 11
10491.60162798447
 21
583.788029637536
 31
0.0
  0
LINE
  5
2BC92
330
2B8A7
100
AcDbEntity
  8
YODOROGO
100
AcDbLine
 10
10491.60162798447
 20
625.4060611609819
 30
0.0
 11
10509.68579035926
 21
625.4060611609819
 31
0.0
  0
LINE
  5
2BC93
330
2B8A7
100
AcDbEntity
  8
YODOROGO
100
AcDbLine
 10
10518.80082008659
 20
620.813863977996
 30
0.0
 11
10530.80082008658
 21
620.813863977996
 31
0.0
1001
AUTOCAD_POSTSCRIPT_FIGURE
1002
{
1000
PSFILL
1000
Grayscale
1000
Grayscale
1070
   100
1002
}
  0
LINE
  5
2BC94
330
2B8A7
100
AcDbEntity
  8
YODOROGO
100
AcDbLine
 10
10518.80082008659
 20
611.8138639779965
 30
0.0
 11
10518.80082008659
 21
620.813863977996
 31
0.0
1001
AUTOCAD_POSTSCRIPT_FIGURE
1002
{
1000
PSFILL
1000
Grayscale
1000
Grayscale
1070
   100
1002
}
  0
LINE
  5
2BC95
330
2B8A7
100
AcDbEntity
  8
YODOROGO
100
AcDbLine
 10
10530.80082008658
 20
611.8138639779965
 30
0.0
 11
10518.80082008659
 21
611.8138639779965
 31
0.0
1001
AUTOCAD_POSTSCRIPT_FIGURE
1002
{
1000
PSFILL
1000
Grayscale
1000
Grayscale
1070
   100
1002
}
  0
LINE
  5
2BC96
330
2B8A7
100
AcDbEntity
  8
YODOROGO
100
AcDbLine
 10
10530.80082008658
 20
562.4060611609831
 30
0.0
 11
10530.80082008658
 21
611.8138639779965
 31
0.0
1001
AUTOCAD_POSTSCRIPT_FIGURE
1002
{
1000
PSFILL
1000
Grayscale
1000
Grayscale
1070
   100
1002
}
  0
LINE
  5
2BC97
330
2B8A7
100
AcDbEntity
  8
YODOROGO
100
AcDbLine
 10
10518.8008200866
 20
562.4060611609831
 30
0.0
 11
10530.80082008658
 21
562.4060611609831
 31
0.0
1001
AUTOCAD_POSTSCRIPT_FIGURE
1002
{
1000
PSFILL
1000
Grayscale
1000
Grayscale
1070
   100
1002
}
  0
LINE
  5
2BC98
330
2B8A7
100
AcDbEntity
  8
YODOROGO
100
AcDbLine
 10
10518.8008200866
 20
553.4060611609827
 30
0.0
 11
10518.8008200866
 21
562.4060611609831
 31
0.0
1001
AUTOCAD_POSTSCRIPT_FIGURE
1002
{
1000
PSFILL
1000
Grayscale
1000
Grayscale
1070
   100
1002
}
  0
LINE
  5
2BC99
330
2B8A7
100
AcDbEntity
  8
YODOROGO
100
AcDbLine
 10
10551.60162798447
 20
553.4060611609827
 30
0.0
 11
10518.8008200866
 21
553.4060611609827
 31
0.0
1001
AUTOCAD_POSTSCRIPT_FIGURE
1002
{
1000
PSFILL
1000
Grayscale
1000
Grayscale
1070
   100
1002
}
  0
LINE
  5
2BC9A
330
2B8A7
100
AcDbEntity
  8
YODOROGO
100
AcDbLine
 10
10551.60162798447
 20
562.4060611609831
 30
0.0
 11
10551.60162798447
 21
553.4060611609827
 31
0.0
1001
AUTOCAD_POSTSCRIPT_FIGURE
1002
{
1000
PSFILL
1000
Grayscale
1000
Grayscale
1070
   100
1002
}
  0
LINE
  5
2BC9B
330
2B8A7
100
AcDbEntity
  8
YODOROGO
100
AcDbLine
 10
10536.8008200866
 20
562.4060611609831
 30
0.0
 11
10551.60162798447
 21
562.4060611609831
 31
0.0
1001
AUTOCAD_POSTSCRIPT_FIGURE
1002
{
1000
PSFILL
1000
Grayscale
1000
Grayscale
1070
   100
1002
}
  0
LINE
  5
2BC9C
330
2B8A7
100
AcDbEntity
  8
YODOROGO
100
AcDbLine
 10
10536.8008200866
 20
611.8138639779965
 30
0.0
 11
10536.8008200866
 21
562.4060611609831
 31
0.0
1001
AUTOCAD_POSTSCRIPT_FIGURE
1002
{
1000
PSFILL
1000
Grayscale
1000
Grayscale
1070
   100
1002
}
  0
LINE
  5
2BC9D
330
2B8A7
100
AcDbEntity
  8
YODOROGO
100
AcDbLine
 10
10551.60162798447
 20
611.8138639779965
 30
0.0
 11
10536.8008200866
 21
611.8138639779965
 31
0.0
1001
AUTOCAD_POSTSCRIPT_FIGURE
1002
{
1000
PSFILL
1000
Grayscale
1000
Grayscale
1070
   100
1002
}
  0
LINE
  5
2BC9E
330
2B8A7
100
AcDbEntity
  8
YODOROGO
100
AcDbLine
 10
10551.60162798447
 20
620.813863977996
 30
0.0
 11
10551.60162798447
 21
611.8138639779965
 31
0.0
1001
AUTOCAD_POSTSCRIPT_FIGURE
1002
{
1000
PSFILL
1000
Grayscale
1000
Grayscale
1070
   100
1002
}
  0
LINE
  5
2BC9F
330
2B8A7
100
AcDbEntity
  8
YODOROGO
100
AcDbLine
 10
10536.8008200866
 20
620.813863977996
 30
0.0
 11
10551.60162798447
 21
620.813863977996
 31
0.0
1001
AUTOCAD_POSTSCRIPT_FIGURE
1002
{
1000
PSFILL
1000
Grayscale
1000
Grayscale
1070
   100
1002
}
  0
LINE
  5
2BCA0
330
2B8A7
100
AcDbEntity
  8
YODOROGO
100
AcDbLine
 10
10650.60162798447
 20
625.406061160983
 30
0.0
 11
10629.60162798447
 21
625.406061160983
 31
0.0
  0
LINE
  5
2BCA1
330
2B8A7
100
AcDbEntity
  8
YODOROGO
100
AcDbLine
 10
10650.60162798447
 20
604.4060611609832
 30
0.0
 11
10650.60162798447
 21
625.406061160983
 31
0.0
  0
LINE
  5
2BCA2
330
2B8A7
100
AcDbEntity
  8
YODOROGO
100
AcDbLine
 10
10629.60162798447
 20
625.406061160983
 30
0.0
 11
10629.60162798447
 21
604.4060611609832
 31
0.0
  0
ARC
  5
2BCA3
330
2B8A7
100
AcDbEntity
  8
YODOROGO
100
AcDbCircle
 10
10692.60162798446
 20
565.4060611609827
 30
0.0
 40
30.0
100
AcDbArc
 50
180.0
 51
270.0
  0
ARC
  5
2BCA4
330
2B8A7
100
AcDbEntity
  8
YODOROGO
100
AcDbCircle
 10
10701.60162798446
 20
586.4060611609825
 30
0.0
 40
15.0
100
AcDbArc
 50
180.0
 51
270.0
  0
LINE
  5
2BCA5
330
2B8A7
100
AcDbEntity
  8
YODOROGO
100
AcDbLine
 10
10710.60162798447
 20
571.4060611609824
 30
0.0
 11
10701.60162798446
 21
571.4060611609824
 31
0.0
  0
ARC
  5
2BCA6
330
2B8A7
100
AcDbEntity
  8
YODOROGO
100
AcDbCircle
 10
10710.60162798447
 20
580.4060611609819
 30
0.0
 40
8.999999999998637
100
AcDbArc
 50
270.0
 51
0.0000000000054281
  0
LINE
  5
2BCA7
330
2B8A7
100
AcDbEntity
  8
YODOROGO
100
AcDbLine
 10
10425.60162798447
 20
709.0449677976399
 30
0.0
 11
10416.60162798446
 21
691.4162804818772
 31
0.0
1001
AUTOCAD_POSTSCRIPT_FIGURE
1002
{
1000
PSFILL
1000
Grayscale
1000
Grayscale
1070
   100
1002
}
  0
LINE
  5
2BCA8
330
2B8A7
100
AcDbEntity
  8
YODOROGO
100
AcDbLine
 10
10425.60162798447
 20
655.406061160983
 30
0.0
 11
10425.60162798447
 21
709.0449677976399
 31
0.0
1001
AUTOCAD_POSTSCRIPT_FIGURE
1002
{
1000
PSFILL
1000
Grayscale
1000
Grayscale
1070
   100
1002
}
  0
LINE
  5
2BCA9
330
2B8A7
100
AcDbEntity
  8
YODOROGO
100
AcDbLine
 10
10431.60162798447
 20
655.406061160983
 30
0.0
 11
10425.60162798447
 21
655.406061160983
 31
0.0
1001
AUTOCAD_POSTSCRIPT_FIGURE
1002
{
1000
PSFILL
1000
Grayscale
1000
Grayscale
1070
   100
1002
}
  0
LINE
  5
2BCAA
330
2B8A7
100
AcDbEntity
  8
YODOROGO
100
AcDbLine
 10
10431.60162798447
 20
710.1642495319751
 30
0.0
 11
10431.60162798447
 21
655.406061160983
 31
0.0
1001
AUTOCAD_POSTSCRIPT_FIGURE
1002
{
1000
PSFILL
1000
Grayscale
1000
Grayscale
1070
   100
1002
}
  0
LINE
  5
2BCAB
330
2B8A7
100
AcDbEntity
  8
YODOROGO
100
AcDbLine
 10
10440.60162798446
 20
700.3705343565512
 30
0.0
 11
10431.60162798447
 21
710.1642495319751
 31
0.0
1001
AUTOCAD_POSTSCRIPT_FIGURE
1002
{
1000
PSFILL
1000
Grayscale
1000
Grayscale
1070
   100
1002
}
  0
LINE
  5
2BCAC
330
2B8A7
100
AcDbEntity
  8
YODOROGO
100
AcDbLine
 10
10440.60162798446
 20
706.3705343565509
 30
0.0
 11
10440.60162798446
 21
700.3705343565512
 31
0.0
1001
AUTOCAD_POSTSCRIPT_FIGURE
1002
{
1000
PSFILL
1000
Grayscale
1000
Grayscale
1070
   100
1002
}
  0
LINE
  5
2BCAD
330
2B8A7
100
AcDbEntity
  8
YODOROGO
100
AcDbLine
 10
10431.60162798447
 20
719.1642495319745
 30
0.0
 11
10440.60162798446
 21
706.3705343565509
 31
0.0
1001
AUTOCAD_POSTSCRIPT_FIGURE
1002
{
1000
PSFILL
1000
Grayscale
1000
Grayscale
1070
   100
1002
}
  0
LINE
  5
2BCAE
330
2B8A7
100
AcDbEntity
  8
YODOROGO
100
AcDbLine
 10
10431.60162798447
 20
727.4060611609828
 30
0.0
 11
10431.60162798447
 21
719.1642495319745
 31
0.0
1001
AUTOCAD_POSTSCRIPT_FIGURE
1002
{
1000
PSFILL
1000
Grayscale
1000
Grayscale
1070
   100
1002
}
  0
LINE
  5
2BCAF
330
2B8A7
100
AcDbEntity
  8
YODOROGO
100
AcDbLine
 10
10458.60162798446
 20
727.4060611609828
 30
0.0
 11
10431.60162798447
 21
727.4060611609828
 31
0.0
1001
AUTOCAD_POSTSCRIPT_FIGURE
1002
{
1000
PSFILL
1000
Grayscale
1000
Grayscale
1070
   100
1002
}
  0
LINE
  5
2BCB0
330
2B8A7
100
AcDbEntity
  8
YODOROGO
100
AcDbLine
 10
10458.60162798446
 20
712.7131308511124
 30
0.0
 11
10458.60162798446
 21
727.4060611609828
 31
0.0
1001
AUTOCAD_POSTSCRIPT_FIGURE
1002
{
1000
PSFILL
1000
Grayscale
1000
Grayscale
1070
   100
1002
}
  0
LINE
  5
2BCB1
330
2B8A7
100
AcDbEntity
  8
YODOROGO
100
AcDbLine
 10
10446.60162798447
 20
712.7131308511124
 30
0.0
 11
10458.60162798446
 21
712.7131308511124
 31
0.0
1001
AUTOCAD_POSTSCRIPT_FIGURE
1002
{
1000
PSFILL
1000
Grayscale
1000
Grayscale
1070
   100
1002
}
  0
LINE
  5
2BCB2
330
2B8A7
100
AcDbEntity
  8
YODOROGO
100
AcDbLine
 10
10446.60162798447
 20
706.713130851112
 30
0.0
 11
10446.60162798447
 21
712.7131308511124
 31
0.0
1001
AUTOCAD_POSTSCRIPT_FIGURE
1002
{
1000
PSFILL
1000
Grayscale
1000
Grayscale
1070
   100
1002
}
  0
LINE
  5
2BCB3
330
2B8A7
100
AcDbEntity
  8
YODOROGO
100
AcDbLine
 10
10458.60162798446
 20
706.713130851112
 30
0.0
 11
10446.60162798447
 21
706.713130851112
 31
0.0
1001
AUTOCAD_POSTSCRIPT_FIGURE
1002
{
1000
PSFILL
1000
Grayscale
1000
Grayscale
1070
   100
1002
}
  0
LINE
  5
2BCB4
330
2B8A7
100
AcDbEntity
  8
YODOROGO
100
AcDbLine
 10
10458.60162798446
 20
704.8571917366647
 30
0.0
 11
10458.60162798446
 21
706.713130851112
 31
0.0
1001
AUTOCAD_POSTSCRIPT_FIGURE
1002
{
1000
PSFILL
1000
Grayscale
1000
Grayscale
1070
   100
1002
}
  0
LINE
  5
2BCB5
330
2B8A7
100
AcDbEntity
  8
YODOROGO
100
AcDbLine
 10
10443.60162798447
 20
679.8656179355312
 30
0.0
 11
10458.60162798446
 21
704.8571917366647
 31
0.0
1001
AUTOCAD_POSTSCRIPT_FIGURE
1002
{
1000
PSFILL
1000
Grayscale
1000
Grayscale
1070
   100
1002
}
  0
LINE
  5
2BCB6
330
2B8A7
100
AcDbEntity
  8
YODOROGO
100
AcDbLine
 10
10443.60162798447
 20
673.8656179355309
 30
0.0
 11
10443.60162798447
 21
679.8656179355312
 31
0.0
1001
AUTOCAD_POSTSCRIPT_FIGURE
1002
{
1000
PSFILL
1000
Grayscale
1000
Grayscale
1070
   100
1002
}
  0
LINE
  5
2BCB7
330
2B8A7
100
AcDbEntity
  8
YODOROGO
100
AcDbLine
 10
10458.60162798446
 20
692.8571917366638
 30
0.0
 11
10443.60162798447
 21
673.8656179355309
 31
0.0
1001
AUTOCAD_POSTSCRIPT_FIGURE
1002
{
1000
PSFILL
1000
Grayscale
1000
Grayscale
1070
   100
1002
}
  0
LINE
  5
2BCB8
330
2B8A7
100
AcDbEntity
  8
YODOROGO
100
AcDbLine
 10
10458.60162798446
 20
655.406061160983
 30
0.0
 11
10458.60162798446
 21
692.8571917366638
 31
0.0
1001
AUTOCAD_POSTSCRIPT_FIGURE
1002
{
1000
PSFILL
1000
Grayscale
1000
Grayscale
1070
   100
1002
}
  0
LINE
  5
2BCB9
330
2B8A7
100
AcDbEntity
  8
YODOROGO
100
AcDbLine
 10
10464.60162798447
 20
655.406061160983
 30
0.0
 11
10458.60162798446
 21
655.406061160983
 31
0.0
1001
AUTOCAD_POSTSCRIPT_FIGURE
1002
{
1000
PSFILL
1000
Grayscale
1000
Grayscale
1070
   100
1002
}
  0
LINE
  5
2BCBA
330
2B8A7
100
AcDbEntity
  8
YODOROGO
100
AcDbLine
 10
10464.60162798447
 20
693.5283795595521
 30
0.0
 11
10464.60162798447
 21
655.406061160983
 31
0.0
1001
AUTOCAD_POSTSCRIPT_FIGURE
1002
{
1000
PSFILL
1000
Grayscale
1000
Grayscale
1070
   100
1002
}
  0
LINE
  5
2BCBB
330
2B8A7
100
AcDbEntity
  8
YODOROGO
100
AcDbLine
 10
10476.60162798446
 20
673.8656179355309
 30
0.0
 11
10464.60162798447
 21
693.5283795595521
 31
0.0
1001
AUTOCAD_POSTSCRIPT_FIGURE
1002
{
1000
PSFILL
1000
Grayscale
1000
Grayscale
1070
   100
1002
}
  0
LINE
  5
2BCBC
330
2B8A7
100
AcDbEntity
  8
YODOROGO
100
AcDbLine
 10
10476.60162798446
 20
679.8656179355312
 30
0.0
 11
10476.60162798446
 21
673.8656179355309
 31
0.0
1001
AUTOCAD_POSTSCRIPT_FIGURE
1002
{
1000
PSFILL
1000
Grayscale
1000
Grayscale
1070
   100
1002
}
  0
LINE
  5
2BCBD
330
2B8A7
100
AcDbEntity
  8
YODOROGO
100
AcDbLine
 10
10464.60162798447
 20
705.528379559553
 30
0.0
 11
10476.60162798446
 21
679.8656179355312
 31
0.0
1001
AUTOCAD_POSTSCRIPT_FIGURE
1002
{
1000
PSFILL
1000
Grayscale
1000
Grayscale
1070
   100
1002
}
  0
LINE
  5
2BCBE
330
2B8A7
100
AcDbEntity
  8
YODOROGO
100
AcDbLine
 10
10464.60162798447
 20
706.7131308511128
 30
0.0
 11
10464.60162798447
 21
705.528379559553
 31
0.0
1001
AUTOCAD_POSTSCRIPT_FIGURE
1002
{
1000
PSFILL
1000
Grayscale
1000
Grayscale
1070
   100
1002
}
  0
LINE
  5
2BCBF
330
2B8A7
100
AcDbEntity
  8
YODOROGO
100
AcDbLine
 10
10476.60162798446
 20
706.713130851112
 30
0.0
 11
10464.60162798447
 21
706.7131308511128
 31
0.0
1001
AUTOCAD_POSTSCRIPT_FIGURE
1002
{
1000
PSFILL
1000
Grayscale
1000
Grayscale
1070
   100
1002
}
  0
LINE
  5
2BCC0
330
2B8A7
100
AcDbEntity
  8
YODOROGO
100
AcDbLine
 10
10476.60162798446
 20
712.7131308511124
 30
0.0
 11
10476.60162798446
 21
706.713130851112
 31
0.0
1001
AUTOCAD_POSTSCRIPT_FIGURE
1002
{
1000
PSFILL
1000
Grayscale
1000
Grayscale
1070
   100
1002
}
  0
LINE
  5
2BCC1
330
2B8A7
100
AcDbEntity
  8
YODOROGO
100
AcDbLine
 10
10464.60162798447
 20
712.7131308511124
 30
0.0
 11
10476.60162798446
 21
712.7131308511124
 31
0.0
1001
AUTOCAD_POSTSCRIPT_FIGURE
1002
{
1000
PSFILL
1000
Grayscale
1000
Grayscale
1070
   100
1002
}
  0
LINE
  5
2BCC2
330
2B8A7
100
AcDbEntity
  8
YODOROGO
100
AcDbLine
 10
10464.60162798447
 20
727.4060611609828
 30
0.0
 11
10464.60162798447
 21
712.7131308511124
 31
0.0
1001
AUTOCAD_POSTSCRIPT_FIGURE
1002
{
1000
PSFILL
1000
Grayscale
1000
Grayscale
1070
   100
1002
}
  0
LINE
  5
2BCC3
330
2B8A7
100
AcDbEntity
  8
YODOROGO
100
AcDbLine
 10
10476.60162798446
 20
727.4060611609828
 30
0.0
 11
10464.60162798447
 21
727.4060611609828
 31
0.0
1001
AUTOCAD_POSTSCRIPT_FIGURE
1002
{
1000
PSFILL
1000
Grayscale
1000
Grayscale
1070
   100
1002
}
  0
LINE
  5
2BCC4
330
2B8A7
100
AcDbEntity
  8
YODOROGO
100
AcDbLine
 10
10476.60162798446
 20
733.4060611609828
 30
0.0
 11
10476.60162798446
 21
727.4060611609828
 31
0.0
1001
AUTOCAD_POSTSCRIPT_FIGURE
1002
{
1000
PSFILL
1000
Grayscale
1000
Grayscale
1070
   100
1002
}
  0
LINE
  5
2BCC5
330
2B8A7
100
AcDbEntity
  8
YODOROGO
100
AcDbLine
 10
10464.60162798447
 20
733.4060611609828
 30
0.0
 11
10476.60162798446
 21
733.4060611609828
 31
0.0
1001
AUTOCAD_POSTSCRIPT_FIGURE
1002
{
1000
PSFILL
1000
Grayscale
1000
Grayscale
1070
   100
1002
}
  0
LINE
  5
2BCC6
330
2B8A7
100
AcDbEntity
  8
YODOROGO
100
AcDbLine
 10
10464.60162798447
 20
742.4060611609832
 30
0.0
 11
10464.60162798447
 21
733.4060611609828
 31
0.0
1001
AUTOCAD_POSTSCRIPT_FIGURE
1002
{
1000
PSFILL
1000
Grayscale
1000
Grayscale
1070
   100
1002
}
  0
LINE
  5
2BCC7
330
2B8A7
100
AcDbEntity
  8
YODOROGO
100
AcDbLine
 10
10458.60162798446
 20
742.4060611609832
 30
0.0
 11
10464.60162798447
 21
742.4060611609832
 31
0.0
1001
AUTOCAD_POSTSCRIPT_FIGURE
1002
{
1000
PSFILL
1000
Grayscale
1000
Grayscale
1070
   100
1002
}
  0
LINE
  5
2BCC8
330
2B8A7
100
AcDbEntity
  8
YODOROGO
100
AcDbLine
 10
10458.60162798446
 20
733.4060611609828
 30
0.0
 11
10458.60162798446
 21
742.4060611609832
 31
0.0
1001
AUTOCAD_POSTSCRIPT_FIGURE
1002
{
1000
PSFILL
1000
Grayscale
1000
Grayscale
1070
   100
1002
}
  0
LINE
  5
2BCC9
330
2B8A7
100
AcDbEntity
  8
YODOROGO
100
AcDbLine
 10
10449.60162798447
 20
733.4060611609828
 30
0.0
 11
10458.60162798446
 21
733.4060611609828
 31
0.0
1001
AUTOCAD_POSTSCRIPT_FIGURE
1002
{
1000
PSFILL
1000
Grayscale
1000
Grayscale
1070
   100
1002
}
  0
LINE
  5
2BCCA
330
2B8A7
100
AcDbEntity
  8
YODOROGO
100
AcDbLine
 10
10449.60162798447
 20
742.4060611609832
 30
0.0
 11
10449.60162798447
 21
733.4060611609828
 31
0.0
1001
AUTOCAD_POSTSCRIPT_FIGURE
1002
{
1000
PSFILL
1000
Grayscale
1000
Grayscale
1070
   100
1002
}
  0
LINE
  5
2BCCB
330
2B8A7
100
AcDbEntity
  8
YODOROGO
100
AcDbLine
 10
10443.60162798447
 20
742.4060611609832
 30
0.0
 11
10449.60162798447
 21
742.4060611609832
 31
0.0
1001
AUTOCAD_POSTSCRIPT_FIGURE
1002
{
1000
PSFILL
1000
Grayscale
1000
Grayscale
1070
   100
1002
}
  0
LINE
  5
2BCCC
330
2B8A7
100
AcDbEntity
  8
YODOROGO
100
AcDbLine
 10
10443.60162798447
 20
733.4060611609828
 30
0.0
 11
10443.60162798447
 21
742.4060611609832
 31
0.0
1001
AUTOCAD_POSTSCRIPT_FIGURE
1002
{
1000
PSFILL
1000
Grayscale
1000
Grayscale
1070
   100
1002
}
  0
LINE
  5
2BCCD
330
2B8A7
100
AcDbEntity
  8
YODOROGO
100
AcDbLine
 10
10431.60162798447
 20
733.4060611609828
 30
0.0
 11
10443.60162798447
 21
733.4060611609828
 31
0.0
1001
AUTOCAD_POSTSCRIPT_FIGURE
1002
{
1000
PSFILL
1000
Grayscale
1000
Grayscale
1070
   100
1002
}
  0
LINE
  5
2BCCE
330
2B8A7
100
AcDbEntity
  8
YODOROGO
100
AcDbLine
 10
10431.60162798447
 20
742.4060611609832
 30
0.0
 11
10431.60162798447
 21
733.4060611609828
 31
0.0
1001
AUTOCAD_POSTSCRIPT_FIGURE
1002
{
1000
PSFILL
1000
Grayscale
1000
Grayscale
1070
   100
1002
}
  0
LINE
  5
2BCCF
330
2B8A7
100
AcDbEntity
  8
YODOROGO
100
AcDbLine
 10
10425.60162798447
 20
742.4060611609832
 30
0.0
 11
10431.60162798447
 21
742.4060611609832
 31
0.0
1001
AUTOCAD_POSTSCRIPT_FIGURE
1002
{
1000
PSFILL
1000
Grayscale
1000
Grayscale
1070
   100
1002
}
  0
LINE
  5
2BCD0
330
2B8A7
100
AcDbEntity
  8
YODOROGO
100
AcDbLine
 10
10425.60162798447
 20
733.4060611609828
 30
0.0
 11
10425.60162798447
 21
742.4060611609832
 31
0.0
1001
AUTOCAD_POSTSCRIPT_FIGURE
1002
{
1000
PSFILL
1000
Grayscale
1000
Grayscale
1070
   100
1002
}
  0
LINE
  5
2BCD1
330
2B8A7
100
AcDbEntity
  8
YODOROGO
100
AcDbLine
 10
10416.60162798446
 20
733.4060611609828
 30
0.0
 11
10425.60162798447
 21
733.4060611609828
 31
0.0
1001
AUTOCAD_POSTSCRIPT_FIGURE
1002
{
1000
PSFILL
1000
Grayscale
1000
Grayscale
1070
   100
1002
}
  0
LINE
  5
2BCD2
330
2B8A7
100
AcDbEntity
  8
YODOROGO
100
AcDbLine
 10
10416.60162798446
 20
727.4060611609828
 30
0.0
 11
10416.60162798446
 21
733.4060611609828
 31
0.0
1001
AUTOCAD_POSTSCRIPT_FIGURE
1002
{
1000
PSFILL
1000
Grayscale
1000
Grayscale
1070
   100
1002
}
  0
LINE
  5
2BCD3
330
2B8A7
100
AcDbEntity
  8
YODOROGO
100
AcDbLine
 10
10425.60162798447
 20
727.4060611609828
 30
0.0
 11
10416.60162798446
 21
727.4060611609828
 31
0.0
1001
AUTOCAD_POSTSCRIPT_FIGURE
1002
{
1000
PSFILL
1000
Grayscale
1000
Grayscale
1070
   100
1002
}
  0
LINE
  5
2BCD4
330
2B8A7
100
AcDbEntity
  8
YODOROGO
100
AcDbLine
 10
10425.60162798447
 20
718.0449677976392
 30
0.0
 11
10425.60162798447
 21
727.4060611609828
 31
0.0
1001
AUTOCAD_POSTSCRIPT_FIGURE
1002
{
1000
PSFILL
1000
Grayscale
1000
Grayscale
1070
   100
1002
}
  0
LINE
  5
2BCD5
330
2B8A7
100
AcDbEntity
  8
YODOROGO
100
AcDbLine
 10
10416.60162798446
 20
697.4162804818765
 30
0.0
 11
10425.60162798447
 21
718.0449677976392
 31
0.0
1001
AUTOCAD_POSTSCRIPT_FIGURE
1002
{
1000
PSFILL
1000
Grayscale
1000
Grayscale
1070
   100
1002
}
  0
LINE
  5
2BCD6
330
2B8A7
100
AcDbEntity
  8
YODOROGO
100
AcDbLine
 10
10416.60162798446
 20
691.4162804818772
 30
0.0
 11
10416.60162798446
 21
697.4162804818765
 31
0.0
1001
AUTOCAD_POSTSCRIPT_FIGURE
1002
{
1000
PSFILL
1000
Grayscale
1000
Grayscale
1070
   100
1002
}
  0
LINE
  5
2BCD7
330
2B8A7
100
AcDbEntity
  8
YODOROGO
100
AcDbLine
 10
10596.60162798446
 20
700.406061160983
 30
0.0
 11
10650.60162798447
 21
684.3291096151149
 31
0.0
1001
AUTOCAD_POSTSCRIPT_FIGURE
1002
{
1000
PSFILL
1000
Grayscale
1000
Grayscale
1070
   100
1002
}
  0
LINE
  5
2BCD8
330
2B8A7
100
AcDbEntity
  8
YODOROGO
100
AcDbLine
 10
10650.60162798447
 20
657.3291096151145
 30
0.0
 11
10596.60162798446
 21
673.4060611609827
 31
0.0
1001
AUTOCAD_POSTSCRIPT_FIGURE
1002
{
1000
PSFILL
1000
Grayscale
1000
Grayscale
1070
   100
1002
}
  0
LINE
  5
2BCD9
330
2B8A7
100
AcDbEntity
  8
YODOROGO
100
AcDbLine
 10
10650.60162798447
 20
744.329109615115
 30
0.0
 11
10596.60162798446
 21
760.4060611609829
 31
0.0
1001
AUTOCAD_POSTSCRIPT_FIGURE
1002
{
1000
PSFILL
1000
Grayscale
1000
Grayscale
1070
   100
1002
}
  0
LINE
  5
2BCDA
330
2B8A7
100
AcDbEntity
  8
YODOROGO
100
AcDbLine
 10
10596.60162798446
 20
734.9060611609829
 30
0.0
 11
10650.60162798447
 21
718.829109615115
 31
0.0
1001
AUTOCAD_POSTSCRIPT_FIGURE
1002
{
1000
PSFILL
1000
Grayscale
1000
Grayscale
1070
   100
1002
}
  0
LINE
  5
2BCDB
330
2B8A7
100
AcDbEntity
  8
YODOROGO
100
AcDbLine
 10
10596.60162798446
 20
673.4060611609827
 30
0.0
 11
10596.60162798446
 21
700.406061160983
 31
0.0
1001
AUTOCAD_POSTSCRIPT_FIGURE
1002
{
1000
PSFILL
1000
Grayscale
1000
Grayscale
1070
   100
1002
}
  0
LINE
  5
2BCDC
330
2B8A7
100
AcDbEntity
  8
YODOROGO
100
AcDbLine
 10
10596.60162798446
 20
760.4060611609829
 30
0.0
 11
10596.60162798446
 21
734.9060611609829
 31
0.0
1001
AUTOCAD_POSTSCRIPT_FIGURE
1002
{
1000
PSFILL
1000
Grayscale
1000
Grayscale
1070
   100
1002
}
  0
LINE
  5
2BCDD
330
2B8A7
100
AcDbEntity
  8
YODOROGO
100
AcDbLine
 10
10530.08862007752
 20
727.4060611609828
 30
0.0
 11
10548.60162798447
 21
655.406061160983
 31
0.0
1001
AUTOCAD_POSTSCRIPT_FIGURE
1002
{
1000
PSFILL
1000
Grayscale
1000
Grayscale
1070
   100
1002
}
  0
LINE
  5
2BCDE
330
2B8A7
100
AcDbEntity
  8
YODOROGO
100
AcDbLine
 10
10491.60162798447
 20
727.4060611609828
 30
0.0
 11
10530.08862007752
 21
727.4060611609828
 31
0.0
1001
AUTOCAD_POSTSCRIPT_FIGURE
1002
{
1000
PSFILL
1000
Grayscale
1000
Grayscale
1070
   100
1002
}
  0
LINE
  5
2BCDF
330
2B8A7
100
AcDbEntity
  8
YODOROGO
100
AcDbLine
 10
10491.60162798447
 20
733.4060611609828
 30
0.0
 11
10491.60162798447
 21
727.4060611609828
 31
0.0
1001
AUTOCAD_POSTSCRIPT_FIGURE
1002
{
1000
PSFILL
1000
Grayscale
1000
Grayscale
1070
   100
1002
}
  0
LINE
  5
2BCE0
330
2B8A7
100
AcDbEntity
  8
YODOROGO
100
AcDbLine
 10
10528.72757944497
 20
733.4060611609828
 30
0.0
 11
10491.60162798447
 21
733.4060611609828
 31
0.0
1001
AUTOCAD_POSTSCRIPT_FIGURE
1002
{
1000
PSFILL
1000
Grayscale
1000
Grayscale
1070
   100
1002
}
  0
LINE
  5
2BCE1
330
2B8A7
100
AcDbEntity
  8
YODOROGO
100
AcDbLine
 10
10526.68601849614
 20
742.4060611609832
 30
0.0
 11
10528.72757944497
 21
733.4060611609828
 31
0.0
1001
AUTOCAD_POSTSCRIPT_FIGURE
1002
{
1000
PSFILL
1000
Grayscale
1000
Grayscale
1070
   100
1002
}
  0
LINE
  5
2BCE2
330
2B8A7
100
AcDbEntity
  8
YODOROGO
100
AcDbLine
 10
10534.18601849614
 20
742.4060611609832
 30
0.0
 11
10526.68601849614
 21
742.4060611609832
 31
0.0
1001
AUTOCAD_POSTSCRIPT_FIGURE
1002
{
1000
PSFILL
1000
Grayscale
1000
Grayscale
1070
   100
1002
}
  0
LINE
  5
2BCE3
330
2B8A7
100
AcDbEntity
  8
YODOROGO
100
AcDbLine
 10
10535.92757944497
 20
733.4060611609828
 30
0.0
 11
10534.18601849614
 21
742.4060611609832
 31
0.0
1001
AUTOCAD_POSTSCRIPT_FIGURE
1002
{
1000
PSFILL
1000
Grayscale
1000
Grayscale
1070
   100
1002
}
  0
LINE
  5
2BCE4
330
2B8A7
100
AcDbEntity
  8
YODOROGO
100
AcDbLine
 10
10545.60162798447
 20
733.4060611609828
 30
0.0
 11
10535.92757944497
 21
733.4060611609828
 31
0.0
1001
AUTOCAD_POSTSCRIPT_FIGURE
1002
{
1000
PSFILL
1000
Grayscale
1000
Grayscale
1070
   100
1002
}
  0
LINE
  5
2BCE5
330
2B8A7
100
AcDbEntity
  8
YODOROGO
100
AcDbLine
 10
10545.60162798447
 20
742.4060611609832
 30
0.0
 11
10545.60162798447
 21
733.4060611609828
 31
0.0
1001
AUTOCAD_POSTSCRIPT_FIGURE
1002
{
1000
PSFILL
1000
Grayscale
1000
Grayscale
1070
   100
1002
}
  0
LINE
  5
2BCE6
330
2B8A7
100
AcDbEntity
  8
YODOROGO
100
AcDbLine
 10
10551.60162798447
 20
742.4060611609832
 30
0.0
 11
10545.60162798447
 21
742.4060611609832
 31
0.0
1001
AUTOCAD_POSTSCRIPT_FIGURE
1002
{
1000
PSFILL
1000
Grayscale
1000
Grayscale
1070
   100
1002
}
  0
LINE
  5
2BCE7
330
2B8A7
100
AcDbEntity
  8
YODOROGO
100
AcDbLine
 10
10551.60162798447
 20
733.4060611609828
 30
0.0
 11
10551.60162798447
 21
742.4060611609832
 31
0.0
1001
AUTOCAD_POSTSCRIPT_FIGURE
1002
{
1000
PSFILL
1000
Grayscale
1000
Grayscale
1070
   100
1002
}
  0
LINE
  5
2BCE8
330
2B8A7
100
AcDbEntity
  8
YODOROGO
100
AcDbLine
 10
10551.60162798447
 20
727.4060611609828
 30
0.0
 11
10551.60162798447
 21
733.4060611609828
 31
0.0
1001
AUTOCAD_POSTSCRIPT_FIGURE
1002
{
1000
PSFILL
1000
Grayscale
1000
Grayscale
1070
   100
1002
}
  0
LINE
  5
2BCE9
330
2B8A7
100
AcDbEntity
  8
YODOROGO
100
AcDbLine
 10
10537.08862007752
 20
727.4060611609828
 30
0.0
 11
10551.60162798447
 21
727.4060611609828
 31
0.0
1001
AUTOCAD_POSTSCRIPT_FIGURE
1002
{
1000
PSFILL
1000
Grayscale
1000
Grayscale
1070
   100
1002
}
  0
LINE
  5
2BCEA
330
2B8A7
100
AcDbEntity
  8
YODOROGO
100
AcDbLine
 10
10551.60162798447
 20
655.406061160983
 30
0.0
 11
10537.08862007752
 21
727.4060611609828
 31
0.0
1001
AUTOCAD_POSTSCRIPT_FIGURE
1002
{
1000
PSFILL
1000
Grayscale
1000
Grayscale
1070
   100
1002
}
  0
LINE
  5
2BCEB
330
2B8A7
100
AcDbEntity
  8
YODOROGO
100
AcDbLine
 10
10548.60162798447
 20
655.406061160983
 30
0.0
 11
10551.60162798447
 21
655.406061160983
 31
0.0
1001
AUTOCAD_POSTSCRIPT_FIGURE
1002
{
1000
PSFILL
1000
Grayscale
1000
Grayscale
1070
   100
1002
}
  0
LINE
  5
2BCEC
330
2B8A7
100
AcDbEntity
  8
YODOROGO
100
AcDbLine
 10
10529.27595747517
 20
665.902791112048
 30
0.0
 11
10491.60162798447
 21
655.406061160983
 31
0.0
  0
LINE
  5
2BCED
330
2B8A7
100
AcDbEntity
  8
YODOROGO
100
AcDbLine
 10
10529.27595747517
 20
674.5008673234024
 30
0.0
 11
10529.27595747517
 21
665.902791112048
 31
0.0
  0
LINE
  5
2BCEE
330
2B8A7
100
AcDbEntity
  8
YODOROGO
100
AcDbLine
 10
10512.68879272982
 20
670.0563499251625
 30
0.0
 11
10529.27595747517
 21
674.5008673234024
 31
0.0
  0
LINE
  5
2BCEF
330
2B8A7
100
AcDbEntity
  8
YODOROGO
100
AcDbLine
 10
10512.68879272982
 20
702.2131308511124
 30
0.0
 11
10512.68879272982
 21
670.0563499251625
 31
0.0
  0
LINE
  5
2BCF0
330
2B8A7
100
AcDbEntity
  8
YODOROGO
100
AcDbLine
 10
10529.27595747517
 20
702.2131308511124
 30
0.0
 11
10512.68879272982
 21
702.2131308511124
 31
0.0
  0
LINE
  5
2BCF1
330
2B8A7
100
AcDbEntity
  8
YODOROGO
100
AcDbLine
 10
10529.27595747517
 20
709.7131308511116
 30
0.0
 11
10529.27595747517
 21
702.2131308511124
 31
0.0
  0
LINE
  5
2BCF2
330
2B8A7
100
AcDbEntity
  8
YODOROGO
100
AcDbLine
 10
10491.60162798447
 20
709.7131308511116
 30
0.0
 11
10529.27595747517
 21
709.7131308511116
 31
0.0
  0
LINE
  5
2BCF3
330
2B8A7
100
AcDbEntity
  8
YODOROGO
100
AcDbLine
 10
10491.60162798447
 20
702.2131308511124
 30
0.0
 11
10491.60162798447
 21
709.7131308511116
 31
0.0
  0
LINE
  5
2BCF4
330
2B8A7
100
AcDbEntity
  8
YODOROGO
100
AcDbLine
 10
10508.18879272982
 20
702.2131308511124
 30
0.0
 11
10491.60162798447
 21
702.2131308511124
 31
0.0
  0
LINE
  5
2BCF5
330
2B8A7
100
AcDbEntity
  8
YODOROGO
100
AcDbLine
 10
10508.18879272982
 20
669.252502347869
 30
0.0
 11
10508.18879272982
 21
702.2131308511124
 31
0.0
  0
LINE
  5
2BCF6
330
2B8A7
100
AcDbEntity
  8
YODOROGO
100
AcDbLine
 10
10491.60162798447
 20
664.4060611609823
 30
0.0
 11
10508.18879272982
 21
669.252502347869
 31
0.0
  0
LINE
  5
2BCF7
330
2B8A7
100
AcDbEntity
  8
YODOROGO
100
AcDbLine
 10
10491.60162798447
 20
655.406061160983
 30
0.0
 11
10491.60162798447
 21
664.4060611609823
 31
0.0
  0
LINE
  5
2BCF8
330
2B8A7
100
AcDbEntity
  8
YODOROGO
100
AcDbLine
 10
10500.60162798446
 20
640.4060611609827
 30
0.0
 11
10500.60162798446
 21
631.4060611609825
 31
0.0
  0
LINE
  5
2BCF9
330
2B8A7
100
AcDbEntity
  8
YODOROGO
100
AcDbLine
 10
10500.60162798446
 20
640.4060611609827
 30
0.0
 11
10500.60162798446
 21
640.4060611609827
 31
0.0
  0
LINE
  5
2BCFA
330
2B8A7
100
AcDbEntity
  8
YODOROGO
100
AcDbLine
 10
10506.60162798447
 20
640.4060611609827
 30
0.0
 11
10500.60162798446
 21
640.4060611609827
 31
0.0
  0
LINE
  5
2BCFB
330
2B8A7
100
AcDbEntity
  8
YODOROGO
100
AcDbLine
 10
10506.60162798447
 20
631.4060611609825
 30
0.0
 11
10506.60162798447
 21
640.4060611609827
 31
0.0
  0
LINE
  5
2BCFC
330
2B8A7
100
AcDbEntity
  8
YODOROGO
100
AcDbLine
 10
10515.34245150633
 20
631.4060611609825
 30
0.0
 11
10506.60162798447
 21
631.4060611609825
 31
0.0
  0
LINE
  5
2BCFD
330
2B8A7
100
AcDbEntity
  8
YODOROGO
100
AcDbLine
 10
10500.60162798446
 20
631.4060611609825
 30
0.0
 11
10491.60162798447
 21
631.4060611609825
 31
0.0
  0
LINE
  5
2BCFE
330
2B8A7
100
AcDbEntity
  8
YODOROGO
100
AcDbLine
 10
10530.80082008658
 20
640.4060611609827
 30
0.0
 11
10536.8008200866
 21
640.4060611609827
 31
0.0
1001
AUTOCAD_POSTSCRIPT_FIGURE
1002
{
1000
PSFILL
1000
Grayscale
1000
Grayscale
1070
   100
1002
}
  0
LINE
  5
2BCFF
330
2B8A7
100
AcDbEntity
  8
YODOROGO
100
AcDbLine
 10
10650.60162798447
 20
684.3291096151149
 30
0.0
 11
10650.60162798447
 21
657.3291096151145
 31
0.0
1001
AUTOCAD_POSTSCRIPT_FIGURE
1002
{
1000
PSFILL
1000
Grayscale
1000
Grayscale
1070
   100
1002
}
  0
LINE
  5
2BD00
330
2B8A7
100
AcDbEntity
  8
YODOROGO
100
AcDbLine
 10
10650.60162798447
 20
718.829109615115
 30
0.0
 11
10650.60162798447
 21
744.329109615115
 31
0.0
1001
AUTOCAD_POSTSCRIPT_FIGURE
1002
{
1000
PSFILL
1000
Grayscale
1000
Grayscale
1070
   100
1002
}
  0
LINE
  5
2BD01
330
2B8A7
100
AcDbEntity
  8
YODOROGO
100
AcDbLine
 10
10662.60162798446
 20
682.4060611609828
 30
0.0
 11
10662.60162798446
 21
655.4060611609838
 31
0.0
  0
LINE
  5
2BD02
330
2B8A7
100
AcDbEntity
  8
YODOROGO
100
AcDbLine
 10
10686.60162798446
 20
640.4060611609827
 30
0.0
 11
10662.60162798446
 21
640.4060611609827
 31
0.0
  0
LINE
  5
2BD03
330
2B8A7
100
AcDbEntity
  8
YODOROGO
100
AcDbLine
 10
10662.60162798446
 20
655.4060611609838
 30
0.0
 11
10719.60162798446
 21
655.4060611609838
 31
0.0
  0
LINE
  5
2BD04
330
2B8A7
100
AcDbEntity
  8
YODOROGO
100
AcDbLine
 10
10686.60162798446
 20
700.406061160983
 30
0.0
 11
10662.60162798446
 21
700.406061160983
 31
0.0
  0
LINE
  5
2BD05
330
2B8A7
100
AcDbEntity
  8
YODOROGO
100
AcDbLine
 10
10686.60162798446
 20
721.4060611609824
 30
0.0
 11
10686.60162798446
 21
700.406061160983
 31
0.0
  0
LINE
  5
2BD06
330
2B8A7
100
AcDbEntity
  8
YODOROGO
100
AcDbLine
 10
10719.60162798446
 20
745.4060611609828
 30
0.0
 11
10719.60162798446
 21
760.4060611609829
 31
0.0
  0
LINE
  5
2BD07
330
2B8A7
100
AcDbEntity
  8
YODOROGO
100
AcDbLine
 10
10662.60162798446
 20
745.4060611609828
 30
0.0
 11
10719.60162798446
 21
745.4060611609828
 31
0.0
  0
LINE
  5
2BD08
330
2B8A7
100
AcDbEntity
  8
YODOROGO
100
AcDbLine
 10
10662.60162798446
 20
700.406061160983
 30
0.0
 11
10662.60162798446
 21
745.4060611609828
 31
0.0
  0
LINE
  5
2BD09
330
2B8A7
100
AcDbEntity
  8
YODOROGO
100
AcDbLine
 10
10875.60162798447
 20
760.4060611609829
 30
0.0
 11
10875.60162798447
 21
607.4060611609828
 31
0.0
  0
LINE
  5
2BD0A
330
2B8A7
100
AcDbEntity
  8
YODOROGO
100
AcDbLine
 10
10902.60162798446
 20
592.4060611609831
 30
0.0
 11
10902.60162798446
 21
760.4060611609829
 31
0.0
  0
LINE
  5
2BD0B
330
2B8A7
100
AcDbEntity
  8
YODOROGO
100
AcDbLine
 10
10973.10162798446
 20
559.4060611609823
 30
0.0
 11
10973.10162798446
 21
752.9060611609828
 31
0.0
  0
LINE
  5
2BD0C
330
2B8A7
100
AcDbEntity
  8
YODOROGO
100
AcDbLine
 10
10949.10162798447
 20
752.9060611609828
 30
0.0
 11
10949.10162798447
 21
559.4060611609823
 31
0.0
  0
LINE
  5
2BD0D
330
2B8A7
100
AcDbEntity
  8
YODOROGO
100
AcDbLine
 10
11019.60162798446
 20
760.4060611609829
 30
0.0
 11
11019.60162798446
 21
535.4060611609829
 31
0.0
  0
LINE
  5
2BD0E
330
2B8A7
100
AcDbEntity
  8
YODOROGO
100
AcDbLine
 10
11046.60162798447
 20
535.4060611609829
 30
0.0
 11
11046.60162798447
 21
760.4060611609829
 31
0.0
  0
LINE
  5
2BD0F
330
2B8A7
100
AcDbEntity
  8
YODOROGO
100
AcDbLine
 10
10746.60162798446
 20
625.406061160983
 30
0.0
 11
10746.60162798446
 21
655.4060611609838
 31
0.0
  0
LINE
  5
2BD10
330
2B8A7
100
AcDbEntity
  8
YODOROGO
100
AcDbLine
 10
11207.10162798447
 20
640.4060611609827
 30
0.0
 11
11207.10162798447
 21
625.406061160983
 31
0.0
  0
LINE
  5
2BD11
330
2B8A7
100
AcDbEntity
  8
YODOROGO
100
AcDbLine
 10
11207.10162798447
 20
640.4060611609827
 30
0.0
 11
11207.10162798447
 21
625.406061160983
 31
0.0
  0
ARC
  5
2BD12
330
2B8A7
100
AcDbEntity
  8
YODOROGO
100
AcDbCircle
 10
10840.09184107006
 20
606.8316991658524
 30
0.0
 40
35.51443169202812
100
AcDbArc
 50
274.052441629071
 51
0.9266642149310715
  0
ARC
  5
2BD13
330
2B8A7
100
AcDbEntity
  8
YODOROGO
100
AcDbCircle
 10
10840.94481401992
 20
597.229023228915
 30
0.0
 40
61.84515883532068
100
AcDbArc
 50
271.5351210653776
 51
355.5272775058505
  0
LINE
  5
2BD14
330
2B8A7
100
AcDbEntity
  8
YODOROGO
100
AcDbLine
 10
10842.60162798446
 20
571.4060611609824
 30
0.0
 11
10842.60162798446
 21
535.4060611609829
 31
0.0
  0
LINE
  5
2BD15
330
2B8A7
100
AcDbEntity
  8
YODOROGO
100
AcDbLine
 10
10797.60162798446
 20
625.406061160983
 30
0.0
 11
10746.60162798446
 21
625.406061160983
 31
0.0
  0
LINE
  5
2BD16
330
2B8A7
100
AcDbEntity
  8
YODOROGO
100
AcDbLine
 10
10797.60162798446
 20
601.4060611609833
 30
0.0
 11
10797.60162798446
 21
625.406061160983
 31
0.0
  0
LINE
  5
2BD17
330
2B8A7
100
AcDbEntity
  8
YODOROGO
100
AcDbLine
 10
10746.60162798446
 20
601.4060611609833
 30
0.0
 11
10797.60162798446
 21
601.4060611609833
 31
0.0
  0
LINE
  5
2BD18
330
2B8A7
100
AcDbEntity
  8
YODOROGO
100
AcDbLine
 10
10746.60162798446
 20
571.4060611609824
 30
0.0
 11
10746.60162798446
 21
601.4060611609833
 31
0.0
  0
LINE
  5
2BD19
330
2B8A7
100
AcDbEntity
  8
YODOROGO
100
AcDbLine
 10
10797.60162798446
 20
571.4060611609824
 30
0.0
 11
10746.60162798446
 21
571.4060611609824
 31
0.0
  0
LINE
  5
2BD1A
330
2B8A7
100
AcDbEntity
  8
YODOROGO
100
AcDbLine
 10
10797.60162798446
 20
535.4060611609829
 30
0.0
 11
10797.60162798446
 21
571.4060611609824
 31
0.0
  0
LINE
  5
2BD1B
330
2B8A7
100
AcDbEntity
  8
YODOROGO
100
AcDbLine
 10
10949.10162798447
 20
559.4060611609823
 30
0.0
 11
10973.10162798446
 21
559.4060611609823
 31
0.0
  0
LINE
  5
2BD1C
330
2B8A7
100
AcDbEntity
  8
YODOROGO
100
AcDbLine
 10
11019.60162798446
 20
535.4060611609829
 30
0.0
 11
11046.60162798447
 21
535.4060611609829
 31
0.0
  0
LINE
  5
2BD1D
330
2B8A7
100
AcDbEntity
  8
YODOROGO
100
AcDbLine
 10
11151.60162798447
 20
573.1655445639614
 30
0.0
 11
11151.60162798447
 21
535.4060611609829
 31
0.0
  0
LINE
  5
2BD1E
330
2B8A7
100
AcDbEntity
  8
YODOROGO
100
AcDbLine
 10
11106.60162798446
 20
535.4060611609829
 30
0.0
 11
11151.60162798447
 21
573.1655445639614
 31
0.0
  0
LINE
  5
2BD1F
330
2B8A7
100
AcDbEntity
  8
YODOROGO
100
AcDbLine
 10
11106.60162798446
 20
580.406061160983
 30
0.0
 11
11106.60162798446
 21
535.4060611609829
 31
0.0
  0
LINE
  5
2BD20
330
2B8A7
100
AcDbEntity
  8
YODOROGO
100
AcDbLine
 10
11142.35423576229
 20
610.4060611609829
 30
0.0
 11
11106.60162798446
 21
580.406061160983
 31
0.0
  0
LINE
  5
2BD21
330
2B8A7
100
AcDbEntity
  8
YODOROGO
100
AcDbLine
 10
11106.60162798446
 20
610.4060611609829
 30
0.0
 11
11142.35423576229
 21
610.4060611609829
 31
0.0
  0
LINE
  5
2BD22
330
2B8A7
100
AcDbEntity
  8
YODOROGO
100
AcDbLine
 10
11106.60162798446
 20
625.406061160983
 30
0.0
 11
11106.60162798446
 21
610.4060611609829
 31
0.0
  0
LINE
  5
2BD23
330
2B8A7
100
AcDbEntity
  8
YODOROGO
100
AcDbLine
 10
11207.10162798447
 20
625.406061160983
 30
0.0
 11
11106.60162798446
 21
625.406061160983
 31
0.0
  0
LINE
  5
2BD24
330
2B8A7
100
AcDbEntity
  8
YODOROGO
100
AcDbLine
 10
11219.10162798447
 20
610.4060611609829
 30
0.0
 11
11166.60162798446
 21
610.4060611609829
 31
0.0
  0
LINE
  5
2BD25
330
2B8A7
100
AcDbEntity
  8
YODOROGO
100
AcDbLine
 10
11166.60162798446
 20
585.7520390316213
 30
0.0
 11
11164.27870236948
 21
583.8028730048376
 31
0.0
  0
LINE
  5
2BD26
330
2B8A7
100
AcDbEntity
  8
YODOROGO
100
AcDbLine
 10
11166.60162798446
 20
610.4060611609829
 30
0.0
 11
11166.60162798446
 21
585.7520390316213
 31
0.0
  0
LINE
  5
2BD27
330
2B8A7
100
AcDbEntity
  8
YODOROGO
100
AcDbLine
 10
11151.60162798447
 20
573.1655445639614
 30
0.0
 11
11151.60162798447
 21
535.4060611609829
 31
0.0
  0
LINE
  5
2BD28
330
2B8A7
100
AcDbEntity
  8
YODOROGO
100
AcDbLine
 10
11106.60162798446
 20
535.4060611609829
 30
0.0
 11
11151.60162798447
 21
573.1655445639614
 31
0.0
  0
LINE
  5
2BD29
330
2B8A7
100
AcDbEntity
  8
YODOROGO
100
AcDbLine
 10
11106.60162798446
 20
580.406061160983
 30
0.0
 11
11106.60162798446
 21
535.4060611609829
 31
0.0
  0
LINE
  5
2BD2A
330
2B8A7
100
AcDbEntity
  8
YODOROGO
100
AcDbLine
 10
11142.35423576229
 20
610.4060611609829
 30
0.0
 11
11106.60162798446
 21
580.406061160983
 31
0.0
  0
LINE
  5
2BD2B
330
2B8A7
100
AcDbEntity
  8
YODOROGO
100
AcDbLine
 10
11106.60162798446
 20
610.4060611609829
 30
0.0
 11
11142.35423576229
 21
610.4060611609829
 31
0.0
  0
LINE
  5
2BD2C
330
2B8A7
100
AcDbEntity
  8
YODOROGO
100
AcDbLine
 10
11106.60162798446
 20
625.406061160983
 30
0.0
 11
11106.60162798446
 21
610.4060611609829
 31
0.0
  0
LINE
  5
2BD2D
330
2B8A7
100
AcDbEntity
  8
YODOROGO
100
AcDbLine
 10
11207.10162798447
 20
625.406061160983
 30
0.0
 11
11106.60162798446
 21
625.406061160983
 31
0.0
  0
LINE
  5
2BD2E
330
2B8A7
100
AcDbEntity
  8
YODOROGO
100
AcDbLine
 10
10797.60162798446
 20
655.4060611609838
 30
0.0
 11
10797.60162798446
 21
682.4060611609828
 31
0.0
  0
LINE
  5
2BD2F
330
2B8A7
100
AcDbEntity
  8
YODOROGO
100
AcDbLine
 10
10746.60162798446
 20
655.4060611609838
 30
0.0
 11
10797.60162798446
 21
655.4060611609838
 31
0.0
  0
LINE
  5
2BD30
330
2B8A7
100
AcDbEntity
  8
YODOROGO
100
AcDbLine
 10
10773.60162798447
 20
700.406061160983
 30
0.0
 11
10773.60162798447
 21
721.4060611609824
 31
0.0
  0
LINE
  5
2BD31
330
2B8A7
100
AcDbEntity
  8
YODOROGO
100
AcDbLine
 10
10797.60162798446
 20
700.406061160983
 30
0.0
 11
10773.60162798447
 21
700.406061160983
 31
0.0
  0
LINE
  5
2BD32
330
2B8A7
100
AcDbEntity
  8
YODOROGO
100
AcDbLine
 10
10797.60162798446
 20
730.4060611609828
 30
0.0
 11
10797.60162798446
 21
700.406061160983
 31
0.0
  0
ARC
  5
2BD33
330
2B8A7
100
AcDbEntity
  8
YODOROGO
100
AcDbCircle
 10
10782.60162798446
 20
730.4060611609828
 30
0.0
 40
15.0
100
AcDbArc
 50
0.0
 51
90.0
  0
LINE
  5
2BD34
330
2B8A7
100
AcDbEntity
  8
YODOROGO
100
AcDbLine
 10
10746.60162798447
 20
745.4060611609828
 30
0.0
 11
10782.60162798446
 21
745.4060611609828
 31
0.0
  0
LINE
  5
2BD35
330
2B8A7
100
AcDbEntity
  8
YODOROGO
100
AcDbLine
 10
10746.60162798447
 20
760.4060611609829
 30
0.0
 11
10746.60162798447
 21
745.4060611609828
 31
0.0
  0
LINE
  5
2BD36
330
2B8A7
100
AcDbEntity
  8
YODOROGO
100
AcDbLine
 10
10902.60162798446
 20
760.4060611609829
 30
0.0
 11
10875.60162798447
 21
760.4060611609829
 31
0.0
  0
LINE
  5
2BD37
330
2B8A7
100
AcDbEntity
  8
YODOROGO
100
AcDbLine
 10
10973.10162798446
 20
752.9060611609828
 30
0.0
 11
10949.10162798447
 21
752.9060611609828
 31
0.0
  0
LINE
  5
2BD38
330
2B8A7
100
AcDbEntity
  8
YODOROGO
100
AcDbLine
 10
11046.60162798447
 20
760.4060611609829
 30
0.0
 11
11019.60162798446
 21
760.4060611609829
 31
0.0
  0
LINE
  5
2BD39
330
2B8A7
100
AcDbEntity
  8
YODOROGO
100
AcDbLine
 10
11127.60162798447
 20
640.4060611609827
 30
0.0
 11
11127.60162798447
 21
664.4060611609833
 31
0.0
1001
AUTOCAD_POSTSCRIPT_FIGURE
1002
{
1000
PSFILL
1000
Grayscale
1000
Grayscale
1070
    25
1002
}
  0
LINE
  5
2BD3A
330
2B8A7
100
AcDbEntity
  8
YODOROGO
100
AcDbLine
 10
11106.60162798446
 20
640.4060611609827
 30
0.0
 11
11127.60162798447
 21
640.4060611609827
 31
0.0
1001
AUTOCAD_POSTSCRIPT_FIGURE
1002
{
1000
PSFILL
1000
Grayscale
1000
Grayscale
1070
    25
1002
}
  0
LINE
  5
2BD3B
330
2B8A7
100
AcDbEntity
  8
YODOROGO
100
AcDbLine
 10
11106.60162798446
 20
682.4060611609828
 30
0.0
 11
11106.60162798446
 21
640.4060611609827
 31
0.0
1001
AUTOCAD_POSTSCRIPT_FIGURE
1002
{
1000
PSFILL
1000
Grayscale
1000
Grayscale
1070
    25
1002
}
  0
LINE
  5
2BD3C
330
2B8A7
100
AcDbEntity
  8
YODOROGO
100
AcDbLine
 10
11162.10162798447
 20
682.4060611609828
 30
0.0
 11
11106.60162798446
 21
682.4060611609828
 31
0.0
1001
AUTOCAD_POSTSCRIPT_FIGURE
1002
{
1000
PSFILL
1000
Grayscale
1000
Grayscale
1070
    25
1002
}
  0
LINE
  5
2BD3D
330
2B8A7
100
AcDbEntity
  8
YODOROGO
100
AcDbLine
 10
11162.10162798447
 20
697.406061160983
 30
0.0
 11
11162.10162798447
 21
682.4060611609828
 31
0.0
1001
AUTOCAD_POSTSCRIPT_FIGURE
1002
{
1000
PSFILL
1000
Grayscale
1000
Grayscale
1070
    25
1002
}
  0
LINE
  5
2BD3E
330
2B8A7
100
AcDbEntity
  8
YODOROGO
100
AcDbLine
 10
11106.60162798446
 20
697.406061160983
 30
0.0
 11
11162.10162798447
 21
697.406061160983
 31
0.0
1001
AUTOCAD_POSTSCRIPT_FIGURE
1002
{
1000
PSFILL
1000
Grayscale
1000
Grayscale
1070
    25
1002
}
  0
LINE
  5
2BD3F
330
2B8A7
100
AcDbEntity
  8
YODOROGO
100
AcDbLine
 10
11106.60162798446
 20
715.4060611609828
 30
0.0
 11
11106.60162798446
 21
697.406061160983
 31
0.0
1001
AUTOCAD_POSTSCRIPT_FIGURE
1002
{
1000
PSFILL
1000
Grayscale
1000
Grayscale
1070
    25
1002
}
  0
LINE
  5
2BD40
330
2B8A7
100
AcDbEntity
  8
YODOROGO
100
AcDbLine
 10
11162.10162798447
 20
715.4060611609828
 30
0.0
 11
11106.60162798446
 21
715.4060611609828
 31
0.0
1001
AUTOCAD_POSTSCRIPT_FIGURE
1002
{
1000
PSFILL
1000
Grayscale
1000
Grayscale
1070
    25
1002
}
  0
LINE
  5
2BD41
330
2B8A7
100
AcDbEntity
  8
YODOROGO
100
AcDbLine
 10
11162.10162798447
 20
730.4060611609828
 30
0.0
 11
11162.10162798447
 21
715.4060611609828
 31
0.0
1001
AUTOCAD_POSTSCRIPT_FIGURE
1002
{
1000
PSFILL
1000
Grayscale
1000
Grayscale
1070
    25
1002
}
  0
LINE
  5
2BD42
330
2B8A7
100
AcDbEntity
  8
YODOROGO
100
AcDbLine
 10
11106.60162798446
 20
730.4060611609828
 30
0.0
 11
11162.10162798447
 21
730.4060611609828
 31
0.0
1001
AUTOCAD_POSTSCRIPT_FIGURE
1002
{
1000
PSFILL
1000
Grayscale
1000
Grayscale
1070
    25
1002
}
  0
LINE
  5
2BD43
330
2B8A7
100
AcDbEntity
  8
YODOROGO
100
AcDbLine
 10
11106.60162798446
 20
760.4060611609829
 30
0.0
 11
11106.60162798446
 21
730.4060611609828
 31
0.0
1001
AUTOCAD_POSTSCRIPT_FIGURE
1002
{
1000
PSFILL
1000
Grayscale
1000
Grayscale
1070
    25
1002
}
  0
LINE
  5
2BD44
330
2B8A7
100
AcDbEntity
  8
YODOROGO
100
AcDbLine
 10
11124.60162798446
 20
760.4060611609829
 30
0.0
 11
11106.60162798446
 21
760.4060611609829
 31
0.0
1001
AUTOCAD_POSTSCRIPT_FIGURE
1002
{
1000
PSFILL
1000
Grayscale
1000
Grayscale
1070
    25
1002
}
  0
LINE
  5
2BD45
330
2B8A7
100
AcDbEntity
  8
YODOROGO
100
AcDbLine
 10
11124.60162798446
 20
748.4060611609828
 30
0.0
 11
11124.60162798446
 21
760.4060611609829
 31
0.0
1001
AUTOCAD_POSTSCRIPT_FIGURE
1002
{
1000
PSFILL
1000
Grayscale
1000
Grayscale
1070
    25
1002
}
  0
LINE
  5
2BD46
330
2B8A7
100
AcDbEntity
  8
YODOROGO
100
AcDbLine
 10
11162.10162798447
 20
748.4060611609828
 30
0.0
 11
11124.60162798446
 21
748.4060611609828
 31
0.0
1001
AUTOCAD_POSTSCRIPT_FIGURE
1002
{
1000
PSFILL
1000
Grayscale
1000
Grayscale
1070
    25
1002
}
  0
LINE
  5
2BD47
330
2B8A7
100
AcDbEntity
  8
YODOROGO
100
AcDbLine
 10
11162.10162798447
 20
760.4060611609829
 30
0.0
 11
11162.10162798447
 21
748.4060611609828
 31
0.0
1001
AUTOCAD_POSTSCRIPT_FIGURE
1002
{
1000
PSFILL
1000
Grayscale
1000
Grayscale
1070
    25
1002
}
  0
LINE
  5
2BD48
330
2B8A7
100
AcDbEntity
  8
YODOROGO
100
AcDbLine
 10
11186.10162798447
 20
760.4060611609829
 30
0.0
 11
11162.10162798447
 21
760.4060611609829
 31
0.0
1001
AUTOCAD_POSTSCRIPT_FIGURE
1002
{
1000
PSFILL
1000
Grayscale
1000
Grayscale
1070
    25
1002
}
  0
LINE
  5
2BD49
330
2B8A7
100
AcDbEntity
  8
YODOROGO
100
AcDbLine
 10
11186.10162798447
 20
748.4060611609828
 30
0.0
 11
11186.10162798447
 21
760.4060611609829
 31
0.0
1001
AUTOCAD_POSTSCRIPT_FIGURE
1002
{
1000
PSFILL
1000
Grayscale
1000
Grayscale
1070
    25
1002
}
  0
LINE
  5
2BD4A
330
2B8A7
100
AcDbEntity
  8
YODOROGO
100
AcDbLine
 10
11186.10162798447
 20
715.4060611609828
 30
0.0
 11
11186.10162798447
 21
730.4060611609828
 31
0.0
1001
AUTOCAD_POSTSCRIPT_FIGURE
1002
{
1000
PSFILL
1000
Grayscale
1000
Grayscale
1070
    25
1002
}
  0
LINE
  5
2BD4B
330
2B8A7
100
AcDbEntity
  8
YODOROGO
100
AcDbLine
 10
11186.10162798447
 20
682.4060611609828
 30
0.0
 11
11186.10162798447
 21
697.406061160983
 31
0.0
1001
AUTOCAD_POSTSCRIPT_FIGURE
1002
{
1000
PSFILL
1000
Grayscale
1000
Grayscale
1070
    25
1002
}
  0
LINE
  5
2BD4C
330
2B8A7
100
AcDbEntity
  8
YODOROGO
100
AcDbLine
 10
11220.60162798447
 20
664.4060611609833
 30
0.0
 11
11220.60162798447
 21
640.4060611609827
 31
0.0
1001
AUTOCAD_POSTSCRIPT_FIGURE
1002
{
1000
PSFILL
1000
Grayscale
1000
Grayscale
1070
    25
1002
}
  0
LINE
  5
2BD4D
330
2B8A7
100
AcDbEntity
  8
YODOROGO
100
AcDbLine
 10
11186.10162798447
 20
664.4060611609833
 30
0.0
 11
11220.60162798447
 21
664.4060611609833
 31
0.0
1001
AUTOCAD_POSTSCRIPT_FIGURE
1002
{
1000
PSFILL
1000
Grayscale
1000
Grayscale
1070
    25
1002
}
  0
LINE
  5
2BD4E
330
2B8A7
100
AcDbEntity
  8
YODOROGO
100
AcDbLine
 10
11186.10162798447
 20
640.4060611609827
 30
0.0
 11
11186.10162798447
 21
664.4060611609833
 31
0.0
1001
AUTOCAD_POSTSCRIPT_FIGURE
1002
{
1000
PSFILL
1000
Grayscale
1000
Grayscale
1070
    25
1002
}
  0
LINE
  5
2BD4F
330
2B8A7
100
AcDbEntity
  8
YODOROGO
100
AcDbLine
 10
11162.10162798447
 20
640.4060611609827
 30
0.0
 11
11186.10162798447
 21
640.4060611609827
 31
0.0
1001
AUTOCAD_POSTSCRIPT_FIGURE
1002
{
1000
PSFILL
1000
Grayscale
1000
Grayscale
1070
    25
1002
}
  0
LINE
  5
2BD50
330
2B8A7
100
AcDbEntity
  8
YODOROGO
100
AcDbLine
 10
11162.10162798447
 20
664.4060611609833
 30
0.0
 11
11162.10162798447
 21
640.4060611609827
 31
0.0
1001
AUTOCAD_POSTSCRIPT_FIGURE
1002
{
1000
PSFILL
1000
Grayscale
1000
Grayscale
1070
    25
1002
}
  0
LINE
  5
2BD51
330
2B8A7
100
AcDbEntity
  8
YODOROGO
100
AcDbLine
 10
11127.60162798447
 20
664.4060611609833
 30
0.0
 11
11162.10162798447
 21
664.4060611609833
 31
0.0
1001
AUTOCAD_POSTSCRIPT_FIGURE
1002
{
1000
PSFILL
1000
Grayscale
1000
Grayscale
1070
    25
1002
}
  0
ARC
  5
2BD52
330
2B8A7
100
AcDbEntity
  8
YODOROGO
100
AcDbCircle
 10
11647.31921000922
 20
601.0052765683409
 30
0.0
 40
66.83298041652057
100
AcDbArc
 50
281.0262749542534
 51
357.771135755738
  0
LINE
  5
2BD53
330
2B8A7
100
AcDbEntity
  8
YODOROGO
100
AcDbLine
 10
11780.10162798446
 20
715.4060611609828
 30
0.0
 11
11687.10162798447
 21
715.4060611609828
 31
0.0
  0
LINE
  5
2BD54
330
2B8A7
100
AcDbEntity
  8
YODOROGO
100
AcDbLine
 10
11780.10162798446
 20
760.4060611609829
 30
0.0
 11
11687.10162798447
 21
760.4060611609829
 31
0.0
  0
LINE
  5
2BD55
330
2B8A7
100
AcDbEntity
  8
YODOROGO
100
AcDbLine
 10
11687.10162798447
 20
736.4060611609825
 30
0.0
 11
11780.10162798446
 21
736.4060611609825
 31
0.0
  0
LINE
  5
2BD56
330
2B8A7
100
AcDbEntity
  8
YODOROGO
100
AcDbLine
 10
11546.85162798447
 20
586.4060611609825
 30
0.0
 11
11546.85162798447
 21
658.4060611609827
 31
0.0
  0
LINE
  5
2BD57
330
2B8A7
100
AcDbEntity
  8
YODOROGO
100
AcDbLine
 10
11536.35162798447
 20
634.4060611609833
 30
0.0
 11
11536.35162798447
 21
586.4060611609825
 31
0.0
  0
LINE
  5
2BD58
330
2B8A7
100
AcDbEntity
  8
YODOROGO
100
AcDbLine
 10
11521.35162798447
 20
559.4060611609831
 30
0.0
 11
11521.35162798447
 21
634.4060611609833
 31
0.0
  0
LINE
  5
2BD59
330
2B8A7
100
AcDbEntity
  8
YODOROGO
100
AcDbLine
 10
11587.35162798447
 20
634.4060611609833
 30
0.0
 11
11587.35162798447
 21
559.4060611609831
 31
0.0
  0
LINE
  5
2BD5A
330
2B8A7
100
AcDbEntity
  8
YODOROGO
100
AcDbLine
 10
11572.35162798446
 20
586.4060611609825
 30
0.0
 11
11572.35162798446
 21
634.4060611609833
 31
0.0
  0
LINE
  5
2BD5B
330
2B8A7
100
AcDbEntity
  8
YODOROGO
100
AcDbLine
 10
11561.85162798446
 20
658.4060611609827
 30
0.0
 11
11561.85162798446
 21
586.4060611609825
 31
0.0
  0
LINE
  5
2BD5C
330
2B8A7
100
AcDbEntity
  8
YODOROGO
100
AcDbLine
 10
11615.10162798446
 20
760.4060611609829
 30
0.0
 11
11615.10162798446
 21
550.4060611609827
 31
0.0
  0
LINE
  5
2BD5D
330
2B8A7
100
AcDbEntity
  8
YODOROGO
100
AcDbLine
 10
11492.10162798447
 20
535.4060611609829
 30
0.0
 11
11492.10162798447
 21
760.4060611609829
 31
0.0
  0
LINE
  5
2BD5E
330
2B8A7
100
AcDbEntity
  8
YODOROGO
100
AcDbLine
 10
11511.60162798447
 20
736.4060611609825
 30
0.0
 11
11511.60162798447
 21
535.4060611609829
 31
0.0
  0
LINE
  5
2BD5F
330
2B8A7
100
AcDbEntity
  8
YODOROGO
100
AcDbLine
 10
11597.10162798446
 20
580.406061160983
 30
0.0
 11
11597.10162798446
 21
736.4060611609825
 31
0.0
  0
LINE
  5
2BD60
330
2B8A7
100
AcDbEntity
  8
YODOROGO
100
AcDbLine
 10
11393.10162798446
 20
610.4060611609829
 30
0.0
 11
11393.10162798446
 21
629.9060611609831
 31
0.0
  0
LINE
  5
2BD61
330
2B8A7
100
AcDbEntity
  8
YODOROGO
100
AcDbLine
 10
11481.60162798447
 20
629.9060611609831
 30
0.0
 11
11481.60162798447
 21
610.4060611609829
 31
0.0
  0
LINE
  5
2BD62
330
2B8A7
100
AcDbEntity
  8
YODOROGO
100
AcDbLine
 10
11687.10162798447
 20
715.4060611609828
 30
0.0
 11
11687.10162798447
 21
613.4060611609827
 31
0.0
  0
LINE
  5
2BD63
330
2B8A7
100
AcDbEntity
  8
YODOROGO
100
AcDbLine
 10
11231.10162798446
 20
625.406061160983
 30
0.0
 11
11231.10162798446
 21
640.4060611609827
 31
0.0
  0
LINE
  5
2BD64
330
2B8A7
100
AcDbEntity
  8
YODOROGO
100
AcDbLine
 10
11231.10162798446
 20
625.406061160983
 30
0.0
 11
11231.10162798446
 21
640.4060611609827
 31
0.0
  0
ARC
  5
2BD65
330
2B8A7
100
AcDbEntity
  8
YODOROGO
100
AcDbCircle
 10
11451.60162798447
 20
565.4060611609827
 30
0.0
 40
30.0
100
AcDbArc
 50
270.0
 51
0.0
  0
LINE
  5
2BD66
330
2B8A7
100
AcDbEntity
  8
YODOROGO
100
AcDbLine
 10
11463.60162798446
 20
599.9060611609831
 30
0.0
 11
11481.60162798447
 21
599.9060611609831
 31
0.0
  0
LINE
  5
2BD67
330
2B8A7
100
AcDbEntity
  8
YODOROGO
100
AcDbLine
 10
11481.60162798447
 20
610.4060611609829
 30
0.0
 11
11448.60162798446
 21
610.4060611609829
 31
0.0
  0
LINE
  5
2BD68
330
2B8A7
100
AcDbEntity
  8
YODOROGO
100
AcDbLine
 10
11331.60162798447
 20
625.406061160983
 30
0.0
 11
11231.10162798446
 21
625.406061160983
 31
0.0
  0
LINE
  5
2BD69
330
2B8A7
100
AcDbEntity
  8
YODOROGO
100
AcDbLine
 10
11331.60162798447
 20
610.4060611609829
 30
0.0
 11
11331.60162798447
 21
625.406061160983
 31
0.0
  0
LINE
  5
2BD6A
330
2B8A7
100
AcDbEntity
  8
YODOROGO
100
AcDbLine
 10
11256.60162798447
 20
610.4060611609829
 30
0.0
 11
11331.60162798447
 21
610.4060611609829
 31
0.0
  0
ARC
  5
2BD6B
330
2B8A7
100
AcDbEntity
  8
YODOROGO
100
AcDbCircle
 10
11336.27206076301
 20
700.8321431073384
 30
0.0
 40
120.5166136069605
100
AcDbArc
 50
228.6181454618993
 51
245.660289248906
  0
LINE
  5
2BD6C
330
2B8A7
100
AcDbEntity
  8
YODOROGO
100
AcDbLine
 10
11289.60162798447
 20
601.4060611609833
 30
0.0
 11
11286.60162798448
 21
591.0273059512126
 31
0.0
  0
LINE
  5
2BD6D
330
2B8A7
100
AcDbEntity
  8
YODOROGO
100
AcDbLine
 10
11321.10162798447
 20
601.4060611609833
 30
0.0
 11
11289.60162798447
 21
601.4060611609833
 31
0.0
  0
LINE
  5
2BD6E
330
2B8A7
100
AcDbEntity
  8
YODOROGO
100
AcDbLine
 10
11316.60162798447
 20
581.9316459275352
 30
0.0
 11
11321.10162798447
 21
601.4060611609833
 31
0.0
  0
ARC
  5
2BD6F
330
2B8A7
100
AcDbEntity
  8
YODOROGO
100
AcDbCircle
 10
11336.27206076267
 20
700.832143107376
 30
0.0
 40
120.516613606984
100
AcDbArc
 50
260.6062929796992
 51
267.7790355655586
  0
LINE
  5
2BD70
330
2B8A7
100
AcDbEntity
  8
YODOROGO
100
AcDbLine
 10
11331.60162798447
 20
535.4060611609821
 30
0.0
 11
11331.60162798447
 21
580.406061160983
 31
0.0
  0
LINE
  5
2BD71
330
2B8A7
100
AcDbEntity
  8
YODOROGO
100
AcDbLine
 10
11226.60162798446
 20
555.5022505933163
 30
0.0
 11
11226.60162798446
 21
597.949158949178
 31
0.0
  0
LINE
  5
2BD72
330
2B8A7
100
AcDbEntity
  8
YODOROGO
100
AcDbLine
 10
11331.60162798447
 20
625.406061160983
 30
0.0
 11
11231.10162798446
 21
625.406061160983
 31
0.0
  0
LINE
  5
2BD73
330
2B8A7
100
AcDbEntity
  8
YODOROGO
100
AcDbLine
 10
11331.60162798447
 20
610.4060611609829
 30
0.0
 11
11331.60162798447
 21
625.406061160983
 31
0.0
  0
LINE
  5
2BD74
330
2B8A7
100
AcDbEntity
  8
YODOROGO
100
AcDbLine
 10
11256.60162798447
 20
610.4060611609829
 30
0.0
 11
11331.60162798447
 21
610.4060611609829
 31
0.0
  0
ARC
  5
2BD75
330
2B8A7
100
AcDbEntity
  8
YODOROGO
100
AcDbCircle
 10
11336.27206076301
 20
700.8321431073384
 30
0.0
 40
120.5166136069605
100
AcDbArc
 50
228.6181454618993
 51
245.660289248906
  0
LINE
  5
2BD76
330
2B8A7
100
AcDbEntity
  8
YODOROGO
100
AcDbLine
 10
11289.60162798447
 20
601.4060611609833
 30
0.0
 11
11286.60162798448
 21
591.0273059512126
 31
0.0
  0
LINE
  5
2BD77
330
2B8A7
100
AcDbEntity
  8
YODOROGO
100
AcDbLine
 10
11321.10162798447
 20
601.4060611609833
 30
0.0
 11
11289.60162798447
 21
601.4060611609833
 31
0.0
  0
LINE
  5
2BD78
330
2B8A7
100
AcDbEntity
  8
YODOROGO
100
AcDbLine
 10
11316.60162798447
 20
581.9316459275352
 30
0.0
 11
11321.10162798447
 21
601.4060611609833
 31
0.0
  0
ARC
  5
2BD79
330
2B8A7
100
AcDbEntity
  8
YODOROGO
100
AcDbCircle
 10
11336.27206076267
 20
700.832143107376
 30
0.0
 40
120.516613606984
100
AcDbArc
 50
260.6062929796992
 51
267.7790355655586
  0
LINE
  5
2BD7A
330
2B8A7
100
AcDbEntity
  8
YODOROGO
100
AcDbLine
 10
11331.60162798447
 20
535.4060611609821
 30
0.0
 11
11331.60162798447
 21
580.406061160983
 31
0.0
  0
LINE
  5
2BD7B
330
2B8A7
100
AcDbEntity
  8
YODOROGO
100
AcDbLine
 10
11226.60162798446
 20
555.5022505933163
 30
0.0
 11
11226.60162798446
 21
597.949158949178
 31
0.0
  0
LINE
  5
2BD7C
330
2B8A7
100
AcDbEntity
  8
YODOROGO
100
AcDbLine
 10
11412.60162798447
 20
590.1560611609832
 30
0.0
 11
11393.10162798446
 21
590.1560611609832
 31
0.0
  0
LINE
  5
2BD7D
330
2B8A7
100
AcDbEntity
  8
YODOROGO
100
AcDbLine
 10
11412.60162798447
 20
600.6560611609824
 30
0.0
 11
11412.60162798447
 21
590.1560611609832
 31
0.0
  0
LINE
  5
2BD7E
330
2B8A7
100
AcDbEntity
  8
YODOROGO
100
AcDbLine
 10
11393.10162798446
 20
600.6560611609824
 30
0.0
 11
11412.60162798447
 21
600.6560611609824
 31
0.0
  0
LINE
  5
2BD7F
330
2B8A7
100
AcDbEntity
  8
YODOROGO
100
AcDbLine
 10
11393.10162798446
 20
590.1560611609832
 30
0.0
 11
11393.10162798446
 21
600.6560611609824
 31
0.0
  0
LINE
  5
2BD80
330
2B8A7
100
AcDbEntity
  8
YODOROGO
100
AcDbLine
 10
11411.10162798447
 20
591.6560611609829
 30
0.0
 11
11394.60162798447
 21
591.6560611609829
 31
0.0
  0
LINE
  5
2BD81
330
2B8A7
100
AcDbEntity
  8
YODOROGO
100
AcDbLine
 10
11411.10162798447
 20
599.156061160983
 30
0.0
 11
11411.10162798447
 21
591.6560611609829
 31
0.0
  0
LINE
  5
2BD82
330
2B8A7
100
AcDbEntity
  8
YODOROGO
100
AcDbLine
 10
11394.60162798447
 20
599.156061160983
 30
0.0
 11
11411.10162798447
 21
599.156061160983
 31
0.0
  0
LINE
  5
2BD83
330
2B8A7
100
AcDbEntity
  8
YODOROGO
100
AcDbLine
 10
11394.60162798447
 20
591.6560611609829
 30
0.0
 11
11394.60162798447
 21
599.156061160983
 31
0.0
  0
LINE
  5
2BD84
330
2B8A7
100
AcDbEntity
  8
YODOROGO
100
AcDbLine
 10
11409.60162798447
 20
593.1560611609824
 30
0.0
 11
11396.10162798446
 21
593.1560611609824
 31
0.0
  0
LINE
  5
2BD85
330
2B8A7
100
AcDbEntity
  8
YODOROGO
100
AcDbLine
 10
11409.60162798447
 20
597.6560611609833
 30
0.0
 11
11409.60162798447
 21
593.1560611609824
 31
0.0
  0
LINE
  5
2BD86
330
2B8A7
100
AcDbEntity
  8
YODOROGO
100
AcDbLine
 10
11396.10162798446
 20
597.6560611609833
 30
0.0
 11
11409.60162798447
 21
597.6560611609833
 31
0.0
  0
LINE
  5
2BD87
330
2B8A7
100
AcDbEntity
  8
YODOROGO
100
AcDbLine
 10
11396.10162798446
 20
593.1560611609824
 30
0.0
 11
11396.10162798446
 21
597.6560611609833
 31
0.0
  0
LINE
  5
2BD88
330
2B8A7
100
AcDbEntity
  8
YODOROGO
100
AcDbLine
 10
11408.10162798447
 20
594.6560611609827
 30
0.0
 11
11397.60162798447
 21
594.6560611609827
 31
0.0
  0
LINE
  5
2BD89
330
2B8A7
100
AcDbEntity
  8
YODOROGO
100
AcDbLine
 10
11408.10162798447
 20
596.1560611609828
 30
0.0
 11
11408.10162798447
 21
594.6560611609827
 31
0.0
  0
LINE
  5
2BD8A
330
2B8A7
100
AcDbEntity
  8
YODOROGO
100
AcDbLine
 10
11397.60162798447
 20
596.1560611609828
 30
0.0
 11
11408.10162798447
 21
596.1560611609828
 31
0.0
  0
LINE
  5
2BD8B
330
2B8A7
100
AcDbEntity
  8
YODOROGO
100
AcDbLine
 10
11397.60162798447
 20
594.6560611609827
 30
0.0
 11
11397.60162798447
 21
596.1560611609828
 31
0.0
  0
LINE
  5
2BD8C
330
2B8A7
100
AcDbEntity
  8
YODOROGO
100
AcDbLine
 10
11424.60162798446
 20
610.4060611609829
 30
0.0
 11
11393.10162798446
 21
610.4060611609829
 31
0.0
  0
LINE
  5
2BD8D
330
2B8A7
100
AcDbEntity
  8
YODOROGO
100
AcDbLine
 10
11424.60162798446
 20
580.406061160983
 30
0.0
 11
11424.60162798446
 21
610.4060611609829
 31
0.0
  0
LINE
  5
2BD8E
330
2B8A7
100
AcDbEntity
  8
YODOROGO
100
AcDbLine
 10
11393.10162798446
 20
580.406061160983
 30
0.0
 11
11424.60162798446
 21
580.406061160983
 31
0.0
  0
LINE
  5
2BD8F
330
2B8A7
100
AcDbEntity
  8
YODOROGO
100
AcDbLine
 10
11393.10162798446
 20
535.4060611609829
 30
0.0
 11
11393.10162798446
 21
580.406061160983
 31
0.0
  0
LINE
  5
2BD90
330
2B8A7
100
AcDbEntity
  8
YODOROGO
100
AcDbLine
 10
11451.60162798447
 20
535.4060611609829
 30
0.0
 11
11393.10162798446
 21
535.4060611609829
 31
0.0
  0
LINE
  5
2BD91
330
2B8A7
100
AcDbEntity
  8
YODOROGO
100
AcDbLine
 10
11463.60162798446
 20
589.4060611609823
 30
0.0
 11
11463.60162798446
 21
599.9060611609831
 31
0.0
  0
ARC
  5
2BD92
330
2B8A7
100
AcDbEntity
  8
YODOROGO
100
AcDbCircle
 10
11454.60162798446
 20
589.4060611609843
 30
0.0
 40
9.000000000001408
100
AcDbArc
 50
270.0
 51
359.9999999999877
  0
LINE
  5
2BD93
330
2B8A7
100
AcDbEntity
  8
YODOROGO
100
AcDbLine
 10
11448.60162798446
 20
580.406061160983
 30
0.0
 11
11454.60162798446
 21
580.406061160983
 31
0.0
  0
LINE
  5
2BD94
330
2B8A7
100
AcDbEntity
  8
YODOROGO
100
AcDbLine
 10
11448.60162798446
 20
610.4060611609829
 30
0.0
 11
11448.60162798446
 21
580.406061160983
 31
0.0
  0
LINE
  5
2BD95
330
2B8A7
100
AcDbEntity
  8
YODOROGO
100
AcDbLine
 10
11587.35162798447
 20
580.406061160983
 30
0.0
 11
11597.10162798446
 21
580.406061160983
 31
0.0
  0
LINE
  5
2BD96
330
2B8A7
100
AcDbEntity
  8
YODOROGO
100
AcDbLine
 10
11600.10162798446
 20
535.4060611609829
 30
0.0
 11
11587.35162798447
 21
535.4060611609829
 31
0.0
  0
LINE
  5
2BD97
330
2B8A7
100
AcDbEntity
  8
YODOROGO
100
AcDbLine
 10
11536.35162798447
 20
586.4060611609825
 30
0.0
 11
11546.85162798447
 21
586.4060611609825
 31
0.0
  0
LINE
  5
2BD98
330
2B8A7
100
AcDbEntity
  8
YODOROGO
100
AcDbLine
 10
11587.35162798447
 20
559.4060611609831
 30
0.0
 11
11521.35162798447
 21
559.4060611609831
 31
0.0
  0
LINE
  5
2BD99
330
2B8A7
100
AcDbEntity
  8
YODOROGO
100
AcDbLine
 10
11561.85162798446
 20
586.4060611609825
 30
0.0
 11
11572.35162798446
 21
586.4060611609825
 31
0.0
  0
LINE
  5
2BD9A
330
2B8A7
100
AcDbEntity
  8
YODOROGO
100
AcDbLine
 10
11587.35162798447
 20
535.4060611609829
 30
0.0
 11
11587.35162798447
 21
580.406061160983
 31
0.0
  0
LINE
  5
2BD9B
330
2B8A7
100
AcDbEntity
  8
YODOROGO
100
AcDbLine
 10
11511.60162798447
 20
535.4060611609829
 30
0.0
 11
11492.10162798447
 21
535.4060611609829
 31
0.0
  0
LINE
  5
2BD9C
330
2B8A7
100
AcDbEntity
  8
YODOROGO
100
AcDbLine
 10
11481.60162798447
 20
599.9060611609831
 30
0.0
 11
11481.60162798447
 21
565.4060611609827
 31
0.0
  0
ARC
  5
2BD9D
330
2B8A7
100
AcDbEntity
  8
YODOROGO
100
AcDbCircle
 10
11600.10162798446
 20
550.4060611609827
 30
0.0
 40
15.0
100
AcDbArc
 50
270.0
 51
0.0
  0
LINE
  5
2BD9E
330
2B8A7
100
AcDbEntity
  8
YODOROGO
100
AcDbLine
 10
11660.10162798446
 20
571.4060611609824
 30
0.0
 11
11660.10162798446
 21
535.4060611609829
 31
0.0
  0
ARC
  5
2BD9F
330
2B8A7
100
AcDbEntity
  8
YODOROGO
100
AcDbCircle
 10
11639.89552333754
 20
614.0742712911499
 30
0.0
 40
47.21083372187828
100
AcDbArc
 50
295.3405244216011
 51
359.1890230341868
  0
LINE
  5
2BDA0
330
2B8A7
100
AcDbEntity
  8
YODOROGO
100
AcDbLine
 10
11481.60162798447
 20
697.406061160983
 30
0.0
 11
11436.60162798447
 21
727.4060611609828
 31
0.0
  0
LINE
  5
2BDA1
330
2B8A7
100
AcDbEntity
  8
YODOROGO
100
AcDbLine
 10
11436.60162798447
 20
760.4060611609829
 30
0.0
 11
11481.60162798447
 21
730.4060611609828
 31
0.0
  0
LINE
  5
2BDA2
330
2B8A7
100
AcDbEntity
  8
YODOROGO
100
AcDbLine
 10
11448.60162798446
 20
629.9060611609831
 30
0.0
 11
11481.60162798447
 21
629.9060611609831
 31
0.0
  0
LINE
  5
2BDA3
330
2B8A7
100
AcDbEntity
  8
YODOROGO
100
AcDbLine
 10
11481.60162798447
 20
650.9060611609827
 30
0.0
 11
11448.60162798446
 21
650.9060611609827
 31
0.0
  0
LINE
  5
2BDA4
330
2B8A7
100
AcDbEntity
  8
YODOROGO
100
AcDbLine
 10
11393.10162798446
 20
673.4060611609827
 30
0.0
 11
11481.60162798447
 21
673.4060611609827
 31
0.0
  0
LINE
  5
2BDA5
330
2B8A7
100
AcDbEntity
  8
YODOROGO
100
AcDbLine
 10
11280.60162798447
 20
760.4060611609829
 30
0.0
 11
11258.10162798447
 21
760.4060611609829
 31
0.0
  0
LINE
  5
2BDA6
330
2B8A7
100
AcDbEntity
  8
YODOROGO
100
AcDbLine
 10
11280.60162798447
 20
685.4060611609829
 30
0.0
 11
11280.60162798447
 21
760.4060611609829
 31
0.0
  0
LINE
  5
2BDA7
330
2B8A7
100
AcDbEntity
  8
YODOROGO
100
AcDbLine
 10
11258.10162798447
 20
685.4060611609829
 30
0.0
 11
11280.60162798447
 21
685.4060611609829
 31
0.0
  0
LINE
  5
2BDA8
330
2B8A7
100
AcDbEntity
  8
YODOROGO
100
AcDbLine
 10
11258.10162798447
 20
760.4060611609829
 30
0.0
 11
11258.10162798447
 21
685.4060611609829
 31
0.0
  0
LINE
  5
2BDA9
330
2B8A7
100
AcDbEntity
  8
YODOROGO
100
AcDbLine
 10
11310.60162798447
 20
760.4060611609829
 30
0.0
 11
11331.60162798447
 21
760.4060611609829
 31
0.0
  0
LINE
  5
2BDAA
330
2B8A7
100
AcDbEntity
  8
YODOROGO
100
AcDbLine
 10
11310.60162798447
 20
679.4060611609832
 30
0.0
 11
11310.60162798447
 21
760.4060611609829
 31
0.0
  0
ARC
  5
2BDAB
330
2B8A7
100
AcDbEntity
  8
YODOROGO
100
AcDbCircle
 10
11295.60162798447
 20
679.4060611609832
 30
0.0
 40
15.0
100
AcDbArc
 50
270.0
 51
0.0
  0
LINE
  5
2BDAC
330
2B8A7
100
AcDbEntity
  8
YODOROGO
100
AcDbLine
 10
11258.10162798447
 20
664.4060611609833
 30
0.0
 11
11295.60162798447
 21
664.4060611609833
 31
0.0
  0
LINE
  5
2BDAD
330
2B8A7
100
AcDbEntity
  8
YODOROGO
100
AcDbLine
 10
11258.10162798447
 20
640.4060611609827
 30
0.0
 11
11258.10162798447
 21
664.4060611609833
 31
0.0
  0
LINE
  5
2BDAE
330
2B8A7
100
AcDbEntity
  8
YODOROGO
100
AcDbLine
 10
11301.60162798446
 20
640.4060611609827
 30
0.0
 11
11258.10162798447
 21
640.4060611609827
 31
0.0
  0
ARC
  5
2BDAF
330
2B8A7
100
AcDbEntity
  8
YODOROGO
100
AcDbCircle
 10
11301.60162798446
 20
670.4060611609827
 30
0.0
 40
30.0
100
AcDbArc
 50
270.0
 51
0.0
  0
LINE
  5
2BDB0
330
2B8A7
100
AcDbEntity
  8
YODOROGO
100
AcDbLine
 10
11331.60162798447
 20
760.4060611609829
 30
0.0
 11
11331.60162798447
 21
670.4060611609827
 31
0.0
  0
LINE
  5
2BDB1
330
2B8A7
100
AcDbEntity
  8
YODOROGO
100
AcDbLine
 10
11241.60162798446
 20
730.4060611609828
 30
0.0
 11
11241.60162798446
 21
748.4060611609828
 31
0.0
1001
AUTOCAD_POSTSCRIPT_FIGURE
1002
{
1000
PSFILL
1000
Grayscale
1000
Grayscale
1070
    25
1002
}
  0
LINE
  5
2BDB2
330
2B8A7
100
AcDbEntity
  8
YODOROGO
100
AcDbLine
 10
11241.60162798446
 20
697.406061160983
 30
0.0
 11
11241.60162798446
 21
715.4060611609828
 31
0.0
1001
AUTOCAD_POSTSCRIPT_FIGURE
1002
{
1000
PSFILL
1000
Grayscale
1000
Grayscale
1070
    25
1002
}
  0
LINE
  5
2BDB3
330
2B8A7
100
AcDbEntity
  8
YODOROGO
100
AcDbLine
 10
11241.60162798446
 20
640.4060611609827
 30
0.0
 11
11241.60162798446
 21
682.4060611609828
 31
0.0
1001
AUTOCAD_POSTSCRIPT_FIGURE
1002
{
1000
PSFILL
1000
Grayscale
1000
Grayscale
1070
    25
1002
}
  0
LINE
  5
2BDB4
330
2B8A7
100
AcDbEntity
  8
YODOROGO
100
AcDbLine
 10
11393.10162798446
 20
715.4060611609828
 30
0.0
 11
11436.60162798447
 21
760.4060611609829
 31
0.0
  0
LINE
  5
2BDB5
330
2B8A7
100
AcDbEntity
  8
YODOROGO
100
AcDbLine
 10
11393.10162798446
 20
682.4060611609828
 30
0.0
 11
11393.10162798446
 21
715.4060611609828
 31
0.0
  0
LINE
  5
2BDB6
330
2B8A7
100
AcDbEntity
  8
YODOROGO
100
AcDbLine
 10
11436.60162798447
 20
727.4060611609828
 30
0.0
 11
11393.10162798446
 21
682.4060611609828
 31
0.0
  0
LINE
  5
2BDB7
330
2B8A7
100
AcDbEntity
  8
YODOROGO
100
AcDbLine
 10
11424.60162798446
 20
629.9060611609831
 30
0.0
 11
11424.60162798446
 21
650.9060611609827
 31
0.0
  0
LINE
  5
2BDB8
330
2B8A7
100
AcDbEntity
  8
YODOROGO
100
AcDbLine
 10
11393.10162798446
 20
629.9060611609831
 30
0.0
 11
11424.60162798446
 21
629.9060611609831
 31
0.0
  0
LINE
  5
2BDB9
330
2B8A7
100
AcDbEntity
  8
YODOROGO
100
AcDbLine
 10
11448.60162798446
 20
650.9060611609827
 30
0.0
 11
11448.60162798446
 21
629.9060611609831
 31
0.0
  0
LINE
  5
2BDBA
330
2B8A7
100
AcDbEntity
  8
YODOROGO
100
AcDbLine
 10
11393.10162798446
 20
650.9060611609827
 30
0.0
 11
11393.10162798446
 21
673.4060611609827
 31
0.0
  0
LINE
  5
2BDBB
330
2B8A7
100
AcDbEntity
  8
YODOROGO
100
AcDbLine
 10
11424.60162798446
 20
650.9060611609827
 30
0.0
 11
11393.10162798446
 21
650.9060611609827
 31
0.0
  0
LINE
  5
2BDBC
330
2B8A7
100
AcDbEntity
  8
YODOROGO
100
AcDbLine
 10
11492.10162798447
 20
760.4060611609829
 30
0.0
 11
11615.10162798446
 21
760.4060611609829
 31
0.0
  0
LINE
  5
2BDBD
330
2B8A7
100
AcDbEntity
  8
YODOROGO
100
AcDbLine
 10
11597.10162798446
 20
736.4060611609825
 30
0.0
 11
11511.60162798447
 21
736.4060611609825
 31
0.0
  0
LINE
  5
2BDBE
330
2B8A7
100
AcDbEntity
  8
YODOROGO
100
AcDbLine
 10
11577.60162798447
 20
682.4060611609828
 30
0.0
 11
11587.35162798447
 21
682.4060611609828
 31
0.0
  0
LINE
  5
2BDBF
330
2B8A7
100
AcDbEntity
  8
YODOROGO
100
AcDbLine
 10
11587.35162798447
 20
727.4060611609828
 30
0.0
 11
11577.60162798447
 21
682.4060611609828
 31
0.0
  0
LINE
  5
2BDC0
330
2B8A7
100
AcDbEntity
  8
YODOROGO
100
AcDbLine
 10
11569.35162798446
 20
727.4060611609828
 30
0.0
 11
11587.35162798447
 21
727.4060611609828
 31
0.0
  0
LINE
  5
2BDC1
330
2B8A7
100
AcDbEntity
  8
YODOROGO
100
AcDbLine
 10
11559.60162798447
 20
682.4060611609828
 30
0.0
 11
11569.35162798446
 21
727.4060611609828
 31
0.0
  0
LINE
  5
2BDC2
330
2B8A7
100
AcDbEntity
  8
YODOROGO
100
AcDbLine
 10
11549.10162798447
 20
682.4060611609828
 30
0.0
 11
11559.60162798447
 21
682.4060611609828
 31
0.0
  0
LINE
  5
2BDC3
330
2B8A7
100
AcDbEntity
  8
YODOROGO
100
AcDbLine
 10
11539.35162798447
 20
727.4060611609828
 30
0.0
 11
11549.10162798447
 21
682.4060611609828
 31
0.0
  0
LINE
  5
2BDC4
330
2B8A7
100
AcDbEntity
  8
YODOROGO
100
AcDbLine
 10
11521.35162798447
 20
727.4060611609828
 30
0.0
 11
11539.35162798447
 21
727.4060611609828
 31
0.0
  0
LINE
  5
2BDC5
330
2B8A7
100
AcDbEntity
  8
YODOROGO
100
AcDbLine
 10
11531.10162798447
 20
682.4060611609828
 30
0.0
 11
11521.35162798447
 21
727.4060611609828
 31
0.0
  0
LINE
  5
2BDC6
330
2B8A7
100
AcDbEntity
  8
YODOROGO
100
AcDbLine
 10
11521.35162798447
 20
682.4060611609828
 30
0.0
 11
11531.10162798447
 21
682.4060611609828
 31
0.0
  0
LINE
  5
2BDC7
330
2B8A7
100
AcDbEntity
  8
YODOROGO
100
AcDbLine
 10
11521.35162798447
 20
658.4060611609827
 30
0.0
 11
11521.35162798447
 21
682.4060611609828
 31
0.0
  0
LINE
  5
2BDC8
330
2B8A7
100
AcDbEntity
  8
YODOROGO
100
AcDbLine
 10
11587.35162798447
 20
658.4060611609827
 30
0.0
 11
11521.35162798447
 21
658.4060611609827
 31
0.0
  0
LINE
  5
2BDC9
330
2B8A7
100
AcDbEntity
  8
YODOROGO
100
AcDbLine
 10
11587.35162798447
 20
682.4060611609828
 30
0.0
 11
11587.35162798447
 21
658.4060611609827
 31
0.0
  0
LINE
  5
2BDCA
330
2B8A7
100
AcDbEntity
  8
YODOROGO
100
AcDbLine
 10
11481.60162798447
 20
730.4060611609828
 30
0.0
 11
11481.60162798447
 21
697.406061160983
 31
0.0
  0
LINE
  5
2BDCB
330
2B8A7
100
AcDbEntity
  8
YODOROGO
100
AcDbLine
 10
11546.85162798447
 20
658.4060611609827
 30
0.0
 11
11561.85162798446
 21
658.4060611609827
 31
0.0
  0
LINE
  5
2BDCC
330
2B8A7
100
AcDbEntity
  8
YODOROGO
100
AcDbLine
 10
11521.35162798447
 20
634.4060611609833
 30
0.0
 11
11536.35162798447
 21
634.4060611609833
 31
0.0
  0
LINE
  5
2BDCD
330
2B8A7
100
AcDbEntity
  8
YODOROGO
100
AcDbLine
 10
11572.35162798446
 20
634.4060611609833
 30
0.0
 11
11587.35162798447
 21
634.4060611609833
 31
0.0
  0
LINE
  5
2BDCE
330
2B8A7
100
AcDbEntity
  8
YODOROGO
100
AcDbLine
 10
11481.60162798447
 20
673.4060611609827
 30
0.0
 11
11481.60162798447
 21
650.9060611609827
 31
0.0
  0
LINE
  5
2BDCF
330
2B8A7
100
AcDbEntity
  8
YODOROGO
100
AcDbLine
 10
11687.10162798447
 20
760.4060611609829
 30
0.0
 11
11687.10162798447
 21
736.4060611609825
 31
0.0
  0
LINE
  5
2BDD0
330
2B8A7
100
AcDbEntity
  8
YODOROGO
100
AcDbLine
 10
11825.10162798447
 20
598.4060611609827
 30
0.0
 11
11825.10162798446
 21
679.4060611609832
 31
0.0
  0
LINE
  5
2BDD1
330
2B8A7
100
AcDbEntity
  8
YODOROGO
100
AcDbLine
 10
11798.10162798446
 20
745.4060611609828
 30
0.0
 11
11798.10162798446
 21
613.4060611609827
 31
0.0
  0
LINE
  5
2BDD2
330
2B8A7
100
AcDbEntity
  8
YODOROGO
100
AcDbLine
 10
11870.10162798447
 20
535.4060611609829
 30
0.0
 11
11870.10162798446
 21
679.4060611609832
 31
0.0
  0
LINE
  5
2BDD3
330
2B8A7
100
AcDbEntity
  8
YODOROGO
100
AcDbLine
 10
11846.10162798447
 20
679.4060611609832
 30
0.0
 11
11846.10162798447
 21
535.4060611609829
 31
0.0
  0
LINE
  5
2BDD4
330
2B8A7
100
AcDbEntity
  8
YODOROGO
100
AcDbLine
 10
11714.10162798447
 20
598.4060611609827
 30
0.0
 11
11714.10162798447
 21
640.4060611609827
 31
0.0
  0
ARC
  5
2BDD5
330
2B8A7
100
AcDbEntity
  8
YODOROGO
100
AcDbCircle
 10
11757.71807441852
 20
602.921381733209
 30
0.0
 40
67.53466821599572
100
AcDbArc
 50
268.6284910216979
 51
356.1663845733032
  0
LINE
  5
2BDD6
330
2B8A7
100
AcDbEntity
  8
YODOROGO
100
AcDbLine
 10
11756.10162798446
 20
572.9060611609829
 30
0.0
 11
11756.10162798446
 21
535.4060611609829
 31
0.0
  0
ARC
  5
2BDD7
330
2B8A7
100
AcDbEntity
  8
YODOROGO
100
AcDbCircle
 10
11756.81927839671
 20
614.1896088816206
 30
0.0
 40
41.28978486885457
100
AcDbArc
 50
269.0041020930593
 51
358.9126445549248
  0
LINE
  5
2BDD8
330
2B8A7
100
AcDbEntity
  8
YODOROGO
100
AcDbLine
 10
11846.10162798447
 20
535.4060611609829
 30
0.0
 11
11870.10162798447
 21
535.4060611609829
 31
0.0
  0
LINE
  5
2BDD9
330
2B8A7
100
AcDbEntity
  8
YODOROGO
100
AcDbLine
 10
11825.10162798446
 20
679.4060611609832
 30
0.0
 11
11846.10162798447
 21
679.4060611609832
 31
0.0
  0
LINE
  5
2BDDA
330
2B8A7
100
AcDbEntity
  8
YODOROGO
100
AcDbLine
 10
11858.10162798446
 20
745.4060611609828
 30
0.0
 11
11798.10162798446
 21
745.4060611609828
 31
0.0
  0
LINE
  5
2BDDB
330
2B8A7
100
AcDbEntity
  8
YODOROGO
100
AcDbLine
 10
11825.10162798446
 20
718.4060611609829
 30
0.0
 11
11873.10162798447
 21
718.4060611609829
 31
0.0
  0
LINE
  5
2BDDC
330
2B8A7
100
AcDbEntity
  8
YODOROGO
100
AcDbLine
 10
11888.10162798447
 20
703.4060611609828
 30
0.0
 11
11825.10162798446
 21
703.4060611609828
 31
0.0
  0
LINE
  5
2BDDD
330
2B8A7
100
AcDbEntity
  8
YODOROGO
100
AcDbLine
 10
11714.10162798447
 20
667.4060611609831
 30
0.0
 11
11756.10162798446
 21
667.4060611609831
 31
0.0
  0
LINE
  5
2BDDE
330
2B8A7
100
AcDbEntity
  8
YODOROGO
100
AcDbLine
 10
11714.10162798447
 20
688.4060611609828
 30
0.0
 11
11714.10162798447
 21
667.4060611609831
 31
0.0
  0
LINE
  5
2BDDF
330
2B8A7
100
AcDbEntity
  8
YODOROGO
100
AcDbLine
 10
11756.10162798446
 20
688.4060611609828
 30
0.0
 11
11714.10162798447
 21
688.4060611609828
 31
0.0
  0
LINE
  5
2BDE0
330
2B8A7
100
AcDbEntity
  8
YODOROGO
100
AcDbLine
 10
11756.10162798446
 20
667.4060611609831
 30
0.0
 11
11756.10162798446
 21
688.4060611609828
 31
0.0
  0
LINE
  5
2BDE1
330
2B8A7
100
AcDbEntity
  8
YODOROGO
100
AcDbLine
 10
11825.10162798446
 20
703.4060611609828
 30
0.0
 11
11825.10162798446
 21
718.4060611609829
 31
0.0
  0
LINE
  5
2BDE2
330
2B8A7
100
AcDbEntity
  8
YODOROGO
100
AcDbLine
 10
11780.10162798446
 20
640.4060611609827
 30
0.0
 11
11780.10162798446
 21
715.4060611609828
 31
0.0
  0
LINE
  5
2BDE3
330
2B8A7
100
AcDbEntity
  8
YODOROGO
100
AcDbLine
 10
11714.10162798447
 20
640.4060611609827
 30
0.0
 11
11780.10162798446
 21
640.4060611609827
 31
0.0
  0
LINE
  5
2BDE4
330
2B8A7
100
AcDbEntity
  8
YODOROGO
100
AcDbLine
 10
11780.10162798446
 20
736.4060611609825
 30
0.0
 11
11780.10162798446
 21
760.4060611609829
 31
0.0
  0
ARC
  5
2BDE5
330
2B8A7
100
AcDbEntity
  8
YODOROGO
100
AcDbCircle
 10
11858.10162798446
 20
751.4060611609817
 30
0.0
 40
5.999999999997951
100
AcDbArc
 50
270.0
 51
0.0000000000081422
  0
LINE
  5
2BDE6
330
2B8A7
100
AcDbEntity
  8
YODOROGO
100
AcDbLine
 10
11864.10162798447
 20
760.4060611609829
 30
0.0
 11
11864.10162798447
 21
751.4060611609825
 31
0.0
  0
LINE
  5
2BDE7
330
2B8A7
100
AcDbEntity
  8
YODOROGO
100
AcDbLine
 10
11888.10162798447
 20
760.4060611609829
 30
0.0
 11
11864.10162798447
 21
760.4060611609829
 31
0.0
  0
LINE
  5
2BDE8
330
2B8A7
100
AcDbEntity
  8
YODOROGO
100
AcDbLine
 10
11888.10162798447
 20
733.4060611609828
 30
0.0
 11
11888.10162798447
 21
760.4060611609829
 31
0.0
  0
ARC
  5
2BDE9
330
2B8A7
100
AcDbEntity
  8
YODOROGO
100
AcDbCircle
 10
11873.10162798447
 20
733.4060611609828
 30
0.0
 40
15.0
100
AcDbArc
 50
270.0
 51
0.0
  0
LINE
  5
2BDEA
330
2B8A7
100
AcDbEntity
  8
YODOROGO
100
AcDbLine
 10
11888.10162798447
 20
679.4060611609832
 30
0.0
 11
11888.10162798447
 21
703.4060611609828
 31
0.0
  0
LINE
  5
2BDEB
330
2B8A7
100
AcDbEntity
  8
YODOROGO
100
AcDbLine
 10
11870.10162798446
 20
679.4060611609832
 30
0.0
 11
11888.10162798447
 21
679.4060611609832
 31
0.0
  0
LINE
  5
2BDEC
330
2B8A7
100
AcDbEntity
  8
SUNPOU
100
AcDbLine
 10
2436.851603305592
 20
2968.125919511107
 30
0.0
 11
2807.536653750256
 21
2968.125919511107
 31
0.0
  0
LINE
  5
2BDED
330
2B8A7
100
AcDbEntity
  8
SUNPOU
100
AcDbLine
 10
2174.174798550986
 20
3320.125919511108
 30
0.0
 11
2807.536653750256
 21
3320.125919511108
 31
0.0
  0
LINE
  5
2BDEE
330
2B8A7
100
AcDbEntity
  8
SUNPOU
100
AcDbLine
 10
2762.536653750256
 20
3305.125919511108
 30
0.0
 11
2762.536653750256
 21
2983.125919511108
 31
0.0
  0
LINE
  5
2BDEF
330
2B8A7
100
AcDbEntity
  8
SUNPOU
100
AcDbLine
 10
2762.536653750256
 20
2968.125919511107
 30
0.0
 11
2762.536653750256
 21
2708.840205225394
 31
0.0
  0
LINE
  5
2BDF0
330
2B8A7
100
AcDbEntity
  8
SUNPOU
100
AcDbLine
 10
2108.999117699013
 20
3200.064015796427
 30
0.0
 11
2062.409121307271
 21
2736.499404750686
 31
0.0
  0
LINE
  5
2BDF1
330
2B8A7
100
AcDbEntity
  8
SUNPOU
100
AcDbLine
 10
2606.49283625217
 20
3150.064015796329
 30
0.0
 11
2559.902839860433
 21
2686.499404750644
 31
0.0
  0
LINE
  5
2BDF2
330
2B8A7
100
AcDbEntity
  8
SUNPOU
100
AcDbLine
 10
2081.833932863875
 20
2779.773839420482
 30
0.0
 11
2549.478028303838
 21
2732.773839420442
 31
0.0
  0
LINE
  5
2BDF3
330
2B8A7
100
AcDbEntity
  8
SUNPOU
100
AcDbLine
 10
3408.223715378486
 20
3267.179941730438
 30
0.0
 11
3748.583782287183
 21
3232.993063927227
 31
0.0
  0
LINE
  5
2BDF4
330
2B8A7
100
AcDbEntity
  8
SUNPOU
100
AcDbLine
 10
3404.136434994397
 20
3136.433836094127
 30
0.0
 11
3735.541561068099
 21
3103.146421823288
 31
0.0
  0
LINE
  5
2BDF5
330
2B8A7
100
AcDbEntity
  8
SUNPOU
100
AcDbLine
 10
3702.309972226153
 20
3222.56548019772
 30
0.0
 11
3692.265962781572
 21
3122.568640876302
 31
0.0
  0
LINE
  5
2BDF6
330
2B8A7
100
AcDbEntity
  8
SUNPOU
100
AcDbLine
 10
3690.766856894321
 20
3107.643739485041
 30
0.0
 11
3657.14405342312
 21
2772.8995225668
 31
0.0
  0
LINE
  5
2BDF7
330
2B8A7
100
AcDbEntity
  8
SUNPOU
100
AcDbLine
 10
3598.845976975709
 20
1275.125919511109
 30
0.0
 11
4023.845976975708
 21
1275.125919511109
 31
0.0
  0
LINE
  5
2BDF8
330
2B8A7
100
AcDbEntity
  8
SUNPOU
100
AcDbLine
 10
3408.373912595968
 20
3270.17815350494
 30
0.0
 11
4023.845976975709
 21
3270.17815350494
 31
0.0
  0
LINE
  5
2BDF9
330
2B8A7
100
AcDbEntity
  8
SUNPOU
100
AcDbLine
 10
3978.845976975708
 20
1290.125919511109
 30
0.0
 11
3978.845976975708
 21
3255.178153504941
 31
0.0
  0
LINE
  5
2BDFA
330
2B8A7
100
AcDbEntity
  8
SUNPOU
100
AcDbLine
 10
998.8459769757108
 20
1275.125919511107
 30
0.0
 11
1413.689753794259
 21
1275.125919511107
 31
0.0
  0
LINE
  5
2BDFB
330
2B8A7
100
AcDbEntity
  8
SUNPOU
100
AcDbLine
 10
1706.540357678727
 20
3267.146145191052
 30
0.0
 11
1323.68975379426
 21
3267.146145191052
 31
0.0
  0
LINE
  5
2BDFC
330
2B8A7
100
AcDbEntity
  8
SUNPOU
100
AcDbLine
 10
1368.689753794259
 20
1290.125919511106
 30
0.0
 11
1368.689753794259
 21
3252.146145191051
 31
0.0
  0
LINE
  5
2BDFD
330
2B8A7
100
AcDbEntity
  8
SUNPOU
100
AcDbLine
 10
1367.044385334412
 20
3471.199431984322
 30
0.0
 11
1036.1037696199
 21
3471.199431984322
 31
0.0
  0
LINE
  5
2BDFE
330
2B8A7
100
AcDbEntity
  8
SUNPOU
100
AcDbLine
 10
998.8459769757108
 20
1275.125919511107
 30
0.0
 11
1126.103769619898
 21
1275.125919511107
 31
0.0
  0
LINE
  5
2BDFF
330
2B8A7
100
AcDbEntity
  8
SUNPOU
100
AcDbLine
 10
1081.103769619898
 20
3456.199431984322
 30
0.0
 11
1081.103769619898
 21
1290.125919511106
 31
0.0
  0
LINE
  5
2BE00
330
2B8A7
100
AcDbEntity
  8
SUNPOU
100
AcDbLine
 10
1363.845976975711
 20
3373.351597729981
 30
0.0
 11
1363.845976975711
 21
4244.335714136729
 31
0.0
  0
LINE
  5
2BE01
330
2B8A7
100
AcDbEntity
  8
SUNPOU
100
AcDbLine
 10
3388.373912595969
 20
3300.178153504941
 30
0.0
 11
3388.373912595969
 21
4244.335714136729
 31
0.0
  0
LINE
  5
2BE02
330
2B8A7
100
AcDbEntity
  8
SUNPOU
100
AcDbLine
 10
1378.845976975711
 20
4199.335714136729
 30
0.0
 11
3373.373912595968
 21
4199.335714136729
 31
0.0
  0
LINE
  5
2BE03
330
2B8A7
100
AcDbEntity
  8
SUNPOU
100
AcDbLine
 10
2368.84597697571
 20
3490.723022657499
 30
0.0
 11
2368.84597697571
 21
4034.335714136729
 31
0.0
  0
LINE
  5
2BE04
330
2B8A7
100
AcDbEntity
  8
SUNPOU
100
AcDbLine
 10
3388.373912595969
 20
3300.178153504941
 30
0.0
 11
3388.373912595969
 21
4034.335714136729
 31
0.0
  0
LINE
  5
2BE05
330
2B8A7
100
AcDbEntity
  8
SUNPOU
100
AcDbLine
 10
2383.845976975711
 20
3989.335714136729
 30
0.0
 11
3373.373912595968
 21
3989.335714136729
 31
0.0
  0
LINE
  5
2BE06
330
2B8A7
100
AcDbEntity
  8
SUNPOU
100
AcDbLine
 10
2368.84597697571
 20
3490.723022657499
 30
0.0
 11
2368.84597697571
 21
4034.335714136729
 31
0.0
  0
LINE
  5
2BE07
330
2B8A7
100
AcDbEntity
  8
SUNPOU
100
AcDbLine
 10
1363.845976975711
 20
3373.351597729981
 30
0.0
 11
1363.845976975711
 21
4034.335714136729
 31
0.0
  0
LINE
  5
2BE08
330
2B8A7
100
AcDbEntity
  8
SUNPOU
100
AcDbLine
 10
2353.845976975711
 20
3989.335714136729
 30
0.0
 11
1378.845976975711
 21
3989.335714136729
 31
0.0
  0
LINE
  5
2BE09
330
2B8A7
100
AcDbEntity
  8
SUNPOU
100
AcDbLine
 10
5766.506930914776
 20
3476.481230721987
 30
0.0
 11
5807.33660046231
 21
3882.976060092045
 31
0.0
  0
LINE
  5
2BE0A
330
2B8A7
100
AcDbEntity
  8
SUNPOU
100
AcDbLine
 10
7091.838174458823
 20
3343.360627936429
 30
0.0
 11
7132.667844006363
 21
3749.855457306551
 31
0.0
  0
LINE
  5
2BE0B
330
2B8A7
100
AcDbEntity
  8
SUNPOU
100
AcDbLine
 10
5817.764184191901
 20
3836.702250031036
 30
0.0
 11
7113.24562495343
 21
3706.579859019992
 31
0.0
  0
LINE
  5
2BE0C
330
2B8A7
100
AcDbEntity
  8
SUNPOU
100
AcDbLine
 10
7448.597234494531
 20
3204.509028433275
 30
0.0
 11
7851.670352243381
 21
3204.509028433275
 31
0.0
  0
LINE
  5
2BE0D
330
2B8A7
100
AcDbEntity
  8
SUNPOU
100
AcDbLine
 10
7456.19828786364
 20
3270.17815350494
 30
0.0
 11
7851.670352243381
 21
3270.17815350494
 31
0.0
  0
LINE
  5
2BE0E
330
2B8A7
100
AcDbEntity
  8
SUNPOU
100
AcDbLine
 10
7806.670352243383
 20
3189.509028433274
 30
0.0
 11
7806.670352243383
 21
3174.509028433274
 31
0.0
  0
LINE
  5
2BE0F
330
2B8A7
100
AcDbEntity
  8
SUNPOU
100
AcDbLine
 10
7806.670352243383
 20
3285.178153504941
 30
0.0
 11
7806.670352243383
 21
3484.463867790655
 31
0.0
  0
LINE
  5
2BE10
330
2B8A7
100
AcDbEntity
  8
SUNPOU
100
AcDbLine
 10
7806.670352243383
 20
3204.509028433275
 30
0.0
 11
7806.670352243383
 21
3270.17815350494
 31
0.0
  0
LINE
  5
2BE11
330
2B8A7
100
AcDbEntity
  8
SUNPOU
100
AcDbLine
 10
7646.67035224338
 20
1275.125919511109
 30
0.0
 11
7851.67035224338
 21
1275.125919511109
 31
0.0
  0
LINE
  5
2BE12
330
2B8A7
100
AcDbEntity
  8
SUNPOU
100
AcDbLine
 10
7448.597234494531
 20
3204.509028433275
 30
0.0
 11
7851.670352243381
 21
3204.509028433275
 31
0.0
  0
LINE
  5
2BE13
330
2B8A7
100
AcDbEntity
  8
SUNPOU
100
AcDbLine
 10
7806.670352243379
 20
1290.125919511109
 30
0.0
 11
7806.670352243383
 21
3189.509028433274
 31
0.0
  0
LINE
  5
2BE14
330
2B8A7
100
AcDbEntity
  8
SUNPOU
100
AcDbLine
 10
5046.670352243381
 20
1275.125919511107
 30
0.0
 11
5383.928144887568
 21
1275.125919511107
 31
0.0
  0
LINE
  5
2BE15
330
2B8A7
100
AcDbEntity
  8
SUNPOU
100
AcDbLine
 10
5754.364732946399
 20
3267.146145191052
 30
0.0
 11
5293.928144887569
 21
3267.146145191052
 31
0.0
  0
LINE
  5
2BE16
330
2B8A7
100
AcDbEntity
  8
SUNPOU
100
AcDbLine
 10
5338.928144887568
 20
1290.125919511106
 30
0.0
 11
5338.928144887569
 21
3252.146145191051
 31
0.0
  0
LINE
  5
2BE17
330
2B8A7
100
AcDbEntity
  8
SUNPOU
100
AcDbLine
 10
5446.601243557012
 20
3336.855472218671
 30
0.0
 11
5083.92814488757
 21
3336.855472218671
 31
0.0
  0
LINE
  5
2BE18
330
2B8A7
100
AcDbEntity
  8
SUNPOU
100
AcDbLine
 10
5046.670352243381
 20
1275.125919511107
 30
0.0
 11
5173.928144887569
 21
1275.125919511107
 31
0.0
  0
LINE
  5
2BE19
330
2B8A7
100
AcDbEntity
  8
SUNPOU
100
AcDbLine
 10
5128.92814488757
 20
3321.855472218671
 30
0.0
 11
5128.928144887569
 21
1290.125919511106
 31
0.0
  0
LINE
  5
2BE1A
330
2B8A7
100
AcDbEntity
  8
SUNPOU
100
AcDbLine
 10
5446.601243557012
 20
3336.855472218671
 30
0.0
 11
5083.928144887568
 21
3336.855472218671
 31
0.0
  0
LINE
  5
2BE1B
330
2B8A7
100
AcDbEntity
  8
SUNPOU
100
AcDbLine
 10
5414.868760602082
 20
3471.199431984322
 30
0.0
 11
5083.928144887568
 21
3471.199431984322
 31
0.0
  0
LINE
  5
2BE1C
330
2B8A7
100
AcDbEntity
  8
SUNPOU
100
AcDbLine
 10
5128.928144887569
 20
3351.855472218672
 30
0.0
 11
5128.928144887569
 21
3456.199431984322
 31
0.0
  0
LINE
  5
2BE1D
330
2B8A7
100
AcDbEntity
  8
SUNPOU
100
AcDbLine
 10
5128.928144887569
 20
3471.199431984322
 30
0.0
 11
5128.928144887569
 21
3724.770860555751
 31
0.0
  0
LINE
  5
2BE1E
330
2B8A7
100
AcDbEntity
  8
SUNPOU
100
AcDbLine
 10
5411.670352243381
 20
3373.351597729981
 30
0.0
 11
5411.670352243381
 21
4244.335714136729
 31
0.0
  0
LINE
  5
2BE1F
330
2B8A7
100
AcDbEntity
  8
SUNPOU
100
AcDbLine
 10
7426.19828786364
 20
3300.178153504941
 30
0.0
 11
7426.19828786364
 21
4244.335714136729
 31
0.0
  0
LINE
  5
2BE20
330
2B8A7
100
AcDbEntity
  8
SUNPOU
100
AcDbLine
 10
5426.67035224338
 20
4199.335714136729
 30
0.0
 11
7411.19828786364
 21
4199.335714136729
 31
0.0
  0
LINE
  5
2BE21
330
2B8A7
100
AcDbEntity
  8
SUNPOU
100
AcDbLine
 10
6416.670352243383
 20
3490.723022657499
 30
0.0
 11
6416.670352243383
 21
4034.335714136729
 31
0.0
  0
LINE
  5
2BE22
330
2B8A7
100
AcDbEntity
  8
SUNPOU
100
AcDbLine
 10
7426.19828786364
 20
3300.178153504941
 30
0.0
 11
7426.19828786364
 21
4034.335714136729
 31
0.0
  0
LINE
  5
2BE23
330
2B8A7
100
AcDbEntity
  8
SUNPOU
100
AcDbLine
 10
6431.670352243381
 20
3989.335714136729
 30
0.0
 11
7411.19828786364
 21
3989.335714136729
 31
0.0
  0
LINE
  5
2BE24
330
2B8A7
100
AcDbEntity
  8
SUNPOU
100
AcDbLine
 10
6416.670352243383
 20
3490.723022657499
 30
0.0
 11
6416.670352243383
 21
4034.335714136729
 31
0.0
  0
LINE
  5
2BE25
330
2B8A7
100
AcDbEntity
  8
SUNPOU
100
AcDbLine
 10
5411.670352243381
 20
3373.351597729981
 30
0.0
 11
5411.670352243381
 21
4034.335714136729
 31
0.0
  0
LINE
  5
2BE26
330
2B8A7
100
AcDbEntity
  8
SUNPOU
100
AcDbLine
 10
6401.670352243383
 20
3989.335714136729
 30
0.0
 11
5426.67035224338
 21
3989.335714136729
 31
0.0
  0
LINE
  5
2BE27
330
2B8A7
100
AcDbEntity
  8
SUNPOU
100
AcDbLine
 10
7531.000000000003
 20
7356.509901909125
 30
0.0
 11
7531.000000000003
 21
7818.736304084139
 31
0.0
  0
LINE
  5
2BE28
330
2B8A7
100
AcDbEntity
  8
SUNPOU
100
AcDbLine
 10
7927.000000000003
 20
7329.925906786477
 30
0.0
 11
7927.000000000003
 21
7818.736304084139
 31
0.0
  0
LINE
  5
2BE29
330
2B8A7
100
AcDbEntity
  8
SUNPOU
100
AcDbLine
 10
7546.000000000002
 20
7773.736304084138
 30
0.0
 11
7912.000000000003
 21
7773.736304084138
 31
0.0
  0
LINE
  5
2BE2A
330
2B8A7
100
AcDbEntity
  8
SUNPOU
100
AcDbLine
 10
5081.000000000002
 20
7356.509901909125
 30
0.0
 11
5081.000000000002
 21
7818.736304084139
 31
0.0
  0
LINE
  5
2BE2B
330
2B8A7
100
AcDbEntity
  8
SUNPOU
100
AcDbLine
 10
4685.000000000004
 20
7329.925906786477
 30
0.0
 11
4685.000000000004
 21
7818.736304084139
 31
0.0
  0
LINE
  5
2BE2C
330
2B8A7
100
AcDbEntity
  8
SUNPOU
100
AcDbLine
 10
5066.000000000005
 20
7773.736304084138
 30
0.0
 11
4700.000000000001
 21
7773.736304084138
 31
0.0
  0
LINE
  5
2BE2D
330
2B8A7
100
AcDbEntity
  8
SUNPOU
100
AcDbLine
 10
5081.000000000002
 20
7356.509901909125
 30
0.0
 11
5081.000000000002
 21
7818.736304084139
 31
0.0
  0
LINE
  5
2BE2E
330
2B8A7
100
AcDbEntity
  8
SUNPOU
100
AcDbLine
 10
7531.000000000003
 20
7356.509901909125
 30
0.0
 11
7531.000000000003
 21
7818.736304084139
 31
0.0
  0
LINE
  5
2BE2F
330
2B8A7
100
AcDbEntity
  8
SUNPOU
100
AcDbLine
 10
5096.000000000002
 20
7773.736304084138
 30
0.0
 11
7516.000000000002
 21
7773.736304084138
 31
0.0
  0
TEXT
  5
2BE30
330
2B8A7
100
AcDbEntity
  8
SUNPOU
100
AcDbText
 10
6191.71428571429
 20
7818.736304084139
 30
0.0
 40
90.0
  1
2450
 41
0.6666666666666666
  7
00
100
AcDbText
  0
LINE
  5
2BE31
330
2B8A7
100
AcDbEntity
  8
SUNPOU
100
AcDbLine
 10
7519.750000000003
 20
7773.736304084138
 30
0.0
 11
7508.500000000002
 21
7773.736304084138
 31
0.0
  0
LINE
  5
2BE32
330
2B8A7
100
AcDbEntity
  8
SUNPOU
100
AcDbLine
 10
5092.250000000002
 20
7773.736304084138
 30
0.0
 11
5103.500000000002
 21
7773.736304084138
 31
0.0
  0
TEXT
  5
2BE33
330
2B8A7
100
AcDbEntity
  8
SUNPOU
100
AcDbText
 10
4797.285714285719
 20
7818.736304084139
 30
0.0
 40
90.0
  1
396
 41
0.6666666666666666
  7
00
100
AcDbText
  0
LINE
  5
2BE34
330
2B8A7
100
AcDbEntity
  8
SUNPOU
100
AcDbLine
 10
4696.250000000001
 20
7773.736304084138
 30
0.0
 11
4707.500000000004
 21
7773.736304084138
 31
0.0
  0
LINE
  5
2BE35
330
2B8A7
100
AcDbEntity
  8
SUNPOU
100
AcDbLine
 10
5069.750000000005
 20
7773.736304084138
 30
0.0
 11
5058.500000000002
 21
7773.736304084138
 31
0.0
  0
TEXT
  5
2BE36
330
2B8A7
100
AcDbEntity
  8
SUNPOU
100
AcDbText
 10
7643.285714285717
 20
7818.736304084139
 30
0.0
 40
90.0
  1
396
 41
0.6666666666666666
  7
00
100
AcDbText
  0
LINE
  5
2BE37
330
2B8A7
100
AcDbEntity
  8
SUNPOU
100
AcDbLine
 10
7915.750000000002
 20
7773.736304084138
 30
0.0
 11
7904.500000000003
 21
7773.736304084138
 31
0.0
  0
LINE
  5
2BE38
330
2B8A7
100
AcDbEntity
  8
SUNPOU
100
AcDbLine
 10
7542.250000000002
 20
7773.736304084138
 30
0.0
 11
7553.500000000003
 21
7773.736304084138
 31
0.0
  0
TEXT
  5
2BE39
330
2B8A7
100
AcDbEntity
  8
SUNPOU
100
AcDbText
 10
5795.598923671953
 20
4034.335714136729
 30
0.0
 40
90.0
  1
1005
 41
0.6666666666666666
  7
00
100
AcDbText
  0
LINE
  5
2BE3A
330
2B8A7
100
AcDbEntity
  8
SUNPOU
100
AcDbLine
 10
5422.92035224338
 20
3989.335714136729
 30
0.0
 11
5434.170352243381
 21
3989.335714136729
 31
0.0
  0
LINE
  5
2BE3B
330
2B8A7
100
AcDbEntity
  8
SUNPOU
100
AcDbLine
 10
6405.420352243382
 20
3989.335714136729
 30
0.0
 11
6394.170352243381
 21
3989.335714136729
 31
0.0
  0
TEXT
  5
2BE3C
330
2B8A7
100
AcDbEntity
  8
SUNPOU
100
AcDbText
 10
6777.43432005351
 20
4034.335714136729
 30
0.0
 40
90.0
  1
※1010
 41
0.6666666666666666
  7
00
100
AcDbText
  0
LINE
  5
2BE3D
330
2B8A7
100
AcDbEntity
  8
SUNPOU
100
AcDbLine
 10
7414.948287863643
 20
3989.335714136729
 30
0.0
 11
7403.69828786364
 21
3989.335714136729
 31
0.0
  0
LINE
  5
2BE3E
330
2B8A7
100
AcDbEntity
  8
SUNPOU
100
AcDbLine
 10
6427.92035224338
 20
3989.335714136729
 30
0.0
 11
6439.170352243381
 21
3989.335714136729
 31
0.0
  0
TEXT
  5
2BE3F
330
2B8A7
100
AcDbEntity
  8
SUNPOU
100
AcDbText
 10
6274.934320053509
 20
4244.335714136729
 30
0.0
 40
90.0
  1
※2015
 41
0.6666666666666666
  7
00
100
AcDbText
  0
LINE
  5
2BE40
330
2B8A7
100
AcDbEntity
  8
SUNPOU
100
AcDbLine
 10
7414.948287863643
 20
4199.335714136729
 30
0.0
 11
7403.69828786364
 21
4199.335714136729
 31
0.0
  0
LINE
  5
2BE41
330
2B8A7
100
AcDbEntity
  8
SUNPOU
100
AcDbLine
 10
5422.92035224338
 20
4199.335714136729
 30
0.0
 11
5434.170352243381
 21
4199.335714136729
 31
0.0
  0
TEXT
  5
2BE42
330
2B8A7
100
AcDbEntity
  8
SUNPOU
100
AcDbText
 10
5083.928144887568
 20
3514.056574841466
 30
0.0
 40
90.0
  1
134
 50
90.0
 41
0.6666666666666666
  7
00
100
AcDbText
  0
LINE
  5
2BE43
330
2B8A7
100
AcDbEntity
  8
SUNPOU
100
AcDbLine
 10
5128.928144887569
 20
3459.949431984322
 30
0.0
 11
5128.928144887569
 21
3448.699431984322
 31
0.0
  0
LINE
  5
2BE44
330
2B8A7
100
AcDbEntity
  8
SUNPOU
100
AcDbLine
 10
5128.928144887569
 20
3348.105472218672
 30
0.0
 11
5128.928144887569
 21
3359.355472218672
 31
0.0
  0
TEXT
  5
2BE45
330
2B8A7
100
AcDbEntity
  8
SUNPOU
100
AcDbText
 10
5083.928144887568
 20
2191.704981579176
 30
0.0
 40
90.0
  1
2062
 50
90.0
 41
0.6666666666666666
  7
00
100
AcDbText
  0
LINE
  5
2BE46
330
2B8A7
100
AcDbEntity
  8
SUNPOU
100
AcDbLine
 10
5128.928144887569
 20
1286.375919511107
 30
0.0
 11
5128.928144887569
 21
1297.625919511107
 31
0.0
  0
LINE
  5
2BE47
330
2B8A7
100
AcDbEntity
  8
SUNPOU
100
AcDbLine
 10
5128.92814488757
 20
3325.605472218672
 30
0.0
 11
5128.92814488757
 21
3314.355472218672
 31
0.0
  0
TEXT
  5
2BE48
330
2B8A7
100
AcDbEntity
  8
SUNPOU
100
AcDbText
 10
5293.928144887568
 20
2152.564603779651
 30
0.0
 40
90.0
  1
1992
 50
90.0
 41
0.6666666666666666
  7
00
100
AcDbText
  0
LINE
  5
2BE49
330
2B8A7
100
AcDbEntity
  8
SUNPOU
100
AcDbLine
 10
5338.928144887569
 20
3255.896145191051
 30
0.0
 11
5338.928144887569
 21
3244.646145191051
 31
0.0
  0
LINE
  5
2BE4A
330
2B8A7
100
AcDbEntity
  8
SUNPOU
100
AcDbLine
 10
5338.928144887568
 20
1286.375919511107
 30
0.0
 11
5338.928144887568
 21
1297.625919511107
 31
0.0
  0
TEXT
  5
2BE4B
330
2B8A7
100
AcDbEntity
  8
SUNPOU
100
AcDbText
 10
7761.670352243379
 20
2122.674616829335
 30
0.0
 40
90.0
  1
1929
 50
90.0
 41
0.6666666666666666
  7
00
100
AcDbText
  0
LINE
  5
2BE4C
330
2B8A7
100
AcDbEntity
  8
SUNPOU
100
AcDbLine
 10
7806.670352243383
 20
3193.259028433275
 30
0.0
 11
7806.670352243383
 21
3182.009028433274
 31
0.0
  0
LINE
  5
2BE4D
330
2B8A7
100
AcDbEntity
  8
SUNPOU
100
AcDbLine
 10
7806.670352243379
 20
1286.375919511109
 30
0.0
 11
7806.670352243379
 21
1297.625919511109
 31
0.0
  0
TEXT
  5
2BE4E
330
2B8A7
100
AcDbEntity
  8
SUNPOU
100
AcDbText
 10
7761.670352243379
 20
3333.74958207637
 30
0.0
 40
90.0
  1
66
 50
90.0
 41
0.6666666666666666
  7
00
100
AcDbText
  0
LINE
  5
2BE4F
330
2B8A7
100
AcDbEntity
  8
SUNPOU
100
AcDbLine
 10
7806.670352243383
 20
3281.428153504941
 30
0.0
 11
7806.670352243383
 21
3292.67815350494
 31
0.0
  0
LINE
  5
2BE50
330
2B8A7
100
AcDbEntity
  8
SUNPOU
100
AcDbLine
 10
7806.670352243383
 20
3193.259028433275
 30
0.0
 11
7806.670352243383
 21
3182.009028433274
 31
0.0
  0
TEXT
  5
2BE51
330
2B8A7
100
AcDbEntity
  8
SUNPOU
100
AcDbText
 10
6493.376003448036
 20
3814.0680197022
 30
0.0
 40
90.0
  1
1332
 50
354.2642619770786
 41
0.6666666666666666
  7
00
100
AcDbText
  0
LINE
  5
2BE52
330
2B8A7
100
AcDbEntity
  8
SUNPOU
100
AcDbLine
 10
7116.976850301246
 20
3706.205082548185
 30
0.0
 11
7105.783174257799
 21
3707.329411963604
 31
0.0
  0
LINE
  5
2BE53
330
2B8A7
100
AcDbEntity
  8
SUNPOU
100
AcDbLine
 10
5814.032958844085
 20
3837.077026502843
 30
0.0
 11
5825.226634887531
 21
3835.952697087423
 31
0.0
  0
TEXT
  5
2BE54
330
2B8A7
100
AcDbEntity
  8
SUNPOU
100
AcDbText
 10
1747.774548404282
 20
4034.335714136729
 30
0.0
 40
90.0
  1
1005
 41
0.6666666666666666
  7
00
100
AcDbText
  0
LINE
  5
2BE55
330
2B8A7
100
AcDbEntity
  8
SUNPOU
100
AcDbLine
 10
1375.09597697571
 20
3989.335714136729
 30
0.0
 11
1386.345976975711
 21
3989.335714136729
 31
0.0
  0
LINE
  5
2BE56
330
2B8A7
100
AcDbEntity
  8
SUNPOU
100
AcDbLine
 10
2357.59597697571
 20
3989.335714136729
 30
0.0
 11
2346.345976975711
 21
3989.335714136729
 31
0.0
  0
TEXT
  5
2BE57
330
2B8A7
100
AcDbEntity
  8
SUNPOU
100
AcDbText
 10
2760.038516214411
 20
4034.335714136729
 30
0.0
 40
90.0
  1
1020
 41
0.6666666666666666
  7
00
100
AcDbText
  0
LINE
  5
2BE58
330
2B8A7
100
AcDbEntity
  8
SUNPOU
100
AcDbLine
 10
3377.123912595968
 20
3989.335714136729
 30
0.0
 11
3365.873912595969
 21
3989.335714136729
 31
0.0
  0
LINE
  5
2BE59
330
2B8A7
100
AcDbEntity
  8
SUNPOU
100
AcDbLine
 10
2380.095976975711
 20
3989.335714136729
 30
0.0
 11
2391.345976975711
 21
3989.335714136729
 31
0.0
  0
TEXT
  5
2BE5A
330
2B8A7
100
AcDbEntity
  8
SUNPOU
100
AcDbText
 10
2261.824230500125
 20
4244.335714136729
 30
0.0
 40
90.0
  1
2025
 41
0.6666666666666666
  7
00
100
AcDbText
  0
LINE
  5
2BE5B
330
2B8A7
100
AcDbEntity
  8
SUNPOU
100
AcDbLine
 10
3377.123912595968
 20
4199.335714136729
 30
0.0
 11
3365.873912595969
 21
4199.335714136729
 31
0.0
  0
LINE
  5
2BE5C
330
2B8A7
100
AcDbEntity
  8
SUNPOU
100
AcDbLine
 10
1375.09597697571
 20
4199.335714136729
 30
0.0
 11
1386.345976975711
 21
4199.335714136729
 31
0.0
  0
TEXT
  5
2BE5D
330
2B8A7
100
AcDbEntity
  8
SUNPOU
100
AcDbText
 10
1036.103769619898
 20
2258.876961462001
 30
0.0
 40
90.0
  1
2196
 50
90.0
 41
0.6666666666666666
  7
00
100
AcDbText
  0
LINE
  5
2BE5E
330
2B8A7
100
AcDbEntity
  8
SUNPOU
100
AcDbLine
 10
1081.103769619898
 20
1286.375919511107
 30
0.0
 11
1081.103769619898
 21
1297.625919511107
 31
0.0
  0
LINE
  5
2BE5F
330
2B8A7
100
AcDbEntity
  8
SUNPOU
100
AcDbLine
 10
1081.103769619898
 20
3459.949431984322
 30
0.0
 11
1081.103769619898
 21
3448.699431984322
 31
0.0
  0
TEXT
  5
2BE60
330
2B8A7
100
AcDbEntity
  8
SUNPOU
100
AcDbText
 10
1323.689753794259
 20
2152.564603779651
 30
0.0
 40
90.0
  1
1992
 50
90.0
 41
0.6666666666666666
  7
00
100
AcDbText
  0
LINE
  5
2BE61
330
2B8A7
100
AcDbEntity
  8
SUNPOU
100
AcDbLine
 10
1368.689753794259
 20
3255.896145191051
 30
0.0
 11
1368.689753794259
 21
3244.646145191051
 31
0.0
  0
LINE
  5
2BE62
330
2B8A7
100
AcDbEntity
  8
SUNPOU
100
AcDbLine
 10
1368.689753794259
 20
1286.375919511107
 30
0.0
 11
1368.689753794259
 21
1297.625919511107
 31
0.0
  0
TEXT
  5
2BE63
330
2B8A7
100
AcDbEntity
  8
SUNPOU
100
AcDbText
 10
3933.845976975709
 20
2154.080607936597
 30
0.0
 40
90.0
  1
1995
 50
90.0
 41
0.6666666666666666
  7
00
100
AcDbText
  0
LINE
  5
2BE64
330
2B8A7
100
AcDbEntity
  8
SUNPOU
100
AcDbLine
 10
3978.845976975708
 20
3258.928153504941
 30
0.0
 11
3978.845976975708
 21
3247.678153504941
 31
0.0
  0
LINE
  5
2BE65
330
2B8A7
100
AcDbEntity
  8
SUNPOU
100
AcDbLine
 10
3978.845976975708
 20
1286.375919511109
 30
0.0
 11
3978.845976975708
 21
1297.625919511109
 31
0.0
  0
TEXT
  5
2BE66
330
2B8A7
100
AcDbEntity
  8
SUNPOU
100
AcDbText
 10
3615.153403039953
 20
2805.114514240891
 30
0.0
 40
90.0
  1
130.5
 50
84.26426197697479
 41
0.6666666666666666
  7
00
100
AcDbText
  0
LINE
  5
2BE67
330
2B8A7
100
AcDbEntity
  8
SUNPOU
100
AcDbLine
 10
3691.89118630976
 20
3118.837415528485
 30
0.0
 11
3693.015515725198
 21
3130.03109157193
 31
0.0
  0
LINE
  5
2BE68
330
2B8A7
100
AcDbEntity
  8
SUNPOU
100
AcDbLine
 10
3702.684748697966
 20
3226.296705545534
 30
0.0
 11
3701.560419282527
 21
3215.103029502091
 31
0.0
  0
TEXT
  5
2BE69
330
2B8A7
100
AcDbEntity
  8
SUNPOU
100
AcDbText
 10
2135.944929733117
 20
2819.562181299644
 30
0.0
 40
90.0
  1
500
 50
354.2608295227265
 41
0.6666666666666666
  7
00
100
AcDbText
  0
LINE
  5
2BE6A
330
2B8A7
100
AcDbEntity
  8
SUNPOU
100
AcDbLine
 10
2553.209231192988
 20
2732.398839420442
 30
0.0
 11
2542.01562252554
 21
2733.523839420444
 31
0.0
  0
LINE
  5
2BE6B
330
2B8A7
100
AcDbEntity
  8
SUNPOU
100
AcDbLine
 10
2078.102729974726
 20
2780.148839420482
 30
0.0
 11
2089.296338642175
 21
2779.02383942048
 31
0.0
  0
TEXT
  5
2BE6C
330
2B8A7
100
AcDbEntity
  8
SUNPOU
100
AcDbText
 10
2717.536653750255
 20
2745.268776653966
 30
0.0
 40
90.0
  1
352
 50
90.0
 41
0.6666666666666666
  7
00
100
AcDbText
  0
LINE
  5
2BE6D
330
2B8A7
100
AcDbEntity
  8
SUNPOU
100
AcDbLine
 10
2762.536653750256
 20
2979.375919511108
 30
0.0
 11
2762.536653750256
 21
2990.625919511108
 31
0.0
  0
LINE
  5
2BE6E
330
2B8A7
100
AcDbEntity
  8
SUNPOU
100
AcDbLine
 10
2762.536653750256
 20
3308.875919511108
 30
0.0
 11
2762.536653750256
 21
3297.625919511107
 31
0.0
  0
ARC
  5
2BE6F
330
2B8A7
100
AcDbEntity
  8
SUNPOU
100
AcDbCircle
 10
2762.536653750256
 20
3320.125919511108
 30
0.0
 40
5.625
100
AcDbArc
 50
270.0
 51
90.0
  0
ARC
  5
2BE70
330
2B8A7
100
AcDbEntity
  8
SUNPOU
100
AcDbCircle
 10
2762.536653750256
 20
3320.125919511108
 30
0.0
 40
5.625
100
AcDbArc
 50
90.0
 51
270.0
  0
ARC
  5
2BE71
330
2B8A7
100
AcDbEntity
  8
SUNPOU
100
AcDbCircle
 10
2762.536653750256
 20
2968.125919511107
 30
0.0
 40
5.625
100
AcDbArc
 50
90.0
 51
270.0
  0
ARC
  5
2BE72
330
2B8A7
100
AcDbEntity
  8
SUNPOU
100
AcDbCircle
 10
2762.536653750256
 20
2968.125919511107
 30
0.0
 40
5.625
100
AcDbArc
 50
270.0
 51
90.0
  0
ARC
  5
2BE73
330
2B8A7
100
AcDbEntity
  8
SUNPOU
100
AcDbCircle
 10
2066.909121307276
 20
2781.273839420483
 30
0.0
 40
5.625000000000084
100
AcDbArc
 50
354.2608295227287
 51
174.2608295227285
  0
ARC
  5
2BE74
330
2B8A7
100
AcDbEntity
  8
SUNPOU
100
AcDbCircle
 10
2066.909121307276
 20
2781.273839420483
 30
0.0
 40
5.625000000000084
100
AcDbArc
 50
174.2608295227285
 51
354.2608295227287
  0
ARC
  5
2BE75
330
2B8A7
100
AcDbEntity
  8
SUNPOU
100
AcDbCircle
 10
2564.402839860437
 20
2731.273839420441
 30
0.0
 40
5.625000000000084
100
AcDbArc
 50
174.2608295227285
 51
354.2608295227287
  0
ARC
  5
2BE76
330
2B8A7
100
AcDbEntity
  8
SUNPOU
100
AcDbCircle
 10
2564.402839860437
 20
2731.273839420441
 30
0.0
 40
5.625000000000084
100
AcDbArc
 50
354.2608295227287
 51
174.2608295227285
  0
ARC
  5
2BE77
330
2B8A7
100
AcDbEntity
  8
SUNPOU
100
AcDbCircle
 10
3703.809078113405
 20
3237.490381588978
 30
0.0
 40
5.625000000000125
100
AcDbArc
 50
264.2642619769748
 51
84.26426197697484
  0
ARC
  5
2BE78
330
2B8A7
100
AcDbEntity
  8
SUNPOU
100
AcDbCircle
 10
3703.809078113405
 20
3237.490381588978
 30
0.0
 40
5.625000000000125
100
AcDbArc
 50
84.26426197697484
 51
264.2642619769748
  0
ARC
  5
2BE79
330
2B8A7
100
AcDbEntity
  8
SUNPOU
100
AcDbCircle
 10
3690.766856894321
 20
3107.643739485041
 30
0.0
 40
5.625000000000125
100
AcDbArc
 50
84.26426197697484
 51
264.2642619769748
  0
ARC
  5
2BE7A
330
2B8A7
100
AcDbEntity
  8
SUNPOU
100
AcDbCircle
 10
3690.766856894321
 20
3107.643739485041
 30
0.0
 40
5.625000000000125
100
AcDbArc
 50
264.2642619769748
 51
84.26426197697484
  0
ARC
  5
2BE7B
330
2B8A7
100
AcDbEntity
  8
SUNPOU
100
AcDbCircle
 10
3978.845976975708
 20
1275.125919511109
 30
0.0
 40
5.625
100
AcDbArc
 50
90.0
 51
270.0
  0
ARC
  5
2BE7C
330
2B8A7
100
AcDbEntity
  8
SUNPOU
100
AcDbCircle
 10
3978.845976975708
 20
1275.125919511109
 30
0.0
 40
5.625
100
AcDbArc
 50
270.0
 51
90.0
  0
ARC
  5
2BE7D
330
2B8A7
100
AcDbEntity
  8
SUNPOU
100
AcDbCircle
 10
3978.845976975708
 20
3270.17815350494
 30
0.0
 40
5.625
100
AcDbArc
 50
270.0
 51
90.0
  0
ARC
  5
2BE7E
330
2B8A7
100
AcDbEntity
  8
SUNPOU
100
AcDbCircle
 10
3978.845976975708
 20
3270.17815350494
 30
0.0
 40
5.625
100
AcDbArc
 50
90.0
 51
270.0
  0
ARC
  5
2BE7F
330
2B8A7
100
AcDbEntity
  8
SUNPOU
100
AcDbCircle
 10
1368.689753794259
 20
1275.125919511107
 30
0.0
 40
5.625
100
AcDbArc
 50
90.0
 51
270.0
  0
ARC
  5
2BE80
330
2B8A7
100
AcDbEntity
  8
SUNPOU
100
AcDbCircle
 10
1368.689753794259
 20
1275.125919511107
 30
0.0
 40
5.625
100
AcDbArc
 50
270.0
 51
90.0
  0
ARC
  5
2BE81
330
2B8A7
100
AcDbEntity
  8
SUNPOU
100
AcDbCircle
 10
1368.689753794259
 20
3267.146145191052
 30
0.0
 40
5.625
100
AcDbArc
 50
270.0
 51
90.0
  0
ARC
  5
2BE82
330
2B8A7
100
AcDbEntity
  8
SUNPOU
100
AcDbCircle
 10
1368.689753794259
 20
3267.146145191052
 30
0.0
 40
5.625
100
AcDbArc
 50
90.0
 51
270.0
  0
ARC
  5
2BE83
330
2B8A7
100
AcDbEntity
  8
SUNPOU
100
AcDbCircle
 10
1081.103769619898
 20
3471.199431984322
 30
0.0
 40
5.625
100
AcDbArc
 50
270.0
 51
90.0
  0
ARC
  5
2BE84
330
2B8A7
100
AcDbEntity
  8
SUNPOU
100
AcDbCircle
 10
1081.103769619898
 20
3471.199431984322
 30
0.0
 40
5.625
100
AcDbArc
 50
90.0
 51
270.0
  0
ARC
  5
2BE85
330
2B8A7
100
AcDbEntity
  8
SUNPOU
100
AcDbCircle
 10
1081.103769619898
 20
1275.125919511107
 30
0.0
 40
5.625
100
AcDbArc
 50
90.0
 51
270.0
  0
ARC
  5
2BE86
330
2B8A7
100
AcDbEntity
  8
SUNPOU
100
AcDbCircle
 10
1081.103769619898
 20
1275.125919511107
 30
0.0
 40
5.625
100
AcDbArc
 50
270.0
 51
90.0
  0
ARC
  5
2BE87
330
2B8A7
100
AcDbEntity
  8
SUNPOU
100
AcDbCircle
 10
1363.845976975711
 20
4199.335714136729
 30
0.0
 40
5.625
100
AcDbArc
 50
0.0
 51
180.0
  0
ARC
  5
2BE88
330
2B8A7
100
AcDbEntity
  8
SUNPOU
100
AcDbCircle
 10
1363.845976975711
 20
4199.335714136729
 30
0.0
 40
5.625
100
AcDbArc
 50
180.0
 51
0.0
  0
ARC
  5
2BE89
330
2B8A7
100
AcDbEntity
  8
SUNPOU
100
AcDbCircle
 10
3388.373912595969
 20
4199.335714136729
 30
0.0
 40
5.625
100
AcDbArc
 50
180.0
 51
0.0
  0
ARC
  5
2BE8A
330
2B8A7
100
AcDbEntity
  8
SUNPOU
100
AcDbCircle
 10
3388.373912595969
 20
4199.335714136729
 30
0.0
 40
5.625
100
AcDbArc
 50
0.0
 51
180.0
  0
ARC
  5
2BE8B
330
2B8A7
100
AcDbEntity
  8
SUNPOU
100
AcDbCircle
 10
2368.84597697571
 20
3989.335714136729
 30
0.0
 40
5.625
100
AcDbArc
 50
0.0
 51
180.0
  0
ARC
  5
2BE8C
330
2B8A7
100
AcDbEntity
  8
SUNPOU
100
AcDbCircle
 10
2368.84597697571
 20
3989.335714136729
 30
0.0
 40
5.625
100
AcDbArc
 50
180.0
 51
0.0
  0
ARC
  5
2BE8D
330
2B8A7
100
AcDbEntity
  8
SUNPOU
100
AcDbCircle
 10
3388.373912595969
 20
3989.335714136729
 30
0.0
 40
5.625
100
AcDbArc
 50
180.0
 51
0.0
  0
ARC
  5
2BE8E
330
2B8A7
100
AcDbEntity
  8
SUNPOU
100
AcDbCircle
 10
3388.373912595969
 20
3989.335714136729
 30
0.0
 40
5.625
100
AcDbArc
 50
0.0
 51
180.0
  0
ARC
  5
2BE8F
330
2B8A7
100
AcDbEntity
  8
SUNPOU
100
AcDbCircle
 10
2368.84597697571
 20
3989.335714136729
 30
0.0
 40
5.625
100
AcDbArc
 50
180.0
 51
0.0
  0
ARC
  5
2BE90
330
2B8A7
100
AcDbEntity
  8
SUNPOU
100
AcDbCircle
 10
2368.84597697571
 20
3989.335714136729
 30
0.0
 40
5.625
100
AcDbArc
 50
0.0
 51
180.0
  0
ARC
  5
2BE91
330
2B8A7
100
AcDbEntity
  8
SUNPOU
100
AcDbCircle
 10
1363.845976975711
 20
3989.335714136729
 30
0.0
 40
5.625
100
AcDbArc
 50
0.0
 51
180.0
  0
ARC
  5
2BE92
330
2B8A7
100
AcDbEntity
  8
SUNPOU
100
AcDbCircle
 10
1363.845976975711
 20
3989.335714136729
 30
0.0
 40
5.625
100
AcDbArc
 50
180.0
 51
0.0
  0
ARC
  5
2BE93
330
2B8A7
100
AcDbEntity
  8
SUNPOU
100
AcDbCircle
 10
5802.839282800638
 20
3838.20135591826
 30
0.0
 40
5.624999999999577
100
AcDbArc
 50
354.2642619770767
 51
174.2642619770766
  0
ARC
  5
2BE94
330
2B8A7
100
AcDbEntity
  8
SUNPOU
100
AcDbCircle
 10
5802.839282800638
 20
3838.20135591826
 30
0.0
 40
5.624999999999577
100
AcDbArc
 50
174.2642619770766
 51
354.2642619770767
  0
ARC
  5
2BE95
330
2B8A7
100
AcDbEntity
  8
SUNPOU
100
AcDbCircle
 10
7128.170526344693
 20
3705.080753132767
 30
0.0
 40
5.624999999999577
100
AcDbArc
 50
174.2642619770766
 51
354.2642619770767
  0
ARC
  5
2BE96
330
2B8A7
100
AcDbEntity
  8
SUNPOU
100
AcDbCircle
 10
7128.170526344693
 20
3705.080753132767
 30
0.0
 40
5.624999999999577
100
AcDbArc
 50
354.2642619770767
 51
174.2642619770766
  0
ARC
  5
2BE97
330
2B8A7
100
AcDbEntity
  8
SUNPOU
100
AcDbCircle
 10
7806.670352243383
 20
3204.509028433275
 30
0.0
 40
5.625
100
AcDbArc
 50
270.0
 51
90.0
  0
ARC
  5
2BE98
330
2B8A7
100
AcDbEntity
  8
SUNPOU
100
AcDbCircle
 10
7806.670352243383
 20
3204.509028433275
 30
0.0
 40
5.625
100
AcDbArc
 50
90.0
 51
270.0
  0
ARC
  5
2BE99
330
2B8A7
100
AcDbEntity
  8
SUNPOU
100
AcDbCircle
 10
7806.670352243383
 20
3270.17815350494
 30
0.0
 40
5.625
100
AcDbArc
 50
90.0
 51
270.0
  0
ARC
  5
2BE9A
330
2B8A7
100
AcDbEntity
  8
SUNPOU
100
AcDbCircle
 10
7806.670352243383
 20
3270.17815350494
 30
0.0
 40
5.625
100
AcDbArc
 50
270.0
 51
90.0
  0
ARC
  5
2BE9B
330
2B8A7
100
AcDbEntity
  8
SUNPOU
100
AcDbCircle
 10
7806.670352243379
 20
1275.125919511109
 30
0.0
 40
5.625
100
AcDbArc
 50
90.0
 51
270.0
  0
ARC
  5
2BE9C
330
2B8A7
100
AcDbEntity
  8
SUNPOU
100
AcDbCircle
 10
7806.670352243379
 20
1275.125919511109
 30
0.0
 40
5.625
100
AcDbArc
 50
270.0
 51
90.0
  0
ARC
  5
2BE9D
330
2B8A7
100
AcDbEntity
  8
SUNPOU
100
AcDbCircle
 10
7806.670352243383
 20
3204.509028433275
 30
0.0
 40
5.625
100
AcDbArc
 50
270.0
 51
90.0
  0
ARC
  5
2BE9E
330
2B8A7
100
AcDbEntity
  8
SUNPOU
100
AcDbCircle
 10
7806.670352243383
 20
3204.509028433275
 30
0.0
 40
5.625
100
AcDbArc
 50
90.0
 51
270.0
  0
ARC
  5
2BE9F
330
2B8A7
100
AcDbEntity
  8
SUNPOU
100
AcDbCircle
 10
5338.928144887568
 20
1275.125919511107
 30
0.0
 40
5.625
100
AcDbArc
 50
90.0
 51
270.0
  0
ARC
  5
2BEA0
330
2B8A7
100
AcDbEntity
  8
SUNPOU
100
AcDbCircle
 10
5338.928144887568
 20
1275.125919511107
 30
0.0
 40
5.625
100
AcDbArc
 50
270.0
 51
90.0
  0
ARC
  5
2BEA1
330
2B8A7
100
AcDbEntity
  8
SUNPOU
100
AcDbCircle
 10
5338.928144887569
 20
3267.146145191052
 30
0.0
 40
5.625
100
AcDbArc
 50
270.0
 51
90.0
  0
ARC
  5
2BEA2
330
2B8A7
100
AcDbEntity
  8
SUNPOU
100
AcDbCircle
 10
5338.928144887569
 20
3267.146145191052
 30
0.0
 40
5.625
100
AcDbArc
 50
90.0
 51
270.0
  0
ARC
  5
2BEA3
330
2B8A7
100
AcDbEntity
  8
SUNPOU
100
AcDbCircle
 10
5128.92814488757
 20
3336.855472218671
 30
0.0
 40
5.625
100
AcDbArc
 50
270.0
 51
90.0
  0
ARC
  5
2BEA4
330
2B8A7
100
AcDbEntity
  8
SUNPOU
100
AcDbCircle
 10
5128.92814488757
 20
3336.855472218671
 30
0.0
 40
5.625
100
AcDbArc
 50
90.0
 51
270.0
  0
ARC
  5
2BEA5
330
2B8A7
100
AcDbEntity
  8
SUNPOU
100
AcDbCircle
 10
5128.928144887569
 20
1275.125919511107
 30
0.0
 40
5.625
100
AcDbArc
 50
90.0
 51
270.0
  0
ARC
  5
2BEA6
330
2B8A7
100
AcDbEntity
  8
SUNPOU
100
AcDbCircle
 10
5128.928144887569
 20
1275.125919511107
 30
0.0
 40
5.625
100
AcDbArc
 50
270.0
 51
90.0
  0
ARC
  5
2BEA7
330
2B8A7
100
AcDbEntity
  8
SUNPOU
100
AcDbCircle
 10
5128.928144887569
 20
3336.855472218671
 30
0.0
 40
5.625
100
AcDbArc
 50
90.0
 51
270.0
  0
ARC
  5
2BEA8
330
2B8A7
100
AcDbEntity
  8
SUNPOU
100
AcDbCircle
 10
5128.928144887569
 20
3336.855472218671
 30
0.0
 40
5.625
100
AcDbArc
 50
270.0
 51
90.0
  0
ARC
  5
2BEA9
330
2B8A7
100
AcDbEntity
  8
SUNPOU
100
AcDbCircle
 10
5128.928144887569
 20
3471.199431984322
 30
0.0
 40
5.625
100
AcDbArc
 50
270.0
 51
90.0
  0
ARC
  5
2BEAA
330
2B8A7
100
AcDbEntity
  8
SUNPOU
100
AcDbCircle
 10
5128.928144887569
 20
3471.199431984322
 30
0.0
 40
5.625
100
AcDbArc
 50
90.0
 51
270.0
  0
ARC
  5
2BEAB
330
2B8A7
100
AcDbEntity
  8
SUNPOU
100
AcDbCircle
 10
5411.670352243381
 20
4199.335714136729
 30
0.0
 40
5.625
100
AcDbArc
 50
0.0
 51
180.0
  0
ARC
  5
2BEAC
330
2B8A7
100
AcDbEntity
  8
SUNPOU
100
AcDbCircle
 10
5411.670352243381
 20
4199.335714136729
 30
0.0
 40
5.625
100
AcDbArc
 50
180.0
 51
0.0
  0
ARC
  5
2BEAD
330
2B8A7
100
AcDbEntity
  8
SUNPOU
100
AcDbCircle
 10
7426.19828786364
 20
4199.335714136729
 30
0.0
 40
5.625
100
AcDbArc
 50
180.0
 51
0.0
  0
ARC
  5
2BEAE
330
2B8A7
100
AcDbEntity
  8
SUNPOU
100
AcDbCircle
 10
7426.19828786364
 20
4199.335714136729
 30
0.0
 40
5.625
100
AcDbArc
 50
0.0
 51
180.0
  0
ARC
  5
2BEAF
330
2B8A7
100
AcDbEntity
  8
SUNPOU
100
AcDbCircle
 10
6416.670352243383
 20
3989.335714136729
 30
0.0
 40
5.625
100
AcDbArc
 50
0.0
 51
180.0
  0
ARC
  5
2BEB0
330
2B8A7
100
AcDbEntity
  8
SUNPOU
100
AcDbCircle
 10
6416.670352243383
 20
3989.335714136729
 30
0.0
 40
5.625
100
AcDbArc
 50
180.0
 51
0.0
  0
ARC
  5
2BEB1
330
2B8A7
100
AcDbEntity
  8
SUNPOU
100
AcDbCircle
 10
7426.19828786364
 20
3989.335714136729
 30
0.0
 40
5.625
100
AcDbArc
 50
180.0
 51
0.0
  0
ARC
  5
2BEB2
330
2B8A7
100
AcDbEntity
  8
SUNPOU
100
AcDbCircle
 10
7426.19828786364
 20
3989.335714136729
 30
0.0
 40
5.625
100
AcDbArc
 50
0.0
 51
180.0
  0
ARC
  5
2BEB3
330
2B8A7
100
AcDbEntity
  8
SUNPOU
100
AcDbCircle
 10
6416.670352243383
 20
3989.335714136729
 30
0.0
 40
5.625
100
AcDbArc
 50
180.0
 51
0.0
  0
ARC
  5
2BEB4
330
2B8A7
100
AcDbEntity
  8
SUNPOU
100
AcDbCircle
 10
6416.670352243383
 20
3989.335714136729
 30
0.0
 40
5.625
100
AcDbArc
 50
0.0
 51
180.0
  0
ARC
  5
2BEB5
330
2B8A7
100
AcDbEntity
  8
SUNPOU
100
AcDbCircle
 10
5411.670352243381
 20
3989.335714136729
 30
0.0
 40
5.625
100
AcDbArc
 50
0.0
 51
180.0
  0
ARC
  5
2BEB6
330
2B8A7
100
AcDbEntity
  8
SUNPOU
100
AcDbCircle
 10
5411.670352243381
 20
3989.335714136729
 30
0.0
 40
5.625
100
AcDbArc
 50
180.0
 51
0.0
  0
ARC
  5
2BEB7
330
2B8A7
100
AcDbEntity
  8
SUNPOU
100
AcDbCircle
 10
7531.000000000003
 20
7773.736304084138
 30
0.0
 40
5.625
100
AcDbArc
 50
0.0
 51
180.0
  0
ARC
  5
2BEB8
330
2B8A7
100
AcDbEntity
  8
SUNPOU
100
AcDbCircle
 10
7531.000000000003
 20
7773.736304084138
 30
0.0
 40
5.625
100
AcDbArc
 50
180.0
 51
0.0
  0
ARC
  5
2BEB9
330
2B8A7
100
AcDbEntity
  8
SUNPOU
100
AcDbCircle
 10
7927.000000000003
 20
7773.736304084138
 30
0.0
 40
5.625
100
AcDbArc
 50
180.0
 51
0.0
  0
ARC
  5
2BEBA
330
2B8A7
100
AcDbEntity
  8
SUNPOU
100
AcDbCircle
 10
7927.000000000003
 20
7773.736304084138
 30
0.0
 40
5.625
100
AcDbArc
 50
0.0
 51
180.0
  0
ARC
  5
2BEBB
330
2B8A7
100
AcDbEntity
  8
SUNPOU
100
AcDbCircle
 10
5081.000000000002
 20
7773.736304084138
 30
0.0
 40
5.625
100
AcDbArc
 50
180.0
 51
0.0
  0
ARC
  5
2BEBC
330
2B8A7
100
AcDbEntity
  8
SUNPOU
100
AcDbCircle
 10
5081.000000000002
 20
7773.736304084138
 30
0.0
 40
5.625
100
AcDbArc
 50
0.0
 51
180.0
  0
ARC
  5
2BEBD
330
2B8A7
100
AcDbEntity
  8
SUNPOU
100
AcDbCircle
 10
4685.000000000004
 20
7773.736304084138
 30
0.0
 40
5.625
100
AcDbArc
 50
0.0
 51
180.0
  0
ARC
  5
2BEBE
330
2B8A7
100
AcDbEntity
  8
SUNPOU
100
AcDbCircle
 10
4685.000000000004
 20
7773.736304084138
 30
0.0
 40
5.625
100
AcDbArc
 50
180.0
 51
0.0
  0
ARC
  5
2BEBF
330
2B8A7
100
AcDbEntity
  8
SUNPOU
100
AcDbCircle
 10
5081.000000000002
 20
7773.736304084138
 30
0.0
 40
5.625
100
AcDbArc
 50
0.0
 51
180.0
  0
ARC
  5
2BEC0
330
2B8A7
100
AcDbEntity
  8
SUNPOU
100
AcDbCircle
 10
5081.000000000002
 20
7773.736304084138
 30
0.0
 40
5.625
100
AcDbArc
 50
180.0
 51
0.0
  0
ARC
  5
2BEC1
330
2B8A7
100
AcDbEntity
  8
SUNPOU
100
AcDbCircle
 10
7531.000000000003
 20
7773.736304084138
 30
0.0
 40
5.625
100
AcDbArc
 50
180.0
 51
0.0
  0
ARC
  5
2BEC2
330
2B8A7
100
AcDbEntity
  8
SUNPOU
100
AcDbCircle
 10
7531.000000000003
 20
7773.736304084138
 30
0.0
 40
5.625
100
AcDbArc
 50
0.0
 51
180.0
  0
CIRCLE
  5
2BEC3
330
2B8A7
100
AcDbEntity
  8
HIKIDASHI
100
AcDbCircle
 10
6416.670352243383
 20
795.12591951111
 30
0.0
 40
6.0
  0
CIRCLE
  5
2BEC4
330
2B8A7
100
AcDbEntity
  8
HIKIDASHI
100
AcDbCircle
 10
6416.670352243383
 20
835.1259195111101
 30
0.0
 40
6.0
  0
ARC
  5
2BEC5
330
2B8A7
100
AcDbEntity
  8
HIKIDASHI
100
AcDbCircle
 10
6416.670352243383
 20
835.1259195111101
 30
0.0
 40
3.0
100
AcDbArc
 50
180.0
 51
0.0
  0
ARC
  5
2BEC6
330
2B8A7
100
AcDbEntity
  8
HIKIDASHI
100
AcDbCircle
 10
6416.670352243383
 20
835.1259195111101
 30
0.0
 40
3.0
100
AcDbArc
 50
0.0
 51
180.0
  0
ARC
  5
2BEC7
330
2B8A7
100
AcDbEntity
  8
HIKIDASHI
100
AcDbCircle
 10
6416.670352243383
 20
795.12591951111
 30
0.0
 40
3.0
100
AcDbArc
 50
180.0
 51
0.0
  0
ARC
  5
2BEC8
330
2B8A7
100
AcDbEntity
  8
HIKIDASHI
100
AcDbCircle
 10
6416.670352243383
 20
795.12591951111
 30
0.0
 40
3.0
100
AcDbArc
 50
0.0
 51
180.0
  0
LINE
  5
2BEC9
330
2B8A7
100
AcDbEntity
  8
HIKIDASHI
100
AcDbLine
 10
5827.632733957749
 20
3457.551186975651
 30
0.0
 11
5877.433519716785
 21
3565.688555534785
 31
0.0
1001
ACAD
1000
DSTYLE
1002
{
1070
   147
1040
1.5
1070
    77
1070
     0
1002
}
  0
LINE
  5
2BECA
330
2B8A7
100
AcDbEntity
  8
HIKIDASHI
100
AcDbLine
 10
5814.008133603891
 20
3463.825759885235
 30
0.0
 11
5789.985296500242
 21
3375.803584852512
 31
0.0
  0
LINE
  5
2BECB
330
2B8A7
100
AcDbEntity
  8
HIKIDASHI
100
AcDbLine
 10
5789.985296500242
 20
3375.803584852512
 30
0.0
 11
5841.257334311606
 21
3451.276614066067
 31
0.0
  0
SOLID
  5
2BECC
330
2B8A7
100
AcDbEntity
  8
HIKIDASHI
100
AcDbTrace
 10
5814.008133603891
 20
3463.825759885235
 30
0.0
 11
5841.257334311606
 21
3451.276614066067
 31
0.0
 12
5789.985296500242
 22
3375.803584852512
 32
0.0
 13
5789.985296500242
 23
3375.803584852512
 33
0.0
  0
LINE
  5
2BECD
330
2B8A7
100
AcDbEntity
  8
HIKIDASHI
100
AcDbLine
 10
5841.257334311606
 20
3451.276614066067
 30
0.0
 11
5814.008133603891
 21
3463.825759885235
 31
0.0
  0
LINE
  5
2BECE
330
2B8A7
100
AcDbEntity
  8
HIKIDASHI
100
AcDbLine
 10
5476.901140507038
 20
3253.714607045552
 30
0.0
 11
5488.07892773397
 21
2650.221056410115
 31
0.0
1001
ACAD
1000
DSTYLE
1002
{
1070
   147
1040
1.5
1070
    77
1070
     0
1002
}
  0
LINE
  5
2BECF
330
2B8A7
100
AcDbEntity
  8
HIKIDASHI
100
AcDbLine
 10
5491.898568240607
 20
3253.99238641201
 30
0.0
 11
5475.234464308289
 21
3343.699173446955
 31
0.0
  0
LINE
  5
2BED0
330
2B8A7
100
AcDbEntity
  8
HIKIDASHI
100
AcDbLine
 10
5475.234464308289
 20
3343.699173446955
 30
0.0
 11
5461.903712773471
 21
3253.436827679094
 31
0.0
  0
SOLID
  5
2BED1
330
2B8A7
100
AcDbEntity
  8
HIKIDASHI
100
AcDbTrace
 10
5491.898568240607
 20
3253.99238641201
 30
0.0
 11
5461.903712773471
 21
3253.436827679094
 31
0.0
 12
5475.234464308289
 22
3343.699173446955
 32
0.0
 13
5475.234464308289
 23
3343.699173446955
 33
0.0
  0
LINE
  5
2BED2
330
2B8A7
100
AcDbEntity
  8
HIKIDASHI
100
AcDbLine
 10
5461.903712773471
 20
3253.436827679094
 30
0.0
 11
5491.898568240607
 21
3253.99238641201
 31
0.0
  0
LINE
  5
2BED3
330
2B8A7
100
AcDbEntity
  8
HIKIDASHI
100
AcDbLine
 10
6759.73568601514
 20
3090.384808356211
 30
0.0
 11
6830.554969652144
 21
2895.810425701557
 31
0.0
1001
ACAD
1000
DSTYLE
1002
{
1070
   147
1040
1.5
1070
    77
1070
     0
1002
}
  0
LINE
  5
2BED4
330
2B8A7
100
AcDbEntity
  8
HIKIDASHI
100
AcDbLine
 10
6773.83107532693
 20
3095.515110506096
 30
0.0
 11
6728.953873115833
 21
3174.957144226945
 31
0.0
  0
LINE
  5
2BED5
330
2B8A7
100
AcDbEntity
  8
HIKIDASHI
100
AcDbLine
 10
6728.953873115833
 20
3174.957144226945
 30
0.0
 11
6745.640296703351
 21
3085.254506206327
 31
0.0
  0
SOLID
  5
2BED6
330
2B8A7
100
AcDbEntity
  8
HIKIDASHI
100
AcDbTrace
 10
6773.83107532693
 20
3095.515110506096
 30
0.0
 11
6745.640296703351
 21
3085.254506206327
 31
0.0
 12
6728.953873115833
 22
3174.957144226945
 32
0.0
 13
6728.953873115833
 23
3174.957144226945
 33
0.0
  0
LINE
  5
2BED7
330
2B8A7
100
AcDbEntity
  8
HIKIDASHI
100
AcDbLine
 10
6745.640296703351
 20
3085.254506206327
 30
0.0
 11
6773.83107532693
 21
3095.515110506096
 31
0.0
  0
LINE
  5
2BED8
330
2B8A7
100
AcDbEntity
  8
HIKIDASHI
100
AcDbLine
 10
6529.347284788451
 20
2966.203038618885
 30
0.0
 11
6636.43532852071
 21
2671.981056570896
 31
0.0
1001
ACAD
1000
DSTYLE
1002
{
1070
   147
1040
1.5
1070
    77
1070
     0
1002
}
  0
LINE
  5
2BED9
330
2B8A7
100
AcDbEntity
  8
HIKIDASHI
100
AcDbLine
 10
6543.442674100241
 20
2971.33334076877
 30
0.0
 11
6498.565471889145
 21
3050.775374489618
 31
0.0
  0
LINE
  5
2BEDA
330
2B8A7
100
AcDbEntity
  8
HIKIDASHI
100
AcDbLine
 10
6498.565471889145
 20
3050.775374489618
 30
0.0
 11
6515.251895476663
 21
2961.072736469001
 31
0.0
  0
SOLID
  5
2BEDB
330
2B8A7
100
AcDbEntity
  8
HIKIDASHI
100
AcDbTrace
 10
6543.442674100241
 20
2971.33334076877
 30
0.0
 11
6515.251895476663
 21
2961.072736469001
 31
0.0
 12
6498.565471889145
 22
3050.775374489618
 32
0.0
 13
6498.565471889145
 23
3050.775374489618
 33
0.0
  0
LINE
  5
2BEDC
330
2B8A7
100
AcDbEntity
  8
HIKIDASHI
100
AcDbLine
 10
6515.251895476663
 20
2961.072736469001
 30
0.0
 11
6543.442674100241
 21
2971.33334076877
 31
0.0
  0
LINE
  5
2BEDD
330
2B8A7
100
AcDbEntity
  8
HIKIDASHI
100
AcDbLine
 10
7282.253820185808
 20
3375.212101788292
 30
0.0
 11
7515.574696561038
 21
3779.335714136733
 31
0.0
1001
ACAD
1000
DSTYLE
1002
{
1070
   147
1040
1.5
1070
    77
1070
     0
1002
}
  0
LINE
  5
2BEDE
330
2B8A7
100
AcDbEntity
  8
HIKIDASHI
100
AcDbLine
 10
7269.263439129042
 20
3382.712101788293
 30
0.0
 11
7237.25382018581
 21
3297.269815447689
 31
0.0
  0
LINE
  5
2BEDF
330
2B8A7
100
AcDbEntity
  8
HIKIDASHI
100
AcDbLine
 10
7237.25382018581
 20
3297.269815447689
 30
0.0
 11
7295.244201242574
 21
3367.712101788292
 31
0.0
  0
SOLID
  5
2BEE0
330
2B8A7
100
AcDbEntity
  8
HIKIDASHI
100
AcDbTrace
 10
7269.263439129042
 20
3382.712101788293
 30
0.0
 11
7295.244201242574
 21
3367.712101788292
 31
0.0
 12
7237.25382018581
 22
3297.269815447689
 32
0.0
 13
7237.25382018581
 23
3297.269815447689
 33
0.0
  0
LINE
  5
2BEE1
330
2B8A7
100
AcDbEntity
  8
HIKIDASHI
100
AcDbLine
 10
7295.244201242574
 20
3367.712101788292
 30
0.0
 11
7269.263439129042
 21
3382.712101788293
 31
0.0
  0
LINE
  5
2BEE2
330
2B8A7
100
AcDbEntity
  8
HIKIDASHI
100
AcDbLine
 10
7151.612677776824
 20
3362.133203892538
 30
0.0
 11
7513.72821590268
 21
3989.335714136729
 31
0.0
1001
ACAD
1000
DSTYLE
1002
{
1070
   147
1040
1.5
1070
    77
1070
     0
1002
}
  0
LINE
  5
2BEE3
330
2B8A7
100
AcDbEntity
  8
HIKIDASHI
100
AcDbLine
 10
7138.622296720058
 20
3369.633203892536
 30
0.0
 11
7106.612677776829
 21
3284.190917551937
 31
0.0
  0
LINE
  5
2BEE4
330
2B8A7
100
AcDbEntity
  8
HIKIDASHI
100
AcDbLine
 10
7106.612677776829
 20
3284.190917551937
 30
0.0
 11
7164.603058833593
 21
3354.633203892539
 31
0.0
  0
SOLID
  5
2BEE5
330
2B8A7
100
AcDbEntity
  8
HIKIDASHI
100
AcDbTrace
 10
7138.622296720058
 20
3369.633203892536
 30
0.0
 11
7164.603058833593
 21
3354.633203892539
 31
0.0
 12
7106.612677776829
 22
3284.190917551937
 32
0.0
 13
7106.612677776829
 23
3284.190917551937
 33
0.0
  0
LINE
  5
2BEE6
330
2B8A7
100
AcDbEntity
  8
HIKIDASHI
100
AcDbLine
 10
7164.603058833593
 20
3354.633203892539
 30
0.0
 11
7138.622296720058
 21
3369.633203892536
 31
0.0
  0
LINE
  5
2BEE7
330
2B8A7
100
AcDbEntity
  8
HIKIDASHI
100
AcDbLine
 10
5371.785679410419
 20
3567.372568630251
 30
0.0
 11
5201.95271204704
 21
3989.335714136729
 31
0.0
1001
ACAD
1000
DSTYLE
1002
{
1070
   147
1040
1.5
1070
    77
1070
     0
1002
}
  0
LINE
  5
2BEE8
330
2B8A7
100
AcDbEntity
  8
HIKIDASHI
100
AcDbLine
 10
5357.870474902765
 20
3561.771936209694
 30
0.0
 11
5405.389473933752
 21
3483.881341584327
 31
0.0
  0
LINE
  5
2BEE9
330
2B8A7
100
AcDbEntity
  8
HIKIDASHI
100
AcDbLine
 10
5405.389473933752
 20
3483.881341584327
 30
0.0
 11
5385.700883918073
 21
3572.973201050805
 31
0.0
  0
SOLID
  5
2BEEA
330
2B8A7
100
AcDbEntity
  8
HIKIDASHI
100
AcDbTrace
 10
5357.870474902765
 20
3561.771936209694
 30
0.0
 11
5385.700883918073
 21
3572.973201050805
 31
0.0
 12
5405.389473933752
 22
3483.881341584327
 32
0.0
 13
5405.389473933752
 23
3483.881341584327
 33
0.0
  0
LINE
  5
2BEEB
330
2B8A7
100
AcDbEntity
  8
HIKIDASHI
100
AcDbLine
 10
5385.700883918073
 20
3572.973201050805
 30
0.0
 11
5357.870474902765
 21
3561.771936209694
 31
0.0
  0
LINE
  5
2BEEC
330
2B8A7
100
AcDbEntity
  8
HIKIDASHI
100
AcDbLine
 10
5691.850241360871
 20
3212.533697895024
 30
0.0
 11
5547.349307042061
 21
3043.846364517984
 31
0.0
1001
ACAD
1000
DSTYLE
1002
{
1070
   147
1040
1.5
1070
    77
1070
     0
1002
}
  0
LINE
  5
2BEED
330
2B8A7
100
AcDbEntity
  8
HIKIDASHI
100
AcDbLine
 10
5547.349307042061
 20
3043.846364517984
 30
0.0
 11
5654.419601333614
 21
2850.742481839629
 31
0.0
1001
ACAD
1000
DSTYLE
1002
{
1070
   147
1040
1.5
1070
    77
1070
     0
1002
}
  0
LINE
  5
2BEEE
330
2B8A7
100
AcDbEntity
  8
HIKIDASHI
100
AcDbLine
 10
5703.242033288538
 20
3202.775261715147
 30
0.0
 11
5750.400858440129
 21
3280.88444946103
 31
0.0
  0
LINE
  5
2BEEF
330
2B8A7
100
AcDbEntity
  8
HIKIDASHI
100
AcDbLine
 10
5750.400858440129
 20
3280.88444946103
 30
0.0
 11
5680.458449433202
 21
3222.292134074901
 31
0.0
  0
SOLID
  5
2BEF0
330
2B8A7
100
AcDbEntity
  8
HIKIDASHI
100
AcDbTrace
 10
5703.242033288538
 20
3202.775261715147
 30
0.0
 11
5680.458449433202
 21
3222.292134074901
 31
0.0
 12
5750.400858440129
 22
3280.88444946103
 32
0.0
 13
5750.400858440129
 23
3280.88444946103
 33
0.0
  0
LINE
  5
2BEF1
330
2B8A7
100
AcDbEntity
  8
HIKIDASHI
100
AcDbLine
 10
5680.458449433202
 20
3222.292134074901
 30
0.0
 11
5703.242033288538
 21
3202.775261715147
 31
0.0
  0
LINE
  5
2BEF2
330
2B8A7
100
AcDbEntity
  8
HIKIDASHI
100
AcDbLine
 10
6517.80996255017
 20
1797.538740455458
 30
0.0
 11
6629.121375596721
 21
1908.850153502007
 31
0.0
1001
ACAD
1000
DSTYLE
1002
{
1070
   147
1040
1.5
1070
    77
1070
     0
1002
}
  0
LINE
  5
2BEF3
330
2B8A7
100
AcDbEntity
  8
HIKIDASHI
100
AcDbLine
 10
6507.203360832372
 20
1808.145342173255
 30
0.0
 11
6454.17035224338
 21
1733.899130148667
 31
0.0
  0
LINE
  5
2BEF4
330
2B8A7
100
AcDbEntity
  8
HIKIDASHI
100
AcDbLine
 10
6454.17035224338
 20
1733.899130148667
 30
0.0
 11
6528.41656426797
 21
1786.932138737659
 31
0.0
  0
SOLID
  5
2BEF5
330
2B8A7
100
AcDbEntity
  8
HIKIDASHI
100
AcDbTrace
 10
6507.203360832372
 20
1808.145342173255
 30
0.0
 11
6528.41656426797
 21
1786.932138737659
 31
0.0
 12
6454.17035224338
 22
1733.899130148667
 32
0.0
 13
6454.17035224338
 23
1733.899130148667
 33
0.0
  0
LINE
  5
2BEF6
330
2B8A7
100
AcDbEntity
  8
HIKIDASHI
100
AcDbLine
 10
6528.41656426797
 20
1786.932138737659
 30
0.0
 11
6507.203360832372
 21
1808.145342173255
 31
0.0
  0
CIRCLE
  5
2BEF7
330
2B8A7
100
AcDbEntity
  8
HATCH
100
AcDbCircle
 10
3540.991048923979
 20
1248.27805804051
 30
0.0
 40
5.0
  0
CIRCLE
  5
2BEF8
330
2B8A7
100
AcDbEntity
  8
HATCH
100
AcDbCircle
 10
3390.99104892398
 20
1248.27805804051
 30
0.0
 40
5.0
  0
CIRCLE
  5
2BEF9
330
2B8A7
100
AcDbEntity
  8
HATCH
100
AcDbCircle
 10
3240.99104892398
 20
1248.27805804051
 30
0.0
 40
5.0
  0
CIRCLE
  5
2BEFA
330
2B8A7
100
AcDbEntity
  8
HATCH
100
AcDbCircle
 10
3090.99104892398
 20
1248.27805804051
 30
0.0
 40
5.0
  0
CIRCLE
  5
2BEFB
330
2B8A7
100
AcDbEntity
  8
HATCH
100
AcDbCircle
 10
2940.99104892398
 20
1248.27805804051
 30
0.0
 40
5.0
  0
CIRCLE
  5
2BEFC
330
2B8A7
100
AcDbEntity
  8
HATCH
100
AcDbCircle
 10
2790.99104892398
 20
1248.27805804051
 30
0.0
 40
5.0
  0
CIRCLE
  5
2BEFD
330
2B8A7
100
AcDbEntity
  8
HATCH
100
AcDbCircle
 10
2640.99104892398
 20
1248.27805804051
 30
0.0
 40
5.0
  0
CIRCLE
  5
2BEFE
330
2B8A7
100
AcDbEntity
  8
HATCH
100
AcDbCircle
 10
2490.991048923981
 20
1248.27805804051
 30
0.0
 40
5.0
  0
CIRCLE
  5
2BEFF
330
2B8A7
100
AcDbEntity
  8
HATCH
100
AcDbCircle
 10
2340.99104892398
 20
1248.27805804051
 30
0.0
 40
5.0
  0
CIRCLE
  5
2BF00
330
2B8A7
100
AcDbEntity
  8
HATCH
100
AcDbCircle
 10
2190.99104892398
 20
1248.27805804051
 30
0.0
 40
5.0
  0
CIRCLE
  5
2BF01
330
2B8A7
100
AcDbEntity
  8
HATCH
100
AcDbCircle
 10
2040.99104892398
 20
1248.27805804051
 30
0.0
 40
5.0
  0
CIRCLE
  5
2BF02
330
2B8A7
100
AcDbEntity
  8
HATCH
100
AcDbCircle
 10
1890.99104892398
 20
1248.27805804051
 30
0.0
 40
5.0
  0
CIRCLE
  5
2BF03
330
2B8A7
100
AcDbEntity
  8
HATCH
100
AcDbCircle
 10
1740.99104892398
 20
1248.27805804051
 30
0.0
 40
5.0
  0
CIRCLE
  5
2BF04
330
2B8A7
100
AcDbEntity
  8
HATCH
100
AcDbCircle
 10
1590.99104892398
 20
1248.27805804051
 30
0.0
 40
5.0
  0
CIRCLE
  5
2BF05
330
2B8A7
100
AcDbEntity
  8
HATCH
100
AcDbCircle
 10
1440.99104892398
 20
1248.27805804051
 30
0.0
 40
5.0
  0
CIRCLE
  5
2BF06
330
2B8A7
100
AcDbEntity
  8
HATCH
100
AcDbCircle
 10
1290.991048923979
 20
1248.27805804051
 30
0.0
 40
5.0
  0
CIRCLE
  5
2BF07
330
2B8A7
100
AcDbEntity
  8
HATCH
100
AcDbCircle
 10
1140.991048923979
 20
1248.27805804051
 30
0.0
 40
5.0
  0
CIRCLE
  5
2BF08
330
2B8A7
100
AcDbEntity
  8
HATCH
100
AcDbCircle
 10
990.99104892398
 20
1248.27805804051
 30
0.0
 40
5.0
  0
LINE
  5
2BF09
330
2B8A7
100
AcDbEntity
  8
HATCH
100
AcDbLine
 10
6762.802838783898
 20
675.1259195111079
 30
0.0
 11
6820.537865702862
 21
775.1259195111079
 31
0.0
  0
LINE
  5
2BF0A
330
2B8A7
100
AcDbEntity
  8
HATCH
100
AcDbLine
 10
6780.537865702862
 20
775.1259195111067
 30
0.0
 11
6800.537865702863
 21
740.484903359732
 31
0.0
  0
LINE
  5
2BF0B
330
2B8A7
100
AcDbEntity
  8
HATCH
100
AcDbLine
 10
6782.802838783901
 20
709.7669356624866
 30
0.0
 11
6802.802838783901
 21
675.1259195111079
 31
0.0
  0
LINE
  5
2BF0C
330
2B8A7
100
AcDbEntity
  8
HATCH
100
AcDbLine
 10
6012.802838783898
 20
675.1259195111065
 30
0.0
 11
6070.537865702863
 21
775.1259195111065
 31
0.0
  0
LINE
  5
2BF0D
330
2B8A7
100
AcDbEntity
  8
HATCH
100
AcDbLine
 10
6030.537865702862
 20
775.1259195111056
 30
0.0
 11
6050.537865702862
 21
740.4849033597305
 31
0.0
  0
LINE
  5
2BF0E
330
2B8A7
100
AcDbEntity
  8
HATCH
100
AcDbLine
 10
6032.802838783901
 20
709.7669356624852
 30
0.0
 11
6052.802838783898
 21
675.1259195111065
 31
0.0
  0
LINE
  5
2BF0F
330
2B8A7
100
AcDbEntity
  8
HATCH
100
AcDbLine
 10
6512.802838783898
 20
675.1259195111079
 30
0.0
 11
6570.537865702862
 21
775.1259195111079
 31
0.0
  0
LINE
  5
2BF10
330
2B8A7
100
AcDbEntity
  8
HATCH
100
AcDbLine
 10
6530.537865702862
 20
775.1259195111067
 30
0.0
 11
6550.537865702863
 21
740.484903359732
 31
0.0
  0
LINE
  5
2BF11
330
2B8A7
100
AcDbEntity
  8
HATCH
100
AcDbLine
 10
6532.802838783901
 20
709.7669356624866
 30
0.0
 11
6552.802838783901
 21
675.1259195111079
 31
0.0
  0
LINE
  5
2BF12
330
2B8A7
100
AcDbEntity
  8
HATCH
100
AcDbLine
 10
6637.802838783898
 20
675.1259195111079
 30
0.0
 11
6695.537865702862
 21
775.1259195111079
 31
0.0
  0
LINE
  5
2BF13
330
2B8A7
100
AcDbEntity
  8
HATCH
100
AcDbLine
 10
6655.537865702862
 20
775.1259195111067
 30
0.0
 11
6675.537865702863
 21
740.484903359732
 31
0.0
  0
LINE
  5
2BF14
330
2B8A7
100
AcDbEntity
  8
HATCH
100
AcDbLine
 10
6657.802838783901
 20
709.7669356624866
 30
0.0
 11
6677.802838783901
 21
675.1259195111079
 31
0.0
  0
LINE
  5
2BF15
330
2B8A7
100
AcDbEntity
  8
HATCH
100
AcDbLine
 10
6262.802838783898
 20
675.1259195111079
 30
0.0
 11
6320.537865702863
 21
775.1259195111079
 31
0.0
  0
LINE
  5
2BF16
330
2B8A7
100
AcDbEntity
  8
HATCH
100
AcDbLine
 10
6280.537865702862
 20
775.1259195111067
 30
0.0
 11
6300.537865702862
 21
740.484903359732
 31
0.0
  0
LINE
  5
2BF17
330
2B8A7
100
AcDbEntity
  8
HATCH
100
AcDbLine
 10
6282.802838783901
 20
709.7669356624866
 30
0.0
 11
6302.802838783898
 21
675.1259195111079
 31
0.0
  0
LINE
  5
2BF18
330
2B8A7
100
AcDbEntity
  8
HATCH
100
AcDbLine
 10
6137.802838783898
 20
675.1259195111079
 30
0.0
 11
6195.537865702863
 21
775.1259195111079
 31
0.0
  0
LINE
  5
2BF19
330
2B8A7
100
AcDbEntity
  8
HATCH
100
AcDbLine
 10
6155.537865702862
 20
775.1259195111067
 30
0.0
 11
6175.537865702862
 21
740.484903359732
 31
0.0
  0
LINE
  5
2BF1A
330
2B8A7
100
AcDbEntity
  8
HATCH
100
AcDbLine
 10
6157.802838783901
 20
709.7669356624866
 30
0.0
 11
6177.802838783898
 21
675.1259195111079
 31
0.0
  0
LINE
  5
2BF1B
330
2B8A7
100
AcDbEntity
  8
HATCH
100
AcDbLine
 10
6387.802838783898
 20
675.1259195111079
 30
0.0
 11
6445.537865702862
 21
775.1259195111079
 31
0.0
  0
LINE
  5
2BF1C
330
2B8A7
100
AcDbEntity
  8
HATCH
100
AcDbLine
 10
6405.537865702862
 20
775.1259195111067
 30
0.0
 11
6425.537865702863
 21
740.484903359732
 31
0.0
  0
LINE
  5
2BF1D
330
2B8A7
100
AcDbEntity
  8
HATCH
100
AcDbLine
 10
6407.802838783901
 20
709.7669356624866
 30
0.0
 11
6427.802838783901
 21
675.1259195111079
 31
0.0
  0
LINE
  5
2BF1E
330
2B8A7
100
AcDbEntity
  8
HATCH
100
AcDbLine
 10
7492.029336092058
 20
1125.125919511111
 30
0.0
 11
7526.670352243455
 21
1185.125919511147
 31
0.0
  0
LINE
  5
2BF1F
330
2B8A7
100
AcDbEntity
  8
HATCH
100
AcDbLine
 10
7502.670352243443
 20
1185.125919511147
 30
0.0
 11
7514.670352243451
 21
1164.341309820309
 31
0.0
  0
LINE
  5
2BF20
330
2B8A7
100
AcDbEntity
  8
HATCH
100
AcDbLine
 10
7504.029336092067
 20
1145.910529201951
 30
0.0
 11
7516.029336092072
 21
1125.125919511111
 31
0.0
  0
LINE
  5
2BF21
330
2B8A7
100
AcDbEntity
  8
HATCH
100
AcDbLine
 10
7402.029336092057
 20
1125.125919511111
 30
0.0
 11
7436.670352243456
 21
1185.125919511147
 31
0.0
  0
LINE
  5
2BF22
330
2B8A7
100
AcDbEntity
  8
HATCH
100
AcDbLine
 10
7412.670352243444
 20
1185.125919511147
 30
0.0
 11
7424.67035224345
 21
1164.341309820309
 31
0.0
  0
LINE
  5
2BF23
330
2B8A7
100
AcDbEntity
  8
HATCH
100
AcDbLine
 10
7414.029336092065
 20
1145.910529201951
 30
0.0
 11
7426.029336092074
 21
1125.125919511111
 31
0.0
  0
LINE
  5
2BF24
330
2B8A7
100
AcDbEntity
  8
HATCH
100
AcDbLine
 10
7582.029336092057
 20
1125.125919511111
 30
0.0
 11
7616.670352243456
 21
1185.125919511147
 31
0.0
  0
LINE
  5
2BF25
330
2B8A7
100
AcDbEntity
  8
HATCH
100
AcDbLine
 10
7592.670352243444
 20
1185.125919511147
 30
0.0
 11
7604.67035224345
 21
1164.341309820309
 31
0.0
  0
LINE
  5
2BF26
330
2B8A7
100
AcDbEntity
  8
HATCH
100
AcDbLine
 10
7594.029336092065
 20
1145.910529201951
 30
0.0
 11
7606.029336092068
 21
1125.125919511111
 31
0.0
  0
LINE
  5
2BF27
330
2B8A7
100
AcDbEntity
  8
HATCH
100
AcDbLine
 10
7312.029336092058
 20
1125.12591951111
 30
0.0
 11
7346.670352243458
 21
1185.125919511145
 31
0.0
  0
LINE
  5
2BF28
330
2B8A7
100
AcDbEntity
  8
HATCH
100
AcDbLine
 10
7322.670352243443
 20
1185.125919511145
 30
0.0
 11
7334.670352243449
 21
1164.341309820308
 31
0.0
  0
LINE
  5
2BF29
330
2B8A7
100
AcDbEntity
  8
HATCH
100
AcDbLine
 10
7324.029336092064
 20
1145.91052920195
 30
0.0
 11
7336.029336092072
 21
1125.12591951111
 31
0.0
  0
LINE
  5
2BF2A
330
2B8A7
100
AcDbEntity
  8
HATCH
100
AcDbLine
 10
7132.029336092057
 20
1125.12591951111
 30
0.0
 11
7166.670352243456
 21
1185.125919511145
 31
0.0
  0
LINE
  5
2BF2B
330
2B8A7
100
AcDbEntity
  8
HATCH
100
AcDbLine
 10
7142.670352243442
 20
1185.125919511145
 30
0.0
 11
7154.670352243448
 21
1164.341309820308
 31
0.0
  0
LINE
  5
2BF2C
330
2B8A7
100
AcDbEntity
  8
HATCH
100
AcDbLine
 10
7144.029336092065
 20
1145.91052920195
 30
0.0
 11
7156.029336092071
 21
1125.12591951111
 31
0.0
  0
LINE
  5
2BF2D
330
2B8A7
100
AcDbEntity
  8
HATCH
100
AcDbLine
 10
7222.029336092058
 20
1125.125919511111
 30
0.0
 11
7256.670352243458
 21
1185.125919511147
 31
0.0
  0
LINE
  5
2BF2E
330
2B8A7
100
AcDbEntity
  8
HATCH
100
AcDbLine
 10
7232.670352243444
 20
1185.125919511147
 30
0.0
 11
7244.67035224345
 21
1164.341309820309
 31
0.0
  0
LINE
  5
2BF2F
330
2B8A7
100
AcDbEntity
  8
HATCH
100
AcDbLine
 10
7234.029336092065
 20
1145.910529201951
 30
0.0
 11
7246.029336092076
 21
1125.125919511111
 31
0.0
  0
LINE
  5
2BF30
330
2B8A7
100
AcDbEntity
  8
HATCH
100
AcDbLine
 10
7042.029336092058
 20
1125.125919511111
 30
0.0
 11
7076.670352243457
 21
1185.125919511147
 31
0.0
  0
LINE
  5
2BF31
330
2B8A7
100
AcDbEntity
  8
HATCH
100
AcDbLine
 10
7052.670352243443
 20
1185.125919511147
 30
0.0
 11
7064.670352243448
 21
1164.341309820309
 31
0.0
  0
LINE
  5
2BF32
330
2B8A7
100
AcDbEntity
  8
HATCH
100
AcDbLine
 10
7054.029336092066
 20
1145.910529201951
 30
0.0
 11
7066.029336092071
 21
1125.125919511111
 31
0.0
  0
LINE
  5
2BF33
330
2B8A7
100
AcDbEntity
  8
HATCH
100
AcDbLine
 10
6862.029336092058
 20
1125.12591951111
 30
0.0
 11
6896.670352243457
 21
1185.125919511145
 31
0.0
  0
LINE
  5
2BF34
330
2B8A7
100
AcDbEntity
  8
HATCH
100
AcDbLine
 10
6872.670352243443
 20
1185.125919511145
 30
0.0
 11
6884.67035224345
 21
1164.341309820308
 31
0.0
  0
LINE
  5
2BF35
330
2B8A7
100
AcDbEntity
  8
HATCH
100
AcDbLine
 10
6874.029336092064
 20
1145.91052920195
 30
0.0
 11
6886.029336092072
 21
1125.12591951111
 31
0.0
  0
LINE
  5
2BF36
330
2B8A7
100
AcDbEntity
  8
HATCH
100
AcDbLine
 10
6952.029336092057
 20
1125.12591951111
 30
0.0
 11
6986.670352243456
 21
1185.125919511145
 31
0.0
  0
LINE
  5
2BF37
330
2B8A7
100
AcDbEntity
  8
HATCH
100
AcDbLine
 10
6962.670352243442
 20
1185.125919511145
 30
0.0
 11
6974.670352243449
 21
1164.341309820308
 31
0.0
  0
LINE
  5
2BF38
330
2B8A7
100
AcDbEntity
  8
HATCH
100
AcDbLine
 10
6964.029336092065
 20
1145.91052920195
 30
0.0
 11
6976.029336092071
 21
1125.12591951111
 31
0.0
  0
LINE
  5
2BF39
330
2B8A7
100
AcDbEntity
  8
HATCH
100
AcDbLine
 10
6772.029336092058
 20
1125.12591951111
 30
0.0
 11
6806.670352243457
 21
1185.125919511145
 31
0.0
  0
LINE
  5
2BF3A
330
2B8A7
100
AcDbEntity
  8
HATCH
100
AcDbLine
 10
6782.670352243441
 20
1185.125919511145
 30
0.0
 11
6794.670352243449
 21
1164.341309820308
 31
0.0
  0
LINE
  5
2BF3B
330
2B8A7
100
AcDbEntity
  8
HATCH
100
AcDbLine
 10
6784.029336092065
 20
1145.91052920195
 30
0.0
 11
6796.029336092073
 21
1125.12591951111
 31
0.0
  0
LINE
  5
2BF3C
330
2B8A7
100
AcDbEntity
  8
HATCH
100
AcDbLine
 10
6006.670352243435
 20
1125.125919511106
 30
0.0
 11
6041.311368394834
 21
1185.125919511142
 31
0.0
  0
LINE
  5
2BF3D
330
2B8A7
100
AcDbEntity
  8
HATCH
100
AcDbLine
 10
6017.311368394818
 20
1185.125919511142
 30
0.0
 11
6029.311368394826
 21
1164.341309820305
 31
0.0
  0
LINE
  5
2BF3E
330
2B8A7
100
AcDbEntity
  8
HATCH
100
AcDbLine
 10
6018.670352243443
 20
1145.910529201946
 30
0.0
 11
6030.670352243451
 21
1125.125919511106
 31
0.0
  0
LINE
  5
2BF3F
330
2B8A7
100
AcDbEntity
  8
HATCH
100
AcDbLine
 10
5916.670352243437
 20
1125.125919511106
 30
0.0
 11
5951.311368394834
 21
1185.125919511142
 31
0.0
  0
LINE
  5
2BF40
330
2B8A7
100
AcDbEntity
  8
HATCH
100
AcDbLine
 10
5927.311368394818
 20
1185.125919511142
 30
0.0
 11
5939.311368394825
 21
1164.341309820305
 31
0.0
  0
LINE
  5
2BF41
330
2B8A7
100
AcDbEntity
  8
HATCH
100
AcDbLine
 10
5928.670352243443
 20
1145.910529201946
 30
0.0
 11
5940.67035224345
 21
1125.125919511106
 31
0.0
  0
LINE
  5
2BF42
330
2B8A7
100
AcDbEntity
  8
HATCH
100
AcDbLine
 10
5826.670352243437
 20
1125.125919511106
 30
0.0
 11
5861.311368394834
 21
1185.125919511142
 31
0.0
  0
LINE
  5
2BF43
330
2B8A7
100
AcDbEntity
  8
HATCH
100
AcDbLine
 10
5837.311368394821
 20
1185.125919511142
 30
0.0
 11
5849.311368394825
 21
1164.341309820305
 31
0.0
  0
LINE
  5
2BF44
330
2B8A7
100
AcDbEntity
  8
HATCH
100
AcDbLine
 10
5838.670352243443
 20
1145.910529201946
 30
0.0
 11
5850.67035224345
 21
1125.125919511106
 31
0.0
  0
LINE
  5
2BF45
330
2B8A7
100
AcDbEntity
  8
HATCH
100
AcDbLine
 10
5646.670352243437
 20
1125.125919511106
 30
0.0
 11
5681.311368394834
 21
1185.125919511142
 31
0.0
  0
LINE
  5
2BF46
330
2B8A7
100
AcDbEntity
  8
HATCH
100
AcDbLine
 10
5657.311368394818
 20
1185.125919511142
 30
0.0
 11
5669.311368394826
 21
1164.341309820305
 31
0.0
  0
LINE
  5
2BF47
330
2B8A7
100
AcDbEntity
  8
HATCH
100
AcDbLine
 10
5658.670352243443
 20
1145.910529201946
 30
0.0
 11
5670.67035224345
 21
1125.125919511106
 31
0.0
  0
LINE
  5
2BF48
330
2B8A7
100
AcDbEntity
  8
HATCH
100
AcDbLine
 10
5736.670352243437
 20
1125.125919511106
 30
0.0
 11
5771.311368394834
 21
1185.125919511142
 31
0.0
  0
LINE
  5
2BF49
330
2B8A7
100
AcDbEntity
  8
HATCH
100
AcDbLine
 10
5747.311368394821
 20
1185.125919511142
 30
0.0
 11
5759.311368394826
 21
1164.341309820305
 31
0.0
  0
LINE
  5
2BF4A
330
2B8A7
100
AcDbEntity
  8
HATCH
100
AcDbLine
 10
5748.670352243443
 20
1145.910529201946
 30
0.0
 11
5760.67035224345
 21
1125.125919511106
 31
0.0
  0
LINE
  5
2BF4B
330
2B8A7
100
AcDbEntity
  8
HATCH
100
AcDbLine
 10
5556.670352243435
 20
1125.125919511106
 30
0.0
 11
5591.311368394833
 21
1185.125919511142
 31
0.0
  0
LINE
  5
2BF4C
330
2B8A7
100
AcDbEntity
  8
HATCH
100
AcDbLine
 10
5567.311368394818
 20
1185.125919511142
 30
0.0
 11
5579.311368394826
 21
1164.341309820305
 31
0.0
  0
LINE
  5
2BF4D
330
2B8A7
100
AcDbEntity
  8
HATCH
100
AcDbLine
 10
5568.670352243443
 20
1145.910529201946
 30
0.0
 11
5580.67035224345
 21
1125.125919511106
 31
0.0
  0
LINE
  5
2BF4E
330
2B8A7
100
AcDbEntity
  8
HATCH
100
AcDbLine
 10
5466.670352243435
 20
1125.125919511106
 30
0.0
 11
5501.311368394834
 21
1185.125919511142
 31
0.0
  0
LINE
  5
2BF4F
330
2B8A7
100
AcDbEntity
  8
HATCH
100
AcDbLine
 10
5477.311368394818
 20
1185.125919511142
 30
0.0
 11
5489.311368394826
 21
1164.341309820305
 31
0.0
  0
LINE
  5
2BF50
330
2B8A7
100
AcDbEntity
  8
HATCH
100
AcDbLine
 10
5478.670352243442
 20
1145.910529201946
 30
0.0
 11
5490.67035224345
 21
1125.125919511106
 31
0.0
  0
LINE
  5
2BF51
330
2B8A7
100
AcDbEntity
  8
HATCH
100
AcDbLine
 10
5286.670352243437
 20
1125.125919511106
 30
0.0
 11
5321.311368394834
 21
1185.125919511142
 31
0.0
  0
LINE
  5
2BF52
330
2B8A7
100
AcDbEntity
  8
HATCH
100
AcDbLine
 10
5297.311368394821
 20
1185.125919511142
 30
0.0
 11
5309.311368394826
 21
1164.341309820305
 31
0.0
  0
LINE
  5
2BF53
330
2B8A7
100
AcDbEntity
  8
HATCH
100
AcDbLine
 10
5298.670352243441
 20
1145.910529201946
 30
0.0
 11
5310.67035224345
 21
1125.125919511106
 31
0.0
  0
LINE
  5
2BF54
330
2B8A7
100
AcDbEntity
  8
HATCH
100
AcDbLine
 10
5196.670352243437
 20
1125.125919511106
 30
0.0
 11
5231.311368394834
 21
1185.125919511142
 31
0.0
  0
LINE
  5
2BF55
330
2B8A7
100
AcDbEntity
  8
HATCH
100
AcDbLine
 10
5207.311368394818
 20
1185.125919511142
 30
0.0
 11
5219.311368394826
 21
1164.341309820305
 31
0.0
  0
LINE
  5
2BF56
330
2B8A7
100
AcDbEntity
  8
HATCH
100
AcDbLine
 10
5208.670352243442
 20
1145.910529201946
 30
0.0
 11
5220.67035224345
 21
1125.125919511106
 31
0.0
  0
LINE
  5
2BF57
330
2B8A7
100
AcDbEntity
  8
HATCH
100
AcDbLine
 10
5016.670352243435
 20
1125.125919511106
 30
0.0
 11
5051.311368394834
 21
1185.125919511142
 31
0.0
  0
LINE
  5
2BF58
330
2B8A7
100
AcDbEntity
  8
HATCH
100
AcDbLine
 10
5027.311368394816
 20
1185.125919511142
 30
0.0
 11
5039.311368394826
 21
1164.341309820305
 31
0.0
  0
LINE
  5
2BF59
330
2B8A7
100
AcDbEntity
  8
HATCH
100
AcDbLine
 10
5028.670352243442
 20
1145.910529201946
 30
0.0
 11
5040.670352243449
 21
1125.125919511106
 31
0.0
  0
LINE
  5
2BF5A
330
2B8A7
100
AcDbEntity
  8
HATCH
100
AcDbLine
 10
5106.670352243435
 20
1125.125919511106
 30
0.0
 11
5141.311368394834
 21
1185.125919511142
 31
0.0
  0
LINE
  5
2BF5B
330
2B8A7
100
AcDbEntity
  8
HATCH
100
AcDbLine
 10
5117.311368394818
 20
1185.125919511142
 30
0.0
 11
5129.311368394827
 21
1164.341309820305
 31
0.0
  0
LINE
  5
2BF5C
330
2B8A7
100
AcDbEntity
  8
HATCH
100
AcDbLine
 10
5118.670352243442
 20
1145.910529201946
 30
0.0
 11
5130.67035224345
 21
1125.125919511106
 31
0.0
  0
LINE
  5
2BF5D
330
2B8A7
100
AcDbEntity
  8
HATCH
100
AcDbLine
 10
5376.670352243437
 20
1125.125919511106
 30
0.0
 11
5411.311368394834
 21
1185.125919511142
 31
0.0
  0
LINE
  5
2BF5E
330
2B8A7
100
AcDbEntity
  8
HATCH
100
AcDbLine
 10
5387.311368394818
 20
1185.125919511142
 30
0.0
 11
5399.311368394826
 21
1164.341309820305
 31
0.0
  0
LINE
  5
2BF5F
330
2B8A7
100
AcDbEntity
  8
HATCH
100
AcDbLine
 10
5388.67035224344
 20
1145.910529201946
 30
0.0
 11
5400.67035224345
 21
1125.125919511106
 31
0.0
  0
CIRCLE
  5
2BF60
330
2B8A7
100
AcDbEntity
  8
HATCH
100
AcDbCircle
 10
5425.144678430026
 20
5070.92590678647
 30
0.0
 40
5.0
  0
CIRCLE
  5
2BF61
330
2B8A7
100
AcDbEntity
  8
HATCH
100
AcDbCircle
 10
4825.144678430026
 20
5070.92590678647
 30
0.0
 40
5.0
  0
CIRCLE
  5
2BF62
330
2B8A7
100
AcDbEntity
  8
HATCH
100
AcDbCircle
 10
4975.144678430025
 20
5070.92590678647
 30
0.0
 40
5.0
  0
CIRCLE
  5
2BF63
330
2B8A7
100
AcDbEntity
  8
HATCH
100
AcDbCircle
 10
5125.144678430025
 20
5070.92590678647
 30
0.0
 40
5.0
  0
CIRCLE
  5
2BF64
330
2B8A7
100
AcDbEntity
  8
HATCH
100
AcDbCircle
 10
5275.144678430026
 20
5070.92590678647
 30
0.0
 40
5.0
  0
CIRCLE
  5
2BF65
330
2B8A7
100
AcDbEntity
  8
HATCH
100
AcDbCircle
 10
5575.144678430024
 20
5070.92590678647
 30
0.0
 40
5.0
  0
CIRCLE
  5
2BF66
330
2B8A7
100
AcDbEntity
  8
HATCH
100
AcDbCircle
 10
5725.144678430024
 20
5070.92590678647
 30
0.0
 40
5.0
  0
CIRCLE
  5
2BF67
330
2B8A7
100
AcDbEntity
  8
HATCH
100
AcDbCircle
 10
5875.144678430024
 20
5070.92590678647
 30
0.0
 40
5.0
  0
CIRCLE
  5
2BF68
330
2B8A7
100
AcDbEntity
  8
HATCH
100
AcDbCircle
 10
6025.144678430026
 20
5070.92590678647
 30
0.0
 40
5.0
  0
CIRCLE
  5
2BF69
330
2B8A7
100
AcDbEntity
  8
HATCH
100
AcDbCircle
 10
6175.144678430026
 20
5070.92590678647
 30
0.0
 40
5.0
  0
CIRCLE
  5
2BF6A
330
2B8A7
100
AcDbEntity
  8
HATCH
100
AcDbCircle
 10
6325.144678430026
 20
5070.92590678647
 30
0.0
 40
5.0
  0
CIRCLE
  5
2BF6B
330
2B8A7
100
AcDbEntity
  8
HATCH
100
AcDbCircle
 10
6475.144678430026
 20
5070.92590678647
 30
0.0
 40
5.0
  0
CIRCLE
  5
2BF6C
330
2B8A7
100
AcDbEntity
  8
HATCH
100
AcDbCircle
 10
6625.144678430024
 20
5070.92590678647
 30
0.0
 40
5.0
  0
CIRCLE
  5
2BF6D
330
2B8A7
100
AcDbEntity
  8
HATCH
100
AcDbCircle
 10
6775.144678430024
 20
5070.92590678647
 30
0.0
 40
5.0
  0
CIRCLE
  5
2BF6E
330
2B8A7
100
AcDbEntity
  8
HATCH
100
AcDbCircle
 10
6925.144678430026
 20
5070.92590678647
 30
0.0
 40
5.0
  0
CIRCLE
  5
2BF6F
330
2B8A7
100
AcDbEntity
  8
HATCH
100
AcDbCircle
 10
7075.144678430024
 20
5070.92590678647
 30
0.0
 40
5.0
  0
CIRCLE
  5
2BF70
330
2B8A7
100
AcDbEntity
  8
HATCH
100
AcDbCircle
 10
7225.144678430027
 20
5070.92590678647
 30
0.0
 40
5.0
  0
CIRCLE
  5
2BF71
330
2B8A7
100
AcDbEntity
  8
HATCH
100
AcDbCircle
 10
7375.144678430025
 20
5070.92590678647
 30
0.0
 40
5.0
  0
CIRCLE
  5
2BF72
330
2B8A7
100
AcDbEntity
  8
HATCH
100
AcDbCircle
 10
7525.144678430027
 20
5070.92590678647
 30
0.0
 40
5.0
  0
CIRCLE
  5
2BF73
330
2B8A7
100
AcDbEntity
  8
HATCH
100
AcDbCircle
 10
7675.144678430027
 20
5070.92590678647
 30
0.0
 40
5.0
  0
CIRCLE
  5
2BF74
330
2B8A7
100
AcDbEntity
  8
HATCH
100
AcDbCircle
 10
7825.144678430025
 20
5070.92590678647
 30
0.0
 40
5.0
  0
ARC
  5
2BF75
330
2B8A7
100
AcDbEntity
  8
HATCH
100
AcDbCircle
 10
7825.144678430025
 20
5070.92590678647
 30
0.0
 40
2.5
100
AcDbArc
 50
180.0
 51
0.0
  0
ARC
  5
2BF76
330
2B8A7
100
AcDbEntity
  8
HATCH
100
AcDbCircle
 10
7825.144678430025
 20
5070.92590678647
 30
0.0
 40
2.5
100
AcDbArc
 50
0.0
 51
180.0
  0
ARC
  5
2BF77
330
2B8A7
100
AcDbEntity
  8
HATCH
100
AcDbCircle
 10
7675.144678430027
 20
5070.92590678647
 30
0.0
 40
2.5
100
AcDbArc
 50
180.0
 51
0.0
  0
ARC
  5
2BF78
330
2B8A7
100
AcDbEntity
  8
HATCH
100
AcDbCircle
 10
7675.144678430027
 20
5070.92590678647
 30
0.0
 40
2.5
100
AcDbArc
 50
0.0
 51
180.0
  0
ARC
  5
2BF79
330
2B8A7
100
AcDbEntity
  8
HATCH
100
AcDbCircle
 10
7525.144678430027
 20
5070.92590678647
 30
0.0
 40
2.5
100
AcDbArc
 50
180.0
 51
0.0
  0
ARC
  5
2BF7A
330
2B8A7
100
AcDbEntity
  8
HATCH
100
AcDbCircle
 10
7525.144678430027
 20
5070.92590678647
 30
0.0
 40
2.5
100
AcDbArc
 50
0.0
 51
180.0
  0
ARC
  5
2BF7B
330
2B8A7
100
AcDbEntity
  8
HATCH
100
AcDbCircle
 10
7375.144678430025
 20
5070.92590678647
 30
0.0
 40
2.5
100
AcDbArc
 50
180.0
 51
0.0
  0
ARC
  5
2BF7C
330
2B8A7
100
AcDbEntity
  8
HATCH
100
AcDbCircle
 10
7375.144678430025
 20
5070.92590678647
 30
0.0
 40
2.5
100
AcDbArc
 50
0.0
 51
180.0
  0
ARC
  5
2BF7D
330
2B8A7
100
AcDbEntity
  8
HATCH
100
AcDbCircle
 10
7225.144678430027
 20
5070.92590678647
 30
0.0
 40
2.5
100
AcDbArc
 50
180.0
 51
0.0
  0
ARC
  5
2BF7E
330
2B8A7
100
AcDbEntity
  8
HATCH
100
AcDbCircle
 10
7225.144678430027
 20
5070.92590678647
 30
0.0
 40
2.5
100
AcDbArc
 50
0.0
 51
180.0
  0
ARC
  5
2BF7F
330
2B8A7
100
AcDbEntity
  8
HATCH
100
AcDbCircle
 10
7075.144678430024
 20
5070.92590678647
 30
0.0
 40
2.5
100
AcDbArc
 50
180.0
 51
0.0
  0
ARC
  5
2BF80
330
2B8A7
100
AcDbEntity
  8
HATCH
100
AcDbCircle
 10
7075.144678430024
 20
5070.92590678647
 30
0.0
 40
2.5
100
AcDbArc
 50
0.0
 51
180.0
  0
ARC
  5
2BF81
330
2B8A7
100
AcDbEntity
  8
HATCH
100
AcDbCircle
 10
6925.144678430026
 20
5070.92590678647
 30
0.0
 40
2.5
100
AcDbArc
 50
180.0
 51
0.0
  0
ARC
  5
2BF82
330
2B8A7
100
AcDbEntity
  8
HATCH
100
AcDbCircle
 10
6925.144678430026
 20
5070.92590678647
 30
0.0
 40
2.5
100
AcDbArc
 50
0.0
 51
180.0
  0
ARC
  5
2BF83
330
2B8A7
100
AcDbEntity
  8
HATCH
100
AcDbCircle
 10
6775.144678430024
 20
5070.92590678647
 30
0.0
 40
2.5
100
AcDbArc
 50
180.0
 51
0.0
  0
ARC
  5
2BF84
330
2B8A7
100
AcDbEntity
  8
HATCH
100
AcDbCircle
 10
6775.144678430024
 20
5070.92590678647
 30
0.0
 40
2.5
100
AcDbArc
 50
0.0
 51
180.0
  0
ARC
  5
2BF85
330
2B8A7
100
AcDbEntity
  8
HATCH
100
AcDbCircle
 10
6625.144678430024
 20
5070.92590678647
 30
0.0
 40
2.5
100
AcDbArc
 50
180.0
 51
0.0
  0
ARC
  5
2BF86
330
2B8A7
100
AcDbEntity
  8
HATCH
100
AcDbCircle
 10
6625.144678430024
 20
5070.92590678647
 30
0.0
 40
2.5
100
AcDbArc
 50
0.0
 51
180.0
  0
ARC
  5
2BF87
330
2B8A7
100
AcDbEntity
  8
HATCH
100
AcDbCircle
 10
6475.144678430026
 20
5070.92590678647
 30
0.0
 40
2.5
100
AcDbArc
 50
180.0
 51
0.0
  0
ARC
  5
2BF88
330
2B8A7
100
AcDbEntity
  8
HATCH
100
AcDbCircle
 10
6475.144678430026
 20
5070.92590678647
 30
0.0
 40
2.5
100
AcDbArc
 50
0.0
 51
180.0
  0
ARC
  5
2BF89
330
2B8A7
100
AcDbEntity
  8
HATCH
100
AcDbCircle
 10
6325.144678430026
 20
5070.92590678647
 30
0.0
 40
2.5
100
AcDbArc
 50
180.0
 51
0.0
  0
ARC
  5
2BF8A
330
2B8A7
100
AcDbEntity
  8
HATCH
100
AcDbCircle
 10
6325.144678430026
 20
5070.92590678647
 30
0.0
 40
2.5
100
AcDbArc
 50
0.0
 51
180.0
  0
ARC
  5
2BF8B
330
2B8A7
100
AcDbEntity
  8
HATCH
100
AcDbCircle
 10
6175.144678430026
 20
5070.92590678647
 30
0.0
 40
2.5
100
AcDbArc
 50
180.0
 51
0.0
  0
ARC
  5
2BF8C
330
2B8A7
100
AcDbEntity
  8
HATCH
100
AcDbCircle
 10
6175.144678430026
 20
5070.92590678647
 30
0.0
 40
2.5
100
AcDbArc
 50
0.0
 51
180.0
  0
ARC
  5
2BF8D
330
2B8A7
100
AcDbEntity
  8
HATCH
100
AcDbCircle
 10
6025.144678430026
 20
5070.92590678647
 30
0.0
 40
2.5
100
AcDbArc
 50
180.0
 51
0.0
  0
ARC
  5
2BF8E
330
2B8A7
100
AcDbEntity
  8
HATCH
100
AcDbCircle
 10
6025.144678430026
 20
5070.92590678647
 30
0.0
 40
2.5
100
AcDbArc
 50
0.0
 51
180.0
  0
ARC
  5
2BF8F
330
2B8A7
100
AcDbEntity
  8
HATCH
100
AcDbCircle
 10
5875.144678430024
 20
5070.92590678647
 30
0.0
 40
2.5
100
AcDbArc
 50
180.0
 51
0.0
  0
ARC
  5
2BF90
330
2B8A7
100
AcDbEntity
  8
HATCH
100
AcDbCircle
 10
5875.144678430024
 20
5070.92590678647
 30
0.0
 40
2.5
100
AcDbArc
 50
0.0
 51
180.0
  0
ARC
  5
2BF91
330
2B8A7
100
AcDbEntity
  8
HATCH
100
AcDbCircle
 10
5725.144678430024
 20
5070.92590678647
 30
0.0
 40
2.5
100
AcDbArc
 50
180.0
 51
0.0
  0
ARC
  5
2BF92
330
2B8A7
100
AcDbEntity
  8
HATCH
100
AcDbCircle
 10
5725.144678430024
 20
5070.92590678647
 30
0.0
 40
2.5
100
AcDbArc
 50
0.0
 51
180.0
  0
ARC
  5
2BF93
330
2B8A7
100
AcDbEntity
  8
HATCH
100
AcDbCircle
 10
5575.144678430024
 20
5070.92590678647
 30
0.0
 40
2.5
100
AcDbArc
 50
180.0
 51
0.0
  0
ARC
  5
2BF94
330
2B8A7
100
AcDbEntity
  8
HATCH
100
AcDbCircle
 10
5575.144678430024
 20
5070.92590678647
 30
0.0
 40
2.5
100
AcDbArc
 50
0.0
 51
180.0
  0
ARC
  5
2BF95
330
2B8A7
100
AcDbEntity
  8
HATCH
100
AcDbCircle
 10
5275.144678430026
 20
5070.92590678647
 30
0.0
 40
2.5
100
AcDbArc
 50
180.0
 51
0.0
  0
ARC
  5
2BF96
330
2B8A7
100
AcDbEntity
  8
HATCH
100
AcDbCircle
 10
5275.144678430026
 20
5070.92590678647
 30
0.0
 40
2.5
100
AcDbArc
 50
0.0
 51
180.0
  0
ARC
  5
2BF97
330
2B8A7
100
AcDbEntity
  8
HATCH
100
AcDbCircle
 10
5125.144678430025
 20
5070.92590678647
 30
0.0
 40
2.5
100
AcDbArc
 50
180.0
 51
0.0
  0
ARC
  5
2BF98
330
2B8A7
100
AcDbEntity
  8
HATCH
100
AcDbCircle
 10
5125.144678430025
 20
5070.92590678647
 30
0.0
 40
2.5
100
AcDbArc
 50
0.0
 51
180.0
  0
ARC
  5
2BF99
330
2B8A7
100
AcDbEntity
  8
HATCH
100
AcDbCircle
 10
4975.144678430025
 20
5070.92590678647
 30
0.0
 40
2.5
100
AcDbArc
 50
180.0
 51
0.0
  0
ARC
  5
2BF9A
330
2B8A7
100
AcDbEntity
  8
HATCH
100
AcDbCircle
 10
4975.144678430025
 20
5070.92590678647
 30
0.0
 40
2.5
100
AcDbArc
 50
0.0
 51
180.0
  0
ARC
  5
2BF9B
330
2B8A7
100
AcDbEntity
  8
HATCH
100
AcDbCircle
 10
4825.144678430026
 20
5070.92590678647
 30
0.0
 40
2.5
100
AcDbArc
 50
180.0
 51
0.0
  0
ARC
  5
2BF9C
330
2B8A7
100
AcDbEntity
  8
HATCH
100
AcDbCircle
 10
4825.144678430026
 20
5070.92590678647
 30
0.0
 40
2.5
100
AcDbArc
 50
0.0
 51
180.0
  0
ARC
  5
2BF9D
330
2B8A7
100
AcDbEntity
  8
HATCH
100
AcDbCircle
 10
5425.144678430026
 20
5070.92590678647
 30
0.0
 40
2.5
100
AcDbArc
 50
180.0
 51
0.0
  0
ARC
  5
2BF9E
330
2B8A7
100
AcDbEntity
  8
HATCH
100
AcDbCircle
 10
5425.144678430026
 20
5070.92590678647
 30
0.0
 40
2.5
100
AcDbArc
 50
0.0
 51
180.0
  0
ARC
  5
2BF9F
330
2B8A7
100
AcDbEntity
  8
HATCH
100
AcDbCircle
 10
990.99104892398
 20
1248.27805804051
 30
0.0
 40
2.5
100
AcDbArc
 50
180.0
 51
0.0
  0
ARC
  5
2BFA0
330
2B8A7
100
AcDbEntity
  8
HATCH
100
AcDbCircle
 10
990.99104892398
 20
1248.27805804051
 30
0.0
 40
2.5
100
AcDbArc
 50
0.0
 51
180.0
  0
ARC
  5
2BFA1
330
2B8A7
100
AcDbEntity
  8
HATCH
100
AcDbCircle
 10
1140.991048923979
 20
1248.27805804051
 30
0.0
 40
2.5
100
AcDbArc
 50
180.0
 51
0.0
  0
ARC
  5
2BFA2
330
2B8A7
100
AcDbEntity
  8
HATCH
100
AcDbCircle
 10
1140.991048923979
 20
1248.27805804051
 30
0.0
 40
2.5
100
AcDbArc
 50
0.0
 51
180.0
  0
ARC
  5
2BFA3
330
2B8A7
100
AcDbEntity
  8
HATCH
100
AcDbCircle
 10
1290.991048923979
 20
1248.27805804051
 30
0.0
 40
2.5
100
AcDbArc
 50
180.0
 51
0.0
  0
ARC
  5
2BFA4
330
2B8A7
100
AcDbEntity
  8
HATCH
100
AcDbCircle
 10
1290.991048923979
 20
1248.27805804051
 30
0.0
 40
2.5
100
AcDbArc
 50
0.0
 51
180.0
  0
ARC
  5
2BFA5
330
2B8A7
100
AcDbEntity
  8
HATCH
100
AcDbCircle
 10
1440.99104892398
 20
1248.27805804051
 30
0.0
 40
2.5
100
AcDbArc
 50
180.0
 51
0.0
  0
ARC
  5
2BFA6
330
2B8A7
100
AcDbEntity
  8
HATCH
100
AcDbCircle
 10
1440.99104892398
 20
1248.27805804051
 30
0.0
 40
2.5
100
AcDbArc
 50
0.0
 51
180.0
  0
ARC
  5
2BFA7
330
2B8A7
100
AcDbEntity
  8
HATCH
100
AcDbCircle
 10
1590.99104892398
 20
1248.27805804051
 30
0.0
 40
2.5
100
AcDbArc
 50
180.0
 51
0.0
  0
ARC
  5
2BFA8
330
2B8A7
100
AcDbEntity
  8
HATCH
100
AcDbCircle
 10
1590.99104892398
 20
1248.27805804051
 30
0.0
 40
2.5
100
AcDbArc
 50
0.0
 51
180.0
  0
ARC
  5
2BFA9
330
2B8A7
100
AcDbEntity
  8
HATCH
100
AcDbCircle
 10
1740.99104892398
 20
1248.27805804051
 30
0.0
 40
2.5
100
AcDbArc
 50
180.0
 51
0.0
  0
ARC
  5
2BFAA
330
2B8A7
100
AcDbEntity
  8
HATCH
100
AcDbCircle
 10
1740.99104892398
 20
1248.27805804051
 30
0.0
 40
2.5
100
AcDbArc
 50
0.0
 51
180.0
  0
ARC
  5
2BFAB
330
2B8A7
100
AcDbEntity
  8
HATCH
100
AcDbCircle
 10
1890.99104892398
 20
1248.27805804051
 30
0.0
 40
2.5
100
AcDbArc
 50
180.0
 51
0.0
  0
ARC
  5
2BFAC
330
2B8A7
100
AcDbEntity
  8
HATCH
100
AcDbCircle
 10
1890.99104892398
 20
1248.27805804051
 30
0.0
 40
2.5
100
AcDbArc
 50
0.0
 51
180.0
  0
ARC
  5
2BFAD
330
2B8A7
100
AcDbEntity
  8
HATCH
100
AcDbCircle
 10
2040.99104892398
 20
1248.27805804051
 30
0.0
 40
2.5
100
AcDbArc
 50
180.0
 51
0.0
  0
ARC
  5
2BFAE
330
2B8A7
100
AcDbEntity
  8
HATCH
100
AcDbCircle
 10
2040.99104892398
 20
1248.27805804051
 30
0.0
 40
2.5
100
AcDbArc
 50
0.0
 51
180.0
  0
ARC
  5
2BFAF
330
2B8A7
100
AcDbEntity
  8
HATCH
100
AcDbCircle
 10
2190.99104892398
 20
1248.27805804051
 30
0.0
 40
2.5
100
AcDbArc
 50
180.0
 51
0.0
  0
ARC
  5
2BFB0
330
2B8A7
100
AcDbEntity
  8
HATCH
100
AcDbCircle
 10
2190.99104892398
 20
1248.27805804051
 30
0.0
 40
2.5
100
AcDbArc
 50
0.0
 51
180.0
  0
ARC
  5
2BFB1
330
2B8A7
100
AcDbEntity
  8
HATCH
100
AcDbCircle
 10
2340.99104892398
 20
1248.27805804051
 30
0.0
 40
2.5
100
AcDbArc
 50
180.0
 51
0.0
  0
ARC
  5
2BFB2
330
2B8A7
100
AcDbEntity
  8
HATCH
100
AcDbCircle
 10
2340.99104892398
 20
1248.27805804051
 30
0.0
 40
2.5
100
AcDbArc
 50
0.0
 51
180.0
  0
ARC
  5
2BFB3
330
2B8A7
100
AcDbEntity
  8
HATCH
100
AcDbCircle
 10
2490.991048923981
 20
1248.27805804051
 30
0.0
 40
2.5
100
AcDbArc
 50
180.0
 51
0.0
  0
ARC
  5
2BFB4
330
2B8A7
100
AcDbEntity
  8
HATCH
100
AcDbCircle
 10
2490.991048923981
 20
1248.27805804051
 30
0.0
 40
2.5
100
AcDbArc
 50
0.0
 51
180.0
  0
ARC
  5
2BFB5
330
2B8A7
100
AcDbEntity
  8
HATCH
100
AcDbCircle
 10
2640.99104892398
 20
1248.27805804051
 30
0.0
 40
2.5
100
AcDbArc
 50
180.0
 51
0.0
  0
ARC
  5
2BFB6
330
2B8A7
100
AcDbEntity
  8
HATCH
100
AcDbCircle
 10
2640.99104892398
 20
1248.27805804051
 30
0.0
 40
2.5
100
AcDbArc
 50
0.0
 51
180.0
  0
ARC
  5
2BFB7
330
2B8A7
100
AcDbEntity
  8
HATCH
100
AcDbCircle
 10
2790.99104892398
 20
1248.27805804051
 30
0.0
 40
2.5
100
AcDbArc
 50
180.0
 51
0.0
  0
ARC
  5
2BFB8
330
2B8A7
100
AcDbEntity
  8
HATCH
100
AcDbCircle
 10
2790.99104892398
 20
1248.27805804051
 30
0.0
 40
2.5
100
AcDbArc
 50
0.0
 51
180.0
  0
ARC
  5
2BFB9
330
2B8A7
100
AcDbEntity
  8
HATCH
100
AcDbCircle
 10
2940.99104892398
 20
1248.27805804051
 30
0.0
 40
2.5
100
AcDbArc
 50
180.0
 51
0.0
  0
ARC
  5
2BFBA
330
2B8A7
100
AcDbEntity
  8
HATCH
100
AcDbCircle
 10
2940.99104892398
 20
1248.27805804051
 30
0.0
 40
2.5
100
AcDbArc
 50
0.0
 51
180.0
  0
ARC
  5
2BFBB
330
2B8A7
100
AcDbEntity
  8
HATCH
100
AcDbCircle
 10
3090.99104892398
 20
1248.27805804051
 30
0.0
 40
2.5
100
AcDbArc
 50
180.0
 51
0.0
  0
ARC
  5
2BFBC
330
2B8A7
100
AcDbEntity
  8
HATCH
100
AcDbCircle
 10
3090.99104892398
 20
1248.27805804051
 30
0.0
 40
2.5
100
AcDbArc
 50
0.0
 51
180.0
  0
ARC
  5
2BFBD
330
2B8A7
100
AcDbEntity
  8
HATCH
100
AcDbCircle
 10
3240.99104892398
 20
1248.27805804051
 30
0.0
 40
2.5
100
AcDbArc
 50
180.0
 51
0.0
  0
ARC
  5
2BFBE
330
2B8A7
100
AcDbEntity
  8
HATCH
100
AcDbCircle
 10
3240.99104892398
 20
1248.27805804051
 30
0.0
 40
2.5
100
AcDbArc
 50
0.0
 51
180.0
  0
ARC
  5
2BFBF
330
2B8A7
100
AcDbEntity
  8
HATCH
100
AcDbCircle
 10
3390.99104892398
 20
1248.27805804051
 30
0.0
 40
2.5
100
AcDbArc
 50
180.0
 51
0.0
  0
ARC
  5
2BFC0
330
2B8A7
100
AcDbEntity
  8
HATCH
100
AcDbCircle
 10
3390.99104892398
 20
1248.27805804051
 30
0.0
 40
2.5
100
AcDbArc
 50
0.0
 51
180.0
  0
ARC
  5
2BFC1
330
2B8A7
100
AcDbEntity
  8
HATCH
100
AcDbCircle
 10
3540.991048923979
 20
1248.27805804051
 30
0.0
 40
2.5
100
AcDbArc
 50
180.0
 51
0.0
  0
ARC
  5
2BFC2
330
2B8A7
100
AcDbEntity
  8
HATCH
100
AcDbCircle
 10
3540.991048923979
 20
1248.27805804051
 30
0.0
 40
2.5
100
AcDbArc
 50
0.0
 51
180.0
  0
LINE
  5
2BFC3
330
2B8A7
100
AcDbEntity
  8
KETA_KANAGU
100
AcDbLine
 10
3598.845976975709
 20
1275.125919511107
 30
0.0
 11
4023.845976975709
 21
1275.125919511107
 31
0.0
  0
LINE
  5
2BFC4
330
2B8A7
100
AcDbEntity
  8
SUNPOU
100
AcDbLine
 10
3948.845976975709
 20
1225.125919511111
 30
0.0
 11
3933.845976975709
 21
1225.125919511111
 31
0.0
  0
LINE
  5
2BFC5
330
2B8A7
100
AcDbEntity
  8
SUNPOU
100
AcDbLine
 10
3978.845976975708
 20
1290.125919511106
 30
0.0
 11
3978.845976975708
 21
1305.125919511107
 31
0.0
  0
LINE
  5
2BFC6
330
2B8A7
100
AcDbEntity
  8
SUNPOU
100
AcDbLine
 10
3978.845976975708
 20
1210.125919511111
 30
0.0
 11
3978.845976975708
 21
1007.983062368253
 31
0.0
  0
LINE
  5
2BFC7
330
2B8A7
100
AcDbEntity
  8
SUNPOU
100
AcDbLine
 10
3978.845976975708
 20
1275.125919511107
 30
0.0
 11
3978.845976975708
 21
1225.125919511111
 31
0.0
  0
LINE
  5
2BFC8
330
2B8A7
100
AcDbEntity
  8
KISO
100
AcDbLine
 10
968.8459769757107
 20
1275.125919511107
 30
0.0
 11
3568.845976975709
 21
1275.125919511107
 31
0.0
  0
LINE
  5
2BFC9
330
2B8A7
100
AcDbEntity
  8
KISO
100
AcDbLine
 10
3568.845976975709
 20
1275.125919511107
 30
0.0
 11
3568.845976975709
 21
1225.125919511111
 31
0.0
  0
LINE
  5
2BFCA
330
2B8A7
100
AcDbEntity
  8
KISO
100
AcDbLine
 10
3568.845976975709
 20
1225.125919511111
 30
0.0
 11
968.8459769757107
 21
1225.125919511109
 31
0.0
  0
LINE
  5
2BFCB
330
2B8A7
100
AcDbEntity
  8
KISO
100
AcDbLine
 10
968.8459769757107
 20
1225.125919511109
 30
0.0
 11
968.8459769757107
 21
1275.125919511107
 31
0.0
  0
ARC
  5
2BFCC
330
2B8A7
100
AcDbEntity
  8
ケラバキャップ
100
AcDbCircle
 10
3337.230200998084
 20
3240.783406379697
 30
0.0
 40
50.00000000000827
100
AcDbArc
 50
354.2642619770646
 51
12.91265869845801
  0
LINE
  5
2BFCD
330
2B8A7
100
AcDbEntity
  8
ケラバキャップ
100
AcDbLine
 10
3386.979872302296
 20
3235.786386755606
 30
0.0
 11
3377.571433667576
 21
3142.117206969436
 31
0.0
  0
ARC
  5
2BFCE
330
2B8A7
100
AcDbEntity
  8
ケラバキャップ
100
AcDbCircle
 10
3374.586453389324
 20
3142.417028146882
 30
0.0
 40
3.000000000000472
100
AcDbArc
 50
264.2642619770629
 51
354.2642619770716
  0
LINE
  5
2BFCF
330
2B8A7
100
AcDbEntity
  8
ケラバキャップ
100
AcDbLine
 10
3374.286632211878
 20
3139.432047868629
 30
0.0
 11
3349.411796559771
 21
3141.930557680671
 31
0.0
  0
LINE
  5
2BFD0
330
2B8A7
100
AcDbEntity
  8
ケラバキャップ
100
AcDbLine
 10
3349.411796559771
 20
3141.930557680671
 30
0.0
 11
3362.753838956074
 21
3274.7621800629
 31
0.0
  0
LINE
  5
2BFD1
330
2B8A7
100
AcDbEntity
  8
ケラバキャップ
100
AcDbLine
 10
3362.753838956074
 20
3274.7621800629
 30
0.0
 11
3377.589525882604
 21
3273.272035168167
 31
0.0
  0
ARC
  5
2BFD2
330
2B8A7
100
AcDbEntity
  8
ケラバキャップ
100
AcDbCircle
 10
3377.089823920193
 20
3268.297068037745
 30
0.0
 40
5.00000000000219
100
AcDbArc
 50
12.91265869844529
 51
84.26426197705053
  0
LINE
  5
2BFD3
330
2B8A7
100
AcDbEntity
  8
ケラバキャップ
100
AcDbLine
 10
3381.963383152303
 20
3269.414395389584
 30
0.0
 11
3385.96579331914
 21
3251.956679898081
 31
0.0
  0
LINE
  5
2BFD4
330
2B8A7
100
AcDbEntity
  8
BOLT
100
AcDbLine
 10
3049.020979912916
 20
3306.281897642463
 30
0.0
 11
3051.128384430668
 21
3306.069967993595
 31
0.0
  0
LINE
  5
2BFD5
330
2B8A7
100
AcDbEntity
  8
BOLT
100
AcDbLine
 10
3051.128384430668
 20
3306.069967993595
 30
0.0
 11
3051.228444037829
 21
3307.064949438155
 31
0.0
  0
LINE
  5
2BFD6
330
2B8A7
100
AcDbEntity
  8
BOLT
100
AcDbLine
 10
3051.228444037829
 20
3307.064949438155
 30
0.0
 11
3049.735971870993
 21
3307.215038848895
 31
0.0
  0
LINE
  5
2BFD7
330
2B8A7
100
AcDbEntity
  8
BOLT
100
AcDbLine
 10
3049.735971870993
 20
3307.215038848895
 30
0.0
 11
3048.146247410515
 21
3311.395083841447
 31
0.0
  0
LINE
  5
2BFD8
330
2B8A7
100
AcDbEntity
  8
BOLT
100
AcDbLine
 10
3048.146247410515
 20
3311.395083841447
 30
0.0
 11
3035.211488631256
 21
3312.69585873452
 31
0.0
  0
LINE
  5
2BFD9
330
2B8A7
100
AcDbEntity
  8
BOLT
100
AcDbLine
 10
3035.211488631256
 20
3312.69585873452
 30
0.0
 11
3032.821287313499
 21
3308.916052170605
 31
0.0
  0
LINE
  5
2BFDA
330
2B8A7
100
AcDbEntity
  8
BOLT
100
AcDbLine
 10
3032.821287313499
 20
3308.916052170605
 30
0.0
 11
3031.328815146663
 21
3309.066141581345
 31
0.0
  0
LINE
  5
2BFDB
330
2B8A7
100
AcDbEntity
  8
BOLT
100
AcDbLine
 10
3031.328815146663
 20
3309.066141581345
 30
0.0
 11
3031.228755539501
 21
3308.071160136787
 31
0.0
  0
LINE
  5
2BFDC
330
2B8A7
100
AcDbEntity
  8
BOLT
100
AcDbLine
 10
3031.228755539501
 20
3308.071160136787
 30
0.0
 11
3033.336160057255
 21
3307.859230487923
 31
0.0
  0
LINE
  5
2BFDD
330
2B8A7
100
AcDbEntity
  8
BOLT
100
AcDbLine
 10
3033.135282125491
 20
3305.861722998154
 30
0.0
 11
3048.820101981154
 21
3304.284390152689
 31
0.0
  0
LINE
  5
2BFDE
330
2B8A7
100
AcDbEntity
  8
BOLT
100
AcDbLine
 10
3048.820101981154
 20
3304.284390152689
 30
0.0
 11
3049.020979912916
 21
3306.281897642463
 31
0.0
  0
LINE
  5
2BFDF
330
2B8A7
100
AcDbEntity
  8
BOLT
100
AcDbLine
 10
3049.020979912916
 20
3306.281897642463
 30
0.0
 11
3047.431255452437
 21
3310.461942635015
 31
0.0
  0
LINE
  5
2BFE0
330
2B8A7
100
AcDbEntity
  8
BOLT
100
AcDbLine
 10
3047.431255452437
 20
3310.461942635015
 30
0.0
 11
3035.726361375012
 21
3311.639037051838
 31
0.0
  0
LINE
  5
2BFE1
330
2B8A7
100
AcDbEntity
  8
BOLT
100
AcDbLine
 10
3035.726361375012
 20
3311.639037051838
 30
0.0
 11
3033.336160057255
 21
3307.859230487923
 31
0.0
  0
LINE
  5
2BFE2
330
2B8A7
100
AcDbEntity
  8
BOLT
100
AcDbLine
 10
3033.336160057255
 20
3307.859230487923
 30
0.0
 11
3033.135282125491
 21
3305.861722998154
 31
0.0
  0
LINE
  5
2BFE3
330
2B8A7
100
AcDbEntity
  8
0
 62
     0
100
AcDbLine
 10
3040.010566326378
 20
3305.170314891952
 30
0.0
 11
3035.502839802362
 21
3311.285565442201
 31
0.0
  0
LINE
  5
2BFE4
330
2B8A7
100
AcDbEntity
  8
0
 62
     0
100
AcDbLine
 10
3045.042259364173
 20
3304.664306230725
 30
0.0
 11
3040.235221815424
 21
3311.185606681948
 31
0.0
  0
LINE
  5
2BFE5
330
2B8A7
100
AcDbEntity
  8
0
 62
     0
100
AcDbLine
 10
3048.959467467721
 20
3305.670224828414
 30
0.0
 11
3045.26691485322
 21
3310.679598020719
 31
0.0
  0
LINE
  5
2BFE6
330
2B8A7
100
AcDbEntity
  8
0
 62
     0
100
AcDbLine
 10
3034.978873288581
 20
3305.676323553181
 30
0.0
 11
3033.351688657189
 21
3307.883787040481
 31
0.0
  0
LINE
  5
2BFE7
330
2B8A7
100
AcDbEntity
  8
0
 62
     0
100
AcDbLine
 10
3038.543677348865
 20
3305.317831547302
 30
0.0
 11
3045.751430479166
 21
3310.63087304855
 31
0.0
  0
LINE
  5
2BFE8
330
2B8A7
100
AcDbEntity
  8
0
 62
     0
100
AcDbLine
 10
3044.105022285376
 20
3304.758558816472
 30
0.0
 11
3048.397089407208
 21
3307.922364559009
 31
0.0
  0
LINE
  5
2BFE9
330
2B8A7
100
AcDbEntity
  8
0
 62
     0
100
AcDbLine
 10
3033.149198521588
 20
3306.000106071825
 30
0.0
 11
3040.190085542656
 21
3311.190145779381
 31
0.0
  0
LINE
  5
2BFEA
330
2B8A7
100
AcDbEntity
  8
BOLT
100
AcDbLine
 10
1706.412580855675
 20
3441.219118856178
 30
0.0
 11
1704.305150960645
 21
3441.430796004302
 31
0.0
  0
LINE
  5
2BFEB
330
2B8A7
100
AcDbEntity
  8
BOLT
100
AcDbLine
 10
1704.305150960645
 20
3441.430796004302
 30
0.0
 11
1704.405091353128
 21
3442.425789430386
 31
0.0
  0
LINE
  5
2BFEC
330
2B8A7
100
AcDbEntity
  8
BOLT
100
AcDbLine
 10
1704.405091353128
 20
3442.425789430386
 30
0.0
 11
1705.897581492252
 21
3442.275878841665
 31
0.0
  0
LINE
  5
2BFED
330
2B8A7
100
AcDbEntity
  8
BOLT
100
AcDbLine
 10
1705.897581492252
 20
3442.275878841665
 30
0.0
 11
1708.287329914347
 21
3446.055971761035
 31
0.0
  0
LINE
  5
2BFEE
330
2B8A7
100
AcDbEntity
  8
BOLT
100
AcDbLine
 10
1708.287329914347
 20
3446.055971761035
 30
0.0
 11
1721.222244453443
 21
3444.756746658776
 31
0.0
  0
LINE
  5
2BFEF
330
2B8A7
100
AcDbEntity
  8
BOLT
100
AcDbLine
 10
1721.222244453443
 20
3444.756746658776
 30
0.0
 11
1722.812469735684
 21
3440.576892169475
 31
0.0
  0
LINE
  5
2BFF0
330
2B8A7
100
AcDbEntity
  8
BOLT
100
AcDbLine
 10
1722.812469735684
 20
3440.576892169475
 30
0.0
 11
1724.304959874812
 21
3440.426981580753
 31
0.0
  0
LINE
  5
2BFF1
330
2B8A7
100
AcDbEntity
  8
BOLT
100
AcDbLine
 10
1724.304959874812
 20
3440.426981580753
 30
0.0
 11
1724.205019482329
 21
3439.431988154668
 31
0.0
  0
LINE
  5
2BFF2
330
2B8A7
100
AcDbEntity
  8
BOLT
100
AcDbLine
 10
1724.205019482329
 20
3439.431988154668
 30
0.0
 11
1722.097589587298
 21
3439.643665302793
 31
0.0
  0
LINE
  5
2BFF3
330
2B8A7
100
AcDbEntity
  8
BOLT
100
AcDbLine
 10
1721.896950988855
 20
3437.64613375912
 30
0.0
 11
1706.211942257233
 21
3439.221587312501
 31
0.0
  0
LINE
  5
2BFF4
330
2B8A7
100
AcDbEntity
  8
BOLT
100
AcDbLine
 10
1706.211942257233
 20
3439.221587312501
 30
0.0
 11
1706.412580855675
 21
3441.219118856178
 31
0.0
  0
LINE
  5
2BFF5
330
2B8A7
100
AcDbEntity
  8
BOLT
100
AcDbLine
 10
1706.412580855675
 20
3441.219118856178
 30
0.0
 11
1708.802329277769
 21
3444.999211775551
 31
0.0
  0
LINE
  5
2BFF6
330
2B8A7
100
AcDbEntity
  8
BOLT
100
AcDbLine
 10
1708.802329277769
 20
3444.999211775551
 30
0.0
 11
1720.507364305057
 21
3443.823519792093
 31
0.0
  0
LINE
  5
2BFF7
330
2B8A7
100
AcDbEntity
  8
BOLT
100
AcDbLine
 10
1720.507364305057
 20
3443.823519792093
 30
0.0
 11
1722.097589587298
 21
3439.643665302793
 31
0.0
  0
LINE
  5
2BFF8
330
2B8A7
100
AcDbEntity
  8
BOLT
100
AcDbLine
 10
1722.097589587298
 20
3439.643665302793
 30
0.0
 11
1721.896950988855
 21
3437.64613375912
 31
0.0
  0
LINE
  5
2BFF9
330
2B8A7
100
AcDbEntity
  8
0
 62
     0
100
AcDbLine
 10
1715.02158399607
 20
3438.336718096329
 30
0.0
 11
1720.656075484057
 21
3443.432637383311
 31
0.0
  0
LINE
  5
2BFFA
330
2B8A7
100
AcDbEntity
  8
0
 62
     0
100
AcDbLine
 10
1709.989830366833
 20
3438.842123880321
 30
0.0
 11
1715.998449569119
 21
3444.27640992838
 31
0.0
  0
LINE
  5
2BFFB
330
2B8A7
100
AcDbEntity
  8
0
 62
     0
100
AcDbLine
 10
1706.351141698847
 20
3440.607438676369
 30
0.0
 11
1710.966695939883
 21
3444.781815712372
 31
0.0
  0
LINE
  5
2BFFC
330
2B8A7
100
AcDbEntity
  8
0
 62
     0
100
AcDbLine
 10
1720.053337625308
 20
3437.831312312335
 30
0.0
 11
1722.087258251621
 21
3439.670820876669
 31
0.0
  0
LINE
  5
2BFFD
330
2B8A7
100
AcDbEntity
  8
0
 62
     0
100
AcDbLine
 10
1716.488490637799
 20
3438.189377197719
 30
0.0
 11
1710.48217447942
 21
3444.830482631827
 31
0.0
  0
LINE
  5
2BFFE
330
2B8A7
100
AcDbEntity
  8
0
 62
     0
100
AcDbLine
 10
1710.9270787318
 20
3438.747983590554
 30
0.0
 11
1707.35044234586
 21
3442.70262379133
 31
0.0
  0
LINE
  5
2BFFF
330
2B8A7
100
AcDbEntity
  8
0
 62
     0
100
AcDbLine
 10
1721.910850804643
 20
3437.784518499177
 30
0.0
 11
1716.043586385419
 21
3444.271876238991
 31
0.0
  0
LINE
  5
2C000
330
2B8A7
100
AcDbEntity
  8
YANE
100
AcDbLine
 10
7425.143330202074
 20
3269.681097841782
 30
0.0
 11
5479.931182207622
 21
3465.064565143409
 31
0.0
  0
LINE
  5
2C001
330
2B8A7
100
AcDbEntity
  8
YANE
100
AcDbLine
 10
5479.931182207622
 20
3465.064565143409
 30
0.0
 11
5473.385086500074
 21
3399.892495734898
 31
0.0
  0
LINE
  5
2C002
330
2B8A7
100
AcDbEntity
  8
YANE
100
AcDbLine
 10
5473.385086500074
 20
3399.892495734898
 30
0.0
 11
7418.597234494533
 21
3204.509028433275
 31
0.0
  0
LINE
  5
2C003
330
2B8A7
100
AcDbEntity
  8
YANE
100
AcDbLine
 10
7418.597234494533
 20
3204.509028433275
 30
0.0
 11
7425.143330202074
 21
3269.681097841782
 31
0.0
  0
LINE
  5
2C004
330
2B8A7
100
AcDbEntity
  8
BOLT
100
AcDbLine
 10
7096.845355180587
 20
3306.281897642463
 30
0.0
 11
7098.952759698338
 21
3306.069967993595
 31
0.0
  0
LINE
  5
2C005
330
2B8A7
100
AcDbEntity
  8
BOLT
100
AcDbLine
 10
7098.952759698338
 20
3306.069967993595
 30
0.0
 11
7099.052819305498
 21
3307.064949438155
 31
0.0
  0
LINE
  5
2C006
330
2B8A7
100
AcDbEntity
  8
BOLT
100
AcDbLine
 10
7099.052819305498
 20
3307.064949438155
 30
0.0
 11
7097.560347138665
 21
3307.215038848895
 31
0.0
  0
LINE
  5
2C007
330
2B8A7
100
AcDbEntity
  8
BOLT
100
AcDbLine
 10
7097.560347138665
 20
3307.215038848895
 30
0.0
 11
7095.970622678184
 21
3311.395083841447
 31
0.0
  0
LINE
  5
2C008
330
2B8A7
100
AcDbEntity
  8
BOLT
100
AcDbLine
 10
7095.970622678184
 20
3311.395083841447
 30
0.0
 11
7083.035863898928
 21
3312.69585873452
 31
0.0
  0
LINE
  5
2C009
330
2B8A7
100
AcDbEntity
  8
BOLT
100
AcDbLine
 10
7083.035863898928
 20
3312.69585873452
 30
0.0
 11
7080.64566258117
 21
3308.916052170605
 31
0.0
  0
LINE
  5
2C00A
330
2B8A7
100
AcDbEntity
  8
BOLT
100
AcDbLine
 10
7080.64566258117
 20
3308.916052170605
 30
0.0
 11
7079.153190414332
 21
3309.066141581345
 31
0.0
  0
LINE
  5
2C00B
330
2B8A7
100
AcDbEntity
  8
BOLT
100
AcDbLine
 10
7079.153190414332
 20
3309.066141581345
 30
0.0
 11
7079.053130807172
 21
3308.071160136787
 31
0.0
  0
LINE
  5
2C00C
330
2B8A7
100
AcDbEntity
  8
BOLT
100
AcDbLine
 10
7079.053130807172
 20
3308.071160136787
 30
0.0
 11
7081.160535324925
 21
3307.859230487923
 31
0.0
  0
LINE
  5
2C00D
330
2B8A7
100
AcDbEntity
  8
BOLT
100
AcDbLine
 10
7080.959657393163
 20
3305.861722998154
 30
0.0
 11
7096.644477248824
 21
3304.284390152689
 31
0.0
  0
LINE
  5
2C00E
330
2B8A7
100
AcDbEntity
  8
BOLT
100
AcDbLine
 10
7096.644477248824
 20
3304.284390152689
 30
0.0
 11
7096.845355180587
 21
3306.281897642463
 31
0.0
  0
LINE
  5
2C00F
330
2B8A7
100
AcDbEntity
  8
BOLT
100
AcDbLine
 10
7096.845355180587
 20
3306.281897642463
 30
0.0
 11
7095.255630720108
 21
3310.461942635015
 31
0.0
  0
LINE
  5
2C010
330
2B8A7
100
AcDbEntity
  8
BOLT
100
AcDbLine
 10
7095.255630720108
 20
3310.461942635015
 30
0.0
 11
7083.550736642682
 21
3311.639037051838
 31
0.0
  0
LINE
  5
2C011
330
2B8A7
100
AcDbEntity
  8
BOLT
100
AcDbLine
 10
7083.550736642682
 20
3311.639037051838
 30
0.0
 11
7081.160535324925
 21
3307.859230487923
 31
0.0
  0
LINE
  5
2C012
330
2B8A7
100
AcDbEntity
  8
BOLT
100
AcDbLine
 10
7081.160535324925
 20
3307.859230487923
 30
0.0
 11
7080.959657393163
 21
3305.861722998154
 31
0.0
  0
LINE
  5
2C013
330
2B8A7
100
AcDbEntity
  8
0
 62
     0
100
AcDbLine
 10
7087.834941594048
 20
3305.170314891952
 30
0.0
 11
7083.327215070031
 21
3311.285565442201
 31
0.0
  0
LINE
  5
2C014
330
2B8A7
100
AcDbEntity
  8
0
 62
     0
100
AcDbLine
 10
7092.866634631843
 20
3304.664306230725
 30
0.0
 11
7088.059597083095
 21
3311.185606681948
 31
0.0
  0
LINE
  5
2C015
330
2B8A7
100
AcDbEntity
  8
0
 62
     0
100
AcDbLine
 10
7096.783842735391
 20
3305.670224828414
 30
0.0
 11
7093.09129012089
 21
3310.679598020719
 31
0.0
  0
LINE
  5
2C016
330
2B8A7
100
AcDbEntity
  8
0
 62
     0
100
AcDbLine
 10
7082.803248556253
 20
3305.676323553181
 30
0.0
 11
7081.176063924857
 21
3307.883787040481
 31
0.0
  0
LINE
  5
2C017
330
2B8A7
100
AcDbEntity
  8
0
 62
     0
100
AcDbLine
 10
7086.368052616535
 20
3305.317831547302
 30
0.0
 11
7093.575805746836
 21
3310.63087304855
 31
0.0
  0
LINE
  5
2C018
330
2B8A7
100
AcDbEntity
  8
0
 62
     0
100
AcDbLine
 10
7091.929397553045
 20
3304.758558816472
 30
0.0
 11
7096.221464674878
 21
3307.922364559009
 31
0.0
  0
LINE
  5
2C019
330
2B8A7
100
AcDbEntity
  8
0
 62
     0
100
AcDbLine
 10
7080.973573789258
 20
3306.000106071825
 30
0.0
 11
7088.014460810325
 21
3311.190145779381
 31
0.0
  0
LINE
  5
2C01A
330
2B8A7
100
AcDbEntity
  8
BOLT
100
AcDbLine
 10
5754.236956123346
 20
3441.219118856178
 30
0.0
 11
5752.129526228316
 21
3441.430796004302
 31
0.0
  0
LINE
  5
2C01B
330
2B8A7
100
AcDbEntity
  8
BOLT
100
AcDbLine
 10
5752.129526228316
 20
3441.430796004302
 30
0.0
 11
5752.2294666208
 21
3442.425789430386
 31
0.0
  0
LINE
  5
2C01C
330
2B8A7
100
AcDbEntity
  8
BOLT
100
AcDbLine
 10
5752.2294666208
 20
3442.425789430386
 30
0.0
 11
5753.721956759923
 21
3442.275878841665
 31
0.0
  0
LINE
  5
2C01D
330
2B8A7
100
AcDbEntity
  8
BOLT
100
AcDbLine
 10
5753.721956759923
 20
3442.275878841665
 30
0.0
 11
5756.111705182018
 21
3446.055971761035
 31
0.0
  0
LINE
  5
2C01E
330
2B8A7
100
AcDbEntity
  8
BOLT
100
AcDbLine
 10
5756.111705182018
 20
3446.055971761035
 30
0.0
 11
5769.046619721112
 21
3444.756746658776
 31
0.0
  0
LINE
  5
2C01F
330
2B8A7
100
AcDbEntity
  8
BOLT
100
AcDbLine
 10
5769.046619721112
 20
3444.756746658776
 30
0.0
 11
5770.636845003354
 21
3440.576892169475
 31
0.0
  0
LINE
  5
2C020
330
2B8A7
100
AcDbEntity
  8
BOLT
100
AcDbLine
 10
5770.636845003354
 20
3440.576892169475
 30
0.0
 11
5772.129335142482
 21
3440.426981580753
 31
0.0
  0
LINE
  5
2C021
330
2B8A7
100
AcDbEntity
  8
BOLT
100
AcDbLine
 10
5772.129335142482
 20
3440.426981580753
 30
0.0
 11
5772.029394749999
 21
3439.431988154668
 31
0.0
  0
LINE
  5
2C022
330
2B8A7
100
AcDbEntity
  8
BOLT
100
AcDbLine
 10
5772.029394749999
 20
3439.431988154668
 30
0.0
 11
5769.92196485497
 21
3439.643665302793
 31
0.0
  0
LINE
  5
2C023
330
2B8A7
100
AcDbEntity
  8
BOLT
100
AcDbLine
 10
5769.721326256526
 20
3437.64613375912
 30
0.0
 11
5754.036317524904
 21
3439.221587312501
 31
0.0
  0
LINE
  5
2C024
330
2B8A7
100
AcDbEntity
  8
BOLT
100
AcDbLine
 10
5754.036317524904
 20
3439.221587312501
 30
0.0
 11
5754.236956123346
 21
3441.219118856178
 31
0.0
  0
LINE
  5
2C025
330
2B8A7
100
AcDbEntity
  8
BOLT
100
AcDbLine
 10
5754.236956123346
 20
3441.219118856178
 30
0.0
 11
5756.626704545439
 21
3444.999211775551
 31
0.0
  0
LINE
  5
2C026
330
2B8A7
100
AcDbEntity
  8
BOLT
100
AcDbLine
 10
5756.626704545439
 20
3444.999211775551
 30
0.0
 11
5768.331739572727
 21
3443.823519792093
 31
0.0
  0
LINE
  5
2C027
330
2B8A7
100
AcDbEntity
  8
BOLT
100
AcDbLine
 10
5768.331739572727
 20
3443.823519792093
 30
0.0
 11
5769.92196485497
 21
3439.643665302793
 31
0.0
  0
LINE
  5
2C028
330
2B8A7
100
AcDbEntity
  8
BOLT
100
AcDbLine
 10
5769.92196485497
 20
3439.643665302793
 30
0.0
 11
5769.721326256526
 21
3437.64613375912
 31
0.0
  0
LINE
  5
2C029
330
2B8A7
100
AcDbEntity
  8
0
 62
     0
100
AcDbLine
 10
5762.845959263739
 20
3438.336718096329
 30
0.0
 11
5768.480450751728
 21
3443.432637383311
 31
0.0
  0
LINE
  5
2C02A
330
2B8A7
100
AcDbEntity
  8
0
 62
     0
100
AcDbLine
 10
5757.814205634502
 20
3438.842123880321
 30
0.0
 11
5763.822824836792
 21
3444.27640992838
 31
0.0
  0
LINE
  5
2C02B
330
2B8A7
100
AcDbEntity
  8
0
 62
     0
100
AcDbLine
 10
5754.175516966519
 20
3440.607438676369
 30
0.0
 11
5758.791071207553
 21
3444.781815712372
 31
0.0
  0
LINE
  5
2C02C
330
2B8A7
100
AcDbEntity
  8
0
 62
     0
100
AcDbLine
 10
5767.877712892978
 20
3437.831312312335
 30
0.0
 11
5769.911633519291
 21
3439.670820876669
 31
0.0
  0
LINE
  5
2C02D
330
2B8A7
100
AcDbEntity
  8
0
 62
     0
100
AcDbLine
 10
5764.31286590547
 20
3438.189377197719
 30
0.0
 11
5758.306549747089
 21
3444.830482631827
 31
0.0
  0
LINE
  5
2C02E
330
2B8A7
100
AcDbEntity
  8
0
 62
     0
100
AcDbLine
 10
5758.751453999472
 20
3438.747983590554
 30
0.0
 11
5755.17481761353
 21
3442.70262379133
 31
0.0
  0
LINE
  5
2C02F
330
2B8A7
100
AcDbEntity
  8
0
 62
     0
100
AcDbLine
 10
5769.735226072313
 20
3437.784518499177
 30
0.0
 11
5763.86796165309
 21
3444.271876238991
 31
0.0
  0
LINE
  5
2C030
330
2B8A7
100
AcDbEntity
  8
U1
100
AcDbLine
 10
7565.800000000002
 20
7098.270170603566
 30
0.0
 11
7565.800000000002
 21
6783.285412400179
 31
0.0
  0
LINE
  5
2C031
330
2B8A7
100
AcDbEntity
  8
U1
100
AcDbLine
 10
7496.2
 20
7098.270170603566
 30
0.0
 11
7496.2
 21
6783.285412400179
 31
0.0
  0
LINE
  5
2C032
330
2B8A7
100
AcDbEntity
  8
U1
100
AcDbLine
 10
7496.2
 20
6783.285412400179
 30
0.0
 11
7509.199999999999
 21
6783.285412400179
 31
0.0
  0
LINE
  5
2C033
330
2B8A7
100
AcDbEntity
  8
U1
100
AcDbLine
 10
7509.199999999999
 20
6783.285412400179
 30
0.0
 11
7509.199999999999
 21
7102.919073359314
 31
0.0
  0
LINE
  5
2C034
330
2B8A7
100
AcDbEntity
  8
U1
100
AcDbLine
 10
7565.800000000002
 20
6783.285412400179
 30
0.0
 11
7552.800000000002
 21
6783.285412400179
 31
0.0
  0
LINE
  5
2C035
330
2B8A7
100
AcDbEntity
  8
U1
100
AcDbLine
 10
7552.800000000002
 20
6783.285412400179
 30
0.0
 11
7552.800000000002
 21
7102.919073359314
 31
0.0
  0
LINE
  5
2C036
330
2B8A7
100
AcDbEntity
  8
U1
100
AcDbLine
 10
5115.800000000007
 20
7098.270170603566
 30
0.0
 11
5115.800000000007
 21
6783.285412400179
 31
0.0
  0
LINE
  5
2C037
330
2B8A7
100
AcDbEntity
  8
U1
100
AcDbLine
 10
5046.200000000006
 20
6783.285412400179
 30
0.0
 11
5059.200000000005
 21
6783.285412400179
 31
0.0
  0
LINE
  5
2C038
330
2B8A7
100
AcDbEntity
  8
U1
100
AcDbLine
 10
5059.200000000005
 20
6783.285412400179
 30
0.0
 11
5059.200000000005
 21
7102.919073359314
 31
0.0
  0
LINE
  5
2C039
330
2B8A7
100
AcDbEntity
  8
U1
100
AcDbLine
 10
5115.800000000007
 20
6783.285412400179
 30
0.0
 11
5102.800000000007
 21
6783.285412400179
 31
0.0
  0
LINE
  5
2C03A
330
2B8A7
100
AcDbEntity
  8
U1
100
AcDbLine
 10
5102.800000000007
 20
6783.285412400179
 30
0.0
 11
5102.800000000007
 21
7102.919073359314
 31
0.0
  0
LINE
  5
2C03B
330
2B8A7
100
AcDbEntity
  8
U1
100
AcDbLine
 10
5046.200000000006
 20
7098.270170603566
 30
0.0
 11
5046.200000000006
 21
6783.285412400179
 31
0.0
  0
LINE
  5
2C03C
330
2B8A7
100
AcDbEntity
  8
鼻隠し
100
AcDbLine
 10
7905.006149832292
 20
7166.509104897588
 30
0.0
 11
4706.993850167715
 21
7166.509104897588
 31
0.0
  0
LINE
  5
2C03D
330
2B8A7
100
AcDbEntity
  8
鼻隠し
100
AcDbLine
 10
4706.993850167715
 20
7166.509104897588
 30
0.0
 11
4706.993850167715
 21
7299.925906786477
 31
0.0
  0
LINE
  5
2C03E
330
2B8A7
100
AcDbEntity
  8
鼻隠し
100
AcDbLine
 10
4706.993850167715
 20
7299.925906786477
 30
0.0
 11
7905.006149832288
 21
7299.925906786477
 31
0.0
  0
TEXT
  5
2C03F
330
2B8A7
100
AcDbEntity
  8
SUNPOU
100
AcDbText
 10
3933.845976975709
 20
1044.411633796826
 30
0.0
 40
90.0
  1
50
 50
90.0
 41
0.6666666666666666
  7
00
100
AcDbText
  0
LINE
  5
2C040
330
2B8A7
100
AcDbEntity
  8
SUNPOU
100
AcDbLine
 10
3978.845976975708
 20
1213.875919511111
 30
0.0
 11
3978.845976975708
 21
1202.625919511111
 31
0.0
  0
LINE
  5
2C041
330
2B8A7
100
AcDbEntity
  8
SUNPOU
100
AcDbLine
 10
3978.845976975708
 20
1286.375919511107
 30
0.0
 11
3978.845976975708
 21
1297.625919511107
 31
0.0
  0
ARC
  5
2C042
330
2B8A7
100
AcDbEntity
  8
SUNPOU
100
AcDbCircle
 10
3978.845976975708
 20
1275.125919511107
 30
0.0
 40
5.625
100
AcDbArc
 50
90.0
 51
270.0
  0
ARC
  5
2C043
330
2B8A7
100
AcDbEntity
  8
SUNPOU
100
AcDbCircle
 10
3978.845976975708
 20
1275.125919511107
 30
0.0
 40
5.625
100
AcDbArc
 50
270.0
 51
90.0
  0
ARC
  5
2C044
330
2B8A7
100
AcDbEntity
  8
SUNPOU
100
AcDbCircle
 10
3978.845976975708
 20
1225.125919511111
 30
0.0
 40
5.625
100
AcDbArc
 50
270.0
 51
90.0
  0
ARC
  5
2C045
330
2B8A7
100
AcDbEntity
  8
SUNPOU
100
AcDbCircle
 10
3978.845976975708
 20
1225.125919511111
 30
0.0
 40
5.625
100
AcDbArc
 50
90.0
 51
270.0
  0
ENDSEC
  0
SECTION
  2
OBJECTS
  0
DICTIONARY
  5
2B895
330
0
100
AcDbDictionary
281
     1
  3
ACAD_GROUP
350
2B896
  3
ACAD_LAYOUT
350
2B8A2
  3
ACAD_MLINESTYLE
350
2B89F
  3
ACAD_PLOTSETTINGS
350
2B8A1
  3
ACAD_PLOTSTYLENAME
350
2B897
  3
AcDbVariableDictionary
350
2C046
  0
DICTIONARY
  5
2B896
102
{ACAD_REACTORS
330
2B895
102
}
330
2B895
100
AcDbDictionary
281
     1
  0
DICTIONARY
  5
2B8A2
102
{ACAD_REACTORS
330
2B895
102
}
330
2B895
100
AcDbDictionary
281
     1
  3
Model
350
2B8AA
  3
ﾚｲｱｳﾄ1
350
2B8A6
  0
DICTIONARY
  5
2B89F
102
{ACAD_REACTORS
330
2B895
102
}
330
2B895
100
AcDbDictionary
281
     1
  3
Standard
350
2B8A0
  0
DICTIONARY
  5
2B8A1
102
{ACAD_REACTORS
330
2B895
102
}
330
2B895
100
AcDbDictionary
281
     1
  0
ACDBDICTIONARYWDFLT
  5
2B897
102
{ACAD_REACTORS
330
2B895
102
}
330
2B895
100
AcDbDictionary
281
     1
  3
Normal
350
2B898
100
AcDbDictionaryWithDefault
340
2B898
  0
DICTIONARY
  5
2C046
102
{ACAD_REACTORS
330
2B895
102
}
330
2B895
100
AcDbDictionary
281
     1
  3
DIMASSOC
350
2C047
  0
LAYOUT
  5
2B8AA
102
{ACAD_REACTORS
330
2B8A2
102
}
330
2B8A2
100
AcDbPlotSettings
  1

  2
Muratec V-1200 Is@Web Printer
  4

  6

 40
0.0
 41
0.0
 42
0.0
 43
0.0
 44
0.0
 45
0.0
 46
0.0
 47
0.0
 48
0.0
 49
0.0
140
0.0
141
0.0
142
1.0
143
1.0
 70
  1712
 72
     0
 73
     0
 74
     0
  7

 75
     0
147
1.0
148
0.0
149
0.0
100
AcDbLayout
  1
Model
 70
     1
 71
     0
 10
0.0
 20
0.0
 11
12.0
 21
9.0
 12
0.0
 22
0.0
 32
0.0
 14
0.0
 24
0.0
 34
0.0
 15
0.0
 25
0.0
 35
0.0
146
0.0
 13
0.0
 23
0.0
 33
0.0
 16
1.0
 26
0.0
 36
0.0
 17
0.0
 27
1.0
 37
0.0
 76
     0
330
2B8A7
  0
LAYOUT
  5
2B8A6
102
{ACAD_REACTORS
330
2B8A2
102
}
330
2B8A2
100
AcDbPlotSettings
  1

  2
Muratec V-1200 Is@Web Printer
  4

  6

 40
0.0
 41
0.0
 42
0.0
 43
0.0
 44
0.0
 45
0.0
 46
0.0
 47
0.0
 48
0.0
 49
0.0
140
0.0
141
0.0
142
1.0
143
1.0
 70
   688
 72
     0
 73
     0
 74
     5
  7

 75
    16
147
1.0
148
0.0
149
0.0
100
AcDbLayout
  1
ﾚｲｱｳﾄ1
 70
     0
 71
     1
 10
0.0
 20
0.0
 11
12.0
 21
9.0
 12
0.0
 22
0.0
 32
0.0
 14
1.000000000000000E+20
 24
1.000000000000000E+20
 34
1.000000000000000E+20
 15
-1.000000000000000E+20
 25
-1.000000000000000E+20
 35
-1.000000000000000E+20
146
0.0
 13
0.0
 23
0.0
 33
0.0
 16
1.0
 26
0.0
 36
0.0
 17
0.0
 27
1.0
 37
0.0
 76
     0
330
2B8A3
  0
MLINESTYLE
  5
2B8A0
102
{ACAD_REACTORS
330
2B89F
102
}
330
2B89F
100
AcDbMlineStyle
  2
STANDARD
 70
     0
  3

 62
   256
 51
90.0
 52
90.0
 71
     2
 49
0.5
 62
   256
  6
BYLAYER
 49
-0.5
 62
   256
  6
BYLAYER
  0
ACDBPLACEHOLDER
  5
2B898
102
{ACAD_REACTORS
330
2B897
102
}
330
2B897
  0
DICTIONARYVAR
  5
2C047
102
{ACAD_REACTORS
330
2C046
102
}
330
2C046
100
DictionaryVariables
280
     0
  1
1
  0
ENDSEC
  0
EOF
