  0
SECTION
  2
HEADER
  9
$ACADVER
  1
AC1015
  9
$ACADMAINTVER
 70
    13
  9
$DWGCODEPAGE
  3
ANSI_932
  9
$INSBASE
 10
267.0
 20
194.8999999999998
 30
0.0
  9
$EXTMIN
 10
325.4974662390304
 20
99.69795393142488
 30
-0.000000000000013
  9
$EXTMAX
 10
12286.99954069103
 20
8431.707478684501
 30
0.0000000000000023
  9
$LIMMIN
 10
0.0
 20
0.0
  9
$LIMMAX
 10
12600.0
 20
8910.0
  9
$ORTHOMODE
 70
     0
  9
$REGENMODE
 70
     1
  9
$FILLMODE
 70
     1
  9
$QTEXTMODE
 70
     0
  9
$MIRRTEXT
 70
     0
  9
$LTSCALE
 40
30.0
  9
$ATTMODE
 70
     1
  9
$TEXTSIZE
 40
0.2
  9
$TRACEWID
 40
0.05
  9
$TEXTSTYLE
  7
00
  9
$CLAYER
  8
SUNPOU
  9
$CELTYPE
  6
ByLayer
  9
$CECOLOR
 62
   256
  9
$CELTSCALE
 40
1.0
  9
$DISPSILH
 70
     0
  9
$DIMSCALE
 40
30.0
  9
$DIMASZ
 40
0.5
  9
$DIMEXO
 40
1.0
  9
$DIMDLI
 40
7.0
  9
$DIMRND
 40
0.0
  9
$DIMDLE
 40
3.0
  9
$DIMEXE
 40
1.5
  9
$DIMTP
 40
0.0
  9
$DIMTM
 40
0.0
  9
$DIMTXT
 40
3.0
  9
$DIMCEN
 40
0.0
  9
$DIMTSZ
 40
0.0
  9
$DIMTOL
 70
     0
  9
$DIMLIM
 70
     0
  9
$DIMTIH
 70
     0
  9
$DIMTOH
 70
     0
  9
$DIMSE1
 70
     0
  9
$DIMSE2
 70
     0
  9
$DIMTAD
 70
     1
  9
$DIMZIN
 70
     8
  9
$DIMBLK
  1
DOT
  9
$DIMASO
 70
     1
  9
$DIMSHO
 70
     0
  9
$DIMPOST
  1

  9
$DIMAPOST
  1

  9
$DIMALT
 70
     0
  9
$DIMALTD
 70
     2
  9
$DIMALTF
 40
25.4
  9
$DIMLFAC
 40
1.0
  9
$DIMTOFL
 70
     1
  9
$DIMTVP
 40
0.0
  9
$DIMTIX
 70
     0
  9
$DIMSOXD
 70
     0
  9
$DIMSAH
 70
     1
  9
$DIMBLK1
  1
DOT
  9
$DIMBLK2
  1
DOT
  9
$DIMSTYLE
  2
SUNPOU
  9
$DIMCLRD
 70
   256
  9
$DIMCLRE
 70
   256
  9
$DIMCLRT
 70
   256
  9
$DIMTFAC
 40
1.0
  9
$DIMGAP
 40
1.5
  9
$DIMJUST
 70
     0
  9
$DIMSD1
 70
     0
  9
$DIMSD2
 70
     0
  9
$DIMTOLJ
 70
     1
  9
$DIMTZIN
 70
     0
  9
$DIMALTZ
 70
     0
  9
$DIMALTTZ
 70
     0
  9
$DIMUPT
 70
     0
  9
$DIMDEC
 70
     4
  9
$DIMTDEC
 70
     4
  9
$DIMALTU
 70
     2
  9
$DIMALTTD
 70
     2
  9
$DIMTXSTY
  7
STANDARD
  9
$DIMAUNIT
 70
     0
  9
$DIMADEC
 70
     0
  9
$DIMALTRND
 40
0.0
  9
$DIMAZIN
 70
     0
  9
$DIMDSEP
 70
    46
  9
$DIMATFIT
 70
     3
  9
$DIMFRAC
 70
     0
  9
$DIMLDRBLK
  1
DOT
  9
$DIMLUNIT
 70
     2
  9
$DIMLWD
 70
    -2
  9
$DIMLWE
 70
    -2
  9
$DIMTMOVE
 70
     0
  9
$LUNITS
 70
     2
  9
$LUPREC
 70
     2
  9
$SKETCHINC
 40
0.1
  9
$FILLETRAD
 40
5.0
  9
$AUNITS
 70
     0
  9
$AUPREC
 70
     0
  9
$MENU
  1
A:\TIGER\MENU\TIGER
  9
$ELEVATION
 40
0.0
  9
$PELEVATION
 40
0.0
  9
$THICKNESS
 40
0.0
  9
$LIMCHECK
 70
     0
  9
$CHAMFERA
 40
0.0
  9
$CHAMFERB
 40
0.0
  9
$CHAMFERC
 40
0.0
  9
$CHAMFERD
 40
0.0
  9
$SKPOLY
 70
     0
  9
$TDCREATE
 40
2450266.571064815
  9
$TDUCREATE
 40
2450266.196064815
  9
$TDUPDATE
 40
2456330.570868229
  9
$TDUUPDATE
 40
2456330.195868229
  9
$TDINDWG
 40
0.2796780903
  9
$TDUSRTIMER
 40
0.2796780903
  9
$USRTIMER
 70
     1
  9
$ANGBASE
 50
0.0
  9
$ANGDIR
 70
     0
  9
$PDMODE
 70
     0
  9
$PDSIZE
 40
0.0
  9
$PLINEWID
 40
0.0
  9
$SPLFRAME
 70
     0
  9
$SPLINETYPE
 70
     6
  9
$SPLINESEGS
 70
     8
  9
$HANDSEED
  5
2AFE7
  9
$SURFTAB1
 70
     6
  9
$SURFTAB2
 70
     6
  9
$SURFTYPE
 70
     6
  9
$SURFU
 70
     6
  9
$SURFV
 70
     6
  9
$UCSBASE
  2

  9
$UCSNAME
  2

  9
$UCSORG
 10
0.0
 20
0.0
 30
0.0
  9
$UCSXDIR
 10
1.0
 20
0.0
 30
0.0
  9
$UCSYDIR
 10
0.0
 20
1.0
 30
0.0
  9
$UCSORTHOREF
  2

  9
$UCSORTHOVIEW
 70
     0
  9
$UCSORGTOP
 10
0.0
 20
0.0
 30
0.0
  9
$UCSORGBOTTOM
 10
0.0
 20
0.0
 30
0.0
  9
$UCSORGLEFT
 10
0.0
 20
0.0
 30
0.0
  9
$UCSORGRIGHT
 10
0.0
 20
0.0
 30
0.0
  9
$UCSORGFRONT
 10
0.0
 20
0.0
 30
0.0
  9
$UCSORGBACK
 10
0.0
 20
0.0
 30
0.0
  9
$PUCSBASE
  2

  9
$PUCSNAME
  2

  9
$PUCSORG
 10
0.0
 20
0.0
 30
0.0
  9
$PUCSXDIR
 10
1.0
 20
0.0
 30
0.0
  9
$PUCSYDIR
 10
0.0
 20
1.0
 30
0.0
  9
$PUCSORTHOREF
  2

  9
$PUCSORTHOVIEW
 70
     0
  9
$PUCSORGTOP
 10
0.0
 20
0.0
 30
0.0
  9
$PUCSORGBOTTOM
 10
0.0
 20
0.0
 30
0.0
  9
$PUCSORGLEFT
 10
0.0
 20
0.0
 30
0.0
  9
$PUCSORGRIGHT
 10
0.0
 20
0.0
 30
0.0
  9
$PUCSORGFRONT
 10
0.0
 20
0.0
 30
0.0
  9
$PUCSORGBACK
 10
0.0
 20
0.0
 30
0.0
  9
$USERI1
 70
     3
  9
$USERI2
 70
     0
  9
$USERI3
 70
     0
  9
$USERI4
 70
     0
  9
$USERI5
 70
  1103
  9
$USERR1
 40
0.0
  9
$USERR2
 40
1.0
  9
$USERR3
 40
0.0
  9
$USERR4
 40
0.0
  9
$USERR5
 40
0.0
  9
$WORLDVIEW
 70
     1
  9
$SHADEDGE
 70
     3
  9
$SHADEDIF
 70
    70
  9
$TILEMODE
 70
     1
  9
$MAXACTVP
 70
    16
  9
$PINSBASE
 10
0.0
 20
0.0
 30
0.0
  9
$PLIMCHECK
 70
     0
  9
$PEXTMIN
 10
1.000000000000000E+20
 20
1.000000000000000E+20
 30
1.000000000000000E+20
  9
$PEXTMAX
 10
-1.000000000000000E+20
 20
-1.000000000000000E+20
 30
-1.000000000000000E+20
  9
$PLIMMIN
 10
0.0
 20
0.0
  9
$PLIMMAX
 10
12.0
 20
9.0
  9
$UNITMODE
 70
     0
  9
$VISRETAIN
 70
     0
  9
$PLINEGEN
 70
     1
  9
$PSLTSCALE
 70
     0
  9
$TREEDEPTH
 70
  3020
  9
$CMLSTYLE
  2
Standard
  9
$CMLJUST
 70
     0
  9
$CMLSCALE
 40
1.0
  9
$PROXYGRAPHICS
 70
     1
  9
$MEASUREMENT
 70
     0
  9
$CELWEIGHT
370
    -1
  9
$ENDCAPS
280
     0
  9
$JOINSTYLE
280
     0
  9
$LWDISPLAY
290
     0
  9
$INSUNITS
 70
     0
  9
$HYPERLINKBASE
  1

  9
$STYLESHEET
  1

  9
$XEDIT
290
     1
  9
$CEPSNTYPE
380
     0
  9
$PSTYLEMODE
290
     1
  9
$FINGERPRINTGUID
  2
{DDE44982-020A-448E-800D-571267CD8E0F}
  9
$VERSIONGUID
  2
{7156FAFE-916D-4A26-895B-62557CD0AD6B}
  9
$EXTNAMES
290
     1
  9
$PSVPSCALE
 40
0.0
  9
$OLESTARTUP
290
     0
  0
ENDSEC
  0
SECTION
  2
CLASSES
  0
CLASS
  1
ACDBDICTIONARYWDFLT
  2
AcDbDictionaryWithDefault
  3
AutoCAD 2000
 90
        0
280
     0
281
     0
  0
CLASS
  1
ACDBPLACEHOLDER
  2
AcDbPlaceHolder
  3
AutoCAD 2000
 90
        0
280
     0
281
     0
  0
CLASS
  1
LAYOUT
  2
AcDbLayout
  3
AutoCAD 2000
 90
        0
280
     0
281
     0
  0
CLASS
  1
DICTIONARYVAR
  2
AcDbDictionaryVar
  3
AutoCAD 2000
 90
        0
280
     0
281
     0
  0
ENDSEC
  0
SECTION
  2
TABLES
  0
TABLE
  2
VPORT
  5
2A9F7
330
0
100
AcDbSymbolTable
 70
     2
  0
VPORT
  5
2AFE6
330
2A9F7
100
AcDbSymbolTableRecord
100
AcDbViewportTableRecord
  2
*Active
 70
     0
 10
0.0
 20
0.0
 11
1.0
 21
1.0
 12
6306.248503465031
 22
4277.23779824823
 13
0.0
 23
0.0
 14
1.0
 24
1.0
 15
0.0
 25
0.0
 16
0.0
 26
0.0
 36
1.0
 17
0.0
 27
0.0
 37
0.0
 40
8372.629037979738
 41
1.527918781725888
 42
50.0
 43
0.0
 44
0.0
 50
0.0
 51
0.0
 71
     0
 72
 10000
 73
     1
 74
     0
 75
     0
 76
     0
 77
     0
 78
     0
281
     0
 65
     1
110
0.0
120
0.0
130
0.0
111
1.0
121
0.0
131
0.0
112
0.0
122
1.0
132
0.0
 79
     0
146
0.0
  0
ENDTAB
  0
TABLE
  2
LTYPE
  5
2A9F4
330
0
100
AcDbSymbolTable
 70
     4
  0
LTYPE
  5
2AA02
330
2A9F4
100
AcDbSymbolTableRecord
100
AcDbLinetypeTableRecord
  2
ByBlock
 70
     0
  3

 72
    65
 73
     0
 40
0.0
  0
LTYPE
  5
2AA03
330
2A9F4
100
AcDbSymbolTableRecord
100
AcDbLinetypeTableRecord
  2
ByLayer
 70
     0
  3

 72
    65
 73
     0
 40
0.0
  0
LTYPE
  5
2AA04
330
2A9F4
100
AcDbSymbolTableRecord
100
AcDbLinetypeTableRecord
  2
CONTINUOUS
 70
     0
  3
実線
 72
    65
 73
     0
 40
0.0
  0
LTYPE
  5
2AA14
330
2A9F4
100
AcDbSymbolTableRecord
100
AcDbLinetypeTableRecord
  2
1PL-M
 70
     0
  3

 72
    65
 73
     4
 40
15.0
 49
12.0
 74
     0
 49
-1.0
 74
     0
 49
1.0
 74
     0
 49
-1.0
 74
     0
  0
LTYPE
  5
2AA15
330
2A9F4
100
AcDbSymbolTableRecord
100
AcDbLinetypeTableRecord
  2
1PL-S
 70
     0
  3

 72
    65
 73
     4
 40
4.0
 49
2.5
 74
     0
 49
-0.5
 74
     0
 49
0.5
 74
     0
 49
-0.5
 74
     0
  0
LTYPE
  5
2AA16
330
2A9F4
100
AcDbSymbolTableRecord
100
AcDbLinetypeTableRecord
  2
2PL-L
 70
     0
  3

 72
    65
 73
     6
 40
60.0
 49
50.0
 74
     0
 49
-2.0
 74
     0
 49
2.0
 74
     0
 49
-2.0
 74
     0
 49
2.0
 74
     0
 49
-2.0
 74
     0
  0
ENDTAB
  0
TABLE
  2
LAYER
  5
2A9F1
330
0
100
AcDbSymbolTable
 70
    17
  0
LAYER
  5
2A9FF
330
2A9F1
100
AcDbSymbolTableRecord
100
AcDbLayerTableRecord
  2
0
 70
     0
 62
     7
  6
CONTINUOUS
370
    -3
390
2A9FE
  0
LAYER
  5
2AA11
330
2A9F1
100
AcDbSymbolTableRecord
100
AcDbLayerTableRecord
  2
SUNPOU
 70
     0
 62
     4
  6
CONTINUOUS
370
    -3
390
2A9FE
  0
LAYER
  5
2AA17
330
2A9F1
100
AcDbSymbolTableRecord
100
AcDbLayerTableRecord
  2
U2
 70
     0
 62
     4
  6
CONTINUOUS
370
    -3
390
2A9FE
  0
LAYER
  5
2AA18
330
2A9F1
100
AcDbSymbolTableRecord
100
AcDbLayerTableRecord
  2
U3
 70
     0
 62
     6
  6
CONTINUOUS
370
    -3
390
2A9FE
  0
LAYER
  5
2AA19
330
2A9F1
100
AcDbSymbolTableRecord
100
AcDbLayerTableRecord
  2
HIKIDASHI
 70
     0
 62
     6
  6
CONTINUOUS
370
    -3
390
2A9FE
  0
LAYER
  5
2AA1A
330
2A9F1
100
AcDbSymbolTableRecord
100
AcDbLayerTableRecord
  2
1PL-S1
 70
     0
 62
     6
  6
1PL-S
370
    -3
390
2A9FE
  0
LAYER
  5
2AA1B
330
2A9F1
100
AcDbSymbolTableRecord
100
AcDbLayerTableRecord
  2
1PL-M1
 70
     0
 62
     6
  6
1PL-M
370
    -3
390
2A9FE
  0
LAYER
  5
2AA1C
330
2A9F1
100
AcDbSymbolTableRecord
100
AcDbLayerTableRecord
  2
2PL-L2
 70
     0
 62
     1
  6
2PL-L
370
    -3
390
2A9FE
  0
LAYER
  5
2AA1D
330
2A9F1
100
AcDbSymbolTableRecord
100
AcDbLayerTableRecord
  2
KISO
 70
     0
 62
     2
  6
CONTINUOUS
370
    -3
390
2A9FE
  0
LAYER
  5
2AA1E
330
2A9F1
100
AcDbSymbolTableRecord
100
AcDbLayerTableRecord
  2
HATCH
 70
     0
 62
     1
  6
CONTINUOUS
370
    -3
390
2A9FE
  0
LAYER
  5
2AA1F
330
2A9F1
100
AcDbSymbolTableRecord
100
AcDbLayerTableRecord
  2
NAME
 70
     0
 62
    20
  6
CONTINUOUS
370
    -3
390
2A9FE
  0
LAYER
  5
2AA20
330
2A9F1
100
AcDbSymbolTableRecord
100
AcDbLayerTableRecord
  2
FILENAME
 70
     0
 62
     7
  6
CONTINUOUS
370
    -3
390
2A9FE
  0
LAYER
  5
2AA21
330
2A9F1
100
AcDbSymbolTableRecord
100
AcDbLayerTableRecord
  2
HASHIRA
 70
     0
 62
     3
  6
CONTINUOUS
370
    -3
390
2A9FE
  0
LAYER
  5
2AA22
330
2A9F1
100
AcDbSymbolTableRecord
100
AcDbLayerTableRecord
  2
YODOROGO
 70
     0
 62
   130
  6
CONTINUOUS
370
    -3
390
2A9FE
  0
LAYER
  5
2AA23
330
2A9F1
100
AcDbSymbolTableRecord
100
AcDbLayerTableRecord
  2
WAKUSEN-01
 70
     0
 62
    50
  6
CONTINUOUS
370
    -3
390
2A9FE
  0
LAYER
  5
2AA24
330
2A9F1
100
AcDbSymbolTableRecord
100
AcDbLayerTableRecord
  2
WAKUSEN-02
 70
     0
 62
   130
  6
CONTINUOUS
370
    -3
390
2A9FE
  0
LAYER
  5
2AA25
330
2A9F1
100
AcDbSymbolTableRecord
100
AcDbLayerTableRecord
  2
WAKUMOJI-01
 70
     0
 62
   130
  6
CONTINUOUS
370
    -3
390
2A9FE
  0
ENDTAB
  0
TABLE
  2
STYLE
  5
2A9F2
330
0
100
AcDbSymbolTable
 70
     5
  0
STYLE
  5
2AA00
330
2A9F2
100
AcDbSymbolTableRecord
100
AcDbTextStyleTableRecord
  2
STANDARD
 70
     0
 40
3.0
 41
1.0
 50
0.0
 71
     0
 42
0.2
  3
ROMANS
  4
EXTFONT
  0
STYLE
  5
2AA12
330
2A9F2
100
AcDbSymbolTableRecord
100
AcDbTextStyleTableRecord
  2
00
 70
     0
 40
0.0
 41
0.6666666666666666
 50
0.0
 71
     0
 42
0.2
  3
ROMANS
  4
BIGFONT
  0
STYLE
  5
2AA26
330
2A9F2
100
AcDbSymbolTableRecord
100
AcDbTextStyleTableRecord
  2
01
 70
     0
 40
3.0
 41
1.0
 50
0.0
 71
     0
 42
0.2
  3
ROMANS
  4
BIGFONT
  0
STYLE
  5
2AA27
330
2A9F2
100
AcDbSymbolTableRecord
100
AcDbTextStyleTableRecord
  2
WAKUMOJI
 70
     0
 40
3.0
 41
1.0
 50
0.0
 71
     0
 42
3.0
  3
SIMPLEX
  4
BIGFONT
  0
STYLE
  5
2AA28
330
2A9F2
100
AcDbSymbolTableRecord
100
AcDbTextStyleTableRecord
  2
FILENAME
 70
     0
 40
75.0
 41
1.0
 50
0.0
 71
     0
 42
75.0
  3
romans
  4
bigfont
  0
ENDTAB
  0
TABLE
  2
VIEW
  5
2A9F5
330
0
100
AcDbSymbolTable
 70
     0
  0
ENDTAB
  0
TABLE
  2
UCS
  5
2A9F6
330
0
100
AcDbSymbolTable
 70
     0
  0
ENDTAB
  0
TABLE
  2
APPID
  5
2A9F8
330
0
100
AcDbSymbolTable
 70
     5
  0
APPID
  5
2AA01
330
2A9F8
100
AcDbSymbolTableRecord
100
AcDbRegAppTableRecord
  2
ACAD
 70
     0
  0
APPID
  5
2AA29
330
2A9F8
100
AcDbSymbolTableRecord
100
AcDbRegAppTableRecord
  2
AUTOCAD_POSTSCRIPT_FIGURE
 70
     0
  0
APPID
  5
2AA2A
330
2A9F8
100
AcDbSymbolTableRecord
100
AcDbRegAppTableRecord
  2
ACAD_PSEXT
 70
     0
  0
APPID
  5
2AA2B
330
2A9F8
100
AcDbSymbolTableRecord
100
AcDbRegAppTableRecord
  2
ACAD_EXEMPT_FROM_CAD_STANDARDS
 70
     0
  0
APPID
  5
2AA2C
330
2A9F8
100
AcDbSymbolTableRecord
100
AcDbRegAppTableRecord
  2
ACAD_MLEADERVER
 70
     0
  0
ENDTAB
  0
TABLE
  2
DIMSTYLE
  5
2A9F9
330
0
100
AcDbSymbolTable
 70
     1
100
AcDbDimStyleTable
 71
     0
  0
DIMSTYLE
105
2AA2D
330
2A9F9
100
AcDbSymbolTableRecord
100
AcDbDimStyleTableRecord
  2
SUNPOU
 70
     0
 40
30.0
 41
0.5
 42
1.0
 43
7.0
 44
1.5
 46
3.0
 73
     0
 74
     0
 77
     1
 78
     8
140
3.0
141
0.0
147
1.5
172
     1
173
     1
176
   256
177
   256
178
   256
271
     2
272
     2
279
     2
284
     8
285
     8
286
     8
340
2AA12
  0
ENDTAB
  0
TABLE
  2
BLOCK_RECORD
  5
2A9F0
330
0
100
AcDbSymbolTable
 70
     8
  0
BLOCK_RECORD
  5
2AA0D
330
2A9F0
100
AcDbSymbolTableRecord
100
AcDbBlockTableRecord
  2
*Model_Space
340
2AA10
  0
BLOCK_RECORD
  5
2AA09
330
2A9F0
100
AcDbSymbolTableRecord
100
AcDbBlockTableRecord
  2
*Paper_Space
340
2AA0C
  0
BLOCK_RECORD
  5
2AA32
330
2A9F0
100
AcDbSymbolTableRecord
100
AcDbBlockTableRecord
  2
$MODEL_SPACE
340
0
  0
BLOCK_RECORD
  5
2AA35
330
2A9F0
100
AcDbSymbolTableRecord
100
AcDbBlockTableRecord
  2
$PAPER_SPACE
340
0
  0
BLOCK_RECORD
  5
2AA38
330
2A9F0
100
AcDbSymbolTableRecord
100
AcDbBlockTableRecord
  2
DOT
340
0
  0
BLOCK_RECORD
  5
2AA40
330
2A9F0
100
AcDbSymbolTableRecord
100
AcDbBlockTableRecord
  2
*U3
340
0
  0
BLOCK_RECORD
  5
2AA44
330
2A9F0
100
AcDbSymbolTableRecord
100
AcDbBlockTableRecord
  2
*U4
340
0
  0
BLOCK_RECORD
  5
2AA48
330
2A9F0
100
AcDbSymbolTableRecord
100
AcDbBlockTableRecord
  2
*U5
340
0
  0
BLOCK_RECORD
  5
2AA4C
330
2A9F0
100
AcDbSymbolTableRecord
100
AcDbBlockTableRecord
  2
*U6
340
0
  0
ENDTAB
  0
ENDSEC
  0
SECTION
  2
BLOCKS
  0
BLOCK
  5
2AA0E
330
2AA0D
100
AcDbEntity
  8
0
100
AcDbBlockBegin
  2
*Model_Space
 70
     0
 10
0.0
 20
0.0
 30
0.0
  3
*Model_Space
  1

  0
ENDBLK
  5
2AA0F
330
2AA0D
100
AcDbEntity
  8
0
100
AcDbBlockEnd
  0
BLOCK
  5
2AA0A
330
2AA09
100
AcDbEntity
 67
     1
  8
0
100
AcDbBlockBegin
  2
*Paper_Space
 70
     0
 10
0.0
 20
0.0
 30
0.0
  3
*Paper_Space
  1

  0
ENDBLK
  5
2AA0B
330
2AA09
100
AcDbEntity
 67
     1
  8
0
100
AcDbBlockEnd
  0
BLOCK
  5
2AA33
330
2AA32
100
AcDbEntity
  8
0
100
AcDbBlockBegin
  2
$MODEL_SPACE
 70
     0
 10
0.0
 20
0.0
 30
0.0
  3
$MODEL_SPACE
  1

  0
ENDBLK
  5
2AA34
330
2AA32
100
AcDbEntity
  8
0
100
AcDbBlockEnd
  0
BLOCK
  5
2AA36
330
2AA35
100
AcDbEntity
  8
0
100
AcDbBlockBegin
  2
$PAPER_SPACE
 70
     0
 10
0.0
 20
0.0
 30
0.0
  3
$PAPER_SPACE
  1

  0
ENDBLK
  5
2AA37
330
2AA35
100
AcDbEntity
  8
0
100
AcDbBlockEnd
  0
BLOCK
  5
2AA39
330
2AA38
100
AcDbEntity
  8
0
100
AcDbBlockBegin
  2
DOT
 70
     0
 10
0.0
 20
0.0
 30
0.0
  3
DOT
  1

  0
LWPOLYLINE
  5
2AA3A
330
2AA38
100
AcDbEntity
  8
0
  6
ByBlock
 62
     0
100
AcDbPolyline
 90
        2
 70
     1
 43
0.75
 10
-0.375
 20
0.0
 42
1.0
 10
0.375
 20
0.0
 42
1.0
  0
LINE
  5
2AA3E
330
2AA38
100
AcDbEntity
  8
0
  6
ByBlock
 62
     0
100
AcDbLine
 10
-0.75
 20
0.0
 30
0.0
 11
-1.5
 21
0.0
 31
0.0
  0
ENDBLK
  5
2AA3F
330
2AA38
100
AcDbEntity
  8
0
100
AcDbBlockEnd
  0
BLOCK
  5
2AA41
330
2AA40
100
AcDbEntity
  8
0
100
AcDbBlockBegin
  2
*U3
 70
     1
 10
0.0
 20
0.0
 30
0.0
  3
*U3
  1

  0
TEXT
  5
2AA42
330
2AA40
100
AcDbEntity
  8
SUNPOU
100
AcDbText
 10
1405.036707340869
 20
941.7125251995903
 30
0.0
 40
90.0
  1
900 □
 41
0.6666666666666666
  7
00
100
AcDbText
  0
ENDBLK
  5
2AA43
330
2AA40
100
AcDbEntity
  8
0
100
AcDbBlockEnd
  0
BLOCK
  5
2AA45
330
2AA44
100
AcDbEntity
  8
0
100
AcDbBlockBegin
  2
*U4
 70
     1
 10
0.0
 20
0.0
 30
0.0
  3
*U4
  1

  0
TEXT
  5
2AA46
330
2AA44
100
AcDbEntity
  8
SUNPOU
100
AcDbText
 10
1405.036707340869
 20
1151.712525199589
 30
0.0
 40
90.0
  1
700 □
 41
0.6666666666666666
  7
00
100
AcDbText
  0
ENDBLK
  5
2AA47
330
2AA44
100
AcDbEntity
  8
0
100
AcDbBlockEnd
  0
BLOCK
  5
2AA49
330
2AA48
100
AcDbEntity
  8
0
100
AcDbBlockBegin
  2
*U5
 70
     1
 10
0.0
 20
0.0
 30
0.0
  3
*U5
  1

  0
TEXT
  5
2AA4A
330
2AA48
100
AcDbEntity
  8
SUNPOU
100
AcDbText
 10
3616.53670734087
 20
1875.998239485305
 30
0.0
 40
90.0
  1
500
 50
90.0
 41
0.6666666666666666
  7
00
100
AcDbText
  0
ENDBLK
  5
2AA4B
330
2AA48
100
AcDbEntity
  8
0
100
AcDbBlockEnd
  0
BLOCK
  5
2AA4D
330
2AA4C
100
AcDbEntity
  8
0
100
AcDbBlockBegin
  2
*U6
 70
     1
 10
0.0
 20
0.0
 30
0.0
  3
*U6
  1

  0
TEXT
  5
2AA4E
330
2AA4C
100
AcDbEntity
  8
SUNPOU
100
AcDbText
 10
3616.53670734087
 20
1213.855382342448
 30
0.0
 40
90.0
  1
100
 50
90.0
 41
0.6666666666666666
  7
00
100
AcDbText
  0
ENDBLK
  5
2AA4F
330
2AA4C
100
AcDbEntity
  8
0
100
AcDbBlockEnd
  0
ENDSEC
  0
SECTION
  2
ENTITIES
  0
TEXT
  5
2AA50
330
2AA0D
100
AcDbEntity
  8
NAME
100
AcDbText
 10
9402.694977008243
 20
716.2499999999992
 30
0.0
 40
120.0
  1
YOTC
 41
0.7
  7
01
100
AcDbText
  0
TEXT
  5
2AA51
330
2AA0D
100
AcDbEntity
  8
NAME
100
AcDbText
 10
8327.765992739108
 20
716.2499999999992
 30
0.0
 40
120.0
  1
ヨド自転車置場      型
  7
01
100
AcDbText
  0
TEXT
  5
2AA52
330
2AA0D
100
AcDbEntity
  8
NAME
100
AcDbText
 10
8685.634258449118
 20
405.7500000000024
 30
0.0
 40
120.0
  1
型（一般地用）背合せ
 41
0.7
  7
01
100
AcDbText
  0
TEXT
  5
2AA53
330
2AA0D
100
AcDbEntity
  8
NAME
100
AcDbText
 10
8101.484605933894
 20
405.7500000000024
 30
0.0
 40
120.0
  1
YOTC-245
 41
0.6
  7
01
 72
     2
 11
8650.056034505322
 21
405.7500000000024
 31
0.0
100
AcDbText
  0
TEXT
  5
2AA54
330
2AA0D
100
AcDbEntity
  8
NAME
100
AcDbText
 10
9685.26209933479
 20
405.7500000000025
 30
0.0
 40
120.0
  1
<3／3>
 41
0.6
  7
01
 72
     2
 11
10059.66209933478
 21
405.7500000000025
 31
0.0
100
AcDbText
  0
LINE
  5
2AA55
330
2AA0D
100
AcDbEntity
  8
2PL-L2
100
AcDbLine
 10
2904.340641334933
 20
7705.127478609063
 30
0.0
 11
6560.340641334936
 21
7705.127478609063
 31
0.0
  0
LINE
  5
2AA56
330
2AA0D
100
AcDbEntity
  8
2PL-L2
100
AcDbLine
 10
2904.340641334935
 20
3635.127478609063
 30
0.0
 11
6560.340641334936
 21
3635.127478609063
 31
0.0
  0
LINE
  5
2AA57
330
2AA0D
100
AcDbEntity
  8
1PL-M1
100
AcDbLine
 10
2888.757913271066
 20
6700.127478609063
 30
0.0
 11
10382.18396002396
 21
6700.127478609061
 31
0.0
  0
LINE
  5
2AA58
330
2AA0D
100
AcDbEntity
  8
SUNPOU
100
AcDbLine
 10
2965.340641334929
 20
2630.127478609063
 30
0.0
 11
10235.34064133492
 21
2630.127478609063
 31
0.0
  0
LINE
  5
2AA59
330
2AA0D
100
AcDbEntity
  8
SUNPOU
100
AcDbLine
 10
3315.340641334929
 20
2840.127478609062
 30
0.0
 11
5735.34064133493
 21
2840.127478609062
 31
0.0
  0
LINE
  5
2AA5A
330
2AA0D
100
AcDbEntity
  8
U3
100
AcDbLine
 10
2950.340641334932
 20
8100.127478609064
 30
0.0
 11
6560.340641334933
 21
8100.127478609064
 31
0.0
  0
LINE
  5
2AA5B
330
2AA0D
100
AcDbEntity
  8
U3
100
AcDbLine
 10
2950.340641334932
 20
3240.127478609062
 30
0.0
 11
6560.340641334936
 21
3240.127478609063
 31
0.0
  0
LINE
  5
2AA5C
330
2AA0D
100
AcDbEntity
  8
1PL-M1
100
AcDbLine
 10
2888.757913271066
 20
4640.127478609064
 30
0.0
 11
10382.18396002396
 21
4640.127478609062
 31
0.0
  0
LINE
  5
2AA5D
330
2AA0D
100
AcDbEntity
  8
U3
100
AcDbLine
 10
2950.340641334932
 20
3240.127478609062
 30
0.0
 11
2950.340641334932
 21
8100.127478609064
 31
0.0
  0
LINE
  5
2AA5E
330
2AA0D
100
AcDbEntity
  8
SUNPOU
100
AcDbLine
 10
2950.340641334932
 20
3604.969545146267
 30
0.0
 11
2950.340641334929
 21
2600.127478609063
 31
0.0
  0
LINE
  5
2AA5F
330
2AA0D
100
AcDbEntity
  8
SUNPOU
100
AcDbLine
 10
3300.340641334933
 20
4209.849618183391
 30
0.0
 11
3300.340641334928
 21
2810.127478609063
 31
0.0
  0
LINE
  5
2AA60
330
2AA0D
100
AcDbEntity
  8
SUNPOU
100
AcDbLine
 10
2965.340641334929
 20
2840.127478609062
 30
0.0
 11
3285.340641334928
 21
2840.127478609062
 31
0.0
  0
TEXT
  5
2AA61
330
2AA0D
100
AcDbEntity
  8
SUNPOU
100
AcDbText
 10
3039.626355620643
 20
2885.127478609063
 30
0.0
 40
90.0
  1
350
 41
0.6666666666666666
  7
00
 72
     4
 11
3125.340641334929
 21
2930.127478609063
 31
0.0
100
AcDbText
  0
TEXT
  5
2AA62
330
2AA0D
100
AcDbEntity
  8
SUNPOU
100
AcDbText
 10
4411.054927049212
 20
2885.127478609063
 30
0.0
 40
90.0
  1
2450
 41
0.6666666666666666
  7
00
 72
     4
 11
4525.340641334927
 21
2930.127478609063
 31
0.0
100
AcDbText
  0
TEXT
  5
2AA63
330
2AA0D
100
AcDbEntity
  8
SUNPOU
100
AcDbText
 10
4133.340641334934
 20
3499.969545146267
 30
0.0
 40
90.0
  1
（屋根前面位置）
  7
01
 72
     4
 11
4550.340641334933
 21
3544.969545146267
 31
0.0
100
AcDbText
  0
TEXT
  5
2AA64
330
2AA0D
100
AcDbEntity
  8
SUNPOU
100
AcDbText
 10
4025.340641334934
 20
3285.127478609062
 30
0.0
 40
90.0
  1
（土間コン前面位置）
  7
01
 72
     4
 11
4550.340641334933
 21
3330.127478609062
 31
0.0
100
AcDbText
  0
TEXT
  5
2AA65
330
2AA0D
100
AcDbEntity
  8
SUNPOU
100
AcDbText
 10
4133.340641334934
 20
7761.685412071859
 30
0.0
 40
90.0
  1
（屋根後面位置）
  7
01
 72
     4
 11
4550.340641334933
 21
7806.685412071859
 31
0.0
100
AcDbText
  0
TEXT
  5
2AA66
330
2AA0D
100
AcDbEntity
  8
SUNPOU
100
AcDbText
 10
4025.340641334934
 20
8145.127478609062
 30
0.0
 40
90.0
  1
（土間コン後面位置）
  7
01
 72
     4
 11
4550.340641334933
 21
8190.127478609062
 31
0.0
100
AcDbText
  0
LINE
  5
2AA67
330
2AA0D
100
AcDbEntity
  8
U2
100
AcDbLine
 10
6640.340641334934
 20
3140.127478609063
 30
0.0
 11
6640.34064133493
 21
8200.127478609061
 31
0.0
  0
LINE
  5
2AA68
330
2AA0D
100
AcDbEntity
  8
U2
100
AcDbLine
 10
6560.340641334936
 20
3140.127478609063
 30
0.0
 11
6560.340641334931
 21
8200.127478609061
 31
0.0
  0
LINE
  5
2AA69
330
2AA0D
100
AcDbEntity
  8
U3
100
AcDbLine
 10
10250.34064133492
 20
3240.127478609063
 30
0.0
 11
10250.34064133492
 21
8100.127478609062
 31
0.0
  0
LINE
  5
2AA6A
330
2AA0D
100
AcDbEntity
  8
SUNPOU
100
AcDbLine
 10
10970.34064133492
 20
8085.127478609058
 30
0.0
 11
10970.34064133492
 21
3255.127478609062
 31
0.0
  0
LINE
  5
2AA6B
330
2AA0D
100
AcDbEntity
  8
SUNPOU
100
AcDbLine
 10
10760.34064133492
 20
4640.127478609062
 30
0.0
 11
10760.34064133492
 21
3255.127478609062
 31
0.0
  0
LINE
  5
2AA6C
330
2AA0D
100
AcDbEntity
  8
SUNPOU
100
AcDbLine
 10
9932.840641334935
 20
4572.627478609063
 30
0.0
 11
9932.840641334935
 21
4396.184634723411
 31
0.0
  0
LINE
  5
2AA6D
330
2AA0D
100
AcDbEntity
  8
SUNPOU
100
AcDbLine
 10
9867.840641334936
 20
4572.627478609063
 30
0.0
 11
9867.840641334936
 21
4396.184634723411
 31
0.0
  0
LINE
  5
2AA6E
330
2AA0D
100
AcDbEntity
  8
1PL-M1
100
AcDbLine
 10
9900.340641334935
 20
4239.849618183392
 30
0.0
 11
9900.340641334935
 21
6010.639079486154
 31
0.0
  0
LINE
  5
2AA6F
330
2AA0D
100
AcDbEntity
  8
SUNPOU
100
AcDbLine
 10
10550.34064133492
 20
4975.127478609064
 30
0.0
 11
10550.34064133492
 21
4305.127478609064
 31
0.0
  0
LINE
  5
2AA70
330
2AA0D
100
AcDbEntity
  8
2PL-L2
100
AcDbLine
 10
6640.340641334934
 20
3635.127478609063
 30
0.0
 11
10296.34064133492
 21
3635.127478609063
 31
0.0
  0
LINE
  5
2AA71
330
2AA0D
100
AcDbEntity
  8
SUNPOU
100
AcDbLine
 10
7465.34064133493
 20
2840.127478609062
 30
0.0
 11
9885.340641334932
 21
2840.127478609062
 31
0.0
  0
LINE
  5
2AA72
330
2AA0D
100
AcDbEntity
  8
U3
100
AcDbLine
 10
6640.340641334937
 20
3240.127478609063
 30
0.0
 11
10250.34064133492
 21
3240.127478609063
 31
0.0
  0
LINE
  5
2AA73
330
2AA0D
100
AcDbEntity
  8
SUNPOU
100
AcDbLine
 10
5750.340641334936
 20
4209.849618183391
 30
0.0
 11
5750.34064133493
 21
2810.127478609063
 31
0.0
  0
LINE
  5
2AA74
330
2AA0D
100
AcDbEntity
  8
SUNPOU
100
AcDbLine
 10
7450.340641334934
 20
4209.849618183391
 30
0.0
 11
7450.340641334931
 21
2810.127478609063
 31
0.0
  0
LINE
  5
2AA75
330
2AA0D
100
AcDbEntity
  8
SUNPOU
100
AcDbLine
 10
5765.34064133493
 20
2840.127478609062
 30
0.0
 11
7435.340641334931
 21
2840.127478609062
 31
0.0
  0
TEXT
  5
2AA76
330
2AA0D
100
AcDbEntity
  8
SUNPOU
100
AcDbText
 10
6127.197784192073
 20
2675.127478609063
 30
0.0
 40
90.0
  1
L ＝ 2450 × N ＋ 700
 41
0.6666666666666666
  7
00
 72
     4
 11
6600.340641334931
 21
2720.127478609063
 31
0.0
100
AcDbText
  0
TEXT
  5
2AA77
330
2AA0D
100
AcDbEntity
  8
SUNPOU
100
AcDbText
 10
6210.626355620645
 20
2885.127478609063
 30
0.0
 40
90.0
  1
2450 ×（ N - 2 ）
 41
0.6666666666666666
  7
00
 72
     4
 11
6600.340641334931
 21
2930.127478609063
 31
0.0
100
AcDbText
  0
TEXT
  5
2AA78
330
2AA0D
100
AcDbEntity
  8
SUNPOU
100
AcDbText
 10
8561.054927049218
 20
2885.127478609063
 30
0.0
 40
90.0
  1
2450
 41
0.6666666666666666
  7
00
 72
     4
 11
8675.340641334932
 21
2930.127478609063
 31
0.0
100
AcDbText
  0
LINE
  5
2AA79
330
2AA0D
100
AcDbEntity
  8
SUNPOU
100
AcDbLine
 10
10250.34064133492
 20
3604.969545146267
 30
0.0
 11
10250.34064133492
 21
2600.127478609063
 31
0.0
  0
LINE
  5
2AA7A
330
2AA0D
100
AcDbEntity
  8
SUNPOU
100
AcDbLine
 10
9900.340641334935
 20
3604.969545146267
 30
0.0
 11
9900.340641334931
 21
2810.127478609063
 31
0.0
  0
LINE
  5
2AA7B
330
2AA0D
100
AcDbEntity
  8
SUNPOU
100
AcDbLine
 10
9900.340641334935
 20
4029.643868126107
 30
0.0
 11
9900.340641334931
 21
2810.127478609063
 31
0.0
  0
LINE
  5
2AA7C
330
2AA0D
100
AcDbEntity
  8
SUNPOU
100
AcDbLine
 10
9915.340641334932
 20
2840.127478609062
 30
0.0
 11
10235.34064133492
 21
2840.127478609062
 31
0.0
  0
TEXT
  5
2AA7D
330
2AA0D
100
AcDbEntity
  8
SUNPOU
100
AcDbText
 10
9989.626355620643
 20
2885.127478609063
 30
0.0
 40
90.0
  1
350
 41
0.6666666666666666
  7
00
 72
     4
 11
10075.34064133492
 21
2930.127478609063
 31
0.0
100
AcDbText
  0
LINE
  5
2AA7E
330
2AA0D
100
AcDbEntity
  8
SUNPOU
100
AcDbLine
 10
10280.34064133492
 20
3240.127478609063
 30
0.0
 11
11000.34064133492
 21
3240.127478609063
 31
0.0
  0
LINE
  5
2AA7F
330
2AA0D
100
AcDbEntity
  8
SUNPOU
100
AcDbLine
 10
10280.34064133492
 20
4290.127478609064
 30
0.0
 11
10580.34064133492
 21
4290.127478609064
 31
0.0
  0
TEXT
  5
2AA80
330
2AA0D
100
AcDbEntity
  8
SUNPOU
100
AcDbText
 10
9814.626355620649
 20
4110.127478609063
 30
0.0
 40
90.0
  1
700
 41
0.6666666666666666
  7
00
 72
     1
 11
9900.340641334935
 21
4155.127478609063
 31
0.0
100
AcDbText
 73
     2
  0
LINE
  5
2AA81
330
2AA0D
100
AcDbEntity
  8
SUNPOU
100
AcDbLine
 10
9565.340641334934
 20
4065.127478609062
 30
0.0
 11
10235.34064133492
 21
4065.127478609062
 31
0.0
  0
LINE
  5
2AA82
330
2AA0D
100
AcDbEntity
  8
SUNPOU
100
AcDbLine
 10
9550.340641334935
 20
4260.127478609063
 30
0.0
 11
9550.340641334935
 21
4035.127478609063
 31
0.0
  0
LINE
  5
2AA83
330
2AA0D
100
AcDbEntity
  8
SUNPOU
100
AcDbLine
 10
9837.840641334935
 20
4426.184634723411
 30
0.0
 11
9740.85492704922
 21
4426.184634723411
 31
0.0
  0
LINE
  5
2AA84
330
2AA0D
100
AcDbEntity
  8
SUNPOU
100
AcDbLine
 10
9917.840641334935
 20
4426.184634723411
 30
0.0
 11
9867.840641334936
 21
4426.184634723411
 31
0.0
  0
LINE
  5
2AA85
330
2AA0D
100
AcDbEntity
  8
SUNPOU
100
AcDbLine
 10
9852.840641334935
 20
4426.184634723411
 30
0.0
 11
9837.840641334935
 21
4426.184634723411
 31
0.0
  0
TEXT
  5
2AA86
330
2AA0D
100
AcDbEntity
  8
SUNPOU
100
AcDbText
 10
10715.34064133492
 20
3821.556050037634
 30
0.0
 40
90.0
  1
1400
 50
90.0
 41
0.6666666666666666
  7
00
 72
     1
 11
10670.34064133492
 21
3940.127478609062
 31
0.0
100
AcDbText
 73
     2
  0
LINE
  5
2AA87
330
2AA0D
100
AcDbEntity
  8
2PL-L2
100
AcDbLine
 10
6640.34064133493
 20
7705.127478609063
 30
0.0
 11
10296.34064133492
 21
7705.127478609059
 31
0.0
  0
LINE
  5
2AA88
330
2AA0D
100
AcDbEntity
  8
U3
100
AcDbLine
 10
6640.340641334933
 20
8100.127478609064
 30
0.0
 11
10250.34064133492
 21
8100.127478609062
 31
0.0
  0
LINE
  5
2AA89
330
2AA0D
100
AcDbEntity
  8
SUNPOU
100
AcDbLine
 10
10760.34064133492
 20
8085.127478609058
 30
0.0
 11
10760.34064133492
 21
6715.127478609064
 31
0.0
  0
TEXT
  5
2AA8A
330
2AA0D
100
AcDbEntity
  8
HIKIDASHI
100
AcDbText
 10
9511.468164483735
 20
7202.428922871478
 30
0.0
 40
90.0
  1
柱
  7
01
 72
     2
 11
9595.468164483735
 21
7247.428922871478
 31
0.0
100
AcDbText
 73
     2
  0
LINE
  5
2AA8B
330
2AA0D
100
AcDbEntity
  8
SUNPOU
100
AcDbLine
 10
10760.34064133492
 20
4655.127478609063
 30
0.0
 11
10760.34064133492
 21
6685.127478609064
 31
0.0
  0
LINE
  5
2AA8C
330
2AA0D
100
AcDbEntity
  8
SUNPOU
100
AcDbLine
 10
10280.34064133492
 20
4990.127478609064
 30
0.0
 11
10580.34064133492
 21
4990.127478609064
 31
0.0
  0
TEXT
  5
2AA8D
330
2AA0D
100
AcDbEntity
  8
SUNPOU
100
AcDbText
 10
10505.34064133492
 20
4554.413192894778
 30
0.0
 40
90.0
  1
700
 50
90.0
 41
0.6666666666666666
  7
00
 72
     1
 11
10460.34064133492
 21
4640.127478609064
 31
0.0
100
AcDbText
 73
     2
  0
TEXT
  5
2AA8E
330
2AA0D
100
AcDbEntity
  8
HIKIDASHI
100
AcDbText
 10
9511.468164483735
 20
5142.428922871479
 30
0.0
 40
90.0
  1
柱
  7
01
 72
     2
 11
9595.468164483735
 21
5187.428922871479
 31
0.0
100
AcDbText
 73
     2
  0
LINE
  5
2AA8F
330
2AA0D
100
AcDbEntity
  8
HIKIDASHI
100
AcDbLine
 10
9837.840641334924
 20
4729.589002836124
 30
0.0
 11
9625.468164483734
 21
5097.428922871479
 31
0.0
  0
TEXT
  5
2AA90
330
2AA0D
100
AcDbEntity
  8
SUNPOU
100
AcDbText
 10
9729.426355620653
 20
4471.184634723411
 30
0.0
 40
90.0
  1
65
 41
0.6666666666666666
  7
00
 72
     1
 11
9787.99778419208
 21
4516.184634723411
 31
0.0
100
AcDbText
 73
     2
  0
SOLID
  5
2AA91
330
2AA0D
100
AcDbEntity
  8
HIKIDASHI
100
AcDbTrace
 10
9846.50089537277
 20
4734.589002836126
 30
0.0
 11
9829.18038729708
 21
4724.589002836121
 31
0.0
 12
9867.840641334936
 22
4677.627478609063
 32
0.0
 13
9867.840641334936
 23
4677.627478609063
 33
0.0
  0
LINE
  5
2AA92
330
2AA0D
100
AcDbEntity
  8
HIKIDASHI
100
AcDbLine
 10
9481.468164483734
 20
5097.428922871479
 30
0.0
 11
9625.468164483734
 21
5097.428922871479
 31
0.0
  0
TEXT
  5
2AA93
330
2AA0D
100
AcDbEntity
  8
SUNPOU
100
AcDbText
 10
10066.04665690042
 20
4701.756050037633
 30
0.0
 40
90.0
  1
75
 50
90.0
 41
0.6666666666666666
  7
00
 72
     1
 11
10021.04665690042
 21
4758.89890718049
 31
0.0
100
AcDbText
 73
     2
  0
LINE
  5
2AA94
330
2AA0D
100
AcDbEntity
  8
SUNPOU
100
AcDbLine
 10
10111.04665690041
 20
4707.627478609063
 30
0.0
 11
10111.04665690041
 21
4807.47033575192
 31
0.0
  0
LINE
  5
2AA95
330
2AA0D
100
AcDbEntity
  8
SUNPOU
100
AcDbLine
 10
10111.04665690041
 20
4617.627478609064
 30
0.0
 11
10111.04665690041
 21
4677.627478609063
 31
0.0
  0
LINE
  5
2AA96
330
2AA0D
100
AcDbEntity
  8
SUNPOU
100
AcDbLine
 10
9962.840641334935
 20
4602.627478609064
 30
0.0
 11
10141.04665690042
 21
4602.627478609064
 31
0.0
  0
LINE
  5
2AA97
330
2AA0D
100
AcDbEntity
  8
SUNPOU
100
AcDbLine
 10
9962.840641334935
 20
4677.627478609063
 30
0.0
 11
10141.04665690042
 21
4677.627478609063
 31
0.0
  0
LINE
  5
2AA98
330
2AA0D
100
AcDbEntity
  8
SUNPOU
100
AcDbLine
 10
10111.04665690041
 20
4692.627478609064
 30
0.0
 11
10111.04665690041
 21
4707.627478609063
 31
0.0
  0
LINE
  5
2AA99
330
2AA0D
100
AcDbEntity
  8
SUNPOU
100
AcDbLine
 10
10610.34064133492
 20
4640.127478609064
 30
0.0
 11
10790.34064133492
 21
4640.127478609064
 31
0.0
  0
LINE
  5
2AA9A
330
2AA0D
100
AcDbEntity
  8
1PL-S1
100
AcDbLine
 10
10584.54574119364
 20
4640.127478609062
 30
0.0
 11
10790.34064133492
 21
4640.127478609062
 31
0.0
  0
TEXT
  5
2AA9B
330
2AA0D
100
AcDbEntity
  8
SUNPOU
100
AcDbText
 10
10715.34064133492
 20
5555.841764323349
 30
0.0
 40
90.0
  1
2060
 50
90.0
 41
0.6666666666666666
  7
00
 72
     1
 11
10670.34064133492
 21
5670.127478609064
 31
0.0
100
AcDbText
 73
     2
  0
TEXT
  5
2AA9C
330
2AA0D
100
AcDbEntity
  8
SUNPOU
100
AcDbText
 10
10925.34064133492
 20
5555.841764323348
 30
0.0
 40
90.0
  1
4860
 50
90.0
 41
0.6666666666666666
  7
00
 72
     4
 11
10880.34064133492
 21
5670.127478609063
 31
0.0
100
AcDbText
  0
LINE
  5
2AA9D
330
2AA0D
100
AcDbEntity
  8
SUNPOU
100
AcDbLine
 10
10280.34064133492
 20
7050.127478609063
 30
0.0
 11
10580.34064133492
 21
7050.127478609063
 31
0.0
  0
LINE
  5
2AA9E
330
2AA0D
100
AcDbEntity
  8
SUNPOU
100
AcDbLine
 10
10280.34064133492
 20
6350.127478609064
 30
0.0
 11
10580.34064133492
 21
6350.127478609064
 31
0.0
  0
TEXT
  5
2AA9F
330
2AA0D
100
AcDbEntity
  8
SUNPOU
100
AcDbText
 10
10505.34064133492
 20
6614.413192894777
 30
0.0
 40
90.0
  1
700
 50
90.0
 41
0.6666666666666666
  7
00
 72
     1
 11
10460.34064133492
 21
6700.127478609063
 31
0.0
100
AcDbText
 73
     2
  0
LINE
  5
2AAA0
330
2AA0D
100
AcDbEntity
  8
SUNPOU
100
AcDbLine
 10
9932.840641334935
 20
6632.627478609062
 30
0.0
 11
9932.840641334935
 21
6456.184634723411
 31
0.0
  0
LINE
  5
2AAA1
330
2AA0D
100
AcDbEntity
  8
SUNPOU
100
AcDbLine
 10
9867.840641334936
 20
6632.627478609062
 30
0.0
 11
9867.840641334936
 21
6456.184634723411
 31
0.0
  0
TEXT
  5
2AAA2
330
2AA0D
100
AcDbEntity
  8
SUNPOU
100
AcDbText
 10
9729.426355620653
 20
6531.184634723411
 30
0.0
 40
90.0
  1
65
 41
0.6666666666666666
  7
00
 72
     1
 11
9787.99778419208
 21
6576.184634723411
 31
0.0
100
AcDbText
 73
     2
  0
LINE
  5
2AAA3
330
2AA0D
100
AcDbEntity
  8
1PL-M1
100
AcDbLine
 10
9900.340641334935
 20
6221.464312890519
 30
0.0
 11
9900.340641334935
 21
7100.127478609064
 31
0.0
  0
LINE
  5
2AAA4
330
2AA0D
100
AcDbEntity
  8
SUNPOU
100
AcDbLine
 10
9565.340641334934
 20
6050.127478609063
 30
0.0
 11
10235.34064133492
 21
6050.127478609063
 31
0.0
  0
TEXT
  5
2AAA5
330
2AA0D
100
AcDbEntity
  8
SUNPOU
100
AcDbText
 10
9814.626355620649
 20
6095.127478609064
 30
0.0
 40
90.0
  1
700
 41
0.6666666666666666
  7
00
 72
     1
 11
9900.340641334935
 21
6140.127478609064
 31
0.0
100
AcDbText
 73
     2
  0
LINE
  5
2AAA6
330
2AA0D
100
AcDbEntity
  8
SUNPOU
100
AcDbLine
 10
9550.340641334935
 20
6320.127478609062
 30
0.0
 11
9550.340641334935
 21
6020.127478609063
 31
0.0
  0
LINE
  5
2AAA7
330
2AA0D
100
AcDbEntity
  8
SUNPOU
100
AcDbLine
 10
9837.840641334935
 20
6486.184634723412
 30
0.0
 11
9740.85492704922
 21
6486.184634723412
 31
0.0
  0
LINE
  5
2AAA8
330
2AA0D
100
AcDbEntity
  8
SUNPOU
100
AcDbLine
 10
9917.840641334935
 20
6486.184634723412
 30
0.0
 11
9867.840641334936
 21
6486.184634723412
 31
0.0
  0
LINE
  5
2AAA9
330
2AA0D
100
AcDbEntity
  8
SUNPOU
100
AcDbLine
 10
9852.840641334935
 20
6486.184634723412
 30
0.0
 11
9837.840641334935
 21
6486.184634723412
 31
0.0
  0
LINE
  5
2AAAA
330
2AA0D
100
AcDbEntity
  8
HIKIDASHI
100
AcDbLine
 10
9837.840641334924
 20
6789.589002836125
 30
0.0
 11
9625.468164483734
 21
7157.42892287148
 31
0.0
  0
SOLID
  5
2AAAB
330
2AA0D
100
AcDbEntity
  8
HIKIDASHI
100
AcDbTrace
 10
9846.50089537277
 20
6794.589002836126
 30
0.0
 11
9829.18038729708
 21
6784.589002836122
 31
0.0
 12
9867.840641334936
 22
6737.627478609063
 32
0.0
 13
9867.840641334936
 23
6737.627478609063
 33
0.0
  0
LINE
  5
2AAAC
330
2AA0D
100
AcDbEntity
  8
HIKIDASHI
100
AcDbLine
 10
9481.468164483734
 20
7157.42892287148
 30
0.0
 11
9625.468164483734
 21
7157.42892287148
 31
0.0
  0
LINE
  5
2AAAD
330
2AA0D
100
AcDbEntity
  8
SUNPOU
100
AcDbLine
 10
10111.04665690041
 20
6677.627478609064
 30
0.0
 11
10111.04665690041
 21
6737.627478609063
 31
0.0
  0
LINE
  5
2AAAE
330
2AA0D
100
AcDbEntity
  8
SUNPOU
100
AcDbLine
 10
9962.840641334935
 20
6662.627478609064
 30
0.0
 11
10141.04665690042
 21
6662.627478609064
 31
0.0
  0
LINE
  5
2AAAF
330
2AA0D
100
AcDbEntity
  8
SUNPOU
100
AcDbLine
 10
9962.840641334935
 20
6737.627478609063
 30
0.0
 11
10141.04665690042
 21
6737.627478609063
 31
0.0
  0
TEXT
  5
2AAB0
330
2AA0D
100
AcDbEntity
  8
SUNPOU
100
AcDbText
 10
10066.04665690042
 20
6761.756050037632
 30
0.0
 40
90.0
  1
75
 50
90.0
 41
0.6666666666666666
  7
00
 72
     1
 11
10021.04665690042
 21
6818.898907180489
 31
0.0
100
AcDbText
 73
     2
  0
LINE
  5
2AAB1
330
2AA0D
100
AcDbEntity
  8
SUNPOU
100
AcDbLine
 10
10111.04665690041
 20
6752.627478609062
 30
0.0
 11
10111.04665690041
 21
6767.627478609063
 31
0.0
  0
LINE
  5
2AAB2
330
2AA0D
100
AcDbEntity
  8
SUNPOU
100
AcDbLine
 10
10111.04665690041
 20
6767.627478609063
 30
0.0
 11
10111.04665690041
 21
6867.470335751919
 31
0.0
  0
LINE
  5
2AAB3
330
2AA0D
100
AcDbEntity
  8
SUNPOU
100
AcDbLine
 10
10550.34064133492
 20
7035.127478609064
 30
0.0
 11
10550.34064133492
 21
6365.127478609064
 31
0.0
  0
LINE
  5
2AAB4
330
2AA0D
100
AcDbEntity
  8
SUNPOU
100
AcDbLine
 10
10610.34064133492
 20
6700.127478609063
 30
0.0
 11
10790.34064133492
 21
6700.127478609063
 31
0.0
  0
LINE
  5
2AAB5
330
2AA0D
100
AcDbEntity
  8
1PL-S1
100
AcDbLine
 10
10584.54574119364
 20
6700.127478609061
 30
0.0
 11
10790.34064133492
 21
6700.127478609061
 31
0.0
  0
LINE
  5
2AAB6
330
2AA0D
100
AcDbEntity
  8
SUNPOU
100
AcDbLine
 10
10280.34064133492
 20
8100.127478609062
 30
0.0
 11
11000.34064133492
 21
8100.127478609062
 31
0.0
  0
TEXT
  5
2AAB7
330
2AA0D
100
AcDbEntity
  8
SUNPOU
100
AcDbText
 10
10715.34064133492
 20
7281.556050037635
 30
0.0
 40
90.0
  1
1400
 50
90.0
 41
0.6666666666666666
  7
00
 72
     4
 11
10670.34064133492
 21
7400.127478609063
 31
0.0
100
AcDbText
  0
LINE
  5
2AAB8
330
2AA0D
100
AcDbEntity
  8
2PL-L2
100
AcDbLine
 10
2904.340641334933
 20
7705.127478609063
 30
0.0
 11
2904.340641334935
 21
3635.127478609063
 31
0.0
  0
LINE
  5
2AAB9
330
2AA0D
100
AcDbEntity
  8
2PL-L2
100
AcDbLine
 10
10296.34064133492
 20
7705.127478609059
 30
0.0
 11
10296.34064133492
 21
3635.127478609063
 31
0.0
  0
LINE
  5
2AABA
330
2AA0D
100
AcDbEntity
  8
1PL-M1
100
AcDbLine
 10
7450.340641334934
 20
4239.849618183392
 30
0.0
 11
7450.340641334934
 21
7100.127478609064
 31
0.0
  0
LINE
  5
2AABB
330
2AA0D
100
AcDbEntity
  8
1PL-M1
100
AcDbLine
 10
5750.340641334936
 20
4239.849618183392
 30
0.0
 11
5750.340641334936
 21
7100.127478609064
 31
0.0
  0
LINE
  5
2AABC
330
2AA0D
100
AcDbEntity
  8
1PL-M1
100
AcDbLine
 10
3300.340641334933
 20
4239.849618183392
 30
0.0
 11
3300.340641334933
 21
7100.127478609064
 31
0.0
  0
TEXT
  5
2AABD
330
2AA0D
100
AcDbEntity
  8
HIKIDASHI
100
AcDbText
 10
5894.710814203683
 20
2258.800640501877
 30
0.0
 40
135.0
  1
基 礎 伏 図
  7
01
 72
     2
 11
6740.710814203684
 21
2258.800640501877
 31
0.0
100
AcDbText
  0
TEXT
  5
2AABE
330
2AA0D
100
AcDbEntity
  8
HIKIDASHI
100
AcDbText
 10
6841.960814203685
 20
2285.594137561715
 30
0.0
 40
90.0
  1
(S=
 41
0.6700000000000001
  7
00
100
AcDbText
  0
TEXT
  5
2AABF
330
2AA0D
100
AcDbEntity
  8
HIKIDASHI
100
AcDbText
 10
7134.618548838879
 20
2256.155327461405
 30
0.0
 40
90.0
  1
30
 41
0.6700000000000001
  7
00
100
AcDbText
  0
TEXT
  5
2AAC0
330
2AA0D
100
AcDbEntity
  8
HIKIDASHI
100
AcDbText
 10
7271.223311909122
 20
2285.594137561715
 30
0.0
 40
90.0
  1
)
 41
0.6700000000000001
  7
00
100
AcDbText
  0
TEXT
  5
2AAC1
330
2AA0D
100
AcDbEntity
  8
HIKIDASHI
100
AcDbText
 10
7082.536499730915
 20
2285.594137561715
 30
0.0
 40
90.0
  1
/
 41
0.6700000000000001
  7
00
100
AcDbText
  0
TEXT
  5
2AAC2
330
2AA0D
100
AcDbEntity
  8
HIKIDASHI
100
AcDbText
 10
7045.257219633568
 20
2303.100800028437
 30
0.0
 40
90.0
  1
1
 41
0.6700000000000001
  7
00
100
AcDbText
  0
TEXT
  5
2AAC3
330
2AA0D
100
AcDbEntity
  8
HIKIDASHI
100
AcDbText
 10
6045.987999378475
 20
2078.800640501877
 30
0.0
 40
120.0
  1
（  ：スパン数）
  7
01
 72
     4
 11
6601.987999378474
 21
2138.800640501876
 31
0.0
100
AcDbText
  0
TEXT
  5
2AAC4
330
2AA0D
100
AcDbEntity
  8
HIKIDASHI
100
AcDbText
 10
6224.577682688776
 20
2078.800640501877
 30
0.0
 40
120.0
  1
N
 41
0.6666666666666666
  7
00
 72
     4
 11
6266.482444593537
 21
2138.800640501876
 31
0.0
100
AcDbText
  0
LINE
  5
2AAC5
330
2AA0D
100
AcDbEntity
  8
HIKIDASHI
100
AcDbLine
 10
1201.223030723082
 20
520.2442032316803
 30
0.0
 11
1896.850383958654
 21
520.2442032316803
 31
0.0
  0
LINE
  5
2AAC6
330
2AA0D
100
AcDbEntity
  8
HIKIDASHI
100
AcDbLine
 10
1201.223030723082
 20
490.2442032316802
 30
0.0
 11
1896.850383958654
 21
490.2442032316802
 31
0.0
  0
TEXT
  5
2AAC7
330
2AA0D
100
AcDbEntity
  8
HIKIDASHI
100
AcDbText
 10
1231.223030723082
 20
565.2442032316803
 30
0.0
 40
90.0
  1
A  ~  A'
 41
0.6700000000000001
  7
00
100
AcDbText
  0
TEXT
  5
2AAC8
330
2AA0D
100
AcDbEntity
  8
HIKIDASHI
100
AcDbText
 10
1625.240310219643
 20
565.2442032316803
 30
0.0
 40
90.0
  1
断 面
  7
01
100
AcDbText
  0
LINE
  5
2AAE6
330
2AA0D
100
AcDbEntity
  8
KISO
100
AcDbLine
 10
1492.78670734087
 20
2336.712525199589
 30
0.0
 11
579.950633278502
 21
2336.712525199589
 31
0.0
  0
LINE
  5
2AAE7
330
2AA0D
100
AcDbEntity
  8
KISO
100
AcDbLine
 10
579.950633278502
 20
2201.712525199589
 30
0.0
 11
1024.03670734087
 21
2201.712525199589
 31
0.0
  0
LINE
  5
2AAE8
330
2AA0D
100
AcDbEntity
  8
KISO
100
AcDbLine
 10
579.950633278502
 20
2111.712525199587
 30
0.0
 11
1024.03670734087
 21
2111.712525199588
 31
0.0
  0
LINE
  5
2AAE9
330
2AA0D
100
AcDbEntity
  8
HATCH
100
AcDbLine
 10
794.2762491642314
 20
2336.712525199589
 30
0.0
 11
659.2762491642313
 21
2201.712525199589
 31
0.0
  0
LINE
  5
2AAEA
330
2AA0D
100
AcDbEntity
  8
HATCH
100
AcDbLine
 10
838.8239763789751
 20
2336.712525199589
 30
0.0
 11
703.8239763789788
 21
2201.712525199589
 31
0.0
  0
LINE
  5
2AAEB
330
2AA0D
100
AcDbEntity
  8
HATCH
100
AcDbLine
 10
883.3717035937334
 20
2336.712525199589
 30
0.0
 11
748.371703593737
 21
2201.712525199589
 31
0.0
  0
LINE
  5
2AAEC
330
2AA0D
100
AcDbEntity
  8
HIKIDASHI
100
AcDbLine
 10
1613.875498175096
 20
1640.311915089062
 30
0.0
 11
2124.975705355999
 21
1826.337177230213
 31
0.0
  0
LINE
  5
2AAED
330
2AA0D
100
AcDbEntity
  8
HATCH
100
AcDbLine
 10
1492.78670734087
 20
1695.914797984838
 30
0.0
 11
1383.584434555621
 21
1586.712525199589
 31
0.0
  0
LINE
  5
2AAEE
330
2AA0D
100
AcDbEntity
  8
HATCH
100
AcDbLine
 10
1492.78670734087
 20
1740.462525199589
 30
0.0
 11
1339.036707340869
 21
1586.712525199589
 31
0.0
  0
LINE
  5
2AAEF
330
2AA0D
100
AcDbEntity
  8
HATCH
100
AcDbLine
 10
1492.78670734087
 20
2145.462525199585
 30
0.0
 11
1024.03670734087
 21
1676.712525199584
 31
0.0
  0
LINE
  5
2AAF0
330
2AA0D
100
AcDbEntity
  8
HATCH
100
AcDbLine
 10
1492.78670734087
 20
2100.914797984838
 30
0.0
 11
1024.03670734087
 21
1632.164797984836
 31
0.0
  0
LINE
  5
2AAF1
330
2AA0D
100
AcDbEntity
  8
HASHIRA
100
AcDbLine
 10
1492.78670734087
 20
1586.712525199589
 30
0.0
 11
1492.78670734087
 21
3272.656887330819
 31
0.0
  0
LINE
  5
2AAF2
330
2AA0D
100
AcDbEntity
  8
HASHIRA
100
AcDbLine
 10
1605.286707340869
 20
1586.712525199589
 30
0.0
 11
1605.286707340869
 21
3272.656887330819
 31
0.0
  0
LINE
  5
2AAF3
330
2AA0D
100
AcDbEntity
  8
1PL-M1
100
AcDbLine
 10
1549.036707340871
 20
1271.712525199589
 30
0.0
 11
1549.036707340871
 21
3453.117345945646
 31
0.0
  0
LINE
  5
2AAF4
330
2AA0D
100
AcDbEntity
  8
KISO
100
AcDbLine
 10
2074.036707340871
 20
2336.712525199591
 30
0.0
 11
2074.036707340871
 21
1586.712525199591
 31
0.0
  0
LINE
  5
2AAF5
330
2AA0D
100
AcDbEntity
  8
KISO
100
AcDbLine
 10
1024.03670734087
 20
2336.712525199589
 30
0.0
 11
1024.03670734087
 21
1586.712525199589
 31
0.0
  0
LINE
  5
2AAF6
330
2AA0D
100
AcDbEntity
  8
HATCH
100
AcDbLine
 10
2074.036707340871
 20
1783.069343555339
 30
0.0
 11
1877.67988898512
 21
1586.712525199589
 31
0.0
  0
LINE
  5
2AAF7
330
2AA0D
100
AcDbEntity
  8
HATCH
100
AcDbLine
 10
2074.036707340871
 20
1827.617070770091
 30
0.0
 11
1833.132161770372
 21
1586.712525199589
 31
0.0
  0
LINE
  5
2AAF8
330
2AA0D
100
AcDbEntity
  8
HATCH
100
AcDbLine
 10
2074.036707340871
 20
1872.164797984845
 30
0.0
 11
1788.584434555606
 21
1586.712525199589
 31
0.0
  0
LINE
  5
2AAF9
330
2AA0D
100
AcDbEntity
  8
HATCH
100
AcDbLine
 10
1492.78670734087
 20
1651.367070770086
 30
0.0
 11
1428.132161770375
 21
1586.712525199589
 31
0.0
  0
SOLID
  5
2AAFA
330
2AA0D
100
AcDbEntity
  8
HIKIDASHI
100
AcDbTrace
 10
1617.295699608356
 20
1630.914988881202
 30
0.0
 11
1610.455296741842
 21
1649.708841296919
 31
0.0
 12
1557.493940927943
 22
1619.790706489521
 32
0.0
 13
1557.493940927943
 23
1619.790706489521
 33
0.0
  0
LINE
  5
2AAFB
330
2AA0D
100
AcDbEntity
  8
HIKIDASHI
100
AcDbLine
 10
1524.4912666931
 20
1616.712525199589
 30
0.0
 11
1573.58214798864
 21
1616.712525199589
 31
0.0
  0
LINE
  5
2AAFC
330
2AA0D
100
AcDbEntity
  8
HIKIDASHI
100
AcDbLine
 10
1524.4912666931
 20
1676.712525199588
 30
0.0
 11
1573.58214798864
 21
1676.712525199588
 31
0.0
  0
CIRCLE
  5
2AAFD
330
2AA0D
100
AcDbEntity
  8
HASHIRA
100
AcDbCircle
 10
1549.036707340871
 20
1676.712525199588
 30
0.0
 40
9.0
  0
CIRCLE
  5
2AAFE
330
2AA0D
100
AcDbEntity
  8
HASHIRA
100
AcDbCircle
 10
1549.036707340871
 20
1616.712525199589
 30
0.0
 40
9.0
  0
TEXT
  5
2AAFF
330
2AA0D
100
AcDbEntity
  8
SUNPOU
100
AcDbText
 10
2571.613279986268
 20
898.6362762333939
 30
0.0
 40
90.0
  1
ベース筋
  7
01
 72
     4
 11
2775.613279986267
 21
943.6362762333939
 31
0.0
100
AcDbText
  0
LINE
  5
2AB00
330
2AA0D
100
AcDbEntity
  8
HATCH
100
AcDbLine
 10
2946.35966122169
 20
2336.712525199589
 30
0.0
 11
2811.35966122169
 21
2201.71252519959
 31
0.0
  0
LINE
  5
2AB01
330
2AA0D
100
AcDbEntity
  8
HATCH
100
AcDbLine
 10
2901.811934006931
 20
2336.712525199589
 30
0.0
 11
2766.811934006931
 21
2201.71252519959
 31
0.0
  0
LINE
  5
2AB02
330
2AA0D
100
AcDbEntity
  8
HIKIDASHI
100
AcDbLine
 10
2124.975705355999
 20
1826.337177230213
 30
0.0
 11
2915.9349303874
 21
1826.337177230213
 31
0.0
  0
TEXT
  5
2AB03
330
2AA0D
100
AcDbEntity
  8
HIKIDASHI
100
AcDbText
 10
2415.111770498388
 20
1871.337177230213
 30
0.0
 40
90.0
  1
10   x 350
 41
0.6666666666666666
  7
00
 11
2415.111770498388
 21
1916.337177230214
 31
0.0
100
AcDbText
 73
     2
  0
LINE
  5
2AB04
330
2AA0D
100
AcDbEntity
  8
KISO
100
AcDbLine
 10
2074.036707340871
 20
2111.712525199588
 30
0.0
 11
3461.536707340871
 21
2111.712525199588
 31
0.0
  0
LINE
  5
2AB05
330
2AA0D
100
AcDbEntity
  8
KISO
100
AcDbLine
 10
2074.036707340871
 20
2201.71252519959
 30
0.0
 11
3461.536707340871
 21
2201.712525199593
 31
0.0
  0
LINE
  5
2AB06
330
2AA0D
100
AcDbEntity
  8
KISO
100
AcDbLine
 10
3461.536707340871
 20
2336.712525199591
 30
0.0
 11
1605.286707340869
 21
2336.712525199589
 31
0.0
  0
LINE
  5
2AB07
330
2AA0D
100
AcDbEntity
  8
HATCH
100
AcDbLine
 10
2074.036707340871
 20
2321.712525199589
 30
0.0
 11
1605.286707340869
 21
1852.962525199589
 31
0.0
  0
LINE
  5
2AB08
330
2AA0D
100
AcDbEntity
  8
HATCH
100
AcDbLine
 10
2074.036707340871
 20
2232.617070770087
 30
0.0
 11
1605.286707340869
 21
1763.867070770086
 31
0.0
  0
LINE
  5
2AB09
330
2AA0D
100
AcDbEntity
  8
HATCH
100
AcDbLine
 10
2074.036707340871
 20
2277.164797984843
 30
0.0
 11
1605.286707340869
 21
1808.41479798484
 31
0.0
  0
LINE
  5
2AB0A
330
2AA0D
100
AcDbEntity
  8
HATCH
100
AcDbLine
 10
1492.78670734087
 20
2190.010252414342
 30
0.0
 11
1024.03670734087
 21
1721.260252414339
 31
0.0
  0
LINE
  5
2AB0B
330
2AA0D
100
AcDbEntity
  8
HATCH
100
AcDbLine
 10
1189.941252911364
 20
2336.712525199589
 30
0.0
 11
1024.03670734087
 21
2170.807979629099
 31
0.0
  0
LINE
  5
2AB0C
330
2AA0D
100
AcDbEntity
  8
HATCH
100
AcDbLine
 10
1234.488980126122
 20
2336.712525199589
 30
0.0
 11
1024.03670734087
 21
2126.260252414339
 31
0.0
  0
LINE
  5
2AB0D
330
2AA0D
100
AcDbEntity
  8
HATCH
100
AcDbLine
 10
1279.036707340871
 20
2336.712525199589
 30
0.0
 11
1024.03670734087
 21
2081.712525199589
 31
0.0
  0
LINE
  5
2AB0E
330
2AA0D
100
AcDbEntity
  8
HATCH
100
AcDbLine
 10
1684.036707340873
 20
2336.712525199589
 30
0.0
 11
1605.286707340869
 21
2257.962525199583
 31
0.0
  0
LINE
  5
2AB0F
330
2AA0D
100
AcDbEntity
  8
HATCH
100
AcDbLine
 10
1639.48898012612
 20
2336.712525199589
 30
0.0
 11
1605.286707340869
 21
2302.510252414343
 31
0.0
  0
LINE
  5
2AB10
330
2AA0D
100
AcDbEntity
  8
HATCH
100
AcDbLine
 10
1728.584434555622
 20
2336.712525199589
 30
0.0
 11
1605.286707340869
 21
2213.414797984837
 31
0.0
  0
LINE
  5
2AB11
330
2AA0D
100
AcDbEntity
  8
HATCH
100
AcDbLine
 10
2452.264206792181
 20
2336.712525199589
 30
0.0
 11
2317.264206792184
 21
2201.712525199589
 31
0.0
  0
LINE
  5
2AB12
330
2AA0D
100
AcDbEntity
  8
HATCH
100
AcDbLine
 10
2496.811934006939
 20
2336.712525199589
 30
0.0
 11
2361.811934006939
 21
2201.712525199589
 31
0.0
  0
LINE
  5
2AB13
330
2AA0D
100
AcDbEntity
  8
HATCH
100
AcDbLine
 10
2407.716479577437
 20
2336.712525199589
 30
0.0
 11
2272.716479577441
 21
2201.712525199589
 31
0.0
  0
TEXT
  5
2AB14
330
2AA0D
100
AcDbEntity
  8
HIKIDASHI
100
AcDbText
 10
2154.975705355999
 20
1871.337177230213
 30
0.0
 40
90.0
  1
鉄筋
  7
01
 11
2154.975705355999
 21
1916.337177230214
 31
0.0
100
AcDbText
 73
     2
  0
TEXT
  5
2AB15
330
2AA0D
100
AcDbEntity
  8
HIKIDASHI
100
AcDbText
 10
2564.568931394453
 20
1886.337177230213
 30
0.0
 40
90.0
  1
%%c
 41
0.6666666666666666
  7
00
100
AcDbText
  0
LINE
  5
2AB16
330
2AA0D
100
AcDbEntity
  8
HATCH
100
AcDbLine
 10
2857.264206792187
 20
2336.712525199589
 30
0.0
 11
2722.264206792187
 21
2201.71252519959
 31
0.0
  0
LINE
  5
2AB17
330
2AA0D
100
AcDbEntity
  8
SUNPOU
100
AcDbLine
 10
3212.154678208669
 20
2426.712525199592
 30
0.0
 11
3264.116202435737
 21
2336.712525199591
 31
0.0
  0
LINE
  5
2AB18
330
2AA0D
100
AcDbEntity
  8
SUNPOU
100
AcDbLine
 10
3264.116202435737
 20
2336.712525199591
 30
0.0
 11
3316.077726662803
 21
2426.712525199592
 31
0.0
  0
LINE
  5
2AB19
330
2AA0D
100
AcDbEntity
  8
HATCH
100
AcDbLine
 10
3395.907388436436
 20
2336.712525199589
 30
0.0
 11
3260.907388436436
 21
2201.71252519959
 31
0.0
  0
LINE
  5
2AB1A
330
2AA0D
100
AcDbEntity
  8
HATCH
100
AcDbLine
 10
3351.359661221682
 20
2336.712525199589
 30
0.0
 11
3216.359661221682
 21
2201.71252519959
 31
0.0
  0
LINE
  5
2AB1B
330
2AA0D
100
AcDbEntity
  8
HATCH
100
AcDbLine
 10
3306.811934006934
 20
2336.712525199589
 30
0.0
 11
3171.811934006936
 21
2201.71252519959
 31
0.0
  0
LINE
  5
2AB1C
330
2AA0D
100
AcDbEntity
  8
U3
100
AcDbLine
 10
3461.536707340871
 20
2134.212525199593
 30
0.0
 11
3619.036707340871
 21
2291.712525199589
 31
0.0
  0
LINE
  5
2AB1D
330
2AA0D
100
AcDbEntity
  8
KISO
100
AcDbLine
 10
3461.536707340871
 20
2111.712525199588
 30
0.0
 11
3461.536707340871
 21
2336.712525199589
 31
0.0
  0
LINE
  5
2AB1E
330
2AA0D
100
AcDbEntity
  8
U3
100
AcDbLine
 10
3523.577291880684
 20
2196.253109739406
 30
0.0
 11
3585.617876420502
 21
2134.212525199592
 31
0.0
  0
LINE
  5
2AB1F
330
2AA0D
100
AcDbEntity
  8
U3
100
AcDbLine
 10
3461.536707340873
 20
2229.671940659772
 30
0.0
 11
3523.577291880691
 21
2291.712525199589
 31
0.0
  0
TEXT
  5
2AB20
330
2AA0D
100
AcDbEntity
  8
SUNPOU
100
AcDbText
 10
3195.544773864309
 20
2471.712525199591
 30
0.0
 40
90.0
  1
F.L
 41
0.6666666666666666
  7
00
 72
     4
 11
3264.116202435737
 21
2516.712525199591
 31
0.0
100
AcDbText
  0
LINE
  5
2AB21
330
2AA0D
100
AcDbEntity
  8
SUNPOU
100
AcDbLine
 10
3316.077726662803
 20
2426.712525199592
 30
0.0
 11
3212.154678208669
 21
2426.712525199592
 31
0.0
  0
TEXT
  5
2AB22
330
2AA0D
100
AcDbEntity
  8
SUNPOU
100
AcDbText
 10
3058.433361428913
 20
898.6362762333937
 30
0.0
 40
90.0
  1
5-D13×5-D13
 41
0.6700000000000001
  7
01
 72
     4
 11
3401.856218571771
 21
943.6362762333939
 31
0.0
100
AcDbText
  0
TEXT
  5
2AB23
330
2AA0D
100
AcDbEntity
  8
SUNPOU
100
AcDbText
 10
3798.668871767744
 20
2426.712525199591
 30
0.0
 40
90.0
  1
G.L
 41
0.6666666666666666
  7
00
 72
     4
 11
3870.097443196316
 21
2471.712525199591
 31
0.0
100
AcDbText
  0
LINE
  5
2AB24
330
2AA0D
100
AcDbEntity
  8
SUNPOU
100
AcDbLine
 10
3922.058967423382
 20
2381.712525199589
 30
0.0
 11
3818.135918969249
 21
2381.712525199589
 31
0.0
  0
LINE
  5
2AB25
330
2AA0D
100
AcDbEntity
  8
SUNPOU
100
AcDbLine
 10
3818.135918969249
 20
2381.712525199589
 30
0.0
 11
3870.097443196316
 21
2291.712525199589
 31
0.0
  0
LINE
  5
2AB26
330
2AA0D
100
AcDbEntity
  8
U3
100
AcDbLine
 10
3838.577291880687
 20
2196.253109739406
 30
0.0
 11
3900.617876420503
 21
2134.212525199592
 31
0.0
  0
LINE
  5
2AB27
330
2AA0D
100
AcDbEntity
  8
U3
100
AcDbLine
 10
4153.577291880679
 20
2291.712525199591
 30
0.0
 11
3461.536707340871
 21
2291.712525199589
 31
0.0
  0
LINE
  5
2AB28
330
2AA0D
100
AcDbEntity
  8
U3
100
AcDbLine
 10
3776.53670734087
 20
2134.212525199593
 30
0.0
 11
3934.036707340871
 21
2291.712525199589
 31
0.0
  0
LINE
  5
2AB29
330
2AA0D
100
AcDbEntity
  8
U3
100
AcDbLine
 10
3571.306999610777
 20
2243.982817469499
 30
0.0
 11
3681.077291880687
 21
2134.212525199589
 31
0.0
  0
LINE
  5
2AB2A
330
2AA0D
100
AcDbEntity
  8
U3
100
AcDbLine
 10
3619.036707340871
 20
2291.712525199589
 30
0.0
 11
3776.53670734087
 21
2134.212525199593
 31
0.0
  0
LINE
  5
2AB2B
330
2AA0D
100
AcDbEntity
  8
U3
100
AcDbLine
 10
3728.806999610777
 20
2181.942232929685
 30
0.0
 11
3838.577291880687
 21
2291.712525199589
 31
0.0
  0
LINE
  5
2AB2C
330
2AA0D
100
AcDbEntity
  8
U3
100
AcDbLine
 10
3681.077291880687
 20
2229.671940659776
 30
0.0
 11
3743.1178764205
 21
2291.712525199589
 31
0.0
  0
LINE
  5
2AB2D
330
2AA0D
100
AcDbEntity
  8
U3
100
AcDbLine
 10
4043.806999610772
 20
2181.942232929684
 30
0.0
 11
4153.577291880679
 21
2291.712525199591
 31
0.0
  0
LINE
  5
2AB2E
330
2AA0D
100
AcDbEntity
  8
U3
100
AcDbLine
 10
3934.036707340871
 20
2291.712525199589
 30
0.0
 11
4091.536707340867
 21
2134.212525199594
 31
0.0
  0
LINE
  5
2AB2F
330
2AA0D
100
AcDbEntity
  8
U3
100
AcDbLine
 10
3886.306999610777
 20
2243.982817469499
 30
0.0
 11
3996.077291880682
 21
2134.212525199589
 31
0.0
  0
LINE
  5
2AB30
330
2AA0D
100
AcDbEntity
  8
SUNPOU
100
AcDbLine
 10
3870.097443196316
 20
2291.712525199589
 30
0.0
 11
3922.058967423382
 21
2381.712525199589
 31
0.0
  0
LINE
  5
2AB31
330
2AA0D
100
AcDbEntity
  8
U3
100
AcDbLine
 10
3996.07729188068
 20
2229.671940659779
 30
0.0
 11
4058.117876420496
 21
2291.712525199589
 31
0.0
  0
LINE
  5
2AB32
330
2AA0D
100
AcDbEntity
  8
KISO
100
AcDbLine
 10
874.0367073408688
 20
1436.712525199589
 30
0.0
 11
2224.036707340871
 21
1436.712525199591
 31
0.0
  0
LINE
  5
2AB33
330
2AA0D
100
AcDbEntity
  8
KISO
100
AcDbLine
 10
874.0367073408705
 20
1436.712525199589
 30
0.0
 11
874.0367073408705
 21
1586.712525199586
 31
0.0
  0
LINE
  5
2AB34
330
2AA0D
100
AcDbEntity
  8
KISO
100
AcDbLine
 10
2224.036707340868
 20
1436.712525199591
 30
0.0
 11
2224.036707340871
 21
1586.712525199589
 31
0.0
  0
LINE
  5
2AB35
330
2AA0D
100
AcDbEntity
  8
KISO
100
AcDbLine
 10
874.0367073408688
 20
1586.712525199586
 30
0.0
 11
2224.036707340871
 21
1586.712525199589
 31
0.0
  0
LINE
  5
2AB36
330
2AA0D
100
AcDbEntity
  8
SUNPOU
100
AcDbLine
 10
3195.340641334933
 20
7260.127478609078
 30
0.0
 11
3300.340641334933
 21
7260.127478609078
 31
0.0
  0
TEXT
  5
2AB37
330
2AA0D
100
AcDbEntity
  8
SUNPOU
100
AcDbText
 10
2979.447784192076
 20
7206.556050037649
 30
0.0
 40
90.0
  1
A'
 50
0.0000000000000509
 41
0.6700000000000001
  7
00
 72
     4
 11
3015.340641334933
 21
7260.127478609078
 31
0.0
100
AcDbText
  0
LINE
  5
2AB38
330
2AA0D
100
AcDbEntity
  8
SUNPOU
100
AcDbLine
 10
3300.340641334933
 20
7260.127478609078
 30
0.0
 11
3300.340641334933
 21
7110.127478609077
 31
0.0
  0
LINE
  5
2AB39
330
2AA0D
100
AcDbEntity
  8
SUNPOU
100
AcDbLine
 10
3195.340641334936
 20
6140.127478609077
 30
0.0
 11
3300.340641334937
 21
6140.127478609077
 31
0.0
  0
TEXT
  5
2AB3A
330
2AA0D
100
AcDbEntity
  8
SUNPOU
100
AcDbText
 10
2989.497784192082
 20
6095.127478609077
 30
0.0
 40
90.0
  1
A
 50
0.0000000000000509
 41
0.6700000000000001
  7
00
 72
     4
 11
3015.340641334939
 21
6140.127478609077
 31
0.0
100
AcDbText
  0
LINE
  5
2AB3B
330
2AA0D
100
AcDbEntity
  8
SUNPOU
100
AcDbLine
 10
3300.340641334937
 20
6140.12747860908
 30
0.0
 11
3300.340641334937
 21
6290.127478609081
 31
0.0
  0
LINE
  5
2AB3C
330
2AA0D
100
AcDbEntity
  8
SUNPOU
100
AcDbLine
 10
3195.340641334936
 20
6125.127478609077
 30
0.0
 11
3105.34064133494
 21
6140.127478609077
 31
0.0
  0
LINE
  5
2AB3D
330
2AA0D
100
AcDbEntity
  8
SUNPOU
100
AcDbLine
 10
3105.34064133494
 20
6140.127478609077
 30
0.0
 11
3195.340641334936
 21
6155.127478609077
 31
0.0
  0
SOLID
  5
2AB3E
330
2AA0D
100
AcDbEntity
  8
SUNPOU
100
AcDbTrace
 10
3195.340641334936
 20
6125.127478609077
 30
0.0
 11
3195.340641334936
 21
6155.127478609077
 31
0.0
 12
3105.34064133494
 22
6140.127478609077
 32
0.0
 13
3105.34064133494
 23
6140.127478609077
 33
0.0
  0
LINE
  5
2AB3F
330
2AA0D
100
AcDbEntity
  8
SUNPOU
100
AcDbLine
 10
3195.340641334936
 20
6155.127478609077
 30
0.0
 11
3195.340641334936
 21
6125.127478609077
 31
0.0
  0
LINE
  5
2AB40
330
2AA0D
100
AcDbEntity
  8
SUNPOU
100
AcDbLine
 10
3195.340641334933
 20
7275.127478609078
 30
0.0
 11
3105.340641334933
 21
7260.127478609078
 31
0.0
  0
LINE
  5
2AB41
330
2AA0D
100
AcDbEntity
  8
SUNPOU
100
AcDbLine
 10
3105.340641334933
 20
7260.127478609078
 30
0.0
 11
3195.340641334933
 21
7245.127478609077
 31
0.0
  0
SOLID
  5
2AB42
330
2AA0D
100
AcDbEntity
  8
SUNPOU
100
AcDbTrace
 10
3195.340641334933
 20
7275.127478609078
 30
0.0
 11
3195.340641334933
 21
7245.127478609077
 31
0.0
 12
3105.340641334933
 22
7260.127478609078
 32
0.0
 13
3105.340641334933
 23
7260.127478609078
 33
0.0
  0
LINE
  5
2AB43
330
2AA0D
100
AcDbEntity
  8
SUNPOU
100
AcDbLine
 10
3195.340641334933
 20
7245.127478609077
 30
0.0
 11
3195.340641334933
 21
7275.127478609078
 31
0.0
  0
LINE
  5
2AB45
330
2AA0D
100
AcDbEntity
  8
WAKUSEN-01
100
AcDbLine
 10
325.5000000000006
 20
310.4999999999997
 30
0.0
 11
12286.5
 21
310.4999999999997
 31
0.0
  0
LINE
  5
2AB46
330
2AA0D
100
AcDbEntity
  8
WAKUSEN-01
100
AcDbLine
 10
325.5000000000006
 20
8431.500000000003
 30
0.0
 11
12286.5
 21
8431.500000000003
 31
0.0
  0
LINE
  5
2AB47
330
2AA0D
100
AcDbEntity
  8
WAKUSEN-01
100
AcDbLine
 10
325.5000000000006
 20
310.4999999999997
 30
0.0
 11
325.5000000000006
 21
8431.500000000003
 31
0.0
  0
LINE
  5
2AB48
330
2AA0D
100
AcDbEntity
  8
WAKUSEN-01
100
AcDbLine
 10
12286.5
 20
310.4999999999997
 30
0.0
 11
12286.5
 21
8431.500000000003
 31
0.0
  0
LINE
  5
2AB49
330
2AA0D
100
AcDbEntity
  8
WAKUSEN-01
100
AcDbLine
 10
7710.0
 20
931.4999999999999
 30
0.0
 11
12286.5
 21
931.4999999999995
 31
0.0
  0
LINE
  5
2AB4A
330
2AA0D
100
AcDbEntity
  8
WAKUSEN-02
100
AcDbLine
 10
7710.0
 20
620.9999999999999
 30
0.0
 11
10075.49999999999
 21
620.9999999999999
 31
0.0
  0
TEXT
  5
2AB4B
330
2AA0D
100
AcDbEntity
  8
WAKUMOJI-01
100
AcDbText
 10
7751.347597486038
 20
797.2136285022457
 30
0.0
 40
90.0
  1
名　称
  7
WAKUMOJI
100
AcDbText
  0
TEXT
  5
2AB4C
330
2AA0D
100
AcDbEntity
  8
WAKUMOJI-01
100
AcDbText
 10
7746.18955690947
 20
494.6733656174329
 30
0.0
 40
90.0
  1
機種名
  7
WAKUMOJI
100
AcDbText
  0
LINE
  5
2AB4D
330
2AA0D
100
AcDbEntity
  8
WAKUSEN-01
100
AcDbLine
 10
7710.0
 20
310.4999999999989
 30
0.0
 11
7710.0
 21
931.4999999999999
 31
0.0
  0
LINE
  5
2AB4E
330
2AA0D
100
AcDbEntity
  8
WAKUSEN-02
100
AcDbLine
 10
10075.49999999999
 20
310.4999999999973
 30
0.0
 11
10075.49999999999
 21
931.4999999999999
 31
0.0
  0
LINE
  5
2AB4F
330
2AA0D
100
AcDbEntity
  8
YODOROGO
100
AcDbLine
 10
11241.60162798446
 20
748.4060611609828
 30
0.0
 11
11186.10162798447
 21
748.4060611609828
 31
0.0
1001
AUTOCAD_POSTSCRIPT_FIGURE
1002
{
1000
PSFILL
1000
Grayscale
1000
Grayscale
1070
    25
1002
}
  0
LINE
  5
2AB50
330
2AA0D
100
AcDbEntity
  8
YODOROGO
100
AcDbLine
 10
11186.10162798447
 20
730.4060611609828
 30
0.0
 11
11241.60162798446
 21
730.4060611609828
 31
0.0
1001
AUTOCAD_POSTSCRIPT_FIGURE
1002
{
1000
PSFILL
1000
Grayscale
1000
Grayscale
1070
    25
1002
}
  0
LINE
  5
2AB51
330
2AA0D
100
AcDbEntity
  8
YODOROGO
100
AcDbLine
 10
11241.60162798446
 20
715.4060611609828
 30
0.0
 11
11186.10162798447
 21
715.4060611609828
 31
0.0
1001
AUTOCAD_POSTSCRIPT_FIGURE
1002
{
1000
PSFILL
1000
Grayscale
1000
Grayscale
1070
    25
1002
}
  0
LINE
  5
2AB52
330
2AA0D
100
AcDbEntity
  8
YODOROGO
100
AcDbLine
 10
11186.10162798447
 20
697.406061160983
 30
0.0
 11
11241.60162798446
 21
697.406061160983
 31
0.0
1001
AUTOCAD_POSTSCRIPT_FIGURE
1002
{
1000
PSFILL
1000
Grayscale
1000
Grayscale
1070
    25
1002
}
  0
LINE
  5
2AB53
330
2AA0D
100
AcDbEntity
  8
YODOROGO
100
AcDbLine
 10
11241.60162798446
 20
682.4060611609829
 30
0.0
 11
11186.10162798447
 21
682.4060611609829
 31
0.0
1001
AUTOCAD_POSTSCRIPT_FIGURE
1002
{
1000
PSFILL
1000
Grayscale
1000
Grayscale
1070
    25
1002
}
  0
LINE
  5
2AB54
330
2AA0D
100
AcDbEntity
  8
YODOROGO
100
AcDbLine
 10
11220.60162798447
 20
640.4060611609828
 30
0.0
 11
11241.60162798446
 21
640.4060611609828
 31
0.0
1001
AUTOCAD_POSTSCRIPT_FIGURE
1002
{
1000
PSFILL
1000
Grayscale
1000
Grayscale
1070
    25
1002
}
  0
LINE
  5
2AB55
330
2AA0D
100
AcDbEntity
  8
YODOROGO
100
AcDbLine
 10
11151.60162798447
 20
535.4060611609829
 30
0.0
 11
11226.60162798446
 21
555.5022505933164
 31
0.0
  0
LINE
  5
2AB56
330
2AA0D
100
AcDbEntity
  8
YODOROGO
100
AcDbLine
 10
11231.10162798446
 20
640.4060611609828
 30
0.0
 11
11207.10162798447
 21
640.4060611609828
 31
0.0
  0
ARC
  5
2AB57
330
2AA0D
100
AcDbEntity
  8
YODOROGO
100
AcDbCircle
 10
11345.38040618545
 20
677.9492284624735
 30
0.0
 40
143.2075740771177
100
AcDbArc
 50
213.9611167766784
 51
264.4787207431779
  0
ARC
  5
2AB58
330
2AA0D
100
AcDbEntity
  8
YODOROGO
100
AcDbCircle
 10
11345.38040618547
 20
677.9492284624883
 30
0.0
 40
143.2075740771305
100
AcDbArc
 50
208.141144204866
 51
212.9210361185994
  0
LINE
  5
2AB59
330
2AA0D
100
AcDbEntity
  8
YODOROGO
100
AcDbLine
 10
11164.27870236948
 20
583.8028730048376
 30
0.0
 11
11225.1690496907
 21
600.1183923964076
 31
0.0
  0
LINE
  5
2AB5A
330
2AA0D
100
AcDbEntity
  8
YODOROGO
100
AcDbLine
 10
11151.60162798447
 20
535.4060611609829
 30
0.0
 11
11226.60162798446
 21
555.5022505933164
 31
0.0
  0
LINE
  5
2AB5B
330
2AA0D
100
AcDbEntity
  8
YODOROGO
100
AcDbLine
 10
11231.10162798446
 20
640.4060611609828
 30
0.0
 11
11207.10162798447
 21
640.4060611609828
 31
0.0
  0
ARC
  5
2AB5C
330
2AA0D
100
AcDbEntity
  8
YODOROGO
100
AcDbCircle
 10
11345.38040618545
 20
677.9492284624735
 30
0.0
 40
143.2075740771177
100
AcDbArc
 50
213.9611167766784
 51
264.4787207431779
  0
LINE
  5
2AB5D
330
2AA0D
100
AcDbEntity
  8
YODOROGO
100
AcDbLine
 10
10797.60162798446
 20
682.4060611609829
 30
0.0
 11
10662.60162798446
 21
682.4060611609829
 31
0.0
  0
LINE
  5
2AB5E
330
2AA0D
100
AcDbEntity
  8
YODOROGO
100
AcDbLine
 10
10692.60162798446
 20
535.4060611609829
 30
0.0
 11
10797.60162798446
 21
535.4060611609829
 31
0.0
  0
LINE
  5
2AB5F
330
2AA0D
100
AcDbEntity
  8
YODOROGO
100
AcDbLine
 10
10773.60162798447
 20
721.4060611609824
 30
0.0
 11
10686.60162798446
 21
721.4060611609824
 31
0.0
  0
LINE
  5
2AB60
330
2AA0D
100
AcDbEntity
  8
YODOROGO
100
AcDbLine
 10
10719.60162798446
 20
760.4060611609829
 30
0.0
 11
10746.60162798447
 21
760.4060611609829
 31
0.0
  0
LINE
  5
2AB61
330
2AA0D
100
AcDbEntity
  8
YODOROGO
100
AcDbLine
 10
10662.60162798446
 20
640.4060611609828
 30
0.0
 11
10662.60162798446
 21
565.4060611609828
 31
0.0
  0
LINE
  5
2AB62
330
2AA0D
100
AcDbEntity
  8
YODOROGO
100
AcDbLine
 10
10686.60162798446
 20
586.4060611609825
 30
0.0
 11
10686.60162798446
 21
640.4060611609828
 31
0.0
  0
LINE
  5
2AB63
330
2AA0D
100
AcDbEntity
  8
YODOROGO
100
AcDbLine
 10
10719.60162798446
 20
655.4060611609838
 30
0.0
 11
10719.60162798446
 21
580.406061160983
 31
0.0
  0
LINE
  5
2AB64
330
2AA0D
100
AcDbEntity
  8
YODOROGO
100
AcDbLine
 10
10446.60162798447
 20
631.4060611609833
 30
0.0
 11
10416.60162798446
 21
607.4896552667143
 31
0.0
  0
LINE
  5
2AB65
330
2AA0D
100
AcDbEntity
  8
YODOROGO
100
AcDbLine
 10
10476.60162798446
 20
607.4896552667143
 30
0.0
 11
10446.60162798447
 21
631.4060611609833
 31
0.0
  0
LINE
  5
2AB66
330
2AA0D
100
AcDbEntity
  8
YODOROGO
100
AcDbLine
 10
10446.60162798447
 20
640.4060611609828
 30
0.0
 11
10476.60162798446
 21
616.4896552667137
 31
0.0
  0
LINE
  5
2AB67
330
2AA0D
100
AcDbEntity
  8
YODOROGO
100
AcDbLine
 10
10416.60162798446
 20
616.4896552667137
 30
0.0
 11
10446.60162798447
 21
640.4060611609828
 31
0.0
  0
LINE
  5
2AB68
330
2AA0D
100
AcDbEntity
  8
YODOROGO
100
AcDbLine
 10
10515.34245150633
 20
622.406061160983
 30
0.0
 11
10515.34245150633
 21
631.4060611609825
 31
0.0
  0
LINE
  5
2AB69
330
2AA0D
100
AcDbEntity
  8
YODOROGO
100
AcDbLine
 10
10491.60162798447
 20
631.4060611609825
 30
0.0
 11
10491.60162798447
 21
625.4060611609819
 31
0.0
  0
LINE
  5
2AB6A
330
2AA0D
100
AcDbEntity
  8
YODOROGO
100
AcDbLine
 10
10536.8008200866
 20
640.4060611609828
 30
0.0
 11
10536.8008200866
 21
620.813863977996
 31
0.0
1001
AUTOCAD_POSTSCRIPT_FIGURE
1002
{
1000
PSFILL
1000
Grayscale
1000
Grayscale
1070
   100
1002
}
  0
LINE
  5
2AB6B
330
2AA0D
100
AcDbEntity
  8
YODOROGO
100
AcDbLine
 10
10530.80082008658
 20
620.813863977996
 30
0.0
 11
10530.80082008658
 21
640.4060611609828
 31
0.0
1001
AUTOCAD_POSTSCRIPT_FIGURE
1002
{
1000
PSFILL
1000
Grayscale
1000
Grayscale
1070
   100
1002
}
  0
LINE
  5
2AB6C
330
2AA0D
100
AcDbEntity
  8
YODOROGO
100
AcDbLine
 10
10428.60162798447
 20
603.2894640162218
 30
0.0
 11
10428.60162798447
 21
612.2894640162221
 31
0.0
  0
LINE
  5
2AB6D
330
2AA0D
100
AcDbEntity
  8
YODOROGO
100
AcDbLine
 10
10464.60162798447
 20
603.2894640162218
 30
0.0
 11
10428.60162798447
 21
603.2894640162218
 31
0.0
  0
LINE
  5
2AB6E
330
2AA0D
100
AcDbEntity
  8
YODOROGO
100
AcDbLine
 10
10464.60162798447
 20
612.2894640162221
 30
0.0
 11
10464.60162798447
 21
603.2894640162218
 31
0.0
  0
LINE
  5
2AB6F
330
2AA0D
100
AcDbEntity
  8
YODOROGO
100
AcDbLine
 10
10428.60162798447
 20
612.2894640162221
 30
0.0
 11
10464.60162798447
 21
612.2894640162221
 31
0.0
  0
LINE
  5
2AB70
330
2AA0D
100
AcDbEntity
  8
YODOROGO
100
AcDbLine
 10
10434.1910958434
 20
588.1885715139279
 30
0.0
 11
10419.60162798446
 21
553.4060611609827
 31
0.0
1001
AUTOCAD_POSTSCRIPT_FIGURE
1002
{
1000
PSFILL
1000
Grayscale
1000
Grayscale
1070
   100
1002
}
  0
LINE
  5
2AB71
330
2AA0D
100
AcDbEntity
  8
YODOROGO
100
AcDbLine
 10
10416.60162798446
 20
588.1885715139279
 30
0.0
 11
10434.1910958434
 21
588.1885715139279
 31
0.0
1001
AUTOCAD_POSTSCRIPT_FIGURE
1002
{
1000
PSFILL
1000
Grayscale
1000
Grayscale
1070
   100
1002
}
  0
LINE
  5
2AB72
330
2AA0D
100
AcDbEntity
  8
YODOROGO
100
AcDbLine
 10
10416.60162798446
 20
595.688571513928
 30
0.0
 11
10416.60162798446
 21
588.1885715139279
 31
0.0
1001
AUTOCAD_POSTSCRIPT_FIGURE
1002
{
1000
PSFILL
1000
Grayscale
1000
Grayscale
1070
   100
1002
}
  0
LINE
  5
2AB73
330
2AA0D
100
AcDbEntity
  8
YODOROGO
100
AcDbLine
 10
10476.60162798446
 20
595.688571513928
 30
0.0
 11
10416.60162798446
 21
595.688571513928
 31
0.0
1001
AUTOCAD_POSTSCRIPT_FIGURE
1002
{
1000
PSFILL
1000
Grayscale
1000
Grayscale
1070
   100
1002
}
  0
LINE
  5
2AB74
330
2AA0D
100
AcDbEntity
  8
YODOROGO
100
AcDbLine
 10
10476.60162798446
 20
588.1885715139279
 30
0.0
 11
10476.60162798446
 21
595.688571513928
 31
0.0
1001
AUTOCAD_POSTSCRIPT_FIGURE
1002
{
1000
PSFILL
1000
Grayscale
1000
Grayscale
1070
   100
1002
}
  0
LINE
  5
2AB75
330
2AA0D
100
AcDbEntity
  8
YODOROGO
100
AcDbLine
 10
10441.69109584339
 20
588.1885715139279
 30
0.0
 11
10476.60162798446
 21
588.1885715139279
 31
0.0
1001
AUTOCAD_POSTSCRIPT_FIGURE
1002
{
1000
PSFILL
1000
Grayscale
1000
Grayscale
1070
   100
1002
}
  0
LINE
  5
2AB76
330
2AA0D
100
AcDbEntity
  8
YODOROGO
100
AcDbLine
 10
10430.83001935679
 20
560.9060611609827
 30
0.0
 11
10441.69109584339
 21
588.1885715139279
 31
0.0
1001
AUTOCAD_POSTSCRIPT_FIGURE
1002
{
1000
PSFILL
1000
Grayscale
1000
Grayscale
1070
   100
1002
}
  0
LINE
  5
2AB77
330
2AA0D
100
AcDbEntity
  8
YODOROGO
100
AcDbLine
 10
10463.27054655324
 20
560.9060611609827
 30
0.0
 11
10430.83001935679
 21
560.9060611609827
 31
0.0
1001
AUTOCAD_POSTSCRIPT_FIGURE
1002
{
1000
PSFILL
1000
Grayscale
1000
Grayscale
1070
   100
1002
}
  0
LINE
  5
2AB78
330
2AA0D
100
AcDbEntity
  8
YODOROGO
100
AcDbLine
 10
10456.8993767966
 20
576.0876790116348
 30
0.0
 11
10463.27054655324
 21
560.9060611609827
 31
0.0
1001
AUTOCAD_POSTSCRIPT_FIGURE
1002
{
1000
PSFILL
1000
Grayscale
1000
Grayscale
1070
   100
1002
}
  0
LINE
  5
2AB79
330
2AA0D
100
AcDbEntity
  8
YODOROGO
100
AcDbLine
 10
10462.8993767966
 20
576.0876790116348
 30
0.0
 11
10456.8993767966
 21
576.0876790116348
 31
0.0
1001
AUTOCAD_POSTSCRIPT_FIGURE
1002
{
1000
PSFILL
1000
Grayscale
1000
Grayscale
1070
   100
1002
}
  0
LINE
  5
2AB7A
330
2AA0D
100
AcDbEntity
  8
YODOROGO
100
AcDbLine
 10
10473.60162798447
 20
553.4060611609827
 30
0.0
 11
10462.8993767966
 21
576.0876790116348
 31
0.0
1001
AUTOCAD_POSTSCRIPT_FIGURE
1002
{
1000
PSFILL
1000
Grayscale
1000
Grayscale
1070
   100
1002
}
  0
LINE
  5
2AB7B
330
2AA0D
100
AcDbEntity
  8
YODOROGO
100
AcDbLine
 10
10419.60162798446
 20
553.4060611609827
 30
0.0
 11
10473.60162798447
 21
553.4060611609827
 31
0.0
1001
AUTOCAD_POSTSCRIPT_FIGURE
1002
{
1000
PSFILL
1000
Grayscale
1000
Grayscale
1070
   100
1002
}
  0
LINE
  5
2AB7C
330
2AA0D
100
AcDbEntity
  8
YODOROGO
100
AcDbLine
 10
10416.60162798446
 20
607.4896552667143
 30
0.0
 11
10416.60162798446
 21
616.4896552667137
 31
0.0
  0
LINE
  5
2AB7D
330
2AA0D
100
AcDbEntity
  8
YODOROGO
100
AcDbLine
 10
10476.60162798446
 20
616.4896552667137
 30
0.0
 11
10476.60162798446
 21
607.4896552667143
 31
0.0
  0
ARC
  5
2AB7E
330
2AA0D
100
AcDbEntity
  8
YODOROGO
100
AcDbCircle
 10
10584.72766580511
 20
600.3291619969972
 30
0.0
 40
65.99999999999997
100
AcDbArc
 50
280.3644312771313
 51
3.541483659218056
  0
ARC
  5
2AB7F
330
2AA0D
100
AcDbEntity
  8
YODOROGO
100
AcDbCircle
 10
10588.40851153474
 20
612.5991776107142
 30
0.0
 40
41.99999999999936
100
AcDbArc
 50
281.2490582504155
 51
348.7509417495832
  0
LINE
  5
2AB80
330
2AA0D
100
AcDbEntity
  8
YODOROGO
100
AcDbLine
 10
10596.60162798446
 20
571.4060611609824
 30
0.0
 11
10596.60162798446
 21
535.4060611609829
 31
0.0
  0
LINE
  5
2AB81
330
2AA0D
100
AcDbEntity
  8
YODOROGO
100
AcDbLine
 10
10507.53333890132
 20
603.9939618982182
 30
0.0
 11
10515.34245150633
 21
622.406061160983
 31
0.0
  0
LINE
  5
2AB82
330
2AA0D
100
AcDbEntity
  8
YODOROGO
100
AcDbLine
 10
10515.60162798446
 20
593.6701837306505
 30
0.0
 11
10507.53333890132
 21
603.9939618982182
 31
0.0
  0
LINE
  5
2AB83
330
2AA0D
100
AcDbEntity
  8
YODOROGO
100
AcDbLine
 10
10515.60162798446
 20
586.1701837306497
 30
0.0
 11
10515.60162798446
 21
593.6701837306505
 31
0.0
  0
LINE
  5
2AB84
330
2AA0D
100
AcDbEntity
  8
YODOROGO
100
AcDbLine
 10
10506.60162798447
 20
594.4638989060739
 30
0.0
 11
10515.60162798446
 21
586.1701837306497
 31
0.0
  0
LINE
  5
2AB85
330
2AA0D
100
AcDbEntity
  8
YODOROGO
100
AcDbLine
 10
10506.60162798447
 20
553.4060611609827
 30
0.0
 11
10506.60162798447
 21
594.4638989060739
 31
0.0
  0
LINE
  5
2AB86
330
2AA0D
100
AcDbEntity
  8
YODOROGO
100
AcDbLine
 10
10500.60162798446
 20
553.4060611609827
 30
0.0
 11
10506.60162798447
 21
553.4060611609827
 31
0.0
  0
LINE
  5
2AB87
330
2AA0D
100
AcDbEntity
  8
YODOROGO
100
AcDbLine
 10
10500.60162798446
 20
592.5020061336555
 30
0.0
 11
10500.60162798446
 21
553.4060611609827
 31
0.0
  0
LINE
  5
2AB88
330
2AA0D
100
AcDbEntity
  8
YODOROGO
100
AcDbLine
 10
10491.60162798447
 20
574.7880296375358
 30
0.0
 11
10500.60162798446
 21
592.5020061336555
 31
0.0
  0
LINE
  5
2AB89
330
2AA0D
100
AcDbEntity
  8
YODOROGO
100
AcDbLine
 10
10491.60162798447
 20
583.788029637536
 30
0.0
 11
10491.60162798447
 21
574.7880296375358
 31
0.0
  0
LINE
  5
2AB8A
330
2AA0D
100
AcDbEntity
  8
YODOROGO
100
AcDbLine
 10
10509.68579035926
 20
625.4060611609819
 30
0.0
 11
10491.60162798447
 21
583.788029637536
 31
0.0
  0
LINE
  5
2AB8B
330
2AA0D
100
AcDbEntity
  8
YODOROGO
100
AcDbLine
 10
10491.60162798447
 20
625.4060611609819
 30
0.0
 11
10509.68579035926
 21
625.4060611609819
 31
0.0
  0
LINE
  5
2AB8C
330
2AA0D
100
AcDbEntity
  8
YODOROGO
100
AcDbLine
 10
10518.80082008659
 20
620.813863977996
 30
0.0
 11
10530.80082008658
 21
620.813863977996
 31
0.0
1001
AUTOCAD_POSTSCRIPT_FIGURE
1002
{
1000
PSFILL
1000
Grayscale
1000
Grayscale
1070
   100
1002
}
  0
LINE
  5
2AB8D
330
2AA0D
100
AcDbEntity
  8
YODOROGO
100
AcDbLine
 10
10518.80082008659
 20
611.8138639779965
 30
0.0
 11
10518.80082008659
 21
620.813863977996
 31
0.0
1001
AUTOCAD_POSTSCRIPT_FIGURE
1002
{
1000
PSFILL
1000
Grayscale
1000
Grayscale
1070
   100
1002
}
  0
LINE
  5
2AB8E
330
2AA0D
100
AcDbEntity
  8
YODOROGO
100
AcDbLine
 10
10530.80082008658
 20
611.8138639779965
 30
0.0
 11
10518.80082008659
 21
611.8138639779965
 31
0.0
1001
AUTOCAD_POSTSCRIPT_FIGURE
1002
{
1000
PSFILL
1000
Grayscale
1000
Grayscale
1070
   100
1002
}
  0
LINE
  5
2AB8F
330
2AA0D
100
AcDbEntity
  8
YODOROGO
100
AcDbLine
 10
10530.80082008658
 20
562.4060611609831
 30
0.0
 11
10530.80082008658
 21
611.8138639779965
 31
0.0
1001
AUTOCAD_POSTSCRIPT_FIGURE
1002
{
1000
PSFILL
1000
Grayscale
1000
Grayscale
1070
   100
1002
}
  0
LINE
  5
2AB90
330
2AA0D
100
AcDbEntity
  8
YODOROGO
100
AcDbLine
 10
10518.8008200866
 20
562.4060611609831
 30
0.0
 11
10530.80082008658
 21
562.4060611609831
 31
0.0
1001
AUTOCAD_POSTSCRIPT_FIGURE
1002
{
1000
PSFILL
1000
Grayscale
1000
Grayscale
1070
   100
1002
}
  0
LINE
  5
2AB91
330
2AA0D
100
AcDbEntity
  8
YODOROGO
100
AcDbLine
 10
10518.8008200866
 20
553.4060611609827
 30
0.0
 11
10518.8008200866
 21
562.4060611609831
 31
0.0
1001
AUTOCAD_POSTSCRIPT_FIGURE
1002
{
1000
PSFILL
1000
Grayscale
1000
Grayscale
1070
   100
1002
}
  0
LINE
  5
2AB92
330
2AA0D
100
AcDbEntity
  8
YODOROGO
100
AcDbLine
 10
10551.60162798447
 20
553.4060611609827
 30
0.0
 11
10518.8008200866
 21
553.4060611609827
 31
0.0
1001
AUTOCAD_POSTSCRIPT_FIGURE
1002
{
1000
PSFILL
1000
Grayscale
1000
Grayscale
1070
   100
1002
}
  0
LINE
  5
2AB93
330
2AA0D
100
AcDbEntity
  8
YODOROGO
100
AcDbLine
 10
10551.60162798447
 20
562.4060611609831
 30
0.0
 11
10551.60162798447
 21
553.4060611609827
 31
0.0
1001
AUTOCAD_POSTSCRIPT_FIGURE
1002
{
1000
PSFILL
1000
Grayscale
1000
Grayscale
1070
   100
1002
}
  0
LINE
  5
2AB94
330
2AA0D
100
AcDbEntity
  8
YODOROGO
100
AcDbLine
 10
10536.8008200866
 20
562.4060611609831
 30
0.0
 11
10551.60162798447
 21
562.4060611609831
 31
0.0
1001
AUTOCAD_POSTSCRIPT_FIGURE
1002
{
1000
PSFILL
1000
Grayscale
1000
Grayscale
1070
   100
1002
}
  0
LINE
  5
2AB95
330
2AA0D
100
AcDbEntity
  8
YODOROGO
100
AcDbLine
 10
10536.8008200866
 20
611.8138639779965
 30
0.0
 11
10536.8008200866
 21
562.4060611609831
 31
0.0
1001
AUTOCAD_POSTSCRIPT_FIGURE
1002
{
1000
PSFILL
1000
Grayscale
1000
Grayscale
1070
   100
1002
}
  0
LINE
  5
2AB96
330
2AA0D
100
AcDbEntity
  8
YODOROGO
100
AcDbLine
 10
10551.60162798447
 20
611.8138639779965
 30
0.0
 11
10536.8008200866
 21
611.8138639779965
 31
0.0
1001
AUTOCAD_POSTSCRIPT_FIGURE
1002
{
1000
PSFILL
1000
Grayscale
1000
Grayscale
1070
   100
1002
}
  0
LINE
  5
2AB97
330
2AA0D
100
AcDbEntity
  8
YODOROGO
100
AcDbLine
 10
10551.60162798447
 20
620.813863977996
 30
0.0
 11
10551.60162798447
 21
611.8138639779965
 31
0.0
1001
AUTOCAD_POSTSCRIPT_FIGURE
1002
{
1000
PSFILL
1000
Grayscale
1000
Grayscale
1070
   100
1002
}
  0
LINE
  5
2AB98
330
2AA0D
100
AcDbEntity
  8
YODOROGO
100
AcDbLine
 10
10536.8008200866
 20
620.813863977996
 30
0.0
 11
10551.60162798447
 21
620.813863977996
 31
0.0
1001
AUTOCAD_POSTSCRIPT_FIGURE
1002
{
1000
PSFILL
1000
Grayscale
1000
Grayscale
1070
   100
1002
}
  0
LINE
  5
2AB99
330
2AA0D
100
AcDbEntity
  8
YODOROGO
100
AcDbLine
 10
10650.60162798447
 20
625.406061160983
 30
0.0
 11
10629.60162798447
 21
625.406061160983
 31
0.0
  0
LINE
  5
2AB9A
330
2AA0D
100
AcDbEntity
  8
YODOROGO
100
AcDbLine
 10
10650.60162798447
 20
604.4060611609832
 30
0.0
 11
10650.60162798447
 21
625.406061160983
 31
0.0
  0
LINE
  5
2AB9B
330
2AA0D
100
AcDbEntity
  8
YODOROGO
100
AcDbLine
 10
10629.60162798447
 20
625.406061160983
 30
0.0
 11
10629.60162798447
 21
604.4060611609832
 31
0.0
  0
ARC
  5
2AB9C
330
2AA0D
100
AcDbEntity
  8
YODOROGO
100
AcDbCircle
 10
10692.60162798446
 20
565.4060611609828
 30
0.0
 40
30.0
100
AcDbArc
 50
180.0
 51
270.0
  0
ARC
  5
2AB9D
330
2AA0D
100
AcDbEntity
  8
YODOROGO
100
AcDbCircle
 10
10701.60162798446
 20
586.4060611609825
 30
0.0
 40
15.0
100
AcDbArc
 50
180.0
 51
270.0
  0
LINE
  5
2AB9E
330
2AA0D
100
AcDbEntity
  8
YODOROGO
100
AcDbLine
 10
10710.60162798447
 20
571.4060611609824
 30
0.0
 11
10701.60162798446
 21
571.4060611609824
 31
0.0
  0
ARC
  5
2AB9F
330
2AA0D
100
AcDbEntity
  8
YODOROGO
100
AcDbCircle
 10
10710.60162798447
 20
580.4060611609819
 30
0.0
 40
8.999999999998637
100
AcDbArc
 50
270.0
 51
0.0000000000054281
  0
LINE
  5
2ABA0
330
2AA0D
100
AcDbEntity
  8
YODOROGO
100
AcDbLine
 10
10425.60162798447
 20
709.0449677976399
 30
0.0
 11
10416.60162798446
 21
691.4162804818772
 31
0.0
1001
AUTOCAD_POSTSCRIPT_FIGURE
1002
{
1000
PSFILL
1000
Grayscale
1000
Grayscale
1070
   100
1002
}
  0
LINE
  5
2ABA1
330
2AA0D
100
AcDbEntity
  8
YODOROGO
100
AcDbLine
 10
10425.60162798447
 20
655.406061160983
 30
0.0
 11
10425.60162798447
 21
709.0449677976399
 31
0.0
1001
AUTOCAD_POSTSCRIPT_FIGURE
1002
{
1000
PSFILL
1000
Grayscale
1000
Grayscale
1070
   100
1002
}
  0
LINE
  5
2ABA2
330
2AA0D
100
AcDbEntity
  8
YODOROGO
100
AcDbLine
 10
10431.60162798447
 20
655.406061160983
 30
0.0
 11
10425.60162798447
 21
655.406061160983
 31
0.0
1001
AUTOCAD_POSTSCRIPT_FIGURE
1002
{
1000
PSFILL
1000
Grayscale
1000
Grayscale
1070
   100
1002
}
  0
LINE
  5
2ABA3
330
2AA0D
100
AcDbEntity
  8
YODOROGO
100
AcDbLine
 10
10431.60162798447
 20
710.1642495319751
 30
0.0
 11
10431.60162798447
 21
655.406061160983
 31
0.0
1001
AUTOCAD_POSTSCRIPT_FIGURE
1002
{
1000
PSFILL
1000
Grayscale
1000
Grayscale
1070
   100
1002
}
  0
LINE
  5
2ABA4
330
2AA0D
100
AcDbEntity
  8
YODOROGO
100
AcDbLine
 10
10440.60162798446
 20
700.3705343565512
 30
0.0
 11
10431.60162798447
 21
710.1642495319751
 31
0.0
1001
AUTOCAD_POSTSCRIPT_FIGURE
1002
{
1000
PSFILL
1000
Grayscale
1000
Grayscale
1070
   100
1002
}
  0
LINE
  5
2ABA5
330
2AA0D
100
AcDbEntity
  8
YODOROGO
100
AcDbLine
 10
10440.60162798446
 20
706.3705343565509
 30
0.0
 11
10440.60162798446
 21
700.3705343565512
 31
0.0
1001
AUTOCAD_POSTSCRIPT_FIGURE
1002
{
1000
PSFILL
1000
Grayscale
1000
Grayscale
1070
   100
1002
}
  0
LINE
  5
2ABA6
330
2AA0D
100
AcDbEntity
  8
YODOROGO
100
AcDbLine
 10
10431.60162798447
 20
719.1642495319745
 30
0.0
 11
10440.60162798446
 21
706.3705343565509
 31
0.0
1001
AUTOCAD_POSTSCRIPT_FIGURE
1002
{
1000
PSFILL
1000
Grayscale
1000
Grayscale
1070
   100
1002
}
  0
LINE
  5
2ABA7
330
2AA0D
100
AcDbEntity
  8
YODOROGO
100
AcDbLine
 10
10431.60162798447
 20
727.4060611609828
 30
0.0
 11
10431.60162798447
 21
719.1642495319745
 31
0.0
1001
AUTOCAD_POSTSCRIPT_FIGURE
1002
{
1000
PSFILL
1000
Grayscale
1000
Grayscale
1070
   100
1002
}
  0
LINE
  5
2ABA8
330
2AA0D
100
AcDbEntity
  8
YODOROGO
100
AcDbLine
 10
10458.60162798446
 20
727.4060611609828
 30
0.0
 11
10431.60162798447
 21
727.4060611609828
 31
0.0
1001
AUTOCAD_POSTSCRIPT_FIGURE
1002
{
1000
PSFILL
1000
Grayscale
1000
Grayscale
1070
   100
1002
}
  0
LINE
  5
2ABA9
330
2AA0D
100
AcDbEntity
  8
YODOROGO
100
AcDbLine
 10
10458.60162798446
 20
712.7131308511124
 30
0.0
 11
10458.60162798446
 21
727.4060611609828
 31
0.0
1001
AUTOCAD_POSTSCRIPT_FIGURE
1002
{
1000
PSFILL
1000
Grayscale
1000
Grayscale
1070
   100
1002
}
  0
LINE
  5
2ABAA
330
2AA0D
100
AcDbEntity
  8
YODOROGO
100
AcDbLine
 10
10446.60162798447
 20
712.7131308511124
 30
0.0
 11
10458.60162798446
 21
712.7131308511124
 31
0.0
1001
AUTOCAD_POSTSCRIPT_FIGURE
1002
{
1000
PSFILL
1000
Grayscale
1000
Grayscale
1070
   100
1002
}
  0
LINE
  5
2ABAB
330
2AA0D
100
AcDbEntity
  8
YODOROGO
100
AcDbLine
 10
10446.60162798447
 20
706.7131308511119
 30
0.0
 11
10446.60162798447
 21
712.7131308511124
 31
0.0
1001
AUTOCAD_POSTSCRIPT_FIGURE
1002
{
1000
PSFILL
1000
Grayscale
1000
Grayscale
1070
   100
1002
}
  0
LINE
  5
2ABAC
330
2AA0D
100
AcDbEntity
  8
YODOROGO
100
AcDbLine
 10
10458.60162798446
 20
706.7131308511119
 30
0.0
 11
10446.60162798447
 21
706.7131308511119
 31
0.0
1001
AUTOCAD_POSTSCRIPT_FIGURE
1002
{
1000
PSFILL
1000
Grayscale
1000
Grayscale
1070
   100
1002
}
  0
LINE
  5
2ABAD
330
2AA0D
100
AcDbEntity
  8
YODOROGO
100
AcDbLine
 10
10458.60162798446
 20
704.8571917366647
 30
0.0
 11
10458.60162798446
 21
706.7131308511119
 31
0.0
1001
AUTOCAD_POSTSCRIPT_FIGURE
1002
{
1000
PSFILL
1000
Grayscale
1000
Grayscale
1070
   100
1002
}
  0
LINE
  5
2ABAE
330
2AA0D
100
AcDbEntity
  8
YODOROGO
100
AcDbLine
 10
10443.60162798447
 20
679.8656179355313
 30
0.0
 11
10458.60162798446
 21
704.8571917366647
 31
0.0
1001
AUTOCAD_POSTSCRIPT_FIGURE
1002
{
1000
PSFILL
1000
Grayscale
1000
Grayscale
1070
   100
1002
}
  0
LINE
  5
2ABAF
330
2AA0D
100
AcDbEntity
  8
YODOROGO
100
AcDbLine
 10
10443.60162798447
 20
673.8656179355309
 30
0.0
 11
10443.60162798447
 21
679.8656179355313
 31
0.0
1001
AUTOCAD_POSTSCRIPT_FIGURE
1002
{
1000
PSFILL
1000
Grayscale
1000
Grayscale
1070
   100
1002
}
  0
LINE
  5
2ABB0
330
2AA0D
100
AcDbEntity
  8
YODOROGO
100
AcDbLine
 10
10458.60162798446
 20
692.8571917366638
 30
0.0
 11
10443.60162798447
 21
673.8656179355309
 31
0.0
1001
AUTOCAD_POSTSCRIPT_FIGURE
1002
{
1000
PSFILL
1000
Grayscale
1000
Grayscale
1070
   100
1002
}
  0
LINE
  5
2ABB1
330
2AA0D
100
AcDbEntity
  8
YODOROGO
100
AcDbLine
 10
10458.60162798446
 20
655.406061160983
 30
0.0
 11
10458.60162798446
 21
692.8571917366638
 31
0.0
1001
AUTOCAD_POSTSCRIPT_FIGURE
1002
{
1000
PSFILL
1000
Grayscale
1000
Grayscale
1070
   100
1002
}
  0
LINE
  5
2ABB2
330
2AA0D
100
AcDbEntity
  8
YODOROGO
100
AcDbLine
 10
10464.60162798447
 20
655.406061160983
 30
0.0
 11
10458.60162798446
 21
655.406061160983
 31
0.0
1001
AUTOCAD_POSTSCRIPT_FIGURE
1002
{
1000
PSFILL
1000
Grayscale
1000
Grayscale
1070
   100
1002
}
  0
LINE
  5
2ABB3
330
2AA0D
100
AcDbEntity
  8
YODOROGO
100
AcDbLine
 10
10464.60162798447
 20
693.5283795595521
 30
0.0
 11
10464.60162798447
 21
655.406061160983
 31
0.0
1001
AUTOCAD_POSTSCRIPT_FIGURE
1002
{
1000
PSFILL
1000
Grayscale
1000
Grayscale
1070
   100
1002
}
  0
LINE
  5
2ABB4
330
2AA0D
100
AcDbEntity
  8
YODOROGO
100
AcDbLine
 10
10476.60162798446
 20
673.8656179355309
 30
0.0
 11
10464.60162798447
 21
693.5283795595521
 31
0.0
1001
AUTOCAD_POSTSCRIPT_FIGURE
1002
{
1000
PSFILL
1000
Grayscale
1000
Grayscale
1070
   100
1002
}
  0
LINE
  5
2ABB5
330
2AA0D
100
AcDbEntity
  8
YODOROGO
100
AcDbLine
 10
10476.60162798446
 20
679.8656179355313
 30
0.0
 11
10476.60162798446
 21
673.8656179355309
 31
0.0
1001
AUTOCAD_POSTSCRIPT_FIGURE
1002
{
1000
PSFILL
1000
Grayscale
1000
Grayscale
1070
   100
1002
}
  0
LINE
  5
2ABB6
330
2AA0D
100
AcDbEntity
  8
YODOROGO
100
AcDbLine
 10
10464.60162798447
 20
705.5283795595531
 30
0.0
 11
10476.60162798446
 21
679.8656179355313
 31
0.0
1001
AUTOCAD_POSTSCRIPT_FIGURE
1002
{
1000
PSFILL
1000
Grayscale
1000
Grayscale
1070
   100
1002
}
  0
LINE
  5
2ABB7
330
2AA0D
100
AcDbEntity
  8
YODOROGO
100
AcDbLine
 10
10464.60162798447
 20
706.7131308511128
 30
0.0
 11
10464.60162798447
 21
705.5283795595531
 31
0.0
1001
AUTOCAD_POSTSCRIPT_FIGURE
1002
{
1000
PSFILL
1000
Grayscale
1000
Grayscale
1070
   100
1002
}
  0
LINE
  5
2ABB8
330
2AA0D
100
AcDbEntity
  8
YODOROGO
100
AcDbLine
 10
10476.60162798446
 20
706.7131308511119
 30
0.0
 11
10464.60162798447
 21
706.7131308511128
 31
0.0
1001
AUTOCAD_POSTSCRIPT_FIGURE
1002
{
1000
PSFILL
1000
Grayscale
1000
Grayscale
1070
   100
1002
}
  0
LINE
  5
2ABB9
330
2AA0D
100
AcDbEntity
  8
YODOROGO
100
AcDbLine
 10
10476.60162798446
 20
712.7131308511124
 30
0.0
 11
10476.60162798446
 21
706.7131308511119
 31
0.0
1001
AUTOCAD_POSTSCRIPT_FIGURE
1002
{
1000
PSFILL
1000
Grayscale
1000
Grayscale
1070
   100
1002
}
  0
LINE
  5
2ABBA
330
2AA0D
100
AcDbEntity
  8
YODOROGO
100
AcDbLine
 10
10464.60162798447
 20
712.7131308511124
 30
0.0
 11
10476.60162798446
 21
712.7131308511124
 31
0.0
1001
AUTOCAD_POSTSCRIPT_FIGURE
1002
{
1000
PSFILL
1000
Grayscale
1000
Grayscale
1070
   100
1002
}
  0
LINE
  5
2ABBB
330
2AA0D
100
AcDbEntity
  8
YODOROGO
100
AcDbLine
 10
10464.60162798447
 20
727.4060611609828
 30
0.0
 11
10464.60162798447
 21
712.7131308511124
 31
0.0
1001
AUTOCAD_POSTSCRIPT_FIGURE
1002
{
1000
PSFILL
1000
Grayscale
1000
Grayscale
1070
   100
1002
}
  0
LINE
  5
2ABBC
330
2AA0D
100
AcDbEntity
  8
YODOROGO
100
AcDbLine
 10
10476.60162798446
 20
727.4060611609828
 30
0.0
 11
10464.60162798447
 21
727.4060611609828
 31
0.0
1001
AUTOCAD_POSTSCRIPT_FIGURE
1002
{
1000
PSFILL
1000
Grayscale
1000
Grayscale
1070
   100
1002
}
  0
LINE
  5
2ABBD
330
2AA0D
100
AcDbEntity
  8
YODOROGO
100
AcDbLine
 10
10476.60162798446
 20
733.4060611609828
 30
0.0
 11
10476.60162798446
 21
727.4060611609828
 31
0.0
1001
AUTOCAD_POSTSCRIPT_FIGURE
1002
{
1000
PSFILL
1000
Grayscale
1000
Grayscale
1070
   100
1002
}
  0
LINE
  5
2ABBE
330
2AA0D
100
AcDbEntity
  8
YODOROGO
100
AcDbLine
 10
10464.60162798447
 20
733.4060611609828
 30
0.0
 11
10476.60162798446
 21
733.4060611609828
 31
0.0
1001
AUTOCAD_POSTSCRIPT_FIGURE
1002
{
1000
PSFILL
1000
Grayscale
1000
Grayscale
1070
   100
1002
}
  0
LINE
  5
2ABBF
330
2AA0D
100
AcDbEntity
  8
YODOROGO
100
AcDbLine
 10
10464.60162798447
 20
742.4060611609832
 30
0.0
 11
10464.60162798447
 21
733.4060611609828
 31
0.0
1001
AUTOCAD_POSTSCRIPT_FIGURE
1002
{
1000
PSFILL
1000
Grayscale
1000
Grayscale
1070
   100
1002
}
  0
LINE
  5
2ABC0
330
2AA0D
100
AcDbEntity
  8
YODOROGO
100
AcDbLine
 10
10458.60162798446
 20
742.4060611609832
 30
0.0
 11
10464.60162798447
 21
742.4060611609832
 31
0.0
1001
AUTOCAD_POSTSCRIPT_FIGURE
1002
{
1000
PSFILL
1000
Grayscale
1000
Grayscale
1070
   100
1002
}
  0
LINE
  5
2ABC1
330
2AA0D
100
AcDbEntity
  8
YODOROGO
100
AcDbLine
 10
10458.60162798446
 20
733.4060611609828
 30
0.0
 11
10458.60162798446
 21
742.4060611609832
 31
0.0
1001
AUTOCAD_POSTSCRIPT_FIGURE
1002
{
1000
PSFILL
1000
Grayscale
1000
Grayscale
1070
   100
1002
}
  0
LINE
  5
2ABC2
330
2AA0D
100
AcDbEntity
  8
YODOROGO
100
AcDbLine
 10
10449.60162798447
 20
733.4060611609828
 30
0.0
 11
10458.60162798446
 21
733.4060611609828
 31
0.0
1001
AUTOCAD_POSTSCRIPT_FIGURE
1002
{
1000
PSFILL
1000
Grayscale
1000
Grayscale
1070
   100
1002
}
  0
LINE
  5
2ABC3
330
2AA0D
100
AcDbEntity
  8
YODOROGO
100
AcDbLine
 10
10449.60162798447
 20
742.4060611609832
 30
0.0
 11
10449.60162798447
 21
733.4060611609828
 31
0.0
1001
AUTOCAD_POSTSCRIPT_FIGURE
1002
{
1000
PSFILL
1000
Grayscale
1000
Grayscale
1070
   100
1002
}
  0
LINE
  5
2ABC4
330
2AA0D
100
AcDbEntity
  8
YODOROGO
100
AcDbLine
 10
10443.60162798447
 20
742.4060611609832
 30
0.0
 11
10449.60162798447
 21
742.4060611609832
 31
0.0
1001
AUTOCAD_POSTSCRIPT_FIGURE
1002
{
1000
PSFILL
1000
Grayscale
1000
Grayscale
1070
   100
1002
}
  0
LINE
  5
2ABC5
330
2AA0D
100
AcDbEntity
  8
YODOROGO
100
AcDbLine
 10
10443.60162798447
 20
733.4060611609828
 30
0.0
 11
10443.60162798447
 21
742.4060611609832
 31
0.0
1001
AUTOCAD_POSTSCRIPT_FIGURE
1002
{
1000
PSFILL
1000
Grayscale
1000
Grayscale
1070
   100
1002
}
  0
LINE
  5
2ABC6
330
2AA0D
100
AcDbEntity
  8
YODOROGO
100
AcDbLine
 10
10431.60162798447
 20
733.4060611609828
 30
0.0
 11
10443.60162798447
 21
733.4060611609828
 31
0.0
1001
AUTOCAD_POSTSCRIPT_FIGURE
1002
{
1000
PSFILL
1000
Grayscale
1000
Grayscale
1070
   100
1002
}
  0
LINE
  5
2ABC7
330
2AA0D
100
AcDbEntity
  8
YODOROGO
100
AcDbLine
 10
10431.60162798447
 20
742.4060611609832
 30
0.0
 11
10431.60162798447
 21
733.4060611609828
 31
0.0
1001
AUTOCAD_POSTSCRIPT_FIGURE
1002
{
1000
PSFILL
1000
Grayscale
1000
Grayscale
1070
   100
1002
}
  0
LINE
  5
2ABC8
330
2AA0D
100
AcDbEntity
  8
YODOROGO
100
AcDbLine
 10
10425.60162798447
 20
742.4060611609832
 30
0.0
 11
10431.60162798447
 21
742.4060611609832
 31
0.0
1001
AUTOCAD_POSTSCRIPT_FIGURE
1002
{
1000
PSFILL
1000
Grayscale
1000
Grayscale
1070
   100
1002
}
  0
LINE
  5
2ABC9
330
2AA0D
100
AcDbEntity
  8
YODOROGO
100
AcDbLine
 10
10425.60162798447
 20
733.4060611609828
 30
0.0
 11
10425.60162798447
 21
742.4060611609832
 31
0.0
1001
AUTOCAD_POSTSCRIPT_FIGURE
1002
{
1000
PSFILL
1000
Grayscale
1000
Grayscale
1070
   100
1002
}
  0
LINE
  5
2ABCA
330
2AA0D
100
AcDbEntity
  8
YODOROGO
100
AcDbLine
 10
10416.60162798446
 20
733.4060611609828
 30
0.0
 11
10425.60162798447
 21
733.4060611609828
 31
0.0
1001
AUTOCAD_POSTSCRIPT_FIGURE
1002
{
1000
PSFILL
1000
Grayscale
1000
Grayscale
1070
   100
1002
}
  0
LINE
  5
2ABCB
330
2AA0D
100
AcDbEntity
  8
YODOROGO
100
AcDbLine
 10
10416.60162798446
 20
727.4060611609828
 30
0.0
 11
10416.60162798446
 21
733.4060611609828
 31
0.0
1001
AUTOCAD_POSTSCRIPT_FIGURE
1002
{
1000
PSFILL
1000
Grayscale
1000
Grayscale
1070
   100
1002
}
  0
LINE
  5
2ABCC
330
2AA0D
100
AcDbEntity
  8
YODOROGO
100
AcDbLine
 10
10425.60162798447
 20
727.4060611609828
 30
0.0
 11
10416.60162798446
 21
727.4060611609828
 31
0.0
1001
AUTOCAD_POSTSCRIPT_FIGURE
1002
{
1000
PSFILL
1000
Grayscale
1000
Grayscale
1070
   100
1002
}
  0
LINE
  5
2ABCD
330
2AA0D
100
AcDbEntity
  8
YODOROGO
100
AcDbLine
 10
10425.60162798447
 20
718.0449677976392
 30
0.0
 11
10425.60162798447
 21
727.4060611609828
 31
0.0
1001
AUTOCAD_POSTSCRIPT_FIGURE
1002
{
1000
PSFILL
1000
Grayscale
1000
Grayscale
1070
   100
1002
}
  0
LINE
  5
2ABCE
330
2AA0D
100
AcDbEntity
  8
YODOROGO
100
AcDbLine
 10
10416.60162798446
 20
697.4162804818766
 30
0.0
 11
10425.60162798447
 21
718.0449677976392
 31
0.0
1001
AUTOCAD_POSTSCRIPT_FIGURE
1002
{
1000
PSFILL
1000
Grayscale
1000
Grayscale
1070
   100
1002
}
  0
LINE
  5
2ABCF
330
2AA0D
100
AcDbEntity
  8
YODOROGO
100
AcDbLine
 10
10416.60162798446
 20
691.4162804818772
 30
0.0
 11
10416.60162798446
 21
697.4162804818766
 31
0.0
1001
AUTOCAD_POSTSCRIPT_FIGURE
1002
{
1000
PSFILL
1000
Grayscale
1000
Grayscale
1070
   100
1002
}
  0
LINE
  5
2ABD0
330
2AA0D
100
AcDbEntity
  8
YODOROGO
100
AcDbLine
 10
10596.60162798446
 20
700.406061160983
 30
0.0
 11
10650.60162798447
 21
684.3291096151149
 31
0.0
1001
AUTOCAD_POSTSCRIPT_FIGURE
1002
{
1000
PSFILL
1000
Grayscale
1000
Grayscale
1070
   100
1002
}
  0
LINE
  5
2ABD1
330
2AA0D
100
AcDbEntity
  8
YODOROGO
100
AcDbLine
 10
10650.60162798447
 20
657.3291096151146
 30
0.0
 11
10596.60162798446
 21
673.4060611609827
 31
0.0
1001
AUTOCAD_POSTSCRIPT_FIGURE
1002
{
1000
PSFILL
1000
Grayscale
1000
Grayscale
1070
   100
1002
}
  0
LINE
  5
2ABD2
330
2AA0D
100
AcDbEntity
  8
YODOROGO
100
AcDbLine
 10
10650.60162798447
 20
744.329109615115
 30
0.0
 11
10596.60162798446
 21
760.4060611609829
 31
0.0
1001
AUTOCAD_POSTSCRIPT_FIGURE
1002
{
1000
PSFILL
1000
Grayscale
1000
Grayscale
1070
   100
1002
}
  0
LINE
  5
2ABD3
330
2AA0D
100
AcDbEntity
  8
YODOROGO
100
AcDbLine
 10
10596.60162798446
 20
734.9060611609829
 30
0.0
 11
10650.60162798447
 21
718.829109615115
 31
0.0
1001
AUTOCAD_POSTSCRIPT_FIGURE
1002
{
1000
PSFILL
1000
Grayscale
1000
Grayscale
1070
   100
1002
}
  0
LINE
  5
2ABD4
330
2AA0D
100
AcDbEntity
  8
YODOROGO
100
AcDbLine
 10
10596.60162798446
 20
673.4060611609827
 30
0.0
 11
10596.60162798446
 21
700.406061160983
 31
0.0
1001
AUTOCAD_POSTSCRIPT_FIGURE
1002
{
1000
PSFILL
1000
Grayscale
1000
Grayscale
1070
   100
1002
}
  0
LINE
  5
2ABD5
330
2AA0D
100
AcDbEntity
  8
YODOROGO
100
AcDbLine
 10
10596.60162798446
 20
760.4060611609829
 30
0.0
 11
10596.60162798446
 21
734.9060611609829
 31
0.0
1001
AUTOCAD_POSTSCRIPT_FIGURE
1002
{
1000
PSFILL
1000
Grayscale
1000
Grayscale
1070
   100
1002
}
  0
LINE
  5
2ABD6
330
2AA0D
100
AcDbEntity
  8
YODOROGO
100
AcDbLine
 10
10530.08862007752
 20
727.4060611609828
 30
0.0
 11
10548.60162798447
 21
655.406061160983
 31
0.0
1001
AUTOCAD_POSTSCRIPT_FIGURE
1002
{
1000
PSFILL
1000
Grayscale
1000
Grayscale
1070
   100
1002
}
  0
LINE
  5
2ABD7
330
2AA0D
100
AcDbEntity
  8
YODOROGO
100
AcDbLine
 10
10491.60162798447
 20
727.4060611609828
 30
0.0
 11
10530.08862007752
 21
727.4060611609828
 31
0.0
1001
AUTOCAD_POSTSCRIPT_FIGURE
1002
{
1000
PSFILL
1000
Grayscale
1000
Grayscale
1070
   100
1002
}
  0
LINE
  5
2ABD8
330
2AA0D
100
AcDbEntity
  8
YODOROGO
100
AcDbLine
 10
10491.60162798447
 20
733.4060611609828
 30
0.0
 11
10491.60162798447
 21
727.4060611609828
 31
0.0
1001
AUTOCAD_POSTSCRIPT_FIGURE
1002
{
1000
PSFILL
1000
Grayscale
1000
Grayscale
1070
   100
1002
}
  0
LINE
  5
2ABD9
330
2AA0D
100
AcDbEntity
  8
YODOROGO
100
AcDbLine
 10
10528.72757944497
 20
733.4060611609828
 30
0.0
 11
10491.60162798447
 21
733.4060611609828
 31
0.0
1001
AUTOCAD_POSTSCRIPT_FIGURE
1002
{
1000
PSFILL
1000
Grayscale
1000
Grayscale
1070
   100
1002
}
  0
LINE
  5
2ABDA
330
2AA0D
100
AcDbEntity
  8
YODOROGO
100
AcDbLine
 10
10526.68601849614
 20
742.4060611609832
 30
0.0
 11
10528.72757944497
 21
733.4060611609828
 31
0.0
1001
AUTOCAD_POSTSCRIPT_FIGURE
1002
{
1000
PSFILL
1000
Grayscale
1000
Grayscale
1070
   100
1002
}
  0
LINE
  5
2ABDB
330
2AA0D
100
AcDbEntity
  8
YODOROGO
100
AcDbLine
 10
10534.18601849614
 20
742.4060611609832
 30
0.0
 11
10526.68601849614
 21
742.4060611609832
 31
0.0
1001
AUTOCAD_POSTSCRIPT_FIGURE
1002
{
1000
PSFILL
1000
Grayscale
1000
Grayscale
1070
   100
1002
}
  0
LINE
  5
2ABDC
330
2AA0D
100
AcDbEntity
  8
YODOROGO
100
AcDbLine
 10
10535.92757944497
 20
733.4060611609828
 30
0.0
 11
10534.18601849614
 21
742.4060611609832
 31
0.0
1001
AUTOCAD_POSTSCRIPT_FIGURE
1002
{
1000
PSFILL
1000
Grayscale
1000
Grayscale
1070
   100
1002
}
  0
LINE
  5
2ABDD
330
2AA0D
100
AcDbEntity
  8
YODOROGO
100
AcDbLine
 10
10545.60162798447
 20
733.4060611609828
 30
0.0
 11
10535.92757944497
 21
733.4060611609828
 31
0.0
1001
AUTOCAD_POSTSCRIPT_FIGURE
1002
{
1000
PSFILL
1000
Grayscale
1000
Grayscale
1070
   100
1002
}
  0
LINE
  5
2ABDE
330
2AA0D
100
AcDbEntity
  8
YODOROGO
100
AcDbLine
 10
10545.60162798447
 20
742.4060611609832
 30
0.0
 11
10545.60162798447
 21
733.4060611609828
 31
0.0
1001
AUTOCAD_POSTSCRIPT_FIGURE
1002
{
1000
PSFILL
1000
Grayscale
1000
Grayscale
1070
   100
1002
}
  0
LINE
  5
2ABDF
330
2AA0D
100
AcDbEntity
  8
YODOROGO
100
AcDbLine
 10
10551.60162798447
 20
742.4060611609832
 30
0.0
 11
10545.60162798447
 21
742.4060611609832
 31
0.0
1001
AUTOCAD_POSTSCRIPT_FIGURE
1002
{
1000
PSFILL
1000
Grayscale
1000
Grayscale
1070
   100
1002
}
  0
LINE
  5
2ABE0
330
2AA0D
100
AcDbEntity
  8
YODOROGO
100
AcDbLine
 10
10551.60162798447
 20
733.4060611609828
 30
0.0
 11
10551.60162798447
 21
742.4060611609832
 31
0.0
1001
AUTOCAD_POSTSCRIPT_FIGURE
1002
{
1000
PSFILL
1000
Grayscale
1000
Grayscale
1070
   100
1002
}
  0
LINE
  5
2ABE1
330
2AA0D
100
AcDbEntity
  8
YODOROGO
100
AcDbLine
 10
10551.60162798447
 20
727.4060611609828
 30
0.0
 11
10551.60162798447
 21
733.4060611609828
 31
0.0
1001
AUTOCAD_POSTSCRIPT_FIGURE
1002
{
1000
PSFILL
1000
Grayscale
1000
Grayscale
1070
   100
1002
}
  0
LINE
  5
2ABE2
330
2AA0D
100
AcDbEntity
  8
YODOROGO
100
AcDbLine
 10
10537.08862007752
 20
727.4060611609828
 30
0.0
 11
10551.60162798447
 21
727.4060611609828
 31
0.0
1001
AUTOCAD_POSTSCRIPT_FIGURE
1002
{
1000
PSFILL
1000
Grayscale
1000
Grayscale
1070
   100
1002
}
  0
LINE
  5
2ABE3
330
2AA0D
100
AcDbEntity
  8
YODOROGO
100
AcDbLine
 10
10551.60162798447
 20
655.406061160983
 30
0.0
 11
10537.08862007752
 21
727.4060611609828
 31
0.0
1001
AUTOCAD_POSTSCRIPT_FIGURE
1002
{
1000
PSFILL
1000
Grayscale
1000
Grayscale
1070
   100
1002
}
  0
LINE
  5
2ABE4
330
2AA0D
100
AcDbEntity
  8
YODOROGO
100
AcDbLine
 10
10548.60162798447
 20
655.406061160983
 30
0.0
 11
10551.60162798447
 21
655.406061160983
 31
0.0
1001
AUTOCAD_POSTSCRIPT_FIGURE
1002
{
1000
PSFILL
1000
Grayscale
1000
Grayscale
1070
   100
1002
}
  0
LINE
  5
2ABE5
330
2AA0D
100
AcDbEntity
  8
YODOROGO
100
AcDbLine
 10
10529.27595747517
 20
665.902791112048
 30
0.0
 11
10491.60162798447
 21
655.406061160983
 31
0.0
  0
LINE
  5
2ABE6
330
2AA0D
100
AcDbEntity
  8
YODOROGO
100
AcDbLine
 10
10529.27595747517
 20
674.5008673234024
 30
0.0
 11
10529.27595747517
 21
665.902791112048
 31
0.0
  0
LINE
  5
2ABE7
330
2AA0D
100
AcDbEntity
  8
YODOROGO
100
AcDbLine
 10
10512.68879272982
 20
670.0563499251625
 30
0.0
 11
10529.27595747517
 21
674.5008673234024
 31
0.0
  0
LINE
  5
2ABE8
330
2AA0D
100
AcDbEntity
  8
YODOROGO
100
AcDbLine
 10
10512.68879272982
 20
702.2131308511124
 30
0.0
 11
10512.68879272982
 21
670.0563499251625
 31
0.0
  0
LINE
  5
2ABE9
330
2AA0D
100
AcDbEntity
  8
YODOROGO
100
AcDbLine
 10
10529.27595747517
 20
702.2131308511124
 30
0.0
 11
10512.68879272982
 21
702.2131308511124
 31
0.0
  0
LINE
  5
2ABEA
330
2AA0D
100
AcDbEntity
  8
YODOROGO
100
AcDbLine
 10
10529.27595747517
 20
709.7131308511116
 30
0.0
 11
10529.27595747517
 21
702.2131308511124
 31
0.0
  0
LINE
  5
2ABEB
330
2AA0D
100
AcDbEntity
  8
YODOROGO
100
AcDbLine
 10
10491.60162798447
 20
709.7131308511116
 30
0.0
 11
10529.27595747517
 21
709.7131308511116
 31
0.0
  0
LINE
  5
2ABEC
330
2AA0D
100
AcDbEntity
  8
YODOROGO
100
AcDbLine
 10
10491.60162798447
 20
702.2131308511124
 30
0.0
 11
10491.60162798447
 21
709.7131308511116
 31
0.0
  0
LINE
  5
2ABED
330
2AA0D
100
AcDbEntity
  8
YODOROGO
100
AcDbLine
 10
10508.18879272982
 20
702.2131308511124
 30
0.0
 11
10491.60162798447
 21
702.2131308511124
 31
0.0
  0
LINE
  5
2ABEE
330
2AA0D
100
AcDbEntity
  8
YODOROGO
100
AcDbLine
 10
10508.18879272982
 20
669.252502347869
 30
0.0
 11
10508.18879272982
 21
702.2131308511124
 31
0.0
  0
LINE
  5
2ABEF
330
2AA0D
100
AcDbEntity
  8
YODOROGO
100
AcDbLine
 10
10491.60162798447
 20
664.4060611609823
 30
0.0
 11
10508.18879272982
 21
669.252502347869
 31
0.0
  0
LINE
  5
2ABF0
330
2AA0D
100
AcDbEntity
  8
YODOROGO
100
AcDbLine
 10
10491.60162798447
 20
655.406061160983
 30
0.0
 11
10491.60162798447
 21
664.4060611609823
 31
0.0
  0
LINE
  5
2ABF1
330
2AA0D
100
AcDbEntity
  8
YODOROGO
100
AcDbLine
 10
10500.60162798446
 20
640.4060611609828
 30
0.0
 11
10500.60162798446
 21
631.4060611609825
 31
0.0
  0
LINE
  5
2ABF2
330
2AA0D
100
AcDbEntity
  8
YODOROGO
100
AcDbLine
 10
10500.60162798446
 20
640.4060611609828
 30
0.0
 11
10500.60162798446
 21
640.4060611609828
 31
0.0
  0
LINE
  5
2ABF3
330
2AA0D
100
AcDbEntity
  8
YODOROGO
100
AcDbLine
 10
10506.60162798447
 20
640.4060611609828
 30
0.0
 11
10500.60162798446
 21
640.4060611609828
 31
0.0
  0
LINE
  5
2ABF4
330
2AA0D
100
AcDbEntity
  8
YODOROGO
100
AcDbLine
 10
10506.60162798447
 20
631.4060611609825
 30
0.0
 11
10506.60162798447
 21
640.4060611609828
 31
0.0
  0
LINE
  5
2ABF5
330
2AA0D
100
AcDbEntity
  8
YODOROGO
100
AcDbLine
 10
10515.34245150633
 20
631.4060611609825
 30
0.0
 11
10506.60162798447
 21
631.4060611609825
 31
0.0
  0
LINE
  5
2ABF6
330
2AA0D
100
AcDbEntity
  8
YODOROGO
100
AcDbLine
 10
10500.60162798446
 20
631.4060611609825
 30
0.0
 11
10491.60162798447
 21
631.4060611609825
 31
0.0
  0
LINE
  5
2ABF7
330
2AA0D
100
AcDbEntity
  8
YODOROGO
100
AcDbLine
 10
10530.80082008658
 20
640.4060611609828
 30
0.0
 11
10536.8008200866
 21
640.4060611609828
 31
0.0
1001
AUTOCAD_POSTSCRIPT_FIGURE
1002
{
1000
PSFILL
1000
Grayscale
1000
Grayscale
1070
   100
1002
}
  0
LINE
  5
2ABF8
330
2AA0D
100
AcDbEntity
  8
YODOROGO
100
AcDbLine
 10
10650.60162798447
 20
684.3291096151149
 30
0.0
 11
10650.60162798447
 21
657.3291096151146
 31
0.0
1001
AUTOCAD_POSTSCRIPT_FIGURE
1002
{
1000
PSFILL
1000
Grayscale
1000
Grayscale
1070
   100
1002
}
  0
LINE
  5
2ABF9
330
2AA0D
100
AcDbEntity
  8
YODOROGO
100
AcDbLine
 10
10650.60162798447
 20
718.829109615115
 30
0.0
 11
10650.60162798447
 21
744.329109615115
 31
0.0
1001
AUTOCAD_POSTSCRIPT_FIGURE
1002
{
1000
PSFILL
1000
Grayscale
1000
Grayscale
1070
   100
1002
}
  0
LINE
  5
2ABFA
330
2AA0D
100
AcDbEntity
  8
YODOROGO
100
AcDbLine
 10
10662.60162798446
 20
682.4060611609829
 30
0.0
 11
10662.60162798446
 21
655.4060611609838
 31
0.0
  0
LINE
  5
2ABFB
330
2AA0D
100
AcDbEntity
  8
YODOROGO
100
AcDbLine
 10
10686.60162798446
 20
640.4060611609828
 30
0.0
 11
10662.60162798446
 21
640.4060611609828
 31
0.0
  0
LINE
  5
2ABFC
330
2AA0D
100
AcDbEntity
  8
YODOROGO
100
AcDbLine
 10
10662.60162798446
 20
655.4060611609838
 30
0.0
 11
10719.60162798446
 21
655.4060611609838
 31
0.0
  0
LINE
  5
2ABFD
330
2AA0D
100
AcDbEntity
  8
YODOROGO
100
AcDbLine
 10
10686.60162798446
 20
700.406061160983
 30
0.0
 11
10662.60162798446
 21
700.406061160983
 31
0.0
  0
LINE
  5
2ABFE
330
2AA0D
100
AcDbEntity
  8
YODOROGO
100
AcDbLine
 10
10686.60162798446
 20
721.4060611609824
 30
0.0
 11
10686.60162798446
 21
700.406061160983
 31
0.0
  0
LINE
  5
2ABFF
330
2AA0D
100
AcDbEntity
  8
YODOROGO
100
AcDbLine
 10
10719.60162798446
 20
745.4060611609828
 30
0.0
 11
10719.60162798446
 21
760.4060611609829
 31
0.0
  0
LINE
  5
2AC00
330
2AA0D
100
AcDbEntity
  8
YODOROGO
100
AcDbLine
 10
10662.60162798446
 20
745.4060611609828
 30
0.0
 11
10719.60162798446
 21
745.4060611609828
 31
0.0
  0
LINE
  5
2AC01
330
2AA0D
100
AcDbEntity
  8
YODOROGO
100
AcDbLine
 10
10662.60162798446
 20
700.406061160983
 30
0.0
 11
10662.60162798446
 21
745.4060611609828
 31
0.0
  0
LINE
  5
2AC02
330
2AA0D
100
AcDbEntity
  8
YODOROGO
100
AcDbLine
 10
10875.60162798447
 20
760.4060611609829
 30
0.0
 11
10875.60162798447
 21
607.4060611609829
 31
0.0
  0
LINE
  5
2AC03
330
2AA0D
100
AcDbEntity
  8
YODOROGO
100
AcDbLine
 10
10902.60162798446
 20
592.4060611609831
 30
0.0
 11
10902.60162798446
 21
760.4060611609829
 31
0.0
  0
LINE
  5
2AC04
330
2AA0D
100
AcDbEntity
  8
YODOROGO
100
AcDbLine
 10
10973.10162798446
 20
559.4060611609823
 30
0.0
 11
10973.10162798446
 21
752.9060611609828
 31
0.0
  0
LINE
  5
2AC05
330
2AA0D
100
AcDbEntity
  8
YODOROGO
100
AcDbLine
 10
10949.10162798447
 20
752.9060611609828
 30
0.0
 11
10949.10162798447
 21
559.4060611609823
 31
0.0
  0
LINE
  5
2AC06
330
2AA0D
100
AcDbEntity
  8
YODOROGO
100
AcDbLine
 10
11019.60162798446
 20
760.4060611609829
 30
0.0
 11
11019.60162798446
 21
535.4060611609829
 31
0.0
  0
LINE
  5
2AC07
330
2AA0D
100
AcDbEntity
  8
YODOROGO
100
AcDbLine
 10
11046.60162798447
 20
535.4060611609829
 30
0.0
 11
11046.60162798447
 21
760.4060611609829
 31
0.0
  0
LINE
  5
2AC08
330
2AA0D
100
AcDbEntity
  8
YODOROGO
100
AcDbLine
 10
10746.60162798446
 20
625.406061160983
 30
0.0
 11
10746.60162798446
 21
655.4060611609838
 31
0.0
  0
LINE
  5
2AC09
330
2AA0D
100
AcDbEntity
  8
YODOROGO
100
AcDbLine
 10
11207.10162798447
 20
640.4060611609828
 30
0.0
 11
11207.10162798447
 21
625.406061160983
 31
0.0
  0
LINE
  5
2AC0A
330
2AA0D
100
AcDbEntity
  8
YODOROGO
100
AcDbLine
 10
11207.10162798447
 20
640.4060611609828
 30
0.0
 11
11207.10162798447
 21
625.406061160983
 31
0.0
  0
ARC
  5
2AC0B
330
2AA0D
100
AcDbEntity
  8
YODOROGO
100
AcDbCircle
 10
10840.09184107006
 20
606.8316991658524
 30
0.0
 40
35.51443169202812
100
AcDbArc
 50
274.052441629071
 51
0.9266642149310715
  0
ARC
  5
2AC0C
330
2AA0D
100
AcDbEntity
  8
YODOROGO
100
AcDbCircle
 10
10840.94481401992
 20
597.229023228915
 30
0.0
 40
61.84515883532068
100
AcDbArc
 50
271.5351210653777
 51
355.5272775058505
  0
LINE
  5
2AC0D
330
2AA0D
100
AcDbEntity
  8
YODOROGO
100
AcDbLine
 10
10842.60162798446
 20
571.4060611609824
 30
0.0
 11
10842.60162798446
 21
535.4060611609829
 31
0.0
  0
LINE
  5
2AC0E
330
2AA0D
100
AcDbEntity
  8
YODOROGO
100
AcDbLine
 10
10797.60162798446
 20
625.406061160983
 30
0.0
 11
10746.60162798446
 21
625.406061160983
 31
0.0
  0
LINE
  5
2AC0F
330
2AA0D
100
AcDbEntity
  8
YODOROGO
100
AcDbLine
 10
10797.60162798446
 20
601.4060611609833
 30
0.0
 11
10797.60162798446
 21
625.406061160983
 31
0.0
  0
LINE
  5
2AC10
330
2AA0D
100
AcDbEntity
  8
YODOROGO
100
AcDbLine
 10
10746.60162798446
 20
601.4060611609833
 30
0.0
 11
10797.60162798446
 21
601.4060611609833
 31
0.0
  0
LINE
  5
2AC11
330
2AA0D
100
AcDbEntity
  8
YODOROGO
100
AcDbLine
 10
10746.60162798446
 20
571.4060611609824
 30
0.0
 11
10746.60162798446
 21
601.4060611609833
 31
0.0
  0
LINE
  5
2AC12
330
2AA0D
100
AcDbEntity
  8
YODOROGO
100
AcDbLine
 10
10797.60162798446
 20
571.4060611609824
 30
0.0
 11
10746.60162798446
 21
571.4060611609824
 31
0.0
  0
LINE
  5
2AC13
330
2AA0D
100
AcDbEntity
  8
YODOROGO
100
AcDbLine
 10
10797.60162798446
 20
535.4060611609829
 30
0.0
 11
10797.60162798446
 21
571.4060611609824
 31
0.0
  0
LINE
  5
2AC14
330
2AA0D
100
AcDbEntity
  8
YODOROGO
100
AcDbLine
 10
10949.10162798447
 20
559.4060611609823
 30
0.0
 11
10973.10162798446
 21
559.4060611609823
 31
0.0
  0
LINE
  5
2AC15
330
2AA0D
100
AcDbEntity
  8
YODOROGO
100
AcDbLine
 10
11019.60162798446
 20
535.4060611609829
 30
0.0
 11
11046.60162798447
 21
535.4060611609829
 31
0.0
  0
LINE
  5
2AC16
330
2AA0D
100
AcDbEntity
  8
YODOROGO
100
AcDbLine
 10
11151.60162798447
 20
573.1655445639615
 30
0.0
 11
11151.60162798447
 21
535.4060611609829
 31
0.0
  0
LINE
  5
2AC17
330
2AA0D
100
AcDbEntity
  8
YODOROGO
100
AcDbLine
 10
11106.60162798446
 20
535.4060611609829
 30
0.0
 11
11151.60162798447
 21
573.1655445639615
 31
0.0
  0
LINE
  5
2AC18
330
2AA0D
100
AcDbEntity
  8
YODOROGO
100
AcDbLine
 10
11106.60162798446
 20
580.406061160983
 30
0.0
 11
11106.60162798446
 21
535.4060611609829
 31
0.0
  0
LINE
  5
2AC19
330
2AA0D
100
AcDbEntity
  8
YODOROGO
100
AcDbLine
 10
11142.35423576229
 20
610.4060611609829
 30
0.0
 11
11106.60162798446
 21
580.406061160983
 31
0.0
  0
LINE
  5
2AC1A
330
2AA0D
100
AcDbEntity
  8
YODOROGO
100
AcDbLine
 10
11106.60162798446
 20
610.4060611609829
 30
0.0
 11
11142.35423576229
 21
610.4060611609829
 31
0.0
  0
LINE
  5
2AC1B
330
2AA0D
100
AcDbEntity
  8
YODOROGO
100
AcDbLine
 10
11106.60162798446
 20
625.406061160983
 30
0.0
 11
11106.60162798446
 21
610.4060611609829
 31
0.0
  0
LINE
  5
2AC1C
330
2AA0D
100
AcDbEntity
  8
YODOROGO
100
AcDbLine
 10
11207.10162798447
 20
625.406061160983
 30
0.0
 11
11106.60162798446
 21
625.406061160983
 31
0.0
  0
LINE
  5
2AC1D
330
2AA0D
100
AcDbEntity
  8
YODOROGO
100
AcDbLine
 10
11219.10162798447
 20
610.4060611609829
 30
0.0
 11
11166.60162798446
 21
610.4060611609829
 31
0.0
  0
LINE
  5
2AC1E
330
2AA0D
100
AcDbEntity
  8
YODOROGO
100
AcDbLine
 10
11166.60162798446
 20
585.7520390316213
 30
0.0
 11
11164.27870236948
 21
583.8028730048376
 31
0.0
  0
LINE
  5
2AC1F
330
2AA0D
100
AcDbEntity
  8
YODOROGO
100
AcDbLine
 10
11166.60162798446
 20
610.4060611609829
 30
0.0
 11
11166.60162798446
 21
585.7520390316213
 31
0.0
  0
LINE
  5
2AC20
330
2AA0D
100
AcDbEntity
  8
YODOROGO
100
AcDbLine
 10
11151.60162798447
 20
573.1655445639615
 30
0.0
 11
11151.60162798447
 21
535.4060611609829
 31
0.0
  0
LINE
  5
2AC21
330
2AA0D
100
AcDbEntity
  8
YODOROGO
100
AcDbLine
 10
11106.60162798446
 20
535.4060611609829
 30
0.0
 11
11151.60162798447
 21
573.1655445639615
 31
0.0
  0
LINE
  5
2AC22
330
2AA0D
100
AcDbEntity
  8
YODOROGO
100
AcDbLine
 10
11106.60162798446
 20
580.406061160983
 30
0.0
 11
11106.60162798446
 21
535.4060611609829
 31
0.0
  0
LINE
  5
2AC23
330
2AA0D
100
AcDbEntity
  8
YODOROGO
100
AcDbLine
 10
11142.35423576229
 20
610.4060611609829
 30
0.0
 11
11106.60162798446
 21
580.406061160983
 31
0.0
  0
LINE
  5
2AC24
330
2AA0D
100
AcDbEntity
  8
YODOROGO
100
AcDbLine
 10
11106.60162798446
 20
610.4060611609829
 30
0.0
 11
11142.35423576229
 21
610.4060611609829
 31
0.0
  0
LINE
  5
2AC25
330
2AA0D
100
AcDbEntity
  8
YODOROGO
100
AcDbLine
 10
11106.60162798446
 20
625.406061160983
 30
0.0
 11
11106.60162798446
 21
610.4060611609829
 31
0.0
  0
LINE
  5
2AC26
330
2AA0D
100
AcDbEntity
  8
YODOROGO
100
AcDbLine
 10
11207.10162798447
 20
625.406061160983
 30
0.0
 11
11106.60162798446
 21
625.406061160983
 31
0.0
  0
LINE
  5
2AC27
330
2AA0D
100
AcDbEntity
  8
YODOROGO
100
AcDbLine
 10
10797.60162798446
 20
655.4060611609838
 30
0.0
 11
10797.60162798446
 21
682.4060611609829
 31
0.0
  0
LINE
  5
2AC28
330
2AA0D
100
AcDbEntity
  8
YODOROGO
100
AcDbLine
 10
10746.60162798446
 20
655.4060611609838
 30
0.0
 11
10797.60162798446
 21
655.4060611609838
 31
0.0
  0
LINE
  5
2AC29
330
2AA0D
100
AcDbEntity
  8
YODOROGO
100
AcDbLine
 10
10773.60162798447
 20
700.406061160983
 30
0.0
 11
10773.60162798447
 21
721.4060611609824
 31
0.0
  0
LINE
  5
2AC2A
330
2AA0D
100
AcDbEntity
  8
YODOROGO
100
AcDbLine
 10
10797.60162798446
 20
700.406061160983
 30
0.0
 11
10773.60162798447
 21
700.406061160983
 31
0.0
  0
LINE
  5
2AC2B
330
2AA0D
100
AcDbEntity
  8
YODOROGO
100
AcDbLine
 10
10797.60162798446
 20
730.4060611609828
 30
0.0
 11
10797.60162798446
 21
700.406061160983
 31
0.0
  0
ARC
  5
2AC2C
330
2AA0D
100
AcDbEntity
  8
YODOROGO
100
AcDbCircle
 10
10782.60162798446
 20
730.4060611609828
 30
0.0
 40
15.0
100
AcDbArc
 50
0.0
 51
90.0
  0
LINE
  5
2AC2D
330
2AA0D
100
AcDbEntity
  8
YODOROGO
100
AcDbLine
 10
10746.60162798447
 20
745.4060611609828
 30
0.0
 11
10782.60162798446
 21
745.4060611609828
 31
0.0
  0
LINE
  5
2AC2E
330
2AA0D
100
AcDbEntity
  8
YODOROGO
100
AcDbLine
 10
10746.60162798447
 20
760.4060611609829
 30
0.0
 11
10746.60162798447
 21
745.4060611609828
 31
0.0
  0
LINE
  5
2AC2F
330
2AA0D
100
AcDbEntity
  8
YODOROGO
100
AcDbLine
 10
10902.60162798446
 20
760.4060611609829
 30
0.0
 11
10875.60162798447
 21
760.4060611609829
 31
0.0
  0
LINE
  5
2AC30
330
2AA0D
100
AcDbEntity
  8
YODOROGO
100
AcDbLine
 10
10973.10162798446
 20
752.9060611609828
 30
0.0
 11
10949.10162798447
 21
752.9060611609828
 31
0.0
  0
LINE
  5
2AC31
330
2AA0D
100
AcDbEntity
  8
YODOROGO
100
AcDbLine
 10
11046.60162798447
 20
760.4060611609829
 30
0.0
 11
11019.60162798446
 21
760.4060611609829
 31
0.0
  0
LINE
  5
2AC32
330
2AA0D
100
AcDbEntity
  8
YODOROGO
100
AcDbLine
 10
11127.60162798447
 20
640.4060611609828
 30
0.0
 11
11127.60162798447
 21
664.4060611609833
 31
0.0
1001
AUTOCAD_POSTSCRIPT_FIGURE
1002
{
1000
PSFILL
1000
Grayscale
1000
Grayscale
1070
    25
1002
}
  0
LINE
  5
2AC33
330
2AA0D
100
AcDbEntity
  8
YODOROGO
100
AcDbLine
 10
11106.60162798446
 20
640.4060611609828
 30
0.0
 11
11127.60162798447
 21
640.4060611609828
 31
0.0
1001
AUTOCAD_POSTSCRIPT_FIGURE
1002
{
1000
PSFILL
1000
Grayscale
1000
Grayscale
1070
    25
1002
}
  0
LINE
  5
2AC34
330
2AA0D
100
AcDbEntity
  8
YODOROGO
100
AcDbLine
 10
11106.60162798446
 20
682.4060611609829
 30
0.0
 11
11106.60162798446
 21
640.4060611609828
 31
0.0
1001
AUTOCAD_POSTSCRIPT_FIGURE
1002
{
1000
PSFILL
1000
Grayscale
1000
Grayscale
1070
    25
1002
}
  0
LINE
  5
2AC35
330
2AA0D
100
AcDbEntity
  8
YODOROGO
100
AcDbLine
 10
11162.10162798447
 20
682.4060611609829
 30
0.0
 11
11106.60162798446
 21
682.4060611609829
 31
0.0
1001
AUTOCAD_POSTSCRIPT_FIGURE
1002
{
1000
PSFILL
1000
Grayscale
1000
Grayscale
1070
    25
1002
}
  0
LINE
  5
2AC36
330
2AA0D
100
AcDbEntity
  8
YODOROGO
100
AcDbLine
 10
11162.10162798447
 20
697.406061160983
 30
0.0
 11
11162.10162798447
 21
682.4060611609829
 31
0.0
1001
AUTOCAD_POSTSCRIPT_FIGURE
1002
{
1000
PSFILL
1000
Grayscale
1000
Grayscale
1070
    25
1002
}
  0
LINE
  5
2AC37
330
2AA0D
100
AcDbEntity
  8
YODOROGO
100
AcDbLine
 10
11106.60162798446
 20
697.406061160983
 30
0.0
 11
11162.10162798447
 21
697.406061160983
 31
0.0
1001
AUTOCAD_POSTSCRIPT_FIGURE
1002
{
1000
PSFILL
1000
Grayscale
1000
Grayscale
1070
    25
1002
}
  0
LINE
  5
2AC38
330
2AA0D
100
AcDbEntity
  8
YODOROGO
100
AcDbLine
 10
11106.60162798446
 20
715.4060611609828
 30
0.0
 11
11106.60162798446
 21
697.406061160983
 31
0.0
1001
AUTOCAD_POSTSCRIPT_FIGURE
1002
{
1000
PSFILL
1000
Grayscale
1000
Grayscale
1070
    25
1002
}
  0
LINE
  5
2AC39
330
2AA0D
100
AcDbEntity
  8
YODOROGO
100
AcDbLine
 10
11162.10162798447
 20
715.4060611609828
 30
0.0
 11
11106.60162798446
 21
715.4060611609828
 31
0.0
1001
AUTOCAD_POSTSCRIPT_FIGURE
1002
{
1000
PSFILL
1000
Grayscale
1000
Grayscale
1070
    25
1002
}
  0
LINE
  5
2AC3A
330
2AA0D
100
AcDbEntity
  8
YODOROGO
100
AcDbLine
 10
11162.10162798447
 20
730.4060611609828
 30
0.0
 11
11162.10162798447
 21
715.4060611609828
 31
0.0
1001
AUTOCAD_POSTSCRIPT_FIGURE
1002
{
1000
PSFILL
1000
Grayscale
1000
Grayscale
1070
    25
1002
}
  0
LINE
  5
2AC3B
330
2AA0D
100
AcDbEntity
  8
YODOROGO
100
AcDbLine
 10
11106.60162798446
 20
730.4060611609828
 30
0.0
 11
11162.10162798447
 21
730.4060611609828
 31
0.0
1001
AUTOCAD_POSTSCRIPT_FIGURE
1002
{
1000
PSFILL
1000
Grayscale
1000
Grayscale
1070
    25
1002
}
  0
LINE
  5
2AC3C
330
2AA0D
100
AcDbEntity
  8
YODOROGO
100
AcDbLine
 10
11106.60162798446
 20
760.4060611609829
 30
0.0
 11
11106.60162798446
 21
730.4060611609828
 31
0.0
1001
AUTOCAD_POSTSCRIPT_FIGURE
1002
{
1000
PSFILL
1000
Grayscale
1000
Grayscale
1070
    25
1002
}
  0
LINE
  5
2AC3D
330
2AA0D
100
AcDbEntity
  8
YODOROGO
100
AcDbLine
 10
11124.60162798446
 20
760.4060611609829
 30
0.0
 11
11106.60162798446
 21
760.4060611609829
 31
0.0
1001
AUTOCAD_POSTSCRIPT_FIGURE
1002
{
1000
PSFILL
1000
Grayscale
1000
Grayscale
1070
    25
1002
}
  0
LINE
  5
2AC3E
330
2AA0D
100
AcDbEntity
  8
YODOROGO
100
AcDbLine
 10
11124.60162798446
 20
748.4060611609828
 30
0.0
 11
11124.60162798446
 21
760.4060611609829
 31
0.0
1001
AUTOCAD_POSTSCRIPT_FIGURE
1002
{
1000
PSFILL
1000
Grayscale
1000
Grayscale
1070
    25
1002
}
  0
LINE
  5
2AC3F
330
2AA0D
100
AcDbEntity
  8
YODOROGO
100
AcDbLine
 10
11162.10162798447
 20
748.4060611609828
 30
0.0
 11
11124.60162798446
 21
748.4060611609828
 31
0.0
1001
AUTOCAD_POSTSCRIPT_FIGURE
1002
{
1000
PSFILL
1000
Grayscale
1000
Grayscale
1070
    25
1002
}
  0
LINE
  5
2AC40
330
2AA0D
100
AcDbEntity
  8
YODOROGO
100
AcDbLine
 10
11162.10162798447
 20
760.4060611609829
 30
0.0
 11
11162.10162798447
 21
748.4060611609828
 31
0.0
1001
AUTOCAD_POSTSCRIPT_FIGURE
1002
{
1000
PSFILL
1000
Grayscale
1000
Grayscale
1070
    25
1002
}
  0
LINE
  5
2AC41
330
2AA0D
100
AcDbEntity
  8
YODOROGO
100
AcDbLine
 10
11186.10162798447
 20
760.4060611609829
 30
0.0
 11
11162.10162798447
 21
760.4060611609829
 31
0.0
1001
AUTOCAD_POSTSCRIPT_FIGURE
1002
{
1000
PSFILL
1000
Grayscale
1000
Grayscale
1070
    25
1002
}
  0
LINE
  5
2AC42
330
2AA0D
100
AcDbEntity
  8
YODOROGO
100
AcDbLine
 10
11186.10162798447
 20
748.4060611609828
 30
0.0
 11
11186.10162798447
 21
760.4060611609829
 31
0.0
1001
AUTOCAD_POSTSCRIPT_FIGURE
1002
{
1000
PSFILL
1000
Grayscale
1000
Grayscale
1070
    25
1002
}
  0
LINE
  5
2AC43
330
2AA0D
100
AcDbEntity
  8
YODOROGO
100
AcDbLine
 10
11186.10162798447
 20
715.4060611609828
 30
0.0
 11
11186.10162798447
 21
730.4060611609828
 31
0.0
1001
AUTOCAD_POSTSCRIPT_FIGURE
1002
{
1000
PSFILL
1000
Grayscale
1000
Grayscale
1070
    25
1002
}
  0
LINE
  5
2AC44
330
2AA0D
100
AcDbEntity
  8
YODOROGO
100
AcDbLine
 10
11186.10162798447
 20
682.4060611609829
 30
0.0
 11
11186.10162798447
 21
697.406061160983
 31
0.0
1001
AUTOCAD_POSTSCRIPT_FIGURE
1002
{
1000
PSFILL
1000
Grayscale
1000
Grayscale
1070
    25
1002
}
  0
LINE
  5
2AC45
330
2AA0D
100
AcDbEntity
  8
YODOROGO
100
AcDbLine
 10
11220.60162798447
 20
664.4060611609833
 30
0.0
 11
11220.60162798447
 21
640.4060611609828
 31
0.0
1001
AUTOCAD_POSTSCRIPT_FIGURE
1002
{
1000
PSFILL
1000
Grayscale
1000
Grayscale
1070
    25
1002
}
  0
LINE
  5
2AC46
330
2AA0D
100
AcDbEntity
  8
YODOROGO
100
AcDbLine
 10
11186.10162798447
 20
664.4060611609833
 30
0.0
 11
11220.60162798447
 21
664.4060611609833
 31
0.0
1001
AUTOCAD_POSTSCRIPT_FIGURE
1002
{
1000
PSFILL
1000
Grayscale
1000
Grayscale
1070
    25
1002
}
  0
LINE
  5
2AC47
330
2AA0D
100
AcDbEntity
  8
YODOROGO
100
AcDbLine
 10
11186.10162798447
 20
640.4060611609828
 30
0.0
 11
11186.10162798447
 21
664.4060611609833
 31
0.0
1001
AUTOCAD_POSTSCRIPT_FIGURE
1002
{
1000
PSFILL
1000
Grayscale
1000
Grayscale
1070
    25
1002
}
  0
LINE
  5
2AC48
330
2AA0D
100
AcDbEntity
  8
YODOROGO
100
AcDbLine
 10
11162.10162798447
 20
640.4060611609828
 30
0.0
 11
11186.10162798447
 21
640.4060611609828
 31
0.0
1001
AUTOCAD_POSTSCRIPT_FIGURE
1002
{
1000
PSFILL
1000
Grayscale
1000
Grayscale
1070
    25
1002
}
  0
LINE
  5
2AC49
330
2AA0D
100
AcDbEntity
  8
YODOROGO
100
AcDbLine
 10
11162.10162798447
 20
664.4060611609833
 30
0.0
 11
11162.10162798447
 21
640.4060611609828
 31
0.0
1001
AUTOCAD_POSTSCRIPT_FIGURE
1002
{
1000
PSFILL
1000
Grayscale
1000
Grayscale
1070
    25
1002
}
  0
LINE
  5
2AC4A
330
2AA0D
100
AcDbEntity
  8
YODOROGO
100
AcDbLine
 10
11127.60162798447
 20
664.4060611609833
 30
0.0
 11
11162.10162798447
 21
664.4060611609833
 31
0.0
1001
AUTOCAD_POSTSCRIPT_FIGURE
1002
{
1000
PSFILL
1000
Grayscale
1000
Grayscale
1070
    25
1002
}
  0
ARC
  5
2AC4B
330
2AA0D
100
AcDbEntity
  8
YODOROGO
100
AcDbCircle
 10
11647.31921000922
 20
601.0052765683409
 30
0.0
 40
66.83298041652057
100
AcDbArc
 50
281.0262749542535
 51
357.771135755738
  0
LINE
  5
2AC4C
330
2AA0D
100
AcDbEntity
  8
YODOROGO
100
AcDbLine
 10
11780.10162798446
 20
715.4060611609828
 30
0.0
 11
11687.10162798447
 21
715.4060611609828
 31
0.0
  0
LINE
  5
2AC4D
330
2AA0D
100
AcDbEntity
  8
YODOROGO
100
AcDbLine
 10
11780.10162798446
 20
760.4060611609829
 30
0.0
 11
11687.10162798447
 21
760.4060611609829
 31
0.0
  0
LINE
  5
2AC4E
330
2AA0D
100
AcDbEntity
  8
YODOROGO
100
AcDbLine
 10
11687.10162798447
 20
736.4060611609825
 30
0.0
 11
11780.10162798446
 21
736.4060611609825
 31
0.0
  0
LINE
  5
2AC4F
330
2AA0D
100
AcDbEntity
  8
YODOROGO
100
AcDbLine
 10
11546.85162798447
 20
586.4060611609825
 30
0.0
 11
11546.85162798447
 21
658.4060611609827
 31
0.0
  0
LINE
  5
2AC50
330
2AA0D
100
AcDbEntity
  8
YODOROGO
100
AcDbLine
 10
11536.35162798447
 20
634.4060611609833
 30
0.0
 11
11536.35162798447
 21
586.4060611609825
 31
0.0
  0
LINE
  5
2AC51
330
2AA0D
100
AcDbEntity
  8
YODOROGO
100
AcDbLine
 10
11521.35162798447
 20
559.4060611609831
 30
0.0
 11
11521.35162798447
 21
634.4060611609833
 31
0.0
  0
LINE
  5
2AC52
330
2AA0D
100
AcDbEntity
  8
YODOROGO
100
AcDbLine
 10
11587.35162798447
 20
634.4060611609833
 30
0.0
 11
11587.35162798447
 21
559.4060611609831
 31
0.0
  0
LINE
  5
2AC53
330
2AA0D
100
AcDbEntity
  8
YODOROGO
100
AcDbLine
 10
11572.35162798446
 20
586.4060611609825
 30
0.0
 11
11572.35162798446
 21
634.4060611609833
 31
0.0
  0
LINE
  5
2AC54
330
2AA0D
100
AcDbEntity
  8
YODOROGO
100
AcDbLine
 10
11561.85162798446
 20
658.4060611609827
 30
0.0
 11
11561.85162798446
 21
586.4060611609825
 31
0.0
  0
LINE
  5
2AC55
330
2AA0D
100
AcDbEntity
  8
YODOROGO
100
AcDbLine
 10
11615.10162798446
 20
760.4060611609829
 30
0.0
 11
11615.10162798446
 21
550.4060611609828
 31
0.0
  0
LINE
  5
2AC56
330
2AA0D
100
AcDbEntity
  8
YODOROGO
100
AcDbLine
 10
11492.10162798447
 20
535.4060611609829
 30
0.0
 11
11492.10162798447
 21
760.4060611609829
 31
0.0
  0
LINE
  5
2AC57
330
2AA0D
100
AcDbEntity
  8
YODOROGO
100
AcDbLine
 10
11511.60162798447
 20
736.4060611609825
 30
0.0
 11
11511.60162798447
 21
535.4060611609829
 31
0.0
  0
LINE
  5
2AC58
330
2AA0D
100
AcDbEntity
  8
YODOROGO
100
AcDbLine
 10
11597.10162798446
 20
580.406061160983
 30
0.0
 11
11597.10162798446
 21
736.4060611609825
 31
0.0
  0
LINE
  5
2AC59
330
2AA0D
100
AcDbEntity
  8
YODOROGO
100
AcDbLine
 10
11393.10162798446
 20
610.4060611609829
 30
0.0
 11
11393.10162798446
 21
629.9060611609831
 31
0.0
  0
LINE
  5
2AC5A
330
2AA0D
100
AcDbEntity
  8
YODOROGO
100
AcDbLine
 10
11481.60162798447
 20
629.9060611609831
 30
0.0
 11
11481.60162798447
 21
610.4060611609829
 31
0.0
  0
LINE
  5
2AC5B
330
2AA0D
100
AcDbEntity
  8
YODOROGO
100
AcDbLine
 10
11687.10162798447
 20
715.4060611609828
 30
0.0
 11
11687.10162798447
 21
613.4060611609827
 31
0.0
  0
LINE
  5
2AC5C
330
2AA0D
100
AcDbEntity
  8
YODOROGO
100
AcDbLine
 10
11231.10162798446
 20
625.406061160983
 30
0.0
 11
11231.10162798446
 21
640.4060611609828
 31
0.0
  0
LINE
  5
2AC5D
330
2AA0D
100
AcDbEntity
  8
YODOROGO
100
AcDbLine
 10
11231.10162798446
 20
625.406061160983
 30
0.0
 11
11231.10162798446
 21
640.4060611609828
 31
0.0
  0
ARC
  5
2AC5E
330
2AA0D
100
AcDbEntity
  8
YODOROGO
100
AcDbCircle
 10
11451.60162798447
 20
565.4060611609828
 30
0.0
 40
30.0
100
AcDbArc
 50
270.0
 51
0.0
  0
LINE
  5
2AC5F
330
2AA0D
100
AcDbEntity
  8
YODOROGO
100
AcDbLine
 10
11463.60162798446
 20
599.9060611609831
 30
0.0
 11
11481.60162798447
 21
599.9060611609831
 31
0.0
  0
LINE
  5
2AC60
330
2AA0D
100
AcDbEntity
  8
YODOROGO
100
AcDbLine
 10
11481.60162798447
 20
610.4060611609829
 30
0.0
 11
11448.60162798446
 21
610.4060611609829
 31
0.0
  0
LINE
  5
2AC61
330
2AA0D
100
AcDbEntity
  8
YODOROGO
100
AcDbLine
 10
11331.60162798447
 20
625.406061160983
 30
0.0
 11
11231.10162798446
 21
625.406061160983
 31
0.0
  0
LINE
  5
2AC62
330
2AA0D
100
AcDbEntity
  8
YODOROGO
100
AcDbLine
 10
11331.60162798447
 20
610.4060611609829
 30
0.0
 11
11331.60162798447
 21
625.406061160983
 31
0.0
  0
LINE
  5
2AC63
330
2AA0D
100
AcDbEntity
  8
YODOROGO
100
AcDbLine
 10
11256.60162798447
 20
610.4060611609829
 30
0.0
 11
11331.60162798447
 21
610.4060611609829
 31
0.0
  0
ARC
  5
2AC64
330
2AA0D
100
AcDbEntity
  8
YODOROGO
100
AcDbCircle
 10
11336.27206076301
 20
700.8321431073384
 30
0.0
 40
120.5166136069605
100
AcDbArc
 50
228.6181454618993
 51
245.660289248906
  0
LINE
  5
2AC65
330
2AA0D
100
AcDbEntity
  8
YODOROGO
100
AcDbLine
 10
11289.60162798447
 20
601.4060611609833
 30
0.0
 11
11286.60162798448
 21
591.0273059512126
 31
0.0
  0
LINE
  5
2AC66
330
2AA0D
100
AcDbEntity
  8
YODOROGO
100
AcDbLine
 10
11321.10162798447
 20
601.4060611609833
 30
0.0
 11
11289.60162798447
 21
601.4060611609833
 31
0.0
  0
LINE
  5
2AC67
330
2AA0D
100
AcDbEntity
  8
YODOROGO
100
AcDbLine
 10
11316.60162798447
 20
581.9316459275352
 30
0.0
 11
11321.10162798447
 21
601.4060611609833
 31
0.0
  0
ARC
  5
2AC68
330
2AA0D
100
AcDbEntity
  8
YODOROGO
100
AcDbCircle
 10
11336.27206076267
 20
700.832143107376
 30
0.0
 40
120.516613606984
100
AcDbArc
 50
260.6062929796992
 51
267.7790355655586
  0
LINE
  5
2AC69
330
2AA0D
100
AcDbEntity
  8
YODOROGO
100
AcDbLine
 10
11331.60162798447
 20
535.4060611609821
 30
0.0
 11
11331.60162798447
 21
580.406061160983
 31
0.0
  0
LINE
  5
2AC6A
330
2AA0D
100
AcDbEntity
  8
YODOROGO
100
AcDbLine
 10
11226.60162798446
 20
555.5022505933164
 30
0.0
 11
11226.60162798446
 21
597.949158949178
 31
0.0
  0
LINE
  5
2AC6B
330
2AA0D
100
AcDbEntity
  8
YODOROGO
100
AcDbLine
 10
11331.60162798447
 20
625.406061160983
 30
0.0
 11
11231.10162798446
 21
625.406061160983
 31
0.0
  0
LINE
  5
2AC6C
330
2AA0D
100
AcDbEntity
  8
YODOROGO
100
AcDbLine
 10
11331.60162798447
 20
610.4060611609829
 30
0.0
 11
11331.60162798447
 21
625.406061160983
 31
0.0
  0
LINE
  5
2AC6D
330
2AA0D
100
AcDbEntity
  8
YODOROGO
100
AcDbLine
 10
11256.60162798447
 20
610.4060611609829
 30
0.0
 11
11331.60162798447
 21
610.4060611609829
 31
0.0
  0
ARC
  5
2AC6E
330
2AA0D
100
AcDbEntity
  8
YODOROGO
100
AcDbCircle
 10
11336.27206076301
 20
700.8321431073384
 30
0.0
 40
120.5166136069605
100
AcDbArc
 50
228.6181454618993
 51
245.660289248906
  0
LINE
  5
2AC6F
330
2AA0D
100
AcDbEntity
  8
YODOROGO
100
AcDbLine
 10
11289.60162798447
 20
601.4060611609833
 30
0.0
 11
11286.60162798448
 21
591.0273059512126
 31
0.0
  0
LINE
  5
2AC70
330
2AA0D
100
AcDbEntity
  8
YODOROGO
100
AcDbLine
 10
11321.10162798447
 20
601.4060611609833
 30
0.0
 11
11289.60162798447
 21
601.4060611609833
 31
0.0
  0
LINE
  5
2AC71
330
2AA0D
100
AcDbEntity
  8
YODOROGO
100
AcDbLine
 10
11316.60162798447
 20
581.9316459275352
 30
0.0
 11
11321.10162798447
 21
601.4060611609833
 31
0.0
  0
ARC
  5
2AC72
330
2AA0D
100
AcDbEntity
  8
YODOROGO
100
AcDbCircle
 10
11336.27206076267
 20
700.832143107376
 30
0.0
 40
120.516613606984
100
AcDbArc
 50
260.6062929796992
 51
267.7790355655586
  0
LINE
  5
2AC73
330
2AA0D
100
AcDbEntity
  8
YODOROGO
100
AcDbLine
 10
11331.60162798447
 20
535.4060611609821
 30
0.0
 11
11331.60162798447
 21
580.406061160983
 31
0.0
  0
LINE
  5
2AC74
330
2AA0D
100
AcDbEntity
  8
YODOROGO
100
AcDbLine
 10
11226.60162798446
 20
555.5022505933164
 30
0.0
 11
11226.60162798446
 21
597.949158949178
 31
0.0
  0
LINE
  5
2AC75
330
2AA0D
100
AcDbEntity
  8
YODOROGO
100
AcDbLine
 10
11412.60162798447
 20
590.1560611609832
 30
0.0
 11
11393.10162798446
 21
590.1560611609832
 31
0.0
  0
LINE
  5
2AC76
330
2AA0D
100
AcDbEntity
  8
YODOROGO
100
AcDbLine
 10
11412.60162798447
 20
600.6560611609824
 30
0.0
 11
11412.60162798447
 21
590.1560611609832
 31
0.0
  0
LINE
  5
2AC77
330
2AA0D
100
AcDbEntity
  8
YODOROGO
100
AcDbLine
 10
11393.10162798446
 20
600.6560611609824
 30
0.0
 11
11412.60162798447
 21
600.6560611609824
 31
0.0
  0
LINE
  5
2AC78
330
2AA0D
100
AcDbEntity
  8
YODOROGO
100
AcDbLine
 10
11393.10162798446
 20
590.1560611609832
 30
0.0
 11
11393.10162798446
 21
600.6560611609824
 31
0.0
  0
LINE
  5
2AC79
330
2AA0D
100
AcDbEntity
  8
YODOROGO
100
AcDbLine
 10
11411.10162798447
 20
591.6560611609829
 30
0.0
 11
11394.60162798447
 21
591.6560611609829
 31
0.0
  0
LINE
  5
2AC7A
330
2AA0D
100
AcDbEntity
  8
YODOROGO
100
AcDbLine
 10
11411.10162798447
 20
599.156061160983
 30
0.0
 11
11411.10162798447
 21
591.6560611609829
 31
0.0
  0
LINE
  5
2AC7B
330
2AA0D
100
AcDbEntity
  8
YODOROGO
100
AcDbLine
 10
11394.60162798447
 20
599.156061160983
 30
0.0
 11
11411.10162798447
 21
599.156061160983
 31
0.0
  0
LINE
  5
2AC7C
330
2AA0D
100
AcDbEntity
  8
YODOROGO
100
AcDbLine
 10
11394.60162798447
 20
591.6560611609829
 30
0.0
 11
11394.60162798447
 21
599.156061160983
 31
0.0
  0
LINE
  5
2AC7D
330
2AA0D
100
AcDbEntity
  8
YODOROGO
100
AcDbLine
 10
11409.60162798447
 20
593.1560611609824
 30
0.0
 11
11396.10162798446
 21
593.1560611609824
 31
0.0
  0
LINE
  5
2AC7E
330
2AA0D
100
AcDbEntity
  8
YODOROGO
100
AcDbLine
 10
11409.60162798447
 20
597.6560611609833
 30
0.0
 11
11409.60162798447
 21
593.1560611609824
 31
0.0
  0
LINE
  5
2AC7F
330
2AA0D
100
AcDbEntity
  8
YODOROGO
100
AcDbLine
 10
11396.10162798446
 20
597.6560611609833
 30
0.0
 11
11409.60162798447
 21
597.6560611609833
 31
0.0
  0
LINE
  5
2AC80
330
2AA0D
100
AcDbEntity
  8
YODOROGO
100
AcDbLine
 10
11396.10162798446
 20
593.1560611609824
 30
0.0
 11
11396.10162798446
 21
597.6560611609833
 31
0.0
  0
LINE
  5
2AC81
330
2AA0D
100
AcDbEntity
  8
YODOROGO
100
AcDbLine
 10
11408.10162798447
 20
594.6560611609827
 30
0.0
 11
11397.60162798447
 21
594.6560611609827
 31
0.0
  0
LINE
  5
2AC82
330
2AA0D
100
AcDbEntity
  8
YODOROGO
100
AcDbLine
 10
11408.10162798447
 20
596.1560611609829
 30
0.0
 11
11408.10162798447
 21
594.6560611609827
 31
0.0
  0
LINE
  5
2AC83
330
2AA0D
100
AcDbEntity
  8
YODOROGO
100
AcDbLine
 10
11397.60162798447
 20
596.1560611609829
 30
0.0
 11
11408.10162798447
 21
596.1560611609829
 31
0.0
  0
LINE
  5
2AC84
330
2AA0D
100
AcDbEntity
  8
YODOROGO
100
AcDbLine
 10
11397.60162798447
 20
594.6560611609827
 30
0.0
 11
11397.60162798447
 21
596.1560611609829
 31
0.0
  0
LINE
  5
2AC85
330
2AA0D
100
AcDbEntity
  8
YODOROGO
100
AcDbLine
 10
11424.60162798446
 20
610.4060611609829
 30
0.0
 11
11393.10162798446
 21
610.4060611609829
 31
0.0
  0
LINE
  5
2AC86
330
2AA0D
100
AcDbEntity
  8
YODOROGO
100
AcDbLine
 10
11424.60162798446
 20
580.406061160983
 30
0.0
 11
11424.60162798446
 21
610.4060611609829
 31
0.0
  0
LINE
  5
2AC87
330
2AA0D
100
AcDbEntity
  8
YODOROGO
100
AcDbLine
 10
11393.10162798446
 20
580.406061160983
 30
0.0
 11
11424.60162798446
 21
580.406061160983
 31
0.0
  0
LINE
  5
2AC88
330
2AA0D
100
AcDbEntity
  8
YODOROGO
100
AcDbLine
 10
11393.10162798446
 20
535.4060611609829
 30
0.0
 11
11393.10162798446
 21
580.406061160983
 31
0.0
  0
LINE
  5
2AC89
330
2AA0D
100
AcDbEntity
  8
YODOROGO
100
AcDbLine
 10
11451.60162798447
 20
535.4060611609829
 30
0.0
 11
11393.10162798446
 21
535.4060611609829
 31
0.0
  0
LINE
  5
2AC8A
330
2AA0D
100
AcDbEntity
  8
YODOROGO
100
AcDbLine
 10
11463.60162798446
 20
589.4060611609823
 30
0.0
 11
11463.60162798446
 21
599.9060611609831
 31
0.0
  0
ARC
  5
2AC8B
330
2AA0D
100
AcDbEntity
  8
YODOROGO
100
AcDbCircle
 10
11454.60162798446
 20
589.4060611609843
 30
0.0
 40
9.000000000001408
100
AcDbArc
 50
270.0
 51
359.9999999999877
  0
LINE
  5
2AC8C
330
2AA0D
100
AcDbEntity
  8
YODOROGO
100
AcDbLine
 10
11448.60162798446
 20
580.406061160983
 30
0.0
 11
11454.60162798446
 21
580.406061160983
 31
0.0
  0
LINE
  5
2AC8D
330
2AA0D
100
AcDbEntity
  8
YODOROGO
100
AcDbLine
 10
11448.60162798446
 20
610.4060611609829
 30
0.0
 11
11448.60162798446
 21
580.406061160983
 31
0.0
  0
LINE
  5
2AC8E
330
2AA0D
100
AcDbEntity
  8
YODOROGO
100
AcDbLine
 10
11587.35162798447
 20
580.406061160983
 30
0.0
 11
11597.10162798446
 21
580.406061160983
 31
0.0
  0
LINE
  5
2AC8F
330
2AA0D
100
AcDbEntity
  8
YODOROGO
100
AcDbLine
 10
11600.10162798446
 20
535.4060611609829
 30
0.0
 11
11587.35162798447
 21
535.4060611609829
 31
0.0
  0
LINE
  5
2AC90
330
2AA0D
100
AcDbEntity
  8
YODOROGO
100
AcDbLine
 10
11536.35162798447
 20
586.4060611609825
 30
0.0
 11
11546.85162798447
 21
586.4060611609825
 31
0.0
  0
LINE
  5
2AC91
330
2AA0D
100
AcDbEntity
  8
YODOROGO
100
AcDbLine
 10
11587.35162798447
 20
559.4060611609831
 30
0.0
 11
11521.35162798447
 21
559.4060611609831
 31
0.0
  0
LINE
  5
2AC92
330
2AA0D
100
AcDbEntity
  8
YODOROGO
100
AcDbLine
 10
11561.85162798446
 20
586.4060611609825
 30
0.0
 11
11572.35162798446
 21
586.4060611609825
 31
0.0
  0
LINE
  5
2AC93
330
2AA0D
100
AcDbEntity
  8
YODOROGO
100
AcDbLine
 10
11587.35162798447
 20
535.4060611609829
 30
0.0
 11
11587.35162798447
 21
580.406061160983
 31
0.0
  0
LINE
  5
2AC94
330
2AA0D
100
AcDbEntity
  8
YODOROGO
100
AcDbLine
 10
11511.60162798447
 20
535.4060611609829
 30
0.0
 11
11492.10162798447
 21
535.4060611609829
 31
0.0
  0
LINE
  5
2AC95
330
2AA0D
100
AcDbEntity
  8
YODOROGO
100
AcDbLine
 10
11481.60162798447
 20
599.9060611609831
 30
0.0
 11
11481.60162798447
 21
565.4060611609828
 31
0.0
  0
ARC
  5
2AC96
330
2AA0D
100
AcDbEntity
  8
YODOROGO
100
AcDbCircle
 10
11600.10162798446
 20
550.4060611609828
 30
0.0
 40
15.0
100
AcDbArc
 50
270.0
 51
0.0
  0
LINE
  5
2AC97
330
2AA0D
100
AcDbEntity
  8
YODOROGO
100
AcDbLine
 10
11660.10162798446
 20
571.4060611609824
 30
0.0
 11
11660.10162798446
 21
535.4060611609829
 31
0.0
  0
ARC
  5
2AC98
330
2AA0D
100
AcDbEntity
  8
YODOROGO
100
AcDbCircle
 10
11639.89552333754
 20
614.0742712911499
 30
0.0
 40
47.21083372187828
100
AcDbArc
 50
295.3405244216011
 51
359.1890230341867
  0
LINE
  5
2AC99
330
2AA0D
100
AcDbEntity
  8
YODOROGO
100
AcDbLine
 10
11481.60162798447
 20
697.406061160983
 30
0.0
 11
11436.60162798447
 21
727.4060611609828
 31
0.0
  0
LINE
  5
2AC9A
330
2AA0D
100
AcDbEntity
  8
YODOROGO
100
AcDbLine
 10
11436.60162798447
 20
760.4060611609829
 30
0.0
 11
11481.60162798447
 21
730.4060611609828
 31
0.0
  0
LINE
  5
2AC9B
330
2AA0D
100
AcDbEntity
  8
YODOROGO
100
AcDbLine
 10
11448.60162798446
 20
629.9060611609831
 30
0.0
 11
11481.60162798447
 21
629.9060611609831
 31
0.0
  0
LINE
  5
2AC9C
330
2AA0D
100
AcDbEntity
  8
YODOROGO
100
AcDbLine
 10
11481.60162798447
 20
650.9060611609827
 30
0.0
 11
11448.60162798446
 21
650.9060611609827
 31
0.0
  0
LINE
  5
2AC9D
330
2AA0D
100
AcDbEntity
  8
YODOROGO
100
AcDbLine
 10
11393.10162798446
 20
673.4060611609827
 30
0.0
 11
11481.60162798447
 21
673.4060611609827
 31
0.0
  0
LINE
  5
2AC9E
330
2AA0D
100
AcDbEntity
  8
YODOROGO
100
AcDbLine
 10
11280.60162798447
 20
760.4060611609829
 30
0.0
 11
11258.10162798447
 21
760.4060611609829
 31
0.0
  0
LINE
  5
2AC9F
330
2AA0D
100
AcDbEntity
  8
YODOROGO
100
AcDbLine
 10
11280.60162798447
 20
685.4060611609829
 30
0.0
 11
11280.60162798447
 21
760.4060611609829
 31
0.0
  0
LINE
  5
2ACA0
330
2AA0D
100
AcDbEntity
  8
YODOROGO
100
AcDbLine
 10
11258.10162798447
 20
685.4060611609829
 30
0.0
 11
11280.60162798447
 21
685.4060611609829
 31
0.0
  0
LINE
  5
2ACA1
330
2AA0D
100
AcDbEntity
  8
YODOROGO
100
AcDbLine
 10
11258.10162798447
 20
760.4060611609829
 30
0.0
 11
11258.10162798447
 21
685.4060611609829
 31
0.0
  0
LINE
  5
2ACA2
330
2AA0D
100
AcDbEntity
  8
YODOROGO
100
AcDbLine
 10
11310.60162798447
 20
760.4060611609829
 30
0.0
 11
11331.60162798447
 21
760.4060611609829
 31
0.0
  0
LINE
  5
2ACA3
330
2AA0D
100
AcDbEntity
  8
YODOROGO
100
AcDbLine
 10
11310.60162798447
 20
679.4060611609832
 30
0.0
 11
11310.60162798447
 21
760.4060611609829
 31
0.0
  0
ARC
  5
2ACA4
330
2AA0D
100
AcDbEntity
  8
YODOROGO
100
AcDbCircle
 10
11295.60162798447
 20
679.4060611609832
 30
0.0
 40
15.0
100
AcDbArc
 50
270.0
 51
0.0
  0
LINE
  5
2ACA5
330
2AA0D
100
AcDbEntity
  8
YODOROGO
100
AcDbLine
 10
11258.10162798447
 20
664.4060611609833
 30
0.0
 11
11295.60162798447
 21
664.4060611609833
 31
0.0
  0
LINE
  5
2ACA6
330
2AA0D
100
AcDbEntity
  8
YODOROGO
100
AcDbLine
 10
11258.10162798447
 20
640.4060611609828
 30
0.0
 11
11258.10162798447
 21
664.4060611609833
 31
0.0
  0
LINE
  5
2ACA7
330
2AA0D
100
AcDbEntity
  8
YODOROGO
100
AcDbLine
 10
11301.60162798446
 20
640.4060611609828
 30
0.0
 11
11258.10162798447
 21
640.4060611609828
 31
0.0
  0
ARC
  5
2ACA8
330
2AA0D
100
AcDbEntity
  8
YODOROGO
100
AcDbCircle
 10
11301.60162798446
 20
670.4060611609828
 30
0.0
 40
30.0
100
AcDbArc
 50
270.0
 51
0.0
  0
LINE
  5
2ACA9
330
2AA0D
100
AcDbEntity
  8
YODOROGO
100
AcDbLine
 10
11331.60162798447
 20
760.4060611609829
 30
0.0
 11
11331.60162798447
 21
670.4060611609828
 31
0.0
  0
LINE
  5
2ACAA
330
2AA0D
100
AcDbEntity
  8
YODOROGO
100
AcDbLine
 10
11241.60162798446
 20
730.4060611609828
 30
0.0
 11
11241.60162798446
 21
748.4060611609828
 31
0.0
1001
AUTOCAD_POSTSCRIPT_FIGURE
1002
{
1000
PSFILL
1000
Grayscale
1000
Grayscale
1070
    25
1002
}
  0
LINE
  5
2ACAB
330
2AA0D
100
AcDbEntity
  8
YODOROGO
100
AcDbLine
 10
11241.60162798446
 20
697.406061160983
 30
0.0
 11
11241.60162798446
 21
715.4060611609828
 31
0.0
1001
AUTOCAD_POSTSCRIPT_FIGURE
1002
{
1000
PSFILL
1000
Grayscale
1000
Grayscale
1070
    25
1002
}
  0
LINE
  5
2ACAC
330
2AA0D
100
AcDbEntity
  8
YODOROGO
100
AcDbLine
 10
11241.60162798446
 20
640.4060611609828
 30
0.0
 11
11241.60162798446
 21
682.4060611609829
 31
0.0
1001
AUTOCAD_POSTSCRIPT_FIGURE
1002
{
1000
PSFILL
1000
Grayscale
1000
Grayscale
1070
    25
1002
}
  0
LINE
  5
2ACAD
330
2AA0D
100
AcDbEntity
  8
YODOROGO
100
AcDbLine
 10
11393.10162798446
 20
715.4060611609828
 30
0.0
 11
11436.60162798447
 21
760.4060611609829
 31
0.0
  0
LINE
  5
2ACAE
330
2AA0D
100
AcDbEntity
  8
YODOROGO
100
AcDbLine
 10
11393.10162798446
 20
682.4060611609829
 30
0.0
 11
11393.10162798446
 21
715.4060611609828
 31
0.0
  0
LINE
  5
2ACAF
330
2AA0D
100
AcDbEntity
  8
YODOROGO
100
AcDbLine
 10
11436.60162798447
 20
727.4060611609828
 30
0.0
 11
11393.10162798446
 21
682.4060611609829
 31
0.0
  0
LINE
  5
2ACB0
330
2AA0D
100
AcDbEntity
  8
YODOROGO
100
AcDbLine
 10
11424.60162798446
 20
629.9060611609831
 30
0.0
 11
11424.60162798446
 21
650.9060611609827
 31
0.0
  0
LINE
  5
2ACB1
330
2AA0D
100
AcDbEntity
  8
YODOROGO
100
AcDbLine
 10
11393.10162798446
 20
629.9060611609831
 30
0.0
 11
11424.60162798446
 21
629.9060611609831
 31
0.0
  0
LINE
  5
2ACB2
330
2AA0D
100
AcDbEntity
  8
YODOROGO
100
AcDbLine
 10
11448.60162798446
 20
650.9060611609827
 30
0.0
 11
11448.60162798446
 21
629.9060611609831
 31
0.0
  0
LINE
  5
2ACB3
330
2AA0D
100
AcDbEntity
  8
YODOROGO
100
AcDbLine
 10
11393.10162798446
 20
650.9060611609827
 30
0.0
 11
11393.10162798446
 21
673.4060611609827
 31
0.0
  0
LINE
  5
2ACB4
330
2AA0D
100
AcDbEntity
  8
YODOROGO
100
AcDbLine
 10
11424.60162798446
 20
650.9060611609827
 30
0.0
 11
11393.10162798446
 21
650.9060611609827
 31
0.0
  0
LINE
  5
2ACB5
330
2AA0D
100
AcDbEntity
  8
YODOROGO
100
AcDbLine
 10
11492.10162798447
 20
760.4060611609829
 30
0.0
 11
11615.10162798446
 21
760.4060611609829
 31
0.0
  0
LINE
  5
2ACB6
330
2AA0D
100
AcDbEntity
  8
YODOROGO
100
AcDbLine
 10
11597.10162798446
 20
736.4060611609825
 30
0.0
 11
11511.60162798447
 21
736.4060611609825
 31
0.0
  0
LINE
  5
2ACB7
330
2AA0D
100
AcDbEntity
  8
YODOROGO
100
AcDbLine
 10
11577.60162798447
 20
682.4060611609829
 30
0.0
 11
11587.35162798447
 21
682.4060611609829
 31
0.0
  0
LINE
  5
2ACB8
330
2AA0D
100
AcDbEntity
  8
YODOROGO
100
AcDbLine
 10
11587.35162798447
 20
727.4060611609828
 30
0.0
 11
11577.60162798447
 21
682.4060611609829
 31
0.0
  0
LINE
  5
2ACB9
330
2AA0D
100
AcDbEntity
  8
YODOROGO
100
AcDbLine
 10
11569.35162798446
 20
727.4060611609828
 30
0.0
 11
11587.35162798447
 21
727.4060611609828
 31
0.0
  0
LINE
  5
2ACBA
330
2AA0D
100
AcDbEntity
  8
YODOROGO
100
AcDbLine
 10
11559.60162798447
 20
682.4060611609829
 30
0.0
 11
11569.35162798446
 21
727.4060611609828
 31
0.0
  0
LINE
  5
2ACBB
330
2AA0D
100
AcDbEntity
  8
YODOROGO
100
AcDbLine
 10
11549.10162798447
 20
682.4060611609829
 30
0.0
 11
11559.60162798447
 21
682.4060611609829
 31
0.0
  0
LINE
  5
2ACBC
330
2AA0D
100
AcDbEntity
  8
YODOROGO
100
AcDbLine
 10
11539.35162798447
 20
727.4060611609828
 30
0.0
 11
11549.10162798447
 21
682.4060611609829
 31
0.0
  0
LINE
  5
2ACBD
330
2AA0D
100
AcDbEntity
  8
YODOROGO
100
AcDbLine
 10
11521.35162798447
 20
727.4060611609828
 30
0.0
 11
11539.35162798447
 21
727.4060611609828
 31
0.0
  0
LINE
  5
2ACBE
330
2AA0D
100
AcDbEntity
  8
YODOROGO
100
AcDbLine
 10
11531.10162798447
 20
682.4060611609829
 30
0.0
 11
11521.35162798447
 21
727.4060611609828
 31
0.0
  0
LINE
  5
2ACBF
330
2AA0D
100
AcDbEntity
  8
YODOROGO
100
AcDbLine
 10
11521.35162798447
 20
682.4060611609829
 30
0.0
 11
11531.10162798447
 21
682.4060611609829
 31
0.0
  0
LINE
  5
2ACC0
330
2AA0D
100
AcDbEntity
  8
YODOROGO
100
AcDbLine
 10
11521.35162798447
 20
658.4060611609827
 30
0.0
 11
11521.35162798447
 21
682.4060611609829
 31
0.0
  0
LINE
  5
2ACC1
330
2AA0D
100
AcDbEntity
  8
YODOROGO
100
AcDbLine
 10
11587.35162798447
 20
658.4060611609827
 30
0.0
 11
11521.35162798447
 21
658.4060611609827
 31
0.0
  0
LINE
  5
2ACC2
330
2AA0D
100
AcDbEntity
  8
YODOROGO
100
AcDbLine
 10
11587.35162798447
 20
682.4060611609829
 30
0.0
 11
11587.35162798447
 21
658.4060611609827
 31
0.0
  0
LINE
  5
2ACC3
330
2AA0D
100
AcDbEntity
  8
YODOROGO
100
AcDbLine
 10
11481.60162798447
 20
730.4060611609828
 30
0.0
 11
11481.60162798447
 21
697.406061160983
 31
0.0
  0
LINE
  5
2ACC4
330
2AA0D
100
AcDbEntity
  8
YODOROGO
100
AcDbLine
 10
11546.85162798447
 20
658.4060611609827
 30
0.0
 11
11561.85162798446
 21
658.4060611609827
 31
0.0
  0
LINE
  5
2ACC5
330
2AA0D
100
AcDbEntity
  8
YODOROGO
100
AcDbLine
 10
11521.35162798447
 20
634.4060611609833
 30
0.0
 11
11536.35162798447
 21
634.4060611609833
 31
0.0
  0
LINE
  5
2ACC6
330
2AA0D
100
AcDbEntity
  8
YODOROGO
100
AcDbLine
 10
11572.35162798446
 20
634.4060611609833
 30
0.0
 11
11587.35162798447
 21
634.4060611609833
 31
0.0
  0
LINE
  5
2ACC7
330
2AA0D
100
AcDbEntity
  8
YODOROGO
100
AcDbLine
 10
11481.60162798447
 20
673.4060611609827
 30
0.0
 11
11481.60162798447
 21
650.9060611609827
 31
0.0
  0
LINE
  5
2ACC8
330
2AA0D
100
AcDbEntity
  8
YODOROGO
100
AcDbLine
 10
11687.10162798447
 20
760.4060611609829
 30
0.0
 11
11687.10162798447
 21
736.4060611609825
 31
0.0
  0
LINE
  5
2ACC9
330
2AA0D
100
AcDbEntity
  8
YODOROGO
100
AcDbLine
 10
11825.10162798447
 20
598.4060611609827
 30
0.0
 11
11825.10162798446
 21
679.4060611609832
 31
0.0
  0
LINE
  5
2ACCA
330
2AA0D
100
AcDbEntity
  8
YODOROGO
100
AcDbLine
 10
11798.10162798446
 20
745.4060611609828
 30
0.0
 11
11798.10162798446
 21
613.4060611609827
 31
0.0
  0
LINE
  5
2ACCB
330
2AA0D
100
AcDbEntity
  8
YODOROGO
100
AcDbLine
 10
11870.10162798447
 20
535.4060611609829
 30
0.0
 11
11870.10162798446
 21
679.4060611609832
 31
0.0
  0
LINE
  5
2ACCC
330
2AA0D
100
AcDbEntity
  8
YODOROGO
100
AcDbLine
 10
11846.10162798447
 20
679.4060611609832
 30
0.0
 11
11846.10162798447
 21
535.4060611609829
 31
0.0
  0
LINE
  5
2ACCD
330
2AA0D
100
AcDbEntity
  8
YODOROGO
100
AcDbLine
 10
11714.10162798447
 20
598.4060611609827
 30
0.0
 11
11714.10162798447
 21
640.4060611609828
 31
0.0
  0
ARC
  5
2ACCE
330
2AA0D
100
AcDbEntity
  8
YODOROGO
100
AcDbCircle
 10
11757.71807441852
 20
602.921381733209
 30
0.0
 40
67.53466821599572
100
AcDbArc
 50
268.6284910216979
 51
356.1663845733032
  0
LINE
  5
2ACCF
330
2AA0D
100
AcDbEntity
  8
YODOROGO
100
AcDbLine
 10
11756.10162798446
 20
572.9060611609829
 30
0.0
 11
11756.10162798446
 21
535.4060611609829
 31
0.0
  0
ARC
  5
2ACD0
330
2AA0D
100
AcDbEntity
  8
YODOROGO
100
AcDbCircle
 10
11756.81927839671
 20
614.1896088816206
 30
0.0
 40
41.28978486885457
100
AcDbArc
 50
269.0041020930593
 51
358.9126445549248
  0
LINE
  5
2ACD1
330
2AA0D
100
AcDbEntity
  8
YODOROGO
100
AcDbLine
 10
11846.10162798447
 20
535.4060611609829
 30
0.0
 11
11870.10162798447
 21
535.4060611609829
 31
0.0
  0
LINE
  5
2ACD2
330
2AA0D
100
AcDbEntity
  8
YODOROGO
100
AcDbLine
 10
11825.10162798446
 20
679.4060611609832
 30
0.0
 11
11846.10162798447
 21
679.4060611609832
 31
0.0
  0
LINE
  5
2ACD3
330
2AA0D
100
AcDbEntity
  8
YODOROGO
100
AcDbLine
 10
11858.10162798446
 20
745.4060611609828
 30
0.0
 11
11798.10162798446
 21
745.4060611609828
 31
0.0
  0
LINE
  5
2ACD4
330
2AA0D
100
AcDbEntity
  8
YODOROGO
100
AcDbLine
 10
11825.10162798446
 20
718.4060611609829
 30
0.0
 11
11873.10162798447
 21
718.4060611609829
 31
0.0
  0
LINE
  5
2ACD5
330
2AA0D
100
AcDbEntity
  8
YODOROGO
100
AcDbLine
 10
11888.10162798447
 20
703.4060611609828
 30
0.0
 11
11825.10162798446
 21
703.4060611609828
 31
0.0
  0
LINE
  5
2ACD6
330
2AA0D
100
AcDbEntity
  8
YODOROGO
100
AcDbLine
 10
11714.10162798447
 20
667.4060611609831
 30
0.0
 11
11756.10162798446
 21
667.4060611609831
 31
0.0
  0
LINE
  5
2ACD7
330
2AA0D
100
AcDbEntity
  8
YODOROGO
100
AcDbLine
 10
11714.10162798447
 20
688.4060611609828
 30
0.0
 11
11714.10162798447
 21
667.4060611609831
 31
0.0
  0
LINE
  5
2ACD8
330
2AA0D
100
AcDbEntity
  8
YODOROGO
100
AcDbLine
 10
11756.10162798446
 20
688.4060611609828
 30
0.0
 11
11714.10162798447
 21
688.4060611609828
 31
0.0
  0
LINE
  5
2ACD9
330
2AA0D
100
AcDbEntity
  8
YODOROGO
100
AcDbLine
 10
11756.10162798446
 20
667.4060611609831
 30
0.0
 11
11756.10162798446
 21
688.4060611609828
 31
0.0
  0
LINE
  5
2ACDA
330
2AA0D
100
AcDbEntity
  8
YODOROGO
100
AcDbLine
 10
11825.10162798446
 20
703.4060611609828
 30
0.0
 11
11825.10162798446
 21
718.4060611609829
 31
0.0
  0
LINE
  5
2ACDB
330
2AA0D
100
AcDbEntity
  8
YODOROGO
100
AcDbLine
 10
11780.10162798446
 20
640.4060611609828
 30
0.0
 11
11780.10162798446
 21
715.4060611609828
 31
0.0
  0
LINE
  5
2ACDC
330
2AA0D
100
AcDbEntity
  8
YODOROGO
100
AcDbLine
 10
11714.10162798447
 20
640.4060611609828
 30
0.0
 11
11780.10162798446
 21
640.4060611609828
 31
0.0
  0
LINE
  5
2ACDD
330
2AA0D
100
AcDbEntity
  8
YODOROGO
100
AcDbLine
 10
11780.10162798446
 20
736.4060611609825
 30
0.0
 11
11780.10162798446
 21
760.4060611609829
 31
0.0
  0
ARC
  5
2ACDE
330
2AA0D
100
AcDbEntity
  8
YODOROGO
100
AcDbCircle
 10
11858.10162798446
 20
751.4060611609817
 30
0.0
 40
5.999999999997952
100
AcDbArc
 50
270.0
 51
0.0000000000081422
  0
LINE
  5
2ACDF
330
2AA0D
100
AcDbEntity
  8
YODOROGO
100
AcDbLine
 10
11864.10162798447
 20
760.4060611609829
 30
0.0
 11
11864.10162798447
 21
751.4060611609825
 31
0.0
  0
LINE
  5
2ACE0
330
2AA0D
100
AcDbEntity
  8
YODOROGO
100
AcDbLine
 10
11888.10162798447
 20
760.4060611609829
 30
0.0
 11
11864.10162798447
 21
760.4060611609829
 31
0.0
  0
LINE
  5
2ACE1
330
2AA0D
100
AcDbEntity
  8
YODOROGO
100
AcDbLine
 10
11888.10162798447
 20
733.4060611609828
 30
0.0
 11
11888.10162798447
 21
760.4060611609829
 31
0.0
  0
ARC
  5
2ACE2
330
2AA0D
100
AcDbEntity
  8
YODOROGO
100
AcDbCircle
 10
11873.10162798447
 20
733.4060611609828
 30
0.0
 40
15.0
100
AcDbArc
 50
270.0
 51
0.0
  0
LINE
  5
2ACE3
330
2AA0D
100
AcDbEntity
  8
YODOROGO
100
AcDbLine
 10
11888.10162798447
 20
679.4060611609832
 30
0.0
 11
11888.10162798447
 21
703.4060611609828
 31
0.0
  0
LINE
  5
2ACE4
330
2AA0D
100
AcDbEntity
  8
YODOROGO
100
AcDbLine
 10
11870.10162798446
 20
679.4060611609832
 30
0.0
 11
11888.10162798447
 21
679.4060611609832
 31
0.0
  0
LINE
  5
2ACE5
330
2AA0D
100
AcDbEntity
  8
SUNPOU
100
AcDbLine
 10
2254.03670734087
 20
1586.712525199589
 30
0.0
 11
3706.536707340871
 21
1586.712525199589
 31
0.0
  0
LINE
  5
2ACE6
330
2AA0D
100
AcDbEntity
  8
SUNPOU
100
AcDbLine
 10
2254.036707340869
 20
1436.712525199591
 30
0.0
 11
3706.536707340871
 21
1436.712525199591
 31
0.0
  0
LINE
  5
2ACE7
330
2AA0D
100
AcDbEntity
  8
SUNPOU
100
AcDbLine
 10
3661.536707340871
 20
1571.712525199589
 30
0.0
 11
3661.536707340871
 21
1451.712525199591
 31
0.0
  0
LINE
  5
2ACE8
330
2AA0D
100
AcDbEntity
  8
SUNPOU
100
AcDbLine
 10
3661.536707340871
 20
1436.712525199591
 30
0.0
 11
3661.536707340871
 21
1185.998239485305
 31
0.0
  0
LINE
  5
2ACE9
330
2AA0D
100
AcDbEntity
  8
SUNPOU
100
AcDbLine
 10
3491.536707340871
 20
2336.712525199591
 30
0.0
 11
3706.536707340871
 21
2336.712525199591
 31
0.0
  0
LINE
  5
2ACEA
330
2AA0D
100
AcDbEntity
  8
SUNPOU
100
AcDbLine
 10
2254.03670734087
 20
1586.712525199591
 30
0.0
 11
3706.536707340871
 21
1586.712525199591
 31
0.0
  0
LINE
  5
2ACEB
330
2AA0D
100
AcDbEntity
  8
SUNPOU
100
AcDbLine
 10
3661.536707340871
 20
2321.712525199592
 30
0.0
 11
3661.536707340871
 21
1601.712525199592
 31
0.0
  0
LINE
  5
2ACEC
330
2AA0D
100
AcDbEntity
  8
SUNPOU
100
AcDbLine
 10
1024.036707340868
 20
1406.712525199591
 30
0.0
 11
1024.036707340868
 21
1061.712525199589
 31
0.0
  0
LINE
  5
2ACED
330
2AA0D
100
AcDbEntity
  8
SUNPOU
100
AcDbLine
 10
2074.036707340868
 20
1406.712525199591
 30
0.0
 11
2074.036707340868
 21
1061.712525199589
 31
0.0
  0
LINE
  5
2ACEE
330
2AA0D
100
AcDbEntity
  8
SUNPOU
100
AcDbLine
 10
1039.036707340869
 20
1106.712525199589
 30
0.0
 11
2059.036707340868
 21
1106.712525199589
 31
0.0
  0
LINE
  5
2ACEF
330
2AA0D
100
AcDbEntity
  8
SUNPOU
100
AcDbLine
 10
874.0367073408688
 20
1406.712525199591
 30
0.0
 11
874.0367073408688
 21
851.7125251995903
 31
0.0
  0
LINE
  5
2ACF0
330
2AA0D
100
AcDbEntity
  8
SUNPOU
100
AcDbLine
 10
2224.036707340868
 20
1406.712525199591
 30
0.0
 11
2224.036707340868
 21
851.7125251995903
 31
0.0
  0
LINE
  5
2ACF1
330
2AA0D
100
AcDbEntity
  8
SUNPOU
100
AcDbLine
 10
889.0367073408686
 20
896.7125251995904
 30
0.0
 11
2209.036707340869
 21
896.7125251995904
 31
0.0
  0
LINE
  5
2ACF2
330
2AA0D
100
AcDbEntity
  8
SUNPOU
100
AcDbLine
 10
10970.34064133492
 20
8088.87747860906
 30
0.0
 11
10970.34064133492
 21
8077.627478609063
 31
0.0
  0
LINE
  5
2ACF3
330
2AA0D
100
AcDbEntity
  8
SUNPOU
100
AcDbLine
 10
10760.34064133492
 20
8088.87747860906
 30
0.0
 11
10760.34064133492
 21
8077.627478609063
 31
0.0
  0
LINE
  5
2ACF4
330
2AA0D
100
AcDbEntity
  8
SUNPOU
100
AcDbLine
 10
10550.34064133492
 20
7038.877478609062
 30
0.0
 11
10550.34064133492
 21
7027.627478609064
 31
0.0
  0
LINE
  5
2ACF5
330
2AA0D
100
AcDbEntity
  8
SUNPOU
100
AcDbLine
 10
10760.34064133492
 20
6688.877478609064
 30
0.0
 11
10760.34064133492
 21
6677.627478609064
 31
0.0
  0
LINE
  5
2ACF6
330
2AA0D
100
AcDbEntity
  8
SUNPOU
100
AcDbLine
 10
10760.34064133492
 20
6688.877478609064
 30
0.0
 11
10760.34064133492
 21
6677.627478609064
 31
0.0
  0
LINE
  5
2ACF7
330
2AA0D
100
AcDbEntity
  8
SUNPOU
100
AcDbLine
 10
10760.34064133492
 20
6711.377478609063
 30
0.0
 11
10760.34064133492
 21
6722.627478609064
 31
0.0
  0
LINE
  5
2ACF8
330
2AA0D
100
AcDbEntity
  8
SUNPOU
100
AcDbLine
 10
10550.34064133492
 20
6361.377478609064
 30
0.0
 11
10550.34064133492
 21
6372.627478609063
 31
0.0
  0
LINE
  5
2ACF9
330
2AA0D
100
AcDbEntity
  8
SUNPOU
100
AcDbLine
 10
10111.04665690041
 20
6748.877478609063
 30
0.0
 11
10111.04665690041
 21
6760.127478609064
 31
0.0
  0
LINE
  5
2ACFA
330
2AA0D
100
AcDbEntity
  8
SUNPOU
100
AcDbLine
 10
10111.04665690041
 20
6673.877478609063
 30
0.0
 11
10111.04665690041
 21
6685.127478609064
 31
0.0
  0
LINE
  5
2ACFB
330
2AA0D
100
AcDbEntity
  8
SUNPOU
100
AcDbLine
 10
10239.09064133492
 20
6050.127478609063
 30
0.0
 11
10227.84064133492
 21
6050.127478609063
 31
0.0
  0
LINE
  5
2ACFC
330
2AA0D
100
AcDbEntity
  8
SUNPOU
100
AcDbLine
 10
9856.590641334937
 20
6486.184634723412
 30
0.0
 11
9845.340641334935
 21
6486.184634723412
 31
0.0
  0
LINE
  5
2ACFD
330
2AA0D
100
AcDbEntity
  8
SUNPOU
100
AcDbLine
 10
9561.590641334936
 20
6050.127478609063
 30
0.0
 11
9572.840641334934
 21
6050.127478609063
 31
0.0
  0
LINE
  5
2ACFE
330
2AA0D
100
AcDbEntity
  8
SUNPOU
100
AcDbLine
 10
9921.590641334935
 20
6486.184634723412
 30
0.0
 11
9910.340641334935
 21
6486.184634723412
 31
0.0
  0
LINE
  5
2ACFF
330
2AA0D
100
AcDbEntity
  8
SUNPOU
100
AcDbLine
 10
10550.34064133492
 20
4978.877478609064
 30
0.0
 11
10550.34064133492
 21
4967.627478609063
 31
0.0
  0
LINE
  5
2AD00
330
2AA0D
100
AcDbEntity
  8
SUNPOU
100
AcDbLine
 10
10760.34064133492
 20
4651.377478609063
 30
0.0
 11
10760.34064133492
 21
4662.627478609063
 31
0.0
  0
LINE
  5
2AD01
330
2AA0D
100
AcDbEntity
  8
SUNPOU
100
AcDbLine
 10
10760.34064133492
 20
4651.377478609063
 30
0.0
 11
10760.34064133492
 21
4662.627478609063
 31
0.0
  0
LINE
  5
2AD02
330
2AA0D
100
AcDbEntity
  8
SUNPOU
100
AcDbLine
 10
10760.34064133492
 20
4628.877478609063
 30
0.0
 11
10760.34064133492
 21
4617.627478609064
 31
0.0
  0
LINE
  5
2AD03
330
2AA0D
100
AcDbEntity
  8
SUNPOU
100
AcDbLine
 10
10111.04665690041
 20
4688.877478609064
 30
0.0
 11
10111.04665690041
 21
4700.127478609063
 31
0.0
  0
LINE
  5
2AD04
330
2AA0D
100
AcDbEntity
  8
SUNPOU
100
AcDbLine
 10
10111.04665690041
 20
4613.877478609063
 30
0.0
 11
10111.04665690041
 21
4625.127478609063
 31
0.0
  0
LINE
  5
2AD05
330
2AA0D
100
AcDbEntity
  8
SUNPOU
100
AcDbLine
 10
10550.34064133492
 20
4301.377478609063
 30
0.0
 11
10550.34064133492
 21
4312.627478609063
 31
0.0
  0
LINE
  5
2AD06
330
2AA0D
100
AcDbEntity
  8
SUNPOU
100
AcDbLine
 10
10760.34064133492
 20
3251.377478609063
 30
0.0
 11
10760.34064133492
 21
3262.627478609063
 31
0.0
  0
LINE
  5
2AD07
330
2AA0D
100
AcDbEntity
  8
SUNPOU
100
AcDbLine
 10
10970.34064133492
 20
3251.377478609063
 30
0.0
 11
10970.34064133492
 21
3262.627478609063
 31
0.0
  0
LINE
  5
2AD08
330
2AA0D
100
AcDbEntity
  8
SUNPOU
100
AcDbLine
 10
10239.09064133492
 20
4065.127478609062
 30
0.0
 11
10227.84064133492
 21
4065.127478609062
 31
0.0
  0
LINE
  5
2AD09
330
2AA0D
100
AcDbEntity
  8
SUNPOU
100
AcDbLine
 10
9856.590641334937
 20
4426.184634723411
 30
0.0
 11
9845.340641334935
 21
4426.184634723411
 31
0.0
  0
LINE
  5
2AD0A
330
2AA0D
100
AcDbEntity
  8
SUNPOU
100
AcDbLine
 10
9561.590641334936
 20
4065.127478609062
 30
0.0
 11
9572.840641334934
 21
4065.127478609062
 31
0.0
  0
LINE
  5
2AD0B
330
2AA0D
100
AcDbEntity
  8
SUNPOU
100
AcDbLine
 10
9921.590641334935
 20
4426.184634723411
 30
0.0
 11
9910.340641334935
 21
4426.184634723411
 31
0.0
  0
LINE
  5
2AD0C
330
2AA0D
100
AcDbEntity
  8
SUNPOU
100
AcDbLine
 10
10239.09064133492
 20
2840.127478609062
 30
0.0
 11
10227.84064133492
 21
2840.127478609062
 31
0.0
  0
LINE
  5
2AD0D
330
2AA0D
100
AcDbEntity
  8
SUNPOU
100
AcDbLine
 10
10239.09064133492
 20
2630.127478609063
 30
0.0
 11
10227.84064133492
 21
2630.127478609063
 31
0.0
  0
LINE
  5
2AD0E
330
2AA0D
100
AcDbEntity
  8
SUNPOU
100
AcDbLine
 10
9911.590641334932
 20
2840.127478609062
 30
0.0
 11
9922.840641334932
 21
2840.127478609062
 31
0.0
  0
LINE
  5
2AD0F
330
2AA0D
100
AcDbEntity
  8
SUNPOU
100
AcDbLine
 10
9889.090641334931
 20
2840.127478609062
 30
0.0
 11
9877.840641334932
 21
2840.127478609062
 31
0.0
  0
LINE
  5
2AD10
330
2AA0D
100
AcDbEntity
  8
SUNPOU
100
AcDbLine
 10
7461.590641334931
 20
2840.127478609062
 30
0.0
 11
7472.84064133493
 21
2840.127478609062
 31
0.0
  0
LINE
  5
2AD11
330
2AA0D
100
AcDbEntity
  8
SUNPOU
100
AcDbLine
 10
7439.09064133493
 20
2840.127478609062
 30
0.0
 11
7427.84064133493
 21
2840.127478609062
 31
0.0
  0
LINE
  5
2AD12
330
2AA0D
100
AcDbEntity
  8
SUNPOU
100
AcDbLine
 10
5761.59064133493
 20
2840.127478609062
 30
0.0
 11
5772.84064133493
 21
2840.127478609062
 31
0.0
  0
LINE
  5
2AD13
330
2AA0D
100
AcDbEntity
  8
SUNPOU
100
AcDbLine
 10
5739.09064133493
 20
2840.127478609062
 30
0.0
 11
5727.840641334932
 21
2840.127478609062
 31
0.0
  0
LINE
  5
2AD14
330
2AA0D
100
AcDbEntity
  8
SUNPOU
100
AcDbLine
 10
3311.590641334929
 20
2840.127478609062
 30
0.0
 11
3322.840641334928
 21
2840.127478609062
 31
0.0
  0
LINE
  5
2AD15
330
2AA0D
100
AcDbEntity
  8
SUNPOU
100
AcDbLine
 10
3289.090641334929
 20
2840.127478609062
 30
0.0
 11
3277.840641334929
 21
2840.127478609062
 31
0.0
  0
LINE
  5
2AD16
330
2AA0D
100
AcDbEntity
  8
SUNPOU
100
AcDbLine
 10
2961.590641334929
 20
2840.127478609062
 30
0.0
 11
2972.840641334929
 21
2840.127478609062
 31
0.0
  0
LINE
  5
2AD17
330
2AA0D
100
AcDbEntity
  8
SUNPOU
100
AcDbLine
 10
2961.590641334929
 20
2630.127478609063
 30
0.0
 11
2972.840641334929
 21
2630.127478609063
 31
0.0
  0
ARC
  5
2AD18
330
2AA0D
100
AcDbEntity
  8
SUNPOU
100
AcDbCircle
 10
2950.340641334929
 20
2630.127478609063
 30
0.0
 40
5.625
100
AcDbArc
 50
0.0
 51
180.0
  0
ARC
  5
2AD19
330
2AA0D
100
AcDbEntity
  8
SUNPOU
100
AcDbCircle
 10
2950.340641334929
 20
2630.127478609063
 30
0.0
 40
5.625
100
AcDbArc
 50
180.0
 51
0.0
  0
ARC
  5
2AD1A
330
2AA0D
100
AcDbEntity
  8
SUNPOU
100
AcDbCircle
 10
2950.340641334929
 20
2840.127478609062
 30
0.0
 40
5.625
100
AcDbArc
 50
0.0
 51
180.0
  0
ARC
  5
2AD1B
330
2AA0D
100
AcDbEntity
  8
SUNPOU
100
AcDbCircle
 10
2950.340641334929
 20
2840.127478609062
 30
0.0
 40
5.625
100
AcDbArc
 50
180.0
 51
0.0
  0
ARC
  5
2AD1C
330
2AA0D
100
AcDbEntity
  8
SUNPOU
100
AcDbCircle
 10
3300.340641334928
 20
2840.127478609062
 30
0.0
 40
5.625
100
AcDbArc
 50
180.0
 51
0.0
  0
ARC
  5
2AD1D
330
2AA0D
100
AcDbEntity
  8
SUNPOU
100
AcDbCircle
 10
3300.340641334928
 20
2840.127478609062
 30
0.0
 40
5.625
100
AcDbArc
 50
0.0
 51
180.0
  0
ARC
  5
2AD1E
330
2AA0D
100
AcDbEntity
  8
SUNPOU
100
AcDbCircle
 10
3300.340641334928
 20
2840.127478609062
 30
0.0
 40
5.625
100
AcDbArc
 50
0.0
 51
180.0
  0
ARC
  5
2AD1F
330
2AA0D
100
AcDbEntity
  8
SUNPOU
100
AcDbCircle
 10
3300.340641334928
 20
2840.127478609062
 30
0.0
 40
5.625
100
AcDbArc
 50
180.0
 51
0.0
  0
ARC
  5
2AD20
330
2AA0D
100
AcDbEntity
  8
SUNPOU
100
AcDbCircle
 10
5750.34064133493
 20
2840.127478609062
 30
0.0
 40
5.625
100
AcDbArc
 50
180.0
 51
0.0
  0
ARC
  5
2AD21
330
2AA0D
100
AcDbEntity
  8
SUNPOU
100
AcDbCircle
 10
5750.34064133493
 20
2840.127478609062
 30
0.0
 40
5.625
100
AcDbArc
 50
0.0
 51
180.0
  0
ARC
  5
2AD22
330
2AA0D
100
AcDbEntity
  8
SUNPOU
100
AcDbCircle
 10
5750.34064133493
 20
2840.127478609062
 30
0.0
 40
5.625
100
AcDbArc
 50
0.0
 51
180.0
  0
ARC
  5
2AD23
330
2AA0D
100
AcDbEntity
  8
SUNPOU
100
AcDbCircle
 10
5750.34064133493
 20
2840.127478609062
 30
0.0
 40
5.625
100
AcDbArc
 50
180.0
 51
0.0
  0
ARC
  5
2AD24
330
2AA0D
100
AcDbEntity
  8
SUNPOU
100
AcDbCircle
 10
7450.340641334931
 20
2840.127478609062
 30
0.0
 40
5.625
100
AcDbArc
 50
180.0
 51
0.0
  0
ARC
  5
2AD25
330
2AA0D
100
AcDbEntity
  8
SUNPOU
100
AcDbCircle
 10
7450.340641334931
 20
2840.127478609062
 30
0.0
 40
5.625
100
AcDbArc
 50
0.0
 51
180.0
  0
ARC
  5
2AD26
330
2AA0D
100
AcDbEntity
  8
SUNPOU
100
AcDbCircle
 10
7450.340641334931
 20
2840.127478609062
 30
0.0
 40
5.625
100
AcDbArc
 50
0.0
 51
180.0
  0
ARC
  5
2AD27
330
2AA0D
100
AcDbEntity
  8
SUNPOU
100
AcDbCircle
 10
7450.340641334931
 20
2840.127478609062
 30
0.0
 40
5.625
100
AcDbArc
 50
180.0
 51
0.0
  0
ARC
  5
2AD28
330
2AA0D
100
AcDbEntity
  8
SUNPOU
100
AcDbCircle
 10
9900.340641334931
 20
2840.127478609062
 30
0.0
 40
5.625
100
AcDbArc
 50
180.0
 51
0.0
  0
ARC
  5
2AD29
330
2AA0D
100
AcDbEntity
  8
SUNPOU
100
AcDbCircle
 10
9900.340641334931
 20
2840.127478609062
 30
0.0
 40
5.625
100
AcDbArc
 50
0.0
 51
180.0
  0
ARC
  5
2AD2A
330
2AA0D
100
AcDbEntity
  8
SUNPOU
100
AcDbCircle
 10
9900.340641334931
 20
2840.127478609062
 30
0.0
 40
5.625
100
AcDbArc
 50
0.0
 51
180.0
  0
ARC
  5
2AD2B
330
2AA0D
100
AcDbEntity
  8
SUNPOU
100
AcDbCircle
 10
9900.340641334931
 20
2840.127478609062
 30
0.0
 40
5.625
100
AcDbArc
 50
180.0
 51
0.0
  0
ARC
  5
2AD2C
330
2AA0D
100
AcDbEntity
  8
SUNPOU
100
AcDbCircle
 10
10250.34064133492
 20
2630.127478609063
 30
0.0
 40
5.625
100
AcDbArc
 50
180.0
 51
0.0
  0
ARC
  5
2AD2D
330
2AA0D
100
AcDbEntity
  8
SUNPOU
100
AcDbCircle
 10
10250.34064133492
 20
2630.127478609063
 30
0.0
 40
5.625
100
AcDbArc
 50
0.0
 51
180.0
  0
ARC
  5
2AD2E
330
2AA0D
100
AcDbEntity
  8
SUNPOU
100
AcDbCircle
 10
10250.34064133492
 20
2840.127478609062
 30
0.0
 40
5.625
100
AcDbArc
 50
180.0
 51
0.0
  0
ARC
  5
2AD2F
330
2AA0D
100
AcDbEntity
  8
SUNPOU
100
AcDbCircle
 10
10250.34064133492
 20
2840.127478609062
 30
0.0
 40
5.625
100
AcDbArc
 50
0.0
 51
180.0
  0
ARC
  5
2AD30
330
2AA0D
100
AcDbEntity
  8
SUNPOU
100
AcDbCircle
 10
9932.840641334935
 20
4426.184634723411
 30
0.0
 40
5.625
100
AcDbArc
 50
180.0
 51
0.0
  0
ARC
  5
2AD31
330
2AA0D
100
AcDbEntity
  8
SUNPOU
100
AcDbCircle
 10
9932.840641334935
 20
4426.184634723411
 30
0.0
 40
5.625
100
AcDbArc
 50
0.0
 51
180.0
  0
ARC
  5
2AD32
330
2AA0D
100
AcDbEntity
  8
SUNPOU
100
AcDbCircle
 10
9550.340641334935
 20
4065.127478609062
 30
0.0
 40
5.625
100
AcDbArc
 50
0.0
 51
180.0
  0
ARC
  5
2AD33
330
2AA0D
100
AcDbEntity
  8
SUNPOU
100
AcDbCircle
 10
9550.340641334935
 20
4065.127478609062
 30
0.0
 40
5.625
100
AcDbArc
 50
180.0
 51
0.0
  0
ARC
  5
2AD34
330
2AA0D
100
AcDbEntity
  8
SUNPOU
100
AcDbCircle
 10
9867.840641334936
 20
4426.184634723411
 30
0.0
 40
5.625
100
AcDbArc
 50
180.0
 51
0.0
  0
ARC
  5
2AD35
330
2AA0D
100
AcDbEntity
  8
SUNPOU
100
AcDbCircle
 10
9867.840641334936
 20
4426.184634723411
 30
0.0
 40
5.625
100
AcDbArc
 50
0.0
 51
180.0
  0
ARC
  5
2AD36
330
2AA0D
100
AcDbEntity
  8
SUNPOU
100
AcDbCircle
 10
10250.34064133492
 20
4065.127478609062
 30
0.0
 40
5.625
100
AcDbArc
 50
180.0
 51
0.0
  0
ARC
  5
2AD37
330
2AA0D
100
AcDbEntity
  8
SUNPOU
100
AcDbCircle
 10
10250.34064133492
 20
4065.127478609062
 30
0.0
 40
5.625
100
AcDbArc
 50
0.0
 51
180.0
  0
ARC
  5
2AD38
330
2AA0D
100
AcDbEntity
  8
SUNPOU
100
AcDbCircle
 10
10970.34064133492
 20
3240.127478609063
 30
0.0
 40
5.625
100
AcDbArc
 50
90.0
 51
270.0
  0
ARC
  5
2AD39
330
2AA0D
100
AcDbEntity
  8
SUNPOU
100
AcDbCircle
 10
10970.34064133492
 20
3240.127478609063
 30
0.0
 40
5.625
100
AcDbArc
 50
270.0
 51
90.0
  0
ARC
  5
2AD3A
330
2AA0D
100
AcDbEntity
  8
SUNPOU
100
AcDbCircle
 10
10760.34064133492
 20
3240.127478609063
 30
0.0
 40
5.625
100
AcDbArc
 50
90.0
 51
270.0
  0
ARC
  5
2AD3B
330
2AA0D
100
AcDbEntity
  8
SUNPOU
100
AcDbCircle
 10
10760.34064133492
 20
3240.127478609063
 30
0.0
 40
5.625
100
AcDbArc
 50
270.0
 51
90.0
  0
ARC
  5
2AD3C
330
2AA0D
100
AcDbEntity
  8
SUNPOU
100
AcDbCircle
 10
10550.34064133492
 20
4290.127478609064
 30
0.0
 40
5.625
100
AcDbArc
 50
90.0
 51
270.0
  0
ARC
  5
2AD3D
330
2AA0D
100
AcDbEntity
  8
SUNPOU
100
AcDbCircle
 10
10550.34064133492
 20
4290.127478609064
 30
0.0
 40
5.625
100
AcDbArc
 50
270.0
 51
90.0
  0
ARC
  5
2AD3E
330
2AA0D
100
AcDbEntity
  8
SUNPOU
100
AcDbCircle
 10
10111.04665690041
 20
4602.627478609064
 30
0.0
 40
5.625
100
AcDbArc
 50
90.0
 51
270.0
  0
ARC
  5
2AD3F
330
2AA0D
100
AcDbEntity
  8
SUNPOU
100
AcDbCircle
 10
10111.04665690041
 20
4602.627478609064
 30
0.0
 40
5.625
100
AcDbArc
 50
270.0
 51
90.0
  0
ARC
  5
2AD40
330
2AA0D
100
AcDbEntity
  8
SUNPOU
100
AcDbCircle
 10
10111.04665690041
 20
4677.627478609063
 30
0.0
 40
5.625
100
AcDbArc
 50
90.0
 51
270.0
  0
ARC
  5
2AD41
330
2AA0D
100
AcDbEntity
  8
SUNPOU
100
AcDbCircle
 10
10111.04665690041
 20
4677.627478609063
 30
0.0
 40
5.625
100
AcDbArc
 50
270.0
 51
90.0
  0
ARC
  5
2AD42
330
2AA0D
100
AcDbEntity
  8
SUNPOU
100
AcDbCircle
 10
10760.34064133492
 20
4640.127478609064
 30
0.0
 40
5.625
100
AcDbArc
 50
270.0
 51
90.0
  0
ARC
  5
2AD43
330
2AA0D
100
AcDbEntity
  8
SUNPOU
100
AcDbCircle
 10
10760.34064133492
 20
4640.127478609064
 30
0.0
 40
5.625
100
AcDbArc
 50
90.0
 51
270.0
  0
ARC
  5
2AD44
330
2AA0D
100
AcDbEntity
  8
SUNPOU
100
AcDbCircle
 10
10760.34064133492
 20
4640.127478609064
 30
0.0
 40
5.625
100
AcDbArc
 50
90.0
 51
270.0
  0
ARC
  5
2AD45
330
2AA0D
100
AcDbEntity
  8
SUNPOU
100
AcDbCircle
 10
10760.34064133492
 20
4640.127478609064
 30
0.0
 40
5.625
100
AcDbArc
 50
270.0
 51
90.0
  0
ARC
  5
2AD46
330
2AA0D
100
AcDbEntity
  8
SUNPOU
100
AcDbCircle
 10
10760.34064133492
 20
4640.127478609064
 30
0.0
 40
5.625
100
AcDbArc
 50
90.0
 51
270.0
  0
ARC
  5
2AD47
330
2AA0D
100
AcDbEntity
  8
SUNPOU
100
AcDbCircle
 10
10760.34064133492
 20
4640.127478609064
 30
0.0
 40
5.625
100
AcDbArc
 50
270.0
 51
90.0
  0
ARC
  5
2AD48
330
2AA0D
100
AcDbEntity
  8
SUNPOU
100
AcDbCircle
 10
10550.34064133492
 20
4990.127478609064
 30
0.0
 40
5.625
100
AcDbArc
 50
270.0
 51
90.0
  0
ARC
  5
2AD49
330
2AA0D
100
AcDbEntity
  8
SUNPOU
100
AcDbCircle
 10
10550.34064133492
 20
4990.127478609064
 30
0.0
 40
5.625
100
AcDbArc
 50
90.0
 51
270.0
  0
ARC
  5
2AD4A
330
2AA0D
100
AcDbEntity
  8
SUNPOU
100
AcDbCircle
 10
9932.840641334935
 20
6486.184634723412
 30
0.0
 40
5.625
100
AcDbArc
 50
180.0
 51
0.0
  0
ARC
  5
2AD4B
330
2AA0D
100
AcDbEntity
  8
SUNPOU
100
AcDbCircle
 10
9932.840641334935
 20
6486.184634723412
 30
0.0
 40
5.625
100
AcDbArc
 50
0.0
 51
180.0
  0
ARC
  5
2AD4C
330
2AA0D
100
AcDbEntity
  8
SUNPOU
100
AcDbCircle
 10
9550.340641334935
 20
6050.127478609063
 30
0.0
 40
5.625
100
AcDbArc
 50
0.0
 51
180.0
  0
ARC
  5
2AD4D
330
2AA0D
100
AcDbEntity
  8
SUNPOU
100
AcDbCircle
 10
9550.340641334935
 20
6050.127478609063
 30
0.0
 40
5.625
100
AcDbArc
 50
180.0
 51
0.0
  0
ARC
  5
2AD4E
330
2AA0D
100
AcDbEntity
  8
SUNPOU
100
AcDbCircle
 10
9867.840641334936
 20
6486.184634723412
 30
0.0
 40
5.625
100
AcDbArc
 50
180.0
 51
0.0
  0
ARC
  5
2AD4F
330
2AA0D
100
AcDbEntity
  8
SUNPOU
100
AcDbCircle
 10
9867.840641334936
 20
6486.184634723412
 30
0.0
 40
5.625
100
AcDbArc
 50
0.0
 51
180.0
  0
ARC
  5
2AD50
330
2AA0D
100
AcDbEntity
  8
SUNPOU
100
AcDbCircle
 10
10250.34064133492
 20
6050.127478609063
 30
0.0
 40
5.625
100
AcDbArc
 50
180.0
 51
0.0
  0
ARC
  5
2AD51
330
2AA0D
100
AcDbEntity
  8
SUNPOU
100
AcDbCircle
 10
10250.34064133492
 20
6050.127478609063
 30
0.0
 40
5.625
100
AcDbArc
 50
0.0
 51
180.0
  0
ARC
  5
2AD52
330
2AA0D
100
AcDbEntity
  8
SUNPOU
100
AcDbCircle
 10
10111.04665690041
 20
6662.627478609064
 30
0.0
 40
5.625
100
AcDbArc
 50
90.0
 51
270.0
  0
ARC
  5
2AD53
330
2AA0D
100
AcDbEntity
  8
SUNPOU
100
AcDbCircle
 10
10111.04665690041
 20
6662.627478609064
 30
0.0
 40
5.625
100
AcDbArc
 50
270.0
 51
90.0
  0
ARC
  5
2AD54
330
2AA0D
100
AcDbEntity
  8
SUNPOU
100
AcDbCircle
 10
10111.04665690041
 20
6737.627478609063
 30
0.0
 40
5.625
100
AcDbArc
 50
90.0
 51
270.0
  0
ARC
  5
2AD55
330
2AA0D
100
AcDbEntity
  8
SUNPOU
100
AcDbCircle
 10
10111.04665690041
 20
6737.627478609063
 30
0.0
 40
5.625
100
AcDbArc
 50
270.0
 51
90.0
  0
ARC
  5
2AD56
330
2AA0D
100
AcDbEntity
  8
SUNPOU
100
AcDbCircle
 10
10550.34064133492
 20
6350.127478609064
 30
0.0
 40
5.625
100
AcDbArc
 50
90.0
 51
270.0
  0
ARC
  5
2AD57
330
2AA0D
100
AcDbEntity
  8
SUNPOU
100
AcDbCircle
 10
10550.34064133492
 20
6350.127478609064
 30
0.0
 40
5.625
100
AcDbArc
 50
270.0
 51
90.0
  0
ARC
  5
2AD58
330
2AA0D
100
AcDbEntity
  8
SUNPOU
100
AcDbCircle
 10
10760.34064133492
 20
6700.127478609063
 30
0.0
 40
5.625
100
AcDbArc
 50
90.0
 51
270.0
  0
ARC
  5
2AD59
330
2AA0D
100
AcDbEntity
  8
SUNPOU
100
AcDbCircle
 10
10760.34064133492
 20
6700.127478609063
 30
0.0
 40
5.625
100
AcDbArc
 50
270.0
 51
90.0
  0
ARC
  5
2AD5A
330
2AA0D
100
AcDbEntity
  8
SUNPOU
100
AcDbCircle
 10
10760.34064133492
 20
6700.127478609063
 30
0.0
 40
5.625
100
AcDbArc
 50
270.0
 51
90.0
  0
ARC
  5
2AD5B
330
2AA0D
100
AcDbEntity
  8
SUNPOU
100
AcDbCircle
 10
10760.34064133492
 20
6700.127478609063
 30
0.0
 40
5.625
100
AcDbArc
 50
90.0
 51
270.0
  0
ARC
  5
2AD5C
330
2AA0D
100
AcDbEntity
  8
SUNPOU
100
AcDbCircle
 10
10760.34064133492
 20
6700.127478609063
 30
0.0
 40
5.625
100
AcDbArc
 50
270.0
 51
90.0
  0
ARC
  5
2AD5D
330
2AA0D
100
AcDbEntity
  8
SUNPOU
100
AcDbCircle
 10
10760.34064133492
 20
6700.127478609063
 30
0.0
 40
5.625
100
AcDbArc
 50
90.0
 51
270.0
  0
ARC
  5
2AD5E
330
2AA0D
100
AcDbEntity
  8
SUNPOU
100
AcDbCircle
 10
10550.34064133492
 20
7050.127478609063
 30
0.0
 40
5.625
100
AcDbArc
 50
270.0
 51
90.0
  0
ARC
  5
2AD5F
330
2AA0D
100
AcDbEntity
  8
SUNPOU
100
AcDbCircle
 10
10550.34064133492
 20
7050.127478609063
 30
0.0
 40
5.625
100
AcDbArc
 50
90.0
 51
270.0
  0
ARC
  5
2AD60
330
2AA0D
100
AcDbEntity
  8
SUNPOU
100
AcDbCircle
 10
10760.34064133492
 20
8100.127478609062
 30
0.0
 40
5.625
100
AcDbArc
 50
270.0
 51
90.0
  0
ARC
  5
2AD61
330
2AA0D
100
AcDbEntity
  8
SUNPOU
100
AcDbCircle
 10
10760.34064133492
 20
8100.127478609062
 30
0.0
 40
5.625
100
AcDbArc
 50
90.0
 51
270.0
  0
ARC
  5
2AD62
330
2AA0D
100
AcDbEntity
  8
SUNPOU
100
AcDbCircle
 10
10970.34064133492
 20
8100.127478609062
 30
0.0
 40
5.625
100
AcDbArc
 50
270.0
 51
90.0
  0
ARC
  5
2AD63
330
2AA0D
100
AcDbEntity
  8
SUNPOU
100
AcDbCircle
 10
10970.34064133492
 20
8100.127478609062
 30
0.0
 40
5.625
100
AcDbArc
 50
90.0
 51
270.0
  0
TEXT
  5
2AD64
330
2AA0D
100
AcDbEntity
  8
SUNPOU
100
AcDbText
 10
1405.036707340869
 20
941.7125251995903
 30
0.0
 40
90.0
  1
900 □
 41
0.6666666666666666
  7
00
100
AcDbText
  0
LINE
  5
2AD65
330
2AA0D
100
AcDbEntity
  8
SUNPOU
100
AcDbLine
 10
2212.786707340868
 20
896.7125251995904
 30
0.0
 11
2201.536707340868
 21
896.7125251995904
 31
0.0
  0
LINE
  5
2AD66
330
2AA0D
100
AcDbEntity
  8
SUNPOU
100
AcDbLine
 10
885.2867073408686
 20
896.7125251995904
 30
0.0
 11
896.5367073408687
 21
896.7125251995904
 31
0.0
  0
TEXT
  5
2AD67
330
2AA0D
100
AcDbEntity
  8
SUNPOU
100
AcDbText
 10
1405.036707340869
 20
1151.712525199589
 30
0.0
 40
90.0
  1
700 □
 41
0.6666666666666666
  7
00
100
AcDbText
  0
LINE
  5
2AD68
330
2AA0D
100
AcDbEntity
  8
SUNPOU
100
AcDbLine
 10
2062.786707340868
 20
1106.712525199589
 30
0.0
 11
2051.536707340869
 21
1106.712525199589
 31
0.0
  0
LINE
  5
2AD69
330
2AA0D
100
AcDbEntity
  8
SUNPOU
100
AcDbLine
 10
1035.286707340869
 20
1106.712525199589
 30
0.0
 11
1046.536707340869
 21
1106.712525199589
 31
0.0
  0
TEXT
  5
2AD6A
330
2AA0D
100
AcDbEntity
  8
SUNPOU
100
AcDbText
 10
3616.53670734087
 20
1875.998239485305
 30
0.0
 40
90.0
  1
500
 50
90.0
 41
0.6666666666666666
  7
00
100
AcDbText
  0
LINE
  5
2AD6B
330
2AA0D
100
AcDbEntity
  8
SUNPOU
100
AcDbLine
 10
3661.536707340871
 20
1597.962525199592
 30
0.0
 11
3661.536707340871
 21
1609.21252519959
 31
0.0
  0
LINE
  5
2AD6C
330
2AA0D
100
AcDbEntity
  8
SUNPOU
100
AcDbLine
 10
3661.536707340871
 20
2325.462525199592
 30
0.0
 11
3661.536707340871
 21
2314.212525199591
 31
0.0
  0
TEXT
  5
2AD6D
330
2AA0D
100
AcDbEntity
  8
SUNPOU
100
AcDbText
 10
3616.53670734087
 20
1213.855382342448
 30
0.0
 40
90.0
  1
100
 50
90.0
 41
0.6666666666666666
  7
00
100
AcDbText
  0
LINE
  5
2AD6E
330
2AA0D
100
AcDbEntity
  8
SUNPOU
100
AcDbLine
 10
3661.536707340871
 20
1447.962525199591
 30
0.0
 11
3661.536707340871
 21
1459.212525199591
 31
0.0
  0
LINE
  5
2AD6F
330
2AA0D
100
AcDbEntity
  8
SUNPOU
100
AcDbLine
 10
3661.536707340871
 20
1575.462525199589
 30
0.0
 11
3661.536707340871
 21
1564.212525199589
 31
0.0
  0
ARC
  5
2AD70
330
2AA0D
100
AcDbEntity
  8
SUNPOU
100
AcDbCircle
 10
3661.536707340871
 20
1586.712525199589
 30
0.0
 40
5.625
100
AcDbArc
 50
270.0
 51
90.0
  0
ARC
  5
2AD71
330
2AA0D
100
AcDbEntity
  8
SUNPOU
100
AcDbCircle
 10
3661.536707340871
 20
1586.712525199589
 30
0.0
 40
5.625
100
AcDbArc
 50
90.0
 51
270.0
  0
ARC
  5
2AD72
330
2AA0D
100
AcDbEntity
  8
SUNPOU
100
AcDbCircle
 10
3661.536707340871
 20
1436.712525199591
 30
0.0
 40
5.625
100
AcDbArc
 50
90.0
 51
270.0
  0
ARC
  5
2AD73
330
2AA0D
100
AcDbEntity
  8
SUNPOU
100
AcDbCircle
 10
3661.536707340871
 20
1436.712525199591
 30
0.0
 40
5.625
100
AcDbArc
 50
270.0
 51
90.0
  0
ARC
  5
2AD74
330
2AA0D
100
AcDbEntity
  8
SUNPOU
100
AcDbCircle
 10
3661.536707340871
 20
2336.712525199591
 30
0.0
 40
5.625
100
AcDbArc
 50
270.0
 51
90.0
  0
ARC
  5
2AD75
330
2AA0D
100
AcDbEntity
  8
SUNPOU
100
AcDbCircle
 10
3661.536707340871
 20
2336.712525199591
 30
0.0
 40
5.625
100
AcDbArc
 50
90.0
 51
270.0
  0
ARC
  5
2AD76
330
2AA0D
100
AcDbEntity
  8
SUNPOU
100
AcDbCircle
 10
3661.536707340871
 20
1586.712525199591
 30
0.0
 40
5.625
100
AcDbArc
 50
90.0
 51
270.0
  0
ARC
  5
2AD77
330
2AA0D
100
AcDbEntity
  8
SUNPOU
100
AcDbCircle
 10
3661.536707340871
 20
1586.712525199591
 30
0.0
 40
5.625
100
AcDbArc
 50
270.0
 51
90.0
  0
ARC
  5
2AD78
330
2AA0D
100
AcDbEntity
  8
SUNPOU
100
AcDbCircle
 10
1024.036707340868
 20
1106.712525199589
 30
0.0
 40
5.625
100
AcDbArc
 50
0.0
 51
180.0
  0
ARC
  5
2AD79
330
2AA0D
100
AcDbEntity
  8
SUNPOU
100
AcDbCircle
 10
1024.036707340868
 20
1106.712525199589
 30
0.0
 40
5.625
100
AcDbArc
 50
180.0
 51
0.0
  0
ARC
  5
2AD7A
330
2AA0D
100
AcDbEntity
  8
SUNPOU
100
AcDbCircle
 10
2074.036707340868
 20
1106.712525199589
 30
0.0
 40
5.625
100
AcDbArc
 50
180.0
 51
0.0
  0
ARC
  5
2AD7B
330
2AA0D
100
AcDbEntity
  8
SUNPOU
100
AcDbCircle
 10
2074.036707340868
 20
1106.712525199589
 30
0.0
 40
5.625
100
AcDbArc
 50
0.0
 51
180.0
  0
ARC
  5
2AD7C
330
2AA0D
100
AcDbEntity
  8
SUNPOU
100
AcDbCircle
 10
874.0367073408688
 20
896.7125251995904
 30
0.0
 40
5.625
100
AcDbArc
 50
0.0
 51
180.0
  0
ARC
  5
2AD7D
330
2AA0D
100
AcDbEntity
  8
SUNPOU
100
AcDbCircle
 10
874.0367073408688
 20
896.7125251995904
 30
0.0
 40
5.625
100
AcDbArc
 50
180.0
 51
0.0
  0
ARC
  5
2AD7E
330
2AA0D
100
AcDbEntity
  8
SUNPOU
100
AcDbCircle
 10
2224.036707340868
 20
896.7125251995904
 30
0.0
 40
5.625
100
AcDbArc
 50
180.0
 51
0.0
  0
ARC
  5
2AD7F
330
2AA0D
100
AcDbEntity
  8
SUNPOU
100
AcDbCircle
 10
2224.036707340868
 20
896.7125251995904
 30
0.0
 40
5.625
100
AcDbArc
 50
0.0
 51
180.0
  0
TEXT
  5
2AD80
330
2AA0D
100
AcDbEntity
  8
FILENAME
100
AcDbText
 10
10351.07640897905
 20
138.6759228748233
 30
0.0
 40
75.0
  1
＜YOTC-245-SA_3_JIS_GL.DXF ＞
  7
FILENAME
 72
     2
 11
12214.64783755048
 21
138.6759228748233
 31
0.0
100
AcDbText
  0
LINE
  5
2AD81
330
2AA0D
100
AcDbEntity
  8
WAKUSEN-01
100
AcDbLine
 10
325.5000000000006
 20
310.4999999999997
 30
0.0
 11
12286.5
 21
310.4999999999997
 31
0.0
  0
LINE
  5
2AD82
330
2AA0D
100
AcDbEntity
  8
WAKUSEN-01
100
AcDbLine
 10
325.5000000000006
 20
8431.500000000003
 30
0.0
 11
12286.5
 21
8431.500000000003
 31
0.0
  0
LINE
  5
2AD83
330
2AA0D
100
AcDbEntity
  8
WAKUSEN-01
100
AcDbLine
 10
325.5000000000006
 20
310.4999999999997
 30
0.0
 11
325.5000000000006
 21
8431.500000000003
 31
0.0
  0
LINE
  5
2AD84
330
2AA0D
100
AcDbEntity
  8
WAKUSEN-01
100
AcDbLine
 10
12286.5
 20
310.4999999999997
 30
0.0
 11
12286.5
 21
8431.500000000003
 31
0.0
  0
LINE
  5
2AD85
330
2AA0D
100
AcDbEntity
  8
WAKUSEN-01
100
AcDbLine
 10
7710.0
 20
931.4999999999999
 30
0.0
 11
12286.5
 21
931.4999999999995
 31
0.0
  0
LINE
  5
2AD86
330
2AA0D
100
AcDbEntity
  8
WAKUSEN-02
100
AcDbLine
 10
7710.0
 20
620.9999999999999
 30
0.0
 11
10075.49999999999
 21
620.9999999999999
 31
0.0
  0
TEXT
  5
2AD87
330
2AA0D
100
AcDbEntity
  8
WAKUMOJI-01
100
AcDbText
 10
7751.347597486038
 20
797.2136285022457
 30
0.0
 40
90.0
  1
名　称
  7
WAKUMOJI
100
AcDbText
  0
TEXT
  5
2AD88
330
2AA0D
100
AcDbEntity
  8
WAKUMOJI-01
100
AcDbText
 10
7746.18955690947
 20
494.6733656174329
 30
0.0
 40
90.0
  1
機種名
  7
WAKUMOJI
100
AcDbText
  0
LINE
  5
2AD89
330
2AA0D
100
AcDbEntity
  8
WAKUSEN-01
100
AcDbLine
 10
7710.0
 20
310.4999999999989
 30
0.0
 11
7710.0
 21
931.4999999999999
 31
0.0
  0
LINE
  5
2AD8A
330
2AA0D
100
AcDbEntity
  8
WAKUSEN-02
100
AcDbLine
 10
10075.49999999999
 20
310.4999999999973
 30
0.0
 11
10075.49999999999
 21
931.4999999999999
 31
0.0
  0
LINE
  5
2AD8B
330
2AA0D
100
AcDbEntity
  8
YODOROGO
100
AcDbLine
 10
11241.60162798446
 20
748.4060611609828
 30
0.0
 11
11186.10162798447
 21
748.4060611609828
 31
0.0
1001
AUTOCAD_POSTSCRIPT_FIGURE
1002
{
1000
PSFILL
1000
Grayscale
1000
Grayscale
1070
    25
1002
}
  0
LINE
  5
2AD8C
330
2AA0D
100
AcDbEntity
  8
YODOROGO
100
AcDbLine
 10
11186.10162798447
 20
730.4060611609828
 30
0.0
 11
11241.60162798446
 21
730.4060611609828
 31
0.0
1001
AUTOCAD_POSTSCRIPT_FIGURE
1002
{
1000
PSFILL
1000
Grayscale
1000
Grayscale
1070
    25
1002
}
  0
LINE
  5
2AD8D
330
2AA0D
100
AcDbEntity
  8
YODOROGO
100
AcDbLine
 10
11241.60162798446
 20
715.4060611609828
 30
0.0
 11
11186.10162798447
 21
715.4060611609828
 31
0.0
1001
AUTOCAD_POSTSCRIPT_FIGURE
1002
{
1000
PSFILL
1000
Grayscale
1000
Grayscale
1070
    25
1002
}
  0
LINE
  5
2AD8E
330
2AA0D
100
AcDbEntity
  8
YODOROGO
100
AcDbLine
 10
11186.10162798447
 20
697.406061160983
 30
0.0
 11
11241.60162798446
 21
697.406061160983
 31
0.0
1001
AUTOCAD_POSTSCRIPT_FIGURE
1002
{
1000
PSFILL
1000
Grayscale
1000
Grayscale
1070
    25
1002
}
  0
LINE
  5
2AD8F
330
2AA0D
100
AcDbEntity
  8
YODOROGO
100
AcDbLine
 10
11241.60162798446
 20
682.4060611609829
 30
0.0
 11
11186.10162798447
 21
682.4060611609829
 31
0.0
1001
AUTOCAD_POSTSCRIPT_FIGURE
1002
{
1000
PSFILL
1000
Grayscale
1000
Grayscale
1070
    25
1002
}
  0
LINE
  5
2AD90
330
2AA0D
100
AcDbEntity
  8
YODOROGO
100
AcDbLine
 10
11220.60162798447
 20
640.4060611609828
 30
0.0
 11
11241.60162798446
 21
640.4060611609828
 31
0.0
1001
AUTOCAD_POSTSCRIPT_FIGURE
1002
{
1000
PSFILL
1000
Grayscale
1000
Grayscale
1070
    25
1002
}
  0
LINE
  5
2AD91
330
2AA0D
100
AcDbEntity
  8
YODOROGO
100
AcDbLine
 10
11151.60162798447
 20
535.4060611609829
 30
0.0
 11
11226.60162798446
 21
555.5022505933164
 31
0.0
  0
LINE
  5
2AD92
330
2AA0D
100
AcDbEntity
  8
YODOROGO
100
AcDbLine
 10
11231.10162798446
 20
640.4060611609828
 30
0.0
 11
11207.10162798447
 21
640.4060611609828
 31
0.0
  0
ARC
  5
2AD93
330
2AA0D
100
AcDbEntity
  8
YODOROGO
100
AcDbCircle
 10
11345.38040618545
 20
677.9492284624735
 30
0.0
 40
143.2075740771177
100
AcDbArc
 50
213.9611167766784
 51
264.4787207431779
  0
ARC
  5
2AD94
330
2AA0D
100
AcDbEntity
  8
YODOROGO
100
AcDbCircle
 10
11345.38040618547
 20
677.9492284624883
 30
0.0
 40
143.2075740771305
100
AcDbArc
 50
208.141144204866
 51
212.9210361185994
  0
LINE
  5
2AD95
330
2AA0D
100
AcDbEntity
  8
YODOROGO
100
AcDbLine
 10
11164.27870236948
 20
583.8028730048376
 30
0.0
 11
11225.1690496907
 21
600.1183923964076
 31
0.0
  0
LINE
  5
2AD96
330
2AA0D
100
AcDbEntity
  8
YODOROGO
100
AcDbLine
 10
11151.60162798447
 20
535.4060611609829
 30
0.0
 11
11226.60162798446
 21
555.5022505933164
 31
0.0
  0
LINE
  5
2AD97
330
2AA0D
100
AcDbEntity
  8
YODOROGO
100
AcDbLine
 10
11231.10162798446
 20
640.4060611609828
 30
0.0
 11
11207.10162798447
 21
640.4060611609828
 31
0.0
  0
ARC
  5
2AD98
330
2AA0D
100
AcDbEntity
  8
YODOROGO
100
AcDbCircle
 10
11345.38040618545
 20
677.9492284624735
 30
0.0
 40
143.2075740771177
100
AcDbArc
 50
213.9611167766784
 51
264.4787207431779
  0
LINE
  5
2AD99
330
2AA0D
100
AcDbEntity
  8
YODOROGO
100
AcDbLine
 10
10797.60162798446
 20
682.4060611609829
 30
0.0
 11
10662.60162798446
 21
682.4060611609829
 31
0.0
  0
LINE
  5
2AD9A
330
2AA0D
100
AcDbEntity
  8
YODOROGO
100
AcDbLine
 10
10692.60162798446
 20
535.4060611609829
 30
0.0
 11
10797.60162798446
 21
535.4060611609829
 31
0.0
  0
LINE
  5
2AD9B
330
2AA0D
100
AcDbEntity
  8
YODOROGO
100
AcDbLine
 10
10773.60162798447
 20
721.4060611609824
 30
0.0
 11
10686.60162798446
 21
721.4060611609824
 31
0.0
  0
LINE
  5
2AD9C
330
2AA0D
100
AcDbEntity
  8
YODOROGO
100
AcDbLine
 10
10719.60162798446
 20
760.4060611609829
 30
0.0
 11
10746.60162798447
 21
760.4060611609829
 31
0.0
  0
LINE
  5
2AD9D
330
2AA0D
100
AcDbEntity
  8
YODOROGO
100
AcDbLine
 10
10662.60162798446
 20
640.4060611609828
 30
0.0
 11
10662.60162798446
 21
565.4060611609828
 31
0.0
  0
LINE
  5
2AD9E
330
2AA0D
100
AcDbEntity
  8
YODOROGO
100
AcDbLine
 10
10686.60162798446
 20
586.4060611609825
 30
0.0
 11
10686.60162798446
 21
640.4060611609828
 31
0.0
  0
LINE
  5
2AD9F
330
2AA0D
100
AcDbEntity
  8
YODOROGO
100
AcDbLine
 10
10719.60162798446
 20
655.4060611609838
 30
0.0
 11
10719.60162798446
 21
580.406061160983
 31
0.0
  0
LINE
  5
2ADA0
330
2AA0D
100
AcDbEntity
  8
YODOROGO
100
AcDbLine
 10
10446.60162798447
 20
631.4060611609833
 30
0.0
 11
10416.60162798446
 21
607.4896552667143
 31
0.0
  0
LINE
  5
2ADA1
330
2AA0D
100
AcDbEntity
  8
YODOROGO
100
AcDbLine
 10
10476.60162798446
 20
607.4896552667143
 30
0.0
 11
10446.60162798447
 21
631.4060611609833
 31
0.0
  0
LINE
  5
2ADA2
330
2AA0D
100
AcDbEntity
  8
YODOROGO
100
AcDbLine
 10
10446.60162798447
 20
640.4060611609828
 30
0.0
 11
10476.60162798446
 21
616.4896552667137
 31
0.0
  0
LINE
  5
2ADA3
330
2AA0D
100
AcDbEntity
  8
YODOROGO
100
AcDbLine
 10
10416.60162798446
 20
616.4896552667137
 30
0.0
 11
10446.60162798447
 21
640.4060611609828
 31
0.0
  0
LINE
  5
2ADA4
330
2AA0D
100
AcDbEntity
  8
YODOROGO
100
AcDbLine
 10
10515.34245150633
 20
622.406061160983
 30
0.0
 11
10515.34245150633
 21
631.4060611609825
 31
0.0
  0
LINE
  5
2ADA5
330
2AA0D
100
AcDbEntity
  8
YODOROGO
100
AcDbLine
 10
10491.60162798447
 20
631.4060611609825
 30
0.0
 11
10491.60162798447
 21
625.4060611609819
 31
0.0
  0
LINE
  5
2ADA6
330
2AA0D
100
AcDbEntity
  8
YODOROGO
100
AcDbLine
 10
10536.8008200866
 20
640.4060611609828
 30
0.0
 11
10536.8008200866
 21
620.813863977996
 31
0.0
1001
AUTOCAD_POSTSCRIPT_FIGURE
1002
{
1000
PSFILL
1000
Grayscale
1000
Grayscale
1070
   100
1002
}
  0
LINE
  5
2ADA7
330
2AA0D
100
AcDbEntity
  8
YODOROGO
100
AcDbLine
 10
10530.80082008658
 20
620.813863977996
 30
0.0
 11
10530.80082008658
 21
640.4060611609828
 31
0.0
1001
AUTOCAD_POSTSCRIPT_FIGURE
1002
{
1000
PSFILL
1000
Grayscale
1000
Grayscale
1070
   100
1002
}
  0
LINE
  5
2ADA8
330
2AA0D
100
AcDbEntity
  8
YODOROGO
100
AcDbLine
 10
10428.60162798447
 20
603.2894640162218
 30
0.0
 11
10428.60162798447
 21
612.2894640162221
 31
0.0
  0
LINE
  5
2ADA9
330
2AA0D
100
AcDbEntity
  8
YODOROGO
100
AcDbLine
 10
10464.60162798447
 20
603.2894640162218
 30
0.0
 11
10428.60162798447
 21
603.2894640162218
 31
0.0
  0
LINE
  5
2ADAA
330
2AA0D
100
AcDbEntity
  8
YODOROGO
100
AcDbLine
 10
10464.60162798447
 20
612.2894640162221
 30
0.0
 11
10464.60162798447
 21
603.2894640162218
 31
0.0
  0
LINE
  5
2ADAB
330
2AA0D
100
AcDbEntity
  8
YODOROGO
100
AcDbLine
 10
10428.60162798447
 20
612.2894640162221
 30
0.0
 11
10464.60162798447
 21
612.2894640162221
 31
0.0
  0
LINE
  5
2ADAC
330
2AA0D
100
AcDbEntity
  8
YODOROGO
100
AcDbLine
 10
10434.1910958434
 20
588.1885715139279
 30
0.0
 11
10419.60162798446
 21
553.4060611609827
 31
0.0
1001
AUTOCAD_POSTSCRIPT_FIGURE
1002
{
1000
PSFILL
1000
Grayscale
1000
Grayscale
1070
   100
1002
}
  0
LINE
  5
2ADAD
330
2AA0D
100
AcDbEntity
  8
YODOROGO
100
AcDbLine
 10
10416.60162798446
 20
588.1885715139279
 30
0.0
 11
10434.1910958434
 21
588.1885715139279
 31
0.0
1001
AUTOCAD_POSTSCRIPT_FIGURE
1002
{
1000
PSFILL
1000
Grayscale
1000
Grayscale
1070
   100
1002
}
  0
LINE
  5
2ADAE
330
2AA0D
100
AcDbEntity
  8
YODOROGO
100
AcDbLine
 10
10416.60162798446
 20
595.688571513928
 30
0.0
 11
10416.60162798446
 21
588.1885715139279
 31
0.0
1001
AUTOCAD_POSTSCRIPT_FIGURE
1002
{
1000
PSFILL
1000
Grayscale
1000
Grayscale
1070
   100
1002
}
  0
LINE
  5
2ADAF
330
2AA0D
100
AcDbEntity
  8
YODOROGO
100
AcDbLine
 10
10476.60162798446
 20
595.688571513928
 30
0.0
 11
10416.60162798446
 21
595.688571513928
 31
0.0
1001
AUTOCAD_POSTSCRIPT_FIGURE
1002
{
1000
PSFILL
1000
Grayscale
1000
Grayscale
1070
   100
1002
}
  0
LINE
  5
2ADB0
330
2AA0D
100
AcDbEntity
  8
YODOROGO
100
AcDbLine
 10
10476.60162798446
 20
588.1885715139279
 30
0.0
 11
10476.60162798446
 21
595.688571513928
 31
0.0
1001
AUTOCAD_POSTSCRIPT_FIGURE
1002
{
1000
PSFILL
1000
Grayscale
1000
Grayscale
1070
   100
1002
}
  0
LINE
  5
2ADB1
330
2AA0D
100
AcDbEntity
  8
YODOROGO
100
AcDbLine
 10
10441.69109584339
 20
588.1885715139279
 30
0.0
 11
10476.60162798446
 21
588.1885715139279
 31
0.0
1001
AUTOCAD_POSTSCRIPT_FIGURE
1002
{
1000
PSFILL
1000
Grayscale
1000
Grayscale
1070
   100
1002
}
  0
LINE
  5
2ADB2
330
2AA0D
100
AcDbEntity
  8
YODOROGO
100
AcDbLine
 10
10430.83001935679
 20
560.9060611609827
 30
0.0
 11
10441.69109584339
 21
588.1885715139279
 31
0.0
1001
AUTOCAD_POSTSCRIPT_FIGURE
1002
{
1000
PSFILL
1000
Grayscale
1000
Grayscale
1070
   100
1002
}
  0
LINE
  5
2ADB3
330
2AA0D
100
AcDbEntity
  8
YODOROGO
100
AcDbLine
 10
10463.27054655324
 20
560.9060611609827
 30
0.0
 11
10430.83001935679
 21
560.9060611609827
 31
0.0
1001
AUTOCAD_POSTSCRIPT_FIGURE
1002
{
1000
PSFILL
1000
Grayscale
1000
Grayscale
1070
   100
1002
}
  0
LINE
  5
2ADB4
330
2AA0D
100
AcDbEntity
  8
YODOROGO
100
AcDbLine
 10
10456.8993767966
 20
576.0876790116348
 30
0.0
 11
10463.27054655324
 21
560.9060611609827
 31
0.0
1001
AUTOCAD_POSTSCRIPT_FIGURE
1002
{
1000
PSFILL
1000
Grayscale
1000
Grayscale
1070
   100
1002
}
  0
LINE
  5
2ADB5
330
2AA0D
100
AcDbEntity
  8
YODOROGO
100
AcDbLine
 10
10462.8993767966
 20
576.0876790116348
 30
0.0
 11
10456.8993767966
 21
576.0876790116348
 31
0.0
1001
AUTOCAD_POSTSCRIPT_FIGURE
1002
{
1000
PSFILL
1000
Grayscale
1000
Grayscale
1070
   100
1002
}
  0
LINE
  5
2ADB6
330
2AA0D
100
AcDbEntity
  8
YODOROGO
100
AcDbLine
 10
10473.60162798447
 20
553.4060611609827
 30
0.0
 11
10462.8993767966
 21
576.0876790116348
 31
0.0
1001
AUTOCAD_POSTSCRIPT_FIGURE
1002
{
1000
PSFILL
1000
Grayscale
1000
Grayscale
1070
   100
1002
}
  0
LINE
  5
2ADB7
330
2AA0D
100
AcDbEntity
  8
YODOROGO
100
AcDbLine
 10
10419.60162798446
 20
553.4060611609827
 30
0.0
 11
10473.60162798447
 21
553.4060611609827
 31
0.0
1001
AUTOCAD_POSTSCRIPT_FIGURE
1002
{
1000
PSFILL
1000
Grayscale
1000
Grayscale
1070
   100
1002
}
  0
LINE
  5
2ADB8
330
2AA0D
100
AcDbEntity
  8
YODOROGO
100
AcDbLine
 10
10416.60162798446
 20
607.4896552667143
 30
0.0
 11
10416.60162798446
 21
616.4896552667137
 31
0.0
  0
LINE
  5
2ADB9
330
2AA0D
100
AcDbEntity
  8
YODOROGO
100
AcDbLine
 10
10476.60162798446
 20
616.4896552667137
 30
0.0
 11
10476.60162798446
 21
607.4896552667143
 31
0.0
  0
ARC
  5
2ADBA
330
2AA0D
100
AcDbEntity
  8
YODOROGO
100
AcDbCircle
 10
10584.72766580511
 20
600.3291619969972
 30
0.0
 40
65.99999999999997
100
AcDbArc
 50
280.3644312771313
 51
3.541483659218056
  0
ARC
  5
2ADBB
330
2AA0D
100
AcDbEntity
  8
YODOROGO
100
AcDbCircle
 10
10588.40851153474
 20
612.5991776107142
 30
0.0
 40
41.99999999999936
100
AcDbArc
 50
281.2490582504155
 51
348.7509417495832
  0
LINE
  5
2ADBC
330
2AA0D
100
AcDbEntity
  8
YODOROGO
100
AcDbLine
 10
10596.60162798446
 20
571.4060611609824
 30
0.0
 11
10596.60162798446
 21
535.4060611609829
 31
0.0
  0
LINE
  5
2ADBD
330
2AA0D
100
AcDbEntity
  8
YODOROGO
100
AcDbLine
 10
10507.53333890132
 20
603.9939618982182
 30
0.0
 11
10515.34245150633
 21
622.406061160983
 31
0.0
  0
LINE
  5
2ADBE
330
2AA0D
100
AcDbEntity
  8
YODOROGO
100
AcDbLine
 10
10515.60162798446
 20
593.6701837306505
 30
0.0
 11
10507.53333890132
 21
603.9939618982182
 31
0.0
  0
LINE
  5
2ADBF
330
2AA0D
100
AcDbEntity
  8
YODOROGO
100
AcDbLine
 10
10515.60162798446
 20
586.1701837306497
 30
0.0
 11
10515.60162798446
 21
593.6701837306505
 31
0.0
  0
LINE
  5
2ADC0
330
2AA0D
100
AcDbEntity
  8
YODOROGO
100
AcDbLine
 10
10506.60162798447
 20
594.4638989060739
 30
0.0
 11
10515.60162798446
 21
586.1701837306497
 31
0.0
  0
LINE
  5
2ADC1
330
2AA0D
100
AcDbEntity
  8
YODOROGO
100
AcDbLine
 10
10506.60162798447
 20
553.4060611609827
 30
0.0
 11
10506.60162798447
 21
594.4638989060739
 31
0.0
  0
LINE
  5
2ADC2
330
2AA0D
100
AcDbEntity
  8
YODOROGO
100
AcDbLine
 10
10500.60162798446
 20
553.4060611609827
 30
0.0
 11
10506.60162798447
 21
553.4060611609827
 31
0.0
  0
LINE
  5
2ADC3
330
2AA0D
100
AcDbEntity
  8
YODOROGO
100
AcDbLine
 10
10500.60162798446
 20
592.5020061336555
 30
0.0
 11
10500.60162798446
 21
553.4060611609827
 31
0.0
  0
LINE
  5
2ADC4
330
2AA0D
100
AcDbEntity
  8
YODOROGO
100
AcDbLine
 10
10491.60162798447
 20
574.7880296375358
 30
0.0
 11
10500.60162798446
 21
592.5020061336555
 31
0.0
  0
LINE
  5
2ADC5
330
2AA0D
100
AcDbEntity
  8
YODOROGO
100
AcDbLine
 10
10491.60162798447
 20
583.788029637536
 30
0.0
 11
10491.60162798447
 21
574.7880296375358
 31
0.0
  0
LINE
  5
2ADC6
330
2AA0D
100
AcDbEntity
  8
YODOROGO
100
AcDbLine
 10
10509.68579035926
 20
625.4060611609819
 30
0.0
 11
10491.60162798447
 21
583.788029637536
 31
0.0
  0
LINE
  5
2ADC7
330
2AA0D
100
AcDbEntity
  8
YODOROGO
100
AcDbLine
 10
10491.60162798447
 20
625.4060611609819
 30
0.0
 11
10509.68579035926
 21
625.4060611609819
 31
0.0
  0
LINE
  5
2ADC8
330
2AA0D
100
AcDbEntity
  8
YODOROGO
100
AcDbLine
 10
10518.80082008659
 20
620.813863977996
 30
0.0
 11
10530.80082008658
 21
620.813863977996
 31
0.0
1001
AUTOCAD_POSTSCRIPT_FIGURE
1002
{
1000
PSFILL
1000
Grayscale
1000
Grayscale
1070
   100
1002
}
  0
LINE
  5
2ADC9
330
2AA0D
100
AcDbEntity
  8
YODOROGO
100
AcDbLine
 10
10518.80082008659
 20
611.8138639779965
 30
0.0
 11
10518.80082008659
 21
620.813863977996
 31
0.0
1001
AUTOCAD_POSTSCRIPT_FIGURE
1002
{
1000
PSFILL
1000
Grayscale
1000
Grayscale
1070
   100
1002
}
  0
LINE
  5
2ADCA
330
2AA0D
100
AcDbEntity
  8
YODOROGO
100
AcDbLine
 10
10530.80082008658
 20
611.8138639779965
 30
0.0
 11
10518.80082008659
 21
611.8138639779965
 31
0.0
1001
AUTOCAD_POSTSCRIPT_FIGURE
1002
{
1000
PSFILL
1000
Grayscale
1000
Grayscale
1070
   100
1002
}
  0
LINE
  5
2ADCB
330
2AA0D
100
AcDbEntity
  8
YODOROGO
100
AcDbLine
 10
10530.80082008658
 20
562.4060611609831
 30
0.0
 11
10530.80082008658
 21
611.8138639779965
 31
0.0
1001
AUTOCAD_POSTSCRIPT_FIGURE
1002
{
1000
PSFILL
1000
Grayscale
1000
Grayscale
1070
   100
1002
}
  0
LINE
  5
2ADCC
330
2AA0D
100
AcDbEntity
  8
YODOROGO
100
AcDbLine
 10
10518.8008200866
 20
562.4060611609831
 30
0.0
 11
10530.80082008658
 21
562.4060611609831
 31
0.0
1001
AUTOCAD_POSTSCRIPT_FIGURE
1002
{
1000
PSFILL
1000
Grayscale
1000
Grayscale
1070
   100
1002
}
  0
LINE
  5
2ADCD
330
2AA0D
100
AcDbEntity
  8
YODOROGO
100
AcDbLine
 10
10518.8008200866
 20
553.4060611609827
 30
0.0
 11
10518.8008200866
 21
562.4060611609831
 31
0.0
1001
AUTOCAD_POSTSCRIPT_FIGURE
1002
{
1000
PSFILL
1000
Grayscale
1000
Grayscale
1070
   100
1002
}
  0
LINE
  5
2ADCE
330
2AA0D
100
AcDbEntity
  8
YODOROGO
100
AcDbLine
 10
10551.60162798447
 20
553.4060611609827
 30
0.0
 11
10518.8008200866
 21
553.4060611609827
 31
0.0
1001
AUTOCAD_POSTSCRIPT_FIGURE
1002
{
1000
PSFILL
1000
Grayscale
1000
Grayscale
1070
   100
1002
}
  0
LINE
  5
2ADCF
330
2AA0D
100
AcDbEntity
  8
YODOROGO
100
AcDbLine
 10
10551.60162798447
 20
562.4060611609831
 30
0.0
 11
10551.60162798447
 21
553.4060611609827
 31
0.0
1001
AUTOCAD_POSTSCRIPT_FIGURE
1002
{
1000
PSFILL
1000
Grayscale
1000
Grayscale
1070
   100
1002
}
  0
LINE
  5
2ADD0
330
2AA0D
100
AcDbEntity
  8
YODOROGO
100
AcDbLine
 10
10536.8008200866
 20
562.4060611609831
 30
0.0
 11
10551.60162798447
 21
562.4060611609831
 31
0.0
1001
AUTOCAD_POSTSCRIPT_FIGURE
1002
{
1000
PSFILL
1000
Grayscale
1000
Grayscale
1070
   100
1002
}
  0
LINE
  5
2ADD1
330
2AA0D
100
AcDbEntity
  8
YODOROGO
100
AcDbLine
 10
10536.8008200866
 20
611.8138639779965
 30
0.0
 11
10536.8008200866
 21
562.4060611609831
 31
0.0
1001
AUTOCAD_POSTSCRIPT_FIGURE
1002
{
1000
PSFILL
1000
Grayscale
1000
Grayscale
1070
   100
1002
}
  0
LINE
  5
2ADD2
330
2AA0D
100
AcDbEntity
  8
YODOROGO
100
AcDbLine
 10
10551.60162798447
 20
611.8138639779965
 30
0.0
 11
10536.8008200866
 21
611.8138639779965
 31
0.0
1001
AUTOCAD_POSTSCRIPT_FIGURE
1002
{
1000
PSFILL
1000
Grayscale
1000
Grayscale
1070
   100
1002
}
  0
LINE
  5
2ADD3
330
2AA0D
100
AcDbEntity
  8
YODOROGO
100
AcDbLine
 10
10551.60162798447
 20
620.813863977996
 30
0.0
 11
10551.60162798447
 21
611.8138639779965
 31
0.0
1001
AUTOCAD_POSTSCRIPT_FIGURE
1002
{
1000
PSFILL
1000
Grayscale
1000
Grayscale
1070
   100
1002
}
  0
LINE
  5
2ADD4
330
2AA0D
100
AcDbEntity
  8
YODOROGO
100
AcDbLine
 10
10536.8008200866
 20
620.813863977996
 30
0.0
 11
10551.60162798447
 21
620.813863977996
 31
0.0
1001
AUTOCAD_POSTSCRIPT_FIGURE
1002
{
1000
PSFILL
1000
Grayscale
1000
Grayscale
1070
   100
1002
}
  0
LINE
  5
2ADD5
330
2AA0D
100
AcDbEntity
  8
YODOROGO
100
AcDbLine
 10
10650.60162798447
 20
625.406061160983
 30
0.0
 11
10629.60162798447
 21
625.406061160983
 31
0.0
  0
LINE
  5
2ADD6
330
2AA0D
100
AcDbEntity
  8
YODOROGO
100
AcDbLine
 10
10650.60162798447
 20
604.4060611609832
 30
0.0
 11
10650.60162798447
 21
625.406061160983
 31
0.0
  0
LINE
  5
2ADD7
330
2AA0D
100
AcDbEntity
  8
YODOROGO
100
AcDbLine
 10
10629.60162798447
 20
625.406061160983
 30
0.0
 11
10629.60162798447
 21
604.4060611609832
 31
0.0
  0
ARC
  5
2ADD8
330
2AA0D
100
AcDbEntity
  8
YODOROGO
100
AcDbCircle
 10
10692.60162798446
 20
565.4060611609828
 30
0.0
 40
30.0
100
AcDbArc
 50
180.0
 51
270.0
  0
ARC
  5
2ADD9
330
2AA0D
100
AcDbEntity
  8
YODOROGO
100
AcDbCircle
 10
10701.60162798446
 20
586.4060611609825
 30
0.0
 40
15.0
100
AcDbArc
 50
180.0
 51
270.0
  0
LINE
  5
2ADDA
330
2AA0D
100
AcDbEntity
  8
YODOROGO
100
AcDbLine
 10
10710.60162798447
 20
571.4060611609824
 30
0.0
 11
10701.60162798446
 21
571.4060611609824
 31
0.0
  0
ARC
  5
2ADDB
330
2AA0D
100
AcDbEntity
  8
YODOROGO
100
AcDbCircle
 10
10710.60162798447
 20
580.4060611609819
 30
0.0
 40
8.999999999998637
100
AcDbArc
 50
270.0
 51
0.0000000000054281
  0
LINE
  5
2ADDC
330
2AA0D
100
AcDbEntity
  8
YODOROGO
100
AcDbLine
 10
10425.60162798447
 20
709.0449677976399
 30
0.0
 11
10416.60162798446
 21
691.4162804818772
 31
0.0
1001
AUTOCAD_POSTSCRIPT_FIGURE
1002
{
1000
PSFILL
1000
Grayscale
1000
Grayscale
1070
   100
1002
}
  0
LINE
  5
2ADDD
330
2AA0D
100
AcDbEntity
  8
YODOROGO
100
AcDbLine
 10
10425.60162798447
 20
655.406061160983
 30
0.0
 11
10425.60162798447
 21
709.0449677976399
 31
0.0
1001
AUTOCAD_POSTSCRIPT_FIGURE
1002
{
1000
PSFILL
1000
Grayscale
1000
Grayscale
1070
   100
1002
}
  0
LINE
  5
2ADDE
330
2AA0D
100
AcDbEntity
  8
YODOROGO
100
AcDbLine
 10
10431.60162798447
 20
655.406061160983
 30
0.0
 11
10425.60162798447
 21
655.406061160983
 31
0.0
1001
AUTOCAD_POSTSCRIPT_FIGURE
1002
{
1000
PSFILL
1000
Grayscale
1000
Grayscale
1070
   100
1002
}
  0
LINE
  5
2ADDF
330
2AA0D
100
AcDbEntity
  8
YODOROGO
100
AcDbLine
 10
10431.60162798447
 20
710.1642495319751
 30
0.0
 11
10431.60162798447
 21
655.406061160983
 31
0.0
1001
AUTOCAD_POSTSCRIPT_FIGURE
1002
{
1000
PSFILL
1000
Grayscale
1000
Grayscale
1070
   100
1002
}
  0
LINE
  5
2ADE0
330
2AA0D
100
AcDbEntity
  8
YODOROGO
100
AcDbLine
 10
10440.60162798446
 20
700.3705343565512
 30
0.0
 11
10431.60162798447
 21
710.1642495319751
 31
0.0
1001
AUTOCAD_POSTSCRIPT_FIGURE
1002
{
1000
PSFILL
1000
Grayscale
1000
Grayscale
1070
   100
1002
}
  0
LINE
  5
2ADE1
330
2AA0D
100
AcDbEntity
  8
YODOROGO
100
AcDbLine
 10
10440.60162798446
 20
706.3705343565509
 30
0.0
 11
10440.60162798446
 21
700.3705343565512
 31
0.0
1001
AUTOCAD_POSTSCRIPT_FIGURE
1002
{
1000
PSFILL
1000
Grayscale
1000
Grayscale
1070
   100
1002
}
  0
LINE
  5
2ADE2
330
2AA0D
100
AcDbEntity
  8
YODOROGO
100
AcDbLine
 10
10431.60162798447
 20
719.1642495319745
 30
0.0
 11
10440.60162798446
 21
706.3705343565509
 31
0.0
1001
AUTOCAD_POSTSCRIPT_FIGURE
1002
{
1000
PSFILL
1000
Grayscale
1000
Grayscale
1070
   100
1002
}
  0
LINE
  5
2ADE3
330
2AA0D
100
AcDbEntity
  8
YODOROGO
100
AcDbLine
 10
10431.60162798447
 20
727.4060611609828
 30
0.0
 11
10431.60162798447
 21
719.1642495319745
 31
0.0
1001
AUTOCAD_POSTSCRIPT_FIGURE
1002
{
1000
PSFILL
1000
Grayscale
1000
Grayscale
1070
   100
1002
}
  0
LINE
  5
2ADE4
330
2AA0D
100
AcDbEntity
  8
YODOROGO
100
AcDbLine
 10
10458.60162798446
 20
727.4060611609828
 30
0.0
 11
10431.60162798447
 21
727.4060611609828
 31
0.0
1001
AUTOCAD_POSTSCRIPT_FIGURE
1002
{
1000
PSFILL
1000
Grayscale
1000
Grayscale
1070
   100
1002
}
  0
LINE
  5
2ADE5
330
2AA0D
100
AcDbEntity
  8
YODOROGO
100
AcDbLine
 10
10458.60162798446
 20
712.7131308511124
 30
0.0
 11
10458.60162798446
 21
727.4060611609828
 31
0.0
1001
AUTOCAD_POSTSCRIPT_FIGURE
1002
{
1000
PSFILL
1000
Grayscale
1000
Grayscale
1070
   100
1002
}
  0
LINE
  5
2ADE6
330
2AA0D
100
AcDbEntity
  8
YODOROGO
100
AcDbLine
 10
10446.60162798447
 20
712.7131308511124
 30
0.0
 11
10458.60162798446
 21
712.7131308511124
 31
0.0
1001
AUTOCAD_POSTSCRIPT_FIGURE
1002
{
1000
PSFILL
1000
Grayscale
1000
Grayscale
1070
   100
1002
}
  0
LINE
  5
2ADE7
330
2AA0D
100
AcDbEntity
  8
YODOROGO
100
AcDbLine
 10
10446.60162798447
 20
706.7131308511119
 30
0.0
 11
10446.60162798447
 21
712.7131308511124
 31
0.0
1001
AUTOCAD_POSTSCRIPT_FIGURE
1002
{
1000
PSFILL
1000
Grayscale
1000
Grayscale
1070
   100
1002
}
  0
LINE
  5
2ADE8
330
2AA0D
100
AcDbEntity
  8
YODOROGO
100
AcDbLine
 10
10458.60162798446
 20
706.7131308511119
 30
0.0
 11
10446.60162798447
 21
706.7131308511119
 31
0.0
1001
AUTOCAD_POSTSCRIPT_FIGURE
1002
{
1000
PSFILL
1000
Grayscale
1000
Grayscale
1070
   100
1002
}
  0
LINE
  5
2ADE9
330
2AA0D
100
AcDbEntity
  8
YODOROGO
100
AcDbLine
 10
10458.60162798446
 20
704.8571917366647
 30
0.0
 11
10458.60162798446
 21
706.7131308511119
 31
0.0
1001
AUTOCAD_POSTSCRIPT_FIGURE
1002
{
1000
PSFILL
1000
Grayscale
1000
Grayscale
1070
   100
1002
}
  0
LINE
  5
2ADEA
330
2AA0D
100
AcDbEntity
  8
YODOROGO
100
AcDbLine
 10
10443.60162798447
 20
679.8656179355313
 30
0.0
 11
10458.60162798446
 21
704.8571917366647
 31
0.0
1001
AUTOCAD_POSTSCRIPT_FIGURE
1002
{
1000
PSFILL
1000
Grayscale
1000
Grayscale
1070
   100
1002
}
  0
LINE
  5
2ADEB
330
2AA0D
100
AcDbEntity
  8
YODOROGO
100
AcDbLine
 10
10443.60162798447
 20
673.8656179355309
 30
0.0
 11
10443.60162798447
 21
679.8656179355313
 31
0.0
1001
AUTOCAD_POSTSCRIPT_FIGURE
1002
{
1000
PSFILL
1000
Grayscale
1000
Grayscale
1070
   100
1002
}
  0
LINE
  5
2ADEC
330
2AA0D
100
AcDbEntity
  8
YODOROGO
100
AcDbLine
 10
10458.60162798446
 20
692.8571917366638
 30
0.0
 11
10443.60162798447
 21
673.8656179355309
 31
0.0
1001
AUTOCAD_POSTSCRIPT_FIGURE
1002
{
1000
PSFILL
1000
Grayscale
1000
Grayscale
1070
   100
1002
}
  0
LINE
  5
2ADED
330
2AA0D
100
AcDbEntity
  8
YODOROGO
100
AcDbLine
 10
10458.60162798446
 20
655.406061160983
 30
0.0
 11
10458.60162798446
 21
692.8571917366638
 31
0.0
1001
AUTOCAD_POSTSCRIPT_FIGURE
1002
{
1000
PSFILL
1000
Grayscale
1000
Grayscale
1070
   100
1002
}
  0
LINE
  5
2ADEE
330
2AA0D
100
AcDbEntity
  8
YODOROGO
100
AcDbLine
 10
10464.60162798447
 20
655.406061160983
 30
0.0
 11
10458.60162798446
 21
655.406061160983
 31
0.0
1001
AUTOCAD_POSTSCRIPT_FIGURE
1002
{
1000
PSFILL
1000
Grayscale
1000
Grayscale
1070
   100
1002
}
  0
LINE
  5
2ADEF
330
2AA0D
100
AcDbEntity
  8
YODOROGO
100
AcDbLine
 10
10464.60162798447
 20
693.5283795595521
 30
0.0
 11
10464.60162798447
 21
655.406061160983
 31
0.0
1001
AUTOCAD_POSTSCRIPT_FIGURE
1002
{
1000
PSFILL
1000
Grayscale
1000
Grayscale
1070
   100
1002
}
  0
LINE
  5
2ADF0
330
2AA0D
100
AcDbEntity
  8
YODOROGO
100
AcDbLine
 10
10476.60162798446
 20
673.8656179355309
 30
0.0
 11
10464.60162798447
 21
693.5283795595521
 31
0.0
1001
AUTOCAD_POSTSCRIPT_FIGURE
1002
{
1000
PSFILL
1000
Grayscale
1000
Grayscale
1070
   100
1002
}
  0
LINE
  5
2ADF1
330
2AA0D
100
AcDbEntity
  8
YODOROGO
100
AcDbLine
 10
10476.60162798446
 20
679.8656179355313
 30
0.0
 11
10476.60162798446
 21
673.8656179355309
 31
0.0
1001
AUTOCAD_POSTSCRIPT_FIGURE
1002
{
1000
PSFILL
1000
Grayscale
1000
Grayscale
1070
   100
1002
}
  0
LINE
  5
2ADF2
330
2AA0D
100
AcDbEntity
  8
YODOROGO
100
AcDbLine
 10
10464.60162798447
 20
705.5283795595531
 30
0.0
 11
10476.60162798446
 21
679.8656179355313
 31
0.0
1001
AUTOCAD_POSTSCRIPT_FIGURE
1002
{
1000
PSFILL
1000
Grayscale
1000
Grayscale
1070
   100
1002
}
  0
LINE
  5
2ADF3
330
2AA0D
100
AcDbEntity
  8
YODOROGO
100
AcDbLine
 10
10464.60162798447
 20
706.7131308511128
 30
0.0
 11
10464.60162798447
 21
705.5283795595531
 31
0.0
1001
AUTOCAD_POSTSCRIPT_FIGURE
1002
{
1000
PSFILL
1000
Grayscale
1000
Grayscale
1070
   100
1002
}
  0
LINE
  5
2ADF4
330
2AA0D
100
AcDbEntity
  8
YODOROGO
100
AcDbLine
 10
10476.60162798446
 20
706.7131308511119
 30
0.0
 11
10464.60162798447
 21
706.7131308511128
 31
0.0
1001
AUTOCAD_POSTSCRIPT_FIGURE
1002
{
1000
PSFILL
1000
Grayscale
1000
Grayscale
1070
   100
1002
}
  0
LINE
  5
2ADF5
330
2AA0D
100
AcDbEntity
  8
YODOROGO
100
AcDbLine
 10
10476.60162798446
 20
712.7131308511124
 30
0.0
 11
10476.60162798446
 21
706.7131308511119
 31
0.0
1001
AUTOCAD_POSTSCRIPT_FIGURE
1002
{
1000
PSFILL
1000
Grayscale
1000
Grayscale
1070
   100
1002
}
  0
LINE
  5
2ADF6
330
2AA0D
100
AcDbEntity
  8
YODOROGO
100
AcDbLine
 10
10464.60162798447
 20
712.7131308511124
 30
0.0
 11
10476.60162798446
 21
712.7131308511124
 31
0.0
1001
AUTOCAD_POSTSCRIPT_FIGURE
1002
{
1000
PSFILL
1000
Grayscale
1000
Grayscale
1070
   100
1002
}
  0
LINE
  5
2ADF7
330
2AA0D
100
AcDbEntity
  8
YODOROGO
100
AcDbLine
 10
10464.60162798447
 20
727.4060611609828
 30
0.0
 11
10464.60162798447
 21
712.7131308511124
 31
0.0
1001
AUTOCAD_POSTSCRIPT_FIGURE
1002
{
1000
PSFILL
1000
Grayscale
1000
Grayscale
1070
   100
1002
}
  0
LINE
  5
2ADF8
330
2AA0D
100
AcDbEntity
  8
YODOROGO
100
AcDbLine
 10
10476.60162798446
 20
727.4060611609828
 30
0.0
 11
10464.60162798447
 21
727.4060611609828
 31
0.0
1001
AUTOCAD_POSTSCRIPT_FIGURE
1002
{
1000
PSFILL
1000
Grayscale
1000
Grayscale
1070
   100
1002
}
  0
LINE
  5
2ADF9
330
2AA0D
100
AcDbEntity
  8
YODOROGO
100
AcDbLine
 10
10476.60162798446
 20
733.4060611609828
 30
0.0
 11
10476.60162798446
 21
727.4060611609828
 31
0.0
1001
AUTOCAD_POSTSCRIPT_FIGURE
1002
{
1000
PSFILL
1000
Grayscale
1000
Grayscale
1070
   100
1002
}
  0
LINE
  5
2ADFA
330
2AA0D
100
AcDbEntity
  8
YODOROGO
100
AcDbLine
 10
10464.60162798447
 20
733.4060611609828
 30
0.0
 11
10476.60162798446
 21
733.4060611609828
 31
0.0
1001
AUTOCAD_POSTSCRIPT_FIGURE
1002
{
1000
PSFILL
1000
Grayscale
1000
Grayscale
1070
   100
1002
}
  0
LINE
  5
2ADFB
330
2AA0D
100
AcDbEntity
  8
YODOROGO
100
AcDbLine
 10
10464.60162798447
 20
742.4060611609832
 30
0.0
 11
10464.60162798447
 21
733.4060611609828
 31
0.0
1001
AUTOCAD_POSTSCRIPT_FIGURE
1002
{
1000
PSFILL
1000
Grayscale
1000
Grayscale
1070
   100
1002
}
  0
LINE
  5
2ADFC
330
2AA0D
100
AcDbEntity
  8
YODOROGO
100
AcDbLine
 10
10458.60162798446
 20
742.4060611609832
 30
0.0
 11
10464.60162798447
 21
742.4060611609832
 31
0.0
1001
AUTOCAD_POSTSCRIPT_FIGURE
1002
{
1000
PSFILL
1000
Grayscale
1000
Grayscale
1070
   100
1002
}
  0
LINE
  5
2ADFD
330
2AA0D
100
AcDbEntity
  8
YODOROGO
100
AcDbLine
 10
10458.60162798446
 20
733.4060611609828
 30
0.0
 11
10458.60162798446
 21
742.4060611609832
 31
0.0
1001
AUTOCAD_POSTSCRIPT_FIGURE
1002
{
1000
PSFILL
1000
Grayscale
1000
Grayscale
1070
   100
1002
}
  0
LINE
  5
2ADFE
330
2AA0D
100
AcDbEntity
  8
YODOROGO
100
AcDbLine
 10
10449.60162798447
 20
733.4060611609828
 30
0.0
 11
10458.60162798446
 21
733.4060611609828
 31
0.0
1001
AUTOCAD_POSTSCRIPT_FIGURE
1002
{
1000
PSFILL
1000
Grayscale
1000
Grayscale
1070
   100
1002
}
  0
LINE
  5
2ADFF
330
2AA0D
100
AcDbEntity
  8
YODOROGO
100
AcDbLine
 10
10449.60162798447
 20
742.4060611609832
 30
0.0
 11
10449.60162798447
 21
733.4060611609828
 31
0.0
1001
AUTOCAD_POSTSCRIPT_FIGURE
1002
{
1000
PSFILL
1000
Grayscale
1000
Grayscale
1070
   100
1002
}
  0
LINE
  5
2AE00
330
2AA0D
100
AcDbEntity
  8
YODOROGO
100
AcDbLine
 10
10443.60162798447
 20
742.4060611609832
 30
0.0
 11
10449.60162798447
 21
742.4060611609832
 31
0.0
1001
AUTOCAD_POSTSCRIPT_FIGURE
1002
{
1000
PSFILL
1000
Grayscale
1000
Grayscale
1070
   100
1002
}
  0
LINE
  5
2AE01
330
2AA0D
100
AcDbEntity
  8
YODOROGO
100
AcDbLine
 10
10443.60162798447
 20
733.4060611609828
 30
0.0
 11
10443.60162798447
 21
742.4060611609832
 31
0.0
1001
AUTOCAD_POSTSCRIPT_FIGURE
1002
{
1000
PSFILL
1000
Grayscale
1000
Grayscale
1070
   100
1002
}
  0
LINE
  5
2AE02
330
2AA0D
100
AcDbEntity
  8
YODOROGO
100
AcDbLine
 10
10431.60162798447
 20
733.4060611609828
 30
0.0
 11
10443.60162798447
 21
733.4060611609828
 31
0.0
1001
AUTOCAD_POSTSCRIPT_FIGURE
1002
{
1000
PSFILL
1000
Grayscale
1000
Grayscale
1070
   100
1002
}
  0
LINE
  5
2AE03
330
2AA0D
100
AcDbEntity
  8
YODOROGO
100
AcDbLine
 10
10431.60162798447
 20
742.4060611609832
 30
0.0
 11
10431.60162798447
 21
733.4060611609828
 31
0.0
1001
AUTOCAD_POSTSCRIPT_FIGURE
1002
{
1000
PSFILL
1000
Grayscale
1000
Grayscale
1070
   100
1002
}
  0
LINE
  5
2AE04
330
2AA0D
100
AcDbEntity
  8
YODOROGO
100
AcDbLine
 10
10425.60162798447
 20
742.4060611609832
 30
0.0
 11
10431.60162798447
 21
742.4060611609832
 31
0.0
1001
AUTOCAD_POSTSCRIPT_FIGURE
1002
{
1000
PSFILL
1000
Grayscale
1000
Grayscale
1070
   100
1002
}
  0
LINE
  5
2AE05
330
2AA0D
100
AcDbEntity
  8
YODOROGO
100
AcDbLine
 10
10425.60162798447
 20
733.4060611609828
 30
0.0
 11
10425.60162798447
 21
742.4060611609832
 31
0.0
1001
AUTOCAD_POSTSCRIPT_FIGURE
1002
{
1000
PSFILL
1000
Grayscale
1000
Grayscale
1070
   100
1002
}
  0
LINE
  5
2AE06
330
2AA0D
100
AcDbEntity
  8
YODOROGO
100
AcDbLine
 10
10416.60162798446
 20
733.4060611609828
 30
0.0
 11
10425.60162798447
 21
733.4060611609828
 31
0.0
1001
AUTOCAD_POSTSCRIPT_FIGURE
1002
{
1000
PSFILL
1000
Grayscale
1000
Grayscale
1070
   100
1002
}
  0
LINE
  5
2AE07
330
2AA0D
100
AcDbEntity
  8
YODOROGO
100
AcDbLine
 10
10416.60162798446
 20
727.4060611609828
 30
0.0
 11
10416.60162798446
 21
733.4060611609828
 31
0.0
1001
AUTOCAD_POSTSCRIPT_FIGURE
1002
{
1000
PSFILL
1000
Grayscale
1000
Grayscale
1070
   100
1002
}
  0
LINE
  5
2AE08
330
2AA0D
100
AcDbEntity
  8
YODOROGO
100
AcDbLine
 10
10425.60162798447
 20
727.4060611609828
 30
0.0
 11
10416.60162798446
 21
727.4060611609828
 31
0.0
1001
AUTOCAD_POSTSCRIPT_FIGURE
1002
{
1000
PSFILL
1000
Grayscale
1000
Grayscale
1070
   100
1002
}
  0
LINE
  5
2AE09
330
2AA0D
100
AcDbEntity
  8
YODOROGO
100
AcDbLine
 10
10425.60162798447
 20
718.0449677976392
 30
0.0
 11
10425.60162798447
 21
727.4060611609828
 31
0.0
1001
AUTOCAD_POSTSCRIPT_FIGURE
1002
{
1000
PSFILL
1000
Grayscale
1000
Grayscale
1070
   100
1002
}
  0
LINE
  5
2AE0A
330
2AA0D
100
AcDbEntity
  8
YODOROGO
100
AcDbLine
 10
10416.60162798446
 20
697.4162804818766
 30
0.0
 11
10425.60162798447
 21
718.0449677976392
 31
0.0
1001
AUTOCAD_POSTSCRIPT_FIGURE
1002
{
1000
PSFILL
1000
Grayscale
1000
Grayscale
1070
   100
1002
}
  0
LINE
  5
2AE0B
330
2AA0D
100
AcDbEntity
  8
YODOROGO
100
AcDbLine
 10
10416.60162798446
 20
691.4162804818772
 30
0.0
 11
10416.60162798446
 21
697.4162804818766
 31
0.0
1001
AUTOCAD_POSTSCRIPT_FIGURE
1002
{
1000
PSFILL
1000
Grayscale
1000
Grayscale
1070
   100
1002
}
  0
LINE
  5
2AE0C
330
2AA0D
100
AcDbEntity
  8
YODOROGO
100
AcDbLine
 10
10596.60162798446
 20
700.406061160983
 30
0.0
 11
10650.60162798447
 21
684.3291096151149
 31
0.0
1001
AUTOCAD_POSTSCRIPT_FIGURE
1002
{
1000
PSFILL
1000
Grayscale
1000
Grayscale
1070
   100
1002
}
  0
LINE
  5
2AE0D
330
2AA0D
100
AcDbEntity
  8
YODOROGO
100
AcDbLine
 10
10650.60162798447
 20
657.3291096151146
 30
0.0
 11
10596.60162798446
 21
673.4060611609827
 31
0.0
1001
AUTOCAD_POSTSCRIPT_FIGURE
1002
{
1000
PSFILL
1000
Grayscale
1000
Grayscale
1070
   100
1002
}
  0
LINE
  5
2AE0E
330
2AA0D
100
AcDbEntity
  8
YODOROGO
100
AcDbLine
 10
10650.60162798447
 20
744.329109615115
 30
0.0
 11
10596.60162798446
 21
760.4060611609829
 31
0.0
1001
AUTOCAD_POSTSCRIPT_FIGURE
1002
{
1000
PSFILL
1000
Grayscale
1000
Grayscale
1070
   100
1002
}
  0
LINE
  5
2AE0F
330
2AA0D
100
AcDbEntity
  8
YODOROGO
100
AcDbLine
 10
10596.60162798446
 20
734.9060611609829
 30
0.0
 11
10650.60162798447
 21
718.829109615115
 31
0.0
1001
AUTOCAD_POSTSCRIPT_FIGURE
1002
{
1000
PSFILL
1000
Grayscale
1000
Grayscale
1070
   100
1002
}
  0
LINE
  5
2AE10
330
2AA0D
100
AcDbEntity
  8
YODOROGO
100
AcDbLine
 10
10596.60162798446
 20
673.4060611609827
 30
0.0
 11
10596.60162798446
 21
700.406061160983
 31
0.0
1001
AUTOCAD_POSTSCRIPT_FIGURE
1002
{
1000
PSFILL
1000
Grayscale
1000
Grayscale
1070
   100
1002
}
  0
LINE
  5
2AE11
330
2AA0D
100
AcDbEntity
  8
YODOROGO
100
AcDbLine
 10
10596.60162798446
 20
760.4060611609829
 30
0.0
 11
10596.60162798446
 21
734.9060611609829
 31
0.0
1001
AUTOCAD_POSTSCRIPT_FIGURE
1002
{
1000
PSFILL
1000
Grayscale
1000
Grayscale
1070
   100
1002
}
  0
LINE
  5
2AE12
330
2AA0D
100
AcDbEntity
  8
YODOROGO
100
AcDbLine
 10
10530.08862007752
 20
727.4060611609828
 30
0.0
 11
10548.60162798447
 21
655.406061160983
 31
0.0
1001
AUTOCAD_POSTSCRIPT_FIGURE
1002
{
1000
PSFILL
1000
Grayscale
1000
Grayscale
1070
   100
1002
}
  0
LINE
  5
2AE13
330
2AA0D
100
AcDbEntity
  8
YODOROGO
100
AcDbLine
 10
10491.60162798447
 20
727.4060611609828
 30
0.0
 11
10530.08862007752
 21
727.4060611609828
 31
0.0
1001
AUTOCAD_POSTSCRIPT_FIGURE
1002
{
1000
PSFILL
1000
Grayscale
1000
Grayscale
1070
   100
1002
}
  0
LINE
  5
2AE14
330
2AA0D
100
AcDbEntity
  8
YODOROGO
100
AcDbLine
 10
10491.60162798447
 20
733.4060611609828
 30
0.0
 11
10491.60162798447
 21
727.4060611609828
 31
0.0
1001
AUTOCAD_POSTSCRIPT_FIGURE
1002
{
1000
PSFILL
1000
Grayscale
1000
Grayscale
1070
   100
1002
}
  0
LINE
  5
2AE15
330
2AA0D
100
AcDbEntity
  8
YODOROGO
100
AcDbLine
 10
10528.72757944497
 20
733.4060611609828
 30
0.0
 11
10491.60162798447
 21
733.4060611609828
 31
0.0
1001
AUTOCAD_POSTSCRIPT_FIGURE
1002
{
1000
PSFILL
1000
Grayscale
1000
Grayscale
1070
   100
1002
}
  0
LINE
  5
2AE16
330
2AA0D
100
AcDbEntity
  8
YODOROGO
100
AcDbLine
 10
10526.68601849614
 20
742.4060611609832
 30
0.0
 11
10528.72757944497
 21
733.4060611609828
 31
0.0
1001
AUTOCAD_POSTSCRIPT_FIGURE
1002
{
1000
PSFILL
1000
Grayscale
1000
Grayscale
1070
   100
1002
}
  0
LINE
  5
2AE17
330
2AA0D
100
AcDbEntity
  8
YODOROGO
100
AcDbLine
 10
10534.18601849614
 20
742.4060611609832
 30
0.0
 11
10526.68601849614
 21
742.4060611609832
 31
0.0
1001
AUTOCAD_POSTSCRIPT_FIGURE
1002
{
1000
PSFILL
1000
Grayscale
1000
Grayscale
1070
   100
1002
}
  0
LINE
  5
2AE18
330
2AA0D
100
AcDbEntity
  8
YODOROGO
100
AcDbLine
 10
10535.92757944497
 20
733.4060611609828
 30
0.0
 11
10534.18601849614
 21
742.4060611609832
 31
0.0
1001
AUTOCAD_POSTSCRIPT_FIGURE
1002
{
1000
PSFILL
1000
Grayscale
1000
Grayscale
1070
   100
1002
}
  0
LINE
  5
2AE19
330
2AA0D
100
AcDbEntity
  8
YODOROGO
100
AcDbLine
 10
10545.60162798447
 20
733.4060611609828
 30
0.0
 11
10535.92757944497
 21
733.4060611609828
 31
0.0
1001
AUTOCAD_POSTSCRIPT_FIGURE
1002
{
1000
PSFILL
1000
Grayscale
1000
Grayscale
1070
   100
1002
}
  0
LINE
  5
2AE1A
330
2AA0D
100
AcDbEntity
  8
YODOROGO
100
AcDbLine
 10
10545.60162798447
 20
742.4060611609832
 30
0.0
 11
10545.60162798447
 21
733.4060611609828
 31
0.0
1001
AUTOCAD_POSTSCRIPT_FIGURE
1002
{
1000
PSFILL
1000
Grayscale
1000
Grayscale
1070
   100
1002
}
  0
LINE
  5
2AE1B
330
2AA0D
100
AcDbEntity
  8
YODOROGO
100
AcDbLine
 10
10551.60162798447
 20
742.4060611609832
 30
0.0
 11
10545.60162798447
 21
742.4060611609832
 31
0.0
1001
AUTOCAD_POSTSCRIPT_FIGURE
1002
{
1000
PSFILL
1000
Grayscale
1000
Grayscale
1070
   100
1002
}
  0
LINE
  5
2AE1C
330
2AA0D
100
AcDbEntity
  8
YODOROGO
100
AcDbLine
 10
10551.60162798447
 20
733.4060611609828
 30
0.0
 11
10551.60162798447
 21
742.4060611609832
 31
0.0
1001
AUTOCAD_POSTSCRIPT_FIGURE
1002
{
1000
PSFILL
1000
Grayscale
1000
Grayscale
1070
   100
1002
}
  0
LINE
  5
2AE1D
330
2AA0D
100
AcDbEntity
  8
YODOROGO
100
AcDbLine
 10
10551.60162798447
 20
727.4060611609828
 30
0.0
 11
10551.60162798447
 21
733.4060611609828
 31
0.0
1001
AUTOCAD_POSTSCRIPT_FIGURE
1002
{
1000
PSFILL
1000
Grayscale
1000
Grayscale
1070
   100
1002
}
  0
LINE
  5
2AE1E
330
2AA0D
100
AcDbEntity
  8
YODOROGO
100
AcDbLine
 10
10537.08862007752
 20
727.4060611609828
 30
0.0
 11
10551.60162798447
 21
727.4060611609828
 31
0.0
1001
AUTOCAD_POSTSCRIPT_FIGURE
1002
{
1000
PSFILL
1000
Grayscale
1000
Grayscale
1070
   100
1002
}
  0
LINE
  5
2AE1F
330
2AA0D
100
AcDbEntity
  8
YODOROGO
100
AcDbLine
 10
10551.60162798447
 20
655.406061160983
 30
0.0
 11
10537.08862007752
 21
727.4060611609828
 31
0.0
1001
AUTOCAD_POSTSCRIPT_FIGURE
1002
{
1000
PSFILL
1000
Grayscale
1000
Grayscale
1070
   100
1002
}
  0
LINE
  5
2AE20
330
2AA0D
100
AcDbEntity
  8
YODOROGO
100
AcDbLine
 10
10548.60162798447
 20
655.406061160983
 30
0.0
 11
10551.60162798447
 21
655.406061160983
 31
0.0
1001
AUTOCAD_POSTSCRIPT_FIGURE
1002
{
1000
PSFILL
1000
Grayscale
1000
Grayscale
1070
   100
1002
}
  0
LINE
  5
2AE21
330
2AA0D
100
AcDbEntity
  8
YODOROGO
100
AcDbLine
 10
10529.27595747517
 20
665.902791112048
 30
0.0
 11
10491.60162798447
 21
655.406061160983
 31
0.0
  0
LINE
  5
2AE22
330
2AA0D
100
AcDbEntity
  8
YODOROGO
100
AcDbLine
 10
10529.27595747517
 20
674.5008673234024
 30
0.0
 11
10529.27595747517
 21
665.902791112048
 31
0.0
  0
LINE
  5
2AE23
330
2AA0D
100
AcDbEntity
  8
YODOROGO
100
AcDbLine
 10
10512.68879272982
 20
670.0563499251625
 30
0.0
 11
10529.27595747517
 21
674.5008673234024
 31
0.0
  0
LINE
  5
2AE24
330
2AA0D
100
AcDbEntity
  8
YODOROGO
100
AcDbLine
 10
10512.68879272982
 20
702.2131308511124
 30
0.0
 11
10512.68879272982
 21
670.0563499251625
 31
0.0
  0
LINE
  5
2AE25
330
2AA0D
100
AcDbEntity
  8
YODOROGO
100
AcDbLine
 10
10529.27595747517
 20
702.2131308511124
 30
0.0
 11
10512.68879272982
 21
702.2131308511124
 31
0.0
  0
LINE
  5
2AE26
330
2AA0D
100
AcDbEntity
  8
YODOROGO
100
AcDbLine
 10
10529.27595747517
 20
709.7131308511116
 30
0.0
 11
10529.27595747517
 21
702.2131308511124
 31
0.0
  0
LINE
  5
2AE27
330
2AA0D
100
AcDbEntity
  8
YODOROGO
100
AcDbLine
 10
10491.60162798447
 20
709.7131308511116
 30
0.0
 11
10529.27595747517
 21
709.7131308511116
 31
0.0
  0
LINE
  5
2AE28
330
2AA0D
100
AcDbEntity
  8
YODOROGO
100
AcDbLine
 10
10491.60162798447
 20
702.2131308511124
 30
0.0
 11
10491.60162798447
 21
709.7131308511116
 31
0.0
  0
LINE
  5
2AE29
330
2AA0D
100
AcDbEntity
  8
YODOROGO
100
AcDbLine
 10
10508.18879272982
 20
702.2131308511124
 30
0.0
 11
10491.60162798447
 21
702.2131308511124
 31
0.0
  0
LINE
  5
2AE2A
330
2AA0D
100
AcDbEntity
  8
YODOROGO
100
AcDbLine
 10
10508.18879272982
 20
669.252502347869
 30
0.0
 11
10508.18879272982
 21
702.2131308511124
 31
0.0
  0
LINE
  5
2AE2B
330
2AA0D
100
AcDbEntity
  8
YODOROGO
100
AcDbLine
 10
10491.60162798447
 20
664.4060611609823
 30
0.0
 11
10508.18879272982
 21
669.252502347869
 31
0.0
  0
LINE
  5
2AE2C
330
2AA0D
100
AcDbEntity
  8
YODOROGO
100
AcDbLine
 10
10491.60162798447
 20
655.406061160983
 30
0.0
 11
10491.60162798447
 21
664.4060611609823
 31
0.0
  0
LINE
  5
2AE2D
330
2AA0D
100
AcDbEntity
  8
YODOROGO
100
AcDbLine
 10
10500.60162798446
 20
640.4060611609828
 30
0.0
 11
10500.60162798446
 21
631.4060611609825
 31
0.0
  0
LINE
  5
2AE2E
330
2AA0D
100
AcDbEntity
  8
YODOROGO
100
AcDbLine
 10
10500.60162798446
 20
640.4060611609828
 30
0.0
 11
10500.60162798446
 21
640.4060611609828
 31
0.0
  0
LINE
  5
2AE2F
330
2AA0D
100
AcDbEntity
  8
YODOROGO
100
AcDbLine
 10
10506.60162798447
 20
640.4060611609828
 30
0.0
 11
10500.60162798446
 21
640.4060611609828
 31
0.0
  0
LINE
  5
2AE30
330
2AA0D
100
AcDbEntity
  8
YODOROGO
100
AcDbLine
 10
10506.60162798447
 20
631.4060611609825
 30
0.0
 11
10506.60162798447
 21
640.4060611609828
 31
0.0
  0
LINE
  5
2AE31
330
2AA0D
100
AcDbEntity
  8
YODOROGO
100
AcDbLine
 10
10515.34245150633
 20
631.4060611609825
 30
0.0
 11
10506.60162798447
 21
631.4060611609825
 31
0.0
  0
LINE
  5
2AE32
330
2AA0D
100
AcDbEntity
  8
YODOROGO
100
AcDbLine
 10
10500.60162798446
 20
631.4060611609825
 30
0.0
 11
10491.60162798447
 21
631.4060611609825
 31
0.0
  0
LINE
  5
2AE33
330
2AA0D
100
AcDbEntity
  8
YODOROGO
100
AcDbLine
 10
10530.80082008658
 20
640.4060611609828
 30
0.0
 11
10536.8008200866
 21
640.4060611609828
 31
0.0
1001
AUTOCAD_POSTSCRIPT_FIGURE
1002
{
1000
PSFILL
1000
Grayscale
1000
Grayscale
1070
   100
1002
}
  0
LINE
  5
2AE34
330
2AA0D
100
AcDbEntity
  8
YODOROGO
100
AcDbLine
 10
10650.60162798447
 20
684.3291096151149
 30
0.0
 11
10650.60162798447
 21
657.3291096151146
 31
0.0
1001
AUTOCAD_POSTSCRIPT_FIGURE
1002
{
1000
PSFILL
1000
Grayscale
1000
Grayscale
1070
   100
1002
}
  0
LINE
  5
2AE35
330
2AA0D
100
AcDbEntity
  8
YODOROGO
100
AcDbLine
 10
10650.60162798447
 20
718.829109615115
 30
0.0
 11
10650.60162798447
 21
744.329109615115
 31
0.0
1001
AUTOCAD_POSTSCRIPT_FIGURE
1002
{
1000
PSFILL
1000
Grayscale
1000
Grayscale
1070
   100
1002
}
  0
LINE
  5
2AE36
330
2AA0D
100
AcDbEntity
  8
YODOROGO
100
AcDbLine
 10
10662.60162798446
 20
682.4060611609829
 30
0.0
 11
10662.60162798446
 21
655.4060611609838
 31
0.0
  0
LINE
  5
2AE37
330
2AA0D
100
AcDbEntity
  8
YODOROGO
100
AcDbLine
 10
10686.60162798446
 20
640.4060611609828
 30
0.0
 11
10662.60162798446
 21
640.4060611609828
 31
0.0
  0
LINE
  5
2AE38
330
2AA0D
100
AcDbEntity
  8
YODOROGO
100
AcDbLine
 10
10662.60162798446
 20
655.4060611609838
 30
0.0
 11
10719.60162798446
 21
655.4060611609838
 31
0.0
  0
LINE
  5
2AE39
330
2AA0D
100
AcDbEntity
  8
YODOROGO
100
AcDbLine
 10
10686.60162798446
 20
700.406061160983
 30
0.0
 11
10662.60162798446
 21
700.406061160983
 31
0.0
  0
LINE
  5
2AE3A
330
2AA0D
100
AcDbEntity
  8
YODOROGO
100
AcDbLine
 10
10686.60162798446
 20
721.4060611609824
 30
0.0
 11
10686.60162798446
 21
700.406061160983
 31
0.0
  0
LINE
  5
2AE3B
330
2AA0D
100
AcDbEntity
  8
YODOROGO
100
AcDbLine
 10
10719.60162798446
 20
745.4060611609828
 30
0.0
 11
10719.60162798446
 21
760.4060611609829
 31
0.0
  0
LINE
  5
2AE3C
330
2AA0D
100
AcDbEntity
  8
YODOROGO
100
AcDbLine
 10
10662.60162798446
 20
745.4060611609828
 30
0.0
 11
10719.60162798446
 21
745.4060611609828
 31
0.0
  0
LINE
  5
2AE3D
330
2AA0D
100
AcDbEntity
  8
YODOROGO
100
AcDbLine
 10
10662.60162798446
 20
700.406061160983
 30
0.0
 11
10662.60162798446
 21
745.4060611609828
 31
0.0
  0
LINE
  5
2AE3E
330
2AA0D
100
AcDbEntity
  8
YODOROGO
100
AcDbLine
 10
10875.60162798447
 20
760.4060611609829
 30
0.0
 11
10875.60162798447
 21
607.4060611609829
 31
0.0
  0
LINE
  5
2AE3F
330
2AA0D
100
AcDbEntity
  8
YODOROGO
100
AcDbLine
 10
10902.60162798446
 20
592.4060611609831
 30
0.0
 11
10902.60162798446
 21
760.4060611609829
 31
0.0
  0
LINE
  5
2AE40
330
2AA0D
100
AcDbEntity
  8
YODOROGO
100
AcDbLine
 10
10973.10162798446
 20
559.4060611609823
 30
0.0
 11
10973.10162798446
 21
752.9060611609828
 31
0.0
  0
LINE
  5
2AE41
330
2AA0D
100
AcDbEntity
  8
YODOROGO
100
AcDbLine
 10
10949.10162798447
 20
752.9060611609828
 30
0.0
 11
10949.10162798447
 21
559.4060611609823
 31
0.0
  0
LINE
  5
2AE42
330
2AA0D
100
AcDbEntity
  8
YODOROGO
100
AcDbLine
 10
11019.60162798446
 20
760.4060611609829
 30
0.0
 11
11019.60162798446
 21
535.4060611609829
 31
0.0
  0
LINE
  5
2AE43
330
2AA0D
100
AcDbEntity
  8
YODOROGO
100
AcDbLine
 10
11046.60162798447
 20
535.4060611609829
 30
0.0
 11
11046.60162798447
 21
760.4060611609829
 31
0.0
  0
LINE
  5
2AE44
330
2AA0D
100
AcDbEntity
  8
YODOROGO
100
AcDbLine
 10
10746.60162798446
 20
625.406061160983
 30
0.0
 11
10746.60162798446
 21
655.4060611609838
 31
0.0
  0
LINE
  5
2AE45
330
2AA0D
100
AcDbEntity
  8
YODOROGO
100
AcDbLine
 10
11207.10162798447
 20
640.4060611609828
 30
0.0
 11
11207.10162798447
 21
625.406061160983
 31
0.0
  0
LINE
  5
2AE46
330
2AA0D
100
AcDbEntity
  8
YODOROGO
100
AcDbLine
 10
11207.10162798447
 20
640.4060611609828
 30
0.0
 11
11207.10162798447
 21
625.406061160983
 31
0.0
  0
ARC
  5
2AE47
330
2AA0D
100
AcDbEntity
  8
YODOROGO
100
AcDbCircle
 10
10840.09184107006
 20
606.8316991658524
 30
0.0
 40
35.51443169202812
100
AcDbArc
 50
274.052441629071
 51
0.9266642149310715
  0
ARC
  5
2AE48
330
2AA0D
100
AcDbEntity
  8
YODOROGO
100
AcDbCircle
 10
10840.94481401992
 20
597.229023228915
 30
0.0
 40
61.84515883532068
100
AcDbArc
 50
271.5351210653777
 51
355.5272775058505
  0
LINE
  5
2AE49
330
2AA0D
100
AcDbEntity
  8
YODOROGO
100
AcDbLine
 10
10842.60162798446
 20
571.4060611609824
 30
0.0
 11
10842.60162798446
 21
535.4060611609829
 31
0.0
  0
LINE
  5
2AE4A
330
2AA0D
100
AcDbEntity
  8
YODOROGO
100
AcDbLine
 10
10797.60162798446
 20
625.406061160983
 30
0.0
 11
10746.60162798446
 21
625.406061160983
 31
0.0
  0
LINE
  5
2AE4B
330
2AA0D
100
AcDbEntity
  8
YODOROGO
100
AcDbLine
 10
10797.60162798446
 20
601.4060611609833
 30
0.0
 11
10797.60162798446
 21
625.406061160983
 31
0.0
  0
LINE
  5
2AE4C
330
2AA0D
100
AcDbEntity
  8
YODOROGO
100
AcDbLine
 10
10746.60162798446
 20
601.4060611609833
 30
0.0
 11
10797.60162798446
 21
601.4060611609833
 31
0.0
  0
LINE
  5
2AE4D
330
2AA0D
100
AcDbEntity
  8
YODOROGO
100
AcDbLine
 10
10746.60162798446
 20
571.4060611609824
 30
0.0
 11
10746.60162798446
 21
601.4060611609833
 31
0.0
  0
LINE
  5
2AE4E
330
2AA0D
100
AcDbEntity
  8
YODOROGO
100
AcDbLine
 10
10797.60162798446
 20
571.4060611609824
 30
0.0
 11
10746.60162798446
 21
571.4060611609824
 31
0.0
  0
LINE
  5
2AE4F
330
2AA0D
100
AcDbEntity
  8
YODOROGO
100
AcDbLine
 10
10797.60162798446
 20
535.4060611609829
 30
0.0
 11
10797.60162798446
 21
571.4060611609824
 31
0.0
  0
LINE
  5
2AE50
330
2AA0D
100
AcDbEntity
  8
YODOROGO
100
AcDbLine
 10
10949.10162798447
 20
559.4060611609823
 30
0.0
 11
10973.10162798446
 21
559.4060611609823
 31
0.0
  0
LINE
  5
2AE51
330
2AA0D
100
AcDbEntity
  8
YODOROGO
100
AcDbLine
 10
11019.60162798446
 20
535.4060611609829
 30
0.0
 11
11046.60162798447
 21
535.4060611609829
 31
0.0
  0
LINE
  5
2AE52
330
2AA0D
100
AcDbEntity
  8
YODOROGO
100
AcDbLine
 10
11151.60162798447
 20
573.1655445639615
 30
0.0
 11
11151.60162798447
 21
535.4060611609829
 31
0.0
  0
LINE
  5
2AE53
330
2AA0D
100
AcDbEntity
  8
YODOROGO
100
AcDbLine
 10
11106.60162798446
 20
535.4060611609829
 30
0.0
 11
11151.60162798447
 21
573.1655445639615
 31
0.0
  0
LINE
  5
2AE54
330
2AA0D
100
AcDbEntity
  8
YODOROGO
100
AcDbLine
 10
11106.60162798446
 20
580.406061160983
 30
0.0
 11
11106.60162798446
 21
535.4060611609829
 31
0.0
  0
LINE
  5
2AE55
330
2AA0D
100
AcDbEntity
  8
YODOROGO
100
AcDbLine
 10
11142.35423576229
 20
610.4060611609829
 30
0.0
 11
11106.60162798446
 21
580.406061160983
 31
0.0
  0
LINE
  5
2AE56
330
2AA0D
100
AcDbEntity
  8
YODOROGO
100
AcDbLine
 10
11106.60162798446
 20
610.4060611609829
 30
0.0
 11
11142.35423576229
 21
610.4060611609829
 31
0.0
  0
LINE
  5
2AE57
330
2AA0D
100
AcDbEntity
  8
YODOROGO
100
AcDbLine
 10
11106.60162798446
 20
625.406061160983
 30
0.0
 11
11106.60162798446
 21
610.4060611609829
 31
0.0
  0
LINE
  5
2AE58
330
2AA0D
100
AcDbEntity
  8
YODOROGO
100
AcDbLine
 10
11207.10162798447
 20
625.406061160983
 30
0.0
 11
11106.60162798446
 21
625.406061160983
 31
0.0
  0
LINE
  5
2AE59
330
2AA0D
100
AcDbEntity
  8
YODOROGO
100
AcDbLine
 10
11219.10162798447
 20
610.4060611609829
 30
0.0
 11
11166.60162798446
 21
610.4060611609829
 31
0.0
  0
LINE
  5
2AE5A
330
2AA0D
100
AcDbEntity
  8
YODOROGO
100
AcDbLine
 10
11166.60162798446
 20
585.7520390316213
 30
0.0
 11
11164.27870236948
 21
583.8028730048376
 31
0.0
  0
LINE
  5
2AE5B
330
2AA0D
100
AcDbEntity
  8
YODOROGO
100
AcDbLine
 10
11166.60162798446
 20
610.4060611609829
 30
0.0
 11
11166.60162798446
 21
585.7520390316213
 31
0.0
  0
LINE
  5
2AE5C
330
2AA0D
100
AcDbEntity
  8
YODOROGO
100
AcDbLine
 10
11151.60162798447
 20
573.1655445639615
 30
0.0
 11
11151.60162798447
 21
535.4060611609829
 31
0.0
  0
LINE
  5
2AE5D
330
2AA0D
100
AcDbEntity
  8
YODOROGO
100
AcDbLine
 10
11106.60162798446
 20
535.4060611609829
 30
0.0
 11
11151.60162798447
 21
573.1655445639615
 31
0.0
  0
LINE
  5
2AE5E
330
2AA0D
100
AcDbEntity
  8
YODOROGO
100
AcDbLine
 10
11106.60162798446
 20
580.406061160983
 30
0.0
 11
11106.60162798446
 21
535.4060611609829
 31
0.0
  0
LINE
  5
2AE5F
330
2AA0D
100
AcDbEntity
  8
YODOROGO
100
AcDbLine
 10
11142.35423576229
 20
610.4060611609829
 30
0.0
 11
11106.60162798446
 21
580.406061160983
 31
0.0
  0
LINE
  5
2AE60
330
2AA0D
100
AcDbEntity
  8
YODOROGO
100
AcDbLine
 10
11106.60162798446
 20
610.4060611609829
 30
0.0
 11
11142.35423576229
 21
610.4060611609829
 31
0.0
  0
LINE
  5
2AE61
330
2AA0D
100
AcDbEntity
  8
YODOROGO
100
AcDbLine
 10
11106.60162798446
 20
625.406061160983
 30
0.0
 11
11106.60162798446
 21
610.4060611609829
 31
0.0
  0
LINE
  5
2AE62
330
2AA0D
100
AcDbEntity
  8
YODOROGO
100
AcDbLine
 10
11207.10162798447
 20
625.406061160983
 30
0.0
 11
11106.60162798446
 21
625.406061160983
 31
0.0
  0
LINE
  5
2AE63
330
2AA0D
100
AcDbEntity
  8
YODOROGO
100
AcDbLine
 10
10797.60162798446
 20
655.4060611609838
 30
0.0
 11
10797.60162798446
 21
682.4060611609829
 31
0.0
  0
LINE
  5
2AE64
330
2AA0D
100
AcDbEntity
  8
YODOROGO
100
AcDbLine
 10
10746.60162798446
 20
655.4060611609838
 30
0.0
 11
10797.60162798446
 21
655.4060611609838
 31
0.0
  0
LINE
  5
2AE65
330
2AA0D
100
AcDbEntity
  8
YODOROGO
100
AcDbLine
 10
10773.60162798447
 20
700.406061160983
 30
0.0
 11
10773.60162798447
 21
721.4060611609824
 31
0.0
  0
LINE
  5
2AE66
330
2AA0D
100
AcDbEntity
  8
YODOROGO
100
AcDbLine
 10
10797.60162798446
 20
700.406061160983
 30
0.0
 11
10773.60162798447
 21
700.406061160983
 31
0.0
  0
LINE
  5
2AE67
330
2AA0D
100
AcDbEntity
  8
YODOROGO
100
AcDbLine
 10
10797.60162798446
 20
730.4060611609828
 30
0.0
 11
10797.60162798446
 21
700.406061160983
 31
0.0
  0
ARC
  5
2AE68
330
2AA0D
100
AcDbEntity
  8
YODOROGO
100
AcDbCircle
 10
10782.60162798446
 20
730.4060611609828
 30
0.0
 40
15.0
100
AcDbArc
 50
0.0
 51
90.0
  0
LINE
  5
2AE69
330
2AA0D
100
AcDbEntity
  8
YODOROGO
100
AcDbLine
 10
10746.60162798447
 20
745.4060611609828
 30
0.0
 11
10782.60162798446
 21
745.4060611609828
 31
0.0
  0
LINE
  5
2AE6A
330
2AA0D
100
AcDbEntity
  8
YODOROGO
100
AcDbLine
 10
10746.60162798447
 20
760.4060611609829
 30
0.0
 11
10746.60162798447
 21
745.4060611609828
 31
0.0
  0
LINE
  5
2AE6B
330
2AA0D
100
AcDbEntity
  8
YODOROGO
100
AcDbLine
 10
10902.60162798446
 20
760.4060611609829
 30
0.0
 11
10875.60162798447
 21
760.4060611609829
 31
0.0
  0
LINE
  5
2AE6C
330
2AA0D
100
AcDbEntity
  8
YODOROGO
100
AcDbLine
 10
10973.10162798446
 20
752.9060611609828
 30
0.0
 11
10949.10162798447
 21
752.9060611609828
 31
0.0
  0
LINE
  5
2AE6D
330
2AA0D
100
AcDbEntity
  8
YODOROGO
100
AcDbLine
 10
11046.60162798447
 20
760.4060611609829
 30
0.0
 11
11019.60162798446
 21
760.4060611609829
 31
0.0
  0
LINE
  5
2AE6E
330
2AA0D
100
AcDbEntity
  8
YODOROGO
100
AcDbLine
 10
11127.60162798447
 20
640.4060611609828
 30
0.0
 11
11127.60162798447
 21
664.4060611609833
 31
0.0
1001
AUTOCAD_POSTSCRIPT_FIGURE
1002
{
1000
PSFILL
1000
Grayscale
1000
Grayscale
1070
    25
1002
}
  0
LINE
  5
2AE6F
330
2AA0D
100
AcDbEntity
  8
YODOROGO
100
AcDbLine
 10
11106.60162798446
 20
640.4060611609828
 30
0.0
 11
11127.60162798447
 21
640.4060611609828
 31
0.0
1001
AUTOCAD_POSTSCRIPT_FIGURE
1002
{
1000
PSFILL
1000
Grayscale
1000
Grayscale
1070
    25
1002
}
  0
LINE
  5
2AE70
330
2AA0D
100
AcDbEntity
  8
YODOROGO
100
AcDbLine
 10
11106.60162798446
 20
682.4060611609829
 30
0.0
 11
11106.60162798446
 21
640.4060611609828
 31
0.0
1001
AUTOCAD_POSTSCRIPT_FIGURE
1002
{
1000
PSFILL
1000
Grayscale
1000
Grayscale
1070
    25
1002
}
  0
LINE
  5
2AE71
330
2AA0D
100
AcDbEntity
  8
YODOROGO
100
AcDbLine
 10
11162.10162798447
 20
682.4060611609829
 30
0.0
 11
11106.60162798446
 21
682.4060611609829
 31
0.0
1001
AUTOCAD_POSTSCRIPT_FIGURE
1002
{
1000
PSFILL
1000
Grayscale
1000
Grayscale
1070
    25
1002
}
  0
LINE
  5
2AE72
330
2AA0D
100
AcDbEntity
  8
YODOROGO
100
AcDbLine
 10
11162.10162798447
 20
697.406061160983
 30
0.0
 11
11162.10162798447
 21
682.4060611609829
 31
0.0
1001
AUTOCAD_POSTSCRIPT_FIGURE
1002
{
1000
PSFILL
1000
Grayscale
1000
Grayscale
1070
    25
1002
}
  0
LINE
  5
2AE73
330
2AA0D
100
AcDbEntity
  8
YODOROGO
100
AcDbLine
 10
11106.60162798446
 20
697.406061160983
 30
0.0
 11
11162.10162798447
 21
697.406061160983
 31
0.0
1001
AUTOCAD_POSTSCRIPT_FIGURE
1002
{
1000
PSFILL
1000
Grayscale
1000
Grayscale
1070
    25
1002
}
  0
LINE
  5
2AE74
330
2AA0D
100
AcDbEntity
  8
YODOROGO
100
AcDbLine
 10
11106.60162798446
 20
715.4060611609828
 30
0.0
 11
11106.60162798446
 21
697.406061160983
 31
0.0
1001
AUTOCAD_POSTSCRIPT_FIGURE
1002
{
1000
PSFILL
1000
Grayscale
1000
Grayscale
1070
    25
1002
}
  0
LINE
  5
2AE75
330
2AA0D
100
AcDbEntity
  8
YODOROGO
100
AcDbLine
 10
11162.10162798447
 20
715.4060611609828
 30
0.0
 11
11106.60162798446
 21
715.4060611609828
 31
0.0
1001
AUTOCAD_POSTSCRIPT_FIGURE
1002
{
1000
PSFILL
1000
Grayscale
1000
Grayscale
1070
    25
1002
}
  0
LINE
  5
2AE76
330
2AA0D
100
AcDbEntity
  8
YODOROGO
100
AcDbLine
 10
11162.10162798447
 20
730.4060611609828
 30
0.0
 11
11162.10162798447
 21
715.4060611609828
 31
0.0
1001
AUTOCAD_POSTSCRIPT_FIGURE
1002
{
1000
PSFILL
1000
Grayscale
1000
Grayscale
1070
    25
1002
}
  0
LINE
  5
2AE77
330
2AA0D
100
AcDbEntity
  8
YODOROGO
100
AcDbLine
 10
11106.60162798446
 20
730.4060611609828
 30
0.0
 11
11162.10162798447
 21
730.4060611609828
 31
0.0
1001
AUTOCAD_POSTSCRIPT_FIGURE
1002
{
1000
PSFILL
1000
Grayscale
1000
Grayscale
1070
    25
1002
}
  0
LINE
  5
2AE78
330
2AA0D
100
AcDbEntity
  8
YODOROGO
100
AcDbLine
 10
11106.60162798446
 20
760.4060611609829
 30
0.0
 11
11106.60162798446
 21
730.4060611609828
 31
0.0
1001
AUTOCAD_POSTSCRIPT_FIGURE
1002
{
1000
PSFILL
1000
Grayscale
1000
Grayscale
1070
    25
1002
}
  0
LINE
  5
2AE79
330
2AA0D
100
AcDbEntity
  8
YODOROGO
100
AcDbLine
 10
11124.60162798446
 20
760.4060611609829
 30
0.0
 11
11106.60162798446
 21
760.4060611609829
 31
0.0
1001
AUTOCAD_POSTSCRIPT_FIGURE
1002
{
1000
PSFILL
1000
Grayscale
1000
Grayscale
1070
    25
1002
}
  0
LINE
  5
2AE7A
330
2AA0D
100
AcDbEntity
  8
YODOROGO
100
AcDbLine
 10
11124.60162798446
 20
748.4060611609828
 30
0.0
 11
11124.60162798446
 21
760.4060611609829
 31
0.0
1001
AUTOCAD_POSTSCRIPT_FIGURE
1002
{
1000
PSFILL
1000
Grayscale
1000
Grayscale
1070
    25
1002
}
  0
LINE
  5
2AE7B
330
2AA0D
100
AcDbEntity
  8
YODOROGO
100
AcDbLine
 10
11162.10162798447
 20
748.4060611609828
 30
0.0
 11
11124.60162798446
 21
748.4060611609828
 31
0.0
1001
AUTOCAD_POSTSCRIPT_FIGURE
1002
{
1000
PSFILL
1000
Grayscale
1000
Grayscale
1070
    25
1002
}
  0
LINE
  5
2AE7C
330
2AA0D
100
AcDbEntity
  8
YODOROGO
100
AcDbLine
 10
11162.10162798447
 20
760.4060611609829
 30
0.0
 11
11162.10162798447
 21
748.4060611609828
 31
0.0
1001
AUTOCAD_POSTSCRIPT_FIGURE
1002
{
1000
PSFILL
1000
Grayscale
1000
Grayscale
1070
    25
1002
}
  0
LINE
  5
2AE7D
330
2AA0D
100
AcDbEntity
  8
YODOROGO
100
AcDbLine
 10
11186.10162798447
 20
760.4060611609829
 30
0.0
 11
11162.10162798447
 21
760.4060611609829
 31
0.0
1001
AUTOCAD_POSTSCRIPT_FIGURE
1002
{
1000
PSFILL
1000
Grayscale
1000
Grayscale
1070
    25
1002
}
  0
LINE
  5
2AE7E
330
2AA0D
100
AcDbEntity
  8
YODOROGO
100
AcDbLine
 10
11186.10162798447
 20
748.4060611609828
 30
0.0
 11
11186.10162798447
 21
760.4060611609829
 31
0.0
1001
AUTOCAD_POSTSCRIPT_FIGURE
1002
{
1000
PSFILL
1000
Grayscale
1000
Grayscale
1070
    25
1002
}
  0
LINE
  5
2AE7F
330
2AA0D
100
AcDbEntity
  8
YODOROGO
100
AcDbLine
 10
11186.10162798447
 20
715.4060611609828
 30
0.0
 11
11186.10162798447
 21
730.4060611609828
 31
0.0
1001
AUTOCAD_POSTSCRIPT_FIGURE
1002
{
1000
PSFILL
1000
Grayscale
1000
Grayscale
1070
    25
1002
}
  0
LINE
  5
2AE80
330
2AA0D
100
AcDbEntity
  8
YODOROGO
100
AcDbLine
 10
11186.10162798447
 20
682.4060611609829
 30
0.0
 11
11186.10162798447
 21
697.406061160983
 31
0.0
1001
AUTOCAD_POSTSCRIPT_FIGURE
1002
{
1000
PSFILL
1000
Grayscale
1000
Grayscale
1070
    25
1002
}
  0
LINE
  5
2AE81
330
2AA0D
100
AcDbEntity
  8
YODOROGO
100
AcDbLine
 10
11220.60162798447
 20
664.4060611609833
 30
0.0
 11
11220.60162798447
 21
640.4060611609828
 31
0.0
1001
AUTOCAD_POSTSCRIPT_FIGURE
1002
{
1000
PSFILL
1000
Grayscale
1000
Grayscale
1070
    25
1002
}
  0
LINE
  5
2AE82
330
2AA0D
100
AcDbEntity
  8
YODOROGO
100
AcDbLine
 10
11186.10162798447
 20
664.4060611609833
 30
0.0
 11
11220.60162798447
 21
664.4060611609833
 31
0.0
1001
AUTOCAD_POSTSCRIPT_FIGURE
1002
{
1000
PSFILL
1000
Grayscale
1000
Grayscale
1070
    25
1002
}
  0
LINE
  5
2AE83
330
2AA0D
100
AcDbEntity
  8
YODOROGO
100
AcDbLine
 10
11186.10162798447
 20
640.4060611609828
 30
0.0
 11
11186.10162798447
 21
664.4060611609833
 31
0.0
1001
AUTOCAD_POSTSCRIPT_FIGURE
1002
{
1000
PSFILL
1000
Grayscale
1000
Grayscale
1070
    25
1002
}
  0
LINE
  5
2AE84
330
2AA0D
100
AcDbEntity
  8
YODOROGO
100
AcDbLine
 10
11162.10162798447
 20
640.4060611609828
 30
0.0
 11
11186.10162798447
 21
640.4060611609828
 31
0.0
1001
AUTOCAD_POSTSCRIPT_FIGURE
1002
{
1000
PSFILL
1000
Grayscale
1000
Grayscale
1070
    25
1002
}
  0
LINE
  5
2AE85
330
2AA0D
100
AcDbEntity
  8
YODOROGO
100
AcDbLine
 10
11162.10162798447
 20
664.4060611609833
 30
0.0
 11
11162.10162798447
 21
640.4060611609828
 31
0.0
1001
AUTOCAD_POSTSCRIPT_FIGURE
1002
{
1000
PSFILL
1000
Grayscale
1000
Grayscale
1070
    25
1002
}
  0
LINE
  5
2AE86
330
2AA0D
100
AcDbEntity
  8
YODOROGO
100
AcDbLine
 10
11127.60162798447
 20
664.4060611609833
 30
0.0
 11
11162.10162798447
 21
664.4060611609833
 31
0.0
1001
AUTOCAD_POSTSCRIPT_FIGURE
1002
{
1000
PSFILL
1000
Grayscale
1000
Grayscale
1070
    25
1002
}
  0
ARC
  5
2AE87
330
2AA0D
100
AcDbEntity
  8
YODOROGO
100
AcDbCircle
 10
11647.31921000922
 20
601.0052765683409
 30
0.0
 40
66.83298041652057
100
AcDbArc
 50
281.0262749542535
 51
357.771135755738
  0
LINE
  5
2AE88
330
2AA0D
100
AcDbEntity
  8
YODOROGO
100
AcDbLine
 10
11780.10162798446
 20
715.4060611609828
 30
0.0
 11
11687.10162798447
 21
715.4060611609828
 31
0.0
  0
LINE
  5
2AE89
330
2AA0D
100
AcDbEntity
  8
YODOROGO
100
AcDbLine
 10
11780.10162798446
 20
760.4060611609829
 30
0.0
 11
11687.10162798447
 21
760.4060611609829
 31
0.0
  0
LINE
  5
2AE8A
330
2AA0D
100
AcDbEntity
  8
YODOROGO
100
AcDbLine
 10
11687.10162798447
 20
736.4060611609825
 30
0.0
 11
11780.10162798446
 21
736.4060611609825
 31
0.0
  0
LINE
  5
2AE8B
330
2AA0D
100
AcDbEntity
  8
YODOROGO
100
AcDbLine
 10
11546.85162798447
 20
586.4060611609825
 30
0.0
 11
11546.85162798447
 21
658.4060611609827
 31
0.0
  0
LINE
  5
2AE8C
330
2AA0D
100
AcDbEntity
  8
YODOROGO
100
AcDbLine
 10
11536.35162798447
 20
634.4060611609833
 30
0.0
 11
11536.35162798447
 21
586.4060611609825
 31
0.0
  0
LINE
  5
2AE8D
330
2AA0D
100
AcDbEntity
  8
YODOROGO
100
AcDbLine
 10
11521.35162798447
 20
559.4060611609831
 30
0.0
 11
11521.35162798447
 21
634.4060611609833
 31
0.0
  0
LINE
  5
2AE8E
330
2AA0D
100
AcDbEntity
  8
YODOROGO
100
AcDbLine
 10
11587.35162798447
 20
634.4060611609833
 30
0.0
 11
11587.35162798447
 21
559.4060611609831
 31
0.0
  0
LINE
  5
2AE8F
330
2AA0D
100
AcDbEntity
  8
YODOROGO
100
AcDbLine
 10
11572.35162798446
 20
586.4060611609825
 30
0.0
 11
11572.35162798446
 21
634.4060611609833
 31
0.0
  0
LINE
  5
2AE90
330
2AA0D
100
AcDbEntity
  8
YODOROGO
100
AcDbLine
 10
11561.85162798446
 20
658.4060611609827
 30
0.0
 11
11561.85162798446
 21
586.4060611609825
 31
0.0
  0
LINE
  5
2AE91
330
2AA0D
100
AcDbEntity
  8
YODOROGO
100
AcDbLine
 10
11615.10162798446
 20
760.4060611609829
 30
0.0
 11
11615.10162798446
 21
550.4060611609828
 31
0.0
  0
LINE
  5
2AE92
330
2AA0D
100
AcDbEntity
  8
YODOROGO
100
AcDbLine
 10
11492.10162798447
 20
535.4060611609829
 30
0.0
 11
11492.10162798447
 21
760.4060611609829
 31
0.0
  0
LINE
  5
2AE93
330
2AA0D
100
AcDbEntity
  8
YODOROGO
100
AcDbLine
 10
11511.60162798447
 20
736.4060611609825
 30
0.0
 11
11511.60162798447
 21
535.4060611609829
 31
0.0
  0
LINE
  5
2AE94
330
2AA0D
100
AcDbEntity
  8
YODOROGO
100
AcDbLine
 10
11597.10162798446
 20
580.406061160983
 30
0.0
 11
11597.10162798446
 21
736.4060611609825
 31
0.0
  0
LINE
  5
2AE95
330
2AA0D
100
AcDbEntity
  8
YODOROGO
100
AcDbLine
 10
11393.10162798446
 20
610.4060611609829
 30
0.0
 11
11393.10162798446
 21
629.9060611609831
 31
0.0
  0
LINE
  5
2AE96
330
2AA0D
100
AcDbEntity
  8
YODOROGO
100
AcDbLine
 10
11481.60162798447
 20
629.9060611609831
 30
0.0
 11
11481.60162798447
 21
610.4060611609829
 31
0.0
  0
LINE
  5
2AE97
330
2AA0D
100
AcDbEntity
  8
YODOROGO
100
AcDbLine
 10
11687.10162798447
 20
715.4060611609828
 30
0.0
 11
11687.10162798447
 21
613.4060611609827
 31
0.0
  0
LINE
  5
2AE98
330
2AA0D
100
AcDbEntity
  8
YODOROGO
100
AcDbLine
 10
11231.10162798446
 20
625.406061160983
 30
0.0
 11
11231.10162798446
 21
640.4060611609828
 31
0.0
  0
LINE
  5
2AE99
330
2AA0D
100
AcDbEntity
  8
YODOROGO
100
AcDbLine
 10
11231.10162798446
 20
625.406061160983
 30
0.0
 11
11231.10162798446
 21
640.4060611609828
 31
0.0
  0
ARC
  5
2AE9A
330
2AA0D
100
AcDbEntity
  8
YODOROGO
100
AcDbCircle
 10
11451.60162798447
 20
565.4060611609828
 30
0.0
 40
30.0
100
AcDbArc
 50
270.0
 51
0.0
  0
LINE
  5
2AE9B
330
2AA0D
100
AcDbEntity
  8
YODOROGO
100
AcDbLine
 10
11463.60162798446
 20
599.9060611609831
 30
0.0
 11
11481.60162798447
 21
599.9060611609831
 31
0.0
  0
LINE
  5
2AE9C
330
2AA0D
100
AcDbEntity
  8
YODOROGO
100
AcDbLine
 10
11481.60162798447
 20
610.4060611609829
 30
0.0
 11
11448.60162798446
 21
610.4060611609829
 31
0.0
  0
LINE
  5
2AE9D
330
2AA0D
100
AcDbEntity
  8
YODOROGO
100
AcDbLine
 10
11331.60162798447
 20
625.406061160983
 30
0.0
 11
11231.10162798446
 21
625.406061160983
 31
0.0
  0
LINE
  5
2AE9E
330
2AA0D
100
AcDbEntity
  8
YODOROGO
100
AcDbLine
 10
11331.60162798447
 20
610.4060611609829
 30
0.0
 11
11331.60162798447
 21
625.406061160983
 31
0.0
  0
LINE
  5
2AE9F
330
2AA0D
100
AcDbEntity
  8
YODOROGO
100
AcDbLine
 10
11256.60162798447
 20
610.4060611609829
 30
0.0
 11
11331.60162798447
 21
610.4060611609829
 31
0.0
  0
ARC
  5
2AEA0
330
2AA0D
100
AcDbEntity
  8
YODOROGO
100
AcDbCircle
 10
11336.27206076301
 20
700.8321431073384
 30
0.0
 40
120.5166136069605
100
AcDbArc
 50
228.6181454618993
 51
245.660289248906
  0
LINE
  5
2AEA1
330
2AA0D
100
AcDbEntity
  8
YODOROGO
100
AcDbLine
 10
11289.60162798447
 20
601.4060611609833
 30
0.0
 11
11286.60162798448
 21
591.0273059512126
 31
0.0
  0
LINE
  5
2AEA2
330
2AA0D
100
AcDbEntity
  8
YODOROGO
100
AcDbLine
 10
11321.10162798447
 20
601.4060611609833
 30
0.0
 11
11289.60162798447
 21
601.4060611609833
 31
0.0
  0
LINE
  5
2AEA3
330
2AA0D
100
AcDbEntity
  8
YODOROGO
100
AcDbLine
 10
11316.60162798447
 20
581.9316459275352
 30
0.0
 11
11321.10162798447
 21
601.4060611609833
 31
0.0
  0
ARC
  5
2AEA4
330
2AA0D
100
AcDbEntity
  8
YODOROGO
100
AcDbCircle
 10
11336.27206076267
 20
700.832143107376
 30
0.0
 40
120.516613606984
100
AcDbArc
 50
260.6062929796992
 51
267.7790355655586
  0
LINE
  5
2AEA5
330
2AA0D
100
AcDbEntity
  8
YODOROGO
100
AcDbLine
 10
11331.60162798447
 20
535.4060611609821
 30
0.0
 11
11331.60162798447
 21
580.406061160983
 31
0.0
  0
LINE
  5
2AEA6
330
2AA0D
100
AcDbEntity
  8
YODOROGO
100
AcDbLine
 10
11226.60162798446
 20
555.5022505933164
 30
0.0
 11
11226.60162798446
 21
597.949158949178
 31
0.0
  0
LINE
  5
2AEA7
330
2AA0D
100
AcDbEntity
  8
YODOROGO
100
AcDbLine
 10
11331.60162798447
 20
625.406061160983
 30
0.0
 11
11231.10162798446
 21
625.406061160983
 31
0.0
  0
LINE
  5
2AEA8
330
2AA0D
100
AcDbEntity
  8
YODOROGO
100
AcDbLine
 10
11331.60162798447
 20
610.4060611609829
 30
0.0
 11
11331.60162798447
 21
625.406061160983
 31
0.0
  0
LINE
  5
2AEA9
330
2AA0D
100
AcDbEntity
  8
YODOROGO
100
AcDbLine
 10
11256.60162798447
 20
610.4060611609829
 30
0.0
 11
11331.60162798447
 21
610.4060611609829
 31
0.0
  0
ARC
  5
2AEAA
330
2AA0D
100
AcDbEntity
  8
YODOROGO
100
AcDbCircle
 10
11336.27206076301
 20
700.8321431073384
 30
0.0
 40
120.5166136069605
100
AcDbArc
 50
228.6181454618993
 51
245.660289248906
  0
LINE
  5
2AEAB
330
2AA0D
100
AcDbEntity
  8
YODOROGO
100
AcDbLine
 10
11289.60162798447
 20
601.4060611609833
 30
0.0
 11
11286.60162798448
 21
591.0273059512126
 31
0.0
  0
LINE
  5
2AEAC
330
2AA0D
100
AcDbEntity
  8
YODOROGO
100
AcDbLine
 10
11321.10162798447
 20
601.4060611609833
 30
0.0
 11
11289.60162798447
 21
601.4060611609833
 31
0.0
  0
LINE
  5
2AEAD
330
2AA0D
100
AcDbEntity
  8
YODOROGO
100
AcDbLine
 10
11316.60162798447
 20
581.9316459275352
 30
0.0
 11
11321.10162798447
 21
601.4060611609833
 31
0.0
  0
ARC
  5
2AEAE
330
2AA0D
100
AcDbEntity
  8
YODOROGO
100
AcDbCircle
 10
11336.27206076267
 20
700.832143107376
 30
0.0
 40
120.516613606984
100
AcDbArc
 50
260.6062929796992
 51
267.7790355655586
  0
LINE
  5
2AEAF
330
2AA0D
100
AcDbEntity
  8
YODOROGO
100
AcDbLine
 10
11331.60162798447
 20
535.4060611609821
 30
0.0
 11
11331.60162798447
 21
580.406061160983
 31
0.0
  0
LINE
  5
2AEB0
330
2AA0D
100
AcDbEntity
  8
YODOROGO
100
AcDbLine
 10
11226.60162798446
 20
555.5022505933164
 30
0.0
 11
11226.60162798446
 21
597.949158949178
 31
0.0
  0
LINE
  5
2AEB1
330
2AA0D
100
AcDbEntity
  8
YODOROGO
100
AcDbLine
 10
11412.60162798447
 20
590.1560611609832
 30
0.0
 11
11393.10162798446
 21
590.1560611609832
 31
0.0
  0
LINE
  5
2AEB2
330
2AA0D
100
AcDbEntity
  8
YODOROGO
100
AcDbLine
 10
11412.60162798447
 20
600.6560611609824
 30
0.0
 11
11412.60162798447
 21
590.1560611609832
 31
0.0
  0
LINE
  5
2AEB3
330
2AA0D
100
AcDbEntity
  8
YODOROGO
100
AcDbLine
 10
11393.10162798446
 20
600.6560611609824
 30
0.0
 11
11412.60162798447
 21
600.6560611609824
 31
0.0
  0
LINE
  5
2AEB4
330
2AA0D
100
AcDbEntity
  8
YODOROGO
100
AcDbLine
 10
11393.10162798446
 20
590.1560611609832
 30
0.0
 11
11393.10162798446
 21
600.6560611609824
 31
0.0
  0
LINE
  5
2AEB5
330
2AA0D
100
AcDbEntity
  8
YODOROGO
100
AcDbLine
 10
11411.10162798447
 20
591.6560611609829
 30
0.0
 11
11394.60162798447
 21
591.6560611609829
 31
0.0
  0
LINE
  5
2AEB6
330
2AA0D
100
AcDbEntity
  8
YODOROGO
100
AcDbLine
 10
11411.10162798447
 20
599.156061160983
 30
0.0
 11
11411.10162798447
 21
591.6560611609829
 31
0.0
  0
LINE
  5
2AEB7
330
2AA0D
100
AcDbEntity
  8
YODOROGO
100
AcDbLine
 10
11394.60162798447
 20
599.156061160983
 30
0.0
 11
11411.10162798447
 21
599.156061160983
 31
0.0
  0
LINE
  5
2AEB8
330
2AA0D
100
AcDbEntity
  8
YODOROGO
100
AcDbLine
 10
11394.60162798447
 20
591.6560611609829
 30
0.0
 11
11394.60162798447
 21
599.156061160983
 31
0.0
  0
LINE
  5
2AEB9
330
2AA0D
100
AcDbEntity
  8
YODOROGO
100
AcDbLine
 10
11409.60162798447
 20
593.1560611609824
 30
0.0
 11
11396.10162798446
 21
593.1560611609824
 31
0.0
  0
LINE
  5
2AEBA
330
2AA0D
100
AcDbEntity
  8
YODOROGO
100
AcDbLine
 10
11409.60162798447
 20
597.6560611609833
 30
0.0
 11
11409.60162798447
 21
593.1560611609824
 31
0.0
  0
LINE
  5
2AEBB
330
2AA0D
100
AcDbEntity
  8
YODOROGO
100
AcDbLine
 10
11396.10162798446
 20
597.6560611609833
 30
0.0
 11
11409.60162798447
 21
597.6560611609833
 31
0.0
  0
LINE
  5
2AEBC
330
2AA0D
100
AcDbEntity
  8
YODOROGO
100
AcDbLine
 10
11396.10162798446
 20
593.1560611609824
 30
0.0
 11
11396.10162798446
 21
597.6560611609833
 31
0.0
  0
LINE
  5
2AEBD
330
2AA0D
100
AcDbEntity
  8
YODOROGO
100
AcDbLine
 10
11408.10162798447
 20
594.6560611609827
 30
0.0
 11
11397.60162798447
 21
594.6560611609827
 31
0.0
  0
LINE
  5
2AEBE
330
2AA0D
100
AcDbEntity
  8
YODOROGO
100
AcDbLine
 10
11408.10162798447
 20
596.1560611609829
 30
0.0
 11
11408.10162798447
 21
594.6560611609827
 31
0.0
  0
LINE
  5
2AEBF
330
2AA0D
100
AcDbEntity
  8
YODOROGO
100
AcDbLine
 10
11397.60162798447
 20
596.1560611609829
 30
0.0
 11
11408.10162798447
 21
596.1560611609829
 31
0.0
  0
LINE
  5
2AEC0
330
2AA0D
100
AcDbEntity
  8
YODOROGO
100
AcDbLine
 10
11397.60162798447
 20
594.6560611609827
 30
0.0
 11
11397.60162798447
 21
596.1560611609829
 31
0.0
  0
LINE
  5
2AEC1
330
2AA0D
100
AcDbEntity
  8
YODOROGO
100
AcDbLine
 10
11424.60162798446
 20
610.4060611609829
 30
0.0
 11
11393.10162798446
 21
610.4060611609829
 31
0.0
  0
LINE
  5
2AEC2
330
2AA0D
100
AcDbEntity
  8
YODOROGO
100
AcDbLine
 10
11424.60162798446
 20
580.406061160983
 30
0.0
 11
11424.60162798446
 21
610.4060611609829
 31
0.0
  0
LINE
  5
2AEC3
330
2AA0D
100
AcDbEntity
  8
YODOROGO
100
AcDbLine
 10
11393.10162798446
 20
580.406061160983
 30
0.0
 11
11424.60162798446
 21
580.406061160983
 31
0.0
  0
LINE
  5
2AEC4
330
2AA0D
100
AcDbEntity
  8
YODOROGO
100
AcDbLine
 10
11393.10162798446
 20
535.4060611609829
 30
0.0
 11
11393.10162798446
 21
580.406061160983
 31
0.0
  0
LINE
  5
2AEC5
330
2AA0D
100
AcDbEntity
  8
YODOROGO
100
AcDbLine
 10
11451.60162798447
 20
535.4060611609829
 30
0.0
 11
11393.10162798446
 21
535.4060611609829
 31
0.0
  0
LINE
  5
2AEC6
330
2AA0D
100
AcDbEntity
  8
YODOROGO
100
AcDbLine
 10
11463.60162798446
 20
589.4060611609823
 30
0.0
 11
11463.60162798446
 21
599.9060611609831
 31
0.0
  0
ARC
  5
2AEC7
330
2AA0D
100
AcDbEntity
  8
YODOROGO
100
AcDbCircle
 10
11454.60162798446
 20
589.4060611609843
 30
0.0
 40
9.000000000001408
100
AcDbArc
 50
270.0
 51
359.9999999999877
  0
LINE
  5
2AEC8
330
2AA0D
100
AcDbEntity
  8
YODOROGO
100
AcDbLine
 10
11448.60162798446
 20
580.406061160983
 30
0.0
 11
11454.60162798446
 21
580.406061160983
 31
0.0
  0
LINE
  5
2AEC9
330
2AA0D
100
AcDbEntity
  8
YODOROGO
100
AcDbLine
 10
11448.60162798446
 20
610.4060611609829
 30
0.0
 11
11448.60162798446
 21
580.406061160983
 31
0.0
  0
LINE
  5
2AECA
330
2AA0D
100
AcDbEntity
  8
YODOROGO
100
AcDbLine
 10
11587.35162798447
 20
580.406061160983
 30
0.0
 11
11597.10162798446
 21
580.406061160983
 31
0.0
  0
LINE
  5
2AECB
330
2AA0D
100
AcDbEntity
  8
YODOROGO
100
AcDbLine
 10
11600.10162798446
 20
535.4060611609829
 30
0.0
 11
11587.35162798447
 21
535.4060611609829
 31
0.0
  0
LINE
  5
2AECC
330
2AA0D
100
AcDbEntity
  8
YODOROGO
100
AcDbLine
 10
11536.35162798447
 20
586.4060611609825
 30
0.0
 11
11546.85162798447
 21
586.4060611609825
 31
0.0
  0
LINE
  5
2AECD
330
2AA0D
100
AcDbEntity
  8
YODOROGO
100
AcDbLine
 10
11587.35162798447
 20
559.4060611609831
 30
0.0
 11
11521.35162798447
 21
559.4060611609831
 31
0.0
  0
LINE
  5
2AECE
330
2AA0D
100
AcDbEntity
  8
YODOROGO
100
AcDbLine
 10
11561.85162798446
 20
586.4060611609825
 30
0.0
 11
11572.35162798446
 21
586.4060611609825
 31
0.0
  0
LINE
  5
2AECF
330
2AA0D
100
AcDbEntity
  8
YODOROGO
100
AcDbLine
 10
11587.35162798447
 20
535.4060611609829
 30
0.0
 11
11587.35162798447
 21
580.406061160983
 31
0.0
  0
LINE
  5
2AED0
330
2AA0D
100
AcDbEntity
  8
YODOROGO
100
AcDbLine
 10
11511.60162798447
 20
535.4060611609829
 30
0.0
 11
11492.10162798447
 21
535.4060611609829
 31
0.0
  0
LINE
  5
2AED1
330
2AA0D
100
AcDbEntity
  8
YODOROGO
100
AcDbLine
 10
11481.60162798447
 20
599.9060611609831
 30
0.0
 11
11481.60162798447
 21
565.4060611609828
 31
0.0
  0
ARC
  5
2AED2
330
2AA0D
100
AcDbEntity
  8
YODOROGO
100
AcDbCircle
 10
11600.10162798446
 20
550.4060611609828
 30
0.0
 40
15.0
100
AcDbArc
 50
270.0
 51
0.0
  0
LINE
  5
2AED3
330
2AA0D
100
AcDbEntity
  8
YODOROGO
100
AcDbLine
 10
11660.10162798446
 20
571.4060611609824
 30
0.0
 11
11660.10162798446
 21
535.4060611609829
 31
0.0
  0
ARC
  5
2AED4
330
2AA0D
100
AcDbEntity
  8
YODOROGO
100
AcDbCircle
 10
11639.89552333754
 20
614.0742712911499
 30
0.0
 40
47.21083372187828
100
AcDbArc
 50
295.3405244216011
 51
359.1890230341867
  0
LINE
  5
2AED5
330
2AA0D
100
AcDbEntity
  8
YODOROGO
100
AcDbLine
 10
11481.60162798447
 20
697.406061160983
 30
0.0
 11
11436.60162798447
 21
727.4060611609828
 31
0.0
  0
LINE
  5
2AED6
330
2AA0D
100
AcDbEntity
  8
YODOROGO
100
AcDbLine
 10
11436.60162798447
 20
760.4060611609829
 30
0.0
 11
11481.60162798447
 21
730.4060611609828
 31
0.0
  0
LINE
  5
2AED7
330
2AA0D
100
AcDbEntity
  8
YODOROGO
100
AcDbLine
 10
11448.60162798446
 20
629.9060611609831
 30
0.0
 11
11481.60162798447
 21
629.9060611609831
 31
0.0
  0
LINE
  5
2AED8
330
2AA0D
100
AcDbEntity
  8
YODOROGO
100
AcDbLine
 10
11481.60162798447
 20
650.9060611609827
 30
0.0
 11
11448.60162798446
 21
650.9060611609827
 31
0.0
  0
LINE
  5
2AED9
330
2AA0D
100
AcDbEntity
  8
YODOROGO
100
AcDbLine
 10
11393.10162798446
 20
673.4060611609827
 30
0.0
 11
11481.60162798447
 21
673.4060611609827
 31
0.0
  0
LINE
  5
2AEDA
330
2AA0D
100
AcDbEntity
  8
YODOROGO
100
AcDbLine
 10
11280.60162798447
 20
760.4060611609829
 30
0.0
 11
11258.10162798447
 21
760.4060611609829
 31
0.0
  0
LINE
  5
2AEDB
330
2AA0D
100
AcDbEntity
  8
YODOROGO
100
AcDbLine
 10
11280.60162798447
 20
685.4060611609829
 30
0.0
 11
11280.60162798447
 21
760.4060611609829
 31
0.0
  0
LINE
  5
2AEDC
330
2AA0D
100
AcDbEntity
  8
YODOROGO
100
AcDbLine
 10
11258.10162798447
 20
685.4060611609829
 30
0.0
 11
11280.60162798447
 21
685.4060611609829
 31
0.0
  0
LINE
  5
2AEDD
330
2AA0D
100
AcDbEntity
  8
YODOROGO
100
AcDbLine
 10
11258.10162798447
 20
760.4060611609829
 30
0.0
 11
11258.10162798447
 21
685.4060611609829
 31
0.0
  0
LINE
  5
2AEDE
330
2AA0D
100
AcDbEntity
  8
YODOROGO
100
AcDbLine
 10
11310.60162798447
 20
760.4060611609829
 30
0.0
 11
11331.60162798447
 21
760.4060611609829
 31
0.0
  0
LINE
  5
2AEDF
330
2AA0D
100
AcDbEntity
  8
YODOROGO
100
AcDbLine
 10
11310.60162798447
 20
679.4060611609832
 30
0.0
 11
11310.60162798447
 21
760.4060611609829
 31
0.0
  0
ARC
  5
2AEE0
330
2AA0D
100
AcDbEntity
  8
YODOROGO
100
AcDbCircle
 10
11295.60162798447
 20
679.4060611609832
 30
0.0
 40
15.0
100
AcDbArc
 50
270.0
 51
0.0
  0
LINE
  5
2AEE1
330
2AA0D
100
AcDbEntity
  8
YODOROGO
100
AcDbLine
 10
11258.10162798447
 20
664.4060611609833
 30
0.0
 11
11295.60162798447
 21
664.4060611609833
 31
0.0
  0
LINE
  5
2AEE2
330
2AA0D
100
AcDbEntity
  8
YODOROGO
100
AcDbLine
 10
11258.10162798447
 20
640.4060611609828
 30
0.0
 11
11258.10162798447
 21
664.4060611609833
 31
0.0
  0
LINE
  5
2AEE3
330
2AA0D
100
AcDbEntity
  8
YODOROGO
100
AcDbLine
 10
11301.60162798446
 20
640.4060611609828
 30
0.0
 11
11258.10162798447
 21
640.4060611609828
 31
0.0
  0
ARC
  5
2AEE4
330
2AA0D
100
AcDbEntity
  8
YODOROGO
100
AcDbCircle
 10
11301.60162798446
 20
670.4060611609828
 30
0.0
 40
30.0
100
AcDbArc
 50
270.0
 51
0.0
  0
LINE
  5
2AEE5
330
2AA0D
100
AcDbEntity
  8
YODOROGO
100
AcDbLine
 10
11331.60162798447
 20
760.4060611609829
 30
0.0
 11
11331.60162798447
 21
670.4060611609828
 31
0.0
  0
LINE
  5
2AEE6
330
2AA0D
100
AcDbEntity
  8
YODOROGO
100
AcDbLine
 10
11241.60162798446
 20
730.4060611609828
 30
0.0
 11
11241.60162798446
 21
748.4060611609828
 31
0.0
1001
AUTOCAD_POSTSCRIPT_FIGURE
1002
{
1000
PSFILL
1000
Grayscale
1000
Grayscale
1070
    25
1002
}
  0
LINE
  5
2AEE7
330
2AA0D
100
AcDbEntity
  8
YODOROGO
100
AcDbLine
 10
11241.60162798446
 20
697.406061160983
 30
0.0
 11
11241.60162798446
 21
715.4060611609828
 31
0.0
1001
AUTOCAD_POSTSCRIPT_FIGURE
1002
{
1000
PSFILL
1000
Grayscale
1000
Grayscale
1070
    25
1002
}
  0
LINE
  5
2AEE8
330
2AA0D
100
AcDbEntity
  8
YODOROGO
100
AcDbLine
 10
11241.60162798446
 20
640.4060611609828
 30
0.0
 11
11241.60162798446
 21
682.4060611609829
 31
0.0
1001
AUTOCAD_POSTSCRIPT_FIGURE
1002
{
1000
PSFILL
1000
Grayscale
1000
Grayscale
1070
    25
1002
}
  0
LINE
  5
2AEE9
330
2AA0D
100
AcDbEntity
  8
YODOROGO
100
AcDbLine
 10
11393.10162798446
 20
715.4060611609828
 30
0.0
 11
11436.60162798447
 21
760.4060611609829
 31
0.0
  0
LINE
  5
2AEEA
330
2AA0D
100
AcDbEntity
  8
YODOROGO
100
AcDbLine
 10
11393.10162798446
 20
682.4060611609829
 30
0.0
 11
11393.10162798446
 21
715.4060611609828
 31
0.0
  0
LINE
  5
2AEEB
330
2AA0D
100
AcDbEntity
  8
YODOROGO
100
AcDbLine
 10
11436.60162798447
 20
727.4060611609828
 30
0.0
 11
11393.10162798446
 21
682.4060611609829
 31
0.0
  0
LINE
  5
2AEEC
330
2AA0D
100
AcDbEntity
  8
YODOROGO
100
AcDbLine
 10
11424.60162798446
 20
629.9060611609831
 30
0.0
 11
11424.60162798446
 21
650.9060611609827
 31
0.0
  0
LINE
  5
2AEED
330
2AA0D
100
AcDbEntity
  8
YODOROGO
100
AcDbLine
 10
11393.10162798446
 20
629.9060611609831
 30
0.0
 11
11424.60162798446
 21
629.9060611609831
 31
0.0
  0
LINE
  5
2AEEE
330
2AA0D
100
AcDbEntity
  8
YODOROGO
100
AcDbLine
 10
11448.60162798446
 20
650.9060611609827
 30
0.0
 11
11448.60162798446
 21
629.9060611609831
 31
0.0
  0
LINE
  5
2AEEF
330
2AA0D
100
AcDbEntity
  8
YODOROGO
100
AcDbLine
 10
11393.10162798446
 20
650.9060611609827
 30
0.0
 11
11393.10162798446
 21
673.4060611609827
 31
0.0
  0
LINE
  5
2AEF0
330
2AA0D
100
AcDbEntity
  8
YODOROGO
100
AcDbLine
 10
11424.60162798446
 20
650.9060611609827
 30
0.0
 11
11393.10162798446
 21
650.9060611609827
 31
0.0
  0
LINE
  5
2AEF1
330
2AA0D
100
AcDbEntity
  8
YODOROGO
100
AcDbLine
 10
11492.10162798447
 20
760.4060611609829
 30
0.0
 11
11615.10162798446
 21
760.4060611609829
 31
0.0
  0
LINE
  5
2AEF2
330
2AA0D
100
AcDbEntity
  8
YODOROGO
100
AcDbLine
 10
11597.10162798446
 20
736.4060611609825
 30
0.0
 11
11511.60162798447
 21
736.4060611609825
 31
0.0
  0
LINE
  5
2AEF3
330
2AA0D
100
AcDbEntity
  8
YODOROGO
100
AcDbLine
 10
11577.60162798447
 20
682.4060611609829
 30
0.0
 11
11587.35162798447
 21
682.4060611609829
 31
0.0
  0
LINE
  5
2AEF4
330
2AA0D
100
AcDbEntity
  8
YODOROGO
100
AcDbLine
 10
11587.35162798447
 20
727.4060611609828
 30
0.0
 11
11577.60162798447
 21
682.4060611609829
 31
0.0
  0
LINE
  5
2AEF5
330
2AA0D
100
AcDbEntity
  8
YODOROGO
100
AcDbLine
 10
11569.35162798446
 20
727.4060611609828
 30
0.0
 11
11587.35162798447
 21
727.4060611609828
 31
0.0
  0
LINE
  5
2AEF6
330
2AA0D
100
AcDbEntity
  8
YODOROGO
100
AcDbLine
 10
11559.60162798447
 20
682.4060611609829
 30
0.0
 11
11569.35162798446
 21
727.4060611609828
 31
0.0
  0
LINE
  5
2AEF7
330
2AA0D
100
AcDbEntity
  8
YODOROGO
100
AcDbLine
 10
11549.10162798447
 20
682.4060611609829
 30
0.0
 11
11559.60162798447
 21
682.4060611609829
 31
0.0
  0
LINE
  5
2AEF8
330
2AA0D
100
AcDbEntity
  8
YODOROGO
100
AcDbLine
 10
11539.35162798447
 20
727.4060611609828
 30
0.0
 11
11549.10162798447
 21
682.4060611609829
 31
0.0
  0
LINE
  5
2AEF9
330
2AA0D
100
AcDbEntity
  8
YODOROGO
100
AcDbLine
 10
11521.35162798447
 20
727.4060611609828
 30
0.0
 11
11539.35162798447
 21
727.4060611609828
 31
0.0
  0
LINE
  5
2AEFA
330
2AA0D
100
AcDbEntity
  8
YODOROGO
100
AcDbLine
 10
11531.10162798447
 20
682.4060611609829
 30
0.0
 11
11521.35162798447
 21
727.4060611609828
 31
0.0
  0
LINE
  5
2AEFB
330
2AA0D
100
AcDbEntity
  8
YODOROGO
100
AcDbLine
 10
11521.35162798447
 20
682.4060611609829
 30
0.0
 11
11531.10162798447
 21
682.4060611609829
 31
0.0
  0
LINE
  5
2AEFC
330
2AA0D
100
AcDbEntity
  8
YODOROGO
100
AcDbLine
 10
11521.35162798447
 20
658.4060611609827
 30
0.0
 11
11521.35162798447
 21
682.4060611609829
 31
0.0
  0
LINE
  5
2AEFD
330
2AA0D
100
AcDbEntity
  8
YODOROGO
100
AcDbLine
 10
11587.35162798447
 20
658.4060611609827
 30
0.0
 11
11521.35162798447
 21
658.4060611609827
 31
0.0
  0
LINE
  5
2AEFE
330
2AA0D
100
AcDbEntity
  8
YODOROGO
100
AcDbLine
 10
11587.35162798447
 20
682.4060611609829
 30
0.0
 11
11587.35162798447
 21
658.4060611609827
 31
0.0
  0
LINE
  5
2AEFF
330
2AA0D
100
AcDbEntity
  8
YODOROGO
100
AcDbLine
 10
11481.60162798447
 20
730.4060611609828
 30
0.0
 11
11481.60162798447
 21
697.406061160983
 31
0.0
  0
LINE
  5
2AF00
330
2AA0D
100
AcDbEntity
  8
YODOROGO
100
AcDbLine
 10
11546.85162798447
 20
658.4060611609827
 30
0.0
 11
11561.85162798446
 21
658.4060611609827
 31
0.0
  0
LINE
  5
2AF01
330
2AA0D
100
AcDbEntity
  8
YODOROGO
100
AcDbLine
 10
11521.35162798447
 20
634.4060611609833
 30
0.0
 11
11536.35162798447
 21
634.4060611609833
 31
0.0
  0
LINE
  5
2AF02
330
2AA0D
100
AcDbEntity
  8
YODOROGO
100
AcDbLine
 10
11572.35162798446
 20
634.4060611609833
 30
0.0
 11
11587.35162798447
 21
634.4060611609833
 31
0.0
  0
LINE
  5
2AF03
330
2AA0D
100
AcDbEntity
  8
YODOROGO
100
AcDbLine
 10
11481.60162798447
 20
673.4060611609827
 30
0.0
 11
11481.60162798447
 21
650.9060611609827
 31
0.0
  0
LINE
  5
2AF04
330
2AA0D
100
AcDbEntity
  8
YODOROGO
100
AcDbLine
 10
11687.10162798447
 20
760.4060611609829
 30
0.0
 11
11687.10162798447
 21
736.4060611609825
 31
0.0
  0
LINE
  5
2AF05
330
2AA0D
100
AcDbEntity
  8
YODOROGO
100
AcDbLine
 10
11825.10162798447
 20
598.4060611609827
 30
0.0
 11
11825.10162798446
 21
679.4060611609832
 31
0.0
  0
LINE
  5
2AF06
330
2AA0D
100
AcDbEntity
  8
YODOROGO
100
AcDbLine
 10
11798.10162798446
 20
745.4060611609828
 30
0.0
 11
11798.10162798446
 21
613.4060611609827
 31
0.0
  0
LINE
  5
2AF07
330
2AA0D
100
AcDbEntity
  8
YODOROGO
100
AcDbLine
 10
11870.10162798447
 20
535.4060611609829
 30
0.0
 11
11870.10162798446
 21
679.4060611609832
 31
0.0
  0
LINE
  5
2AF08
330
2AA0D
100
AcDbEntity
  8
YODOROGO
100
AcDbLine
 10
11846.10162798447
 20
679.4060611609832
 30
0.0
 11
11846.10162798447
 21
535.4060611609829
 31
0.0
  0
LINE
  5
2AF09
330
2AA0D
100
AcDbEntity
  8
YODOROGO
100
AcDbLine
 10
11714.10162798447
 20
598.4060611609827
 30
0.0
 11
11714.10162798447
 21
640.4060611609828
 31
0.0
  0
ARC
  5
2AF0A
330
2AA0D
100
AcDbEntity
  8
YODOROGO
100
AcDbCircle
 10
11757.71807441852
 20
602.921381733209
 30
0.0
 40
67.53466821599572
100
AcDbArc
 50
268.6284910216979
 51
356.1663845733032
  0
LINE
  5
2AF0B
330
2AA0D
100
AcDbEntity
  8
YODOROGO
100
AcDbLine
 10
11756.10162798446
 20
572.9060611609829
 30
0.0
 11
11756.10162798446
 21
535.4060611609829
 31
0.0
  0
ARC
  5
2AF0C
330
2AA0D
100
AcDbEntity
  8
YODOROGO
100
AcDbCircle
 10
11756.81927839671
 20
614.1896088816206
 30
0.0
 40
41.28978486885457
100
AcDbArc
 50
269.0041020930593
 51
358.9126445549248
  0
LINE
  5
2AF0D
330
2AA0D
100
AcDbEntity
  8
YODOROGO
100
AcDbLine
 10
11846.10162798447
 20
535.4060611609829
 30
0.0
 11
11870.10162798447
 21
535.4060611609829
 31
0.0
  0
LINE
  5
2AF0E
330
2AA0D
100
AcDbEntity
  8
YODOROGO
100
AcDbLine
 10
11825.10162798446
 20
679.4060611609832
 30
0.0
 11
11846.10162798447
 21
679.4060611609832
 31
0.0
  0
LINE
  5
2AF0F
330
2AA0D
100
AcDbEntity
  8
YODOROGO
100
AcDbLine
 10
11858.10162798446
 20
745.4060611609828
 30
0.0
 11
11798.10162798446
 21
745.4060611609828
 31
0.0
  0
LINE
  5
2AF10
330
2AA0D
100
AcDbEntity
  8
YODOROGO
100
AcDbLine
 10
11825.10162798446
 20
718.4060611609829
 30
0.0
 11
11873.10162798447
 21
718.4060611609829
 31
0.0
  0
LINE
  5
2AF11
330
2AA0D
100
AcDbEntity
  8
YODOROGO
100
AcDbLine
 10
11888.10162798447
 20
703.4060611609828
 30
0.0
 11
11825.10162798446
 21
703.4060611609828
 31
0.0
  0
LINE
  5
2AF12
330
2AA0D
100
AcDbEntity
  8
YODOROGO
100
AcDbLine
 10
11714.10162798447
 20
667.4060611609831
 30
0.0
 11
11756.10162798446
 21
667.4060611609831
 31
0.0
  0
LINE
  5
2AF13
330
2AA0D
100
AcDbEntity
  8
YODOROGO
100
AcDbLine
 10
11714.10162798447
 20
688.4060611609828
 30
0.0
 11
11714.10162798447
 21
667.4060611609831
 31
0.0
  0
LINE
  5
2AF14
330
2AA0D
100
AcDbEntity
  8
YODOROGO
100
AcDbLine
 10
11756.10162798446
 20
688.4060611609828
 30
0.0
 11
11714.10162798447
 21
688.4060611609828
 31
0.0
  0
LINE
  5
2AF15
330
2AA0D
100
AcDbEntity
  8
YODOROGO
100
AcDbLine
 10
11756.10162798446
 20
667.4060611609831
 30
0.0
 11
11756.10162798446
 21
688.4060611609828
 31
0.0
  0
LINE
  5
2AF16
330
2AA0D
100
AcDbEntity
  8
YODOROGO
100
AcDbLine
 10
11825.10162798446
 20
703.4060611609828
 30
0.0
 11
11825.10162798446
 21
718.4060611609829
 31
0.0
  0
LINE
  5
2AF17
330
2AA0D
100
AcDbEntity
  8
YODOROGO
100
AcDbLine
 10
11780.10162798446
 20
640.4060611609828
 30
0.0
 11
11780.10162798446
 21
715.4060611609828
 31
0.0
  0
LINE
  5
2AF18
330
2AA0D
100
AcDbEntity
  8
YODOROGO
100
AcDbLine
 10
11714.10162798447
 20
640.4060611609828
 30
0.0
 11
11780.10162798446
 21
640.4060611609828
 31
0.0
  0
LINE
  5
2AF19
330
2AA0D
100
AcDbEntity
  8
YODOROGO
100
AcDbLine
 10
11780.10162798446
 20
736.4060611609825
 30
0.0
 11
11780.10162798446
 21
760.4060611609829
 31
0.0
  0
ARC
  5
2AF1A
330
2AA0D
100
AcDbEntity
  8
YODOROGO
100
AcDbCircle
 10
11858.10162798446
 20
751.4060611609817
 30
0.0
 40
5.999999999997952
100
AcDbArc
 50
270.0
 51
0.0000000000081422
  0
LINE
  5
2AF1B
330
2AA0D
100
AcDbEntity
  8
YODOROGO
100
AcDbLine
 10
11864.10162798447
 20
760.4060611609829
 30
0.0
 11
11864.10162798447
 21
751.4060611609825
 31
0.0
  0
LINE
  5
2AF1C
330
2AA0D
100
AcDbEntity
  8
YODOROGO
100
AcDbLine
 10
11888.10162798447
 20
760.4060611609829
 30
0.0
 11
11864.10162798447
 21
760.4060611609829
 31
0.0
  0
LINE
  5
2AF1D
330
2AA0D
100
AcDbEntity
  8
YODOROGO
100
AcDbLine
 10
11888.10162798447
 20
733.4060611609828
 30
0.0
 11
11888.10162798447
 21
760.4060611609829
 31
0.0
  0
ARC
  5
2AF1E
330
2AA0D
100
AcDbEntity
  8
YODOROGO
100
AcDbCircle
 10
11873.10162798447
 20
733.4060611609828
 30
0.0
 40
15.0
100
AcDbArc
 50
270.0
 51
0.0
  0
LINE
  5
2AF1F
330
2AA0D
100
AcDbEntity
  8
YODOROGO
100
AcDbLine
 10
11888.10162798447
 20
679.4060611609832
 30
0.0
 11
11888.10162798447
 21
703.4060611609828
 31
0.0
  0
LINE
  5
2AF20
330
2AA0D
100
AcDbEntity
  8
YODOROGO
100
AcDbLine
 10
11870.10162798446
 20
679.4060611609832
 30
0.0
 11
11888.10162798447
 21
679.4060611609832
 31
0.0
  0
CIRCLE
  5
2AF21
330
2AA0D
100
AcDbEntity
  8
HIKIDASHI
100
AcDbCircle
 10
1549.036707340871
 20
1676.712525199588
 30
0.0
 40
9.0
  0
CIRCLE
  5
2AF22
330
2AA0D
100
AcDbEntity
  8
HIKIDASHI
100
AcDbCircle
 10
1549.036707340871
 20
1616.712525199589
 30
0.0
 40
9.0
  0
ARC
  5
2AF23
330
2AA0D
100
AcDbEntity
  8
HIKIDASHI
100
AcDbCircle
 10
1549.036707340871
 20
1616.712525199589
 30
0.0
 40
4.5
100
AcDbArc
 50
180.0
 51
0.0
  0
ARC
  5
2AF24
330
2AA0D
100
AcDbEntity
  8
HIKIDASHI
100
AcDbCircle
 10
1549.036707340871
 20
1616.712525199589
 30
0.0
 40
4.5
100
AcDbArc
 50
0.0
 51
180.0
  0
ARC
  5
2AF25
330
2AA0D
100
AcDbEntity
  8
HIKIDASHI
100
AcDbCircle
 10
1549.036707340871
 20
1676.712525199588
 30
0.0
 40
4.5
100
AcDbArc
 50
180.0
 51
0.0
  0
ARC
  5
2AF26
330
2AA0D
100
AcDbEntity
  8
HIKIDASHI
100
AcDbCircle
 10
1549.036707340871
 20
1676.712525199588
 30
0.0
 40
4.5
100
AcDbArc
 50
0.0
 51
180.0
  0
LINE
  5
2AF27
330
2AA0D
100
AcDbEntity
  8
HATCH
100
AcDbLine
 10
943.2354371516904
 20
1436.712525199586
 30
0.0
 11
1029.837977530134
 21
1586.712525199585
 31
0.0
  0
LINE
  5
2AF28
330
2AA0D
100
AcDbEntity
  8
HATCH
100
AcDbLine
 10
969.8379775301345
 20
1586.712525199584
 30
0.0
 11
999.8379775301344
 21
1534.751000972522
 31
0.0
  0
LINE
  5
2AF29
330
2AA0D
100
AcDbEntity
  8
HATCH
100
AcDbLine
 10
973.2354371516903
 20
1488.674049426653
 30
0.0
 11
1003.23543715169
 21
1436.712525199586
 31
0.0
  0
LINE
  5
2AF2A
330
2AA0D
100
AcDbEntity
  8
HATCH
100
AcDbLine
 10
1130.735437151687
 20
1436.712525199586
 30
0.0
 11
1217.337977530132
 21
1586.712525199585
 31
0.0
  0
LINE
  5
2AF2B
330
2AA0D
100
AcDbEntity
  8
HATCH
100
AcDbLine
 10
1157.337977530133
 20
1586.712525199584
 30
0.0
 11
1187.337977530133
 21
1534.751000972522
 31
0.0
  0
LINE
  5
2AF2C
330
2AA0D
100
AcDbEntity
  8
HATCH
100
AcDbLine
 10
1160.735437151687
 20
1488.674049426653
 30
0.0
 11
1190.735437151688
 21
1436.712525199586
 31
0.0
  0
LINE
  5
2AF2D
330
2AA0D
100
AcDbEntity
  8
HATCH
100
AcDbLine
 10
2068.235437151691
 20
1436.712525199588
 30
0.0
 11
2154.837977530136
 21
1586.712525199588
 31
0.0
  0
LINE
  5
2AF2E
330
2AA0D
100
AcDbEntity
  8
HATCH
100
AcDbLine
 10
2094.837977530136
 20
1586.712525199586
 30
0.0
 11
2124.837977530137
 21
1534.751000972524
 31
0.0
  0
LINE
  5
2AF2F
330
2AA0D
100
AcDbEntity
  8
HATCH
100
AcDbLine
 10
2098.235437151691
 20
1488.674049426656
 30
0.0
 11
2128.235437151691
 21
1436.712525199588
 31
0.0
  0
LINE
  5
2AF30
330
2AA0D
100
AcDbEntity
  8
HATCH
100
AcDbLine
 10
1880.735437151692
 20
1436.712525199588
 30
0.0
 11
1967.337977530136
 21
1586.712525199588
 31
0.0
  0
LINE
  5
2AF31
330
2AA0D
100
AcDbEntity
  8
HATCH
100
AcDbLine
 10
1907.337977530136
 20
1586.712525199586
 30
0.0
 11
1937.337977530136
 21
1534.751000972524
 31
0.0
  0
LINE
  5
2AF32
330
2AA0D
100
AcDbEntity
  8
HATCH
100
AcDbLine
 10
1910.735437151691
 20
1488.674049426656
 30
0.0
 11
1940.735437151692
 21
1436.712525199588
 31
0.0
  0
LINE
  5
2AF33
330
2AA0D
100
AcDbEntity
  8
HATCH
100
AcDbLine
 10
1505.73543715169
 20
1436.712525199588
 30
0.0
 11
1592.337977530134
 21
1586.712525199588
 31
0.0
  0
LINE
  5
2AF34
330
2AA0D
100
AcDbEntity
  8
HATCH
100
AcDbLine
 10
1532.337977530134
 20
1586.712525199586
 30
0.0
 11
1562.337977530134
 21
1534.751000972524
 31
0.0
  0
LINE
  5
2AF35
330
2AA0D
100
AcDbEntity
  8
HATCH
100
AcDbLine
 10
1535.73543715169
 20
1488.674049426656
 30
0.0
 11
1565.73543715169
 21
1436.712525199588
 31
0.0
  0
LINE
  5
2AF36
330
2AA0D
100
AcDbEntity
  8
HATCH
100
AcDbLine
 10
1318.235437151688
 20
1436.712525199588
 30
0.0
 11
1404.837977530132
 21
1586.712525199588
 31
0.0
  0
LINE
  5
2AF37
330
2AA0D
100
AcDbEntity
  8
HATCH
100
AcDbLine
 10
1344.837977530133
 20
1586.712525199586
 30
0.0
 11
1374.837977530133
 21
1534.751000972524
 31
0.0
  0
LINE
  5
2AF38
330
2AA0D
100
AcDbEntity
  8
HATCH
100
AcDbLine
 10
1348.235437151688
 20
1488.674049426656
 30
0.0
 11
1378.235437151688
 21
1436.712525199588
 31
0.0
  0
LINE
  5
2AF39
330
2AA0D
100
AcDbEntity
  8
HATCH
100
AcDbLine
 10
1693.23543715169
 20
1436.712525199588
 30
0.0
 11
1779.837977530133
 21
1586.712525199588
 31
0.0
  0
LINE
  5
2AF3A
330
2AA0D
100
AcDbEntity
  8
HATCH
100
AcDbLine
 10
1719.837977530134
 20
1586.712525199586
 30
0.0
 11
1749.837977530134
 21
1534.751000972524
 31
0.0
  0
LINE
  5
2AF3B
330
2AA0D
100
AcDbEntity
  8
HATCH
100
AcDbLine
 10
1723.23543715169
 20
1488.674049426656
 30
0.0
 11
1753.23543715169
 21
1436.712525199588
 31
0.0
  0
LINE
  5
2AF3C
330
2AA0D
100
AcDbEntity
  8
HATCH
100
AcDbLine
 10
3409.575183113921
 20
2111.712525199592
 30
0.0
 11
3461.53670734103
 21
2201.712525199669
 31
0.0
  0
LINE
  5
2AF3D
330
2AA0D
100
AcDbEntity
  8
HATCH
100
AcDbLine
 10
3425.536707341001
 20
2201.712525199669
 30
0.0
 11
3443.536707341016
 21
2170.535610663404
 31
0.0
  0
LINE
  5
2AF3E
330
2AA0D
100
AcDbEntity
  8
HATCH
100
AcDbLine
 10
3427.575183113936
 20
2142.889439735859
 30
0.0
 11
3445.57518311395
 21
2111.712525199592
 31
0.0
  0
LINE
  5
2AF3F
330
2AA0D
100
AcDbEntity
  8
HATCH
100
AcDbLine
 10
3274.575183113917
 20
2111.712525199592
 30
0.0
 11
3326.536707341027
 21
2201.712525199669
 31
0.0
  0
LINE
  5
2AF40
330
2AA0D
100
AcDbEntity
  8
HATCH
100
AcDbLine
 10
3290.536707340997
 20
2201.712525199669
 30
0.0
 11
3308.536707341012
 21
2170.535610663404
 31
0.0
  0
LINE
  5
2AF41
330
2AA0D
100
AcDbEntity
  8
HATCH
100
AcDbLine
 10
3292.575183113932
 20
2142.889439735859
 30
0.0
 11
3310.575183113947
 21
2111.712525199592
 31
0.0
  0
LINE
  5
2AF42
330
2AA0D
100
AcDbEntity
  8
HATCH
100
AcDbLine
 10
3139.575183113919
 20
2111.712525199592
 30
0.0
 11
3191.536707341031
 21
2201.712525199669
 31
0.0
  0
LINE
  5
2AF43
330
2AA0D
100
AcDbEntity
  8
HATCH
100
AcDbLine
 10
3155.536707341001
 20
2201.712525199669
 30
0.0
 11
3173.536707341016
 21
2170.535610663404
 31
0.0
  0
LINE
  5
2AF44
330
2AA0D
100
AcDbEntity
  8
HATCH
100
AcDbLine
 10
3157.575183113936
 20
2142.889439735859
 30
0.0
 11
3175.57518311395
 21
2111.712525199592
 31
0.0
  0
LINE
  5
2AF45
330
2AA0D
100
AcDbEntity
  8
HATCH
100
AcDbLine
 10
3004.575183113919
 20
2111.71252519959
 30
0.0
 11
3056.536707341031
 21
2201.712525199669
 31
0.0
  0
LINE
  5
2AF46
330
2AA0D
100
AcDbEntity
  8
HATCH
100
AcDbLine
 10
3020.536707340999
 20
2201.712525199668
 30
0.0
 11
3038.536707341016
 21
2170.535610663403
 31
0.0
  0
LINE
  5
2AF47
330
2AA0D
100
AcDbEntity
  8
HATCH
100
AcDbLine
 10
3022.575183113936
 20
2142.889439735859
 30
0.0
 11
3040.575183113951
 21
2111.71252519959
 31
0.0
  0
LINE
  5
2AF48
330
2AA0D
100
AcDbEntity
  8
HATCH
100
AcDbLine
 10
2734.57518311392
 20
2111.71252519959
 30
0.0
 11
2786.53670734103
 21
2201.712525199669
 31
0.0
  0
LINE
  5
2AF49
330
2AA0D
100
AcDbEntity
  8
HATCH
100
AcDbLine
 10
2750.536707341
 20
2201.712525199668
 30
0.0
 11
2768.536707341016
 21
2170.535610663403
 31
0.0
  0
LINE
  5
2AF4A
330
2AA0D
100
AcDbEntity
  8
HATCH
100
AcDbLine
 10
2752.575183113936
 20
2142.889439735859
 30
0.0
 11
2770.575183113951
 21
2111.71252519959
 31
0.0
  0
LINE
  5
2AF4B
330
2AA0D
100
AcDbEntity
  8
HATCH
100
AcDbLine
 10
2464.57518311392
 20
2111.71252519959
 30
0.0
 11
2516.53670734103
 21
2201.712525199669
 31
0.0
  0
LINE
  5
2AF4C
330
2AA0D
100
AcDbEntity
  8
HATCH
100
AcDbLine
 10
2480.536707341001
 20
2201.712525199668
 30
0.0
 11
2498.536707341016
 21
2170.535610663403
 31
0.0
  0
LINE
  5
2AF4D
330
2AA0D
100
AcDbEntity
  8
HATCH
100
AcDbLine
 10
2482.575183113936
 20
2142.889439735859
 30
0.0
 11
2500.575183113951
 21
2111.71252519959
 31
0.0
  0
LINE
  5
2AF4E
330
2AA0D
100
AcDbEntity
  8
HATCH
100
AcDbLine
 10
2599.57518311392
 20
2111.712525199592
 30
0.0
 11
2651.536707341032
 21
2201.712525199669
 31
0.0
  0
LINE
  5
2AF4F
330
2AA0D
100
AcDbEntity
  8
HATCH
100
AcDbLine
 10
2615.536707341
 20
2201.712525199669
 30
0.0
 11
2633.536707341016
 21
2170.535610663404
 31
0.0
  0
LINE
  5
2AF50
330
2AA0D
100
AcDbEntity
  8
HATCH
100
AcDbLine
 10
2617.575183113935
 20
2142.889439735859
 30
0.0
 11
2635.575183113951
 21
2111.712525199592
 31
0.0
  0
LINE
  5
2AF51
330
2AA0D
100
AcDbEntity
  8
HATCH
100
AcDbLine
 10
2194.57518311392
 20
2111.71252519959
 30
0.0
 11
2246.536707341031
 21
2201.712525199669
 31
0.0
  0
LINE
  5
2AF52
330
2AA0D
100
AcDbEntity
  8
HATCH
100
AcDbLine
 10
2210.536707341
 20
2201.712525199668
 30
0.0
 11
2228.536707341016
 21
2170.535610663403
 31
0.0
  0
LINE
  5
2AF53
330
2AA0D
100
AcDbEntity
  8
HATCH
100
AcDbLine
 10
2212.575183113935
 20
2142.889439735859
 30
0.0
 11
2230.575183113951
 21
2111.71252519959
 31
0.0
  0
LINE
  5
2AF54
330
2AA0D
100
AcDbEntity
  8
HATCH
100
AcDbLine
 10
2074.036707340987
 20
2111.71252519959
 30
0.0
 11
2125.998231568098
 21
2201.712525199669
 31
0.0
  0
LINE
  5
2AF55
330
2AA0D
100
AcDbEntity
  8
HATCH
100
AcDbLine
 10
2089.998231568066
 20
2201.712525199668
 30
0.0
 11
2107.998231568081
 21
2170.535610663403
 31
0.0
  0
LINE
  5
2AF56
330
2AA0D
100
AcDbEntity
  8
HATCH
100
AcDbLine
 10
2092.036707341001
 20
2142.889439735859
 30
0.0
 11
2110.036707341018
 21
2111.71252519959
 31
0.0
  0
LINE
  5
2AF57
330
2AA0D
100
AcDbEntity
  8
HATCH
100
AcDbLine
 10
2329.57518311392
 20
2111.71252519959
 30
0.0
 11
2381.53670734103
 21
2201.712525199669
 31
0.0
  0
LINE
  5
2AF58
330
2AA0D
100
AcDbEntity
  8
HATCH
100
AcDbLine
 10
2345.536707341
 20
2201.712525199668
 30
0.0
 11
2363.536707341016
 21
2170.535610663403
 31
0.0
  0
LINE
  5
2AF59
330
2AA0D
100
AcDbEntity
  8
HATCH
100
AcDbLine
 10
2347.575183113935
 20
2142.889439735859
 30
0.0
 11
2365.575183113951
 21
2111.71252519959
 31
0.0
  0
LINE
  5
2AF5A
330
2AA0D
100
AcDbEntity
  8
HATCH
100
AcDbLine
 10
956.5367073409829
 20
2111.712525199588
 30
0.0
 11
1008.498231568094
 21
2201.712525199664
 31
0.0
  0
LINE
  5
2AF5B
330
2AA0D
100
AcDbEntity
  8
HATCH
100
AcDbLine
 10
972.4982315680632
 20
2201.712525199664
 30
0.0
 11
990.4982315680785
 21
2170.535610663399
 31
0.0
  0
LINE
  5
2AF5C
330
2AA0D
100
AcDbEntity
  8
HATCH
100
AcDbLine
 10
974.5367073409983
 20
2142.889439735855
 30
0.0
 11
992.5367073410138
 21
2111.712525199588
 31
0.0
  0
LINE
  5
2AF5D
330
2AA0D
100
AcDbEntity
  8
HATCH
100
AcDbLine
 10
2869.575183113919
 20
2111.712525199592
 30
0.0
 11
2921.536707341032
 21
2201.712525199669
 31
0.0
  0
LINE
  5
2AF5E
330
2AA0D
100
AcDbEntity
  8
HATCH
100
AcDbLine
 10
2885.536707341
 20
2201.712525199669
 30
0.0
 11
2903.536707341016
 21
2170.535610663404
 31
0.0
  0
LINE
  5
2AF5F
330
2AA0D
100
AcDbEntity
  8
HATCH
100
AcDbLine
 10
2887.575183113936
 20
2142.889439735859
 30
0.0
 11
2905.575183113951
 21
2111.712525199592
 31
0.0
  0
LINE
  5
2AF60
330
2AA0D
100
AcDbEntity
  8
HATCH
100
AcDbLine
 10
821.5367073409828
 20
2111.712525199588
 30
0.0
 11
873.4982315680941
 21
2201.712525199664
 31
0.0
  0
LINE
  5
2AF61
330
2AA0D
100
AcDbEntity
  8
HATCH
100
AcDbLine
 10
837.4982315680631
 20
2201.712525199664
 30
0.0
 11
855.4982315680787
 21
2170.535610663399
 31
0.0
  0
LINE
  5
2AF62
330
2AA0D
100
AcDbEntity
  8
HATCH
100
AcDbLine
 10
839.5367073409984
 20
2142.889439735855
 30
0.0
 11
857.5367073410138
 21
2111.712525199588
 31
0.0
  0
LINE
  5
2AF63
330
2AA0D
100
AcDbEntity
  8
HATCH
100
AcDbLine
 10
686.5367073409828
 20
2111.712525199588
 30
0.0
 11
738.4982315680938
 21
2201.712525199664
 31
0.0
  0
LINE
  5
2AF64
330
2AA0D
100
AcDbEntity
  8
HATCH
100
AcDbLine
 10
702.4982315680631
 20
2201.712525199664
 30
0.0
 11
720.4982315680784
 21
2170.535610663399
 31
0.0
  0
LINE
  5
2AF65
330
2AA0D
100
AcDbEntity
  8
HATCH
100
AcDbLine
 10
704.5367073409984
 20
2142.889439735855
 30
0.0
 11
722.5367073410137
 21
2111.712525199588
 31
0.0
  0
LINE
  5
2AF66
330
2AA0D
100
AcDbEntity
  8
HASHIRA
  6
Continuous
100
AcDbLine
 10
3332.840641334933
 20
6662.627478609064
 30
0.0
 11
3267.840641334935
 21
6662.627478609064
 31
0.0
  0
LINE
  5
2AF67
330
2AA0D
100
AcDbEntity
  8
HASHIRA
  6
Continuous
100
AcDbLine
 10
3267.840641334935
 20
6662.627478609064
 30
0.0
 11
3267.840641334935
 21
6737.627478609063
 31
0.0
  0
LINE
  5
2AF68
330
2AA0D
100
AcDbEntity
  8
HASHIRA
  6
Continuous
100
AcDbLine
 10
3267.840641334935
 20
6737.627478609063
 30
0.0
 11
3332.840641334933
 21
6737.627478609063
 31
0.0
  0
LINE
  5
2AF69
330
2AA0D
100
AcDbEntity
  8
HASHIRA
  6
Continuous
100
AcDbLine
 10
3332.840641334933
 20
6737.627478609063
 30
0.0
 11
3332.840641334933
 21
6662.627478609064
 31
0.0
  0
LINE
  5
2AF6A
330
2AA0D
100
AcDbEntity
  8
U2
100
AcDbLine
 10
2950.340641334933
 20
6350.127478609064
 30
0.0
 11
3650.340641334933
 21
6350.127478609064
 31
0.0
  0
LINE
  5
2AF6B
330
2AA0D
100
AcDbEntity
  8
U2
100
AcDbLine
 10
3650.340641334933
 20
6350.127478609064
 30
0.0
 11
3650.340641334933
 21
7050.127478609063
 31
0.0
  0
LINE
  5
2AF6C
330
2AA0D
100
AcDbEntity
  8
U2
100
AcDbLine
 10
3650.340641334933
 20
7050.127478609063
 30
0.0
 11
2950.340641334933
 21
7050.127478609063
 31
0.0
  0
LINE
  5
2AF6D
330
2AA0D
100
AcDbEntity
  8
U2
100
AcDbLine
 10
2950.340641334933
 20
7050.127478609063
 30
0.0
 11
2950.340641334933
 21
6350.127478609064
 31
0.0
  0
LINE
  5
2AF6E
330
2AA0D
100
AcDbEntity
  8
HASHIRA
  6
Continuous
100
AcDbLine
 10
3332.840641334933
 20
4602.627478609064
 30
0.0
 11
3267.840641334935
 21
4602.627478609064
 31
0.0
  0
LINE
  5
2AF6F
330
2AA0D
100
AcDbEntity
  8
HASHIRA
  6
Continuous
100
AcDbLine
 10
3267.840641334935
 20
4602.627478609064
 30
0.0
 11
3267.840641334935
 21
4677.627478609063
 31
0.0
  0
LINE
  5
2AF70
330
2AA0D
100
AcDbEntity
  8
HASHIRA
  6
Continuous
100
AcDbLine
 10
3267.840641334935
 20
4677.627478609063
 30
0.0
 11
3332.840641334933
 21
4677.627478609063
 31
0.0
  0
LINE
  5
2AF71
330
2AA0D
100
AcDbEntity
  8
HASHIRA
  6
Continuous
100
AcDbLine
 10
3332.840641334933
 20
4677.627478609063
 30
0.0
 11
3332.840641334933
 21
4602.627478609064
 31
0.0
  0
LINE
  5
2AF72
330
2AA0D
100
AcDbEntity
  8
U2
100
AcDbLine
 10
2950.340641334933
 20
4290.127478609064
 30
0.0
 11
3650.340641334933
 21
4290.127478609064
 31
0.0
  0
LINE
  5
2AF73
330
2AA0D
100
AcDbEntity
  8
U2
100
AcDbLine
 10
3650.340641334933
 20
4290.127478609064
 30
0.0
 11
3650.340641334933
 21
4990.127478609064
 31
0.0
  0
LINE
  5
2AF74
330
2AA0D
100
AcDbEntity
  8
U2
100
AcDbLine
 10
3650.340641334933
 20
4990.127478609064
 30
0.0
 11
2950.340641334933
 21
4990.127478609064
 31
0.0
  0
LINE
  5
2AF75
330
2AA0D
100
AcDbEntity
  8
U2
100
AcDbLine
 10
2950.340641334933
 20
4990.127478609064
 30
0.0
 11
2950.340641334933
 21
4290.127478609064
 31
0.0
  0
LINE
  5
2AF76
330
2AA0D
100
AcDbEntity
  8
HASHIRA
  6
Continuous
100
AcDbLine
 10
5782.840641334935
 20
6662.627478609064
 30
0.0
 11
5717.840641334936
 21
6662.627478609064
 31
0.0
  0
LINE
  5
2AF77
330
2AA0D
100
AcDbEntity
  8
HASHIRA
  6
Continuous
100
AcDbLine
 10
5717.840641334936
 20
6662.627478609064
 30
0.0
 11
5717.840641334936
 21
6737.627478609063
 31
0.0
  0
LINE
  5
2AF78
330
2AA0D
100
AcDbEntity
  8
HASHIRA
  6
Continuous
100
AcDbLine
 10
5717.840641334936
 20
6737.627478609063
 30
0.0
 11
5782.840641334935
 21
6737.627478609063
 31
0.0
  0
LINE
  5
2AF79
330
2AA0D
100
AcDbEntity
  8
HASHIRA
  6
Continuous
100
AcDbLine
 10
5782.840641334935
 20
6737.627478609063
 30
0.0
 11
5782.840641334935
 21
6662.627478609064
 31
0.0
  0
LINE
  5
2AF7A
330
2AA0D
100
AcDbEntity
  8
U2
100
AcDbLine
 10
5400.340641334936
 20
6350.127478609064
 30
0.0
 11
6100.340641334937
 21
6350.127478609064
 31
0.0
  0
LINE
  5
2AF7B
330
2AA0D
100
AcDbEntity
  8
U2
100
AcDbLine
 10
6100.340641334937
 20
6350.127478609064
 30
0.0
 11
6100.340641334937
 21
7050.127478609063
 31
0.0
  0
LINE
  5
2AF7C
330
2AA0D
100
AcDbEntity
  8
U2
100
AcDbLine
 10
6100.340641334937
 20
7050.127478609063
 30
0.0
 11
5400.340641334936
 21
7050.127478609063
 31
0.0
  0
LINE
  5
2AF7D
330
2AA0D
100
AcDbEntity
  8
U2
100
AcDbLine
 10
5400.340641334936
 20
7050.127478609063
 30
0.0
 11
5400.340641334936
 21
6350.127478609064
 31
0.0
  0
LINE
  5
2AF7E
330
2AA0D
100
AcDbEntity
  8
HASHIRA
  6
Continuous
100
AcDbLine
 10
5782.840641334935
 20
4602.627478609064
 30
0.0
 11
5717.840641334936
 21
4602.627478609064
 31
0.0
  0
LINE
  5
2AF7F
330
2AA0D
100
AcDbEntity
  8
HASHIRA
  6
Continuous
100
AcDbLine
 10
5717.840641334936
 20
4602.627478609064
 30
0.0
 11
5717.840641334936
 21
4677.627478609063
 31
0.0
  0
LINE
  5
2AF80
330
2AA0D
100
AcDbEntity
  8
HASHIRA
  6
Continuous
100
AcDbLine
 10
5717.840641334936
 20
4677.627478609063
 30
0.0
 11
5782.840641334935
 21
4677.627478609063
 31
0.0
  0
LINE
  5
2AF81
330
2AA0D
100
AcDbEntity
  8
HASHIRA
  6
Continuous
100
AcDbLine
 10
5782.840641334935
 20
4677.627478609063
 30
0.0
 11
5782.840641334935
 21
4602.627478609064
 31
0.0
  0
LINE
  5
2AF82
330
2AA0D
100
AcDbEntity
  8
U2
100
AcDbLine
 10
5400.340641334936
 20
4290.127478609064
 30
0.0
 11
6100.340641334937
 21
4290.127478609064
 31
0.0
  0
LINE
  5
2AF83
330
2AA0D
100
AcDbEntity
  8
U2
100
AcDbLine
 10
6100.340641334937
 20
4290.127478609064
 30
0.0
 11
6100.340641334937
 21
4990.127478609064
 31
0.0
  0
LINE
  5
2AF84
330
2AA0D
100
AcDbEntity
  8
U2
100
AcDbLine
 10
6100.340641334937
 20
4990.127478609064
 30
0.0
 11
5400.340641334936
 21
4990.127478609064
 31
0.0
  0
LINE
  5
2AF85
330
2AA0D
100
AcDbEntity
  8
U2
100
AcDbLine
 10
5400.340641334936
 20
4990.127478609064
 30
0.0
 11
5400.340641334936
 21
4290.127478609064
 31
0.0
  0
LINE
  5
2AF86
330
2AA0D
100
AcDbEntity
  8
HASHIRA
  6
Continuous
100
AcDbLine
 10
7482.840641334934
 20
6662.627478609064
 30
0.0
 11
7417.840641334937
 21
6662.627478609064
 31
0.0
  0
LINE
  5
2AF87
330
2AA0D
100
AcDbEntity
  8
HASHIRA
  6
Continuous
100
AcDbLine
 10
7417.840641334937
 20
6662.627478609064
 30
0.0
 11
7417.840641334937
 21
6737.627478609063
 31
0.0
  0
LINE
  5
2AF88
330
2AA0D
100
AcDbEntity
  8
HASHIRA
  6
Continuous
100
AcDbLine
 10
7417.840641334937
 20
6737.627478609063
 30
0.0
 11
7482.840641334934
 21
6737.627478609063
 31
0.0
  0
LINE
  5
2AF89
330
2AA0D
100
AcDbEntity
  8
HASHIRA
  6
Continuous
100
AcDbLine
 10
7482.840641334934
 20
6737.627478609063
 30
0.0
 11
7482.840641334934
 21
6662.627478609064
 31
0.0
  0
LINE
  5
2AF8A
330
2AA0D
100
AcDbEntity
  8
HASHIRA
  6
Continuous
100
AcDbLine
 10
7482.840641334934
 20
4602.627478609064
 30
0.0
 11
7417.840641334937
 21
4602.627478609064
 31
0.0
  0
LINE
  5
2AF8B
330
2AA0D
100
AcDbEntity
  8
HASHIRA
  6
Continuous
100
AcDbLine
 10
7417.840641334937
 20
4602.627478609064
 30
0.0
 11
7417.840641334937
 21
4677.627478609063
 31
0.0
  0
LINE
  5
2AF8C
330
2AA0D
100
AcDbEntity
  8
HASHIRA
  6
Continuous
100
AcDbLine
 10
7417.840641334937
 20
4677.627478609063
 30
0.0
 11
7482.840641334934
 21
4677.627478609063
 31
0.0
  0
LINE
  5
2AF8D
330
2AA0D
100
AcDbEntity
  8
HASHIRA
  6
Continuous
100
AcDbLine
 10
7482.840641334934
 20
4677.627478609063
 30
0.0
 11
7482.840641334934
 21
4602.627478609064
 31
0.0
  0
LINE
  5
2AF8E
330
2AA0D
100
AcDbEntity
  8
U2
100
AcDbLine
 10
7100.340641334935
 20
4290.127478609064
 30
0.0
 11
7800.340641334933
 21
4290.127478609064
 31
0.0
  0
LINE
  5
2AF8F
330
2AA0D
100
AcDbEntity
  8
U2
100
AcDbLine
 10
7800.340641334933
 20
4290.127478609064
 30
0.0
 11
7800.340641334933
 21
4990.127478609064
 31
0.0
  0
LINE
  5
2AF90
330
2AA0D
100
AcDbEntity
  8
U2
100
AcDbLine
 10
7800.340641334933
 20
4990.127478609064
 30
0.0
 11
7100.340641334935
 21
4990.127478609064
 31
0.0
  0
LINE
  5
2AF91
330
2AA0D
100
AcDbEntity
  8
U2
100
AcDbLine
 10
7100.340641334935
 20
4990.127478609064
 30
0.0
 11
7100.340641334935
 21
4290.127478609064
 31
0.0
  0
LINE
  5
2AF92
330
2AA0D
100
AcDbEntity
  8
U2
100
AcDbLine
 10
7100.340641334935
 20
6350.127478609064
 30
0.0
 11
7800.340641334933
 21
6350.127478609064
 31
0.0
  0
LINE
  5
2AF93
330
2AA0D
100
AcDbEntity
  8
U2
100
AcDbLine
 10
7800.340641334933
 20
6350.127478609064
 30
0.0
 11
7800.340641334933
 21
7050.127478609063
 31
0.0
  0
LINE
  5
2AF94
330
2AA0D
100
AcDbEntity
  8
U2
100
AcDbLine
 10
7800.340641334933
 20
7050.127478609063
 30
0.0
 11
7100.340641334935
 21
7050.127478609063
 31
0.0
  0
LINE
  5
2AF95
330
2AA0D
100
AcDbEntity
  8
U2
100
AcDbLine
 10
7100.340641334935
 20
7050.127478609063
 30
0.0
 11
7100.340641334935
 21
6350.127478609064
 31
0.0
  0
LINE
  5
2AF96
330
2AA0D
100
AcDbEntity
  8
HASHIRA
  6
Continuous
100
AcDbLine
 10
9932.840641334935
 20
6662.627478609064
 30
0.0
 11
9867.840641334936
 21
6662.627478609064
 31
0.0
  0
LINE
  5
2AF97
330
2AA0D
100
AcDbEntity
  8
HASHIRA
  6
Continuous
100
AcDbLine
 10
9867.840641334936
 20
6662.627478609064
 30
0.0
 11
9867.840641334936
 21
6737.627478609063
 31
0.0
  0
LINE
  5
2AF98
330
2AA0D
100
AcDbEntity
  8
HASHIRA
  6
Continuous
100
AcDbLine
 10
9867.840641334936
 20
6737.627478609063
 30
0.0
 11
9932.840641334935
 21
6737.627478609063
 31
0.0
  0
LINE
  5
2AF99
330
2AA0D
100
AcDbEntity
  8
HASHIRA
  6
Continuous
100
AcDbLine
 10
9932.840641334935
 20
6737.627478609063
 30
0.0
 11
9932.840641334935
 21
6662.627478609064
 31
0.0
  0
LINE
  5
2AF9A
330
2AA0D
100
AcDbEntity
  8
U2
100
AcDbLine
 10
9550.340641334935
 20
6350.127478609064
 30
0.0
 11
10250.34064133492
 21
6350.127478609064
 31
0.0
  0
LINE
  5
2AF9B
330
2AA0D
100
AcDbEntity
  8
U2
100
AcDbLine
 10
10250.34064133492
 20
6350.127478609064
 30
0.0
 11
10250.34064133492
 21
7050.127478609063
 31
0.0
  0
LINE
  5
2AF9C
330
2AA0D
100
AcDbEntity
  8
U2
100
AcDbLine
 10
10250.34064133492
 20
7050.127478609063
 30
0.0
 11
9550.340641334935
 21
7050.127478609063
 31
0.0
  0
LINE
  5
2AF9D
330
2AA0D
100
AcDbEntity
  8
U2
100
AcDbLine
 10
9550.340641334935
 20
7050.127478609063
 30
0.0
 11
9550.340641334935
 21
6350.127478609064
 31
0.0
  0
LINE
  5
2AF9E
330
2AA0D
100
AcDbEntity
  8
HASHIRA
  6
Continuous
100
AcDbLine
 10
9932.840641334935
 20
4602.627478609064
 30
0.0
 11
9867.840641334936
 21
4602.627478609064
 31
0.0
  0
LINE
  5
2AF9F
330
2AA0D
100
AcDbEntity
  8
HASHIRA
  6
Continuous
100
AcDbLine
 10
9867.840641334936
 20
4602.627478609064
 30
0.0
 11
9867.840641334936
 21
4677.627478609063
 31
0.0
  0
LINE
  5
2AFA0
330
2AA0D
100
AcDbEntity
  8
HASHIRA
  6
Continuous
100
AcDbLine
 10
9867.840641334936
 20
4677.627478609063
 30
0.0
 11
9932.840641334935
 21
4677.627478609063
 31
0.0
  0
LINE
  5
2AFA1
330
2AA0D
100
AcDbEntity
  8
HASHIRA
  6
Continuous
100
AcDbLine
 10
9932.840641334935
 20
4677.627478609063
 30
0.0
 11
9932.840641334935
 21
4602.627478609064
 31
0.0
  0
LINE
  5
2AFA2
330
2AA0D
100
AcDbEntity
  8
U2
100
AcDbLine
 10
9550.340641334935
 20
4290.127478609064
 30
0.0
 11
10250.34064133492
 21
4290.127478609064
 31
0.0
  0
LINE
  5
2AFA3
330
2AA0D
100
AcDbEntity
  8
U2
100
AcDbLine
 10
10250.34064133492
 20
4290.127478609064
 30
0.0
 11
10250.34064133492
 21
4990.127478609064
 31
0.0
  0
LINE
  5
2AFA4
330
2AA0D
100
AcDbEntity
  8
U2
100
AcDbLine
 10
10250.34064133492
 20
4990.127478609064
 30
0.0
 11
9550.340641334935
 21
4990.127478609064
 31
0.0
  0
LINE
  5
2AFA5
330
2AA0D
100
AcDbEntity
  8
U2
100
AcDbLine
 10
9550.340641334935
 20
4990.127478609064
 30
0.0
 11
9550.340641334935
 21
4290.127478609064
 31
0.0
  0
TEXT
  5
2AFC7
330
2AA0D
100
AcDbEntity
  8
SUNPOU
100
AcDbText
 10
4780.163440361939
 20
1124.63821540915
 30
0.0
 40
89.9993750043402
  1
34 m/s
 41
0.6700000000000001
  7
01
100
AcDbText
  0
TEXT
  5
2AFC8
330
2AA0D
100
AcDbEntity
  8
SUNPOU
100
AcDbText
 10
4670.658419121849
 20
1278.923929694863
 30
0.0
 40
89.9993750043402
  1
50  N/m
 41
0.6700000000000001
  7
01
100
AcDbText
  0
TEXT
  5
2AFC9
330
2AA0D
100
AcDbEntity
  8
SUNPOU
100
AcDbText
 10
4941.039693795556
 20
1722.147176564496
 30
0.0
 40
92.30769230769228
  1
（ S = 　　  ）
 41
0.6700000000000001
  7
00
 11
4941.039693795556
 21
1709.839484256803
 31
0.0
100
AcDbText
 73
     1
  0
TEXT
  5
2AFCA
330
2AA0D
100
AcDbEntity
  8
SUNPOU
100
AcDbText
 10
4296.400011696777
 20
1124.63821540915
 30
0.0
 40
89.9993750043402
  1
基準風速   　　 , 地表面粗度区分
  7
01
100
AcDbText
  0
TEXT
  5
2AFCB
330
2AA0D
100
AcDbEntity
  8
SUNPOU
100
AcDbText
 10
4605.386234588666
 20
781.0997017389106
 30
0.0
 40
90.0
  1
あわせて設計して下さい。
  7
01
100
AcDbText
  0
TEXT
  5
2AFCC
330
2AA0D
100
AcDbEntity
  8
SUNPOU
100
AcDbText
 10
4296.400011696777
 20
1278.923929694863
 30
0.0
 40
89.9993750043402
  1
地耐力   　　　 以上,コンクリート設計基準強度　　　　　以上
  7
01
100
AcDbText
  0
TEXT
  5
2AFCD
330
2AA0D
100
AcDbEntity
  8
SUNPOU
100
AcDbText
 10
4605.386234588666
 20
935.3854160246287
 30
0.0
 40
90.0
  1
寒冷地の場合、凍結深度等を考慮し、実情に
  7
01
100
AcDbText
  0
TEXT
  5
2AFCE
330
2AA0D
100
AcDbEntity
  8
SUNPOU
100
AcDbText
 10
4605.386234588666
 20
626.8139874531996
 30
0.0
 40
90.0
  1
その他現地の実情にあわせて設計して下さい。
  7
01
100
AcDbText
  0
TEXT
  5
2AFCF
330
2AA0D
100
AcDbEntity
  8
SUNPOU
100
AcDbText
 10
4165.836382980543
 20
1468.177932140818
 30
0.0
 40
90.0
  1
<下記条件での参考図>
  7
01
 72
     4
 11
4754.693525837686
 21
1513.177932140818
 31
0.0
100
AcDbText
  0
TEXT
  5
2AFD0
330
2AA0D
100
AcDbEntity
  8
SUNPOU
100
AcDbText
 10
4806.4948719078
 20
1278.923929694863
 30
0.0
 40
71.99950000347218
  1
K
 41
0.6700000000000001
  7
01
100
AcDbText
  0
ARC
  5
2AFD1
330
2AA0D
100
AcDbEntity
  8
SUNPOU
100
AcDbCircle
 10
4449.358285603976
 20
1242.711353136695
 30
0.0
 40
225.0
100
AcDbArc
 50
148.3472725282761
 51
211.6527274717238
  0
TEXT
  5
2AFD2
330
2AA0D
100
AcDbEntity
  8
SUNPOU
100
AcDbText
 10
4288.54656928653
 20
935.3854160246287
 30
0.0
 40
90.0
  1
注　）
  7
01
100
AcDbText
  0
TEXT
  5
2AFD3
330
2AA0D
100
AcDbEntity
  8
SUNPOU
100
AcDbText
 10
4399.180489499268
 20
935.3854160246287
 30
0.0
 40
90.0
  1
1
 41
0.6700000000000001
  7
01
100
AcDbText
  0
TEXT
  5
2AFD4
330
2AA0D
100
AcDbEntity
  8
SUNPOU
100
AcDbText
 10
4288.54656928653
 20
626.8139874531996
 30
0.0
 40
90.0
  1
注　）
  7
01
100
AcDbText
  0
TEXT
  5
2AFD5
330
2AA0D
100
AcDbEntity
  8
SUNPOU
100
AcDbText
 10
4399.180489499268
 20
626.8139874531996
 30
0.0
 40
90.0
  1
2
 41
0.6700000000000001
  7
01
100
AcDbText
  0
TEXT
  5
2AFD6
330
2AA0D
100
AcDbEntity
  8
SUNPOU
100
AcDbText
 10
4224.189356432582
 20
1709.839484256802
 30
0.0
 40
120.0
  1
基礎断面図
  7
01
 72
     4
 11
4564.189356432581
 21
1769.839484256802
 31
0.0
100
AcDbText
  0
TEXT
  5
2AFD7
330
2AA0D
100
AcDbEntity
  8
SUNPOU
100
AcDbText
 10
6851.246942769439
 20
1278.923929694863
 30
0.0
 40
89.9993750043402
  1
N/mm
 41
0.6700000000000001
  7
01
100
AcDbText
  0
TEXT
  5
2AFD8
330
2AA0D
100
AcDbEntity
  8
SUNPOU
100
AcDbText
 10
5074.135028636198
 20
1329.112356052349
 30
0.0
 40
46.28539285937498
  1
2
 41
0.6700000000000001
  7
00
100
AcDbText
  0
TEXT
  5
2AFD9
330
2AA0D
100
AcDbEntity
  8
SUNPOU
100
AcDbText
 10
5260.742395648636
 20
1738.147176564493
 30
0.0
 40
73.84615384615381
  1
1
 41
0.6700000000000001
  7
00
 11
5260.742395648636
 21
1728.301022718339
 31
0.0
100
AcDbText
 73
     1
  0
TEXT
  5
2AFDA
330
2AA0D
100
AcDbEntity
  8
SUNPOU
100
AcDbText
 10
5373.097965918374
 20
1701.224099641415
 30
0.0
 40
73.84615384615381
  1
20
 41
0.6700000000000001
  7
00
 11
5373.097965918374
 21
1691.377945795261
 31
0.0
100
AcDbText
 73
     1
  0
TEXT
  5
2AFDB
330
2AA0D
100
AcDbEntity
  8
SUNPOU
100
AcDbText
 10
5309.148522964004
 20
1719.685638102957
 30
0.0
 40
73.84615384615381
  1
/
 41
0.6700000000000001
  7
00
 11
5309.148522964004
 21
1709.839484256803
 31
0.0
100
AcDbText
 73
     1
  0
TEXT
  5
2AFDC
330
2AA0D
100
AcDbEntity
  8
SUNPOU
100
AcDbText
 10
6715.410489983489
 20
1278.923929694863
 30
0.0
 40
89.9993750043402
  1
18
 41
0.6700000000000001
  7
01
100
AcDbText
  0
LINE
  5
2AFDD
330
2AA0D
100
AcDbEntity
  8
SUNPOU
100
AcDbLine
 10
6099.46557326338
 20
1124.63821540915
 30
0.0
 11
6099.46557326338
 21
1208.130579107931
 31
0.0
  0
LINE
  5
2AFDE
330
2AA0D
100
AcDbEntity
  8
SUNPOU
100
AcDbLine
 10
6116.34057326338
 20
1124.63821540915
 30
0.0
 11
6116.34057326338
 21
1208.130579107931
 31
0.0
  0
LINE
  5
2AFDF
330
2AA0D
100
AcDbEntity
  8
SUNPOU
100
AcDbLine
 10
6133.21557326338
 20
1124.63821540915
 30
0.0
 11
6133.21557326338
 21
1208.130579107931
 31
0.0
  0
LINE
  5
2AFE0
330
2AA0D
100
AcDbEntity
  8
SUNPOU
100
AcDbLine
 10
6088.21557326338
 20
1124.638215409149
 30
0.0
 11
6144.465573263381
 21
1124.638215409149
 31
0.0
  0
LINE
  5
2AFE1
330
2AA0D
100
AcDbEntity
  8
SUNPOU
100
AcDbLine
 10
6088.21557326338
 20
1208.130579107931
 30
0.0
 11
6144.465573263381
 21
1208.130579107931
 31
0.0
  0
ARC
  5
2AFE2
330
2AA0D
100
AcDbEntity
  8
SUNPOU
100
AcDbCircle
 10
7304.588689334457
 20
1265.195633922484
 30
0.0
 40
225.0
100
AcDbArc
 50
328.3472725282761
 51
31.65272747172387
  0
TEXT
  5
2AFE3
330
2AA0D
100
AcDbEntity
  8
SUNPOU
100
AcDbText
 10
7155.711424800839
 20
1329.112356052349
 30
0.0
 40
46.28539285937498
  1
2
 41
0.6700000000000001
  7
00
100
AcDbText
  0
ENDSEC
  0
SECTION
  2
OBJECTS
  0
DICTIONARY
  5
2A9FB
330
0
100
AcDbDictionary
281
     1
  3
ACAD_GROUP
350
2A9FC
  3
ACAD_LAYOUT
350
2AA08
  3
ACAD_MLINESTYLE
350
2AA05
  3
ACAD_PLOTSETTINGS
350
2AA07
  3
ACAD_PLOTSTYLENAME
350
2A9FD
  3
AcDbVariableDictionary
350
2AFE4
  0
DICTIONARY
  5
2A9FC
102
{ACAD_REACTORS
330
2A9FB
102
}
330
2A9FB
100
AcDbDictionary
281
     1
  0
DICTIONARY
  5
2AA08
102
{ACAD_REACTORS
330
2A9FB
102
}
330
2A9FB
100
AcDbDictionary
281
     1
  3
Model
350
2AA10
  3
ﾚｲｱｳﾄ1
350
2AA0C
  0
DICTIONARY
  5
2AA05
102
{ACAD_REACTORS
330
2A9FB
102
}
330
2A9FB
100
AcDbDictionary
281
     1
  3
Standard
350
2AA06
  0
DICTIONARY
  5
2AA07
102
{ACAD_REACTORS
330
2A9FB
102
}
330
2A9FB
100
AcDbDictionary
281
     1
  0
ACDBDICTIONARYWDFLT
  5
2A9FD
102
{ACAD_REACTORS
330
2A9FB
102
}
330
2A9FB
100
AcDbDictionary
281
     1
  3
Normal
350
2A9FE
100
AcDbDictionaryWithDefault
340
2A9FE
  0
DICTIONARY
  5
2AFE4
102
{ACAD_REACTORS
330
2A9FB
102
}
330
2A9FB
100
AcDbDictionary
281
     1
  3
DIMASSOC
350
2AFE5
  0
LAYOUT
  5
2AA10
102
{ACAD_REACTORS
330
2AA08
102
}
330
2AA08
100
AcDbPlotSettings
  1

  2
Muratec V-1200 Is@Web Printer
  4

  6

 40
0.0
 41
0.0
 42
0.0
 43
0.0
 44
0.0
 45
0.0
 46
0.0
 47
0.0
 48
0.0
 49
0.0
140
0.0
141
0.0
142
1.0
143
1.0
 70
  1712
 72
     0
 73
     0
 74
     0
  7

 75
     0
147
1.0
148
0.0
149
0.0
100
AcDbLayout
  1
Model
 70
     1
 71
     0
 10
0.0
 20
0.0
 11
12.0
 21
9.0
 12
0.0
 22
0.0
 32
0.0
 14
0.0
 24
0.0
 34
0.0
 15
0.0
 25
0.0
 35
0.0
146
0.0
 13
0.0
 23
0.0
 33
0.0
 16
1.0
 26
0.0
 36
0.0
 17
0.0
 27
1.0
 37
0.0
 76
     0
330
2AA0D
  0
LAYOUT
  5
2AA0C
102
{ACAD_REACTORS
330
2AA08
102
}
330
2AA08
100
AcDbPlotSettings
  1

  2
Muratec V-1200 Is@Web Printer
  4

  6

 40
0.0
 41
0.0
 42
0.0
 43
0.0
 44
0.0
 45
0.0
 46
0.0
 47
0.0
 48
0.0
 49
0.0
140
0.0
141
0.0
142
1.0
143
1.0
 70
   688
 72
     0
 73
     0
 74
     5
  7

 75
    16
147
1.0
148
0.0
149
0.0
100
AcDbLayout
  1
ﾚｲｱｳﾄ1
 70
     0
 71
     1
 10
0.0
 20
0.0
 11
12.0
 21
9.0
 12
0.0
 22
0.0
 32
0.0
 14
1.000000000000000E+20
 24
1.000000000000000E+20
 34
1.000000000000000E+20
 15
-1.000000000000000E+20
 25
-1.000000000000000E+20
 35
-1.000000000000000E+20
146
0.0
 13
0.0
 23
0.0
 33
0.0
 16
1.0
 26
0.0
 36
0.0
 17
0.0
 27
1.0
 37
0.0
 76
     0
330
2AA09
  0
MLINESTYLE
  5
2AA06
102
{ACAD_REACTORS
330
2AA05
102
}
330
2AA05
100
AcDbMlineStyle
  2
STANDARD
 70
     0
  3

 62
   256
 51
90.0
 52
90.0
 71
     2
 49
0.5
 62
   256
  6
BYLAYER
 49
-0.5
 62
   256
  6
BYLAYER
  0
ACDBPLACEHOLDER
  5
2A9FE
102
{ACAD_REACTORS
330
2A9FD
102
}
330
2A9FD
  0
DICTIONARYVAR
  5
2AFE5
102
{ACAD_REACTORS
330
2AFE4
102
}
330
2AFE4
100
DictionaryVariables
280
     0
  1
1
  0
ENDSEC
  0
EOF
