  0
SECTION
  2
HEADER
  9
$ACADVER
  1
AC1015
  9
$ACADMAINTVER
 70
    13
  9
$DWGCODEPAGE
  3
ANSI_932
  9
$INSBASE
 10
267.0
 20
194.8999999999998
 30
0.0
  9
$EXTMIN
 10
325.4974662390304
 20
122.7681178119601
 30
-0.000000000000013
  9
$EXTMAX
 10
12286.99954069103
 20
8431.707478684501
 30
0.0000000000000023
  9
$LIMMIN
 10
0.0
 20
0.0
  9
$LIMMAX
 10
12600.0
 20
8910.0
  9
$ORTHOMODE
 70
     0
  9
$REGENMODE
 70
     1
  9
$FILLMODE
 70
     1
  9
$QTEXTMODE
 70
     0
  9
$MIRRTEXT
 70
     0
  9
$LTSCALE
 40
30.0
  9
$ATTMODE
 70
     1
  9
$TEXTSIZE
 40
0.2
  9
$TRACEWID
 40
0.05
  9
$TEXTSTYLE
  7
00
  9
$CLAYER
  8
SUNPOU
  9
$CELTYPE
  6
ByLayer
  9
$CECOLOR
 62
   256
  9
$CELTSCALE
 40
1.0
  9
$DISPSILH
 70
     0
  9
$DIMSCALE
 40
30.0
  9
$DIMASZ
 40
0.5
  9
$DIMEXO
 40
1.0
  9
$DIMDLI
 40
7.0
  9
$DIMRND
 40
0.0
  9
$DIMDLE
 40
3.0
  9
$DIMEXE
 40
1.5
  9
$DIMTP
 40
0.0
  9
$DIMTM
 40
0.0
  9
$DIMTXT
 40
3.0
  9
$DIMCEN
 40
0.0
  9
$DIMTSZ
 40
0.0
  9
$DIMTOL
 70
     0
  9
$DIMLIM
 70
     0
  9
$DIMTIH
 70
     0
  9
$DIMTOH
 70
     0
  9
$DIMSE1
 70
     0
  9
$DIMSE2
 70
     0
  9
$DIMTAD
 70
     1
  9
$DIMZIN
 70
     8
  9
$DIMBLK
  1
DOT
  9
$DIMASO
 70
     1
  9
$DIMSHO
 70
     0
  9
$DIMPOST
  1

  9
$DIMAPOST
  1

  9
$DIMALT
 70
     0
  9
$DIMALTD
 70
     2
  9
$DIMALTF
 40
25.4
  9
$DIMLFAC
 40
1.0
  9
$DIMTOFL
 70
     1
  9
$DIMTVP
 40
0.0
  9
$DIMTIX
 70
     0
  9
$DIMSOXD
 70
     0
  9
$DIMSAH
 70
     1
  9
$DIMBLK1
  1
DOT
  9
$DIMBLK2
  1
DOT
  9
$DIMSTYLE
  2
SUNPOU
  9
$DIMCLRD
 70
   256
  9
$DIMCLRE
 70
   256
  9
$DIMCLRT
 70
   256
  9
$DIMTFAC
 40
1.0
  9
$DIMGAP
 40
1.5
  9
$DIMJUST
 70
     0
  9
$DIMSD1
 70
     0
  9
$DIMSD2
 70
     0
  9
$DIMTOLJ
 70
     1
  9
$DIMTZIN
 70
     0
  9
$DIMALTZ
 70
     0
  9
$DIMALTTZ
 70
     0
  9
$DIMUPT
 70
     0
  9
$DIMDEC
 70
     4
  9
$DIMTDEC
 70
     4
  9
$DIMALTU
 70
     2
  9
$DIMALTTD
 70
     2
  9
$DIMTXSTY
  7
STANDARD
  9
$DIMAUNIT
 70
     0
  9
$DIMADEC
 70
     0
  9
$DIMALTRND
 40
0.0
  9
$DIMAZIN
 70
     0
  9
$DIMDSEP
 70
    46
  9
$DIMATFIT
 70
     3
  9
$DIMFRAC
 70
     0
  9
$DIMLDRBLK
  1
DOT
  9
$DIMLUNIT
 70
     2
  9
$DIMLWD
 70
    -2
  9
$DIMLWE
 70
    -2
  9
$DIMTMOVE
 70
     0
  9
$LUNITS
 70
     2
  9
$LUPREC
 70
     2
  9
$SKETCHINC
 40
0.1
  9
$FILLETRAD
 40
5.0
  9
$AUNITS
 70
     0
  9
$AUPREC
 70
     0
  9
$MENU
  1
A:\TIGER\MENU\TIGER
  9
$ELEVATION
 40
0.0
  9
$PELEVATION
 40
0.0
  9
$THICKNESS
 40
0.0
  9
$LIMCHECK
 70
     0
  9
$CHAMFERA
 40
0.0
  9
$CHAMFERB
 40
0.0
  9
$CHAMFERC
 40
0.0
  9
$CHAMFERD
 40
0.0
  9
$SKPOLY
 70
     0
  9
$TDCREATE
 40
2450266.571064815
  9
$TDUCREATE
 40
2450266.196064815
  9
$TDUPDATE
 40
2456330.558838426
  9
$TDUUPDATE
 40
2456330.183838426
  9
$TDINDWG
 40
0.2735611690
  9
$TDUSRTIMER
 40
0.2735609838
  9
$USRTIMER
 70
     1
  9
$ANGBASE
 50
0.0
  9
$ANGDIR
 70
     0
  9
$PDMODE
 70
     0
  9
$PDSIZE
 40
0.0
  9
$PLINEWID
 40
0.0
  9
$SPLFRAME
 70
     0
  9
$SPLINETYPE
 70
     6
  9
$SPLINESEGS
 70
     8
  9
$HANDSEED
  5
2B30B
  9
$SURFTAB1
 70
     6
  9
$SURFTAB2
 70
     6
  9
$SURFTYPE
 70
     6
  9
$SURFU
 70
     6
  9
$SURFV
 70
     6
  9
$UCSBASE
  2

  9
$UCSNAME
  2

  9
$UCSORG
 10
0.0
 20
0.0
 30
0.0
  9
$UCSXDIR
 10
1.0
 20
0.0
 30
0.0
  9
$UCSYDIR
 10
0.0
 20
1.0
 30
0.0
  9
$UCSORTHOREF
  2

  9
$UCSORTHOVIEW
 70
     0
  9
$UCSORGTOP
 10
0.0
 20
0.0
 30
0.0
  9
$UCSORGBOTTOM
 10
0.0
 20
0.0
 30
0.0
  9
$UCSORGLEFT
 10
0.0
 20
0.0
 30
0.0
  9
$UCSORGRIGHT
 10
0.0
 20
0.0
 30
0.0
  9
$UCSORGFRONT
 10
0.0
 20
0.0
 30
0.0
  9
$UCSORGBACK
 10
0.0
 20
0.0
 30
0.0
  9
$PUCSBASE
  2

  9
$PUCSNAME
  2

  9
$PUCSORG
 10
0.0
 20
0.0
 30
0.0
  9
$PUCSXDIR
 10
1.0
 20
0.0
 30
0.0
  9
$PUCSYDIR
 10
0.0
 20
1.0
 30
0.0
  9
$PUCSORTHOREF
  2

  9
$PUCSORTHOVIEW
 70
     0
  9
$PUCSORGTOP
 10
0.0
 20
0.0
 30
0.0
  9
$PUCSORGBOTTOM
 10
0.0
 20
0.0
 30
0.0
  9
$PUCSORGLEFT
 10
0.0
 20
0.0
 30
0.0
  9
$PUCSORGRIGHT
 10
0.0
 20
0.0
 30
0.0
  9
$PUCSORGFRONT
 10
0.0
 20
0.0
 30
0.0
  9
$PUCSORGBACK
 10
0.0
 20
0.0
 30
0.0
  9
$USERI1
 70
     3
  9
$USERI2
 70
     0
  9
$USERI3
 70
     0
  9
$USERI4
 70
     0
  9
$USERI5
 70
  1103
  9
$USERR1
 40
0.0
  9
$USERR2
 40
1.0
  9
$USERR3
 40
0.0
  9
$USERR4
 40
0.0
  9
$USERR5
 40
0.0
  9
$WORLDVIEW
 70
     1
  9
$SHADEDGE
 70
     3
  9
$SHADEDIF
 70
    70
  9
$TILEMODE
 70
     1
  9
$MAXACTVP
 70
    16
  9
$PINSBASE
 10
0.0
 20
0.0
 30
0.0
  9
$PLIMCHECK
 70
     0
  9
$PEXTMIN
 10
1.000000000000000E+20
 20
1.000000000000000E+20
 30
1.000000000000000E+20
  9
$PEXTMAX
 10
-1.000000000000000E+20
 20
-1.000000000000000E+20
 30
-1.000000000000000E+20
  9
$PLIMMIN
 10
0.0
 20
0.0
  9
$PLIMMAX
 10
12.0
 20
9.0
  9
$UNITMODE
 70
     0
  9
$VISRETAIN
 70
     0
  9
$PLINEGEN
 70
     1
  9
$PSLTSCALE
 70
     0
  9
$TREEDEPTH
 70
  3020
  9
$CMLSTYLE
  2
Standard
  9
$CMLJUST
 70
     0
  9
$CMLSCALE
 40
1.0
  9
$PROXYGRAPHICS
 70
     1
  9
$MEASUREMENT
 70
     0
  9
$CELWEIGHT
370
    -1
  9
$ENDCAPS
280
     0
  9
$JOINSTYLE
280
     0
  9
$LWDISPLAY
290
     0
  9
$INSUNITS
 70
     0
  9
$HYPERLINKBASE
  1

  9
$STYLESHEET
  1

  9
$XEDIT
290
     1
  9
$CEPSNTYPE
380
     0
  9
$PSTYLEMODE
290
     1
  9
$FINGERPRINTGUID
  2
{DDB01A35-C547-4389-8293-A071C6DD3050}
  9
$VERSIONGUID
  2
{C6411DBE-F3F6-4075-84B5-DD4CBEE3D00E}
  9
$EXTNAMES
290
     1
  9
$PSVPSCALE
 40
0.0
  9
$OLESTARTUP
290
     0
  0
ENDSEC
  0
SECTION
  2
CLASSES
  0
CLASS
  1
ACDBDICTIONARYWDFLT
  2
AcDbDictionaryWithDefault
  3
AutoCAD 2000
 90
        0
280
     0
281
     0
  0
CLASS
  1
ACDBPLACEHOLDER
  2
AcDbPlaceHolder
  3
AutoCAD 2000
 90
        0
280
     0
281
     0
  0
CLASS
  1
LAYOUT
  2
AcDbLayout
  3
AutoCAD 2000
 90
        0
280
     0
281
     0
  0
CLASS
  1
DICTIONARYVAR
  2
AcDbDictionaryVar
  3
AutoCAD 2000
 90
        0
280
     0
281
     0
  0
ENDSEC
  0
SECTION
  2
TABLES
  0
TABLE
  2
VPORT
  5
2AEC4
330
0
100
AcDbSymbolTable
 70
     2
  0
VPORT
  5
2B30A
330
2AEC4
100
AcDbSymbolTableRecord
100
AcDbViewportTableRecord
  2
*Active
 70
     0
 10
0.0
 20
0.0
 11
1.0
 21
1.0
 12
6306.248503465031
 22
4277.23779824823
 13
0.0
 23
0.0
 14
1.0
 24
1.0
 15
0.0
 25
0.0
 16
0.0
 26
0.0
 36
1.0
 17
0.0
 27
0.0
 37
0.0
 40
8372.629037979738
 41
1.527918781725888
 42
50.0
 43
0.0
 44
0.0
 50
0.0
 51
0.0
 71
     0
 72
 10000
 73
     1
 74
     0
 75
     0
 76
     0
 77
     0
 78
     0
281
     0
 65
     1
110
0.0
120
0.0
130
0.0
111
1.0
121
0.0
131
0.0
112
0.0
122
1.0
132
0.0
 79
     0
146
0.0
  0
ENDTAB
  0
TABLE
  2
LTYPE
  5
2AEC1
330
0
100
AcDbSymbolTable
 70
     3
  0
LTYPE
  5
2AECF
330
2AEC1
100
AcDbSymbolTableRecord
100
AcDbLinetypeTableRecord
  2
ByBlock
 70
     0
  3

 72
    65
 73
     0
 40
0.0
  0
LTYPE
  5
2AED0
330
2AEC1
100
AcDbSymbolTableRecord
100
AcDbLinetypeTableRecord
  2
ByLayer
 70
     0
  3

 72
    65
 73
     0
 40
0.0
  0
LTYPE
  5
2AED1
330
2AEC1
100
AcDbSymbolTableRecord
100
AcDbLinetypeTableRecord
  2
CONTINUOUS
 70
     0
  3
実線
 72
    65
 73
     0
 40
0.0
  0
LTYPE
  5
2AEE1
330
2AEC1
100
AcDbSymbolTableRecord
100
AcDbLinetypeTableRecord
  2
1PL-M
 70
     0
  3

 72
    65
 73
     4
 40
15.0
 49
12.0
 74
     0
 49
-1.0
 74
     0
 49
1.0
 74
     0
 49
-1.0
 74
     0
  0
LTYPE
  5
2AEE2
330
2AEC1
100
AcDbSymbolTableRecord
100
AcDbLinetypeTableRecord
  2
2PL-L
 70
     0
  3

 72
    65
 73
     6
 40
60.0
 49
50.0
 74
     0
 49
-2.0
 74
     0
 49
2.0
 74
     0
 49
-2.0
 74
     0
 49
2.0
 74
     0
 49
-2.0
 74
     0
  0
ENDTAB
  0
TABLE
  2
LAYER
  5
2AEBE
330
0
100
AcDbSymbolTable
 70
    16
  0
LAYER
  5
2AECC
330
2AEBE
100
AcDbSymbolTableRecord
100
AcDbLayerTableRecord
  2
0
 70
     0
 62
     7
  6
CONTINUOUS
370
    -3
390
2AECB
  0
LAYER
  5
2AEDE
330
2AEBE
100
AcDbSymbolTableRecord
100
AcDbLayerTableRecord
  2
SUNPOU
 70
     0
 62
     4
  6
CONTINUOUS
370
    -3
390
2AECB
  0
LAYER
  5
2AEE3
330
2AEBE
100
AcDbSymbolTableRecord
100
AcDbLayerTableRecord
  2
U2
 70
     0
 62
     4
  6
CONTINUOUS
370
    -3
390
2AECB
  0
LAYER
  5
2AEE4
330
2AEBE
100
AcDbSymbolTableRecord
100
AcDbLayerTableRecord
  2
U3
 70
     0
 62
     6
  6
CONTINUOUS
370
    -3
390
2AECB
  0
LAYER
  5
2AEE5
330
2AEBE
100
AcDbSymbolTableRecord
100
AcDbLayerTableRecord
  2
HIKIDASHI
 70
     0
 62
     6
  6
CONTINUOUS
370
    -3
390
2AECB
  0
LAYER
  5
2AEE6
330
2AEBE
100
AcDbSymbolTableRecord
100
AcDbLayerTableRecord
  2
1PL-M1
 70
     0
 62
     6
  6
1PL-M
370
    -3
390
2AECB
  0
LAYER
  5
2AEE7
330
2AEBE
100
AcDbSymbolTableRecord
100
AcDbLayerTableRecord
  2
2PL-L2
 70
     0
 62
     1
  6
2PL-L
370
    -3
390
2AECB
  0
LAYER
  5
2AEE8
330
2AEBE
100
AcDbSymbolTableRecord
100
AcDbLayerTableRecord
  2
KISO
 70
     0
 62
     2
  6
CONTINUOUS
370
    -3
390
2AECB
  0
LAYER
  5
2AEE9
330
2AEBE
100
AcDbSymbolTableRecord
100
AcDbLayerTableRecord
  2
HATCH
 70
     0
 62
     1
  6
CONTINUOUS
370
    -3
390
2AECB
  0
LAYER
  5
2AEEA
330
2AEBE
100
AcDbSymbolTableRecord
100
AcDbLayerTableRecord
  2
NAME
 70
     0
 62
    20
  6
CONTINUOUS
370
    -3
390
2AECB
  0
LAYER
  5
2AEEB
330
2AEBE
100
AcDbSymbolTableRecord
100
AcDbLayerTableRecord
  2
FILENAME
 70
     0
 62
     7
  6
CONTINUOUS
370
    -3
390
2AECB
  0
LAYER
  5
2AEEC
330
2AEBE
100
AcDbSymbolTableRecord
100
AcDbLayerTableRecord
  2
HASHIRA
 70
     0
 62
     3
  6
CONTINUOUS
370
    -3
390
2AECB
  0
LAYER
  5
2AEED
330
2AEBE
100
AcDbSymbolTableRecord
100
AcDbLayerTableRecord
  2
YODOROGO
 70
     0
 62
   130
  6
CONTINUOUS
370
    -3
390
2AECB
  0
LAYER
  5
2AEEE
330
2AEBE
100
AcDbSymbolTableRecord
100
AcDbLayerTableRecord
  2
WAKUSEN-01
 70
     0
 62
    50
  6
CONTINUOUS
370
    -3
390
2AECB
  0
LAYER
  5
2AEEF
330
2AEBE
100
AcDbSymbolTableRecord
100
AcDbLayerTableRecord
  2
WAKUSEN-02
 70
     0
 62
   130
  6
CONTINUOUS
370
    -3
390
2AECB
  0
LAYER
  5
2AEF0
330
2AEBE
100
AcDbSymbolTableRecord
100
AcDbLayerTableRecord
  2
WAKUMOJI-01
 70
     0
 62
   130
  6
CONTINUOUS
370
    -3
390
2AECB
  0
ENDTAB
  0
TABLE
  2
STYLE
  5
2AEBF
330
0
100
AcDbSymbolTable
 70
     5
  0
STYLE
  5
2AECD
330
2AEBF
100
AcDbSymbolTableRecord
100
AcDbTextStyleTableRecord
  2
STANDARD
 70
     0
 40
3.0
 41
1.0
 50
0.0
 71
     0
 42
0.2
  3
ROMANS
  4
EXTFONT
  0
STYLE
  5
2AEDF
330
2AEBF
100
AcDbSymbolTableRecord
100
AcDbTextStyleTableRecord
  2
00
 70
     0
 40
0.0
 41
0.6666666666666666
 50
0.0
 71
     0
 42
0.2
  3
ROMANS
  4
BIGFONT
  0
STYLE
  5
2AEF1
330
2AEBF
100
AcDbSymbolTableRecord
100
AcDbTextStyleTableRecord
  2
01
 70
     0
 40
3.0
 41
1.0
 50
0.0
 71
     0
 42
0.2
  3
ROMANS
  4
BIGFONT
  0
STYLE
  5
2AEF2
330
2AEBF
100
AcDbSymbolTableRecord
100
AcDbTextStyleTableRecord
  2
WAKUMOJI
 70
     0
 40
3.0
 41
1.0
 50
0.0
 71
     0
 42
3.0
  3
SIMPLEX
  4
BIGFONT
  0
STYLE
  5
2AEF3
330
2AEBF
100
AcDbSymbolTableRecord
100
AcDbTextStyleTableRecord
  2
FILENAME
 70
     0
 40
75.0
 41
1.0
 50
0.0
 71
     0
 42
75.0
  3
romans
  4
bigfont
  0
ENDTAB
  0
TABLE
  2
VIEW
  5
2AEC2
330
0
100
AcDbSymbolTable
 70
     0
  0
ENDTAB
  0
TABLE
  2
UCS
  5
2AEC3
330
0
100
AcDbSymbolTable
 70
     0
  0
ENDTAB
  0
TABLE
  2
APPID
  5
2AEC5
330
0
100
AcDbSymbolTable
 70
     5
  0
APPID
  5
2AECE
330
2AEC5
100
AcDbSymbolTableRecord
100
AcDbRegAppTableRecord
  2
ACAD
 70
     0
  0
APPID
  5
2AEF4
330
2AEC5
100
AcDbSymbolTableRecord
100
AcDbRegAppTableRecord
  2
AUTOCAD_POSTSCRIPT_FIGURE
 70
     0
  0
APPID
  5
2AEF5
330
2AEC5
100
AcDbSymbolTableRecord
100
AcDbRegAppTableRecord
  2
ACAD_PSEXT
 70
     0
  0
APPID
  5
2AEF6
330
2AEC5
100
AcDbSymbolTableRecord
100
AcDbRegAppTableRecord
  2
ACAD_EXEMPT_FROM_CAD_STANDARDS
 70
     0
  0
APPID
  5
2AEF7
330
2AEC5
100
AcDbSymbolTableRecord
100
AcDbRegAppTableRecord
  2
ACAD_MLEADERVER
 70
     0
  0
ENDTAB
  0
TABLE
  2
DIMSTYLE
  5
2AEC6
330
0
100
AcDbSymbolTable
 70
     1
100
AcDbDimStyleTable
 71
     0
  0
DIMSTYLE
105
2AEF8
330
2AEC6
100
AcDbSymbolTableRecord
100
AcDbDimStyleTableRecord
  2
SUNPOU
 70
     0
 40
30.0
 41
0.5
 42
1.0
 43
7.0
 44
1.5
 46
3.0
 73
     0
 74
     0
 77
     1
 78
     8
140
3.0
141
0.0
147
1.5
172
     1
173
     1
176
   256
177
   256
178
   256
271
     2
272
     2
279
     2
284
     8
285
     8
286
     8
340
2AEDF
  0
ENDTAB
  0
TABLE
  2
BLOCK_RECORD
  5
2AEBD
330
0
100
AcDbSymbolTable
 70
    22
  0
BLOCK_RECORD
  5
2AEDA
330
2AEBD
100
AcDbSymbolTableRecord
100
AcDbBlockTableRecord
  2
*Model_Space
340
2AEDD
  0
BLOCK_RECORD
  5
2AED6
330
2AEBD
100
AcDbSymbolTableRecord
100
AcDbBlockTableRecord
  2
*Paper_Space
340
2AED9
  0
BLOCK_RECORD
  5
2AEFD
330
2AEBD
100
AcDbSymbolTableRecord
100
AcDbBlockTableRecord
  2
$MODEL_SPACE
340
0
  0
BLOCK_RECORD
  5
2AF00
330
2AEBD
100
AcDbSymbolTableRecord
100
AcDbBlockTableRecord
  2
$PAPER_SPACE
340
0
  0
BLOCK_RECORD
  5
2AF03
330
2AEBD
100
AcDbSymbolTableRecord
100
AcDbBlockTableRecord
  2
DOT
340
0
  0
BLOCK_RECORD
  5
2AF0B
330
2AEBD
100
AcDbSymbolTableRecord
100
AcDbBlockTableRecord
  2
*U3
340
0
  0
BLOCK_RECORD
  5
2AF0F
330
2AEBD
100
AcDbSymbolTableRecord
100
AcDbBlockTableRecord
  2
*U4
340
0
  0
BLOCK_RECORD
  5
2AF13
330
2AEBD
100
AcDbSymbolTableRecord
100
AcDbBlockTableRecord
  2
*U5
340
0
  0
BLOCK_RECORD
  5
2AF17
330
2AEBD
100
AcDbSymbolTableRecord
100
AcDbBlockTableRecord
  2
*U6
340
0
  0
BLOCK_RECORD
  5
2AF1B
330
2AEBD
100
AcDbSymbolTableRecord
100
AcDbBlockTableRecord
  2
*U7
340
0
  0
BLOCK_RECORD
  5
2AF1F
330
2AEBD
100
AcDbSymbolTableRecord
100
AcDbBlockTableRecord
  2
*U8
340
0
  0
BLOCK_RECORD
  5
2AF23
330
2AEBD
100
AcDbSymbolTableRecord
100
AcDbBlockTableRecord
  2
*U9
340
0
  0
BLOCK_RECORD
  5
2AF27
330
2AEBD
100
AcDbSymbolTableRecord
100
AcDbBlockTableRecord
  2
*U10
340
0
  0
BLOCK_RECORD
  5
2AF2B
330
2AEBD
100
AcDbSymbolTableRecord
100
AcDbBlockTableRecord
  2
*U11
340
0
  0
BLOCK_RECORD
  5
2AF2F
330
2AEBD
100
AcDbSymbolTableRecord
100
AcDbBlockTableRecord
  2
*U12
340
0
  0
BLOCK_RECORD
  5
2AF33
330
2AEBD
100
AcDbSymbolTableRecord
100
AcDbBlockTableRecord
  2
*U13
340
0
  0
BLOCK_RECORD
  5
2AF37
330
2AEBD
100
AcDbSymbolTableRecord
100
AcDbBlockTableRecord
  2
*U14
340
0
  0
BLOCK_RECORD
  5
2AF3B
330
2AEBD
100
AcDbSymbolTableRecord
100
AcDbBlockTableRecord
  2
*U15
340
0
  0
BLOCK_RECORD
  5
2AF3F
330
2AEBD
100
AcDbSymbolTableRecord
100
AcDbBlockTableRecord
  2
*U16
340
0
  0
BLOCK_RECORD
  5
2AF43
330
2AEBD
100
AcDbSymbolTableRecord
100
AcDbBlockTableRecord
  2
*U17
340
0
  0
BLOCK_RECORD
  5
2AF47
330
2AEBD
100
AcDbSymbolTableRecord
100
AcDbBlockTableRecord
  2
*U18
340
0
  0
BLOCK_RECORD
  5
2AF4B
330
2AEBD
100
AcDbSymbolTableRecord
100
AcDbBlockTableRecord
  2
*U19
340
0
  0
BLOCK_RECORD
  5
2AF4F
330
2AEBD
100
AcDbSymbolTableRecord
100
AcDbBlockTableRecord
  2
*U20
340
0
  0
ENDTAB
  0
ENDSEC
  0
SECTION
  2
BLOCKS
  0
BLOCK
  5
2AEDB
330
2AEDA
100
AcDbEntity
  8
0
100
AcDbBlockBegin
  2
*Model_Space
 70
     0
 10
0.0
 20
0.0
 30
0.0
  3
*Model_Space
  1

  0
ENDBLK
  5
2AEDC
330
2AEDA
100
AcDbEntity
  8
0
100
AcDbBlockEnd
  0
BLOCK
  5
2AED7
330
2AED6
100
AcDbEntity
 67
     1
  8
0
100
AcDbBlockBegin
  2
*Paper_Space
 70
     0
 10
0.0
 20
0.0
 30
0.0
  3
*Paper_Space
  1

  0
ENDBLK
  5
2AED8
330
2AED6
100
AcDbEntity
 67
     1
  8
0
100
AcDbBlockEnd
  0
BLOCK
  5
2AEFE
330
2AEFD
100
AcDbEntity
  8
0
100
AcDbBlockBegin
  2
$MODEL_SPACE
 70
     0
 10
0.0
 20
0.0
 30
0.0
  3
$MODEL_SPACE
  1

  0
ENDBLK
  5
2AEFF
330
2AEFD
100
AcDbEntity
  8
0
100
AcDbBlockEnd
  0
BLOCK
  5
2AF01
330
2AF00
100
AcDbEntity
  8
0
100
AcDbBlockBegin
  2
$PAPER_SPACE
 70
     0
 10
0.0
 20
0.0
 30
0.0
  3
$PAPER_SPACE
  1

  0
ENDBLK
  5
2AF02
330
2AF00
100
AcDbEntity
  8
0
100
AcDbBlockEnd
  0
BLOCK
  5
2AF04
330
2AF03
100
AcDbEntity
  8
0
100
AcDbBlockBegin
  2
DOT
 70
     0
 10
0.0
 20
0.0
 30
0.0
  3
DOT
  1

  0
LWPOLYLINE
  5
2AF05
330
2AF03
100
AcDbEntity
  8
0
  6
ByBlock
 62
     0
100
AcDbPolyline
 90
        2
 70
     1
 43
0.75
 10
-0.375
 20
0.0
 42
1.0
 10
0.375
 20
0.0
 42
1.0
  0
LINE
  5
2AF09
330
2AF03
100
AcDbEntity
  8
0
  6
ByBlock
 62
     0
100
AcDbLine
 10
-0.75
 20
0.0
 30
0.0
 11
-1.5
 21
0.0
 31
0.0
  0
ENDBLK
  5
2AF0A
330
2AF03
100
AcDbEntity
  8
0
100
AcDbBlockEnd
  0
BLOCK
  5
2AF0C
330
2AF0B
100
AcDbEntity
  8
0
100
AcDbBlockBegin
  2
*U3
 70
     1
 10
0.0
 20
0.0
 30
0.0
  3
*U3
  1

  0
TEXT
  5
2AF0D
330
2AF0B
100
AcDbEntity
  8
SUNPOU
100
AcDbText
 10
7879.718853272027
 20
1967.204834655466
 30
0.0
 40
90.0
  1
3150
 41
0.6666666666666666
  7
00
100
AcDbText
  0
ENDBLK
  5
2AF0E
330
2AF0B
100
AcDbEntity
  8
0
100
AcDbBlockEnd
  0
BLOCK
  5
2AF10
330
2AF0F
100
AcDbEntity
  8
0
100
AcDbBlockBegin
  2
*U4
 70
     1
 10
0.0
 20
0.0
 30
0.0
  3
*U4
  1

  0
TEXT
  5
2AF11
330
2AF0F
100
AcDbEntity
  8
SUNPOU
100
AcDbText
 10
2326.201129534437
 20
4056.619741444836
 30
0.0
 40
90.0
  1
900 □
 41
0.6666666666666666
  7
00
100
AcDbText
  0
ENDBLK
  5
2AF12
330
2AF0F
100
AcDbEntity
  8
0
100
AcDbBlockEnd
  0
BLOCK
  5
2AF14
330
2AF13
100
AcDbEntity
  8
0
100
AcDbBlockBegin
  2
*U5
 70
     1
 10
0.0
 20
0.0
 30
0.0
  3
*U5
  1

  0
TEXT
  5
2AF15
330
2AF13
100
AcDbEntity
  8
SUNPOU
100
AcDbText
 10
2326.201129534437
 20
4266.619741444836
 30
0.0
 40
90.0
  1
700 □
 41
0.6666666666666666
  7
00
100
AcDbText
  0
ENDBLK
  5
2AF16
330
2AF13
100
AcDbEntity
  8
0
100
AcDbBlockEnd
  0
BLOCK
  5
2AF18
330
2AF17
100
AcDbEntity
  8
0
100
AcDbBlockBegin
  2
*U6
 70
     1
 10
0.0
 20
0.0
 30
0.0
  3
*U6
  1

  0
TEXT
  5
2AF19
330
2AF17
100
AcDbEntity
  8
SUNPOU
100
AcDbText
 10
4537.701129534437
 20
4990.905455730555
 30
0.0
 40
90.0
  1
500
 50
90.0
 41
0.6666666666666666
  7
00
100
AcDbText
  0
ENDBLK
  5
2AF1A
330
2AF17
100
AcDbEntity
  8
0
100
AcDbBlockEnd
  0
BLOCK
  5
2AF1C
330
2AF1B
100
AcDbEntity
  8
0
100
AcDbBlockBegin
  2
*U7
 70
     1
 10
0.0
 20
0.0
 30
0.0
  3
*U7
  1

  0
TEXT
  5
2AF1D
330
2AF1B
100
AcDbEntity
  8
SUNPOU
100
AcDbText
 10
4537.701129534437
 20
4328.762598587696
 30
0.0
 40
90.0
  1
100
 50
90.0
 41
0.6666666666666666
  7
00
100
AcDbText
  0
ENDBLK
  5
2AF1E
330
2AF1B
100
AcDbEntity
  8
0
100
AcDbBlockEnd
  0
BLOCK
  5
2AF20
330
2AF1F
100
AcDbEntity
  8
0
100
AcDbBlockBegin
  2
*U8
 70
     1
 10
0.0
 20
0.0
 30
0.0
  3
*U8
  1

  0
TEXT
  5
2AF21
330
2AF1F
100
AcDbEntity
  8
SUNPOU
100
AcDbText
 10
9308.290281843458
 20
2177.204834655467
 30
0.0
 40
90.0
  1
350
 41
0.6666666666666666
  7
00
100
AcDbText
  0
ENDBLK
  5
2AF22
330
2AF1F
100
AcDbEntity
  8
0
100
AcDbBlockEnd
  0
BLOCK
  5
2AF24
330
2AF23
100
AcDbEntity
  8
0
100
AcDbBlockBegin
  2
*U9
 70
     1
 10
0.0
 20
0.0
 30
0.0
  3
*U9
  1

  0
TEXT
  5
2AF25
330
2AF23
100
AcDbEntity
  8
SUNPOU
100
AcDbText
 10
9872.828975586532
 20
5906.490548941183
 30
0.0
 40
90.0
  1
700
 50
90.0
 41
0.6666666666666666
  7
00
100
AcDbText
  0
ENDBLK
  5
2AF26
330
2AF23
100
AcDbEntity
  8
0
100
AcDbBlockEnd
  0
BLOCK
  5
2AF28
330
2AF27
100
AcDbEntity
  8
0
100
AcDbBlockBegin
  2
*U10
 70
     1
 10
0.0
 20
0.0
 30
0.0
  3
*U10
  1

  0
TEXT
  5
2AF29
330
2AF27
100
AcDbEntity
  8
SUNPOU
100
AcDbText
 10
9133.290281843457
 20
5375.146631263842
 30
0.0
 40
90.0
  1
700
 41
0.6666666666666666
  7
00
100
AcDbText
  0
ENDBLK
  5
2AF2A
330
2AF27
100
AcDbEntity
  8
0
100
AcDbBlockEnd
  0
BLOCK
  5
2AF2C
330
2AF2B
100
AcDbEntity
  8
0
100
AcDbBlockBegin
  2
*U11
 70
     1
 10
0.0
 20
0.0
 30
0.0
  3
*U11
  1

  0
TEXT
  5
2AF2D
330
2AF2B
100
AcDbEntity
  8
SUNPOU
100
AcDbText
 10
9339.8855128848
 20
6096.133406084039
 30
0.0
 40
90.0
  1
75
 50
90.0
 41
0.6666666666666666
  7
00
100
AcDbText
  0
ENDBLK
  5
2AF2E
330
2AF2B
100
AcDbEntity
  8
0
100
AcDbBlockEnd
  0
BLOCK
  5
2AF30
330
2AF2F
100
AcDbEntity
  8
0
100
AcDbBlockBegin
  2
*U12
 70
     1
 10
0.0
 20
0.0
 30
0.0
  3
*U12
  1

  0
TEXT
  5
2AF31
330
2AF2F
100
AcDbEntity
  8
SUNPOU
100
AcDbText
 10
9005.790281843458
 20
5846.788054923166
 30
0.0
 40
90.0
  1
65
 41
0.6666666666666666
  7
00
100
AcDbText
  0
ENDBLK
  5
2AF32
330
2AF2F
100
AcDbEntity
  8
0
100
AcDbBlockEnd
  0
BLOCK
  5
2AF34
330
2AF33
100
AcDbEntity
  8
0
100
AcDbBlockBegin
  2
*U13
 70
     1
 10
0.0
 20
0.0
 30
0.0
  3
*U13
  1

  0
TEXT
  5
2AF35
330
2AF33
100
AcDbEntity
  8
SUNPOU
100
AcDbText
 10
10034.00456755772
 20
4847.919120369754
 30
0.0
 40
90.0
  1
2060
 50
90.0
 41
0.6666666666666666
  7
00
100
AcDbText
  0
ENDBLK
  5
2AF36
330
2AF33
100
AcDbEntity
  8
0
100
AcDbBlockEnd
  0
BLOCK
  5
2AF38
330
2AF37
100
AcDbEntity
  8
0
100
AcDbBlockBegin
  2
*U14
 70
     1
 10
0.0
 20
0.0
 30
0.0
  3
*U14
  1

  0
TEXT
  5
2AF39
330
2AF37
100
AcDbEntity
  8
SUNPOU
100
AcDbText
 10
10034.00456755772
 20
3113.63340608404
 30
0.0
 40
90.0
  1
1400
 50
90.0
 41
0.6666666666666666
  7
00
100
AcDbText
  0
ENDBLK
  5
2AF3A
330
2AF37
100
AcDbEntity
  8
0
100
AcDbBlockEnd
  0
BLOCK
  5
2AF3C
330
2AF3B
100
AcDbEntity
  8
0
100
AcDbBlockBegin
  2
*U15
 70
     1
 10
0.0
 20
0.0
 30
0.0
  3
*U15
  1

  0
TEXT
  5
2AF3D
330
2AF3B
100
AcDbEntity
  8
SUNPOU
100
AcDbText
 10
10034.00456755772
 20
6573.633406084039
 30
0.0
 40
90.0
  1
1400
 50
90.0
 41
0.6666666666666666
  7
00
100
AcDbText
  0
ENDBLK
  5
2AF3E
330
2AF3B
100
AcDbEntity
  8
0
100
AcDbBlockEnd
  0
BLOCK
  5
2AF40
330
2AF3F
100
AcDbEntity
  8
0
100
AcDbBlockBegin
  2
*U16
 70
     1
 10
0.0
 20
0.0
 30
0.0
  3
*U16
  1

  0
TEXT
  5
2AF41
330
2AF3F
100
AcDbEntity
  8
SUNPOU
100
AcDbText
 10
10244.00456755772
 20
4847.919120369754
 30
0.0
 40
90.0
  1
4860
 50
90.0
 41
0.6666666666666666
  7
00
100
AcDbText
  0
ENDBLK
  5
2AF42
330
2AF3F
100
AcDbEntity
  8
0
100
AcDbBlockEnd
  0
BLOCK
  5
2AF44
330
2AF43
100
AcDbEntity
  8
0
100
AcDbBlockBegin
  2
*U17
 70
     1
 10
0.0
 20
0.0
 30
0.0
  3
*U17
  1

  0
TEXT
  5
2AF45
330
2AF43
100
AcDbEntity
  8
SUNPOU
100
AcDbText
 10
9872.828975586532
 20
3846.490548941183
 30
0.0
 40
90.0
  1
700
 50
90.0
 41
0.6666666666666666
  7
00
100
AcDbText
  0
ENDBLK
  5
2AF46
330
2AF43
100
AcDbEntity
  8
0
100
AcDbBlockEnd
  0
BLOCK
  5
2AF48
330
2AF47
100
AcDbEntity
  8
0
100
AcDbBlockBegin
  2
*U18
 70
     1
 10
0.0
 20
0.0
 30
0.0
  3
*U18
  1

  0
TEXT
  5
2AF49
330
2AF47
100
AcDbEntity
  8
SUNPOU
100
AcDbText
 10
9133.290281843457
 20
3315.146631263841
 30
0.0
 40
90.0
  1
700
 41
0.6666666666666666
  7
00
100
AcDbText
  0
ENDBLK
  5
2AF4A
330
2AF47
100
AcDbEntity
  8
0
100
AcDbBlockEnd
  0
BLOCK
  5
2AF4C
330
2AF4B
100
AcDbEntity
  8
0
100
AcDbBlockBegin
  2
*U19
 70
     1
 10
0.0
 20
0.0
 30
0.0
  3
*U19
  1

  0
TEXT
  5
2AF4D
330
2AF4B
100
AcDbEntity
  8
SUNPOU
100
AcDbText
 10
9005.790281843458
 20
3786.788054923167
 30
0.0
 40
90.0
  1
65
 41
0.6666666666666666
  7
00
100
AcDbText
  0
ENDBLK
  5
2AF4E
330
2AF4B
100
AcDbEntity
  8
0
100
AcDbBlockEnd
  0
BLOCK
  5
2AF50
330
2AF4F
100
AcDbEntity
  8
0
100
AcDbBlockBegin
  2
*U20
 70
     1
 10
0.0
 20
0.0
 30
0.0
  3
*U20
  1

  0
TEXT
  5
2AF51
330
2AF4F
100
AcDbEntity
  8
SUNPOU
100
AcDbText
 10
9339.8855128848
 20
4036.133406084041
 30
0.0
 40
90.0
  1
75
 50
90.0
 41
0.6666666666666666
  7
00
100
AcDbText
  0
ENDBLK
  5
2AF52
330
2AF4F
100
AcDbEntity
  8
0
100
AcDbBlockEnd
  0
ENDSEC
  0
SECTION
  2
ENTITIES
  0
TEXT
  5
2AF53
330
2AEDA
100
AcDbEntity
  8
NAME
100
AcDbText
 10
9402.694977008243
 20
716.2499999999992
 30
0.0
 40
120.0
  1
YOTC
 41
0.7
  7
01
100
AcDbText
  0
TEXT
  5
2AF54
330
2AEDA
100
AcDbEntity
  8
NAME
100
AcDbText
 10
8327.765992739108
 20
716.2499999999992
 30
0.0
 40
120.0
  1
ヨド自転車置場      型
  7
01
100
AcDbText
  0
LINE
  5
2AF55
330
2AEDA
100
AcDbEntity
  8
HIKIDASHI
100
AcDbLine
 10
2122.38745291665
 20
3635.151419476927
 30
0.0
 11
2818.014806152222
 21
3635.151419476927
 31
0.0
  0
LINE
  5
2AF56
330
2AEDA
100
AcDbEntity
  8
HIKIDASHI
100
AcDbLine
 10
2122.38745291665
 20
3605.151419476927
 30
0.0
 11
2818.014806152222
 21
3605.151419476927
 31
0.0
  0
TEXT
  5
2AF57
330
2AEDA
100
AcDbEntity
  8
HIKIDASHI
100
AcDbText
 10
2152.38745291665
 20
3680.151419476926
 30
0.0
 40
90.0
  1
A  ~  A'
 41
0.6700000000000001
  7
00
100
AcDbText
  0
TEXT
  5
2AF58
330
2AEDA
100
AcDbEntity
  8
HIKIDASHI
100
AcDbText
 10
2546.404732413212
 20
3680.151419476926
 30
0.0
 40
90.0
  1
断 面
  7
01
100
AcDbText
  0
LINE
  5
2AF76
330
2AEDA
100
AcDbEntity
  8
KISO
100
AcDbLine
 10
2413.951129534439
 20
5451.619741444837
 30
0.0
 11
1501.11505547207
 21
5451.619741444837
 31
0.0
  0
LINE
  5
2AF77
330
2AEDA
100
AcDbEntity
  8
KISO
100
AcDbLine
 10
1501.11505547207
 20
5316.619741444836
 30
0.0
 11
1945.201129534437
 21
5316.619741444836
 31
0.0
  0
LINE
  5
2AF78
330
2AEDA
100
AcDbEntity
  8
KISO
100
AcDbLine
 10
1501.11505547207
 20
5226.619741444834
 30
0.0
 11
1945.201129534437
 21
5226.619741444834
 31
0.0
  0
LINE
  5
2AF79
330
2AEDA
100
AcDbEntity
  8
HATCH
100
AcDbLine
 10
1715.440671357798
 20
5451.619741444837
 30
0.0
 11
1580.440671357798
 21
5316.619741444836
 31
0.0
  0
LINE
  5
2AF7A
330
2AEDA
100
AcDbEntity
  8
HATCH
100
AcDbLine
 10
1759.988398572543
 20
5451.619741444837
 30
0.0
 11
1624.988398572546
 21
5316.619741444836
 31
0.0
  0
LINE
  5
2AF7B
330
2AEDA
100
AcDbEntity
  8
HATCH
100
AcDbLine
 10
1804.536125787301
 20
5451.619741444837
 30
0.0
 11
1669.536125787304
 21
5316.619741444836
 31
0.0
  0
LINE
  5
2AF7C
330
2AEDA
100
AcDbEntity
  8
HIKIDASHI
100
AcDbLine
 10
2535.039920368665
 20
4755.219131334309
 30
0.0
 11
3046.140127549567
 21
4941.244393475461
 31
0.0
  0
LINE
  5
2AF7D
330
2AEDA
100
AcDbEntity
  8
HATCH
100
AcDbLine
 10
2413.951129534439
 20
4810.822014230085
 30
0.0
 11
2304.748856749189
 21
4701.619741444836
 31
0.0
  0
LINE
  5
2AF7E
330
2AEDA
100
AcDbEntity
  8
HATCH
100
AcDbLine
 10
2413.951129534439
 20
4855.369741444836
 30
0.0
 11
2260.201129534438
 21
4701.619741444836
 31
0.0
  0
LINE
  5
2AF7F
330
2AEDA
100
AcDbEntity
  8
HATCH
100
AcDbLine
 10
2413.951129534439
 20
5260.369741444834
 30
0.0
 11
1945.201129534437
 21
4791.619741444829
 31
0.0
  0
LINE
  5
2AF80
330
2AEDA
100
AcDbEntity
  8
HATCH
100
AcDbLine
 10
2413.951129534439
 20
5215.822014230084
 30
0.0
 11
1945.201129534437
 21
4747.072014230083
 31
0.0
  0
LINE
  5
2AF81
330
2AEDA
100
AcDbEntity
  8
HASHIRA
100
AcDbLine
 10
2413.951129534439
 20
4701.619741444836
 30
0.0
 11
2413.951129534439
 21
6387.564103576066
 31
0.0
  0
LINE
  5
2AF82
330
2AEDA
100
AcDbEntity
  8
HASHIRA
100
AcDbLine
 10
2526.451129534438
 20
4701.619741444836
 30
0.0
 11
2526.451129534438
 21
6387.564103576066
 31
0.0
  0
LINE
  5
2AF83
330
2AEDA
100
AcDbEntity
  8
1PL-M1
100
AcDbLine
 10
2470.201129534439
 20
4386.619741444836
 30
0.0
 11
2470.201129534439
 21
6568.024562190892
 31
0.0
  0
LINE
  5
2AF84
330
2AEDA
100
AcDbEntity
  8
KISO
100
AcDbLine
 10
2995.201129534438
 20
5451.619741444837
 30
0.0
 11
2995.201129534438
 21
4701.619741444839
 31
0.0
  0
LINE
  5
2AF85
330
2AEDA
100
AcDbEntity
  8
KISO
100
AcDbLine
 10
1945.201129534437
 20
5451.619741444837
 30
0.0
 11
1945.201129534437
 21
4701.619741444836
 31
0.0
  0
LINE
  5
2AF86
330
2AEDA
100
AcDbEntity
  8
HATCH
100
AcDbLine
 10
2995.201129534438
 20
4897.976559800586
 30
0.0
 11
2798.844311178688
 21
4701.619741444836
 31
0.0
  0
LINE
  5
2AF87
330
2AEDA
100
AcDbEntity
  8
HATCH
100
AcDbLine
 10
2995.201129534438
 20
4942.524287015338
 30
0.0
 11
2754.296583963939
 21
4701.619741444836
 31
0.0
  0
LINE
  5
2AF88
330
2AEDA
100
AcDbEntity
  8
HATCH
100
AcDbLine
 10
2995.201129534438
 20
4987.072014230093
 30
0.0
 11
2709.748856749175
 21
4701.619741444836
 31
0.0
  0
LINE
  5
2AF89
330
2AEDA
100
AcDbEntity
  8
HATCH
100
AcDbLine
 10
2413.951129534439
 20
4766.274287015334
 30
0.0
 11
2349.296583963944
 21
4701.619741444836
 31
0.0
  0
SOLID
  5
2AF8A
330
2AEDA
100
AcDbEntity
  8
HIKIDASHI
100
AcDbTrace
 10
2538.460121801924
 20
4745.822205126449
 30
0.0
 11
2531.61971893541
 21
4764.616057542166
 31
0.0
 12
2478.65836312151
 22
4734.697922734768
 32
0.0
 13
2478.65836312151
 23
4734.697922734768
 33
0.0
  0
LINE
  5
2AF8B
330
2AEDA
100
AcDbEntity
  8
HIKIDASHI
100
AcDbLine
 10
2445.655688886668
 20
4731.619741444836
 30
0.0
 11
2494.746570182208
 21
4731.619741444836
 31
0.0
  0
LINE
  5
2AF8C
330
2AEDA
100
AcDbEntity
  8
HIKIDASHI
100
AcDbLine
 10
2445.655688886668
 20
4791.619741444836
 30
0.0
 11
2494.746570182208
 21
4791.619741444836
 31
0.0
  0
CIRCLE
  5
2AF8D
330
2AEDA
100
AcDbEntity
  8
HASHIRA
100
AcDbCircle
 10
2470.201129534439
 20
4791.619741444836
 30
0.0
 40
9.0
  0
CIRCLE
  5
2AF8E
330
2AEDA
100
AcDbEntity
  8
HASHIRA
100
AcDbCircle
 10
2470.201129534439
 20
4731.619741444836
 30
0.0
 40
9.0
  0
TEXT
  5
2AF8F
330
2AEDA
100
AcDbEntity
  8
SUNPOU
100
AcDbText
 10
3814.003723935417
 20
3917.611982140834
 30
0.0
 40
90.0
  1
ベース筋
  7
01
 72
     4
 11
4018.003723935417
 21
3962.611982140833
 31
0.0
100
AcDbText
  0
LINE
  5
2AF90
330
2AEDA
100
AcDbEntity
  8
HATCH
100
AcDbLine
 10
3867.524083415258
 20
5451.619741444837
 30
0.0
 11
3732.524083415256
 21
5316.619741444839
 31
0.0
  0
LINE
  5
2AF91
330
2AEDA
100
AcDbEntity
  8
HATCH
100
AcDbLine
 10
3822.976356200499
 20
5451.619741444837
 30
0.0
 11
3687.976356200499
 21
5316.619741444839
 31
0.0
  0
LINE
  5
2AF92
330
2AEDA
100
AcDbEntity
  8
HIKIDASHI
100
AcDbLine
 10
3046.140127549567
 20
4941.244393475461
 30
0.0
 11
3837.099352580968
 21
4941.244393475461
 31
0.0
  0
TEXT
  5
2AF93
330
2AEDA
100
AcDbEntity
  8
HIKIDASHI
100
AcDbText
 10
3336.276192691956
 20
4986.244393475461
 30
0.0
 40
90.0
  1
10   x 350
 41
0.6666666666666666
  7
00
 11
3336.276192691956
 21
5031.244393475461
 31
0.0
100
AcDbText
 73
     2
  0
LINE
  5
2AF94
330
2AEDA
100
AcDbEntity
  8
KISO
100
AcDbLine
 10
2995.201129534438
 20
5226.619741444836
 30
0.0
 11
4382.701129534438
 21
5226.619741444836
 31
0.0
  0
LINE
  5
2AF95
330
2AEDA
100
AcDbEntity
  8
KISO
100
AcDbLine
 10
2995.201129534438
 20
5316.619741444839
 30
0.0
 11
4382.701129534438
 21
5316.619741444839
 31
0.0
  0
LINE
  5
2AF96
330
2AEDA
100
AcDbEntity
  8
KISO
100
AcDbLine
 10
4382.701129534438
 20
5451.619741444837
 30
0.0
 11
2526.451129534438
 21
5451.619741444837
 31
0.0
  0
LINE
  5
2AF97
330
2AEDA
100
AcDbEntity
  8
HATCH
100
AcDbLine
 10
2995.201129534438
 20
5436.619741444836
 30
0.0
 11
2526.451129534438
 21
4967.869741444836
 31
0.0
  0
LINE
  5
2AF98
330
2AEDA
100
AcDbEntity
  8
HATCH
100
AcDbLine
 10
2995.201129534438
 20
5347.524287015334
 30
0.0
 11
2526.451129534438
 21
4878.774287015334
 31
0.0
  0
LINE
  5
2AF99
330
2AEDA
100
AcDbEntity
  8
HATCH
100
AcDbLine
 10
2995.201129534438
 20
5392.07201423009
 30
0.0
 11
2526.451129534438
 21
4923.322014230087
 31
0.0
  0
LINE
  5
2AF9A
330
2AEDA
100
AcDbEntity
  8
HATCH
100
AcDbLine
 10
2413.951129534439
 20
5304.917468659589
 30
0.0
 11
1945.201129534437
 21
4836.167468659586
 31
0.0
  0
LINE
  5
2AF9B
330
2AEDA
100
AcDbEntity
  8
HATCH
100
AcDbLine
 10
2111.105675104933
 20
5451.619741444837
 30
0.0
 11
1945.201129534437
 21
5285.715195874345
 31
0.0
  0
LINE
  5
2AF9C
330
2AEDA
100
AcDbEntity
  8
HATCH
100
AcDbLine
 10
2155.65340231969
 20
5451.619741444837
 30
0.0
 11
1945.201129534437
 21
5241.167468659586
 31
0.0
  0
LINE
  5
2AF9D
330
2AEDA
100
AcDbEntity
  8
HATCH
100
AcDbLine
 10
2200.201129534439
 20
5451.619741444837
 30
0.0
 11
1945.201129534437
 21
5196.619741444836
 31
0.0
  0
LINE
  5
2AF9E
330
2AEDA
100
AcDbEntity
  8
HATCH
100
AcDbLine
 10
2605.201129534441
 20
5451.619741444837
 30
0.0
 11
2526.451129534438
 21
5372.86974144483
 31
0.0
  0
LINE
  5
2AF9F
330
2AEDA
100
AcDbEntity
  8
HATCH
100
AcDbLine
 10
2560.653402319687
 20
5451.619741444837
 30
0.0
 11
2526.451129534438
 21
5417.417468659589
 31
0.0
  0
LINE
  5
2AFA0
330
2AEDA
100
AcDbEntity
  8
HATCH
100
AcDbLine
 10
2649.74885674919
 20
5451.619741444837
 30
0.0
 11
2526.451129534438
 21
5328.322014230084
 31
0.0
  0
LINE
  5
2AFA1
330
2AEDA
100
AcDbEntity
  8
HATCH
100
AcDbLine
 10
3373.428628985748
 20
5451.619741444837
 30
0.0
 11
3238.428628985752
 21
5316.619741444836
 31
0.0
  0
LINE
  5
2AFA2
330
2AEDA
100
AcDbEntity
  8
HATCH
100
AcDbLine
 10
3417.976356200507
 20
5451.619741444837
 30
0.0
 11
3282.976356200506
 21
5316.619741444836
 31
0.0
  0
LINE
  5
2AFA3
330
2AEDA
100
AcDbEntity
  8
HATCH
100
AcDbLine
 10
3328.880901771004
 20
5451.619741444837
 30
0.0
 11
3193.880901771008
 21
5316.619741444836
 31
0.0
  0
TEXT
  5
2AFA4
330
2AEDA
100
AcDbEntity
  8
HIKIDASHI
100
AcDbText
 10
3076.140127549567
 20
4986.244393475461
 30
0.0
 40
90.0
  1
鉄筋
  7
01
 11
3076.140127549567
 21
5031.244393475461
 31
0.0
100
AcDbText
 73
     2
  0
TEXT
  5
2AFA5
330
2AEDA
100
AcDbEntity
  8
HIKIDASHI
100
AcDbText
 10
3485.733353588021
 20
5001.244393475461
 30
0.0
 40
90.0
  1
%%c
 41
0.6666666666666666
  7
00
100
AcDbText
  0
LINE
  5
2AFA6
330
2AEDA
100
AcDbEntity
  8
HATCH
100
AcDbLine
 10
3778.428628985756
 20
5451.619741444837
 30
0.0
 11
3643.428628985756
 21
5316.619741444839
 31
0.0
  0
LINE
  5
2AFA7
330
2AEDA
100
AcDbEntity
  8
SUNPOU
100
AcDbLine
 10
4133.319100402237
 20
5541.619741444838
 30
0.0
 11
4185.280624629304
 21
5451.619741444837
 31
0.0
  0
LINE
  5
2AFA8
330
2AEDA
100
AcDbEntity
  8
SUNPOU
100
AcDbLine
 10
4185.280624629304
 20
5451.619741444837
 30
0.0
 11
4237.24214885637
 21
5541.619741444838
 31
0.0
  0
LINE
  5
2AFA9
330
2AEDA
100
AcDbEntity
  8
HATCH
100
AcDbLine
 10
4317.071810630005
 20
5451.619741444837
 30
0.0
 11
4182.071810630005
 21
5316.619741444839
 31
0.0
  0
LINE
  5
2AFAA
330
2AEDA
100
AcDbEntity
  8
HATCH
100
AcDbLine
 10
4272.52408341525
 20
5451.619741444837
 30
0.0
 11
4137.524083415249
 21
5316.619741444839
 31
0.0
  0
LINE
  5
2AFAB
330
2AEDA
100
AcDbEntity
  8
HATCH
100
AcDbLine
 10
4227.976356200502
 20
5451.619741444837
 30
0.0
 11
4092.976356200503
 21
5316.619741444839
 31
0.0
  0
LINE
  5
2AFAC
330
2AEDA
100
AcDbEntity
  8
U3
100
AcDbLine
 10
4382.701129534438
 20
5249.11974144484
 30
0.0
 11
4540.201129534437
 21
5406.619741444836
 31
0.0
  0
LINE
  5
2AFAD
330
2AEDA
100
AcDbEntity
  8
KISO
100
AcDbLine
 10
4382.701129534438
 20
5226.619741444836
 30
0.0
 11
4382.701129534438
 21
5451.619741444837
 31
0.0
  0
LINE
  5
2AFAE
330
2AEDA
100
AcDbEntity
  8
U3
100
AcDbLine
 10
4444.74171407425
 20
5311.160325984652
 30
0.0
 11
4506.782298614071
 21
5249.119741444838
 31
0.0
  0
LINE
  5
2AFAF
330
2AEDA
100
AcDbEntity
  8
U3
100
AcDbLine
 10
4382.701129534441
 20
5344.579156905018
 30
0.0
 11
4444.741714074257
 21
5406.619741444836
 31
0.0
  0
TEXT
  5
2AFB0
330
2AEDA
100
AcDbEntity
  8
SUNPOU
100
AcDbText
 10
4116.709196057875
 20
5586.619741444838
 30
0.0
 40
90.0
  1
F.L
 41
0.6666666666666666
  7
00
 72
     4
 11
4185.280624629304
 21
5631.619741444838
 31
0.0
100
AcDbText
  0
LINE
  5
2AFB1
330
2AEDA
100
AcDbEntity
  8
SUNPOU
100
AcDbLine
 10
4237.24214885637
 20
5541.619741444838
 30
0.0
 11
4133.319100402237
 21
5541.619741444838
 31
0.0
  0
TEXT
  5
2AFB2
330
2AEDA
100
AcDbEntity
  8
SUNPOU
100
AcDbText
 10
4300.823805378061
 20
3917.611982140834
 30
0.0
 40
90.0
  1
5-D13×5-D13
 41
0.6700000000000001
  7
01
 72
     4
 11
4644.246662520919
 21
3962.611982140833
 31
0.0
100
AcDbText
  0
TEXT
  5
2AFB3
330
2AEDA
100
AcDbEntity
  8
SUNPOU
100
AcDbText
 10
4719.83329396131
 20
5541.619741444836
 30
0.0
 40
90.0
  1
G.L
 41
0.6666666666666666
  7
00
 72
     4
 11
4791.261865389882
 21
5586.619741444836
 31
0.0
100
AcDbText
  0
LINE
  5
2AFB4
330
2AEDA
100
AcDbEntity
  8
SUNPOU
100
AcDbLine
 10
4843.223389616949
 20
5496.619741444837
 30
0.0
 11
4739.300341162816
 21
5496.619741444837
 31
0.0
  0
LINE
  5
2AFB5
330
2AEDA
100
AcDbEntity
  8
SUNPOU
100
AcDbLine
 10
4739.300341162816
 20
5496.619741444837
 30
0.0
 11
4791.261865389882
 21
5406.619741444836
 31
0.0
  0
LINE
  5
2AFB6
330
2AEDA
100
AcDbEntity
  8
U3
100
AcDbLine
 10
4759.741714074254
 20
5311.160325984652
 30
0.0
 11
4821.782298614071
 21
5249.119741444838
 31
0.0
  0
LINE
  5
2AFB7
330
2AEDA
100
AcDbEntity
  8
U3
100
AcDbLine
 10
5074.741714074246
 20
5406.619741444838
 30
0.0
 11
4382.701129534438
 21
5406.619741444836
 31
0.0
  0
LINE
  5
2AFB8
330
2AEDA
100
AcDbEntity
  8
U3
100
AcDbLine
 10
4697.701129534438
 20
5249.11974144484
 30
0.0
 11
4855.201129534439
 21
5406.619741444836
 31
0.0
  0
LINE
  5
2AFB9
330
2AEDA
100
AcDbEntity
  8
U3
100
AcDbLine
 10
4492.471421804345
 20
5358.890033714745
 30
0.0
 11
4602.241714074255
 21
5249.119741444836
 31
0.0
  0
LINE
  5
2AFBA
330
2AEDA
100
AcDbEntity
  8
U3
100
AcDbLine
 10
4540.201129534437
 20
5406.619741444836
 30
0.0
 11
4697.701129534438
 21
5249.11974144484
 31
0.0
  0
LINE
  5
2AFBB
330
2AEDA
100
AcDbEntity
  8
U3
100
AcDbLine
 10
4649.971421804344
 20
5296.849449174932
 30
0.0
 11
4759.741714074254
 21
5406.619741444836
 31
0.0
  0
LINE
  5
2AFBC
330
2AEDA
100
AcDbEntity
  8
U3
100
AcDbLine
 10
4602.241714074255
 20
5344.579156905023
 30
0.0
 11
4664.282298614066
 21
5406.619741444836
 31
0.0
  0
LINE
  5
2AFBD
330
2AEDA
100
AcDbEntity
  8
U3
100
AcDbLine
 10
4964.971421804341
 20
5296.84944917493
 30
0.0
 11
5074.741714074246
 21
5406.619741444838
 31
0.0
  0
LINE
  5
2AFBE
330
2AEDA
100
AcDbEntity
  8
U3
100
AcDbLine
 10
4855.201129534439
 20
5406.619741444836
 30
0.0
 11
5012.701129534434
 21
5249.11974144484
 31
0.0
  0
LINE
  5
2AFBF
330
2AEDA
100
AcDbEntity
  8
U3
100
AcDbLine
 10
4807.471421804343
 20
5358.890033714745
 30
0.0
 11
4917.241714074251
 21
5249.119741444836
 31
0.0
  0
LINE
  5
2AFC0
330
2AEDA
100
AcDbEntity
  8
SUNPOU
100
AcDbLine
 10
4791.261865389882
 20
5406.619741444836
 30
0.0
 11
4843.223389616949
 21
5496.619741444837
 31
0.0
  0
LINE
  5
2AFC1
330
2AEDA
100
AcDbEntity
  8
U3
100
AcDbLine
 10
4917.241714074247
 20
5344.579156905025
 30
0.0
 11
4979.282298614062
 21
5406.619741444836
 31
0.0
  0
LINE
  5
2AFC2
330
2AEDA
100
AcDbEntity
  8
KISO
100
AcDbLine
 10
1795.201129534437
 20
4551.619741444836
 30
0.0
 11
3145.201129534438
 21
4551.619741444837
 31
0.0
  0
LINE
  5
2AFC3
330
2AEDA
100
AcDbEntity
  8
KISO
100
AcDbLine
 10
1795.201129534437
 20
4551.619741444836
 30
0.0
 11
1795.201129534437
 21
4701.619741444834
 31
0.0
  0
LINE
  5
2AFC4
330
2AEDA
100
AcDbEntity
  8
KISO
100
AcDbLine
 10
3145.201129534437
 20
4551.619741444837
 30
0.0
 11
3145.201129534438
 21
4701.619741444836
 31
0.0
  0
LINE
  5
2AFC5
330
2AEDA
100
AcDbEntity
  8
KISO
100
AcDbLine
 10
1795.201129534437
 20
4701.619741444834
 30
0.0
 11
3145.201129534438
 21
4701.619741444836
 31
0.0
  0
TEXT
  5
2AFC6
330
2AEDA
100
AcDbEntity
  8
NAME
100
AcDbText
 10
8685.634258449118
 20
405.7500000000011
 30
0.0
 40
120.0
  1
型（一般地用）背合せ
 41
0.7
  7
01
100
AcDbText
  0
TEXT
  5
2AFC7
330
2AEDA
100
AcDbEntity
  8
NAME
100
AcDbText
 10
8101.484605933894
 20
405.7500000000011
 30
0.0
 40
120.0
  1
YOTC-245
 41
0.6
  7
01
 72
     2
 11
8650.056034505322
 21
405.7500000000011
 31
0.0
100
AcDbText
  0
TEXT
  5
2AFC8
330
2AEDA
100
AcDbEntity
  8
NAME
100
AcDbText
 10
9685.26209933479
 20
405.7500000000015
 30
0.0
 40
120.0
  1
<3／3>
 41
0.6
  7
01
 72
     2
 11
10059.66209933478
 21
405.7500000000015
 31
0.0
100
AcDbText
  0
LINE
  5
2AFC9
330
2AEDA
100
AcDbEntity
  8
2PL-L2
100
AcDbLine
 10
6373.004567557741
 20
6997.204834655467
 30
0.0
 11
9615.004567557742
 21
6997.204834655467
 31
0.0
  0
LINE
  5
2AFCA
330
2AEDA
100
AcDbEntity
  8
2PL-L2
100
AcDbLine
 10
6373.004567557742
 20
2927.204834655467
 30
0.0
 11
9615.004567557742
 21
2927.204834655467
 31
0.0
  0
LINE
  5
2AFCB
330
2AEDA
100
AcDbEntity
  8
1PL-M1
100
AcDbLine
 10
6357.421839493874
 20
5992.204834655467
 30
0.0
 11
9646.06338490794
 21
5992.204834655467
 31
0.0
  0
LINE
  5
2AFCC
330
2AEDA
100
AcDbEntity
  8
SUNPOU
100
AcDbLine
 10
6784.004567557734
 20
2132.204834655467
 30
0.0
 11
9204.004567557738
 21
2132.204834655467
 31
0.0
  0
LINE
  5
2AFCD
330
2AEDA
100
AcDbEntity
  8
U3
100
AcDbLine
 10
6419.004567557738
 20
7392.204834655466
 30
0.0
 11
9569.004567557742
 21
7392.204834655466
 31
0.0
  0
LINE
  5
2AFCE
330
2AEDA
100
AcDbEntity
  8
U3
100
AcDbLine
 10
6419.004567557738
 20
2532.204834655466
 30
0.0
 11
9569.004567557742
 21
2532.204834655467
 31
0.0
  0
LINE
  5
2AFCF
330
2AEDA
100
AcDbEntity
  8
1PL-M1
100
AcDbLine
 10
6357.421839493874
 20
3932.204834655467
 30
0.0
 11
9646.06338490794
 21
3932.204834655467
 31
0.0
  0
LINE
  5
2AFD0
330
2AEDA
100
AcDbEntity
  8
U3
100
AcDbLine
 10
6419.004567557738
 20
2532.204834655466
 30
0.0
 11
6419.004567557738
 21
7392.204834655466
 31
0.0
  0
LINE
  5
2AFD1
330
2AEDA
100
AcDbEntity
  8
SUNPOU
100
AcDbLine
 10
6769.004567557741
 20
3501.926974229796
 30
0.0
 11
6769.004567557735
 21
2102.204834655466
 31
0.0
  0
LINE
  5
2AFD2
330
2AEDA
100
AcDbEntity
  8
SUNPOU
100
AcDbLine
 10
6434.004567557734
 20
2132.204834655467
 30
0.0
 11
6754.004567557736
 21
2132.204834655467
 31
0.0
  0
TEXT
  5
2AFD3
330
2AEDA
100
AcDbEntity
  8
SUNPOU
100
AcDbText
 10
6508.29028184345
 20
2177.204834655467
 30
0.0
 40
90.0
  1
350
 41
0.6666666666666666
  7
00
 72
     4
 11
6594.004567557735
 21
2222.204834655467
 31
0.0
100
AcDbText
  0
TEXT
  5
2AFD4
330
2AEDA
100
AcDbEntity
  8
SUNPOU
100
AcDbText
 10
7879.71885327202
 20
2177.204834655467
 30
0.0
 40
90.0
  1
2450
 41
0.6666666666666666
  7
00
 72
     4
 11
7994.004567557734
 21
2222.204834655467
 31
0.0
100
AcDbText
  0
TEXT
  5
2AFD5
330
2AEDA
100
AcDbEntity
  8
SUNPOU
100
AcDbText
 10
7602.004567557741
 20
2792.046901192671
 30
0.0
 40
90.0
  1
（屋根前面位置）
  7
01
 72
     4
 11
8019.004567557741
 21
2837.046901192671
 31
0.0
100
AcDbText
  0
TEXT
  5
2AFD6
330
2AEDA
100
AcDbEntity
  8
SUNPOU
100
AcDbText
 10
7494.004567557741
 20
2577.204834655466
 30
0.0
 40
90.0
  1
（土間コン前面位置）
  7
01
 72
     4
 11
8019.004567557741
 21
2622.204834655466
 31
0.0
100
AcDbText
  0
TEXT
  5
2AFD7
330
2AEDA
100
AcDbEntity
  8
SUNPOU
100
AcDbText
 10
7602.004567557741
 20
7053.762768118264
 30
0.0
 40
90.0
  1
（屋根後面位置）
  7
01
 72
     4
 11
8019.004567557741
 21
7098.762768118264
 31
0.0
100
AcDbText
  0
TEXT
  5
2AFD8
330
2AEDA
100
AcDbEntity
  8
SUNPOU
100
AcDbText
 10
7494.004567557741
 20
7437.204834655469
 30
0.0
 40
90.0
  1
（土間コン後面位置）
  7
01
 72
     4
 11
8019.004567557741
 21
7482.204834655468
 31
0.0
100
AcDbText
  0
LINE
  5
2AFD9
330
2AEDA
100
AcDbEntity
  8
SUNPOU
100
AcDbLine
 10
9219.004567557743
 20
3501.926974229796
 30
0.0
 11
9219.004567557735
 21
2102.204834655466
 31
0.0
  0
LINE
  5
2AFDA
330
2AEDA
100
AcDbEntity
  8
2PL-L2
100
AcDbLine
 10
6373.004567557741
 20
6997.204834655467
 30
0.0
 11
6373.004567557742
 21
2927.204834655467
 31
0.0
  0
LINE
  5
2AFDB
330
2AEDA
100
AcDbEntity
  8
1PL-M1
100
AcDbLine
 10
9219.004567557743
 20
3531.926974229797
 30
0.0
 11
9219.004567557743
 21
6392.204834655466
 31
0.0
  0
LINE
  5
2AFDC
330
2AEDA
100
AcDbEntity
  8
1PL-M1
100
AcDbLine
 10
6769.004567557741
 20
3531.926974229797
 30
0.0
 11
6769.004567557741
 21
6392.204834655466
 31
0.0
  0
LINE
  5
2AFDD
330
2AEDA
100
AcDbEntity
  8
U3
100
AcDbLine
 10
9569.004567557742
 20
2532.204834655466
 30
0.0
 11
9569.004567557742
 21
7392.204834655466
 31
0.0
  0
LINE
  5
2AFDE
330
2AEDA
100
AcDbEntity
  8
2PL-L2
100
AcDbLine
 10
9615.004567557742
 20
6997.204834655467
 30
0.0
 11
9615.004567557742
 21
2927.204834655467
 31
0.0
  0
LINE
  5
2AFDF
330
2AEDA
100
AcDbEntity
  8
SUNPOU
100
AcDbLine
 10
6664.004567557739
 20
6552.204834655483
 30
0.0
 11
6769.004567557741
 21
6552.204834655483
 31
0.0
  0
TEXT
  5
2AFE0
330
2AEDA
100
AcDbEntity
  8
SUNPOU
100
AcDbText
 10
6448.111710414884
 20
6498.633406084055
 30
0.0
 40
90.0
  1
A'
 50
0.0000000000000509
 41
0.6700000000000001
  7
00
 72
     4
 11
6484.00456755774
 21
6552.204834655483
 31
0.0
100
AcDbText
  0
LINE
  5
2AFE1
330
2AEDA
100
AcDbEntity
  8
SUNPOU
100
AcDbLine
 10
6769.004567557741
 20
6552.204834655483
 30
0.0
 11
6769.004567557741
 21
6402.204834655481
 31
0.0
  0
LINE
  5
2AFE2
330
2AEDA
100
AcDbEntity
  8
SUNPOU
100
AcDbLine
 10
6664.004567557743
 20
5432.204834655482
 30
0.0
 11
6769.004567557743
 21
5432.204834655482
 31
0.0
  0
TEXT
  5
2AFE3
330
2AEDA
100
AcDbEntity
  8
SUNPOU
100
AcDbText
 10
6458.16171041489
 20
5387.204834655482
 30
0.0
 40
90.0
  1
A
 50
0.0000000000000509
 41
0.6700000000000001
  7
00
 72
     4
 11
6484.004567557747
 21
5432.204834655482
 31
0.0
100
AcDbText
  0
LINE
  5
2AFE4
330
2AEDA
100
AcDbEntity
  8
SUNPOU
100
AcDbLine
 10
6769.004567557743
 20
5432.204834655486
 30
0.0
 11
6769.004567557743
 21
5582.204834655485
 31
0.0
  0
LINE
  5
2AFE5
330
2AEDA
100
AcDbEntity
  8
SUNPOU
100
AcDbLine
 10
6664.004567557743
 20
5417.204834655481
 30
0.0
 11
6574.004567557746
 21
5432.204834655482
 31
0.0
  0
LINE
  5
2AFE6
330
2AEDA
100
AcDbEntity
  8
SUNPOU
100
AcDbLine
 10
6574.004567557746
 20
5432.204834655482
 30
0.0
 11
6664.004567557743
 21
5447.204834655481
 31
0.0
  0
SOLID
  5
2AFE7
330
2AEDA
100
AcDbEntity
  8
SUNPOU
100
AcDbTrace
 10
6664.004567557743
 20
5417.204834655481
 30
0.0
 11
6664.004567557743
 21
5447.204834655481
 31
0.0
 12
6574.004567557746
 22
5432.204834655482
 32
0.0
 13
6574.004567557746
 23
5432.204834655482
 33
0.0
  0
LINE
  5
2AFE8
330
2AEDA
100
AcDbEntity
  8
SUNPOU
100
AcDbLine
 10
6664.004567557743
 20
5447.204834655481
 30
0.0
 11
6664.004567557743
 21
5417.204834655481
 31
0.0
  0
LINE
  5
2AFE9
330
2AEDA
100
AcDbEntity
  8
SUNPOU
100
AcDbLine
 10
6664.004567557739
 20
6567.204834655481
 30
0.0
 11
6574.00456755774
 21
6552.204834655483
 31
0.0
  0
LINE
  5
2AFEA
330
2AEDA
100
AcDbEntity
  8
SUNPOU
100
AcDbLine
 10
6574.00456755774
 20
6552.204834655483
 30
0.0
 11
6664.004567557739
 21
6537.204834655482
 31
0.0
  0
SOLID
  5
2AFEB
330
2AEDA
100
AcDbEntity
  8
SUNPOU
100
AcDbTrace
 10
6664.004567557739
 20
6567.204834655481
 30
0.0
 11
6664.004567557739
 21
6537.204834655482
 31
0.0
 12
6574.00456755774
 22
6552.204834655483
 32
0.0
 13
6574.00456755774
 23
6552.204834655483
 33
0.0
  0
LINE
  5
2AFEC
330
2AEDA
100
AcDbEntity
  8
SUNPOU
100
AcDbLine
 10
6664.004567557739
 20
6537.204834655482
 30
0.0
 11
6664.004567557739
 21
6567.204834655481
 31
0.0
  0
SOLID
  5
2AFED
330
2AEDA
100
AcDbEntity
  8
HIKIDASHI
100
AcDbTrace
 10
9165.164821595572
 20
6086.66635888253
 30
0.0
 11
9147.844313519883
 21
6076.666358882526
 31
0.0
 12
9186.504567557735
 22
6029.704834655467
 32
0.0
 13
9186.504567557735
 23
6029.704834655467
 33
0.0
  0
LINE
  5
2AFEE
330
2AEDA
100
AcDbEntity
  8
HIKIDASHI
100
AcDbLine
 10
9156.504567557728
 20
6081.666358882527
 30
0.0
 11
8944.132090706538
 21
6449.506278917882
 31
0.0
  0
TEXT
  5
2AFEF
330
2AEDA
100
AcDbEntity
  8
HIKIDASHI
100
AcDbText
 10
8830.132090706536
 20
6494.506278917882
 30
0.0
 40
90.0
  1
柱
  7
01
 72
     2
 11
8914.132090706536
 21
6539.506278917882
 31
0.0
100
AcDbText
 73
     2
  0
LINE
  5
2AFF0
330
2AEDA
100
AcDbEntity
  8
HIKIDASHI
100
AcDbLine
 10
8800.132090706538
 20
6449.506278917882
 30
0.0
 11
8944.132090706538
 21
6449.506278917882
 31
0.0
  0
LINE
  5
2AFF1
330
2AEDA
100
AcDbEntity
  8
HIKIDASHI
100
AcDbLine
 10
9156.504567557728
 20
4021.666358882526
 30
0.0
 11
8944.132090706538
 21
4389.50627891788
 31
0.0
  0
TEXT
  5
2AFF2
330
2AEDA
100
AcDbEntity
  8
HIKIDASHI
100
AcDbText
 10
8830.132090706536
 20
4434.506278917882
 30
0.0
 40
90.0
  1
柱
  7
01
 72
     2
 11
8914.132090706536
 21
4479.506278917883
 31
0.0
100
AcDbText
 73
     2
  0
LINE
  5
2AFF3
330
2AEDA
100
AcDbEntity
  8
HIKIDASHI
100
AcDbLine
 10
8800.132090706538
 20
4389.50627891788
 30
0.0
 11
8944.132090706538
 21
4389.50627891788
 31
0.0
  0
SOLID
  5
2AFF4
330
2AEDA
100
AcDbEntity
  8
HIKIDASHI
100
AcDbTrace
 10
9165.164821595579
 20
4026.666358882532
 30
0.0
 11
9147.84431351989
 21
4016.666358882527
 31
0.0
 12
9186.504567557742
 22
3969.704834655468
 32
0.0
 13
9186.504567557742
 23
3969.704834655468
 33
0.0
  0
TEXT
  5
2AFF5
330
2AEDA
100
AcDbEntity
  8
HIKIDASHI
100
AcDbText
 10
7395.308025622125
 20
1526.361478450244
 30
0.0
 40
135.0
  1
基 礎 伏 図
  7
01
 72
     2
 11
8241.308025622126
 21
1526.361478450244
 31
0.0
100
AcDbText
  0
TEXT
  5
2AFF6
330
2AEDA
100
AcDbEntity
  8
HIKIDASHI
100
AcDbText
 10
8342.558025622125
 20
1553.154975510082
 30
0.0
 40
90.0
  1
(S=
 41
0.6700000000000001
  7
00
100
AcDbText
  0
TEXT
  5
2AFF7
330
2AEDA
100
AcDbEntity
  8
HIKIDASHI
100
AcDbText
 10
8635.215760257322
 20
1523.716165409773
 30
0.0
 40
90.0
  1
30
 41
0.6700000000000001
  7
00
100
AcDbText
  0
TEXT
  5
2AFF8
330
2AEDA
100
AcDbEntity
  8
HIKIDASHI
100
AcDbText
 10
8771.820523327559
 20
1553.154975510082
 30
0.0
 40
90.0
  1
)
 41
0.6700000000000001
  7
00
100
AcDbText
  0
TEXT
  5
2AFF9
330
2AEDA
100
AcDbEntity
  8
HIKIDASHI
100
AcDbText
 10
8583.133711149356
 20
1553.154975510082
 30
0.0
 40
90.0
  1
/
 41
0.6700000000000001
  7
00
100
AcDbText
  0
TEXT
  5
2AFFA
330
2AEDA
100
AcDbEntity
  8
HIKIDASHI
100
AcDbText
 10
8545.854431052008
 20
1570.661637976806
 30
0.0
 40
90.0
  1
1
 41
0.6700000000000001
  7
00
100
AcDbText
  0
TEXT
  5
2AFFB
330
2AEDA
100
AcDbEntity
  8
FILENAME
100
AcDbText
 10
10258.64285714285
 20
130.4999999999999
 30
0.0
 40
75.0
  1
＜YOTC-245-SA-1_3_JIS_GL.DXF ＞
  7
FILENAME
 72
     2
 11
12286.5
 21
130.4999999999999
 31
0.0
100
AcDbText
  0
LINE
  5
2AFFC
330
2AEDA
100
AcDbEntity
  8
WAKUSEN-01
100
AcDbLine
 10
325.5000000000006
 20
310.4999999999997
 30
0.0
 11
12286.5
 21
310.4999999999997
 31
0.0
  0
LINE
  5
2AFFD
330
2AEDA
100
AcDbEntity
  8
WAKUSEN-01
100
AcDbLine
 10
325.5000000000006
 20
8431.500000000003
 30
0.0
 11
12286.5
 21
8431.500000000003
 31
0.0
  0
LINE
  5
2AFFE
330
2AEDA
100
AcDbEntity
  8
WAKUSEN-01
100
AcDbLine
 10
325.5000000000006
 20
310.4999999999997
 30
0.0
 11
325.5000000000006
 21
8431.500000000003
 31
0.0
  0
LINE
  5
2AFFF
330
2AEDA
100
AcDbEntity
  8
WAKUSEN-01
100
AcDbLine
 10
12286.5
 20
310.4999999999997
 30
0.0
 11
12286.5
 21
8431.500000000003
 31
0.0
  0
LINE
  5
2B000
330
2AEDA
100
AcDbEntity
  8
WAKUSEN-01
100
AcDbLine
 10
7710.0
 20
931.4999999999999
 30
0.0
 11
12286.5
 21
931.4999999999995
 31
0.0
  0
LINE
  5
2B001
330
2AEDA
100
AcDbEntity
  8
WAKUSEN-02
100
AcDbLine
 10
7710.0
 20
620.9999999999999
 30
0.0
 11
10075.49999999999
 21
620.9999999999999
 31
0.0
  0
TEXT
  5
2B002
330
2AEDA
100
AcDbEntity
  8
WAKUMOJI-01
100
AcDbText
 10
7751.347597486038
 20
797.2136285022457
 30
0.0
 40
90.0
  1
名　称
  7
WAKUMOJI
100
AcDbText
  0
TEXT
  5
2B003
330
2AEDA
100
AcDbEntity
  8
WAKUMOJI-01
100
AcDbText
 10
7746.18955690947
 20
494.6733656174329
 30
0.0
 40
90.0
  1
機種名
  7
WAKUMOJI
100
AcDbText
  0
LINE
  5
2B004
330
2AEDA
100
AcDbEntity
  8
WAKUSEN-01
100
AcDbLine
 10
7710.0
 20
310.4999999999989
 30
0.0
 11
7710.0
 21
931.4999999999999
 31
0.0
  0
LINE
  5
2B005
330
2AEDA
100
AcDbEntity
  8
WAKUSEN-02
100
AcDbLine
 10
10075.49999999999
 20
310.4999999999973
 30
0.0
 11
10075.49999999999
 21
931.4999999999999
 31
0.0
  0
LINE
  5
2B006
330
2AEDA
100
AcDbEntity
  8
YODOROGO
100
AcDbLine
 10
11241.60162798446
 20
748.4060611609828
 30
0.0
 11
11186.10162798447
 21
748.4060611609828
 31
0.0
1001
AUTOCAD_POSTSCRIPT_FIGURE
1002
{
1000
PSFILL
1000
Grayscale
1000
Grayscale
1070
    25
1002
}
  0
LINE
  5
2B007
330
2AEDA
100
AcDbEntity
  8
YODOROGO
100
AcDbLine
 10
11186.10162798447
 20
730.4060611609828
 30
0.0
 11
11241.60162798446
 21
730.4060611609828
 31
0.0
1001
AUTOCAD_POSTSCRIPT_FIGURE
1002
{
1000
PSFILL
1000
Grayscale
1000
Grayscale
1070
    25
1002
}
  0
LINE
  5
2B008
330
2AEDA
100
AcDbEntity
  8
YODOROGO
100
AcDbLine
 10
11241.60162798446
 20
715.4060611609828
 30
0.0
 11
11186.10162798447
 21
715.4060611609828
 31
0.0
1001
AUTOCAD_POSTSCRIPT_FIGURE
1002
{
1000
PSFILL
1000
Grayscale
1000
Grayscale
1070
    25
1002
}
  0
LINE
  5
2B009
330
2AEDA
100
AcDbEntity
  8
YODOROGO
100
AcDbLine
 10
11186.10162798447
 20
697.406061160983
 30
0.0
 11
11241.60162798446
 21
697.406061160983
 31
0.0
1001
AUTOCAD_POSTSCRIPT_FIGURE
1002
{
1000
PSFILL
1000
Grayscale
1000
Grayscale
1070
    25
1002
}
  0
LINE
  5
2B00A
330
2AEDA
100
AcDbEntity
  8
YODOROGO
100
AcDbLine
 10
11241.60162798446
 20
682.4060611609829
 30
0.0
 11
11186.10162798447
 21
682.4060611609829
 31
0.0
1001
AUTOCAD_POSTSCRIPT_FIGURE
1002
{
1000
PSFILL
1000
Grayscale
1000
Grayscale
1070
    25
1002
}
  0
LINE
  5
2B00B
330
2AEDA
100
AcDbEntity
  8
YODOROGO
100
AcDbLine
 10
11220.60162798447
 20
640.4060611609828
 30
0.0
 11
11241.60162798446
 21
640.4060611609828
 31
0.0
1001
AUTOCAD_POSTSCRIPT_FIGURE
1002
{
1000
PSFILL
1000
Grayscale
1000
Grayscale
1070
    25
1002
}
  0
LINE
  5
2B00C
330
2AEDA
100
AcDbEntity
  8
YODOROGO
100
AcDbLine
 10
11151.60162798447
 20
535.4060611609829
 30
0.0
 11
11226.60162798446
 21
555.5022505933164
 31
0.0
  0
LINE
  5
2B00D
330
2AEDA
100
AcDbEntity
  8
YODOROGO
100
AcDbLine
 10
11231.10162798446
 20
640.4060611609828
 30
0.0
 11
11207.10162798447
 21
640.4060611609828
 31
0.0
  0
ARC
  5
2B00E
330
2AEDA
100
AcDbEntity
  8
YODOROGO
100
AcDbCircle
 10
11345.38040618545
 20
677.9492284624735
 30
0.0
 40
143.2075740771177
100
AcDbArc
 50
213.9611167766784
 51
264.4787207431779
  0
ARC
  5
2B00F
330
2AEDA
100
AcDbEntity
  8
YODOROGO
100
AcDbCircle
 10
11345.38040618547
 20
677.9492284624883
 30
0.0
 40
143.2075740771305
100
AcDbArc
 50
208.141144204866
 51
212.9210361185994
  0
LINE
  5
2B010
330
2AEDA
100
AcDbEntity
  8
YODOROGO
100
AcDbLine
 10
11164.27870236948
 20
583.8028730048376
 30
0.0
 11
11225.1690496907
 21
600.1183923964076
 31
0.0
  0
LINE
  5
2B011
330
2AEDA
100
AcDbEntity
  8
YODOROGO
100
AcDbLine
 10
11151.60162798447
 20
535.4060611609829
 30
0.0
 11
11226.60162798446
 21
555.5022505933164
 31
0.0
  0
LINE
  5
2B012
330
2AEDA
100
AcDbEntity
  8
YODOROGO
100
AcDbLine
 10
11231.10162798446
 20
640.4060611609828
 30
0.0
 11
11207.10162798447
 21
640.4060611609828
 31
0.0
  0
ARC
  5
2B013
330
2AEDA
100
AcDbEntity
  8
YODOROGO
100
AcDbCircle
 10
11345.38040618545
 20
677.9492284624735
 30
0.0
 40
143.2075740771177
100
AcDbArc
 50
213.9611167766784
 51
264.4787207431779
  0
LINE
  5
2B014
330
2AEDA
100
AcDbEntity
  8
YODOROGO
100
AcDbLine
 10
10797.60162798446
 20
682.4060611609829
 30
0.0
 11
10662.60162798446
 21
682.4060611609829
 31
0.0
  0
LINE
  5
2B015
330
2AEDA
100
AcDbEntity
  8
YODOROGO
100
AcDbLine
 10
10692.60162798446
 20
535.4060611609829
 30
0.0
 11
10797.60162798446
 21
535.4060611609829
 31
0.0
  0
LINE
  5
2B016
330
2AEDA
100
AcDbEntity
  8
YODOROGO
100
AcDbLine
 10
10773.60162798447
 20
721.4060611609824
 30
0.0
 11
10686.60162798446
 21
721.4060611609824
 31
0.0
  0
LINE
  5
2B017
330
2AEDA
100
AcDbEntity
  8
YODOROGO
100
AcDbLine
 10
10719.60162798446
 20
760.4060611609829
 30
0.0
 11
10746.60162798447
 21
760.4060611609829
 31
0.0
  0
LINE
  5
2B018
330
2AEDA
100
AcDbEntity
  8
YODOROGO
100
AcDbLine
 10
10662.60162798446
 20
640.4060611609828
 30
0.0
 11
10662.60162798446
 21
565.4060611609828
 31
0.0
  0
LINE
  5
2B019
330
2AEDA
100
AcDbEntity
  8
YODOROGO
100
AcDbLine
 10
10686.60162798446
 20
586.4060611609825
 30
0.0
 11
10686.60162798446
 21
640.4060611609828
 31
0.0
  0
LINE
  5
2B01A
330
2AEDA
100
AcDbEntity
  8
YODOROGO
100
AcDbLine
 10
10719.60162798446
 20
655.4060611609838
 30
0.0
 11
10719.60162798446
 21
580.406061160983
 31
0.0
  0
LINE
  5
2B01B
330
2AEDA
100
AcDbEntity
  8
YODOROGO
100
AcDbLine
 10
10446.60162798447
 20
631.4060611609833
 30
0.0
 11
10416.60162798446
 21
607.4896552667143
 31
0.0
  0
LINE
  5
2B01C
330
2AEDA
100
AcDbEntity
  8
YODOROGO
100
AcDbLine
 10
10476.60162798446
 20
607.4896552667143
 30
0.0
 11
10446.60162798447
 21
631.4060611609833
 31
0.0
  0
LINE
  5
2B01D
330
2AEDA
100
AcDbEntity
  8
YODOROGO
100
AcDbLine
 10
10446.60162798447
 20
640.4060611609828
 30
0.0
 11
10476.60162798446
 21
616.4896552667137
 31
0.0
  0
LINE
  5
2B01E
330
2AEDA
100
AcDbEntity
  8
YODOROGO
100
AcDbLine
 10
10416.60162798446
 20
616.4896552667137
 30
0.0
 11
10446.60162798447
 21
640.4060611609828
 31
0.0
  0
LINE
  5
2B01F
330
2AEDA
100
AcDbEntity
  8
YODOROGO
100
AcDbLine
 10
10515.34245150633
 20
622.406061160983
 30
0.0
 11
10515.34245150633
 21
631.4060611609825
 31
0.0
  0
LINE
  5
2B020
330
2AEDA
100
AcDbEntity
  8
YODOROGO
100
AcDbLine
 10
10491.60162798447
 20
631.4060611609825
 30
0.0
 11
10491.60162798447
 21
625.4060611609819
 31
0.0
  0
LINE
  5
2B021
330
2AEDA
100
AcDbEntity
  8
YODOROGO
100
AcDbLine
 10
10536.8008200866
 20
640.4060611609828
 30
0.0
 11
10536.8008200866
 21
620.813863977996
 31
0.0
1001
AUTOCAD_POSTSCRIPT_FIGURE
1002
{
1000
PSFILL
1000
Grayscale
1000
Grayscale
1070
   100
1002
}
  0
LINE
  5
2B022
330
2AEDA
100
AcDbEntity
  8
YODOROGO
100
AcDbLine
 10
10530.80082008658
 20
620.813863977996
 30
0.0
 11
10530.80082008658
 21
640.4060611609828
 31
0.0
1001
AUTOCAD_POSTSCRIPT_FIGURE
1002
{
1000
PSFILL
1000
Grayscale
1000
Grayscale
1070
   100
1002
}
  0
LINE
  5
2B023
330
2AEDA
100
AcDbEntity
  8
YODOROGO
100
AcDbLine
 10
10428.60162798447
 20
603.2894640162218
 30
0.0
 11
10428.60162798447
 21
612.2894640162221
 31
0.0
  0
LINE
  5
2B024
330
2AEDA
100
AcDbEntity
  8
YODOROGO
100
AcDbLine
 10
10464.60162798447
 20
603.2894640162218
 30
0.0
 11
10428.60162798447
 21
603.2894640162218
 31
0.0
  0
LINE
  5
2B025
330
2AEDA
100
AcDbEntity
  8
YODOROGO
100
AcDbLine
 10
10464.60162798447
 20
612.2894640162221
 30
0.0
 11
10464.60162798447
 21
603.2894640162218
 31
0.0
  0
LINE
  5
2B026
330
2AEDA
100
AcDbEntity
  8
YODOROGO
100
AcDbLine
 10
10428.60162798447
 20
612.2894640162221
 30
0.0
 11
10464.60162798447
 21
612.2894640162221
 31
0.0
  0
LINE
  5
2B027
330
2AEDA
100
AcDbEntity
  8
YODOROGO
100
AcDbLine
 10
10434.1910958434
 20
588.1885715139279
 30
0.0
 11
10419.60162798446
 21
553.4060611609827
 31
0.0
1001
AUTOCAD_POSTSCRIPT_FIGURE
1002
{
1000
PSFILL
1000
Grayscale
1000
Grayscale
1070
   100
1002
}
  0
LINE
  5
2B028
330
2AEDA
100
AcDbEntity
  8
YODOROGO
100
AcDbLine
 10
10416.60162798446
 20
588.1885715139279
 30
0.0
 11
10434.1910958434
 21
588.1885715139279
 31
0.0
1001
AUTOCAD_POSTSCRIPT_FIGURE
1002
{
1000
PSFILL
1000
Grayscale
1000
Grayscale
1070
   100
1002
}
  0
LINE
  5
2B029
330
2AEDA
100
AcDbEntity
  8
YODOROGO
100
AcDbLine
 10
10416.60162798446
 20
595.688571513928
 30
0.0
 11
10416.60162798446
 21
588.1885715139279
 31
0.0
1001
AUTOCAD_POSTSCRIPT_FIGURE
1002
{
1000
PSFILL
1000
Grayscale
1000
Grayscale
1070
   100
1002
}
  0
LINE
  5
2B02A
330
2AEDA
100
AcDbEntity
  8
YODOROGO
100
AcDbLine
 10
10476.60162798446
 20
595.688571513928
 30
0.0
 11
10416.60162798446
 21
595.688571513928
 31
0.0
1001
AUTOCAD_POSTSCRIPT_FIGURE
1002
{
1000
PSFILL
1000
Grayscale
1000
Grayscale
1070
   100
1002
}
  0
LINE
  5
2B02B
330
2AEDA
100
AcDbEntity
  8
YODOROGO
100
AcDbLine
 10
10476.60162798446
 20
588.1885715139279
 30
0.0
 11
10476.60162798446
 21
595.688571513928
 31
0.0
1001
AUTOCAD_POSTSCRIPT_FIGURE
1002
{
1000
PSFILL
1000
Grayscale
1000
Grayscale
1070
   100
1002
}
  0
LINE
  5
2B02C
330
2AEDA
100
AcDbEntity
  8
YODOROGO
100
AcDbLine
 10
10441.69109584339
 20
588.1885715139279
 30
0.0
 11
10476.60162798446
 21
588.1885715139279
 31
0.0
1001
AUTOCAD_POSTSCRIPT_FIGURE
1002
{
1000
PSFILL
1000
Grayscale
1000
Grayscale
1070
   100
1002
}
  0
LINE
  5
2B02D
330
2AEDA
100
AcDbEntity
  8
YODOROGO
100
AcDbLine
 10
10430.83001935679
 20
560.9060611609827
 30
0.0
 11
10441.69109584339
 21
588.1885715139279
 31
0.0
1001
AUTOCAD_POSTSCRIPT_FIGURE
1002
{
1000
PSFILL
1000
Grayscale
1000
Grayscale
1070
   100
1002
}
  0
LINE
  5
2B02E
330
2AEDA
100
AcDbEntity
  8
YODOROGO
100
AcDbLine
 10
10463.27054655324
 20
560.9060611609827
 30
0.0
 11
10430.83001935679
 21
560.9060611609827
 31
0.0
1001
AUTOCAD_POSTSCRIPT_FIGURE
1002
{
1000
PSFILL
1000
Grayscale
1000
Grayscale
1070
   100
1002
}
  0
LINE
  5
2B02F
330
2AEDA
100
AcDbEntity
  8
YODOROGO
100
AcDbLine
 10
10456.8993767966
 20
576.0876790116348
 30
0.0
 11
10463.27054655324
 21
560.9060611609827
 31
0.0
1001
AUTOCAD_POSTSCRIPT_FIGURE
1002
{
1000
PSFILL
1000
Grayscale
1000
Grayscale
1070
   100
1002
}
  0
LINE
  5
2B030
330
2AEDA
100
AcDbEntity
  8
YODOROGO
100
AcDbLine
 10
10462.8993767966
 20
576.0876790116348
 30
0.0
 11
10456.8993767966
 21
576.0876790116348
 31
0.0
1001
AUTOCAD_POSTSCRIPT_FIGURE
1002
{
1000
PSFILL
1000
Grayscale
1000
Grayscale
1070
   100
1002
}
  0
LINE
  5
2B031
330
2AEDA
100
AcDbEntity
  8
YODOROGO
100
AcDbLine
 10
10473.60162798447
 20
553.4060611609827
 30
0.0
 11
10462.8993767966
 21
576.0876790116348
 31
0.0
1001
AUTOCAD_POSTSCRIPT_FIGURE
1002
{
1000
PSFILL
1000
Grayscale
1000
Grayscale
1070
   100
1002
}
  0
LINE
  5
2B032
330
2AEDA
100
AcDbEntity
  8
YODOROGO
100
AcDbLine
 10
10419.60162798446
 20
553.4060611609827
 30
0.0
 11
10473.60162798447
 21
553.4060611609827
 31
0.0
1001
AUTOCAD_POSTSCRIPT_FIGURE
1002
{
1000
PSFILL
1000
Grayscale
1000
Grayscale
1070
   100
1002
}
  0
LINE
  5
2B033
330
2AEDA
100
AcDbEntity
  8
YODOROGO
100
AcDbLine
 10
10416.60162798446
 20
607.4896552667143
 30
0.0
 11
10416.60162798446
 21
616.4896552667137
 31
0.0
  0
LINE
  5
2B034
330
2AEDA
100
AcDbEntity
  8
YODOROGO
100
AcDbLine
 10
10476.60162798446
 20
616.4896552667137
 30
0.0
 11
10476.60162798446
 21
607.4896552667143
 31
0.0
  0
ARC
  5
2B035
330
2AEDA
100
AcDbEntity
  8
YODOROGO
100
AcDbCircle
 10
10584.72766580511
 20
600.3291619969972
 30
0.0
 40
65.99999999999997
100
AcDbArc
 50
280.3644312771313
 51
3.541483659218056
  0
ARC
  5
2B036
330
2AEDA
100
AcDbEntity
  8
YODOROGO
100
AcDbCircle
 10
10588.40851153474
 20
612.5991776107142
 30
0.0
 40
41.99999999999936
100
AcDbArc
 50
281.2490582504155
 51
348.7509417495832
  0
LINE
  5
2B037
330
2AEDA
100
AcDbEntity
  8
YODOROGO
100
AcDbLine
 10
10596.60162798446
 20
571.4060611609824
 30
0.0
 11
10596.60162798446
 21
535.4060611609829
 31
0.0
  0
LINE
  5
2B038
330
2AEDA
100
AcDbEntity
  8
YODOROGO
100
AcDbLine
 10
10507.53333890132
 20
603.9939618982182
 30
0.0
 11
10515.34245150633
 21
622.406061160983
 31
0.0
  0
LINE
  5
2B039
330
2AEDA
100
AcDbEntity
  8
YODOROGO
100
AcDbLine
 10
10515.60162798446
 20
593.6701837306505
 30
0.0
 11
10507.53333890132
 21
603.9939618982182
 31
0.0
  0
LINE
  5
2B03A
330
2AEDA
100
AcDbEntity
  8
YODOROGO
100
AcDbLine
 10
10515.60162798446
 20
586.1701837306497
 30
0.0
 11
10515.60162798446
 21
593.6701837306505
 31
0.0
  0
LINE
  5
2B03B
330
2AEDA
100
AcDbEntity
  8
YODOROGO
100
AcDbLine
 10
10506.60162798447
 20
594.4638989060739
 30
0.0
 11
10515.60162798446
 21
586.1701837306497
 31
0.0
  0
LINE
  5
2B03C
330
2AEDA
100
AcDbEntity
  8
YODOROGO
100
AcDbLine
 10
10506.60162798447
 20
553.4060611609827
 30
0.0
 11
10506.60162798447
 21
594.4638989060739
 31
0.0
  0
LINE
  5
2B03D
330
2AEDA
100
AcDbEntity
  8
YODOROGO
100
AcDbLine
 10
10500.60162798446
 20
553.4060611609827
 30
0.0
 11
10506.60162798447
 21
553.4060611609827
 31
0.0
  0
LINE
  5
2B03E
330
2AEDA
100
AcDbEntity
  8
YODOROGO
100
AcDbLine
 10
10500.60162798446
 20
592.5020061336555
 30
0.0
 11
10500.60162798446
 21
553.4060611609827
 31
0.0
  0
LINE
  5
2B03F
330
2AEDA
100
AcDbEntity
  8
YODOROGO
100
AcDbLine
 10
10491.60162798447
 20
574.7880296375358
 30
0.0
 11
10500.60162798446
 21
592.5020061336555
 31
0.0
  0
LINE
  5
2B040
330
2AEDA
100
AcDbEntity
  8
YODOROGO
100
AcDbLine
 10
10491.60162798447
 20
583.788029637536
 30
0.0
 11
10491.60162798447
 21
574.7880296375358
 31
0.0
  0
LINE
  5
2B041
330
2AEDA
100
AcDbEntity
  8
YODOROGO
100
AcDbLine
 10
10509.68579035926
 20
625.4060611609819
 30
0.0
 11
10491.60162798447
 21
583.788029637536
 31
0.0
  0
LINE
  5
2B042
330
2AEDA
100
AcDbEntity
  8
YODOROGO
100
AcDbLine
 10
10491.60162798447
 20
625.4060611609819
 30
0.0
 11
10509.68579035926
 21
625.4060611609819
 31
0.0
  0
LINE
  5
2B043
330
2AEDA
100
AcDbEntity
  8
YODOROGO
100
AcDbLine
 10
10518.80082008659
 20
620.813863977996
 30
0.0
 11
10530.80082008658
 21
620.813863977996
 31
0.0
1001
AUTOCAD_POSTSCRIPT_FIGURE
1002
{
1000
PSFILL
1000
Grayscale
1000
Grayscale
1070
   100
1002
}
  0
LINE
  5
2B044
330
2AEDA
100
AcDbEntity
  8
YODOROGO
100
AcDbLine
 10
10518.80082008659
 20
611.8138639779965
 30
0.0
 11
10518.80082008659
 21
620.813863977996
 31
0.0
1001
AUTOCAD_POSTSCRIPT_FIGURE
1002
{
1000
PSFILL
1000
Grayscale
1000
Grayscale
1070
   100
1002
}
  0
LINE
  5
2B045
330
2AEDA
100
AcDbEntity
  8
YODOROGO
100
AcDbLine
 10
10530.80082008658
 20
611.8138639779965
 30
0.0
 11
10518.80082008659
 21
611.8138639779965
 31
0.0
1001
AUTOCAD_POSTSCRIPT_FIGURE
1002
{
1000
PSFILL
1000
Grayscale
1000
Grayscale
1070
   100
1002
}
  0
LINE
  5
2B046
330
2AEDA
100
AcDbEntity
  8
YODOROGO
100
AcDbLine
 10
10530.80082008658
 20
562.4060611609831
 30
0.0
 11
10530.80082008658
 21
611.8138639779965
 31
0.0
1001
AUTOCAD_POSTSCRIPT_FIGURE
1002
{
1000
PSFILL
1000
Grayscale
1000
Grayscale
1070
   100
1002
}
  0
LINE
  5
2B047
330
2AEDA
100
AcDbEntity
  8
YODOROGO
100
AcDbLine
 10
10518.8008200866
 20
562.4060611609831
 30
0.0
 11
10530.80082008658
 21
562.4060611609831
 31
0.0
1001
AUTOCAD_POSTSCRIPT_FIGURE
1002
{
1000
PSFILL
1000
Grayscale
1000
Grayscale
1070
   100
1002
}
  0
LINE
  5
2B048
330
2AEDA
100
AcDbEntity
  8
YODOROGO
100
AcDbLine
 10
10518.8008200866
 20
553.4060611609827
 30
0.0
 11
10518.8008200866
 21
562.4060611609831
 31
0.0
1001
AUTOCAD_POSTSCRIPT_FIGURE
1002
{
1000
PSFILL
1000
Grayscale
1000
Grayscale
1070
   100
1002
}
  0
LINE
  5
2B049
330
2AEDA
100
AcDbEntity
  8
YODOROGO
100
AcDbLine
 10
10551.60162798447
 20
553.4060611609827
 30
0.0
 11
10518.8008200866
 21
553.4060611609827
 31
0.0
1001
AUTOCAD_POSTSCRIPT_FIGURE
1002
{
1000
PSFILL
1000
Grayscale
1000
Grayscale
1070
   100
1002
}
  0
LINE
  5
2B04A
330
2AEDA
100
AcDbEntity
  8
YODOROGO
100
AcDbLine
 10
10551.60162798447
 20
562.4060611609831
 30
0.0
 11
10551.60162798447
 21
553.4060611609827
 31
0.0
1001
AUTOCAD_POSTSCRIPT_FIGURE
1002
{
1000
PSFILL
1000
Grayscale
1000
Grayscale
1070
   100
1002
}
  0
LINE
  5
2B04B
330
2AEDA
100
AcDbEntity
  8
YODOROGO
100
AcDbLine
 10
10536.8008200866
 20
562.4060611609831
 30
0.0
 11
10551.60162798447
 21
562.4060611609831
 31
0.0
1001
AUTOCAD_POSTSCRIPT_FIGURE
1002
{
1000
PSFILL
1000
Grayscale
1000
Grayscale
1070
   100
1002
}
  0
LINE
  5
2B04C
330
2AEDA
100
AcDbEntity
  8
YODOROGO
100
AcDbLine
 10
10536.8008200866
 20
611.8138639779965
 30
0.0
 11
10536.8008200866
 21
562.4060611609831
 31
0.0
1001
AUTOCAD_POSTSCRIPT_FIGURE
1002
{
1000
PSFILL
1000
Grayscale
1000
Grayscale
1070
   100
1002
}
  0
LINE
  5
2B04D
330
2AEDA
100
AcDbEntity
  8
YODOROGO
100
AcDbLine
 10
10551.60162798447
 20
611.8138639779965
 30
0.0
 11
10536.8008200866
 21
611.8138639779965
 31
0.0
1001
AUTOCAD_POSTSCRIPT_FIGURE
1002
{
1000
PSFILL
1000
Grayscale
1000
Grayscale
1070
   100
1002
}
  0
LINE
  5
2B04E
330
2AEDA
100
AcDbEntity
  8
YODOROGO
100
AcDbLine
 10
10551.60162798447
 20
620.813863977996
 30
0.0
 11
10551.60162798447
 21
611.8138639779965
 31
0.0
1001
AUTOCAD_POSTSCRIPT_FIGURE
1002
{
1000
PSFILL
1000
Grayscale
1000
Grayscale
1070
   100
1002
}
  0
LINE
  5
2B04F
330
2AEDA
100
AcDbEntity
  8
YODOROGO
100
AcDbLine
 10
10536.8008200866
 20
620.813863977996
 30
0.0
 11
10551.60162798447
 21
620.813863977996
 31
0.0
1001
AUTOCAD_POSTSCRIPT_FIGURE
1002
{
1000
PSFILL
1000
Grayscale
1000
Grayscale
1070
   100
1002
}
  0
LINE
  5
2B050
330
2AEDA
100
AcDbEntity
  8
YODOROGO
100
AcDbLine
 10
10650.60162798447
 20
625.406061160983
 30
0.0
 11
10629.60162798447
 21
625.406061160983
 31
0.0
  0
LINE
  5
2B051
330
2AEDA
100
AcDbEntity
  8
YODOROGO
100
AcDbLine
 10
10650.60162798447
 20
604.4060611609832
 30
0.0
 11
10650.60162798447
 21
625.406061160983
 31
0.0
  0
LINE
  5
2B052
330
2AEDA
100
AcDbEntity
  8
YODOROGO
100
AcDbLine
 10
10629.60162798447
 20
625.406061160983
 30
0.0
 11
10629.60162798447
 21
604.4060611609832
 31
0.0
  0
ARC
  5
2B053
330
2AEDA
100
AcDbEntity
  8
YODOROGO
100
AcDbCircle
 10
10692.60162798446
 20
565.4060611609828
 30
0.0
 40
30.0
100
AcDbArc
 50
180.0
 51
270.0
  0
ARC
  5
2B054
330
2AEDA
100
AcDbEntity
  8
YODOROGO
100
AcDbCircle
 10
10701.60162798446
 20
586.4060611609825
 30
0.0
 40
15.0
100
AcDbArc
 50
180.0
 51
270.0
  0
LINE
  5
2B055
330
2AEDA
100
AcDbEntity
  8
YODOROGO
100
AcDbLine
 10
10710.60162798447
 20
571.4060611609824
 30
0.0
 11
10701.60162798446
 21
571.4060611609824
 31
0.0
  0
ARC
  5
2B056
330
2AEDA
100
AcDbEntity
  8
YODOROGO
100
AcDbCircle
 10
10710.60162798447
 20
580.4060611609819
 30
0.0
 40
8.999999999998637
100
AcDbArc
 50
270.0
 51
0.0000000000054281
  0
LINE
  5
2B057
330
2AEDA
100
AcDbEntity
  8
YODOROGO
100
AcDbLine
 10
10425.60162798447
 20
709.0449677976399
 30
0.0
 11
10416.60162798446
 21
691.4162804818772
 31
0.0
1001
AUTOCAD_POSTSCRIPT_FIGURE
1002
{
1000
PSFILL
1000
Grayscale
1000
Grayscale
1070
   100
1002
}
  0
LINE
  5
2B058
330
2AEDA
100
AcDbEntity
  8
YODOROGO
100
AcDbLine
 10
10425.60162798447
 20
655.406061160983
 30
0.0
 11
10425.60162798447
 21
709.0449677976399
 31
0.0
1001
AUTOCAD_POSTSCRIPT_FIGURE
1002
{
1000
PSFILL
1000
Grayscale
1000
Grayscale
1070
   100
1002
}
  0
LINE
  5
2B059
330
2AEDA
100
AcDbEntity
  8
YODOROGO
100
AcDbLine
 10
10431.60162798447
 20
655.406061160983
 30
0.0
 11
10425.60162798447
 21
655.406061160983
 31
0.0
1001
AUTOCAD_POSTSCRIPT_FIGURE
1002
{
1000
PSFILL
1000
Grayscale
1000
Grayscale
1070
   100
1002
}
  0
LINE
  5
2B05A
330
2AEDA
100
AcDbEntity
  8
YODOROGO
100
AcDbLine
 10
10431.60162798447
 20
710.1642495319751
 30
0.0
 11
10431.60162798447
 21
655.406061160983
 31
0.0
1001
AUTOCAD_POSTSCRIPT_FIGURE
1002
{
1000
PSFILL
1000
Grayscale
1000
Grayscale
1070
   100
1002
}
  0
LINE
  5
2B05B
330
2AEDA
100
AcDbEntity
  8
YODOROGO
100
AcDbLine
 10
10440.60162798446
 20
700.3705343565512
 30
0.0
 11
10431.60162798447
 21
710.1642495319751
 31
0.0
1001
AUTOCAD_POSTSCRIPT_FIGURE
1002
{
1000
PSFILL
1000
Grayscale
1000
Grayscale
1070
   100
1002
}
  0
LINE
  5
2B05C
330
2AEDA
100
AcDbEntity
  8
YODOROGO
100
AcDbLine
 10
10440.60162798446
 20
706.3705343565509
 30
0.0
 11
10440.60162798446
 21
700.3705343565512
 31
0.0
1001
AUTOCAD_POSTSCRIPT_FIGURE
1002
{
1000
PSFILL
1000
Grayscale
1000
Grayscale
1070
   100
1002
}
  0
LINE
  5
2B05D
330
2AEDA
100
AcDbEntity
  8
YODOROGO
100
AcDbLine
 10
10431.60162798447
 20
719.1642495319745
 30
0.0
 11
10440.60162798446
 21
706.3705343565509
 31
0.0
1001
AUTOCAD_POSTSCRIPT_FIGURE
1002
{
1000
PSFILL
1000
Grayscale
1000
Grayscale
1070
   100
1002
}
  0
LINE
  5
2B05E
330
2AEDA
100
AcDbEntity
  8
YODOROGO
100
AcDbLine
 10
10431.60162798447
 20
727.4060611609828
 30
0.0
 11
10431.60162798447
 21
719.1642495319745
 31
0.0
1001
AUTOCAD_POSTSCRIPT_FIGURE
1002
{
1000
PSFILL
1000
Grayscale
1000
Grayscale
1070
   100
1002
}
  0
LINE
  5
2B05F
330
2AEDA
100
AcDbEntity
  8
YODOROGO
100
AcDbLine
 10
10458.60162798446
 20
727.4060611609828
 30
0.0
 11
10431.60162798447
 21
727.4060611609828
 31
0.0
1001
AUTOCAD_POSTSCRIPT_FIGURE
1002
{
1000
PSFILL
1000
Grayscale
1000
Grayscale
1070
   100
1002
}
  0
LINE
  5
2B060
330
2AEDA
100
AcDbEntity
  8
YODOROGO
100
AcDbLine
 10
10458.60162798446
 20
712.7131308511124
 30
0.0
 11
10458.60162798446
 21
727.4060611609828
 31
0.0
1001
AUTOCAD_POSTSCRIPT_FIGURE
1002
{
1000
PSFILL
1000
Grayscale
1000
Grayscale
1070
   100
1002
}
  0
LINE
  5
2B061
330
2AEDA
100
AcDbEntity
  8
YODOROGO
100
AcDbLine
 10
10446.60162798447
 20
712.7131308511124
 30
0.0
 11
10458.60162798446
 21
712.7131308511124
 31
0.0
1001
AUTOCAD_POSTSCRIPT_FIGURE
1002
{
1000
PSFILL
1000
Grayscale
1000
Grayscale
1070
   100
1002
}
  0
LINE
  5
2B062
330
2AEDA
100
AcDbEntity
  8
YODOROGO
100
AcDbLine
 10
10446.60162798447
 20
706.7131308511119
 30
0.0
 11
10446.60162798447
 21
712.7131308511124
 31
0.0
1001
AUTOCAD_POSTSCRIPT_FIGURE
1002
{
1000
PSFILL
1000
Grayscale
1000
Grayscale
1070
   100
1002
}
  0
LINE
  5
2B063
330
2AEDA
100
AcDbEntity
  8
YODOROGO
100
AcDbLine
 10
10458.60162798446
 20
706.7131308511119
 30
0.0
 11
10446.60162798447
 21
706.7131308511119
 31
0.0
1001
AUTOCAD_POSTSCRIPT_FIGURE
1002
{
1000
PSFILL
1000
Grayscale
1000
Grayscale
1070
   100
1002
}
  0
LINE
  5
2B064
330
2AEDA
100
AcDbEntity
  8
YODOROGO
100
AcDbLine
 10
10458.60162798446
 20
704.8571917366647
 30
0.0
 11
10458.60162798446
 21
706.7131308511119
 31
0.0
1001
AUTOCAD_POSTSCRIPT_FIGURE
1002
{
1000
PSFILL
1000
Grayscale
1000
Grayscale
1070
   100
1002
}
  0
LINE
  5
2B065
330
2AEDA
100
AcDbEntity
  8
YODOROGO
100
AcDbLine
 10
10443.60162798447
 20
679.8656179355313
 30
0.0
 11
10458.60162798446
 21
704.8571917366647
 31
0.0
1001
AUTOCAD_POSTSCRIPT_FIGURE
1002
{
1000
PSFILL
1000
Grayscale
1000
Grayscale
1070
   100
1002
}
  0
LINE
  5
2B066
330
2AEDA
100
AcDbEntity
  8
YODOROGO
100
AcDbLine
 10
10443.60162798447
 20
673.8656179355309
 30
0.0
 11
10443.60162798447
 21
679.8656179355313
 31
0.0
1001
AUTOCAD_POSTSCRIPT_FIGURE
1002
{
1000
PSFILL
1000
Grayscale
1000
Grayscale
1070
   100
1002
}
  0
LINE
  5
2B067
330
2AEDA
100
AcDbEntity
  8
YODOROGO
100
AcDbLine
 10
10458.60162798446
 20
692.8571917366638
 30
0.0
 11
10443.60162798447
 21
673.8656179355309
 31
0.0
1001
AUTOCAD_POSTSCRIPT_FIGURE
1002
{
1000
PSFILL
1000
Grayscale
1000
Grayscale
1070
   100
1002
}
  0
LINE
  5
2B068
330
2AEDA
100
AcDbEntity
  8
YODOROGO
100
AcDbLine
 10
10458.60162798446
 20
655.406061160983
 30
0.0
 11
10458.60162798446
 21
692.8571917366638
 31
0.0
1001
AUTOCAD_POSTSCRIPT_FIGURE
1002
{
1000
PSFILL
1000
Grayscale
1000
Grayscale
1070
   100
1002
}
  0
LINE
  5
2B069
330
2AEDA
100
AcDbEntity
  8
YODOROGO
100
AcDbLine
 10
10464.60162798447
 20
655.406061160983
 30
0.0
 11
10458.60162798446
 21
655.406061160983
 31
0.0
1001
AUTOCAD_POSTSCRIPT_FIGURE
1002
{
1000
PSFILL
1000
Grayscale
1000
Grayscale
1070
   100
1002
}
  0
LINE
  5
2B06A
330
2AEDA
100
AcDbEntity
  8
YODOROGO
100
AcDbLine
 10
10464.60162798447
 20
693.5283795595521
 30
0.0
 11
10464.60162798447
 21
655.406061160983
 31
0.0
1001
AUTOCAD_POSTSCRIPT_FIGURE
1002
{
1000
PSFILL
1000
Grayscale
1000
Grayscale
1070
   100
1002
}
  0
LINE
  5
2B06B
330
2AEDA
100
AcDbEntity
  8
YODOROGO
100
AcDbLine
 10
10476.60162798446
 20
673.8656179355309
 30
0.0
 11
10464.60162798447
 21
693.5283795595521
 31
0.0
1001
AUTOCAD_POSTSCRIPT_FIGURE
1002
{
1000
PSFILL
1000
Grayscale
1000
Grayscale
1070
   100
1002
}
  0
LINE
  5
2B06C
330
2AEDA
100
AcDbEntity
  8
YODOROGO
100
AcDbLine
 10
10476.60162798446
 20
679.8656179355313
 30
0.0
 11
10476.60162798446
 21
673.8656179355309
 31
0.0
1001
AUTOCAD_POSTSCRIPT_FIGURE
1002
{
1000
PSFILL
1000
Grayscale
1000
Grayscale
1070
   100
1002
}
  0
LINE
  5
2B06D
330
2AEDA
100
AcDbEntity
  8
YODOROGO
100
AcDbLine
 10
10464.60162798447
 20
705.5283795595531
 30
0.0
 11
10476.60162798446
 21
679.8656179355313
 31
0.0
1001
AUTOCAD_POSTSCRIPT_FIGURE
1002
{
1000
PSFILL
1000
Grayscale
1000
Grayscale
1070
   100
1002
}
  0
LINE
  5
2B06E
330
2AEDA
100
AcDbEntity
  8
YODOROGO
100
AcDbLine
 10
10464.60162798447
 20
706.7131308511128
 30
0.0
 11
10464.60162798447
 21
705.5283795595531
 31
0.0
1001
AUTOCAD_POSTSCRIPT_FIGURE
1002
{
1000
PSFILL
1000
Grayscale
1000
Grayscale
1070
   100
1002
}
  0
LINE
  5
2B06F
330
2AEDA
100
AcDbEntity
  8
YODOROGO
100
AcDbLine
 10
10476.60162798446
 20
706.7131308511119
 30
0.0
 11
10464.60162798447
 21
706.7131308511128
 31
0.0
1001
AUTOCAD_POSTSCRIPT_FIGURE
1002
{
1000
PSFILL
1000
Grayscale
1000
Grayscale
1070
   100
1002
}
  0
LINE
  5
2B070
330
2AEDA
100
AcDbEntity
  8
YODOROGO
100
AcDbLine
 10
10476.60162798446
 20
712.7131308511124
 30
0.0
 11
10476.60162798446
 21
706.7131308511119
 31
0.0
1001
AUTOCAD_POSTSCRIPT_FIGURE
1002
{
1000
PSFILL
1000
Grayscale
1000
Grayscale
1070
   100
1002
}
  0
LINE
  5
2B071
330
2AEDA
100
AcDbEntity
  8
YODOROGO
100
AcDbLine
 10
10464.60162798447
 20
712.7131308511124
 30
0.0
 11
10476.60162798446
 21
712.7131308511124
 31
0.0
1001
AUTOCAD_POSTSCRIPT_FIGURE
1002
{
1000
PSFILL
1000
Grayscale
1000
Grayscale
1070
   100
1002
}
  0
LINE
  5
2B072
330
2AEDA
100
AcDbEntity
  8
YODOROGO
100
AcDbLine
 10
10464.60162798447
 20
727.4060611609828
 30
0.0
 11
10464.60162798447
 21
712.7131308511124
 31
0.0
1001
AUTOCAD_POSTSCRIPT_FIGURE
1002
{
1000
PSFILL
1000
Grayscale
1000
Grayscale
1070
   100
1002
}
  0
LINE
  5
2B073
330
2AEDA
100
AcDbEntity
  8
YODOROGO
100
AcDbLine
 10
10476.60162798446
 20
727.4060611609828
 30
0.0
 11
10464.60162798447
 21
727.4060611609828
 31
0.0
1001
AUTOCAD_POSTSCRIPT_FIGURE
1002
{
1000
PSFILL
1000
Grayscale
1000
Grayscale
1070
   100
1002
}
  0
LINE
  5
2B074
330
2AEDA
100
AcDbEntity
  8
YODOROGO
100
AcDbLine
 10
10476.60162798446
 20
733.4060611609828
 30
0.0
 11
10476.60162798446
 21
727.4060611609828
 31
0.0
1001
AUTOCAD_POSTSCRIPT_FIGURE
1002
{
1000
PSFILL
1000
Grayscale
1000
Grayscale
1070
   100
1002
}
  0
LINE
  5
2B075
330
2AEDA
100
AcDbEntity
  8
YODOROGO
100
AcDbLine
 10
10464.60162798447
 20
733.4060611609828
 30
0.0
 11
10476.60162798446
 21
733.4060611609828
 31
0.0
1001
AUTOCAD_POSTSCRIPT_FIGURE
1002
{
1000
PSFILL
1000
Grayscale
1000
Grayscale
1070
   100
1002
}
  0
LINE
  5
2B076
330
2AEDA
100
AcDbEntity
  8
YODOROGO
100
AcDbLine
 10
10464.60162798447
 20
742.4060611609832
 30
0.0
 11
10464.60162798447
 21
733.4060611609828
 31
0.0
1001
AUTOCAD_POSTSCRIPT_FIGURE
1002
{
1000
PSFILL
1000
Grayscale
1000
Grayscale
1070
   100
1002
}
  0
LINE
  5
2B077
330
2AEDA
100
AcDbEntity
  8
YODOROGO
100
AcDbLine
 10
10458.60162798446
 20
742.4060611609832
 30
0.0
 11
10464.60162798447
 21
742.4060611609832
 31
0.0
1001
AUTOCAD_POSTSCRIPT_FIGURE
1002
{
1000
PSFILL
1000
Grayscale
1000
Grayscale
1070
   100
1002
}
  0
LINE
  5
2B078
330
2AEDA
100
AcDbEntity
  8
YODOROGO
100
AcDbLine
 10
10458.60162798446
 20
733.4060611609828
 30
0.0
 11
10458.60162798446
 21
742.4060611609832
 31
0.0
1001
AUTOCAD_POSTSCRIPT_FIGURE
1002
{
1000
PSFILL
1000
Grayscale
1000
Grayscale
1070
   100
1002
}
  0
LINE
  5
2B079
330
2AEDA
100
AcDbEntity
  8
YODOROGO
100
AcDbLine
 10
10449.60162798447
 20
733.4060611609828
 30
0.0
 11
10458.60162798446
 21
733.4060611609828
 31
0.0
1001
AUTOCAD_POSTSCRIPT_FIGURE
1002
{
1000
PSFILL
1000
Grayscale
1000
Grayscale
1070
   100
1002
}
  0
LINE
  5
2B07A
330
2AEDA
100
AcDbEntity
  8
YODOROGO
100
AcDbLine
 10
10449.60162798447
 20
742.4060611609832
 30
0.0
 11
10449.60162798447
 21
733.4060611609828
 31
0.0
1001
AUTOCAD_POSTSCRIPT_FIGURE
1002
{
1000
PSFILL
1000
Grayscale
1000
Grayscale
1070
   100
1002
}
  0
LINE
  5
2B07B
330
2AEDA
100
AcDbEntity
  8
YODOROGO
100
AcDbLine
 10
10443.60162798447
 20
742.4060611609832
 30
0.0
 11
10449.60162798447
 21
742.4060611609832
 31
0.0
1001
AUTOCAD_POSTSCRIPT_FIGURE
1002
{
1000
PSFILL
1000
Grayscale
1000
Grayscale
1070
   100
1002
}
  0
LINE
  5
2B07C
330
2AEDA
100
AcDbEntity
  8
YODOROGO
100
AcDbLine
 10
10443.60162798447
 20
733.4060611609828
 30
0.0
 11
10443.60162798447
 21
742.4060611609832
 31
0.0
1001
AUTOCAD_POSTSCRIPT_FIGURE
1002
{
1000
PSFILL
1000
Grayscale
1000
Grayscale
1070
   100
1002
}
  0
LINE
  5
2B07D
330
2AEDA
100
AcDbEntity
  8
YODOROGO
100
AcDbLine
 10
10431.60162798447
 20
733.4060611609828
 30
0.0
 11
10443.60162798447
 21
733.4060611609828
 31
0.0
1001
AUTOCAD_POSTSCRIPT_FIGURE
1002
{
1000
PSFILL
1000
Grayscale
1000
Grayscale
1070
   100
1002
}
  0
LINE
  5
2B07E
330
2AEDA
100
AcDbEntity
  8
YODOROGO
100
AcDbLine
 10
10431.60162798447
 20
742.4060611609832
 30
0.0
 11
10431.60162798447
 21
733.4060611609828
 31
0.0
1001
AUTOCAD_POSTSCRIPT_FIGURE
1002
{
1000
PSFILL
1000
Grayscale
1000
Grayscale
1070
   100
1002
}
  0
LINE
  5
2B07F
330
2AEDA
100
AcDbEntity
  8
YODOROGO
100
AcDbLine
 10
10425.60162798447
 20
742.4060611609832
 30
0.0
 11
10431.60162798447
 21
742.4060611609832
 31
0.0
1001
AUTOCAD_POSTSCRIPT_FIGURE
1002
{
1000
PSFILL
1000
Grayscale
1000
Grayscale
1070
   100
1002
}
  0
LINE
  5
2B080
330
2AEDA
100
AcDbEntity
  8
YODOROGO
100
AcDbLine
 10
10425.60162798447
 20
733.4060611609828
 30
0.0
 11
10425.60162798447
 21
742.4060611609832
 31
0.0
1001
AUTOCAD_POSTSCRIPT_FIGURE
1002
{
1000
PSFILL
1000
Grayscale
1000
Grayscale
1070
   100
1002
}
  0
LINE
  5
2B081
330
2AEDA
100
AcDbEntity
  8
YODOROGO
100
AcDbLine
 10
10416.60162798446
 20
733.4060611609828
 30
0.0
 11
10425.60162798447
 21
733.4060611609828
 31
0.0
1001
AUTOCAD_POSTSCRIPT_FIGURE
1002
{
1000
PSFILL
1000
Grayscale
1000
Grayscale
1070
   100
1002
}
  0
LINE
  5
2B082
330
2AEDA
100
AcDbEntity
  8
YODOROGO
100
AcDbLine
 10
10416.60162798446
 20
727.4060611609828
 30
0.0
 11
10416.60162798446
 21
733.4060611609828
 31
0.0
1001
AUTOCAD_POSTSCRIPT_FIGURE
1002
{
1000
PSFILL
1000
Grayscale
1000
Grayscale
1070
   100
1002
}
  0
LINE
  5
2B083
330
2AEDA
100
AcDbEntity
  8
YODOROGO
100
AcDbLine
 10
10425.60162798447
 20
727.4060611609828
 30
0.0
 11
10416.60162798446
 21
727.4060611609828
 31
0.0
1001
AUTOCAD_POSTSCRIPT_FIGURE
1002
{
1000
PSFILL
1000
Grayscale
1000
Grayscale
1070
   100
1002
}
  0
LINE
  5
2B084
330
2AEDA
100
AcDbEntity
  8
YODOROGO
100
AcDbLine
 10
10425.60162798447
 20
718.0449677976392
 30
0.0
 11
10425.60162798447
 21
727.4060611609828
 31
0.0
1001
AUTOCAD_POSTSCRIPT_FIGURE
1002
{
1000
PSFILL
1000
Grayscale
1000
Grayscale
1070
   100
1002
}
  0
LINE
  5
2B085
330
2AEDA
100
AcDbEntity
  8
YODOROGO
100
AcDbLine
 10
10416.60162798446
 20
697.4162804818766
 30
0.0
 11
10425.60162798447
 21
718.0449677976392
 31
0.0
1001
AUTOCAD_POSTSCRIPT_FIGURE
1002
{
1000
PSFILL
1000
Grayscale
1000
Grayscale
1070
   100
1002
}
  0
LINE
  5
2B086
330
2AEDA
100
AcDbEntity
  8
YODOROGO
100
AcDbLine
 10
10416.60162798446
 20
691.4162804818772
 30
0.0
 11
10416.60162798446
 21
697.4162804818766
 31
0.0
1001
AUTOCAD_POSTSCRIPT_FIGURE
1002
{
1000
PSFILL
1000
Grayscale
1000
Grayscale
1070
   100
1002
}
  0
LINE
  5
2B087
330
2AEDA
100
AcDbEntity
  8
YODOROGO
100
AcDbLine
 10
10596.60162798446
 20
700.406061160983
 30
0.0
 11
10650.60162798447
 21
684.3291096151149
 31
0.0
1001
AUTOCAD_POSTSCRIPT_FIGURE
1002
{
1000
PSFILL
1000
Grayscale
1000
Grayscale
1070
   100
1002
}
  0
LINE
  5
2B088
330
2AEDA
100
AcDbEntity
  8
YODOROGO
100
AcDbLine
 10
10650.60162798447
 20
657.3291096151146
 30
0.0
 11
10596.60162798446
 21
673.4060611609827
 31
0.0
1001
AUTOCAD_POSTSCRIPT_FIGURE
1002
{
1000
PSFILL
1000
Grayscale
1000
Grayscale
1070
   100
1002
}
  0
LINE
  5
2B089
330
2AEDA
100
AcDbEntity
  8
YODOROGO
100
AcDbLine
 10
10650.60162798447
 20
744.329109615115
 30
0.0
 11
10596.60162798446
 21
760.4060611609829
 31
0.0
1001
AUTOCAD_POSTSCRIPT_FIGURE
1002
{
1000
PSFILL
1000
Grayscale
1000
Grayscale
1070
   100
1002
}
  0
LINE
  5
2B08A
330
2AEDA
100
AcDbEntity
  8
YODOROGO
100
AcDbLine
 10
10596.60162798446
 20
734.9060611609829
 30
0.0
 11
10650.60162798447
 21
718.829109615115
 31
0.0
1001
AUTOCAD_POSTSCRIPT_FIGURE
1002
{
1000
PSFILL
1000
Grayscale
1000
Grayscale
1070
   100
1002
}
  0
LINE
  5
2B08B
330
2AEDA
100
AcDbEntity
  8
YODOROGO
100
AcDbLine
 10
10596.60162798446
 20
673.4060611609827
 30
0.0
 11
10596.60162798446
 21
700.406061160983
 31
0.0
1001
AUTOCAD_POSTSCRIPT_FIGURE
1002
{
1000
PSFILL
1000
Grayscale
1000
Grayscale
1070
   100
1002
}
  0
LINE
  5
2B08C
330
2AEDA
100
AcDbEntity
  8
YODOROGO
100
AcDbLine
 10
10596.60162798446
 20
760.4060611609829
 30
0.0
 11
10596.60162798446
 21
734.9060611609829
 31
0.0
1001
AUTOCAD_POSTSCRIPT_FIGURE
1002
{
1000
PSFILL
1000
Grayscale
1000
Grayscale
1070
   100
1002
}
  0
LINE
  5
2B08D
330
2AEDA
100
AcDbEntity
  8
YODOROGO
100
AcDbLine
 10
10530.08862007752
 20
727.4060611609828
 30
0.0
 11
10548.60162798447
 21
655.406061160983
 31
0.0
1001
AUTOCAD_POSTSCRIPT_FIGURE
1002
{
1000
PSFILL
1000
Grayscale
1000
Grayscale
1070
   100
1002
}
  0
LINE
  5
2B08E
330
2AEDA
100
AcDbEntity
  8
YODOROGO
100
AcDbLine
 10
10491.60162798447
 20
727.4060611609828
 30
0.0
 11
10530.08862007752
 21
727.4060611609828
 31
0.0
1001
AUTOCAD_POSTSCRIPT_FIGURE
1002
{
1000
PSFILL
1000
Grayscale
1000
Grayscale
1070
   100
1002
}
  0
LINE
  5
2B08F
330
2AEDA
100
AcDbEntity
  8
YODOROGO
100
AcDbLine
 10
10491.60162798447
 20
733.4060611609828
 30
0.0
 11
10491.60162798447
 21
727.4060611609828
 31
0.0
1001
AUTOCAD_POSTSCRIPT_FIGURE
1002
{
1000
PSFILL
1000
Grayscale
1000
Grayscale
1070
   100
1002
}
  0
LINE
  5
2B090
330
2AEDA
100
AcDbEntity
  8
YODOROGO
100
AcDbLine
 10
10528.72757944497
 20
733.4060611609828
 30
0.0
 11
10491.60162798447
 21
733.4060611609828
 31
0.0
1001
AUTOCAD_POSTSCRIPT_FIGURE
1002
{
1000
PSFILL
1000
Grayscale
1000
Grayscale
1070
   100
1002
}
  0
LINE
  5
2B091
330
2AEDA
100
AcDbEntity
  8
YODOROGO
100
AcDbLine
 10
10526.68601849614
 20
742.4060611609832
 30
0.0
 11
10528.72757944497
 21
733.4060611609828
 31
0.0
1001
AUTOCAD_POSTSCRIPT_FIGURE
1002
{
1000
PSFILL
1000
Grayscale
1000
Grayscale
1070
   100
1002
}
  0
LINE
  5
2B092
330
2AEDA
100
AcDbEntity
  8
YODOROGO
100
AcDbLine
 10
10534.18601849614
 20
742.4060611609832
 30
0.0
 11
10526.68601849614
 21
742.4060611609832
 31
0.0
1001
AUTOCAD_POSTSCRIPT_FIGURE
1002
{
1000
PSFILL
1000
Grayscale
1000
Grayscale
1070
   100
1002
}
  0
LINE
  5
2B093
330
2AEDA
100
AcDbEntity
  8
YODOROGO
100
AcDbLine
 10
10535.92757944497
 20
733.4060611609828
 30
0.0
 11
10534.18601849614
 21
742.4060611609832
 31
0.0
1001
AUTOCAD_POSTSCRIPT_FIGURE
1002
{
1000
PSFILL
1000
Grayscale
1000
Grayscale
1070
   100
1002
}
  0
LINE
  5
2B094
330
2AEDA
100
AcDbEntity
  8
YODOROGO
100
AcDbLine
 10
10545.60162798447
 20
733.4060611609828
 30
0.0
 11
10535.92757944497
 21
733.4060611609828
 31
0.0
1001
AUTOCAD_POSTSCRIPT_FIGURE
1002
{
1000
PSFILL
1000
Grayscale
1000
Grayscale
1070
   100
1002
}
  0
LINE
  5
2B095
330
2AEDA
100
AcDbEntity
  8
YODOROGO
100
AcDbLine
 10
10545.60162798447
 20
742.4060611609832
 30
0.0
 11
10545.60162798447
 21
733.4060611609828
 31
0.0
1001
AUTOCAD_POSTSCRIPT_FIGURE
1002
{
1000
PSFILL
1000
Grayscale
1000
Grayscale
1070
   100
1002
}
  0
LINE
  5
2B096
330
2AEDA
100
AcDbEntity
  8
YODOROGO
100
AcDbLine
 10
10551.60162798447
 20
742.4060611609832
 30
0.0
 11
10545.60162798447
 21
742.4060611609832
 31
0.0
1001
AUTOCAD_POSTSCRIPT_FIGURE
1002
{
1000
PSFILL
1000
Grayscale
1000
Grayscale
1070
   100
1002
}
  0
LINE
  5
2B097
330
2AEDA
100
AcDbEntity
  8
YODOROGO
100
AcDbLine
 10
10551.60162798447
 20
733.4060611609828
 30
0.0
 11
10551.60162798447
 21
742.4060611609832
 31
0.0
1001
AUTOCAD_POSTSCRIPT_FIGURE
1002
{
1000
PSFILL
1000
Grayscale
1000
Grayscale
1070
   100
1002
}
  0
LINE
  5
2B098
330
2AEDA
100
AcDbEntity
  8
YODOROGO
100
AcDbLine
 10
10551.60162798447
 20
727.4060611609828
 30
0.0
 11
10551.60162798447
 21
733.4060611609828
 31
0.0
1001
AUTOCAD_POSTSCRIPT_FIGURE
1002
{
1000
PSFILL
1000
Grayscale
1000
Grayscale
1070
   100
1002
}
  0
LINE
  5
2B099
330
2AEDA
100
AcDbEntity
  8
YODOROGO
100
AcDbLine
 10
10537.08862007752
 20
727.4060611609828
 30
0.0
 11
10551.60162798447
 21
727.4060611609828
 31
0.0
1001
AUTOCAD_POSTSCRIPT_FIGURE
1002
{
1000
PSFILL
1000
Grayscale
1000
Grayscale
1070
   100
1002
}
  0
LINE
  5
2B09A
330
2AEDA
100
AcDbEntity
  8
YODOROGO
100
AcDbLine
 10
10551.60162798447
 20
655.406061160983
 30
0.0
 11
10537.08862007752
 21
727.4060611609828
 31
0.0
1001
AUTOCAD_POSTSCRIPT_FIGURE
1002
{
1000
PSFILL
1000
Grayscale
1000
Grayscale
1070
   100
1002
}
  0
LINE
  5
2B09B
330
2AEDA
100
AcDbEntity
  8
YODOROGO
100
AcDbLine
 10
10548.60162798447
 20
655.406061160983
 30
0.0
 11
10551.60162798447
 21
655.406061160983
 31
0.0
1001
AUTOCAD_POSTSCRIPT_FIGURE
1002
{
1000
PSFILL
1000
Grayscale
1000
Grayscale
1070
   100
1002
}
  0
LINE
  5
2B09C
330
2AEDA
100
AcDbEntity
  8
YODOROGO
100
AcDbLine
 10
10529.27595747517
 20
665.902791112048
 30
0.0
 11
10491.60162798447
 21
655.406061160983
 31
0.0
  0
LINE
  5
2B09D
330
2AEDA
100
AcDbEntity
  8
YODOROGO
100
AcDbLine
 10
10529.27595747517
 20
674.5008673234024
 30
0.0
 11
10529.27595747517
 21
665.902791112048
 31
0.0
  0
LINE
  5
2B09E
330
2AEDA
100
AcDbEntity
  8
YODOROGO
100
AcDbLine
 10
10512.68879272982
 20
670.0563499251625
 30
0.0
 11
10529.27595747517
 21
674.5008673234024
 31
0.0
  0
LINE
  5
2B09F
330
2AEDA
100
AcDbEntity
  8
YODOROGO
100
AcDbLine
 10
10512.68879272982
 20
702.2131308511124
 30
0.0
 11
10512.68879272982
 21
670.0563499251625
 31
0.0
  0
LINE
  5
2B0A0
330
2AEDA
100
AcDbEntity
  8
YODOROGO
100
AcDbLine
 10
10529.27595747517
 20
702.2131308511124
 30
0.0
 11
10512.68879272982
 21
702.2131308511124
 31
0.0
  0
LINE
  5
2B0A1
330
2AEDA
100
AcDbEntity
  8
YODOROGO
100
AcDbLine
 10
10529.27595747517
 20
709.7131308511116
 30
0.0
 11
10529.27595747517
 21
702.2131308511124
 31
0.0
  0
LINE
  5
2B0A2
330
2AEDA
100
AcDbEntity
  8
YODOROGO
100
AcDbLine
 10
10491.60162798447
 20
709.7131308511116
 30
0.0
 11
10529.27595747517
 21
709.7131308511116
 31
0.0
  0
LINE
  5
2B0A3
330
2AEDA
100
AcDbEntity
  8
YODOROGO
100
AcDbLine
 10
10491.60162798447
 20
702.2131308511124
 30
0.0
 11
10491.60162798447
 21
709.7131308511116
 31
0.0
  0
LINE
  5
2B0A4
330
2AEDA
100
AcDbEntity
  8
YODOROGO
100
AcDbLine
 10
10508.18879272982
 20
702.2131308511124
 30
0.0
 11
10491.60162798447
 21
702.2131308511124
 31
0.0
  0
LINE
  5
2B0A5
330
2AEDA
100
AcDbEntity
  8
YODOROGO
100
AcDbLine
 10
10508.18879272982
 20
669.252502347869
 30
0.0
 11
10508.18879272982
 21
702.2131308511124
 31
0.0
  0
LINE
  5
2B0A6
330
2AEDA
100
AcDbEntity
  8
YODOROGO
100
AcDbLine
 10
10491.60162798447
 20
664.4060611609823
 30
0.0
 11
10508.18879272982
 21
669.252502347869
 31
0.0
  0
LINE
  5
2B0A7
330
2AEDA
100
AcDbEntity
  8
YODOROGO
100
AcDbLine
 10
10491.60162798447
 20
655.406061160983
 30
0.0
 11
10491.60162798447
 21
664.4060611609823
 31
0.0
  0
LINE
  5
2B0A8
330
2AEDA
100
AcDbEntity
  8
YODOROGO
100
AcDbLine
 10
10500.60162798446
 20
640.4060611609828
 30
0.0
 11
10500.60162798446
 21
631.4060611609825
 31
0.0
  0
LINE
  5
2B0A9
330
2AEDA
100
AcDbEntity
  8
YODOROGO
100
AcDbLine
 10
10500.60162798446
 20
640.4060611609828
 30
0.0
 11
10500.60162798446
 21
640.4060611609828
 31
0.0
  0
LINE
  5
2B0AA
330
2AEDA
100
AcDbEntity
  8
YODOROGO
100
AcDbLine
 10
10506.60162798447
 20
640.4060611609828
 30
0.0
 11
10500.60162798446
 21
640.4060611609828
 31
0.0
  0
LINE
  5
2B0AB
330
2AEDA
100
AcDbEntity
  8
YODOROGO
100
AcDbLine
 10
10506.60162798447
 20
631.4060611609825
 30
0.0
 11
10506.60162798447
 21
640.4060611609828
 31
0.0
  0
LINE
  5
2B0AC
330
2AEDA
100
AcDbEntity
  8
YODOROGO
100
AcDbLine
 10
10515.34245150633
 20
631.4060611609825
 30
0.0
 11
10506.60162798447
 21
631.4060611609825
 31
0.0
  0
LINE
  5
2B0AD
330
2AEDA
100
AcDbEntity
  8
YODOROGO
100
AcDbLine
 10
10500.60162798446
 20
631.4060611609825
 30
0.0
 11
10491.60162798447
 21
631.4060611609825
 31
0.0
  0
LINE
  5
2B0AE
330
2AEDA
100
AcDbEntity
  8
YODOROGO
100
AcDbLine
 10
10530.80082008658
 20
640.4060611609828
 30
0.0
 11
10536.8008200866
 21
640.4060611609828
 31
0.0
1001
AUTOCAD_POSTSCRIPT_FIGURE
1002
{
1000
PSFILL
1000
Grayscale
1000
Grayscale
1070
   100
1002
}
  0
LINE
  5
2B0AF
330
2AEDA
100
AcDbEntity
  8
YODOROGO
100
AcDbLine
 10
10650.60162798447
 20
684.3291096151149
 30
0.0
 11
10650.60162798447
 21
657.3291096151146
 31
0.0
1001
AUTOCAD_POSTSCRIPT_FIGURE
1002
{
1000
PSFILL
1000
Grayscale
1000
Grayscale
1070
   100
1002
}
  0
LINE
  5
2B0B0
330
2AEDA
100
AcDbEntity
  8
YODOROGO
100
AcDbLine
 10
10650.60162798447
 20
718.829109615115
 30
0.0
 11
10650.60162798447
 21
744.329109615115
 31
0.0
1001
AUTOCAD_POSTSCRIPT_FIGURE
1002
{
1000
PSFILL
1000
Grayscale
1000
Grayscale
1070
   100
1002
}
  0
LINE
  5
2B0B1
330
2AEDA
100
AcDbEntity
  8
YODOROGO
100
AcDbLine
 10
10662.60162798446
 20
682.4060611609829
 30
0.0
 11
10662.60162798446
 21
655.4060611609838
 31
0.0
  0
LINE
  5
2B0B2
330
2AEDA
100
AcDbEntity
  8
YODOROGO
100
AcDbLine
 10
10686.60162798446
 20
640.4060611609828
 30
0.0
 11
10662.60162798446
 21
640.4060611609828
 31
0.0
  0
LINE
  5
2B0B3
330
2AEDA
100
AcDbEntity
  8
YODOROGO
100
AcDbLine
 10
10662.60162798446
 20
655.4060611609838
 30
0.0
 11
10719.60162798446
 21
655.4060611609838
 31
0.0
  0
LINE
  5
2B0B4
330
2AEDA
100
AcDbEntity
  8
YODOROGO
100
AcDbLine
 10
10686.60162798446
 20
700.406061160983
 30
0.0
 11
10662.60162798446
 21
700.406061160983
 31
0.0
  0
LINE
  5
2B0B5
330
2AEDA
100
AcDbEntity
  8
YODOROGO
100
AcDbLine
 10
10686.60162798446
 20
721.4060611609824
 30
0.0
 11
10686.60162798446
 21
700.406061160983
 31
0.0
  0
LINE
  5
2B0B6
330
2AEDA
100
AcDbEntity
  8
YODOROGO
100
AcDbLine
 10
10719.60162798446
 20
745.4060611609828
 30
0.0
 11
10719.60162798446
 21
760.4060611609829
 31
0.0
  0
LINE
  5
2B0B7
330
2AEDA
100
AcDbEntity
  8
YODOROGO
100
AcDbLine
 10
10662.60162798446
 20
745.4060611609828
 30
0.0
 11
10719.60162798446
 21
745.4060611609828
 31
0.0
  0
LINE
  5
2B0B8
330
2AEDA
100
AcDbEntity
  8
YODOROGO
100
AcDbLine
 10
10662.60162798446
 20
700.406061160983
 30
0.0
 11
10662.60162798446
 21
745.4060611609828
 31
0.0
  0
LINE
  5
2B0B9
330
2AEDA
100
AcDbEntity
  8
YODOROGO
100
AcDbLine
 10
10875.60162798447
 20
760.4060611609829
 30
0.0
 11
10875.60162798447
 21
607.4060611609829
 31
0.0
  0
LINE
  5
2B0BA
330
2AEDA
100
AcDbEntity
  8
YODOROGO
100
AcDbLine
 10
10902.60162798446
 20
592.4060611609831
 30
0.0
 11
10902.60162798446
 21
760.4060611609829
 31
0.0
  0
LINE
  5
2B0BB
330
2AEDA
100
AcDbEntity
  8
YODOROGO
100
AcDbLine
 10
10973.10162798446
 20
559.4060611609823
 30
0.0
 11
10973.10162798446
 21
752.9060611609828
 31
0.0
  0
LINE
  5
2B0BC
330
2AEDA
100
AcDbEntity
  8
YODOROGO
100
AcDbLine
 10
10949.10162798447
 20
752.9060611609828
 30
0.0
 11
10949.10162798447
 21
559.4060611609823
 31
0.0
  0
LINE
  5
2B0BD
330
2AEDA
100
AcDbEntity
  8
YODOROGO
100
AcDbLine
 10
11019.60162798446
 20
760.4060611609829
 30
0.0
 11
11019.60162798446
 21
535.4060611609829
 31
0.0
  0
LINE
  5
2B0BE
330
2AEDA
100
AcDbEntity
  8
YODOROGO
100
AcDbLine
 10
11046.60162798447
 20
535.4060611609829
 30
0.0
 11
11046.60162798447
 21
760.4060611609829
 31
0.0
  0
LINE
  5
2B0BF
330
2AEDA
100
AcDbEntity
  8
YODOROGO
100
AcDbLine
 10
10746.60162798446
 20
625.406061160983
 30
0.0
 11
10746.60162798446
 21
655.4060611609838
 31
0.0
  0
LINE
  5
2B0C0
330
2AEDA
100
AcDbEntity
  8
YODOROGO
100
AcDbLine
 10
11207.10162798447
 20
640.4060611609828
 30
0.0
 11
11207.10162798447
 21
625.406061160983
 31
0.0
  0
LINE
  5
2B0C1
330
2AEDA
100
AcDbEntity
  8
YODOROGO
100
AcDbLine
 10
11207.10162798447
 20
640.4060611609828
 30
0.0
 11
11207.10162798447
 21
625.406061160983
 31
0.0
  0
ARC
  5
2B0C2
330
2AEDA
100
AcDbEntity
  8
YODOROGO
100
AcDbCircle
 10
10840.09184107006
 20
606.8316991658524
 30
0.0
 40
35.51443169202812
100
AcDbArc
 50
274.052441629071
 51
0.9266642149310715
  0
ARC
  5
2B0C3
330
2AEDA
100
AcDbEntity
  8
YODOROGO
100
AcDbCircle
 10
10840.94481401992
 20
597.229023228915
 30
0.0
 40
61.84515883532068
100
AcDbArc
 50
271.5351210653777
 51
355.5272775058505
  0
LINE
  5
2B0C4
330
2AEDA
100
AcDbEntity
  8
YODOROGO
100
AcDbLine
 10
10842.60162798446
 20
571.4060611609824
 30
0.0
 11
10842.60162798446
 21
535.4060611609829
 31
0.0
  0
LINE
  5
2B0C5
330
2AEDA
100
AcDbEntity
  8
YODOROGO
100
AcDbLine
 10
10797.60162798446
 20
625.406061160983
 30
0.0
 11
10746.60162798446
 21
625.406061160983
 31
0.0
  0
LINE
  5
2B0C6
330
2AEDA
100
AcDbEntity
  8
YODOROGO
100
AcDbLine
 10
10797.60162798446
 20
601.4060611609833
 30
0.0
 11
10797.60162798446
 21
625.406061160983
 31
0.0
  0
LINE
  5
2B0C7
330
2AEDA
100
AcDbEntity
  8
YODOROGO
100
AcDbLine
 10
10746.60162798446
 20
601.4060611609833
 30
0.0
 11
10797.60162798446
 21
601.4060611609833
 31
0.0
  0
LINE
  5
2B0C8
330
2AEDA
100
AcDbEntity
  8
YODOROGO
100
AcDbLine
 10
10746.60162798446
 20
571.4060611609824
 30
0.0
 11
10746.60162798446
 21
601.4060611609833
 31
0.0
  0
LINE
  5
2B0C9
330
2AEDA
100
AcDbEntity
  8
YODOROGO
100
AcDbLine
 10
10797.60162798446
 20
571.4060611609824
 30
0.0
 11
10746.60162798446
 21
571.4060611609824
 31
0.0
  0
LINE
  5
2B0CA
330
2AEDA
100
AcDbEntity
  8
YODOROGO
100
AcDbLine
 10
10797.60162798446
 20
535.4060611609829
 30
0.0
 11
10797.60162798446
 21
571.4060611609824
 31
0.0
  0
LINE
  5
2B0CB
330
2AEDA
100
AcDbEntity
  8
YODOROGO
100
AcDbLine
 10
10949.10162798447
 20
559.4060611609823
 30
0.0
 11
10973.10162798446
 21
559.4060611609823
 31
0.0
  0
LINE
  5
2B0CC
330
2AEDA
100
AcDbEntity
  8
YODOROGO
100
AcDbLine
 10
11019.60162798446
 20
535.4060611609829
 30
0.0
 11
11046.60162798447
 21
535.4060611609829
 31
0.0
  0
LINE
  5
2B0CD
330
2AEDA
100
AcDbEntity
  8
YODOROGO
100
AcDbLine
 10
11151.60162798447
 20
573.1655445639615
 30
0.0
 11
11151.60162798447
 21
535.4060611609829
 31
0.0
  0
LINE
  5
2B0CE
330
2AEDA
100
AcDbEntity
  8
YODOROGO
100
AcDbLine
 10
11106.60162798446
 20
535.4060611609829
 30
0.0
 11
11151.60162798447
 21
573.1655445639615
 31
0.0
  0
LINE
  5
2B0CF
330
2AEDA
100
AcDbEntity
  8
YODOROGO
100
AcDbLine
 10
11106.60162798446
 20
580.406061160983
 30
0.0
 11
11106.60162798446
 21
535.4060611609829
 31
0.0
  0
LINE
  5
2B0D0
330
2AEDA
100
AcDbEntity
  8
YODOROGO
100
AcDbLine
 10
11142.35423576229
 20
610.4060611609829
 30
0.0
 11
11106.60162798446
 21
580.406061160983
 31
0.0
  0
LINE
  5
2B0D1
330
2AEDA
100
AcDbEntity
  8
YODOROGO
100
AcDbLine
 10
11106.60162798446
 20
610.4060611609829
 30
0.0
 11
11142.35423576229
 21
610.4060611609829
 31
0.0
  0
LINE
  5
2B0D2
330
2AEDA
100
AcDbEntity
  8
YODOROGO
100
AcDbLine
 10
11106.60162798446
 20
625.406061160983
 30
0.0
 11
11106.60162798446
 21
610.4060611609829
 31
0.0
  0
LINE
  5
2B0D3
330
2AEDA
100
AcDbEntity
  8
YODOROGO
100
AcDbLine
 10
11207.10162798447
 20
625.406061160983
 30
0.0
 11
11106.60162798446
 21
625.406061160983
 31
0.0
  0
LINE
  5
2B0D4
330
2AEDA
100
AcDbEntity
  8
YODOROGO
100
AcDbLine
 10
11219.10162798447
 20
610.4060611609829
 30
0.0
 11
11166.60162798446
 21
610.4060611609829
 31
0.0
  0
LINE
  5
2B0D5
330
2AEDA
100
AcDbEntity
  8
YODOROGO
100
AcDbLine
 10
11166.60162798446
 20
585.7520390316213
 30
0.0
 11
11164.27870236948
 21
583.8028730048376
 31
0.0
  0
LINE
  5
2B0D6
330
2AEDA
100
AcDbEntity
  8
YODOROGO
100
AcDbLine
 10
11166.60162798446
 20
610.4060611609829
 30
0.0
 11
11166.60162798446
 21
585.7520390316213
 31
0.0
  0
LINE
  5
2B0D7
330
2AEDA
100
AcDbEntity
  8
YODOROGO
100
AcDbLine
 10
11151.60162798447
 20
573.1655445639615
 30
0.0
 11
11151.60162798447
 21
535.4060611609829
 31
0.0
  0
LINE
  5
2B0D8
330
2AEDA
100
AcDbEntity
  8
YODOROGO
100
AcDbLine
 10
11106.60162798446
 20
535.4060611609829
 30
0.0
 11
11151.60162798447
 21
573.1655445639615
 31
0.0
  0
LINE
  5
2B0D9
330
2AEDA
100
AcDbEntity
  8
YODOROGO
100
AcDbLine
 10
11106.60162798446
 20
580.406061160983
 30
0.0
 11
11106.60162798446
 21
535.4060611609829
 31
0.0
  0
LINE
  5
2B0DA
330
2AEDA
100
AcDbEntity
  8
YODOROGO
100
AcDbLine
 10
11142.35423576229
 20
610.4060611609829
 30
0.0
 11
11106.60162798446
 21
580.406061160983
 31
0.0
  0
LINE
  5
2B0DB
330
2AEDA
100
AcDbEntity
  8
YODOROGO
100
AcDbLine
 10
11106.60162798446
 20
610.4060611609829
 30
0.0
 11
11142.35423576229
 21
610.4060611609829
 31
0.0
  0
LINE
  5
2B0DC
330
2AEDA
100
AcDbEntity
  8
YODOROGO
100
AcDbLine
 10
11106.60162798446
 20
625.406061160983
 30
0.0
 11
11106.60162798446
 21
610.4060611609829
 31
0.0
  0
LINE
  5
2B0DD
330
2AEDA
100
AcDbEntity
  8
YODOROGO
100
AcDbLine
 10
11207.10162798447
 20
625.406061160983
 30
0.0
 11
11106.60162798446
 21
625.406061160983
 31
0.0
  0
LINE
  5
2B0DE
330
2AEDA
100
AcDbEntity
  8
YODOROGO
100
AcDbLine
 10
10797.60162798446
 20
655.4060611609838
 30
0.0
 11
10797.60162798446
 21
682.4060611609829
 31
0.0
  0
LINE
  5
2B0DF
330
2AEDA
100
AcDbEntity
  8
YODOROGO
100
AcDbLine
 10
10746.60162798446
 20
655.4060611609838
 30
0.0
 11
10797.60162798446
 21
655.4060611609838
 31
0.0
  0
LINE
  5
2B0E0
330
2AEDA
100
AcDbEntity
  8
YODOROGO
100
AcDbLine
 10
10773.60162798447
 20
700.406061160983
 30
0.0
 11
10773.60162798447
 21
721.4060611609824
 31
0.0
  0
LINE
  5
2B0E1
330
2AEDA
100
AcDbEntity
  8
YODOROGO
100
AcDbLine
 10
10797.60162798446
 20
700.406061160983
 30
0.0
 11
10773.60162798447
 21
700.406061160983
 31
0.0
  0
LINE
  5
2B0E2
330
2AEDA
100
AcDbEntity
  8
YODOROGO
100
AcDbLine
 10
10797.60162798446
 20
730.4060611609828
 30
0.0
 11
10797.60162798446
 21
700.406061160983
 31
0.0
  0
ARC
  5
2B0E3
330
2AEDA
100
AcDbEntity
  8
YODOROGO
100
AcDbCircle
 10
10782.60162798446
 20
730.4060611609828
 30
0.0
 40
15.0
100
AcDbArc
 50
0.0
 51
90.0
  0
LINE
  5
2B0E4
330
2AEDA
100
AcDbEntity
  8
YODOROGO
100
AcDbLine
 10
10746.60162798447
 20
745.4060611609828
 30
0.0
 11
10782.60162798446
 21
745.4060611609828
 31
0.0
  0
LINE
  5
2B0E5
330
2AEDA
100
AcDbEntity
  8
YODOROGO
100
AcDbLine
 10
10746.60162798447
 20
760.4060611609829
 30
0.0
 11
10746.60162798447
 21
745.4060611609828
 31
0.0
  0
LINE
  5
2B0E6
330
2AEDA
100
AcDbEntity
  8
YODOROGO
100
AcDbLine
 10
10902.60162798446
 20
760.4060611609829
 30
0.0
 11
10875.60162798447
 21
760.4060611609829
 31
0.0
  0
LINE
  5
2B0E7
330
2AEDA
100
AcDbEntity
  8
YODOROGO
100
AcDbLine
 10
10973.10162798446
 20
752.9060611609828
 30
0.0
 11
10949.10162798447
 21
752.9060611609828
 31
0.0
  0
LINE
  5
2B0E8
330
2AEDA
100
AcDbEntity
  8
YODOROGO
100
AcDbLine
 10
11046.60162798447
 20
760.4060611609829
 30
0.0
 11
11019.60162798446
 21
760.4060611609829
 31
0.0
  0
LINE
  5
2B0E9
330
2AEDA
100
AcDbEntity
  8
YODOROGO
100
AcDbLine
 10
11127.60162798447
 20
640.4060611609828
 30
0.0
 11
11127.60162798447
 21
664.4060611609833
 31
0.0
1001
AUTOCAD_POSTSCRIPT_FIGURE
1002
{
1000
PSFILL
1000
Grayscale
1000
Grayscale
1070
    25
1002
}
  0
LINE
  5
2B0EA
330
2AEDA
100
AcDbEntity
  8
YODOROGO
100
AcDbLine
 10
11106.60162798446
 20
640.4060611609828
 30
0.0
 11
11127.60162798447
 21
640.4060611609828
 31
0.0
1001
AUTOCAD_POSTSCRIPT_FIGURE
1002
{
1000
PSFILL
1000
Grayscale
1000
Grayscale
1070
    25
1002
}
  0
LINE
  5
2B0EB
330
2AEDA
100
AcDbEntity
  8
YODOROGO
100
AcDbLine
 10
11106.60162798446
 20
682.4060611609829
 30
0.0
 11
11106.60162798446
 21
640.4060611609828
 31
0.0
1001
AUTOCAD_POSTSCRIPT_FIGURE
1002
{
1000
PSFILL
1000
Grayscale
1000
Grayscale
1070
    25
1002
}
  0
LINE
  5
2B0EC
330
2AEDA
100
AcDbEntity
  8
YODOROGO
100
AcDbLine
 10
11162.10162798447
 20
682.4060611609829
 30
0.0
 11
11106.60162798446
 21
682.4060611609829
 31
0.0
1001
AUTOCAD_POSTSCRIPT_FIGURE
1002
{
1000
PSFILL
1000
Grayscale
1000
Grayscale
1070
    25
1002
}
  0
LINE
  5
2B0ED
330
2AEDA
100
AcDbEntity
  8
YODOROGO
100
AcDbLine
 10
11162.10162798447
 20
697.406061160983
 30
0.0
 11
11162.10162798447
 21
682.4060611609829
 31
0.0
1001
AUTOCAD_POSTSCRIPT_FIGURE
1002
{
1000
PSFILL
1000
Grayscale
1000
Grayscale
1070
    25
1002
}
  0
LINE
  5
2B0EE
330
2AEDA
100
AcDbEntity
  8
YODOROGO
100
AcDbLine
 10
11106.60162798446
 20
697.406061160983
 30
0.0
 11
11162.10162798447
 21
697.406061160983
 31
0.0
1001
AUTOCAD_POSTSCRIPT_FIGURE
1002
{
1000
PSFILL
1000
Grayscale
1000
Grayscale
1070
    25
1002
}
  0
LINE
  5
2B0EF
330
2AEDA
100
AcDbEntity
  8
YODOROGO
100
AcDbLine
 10
11106.60162798446
 20
715.4060611609828
 30
0.0
 11
11106.60162798446
 21
697.406061160983
 31
0.0
1001
AUTOCAD_POSTSCRIPT_FIGURE
1002
{
1000
PSFILL
1000
Grayscale
1000
Grayscale
1070
    25
1002
}
  0
LINE
  5
2B0F0
330
2AEDA
100
AcDbEntity
  8
YODOROGO
100
AcDbLine
 10
11162.10162798447
 20
715.4060611609828
 30
0.0
 11
11106.60162798446
 21
715.4060611609828
 31
0.0
1001
AUTOCAD_POSTSCRIPT_FIGURE
1002
{
1000
PSFILL
1000
Grayscale
1000
Grayscale
1070
    25
1002
}
  0
LINE
  5
2B0F1
330
2AEDA
100
AcDbEntity
  8
YODOROGO
100
AcDbLine
 10
11162.10162798447
 20
730.4060611609828
 30
0.0
 11
11162.10162798447
 21
715.4060611609828
 31
0.0
1001
AUTOCAD_POSTSCRIPT_FIGURE
1002
{
1000
PSFILL
1000
Grayscale
1000
Grayscale
1070
    25
1002
}
  0
LINE
  5
2B0F2
330
2AEDA
100
AcDbEntity
  8
YODOROGO
100
AcDbLine
 10
11106.60162798446
 20
730.4060611609828
 30
0.0
 11
11162.10162798447
 21
730.4060611609828
 31
0.0
1001
AUTOCAD_POSTSCRIPT_FIGURE
1002
{
1000
PSFILL
1000
Grayscale
1000
Grayscale
1070
    25
1002
}
  0
LINE
  5
2B0F3
330
2AEDA
100
AcDbEntity
  8
YODOROGO
100
AcDbLine
 10
11106.60162798446
 20
760.4060611609829
 30
0.0
 11
11106.60162798446
 21
730.4060611609828
 31
0.0
1001
AUTOCAD_POSTSCRIPT_FIGURE
1002
{
1000
PSFILL
1000
Grayscale
1000
Grayscale
1070
    25
1002
}
  0
LINE
  5
2B0F4
330
2AEDA
100
AcDbEntity
  8
YODOROGO
100
AcDbLine
 10
11124.60162798446
 20
760.4060611609829
 30
0.0
 11
11106.60162798446
 21
760.4060611609829
 31
0.0
1001
AUTOCAD_POSTSCRIPT_FIGURE
1002
{
1000
PSFILL
1000
Grayscale
1000
Grayscale
1070
    25
1002
}
  0
LINE
  5
2B0F5
330
2AEDA
100
AcDbEntity
  8
YODOROGO
100
AcDbLine
 10
11124.60162798446
 20
748.4060611609828
 30
0.0
 11
11124.60162798446
 21
760.4060611609829
 31
0.0
1001
AUTOCAD_POSTSCRIPT_FIGURE
1002
{
1000
PSFILL
1000
Grayscale
1000
Grayscale
1070
    25
1002
}
  0
LINE
  5
2B0F6
330
2AEDA
100
AcDbEntity
  8
YODOROGO
100
AcDbLine
 10
11162.10162798447
 20
748.4060611609828
 30
0.0
 11
11124.60162798446
 21
748.4060611609828
 31
0.0
1001
AUTOCAD_POSTSCRIPT_FIGURE
1002
{
1000
PSFILL
1000
Grayscale
1000
Grayscale
1070
    25
1002
}
  0
LINE
  5
2B0F7
330
2AEDA
100
AcDbEntity
  8
YODOROGO
100
AcDbLine
 10
11162.10162798447
 20
760.4060611609829
 30
0.0
 11
11162.10162798447
 21
748.4060611609828
 31
0.0
1001
AUTOCAD_POSTSCRIPT_FIGURE
1002
{
1000
PSFILL
1000
Grayscale
1000
Grayscale
1070
    25
1002
}
  0
LINE
  5
2B0F8
330
2AEDA
100
AcDbEntity
  8
YODOROGO
100
AcDbLine
 10
11186.10162798447
 20
760.4060611609829
 30
0.0
 11
11162.10162798447
 21
760.4060611609829
 31
0.0
1001
AUTOCAD_POSTSCRIPT_FIGURE
1002
{
1000
PSFILL
1000
Grayscale
1000
Grayscale
1070
    25
1002
}
  0
LINE
  5
2B0F9
330
2AEDA
100
AcDbEntity
  8
YODOROGO
100
AcDbLine
 10
11186.10162798447
 20
748.4060611609828
 30
0.0
 11
11186.10162798447
 21
760.4060611609829
 31
0.0
1001
AUTOCAD_POSTSCRIPT_FIGURE
1002
{
1000
PSFILL
1000
Grayscale
1000
Grayscale
1070
    25
1002
}
  0
LINE
  5
2B0FA
330
2AEDA
100
AcDbEntity
  8
YODOROGO
100
AcDbLine
 10
11186.10162798447
 20
715.4060611609828
 30
0.0
 11
11186.10162798447
 21
730.4060611609828
 31
0.0
1001
AUTOCAD_POSTSCRIPT_FIGURE
1002
{
1000
PSFILL
1000
Grayscale
1000
Grayscale
1070
    25
1002
}
  0
LINE
  5
2B0FB
330
2AEDA
100
AcDbEntity
  8
YODOROGO
100
AcDbLine
 10
11186.10162798447
 20
682.4060611609829
 30
0.0
 11
11186.10162798447
 21
697.406061160983
 31
0.0
1001
AUTOCAD_POSTSCRIPT_FIGURE
1002
{
1000
PSFILL
1000
Grayscale
1000
Grayscale
1070
    25
1002
}
  0
LINE
  5
2B0FC
330
2AEDA
100
AcDbEntity
  8
YODOROGO
100
AcDbLine
 10
11220.60162798447
 20
664.4060611609833
 30
0.0
 11
11220.60162798447
 21
640.4060611609828
 31
0.0
1001
AUTOCAD_POSTSCRIPT_FIGURE
1002
{
1000
PSFILL
1000
Grayscale
1000
Grayscale
1070
    25
1002
}
  0
LINE
  5
2B0FD
330
2AEDA
100
AcDbEntity
  8
YODOROGO
100
AcDbLine
 10
11186.10162798447
 20
664.4060611609833
 30
0.0
 11
11220.60162798447
 21
664.4060611609833
 31
0.0
1001
AUTOCAD_POSTSCRIPT_FIGURE
1002
{
1000
PSFILL
1000
Grayscale
1000
Grayscale
1070
    25
1002
}
  0
LINE
  5
2B0FE
330
2AEDA
100
AcDbEntity
  8
YODOROGO
100
AcDbLine
 10
11186.10162798447
 20
640.4060611609828
 30
0.0
 11
11186.10162798447
 21
664.4060611609833
 31
0.0
1001
AUTOCAD_POSTSCRIPT_FIGURE
1002
{
1000
PSFILL
1000
Grayscale
1000
Grayscale
1070
    25
1002
}
  0
LINE
  5
2B0FF
330
2AEDA
100
AcDbEntity
  8
YODOROGO
100
AcDbLine
 10
11162.10162798447
 20
640.4060611609828
 30
0.0
 11
11186.10162798447
 21
640.4060611609828
 31
0.0
1001
AUTOCAD_POSTSCRIPT_FIGURE
1002
{
1000
PSFILL
1000
Grayscale
1000
Grayscale
1070
    25
1002
}
  0
LINE
  5
2B100
330
2AEDA
100
AcDbEntity
  8
YODOROGO
100
AcDbLine
 10
11162.10162798447
 20
664.4060611609833
 30
0.0
 11
11162.10162798447
 21
640.4060611609828
 31
0.0
1001
AUTOCAD_POSTSCRIPT_FIGURE
1002
{
1000
PSFILL
1000
Grayscale
1000
Grayscale
1070
    25
1002
}
  0
LINE
  5
2B101
330
2AEDA
100
AcDbEntity
  8
YODOROGO
100
AcDbLine
 10
11127.60162798447
 20
664.4060611609833
 30
0.0
 11
11162.10162798447
 21
664.4060611609833
 31
0.0
1001
AUTOCAD_POSTSCRIPT_FIGURE
1002
{
1000
PSFILL
1000
Grayscale
1000
Grayscale
1070
    25
1002
}
  0
ARC
  5
2B102
330
2AEDA
100
AcDbEntity
  8
YODOROGO
100
AcDbCircle
 10
11647.31921000922
 20
601.0052765683409
 30
0.0
 40
66.83298041652057
100
AcDbArc
 50
281.0262749542535
 51
357.771135755738
  0
LINE
  5
2B103
330
2AEDA
100
AcDbEntity
  8
YODOROGO
100
AcDbLine
 10
11780.10162798446
 20
715.4060611609828
 30
0.0
 11
11687.10162798447
 21
715.4060611609828
 31
0.0
  0
LINE
  5
2B104
330
2AEDA
100
AcDbEntity
  8
YODOROGO
100
AcDbLine
 10
11780.10162798446
 20
760.4060611609829
 30
0.0
 11
11687.10162798447
 21
760.4060611609829
 31
0.0
  0
LINE
  5
2B105
330
2AEDA
100
AcDbEntity
  8
YODOROGO
100
AcDbLine
 10
11687.10162798447
 20
736.4060611609825
 30
0.0
 11
11780.10162798446
 21
736.4060611609825
 31
0.0
  0
LINE
  5
2B106
330
2AEDA
100
AcDbEntity
  8
YODOROGO
100
AcDbLine
 10
11546.85162798447
 20
586.4060611609825
 30
0.0
 11
11546.85162798447
 21
658.4060611609827
 31
0.0
  0
LINE
  5
2B107
330
2AEDA
100
AcDbEntity
  8
YODOROGO
100
AcDbLine
 10
11536.35162798447
 20
634.4060611609833
 30
0.0
 11
11536.35162798447
 21
586.4060611609825
 31
0.0
  0
LINE
  5
2B108
330
2AEDA
100
AcDbEntity
  8
YODOROGO
100
AcDbLine
 10
11521.35162798447
 20
559.4060611609831
 30
0.0
 11
11521.35162798447
 21
634.4060611609833
 31
0.0
  0
LINE
  5
2B109
330
2AEDA
100
AcDbEntity
  8
YODOROGO
100
AcDbLine
 10
11587.35162798447
 20
634.4060611609833
 30
0.0
 11
11587.35162798447
 21
559.4060611609831
 31
0.0
  0
LINE
  5
2B10A
330
2AEDA
100
AcDbEntity
  8
YODOROGO
100
AcDbLine
 10
11572.35162798446
 20
586.4060611609825
 30
0.0
 11
11572.35162798446
 21
634.4060611609833
 31
0.0
  0
LINE
  5
2B10B
330
2AEDA
100
AcDbEntity
  8
YODOROGO
100
AcDbLine
 10
11561.85162798446
 20
658.4060611609827
 30
0.0
 11
11561.85162798446
 21
586.4060611609825
 31
0.0
  0
LINE
  5
2B10C
330
2AEDA
100
AcDbEntity
  8
YODOROGO
100
AcDbLine
 10
11615.10162798446
 20
760.4060611609829
 30
0.0
 11
11615.10162798446
 21
550.4060611609828
 31
0.0
  0
LINE
  5
2B10D
330
2AEDA
100
AcDbEntity
  8
YODOROGO
100
AcDbLine
 10
11492.10162798447
 20
535.4060611609829
 30
0.0
 11
11492.10162798447
 21
760.4060611609829
 31
0.0
  0
LINE
  5
2B10E
330
2AEDA
100
AcDbEntity
  8
YODOROGO
100
AcDbLine
 10
11511.60162798447
 20
736.4060611609825
 30
0.0
 11
11511.60162798447
 21
535.4060611609829
 31
0.0
  0
LINE
  5
2B10F
330
2AEDA
100
AcDbEntity
  8
YODOROGO
100
AcDbLine
 10
11597.10162798446
 20
580.406061160983
 30
0.0
 11
11597.10162798446
 21
736.4060611609825
 31
0.0
  0
LINE
  5
2B110
330
2AEDA
100
AcDbEntity
  8
YODOROGO
100
AcDbLine
 10
11393.10162798446
 20
610.4060611609829
 30
0.0
 11
11393.10162798446
 21
629.9060611609831
 31
0.0
  0
LINE
  5
2B111
330
2AEDA
100
AcDbEntity
  8
YODOROGO
100
AcDbLine
 10
11481.60162798447
 20
629.9060611609831
 30
0.0
 11
11481.60162798447
 21
610.4060611609829
 31
0.0
  0
LINE
  5
2B112
330
2AEDA
100
AcDbEntity
  8
YODOROGO
100
AcDbLine
 10
11687.10162798447
 20
715.4060611609828
 30
0.0
 11
11687.10162798447
 21
613.4060611609827
 31
0.0
  0
LINE
  5
2B113
330
2AEDA
100
AcDbEntity
  8
YODOROGO
100
AcDbLine
 10
11231.10162798446
 20
625.406061160983
 30
0.0
 11
11231.10162798446
 21
640.4060611609828
 31
0.0
  0
LINE
  5
2B114
330
2AEDA
100
AcDbEntity
  8
YODOROGO
100
AcDbLine
 10
11231.10162798446
 20
625.406061160983
 30
0.0
 11
11231.10162798446
 21
640.4060611609828
 31
0.0
  0
ARC
  5
2B115
330
2AEDA
100
AcDbEntity
  8
YODOROGO
100
AcDbCircle
 10
11451.60162798447
 20
565.4060611609828
 30
0.0
 40
30.0
100
AcDbArc
 50
270.0
 51
0.0
  0
LINE
  5
2B116
330
2AEDA
100
AcDbEntity
  8
YODOROGO
100
AcDbLine
 10
11463.60162798446
 20
599.9060611609831
 30
0.0
 11
11481.60162798447
 21
599.9060611609831
 31
0.0
  0
LINE
  5
2B117
330
2AEDA
100
AcDbEntity
  8
YODOROGO
100
AcDbLine
 10
11481.60162798447
 20
610.4060611609829
 30
0.0
 11
11448.60162798446
 21
610.4060611609829
 31
0.0
  0
LINE
  5
2B118
330
2AEDA
100
AcDbEntity
  8
YODOROGO
100
AcDbLine
 10
11331.60162798447
 20
625.406061160983
 30
0.0
 11
11231.10162798446
 21
625.406061160983
 31
0.0
  0
LINE
  5
2B119
330
2AEDA
100
AcDbEntity
  8
YODOROGO
100
AcDbLine
 10
11331.60162798447
 20
610.4060611609829
 30
0.0
 11
11331.60162798447
 21
625.406061160983
 31
0.0
  0
LINE
  5
2B11A
330
2AEDA
100
AcDbEntity
  8
YODOROGO
100
AcDbLine
 10
11256.60162798447
 20
610.4060611609829
 30
0.0
 11
11331.60162798447
 21
610.4060611609829
 31
0.0
  0
ARC
  5
2B11B
330
2AEDA
100
AcDbEntity
  8
YODOROGO
100
AcDbCircle
 10
11336.27206076301
 20
700.8321431073384
 30
0.0
 40
120.5166136069605
100
AcDbArc
 50
228.6181454618993
 51
245.660289248906
  0
LINE
  5
2B11C
330
2AEDA
100
AcDbEntity
  8
YODOROGO
100
AcDbLine
 10
11289.60162798447
 20
601.4060611609833
 30
0.0
 11
11286.60162798448
 21
591.0273059512126
 31
0.0
  0
LINE
  5
2B11D
330
2AEDA
100
AcDbEntity
  8
YODOROGO
100
AcDbLine
 10
11321.10162798447
 20
601.4060611609833
 30
0.0
 11
11289.60162798447
 21
601.4060611609833
 31
0.0
  0
LINE
  5
2B11E
330
2AEDA
100
AcDbEntity
  8
YODOROGO
100
AcDbLine
 10
11316.60162798447
 20
581.9316459275352
 30
0.0
 11
11321.10162798447
 21
601.4060611609833
 31
0.0
  0
ARC
  5
2B11F
330
2AEDA
100
AcDbEntity
  8
YODOROGO
100
AcDbCircle
 10
11336.27206076267
 20
700.832143107376
 30
0.0
 40
120.516613606984
100
AcDbArc
 50
260.6062929796992
 51
267.7790355655586
  0
LINE
  5
2B120
330
2AEDA
100
AcDbEntity
  8
YODOROGO
100
AcDbLine
 10
11331.60162798447
 20
535.4060611609821
 30
0.0
 11
11331.60162798447
 21
580.406061160983
 31
0.0
  0
LINE
  5
2B121
330
2AEDA
100
AcDbEntity
  8
YODOROGO
100
AcDbLine
 10
11226.60162798446
 20
555.5022505933164
 30
0.0
 11
11226.60162798446
 21
597.949158949178
 31
0.0
  0
LINE
  5
2B122
330
2AEDA
100
AcDbEntity
  8
YODOROGO
100
AcDbLine
 10
11331.60162798447
 20
625.406061160983
 30
0.0
 11
11231.10162798446
 21
625.406061160983
 31
0.0
  0
LINE
  5
2B123
330
2AEDA
100
AcDbEntity
  8
YODOROGO
100
AcDbLine
 10
11331.60162798447
 20
610.4060611609829
 30
0.0
 11
11331.60162798447
 21
625.406061160983
 31
0.0
  0
LINE
  5
2B124
330
2AEDA
100
AcDbEntity
  8
YODOROGO
100
AcDbLine
 10
11256.60162798447
 20
610.4060611609829
 30
0.0
 11
11331.60162798447
 21
610.4060611609829
 31
0.0
  0
ARC
  5
2B125
330
2AEDA
100
AcDbEntity
  8
YODOROGO
100
AcDbCircle
 10
11336.27206076301
 20
700.8321431073384
 30
0.0
 40
120.5166136069605
100
AcDbArc
 50
228.6181454618993
 51
245.660289248906
  0
LINE
  5
2B126
330
2AEDA
100
AcDbEntity
  8
YODOROGO
100
AcDbLine
 10
11289.60162798447
 20
601.4060611609833
 30
0.0
 11
11286.60162798448
 21
591.0273059512126
 31
0.0
  0
LINE
  5
2B127
330
2AEDA
100
AcDbEntity
  8
YODOROGO
100
AcDbLine
 10
11321.10162798447
 20
601.4060611609833
 30
0.0
 11
11289.60162798447
 21
601.4060611609833
 31
0.0
  0
LINE
  5
2B128
330
2AEDA
100
AcDbEntity
  8
YODOROGO
100
AcDbLine
 10
11316.60162798447
 20
581.9316459275352
 30
0.0
 11
11321.10162798447
 21
601.4060611609833
 31
0.0
  0
ARC
  5
2B129
330
2AEDA
100
AcDbEntity
  8
YODOROGO
100
AcDbCircle
 10
11336.27206076267
 20
700.832143107376
 30
0.0
 40
120.516613606984
100
AcDbArc
 50
260.6062929796992
 51
267.7790355655586
  0
LINE
  5
2B12A
330
2AEDA
100
AcDbEntity
  8
YODOROGO
100
AcDbLine
 10
11331.60162798447
 20
535.4060611609821
 30
0.0
 11
11331.60162798447
 21
580.406061160983
 31
0.0
  0
LINE
  5
2B12B
330
2AEDA
100
AcDbEntity
  8
YODOROGO
100
AcDbLine
 10
11226.60162798446
 20
555.5022505933164
 30
0.0
 11
11226.60162798446
 21
597.949158949178
 31
0.0
  0
LINE
  5
2B12C
330
2AEDA
100
AcDbEntity
  8
YODOROGO
100
AcDbLine
 10
11412.60162798447
 20
590.1560611609832
 30
0.0
 11
11393.10162798446
 21
590.1560611609832
 31
0.0
  0
LINE
  5
2B12D
330
2AEDA
100
AcDbEntity
  8
YODOROGO
100
AcDbLine
 10
11412.60162798447
 20
600.6560611609824
 30
0.0
 11
11412.60162798447
 21
590.1560611609832
 31
0.0
  0
LINE
  5
2B12E
330
2AEDA
100
AcDbEntity
  8
YODOROGO
100
AcDbLine
 10
11393.10162798446
 20
600.6560611609824
 30
0.0
 11
11412.60162798447
 21
600.6560611609824
 31
0.0
  0
LINE
  5
2B12F
330
2AEDA
100
AcDbEntity
  8
YODOROGO
100
AcDbLine
 10
11393.10162798446
 20
590.1560611609832
 30
0.0
 11
11393.10162798446
 21
600.6560611609824
 31
0.0
  0
LINE
  5
2B130
330
2AEDA
100
AcDbEntity
  8
YODOROGO
100
AcDbLine
 10
11411.10162798447
 20
591.6560611609829
 30
0.0
 11
11394.60162798447
 21
591.6560611609829
 31
0.0
  0
LINE
  5
2B131
330
2AEDA
100
AcDbEntity
  8
YODOROGO
100
AcDbLine
 10
11411.10162798447
 20
599.156061160983
 30
0.0
 11
11411.10162798447
 21
591.6560611609829
 31
0.0
  0
LINE
  5
2B132
330
2AEDA
100
AcDbEntity
  8
YODOROGO
100
AcDbLine
 10
11394.60162798447
 20
599.156061160983
 30
0.0
 11
11411.10162798447
 21
599.156061160983
 31
0.0
  0
LINE
  5
2B133
330
2AEDA
100
AcDbEntity
  8
YODOROGO
100
AcDbLine
 10
11394.60162798447
 20
591.6560611609829
 30
0.0
 11
11394.60162798447
 21
599.156061160983
 31
0.0
  0
LINE
  5
2B134
330
2AEDA
100
AcDbEntity
  8
YODOROGO
100
AcDbLine
 10
11409.60162798447
 20
593.1560611609824
 30
0.0
 11
11396.10162798446
 21
593.1560611609824
 31
0.0
  0
LINE
  5
2B135
330
2AEDA
100
AcDbEntity
  8
YODOROGO
100
AcDbLine
 10
11409.60162798447
 20
597.6560611609833
 30
0.0
 11
11409.60162798447
 21
593.1560611609824
 31
0.0
  0
LINE
  5
2B136
330
2AEDA
100
AcDbEntity
  8
YODOROGO
100
AcDbLine
 10
11396.10162798446
 20
597.6560611609833
 30
0.0
 11
11409.60162798447
 21
597.6560611609833
 31
0.0
  0
LINE
  5
2B137
330
2AEDA
100
AcDbEntity
  8
YODOROGO
100
AcDbLine
 10
11396.10162798446
 20
593.1560611609824
 30
0.0
 11
11396.10162798446
 21
597.6560611609833
 31
0.0
  0
LINE
  5
2B138
330
2AEDA
100
AcDbEntity
  8
YODOROGO
100
AcDbLine
 10
11408.10162798447
 20
594.6560611609827
 30
0.0
 11
11397.60162798447
 21
594.6560611609827
 31
0.0
  0
LINE
  5
2B139
330
2AEDA
100
AcDbEntity
  8
YODOROGO
100
AcDbLine
 10
11408.10162798447
 20
596.1560611609829
 30
0.0
 11
11408.10162798447
 21
594.6560611609827
 31
0.0
  0
LINE
  5
2B13A
330
2AEDA
100
AcDbEntity
  8
YODOROGO
100
AcDbLine
 10
11397.60162798447
 20
596.1560611609829
 30
0.0
 11
11408.10162798447
 21
596.1560611609829
 31
0.0
  0
LINE
  5
2B13B
330
2AEDA
100
AcDbEntity
  8
YODOROGO
100
AcDbLine
 10
11397.60162798447
 20
594.6560611609827
 30
0.0
 11
11397.60162798447
 21
596.1560611609829
 31
0.0
  0
LINE
  5
2B13C
330
2AEDA
100
AcDbEntity
  8
YODOROGO
100
AcDbLine
 10
11424.60162798446
 20
610.4060611609829
 30
0.0
 11
11393.10162798446
 21
610.4060611609829
 31
0.0
  0
LINE
  5
2B13D
330
2AEDA
100
AcDbEntity
  8
YODOROGO
100
AcDbLine
 10
11424.60162798446
 20
580.406061160983
 30
0.0
 11
11424.60162798446
 21
610.4060611609829
 31
0.0
  0
LINE
  5
2B13E
330
2AEDA
100
AcDbEntity
  8
YODOROGO
100
AcDbLine
 10
11393.10162798446
 20
580.406061160983
 30
0.0
 11
11424.60162798446
 21
580.406061160983
 31
0.0
  0
LINE
  5
2B13F
330
2AEDA
100
AcDbEntity
  8
YODOROGO
100
AcDbLine
 10
11393.10162798446
 20
535.4060611609829
 30
0.0
 11
11393.10162798446
 21
580.406061160983
 31
0.0
  0
LINE
  5
2B140
330
2AEDA
100
AcDbEntity
  8
YODOROGO
100
AcDbLine
 10
11451.60162798447
 20
535.4060611609829
 30
0.0
 11
11393.10162798446
 21
535.4060611609829
 31
0.0
  0
LINE
  5
2B141
330
2AEDA
100
AcDbEntity
  8
YODOROGO
100
AcDbLine
 10
11463.60162798446
 20
589.4060611609823
 30
0.0
 11
11463.60162798446
 21
599.9060611609831
 31
0.0
  0
ARC
  5
2B142
330
2AEDA
100
AcDbEntity
  8
YODOROGO
100
AcDbCircle
 10
11454.60162798446
 20
589.4060611609843
 30
0.0
 40
9.000000000001408
100
AcDbArc
 50
270.0
 51
359.9999999999877
  0
LINE
  5
2B143
330
2AEDA
100
AcDbEntity
  8
YODOROGO
100
AcDbLine
 10
11448.60162798446
 20
580.406061160983
 30
0.0
 11
11454.60162798446
 21
580.406061160983
 31
0.0
  0
LINE
  5
2B144
330
2AEDA
100
AcDbEntity
  8
YODOROGO
100
AcDbLine
 10
11448.60162798446
 20
610.4060611609829
 30
0.0
 11
11448.60162798446
 21
580.406061160983
 31
0.0
  0
LINE
  5
2B145
330
2AEDA
100
AcDbEntity
  8
YODOROGO
100
AcDbLine
 10
11587.35162798447
 20
580.406061160983
 30
0.0
 11
11597.10162798446
 21
580.406061160983
 31
0.0
  0
LINE
  5
2B146
330
2AEDA
100
AcDbEntity
  8
YODOROGO
100
AcDbLine
 10
11600.10162798446
 20
535.4060611609829
 30
0.0
 11
11587.35162798447
 21
535.4060611609829
 31
0.0
  0
LINE
  5
2B147
330
2AEDA
100
AcDbEntity
  8
YODOROGO
100
AcDbLine
 10
11536.35162798447
 20
586.4060611609825
 30
0.0
 11
11546.85162798447
 21
586.4060611609825
 31
0.0
  0
LINE
  5
2B148
330
2AEDA
100
AcDbEntity
  8
YODOROGO
100
AcDbLine
 10
11587.35162798447
 20
559.4060611609831
 30
0.0
 11
11521.35162798447
 21
559.4060611609831
 31
0.0
  0
LINE
  5
2B149
330
2AEDA
100
AcDbEntity
  8
YODOROGO
100
AcDbLine
 10
11561.85162798446
 20
586.4060611609825
 30
0.0
 11
11572.35162798446
 21
586.4060611609825
 31
0.0
  0
LINE
  5
2B14A
330
2AEDA
100
AcDbEntity
  8
YODOROGO
100
AcDbLine
 10
11587.35162798447
 20
535.4060611609829
 30
0.0
 11
11587.35162798447
 21
580.406061160983
 31
0.0
  0
LINE
  5
2B14B
330
2AEDA
100
AcDbEntity
  8
YODOROGO
100
AcDbLine
 10
11511.60162798447
 20
535.4060611609829
 30
0.0
 11
11492.10162798447
 21
535.4060611609829
 31
0.0
  0
LINE
  5
2B14C
330
2AEDA
100
AcDbEntity
  8
YODOROGO
100
AcDbLine
 10
11481.60162798447
 20
599.9060611609831
 30
0.0
 11
11481.60162798447
 21
565.4060611609828
 31
0.0
  0
ARC
  5
2B14D
330
2AEDA
100
AcDbEntity
  8
YODOROGO
100
AcDbCircle
 10
11600.10162798446
 20
550.4060611609828
 30
0.0
 40
15.0
100
AcDbArc
 50
270.0
 51
0.0
  0
LINE
  5
2B14E
330
2AEDA
100
AcDbEntity
  8
YODOROGO
100
AcDbLine
 10
11660.10162798446
 20
571.4060611609824
 30
0.0
 11
11660.10162798446
 21
535.4060611609829
 31
0.0
  0
ARC
  5
2B14F
330
2AEDA
100
AcDbEntity
  8
YODOROGO
100
AcDbCircle
 10
11639.89552333754
 20
614.0742712911499
 30
0.0
 40
47.21083372187828
100
AcDbArc
 50
295.3405244216011
 51
359.1890230341867
  0
LINE
  5
2B150
330
2AEDA
100
AcDbEntity
  8
YODOROGO
100
AcDbLine
 10
11481.60162798447
 20
697.406061160983
 30
0.0
 11
11436.60162798447
 21
727.4060611609828
 31
0.0
  0
LINE
  5
2B151
330
2AEDA
100
AcDbEntity
  8
YODOROGO
100
AcDbLine
 10
11436.60162798447
 20
760.4060611609829
 30
0.0
 11
11481.60162798447
 21
730.4060611609828
 31
0.0
  0
LINE
  5
2B152
330
2AEDA
100
AcDbEntity
  8
YODOROGO
100
AcDbLine
 10
11448.60162798446
 20
629.9060611609831
 30
0.0
 11
11481.60162798447
 21
629.9060611609831
 31
0.0
  0
LINE
  5
2B153
330
2AEDA
100
AcDbEntity
  8
YODOROGO
100
AcDbLine
 10
11481.60162798447
 20
650.9060611609827
 30
0.0
 11
11448.60162798446
 21
650.9060611609827
 31
0.0
  0
LINE
  5
2B154
330
2AEDA
100
AcDbEntity
  8
YODOROGO
100
AcDbLine
 10
11393.10162798446
 20
673.4060611609827
 30
0.0
 11
11481.60162798447
 21
673.4060611609827
 31
0.0
  0
LINE
  5
2B155
330
2AEDA
100
AcDbEntity
  8
YODOROGO
100
AcDbLine
 10
11280.60162798447
 20
760.4060611609829
 30
0.0
 11
11258.10162798447
 21
760.4060611609829
 31
0.0
  0
LINE
  5
2B156
330
2AEDA
100
AcDbEntity
  8
YODOROGO
100
AcDbLine
 10
11280.60162798447
 20
685.4060611609829
 30
0.0
 11
11280.60162798447
 21
760.4060611609829
 31
0.0
  0
LINE
  5
2B157
330
2AEDA
100
AcDbEntity
  8
YODOROGO
100
AcDbLine
 10
11258.10162798447
 20
685.4060611609829
 30
0.0
 11
11280.60162798447
 21
685.4060611609829
 31
0.0
  0
LINE
  5
2B158
330
2AEDA
100
AcDbEntity
  8
YODOROGO
100
AcDbLine
 10
11258.10162798447
 20
760.4060611609829
 30
0.0
 11
11258.10162798447
 21
685.4060611609829
 31
0.0
  0
LINE
  5
2B159
330
2AEDA
100
AcDbEntity
  8
YODOROGO
100
AcDbLine
 10
11310.60162798447
 20
760.4060611609829
 30
0.0
 11
11331.60162798447
 21
760.4060611609829
 31
0.0
  0
LINE
  5
2B15A
330
2AEDA
100
AcDbEntity
  8
YODOROGO
100
AcDbLine
 10
11310.60162798447
 20
679.4060611609832
 30
0.0
 11
11310.60162798447
 21
760.4060611609829
 31
0.0
  0
ARC
  5
2B15B
330
2AEDA
100
AcDbEntity
  8
YODOROGO
100
AcDbCircle
 10
11295.60162798447
 20
679.4060611609832
 30
0.0
 40
15.0
100
AcDbArc
 50
270.0
 51
0.0
  0
LINE
  5
2B15C
330
2AEDA
100
AcDbEntity
  8
YODOROGO
100
AcDbLine
 10
11258.10162798447
 20
664.4060611609833
 30
0.0
 11
11295.60162798447
 21
664.4060611609833
 31
0.0
  0
LINE
  5
2B15D
330
2AEDA
100
AcDbEntity
  8
YODOROGO
100
AcDbLine
 10
11258.10162798447
 20
640.4060611609828
 30
0.0
 11
11258.10162798447
 21
664.4060611609833
 31
0.0
  0
LINE
  5
2B15E
330
2AEDA
100
AcDbEntity
  8
YODOROGO
100
AcDbLine
 10
11301.60162798446
 20
640.4060611609828
 30
0.0
 11
11258.10162798447
 21
640.4060611609828
 31
0.0
  0
ARC
  5
2B15F
330
2AEDA
100
AcDbEntity
  8
YODOROGO
100
AcDbCircle
 10
11301.60162798446
 20
670.4060611609828
 30
0.0
 40
30.0
100
AcDbArc
 50
270.0
 51
0.0
  0
LINE
  5
2B160
330
2AEDA
100
AcDbEntity
  8
YODOROGO
100
AcDbLine
 10
11331.60162798447
 20
760.4060611609829
 30
0.0
 11
11331.60162798447
 21
670.4060611609828
 31
0.0
  0
LINE
  5
2B161
330
2AEDA
100
AcDbEntity
  8
YODOROGO
100
AcDbLine
 10
11241.60162798446
 20
730.4060611609828
 30
0.0
 11
11241.60162798446
 21
748.4060611609828
 31
0.0
1001
AUTOCAD_POSTSCRIPT_FIGURE
1002
{
1000
PSFILL
1000
Grayscale
1000
Grayscale
1070
    25
1002
}
  0
LINE
  5
2B162
330
2AEDA
100
AcDbEntity
  8
YODOROGO
100
AcDbLine
 10
11241.60162798446
 20
697.406061160983
 30
0.0
 11
11241.60162798446
 21
715.4060611609828
 31
0.0
1001
AUTOCAD_POSTSCRIPT_FIGURE
1002
{
1000
PSFILL
1000
Grayscale
1000
Grayscale
1070
    25
1002
}
  0
LINE
  5
2B163
330
2AEDA
100
AcDbEntity
  8
YODOROGO
100
AcDbLine
 10
11241.60162798446
 20
640.4060611609828
 30
0.0
 11
11241.60162798446
 21
682.4060611609829
 31
0.0
1001
AUTOCAD_POSTSCRIPT_FIGURE
1002
{
1000
PSFILL
1000
Grayscale
1000
Grayscale
1070
    25
1002
}
  0
LINE
  5
2B164
330
2AEDA
100
AcDbEntity
  8
YODOROGO
100
AcDbLine
 10
11393.10162798446
 20
715.4060611609828
 30
0.0
 11
11436.60162798447
 21
760.4060611609829
 31
0.0
  0
LINE
  5
2B165
330
2AEDA
100
AcDbEntity
  8
YODOROGO
100
AcDbLine
 10
11393.10162798446
 20
682.4060611609829
 30
0.0
 11
11393.10162798446
 21
715.4060611609828
 31
0.0
  0
LINE
  5
2B166
330
2AEDA
100
AcDbEntity
  8
YODOROGO
100
AcDbLine
 10
11436.60162798447
 20
727.4060611609828
 30
0.0
 11
11393.10162798446
 21
682.4060611609829
 31
0.0
  0
LINE
  5
2B167
330
2AEDA
100
AcDbEntity
  8
YODOROGO
100
AcDbLine
 10
11424.60162798446
 20
629.9060611609831
 30
0.0
 11
11424.60162798446
 21
650.9060611609827
 31
0.0
  0
LINE
  5
2B168
330
2AEDA
100
AcDbEntity
  8
YODOROGO
100
AcDbLine
 10
11393.10162798446
 20
629.9060611609831
 30
0.0
 11
11424.60162798446
 21
629.9060611609831
 31
0.0
  0
LINE
  5
2B169
330
2AEDA
100
AcDbEntity
  8
YODOROGO
100
AcDbLine
 10
11448.60162798446
 20
650.9060611609827
 30
0.0
 11
11448.60162798446
 21
629.9060611609831
 31
0.0
  0
LINE
  5
2B16A
330
2AEDA
100
AcDbEntity
  8
YODOROGO
100
AcDbLine
 10
11393.10162798446
 20
650.9060611609827
 30
0.0
 11
11393.10162798446
 21
673.4060611609827
 31
0.0
  0
LINE
  5
2B16B
330
2AEDA
100
AcDbEntity
  8
YODOROGO
100
AcDbLine
 10
11424.60162798446
 20
650.9060611609827
 30
0.0
 11
11393.10162798446
 21
650.9060611609827
 31
0.0
  0
LINE
  5
2B16C
330
2AEDA
100
AcDbEntity
  8
YODOROGO
100
AcDbLine
 10
11492.10162798447
 20
760.4060611609829
 30
0.0
 11
11615.10162798446
 21
760.4060611609829
 31
0.0
  0
LINE
  5
2B16D
330
2AEDA
100
AcDbEntity
  8
YODOROGO
100
AcDbLine
 10
11597.10162798446
 20
736.4060611609825
 30
0.0
 11
11511.60162798447
 21
736.4060611609825
 31
0.0
  0
LINE
  5
2B16E
330
2AEDA
100
AcDbEntity
  8
YODOROGO
100
AcDbLine
 10
11577.60162798447
 20
682.4060611609829
 30
0.0
 11
11587.35162798447
 21
682.4060611609829
 31
0.0
  0
LINE
  5
2B16F
330
2AEDA
100
AcDbEntity
  8
YODOROGO
100
AcDbLine
 10
11587.35162798447
 20
727.4060611609828
 30
0.0
 11
11577.60162798447
 21
682.4060611609829
 31
0.0
  0
LINE
  5
2B170
330
2AEDA
100
AcDbEntity
  8
YODOROGO
100
AcDbLine
 10
11569.35162798446
 20
727.4060611609828
 30
0.0
 11
11587.35162798447
 21
727.4060611609828
 31
0.0
  0
LINE
  5
2B171
330
2AEDA
100
AcDbEntity
  8
YODOROGO
100
AcDbLine
 10
11559.60162798447
 20
682.4060611609829
 30
0.0
 11
11569.35162798446
 21
727.4060611609828
 31
0.0
  0
LINE
  5
2B172
330
2AEDA
100
AcDbEntity
  8
YODOROGO
100
AcDbLine
 10
11549.10162798447
 20
682.4060611609829
 30
0.0
 11
11559.60162798447
 21
682.4060611609829
 31
0.0
  0
LINE
  5
2B173
330
2AEDA
100
AcDbEntity
  8
YODOROGO
100
AcDbLine
 10
11539.35162798447
 20
727.4060611609828
 30
0.0
 11
11549.10162798447
 21
682.4060611609829
 31
0.0
  0
LINE
  5
2B174
330
2AEDA
100
AcDbEntity
  8
YODOROGO
100
AcDbLine
 10
11521.35162798447
 20
727.4060611609828
 30
0.0
 11
11539.35162798447
 21
727.4060611609828
 31
0.0
  0
LINE
  5
2B175
330
2AEDA
100
AcDbEntity
  8
YODOROGO
100
AcDbLine
 10
11531.10162798447
 20
682.4060611609829
 30
0.0
 11
11521.35162798447
 21
727.4060611609828
 31
0.0
  0
LINE
  5
2B176
330
2AEDA
100
AcDbEntity
  8
YODOROGO
100
AcDbLine
 10
11521.35162798447
 20
682.4060611609829
 30
0.0
 11
11531.10162798447
 21
682.4060611609829
 31
0.0
  0
LINE
  5
2B177
330
2AEDA
100
AcDbEntity
  8
YODOROGO
100
AcDbLine
 10
11521.35162798447
 20
658.4060611609827
 30
0.0
 11
11521.35162798447
 21
682.4060611609829
 31
0.0
  0
LINE
  5
2B178
330
2AEDA
100
AcDbEntity
  8
YODOROGO
100
AcDbLine
 10
11587.35162798447
 20
658.4060611609827
 30
0.0
 11
11521.35162798447
 21
658.4060611609827
 31
0.0
  0
LINE
  5
2B179
330
2AEDA
100
AcDbEntity
  8
YODOROGO
100
AcDbLine
 10
11587.35162798447
 20
682.4060611609829
 30
0.0
 11
11587.35162798447
 21
658.4060611609827
 31
0.0
  0
LINE
  5
2B17A
330
2AEDA
100
AcDbEntity
  8
YODOROGO
100
AcDbLine
 10
11481.60162798447
 20
730.4060611609828
 30
0.0
 11
11481.60162798447
 21
697.406061160983
 31
0.0
  0
LINE
  5
2B17B
330
2AEDA
100
AcDbEntity
  8
YODOROGO
100
AcDbLine
 10
11546.85162798447
 20
658.4060611609827
 30
0.0
 11
11561.85162798446
 21
658.4060611609827
 31
0.0
  0
LINE
  5
2B17C
330
2AEDA
100
AcDbEntity
  8
YODOROGO
100
AcDbLine
 10
11521.35162798447
 20
634.4060611609833
 30
0.0
 11
11536.35162798447
 21
634.4060611609833
 31
0.0
  0
LINE
  5
2B17D
330
2AEDA
100
AcDbEntity
  8
YODOROGO
100
AcDbLine
 10
11572.35162798446
 20
634.4060611609833
 30
0.0
 11
11587.35162798447
 21
634.4060611609833
 31
0.0
  0
LINE
  5
2B17E
330
2AEDA
100
AcDbEntity
  8
YODOROGO
100
AcDbLine
 10
11481.60162798447
 20
673.4060611609827
 30
0.0
 11
11481.60162798447
 21
650.9060611609827
 31
0.0
  0
LINE
  5
2B17F
330
2AEDA
100
AcDbEntity
  8
YODOROGO
100
AcDbLine
 10
11687.10162798447
 20
760.4060611609829
 30
0.0
 11
11687.10162798447
 21
736.4060611609825
 31
0.0
  0
LINE
  5
2B180
330
2AEDA
100
AcDbEntity
  8
YODOROGO
100
AcDbLine
 10
11825.10162798447
 20
598.4060611609827
 30
0.0
 11
11825.10162798446
 21
679.4060611609832
 31
0.0
  0
LINE
  5
2B181
330
2AEDA
100
AcDbEntity
  8
YODOROGO
100
AcDbLine
 10
11798.10162798446
 20
745.4060611609828
 30
0.0
 11
11798.10162798446
 21
613.4060611609827
 31
0.0
  0
LINE
  5
2B182
330
2AEDA
100
AcDbEntity
  8
YODOROGO
100
AcDbLine
 10
11870.10162798447
 20
535.4060611609829
 30
0.0
 11
11870.10162798446
 21
679.4060611609832
 31
0.0
  0
LINE
  5
2B183
330
2AEDA
100
AcDbEntity
  8
YODOROGO
100
AcDbLine
 10
11846.10162798447
 20
679.4060611609832
 30
0.0
 11
11846.10162798447
 21
535.4060611609829
 31
0.0
  0
LINE
  5
2B184
330
2AEDA
100
AcDbEntity
  8
YODOROGO
100
AcDbLine
 10
11714.10162798447
 20
598.4060611609827
 30
0.0
 11
11714.10162798447
 21
640.4060611609828
 31
0.0
  0
ARC
  5
2B185
330
2AEDA
100
AcDbEntity
  8
YODOROGO
100
AcDbCircle
 10
11757.71807441852
 20
602.921381733209
 30
0.0
 40
67.53466821599572
100
AcDbArc
 50
268.6284910216979
 51
356.1663845733032
  0
LINE
  5
2B186
330
2AEDA
100
AcDbEntity
  8
YODOROGO
100
AcDbLine
 10
11756.10162798446
 20
572.9060611609829
 30
0.0
 11
11756.10162798446
 21
535.4060611609829
 31
0.0
  0
ARC
  5
2B187
330
2AEDA
100
AcDbEntity
  8
YODOROGO
100
AcDbCircle
 10
11756.81927839671
 20
614.1896088816206
 30
0.0
 40
41.28978486885457
100
AcDbArc
 50
269.0041020930593
 51
358.9126445549248
  0
LINE
  5
2B188
330
2AEDA
100
AcDbEntity
  8
YODOROGO
100
AcDbLine
 10
11846.10162798447
 20
535.4060611609829
 30
0.0
 11
11870.10162798447
 21
535.4060611609829
 31
0.0
  0
LINE
  5
2B189
330
2AEDA
100
AcDbEntity
  8
YODOROGO
100
AcDbLine
 10
11825.10162798446
 20
679.4060611609832
 30
0.0
 11
11846.10162798447
 21
679.4060611609832
 31
0.0
  0
LINE
  5
2B18A
330
2AEDA
100
AcDbEntity
  8
YODOROGO
100
AcDbLine
 10
11858.10162798446
 20
745.4060611609828
 30
0.0
 11
11798.10162798446
 21
745.4060611609828
 31
0.0
  0
LINE
  5
2B18B
330
2AEDA
100
AcDbEntity
  8
YODOROGO
100
AcDbLine
 10
11825.10162798446
 20
718.4060611609829
 30
0.0
 11
11873.10162798447
 21
718.4060611609829
 31
0.0
  0
LINE
  5
2B18C
330
2AEDA
100
AcDbEntity
  8
YODOROGO
100
AcDbLine
 10
11888.10162798447
 20
703.4060611609828
 30
0.0
 11
11825.10162798446
 21
703.4060611609828
 31
0.0
  0
LINE
  5
2B18D
330
2AEDA
100
AcDbEntity
  8
YODOROGO
100
AcDbLine
 10
11714.10162798447
 20
667.4060611609831
 30
0.0
 11
11756.10162798446
 21
667.4060611609831
 31
0.0
  0
LINE
  5
2B18E
330
2AEDA
100
AcDbEntity
  8
YODOROGO
100
AcDbLine
 10
11714.10162798447
 20
688.4060611609828
 30
0.0
 11
11714.10162798447
 21
667.4060611609831
 31
0.0
  0
LINE
  5
2B18F
330
2AEDA
100
AcDbEntity
  8
YODOROGO
100
AcDbLine
 10
11756.10162798446
 20
688.4060611609828
 30
0.0
 11
11714.10162798447
 21
688.4060611609828
 31
0.0
  0
LINE
  5
2B190
330
2AEDA
100
AcDbEntity
  8
YODOROGO
100
AcDbLine
 10
11756.10162798446
 20
667.4060611609831
 30
0.0
 11
11756.10162798446
 21
688.4060611609828
 31
0.0
  0
LINE
  5
2B191
330
2AEDA
100
AcDbEntity
  8
YODOROGO
100
AcDbLine
 10
11825.10162798446
 20
703.4060611609828
 30
0.0
 11
11825.10162798446
 21
718.4060611609829
 31
0.0
  0
LINE
  5
2B192
330
2AEDA
100
AcDbEntity
  8
YODOROGO
100
AcDbLine
 10
11780.10162798446
 20
640.4060611609828
 30
0.0
 11
11780.10162798446
 21
715.4060611609828
 31
0.0
  0
LINE
  5
2B193
330
2AEDA
100
AcDbEntity
  8
YODOROGO
100
AcDbLine
 10
11714.10162798447
 20
640.4060611609828
 30
0.0
 11
11780.10162798446
 21
640.4060611609828
 31
0.0
  0
LINE
  5
2B194
330
2AEDA
100
AcDbEntity
  8
YODOROGO
100
AcDbLine
 10
11780.10162798446
 20
736.4060611609825
 30
0.0
 11
11780.10162798446
 21
760.4060611609829
 31
0.0
  0
ARC
  5
2B195
330
2AEDA
100
AcDbEntity
  8
YODOROGO
100
AcDbCircle
 10
11858.10162798446
 20
751.4060611609817
 30
0.0
 40
5.999999999997952
100
AcDbArc
 50
270.0
 51
0.0000000000081422
  0
LINE
  5
2B196
330
2AEDA
100
AcDbEntity
  8
YODOROGO
100
AcDbLine
 10
11864.10162798447
 20
760.4060611609829
 30
0.0
 11
11864.10162798447
 21
751.4060611609825
 31
0.0
  0
LINE
  5
2B197
330
2AEDA
100
AcDbEntity
  8
YODOROGO
100
AcDbLine
 10
11888.10162798447
 20
760.4060611609829
 30
0.0
 11
11864.10162798447
 21
760.4060611609829
 31
0.0
  0
LINE
  5
2B198
330
2AEDA
100
AcDbEntity
  8
YODOROGO
100
AcDbLine
 10
11888.10162798447
 20
733.4060611609828
 30
0.0
 11
11888.10162798447
 21
760.4060611609829
 31
0.0
  0
ARC
  5
2B199
330
2AEDA
100
AcDbEntity
  8
YODOROGO
100
AcDbCircle
 10
11873.10162798447
 20
733.4060611609828
 30
0.0
 40
15.0
100
AcDbArc
 50
270.0
 51
0.0
  0
LINE
  5
2B19A
330
2AEDA
100
AcDbEntity
  8
YODOROGO
100
AcDbLine
 10
11888.10162798447
 20
679.4060611609832
 30
0.0
 11
11888.10162798447
 21
703.4060611609828
 31
0.0
  0
LINE
  5
2B19B
330
2AEDA
100
AcDbEntity
  8
YODOROGO
100
AcDbLine
 10
11870.10162798446
 20
679.4060611609832
 30
0.0
 11
11888.10162798447
 21
679.4060611609832
 31
0.0
  0
LINE
  5
2B19C
330
2AEDA
100
AcDbEntity
  8
SUNPOU
100
AcDbLine
 10
9281.504567557743
 20
3894.704834655467
 30
0.0
 11
9429.8855128848
 21
3894.704834655467
 31
0.0
  0
LINE
  5
2B19D
330
2AEDA
100
AcDbEntity
  8
SUNPOU
100
AcDbLine
 10
9281.504567557743
 20
3969.704834655468
 30
0.0
 11
9429.8855128848
 21
3969.704834655468
 31
0.0
  0
LINE
  5
2B19E
330
2AEDA
100
AcDbEntity
  8
SUNPOU
100
AcDbLine
 10
9384.885512884798
 20
3879.704834655468
 30
0.0
 11
9384.885512884798
 21
3864.704834655468
 31
0.0
  0
LINE
  5
2B19F
330
2AEDA
100
AcDbEntity
  8
SUNPOU
100
AcDbLine
 10
9384.885512884798
 20
3984.704834655468
 30
0.0
 11
9384.885512884803
 21
4186.847691798325
 31
0.0
  0
LINE
  5
2B1A0
330
2AEDA
100
AcDbEntity
  8
SUNPOU
100
AcDbLine
 10
9384.885512884798
 20
3894.704834655467
 30
0.0
 11
9384.885512884798
 21
3969.704834655468
 31
0.0
  0
LINE
  5
2B1A1
330
2AEDA
100
AcDbEntity
  8
SUNPOU
100
AcDbLine
 10
9186.504567557742
 20
3864.704834655468
 30
0.0
 11
9186.504567557742
 21
3696.788054923167
 31
0.0
  0
LINE
  5
2B1A2
330
2AEDA
100
AcDbEntity
  8
SUNPOU
100
AcDbLine
 10
9251.504567557743
 20
3864.704834655468
 30
0.0
 11
9251.504567557743
 21
3696.788054923167
 31
0.0
  0
LINE
  5
2B1A3
330
2AEDA
100
AcDbEntity
  8
SUNPOU
100
AcDbLine
 10
9266.504567557742
 20
3741.788054923167
 30
0.0
 11
9281.504567557743
 21
3741.788054923167
 31
0.0
  0
LINE
  5
2B1A4
330
2AEDA
100
AcDbEntity
  8
SUNPOU
100
AcDbLine
 10
9171.504567557743
 20
3741.788054923167
 30
0.0
 11
8972.218853272028
 21
3741.788054923167
 31
0.0
  0
LINE
  5
2B1A5
330
2AEDA
100
AcDbEntity
  8
SUNPOU
100
AcDbLine
 10
9251.504567557743
 20
3741.788054923167
 30
0.0
 11
9186.504567557742
 21
3741.788054923167
 31
0.0
  0
LINE
  5
2B1A6
330
2AEDA
100
AcDbEntity
  8
SUNPOU
100
AcDbLine
 10
8869.004567557743
 20
3552.204834655468
 30
0.0
 11
8869.004567557743
 21
3225.14663126384
 31
0.0
  0
LINE
  5
2B1A7
330
2AEDA
100
AcDbEntity
  8
SUNPOU
100
AcDbLine
 10
9569.004567557742
 20
3552.204834655468
 30
0.0
 11
9569.004567557742
 21
3225.14663126384
 31
0.0
  0
LINE
  5
2B1A8
330
2AEDA
100
AcDbEntity
  8
SUNPOU
100
AcDbLine
 10
8884.004567557743
 20
3270.14663126384
 30
0.0
 11
9554.004567557742
 21
3270.14663126384
 31
0.0
  0
LINE
  5
2B1A9
330
2AEDA
100
AcDbEntity
  8
SUNPOU
100
AcDbLine
 10
9599.004567557742
 20
4282.204834655466
 30
0.0
 11
9962.828975586536
 21
4282.204834655466
 31
0.0
  0
LINE
  5
2B1AA
330
2AEDA
100
AcDbEntity
  8
SUNPOU
100
AcDbLine
 10
9599.004567557742
 20
3582.204834655467
 30
0.0
 11
9962.828975586532
 21
3582.204834655467
 31
0.0
  0
LINE
  5
2B1AB
330
2AEDA
100
AcDbEntity
  8
SUNPOU
100
AcDbLine
 10
9917.828975586536
 20
4267.204834655466
 30
0.0
 11
9917.828975586532
 21
3597.204834655467
 31
0.0
  0
LINE
  5
2B1AC
330
2AEDA
100
AcDbEntity
  8
SUNPOU
100
AcDbLine
 10
9599.004567557742
 20
2532.204834655467
 30
0.0
 11
10334.00456755771
 21
2532.204834655467
 31
0.0
  0
LINE
  5
2B1AD
330
2AEDA
100
AcDbEntity
  8
SUNPOU
100
AcDbLine
 10
9599.004567557742
 20
7392.204834655466
 30
0.0
 11
10334.00456755772
 21
7392.204834655466
 31
0.0
  0
LINE
  5
2B1AE
330
2AEDA
100
AcDbEntity
  8
SUNPOU
100
AcDbLine
 10
10289.00456755772
 20
2547.204834655467
 30
0.0
 11
10289.00456755772
 21
7377.204834655467
 31
0.0
  0
LINE
  5
2B1AF
330
2AEDA
100
AcDbEntity
  8
SUNPOU
100
AcDbLine
 10
9676.063384907939
 20
5992.204834655467
 30
0.0
 11
10124.00456755772
 21
5992.204834655467
 31
0.0
  0
LINE
  5
2B1B0
330
2AEDA
100
AcDbEntity
  8
SUNPOU
100
AcDbLine
 10
9599.004567557742
 20
7392.204834655466
 30
0.0
 11
10124.00456755772
 21
7392.204834655466
 31
0.0
  0
LINE
  5
2B1B1
330
2AEDA
100
AcDbEntity
  8
SUNPOU
100
AcDbLine
 10
10079.00456755772
 20
6007.204834655467
 30
0.0
 11
10079.00456755772
 21
7377.204834655469
 31
0.0
  0
LINE
  5
2B1B2
330
2AEDA
100
AcDbEntity
  8
SUNPOU
100
AcDbLine
 10
9676.063384907939
 20
3932.204834655467
 30
0.0
 11
10124.00456755772
 21
3932.204834655467
 31
0.0
  0
LINE
  5
2B1B3
330
2AEDA
100
AcDbEntity
  8
SUNPOU
100
AcDbLine
 10
9599.004567557742
 20
2532.204834655467
 30
0.0
 11
10124.00456755772
 21
2532.204834655467
 31
0.0
  0
LINE
  5
2B1B4
330
2AEDA
100
AcDbEntity
  8
SUNPOU
100
AcDbLine
 10
10079.00456755772
 20
3917.204834655466
 30
0.0
 11
10079.00456755772
 21
2547.204834655467
 31
0.0
  0
LINE
  5
2B1B5
330
2AEDA
100
AcDbEntity
  8
SUNPOU
100
AcDbLine
 10
9676.063384907939
 20
3932.204834655467
 30
0.0
 11
10124.00456755772
 21
3932.204834655467
 31
0.0
  0
LINE
  5
2B1B6
330
2AEDA
100
AcDbEntity
  8
SUNPOU
100
AcDbLine
 10
9676.063384907939
 20
5992.204834655467
 30
0.0
 11
10124.00456755772
 21
5992.204834655467
 31
0.0
  0
LINE
  5
2B1B7
330
2AEDA
100
AcDbEntity
  8
SUNPOU
100
AcDbLine
 10
10079.00456755772
 20
3947.204834655467
 30
0.0
 11
10079.00456755772
 21
5977.204834655466
 31
0.0
  0
LINE
  5
2B1B8
330
2AEDA
100
AcDbEntity
  8
SUNPOU
100
AcDbLine
 10
9281.504567557743
 20
5954.704834655466
 30
0.0
 11
9429.8855128848
 21
5954.704834655466
 31
0.0
  0
LINE
  5
2B1B9
330
2AEDA
100
AcDbEntity
  8
SUNPOU
100
AcDbLine
 10
9281.504567557743
 20
6029.704834655468
 30
0.0
 11
9429.8855128848
 21
6029.704834655468
 31
0.0
  0
LINE
  5
2B1BA
330
2AEDA
100
AcDbEntity
  8
SUNPOU
100
AcDbLine
 10
9384.885512884798
 20
5939.704834655469
 30
0.0
 11
9384.885512884798
 21
5924.704834655468
 31
0.0
  0
LINE
  5
2B1BB
330
2AEDA
100
AcDbEntity
  8
SUNPOU
100
AcDbLine
 10
9384.885512884798
 20
6044.704834655466
 30
0.0
 11
9384.885512884798
 21
6246.847691798325
 31
0.0
  0
LINE
  5
2B1BC
330
2AEDA
100
AcDbEntity
  8
SUNPOU
100
AcDbLine
 10
9384.885512884798
 20
5954.704834655466
 30
0.0
 11
9384.885512884798
 21
6029.704834655468
 31
0.0
  0
LINE
  5
2B1BD
330
2AEDA
100
AcDbEntity
  8
SUNPOU
100
AcDbLine
 10
9186.504567557742
 20
5924.704834655468
 30
0.0
 11
9186.504567557742
 21
5756.788054923166
 31
0.0
  0
LINE
  5
2B1BE
330
2AEDA
100
AcDbEntity
  8
SUNPOU
100
AcDbLine
 10
9251.504567557743
 20
5924.704834655468
 30
0.0
 11
9251.504567557743
 21
5756.788054923166
 31
0.0
  0
LINE
  5
2B1BF
330
2AEDA
100
AcDbEntity
  8
SUNPOU
100
AcDbLine
 10
9266.504567557742
 20
5801.788054923167
 30
0.0
 11
9281.504567557743
 21
5801.788054923167
 31
0.0
  0
LINE
  5
2B1C0
330
2AEDA
100
AcDbEntity
  8
SUNPOU
100
AcDbLine
 10
9171.504567557743
 20
5801.788054923167
 30
0.0
 11
8972.218853272028
 21
5801.788054923167
 31
0.0
  0
LINE
  5
2B1C1
330
2AEDA
100
AcDbEntity
  8
SUNPOU
100
AcDbLine
 10
9251.504567557743
 20
5801.788054923167
 30
0.0
 11
9186.504567557742
 21
5801.788054923167
 31
0.0
  0
LINE
  5
2B1C2
330
2AEDA
100
AcDbEntity
  8
SUNPOU
100
AcDbLine
 10
8869.004567557743
 20
5612.204834655468
 30
0.0
 11
8869.004567557743
 21
5285.146631263842
 31
0.0
  0
LINE
  5
2B1C3
330
2AEDA
100
AcDbEntity
  8
SUNPOU
100
AcDbLine
 10
9569.004567557742
 20
5612.204834655468
 30
0.0
 11
9569.004567557742
 21
5285.146631263842
 31
0.0
  0
LINE
  5
2B1C4
330
2AEDA
100
AcDbEntity
  8
SUNPOU
100
AcDbLine
 10
8884.004567557743
 20
5330.14663126384
 30
0.0
 11
9554.004567557742
 21
5330.14663126384
 31
0.0
  0
LINE
  5
2B1C5
330
2AEDA
100
AcDbEntity
  8
SUNPOU
100
AcDbLine
 10
9599.004567557742
 20
6342.204834655468
 30
0.0
 11
9962.828975586532
 21
6342.204834655468
 31
0.0
  0
LINE
  5
2B1C6
330
2AEDA
100
AcDbEntity
  8
SUNPOU
100
AcDbLine
 10
9599.004567557742
 20
5642.204834655466
 30
0.0
 11
9962.828975586532
 21
5642.204834655466
 31
0.0
  0
LINE
  5
2B1C7
330
2AEDA
100
AcDbEntity
  8
SUNPOU
100
AcDbLine
 10
9917.828975586532
 20
6327.204834655468
 30
0.0
 11
9917.828975586532
 21
5657.204834655466
 31
0.0
  0
LINE
  5
2B1C8
330
2AEDA
100
AcDbEntity
  8
SUNPOU
100
AcDbLine
 10
9219.004567557743
 20
3501.926974229796
 30
0.0
 11
9219.004567557743
 21
2087.204834655467
 31
0.0
  0
LINE
  5
2B1C9
330
2AEDA
100
AcDbEntity
  8
SUNPOU
100
AcDbLine
 10
9569.004567557742
 20
2162.204834655466
 30
0.0
 11
9569.004567557742
 21
2177.204834655467
 31
0.0
  0
LINE
  5
2B1CA
330
2AEDA
100
AcDbEntity
  8
SUNPOU
100
AcDbLine
 10
9234.004567557743
 20
2132.204834655467
 30
0.0
 11
9554.004567557742
 21
2132.204834655467
 31
0.0
  0
LINE
  5
2B1CB
330
2AEDA
100
AcDbEntity
  8
SUNPOU
100
AcDbLine
 10
6419.004567557741
 20
2502.204834655466
 30
0.0
 11
6419.004567557741
 21
1877.204834655465
 31
0.0
  0
LINE
  5
2B1CC
330
2AEDA
100
AcDbEntity
  8
SUNPOU
100
AcDbLine
 10
9569.004567557742
 20
2502.204834655467
 30
0.0
 11
9569.004567557742
 21
1877.204834655465
 31
0.0
  0
LINE
  5
2B1CD
330
2AEDA
100
AcDbEntity
  8
SUNPOU
100
AcDbLine
 10
6434.00456755774
 20
1922.204834655465
 30
0.0
 11
9554.004567557742
 21
1922.204834655465
 31
0.0
  0
LINE
  5
2B1CE
330
2AEDA
100
AcDbEntity
  8
SUNPOU
100
AcDbLine
 10
9207.754567557739
 20
2132.204834655467
 30
0.0
 11
9196.504567557738
 21
2132.204834655467
 31
0.0
  0
LINE
  5
2B1CF
330
2AEDA
100
AcDbEntity
  8
SUNPOU
100
AcDbLine
 10
6780.254567557737
 20
2132.204834655467
 30
0.0
 11
6791.504567557734
 21
2132.204834655467
 31
0.0
  0
LINE
  5
2B1D0
330
2AEDA
100
AcDbEntity
  8
SUNPOU
100
AcDbLine
 10
6757.754567557736
 20
2132.204834655467
 30
0.0
 11
6746.504567557734
 21
2132.204834655467
 31
0.0
  0
LINE
  5
2B1D1
330
2AEDA
100
AcDbEntity
  8
SUNPOU
100
AcDbLine
 10
6430.254567557736
 20
2132.204834655467
 30
0.0
 11
6441.504567557736
 21
2132.204834655467
 31
0.0
  0
LINE
  5
2B1D2
330
2AEDA
100
AcDbEntity
  8
SUNPOU
100
AcDbLine
 10
3175.201129534439
 20
4701.619741444836
 30
0.0
 11
4627.701129534438
 21
4701.619741444836
 31
0.0
  0
LINE
  5
2B1D3
330
2AEDA
100
AcDbEntity
  8
SUNPOU
100
AcDbLine
 10
3175.201129534437
 20
4551.619741444837
 30
0.0
 11
4627.701129534438
 21
4551.619741444837
 31
0.0
  0
LINE
  5
2B1D4
330
2AEDA
100
AcDbEntity
  8
SUNPOU
100
AcDbLine
 10
4582.701129534438
 20
4686.619741444836
 30
0.0
 11
4582.701129534438
 21
4566.619741444838
 31
0.0
  0
LINE
  5
2B1D5
330
2AEDA
100
AcDbEntity
  8
SUNPOU
100
AcDbLine
 10
4582.701129534438
 20
4551.619741444837
 30
0.0
 11
4582.701129534438
 21
4300.905455730553
 31
0.0
  0
LINE
  5
2B1D6
330
2AEDA
100
AcDbEntity
  8
SUNPOU
100
AcDbLine
 10
4412.701129534438
 20
5451.619741444837
 30
0.0
 11
4627.701129534438
 21
5451.619741444837
 31
0.0
  0
LINE
  5
2B1D7
330
2AEDA
100
AcDbEntity
  8
SUNPOU
100
AcDbLine
 10
3175.201129534439
 20
4701.619741444839
 30
0.0
 11
4627.701129534438
 21
4701.619741444839
 31
0.0
  0
LINE
  5
2B1D8
330
2AEDA
100
AcDbEntity
  8
SUNPOU
100
AcDbLine
 10
4582.701129534438
 20
5436.619741444838
 30
0.0
 11
4582.701129534438
 21
4716.619741444839
 31
0.0
  0
LINE
  5
2B1D9
330
2AEDA
100
AcDbEntity
  8
SUNPOU
100
AcDbLine
 10
1945.201129534436
 20
4521.619741444838
 30
0.0
 11
1945.201129534436
 21
4176.619741444836
 31
0.0
  0
LINE
  5
2B1DA
330
2AEDA
100
AcDbEntity
  8
SUNPOU
100
AcDbLine
 10
2995.201129534437
 20
4521.619741444838
 30
0.0
 11
2995.201129534437
 21
4176.619741444836
 31
0.0
  0
LINE
  5
2B1DB
330
2AEDA
100
AcDbEntity
  8
SUNPOU
100
AcDbLine
 10
1960.201129534436
 20
4221.619741444835
 30
0.0
 11
2980.201129534437
 21
4221.619741444835
 31
0.0
  0
LINE
  5
2B1DC
330
2AEDA
100
AcDbEntity
  8
SUNPOU
100
AcDbLine
 10
1795.201129534437
 20
4521.619741444838
 30
0.0
 11
1795.201129534437
 21
3966.619741444837
 31
0.0
  0
LINE
  5
2B1DD
330
2AEDA
100
AcDbEntity
  8
SUNPOU
100
AcDbLine
 10
3145.201129534437
 20
4521.619741444838
 30
0.0
 11
3145.201129534437
 21
3966.619741444837
 31
0.0
  0
LINE
  5
2B1DE
330
2AEDA
100
AcDbEntity
  8
SUNPOU
100
AcDbLine
 10
1810.201129534436
 20
4011.619741444837
 30
0.0
 11
3130.201129534437
 21
4011.619741444837
 31
0.0
  0
TEXT
  5
2B1DF
330
2AEDA
100
AcDbEntity
  8
SUNPOU
100
AcDbText
 10
2326.201129534437
 20
4056.619741444836
 30
0.0
 40
90.0
  1
900 □
 41
0.6666666666666666
  7
00
100
AcDbText
  0
LINE
  5
2B1E0
330
2AEDA
100
AcDbEntity
  8
SUNPOU
100
AcDbLine
 10
3133.951129534437
 20
4011.619741444837
 30
0.0
 11
3122.701129534437
 21
4011.619741444837
 31
0.0
  0
LINE
  5
2B1E1
330
2AEDA
100
AcDbEntity
  8
SUNPOU
100
AcDbLine
 10
1806.451129534436
 20
4011.619741444837
 30
0.0
 11
1817.701129534436
 21
4011.619741444837
 31
0.0
  0
TEXT
  5
2B1E2
330
2AEDA
100
AcDbEntity
  8
SUNPOU
100
AcDbText
 10
2326.201129534437
 20
4266.619741444836
 30
0.0
 40
90.0
  1
700 □
 41
0.6666666666666666
  7
00
100
AcDbText
  0
LINE
  5
2B1E3
330
2AEDA
100
AcDbEntity
  8
SUNPOU
100
AcDbLine
 10
2983.951129534437
 20
4221.619741444835
 30
0.0
 11
2972.701129534437
 21
4221.619741444835
 31
0.0
  0
LINE
  5
2B1E4
330
2AEDA
100
AcDbEntity
  8
SUNPOU
100
AcDbLine
 10
1956.451129534436
 20
4221.619741444835
 30
0.0
 11
1967.701129534436
 21
4221.619741444835
 31
0.0
  0
TEXT
  5
2B1E5
330
2AEDA
100
AcDbEntity
  8
SUNPOU
100
AcDbText
 10
4537.701129534437
 20
4990.905455730555
 30
0.0
 40
90.0
  1
500
 50
90.0
 41
0.6666666666666666
  7
00
100
AcDbText
  0
LINE
  5
2B1E6
330
2AEDA
100
AcDbEntity
  8
SUNPOU
100
AcDbLine
 10
4582.701129534438
 20
4712.869741444839
 30
0.0
 11
4582.701129534438
 21
4724.119741444837
 31
0.0
  0
LINE
  5
2B1E7
330
2AEDA
100
AcDbEntity
  8
SUNPOU
100
AcDbLine
 10
4582.701129534438
 20
5440.369741444838
 30
0.0
 11
4582.701129534438
 21
5429.119741444838
 31
0.0
  0
TEXT
  5
2B1E8
330
2AEDA
100
AcDbEntity
  8
SUNPOU
100
AcDbText
 10
4537.701129534437
 20
4328.762598587696
 30
0.0
 40
90.0
  1
100
 50
90.0
 41
0.6666666666666666
  7
00
100
AcDbText
  0
LINE
  5
2B1E9
330
2AEDA
100
AcDbEntity
  8
SUNPOU
100
AcDbLine
 10
4582.701129534438
 20
4562.869741444838
 30
0.0
 11
4582.701129534438
 21
4574.119741444838
 31
0.0
  0
LINE
  5
2B1EA
330
2AEDA
100
AcDbEntity
  8
SUNPOU
100
AcDbLine
 10
4582.701129534438
 20
4690.369741444835
 30
0.0
 11
4582.701129534438
 21
4679.119741444836
 31
0.0
  0
ARC
  5
2B1EB
330
2AEDA
100
AcDbEntity
  8
SUNPOU
100
AcDbCircle
 10
6419.004567557735
 20
2132.204834655467
 30
0.0
 40
5.625
100
AcDbArc
 50
0.0
 51
180.0
  0
ARC
  5
2B1EC
330
2AEDA
100
AcDbEntity
  8
SUNPOU
100
AcDbCircle
 10
6419.004567557735
 20
2132.204834655467
 30
0.0
 40
5.625
100
AcDbArc
 50
180.0
 51
0.0
  0
ARC
  5
2B1ED
330
2AEDA
100
AcDbEntity
  8
SUNPOU
100
AcDbCircle
 10
6769.004567557735
 20
2132.204834655467
 30
0.0
 40
5.625
100
AcDbArc
 50
180.0
 51
0.0
  0
ARC
  5
2B1EE
330
2AEDA
100
AcDbEntity
  8
SUNPOU
100
AcDbCircle
 10
6769.004567557735
 20
2132.204834655467
 30
0.0
 40
5.625
100
AcDbArc
 50
0.0
 51
180.0
  0
ARC
  5
2B1EF
330
2AEDA
100
AcDbEntity
  8
SUNPOU
100
AcDbCircle
 10
6769.004567557735
 20
2132.204834655467
 30
0.0
 40
5.625
100
AcDbArc
 50
0.0
 51
180.0
  0
ARC
  5
2B1F0
330
2AEDA
100
AcDbEntity
  8
SUNPOU
100
AcDbCircle
 10
6769.004567557735
 20
2132.204834655467
 30
0.0
 40
5.625
100
AcDbArc
 50
180.0
 51
0.0
  0
ARC
  5
2B1F1
330
2AEDA
100
AcDbEntity
  8
SUNPOU
100
AcDbCircle
 10
9219.004567557735
 20
2132.204834655467
 30
0.0
 40
5.625
100
AcDbArc
 50
180.0
 51
0.0
  0
ARC
  5
2B1F2
330
2AEDA
100
AcDbEntity
  8
SUNPOU
100
AcDbCircle
 10
9219.004567557735
 20
2132.204834655467
 30
0.0
 40
5.625
100
AcDbArc
 50
0.0
 51
180.0
  0
TEXT
  5
2B1F3
330
2AEDA
100
AcDbEntity
  8
SUNPOU
100
AcDbText
 10
7879.718853272027
 20
1967.204834655466
 30
0.0
 40
90.0
  1
3150
 41
0.6666666666666666
  7
00
100
AcDbText
  0
LINE
  5
2B1F4
330
2AEDA
100
AcDbEntity
  8
SUNPOU
100
AcDbLine
 10
9557.754567557742
 20
1922.204834655465
 30
0.0
 11
9546.504567557743
 21
1922.204834655465
 31
0.0
  0
LINE
  5
2B1F5
330
2AEDA
100
AcDbEntity
  8
SUNPOU
100
AcDbLine
 10
6430.25456755774
 20
1922.204834655465
 30
0.0
 11
6441.50456755774
 21
1922.204834655465
 31
0.0
  0
TEXT
  5
2B1F6
330
2AEDA
100
AcDbEntity
  8
SUNPOU
100
AcDbText
 10
9308.290281843458
 20
2177.204834655467
 30
0.0
 40
90.0
  1
350
 41
0.6666666666666666
  7
00
100
AcDbText
  0
LINE
  5
2B1F7
330
2AEDA
100
AcDbEntity
  8
SUNPOU
100
AcDbLine
 10
9557.754567557742
 20
2132.204834655467
 30
0.0
 11
9546.504567557743
 21
2132.204834655467
 31
0.0
  0
LINE
  5
2B1F8
330
2AEDA
100
AcDbEntity
  8
SUNPOU
100
AcDbLine
 10
9230.254567557741
 20
2132.204834655467
 30
0.0
 11
9241.504567557742
 21
2132.204834655467
 31
0.0
  0
TEXT
  5
2B1F9
330
2AEDA
100
AcDbEntity
  8
SUNPOU
100
AcDbText
 10
9872.828975586532
 20
5906.490548941183
 30
0.0
 40
90.0
  1
700
 50
90.0
 41
0.6666666666666666
  7
00
100
AcDbText
  0
LINE
  5
2B1FA
330
2AEDA
100
AcDbEntity
  8
SUNPOU
100
AcDbLine
 10
9917.828975586532
 20
5653.454834655469
 30
0.0
 11
9917.828975586532
 21
5664.704834655466
 31
0.0
  0
LINE
  5
2B1FB
330
2AEDA
100
AcDbEntity
  8
SUNPOU
100
AcDbLine
 10
9917.828975586532
 20
6330.954834655468
 30
0.0
 11
9917.828975586532
 21
6319.704834655468
 31
0.0
  0
TEXT
  5
2B1FC
330
2AEDA
100
AcDbEntity
  8
SUNPOU
100
AcDbText
 10
9133.290281843457
 20
5375.146631263842
 30
0.0
 40
90.0
  1
700
 41
0.6666666666666666
  7
00
100
AcDbText
  0
LINE
  5
2B1FD
330
2AEDA
100
AcDbEntity
  8
SUNPOU
100
AcDbLine
 10
9557.754567557742
 20
5330.14663126384
 30
0.0
 11
9546.504567557743
 21
5330.14663126384
 31
0.0
  0
LINE
  5
2B1FE
330
2AEDA
100
AcDbEntity
  8
SUNPOU
100
AcDbLine
 10
8880.254567557742
 20
5330.14663126384
 30
0.0
 11
8891.504567557742
 21
5330.14663126384
 31
0.0
  0
TEXT
  5
2B1FF
330
2AEDA
100
AcDbEntity
  8
SUNPOU
100
AcDbText
 10
9005.790281843458
 20
5846.788054923166
 30
0.0
 40
90.0
  1
65
 41
0.6666666666666666
  7
00
100
AcDbText
  0
LINE
  5
2B200
330
2AEDA
100
AcDbEntity
  8
SUNPOU
100
AcDbLine
 10
9175.254567557741
 20
5801.788054923167
 30
0.0
 11
9164.004567557743
 21
5801.788054923167
 31
0.0
  0
LINE
  5
2B201
330
2AEDA
100
AcDbEntity
  8
SUNPOU
100
AcDbLine
 10
9262.754567557742
 20
5801.788054923167
 30
0.0
 11
9274.004567557742
 21
5801.788054923167
 31
0.0
  0
TEXT
  5
2B202
330
2AEDA
100
AcDbEntity
  8
SUNPOU
100
AcDbText
 10
9339.8855128848
 20
6096.133406084039
 30
0.0
 40
90.0
  1
75
 50
90.0
 41
0.6666666666666666
  7
00
100
AcDbText
  0
LINE
  5
2B203
330
2AEDA
100
AcDbEntity
  8
SUNPOU
100
AcDbLine
 10
9384.885512884798
 20
6040.954834655469
 30
0.0
 11
9384.885512884798
 21
6052.204834655467
 31
0.0
  0
LINE
  5
2B204
330
2AEDA
100
AcDbEntity
  8
SUNPOU
100
AcDbLine
 10
9384.885512884798
 20
5943.454834655469
 30
0.0
 11
9384.885512884798
 21
5932.204834655466
 31
0.0
  0
TEXT
  5
2B205
330
2AEDA
100
AcDbEntity
  8
SUNPOU
100
AcDbText
 10
10034.00456755772
 20
4847.919120369754
 30
0.0
 40
90.0
  1
2060
 50
90.0
 41
0.6666666666666666
  7
00
100
AcDbText
  0
LINE
  5
2B206
330
2AEDA
100
AcDbEntity
  8
SUNPOU
100
AcDbLine
 10
10079.00456755772
 20
5980.954834655467
 30
0.0
 11
10079.00456755772
 21
5969.704834655466
 31
0.0
  0
LINE
  5
2B207
330
2AEDA
100
AcDbEntity
  8
SUNPOU
100
AcDbLine
 10
10079.00456755772
 20
3943.454834655467
 30
0.0
 11
10079.00456755772
 21
3954.704834655466
 31
0.0
  0
TEXT
  5
2B208
330
2AEDA
100
AcDbEntity
  8
SUNPOU
100
AcDbText
 10
10034.00456755772
 20
3113.63340608404
 30
0.0
 40
90.0
  1
1400
 50
90.0
 41
0.6666666666666666
  7
00
100
AcDbText
  0
LINE
  5
2B209
330
2AEDA
100
AcDbEntity
  8
SUNPOU
100
AcDbLine
 10
10079.00456755772
 20
2543.454834655467
 30
0.0
 11
10079.00456755772
 21
2554.704834655467
 31
0.0
  0
LINE
  5
2B20A
330
2AEDA
100
AcDbEntity
  8
SUNPOU
100
AcDbLine
 10
10079.00456755772
 20
3920.954834655466
 30
0.0
 11
10079.00456755772
 21
3909.704834655467
 31
0.0
  0
TEXT
  5
2B20B
330
2AEDA
100
AcDbEntity
  8
SUNPOU
100
AcDbText
 10
10034.00456755772
 20
6573.633406084039
 30
0.0
 40
90.0
  1
1400
 50
90.0
 41
0.6666666666666666
  7
00
100
AcDbText
  0
LINE
  5
2B20C
330
2AEDA
100
AcDbEntity
  8
SUNPOU
100
AcDbLine
 10
10079.00456755772
 20
7380.954834655469
 30
0.0
 11
10079.00456755772
 21
7369.704834655468
 31
0.0
  0
LINE
  5
2B20D
330
2AEDA
100
AcDbEntity
  8
SUNPOU
100
AcDbLine
 10
10079.00456755772
 20
6003.454834655467
 30
0.0
 11
10079.00456755772
 21
6014.704834655464
 31
0.0
  0
TEXT
  5
2B20E
330
2AEDA
100
AcDbEntity
  8
SUNPOU
100
AcDbText
 10
10244.00456755772
 20
4847.919120369754
 30
0.0
 40
90.0
  1
4860
 50
90.0
 41
0.6666666666666666
  7
00
100
AcDbText
  0
LINE
  5
2B20F
330
2AEDA
100
AcDbEntity
  8
SUNPOU
100
AcDbLine
 10
10289.00456755772
 20
7380.954834655466
 30
0.0
 11
10289.00456755772
 21
7369.704834655466
 31
0.0
  0
LINE
  5
2B210
330
2AEDA
100
AcDbEntity
  8
SUNPOU
100
AcDbLine
 10
10289.00456755772
 20
2543.454834655467
 30
0.0
 11
10289.00456755772
 21
2554.704834655467
 31
0.0
  0
TEXT
  5
2B211
330
2AEDA
100
AcDbEntity
  8
SUNPOU
100
AcDbText
 10
9872.828975586532
 20
3846.490548941183
 30
0.0
 40
90.0
  1
700
 50
90.0
 41
0.6666666666666666
  7
00
100
AcDbText
  0
LINE
  5
2B212
330
2AEDA
100
AcDbEntity
  8
SUNPOU
100
AcDbLine
 10
9917.828975586532
 20
3593.454834655467
 30
0.0
 11
9917.828975586532
 21
3604.704834655468
 31
0.0
  0
LINE
  5
2B213
330
2AEDA
100
AcDbEntity
  8
SUNPOU
100
AcDbLine
 10
9917.828975586536
 20
4270.954834655467
 30
0.0
 11
9917.828975586536
 21
4259.704834655468
 31
0.0
  0
TEXT
  5
2B214
330
2AEDA
100
AcDbEntity
  8
SUNPOU
100
AcDbText
 10
9133.290281843457
 20
3315.146631263841
 30
0.0
 40
90.0
  1
700
 41
0.6666666666666666
  7
00
100
AcDbText
  0
LINE
  5
2B215
330
2AEDA
100
AcDbEntity
  8
SUNPOU
100
AcDbLine
 10
9557.754567557742
 20
3270.14663126384
 30
0.0
 11
9546.504567557743
 21
3270.14663126384
 31
0.0
  0
LINE
  5
2B216
330
2AEDA
100
AcDbEntity
  8
SUNPOU
100
AcDbLine
 10
8880.254567557742
 20
3270.14663126384
 30
0.0
 11
8891.504567557742
 21
3270.14663126384
 31
0.0
  0
TEXT
  5
2B217
330
2AEDA
100
AcDbEntity
  8
SUNPOU
100
AcDbText
 10
9005.790281843458
 20
3786.788054923167
 30
0.0
 40
90.0
  1
65
 41
0.6666666666666666
  7
00
100
AcDbText
  0
LINE
  5
2B218
330
2AEDA
100
AcDbEntity
  8
SUNPOU
100
AcDbLine
 10
9175.254567557741
 20
3741.788054923167
 30
0.0
 11
9164.004567557743
 21
3741.788054923167
 31
0.0
  0
LINE
  5
2B219
330
2AEDA
100
AcDbEntity
  8
SUNPOU
100
AcDbLine
 10
9262.754567557742
 20
3741.788054923167
 30
0.0
 11
9274.004567557742
 21
3741.788054923167
 31
0.0
  0
TEXT
  5
2B21A
330
2AEDA
100
AcDbEntity
  8
SUNPOU
100
AcDbText
 10
9339.8855128848
 20
4036.133406084041
 30
0.0
 40
90.0
  1
75
 50
90.0
 41
0.6666666666666666
  7
00
100
AcDbText
  0
LINE
  5
2B21B
330
2AEDA
100
AcDbEntity
  8
SUNPOU
100
AcDbLine
 10
9384.885512884798
 20
3980.954834655467
 30
0.0
 11
9384.885512884798
 21
3992.204834655467
 31
0.0
  0
LINE
  5
2B21C
330
2AEDA
100
AcDbEntity
  8
SUNPOU
100
AcDbLine
 10
9384.885512884798
 20
3883.454834655468
 30
0.0
 11
9384.885512884798
 21
3872.204834655468
 31
0.0
  0
ARC
  5
2B21D
330
2AEDA
100
AcDbEntity
  8
SUNPOU
100
AcDbCircle
 10
9384.885512884798
 20
3894.704834655467
 30
0.0
 40
5.625
100
AcDbArc
 50
270.0
 51
90.0
  0
ARC
  5
2B21E
330
2AEDA
100
AcDbEntity
  8
SUNPOU
100
AcDbCircle
 10
9384.885512884798
 20
3894.704834655467
 30
0.0
 40
5.625
100
AcDbArc
 50
90.0
 51
270.0
  0
ARC
  5
2B21F
330
2AEDA
100
AcDbEntity
  8
SUNPOU
100
AcDbCircle
 10
9384.885512884798
 20
3969.704834655468
 30
0.0
 40
5.625
100
AcDbArc
 50
90.0
 51
270.0
  0
ARC
  5
2B220
330
2AEDA
100
AcDbEntity
  8
SUNPOU
100
AcDbCircle
 10
9384.885512884798
 20
3969.704834655468
 30
0.0
 40
5.625
100
AcDbArc
 50
270.0
 51
90.0
  0
ARC
  5
2B221
330
2AEDA
100
AcDbEntity
  8
SUNPOU
100
AcDbCircle
 10
9251.504567557743
 20
3741.788054923167
 30
0.0
 40
5.625
100
AcDbArc
 50
0.0
 51
180.0
  0
ARC
  5
2B222
330
2AEDA
100
AcDbEntity
  8
SUNPOU
100
AcDbCircle
 10
9251.504567557743
 20
3741.788054923167
 30
0.0
 40
5.625
100
AcDbArc
 50
180.0
 51
0.0
  0
ARC
  5
2B223
330
2AEDA
100
AcDbEntity
  8
SUNPOU
100
AcDbCircle
 10
9186.504567557742
 20
3741.788054923167
 30
0.0
 40
5.625
100
AcDbArc
 50
180.0
 51
0.0
  0
ARC
  5
2B224
330
2AEDA
100
AcDbEntity
  8
SUNPOU
100
AcDbCircle
 10
9186.504567557742
 20
3741.788054923167
 30
0.0
 40
5.625
100
AcDbArc
 50
0.0
 51
180.0
  0
ARC
  5
2B225
330
2AEDA
100
AcDbEntity
  8
SUNPOU
100
AcDbCircle
 10
8869.004567557743
 20
3270.14663126384
 30
0.0
 40
5.625
100
AcDbArc
 50
0.0
 51
180.0
  0
ARC
  5
2B226
330
2AEDA
100
AcDbEntity
  8
SUNPOU
100
AcDbCircle
 10
8869.004567557743
 20
3270.14663126384
 30
0.0
 40
5.625
100
AcDbArc
 50
180.0
 51
0.0
  0
ARC
  5
2B227
330
2AEDA
100
AcDbEntity
  8
SUNPOU
100
AcDbCircle
 10
9569.004567557742
 20
3270.14663126384
 30
0.0
 40
5.625
100
AcDbArc
 50
180.0
 51
0.0
  0
ARC
  5
2B228
330
2AEDA
100
AcDbEntity
  8
SUNPOU
100
AcDbCircle
 10
9569.004567557742
 20
3270.14663126384
 30
0.0
 40
5.625
100
AcDbArc
 50
0.0
 51
180.0
  0
ARC
  5
2B229
330
2AEDA
100
AcDbEntity
  8
SUNPOU
100
AcDbCircle
 10
9917.828975586536
 20
4282.204834655466
 30
0.0
 40
5.625
100
AcDbArc
 50
270.0
 51
90.0
  0
ARC
  5
2B22A
330
2AEDA
100
AcDbEntity
  8
SUNPOU
100
AcDbCircle
 10
9917.828975586536
 20
4282.204834655466
 30
0.0
 40
5.625
100
AcDbArc
 50
90.0
 51
270.0
  0
ARC
  5
2B22B
330
2AEDA
100
AcDbEntity
  8
SUNPOU
100
AcDbCircle
 10
9917.828975586532
 20
3582.204834655467
 30
0.0
 40
5.625
100
AcDbArc
 50
90.0
 51
270.0
  0
ARC
  5
2B22C
330
2AEDA
100
AcDbEntity
  8
SUNPOU
100
AcDbCircle
 10
9917.828975586532
 20
3582.204834655467
 30
0.0
 40
5.625
100
AcDbArc
 50
270.0
 51
90.0
  0
ARC
  5
2B22D
330
2AEDA
100
AcDbEntity
  8
SUNPOU
100
AcDbCircle
 10
10289.00456755772
 20
2532.204834655467
 30
0.0
 40
5.625
100
AcDbArc
 50
90.0
 51
270.0
  0
ARC
  5
2B22E
330
2AEDA
100
AcDbEntity
  8
SUNPOU
100
AcDbCircle
 10
10289.00456755772
 20
2532.204834655467
 30
0.0
 40
5.625
100
AcDbArc
 50
270.0
 51
90.0
  0
ARC
  5
2B22F
330
2AEDA
100
AcDbEntity
  8
SUNPOU
100
AcDbCircle
 10
10289.00456755772
 20
7392.204834655466
 30
0.0
 40
5.625
100
AcDbArc
 50
270.0
 51
90.0
  0
ARC
  5
2B230
330
2AEDA
100
AcDbEntity
  8
SUNPOU
100
AcDbCircle
 10
10289.00456755772
 20
7392.204834655466
 30
0.0
 40
5.625
100
AcDbArc
 50
90.0
 51
270.0
  0
ARC
  5
2B231
330
2AEDA
100
AcDbEntity
  8
SUNPOU
100
AcDbCircle
 10
10079.00456755772
 20
5992.204834655467
 30
0.0
 40
5.625
100
AcDbArc
 50
90.0
 51
270.0
  0
ARC
  5
2B232
330
2AEDA
100
AcDbEntity
  8
SUNPOU
100
AcDbCircle
 10
10079.00456755772
 20
5992.204834655467
 30
0.0
 40
5.625
100
AcDbArc
 50
270.0
 51
90.0
  0
ARC
  5
2B233
330
2AEDA
100
AcDbEntity
  8
SUNPOU
100
AcDbCircle
 10
10079.00456755772
 20
7392.204834655466
 30
0.0
 40
5.625
100
AcDbArc
 50
270.0
 51
90.0
  0
ARC
  5
2B234
330
2AEDA
100
AcDbEntity
  8
SUNPOU
100
AcDbCircle
 10
10079.00456755772
 20
7392.204834655466
 30
0.0
 40
5.625
100
AcDbArc
 50
90.0
 51
270.0
  0
ARC
  5
2B235
330
2AEDA
100
AcDbEntity
  8
SUNPOU
100
AcDbCircle
 10
10079.00456755772
 20
3932.204834655467
 30
0.0
 40
5.625
100
AcDbArc
 50
270.0
 51
90.0
  0
ARC
  5
2B236
330
2AEDA
100
AcDbEntity
  8
SUNPOU
100
AcDbCircle
 10
10079.00456755772
 20
3932.204834655467
 30
0.0
 40
5.625
100
AcDbArc
 50
90.0
 51
270.0
  0
ARC
  5
2B237
330
2AEDA
100
AcDbEntity
  8
SUNPOU
100
AcDbCircle
 10
10079.00456755772
 20
2532.204834655467
 30
0.0
 40
5.625
100
AcDbArc
 50
90.0
 51
270.0
  0
ARC
  5
2B238
330
2AEDA
100
AcDbEntity
  8
SUNPOU
100
AcDbCircle
 10
10079.00456755772
 20
2532.204834655467
 30
0.0
 40
5.625
100
AcDbArc
 50
270.0
 51
90.0
  0
ARC
  5
2B239
330
2AEDA
100
AcDbEntity
  8
SUNPOU
100
AcDbCircle
 10
10079.00456755772
 20
3932.204834655467
 30
0.0
 40
5.625
100
AcDbArc
 50
90.0
 51
270.0
  0
ARC
  5
2B23A
330
2AEDA
100
AcDbEntity
  8
SUNPOU
100
AcDbCircle
 10
10079.00456755772
 20
3932.204834655467
 30
0.0
 40
5.625
100
AcDbArc
 50
270.0
 51
90.0
  0
ARC
  5
2B23B
330
2AEDA
100
AcDbEntity
  8
SUNPOU
100
AcDbCircle
 10
10079.00456755772
 20
5992.204834655467
 30
0.0
 40
5.625
100
AcDbArc
 50
270.0
 51
90.0
  0
ARC
  5
2B23C
330
2AEDA
100
AcDbEntity
  8
SUNPOU
100
AcDbCircle
 10
10079.00456755772
 20
5992.204834655467
 30
0.0
 40
5.625
100
AcDbArc
 50
90.0
 51
270.0
  0
ARC
  5
2B23D
330
2AEDA
100
AcDbEntity
  8
SUNPOU
100
AcDbCircle
 10
9384.885512884798
 20
5954.704834655466
 30
0.0
 40
5.625
100
AcDbArc
 50
270.0
 51
90.0
  0
ARC
  5
2B23E
330
2AEDA
100
AcDbEntity
  8
SUNPOU
100
AcDbCircle
 10
9384.885512884798
 20
5954.704834655466
 30
0.0
 40
5.625
100
AcDbArc
 50
90.0
 51
270.0
  0
ARC
  5
2B23F
330
2AEDA
100
AcDbEntity
  8
SUNPOU
100
AcDbCircle
 10
9384.885512884798
 20
6029.704834655468
 30
0.0
 40
5.625
100
AcDbArc
 50
90.0
 51
270.0
  0
ARC
  5
2B240
330
2AEDA
100
AcDbEntity
  8
SUNPOU
100
AcDbCircle
 10
9384.885512884798
 20
6029.704834655468
 30
0.0
 40
5.625
100
AcDbArc
 50
270.0
 51
90.0
  0
ARC
  5
2B241
330
2AEDA
100
AcDbEntity
  8
SUNPOU
100
AcDbCircle
 10
9251.504567557743
 20
5801.788054923167
 30
0.0
 40
5.625
100
AcDbArc
 50
0.0
 51
180.0
  0
ARC
  5
2B242
330
2AEDA
100
AcDbEntity
  8
SUNPOU
100
AcDbCircle
 10
9251.504567557743
 20
5801.788054923167
 30
0.0
 40
5.625
100
AcDbArc
 50
180.0
 51
0.0
  0
ARC
  5
2B243
330
2AEDA
100
AcDbEntity
  8
SUNPOU
100
AcDbCircle
 10
9186.504567557742
 20
5801.788054923167
 30
0.0
 40
5.625
100
AcDbArc
 50
180.0
 51
0.0
  0
ARC
  5
2B244
330
2AEDA
100
AcDbEntity
  8
SUNPOU
100
AcDbCircle
 10
9186.504567557742
 20
5801.788054923167
 30
0.0
 40
5.625
100
AcDbArc
 50
0.0
 51
180.0
  0
ARC
  5
2B245
330
2AEDA
100
AcDbEntity
  8
SUNPOU
100
AcDbCircle
 10
8869.004567557743
 20
5330.14663126384
 30
0.0
 40
5.625
100
AcDbArc
 50
0.0
 51
180.0
  0
ARC
  5
2B246
330
2AEDA
100
AcDbEntity
  8
SUNPOU
100
AcDbCircle
 10
8869.004567557743
 20
5330.14663126384
 30
0.0
 40
5.625
100
AcDbArc
 50
180.0
 51
0.0
  0
ARC
  5
2B247
330
2AEDA
100
AcDbEntity
  8
SUNPOU
100
AcDbCircle
 10
9569.004567557742
 20
5330.14663126384
 30
0.0
 40
5.625
100
AcDbArc
 50
180.0
 51
0.0
  0
ARC
  5
2B248
330
2AEDA
100
AcDbEntity
  8
SUNPOU
100
AcDbCircle
 10
9569.004567557742
 20
5330.14663126384
 30
0.0
 40
5.625
100
AcDbArc
 50
0.0
 51
180.0
  0
ARC
  5
2B249
330
2AEDA
100
AcDbEntity
  8
SUNPOU
100
AcDbCircle
 10
9917.828975586532
 20
6342.204834655468
 30
0.0
 40
5.625
100
AcDbArc
 50
270.0
 51
90.0
  0
ARC
  5
2B24A
330
2AEDA
100
AcDbEntity
  8
SUNPOU
100
AcDbCircle
 10
9917.828975586532
 20
6342.204834655468
 30
0.0
 40
5.625
100
AcDbArc
 50
90.0
 51
270.0
  0
ARC
  5
2B24B
330
2AEDA
100
AcDbEntity
  8
SUNPOU
100
AcDbCircle
 10
9917.828975586532
 20
5642.204834655466
 30
0.0
 40
5.625
100
AcDbArc
 50
90.0
 51
270.0
  0
ARC
  5
2B24C
330
2AEDA
100
AcDbEntity
  8
SUNPOU
100
AcDbCircle
 10
9917.828975586532
 20
5642.204834655466
 30
0.0
 40
5.625
100
AcDbArc
 50
270.0
 51
90.0
  0
ARC
  5
2B24D
330
2AEDA
100
AcDbEntity
  8
SUNPOU
100
AcDbCircle
 10
9219.004567557743
 20
2132.204834655467
 30
0.0
 40
5.625
100
AcDbArc
 50
0.0
 51
180.0
  0
ARC
  5
2B24E
330
2AEDA
100
AcDbEntity
  8
SUNPOU
100
AcDbCircle
 10
9219.004567557743
 20
2132.204834655467
 30
0.0
 40
5.625
100
AcDbArc
 50
180.0
 51
0.0
  0
ARC
  5
2B24F
330
2AEDA
100
AcDbEntity
  8
SUNPOU
100
AcDbCircle
 10
9569.004567557742
 20
2132.204834655467
 30
0.0
 40
5.625
100
AcDbArc
 50
180.0
 51
0.0
  0
ARC
  5
2B250
330
2AEDA
100
AcDbEntity
  8
SUNPOU
100
AcDbCircle
 10
9569.004567557742
 20
2132.204834655467
 30
0.0
 40
5.625
100
AcDbArc
 50
0.0
 51
180.0
  0
ARC
  5
2B251
330
2AEDA
100
AcDbEntity
  8
SUNPOU
100
AcDbCircle
 10
6419.004567557741
 20
1922.204834655465
 30
0.0
 40
5.625
100
AcDbArc
 50
0.0
 51
180.0
  0
ARC
  5
2B252
330
2AEDA
100
AcDbEntity
  8
SUNPOU
100
AcDbCircle
 10
6419.004567557741
 20
1922.204834655465
 30
0.0
 40
5.625
100
AcDbArc
 50
180.0
 51
0.0
  0
ARC
  5
2B253
330
2AEDA
100
AcDbEntity
  8
SUNPOU
100
AcDbCircle
 10
9569.004567557742
 20
1922.204834655465
 30
0.0
 40
5.625
100
AcDbArc
 50
180.0
 51
0.0
  0
ARC
  5
2B254
330
2AEDA
100
AcDbEntity
  8
SUNPOU
100
AcDbCircle
 10
9569.004567557742
 20
1922.204834655465
 30
0.0
 40
5.625
100
AcDbArc
 50
0.0
 51
180.0
  0
ARC
  5
2B255
330
2AEDA
100
AcDbEntity
  8
SUNPOU
100
AcDbCircle
 10
4582.701129534438
 20
4701.619741444836
 30
0.0
 40
5.625
100
AcDbArc
 50
270.0
 51
90.0
  0
ARC
  5
2B256
330
2AEDA
100
AcDbEntity
  8
SUNPOU
100
AcDbCircle
 10
4582.701129534438
 20
4701.619741444836
 30
0.0
 40
5.625
100
AcDbArc
 50
90.0
 51
270.0
  0
ARC
  5
2B257
330
2AEDA
100
AcDbEntity
  8
SUNPOU
100
AcDbCircle
 10
4582.701129534438
 20
4551.619741444837
 30
0.0
 40
5.625
100
AcDbArc
 50
90.0
 51
270.0
  0
ARC
  5
2B258
330
2AEDA
100
AcDbEntity
  8
SUNPOU
100
AcDbCircle
 10
4582.701129534438
 20
4551.619741444837
 30
0.0
 40
5.625
100
AcDbArc
 50
270.0
 51
90.0
  0
ARC
  5
2B259
330
2AEDA
100
AcDbEntity
  8
SUNPOU
100
AcDbCircle
 10
4582.701129534438
 20
5451.619741444837
 30
0.0
 40
5.625
100
AcDbArc
 50
270.0
 51
90.0
  0
ARC
  5
2B25A
330
2AEDA
100
AcDbEntity
  8
SUNPOU
100
AcDbCircle
 10
4582.701129534438
 20
5451.619741444837
 30
0.0
 40
5.625
100
AcDbArc
 50
90.0
 51
270.0
  0
ARC
  5
2B25B
330
2AEDA
100
AcDbEntity
  8
SUNPOU
100
AcDbCircle
 10
4582.701129534438
 20
4701.619741444839
 30
0.0
 40
5.625
100
AcDbArc
 50
90.0
 51
270.0
  0
ARC
  5
2B25C
330
2AEDA
100
AcDbEntity
  8
SUNPOU
100
AcDbCircle
 10
4582.701129534438
 20
4701.619741444839
 30
0.0
 40
5.625
100
AcDbArc
 50
270.0
 51
90.0
  0
ARC
  5
2B25D
330
2AEDA
100
AcDbEntity
  8
SUNPOU
100
AcDbCircle
 10
1945.201129534436
 20
4221.619741444835
 30
0.0
 40
5.625
100
AcDbArc
 50
0.0
 51
180.0
  0
ARC
  5
2B25E
330
2AEDA
100
AcDbEntity
  8
SUNPOU
100
AcDbCircle
 10
1945.201129534436
 20
4221.619741444835
 30
0.0
 40
5.625
100
AcDbArc
 50
180.0
 51
0.0
  0
ARC
  5
2B25F
330
2AEDA
100
AcDbEntity
  8
SUNPOU
100
AcDbCircle
 10
2995.201129534437
 20
4221.619741444835
 30
0.0
 40
5.625
100
AcDbArc
 50
180.0
 51
0.0
  0
ARC
  5
2B260
330
2AEDA
100
AcDbEntity
  8
SUNPOU
100
AcDbCircle
 10
2995.201129534437
 20
4221.619741444835
 30
0.0
 40
5.625
100
AcDbArc
 50
0.0
 51
180.0
  0
ARC
  5
2B261
330
2AEDA
100
AcDbEntity
  8
SUNPOU
100
AcDbCircle
 10
1795.201129534437
 20
4011.619741444837
 30
0.0
 40
5.625
100
AcDbArc
 50
0.0
 51
180.0
  0
ARC
  5
2B262
330
2AEDA
100
AcDbEntity
  8
SUNPOU
100
AcDbCircle
 10
1795.201129534437
 20
4011.619741444837
 30
0.0
 40
5.625
100
AcDbArc
 50
180.0
 51
0.0
  0
ARC
  5
2B263
330
2AEDA
100
AcDbEntity
  8
SUNPOU
100
AcDbCircle
 10
3145.201129534437
 20
4011.619741444837
 30
0.0
 40
5.625
100
AcDbArc
 50
180.0
 51
0.0
  0
ARC
  5
2B264
330
2AEDA
100
AcDbEntity
  8
SUNPOU
100
AcDbCircle
 10
3145.201129534437
 20
4011.619741444837
 30
0.0
 40
5.625
100
AcDbArc
 50
0.0
 51
180.0
  0
CIRCLE
  5
2B265
330
2AEDA
100
AcDbEntity
  8
HIKIDASHI
100
AcDbCircle
 10
2470.201129534439
 20
4791.619741444836
 30
0.0
 40
9.0
  0
CIRCLE
  5
2B266
330
2AEDA
100
AcDbEntity
  8
HIKIDASHI
100
AcDbCircle
 10
2470.201129534439
 20
4731.619741444836
 30
0.0
 40
9.0
  0
ARC
  5
2B267
330
2AEDA
100
AcDbEntity
  8
HIKIDASHI
100
AcDbCircle
 10
2470.201129534439
 20
4731.619741444836
 30
0.0
 40
4.5
100
AcDbArc
 50
180.0
 51
0.0
  0
ARC
  5
2B268
330
2AEDA
100
AcDbEntity
  8
HIKIDASHI
100
AcDbCircle
 10
2470.201129534439
 20
4731.619741444836
 30
0.0
 40
4.5
100
AcDbArc
 50
0.0
 51
180.0
  0
ARC
  5
2B269
330
2AEDA
100
AcDbEntity
  8
HIKIDASHI
100
AcDbCircle
 10
2470.201129534439
 20
4791.619741444836
 30
0.0
 40
4.5
100
AcDbArc
 50
180.0
 51
0.0
  0
ARC
  5
2B26A
330
2AEDA
100
AcDbEntity
  8
HIKIDASHI
100
AcDbCircle
 10
2470.201129534439
 20
4791.619741444836
 30
0.0
 40
4.5
100
AcDbArc
 50
0.0
 51
180.0
  0
LINE
  5
2B26B
330
2AEDA
100
AcDbEntity
  8
HATCH
100
AcDbLine
 10
1864.399859345224
 20
4551.619741444834
 30
0.0
 11
1951.002399723654
 21
4701.61974144481
 31
0.0
  0
LINE
  5
2B26C
330
2AEDA
100
AcDbEntity
  8
HATCH
100
AcDbLine
 10
1891.002399723664
 20
4701.619741444807
 30
0.0
 11
1921.002399723659
 21
4649.658217217754
 31
0.0
  0
LINE
  5
2B26D
330
2AEDA
100
AcDbEntity
  8
HATCH
100
AcDbLine
 10
1894.399859345218
 20
4603.581265671891
 30
0.0
 11
1924.399859345214
 21
4551.619741444834
 31
0.0
  0
LINE
  5
2B26E
330
2AEDA
100
AcDbEntity
  8
HATCH
100
AcDbLine
 10
2051.899859345223
 20
4551.619741444834
 30
0.0
 11
2138.502399723654
 21
4701.61974144481
 31
0.0
  0
LINE
  5
2B26F
330
2AEDA
100
AcDbEntity
  8
HATCH
100
AcDbLine
 10
2078.502399723663
 20
4701.619741444807
 30
0.0
 11
2108.502399723658
 21
4649.658217217754
 31
0.0
  0
LINE
  5
2B270
330
2AEDA
100
AcDbEntity
  8
HATCH
100
AcDbLine
 10
2081.899859345217
 20
4603.581265671891
 30
0.0
 11
2111.899859345212
 21
4551.619741444834
 31
0.0
  0
LINE
  5
2B271
330
2AEDA
100
AcDbEntity
  8
HATCH
100
AcDbLine
 10
2989.399859345227
 20
4551.619741444834
 30
0.0
 11
3076.002399723657
 21
4701.619741444812
 31
0.0
  0
LINE
  5
2B272
330
2AEDA
100
AcDbEntity
  8
HATCH
100
AcDbLine
 10
3016.002399723666
 20
4701.61974144481
 30
0.0
 11
3046.002399723662
 21
4649.658217217757
 31
0.0
  0
LINE
  5
2B273
330
2AEDA
100
AcDbEntity
  8
HATCH
100
AcDbLine
 10
3019.399859345222
 20
4603.581265671895
 30
0.0
 11
3049.399859345217
 21
4551.619741444834
 31
0.0
  0
LINE
  5
2B274
330
2AEDA
100
AcDbEntity
  8
HATCH
100
AcDbLine
 10
2801.899859345225
 20
4551.619741444834
 30
0.0
 11
2888.502399723655
 21
4701.619741444812
 31
0.0
  0
LINE
  5
2B275
330
2AEDA
100
AcDbEntity
  8
HATCH
100
AcDbLine
 10
2828.502399723666
 20
4701.61974144481
 30
0.0
 11
2858.50239972366
 21
4649.658217217757
 31
0.0
  0
LINE
  5
2B276
330
2AEDA
100
AcDbEntity
  8
HATCH
100
AcDbLine
 10
2831.899859345221
 20
4603.581265671895
 30
0.0
 11
2861.899859345216
 21
4551.619741444834
 31
0.0
  0
LINE
  5
2B277
330
2AEDA
100
AcDbEntity
  8
HATCH
100
AcDbLine
 10
2426.899859345224
 20
4551.619741444834
 30
0.0
 11
2513.502399723654
 21
4701.619741444812
 31
0.0
  0
LINE
  5
2B278
330
2AEDA
100
AcDbEntity
  8
HATCH
100
AcDbLine
 10
2453.502399723664
 20
4701.61974144481
 30
0.0
 11
2483.502399723659
 21
4649.658217217757
 31
0.0
  0
LINE
  5
2B279
330
2AEDA
100
AcDbEntity
  8
HATCH
100
AcDbLine
 10
2456.899859345219
 20
4603.581265671895
 30
0.0
 11
2486.899859345215
 21
4551.619741444834
 31
0.0
  0
LINE
  5
2B27A
330
2AEDA
100
AcDbEntity
  8
HATCH
100
AcDbLine
 10
2239.399859345223
 20
4551.619741444834
 30
0.0
 11
2326.002399723654
 21
4701.619741444812
 31
0.0
  0
LINE
  5
2B27B
330
2AEDA
100
AcDbEntity
  8
HATCH
100
AcDbLine
 10
2266.002399723663
 20
4701.61974144481
 30
0.0
 11
2296.002399723658
 21
4649.658217217757
 31
0.0
  0
LINE
  5
2B27C
330
2AEDA
100
AcDbEntity
  8
HATCH
100
AcDbLine
 10
2269.399859345217
 20
4603.581265671895
 30
0.0
 11
2299.399859345212
 21
4551.619741444834
 31
0.0
  0
LINE
  5
2B27D
330
2AEDA
100
AcDbEntity
  8
HATCH
100
AcDbLine
 10
2614.399859345224
 20
4551.619741444834
 30
0.0
 11
2701.002399723655
 21
4701.619741444812
 31
0.0
  0
LINE
  5
2B27E
330
2AEDA
100
AcDbEntity
  8
HATCH
100
AcDbLine
 10
2641.002399723665
 20
4701.61974144481
 30
0.0
 11
2671.00239972366
 21
4649.658217217757
 31
0.0
  0
LINE
  5
2B27F
330
2AEDA
100
AcDbEntity
  8
HATCH
100
AcDbLine
 10
2644.39985934522
 20
4603.581265671895
 30
0.0
 11
2674.399859345215
 21
4551.619741444834
 31
0.0
  0
LINE
  5
2B280
330
2AEDA
100
AcDbEntity
  8
HATCH
100
AcDbLine
 10
4330.739605307488
 20
5226.61974144484
 30
0.0
 11
4382.701129534599
 21
5316.619741444917
 31
0.0
  0
LINE
  5
2B281
330
2AEDA
100
AcDbEntity
  8
HATCH
100
AcDbLine
 10
4346.701129534568
 20
5316.619741444917
 30
0.0
 11
4364.701129534584
 21
5285.442826908652
 31
0.0
  0
LINE
  5
2B282
330
2AEDA
100
AcDbEntity
  8
HATCH
100
AcDbLine
 10
4348.739605307501
 20
5257.796655981106
 30
0.0
 11
4366.739605307519
 21
5226.61974144484
 31
0.0
  0
LINE
  5
2B283
330
2AEDA
100
AcDbEntity
  8
HATCH
100
AcDbLine
 10
4195.739605307484
 20
5226.61974144484
 30
0.0
 11
4247.701129534594
 21
5316.619741444917
 31
0.0
  0
LINE
  5
2B284
330
2AEDA
100
AcDbEntity
  8
HATCH
100
AcDbLine
 10
4211.701129534564
 20
5316.619741444917
 30
0.0
 11
4229.70112953458
 21
5285.442826908652
 31
0.0
  0
LINE
  5
2B285
330
2AEDA
100
AcDbEntity
  8
HATCH
100
AcDbLine
 10
4213.739605307499
 20
5257.796655981106
 30
0.0
 11
4231.739605307516
 21
5226.61974144484
 31
0.0
  0
LINE
  5
2B286
330
2AEDA
100
AcDbEntity
  8
HATCH
100
AcDbLine
 10
4060.739605307488
 20
5226.61974144484
 30
0.0
 11
4112.701129534599
 21
5316.619741444917
 31
0.0
  0
LINE
  5
2B287
330
2AEDA
100
AcDbEntity
  8
HATCH
100
AcDbLine
 10
4076.701129534568
 20
5316.619741444917
 30
0.0
 11
4094.701129534583
 21
5285.442826908652
 31
0.0
  0
LINE
  5
2B288
330
2AEDA
100
AcDbEntity
  8
HATCH
100
AcDbLine
 10
4078.739605307503
 20
5257.796655981106
 30
0.0
 11
4096.739605307519
 21
5226.61974144484
 31
0.0
  0
LINE
  5
2B289
330
2AEDA
100
AcDbEntity
  8
HATCH
100
AcDbLine
 10
3925.739605307487
 20
5226.619741444838
 30
0.0
 11
3977.701129534599
 21
5316.619741444915
 31
0.0
  0
LINE
  5
2B28A
330
2AEDA
100
AcDbEntity
  8
HATCH
100
AcDbLine
 10
3941.701129534568
 20
5316.619741444914
 30
0.0
 11
3959.701129534583
 21
5285.44282690865
 31
0.0
  0
LINE
  5
2B28B
330
2AEDA
100
AcDbEntity
  8
HATCH
100
AcDbLine
 10
3943.739605307504
 20
5257.796655981106
 30
0.0
 11
3961.739605307519
 21
5226.619741444838
 31
0.0
  0
LINE
  5
2B28C
330
2AEDA
100
AcDbEntity
  8
HATCH
100
AcDbLine
 10
3655.739605307487
 20
5226.619741444838
 30
0.0
 11
3707.701129534599
 21
5316.619741444915
 31
0.0
  0
LINE
  5
2B28D
330
2AEDA
100
AcDbEntity
  8
HATCH
100
AcDbLine
 10
3671.701129534568
 20
5316.619741444914
 30
0.0
 11
3689.701129534583
 21
5285.44282690865
 31
0.0
  0
LINE
  5
2B28E
330
2AEDA
100
AcDbEntity
  8
HATCH
100
AcDbLine
 10
3673.739605307503
 20
5257.796655981106
 30
0.0
 11
3691.739605307519
 21
5226.619741444838
 31
0.0
  0
LINE
  5
2B28F
330
2AEDA
100
AcDbEntity
  8
HATCH
100
AcDbLine
 10
3385.739605307488
 20
5226.619741444838
 30
0.0
 11
3437.701129534599
 21
5316.619741444915
 31
0.0
  0
LINE
  5
2B290
330
2AEDA
100
AcDbEntity
  8
HATCH
100
AcDbLine
 10
3401.701129534568
 20
5316.619741444914
 30
0.0
 11
3419.701129534583
 21
5285.44282690865
 31
0.0
  0
LINE
  5
2B291
330
2AEDA
100
AcDbEntity
  8
HATCH
100
AcDbLine
 10
3403.739605307503
 20
5257.796655981106
 30
0.0
 11
3421.739605307517
 21
5226.619741444838
 31
0.0
  0
LINE
  5
2B292
330
2AEDA
100
AcDbEntity
  8
HATCH
100
AcDbLine
 10
3520.739605307488
 20
5226.61974144484
 30
0.0
 11
3572.701129534599
 21
5316.619741444917
 31
0.0
  0
LINE
  5
2B293
330
2AEDA
100
AcDbEntity
  8
HATCH
100
AcDbLine
 10
3536.701129534567
 20
5316.619741444917
 30
0.0
 11
3554.701129534584
 21
5285.442826908652
 31
0.0
  0
LINE
  5
2B294
330
2AEDA
100
AcDbEntity
  8
HATCH
100
AcDbLine
 10
3538.739605307503
 20
5257.796655981106
 30
0.0
 11
3556.739605307519
 21
5226.61974144484
 31
0.0
  0
LINE
  5
2B295
330
2AEDA
100
AcDbEntity
  8
HATCH
100
AcDbLine
 10
3115.739605307487
 20
5226.619741444838
 30
0.0
 11
3167.701129534599
 21
5316.619741444915
 31
0.0
  0
LINE
  5
2B296
330
2AEDA
100
AcDbEntity
  8
HATCH
100
AcDbLine
 10
3131.701129534568
 20
5316.619741444914
 30
0.0
 11
3149.701129534583
 21
5285.44282690865
 31
0.0
  0
LINE
  5
2B297
330
2AEDA
100
AcDbEntity
  8
HATCH
100
AcDbLine
 10
3133.739605307503
 20
5257.796655981106
 30
0.0
 11
3151.739605307519
 21
5226.619741444838
 31
0.0
  0
LINE
  5
2B298
330
2AEDA
100
AcDbEntity
  8
HATCH
100
AcDbLine
 10
2995.201129534554
 20
5226.619741444838
 30
0.0
 11
3047.162653761665
 21
5316.619741444915
 31
0.0
  0
LINE
  5
2B299
330
2AEDA
100
AcDbEntity
  8
HATCH
100
AcDbLine
 10
3011.162653761635
 20
5316.619741444914
 30
0.0
 11
3029.16265376165
 21
5285.44282690865
 31
0.0
  0
LINE
  5
2B29A
330
2AEDA
100
AcDbEntity
  8
HATCH
100
AcDbLine
 10
3013.20112953457
 20
5257.796655981106
 30
0.0
 11
3031.201129534585
 21
5226.619741444838
 31
0.0
  0
LINE
  5
2B29B
330
2AEDA
100
AcDbEntity
  8
HATCH
100
AcDbLine
 10
3250.739605307487
 20
5226.619741444838
 30
0.0
 11
3302.701129534599
 21
5316.619741444915
 31
0.0
  0
LINE
  5
2B29C
330
2AEDA
100
AcDbEntity
  8
HATCH
100
AcDbLine
 10
3266.701129534568
 20
5316.619741444914
 30
0.0
 11
3284.701129534584
 21
5285.44282690865
 31
0.0
  0
LINE
  5
2B29D
330
2AEDA
100
AcDbEntity
  8
HATCH
100
AcDbLine
 10
3268.739605307505
 20
5257.796655981106
 30
0.0
 11
3286.739605307519
 21
5226.619741444838
 31
0.0
  0
LINE
  5
2B29E
330
2AEDA
100
AcDbEntity
  8
HATCH
100
AcDbLine
 10
1877.70112953455
 20
5226.619741444834
 30
0.0
 11
1929.662653761661
 21
5316.619741444911
 31
0.0
  0
LINE
  5
2B29F
330
2AEDA
100
AcDbEntity
  8
HATCH
100
AcDbLine
 10
1893.66265376163
 20
5316.619741444911
 30
0.0
 11
1911.662653761646
 21
5285.442826908647
 31
0.0
  0
LINE
  5
2B2A0
330
2AEDA
100
AcDbEntity
  8
HATCH
100
AcDbLine
 10
1895.701129534566
 20
5257.796655981103
 30
0.0
 11
1913.701129534581
 21
5226.619741444834
 31
0.0
  0
LINE
  5
2B2A1
330
2AEDA
100
AcDbEntity
  8
HATCH
100
AcDbLine
 10
3790.739605307487
 20
5226.61974144484
 30
0.0
 11
3842.701129534599
 21
5316.619741444917
 31
0.0
  0
LINE
  5
2B2A2
330
2AEDA
100
AcDbEntity
  8
HATCH
100
AcDbLine
 10
3806.701129534568
 20
5316.619741444917
 30
0.0
 11
3824.701129534583
 21
5285.442826908652
 31
0.0
  0
LINE
  5
2B2A3
330
2AEDA
100
AcDbEntity
  8
HATCH
100
AcDbLine
 10
3808.739605307503
 20
5257.796655981106
 30
0.0
 11
3826.739605307519
 21
5226.61974144484
 31
0.0
  0
LINE
  5
2B2A4
330
2AEDA
100
AcDbEntity
  8
HATCH
100
AcDbLine
 10
1742.701129534549
 20
5226.619741444834
 30
0.0
 11
1794.662653761661
 21
5316.619741444911
 31
0.0
  0
LINE
  5
2B2A5
330
2AEDA
100
AcDbEntity
  8
HATCH
100
AcDbLine
 10
1758.66265376163
 20
5316.619741444911
 30
0.0
 11
1776.662653761646
 21
5285.442826908647
 31
0.0
  0
LINE
  5
2B2A6
330
2AEDA
100
AcDbEntity
  8
HATCH
100
AcDbLine
 10
1760.701129534566
 20
5257.796655981103
 30
0.0
 11
1778.701129534582
 21
5226.619741444834
 31
0.0
  0
LINE
  5
2B2A7
330
2AEDA
100
AcDbEntity
  8
HATCH
100
AcDbLine
 10
1607.701129534549
 20
5226.619741444834
 30
0.0
 11
1659.662653761661
 21
5316.619741444911
 31
0.0
  0
LINE
  5
2B2A8
330
2AEDA
100
AcDbEntity
  8
HATCH
100
AcDbLine
 10
1623.66265376163
 20
5316.619741444911
 30
0.0
 11
1641.662653761646
 21
5285.442826908647
 31
0.0
  0
LINE
  5
2B2A9
330
2AEDA
100
AcDbEntity
  8
HATCH
100
AcDbLine
 10
1625.701129534566
 20
5257.796655981103
 30
0.0
 11
1643.701129534581
 21
5226.619741444834
 31
0.0
  0
LINE
  5
2B2AA
330
2AEDA
100
AcDbEntity
  8
HASHIRA
  6
Continuous
100
AcDbLine
 10
6801.504567557739
 20
5954.704834655466
 30
0.0
 11
6736.504567557741
 21
5954.704834655466
 31
0.0
  0
LINE
  5
2B2AB
330
2AEDA
100
AcDbEntity
  8
HASHIRA
  6
Continuous
100
AcDbLine
 10
6736.504567557741
 20
5954.704834655466
 30
0.0
 11
6736.504567557741
 21
6029.704834655468
 31
0.0
  0
LINE
  5
2B2AC
330
2AEDA
100
AcDbEntity
  8
HASHIRA
  6
Continuous
100
AcDbLine
 10
6736.504567557741
 20
6029.704834655468
 30
0.0
 11
6801.504567557739
 21
6029.704834655468
 31
0.0
  0
LINE
  5
2B2AD
330
2AEDA
100
AcDbEntity
  8
HASHIRA
  6
Continuous
100
AcDbLine
 10
6801.504567557739
 20
6029.704834655468
 30
0.0
 11
6801.504567557739
 21
5954.704834655466
 31
0.0
  0
LINE
  5
2B2AE
330
2AEDA
100
AcDbEntity
  8
U2
100
AcDbLine
 10
6419.004567557741
 20
5642.204834655466
 30
0.0
 11
7119.004567557741
 21
5642.204834655466
 31
0.0
  0
LINE
  5
2B2AF
330
2AEDA
100
AcDbEntity
  8
U2
100
AcDbLine
 10
7119.004567557741
 20
5642.204834655466
 30
0.0
 11
7119.004567557741
 21
6342.204834655468
 31
0.0
  0
LINE
  5
2B2B0
330
2AEDA
100
AcDbEntity
  8
U2
100
AcDbLine
 10
7119.004567557741
 20
6342.204834655468
 30
0.0
 11
6419.004567557741
 21
6342.204834655468
 31
0.0
  0
LINE
  5
2B2B1
330
2AEDA
100
AcDbEntity
  8
U2
100
AcDbLine
 10
6419.004567557741
 20
6342.204834655468
 30
0.0
 11
6419.004567557741
 21
5642.204834655466
 31
0.0
  0
LINE
  5
2B2B2
330
2AEDA
100
AcDbEntity
  8
HASHIRA
  6
Continuous
100
AcDbLine
 10
6801.504567557739
 20
3894.704834655467
 30
0.0
 11
6736.504567557741
 21
3894.704834655467
 31
0.0
  0
LINE
  5
2B2B3
330
2AEDA
100
AcDbEntity
  8
HASHIRA
  6
Continuous
100
AcDbLine
 10
6736.504567557741
 20
3894.704834655467
 30
0.0
 11
6736.504567557741
 21
3969.704834655468
 31
0.0
  0
LINE
  5
2B2B4
330
2AEDA
100
AcDbEntity
  8
HASHIRA
  6
Continuous
100
AcDbLine
 10
6736.504567557741
 20
3969.704834655468
 30
0.0
 11
6801.504567557739
 21
3969.704834655468
 31
0.0
  0
LINE
  5
2B2B5
330
2AEDA
100
AcDbEntity
  8
HASHIRA
  6
Continuous
100
AcDbLine
 10
6801.504567557739
 20
3969.704834655468
 30
0.0
 11
6801.504567557739
 21
3894.704834655467
 31
0.0
  0
LINE
  5
2B2B6
330
2AEDA
100
AcDbEntity
  8
U2
100
AcDbLine
 10
6419.004567557741
 20
3582.204834655467
 30
0.0
 11
7119.004567557741
 21
3582.204834655467
 31
0.0
  0
LINE
  5
2B2B7
330
2AEDA
100
AcDbEntity
  8
U2
100
AcDbLine
 10
7119.004567557741
 20
3582.204834655467
 30
0.0
 11
7119.004567557741
 21
4282.204834655466
 31
0.0
  0
LINE
  5
2B2B8
330
2AEDA
100
AcDbEntity
  8
U2
100
AcDbLine
 10
7119.004567557741
 20
4282.204834655466
 30
0.0
 11
6419.004567557741
 21
4282.204834655466
 31
0.0
  0
LINE
  5
2B2B9
330
2AEDA
100
AcDbEntity
  8
U2
100
AcDbLine
 10
6419.004567557741
 20
4282.204834655466
 30
0.0
 11
6419.004567557741
 21
3582.204834655467
 31
0.0
  0
LINE
  5
2B2BA
330
2AEDA
100
AcDbEntity
  8
HASHIRA
  6
Continuous
100
AcDbLine
 10
9251.504567557743
 20
5954.704834655466
 30
0.0
 11
9186.504567557742
 21
5954.704834655466
 31
0.0
  0
LINE
  5
2B2BB
330
2AEDA
100
AcDbEntity
  8
HASHIRA
  6
Continuous
100
AcDbLine
 10
9186.504567557742
 20
5954.704834655466
 30
0.0
 11
9186.504567557742
 21
6029.704834655468
 31
0.0
  0
LINE
  5
2B2BC
330
2AEDA
100
AcDbEntity
  8
HASHIRA
  6
Continuous
100
AcDbLine
 10
9186.504567557742
 20
6029.704834655468
 30
0.0
 11
9251.504567557743
 21
6029.704834655468
 31
0.0
  0
LINE
  5
2B2BD
330
2AEDA
100
AcDbEntity
  8
HASHIRA
  6
Continuous
100
AcDbLine
 10
9251.504567557743
 20
6029.704834655468
 30
0.0
 11
9251.504567557743
 21
5954.704834655466
 31
0.0
  0
LINE
  5
2B2BE
330
2AEDA
100
AcDbEntity
  8
U2
100
AcDbLine
 10
8869.004567557743
 20
5642.204834655466
 30
0.0
 11
9569.004567557742
 21
5642.204834655466
 31
0.0
  0
LINE
  5
2B2BF
330
2AEDA
100
AcDbEntity
  8
U2
100
AcDbLine
 10
9569.004567557742
 20
5642.204834655466
 30
0.0
 11
9569.004567557742
 21
6342.204834655468
 31
0.0
  0
LINE
  5
2B2C0
330
2AEDA
100
AcDbEntity
  8
U2
100
AcDbLine
 10
9569.004567557742
 20
6342.204834655468
 30
0.0
 11
8869.004567557743
 21
6342.204834655468
 31
0.0
  0
LINE
  5
2B2C1
330
2AEDA
100
AcDbEntity
  8
U2
100
AcDbLine
 10
8869.004567557743
 20
6342.204834655468
 30
0.0
 11
8869.004567557743
 21
5642.204834655466
 31
0.0
  0
LINE
  5
2B2C2
330
2AEDA
100
AcDbEntity
  8
HASHIRA
  6
Continuous
100
AcDbLine
 10
9251.504567557743
 20
3894.704834655467
 30
0.0
 11
9186.504567557742
 21
3894.704834655467
 31
0.0
  0
LINE
  5
2B2C3
330
2AEDA
100
AcDbEntity
  8
HASHIRA
  6
Continuous
100
AcDbLine
 10
9186.504567557742
 20
3894.704834655467
 30
0.0
 11
9186.504567557742
 21
3969.704834655468
 31
0.0
  0
LINE
  5
2B2C4
330
2AEDA
100
AcDbEntity
  8
HASHIRA
  6
Continuous
100
AcDbLine
 10
9186.504567557742
 20
3969.704834655468
 30
0.0
 11
9251.504567557743
 21
3969.704834655468
 31
0.0
  0
LINE
  5
2B2C5
330
2AEDA
100
AcDbEntity
  8
HASHIRA
  6
Continuous
100
AcDbLine
 10
9251.504567557743
 20
3969.704834655468
 30
0.0
 11
9251.504567557743
 21
3894.704834655467
 31
0.0
  0
LINE
  5
2B2C6
330
2AEDA
100
AcDbEntity
  8
U2
100
AcDbLine
 10
8869.004567557743
 20
3582.204834655467
 30
0.0
 11
9569.004567557742
 21
3582.204834655467
 31
0.0
  0
LINE
  5
2B2C7
330
2AEDA
100
AcDbEntity
  8
U2
100
AcDbLine
 10
9569.004567557742
 20
3582.204834655467
 30
0.0
 11
9569.004567557742
 21
4282.204834655466
 31
0.0
  0
LINE
  5
2B2C8
330
2AEDA
100
AcDbEntity
  8
U2
100
AcDbLine
 10
9569.004567557742
 20
4282.204834655466
 30
0.0
 11
8869.004567557743
 21
4282.204834655466
 31
0.0
  0
LINE
  5
2B2C9
330
2AEDA
100
AcDbEntity
  8
U2
100
AcDbLine
 10
8869.004567557743
 20
4282.204834655466
 30
0.0
 11
8869.004567557743
 21
3582.204834655467
 31
0.0
  0
TEXT
  5
2B2EB
330
2AEDA
100
AcDbEntity
  8
SUNPOU
100
AcDbText
 10
1490.517151140596
 20
2529.347638676428
 30
0.0
 40
90.0
  1
<下記条件での参考図>
  7
01
 72
     4
 11
2079.374293997739
 21
2574.347638676428
 31
0.0
100
AcDbText
  0
TEXT
  5
2B2EC
330
2AEDA
100
AcDbEntity
  8
SUNPOU
100
AcDbText
 10
1548.870124592633
 20
2771.009190792412
 30
0.0
 40
120.0
  1
基礎断面図
  7
01
 72
     4
 11
1888.870124592633
 21
2831.009190792412
 31
0.0
100
AcDbText
  0
ARC
  5
2B2ED
330
2AEDA
100
AcDbEntity
  8
SUNPOU
100
AcDbCircle
 10
1774.039053764027
 20
2303.881059672305
 30
0.0
 40
225.0
100
AcDbArc
 50
148.3472725282829
 51
211.652727471717
  0
TEXT
  5
2B2EE
330
2AEDA
100
AcDbEntity
  8
SUNPOU
100
AcDbText
 10
1723.861257659321
 20
1687.983693988809
 30
0.0
 40
90.0
  1
2
 41
0.6700000000000001
  7
01
100
AcDbText
  0
TEXT
  5
2B2EF
330
2AEDA
100
AcDbEntity
  8
SUNPOU
100
AcDbText
 10
1613.227337446582
 20
1687.983693988809
 30
0.0
 40
90.0
  1
注　）
  7
01
100
AcDbText
  0
TEXT
  5
2B2F0
330
2AEDA
100
AcDbEntity
  8
SUNPOU
100
AcDbText
 10
1930.067002748717
 20
1687.983693988809
 30
0.0
 40
90.0
  1
その他現地の実情にあわせて設計して下さい。
  7
01
100
AcDbText
  0
TEXT
  5
2B2F1
330
2AEDA
100
AcDbEntity
  8
SUNPOU
100
AcDbText
 10
1930.067002748717
 20
1996.555122560238
 30
0.0
 40
90.0
  1
寒冷地の場合、凍結深度等を考慮し、実情に
  7
01
100
AcDbText
  0
TEXT
  5
2B2F2
330
2AEDA
100
AcDbEntity
  8
SUNPOU
100
AcDbText
 10
1621.080779856828
 20
2340.093636230473
 30
0.0
 40
89.9993750043402
  1
地耐力   　　　 以上,コンクリート設計基準強度　　　　　以上
  7
01
100
AcDbText
  0
TEXT
  5
2B2F3
330
2AEDA
100
AcDbEntity
  8
SUNPOU
100
AcDbText
 10
1930.067002748717
 20
1842.26940827452
 30
0.0
 40
90.0
  1
あわせて設計して下さい。
  7
01
100
AcDbText
  0
TEXT
  5
2B2F4
330
2AEDA
100
AcDbEntity
  8
SUNPOU
100
AcDbText
 10
1621.080779856828
 20
2185.80792194476
 30
0.0
 40
89.9993750043402
  1
基準風速   　　 , 地表面粗度区分
  7
01
100
AcDbText
  0
TEXT
  5
2B2F5
330
2AEDA
100
AcDbEntity
  8
SUNPOU
100
AcDbText
 10
2265.720461955607
 20
2783.316883100106
 30
0.0
 40
92.30769230769228
  1
（ S = 　　  ）
 41
0.6700000000000001
  7
00
 11
2265.720461955607
 21
2771.009190792413
 31
0.0
100
AcDbText
 73
     1
  0
TEXT
  5
2B2F6
330
2AEDA
100
AcDbEntity
  8
SUNPOU
100
AcDbText
 10
2398.815796796249
 20
2390.282062587959
 30
0.0
 40
46.28539285937498
  1
2
 41
0.6700000000000001
  7
00
100
AcDbText
  0
TEXT
  5
2B2F7
330
2AEDA
100
AcDbEntity
  8
SUNPOU
100
AcDbText
 10
2131.175640067851
 20
2340.093636230473
 30
0.0
 40
71.99950000347218
  1
K
 41
0.6700000000000001
  7
01
100
AcDbText
  0
TEXT
  5
2B2F8
330
2AEDA
100
AcDbEntity
  8
SUNPOU
100
AcDbText
 10
1995.339187281901
 20
2340.093636230473
 30
0.0
 40
89.9993750043402
  1
50  N/m
 41
0.6700000000000001
  7
01
100
AcDbText
  0
TEXT
  5
2B2F9
330
2AEDA
100
AcDbEntity
  8
SUNPOU
100
AcDbText
 10
1723.861257659321
 20
1996.555122560238
 30
0.0
 40
90.0
  1
1
 41
0.6700000000000001
  7
01
100
AcDbText
  0
TEXT
  5
2B2FA
330
2AEDA
100
AcDbEntity
  8
SUNPOU
100
AcDbText
 10
1613.227337446582
 20
1996.555122560238
 30
0.0
 40
90.0
  1
注　）
  7
01
100
AcDbText
  0
TEXT
  5
2B2FB
330
2AEDA
100
AcDbEntity
  8
SUNPOU
100
AcDbText
 10
2104.844208521991
 20
2185.80792194476
 30
0.0
 40
89.9993750043402
  1
34 m/s
 41
0.6700000000000001
  7
01
100
AcDbText
  0
LINE
  5
2B2FC
330
2AEDA
100
AcDbEntity
  8
SUNPOU
100
AcDbLine
 10
3457.896341423431
 20
2185.80792194476
 30
0.0
 11
3457.896341423431
 21
2269.300285643541
 31
0.0
  0
LINE
  5
2B2FD
330
2AEDA
100
AcDbEntity
  8
SUNPOU
100
AcDbLine
 10
3441.021341423431
 20
2185.80792194476
 30
0.0
 11
3441.021341423431
 21
2269.300285643541
 31
0.0
  0
LINE
  5
2B2FE
330
2AEDA
100
AcDbEntity
  8
SUNPOU
100
AcDbLine
 10
3424.14634142343
 20
2185.80792194476
 30
0.0
 11
3424.14634142343
 21
2269.300285643541
 31
0.0
  0
LINE
  5
2B2FF
330
2AEDA
100
AcDbEntity
  8
SUNPOU
100
AcDbLine
 10
3412.896341423431
 20
2185.807921944759
 30
0.0
 11
3469.146341423432
 21
2185.807921944759
 31
0.0
  0
LINE
  5
2B300
330
2AEDA
100
AcDbEntity
  8
SUNPOU
100
AcDbLine
 10
3412.896341423431
 20
2269.300285643541
 30
0.0
 11
3469.146341423432
 21
2269.300285643541
 31
0.0
  0
TEXT
  5
2B301
330
2AEDA
100
AcDbEntity
  8
SUNPOU
100
AcDbText
 10
2585.423163808687
 20
2799.316883100103
 30
0.0
 40
73.84615384615381
  1
1
 41
0.6700000000000001
  7
00
 11
2585.423163808687
 21
2789.470729253949
 31
0.0
100
AcDbText
 73
     1
  0
TEXT
  5
2B302
330
2AEDA
100
AcDbEntity
  8
SUNPOU
100
AcDbText
 10
2633.829291124055
 20
2780.855344638567
 30
0.0
 40
73.84615384615381
  1
/
 41
0.6700000000000001
  7
00
 11
2633.829291124055
 21
2771.009190792413
 31
0.0
100
AcDbText
 73
     1
  0
TEXT
  5
2B303
330
2AEDA
100
AcDbEntity
  8
SUNPOU
100
AcDbText
 10
2697.778734078425
 20
2762.393806177025
 30
0.0
 40
73.84615384615381
  1
20
 41
0.6700000000000001
  7
00
 11
2697.778734078425
 21
2752.547652330871
 31
0.0
100
AcDbText
 73
     1
  0
TEXT
  5
2B304
330
2AEDA
100
AcDbEntity
  8
SUNPOU
100
AcDbText
 10
4480.39219296089
 20
2390.282062587959
 30
0.0
 40
46.28539285937498
  1
2
 41
0.6700000000000001
  7
00
100
AcDbText
  0
TEXT
  5
2B305
330
2AEDA
100
AcDbEntity
  8
SUNPOU
100
AcDbText
 10
4040.09125814354
 20
2340.093636230473
 30
0.0
 40
89.9993750043402
  1
18
 41
0.6700000000000001
  7
01
100
AcDbText
  0
TEXT
  5
2B306
330
2AEDA
100
AcDbEntity
  8
SUNPOU
100
AcDbText
 10
4175.92771092949
 20
2340.093636230473
 30
0.0
 40
89.9993750043402
  1
N/mm
 41
0.6700000000000001
  7
01
100
AcDbText
  0
ARC
  5
2B307
330
2AEDA
100
AcDbEntity
  8
SUNPOU
100
AcDbCircle
 10
4629.269457494508
 20
2326.365340458094
 30
0.0
 40
225.0
100
AcDbArc
 50
328.3472725282829
 51
31.65272747171703
  0
ENDSEC
  0
SECTION
  2
OBJECTS
  0
DICTIONARY
  5
2AEC8
330
0
100
AcDbDictionary
281
     1
  3
ACAD_GROUP
350
2AEC9
  3
ACAD_LAYOUT
350
2AED5
  3
ACAD_MLINESTYLE
350
2AED2
  3
ACAD_PLOTSETTINGS
350
2AED4
  3
ACAD_PLOTSTYLENAME
350
2AECA
  3
AcDbVariableDictionary
350
2B308
  0
DICTIONARY
  5
2AEC9
102
{ACAD_REACTORS
330
2AEC8
102
}
330
2AEC8
100
AcDbDictionary
281
     1
  0
DICTIONARY
  5
2AED5
102
{ACAD_REACTORS
330
2AEC8
102
}
330
2AEC8
100
AcDbDictionary
281
     1
  3
Model
350
2AEDD
  3
ﾚｲｱｳﾄ1
350
2AED9
  0
DICTIONARY
  5
2AED2
102
{ACAD_REACTORS
330
2AEC8
102
}
330
2AEC8
100
AcDbDictionary
281
     1
  3
Standard
350
2AED3
  0
DICTIONARY
  5
2AED4
102
{ACAD_REACTORS
330
2AEC8
102
}
330
2AEC8
100
AcDbDictionary
281
     1
  0
ACDBDICTIONARYWDFLT
  5
2AECA
102
{ACAD_REACTORS
330
2AEC8
102
}
330
2AEC8
100
AcDbDictionary
281
     1
  3
Normal
350
2AECB
100
AcDbDictionaryWithDefault
340
2AECB
  0
DICTIONARY
  5
2B308
102
{ACAD_REACTORS
330
2AEC8
102
}
330
2AEC8
100
AcDbDictionary
281
     1
  3
DIMASSOC
350
2B309
  0
LAYOUT
  5
2AEDD
102
{ACAD_REACTORS
330
2AED5
102
}
330
2AED5
100
AcDbPlotSettings
  1

  2
Muratec V-1200 Is@Web Printer
  4

  6

 40
0.0
 41
0.0
 42
0.0
 43
0.0
 44
0.0
 45
0.0
 46
0.0
 47
0.0
 48
0.0
 49
0.0
140
0.0
141
0.0
142
1.0
143
1.0
 70
  1712
 72
     0
 73
     0
 74
     0
  7

 75
     0
147
1.0
148
0.0
149
0.0
100
AcDbLayout
  1
Model
 70
     1
 71
     0
 10
0.0
 20
0.0
 11
12.0
 21
9.0
 12
0.0
 22
0.0
 32
0.0
 14
0.0
 24
0.0
 34
0.0
 15
0.0
 25
0.0
 35
0.0
146
0.0
 13
0.0
 23
0.0
 33
0.0
 16
1.0
 26
0.0
 36
0.0
 17
0.0
 27
1.0
 37
0.0
 76
     0
330
2AEDA
  0
LAYOUT
  5
2AED9
102
{ACAD_REACTORS
330
2AED5
102
}
330
2AED5
100
AcDbPlotSettings
  1

  2
Muratec V-1200 Is@Web Printer
  4

  6

 40
0.0
 41
0.0
 42
0.0
 43
0.0
 44
0.0
 45
0.0
 46
0.0
 47
0.0
 48
0.0
 49
0.0
140
0.0
141
0.0
142
1.0
143
1.0
 70
   688
 72
     0
 73
     0
 74
     5
  7

 75
    16
147
1.0
148
0.0
149
0.0
100
AcDbLayout
  1
ﾚｲｱｳﾄ1
 70
     0
 71
     1
 10
0.0
 20
0.0
 11
12.0
 21
9.0
 12
0.0
 22
0.0
 32
0.0
 14
1.000000000000000E+20
 24
1.000000000000000E+20
 34
1.000000000000000E+20
 15
-1.000000000000000E+20
 25
-1.000000000000000E+20
 35
-1.000000000000000E+20
146
0.0
 13
0.0
 23
0.0
 33
0.0
 16
1.0
 26
0.0
 36
0.0
 17
0.0
 27
1.0
 37
0.0
 76
     0
330
2AED6
  0
MLINESTYLE
  5
2AED3
102
{ACAD_REACTORS
330
2AED2
102
}
330
2AED2
100
AcDbMlineStyle
  2
STANDARD
 70
     0
  3

 62
   256
 51
90.0
 52
90.0
 71
     2
 49
0.5
 62
   256
  6
BYLAYER
 49
-0.5
 62
   256
  6
BYLAYER
  0
ACDBPLACEHOLDER
  5
2AECB
102
{ACAD_REACTORS
330
2AECA
102
}
330
2AECA
  0
DICTIONARYVAR
  5
2B309
102
{ACAD_REACTORS
330
2B308
102
}
330
2B308
100
DictionaryVariables
280
     0
  1
1
  0
ENDSEC
  0
EOF
