  0
SECTION
  2
HEADER
  9
$ACADVER
  1
AC1015
  9
$ACADMAINTVER
 70
    13
  9
$DWGCODEPAGE
  3
ANSI_932
  9
$INSBASE
 10
267.0
 20
194.8999999999998
 30
0.0
  9
$EXTMIN
 10
325.4974662390304
 20
122.7681178119601
 30
-0.000000000000013
  9
$EXTMAX
 10
14049.06924489079
 20
8431.707478684501
 30
0.0000000000000023
  9
$LIMMIN
 10
0.0
 20
0.0
  9
$LIMMAX
 10
12600.0
 20
8910.0
  9
$ORTHOMODE
 70
     0
  9
$REGENMODE
 70
     1
  9
$FILLMODE
 70
     1
  9
$QTEXTMODE
 70
     0
  9
$MIRRTEXT
 70
     0
  9
$LTSCALE
 40
30.0
  9
$ATTMODE
 70
     1
  9
$TEXTSIZE
 40
0.2
  9
$TRACEWID
 40
0.05
  9
$TEXTSTYLE
  7
00
  9
$CLAYER
  8
SUNPOU
  9
$CELTYPE
  6
ByLayer
  9
$CECOLOR
 62
   256
  9
$CELTSCALE
 40
1.0
  9
$DISPSILH
 70
     0
  9
$DIMSCALE
 40
30.0
  9
$DIMASZ
 40
0.5
  9
$DIMEXO
 40
1.0
  9
$DIMDLI
 40
7.0
  9
$DIMRND
 40
0.0
  9
$DIMDLE
 40
3.0
  9
$DIMEXE
 40
1.5
  9
$DIMTP
 40
0.0
  9
$DIMTM
 40
0.0
  9
$DIMTXT
 40
3.0
  9
$DIMCEN
 40
0.0
  9
$DIMTSZ
 40
0.0
  9
$DIMTOL
 70
     0
  9
$DIMLIM
 70
     0
  9
$DIMTIH
 70
     0
  9
$DIMTOH
 70
     0
  9
$DIMSE1
 70
     0
  9
$DIMSE2
 70
     0
  9
$DIMTAD
 70
     1
  9
$DIMZIN
 70
     8
  9
$DIMBLK
  1
DOT
  9
$DIMASO
 70
     1
  9
$DIMSHO
 70
     0
  9
$DIMPOST
  1

  9
$DIMAPOST
  1

  9
$DIMALT
 70
     0
  9
$DIMALTD
 70
     2
  9
$DIMALTF
 40
25.4
  9
$DIMLFAC
 40
1.0
  9
$DIMTOFL
 70
     1
  9
$DIMTVP
 40
0.0
  9
$DIMTIX
 70
     0
  9
$DIMSOXD
 70
     0
  9
$DIMSAH
 70
     1
  9
$DIMBLK1
  1
DOT
  9
$DIMBLK2
  1
DOT
  9
$DIMSTYLE
  2
SUNPOU
  9
$DIMCLRD
 70
   256
  9
$DIMCLRE
 70
   256
  9
$DIMCLRT
 70
   256
  9
$DIMTFAC
 40
1.0
  9
$DIMGAP
 40
1.5
  9
$DIMJUST
 70
     0
  9
$DIMSD1
 70
     0
  9
$DIMSD2
 70
     0
  9
$DIMTOLJ
 70
     1
  9
$DIMTZIN
 70
     0
  9
$DIMALTZ
 70
     0
  9
$DIMALTTZ
 70
     0
  9
$DIMUPT
 70
     0
  9
$DIMDEC
 70
     2
  9
$DIMTDEC
 70
     2
  9
$DIMALTU
 70
     2
  9
$DIMALTTD
 70
     2
  9
$DIMTXSTY
  7
STANDARD
  9
$DIMAUNIT
 70
     0
  9
$DIMADEC
 70
     0
  9
$DIMALTRND
 40
0.0
  9
$DIMAZIN
 70
     0
  9
$DIMDSEP
 70
    46
  9
$DIMATFIT
 70
     3
  9
$DIMFRAC
 70
     0
  9
$DIMLDRBLK
  1

  9
$DIMLUNIT
 70
     2
  9
$DIMLWD
 70
    -2
  9
$DIMLWE
 70
    -2
  9
$DIMTMOVE
 70
     2
  9
$LUNITS
 70
     2
  9
$LUPREC
 70
     2
  9
$SKETCHINC
 40
0.1
  9
$FILLETRAD
 40
5.0
  9
$AUNITS
 70
     0
  9
$AUPREC
 70
     0
  9
$MENU
  1
A:\TIGER\MENU\TIGER
  9
$ELEVATION
 40
0.0
  9
$PELEVATION
 40
0.0
  9
$THICKNESS
 40
0.0
  9
$LIMCHECK
 70
     0
  9
$CHAMFERA
 40
0.0
  9
$CHAMFERB
 40
0.0
  9
$CHAMFERC
 40
1.0
  9
$CHAMFERD
 40
0.0
  9
$SKPOLY
 70
     0
  9
$TDCREATE
 40
2450266.571064815
  9
$TDUCREATE
 40
2450266.196064815
  9
$TDUPDATE
 40
2456331.318826134
  9
$TDUUPDATE
 40
2456330.943826134
  9
$TDINDWG
 40
0.2753359954
  9
$TDUSRTIMER
 40
0.2753359954
  9
$USRTIMER
 70
     1
  9
$ANGBASE
 50
0.0
  9
$ANGDIR
 70
     0
  9
$PDMODE
 70
     0
  9
$PDSIZE
 40
0.0
  9
$PLINEWID
 40
0.0
  9
$SPLFRAME
 70
     0
  9
$SPLINETYPE
 70
     6
  9
$SPLINESEGS
 70
     8
  9
$HANDSEED
  5
24DDF
  9
$SURFTAB1
 70
     6
  9
$SURFTAB2
 70
     6
  9
$SURFTYPE
 70
     6
  9
$SURFU
 70
     6
  9
$SURFV
 70
     6
  9
$UCSBASE
  2

  9
$UCSNAME
  2

  9
$UCSORG
 10
0.0
 20
0.0
 30
0.0
  9
$UCSXDIR
 10
1.0
 20
0.0
 30
0.0
  9
$UCSYDIR
 10
0.0
 20
1.0
 30
0.0
  9
$UCSORTHOREF
  2

  9
$UCSORTHOVIEW
 70
     0
  9
$UCSORGTOP
 10
0.0
 20
0.0
 30
0.0
  9
$UCSORGBOTTOM
 10
0.0
 20
0.0
 30
0.0
  9
$UCSORGLEFT
 10
0.0
 20
0.0
 30
0.0
  9
$UCSORGRIGHT
 10
0.0
 20
0.0
 30
0.0
  9
$UCSORGFRONT
 10
0.0
 20
0.0
 30
0.0
  9
$UCSORGBACK
 10
0.0
 20
0.0
 30
0.0
  9
$PUCSBASE
  2

  9
$PUCSNAME
  2

  9
$PUCSORG
 10
0.0
 20
0.0
 30
0.0
  9
$PUCSXDIR
 10
1.0
 20
0.0
 30
0.0
  9
$PUCSYDIR
 10
0.0
 20
1.0
 30
0.0
  9
$PUCSORTHOREF
  2

  9
$PUCSORTHOVIEW
 70
     0
  9
$PUCSORGTOP
 10
0.0
 20
0.0
 30
0.0
  9
$PUCSORGBOTTOM
 10
0.0
 20
0.0
 30
0.0
  9
$PUCSORGLEFT
 10
0.0
 20
0.0
 30
0.0
  9
$PUCSORGRIGHT
 10
0.0
 20
0.0
 30
0.0
  9
$PUCSORGFRONT
 10
0.0
 20
0.0
 30
0.0
  9
$PUCSORGBACK
 10
0.0
 20
0.0
 30
0.0
  9
$USERI1
 70
     3
  9
$USERI2
 70
     0
  9
$USERI3
 70
     0
  9
$USERI4
 70
     0
  9
$USERI5
 70
  1103
  9
$USERR1
 40
0.0
  9
$USERR2
 40
1.0
  9
$USERR3
 40
0.0
  9
$USERR4
 40
0.0
  9
$USERR5
 40
0.0
  9
$WORLDVIEW
 70
     1
  9
$SHADEDGE
 70
     3
  9
$SHADEDIF
 70
    70
  9
$TILEMODE
 70
     1
  9
$MAXACTVP
 70
    16
  9
$PINSBASE
 10
0.0
 20
0.0
 30
0.0
  9
$PLIMCHECK
 70
     0
  9
$PEXTMIN
 10
1.000000000000000E+20
 20
1.000000000000000E+20
 30
1.000000000000000E+20
  9
$PEXTMAX
 10
-1.000000000000000E+20
 20
-1.000000000000000E+20
 30
-1.000000000000000E+20
  9
$PLIMMIN
 10
0.0
 20
0.0
  9
$PLIMMAX
 10
12.0
 20
9.0
  9
$UNITMODE
 70
     0
  9
$VISRETAIN
 70
     0
  9
$PLINEGEN
 70
     1
  9
$PSLTSCALE
 70
     0
  9
$TREEDEPTH
 70
  3020
  9
$CMLSTYLE
  2
Standard
  9
$CMLJUST
 70
     0
  9
$CMLSCALE
 40
1.0
  9
$PROXYGRAPHICS
 70
     1
  9
$MEASUREMENT
 70
     0
  9
$CELWEIGHT
370
    -1
  9
$ENDCAPS
280
     0
  9
$JOINSTYLE
280
     0
  9
$LWDISPLAY
290
     0
  9
$INSUNITS
 70
     0
  9
$HYPERLINKBASE
  1

  9
$STYLESHEET
  1

  9
$XEDIT
290
     1
  9
$CEPSNTYPE
380
     0
  9
$PSTYLEMODE
290
     1
  9
$FINGERPRINTGUID
  2
{8E4FD61B-4468-4F3D-8907-1C0522461C69}
  9
$VERSIONGUID
  2
{7DEF74BD-B8BE-4DED-9B3C-F9CD533AAACF}
  9
$EXTNAMES
290
     1
  9
$PSVPSCALE
 40
0.0
  9
$OLESTARTUP
290
     0
  0
ENDSEC
  0
SECTION
  2
CLASSES
  0
CLASS
  1
ACDBDICTIONARYWDFLT
  2
AcDbDictionaryWithDefault
  3
AutoCAD 2000
 90
        0
280
     0
281
     0
  0
CLASS
  1
ACDBPLACEHOLDER
  2
AcDbPlaceHolder
  3
AutoCAD 2000
 90
        0
280
     0
281
     0
  0
CLASS
  1
LAYOUT
  2
AcDbLayout
  3
AutoCAD 2000
 90
        0
280
     0
281
     0
  0
CLASS
  1
DICTIONARYVAR
  2
AcDbDictionaryVar
  3
AutoCAD 2000
 90
        0
280
     0
281
     0
  0
ENDSEC
  0
SECTION
  2
TABLES
  0
TABLE
  2
VPORT
  5
24D27
330
0
100
AcDbSymbolTable
 70
     2
  0
VPORT
  5
24DDE
330
24D27
100
AcDbSymbolTableRecord
100
AcDbViewportTableRecord
  2
*Active
 70
     0
 10
0.0
 20
0.0
 11
1.0
 21
1.0
 12
7187.283355564911
 22
4277.237798248229
 13
0.0
 23
0.0
 14
1.0
 24
1.0
 15
0.0
 25
0.0
 16
0.0
 26
0.0
 36
1.0
 17
0.0
 27
0.0
 37
0.0
 40
11171.15731111267
 41
1.236040609137055
 42
50.0
 43
0.0
 44
0.0
 50
0.0
 51
0.0
 71
     0
 72
 10000
 73
     1
 74
     0
 75
     0
 76
     0
 77
     0
 78
     0
281
     0
 65
     0
110
0.0
120
0.0
130
0.0
111
1.0
121
0.0
131
0.0
112
0.0
122
1.0
132
0.0
 79
     0
146
0.0
  0
ENDTAB
  0
TABLE
  2
LTYPE
  5
24D24
330
0
100
AcDbSymbolTable
 70
     9
  0
LTYPE
  5
24D32
330
24D24
100
AcDbSymbolTableRecord
100
AcDbLinetypeTableRecord
  2
ByBlock
 70
     0
  3

 72
    65
 73
     0
 40
0.0
  0
LTYPE
  5
24D33
330
24D24
100
AcDbSymbolTableRecord
100
AcDbLinetypeTableRecord
  2
ByLayer
 70
     0
  3

 72
    65
 73
     0
 40
0.0
  0
LTYPE
  5
24D34
330
24D24
100
AcDbSymbolTableRecord
100
AcDbLinetypeTableRecord
  2
CONTINUOUS
 70
     0
  3
実線
 72
    65
 73
     0
 40
0.0
  0
LTYPE
  5
24D40
330
24D24
100
AcDbSymbolTableRecord
100
AcDbLinetypeTableRecord
  2
HIDE-M
 70
     0
  3

 72
    65
 73
     2
 40
2.0
 49
1.0
 74
     0
 49
-1.0
 74
     0
  0
LTYPE
  5
24D41
330
24D24
100
AcDbSymbolTableRecord
100
AcDbLinetypeTableRecord
  2
HIDE-S
 70
     0
  3

 72
    65
 73
     2
 40
1.0
 49
0.5
 74
     0
 49
-0.5
 74
     0
  0
LTYPE
  5
24D42
330
24D24
100
AcDbSymbolTableRecord
100
AcDbLinetypeTableRecord
  2
TENSEN-
 70
     0
  3

 72
    65
 73
     2
 40
0.6000000000000001
 49
0.2
 74
     0
 49
-0.4
 74
     0
  0
LTYPE
  5
24D43
330
24D24
100
AcDbSymbolTableRecord
100
AcDbLinetypeTableRecord
  2
1PL-M
 70
     0
  3

 72
    65
 73
     4
 40
15.0
 49
12.0
 74
     0
 49
-1.0
 74
     0
 49
1.0
 74
     0
 49
-1.0
 74
     0
  0
LTYPE
  5
24D44
330
24D24
100
AcDbSymbolTableRecord
100
AcDbLinetypeTableRecord
  2
1PL-12
 70
     0
  3

 72
    65
 73
     4
 40
15.0
 49
12.0
 74
     0
 49
-1.0
 74
     0
 49
1.0
 74
     0
 49
-1.0
 74
     0
  0
LTYPE
  5
24D45
330
24D24
100
AcDbSymbolTableRecord
100
AcDbLinetypeTableRecord
  2
KAKURE-1
 70
     0
  3

 72
    65
 73
     2
 40
2.0
 49
1.0
 74
     0
 49
-1.0
 74
     0
  0
LTYPE
  5
24D46
330
24D24
100
AcDbSymbolTableRecord
100
AcDbLinetypeTableRecord
  2
2PL-12
 70
     0
  3

 72
    65
 73
     6
 40
17.0
 49
12.0
 74
     0
 49
-1.0
 74
     0
 49
1.0
 74
     0
 49
-1.0
 74
     0
 49
1.0
 74
     0
 49
-1.0
 74
     0
  0
LTYPE
  5
24D47
330
24D24
100
AcDbSymbolTableRecord
100
AcDbLinetypeTableRecord
  2
2PL-5
 70
     0
  3

 72
    65
 73
     6
 40
7.5
 49
5.0
 74
     0
 49
-0.5
 74
     0
 49
0.5
 74
     0
 49
-0.5
 74
     0
 49
0.5
 74
     0
 49
-0.5
 74
     0
  0
ENDTAB
  0
TABLE
  2
LAYER
  5
24D21
330
0
100
AcDbSymbolTable
 70
    27
  0
LAYER
  5
24D2F
330
24D21
100
AcDbSymbolTableRecord
100
AcDbLayerTableRecord
  2
0
 70
     0
 62
     7
  6
CONTINUOUS
370
    -3
390
24D2E
  0
LAYER
  5
24D49
330
24D21
100
AcDbSymbolTableRecord
100
AcDbLayerTableRecord
  2
U1
 70
     0
 62
     3
  6
CONTINUOUS
370
    -3
390
24D2E
  0
LAYER
  5
24D4A
330
24D21
100
AcDbSymbolTableRecord
100
AcDbLayerTableRecord
  2
U2
 70
     0
 62
     4
  6
CONTINUOUS
370
    -3
390
24D2E
  0
LAYER
  5
24D4B
330
24D21
100
AcDbSymbolTableRecord
100
AcDbLayerTableRecord
  2
U3
 70
     0
 62
     6
  6
CONTINUOUS
370
    -3
390
24D2E
  0
LAYER
  5
24D4C
330
24D21
100
AcDbSymbolTableRecord
100
AcDbLayerTableRecord
  2
U7
 70
     0
 62
     2
  6
CONTINUOUS
370
    -3
390
24D2E
  0
LAYER
  5
24D4D
330
24D21
100
AcDbSymbolTableRecord
100
AcDbLayerTableRecord
  2
SUNPOU
 70
     0
 62
     4
  6
CONTINUOUS
370
    -3
390
24D2E
  0
LAYER
  5
24D4E
330
24D21
100
AcDbSymbolTableRecord
100
AcDbLayerTableRecord
  2
HIKIDASHI
 70
     0
 62
     6
  6
CONTINUOUS
370
    -3
390
24D2E
  0
LAYER
  5
24D4F
330
24D21
100
AcDbSymbolTableRecord
100
AcDbLayerTableRecord
  2
TENSEN-1
 70
     0
 62
     6
  6
TENSEN-
370
    -3
390
24D2E
  0
LAYER
  5
24D50
330
24D21
100
AcDbSymbolTableRecord
100
AcDbLayerTableRecord
  2
HIDE-S1
 70
     0
 62
     6
  6
HIDE-S
370
    -3
390
24D2E
  0
LAYER
  5
24D51
330
24D21
100
AcDbSymbolTableRecord
100
AcDbLayerTableRecord
  2
HIDE-M1
 70
     0
 62
     6
  6
HIDE-M
370
    -3
390
24D2E
  0
LAYER
  5
24D52
330
24D21
100
AcDbSymbolTableRecord
100
AcDbLayerTableRecord
  2
1PL-M1
 70
     0
 62
     6
  6
1PL-M
370
    -3
390
24D2E
  0
LAYER
  5
24D53
330
24D21
100
AcDbSymbolTableRecord
100
AcDbLayerTableRecord
  2
YANE
 70
     0
 62
     1
  6
CONTINUOUS
370
    -3
390
24D2E
  0
LAYER
  5
24D54
330
24D21
100
AcDbSymbolTableRecord
100
AcDbLayerTableRecord
  2
KISO
 70
     0
 62
     2
  6
CONTINUOUS
370
    -3
390
24D2E
  0
LAYER
  5
24D55
330
24D21
100
AcDbSymbolTableRecord
100
AcDbLayerTableRecord
  2
HATCH
 70
     0
 62
     1
  6
CONTINUOUS
370
    -3
390
24D2E
  0
LAYER
  5
24D56
330
24D21
100
AcDbSymbolTableRecord
100
AcDbLayerTableRecord
  2
NAME
 70
     0
 62
    20
  6
CONTINUOUS
370
    -3
390
24D2E
  0
LAYER
  5
24D57
330
24D21
100
AcDbSymbolTableRecord
100
AcDbLayerTableRecord
  2
FILENAME
 70
     0
 62
     7
  6
CONTINUOUS
370
    -3
390
24D2E
  0
LAYER
  5
24D58
330
24D21
100
AcDbSymbolTableRecord
100
AcDbLayerTableRecord
  2
BOLT
 70
     0
 62
     4
  6
CONTINUOUS
370
    -3
390
24D2E
  0
LAYER
  5
24D59
330
24D21
100
AcDbSymbolTableRecord
100
AcDbLayerTableRecord
  2
HASIRA
 70
     0
 62
     3
  6
CONTINUOUS
370
    -3
390
24D2E
  0
LAYER
  5
24D5A
330
24D21
100
AcDbSymbolTableRecord
100
AcDbLayerTableRecord
  2
DOMAKON
 70
     0
 62
     2
  6
CONTINUOUS
370
    -3
390
24D2E
  0
LAYER
  5
24D5B
330
24D21
100
AcDbSymbolTableRecord
100
AcDbLayerTableRecord
  2
KISO-1
 70
     0
 62
     1
  6
2PL-12
370
    -3
390
24D2E
  0
LAYER
  5
24D5C
330
24D21
100
AcDbSymbolTableRecord
100
AcDbLayerTableRecord
  2
KISO-2
 70
     0
 62
     1
  6
KAKURE-1
370
    -3
390
24D2E
  0
LAYER
  5
24D5D
330
24D21
100
AcDbSymbolTableRecord
100
AcDbLayerTableRecord
  2
SIN
 70
     0
 62
     6
  6
1PL-12
370
    -3
390
24D2E
  0
LAYER
  5
24D5E
330
24D21
100
AcDbSymbolTableRecord
100
AcDbLayerTableRecord
  2
KISO-3
 70
     0
 62
     1
  6
2PL-5
370
    -3
390
24D2E
  0
LAYER
  5
24D5F
330
24D21
100
AcDbSymbolTableRecord
100
AcDbLayerTableRecord
  2
YODOROGO
 70
     0
 62
   130
  6
CONTINUOUS
370
    -3
390
24D2E
  0
LAYER
  5
24D60
330
24D21
100
AcDbSymbolTableRecord
100
AcDbLayerTableRecord
  2
WAKUSEN-01
 70
     0
 62
    50
  6
CONTINUOUS
370
    -3
390
24D2E
  0
LAYER
  5
24D61
330
24D21
100
AcDbSymbolTableRecord
100
AcDbLayerTableRecord
  2
WAKUSEN-02
 70
     0
 62
   130
  6
CONTINUOUS
370
    -3
390
24D2E
  0
LAYER
  5
24D62
330
24D21
100
AcDbSymbolTableRecord
100
AcDbLayerTableRecord
  2
WAKUMOJI-01
 70
     0
 62
   130
  6
CONTINUOUS
370
    -3
390
24D2E
  0
ENDTAB
  0
TABLE
  2
STYLE
  5
24D22
330
0
100
AcDbSymbolTable
 70
     5
  0
STYLE
  5
24D30
330
24D22
100
AcDbSymbolTableRecord
100
AcDbTextStyleTableRecord
  2
STANDARD
 70
     0
 40
3.0
 41
1.0
 50
0.0
 71
     0
 42
0.2
  3
ROMANS
  4
EXTFONT
  0
STYLE
  5
24D64
330
24D22
100
AcDbSymbolTableRecord
100
AcDbTextStyleTableRecord
  2
01
 70
     0
 40
3.0
 41
1.0
 50
0.0
 71
     0
 42
0.2
  3
ROMANS
  4
BIGFONT
  0
STYLE
  5
24D65
330
24D22
100
AcDbSymbolTableRecord
100
AcDbTextStyleTableRecord
  2
00
 70
     0
 40
0.0
 41
0.6666666666666666
 50
0.0
 71
     0
 42
0.2
  3
ROMANS
  4
BIGFONT
  0
STYLE
  5
24D66
330
24D22
100
AcDbSymbolTableRecord
100
AcDbTextStyleTableRecord
  2
WAKUMOJI
 70
     0
 40
3.0
 41
1.0
 50
0.0
 71
     0
 42
3.0
  3
SIMPLEX
  4
BIGFONT
  0
STYLE
  5
24D67
330
24D22
100
AcDbSymbolTableRecord
100
AcDbTextStyleTableRecord
  2
FILENAME
 70
     0
 40
75.0
 41
1.0
 50
0.0
 71
     0
 42
75.0
  3
romans
  4
bigfont
  0
ENDTAB
  0
TABLE
  2
VIEW
  5
24D25
330
0
100
AcDbSymbolTable
 70
     0
  0
ENDTAB
  0
TABLE
  2
UCS
  5
24D26
330
0
100
AcDbSymbolTable
 70
     0
  0
ENDTAB
  0
TABLE
  2
APPID
  5
24D28
330
0
100
AcDbSymbolTable
 70
     4
  0
APPID
  5
24D31
330
24D28
100
AcDbSymbolTableRecord
100
AcDbRegAppTableRecord
  2
ACAD
 70
     0
  0
APPID
  5
24D69
330
24D28
100
AcDbSymbolTableRecord
100
AcDbRegAppTableRecord
  2
AUTOCAD_POSTSCRIPT_FIGURE
 70
     0
  0
APPID
  5
24D6A
330
24D28
100
AcDbSymbolTableRecord
100
AcDbRegAppTableRecord
  2
ACAD_PSEXT
 70
     0
  0
APPID
  5
24D6B
330
24D28
100
AcDbSymbolTableRecord
100
AcDbRegAppTableRecord
  2
ACAD_EXEMPT_FROM_CAD_STANDARDS
 70
     0
  0
ENDTAB
  0
TABLE
  2
DIMSTYLE
  5
24D29
330
0
100
AcDbSymbolTable
 70
     1
100
AcDbDimStyleTable
 71
     0
  0
DIMSTYLE
105
D00
330
24D29
100
AcDbSymbolTableRecord
100
AcDbDimStyleTableRecord
  2
SUNPOU
 70
     0
 40
30.0
 41
0.5
 42
1.0
 43
7.0
 44
1.5
 46
3.0
 73
     0
 74
     0
 77
     1
 78
     8
140
3.0
141
0.0
147
1.5
172
     1
173
     1
176
   256
177
   256
178
   256
340
24D65
341
24D6F
342
24D6F
343
24D6F
344
24D6F
  0
ENDTAB
  0
TABLE
  2
BLOCK_RECORD
  5
24D20
330
0
100
AcDbSymbolTable
 70
    16
  0
BLOCK_RECORD
  5
24D3B
330
24D20
100
AcDbSymbolTableRecord
100
AcDbBlockTableRecord
  2
*Model_Space
340
24D3C
  0
BLOCK_RECORD
  5
24D39
330
24D20
100
AcDbSymbolTableRecord
100
AcDbBlockTableRecord
  2
*Paper_Space
340
24D3A
  0
BLOCK_RECORD
  5
24D6F
330
24D20
100
AcDbSymbolTableRecord
100
AcDbBlockTableRecord
  2
DOT
340
0
  0
BLOCK_RECORD
  5
24D71
330
24D20
100
AcDbSymbolTableRecord
100
AcDbBlockTableRecord
  2
*U1
340
0
  0
BLOCK_RECORD
  5
24D73
330
24D20
100
AcDbSymbolTableRecord
100
AcDbBlockTableRecord
  2
*U2
340
0
  0
BLOCK_RECORD
  5
24D75
330
24D20
100
AcDbSymbolTableRecord
100
AcDbBlockTableRecord
  2
*U3
340
0
  0
BLOCK_RECORD
  5
24D77
330
24D20
100
AcDbSymbolTableRecord
100
AcDbBlockTableRecord
  2
*U4
340
0
  0
BLOCK_RECORD
  5
24D79
330
24D20
100
AcDbSymbolTableRecord
100
AcDbBlockTableRecord
  2
*U5
340
0
  0
BLOCK_RECORD
  5
24D7B
330
24D20
100
AcDbSymbolTableRecord
100
AcDbBlockTableRecord
  2
*U6
340
0
  0
BLOCK_RECORD
  5
24D7D
330
24D20
100
AcDbSymbolTableRecord
100
AcDbBlockTableRecord
  2
*U7
340
0
  0
BLOCK_RECORD
  5
24D7F
330
24D20
100
AcDbSymbolTableRecord
100
AcDbBlockTableRecord
  2
*U8
340
0
  0
BLOCK_RECORD
  5
24D81
330
24D20
100
AcDbSymbolTableRecord
100
AcDbBlockTableRecord
  2
*U9
340
0
  0
BLOCK_RECORD
  5
24D83
330
24D20
100
AcDbSymbolTableRecord
100
AcDbBlockTableRecord
  2
*U10
340
0
  0
BLOCK_RECORD
  5
24D85
330
24D20
100
AcDbSymbolTableRecord
100
AcDbBlockTableRecord
  2
*U11
340
0
  0
BLOCK_RECORD
  5
24D87
330
24D20
100
AcDbSymbolTableRecord
100
AcDbBlockTableRecord
  2
*U12
340
0
  0
BLOCK_RECORD
  5
24D89
330
24D20
100
AcDbSymbolTableRecord
100
AcDbBlockTableRecord
  2
*U13
340
0
  0
BLOCK_RECORD
  5
24D8B
330
24D20
100
AcDbSymbolTableRecord
100
AcDbBlockTableRecord
  2
*U14
340
0
  0
ENDTAB
  0
ENDSEC
  0
SECTION
  2
BLOCKS
  0
BLOCK
  5
24D6C
330
24D3B
100
AcDbEntity
  8
0
100
AcDbBlockBegin
  2
*Model_Space
 70
     0
 10
0.0
 20
0.0
 30
0.0
  3
*Model_Space
  1

  0
ENDBLK
  5
125F7
330
24D3B
100
AcDbEntity
  8
0
100
AcDbBlockEnd
  0
BLOCK
  5
24D6D
330
24D39
100
AcDbEntity
 67
     1
  8
0
100
AcDbBlockBegin
  2
*Paper_Space
 70
     0
 10
0.0
 20
0.0
 30
0.0
  3
*Paper_Space
  1

  0
ENDBLK
  5
125F5
330
24D39
100
AcDbEntity
 67
     1
  8
0
100
AcDbBlockEnd
  0
BLOCK
  5
24D6E
330
24D6F
100
AcDbEntity
  8
0
100
AcDbBlockBegin
  2
DOT
 70
     0
 10
0.0
 20
0.0
 30
0.0
  3
DOT
  1

  0
LWPOLYLINE
  5
12983
330
24D6F
100
AcDbEntity
  8
0
  6
ByBlock
 62
     0
100
AcDbPolyline
 90
        2
 70
     1
 43
0.75
 10
-0.375
 20
0.0
 42
1.0
 10
0.375
 20
0.0
 42
1.0
  0
LINE
  5
12984
330
24D6F
100
AcDbEntity
  8
0
  6
ByBlock
 62
     0
100
AcDbLine
 10
-0.75
 20
0.0
 30
0.0
 11
-1.5
 21
0.0
 31
0.0
  0
ENDBLK
  5
12985
330
24D6F
100
AcDbEntity
  8
0
100
AcDbBlockEnd
  0
BLOCK
  5
24D70
330
24D71
100
AcDbEntity
  8
0
100
AcDbBlockBegin
  2
*U1
 70
     1
 10
0.0
 20
0.0
 30
0.0
  3
*U1
  1

  0
TEXT
  5
24CE9
330
24D71
100
AcDbEntity
  8
SUNPOU
100
AcDbText
 10
1710.326124563221
 20
4493.46477076036
 30
0.0
 40
90.0
  1
400
 41
0.6666666666666666
  7
00
100
AcDbText
  0
ENDBLK
  5
24CEB
330
24D71
100
AcDbEntity
  8
0
100
AcDbBlockEnd
  0
BLOCK
  5
24D72
330
24D73
100
AcDbEntity
  8
0
100
AcDbBlockBegin
  2
*U2
 70
     1
 10
0.0
 20
0.0
 30
0.0
  3
*U2
  1

  0
TEXT
  5
24CED
330
24D73
100
AcDbEntity
  8
SUNPOU
100
AcDbText
 10
3281.754695991792
 20
4493.46477076036
 30
0.0
 40
90.0
  1
2800
 41
0.6666666666666666
  7
00
100
AcDbText
  0
ENDBLK
  5
24CEF
330
24D73
100
AcDbEntity
  8
0
100
AcDbBlockEnd
  0
BLOCK
  5
24D74
330
24D75
100
AcDbEntity
  8
0
100
AcDbBlockBegin
  2
*U3
 70
     1
 10
0.0
 20
0.0
 30
0.0
  3
*U3
  1

  0
TEXT
  5
24CF1
330
24D75
100
AcDbEntity
  8
SUNPOU
100
AcDbText
 10
5806.326124563224
 20
4493.46477076036
 30
0.0
 40
90.0
  1
2800 ×（ N - 2 ）
 41
0.6666666666666666
  7
00
100
AcDbText
  0
ENDBLK
  5
24CF3
330
24D75
100
AcDbEntity
  8
0
100
AcDbBlockEnd
  0
BLOCK
  5
24D76
330
24D77
100
AcDbEntity
  8
0
100
AcDbBlockBegin
  2
*U4
 70
     1
 10
0.0
 20
0.0
 30
0.0
  3
*U4
  1

  0
TEXT
  5
24CF5
330
24D77
100
AcDbEntity
  8
SUNPOU
100
AcDbText
 10
8881.754695991791
 20
4493.46477076036
 30
0.0
 40
90.0
  1
2800
 41
0.6666666666666666
  7
00
100
AcDbText
  0
ENDBLK
  5
24CF7
330
24D77
100
AcDbEntity
  8
0
100
AcDbBlockEnd
  0
BLOCK
  5
24D78
330
24D79
100
AcDbEntity
  8
0
100
AcDbBlockBegin
  2
*U5
 70
     1
 10
0.0
 20
0.0
 30
0.0
  3
*U5
  1

  0
TEXT
  5
24CF9
330
24D79
100
AcDbEntity
  8
SUNPOU
100
AcDbText
 10
10510.3261245632
 20
4493.46477076036
 30
0.0
 40
90.0
  1
400
 41
0.6666666666666666
  7
00
100
AcDbText
  0
ENDBLK
  5
24CFB
330
24D79
100
AcDbEntity
  8
0
100
AcDbBlockEnd
  0
BLOCK
  5
24D7A
330
24D7B
100
AcDbEntity
  8
0
100
AcDbBlockBegin
  2
*U6
 70
     1
 10
0.0
 20
0.0
 30
0.0
  3
*U6
  1

  0
TEXT
  5
24CFD
330
24D7B
100
AcDbEntity
  8
SUNPOU
100
AcDbText
 10
3240.856080631056
 20
2243.601765811146
 30
0.0
 40
90.0
  1
150
 50
90.0
 41
0.6666666666666666
  7
00
100
AcDbText
  0
ENDBLK
  5
24CFF
330
24D7B
100
AcDbEntity
  8
0
100
AcDbBlockEnd
  0
BLOCK
  5
24D7C
330
24D7D
100
AcDbEntity
  8
0
100
AcDbBlockBegin
  2
*U7
 70
     1
 10
0.0
 20
0.0
 30
0.0
  3
*U7
  1

  0
TEXT
  5
24D01
330
24D7D
100
AcDbEntity
  8
SUNPOU
100
AcDbText
 10
2062.734652059631
 20
915.744622954002
 30
0.0
 40
90.0
  1
1000
 41
0.6666666666666666
  7
00
100
AcDbText
  0
ENDBLK
  5
24D03
330
24D7D
100
AcDbEntity
  8
0
100
AcDbBlockEnd
  0
BLOCK
  5
24D7E
330
24D7F
100
AcDbEntity
  8
0
100
AcDbBlockBegin
  2
*U8
 70
     1
 10
0.0
 20
0.0
 30
0.0
  3
*U8
  1

  0
TEXT
  5
24D05
330
24D7F
100
AcDbEntity
  8
SUNPOU
100
AcDbText
 10
1945.591794916774
 20
1125.744622954002
 30
0.0
 40
90.0
  1
700
 41
0.6666666666666666
  7
00
100
AcDbText
  0
ENDBLK
  5
24D07
330
24D7F
100
AcDbEntity
  8
0
100
AcDbBlockEnd
  0
BLOCK
  5
24D80
330
24D81
100
AcDbEntity
  8
0
100
AcDbBlockBegin
  2
*U9
 70
     1
 10
0.0
 20
0.0
 30
0.0
  3
*U9
  1

  0
TEXT
  5
24D09
330
24D81
100
AcDbEntity
  8
SUNPOU
100
AcDbText
 10
2445.591794916774
 20
1125.744622954002
 30
0.0
 40
90.0
  1
300
 41
0.6666666666666666
  7
00
100
AcDbText
  0
ENDBLK
  5
24D0B
330
24D81
100
AcDbEntity
  8
0
100
AcDbBlockEnd
  0
BLOCK
  5
24D82
330
24D83
100
AcDbEntity
  8
0
100
AcDbBlockBegin
  2
*U10
 70
     1
 10
0.0
 20
0.0
 30
0.0
  3
*U10
  1

  0
TEXT
  5
24D0D
330
24D83
100
AcDbEntity
  8
SUNPOU
100
AcDbText
 10
3240.856080631056
 20
1182.887480096861
 30
0.0
 40
90.0
  1
100
 50
90.0
 41
0.6666666666666666
  7
00
100
AcDbText
  0
ENDBLK
  5
24D0F
330
24D83
100
AcDbEntity
  8
0
100
AcDbBlockEnd
  0
BLOCK
  5
24D84
330
24D85
100
AcDbEntity
  8
0
100
AcDbBlockBegin
  2
*U11
 70
     1
 10
0.0
 20
0.0
 30
0.0
  3
*U11
  1

  0
TEXT
  5
24D11
330
24D85
100
AcDbEntity
  8
SUNPOU
100
AcDbText
 10
3240.856080631056
 20
1725.030337239718
 30
0.0
 40
90.0
  1
480
 50
90.0
 41
0.6666666666666666
  7
00
100
AcDbText
  0
ENDBLK
  5
24D13
330
24D85
100
AcDbEntity
  8
0
100
AcDbBlockEnd
  0
BLOCK
  5
24D86
330
24D87
100
AcDbEntity
  8
0
100
AcDbBlockBegin
  2
*U12
 70
     1
 10
0.0
 20
0.0
 30
0.0
  3
*U12
  1

  0
TEXT
  5
24D15
330
24D87
100
AcDbEntity
  8
SUNPOU
100
AcDbText
 10
3438.65728512295
 20
1491.838927685163
 30
0.0
 40
90.0
  1
50
 50
90.0
 41
0.6666666666666666
  7
00
100
AcDbText
  0
ENDBLK
  5
24D17
330
24D87
100
AcDbEntity
  8
0
100
AcDbBlockEnd
  0
BLOCK
  5
24D88
330
24D89
100
AcDbEntity
  8
0
100
AcDbBlockBegin
  2
*U13
 70
     1
 10
0.0
 20
0.0
 30
0.0
  3
*U13
  1

  0
TEXT
  5
24D19
330
24D89
100
AcDbEntity
  8
SUNPOU
100
AcDbText
 10
2295.591794916775
 20
2843.077046087621
 30
0.0
 40
90.0
  1
480
 41
0.6666666666666666
  7
00
100
AcDbText
  0
ENDBLK
  5
24D1B
330
24D89
100
AcDbEntity
  8
0
100
AcDbBlockEnd
  0
BLOCK
  5
24D8A
330
24D8B
100
AcDbEntity
  8
0
100
AcDbBlockBegin
  2
*U14
 70
     1
 10
0.0
 20
0.0
 30
0.0
  3
*U14
  1

  0
TEXT
  5
24D1D
330
24D8B
100
AcDbEntity
  8
SUNPOU
100
AcDbText
 10
5732.326124563217
 20
4252.634136938772
 30
0.0
 40
90.0
  1
L = 2800 x N + 800
 41
0.6666666666666666
  7
00
100
AcDbText
  0
ENDBLK
  5
24D1F
330
24D8B
100
AcDbEntity
  8
0
100
AcDbBlockEnd
  0
ENDSEC
  0
SECTION
  2
ENTITIES
  0
TEXT
  5
20C00
330
24D3B
100
AcDbEntity
  8
HIKIDASHI
100
AcDbText
 10
3120.271559542874
 20
733.9669329272346
 30
0.0
 40
90.0
  1
帯筋
  7
01
100
AcDbText
  0
LINE
  5
20C01
330
24D3B
100
AcDbEntity
  8
HIKIDASHI
100
AcDbLine
 10
3090.271559542875
 20
688.9669329272346
 30
0.0
 11
3867.992860751925
 21
688.9669329272346
 31
0.0
  0
LINE
  5
20C02
330
24D3B
100
AcDbEntity
  8
HIKIDASHI
100
AcDbLine
 10
3222.877259411718
 20
932.4302402870015
 30
0.0
 11
3850.782346820902
 21
932.4302402870015
 31
0.0
  0
TEXT
  5
20C03
330
24D3B
100
AcDbEntity
  8
HIKIDASHI
100
AcDbText
 10
3668.434553268009
 20
733.9669329272346
 30
0.0
 40
90.0
  1
100
 41
0.6700000000000001
  7
00
100
AcDbText
  0
TEXT
  5
20C04
330
24D3B
100
AcDbEntity
  8
HIKIDASHI
100
AcDbText
 10
3447.324547040901
 20
733.9669329272346
 30
0.0
 40
90.0
  1
%%C
 41
0.6700000000000001
  7
00
100
AcDbText
  0
TEXT
  5
20C05
330
24D3B
100
AcDbEntity
  8
HIKIDASHI
100
AcDbText
 10
3369.535512576665
 20
733.9669329272346
 30
0.0
 40
90.0
  1
9
 41
0.6700000000000001
  7
00
100
AcDbText
  0
TEXT
  5
20C06
330
24D3B
100
AcDbEntity
  8
HIKIDASHI
100
AcDbText
 10
3558.949879610634
 20
741.4669329272348
 30
0.0
 40
75.0
  1
ア
  7
01
 72
     1
 11
3591.449879610634
 21
778.9669329272348
 31
0.0
100
AcDbText
 73
     2
  0
CIRCLE
  5
20C07
330
24D3B
100
AcDbEntity
  8
HIKIDASHI
100
AcDbCircle
 10
3591.449879610634
 20
778.9669329272348
 30
0.0
 40
60.0
  0
LINE
  5
20C0B
330
24D3B
100
AcDbEntity
  8
U7
100
AcDbLine
 10
1751.306080631059
 20
1620.744622954002
 30
0.0
 11
2611.306080631061
 21
1620.744622954003
 31
0.0
  0
LINE
  5
20C0C
330
24D3B
100
AcDbEntity
  8
KISO
100
AcDbLine
 10
1581.306080631059
 20
1520.744622954
 30
0.0
 11
2781.306080631061
 21
1520.744622954004
 31
0.0
  0
LINE
  5
20C0D
330
24D3B
100
AcDbEntity
  8
KISO
100
AcDbLine
 10
1581.306080631059
 20
1420.744622953999
 30
0.0
 11
2781.306080631061
 21
1420.744622954003
 31
0.0
  0
LINE
  5
20C0E
330
24D3B
100
AcDbEntity
  8
KISO
100
AcDbLine
 10
1581.306080631059
 20
1570.744622953999
 30
0.0
 11
2781.306080631061
 21
1570.744622954004
 31
0.0
  0
LINE
  5
20C0F
330
24D3B
100
AcDbEntity
  8
HIDE-S1
100
AcDbLine
 10
2621.306080631061
 20
2050.744622954003
 30
0.0
 11
2141.306080631061
 21
2050.744622954003
 31
0.0
  0
LINE
  5
20C10
330
24D3B
100
AcDbEntity
  8
U7
100
AcDbLine
 10
2181.306080631061
 20
1961.244622954002
 30
0.0
 11
2581.306080631061
 21
1961.244622954002
 31
0.0
  0
LINE
  5
20C11
330
24D3B
100
AcDbEntity
  8
U7
100
AcDbLine
 10
2181.306080631061
 20
1861.244622954002
 30
0.0
 11
2581.306080631061
 21
1861.244622954002
 31
0.0
  0
LINE
  5
20C12
330
24D3B
100
AcDbEntity
  8
U7
100
AcDbLine
 10
2181.306080631061
 20
1761.244622954002
 30
0.0
 11
2581.306080631061
 21
1761.244622954003
 31
0.0
  0
LINE
  5
20C13
330
24D3B
100
AcDbEntity
  8
U7
100
AcDbLine
 10
2181.306080631061
 20
1661.244622954002
 30
0.0
 11
2581.306080631061
 21
1661.244622954004
 31
0.0
  0
LINE
  5
20C14
330
24D3B
100
AcDbEntity
  8
U7
100
AcDbLine
 10
2181.306080631061
 20
2161.244622954002
 30
0.0
 11
2581.306080631061
 21
2161.244622954003
 31
0.0
  0
LINE
  5
20C15
330
24D3B
100
AcDbEntity
  8
U7
100
AcDbLine
 10
2181.306080631061
 20
2061.244622954002
 30
0.0
 11
2581.306080631061
 21
2061.244622954003
 31
0.0
  0
LINE
  5
20C1A
330
24D3B
100
AcDbEntity
  8
KISO
100
AcDbLine
 10
2336.756080631058
 20
2200.744622954003
 30
0.0
 11
1077.057301727902
 21
2200.744622954
 31
0.0
  0
LINE
  5
20C1B
330
24D3B
100
AcDbEntity
  8
KISO
100
AcDbLine
 10
1077.057301727902
 20
2050.744622954002
 30
0.0
 11
1681.30608063106
 21
2050.744622954002
 31
0.0
  0
LINE
  5
20C1C
330
24D3B
100
AcDbEntity
  8
KISO
100
AcDbLine
 10
1077.057301727902
 20
2110.744622954002
 30
0.0
 11
1681.30608063106
 21
2110.744622954003
 31
0.0
  0
LINE
  5
20C20
330
24D3B
100
AcDbEntity
  8
SUNPOU
100
AcDbLine
 10
1290.677972800353
 20
2200.744622954
 30
0.0
 11
1342.639497027418
 21
2290.744622954002
 31
0.0
  0
LINE
  5
20C21
330
24D3B
100
AcDbEntity
  8
SUNPOU
100
AcDbLine
 10
1238.716448573286
 20
2290.744622954002
 30
0.0
 11
1290.677972800353
 21
2200.744622954
 31
0.0
  0
TEXT
  5
20C22
330
24D3B
100
AcDbEntity
  8
SUNPOU
100
AcDbText
 10
1222.106544228924
 20
2335.744622954002
 30
0.0
 40
90.0
  1
F.L
 41
0.6666666666666666
  7
00
 72
     4
 11
1290.677972800353
 21
2380.744622954002
 31
0.0
100
AcDbText
  0
LINE
  5
20C23
330
24D3B
100
AcDbEntity
  8
SUNPOU
100
AcDbLine
 10
1342.639497027418
 20
2290.744622954002
 30
0.0
 11
1238.716448573286
 21
2290.744622954002
 31
0.0
  0
LINE
  5
20C25
330
24D3B
100
AcDbEntity
  8
U1
100
AcDbLine
 10
2181.306080631061
 20
2161.244622954002
 30
0.0
 11
2181.306080631061
 21
1656.744622954002
 31
0.0
  0
LINE
  5
20C26
330
24D3B
100
AcDbEntity
  8
KISO
100
AcDbLine
 10
1681.30608063106
 20
2110.744622954003
 30
0.0
 11
1681.30608063106
 21
1570.744622953999
 31
0.0
  0
LINE
  5
20C27
330
24D3B
100
AcDbEntity
  8
HATCH
100
AcDbLine
 10
2151.004565440897
 20
2050.744622954003
 30
0.0
 11
1681.30608063106
 21
1581.046138144165
 31
0.0
  0
LINE
  5
20C28
330
24D3B
100
AcDbEntity
  8
HATCH
100
AcDbLine
 10
2151.30608063106
 20
1810.744622954002
 30
0.0
 11
2007.806080631061
 21
1667.244622954002
 31
0.0
  0
LINE
  5
20C29
330
24D3B
100
AcDbEntity
  8
HATCH
100
AcDbLine
 10
2151.30608063106
 20
1781.046138144167
 30
0.0
 11
2037.504565440896
 21
1667.244622954002
 31
0.0
  0
LINE
  5
20C2A
330
24D3B
100
AcDbEntity
  8
HATCH
100
AcDbLine
 10
2121.306080631061
 20
2050.744622954003
 30
0.0
 11
1681.30608063106
 21
1610.744622953998
 31
0.0
  0
LINE
  5
20C2B
330
24D3B
100
AcDbEntity
  8
HATCH
100
AcDbLine
 10
2091.607595821225
 20
2050.744622954003
 30
0.0
 11
1681.30608063106
 21
1640.443107763833
 31
0.0
  0
CIRCLE
  5
20C2C
330
24D3B
100
AcDbEntity
  8
U7
100
AcDbCircle
 10
2176.80608063106
 20
1761.244622954002
 30
0.0
 40
4.5
  0
LINE
  5
20C2D
330
24D3B
100
AcDbEntity
  8
KISO
100
AcDbLine
 10
1581.306080631059
 20
1420.744622953999
 30
0.0
 11
1581.306080631059
 21
1570.744622953999
 31
0.0
  0
CIRCLE
  5
20C30
330
24D3B
100
AcDbEntity
  8
U7
100
AcDbCircle
 10
1751.306080631059
 20
1627.244622953999
 30
0.0
 40
6.5
  0
LINE
  5
20C32
330
24D3B
100
AcDbEntity
  8
U1
100
AcDbLine
 10
1981.30608063106
 20
1643.744622954002
 30
0.0
 11
2168.306080631059
 21
1643.744622954002
 31
0.0
  0
LINE
  5
20C34
330
24D3B
100
AcDbEntity
  8
HATCH
100
AcDbLine
 10
2151.30608063106
 20
1751.347653334333
 30
0.0
 11
2067.203050250733
 21
1667.244622954002
 31
0.0
  0
LINE
  5
20C36
330
24D3B
100
AcDbEntity
  8
HATCH
100
AcDbLine
 10
1984.203050250726
 20
1584.244622954002
 30
0.0
 11
1970.703050250725
 21
1570.744622953999
 31
0.0
  0
LINE
  5
20C37
330
24D3B
100
AcDbEntity
  8
HATCH
100
AcDbLine
 10
1924.80608063106
 20
1584.244622954002
 30
0.0
 11
1911.30608063106
 21
1570.744622953999
 31
0.0
  0
LINE
  5
20C38
330
24D3B
100
AcDbEntity
  8
HATCH
100
AcDbLine
 10
1954.504565440896
 20
1584.244622954002
 30
0.0
 11
1941.004565440896
 21
1570.744622954002
 31
0.0
  0
LINE
  5
20C39
330
24D3B
100
AcDbEntity
  8
HATCH
100
AcDbLine
 10
2224.50456544089
 20
1584.244622954002
 30
0.0
 11
2211.00456544089
 21
1570.744622954002
 31
0.0
  0
LINE
  5
20C3B
330
24D3B
100
AcDbEntity
  8
HATCH
100
AcDbLine
 10
2254.203050250726
 20
1584.244622954002
 30
0.0
 11
2240.703050250726
 21
1570.744622954002
 31
0.0
  0
LINE
  5
20C3C
330
24D3B
100
AcDbEntity
  8
HATCH
100
AcDbLine
 10
2283.901535060563
 20
1584.244622954002
 30
0.0
 11
2270.401535060562
 21
1570.744622954002
 31
0.0
  0
ARC
  5
20C3D
330
24D3B
100
AcDbEntity
  8
U1
100
AcDbCircle
 10
2168.306080631059
 20
1656.744622954002
 30
0.0
 40
13.0
100
AcDbArc
 50
270.0
 51
0.0
  0
CIRCLE
  5
20C3E
330
24D3B
100
AcDbEntity
  8
U7
100
AcDbCircle
 10
2176.80608063106
 20
1661.244622954002
 30
0.0
 40
4.5
  0
LINE
  5
20C3F
330
24D3B
100
AcDbEntity
  8
KISO
100
AcDbLine
 10
2141.306080631061
 20
2050.744622954003
 30
0.0
 11
1681.30608063106
 21
2050.744622954002
 31
0.0
  0
LINE
  5
20C44
330
24D3B
100
AcDbEntity
  8
HATCH
100
AcDbLine
 10
1821.607595821224
 20
2050.744622954002
 30
0.0
 11
1681.30608063106
 21
1910.443107763828
 31
0.0
  0
LINE
  5
20C45
330
24D3B
100
AcDbEntity
  8
HATCH
100
AcDbLine
 10
1851.30608063106
 20
2050.744622954002
 30
0.0
 11
1681.30608063106
 21
1880.744622953998
 31
0.0
  0
LINE
  5
20C46
330
24D3B
100
AcDbEntity
  8
HATCH
100
AcDbLine
 10
1791.909111011395
 20
2050.744622954002
 30
0.0
 11
1681.30608063106
 21
1940.141592573666
 31
0.0
  0
LINE
  5
20C47
330
24D3B
100
AcDbEntity
  8
KISO
100
AcDbLine
 10
2141.306080631061
 20
2200.744622954001
 30
0.0
 11
2141.306080631061
 21
2050.744622954003
 31
0.0
  0
LINE
  5
20C48
330
24D3B
100
AcDbEntity
  8
KISO
100
AcDbLine
 10
2336.756080631058
 20
2182.744622954003
 30
0.0
 11
2241.30608063106
 21
2062.744622954003
 31
0.0
  0
CIRCLE
  5
20C49
330
24D3B
100
AcDbEntity
  8
U7
100
AcDbCircle
 10
2176.80608063106
 20
1861.244622954004
 30
0.0
 40
4.5
  0
CIRCLE
  5
20C4A
330
24D3B
100
AcDbEntity
  8
U7
100
AcDbCircle
 10
2176.80608063106
 20
1961.244622954002
 30
0.0
 40
4.5
  0
CIRCLE
  5
20C4B
330
24D3B
100
AcDbEntity
  8
U7
100
AcDbCircle
 10
2176.80608063106
 20
2061.244622954002
 30
0.0
 40
4.5
  0
LINE
  5
20C4C
330
24D3B
100
AcDbEntity
  8
HATCH
100
AcDbLine
 10
2231.703050250733
 20
2169.744622954002
 30
0.0
 11
2200.703050250726
 21
2200.744622954001
 31
0.0
  0
LINE
  5
20C4D
330
24D3B
100
AcDbEntity
  8
HATCH
100
AcDbLine
 10
2202.004565440896
 20
2169.744622954002
 30
0.0
 11
2171.004565440897
 21
2200.744622954003
 31
0.0
  0
LINE
  5
20C4E
330
24D3B
100
AcDbEntity
  8
HATCH
100
AcDbLine
 10
2172.306080631061
 20
2169.744622954002
 30
0.0
 11
2141.306080631061
 21
2200.744622954001
 31
0.0
  0
CIRCLE
  5
20C4F
330
24D3B
100
AcDbEntity
  8
U7
100
AcDbCircle
 10
2176.80608063106
 20
2161.244622954002
 30
0.0
 40
4.5
  0
TEXT
  5
20C52
330
24D3B
100
AcDbEntity
  8
HIKIDASHI
100
AcDbText
 10
3252.877259411718
 20
977.4302402870016
 30
0.0
 40
90.0
  1
主筋
  7
01
100
AcDbText
  0
LINE
  5
20C55
330
24D3B
100
AcDbEntity
  8
U1
100
AcDbLine
 10
2581.306080631061
 20
2161.244622954003
 30
0.0
 11
2581.306080631061
 21
1656.744622954002
 31
0.0
  0
CIRCLE
  5
20C57
330
24D3B
100
AcDbEntity
  8
U7
100
AcDbCircle
 10
2585.806080631061
 20
1761.244622954002
 30
0.0
 40
4.5
  0
LINE
  5
20C58
330
24D3B
100
AcDbEntity
  8
KISO
100
AcDbLine
 10
2681.306080631061
 20
1570.744622954002
 30
0.0
 11
2681.306080631061
 21
2050.744622954003
 31
0.0
  0
LINE
  5
20C60
330
24D3B
100
AcDbEntity
  8
U1
100
AcDbLine
 10
2594.30608063106
 20
1643.744622954002
 30
0.0
 11
2627.806080631061
 21
1643.744622954002
 31
0.0
  0
LINE
  5
20C63
330
24D3B
100
AcDbEntity
  8
HATCH
100
AcDbLine
 10
2583.600019870399
 20
1584.244622954003
 30
0.0
 11
2570.100019870398
 21
1570.744622954004
 31
0.0
  0
LINE
  5
20C64
330
24D3B
100
AcDbEntity
  8
HATCH
100
AcDbLine
 10
2553.901535060563
 20
1584.244622954003
 30
0.0
 11
2540.401535060562
 21
1570.744622954004
 31
0.0
  0
LINE
  5
20C65
330
24D3B
100
AcDbEntity
  8
HATCH
100
AcDbLine
 10
2524.203050250726
 20
1584.244622954003
 30
0.0
 11
2510.703050250726
 21
1570.744622954004
 31
0.0
  0
ARC
  5
20C67
330
24D3B
100
AcDbEntity
  8
U1
100
AcDbCircle
 10
2594.30608063106
 20
1656.744622954003
 30
0.0
 40
13.0
100
AcDbArc
 50
180.0
 51
270.0
  0
CIRCLE
  5
20C68
330
24D3B
100
AcDbEntity
  8
U7
100
AcDbCircle
 10
2585.806080631061
 20
1661.244622954004
 30
0.0
 40
4.5
  0
LINE
  5
20C6A
330
24D3B
100
AcDbEntity
  8
KISO
100
AcDbLine
 10
2781.306080631061
 20
1420.744622954003
 30
0.0
 11
2781.306080631061
 21
1570.744622954004
 31
0.0
  0
CIRCLE
  5
20C6B
330
24D3B
100
AcDbEntity
  8
U7
100
AcDbCircle
 10
2611.306080631061
 20
1627.244622954004
 30
0.0
 40
6.5
  0
LINE
  5
20C6C
330
24D3B
100
AcDbEntity
  8
HATCH
100
AcDbLine
 10
2681.306080631061
 20
1741.347653334336
 30
0.0
 11
2611.306080631061
 21
1671.347653334338
 31
0.0
  0
LINE
  5
20C6D
330
24D3B
100
AcDbEntity
  8
HATCH
100
AcDbLine
 10
2681.306080631061
 20
1711.6491685245
 30
0.0
 11
2636.901535060562
 21
1667.244622954003
 31
0.0
  0
LINE
  5
20C6E
330
24D3B
100
AcDbEntity
  8
HATCH
100
AcDbLine
 10
2681.306080631061
 20
1681.950683714664
 30
0.0
 11
2666.600019870398
 21
1667.244622954003
 31
0.0
  0
LINE
  5
20C78
330
24D3B
100
AcDbEntity
  8
U3
100
AcDbLine
 10
3082.666470324264
 20
2170.744622954003
 30
0.0
 11
2621.306080631061
 21
2170.744622954003
 31
0.0
  0
LINE
  5
20C79
330
24D3B
100
AcDbEntity
  8
U3
100
AcDbLine
 10
2831.30608063106
 20
2065.744622954003
 30
0.0
 11
2936.306080631061
 21
2170.744622954003
 31
0.0
  0
LINE
  5
20C7A
330
24D3B
100
AcDbEntity
  8
U3
100
AcDbLine
 10
2799.486275477661
 20
2097.564428107398
 30
0.0
 11
2872.666470324272
 21
2170.744622954003
 31
0.0
  0
LINE
  5
20C7B
330
24D3B
100
AcDbEntity
  8
KISO
100
AcDbLine
 10
2621.306080631061
 20
2050.744622954003
 30
0.0
 11
2621.306080631061
 21
2200.744622954003
 31
0.0
  0
LINE
  5
20C7C
330
24D3B
100
AcDbEntity
  8
KISO
100
AcDbLine
 10
2425.856080631056
 20
2182.744622954003
 30
0.0
 11
2521.30608063106
 21
2062.744622954003
 31
0.0
  0
LINE
  5
20C7D
330
24D3B
100
AcDbEntity
  8
U3
100
AcDbLine
 10
2694.486275477662
 20
2138.924817800609
 30
0.0
 11
2767.666470324272
 21
2065.744622954003
 31
0.0
  0
LINE
  5
20C7E
330
24D3B
100
AcDbEntity
  8
U3
100
AcDbLine
 10
2621.306080631061
 20
2065.744622954003
 30
0.0
 11
2726.306080631061
 21
2170.744622954003
 31
0.0
  0
LINE
  5
20C7F
330
24D3B
100
AcDbEntity
  8
U3
100
AcDbLine
 10
2726.306080631061
 20
2170.744622954003
 30
0.0
 11
2831.30608063106
 21
2065.744622954003
 31
0.0
  0
CIRCLE
  5
20C81
330
24D3B
100
AcDbEntity
  8
U7
100
AcDbCircle
 10
2585.806080631061
 20
1861.244622954004
 30
0.0
 40
4.5
  0
CIRCLE
  5
20C82
330
24D3B
100
AcDbEntity
  8
U7
100
AcDbCircle
 10
2585.806080631061
 20
1961.244622954002
 30
0.0
 40
4.5
  0
CIRCLE
  5
20C83
330
24D3B
100
AcDbEntity
  8
U7
100
AcDbCircle
 10
2585.806080631061
 20
2061.244622954003
 30
0.0
 40
4.5
  0
LINE
  5
20C84
330
24D3B
100
AcDbEntity
  8
HATCH
100
AcDbLine
 10
2681.306080631061
 20
1981.649168524495
 30
0.0
 11
2611.306080631061
 21
1911.649168524498
 31
0.0
  0
LINE
  5
20C85
330
24D3B
100
AcDbEntity
  8
HATCH
100
AcDbLine
 10
2681.306080631061
 20
2011.34765333433
 30
0.0
 11
2611.306080631061
 21
1941.347653334334
 31
0.0
  0
LINE
  5
20C86
330
24D3B
100
AcDbEntity
  8
HATCH
100
AcDbLine
 10
2681.306080631061
 20
2041.046138144167
 30
0.0
 11
2611.306080631061
 21
1971.046138144169
 31
0.0
  0
LINE
  5
20C87
330
24D3B
100
AcDbEntity
  8
KISO
100
AcDbLine
 10
2681.306080631061
 20
2050.744622954003
 30
0.0
 11
2621.306080631061
 21
2050.744622954003
 31
0.0
  0
LINE
  5
20C88
330
24D3B
100
AcDbEntity
  8
U3
100
AcDbLine
 10
2662.666470324271
 20
2107.105012647215
 30
0.0
 11
2704.026860017481
 21
2065.744622954003
 31
0.0
  0
LINE
  5
20C8A
330
24D3B
100
AcDbEntity
  8
KISO
100
AcDbLine
 10
2621.306080631061
 20
2200.744622954003
 30
0.0
 11
2425.856080631056
 21
2200.744622954003
 31
0.0
  0
LINE
  5
20C8B
330
24D3B
100
AcDbEntity
  8
HATCH
100
AcDbLine
 10
2501.703050250733
 20
2169.744622954004
 30
0.0
 11
2470.703050250726
 21
2200.744622954003
 31
0.0
  0
LINE
  5
20C8C
330
24D3B
100
AcDbEntity
  8
HATCH
100
AcDbLine
 10
2472.00456544089
 20
2169.744622954002
 30
0.0
 11
2441.00456544089
 21
2200.744622954003
 31
0.0
  0
LINE
  5
20C8D
330
24D3B
100
AcDbEntity
  8
HATCH
100
AcDbLine
 10
2531.40153506057
 20
2169.744622954004
 30
0.0
 11
2500.401535060563
 21
2200.744622954003
 31
0.0
  0
CIRCLE
  5
20C8E
330
24D3B
100
AcDbEntity
  8
U7
100
AcDbCircle
 10
2585.806080631061
 20
2161.244622954003
 30
0.0
 40
4.5
  0
LINE
  5
20C8F
330
24D3B
100
AcDbEntity
  8
U3
100
AcDbLine
 10
2621.306080631061
 20
2129.384233260791
 30
0.0
 11
2662.666470324271
 21
2170.744622954003
 31
0.0
  0
LINE
  5
20C90
330
24D3B
100
AcDbEntity
  8
U3
100
AcDbLine
 10
2767.666470324272
 20
2129.384233260795
 30
0.0
 11
2809.026860017475
 21
2170.744622954003
 31
0.0
  0
LINE
  5
20C91
330
24D3B
100
AcDbEntity
  8
U3
100
AcDbLine
 10
2936.306080631061
 20
2170.744622954003
 30
0.0
 11
3041.306080631053
 21
2065.744622954003
 31
0.0
  0
LINE
  5
20C92
330
24D3B
100
AcDbEntity
  8
U3
100
AcDbLine
 10
2904.486275477662
 20
2138.924817800609
 30
0.0
 11
2977.666470324272
 21
2065.744622954003
 31
0.0
  0
LINE
  5
20C93
330
24D3B
100
AcDbEntity
  8
U3
100
AcDbLine
 10
3009.486275477663
 20
2097.564428107398
 30
0.0
 11
3082.666470324264
 21
2170.744622954003
 31
0.0
  0
LINE
  5
20C96
330
24D3B
100
AcDbEntity
  8
U3
100
AcDbLine
 10
2872.666470324272
 20
2107.105012647215
 30
0.0
 11
2914.026860017482
 21
2065.744622954003
 31
0.0
  0
LINE
  5
20C97
330
24D3B
100
AcDbEntity
  8
U3
100
AcDbLine
 10
2977.666470324264
 20
2129.384233260795
 30
0.0
 11
3019.026860017475
 21
2170.744622954003
 31
0.0
  0
TEXT
  5
20C98
330
24D3B
100
AcDbEntity
  8
HIKIDASHI
100
AcDbText
 10
3502.141212445502
 20
977.4302402870016
 30
0.0
 40
90.0
  1
4-D13
 41
0.6700000000000001
  7
00
100
AcDbText
  0
LINE
  5
20C9B
330
24D3B
100
AcDbEntity
  8
KISO-1
100
AcDbLine
 10
1596.040410277506
 20
6198.464770760363
 30
0.0
 11
2396.040410277506
 21
6198.464770760363
 31
0.0
  0
LINE
  5
20C9C
330
24D3B
100
AcDbEntity
  8
KISO-1
100
AcDbLine
 10
2396.040410277506
 20
7198.464770760367
 30
0.0
 11
1596.040410277506
 21
7198.464770760367
 31
0.0
  0
LINE
  5
20CA0
330
24D3B
100
AcDbEntity
  8
SUNPOU
100
AcDbLine
 10
1846.49041027751
 20
6898.464770760367
 30
0.0
 11
1101.040410277506
 21
6898.464770760367
 31
0.0
  0
TEXT
  5
20CA1
330
24D3B
100
AcDbEntity
  8
HIKIDASHI
100
AcDbText
 10
1551.040410277506
 20
5057.939776035563
 30
0.0
 40
90.0
  1
（土間コン側面位置）
 50
90.0
  7
01
100
AcDbText
  0
TEXT
  5
20CA2
330
24D3B
100
AcDbEntity
  8
SUNPOU
100
AcDbText
 10
1101.040410277506
 20
5784.179056474648
 30
0.0
 40
90.0
  1
2000
 50
90.0
 41
0.6666666666666666
  7
00
 72
     1
 11
1056.040410277506
 21
5898.464770760362
 31
0.0
100
AcDbText
 73
     2
  0
LINE
  5
20CA3
330
24D3B
100
AcDbEntity
  8
SUNPOU
100
AcDbLine
 10
1146.040410277506
 20
6883.464770760365
 30
0.0
 11
1146.040410277506
 21
4913.464770760362
 31
0.0
  0
LINE
  5
20CA4
330
24D3B
100
AcDbEntity
  8
SUNPOU
100
AcDbLine
 10
1566.040410277506
 20
4898.464770760362
 30
0.0
 11
1101.040410277506
 21
4898.464770760362
 31
0.0
  0
LINE
  5
20CA5
330
24D3B
100
AcDbEntity
  8
SUNPOU
100
AcDbLine
 10
1566.040410277506
 20
7138.464770760363
 30
0.0
 11
1101.040410277506
 21
7138.464770760363
 31
0.0
  0
TEXT
  5
20CA6
330
24D3B
100
AcDbEntity
  8
SUNPOU
100
AcDbText
 10
1101.040410277506
 20
6932.750485046077
 30
0.0
 40
90.0
  1
240
 50
90.0
 41
0.6666666666666666
  7
00
 72
     4
 11
1056.040410277506
 21
7018.464770760363
 31
0.0
100
AcDbText
  0
LINE
  5
20CA7
330
24D3B
100
AcDbEntity
  8
SUNPOU
100
AcDbLine
 10
1146.040410277506
 20
7123.464770760365
 30
0.0
 11
1146.040410277506
 21
6913.464770760363
 31
0.0
  0
LINE
  5
20CA8
330
24D3B
100
AcDbEntity
  8
KISO-1
100
AcDbLine
 10
1596.040410277506
 20
7198.464770760367
 30
0.0
 11
1596.040410277506
 21
7138.464770760363
 31
0.0
  0
LINE
  5
20CA9
330
24D3B
100
AcDbEntity
  8
SIN
100
AcDbLine
 10
4796.040410277506
 20
7265.464770760366
 30
0.0
 11
4796.040410277506
 21
6131.464770760363
 31
0.0
  0
TEXT
  5
20CAA
330
24D3B
100
AcDbEntity
  8
HIKIDASHI
100
AcDbText
 10
2871.820460487731
 20
7183.46477076037
 30
0.0
 40
90.0
  1
（土間コン後面位置）
  7
01
100
AcDbText
  0
LINE
  5
20CAB
330
24D3B
100
AcDbEntity
  8
SIN
100
AcDbLine
 10
1996.040410277506
 20
7265.464770760366
 30
0.0
 11
1996.040410277506
 21
6131.464770760363
 31
0.0
  0
TEXT
  5
20CAC
330
24D3B
100
AcDbEntity
  8
HIKIDASHI
100
AcDbText
 10
1909.239757226277
 20
5166.585865697096
 30
0.0
 40
90.0
  1
（ケラバ外面）
 50
90.0
  7
01
100
AcDbText
  0
TEXT
  5
20CAD
330
24D3B
100
AcDbEntity
  8
HIKIDASHI
100
AcDbText
 10
2871.820460487731
 20
4763.464770760356
 30
0.0
 40
90.0
  1
（土間コン前面位置）
  7
01
100
AcDbText
  0
TEXT
  5
20CAE
330
24D3B
100
AcDbEntity
  8
HIKIDASHI
100
AcDbText
 10
2980.466550149264
 20
5054.915498379021
 30
0.0
 40
90.0
  1
（鼻隠し外面）
  7
01
100
AcDbText
  0
LINE
  5
20CB0
330
24D3B
100
AcDbEntity
  8
KISO-1
100
AcDbLine
 10
2396.040410277506
 20
6198.464770760363
 30
0.0
 11
2396.040410277506
 21
7198.464770760367
 31
0.0
  0
CIRCLE
  5
20CB1
330
24D3B
100
AcDbEntity
  8
KISO-2
100
AcDbCircle
 10
1996.040410277506
 20
6898.464770760367
 30
0.0
 40
44.55
  0
LINE
  5
20CB3
330
24D3B
100
AcDbEntity
  8
BOLT
100
AcDbLine
 10
1866.040410277506
 20
6798.464770760365
 30
0.0
 11
1926.040410277505
 21
6798.464770760365
 31
0.0
  0
LINE
  5
20CB4
330
24D3B
100
AcDbEntity
  8
BOLT
100
AcDbLine
 10
1896.040410277506
 20
6768.464770760366
 30
0.0
 11
1896.040410277506
 21
6828.464770760366
 31
0.0
  0
LINE
  5
20CB5
330
24D3B
100
AcDbEntity
  8
BOLT
100
AcDbLine
 10
2126.040410277507
 20
6798.464770760365
 30
0.0
 11
2066.040410277506
 21
6798.464770760365
 31
0.0
  0
LINE
  5
20CB6
330
24D3B
100
AcDbEntity
  8
BOLT
100
AcDbLine
 10
2096.040410277506
 20
6768.464770760366
 30
0.0
 11
2096.040410277506
 21
6828.464770760366
 31
0.0
  0
LINE
  5
20CB7
330
24D3B
100
AcDbEntity
  8
SIN
100
AcDbLine
 10
2115.590410277508
 20
6898.464770760367
 30
0.0
 11
1876.490410277511
 21
6898.464770760367
 31
0.0
  0
LINE
  5
20CB8
330
24D3B
100
AcDbEntity
  8
BOLT
100
AcDbLine
 10
1866.040410277506
 20
6998.464770760365
 30
0.0
 11
1926.040410277505
 21
6998.464770760365
 31
0.0
  0
LINE
  5
20CB9
330
24D3B
100
AcDbEntity
  8
BOLT
100
AcDbLine
 10
1896.040410277506
 20
7028.464770760365
 30
0.0
 11
1896.040410277506
 21
6968.464770760363
 31
0.0
  0
LINE
  5
20CBA
330
24D3B
100
AcDbEntity
  8
BOLT
100
AcDbLine
 10
2126.040410277507
 20
6998.464770760365
 30
0.0
 11
2066.040410277506
 21
6998.464770760365
 31
0.0
  0
LINE
  5
20CBB
330
24D3B
100
AcDbEntity
  8
BOLT
100
AcDbLine
 10
2096.040410277506
 20
7028.464770760365
 30
0.0
 11
2096.040410277506
 21
6968.464770760363
 31
0.0
  0
TEXT
  5
20CBC
330
24D3B
100
AcDbEntity
  8
HIKIDASHI
100
AcDbText
 10
2980.466550149264
 20
6892.014043141705
 30
0.0
 40
90.0
  1
（屋根後面位置）
  7
01
100
AcDbText
  0
LINE
  5
20CBD
330
24D3B
100
AcDbEntity
  8
U2
100
AcDbLine
 10
6136.040410277513
 20
7213.464770760366
 30
0.0
 11
6136.040410277513
 21
4823.464770760362
 31
0.0
  0
LINE
  5
20CBE
330
24D3B
100
AcDbEntity
  8
U2
100
AcDbLine
 10
6256.040410277513
 20
7213.464770760366
 30
0.0
 11
6256.040410277513
 21
4823.464770760362
 31
0.0
  0
CIRCLE
  5
20CC1
330
24D3B
100
AcDbEntity
  8
KISO-2
100
AcDbCircle
 10
4796.040410277506
 20
6898.464770760367
 30
0.0
 40
44.55
  0
LINE
  5
20CC3
330
24D3B
100
AcDbEntity
  8
BOLT
100
AcDbLine
 10
4926.040410277506
 20
6798.464770760365
 30
0.0
 11
4866.040410277514
 21
6798.464770760365
 31
0.0
  0
LINE
  5
20CC4
330
24D3B
100
AcDbEntity
  8
BOLT
100
AcDbLine
 10
4666.040410277506
 20
6798.464770760365
 30
0.0
 11
4726.040410277506
 21
6798.464770760365
 31
0.0
  0
LINE
  5
20CC5
330
24D3B
100
AcDbEntity
  8
BOLT
100
AcDbLine
 10
4696.040410277514
 20
6768.464770760366
 30
0.0
 11
4696.040410277514
 21
6828.464770760366
 31
0.0
  0
LINE
  5
20CC6
330
24D3B
100
AcDbEntity
  8
BOLT
100
AcDbLine
 10
4896.040410277514
 20
6768.464770760366
 30
0.0
 11
4896.040410277514
 21
6828.464770760366
 31
0.0
  0
LINE
  5
20CC7
330
24D3B
100
AcDbEntity
  8
SIN
100
AcDbLine
 10
4915.590410277509
 20
6898.464770760367
 30
0.0
 11
4676.490410277511
 21
6898.464770760367
 31
0.0
  0
LINE
  5
20CC8
330
24D3B
100
AcDbEntity
  8
BOLT
100
AcDbLine
 10
4926.040410277506
 20
6998.464770760365
 30
0.0
 11
4866.040410277514
 21
6998.464770760365
 31
0.0
  0
LINE
  5
20CC9
330
24D3B
100
AcDbEntity
  8
BOLT
100
AcDbLine
 10
4666.040410277506
 20
6998.464770760365
 30
0.0
 11
4726.040410277506
 21
6998.464770760365
 31
0.0
  0
LINE
  5
20CCA
330
24D3B
100
AcDbEntity
  8
BOLT
100
AcDbLine
 10
4696.040410277514
 20
7028.464770760365
 30
0.0
 11
4696.040410277514
 21
6968.464770760363
 31
0.0
  0
LINE
  5
20CCB
330
24D3B
100
AcDbEntity
  8
BOLT
100
AcDbLine
 10
4896.040410277514
 20
7028.464770760365
 30
0.0
 11
4896.040410277514
 21
6968.464770760363
 31
0.0
  0
LINE
  5
20CD7
330
24D3B
100
AcDbEntity
  8
SUNPOU
100
AcDbLine
 10
10826.04041027749
 20
7198.464770760367
 30
0.0
 11
11081.0404102775
 21
7198.464770760367
 31
0.0
  0
LINE
  5
20CD8
330
24D3B
100
AcDbEntity
  8
SUNPOU
100
AcDbLine
 10
10556.0404102775
 20
6998.464770760365
 30
0.0
 11
11291.04041027749
 21
6998.464770760365
 31
0.0
  0
LINE
  5
20CD9
330
24D3B
100
AcDbEntity
  8
SUNPOU
100
AcDbLine
 10
10556.0404102775
 20
6798.464770760365
 30
0.0
 11
11291.04041027749
 21
6798.464770760365
 31
0.0
  0
LINE
  5
20CDA
330
24D3B
100
AcDbEntity
  8
SUNPOU
100
AcDbLine
 10
10826.04041027749
 20
6198.464770760363
 30
0.0
 11
11501.04041027749
 21
6198.464770760363
 31
0.0
  0
LINE
  5
20CDB
330
24D3B
100
AcDbEntity
  8
SUNPOU
100
AcDbLine
 10
10826.04041027749
 20
7138.464770760363
 30
0.0
 11
11501.04041027749
 21
7138.464770760363
 31
0.0
  0
LINE
  5
20CDC
330
24D3B
100
AcDbEntity
  8
SUNPOU
100
AcDbLine
 10
10666.04041027749
 20
6658.464770760365
 30
0.0
 11
11501.04041027749
 21
6658.464770760365
 31
0.0
  0
LINE
  5
20CDD
330
24D3B
100
AcDbEntity
  8
SIN
100
AcDbLine
 10
7596.040410277514
 20
7265.464770760366
 30
0.0
 11
7596.040410277514
 21
6131.464770760363
 31
0.0
  0
LINE
  5
20CDE
330
24D3B
100
AcDbEntity
  8
SIN
100
AcDbLine
 10
10396.0404102775
 20
7265.464770760366
 30
0.0
 11
10396.0404102775
 21
6131.464770760363
 31
0.0
  0
LINE
  5
20CDF
330
24D3B
100
AcDbEntity
  8
SUNPOU
100
AcDbLine
 10
9996.040410277515
 20
7228.464770760365
 30
0.0
 11
9996.040410277515
 21
8113.464770760366
 31
0.0
  0
LINE
  5
20CE0
330
24D3B
100
AcDbEntity
  8
SUNPOU
100
AcDbLine
 10
10636.04041027749
 20
7168.464770760363
 30
0.0
 11
10636.04041027749
 21
7903.464770760365
 31
0.0
  0
LINE
  5
20CE1
330
24D3B
100
AcDbEntity
  8
SUNPOU
100
AcDbLine
 10
10156.0404102775
 20
7168.464770760363
 30
0.0
 11
10156.0404102775
 21
7903.464770760365
 31
0.0
  0
LINE
  5
20CE2
330
24D3B
100
AcDbEntity
  8
SUNPOU
100
AcDbLine
 10
10536.0404102775
 20
7068.464770760361
 30
0.0
 11
10536.0404102775
 21
7693.464770760361
 31
0.0
  0
LINE
  5
20CE3
330
24D3B
100
AcDbEntity
  8
SUNPOU
100
AcDbLine
 10
10256.0404102775
 20
7068.464770760361
 30
0.0
 11
10256.0404102775
 21
7693.464770760361
 31
0.0
  0
LINE
  5
20CE4
330
24D3B
100
AcDbEntity
  8
SUNPOU
100
AcDbLine
 10
10496.0404102775
 20
7058.464770760362
 30
0.0
 11
10496.0404102775
 21
7483.464770760362
 31
0.0
  0
LINE
  5
20CE5
330
24D3B
100
AcDbEntity
  8
SUNPOU
100
AcDbLine
 10
10296.0404102775
 20
7058.464770760362
 30
0.0
 11
10296.0404102775
 21
7483.464770760362
 31
0.0
  0
LINE
  5
20CE6
330
24D3B
100
AcDbEntity
  8
HIKIDASHI
100
AcDbLine
 10
10253.72462945639
 20
7041.001515975533
 30
0.0
 11
9858.326065489272
 21
7438.464770760361
 31
0.0
  0
LINE
  5
20CE7
330
24D3B
100
AcDbEntity
  8
HIKIDASHI
100
AcDbLine
 10
10446.65477445577
 20
7032.539086226454
 30
0.0
 11
9858.326065489272
 21
7438.464770760366
 31
0.0
  0
LINE
  5
20CE8
330
24D3B
100
AcDbEntity
  8
SUNPOU
100
AcDbLine
 10
10796.04041027749
 20
7228.464770760365
 30
0.0
 11
10796.04041027749
 21
8113.464770760366
 31
0.0
  0
LINE
  5
20CE9
330
24D3B
100
AcDbEntity
  8
BOLT
100
AcDbLine
 10
7466.040410277513
 20
6998.464770760365
 30
0.0
 11
7526.040410277514
 21
6998.464770760365
 31
0.0
  0
LINE
  5
20CEA
330
24D3B
100
AcDbEntity
  8
SIN
100
AcDbLine
 10
7715.59041027751
 20
6898.464770760367
 30
0.0
 11
7476.49041027751
 21
6898.464770760367
 31
0.0
  0
LINE
  5
20CEB
330
24D3B
100
AcDbEntity
  8
BOLT
100
AcDbLine
 10
7466.040410277513
 20
6798.464770760365
 30
0.0
 11
7526.040410277514
 21
6798.464770760365
 31
0.0
  0
CIRCLE
  5
20CEF
330
24D3B
100
AcDbEntity
  8
KISO-2
100
AcDbCircle
 10
7596.040410277514
 20
6898.464770760367
 30
0.0
 40
44.55
  0
LINE
  5
20CF0
330
24D3B
100
AcDbEntity
  8
BOLT
100
AcDbLine
 10
7496.040410277514
 20
6768.464770760366
 30
0.0
 11
7496.040410277514
 21
6828.464770760366
 31
0.0
  0
LINE
  5
20CF1
330
24D3B
100
AcDbEntity
  8
BOLT
100
AcDbLine
 10
7696.040410277515
 20
6768.464770760366
 30
0.0
 11
7696.040410277515
 21
6828.464770760366
 31
0.0
  0
LINE
  5
20CF2
330
24D3B
100
AcDbEntity
  8
BOLT
100
AcDbLine
 10
7726.040410277514
 20
6798.464770760365
 30
0.0
 11
7666.040410277513
 21
6798.464770760365
 31
0.0
  0
LINE
  5
20CF3
330
24D3B
100
AcDbEntity
  8
BOLT
100
AcDbLine
 10
7496.040410277514
 20
7028.464770760365
 30
0.0
 11
7496.040410277514
 21
6968.464770760363
 31
0.0
  0
LINE
  5
20CF4
330
24D3B
100
AcDbEntity
  8
BOLT
100
AcDbLine
 10
7696.040410277515
 20
7028.464770760365
 30
0.0
 11
7696.040410277515
 21
6968.464770760363
 31
0.0
  0
LINE
  5
20CF5
330
24D3B
100
AcDbEntity
  8
BOLT
100
AcDbLine
 10
7726.040410277514
 20
6998.464770760365
 30
0.0
 11
7666.040410277513
 21
6998.464770760365
 31
0.0
  0
TEXT
  5
20CF6
330
24D3B
100
AcDbEntity
  8
HIKIDASHI
100
AcDbText
 10
10572.84106332874
 20
5166.585865697096
 30
0.0
 40
90.0
  1
（ケラバ外面）
 50
90.0
  7
01
100
AcDbText
  0
LINE
  5
20CF9
330
24D3B
100
AcDbEntity
  8
SUNPOU
100
AcDbLine
 10
10246.4904102775
 20
6898.464770760367
 30
0.0
 11
9501.040410277514
 21
6898.464770760367
 31
0.0
  0
LINE
  5
20CFA
330
24D3B
100
AcDbEntity
  8
HIKIDASHI
100
AcDbLine
 10
9742.640957241215
 20
6254.879302087655
 30
0.0
 11
9858.326065489272
 21
6254.879302087655
 31
0.0
  0
LINE
  5
20CFB
330
24D3B
100
AcDbEntity
  8
SUNPOU
100
AcDbLine
 10
9966.040410277514
 20
6198.464770760363
 30
0.0
 11
9291.040410277513
 21
6198.464770760363
 31
0.0
  0
LINE
  5
20CFC
330
24D3B
100
AcDbEntity
  8
SUNPOU
100
AcDbLine
 10
9966.040410277514
 20
7198.464770760367
 30
0.0
 11
9291.040410277513
 21
7198.464770760367
 31
0.0
  0
LINE
  5
20CFD
330
24D3B
100
AcDbEntity
  8
SUNPOU
100
AcDbLine
 10
9336.040410277513
 20
6213.464770760365
 30
0.0
 11
9336.040410277513
 21
7183.464770760362
 31
0.0
  0
LINE
  5
20CFE
330
24D3B
100
AcDbEntity
  8
SUNPOU
100
AcDbLine
 10
9546.040410277514
 20
6213.464770760365
 30
0.0
 11
9546.040410277514
 21
6883.464770760365
 31
0.0
  0
TEXT
  5
20CFF
330
24D3B
100
AcDbEntity
  8
SUNPOU
100
AcDbText
 10
9501.040410277514
 20
6462.750485046079
 30
0.0
 40
90.0
  1
700
 50
90.0
 41
0.6666666666666666
  7
00
 72
     1
 11
9456.040410277514
 21
6548.464770760365
 31
0.0
100
AcDbText
 73
     2
  0
TEXT
  5
20D00
330
24D3B
100
AcDbEntity
  8
HIKIDASHI
100
AcDbText
 10
9752.640957241219
 20
6299.879302087655
 30
0.0
 40
90.0
  1
柱
  7
01
100
AcDbText
  0
TEXT
  5
20D01
330
24D3B
100
AcDbEntity
  8
SUNPOU
100
AcDbText
 10
9291.040410277513
 20
6579.893342188937
 30
0.0
 40
90.0
  1
1000
 50
90.0
 41
0.6666666666666666
  7
00
 72
     1
 11
9246.040410277513
 21
6698.464770760367
 31
0.0
100
AcDbText
 73
     2
  0
TEXT
  5
20D02
330
24D3B
100
AcDbEntity
  8
SUNPOU
100
AcDbText
 10
9501.040410277514
 20
6955.312725517732
 30
0.0
 40
90.0
  1
300
 50
90.0
 41
0.6666666666666666
  7
00
 72
     1
 11
9456.040410277514
 21
7041.027011232016
 31
0.0
100
AcDbText
 73
     2
  0
LINE
  5
20D03
330
24D3B
100
AcDbEntity
  8
SUNPOU
100
AcDbLine
 10
9546.040410277514
 20
6913.464770760363
 30
0.0
 11
9546.040410277514
 21
7183.464770760362
 31
0.0
  0
LINE
  5
20D04
330
24D3B
100
AcDbEntity
  8
KISO-1
100
AcDbLine
 10
9996.040410277515
 20
6198.464770760363
 30
0.0
 11
9996.040410277515
 21
7198.464770760367
 31
0.0
  0
LINE
  5
20D05
330
24D3B
100
AcDbEntity
  8
HIKIDASHI
100
AcDbLine
 10
10329.00669067599
 20
6818.232713972658
 30
0.0
 11
9858.326065489272
 21
6254.879302087655
 31
0.0
  0
LINE
  5
20D06
330
24D3B
100
AcDbEntity
  8
KISO-1
100
AcDbLine
 10
10796.04041027749
 20
6198.464770760363
 30
0.0
 11
9996.040410277515
 21
6198.464770760363
 31
0.0
  0
LINE
  5
20D07
330
24D3B
100
AcDbEntity
  8
KISO-1
100
AcDbLine
 10
9996.040410277515
 20
7198.464770760367
 30
0.0
 11
10796.04041027749
 21
7198.464770760367
 31
0.0
  0
LINE
  5
20D0A
330
24D3B
100
AcDbEntity
  8
SIN
100
AcDbLine
 10
10515.59041027749
 20
6898.464770760367
 30
0.0
 11
10276.49041027752
 21
6898.464770760367
 31
0.0
  0
LINE
  5
20D0C
330
24D3B
100
AcDbEntity
  8
BOLT
100
AcDbLine
 10
10296.0404102775
 20
6768.464770760366
 30
0.0
 11
10296.0404102775
 21
6828.464770760366
 31
0.0
  0
LINE
  5
20D0D
330
24D3B
100
AcDbEntity
  8
BOLT
100
AcDbLine
 10
10266.04041027749
 20
6798.464770760365
 30
0.0
 11
10326.04041027749
 21
6798.464770760365
 31
0.0
  0
LINE
  5
20D0E
330
24D3B
100
AcDbEntity
  8
BOLT
100
AcDbLine
 10
10296.0404102775
 20
7028.464770760365
 30
0.0
 11
10296.0404102775
 21
6968.464770760363
 31
0.0
  0
LINE
  5
20D0F
330
24D3B
100
AcDbEntity
  8
BOLT
100
AcDbLine
 10
10266.04041027749
 20
6998.464770760365
 30
0.0
 11
10326.04041027749
 21
6998.464770760365
 31
0.0
  0
CIRCLE
  5
20D11
330
24D3B
100
AcDbEntity
  8
KISO-2
100
AcDbCircle
 10
10396.0404102775
 20
6898.464770760367
 30
0.0
 40
44.55
  0
LINE
  5
20D12
330
24D3B
100
AcDbEntity
  8
BOLT
100
AcDbLine
 10
10526.04041027749
 20
6798.464770760365
 30
0.0
 11
10466.04041027749
 21
6798.464770760365
 31
0.0
  0
LINE
  5
20D13
330
24D3B
100
AcDbEntity
  8
BOLT
100
AcDbLine
 10
10496.0404102775
 20
6768.464770760366
 30
0.0
 11
10496.0404102775
 21
6828.464770760366
 31
0.0
  0
LINE
  5
20D14
330
24D3B
100
AcDbEntity
  8
BOLT
100
AcDbLine
 10
10526.04041027749
 20
6998.464770760365
 30
0.0
 11
10466.04041027749
 21
6998.464770760365
 31
0.0
  0
LINE
  5
20D16
330
24D3B
100
AcDbEntity
  8
BOLT
100
AcDbLine
 10
10496.0404102775
 20
7028.464770760365
 30
0.0
 11
10496.0404102775
 21
6968.464770760363
 31
0.0
  0
LINE
  5
20D17
330
24D3B
100
AcDbEntity
  8
KISO-1
100
AcDbLine
 10
10796.04041027749
 20
7198.464770760367
 30
0.0
 11
10796.04041027749
 21
7138.464770760363
 31
0.0
  0
TEXT
  5
20D18
330
24D3B
100
AcDbEntity
  8
SUNPOU
100
AcDbText
 10
10310.32612456321
 20
7903.464770760367
 30
0.0
 40
90.0
  1
480
 41
0.6666666666666666
  7
00
 72
     1
 11
10396.0404102775
 21
7948.464770760367
 31
0.0
100
AcDbText
 73
     2
  0
TEXT
  5
20D19
330
24D3B
100
AcDbEntity
  8
SUNPOU
100
AcDbText
 10
10626.04041027749
 20
7903.464770760367
 30
0.0
 40
90.0
  1
160
 41
0.6666666666666666
  7
00
 72
     4
 11
10716.04041027749
 21
7948.464770760367
 31
0.0
100
AcDbText
  0
TEXT
  5
20D1A
330
24D3B
100
AcDbEntity
  8
SUNPOU
100
AcDbText
 10
9986.0404102775
 20
7903.464770760367
 30
0.0
 40
90.0
  1
160
 41
0.6666666666666666
  7
00
 72
     4
 11
10076.0404102775
 21
7948.464770760367
 31
0.0
100
AcDbText
  0
TEXT
  5
20D1B
330
24D3B
100
AcDbEntity
  8
SUNPOU
100
AcDbText
 10
10310.32612456321
 20
7693.464770760363
 30
0.0
 40
90.0
  1
280
 41
0.6666666666666666
  7
00
 72
     1
 11
10396.0404102775
 21
7738.464770760363
 31
0.0
100
AcDbText
 73
     2
  0
TEXT
  5
20D1C
330
24D3B
100
AcDbEntity
  8
SUNPOU
100
AcDbText
 10
10310.32612456321
 20
7483.464770760365
 30
0.0
 40
90.0
  1
200
 41
0.6666666666666666
  7
00
 72
     1
 11
10396.0404102775
 21
7528.464770760365
 31
0.0
100
AcDbText
 73
     2
  0
LINE
  5
20D1D
330
24D3B
100
AcDbEntity
  8
SUNPOU
100
AcDbLine
 10
10481.0404102775
 20
7438.464770760361
 30
0.0
 11
10311.04041027749
 21
7438.464770760361
 31
0.0
  0
LINE
  5
20D1E
330
24D3B
100
AcDbEntity
  8
SUNPOU
100
AcDbLine
 10
10621.0404102775
 20
7858.464770760362
 30
0.0
 11
10171.04041027749
 21
7858.464770760362
 31
0.0
  0
LINE
  5
20D1F
330
24D3B
100
AcDbEntity
  8
SUNPOU
100
AcDbLine
 10
10521.0404102775
 20
7648.464770760367
 30
0.0
 11
10271.04041027749
 21
7648.464770760367
 31
0.0
  0
LINE
  5
20D20
330
24D3B
100
AcDbEntity
  8
SUNPOU
100
AcDbLine
 10
10141.04041027749
 20
7858.464770760362
 30
0.0
 11
10011.04041027749
 21
7858.464770760362
 31
0.0
  0
LINE
  5
20D21
330
24D3B
100
AcDbEntity
  8
SUNPOU
100
AcDbLine
 10
10781.0404102775
 20
7858.464770760362
 30
0.0
 11
10651.04041027749
 21
7858.464770760362
 31
0.0
  0
TEXT
  5
20D22
330
24D3B
100
AcDbEntity
  8
SUNPOU
100
AcDbText
 10
10310.32612456321
 20
8113.464770760366
 30
0.0
 40
90.0
  1
800
 41
0.6666666666666666
  7
00
 72
     1
 11
10396.0404102775
 21
8158.464770760366
 31
0.0
100
AcDbText
 73
     2
  0
LINE
  5
20D23
330
24D3B
100
AcDbEntity
  8
SUNPOU
100
AcDbLine
 10
10781.0404102775
 20
8068.464770760362
 30
0.0
 11
10011.04041027749
 21
8068.464770760362
 31
0.0
  0
TEXT
  5
20D24
330
24D3B
100
AcDbEntity
  8
SUNPOU
100
AcDbText
 10
11411.04041027749
 20
7221.256328326432
 30
0.0
 40
90.0
  1
60
 50
90.0
 41
0.6666666666666666
  7
00
 72
     4
 11
11366.0404102775
 21
7279.827756897859
 31
0.0
100
AcDbText
  0
LINE
  5
20D25
330
24D3B
100
AcDbEntity
  8
SUNPOU
100
AcDbLine
 10
11456.04041027749
 20
7198.464770760367
 30
0.0
 11
11456.04041027749
 21
7343.484166610048
 31
0.0
  0
TEXT
  5
20D26
330
24D3B
100
AcDbEntity
  8
SUNPOU
100
AcDbText
 10
11201.0404102775
 20
7148.775790791294
 30
0.0
 40
90.0
  1
140
 50
90.0
 41
0.6666666666666666
  7
00
 72
     4
 11
11156.04041027749
 21
7238.775790791293
 31
0.0
100
AcDbText
  0
LINE
  5
20D27
330
24D3B
100
AcDbEntity
  8
SUNPOU
100
AcDbLine
 10
11246.0404102775
 20
7138.464770760363
 30
0.0
 11
11246.0404102775
 21
7323.449541931927
 31
0.0
  0
TEXT
  5
20D28
330
24D3B
100
AcDbEntity
  8
HIKIDASHI
100
AcDbText
 10
10931.04041027751
 20
5057.939776035563
 30
0.0
 40
90.0
  1
（土間コン側面位置）
 50
90.0
  7
01
100
AcDbText
  0
LINE
  5
20D29
330
24D3B
100
AcDbEntity
  8
SUNPOU
100
AcDbLine
 10
11456.04041027749
 20
6643.464770760363
 30
0.0
 11
11456.04041027749
 21
6213.464770760365
 31
0.0
  0
TEXT
  5
20D2A
330
24D3B
100
AcDbEntity
  8
SUNPOU
100
AcDbText
 10
11201.0404102775
 20
6473.314702674582
 30
0.0
 40
90.0
  1
140
 50
90.0
 41
0.6666666666666666
  7
00
 72
     4
 11
11156.04041027749
 21
6563.314702674583
 31
0.0
100
AcDbText
  0
LINE
  5
20D2B
330
24D3B
100
AcDbEntity
  8
SUNPOU
100
AcDbLine
 10
11246.0404102775
 20
6658.464770760365
 30
0.0
 11
11246.0404102775
 21
6480.49602835253
 31
0.0
  0
TEXT
  5
20D2C
330
24D3B
100
AcDbEntity
  8
SUNPOU
100
AcDbText
 10
11411.04041027749
 20
6342.750485046077
 30
0.0
 40
90.0
  1
460
 50
90.0
 41
0.6666666666666666
  7
00
 72
     1
 11
11366.0404102775
 21
6428.464770760363
 31
0.0
100
AcDbText
 73
     2
  0
TEXT
  5
20D2D
330
24D3B
100
AcDbEntity
  8
SUNPOU
100
AcDbText
 10
11411.04041027749
 20
6812.75048504608
 30
0.0
 40
90.0
  1
480
 50
90.0
 41
0.6666666666666666
  7
00
 72
     1
 11
11366.0404102775
 21
6898.464770760367
 31
0.0
100
AcDbText
 73
     2
  0
LINE
  5
20D2E
330
24D3B
100
AcDbEntity
  8
SUNPOU
100
AcDbLine
 10
11276.04041027749
 20
7198.464770760367
 30
0.0
 11
11501.04041027749
 21
7198.464770760367
 31
0.0
  0
TEXT
  5
20D2F
330
24D3B
100
AcDbEntity
  8
SUNPOU
100
AcDbText
 10
11201.0404102775
 20
6812.75048504608
 30
0.0
 40
90.0
  1
200
 50
90.0
 41
0.6666666666666666
  7
00
 72
     4
 11
11156.04041027749
 21
6898.464770760367
 31
0.0
100
AcDbText
  0
LINE
  5
20D30
330
24D3B
100
AcDbEntity
  8
SUNPOU
100
AcDbLine
 10
11246.0404102775
 20
6983.464770760362
 30
0.0
 11
11246.0404102775
 21
6813.464770760365
 31
0.0
  0
LINE
  5
20D31
330
24D3B
100
AcDbEntity
  8
SUNPOU
100
AcDbLine
 10
11246.0404102775
 20
6783.464770760365
 30
0.0
 11
11246.0404102775
 21
6673.464770760365
 31
0.0
  0
LINE
  5
20D32
330
24D3B
100
AcDbEntity
  8
SUNPOU
100
AcDbLine
 10
11246.0404102775
 20
7123.464770760365
 30
0.0
 11
11246.0404102775
 21
7013.464770760363
 31
0.0
  0
LINE
  5
20D33
330
24D3B
100
AcDbEntity
  8
SUNPOU
100
AcDbLine
 10
11456.04041027749
 20
7123.464770760365
 30
0.0
 11
11456.04041027749
 21
6673.464770760365
 31
0.0
  0
LINE
  5
20D34
330
24D3B
100
AcDbEntity
  8
SUNPOU
100
AcDbLine
 10
11456.04041027749
 20
7183.464770760362
 30
0.0
 11
11456.04041027749
 21
7153.464770760365
 31
0.0
  0
TEXT
  5
20D39
330
24D3B
100
AcDbEntity
  8
SUNPOU
100
AcDbText
 10
2780.557704049091
 20
2305.744622954003
 30
0.0
 40
90.0
  1
G.L
 41
0.6666666666666666
  7
00
 72
     4
 11
2851.986275477663
 21
2350.744622954003
 31
0.0
100
AcDbText
  0
LINE
  5
20D3A
330
24D3B
100
AcDbEntity
  8
SUNPOU
100
AcDbLine
 10
2851.986275477663
 20
2170.744622954003
 30
0.0
 11
2903.947799704729
 21
2260.744622954003
 31
0.0
  0
LINE
  5
20D3B
330
24D3B
100
AcDbEntity
  8
SUNPOU
100
AcDbLine
 10
2903.947799704729
 20
2260.744622954003
 30
0.0
 11
2800.024751250596
 21
2260.744622954003
 31
0.0
  0
LINE
  5
20D3C
330
24D3B
100
AcDbEntity
  8
SUNPOU
100
AcDbLine
 10
2800.024751250596
 20
2260.744622954003
 30
0.0
 11
2851.986275477663
 21
2170.744622954003
 31
0.0
  0
LINE
  5
20D52
330
24D3B
100
AcDbEntity
  8
HIKIDASHI
100
AcDbLine
 10
1833.492404013275
 20
581.6956041113334
 30
0.0
 11
2557.509683509838
 21
581.6956041113334
 31
0.0
  0
LINE
  5
20D53
330
24D3B
100
AcDbEntity
  8
HIKIDASHI
100
AcDbLine
 10
1833.492404013275
 20
551.6956041113334
 30
0.0
 11
2557.509683509838
 21
551.6956041113334
 31
0.0
  0
TEXT
  5
20D54
330
24D3B
100
AcDbEntity
  8
HIKIDASHI
100
AcDbText
 10
1863.492404013275
 20
626.6956041113334
 30
0.0
 40
90.0
  1
A  ~  A'
 41
0.6700000000000001
  7
00
100
AcDbText
  0
TEXT
  5
20D55
330
24D3B
100
AcDbEntity
  8
HIKIDASHI
100
AcDbText
 10
2227.509683509838
 20
626.6956041113334
 30
0.0
 40
90.0
  1
断  面
  7
01
100
AcDbText
  0
LINE
  5
20D62
330
24D3B
100
AcDbEntity
  8
SUNPOU
100
AcDbLine
 10
7386.040410277513
 20
6003.464770760363
 30
0.0
 11
7596.040410277514
 21
6003.464770760363
 31
0.0
  0
LINE
  5
20D63
330
24D3B
100
AcDbEntity
  8
SUNPOU
100
AcDbLine
 10
7596.040410277514
 20
6003.464770760365
 30
0.0
 11
7596.040410277514
 21
6153.464770760365
 31
0.0
  0
TEXT
  5
20D64
330
24D3B
100
AcDbEntity
  8
SUNPOU
100
AcDbText
 10
7180.197553134657
 20
5958.464770760363
 30
0.0
 40
90.0
  1
A
 41
0.6700000000000001
  7
00
 72
     4
 11
7206.040410277513
 21
6003.464770760363
 31
0.0
100
AcDbText
  0
LINE
  5
20D65
330
24D3B
100
AcDbEntity
  8
SUNPOU
100
AcDbLine
 10
7386.040410277513
 20
7393.464770760363
 30
0.0
 11
7596.040410277514
 21
7393.464770760363
 31
0.0
  0
LINE
  5
20D66
330
24D3B
100
AcDbEntity
  8
SUNPOU
100
AcDbLine
 10
7596.040410277514
 20
7393.464770760363
 30
0.0
 11
7596.040410277514
 21
7243.464770760361
 31
0.0
  0
TEXT
  5
20D67
330
24D3B
100
AcDbEntity
  8
SUNPOU
100
AcDbText
 10
7170.147553134658
 20
7339.893342188934
 30
0.0
 40
90.0
  1
A'
 41
0.6700000000000001
  7
00
 72
     4
 11
7206.040410277513
 21
7393.464770760363
 31
0.0
100
AcDbText
  0
LINE
  5
20D68
330
24D3B
100
AcDbEntity
  8
HATCH
100
AcDbLine
 10
1741.197912084083
 20
2200.744622954001
 30
0.0
 11
1651.19791208409
 21
2110.744622954002
 31
0.0
  0
LINE
  5
20D69
330
24D3B
100
AcDbEntity
  8
HATCH
100
AcDbLine
 10
1770.896396893957
 20
2200.744622954001
 30
0.0
 11
1680.89639689395
 21
2110.744622954003
 31
0.0
  0
LINE
  5
20D6A
330
24D3B
100
AcDbEntity
  8
HATCH
100
AcDbLine
 10
1441.499427274255
 20
2200.744622954
 30
0.0
 11
1351.499427274261
 21
2110.744622954002
 31
0.0
  0
LINE
  5
20D6B
330
24D3B
100
AcDbEntity
  8
HATCH
100
AcDbLine
 10
1411.800942464433
 20
2200.744622954001
 30
0.0
 11
1321.800942464426
 21
2110.744622954002
 31
0.0
  0
LINE
  5
20D6C
330
24D3B
100
AcDbEntity
  8
HATCH
100
AcDbLine
 10
1471.197912084099
 20
2200.744622954
 30
0.0
 11
1381.197912084099
 21
2110.744622954002
 31
0.0
  0
LINE
  5
20D6D
330
24D3B
100
AcDbEntity
  8
HATCH
100
AcDbLine
 10
1711.499427274248
 20
2200.744622954001
 30
0.0
 11
1621.499427274248
 21
2110.744622954003
 31
0.0
  0
LINE
  5
20D6E
330
24D3B
100
AcDbEntity
  8
HATCH
100
AcDbLine
 10
2070.594881703815
 20
2200.744622954003
 30
0.0
 11
1920.594881703808
 21
2050.744622954003
 31
0.0
  0
LINE
  5
20D6F
330
24D3B
100
AcDbEntity
  8
HATCH
100
AcDbLine
 10
2011.197912084106
 20
2200.744622954003
 30
0.0
 11
1861.197912084113
 21
2050.744622954002
 31
0.0
  0
LINE
  5
20D70
330
24D3B
100
AcDbEntity
  8
HATCH
100
AcDbLine
 10
2040.89639689395
 20
2200.744622954001
 30
0.0
 11
1890.89639689395
 21
2050.744622954002
 31
0.0
  0
LINE
  5
20D71
330
24D3B
100
AcDbEntity
  8
HATCH
100
AcDbLine
 10
1141.800942464439
 20
2200.744622954
 30
0.0
 11
1077.057301727902
 21
2136.000982217467
 31
0.0
  0
LINE
  5
20D72
330
24D3B
100
AcDbEntity
  8
HATCH
100
AcDbLine
 10
1112.102457654611
 20
2200.744622954
 30
0.0
 11
1077.057301727902
 21
2165.699467027298
 31
0.0
  0
LINE
  5
20D73
330
24D3B
100
AcDbEntity
  8
HATCH
100
AcDbLine
 10
1171.499427274276
 20
2200.744622954
 30
0.0
 11
1081.499427274277
 21
2110.744622954002
 31
0.0
  0
TEXT
  5
20D76
330
24D3B
100
AcDbEntity
  8
HIKIDASHI
100
AcDbText
 10
2895.985948906207
 20
2633.077046087619
 30
0.0
 40
90.00009018009018
  1
アンカーボルト
  7
01
100
AcDbText
  0
LINE
  5
20D77
330
24D3B
100
AcDbEntity
  8
HIKIDASHI
100
AcDbLine
 10
2861.708263957677
 20
2588.077046087621
 30
0.0
 11
4605.935503113104
 21
2588.077046087621
 31
0.0
  0
TEXT
  5
20D78
330
24D3B
100
AcDbEntity
  8
HIKIDASHI
100
AcDbText
 10
3656.323003511591
 20
2633.077046087619
 30
0.0
 40
89.55223880597012
  1
W ／
 41
0.6700000000000001
  7
00
100
AcDbText
  0
TEXT
  5
20D79
330
24D3B
100
AcDbEntity
  8
HIKIDASHI
100
AcDbText
 10
3730.923814194816
 20
2659.506655726517
 30
0.0
 40
67.16417910447761
  1
1
 41
0.6700000000000001
  7
00
100
AcDbText
  0
TEXT
  5
20D7A
330
24D3B
100
AcDbEntity
  8
HIKIDASHI
100
AcDbText
 10
3971.786167097249
 20
2632.868059887531
 30
0.0
 40
89.55223880597012
  1
400
 41
0.6700000000000001
  7
00
100
AcDbText
  0
TEXT
  5
20D7B
330
24D3B
100
AcDbEntity
  8
HIKIDASHI
100
AcDbText
 10
3818.815850753738
 20
2632.480600695954
 30
0.0
 40
67.16417910447761
  1
2
 41
0.6700000000000001
  7
00
100
AcDbText
  0
TEXT
  5
20D7C
330
24D3B
100
AcDbEntity
  8
HIKIDASHI
100
AcDbText
 10
3890.650787944112
 20
2644.27107593837
 30
0.0
 40
89.55223880597012
  1
x
 41
0.6700000000000001
  7
00
100
AcDbText
  0
TEXT
  5
20D7E
330
24D3B
100
AcDbEntity
  8
HIKIDASHI
100
AcDbText
 10
4213.506321158749
 20
2633.077046087619
 30
0.0
 40
90.00009018009018
  1
（別途）
  7
01
100
AcDbText
  0
CIRCLE
  5
20D7F
330
24D3B
100
AcDbEntity
  8
U7
100
AcDbCircle
 10
1923.30608063106
 20
1627.244622953999
 30
0.0
 40
6.5
  0
CIRCLE
  5
20D80
330
24D3B
100
AcDbEntity
  8
U7
100
AcDbCircle
 10
2095.306080631061
 20
1627.244622953999
 30
0.0
 40
6.5
  0
CIRCLE
  5
20D81
330
24D3B
100
AcDbEntity
  8
U7
100
AcDbCircle
 10
2267.30608063106
 20
1627.244622953999
 30
0.0
 40
6.5
  0
CIRCLE
  5
20D82
330
24D3B
100
AcDbEntity
  8
U7
100
AcDbCircle
 10
2439.306080631061
 20
1627.244622953999
 30
0.0
 40
6.5
  0
TEXT
  5
20D83
330
24D3B
100
AcDbEntity
  8
HIKIDASHI
100
AcDbText
 10
8148.376511282377
 20
7483.464770760365
 30
0.0
 40
90.00009018009018
  1
アンカーボルト
  7
01
100
AcDbText
  0
LINE
  5
20D84
330
24D3B
100
AcDbEntity
  8
HIKIDASHI
100
AcDbLine
 10
8114.098826333844
 20
7438.464770760366
 30
0.0
 11
9858.326065489265
 21
7438.464770760366
 31
0.0
  0
TEXT
  5
20D85
330
24D3B
100
AcDbEntity
  8
HIKIDASHI
100
AcDbText
 10
8908.71356588776
 20
7483.464770760365
 30
0.0
 40
89.55223880597012
  1
W ／
 41
0.6700000000000001
  7
00
100
AcDbText
  0
TEXT
  5
20D86
330
24D3B
100
AcDbEntity
  8
HIKIDASHI
100
AcDbText
 10
8983.314376570985
 20
7509.894380399263
 30
0.0
 40
67.16417910447761
  1
1
 41
0.6700000000000001
  7
00
100
AcDbText
  0
TEXT
  5
20D87
330
24D3B
100
AcDbEntity
  8
HIKIDASHI
100
AcDbText
 10
9224.176729473416
 20
7483.255784560275
 30
0.0
 40
89.55223880597012
  1
400
 41
0.6700000000000001
  7
00
100
AcDbText
  0
TEXT
  5
20D88
330
24D3B
100
AcDbEntity
  8
HIKIDASHI
100
AcDbText
 10
9071.206413129903
 20
7482.868325368702
 30
0.0
 40
67.16417910447761
  1
2
 41
0.6700000000000001
  7
00
100
AcDbText
  0
TEXT
  5
20D89
330
24D3B
100
AcDbEntity
  8
HIKIDASHI
100
AcDbText
 10
9143.041350320284
 20
7494.658800611112
 30
0.0
 40
89.55223880597012
  1
x
 41
0.6700000000000001
  7
00
100
AcDbText
  0
TEXT
  5
20D8B
330
24D3B
100
AcDbEntity
  8
HIKIDASHI
100
AcDbText
 10
9465.896883534915
 20
7483.464770760365
 30
0.0
 40
90.00009018009018
  1
（別途）
  7
01
100
AcDbText
  0
LINE
  5
20E0A
330
24D3B
100
AcDbEntity
  8
SUNPOU
100
AcDbLine
 10
1146.040410277506
 20
4909.714770760365
 30
0.0
 11
1146.040410277506
 21
4920.96477076036
 31
0.0
  0
LINE
  5
20E0C
330
24D3B
100
AcDbEntity
  8
SUNPOU
100
AcDbLine
 10
1146.040410277506
 20
6909.714770760365
 30
0.0
 11
1146.040410277506
 21
6920.964770760362
 31
0.0
  0
LINE
  5
20E0E
330
24D3B
100
AcDbEntity
  8
SUNPOU
100
AcDbLine
 10
1146.040410277506
 20
6887.214770760363
 30
0.0
 11
1146.040410277506
 21
6875.964770760361
 31
0.0
  0
LINE
  5
20E10
330
24D3B
100
AcDbEntity
  8
SUNPOU
100
AcDbLine
 10
1146.040410277506
 20
7127.214770760365
 30
0.0
 11
1146.040410277506
 21
7115.964770760363
 31
0.0
  0
LINE
  5
20E23
330
24D3B
100
AcDbEntity
  8
SUNPOU
100
AcDbLine
 10
7386.040410277513
 20
5988.464770760362
 30
0.0
 11
7296.040410277514
 21
6003.464770760363
 31
0.0
  0
LINE
  5
20E24
330
24D3B
100
AcDbEntity
  8
SUNPOU
100
AcDbLine
 10
7296.040410277514
 20
6003.464770760363
 30
0.0
 11
7386.040410277513
 21
6018.464770760363
 31
0.0
  0
SOLID
  5
20E25
330
24D3B
100
AcDbEntity
  8
SUNPOU
100
AcDbTrace
 10
7386.040410277513
 20
5988.464770760362
 30
0.0
 11
7386.040410277513
 21
6018.464770760363
 31
0.0
 12
7296.040410277514
 22
6003.464770760363
 32
0.0
 13
7296.040410277514
 23
6003.464770760363
 33
0.0
  0
LINE
  5
20E26
330
24D3B
100
AcDbEntity
  8
SUNPOU
100
AcDbLine
 10
7386.040410277513
 20
6018.464770760363
 30
0.0
 11
7386.040410277513
 21
5988.464770760362
 31
0.0
  0
LINE
  5
20E28
330
24D3B
100
AcDbEntity
  8
SUNPOU
100
AcDbLine
 10
9546.040410277514
 20
6209.714770760363
 30
0.0
 11
9546.040410277514
 21
6220.964770760367
 31
0.0
  0
LINE
  5
20E2A
330
24D3B
100
AcDbEntity
  8
SUNPOU
100
AcDbLine
 10
9336.040410277513
 20
6209.714770760363
 30
0.0
 11
9336.040410277513
 21
6220.964770760367
 31
0.0
  0
LINE
  5
20E2C
330
24D3B
100
AcDbEntity
  8
SUNPOU
100
AcDbLine
 10
9546.040410277514
 20
6909.714770760365
 30
0.0
 11
9546.040410277514
 21
6920.964770760362
 31
0.0
  0
LINE
  5
20E2E
330
24D3B
100
AcDbEntity
  8
SUNPOU
100
AcDbLine
 10
9546.040410277514
 20
6887.214770760363
 30
0.0
 11
9546.040410277514
 21
6875.964770760361
 31
0.0
  0
LINE
  5
20E30
330
24D3B
100
AcDbEntity
  8
SUNPOU
100
AcDbLine
 10
9336.040410277513
 20
7187.214770760363
 30
0.0
 11
9336.040410277513
 21
7175.964770760363
 31
0.0
  0
LINE
  5
20E32
330
24D3B
100
AcDbEntity
  8
SUNPOU
100
AcDbLine
 10
9546.040410277514
 20
7187.214770760363
 30
0.0
 11
9546.040410277514
 21
7175.964770760363
 31
0.0
  0
LINE
  5
20E33
330
24D3B
100
AcDbEntity
  8
SUNPOU
100
AcDbLine
 10
7386.040410277513
 20
7408.464770760365
 30
0.0
 11
7296.040410277514
 21
7393.464770760363
 31
0.0
  0
LINE
  5
20E34
330
24D3B
100
AcDbEntity
  8
SUNPOU
100
AcDbLine
 10
7296.040410277514
 20
7393.464770760363
 30
0.0
 11
7386.040410277513
 21
7378.464770760365
 31
0.0
  0
SOLID
  5
20E35
330
24D3B
100
AcDbEntity
  8
SUNPOU
100
AcDbTrace
 10
7386.040410277513
 20
7408.464770760365
 30
0.0
 11
7386.040410277513
 21
7378.464770760365
 31
0.0
 12
7296.040410277514
 22
7393.464770760363
 32
0.0
 13
7296.040410277514
 23
7393.464770760363
 33
0.0
  0
LINE
  5
20E36
330
24D3B
100
AcDbEntity
  8
SUNPOU
100
AcDbLine
 10
7386.040410277513
 20
7378.464770760365
 30
0.0
 11
7386.040410277513
 21
7408.464770760365
 31
0.0
  0
LINE
  5
20E38
330
24D3B
100
AcDbEntity
  8
SUNPOU
100
AcDbLine
 10
10007.2904102775
 20
7858.464770760362
 30
0.0
 11
10018.54041027749
 21
7858.464770760362
 31
0.0
  0
LINE
  5
20E3A
330
24D3B
100
AcDbEntity
  8
SUNPOU
100
AcDbLine
 10
10144.79041027749
 20
7858.464770760362
 30
0.0
 11
10133.54041027749
 21
7858.464770760362
 31
0.0
  0
LINE
  5
20E3C
330
24D3B
100
AcDbEntity
  8
SUNPOU
100
AcDbLine
 10
10167.29041027749
 20
7858.464770760362
 30
0.0
 11
10178.54041027749
 21
7858.464770760362
 31
0.0
  0
LINE
  5
20E3E
330
24D3B
100
AcDbEntity
  8
SUNPOU
100
AcDbLine
 10
10007.2904102775
 20
8068.464770760362
 30
0.0
 11
10018.54041027749
 21
8068.464770760362
 31
0.0
  0
LINE
  5
20E40
330
24D3B
100
AcDbEntity
  8
SUNPOU
100
AcDbLine
 10
11456.04041027749
 20
6209.714770760363
 30
0.0
 11
11456.04041027749
 21
6220.964770760367
 31
0.0
  0
LINE
  5
20E42
330
24D3B
100
AcDbEntity
  8
SUNPOU
100
AcDbLine
 10
11246.0404102775
 20
6669.714770760363
 30
0.0
 11
11246.0404102775
 21
6680.964770760361
 31
0.0
  0
LINE
  5
20E44
330
24D3B
100
AcDbEntity
  8
SUNPOU
100
AcDbLine
 10
11456.04041027749
 20
6647.214770760363
 30
0.0
 11
11456.04041027749
 21
6635.964770760367
 31
0.0
  0
LINE
  5
20E46
330
24D3B
100
AcDbEntity
  8
SUNPOU
100
AcDbLine
 10
11456.04041027749
 20
6669.714770760363
 30
0.0
 11
11456.04041027749
 21
6680.964770760361
 31
0.0
  0
LINE
  5
20E48
330
24D3B
100
AcDbEntity
  8
SUNPOU
100
AcDbLine
 10
11246.0404102775
 20
6787.214770760366
 30
0.0
 11
11246.0404102775
 21
6775.964770760364
 31
0.0
  0
LINE
  5
20E4A
330
24D3B
100
AcDbEntity
  8
SUNPOU
100
AcDbLine
 10
11246.0404102775
 20
6809.714770760365
 30
0.0
 11
11246.0404102775
 21
6820.964770760365
 31
0.0
  0
LINE
  5
20E4C
330
24D3B
100
AcDbEntity
  8
SUNPOU
100
AcDbLine
 10
11246.0404102775
 20
6987.214770760363
 30
0.0
 11
11246.0404102775
 21
6975.964770760363
 31
0.0
  0
LINE
  5
20E4E
330
24D3B
100
AcDbEntity
  8
SUNPOU
100
AcDbLine
 10
11246.0404102775
 20
7009.714770760365
 30
0.0
 11
11246.0404102775
 21
7020.964770760365
 31
0.0
  0
LINE
  5
20E50
330
24D3B
100
AcDbEntity
  8
SUNPOU
100
AcDbLine
 10
11246.0404102775
 20
7127.214770760365
 30
0.0
 11
11246.0404102775
 21
7115.964770760363
 31
0.0
  0
LINE
  5
20E52
330
24D3B
100
AcDbEntity
  8
SUNPOU
100
AcDbLine
 10
11456.04041027749
 20
7127.214770760365
 30
0.0
 11
11456.04041027749
 21
7115.964770760363
 31
0.0
  0
LINE
  5
20E54
330
24D3B
100
AcDbEntity
  8
SUNPOU
100
AcDbLine
 10
11456.04041027749
 20
7149.714770760361
 30
0.0
 11
11456.04041027749
 21
7160.964770760365
 31
0.0
  0
LINE
  5
20E56
330
24D3B
100
AcDbEntity
  8
SUNPOU
100
AcDbLine
 10
11456.04041027749
 20
7187.214770760363
 30
0.0
 11
11456.04041027749
 21
7175.964770760363
 31
0.0
  0
LINE
  5
20E58
330
24D3B
100
AcDbEntity
  8
SUNPOU
100
AcDbLine
 10
10484.7904102775
 20
7438.464770760361
 30
0.0
 11
10473.54041027749
 21
7438.464770760361
 31
0.0
  0
LINE
  5
20E5A
330
24D3B
100
AcDbEntity
  8
SUNPOU
100
AcDbLine
 10
10307.29041027749
 20
7438.464770760361
 30
0.0
 11
10318.54041027749
 21
7438.464770760361
 31
0.0
  0
LINE
  5
20E5C
330
24D3B
100
AcDbEntity
  8
SUNPOU
100
AcDbLine
 10
10267.29041027749
 20
7648.464770760367
 30
0.0
 11
10278.54041027749
 21
7648.464770760367
 31
0.0
  0
LINE
  5
20E5E
330
24D3B
100
AcDbEntity
  8
SUNPOU
100
AcDbLine
 10
10524.7904102775
 20
7648.464770760367
 30
0.0
 11
10513.54041027749
 21
7648.464770760367
 31
0.0
  0
LINE
  5
20E60
330
24D3B
100
AcDbEntity
  8
SUNPOU
100
AcDbLine
 10
10624.7904102775
 20
7858.464770760362
 30
0.0
 11
10613.54041027749
 21
7858.464770760362
 31
0.0
  0
LINE
  5
20E62
330
24D3B
100
AcDbEntity
  8
SUNPOU
100
AcDbLine
 10
10647.29041027749
 20
7858.464770760362
 30
0.0
 11
10658.54041027749
 21
7858.464770760362
 31
0.0
  0
LINE
  5
20E64
330
24D3B
100
AcDbEntity
  8
SUNPOU
100
AcDbLine
 10
10784.7904102775
 20
7858.464770760362
 30
0.0
 11
10773.5404102775
 21
7858.464770760362
 31
0.0
  0
LINE
  5
20E66
330
24D3B
100
AcDbEntity
  8
SUNPOU
100
AcDbLine
 10
10784.7904102775
 20
8068.464770760362
 30
0.0
 11
10773.5404102775
 21
8068.464770760362
 31
0.0
  0
TEXT
  5
225E0
330
24D3B
100
AcDbEntity
  8
HIKIDASHI
100
AcDbText
 10
5532.222208307858
 20
3924.392459788328
 30
0.0
 40
135.0
  1
基 礎 伏 図
  7
01
 72
     2
 11
6378.222208307859
 21
3924.392459788328
 31
0.0
100
AcDbText
  0
TEXT
  5
225E1
330
24D3B
100
AcDbEntity
  8
HIKIDASHI
100
AcDbText
 10
6479.472208307861
 20
3951.185956848167
 30
0.0
 40
90.0
  1
(S=
 41
0.6700000000000001
  7
00
100
AcDbText
  0
TEXT
  5
225E2
330
24D3B
100
AcDbEntity
  8
HIKIDASHI
100
AcDbText
 10
6772.129942943052
 20
3921.747146747858
 30
0.0
 40
90.0
  1
30
 41
0.6700000000000001
  7
00
100
AcDbText
  0
TEXT
  5
225E3
330
24D3B
100
AcDbEntity
  8
HIKIDASHI
100
AcDbText
 10
6908.734706013294
 20
3951.185956848167
 30
0.0
 40
90.0
  1
)
 41
0.6700000000000001
  7
00
100
AcDbText
  0
TEXT
  5
225E4
330
24D3B
100
AcDbEntity
  8
HIKIDASHI
100
AcDbText
 10
6720.047893835086
 20
3951.185956848167
 30
0.0
 40
90.0
  1
/
 41
0.6700000000000001
  7
00
100
AcDbText
  0
TEXT
  5
225E5
330
24D3B
100
AcDbEntity
  8
HIKIDASHI
100
AcDbText
 10
6682.768613737747
 20
3968.692619314889
 30
0.0
 40
90.0
  1
1
 41
0.6700000000000001
  7
00
100
AcDbText
  0
TEXT
  5
225E6
330
24D3B
100
AcDbEntity
  8
HIKIDASHI
100
AcDbText
 10
5683.499393482649
 20
3744.392459788329
 30
0.0
 40
120.0
  1
（  ：スパン数）
  7
01
 72
     4
 11
6239.499393482649
 21
3804.392459788329
 31
0.0
100
AcDbText
  0
TEXT
  5
225E7
330
24D3B
100
AcDbEntity
  8
HIKIDASHI
100
AcDbText
 10
5862.089076792953
 20
3744.392459788329
 30
0.0
 40
120.0
  1
N
 41
0.6666666666666666
  7
00
 72
     4
 11
5903.993838697715
 21
3804.392459788329
 31
0.0
100
AcDbText
  0
TEXT
  5
23AF4
330
24D3B
100
AcDbEntity
  8
NAME
100
AcDbText
 10
9402.694977008243
 20
716.25
 30
0.0
 40
120.0
  1
YOR
 41
0.7
  7
01
100
AcDbText
  0
TEXT
  5
23AF5
330
24D3B
100
AcDbEntity
  8
NAME
100
AcDbText
 10
8327.765992739108
 20
716.25
 30
0.0
 40
120.0
  1
ヨド自転車置場      型
  7
01
100
AcDbText
  0
TEXT
  5
23AF6
330
24D3B
100
AcDbEntity
  8
NAME
100
AcDbText
 10
8862.031985478221
 20
405.75
 30
0.0
 40
120.0
  1
型（一般地用）
 41
0.8
  7
01
100
AcDbText
  0
TEXT
  5
23AF7
330
24D3B
100
AcDbEntity
  8
NAME
100
AcDbText
 10
8172.031985478223
 20
405.75
 30
0.0
 40
120.0
  1
YOR-280B
 41
0.7
  7
01
 72
     2
 11
8832.031985478222
 21
405.75
 31
0.0
100
AcDbText
  0
TEXT
  5
23AF8
330
24D3B
100
AcDbEntity
  8
NAME
100
AcDbText
 10
9641.10000000001
 20
405.75
 30
0.0
 40
120.0
  1
<3／3>
 41
0.6
  7
01
 72
     2
 11
10015.50000000001
 21
405.75
 31
0.0
100
AcDbText
  0
LINE
  5
23AFA
330
24D3B
100
AcDbEntity
  8
HATCH
100
AcDbLine
 10
1838.066929828396
 20
1570.744622953999
 30
0.0
 11
1888.066929828396
 21
1520.744622954
 31
0.0
  0
LINE
  5
23AFB
330
24D3B
100
AcDbEntity
  8
HATCH
100
AcDbLine
 10
1597.765414638248
 20
1570.744622953999
 30
0.0
 11
1647.765414638248
 21
1520.744622954
 31
0.0
  0
LINE
  5
23AFC
330
24D3B
100
AcDbEntity
  8
HATCH
100
AcDbLine
 10
1581.306080631059
 20
1557.505472151351
 30
0.0
 11
1618.066929828412
 21
1520.744622954
 31
0.0
  0
LINE
  5
23AFD
330
24D3B
100
AcDbEntity
  8
HATCH
100
AcDbLine
 10
1867.765414638234
 20
1570.744622953999
 30
0.0
 11
1917.765414638241
 21
1520.744622954
 31
0.0
  0
LINE
  5
23AFE
330
24D3B
100
AcDbEntity
  8
HATCH
100
AcDbLine
 10
1897.463899448077
 20
1570.744622954002
 30
0.0
 11
1947.463899448084
 21
1520.744622954002
 31
0.0
  0
LINE
  5
23AFF
330
24D3B
100
AcDbEntity
  8
HATCH
100
AcDbLine
 10
1581.306080631053
 20
1527.806987341515
 30
0.0
 11
1588.368445018575
 21
1520.744622954
 31
0.0
  0
LINE
  5
23B01
330
24D3B
100
AcDbEntity
  8
HATCH
100
AcDbLine
 10
2137.765414638227
 20
1570.744622953999
 30
0.0
 11
2187.765414638227
 21
1520.744622954
 31
0.0
  0
LINE
  5
23B02
330
24D3B
100
AcDbEntity
  8
HATCH
100
AcDbLine
 10
2167.463899448062
 20
1570.744622953999
 30
0.0
 11
2217.46389944807
 21
1520.744622954
 31
0.0
  0
LINE
  5
23B03
330
24D3B
100
AcDbEntity
  8
HATCH
100
AcDbLine
 10
2197.162384257907
 20
1570.744622954002
 30
0.0
 11
2247.162384257914
 21
1520.744622954002
 31
0.0
  0
LINE
  5
23B04
330
24D3B
100
AcDbEntity
  8
HATCH
100
AcDbLine
 10
2437.463899448056
 20
1570.744622954002
 30
0.0
 11
2487.463899448056
 21
1520.744622954002
 31
0.0
  0
LINE
  5
23B05
330
24D3B
100
AcDbEntity
  8
HATCH
100
AcDbLine
 10
2467.162384257885
 20
1570.744622954002
 30
0.0
 11
2517.162384257892
 21
1520.744622954002
 31
0.0
  0
LINE
  5
23B06
330
24D3B
100
AcDbEntity
  8
HATCH
100
AcDbLine
 10
2496.860869067736
 20
1570.744622954004
 30
0.0
 11
2546.860869067742
 21
1520.744622954004
 31
0.0
  0
LINE
  5
23B07
330
24D3B
100
AcDbEntity
  8
HATCH
100
AcDbLine
 10
2737.162384257885
 20
1570.744622954002
 30
0.0
 11
2781.306080631061
 21
1526.600926580826
 31
0.0
  0
LINE
  5
23B08
330
24D3B
100
AcDbEntity
  8
HATCH
100
AcDbLine
 10
2766.860869067714
 20
1570.744622954002
 30
0.0
 11
2781.306080631052
 21
1556.299411390662
 31
0.0
  0
LINE
  5
24782
330
24D3B
100
AcDbEntity
  8
SUNPOU
100
AcDbLine
 10
6343.479465620388
 20
2324.307412600588
 30
0.0
 11
7018.479465620389
 21
2324.307412600588
 31
0.0
  0
LINE
  5
24783
330
24D3B
100
AcDbEntity
  8
SUNPOU
100
AcDbLine
 10
6343.479465620388
 20
1524.307412600586
 30
0.0
 11
7018.479465620389
 21
1524.307412600586
 31
0.0
  0
LINE
  5
24784
330
24D3B
100
AcDbEntity
  8
SUNPOU
100
AcDbLine
 10
6313.479465620389
 20
1494.307412600586
 30
0.0
 11
6313.479465620389
 21
819.3074126005866
 31
0.0
  0
LINE
  5
24785
330
24D3B
100
AcDbEntity
  8
SUNPOU
100
AcDbLine
 10
5313.479465620389
 20
1494.307412600586
 30
0.0
 11
5313.479465620389
 21
819.3074126005866
 31
0.0
  0
LINE
  5
24786
330
24D3B
100
AcDbEntity
  8
SUNPOU
100
AcDbLine
 10
6298.479465620388
 20
864.3074126005867
 30
0.0
 11
5328.479465620389
 21
864.3074126005867
 31
0.0
  0
TEXT
  5
24787
330
24D3B
100
AcDbEntity
  8
SUNPOU
100
AcDbText
 10
5694.908037048961
 20
909.3074126005866
 30
0.0
 40
90.0
  1
1000
 41
0.6666666666666666
  7
00
 72
     1
 11
5813.479465620389
 21
954.3074126005866
 31
0.0
100
AcDbText
 73
     2
  0
LINE
  5
24788
330
24D3B
100
AcDbEntity
  8
SUNPOU
100
AcDbLine
 10
5283.479465620388
 20
2254.307412600586
 30
0.0
 11
4818.479465620388
 21
2254.307412600586
 31
0.0
  0
LINE
  5
24789
330
24D3B
100
AcDbEntity
  8
SUNPOU
100
AcDbLine
 10
5283.479465620388
 20
1594.307412600586
 30
0.0
 11
4818.479465620388
 21
1594.307412600586
 31
0.0
  0
TEXT
  5
2478A
330
24D3B
100
AcDbEntity
  8
SUNPOU
100
AcDbText
 10
4818.479465620388
 20
1540.67103741396
 30
0.0
 40
90.0
  1
ベース筋
 50
90.0
  7
01
 72
     4
 11
4773.479465620389
 21
1744.67103741396
 31
0.0
100
AcDbText
  0
TEXT
  5
2478B
330
24D3B
100
AcDbEntity
  8
SUNPOU
100
AcDbText
 10
4818.479465620388
 20
2003.306074949423
 30
0.0
 40
90.0
  1
5-D13
 50
90.0
 41
0.6666666666666666
  7
00
 72
     4
 11
4773.479465620389
 21
2156.163217806566
 31
0.0
100
AcDbText
  0
LINE
  5
2478C
330
24D3B
100
AcDbEntity
  8
SUNPOU
100
AcDbLine
 10
5373.479465620389
 20
2354.307412600589
 30
0.0
 11
5373.479465620389
 21
2819.307412600588
 31
0.0
  0
LINE
  5
2478D
330
24D3B
100
AcDbEntity
  8
SUNPOU
100
AcDbLine
 10
6253.479465620388
 20
2354.307412600589
 30
0.0
 11
6253.479465620388
 21
2819.307412600588
 31
0.0
  0
LINE
  5
2478E
330
24D3B
100
AcDbEntity
  8
1PL-M1
100
AcDbLine
 10
6013.479465620388
 20
2399.307412600589
 30
0.0
 11
6013.479465620388
 21
1449.307412600585
 31
0.0
  0
LINE
  5
2478F
330
24D3B
100
AcDbEntity
  8
U7
100
AcDbLine
 10
5383.479465620388
 20
1924.307412600589
 30
0.0
 11
6243.47946562039
 21
1924.307412600587
 31
0.0
  0
LINE
  5
24790
330
24D3B
100
AcDbEntity
  8
U7
100
AcDbLine
 10
5383.479465620388
 20
2089.307412600586
 30
0.0
 11
6243.47946562039
 21
2089.307412600586
 31
0.0
  0
LINE
  5
24791
330
24D3B
100
AcDbEntity
  8
HIDE-M1
100
AcDbLine
 10
5773.47946562039
 20
2164.307412600589
 30
0.0
 11
6253.479465620388
 21
2164.307412600589
 31
0.0
  0
LINE
  5
24792
330
24D3B
100
AcDbEntity
  8
U7
100
AcDbLine
 10
6253.479465620389
 20
1684.307412600586
 30
0.0
 11
5773.483141382702
 21
1684.307412600586
 31
0.0
  0
LINE
  5
24793
330
24D3B
100
AcDbEntity
  8
U7
100
AcDbLine
 10
5389.979465620388
 20
2254.307412600586
 30
0.0
 11
6236.97946562039
 21
2254.307412600586
 31
0.0
  0
LINE
  5
24794
330
24D3B
100
AcDbEntity
  8
HATCH
100
AcDbLine
 10
6005.533464112303
 20
2324.307412600588
 30
0.0
 11
5605.533464112305
 21
1924.307412600587
 31
0.0
  0
LINE
  5
24795
330
24D3B
100
AcDbEntity
  8
HATCH
100
AcDbLine
 10
6035.231948922141
 20
2324.307412600588
 30
0.0
 11
5635.231948922132
 21
1924.307412600587
 31
0.0
  0
LINE
  5
24796
330
24D3B
100
AcDbEntity
  8
HATCH
100
AcDbLine
 10
5975.834979302469
 20
2324.307412600588
 30
0.0
 11
5575.834979302468
 21
1924.307412600587
 31
0.0
  0
LINE
  5
24797
330
24D3B
100
AcDbEntity
  8
SUNPOU
100
AcDbLine
 10
5788.479465620389
 20
1074.307412600585
 30
0.0
 11
6238.47946562039
 21
1074.307412600585
 31
0.0
  0
LINE
  5
24798
330
24D3B
100
AcDbEntity
  8
1PL-M1
100
AcDbLine
 10
6388.479465620388
 20
1924.307412600587
 30
0.0
 11
5238.479465620389
 21
1924.307412600587
 31
0.0
  0
LINE
  5
2479A
330
24D3B
100
AcDbEntity
  8
U7
100
AcDbLine
 10
5773.483141382702
 20
1684.307412600586
 30
0.0
 11
5773.47946562039
 21
1924.307412600587
 31
0.0
  0
LINE
  5
2479B
330
24D3B
100
AcDbEntity
  8
SUNPOU
100
AcDbLine
 10
4863.479465620389
 20
2239.307412600586
 30
0.0
 11
4863.479465620389
 21
1609.307412600586
 31
0.0
  0
LINE
  5
2479C
330
24D3B
100
AcDbEntity
  8
SUNPOU
100
AcDbLine
 10
5773.47946562039
 20
1654.307412600586
 30
0.0
 11
5773.47946562039
 21
1029.307412600587
 31
0.0
  0
LINE
  5
2479D
330
24D3B
100
AcDbEntity
  8
HATCH
100
AcDbLine
 10
5733.177950430224
 20
2321.951898918512
 30
0.0
 11
5335.533464112304
 21
1924.307412600587
 31
0.0
  0
LINE
  5
2479E
330
24D3B
100
AcDbEntity
  8
HATCH
100
AcDbLine
 10
5676.136494492639
 20
2324.307412600588
 30
0.0
 11
5313.479465620389
 21
1961.650383728342
 31
0.0
  0
LINE
  5
2479F
330
24D3B
100
AcDbEntity
  8
HATCH
100
AcDbLine
 10
5705.834979302468
 20
2324.307412600588
 30
0.0
 11
5313.479465620389
 21
1931.951898918504
 31
0.0
  0
LINE
  5
247A0
330
24D3B
100
AcDbEntity
  8
HATCH
100
AcDbLine
 10
5435.834979302477
 20
2324.307412600588
 30
0.0
 11
5313.479465620389
 21
2201.951898918509
 31
0.0
  0
LINE
  5
247A1
330
24D3B
100
AcDbEntity
  8
HATCH
100
AcDbLine
 10
5406.136494492638
 20
2324.307412600588
 30
0.0
 11
5313.479465620389
 21
2231.650383728339
 31
0.0
  0
LINE
  5
247A2
330
24D3B
100
AcDbEntity
  8
HATCH
100
AcDbLine
 10
5376.438009682803
 20
2324.307412600588
 30
0.0
 11
5313.479465620389
 21
2261.348868538178
 31
0.0
  0
LINE
  5
247A3
330
24D3B
100
AcDbEntity
  8
U7
100
AcDbLine
 10
5727.47946562039
 20
1924.307412600587
 30
0.0
 11
5727.47946562039
 21
2254.307412600586
 31
0.0
  0
LINE
  5
247A4
330
24D3B
100
AcDbEntity
  8
U7
100
AcDbLine
 10
5555.47946562039
 20
1924.307412600589
 30
0.0
 11
5555.47946562039
 21
2254.307412600586
 31
0.0
  0
LINE
  5
247A5
330
24D3B
100
AcDbEntity
  8
HIDE-M1
100
AcDbLine
 10
5773.47946562039
 20
1924.307412600587
 30
0.0
 11
5773.47946562039
 21
2164.307412600589
 31
0.0
  0
LINE
  5
247A6
330
24D3B
100
AcDbEntity
  8
U7
100
AcDbLine
 10
5383.479465620388
 20
1924.307412600587
 30
0.0
 11
5383.479465620388
 21
2247.807412600586
 31
0.0
  0
ARC
  5
247A8
330
24D3B
100
AcDbEntity
  8
U7
100
AcDbCircle
 10
5389.979465620388
 20
2247.807412600586
 30
0.0
 40
6.5
100
AcDbArc
 50
90.0
 51
180.0
  0
LINE
  5
247A9
330
24D3B
100
AcDbEntity
  8
SUNPOU
100
AcDbLine
 10
6763.479465620388
 20
1699.307412600586
 30
0.0
 11
6763.479465620388
 21
2149.307412600586
 31
0.0
  0
LINE
  5
247AA
330
24D3B
100
AcDbEntity
  8
U7
100
AcDbLine
 10
6253.479465620388
 20
1924.307412600587
 30
0.0
 11
6253.479465620389
 21
1684.307412600586
 31
0.0
  0
LINE
  5
247AB
330
24D3B
100
AcDbEntity
  8
SUNPOU
100
AcDbLine
 10
6283.47946562039
 20
1684.307412600586
 30
0.0
 11
6808.479465620388
 21
1684.307412600586
 31
0.0
  0
LINE
  5
247AC
330
24D3B
100
AcDbEntity
  8
SUNPOU
100
AcDbLine
 10
6253.479465620388
 20
1654.307412600586
 30
0.0
 11
6253.479465620388
 21
1029.307412600587
 31
0.0
  0
TEXT
  5
247AD
330
24D3B
100
AcDbEntity
  8
SUNPOU
100
AcDbText
 10
5927.765179906103
 20
1119.307412600587
 30
0.0
 40
90.0
  1
480
 41
0.6666666666666666
  7
00
 72
     1
 11
6013.479465620388
 21
1164.307412600587
 31
0.0
100
AcDbText
 73
     2
  0
LINE
  5
247AE
330
24D3B
100
AcDbEntity
  8
SUNPOU
100
AcDbLine
 10
6283.47946562039
 20
2164.307412600589
 30
0.0
 11
6808.479465620388
 21
2164.307412600589
 31
0.0
  0
LINE
  5
247AF
330
24D3B
100
AcDbEntity
  8
U7
100
AcDbLine
 10
6071.479465620388
 20
1924.307412600587
 30
0.0
 11
6071.479465620388
 21
2254.307412600586
 31
0.0
  0
LINE
  5
247B0
330
24D3B
100
AcDbEntity
  8
U7
100
AcDbLine
 10
5899.479465620388
 20
1924.307412600587
 30
0.0
 11
5899.479465620388
 21
2254.307412600586
 31
0.0
  0
LINE
  5
247B1
330
24D3B
100
AcDbEntity
  8
HATCH
100
AcDbLine
 10
6275.533464112297
 20
2324.307412600588
 30
0.0
 11
5875.533464112297
 21
1924.307412600587
 31
0.0
  0
LINE
  5
247B2
330
24D3B
100
AcDbEntity
  8
U7
100
AcDbLine
 10
6243.47946562039
 20
2247.807412600586
 30
0.0
 11
6243.47946562039
 21
1924.307412600587
 31
0.0
  0
LINE
  5
247B3
330
24D3B
100
AcDbEntity
  8
HIDE-M1
100
AcDbLine
 10
6253.479465620388
 20
1924.307412600587
 30
0.0
 11
6253.479465620388
 21
2164.307412600589
 31
0.0
  0
LINE
  5
247B4
330
24D3B
100
AcDbEntity
  8
HATCH
100
AcDbLine
 10
6305.231948922141
 20
2324.307412600588
 30
0.0
 11
5905.231948922141
 21
1924.307412600587
 31
0.0
  0
LINE
  5
247B5
330
24D3B
100
AcDbEntity
  8
HATCH
100
AcDbLine
 10
6313.479465620396
 20
2302.856444489007
 30
0.0
 11
5934.93043373197
 21
1924.307412600587
 31
0.0
  0
LINE
  5
247B6
330
24D3B
100
AcDbEntity
  8
HATCH
100
AcDbLine
 10
6313.479465620396
 20
2062.554929298844
 30
0.0
 11
6175.231948922133
 21
1924.307412600587
 31
0.0
  0
LINE
  5
247B8
330
24D3B
100
AcDbEntity
  8
HATCH
100
AcDbLine
 10
6313.479465620396
 20
2032.856444489011
 30
0.0
 11
6204.93043373197
 21
1924.307412600587
 31
0.0
  0
LINE
  5
247B9
330
24D3B
100
AcDbEntity
  8
HATCH
100
AcDbLine
 10
6313.479465620396
 20
2003.157959679178
 30
0.0
 11
6234.628918541799
 21
1924.307412600587
 31
0.0
  0
ARC
  5
247BA
330
24D3B
100
AcDbEntity
  8
U7
100
AcDbCircle
 10
6236.97946562039
 20
2247.807412600586
 30
0.0
 40
6.5
100
AcDbArc
 50
0.0
 51
90.0
  0
TEXT
  5
247BB
330
24D3B
100
AcDbEntity
  8
SUNPOU
100
AcDbText
 10
6718.479465620389
 20
1838.593126886301
 30
0.0
 40
90.0
  1
480
 50
90.0
 41
0.6666666666666666
  7
00
 72
     1
 11
6673.479465620388
 21
1924.307412600587
 31
0.0
100
AcDbText
 73
     2
  0
LINE
  5
247BC
330
24D3B
100
AcDbEntity
  8
SUNPOU
100
AcDbLine
 10
5388.479465620388
 20
2774.307412600589
 30
0.0
 11
6238.47946562039
 21
2774.307412600589
 31
0.0
  0
LINE
  5
247BD
330
24D3B
100
AcDbEntity
  8
SUNPOU
100
AcDbLine
 10
6973.47946562039
 20
1539.307412600586
 30
0.0
 11
6973.47946562039
 21
2309.307412600588
 31
0.0
  0
TEXT
  5
247BE
330
24D3B
100
AcDbEntity
  8
SUNPOU
100
AcDbText
 10
6928.479465620388
 20
1838.593126886301
 30
0.0
 40
90.0
  1
800
 50
90.0
 41
0.6666666666666666
  7
00
 72
     1
 11
6883.479465620388
 21
1924.307412600587
 31
0.0
100
AcDbText
 73
     2
  0
TEXT
  5
247BF
330
24D3B
100
AcDbEntity
  8
SUNPOU
100
AcDbText
 10
5448.758082708139
 20
2819.307412600588
 30
0.0
 40
90.0
  1
ベース筋
  7
01
 72
     4
 11
5652.758082708139
 21
2864.307412600588
 31
0.0
100
AcDbText
  0
TEXT
  5
247C0
330
24D3B
100
AcDbEntity
  8
SUNPOU
100
AcDbText
 10
5902.131996462488
 20
2819.307412600588
 30
0.0
 40
90.0
  1
6-D13
 41
0.6666666666666666
  7
00
 72
     4
 11
6056.417710748203
 21
2864.307412600588
 31
0.0
100
AcDbText
  0
LINE
  5
247C2
330
24D3B
100
AcDbEntity
  8
SUNPOU
100
AcDbLine
 10
4863.479465620389
 20
1605.557412600586
 30
0.0
 11
4863.479465620389
 21
1616.807412600587
 31
0.0
  0
LINE
  5
247C4
330
24D3B
100
AcDbEntity
  8
SUNPOU
100
AcDbLine
 10
5784.729465620388
 20
1074.307412600585
 30
0.0
 11
5795.979465620388
 21
1074.307412600585
 31
0.0
  0
LINE
  5
247C6
330
24D3B
100
AcDbEntity
  8
SUNPOU
100
AcDbLine
 10
6242.22946562039
 20
1074.307412600585
 30
0.0
 11
6230.979465620388
 21
1074.307412600585
 31
0.0
  0
LINE
  5
247C8
330
24D3B
100
AcDbEntity
  8
SUNPOU
100
AcDbLine
 10
4863.479465620389
 20
2243.057412600586
 30
0.0
 11
4863.479465620389
 21
2231.807412600586
 31
0.0
  0
LINE
  5
247CA
330
24D3B
100
AcDbEntity
  8
SUNPOU
100
AcDbLine
 10
5384.729465620388
 20
2774.307412600589
 30
0.0
 11
5395.979465620388
 21
2774.307412600589
 31
0.0
  0
LINE
  5
247CC
330
24D3B
100
AcDbEntity
  8
SUNPOU
100
AcDbLine
 10
6242.22946562039
 20
2774.307412600589
 30
0.0
 11
6230.979465620388
 21
2774.307412600589
 31
0.0
  0
LINE
  5
247CE
330
24D3B
100
AcDbEntity
  8
SUNPOU
100
AcDbLine
 10
6973.47946562039
 20
1535.557412600586
 30
0.0
 11
6973.47946562039
 21
1546.807412600586
 31
0.0
  0
LINE
  5
247D0
330
24D3B
100
AcDbEntity
  8
SUNPOU
100
AcDbLine
 10
6763.479465620388
 20
1695.557412600586
 30
0.0
 11
6763.479465620388
 21
1706.807412600586
 31
0.0
  0
LINE
  5
247D2
330
24D3B
100
AcDbEntity
  8
SUNPOU
100
AcDbLine
 10
6763.479465620388
 20
2153.057412600588
 30
0.0
 11
6763.479465620388
 21
2141.807412600587
 31
0.0
  0
LINE
  5
247D4
330
24D3B
100
AcDbEntity
  8
SUNPOU
100
AcDbLine
 10
6973.47946562039
 20
2313.057412600588
 30
0.0
 11
6973.47946562039
 21
2301.807412600586
 31
0.0
  0
LINE
  5
247D6
330
24D3B
100
AcDbEntity
  8
SUNPOU
100
AcDbLine
 10
6302.229465620388
 20
864.3074126005867
 30
0.0
 11
6290.979465620388
 21
864.3074126005867
 31
0.0
  0
LINE
  5
247D8
330
24D3B
100
AcDbEntity
  8
SUNPOU
100
AcDbLine
 10
5324.729465620388
 20
864.3074126005867
 30
0.0
 11
5335.979465620389
 21
864.3074126005867
 31
0.0
  0
TEXT
  5
24949
330
24D3B
100
AcDbEntity
  8
FILENAME
100
AcDbText
 10
10633.64285714285
 20
130.4999999999999
 30
0.0
 40
75.0
  1
＜YOR-280B_3_JIS_GL.DXF ＞
  7
FILENAME
 72
     2
 11
12286.5
 21
130.4999999999999
 31
0.0
100
AcDbText
  0
LINE
  5
2494C
330
24D3B
100
AcDbEntity
  8
WAKUSEN-01
100
AcDbLine
 10
325.5000000000006
 20
310.4999999999998
 30
0.0
 11
12286.5
 21
310.4999999999998
 31
0.0
  0
LINE
  5
2494D
330
24D3B
100
AcDbEntity
  8
WAKUSEN-01
100
AcDbLine
 10
325.5000000000006
 20
8431.500000000005
 30
0.0
 11
12286.5
 21
8431.500000000005
 31
0.0
  0
LINE
  5
2494E
330
24D3B
100
AcDbEntity
  8
WAKUSEN-01
100
AcDbLine
 10
325.5000000000006
 20
310.4999999999998
 30
0.0
 11
325.5000000000006
 21
8431.500000000005
 31
0.0
  0
LINE
  5
2494F
330
24D3B
100
AcDbEntity
  8
WAKUSEN-01
100
AcDbLine
 10
12286.5
 20
310.4999999999998
 30
0.0
 11
12286.5
 21
8431.500000000005
 31
0.0
  0
LINE
  5
24950
330
24D3B
100
AcDbEntity
  8
WAKUSEN-01
100
AcDbLine
 10
7710.0
 20
931.4999999999999
 30
0.0
 11
12286.5
 21
931.4999999999995
 31
0.0
  0
LINE
  5
24951
330
24D3B
100
AcDbEntity
  8
WAKUSEN-02
100
AcDbLine
 10
7710.0
 20
620.9999999999999
 30
0.0
 11
10075.49999999999
 21
620.9999999999999
 31
0.0
  0
TEXT
  5
24952
330
24D3B
100
AcDbEntity
  8
WAKUMOJI-01
100
AcDbText
 10
7751.347597486038
 20
797.2136285022457
 30
0.0
 40
90.0
  1
名　称
  7
WAKUMOJI
100
AcDbText
  0
TEXT
  5
24953
330
24D3B
100
AcDbEntity
  8
WAKUMOJI-01
100
AcDbText
 10
7746.18955690947
 20
494.673365617433
 30
0.0
 40
90.0
  1
機種名
  7
WAKUMOJI
100
AcDbText
  0
LINE
  5
24954
330
24D3B
100
AcDbEntity
  8
WAKUSEN-01
100
AcDbLine
 10
7710.0
 20
310.499999999999
 30
0.0
 11
7710.0
 21
931.4999999999999
 31
0.0
  0
LINE
  5
24955
330
24D3B
100
AcDbEntity
  8
WAKUSEN-02
100
AcDbLine
 10
10075.49999999999
 20
310.4999999999973
 30
0.0
 11
10075.49999999999
 21
931.4999999999999
 31
0.0
  0
LINE
  5
24956
330
24D3B
100
AcDbEntity
  8
YODOROGO
100
AcDbLine
 10
11241.60162798446
 20
748.4060611609828
 30
0.0
 11
11186.10162798447
 21
748.4060611609828
 31
0.0
1001
AUTOCAD_POSTSCRIPT_FIGURE
1002
{
1000
PSFILL
1000
Grayscale
1000
Grayscale
1070
    25
1002
}
  0
LINE
  5
24957
330
24D3B
100
AcDbEntity
  8
YODOROGO
100
AcDbLine
 10
11186.10162798447
 20
730.406061160983
 30
0.0
 11
11241.60162798446
 21
730.406061160983
 31
0.0
1001
AUTOCAD_POSTSCRIPT_FIGURE
1002
{
1000
PSFILL
1000
Grayscale
1000
Grayscale
1070
    25
1002
}
  0
LINE
  5
24958
330
24D3B
100
AcDbEntity
  8
YODOROGO
100
AcDbLine
 10
11241.60162798446
 20
715.4060611609828
 30
0.0
 11
11186.10162798447
 21
715.4060611609828
 31
0.0
1001
AUTOCAD_POSTSCRIPT_FIGURE
1002
{
1000
PSFILL
1000
Grayscale
1000
Grayscale
1070
    25
1002
}
  0
LINE
  5
24959
330
24D3B
100
AcDbEntity
  8
YODOROGO
100
AcDbLine
 10
11186.10162798447
 20
697.406061160983
 30
0.0
 11
11241.60162798446
 21
697.406061160983
 31
0.0
1001
AUTOCAD_POSTSCRIPT_FIGURE
1002
{
1000
PSFILL
1000
Grayscale
1000
Grayscale
1070
    25
1002
}
  0
LINE
  5
2495A
330
24D3B
100
AcDbEntity
  8
YODOROGO
100
AcDbLine
 10
11241.60162798446
 20
682.4060611609829
 30
0.0
 11
11186.10162798447
 21
682.4060611609829
 31
0.0
1001
AUTOCAD_POSTSCRIPT_FIGURE
1002
{
1000
PSFILL
1000
Grayscale
1000
Grayscale
1070
    25
1002
}
  0
LINE
  5
2495B
330
24D3B
100
AcDbEntity
  8
YODOROGO
100
AcDbLine
 10
11220.60162798447
 20
640.4060611609828
 30
0.0
 11
11241.60162798446
 21
640.4060611609828
 31
0.0
1001
AUTOCAD_POSTSCRIPT_FIGURE
1002
{
1000
PSFILL
1000
Grayscale
1000
Grayscale
1070
    25
1002
}
  0
LINE
  5
2495C
330
24D3B
100
AcDbEntity
  8
YODOROGO
100
AcDbLine
 10
11151.60162798447
 20
535.4060611609829
 30
0.0
 11
11226.60162798446
 21
555.5022505933164
 31
0.0
  0
LINE
  5
2495D
330
24D3B
100
AcDbEntity
  8
YODOROGO
100
AcDbLine
 10
11231.10162798446
 20
640.4060611609828
 30
0.0
 11
11207.10162798447
 21
640.4060611609828
 31
0.0
  0
ARC
  5
2495E
330
24D3B
100
AcDbEntity
  8
YODOROGO
100
AcDbCircle
 10
11345.38040618545
 20
677.9492284624735
 30
0.0
 40
143.2075740771177
100
AcDbArc
 50
213.9611167766784
 51
264.4787207431779
  0
ARC
  5
2495F
330
24D3B
100
AcDbEntity
  8
YODOROGO
100
AcDbCircle
 10
11345.38040618547
 20
677.9492284624882
 30
0.0
 40
143.2075740771305
100
AcDbArc
 50
208.141144204866
 51
212.9210361185995
  0
LINE
  5
24960
330
24D3B
100
AcDbEntity
  8
YODOROGO
100
AcDbLine
 10
11164.27870236949
 20
583.8028730048376
 30
0.0
 11
11225.1690496907
 21
600.1183923964076
 31
0.0
  0
LINE
  5
24961
330
24D3B
100
AcDbEntity
  8
YODOROGO
100
AcDbLine
 10
11151.60162798447
 20
535.4060611609829
 30
0.0
 11
11226.60162798446
 21
555.5022505933164
 31
0.0
  0
LINE
  5
24962
330
24D3B
100
AcDbEntity
  8
YODOROGO
100
AcDbLine
 10
11231.10162798446
 20
640.4060611609828
 30
0.0
 11
11207.10162798447
 21
640.4060611609828
 31
0.0
  0
ARC
  5
24963
330
24D3B
100
AcDbEntity
  8
YODOROGO
100
AcDbCircle
 10
11345.38040618545
 20
677.9492284624735
 30
0.0
 40
143.2075740771177
100
AcDbArc
 50
213.9611167766784
 51
264.4787207431779
  0
LINE
  5
24964
330
24D3B
100
AcDbEntity
  8
YODOROGO
100
AcDbLine
 10
10797.60162798445
 20
682.4060611609829
 30
0.0
 11
10662.60162798446
 21
682.4060611609829
 31
0.0
  0
LINE
  5
24965
330
24D3B
100
AcDbEntity
  8
YODOROGO
100
AcDbLine
 10
10692.60162798445
 20
535.4060611609829
 30
0.0
 11
10797.60162798445
 21
535.4060611609829
 31
0.0
  0
LINE
  5
24966
330
24D3B
100
AcDbEntity
  8
YODOROGO
100
AcDbLine
 10
10773.60162798447
 20
721.4060611609826
 30
0.0
 11
10686.60162798446
 21
721.4060611609826
 31
0.0
  0
LINE
  5
24967
330
24D3B
100
AcDbEntity
  8
YODOROGO
100
AcDbLine
 10
10719.60162798446
 20
760.4060611609829
 30
0.0
 11
10746.60162798447
 21
760.4060611609829
 31
0.0
  0
LINE
  5
24968
330
24D3B
100
AcDbEntity
  8
YODOROGO
100
AcDbLine
 10
10662.60162798446
 20
640.4060611609828
 30
0.0
 11
10662.60162798446
 21
565.4060611609828
 31
0.0
  0
LINE
  5
24969
330
24D3B
100
AcDbEntity
  8
YODOROGO
100
AcDbLine
 10
10686.60162798446
 20
586.4060611609826
 30
0.0
 11
10686.60162798446
 21
640.4060611609828
 31
0.0
  0
LINE
  5
2496A
330
24D3B
100
AcDbEntity
  8
YODOROGO
100
AcDbLine
 10
10719.60162798446
 20
655.4060611609838
 30
0.0
 11
10719.60162798446
 21
580.406061160983
 31
0.0
  0
LINE
  5
2496B
330
24D3B
100
AcDbEntity
  8
YODOROGO
100
AcDbLine
 10
10446.60162798447
 20
631.4060611609833
 30
0.0
 11
10416.60162798446
 21
607.4896552667143
 31
0.0
  0
LINE
  5
2496C
330
24D3B
100
AcDbEntity
  8
YODOROGO
100
AcDbLine
 10
10476.60162798446
 20
607.4896552667143
 30
0.0
 11
10446.60162798447
 21
631.4060611609833
 31
0.0
  0
LINE
  5
2496D
330
24D3B
100
AcDbEntity
  8
YODOROGO
100
AcDbLine
 10
10446.60162798447
 20
640.4060611609828
 30
0.0
 11
10476.60162798446
 21
616.4896552667137
 31
0.0
  0
LINE
  5
2496E
330
24D3B
100
AcDbEntity
  8
YODOROGO
100
AcDbLine
 10
10416.60162798446
 20
616.4896552667137
 30
0.0
 11
10446.60162798447
 21
640.4060611609828
 31
0.0
  0
LINE
  5
2496F
330
24D3B
100
AcDbEntity
  8
YODOROGO
100
AcDbLine
 10
10515.34245150633
 20
622.406061160983
 30
0.0
 11
10515.34245150633
 21
631.4060611609826
 31
0.0
  0
LINE
  5
24970
330
24D3B
100
AcDbEntity
  8
YODOROGO
100
AcDbLine
 10
10491.60162798447
 20
631.4060611609826
 30
0.0
 11
10491.60162798447
 21
625.4060611609819
 31
0.0
  0
LINE
  5
24971
330
24D3B
100
AcDbEntity
  8
YODOROGO
100
AcDbLine
 10
10536.8008200866
 20
640.4060611609828
 30
0.0
 11
10536.8008200866
 21
620.813863977996
 31
0.0
1001
AUTOCAD_POSTSCRIPT_FIGURE
1002
{
1000
PSFILL
1000
Grayscale
1000
Grayscale
1070
   100
1002
}
  0
LINE
  5
24972
330
24D3B
100
AcDbEntity
  8
YODOROGO
100
AcDbLine
 10
10530.80082008658
 20
620.813863977996
 30
0.0
 11
10530.80082008658
 21
640.4060611609828
 31
0.0
1001
AUTOCAD_POSTSCRIPT_FIGURE
1002
{
1000
PSFILL
1000
Grayscale
1000
Grayscale
1070
   100
1002
}
  0
LINE
  5
24973
330
24D3B
100
AcDbEntity
  8
YODOROGO
100
AcDbLine
 10
10428.60162798447
 20
603.2894640162218
 30
0.0
 11
10428.60162798447
 21
612.2894640162222
 31
0.0
  0
LINE
  5
24974
330
24D3B
100
AcDbEntity
  8
YODOROGO
100
AcDbLine
 10
10464.60162798447
 20
603.2894640162218
 30
0.0
 11
10428.60162798447
 21
603.2894640162218
 31
0.0
  0
LINE
  5
24975
330
24D3B
100
AcDbEntity
  8
YODOROGO
100
AcDbLine
 10
10464.60162798447
 20
612.2894640162222
 30
0.0
 11
10464.60162798447
 21
603.2894640162218
 31
0.0
  0
LINE
  5
24976
330
24D3B
100
AcDbEntity
  8
YODOROGO
100
AcDbLine
 10
10428.60162798447
 20
612.2894640162222
 30
0.0
 11
10464.60162798447
 21
612.2894640162222
 31
0.0
  0
LINE
  5
24977
330
24D3B
100
AcDbEntity
  8
YODOROGO
100
AcDbLine
 10
10434.1910958434
 20
588.1885715139279
 30
0.0
 11
10419.60162798446
 21
553.4060611609826
 31
0.0
1001
AUTOCAD_POSTSCRIPT_FIGURE
1002
{
1000
PSFILL
1000
Grayscale
1000
Grayscale
1070
   100
1002
}
  0
LINE
  5
24978
330
24D3B
100
AcDbEntity
  8
YODOROGO
100
AcDbLine
 10
10416.60162798446
 20
588.1885715139279
 30
0.0
 11
10434.1910958434
 21
588.1885715139279
 31
0.0
1001
AUTOCAD_POSTSCRIPT_FIGURE
1002
{
1000
PSFILL
1000
Grayscale
1000
Grayscale
1070
   100
1002
}
  0
LINE
  5
24979
330
24D3B
100
AcDbEntity
  8
YODOROGO
100
AcDbLine
 10
10416.60162798446
 20
595.688571513928
 30
0.0
 11
10416.60162798446
 21
588.1885715139279
 31
0.0
1001
AUTOCAD_POSTSCRIPT_FIGURE
1002
{
1000
PSFILL
1000
Grayscale
1000
Grayscale
1070
   100
1002
}
  0
LINE
  5
2497A
330
24D3B
100
AcDbEntity
  8
YODOROGO
100
AcDbLine
 10
10476.60162798446
 20
595.688571513928
 30
0.0
 11
10416.60162798446
 21
595.688571513928
 31
0.0
1001
AUTOCAD_POSTSCRIPT_FIGURE
1002
{
1000
PSFILL
1000
Grayscale
1000
Grayscale
1070
   100
1002
}
  0
LINE
  5
2497B
330
24D3B
100
AcDbEntity
  8
YODOROGO
100
AcDbLine
 10
10476.60162798446
 20
588.1885715139279
 30
0.0
 11
10476.60162798446
 21
595.688571513928
 31
0.0
1001
AUTOCAD_POSTSCRIPT_FIGURE
1002
{
1000
PSFILL
1000
Grayscale
1000
Grayscale
1070
   100
1002
}
  0
LINE
  5
2497C
330
24D3B
100
AcDbEntity
  8
YODOROGO
100
AcDbLine
 10
10441.69109584339
 20
588.1885715139279
 30
0.0
 11
10476.60162798446
 21
588.1885715139279
 31
0.0
1001
AUTOCAD_POSTSCRIPT_FIGURE
1002
{
1000
PSFILL
1000
Grayscale
1000
Grayscale
1070
   100
1002
}
  0
LINE
  5
2497D
330
24D3B
100
AcDbEntity
  8
YODOROGO
100
AcDbLine
 10
10430.83001935679
 20
560.9060611609826
 30
0.0
 11
10441.69109584339
 21
588.1885715139279
 31
0.0
1001
AUTOCAD_POSTSCRIPT_FIGURE
1002
{
1000
PSFILL
1000
Grayscale
1000
Grayscale
1070
   100
1002
}
  0
LINE
  5
2497E
330
24D3B
100
AcDbEntity
  8
YODOROGO
100
AcDbLine
 10
10463.27054655324
 20
560.9060611609826
 30
0.0
 11
10430.83001935679
 21
560.9060611609826
 31
0.0
1001
AUTOCAD_POSTSCRIPT_FIGURE
1002
{
1000
PSFILL
1000
Grayscale
1000
Grayscale
1070
   100
1002
}
  0
LINE
  5
2497F
330
24D3B
100
AcDbEntity
  8
YODOROGO
100
AcDbLine
 10
10456.8993767966
 20
576.0876790116348
 30
0.0
 11
10463.27054655324
 21
560.9060611609826
 31
0.0
1001
AUTOCAD_POSTSCRIPT_FIGURE
1002
{
1000
PSFILL
1000
Grayscale
1000
Grayscale
1070
   100
1002
}
  0
LINE
  5
24980
330
24D3B
100
AcDbEntity
  8
YODOROGO
100
AcDbLine
 10
10462.89937679661
 20
576.0876790116348
 30
0.0
 11
10456.8993767966
 21
576.0876790116348
 31
0.0
1001
AUTOCAD_POSTSCRIPT_FIGURE
1002
{
1000
PSFILL
1000
Grayscale
1000
Grayscale
1070
   100
1002
}
  0
LINE
  5
24981
330
24D3B
100
AcDbEntity
  8
YODOROGO
100
AcDbLine
 10
10473.60162798447
 20
553.4060611609826
 30
0.0
 11
10462.89937679661
 21
576.0876790116348
 31
0.0
1001
AUTOCAD_POSTSCRIPT_FIGURE
1002
{
1000
PSFILL
1000
Grayscale
1000
Grayscale
1070
   100
1002
}
  0
LINE
  5
24982
330
24D3B
100
AcDbEntity
  8
YODOROGO
100
AcDbLine
 10
10419.60162798446
 20
553.4060611609826
 30
0.0
 11
10473.60162798447
 21
553.4060611609826
 31
0.0
1001
AUTOCAD_POSTSCRIPT_FIGURE
1002
{
1000
PSFILL
1000
Grayscale
1000
Grayscale
1070
   100
1002
}
  0
LINE
  5
24983
330
24D3B
100
AcDbEntity
  8
YODOROGO
100
AcDbLine
 10
10416.60162798446
 20
607.4896552667143
 30
0.0
 11
10416.60162798446
 21
616.4896552667137
 31
0.0
  0
LINE
  5
24984
330
24D3B
100
AcDbEntity
  8
YODOROGO
100
AcDbLine
 10
10476.60162798446
 20
616.4896552667137
 30
0.0
 11
10476.60162798446
 21
607.4896552667143
 31
0.0
  0
ARC
  5
24985
330
24D3B
100
AcDbEntity
  8
YODOROGO
100
AcDbCircle
 10
10584.72766580511
 20
600.3291619969972
 30
0.0
 40
65.99999999999997
100
AcDbArc
 50
280.3644312771313
 51
3.541483659218056
  0
ARC
  5
24986
330
24D3B
100
AcDbEntity
  8
YODOROGO
100
AcDbCircle
 10
10588.40851153474
 20
612.5991776107142
 30
0.0
 40
41.99999999999936
100
AcDbArc
 50
281.2490582504155
 51
348.7509417495832
  0
LINE
  5
24987
330
24D3B
100
AcDbEntity
  8
YODOROGO
100
AcDbLine
 10
10596.60162798446
 20
571.4060611609826
 30
0.0
 11
10596.60162798446
 21
535.4060611609829
 31
0.0
  0
LINE
  5
24988
330
24D3B
100
AcDbEntity
  8
YODOROGO
100
AcDbLine
 10
10507.53333890132
 20
603.9939618982182
 30
0.0
 11
10515.34245150633
 21
622.406061160983
 31
0.0
  0
LINE
  5
24989
330
24D3B
100
AcDbEntity
  8
YODOROGO
100
AcDbLine
 10
10515.60162798445
 20
593.6701837306506
 30
0.0
 11
10507.53333890132
 21
603.9939618982182
 31
0.0
  0
LINE
  5
2498A
330
24D3B
100
AcDbEntity
  8
YODOROGO
100
AcDbLine
 10
10515.60162798445
 20
586.1701837306497
 30
0.0
 11
10515.60162798445
 21
593.6701837306506
 31
0.0
  0
LINE
  5
2498B
330
24D3B
100
AcDbEntity
  8
YODOROGO
100
AcDbLine
 10
10506.60162798447
 20
594.4638989060739
 30
0.0
 11
10515.60162798445
 21
586.1701837306497
 31
0.0
  0
LINE
  5
2498C
330
24D3B
100
AcDbEntity
  8
YODOROGO
100
AcDbLine
 10
10506.60162798447
 20
553.4060611609826
 30
0.0
 11
10506.60162798447
 21
594.4638989060739
 31
0.0
  0
LINE
  5
2498D
330
24D3B
100
AcDbEntity
  8
YODOROGO
100
AcDbLine
 10
10500.60162798446
 20
553.4060611609826
 30
0.0
 11
10506.60162798447
 21
553.4060611609826
 31
0.0
  0
LINE
  5
2498E
330
24D3B
100
AcDbEntity
  8
YODOROGO
100
AcDbLine
 10
10500.60162798446
 20
592.5020061336555
 30
0.0
 11
10500.60162798446
 21
553.4060611609826
 31
0.0
  0
LINE
  5
2498F
330
24D3B
100
AcDbEntity
  8
YODOROGO
100
AcDbLine
 10
10491.60162798447
 20
574.7880296375358
 30
0.0
 11
10500.60162798446
 21
592.5020061336555
 31
0.0
  0
LINE
  5
24990
330
24D3B
100
AcDbEntity
  8
YODOROGO
100
AcDbLine
 10
10491.60162798447
 20
583.788029637536
 30
0.0
 11
10491.60162798447
 21
574.7880296375358
 31
0.0
  0
LINE
  5
24991
330
24D3B
100
AcDbEntity
  8
YODOROGO
100
AcDbLine
 10
10509.68579035925
 20
625.4060611609819
 30
0.0
 11
10491.60162798447
 21
583.788029637536
 31
0.0
  0
LINE
  5
24992
330
24D3B
100
AcDbEntity
  8
YODOROGO
100
AcDbLine
 10
10491.60162798447
 20
625.4060611609819
 30
0.0
 11
10509.68579035925
 21
625.4060611609819
 31
0.0
  0
LINE
  5
24993
330
24D3B
100
AcDbEntity
  8
YODOROGO
100
AcDbLine
 10
10518.80082008659
 20
620.813863977996
 30
0.0
 11
10530.80082008658
 21
620.813863977996
 31
0.0
1001
AUTOCAD_POSTSCRIPT_FIGURE
1002
{
1000
PSFILL
1000
Grayscale
1000
Grayscale
1070
   100
1002
}
  0
LINE
  5
24994
330
24D3B
100
AcDbEntity
  8
YODOROGO
100
AcDbLine
 10
10518.80082008659
 20
611.8138639779963
 30
0.0
 11
10518.80082008659
 21
620.813863977996
 31
0.0
1001
AUTOCAD_POSTSCRIPT_FIGURE
1002
{
1000
PSFILL
1000
Grayscale
1000
Grayscale
1070
   100
1002
}
  0
LINE
  5
24995
330
24D3B
100
AcDbEntity
  8
YODOROGO
100
AcDbLine
 10
10530.80082008658
 20
611.8138639779963
 30
0.0
 11
10518.80082008659
 21
611.8138639779963
 31
0.0
1001
AUTOCAD_POSTSCRIPT_FIGURE
1002
{
1000
PSFILL
1000
Grayscale
1000
Grayscale
1070
   100
1002
}
  0
LINE
  5
24996
330
24D3B
100
AcDbEntity
  8
YODOROGO
100
AcDbLine
 10
10530.80082008658
 20
562.4060611609831
 30
0.0
 11
10530.80082008658
 21
611.8138639779963
 31
0.0
1001
AUTOCAD_POSTSCRIPT_FIGURE
1002
{
1000
PSFILL
1000
Grayscale
1000
Grayscale
1070
   100
1002
}
  0
LINE
  5
24997
330
24D3B
100
AcDbEntity
  8
YODOROGO
100
AcDbLine
 10
10518.8008200866
 20
562.4060611609831
 30
0.0
 11
10530.80082008658
 21
562.4060611609831
 31
0.0
1001
AUTOCAD_POSTSCRIPT_FIGURE
1002
{
1000
PSFILL
1000
Grayscale
1000
Grayscale
1070
   100
1002
}
  0
LINE
  5
24998
330
24D3B
100
AcDbEntity
  8
YODOROGO
100
AcDbLine
 10
10518.8008200866
 20
553.4060611609826
 30
0.0
 11
10518.8008200866
 21
562.4060611609831
 31
0.0
1001
AUTOCAD_POSTSCRIPT_FIGURE
1002
{
1000
PSFILL
1000
Grayscale
1000
Grayscale
1070
   100
1002
}
  0
LINE
  5
24999
330
24D3B
100
AcDbEntity
  8
YODOROGO
100
AcDbLine
 10
10551.60162798447
 20
553.4060611609826
 30
0.0
 11
10518.8008200866
 21
553.4060611609826
 31
0.0
1001
AUTOCAD_POSTSCRIPT_FIGURE
1002
{
1000
PSFILL
1000
Grayscale
1000
Grayscale
1070
   100
1002
}
  0
LINE
  5
2499A
330
24D3B
100
AcDbEntity
  8
YODOROGO
100
AcDbLine
 10
10551.60162798447
 20
562.4060611609831
 30
0.0
 11
10551.60162798447
 21
553.4060611609826
 31
0.0
1001
AUTOCAD_POSTSCRIPT_FIGURE
1002
{
1000
PSFILL
1000
Grayscale
1000
Grayscale
1070
   100
1002
}
  0
LINE
  5
2499B
330
24D3B
100
AcDbEntity
  8
YODOROGO
100
AcDbLine
 10
10536.8008200866
 20
562.4060611609831
 30
0.0
 11
10551.60162798447
 21
562.4060611609831
 31
0.0
1001
AUTOCAD_POSTSCRIPT_FIGURE
1002
{
1000
PSFILL
1000
Grayscale
1000
Grayscale
1070
   100
1002
}
  0
LINE
  5
2499C
330
24D3B
100
AcDbEntity
  8
YODOROGO
100
AcDbLine
 10
10536.8008200866
 20
611.8138639779963
 30
0.0
 11
10536.8008200866
 21
562.4060611609831
 31
0.0
1001
AUTOCAD_POSTSCRIPT_FIGURE
1002
{
1000
PSFILL
1000
Grayscale
1000
Grayscale
1070
   100
1002
}
  0
LINE
  5
2499D
330
24D3B
100
AcDbEntity
  8
YODOROGO
100
AcDbLine
 10
10551.60162798447
 20
611.8138639779963
 30
0.0
 11
10536.8008200866
 21
611.8138639779963
 31
0.0
1001
AUTOCAD_POSTSCRIPT_FIGURE
1002
{
1000
PSFILL
1000
Grayscale
1000
Grayscale
1070
   100
1002
}
  0
LINE
  5
2499E
330
24D3B
100
AcDbEntity
  8
YODOROGO
100
AcDbLine
 10
10551.60162798447
 20
620.813863977996
 30
0.0
 11
10551.60162798447
 21
611.8138639779963
 31
0.0
1001
AUTOCAD_POSTSCRIPT_FIGURE
1002
{
1000
PSFILL
1000
Grayscale
1000
Grayscale
1070
   100
1002
}
  0
LINE
  5
2499F
330
24D3B
100
AcDbEntity
  8
YODOROGO
100
AcDbLine
 10
10536.8008200866
 20
620.813863977996
 30
0.0
 11
10551.60162798447
 21
620.813863977996
 31
0.0
1001
AUTOCAD_POSTSCRIPT_FIGURE
1002
{
1000
PSFILL
1000
Grayscale
1000
Grayscale
1070
   100
1002
}
  0
LINE
  5
249A0
330
24D3B
100
AcDbEntity
  8
YODOROGO
100
AcDbLine
 10
10650.60162798447
 20
625.406061160983
 30
0.0
 11
10629.60162798447
 21
625.406061160983
 31
0.0
  0
LINE
  5
249A1
330
24D3B
100
AcDbEntity
  8
YODOROGO
100
AcDbLine
 10
10650.60162798447
 20
604.4060611609832
 30
0.0
 11
10650.60162798447
 21
625.406061160983
 31
0.0
  0
LINE
  5
249A2
330
24D3B
100
AcDbEntity
  8
YODOROGO
100
AcDbLine
 10
10629.60162798447
 20
625.406061160983
 30
0.0
 11
10629.60162798447
 21
604.4060611609832
 31
0.0
  0
ARC
  5
249A3
330
24D3B
100
AcDbEntity
  8
YODOROGO
100
AcDbCircle
 10
10692.60162798445
 20
565.4060611609828
 30
0.0
 40
30.0
100
AcDbArc
 50
180.0
 51
270.0
  0
ARC
  5
249A4
330
24D3B
100
AcDbEntity
  8
YODOROGO
100
AcDbCircle
 10
10701.60162798445
 20
586.4060611609826
 30
0.0
 40
15.0
100
AcDbArc
 50
180.0
 51
270.0
  0
LINE
  5
249A5
330
24D3B
100
AcDbEntity
  8
YODOROGO
100
AcDbLine
 10
10710.60162798447
 20
571.4060611609826
 30
0.0
 11
10701.60162798445
 21
571.4060611609826
 31
0.0
  0
ARC
  5
249A6
330
24D3B
100
AcDbEntity
  8
YODOROGO
100
AcDbCircle
 10
10710.60162798447
 20
580.4060611609819
 30
0.0
 40
8.999999999998635
100
AcDbArc
 50
270.0
 51
0.0000000000054281
  0
LINE
  5
249A7
330
24D3B
100
AcDbEntity
  8
YODOROGO
100
AcDbLine
 10
10425.60162798447
 20
709.0449677976399
 30
0.0
 11
10416.60162798446
 21
691.4162804818772
 31
0.0
1001
AUTOCAD_POSTSCRIPT_FIGURE
1002
{
1000
PSFILL
1000
Grayscale
1000
Grayscale
1070
   100
1002
}
  0
LINE
  5
249A8
330
24D3B
100
AcDbEntity
  8
YODOROGO
100
AcDbLine
 10
10425.60162798447
 20
655.406061160983
 30
0.0
 11
10425.60162798447
 21
709.0449677976399
 31
0.0
1001
AUTOCAD_POSTSCRIPT_FIGURE
1002
{
1000
PSFILL
1000
Grayscale
1000
Grayscale
1070
   100
1002
}
  0
LINE
  5
249A9
330
24D3B
100
AcDbEntity
  8
YODOROGO
100
AcDbLine
 10
10431.60162798447
 20
655.406061160983
 30
0.0
 11
10425.60162798447
 21
655.406061160983
 31
0.0
1001
AUTOCAD_POSTSCRIPT_FIGURE
1002
{
1000
PSFILL
1000
Grayscale
1000
Grayscale
1070
   100
1002
}
  0
LINE
  5
249AA
330
24D3B
100
AcDbEntity
  8
YODOROGO
100
AcDbLine
 10
10431.60162798447
 20
710.1642495319751
 30
0.0
 11
10431.60162798447
 21
655.406061160983
 31
0.0
1001
AUTOCAD_POSTSCRIPT_FIGURE
1002
{
1000
PSFILL
1000
Grayscale
1000
Grayscale
1070
   100
1002
}
  0
LINE
  5
249AB
330
24D3B
100
AcDbEntity
  8
YODOROGO
100
AcDbLine
 10
10440.60162798446
 20
700.3705343565512
 30
0.0
 11
10431.60162798447
 21
710.1642495319751
 31
0.0
1001
AUTOCAD_POSTSCRIPT_FIGURE
1002
{
1000
PSFILL
1000
Grayscale
1000
Grayscale
1070
   100
1002
}
  0
LINE
  5
249AC
330
24D3B
100
AcDbEntity
  8
YODOROGO
100
AcDbLine
 10
10440.60162798446
 20
706.3705343565509
 30
0.0
 11
10440.60162798446
 21
700.3705343565512
 31
0.0
1001
AUTOCAD_POSTSCRIPT_FIGURE
1002
{
1000
PSFILL
1000
Grayscale
1000
Grayscale
1070
   100
1002
}
  0
LINE
  5
249AD
330
24D3B
100
AcDbEntity
  8
YODOROGO
100
AcDbLine
 10
10431.60162798447
 20
719.1642495319745
 30
0.0
 11
10440.60162798446
 21
706.3705343565509
 31
0.0
1001
AUTOCAD_POSTSCRIPT_FIGURE
1002
{
1000
PSFILL
1000
Grayscale
1000
Grayscale
1070
   100
1002
}
  0
LINE
  5
249AE
330
24D3B
100
AcDbEntity
  8
YODOROGO
100
AcDbLine
 10
10431.60162798447
 20
727.4060611609829
 30
0.0
 11
10431.60162798447
 21
719.1642495319745
 31
0.0
1001
AUTOCAD_POSTSCRIPT_FIGURE
1002
{
1000
PSFILL
1000
Grayscale
1000
Grayscale
1070
   100
1002
}
  0
LINE
  5
249AF
330
24D3B
100
AcDbEntity
  8
YODOROGO
100
AcDbLine
 10
10458.60162798446
 20
727.4060611609829
 30
0.0
 11
10431.60162798447
 21
727.4060611609829
 31
0.0
1001
AUTOCAD_POSTSCRIPT_FIGURE
1002
{
1000
PSFILL
1000
Grayscale
1000
Grayscale
1070
   100
1002
}
  0
LINE
  5
249B0
330
24D3B
100
AcDbEntity
  8
YODOROGO
100
AcDbLine
 10
10458.60162798446
 20
712.7131308511124
 30
0.0
 11
10458.60162798446
 21
727.4060611609829
 31
0.0
1001
AUTOCAD_POSTSCRIPT_FIGURE
1002
{
1000
PSFILL
1000
Grayscale
1000
Grayscale
1070
   100
1002
}
  0
LINE
  5
249B1
330
24D3B
100
AcDbEntity
  8
YODOROGO
100
AcDbLine
 10
10446.60162798447
 20
712.7131308511124
 30
0.0
 11
10458.60162798446
 21
712.7131308511124
 31
0.0
1001
AUTOCAD_POSTSCRIPT_FIGURE
1002
{
1000
PSFILL
1000
Grayscale
1000
Grayscale
1070
   100
1002
}
  0
LINE
  5
249B2
330
24D3B
100
AcDbEntity
  8
YODOROGO
100
AcDbLine
 10
10446.60162798447
 20
706.7131308511116
 30
0.0
 11
10446.60162798447
 21
712.7131308511124
 31
0.0
1001
AUTOCAD_POSTSCRIPT_FIGURE
1002
{
1000
PSFILL
1000
Grayscale
1000
Grayscale
1070
   100
1002
}
  0
LINE
  5
249B3
330
24D3B
100
AcDbEntity
  8
YODOROGO
100
AcDbLine
 10
10458.60162798446
 20
706.7131308511116
 30
0.0
 11
10446.60162798447
 21
706.7131308511116
 31
0.0
1001
AUTOCAD_POSTSCRIPT_FIGURE
1002
{
1000
PSFILL
1000
Grayscale
1000
Grayscale
1070
   100
1002
}
  0
LINE
  5
249B4
330
24D3B
100
AcDbEntity
  8
YODOROGO
100
AcDbLine
 10
10458.60162798446
 20
704.8571917366647
 30
0.0
 11
10458.60162798446
 21
706.7131308511116
 31
0.0
1001
AUTOCAD_POSTSCRIPT_FIGURE
1002
{
1000
PSFILL
1000
Grayscale
1000
Grayscale
1070
   100
1002
}
  0
LINE
  5
249B5
330
24D3B
100
AcDbEntity
  8
YODOROGO
100
AcDbLine
 10
10443.60162798447
 20
679.8656179355313
 30
0.0
 11
10458.60162798446
 21
704.8571917366647
 31
0.0
1001
AUTOCAD_POSTSCRIPT_FIGURE
1002
{
1000
PSFILL
1000
Grayscale
1000
Grayscale
1070
   100
1002
}
  0
LINE
  5
249B6
330
24D3B
100
AcDbEntity
  8
YODOROGO
100
AcDbLine
 10
10443.60162798447
 20
673.8656179355309
 30
0.0
 11
10443.60162798447
 21
679.8656179355313
 31
0.0
1001
AUTOCAD_POSTSCRIPT_FIGURE
1002
{
1000
PSFILL
1000
Grayscale
1000
Grayscale
1070
   100
1002
}
  0
LINE
  5
249B7
330
24D3B
100
AcDbEntity
  8
YODOROGO
100
AcDbLine
 10
10458.60162798446
 20
692.8571917366638
 30
0.0
 11
10443.60162798447
 21
673.8656179355309
 31
0.0
1001
AUTOCAD_POSTSCRIPT_FIGURE
1002
{
1000
PSFILL
1000
Grayscale
1000
Grayscale
1070
   100
1002
}
  0
LINE
  5
249B8
330
24D3B
100
AcDbEntity
  8
YODOROGO
100
AcDbLine
 10
10458.60162798446
 20
655.406061160983
 30
0.0
 11
10458.60162798446
 21
692.8571917366638
 31
0.0
1001
AUTOCAD_POSTSCRIPT_FIGURE
1002
{
1000
PSFILL
1000
Grayscale
1000
Grayscale
1070
   100
1002
}
  0
LINE
  5
249B9
330
24D3B
100
AcDbEntity
  8
YODOROGO
100
AcDbLine
 10
10464.60162798447
 20
655.406061160983
 30
0.0
 11
10458.60162798446
 21
655.406061160983
 31
0.0
1001
AUTOCAD_POSTSCRIPT_FIGURE
1002
{
1000
PSFILL
1000
Grayscale
1000
Grayscale
1070
   100
1002
}
  0
LINE
  5
249BA
330
24D3B
100
AcDbEntity
  8
YODOROGO
100
AcDbLine
 10
10464.60162798447
 20
693.5283795595521
 30
0.0
 11
10464.60162798447
 21
655.406061160983
 31
0.0
1001
AUTOCAD_POSTSCRIPT_FIGURE
1002
{
1000
PSFILL
1000
Grayscale
1000
Grayscale
1070
   100
1002
}
  0
LINE
  5
249BB
330
24D3B
100
AcDbEntity
  8
YODOROGO
100
AcDbLine
 10
10476.60162798446
 20
673.8656179355309
 30
0.0
 11
10464.60162798447
 21
693.5283795595521
 31
0.0
1001
AUTOCAD_POSTSCRIPT_FIGURE
1002
{
1000
PSFILL
1000
Grayscale
1000
Grayscale
1070
   100
1002
}
  0
LINE
  5
249BC
330
24D3B
100
AcDbEntity
  8
YODOROGO
100
AcDbLine
 10
10476.60162798446
 20
679.8656179355313
 30
0.0
 11
10476.60162798446
 21
673.8656179355309
 31
0.0
1001
AUTOCAD_POSTSCRIPT_FIGURE
1002
{
1000
PSFILL
1000
Grayscale
1000
Grayscale
1070
   100
1002
}
  0
LINE
  5
249BD
330
24D3B
100
AcDbEntity
  8
YODOROGO
100
AcDbLine
 10
10464.60162798447
 20
705.5283795595531
 30
0.0
 11
10476.60162798446
 21
679.8656179355313
 31
0.0
1001
AUTOCAD_POSTSCRIPT_FIGURE
1002
{
1000
PSFILL
1000
Grayscale
1000
Grayscale
1070
   100
1002
}
  0
LINE
  5
249BE
330
24D3B
100
AcDbEntity
  8
YODOROGO
100
AcDbLine
 10
10464.60162798447
 20
706.7131308511128
 30
0.0
 11
10464.60162798447
 21
705.5283795595531
 31
0.0
1001
AUTOCAD_POSTSCRIPT_FIGURE
1002
{
1000
PSFILL
1000
Grayscale
1000
Grayscale
1070
   100
1002
}
  0
LINE
  5
249BF
330
24D3B
100
AcDbEntity
  8
YODOROGO
100
AcDbLine
 10
10476.60162798446
 20
706.7131308511116
 30
0.0
 11
10464.60162798447
 21
706.7131308511128
 31
0.0
1001
AUTOCAD_POSTSCRIPT_FIGURE
1002
{
1000
PSFILL
1000
Grayscale
1000
Grayscale
1070
   100
1002
}
  0
LINE
  5
249C0
330
24D3B
100
AcDbEntity
  8
YODOROGO
100
AcDbLine
 10
10476.60162798446
 20
712.7131308511124
 30
0.0
 11
10476.60162798446
 21
706.7131308511116
 31
0.0
1001
AUTOCAD_POSTSCRIPT_FIGURE
1002
{
1000
PSFILL
1000
Grayscale
1000
Grayscale
1070
   100
1002
}
  0
LINE
  5
249C1
330
24D3B
100
AcDbEntity
  8
YODOROGO
100
AcDbLine
 10
10464.60162798447
 20
712.7131308511124
 30
0.0
 11
10476.60162798446
 21
712.7131308511124
 31
0.0
1001
AUTOCAD_POSTSCRIPT_FIGURE
1002
{
1000
PSFILL
1000
Grayscale
1000
Grayscale
1070
   100
1002
}
  0
LINE
  5
249C2
330
24D3B
100
AcDbEntity
  8
YODOROGO
100
AcDbLine
 10
10464.60162798447
 20
727.4060611609829
 30
0.0
 11
10464.60162798447
 21
712.7131308511124
 31
0.0
1001
AUTOCAD_POSTSCRIPT_FIGURE
1002
{
1000
PSFILL
1000
Grayscale
1000
Grayscale
1070
   100
1002
}
  0
LINE
  5
249C3
330
24D3B
100
AcDbEntity
  8
YODOROGO
100
AcDbLine
 10
10476.60162798446
 20
727.4060611609829
 30
0.0
 11
10464.60162798447
 21
727.4060611609829
 31
0.0
1001
AUTOCAD_POSTSCRIPT_FIGURE
1002
{
1000
PSFILL
1000
Grayscale
1000
Grayscale
1070
   100
1002
}
  0
LINE
  5
249C4
330
24D3B
100
AcDbEntity
  8
YODOROGO
100
AcDbLine
 10
10476.60162798446
 20
733.4060611609828
 30
0.0
 11
10476.60162798446
 21
727.4060611609829
 31
0.0
1001
AUTOCAD_POSTSCRIPT_FIGURE
1002
{
1000
PSFILL
1000
Grayscale
1000
Grayscale
1070
   100
1002
}
  0
LINE
  5
249C5
330
24D3B
100
AcDbEntity
  8
YODOROGO
100
AcDbLine
 10
10464.60162798447
 20
733.4060611609828
 30
0.0
 11
10476.60162798446
 21
733.4060611609828
 31
0.0
1001
AUTOCAD_POSTSCRIPT_FIGURE
1002
{
1000
PSFILL
1000
Grayscale
1000
Grayscale
1070
   100
1002
}
  0
LINE
  5
249C6
330
24D3B
100
AcDbEntity
  8
YODOROGO
100
AcDbLine
 10
10464.60162798447
 20
742.4060611609831
 30
0.0
 11
10464.60162798447
 21
733.4060611609828
 31
0.0
1001
AUTOCAD_POSTSCRIPT_FIGURE
1002
{
1000
PSFILL
1000
Grayscale
1000
Grayscale
1070
   100
1002
}
  0
LINE
  5
249C7
330
24D3B
100
AcDbEntity
  8
YODOROGO
100
AcDbLine
 10
10458.60162798446
 20
742.4060611609831
 30
0.0
 11
10464.60162798447
 21
742.4060611609831
 31
0.0
1001
AUTOCAD_POSTSCRIPT_FIGURE
1002
{
1000
PSFILL
1000
Grayscale
1000
Grayscale
1070
   100
1002
}
  0
LINE
  5
249C8
330
24D3B
100
AcDbEntity
  8
YODOROGO
100
AcDbLine
 10
10458.60162798446
 20
733.4060611609828
 30
0.0
 11
10458.60162798446
 21
742.4060611609831
 31
0.0
1001
AUTOCAD_POSTSCRIPT_FIGURE
1002
{
1000
PSFILL
1000
Grayscale
1000
Grayscale
1070
   100
1002
}
  0
LINE
  5
249C9
330
24D3B
100
AcDbEntity
  8
YODOROGO
100
AcDbLine
 10
10449.60162798447
 20
733.4060611609828
 30
0.0
 11
10458.60162798446
 21
733.4060611609828
 31
0.0
1001
AUTOCAD_POSTSCRIPT_FIGURE
1002
{
1000
PSFILL
1000
Grayscale
1000
Grayscale
1070
   100
1002
}
  0
LINE
  5
249CA
330
24D3B
100
AcDbEntity
  8
YODOROGO
100
AcDbLine
 10
10449.60162798447
 20
742.4060611609831
 30
0.0
 11
10449.60162798447
 21
733.4060611609828
 31
0.0
1001
AUTOCAD_POSTSCRIPT_FIGURE
1002
{
1000
PSFILL
1000
Grayscale
1000
Grayscale
1070
   100
1002
}
  0
LINE
  5
249CB
330
24D3B
100
AcDbEntity
  8
YODOROGO
100
AcDbLine
 10
10443.60162798447
 20
742.4060611609831
 30
0.0
 11
10449.60162798447
 21
742.4060611609831
 31
0.0
1001
AUTOCAD_POSTSCRIPT_FIGURE
1002
{
1000
PSFILL
1000
Grayscale
1000
Grayscale
1070
   100
1002
}
  0
LINE
  5
249CC
330
24D3B
100
AcDbEntity
  8
YODOROGO
100
AcDbLine
 10
10443.60162798447
 20
733.4060611609828
 30
0.0
 11
10443.60162798447
 21
742.4060611609831
 31
0.0
1001
AUTOCAD_POSTSCRIPT_FIGURE
1002
{
1000
PSFILL
1000
Grayscale
1000
Grayscale
1070
   100
1002
}
  0
LINE
  5
249CD
330
24D3B
100
AcDbEntity
  8
YODOROGO
100
AcDbLine
 10
10431.60162798447
 20
733.4060611609828
 30
0.0
 11
10443.60162798447
 21
733.4060611609828
 31
0.0
1001
AUTOCAD_POSTSCRIPT_FIGURE
1002
{
1000
PSFILL
1000
Grayscale
1000
Grayscale
1070
   100
1002
}
  0
LINE
  5
249CE
330
24D3B
100
AcDbEntity
  8
YODOROGO
100
AcDbLine
 10
10431.60162798447
 20
742.4060611609831
 30
0.0
 11
10431.60162798447
 21
733.4060611609828
 31
0.0
1001
AUTOCAD_POSTSCRIPT_FIGURE
1002
{
1000
PSFILL
1000
Grayscale
1000
Grayscale
1070
   100
1002
}
  0
LINE
  5
249CF
330
24D3B
100
AcDbEntity
  8
YODOROGO
100
AcDbLine
 10
10425.60162798447
 20
742.4060611609831
 30
0.0
 11
10431.60162798447
 21
742.4060611609831
 31
0.0
1001
AUTOCAD_POSTSCRIPT_FIGURE
1002
{
1000
PSFILL
1000
Grayscale
1000
Grayscale
1070
   100
1002
}
  0
LINE
  5
249D0
330
24D3B
100
AcDbEntity
  8
YODOROGO
100
AcDbLine
 10
10425.60162798447
 20
733.4060611609828
 30
0.0
 11
10425.60162798447
 21
742.4060611609831
 31
0.0
1001
AUTOCAD_POSTSCRIPT_FIGURE
1002
{
1000
PSFILL
1000
Grayscale
1000
Grayscale
1070
   100
1002
}
  0
LINE
  5
249D1
330
24D3B
100
AcDbEntity
  8
YODOROGO
100
AcDbLine
 10
10416.60162798446
 20
733.4060611609828
 30
0.0
 11
10425.60162798447
 21
733.4060611609828
 31
0.0
1001
AUTOCAD_POSTSCRIPT_FIGURE
1002
{
1000
PSFILL
1000
Grayscale
1000
Grayscale
1070
   100
1002
}
  0
LINE
  5
249D2
330
24D3B
100
AcDbEntity
  8
YODOROGO
100
AcDbLine
 10
10416.60162798446
 20
727.4060611609829
 30
0.0
 11
10416.60162798446
 21
733.4060611609828
 31
0.0
1001
AUTOCAD_POSTSCRIPT_FIGURE
1002
{
1000
PSFILL
1000
Grayscale
1000
Grayscale
1070
   100
1002
}
  0
LINE
  5
249D3
330
24D3B
100
AcDbEntity
  8
YODOROGO
100
AcDbLine
 10
10425.60162798447
 20
727.4060611609829
 30
0.0
 11
10416.60162798446
 21
727.4060611609829
 31
0.0
1001
AUTOCAD_POSTSCRIPT_FIGURE
1002
{
1000
PSFILL
1000
Grayscale
1000
Grayscale
1070
   100
1002
}
  0
LINE
  5
249D4
330
24D3B
100
AcDbEntity
  8
YODOROGO
100
AcDbLine
 10
10425.60162798447
 20
718.0449677976392
 30
0.0
 11
10425.60162798447
 21
727.4060611609829
 31
0.0
1001
AUTOCAD_POSTSCRIPT_FIGURE
1002
{
1000
PSFILL
1000
Grayscale
1000
Grayscale
1070
   100
1002
}
  0
LINE
  5
249D5
330
24D3B
100
AcDbEntity
  8
YODOROGO
100
AcDbLine
 10
10416.60162798446
 20
697.4162804818766
 30
0.0
 11
10425.60162798447
 21
718.0449677976392
 31
0.0
1001
AUTOCAD_POSTSCRIPT_FIGURE
1002
{
1000
PSFILL
1000
Grayscale
1000
Grayscale
1070
   100
1002
}
  0
LINE
  5
249D6
330
24D3B
100
AcDbEntity
  8
YODOROGO
100
AcDbLine
 10
10416.60162798446
 20
691.4162804818772
 30
0.0
 11
10416.60162798446
 21
697.4162804818766
 31
0.0
1001
AUTOCAD_POSTSCRIPT_FIGURE
1002
{
1000
PSFILL
1000
Grayscale
1000
Grayscale
1070
   100
1002
}
  0
LINE
  5
249D7
330
24D3B
100
AcDbEntity
  8
YODOROGO
100
AcDbLine
 10
10596.60162798446
 20
700.406061160983
 30
0.0
 11
10650.60162798447
 21
684.3291096151149
 31
0.0
1001
AUTOCAD_POSTSCRIPT_FIGURE
1002
{
1000
PSFILL
1000
Grayscale
1000
Grayscale
1070
   100
1002
}
  0
LINE
  5
249D8
330
24D3B
100
AcDbEntity
  8
YODOROGO
100
AcDbLine
 10
10650.60162798447
 20
657.3291096151146
 30
0.0
 11
10596.60162798446
 21
673.4060611609827
 31
0.0
1001
AUTOCAD_POSTSCRIPT_FIGURE
1002
{
1000
PSFILL
1000
Grayscale
1000
Grayscale
1070
   100
1002
}
  0
LINE
  5
249D9
330
24D3B
100
AcDbEntity
  8
YODOROGO
100
AcDbLine
 10
10650.60162798447
 20
744.329109615115
 30
0.0
 11
10596.60162798446
 21
760.4060611609829
 31
0.0
1001
AUTOCAD_POSTSCRIPT_FIGURE
1002
{
1000
PSFILL
1000
Grayscale
1000
Grayscale
1070
   100
1002
}
  0
LINE
  5
249DA
330
24D3B
100
AcDbEntity
  8
YODOROGO
100
AcDbLine
 10
10596.60162798446
 20
734.906061160983
 30
0.0
 11
10650.60162798447
 21
718.829109615115
 31
0.0
1001
AUTOCAD_POSTSCRIPT_FIGURE
1002
{
1000
PSFILL
1000
Grayscale
1000
Grayscale
1070
   100
1002
}
  0
LINE
  5
249DB
330
24D3B
100
AcDbEntity
  8
YODOROGO
100
AcDbLine
 10
10596.60162798446
 20
673.4060611609827
 30
0.0
 11
10596.60162798446
 21
700.406061160983
 31
0.0
1001
AUTOCAD_POSTSCRIPT_FIGURE
1002
{
1000
PSFILL
1000
Grayscale
1000
Grayscale
1070
   100
1002
}
  0
LINE
  5
249DC
330
24D3B
100
AcDbEntity
  8
YODOROGO
100
AcDbLine
 10
10596.60162798446
 20
760.4060611609829
 30
0.0
 11
10596.60162798446
 21
734.906061160983
 31
0.0
1001
AUTOCAD_POSTSCRIPT_FIGURE
1002
{
1000
PSFILL
1000
Grayscale
1000
Grayscale
1070
   100
1002
}
  0
LINE
  5
249DD
330
24D3B
100
AcDbEntity
  8
YODOROGO
100
AcDbLine
 10
10530.08862007752
 20
727.4060611609829
 30
0.0
 11
10548.60162798447
 21
655.406061160983
 31
0.0
1001
AUTOCAD_POSTSCRIPT_FIGURE
1002
{
1000
PSFILL
1000
Grayscale
1000
Grayscale
1070
   100
1002
}
  0
LINE
  5
249DE
330
24D3B
100
AcDbEntity
  8
YODOROGO
100
AcDbLine
 10
10491.60162798447
 20
727.4060611609829
 30
0.0
 11
10530.08862007752
 21
727.4060611609829
 31
0.0
1001
AUTOCAD_POSTSCRIPT_FIGURE
1002
{
1000
PSFILL
1000
Grayscale
1000
Grayscale
1070
   100
1002
}
  0
LINE
  5
249DF
330
24D3B
100
AcDbEntity
  8
YODOROGO
100
AcDbLine
 10
10491.60162798447
 20
733.4060611609828
 30
0.0
 11
10491.60162798447
 21
727.4060611609829
 31
0.0
1001
AUTOCAD_POSTSCRIPT_FIGURE
1002
{
1000
PSFILL
1000
Grayscale
1000
Grayscale
1070
   100
1002
}
  0
LINE
  5
249E0
330
24D3B
100
AcDbEntity
  8
YODOROGO
100
AcDbLine
 10
10528.72757944497
 20
733.4060611609828
 30
0.0
 11
10491.60162798447
 21
733.4060611609828
 31
0.0
1001
AUTOCAD_POSTSCRIPT_FIGURE
1002
{
1000
PSFILL
1000
Grayscale
1000
Grayscale
1070
   100
1002
}
  0
LINE
  5
249E1
330
24D3B
100
AcDbEntity
  8
YODOROGO
100
AcDbLine
 10
10526.68601849614
 20
742.4060611609831
 30
0.0
 11
10528.72757944497
 21
733.4060611609828
 31
0.0
1001
AUTOCAD_POSTSCRIPT_FIGURE
1002
{
1000
PSFILL
1000
Grayscale
1000
Grayscale
1070
   100
1002
}
  0
LINE
  5
249E2
330
24D3B
100
AcDbEntity
  8
YODOROGO
100
AcDbLine
 10
10534.18601849614
 20
742.4060611609831
 30
0.0
 11
10526.68601849614
 21
742.4060611609831
 31
0.0
1001
AUTOCAD_POSTSCRIPT_FIGURE
1002
{
1000
PSFILL
1000
Grayscale
1000
Grayscale
1070
   100
1002
}
  0
LINE
  5
249E3
330
24D3B
100
AcDbEntity
  8
YODOROGO
100
AcDbLine
 10
10535.92757944497
 20
733.4060611609828
 30
0.0
 11
10534.18601849614
 21
742.4060611609831
 31
0.0
1001
AUTOCAD_POSTSCRIPT_FIGURE
1002
{
1000
PSFILL
1000
Grayscale
1000
Grayscale
1070
   100
1002
}
  0
LINE
  5
249E4
330
24D3B
100
AcDbEntity
  8
YODOROGO
100
AcDbLine
 10
10545.60162798447
 20
733.4060611609828
 30
0.0
 11
10535.92757944497
 21
733.4060611609828
 31
0.0
1001
AUTOCAD_POSTSCRIPT_FIGURE
1002
{
1000
PSFILL
1000
Grayscale
1000
Grayscale
1070
   100
1002
}
  0
LINE
  5
249E5
330
24D3B
100
AcDbEntity
  8
YODOROGO
100
AcDbLine
 10
10545.60162798447
 20
742.4060611609831
 30
0.0
 11
10545.60162798447
 21
733.4060611609828
 31
0.0
1001
AUTOCAD_POSTSCRIPT_FIGURE
1002
{
1000
PSFILL
1000
Grayscale
1000
Grayscale
1070
   100
1002
}
  0
LINE
  5
249E6
330
24D3B
100
AcDbEntity
  8
YODOROGO
100
AcDbLine
 10
10551.60162798447
 20
742.4060611609831
 30
0.0
 11
10545.60162798447
 21
742.4060611609831
 31
0.0
1001
AUTOCAD_POSTSCRIPT_FIGURE
1002
{
1000
PSFILL
1000
Grayscale
1000
Grayscale
1070
   100
1002
}
  0
LINE
  5
249E7
330
24D3B
100
AcDbEntity
  8
YODOROGO
100
AcDbLine
 10
10551.60162798447
 20
733.4060611609828
 30
0.0
 11
10551.60162798447
 21
742.4060611609831
 31
0.0
1001
AUTOCAD_POSTSCRIPT_FIGURE
1002
{
1000
PSFILL
1000
Grayscale
1000
Grayscale
1070
   100
1002
}
  0
LINE
  5
249E8
330
24D3B
100
AcDbEntity
  8
YODOROGO
100
AcDbLine
 10
10551.60162798447
 20
727.4060611609829
 30
0.0
 11
10551.60162798447
 21
733.4060611609828
 31
0.0
1001
AUTOCAD_POSTSCRIPT_FIGURE
1002
{
1000
PSFILL
1000
Grayscale
1000
Grayscale
1070
   100
1002
}
  0
LINE
  5
249E9
330
24D3B
100
AcDbEntity
  8
YODOROGO
100
AcDbLine
 10
10537.08862007753
 20
727.4060611609829
 30
0.0
 11
10551.60162798447
 21
727.4060611609829
 31
0.0
1001
AUTOCAD_POSTSCRIPT_FIGURE
1002
{
1000
PSFILL
1000
Grayscale
1000
Grayscale
1070
   100
1002
}
  0
LINE
  5
249EA
330
24D3B
100
AcDbEntity
  8
YODOROGO
100
AcDbLine
 10
10551.60162798447
 20
655.406061160983
 30
0.0
 11
10537.08862007753
 21
727.4060611609829
 31
0.0
1001
AUTOCAD_POSTSCRIPT_FIGURE
1002
{
1000
PSFILL
1000
Grayscale
1000
Grayscale
1070
   100
1002
}
  0
LINE
  5
249EB
330
24D3B
100
AcDbEntity
  8
YODOROGO
100
AcDbLine
 10
10548.60162798447
 20
655.406061160983
 30
0.0
 11
10551.60162798447
 21
655.406061160983
 31
0.0
1001
AUTOCAD_POSTSCRIPT_FIGURE
1002
{
1000
PSFILL
1000
Grayscale
1000
Grayscale
1070
   100
1002
}
  0
LINE
  5
249EC
330
24D3B
100
AcDbEntity
  8
YODOROGO
100
AcDbLine
 10
10529.27595747517
 20
665.902791112048
 30
0.0
 11
10491.60162798447
 21
655.406061160983
 31
0.0
  0
LINE
  5
249ED
330
24D3B
100
AcDbEntity
  8
YODOROGO
100
AcDbLine
 10
10529.27595747517
 20
674.5008673234024
 30
0.0
 11
10529.27595747517
 21
665.902791112048
 31
0.0
  0
LINE
  5
249EE
330
24D3B
100
AcDbEntity
  8
YODOROGO
100
AcDbLine
 10
10512.68879272982
 20
670.0563499251625
 30
0.0
 11
10529.27595747517
 21
674.5008673234024
 31
0.0
  0
LINE
  5
249EF
330
24D3B
100
AcDbEntity
  8
YODOROGO
100
AcDbLine
 10
10512.68879272982
 20
702.2131308511124
 30
0.0
 11
10512.68879272982
 21
670.0563499251625
 31
0.0
  0
LINE
  5
249F0
330
24D3B
100
AcDbEntity
  8
YODOROGO
100
AcDbLine
 10
10529.27595747517
 20
702.2131308511124
 30
0.0
 11
10512.68879272982
 21
702.2131308511124
 31
0.0
  0
LINE
  5
249F1
330
24D3B
100
AcDbEntity
  8
YODOROGO
100
AcDbLine
 10
10529.27595747517
 20
709.7131308511117
 30
0.0
 11
10529.27595747517
 21
702.2131308511124
 31
0.0
  0
LINE
  5
249F2
330
24D3B
100
AcDbEntity
  8
YODOROGO
100
AcDbLine
 10
10491.60162798447
 20
709.7131308511117
 30
0.0
 11
10529.27595747517
 21
709.7131308511117
 31
0.0
  0
LINE
  5
249F3
330
24D3B
100
AcDbEntity
  8
YODOROGO
100
AcDbLine
 10
10491.60162798447
 20
702.2131308511124
 30
0.0
 11
10491.60162798447
 21
709.7131308511117
 31
0.0
  0
LINE
  5
249F4
330
24D3B
100
AcDbEntity
  8
YODOROGO
100
AcDbLine
 10
10508.18879272982
 20
702.2131308511124
 30
0.0
 11
10491.60162798447
 21
702.2131308511124
 31
0.0
  0
LINE
  5
249F5
330
24D3B
100
AcDbEntity
  8
YODOROGO
100
AcDbLine
 10
10508.18879272982
 20
669.252502347869
 30
0.0
 11
10508.18879272982
 21
702.2131308511124
 31
0.0
  0
LINE
  5
249F6
330
24D3B
100
AcDbEntity
  8
YODOROGO
100
AcDbLine
 10
10491.60162798447
 20
664.4060611609822
 30
0.0
 11
10508.18879272982
 21
669.252502347869
 31
0.0
  0
LINE
  5
249F7
330
24D3B
100
AcDbEntity
  8
YODOROGO
100
AcDbLine
 10
10491.60162798447
 20
655.406061160983
 30
0.0
 11
10491.60162798447
 21
664.4060611609822
 31
0.0
  0
LINE
  5
249F8
330
24D3B
100
AcDbEntity
  8
YODOROGO
100
AcDbLine
 10
10500.60162798446
 20
640.4060611609828
 30
0.0
 11
10500.60162798446
 21
631.4060611609826
 31
0.0
  0
LINE
  5
249F9
330
24D3B
100
AcDbEntity
  8
YODOROGO
100
AcDbLine
 10
10500.60162798446
 20
640.4060611609828
 30
0.0
 11
10500.60162798446
 21
640.4060611609828
 31
0.0
  0
LINE
  5
249FA
330
24D3B
100
AcDbEntity
  8
YODOROGO
100
AcDbLine
 10
10506.60162798447
 20
640.4060611609828
 30
0.0
 11
10500.60162798446
 21
640.4060611609828
 31
0.0
  0
LINE
  5
249FB
330
24D3B
100
AcDbEntity
  8
YODOROGO
100
AcDbLine
 10
10506.60162798447
 20
631.4060611609826
 30
0.0
 11
10506.60162798447
 21
640.4060611609828
 31
0.0
  0
LINE
  5
249FC
330
24D3B
100
AcDbEntity
  8
YODOROGO
100
AcDbLine
 10
10515.34245150633
 20
631.4060611609826
 30
0.0
 11
10506.60162798447
 21
631.4060611609826
 31
0.0
  0
LINE
  5
249FD
330
24D3B
100
AcDbEntity
  8
YODOROGO
100
AcDbLine
 10
10500.60162798446
 20
631.4060611609826
 30
0.0
 11
10491.60162798447
 21
631.4060611609826
 31
0.0
  0
LINE
  5
249FE
330
24D3B
100
AcDbEntity
  8
YODOROGO
100
AcDbLine
 10
10530.80082008658
 20
640.4060611609828
 30
0.0
 11
10536.8008200866
 21
640.4060611609828
 31
0.0
1001
AUTOCAD_POSTSCRIPT_FIGURE
1002
{
1000
PSFILL
1000
Grayscale
1000
Grayscale
1070
   100
1002
}
  0
LINE
  5
249FF
330
24D3B
100
AcDbEntity
  8
YODOROGO
100
AcDbLine
 10
10650.60162798447
 20
684.3291096151149
 30
0.0
 11
10650.60162798447
 21
657.3291096151146
 31
0.0
1001
AUTOCAD_POSTSCRIPT_FIGURE
1002
{
1000
PSFILL
1000
Grayscale
1000
Grayscale
1070
   100
1002
}
  0
LINE
  5
24A00
330
24D3B
100
AcDbEntity
  8
YODOROGO
100
AcDbLine
 10
10650.60162798447
 20
718.829109615115
 30
0.0
 11
10650.60162798447
 21
744.329109615115
 31
0.0
1001
AUTOCAD_POSTSCRIPT_FIGURE
1002
{
1000
PSFILL
1000
Grayscale
1000
Grayscale
1070
   100
1002
}
  0
LINE
  5
24A01
330
24D3B
100
AcDbEntity
  8
YODOROGO
100
AcDbLine
 10
10662.60162798446
 20
682.4060611609829
 30
0.0
 11
10662.60162798446
 21
655.4060611609838
 31
0.0
  0
LINE
  5
24A02
330
24D3B
100
AcDbEntity
  8
YODOROGO
100
AcDbLine
 10
10686.60162798446
 20
640.4060611609828
 30
0.0
 11
10662.60162798446
 21
640.4060611609828
 31
0.0
  0
LINE
  5
24A03
330
24D3B
100
AcDbEntity
  8
YODOROGO
100
AcDbLine
 10
10662.60162798446
 20
655.4060611609838
 30
0.0
 11
10719.60162798446
 21
655.4060611609838
 31
0.0
  0
LINE
  5
24A04
330
24D3B
100
AcDbEntity
  8
YODOROGO
100
AcDbLine
 10
10686.60162798446
 20
700.406061160983
 30
0.0
 11
10662.60162798446
 21
700.406061160983
 31
0.0
  0
LINE
  5
24A05
330
24D3B
100
AcDbEntity
  8
YODOROGO
100
AcDbLine
 10
10686.60162798446
 20
721.4060611609826
 30
0.0
 11
10686.60162798446
 21
700.406061160983
 31
0.0
  0
LINE
  5
24A06
330
24D3B
100
AcDbEntity
  8
YODOROGO
100
AcDbLine
 10
10719.60162798446
 20
745.4060611609828
 30
0.0
 11
10719.60162798446
 21
760.4060611609829
 31
0.0
  0
LINE
  5
24A07
330
24D3B
100
AcDbEntity
  8
YODOROGO
100
AcDbLine
 10
10662.60162798446
 20
745.4060611609828
 30
0.0
 11
10719.60162798446
 21
745.4060611609828
 31
0.0
  0
LINE
  5
24A08
330
24D3B
100
AcDbEntity
  8
YODOROGO
100
AcDbLine
 10
10662.60162798446
 20
700.406061160983
 30
0.0
 11
10662.60162798446
 21
745.4060611609828
 31
0.0
  0
LINE
  5
24A09
330
24D3B
100
AcDbEntity
  8
YODOROGO
100
AcDbLine
 10
10875.60162798447
 20
760.4060611609829
 30
0.0
 11
10875.60162798447
 21
607.4060611609829
 31
0.0
  0
LINE
  5
24A0A
330
24D3B
100
AcDbEntity
  8
YODOROGO
100
AcDbLine
 10
10902.60162798446
 20
592.4060611609831
 30
0.0
 11
10902.60162798446
 21
760.4060611609829
 31
0.0
  0
LINE
  5
24A0B
330
24D3B
100
AcDbEntity
  8
YODOROGO
100
AcDbLine
 10
10973.10162798446
 20
559.4060611609823
 30
0.0
 11
10973.10162798446
 21
752.9060611609828
 31
0.0
  0
LINE
  5
24A0C
330
24D3B
100
AcDbEntity
  8
YODOROGO
100
AcDbLine
 10
10949.10162798447
 20
752.9060611609828
 30
0.0
 11
10949.10162798447
 21
559.4060611609823
 31
0.0
  0
LINE
  5
24A0D
330
24D3B
100
AcDbEntity
  8
YODOROGO
100
AcDbLine
 10
11019.60162798446
 20
760.4060611609829
 30
0.0
 11
11019.60162798446
 21
535.4060611609829
 31
0.0
  0
LINE
  5
24A0E
330
24D3B
100
AcDbEntity
  8
YODOROGO
100
AcDbLine
 10
11046.60162798447
 20
535.4060611609829
 30
0.0
 11
11046.60162798447
 21
760.4060611609829
 31
0.0
  0
LINE
  5
24A0F
330
24D3B
100
AcDbEntity
  8
YODOROGO
100
AcDbLine
 10
10746.60162798446
 20
625.406061160983
 30
0.0
 11
10746.60162798446
 21
655.4060611609838
 31
0.0
  0
LINE
  5
24A10
330
24D3B
100
AcDbEntity
  8
YODOROGO
100
AcDbLine
 10
11207.10162798447
 20
640.4060611609828
 30
0.0
 11
11207.10162798447
 21
625.406061160983
 31
0.0
  0
LINE
  5
24A11
330
24D3B
100
AcDbEntity
  8
YODOROGO
100
AcDbLine
 10
11207.10162798447
 20
640.4060611609828
 30
0.0
 11
11207.10162798447
 21
625.406061160983
 31
0.0
  0
ARC
  5
24A12
330
24D3B
100
AcDbEntity
  8
YODOROGO
100
AcDbCircle
 10
10840.09184107006
 20
606.8316991658524
 30
0.0
 40
35.51443169202812
100
AcDbArc
 50
274.052441629071
 51
0.9266642149310715
  0
ARC
  5
24A13
330
24D3B
100
AcDbEntity
  8
YODOROGO
100
AcDbCircle
 10
10840.94481401993
 20
597.229023228915
 30
0.0
 40
61.84515883532068
100
AcDbArc
 50
271.5351210653778
 51
355.5272775058505
  0
LINE
  5
24A14
330
24D3B
100
AcDbEntity
  8
YODOROGO
100
AcDbLine
 10
10842.60162798446
 20
571.4060611609826
 30
0.0
 11
10842.60162798446
 21
535.4060611609829
 31
0.0
  0
LINE
  5
24A15
330
24D3B
100
AcDbEntity
  8
YODOROGO
100
AcDbLine
 10
10797.60162798445
 20
625.406061160983
 30
0.0
 11
10746.60162798446
 21
625.406061160983
 31
0.0
  0
LINE
  5
24A16
330
24D3B
100
AcDbEntity
  8
YODOROGO
100
AcDbLine
 10
10797.60162798445
 20
601.4060611609833
 30
0.0
 11
10797.60162798445
 21
625.406061160983
 31
0.0
  0
LINE
  5
24A17
330
24D3B
100
AcDbEntity
  8
YODOROGO
100
AcDbLine
 10
10746.60162798446
 20
601.4060611609833
 30
0.0
 11
10797.60162798445
 21
601.4060611609833
 31
0.0
  0
LINE
  5
24A18
330
24D3B
100
AcDbEntity
  8
YODOROGO
100
AcDbLine
 10
10746.60162798446
 20
571.4060611609826
 30
0.0
 11
10746.60162798446
 21
601.4060611609833
 31
0.0
  0
LINE
  5
24A19
330
24D3B
100
AcDbEntity
  8
YODOROGO
100
AcDbLine
 10
10797.60162798445
 20
571.4060611609826
 30
0.0
 11
10746.60162798446
 21
571.4060611609826
 31
0.0
  0
LINE
  5
24A1A
330
24D3B
100
AcDbEntity
  8
YODOROGO
100
AcDbLine
 10
10797.60162798445
 20
535.4060611609829
 30
0.0
 11
10797.60162798445
 21
571.4060611609826
 31
0.0
  0
LINE
  5
24A1B
330
24D3B
100
AcDbEntity
  8
YODOROGO
100
AcDbLine
 10
10949.10162798447
 20
559.4060611609823
 30
0.0
 11
10973.10162798446
 21
559.4060611609823
 31
0.0
  0
LINE
  5
24A1C
330
24D3B
100
AcDbEntity
  8
YODOROGO
100
AcDbLine
 10
11019.60162798446
 20
535.4060611609829
 30
0.0
 11
11046.60162798447
 21
535.4060611609829
 31
0.0
  0
LINE
  5
24A1D
330
24D3B
100
AcDbEntity
  8
YODOROGO
100
AcDbLine
 10
11151.60162798447
 20
573.1655445639615
 30
0.0
 11
11151.60162798447
 21
535.4060611609829
 31
0.0
  0
LINE
  5
24A1E
330
24D3B
100
AcDbEntity
  8
YODOROGO
100
AcDbLine
 10
11106.60162798446
 20
535.4060611609829
 30
0.0
 11
11151.60162798447
 21
573.1655445639615
 31
0.0
  0
LINE
  5
24A1F
330
24D3B
100
AcDbEntity
  8
YODOROGO
100
AcDbLine
 10
11106.60162798446
 20
580.406061160983
 30
0.0
 11
11106.60162798446
 21
535.4060611609829
 31
0.0
  0
LINE
  5
24A20
330
24D3B
100
AcDbEntity
  8
YODOROGO
100
AcDbLine
 10
11142.35423576229
 20
610.4060611609829
 30
0.0
 11
11106.60162798446
 21
580.406061160983
 31
0.0
  0
LINE
  5
24A21
330
24D3B
100
AcDbEntity
  8
YODOROGO
100
AcDbLine
 10
11106.60162798446
 20
610.4060611609829
 30
0.0
 11
11142.35423576229
 21
610.4060611609829
 31
0.0
  0
LINE
  5
24A22
330
24D3B
100
AcDbEntity
  8
YODOROGO
100
AcDbLine
 10
11106.60162798446
 20
625.406061160983
 30
0.0
 11
11106.60162798446
 21
610.4060611609829
 31
0.0
  0
LINE
  5
24A23
330
24D3B
100
AcDbEntity
  8
YODOROGO
100
AcDbLine
 10
11207.10162798447
 20
625.406061160983
 30
0.0
 11
11106.60162798446
 21
625.406061160983
 31
0.0
  0
LINE
  5
24A24
330
24D3B
100
AcDbEntity
  8
YODOROGO
100
AcDbLine
 10
11219.10162798447
 20
610.4060611609829
 30
0.0
 11
11166.60162798446
 21
610.4060611609829
 31
0.0
  0
LINE
  5
24A25
330
24D3B
100
AcDbEntity
  8
YODOROGO
100
AcDbLine
 10
11166.60162798446
 20
585.7520390316213
 30
0.0
 11
11164.27870236949
 21
583.8028730048376
 31
0.0
  0
LINE
  5
24A26
330
24D3B
100
AcDbEntity
  8
YODOROGO
100
AcDbLine
 10
11166.60162798446
 20
610.4060611609829
 30
0.0
 11
11166.60162798446
 21
585.7520390316213
 31
0.0
  0
LINE
  5
24A27
330
24D3B
100
AcDbEntity
  8
YODOROGO
100
AcDbLine
 10
11151.60162798447
 20
573.1655445639615
 30
0.0
 11
11151.60162798447
 21
535.4060611609829
 31
0.0
  0
LINE
  5
24A28
330
24D3B
100
AcDbEntity
  8
YODOROGO
100
AcDbLine
 10
11106.60162798446
 20
535.4060611609829
 30
0.0
 11
11151.60162798447
 21
573.1655445639615
 31
0.0
  0
LINE
  5
24A29
330
24D3B
100
AcDbEntity
  8
YODOROGO
100
AcDbLine
 10
11106.60162798446
 20
580.406061160983
 30
0.0
 11
11106.60162798446
 21
535.4060611609829
 31
0.0
  0
LINE
  5
24A2A
330
24D3B
100
AcDbEntity
  8
YODOROGO
100
AcDbLine
 10
11142.35423576229
 20
610.4060611609829
 30
0.0
 11
11106.60162798446
 21
580.406061160983
 31
0.0
  0
LINE
  5
24A2B
330
24D3B
100
AcDbEntity
  8
YODOROGO
100
AcDbLine
 10
11106.60162798446
 20
610.4060611609829
 30
0.0
 11
11142.35423576229
 21
610.4060611609829
 31
0.0
  0
LINE
  5
24A2C
330
24D3B
100
AcDbEntity
  8
YODOROGO
100
AcDbLine
 10
11106.60162798446
 20
625.406061160983
 30
0.0
 11
11106.60162798446
 21
610.4060611609829
 31
0.0
  0
LINE
  5
24A2D
330
24D3B
100
AcDbEntity
  8
YODOROGO
100
AcDbLine
 10
11207.10162798447
 20
625.406061160983
 30
0.0
 11
11106.60162798446
 21
625.406061160983
 31
0.0
  0
LINE
  5
24A2E
330
24D3B
100
AcDbEntity
  8
YODOROGO
100
AcDbLine
 10
10797.60162798445
 20
655.4060611609838
 30
0.0
 11
10797.60162798445
 21
682.4060611609829
 31
0.0
  0
LINE
  5
24A2F
330
24D3B
100
AcDbEntity
  8
YODOROGO
100
AcDbLine
 10
10746.60162798446
 20
655.4060611609838
 30
0.0
 11
10797.60162798445
 21
655.4060611609838
 31
0.0
  0
LINE
  5
24A30
330
24D3B
100
AcDbEntity
  8
YODOROGO
100
AcDbLine
 10
10773.60162798447
 20
700.406061160983
 30
0.0
 11
10773.60162798447
 21
721.4060611609826
 31
0.0
  0
LINE
  5
24A31
330
24D3B
100
AcDbEntity
  8
YODOROGO
100
AcDbLine
 10
10797.60162798445
 20
700.406061160983
 30
0.0
 11
10773.60162798447
 21
700.406061160983
 31
0.0
  0
LINE
  5
24A32
330
24D3B
100
AcDbEntity
  8
YODOROGO
100
AcDbLine
 10
10797.60162798445
 20
730.406061160983
 30
0.0
 11
10797.60162798445
 21
700.406061160983
 31
0.0
  0
ARC
  5
24A33
330
24D3B
100
AcDbEntity
  8
YODOROGO
100
AcDbCircle
 10
10782.60162798445
 20
730.406061160983
 30
0.0
 40
15.0
100
AcDbArc
 50
0.0
 51
90.0
  0
LINE
  5
24A34
330
24D3B
100
AcDbEntity
  8
YODOROGO
100
AcDbLine
 10
10746.60162798447
 20
745.4060611609828
 30
0.0
 11
10782.60162798445
 21
745.4060611609828
 31
0.0
  0
LINE
  5
24A35
330
24D3B
100
AcDbEntity
  8
YODOROGO
100
AcDbLine
 10
10746.60162798447
 20
760.4060611609829
 30
0.0
 11
10746.60162798447
 21
745.4060611609828
 31
0.0
  0
LINE
  5
24A36
330
24D3B
100
AcDbEntity
  8
YODOROGO
100
AcDbLine
 10
10902.60162798446
 20
760.4060611609829
 30
0.0
 11
10875.60162798447
 21
760.4060611609829
 31
0.0
  0
LINE
  5
24A37
330
24D3B
100
AcDbEntity
  8
YODOROGO
100
AcDbLine
 10
10973.10162798446
 20
752.9060611609828
 30
0.0
 11
10949.10162798447
 21
752.9060611609828
 31
0.0
  0
LINE
  5
24A38
330
24D3B
100
AcDbEntity
  8
YODOROGO
100
AcDbLine
 10
11046.60162798447
 20
760.4060611609829
 30
0.0
 11
11019.60162798446
 21
760.4060611609829
 31
0.0
  0
LINE
  5
24A39
330
24D3B
100
AcDbEntity
  8
YODOROGO
100
AcDbLine
 10
11127.60162798447
 20
640.4060611609828
 30
0.0
 11
11127.60162798447
 21
664.4060611609833
 31
0.0
1001
AUTOCAD_POSTSCRIPT_FIGURE
1002
{
1000
PSFILL
1000
Grayscale
1000
Grayscale
1070
    25
1002
}
  0
LINE
  5
24A3A
330
24D3B
100
AcDbEntity
  8
YODOROGO
100
AcDbLine
 10
11106.60162798446
 20
640.4060611609828
 30
0.0
 11
11127.60162798447
 21
640.4060611609828
 31
0.0
1001
AUTOCAD_POSTSCRIPT_FIGURE
1002
{
1000
PSFILL
1000
Grayscale
1000
Grayscale
1070
    25
1002
}
  0
LINE
  5
24A3B
330
24D3B
100
AcDbEntity
  8
YODOROGO
100
AcDbLine
 10
11106.60162798446
 20
682.4060611609829
 30
0.0
 11
11106.60162798446
 21
640.4060611609828
 31
0.0
1001
AUTOCAD_POSTSCRIPT_FIGURE
1002
{
1000
PSFILL
1000
Grayscale
1000
Grayscale
1070
    25
1002
}
  0
LINE
  5
24A3C
330
24D3B
100
AcDbEntity
  8
YODOROGO
100
AcDbLine
 10
11162.10162798447
 20
682.4060611609829
 30
0.0
 11
11106.60162798446
 21
682.4060611609829
 31
0.0
1001
AUTOCAD_POSTSCRIPT_FIGURE
1002
{
1000
PSFILL
1000
Grayscale
1000
Grayscale
1070
    25
1002
}
  0
LINE
  5
24A3D
330
24D3B
100
AcDbEntity
  8
YODOROGO
100
AcDbLine
 10
11162.10162798447
 20
697.406061160983
 30
0.0
 11
11162.10162798447
 21
682.4060611609829
 31
0.0
1001
AUTOCAD_POSTSCRIPT_FIGURE
1002
{
1000
PSFILL
1000
Grayscale
1000
Grayscale
1070
    25
1002
}
  0
LINE
  5
24A3E
330
24D3B
100
AcDbEntity
  8
YODOROGO
100
AcDbLine
 10
11106.60162798446
 20
697.406061160983
 30
0.0
 11
11162.10162798447
 21
697.406061160983
 31
0.0
1001
AUTOCAD_POSTSCRIPT_FIGURE
1002
{
1000
PSFILL
1000
Grayscale
1000
Grayscale
1070
    25
1002
}
  0
LINE
  5
24A3F
330
24D3B
100
AcDbEntity
  8
YODOROGO
100
AcDbLine
 10
11106.60162798446
 20
715.4060611609828
 30
0.0
 11
11106.60162798446
 21
697.406061160983
 31
0.0
1001
AUTOCAD_POSTSCRIPT_FIGURE
1002
{
1000
PSFILL
1000
Grayscale
1000
Grayscale
1070
    25
1002
}
  0
LINE
  5
24A40
330
24D3B
100
AcDbEntity
  8
YODOROGO
100
AcDbLine
 10
11162.10162798447
 20
715.4060611609828
 30
0.0
 11
11106.60162798446
 21
715.4060611609828
 31
0.0
1001
AUTOCAD_POSTSCRIPT_FIGURE
1002
{
1000
PSFILL
1000
Grayscale
1000
Grayscale
1070
    25
1002
}
  0
LINE
  5
24A41
330
24D3B
100
AcDbEntity
  8
YODOROGO
100
AcDbLine
 10
11162.10162798447
 20
730.406061160983
 30
0.0
 11
11162.10162798447
 21
715.4060611609828
 31
0.0
1001
AUTOCAD_POSTSCRIPT_FIGURE
1002
{
1000
PSFILL
1000
Grayscale
1000
Grayscale
1070
    25
1002
}
  0
LINE
  5
24A42
330
24D3B
100
AcDbEntity
  8
YODOROGO
100
AcDbLine
 10
11106.60162798446
 20
730.406061160983
 30
0.0
 11
11162.10162798447
 21
730.406061160983
 31
0.0
1001
AUTOCAD_POSTSCRIPT_FIGURE
1002
{
1000
PSFILL
1000
Grayscale
1000
Grayscale
1070
    25
1002
}
  0
LINE
  5
24A43
330
24D3B
100
AcDbEntity
  8
YODOROGO
100
AcDbLine
 10
11106.60162798446
 20
760.4060611609829
 30
0.0
 11
11106.60162798446
 21
730.406061160983
 31
0.0
1001
AUTOCAD_POSTSCRIPT_FIGURE
1002
{
1000
PSFILL
1000
Grayscale
1000
Grayscale
1070
    25
1002
}
  0
LINE
  5
24A44
330
24D3B
100
AcDbEntity
  8
YODOROGO
100
AcDbLine
 10
11124.60162798446
 20
760.4060611609829
 30
0.0
 11
11106.60162798446
 21
760.4060611609829
 31
0.0
1001
AUTOCAD_POSTSCRIPT_FIGURE
1002
{
1000
PSFILL
1000
Grayscale
1000
Grayscale
1070
    25
1002
}
  0
LINE
  5
24A45
330
24D3B
100
AcDbEntity
  8
YODOROGO
100
AcDbLine
 10
11124.60162798446
 20
748.4060611609828
 30
0.0
 11
11124.60162798446
 21
760.4060611609829
 31
0.0
1001
AUTOCAD_POSTSCRIPT_FIGURE
1002
{
1000
PSFILL
1000
Grayscale
1000
Grayscale
1070
    25
1002
}
  0
LINE
  5
24A46
330
24D3B
100
AcDbEntity
  8
YODOROGO
100
AcDbLine
 10
11162.10162798447
 20
748.4060611609828
 30
0.0
 11
11124.60162798446
 21
748.4060611609828
 31
0.0
1001
AUTOCAD_POSTSCRIPT_FIGURE
1002
{
1000
PSFILL
1000
Grayscale
1000
Grayscale
1070
    25
1002
}
  0
LINE
  5
24A47
330
24D3B
100
AcDbEntity
  8
YODOROGO
100
AcDbLine
 10
11162.10162798447
 20
760.4060611609829
 30
0.0
 11
11162.10162798447
 21
748.4060611609828
 31
0.0
1001
AUTOCAD_POSTSCRIPT_FIGURE
1002
{
1000
PSFILL
1000
Grayscale
1000
Grayscale
1070
    25
1002
}
  0
LINE
  5
24A48
330
24D3B
100
AcDbEntity
  8
YODOROGO
100
AcDbLine
 10
11186.10162798447
 20
760.4060611609829
 30
0.0
 11
11162.10162798447
 21
760.4060611609829
 31
0.0
1001
AUTOCAD_POSTSCRIPT_FIGURE
1002
{
1000
PSFILL
1000
Grayscale
1000
Grayscale
1070
    25
1002
}
  0
LINE
  5
24A49
330
24D3B
100
AcDbEntity
  8
YODOROGO
100
AcDbLine
 10
11186.10162798447
 20
748.4060611609828
 30
0.0
 11
11186.10162798447
 21
760.4060611609829
 31
0.0
1001
AUTOCAD_POSTSCRIPT_FIGURE
1002
{
1000
PSFILL
1000
Grayscale
1000
Grayscale
1070
    25
1002
}
  0
LINE
  5
24A4A
330
24D3B
100
AcDbEntity
  8
YODOROGO
100
AcDbLine
 10
11186.10162798447
 20
715.4060611609828
 30
0.0
 11
11186.10162798447
 21
730.406061160983
 31
0.0
1001
AUTOCAD_POSTSCRIPT_FIGURE
1002
{
1000
PSFILL
1000
Grayscale
1000
Grayscale
1070
    25
1002
}
  0
LINE
  5
24A4B
330
24D3B
100
AcDbEntity
  8
YODOROGO
100
AcDbLine
 10
11186.10162798447
 20
682.4060611609829
 30
0.0
 11
11186.10162798447
 21
697.406061160983
 31
0.0
1001
AUTOCAD_POSTSCRIPT_FIGURE
1002
{
1000
PSFILL
1000
Grayscale
1000
Grayscale
1070
    25
1002
}
  0
LINE
  5
24A4C
330
24D3B
100
AcDbEntity
  8
YODOROGO
100
AcDbLine
 10
11220.60162798447
 20
664.4060611609833
 30
0.0
 11
11220.60162798447
 21
640.4060611609828
 31
0.0
1001
AUTOCAD_POSTSCRIPT_FIGURE
1002
{
1000
PSFILL
1000
Grayscale
1000
Grayscale
1070
    25
1002
}
  0
LINE
  5
24A4D
330
24D3B
100
AcDbEntity
  8
YODOROGO
100
AcDbLine
 10
11186.10162798447
 20
664.4060611609833
 30
0.0
 11
11220.60162798447
 21
664.4060611609833
 31
0.0
1001
AUTOCAD_POSTSCRIPT_FIGURE
1002
{
1000
PSFILL
1000
Grayscale
1000
Grayscale
1070
    25
1002
}
  0
LINE
  5
24A4E
330
24D3B
100
AcDbEntity
  8
YODOROGO
100
AcDbLine
 10
11186.10162798447
 20
640.4060611609828
 30
0.0
 11
11186.10162798447
 21
664.4060611609833
 31
0.0
1001
AUTOCAD_POSTSCRIPT_FIGURE
1002
{
1000
PSFILL
1000
Grayscale
1000
Grayscale
1070
    25
1002
}
  0
LINE
  5
24A4F
330
24D3B
100
AcDbEntity
  8
YODOROGO
100
AcDbLine
 10
11162.10162798447
 20
640.4060611609828
 30
0.0
 11
11186.10162798447
 21
640.4060611609828
 31
0.0
1001
AUTOCAD_POSTSCRIPT_FIGURE
1002
{
1000
PSFILL
1000
Grayscale
1000
Grayscale
1070
    25
1002
}
  0
LINE
  5
24A50
330
24D3B
100
AcDbEntity
  8
YODOROGO
100
AcDbLine
 10
11162.10162798447
 20
664.4060611609833
 30
0.0
 11
11162.10162798447
 21
640.4060611609828
 31
0.0
1001
AUTOCAD_POSTSCRIPT_FIGURE
1002
{
1000
PSFILL
1000
Grayscale
1000
Grayscale
1070
    25
1002
}
  0
LINE
  5
24A51
330
24D3B
100
AcDbEntity
  8
YODOROGO
100
AcDbLine
 10
11127.60162798447
 20
664.4060611609833
 30
0.0
 11
11162.10162798447
 21
664.4060611609833
 31
0.0
1001
AUTOCAD_POSTSCRIPT_FIGURE
1002
{
1000
PSFILL
1000
Grayscale
1000
Grayscale
1070
    25
1002
}
  0
ARC
  5
24A52
330
24D3B
100
AcDbEntity
  8
YODOROGO
100
AcDbCircle
 10
11647.31921000922
 20
601.0052765683411
 30
0.0
 40
66.83298041652057
100
AcDbArc
 50
281.0262749542535
 51
357.771135755738
  0
LINE
  5
24A53
330
24D3B
100
AcDbEntity
  8
YODOROGO
100
AcDbLine
 10
11780.10162798446
 20
715.4060611609828
 30
0.0
 11
11687.10162798447
 21
715.4060611609828
 31
0.0
  0
LINE
  5
24A54
330
24D3B
100
AcDbEntity
  8
YODOROGO
100
AcDbLine
 10
11780.10162798446
 20
760.4060611609829
 30
0.0
 11
11687.10162798447
 21
760.4060611609829
 31
0.0
  0
LINE
  5
24A55
330
24D3B
100
AcDbEntity
  8
YODOROGO
100
AcDbLine
 10
11687.10162798447
 20
736.4060611609826
 30
0.0
 11
11780.10162798446
 21
736.4060611609826
 31
0.0
  0
LINE
  5
24A56
330
24D3B
100
AcDbEntity
  8
YODOROGO
100
AcDbLine
 10
11546.85162798447
 20
586.4060611609826
 30
0.0
 11
11546.85162798447
 21
658.4060611609827
 31
0.0
  0
LINE
  5
24A57
330
24D3B
100
AcDbEntity
  8
YODOROGO
100
AcDbLine
 10
11536.35162798447
 20
634.4060611609833
 30
0.0
 11
11536.35162798447
 21
586.4060611609826
 31
0.0
  0
LINE
  5
24A58
330
24D3B
100
AcDbEntity
  8
YODOROGO
100
AcDbLine
 10
11521.35162798447
 20
559.4060611609831
 30
0.0
 11
11521.35162798447
 21
634.4060611609833
 31
0.0
  0
LINE
  5
24A59
330
24D3B
100
AcDbEntity
  8
YODOROGO
100
AcDbLine
 10
11587.35162798447
 20
634.4060611609833
 30
0.0
 11
11587.35162798447
 21
559.4060611609831
 31
0.0
  0
LINE
  5
24A5A
330
24D3B
100
AcDbEntity
  8
YODOROGO
100
AcDbLine
 10
11572.35162798446
 20
586.4060611609826
 30
0.0
 11
11572.35162798446
 21
634.4060611609833
 31
0.0
  0
LINE
  5
24A5B
330
24D3B
100
AcDbEntity
  8
YODOROGO
100
AcDbLine
 10
11561.85162798446
 20
658.4060611609827
 30
0.0
 11
11561.85162798446
 21
586.4060611609826
 31
0.0
  0
LINE
  5
24A5C
330
24D3B
100
AcDbEntity
  8
YODOROGO
100
AcDbLine
 10
11615.10162798446
 20
760.4060611609829
 30
0.0
 11
11615.10162798446
 21
550.4060611609828
 31
0.0
  0
LINE
  5
24A5D
330
24D3B
100
AcDbEntity
  8
YODOROGO
100
AcDbLine
 10
11492.10162798447
 20
535.4060611609829
 30
0.0
 11
11492.10162798447
 21
760.4060611609829
 31
0.0
  0
LINE
  5
24A5E
330
24D3B
100
AcDbEntity
  8
YODOROGO
100
AcDbLine
 10
11511.60162798447
 20
736.4060611609826
 30
0.0
 11
11511.60162798447
 21
535.4060611609829
 31
0.0
  0
LINE
  5
24A5F
330
24D3B
100
AcDbEntity
  8
YODOROGO
100
AcDbLine
 10
11597.10162798446
 20
580.406061160983
 30
0.0
 11
11597.10162798446
 21
736.4060611609826
 31
0.0
  0
LINE
  5
24A60
330
24D3B
100
AcDbEntity
  8
YODOROGO
100
AcDbLine
 10
11393.10162798446
 20
610.4060611609829
 30
0.0
 11
11393.10162798446
 21
629.9060611609831
 31
0.0
  0
LINE
  5
24A61
330
24D3B
100
AcDbEntity
  8
YODOROGO
100
AcDbLine
 10
11481.60162798447
 20
629.9060611609831
 30
0.0
 11
11481.60162798447
 21
610.4060611609829
 31
0.0
  0
LINE
  5
24A62
330
24D3B
100
AcDbEntity
  8
YODOROGO
100
AcDbLine
 10
11687.10162798447
 20
715.4060611609828
 30
0.0
 11
11687.10162798447
 21
613.4060611609827
 31
0.0
  0
LINE
  5
24A63
330
24D3B
100
AcDbEntity
  8
YODOROGO
100
AcDbLine
 10
11231.10162798446
 20
625.406061160983
 30
0.0
 11
11231.10162798446
 21
640.4060611609828
 31
0.0
  0
LINE
  5
24A64
330
24D3B
100
AcDbEntity
  8
YODOROGO
100
AcDbLine
 10
11231.10162798446
 20
625.406061160983
 30
0.0
 11
11231.10162798446
 21
640.4060611609828
 31
0.0
  0
ARC
  5
24A65
330
24D3B
100
AcDbEntity
  8
YODOROGO
100
AcDbCircle
 10
11451.60162798447
 20
565.4060611609828
 30
0.0
 40
30.0
100
AcDbArc
 50
270.0
 51
0.0
  0
LINE
  5
24A66
330
24D3B
100
AcDbEntity
  8
YODOROGO
100
AcDbLine
 10
11463.60162798446
 20
599.9060611609831
 30
0.0
 11
11481.60162798447
 21
599.9060611609831
 31
0.0
  0
LINE
  5
24A67
330
24D3B
100
AcDbEntity
  8
YODOROGO
100
AcDbLine
 10
11481.60162798447
 20
610.4060611609829
 30
0.0
 11
11448.60162798446
 21
610.4060611609829
 31
0.0
  0
LINE
  5
24A68
330
24D3B
100
AcDbEntity
  8
YODOROGO
100
AcDbLine
 10
11331.60162798447
 20
625.406061160983
 30
0.0
 11
11231.10162798446
 21
625.406061160983
 31
0.0
  0
LINE
  5
24A69
330
24D3B
100
AcDbEntity
  8
YODOROGO
100
AcDbLine
 10
11331.60162798447
 20
610.4060611609829
 30
0.0
 11
11331.60162798447
 21
625.406061160983
 31
0.0
  0
LINE
  5
24A6A
330
24D3B
100
AcDbEntity
  8
YODOROGO
100
AcDbLine
 10
11256.60162798447
 20
610.4060611609829
 30
0.0
 11
11331.60162798447
 21
610.4060611609829
 31
0.0
  0
ARC
  5
24A6B
330
24D3B
100
AcDbEntity
  8
YODOROGO
100
AcDbCircle
 10
11336.27206076301
 20
700.8321431073384
 30
0.0
 40
120.5166136069605
100
AcDbArc
 50
228.6181454618993
 51
245.660289248906
  0
LINE
  5
24A6C
330
24D3B
100
AcDbEntity
  8
YODOROGO
100
AcDbLine
 10
11289.60162798447
 20
601.4060611609833
 30
0.0
 11
11286.60162798448
 21
591.0273059512126
 31
0.0
  0
LINE
  5
24A6D
330
24D3B
100
AcDbEntity
  8
YODOROGO
100
AcDbLine
 10
11321.10162798447
 20
601.4060611609833
 30
0.0
 11
11289.60162798447
 21
601.4060611609833
 31
0.0
  0
LINE
  5
24A6E
330
24D3B
100
AcDbEntity
  8
YODOROGO
100
AcDbLine
 10
11316.60162798447
 20
581.9316459275352
 30
0.0
 11
11321.10162798447
 21
601.4060611609833
 31
0.0
  0
ARC
  5
24A6F
330
24D3B
100
AcDbEntity
  8
YODOROGO
100
AcDbCircle
 10
11336.27206076267
 20
700.8321431073759
 30
0.0
 40
120.516613606984
100
AcDbArc
 50
260.6062929796993
 51
267.7790355655585
  0
LINE
  5
24A70
330
24D3B
100
AcDbEntity
  8
YODOROGO
100
AcDbLine
 10
11331.60162798447
 20
535.4060611609821
 30
0.0
 11
11331.60162798447
 21
580.406061160983
 31
0.0
  0
LINE
  5
24A71
330
24D3B
100
AcDbEntity
  8
YODOROGO
100
AcDbLine
 10
11226.60162798446
 20
555.5022505933164
 30
0.0
 11
11226.60162798446
 21
597.949158949178
 31
0.0
  0
LINE
  5
24A72
330
24D3B
100
AcDbEntity
  8
YODOROGO
100
AcDbLine
 10
11331.60162798447
 20
625.406061160983
 30
0.0
 11
11231.10162798446
 21
625.406061160983
 31
0.0
  0
LINE
  5
24A73
330
24D3B
100
AcDbEntity
  8
YODOROGO
100
AcDbLine
 10
11331.60162798447
 20
610.4060611609829
 30
0.0
 11
11331.60162798447
 21
625.406061160983
 31
0.0
  0
LINE
  5
24A74
330
24D3B
100
AcDbEntity
  8
YODOROGO
100
AcDbLine
 10
11256.60162798447
 20
610.4060611609829
 30
0.0
 11
11331.60162798447
 21
610.4060611609829
 31
0.0
  0
ARC
  5
24A75
330
24D3B
100
AcDbEntity
  8
YODOROGO
100
AcDbCircle
 10
11336.27206076301
 20
700.8321431073384
 30
0.0
 40
120.5166136069605
100
AcDbArc
 50
228.6181454618993
 51
245.660289248906
  0
LINE
  5
24A76
330
24D3B
100
AcDbEntity
  8
YODOROGO
100
AcDbLine
 10
11289.60162798447
 20
601.4060611609833
 30
0.0
 11
11286.60162798448
 21
591.0273059512126
 31
0.0
  0
LINE
  5
24A77
330
24D3B
100
AcDbEntity
  8
YODOROGO
100
AcDbLine
 10
11321.10162798447
 20
601.4060611609833
 30
0.0
 11
11289.60162798447
 21
601.4060611609833
 31
0.0
  0
LINE
  5
24A78
330
24D3B
100
AcDbEntity
  8
YODOROGO
100
AcDbLine
 10
11316.60162798447
 20
581.9316459275352
 30
0.0
 11
11321.10162798447
 21
601.4060611609833
 31
0.0
  0
ARC
  5
24A79
330
24D3B
100
AcDbEntity
  8
YODOROGO
100
AcDbCircle
 10
11336.27206076267
 20
700.8321431073759
 30
0.0
 40
120.516613606984
100
AcDbArc
 50
260.6062929796993
 51
267.7790355655585
  0
LINE
  5
24A7A
330
24D3B
100
AcDbEntity
  8
YODOROGO
100
AcDbLine
 10
11331.60162798447
 20
535.4060611609821
 30
0.0
 11
11331.60162798447
 21
580.406061160983
 31
0.0
  0
LINE
  5
24A7B
330
24D3B
100
AcDbEntity
  8
YODOROGO
100
AcDbLine
 10
11226.60162798446
 20
555.5022505933164
 30
0.0
 11
11226.60162798446
 21
597.949158949178
 31
0.0
  0
LINE
  5
24A7C
330
24D3B
100
AcDbEntity
  8
YODOROGO
100
AcDbLine
 10
11412.60162798447
 20
590.1560611609832
 30
0.0
 11
11393.10162798446
 21
590.1560611609832
 31
0.0
  0
LINE
  5
24A7D
330
24D3B
100
AcDbEntity
  8
YODOROGO
100
AcDbLine
 10
11412.60162798447
 20
600.6560611609824
 30
0.0
 11
11412.60162798447
 21
590.1560611609832
 31
0.0
  0
LINE
  5
24A7E
330
24D3B
100
AcDbEntity
  8
YODOROGO
100
AcDbLine
 10
11393.10162798446
 20
600.6560611609824
 30
0.0
 11
11412.60162798447
 21
600.6560611609824
 31
0.0
  0
LINE
  5
24A7F
330
24D3B
100
AcDbEntity
  8
YODOROGO
100
AcDbLine
 10
11393.10162798446
 20
590.1560611609832
 30
0.0
 11
11393.10162798446
 21
600.6560611609824
 31
0.0
  0
LINE
  5
24A80
330
24D3B
100
AcDbEntity
  8
YODOROGO
100
AcDbLine
 10
11411.10162798447
 20
591.6560611609829
 30
0.0
 11
11394.60162798447
 21
591.6560611609829
 31
0.0
  0
LINE
  5
24A81
330
24D3B
100
AcDbEntity
  8
YODOROGO
100
AcDbLine
 10
11411.10162798447
 20
599.156061160983
 30
0.0
 11
11411.10162798447
 21
591.6560611609829
 31
0.0
  0
LINE
  5
24A82
330
24D3B
100
AcDbEntity
  8
YODOROGO
100
AcDbLine
 10
11394.60162798447
 20
599.156061160983
 30
0.0
 11
11411.10162798447
 21
599.156061160983
 31
0.0
  0
LINE
  5
24A83
330
24D3B
100
AcDbEntity
  8
YODOROGO
100
AcDbLine
 10
11394.60162798447
 20
591.6560611609829
 30
0.0
 11
11394.60162798447
 21
599.156061160983
 31
0.0
  0
LINE
  5
24A84
330
24D3B
100
AcDbEntity
  8
YODOROGO
100
AcDbLine
 10
11409.60162798447
 20
593.1560611609824
 30
0.0
 11
11396.10162798446
 21
593.1560611609824
 31
0.0
  0
LINE
  5
24A85
330
24D3B
100
AcDbEntity
  8
YODOROGO
100
AcDbLine
 10
11409.60162798447
 20
597.6560611609833
 30
0.0
 11
11409.60162798447
 21
593.1560611609824
 31
0.0
  0
LINE
  5
24A86
330
24D3B
100
AcDbEntity
  8
YODOROGO
100
AcDbLine
 10
11396.10162798446
 20
597.6560611609833
 30
0.0
 11
11409.60162798447
 21
597.6560611609833
 31
0.0
  0
LINE
  5
24A87
330
24D3B
100
AcDbEntity
  8
YODOROGO
100
AcDbLine
 10
11396.10162798446
 20
593.1560611609824
 30
0.0
 11
11396.10162798446
 21
597.6560611609833
 31
0.0
  0
LINE
  5
24A88
330
24D3B
100
AcDbEntity
  8
YODOROGO
100
AcDbLine
 10
11408.10162798447
 20
594.6560611609827
 30
0.0
 11
11397.60162798447
 21
594.6560611609827
 31
0.0
  0
LINE
  5
24A89
330
24D3B
100
AcDbEntity
  8
YODOROGO
100
AcDbLine
 10
11408.10162798447
 20
596.1560611609829
 30
0.0
 11
11408.10162798447
 21
594.6560611609827
 31
0.0
  0
LINE
  5
24A8A
330
24D3B
100
AcDbEntity
  8
YODOROGO
100
AcDbLine
 10
11397.60162798447
 20
596.1560611609829
 30
0.0
 11
11408.10162798447
 21
596.1560611609829
 31
0.0
  0
LINE
  5
24A8B
330
24D3B
100
AcDbEntity
  8
YODOROGO
100
AcDbLine
 10
11397.60162798447
 20
594.6560611609827
 30
0.0
 11
11397.60162798447
 21
596.1560611609829
 31
0.0
  0
LINE
  5
24A8C
330
24D3B
100
AcDbEntity
  8
YODOROGO
100
AcDbLine
 10
11424.60162798446
 20
610.4060611609829
 30
0.0
 11
11393.10162798446
 21
610.4060611609829
 31
0.0
  0
LINE
  5
24A8D
330
24D3B
100
AcDbEntity
  8
YODOROGO
100
AcDbLine
 10
11424.60162798446
 20
580.406061160983
 30
0.0
 11
11424.60162798446
 21
610.4060611609829
 31
0.0
  0
LINE
  5
24A8E
330
24D3B
100
AcDbEntity
  8
YODOROGO
100
AcDbLine
 10
11393.10162798446
 20
580.406061160983
 30
0.0
 11
11424.60162798446
 21
580.406061160983
 31
0.0
  0
LINE
  5
24A8F
330
24D3B
100
AcDbEntity
  8
YODOROGO
100
AcDbLine
 10
11393.10162798446
 20
535.4060611609829
 30
0.0
 11
11393.10162798446
 21
580.406061160983
 31
0.0
  0
LINE
  5
24A90
330
24D3B
100
AcDbEntity
  8
YODOROGO
100
AcDbLine
 10
11451.60162798447
 20
535.4060611609829
 30
0.0
 11
11393.10162798446
 21
535.4060611609829
 31
0.0
  0
LINE
  5
24A91
330
24D3B
100
AcDbEntity
  8
YODOROGO
100
AcDbLine
 10
11463.60162798446
 20
589.4060611609822
 30
0.0
 11
11463.60162798446
 21
599.9060611609831
 31
0.0
  0
ARC
  5
24A92
330
24D3B
100
AcDbEntity
  8
YODOROGO
100
AcDbCircle
 10
11454.60162798446
 20
589.4060611609842
 30
0.0
 40
9.000000000001408
100
AcDbArc
 50
270.0
 51
359.9999999999877
  0
LINE
  5
24A93
330
24D3B
100
AcDbEntity
  8
YODOROGO
100
AcDbLine
 10
11448.60162798446
 20
580.406061160983
 30
0.0
 11
11454.60162798446
 21
580.406061160983
 31
0.0
  0
LINE
  5
24A94
330
24D3B
100
AcDbEntity
  8
YODOROGO
100
AcDbLine
 10
11448.60162798446
 20
610.4060611609829
 30
0.0
 11
11448.60162798446
 21
580.406061160983
 31
0.0
  0
LINE
  5
24A95
330
24D3B
100
AcDbEntity
  8
YODOROGO
100
AcDbLine
 10
11587.35162798447
 20
580.406061160983
 30
0.0
 11
11597.10162798446
 21
580.406061160983
 31
0.0
  0
LINE
  5
24A96
330
24D3B
100
AcDbEntity
  8
YODOROGO
100
AcDbLine
 10
11600.10162798446
 20
535.4060611609829
 30
0.0
 11
11587.35162798447
 21
535.4060611609829
 31
0.0
  0
LINE
  5
24A97
330
24D3B
100
AcDbEntity
  8
YODOROGO
100
AcDbLine
 10
11536.35162798447
 20
586.4060611609826
 30
0.0
 11
11546.85162798447
 21
586.4060611609826
 31
0.0
  0
LINE
  5
24A98
330
24D3B
100
AcDbEntity
  8
YODOROGO
100
AcDbLine
 10
11587.35162798447
 20
559.4060611609831
 30
0.0
 11
11521.35162798447
 21
559.4060611609831
 31
0.0
  0
LINE
  5
24A99
330
24D3B
100
AcDbEntity
  8
YODOROGO
100
AcDbLine
 10
11561.85162798446
 20
586.4060611609826
 30
0.0
 11
11572.35162798446
 21
586.4060611609826
 31
0.0
  0
LINE
  5
24A9A
330
24D3B
100
AcDbEntity
  8
YODOROGO
100
AcDbLine
 10
11587.35162798447
 20
535.4060611609829
 30
0.0
 11
11587.35162798447
 21
580.406061160983
 31
0.0
  0
LINE
  5
24A9B
330
24D3B
100
AcDbEntity
  8
YODOROGO
100
AcDbLine
 10
11511.60162798447
 20
535.4060611609829
 30
0.0
 11
11492.10162798447
 21
535.4060611609829
 31
0.0
  0
LINE
  5
24A9C
330
24D3B
100
AcDbEntity
  8
YODOROGO
100
AcDbLine
 10
11481.60162798447
 20
599.9060611609831
 30
0.0
 11
11481.60162798447
 21
565.4060611609828
 31
0.0
  0
ARC
  5
24A9D
330
24D3B
100
AcDbEntity
  8
YODOROGO
100
AcDbCircle
 10
11600.10162798446
 20
550.4060611609828
 30
0.0
 40
15.0
100
AcDbArc
 50
270.0
 51
0.0
  0
LINE
  5
24A9E
330
24D3B
100
AcDbEntity
  8
YODOROGO
100
AcDbLine
 10
11660.10162798446
 20
571.4060611609826
 30
0.0
 11
11660.10162798446
 21
535.4060611609829
 31
0.0
  0
ARC
  5
24A9F
330
24D3B
100
AcDbEntity
  8
YODOROGO
100
AcDbCircle
 10
11639.89552333754
 20
614.0742712911499
 30
0.0
 40
47.21083372187828
100
AcDbArc
 50
295.3405244216011
 51
359.1890230341867
  0
LINE
  5
24AA0
330
24D3B
100
AcDbEntity
  8
YODOROGO
100
AcDbLine
 10
11481.60162798447
 20
697.406061160983
 30
0.0
 11
11436.60162798447
 21
727.4060611609829
 31
0.0
  0
LINE
  5
24AA1
330
24D3B
100
AcDbEntity
  8
YODOROGO
100
AcDbLine
 10
11436.60162798447
 20
760.4060611609829
 30
0.0
 11
11481.60162798447
 21
730.406061160983
 31
0.0
  0
LINE
  5
24AA2
330
24D3B
100
AcDbEntity
  8
YODOROGO
100
AcDbLine
 10
11448.60162798446
 20
629.9060611609831
 30
0.0
 11
11481.60162798447
 21
629.9060611609831
 31
0.0
  0
LINE
  5
24AA3
330
24D3B
100
AcDbEntity
  8
YODOROGO
100
AcDbLine
 10
11481.60162798447
 20
650.9060611609827
 30
0.0
 11
11448.60162798446
 21
650.9060611609827
 31
0.0
  0
LINE
  5
24AA4
330
24D3B
100
AcDbEntity
  8
YODOROGO
100
AcDbLine
 10
11393.10162798446
 20
673.4060611609827
 30
0.0
 11
11481.60162798447
 21
673.4060611609827
 31
0.0
  0
LINE
  5
24AA5
330
24D3B
100
AcDbEntity
  8
YODOROGO
100
AcDbLine
 10
11280.60162798447
 20
760.4060611609829
 30
0.0
 11
11258.10162798447
 21
760.4060611609829
 31
0.0
  0
LINE
  5
24AA6
330
24D3B
100
AcDbEntity
  8
YODOROGO
100
AcDbLine
 10
11280.60162798447
 20
685.4060611609829
 30
0.0
 11
11280.60162798447
 21
760.4060611609829
 31
0.0
  0
LINE
  5
24AA7
330
24D3B
100
AcDbEntity
  8
YODOROGO
100
AcDbLine
 10
11258.10162798447
 20
685.4060611609829
 30
0.0
 11
11280.60162798447
 21
685.4060611609829
 31
0.0
  0
LINE
  5
24AA8
330
24D3B
100
AcDbEntity
  8
YODOROGO
100
AcDbLine
 10
11258.10162798447
 20
760.4060611609829
 30
0.0
 11
11258.10162798447
 21
685.4060611609829
 31
0.0
  0
LINE
  5
24AA9
330
24D3B
100
AcDbEntity
  8
YODOROGO
100
AcDbLine
 10
11310.60162798447
 20
760.4060611609829
 30
0.0
 11
11331.60162798447
 21
760.4060611609829
 31
0.0
  0
LINE
  5
24AAA
330
24D3B
100
AcDbEntity
  8
YODOROGO
100
AcDbLine
 10
11310.60162798447
 20
679.4060611609832
 30
0.0
 11
11310.60162798447
 21
760.4060611609829
 31
0.0
  0
ARC
  5
24AAB
330
24D3B
100
AcDbEntity
  8
YODOROGO
100
AcDbCircle
 10
11295.60162798447
 20
679.4060611609832
 30
0.0
 40
15.0
100
AcDbArc
 50
270.0
 51
0.0
  0
LINE
  5
24AAC
330
24D3B
100
AcDbEntity
  8
YODOROGO
100
AcDbLine
 10
11258.10162798447
 20
664.4060611609833
 30
0.0
 11
11295.60162798447
 21
664.4060611609833
 31
0.0
  0
LINE
  5
24AAD
330
24D3B
100
AcDbEntity
  8
YODOROGO
100
AcDbLine
 10
11258.10162798447
 20
640.4060611609828
 30
0.0
 11
11258.10162798447
 21
664.4060611609833
 31
0.0
  0
LINE
  5
24AAE
330
24D3B
100
AcDbEntity
  8
YODOROGO
100
AcDbLine
 10
11301.60162798446
 20
640.4060611609828
 30
0.0
 11
11258.10162798447
 21
640.4060611609828
 31
0.0
  0
ARC
  5
24AAF
330
24D3B
100
AcDbEntity
  8
YODOROGO
100
AcDbCircle
 10
11301.60162798446
 20
670.4060611609828
 30
0.0
 40
30.0
100
AcDbArc
 50
270.0
 51
0.0
  0
LINE
  5
24AB0
330
24D3B
100
AcDbEntity
  8
YODOROGO
100
AcDbLine
 10
11331.60162798447
 20
760.4060611609829
 30
0.0
 11
11331.60162798447
 21
670.4060611609828
 31
0.0
  0
LINE
  5
24AB1
330
24D3B
100
AcDbEntity
  8
YODOROGO
100
AcDbLine
 10
11241.60162798446
 20
730.406061160983
 30
0.0
 11
11241.60162798446
 21
748.4060611609828
 31
0.0
1001
AUTOCAD_POSTSCRIPT_FIGURE
1002
{
1000
PSFILL
1000
Grayscale
1000
Grayscale
1070
    25
1002
}
  0
LINE
  5
24AB2
330
24D3B
100
AcDbEntity
  8
YODOROGO
100
AcDbLine
 10
11241.60162798446
 20
697.406061160983
 30
0.0
 11
11241.60162798446
 21
715.4060611609828
 31
0.0
1001
AUTOCAD_POSTSCRIPT_FIGURE
1002
{
1000
PSFILL
1000
Grayscale
1000
Grayscale
1070
    25
1002
}
  0
LINE
  5
24AB3
330
24D3B
100
AcDbEntity
  8
YODOROGO
100
AcDbLine
 10
11241.60162798446
 20
640.4060611609828
 30
0.0
 11
11241.60162798446
 21
682.4060611609829
 31
0.0
1001
AUTOCAD_POSTSCRIPT_FIGURE
1002
{
1000
PSFILL
1000
Grayscale
1000
Grayscale
1070
    25
1002
}
  0
LINE
  5
24AB4
330
24D3B
100
AcDbEntity
  8
YODOROGO
100
AcDbLine
 10
11393.10162798446
 20
715.4060611609828
 30
0.0
 11
11436.60162798447
 21
760.4060611609829
 31
0.0
  0
LINE
  5
24AB5
330
24D3B
100
AcDbEntity
  8
YODOROGO
100
AcDbLine
 10
11393.10162798446
 20
682.4060611609829
 30
0.0
 11
11393.10162798446
 21
715.4060611609828
 31
0.0
  0
LINE
  5
24AB6
330
24D3B
100
AcDbEntity
  8
YODOROGO
100
AcDbLine
 10
11436.60162798447
 20
727.4060611609829
 30
0.0
 11
11393.10162798446
 21
682.4060611609829
 31
0.0
  0
LINE
  5
24AB7
330
24D3B
100
AcDbEntity
  8
YODOROGO
100
AcDbLine
 10
11424.60162798446
 20
629.9060611609831
 30
0.0
 11
11424.60162798446
 21
650.9060611609827
 31
0.0
  0
LINE
  5
24AB8
330
24D3B
100
AcDbEntity
  8
YODOROGO
100
AcDbLine
 10
11393.10162798446
 20
629.9060611609831
 30
0.0
 11
11424.60162798446
 21
629.9060611609831
 31
0.0
  0
LINE
  5
24AB9
330
24D3B
100
AcDbEntity
  8
YODOROGO
100
AcDbLine
 10
11448.60162798446
 20
650.9060611609827
 30
0.0
 11
11448.60162798446
 21
629.9060611609831
 31
0.0
  0
LINE
  5
24ABA
330
24D3B
100
AcDbEntity
  8
YODOROGO
100
AcDbLine
 10
11393.10162798446
 20
650.9060611609827
 30
0.0
 11
11393.10162798446
 21
673.4060611609827
 31
0.0
  0
LINE
  5
24ABB
330
24D3B
100
AcDbEntity
  8
YODOROGO
100
AcDbLine
 10
11424.60162798446
 20
650.9060611609827
 30
0.0
 11
11393.10162798446
 21
650.9060611609827
 31
0.0
  0
LINE
  5
24ABC
330
24D3B
100
AcDbEntity
  8
YODOROGO
100
AcDbLine
 10
11492.10162798447
 20
760.4060611609829
 30
0.0
 11
11615.10162798446
 21
760.4060611609829
 31
0.0
  0
LINE
  5
24ABD
330
24D3B
100
AcDbEntity
  8
YODOROGO
100
AcDbLine
 10
11597.10162798446
 20
736.4060611609826
 30
0.0
 11
11511.60162798447
 21
736.4060611609826
 31
0.0
  0
LINE
  5
24ABE
330
24D3B
100
AcDbEntity
  8
YODOROGO
100
AcDbLine
 10
11577.60162798447
 20
682.4060611609829
 30
0.0
 11
11587.35162798447
 21
682.4060611609829
 31
0.0
  0
LINE
  5
24ABF
330
24D3B
100
AcDbEntity
  8
YODOROGO
100
AcDbLine
 10
11587.35162798447
 20
727.4060611609829
 30
0.0
 11
11577.60162798447
 21
682.4060611609829
 31
0.0
  0
LINE
  5
24AC0
330
24D3B
100
AcDbEntity
  8
YODOROGO
100
AcDbLine
 10
11569.35162798446
 20
727.4060611609829
 30
0.0
 11
11587.35162798447
 21
727.4060611609829
 31
0.0
  0
LINE
  5
24AC1
330
24D3B
100
AcDbEntity
  8
YODOROGO
100
AcDbLine
 10
11559.60162798447
 20
682.4060611609829
 30
0.0
 11
11569.35162798446
 21
727.4060611609829
 31
0.0
  0
LINE
  5
24AC2
330
24D3B
100
AcDbEntity
  8
YODOROGO
100
AcDbLine
 10
11549.10162798447
 20
682.4060611609829
 30
0.0
 11
11559.60162798447
 21
682.4060611609829
 31
0.0
  0
LINE
  5
24AC3
330
24D3B
100
AcDbEntity
  8
YODOROGO
100
AcDbLine
 10
11539.35162798447
 20
727.4060611609829
 30
0.0
 11
11549.10162798447
 21
682.4060611609829
 31
0.0
  0
LINE
  5
24AC4
330
24D3B
100
AcDbEntity
  8
YODOROGO
100
AcDbLine
 10
11521.35162798447
 20
727.4060611609829
 30
0.0
 11
11539.35162798447
 21
727.4060611609829
 31
0.0
  0
LINE
  5
24AC5
330
24D3B
100
AcDbEntity
  8
YODOROGO
100
AcDbLine
 10
11531.10162798447
 20
682.4060611609829
 30
0.0
 11
11521.35162798447
 21
727.4060611609829
 31
0.0
  0
LINE
  5
24AC6
330
24D3B
100
AcDbEntity
  8
YODOROGO
100
AcDbLine
 10
11521.35162798447
 20
682.4060611609829
 30
0.0
 11
11531.10162798447
 21
682.4060611609829
 31
0.0
  0
LINE
  5
24AC7
330
24D3B
100
AcDbEntity
  8
YODOROGO
100
AcDbLine
 10
11521.35162798447
 20
658.4060611609827
 30
0.0
 11
11521.35162798447
 21
682.4060611609829
 31
0.0
  0
LINE
  5
24AC8
330
24D3B
100
AcDbEntity
  8
YODOROGO
100
AcDbLine
 10
11587.35162798447
 20
658.4060611609827
 30
0.0
 11
11521.35162798447
 21
658.4060611609827
 31
0.0
  0
LINE
  5
24AC9
330
24D3B
100
AcDbEntity
  8
YODOROGO
100
AcDbLine
 10
11587.35162798447
 20
682.4060611609829
 30
0.0
 11
11587.35162798447
 21
658.4060611609827
 31
0.0
  0
LINE
  5
24ACA
330
24D3B
100
AcDbEntity
  8
YODOROGO
100
AcDbLine
 10
11481.60162798447
 20
730.406061160983
 30
0.0
 11
11481.60162798447
 21
697.406061160983
 31
0.0
  0
LINE
  5
24ACB
330
24D3B
100
AcDbEntity
  8
YODOROGO
100
AcDbLine
 10
11546.85162798447
 20
658.4060611609827
 30
0.0
 11
11561.85162798446
 21
658.4060611609827
 31
0.0
  0
LINE
  5
24ACC
330
24D3B
100
AcDbEntity
  8
YODOROGO
100
AcDbLine
 10
11521.35162798447
 20
634.4060611609833
 30
0.0
 11
11536.35162798447
 21
634.4060611609833
 31
0.0
  0
LINE
  5
24ACD
330
24D3B
100
AcDbEntity
  8
YODOROGO
100
AcDbLine
 10
11572.35162798446
 20
634.4060611609833
 30
0.0
 11
11587.35162798447
 21
634.4060611609833
 31
0.0
  0
LINE
  5
24ACE
330
24D3B
100
AcDbEntity
  8
YODOROGO
100
AcDbLine
 10
11481.60162798447
 20
673.4060611609827
 30
0.0
 11
11481.60162798447
 21
650.9060611609827
 31
0.0
  0
LINE
  5
24ACF
330
24D3B
100
AcDbEntity
  8
YODOROGO
100
AcDbLine
 10
11687.10162798447
 20
760.4060611609829
 30
0.0
 11
11687.10162798447
 21
736.4060611609826
 31
0.0
  0
LINE
  5
24AD0
330
24D3B
100
AcDbEntity
  8
YODOROGO
100
AcDbLine
 10
11825.10162798447
 20
598.4060611609827
 30
0.0
 11
11825.10162798446
 21
679.4060611609832
 31
0.0
  0
LINE
  5
24AD1
330
24D3B
100
AcDbEntity
  8
YODOROGO
100
AcDbLine
 10
11798.10162798446
 20
745.4060611609828
 30
0.0
 11
11798.10162798446
 21
613.4060611609827
 31
0.0
  0
LINE
  5
24AD2
330
24D3B
100
AcDbEntity
  8
YODOROGO
100
AcDbLine
 10
11870.10162798447
 20
535.4060611609829
 30
0.0
 11
11870.10162798446
 21
679.4060611609832
 31
0.0
  0
LINE
  5
24AD3
330
24D3B
100
AcDbEntity
  8
YODOROGO
100
AcDbLine
 10
11846.10162798447
 20
679.4060611609832
 30
0.0
 11
11846.10162798447
 21
535.4060611609829
 31
0.0
  0
LINE
  5
24AD4
330
24D3B
100
AcDbEntity
  8
YODOROGO
100
AcDbLine
 10
11714.10162798447
 20
598.4060611609827
 30
0.0
 11
11714.10162798447
 21
640.4060611609828
 31
0.0
  0
ARC
  5
24AD5
330
24D3B
100
AcDbEntity
  8
YODOROGO
100
AcDbCircle
 10
11757.71807441852
 20
602.921381733209
 30
0.0
 40
67.53466821599572
100
AcDbArc
 50
268.6284910216979
 51
356.1663845733032
  0
LINE
  5
24AD6
330
24D3B
100
AcDbEntity
  8
YODOROGO
100
AcDbLine
 10
11756.10162798446
 20
572.9060611609829
 30
0.0
 11
11756.10162798446
 21
535.4060611609829
 31
0.0
  0
ARC
  5
24AD7
330
24D3B
100
AcDbEntity
  8
YODOROGO
100
AcDbCircle
 10
11756.81927839671
 20
614.1896088816206
 30
0.0
 40
41.28978486885457
100
AcDbArc
 50
269.0041020930593
 51
358.9126445549248
  0
LINE
  5
24AD8
330
24D3B
100
AcDbEntity
  8
YODOROGO
100
AcDbLine
 10
11846.10162798447
 20
535.4060611609829
 30
0.0
 11
11870.10162798447
 21
535.4060611609829
 31
0.0
  0
LINE
  5
24AD9
330
24D3B
100
AcDbEntity
  8
YODOROGO
100
AcDbLine
 10
11825.10162798446
 20
679.4060611609832
 30
0.0
 11
11846.10162798447
 21
679.4060611609832
 31
0.0
  0
LINE
  5
24ADA
330
24D3B
100
AcDbEntity
  8
YODOROGO
100
AcDbLine
 10
11858.10162798446
 20
745.4060611609828
 30
0.0
 11
11798.10162798446
 21
745.4060611609828
 31
0.0
  0
LINE
  5
24ADB
330
24D3B
100
AcDbEntity
  8
YODOROGO
100
AcDbLine
 10
11825.10162798446
 20
718.4060611609829
 30
0.0
 11
11873.10162798447
 21
718.4060611609829
 31
0.0
  0
LINE
  5
24ADC
330
24D3B
100
AcDbEntity
  8
YODOROGO
100
AcDbLine
 10
11888.10162798447
 20
703.4060611609828
 30
0.0
 11
11825.10162798446
 21
703.4060611609828
 31
0.0
  0
LINE
  5
24ADD
330
24D3B
100
AcDbEntity
  8
YODOROGO
100
AcDbLine
 10
11714.10162798447
 20
667.4060611609831
 30
0.0
 11
11756.10162798446
 21
667.4060611609831
 31
0.0
  0
LINE
  5
24ADE
330
24D3B
100
AcDbEntity
  8
YODOROGO
100
AcDbLine
 10
11714.10162798447
 20
688.4060611609828
 30
0.0
 11
11714.10162798447
 21
667.4060611609831
 31
0.0
  0
LINE
  5
24ADF
330
24D3B
100
AcDbEntity
  8
YODOROGO
100
AcDbLine
 10
11756.10162798446
 20
688.4060611609828
 30
0.0
 11
11714.10162798447
 21
688.4060611609828
 31
0.0
  0
LINE
  5
24AE0
330
24D3B
100
AcDbEntity
  8
YODOROGO
100
AcDbLine
 10
11756.10162798446
 20
667.4060611609831
 30
0.0
 11
11756.10162798446
 21
688.4060611609828
 31
0.0
  0
LINE
  5
24AE1
330
24D3B
100
AcDbEntity
  8
YODOROGO
100
AcDbLine
 10
11825.10162798446
 20
703.4060611609828
 30
0.0
 11
11825.10162798446
 21
718.4060611609829
 31
0.0
  0
LINE
  5
24AE2
330
24D3B
100
AcDbEntity
  8
YODOROGO
100
AcDbLine
 10
11780.10162798446
 20
640.4060611609828
 30
0.0
 11
11780.10162798446
 21
715.4060611609828
 31
0.0
  0
LINE
  5
24AE3
330
24D3B
100
AcDbEntity
  8
YODOROGO
100
AcDbLine
 10
11714.10162798447
 20
640.4060611609828
 30
0.0
 11
11780.10162798446
 21
640.4060611609828
 31
0.0
  0
LINE
  5
24AE4
330
24D3B
100
AcDbEntity
  8
YODOROGO
100
AcDbLine
 10
11780.10162798446
 20
736.4060611609826
 30
0.0
 11
11780.10162798446
 21
760.4060611609829
 31
0.0
  0
ARC
  5
24AE5
330
24D3B
100
AcDbEntity
  8
YODOROGO
100
AcDbCircle
 10
11858.10162798446
 20
751.4060611609817
 30
0.0
 40
5.999999999997951
100
AcDbArc
 50
270.0
 51
0.0000000000081422
  0
LINE
  5
24AE6
330
24D3B
100
AcDbEntity
  8
YODOROGO
100
AcDbLine
 10
11864.10162798447
 20
760.4060611609829
 30
0.0
 11
11864.10162798447
 21
751.4060611609826
 31
0.0
  0
LINE
  5
24AE7
330
24D3B
100
AcDbEntity
  8
YODOROGO
100
AcDbLine
 10
11888.10162798447
 20
760.4060611609829
 30
0.0
 11
11864.10162798447
 21
760.4060611609829
 31
0.0
  0
LINE
  5
24AE8
330
24D3B
100
AcDbEntity
  8
YODOROGO
100
AcDbLine
 10
11888.10162798447
 20
733.4060611609828
 30
0.0
 11
11888.10162798447
 21
760.4060611609829
 31
0.0
  0
ARC
  5
24AE9
330
24D3B
100
AcDbEntity
  8
YODOROGO
100
AcDbCircle
 10
11873.10162798447
 20
733.4060611609828
 30
0.0
 40
15.0
100
AcDbArc
 50
270.0
 51
0.0
  0
LINE
  5
24AEA
330
24D3B
100
AcDbEntity
  8
YODOROGO
100
AcDbLine
 10
11888.10162798447
 20
679.4060611609832
 30
0.0
 11
11888.10162798447
 21
703.4060611609828
 31
0.0
  0
LINE
  5
24AEB
330
24D3B
100
AcDbEntity
  8
YODOROGO
100
AcDbLine
 10
11870.10162798446
 20
679.4060611609832
 30
0.0
 11
11888.10162798447
 21
679.4060611609832
 31
0.0
  0
LINE
  5
24AEC
330
24D3B
100
AcDbEntity
  8
SUNPOU
100
AcDbLine
 10
10796.04041027749
 20
4868.464770760361
 30
0.0
 11
10796.04041027749
 21
4162.634136938772
 31
0.0
  0
LINE
  5
24AED
330
24D3B
100
AcDbEntity
  8
SUNPOU
100
AcDbLine
 10
1596.040410277506
 20
4868.464770760361
 30
0.0
 11
1596.040410277506
 21
4162.634136938772
 31
0.0
  0
LINE
  5
24AEE
330
24D3B
100
AcDbEntity
  8
SUNPOU
100
AcDbLine
 10
10781.0404102775
 20
4207.634136938774
 30
0.0
 11
1611.040410277506
 21
4207.634136938774
 31
0.0
  0
ARC
  5
24AF2
330
24D3B
100
AcDbEntity
  8
SUNPOU
100
AcDbCircle
 10
5313.479465620389
 20
864.3074126005867
 30
0.0
 40
5.625
100
AcDbArc
 50
0.0
 51
180.0
  0
ARC
  5
24AF3
330
24D3B
100
AcDbEntity
  8
SUNPOU
100
AcDbCircle
 10
5313.479465620389
 20
864.3074126005867
 30
0.0
 40
5.625
100
AcDbArc
 50
180.0
 51
0.0
  0
ARC
  5
24AF4
330
24D3B
100
AcDbEntity
  8
SUNPOU
100
AcDbCircle
 10
6313.479465620389
 20
864.3074126005867
 30
0.0
 40
5.625
100
AcDbArc
 50
180.0
 51
0.0
  0
ARC
  5
24AF5
330
24D3B
100
AcDbEntity
  8
SUNPOU
100
AcDbCircle
 10
6313.479465620389
 20
864.3074126005867
 30
0.0
 40
5.625
100
AcDbArc
 50
0.0
 51
180.0
  0
ARC
  5
24AF6
330
24D3B
100
AcDbEntity
  8
SUNPOU
100
AcDbCircle
 10
6973.47946562039
 20
2324.307412600587
 30
0.0
 40
5.625
100
AcDbArc
 50
270.0
 51
90.0
  0
ARC
  5
24AF7
330
24D3B
100
AcDbEntity
  8
SUNPOU
100
AcDbCircle
 10
6973.47946562039
 20
2324.307412600587
 30
0.0
 40
5.625
100
AcDbArc
 50
90.0
 51
270.0
  0
ARC
  5
24AF8
330
24D3B
100
AcDbEntity
  8
SUNPOU
100
AcDbCircle
 10
6763.479465620388
 20
2164.307412600588
 30
0.0
 40
5.62499999999909
100
AcDbArc
 50
270.0
 51
90.0
  0
ARC
  5
24AF9
330
24D3B
100
AcDbEntity
  8
SUNPOU
100
AcDbCircle
 10
6763.479465620388
 20
2164.307412600588
 30
0.0
 40
5.62499999999909
100
AcDbArc
 50
90.0
 51
270.0
  0
ARC
  5
24AFA
330
24D3B
100
AcDbEntity
  8
SUNPOU
100
AcDbCircle
 10
6763.479465620388
 20
1684.307412600586
 30
0.0
 40
5.625
100
AcDbArc
 50
90.0
 51
270.0
  0
ARC
  5
24AFB
330
24D3B
100
AcDbEntity
  8
SUNPOU
100
AcDbCircle
 10
6763.479465620388
 20
1684.307412600586
 30
0.0
 40
5.625
100
AcDbArc
 50
270.0
 51
90.0
  0
ARC
  5
24AFC
330
24D3B
100
AcDbEntity
  8
SUNPOU
100
AcDbCircle
 10
6973.47946562039
 20
1524.307412600586
 30
0.0
 40
5.625
100
AcDbArc
 50
90.0
 51
270.0
  0
ARC
  5
24AFD
330
24D3B
100
AcDbEntity
  8
SUNPOU
100
AcDbCircle
 10
6973.47946562039
 20
1524.307412600586
 30
0.0
 40
5.625
100
AcDbArc
 50
270.0
 51
90.0
  0
ARC
  5
24AFE
330
24D3B
100
AcDbEntity
  8
SUNPOU
100
AcDbCircle
 10
6253.479465620388
 20
2774.307412600589
 30
0.0
 40
5.625
100
AcDbArc
 50
180.0
 51
0.0
  0
ARC
  5
24AFF
330
24D3B
100
AcDbEntity
  8
SUNPOU
100
AcDbCircle
 10
6253.479465620388
 20
2774.307412600589
 30
0.0
 40
5.625
100
AcDbArc
 50
0.0
 51
180.0
  0
ARC
  5
24B00
330
24D3B
100
AcDbEntity
  8
SUNPOU
100
AcDbCircle
 10
5373.479465620389
 20
2774.307412600589
 30
0.0
 40
5.625
100
AcDbArc
 50
0.0
 51
180.0
  0
ARC
  5
24B01
330
24D3B
100
AcDbEntity
  8
SUNPOU
100
AcDbCircle
 10
5373.479465620389
 20
2774.307412600589
 30
0.0
 40
5.625
100
AcDbArc
 50
180.0
 51
0.0
  0
ARC
  5
24B02
330
24D3B
100
AcDbEntity
  8
SUNPOU
100
AcDbCircle
 10
4863.479465620389
 20
2254.307412600589
 30
0.0
 40
5.625
100
AcDbArc
 50
270.0
 51
90.0
  0
ARC
  5
24B03
330
24D3B
100
AcDbEntity
  8
SUNPOU
100
AcDbCircle
 10
4863.479465620389
 20
2254.307412600589
 30
0.0
 40
5.625
100
AcDbArc
 50
90.0
 51
270.0
  0
ARC
  5
24B04
330
24D3B
100
AcDbEntity
  8
SUNPOU
100
AcDbCircle
 10
6253.479465620388
 20
1074.307412600585
 30
0.0
 40
5.625
100
AcDbArc
 50
180.0
 51
0.0
  0
ARC
  5
24B05
330
24D3B
100
AcDbEntity
  8
SUNPOU
100
AcDbCircle
 10
6253.479465620388
 20
1074.307412600585
 30
0.0
 40
5.625
100
AcDbArc
 50
0.0
 51
180.0
  0
ARC
  5
24B06
330
24D3B
100
AcDbEntity
  8
SUNPOU
100
AcDbCircle
 10
5773.47946562039
 20
1074.307412600585
 30
0.0
 40
5.625
100
AcDbArc
 50
0.0
 51
180.0
  0
ARC
  5
24B07
330
24D3B
100
AcDbEntity
  8
SUNPOU
100
AcDbCircle
 10
5773.47946562039
 20
1074.307412600585
 30
0.0
 40
5.625
100
AcDbArc
 50
180.0
 51
0.0
  0
ARC
  5
24B08
330
24D3B
100
AcDbEntity
  8
SUNPOU
100
AcDbCircle
 10
4863.479465620389
 20
1594.307412600586
 30
0.0
 40
5.625
100
AcDbArc
 50
90.0
 51
270.0
  0
ARC
  5
24B09
330
24D3B
100
AcDbEntity
  8
SUNPOU
100
AcDbCircle
 10
4863.479465620389
 20
1594.307412600586
 30
0.0
 40
5.625
100
AcDbArc
 50
270.0
 51
90.0
  0
LINE
  5
24B0A
330
24D3B
100
AcDbEntity
  8
SUNPOU
100
AcDbLine
 10
2141.306080631061
 20
2230.744622954002
 30
0.0
 11
2141.306080631061
 21
2843.077046087621
 31
0.0
  0
LINE
  5
24B0B
330
24D3B
100
AcDbEntity
  8
SUNPOU
100
AcDbLine
 10
2621.306080631061
 20
2230.744622954003
 30
0.0
 11
2621.306080631061
 21
2843.077046087621
 31
0.0
  0
LINE
  5
24B0C
330
24D3B
100
AcDbEntity
  8
SUNPOU
100
AcDbLine
 10
2156.306080631061
 20
2798.077046087621
 30
0.0
 11
2606.30608063106
 21
2798.077046087621
 31
0.0
  0
LINE
  5
24B10
330
24D3B
100
AcDbEntity
  8
SUNPOU
100
AcDbLine
 10
2811.306080631061
 20
1520.744622954004
 30
0.0
 11
3330.856080631056
 21
1520.744622954004
 31
0.0
  0
LINE
  5
24B11
330
24D3B
100
AcDbEntity
  8
SUNPOU
100
AcDbLine
 10
2811.306080631061
 20
1570.744622954004
 30
0.0
 11
3330.856080631056
 21
1570.744622954004
 31
0.0
  0
LINE
  5
24B12
330
24D3B
100
AcDbEntity
  8
SUNPOU
100
AcDbLine
 10
3285.856080631056
 20
1505.744622954003
 30
0.0
 11
3285.856080631056
 21
1490.744622954004
 31
0.0
  0
LINE
  5
24B13
330
24D3B
100
AcDbEntity
  8
SUNPOU
100
AcDbLine
 10
3285.856080631056
 20
1585.744622954003
 30
0.0
 11
3285.856080631056
 21
1600.744622954002
 31
0.0
  0
LINE
  5
24B15
330
24D3B
100
AcDbEntity
  8
SUNPOU
100
AcDbLine
 10
3285.856080631056
 20
1520.744622954004
 30
0.0
 11
3285.856080631056
 21
1570.744622954004
 31
0.0
  0
LINE
  5
24B18
330
24D3B
100
AcDbEntity
  8
SUNPOU
100
AcDbLine
 10
2811.306080631061
 20
1570.744622954004
 30
0.0
 11
3330.856080631056
 21
1570.744622954004
 31
0.0
  0
LINE
  5
24B19
330
24D3B
100
AcDbEntity
  8
SUNPOU
100
AcDbLine
 10
2711.306080631061
 20
2050.744622954003
 30
0.0
 11
3330.856080631056
 21
2050.744622954002
 31
0.0
  0
LINE
  5
24B1A
330
24D3B
100
AcDbEntity
  8
SUNPOU
100
AcDbLine
 10
3285.856080631056
 20
1585.744622954003
 30
0.0
 11
3285.856080631056
 21
2035.744622954004
 31
0.0
  0
LINE
  5
24B1E
330
24D3B
100
AcDbEntity
  8
SUNPOU
100
AcDbLine
 10
2811.306080631061
 20
1520.744622954004
 30
0.0
 11
3330.856080631056
 21
1520.744622954004
 31
0.0
  0
LINE
  5
24B1F
330
24D3B
100
AcDbEntity
  8
SUNPOU
100
AcDbLine
 10
2811.306080631061
 20
1420.744622954003
 30
0.0
 11
3330.856080631056
 21
1420.744622954003
 31
0.0
  0
LINE
  5
24B20
330
24D3B
100
AcDbEntity
  8
SUNPOU
100
AcDbLine
 10
3285.856080631056
 20
1535.744622954004
 30
0.0
 11
3285.856080631056
 21
1550.744622954004
 31
0.0
  0
LINE
  5
24B21
330
24D3B
100
AcDbEntity
  8
SUNPOU
100
AcDbLine
 10
3285.856080631056
 20
1405.744622954004
 30
0.0
 11
3285.856080631056
 21
1155.030337239717
 31
0.0
  0
LINE
  5
24B22
330
24D3B
100
AcDbEntity
  8
SUNPOU
100
AcDbLine
 10
3285.856080631056
 20
1520.744622954004
 30
0.0
 11
3285.856080631056
 21
1420.744622954003
 31
0.0
  0
LINE
  5
24B26
330
24D3B
100
AcDbEntity
  8
SUNPOU
100
AcDbLine
 10
2381.30608063106
 20
1110.744622954002
 30
0.0
 11
2381.30608063106
 21
1125.744622954002
 31
0.0
  0
LINE
  5
24B27
330
24D3B
100
AcDbEntity
  8
SUNPOU
100
AcDbLine
 10
2681.306080631061
 20
1540.744622954002
 30
0.0
 11
2681.306080631061
 21
1035.744622954002
 31
0.0
  0
LINE
  5
24B28
330
24D3B
100
AcDbEntity
  8
SUNPOU
100
AcDbLine
 10
2396.30608063106
 20
1080.744622954002
 30
0.0
 11
2666.306080631061
 21
1080.744622954002
 31
0.0
  0
LINE
  5
24B2C
330
24D3B
100
AcDbEntity
  8
SUNPOU
100
AcDbLine
 10
1681.30608063106
 20
1540.744622954
 30
0.0
 11
1681.30608063106
 21
1035.744622954002
 31
0.0
  0
LINE
  5
24B2D
330
24D3B
100
AcDbEntity
  8
SUNPOU
100
AcDbLine
 10
2381.30608063106
 20
1110.744622954002
 30
0.0
 11
2381.30608063106
 21
1125.744622954002
 31
0.0
  0
LINE
  5
24B2E
330
24D3B
100
AcDbEntity
  8
SUNPOU
100
AcDbLine
 10
1696.306080631059
 20
1080.744622954002
 30
0.0
 11
2366.30608063106
 21
1080.744622954002
 31
0.0
  0
LINE
  5
24B32
330
24D3B
100
AcDbEntity
  8
SUNPOU
100
AcDbLine
 10
1681.30608063106
 20
1540.744622954
 30
0.0
 11
1681.30608063106
 21
825.7446229540018
 31
0.0
  0
LINE
  5
24B33
330
24D3B
100
AcDbEntity
  8
SUNPOU
100
AcDbLine
 10
2681.306080631061
 20
1540.744622954002
 30
0.0
 11
2681.306080631061
 21
825.7446229540018
 31
0.0
  0
LINE
  5
24B34
330
24D3B
100
AcDbEntity
  8
SUNPOU
100
AcDbLine
 10
1696.306080631059
 20
870.7446229540019
 30
0.0
 11
2666.306080631061
 21
870.7446229540019
 31
0.0
  0
LINE
  5
24B38
330
24D3B
100
AcDbEntity
  8
SUNPOU
100
AcDbLine
 10
2711.306080631061
 20
2050.744622954003
 30
0.0
 11
3330.856080631056
 21
2050.744622954002
 31
0.0
  0
LINE
  5
24B39
330
24D3B
100
AcDbEntity
  8
SUNPOU
100
AcDbLine
 10
2651.30608063106
 20
2200.744622954003
 30
0.0
 11
3330.856080631056
 21
2200.744622954002
 31
0.0
  0
LINE
  5
24B3A
330
24D3B
100
AcDbEntity
  8
SUNPOU
100
AcDbLine
 10
3285.856080631056
 20
2065.744622954003
 30
0.0
 11
3285.856080631056
 21
2185.744622954004
 31
0.0
  0
LINE
  5
24B3B
330
24D3B
100
AcDbEntity
  8
SUNPOU
100
AcDbLine
 10
3285.856080631056
 20
2200.744622954002
 30
0.0
 11
3285.856080631056
 21
2451.458908668289
 31
0.0
  0
LINE
  5
24B3F
330
24D3B
100
AcDbEntity
  8
SUNPOU
100
AcDbLine
 10
10396.0404102775
 20
6101.464770760363
 30
0.0
 11
10396.0404102775
 21
4403.46477076036
 31
0.0
  0
LINE
  5
24B40
330
24D3B
100
AcDbEntity
  8
SUNPOU
100
AcDbLine
 10
10796.04041027749
 20
4868.464770760361
 30
0.0
 11
10796.04041027749
 21
4403.46477076036
 31
0.0
  0
LINE
  5
24B41
330
24D3B
100
AcDbEntity
  8
SUNPOU
100
AcDbLine
 10
10411.04041027749
 20
4448.464770760362
 30
0.0
 11
10781.0404102775
 21
4448.464770760362
 31
0.0
  0
LINE
  5
24B45
330
24D3B
100
AcDbEntity
  8
SUNPOU
100
AcDbLine
 10
7596.040410277514
 20
6101.464770760363
 30
0.0
 11
7596.040410277514
 21
4403.46477076036
 31
0.0
  0
LINE
  5
24B46
330
24D3B
100
AcDbEntity
  8
SUNPOU
100
AcDbLine
 10
10396.0404102775
 20
6101.464770760363
 30
0.0
 11
10396.0404102775
 21
4403.46477076036
 31
0.0
  0
LINE
  5
24B47
330
24D3B
100
AcDbEntity
  8
SUNPOU
100
AcDbLine
 10
7611.040410277514
 20
4448.464770760362
 30
0.0
 11
10381.0404102775
 21
4448.464770760362
 31
0.0
  0
LINE
  5
24B4B
330
24D3B
100
AcDbEntity
  8
SUNPOU
100
AcDbLine
 10
4796.040410277506
 20
6101.464770760363
 30
0.0
 11
4796.040410277506
 21
4403.46477076036
 31
0.0
  0
LINE
  5
24B4C
330
24D3B
100
AcDbEntity
  8
SUNPOU
100
AcDbLine
 10
7596.040410277514
 20
6101.464770760363
 30
0.0
 11
7596.040410277514
 21
4403.46477076036
 31
0.0
  0
LINE
  5
24B4D
330
24D3B
100
AcDbEntity
  8
SUNPOU
100
AcDbLine
 10
4811.040410277506
 20
4448.464770760362
 30
0.0
 11
7581.040410277513
 21
4448.464770760362
 31
0.0
  0
LINE
  5
24B51
330
24D3B
100
AcDbEntity
  8
SUNPOU
100
AcDbLine
 10
1996.040410277506
 20
6101.464770760363
 30
0.0
 11
1996.040410277506
 21
4403.46477076036
 31
0.0
  0
LINE
  5
24B52
330
24D3B
100
AcDbEntity
  8
SUNPOU
100
AcDbLine
 10
4796.040410277506
 20
6101.464770760363
 30
0.0
 11
4796.040410277506
 21
4403.46477076036
 31
0.0
  0
LINE
  5
24B53
330
24D3B
100
AcDbEntity
  8
SUNPOU
100
AcDbLine
 10
2011.040410277507
 20
4448.464770760362
 30
0.0
 11
4781.040410277507
 21
4448.464770760362
 31
0.0
  0
LINE
  5
24B57
330
24D3B
100
AcDbEntity
  8
SUNPOU
100
AcDbLine
 10
1596.040410277506
 20
4868.464770760361
 30
0.0
 11
1596.040410277506
 21
4403.46477076036
 31
0.0
  0
LINE
  5
24B58
330
24D3B
100
AcDbEntity
  8
SUNPOU
100
AcDbLine
 10
1996.040410277506
 20
6101.464770760363
 30
0.0
 11
1996.040410277506
 21
4403.46477076036
 31
0.0
  0
LINE
  5
24B59
330
24D3B
100
AcDbEntity
  8
SUNPOU
100
AcDbLine
 10
1611.040410277506
 20
4448.464770760362
 30
0.0
 11
1981.040410277506
 21
4448.464770760362
 31
0.0
  0
ARC
  5
24B5D
330
24D3B
100
AcDbEntity
  8
SUNPOU
100
AcDbCircle
 10
10796.04041027749
 20
8068.464770760362
 30
0.0
 40
5.625
100
AcDbArc
 50
180.0
 51
0.0
  0
ARC
  5
24B5E
330
24D3B
100
AcDbEntity
  8
SUNPOU
100
AcDbCircle
 10
10796.04041027749
 20
8068.464770760362
 30
0.0
 40
5.625
100
AcDbArc
 50
0.0
 51
180.0
  0
ARC
  5
24B5F
330
24D3B
100
AcDbEntity
  8
SUNPOU
100
AcDbCircle
 10
10796.04041027749
 20
7858.464770760362
 30
0.0
 40
5.625
100
AcDbArc
 50
180.0
 51
0.0
  0
ARC
  5
24B60
330
24D3B
100
AcDbEntity
  8
SUNPOU
100
AcDbCircle
 10
10796.04041027749
 20
7858.464770760362
 30
0.0
 40
5.625
100
AcDbArc
 50
0.0
 51
180.0
  0
ARC
  5
24B61
330
24D3B
100
AcDbEntity
  8
SUNPOU
100
AcDbCircle
 10
10636.04041027749
 20
7858.464770760362
 30
0.0
 40
5.625
100
AcDbArc
 50
0.0
 51
180.0
  0
ARC
  5
24B62
330
24D3B
100
AcDbEntity
  8
SUNPOU
100
AcDbCircle
 10
10636.04041027749
 20
7858.464770760362
 30
0.0
 40
5.625
100
AcDbArc
 50
180.0
 51
0.0
  0
ARC
  5
24B63
330
24D3B
100
AcDbEntity
  8
SUNPOU
100
AcDbCircle
 10
10636.04041027749
 20
7858.464770760362
 30
0.0
 40
5.625
100
AcDbArc
 50
180.0
 51
0.0
  0
ARC
  5
24B64
330
24D3B
100
AcDbEntity
  8
SUNPOU
100
AcDbCircle
 10
10636.04041027749
 20
7858.464770760362
 30
0.0
 40
5.625
100
AcDbArc
 50
0.0
 51
180.0
  0
ARC
  5
24B65
330
24D3B
100
AcDbEntity
  8
SUNPOU
100
AcDbCircle
 10
10536.0404102775
 20
7648.464770760367
 30
0.0
 40
5.625
100
AcDbArc
 50
180.0
 51
0.0
  0
ARC
  5
24B66
330
24D3B
100
AcDbEntity
  8
SUNPOU
100
AcDbCircle
 10
10536.0404102775
 20
7648.464770760367
 30
0.0
 40
5.625
100
AcDbArc
 50
0.0
 51
180.0
  0
ARC
  5
24B67
330
24D3B
100
AcDbEntity
  8
SUNPOU
100
AcDbCircle
 10
10256.0404102775
 20
7648.464770760367
 30
0.0
 40
5.625
100
AcDbArc
 50
0.0
 51
180.0
  0
ARC
  5
24B68
330
24D3B
100
AcDbEntity
  8
SUNPOU
100
AcDbCircle
 10
10256.0404102775
 20
7648.464770760367
 30
0.0
 40
5.625
100
AcDbArc
 50
180.0
 51
0.0
  0
ARC
  5
24B69
330
24D3B
100
AcDbEntity
  8
SUNPOU
100
AcDbCircle
 10
10296.0404102775
 20
7438.464770760361
 30
0.0
 40
5.625
100
AcDbArc
 50
0.0
 51
180.0
  0
ARC
  5
24B6A
330
24D3B
100
AcDbEntity
  8
SUNPOU
100
AcDbCircle
 10
10296.0404102775
 20
7438.464770760361
 30
0.0
 40
5.625
100
AcDbArc
 50
180.0
 51
0.0
  0
ARC
  5
24B6B
330
24D3B
100
AcDbEntity
  8
SUNPOU
100
AcDbCircle
 10
10496.0404102775
 20
7438.464770760361
 30
0.0
 40
5.625
100
AcDbArc
 50
180.0
 51
0.0
  0
ARC
  5
24B6C
330
24D3B
100
AcDbEntity
  8
SUNPOU
100
AcDbCircle
 10
10496.0404102775
 20
7438.464770760361
 30
0.0
 40
5.625
100
AcDbArc
 50
0.0
 51
180.0
  0
ARC
  5
24B6D
330
24D3B
100
AcDbEntity
  8
SUNPOU
100
AcDbCircle
 10
11456.04041027749
 20
7198.464770760364
 30
0.0
 40
5.624999999998181
100
AcDbArc
 50
270.0
 51
90.0
  0
ARC
  5
24B6E
330
24D3B
100
AcDbEntity
  8
SUNPOU
100
AcDbCircle
 10
11456.04041027749
 20
7198.464770760364
 30
0.0
 40
5.624999999998181
100
AcDbArc
 50
90.0
 51
270.0
  0
ARC
  5
24B6F
330
24D3B
100
AcDbEntity
  8
SUNPOU
100
AcDbCircle
 10
11456.04041027749
 20
7138.464770760366
 30
0.0
 40
5.625
100
AcDbArc
 50
90.0
 51
270.0
  0
ARC
  5
24B70
330
24D3B
100
AcDbEntity
  8
SUNPOU
100
AcDbCircle
 10
11456.04041027749
 20
7138.464770760366
 30
0.0
 40
5.625
100
AcDbArc
 50
270.0
 51
90.0
  0
ARC
  5
24B71
330
24D3B
100
AcDbEntity
  8
SUNPOU
100
AcDbCircle
 10
11456.04041027749
 20
7138.464770760366
 30
0.0
 40
5.625
100
AcDbArc
 50
270.0
 51
90.0
  0
ARC
  5
24B72
330
24D3B
100
AcDbEntity
  8
SUNPOU
100
AcDbCircle
 10
11456.04041027749
 20
7138.464770760366
 30
0.0
 40
5.625
100
AcDbArc
 50
90.0
 51
270.0
  0
ARC
  5
24B73
330
24D3B
100
AcDbEntity
  8
SUNPOU
100
AcDbCircle
 10
11246.0404102775
 20
7138.464770760366
 30
0.0
 40
5.625
100
AcDbArc
 50
270.0
 51
90.0
  0
ARC
  5
24B74
330
24D3B
100
AcDbEntity
  8
SUNPOU
100
AcDbCircle
 10
11246.0404102775
 20
7138.464770760366
 30
0.0
 40
5.625
100
AcDbArc
 50
90.0
 51
270.0
  0
ARC
  5
24B75
330
24D3B
100
AcDbEntity
  8
SUNPOU
100
AcDbCircle
 10
11246.0404102775
 20
6998.464770760364
 30
0.0
 40
5.624999999998181
100
AcDbArc
 50
90.0
 51
270.0
  0
ARC
  5
24B76
330
24D3B
100
AcDbEntity
  8
SUNPOU
100
AcDbCircle
 10
11246.0404102775
 20
6998.464770760364
 30
0.0
 40
5.624999999998181
100
AcDbArc
 50
270.0
 51
90.0
  0
ARC
  5
24B77
330
24D3B
100
AcDbEntity
  8
SUNPOU
100
AcDbCircle
 10
11246.0404102775
 20
6998.464770760364
 30
0.0
 40
5.624999999998181
100
AcDbArc
 50
270.0
 51
90.0
  0
ARC
  5
24B78
330
24D3B
100
AcDbEntity
  8
SUNPOU
100
AcDbCircle
 10
11246.0404102775
 20
6998.464770760364
 30
0.0
 40
5.624999999998181
100
AcDbArc
 50
90.0
 51
270.0
  0
ARC
  5
24B79
330
24D3B
100
AcDbEntity
  8
SUNPOU
100
AcDbCircle
 10
11246.0404102775
 20
6798.464770760365
 30
0.0
 40
5.625
100
AcDbArc
 50
90.0
 51
270.0
  0
ARC
  5
24B7A
330
24D3B
100
AcDbEntity
  8
SUNPOU
100
AcDbCircle
 10
11246.0404102775
 20
6798.464770760365
 30
0.0
 40
5.625
100
AcDbArc
 50
270.0
 51
90.0
  0
ARC
  5
24B7B
330
24D3B
100
AcDbEntity
  8
SUNPOU
100
AcDbCircle
 10
11246.0404102775
 20
6798.464770760365
 30
0.0
 40
5.625
100
AcDbArc
 50
270.0
 51
90.0
  0
ARC
  5
24B7C
330
24D3B
100
AcDbEntity
  8
SUNPOU
100
AcDbCircle
 10
11246.0404102775
 20
6798.464770760365
 30
0.0
 40
5.625
100
AcDbArc
 50
90.0
 51
270.0
  0
ARC
  5
24B7D
330
24D3B
100
AcDbEntity
  8
SUNPOU
100
AcDbCircle
 10
11456.04041027749
 20
6658.464770760364
 30
0.0
 40
5.625000000001818
100
AcDbArc
 50
90.0
 51
270.0
  0
ARC
  5
24B7E
330
24D3B
100
AcDbEntity
  8
SUNPOU
100
AcDbCircle
 10
11456.04041027749
 20
6658.464770760364
 30
0.0
 40
5.625000000001818
100
AcDbArc
 50
270.0
 51
90.0
  0
ARC
  5
24B7F
330
24D3B
100
AcDbEntity
  8
SUNPOU
100
AcDbCircle
 10
11456.04041027749
 20
6658.464770760364
 30
0.0
 40
5.625000000001818
100
AcDbArc
 50
270.0
 51
90.0
  0
ARC
  5
24B80
330
24D3B
100
AcDbEntity
  8
SUNPOU
100
AcDbCircle
 10
11456.04041027749
 20
6658.464770760364
 30
0.0
 40
5.625000000001818
100
AcDbArc
 50
90.0
 51
270.0
  0
ARC
  5
24B81
330
24D3B
100
AcDbEntity
  8
SUNPOU
100
AcDbCircle
 10
11246.0404102775
 20
6658.464770760364
 30
0.0
 40
5.625000000001818
100
AcDbArc
 50
90.0
 51
270.0
  0
ARC
  5
24B82
330
24D3B
100
AcDbEntity
  8
SUNPOU
100
AcDbCircle
 10
11246.0404102775
 20
6658.464770760364
 30
0.0
 40
5.625000000001818
100
AcDbArc
 50
270.0
 51
90.0
  0
ARC
  5
24B83
330
24D3B
100
AcDbEntity
  8
SUNPOU
100
AcDbCircle
 10
11456.04041027749
 20
6198.464770760363
 30
0.0
 40
5.624999999998181
100
AcDbArc
 50
90.0
 51
270.0
  0
ARC
  5
24B84
330
24D3B
100
AcDbEntity
  8
SUNPOU
100
AcDbCircle
 10
11456.04041027749
 20
6198.464770760363
 30
0.0
 40
5.624999999998181
100
AcDbArc
 50
270.0
 51
90.0
  0
ARC
  5
24B85
330
24D3B
100
AcDbEntity
  8
SUNPOU
100
AcDbCircle
 10
9996.040410277508
 20
8068.464770760362
 30
0.0
 40
5.624999999992723
100
AcDbArc
 50
0.0
 51
180.0
  0
ARC
  5
24B86
330
24D3B
100
AcDbEntity
  8
SUNPOU
100
AcDbCircle
 10
9996.040410277508
 20
8068.464770760362
 30
0.0
 40
5.624999999992723
100
AcDbArc
 50
180.0
 51
0.0
  0
ARC
  5
24B87
330
24D3B
100
AcDbEntity
  8
SUNPOU
100
AcDbCircle
 10
10156.0404102775
 20
7858.464770760362
 30
0.0
 40
5.625
100
AcDbArc
 50
0.0
 51
180.0
  0
ARC
  5
24B88
330
24D3B
100
AcDbEntity
  8
SUNPOU
100
AcDbCircle
 10
10156.0404102775
 20
7858.464770760362
 30
0.0
 40
5.625
100
AcDbArc
 50
180.0
 51
0.0
  0
ARC
  5
24B89
330
24D3B
100
AcDbEntity
  8
SUNPOU
100
AcDbCircle
 10
10156.0404102775
 20
7858.464770760362
 30
0.0
 40
5.625
100
AcDbArc
 50
180.0
 51
0.0
  0
ARC
  5
24B8A
330
24D3B
100
AcDbEntity
  8
SUNPOU
100
AcDbCircle
 10
10156.0404102775
 20
7858.464770760362
 30
0.0
 40
5.625
100
AcDbArc
 50
0.0
 51
180.0
  0
ARC
  5
24B8B
330
24D3B
100
AcDbEntity
  8
SUNPOU
100
AcDbCircle
 10
9996.040410277508
 20
7858.464770760362
 30
0.0
 40
5.624999999992723
100
AcDbArc
 50
0.0
 51
180.0
  0
ARC
  5
24B8C
330
24D3B
100
AcDbEntity
  8
SUNPOU
100
AcDbCircle
 10
9996.040410277508
 20
7858.464770760362
 30
0.0
 40
5.624999999992723
100
AcDbArc
 50
180.0
 51
0.0
  0
ARC
  5
24B8D
330
24D3B
100
AcDbEntity
  8
SUNPOU
100
AcDbCircle
 10
9546.040410277514
 20
7198.464770760364
 30
0.0
 40
5.624999999998181
100
AcDbArc
 50
270.0
 51
90.0
  0
ARC
  5
24B8E
330
24D3B
100
AcDbEntity
  8
SUNPOU
100
AcDbCircle
 10
9546.040410277514
 20
7198.464770760364
 30
0.0
 40
5.624999999998181
100
AcDbArc
 50
90.0
 51
270.0
  0
ARC
  5
24B8F
330
24D3B
100
AcDbEntity
  8
SUNPOU
100
AcDbCircle
 10
9336.040410277513
 20
7198.464770760364
 30
0.0
 40
5.624999999998181
100
AcDbArc
 50
270.0
 51
90.0
  0
ARC
  5
24B90
330
24D3B
100
AcDbEntity
  8
SUNPOU
100
AcDbCircle
 10
9336.040410277513
 20
7198.464770760364
 30
0.0
 40
5.624999999998181
100
AcDbArc
 50
90.0
 51
270.0
  0
ARC
  5
24B91
330
24D3B
100
AcDbEntity
  8
SUNPOU
100
AcDbCircle
 10
9546.040410277514
 20
6898.464770760364
 30
0.0
 40
5.624999999998181
100
AcDbArc
 50
270.0
 51
90.0
  0
ARC
  5
24B92
330
24D3B
100
AcDbEntity
  8
SUNPOU
100
AcDbCircle
 10
9546.040410277514
 20
6898.464770760364
 30
0.0
 40
5.624999999998181
100
AcDbArc
 50
90.0
 51
270.0
  0
ARC
  5
24B93
330
24D3B
100
AcDbEntity
  8
SUNPOU
100
AcDbCircle
 10
9546.040410277514
 20
6898.464770760364
 30
0.0
 40
5.624999999998181
100
AcDbArc
 50
90.0
 51
270.0
  0
ARC
  5
24B94
330
24D3B
100
AcDbEntity
  8
SUNPOU
100
AcDbCircle
 10
9546.040410277514
 20
6898.464770760364
 30
0.0
 40
5.624999999998181
100
AcDbArc
 50
270.0
 51
90.0
  0
ARC
  5
24B95
330
24D3B
100
AcDbEntity
  8
SUNPOU
100
AcDbCircle
 10
9336.040410277513
 20
6198.464770760363
 30
0.0
 40
5.624999999998181
100
AcDbArc
 50
90.0
 51
270.0
  0
ARC
  5
24B96
330
24D3B
100
AcDbEntity
  8
SUNPOU
100
AcDbCircle
 10
9336.040410277513
 20
6198.464770760363
 30
0.0
 40
5.624999999998181
100
AcDbArc
 50
270.0
 51
90.0
  0
ARC
  5
24B97
330
24D3B
100
AcDbEntity
  8
SUNPOU
100
AcDbCircle
 10
9546.040410277514
 20
6198.464770760363
 30
0.0
 40
5.624999999998181
100
AcDbArc
 50
90.0
 51
270.0
  0
ARC
  5
24B98
330
24D3B
100
AcDbEntity
  8
SUNPOU
100
AcDbCircle
 10
9546.040410277514
 20
6198.464770760363
 30
0.0
 40
5.624999999998181
100
AcDbArc
 50
270.0
 51
90.0
  0
ARC
  5
24B99
330
24D3B
100
AcDbEntity
  8
SUNPOU
100
AcDbCircle
 10
1146.040410277506
 20
7138.464770760366
 30
0.0
 40
5.625
100
AcDbArc
 50
270.0
 51
90.0
  0
ARC
  5
24B9A
330
24D3B
100
AcDbEntity
  8
SUNPOU
100
AcDbCircle
 10
1146.040410277506
 20
7138.464770760366
 30
0.0
 40
5.625
100
AcDbArc
 50
90.0
 51
270.0
  0
ARC
  5
24B9B
330
24D3B
100
AcDbEntity
  8
SUNPOU
100
AcDbCircle
 10
1146.040410277506
 20
6898.464770760364
 30
0.0
 40
5.624999999998181
100
AcDbArc
 50
270.0
 51
90.0
  0
ARC
  5
24B9C
330
24D3B
100
AcDbEntity
  8
SUNPOU
100
AcDbCircle
 10
1146.040410277506
 20
6898.464770760364
 30
0.0
 40
5.624999999998181
100
AcDbArc
 50
90.0
 51
270.0
  0
ARC
  5
24B9D
330
24D3B
100
AcDbEntity
  8
SUNPOU
100
AcDbCircle
 10
1146.040410277506
 20
6898.464770760364
 30
0.0
 40
5.624999999998181
100
AcDbArc
 50
90.0
 51
270.0
  0
ARC
  5
24B9E
330
24D3B
100
AcDbEntity
  8
SUNPOU
100
AcDbCircle
 10
1146.040410277506
 20
6898.464770760364
 30
0.0
 40
5.624999999998181
100
AcDbArc
 50
270.0
 51
90.0
  0
ARC
  5
24B9F
330
24D3B
100
AcDbEntity
  8
SUNPOU
100
AcDbCircle
 10
1146.040410277506
 20
4898.464770760363
 30
0.0
 40
5.624999999998181
100
AcDbArc
 50
90.0
 51
270.0
  0
ARC
  5
24BA0
330
24D3B
100
AcDbEntity
  8
SUNPOU
100
AcDbCircle
 10
1146.040410277506
 20
4898.464770760363
 30
0.0
 40
5.624999999998181
100
AcDbArc
 50
270.0
 51
90.0
  0
TEXT
  5
24BA1
330
24D3B
100
AcDbEntity
  8
SUNPOU
100
AcDbText
 10
5732.326124563217
 20
4252.634136938772
 30
0.0
 40
90.0
  1
L = 2800 x N + 800
 41
0.6666666666666666
  7
00
100
AcDbText
  0
LINE
  5
24BA3
330
24D3B
100
AcDbEntity
  8
SUNPOU
100
AcDbLine
 10
1607.290410277506
 20
4207.634136938774
 30
0.0
 11
1618.540410277506
 21
4207.634136938774
 31
0.0
  0
LINE
  5
24BA5
330
24D3B
100
AcDbEntity
  8
SUNPOU
100
AcDbLine
 10
10784.7904102775
 20
4207.634136938774
 30
0.0
 11
10773.5404102775
 21
4207.634136938774
 31
0.0
  0
TEXT
  5
24BA6
330
24D3B
100
AcDbEntity
  8
SUNPOU
100
AcDbText
 10
2295.591794916775
 20
2843.077046087621
 30
0.0
 40
90.0
  1
480
 41
0.6666666666666666
  7
00
100
AcDbText
  0
LINE
  5
24BA8
330
24D3B
100
AcDbEntity
  8
SUNPOU
100
AcDbLine
 10
2610.056080631061
 20
2798.077046087621
 30
0.0
 11
2598.806080631061
 21
2798.077046087621
 31
0.0
  0
LINE
  5
24BAA
330
24D3B
100
AcDbEntity
  8
SUNPOU
100
AcDbLine
 10
2152.556080631061
 20
2798.077046087621
 30
0.0
 11
2163.806080631061
 21
2798.077046087621
 31
0.0
  0
LINE
  5
24BAC
330
24D3B
100
AcDbEntity
  8
SUNPOU
100
AcDbLine
 10
3285.856080631056
 20
1581.994622954004
 30
0.0
 11
3285.856080631056
 21
1593.244622954004
 31
0.0
  0
LINE
  5
24BAE
330
24D3B
100
AcDbEntity
  8
SUNPOU
100
AcDbLine
 10
3285.856080631056
 20
1509.494622954004
 30
0.0
 11
3285.856080631056
 21
1498.244622954004
 31
0.0
  0
TEXT
  5
24BAF
330
24D3B
100
AcDbEntity
  8
SUNPOU
100
AcDbText
 10
3438.65728512295
 20
1491.838927685163
 30
0.0
 40
90.0
  1
50
 50
90.0
 41
0.6666666666666666
  7
00
100
AcDbText
  0
TEXT
  5
24BB0
330
24D3B
100
AcDbEntity
  8
SUNPOU
100
AcDbText
 10
3240.856080631056
 20
1725.030337239718
 30
0.0
 40
90.0
  1
480
 50
90.0
 41
0.6666666666666666
  7
00
100
AcDbText
  0
LINE
  5
24BB2
330
24D3B
100
AcDbEntity
  8
SUNPOU
100
AcDbLine
 10
3285.856080631056
 20
2039.494622954003
 30
0.0
 11
3285.856080631056
 21
2028.244622954003
 31
0.0
  0
LINE
  5
24BB4
330
24D3B
100
AcDbEntity
  8
SUNPOU
100
AcDbLine
 10
3285.856080631056
 20
1581.994622954004
 30
0.0
 11
3285.856080631056
 21
1593.244622954004
 31
0.0
  0
TEXT
  5
24BB5
330
24D3B
100
AcDbEntity
  8
SUNPOU
100
AcDbText
 10
3240.856080631056
 20
1182.887480096861
 30
0.0
 40
90.0
  1
100
 50
90.0
 41
0.6666666666666666
  7
00
100
AcDbText
  0
LINE
  5
24BB7
330
24D3B
100
AcDbEntity
  8
SUNPOU
100
AcDbLine
 10
3285.856080631056
 20
1409.494622954003
 30
0.0
 11
3285.856080631056
 21
1398.244622954003
 31
0.0
  0
LINE
  5
24BB9
330
24D3B
100
AcDbEntity
  8
SUNPOU
100
AcDbLine
 10
3285.856080631056
 20
1531.994622954004
 30
0.0
 11
3285.856080631056
 21
1543.244622954003
 31
0.0
  0
TEXT
  5
24BBA
330
24D3B
100
AcDbEntity
  8
SUNPOU
100
AcDbText
 10
2445.591794916774
 20
1125.744622954002
 30
0.0
 40
90.0
  1
300
 41
0.6666666666666666
  7
00
100
AcDbText
  0
LINE
  5
24BBC
330
24D3B
100
AcDbEntity
  8
SUNPOU
100
AcDbLine
 10
2670.056080631061
 20
1080.744622954002
 30
0.0
 11
2658.806080631061
 21
1080.744622954002
 31
0.0
  0
LINE
  5
24BBE
330
24D3B
100
AcDbEntity
  8
SUNPOU
100
AcDbLine
 10
2392.556080631061
 20
1080.744622954002
 30
0.0
 11
2403.80608063106
 21
1080.744622954002
 31
0.0
  0
TEXT
  5
24BBF
330
24D3B
100
AcDbEntity
  8
SUNPOU
100
AcDbText
 10
1945.591794916774
 20
1125.744622954002
 30
0.0
 40
90.0
  1
700
 41
0.6666666666666666
  7
00
100
AcDbText
  0
LINE
  5
24BC1
330
24D3B
100
AcDbEntity
  8
SUNPOU
100
AcDbLine
 10
2370.05608063106
 20
1080.744622954002
 30
0.0
 11
2358.80608063106
 21
1080.744622954002
 31
0.0
  0
LINE
  5
24BC3
330
24D3B
100
AcDbEntity
  8
SUNPOU
100
AcDbLine
 10
1692.556080631059
 20
1080.744622954002
 30
0.0
 11
1703.806080631059
 21
1080.744622954002
 31
0.0
  0
TEXT
  5
24BC4
330
24D3B
100
AcDbEntity
  8
SUNPOU
100
AcDbText
 10
2062.734652059631
 20
915.744622954002
 30
0.0
 40
90.0
  1
1000
 41
0.6666666666666666
  7
00
100
AcDbText
  0
LINE
  5
24BC6
330
24D3B
100
AcDbEntity
  8
SUNPOU
100
AcDbLine
 10
2670.056080631061
 20
870.7446229540019
 30
0.0
 11
2658.806080631061
 21
870.7446229540019
 31
0.0
  0
LINE
  5
24BC8
330
24D3B
100
AcDbEntity
  8
SUNPOU
100
AcDbLine
 10
1692.556080631059
 20
870.7446229540019
 30
0.0
 11
1703.806080631059
 21
870.7446229540019
 31
0.0
  0
TEXT
  5
24BC9
330
24D3B
100
AcDbEntity
  8
SUNPOU
100
AcDbText
 10
3240.856080631056
 20
2243.601765811146
 30
0.0
 40
90.0
  1
150
 50
90.0
 41
0.6666666666666666
  7
00
100
AcDbText
  0
LINE
  5
24BCB
330
24D3B
100
AcDbEntity
  8
SUNPOU
100
AcDbLine
 10
3285.856080631056
 20
2189.494622954002
 30
0.0
 11
3285.856080631056
 21
2178.244622954002
 31
0.0
  0
LINE
  5
24BCD
330
24D3B
100
AcDbEntity
  8
SUNPOU
100
AcDbLine
 10
3285.856080631056
 20
2061.994622954002
 30
0.0
 11
3285.856080631056
 21
2073.244622954002
 31
0.0
  0
TEXT
  5
24BCE
330
24D3B
100
AcDbEntity
  8
SUNPOU
100
AcDbText
 10
10510.3261245632
 20
4493.46477076036
 30
0.0
 40
90.0
  1
400
 41
0.6666666666666666
  7
00
100
AcDbText
  0
LINE
  5
24BD0
330
24D3B
100
AcDbEntity
  8
SUNPOU
100
AcDbLine
 10
10784.7904102775
 20
4448.464770760362
 30
0.0
 11
10773.5404102775
 21
4448.464770760362
 31
0.0
  0
LINE
  5
24BD2
330
24D3B
100
AcDbEntity
  8
SUNPOU
100
AcDbLine
 10
10407.29041027749
 20
4448.464770760362
 30
0.0
 11
10418.54041027749
 21
4448.464770760362
 31
0.0
  0
TEXT
  5
24BD3
330
24D3B
100
AcDbEntity
  8
SUNPOU
100
AcDbText
 10
8881.754695991791
 20
4493.46477076036
 30
0.0
 40
90.0
  1
2800
 41
0.6666666666666666
  7
00
100
AcDbText
  0
LINE
  5
24BD5
330
24D3B
100
AcDbEntity
  8
SUNPOU
100
AcDbLine
 10
10384.7904102775
 20
4448.464770760362
 30
0.0
 11
10373.54041027749
 21
4448.464770760362
 31
0.0
  0
LINE
  5
24BD7
330
24D3B
100
AcDbEntity
  8
SUNPOU
100
AcDbLine
 10
7607.290410277514
 20
4448.464770760362
 30
0.0
 11
7618.540410277514
 21
4448.464770760362
 31
0.0
  0
TEXT
  5
24BD8
330
24D3B
100
AcDbEntity
  8
SUNPOU
100
AcDbText
 10
5806.326124563224
 20
4493.46477076036
 30
0.0
 40
90.0
  1
2800 ×（ N - 2 ）
 41
0.6666666666666666
  7
00
100
AcDbText
  0
LINE
  5
24BDA
330
24D3B
100
AcDbEntity
  8
SUNPOU
100
AcDbLine
 10
7584.790410277513
 20
4448.464770760362
 30
0.0
 11
7573.540410277513
 21
4448.464770760362
 31
0.0
  0
LINE
  5
24BDC
330
24D3B
100
AcDbEntity
  8
SUNPOU
100
AcDbLine
 10
4807.290410277506
 20
4448.464770760362
 30
0.0
 11
4818.540410277506
 21
4448.464770760362
 31
0.0
  0
TEXT
  5
24BDD
330
24D3B
100
AcDbEntity
  8
SUNPOU
100
AcDbText
 10
3281.754695991792
 20
4493.46477076036
 30
0.0
 40
90.0
  1
2800
 41
0.6666666666666666
  7
00
100
AcDbText
  0
LINE
  5
24BDF
330
24D3B
100
AcDbEntity
  8
SUNPOU
100
AcDbLine
 10
4784.790410277507
 20
4448.464770760362
 30
0.0
 11
4773.540410277506
 21
4448.464770760362
 31
0.0
  0
LINE
  5
24BE1
330
24D3B
100
AcDbEntity
  8
SUNPOU
100
AcDbLine
 10
2007.290410277506
 20
4448.464770760362
 30
0.0
 11
2018.540410277505
 21
4448.464770760362
 31
0.0
  0
TEXT
  5
24BE2
330
24D3B
100
AcDbEntity
  8
SUNPOU
100
AcDbText
 10
1710.326124563221
 20
4493.46477076036
 30
0.0
 40
90.0
  1
400
 41
0.6666666666666666
  7
00
100
AcDbText
  0
LINE
  5
24BE4
330
24D3B
100
AcDbEntity
  8
SUNPOU
100
AcDbLine
 10
1984.790410277506
 20
4448.464770760362
 30
0.0
 11
1973.540410277506
 21
4448.464770760362
 31
0.0
  0
LINE
  5
24BE6
330
24D3B
100
AcDbEntity
  8
SUNPOU
100
AcDbLine
 10
1607.290410277506
 20
4448.464770760362
 30
0.0
 11
1618.540410277506
 21
4448.464770760362
 31
0.0
  0
ARC
  5
24BE7
330
24D3B
100
AcDbEntity
  8
SUNPOU
100
AcDbCircle
 10
1596.040410277506
 20
4207.634136938774
 30
0.0
 40
5.625
100
AcDbArc
 50
0.0
 51
180.0
  0
ARC
  5
24BE8
330
24D3B
100
AcDbEntity
  8
SUNPOU
100
AcDbCircle
 10
1596.040410277506
 20
4207.634136938774
 30
0.0
 40
5.625
100
AcDbArc
 50
180.0
 51
0.0
  0
ARC
  5
24BE9
330
24D3B
100
AcDbEntity
  8
SUNPOU
100
AcDbCircle
 10
10796.04041027749
 20
4207.634136938774
 30
0.0
 40
5.625
100
AcDbArc
 50
180.0
 51
0.0
  0
ARC
  5
24BEA
330
24D3B
100
AcDbEntity
  8
SUNPOU
100
AcDbCircle
 10
10796.04041027749
 20
4207.634136938774
 30
0.0
 40
5.625
100
AcDbArc
 50
0.0
 51
180.0
  0
ARC
  5
24BEB
330
24D3B
100
AcDbEntity
  8
SUNPOU
100
AcDbCircle
 10
2621.306080631061
 20
2798.077046087621
 30
0.0
 40
5.625
100
AcDbArc
 50
180.0
 51
0.0
  0
ARC
  5
24BEC
330
24D3B
100
AcDbEntity
  8
SUNPOU
100
AcDbCircle
 10
2621.306080631061
 20
2798.077046087621
 30
0.0
 40
5.625
100
AcDbArc
 50
0.0
 51
180.0
  0
ARC
  5
24BED
330
24D3B
100
AcDbEntity
  8
SUNPOU
100
AcDbCircle
 10
2141.306080631061
 20
2798.077046087621
 30
0.0
 40
5.625
100
AcDbArc
 50
0.0
 51
180.0
  0
ARC
  5
24BEE
330
24D3B
100
AcDbEntity
  8
SUNPOU
100
AcDbCircle
 10
2141.306080631061
 20
2798.077046087621
 30
0.0
 40
5.625
100
AcDbArc
 50
180.0
 51
0.0
  0
ARC
  5
24BEF
330
24D3B
100
AcDbEntity
  8
SUNPOU
100
AcDbCircle
 10
3285.856080631056
 20
1570.744622954004
 30
0.0
 40
5.625
100
AcDbArc
 50
90.0
 51
270.0
  0
ARC
  5
24BF0
330
24D3B
100
AcDbEntity
  8
SUNPOU
100
AcDbCircle
 10
3285.856080631056
 20
1570.744622954004
 30
0.0
 40
5.625
100
AcDbArc
 50
270.0
 51
90.0
  0
ARC
  5
24BF1
330
24D3B
100
AcDbEntity
  8
SUNPOU
100
AcDbCircle
 10
3285.856080631056
 20
1520.744622954004
 30
0.0
 40
5.625
100
AcDbArc
 50
270.0
 51
90.0
  0
ARC
  5
24BF2
330
24D3B
100
AcDbEntity
  8
SUNPOU
100
AcDbCircle
 10
3285.856080631056
 20
1520.744622954004
 30
0.0
 40
5.625
100
AcDbArc
 50
90.0
 51
270.0
  0
ARC
  5
24BF3
330
24D3B
100
AcDbEntity
  8
SUNPOU
100
AcDbCircle
 10
3285.856080631056
 20
2050.744622954002
 30
0.0
 40
5.625
100
AcDbArc
 50
270.0
 51
90.0
  0
ARC
  5
24BF4
330
24D3B
100
AcDbEntity
  8
SUNPOU
100
AcDbCircle
 10
3285.856080631056
 20
2050.744622954002
 30
0.0
 40
5.625
100
AcDbArc
 50
90.0
 51
270.0
  0
ARC
  5
24BF5
330
24D3B
100
AcDbEntity
  8
SUNPOU
100
AcDbCircle
 10
3285.856080631056
 20
1570.744622954004
 30
0.0
 40
5.625
100
AcDbArc
 50
90.0
 51
270.0
  0
ARC
  5
24BF6
330
24D3B
100
AcDbEntity
  8
SUNPOU
100
AcDbCircle
 10
3285.856080631056
 20
1570.744622954004
 30
0.0
 40
5.625
100
AcDbArc
 50
270.0
 51
90.0
  0
ARC
  5
24BF7
330
24D3B
100
AcDbEntity
  8
SUNPOU
100
AcDbCircle
 10
3285.856080631056
 20
1420.744622954003
 30
0.0
 40
5.625
100
AcDbArc
 50
270.0
 51
90.0
  0
ARC
  5
24BF8
330
24D3B
100
AcDbEntity
  8
SUNPOU
100
AcDbCircle
 10
3285.856080631056
 20
1420.744622954003
 30
0.0
 40
5.625
100
AcDbArc
 50
90.0
 51
270.0
  0
ARC
  5
24BF9
330
24D3B
100
AcDbEntity
  8
SUNPOU
100
AcDbCircle
 10
3285.856080631056
 20
1520.744622954004
 30
0.0
 40
5.625
100
AcDbArc
 50
90.0
 51
270.0
  0
ARC
  5
24BFA
330
24D3B
100
AcDbEntity
  8
SUNPOU
100
AcDbCircle
 10
3285.856080631056
 20
1520.744622954004
 30
0.0
 40
5.625
100
AcDbArc
 50
270.0
 51
90.0
  0
ARC
  5
24BFB
330
24D3B
100
AcDbEntity
  8
SUNPOU
100
AcDbCircle
 10
2681.306080631061
 20
1080.744622954002
 30
0.0
 40
5.625
100
AcDbArc
 50
180.0
 51
0.0
  0
ARC
  5
24BFC
330
24D3B
100
AcDbEntity
  8
SUNPOU
100
AcDbCircle
 10
2681.306080631061
 20
1080.744622954002
 30
0.0
 40
5.625
100
AcDbArc
 50
0.0
 51
180.0
  0
ARC
  5
24BFD
330
24D3B
100
AcDbEntity
  8
SUNPOU
100
AcDbCircle
 10
2381.30608063106
 20
1080.744622954002
 30
0.0
 40
5.625
100
AcDbArc
 50
0.0
 51
180.0
  0
ARC
  5
24BFE
330
24D3B
100
AcDbEntity
  8
SUNPOU
100
AcDbCircle
 10
2381.30608063106
 20
1080.744622954002
 30
0.0
 40
5.625
100
AcDbArc
 50
180.0
 51
0.0
  0
ARC
  5
24BFF
330
24D3B
100
AcDbEntity
  8
SUNPOU
100
AcDbCircle
 10
2381.30608063106
 20
1080.744622954002
 30
0.0
 40
5.625
100
AcDbArc
 50
180.0
 51
0.0
  0
ARC
  5
24C00
330
24D3B
100
AcDbEntity
  8
SUNPOU
100
AcDbCircle
 10
2381.30608063106
 20
1080.744622954002
 30
0.0
 40
5.625
100
AcDbArc
 50
0.0
 51
180.0
  0
ARC
  5
24C01
330
24D3B
100
AcDbEntity
  8
SUNPOU
100
AcDbCircle
 10
1681.30608063106
 20
1080.744622954002
 30
0.0
 40
5.625
100
AcDbArc
 50
0.0
 51
180.0
  0
ARC
  5
24C02
330
24D3B
100
AcDbEntity
  8
SUNPOU
100
AcDbCircle
 10
1681.30608063106
 20
1080.744622954002
 30
0.0
 40
5.625
100
AcDbArc
 50
180.0
 51
0.0
  0
ARC
  5
24C03
330
24D3B
100
AcDbEntity
  8
SUNPOU
100
AcDbCircle
 10
2681.306080631061
 20
870.7446229540019
 30
0.0
 40
5.625
100
AcDbArc
 50
180.0
 51
0.0
  0
ARC
  5
24C04
330
24D3B
100
AcDbEntity
  8
SUNPOU
100
AcDbCircle
 10
2681.306080631061
 20
870.7446229540019
 30
0.0
 40
5.625
100
AcDbArc
 50
0.0
 51
180.0
  0
ARC
  5
24C05
330
24D3B
100
AcDbEntity
  8
SUNPOU
100
AcDbCircle
 10
1681.30608063106
 20
870.7446229540019
 30
0.0
 40
5.625
100
AcDbArc
 50
0.0
 51
180.0
  0
ARC
  5
24C06
330
24D3B
100
AcDbEntity
  8
SUNPOU
100
AcDbCircle
 10
1681.30608063106
 20
870.7446229540019
 30
0.0
 40
5.625
100
AcDbArc
 50
180.0
 51
0.0
  0
ARC
  5
24C07
330
24D3B
100
AcDbEntity
  8
SUNPOU
100
AcDbCircle
 10
3285.856080631056
 20
2200.744622954002
 30
0.0
 40
5.625
100
AcDbArc
 50
270.0
 51
90.0
  0
ARC
  5
24C08
330
24D3B
100
AcDbEntity
  8
SUNPOU
100
AcDbCircle
 10
3285.856080631056
 20
2200.744622954002
 30
0.0
 40
5.625
100
AcDbArc
 50
90.0
 51
270.0
  0
ARC
  5
24C09
330
24D3B
100
AcDbEntity
  8
SUNPOU
100
AcDbCircle
 10
3285.856080631056
 20
2050.744622954002
 30
0.0
 40
5.625
100
AcDbArc
 50
90.0
 51
270.0
  0
ARC
  5
24C0A
330
24D3B
100
AcDbEntity
  8
SUNPOU
100
AcDbCircle
 10
3285.856080631056
 20
2050.744622954002
 30
0.0
 40
5.625
100
AcDbArc
 50
270.0
 51
90.0
  0
ARC
  5
24C0B
330
24D3B
100
AcDbEntity
  8
SUNPOU
100
AcDbCircle
 10
10796.04041027749
 20
4448.464770760362
 30
0.0
 40
5.625
100
AcDbArc
 50
180.0
 51
0.0
  0
ARC
  5
24C0C
330
24D3B
100
AcDbEntity
  8
SUNPOU
100
AcDbCircle
 10
10796.04041027749
 20
4448.464770760362
 30
0.0
 40
5.625
100
AcDbArc
 50
0.0
 51
180.0
  0
ARC
  5
24C0D
330
24D3B
100
AcDbEntity
  8
SUNPOU
100
AcDbCircle
 10
10396.0404102775
 20
4448.464770760362
 30
0.0
 40
5.625
100
AcDbArc
 50
0.0
 51
180.0
  0
ARC
  5
24C0E
330
24D3B
100
AcDbEntity
  8
SUNPOU
100
AcDbCircle
 10
10396.0404102775
 20
4448.464770760362
 30
0.0
 40
5.625
100
AcDbArc
 50
180.0
 51
0.0
  0
ARC
  5
24C0F
330
24D3B
100
AcDbEntity
  8
SUNPOU
100
AcDbCircle
 10
10396.0404102775
 20
4448.464770760362
 30
0.0
 40
5.625
100
AcDbArc
 50
180.0
 51
0.0
  0
ARC
  5
24C10
330
24D3B
100
AcDbEntity
  8
SUNPOU
100
AcDbCircle
 10
10396.0404102775
 20
4448.464770760362
 30
0.0
 40
5.625
100
AcDbArc
 50
0.0
 51
180.0
  0
ARC
  5
24C11
330
24D3B
100
AcDbEntity
  8
SUNPOU
100
AcDbCircle
 10
7596.040410277514
 20
4448.464770760362
 30
0.0
 40
5.625
100
AcDbArc
 50
0.0
 51
180.0
  0
ARC
  5
24C12
330
24D3B
100
AcDbEntity
  8
SUNPOU
100
AcDbCircle
 10
7596.040410277514
 20
4448.464770760362
 30
0.0
 40
5.625
100
AcDbArc
 50
180.0
 51
0.0
  0
ARC
  5
24C13
330
24D3B
100
AcDbEntity
  8
SUNPOU
100
AcDbCircle
 10
7596.040410277514
 20
4448.464770760362
 30
0.0
 40
5.625
100
AcDbArc
 50
180.0
 51
0.0
  0
ARC
  5
24C14
330
24D3B
100
AcDbEntity
  8
SUNPOU
100
AcDbCircle
 10
7596.040410277514
 20
4448.464770760362
 30
0.0
 40
5.625
100
AcDbArc
 50
0.0
 51
180.0
  0
ARC
  5
24C15
330
24D3B
100
AcDbEntity
  8
SUNPOU
100
AcDbCircle
 10
4796.040410277506
 20
4448.464770760362
 30
0.0
 40
5.625
100
AcDbArc
 50
0.0
 51
180.0
  0
ARC
  5
24C16
330
24D3B
100
AcDbEntity
  8
SUNPOU
100
AcDbCircle
 10
4796.040410277506
 20
4448.464770760362
 30
0.0
 40
5.625
100
AcDbArc
 50
180.0
 51
0.0
  0
ARC
  5
24C17
330
24D3B
100
AcDbEntity
  8
SUNPOU
100
AcDbCircle
 10
4796.040410277506
 20
4448.464770760362
 30
0.0
 40
5.625
100
AcDbArc
 50
180.0
 51
0.0
  0
ARC
  5
24C18
330
24D3B
100
AcDbEntity
  8
SUNPOU
100
AcDbCircle
 10
4796.040410277506
 20
4448.464770760362
 30
0.0
 40
5.625
100
AcDbArc
 50
0.0
 51
180.0
  0
ARC
  5
24C19
330
24D3B
100
AcDbEntity
  8
SUNPOU
100
AcDbCircle
 10
1996.040410277506
 20
4448.464770760362
 30
0.0
 40
5.625
100
AcDbArc
 50
0.0
 51
180.0
  0
ARC
  5
24C1A
330
24D3B
100
AcDbEntity
  8
SUNPOU
100
AcDbCircle
 10
1996.040410277506
 20
4448.464770760362
 30
0.0
 40
5.625
100
AcDbArc
 50
180.0
 51
0.0
  0
ARC
  5
24C1B
330
24D3B
100
AcDbEntity
  8
SUNPOU
100
AcDbCircle
 10
1996.040410277506
 20
4448.464770760362
 30
0.0
 40
5.625
100
AcDbArc
 50
180.0
 51
0.0
  0
ARC
  5
24C1C
330
24D3B
100
AcDbEntity
  8
SUNPOU
100
AcDbCircle
 10
1996.040410277506
 20
4448.464770760362
 30
0.0
 40
5.625
100
AcDbArc
 50
0.0
 51
180.0
  0
ARC
  5
24C1D
330
24D3B
100
AcDbEntity
  8
SUNPOU
100
AcDbCircle
 10
1596.040410277506
 20
4448.464770760362
 30
0.0
 40
5.625
100
AcDbArc
 50
0.0
 51
180.0
  0
ARC
  5
24C1E
330
24D3B
100
AcDbEntity
  8
SUNPOU
100
AcDbCircle
 10
1596.040410277506
 20
4448.464770760362
 30
0.0
 40
5.625
100
AcDbArc
 50
180.0
 51
0.0
  0
ARC
  5
24C26
330
24D3B
100
AcDbEntity
  8
HIKIDASHI
100
AcDbCircle
 10
9500.36774971039
 20
7568.849499283054
 30
0.0
 40
74.66417910437195
100
AcDbArc
 50
164.859612985089
 51
237.5045002941262
  0
ARC
  5
24C27
330
24D3B
100
AcDbEntity
  8
HIKIDASHI
100
AcDbCircle
 10
9436.943955664213
 20
7586.010522767502
 30
0.0
 40
8.959701492524635
100
AcDbArc
 50
15.14038701502261
 51
164.8596129849773
  0
ARC
  5
24C29
330
24D3B
100
AcDbEntity
  8
HIKIDASHI
100
AcDbCircle
 10
4247.977187334782
 20
2718.461774610483
 30
0.0
 40
74.66417910452284
100
AcDbArc
 50
164.859612985099
 51
237.5045002941329
  0
ARC
  5
24C2A
330
24D3B
100
AcDbEntity
  8
HIKIDASHI
100
AcDbCircle
 10
4184.553393288477
 20
2735.622798094968
 30
0.0
 40
8.959701492542743
100
AcDbArc
 50
15.14038701504826
 51
164.8596129849796
  0
LINE
  5
24C2B
330
24D3B
100
AcDbEntity
  8
HIKIDASHI
100
AcDbLine
 10
10440.97572187808
 20
7024.308146922834
 30
0.0
 11
10496.0404102775
 21
6998.464770760365
 31
0.0
  0
LINE
  5
24C2C
330
24D3B
100
AcDbEntity
  8
HIKIDASHI
100
AcDbLine
 10
10496.0404102775
 20
6998.464770760365
 30
0.0
 11
10452.33382703344
 21
7040.770025530079
 31
0.0
  0
SOLID
  5
24C2D
330
24D3B
100
AcDbEntity
  8
HIKIDASHI
100
AcDbTrace
 10
10440.97572187808
 20
7024.308146922834
 30
0.0
 11
10452.33382703344
 21
7040.770025530079
 31
0.0
 12
10496.0404102775
 22
6998.464770760365
 32
0.0
 13
10496.0404102775
 23
6998.464770760365
 33
0.0
  0
LINE
  5
24C2E
330
24D3B
100
AcDbEntity
  8
HIKIDASHI
100
AcDbLine
 10
10452.33382703344
 20
7040.770025530079
 30
0.0
 11
10440.97572187808
 21
7024.308146922834
 31
0.0
  0
LINE
  5
24C2F
330
24D3B
100
AcDbEntity
  8
HIKIDASHI
100
AcDbLine
 10
10246.63517192053
 20
7033.94888583869
 30
0.0
 11
10296.0404102775
 21
6998.464770760365
 31
0.0
  0
LINE
  5
24C30
330
24D3B
100
AcDbEntity
  8
HIKIDASHI
100
AcDbLine
 10
10296.0404102775
 20
6998.464770760365
 30
0.0
 11
10260.81408699226
 21
7048.054146112393
 31
0.0
  0
SOLID
  5
24C31
330
24D3B
100
AcDbEntity
  8
HIKIDASHI
100
AcDbTrace
 10
10246.63517192053
 20
7033.94888583869
 30
0.0
 11
10260.81408699226
 21
7048.054146112393
 31
0.0
 12
10296.0404102775
 22
6998.464770760365
 32
0.0
 13
10296.0404102775
 23
6998.464770760365
 33
0.0
  0
LINE
  5
24C32
330
24D3B
100
AcDbEntity
  8
HIKIDASHI
100
AcDbLine
 10
10260.81408699226
 20
7048.054146112393
 30
0.0
 11
10246.63517192053
 21
7033.94888583869
 31
0.0
  0
LINE
  5
24C33
330
24D3B
100
AcDbEntity
  8
HIKIDASHI
100
AcDbLine
 10
10336.68072767147
 20
6811.821071734349
 30
0.0
 11
10367.47654410585
 21
6864.276935945516
 31
0.0
  0
LINE
  5
24C34
330
24D3B
100
AcDbEntity
  8
HIKIDASHI
100
AcDbLine
 10
10367.47654410585
 20
6864.276935945516
 30
0.0
 11
10321.33265368051
 21
6824.644356210964
 31
0.0
  0
SOLID
  5
24C35
330
24D3B
100
AcDbEntity
  8
HIKIDASHI
100
AcDbTrace
 10
10336.68072767147
 20
6811.821071734349
 30
0.0
 11
10321.33265368051
 21
6824.644356210964
 31
0.0
 12
10367.47654410585
 22
6864.276935945516
 32
0.0
 13
10367.47654410585
 23
6864.276935945516
 33
0.0
  0
LINE
  5
24C36
330
24D3B
100
AcDbEntity
  8
HIKIDASHI
100
AcDbLine
 10
10321.33265368051
 20
6824.644356210964
 30
0.0
 11
10336.68072767147
 21
6811.821071734349
 31
0.0
  0
LINE
  5
24C37
330
24D3B
100
AcDbEntity
  8
HIKIDASHI
100
AcDbLine
 10
2541.337898128639
 20
2155.093392918709
 30
0.0
 11
2861.708263957677
 21
2588.077046087621
 31
0.0
1001
ACAD
1000
DSTYLE
1002
{
1070
   147
1040
1.5
1070
    77
1070
     0
1002
}
  0
LINE
  5
24C38
330
24D3B
100
AcDbEntity
  8
HIKIDASHI
100
AcDbLine
 10
2529.279769801189
 20
2164.015362501639
 30
0.0
 11
2487.80608063106
 21
2082.744622954003
 31
0.0
  0
LINE
  5
24C39
330
24D3B
100
AcDbEntity
  8
HIKIDASHI
100
AcDbLine
 10
2487.80608063106
 20
2082.744622954003
 30
0.0
 11
2553.396026456091
 21
2146.171423335779
 31
0.0
  0
SOLID
  5
24C3A
330
24D3B
100
AcDbEntity
  8
HIKIDASHI
100
AcDbTrace
 10
2529.279769801189
 20
2164.015362501639
 30
0.0
 11
2553.396026456091
 21
2146.171423335779
 31
0.0
 12
2487.80608063106
 22
2082.744622954003
 32
0.0
 13
2487.80608063106
 23
2082.744622954003
 33
0.0
  0
LINE
  5
24C3B
330
24D3B
100
AcDbEntity
  8
HIKIDASHI
100
AcDbLine
 10
2553.396026456091
 20
2146.171423335779
 30
0.0
 11
2529.279769801189
 21
2164.015362501639
 31
0.0
  0
LINE
  5
24C3C
330
24D3B
100
AcDbEntity
  8
HIKIDASHI
100
AcDbLine
 10
2486.519879054727
 20
1586.566247873522
 30
0.0
 11
3090.271559542875
 21
688.9669329272346
 31
0.0
1001
ACAD
1000
DSTYLE
1002
{
1070
   147
1040
1.5
1070
    77
1070
     0
1002
}
  0
LINE
  5
24C3D
330
24D3B
100
AcDbEntity
  8
HIKIDASHI
100
AcDbLine
 10
2498.966274901474
 20
1594.938059530869
 30
0.0
 11
2436.289009110646
 21
1661.244622954002
 31
0.0
  0
LINE
  5
24C3E
330
24D3B
100
AcDbEntity
  8
HIKIDASHI
100
AcDbLine
 10
2436.289009110646
 20
1661.244622954002
 30
0.0
 11
2474.07348320798
 21
1578.194436216175
 31
0.0
  0
SOLID
  5
24C3F
330
24D3B
100
AcDbEntity
  8
HIKIDASHI
100
AcDbTrace
 10
2498.966274901474
 20
1594.938059530869
 30
0.0
 11
2474.07348320798
 21
1578.194436216175
 31
0.0
 12
2436.289009110646
 22
1661.244622954002
 32
0.0
 13
2436.289009110646
 23
1661.244622954002
 33
0.0
  0
LINE
  5
24C40
330
24D3B
100
AcDbEntity
  8
HIKIDASHI
100
AcDbLine
 10
2474.07348320798
 20
1578.194436216175
 30
0.0
 11
2498.966274901474
 21
1594.938059530869
 31
0.0
  0
LINE
  5
24C41
330
24D3B
100
AcDbEntity
  8
HIKIDASHI
100
AcDbLine
 10
2634.61343526516
 20
1732.649061714796
 30
0.0
 11
3222.877259411718
 21
932.4302402870015
 31
0.0
1001
ACAD
1000
DSTYLE
1002
{
1070
   147
1040
1.5
1070
    77
1070
     0
1002
}
  0
LINE
  5
24C42
330
24D3B
100
AcDbEntity
  8
HIKIDASHI
100
AcDbLine
 10
2646.699154503072
 20
1741.533620820479
 30
0.0
 11
2581.306080631061
 21
1805.163377142264
 31
0.0
  0
LINE
  5
24C43
330
24D3B
100
AcDbEntity
  8
HIKIDASHI
100
AcDbLine
 10
2581.306080631061
 20
1805.163377142264
 30
0.0
 11
2622.527716027247
 21
1723.764502609111
 31
0.0
  0
SOLID
  5
24C44
330
24D3B
100
AcDbEntity
  8
HIKIDASHI
100
AcDbTrace
 10
2646.699154503072
 20
1741.533620820479
 30
0.0
 11
2622.527716027247
 21
1723.764502609111
 31
0.0
 12
2581.306080631061
 22
1805.163377142264
 32
0.0
 13
2581.306080631061
 23
1805.163377142264
 33
0.0
  0
LINE
  5
24C45
330
24D3B
100
AcDbEntity
  8
HIKIDASHI
100
AcDbLine
 10
2622.527716027247
 20
1723.764502609111
 30
0.0
 11
2646.699154503072
 21
1741.533620820479
 31
0.0
  0
ARC
  5
24C46
330
24D3B
100
AcDbEntity
  8
HIKIDASHI
100
AcDbCircle
 10
9374.699688153773
 20
7570.029626642642
 30
0.0
 40
74.66417910437193
100
AcDbArc
 50
301.7712278330713
 51
15.14038701490884
  0
ARC
  5
24C47
330
24D3B
100
AcDbEntity
  8
HIKIDASHI
100
AcDbCircle
 10
4122.309125777911
 20
2719.641901970073
 30
0.0
 40
74.66417910452252
100
AcDbArc
 50
301.7712278330703
 51
15.14038701490934
  0
LINE
  5
24C48
330
24D3B
100
AcDbEntity
  8
HATCH
100
AcDbLine
 10
1631.621770949263
 20
1420.744622953998
 30
0.0
 11
1689.356797868225
 21
1520.744622953998
 31
0.0
  0
LINE
  5
24C49
330
24D3B
100
AcDbEntity
  8
HATCH
100
AcDbLine
 10
1649.356797868225
 20
1520.744622953996
 30
0.0
 11
1669.356797868226
 21
1486.103606802622
 31
0.0
  0
LINE
  5
24C4A
330
24D3B
100
AcDbEntity
  8
HATCH
100
AcDbLine
 10
1651.621770949263
 20
1455.385639105377
 30
0.0
 11
1671.621770949263
 21
1420.744622953998
 31
0.0
  0
LINE
  5
24C4B
330
24D3B
100
AcDbEntity
  8
HATCH
100
AcDbLine
 10
2681.621770949263
 20
1420.744622954002
 30
0.0
 11
2739.356797868226
 21
1520.744622954002
 31
0.0
  0
LINE
  5
24C4C
330
24D3B
100
AcDbEntity
  8
HATCH
100
AcDbLine
 10
2699.356797868226
 20
1520.744622954
 30
0.0
 11
2719.356797868226
 21
1486.103606802626
 31
0.0
  0
LINE
  5
24C4D
330
24D3B
100
AcDbEntity
  8
HATCH
100
AcDbLine
 10
2701.621770949262
 20
1455.38563910538
 30
0.0
 11
2721.621770949263
 21
1420.744622954002
 31
0.0
  0
LINE
  5
24C4E
330
24D3B
100
AcDbEntity
  8
HATCH
100
AcDbLine
 10
2531.621770949262
 20
1420.744622954002
 30
0.0
 11
2589.356797868226
 21
1520.744622954002
 31
0.0
  0
LINE
  5
24C4F
330
24D3B
100
AcDbEntity
  8
HATCH
100
AcDbLine
 10
2549.356797868226
 20
1520.744622954
 30
0.0
 11
2569.356797868226
 21
1486.103606802626
 31
0.0
  0
LINE
  5
24C50
330
24D3B
100
AcDbEntity
  8
HATCH
100
AcDbLine
 10
2551.621770949263
 20
1455.38563910538
 30
0.0
 11
2571.621770949263
 21
1420.744622954002
 31
0.0
  0
LINE
  5
24C51
330
24D3B
100
AcDbEntity
  8
HATCH
100
AcDbLine
 10
2381.621770949263
 20
1420.744622954002
 30
0.0
 11
2439.356797868226
 21
1520.744622954002
 31
0.0
  0
LINE
  5
24C52
330
24D3B
100
AcDbEntity
  8
HATCH
100
AcDbLine
 10
2399.356797868225
 20
1520.744622954
 30
0.0
 11
2419.356797868226
 21
1486.103606802626
 31
0.0
  0
LINE
  5
24C53
330
24D3B
100
AcDbEntity
  8
HATCH
100
AcDbLine
 10
2401.621770949263
 20
1455.38563910538
 30
0.0
 11
2421.621770949264
 21
1420.744622954002
 31
0.0
  0
LINE
  5
24C54
330
24D3B
100
AcDbEntity
  8
HATCH
100
AcDbLine
 10
1371.306080630978
 20
2050.744622954002
 30
0.0
 11
1405.947096782324
 21
2110.744622953947
 31
0.0
  0
LINE
  5
24C55
330
24D3B
100
AcDbEntity
  8
HATCH
100
AcDbLine
 10
1381.947096782345
 20
2110.744622953947
 30
0.0
 11
1393.947096782335
 21
2089.96001326314
 31
0.0
  0
LINE
  5
24C56
330
24D3B
100
AcDbEntity
  8
HATCH
100
AcDbLine
 10
1383.306080630968
 20
2071.52923264481
 30
0.0
 11
1395.306080630956
 21
2050.744622954002
 31
0.0
  0
LINE
  5
24C57
330
24D3B
100
AcDbEntity
  8
HATCH
100
AcDbLine
 10
1461.306080630978
 20
2050.744622954002
 30
0.0
 11
1495.947096782324
 21
2110.744622953947
 31
0.0
  0
LINE
  5
24C58
330
24D3B
100
AcDbEntity
  8
HATCH
100
AcDbLine
 10
1471.947096782345
 20
2110.744622953947
 30
0.0
 11
1483.947096782334
 21
2089.96001326314
 31
0.0
  0
LINE
  5
24C59
330
24D3B
100
AcDbEntity
  8
HATCH
100
AcDbLine
 10
1473.306080630966
 20
2071.52923264481
 30
0.0
 11
1485.306080630957
 21
2050.744622954002
 31
0.0
  0
LINE
  5
24C5A
330
24D3B
100
AcDbEntity
  8
HATCH
100
AcDbLine
 10
1641.306080630978
 20
2050.744622954002
 30
0.0
 11
1675.947096782325
 21
2110.744622953947
 31
0.0
  0
LINE
  5
24C5B
330
24D3B
100
AcDbEntity
  8
HATCH
100
AcDbLine
 10
1651.947096782345
 20
2110.744622953947
 30
0.0
 11
1663.947096782336
 21
2089.96001326314
 31
0.0
  0
LINE
  5
24C5C
330
24D3B
100
AcDbEntity
  8
HATCH
100
AcDbLine
 10
1653.306080630968
 20
2071.52923264481
 30
0.0
 11
1665.306080630957
 21
2050.744622954002
 31
0.0
  0
LINE
  5
24C5D
330
24D3B
100
AcDbEntity
  8
HATCH
100
AcDbLine
 10
1551.306080630978
 20
2050.744622954002
 30
0.0
 11
1585.947096782325
 21
2110.744622953947
 31
0.0
  0
LINE
  5
24C5E
330
24D3B
100
AcDbEntity
  8
HATCH
100
AcDbLine
 10
1561.947096782345
 20
2110.744622953947
 30
0.0
 11
1573.947096782335
 21
2089.96001326314
 31
0.0
  0
LINE
  5
24C5F
330
24D3B
100
AcDbEntity
  8
HATCH
100
AcDbLine
 10
1563.306080630967
 20
2071.52923264481
 30
0.0
 11
1575.306080630957
 21
2050.744622954002
 31
0.0
  0
LINE
  5
24C60
330
24D3B
100
AcDbEntity
  8
HATCH
100
AcDbLine
 10
2231.621770949263
 20
1420.744622953999
 30
0.0
 11
2289.356797868225
 21
1520.744622954
 31
0.0
  0
LINE
  5
24C61
330
24D3B
100
AcDbEntity
  8
HATCH
100
AcDbLine
 10
2249.356797868225
 20
1520.744622953999
 30
0.0
 11
2269.356797868226
 21
1486.103606802624
 31
0.0
  0
LINE
  5
24C62
330
24D3B
100
AcDbEntity
  8
HATCH
100
AcDbLine
 10
2251.621770949263
 20
1455.385639105378
 30
0.0
 11
2271.621770949263
 21
1420.744622953999
 31
0.0
  0
LINE
  5
24C63
330
24D3B
100
AcDbEntity
  8
HATCH
100
AcDbLine
 10
1931.621770949263
 20
1420.744622953999
 30
0.0
 11
1989.356797868225
 21
1520.744622954
 31
0.0
  0
LINE
  5
24C64
330
24D3B
100
AcDbEntity
  8
HATCH
100
AcDbLine
 10
1949.356797868226
 20
1520.744622953999
 30
0.0
 11
1969.356797868226
 21
1486.103606802624
 31
0.0
  0
LINE
  5
24C65
330
24D3B
100
AcDbEntity
  8
HATCH
100
AcDbLine
 10
1951.621770949262
 20
1455.385639105378
 30
0.0
 11
1971.621770949263
 21
1420.744622953999
 31
0.0
  0
LINE
  5
24C66
330
24D3B
100
AcDbEntity
  8
HATCH
100
AcDbLine
 10
2081.621770949263
 20
1420.744622953999
 30
0.0
 11
2139.356797868225
 21
1520.744622954
 31
0.0
  0
LINE
  5
24C67
330
24D3B
100
AcDbEntity
  8
HATCH
100
AcDbLine
 10
2099.356797868225
 20
1520.744622953999
 30
0.0
 11
2119.356797868225
 21
1486.103606802624
 31
0.0
  0
LINE
  5
24C68
330
24D3B
100
AcDbEntity
  8
HATCH
100
AcDbLine
 10
2101.621770949262
 20
1455.385639105378
 30
0.0
 11
2121.621770949263
 21
1420.744622953999
 31
0.0
  0
LINE
  5
24C69
330
24D3B
100
AcDbEntity
  8
HATCH
100
AcDbLine
 10
1781.621770949262
 20
1420.744622953999
 30
0.0
 11
1839.356797868226
 21
1520.744622954
 31
0.0
  0
LINE
  5
24C6A
330
24D3B
100
AcDbEntity
  8
HATCH
100
AcDbLine
 10
1799.356797868226
 20
1520.744622953999
 30
0.0
 11
1819.356797868226
 21
1486.103606802624
 31
0.0
  0
LINE
  5
24C6B
330
24D3B
100
AcDbEntity
  8
HATCH
100
AcDbLine
 10
1801.621770949262
 20
1455.385639105378
 30
0.0
 11
1821.621770949263
 21
1420.744622953999
 31
0.0
  0
LINE
  5
24C6C
330
24D3B
100
AcDbEntity
  8
HATCH
100
AcDbLine
 10
1281.306080630979
 20
2050.744622954002
 30
0.0
 11
1315.947096782325
 21
2110.744622953947
 31
0.0
  0
LINE
  5
24C6D
330
24D3B
100
AcDbEntity
  8
HATCH
100
AcDbLine
 10
1291.947096782346
 20
2110.744622953947
 30
0.0
 11
1303.947096782336
 21
2089.96001326314
 31
0.0
  0
LINE
  5
24C6E
330
24D3B
100
AcDbEntity
  8
HATCH
100
AcDbLine
 10
1293.306080630967
 20
2071.52923264481
 30
0.0
 11
1305.306080630957
 21
2050.744622954002
 31
0.0
  0
LINE
  5
24C6F
330
24D3B
100
AcDbEntity
  8
HATCH
100
AcDbLine
 10
1191.306080630978
 20
2050.744622954002
 30
0.0
 11
1225.947096782324
 21
2110.744622953947
 31
0.0
  0
LINE
  5
24C70
330
24D3B
100
AcDbEntity
  8
HATCH
100
AcDbLine
 10
1201.947096782346
 20
2110.744622953947
 30
0.0
 11
1213.947096782336
 21
2089.96001326314
 31
0.0
  0
LINE
  5
24C71
330
24D3B
100
AcDbEntity
  8
HATCH
100
AcDbLine
 10
1203.306080630968
 20
2071.52923264481
 30
0.0
 11
1215.306080630957
 21
2050.744622954002
 31
0.0
  0
LINE
  5
24C72
330
24D3B
100
AcDbEntity
  8
HATCH
100
AcDbLine
 10
1101.306080630978
 20
2050.744622954002
 30
0.0
 11
1135.947096782324
 21
2110.744622953947
 31
0.0
  0
LINE
  5
24C73
330
24D3B
100
AcDbEntity
  8
HATCH
100
AcDbLine
 10
1111.947096782346
 20
2110.744622953947
 30
0.0
 11
1123.947096782335
 21
2089.96001326314
 31
0.0
  0
LINE
  5
24C74
330
24D3B
100
AcDbEntity
  8
HATCH
100
AcDbLine
 10
1113.306080630968
 20
2071.52923264481
 30
0.0
 11
1125.306080630956
 21
2050.744622954002
 31
0.0
  0
LINE
  5
24C75
330
24D3B
100
AcDbEntity
  8
KISO
100
AcDbLine
 10
5313.479465620389
 20
1524.307412600588
 30
0.0
 11
6313.479465620389
 21
1524.307412600588
 31
0.0
  0
LINE
  5
24C76
330
24D3B
100
AcDbEntity
  8
KISO
100
AcDbLine
 10
6313.479465620389
 20
1524.307412600588
 30
0.0
 11
6313.479465620389
 21
2324.307412600588
 31
0.0
  0
LINE
  5
24C77
330
24D3B
100
AcDbEntity
  8
KISO
100
AcDbLine
 10
6313.479465620389
 20
2324.307412600588
 30
0.0
 11
5313.479465620389
 21
2324.307412600588
 31
0.0
  0
LINE
  5
24C78
330
24D3B
100
AcDbEntity
  8
KISO
100
AcDbLine
 10
5313.479465620389
 20
2324.307412600588
 30
0.0
 11
5313.479465620389
 21
1524.307412600588
 31
0.0
  0
LINE
  5
24C79
330
24D3B
100
AcDbEntity
  8
KISO-3
100
AcDbLine
 10
10636.04041027749
 20
7138.464770760363
 30
0.0
 11
10636.04041027749
 21
6658.464770760365
 31
0.0
  0
LINE
  5
24C7A
330
24D3B
100
AcDbEntity
  8
KISO-3
100
AcDbLine
 10
10636.04041027749
 20
6658.464770760365
 30
0.0
 11
10156.0404102775
 21
6658.464770760365
 31
0.0
  0
LINE
  5
24C7B
330
24D3B
100
AcDbEntity
  8
KISO-3
100
AcDbLine
 10
10156.0404102775
 20
6658.464770760365
 30
0.0
 11
10156.0404102775
 21
7138.464770760363
 31
0.0
  0
LINE
  5
24C7C
330
24D3B
100
AcDbEntity
  8
KISO-2
100
AcDbLine
 10
10256.0404102775
 20
6758.464770760365
 30
0.0
 11
10536.0404102775
 21
6758.464770760365
 31
0.0
  0
LINE
  5
24C7D
330
24D3B
100
AcDbEntity
  8
KISO-2
100
AcDbLine
 10
10536.0404102775
 20
6758.464770760365
 30
0.0
 11
10536.0404102775
 21
7038.464770760363
 31
0.0
  0
LINE
  5
24C7E
330
24D3B
100
AcDbEntity
  8
KISO-2
100
AcDbLine
 10
10536.0404102775
 20
7038.464770760363
 30
0.0
 11
10256.0404102775
 21
7038.464770760363
 31
0.0
  0
LINE
  5
24C7F
330
24D3B
100
AcDbEntity
  8
KISO-2
100
AcDbLine
 10
10256.0404102775
 20
7038.464770760363
 30
0.0
 11
10256.0404102775
 21
6758.464770760365
 31
0.0
  0
LINE
  5
24C80
330
24D3B
100
AcDbEntity
  8
KISO-1
100
AcDbLine
 10
7996.040410277514
 20
6198.464770760363
 30
0.0
 11
7196.040410277515
 21
6198.464770760363
 31
0.0
  0
LINE
  5
24C81
330
24D3B
100
AcDbEntity
  8
KISO-1
100
AcDbLine
 10
7196.040410277515
 20
6198.464770760363
 30
0.0
 11
7196.040410277515
 21
7198.464770760367
 31
0.0
  0
LINE
  5
24C82
330
24D3B
100
AcDbEntity
  8
KISO-1
100
AcDbLine
 10
7196.040410277515
 20
7198.464770760367
 30
0.0
 11
7996.040410277514
 21
7198.464770760367
 31
0.0
  0
LINE
  5
24C83
330
24D3B
100
AcDbEntity
  8
KISO-1
100
AcDbLine
 10
7996.040410277514
 20
7198.464770760367
 30
0.0
 11
7996.040410277514
 21
6198.464770760363
 31
0.0
  0
LINE
  5
24C84
330
24D3B
100
AcDbEntity
  8
KISO-3
100
AcDbLine
 10
7836.040410277513
 20
7138.464770760363
 30
0.0
 11
7836.040410277513
 21
6658.464770760365
 31
0.0
  0
LINE
  5
24C85
330
24D3B
100
AcDbEntity
  8
KISO-3
100
AcDbLine
 10
7836.040410277513
 20
6658.464770760365
 30
0.0
 11
7356.040410277514
 21
6658.464770760365
 31
0.0
  0
LINE
  5
24C86
330
24D3B
100
AcDbEntity
  8
KISO-3
100
AcDbLine
 10
7356.040410277514
 20
6658.464770760365
 30
0.0
 11
7356.040410277514
 21
7138.464770760363
 31
0.0
  0
LINE
  5
24C87
330
24D3B
100
AcDbEntity
  8
KISO-2
100
AcDbLine
 10
7456.040410277513
 20
6758.464770760365
 30
0.0
 11
7736.040410277514
 21
6758.464770760365
 31
0.0
  0
LINE
  5
24C88
330
24D3B
100
AcDbEntity
  8
KISO-2
100
AcDbLine
 10
7736.040410277514
 20
6758.464770760365
 30
0.0
 11
7736.040410277514
 21
7038.464770760363
 31
0.0
  0
LINE
  5
24C89
330
24D3B
100
AcDbEntity
  8
KISO-2
100
AcDbLine
 10
7736.040410277514
 20
7038.464770760363
 30
0.0
 11
7456.040410277513
 21
7038.464770760363
 31
0.0
  0
LINE
  5
24C8A
330
24D3B
100
AcDbEntity
  8
KISO-2
100
AcDbLine
 10
7456.040410277513
 20
7038.464770760363
 30
0.0
 11
7456.040410277513
 21
6758.464770760365
 31
0.0
  0
LINE
  5
24C8B
330
24D3B
100
AcDbEntity
  8
KISO-2
100
AcDbLine
 10
4656.040410277514
 20
6758.464770760365
 30
0.0
 11
4936.040410277513
 21
6758.464770760365
 31
0.0
  0
LINE
  5
24C8C
330
24D3B
100
AcDbEntity
  8
KISO-2
100
AcDbLine
 10
4936.040410277513
 20
6758.464770760365
 30
0.0
 11
4936.040410277513
 21
7038.464770760363
 31
0.0
  0
LINE
  5
24C8D
330
24D3B
100
AcDbEntity
  8
KISO-2
100
AcDbLine
 10
4936.040410277513
 20
7038.464770760363
 30
0.0
 11
4656.040410277514
 21
7038.464770760363
 31
0.0
  0
LINE
  5
24C8E
330
24D3B
100
AcDbEntity
  8
KISO-2
100
AcDbLine
 10
4656.040410277514
 20
7038.464770760363
 30
0.0
 11
4656.040410277514
 21
6758.464770760365
 31
0.0
  0
LINE
  5
24C8F
330
24D3B
100
AcDbEntity
  8
KISO-3
100
AcDbLine
 10
5036.040410277514
 20
7138.464770760363
 30
0.0
 11
5036.040410277514
 21
6658.464770760365
 31
0.0
  0
LINE
  5
24C90
330
24D3B
100
AcDbEntity
  8
KISO-3
100
AcDbLine
 10
5036.040410277514
 20
6658.464770760365
 30
0.0
 11
4556.040410277513
 21
6658.464770760365
 31
0.0
  0
LINE
  5
24C91
330
24D3B
100
AcDbEntity
  8
KISO-3
100
AcDbLine
 10
4556.040410277513
 20
6658.464770760365
 30
0.0
 11
4556.040410277513
 21
7138.464770760363
 31
0.0
  0
LINE
  5
24C92
330
24D3B
100
AcDbEntity
  8
KISO-1
100
AcDbLine
 10
5196.040410277514
 20
6198.464770760363
 30
0.0
 11
4396.040410277506
 21
6198.464770760363
 31
0.0
  0
LINE
  5
24C93
330
24D3B
100
AcDbEntity
  8
KISO-1
100
AcDbLine
 10
4396.040410277506
 20
6198.464770760363
 30
0.0
 11
4396.040410277506
 21
7198.464770760367
 31
0.0
  0
LINE
  5
24C94
330
24D3B
100
AcDbEntity
  8
KISO-1
100
AcDbLine
 10
4396.040410277506
 20
7198.464770760367
 30
0.0
 11
5196.040410277514
 21
7198.464770760367
 31
0.0
  0
LINE
  5
24C95
330
24D3B
100
AcDbEntity
  8
KISO-1
100
AcDbLine
 10
5196.040410277514
 20
7198.464770760367
 30
0.0
 11
5196.040410277514
 21
6198.464770760363
 31
0.0
  0
LINE
  5
24C96
330
24D3B
100
AcDbEntity
  8
KISO-2
100
AcDbLine
 10
2136.040410277507
 20
6758.464770760365
 30
0.0
 11
1856.040410277506
 21
6758.464770760365
 31
0.0
  0
LINE
  5
24C97
330
24D3B
100
AcDbEntity
  8
KISO-2
100
AcDbLine
 10
1856.040410277506
 20
6758.464770760365
 30
0.0
 11
1856.040410277506
 21
7038.464770760363
 31
0.0
  0
LINE
  5
24C98
330
24D3B
100
AcDbEntity
  8
KISO-2
100
AcDbLine
 10
1856.040410277506
 20
7038.464770760363
 30
0.0
 11
2136.040410277507
 21
7038.464770760363
 31
0.0
  0
LINE
  5
24C99
330
24D3B
100
AcDbEntity
  8
KISO-2
100
AcDbLine
 10
2136.040410277507
 20
7038.464770760363
 30
0.0
 11
2136.040410277507
 21
6758.464770760365
 31
0.0
  0
LINE
  5
24C9A
330
24D3B
100
AcDbEntity
  8
DOMAKON
100
AcDbLine
 10
1596.040410277506
 20
7138.464770760363
 30
0.0
 11
6136.040410277513
 21
7138.464770760363
 31
0.0
  0
LINE
  5
24C9B
330
24D3B
100
AcDbEntity
  8
DOMAKON
100
AcDbLine
 10
6136.040410277513
 20
4898.464770760362
 30
0.0
 11
1596.040410277506
 21
4898.464770760362
 31
0.0
  0
LINE
  5
24C9C
330
24D3B
100
AcDbEntity
  8
DOMAKON
100
AcDbLine
 10
1596.040410277506
 20
4898.464770760362
 30
0.0
 11
1596.040410277506
 21
7138.464770760363
 31
0.0
  0
LINE
  5
24C9D
330
24D3B
100
AcDbEntity
  8
KISO-3
100
AcDbLine
 10
1756.040410277505
 20
7138.464770760363
 30
0.0
 11
1756.040410277505
 21
6658.464770760365
 31
0.0
  0
LINE
  5
24C9E
330
24D3B
100
AcDbEntity
  8
KISO-3
100
AcDbLine
 10
1756.040410277505
 20
6658.464770760365
 30
0.0
 11
2236.040410277507
 21
6658.464770760365
 31
0.0
  0
LINE
  5
24C9F
330
24D3B
100
AcDbEntity
  8
KISO-3
100
AcDbLine
 10
2236.040410277507
 20
6658.464770760365
 30
0.0
 11
2236.040410277507
 21
7138.464770760363
 31
0.0
  0
LINE
  5
24CA0
330
24D3B
100
AcDbEntity
  8
TENSEN-1
100
AcDbLine
 10
2517.806080631061
 20
1675.744622954002
 30
0.0
 11
2487.80608063106
 21
1675.744622954004
 31
0.0
  0
LINE
  5
24CA1
330
24D3B
100
AcDbEntity
  8
TENSEN-1
100
AcDbLine
 10
2487.80608063106
 20
1675.744622954004
 30
0.0
 11
2487.80608063106
 21
2082.744622954003
 31
0.0
  0
LINE
  5
24CA2
330
24D3B
100
AcDbEntity
  8
TENSEN-1
100
AcDbLine
 10
2487.80608063106
 20
2082.744622954003
 30
0.0
 11
2474.806080631061
 21
2082.744622954002
 31
0.0
  0
LINE
  5
24CA3
330
24D3B
100
AcDbEntity
  8
TENSEN-1
100
AcDbLine
 10
2474.806080631061
 20
2082.744622954002
 30
0.0
 11
2474.806080631061
 21
1662.744622954002
 31
0.0
  0
LINE
  5
24CA4
330
24D3B
100
AcDbEntity
  8
TENSEN-1
100
AcDbLine
 10
2474.806080631061
 20
1662.744622954002
 30
0.0
 11
2517.806080631061
 21
1662.744622954004
 31
0.0
  0
LINE
  5
24CA5
330
24D3B
100
AcDbEntity
  8
TENSEN-1
100
AcDbLine
 10
2517.806080631061
 20
1662.744622954004
 30
0.0
 11
2517.806080631061
 21
1675.744622954002
 31
0.0
  0
LINE
  5
24CA6
330
24D3B
100
AcDbEntity
  8
HASIRA
100
AcDbLine
 10
2425.856080631056
 20
2062.744622954002
 30
0.0
 11
2425.856080631056
 21
2577.036476938623
 31
0.0
  0
LINE
  5
24CA7
330
24D3B
100
AcDbEntity
  8
TENSEN-1
100
AcDbLine
 10
2244.806080631061
 20
1675.744622954002
 30
0.0
 11
2274.80608063106
 21
1675.744622954002
 31
0.0
  0
LINE
  5
24CA8
330
24D3B
100
AcDbEntity
  8
TENSEN-1
100
AcDbLine
 10
2274.80608063106
 20
1675.744622954002
 30
0.0
 11
2274.80608063106
 21
2082.744622954002
 31
0.0
  0
LINE
  5
24CA9
330
24D3B
100
AcDbEntity
  8
TENSEN-1
100
AcDbLine
 10
2274.80608063106
 20
2082.744622954002
 30
0.0
 11
2287.80608063106
 21
2082.744622954002
 31
0.0
  0
LINE
  5
24CAA
330
24D3B
100
AcDbEntity
  8
TENSEN-1
100
AcDbLine
 10
2287.80608063106
 20
2082.744622954002
 30
0.0
 11
2287.80608063106
 21
1662.744622954002
 31
0.0
  0
LINE
  5
24CAB
330
24D3B
100
AcDbEntity
  8
TENSEN-1
100
AcDbLine
 10
2287.80608063106
 20
1662.744622954002
 30
0.0
 11
2244.806080631061
 21
1662.744622954004
 31
0.0
  0
LINE
  5
24CAC
330
24D3B
100
AcDbEntity
  8
TENSEN-1
100
AcDbLine
 10
2244.806080631061
 20
1662.744622954004
 30
0.0
 11
2244.806080631061
 21
1675.744622954002
 31
0.0
  0
LINE
  5
24CAD
330
24D3B
100
AcDbEntity
  8
HASIRA
100
AcDbLine
 10
2336.756080631058
 20
2062.744622954002
 30
0.0
 11
2336.756080631058
 21
2577.036476938623
 31
0.0
  0
LINE
  5
24CAE
330
24D3B
100
AcDbEntity
  8
KISO
100
AcDbLine
 10
2241.30608063106
 20
2050.744622954002
 30
0.0
 11
2521.30608063106
 21
2050.744622954003
 31
0.0
  0
LINE
  5
24CAF
330
24D3B
100
AcDbEntity
  8
KISO
100
AcDbLine
 10
2521.30608063106
 20
2050.744622954003
 30
0.0
 11
2521.30608063106
 21
2062.744622954002
 31
0.0
  0
LINE
  5
24CB0
330
24D3B
100
AcDbEntity
  8
KISO
100
AcDbLine
 10
2521.30608063106
 20
2062.744622954002
 30
0.0
 11
2241.30608063106
 21
2062.744622954002
 31
0.0
  0
LINE
  5
24CB1
330
24D3B
100
AcDbEntity
  8
KISO
100
AcDbLine
 10
2241.30608063106
 20
2062.744622954002
 30
0.0
 11
2241.30608063106
 21
2050.744622954002
 31
0.0
  0
LINE
  5
24CB2
330
24D3B
100
AcDbEntity
  8
1PL-M1
100
AcDbLine
 10
2381.30608063106
 20
1035.744622954002
 30
0.0
 11
2381.30608063106
 21
2577.036476938623
 31
0.0
  0
LINE
  5
24CB3
330
24D3B
100
AcDbEntity
  8
DOMAKON
100
AcDbLine
 10
6256.040410277513
 20
7138.464770760363
 30
0.0
 11
10796.04041027749
 21
7138.464770760363
 31
0.0
  0
LINE
  5
24CB4
330
24D3B
100
AcDbEntity
  8
DOMAKON
100
AcDbLine
 10
10796.04041027749
 20
7138.464770760363
 30
0.0
 11
10796.04041027749
 21
4898.464770760362
 31
0.0
  0
LINE
  5
24CB5
330
24D3B
100
AcDbEntity
  8
DOMAKON
100
AcDbLine
 10
10796.04041027749
 20
4898.464770760362
 30
0.0
 11
6256.040410277513
 21
4898.464770760362
 31
0.0
  0
LINE
  5
24CB6
330
24D3B
100
AcDbEntity
  8
YANE
100
AcDbLine
 10
10617.84106332874
 20
5024.915498379021
 30
0.0
 11
1774.239757226269
 21
5024.915498379021
 31
0.0
  0
LINE
  5
24CB7
330
24D3B
100
AcDbEntity
  8
YANE
100
AcDbLine
 10
1774.239757226269
 20
5024.915498379021
 30
0.0
 11
1774.239757226269
 21
7013.014770760361
 31
0.0
  0
LINE
  5
24CB8
330
24D3B
100
AcDbEntity
  8
YANE
100
AcDbLine
 10
1774.239757226269
 20
7013.014770760361
 30
0.0
 11
10617.84106332874
 21
7013.014770760361
 31
0.0
  0
LINE
  5
24CB9
330
24D3B
100
AcDbEntity
  8
YANE
100
AcDbLine
 10
10617.84106332874
 20
7013.014770760361
 30
0.0
 11
10617.84106332874
 21
5024.915498379021
 31
0.0
  0
TEXT
  5
24DBA
330
24D3B
100
AcDbEntity
  8
SUNPOU
100
AcDbText
 10
7883.601514506482
 20
2759.521361492601
 30
0.0
 40
89.9993750043402
  1
地耐力   　　　 以上,コンクリート設計基準強度　　　　　以上
  7
01
100
AcDbText
  0
TEXT
  5
24DBB
330
24D3B
100
AcDbEntity
  8
SUNPOU
100
AcDbText
 10
8258.557259595871
 20
1763.09279006403
 30
0.0
 40
90.0
  1
地域によっては、フックをつける様指導している
  7
01
100
AcDbText
  0
TEXT
  5
24DBC
330
24D3B
100
AcDbEntity
  8
SUNPOU
100
AcDbText
 10
8258.557259595871
 20
2380.235647206889
 30
0.0
 40
90.0
  1
寒冷地の場合、凍結深度等を考慮し、実情に
  7
01
100
AcDbText
  0
TEXT
  5
24DBD
330
24D3B
100
AcDbEntity
  8
SUNPOU
100
AcDbText
 10
8258.557259595871
 20
2071.664218635459
 30
0.0
 40
90.0
  1
その他現地の実情にあわせて設計して下さい。
  7
01
100
AcDbText
  0
TEXT
  5
24DBE
330
24D3B
100
AcDbEntity
  8
SUNPOU
100
AcDbText
 10
8258.557259595871
 20
1917.378504349744
 30
0.0
 40
90.0
  1
異形鉄筋の場合、原則としてフックは不要ですが、
  7
01
100
AcDbText
  0
TEXT
  5
24DBF
330
24D3B
100
AcDbEntity
  8
SUNPOU
100
AcDbText
 10
8258.557259595871
 20
1608.807075778316
 30
0.0
 40
90.0
  1
所もありますので、ご注意願います。
  7
01
100
AcDbText
  0
TEXT
  5
24DC0
330
24D3B
100
AcDbEntity
  8
SUNPOU
100
AcDbText
 10
7941.717594293752
 20
2071.664218635459
 30
0.0
 40
90.0
  1
注　）
  7
01
100
AcDbText
  0
TEXT
  5
24DC1
330
24D3B
100
AcDbEntity
  8
SUNPOU
100
AcDbText
 10
7941.717594293752
 20
1917.378504349744
 30
0.0
 40
90.0
  1
注　）
  7
01
100
AcDbText
  0
TEXT
  5
24DC2
330
24D3B
100
AcDbEntity
  8
SUNPOU
100
AcDbText
 10
7941.717594293752
 20
2380.235647206889
 30
0.0
 40
90.0
  1
注　）
  7
01
100
AcDbText
  0
TEXT
  5
24DC3
330
24D3B
100
AcDbEntity
  8
SUNPOU
100
AcDbText
 10
7878.395028647389
 20
3106.275363938558
 30
0.0
 40
120.0
  1
基礎断面図
  7
01
 72
     4
 11
8218.395028647391
 21
3166.275363938558
 31
0.0
100
AcDbText
  0
TEXT
  5
24DC4
330
24D3B
100
AcDbEntity
  8
SUNPOU
100
AcDbText
 10
7753.037885790248
 20
2948.775363938556
 30
0.0
 40
90.0
  1
<下記条件での参考図>
  7
01
 72
     4
 11
8341.895028647391
 21
2993.775363938556
 31
0.0
100
AcDbText
  0
TEXT
  5
24DC5
330
24D3B
100
AcDbEntity
  8
SUNPOU
100
AcDbText
 10
7883.601514506482
 20
2605.235647206889
 30
0.0
 40
89.9993750043402
  1
基準風速   　　 , 地表面粗度区分
  7
01
100
AcDbText
  0
TEXT
  5
24DC6
330
24D3B
100
AcDbEntity
  8
SUNPOU
100
AcDbText
 10
8052.351514506481
 20
1917.378504349744
 30
0.0
 40
90.0
  1
3
 41
0.6700000000000001
  7
01
100
AcDbText
  0
TEXT
  5
24DC7
330
24D3B
100
AcDbEntity
  8
SUNPOU
100
AcDbText
 10
8052.351514506481
 20
2071.664218635459
 30
0.0
 40
90.0
  1
2
 41
0.6700000000000001
  7
01
100
AcDbText
  0
ARC
  5
24DC8
330
24D3B
100
AcDbEntity
  8
SUNPOU
100
AcDbCircle
 10
8036.559788413681
 20
2723.308784934433
 30
0.0
 40
225.0
100
AcDbArc
 50
148.3472725282761
 51
211.6527274717238
  0
TEXT
  5
24DC9
330
24D3B
100
AcDbEntity
  8
SUNPOU
100
AcDbText
 10
8052.351514506481
 20
2380.235647206889
 30
0.0
 40
90.0
  1
1
 41
0.6700000000000001
  7
01
100
AcDbText
  0
TEXT
  5
24DCA
330
24D3B
100
AcDbEntity
  8
SUNPOU
100
AcDbText
 10
8258.557259595871
 20
2225.949932921174
 30
0.0
 40
90.0
  1
あわせて設計して下さい。
  7
01
100
AcDbText
  0
TEXT
  5
24DCB
330
24D3B
100
AcDbEntity
  8
SUNPOU
100
AcDbText
 10
8257.859921931551
 20
2759.521361492601
 30
0.0
 40
89.9993750043402
  1
50  N/m
 41
0.6700000000000001
  7
01
100
AcDbText
  0
TEXT
  5
24DCC
330
24D3B
100
AcDbEntity
  8
SUNPOU
100
AcDbText
 10
8367.36494317164
 20
2605.235647206889
 30
0.0
 40
89.9993750043402
  1
34 m/s
 41
0.6700000000000001
  7
01
100
AcDbText
  0
TEXT
  5
24DCD
330
24D3B
100
AcDbEntity
  8
SUNPOU
100
AcDbText
 10
8393.696374717501
 20
2759.521361492601
 30
0.0
 40
71.99950000347218
  1
K
 41
0.6700000000000001
  7
01
100
AcDbText
  0
TEXT
  5
24DCE
330
24D3B
100
AcDbEntity
  8
SUNPOU
100
AcDbText
 10
8661.336531445902
 20
2809.709787850087
 30
0.0
 40
46.28539285937498
  1
2
 41
0.6700000000000001
  7
00
100
AcDbText
  0
LINE
  5
24DCF
330
24D3B
100
AcDbEntity
  8
SUNPOU
100
AcDbLine
 10
9686.667076073081
 20
2605.235647206889
 30
0.0
 11
9686.667076073081
 21
2688.728010905669
 31
0.0
  0
LINE
  5
24DD0
330
24D3B
100
AcDbEntity
  8
SUNPOU
100
AcDbLine
 10
9703.54207607308
 20
2605.235647206889
 30
0.0
 11
9703.54207607308
 21
2688.728010905669
 31
0.0
  0
LINE
  5
24DD1
330
24D3B
100
AcDbEntity
  8
SUNPOU
100
AcDbLine
 10
9720.417076073079
 20
2605.235647206889
 30
0.0
 11
9720.417076073079
 21
2688.728010905669
 31
0.0
  0
LINE
  5
24DD2
330
24D3B
100
AcDbEntity
  8
SUNPOU
100
AcDbLine
 10
9675.417076073081
 20
2605.235647206887
 30
0.0
 11
9731.667076073081
 21
2605.235647206887
 31
0.0
  0
LINE
  5
24DD3
330
24D3B
100
AcDbEntity
  8
SUNPOU
100
AcDbLine
 10
9675.417076073081
 20
2688.728010905669
 30
0.0
 11
9731.667076073081
 21
2688.728010905669
 31
0.0
  0
TEXT
  5
24DD4
330
24D3B
100
AcDbEntity
  8
SUNPOU
100
AcDbText
 10
8595.24536601036
 20
3118.58305624625
 30
0.0
 40
92.30769230769228
  1
（ S = 　　  ）
 41
0.6700000000000001
  7
00
 11
8595.24536601036
 21
3106.275363938558
 31
0.0
100
AcDbText
 73
     1
  0
TEXT
  5
24DD5
330
24D3B
100
AcDbEntity
  8
SUNPOU
100
AcDbText
 10
8914.948067863432
 20
3134.583056246249
 30
0.0
 40
73.84615384615384
  1
1
 41
0.6700000000000001
  7
00
 11
8914.948067863432
 21
3124.736902400096
 31
0.0
100
AcDbText
 73
     1
  0
TEXT
  5
24DD6
330
24D3B
100
AcDbEntity
  8
SUNPOU
100
AcDbText
 10
8963.354195178801
 20
3116.121517784711
 30
0.0
 40
73.84615384615384
  1
/
 41
0.6700000000000001
  7
00
 11
8963.354195178801
 21
3106.275363938558
 31
0.0
100
AcDbText
 73
     1
  0
TEXT
  5
24DD7
330
24D3B
100
AcDbEntity
  8
SUNPOU
100
AcDbText
 10
9027.303638133181
 20
3097.659979323172
 30
0.0
 40
73.84615384615384
  1
30
 41
0.6700000000000001
  7
00
 11
9027.303638133181
 21
3087.813825477018
 31
0.0
100
AcDbText
 73
     1
  0
ARC
  5
24DD8
330
24D3B
100
AcDbEntity
  8
SUNPOU
100
AcDbCircle
 10
10891.79019214415
 20
2723.308784934433
 30
0.0
 40
225.0
100
AcDbArc
 50
328.3472725282761
 51
31.65272747172387
  0
TEXT
  5
24DD9
330
24D3B
100
AcDbEntity
  8
SUNPOU
100
AcDbText
 10
10438.44844557913
 20
2759.521361492601
 30
0.0
 40
89.9993750043402
  1
N/mm
 41
0.6700000000000001
  7
01
100
AcDbText
  0
TEXT
  5
24DDA
330
24D3B
100
AcDbEntity
  8
SUNPOU
100
AcDbText
 10
10302.61199279318
 20
2759.521361492601
 30
0.0
 40
89.9993750043402
  1
18
 41
0.6700000000000001
  7
01
100
AcDbText
  0
TEXT
  5
24DDB
330
24D3B
100
AcDbEntity
  8
SUNPOU
100
AcDbText
 10
10742.91292761053
 20
2809.709787850087
 30
0.0
 40
46.28539285937498
  1
2
 41
0.6700000000000001
  7
00
100
AcDbText
  0
ENDSEC
  0
SECTION
  2
OBJECTS
  0
DICTIONARY
  5
24D2B
330
0
100
AcDbDictionary
281
     1
  3
ACAD_GROUP
350
24D2C
  3
ACAD_LAYOUT
350
24D38
  3
ACAD_MLEADERSTYLE
350
24D8D
  3
ACAD_MLINESTYLE
350
24D35
  3
ACAD_PLOTSETTINGS
350
24D37
  3
ACAD_PLOTSTYLENAME
350
24D2D
  3
ACAD_TABLESTYLE
350
24D8C
  3
AcDbVariableDictionary
350
24DDC
  0
DICTIONARY
  5
24D2C
102
{ACAD_REACTORS
330
24D2B
102
}
330
24D2B
100
AcDbDictionary
281
     1
  0
DICTIONARY
  5
24D38
102
{ACAD_REACTORS
330
24D2B
102
}
330
24D2B
100
AcDbDictionary
281
     1
  3
Layout1
350
24D3A
  3
Model
350
24D3C
  0
DICTIONARY
  5
24D8D
102
{ACAD_REACTORS
330
24D2B
102
}
330
24D2B
100
AcDbDictionary
281
     1
  0
DICTIONARY
  5
24D35
102
{ACAD_REACTORS
330
24D2B
102
}
330
24D2B
100
AcDbDictionary
281
     1
  3
Standard
350
24D36
  0
DICTIONARY
  5
24D37
102
{ACAD_REACTORS
330
24D2B
102
}
330
24D2B
100
AcDbDictionary
281
     1
  0
ACDBDICTIONARYWDFLT
  5
24D2D
102
{ACAD_REACTORS
330
24D2B
102
}
330
24D2B
100
AcDbDictionary
281
     1
  3
Normal
350
24D2E
100
AcDbDictionaryWithDefault
340
24D2E
  0
DICTIONARY
  5
24D8C
102
{ACAD_REACTORS
330
24D2B
102
}
330
24D2B
100
AcDbDictionary
281
     1
  0
DICTIONARY
  5
24DDC
102
{ACAD_REACTORS
330
24D2B
102
}
330
24D2B
100
AcDbDictionary
281
     1
  3
DIMASSOC
350
24DDD
  0
LAYOUT
  5
24D3A
102
{ACAD_REACTORS
330
24D38
102
}
330
24D38
100
AcDbPlotSettings
  1

  2
none_device
  4

  6

 40
0.0
 41
0.0
 42
0.0
 43
0.0
 44
0.0
 45
0.0
 46
0.0
 47
0.0
 48
0.0
 49
0.0
140
0.0
141
0.0
142
1.0
143
1.0
 70
   688
 72
     0
 73
     0
 74
     5
  7

 75
    16
147
1.0
148
0.0
149
0.0
100
AcDbLayout
  1
Layout1
 70
     0
 71
     1
 10
0.0
 20
0.0
 11
12.0
 21
9.0
 12
0.0
 22
0.0
 32
0.0
 14
1.000000000000000E+20
 24
1.000000000000000E+20
 34
1.000000000000000E+20
 15
-1.000000000000000E+20
 25
-1.000000000000000E+20
 35
-1.000000000000000E+20
146
0.0
 13
0.0
 23
0.0
 33
0.0
 16
1.0
 26
0.0
 36
0.0
 17
0.0
 27
1.0
 37
0.0
 76
     0
330
24D39
  0
LAYOUT
  5
24D3C
102
{ACAD_REACTORS
330
24D38
102
}
330
24D38
100
AcDbPlotSettings
  1

  2
none_device
  4

  6

 40
0.0
 41
0.0
 42
0.0
 43
0.0
 44
0.0
 45
0.0
 46
0.0
 47
0.0
 48
0.0
 49
0.0
140
0.0
141
0.0
142
1.0
143
1.0
 70
  1712
 72
     0
 73
     0
 74
     0
  7

 75
     0
147
1.0
148
0.0
149
0.0
100
AcDbLayout
  1
Model
 70
     1
 71
     0
 10
0.0
 20
0.0
 11
12.0
 21
9.0
 12
267.0
 22
194.8999999999998
 32
0.0
 14
325.4974662390304
 24
122.76811781196
 34
-0.0000000000000053
 15
12286.99954069103
 25
8431.707478684499
 35
0.0000000000000099
146
0.0
 13
0.0
 23
0.0
 33
0.0
 16
1.0
 26
0.0
 36
0.0
 17
0.0
 27
1.0
 37
0.0
 76
     0
330
24D3B
331
24D3E
  0
MLINESTYLE
  5
24D36
102
{ACAD_REACTORS
330
24D35
102
}
330
24D35
100
AcDbMlineStyle
  2
STANDARD
 70
     0
  3

 62
   256
 51
90.0
 52
90.0
 71
     2
 49
0.5
 62
   256
  6
BYLAYER
 49
-0.5
 62
   256
  6
BYLAYER
  0
ACDBPLACEHOLDER
  5
24D2E
102
{ACAD_REACTORS
330
24D2D
102
}
330
24D2D
  0
DICTIONARYVAR
  5
24DDD
102
{ACAD_REACTORS
330
24DDC
102
}
330
24DDC
100
DictionaryVariables
280
     0
  1
1
  0
ENDSEC
  0
EOF
