  0
SECTION
  2
HEADER
  9
$ACADVER
  1
AC1015
  9
$ACADMAINTVER
 70
    13
  9
$DWGCODEPAGE
  3
ANSI_932
  9
$INSBASE
 10
267.0
 20
194.8999999999998
 30
0.0
  9
$EXTMIN
 10
433.9966216520333
 20
163.6908237492789
 30
-0.000000000000013
  9
$EXTMAX
 10
16382.6660542547
 20
11242.27663824599
 30
0.0000000000000023
  9
$LIMMIN
 10
0.0
 20
0.0
  9
$LIMMAX
 10
16800.0
 20
11880.0
  9
$ORTHOMODE
 70
     0
  9
$REGENMODE
 70
     1
  9
$FILLMODE
 70
     1
  9
$QTEXTMODE
 70
     0
  9
$MIRRTEXT
 70
     0
  9
$LTSCALE
 40
40.0
  9
$ATTMODE
 70
     1
  9
$TEXTSIZE
 40
0.2
  9
$TRACEWID
 40
0.05
  9
$TEXTSTYLE
  7
00
  9
$CLAYER
  8
SUNPOU
  9
$CELTYPE
  6
ByLayer
  9
$CECOLOR
 62
   256
  9
$CELTSCALE
 40
1.0
  9
$DISPSILH
 70
     0
  9
$DIMSCALE
 40
40.0
  9
$DIMASZ
 40
0.5
  9
$DIMEXO
 40
1.0
  9
$DIMDLI
 40
7.0
  9
$DIMRND
 40
0.0
  9
$DIMDLE
 40
3.0
  9
$DIMEXE
 40
1.125
  9
$DIMTP
 40
0.0
  9
$DIMTM
 40
0.0
  9
$DIMTXT
 40
2.25
  9
$DIMCEN
 40
0.0
  9
$DIMTSZ
 40
0.0
  9
$DIMTOL
 70
     0
  9
$DIMLIM
 70
     0
  9
$DIMTIH
 70
     0
  9
$DIMTOH
 70
     0
  9
$DIMSE1
 70
     0
  9
$DIMSE2
 70
     0
  9
$DIMTAD
 70
     1
  9
$DIMZIN
 70
     8
  9
$DIMBLK
  1
DOT
  9
$DIMASO
 70
     1
  9
$DIMSHO
 70
     0
  9
$DIMPOST
  1

  9
$DIMAPOST
  1

  9
$DIMALT
 70
     0
  9
$DIMALTD
 70
     2
  9
$DIMALTF
 40
25.4
  9
$DIMLFAC
 40
0.625
  9
$DIMTOFL
 70
     1
  9
$DIMTVP
 40
0.0
  9
$DIMTIX
 70
     0
  9
$DIMSOXD
 70
     0
  9
$DIMSAH
 70
     1
  9
$DIMBLK1
  1
DOT
  9
$DIMBLK2
  1
DOT
  9
$DIMSTYLE
  2
SUNPOU_図面名
  9
$DIMCLRD
 70
   256
  9
$DIMCLRE
 70
   256
  9
$DIMCLRT
 70
   256
  9
$DIMTFAC
 40
1.0
  9
$DIMGAP
 40
1.125
  9
$DIMJUST
 70
     0
  9
$DIMSD1
 70
     0
  9
$DIMSD2
 70
     0
  9
$DIMTOLJ
 70
     1
  9
$DIMTZIN
 70
     0
  9
$DIMALTZ
 70
     0
  9
$DIMALTTZ
 70
     0
  9
$DIMUPT
 70
     0
  9
$DIMDEC
 70
     2
  9
$DIMTDEC
 70
     2
  9
$DIMALTU
 70
     2
  9
$DIMALTTD
 70
     2
  9
$DIMTXSTY
  7
STANDARD
  9
$DIMAUNIT
 70
     0
  9
$DIMADEC
 70
     0
  9
$DIMALTRND
 40
0.0
  9
$DIMAZIN
 70
     0
  9
$DIMDSEP
 70
    46
  9
$DIMATFIT
 70
     3
  9
$DIMFRAC
 70
     0
  9
$DIMLDRBLK
  1

  9
$DIMLUNIT
 70
     2
  9
$DIMLWD
 70
    -2
  9
$DIMLWE
 70
    -2
  9
$DIMTMOVE
 70
     2
  9
$LUNITS
 70
     2
  9
$LUPREC
 70
     2
  9
$SKETCHINC
 40
0.1
  9
$FILLETRAD
 40
0.0
  9
$AUNITS
 70
     0
  9
$AUPREC
 70
     0
  9
$MENU
  1
A:\TIGER\MENU\TIGER
  9
$ELEVATION
 40
0.0
  9
$PELEVATION
 40
0.0
  9
$THICKNESS
 40
0.0
  9
$LIMCHECK
 70
     0
  9
$CHAMFERA
 40
0.0
  9
$CHAMFERB
 40
0.0
  9
$CHAMFERC
 40
1.0
  9
$CHAMFERD
 40
0.0
  9
$SKPOLY
 70
     0
  9
$TDCREATE
 40
2450266.571064815
  9
$TDUCREATE
 40
2450266.196064815
  9
$TDUPDATE
 40
2456331.312717731
  9
$TDUUPDATE
 40
2456330.937717731
  9
$TDINDWG
 40
0.1566835301
  9
$TDUSRTIMER
 40
0.1566833449
  9
$USRTIMER
 70
     1
  9
$ANGBASE
 50
0.0
  9
$ANGDIR
 70
     0
  9
$PDMODE
 70
     0
  9
$PDSIZE
 40
0.0
  9
$PLINEWID
 40
0.0
  9
$SPLFRAME
 70
     0
  9
$SPLINETYPE
 70
     6
  9
$SPLINESEGS
 70
     8
  9
$HANDSEED
  5
16858
  9
$SURFTAB1
 70
     6
  9
$SURFTAB2
 70
     6
  9
$SURFTYPE
 70
     6
  9
$SURFU
 70
     6
  9
$SURFV
 70
     6
  9
$UCSBASE
  2

  9
$UCSNAME
  2

  9
$UCSORG
 10
0.0
 20
0.0
 30
0.0
  9
$UCSXDIR
 10
1.0
 20
0.0
 30
0.0
  9
$UCSYDIR
 10
0.0
 20
1.0
 30
0.0
  9
$UCSORTHOREF
  2

  9
$UCSORTHOVIEW
 70
     0
  9
$UCSORGTOP
 10
0.0
 20
0.0
 30
0.0
  9
$UCSORGBOTTOM
 10
0.0
 20
0.0
 30
0.0
  9
$UCSORGLEFT
 10
0.0
 20
0.0
 30
0.0
  9
$UCSORGRIGHT
 10
0.0
 20
0.0
 30
0.0
  9
$UCSORGFRONT
 10
0.0
 20
0.0
 30
0.0
  9
$UCSORGBACK
 10
0.0
 20
0.0
 30
0.0
  9
$PUCSBASE
  2

  9
$PUCSNAME
  2

  9
$PUCSORG
 10
0.0
 20
0.0
 30
0.0
  9
$PUCSXDIR
 10
1.0
 20
0.0
 30
0.0
  9
$PUCSYDIR
 10
0.0
 20
1.0
 30
0.0
  9
$PUCSORTHOREF
  2

  9
$PUCSORTHOVIEW
 70
     0
  9
$PUCSORGTOP
 10
0.0
 20
0.0
 30
0.0
  9
$PUCSORGBOTTOM
 10
0.0
 20
0.0
 30
0.0
  9
$PUCSORGLEFT
 10
0.0
 20
0.0
 30
0.0
  9
$PUCSORGRIGHT
 10
0.0
 20
0.0
 30
0.0
  9
$PUCSORGFRONT
 10
0.0
 20
0.0
 30
0.0
  9
$PUCSORGBACK
 10
0.0
 20
0.0
 30
0.0
  9
$USERI1
 70
     3
  9
$USERI2
 70
     0
  9
$USERI3
 70
     0
  9
$USERI4
 70
     0
  9
$USERI5
 70
  1103
  9
$USERR1
 40
0.0
  9
$USERR2
 40
1.0
  9
$USERR3
 40
0.0
  9
$USERR4
 40
0.0
  9
$USERR5
 40
0.0
  9
$WORLDVIEW
 70
     1
  9
$SHADEDGE
 70
     3
  9
$SHADEDIF
 70
    70
  9
$TILEMODE
 70
     1
  9
$MAXACTVP
 70
    16
  9
$PINSBASE
 10
0.0
 20
0.0
 30
0.0
  9
$PLIMCHECK
 70
     0
  9
$PEXTMIN
 10
1.000000000000000E+20
 20
1.000000000000000E+20
 30
1.000000000000000E+20
  9
$PEXTMAX
 10
-1.000000000000000E+20
 20
-1.000000000000000E+20
 30
-1.000000000000000E+20
  9
$PLIMMIN
 10
0.0
 20
0.0
  9
$PLIMMAX
 10
12.0
 20
9.0
  9
$UNITMODE
 70
     0
  9
$VISRETAIN
 70
     0
  9
$PLINEGEN
 70
     1
  9
$PSLTSCALE
 70
     0
  9
$TREEDEPTH
 70
  3020
  9
$CMLSTYLE
  2
Standard
  9
$CMLJUST
 70
     0
  9
$CMLSCALE
 40
1.0
  9
$PROXYGRAPHICS
 70
     1
  9
$MEASUREMENT
 70
     0
  9
$CELWEIGHT
370
    -1
  9
$ENDCAPS
280
     0
  9
$JOINSTYLE
280
     0
  9
$LWDISPLAY
290
     0
  9
$INSUNITS
 70
     0
  9
$HYPERLINKBASE
  1

  9
$STYLESHEET
  1

  9
$XEDIT
290
     1
  9
$CEPSNTYPE
380
     0
  9
$PSTYLEMODE
290
     1
  9
$FINGERPRINTGUID
  2
{FED18794-E22A-4EA9-9855-C94C98E71FD9}
  9
$VERSIONGUID
  2
{4807742D-40EC-4918-958D-97BDBAB47F4A}
  9
$EXTNAMES
290
     1
  9
$PSVPSCALE
 40
0.0
  9
$OLESTARTUP
290
     0
  0
ENDSEC
  0
SECTION
  2
CLASSES
  0
CLASS
  1
ACDBDICTIONARYWDFLT
  2
AcDbDictionaryWithDefault
  3
AutoCAD 2000
 90
        0
280
     0
281
     0
  0
CLASS
  1
ACDBPLACEHOLDER
  2
AcDbPlaceHolder
  3
AutoCAD 2000
 90
        0
280
     0
281
     0
  0
CLASS
  1
LAYOUT
  2
AcDbLayout
  3
AutoCAD 2000
 90
        0
280
     0
281
     0
  0
CLASS
  1
DICTIONARYVAR
  2
AcDbDictionaryVar
  3
AutoCAD 2000
 90
        0
280
     0
281
     0
  0
ENDSEC
  0
SECTION
  2
TABLES
  0
TABLE
  2
VPORT
  5
16795
330
0
100
AcDbSymbolTable
 70
     2
  0
VPORT
  5
16857
330
16795
100
AcDbSymbolTableRecord
100
AcDbViewportTableRecord
  2
*Active
 70
     0
 10
0.0
 20
0.0
 11
1.0
 21
1.0
 12
8408.331337953368
 22
5702.983730997637
 13
0.0
 23
0.0
 14
1.0
 24
1.0
 15
0.0
 25
0.0
 16
0.0
 26
0.0
 36
1.0
 17
0.0
 27
0.0
 37
0.0
 40
12985.73988638911
 41
1.236040609137055
 42
50.0
 43
0.0
 44
0.0
 50
0.0
 51
0.0
 71
     0
 72
 10000
 73
     1
 74
     0
 75
     0
 76
     0
 77
     0
 78
     0
281
     0
 65
     0
110
0.0
120
0.0
130
0.0
111
1.0
121
0.0
131
0.0
112
0.0
122
1.0
132
0.0
 79
     0
146
0.0
  0
ENDTAB
  0
TABLE
  2
LTYPE
  5
16792
330
0
100
AcDbSymbolTable
 70
     9
  0
LTYPE
  5
167A0
330
16792
100
AcDbSymbolTableRecord
100
AcDbLinetypeTableRecord
  2
ByBlock
 70
     0
  3

 72
    65
 73
     0
 40
0.0
  0
LTYPE
  5
167A1
330
16792
100
AcDbSymbolTableRecord
100
AcDbLinetypeTableRecord
  2
ByLayer
 70
     0
  3

 72
    65
 73
     0
 40
0.0
  0
LTYPE
  5
167A2
330
16792
100
AcDbSymbolTableRecord
100
AcDbLinetypeTableRecord
  2
CONTINUOUS
 70
     0
  3
実線
 72
    65
 73
     0
 40
0.0
  0
LTYPE
  5
167AE
330
16792
100
AcDbSymbolTableRecord
100
AcDbLinetypeTableRecord
  2
HIDE-M
 70
     0
  3

 72
    65
 73
     2
 40
2.0
 49
1.0
 74
     0
 49
-1.0
 74
     0
  0
LTYPE
  5
167AF
330
16792
100
AcDbSymbolTableRecord
100
AcDbLinetypeTableRecord
  2
HIDE-S
 70
     0
  3

 72
    65
 73
     2
 40
1.0
 49
0.5
 74
     0
 49
-0.5
 74
     0
  0
LTYPE
  5
167B0
330
16792
100
AcDbSymbolTableRecord
100
AcDbLinetypeTableRecord
  2
TENSEN-
 70
     0
  3

 72
    65
 73
     2
 40
0.6000000000000001
 49
0.2
 74
     0
 49
-0.4
 74
     0
  0
LTYPE
  5
167B1
330
16792
100
AcDbSymbolTableRecord
100
AcDbLinetypeTableRecord
  2
1PL-M
 70
     0
  3

 72
    65
 73
     4
 40
15.0
 49
12.0
 74
     0
 49
-1.0
 74
     0
 49
1.0
 74
     0
 49
-1.0
 74
     0
  0
LTYPE
  5
167B2
330
16792
100
AcDbSymbolTableRecord
100
AcDbLinetypeTableRecord
  2
1PL-12
 70
     0
  3

 72
    65
 73
     4
 40
15.0
 49
12.0
 74
     0
 49
-1.0
 74
     0
 49
1.0
 74
     0
 49
-1.0
 74
     0
  0
LTYPE
  5
167B3
330
16792
100
AcDbSymbolTableRecord
100
AcDbLinetypeTableRecord
  2
KAKURE-1
 70
     0
  3

 72
    65
 73
     2
 40
2.0
 49
1.0
 74
     0
 49
-1.0
 74
     0
  0
LTYPE
  5
167B4
330
16792
100
AcDbSymbolTableRecord
100
AcDbLinetypeTableRecord
  2
2PL-12
 70
     0
  3

 72
    65
 73
     6
 40
17.0
 49
12.0
 74
     0
 49
-1.0
 74
     0
 49
1.0
 74
     0
 49
-1.0
 74
     0
 49
1.0
 74
     0
 49
-1.0
 74
     0
  0
LTYPE
  5
167B5
330
16792
100
AcDbSymbolTableRecord
100
AcDbLinetypeTableRecord
  2
2PL-5
 70
     0
  3

 72
    65
 73
     6
 40
7.5
 49
5.0
 74
     0
 49
-0.5
 74
     0
 49
0.5
 74
     0
 49
-0.5
 74
     0
 49
0.5
 74
     0
 49
-0.5
 74
     0
  0
ENDTAB
  0
TABLE
  2
LAYER
  5
1678F
330
0
100
AcDbSymbolTable
 70
    26
  0
LAYER
  5
1679D
330
1678F
100
AcDbSymbolTableRecord
100
AcDbLayerTableRecord
  2
0
 70
     0
 62
     7
  6
CONTINUOUS
370
    -3
390
1679C
  0
LAYER
  5
167B7
330
1678F
100
AcDbSymbolTableRecord
100
AcDbLayerTableRecord
  2
U1
 70
     0
 62
     3
  6
CONTINUOUS
370
    -3
390
1679C
  0
LAYER
  5
167B8
330
1678F
100
AcDbSymbolTableRecord
100
AcDbLayerTableRecord
  2
U2
 70
     0
 62
     4
  6
CONTINUOUS
370
    -3
390
1679C
  0
LAYER
  5
167B9
330
1678F
100
AcDbSymbolTableRecord
100
AcDbLayerTableRecord
  2
U7
 70
     0
 62
     2
  6
CONTINUOUS
370
    -3
390
1679C
  0
LAYER
  5
167BA
330
1678F
100
AcDbSymbolTableRecord
100
AcDbLayerTableRecord
  2
SUNPOU
 70
     0
 62
     4
  6
CONTINUOUS
370
    -3
390
1679C
  0
LAYER
  5
167BB
330
1678F
100
AcDbSymbolTableRecord
100
AcDbLayerTableRecord
  2
HIKIDASHI
 70
     0
 62
     6
  6
CONTINUOUS
370
    -3
390
1679C
  0
LAYER
  5
167BC
330
1678F
100
AcDbSymbolTableRecord
100
AcDbLayerTableRecord
  2
TENSEN-1
 70
     0
 62
     6
  6
TENSEN-
370
    -3
390
1679C
  0
LAYER
  5
167BD
330
1678F
100
AcDbSymbolTableRecord
100
AcDbLayerTableRecord
  2
HIDE-S1
 70
     0
 62
     6
  6
HIDE-S
370
    -3
390
1679C
  0
LAYER
  5
167BE
330
1678F
100
AcDbSymbolTableRecord
100
AcDbLayerTableRecord
  2
HIDE-M1
 70
     0
 62
     6
  6
HIDE-M
370
    -3
390
1679C
  0
LAYER
  5
167BF
330
1678F
100
AcDbSymbolTableRecord
100
AcDbLayerTableRecord
  2
1PL-M1
 70
     0
 62
     6
  6
1PL-M
370
    -3
390
1679C
  0
LAYER
  5
167C0
330
1678F
100
AcDbSymbolTableRecord
100
AcDbLayerTableRecord
  2
NAME
 70
     0
 62
    20
  6
CONTINUOUS
370
    -3
390
1679C
  0
LAYER
  5
167C1
330
1678F
100
AcDbSymbolTableRecord
100
AcDbLayerTableRecord
  2
FILENAME
 70
     0
 62
     7
  6
CONTINUOUS
370
    -3
390
1679C
  0
LAYER
  5
167C2
330
1678F
100
AcDbSymbolTableRecord
100
AcDbLayerTableRecord
  2
KISO
 70
     0
 62
     2
  6
CONTINUOUS
370
    -3
390
1679C
  0
LAYER
  5
167C3
330
1678F
100
AcDbSymbolTableRecord
100
AcDbLayerTableRecord
  2
YANE
 70
     0
 62
     1
  6
1PL-12
370
    -3
390
1679C
  0
LAYER
  5
167C4
330
1678F
100
AcDbSymbolTableRecord
100
AcDbLayerTableRecord
  2
HATCH
 70
     0
 62
     1
  6
CONTINUOUS
370
    -3
390
1679C
  0
LAYER
  5
167C5
330
1678F
100
AcDbSymbolTableRecord
100
AcDbLayerTableRecord
  2
DOMAKON
 70
     0
 62
     2
  6
CONTINUOUS
370
    -3
390
1679C
  0
LAYER
  5
167C6
330
1678F
100
AcDbSymbolTableRecord
100
AcDbLayerTableRecord
  2
KISO-1
 70
     0
 62
     6
  6
2PL-12
370
    -3
390
1679C
  0
LAYER
  5
167C7
330
1678F
100
AcDbSymbolTableRecord
100
AcDbLayerTableRecord
  2
KISO-2
 70
     0
 62
     1
  6
KAKURE-1
370
    -3
390
1679C
  0
LAYER
  5
167C8
330
1678F
100
AcDbSymbolTableRecord
100
AcDbLayerTableRecord
  2
SIN
 70
     0
 62
     6
  6
1PL-12
370
    -3
390
1679C
  0
LAYER
  5
167C9
330
1678F
100
AcDbSymbolTableRecord
100
AcDbLayerTableRecord
  2
BOLT
 70
     0
 62
     1
  6
CONTINUOUS
370
    -3
390
1679C
  0
LAYER
  5
167CA
330
1678F
100
AcDbSymbolTableRecord
100
AcDbLayerTableRecord
  2
KISO-3
 70
     0
 62
     1
  6
2PL-5
370
    -3
390
1679C
  0
LAYER
  5
167CB
330
1678F
100
AcDbSymbolTableRecord
100
AcDbLayerTableRecord
  2
HASIRA
 70
     0
 62
     3
  6
CONTINUOUS
370
    -3
390
1679C
  0
LAYER
  5
167CC
330
1678F
100
AcDbSymbolTableRecord
100
AcDbLayerTableRecord
  2
YODOROGO
 70
     0
 62
   130
  6
CONTINUOUS
370
    -3
390
1679C
  0
LAYER
  5
167CD
330
1678F
100
AcDbSymbolTableRecord
100
AcDbLayerTableRecord
  2
WAKUSEN-01
 70
     0
 62
    50
  6
CONTINUOUS
370
    -3
390
1679C
  0
LAYER
  5
167CE
330
1678F
100
AcDbSymbolTableRecord
100
AcDbLayerTableRecord
  2
WAKUSEN-02
 70
     0
 62
   130
  6
CONTINUOUS
370
    -3
390
1679C
  0
LAYER
  5
167CF
330
1678F
100
AcDbSymbolTableRecord
100
AcDbLayerTableRecord
  2
WAKUMOJI-01
 70
     0
 62
   130
  6
CONTINUOUS
370
    -3
390
1679C
  0
ENDTAB
  0
TABLE
  2
STYLE
  5
16790
330
0
100
AcDbSymbolTable
 70
     5
  0
STYLE
  5
1679E
330
16790
100
AcDbSymbolTableRecord
100
AcDbTextStyleTableRecord
  2
STANDARD
 70
     0
 40
3.0
 41
1.0
 50
0.0
 71
     0
 42
0.2
  3
ROMANS
  4
EXTFONT
  0
STYLE
  5
167D1
330
16790
100
AcDbSymbolTableRecord
100
AcDbTextStyleTableRecord
  2
01
 70
     0
 40
3.0
 41
1.0
 50
0.0
 71
     0
 42
0.2
  3
ROMANS
  4
BIGFONT
  0
STYLE
  5
167D2
330
16790
100
AcDbSymbolTableRecord
100
AcDbTextStyleTableRecord
  2
00
 70
     0
 40
0.0
 41
0.6666666666666666
 50
0.0
 71
     0
 42
0.2
  3
ROMANS
  4
BIGFONT
  0
STYLE
  5
167D3
330
16790
100
AcDbSymbolTableRecord
100
AcDbTextStyleTableRecord
  2
WAKUMOJI
 70
     0
 40
3.0
 41
1.0
 50
0.0
 71
     0
 42
3.0
  3
SIMPLEX
  4
BIGFONT
  0
STYLE
  5
167D4
330
16790
100
AcDbSymbolTableRecord
100
AcDbTextStyleTableRecord
  2
FILENAME
 70
     0
 40
100.0
 41
1.0
 50
0.0
 71
     0
 42
100.0
  3
romans
  4
bigfont
  0
ENDTAB
  0
TABLE
  2
VIEW
  5
16793
330
0
100
AcDbSymbolTable
 70
     0
  0
ENDTAB
  0
TABLE
  2
UCS
  5
16794
330
0
100
AcDbSymbolTable
 70
     0
  0
ENDTAB
  0
TABLE
  2
APPID
  5
16796
330
0
100
AcDbSymbolTable
 70
     3
  0
APPID
  5
1679F
330
16796
100
AcDbSymbolTableRecord
100
AcDbRegAppTableRecord
  2
ACAD
 70
     0
  0
APPID
  5
167D6
330
16796
100
AcDbSymbolTableRecord
100
AcDbRegAppTableRecord
  2
AUTOCAD_POSTSCRIPT_FIGURE
 70
     0
  0
APPID
  5
167D7
330
16796
100
AcDbSymbolTableRecord
100
AcDbRegAppTableRecord
  2
ACAD_PSEXT
 70
     0
  0
ENDTAB
  0
TABLE
  2
DIMSTYLE
  5
16797
330
0
100
AcDbSymbolTable
 70
     1
100
AcDbDimStyleTable
 71
     0
  0
DIMSTYLE
105
167D8
330
16797
100
AcDbSymbolTableRecord
100
AcDbDimStyleTableRecord
  2
SUNPOU_図面名
 70
     0
 40
40.0
 41
0.5
 42
1.0
 43
7.0
 44
1.125
 46
3.0
 73
     0
 74
     0
 77
     1
 78
     8
140
2.25
141
0.0
147
1.125
172
     1
173
     1
176
   256
177
   256
178
   256
340
167D2
341
167DC
343
167DC
344
167DC
  0
ENDTAB
  0
TABLE
  2
BLOCK_RECORD
  5
1678E
330
0
100
AcDbSymbolTable
 70
    22
  0
BLOCK_RECORD
  5
167A9
330
1678E
100
AcDbSymbolTableRecord
100
AcDbBlockTableRecord
  2
*Model_Space
340
167AA
  0
BLOCK_RECORD
  5
167A7
330
1678E
100
AcDbSymbolTableRecord
100
AcDbBlockTableRecord
  2
*Paper_Space
340
167A8
  0
BLOCK_RECORD
  5
167DC
330
1678E
100
AcDbSymbolTableRecord
100
AcDbBlockTableRecord
  2
DOT
340
0
  0
BLOCK_RECORD
  5
167DE
330
1678E
100
AcDbSymbolTableRecord
100
AcDbBlockTableRecord
  2
*U1
340
0
  0
BLOCK_RECORD
  5
167E0
330
1678E
100
AcDbSymbolTableRecord
100
AcDbBlockTableRecord
  2
*U2
340
0
  0
BLOCK_RECORD
  5
167E2
330
1678E
100
AcDbSymbolTableRecord
100
AcDbBlockTableRecord
  2
*U3
340
0
  0
BLOCK_RECORD
  5
167E4
330
1678E
100
AcDbSymbolTableRecord
100
AcDbBlockTableRecord
  2
*U4
340
0
  0
BLOCK_RECORD
  5
167E6
330
1678E
100
AcDbSymbolTableRecord
100
AcDbBlockTableRecord
  2
*U5
340
0
  0
BLOCK_RECORD
  5
167E8
330
1678E
100
AcDbSymbolTableRecord
100
AcDbBlockTableRecord
  2
*U6
340
0
  0
BLOCK_RECORD
  5
167EA
330
1678E
100
AcDbSymbolTableRecord
100
AcDbBlockTableRecord
  2
*U7
340
0
  0
BLOCK_RECORD
  5
167EC
330
1678E
100
AcDbSymbolTableRecord
100
AcDbBlockTableRecord
  2
*U8
340
0
  0
BLOCK_RECORD
  5
167EE
330
1678E
100
AcDbSymbolTableRecord
100
AcDbBlockTableRecord
  2
*U9
340
0
  0
BLOCK_RECORD
  5
167F0
330
1678E
100
AcDbSymbolTableRecord
100
AcDbBlockTableRecord
  2
*U10
340
0
  0
BLOCK_RECORD
  5
167F2
330
1678E
100
AcDbSymbolTableRecord
100
AcDbBlockTableRecord
  2
*U11
340
0
  0
BLOCK_RECORD
  5
167F4
330
1678E
100
AcDbSymbolTableRecord
100
AcDbBlockTableRecord
  2
*U12
340
0
  0
BLOCK_RECORD
  5
167F6
330
1678E
100
AcDbSymbolTableRecord
100
AcDbBlockTableRecord
  2
*U13
340
0
  0
BLOCK_RECORD
  5
167F8
330
1678E
100
AcDbSymbolTableRecord
100
AcDbBlockTableRecord
  2
*U14
340
0
  0
BLOCK_RECORD
  5
167FA
330
1678E
100
AcDbSymbolTableRecord
100
AcDbBlockTableRecord
  2
*U15
340
0
  0
BLOCK_RECORD
  5
167FC
330
1678E
100
AcDbSymbolTableRecord
100
AcDbBlockTableRecord
  2
*U16
340
0
  0
BLOCK_RECORD
  5
167FE
330
1678E
100
AcDbSymbolTableRecord
100
AcDbBlockTableRecord
  2
*U17
340
0
  0
BLOCK_RECORD
  5
16800
330
1678E
100
AcDbSymbolTableRecord
100
AcDbBlockTableRecord
  2
*U18
340
0
  0
BLOCK_RECORD
  5
16802
330
1678E
100
AcDbSymbolTableRecord
100
AcDbBlockTableRecord
  2
*U19
340
0
  0
BLOCK_RECORD
  5
16804
330
1678E
100
AcDbSymbolTableRecord
100
AcDbBlockTableRecord
  2
*U20
340
0
  0
ENDTAB
  0
ENDSEC
  0
SECTION
  2
BLOCKS
  0
BLOCK
  5
167D9
330
167A9
100
AcDbEntity
  8
0
100
AcDbBlockBegin
  2
*Model_Space
 70
     0
 10
0.0
 20
0.0
 30
0.0
  3
*Model_Space
  1

  0
ENDBLK
  5
125F7
330
167A9
100
AcDbEntity
  8
0
100
AcDbBlockEnd
  0
BLOCK
  5
167DA
330
167A7
100
AcDbEntity
 67
     1
  8
0
100
AcDbBlockBegin
  2
*Paper_Space
 70
     0
 10
0.0
 20
0.0
 30
0.0
  3
*Paper_Space
  1

  0
ENDBLK
  5
125F5
330
167A7
100
AcDbEntity
 67
     1
  8
0
100
AcDbBlockEnd
  0
BLOCK
  5
167DB
330
167DC
100
AcDbEntity
  8
0
100
AcDbBlockBegin
  2
DOT
 70
     0
 10
0.0
 20
0.0
 30
0.0
  3
DOT
  1

  0
LWPOLYLINE
  5
12987
330
167DC
100
AcDbEntity
  8
0
  6
ByBlock
 62
     0
100
AcDbPolyline
 90
        2
 70
     1
 43
0.75
 10
-0.375
 20
0.0
 42
1.0
 10
0.375
 20
0.0
 42
1.0
  0
LINE
  5
12988
330
167DC
100
AcDbEntity
  8
0
  6
ByBlock
 62
     0
100
AcDbLine
 10
-0.75
 20
0.0
 30
0.0
 11
-1.5
 21
0.0
 31
0.0
  0
ENDBLK
  5
12989
330
167DC
100
AcDbEntity
  8
0
100
AcDbBlockEnd
  0
BLOCK
  5
167DD
330
167DE
100
AcDbEntity
  8
0
100
AcDbBlockBegin
  2
*U1
 70
     1
 10
0.0
 20
0.0
 30
0.0
  3
*U1
  1

  0
TEXT
  5
1673F
330
167DE
100
AcDbEntity
  8
SUNPOU
100
AcDbText
 10
3733.413222185358
 20
5431.279066364536
 30
0.0
 40
90.0
  1
400
 41
0.6666666666666666
  7
00
100
AcDbText
  0
ENDBLK
  5
16741
330
167DE
100
AcDbEntity
  8
0
100
AcDbBlockEnd
  0
BLOCK
  5
167DF
330
167E0
100
AcDbEntity
  8
0
100
AcDbBlockBegin
  2
*U2
 70
     1
 10
0.0
 20
0.0
 30
0.0
  3
*U2
  1

  0
TEXT
  5
16743
330
167E0
100
AcDbEntity
  8
SUNPOU
100
AcDbText
 10
12533.41322218535
 20
5431.279066364536
 30
0.0
 40
90.0
  1
400
 41
0.6666666666666666
  7
00
100
AcDbText
  0
ENDBLK
  5
16745
330
167E0
100
AcDbEntity
  8
0
100
AcDbBlockEnd
  0
BLOCK
  5
167E1
330
167E2
100
AcDbEntity
  8
0
100
AcDbBlockBegin
  2
*U3
 70
     1
 10
0.0
 20
0.0
 30
0.0
  3
*U3
  1

  0
TEXT
  5
16747
330
167E2
100
AcDbEntity
  8
SUNPOU
100
AcDbText
 10
10904.84179361392
 20
5431.279066364536
 30
0.0
 40
90.0
  1
2800
 41
0.6666666666666666
  7
00
100
AcDbText
  0
ENDBLK
  5
16749
330
167E2
100
AcDbEntity
  8
0
100
AcDbBlockEnd
  0
BLOCK
  5
167E3
330
167E4
100
AcDbEntity
  8
0
100
AcDbBlockBegin
  2
*U4
 70
     1
 10
0.0
 20
0.0
 30
0.0
  3
*U4
  1

  0
TEXT
  5
1674B
330
167E4
100
AcDbEntity
  8
SUNPOU
100
AcDbText
 10
5304.841793613929
 20
5431.279066364536
 30
0.0
 40
90.0
  1
2800
 41
0.6666666666666666
  7
00
100
AcDbText
  0
ENDBLK
  5
1674D
330
167E4
100
AcDbEntity
  8
0
100
AcDbBlockEnd
  0
BLOCK
  5
167E5
330
167E6
100
AcDbEntity
  8
0
100
AcDbBlockBegin
  2
*U5
 70
     1
 10
0.0
 20
0.0
 30
0.0
  3
*U5
  1

  0
TEXT
  5
1674F
330
167E6
100
AcDbEntity
  8
SUNPOU
100
AcDbText
 10
7829.413222185358
 20
5431.279066364536
 30
0.0
 40
90.0
  1
2800 ×（ N - 2 ）
 41
0.6666666666666666
  7
00
100
AcDbText
  0
ENDBLK
  5
16751
330
167E6
100
AcDbEntity
  8
0
100
AcDbBlockEnd
  0
BLOCK
  5
167E7
330
167E8
100
AcDbEntity
  8
0
100
AcDbBlockBegin
  2
*U6
 70
     1
 10
0.0
 20
0.0
 30
0.0
  3
*U6
  1

  0
TEXT
  5
16753
330
167E8
100
AcDbEntity
  8
SUNPOU
100
AcDbText
 10
5103.007034603488
 20
2526.74255611554
 30
0.0
 40
90.0
  1
630
 50
90.0
 41
0.6666666666666666
  7
00
100
AcDbText
  0
ENDBLK
  5
16755
330
167E8
100
AcDbEntity
  8
0
100
AcDbBlockEnd
  0
BLOCK
  5
167E9
330
167EA
100
AcDbEntity
  8
0
100
AcDbBlockBegin
  2
*U7
 70
     1
 10
0.0
 20
0.0
 30
0.0
  3
*U7
  1

  0
TEXT
  5
16757
330
167EA
100
AcDbEntity
  8
SUNPOU
100
AcDbText
 10
4893.007034603488
 20
2907.885413258394
 30
0.0
 40
90.0
  1
150
 50
90.0
 41
0.6666666666666666
  7
00
100
AcDbText
  0
ENDBLK
  5
16759
330
167EA
100
AcDbEntity
  8
0
100
AcDbBlockEnd
  0
BLOCK
  5
167EB
330
167EC
100
AcDbEntity
  8
0
100
AcDbBlockBegin
  2
*U8
 70
     1
 10
0.0
 20
0.0
 30
0.0
  3
*U8
  1

  0
TEXT
  5
1675B
330
167EC
100
AcDbEntity
  8
SUNPOU
100
AcDbText
 10
4893.007034603488
 20
2408.171127544112
 30
0.0
 40
90.0
  1
480
 50
90.0
 41
0.6666666666666666
  7
00
100
AcDbText
  0
ENDBLK
  5
1675D
330
167EC
100
AcDbEntity
  8
0
100
AcDbBlockEnd
  0
BLOCK
  5
167ED
330
167EE
100
AcDbEntity
  8
0
100
AcDbBlockBegin
  2
*U9
 70
     1
 10
0.0
 20
0.0
 30
0.0
  3
*U9
  1

  0
TEXT
  5
1675F
330
167EE
100
AcDbEntity
  8
SUNPOU
100
AcDbText
 10
3194.714767048873
 20
3556.260118325357
 30
0.0
 40
90.0
  1
770
 41
0.6666666666666666
  7
00
100
AcDbText
  0
ENDBLK
  5
16761
330
167EE
100
AcDbEntity
  8
0
100
AcDbBlockEnd
  0
BLOCK
  5
167EF
330
167F0
100
AcDbEntity
  8
0
100
AcDbBlockBegin
  2
*U10
 70
     1
 10
0.0
 20
0.0
 30
0.0
  3
*U10
  1

  0
TEXT
  5
16763
330
167F0
100
AcDbEntity
  8
SUNPOU
100
AcDbText
 10
3194.714767048858
 20
1615.89849823215
 30
0.0
 40
90.0
  1
290
 41
0.6666666666666666
  7
00
100
AcDbText
  0
ENDBLK
  5
16765
330
167F0
100
AcDbEntity
  8
0
100
AcDbBlockEnd
  0
BLOCK
  5
167F1
330
167F2
100
AcDbEntity
  8
0
100
AcDbBlockBegin
  2
*U11
 70
     1
 10
0.0
 20
0.0
 30
0.0
  3
*U11
  1

  0
TEXT
  5
16767
330
167F2
100
AcDbEntity
  8
SUNPOU
100
AcDbText
 10
7381.734633614097
 20
1405.89849823215
 30
0.0
 40
90.0
  1
1290
 41
0.6666666666666666
  7
00
100
AcDbText
  0
ENDBLK
  5
16769
330
167F2
100
AcDbEntity
  8
0
100
AcDbBlockEnd
  0
BLOCK
  5
167F3
330
167F4
100
AcDbEntity
  8
0
100
AcDbBlockBegin
  2
*U12
 70
     1
 10
0.0
 20
0.0
 30
0.0
  3
*U12
  1

  0
TEXT
  5
1676B
330
167F4
100
AcDbEntity
  8
SUNPOU
100
AcDbText
 10
7414.59177647124
 20
1615.89849823215
 30
0.0
 40
90.0
  1
770
 41
0.6666666666666666
  7
00
100
AcDbText
  0
ENDBLK
  5
1676D
330
167F4
100
AcDbEntity
  8
0
100
AcDbBlockEnd
  0
BLOCK
  5
167F5
330
167F6
100
AcDbEntity
  8
0
100
AcDbBlockBegin
  2
*U13
 70
     1
 10
0.0
 20
0.0
 30
0.0
  3
*U13
  1

  0
TEXT
  5
1676F
330
167F6
100
AcDbEntity
  8
SUNPOU
100
AcDbText
 10
9148.171970751356
 20
2405.618908356616
 30
0.0
 40
90.0
  1
800
 50
90.0
 41
0.6666666666666666
  7
00
100
AcDbText
  0
ENDBLK
  5
16771
330
167F6
100
AcDbEntity
  8
0
100
AcDbBlockEnd
  0
BLOCK
  5
167F7
330
167F8
100
AcDbEntity
  8
0
100
AcDbBlockBegin
  2
*U14
 70
     1
 10
0.0
 20
0.0
 30
0.0
  3
*U14
  1

  0
TEXT
  5
16773
330
167F8
100
AcDbEntity
  8
SUNPOU
100
AcDbText
 10
8938.171970751353
 20
2405.618908356616
 30
0.0
 40
90.0
  1
480
 50
90.0
 41
0.6666666666666666
  7
00
100
AcDbText
  0
ENDBLK
  5
16775
330
167F8
100
AcDbEntity
  8
0
100
AcDbBlockEnd
  0
BLOCK
  5
167F9
330
167FA
100
AcDbEntity
  8
0
100
AcDbBlockBegin
  2
*U15
 70
     1
 10
0.0
 20
0.0
 30
0.0
  3
*U15
  1

  0
TEXT
  5
16777
330
167FA
100
AcDbEntity
  8
SUNPOU
100
AcDbText
 10
3826.714767048869
 20
1615.89849823215
 30
0.0
 40
90.0
  1
500
 41
0.6666666666666666
  7
00
100
AcDbText
  0
ENDBLK
  5
16779
330
167FA
100
AcDbEntity
  8
0
100
AcDbBlockEnd
  0
BLOCK
  5
167FB
330
167FC
100
AcDbEntity
  8
0
100
AcDbBlockBegin
  2
*U16
 70
     1
 10
0.0
 20
0.0
 30
0.0
  3
*U16
  1

  0
TEXT
  5
1677B
330
167FC
100
AcDbEntity
  8
SUNPOU
100
AcDbText
 10
2562.714767048865
 20
1615.89849823215
 30
0.0
 40
90.0
  1
500
 41
0.6666666666666666
  7
00
100
AcDbText
  0
ENDBLK
  5
1677D
330
167FC
100
AcDbEntity
  8
0
100
AcDbBlockEnd
  0
BLOCK
  5
167FD
330
167FE
100
AcDbEntity
  8
0
100
AcDbBlockBegin
  2
*U17
 70
     1
 10
0.0
 20
0.0
 30
0.0
  3
*U17
  1

  0
TEXT
  5
1677F
330
167FE
100
AcDbEntity
  8
SUNPOU
100
AcDbText
 10
3161.857624191732
 20
1405.89849823215
 30
0.0
 40
90.0
  1
1290
 41
0.6666666666666666
  7
00
100
AcDbText
  0
ENDBLK
  5
16781
330
167FE
100
AcDbEntity
  8
0
100
AcDbBlockEnd
  0
BLOCK
  5
167FF
330
16800
100
AcDbEntity
  8
0
100
AcDbBlockBegin
  2
*U18
 70
     1
 10
0.0
 20
0.0
 30
0.0
  3
*U18
  1

  0
TEXT
  5
16783
330
16800
100
AcDbEntity
  8
SUNPOU
100
AcDbText
 10
5103.007034603489
 20
1642.028270401257
 30
0.0
 40
90.0
  1
100
 50
90.0
 41
0.6666666666666666
  7
00
100
AcDbText
  0
ENDBLK
  5
16785
330
16800
100
AcDbEntity
  8
0
100
AcDbBlockEnd
  0
BLOCK
  5
16801
330
16802
100
AcDbEntity
  8
0
100
AcDbBlockBegin
  2
*U19
 70
     1
 10
0.0
 20
0.0
 30
0.0
  3
*U19
  1

  0
TEXT
  5
16787
330
16802
100
AcDbEntity
  8
SUNPOU
100
AcDbText
 10
5320.630199058618
 20
2012.742556115539
 30
0.0
 40
90.0
  1
50
 50
90.0
 41
0.6666666666666666
  7
00
100
AcDbText
  0
ENDBLK
  5
16789
330
16802
100
AcDbEntity
  8
0
100
AcDbBlockEnd
  0
BLOCK
  5
16803
330
16804
100
AcDbEntity
  8
0
100
AcDbBlockBegin
  2
*U20
 70
     1
 10
0.0
 20
0.0
 30
0.0
  3
*U20
  1

  0
TEXT
  5
1678B
330
16804
100
AcDbEntity
  8
SUNPOU
100
AcDbText
 10
7755.413222185355
 20
5123.638389810428
 30
0.0
 40
90.0
  1
L = 2800 x N + 800
 41
0.6666666666666666
  7
00
100
AcDbText
  0
ENDBLK
  5
1678D
330
16804
100
AcDbEntity
  8
0
100
AcDbBlockEnd
  0
ENDSEC
  0
SECTION
  2
ENTITIES
  0
TEXT
  5
12D59
330
167A9
100
AcDbEntity
  8
NAME
100
AcDbText
 10
12303.32857318295
 20
1055.0
 30
0.0
 40
120.0
  1
Y O R
 41
0.6666666666666666
  7
00
100
AcDbText
  0
TEXT
  5
12D5A
330
167A9
100
AcDbEntity
  8
NAME
100
AcDbText
 10
11227.73587134625
 20
1055.0
 30
0.0
 40
120.0
  1
ヨド自転車置場　　　 型
  7
01
100
AcDbText
  0
TEXT
  5
12D5B
330
167A9
100
AcDbEntity
  8
NAME
100
AcDbText
 10
11656.07508082364
 20
875.0
 30
0.0
 40
120.0
  1
背合せタイプ
  7
01
 72
     4
 11
12072.07508082364
 21
935.0
 31
0.0
100
AcDbText
  0
TEXT
  5
12DBA
330
167A9
100
AcDbEntity
  8
NAME
100
AcDbText
 10
12854.79999999999
 20
541.0000000000001
 30
0.0
 40
160.0
  1
<3／3>
 41
0.6
  7
01
 72
     2
 11
13354.0
 21
541.0000000000001
 31
0.0
100
AcDbText
  0
TEXT
  5
12DBB
330
167A9
100
AcDbEntity
  8
NAME
100
AcDbText
 10
10896.04264730428
 20
541.0
 30
0.0
 40
160.0
  1
YOR-280B
 41
0.7
  7
01
 72
     2
 11
11776.04264730429
 21
541.0
 31
0.0
100
AcDbText
  0
TEXT
  5
12DBC
330
167A9
100
AcDbEntity
  8
NAME
100
AcDbText
 10
11816.04264730429
 20
541.0
 30
0.0
 40
160.0
  1
型（一般地用）
 41
0.8
  7
01
100
AcDbText
  0
TEXT
  5
15446
330
167A9
100
AcDbEntity
  8
HIKIDASHI
100
AcDbText
 10
8058.685640680188
 20
4419.073446950285
 30
0.0
 40
135.0
  1
（  ：スパン数）
  7
01
 72
     4
 11
8684.185640680189
 21
4486.573446950286
 31
0.0
100
AcDbText
  0
TEXT
  5
15447
330
167A9
100
AcDbEntity
  8
HIKIDASHI
100
AcDbText
 10
7156.58988462631
 20
4621.573446950286
 30
0.0
 40
135.0
  1
基 礎 平 面 図　 縮尺
  7
01
 72
     4
 11
7989.089884626308
 21
4689.073446950286
 31
0.0
100
AcDbText
  0
TEXT
  5
15448
330
167A9
100
AcDbEntity
  8
HIKIDASHI
100
AcDbText
 10
8259.59903440428
 20
4419.073446950285
 30
0.0
 40
135.0
  1
N
 41
0.6666666666666666
  7
00
 72
     4
 11
8306.741891547135
 21
4486.573446950286
 31
0.0
100
AcDbText
  0
LINE
  5
1544E
330
167A9
100
AcDbEntity
  8
U2
100
AcDbLine
 10
8279.127507899648
 20
10201.27906636453
 30
0.0
 11
8279.127507899648
 21
5761.279066364537
 31
0.0
  0
LINE
  5
1544F
330
167A9
100
AcDbEntity
  8
U2
100
AcDbLine
 10
8159.127507899645
 20
10201.27906636453
 30
0.0
 11
8159.127507899645
 21
5761.279066364537
 31
0.0
  0
LINE
  5
15455
330
167A9
100
AcDbEntity
  8
SUNPOU
100
AcDbLine
 10
3169.127507899644
 20
7821.279066364535
 30
0.0
 11
3169.127507899644
 21
5851.279066364535
 31
0.0
  0
LINE
  5
154BE
330
167A9
100
AcDbEntity
  8
SUNPOU
100
AcDbLine
 10
3589.127507899644
 20
5836.279066364536
 30
0.0
 11
3139.127507899644
 21
5836.279066364536
 31
0.0
  0
TEXT
  5
15525
330
167A9
100
AcDbEntity
  8
HIKIDASHI
100
AcDbText
 10
5003.553647771401
 20
5992.729793983193
 30
0.0
 40
90.0
  1
（鼻隠し外面）
  7
01
100
AcDbText
  0
TEXT
  5
15527
330
167A9
100
AcDbEntity
  8
HIKIDASHI
100
AcDbText
 10
4894.907558109866
 20
5701.279066364527
 30
0.0
 40
90.0
  1
（土間コン前面位置）
  7
01
100
AcDbText
  0
LINE
  5
1553F
330
167A9
100
AcDbEntity
  8
KISO-1
100
AcDbLine
 10
4419.127507899644
 20
7336.279066364537
 30
0.0
 11
3619.127507899644
 21
7336.279066364537
 31
0.0
  0
LINE
  5
15540
330
167A9
100
AcDbEntity
  8
KISO-1
100
AcDbLine
 10
3619.127507899641
 20
8626.279066364537
 30
0.0
 11
4419.127507899641
 21
8626.279066364537
 31
0.0
  0
TEXT
  5
15541
330
167A9
100
AcDbEntity
  8
HIKIDASHI
100
AcDbText
 10
3932.326854848412
 20
9106.160818322512
 30
0.0
 40
90.0
  1
（ケラバ外面）
 50
90.0
  7
01
100
AcDbText
  0
TEXT
  5
15542
330
167A9
100
AcDbEntity
  8
HIKIDASHI
100
AcDbText
 10
3574.12750789964
 20
8997.514728660977
 30
0.0
 40
90.0
  1
（土間コン側面位置）
 50
90.0
  7
01
100
AcDbText
  0
LINE
  5
15543
330
167A9
100
AcDbEntity
  8
SUNPOU
100
AcDbLine
 10
3169.127507899644
 20
10111.27906636454
 30
0.0
 11
3169.127507899644
 21
8141.279066364537
 31
0.0
  0
TEXT
  5
15544
330
167A9
100
AcDbEntity
  8
SUNPOU
100
AcDbText
 10
3124.127507899644
 20
9011.993352078823
 30
0.0
 40
90.0
  1
2000
 50
90.0
 41
0.6666666666666666
  7
00
 72
     1
 11
3079.127507899644
 21
9126.279066364537
 31
0.0
100
AcDbText
 73
     2
  0
CIRCLE
  5
15545
330
167A9
100
AcDbEntity
  8
KISO-2
100
AcDbCircle
 10
4019.127507899644
 20
7836.279066364537
 30
0.0
 40
44.55
  0
LINE
  5
15547
330
167A9
100
AcDbEntity
  8
SIN
100
AcDbLine
 10
4019.127507899639
 20
8693.279066364537
 30
0.0
 11
4019.127507899644
 21
7269.279066364537
 31
0.0
  0
LINE
  5
15548
330
167A9
100
AcDbEntity
  8
KISO-1
100
AcDbLine
 10
3619.127507899644
 20
7336.279066364537
 30
0.0
 11
3619.127507899641
 21
8626.279066364537
 31
0.0
  0
TEXT
  5
1554A
330
167A9
100
AcDbEntity
  8
SUNPOU
100
AcDbText
 10
3124.127507899644
 20
6721.993352078823
 30
0.0
 40
90.0
  1
2000
 50
90.0
 41
0.6666666666666666
  7
00
 72
     1
 11
3079.127507899644
 21
6836.279066364537
 31
0.0
100
AcDbText
 73
     2
  0
TEXT
  5
1554B
330
167A9
100
AcDbEntity
  8
SUNPOU
100
AcDbText
 10
3484.227407771245
 20
7072.707637793104
 30
0.0
 40
90.0
  1
A'
 41
0.6700000000000001
  7
00
 72
     4
 11
3520.120264914102
 21
7126.279066364533
 31
0.0
100
AcDbText
  0
LINE
  5
1554C
330
167A9
100
AcDbEntity
  8
SUNPOU
100
AcDbLine
 10
3809.127507899644
 20
7126.279066364535
 30
0.0
 11
4019.127507899644
 21
7126.279066364535
 31
0.0
  0
LINE
  5
1554D
330
167A9
100
AcDbEntity
  8
BOLT
100
AcDbLine
 10
3889.127507899644
 20
7736.279066364537
 30
0.0
 11
3949.127507899644
 21
7736.279066364537
 31
0.0
  0
LINE
  5
1554E
330
167A9
100
AcDbEntity
  8
SUNPOU
100
AcDbLine
 10
4019.127507899644
 20
7126.279066364536
 30
0.0
 11
4019.127507899644
 21
7276.279066364536
 31
0.0
  0
LINE
  5
1554F
330
167A9
100
AcDbEntity
  8
BOLT
100
AcDbLine
 10
4149.127507899645
 20
7736.279066364537
 30
0.0
 11
4089.127507899644
 21
7736.279066364537
 31
0.0
  0
LINE
  5
15550
330
167A9
100
AcDbEntity
  8
BOLT
100
AcDbLine
 10
3919.127507899644
 20
7706.279066364537
 30
0.0
 11
3919.127507899644
 21
7766.279066364536
 31
0.0
  0
LINE
  5
15551
330
167A9
100
AcDbEntity
  8
BOLT
100
AcDbLine
 10
4119.127507899643
 20
7706.279066364537
 30
0.0
 11
4119.127507899643
 21
7766.279066364536
 31
0.0
  0
LINE
  5
15552
330
167A9
100
AcDbEntity
  8
SUNPOU
100
AcDbLine
 10
3869.577507899645
 20
8126.279066364537
 30
0.0
 11
3139.127507899644
 21
8126.279066364537
 31
0.0
  0
LINE
  5
15553
330
167A9
100
AcDbEntity
  8
SUNPOU
100
AcDbLine
 10
3869.577507899645
 20
8126.279066364537
 30
0.0
 11
3139.127507899644
 21
8126.279066364537
 31
0.0
  0
LINE
  5
15554
330
167A9
100
AcDbEntity
  8
SUNPOU
100
AcDbLine
 10
3869.577507899645
 20
7836.279066364537
 30
0.0
 11
3139.127507899644
 21
7836.279066364537
 31
0.0
  0
LINE
  5
15555
330
167A9
100
AcDbEntity
  8
SUNPOU
100
AcDbLine
 10
3869.577507899645
 20
7836.279066364537
 30
0.0
 11
3139.127507899644
 21
7836.279066364537
 31
0.0
  0
TEXT
  5
15556
330
167A9
100
AcDbEntity
  8
SUNPOU
100
AcDbText
 10
3124.127507899644
 20
7895.56478065025
 30
0.0
 40
90.0
  1
290
 50
90.0
 41
0.6666666666666666
  7
00
 72
     1
 11
3079.127507899644
 21
7981.279066364534
 31
0.0
100
AcDbText
 73
     2
  0
LINE
  5
15557
330
167A9
100
AcDbEntity
  8
SUNPOU
100
AcDbLine
 10
3169.127507899644
 20
8111.279066364536
 30
0.0
 11
3169.127507899644
 21
7851.279066364536
 31
0.0
  0
LINE
  5
15558
330
167A9
100
AcDbEntity
  8
BOLT
100
AcDbLine
 10
3889.127507899644
 20
8226.279066364538
 30
0.0
 11
3949.127507899644
 21
8226.279066364538
 31
0.0
  0
LINE
  5
15559
330
167A9
100
AcDbEntity
  8
BOLT
100
AcDbLine
 10
3889.127507899644
 20
8026.279066364535
 30
0.0
 11
3949.127507899644
 21
8026.279066364535
 31
0.0
  0
LINE
  5
1555A
330
167A9
100
AcDbEntity
  8
BOLT
100
AcDbLine
 10
3889.127507899644
 20
7936.279066364534
 30
0.0
 11
3949.127507899644
 21
7936.279066364534
 31
0.0
  0
LINE
  5
1555C
330
167A9
100
AcDbEntity
  8
KISO-3
100
AcDbLine
 10
3779.127507899644
 20
8366.279066364535
 30
0.0
 11
4259.127507899644
 21
8366.279066364535
 31
0.0
  0
CIRCLE
  5
1555D
330
167A9
100
AcDbEntity
  8
KISO-2
100
AcDbCircle
 10
4019.127507899644
 20
8126.279066364537
 30
0.0
 40
44.55
  0
LINE
  5
1555E
330
167A9
100
AcDbEntity
  8
BOLT
100
AcDbLine
 10
4149.127507899645
 20
8026.279066364535
 30
0.0
 11
4089.127507899644
 21
8026.279066364535
 31
0.0
  0
LINE
  5
1555F
330
167A9
100
AcDbEntity
  8
BOLT
100
AcDbLine
 10
4149.127507899645
 20
7936.279066364534
 30
0.0
 11
4089.127507899644
 21
7936.279066364534
 31
0.0
  0
LINE
  5
15560
330
167A9
100
AcDbEntity
  8
SIN
100
AcDbLine
 10
4138.677507899643
 20
7836.279066364537
 30
0.0
 11
3899.577507899645
 21
7836.279066364537
 31
0.0
  0
LINE
  5
15561
330
167A9
100
AcDbEntity
  8
BOLT
100
AcDbLine
 10
3919.127507899644
 20
7966.279066364538
 30
0.0
 11
3919.127507899644
 21
7906.279066364537
 31
0.0
  0
LINE
  5
15562
330
167A9
100
AcDbEntity
  8
BOLT
100
AcDbLine
 10
4119.127507899643
 20
7966.279066364538
 30
0.0
 11
4119.127507899643
 21
7906.279066364537
 31
0.0
  0
LINE
  5
15563
330
167A9
100
AcDbEntity
  8
SIN
100
AcDbLine
 10
4138.677507899643
 20
8126.279066364537
 30
0.0
 11
3899.577507899645
 21
8126.279066364537
 31
0.0
  0
LINE
  5
15564
330
167A9
100
AcDbEntity
  8
BOLT
100
AcDbLine
 10
3919.127507899644
 20
7996.279066364536
 30
0.0
 11
3919.127507899644
 21
8056.279066364536
 31
0.0
  0
LINE
  5
15565
330
167A9
100
AcDbEntity
  8
BOLT
100
AcDbLine
 10
4119.127507899643
 20
7996.279066364536
 30
0.0
 11
4119.127507899643
 21
8056.279066364536
 31
0.0
  0
LINE
  5
15566
330
167A9
100
AcDbEntity
  8
BOLT
100
AcDbLine
 10
4149.127507899645
 20
8226.279066364538
 30
0.0
 11
4089.127507899644
 21
8226.279066364538
 31
0.0
  0
LINE
  5
15567
330
167A9
100
AcDbEntity
  8
BOLT
100
AcDbLine
 10
3919.127507899644
 20
8256.279066364538
 30
0.0
 11
3919.127507899644
 21
8196.279066364535
 31
0.0
  0
LINE
  5
15568
330
167A9
100
AcDbEntity
  8
BOLT
100
AcDbLine
 10
4119.127507899643
 20
8256.279066364538
 30
0.0
 11
4119.127507899643
 21
8196.279066364535
 31
0.0
  0
LINE
  5
15569
330
167A9
100
AcDbEntity
  8
SUNPOU
100
AcDbLine
 10
3809.127507899641
 20
8836.279066364538
 30
0.0
 11
4019.127507899639
 21
8836.279066364538
 31
0.0
  0
TEXT
  5
1556A
330
167A9
100
AcDbEntity
  8
SUNPOU
100
AcDbText
 10
3494.277407771241
 20
8791.279066364538
 30
0.0
 40
90.0
  1
A
 41
0.6700000000000001
  7
00
 72
     4
 11
3520.120264914098
 21
8836.279066364538
 31
0.0
100
AcDbText
  0
LINE
  5
1556B
330
167A9
100
AcDbEntity
  8
SUNPOU
100
AcDbLine
 10
4019.127507899639
 20
8836.279066364538
 30
0.0
 11
4019.127507899639
 21
8686.279066364535
 31
0.0
  0
LINE
  5
1556C
330
167A9
100
AcDbEntity
  8
SUNPOU
100
AcDbLine
 10
3589.127507899644
 20
10126.27906636454
 30
0.0
 11
3139.127507899644
 21
10126.27906636454
 31
0.0
  0
LINE
  5
1556D
330
167A9
100
AcDbEntity
  8
KISO-1
100
AcDbLine
 10
4419.127507899641
 20
8626.279066364537
 30
0.0
 11
4419.12750789965
 21
7336.279066364537
 31
0.0
  0
LINE
  5
1556E
330
167A9
100
AcDbEntity
  8
KISO-1
100
AcDbLine
 10
7219.127507899644
 20
8626.279066364537
 30
0.0
 11
7219.127507899651
 21
7336.279066364537
 31
0.0
  0
CIRCLE
  5
1556F
330
167A9
100
AcDbEntity
  8
KISO-2
100
AcDbCircle
 10
6819.127507899643
 20
7836.279066364537
 30
0.0
 40
44.55
  0
LINE
  5
15572
330
167A9
100
AcDbEntity
  8
KISO-1
100
AcDbLine
 10
6419.127507899642
 20
7336.279066364537
 30
0.0
 11
6419.127507899641
 21
8626.279066364537
 31
0.0
  0
LINE
  5
15573
330
167A9
100
AcDbEntity
  8
SIN
100
AcDbLine
 10
6819.127507899643
 20
8693.279066364537
 30
0.0
 11
6819.127507899643
 21
7269.279066364537
 31
0.0
  0
LINE
  5
15574
330
167A9
100
AcDbEntity
  8
KISO-1
100
AcDbLine
 10
7219.127507899644
 20
7336.279066364537
 30
0.0
 11
6419.127507899642
 21
7336.279066364537
 31
0.0
  0
LINE
  5
15575
330
167A9
100
AcDbEntity
  8
BOLT
100
AcDbLine
 10
6689.127507899645
 20
7736.279066364537
 30
0.0
 11
6749.127507899643
 21
7736.279066364537
 31
0.0
  0
LINE
  5
15576
330
167A9
100
AcDbEntity
  8
BOLT
100
AcDbLine
 10
6719.127507899642
 20
7706.279066364537
 30
0.0
 11
6719.127507899642
 21
7766.279066364536
 31
0.0
  0
LINE
  5
15577
330
167A9
100
AcDbEntity
  8
BOLT
100
AcDbLine
 10
6919.127507899644
 20
7706.279066364537
 30
0.0
 11
6919.127507899644
 21
7766.279066364536
 31
0.0
  0
LINE
  5
15578
330
167A9
100
AcDbEntity
  8
BOLT
100
AcDbLine
 10
6949.127507899643
 20
7736.279066364537
 30
0.0
 11
6889.127507899643
 21
7736.279066364537
 31
0.0
  0
LINE
  5
15579
330
167A9
100
AcDbEntity
  8
SIN
100
AcDbLine
 10
6938.677507899644
 20
8126.279066364537
 30
0.0
 11
6699.577507899644
 21
8126.279066364537
 31
0.0
  0
LINE
  5
1557A
330
167A9
100
AcDbEntity
  8
SIN
100
AcDbLine
 10
6938.677507899644
 20
7836.279066364537
 30
0.0
 11
6699.577507899644
 21
7836.279066364537
 31
0.0
  0
CIRCLE
  5
1557C
330
167A9
100
AcDbEntity
  8
KISO-2
100
AcDbCircle
 10
6819.127507899643
 20
8126.279066364537
 30
0.0
 40
44.55
  0
LINE
  5
1557D
330
167A9
100
AcDbEntity
  8
KISO-3
100
AcDbLine
 10
6579.127507899645
 20
8366.279066364535
 30
0.0
 11
7059.127507899645
 21
8366.279066364535
 31
0.0
  0
LINE
  5
1557E
330
167A9
100
AcDbEntity
  8
BOLT
100
AcDbLine
 10
6689.127507899645
 20
7936.279066364534
 30
0.0
 11
6749.127507899643
 21
7936.279066364534
 31
0.0
  0
LINE
  5
1557F
330
167A9
100
AcDbEntity
  8
BOLT
100
AcDbLine
 10
6719.127507899642
 20
7966.279066364538
 30
0.0
 11
6719.127507899642
 21
7906.279066364537
 31
0.0
  0
LINE
  5
15580
330
167A9
100
AcDbEntity
  8
BOLT
100
AcDbLine
 10
6689.127507899645
 20
8026.279066364535
 30
0.0
 11
6749.127507899643
 21
8026.279066364535
 31
0.0
  0
LINE
  5
15581
330
167A9
100
AcDbEntity
  8
BOLT
100
AcDbLine
 10
6719.127507899642
 20
7996.279066364536
 30
0.0
 11
6719.127507899642
 21
8056.279066364536
 31
0.0
  0
LINE
  5
15582
330
167A9
100
AcDbEntity
  8
BOLT
100
AcDbLine
 10
6689.127507899645
 20
8226.279066364538
 30
0.0
 11
6749.127507899643
 21
8226.279066364538
 31
0.0
  0
LINE
  5
15583
330
167A9
100
AcDbEntity
  8
BOLT
100
AcDbLine
 10
6719.127507899642
 20
8256.279066364538
 30
0.0
 11
6719.127507899642
 21
8196.279066364535
 31
0.0
  0
LINE
  5
15584
330
167A9
100
AcDbEntity
  8
BOLT
100
AcDbLine
 10
6919.127507899644
 20
7966.279066364538
 30
0.0
 11
6919.127507899644
 21
7906.279066364537
 31
0.0
  0
LINE
  5
15585
330
167A9
100
AcDbEntity
  8
BOLT
100
AcDbLine
 10
6949.127507899643
 20
7936.279066364534
 30
0.0
 11
6889.127507899643
 21
7936.279066364534
 31
0.0
  0
LINE
  5
15586
330
167A9
100
AcDbEntity
  8
BOLT
100
AcDbLine
 10
6919.127507899644
 20
7996.279066364536
 30
0.0
 11
6919.127507899644
 21
8056.279066364536
 31
0.0
  0
LINE
  5
15587
330
167A9
100
AcDbEntity
  8
BOLT
100
AcDbLine
 10
6949.127507899643
 20
8026.279066364535
 30
0.0
 11
6889.127507899643
 21
8026.279066364535
 31
0.0
  0
LINE
  5
15588
330
167A9
100
AcDbEntity
  8
BOLT
100
AcDbLine
 10
6919.127507899644
 20
8256.279066364538
 30
0.0
 11
6919.127507899644
 21
8196.279066364535
 31
0.0
  0
LINE
  5
15589
330
167A9
100
AcDbEntity
  8
BOLT
100
AcDbLine
 10
6949.127507899643
 20
8226.279066364538
 30
0.0
 11
6889.127507899643
 21
8226.279066364538
 31
0.0
  0
LINE
  5
1558A
330
167A9
100
AcDbEntity
  8
KISO-1
100
AcDbLine
 10
6419.127507899641
 20
8626.279066364537
 30
0.0
 11
7219.127507899644
 21
8626.279066364537
 31
0.0
  0
TEXT
  5
1558B
330
167A9
100
AcDbEntity
  8
HIKIDASHI
100
AcDbText
 10
5003.553647771401
 20
9879.828338745873
 30
0.0
 40
90.0
  1
（鼻隠し外面）
  7
01
100
AcDbText
  0
TEXT
  5
1558C
330
167A9
100
AcDbEntity
  8
HIKIDASHI
100
AcDbText
 10
4894.907558109866
 20
10171.27906636454
 30
0.0
 40
90.0
  1
（土間コン後面位置）
  7
01
100
AcDbText
  0
TEXT
  5
155A8
330
167A9
100
AcDbEntity
  8
HIKIDASHI
100
AcDbText
 10
8894.580645725838
 20
4631.216304093142
 30
0.0
 40
135.0
  1
=
 41
0.6666666666666666
  7
00
 72
     4
 11
8950.294931440124
 21
4689.073446950286
 31
0.0
100
AcDbText
  0
TEXT
  5
155A9
330
167A9
100
AcDbEntity
  8
HIKIDASHI
100
AcDbText
 10
9080.229713783126
 20
4688.98730350149
 30
0.0
 40
67.5
  1
1
 41
0.6666666666666666
  7
00
 72
     4
 11
9098.443999497412
 21
4722.73730350149
 31
0.0
100
AcDbText
  0
LINE
  5
155AA
330
167A9
100
AcDbEntity
  8
HIKIDASHI
100
AcDbLine
 10
9212.819617758427
 20
4756.573446950286
 30
0.0
 11
9077.819617758432
 21
4621.573446950286
 31
0.0
  0
TEXT
  5
155AB
330
167A9
100
AcDbEntity
  8
HIKIDASHI
100
AcDbText
 10
9163.971680921948
 20
4621.573446950286
 30
0.0
 40
67.5
  1
40
 41
0.6666666666666666
  7
00
 72
     4
 11
9206.82882377909
 21
4655.323446950286
 31
0.0
100
AcDbText
  0
LINE
  5
155B0
330
167A9
100
AcDbEntity
  8
KISO-1
100
AcDbLine
 10
12019.12750789964
 20
8626.279066364537
 30
0.0
 11
12819.12750789963
 21
8626.279066364537
 31
0.0
  0
LINE
  5
155B1
330
167A9
100
AcDbEntity
  8
KISO-3
100
AcDbLine
 10
12179.12750789962
 20
8366.279066364535
 30
0.0
 11
12659.12750789963
 21
8366.279066364535
 31
0.0
  0
LINE
  5
155B2
330
167A9
100
AcDbEntity
  8
HIKIDASHI
100
AcDbLine
 10
12488.68152759176
 20
8277.980539100742
 30
0.0
 11
12113.15215164264
 21
8915.681200926824
 31
0.0
  0
LINE
  5
155B3
330
167A9
100
AcDbEntity
  8
HIKIDASHI
100
AcDbLine
 10
12301.95131345202
 20
8283.768007425384
 30
0.0
 11
12113.15215164264
 21
8915.681200926824
 31
0.0
  0
LINE
  5
155B4
330
167A9
100
AcDbEntity
  8
SUNPOU
100
AcDbLine
 10
12269.57750789964
 20
7836.279066364537
 30
0.0
 11
11689.12750789964
 21
7836.279066364537
 31
0.0
  0
LINE
  5
155B5
330
167A9
100
AcDbEntity
  8
SUNPOU
100
AcDbLine
 10
12269.57750789964
 20
7836.279066364537
 30
0.0
 11
11689.12750789964
 21
7836.279066364537
 31
0.0
  0
LINE
  5
155B6
330
167A9
100
AcDbEntity
  8
SUNPOU
100
AcDbLine
 10
12269.57750789964
 20
8126.279066364537
 30
0.0
 11
11689.12750789964
 21
8126.279066364537
 31
0.0
  0
LINE
  5
155B7
330
167A9
100
AcDbEntity
  8
SUNPOU
100
AcDbLine
 10
12269.57750789964
 20
8126.279066364537
 30
0.0
 11
11689.12750789964
 21
8126.279066364537
 31
0.0
  0
LINE
  5
155B8
330
167A9
100
AcDbEntity
  8
HIKIDASHI
100
AcDbLine
 10
12327.31965271764
 20
7786.372724886658
 30
0.0
 11
11966.8914761639
 21
7577.260660246178
 31
0.0
  0
LINE
  5
155B9
330
167A9
100
AcDbEntity
  8
KISO-1
100
AcDbLine
 10
12819.12750789963
 20
7336.279066364537
 30
0.0
 11
12019.12750789964
 21
7336.279066364537
 31
0.0
  0
LINE
  5
155BA
330
167A9
100
AcDbEntity
  8
SUNPOU
100
AcDbLine
 10
12804.12750789962
 20
6666.279066364538
 30
0.0
 11
12034.12750789963
 21
6666.279066364538
 31
0.0
  0
LINE
  5
155BB
330
167A9
100
AcDbEntity
  8
SUNPOU
100
AcDbLine
 10
12644.12750789964
 20
6876.279066364536
 30
0.0
 11
12194.12750789963
 21
6876.279066364536
 31
0.0
  0
LINE
  5
155BD
330
167A9
100
AcDbEntity
  8
HIKIDASHI
100
AcDbLine
 10
12352.65527388894
 20
8045.581206382836
 30
0.0
 11
11966.8914761639
 21
7577.260660246181
 31
0.0
  0
LINE
  5
155BE
330
167A9
100
AcDbEntity
  8
KISO-1
100
AcDbLine
 10
10019.12750789964
 20
8626.279066364537
 30
0.0
 11
10019.12750789965
 21
7336.279066364537
 31
0.0
  0
CIRCLE
  5
155BF
330
167A9
100
AcDbEntity
  8
KISO-2
100
AcDbCircle
 10
9619.127507899644
 20
7836.279066364537
 30
0.0
 40
44.55
  0
LINE
  5
155C2
330
167A9
100
AcDbEntity
  8
KISO-1
100
AcDbLine
 10
9219.127507899644
 20
7336.279066364537
 30
0.0
 11
9219.12750789964
 21
8626.279066364537
 31
0.0
  0
LINE
  5
155C3
330
167A9
100
AcDbEntity
  8
SIN
100
AcDbLine
 10
9619.127507899641
 20
8693.279066364537
 30
0.0
 11
9619.127507899644
 21
7269.279066364537
 31
0.0
  0
LINE
  5
155C4
330
167A9
100
AcDbEntity
  8
KISO-1
100
AcDbLine
 10
10019.12750789964
 20
7336.279066364537
 30
0.0
 11
9219.127507899644
 21
7336.279066364537
 31
0.0
  0
LINE
  5
155C5
330
167A9
100
AcDbEntity
  8
BOLT
100
AcDbLine
 10
9519.127507899645
 20
7706.279066364537
 30
0.0
 11
9519.127507899645
 21
7766.279066364536
 31
0.0
  0
LINE
  5
155C6
330
167A9
100
AcDbEntity
  8
BOLT
100
AcDbLine
 10
9489.127507899643
 20
7736.279066364537
 30
0.0
 11
9549.127507899644
 21
7736.279066364537
 31
0.0
  0
LINE
  5
155C7
330
167A9
100
AcDbEntity
  8
BOLT
100
AcDbLine
 10
9749.127507899643
 20
7736.279066364537
 30
0.0
 11
9689.127507899645
 21
7736.279066364537
 31
0.0
  0
LINE
  5
155C8
330
167A9
100
AcDbEntity
  8
BOLT
100
AcDbLine
 10
9719.127507899644
 20
7706.279066364537
 30
0.0
 11
9719.127507899644
 21
7766.279066364536
 31
0.0
  0
LINE
  5
155C9
330
167A9
100
AcDbEntity
  8
KISO-1
100
AcDbLine
 10
9219.12750789964
 20
8626.279066364537
 30
0.0
 11
10019.12750789964
 21
8626.279066364537
 31
0.0
  0
LINE
  5
155CA
330
167A9
100
AcDbEntity
  8
KISO-3
100
AcDbLine
 10
9379.127507899644
 20
8366.279066364535
 30
0.0
 11
9859.127507899644
 21
8366.279066364535
 31
0.0
  0
CIRCLE
  5
155CB
330
167A9
100
AcDbEntity
  8
KISO-2
100
AcDbCircle
 10
9619.127507899644
 20
8126.279066364537
 30
0.0
 40
44.55
  0
LINE
  5
155CD
330
167A9
100
AcDbEntity
  8
SIN
100
AcDbLine
 10
9738.677507899645
 20
8126.279066364537
 30
0.0
 11
9499.577507899642
 21
8126.279066364537
 31
0.0
  0
LINE
  5
155CE
330
167A9
100
AcDbEntity
  8
SIN
100
AcDbLine
 10
9738.677507899645
 20
7836.279066364537
 30
0.0
 11
9499.577507899642
 21
7836.279066364537
 31
0.0
  0
LINE
  5
155CF
330
167A9
100
AcDbEntity
  8
BOLT
100
AcDbLine
 10
9519.127507899645
 20
7966.279066364538
 30
0.0
 11
9519.127507899645
 21
7906.279066364537
 31
0.0
  0
LINE
  5
155D0
330
167A9
100
AcDbEntity
  8
BOLT
100
AcDbLine
 10
9489.127507899643
 20
7936.279066364534
 30
0.0
 11
9549.127507899644
 21
7936.279066364534
 31
0.0
  0
LINE
  5
155D1
330
167A9
100
AcDbEntity
  8
BOLT
100
AcDbLine
 10
9519.127507899645
 20
7996.279066364536
 30
0.0
 11
9519.127507899645
 21
8056.279066364536
 31
0.0
  0
LINE
  5
155D2
330
167A9
100
AcDbEntity
  8
BOLT
100
AcDbLine
 10
9489.127507899643
 20
8026.279066364535
 30
0.0
 11
9549.127507899644
 21
8026.279066364535
 31
0.0
  0
LINE
  5
155D3
330
167A9
100
AcDbEntity
  8
BOLT
100
AcDbLine
 10
9749.127507899643
 20
7936.279066364534
 30
0.0
 11
9689.127507899645
 21
7936.279066364534
 31
0.0
  0
LINE
  5
155D4
330
167A9
100
AcDbEntity
  8
BOLT
100
AcDbLine
 10
9719.127507899644
 20
7966.279066364538
 30
0.0
 11
9719.127507899644
 21
7906.279066364537
 31
0.0
  0
LINE
  5
155D5
330
167A9
100
AcDbEntity
  8
BOLT
100
AcDbLine
 10
9719.127507899644
 20
7996.279066364536
 30
0.0
 11
9719.127507899644
 21
8056.279066364536
 31
0.0
  0
LINE
  5
155D6
330
167A9
100
AcDbEntity
  8
BOLT
100
AcDbLine
 10
9749.127507899643
 20
8026.279066364535
 30
0.0
 11
9689.127507899645
 21
8026.279066364535
 31
0.0
  0
LINE
  5
155D7
330
167A9
100
AcDbEntity
  8
BOLT
100
AcDbLine
 10
9519.127507899645
 20
8256.279066364538
 30
0.0
 11
9519.127507899645
 21
8196.279066364535
 31
0.0
  0
LINE
  5
155D8
330
167A9
100
AcDbEntity
  8
BOLT
100
AcDbLine
 10
9489.127507899643
 20
8226.279066364538
 30
0.0
 11
9549.127507899644
 21
8226.279066364538
 31
0.0
  0
LINE
  5
155D9
330
167A9
100
AcDbEntity
  8
BOLT
100
AcDbLine
 10
9749.127507899643
 20
8226.279066364538
 30
0.0
 11
9689.127507899645
 21
8226.279066364538
 31
0.0
  0
LINE
  5
155DA
330
167A9
100
AcDbEntity
  8
BOLT
100
AcDbLine
 10
9719.127507899644
 20
8256.279066364538
 30
0.0
 11
9719.127507899644
 21
8196.279066364535
 31
0.0
  0
LINE
  5
155DB
330
167A9
100
AcDbEntity
  8
KISO-1
100
AcDbLine
 10
12019.12750789964
 20
7336.279066364537
 30
0.0
 11
12019.12750789964
 21
8626.279066364537
 31
0.0
  0
LINE
  5
155DC
330
167A9
100
AcDbEntity
  8
SUNPOU
100
AcDbLine
 10
11509.12750789964
 20
7351.279066364536
 30
0.0
 11
11509.12750789964
 21
8611.279066364536
 31
0.0
  0
LINE
  5
155DD
330
167A9
100
AcDbEntity
  8
SUNPOU
100
AcDbLine
 10
11719.12750789964
 20
7351.279066364536
 30
0.0
 11
11719.12750789964
 21
7821.279066364535
 31
0.0
  0
LINE
  5
155DE
330
167A9
100
AcDbEntity
  8
SUNPOU
100
AcDbLine
 10
12179.12750789962
 20
7566.279066364536
 30
0.0
 11
12179.12750789962
 21
6831.279066364537
 31
0.0
  0
LINE
  5
155DF
330
167A9
100
AcDbEntity
  8
SUNPOU
100
AcDbLine
 10
12019.12750789964
 20
7301.702201810378
 30
0.0
 11
12019.12750789964
 21
6621.279066364536
 31
0.0
  0
TEXT
  5
155E0
330
167A9
100
AcDbEntity
  8
SUNPOU
100
AcDbText
 10
12009.12750789963
 20
6921.279066364538
 30
0.0
 40
90.0
  1
160
 41
0.6666666666666666
  7
00
 72
     4
 11
12099.12750789962
 21
6966.279066364538
 31
0.0
100
AcDbText
  0
LINE
  5
155E1
330
167A9
100
AcDbEntity
  8
SUNPOU
100
AcDbLine
 10
12164.12750789964
 20
6876.279066364536
 30
0.0
 11
12034.12750789963
 21
6876.279066364536
 31
0.0
  0
LINE
  5
155E2
330
167A9
100
AcDbEntity
  8
SUNPOU
100
AcDbLine
 10
11989.12750789964
 20
7336.279066364537
 30
0.0
 11
11479.12750789964
 21
7336.279066364537
 31
0.0
  0
LINE
  5
155E3
330
167A9
100
AcDbEntity
  8
SUNPOU
100
AcDbLine
 10
11689.12750789964
 20
7336.279066364537
 30
0.0
 11
11689.12750789964
 21
7336.279066364537
 31
0.0
  0
TEXT
  5
155E4
330
167A9
100
AcDbEntity
  8
SUNPOU
100
AcDbText
 10
11674.12750789964
 20
7500.564780650252
 30
0.0
 40
90.0
  1
500
 50
90.0
 41
0.6666666666666666
  7
00
 72
     1
 11
11629.12750789964
 21
7586.279066364537
 31
0.0
100
AcDbText
 73
     2
  0
LINE
  5
155E5
330
167A9
100
AcDbEntity
  8
HIKIDASHI
100
AcDbLine
 10
11851.20636791584
 20
7577.260660246178
 30
0.0
 11
11966.8914761639
 21
7577.260660246178
 31
0.0
  0
TEXT
  5
155E6
330
167A9
100
AcDbEntity
  8
HIKIDASHI
100
AcDbText
 10
11861.20636791584
 20
7622.260660246181
 30
0.0
 40
90.0
  1
柱
  7
01
100
AcDbText
  0
TEXT
  5
155E7
330
167A9
100
AcDbEntity
  8
HIKIDASHI
100
AcDbText
 10
11163.53965204114
 20
8960.681200926819
 30
0.0
 40
89.55223880597012
  1
W ／
 41
0.6700000000000001
  7
00
100
AcDbText
  0
LINE
  5
155E8
330
167A9
100
AcDbEntity
  8
HIKIDASHI
100
AcDbLine
 10
10368.92491248722
 20
8915.681200926817
 30
0.0
 11
12113.15215164264
 21
8915.681200926817
 31
0.0
  0
TEXT
  5
155E9
330
167A9
100
AcDbEntity
  8
HIKIDASHI
100
AcDbText
 10
10403.20259743575
 20
8960.681200926819
 30
0.0
 40
90.00009018009018
  1
アンカーボルト
  7
01
100
AcDbText
  0
TEXT
  5
155EA
330
167A9
100
AcDbEntity
  8
HIKIDASHI
100
AcDbText
 10
11238.14046272436
 20
8987.110810565713
 30
0.0
 40
67.16417910447761
  1
1
 41
0.6700000000000001
  7
00
100
AcDbText
  0
LINE
  5
155EB
330
167A9
100
AcDbEntity
  8
SUNPOU
100
AcDbLine
 10
11719.12750789964
 20
8141.279066364537
 30
0.0
 11
11719.12750789964
 21
8611.279066364536
 31
0.0
  0
TEXT
  5
155EC
330
167A9
100
AcDbEntity
  8
SUNPOU
100
AcDbText
 10
11464.12750789964
 20
7862.707637793106
 30
0.0
 40
90.0
  1
1290
 50
90.0
 41
0.6666666666666666
  7
00
 72
     1
 11
11419.12750789964
 21
7981.279066364534
 31
0.0
100
AcDbText
 73
     2
  0
LINE
  5
155ED
330
167A9
100
AcDbEntity
  8
SUNPOU
100
AcDbLine
 10
11719.12750789964
 20
7851.279066364536
 30
0.0
 11
11719.12750789964
 21
8111.279066364536
 31
0.0
  0
TEXT
  5
155EE
330
167A9
100
AcDbEntity
  8
SUNPOU
100
AcDbText
 10
11674.12750789964
 20
7895.56478065025
 30
0.0
 40
90.0
  1
290
 50
90.0
 41
0.6666666666666666
  7
00
 72
     1
 11
11629.12750789964
 21
7981.279066364534
 31
0.0
100
AcDbText
 73
     2
  0
TEXT
  5
155EF
330
167A9
100
AcDbEntity
  8
SUNPOU
100
AcDbText
 10
11674.12750789964
 20
8290.564780650251
 30
0.0
 40
90.0
  1
500
 50
90.0
 41
0.6666666666666666
  7
00
 72
     1
 11
11629.12750789964
 21
8376.279066364537
 31
0.0
100
AcDbText
 73
     2
  0
TEXT
  5
155F0
330
167A9
100
AcDbEntity
  8
HIKIDASHI
100
AcDbText
 10
11720.72296968829
 20
8960.681200926819
 30
0.0
 40
90.00009018009018
  1
（別途）
  7
01
100
AcDbText
  0
LINE
  5
155F1
330
167A9
100
AcDbEntity
  8
SUNPOU
100
AcDbLine
 10
11989.12750789964
 20
8626.279066364537
 30
0.0
 11
11479.12750789964
 21
8626.279066364537
 31
0.0
  0
LINE
  5
155F2
330
167A9
100
AcDbEntity
  8
SUNPOU
100
AcDbLine
 10
11689.12750789964
 20
8626.279066364537
 30
0.0
 11
11689.12750789964
 21
8626.279066364537
 31
0.0
  0
TEXT
  5
155F3
330
167A9
100
AcDbEntity
  8
HIKIDASHI
100
AcDbText
 10
11479.00281562678
 20
8960.472214726726
 30
0.0
 40
89.55223880597012
  1
400
 41
0.6700000000000001
  7
00
100
AcDbText
  0
TEXT
  5
155F4
330
167A9
100
AcDbEntity
  8
HIKIDASHI
100
AcDbText
 10
11397.86743647366
 20
8971.875230777563
 30
0.0
 40
89.55223880597012
  1
x
 41
0.6700000000000001
  7
00
100
AcDbText
  0
TEXT
  5
155F5
330
167A9
100
AcDbEntity
  8
HIKIDASHI
100
AcDbText
 10
11326.03249928329
 20
8960.084755535147
 30
0.0
 40
67.16417910447761
  1
2
 41
0.6700000000000001
  7
00
100
AcDbText
  0
TEXT
  5
155F7
330
167A9
100
AcDbEntity
  8
HIKIDASHI
100
AcDbText
 10
12954.12750789965
 20
8838.462240836198
 30
0.0
 40
90.0
  1
（土間コン側面位置）
 50
90.0
  7
01
100
AcDbText
  0
TEXT
  5
155F8
330
167A9
100
AcDbEntity
  8
HIKIDASHI
100
AcDbText
 10
12595.92816095085
 20
8947.108330497737
 30
0.0
 40
90.0
  1
（ケラバ外面）
 50
90.0
  7
01
100
AcDbText
  0
LINE
  5
155F9
330
167A9
100
AcDbEntity
  8
SUNPOU
100
AcDbLine
 10
13269.12750789964
 20
7921.279066364538
 30
0.0
 11
13269.12750789964
 21
7751.279066364536
 31
0.0
  0
TEXT
  5
155FA
330
167A9
100
AcDbEntity
  8
SUNPOU
100
AcDbText
 10
13224.12750789963
 20
7734.107854207142
 30
0.0
 40
90.0
  1
200
 50
90.0
 41
0.6666666666666666
  7
00
 72
     4
 11
13179.12750789963
 21
7819.822139921427
 31
0.0
100
AcDbText
  0
LINE
  5
155FB
330
167A9
100
AcDbEntity
  8
SUNPOU
100
AcDbLine
 10
13479.12750789963
 20
7611.279066364534
 30
0.0
 11
13479.12750789963
 21
8351.279066364538
 31
0.0
  0
LINE
  5
155FD
330
167A9
100
AcDbEntity
  8
SIN
100
AcDbLine
 10
12419.12750789962
 20
8693.279066364537
 30
0.0
 11
12419.12750789962
 21
7269.279066364537
 31
0.0
  0
CIRCLE
  5
155FF
330
167A9
100
AcDbEntity
  8
KISO-2
100
AcDbCircle
 10
12419.12750789962
 20
7836.279066364537
 30
0.0
 40
44.55
  0
LINE
  5
15600
330
167A9
100
AcDbEntity
  8
KISO-1
100
AcDbLine
 10
12819.12750789963
 20
8626.279066364537
 30
0.0
 11
12819.12750789965
 21
7336.279066364537
 31
0.0
  0
LINE
  5
15601
330
167A9
100
AcDbEntity
  8
SUNPOU
100
AcDbLine
 10
12579.12750789963
 20
7736.279066364537
 30
0.0
 11
13314.12750789964
 21
7736.279066364537
 31
0.0
  0
LINE
  5
15602
330
167A9
100
AcDbEntity
  8
SUNPOU
100
AcDbLine
 10
12849.12750789964
 20
7336.279066364537
 30
0.0
 11
13509.12750789962
 21
7336.279066364537
 31
0.0
  0
LINE
  5
15603
330
167A9
100
AcDbEntity
  8
SUNPOU
100
AcDbLine
 10
12689.12750789964
 20
7596.279066364536
 30
0.0
 11
13509.12750789962
 21
7596.279066364536
 31
0.0
  0
LINE
  5
15604
330
167A9
100
AcDbEntity
  8
SUNPOU
100
AcDbLine
 10
12689.12750789964
 20
7596.279066364536
 30
0.0
 11
13509.12750789962
 21
7596.279066364536
 31
0.0
  0
LINE
  5
15605
330
167A9
100
AcDbEntity
  8
SUNPOU
100
AcDbLine
 10
12319.12750789962
 20
7676.279066364536
 30
0.0
 11
12319.12750789962
 21
7041.279066364538
 31
0.0
  0
LINE
  5
15606
330
167A9
100
AcDbEntity
  8
SUNPOU
100
AcDbLine
 10
12519.12750789963
 20
7676.279066364536
 30
0.0
 11
12519.12750789963
 21
7041.279066364538
 31
0.0
  0
LINE
  5
15607
330
167A9
100
AcDbEntity
  8
SUNPOU
100
AcDbLine
 10
12659.12750789963
 20
7566.279066364536
 30
0.0
 11
12659.12750789963
 21
6831.279066364537
 31
0.0
  0
LINE
  5
15608
330
167A9
100
AcDbEntity
  8
SUNPOU
100
AcDbLine
 10
12804.12750789962
 20
6876.279066364536
 30
0.0
 11
12674.12750789963
 21
6876.279066364536
 31
0.0
  0
TEXT
  5
15609
330
167A9
100
AcDbEntity
  8
SUNPOU
100
AcDbText
 10
12649.12750789963
 20
6921.279066364538
 30
0.0
 40
90.0
  1
160
 41
0.6666666666666666
  7
00
 72
     4
 11
12739.12750789963
 21
6966.279066364538
 31
0.0
100
AcDbText
  0
TEXT
  5
1560A
330
167A9
100
AcDbEntity
  8
SUNPOU
100
AcDbText
 10
12333.41322218534
 20
6711.279066364538
 30
0.0
 40
90.0
  1
800
 41
0.6666666666666666
  7
00
 72
     1
 11
12419.12750789962
 21
6756.279066364538
 31
0.0
100
AcDbText
 73
     2
  0
TEXT
  5
1560B
330
167A9
100
AcDbEntity
  8
SUNPOU
100
AcDbText
 10
12333.41322218534
 20
6921.279066364538
 30
0.0
 40
90.0
  1
480
 41
0.6666666666666666
  7
00
 72
     1
 11
12419.12750789962
 21
6966.279066364538
 31
0.0
100
AcDbText
 73
     2
  0
LINE
  5
1560C
330
167A9
100
AcDbEntity
  8
SUNPOU
100
AcDbLine
 10
12419.12750789962
 20
6858.850215751536
 30
0.0
 11
12419.12750789962
 21
6831.279066364537
 31
0.0
  0
LINE
  5
1560D
330
167A9
100
AcDbEntity
  8
SUNPOU
100
AcDbLine
 10
12504.12750789964
 20
7086.279066364537
 30
0.0
 11
12334.12750789963
 21
7086.279066364537
 31
0.0
  0
LINE
  5
1560E
330
167A9
100
AcDbEntity
  8
SUNPOU
100
AcDbLine
 10
12419.12750789962
 20
7062.364474672226
 30
0.0
 11
12419.12750789962
 21
7041.279066364538
 31
0.0
  0
TEXT
  5
1560F
330
167A9
100
AcDbEntity
  8
SUNPOU
100
AcDbText
 10
12333.41322218534
 20
7131.279066364538
 30
0.0
 40
90.0
  1
200
 41
0.6666666666666666
  7
00
 72
     1
 11
12419.12750789962
 21
7176.279066364536
 31
0.0
100
AcDbText
 73
     2
  0
LINE
  5
15610
330
167A9
100
AcDbEntity
  8
BOLT
100
AcDbLine
 10
12549.12750789964
 20
7736.279066364537
 30
0.0
 11
12489.12750789963
 21
7736.279066364537
 31
0.0
  0
LINE
  5
15611
330
167A9
100
AcDbEntity
  8
BOLT
100
AcDbLine
 10
12289.12750789963
 20
7736.279066364537
 30
0.0
 11
12349.12750789963
 21
7736.279066364537
 31
0.0
  0
LINE
  5
15612
330
167A9
100
AcDbEntity
  8
BOLT
100
AcDbLine
 10
12319.12750789962
 20
7706.279066364537
 30
0.0
 11
12319.12750789962
 21
7766.279066364536
 31
0.0
  0
LINE
  5
15613
330
167A9
100
AcDbEntity
  8
BOLT
100
AcDbLine
 10
12519.12750789963
 20
7706.279066364537
 30
0.0
 11
12519.12750789963
 21
7766.279066364536
 31
0.0
  0
TEXT
  5
15614
330
167A9
100
AcDbEntity
  8
SUNPOU
100
AcDbText
 10
13224.12750789963
 20
7411.128998278755
 30
0.0
 40
90.0
  1
140
 50
90.0
 41
0.6666666666666666
  7
00
 72
     4
 11
13179.12750789963
 21
7501.128998278756
 31
0.0
100
AcDbText
  0
LINE
  5
15615
330
167A9
100
AcDbEntity
  8
SUNPOU
100
AcDbLine
 10
13479.12750789963
 20
7351.279066364536
 30
0.0
 11
13479.12750789963
 21
7581.279066364537
 31
0.0
  0
LINE
  5
15616
330
167A9
100
AcDbEntity
  8
SUNPOU
100
AcDbLine
 10
13269.12750789964
 20
7596.279066364536
 30
0.0
 11
13269.12750789964
 21
7418.3103239567
 31
0.0
  0
TEXT
  5
15617
330
167A9
100
AcDbEntity
  8
SUNPOU
100
AcDbText
 10
13434.12750789964
 20
7380.564780650252
 30
0.0
 40
90.0
  1
260
 50
90.0
 41
0.6666666666666666
  7
00
 72
     1
 11
13389.12750789964
 21
7466.279066364538
 31
0.0
100
AcDbText
 73
     2
  0
LINE
  5
15618
330
167A9
100
AcDbEntity
  8
SUNPOU
100
AcDbLine
 10
13269.12750789964
 20
7721.279066364536
 30
0.0
 11
13269.12750789964
 21
7611.279066364534
 31
0.0
  0
LINE
  5
15619
330
167A9
100
AcDbEntity
  8
SUNPOU
100
AcDbLine
 10
12689.12750789964
 20
8366.279066364535
 30
0.0
 11
13509.12750789962
 21
8366.279066364535
 31
0.0
  0
LINE
  5
1561A
330
167A9
100
AcDbEntity
  8
SUNPOU
100
AcDbLine
 10
12689.12750789964
 20
8366.279066364535
 30
0.0
 11
13509.12750789962
 21
8366.279066364535
 31
0.0
  0
LINE
  5
1561B
330
167A9
100
AcDbEntity
  8
SUNPOU
100
AcDbLine
 10
12849.12750789964
 20
8626.279066364537
 30
0.0
 11
13509.12750789962
 21
8626.279066364537
 31
0.0
  0
LINE
  5
1561C
330
167A9
100
AcDbEntity
  8
SUNPOU
100
AcDbLine
 10
12579.12750789963
 20
8226.279066364536
 30
0.0
 11
13314.12750789964
 21
8226.279066364536
 31
0.0
  0
TEXT
  5
1561D
330
167A9
100
AcDbEntity
  8
SUNPOU
100
AcDbText
 10
13224.12750789963
 20
8371.429134450318
 30
0.0
 40
90.0
  1
140
 50
90.0
 41
0.6666666666666666
  7
00
 72
     4
 11
13179.12750789963
 21
8461.429134450318
 31
0.0
100
AcDbText
  0
LINE
  5
1561E
330
167A9
100
AcDbEntity
  8
SUNPOU
100
AcDbLine
 10
12579.12750789963
 20
7936.279066364534
 30
0.0
 11
13110.69739704141
 21
7936.279066364534
 31
0.0
  0
LINE
  5
1561F
330
167A9
100
AcDbEntity
  8
SUNPOU
100
AcDbLine
 10
12579.12750789963
 20
8026.279066364535
 30
0.0
 11
13110.69739704141
 21
8026.279066364535
 31
0.0
  0
CIRCLE
  5
15620
330
167A9
100
AcDbEntity
  8
KISO-2
100
AcDbCircle
 10
12419.12750789962
 20
8126.279066364537
 30
0.0
 40
44.55
  0
LINE
  5
15622
330
167A9
100
AcDbEntity
  8
BOLT
100
AcDbLine
 10
12549.12750789964
 20
8026.279066364535
 30
0.0
 11
12489.12750789963
 21
8026.279066364535
 31
0.0
  0
LINE
  5
15623
330
167A9
100
AcDbEntity
  8
BOLT
100
AcDbLine
 10
12549.12750789964
 20
7936.279066364534
 30
0.0
 11
12489.12750789963
 21
7936.279066364534
 31
0.0
  0
LINE
  5
15624
330
167A9
100
AcDbEntity
  8
SIN
100
AcDbLine
 10
12538.67750789964
 20
7836.279066364537
 30
0.0
 11
12299.57750789962
 21
7836.279066364537
 31
0.0
  0
LINE
  5
15625
330
167A9
100
AcDbEntity
  8
SIN
100
AcDbLine
 10
12538.67750789964
 20
8126.279066364537
 30
0.0
 11
12299.57750789962
 21
8126.279066364537
 31
0.0
  0
LINE
  5
15626
330
167A9
100
AcDbEntity
  8
BOLT
100
AcDbLine
 10
12289.12750789963
 20
7936.279066364534
 30
0.0
 11
12349.12750789963
 21
7936.279066364534
 31
0.0
  0
LINE
  5
15627
330
167A9
100
AcDbEntity
  8
BOLT
100
AcDbLine
 10
12319.12750789962
 20
7966.279066364538
 30
0.0
 11
12319.12750789962
 21
7906.279066364537
 31
0.0
  0
LINE
  5
15629
330
167A9
100
AcDbEntity
  8
BOLT
100
AcDbLine
 10
12289.12750789963
 20
8026.279066364535
 30
0.0
 11
12349.12750789963
 21
8026.279066364535
 31
0.0
  0
LINE
  5
1562A
330
167A9
100
AcDbEntity
  8
BOLT
100
AcDbLine
 10
12319.12750789962
 20
7996.279066364536
 30
0.0
 11
12319.12750789962
 21
8056.279066364536
 31
0.0
  0
LINE
  5
1562B
330
167A9
100
AcDbEntity
  8
BOLT
100
AcDbLine
 10
12519.12750789963
 20
7966.279066364538
 30
0.0
 11
12519.12750789963
 21
7906.279066364537
 31
0.0
  0
LINE
  5
1562C
330
167A9
100
AcDbEntity
  8
BOLT
100
AcDbLine
 10
12519.12750789963
 20
7996.279066364536
 30
0.0
 11
12519.12750789963
 21
8056.279066364536
 31
0.0
  0
LINE
  5
1562E
330
167A9
100
AcDbEntity
  8
BOLT
100
AcDbLine
 10
12549.12750789964
 20
8226.279066364538
 30
0.0
 11
12489.12750789963
 21
8226.279066364538
 31
0.0
  0
LINE
  5
15630
330
167A9
100
AcDbEntity
  8
BOLT
100
AcDbLine
 10
12289.12750789963
 20
8226.279066364538
 30
0.0
 11
12349.12750789963
 21
8226.279066364538
 31
0.0
  0
LINE
  5
15631
330
167A9
100
AcDbEntity
  8
BOLT
100
AcDbLine
 10
12319.12750789962
 20
8256.279066364538
 30
0.0
 11
12319.12750789962
 21
8196.279066364535
 31
0.0
  0
LINE
  5
15632
330
167A9
100
AcDbEntity
  8
BOLT
100
AcDbLine
 10
12519.12750789963
 20
8256.279066364538
 30
0.0
 11
12519.12750789963
 21
8196.279066364535
 31
0.0
  0
TEXT
  5
15633
330
167A9
100
AcDbEntity
  8
SUNPOU
100
AcDbText
 10
13224.12750789963
 20
8051.536071860729
 30
0.0
 40
90.0
  1
200
 50
90.0
 41
0.6666666666666666
  7
00
 72
     4
 11
13179.12750789963
 21
8137.250357575013
 31
0.0
100
AcDbText
  0
TEXT
  5
15634
330
167A9
100
AcDbEntity
  8
SUNPOU
100
AcDbText
 10
13224.12750789963
 20
7924.109493078764
 30
0.0
 40
90.0
  1
90
 50
90.0
 41
0.6666666666666666
  7
00
 72
     4
 11
13179.12750789963
 21
7981.252350221621
 31
0.0
100
AcDbText
  0
LINE
  5
15635
330
167A9
100
AcDbEntity
  8
SUNPOU
100
AcDbLine
 10
13479.12750789963
 20
8381.279066364538
 30
0.0
 11
13479.12750789963
 21
8611.279066364536
 31
0.0
  0
TEXT
  5
15636
330
167A9
100
AcDbEntity
  8
SUNPOU
100
AcDbText
 10
13434.12750789964
 20
8410.564780650252
 30
0.0
 40
90.0
  1
260
 50
90.0
 41
0.6666666666666666
  7
00
 72
     1
 11
13389.12750789964
 21
8496.279066364538
 31
0.0
100
AcDbText
 73
     2
  0
LINE
  5
15637
330
167A9
100
AcDbEntity
  8
SUNPOU
100
AcDbLine
 10
13269.12750789964
 20
8366.27906636454
 30
0.0
 11
13269.12750789964
 21
8544.247808772373
 31
0.0
  0
LINE
  5
15638
330
167A9
100
AcDbEntity
  8
SUNPOU
100
AcDbLine
 10
13269.12750789964
 20
8041.279066364536
 30
0.0
 11
13269.12750789964
 21
8211.279066364536
 31
0.0
  0
LINE
  5
15639
330
167A9
100
AcDbEntity
  8
SUNPOU
100
AcDbLine
 10
13269.12750789964
 20
8026.279066364535
 30
0.0
 11
13269.12750789964
 21
7936.279066364534
 31
0.0
  0
TEXT
  5
1563A
330
167A9
100
AcDbEntity
  8
SUNPOU
100
AcDbText
 10
13434.12750789964
 20
7895.56478065025
 30
0.0
 40
90.0
  1
770
 50
90.0
 41
0.6666666666666666
  7
00
 72
     1
 11
13389.12750789964
 21
7981.279066364534
 31
0.0
100
AcDbText
 73
     2
  0
LINE
  5
1563B
330
167A9
100
AcDbEntity
  8
SUNPOU
100
AcDbLine
 10
13246.09836071149
 20
7936.279066364534
 30
0.0
 11
13314.12750789964
 21
7936.279066364534
 31
0.0
  0
LINE
  5
1563C
330
167A9
100
AcDbEntity
  8
SUNPOU
100
AcDbLine
 10
13246.09836071149
 20
8026.279066364535
 30
0.0
 11
13314.12750789964
 21
8026.279066364535
 31
0.0
  0
LINE
  5
1563D
330
167A9
100
AcDbEntity
  8
SUNPOU
100
AcDbLine
 10
13269.12750789964
 20
8241.27906636454
 30
0.0
 11
13269.12750789964
 21
8351.279066364538
 31
0.0
  0
LINE
  5
1565F
330
167A9
100
AcDbEntity
  8
SUNPOU
100
AcDbLine
 10
3169.127507899644
 20
5847.529066364536
 30
0.0
 11
3169.127507899644
 21
5858.779066364537
 31
0.0
  0
LINE
  5
15689
330
167A9
100
AcDbEntity
  8
SUNPOU
100
AcDbLine
 10
3809.127507899644
 20
7111.279066364534
 30
0.0
 11
3719.127507899644
 21
7126.279066364535
 31
0.0
  0
LINE
  5
1568A
330
167A9
100
AcDbEntity
  8
SUNPOU
100
AcDbLine
 10
3719.127507899644
 20
7126.279066364535
 30
0.0
 11
3809.127507899644
 21
7141.279066364536
 31
0.0
  0
SOLID
  5
1568B
330
167A9
100
AcDbEntity
  8
SUNPOU
100
AcDbTrace
 10
3809.127507899644
 20
7111.279066364534
 30
0.0
 11
3809.127507899644
 21
7141.279066364536
 31
0.0
 12
3719.127507899644
 22
7126.279066364535
 32
0.0
 13
3719.127507899644
 23
7126.279066364535
 33
0.0
  0
LINE
  5
1568C
330
167A9
100
AcDbEntity
  8
SUNPOU
100
AcDbLine
 10
3809.127507899644
 20
7141.279066364536
 30
0.0
 11
3809.127507899644
 21
7111.279066364534
 31
0.0
  0
LINE
  5
1568E
330
167A9
100
AcDbEntity
  8
SUNPOU
100
AcDbLine
 10
3169.127507899644
 20
8137.529066364534
 30
0.0
 11
3169.127507899644
 21
8148.779066364538
 31
0.0
  0
LINE
  5
15690
330
167A9
100
AcDbEntity
  8
SUNPOU
100
AcDbLine
 10
3169.127507899644
 20
7825.029066364534
 30
0.0
 11
3169.127507899644
 21
7813.779066364536
 31
0.0
  0
LINE
  5
15692
330
167A9
100
AcDbEntity
  8
SUNPOU
100
AcDbLine
 10
3169.127507899644
 20
7847.529066364536
 30
0.0
 11
3169.127507899644
 21
7858.779066364538
 31
0.0
  0
LINE
  5
15694
330
167A9
100
AcDbEntity
  8
SUNPOU
100
AcDbLine
 10
3169.127507899644
 20
8115.029066364535
 30
0.0
 11
3169.127507899644
 21
8103.779066364536
 31
0.0
  0
LINE
  5
15695
330
167A9
100
AcDbEntity
  8
SUNPOU
100
AcDbLine
 10
3809.127507899641
 20
8851.279066364538
 30
0.0
 11
3719.127507899641
 21
8836.279066364538
 31
0.0
  0
LINE
  5
15696
330
167A9
100
AcDbEntity
  8
SUNPOU
100
AcDbLine
 10
3719.127507899641
 20
8836.279066364538
 30
0.0
 11
3809.127507899641
 21
8821.279066364537
 31
0.0
  0
SOLID
  5
15697
330
167A9
100
AcDbEntity
  8
SUNPOU
100
AcDbTrace
 10
3809.127507899641
 20
8851.279066364538
 30
0.0
 11
3809.127507899641
 21
8821.279066364537
 31
0.0
 12
3719.127507899641
 22
8836.279066364538
 32
0.0
 13
3719.127507899641
 23
8836.279066364538
 33
0.0
  0
LINE
  5
15698
330
167A9
100
AcDbEntity
  8
SUNPOU
100
AcDbLine
 10
3809.127507899641
 20
8821.279066364537
 30
0.0
 11
3809.127507899641
 21
8851.279066364538
 31
0.0
  0
LINE
  5
1569A
330
167A9
100
AcDbEntity
  8
SUNPOU
100
AcDbLine
 10
3169.127507899644
 20
10115.02906636454
 30
0.0
 11
3169.127507899644
 21
10103.77906636453
 31
0.0
  0
LINE
  5
156B2
330
167A9
100
AcDbEntity
  8
SUNPOU
100
AcDbLine
 10
12030.37750789963
 20
6666.279066364538
 30
0.0
 11
12041.62750789963
 21
6666.279066364538
 31
0.0
  0
LINE
  5
156B4
330
167A9
100
AcDbEntity
  8
SUNPOU
100
AcDbLine
 10
12030.37750789963
 20
6876.279066364536
 30
0.0
 11
12041.62750789963
 21
6876.279066364536
 31
0.0
  0
LINE
  5
156B6
330
167A9
100
AcDbEntity
  8
SUNPOU
100
AcDbLine
 10
12190.37750789963
 20
6876.279066364536
 30
0.0
 11
12201.62750789963
 21
6876.279066364536
 31
0.0
  0
LINE
  5
156B8
330
167A9
100
AcDbEntity
  8
SUNPOU
100
AcDbLine
 10
12167.87750789964
 20
6876.279066364536
 30
0.0
 11
12156.62750789963
 21
6876.279066364536
 31
0.0
  0
LINE
  5
156BA
330
167A9
100
AcDbEntity
  8
SUNPOU
100
AcDbLine
 10
11509.12750789964
 20
7347.529066364536
 30
0.0
 11
11509.12750789964
 21
7358.779066364538
 31
0.0
  0
LINE
  5
156BC
330
167A9
100
AcDbEntity
  8
SUNPOU
100
AcDbLine
 10
11719.12750789964
 20
7347.529066364536
 30
0.0
 11
11719.12750789964
 21
7358.779066364538
 31
0.0
  0
LINE
  5
156BE
330
167A9
100
AcDbEntity
  8
SUNPOU
100
AcDbLine
 10
11719.12750789964
 20
8137.529066364534
 30
0.0
 11
11719.12750789964
 21
8148.779066364538
 31
0.0
  0
LINE
  5
156C0
330
167A9
100
AcDbEntity
  8
SUNPOU
100
AcDbLine
 10
11719.12750789964
 20
7847.529066364536
 30
0.0
 11
11719.12750789964
 21
7858.779066364538
 31
0.0
  0
LINE
  5
156C2
330
167A9
100
AcDbEntity
  8
SUNPOU
100
AcDbLine
 10
11719.12750789964
 20
7825.029066364534
 30
0.0
 11
11719.12750789964
 21
7813.779066364536
 31
0.0
  0
LINE
  5
156C4
330
167A9
100
AcDbEntity
  8
SUNPOU
100
AcDbLine
 10
11719.12750789964
 20
8115.029066364535
 30
0.0
 11
11719.12750789964
 21
8103.779066364536
 31
0.0
  0
LINE
  5
156C6
330
167A9
100
AcDbEntity
  8
SUNPOU
100
AcDbLine
 10
11509.12750789964
 20
8615.029066364538
 30
0.0
 11
11509.12750789964
 21
8603.779066364536
 31
0.0
  0
LINE
  5
156C8
330
167A9
100
AcDbEntity
  8
SUNPOU
100
AcDbLine
 10
11719.12750789964
 20
8615.029066364538
 30
0.0
 11
11719.12750789964
 21
8603.779066364536
 31
0.0
  0
LINE
  5
156CA
330
167A9
100
AcDbEntity
  8
SUNPOU
100
AcDbLine
 10
12330.37750789963
 20
7086.279066364537
 30
0.0
 11
12341.62750789963
 21
7086.279066364537
 31
0.0
  0
LINE
  5
156CC
330
167A9
100
AcDbEntity
  8
SUNPOU
100
AcDbLine
 10
12507.87750789964
 20
7086.279066364537
 30
0.0
 11
12496.62750789964
 21
7086.279066364537
 31
0.0
  0
LINE
  5
156CE
330
167A9
100
AcDbEntity
  8
SUNPOU
100
AcDbLine
 10
12670.37750789963
 20
6876.279066364536
 30
0.0
 11
12681.62750789963
 21
6876.279066364536
 31
0.0
  0
LINE
  5
156D0
330
167A9
100
AcDbEntity
  8
SUNPOU
100
AcDbLine
 10
12647.87750789962
 20
6876.279066364536
 30
0.0
 11
12636.62750789964
 21
6876.279066364536
 31
0.0
  0
LINE
  5
156D2
330
167A9
100
AcDbEntity
  8
SUNPOU
100
AcDbLine
 10
12807.87750789962
 20
6666.279066364538
 30
0.0
 11
12796.62750789964
 21
6666.279066364538
 31
0.0
  0
LINE
  5
156D4
330
167A9
100
AcDbEntity
  8
SUNPOU
100
AcDbLine
 10
12807.87750789962
 20
6876.279066364536
 30
0.0
 11
12796.62750789964
 21
6876.279066364536
 31
0.0
  0
LINE
  5
156D6
330
167A9
100
AcDbEntity
  8
SUNPOU
100
AcDbLine
 10
13479.12750789963
 20
7347.529066364536
 30
0.0
 11
13479.12750789963
 21
7358.779066364538
 31
0.0
  0
LINE
  5
156D8
330
167A9
100
AcDbEntity
  8
SUNPOU
100
AcDbLine
 10
13269.12750789964
 20
7607.529066364536
 30
0.0
 11
13269.12750789964
 21
7618.779066364537
 31
0.0
  0
LINE
  5
156DA
330
167A9
100
AcDbEntity
  8
SUNPOU
100
AcDbLine
 10
13479.12750789963
 20
7607.529066364536
 30
0.0
 11
13479.12750789963
 21
7618.779066364537
 31
0.0
  0
LINE
  5
156DC
330
167A9
100
AcDbEntity
  8
SUNPOU
100
AcDbLine
 10
13479.12750789963
 20
7585.029066364538
 30
0.0
 11
13479.12750789963
 21
7573.779066364537
 31
0.0
  0
LINE
  5
156DE
330
167A9
100
AcDbEntity
  8
SUNPOU
100
AcDbLine
 10
13269.12750789964
 20
7747.529066364538
 30
0.0
 11
13269.12750789964
 21
7758.779066364536
 31
0.0
  0
LINE
  5
156E0
330
167A9
100
AcDbEntity
  8
SUNPOU
100
AcDbLine
 10
13269.12750789964
 20
7725.029066364538
 30
0.0
 11
13269.12750789964
 21
7713.779066364536
 31
0.0
  0
LINE
  5
156E2
330
167A9
100
AcDbEntity
  8
SUNPOU
100
AcDbLine
 10
13269.12750789964
 20
7947.529066364538
 30
0.0
 11
13269.12750789964
 21
7958.779066364535
 31
0.0
  0
LINE
  5
156E4
330
167A9
100
AcDbEntity
  8
SUNPOU
100
AcDbLine
 10
13269.12750789964
 20
7925.029066364537
 30
0.0
 11
13269.12750789964
 21
7913.779066364536
 31
0.0
  0
LINE
  5
156E6
330
167A9
100
AcDbEntity
  8
SUNPOU
100
AcDbLine
 10
13269.12750789964
 20
8037.529066364539
 30
0.0
 11
13269.12750789964
 21
8048.779066364536
 31
0.0
  0
LINE
  5
156E8
330
167A9
100
AcDbEntity
  8
SUNPOU
100
AcDbLine
 10
13269.12750789964
 20
8015.029066364538
 30
0.0
 11
13269.12750789964
 21
8003.779066364536
 31
0.0
  0
LINE
  5
156EA
330
167A9
100
AcDbEntity
  8
SUNPOU
100
AcDbLine
 10
13269.12750789964
 20
8237.529066364535
 30
0.0
 11
13269.12750789964
 21
8248.779066364535
 31
0.0
  0
LINE
  5
156EC
330
167A9
100
AcDbEntity
  8
SUNPOU
100
AcDbLine
 10
13269.12750789964
 20
8215.029066364534
 30
0.0
 11
13269.12750789964
 21
8203.779066364536
 31
0.0
  0
LINE
  5
156EE
330
167A9
100
AcDbEntity
  8
SUNPOU
100
AcDbLine
 10
13269.12750789964
 20
8355.029066364537
 30
0.0
 11
13269.12750789964
 21
8343.779066364538
 31
0.0
  0
LINE
  5
156F0
330
167A9
100
AcDbEntity
  8
SUNPOU
100
AcDbLine
 10
13479.12750789963
 20
8377.529066364537
 30
0.0
 11
13479.12750789963
 21
8388.779066364538
 31
0.0
  0
LINE
  5
156F2
330
167A9
100
AcDbEntity
  8
SUNPOU
100
AcDbLine
 10
13479.12750789963
 20
8355.029066364537
 30
0.0
 11
13479.12750789963
 21
8343.779066364538
 31
0.0
  0
LINE
  5
156F4
330
167A9
100
AcDbEntity
  8
SUNPOU
100
AcDbLine
 10
13479.12750789963
 20
8615.029066364538
 30
0.0
 11
13479.12750789963
 21
8603.779066364536
 31
0.0
  0
LINE
  5
15793
330
167A9
100
AcDbEntity
  8
U7
100
AcDbLine
 10
6590.706062185525
 20
3019.333194070902
 30
0.0
 11
8409.906062185525
 21
3019.333194070902
 31
0.0
  0
LINE
  5
15794
330
167A9
100
AcDbEntity
  8
1PL-M1
100
AcDbLine
 10
8652.306062185529
 20
2491.333194070902
 30
0.0
 11
6348.306062185526
 21
2491.333194070902
 31
0.0
  0
LINE
  5
15796
330
167A9
100
AcDbEntity
  8
U7
100
AcDbLine
 10
6580.306062185525
 20
2755.333194070902
 30
0.0
 11
8420.306062185519
 21
2755.333194070902
 31
0.0
  0
LINE
  5
15797
330
167A9
100
AcDbEntity
  8
U7
100
AcDbLine
 10
6580.306062185525
 20
2491.333194070902
 30
0.0
 11
8420.306062185519
 21
2491.333194070902
 31
0.0
  0
LINE
  5
15799
330
167A9
100
AcDbEntity
  8
U7
100
AcDbLine
 10
2729.191924633934
 20
2894.685413258395
 30
0.0
 11
3831.666180891755
 21
2894.685413258397
 31
0.0
  0
LINE
  5
1579A
330
167A9
100
AcDbEntity
  8
U7
100
AcDbLine
 10
2729.191924633934
 20
3054.685413258396
 30
0.0
 11
3831.66618089229
 21
3054.685413258396
 31
0.0
  0
LINE
  5
1579B
330
167A9
100
AcDbEntity
  8
U7
100
AcDbLine
 10
2729.191924633934
 20
2414.685413258395
 30
0.0
 11
3831.666180892971
 21
2414.685413258399
 31
0.0
  0
LINE
  5
1579C
330
167A9
100
AcDbEntity
  8
U7
100
AcDbLine
 10
2729.191924633934
 20
2574.685413258396
 30
0.0
 11
3831.666180892213
 21
2574.685413258398
 31
0.0
  0
LINE
  5
1579D
330
167A9
100
AcDbEntity
  8
U7
100
AcDbLine
 10
2729.191924633934
 20
2734.685413258398
 30
0.0
 11
3831.666180892628
 21
2734.685413258398
 31
0.0
  0
LINE
  5
1579E
330
167A9
100
AcDbEntity
  8
HIDE-S1
100
AcDbLine
 10
3896.429052763159
 20
2877.885413258399
 30
0.0
 11
2664.429052763158
 21
2877.885413258399
 31
0.0
  0
LINE
  5
1579F
330
167A9
100
AcDbEntity
  8
U7
100
AcDbLine
 10
2361.191924633935
 20
2189.885413258395
 30
0.0
 11
4199.666095789149
 21
2189.885413258398
 31
0.0
  0
LINE
  5
157A0
330
167A9
100
AcDbEntity
  8
U7
100
AcDbLine
 10
2729.191924633934
 20
2254.685413258394
 30
0.0
 11
3831.666180892366
 21
2254.685413258397
 31
0.0
  0
LINE
  5
157A1
330
167A9
100
AcDbEntity
  8
KISO
100
AcDbLine
 10
2168.429052763158
 20
2109.885413258393
 30
0.0
 11
4392.429052763158
 21
2109.885413258398
 31
0.0
  0
LINE
  5
157A2
330
167A9
100
AcDbEntity
  8
KISO
100
AcDbLine
 10
2168.429052763158
 20
1869.885413258395
 30
0.0
 11
4392.429052763158
 21
1869.885413258397
 31
0.0
  0
LINE
  5
157A3
330
167A9
100
AcDbEntity
  8
KISO
100
AcDbLine
 10
2168.429052763158
 20
2029.885413258393
 30
0.0
 11
4392.429052763158
 21
2029.885413258397
 31
0.0
  0
LINE
  5
157A4
330
167A9
100
AcDbEntity
  8
HATCH
100
AcDbLine
 10
3958.981779850356
 20
2877.885413258399
 30
0.0
 11
3190.981779850356
 21
2109.885413258395
 31
0.0
  0
LINE
  5
157A5
330
167A9
100
AcDbEntity
  8
HATCH
100
AcDbLine
 10
3911.464204154606
 20
2877.885413258399
 30
0.0
 11
3143.464204154629
 21
2109.885413258395
 31
0.0
  0
LINE
  5
157A6
330
167A9
100
AcDbEntity
  8
HATCH
100
AcDbLine
 10
3863.94662845889
 20
2877.885413258399
 30
0.0
 11
3095.946628458891
 21
2109.885413258395
 31
0.0
  0
LINE
  5
157A7
330
167A9
100
AcDbEntity
  8
HATCH
100
AcDbLine
 10
2904.91147706742
 20
2877.885413258399
 30
0.0
 11
2248.429052763153
 21
2221.402988954126
 31
0.0
  0
LINE
  5
157A8
330
167A9
100
AcDbEntity
  8
HATCH
100
AcDbLine
 10
2952.429052763164
 20
2877.885413258399
 30
0.0
 11
2248.429052763158
 21
2173.885413258389
 31
0.0
  0
LINE
  5
157A9
330
167A9
100
AcDbEntity
  8
HATCH
100
AcDbLine
 10
2999.946628458896
 20
2877.885413258399
 30
0.0
 11
2248.429052763153
 21
2126.367837562655
 31
0.0
  0
LINE
  5
157AA
330
167A9
100
AcDbEntity
  8
KISO
100
AcDbLine
 10
2248.429052763158
 20
2973.885413258394
 30
0.0
 11
2248.429052763158
 21
2109.885413258393
 31
0.0
  0
LINE
  5
157AD
330
167A9
100
AcDbEntity
  8
HATCH
100
AcDbLine
 10
3479.464204154631
 20
2877.885413258399
 30
0.0
 11
2711.464204154629
 21
2109.885413258393
 31
0.0
  0
LINE
  5
157AF
330
167A9
100
AcDbEntity
  8
HATCH
100
AcDbLine
 10
3431.946628458891
 20
2877.885413258399
 30
0.0
 11
2663.946628458897
 21
2109.885413258393
 31
0.0
  0
LINE
  5
157B0
330
167A9
100
AcDbEntity
  8
HATCH
100
AcDbLine
 10
3384.429052763159
 20
2877.885413258399
 30
0.0
 11
2616.429052763153
 21
2109.885413258393
 31
0.0
  0
LINE
  5
157B1
330
167A9
100
AcDbEntity
  8
U1
100
AcDbLine
 10
2729.191924633934
 20
3054.685413258396
 30
0.0
 11
2729.191924633934
 21
2247.485413258395
 31
0.0
  0
LINE
  5
157B2
330
167A9
100
AcDbEntity
  8
U1
100
AcDbLine
 10
3280.429052763159
 20
3054.685413258396
 30
0.0
 11
3280.429052763166
 21
2247.485413258395
 31
0.0
  0
LINE
  5
157B7
330
167A9
100
AcDbEntity
  8
KISO
100
AcDbLine
 10
2168.429052763158
 20
1869.885413258395
 30
0.0
 11
2168.429052763158
 21
2109.885413258393
 31
0.0
  0
CIRCLE
  5
157B9
330
167A9
100
AcDbEntity
  8
U7
100
AcDbCircle
 10
2361.191924633935
 20
2200.285413258395
 30
0.0
 40
10.4
  0
CIRCLE
  5
157BA
330
167A9
100
AcDbEntity
  8
U7
100
AcDbCircle
 10
2624.071924633935
 20
2200.285413258395
 30
0.0
 40
10.4
  0
LINE
  5
157BB
330
167A9
100
AcDbEntity
  8
U1
100
AcDbLine
 10
2409.191924633935
 20
2226.685413258395
 30
0.0
 11
2708.391924633936
 21
2226.685413258395
 31
0.0
  0
CIRCLE
  5
157BC
330
167A9
100
AcDbEntity
  8
U7
100
AcDbCircle
 10
2721.991924633936
 20
2414.685413258395
 30
0.0
 40
7.2
  0
CIRCLE
  5
157BD
330
167A9
100
AcDbEntity
  8
U7
100
AcDbCircle
 10
2721.991924633936
 20
2254.685413258394
 30
0.0
 40
7.2
  0
ARC
  5
157BE
330
167A9
100
AcDbEntity
  8
U1
100
AcDbCircle
 10
2708.391924633936
 20
2247.485413258395
 30
0.0
 40
20.8
100
AcDbArc
 50
270.0
 51
0.0
  0
CIRCLE
  5
157C2
330
167A9
100
AcDbEntity
  8
U7
100
AcDbCircle
 10
2886.951924633939
 20
2200.285413258395
 30
0.0
 40
10.4
  0
CIRCLE
  5
157C3
330
167A9
100
AcDbEntity
  8
U7
100
AcDbCircle
 10
3149.831924633938
 20
2200.285413258395
 30
0.0
 40
10.4
  0
CIRCLE
  5
157C4
330
167A9
100
AcDbEntity
  8
U7
100
AcDbCircle
 10
3412.711924633937
 20
2200.285413258395
 30
0.0
 40
10.4
  0
LINE
  5
157C5
330
167A9
100
AcDbEntity
  8
HATCH
100
AcDbLine
 10
2120.386010772775
 20
3117.885413258396
 30
0.0
 11
1976.386010772776
 21
2973.885413258394
 31
0.0
  0
LINE
  5
157C6
330
167A9
100
AcDbEntity
  8
HATCH
100
AcDbLine
 10
2025.35085938131
 20
3117.885413258396
 30
0.0
 11
1881.350859381306
 21
2973.885413258395
 31
0.0
  0
LINE
  5
157C7
330
167A9
100
AcDbEntity
  8
HATCH
100
AcDbLine
 10
2072.868435077031
 20
3117.885413258396
 30
0.0
 11
1928.868435077031
 21
2973.885413258395
 31
0.0
  0
LINE
  5
157C8
330
167A9
100
AcDbEntity
  8
KISO
100
AcDbLine
 10
1720.886240370048
 20
2973.885413258394
 30
0.0
 11
2248.429052763158
 21
2973.885413258394
 31
0.0
  0
LINE
  5
157C9
330
167A9
100
AcDbEntity
  8
KISO
100
AcDbLine
 10
1720.886240370048
 20
2877.885413258399
 30
0.0
 11
2248.429052763158
 21
2877.885413258394
 31
0.0
  0
LINE
  5
157CA
330
167A9
100
AcDbEntity
  8
KISO
100
AcDbLine
 10
2977.911924633931
 20
3117.885413258396
 30
0.0
 11
1720.886240370048
 21
3117.885413258394
 31
0.0
  0
LINE
  5
157CD
330
167A9
100
AcDbEntity
  8
HATCH
100
AcDbLine
 10
2803.472773955737
 20
3068.285413258398
 30
0.0
 11
2753.872773955739
 21
3117.885413258396
 31
0.0
  0
LINE
  5
157CE
330
167A9
100
AcDbEntity
  8
HATCH
100
AcDbLine
 10
2504.868435077014
 20
3117.885413258396
 30
0.0
 11
2264.86843507702
 21
2877.885413258399
 31
0.0
  0
LINE
  5
157CF
330
167A9
100
AcDbEntity
  8
HATCH
100
AcDbLine
 10
2599.903586468554
 20
3117.885413258396
 30
0.0
 11
2359.903586468543
 21
2877.885413258399
 31
0.0
  0
LINE
  5
157D0
330
167A9
100
AcDbEntity
  8
HATCH
100
AcDbLine
 10
2552.386010772758
 20
3117.885413258396
 30
0.0
 11
2312.386010772757
 21
2877.885413258395
 31
0.0
  0
CIRCLE
  5
157D1
330
167A9
100
AcDbEntity
  8
U7
100
AcDbCircle
 10
2721.991924633936
 20
3054.685413258396
 30
0.0
 40
7.2
  0
LINE
  5
157D2
330
167A9
100
AcDbEntity
  8
KISO
100
AcDbLine
 10
2664.429052763158
 20
3117.885413258396
 30
0.0
 11
2664.429052763158
 21
2877.885413258399
 31
0.0
  0
LINE
  5
157D3
330
167A9
100
AcDbEntity
  8
HATCH
100
AcDbLine
 10
2425.393901371688
 20
2877.885413258394
 30
0.0
 11
2248.429052763153
 21
2700.920564649861
 31
0.0
  0
LINE
  5
157D4
330
167A9
100
AcDbEntity
  8
KISO
100
AcDbLine
 10
2664.429052763158
 20
2877.885413258399
 30
0.0
 11
2248.429052763158
 21
2877.885413258394
 31
0.0
  0
LINE
  5
157D5
330
167A9
100
AcDbEntity
  8
HATCH
100
AcDbLine
 10
2520.429052763164
 20
2877.885413258395
 30
0.0
 11
2248.429052763158
 21
2605.885413258388
 31
0.0
  0
LINE
  5
157D6
330
167A9
100
AcDbEntity
  8
HATCH
100
AcDbLine
 10
2472.911477067426
 20
2877.885413258395
 30
0.0
 11
2248.429052763153
 21
2653.402988954121
 31
0.0
  0
CIRCLE
  5
157D9
330
167A9
100
AcDbEntity
  8
U7
100
AcDbCircle
 10
2721.991924633936
 20
2574.685413258398
 30
0.0
 40
7.2
  0
CIRCLE
  5
157DA
330
167A9
100
AcDbEntity
  8
U7
100
AcDbCircle
 10
2721.991924633936
 20
2734.685413258398
 30
0.0
 40
7.2
  0
CIRCLE
  5
157DB
330
167A9
100
AcDbEntity
  8
U7
100
AcDbCircle
 10
2721.991924633936
 20
2894.685413258395
 30
0.0
 40
7.2
  0
LINE
  5
157DC
330
167A9
100
AcDbEntity
  8
HATCH
100
AcDbLine
 10
2755.955198260001
 20
3068.285413258398
 30
0.0
 11
2706.355198259995
 21
3117.885413258396
 31
0.0
  0
LINE
  5
157DD
330
167A9
100
AcDbEntity
  8
KISO
100
AcDbLine
 10
3440.386180892383
 20
3089.085413258395
 30
0.0
 11
3287.666180892382
 21
2897.085413258397
 31
0.0
  0
LINE
  5
157DE
330
167A9
100
AcDbEntity
  8
KISO
100
AcDbLine
 10
2977.911924633931
 20
3089.085413258395
 30
0.0
 11
2825.191924633934
 21
2897.085413258397
 31
0.0
  0
LINE
  5
157DF
330
167A9
100
AcDbEntity
  8
KISO
100
AcDbLine
 10
3120.471924633941
 20
3089.085413258395
 30
0.0
 11
3273.191924633936
 21
2897.085413258397
 31
0.0
  0
LINE
  5
157E2
330
167A9
100
AcDbEntity
  8
HASIRA
100
AcDbLine
 10
3440.386180892389
 20
2894.685413258397
 30
0.0
 11
3440.386180892389
 21
3406.742322023879
 31
0.0
  0
LINE
  5
157E4
330
167A9
100
AcDbEntity
  8
KISO
100
AcDbLine
 10
3433.191924633936
 20
3117.885413258396
 30
0.0
 11
3120.471924633934
 21
3117.885413258396
 31
0.0
  0
LINE
  5
157E5
330
167A9
100
AcDbEntity
  8
HATCH
100
AcDbLine
 10
2850.990349651471
 20
3068.285413258398
 30
0.0
 11
2801.390349651465
 21
3117.885413258396
 31
0.0
  0
LINE
  5
157E6
330
167A9
100
AcDbEntity
  8
HATCH
100
AcDbLine
 10
3235.472773955722
 20
3068.285413258398
 30
0.0
 11
3185.872773955727
 21
3117.885413258396
 31
0.0
  0
LINE
  5
157E7
330
167A9
100
AcDbEntity
  8
HATCH
100
AcDbLine
 10
3282.990349651479
 20
3068.285413258398
 30
0.0
 11
3233.390349651472
 21
3117.885413258396
 31
0.0
  0
LINE
  5
157E8
330
167A9
100
AcDbEntity
  8
HATCH
100
AcDbLine
 10
3330.50792534721
 20
3068.285413258398
 30
0.0
 11
3280.907925347205
 21
3117.885413258396
 31
0.0
  0
LINE
  5
157E9
330
167A9
100
AcDbEntity
  8
U7
100
AcDbLine
 10
8116.306062185525
 20
2491.333194070902
 30
0.0
 11
8116.306062185527
 21
2107.358500742754
 31
0.0
  0
LINE
  5
157EB
330
167A9
100
AcDbEntity
  8
U7
100
AcDbLine
 10
6884.306062185527
 20
2107.332999742968
 30
0.0
 11
6884.306062185527
 21
2491.333194070902
 31
0.0
  0
LINE
  5
157EE
330
167A9
100
AcDbEntity
  8
1PL-M1
100
AcDbLine
 10
7500.306062185527
 20
3251.333194070902
 30
0.0
 11
7500.306062185527
 21
1731.333194070899
 31
0.0
  0
LINE
  5
157EF
330
167A9
100
AcDbEntity
  8
HATCH
100
AcDbLine
 10
4312.429052763166
 20
2846.850261866936
 30
0.0
 11
3575.464204154624
 21
2109.885413258398
 31
0.0
  0
LINE
  5
157F0
330
167A9
100
AcDbEntity
  8
HATCH
100
AcDbLine
 10
4310.981779850362
 20
2797.885413258395
 30
0.0
 11
3622.981779850363
 21
2109.885413258398
 31
0.0
  0
LINE
  5
157F1
330
167A9
100
AcDbEntity
  8
HATCH
100
AcDbLine
 10
4312.429052763166
 20
2751.815110475417
 30
0.0
 11
3670.499355546095
 21
2109.885413258398
 31
0.0
  0
LINE
  5
157F2
330
167A9
100
AcDbEntity
  8
U1
100
AcDbLine
 10
3831.666180892382
 20
3054.685413258396
 30
0.0
 11
3831.666180892382
 21
2247.485413258395
 31
0.0
  0
LINE
  5
157F4
330
167A9
100
AcDbEntity
  8
KISO
100
AcDbLine
 10
4312.429052763166
 20
2973.885413258394
 30
0.0
 11
4312.429052763166
 21
2109.885413258393
 31
0.0
  0
LINE
  5
157F5
330
167A9
100
AcDbEntity
  8
HATCH
100
AcDbLine
 10
4356.80509583351
 20
2029.885413258395
 30
0.0
 11
4388.80509583351
 21
1974.459787416195
 31
0.0
  0
LINE
  5
157F6
330
167A9
100
AcDbEntity
  8
HATCH
100
AcDbLine
 10
4328.429052763171
 20
1869.885413258397
 30
0.0
 11
4392.429052763158
 21
1980.736664942783
 31
0.0
  0
LINE
  5
157FA
330
167A9
100
AcDbEntity
  8
U1
100
AcDbLine
 10
4151.666180892382
 20
2226.685413258395
 30
0.0
 11
3852.466180892383
 21
2226.685413258395
 31
0.0
  0
CIRCLE
  5
157FB
330
167A9
100
AcDbEntity
  8
U7
100
AcDbCircle
 10
3675.591924633936
 20
2200.285413258395
 30
0.0
 40
10.4
  0
CIRCLE
  5
157FC
330
167A9
100
AcDbEntity
  8
U7
100
AcDbCircle
 10
3938.47192463394
 20
2200.285413258395
 30
0.0
 40
10.4
  0
CIRCLE
  5
157FD
330
167A9
100
AcDbEntity
  8
U7
100
AcDbCircle
 10
3838.866180892383
 20
2414.685413258395
 30
0.0
 40
7.2
  0
CIRCLE
  5
157FE
330
167A9
100
AcDbEntity
  8
U7
100
AcDbCircle
 10
3838.866180892383
 20
2254.685413258394
 30
0.0
 40
7.2
  0
ARC
  5
157FF
330
167A9
100
AcDbEntity
  8
U1
100
AcDbCircle
 10
3852.466180892383
 20
2247.485413258395
 30
0.0
 40
20.8
100
AcDbArc
 50
180.0
 51
270.0
  0
LINE
  5
15800
330
167A9
100
AcDbEntity
  8
HATCH
100
AcDbLine
 10
4312.429052763166
 20
2367.332686171205
 30
0.0
 11
4054.981779850355
 21
2109.885413258398
 31
0.0
  0
LINE
  5
15801
330
167A9
100
AcDbEntity
  8
HATCH
100
AcDbLine
 10
4312.429052763166
 20
2319.815110475466
 30
0.0
 11
4102.499355546095
 21
2109.885413258398
 31
0.0
  0
LINE
  5
15802
330
167A9
100
AcDbEntity
  8
HATCH
100
AcDbLine
 10
4312.429052763166
 20
2272.297534779718
 30
0.0
 11
4150.016931241832
 21
2109.885413258398
 31
0.0
  0
CIRCLE
  5
15803
330
167A9
100
AcDbEntity
  8
U7
100
AcDbCircle
 10
4199.666180892381
 20
2200.285413258395
 30
0.0
 40
10.4
  0
LINE
  5
15804
330
167A9
100
AcDbEntity
  8
HATCH
100
AcDbLine
 10
4360.429052763171
 20
1925.311039100604
 30
0.0
 11
4392.429052763171
 21
1869.885413258397
 31
0.0
  0
LINE
  5
15805
330
167A9
100
AcDbEntity
  8
KISO
100
AcDbLine
 10
4392.429052763158
 20
1869.885413258397
 30
0.0
 11
4392.429052763158
 21
2109.885413258398
 31
0.0
  0
LINE
  5
15807
330
167A9
100
AcDbEntity
  8
U7
100
AcDbLine
 10
8116.306062185527
 20
2107.358500742754
 30
0.0
 11
6884.306062185527
 21
2107.332999742968
 31
0.0
  0
LINE
  5
1580A
330
167A9
100
AcDbEntity
  8
KISO
100
AcDbLine
 10
3582.946180892386
 20
3117.885413258396
 30
0.0
 11
4734.604572265885
 21
3117.885413258394
 31
0.0
  0
LINE
  5
1580B
330
167A9
100
AcDbEntity
  8
KISO
100
AcDbLine
 10
4734.604572265886
 20
2877.885413258394
 30
0.0
 11
4312.429052763166
 21
2877.885413258394
 31
0.0
  0
LINE
  5
1580C
330
167A9
100
AcDbEntity
  8
KISO
100
AcDbLine
 10
4734.604572265886
 20
2973.885413258394
 30
0.0
 11
4312.429052763166
 21
2973.885413258394
 31
0.0
  0
LINE
  5
1580E
330
167A9
100
AcDbEntity
  8
HATCH
100
AcDbLine
 10
4201.783758434369
 20
3117.885413258396
 30
0.0
 11
3961.783758434363
 21
2877.885413258395
 31
0.0
  0
LINE
  5
1580F
330
167A9
100
AcDbEntity
  8
HATCH
100
AcDbLine
 10
4296.818909825833
 20
3117.885413258396
 30
0.0
 11
4056.818909825834
 21
2877.885413258395
 31
0.0
  0
LINE
  5
15810
330
167A9
100
AcDbEntity
  8
HATCH
100
AcDbLine
 10
4249.301334130087
 20
3117.885413258396
 30
0.0
 11
4009.301334130088
 21
2877.885413258395
 31
0.0
  0
CIRCLE
  5
15811
330
167A9
100
AcDbEntity
  8
U7
100
AcDbCircle
 10
3838.866180892383
 20
3054.685413258396
 30
0.0
 40
7.2
  0
LINE
  5
15812
330
167A9
100
AcDbEntity
  8
KISO
100
AcDbLine
 10
3582.946180892386
 20
3089.085413258395
 30
0.0
 11
3735.666180892382
 21
2897.085413258397
 31
0.0
  0
LINE
  5
15813
330
167A9
100
AcDbEntity
  8
KISO
100
AcDbLine
 10
3896.429052763159
 20
3117.885413258396
 30
0.0
 11
3896.429052763159
 21
2877.885413258399
 31
0.0
  0
LINE
  5
15815
330
167A9
100
AcDbEntity
  8
KISO
100
AcDbLine
 10
3896.429052763159
 20
2877.885413258399
 30
0.0
 11
4312.429052763166
 21
2877.885413258394
 31
0.0
  0
CIRCLE
  5
15816
330
167A9
100
AcDbEntity
  8
U7
100
AcDbCircle
 10
3838.866180892383
 20
2574.685413258398
 30
0.0
 40
7.2
  0
CIRCLE
  5
15817
330
167A9
100
AcDbEntity
  8
U7
100
AcDbCircle
 10
3838.866180892383
 20
2734.685413258398
 30
0.0
 40
7.2
  0
CIRCLE
  5
15818
330
167A9
100
AcDbEntity
  8
U7
100
AcDbCircle
 10
3838.866180892383
 20
2894.685413258395
 30
0.0
 40
7.2
  0
LINE
  5
15819
330
167A9
100
AcDbEntity
  8
HATCH
100
AcDbLine
 10
3810.025501042949
 20
3068.285413258398
 30
0.0
 11
3760.425501042943
 21
3117.885413258397
 31
0.0
  0
LINE
  5
1581A
330
167A9
100
AcDbEntity
  8
HATCH
100
AcDbLine
 10
3762.50792534721
 20
3068.285413258398
 30
0.0
 11
3712.907925347205
 21
3117.885413258397
 31
0.0
  0
LINE
  5
1581B
330
167A9
100
AcDbEntity
  8
HATCH
100
AcDbLine
 10
3714.99034965146
 20
3068.285413258398
 30
0.0
 11
3665.390349651467
 21
3117.885413258397
 31
0.0
  0
LINE
  5
1581C
330
167A9
100
AcDbEntity
  8
HATCH
100
AcDbLine
 10
4728.818909825814
 20
3117.885413258396
 30
0.0
 11
4584.818909825814
 21
2973.885413258394
 31
0.0
  0
LINE
  5
1581D
330
167A9
100
AcDbEntity
  8
HATCH
100
AcDbLine
 10
4681.301334130072
 20
3117.885413258396
 30
0.0
 11
4537.301334130076
 21
2973.885413258395
 31
0.0
  0
LINE
  5
1581E
330
167A9
100
AcDbEntity
  8
HATCH
100
AcDbLine
 10
4734.604572265886
 20
3076.153500002671
 30
0.0
 11
4632.336485521606
 21
2973.885413258395
 31
0.0
  0
LINE
  5
15822
330
167A9
100
AcDbEntity
  8
U7
100
AcDbLine
 10
6580.306062185525
 20
2491.333194070902
 30
0.0
 11
6580.306062185525
 21
3008.933194070902
 31
0.0
  0
ARC
  5
15823
330
167A9
100
AcDbEntity
  8
U7
100
AcDbCircle
 10
6590.706062185525
 20
3008.933194070902
 30
0.0
 40
10.4
100
AcDbArc
 50
90.0
 51
180.0
  0
LINE
  5
15824
330
167A9
100
AcDbEntity
  8
HIDE-M1
100
AcDbLine
 10
6889.106062185525
 20
2875.333194070897
 30
0.0
 11
8116.306062185525
 21
2875.333194070902
 31
0.0
  0
LINE
  5
15825
330
167A9
100
AcDbEntity
  8
U7
100
AcDbLine
 10
6843.186062185525
 20
2491.333194070902
 30
0.0
 11
6843.186062185525
 21
3019.333194070902
 31
0.0
  0
LINE
  5
15826
330
167A9
100
AcDbEntity
  8
U7
100
AcDbLine
 10
7106.066062185529
 20
2491.333194070902
 30
0.0
 11
7106.066062185522
 21
3019.333194070902
 31
0.0
  0
LINE
  5
15827
330
167A9
100
AcDbEntity
  8
U7
100
AcDbLine
 10
7368.946062185521
 20
2491.333194070902
 30
0.0
 11
7368.946062185521
 21
3019.333194070902
 31
0.0
  0
LINE
  5
15828
330
167A9
100
AcDbEntity
  8
HIDE-M1
100
AcDbLine
 10
6884.306062185527
 20
2491.333194070902
 30
0.0
 11
6884.306062185527
 21
2870.533194070898
 31
0.0
  0
LINE
  5
15829
330
167A9
100
AcDbEntity
  8
HIDE-M1
100
AcDbLine
 10
6884.306062185527
 20
2491.333194070902
 30
0.0
 11
6884.306062185527
 21
2870.533194070898
 31
0.0
  0
ARC
  5
1582A
330
167A9
100
AcDbEntity
  8
HIDE-M1
100
AcDbCircle
 10
6889.106062185525
 20
2870.533194070898
 30
0.0
 40
4.799999999999999
100
AcDbArc
 50
90.0
 51
180.0
  0
ARC
  5
1582B
330
167A9
100
AcDbEntity
  8
HIDE-M1
100
AcDbCircle
 10
6889.106062185525
 20
2870.533194070898
 30
0.0
 40
4.799999999999999
100
AcDbArc
 50
90.0
 51
180.0
  0
LINE
  5
1582C
330
167A9
100
AcDbEntity
  8
U7
100
AcDbLine
 10
7631.82606218553
 20
2491.333194070902
 30
0.0
 11
7631.826062185526
 21
3019.333194070902
 31
0.0
  0
LINE
  5
1582D
330
167A9
100
AcDbEntity
  8
U7
100
AcDbLine
 10
7894.706062185526
 20
2491.333194070902
 30
0.0
 11
7894.706062185526
 21
3019.333194070902
 31
0.0
  0
LINE
  5
1582E
330
167A9
100
AcDbEntity
  8
U7
100
AcDbLine
 10
8157.586062185528
 20
2491.333194070902
 30
0.0
 11
8157.586062185524
 21
3019.333194070902
 31
0.0
  0
LINE
  5
1582F
330
167A9
100
AcDbEntity
  8
HIDE-M1
100
AcDbLine
 10
8116.306062185525
 20
2491.333194070902
 30
0.0
 11
8116.306062185525
 21
2875.333194070902
 31
0.0
  0
LINE
  5
15830
330
167A9
100
AcDbEntity
  8
U7
100
AcDbLine
 10
8420.306062185526
 20
3008.933194070902
 30
0.0
 11
8420.306062185526
 21
2491.333194070902
 31
0.0
  0
ARC
  5
15831
330
167A9
100
AcDbEntity
  8
U7
100
AcDbCircle
 10
8409.906062185525
 20
3008.933194070902
 30
0.0
 40
10.4
100
AcDbArc
 50
0.0
 51
90.0
  0
LINE
  5
158CF
330
167A9
100
AcDbEntity
  8
SUNPOU
100
AcDbLine
 10
6580.306062185525
 20
3171.3331940709
 30
0.0
 11
6580.306062185525
 21
3447.711278313303
 31
0.0
  0
LINE
  5
158D0
330
167A9
100
AcDbEntity
  8
SUNPOU
100
AcDbLine
 10
8420.306062185526
 20
3171.3331940709
 30
0.0
 11
8420.306062185526
 21
3447.711278313303
 31
0.0
  0
LINE
  5
158D1
330
167A9
100
AcDbEntity
  8
SUNPOU
100
AcDbLine
 10
6600.306062185525
 20
3402.711278313303
 30
0.0
 11
8400.306062185526
 21
3402.711278313303
 31
0.0
  0
LINE
  5
158D5
330
167A9
100
AcDbEntity
  8
SUNPOU
100
AcDbLine
 10
6550.706062185525
 20
1963.333194070902
 30
0.0
 11
6010.044979629257
 21
1963.333194070902
 31
0.0
  0
LINE
  5
158D6
330
167A9
100
AcDbEntity
  8
SUNPOU
100
AcDbLine
 10
6550.706062185525
 20
3019.333194070902
 30
0.0
 11
6010.044979629257
 21
3019.333194070902
 31
0.0
  0
LINE
  5
158D7
330
167A9
100
AcDbEntity
  8
SUNPOU
100
AcDbLine
 10
6055.044979629257
 20
1983.333194070902
 30
0.0
 11
6055.044979629257
 21
2999.333194070903
 31
0.0
  0
TEXT
  5
158DB
330
167A9
100
AcDbEntity
  8
SUNPOU
100
AcDbText
 10
7131.567751039828
 20
3447.711278313303
 30
0.0
 40
90.0
  1
ベース筋
  7
01
 72
     4
 11
7335.567751039828
 21
3492.711278313303
 31
0.0
100
AcDbText
  0
TEXT
  5
158DC
330
167A9
100
AcDbEntity
  8
SUNPOU
100
AcDbText
 10
7586.370236222745
 20
3447.711278313303
 30
0.0
 40
90.0
  1
8-D13
 41
0.6666666666666666
  7
00
 72
     4
 11
7739.227379079889
 21
3492.711278313303
 31
0.0
100
AcDbText
  0
TEXT
  5
158DD
330
167A9
100
AcDbEntity
  8
SUNPOU
100
AcDbText
 10
6010.044979629257
 20
2107.696818884276
 30
0.0
 40
90.0
  1
ベース筋
 50
90.0
  7
01
 72
     4
 11
5965.044979629257
 21
2311.696818884276
 31
0.0
100
AcDbText
  0
TEXT
  5
158DE
330
167A9
100
AcDbEntity
  8
SUNPOU
100
AcDbText
 10
6010.044979629257
 20
2570.33185641974
 30
0.0
 40
90.0
  1
5-D13
 50
90.0
 41
0.6666666666666666
  7
00
 72
     4
 11
5965.044979629257
 21
2723.188999276882
 31
0.0
100
AcDbText
  0
TEXT
  5
15A0E
330
167A9
100
AcDbEntity
  8
HIKIDASHI
100
AcDbText
 10
1770.42596496575
 20
2627.515993242059
 30
0.0
 40
90.0
  1
6-D13
 41
0.6700000000000001
  7
00
100
AcDbText
  0
TEXT
  5
15A0F
330
167A9
100
AcDbEntity
  8
HIKIDASHI
100
AcDbText
 10
1521.162011931966
 20
2627.515993242059
 30
0.0
 40
90.0
  1
主筋
  7
01
100
AcDbText
  0
LINE
  5
15A10
330
167A9
100
AcDbEntity
  8
HIKIDASHI
100
AcDbLine
 10
1521.162011931966
 20
2582.51599324206
 30
0.0
 11
2119.067099341151
 21
2582.51599324206
 31
0.0
  0
LINE
  5
15A12
330
167A9
100
AcDbEntity
  8
HIKIDASHI
100
AcDbLine
 10
1367.253829721248
 20
2177.621202421254
 30
0.0
 11
2124.975130930299
 21
2177.621202421254
 31
0.0
  0
TEXT
  5
15A13
330
167A9
100
AcDbEntity
  8
HIKIDASHI
100
AcDbText
 10
1626.517782755036
 20
2222.621202421254
 30
0.0
 40
90.0
  1
9
 41
0.6700000000000001
  7
00
100
AcDbText
  0
TEXT
  5
15A14
330
167A9
100
AcDbEntity
  8
HIKIDASHI
100
AcDbText
 10
1377.253829721247
 20
2222.621202421254
 30
0.0
 40
90.0
  1
帯筋
  7
01
100
AcDbText
  0
TEXT
  5
15A15
330
167A9
100
AcDbEntity
  8
HIKIDASHI
100
AcDbText
 10
1815.932149789007
 20
2230.121202421254
 30
0.0
 40
75.0
  1
ア
  7
01
 72
     1
 11
1848.432149789007
 21
2267.621202421254
 31
0.0
100
AcDbText
 73
     2
  0
TEXT
  5
15A16
330
167A9
100
AcDbEntity
  8
HIKIDASHI
100
AcDbText
 10
1704.306817219276
 20
2222.621202421254
 30
0.0
 40
90.0
  1
%%C
 41
0.6700000000000001
  7
00
100
AcDbText
  0
CIRCLE
  5
15A17
330
167A9
100
AcDbEntity
  8
HIKIDASHI
100
AcDbCircle
 10
1848.432149789007
 20
2267.621202421254
 30
0.0
 40
60.0
  0
TEXT
  5
15A18
330
167A9
100
AcDbEntity
  8
HIKIDASHI
100
AcDbText
 10
1925.416823446379
 20
2222.621202421254
 30
0.0
 40
90.0
  1
100
 41
0.6700000000000001
  7
00
100
AcDbText
  0
TEXT
  5
15A1A
330
167A9
100
AcDbEntity
  8
HIKIDASHI
100
AcDbText
 10
5349.728067453241
 20
3556.260118325357
 30
0.0
 40
90.00009018009018
  1
（別途）
  7
01
100
AcDbText
  0
LINE
  5
15A1B
330
167A9
100
AcDbEntity
  8
HIKIDASHI
100
AcDbLine
 10
3997.930010252171
 20
3511.260118325356
 30
0.0
 11
5742.157249407592
 21
3511.260118325356
 31
0.0
  0
TEXT
  5
15A1C
330
167A9
100
AcDbEntity
  8
HIKIDASHI
100
AcDbText
 10
4032.207695200701
 20
3556.260118325357
 30
0.0
 40
90.00009018009018
  1
アンカーボルト
  7
01
100
AcDbText
  0
TEXT
  5
15A1D
330
167A9
100
AcDbEntity
  8
HIKIDASHI
100
AcDbText
 10
5108.007913391737
 20
3556.051132125266
 30
0.0
 40
89.55223880597012
  1
400
 41
0.6700000000000001
  7
00
100
AcDbText
  0
TEXT
  5
15A1E
330
167A9
100
AcDbEntity
  8
HIKIDASHI
100
AcDbText
 10
4792.544749806086
 20
3556.260118325357
 30
0.0
 40
89.55223880597012
  1
W ／
 41
0.6700000000000001
  7
00
100
AcDbText
  0
TEXT
  5
15A1F
330
167A9
100
AcDbEntity
  8
HIKIDASHI
100
AcDbText
 10
4955.037597048232
 20
3555.663672933689
 30
0.0
 40
67.16417910447761
  1
2
 41
0.6700000000000001
  7
00
100
AcDbText
  0
TEXT
  5
15A20
330
167A9
100
AcDbEntity
  8
HIKIDASHI
100
AcDbText
 10
4867.145560489309
 20
3582.689727964254
 30
0.0
 40
67.16417910447761
  1
1
 41
0.6700000000000001
  7
00
100
AcDbText
  0
TEXT
  5
15A21
330
167A9
100
AcDbEntity
  8
HIKIDASHI
100
AcDbText
 10
5026.872534238606
 20
3567.454148176103
 30
0.0
 40
89.55223880597012
  1
x
 41
0.6700000000000001
  7
00
100
AcDbText
  0
LINE
  5
15A32
330
167A9
100
AcDbEntity
  8
SUNPOU
100
AcDbLine
 10
1898.496684319278
 20
3207.885413258394
 30
0.0
 11
1950.458208546343
 21
3117.885413258394
 31
0.0
  0
LINE
  5
15A33
330
167A9
100
AcDbEntity
  8
SUNPOU
100
AcDbLine
 10
2002.419732773411
 20
3207.885413258394
 30
0.0
 11
1898.496684319278
 21
3207.885413258394
 31
0.0
  0
LINE
  5
15A34
330
167A9
100
AcDbEntity
  8
SUNPOU
100
AcDbLine
 10
1950.458208546343
 20
3117.885413258394
 30
0.0
 11
2002.419732773411
 21
3207.885413258394
 31
0.0
  0
TEXT
  5
15A35
330
167A9
100
AcDbEntity
  8
SUNPOU
100
AcDbText
 10
1881.886779974915
 20
3252.885413258394
 30
0.0
 40
90.0
  1
F.L
 41
0.6666666666666666
  7
00
 72
     4
 11
1950.458208546343
 21
3297.885413258395
 31
0.0
100
AcDbText
  0
LINE
  5
15B24
330
167A9
100
AcDbEntity
  8
HIKIDASHI
100
AcDbLine
 10
2946.306191125406
 20
886.596771046039
 30
0.0
 11
3873.809328772832
 21
886.596771046039
 31
0.0
  0
LINE
  5
15B25
330
167A9
100
AcDbEntity
  8
HIKIDASHI
100
AcDbLine
 10
2946.306191125406
 20
926.5967710460389
 30
0.0
 11
3873.809328772832
 21
926.5967710460389
 31
0.0
  0
TEXT
  5
15B26
330
167A9
100
AcDbEntity
  8
HIKIDASHI
100
AcDbText
 10
2986.306191125406
 20
986.596771046039
 30
0.0
 40
120.0
  1
A  ~  A'
 41
0.6700000000000001
  7
00
100
AcDbText
  0
TEXT
  5
15B27
330
167A9
100
AcDbEntity
  8
HIKIDASHI
100
AcDbText
 10
3471.662563787486
 20
986.596771046039
 30
0.0
 40
120.0
  1
断  面
  7
01
100
AcDbText
  0
LINE
  5
1624D
330
167A9
100
AcDbEntity
  8
HATCH
100
AcDbLine
 10
2764.825190896138
 20
2109.885413258393
 30
0.0
 11
2844.825190896139
 21
2029.885413258393
 31
0.0
  0
LINE
  5
1624E
330
167A9
100
AcDbEntity
  8
HATCH
100
AcDbLine
 10
2812.342766591877
 20
2109.885413258393
 30
0.0
 11
2892.342766591889
 21
2029.885413258393
 31
0.0
  0
LINE
  5
1624F
330
167A9
100
AcDbEntity
  8
HATCH
100
AcDbLine
 10
2859.860342287626
 20
2109.885413258397
 30
0.0
 11
2939.860342287639
 21
2029.885413258396
 31
0.0
  0
LINE
  5
16250
330
167A9
100
AcDbEntity
  8
HATCH
100
AcDbLine
 10
3244.342766591865
 20
2109.885413258393
 30
0.0
 11
3324.342766591865
 21
2029.885413258393
 31
0.0
  0
LINE
  5
16251
330
167A9
100
AcDbEntity
  8
HATCH
100
AcDbLine
 10
3291.860342287604
 20
2109.885413258393
 30
0.0
 11
3371.860342287615
 21
2029.885413258393
 31
0.0
  0
LINE
  5
16252
330
167A9
100
AcDbEntity
  8
HATCH
100
AcDbLine
 10
3339.377917983354
 20
2109.885413258397
 30
0.0
 11
3419.377917983366
 21
2029.885413258396
 31
0.0
  0
LINE
  5
16253
330
167A9
100
AcDbEntity
  8
HATCH
100
AcDbLine
 10
2285.307615200411
 20
2109.885413258393
 30
0.0
 11
2365.307615200411
 21
2029.885413258393
 31
0.0
  0
LINE
  5
16254
330
167A9
100
AcDbEntity
  8
HATCH
100
AcDbLine
 10
2332.825190896149
 20
2109.885413258393
 30
0.0
 11
2412.825190896162
 21
2029.885413258393
 31
0.0
  0
LINE
  5
16255
330
167A9
100
AcDbEntity
  8
HATCH
100
AcDbLine
 10
2380.3427665919
 20
2109.885413258397
 30
0.0
 11
2460.342766591912
 21
2029.885413258396
 31
0.0
  0
LINE
  5
16256
330
167A9
100
AcDbEntity
  8
HATCH
100
AcDbLine
 10
3723.860342287592
 20
2109.885413258393
 30
0.0
 11
3803.860342287593
 21
2029.885413258393
 31
0.0
  0
LINE
  5
16257
330
167A9
100
AcDbEntity
  8
HATCH
100
AcDbLine
 10
3771.377917983331
 20
2109.885413258393
 30
0.0
 11
3851.377917983344
 21
2029.885413258393
 31
0.0
  0
LINE
  5
16258
330
167A9
100
AcDbEntity
  8
HATCH
100
AcDbLine
 10
3818.895493679081
 20
2109.885413258396
 30
0.0
 11
3898.895493679093
 21
2029.885413258396
 31
0.0
  0
LINE
  5
16259
330
167A9
100
AcDbEntity
  8
HATCH
100
AcDbLine
 10
4203.37791798332
 20
2109.885413258393
 30
0.0
 11
4283.37791798332
 21
2029.885413258393
 31
0.0
  0
LINE
  5
1625A
330
167A9
100
AcDbEntity
  8
HATCH
100
AcDbLine
 10
4250.895493679058
 20
2109.885413258393
 30
0.0
 11
4330.89549367907
 21
2029.885413258393
 31
0.0
  0
LINE
  5
1625B
330
167A9
100
AcDbEntity
  8
HATCH
100
AcDbLine
 10
4298.413069374809
 20
2109.885413258396
 30
0.0
 11
4378.413069374818
 21
2029.885413258396
 31
0.0
  0
TEXT
  5
16317
330
167A9
100
AcDbEntity
  8
FILENAME
100
AcDbText
 10
13663.90476190475
 20
174.0
 30
0.0
 40
100.0
  1
＜YOR-280B-SA-A_3_JIS_GL.DXF ＞
  7
FILENAME
 72
     2
 11
16382.0
 21
174.0
 31
0.0
100
AcDbText
  0
LINE
  5
1631E
330
167A9
100
AcDbEntity
  8
WAKUSEN-01
100
AcDbLine
 10
434.0000000000008
 20
413.9999999999997
 30
0.0
 11
16382.0
 21
413.9999999999997
 31
0.0
  0
LINE
  5
1631F
330
167A9
100
AcDbEntity
  8
WAKUSEN-01
100
AcDbLine
 10
434.0000000000008
 20
11242.0
 30
0.0
 11
16382.0
 21
11242.0
 31
0.0
  0
LINE
  5
16320
330
167A9
100
AcDbEntity
  8
WAKUSEN-01
100
AcDbLine
 10
434.0000000000008
 20
413.9999999999997
 30
0.0
 11
434.0000000000008
 21
11242.0
 31
0.0
  0
LINE
  5
16321
330
167A9
100
AcDbEntity
  8
WAKUSEN-01
100
AcDbLine
 10
16382.0
 20
413.9999999999997
 30
0.0
 11
16382.0
 21
11242.0
 31
0.0
  0
LINE
  5
16322
330
167A9
100
AcDbEntity
  8
WAKUSEN-01
100
AcDbLine
 10
10280.0
 20
1242.0
 30
0.0
 11
16382.0
 21
1242.0
 31
0.0
  0
LINE
  5
16323
330
167A9
100
AcDbEntity
  8
WAKUSEN-02
100
AcDbLine
 10
10280.0
 20
827.9999999999997
 30
0.0
 11
13434.0
 21
827.9999999999997
 31
0.0
  0
TEXT
  5
16324
330
167A9
100
AcDbEntity
  8
WAKUMOJI-01
100
AcDbText
 10
10335.13012998137
 20
1062.951504669661
 30
0.0
 40
120.0
  1
名　称
  7
WAKUMOJI
100
AcDbText
  0
TEXT
  5
16325
330
167A9
100
AcDbEntity
  8
WAKUMOJI-01
100
AcDbText
 10
10328.25274254596
 20
659.5644874899107
 30
0.0
 40
120.0
  1
機種名
  7
WAKUMOJI
100
AcDbText
  0
LINE
  5
16326
330
167A9
100
AcDbEntity
  8
WAKUSEN-01
100
AcDbLine
 10
10280.0
 20
413.9999999999986
 30
0.0
 11
10280.0
 21
1242.0
 31
0.0
  0
LINE
  5
16327
330
167A9
100
AcDbEntity
  8
WAKUSEN-02
100
AcDbLine
 10
13434.0
 20
413.9999999999963
 30
0.0
 11
13434.0
 21
1242.0
 31
0.0
  0
LINE
  5
16328
330
167A9
100
AcDbEntity
  8
YODOROGO
100
AcDbLine
 10
14988.80217064596
 20
997.8747482146435
 30
0.0
 11
14914.80217064596
 21
997.8747482146435
 31
0.0
1001
AUTOCAD_POSTSCRIPT_FIGURE
1002
{
1000
PSFILL
1000
Grayscale
1000
Grayscale
1070
    25
1002
}
  0
LINE
  5
16329
330
167A9
100
AcDbEntity
  8
YODOROGO
100
AcDbLine
 10
14914.80217064596
 20
973.8747482146436
 30
0.0
 11
14988.80217064596
 21
973.8747482146436
 31
0.0
1001
AUTOCAD_POSTSCRIPT_FIGURE
1002
{
1000
PSFILL
1000
Grayscale
1000
Grayscale
1070
    25
1002
}
  0
LINE
  5
1632A
330
167A9
100
AcDbEntity
  8
YODOROGO
100
AcDbLine
 10
14988.80217064596
 20
953.874748214644
 30
0.0
 11
14914.80217064596
 21
953.874748214644
 31
0.0
1001
AUTOCAD_POSTSCRIPT_FIGURE
1002
{
1000
PSFILL
1000
Grayscale
1000
Grayscale
1070
    25
1002
}
  0
LINE
  5
1632B
330
167A9
100
AcDbEntity
  8
YODOROGO
100
AcDbLine
 10
14914.80217064596
 20
929.874748214644
 30
0.0
 11
14988.80217064596
 21
929.874748214644
 31
0.0
1001
AUTOCAD_POSTSCRIPT_FIGURE
1002
{
1000
PSFILL
1000
Grayscale
1000
Grayscale
1070
    25
1002
}
  0
LINE
  5
1632C
330
167A9
100
AcDbEntity
  8
YODOROGO
100
AcDbLine
 10
14988.80217064596
 20
909.8747482146439
 30
0.0
 11
14914.80217064596
 21
909.8747482146439
 31
0.0
1001
AUTOCAD_POSTSCRIPT_FIGURE
1002
{
1000
PSFILL
1000
Grayscale
1000
Grayscale
1070
    25
1002
}
  0
LINE
  5
1632D
330
167A9
100
AcDbEntity
  8
YODOROGO
100
AcDbLine
 10
14960.80217064594
 20
853.8747482146439
 30
0.0
 11
14988.80217064596
 21
853.8747482146439
 31
0.0
1001
AUTOCAD_POSTSCRIPT_FIGURE
1002
{
1000
PSFILL
1000
Grayscale
1000
Grayscale
1070
    25
1002
}
  0
LINE
  5
1632E
330
167A9
100
AcDbEntity
  8
YODOROGO
100
AcDbLine
 10
14868.80217064596
 20
713.8747482146436
 30
0.0
 11
14968.80217064596
 21
740.6696674577553
 31
0.0
  0
LINE
  5
1632F
330
167A9
100
AcDbEntity
  8
YODOROGO
100
AcDbLine
 10
14974.80217064595
 20
853.8747482146439
 30
0.0
 11
14942.80217064596
 21
853.8747482146439
 31
0.0
  0
ARC
  5
16330
330
167A9
100
AcDbEntity
  8
YODOROGO
100
AcDbCircle
 10
15127.17387491395
 20
903.9323046166312
 30
0.0
 40
190.9434321028236
100
AcDbArc
 50
213.9611167766784
 51
264.4787207431779
  0
ARC
  5
16331
330
167A9
100
AcDbEntity
  8
YODOROGO
100
AcDbCircle
 10
15127.17387491396
 20
903.9323046166513
 30
0.0
 40
190.9434321028408
100
AcDbArc
 50
208.141144204866
 51
212.9210361185995
  0
LINE
  5
16332
330
167A9
100
AcDbEntity
  8
YODOROGO
100
AcDbLine
 10
14885.70493649264
 20
778.403830673117
 30
0.0
 11
14966.89206625426
 21
800.1578565285436
 31
0.0
  0
LINE
  5
16333
330
167A9
100
AcDbEntity
  8
YODOROGO
100
AcDbLine
 10
14868.80217064596
 20
713.8747482146436
 30
0.0
 11
14968.80217064596
 21
740.6696674577553
 31
0.0
  0
LINE
  5
16334
330
167A9
100
AcDbEntity
  8
YODOROGO
100
AcDbLine
 10
14974.80217064595
 20
853.8747482146439
 30
0.0
 11
14942.80217064596
 21
853.8747482146439
 31
0.0
  0
ARC
  5
16335
330
167A9
100
AcDbEntity
  8
YODOROGO
100
AcDbCircle
 10
15127.17387491395
 20
903.9323046166312
 30
0.0
 40
190.9434321028236
100
AcDbArc
 50
213.9611167766784
 51
264.4787207431779
  0
LINE
  5
16336
330
167A9
100
AcDbEntity
  8
YODOROGO
100
AcDbLine
 10
14396.80217064594
 20
909.8747482146439
 30
0.0
 11
14216.80217064595
 21
909.8747482146439
 31
0.0
  0
LINE
  5
16337
330
167A9
100
AcDbEntity
  8
YODOROGO
100
AcDbLine
 10
14256.80217064595
 20
713.8747482146436
 30
0.0
 11
14396.80217064594
 21
713.8747482146436
 31
0.0
  0
LINE
  5
16338
330
167A9
100
AcDbEntity
  8
YODOROGO
100
AcDbLine
 10
14364.80217064596
 20
961.8747482146432
 30
0.0
 11
14248.80217064595
 21
961.8747482146432
 31
0.0
  0
LINE
  5
16339
330
167A9
100
AcDbEntity
  8
YODOROGO
100
AcDbLine
 10
14292.80217064596
 20
1013.874748214644
 30
0.0
 11
14328.80217064596
 21
1013.874748214644
 31
0.0
  0
LINE
  5
1633A
330
167A9
100
AcDbEntity
  8
YODOROGO
100
AcDbLine
 10
14216.80217064595
 20
853.8747482146439
 30
0.0
 11
14216.80217064595
 21
753.8747482146439
 31
0.0
  0
LINE
  5
1633B
330
167A9
100
AcDbEntity
  8
YODOROGO
100
AcDbLine
 10
14248.80217064595
 20
781.8747482146434
 30
0.0
 11
14248.80217064595
 21
853.8747482146439
 31
0.0
  0
LINE
  5
1633C
330
167A9
100
AcDbEntity
  8
YODOROGO
100
AcDbLine
 10
14292.80217064596
 20
873.8747482146449
 30
0.0
 11
14292.80217064596
 21
773.8747482146439
 31
0.0
  0
LINE
  5
1633D
330
167A9
100
AcDbEntity
  8
YODOROGO
100
AcDbLine
 10
13928.80217064596
 20
841.8747482146445
 30
0.0
 11
13888.80217064596
 21
809.9862070222856
 31
0.0
  0
LINE
  5
1633E
330
167A9
100
AcDbEntity
  8
YODOROGO
100
AcDbLine
 10
13968.80217064596
 20
809.9862070222856
 30
0.0
 11
13928.80217064596
 21
841.8747482146445
 31
0.0
  0
LINE
  5
1633F
330
167A9
100
AcDbEntity
  8
YODOROGO
100
AcDbLine
 10
13928.80217064596
 20
853.8747482146439
 30
0.0
 11
13968.80217064596
 21
821.986207022285
 31
0.0
  0
LINE
  5
16340
330
167A9
100
AcDbEntity
  8
YODOROGO
100
AcDbLine
 10
13888.80217064596
 20
821.986207022285
 30
0.0
 11
13928.80217064596
 21
853.8747482146439
 31
0.0
  0
LINE
  5
16341
330
167A9
100
AcDbEntity
  8
YODOROGO
100
AcDbLine
 10
14020.45660200845
 20
829.874748214644
 30
0.0
 11
14020.45660200845
 21
841.8747482146434
 31
0.0
  0
LINE
  5
16342
330
167A9
100
AcDbEntity
  8
YODOROGO
100
AcDbLine
 10
13988.80217064596
 20
841.8747482146434
 30
0.0
 11
13988.80217064596
 21
833.8747482146427
 31
0.0
  0
LINE
  5
16343
330
167A9
100
AcDbEntity
  8
YODOROGO
100
AcDbLine
 10
14049.06776011545
 20
853.8747482146439
 30
0.0
 11
14049.06776011545
 21
827.751818637328
 31
0.0
1001
AUTOCAD_POSTSCRIPT_FIGURE
1002
{
1000
PSFILL
1000
Grayscale
1000
Grayscale
1070
   100
1002
}
  0
LINE
  5
16344
330
167A9
100
AcDbEntity
  8
YODOROGO
100
AcDbLine
 10
14041.06776011546
 20
827.751818637328
 30
0.0
 11
14041.06776011546
 21
853.8747482146439
 31
0.0
1001
AUTOCAD_POSTSCRIPT_FIGURE
1002
{
1000
PSFILL
1000
Grayscale
1000
Grayscale
1070
   100
1002
}
  0
LINE
  5
16345
330
167A9
100
AcDbEntity
  8
YODOROGO
100
AcDbLine
 10
13904.80217064596
 20
804.3859520216292
 30
0.0
 11
13904.80217064596
 21
816.3859520216298
 31
0.0
  0
LINE
  5
16346
330
167A9
100
AcDbEntity
  8
YODOROGO
100
AcDbLine
 10
13952.80217064596
 20
804.3859520216292
 30
0.0
 11
13904.80217064596
 21
804.3859520216292
 31
0.0
  0
LINE
  5
16347
330
167A9
100
AcDbEntity
  8
YODOROGO
100
AcDbLine
 10
13952.80217064596
 20
816.3859520216298
 30
0.0
 11
13952.80217064596
 21
804.3859520216292
 31
0.0
  0
LINE
  5
16348
330
167A9
100
AcDbEntity
  8
YODOROGO
100
AcDbLine
 10
13904.80217064596
 20
816.3859520216298
 30
0.0
 11
13952.80217064596
 21
816.3859520216298
 31
0.0
  0
LINE
  5
16349
330
167A9
100
AcDbEntity
  8
YODOROGO
100
AcDbLine
 10
13912.25479445787
 20
784.2514286852374
 30
0.0
 11
13892.80217064596
 21
737.8747482146437
 31
0.0
1001
AUTOCAD_POSTSCRIPT_FIGURE
1002
{
1000
PSFILL
1000
Grayscale
1000
Grayscale
1070
   100
1002
}
  0
LINE
  5
1634A
330
167A9
100
AcDbEntity
  8
YODOROGO
100
AcDbLine
 10
13888.80217064596
 20
784.2514286852374
 30
0.0
 11
13912.25479445787
 21
784.2514286852374
 31
0.0
1001
AUTOCAD_POSTSCRIPT_FIGURE
1002
{
1000
PSFILL
1000
Grayscale
1000
Grayscale
1070
   100
1002
}
  0
LINE
  5
1634B
330
167A9
100
AcDbEntity
  8
YODOROGO
100
AcDbLine
 10
13888.80217064596
 20
794.2514286852374
 30
0.0
 11
13888.80217064596
 21
784.2514286852374
 31
0.0
1001
AUTOCAD_POSTSCRIPT_FIGURE
1002
{
1000
PSFILL
1000
Grayscale
1000
Grayscale
1070
   100
1002
}
  0
LINE
  5
1634C
330
167A9
100
AcDbEntity
  8
YODOROGO
100
AcDbLine
 10
13968.80217064596
 20
794.2514286852374
 30
0.0
 11
13888.80217064596
 21
794.2514286852374
 31
0.0
1001
AUTOCAD_POSTSCRIPT_FIGURE
1002
{
1000
PSFILL
1000
Grayscale
1000
Grayscale
1070
   100
1002
}
  0
LINE
  5
1634D
330
167A9
100
AcDbEntity
  8
YODOROGO
100
AcDbLine
 10
13968.80217064596
 20
784.2514286852374
 30
0.0
 11
13968.80217064596
 21
794.2514286852374
 31
0.0
1001
AUTOCAD_POSTSCRIPT_FIGURE
1002
{
1000
PSFILL
1000
Grayscale
1000
Grayscale
1070
   100
1002
}
  0
LINE
  5
1634E
330
167A9
100
AcDbEntity
  8
YODOROGO
100
AcDbLine
 10
13922.25479445787
 20
784.2514286852374
 30
0.0
 11
13968.80217064596
 21
784.2514286852374
 31
0.0
1001
AUTOCAD_POSTSCRIPT_FIGURE
1002
{
1000
PSFILL
1000
Grayscale
1000
Grayscale
1070
   100
1002
}
  0
LINE
  5
1634F
330
167A9
100
AcDbEntity
  8
YODOROGO
100
AcDbLine
 10
13907.77335914239
 20
747.8747482146435
 30
0.0
 11
13922.25479445787
 21
784.2514286852374
 31
0.0
1001
AUTOCAD_POSTSCRIPT_FIGURE
1002
{
1000
PSFILL
1000
Grayscale
1000
Grayscale
1070
   100
1002
}
  0
LINE
  5
16350
330
167A9
100
AcDbEntity
  8
YODOROGO
100
AcDbLine
 10
13951.02739540432
 20
747.8747482146435
 30
0.0
 11
13907.77335914239
 21
747.8747482146435
 31
0.0
1001
AUTOCAD_POSTSCRIPT_FIGURE
1002
{
1000
PSFILL
1000
Grayscale
1000
Grayscale
1070
   100
1002
}
  0
LINE
  5
16351
330
167A9
100
AcDbEntity
  8
YODOROGO
100
AcDbLine
 10
13942.53250239547
 20
768.1169053488464
 30
0.0
 11
13951.02739540432
 21
747.8747482146435
 31
0.0
1001
AUTOCAD_POSTSCRIPT_FIGURE
1002
{
1000
PSFILL
1000
Grayscale
1000
Grayscale
1070
   100
1002
}
  0
LINE
  5
16352
330
167A9
100
AcDbEntity
  8
YODOROGO
100
AcDbLine
 10
13950.53250239547
 20
768.1169053488464
 30
0.0
 11
13942.53250239547
 21
768.1169053488464
 31
0.0
1001
AUTOCAD_POSTSCRIPT_FIGURE
1002
{
1000
PSFILL
1000
Grayscale
1000
Grayscale
1070
   100
1002
}
  0
LINE
  5
16353
330
167A9
100
AcDbEntity
  8
YODOROGO
100
AcDbLine
 10
13964.80217064596
 20
737.8747482146437
 30
0.0
 11
13950.53250239547
 21
768.1169053488464
 31
0.0
1001
AUTOCAD_POSTSCRIPT_FIGURE
1002
{
1000
PSFILL
1000
Grayscale
1000
Grayscale
1070
   100
1002
}
  0
LINE
  5
16354
330
167A9
100
AcDbEntity
  8
YODOROGO
100
AcDbLine
 10
13892.80217064596
 20
737.8747482146437
 30
0.0
 11
13964.80217064596
 21
737.8747482146437
 31
0.0
1001
AUTOCAD_POSTSCRIPT_FIGURE
1002
{
1000
PSFILL
1000
Grayscale
1000
Grayscale
1070
   100
1002
}
  0
LINE
  5
16355
330
167A9
100
AcDbEntity
  8
YODOROGO
100
AcDbLine
 10
13888.80217064596
 20
809.9862070222856
 30
0.0
 11
13888.80217064596
 21
821.986207022285
 31
0.0
  0
LINE
  5
16356
330
167A9
100
AcDbEntity
  8
YODOROGO
100
AcDbLine
 10
13968.80217064596
 20
821.986207022285
 30
0.0
 11
13968.80217064596
 21
809.9862070222856
 31
0.0
  0
ARC
  5
16357
330
167A9
100
AcDbEntity
  8
YODOROGO
100
AcDbCircle
 10
14112.97022107348
 20
800.438882662663
 30
0.0
 40
87.99999999999995
100
AcDbArc
 50
280.3644312771313
 51
3.541483659218056
  0
ARC
  5
16358
330
167A9
100
AcDbEntity
  8
YODOROGO
100
AcDbCircle
 10
14117.87801537965
 20
816.7989034809522
 30
0.0
 40
55.99999999999916
100
AcDbArc
 50
281.2490582504155
 51
348.7509417495832
  0
LINE
  5
16359
330
167A9
100
AcDbEntity
  8
YODOROGO
100
AcDbLine
 10
14128.80217064596
 20
761.8747482146434
 30
0.0
 11
14128.80217064596
 21
713.8747482146436
 31
0.0
  0
LINE
  5
1635A
330
167A9
100
AcDbEntity
  8
YODOROGO
100
AcDbLine
 10
14010.04445186844
 20
805.3252825309574
 30
0.0
 11
14020.45660200845
 21
829.874748214644
 31
0.0
  0
LINE
  5
1635B
330
167A9
100
AcDbEntity
  8
YODOROGO
100
AcDbLine
 10
14020.80217064596
 20
791.5602449742006
 30
0.0
 11
14010.04445186844
 21
805.3252825309574
 31
0.0
  0
LINE
  5
1635C
330
167A9
100
AcDbEntity
  8
YODOROGO
100
AcDbLine
 10
14020.80217064596
 20
781.5602449741995
 30
0.0
 11
14020.80217064596
 21
791.5602449742006
 31
0.0
  0
LINE
  5
1635D
330
167A9
100
AcDbEntity
  8
YODOROGO
100
AcDbLine
 10
14008.80217064596
 20
792.6185318747652
 30
0.0
 11
14020.80217064596
 21
781.5602449741995
 31
0.0
  0
LINE
  5
1635E
330
167A9
100
AcDbEntity
  8
YODOROGO
100
AcDbLine
 10
14008.80217064596
 20
737.8747482146437
 30
0.0
 11
14008.80217064596
 21
792.6185318747652
 31
0.0
  0
LINE
  5
1635F
330
167A9
100
AcDbEntity
  8
YODOROGO
100
AcDbLine
 10
14000.80217064596
 20
737.8747482146437
 30
0.0
 11
14008.80217064596
 21
737.8747482146437
 31
0.0
  0
LINE
  5
16360
330
167A9
100
AcDbEntity
  8
YODOROGO
100
AcDbLine
 10
14000.80217064596
 20
790.0026748448738
 30
0.0
 11
14000.80217064596
 21
737.8747482146437
 31
0.0
  0
LINE
  5
16361
330
167A9
100
AcDbEntity
  8
YODOROGO
100
AcDbLine
 10
13988.80217064596
 20
766.3840395167142
 30
0.0
 11
14000.80217064596
 21
790.0026748448738
 31
0.0
  0
LINE
  5
16362
330
167A9
100
AcDbEntity
  8
YODOROGO
100
AcDbLine
 10
13988.80217064596
 20
778.3840395167149
 30
0.0
 11
13988.80217064596
 21
766.3840395167142
 31
0.0
  0
LINE
  5
16363
330
167A9
100
AcDbEntity
  8
YODOROGO
100
AcDbLine
 10
14012.91438714567
 20
833.8747482146427
 30
0.0
 11
13988.80217064596
 21
778.3840395167149
 31
0.0
  0
LINE
  5
16364
330
167A9
100
AcDbEntity
  8
YODOROGO
100
AcDbLine
 10
13988.80217064596
 20
833.8747482146427
 30
0.0
 11
14012.91438714567
 21
833.8747482146427
 31
0.0
  0
LINE
  5
16365
330
167A9
100
AcDbEntity
  8
YODOROGO
100
AcDbLine
 10
14025.06776011545
 20
827.751818637328
 30
0.0
 11
14041.06776011546
 21
827.751818637328
 31
0.0
1001
AUTOCAD_POSTSCRIPT_FIGURE
1002
{
1000
PSFILL
1000
Grayscale
1000
Grayscale
1070
   100
1002
}
  0
LINE
  5
16366
330
167A9
100
AcDbEntity
  8
YODOROGO
100
AcDbLine
 10
14025.06776011545
 20
815.7518186373286
 30
0.0
 11
14025.06776011545
 21
827.751818637328
 31
0.0
1001
AUTOCAD_POSTSCRIPT_FIGURE
1002
{
1000
PSFILL
1000
Grayscale
1000
Grayscale
1070
   100
1002
}
  0
LINE
  5
16367
330
167A9
100
AcDbEntity
  8
YODOROGO
100
AcDbLine
 10
14041.06776011546
 20
815.7518186373286
 30
0.0
 11
14025.06776011545
 21
815.7518186373286
 31
0.0
1001
AUTOCAD_POSTSCRIPT_FIGURE
1002
{
1000
PSFILL
1000
Grayscale
1000
Grayscale
1070
   100
1002
}
  0
LINE
  5
16368
330
167A9
100
AcDbEntity
  8
YODOROGO
100
AcDbLine
 10
14041.06776011546
 20
749.8747482146441
 30
0.0
 11
14041.06776011546
 21
815.7518186373286
 31
0.0
1001
AUTOCAD_POSTSCRIPT_FIGURE
1002
{
1000
PSFILL
1000
Grayscale
1000
Grayscale
1070
   100
1002
}
  0
LINE
  5
16369
330
167A9
100
AcDbEntity
  8
YODOROGO
100
AcDbLine
 10
14025.06776011545
 20
749.8747482146441
 30
0.0
 11
14041.06776011546
 21
749.8747482146441
 31
0.0
1001
AUTOCAD_POSTSCRIPT_FIGURE
1002
{
1000
PSFILL
1000
Grayscale
1000
Grayscale
1070
   100
1002
}
  0
LINE
  5
1636A
330
167A9
100
AcDbEntity
  8
YODOROGO
100
AcDbLine
 10
14025.06776011545
 20
737.8747482146437
 30
0.0
 11
14025.06776011545
 21
749.8747482146441
 31
0.0
1001
AUTOCAD_POSTSCRIPT_FIGURE
1002
{
1000
PSFILL
1000
Grayscale
1000
Grayscale
1070
   100
1002
}
  0
LINE
  5
1636B
330
167A9
100
AcDbEntity
  8
YODOROGO
100
AcDbLine
 10
14068.80217064596
 20
737.8747482146437
 30
0.0
 11
14025.06776011545
 21
737.8747482146437
 31
0.0
1001
AUTOCAD_POSTSCRIPT_FIGURE
1002
{
1000
PSFILL
1000
Grayscale
1000
Grayscale
1070
   100
1002
}
  0
LINE
  5
1636C
330
167A9
100
AcDbEntity
  8
YODOROGO
100
AcDbLine
 10
14068.80217064596
 20
749.8747482146441
 30
0.0
 11
14068.80217064596
 21
737.8747482146437
 31
0.0
1001
AUTOCAD_POSTSCRIPT_FIGURE
1002
{
1000
PSFILL
1000
Grayscale
1000
Grayscale
1070
   100
1002
}
  0
LINE
  5
1636D
330
167A9
100
AcDbEntity
  8
YODOROGO
100
AcDbLine
 10
14049.06776011545
 20
749.8747482146441
 30
0.0
 11
14068.80217064596
 21
749.8747482146441
 31
0.0
1001
AUTOCAD_POSTSCRIPT_FIGURE
1002
{
1000
PSFILL
1000
Grayscale
1000
Grayscale
1070
   100
1002
}
  0
LINE
  5
1636E
330
167A9
100
AcDbEntity
  8
YODOROGO
100
AcDbLine
 10
14049.06776011545
 20
815.7518186373286
 30
0.0
 11
14049.06776011545
 21
749.8747482146441
 31
0.0
1001
AUTOCAD_POSTSCRIPT_FIGURE
1002
{
1000
PSFILL
1000
Grayscale
1000
Grayscale
1070
   100
1002
}
  0
LINE
  5
1636F
330
167A9
100
AcDbEntity
  8
YODOROGO
100
AcDbLine
 10
14068.80217064596
 20
815.7518186373286
 30
0.0
 11
14049.06776011545
 21
815.7518186373286
 31
0.0
1001
AUTOCAD_POSTSCRIPT_FIGURE
1002
{
1000
PSFILL
1000
Grayscale
1000
Grayscale
1070
   100
1002
}
  0
LINE
  5
16370
330
167A9
100
AcDbEntity
  8
YODOROGO
100
AcDbLine
 10
14068.80217064596
 20
827.751818637328
 30
0.0
 11
14068.80217064596
 21
815.7518186373286
 31
0.0
1001
AUTOCAD_POSTSCRIPT_FIGURE
1002
{
1000
PSFILL
1000
Grayscale
1000
Grayscale
1070
   100
1002
}
  0
LINE
  5
16371
330
167A9
100
AcDbEntity
  8
YODOROGO
100
AcDbLine
 10
14049.06776011545
 20
827.751818637328
 30
0.0
 11
14068.80217064596
 21
827.751818637328
 31
0.0
1001
AUTOCAD_POSTSCRIPT_FIGURE
1002
{
1000
PSFILL
1000
Grayscale
1000
Grayscale
1070
   100
1002
}
  0
LINE
  5
16372
330
167A9
100
AcDbEntity
  8
YODOROGO
100
AcDbLine
 10
14200.80217064595
 20
833.8747482146439
 30
0.0
 11
14172.80217064596
 21
833.8747482146439
 31
0.0
  0
LINE
  5
16373
330
167A9
100
AcDbEntity
  8
YODOROGO
100
AcDbLine
 10
14200.80217064595
 20
805.8747482146443
 30
0.0
 11
14200.80217064595
 21
833.8747482146439
 31
0.0
  0
LINE
  5
16374
330
167A9
100
AcDbEntity
  8
YODOROGO
100
AcDbLine
 10
14172.80217064596
 20
833.8747482146439
 30
0.0
 11
14172.80217064596
 21
805.8747482146443
 31
0.0
  0
ARC
  5
16375
330
167A9
100
AcDbEntity
  8
YODOROGO
100
AcDbCircle
 10
14256.80217064595
 20
753.8747482146439
 30
0.0
 40
40.0
100
AcDbArc
 50
180.0
 51
270.0
  0
ARC
  5
16376
330
167A9
100
AcDbEntity
  8
YODOROGO
100
AcDbCircle
 10
14268.80217064595
 20
781.8747482146434
 30
0.0
 40
20.0
100
AcDbArc
 50
180.0
 51
270.0
  0
LINE
  5
16377
330
167A9
100
AcDbEntity
  8
YODOROGO
100
AcDbLine
 10
14280.80217064596
 20
761.8747482146434
 30
0.0
 11
14268.80217064595
 21
761.8747482146434
 31
0.0
  0
ARC
  5
16378
330
167A9
100
AcDbEntity
  8
YODOROGO
100
AcDbCircle
 10
14280.80217064596
 20
773.8747482146427
 30
0.0
 40
11.99999999999818
100
AcDbArc
 50
270.0
 51
0.0000000000054281
  0
LINE
  5
16379
330
167A9
100
AcDbEntity
  8
YODOROGO
100
AcDbLine
 10
13900.80217064596
 20
945.3932903968532
 30
0.0
 11
13888.80217064596
 21
921.8883739758362
 31
0.0
1001
AUTOCAD_POSTSCRIPT_FIGURE
1002
{
1000
PSFILL
1000
Grayscale
1000
Grayscale
1070
   100
1002
}
  0
LINE
  5
1637A
330
167A9
100
AcDbEntity
  8
YODOROGO
100
AcDbLine
 10
13900.80217064596
 20
873.8747482146436
 30
0.0
 11
13900.80217064596
 21
945.3932903968532
 31
0.0
1001
AUTOCAD_POSTSCRIPT_FIGURE
1002
{
1000
PSFILL
1000
Grayscale
1000
Grayscale
1070
   100
1002
}
  0
LINE
  5
1637B
330
167A9
100
AcDbEntity
  8
YODOROGO
100
AcDbLine
 10
13908.80217064596
 20
873.8747482146436
 30
0.0
 11
13900.80217064596
 21
873.8747482146436
 31
0.0
1001
AUTOCAD_POSTSCRIPT_FIGURE
1002
{
1000
PSFILL
1000
Grayscale
1000
Grayscale
1070
   100
1002
}
  0
LINE
  5
1637C
330
167A9
100
AcDbEntity
  8
YODOROGO
100
AcDbLine
 10
13908.80217064596
 20
946.8856660426334
 30
0.0
 11
13908.80217064596
 21
873.8747482146436
 31
0.0
1001
AUTOCAD_POSTSCRIPT_FIGURE
1002
{
1000
PSFILL
1000
Grayscale
1000
Grayscale
1070
   100
1002
}
  0
LINE
  5
1637D
330
167A9
100
AcDbEntity
  8
YODOROGO
100
AcDbLine
 10
13920.80217064596
 20
933.8273791420684
 30
0.0
 11
13908.80217064596
 21
946.8856660426334
 31
0.0
1001
AUTOCAD_POSTSCRIPT_FIGURE
1002
{
1000
PSFILL
1000
Grayscale
1000
Grayscale
1070
   100
1002
}
  0
LINE
  5
1637E
330
167A9
100
AcDbEntity
  8
YODOROGO
100
AcDbLine
 10
13920.80217064596
 20
941.8273791420681
 30
0.0
 11
13920.80217064596
 21
933.8273791420684
 31
0.0
1001
AUTOCAD_POSTSCRIPT_FIGURE
1002
{
1000
PSFILL
1000
Grayscale
1000
Grayscale
1070
   100
1002
}
  0
LINE
  5
1637F
330
167A9
100
AcDbEntity
  8
YODOROGO
100
AcDbLine
 10
13908.80217064596
 20
958.8856660426326
 30
0.0
 11
13920.80217064596
 21
941.8273791420681
 31
0.0
1001
AUTOCAD_POSTSCRIPT_FIGURE
1002
{
1000
PSFILL
1000
Grayscale
1000
Grayscale
1070
   100
1002
}
  0
LINE
  5
16380
330
167A9
100
AcDbEntity
  8
YODOROGO
100
AcDbLine
 10
13908.80217064596
 20
969.8747482146441
 30
0.0
 11
13908.80217064596
 21
958.8856660426326
 31
0.0
1001
AUTOCAD_POSTSCRIPT_FIGURE
1002
{
1000
PSFILL
1000
Grayscale
1000
Grayscale
1070
   100
1002
}
  0
LINE
  5
16381
330
167A9
100
AcDbEntity
  8
YODOROGO
100
AcDbLine
 10
13944.80217064596
 20
969.8747482146441
 30
0.0
 11
13908.80217064596
 21
969.8747482146441
 31
0.0
1001
AUTOCAD_POSTSCRIPT_FIGURE
1002
{
1000
PSFILL
1000
Grayscale
1000
Grayscale
1070
   100
1002
}
  0
LINE
  5
16382
330
167A9
100
AcDbEntity
  8
YODOROGO
100
AcDbLine
 10
13944.80217064596
 20
950.2841744681497
 30
0.0
 11
13944.80217064596
 21
969.8747482146441
 31
0.0
1001
AUTOCAD_POSTSCRIPT_FIGURE
1002
{
1000
PSFILL
1000
Grayscale
1000
Grayscale
1070
   100
1002
}
  0
LINE
  5
16383
330
167A9
100
AcDbEntity
  8
YODOROGO
100
AcDbLine
 10
13928.80217064596
 20
950.2841744681497
 30
0.0
 11
13944.80217064596
 21
950.2841744681497
 31
0.0
1001
AUTOCAD_POSTSCRIPT_FIGURE
1002
{
1000
PSFILL
1000
Grayscale
1000
Grayscale
1070
   100
1002
}
  0
LINE
  5
16384
330
167A9
100
AcDbEntity
  8
YODOROGO
100
AcDbLine
 10
13928.80217064596
 20
942.2841744681491
 30
0.0
 11
13928.80217064596
 21
950.2841744681497
 31
0.0
1001
AUTOCAD_POSTSCRIPT_FIGURE
1002
{
1000
PSFILL
1000
Grayscale
1000
Grayscale
1070
   100
1002
}
  0
LINE
  5
16385
330
167A9
100
AcDbEntity
  8
YODOROGO
100
AcDbLine
 10
13944.80217064596
 20
942.2841744681491
 30
0.0
 11
13928.80217064596
 21
942.2841744681491
 31
0.0
1001
AUTOCAD_POSTSCRIPT_FIGURE
1002
{
1000
PSFILL
1000
Grayscale
1000
Grayscale
1070
   100
1002
}
  0
LINE
  5
16386
330
167A9
100
AcDbEntity
  8
YODOROGO
100
AcDbLine
 10
13944.80217064596
 20
939.8095889822197
 30
0.0
 11
13944.80217064596
 21
942.2841744681491
 31
0.0
1001
AUTOCAD_POSTSCRIPT_FIGURE
1002
{
1000
PSFILL
1000
Grayscale
1000
Grayscale
1070
   100
1002
}
  0
LINE
  5
16387
330
167A9
100
AcDbEntity
  8
YODOROGO
100
AcDbLine
 10
13924.80217064596
 20
906.4874905807087
 30
0.0
 11
13944.80217064596
 21
939.8095889822197
 31
0.0
1001
AUTOCAD_POSTSCRIPT_FIGURE
1002
{
1000
PSFILL
1000
Grayscale
1000
Grayscale
1070
   100
1002
}
  0
LINE
  5
16388
330
167A9
100
AcDbEntity
  8
YODOROGO
100
AcDbLine
 10
13924.80217064596
 20
898.487490580708
 30
0.0
 11
13924.80217064596
 21
906.4874905807087
 31
0.0
1001
AUTOCAD_POSTSCRIPT_FIGURE
1002
{
1000
PSFILL
1000
Grayscale
1000
Grayscale
1070
   100
1002
}
  0
LINE
  5
16389
330
167A9
100
AcDbEntity
  8
YODOROGO
100
AcDbLine
 10
13944.80217064596
 20
923.8095889822183
 30
0.0
 11
13924.80217064596
 21
898.487490580708
 31
0.0
1001
AUTOCAD_POSTSCRIPT_FIGURE
1002
{
1000
PSFILL
1000
Grayscale
1000
Grayscale
1070
   100
1002
}
  0
LINE
  5
1638A
330
167A9
100
AcDbEntity
  8
YODOROGO
100
AcDbLine
 10
13944.80217064596
 20
873.8747482146436
 30
0.0
 11
13944.80217064596
 21
923.8095889822183
 31
0.0
1001
AUTOCAD_POSTSCRIPT_FIGURE
1002
{
1000
PSFILL
1000
Grayscale
1000
Grayscale
1070
   100
1002
}
  0
LINE
  5
1638B
330
167A9
100
AcDbEntity
  8
YODOROGO
100
AcDbLine
 10
13952.80217064596
 20
873.8747482146436
 30
0.0
 11
13944.80217064596
 21
873.8747482146436
 31
0.0
1001
AUTOCAD_POSTSCRIPT_FIGURE
1002
{
1000
PSFILL
1000
Grayscale
1000
Grayscale
1070
   100
1002
}
  0
LINE
  5
1638C
330
167A9
100
AcDbEntity
  8
YODOROGO
100
AcDbLine
 10
13952.80217064596
 20
924.7045060794032
 30
0.0
 11
13952.80217064596
 21
873.8747482146436
 31
0.0
1001
AUTOCAD_POSTSCRIPT_FIGURE
1002
{
1000
PSFILL
1000
Grayscale
1000
Grayscale
1070
   100
1002
}
  0
LINE
  5
1638D
330
167A9
100
AcDbEntity
  8
YODOROGO
100
AcDbLine
 10
13968.80217064596
 20
898.487490580708
 30
0.0
 11
13952.80217064596
 21
924.7045060794032
 31
0.0
1001
AUTOCAD_POSTSCRIPT_FIGURE
1002
{
1000
PSFILL
1000
Grayscale
1000
Grayscale
1070
   100
1002
}
  0
LINE
  5
1638E
330
167A9
100
AcDbEntity
  8
YODOROGO
100
AcDbLine
 10
13968.80217064596
 20
906.4874905807087
 30
0.0
 11
13968.80217064596
 21
898.487490580708
 31
0.0
1001
AUTOCAD_POSTSCRIPT_FIGURE
1002
{
1000
PSFILL
1000
Grayscale
1000
Grayscale
1070
   100
1002
}
  0
LINE
  5
1638F
330
167A9
100
AcDbEntity
  8
YODOROGO
100
AcDbLine
 10
13952.80217064596
 20
940.7045060794045
 30
0.0
 11
13968.80217064596
 21
906.4874905807087
 31
0.0
1001
AUTOCAD_POSTSCRIPT_FIGURE
1002
{
1000
PSFILL
1000
Grayscale
1000
Grayscale
1070
   100
1002
}
  0
LINE
  5
16390
330
167A9
100
AcDbEntity
  8
YODOROGO
100
AcDbLine
 10
13952.80217064596
 20
942.2841744681502
 30
0.0
 11
13952.80217064596
 21
940.7045060794045
 31
0.0
1001
AUTOCAD_POSTSCRIPT_FIGURE
1002
{
1000
PSFILL
1000
Grayscale
1000
Grayscale
1070
   100
1002
}
  0
LINE
  5
16391
330
167A9
100
AcDbEntity
  8
YODOROGO
100
AcDbLine
 10
13968.80217064596
 20
942.2841744681491
 30
0.0
 11
13952.80217064596
 21
942.2841744681502
 31
0.0
1001
AUTOCAD_POSTSCRIPT_FIGURE
1002
{
1000
PSFILL
1000
Grayscale
1000
Grayscale
1070
   100
1002
}
  0
LINE
  5
16392
330
167A9
100
AcDbEntity
  8
YODOROGO
100
AcDbLine
 10
13968.80217064596
 20
950.2841744681497
 30
0.0
 11
13968.80217064596
 21
942.2841744681491
 31
0.0
1001
AUTOCAD_POSTSCRIPT_FIGURE
1002
{
1000
PSFILL
1000
Grayscale
1000
Grayscale
1070
   100
1002
}
  0
LINE
  5
16393
330
167A9
100
AcDbEntity
  8
YODOROGO
100
AcDbLine
 10
13952.80217064596
 20
950.2841744681497
 30
0.0
 11
13968.80217064596
 21
950.2841744681497
 31
0.0
1001
AUTOCAD_POSTSCRIPT_FIGURE
1002
{
1000
PSFILL
1000
Grayscale
1000
Grayscale
1070
   100
1002
}
  0
LINE
  5
16394
330
167A9
100
AcDbEntity
  8
YODOROGO
100
AcDbLine
 10
13952.80217064596
 20
969.8747482146441
 30
0.0
 11
13952.80217064596
 21
950.2841744681497
 31
0.0
1001
AUTOCAD_POSTSCRIPT_FIGURE
1002
{
1000
PSFILL
1000
Grayscale
1000
Grayscale
1070
   100
1002
}
  0
LINE
  5
16395
330
167A9
100
AcDbEntity
  8
YODOROGO
100
AcDbLine
 10
13968.80217064596
 20
969.8747482146441
 30
0.0
 11
13952.80217064596
 21
969.8747482146441
 31
0.0
1001
AUTOCAD_POSTSCRIPT_FIGURE
1002
{
1000
PSFILL
1000
Grayscale
1000
Grayscale
1070
   100
1002
}
  0
LINE
  5
16396
330
167A9
100
AcDbEntity
  8
YODOROGO
100
AcDbLine
 10
13968.80217064596
 20
977.8747482146435
 30
0.0
 11
13968.80217064596
 21
969.8747482146441
 31
0.0
1001
AUTOCAD_POSTSCRIPT_FIGURE
1002
{
1000
PSFILL
1000
Grayscale
1000
Grayscale
1070
   100
1002
}
  0
LINE
  5
16397
330
167A9
100
AcDbEntity
  8
YODOROGO
100
AcDbLine
 10
13952.80217064596
 20
977.8747482146435
 30
0.0
 11
13968.80217064596
 21
977.8747482146435
 31
0.0
1001
AUTOCAD_POSTSCRIPT_FIGURE
1002
{
1000
PSFILL
1000
Grayscale
1000
Grayscale
1070
   100
1002
}
  0
LINE
  5
16398
330
167A9
100
AcDbEntity
  8
YODOROGO
100
AcDbLine
 10
13952.80217064596
 20
989.8747482146443
 30
0.0
 11
13952.80217064596
 21
977.8747482146435
 31
0.0
1001
AUTOCAD_POSTSCRIPT_FIGURE
1002
{
1000
PSFILL
1000
Grayscale
1000
Grayscale
1070
   100
1002
}
  0
LINE
  5
16399
330
167A9
100
AcDbEntity
  8
YODOROGO
100
AcDbLine
 10
13944.80217064596
 20
989.8747482146443
 30
0.0
 11
13952.80217064596
 21
989.8747482146443
 31
0.0
1001
AUTOCAD_POSTSCRIPT_FIGURE
1002
{
1000
PSFILL
1000
Grayscale
1000
Grayscale
1070
   100
1002
}
  0
LINE
  5
1639A
330
167A9
100
AcDbEntity
  8
YODOROGO
100
AcDbLine
 10
13944.80217064596
 20
977.8747482146435
 30
0.0
 11
13944.80217064596
 21
989.8747482146443
 31
0.0
1001
AUTOCAD_POSTSCRIPT_FIGURE
1002
{
1000
PSFILL
1000
Grayscale
1000
Grayscale
1070
   100
1002
}
  0
LINE
  5
1639B
330
167A9
100
AcDbEntity
  8
YODOROGO
100
AcDbLine
 10
13932.80217064596
 20
977.8747482146435
 30
0.0
 11
13944.80217064596
 21
977.8747482146435
 31
0.0
1001
AUTOCAD_POSTSCRIPT_FIGURE
1002
{
1000
PSFILL
1000
Grayscale
1000
Grayscale
1070
   100
1002
}
  0
LINE
  5
1639C
330
167A9
100
AcDbEntity
  8
YODOROGO
100
AcDbLine
 10
13932.80217064596
 20
989.8747482146443
 30
0.0
 11
13932.80217064596
 21
977.8747482146435
 31
0.0
1001
AUTOCAD_POSTSCRIPT_FIGURE
1002
{
1000
PSFILL
1000
Grayscale
1000
Grayscale
1070
   100
1002
}
  0
LINE
  5
1639D
330
167A9
100
AcDbEntity
  8
YODOROGO
100
AcDbLine
 10
13924.80217064596
 20
989.8747482146443
 30
0.0
 11
13932.80217064596
 21
989.8747482146443
 31
0.0
1001
AUTOCAD_POSTSCRIPT_FIGURE
1002
{
1000
PSFILL
1000
Grayscale
1000
Grayscale
1070
   100
1002
}
  0
LINE
  5
1639E
330
167A9
100
AcDbEntity
  8
YODOROGO
100
AcDbLine
 10
13924.80217064596
 20
977.8747482146435
 30
0.0
 11
13924.80217064596
 21
989.8747482146443
 31
0.0
1001
AUTOCAD_POSTSCRIPT_FIGURE
1002
{
1000
PSFILL
1000
Grayscale
1000
Grayscale
1070
   100
1002
}
  0
LINE
  5
1639F
330
167A9
100
AcDbEntity
  8
YODOROGO
100
AcDbLine
 10
13908.80217064596
 20
977.8747482146435
 30
0.0
 11
13924.80217064596
 21
977.8747482146435
 31
0.0
1001
AUTOCAD_POSTSCRIPT_FIGURE
1002
{
1000
PSFILL
1000
Grayscale
1000
Grayscale
1070
   100
1002
}
  0
LINE
  5
163A0
330
167A9
100
AcDbEntity
  8
YODOROGO
100
AcDbLine
 10
13908.80217064596
 20
989.8747482146443
 30
0.0
 11
13908.80217064596
 21
977.8747482146435
 31
0.0
1001
AUTOCAD_POSTSCRIPT_FIGURE
1002
{
1000
PSFILL
1000
Grayscale
1000
Grayscale
1070
   100
1002
}
  0
LINE
  5
163A1
330
167A9
100
AcDbEntity
  8
YODOROGO
100
AcDbLine
 10
13900.80217064596
 20
989.8747482146443
 30
0.0
 11
13908.80217064596
 21
989.8747482146443
 31
0.0
1001
AUTOCAD_POSTSCRIPT_FIGURE
1002
{
1000
PSFILL
1000
Grayscale
1000
Grayscale
1070
   100
1002
}
  0
LINE
  5
163A2
330
167A9
100
AcDbEntity
  8
YODOROGO
100
AcDbLine
 10
13900.80217064596
 20
977.8747482146435
 30
0.0
 11
13900.80217064596
 21
989.8747482146443
 31
0.0
1001
AUTOCAD_POSTSCRIPT_FIGURE
1002
{
1000
PSFILL
1000
Grayscale
1000
Grayscale
1070
   100
1002
}
  0
LINE
  5
163A3
330
167A9
100
AcDbEntity
  8
YODOROGO
100
AcDbLine
 10
13888.80217064596
 20
977.8747482146435
 30
0.0
 11
13900.80217064596
 21
977.8747482146435
 31
0.0
1001
AUTOCAD_POSTSCRIPT_FIGURE
1002
{
1000
PSFILL
1000
Grayscale
1000
Grayscale
1070
   100
1002
}
  0
LINE
  5
163A4
330
167A9
100
AcDbEntity
  8
YODOROGO
100
AcDbLine
 10
13888.80217064596
 20
969.8747482146441
 30
0.0
 11
13888.80217064596
 21
977.8747482146435
 31
0.0
1001
AUTOCAD_POSTSCRIPT_FIGURE
1002
{
1000
PSFILL
1000
Grayscale
1000
Grayscale
1070
   100
1002
}
  0
LINE
  5
163A5
330
167A9
100
AcDbEntity
  8
YODOROGO
100
AcDbLine
 10
13900.80217064596
 20
969.8747482146441
 30
0.0
 11
13888.80217064596
 21
969.8747482146441
 31
0.0
1001
AUTOCAD_POSTSCRIPT_FIGURE
1002
{
1000
PSFILL
1000
Grayscale
1000
Grayscale
1070
   100
1002
}
  0
LINE
  5
163A6
330
167A9
100
AcDbEntity
  8
YODOROGO
100
AcDbLine
 10
13900.80217064596
 20
957.3932903968524
 30
0.0
 11
13900.80217064596
 21
969.8747482146441
 31
0.0
1001
AUTOCAD_POSTSCRIPT_FIGURE
1002
{
1000
PSFILL
1000
Grayscale
1000
Grayscale
1070
   100
1002
}
  0
LINE
  5
163A7
330
167A9
100
AcDbEntity
  8
YODOROGO
100
AcDbLine
 10
13888.80217064596
 20
929.8883739758355
 30
0.0
 11
13900.80217064596
 21
957.3932903968524
 31
0.0
1001
AUTOCAD_POSTSCRIPT_FIGURE
1002
{
1000
PSFILL
1000
Grayscale
1000
Grayscale
1070
   100
1002
}
  0
LINE
  5
163A8
330
167A9
100
AcDbEntity
  8
YODOROGO
100
AcDbLine
 10
13888.80217064596
 20
921.8883739758362
 30
0.0
 11
13888.80217064596
 21
929.8883739758355
 31
0.0
1001
AUTOCAD_POSTSCRIPT_FIGURE
1002
{
1000
PSFILL
1000
Grayscale
1000
Grayscale
1070
   100
1002
}
  0
LINE
  5
163A9
330
167A9
100
AcDbEntity
  8
YODOROGO
100
AcDbLine
 10
14128.80217064596
 20
933.8747482146439
 30
0.0
 11
14200.80217064595
 21
912.4388128201532
 31
0.0
1001
AUTOCAD_POSTSCRIPT_FIGURE
1002
{
1000
PSFILL
1000
Grayscale
1000
Grayscale
1070
   100
1002
}
  0
LINE
  5
163AA
330
167A9
100
AcDbEntity
  8
YODOROGO
100
AcDbLine
 10
14200.80217064595
 20
876.4388128201531
 30
0.0
 11
14128.80217064596
 21
897.8747482146435
 31
0.0
1001
AUTOCAD_POSTSCRIPT_FIGURE
1002
{
1000
PSFILL
1000
Grayscale
1000
Grayscale
1070
   100
1002
}
  0
LINE
  5
163AB
330
167A9
100
AcDbEntity
  8
YODOROGO
100
AcDbLine
 10
14200.80217064595
 20
992.4388128201531
 30
0.0
 11
14128.80217064596
 21
1013.874748214644
 31
0.0
1001
AUTOCAD_POSTSCRIPT_FIGURE
1002
{
1000
PSFILL
1000
Grayscale
1000
Grayscale
1070
   100
1002
}
  0
LINE
  5
163AC
330
167A9
100
AcDbEntity
  8
YODOROGO
100
AcDbLine
 10
14128.80217064596
 20
979.874748214644
 30
0.0
 11
14200.80217064595
 21
958.4388128201537
 31
0.0
1001
AUTOCAD_POSTSCRIPT_FIGURE
1002
{
1000
PSFILL
1000
Grayscale
1000
Grayscale
1070
   100
1002
}
  0
LINE
  5
163AD
330
167A9
100
AcDbEntity
  8
YODOROGO
100
AcDbLine
 10
14128.80217064596
 20
897.8747482146435
 30
0.0
 11
14128.80217064596
 21
933.8747482146439
 31
0.0
1001
AUTOCAD_POSTSCRIPT_FIGURE
1002
{
1000
PSFILL
1000
Grayscale
1000
Grayscale
1070
   100
1002
}
  0
LINE
  5
163AE
330
167A9
100
AcDbEntity
  8
YODOROGO
100
AcDbLine
 10
14128.80217064596
 20
1013.874748214644
 30
0.0
 11
14128.80217064596
 21
979.874748214644
 31
0.0
1001
AUTOCAD_POSTSCRIPT_FIGURE
1002
{
1000
PSFILL
1000
Grayscale
1000
Grayscale
1070
   100
1002
}
  0
LINE
  5
163AF
330
167A9
100
AcDbEntity
  8
YODOROGO
100
AcDbLine
 10
14040.11816010337
 20
969.8747482146441
 30
0.0
 11
14064.80217064595
 21
873.8747482146436
 31
0.0
1001
AUTOCAD_POSTSCRIPT_FIGURE
1002
{
1000
PSFILL
1000
Grayscale
1000
Grayscale
1070
   100
1002
}
  0
LINE
  5
163B0
330
167A9
100
AcDbEntity
  8
YODOROGO
100
AcDbLine
 10
13988.80217064596
 20
969.8747482146441
 30
0.0
 11
14040.11816010337
 21
969.8747482146441
 31
0.0
1001
AUTOCAD_POSTSCRIPT_FIGURE
1002
{
1000
PSFILL
1000
Grayscale
1000
Grayscale
1070
   100
1002
}
  0
LINE
  5
163B1
330
167A9
100
AcDbEntity
  8
YODOROGO
100
AcDbLine
 10
13988.80217064596
 20
977.8747482146435
 30
0.0
 11
13988.80217064596
 21
969.8747482146441
 31
0.0
1001
AUTOCAD_POSTSCRIPT_FIGURE
1002
{
1000
PSFILL
1000
Grayscale
1000
Grayscale
1070
   100
1002
}
  0
LINE
  5
163B2
330
167A9
100
AcDbEntity
  8
YODOROGO
100
AcDbLine
 10
14038.30343925995
 20
977.8747482146435
 30
0.0
 11
13988.80217064596
 21
977.8747482146435
 31
0.0
1001
AUTOCAD_POSTSCRIPT_FIGURE
1002
{
1000
PSFILL
1000
Grayscale
1000
Grayscale
1070
   100
1002
}
  0
LINE
  5
163B3
330
167A9
100
AcDbEntity
  8
YODOROGO
100
AcDbLine
 10
14035.58135799485
 20
989.8747482146443
 30
0.0
 11
14038.30343925995
 21
977.8747482146435
 31
0.0
1001
AUTOCAD_POSTSCRIPT_FIGURE
1002
{
1000
PSFILL
1000
Grayscale
1000
Grayscale
1070
   100
1002
}
  0
LINE
  5
163B4
330
167A9
100
AcDbEntity
  8
YODOROGO
100
AcDbLine
 10
14045.58135799485
 20
989.8747482146443
 30
0.0
 11
14035.58135799485
 21
989.8747482146443
 31
0.0
1001
AUTOCAD_POSTSCRIPT_FIGURE
1002
{
1000
PSFILL
1000
Grayscale
1000
Grayscale
1070
   100
1002
}
  0
LINE
  5
163B5
330
167A9
100
AcDbEntity
  8
YODOROGO
100
AcDbLine
 10
14047.90343925997
 20
977.8747482146435
 30
0.0
 11
14045.58135799485
 21
989.8747482146443
 31
0.0
1001
AUTOCAD_POSTSCRIPT_FIGURE
1002
{
1000
PSFILL
1000
Grayscale
1000
Grayscale
1070
   100
1002
}
  0
LINE
  5
163B6
330
167A9
100
AcDbEntity
  8
YODOROGO
100
AcDbLine
 10
14060.80217064596
 20
977.8747482146435
 30
0.0
 11
14047.90343925997
 21
977.8747482146435
 31
0.0
1001
AUTOCAD_POSTSCRIPT_FIGURE
1002
{
1000
PSFILL
1000
Grayscale
1000
Grayscale
1070
   100
1002
}
  0
LINE
  5
163B7
330
167A9
100
AcDbEntity
  8
YODOROGO
100
AcDbLine
 10
14060.80217064596
 20
989.8747482146443
 30
0.0
 11
14060.80217064596
 21
977.8747482146435
 31
0.0
1001
AUTOCAD_POSTSCRIPT_FIGURE
1002
{
1000
PSFILL
1000
Grayscale
1000
Grayscale
1070
   100
1002
}
  0
LINE
  5
163B8
330
167A9
100
AcDbEntity
  8
YODOROGO
100
AcDbLine
 10
14068.80217064596
 20
989.8747482146443
 30
0.0
 11
14060.80217064596
 21
989.8747482146443
 31
0.0
1001
AUTOCAD_POSTSCRIPT_FIGURE
1002
{
1000
PSFILL
1000
Grayscale
1000
Grayscale
1070
   100
1002
}
  0
LINE
  5
163B9
330
167A9
100
AcDbEntity
  8
YODOROGO
100
AcDbLine
 10
14068.80217064596
 20
977.8747482146435
 30
0.0
 11
14068.80217064596
 21
989.8747482146443
 31
0.0
1001
AUTOCAD_POSTSCRIPT_FIGURE
1002
{
1000
PSFILL
1000
Grayscale
1000
Grayscale
1070
   100
1002
}
  0
LINE
  5
163BA
330
167A9
100
AcDbEntity
  8
YODOROGO
100
AcDbLine
 10
14068.80217064596
 20
969.8747482146441
 30
0.0
 11
14068.80217064596
 21
977.8747482146435
 31
0.0
1001
AUTOCAD_POSTSCRIPT_FIGURE
1002
{
1000
PSFILL
1000
Grayscale
1000
Grayscale
1070
   100
1002
}
  0
LINE
  5
163BB
330
167A9
100
AcDbEntity
  8
YODOROGO
100
AcDbLine
 10
14049.4514934367
 20
969.8747482146441
 30
0.0
 11
14068.80217064596
 21
969.8747482146441
 31
0.0
1001
AUTOCAD_POSTSCRIPT_FIGURE
1002
{
1000
PSFILL
1000
Grayscale
1000
Grayscale
1070
   100
1002
}
  0
LINE
  5
163BC
330
167A9
100
AcDbEntity
  8
YODOROGO
100
AcDbLine
 10
14068.80217064596
 20
873.8747482146436
 30
0.0
 11
14049.4514934367
 21
969.8747482146441
 31
0.0
1001
AUTOCAD_POSTSCRIPT_FIGURE
1002
{
1000
PSFILL
1000
Grayscale
1000
Grayscale
1070
   100
1002
}
  0
LINE
  5
163BD
330
167A9
100
AcDbEntity
  8
YODOROGO
100
AcDbLine
 10
14064.80217064595
 20
873.8747482146436
 30
0.0
 11
14068.80217064596
 21
873.8747482146436
 31
0.0
1001
AUTOCAD_POSTSCRIPT_FIGURE
1002
{
1000
PSFILL
1000
Grayscale
1000
Grayscale
1070
   100
1002
}
  0
LINE
  5
163BE
330
167A9
100
AcDbEntity
  8
YODOROGO
100
AcDbLine
 10
14039.03460996689
 20
887.8703881493972
 30
0.0
 11
13988.80217064596
 21
873.8747482146436
 31
0.0
  0
LINE
  5
163BF
330
167A9
100
AcDbEntity
  8
YODOROGO
100
AcDbLine
 10
14039.03460996689
 20
899.3344897645366
 30
0.0
 11
14039.03460996689
 21
887.8703881493972
 31
0.0
  0
LINE
  5
163C0
330
167A9
100
AcDbEntity
  8
YODOROGO
100
AcDbLine
 10
14016.91839030643
 20
893.4084665668834
 30
0.0
 11
14039.03460996689
 21
899.3344897645366
 31
0.0
  0
LINE
  5
163C1
330
167A9
100
AcDbEntity
  8
YODOROGO
100
AcDbLine
 10
14016.91839030643
 20
936.2841744681499
 30
0.0
 11
14016.91839030643
 21
893.4084665668834
 31
0.0
  0
LINE
  5
163C2
330
167A9
100
AcDbEntity
  8
YODOROGO
100
AcDbLine
 10
14039.03460996689
 20
936.2841744681499
 30
0.0
 11
14016.91839030643
 21
936.2841744681499
 31
0.0
  0
LINE
  5
163C3
330
167A9
100
AcDbEntity
  8
YODOROGO
100
AcDbLine
 10
14039.03460996689
 20
946.2841744681487
 30
0.0
 11
14039.03460996689
 21
936.2841744681499
 31
0.0
  0
LINE
  5
163C4
330
167A9
100
AcDbEntity
  8
YODOROGO
100
AcDbLine
 10
13988.80217064596
 20
946.2841744681487
 30
0.0
 11
14039.03460996689
 21
946.2841744681487
 31
0.0
  0
LINE
  5
163C5
330
167A9
100
AcDbEntity
  8
YODOROGO
100
AcDbLine
 10
13988.80217064596
 20
936.2841744681499
 30
0.0
 11
13988.80217064596
 21
946.2841744681487
 31
0.0
  0
LINE
  5
163C6
330
167A9
100
AcDbEntity
  8
YODOROGO
100
AcDbLine
 10
14010.91839030643
 20
936.2841744681499
 30
0.0
 11
13988.80217064596
 21
936.2841744681499
 31
0.0
  0
LINE
  5
163C7
330
167A9
100
AcDbEntity
  8
YODOROGO
100
AcDbLine
 10
14010.91839030643
 20
892.3366697971587
 30
0.0
 11
14010.91839030643
 21
936.2841744681499
 31
0.0
  0
LINE
  5
163C8
330
167A9
100
AcDbEntity
  8
YODOROGO
100
AcDbLine
 10
13988.80217064596
 20
885.8747482146432
 30
0.0
 11
14010.91839030643
 21
892.3366697971587
 31
0.0
  0
LINE
  5
163C9
330
167A9
100
AcDbEntity
  8
YODOROGO
100
AcDbLine
 10
13988.80217064596
 20
873.8747482146436
 30
0.0
 11
13988.80217064596
 21
885.8747482146432
 31
0.0
  0
LINE
  5
163CA
330
167A9
100
AcDbEntity
  8
YODOROGO
100
AcDbLine
 10
14000.80217064596
 20
853.8747482146439
 30
0.0
 11
14000.80217064596
 21
841.8747482146434
 31
0.0
  0
LINE
  5
163CB
330
167A9
100
AcDbEntity
  8
YODOROGO
100
AcDbLine
 10
14000.80217064596
 20
853.8747482146439
 30
0.0
 11
14000.80217064596
 21
853.8747482146439
 31
0.0
  0
LINE
  5
163CC
330
167A9
100
AcDbEntity
  8
YODOROGO
100
AcDbLine
 10
14008.80217064596
 20
853.8747482146439
 30
0.0
 11
14000.80217064596
 21
853.8747482146439
 31
0.0
  0
LINE
  5
163CD
330
167A9
100
AcDbEntity
  8
YODOROGO
100
AcDbLine
 10
14008.80217064596
 20
841.8747482146434
 30
0.0
 11
14008.80217064596
 21
853.8747482146439
 31
0.0
  0
LINE
  5
163CE
330
167A9
100
AcDbEntity
  8
YODOROGO
100
AcDbLine
 10
14020.45660200845
 20
841.8747482146434
 30
0.0
 11
14008.80217064596
 21
841.8747482146434
 31
0.0
  0
LINE
  5
163CF
330
167A9
100
AcDbEntity
  8
YODOROGO
100
AcDbLine
 10
14000.80217064596
 20
841.8747482146434
 30
0.0
 11
13988.80217064596
 21
841.8747482146434
 31
0.0
  0
LINE
  5
163D0
330
167A9
100
AcDbEntity
  8
YODOROGO
100
AcDbLine
 10
14041.06776011546
 20
853.8747482146439
 30
0.0
 11
14049.06776011545
 21
853.8747482146439
 31
0.0
1001
AUTOCAD_POSTSCRIPT_FIGURE
1002
{
1000
PSFILL
1000
Grayscale
1000
Grayscale
1070
   100
1002
}
  0
LINE
  5
163D1
330
167A9
100
AcDbEntity
  8
YODOROGO
100
AcDbLine
 10
14200.80217064595
 20
912.4388128201532
 30
0.0
 11
14200.80217064595
 21
876.4388128201531
 31
0.0
1001
AUTOCAD_POSTSCRIPT_FIGURE
1002
{
1000
PSFILL
1000
Grayscale
1000
Grayscale
1070
   100
1002
}
  0
LINE
  5
163D2
330
167A9
100
AcDbEntity
  8
YODOROGO
100
AcDbLine
 10
14200.80217064595
 20
958.4388128201537
 30
0.0
 11
14200.80217064595
 21
992.4388128201531
 31
0.0
1001
AUTOCAD_POSTSCRIPT_FIGURE
1002
{
1000
PSFILL
1000
Grayscale
1000
Grayscale
1070
   100
1002
}
  0
LINE
  5
163D3
330
167A9
100
AcDbEntity
  8
YODOROGO
100
AcDbLine
 10
14216.80217064595
 20
909.8747482146439
 30
0.0
 11
14216.80217064595
 21
873.8747482146449
 31
0.0
  0
LINE
  5
163D4
330
167A9
100
AcDbEntity
  8
YODOROGO
100
AcDbLine
 10
14248.80217064595
 20
853.8747482146439
 30
0.0
 11
14216.80217064595
 21
853.8747482146439
 31
0.0
  0
LINE
  5
163D5
330
167A9
100
AcDbEntity
  8
YODOROGO
100
AcDbLine
 10
14216.80217064595
 20
873.8747482146449
 30
0.0
 11
14292.80217064596
 21
873.8747482146449
 31
0.0
  0
LINE
  5
163D6
330
167A9
100
AcDbEntity
  8
YODOROGO
100
AcDbLine
 10
14248.80217064595
 20
933.8747482146439
 30
0.0
 11
14216.80217064595
 21
933.8747482146439
 31
0.0
  0
LINE
  5
163D7
330
167A9
100
AcDbEntity
  8
YODOROGO
100
AcDbLine
 10
14248.80217064595
 20
961.8747482146432
 30
0.0
 11
14248.80217064595
 21
933.8747482146439
 31
0.0
  0
LINE
  5
163D8
330
167A9
100
AcDbEntity
  8
YODOROGO
100
AcDbLine
 10
14292.80217064596
 20
993.8747482146439
 30
0.0
 11
14292.80217064596
 21
1013.874748214644
 31
0.0
  0
LINE
  5
163D9
330
167A9
100
AcDbEntity
  8
YODOROGO
100
AcDbLine
 10
14216.80217064595
 20
993.8747482146439
 30
0.0
 11
14292.80217064596
 21
993.8747482146439
 31
0.0
  0
LINE
  5
163DA
330
167A9
100
AcDbEntity
  8
YODOROGO
100
AcDbLine
 10
14216.80217064595
 20
933.8747482146439
 30
0.0
 11
14216.80217064595
 21
993.8747482146439
 31
0.0
  0
LINE
  5
163DB
330
167A9
100
AcDbEntity
  8
YODOROGO
100
AcDbLine
 10
14500.80217064595
 20
1013.874748214644
 30
0.0
 11
14500.80217064595
 21
809.8747482146441
 31
0.0
  0
LINE
  5
163DC
330
167A9
100
AcDbEntity
  8
YODOROGO
100
AcDbLine
 10
14536.80217064596
 20
789.8747482146441
 30
0.0
 11
14536.80217064596
 21
1013.874748214644
 31
0.0
  0
LINE
  5
163DD
330
167A9
100
AcDbEntity
  8
YODOROGO
100
AcDbLine
 10
14630.80217064596
 20
745.8747482146431
 30
0.0
 11
14630.80217064596
 21
1003.874748214644
 31
0.0
  0
LINE
  5
163DE
330
167A9
100
AcDbEntity
  8
YODOROGO
100
AcDbLine
 10
14598.80217064596
 20
1003.874748214644
 30
0.0
 11
14598.80217064596
 21
745.8747482146431
 31
0.0
  0
LINE
  5
163DF
330
167A9
100
AcDbEntity
  8
YODOROGO
100
AcDbLine
 10
14692.80217064596
 20
1013.874748214644
 30
0.0
 11
14692.80217064596
 21
713.8747482146436
 31
0.0
  0
LINE
  5
163E0
330
167A9
100
AcDbEntity
  8
YODOROGO
100
AcDbLine
 10
14728.80217064596
 20
713.8747482146436
 30
0.0
 11
14728.80217064596
 21
1013.874748214644
 31
0.0
  0
LINE
  5
163E1
330
167A9
100
AcDbEntity
  8
YODOROGO
100
AcDbLine
 10
14328.80217064595
 20
833.8747482146439
 30
0.0
 11
14328.80217064595
 21
873.8747482146449
 31
0.0
  0
LINE
  5
163E2
330
167A9
100
AcDbEntity
  8
YODOROGO
100
AcDbLine
 10
14942.80217064596
 20
853.8747482146439
 30
0.0
 11
14942.80217064596
 21
833.8747482146439
 31
0.0
  0
LINE
  5
163E3
330
167A9
100
AcDbEntity
  8
YODOROGO
100
AcDbLine
 10
14942.80217064596
 20
853.8747482146439
 30
0.0
 11
14942.80217064596
 21
833.8747482146439
 31
0.0
  0
ARC
  5
163E4
330
167A9
100
AcDbEntity
  8
YODOROGO
100
AcDbCircle
 10
14453.45578809341
 20
809.1089322211365
 30
0.0
 40
47.35257558937083
100
AcDbArc
 50
274.052441629071
 51
0.9266642149310712
  0
ARC
  5
163E5
330
167A9
100
AcDbEntity
  8
YODOROGO
100
AcDbCircle
 10
14454.59308535991
 20
796.30536430522
 30
0.0
 40
82.46021178042756
100
AcDbArc
 50
271.5351210653778
 51
355.5272775058505
  0
LINE
  5
163E6
330
167A9
100
AcDbEntity
  8
YODOROGO
100
AcDbLine
 10
14456.80217064596
 20
761.8747482146434
 30
0.0
 11
14456.80217064596
 21
713.8747482146436
 31
0.0
  0
LINE
  5
163E7
330
167A9
100
AcDbEntity
  8
YODOROGO
100
AcDbLine
 10
14396.80217064594
 20
833.8747482146439
 30
0.0
 11
14328.80217064595
 21
833.8747482146439
 31
0.0
  0
LINE
  5
163E8
330
167A9
100
AcDbEntity
  8
YODOROGO
100
AcDbLine
 10
14396.80217064594
 20
801.8747482146446
 30
0.0
 11
14396.80217064594
 21
833.8747482146439
 31
0.0
  0
LINE
  5
163E9
330
167A9
100
AcDbEntity
  8
YODOROGO
100
AcDbLine
 10
14328.80217064595
 20
801.8747482146446
 30
0.0
 11
14396.80217064594
 21
801.8747482146446
 31
0.0
  0
LINE
  5
163EA
330
167A9
100
AcDbEntity
  8
YODOROGO
100
AcDbLine
 10
14328.80217064595
 20
761.8747482146434
 30
0.0
 11
14328.80217064595
 21
801.8747482146446
 31
0.0
  0
LINE
  5
163EB
330
167A9
100
AcDbEntity
  8
YODOROGO
100
AcDbLine
 10
14396.80217064594
 20
761.8747482146434
 30
0.0
 11
14328.80217064595
 21
761.8747482146434
 31
0.0
  0
LINE
  5
163EC
330
167A9
100
AcDbEntity
  8
YODOROGO
100
AcDbLine
 10
14396.80217064594
 20
713.8747482146436
 30
0.0
 11
14396.80217064594
 21
761.8747482146434
 31
0.0
  0
LINE
  5
163ED
330
167A9
100
AcDbEntity
  8
YODOROGO
100
AcDbLine
 10
14598.80217064596
 20
745.8747482146431
 30
0.0
 11
14630.80217064596
 21
745.8747482146431
 31
0.0
  0
LINE
  5
163EE
330
167A9
100
AcDbEntity
  8
YODOROGO
100
AcDbLine
 10
14692.80217064596
 20
713.8747482146436
 30
0.0
 11
14728.80217064596
 21
713.8747482146436
 31
0.0
  0
LINE
  5
163EF
330
167A9
100
AcDbEntity
  8
YODOROGO
100
AcDbLine
 10
14868.80217064596
 20
764.2207260852821
 30
0.0
 11
14868.80217064596
 21
713.8747482146436
 31
0.0
  0
LINE
  5
163F0
330
167A9
100
AcDbEntity
  8
YODOROGO
100
AcDbLine
 10
14808.80217064596
 20
713.8747482146436
 30
0.0
 11
14868.80217064596
 21
764.2207260852821
 31
0.0
  0
LINE
  5
163F1
330
167A9
100
AcDbEntity
  8
YODOROGO
100
AcDbLine
 10
14808.80217064596
 20
773.8747482146439
 30
0.0
 11
14808.80217064596
 21
713.8747482146436
 31
0.0
  0
LINE
  5
163F2
330
167A9
100
AcDbEntity
  8
YODOROGO
100
AcDbLine
 10
14856.47231434973
 20
813.8747482146436
 30
0.0
 11
14808.80217064596
 21
773.8747482146439
 31
0.0
  0
LINE
  5
163F3
330
167A9
100
AcDbEntity
  8
YODOROGO
100
AcDbLine
 10
14808.80217064596
 20
813.8747482146436
 30
0.0
 11
14856.47231434973
 21
813.8747482146436
 31
0.0
  0
LINE
  5
163F4
330
167A9
100
AcDbEntity
  8
YODOROGO
100
AcDbLine
 10
14808.80217064596
 20
833.8747482146439
 30
0.0
 11
14808.80217064596
 21
813.8747482146436
 31
0.0
  0
LINE
  5
163F5
330
167A9
100
AcDbEntity
  8
YODOROGO
100
AcDbLine
 10
14942.80217064596
 20
833.8747482146439
 30
0.0
 11
14808.80217064596
 21
833.8747482146439
 31
0.0
  0
LINE
  5
163F6
330
167A9
100
AcDbEntity
  8
YODOROGO
100
AcDbLine
 10
14958.80217064596
 20
813.8747482146436
 30
0.0
 11
14888.80217064596
 21
813.8747482146436
 31
0.0
  0
LINE
  5
163F7
330
167A9
100
AcDbEntity
  8
YODOROGO
100
AcDbLine
 10
14888.80217064596
 20
781.0027187088283
 30
0.0
 11
14885.70493649264
 21
778.403830673117
 31
0.0
  0
LINE
  5
163F8
330
167A9
100
AcDbEntity
  8
YODOROGO
100
AcDbLine
 10
14888.80217064596
 20
813.8747482146436
 30
0.0
 11
14888.80217064596
 21
781.0027187088283
 31
0.0
  0
LINE
  5
163F9
330
167A9
100
AcDbEntity
  8
YODOROGO
100
AcDbLine
 10
14868.80217064596
 20
764.2207260852821
 30
0.0
 11
14868.80217064596
 21
713.8747482146436
 31
0.0
  0
LINE
  5
163FA
330
167A9
100
AcDbEntity
  8
YODOROGO
100
AcDbLine
 10
14808.80217064596
 20
713.8747482146436
 30
0.0
 11
14868.80217064596
 21
764.2207260852821
 31
0.0
  0
LINE
  5
163FB
330
167A9
100
AcDbEntity
  8
YODOROGO
100
AcDbLine
 10
14808.80217064596
 20
773.8747482146439
 30
0.0
 11
14808.80217064596
 21
713.8747482146436
 31
0.0
  0
LINE
  5
163FC
330
167A9
100
AcDbEntity
  8
YODOROGO
100
AcDbLine
 10
14856.47231434973
 20
813.8747482146436
 30
0.0
 11
14808.80217064596
 21
773.8747482146439
 31
0.0
  0
LINE
  5
163FD
330
167A9
100
AcDbEntity
  8
YODOROGO
100
AcDbLine
 10
14808.80217064596
 20
813.8747482146436
 30
0.0
 11
14856.47231434973
 21
813.8747482146436
 31
0.0
  0
LINE
  5
163FE
330
167A9
100
AcDbEntity
  8
YODOROGO
100
AcDbLine
 10
14808.80217064596
 20
833.8747482146439
 30
0.0
 11
14808.80217064596
 21
813.8747482146436
 31
0.0
  0
LINE
  5
163FF
330
167A9
100
AcDbEntity
  8
YODOROGO
100
AcDbLine
 10
14942.80217064596
 20
833.8747482146439
 30
0.0
 11
14808.80217064596
 21
833.8747482146439
 31
0.0
  0
LINE
  5
16400
330
167A9
100
AcDbEntity
  8
YODOROGO
100
AcDbLine
 10
14396.80217064594
 20
873.8747482146449
 30
0.0
 11
14396.80217064594
 21
909.8747482146439
 31
0.0
  0
LINE
  5
16401
330
167A9
100
AcDbEntity
  8
YODOROGO
100
AcDbLine
 10
14328.80217064595
 20
873.8747482146449
 30
0.0
 11
14396.80217064594
 21
873.8747482146449
 31
0.0
  0
LINE
  5
16402
330
167A9
100
AcDbEntity
  8
YODOROGO
100
AcDbLine
 10
14364.80217064596
 20
933.8747482146439
 30
0.0
 11
14364.80217064596
 21
961.8747482146432
 31
0.0
  0
LINE
  5
16403
330
167A9
100
AcDbEntity
  8
YODOROGO
100
AcDbLine
 10
14396.80217064594
 20
933.8747482146439
 30
0.0
 11
14364.80217064596
 21
933.8747482146439
 31
0.0
  0
LINE
  5
16404
330
167A9
100
AcDbEntity
  8
YODOROGO
100
AcDbLine
 10
14396.80217064594
 20
973.8747482146436
 30
0.0
 11
14396.80217064594
 21
933.8747482146439
 31
0.0
  0
ARC
  5
16405
330
167A9
100
AcDbEntity
  8
YODOROGO
100
AcDbCircle
 10
14376.80217064595
 20
973.8747482146436
 30
0.0
 40
20.0
100
AcDbArc
 50
0.0
 51
90.0
  0
LINE
  5
16406
330
167A9
100
AcDbEntity
  8
YODOROGO
100
AcDbLine
 10
14328.80217064596
 20
993.8747482146439
 30
0.0
 11
14376.80217064595
 21
993.8747482146439
 31
0.0
  0
LINE
  5
16407
330
167A9
100
AcDbEntity
  8
YODOROGO
100
AcDbLine
 10
14328.80217064596
 20
1013.874748214644
 30
0.0
 11
14328.80217064596
 21
993.8747482146439
 31
0.0
  0
LINE
  5
16408
330
167A9
100
AcDbEntity
  8
YODOROGO
100
AcDbLine
 10
14536.80217064596
 20
1013.874748214644
 30
0.0
 11
14500.80217064595
 21
1013.874748214644
 31
0.0
  0
LINE
  5
16409
330
167A9
100
AcDbEntity
  8
YODOROGO
100
AcDbLine
 10
14630.80217064596
 20
1003.874748214644
 30
0.0
 11
14598.80217064596
 21
1003.874748214644
 31
0.0
  0
LINE
  5
1640A
330
167A9
100
AcDbEntity
  8
YODOROGO
100
AcDbLine
 10
14728.80217064596
 20
1013.874748214644
 30
0.0
 11
14692.80217064596
 21
1013.874748214644
 31
0.0
  0
LINE
  5
1640B
330
167A9
100
AcDbEntity
  8
YODOROGO
100
AcDbLine
 10
14836.80217064596
 20
853.8747482146439
 30
0.0
 11
14836.80217064596
 21
885.8747482146442
 31
0.0
1001
AUTOCAD_POSTSCRIPT_FIGURE
1002
{
1000
PSFILL
1000
Grayscale
1000
Grayscale
1070
    25
1002
}
  0
LINE
  5
1640C
330
167A9
100
AcDbEntity
  8
YODOROGO
100
AcDbLine
 10
14808.80217064596
 20
853.8747482146439
 30
0.0
 11
14836.80217064596
 21
853.8747482146439
 31
0.0
1001
AUTOCAD_POSTSCRIPT_FIGURE
1002
{
1000
PSFILL
1000
Grayscale
1000
Grayscale
1070
    25
1002
}
  0
LINE
  5
1640D
330
167A9
100
AcDbEntity
  8
YODOROGO
100
AcDbLine
 10
14808.80217064596
 20
909.8747482146439
 30
0.0
 11
14808.80217064596
 21
853.8747482146439
 31
0.0
1001
AUTOCAD_POSTSCRIPT_FIGURE
1002
{
1000
PSFILL
1000
Grayscale
1000
Grayscale
1070
    25
1002
}
  0
LINE
  5
1640E
330
167A9
100
AcDbEntity
  8
YODOROGO
100
AcDbLine
 10
14882.80217064596
 20
909.8747482146439
 30
0.0
 11
14808.80217064596
 21
909.8747482146439
 31
0.0
1001
AUTOCAD_POSTSCRIPT_FIGURE
1002
{
1000
PSFILL
1000
Grayscale
1000
Grayscale
1070
    25
1002
}
  0
LINE
  5
1640F
330
167A9
100
AcDbEntity
  8
YODOROGO
100
AcDbLine
 10
14882.80217064596
 20
929.874748214644
 30
0.0
 11
14882.80217064596
 21
909.8747482146439
 31
0.0
1001
AUTOCAD_POSTSCRIPT_FIGURE
1002
{
1000
PSFILL
1000
Grayscale
1000
Grayscale
1070
    25
1002
}
  0
LINE
  5
16410
330
167A9
100
AcDbEntity
  8
YODOROGO
100
AcDbLine
 10
14808.80217064596
 20
929.874748214644
 30
0.0
 11
14882.80217064596
 21
929.874748214644
 31
0.0
1001
AUTOCAD_POSTSCRIPT_FIGURE
1002
{
1000
PSFILL
1000
Grayscale
1000
Grayscale
1070
    25
1002
}
  0
LINE
  5
16411
330
167A9
100
AcDbEntity
  8
YODOROGO
100
AcDbLine
 10
14808.80217064596
 20
953.874748214644
 30
0.0
 11
14808.80217064596
 21
929.874748214644
 31
0.0
1001
AUTOCAD_POSTSCRIPT_FIGURE
1002
{
1000
PSFILL
1000
Grayscale
1000
Grayscale
1070
    25
1002
}
  0
LINE
  5
16412
330
167A9
100
AcDbEntity
  8
YODOROGO
100
AcDbLine
 10
14882.80217064596
 20
953.874748214644
 30
0.0
 11
14808.80217064596
 21
953.874748214644
 31
0.0
1001
AUTOCAD_POSTSCRIPT_FIGURE
1002
{
1000
PSFILL
1000
Grayscale
1000
Grayscale
1070
    25
1002
}
  0
LINE
  5
16413
330
167A9
100
AcDbEntity
  8
YODOROGO
100
AcDbLine
 10
14882.80217064596
 20
973.8747482146436
 30
0.0
 11
14882.80217064596
 21
953.874748214644
 31
0.0
1001
AUTOCAD_POSTSCRIPT_FIGURE
1002
{
1000
PSFILL
1000
Grayscale
1000
Grayscale
1070
    25
1002
}
  0
LINE
  5
16414
330
167A9
100
AcDbEntity
  8
YODOROGO
100
AcDbLine
 10
14808.80217064596
 20
973.8747482146436
 30
0.0
 11
14882.80217064596
 21
973.8747482146436
 31
0.0
1001
AUTOCAD_POSTSCRIPT_FIGURE
1002
{
1000
PSFILL
1000
Grayscale
1000
Grayscale
1070
    25
1002
}
  0
LINE
  5
16415
330
167A9
100
AcDbEntity
  8
YODOROGO
100
AcDbLine
 10
14808.80217064596
 20
1013.874748214644
 30
0.0
 11
14808.80217064596
 21
973.8747482146436
 31
0.0
1001
AUTOCAD_POSTSCRIPT_FIGURE
1002
{
1000
PSFILL
1000
Grayscale
1000
Grayscale
1070
    25
1002
}
  0
LINE
  5
16416
330
167A9
100
AcDbEntity
  8
YODOROGO
100
AcDbLine
 10
14832.80217064596
 20
1013.874748214644
 30
0.0
 11
14808.80217064596
 21
1013.874748214644
 31
0.0
1001
AUTOCAD_POSTSCRIPT_FIGURE
1002
{
1000
PSFILL
1000
Grayscale
1000
Grayscale
1070
    25
1002
}
  0
LINE
  5
16417
330
167A9
100
AcDbEntity
  8
YODOROGO
100
AcDbLine
 10
14832.80217064596
 20
997.8747482146435
 30
0.0
 11
14832.80217064596
 21
1013.874748214644
 31
0.0
1001
AUTOCAD_POSTSCRIPT_FIGURE
1002
{
1000
PSFILL
1000
Grayscale
1000
Grayscale
1070
    25
1002
}
  0
LINE
  5
16418
330
167A9
100
AcDbEntity
  8
YODOROGO
100
AcDbLine
 10
14882.80217064596
 20
997.8747482146435
 30
0.0
 11
14832.80217064596
 21
997.8747482146435
 31
0.0
1001
AUTOCAD_POSTSCRIPT_FIGURE
1002
{
1000
PSFILL
1000
Grayscale
1000
Grayscale
1070
    25
1002
}
  0
LINE
  5
16419
330
167A9
100
AcDbEntity
  8
YODOROGO
100
AcDbLine
 10
14882.80217064596
 20
1013.874748214644
 30
0.0
 11
14882.80217064596
 21
997.8747482146435
 31
0.0
1001
AUTOCAD_POSTSCRIPT_FIGURE
1002
{
1000
PSFILL
1000
Grayscale
1000
Grayscale
1070
    25
1002
}
  0
LINE
  5
1641A
330
167A9
100
AcDbEntity
  8
YODOROGO
100
AcDbLine
 10
14914.80217064596
 20
1013.874748214644
 30
0.0
 11
14882.80217064596
 21
1013.874748214644
 31
0.0
1001
AUTOCAD_POSTSCRIPT_FIGURE
1002
{
1000
PSFILL
1000
Grayscale
1000
Grayscale
1070
    25
1002
}
  0
LINE
  5
1641B
330
167A9
100
AcDbEntity
  8
YODOROGO
100
AcDbLine
 10
14914.80217064596
 20
997.8747482146435
 30
0.0
 11
14914.80217064596
 21
1013.874748214644
 31
0.0
1001
AUTOCAD_POSTSCRIPT_FIGURE
1002
{
1000
PSFILL
1000
Grayscale
1000
Grayscale
1070
    25
1002
}
  0
LINE
  5
1641C
330
167A9
100
AcDbEntity
  8
YODOROGO
100
AcDbLine
 10
14914.80217064596
 20
953.874748214644
 30
0.0
 11
14914.80217064596
 21
973.8747482146436
 31
0.0
1001
AUTOCAD_POSTSCRIPT_FIGURE
1002
{
1000
PSFILL
1000
Grayscale
1000
Grayscale
1070
    25
1002
}
  0
LINE
  5
1641D
330
167A9
100
AcDbEntity
  8
YODOROGO
100
AcDbLine
 10
14914.80217064596
 20
909.8747482146439
 30
0.0
 11
14914.80217064596
 21
929.874748214644
 31
0.0
1001
AUTOCAD_POSTSCRIPT_FIGURE
1002
{
1000
PSFILL
1000
Grayscale
1000
Grayscale
1070
    25
1002
}
  0
LINE
  5
1641E
330
167A9
100
AcDbEntity
  8
YODOROGO
100
AcDbLine
 10
14960.80217064594
 20
885.8747482146442
 30
0.0
 11
14960.80217064594
 21
853.8747482146439
 31
0.0
1001
AUTOCAD_POSTSCRIPT_FIGURE
1002
{
1000
PSFILL
1000
Grayscale
1000
Grayscale
1070
    25
1002
}
  0
LINE
  5
1641F
330
167A9
100
AcDbEntity
  8
YODOROGO
100
AcDbLine
 10
14914.80217064596
 20
885.8747482146442
 30
0.0
 11
14960.80217064594
 21
885.8747482146442
 31
0.0
1001
AUTOCAD_POSTSCRIPT_FIGURE
1002
{
1000
PSFILL
1000
Grayscale
1000
Grayscale
1070
    25
1002
}
  0
LINE
  5
16420
330
167A9
100
AcDbEntity
  8
YODOROGO
100
AcDbLine
 10
14914.80217064596
 20
853.8747482146439
 30
0.0
 11
14914.80217064596
 21
885.8747482146442
 31
0.0
1001
AUTOCAD_POSTSCRIPT_FIGURE
1002
{
1000
PSFILL
1000
Grayscale
1000
Grayscale
1070
    25
1002
}
  0
LINE
  5
16421
330
167A9
100
AcDbEntity
  8
YODOROGO
100
AcDbLine
 10
14882.80217064596
 20
853.8747482146439
 30
0.0
 11
14914.80217064596
 21
853.8747482146439
 31
0.0
1001
AUTOCAD_POSTSCRIPT_FIGURE
1002
{
1000
PSFILL
1000
Grayscale
1000
Grayscale
1070
    25
1002
}
  0
LINE
  5
16422
330
167A9
100
AcDbEntity
  8
YODOROGO
100
AcDbLine
 10
14882.80217064596
 20
885.8747482146442
 30
0.0
 11
14882.80217064596
 21
853.8747482146439
 31
0.0
1001
AUTOCAD_POSTSCRIPT_FIGURE
1002
{
1000
PSFILL
1000
Grayscale
1000
Grayscale
1070
    25
1002
}
  0
LINE
  5
16423
330
167A9
100
AcDbEntity
  8
YODOROGO
100
AcDbLine
 10
14836.80217064596
 20
885.8747482146442
 30
0.0
 11
14882.80217064596
 21
885.8747482146442
 31
0.0
1001
AUTOCAD_POSTSCRIPT_FIGURE
1002
{
1000
PSFILL
1000
Grayscale
1000
Grayscale
1070
    25
1002
}
  0
ARC
  5
16424
330
167A9
100
AcDbEntity
  8
YODOROGO
100
AcDbCircle
 10
15529.75894667896
 20
801.3403687577882
 30
0.0
 40
89.11064055536078
100
AcDbArc
 50
281.0262749542535
 51
357.771135755738
  0
LINE
  5
16425
330
167A9
100
AcDbEntity
  8
YODOROGO
100
AcDbLine
 10
15706.80217064596
 20
953.874748214644
 30
0.0
 11
15582.80217064596
 21
953.874748214644
 31
0.0
  0
LINE
  5
16426
330
167A9
100
AcDbEntity
  8
YODOROGO
100
AcDbLine
 10
15706.80217064596
 20
1013.874748214644
 30
0.0
 11
15582.80217064596
 21
1013.874748214644
 31
0.0
  0
LINE
  5
16427
330
167A9
100
AcDbEntity
  8
YODOROGO
100
AcDbLine
 10
15582.80217064596
 20
981.8747482146434
 30
0.0
 11
15706.80217064596
 21
981.8747482146434
 31
0.0
  0
LINE
  5
16428
330
167A9
100
AcDbEntity
  8
YODOROGO
100
AcDbLine
 10
15395.80217064596
 20
781.8747482146434
 30
0.0
 11
15395.80217064596
 21
877.8747482146437
 31
0.0
  0
LINE
  5
16429
330
167A9
100
AcDbEntity
  8
YODOROGO
100
AcDbLine
 10
15381.80217064596
 20
845.8747482146444
 30
0.0
 11
15381.80217064596
 21
781.8747482146434
 31
0.0
  0
LINE
  5
1642A
330
167A9
100
AcDbEntity
  8
YODOROGO
100
AcDbLine
 10
15361.80217064596
 20
745.8747482146443
 30
0.0
 11
15361.80217064596
 21
845.8747482146444
 31
0.0
  0
LINE
  5
1642B
330
167A9
100
AcDbEntity
  8
YODOROGO
100
AcDbLine
 10
15449.80217064596
 20
845.8747482146444
 30
0.0
 11
15449.80217064596
 21
745.8747482146443
 31
0.0
  0
LINE
  5
1642C
330
167A9
100
AcDbEntity
  8
YODOROGO
100
AcDbLine
 10
15429.80217064596
 20
781.8747482146434
 30
0.0
 11
15429.80217064596
 21
845.8747482146444
 31
0.0
  0
LINE
  5
1642D
330
167A9
100
AcDbEntity
  8
YODOROGO
100
AcDbLine
 10
15415.80217064596
 20
877.8747482146437
 30
0.0
 11
15415.80217064596
 21
781.8747482146434
 31
0.0
  0
LINE
  5
1642E
330
167A9
100
AcDbEntity
  8
YODOROGO
100
AcDbLine
 10
15486.80217064596
 20
1013.874748214644
 30
0.0
 11
15486.80217064596
 21
733.8747482146437
 31
0.0
  0
LINE
  5
1642F
330
167A9
100
AcDbEntity
  8
YODOROGO
100
AcDbLine
 10
15322.80217064596
 20
713.8747482146436
 30
0.0
 11
15322.80217064596
 21
1013.874748214644
 31
0.0
  0
LINE
  5
16430
330
167A9
100
AcDbEntity
  8
YODOROGO
100
AcDbLine
 10
15348.80217064596
 20
981.8747482146434
 30
0.0
 11
15348.80217064596
 21
713.8747482146436
 31
0.0
  0
LINE
  5
16431
330
167A9
100
AcDbEntity
  8
YODOROGO
100
AcDbLine
 10
15462.80217064596
 20
773.8747482146439
 30
0.0
 11
15462.80217064596
 21
981.8747482146434
 31
0.0
  0
LINE
  5
16432
330
167A9
100
AcDbEntity
  8
YODOROGO
100
AcDbLine
 10
15190.80217064596
 20
813.8747482146436
 30
0.0
 11
15190.80217064596
 21
839.8747482146443
 31
0.0
  0
LINE
  5
16433
330
167A9
100
AcDbEntity
  8
YODOROGO
100
AcDbLine
 10
15308.80217064596
 20
839.8747482146443
 30
0.0
 11
15308.80217064596
 21
813.8747482146436
 31
0.0
  0
LINE
  5
16434
330
167A9
100
AcDbEntity
  8
YODOROGO
100
AcDbLine
 10
15582.80217064596
 20
953.874748214644
 30
0.0
 11
15582.80217064596
 21
817.8747482146436
 31
0.0
  0
LINE
  5
16435
330
167A9
100
AcDbEntity
  8
YODOROGO
100
AcDbLine
 10
14974.80217064595
 20
833.8747482146439
 30
0.0
 11
14974.80217064595
 21
853.8747482146439
 31
0.0
  0
LINE
  5
16436
330
167A9
100
AcDbEntity
  8
YODOROGO
100
AcDbLine
 10
14974.80217064595
 20
833.8747482146439
 30
0.0
 11
14974.80217064595
 21
853.8747482146439
 31
0.0
  0
ARC
  5
16437
330
167A9
100
AcDbEntity
  8
YODOROGO
100
AcDbCircle
 10
15268.80217064596
 20
753.8747482146439
 30
0.0
 40
40.0
100
AcDbArc
 50
270.0
 51
0.0
  0
LINE
  5
16438
330
167A9
100
AcDbEntity
  8
YODOROGO
100
AcDbLine
 10
15284.80217064596
 20
799.8747482146441
 30
0.0
 11
15308.80217064596
 21
799.8747482146441
 31
0.0
  0
LINE
  5
16439
330
167A9
100
AcDbEntity
  8
YODOROGO
100
AcDbLine
 10
15308.80217064596
 20
813.8747482146436
 30
0.0
 11
15264.80217064596
 21
813.8747482146436
 31
0.0
  0
LINE
  5
1643A
330
167A9
100
AcDbEntity
  8
YODOROGO
100
AcDbLine
 10
15108.80217064596
 20
833.8747482146439
 30
0.0
 11
14974.80217064595
 21
833.8747482146439
 31
0.0
  0
LINE
  5
1643B
330
167A9
100
AcDbEntity
  8
YODOROGO
100
AcDbLine
 10
15108.80217064596
 20
813.8747482146436
 30
0.0
 11
15108.80217064596
 21
833.8747482146439
 31
0.0
  0
LINE
  5
1643C
330
167A9
100
AcDbEntity
  8
YODOROGO
100
AcDbLine
 10
15008.80217064596
 20
813.8747482146436
 30
0.0
 11
15108.80217064596
 21
813.8747482146436
 31
0.0
  0
ARC
  5
1643D
330
167A9
100
AcDbEntity
  8
YODOROGO
100
AcDbCircle
 10
15115.02941435068
 20
934.4428574764513
 30
0.0
 40
160.6888181426141
100
AcDbArc
 50
228.6181454618993
 51
245.660289248906
  0
LINE
  5
1643E
330
167A9
100
AcDbEntity
  8
YODOROGO
100
AcDbLine
 10
15052.80217064596
 20
801.8747482146446
 30
0.0
 11
15048.80217064598
 21
788.0364079349501
 31
0.0
  0
LINE
  5
1643F
330
167A9
100
AcDbEntity
  8
YODOROGO
100
AcDbLine
 10
15094.80217064596
 20
801.8747482146446
 30
0.0
 11
15052.80217064596
 21
801.8747482146446
 31
0.0
  0
LINE
  5
16440
330
167A9
100
AcDbEntity
  8
YODOROGO
100
AcDbLine
 10
15088.80217064596
 20
775.9088612367134
 30
0.0
 11
15094.80217064596
 21
801.8747482146446
 31
0.0
  0
ARC
  5
16441
330
167A9
100
AcDbEntity
  8
YODOROGO
100
AcDbCircle
 10
15115.02941435023
 20
934.4428574765013
 30
0.0
 40
160.6888181426453
100
AcDbArc
 50
260.6062929796993
 51
267.7790355655585
  0
LINE
  5
16442
330
167A9
100
AcDbEntity
  8
YODOROGO
100
AcDbLine
 10
15108.80217064596
 20
713.8747482146428
 30
0.0
 11
15108.80217064596
 21
773.8747482146439
 31
0.0
  0
LINE
  5
16443
330
167A9
100
AcDbEntity
  8
YODOROGO
100
AcDbLine
 10
14968.80217064596
 20
740.6696674577553
 30
0.0
 11
14968.80217064596
 21
797.2655452655707
 31
0.0
  0
LINE
  5
16444
330
167A9
100
AcDbEntity
  8
YODOROGO
100
AcDbLine
 10
15108.80217064596
 20
833.8747482146439
 30
0.0
 11
14974.80217064595
 21
833.8747482146439
 31
0.0
  0
LINE
  5
16445
330
167A9
100
AcDbEntity
  8
YODOROGO
100
AcDbLine
 10
15108.80217064596
 20
813.8747482146436
 30
0.0
 11
15108.80217064596
 21
833.8747482146439
 31
0.0
  0
LINE
  5
16446
330
167A9
100
AcDbEntity
  8
YODOROGO
100
AcDbLine
 10
15008.80217064596
 20
813.8747482146436
 30
0.0
 11
15108.80217064596
 21
813.8747482146436
 31
0.0
  0
ARC
  5
16447
330
167A9
100
AcDbEntity
  8
YODOROGO
100
AcDbCircle
 10
15115.02941435068
 20
934.4428574764513
 30
0.0
 40
160.6888181426141
100
AcDbArc
 50
228.6181454618993
 51
245.660289248906
  0
LINE
  5
16448
330
167A9
100
AcDbEntity
  8
YODOROGO
100
AcDbLine
 10
15052.80217064596
 20
801.8747482146446
 30
0.0
 11
15048.80217064598
 21
788.0364079349501
 31
0.0
  0
LINE
  5
16449
330
167A9
100
AcDbEntity
  8
YODOROGO
100
AcDbLine
 10
15094.80217064596
 20
801.8747482146446
 30
0.0
 11
15052.80217064596
 21
801.8747482146446
 31
0.0
  0
LINE
  5
1644A
330
167A9
100
AcDbEntity
  8
YODOROGO
100
AcDbLine
 10
15088.80217064596
 20
775.9088612367134
 30
0.0
 11
15094.80217064596
 21
801.8747482146446
 31
0.0
  0
ARC
  5
1644B
330
167A9
100
AcDbEntity
  8
YODOROGO
100
AcDbCircle
 10
15115.02941435023
 20
934.4428574765013
 30
0.0
 40
160.6888181426453
100
AcDbArc
 50
260.6062929796993
 51
267.7790355655585
  0
LINE
  5
1644C
330
167A9
100
AcDbEntity
  8
YODOROGO
100
AcDbLine
 10
15108.80217064596
 20
713.8747482146428
 30
0.0
 11
15108.80217064596
 21
773.8747482146439
 31
0.0
  0
LINE
  5
1644D
330
167A9
100
AcDbEntity
  8
YODOROGO
100
AcDbLine
 10
14968.80217064596
 20
740.6696674577553
 30
0.0
 11
14968.80217064596
 21
797.2655452655707
 31
0.0
  0
LINE
  5
1644E
330
167A9
100
AcDbEntity
  8
YODOROGO
100
AcDbLine
 10
15216.80217064596
 20
786.8747482146446
 30
0.0
 11
15190.80217064596
 21
786.8747482146446
 31
0.0
  0
LINE
  5
1644F
330
167A9
100
AcDbEntity
  8
YODOROGO
100
AcDbLine
 10
15216.80217064596
 20
800.8747482146432
 30
0.0
 11
15216.80217064596
 21
786.8747482146446
 31
0.0
  0
LINE
  5
16450
330
167A9
100
AcDbEntity
  8
YODOROGO
100
AcDbLine
 10
15190.80217064596
 20
800.8747482146432
 30
0.0
 11
15216.80217064596
 21
800.8747482146432
 31
0.0
  0
LINE
  5
16451
330
167A9
100
AcDbEntity
  8
YODOROGO
100
AcDbLine
 10
15190.80217064596
 20
786.8747482146446
 30
0.0
 11
15190.80217064596
 21
800.8747482146432
 31
0.0
  0
LINE
  5
16452
330
167A9
100
AcDbEntity
  8
YODOROGO
100
AcDbLine
 10
15214.80217064596
 20
788.8747482146436
 30
0.0
 11
15192.80217064595
 21
788.8747482146436
 31
0.0
  0
LINE
  5
16453
330
167A9
100
AcDbEntity
  8
YODOROGO
100
AcDbLine
 10
15214.80217064596
 20
798.8747482146439
 30
0.0
 11
15214.80217064596
 21
788.8747482146436
 31
0.0
  0
LINE
  5
16454
330
167A9
100
AcDbEntity
  8
YODOROGO
100
AcDbLine
 10
15192.80217064595
 20
798.8747482146439
 30
0.0
 11
15214.80217064596
 21
798.8747482146439
 31
0.0
  0
LINE
  5
16455
330
167A9
100
AcDbEntity
  8
YODOROGO
100
AcDbLine
 10
15192.80217064595
 20
788.8747482146436
 30
0.0
 11
15192.80217064595
 21
798.8747482146439
 31
0.0
  0
LINE
  5
16456
330
167A9
100
AcDbEntity
  8
YODOROGO
100
AcDbLine
 10
15212.80217064596
 20
790.8747482146432
 30
0.0
 11
15194.80217064596
 21
790.8747482146432
 31
0.0
  0
LINE
  5
16457
330
167A9
100
AcDbEntity
  8
YODOROGO
100
AcDbLine
 10
15212.80217064596
 20
796.8747482146445
 30
0.0
 11
15212.80217064596
 21
790.8747482146432
 31
0.0
  0
LINE
  5
16458
330
167A9
100
AcDbEntity
  8
YODOROGO
100
AcDbLine
 10
15194.80217064596
 20
796.8747482146445
 30
0.0
 11
15212.80217064596
 21
796.8747482146445
 31
0.0
  0
LINE
  5
16459
330
167A9
100
AcDbEntity
  8
YODOROGO
100
AcDbLine
 10
15194.80217064596
 20
790.8747482146432
 30
0.0
 11
15194.80217064596
 21
796.8747482146445
 31
0.0
  0
LINE
  5
1645A
330
167A9
100
AcDbEntity
  8
YODOROGO
100
AcDbLine
 10
15210.80217064596
 20
792.8747482146435
 30
0.0
 11
15196.80217064596
 21
792.8747482146435
 31
0.0
  0
LINE
  5
1645B
330
167A9
100
AcDbEntity
  8
YODOROGO
100
AcDbLine
 10
15210.80217064596
 20
794.8747482146441
 30
0.0
 11
15210.80217064596
 21
792.8747482146435
 31
0.0
  0
LINE
  5
1645C
330
167A9
100
AcDbEntity
  8
YODOROGO
100
AcDbLine
 10
15196.80217064596
 20
794.8747482146441
 30
0.0
 11
15210.80217064596
 21
794.8747482146441
 31
0.0
  0
LINE
  5
1645D
330
167A9
100
AcDbEntity
  8
YODOROGO
100
AcDbLine
 10
15196.80217064596
 20
792.8747482146435
 30
0.0
 11
15196.80217064596
 21
794.8747482146441
 31
0.0
  0
LINE
  5
1645E
330
167A9
100
AcDbEntity
  8
YODOROGO
100
AcDbLine
 10
15232.80217064596
 20
813.8747482146436
 30
0.0
 11
15190.80217064596
 21
813.8747482146436
 31
0.0
  0
LINE
  5
1645F
330
167A9
100
AcDbEntity
  8
YODOROGO
100
AcDbLine
 10
15232.80217064596
 20
773.8747482146439
 30
0.0
 11
15232.80217064596
 21
813.8747482146436
 31
0.0
  0
LINE
  5
16460
330
167A9
100
AcDbEntity
  8
YODOROGO
100
AcDbLine
 10
15190.80217064596
 20
773.8747482146439
 30
0.0
 11
15232.80217064596
 21
773.8747482146439
 31
0.0
  0
LINE
  5
16461
330
167A9
100
AcDbEntity
  8
YODOROGO
100
AcDbLine
 10
15190.80217064596
 20
713.8747482146436
 30
0.0
 11
15190.80217064596
 21
773.8747482146439
 31
0.0
  0
LINE
  5
16462
330
167A9
100
AcDbEntity
  8
YODOROGO
100
AcDbLine
 10
15268.80217064596
 20
713.8747482146436
 30
0.0
 11
15190.80217064596
 21
713.8747482146436
 31
0.0
  0
LINE
  5
16463
330
167A9
100
AcDbEntity
  8
YODOROGO
100
AcDbLine
 10
15284.80217064596
 20
785.8747482146432
 30
0.0
 11
15284.80217064596
 21
799.8747482146441
 31
0.0
  0
ARC
  5
16464
330
167A9
100
AcDbEntity
  8
YODOROGO
100
AcDbCircle
 10
15272.80217064594
 20
785.8747482146457
 30
0.0
 40
12.00000000000186
100
AcDbArc
 50
270.0
 51
359.9999999999877
  0
LINE
  5
16465
330
167A9
100
AcDbEntity
  8
YODOROGO
100
AcDbLine
 10
15264.80217064596
 20
773.8747482146439
 30
0.0
 11
15272.80217064594
 21
773.8747482146439
 31
0.0
  0
LINE
  5
16466
330
167A9
100
AcDbEntity
  8
YODOROGO
100
AcDbLine
 10
15264.80217064596
 20
813.8747482146436
 30
0.0
 11
15264.80217064596
 21
773.8747482146439
 31
0.0
  0
LINE
  5
16467
330
167A9
100
AcDbEntity
  8
YODOROGO
100
AcDbLine
 10
15449.80217064597
 20
773.8747482146439
 30
0.0
 11
15462.80217064596
 21
773.8747482146439
 31
0.0
  0
LINE
  5
16468
330
167A9
100
AcDbEntity
  8
YODOROGO
100
AcDbLine
 10
15466.80217064596
 20
713.8747482146436
 30
0.0
 11
15449.80217064596
 21
713.8747482146436
 31
0.0
  0
LINE
  5
16469
330
167A9
100
AcDbEntity
  8
YODOROGO
100
AcDbLine
 10
15381.80217064596
 20
781.8747482146434
 30
0.0
 11
15395.80217064596
 21
781.8747482146434
 31
0.0
  0
LINE
  5
1646A
330
167A9
100
AcDbEntity
  8
YODOROGO
100
AcDbLine
 10
15449.80217064596
 20
745.8747482146443
 30
0.0
 11
15361.80217064596
 21
745.8747482146443
 31
0.0
  0
LINE
  5
1646B
330
167A9
100
AcDbEntity
  8
YODOROGO
100
AcDbLine
 10
15415.80217064596
 20
781.8747482146434
 30
0.0
 11
15429.80217064596
 21
781.8747482146434
 31
0.0
  0
LINE
  5
1646C
330
167A9
100
AcDbEntity
  8
YODOROGO
100
AcDbLine
 10
15449.80217064596
 20
713.8747482146436
 30
0.0
 11
15449.80217064597
 21
773.8747482146439
 31
0.0
  0
LINE
  5
1646D
330
167A9
100
AcDbEntity
  8
YODOROGO
100
AcDbLine
 10
15348.80217064596
 20
713.8747482146436
 30
0.0
 11
15322.80217064596
 21
713.8747482146436
 31
0.0
  0
LINE
  5
1646E
330
167A9
100
AcDbEntity
  8
YODOROGO
100
AcDbLine
 10
15308.80217064596
 20
799.8747482146441
 30
0.0
 11
15308.80217064596
 21
753.8747482146439
 31
0.0
  0
ARC
  5
1646F
330
167A9
100
AcDbEntity
  8
YODOROGO
100
AcDbCircle
 10
15466.80217064596
 20
733.8747482146437
 30
0.0
 40
20.0
100
AcDbArc
 50
270.0
 51
0.0
  0
LINE
  5
16470
330
167A9
100
AcDbEntity
  8
YODOROGO
100
AcDbLine
 10
15546.80217064596
 20
761.8747482146434
 30
0.0
 11
15546.80217064596
 21
713.8747482146436
 31
0.0
  0
ARC
  5
16471
330
167A9
100
AcDbEntity
  8
YODOROGO
100
AcDbCircle
 10
15519.86069778339
 20
818.7656950548667
 30
0.0
 40
62.94777829583771
100
AcDbArc
 50
295.3405244216011
 51
359.1890230341867
  0
LINE
  5
16472
330
167A9
100
AcDbEntity
  8
YODOROGO
100
AcDbLine
 10
15308.80217064596
 20
929.874748214644
 30
0.0
 11
15248.80217064596
 21
969.8747482146441
 31
0.0
  0
LINE
  5
16473
330
167A9
100
AcDbEntity
  8
YODOROGO
100
AcDbLine
 10
15248.80217064596
 20
1013.874748214644
 30
0.0
 11
15308.80217064596
 21
973.8747482146436
 31
0.0
  0
LINE
  5
16474
330
167A9
100
AcDbEntity
  8
YODOROGO
100
AcDbLine
 10
15264.80217064596
 20
839.8747482146443
 30
0.0
 11
15308.80217064596
 21
839.8747482146443
 31
0.0
  0
LINE
  5
16475
330
167A9
100
AcDbEntity
  8
YODOROGO
100
AcDbLine
 10
15308.80217064596
 20
867.8747482146436
 30
0.0
 11
15264.80217064596
 21
867.8747482146436
 31
0.0
  0
LINE
  5
16476
330
167A9
100
AcDbEntity
  8
YODOROGO
100
AcDbLine
 10
15190.80217064596
 20
897.8747482146435
 30
0.0
 11
15308.80217064596
 21
897.8747482146435
 31
0.0
  0
LINE
  5
16477
330
167A9
100
AcDbEntity
  8
YODOROGO
100
AcDbLine
 10
15040.80217064596
 20
1013.874748214644
 30
0.0
 11
15010.80217064596
 21
1013.874748214644
 31
0.0
  0
LINE
  5
16478
330
167A9
100
AcDbEntity
  8
YODOROGO
100
AcDbLine
 10
15040.80217064596
 20
913.8747482146436
 30
0.0
 11
15040.80217064596
 21
1013.874748214644
 31
0.0
  0
LINE
  5
16479
330
167A9
100
AcDbEntity
  8
YODOROGO
100
AcDbLine
 10
15010.80217064596
 20
913.8747482146436
 30
0.0
 11
15040.80217064596
 21
913.8747482146436
 31
0.0
  0
LINE
  5
1647A
330
167A9
100
AcDbEntity
  8
YODOROGO
100
AcDbLine
 10
15010.80217064596
 20
1013.874748214644
 30
0.0
 11
15010.80217064596
 21
913.8747482146436
 31
0.0
  0
LINE
  5
1647B
330
167A9
100
AcDbEntity
  8
YODOROGO
100
AcDbLine
 10
15080.80217064596
 20
1013.874748214644
 30
0.0
 11
15108.80217064596
 21
1013.874748214644
 31
0.0
  0
LINE
  5
1647C
330
167A9
100
AcDbEntity
  8
YODOROGO
100
AcDbLine
 10
15080.80217064596
 20
905.8747482146443
 30
0.0
 11
15080.80217064596
 21
1013.874748214644
 31
0.0
  0
ARC
  5
1647D
330
167A9
100
AcDbEntity
  8
YODOROGO
100
AcDbCircle
 10
15060.80217064596
 20
905.8747482146443
 30
0.0
 40
20.0
100
AcDbArc
 50
270.0
 51
0.0
  0
LINE
  5
1647E
330
167A9
100
AcDbEntity
  8
YODOROGO
100
AcDbLine
 10
15010.80217064596
 20
885.8747482146442
 30
0.0
 11
15060.80217064596
 21
885.8747482146442
 31
0.0
  0
LINE
  5
1647F
330
167A9
100
AcDbEntity
  8
YODOROGO
100
AcDbLine
 10
15010.80217064596
 20
853.8747482146439
 30
0.0
 11
15010.80217064596
 21
885.8747482146442
 31
0.0
  0
LINE
  5
16480
330
167A9
100
AcDbEntity
  8
YODOROGO
100
AcDbLine
 10
15068.80217064596
 20
853.8747482146439
 30
0.0
 11
15010.80217064596
 21
853.8747482146439
 31
0.0
  0
ARC
  5
16481
330
167A9
100
AcDbEntity
  8
YODOROGO
100
AcDbCircle
 10
15068.80217064596
 20
893.8747482146439
 30
0.0
 40
40.0
100
AcDbArc
 50
270.0
 51
0.0
  0
LINE
  5
16482
330
167A9
100
AcDbEntity
  8
YODOROGO
100
AcDbLine
 10
15108.80217064596
 20
1013.874748214644
 30
0.0
 11
15108.80217064596
 21
893.8747482146439
 31
0.0
  0
LINE
  5
16483
330
167A9
100
AcDbEntity
  8
YODOROGO
100
AcDbLine
 10
14988.80217064596
 20
973.8747482146436
 30
0.0
 11
14988.80217064596
 21
997.8747482146435
 31
0.0
1001
AUTOCAD_POSTSCRIPT_FIGURE
1002
{
1000
PSFILL
1000
Grayscale
1000
Grayscale
1070
    25
1002
}
  0
LINE
  5
16484
330
167A9
100
AcDbEntity
  8
YODOROGO
100
AcDbLine
 10
14988.80217064596
 20
929.874748214644
 30
0.0
 11
14988.80217064596
 21
953.874748214644
 31
0.0
1001
AUTOCAD_POSTSCRIPT_FIGURE
1002
{
1000
PSFILL
1000
Grayscale
1000
Grayscale
1070
    25
1002
}
  0
LINE
  5
16485
330
167A9
100
AcDbEntity
  8
YODOROGO
100
AcDbLine
 10
14988.80217064596
 20
853.8747482146439
 30
0.0
 11
14988.80217064596
 21
909.8747482146439
 31
0.0
1001
AUTOCAD_POSTSCRIPT_FIGURE
1002
{
1000
PSFILL
1000
Grayscale
1000
Grayscale
1070
    25
1002
}
  0
LINE
  5
16486
330
167A9
100
AcDbEntity
  8
YODOROGO
100
AcDbLine
 10
15190.80217064596
 20
953.874748214644
 30
0.0
 11
15248.80217064596
 21
1013.874748214644
 31
0.0
  0
LINE
  5
16487
330
167A9
100
AcDbEntity
  8
YODOROGO
100
AcDbLine
 10
15190.80217064596
 20
909.8747482146439
 30
0.0
 11
15190.80217064596
 21
953.874748214644
 31
0.0
  0
LINE
  5
16488
330
167A9
100
AcDbEntity
  8
YODOROGO
100
AcDbLine
 10
15248.80217064596
 20
969.8747482146441
 30
0.0
 11
15190.80217064596
 21
909.8747482146439
 31
0.0
  0
LINE
  5
16489
330
167A9
100
AcDbEntity
  8
YODOROGO
100
AcDbLine
 10
15232.80217064596
 20
839.8747482146443
 30
0.0
 11
15232.80217064596
 21
867.8747482146436
 31
0.0
  0
LINE
  5
1648A
330
167A9
100
AcDbEntity
  8
YODOROGO
100
AcDbLine
 10
15190.80217064596
 20
839.8747482146443
 30
0.0
 11
15232.80217064596
 21
839.8747482146443
 31
0.0
  0
LINE
  5
1648B
330
167A9
100
AcDbEntity
  8
YODOROGO
100
AcDbLine
 10
15264.80217064596
 20
867.8747482146436
 30
0.0
 11
15264.80217064596
 21
839.8747482146443
 31
0.0
  0
LINE
  5
1648C
330
167A9
100
AcDbEntity
  8
YODOROGO
100
AcDbLine
 10
15190.80217064596
 20
867.8747482146436
 30
0.0
 11
15190.80217064596
 21
897.8747482146435
 31
0.0
  0
LINE
  5
1648D
330
167A9
100
AcDbEntity
  8
YODOROGO
100
AcDbLine
 10
15232.80217064596
 20
867.8747482146436
 30
0.0
 11
15190.80217064596
 21
867.8747482146436
 31
0.0
  0
LINE
  5
1648E
330
167A9
100
AcDbEntity
  8
YODOROGO
100
AcDbLine
 10
15322.80217064596
 20
1013.874748214644
 30
0.0
 11
15486.80217064596
 21
1013.874748214644
 31
0.0
  0
LINE
  5
1648F
330
167A9
100
AcDbEntity
  8
YODOROGO
100
AcDbLine
 10
15462.80217064596
 20
981.8747482146434
 30
0.0
 11
15348.80217064596
 21
981.8747482146434
 31
0.0
  0
LINE
  5
16490
330
167A9
100
AcDbEntity
  8
YODOROGO
100
AcDbLine
 10
15436.80217064595
 20
909.8747482146439
 30
0.0
 11
15449.80217064596
 21
909.8747482146439
 31
0.0
  0
LINE
  5
16491
330
167A9
100
AcDbEntity
  8
YODOROGO
100
AcDbLine
 10
15449.80217064596
 20
969.8747482146441
 30
0.0
 11
15436.80217064595
 21
909.8747482146439
 31
0.0
  0
LINE
  5
16492
330
167A9
100
AcDbEntity
  8
YODOROGO
100
AcDbLine
 10
15425.80217064596
 20
969.8747482146441
 30
0.0
 11
15449.80217064596
 21
969.8747482146441
 31
0.0
  0
LINE
  5
16493
330
167A9
100
AcDbEntity
  8
YODOROGO
100
AcDbLine
 10
15412.80217064596
 20
909.8747482146439
 30
0.0
 11
15425.80217064596
 21
969.8747482146441
 31
0.0
  0
LINE
  5
16494
330
167A9
100
AcDbEntity
  8
YODOROGO
100
AcDbLine
 10
15398.80217064596
 20
909.8747482146439
 30
0.0
 11
15412.80217064596
 21
909.8747482146439
 31
0.0
  0
LINE
  5
16495
330
167A9
100
AcDbEntity
  8
YODOROGO
100
AcDbLine
 10
15385.80217064596
 20
969.8747482146441
 30
0.0
 11
15398.80217064596
 21
909.8747482146439
 31
0.0
  0
LINE
  5
16496
330
167A9
100
AcDbEntity
  8
YODOROGO
100
AcDbLine
 10
15361.80217064596
 20
969.8747482146441
 30
0.0
 11
15385.80217064596
 21
969.8747482146441
 31
0.0
  0
LINE
  5
16497
330
167A9
100
AcDbEntity
  8
YODOROGO
100
AcDbLine
 10
15374.80217064596
 20
909.8747482146439
 30
0.0
 11
15361.80217064596
 21
969.8747482146441
 31
0.0
  0
LINE
  5
16498
330
167A9
100
AcDbEntity
  8
YODOROGO
100
AcDbLine
 10
15361.80217064596
 20
909.8747482146439
 30
0.0
 11
15374.80217064596
 21
909.8747482146439
 31
0.0
  0
LINE
  5
16499
330
167A9
100
AcDbEntity
  8
YODOROGO
100
AcDbLine
 10
15361.80217064596
 20
877.8747482146437
 30
0.0
 11
15361.80217064596
 21
909.8747482146439
 31
0.0
  0
LINE
  5
1649A
330
167A9
100
AcDbEntity
  8
YODOROGO
100
AcDbLine
 10
15449.80217064596
 20
877.8747482146437
 30
0.0
 11
15361.80217064596
 21
877.8747482146437
 31
0.0
  0
LINE
  5
1649B
330
167A9
100
AcDbEntity
  8
YODOROGO
100
AcDbLine
 10
15449.80217064596
 20
909.8747482146439
 30
0.0
 11
15449.80217064596
 21
877.8747482146437
 31
0.0
  0
LINE
  5
1649C
330
167A9
100
AcDbEntity
  8
YODOROGO
100
AcDbLine
 10
15308.80217064596
 20
973.8747482146436
 30
0.0
 11
15308.80217064596
 21
929.874748214644
 31
0.0
  0
LINE
  5
1649D
330
167A9
100
AcDbEntity
  8
YODOROGO
100
AcDbLine
 10
15395.80217064596
 20
877.8747482146437
 30
0.0
 11
15415.80217064596
 21
877.8747482146437
 31
0.0
  0
LINE
  5
1649E
330
167A9
100
AcDbEntity
  8
YODOROGO
100
AcDbLine
 10
15361.80217064596
 20
845.8747482146444
 30
0.0
 11
15381.80217064596
 21
845.8747482146444
 31
0.0
  0
LINE
  5
1649F
330
167A9
100
AcDbEntity
  8
YODOROGO
100
AcDbLine
 10
15429.80217064596
 20
845.8747482146444
 30
0.0
 11
15449.80217064596
 21
845.8747482146444
 31
0.0
  0
LINE
  5
164A0
330
167A9
100
AcDbEntity
  8
YODOROGO
100
AcDbLine
 10
15308.80217064596
 20
897.8747482146435
 30
0.0
 11
15308.80217064596
 21
867.8747482146436
 31
0.0
  0
LINE
  5
164A1
330
167A9
100
AcDbEntity
  8
YODOROGO
100
AcDbLine
 10
15582.80217064596
 20
1013.874748214644
 30
0.0
 11
15582.80217064596
 21
981.8747482146434
 31
0.0
  0
LINE
  5
164A2
330
167A9
100
AcDbEntity
  8
YODOROGO
100
AcDbLine
 10
15766.80217064596
 20
797.8747482146435
 30
0.0
 11
15766.80217064595
 21
905.8747482146443
 31
0.0
  0
LINE
  5
164A3
330
167A9
100
AcDbEntity
  8
YODOROGO
100
AcDbLine
 10
15730.80217064594
 20
993.8747482146439
 30
0.0
 11
15730.80217064594
 21
817.8747482146436
 31
0.0
  0
LINE
  5
164A4
330
167A9
100
AcDbEntity
  8
YODOROGO
100
AcDbLine
 10
15826.80217064596
 20
713.8747482146436
 30
0.0
 11
15826.80217064595
 21
905.8747482146443
 31
0.0
  0
LINE
  5
164A5
330
167A9
100
AcDbEntity
  8
YODOROGO
100
AcDbLine
 10
15794.80217064596
 20
905.8747482146443
 30
0.0
 11
15794.80217064596
 21
713.8747482146436
 31
0.0
  0
LINE
  5
164A6
330
167A9
100
AcDbEntity
  8
YODOROGO
100
AcDbLine
 10
15618.80217064596
 20
797.8747482146435
 30
0.0
 11
15618.80217064596
 21
853.8747482146439
 31
0.0
  0
ARC
  5
164A7
330
167A9
100
AcDbEntity
  8
YODOROGO
100
AcDbCircle
 10
15676.95743255803
 20
803.8951756442788
 30
0.0
 40
90.04622428799429
100
AcDbArc
 50
268.6284910216979
 51
356.1663845733032
  0
LINE
  5
164A8
330
167A9
100
AcDbEntity
  8
YODOROGO
100
AcDbLine
 10
15674.80217064596
 20
763.8747482146436
 30
0.0
 11
15674.80217064596
 21
713.8747482146436
 31
0.0
  0
ARC
  5
164A9
330
167A9
100
AcDbEntity
  8
YODOROGO
100
AcDbCircle
 10
15675.75903786228
 20
818.9194785088275
 30
0.0
 40
55.05304649180608
100
AcDbArc
 50
269.0041020930593
 51
358.9126445549248
  0
LINE
  5
164AA
330
167A9
100
AcDbEntity
  8
YODOROGO
100
AcDbLine
 10
15794.80217064596
 20
713.8747482146436
 30
0.0
 11
15826.80217064596
 21
713.8747482146436
 31
0.0
  0
LINE
  5
164AB
330
167A9
100
AcDbEntity
  8
YODOROGO
100
AcDbLine
 10
15766.80217064595
 20
905.8747482146443
 30
0.0
 11
15794.80217064596
 21
905.8747482146443
 31
0.0
  0
LINE
  5
164AC
330
167A9
100
AcDbEntity
  8
YODOROGO
100
AcDbLine
 10
15810.80217064596
 20
993.8747482146439
 30
0.0
 11
15730.80217064594
 21
993.8747482146439
 31
0.0
  0
LINE
  5
164AD
330
167A9
100
AcDbEntity
  8
YODOROGO
100
AcDbLine
 10
15766.80217064595
 20
957.8747482146436
 30
0.0
 11
15830.80217064596
 21
957.8747482146436
 31
0.0
  0
LINE
  5
164AE
330
167A9
100
AcDbEntity
  8
YODOROGO
100
AcDbLine
 10
15850.80217064596
 20
937.8747482146435
 30
0.0
 11
15766.80217064595
 21
937.8747482146435
 31
0.0
  0
LINE
  5
164AF
330
167A9
100
AcDbEntity
  8
YODOROGO
100
AcDbLine
 10
15618.80217064596
 20
889.8747482146443
 30
0.0
 11
15674.80217064596
 21
889.8747482146443
 31
0.0
  0
LINE
  5
164B0
330
167A9
100
AcDbEntity
  8
YODOROGO
100
AcDbLine
 10
15618.80217064596
 20
917.8747482146436
 30
0.0
 11
15618.80217064596
 21
889.8747482146443
 31
0.0
  0
LINE
  5
164B1
330
167A9
100
AcDbEntity
  8
YODOROGO
100
AcDbLine
 10
15674.80217064596
 20
917.8747482146436
 30
0.0
 11
15618.80217064596
 21
917.8747482146436
 31
0.0
  0
LINE
  5
164B2
330
167A9
100
AcDbEntity
  8
YODOROGO
100
AcDbLine
 10
15674.80217064596
 20
889.8747482146443
 30
0.0
 11
15674.80217064596
 21
917.8747482146436
 31
0.0
  0
LINE
  5
164B3
330
167A9
100
AcDbEntity
  8
YODOROGO
100
AcDbLine
 10
15766.80217064595
 20
937.8747482146435
 30
0.0
 11
15766.80217064595
 21
957.8747482146436
 31
0.0
  0
LINE
  5
164B4
330
167A9
100
AcDbEntity
  8
YODOROGO
100
AcDbLine
 10
15706.80217064596
 20
853.8747482146439
 30
0.0
 11
15706.80217064596
 21
953.874748214644
 31
0.0
  0
LINE
  5
164B5
330
167A9
100
AcDbEntity
  8
YODOROGO
100
AcDbLine
 10
15618.80217064596
 20
853.8747482146439
 30
0.0
 11
15706.80217064596
 21
853.8747482146439
 31
0.0
  0
LINE
  5
164B6
330
167A9
100
AcDbEntity
  8
YODOROGO
100
AcDbLine
 10
15706.80217064596
 20
981.8747482146434
 30
0.0
 11
15706.80217064596
 21
1013.874748214644
 31
0.0
  0
ARC
  5
164B7
330
167A9
100
AcDbEntity
  8
YODOROGO
100
AcDbCircle
 10
15810.80217064596
 20
1001.874748214642
 30
0.0
 40
7.999999999997271
100
AcDbArc
 50
270.0
 51
0.0000000000081422
  0
LINE
  5
164B8
330
167A9
100
AcDbEntity
  8
YODOROGO
100
AcDbLine
 10
15818.80217064596
 20
1013.874748214644
 30
0.0
 11
15818.80217064596
 21
1001.874748214643
 31
0.0
  0
LINE
  5
164B9
330
167A9
100
AcDbEntity
  8
YODOROGO
100
AcDbLine
 10
15850.80217064596
 20
1013.874748214644
 30
0.0
 11
15818.80217064596
 21
1013.874748214644
 31
0.0
  0
LINE
  5
164BA
330
167A9
100
AcDbEntity
  8
YODOROGO
100
AcDbLine
 10
15850.80217064596
 20
977.8747482146435
 30
0.0
 11
15850.80217064596
 21
1013.874748214644
 31
0.0
  0
ARC
  5
164BB
330
167A9
100
AcDbEntity
  8
YODOROGO
100
AcDbCircle
 10
15830.80217064596
 20
977.8747482146435
 30
0.0
 40
20.0
100
AcDbArc
 50
270.0
 51
0.0
  0
LINE
  5
164BC
330
167A9
100
AcDbEntity
  8
YODOROGO
100
AcDbLine
 10
15850.80217064596
 20
905.8747482146443
 30
0.0
 11
15850.80217064596
 21
937.8747482146435
 31
0.0
  0
LINE
  5
164BD
330
167A9
100
AcDbEntity
  8
YODOROGO
100
AcDbLine
 10
15826.80217064595
 20
905.8747482146443
 30
0.0
 11
15850.80217064596
 21
905.8747482146443
 31
0.0
  0
LINE
  5
164BE
330
167A9
100
AcDbEntity
  8
SUNPOU
100
AcDbLine
 10
12819.12750789963
 20
5796.279066364537
 30
0.0
 11
12819.12750789963
 21
5033.638389810429
 31
0.0
  0
LINE
  5
164BF
330
167A9
100
AcDbEntity
  8
SUNPOU
100
AcDbLine
 10
3619.127507899644
 20
5796.279066364537
 30
0.0
 11
3619.127507899644
 21
5033.638389810429
 31
0.0
  0
LINE
  5
164C0
330
167A9
100
AcDbEntity
  8
SUNPOU
100
AcDbLine
 10
12799.12750789963
 20
5078.638389810429
 30
0.0
 11
3639.127507899644
 21
5078.638389810429
 31
0.0
  0
LINE
  5
164C4
330
167A9
100
AcDbEntity
  8
SUNPOU
100
AcDbLine
 10
3048.429052763143
 20
1610.898498232149
 30
0.0
 11
3048.429052763143
 21
1615.89849823215
 31
0.0
  0
LINE
  5
164C5
330
167A9
100
AcDbEntity
  8
SUNPOU
100
AcDbLine
 10
3512.429052763144
 20
1610.898498232149
 30
0.0
 11
3512.429052763144
 21
1615.89849823215
 31
0.0
  0
LINE
  5
164C6
330
167A9
100
AcDbEntity
  8
SUNPOU
100
AcDbLine
 10
3068.429052763144
 20
1570.89849823215
 30
0.0
 11
3492.429052763144
 21
1570.89849823215
 31
0.0
  0
LINE
  5
164CA
330
167A9
100
AcDbEntity
  8
SUNPOU
100
AcDbLine
 10
3512.429052763144
 20
1610.898498232149
 30
0.0
 11
3512.429052763144
 21
1615.89849823215
 31
0.0
  0
LINE
  5
164CB
330
167A9
100
AcDbEntity
  8
SUNPOU
100
AcDbLine
 10
4312.429052763166
 20
1829.885413258396
 30
0.0
 11
4312.429052763166
 21
1525.898498232149
 31
0.0
  0
LINE
  5
164CC
330
167A9
100
AcDbEntity
  8
SUNPOU
100
AcDbLine
 10
3532.429052763144
 20
1570.89849823215
 30
0.0
 11
4292.429052763165
 21
1570.89849823215
 31
0.0
  0
LINE
  5
164D0
330
167A9
100
AcDbEntity
  8
SUNPOU
100
AcDbLine
 10
2248.429052763158
 20
1829.885413258395
 30
0.0
 11
2248.429052763158
 21
1525.898498232149
 31
0.0
  0
LINE
  5
164D1
330
167A9
100
AcDbEntity
  8
SUNPOU
100
AcDbLine
 10
3048.429052763143
 20
1610.898498232149
 30
0.0
 11
3048.429052763143
 21
1615.89849823215
 31
0.0
  0
LINE
  5
164D2
330
167A9
100
AcDbEntity
  8
SUNPOU
100
AcDbLine
 10
2268.429052763158
 20
1570.89849823215
 30
0.0
 11
3028.429052763144
 21
1570.89849823215
 31
0.0
  0
LINE
  5
164D6
330
167A9
100
AcDbEntity
  8
SUNPOU
100
AcDbLine
 10
2248.429052763158
 20
1829.885413258395
 30
0.0
 11
2248.429052763158
 21
1315.898498232149
 31
0.0
  0
LINE
  5
164D7
330
167A9
100
AcDbEntity
  8
SUNPOU
100
AcDbLine
 10
4312.429052763166
 20
1829.885413258396
 30
0.0
 11
4312.429052763166
 21
1315.898498232149
 31
0.0
  0
LINE
  5
164D8
330
167A9
100
AcDbEntity
  8
SUNPOU
100
AcDbLine
 10
2268.429052763158
 20
1360.89849823215
 30
0.0
 11
4292.429052763165
 21
1360.89849823215
 31
0.0
  0
LINE
  5
164DC
330
167A9
100
AcDbEntity
  8
SUNPOU
100
AcDbLine
 10
2664.429052763158
 20
3157.885413258396
 30
0.0
 11
2664.429052763158
 21
3556.260118325357
 31
0.0
  0
LINE
  5
164DD
330
167A9
100
AcDbEntity
  8
SUNPOU
100
AcDbLine
 10
3896.429052763159
 20
3157.885413258396
 30
0.0
 11
3896.429052763159
 21
3556.260118325357
 31
0.0
  0
LINE
  5
164DE
330
167A9
100
AcDbEntity
  8
SUNPOU
100
AcDbLine
 10
2684.429052763158
 20
3511.260118325356
 30
0.0
 11
3876.429052763159
 21
3511.260118325356
 31
0.0
  0
LINE
  5
164E2
330
167A9
100
AcDbEntity
  8
SUNPOU
100
AcDbLine
 10
4774.604572265885
 20
2877.885413258394
 30
0.0
 11
4983.007034603489
 21
2877.885413258394
 31
0.0
  0
LINE
  5
164E3
330
167A9
100
AcDbEntity
  8
SUNPOU
100
AcDbLine
 10
4432.429052763158
 20
2109.885413258398
 30
0.0
 11
4983.007034603489
 21
2109.885413258398
 31
0.0
  0
LINE
  5
164E4
330
167A9
100
AcDbEntity
  8
SUNPOU
100
AcDbLine
 10
4938.007034603489
 20
2857.885413258394
 30
0.0
 11
4938.007034603489
 21
2129.885413258398
 31
0.0
  0
LINE
  5
164E8
330
167A9
100
AcDbEntity
  8
SUNPOU
100
AcDbLine
 10
4774.604572265885
 20
3117.885413258394
 30
0.0
 11
4983.007034603489
 21
3117.885413258394
 31
0.0
  0
LINE
  5
164E9
330
167A9
100
AcDbEntity
  8
SUNPOU
100
AcDbLine
 10
4774.604572265885
 20
2877.885413258394
 30
0.0
 11
4983.007034603489
 21
2877.885413258394
 31
0.0
  0
LINE
  5
164EA
330
167A9
100
AcDbEntity
  8
SUNPOU
100
AcDbLine
 10
4938.007034603489
 20
3097.885413258394
 30
0.0
 11
4938.007034603489
 21
2897.885413258394
 31
0.0
  0
LINE
  5
164EE
330
167A9
100
AcDbEntity
  8
SUNPOU
100
AcDbLine
 10
4432.42905276316
 20
2029.8854132584
 30
0.0
 11
5193.007034603488
 21
2029.885413258399
 31
0.0
  0
LINE
  5
164EF
330
167A9
100
AcDbEntity
  8
SUNPOU
100
AcDbLine
 10
4432.42905276316
 20
2109.885413258399
 30
0.0
 11
5193.007034603489
 21
2109.885413258399
 31
0.0
  0
LINE
  5
164F0
330
167A9
100
AcDbEntity
  8
SUNPOU
100
AcDbLine
 10
5148.007034603488
 20
2009.885413258399
 30
0.0
 11
5148.007034603488
 21
1989.885413258399
 31
0.0
  0
LINE
  5
164F1
330
167A9
100
AcDbEntity
  8
SUNPOU
100
AcDbLine
 10
5148.007034603489
 20
2129.885413258399
 30
0.0
 11
5148.007034603489
 21
2149.885413258399
 31
0.0
  0
LINE
  5
164F3
330
167A9
100
AcDbEntity
  8
SUNPOU
100
AcDbLine
 10
5148.007034603488
 20
2029.885413258399
 30
0.0
 11
5148.007034603489
 21
2109.885413258399
 31
0.0
  0
LINE
  5
164F6
330
167A9
100
AcDbEntity
  8
SUNPOU
100
AcDbLine
 10
4432.42905276316
 20
2029.8854132584
 30
0.0
 11
5193.007034603489
 21
2029.885413258399
 31
0.0
  0
LINE
  5
164F7
330
167A9
100
AcDbEntity
  8
SUNPOU
100
AcDbLine
 10
4432.42905276316
 20
1869.885413258399
 30
0.0
 11
5193.007034603489
 21
1869.885413258399
 31
0.0
  0
LINE
  5
164F8
330
167A9
100
AcDbEntity
  8
SUNPOU
100
AcDbLine
 10
5148.007034603489
 20
2009.885413258399
 30
0.0
 11
5148.007034603489
 21
1889.885413258399
 31
0.0
  0
LINE
  5
164F9
330
167A9
100
AcDbEntity
  8
SUNPOU
100
AcDbLine
 10
5148.007034603489
 20
1869.885413258399
 30
0.0
 11
5148.007034603489
 21
1614.171127544112
 31
0.0
  0
LINE
  5
164FD
330
167A9
100
AcDbEntity
  8
SUNPOU
100
AcDbLine
 10
4774.604572265885
 20
3117.885413258394
 30
0.0
 11
5193.007034603489
 21
3117.885413258394
 31
0.0
  0
LINE
  5
164FE
330
167A9
100
AcDbEntity
  8
SUNPOU
100
AcDbLine
 10
4432.42905276316
 20
2109.885413258399
 30
0.0
 11
5193.007034603489
 21
2109.885413258399
 31
0.0
  0
LINE
  5
164FF
330
167A9
100
AcDbEntity
  8
SUNPOU
100
AcDbLine
 10
5148.007034603489
 20
3097.885413258394
 30
0.0
 11
5148.007034603489
 21
2129.885413258399
 31
0.0
  0
LINE
  5
16504
330
167A9
100
AcDbEntity
  8
SUNPOU
100
AcDbLine
 10
6055.044979629257
 20
3004.333194070902
 30
0.0
 11
6055.044979629257
 21
2989.333194070902
 31
0.0
  0
LINE
  5
16506
330
167A9
100
AcDbEntity
  8
SUNPOU
100
AcDbLine
 10
6055.044979629257
 20
1978.333194070902
 30
0.0
 11
6055.044979629257
 21
1993.333194070902
 31
0.0
  0
LINE
  5
16508
330
167A9
100
AcDbEntity
  8
SUNPOU
100
AcDbLine
 10
8405.306062185525
 20
3402.711278313303
 30
0.0
 11
8390.306062185526
 21
3402.711278313303
 31
0.0
  0
LINE
  5
1650A
330
167A9
100
AcDbEntity
  8
SUNPOU
100
AcDbLine
 10
6595.306062185525
 20
3402.711278313303
 30
0.0
 11
6610.306062185525
 21
3402.711278313303
 31
0.0
  0
LINE
  5
1650B
330
167A9
100
AcDbEntity
  8
SUNPOU
100
AcDbLine
 10
8476.306062185527
 20
2107.333194070899
 30
0.0
 11
9028.171970751353
 21
2107.333194070899
 31
0.0
  0
LINE
  5
1650C
330
167A9
100
AcDbEntity
  8
SUNPOU
100
AcDbLine
 10
8476.306062185527
 20
2875.3331940709
 30
0.0
 11
9028.171970751353
 21
2875.3331940709
 31
0.0
  0
LINE
  5
1650D
330
167A9
100
AcDbEntity
  8
SUNPOU
100
AcDbLine
 10
8983.171970751353
 20
2127.333194070899
 30
0.0
 11
8983.171970751353
 21
2855.3331940709
 31
0.0
  0
LINE
  5
16511
330
167A9
100
AcDbEntity
  8
SUNPOU
100
AcDbLine
 10
8572.306062185525
 20
3131.3331940709
 30
0.0
 11
9238.171970751352
 21
3131.333194070899
 31
0.0
  0
LINE
  5
16512
330
167A9
100
AcDbEntity
  8
SUNPOU
100
AcDbLine
 10
8572.306062185525
 20
1851.3331940709
 30
0.0
 11
9238.171970751352
 21
1851.3331940709
 31
0.0
  0
LINE
  5
16513
330
167A9
100
AcDbEntity
  8
SUNPOU
100
AcDbLine
 10
9193.171970751356
 20
3111.3331940709
 30
0.0
 11
9193.171970751356
 21
1871.3331940709
 31
0.0
  0
LINE
  5
16517
330
167A9
100
AcDbEntity
  8
SUNPOU
100
AcDbLine
 10
8116.306062185525
 20
2067.333194070898
 30
0.0
 11
8116.306062185525
 21
1525.898498232149
 31
0.0
  0
LINE
  5
16518
330
167A9
100
AcDbEntity
  8
SUNPOU
100
AcDbLine
 10
6884.306062185527
 20
2067.333194070898
 30
0.0
 11
6884.306062185527
 21
1525.898498232149
 31
0.0
  0
LINE
  5
16519
330
167A9
100
AcDbEntity
  8
SUNPOU
100
AcDbLine
 10
8096.306062185526
 20
1570.89849823215
 30
0.0
 11
6904.306062185526
 21
1570.89849823215
 31
0.0
  0
LINE
  5
1651D
330
167A9
100
AcDbEntity
  8
SUNPOU
100
AcDbLine
 10
6468.306062185526
 20
1811.333194070899
 30
0.0
 11
6468.306062185526
 21
1315.898498232149
 31
0.0
  0
LINE
  5
1651E
330
167A9
100
AcDbEntity
  8
SUNPOU
100
AcDbLine
 10
8532.306062185526
 20
1811.333194070899
 30
0.0
 11
8532.306062185526
 21
1315.898498232149
 31
0.0
  0
LINE
  5
1651F
330
167A9
100
AcDbEntity
  8
SUNPOU
100
AcDbLine
 10
6488.306062185526
 20
1360.89849823215
 30
0.0
 11
8512.306062185526
 21
1360.89849823215
 31
0.0
  0
LINE
  5
16523
330
167A9
100
AcDbEntity
  8
SUNPOU
100
AcDbLine
 10
12419.12750789962
 20
6626.279066364536
 30
0.0
 11
12419.12750789962
 21
5341.279066364535
 31
0.0
  0
LINE
  5
16524
330
167A9
100
AcDbEntity
  8
SUNPOU
100
AcDbLine
 10
12819.12750789963
 20
5796.279066364537
 30
0.0
 11
12819.12750789963
 21
5341.279066364535
 31
0.0
  0
LINE
  5
16525
330
167A9
100
AcDbEntity
  8
SUNPOU
100
AcDbLine
 10
12439.12750789962
 20
5386.279066364537
 30
0.0
 11
12799.12750789963
 21
5386.279066364537
 31
0.0
  0
LINE
  5
16529
330
167A9
100
AcDbEntity
  8
SUNPOU
100
AcDbLine
 10
9619.127507899644
 20
7229.279066364536
 30
0.0
 11
9619.127507899644
 21
5341.279066364535
 31
0.0
  0
LINE
  5
1652A
330
167A9
100
AcDbEntity
  8
SUNPOU
100
AcDbLine
 10
12419.12750789962
 20
6626.279066364536
 30
0.0
 11
12419.12750789962
 21
5341.279066364535
 31
0.0
  0
LINE
  5
1652B
330
167A9
100
AcDbEntity
  8
SUNPOU
100
AcDbLine
 10
9639.127507899644
 20
5386.279066364537
 30
0.0
 11
12399.12750789962
 21
5386.279066364537
 31
0.0
  0
LINE
  5
1652F
330
167A9
100
AcDbEntity
  8
SUNPOU
100
AcDbLine
 10
6819.127507899643
 20
7229.279066364536
 30
0.0
 11
6819.127507899643
 21
5341.279066364535
 31
0.0
  0
LINE
  5
16530
330
167A9
100
AcDbEntity
  8
SUNPOU
100
AcDbLine
 10
9619.127507899644
 20
7229.279066364536
 30
0.0
 11
9619.127507899644
 21
5341.279066364535
 31
0.0
  0
LINE
  5
16531
330
167A9
100
AcDbEntity
  8
SUNPOU
100
AcDbLine
 10
6839.127507899643
 20
5386.279066364537
 30
0.0
 11
9599.127507899643
 21
5386.279066364537
 31
0.0
  0
LINE
  5
16535
330
167A9
100
AcDbEntity
  8
SUNPOU
100
AcDbLine
 10
4019.127507899644
 20
7236.279066364537
 30
0.0
 11
4019.127507899644
 21
5341.279066364535
 31
0.0
  0
LINE
  5
16536
330
167A9
100
AcDbEntity
  8
SUNPOU
100
AcDbLine
 10
6819.127507899643
 20
7229.279066364536
 30
0.0
 11
6819.127507899643
 21
5341.279066364535
 31
0.0
  0
LINE
  5
16537
330
167A9
100
AcDbEntity
  8
SUNPOU
100
AcDbLine
 10
4039.127507899644
 20
5386.279066364537
 30
0.0
 11
6799.127507899644
 21
5386.279066364537
 31
0.0
  0
LINE
  5
1653B
330
167A9
100
AcDbEntity
  8
SUNPOU
100
AcDbLine
 10
3619.127507899644
 20
5796.279066364537
 30
0.0
 11
3619.127507899644
 21
5341.279066364535
 31
0.0
  0
LINE
  5
1653C
330
167A9
100
AcDbEntity
  8
SUNPOU
100
AcDbLine
 10
4019.127507899644
 20
7236.279066364537
 30
0.0
 11
4019.127507899644
 21
5341.279066364535
 31
0.0
  0
LINE
  5
1653D
330
167A9
100
AcDbEntity
  8
SUNPOU
100
AcDbLine
 10
3639.127507899644
 20
5386.279066364537
 30
0.0
 11
3999.127507899644
 21
5386.279066364537
 31
0.0
  0
ARC
  5
16541
330
167A9
100
AcDbEntity
  8
SUNPOU
100
AcDbCircle
 10
13479.12750789963
 20
8626.279066364537
 30
0.0
 40
5.624999999998181
100
AcDbArc
 50
270.0
 51
90.0
  0
ARC
  5
16542
330
167A9
100
AcDbEntity
  8
SUNPOU
100
AcDbCircle
 10
13479.12750789963
 20
8626.279066364537
 30
0.0
 40
5.625
100
AcDbArc
 50
90.0
 51
270.0
  0
ARC
  5
16543
330
167A9
100
AcDbEntity
  8
SUNPOU
100
AcDbCircle
 10
13479.12750789963
 20
8366.279066364535
 30
0.0
 40
5.624999999998181
100
AcDbArc
 50
270.0
 51
90.0
  0
ARC
  5
16544
330
167A9
100
AcDbEntity
  8
SUNPOU
100
AcDbCircle
 10
13479.12750789963
 20
8366.279066364535
 30
0.0
 40
5.625
100
AcDbArc
 50
90.0
 51
270.0
  0
ARC
  5
16545
330
167A9
100
AcDbEntity
  8
SUNPOU
100
AcDbCircle
 10
13479.12750789963
 20
8366.279066364535
 30
0.0
 40
5.625
100
AcDbArc
 50
90.0
 51
270.0
  0
ARC
  5
16546
330
167A9
100
AcDbEntity
  8
SUNPOU
100
AcDbCircle
 10
13479.12750789963
 20
8366.279066364535
 30
0.0
 40
5.624999999998181
100
AcDbArc
 50
270.0
 51
90.0
  0
ARC
  5
16547
330
167A9
100
AcDbEntity
  8
SUNPOU
100
AcDbCircle
 10
13269.12750789964
 20
8366.279066364535
 30
0.0
 40
5.624999999998181
100
AcDbArc
 50
90.0
 51
270.0
  0
ARC
  5
16548
330
167A9
100
AcDbEntity
  8
SUNPOU
100
AcDbCircle
 10
13269.12750789964
 20
8366.279066364535
 30
0.0
 40
5.625
100
AcDbArc
 50
270.0
 51
90.0
  0
ARC
  5
16549
330
167A9
100
AcDbEntity
  8
SUNPOU
100
AcDbCircle
 10
13269.12750789964
 20
8226.279066364536
 30
0.0
 40
5.625000000001818
100
AcDbArc
 50
90.0
 51
270.0
  0
ARC
  5
1654A
330
167A9
100
AcDbEntity
  8
SUNPOU
100
AcDbCircle
 10
13269.12750789964
 20
8226.279066364536
 30
0.0
 40
5.625
100
AcDbArc
 50
270.0
 51
90.0
  0
ARC
  5
1654B
330
167A9
100
AcDbEntity
  8
SUNPOU
100
AcDbCircle
 10
13269.12750789964
 20
8226.279066364536
 30
0.0
 40
5.625
100
AcDbArc
 50
270.0
 51
90.0
  0
ARC
  5
1654C
330
167A9
100
AcDbEntity
  8
SUNPOU
100
AcDbCircle
 10
13269.12750789964
 20
8226.279066364536
 30
0.0
 40
5.625000000001818
100
AcDbArc
 50
90.0
 51
270.0
  0
ARC
  5
1654D
330
167A9
100
AcDbEntity
  8
SUNPOU
100
AcDbCircle
 10
13269.12750789964
 20
8026.279066364535
 30
0.0
 40
5.625
100
AcDbArc
 50
90.0
 51
270.0
  0
ARC
  5
1654E
330
167A9
100
AcDbEntity
  8
SUNPOU
100
AcDbCircle
 10
13269.12750789964
 20
8026.279066364535
 30
0.0
 40
5.625000000000909
100
AcDbArc
 50
270.0
 51
90.0
  0
ARC
  5
1654F
330
167A9
100
AcDbEntity
  8
SUNPOU
100
AcDbCircle
 10
13269.12750789964
 20
8026.279066364535
 30
0.0
 40
5.625000000000909
100
AcDbArc
 50
270.0
 51
90.0
  0
ARC
  5
16550
330
167A9
100
AcDbEntity
  8
SUNPOU
100
AcDbCircle
 10
13269.12750789964
 20
8026.279066364535
 30
0.0
 40
5.625
100
AcDbArc
 50
90.0
 51
270.0
  0
ARC
  5
16551
330
167A9
100
AcDbEntity
  8
SUNPOU
100
AcDbCircle
 10
13269.12750789964
 20
7936.279066364534
 30
0.0
 40
5.625
100
AcDbArc
 50
270.0
 51
90.0
  0
ARC
  5
16552
330
167A9
100
AcDbEntity
  8
SUNPOU
100
AcDbCircle
 10
13269.12750789964
 20
7936.279066364534
 30
0.0
 40
5.625000000000909
100
AcDbArc
 50
90.0
 51
270.0
  0
ARC
  5
16553
330
167A9
100
AcDbEntity
  8
SUNPOU
100
AcDbCircle
 10
13269.12750789964
 20
7936.279066364534
 30
0.0
 40
5.625000000000909
100
AcDbArc
 50
90.0
 51
270.0
  0
ARC
  5
16554
330
167A9
100
AcDbEntity
  8
SUNPOU
100
AcDbCircle
 10
13269.12750789964
 20
7936.279066364534
 30
0.0
 40
5.625
100
AcDbArc
 50
270.0
 51
90.0
  0
ARC
  5
16555
330
167A9
100
AcDbEntity
  8
SUNPOU
100
AcDbCircle
 10
13269.12750789964
 20
7736.279066364537
 30
0.0
 40
5.625
100
AcDbArc
 50
270.0
 51
90.0
  0
ARC
  5
16556
330
167A9
100
AcDbEntity
  8
SUNPOU
100
AcDbCircle
 10
13269.12750789964
 20
7736.279066364537
 30
0.0
 40
5.625
100
AcDbArc
 50
90.0
 51
270.0
  0
ARC
  5
16557
330
167A9
100
AcDbEntity
  8
SUNPOU
100
AcDbCircle
 10
13269.12750789964
 20
7736.279066364537
 30
0.0
 40
5.625
100
AcDbArc
 50
90.0
 51
270.0
  0
ARC
  5
16558
330
167A9
100
AcDbEntity
  8
SUNPOU
100
AcDbCircle
 10
13269.12750789964
 20
7736.279066364537
 30
0.0
 40
5.625
100
AcDbArc
 50
270.0
 51
90.0
  0
ARC
  5
16559
330
167A9
100
AcDbEntity
  8
SUNPOU
100
AcDbCircle
 10
13479.12750789963
 20
7596.279066364535
 30
0.0
 40
5.625
100
AcDbArc
 50
270.0
 51
90.0
  0
ARC
  5
1655A
330
167A9
100
AcDbEntity
  8
SUNPOU
100
AcDbCircle
 10
13479.12750789963
 20
7596.279066364535
 30
0.0
 40
5.625000000000909
100
AcDbArc
 50
90.0
 51
270.0
  0
ARC
  5
1655B
330
167A9
100
AcDbEntity
  8
SUNPOU
100
AcDbCircle
 10
13479.12750789963
 20
7596.279066364535
 30
0.0
 40
5.625000000000909
100
AcDbArc
 50
90.0
 51
270.0
  0
ARC
  5
1655C
330
167A9
100
AcDbEntity
  8
SUNPOU
100
AcDbCircle
 10
13479.12750789963
 20
7596.279066364535
 30
0.0
 40
5.625
100
AcDbArc
 50
270.0
 51
90.0
  0
ARC
  5
1655D
330
167A9
100
AcDbEntity
  8
SUNPOU
100
AcDbCircle
 10
13269.12750789964
 20
7596.279066364535
 30
0.0
 40
5.625000000000909
100
AcDbArc
 50
90.0
 51
270.0
  0
ARC
  5
1655E
330
167A9
100
AcDbEntity
  8
SUNPOU
100
AcDbCircle
 10
13269.12750789964
 20
7596.279066364535
 30
0.0
 40
5.625
100
AcDbArc
 50
270.0
 51
90.0
  0
ARC
  5
1655F
330
167A9
100
AcDbEntity
  8
SUNPOU
100
AcDbCircle
 10
13479.12750789963
 20
7336.279066364537
 30
0.0
 40
5.625
100
AcDbArc
 50
90.0
 51
270.0
  0
ARC
  5
16560
330
167A9
100
AcDbEntity
  8
SUNPOU
100
AcDbCircle
 10
13479.12750789963
 20
7336.279066364537
 30
0.0
 40
5.625
100
AcDbArc
 50
270.0
 51
90.0
  0
ARC
  5
16561
330
167A9
100
AcDbEntity
  8
SUNPOU
100
AcDbCircle
 10
12819.12750789963
 20
6876.279066364536
 30
0.0
 40
5.625
100
AcDbArc
 50
0.0
 51
180.0
  0
ARC
  5
16562
330
167A9
100
AcDbEntity
  8
SUNPOU
100
AcDbCircle
 10
12819.12750789963
 20
6876.279066364536
 30
0.0
 40
5.625
100
AcDbArc
 50
180.0
 51
0.0
  0
ARC
  5
16563
330
167A9
100
AcDbEntity
  8
SUNPOU
100
AcDbCircle
 10
12819.12750789963
 20
6666.279066364538
 30
0.0
 40
5.625
100
AcDbArc
 50
0.0
 51
180.0
  0
ARC
  5
16564
330
167A9
100
AcDbEntity
  8
SUNPOU
100
AcDbCircle
 10
12819.12750789963
 20
6666.279066364538
 30
0.0
 40
5.625
100
AcDbArc
 50
180.0
 51
0.0
  0
ARC
  5
16565
330
167A9
100
AcDbEntity
  8
SUNPOU
100
AcDbCircle
 10
12659.12750789963
 20
6876.279066364536
 30
0.0
 40
5.625
100
AcDbArc
 50
0.0
 51
180.0
  0
ARC
  5
16566
330
167A9
100
AcDbEntity
  8
SUNPOU
100
AcDbCircle
 10
12659.12750789963
 20
6876.279066364536
 30
0.0
 40
5.625
100
AcDbArc
 50
180.0
 51
0.0
  0
ARC
  5
16567
330
167A9
100
AcDbEntity
  8
SUNPOU
100
AcDbCircle
 10
12659.12750789963
 20
6876.279066364536
 30
0.0
 40
5.625
100
AcDbArc
 50
180.0
 51
0.0
  0
ARC
  5
16568
330
167A9
100
AcDbEntity
  8
SUNPOU
100
AcDbCircle
 10
12659.12750789963
 20
6876.279066364536
 30
0.0
 40
5.625
100
AcDbArc
 50
0.0
 51
180.0
  0
ARC
  5
16569
330
167A9
100
AcDbEntity
  8
SUNPOU
100
AcDbCircle
 10
12519.12750789963
 20
7086.279066364537
 30
0.0
 40
5.625
100
AcDbArc
 50
0.0
 51
180.0
  0
ARC
  5
1656A
330
167A9
100
AcDbEntity
  8
SUNPOU
100
AcDbCircle
 10
12519.12750789963
 20
7086.279066364537
 30
0.0
 40
5.625
100
AcDbArc
 50
180.0
 51
0.0
  0
ARC
  5
1656B
330
167A9
100
AcDbEntity
  8
SUNPOU
100
AcDbCircle
 10
12319.12750789962
 20
7086.279066364537
 30
0.0
 40
5.625
100
AcDbArc
 50
180.0
 51
0.0
  0
ARC
  5
1656C
330
167A9
100
AcDbEntity
  8
SUNPOU
100
AcDbCircle
 10
12319.12750789962
 20
7086.279066364537
 30
0.0
 40
5.625
100
AcDbArc
 50
0.0
 51
180.0
  0
ARC
  5
1656D
330
167A9
100
AcDbEntity
  8
SUNPOU
100
AcDbCircle
 10
11719.12750789964
 20
8626.279066364537
 30
0.0
 40
5.624999999998181
100
AcDbArc
 50
270.0
 51
90.0
  0
ARC
  5
1656E
330
167A9
100
AcDbEntity
  8
SUNPOU
100
AcDbCircle
 10
11719.12750789964
 20
8626.279066364537
 30
0.0
 40
5.625
100
AcDbArc
 50
90.0
 51
270.0
  0
ARC
  5
1656F
330
167A9
100
AcDbEntity
  8
SUNPOU
100
AcDbCircle
 10
11509.12750789964
 20
8626.279066364537
 30
0.0
 40
5.624999999998181
100
AcDbArc
 50
270.0
 51
90.0
  0
ARC
  5
16570
330
167A9
100
AcDbEntity
  8
SUNPOU
100
AcDbCircle
 10
11509.12750789964
 20
8626.279066364537
 30
0.0
 40
5.625
100
AcDbArc
 50
90.0
 51
270.0
  0
ARC
  5
16571
330
167A9
100
AcDbEntity
  8
SUNPOU
100
AcDbCircle
 10
11719.12750789964
 20
8126.279066364537
 30
0.0
 40
5.625
100
AcDbArc
 50
270.0
 51
90.0
  0
ARC
  5
16572
330
167A9
100
AcDbEntity
  8
SUNPOU
100
AcDbCircle
 10
11719.12750789964
 20
8126.279066364537
 30
0.0
 40
5.625
100
AcDbArc
 50
90.0
 51
270.0
  0
ARC
  5
16573
330
167A9
100
AcDbEntity
  8
SUNPOU
100
AcDbCircle
 10
11719.12750789964
 20
7836.279066364537
 30
0.0
 40
5.625
100
AcDbArc
 50
270.0
 51
90.0
  0
ARC
  5
16574
330
167A9
100
AcDbEntity
  8
SUNPOU
100
AcDbCircle
 10
11719.12750789964
 20
7836.279066364537
 30
0.0
 40
5.625
100
AcDbArc
 50
90.0
 51
270.0
  0
ARC
  5
16575
330
167A9
100
AcDbEntity
  8
SUNPOU
100
AcDbCircle
 10
11719.12750789964
 20
7836.279066364537
 30
0.0
 40
5.625
100
AcDbArc
 50
90.0
 51
270.0
  0
ARC
  5
16576
330
167A9
100
AcDbEntity
  8
SUNPOU
100
AcDbCircle
 10
11719.12750789964
 20
7836.279066364537
 30
0.0
 40
5.625
100
AcDbArc
 50
270.0
 51
90.0
  0
ARC
  5
16577
330
167A9
100
AcDbEntity
  8
SUNPOU
100
AcDbCircle
 10
11719.12750789964
 20
8126.279066364537
 30
0.0
 40
5.625
100
AcDbArc
 50
90.0
 51
270.0
  0
ARC
  5
16578
330
167A9
100
AcDbEntity
  8
SUNPOU
100
AcDbCircle
 10
11719.12750789964
 20
8126.279066364537
 30
0.0
 40
5.625
100
AcDbArc
 50
270.0
 51
90.0
  0
ARC
  5
16579
330
167A9
100
AcDbEntity
  8
SUNPOU
100
AcDbCircle
 10
11719.12750789964
 20
7336.279066364537
 30
0.0
 40
5.625
100
AcDbArc
 50
90.0
 51
270.0
  0
ARC
  5
1657A
330
167A9
100
AcDbEntity
  8
SUNPOU
100
AcDbCircle
 10
11719.12750789964
 20
7336.279066364537
 30
0.0
 40
5.625
100
AcDbArc
 50
270.0
 51
90.0
  0
ARC
  5
1657B
330
167A9
100
AcDbEntity
  8
SUNPOU
100
AcDbCircle
 10
11509.12750789964
 20
7336.279066364537
 30
0.0
 40
5.625
100
AcDbArc
 50
90.0
 51
270.0
  0
ARC
  5
1657C
330
167A9
100
AcDbEntity
  8
SUNPOU
100
AcDbCircle
 10
11509.12750789964
 20
7336.279066364537
 30
0.0
 40
5.625
100
AcDbArc
 50
270.0
 51
90.0
  0
ARC
  5
1657D
330
167A9
100
AcDbEntity
  8
SUNPOU
100
AcDbCircle
 10
12179.12750789962
 20
6876.279066364536
 30
0.0
 40
5.625
100
AcDbArc
 50
0.0
 51
180.0
  0
ARC
  5
1657E
330
167A9
100
AcDbEntity
  8
SUNPOU
100
AcDbCircle
 10
12179.12750789962
 20
6876.279066364536
 30
0.0
 40
5.625
100
AcDbArc
 50
180.0
 51
0.0
  0
ARC
  5
1657F
330
167A9
100
AcDbEntity
  8
SUNPOU
100
AcDbCircle
 10
12179.12750789962
 20
6876.279066364536
 30
0.0
 40
5.625
100
AcDbArc
 50
180.0
 51
0.0
  0
ARC
  5
16580
330
167A9
100
AcDbEntity
  8
SUNPOU
100
AcDbCircle
 10
12179.12750789962
 20
6876.279066364536
 30
0.0
 40
5.625
100
AcDbArc
 50
0.0
 51
180.0
  0
ARC
  5
16581
330
167A9
100
AcDbEntity
  8
SUNPOU
100
AcDbCircle
 10
12019.12750789964
 20
6876.279066364536
 30
0.0
 40
5.624999999996362
100
AcDbArc
 50
180.0
 51
0.0
  0
ARC
  5
16582
330
167A9
100
AcDbEntity
  8
SUNPOU
100
AcDbCircle
 10
12019.12750789964
 20
6876.279066364536
 30
0.0
 40
5.624999999996362
100
AcDbArc
 50
0.0
 51
180.0
  0
ARC
  5
16583
330
167A9
100
AcDbEntity
  8
SUNPOU
100
AcDbCircle
 10
12019.12750789964
 20
6666.279066364538
 30
0.0
 40
5.624999999996362
100
AcDbArc
 50
180.0
 51
0.0
  0
ARC
  5
16584
330
167A9
100
AcDbEntity
  8
SUNPOU
100
AcDbCircle
 10
12019.12750789964
 20
6666.279066364538
 30
0.0
 40
5.624999999996362
100
AcDbArc
 50
0.0
 51
180.0
  0
ARC
  5
16585
330
167A9
100
AcDbEntity
  8
SUNPOU
100
AcDbCircle
 10
3169.127507899644
 20
10126.27906636454
 30
0.0
 40
5.625
100
AcDbArc
 50
270.0
 51
90.0
  0
ARC
  5
16586
330
167A9
100
AcDbEntity
  8
SUNPOU
100
AcDbCircle
 10
3169.127507899644
 20
10126.27906636454
 30
0.0
 40
5.625
100
AcDbArc
 50
90.0
 51
270.0
  0
ARC
  5
16587
330
167A9
100
AcDbEntity
  8
SUNPOU
100
AcDbCircle
 10
3169.127507899644
 20
8126.279066364537
 30
0.0
 40
5.625
100
AcDbArc
 50
270.0
 51
90.0
  0
ARC
  5
16588
330
167A9
100
AcDbEntity
  8
SUNPOU
100
AcDbCircle
 10
3169.127507899644
 20
8126.279066364537
 30
0.0
 40
5.625
100
AcDbArc
 50
90.0
 51
270.0
  0
ARC
  5
16589
330
167A9
100
AcDbEntity
  8
SUNPOU
100
AcDbCircle
 10
3169.127507899644
 20
7836.279066364537
 30
0.0
 40
5.625
100
AcDbArc
 50
90.0
 51
270.0
  0
ARC
  5
1658A
330
167A9
100
AcDbEntity
  8
SUNPOU
100
AcDbCircle
 10
3169.127507899644
 20
7836.279066364537
 30
0.0
 40
5.625
100
AcDbArc
 50
270.0
 51
90.0
  0
ARC
  5
1658B
330
167A9
100
AcDbEntity
  8
SUNPOU
100
AcDbCircle
 10
3169.127507899644
 20
7836.279066364537
 30
0.0
 40
5.625
100
AcDbArc
 50
270.0
 51
90.0
  0
ARC
  5
1658C
330
167A9
100
AcDbEntity
  8
SUNPOU
100
AcDbCircle
 10
3169.127507899644
 20
7836.279066364537
 30
0.0
 40
5.625
100
AcDbArc
 50
90.0
 51
270.0
  0
ARC
  5
1658D
330
167A9
100
AcDbEntity
  8
SUNPOU
100
AcDbCircle
 10
3169.127507899644
 20
8126.279066364537
 30
0.0
 40
5.625
100
AcDbArc
 50
90.0
 51
270.0
  0
ARC
  5
1658E
330
167A9
100
AcDbEntity
  8
SUNPOU
100
AcDbCircle
 10
3169.127507899644
 20
8126.279066364537
 30
0.0
 40
5.625
100
AcDbArc
 50
270.0
 51
90.0
  0
ARC
  5
1658F
330
167A9
100
AcDbEntity
  8
SUNPOU
100
AcDbCircle
 10
3169.127507899644
 20
5836.279066364536
 30
0.0
 40
5.625
100
AcDbArc
 50
90.0
 51
270.0
  0
ARC
  5
16590
330
167A9
100
AcDbEntity
  8
SUNPOU
100
AcDbCircle
 10
3169.127507899644
 20
5836.279066364536
 30
0.0
 40
5.62499999999909
100
AcDbArc
 50
270.0
 51
90.0
  0
TEXT
  5
16591
330
167A9
100
AcDbEntity
  8
SUNPOU
100
AcDbText
 10
7755.413222185355
 20
5123.638389810428
 30
0.0
 40
90.0
  1
L = 2800 x N + 800
 41
0.6666666666666666
  7
00
100
AcDbText
  0
LINE
  5
16593
330
167A9
100
AcDbEntity
  8
SUNPOU
100
AcDbLine
 10
3634.127507899644
 20
5078.638389810429
 30
0.0
 11
3649.127507899644
 21
5078.638389810429
 31
0.0
  0
LINE
  5
16595
330
167A9
100
AcDbEntity
  8
SUNPOU
100
AcDbLine
 10
12804.12750789962
 20
5078.638389810429
 30
0.0
 11
12789.12750789964
 21
5078.638389810429
 31
0.0
  0
TEXT
  5
16596
330
167A9
100
AcDbEntity
  8
SUNPOU
100
AcDbText
 10
3194.714767048858
 20
1615.89849823215
 30
0.0
 40
90.0
  1
290
 41
0.6666666666666666
  7
00
100
AcDbText
  0
LINE
  5
16598
330
167A9
100
AcDbEntity
  8
SUNPOU
100
AcDbLine
 10
3497.429052763143
 20
1570.89849823215
 30
0.0
 11
3482.429052763144
 21
1570.89849823215
 31
0.0
  0
LINE
  5
1659A
330
167A9
100
AcDbEntity
  8
SUNPOU
100
AcDbLine
 10
3063.429052763144
 20
1570.89849823215
 30
0.0
 11
3078.429052763143
 21
1570.89849823215
 31
0.0
  0
TEXT
  5
1659B
330
167A9
100
AcDbEntity
  8
SUNPOU
100
AcDbText
 10
3826.714767048869
 20
1615.89849823215
 30
0.0
 40
90.0
  1
500
 41
0.6666666666666666
  7
00
100
AcDbText
  0
LINE
  5
1659D
330
167A9
100
AcDbEntity
  8
SUNPOU
100
AcDbLine
 10
4297.429052763166
 20
1570.89849823215
 30
0.0
 11
4282.429052763165
 21
1570.89849823215
 31
0.0
  0
LINE
  5
1659F
330
167A9
100
AcDbEntity
  8
SUNPOU
100
AcDbLine
 10
3527.429052763143
 20
1570.89849823215
 30
0.0
 11
3542.429052763144
 21
1570.89849823215
 31
0.0
  0
TEXT
  5
165A0
330
167A9
100
AcDbEntity
  8
SUNPOU
100
AcDbText
 10
2562.714767048865
 20
1615.89849823215
 30
0.0
 40
90.0
  1
500
 41
0.6666666666666666
  7
00
100
AcDbText
  0
LINE
  5
165A2
330
167A9
100
AcDbEntity
  8
SUNPOU
100
AcDbLine
 10
3033.429052763144
 20
1570.89849823215
 30
0.0
 11
3018.429052763144
 21
1570.89849823215
 31
0.0
  0
LINE
  5
165A4
330
167A9
100
AcDbEntity
  8
SUNPOU
100
AcDbLine
 10
2263.429052763159
 20
1570.89849823215
 30
0.0
 11
2278.429052763157
 21
1570.89849823215
 31
0.0
  0
TEXT
  5
165A5
330
167A9
100
AcDbEntity
  8
SUNPOU
100
AcDbText
 10
3161.857624191732
 20
1405.89849823215
 30
0.0
 40
90.0
  1
1290
 41
0.6666666666666666
  7
00
100
AcDbText
  0
LINE
  5
165A7
330
167A9
100
AcDbEntity
  8
SUNPOU
100
AcDbLine
 10
4297.429052763166
 20
1360.89849823215
 30
0.0
 11
4282.429052763165
 21
1360.89849823215
 31
0.0
  0
LINE
  5
165A9
330
167A9
100
AcDbEntity
  8
SUNPOU
100
AcDbLine
 10
2263.429052763159
 20
1360.89849823215
 30
0.0
 11
2278.429052763157
 21
1360.89849823215
 31
0.0
  0
TEXT
  5
165AA
330
167A9
100
AcDbEntity
  8
SUNPOU
100
AcDbText
 10
3194.714767048873
 20
3556.260118325357
 30
0.0
 40
90.0
  1
770
 41
0.6666666666666666
  7
00
100
AcDbText
  0
LINE
  5
165AC
330
167A9
100
AcDbEntity
  8
SUNPOU
100
AcDbLine
 10
3881.429052763158
 20
3511.260118325356
 30
0.0
 11
3866.429052763159
 21
3511.260118325356
 31
0.0
  0
LINE
  5
165AE
330
167A9
100
AcDbEntity
  8
SUNPOU
100
AcDbLine
 10
2679.429052763159
 20
3511.260118325356
 30
0.0
 11
2694.429052763158
 21
3511.260118325356
 31
0.0
  0
TEXT
  5
165AF
330
167A9
100
AcDbEntity
  8
SUNPOU
100
AcDbText
 10
4893.007034603488
 20
2408.171127544112
 30
0.0
 40
90.0
  1
480
 50
90.0
 41
0.6666666666666666
  7
00
100
AcDbText
  0
LINE
  5
165B1
330
167A9
100
AcDbEntity
  8
SUNPOU
100
AcDbLine
 10
4938.007034603489
 20
2124.885413258398
 30
0.0
 11
4938.007034603489
 21
2139.885413258399
 31
0.0
  0
LINE
  5
165B3
330
167A9
100
AcDbEntity
  8
SUNPOU
100
AcDbLine
 10
4938.007034603489
 20
2862.885413258394
 30
0.0
 11
4938.007034603489
 21
2847.885413258394
 31
0.0
  0
TEXT
  5
165B4
330
167A9
100
AcDbEntity
  8
SUNPOU
100
AcDbText
 10
4893.007034603488
 20
2907.885413258394
 30
0.0
 40
90.0
  1
150
 50
90.0
 41
0.6666666666666666
  7
00
100
AcDbText
  0
LINE
  5
165B6
330
167A9
100
AcDbEntity
  8
SUNPOU
100
AcDbLine
 10
4938.007034603489
 20
2892.885413258394
 30
0.0
 11
4938.007034603489
 21
2907.885413258394
 31
0.0
  0
LINE
  5
165B8
330
167A9
100
AcDbEntity
  8
SUNPOU
100
AcDbLine
 10
4938.007034603489
 20
3102.885413258395
 30
0.0
 11
4938.007034603489
 21
3087.885413258394
 31
0.0
  0
LINE
  5
165BA
330
167A9
100
AcDbEntity
  8
SUNPOU
100
AcDbLine
 10
5148.007034603489
 20
2124.885413258399
 30
0.0
 11
5148.007034603489
 21
2139.885413258399
 31
0.0
  0
LINE
  5
165BC
330
167A9
100
AcDbEntity
  8
SUNPOU
100
AcDbLine
 10
5148.007034603488
 20
2014.885413258399
 30
0.0
 11
5148.007034603488
 21
1999.885413258398
 31
0.0
  0
TEXT
  5
165BD
330
167A9
100
AcDbEntity
  8
SUNPOU
100
AcDbText
 10
5320.630199058618
 20
2012.742556115539
 30
0.0
 40
90.0
  1
50
 50
90.0
 41
0.6666666666666666
  7
00
100
AcDbText
  0
TEXT
  5
165BE
330
167A9
100
AcDbEntity
  8
SUNPOU
100
AcDbText
 10
5103.007034603489
 20
1642.028270401257
 30
0.0
 40
90.0
  1
100
 50
90.0
 41
0.6666666666666666
  7
00
100
AcDbText
  0
LINE
  5
165C0
330
167A9
100
AcDbEntity
  8
SUNPOU
100
AcDbLine
 10
5148.007034603489
 20
1884.885413258399
 30
0.0
 11
5148.007034603489
 21
1899.8854132584
 31
0.0
  0
LINE
  5
165C2
330
167A9
100
AcDbEntity
  8
SUNPOU
100
AcDbLine
 10
5148.007034603489
 20
2014.885413258399
 30
0.0
 11
5148.007034603489
 21
1999.885413258398
 31
0.0
  0
TEXT
  5
165C3
330
167A9
100
AcDbEntity
  8
SUNPOU
100
AcDbText
 10
5103.007034603488
 20
2526.74255611554
 30
0.0
 40
90.0
  1
630
 50
90.0
 41
0.6666666666666666
  7
00
100
AcDbText
  0
LINE
  5
165C5
330
167A9
100
AcDbEntity
  8
SUNPOU
100
AcDbLine
 10
5148.007034603489
 20
2124.885413258399
 30
0.0
 11
5148.007034603489
 21
2139.885413258399
 31
0.0
  0
LINE
  5
165C7
330
167A9
100
AcDbEntity
  8
SUNPOU
100
AcDbLine
 10
5148.007034603489
 20
3102.885413258395
 30
0.0
 11
5148.007034603489
 21
3087.885413258394
 31
0.0
  0
ARC
  5
165C8
330
167A9
100
AcDbEntity
  8
SUNPOU
100
AcDbCircle
 10
6055.044979629257
 20
3019.333194070902
 30
0.0
 40
7.5
100
AcDbArc
 50
270.0
 51
90.0
  0
ARC
  5
165C9
330
167A9
100
AcDbEntity
  8
SUNPOU
100
AcDbCircle
 10
6055.044979629257
 20
3019.333194070902
 30
0.0
 40
7.5
100
AcDbArc
 50
90.0
 51
270.0
  0
ARC
  5
165CA
330
167A9
100
AcDbEntity
  8
SUNPOU
100
AcDbCircle
 10
6055.044979629257
 20
1963.333194070902
 30
0.0
 40
7.5
100
AcDbArc
 50
90.0
 51
270.0
  0
ARC
  5
165CB
330
167A9
100
AcDbEntity
  8
SUNPOU
100
AcDbCircle
 10
6055.044979629257
 20
1963.333194070902
 30
0.0
 40
7.5
100
AcDbArc
 50
270.0
 51
90.0
  0
ARC
  5
165CC
330
167A9
100
AcDbEntity
  8
SUNPOU
100
AcDbCircle
 10
8420.306062185526
 20
3402.711278313303
 30
0.0
 40
7.5
100
AcDbArc
 50
180.0
 51
0.0
  0
ARC
  5
165CD
330
167A9
100
AcDbEntity
  8
SUNPOU
100
AcDbCircle
 10
8420.306062185526
 20
3402.711278313303
 30
0.0
 40
7.5
100
AcDbArc
 50
0.0
 51
180.0
  0
ARC
  5
165CE
330
167A9
100
AcDbEntity
  8
SUNPOU
100
AcDbCircle
 10
6580.306062185525
 20
3402.711278313303
 30
0.0
 40
7.5
100
AcDbArc
 50
0.0
 51
180.0
  0
ARC
  5
165CF
330
167A9
100
AcDbEntity
  8
SUNPOU
100
AcDbCircle
 10
6580.306062185525
 20
3402.711278313303
 30
0.0
 40
7.5
100
AcDbArc
 50
180.0
 51
0.0
  0
TEXT
  5
165D0
330
167A9
100
AcDbEntity
  8
SUNPOU
100
AcDbText
 10
8938.171970751353
 20
2405.618908356616
 30
0.0
 40
90.0
  1
480
 50
90.0
 41
0.6666666666666666
  7
00
100
AcDbText
  0
LINE
  5
165D2
330
167A9
100
AcDbEntity
  8
SUNPOU
100
AcDbLine
 10
8983.171970751353
 20
2860.3331940709
 30
0.0
 11
8983.171970751353
 21
2845.3331940709
 31
0.0
  0
LINE
  5
165D4
330
167A9
100
AcDbEntity
  8
SUNPOU
100
AcDbLine
 10
8983.171970751353
 20
2122.3331940709
 30
0.0
 11
8983.171970751353
 21
2137.3331940709
 31
0.0
  0
TEXT
  5
165D5
330
167A9
100
AcDbEntity
  8
SUNPOU
100
AcDbText
 10
9148.171970751356
 20
2405.618908356616
 30
0.0
 40
90.0
  1
800
 50
90.0
 41
0.6666666666666666
  7
00
100
AcDbText
  0
LINE
  5
165D7
330
167A9
100
AcDbEntity
  8
SUNPOU
100
AcDbLine
 10
9193.171970751356
 20
1866.333194070899
 30
0.0
 11
9193.171970751356
 21
1881.333194070899
 31
0.0
  0
LINE
  5
165D9
330
167A9
100
AcDbEntity
  8
SUNPOU
100
AcDbLine
 10
9193.171970751356
 20
3116.3331940709
 30
0.0
 11
9193.171970751356
 21
3101.3331940709
 31
0.0
  0
TEXT
  5
165DA
330
167A9
100
AcDbEntity
  8
SUNPOU
100
AcDbText
 10
7414.59177647124
 20
1615.89849823215
 30
0.0
 40
90.0
  1
770
 41
0.6666666666666666
  7
00
100
AcDbText
  0
LINE
  5
165DC
330
167A9
100
AcDbEntity
  8
SUNPOU
100
AcDbLine
 10
6899.306062185527
 20
1570.89849823215
 30
0.0
 11
6914.306062185527
 21
1570.89849823215
 31
0.0
  0
LINE
  5
165DE
330
167A9
100
AcDbEntity
  8
SUNPOU
100
AcDbLine
 10
8101.306062185527
 20
1570.89849823215
 30
0.0
 11
8086.306062185526
 21
1570.89849823215
 31
0.0
  0
TEXT
  5
165DF
330
167A9
100
AcDbEntity
  8
SUNPOU
100
AcDbText
 10
7381.734633614097
 20
1405.89849823215
 30
0.0
 40
90.0
  1
1290
 41
0.6666666666666666
  7
00
100
AcDbText
  0
LINE
  5
165E1
330
167A9
100
AcDbEntity
  8
SUNPOU
100
AcDbLine
 10
8517.306062185525
 20
1360.89849823215
 30
0.0
 11
8502.306062185526
 21
1360.89849823215
 31
0.0
  0
LINE
  5
165E3
330
167A9
100
AcDbEntity
  8
SUNPOU
100
AcDbLine
 10
6483.306062185525
 20
1360.89849823215
 30
0.0
 11
6498.306062185527
 21
1360.89849823215
 31
0.0
  0
TEXT
  5
165E4
330
167A9
100
AcDbEntity
  8
SUNPOU
100
AcDbText
 10
12533.41322218535
 20
5431.279066364536
 30
0.0
 40
90.0
  1
400
 41
0.6666666666666666
  7
00
100
AcDbText
  0
LINE
  5
165E6
330
167A9
100
AcDbEntity
  8
SUNPOU
100
AcDbLine
 10
12804.12750789962
 20
5386.279066364537
 30
0.0
 11
12789.12750789964
 21
5386.279066364537
 31
0.0
  0
LINE
  5
165E8
330
167A9
100
AcDbEntity
  8
SUNPOU
100
AcDbLine
 10
12434.12750789963
 20
5386.279066364537
 30
0.0
 11
12449.12750789963
 21
5386.279066364537
 31
0.0
  0
TEXT
  5
165E9
330
167A9
100
AcDbEntity
  8
SUNPOU
100
AcDbText
 10
10904.84179361392
 20
5431.279066364536
 30
0.0
 40
90.0
  1
2800
 41
0.6666666666666666
  7
00
100
AcDbText
  0
LINE
  5
165EB
330
167A9
100
AcDbEntity
  8
SUNPOU
100
AcDbLine
 10
12404.12750789964
 20
5386.279066364537
 30
0.0
 11
12389.12750789963
 21
5386.279066364537
 31
0.0
  0
LINE
  5
165ED
330
167A9
100
AcDbEntity
  8
SUNPOU
100
AcDbLine
 10
9634.127507899645
 20
5386.279066364537
 30
0.0
 11
9649.127507899644
 21
5386.279066364537
 31
0.0
  0
TEXT
  5
165EE
330
167A9
100
AcDbEntity
  8
SUNPOU
100
AcDbText
 10
7829.413222185358
 20
5431.279066364536
 30
0.0
 40
90.0
  1
2800 ×（ N - 2 ）
 41
0.6666666666666666
  7
00
100
AcDbText
  0
LINE
  5
165F0
330
167A9
100
AcDbEntity
  8
SUNPOU
100
AcDbLine
 10
9604.127507899645
 20
5386.279066364537
 30
0.0
 11
9589.127507899645
 21
5386.279066364537
 31
0.0
  0
LINE
  5
165F2
330
167A9
100
AcDbEntity
  8
SUNPOU
100
AcDbLine
 10
6834.127507899643
 20
5386.279066364537
 30
0.0
 11
6849.127507899644
 21
5386.279066364537
 31
0.0
  0
TEXT
  5
165F3
330
167A9
100
AcDbEntity
  8
SUNPOU
100
AcDbText
 10
5304.841793613929
 20
5431.279066364536
 30
0.0
 40
90.0
  1
2800
 41
0.6666666666666666
  7
00
100
AcDbText
  0
LINE
  5
165F5
330
167A9
100
AcDbEntity
  8
SUNPOU
100
AcDbLine
 10
6804.127507899645
 20
5386.279066364537
 30
0.0
 11
6789.127507899642
 21
5386.279066364537
 31
0.0
  0
LINE
  5
165F7
330
167A9
100
AcDbEntity
  8
SUNPOU
100
AcDbLine
 10
4034.127507899643
 20
5386.279066364537
 30
0.0
 11
4049.127507899644
 21
5386.279066364537
 31
0.0
  0
TEXT
  5
165F8
330
167A9
100
AcDbEntity
  8
SUNPOU
100
AcDbText
 10
3733.413222185358
 20
5431.279066364536
 30
0.0
 40
90.0
  1
400
 41
0.6666666666666666
  7
00
100
AcDbText
  0
LINE
  5
165FA
330
167A9
100
AcDbEntity
  8
SUNPOU
100
AcDbLine
 10
4004.127507899644
 20
5386.279066364537
 30
0.0
 11
3989.127507899644
 21
5386.279066364537
 31
0.0
  0
LINE
  5
165FC
330
167A9
100
AcDbEntity
  8
SUNPOU
100
AcDbLine
 10
3634.127507899644
 20
5386.279066364537
 30
0.0
 11
3649.127507899644
 21
5386.279066364537
 31
0.0
  0
ARC
  5
165FD
330
167A9
100
AcDbEntity
  8
SUNPOU
100
AcDbCircle
 10
3619.127507899644
 20
5078.638389810429
 30
0.0
 40
7.5
100
AcDbArc
 50
0.0
 51
180.0
  0
ARC
  5
165FE
330
167A9
100
AcDbEntity
  8
SUNPOU
100
AcDbCircle
 10
3619.127507899644
 20
5078.638389810429
 30
0.0
 40
7.5
100
AcDbArc
 50
180.0
 51
0.0
  0
ARC
  5
165FF
330
167A9
100
AcDbEntity
  8
SUNPOU
100
AcDbCircle
 10
12819.12750789963
 20
5078.638389810429
 30
0.0
 40
7.5
100
AcDbArc
 50
180.0
 51
0.0
  0
ARC
  5
16600
330
167A9
100
AcDbEntity
  8
SUNPOU
100
AcDbCircle
 10
12819.12750789963
 20
5078.638389810429
 30
0.0
 40
7.5
100
AcDbArc
 50
0.0
 51
180.0
  0
ARC
  5
16601
330
167A9
100
AcDbEntity
  8
SUNPOU
100
AcDbCircle
 10
3512.429052763144
 20
1570.89849823215
 30
0.0
 40
7.5
100
AcDbArc
 50
180.0
 51
0.0
  0
ARC
  5
16602
330
167A9
100
AcDbEntity
  8
SUNPOU
100
AcDbCircle
 10
3512.429052763144
 20
1570.89849823215
 30
0.0
 40
7.5
100
AcDbArc
 50
0.0
 51
180.0
  0
ARC
  5
16603
330
167A9
100
AcDbEntity
  8
SUNPOU
100
AcDbCircle
 10
3048.429052763143
 20
1570.89849823215
 30
0.0
 40
7.5
100
AcDbArc
 50
0.0
 51
180.0
  0
ARC
  5
16604
330
167A9
100
AcDbEntity
  8
SUNPOU
100
AcDbCircle
 10
3048.429052763143
 20
1570.89849823215
 30
0.0
 40
7.5
100
AcDbArc
 50
180.0
 51
0.0
  0
ARC
  5
16605
330
167A9
100
AcDbEntity
  8
SUNPOU
100
AcDbCircle
 10
4312.429052763166
 20
1570.89849823215
 30
0.0
 40
7.5
100
AcDbArc
 50
180.0
 51
0.0
  0
ARC
  5
16606
330
167A9
100
AcDbEntity
  8
SUNPOU
100
AcDbCircle
 10
4312.429052763166
 20
1570.89849823215
 30
0.0
 40
7.5
100
AcDbArc
 50
0.0
 51
180.0
  0
ARC
  5
16607
330
167A9
100
AcDbEntity
  8
SUNPOU
100
AcDbCircle
 10
3512.429052763144
 20
1570.89849823215
 30
0.0
 40
7.5
100
AcDbArc
 50
0.0
 51
180.0
  0
ARC
  5
16608
330
167A9
100
AcDbEntity
  8
SUNPOU
100
AcDbCircle
 10
3512.429052763144
 20
1570.89849823215
 30
0.0
 40
7.5
100
AcDbArc
 50
180.0
 51
0.0
  0
ARC
  5
16609
330
167A9
100
AcDbEntity
  8
SUNPOU
100
AcDbCircle
 10
3048.429052763143
 20
1570.89849823215
 30
0.0
 40
7.5
100
AcDbArc
 50
180.0
 51
0.0
  0
ARC
  5
1660A
330
167A9
100
AcDbEntity
  8
SUNPOU
100
AcDbCircle
 10
3048.429052763143
 20
1570.89849823215
 30
0.0
 40
7.5
100
AcDbArc
 50
0.0
 51
180.0
  0
ARC
  5
1660B
330
167A9
100
AcDbEntity
  8
SUNPOU
100
AcDbCircle
 10
2248.429052763158
 20
1570.89849823215
 30
0.0
 40
7.5
100
AcDbArc
 50
0.0
 51
180.0
  0
ARC
  5
1660C
330
167A9
100
AcDbEntity
  8
SUNPOU
100
AcDbCircle
 10
2248.429052763158
 20
1570.89849823215
 30
0.0
 40
7.5
100
AcDbArc
 50
180.0
 51
0.0
  0
ARC
  5
1660D
330
167A9
100
AcDbEntity
  8
SUNPOU
100
AcDbCircle
 10
4312.429052763166
 20
1360.89849823215
 30
0.0
 40
7.5
100
AcDbArc
 50
180.0
 51
0.0
  0
ARC
  5
1660E
330
167A9
100
AcDbEntity
  8
SUNPOU
100
AcDbCircle
 10
4312.429052763166
 20
1360.89849823215
 30
0.0
 40
7.5
100
AcDbArc
 50
0.0
 51
180.0
  0
ARC
  5
1660F
330
167A9
100
AcDbEntity
  8
SUNPOU
100
AcDbCircle
 10
2248.429052763158
 20
1360.89849823215
 30
0.0
 40
7.5
100
AcDbArc
 50
0.0
 51
180.0
  0
ARC
  5
16610
330
167A9
100
AcDbEntity
  8
SUNPOU
100
AcDbCircle
 10
2248.429052763158
 20
1360.89849823215
 30
0.0
 40
7.5
100
AcDbArc
 50
180.0
 51
0.0
  0
ARC
  5
16611
330
167A9
100
AcDbEntity
  8
SUNPOU
100
AcDbCircle
 10
3896.429052763159
 20
3511.260118325356
 30
0.0
 40
7.5
100
AcDbArc
 50
180.0
 51
0.0
  0
ARC
  5
16612
330
167A9
100
AcDbEntity
  8
SUNPOU
100
AcDbCircle
 10
3896.429052763159
 20
3511.260118325356
 30
0.0
 40
7.5
100
AcDbArc
 50
0.0
 51
180.0
  0
ARC
  5
16613
330
167A9
100
AcDbEntity
  8
SUNPOU
100
AcDbCircle
 10
2664.429052763158
 20
3511.260118325356
 30
0.0
 40
7.5
100
AcDbArc
 50
0.0
 51
180.0
  0
ARC
  5
16614
330
167A9
100
AcDbEntity
  8
SUNPOU
100
AcDbCircle
 10
2664.429052763158
 20
3511.260118325356
 30
0.0
 40
7.5
100
AcDbArc
 50
180.0
 51
0.0
  0
ARC
  5
16615
330
167A9
100
AcDbEntity
  8
SUNPOU
100
AcDbCircle
 10
4938.007034603489
 20
2109.885413258398
 30
0.0
 40
7.5
100
AcDbArc
 50
90.0
 51
270.0
  0
ARC
  5
16616
330
167A9
100
AcDbEntity
  8
SUNPOU
100
AcDbCircle
 10
4938.007034603489
 20
2109.885413258398
 30
0.0
 40
7.5
100
AcDbArc
 50
270.0
 51
90.0
  0
ARC
  5
16617
330
167A9
100
AcDbEntity
  8
SUNPOU
100
AcDbCircle
 10
4938.007034603489
 20
2877.885413258394
 30
0.0
 40
7.5
100
AcDbArc
 50
270.0
 51
90.0
  0
ARC
  5
16618
330
167A9
100
AcDbEntity
  8
SUNPOU
100
AcDbCircle
 10
4938.007034603489
 20
2877.885413258394
 30
0.0
 40
7.5
100
AcDbArc
 50
90.0
 51
270.0
  0
ARC
  5
16619
330
167A9
100
AcDbEntity
  8
SUNPOU
100
AcDbCircle
 10
4938.007034603489
 20
2877.885413258394
 30
0.0
 40
7.5
100
AcDbArc
 50
90.0
 51
270.0
  0
ARC
  5
1661A
330
167A9
100
AcDbEntity
  8
SUNPOU
100
AcDbCircle
 10
4938.007034603489
 20
2877.885413258394
 30
0.0
 40
7.5
100
AcDbArc
 50
270.0
 51
90.0
  0
ARC
  5
1661B
330
167A9
100
AcDbEntity
  8
SUNPOU
100
AcDbCircle
 10
4938.007034603489
 20
3117.885413258394
 30
0.0
 40
7.5
100
AcDbArc
 50
270.0
 51
90.0
  0
ARC
  5
1661C
330
167A9
100
AcDbEntity
  8
SUNPOU
100
AcDbCircle
 10
4938.007034603489
 20
3117.885413258394
 30
0.0
 40
7.5
100
AcDbArc
 50
90.0
 51
270.0
  0
ARC
  5
1661D
330
167A9
100
AcDbEntity
  8
SUNPOU
100
AcDbCircle
 10
5148.007034603489
 20
2109.885413258399
 30
0.0
 40
7.5
100
AcDbArc
 50
90.0
 51
270.0
  0
ARC
  5
1661E
330
167A9
100
AcDbEntity
  8
SUNPOU
100
AcDbCircle
 10
5148.007034603489
 20
2109.885413258399
 30
0.0
 40
7.5
100
AcDbArc
 50
270.0
 51
90.0
  0
ARC
  5
1661F
330
167A9
100
AcDbEntity
  8
SUNPOU
100
AcDbCircle
 10
5148.007034603488
 20
2029.885413258399
 30
0.0
 40
7.5
100
AcDbArc
 50
270.0
 51
90.0
  0
ARC
  5
16620
330
167A9
100
AcDbEntity
  8
SUNPOU
100
AcDbCircle
 10
5148.007034603488
 20
2029.885413258399
 30
0.0
 40
7.5
100
AcDbArc
 50
90.0
 51
270.0
  0
ARC
  5
16621
330
167A9
100
AcDbEntity
  8
SUNPOU
100
AcDbCircle
 10
5148.007034603489
 20
1869.885413258399
 30
0.0
 40
7.5
100
AcDbArc
 50
90.0
 51
270.0
  0
ARC
  5
16622
330
167A9
100
AcDbEntity
  8
SUNPOU
100
AcDbCircle
 10
5148.007034603489
 20
1869.885413258399
 30
0.0
 40
7.5
100
AcDbArc
 50
270.0
 51
90.0
  0
ARC
  5
16623
330
167A9
100
AcDbEntity
  8
SUNPOU
100
AcDbCircle
 10
5148.007034603489
 20
2029.885413258399
 30
0.0
 40
7.5
100
AcDbArc
 50
270.0
 51
90.0
  0
ARC
  5
16624
330
167A9
100
AcDbEntity
  8
SUNPOU
100
AcDbCircle
 10
5148.007034603489
 20
2029.885413258399
 30
0.0
 40
7.5
100
AcDbArc
 50
90.0
 51
270.0
  0
ARC
  5
16625
330
167A9
100
AcDbEntity
  8
SUNPOU
100
AcDbCircle
 10
5148.007034603489
 20
2109.885413258399
 30
0.0
 40
7.5
100
AcDbArc
 50
90.0
 51
270.0
  0
ARC
  5
16626
330
167A9
100
AcDbEntity
  8
SUNPOU
100
AcDbCircle
 10
5148.007034603489
 20
2109.885413258399
 30
0.0
 40
7.5
100
AcDbArc
 50
270.0
 51
90.0
  0
ARC
  5
16627
330
167A9
100
AcDbEntity
  8
SUNPOU
100
AcDbCircle
 10
5148.007034603489
 20
3117.885413258394
 30
0.0
 40
7.5
100
AcDbArc
 50
270.0
 51
90.0
  0
ARC
  5
16628
330
167A9
100
AcDbEntity
  8
SUNPOU
100
AcDbCircle
 10
5148.007034603489
 20
3117.885413258394
 30
0.0
 40
7.5
100
AcDbArc
 50
90.0
 51
270.0
  0
ARC
  5
16629
330
167A9
100
AcDbEntity
  8
SUNPOU
100
AcDbCircle
 10
8983.171970751353
 20
2875.3331940709
 30
0.0
 40
7.5
100
AcDbArc
 50
270.0
 51
90.0
  0
ARC
  5
1662A
330
167A9
100
AcDbEntity
  8
SUNPOU
100
AcDbCircle
 10
8983.171970751353
 20
2875.3331940709
 30
0.0
 40
7.5
100
AcDbArc
 50
90.0
 51
270.0
  0
ARC
  5
1662B
330
167A9
100
AcDbEntity
  8
SUNPOU
100
AcDbCircle
 10
8983.171970751353
 20
2107.333194070899
 30
0.0
 40
7.5
100
AcDbArc
 50
90.0
 51
270.0
  0
ARC
  5
1662C
330
167A9
100
AcDbEntity
  8
SUNPOU
100
AcDbCircle
 10
8983.171970751353
 20
2107.333194070899
 30
0.0
 40
7.5
100
AcDbArc
 50
270.0
 51
90.0
  0
ARC
  5
1662D
330
167A9
100
AcDbEntity
  8
SUNPOU
100
AcDbCircle
 10
9193.171970751356
 20
1851.3331940709
 30
0.0
 40
7.5
100
AcDbArc
 50
90.0
 51
270.0
  0
ARC
  5
1662E
330
167A9
100
AcDbEntity
  8
SUNPOU
100
AcDbCircle
 10
9193.171970751356
 20
1851.3331940709
 30
0.0
 40
7.5
100
AcDbArc
 50
270.0
 51
90.0
  0
ARC
  5
1662F
330
167A9
100
AcDbEntity
  8
SUNPOU
100
AcDbCircle
 10
9193.171970751356
 20
3131.3331940709
 30
0.0
 40
7.5
100
AcDbArc
 50
270.0
 51
90.0
  0
ARC
  5
16630
330
167A9
100
AcDbEntity
  8
SUNPOU
100
AcDbCircle
 10
9193.171970751356
 20
3131.3331940709
 30
0.0
 40
7.5
100
AcDbArc
 50
90.0
 51
270.0
  0
ARC
  5
16631
330
167A9
100
AcDbEntity
  8
SUNPOU
100
AcDbCircle
 10
6884.306062185527
 20
1570.89849823215
 30
0.0
 40
7.5
100
AcDbArc
 50
0.0
 51
180.0
  0
ARC
  5
16632
330
167A9
100
AcDbEntity
  8
SUNPOU
100
AcDbCircle
 10
6884.306062185527
 20
1570.89849823215
 30
0.0
 40
7.5
100
AcDbArc
 50
180.0
 51
0.0
  0
ARC
  5
16633
330
167A9
100
AcDbEntity
  8
SUNPOU
100
AcDbCircle
 10
8116.306062185525
 20
1570.89849823215
 30
0.0
 40
7.5
100
AcDbArc
 50
180.0
 51
0.0
  0
ARC
  5
16634
330
167A9
100
AcDbEntity
  8
SUNPOU
100
AcDbCircle
 10
8116.306062185525
 20
1570.89849823215
 30
0.0
 40
7.5
100
AcDbArc
 50
0.0
 51
180.0
  0
ARC
  5
16635
330
167A9
100
AcDbEntity
  8
SUNPOU
100
AcDbCircle
 10
8532.306062185526
 20
1360.89849823215
 30
0.0
 40
7.5
100
AcDbArc
 50
180.0
 51
0.0
  0
ARC
  5
16636
330
167A9
100
AcDbEntity
  8
SUNPOU
100
AcDbCircle
 10
8532.306062185526
 20
1360.89849823215
 30
0.0
 40
7.5
100
AcDbArc
 50
0.0
 51
180.0
  0
ARC
  5
16637
330
167A9
100
AcDbEntity
  8
SUNPOU
100
AcDbCircle
 10
6468.306062185526
 20
1360.89849823215
 30
0.0
 40
7.5
100
AcDbArc
 50
0.0
 51
180.0
  0
ARC
  5
16638
330
167A9
100
AcDbEntity
  8
SUNPOU
100
AcDbCircle
 10
6468.306062185526
 20
1360.89849823215
 30
0.0
 40
7.5
100
AcDbArc
 50
180.0
 51
0.0
  0
ARC
  5
16639
330
167A9
100
AcDbEntity
  8
SUNPOU
100
AcDbCircle
 10
12819.12750789963
 20
5386.279066364537
 30
0.0
 40
7.5
100
AcDbArc
 50
180.0
 51
0.0
  0
ARC
  5
1663A
330
167A9
100
AcDbEntity
  8
SUNPOU
100
AcDbCircle
 10
12819.12750789963
 20
5386.279066364537
 30
0.0
 40
7.5
100
AcDbArc
 50
0.0
 51
180.0
  0
ARC
  5
1663B
330
167A9
100
AcDbEntity
  8
SUNPOU
100
AcDbCircle
 10
12419.12750789962
 20
5386.279066364537
 30
0.0
 40
7.5
100
AcDbArc
 50
0.0
 51
180.0
  0
ARC
  5
1663C
330
167A9
100
AcDbEntity
  8
SUNPOU
100
AcDbCircle
 10
12419.12750789962
 20
5386.279066364537
 30
0.0
 40
7.5
100
AcDbArc
 50
180.0
 51
0.0
  0
ARC
  5
1663D
330
167A9
100
AcDbEntity
  8
SUNPOU
100
AcDbCircle
 10
12419.12750789962
 20
5386.279066364537
 30
0.0
 40
7.5
100
AcDbArc
 50
180.0
 51
0.0
  0
ARC
  5
1663E
330
167A9
100
AcDbEntity
  8
SUNPOU
100
AcDbCircle
 10
12419.12750789962
 20
5386.279066364537
 30
0.0
 40
7.5
100
AcDbArc
 50
0.0
 51
180.0
  0
ARC
  5
1663F
330
167A9
100
AcDbEntity
  8
SUNPOU
100
AcDbCircle
 10
9619.127507899644
 20
5386.279066364537
 30
0.0
 40
7.5
100
AcDbArc
 50
0.0
 51
180.0
  0
ARC
  5
16640
330
167A9
100
AcDbEntity
  8
SUNPOU
100
AcDbCircle
 10
9619.127507899644
 20
5386.279066364537
 30
0.0
 40
7.5
100
AcDbArc
 50
180.0
 51
0.0
  0
ARC
  5
16641
330
167A9
100
AcDbEntity
  8
SUNPOU
100
AcDbCircle
 10
9619.127507899644
 20
5386.279066364537
 30
0.0
 40
7.5
100
AcDbArc
 50
180.0
 51
0.0
  0
ARC
  5
16642
330
167A9
100
AcDbEntity
  8
SUNPOU
100
AcDbCircle
 10
9619.127507899644
 20
5386.279066364537
 30
0.0
 40
7.5
100
AcDbArc
 50
0.0
 51
180.0
  0
ARC
  5
16643
330
167A9
100
AcDbEntity
  8
SUNPOU
100
AcDbCircle
 10
6819.127507899643
 20
5386.279066364537
 30
0.0
 40
7.5
100
AcDbArc
 50
0.0
 51
180.0
  0
ARC
  5
16644
330
167A9
100
AcDbEntity
  8
SUNPOU
100
AcDbCircle
 10
6819.127507899643
 20
5386.279066364537
 30
0.0
 40
7.5
100
AcDbArc
 50
180.0
 51
0.0
  0
ARC
  5
16645
330
167A9
100
AcDbEntity
  8
SUNPOU
100
AcDbCircle
 10
6819.127507899643
 20
5386.279066364537
 30
0.0
 40
7.5
100
AcDbArc
 50
180.0
 51
0.0
  0
ARC
  5
16646
330
167A9
100
AcDbEntity
  8
SUNPOU
100
AcDbCircle
 10
6819.127507899643
 20
5386.279066364537
 30
0.0
 40
7.5
100
AcDbArc
 50
0.0
 51
180.0
  0
ARC
  5
16647
330
167A9
100
AcDbEntity
  8
SUNPOU
100
AcDbCircle
 10
4019.127507899644
 20
5386.279066364537
 30
0.0
 40
7.5
100
AcDbArc
 50
0.0
 51
180.0
  0
ARC
  5
16648
330
167A9
100
AcDbEntity
  8
SUNPOU
100
AcDbCircle
 10
4019.127507899644
 20
5386.279066364537
 30
0.0
 40
7.5
100
AcDbArc
 50
180.0
 51
0.0
  0
ARC
  5
16649
330
167A9
100
AcDbEntity
  8
SUNPOU
100
AcDbCircle
 10
4019.127507899644
 20
5386.279066364537
 30
0.0
 40
7.5
100
AcDbArc
 50
180.0
 51
0.0
  0
ARC
  5
1664A
330
167A9
100
AcDbEntity
  8
SUNPOU
100
AcDbCircle
 10
4019.127507899644
 20
5386.279066364537
 30
0.0
 40
7.5
100
AcDbArc
 50
0.0
 51
180.0
  0
ARC
  5
1664B
330
167A9
100
AcDbEntity
  8
SUNPOU
100
AcDbCircle
 10
3619.127507899644
 20
5386.279066364537
 30
0.0
 40
7.5
100
AcDbArc
 50
0.0
 51
180.0
  0
ARC
  5
1664C
330
167A9
100
AcDbEntity
  8
SUNPOU
100
AcDbCircle
 10
3619.127507899644
 20
5386.279066364537
 30
0.0
 40
7.5
100
AcDbArc
 50
180.0
 51
0.0
  0
ARC
  5
16650
330
167A9
100
AcDbEntity
  8
HIKIDASHI
100
AcDbCircle
 10
5384.198933629273
 20
3641.644846848218
 30
0.0
 40
74.66417910452284
100
AcDbArc
 50
164.8596129850915
 51
237.5045002941574
  0
ARC
  5
16651
330
167A9
100
AcDbEntity
  8
HIKIDASHI
100
AcDbCircle
 10
5320.775139582967
 20
3658.805870332703
 30
0.0
 40
8.959701492542743
100
AcDbArc
 50
15.14038701504826
 51
164.8596129849796
  0
LINE
  5
16656
330
167A9
100
AcDbEntity
  8
HIKIDASHI
100
AcDbLine
 10
12292.36982327521
 20
8280.90530835078
 30
0.0
 11
12319.12750789962
 21
8226.279066364538
 31
0.0
  0
LINE
  5
16657
330
167A9
100
AcDbEntity
  8
HIKIDASHI
100
AcDbLine
 10
12319.12750789962
 20
8226.279066364538
 30
0.0
 11
12311.53280362882
 21
8286.630706499991
 31
0.0
  0
SOLID
  5
16658
330
167A9
100
AcDbEntity
  8
HIKIDASHI
100
AcDbTrace
 10
12292.36982327521
 20
8280.90530835078
 30
0.0
 11
12311.53280362882
 21
8286.630706499991
 31
0.0
 12
12319.12750789962
 22
8226.279066364538
 32
0.0
 13
12319.12750789962
 23
8226.279066364538
 33
0.0
  0
LINE
  5
16659
330
167A9
100
AcDbEntity
  8
HIKIDASHI
100
AcDbLine
 10
12311.53280362882
 20
8286.630706499991
 30
0.0
 11
12292.36982327521
 21
8280.90530835078
 31
0.0
  0
LINE
  5
1665A
330
167A9
100
AcDbEntity
  8
HIKIDASHI
100
AcDbLine
 10
12480.06461546906
 20
8272.906209049429
 30
0.0
 11
12519.12750789963
 21
8226.279066364538
 31
0.0
  0
LINE
  5
1665B
330
167A9
100
AcDbEntity
  8
HIKIDASHI
100
AcDbLine
 10
12519.12750789963
 20
8226.279066364538
 30
0.0
 11
12497.29843971446
 21
8283.054869152055
 31
0.0
  0
SOLID
  5
1665C
330
167A9
100
AcDbEntity
  8
HIKIDASHI
100
AcDbTrace
 10
12480.06461546906
 20
8272.906209049429
 30
0.0
 11
12497.29843971446
 21
8283.054869152055
 31
0.0
 12
12519.12750789963
 22
8226.279066364538
 32
0.0
 13
12519.12750789963
 23
8226.279066364538
 33
0.0
  0
LINE
  5
1665D
330
167A9
100
AcDbEntity
  8
HIKIDASHI
100
AcDbLine
 10
12497.29843971446
 20
8283.054869152055
 30
0.0
 11
12480.06461546906
 21
8272.906209049429
 31
0.0
  0
LINE
  5
1665E
330
167A9
100
AcDbEntity
  8
HIKIDASHI
100
AcDbLine
 10
12360.37386403543
 20
8039.223269126908
 30
0.0
 11
12390.80289742449
 21
8091.892747261857
 31
0.0
  0
LINE
  5
1665F
330
167A9
100
AcDbEntity
  8
HIKIDASHI
100
AcDbLine
 10
12390.80289742449
 20
8091.892747261857
 30
0.0
 11
12344.93668374242
 21
8051.939143638763
 31
0.0
  0
SOLID
  5
16660
330
167A9
100
AcDbEntity
  8
HIKIDASHI
100
AcDbTrace
 10
12360.37386403543
 20
8039.223269126908
 30
0.0
 11
12344.93668374242
 21
8051.939143638763
 31
0.0
 12
12390.80289742449
 22
8091.892747261857
 32
0.0
 13
12390.80289742449
 23
8091.892747261857
 33
0.0
  0
LINE
  5
16661
330
167A9
100
AcDbEntity
  8
HIKIDASHI
100
AcDbLine
 10
12344.93668374242
 20
8051.939143638763
 30
0.0
 11
12360.37386403543
 21
8039.223269126908
 31
0.0
  0
LINE
  5
16662
330
167A9
100
AcDbEntity
  8
HIKIDASHI
100
AcDbLine
 10
12332.33797785663
 20
7777.723076755122
 30
0.0
 11
12379.21754150687
 21
7816.482675720589
 31
0.0
  0
LINE
  5
16663
330
167A9
100
AcDbEntity
  8
HIKIDASHI
100
AcDbLine
 10
12379.21754150687
 20
7816.482675720589
 30
0.0
 11
12322.30132757865
 21
7795.022373018195
 31
0.0
  0
SOLID
  5
16664
330
167A9
100
AcDbEntity
  8
HIKIDASHI
100
AcDbTrace
 10
12332.33797785663
 20
7777.723076755122
 30
0.0
 11
12322.30132757865
 21
7795.022373018195
 31
0.0
 12
12379.21754150687
 22
7816.482675720589
 32
0.0
 13
12379.21754150687
 23
7816.482675720589
 33
0.0
  0
LINE
  5
16665
330
167A9
100
AcDbEntity
  8
HIKIDASHI
100
AcDbLine
 10
12322.30132757865
 20
7795.022373018195
 30
0.0
 11
12332.33797785663
 21
7777.723076755122
 31
0.0
  0
ARC
  5
16667
330
167A9
100
AcDbEntity
  8
HIKIDASHI
100
AcDbCircle
 10
11755.19383586433
 20
9046.065929449678
 30
0.0
 40
74.66417910452284
100
AcDbArc
 50
164.8596129850635
 51
237.5045002941574
  0
ARC
  5
16668
330
167A9
100
AcDbEntity
  8
HIKIDASHI
100
AcDbCircle
 10
11691.77004181803
 20
9063.226952934163
 30
0.0
 40
8.959701492542743
100
AcDbArc
 50
15.14038701504826
 51
164.8596129849517
  0
LINE
  5
16669
330
167A9
100
AcDbEntity
  8
HIKIDASHI
100
AcDbLine
 10
3729.755090521487
 20
3016.981760727375
 30
0.0
 11
3997.930010252171
 21
3511.260118325356
 31
0.0
1001
ACAD
1000
DSTYLE
1002
{
1070
   147
1040
1.125
1070
    77
1070
     0
1070
   144
1040
0.625
1002
}
  0
LINE
  5
1666A
330
167A9
100
AcDbEntity
  8
HIKIDASHI
100
AcDbLine
 10
3715.105699276657
 20
3024.929912332225
 30
0.0
 11
3682.066180892382
 21
2929.085413258397
 31
0.0
  0
LINE
  5
1666B
330
167A9
100
AcDbEntity
  8
HIKIDASHI
100
AcDbLine
 10
3682.066180892382
 20
2929.085413258397
 30
0.0
 11
3744.404481766316
 21
3009.033609122524
 31
0.0
  0
SOLID
  5
1666C
330
167A9
100
AcDbEntity
  8
HIKIDASHI
100
AcDbTrace
 10
3715.105699276657
 20
3024.929912332225
 30
0.0
 11
3744.404481766316
 21
3009.033609122524
 31
0.0
 12
3682.066180892382
 22
2929.085413258397
 32
0.0
 13
3682.066180892382
 23
2929.085413258397
 33
0.0
  0
LINE
  5
1666D
330
167A9
100
AcDbEntity
  8
HIKIDASHI
100
AcDbLine
 10
3744.404481766316
 20
3009.033609122524
 30
0.0
 11
3715.105699276657
 21
3024.929912332225
 31
0.0
  0
ARC
  5
1666E
330
167A9
100
AcDbEntity
  8
HIKIDASHI
100
AcDbCircle
 10
5258.530872072402
 20
3642.824974207808
 30
0.0
 40
74.66417910452252
100
AcDbArc
 50
301.7712278330703
 51
15.14038701490934
  0
LINE
  5
1666F
330
167A9
100
AcDbEntity
  8
HIKIDASHI
100
AcDbLine
 10
2729.500491295242
 20
2382.576996701931
 30
0.0
 11
2124.975130930299
 21
2177.621202421254
 31
0.0
1001
ACAD
1000
DSTYLE
1002
{
1070
   147
1040
1.125
1070
    77
1070
     0
1070
   144
1040
0.625
1002
}
  0
LINE
  5
16670
330
167A9
100
AcDbEntity
  8
HIKIDASHI
100
AcDbLine
 10
2734.851894054653
 20
2366.792818982316
 30
0.0
 11
2824.205557612924
 21
2414.685413258395
 31
0.0
  0
LINE
  5
16671
330
167A9
100
AcDbEntity
  8
HIKIDASHI
100
AcDbLine
 10
2824.205557612924
 20
2414.685413258395
 30
0.0
 11
2724.149088535832
 21
2398.361174421545
 31
0.0
  0
SOLID
  5
16672
330
167A9
100
AcDbEntity
  8
HIKIDASHI
100
AcDbTrace
 10
2734.851894054653
 20
2366.792818982316
 30
0.0
 11
2724.149088535832
 21
2398.361174421545
 31
0.0
 12
2824.205557612924
 22
2414.685413258395
 32
0.0
 13
2824.205557612924
 23
2414.685413258395
 33
0.0
  0
LINE
  5
16673
330
167A9
100
AcDbEntity
  8
HIKIDASHI
100
AcDbLine
 10
2724.149088535832
 20
2398.361174421545
 30
0.0
 11
2734.851894054653
 21
2366.792818982316
 31
0.0
  0
LINE
  5
16674
330
167A9
100
AcDbEntity
  8
HIKIDASHI
100
AcDbLine
 10
2630.72410894159
 20
2491.904106357348
 30
0.0
 11
2119.067099341151
 21
2582.51599324206
 31
0.0
1001
ACAD
1000
DSTYLE
1002
{
1070
   147
1040
1.125
1070
    77
1070
     0
1070
   144
1040
0.625
1002
}
  0
LINE
  5
16675
330
167A9
100
AcDbEntity
  8
HIKIDASHI
100
AcDbLine
 10
2627.817749665133
 20
2475.492803741957
 30
0.0
 11
2729.191924633934
 21
2474.465950698605
 31
0.0
  0
LINE
  5
16676
330
167A9
100
AcDbEntity
  8
HIKIDASHI
100
AcDbLine
 10
2729.191924633934
 20
2474.465950698605
 30
0.0
 11
2633.630468218048
 21
2508.31540897274
 31
0.0
  0
SOLID
  5
16677
330
167A9
100
AcDbEntity
  8
HIKIDASHI
100
AcDbTrace
 10
2627.817749665133
 20
2475.492803741957
 30
0.0
 11
2633.630468218048
 21
2508.31540897274
 31
0.0
 12
2729.191924633934
 22
2474.465950698605
 32
0.0
 13
2729.191924633934
 23
2474.465950698605
 33
0.0
  0
LINE
  5
16678
330
167A9
100
AcDbEntity
  8
HIKIDASHI
100
AcDbLine
 10
2633.630468218048
 20
2508.31540897274
 30
0.0
 11
2627.817749665133
 21
2475.492803741957
 31
0.0
  0
ARC
  5
16679
330
167A9
100
AcDbEntity
  8
HIKIDASHI
100
AcDbCircle
 10
11629.52577430745
 20
9047.246056809269
 30
0.0
 40
74.6641791045229
100
AcDbArc
 50
301.7712278330701
 51
15.14038701490968
  0
LINE
  5
1667A
330
167A9
100
AcDbEntity
  8
HATCH
100
AcDbLine
 10
2168.429052763183
 20
1869.885413258403
 30
0.0
 11
2260.805095833532
 21
2029.885413258417
 31
0.0
  0
LINE
  5
1667B
330
167A9
100
AcDbEntity
  8
HATCH
100
AcDbLine
 10
2196.805095833527
 20
2029.885413258416
 30
0.0
 11
2228.805095833529
 21
1974.459787416211
 31
0.0
  0
LINE
  5
1667C
330
167A9
100
AcDbEntity
  8
HATCH
100
AcDbLine
 10
2200.429052763186
 20
1925.311039100614
 30
0.0
 11
2232.429052763189
 21
1869.885413258403
 31
0.0
  0
LINE
  5
1667D
330
167A9
100
AcDbEntity
  8
HATCH
100
AcDbLine
 10
4600.429052763
 20
2877.885413258394
 30
0.0
 11
4655.85467860514
 21
2973.885413258284
 31
0.0
  0
LINE
  5
1667E
330
167A9
100
AcDbEntity
  8
HATCH
100
AcDbLine
 10
4617.454678605183
 20
2973.885413258283
 30
0.0
 11
4636.654678605163
 21
2940.630037753001
 31
0.0
  0
LINE
  5
1667F
330
167A9
100
AcDbEntity
  8
HATCH
100
AcDbLine
 10
4619.629052762979
 20
2911.140788763679
 30
0.0
 11
4638.829052762956
 21
2877.885413258394
 31
0.0
  0
LINE
  5
16680
330
167A9
100
AcDbEntity
  8
HATCH
100
AcDbLine
 10
4456.429052763
 20
2877.885413258394
 30
0.0
 11
4511.854678605141
 21
2973.885413258284
 31
0.0
  0
LINE
  5
16681
330
167A9
100
AcDbEntity
  8
HATCH
100
AcDbLine
 10
4473.454678605185
 20
2973.885413258283
 30
0.0
 11
4492.654678605163
 21
2940.630037753001
 31
0.0
  0
LINE
  5
16682
330
167A9
100
AcDbEntity
  8
HATCH
100
AcDbLine
 10
4475.629052762979
 20
2911.140788763679
 30
0.0
 11
4494.829052762955
 21
2877.885413258394
 31
0.0
  0
LINE
  5
16683
330
167A9
100
AcDbEntity
  8
HATCH
100
AcDbLine
 10
4312.429052763
 20
2877.885413258394
 30
0.0
 11
4367.854678605141
 21
2973.885413258284
 31
0.0
  0
LINE
  5
16684
330
167A9
100
AcDbEntity
  8
HATCH
100
AcDbLine
 10
4329.454678605185
 20
2973.885413258283
 30
0.0
 11
4348.654678605163
 21
2940.630037753001
 31
0.0
  0
LINE
  5
16685
330
167A9
100
AcDbEntity
  8
HATCH
100
AcDbLine
 10
4331.629052762979
 20
2911.140788763679
 30
0.0
 11
4350.829052762956
 21
2877.885413258394
 31
0.0
  0
LINE
  5
16686
330
167A9
100
AcDbEntity
  8
HATCH
100
AcDbLine
 10
3848.429052763187
 20
1869.885413258397
 30
0.0
 11
3940.805095833534
 21
2029.88541325841
 31
0.0
  0
LINE
  5
16687
330
167A9
100
AcDbEntity
  8
HATCH
100
AcDbLine
 10
3876.805095833528
 20
2029.885413258408
 30
0.0
 11
3908.805095833532
 21
1974.459787416203
 31
0.0
  0
LINE
  5
16688
330
167A9
100
AcDbEntity
  8
HATCH
100
AcDbLine
 10
3880.429052763189
 20
1925.311039100607
 30
0.0
 11
3912.429052763192
 21
1869.885413258397
 31
0.0
  0
LINE
  5
16689
330
167A9
100
AcDbEntity
  8
HATCH
100
AcDbLine
 10
3608.429052763178
 20
1869.885413258397
 30
0.0
 11
3700.805095833526
 21
2029.88541325841
 31
0.0
  0
LINE
  5
1668A
330
167A9
100
AcDbEntity
  8
HATCH
100
AcDbLine
 10
3636.805095833521
 20
2029.885413258408
 30
0.0
 11
3668.805095833524
 21
1974.459787416203
 31
0.0
  0
LINE
  5
1668B
330
167A9
100
AcDbEntity
  8
HATCH
100
AcDbLine
 10
3640.429052763181
 20
1925.311039100607
 30
0.0
 11
3672.429052763185
 21
1869.885413258397
 31
0.0
  0
LINE
  5
1668C
330
167A9
100
AcDbEntity
  8
HATCH
100
AcDbLine
 10
4088.429052763186
 20
1869.885413258397
 30
0.0
 11
4180.805095833534
 21
2029.88541325841
 31
0.0
  0
LINE
  5
1668D
330
167A9
100
AcDbEntity
  8
HATCH
100
AcDbLine
 10
4116.805095833529
 20
2029.885413258408
 30
0.0
 11
4148.80509583353
 21
1974.459787416203
 31
0.0
  0
LINE
  5
1668E
330
167A9
100
AcDbEntity
  8
HATCH
100
AcDbLine
 10
4120.429052763189
 20
1925.311039100607
 30
0.0
 11
4152.429052763191
 21
1869.885413258397
 31
0.0
  0
LINE
  5
1668F
330
167A9
100
AcDbEntity
  8
HATCH
100
AcDbLine
 10
2009.191924633769
 20
2877.885413258394
 30
0.0
 11
2064.617550475909
 21
2973.885413258284
 31
0.0
  0
LINE
  5
16690
330
167A9
100
AcDbEntity
  8
HATCH
100
AcDbLine
 10
2026.217550475954
 20
2973.885413258283
 30
0.0
 11
2045.417550475933
 21
2940.630037753001
 31
0.0
  0
LINE
  5
16691
330
167A9
100
AcDbEntity
  8
HATCH
100
AcDbLine
 10
2028.391924633747
 20
2911.140788763679
 30
0.0
 11
2047.591924633726
 21
2877.885413258394
 31
0.0
  0
LINE
  5
16692
330
167A9
100
AcDbEntity
  8
HATCH
100
AcDbLine
 10
2153.191924633769
 20
2877.885413258394
 30
0.0
 11
2208.61755047591
 21
2973.885413258284
 31
0.0
  0
LINE
  5
16693
330
167A9
100
AcDbEntity
  8
HATCH
100
AcDbLine
 10
2170.217550475955
 20
2973.885413258283
 30
0.0
 11
2189.417550475933
 21
2940.630037753001
 31
0.0
  0
LINE
  5
16694
330
167A9
100
AcDbEntity
  8
HATCH
100
AcDbLine
 10
2172.391924633747
 20
2911.140788763679
 30
0.0
 11
2191.591924633725
 21
2877.885413258394
 31
0.0
  0
LINE
  5
16695
330
167A9
100
AcDbEntity
  8
HATCH
100
AcDbLine
 10
1865.191924633768
 20
2877.885413258394
 30
0.0
 11
1920.61755047591
 21
2973.885413258284
 31
0.0
  0
LINE
  5
16696
330
167A9
100
AcDbEntity
  8
HATCH
100
AcDbLine
 10
1882.217550475953
 20
2973.885413258283
 30
0.0
 11
1901.417550475932
 21
2940.630037753001
 31
0.0
  0
LINE
  5
16697
330
167A9
100
AcDbEntity
  8
HATCH
100
AcDbLine
 10
1884.391924633748
 20
2911.140788763679
 30
0.0
 11
1903.591924633726
 21
2877.885413258394
 31
0.0
  0
LINE
  5
16698
330
167A9
100
AcDbEntity
  8
HATCH
100
AcDbLine
 10
1721.191924633768
 20
2877.885413258394
 30
0.0
 11
1776.61755047591
 21
2973.885413258284
 31
0.0
  0
LINE
  5
16699
330
167A9
100
AcDbEntity
  8
HATCH
100
AcDbLine
 10
1738.217550475954
 20
2973.885413258283
 30
0.0
 11
1757.417550475932
 21
2940.630037753001
 31
0.0
  0
LINE
  5
1669A
330
167A9
100
AcDbEntity
  8
HATCH
100
AcDbLine
 10
1740.391924633748
 20
2911.140788763679
 30
0.0
 11
1759.591924633725
 21
2877.885413258394
 31
0.0
  0
LINE
  5
1669B
330
167A9
100
AcDbEntity
  8
HATCH
100
AcDbLine
 10
3128.429052763179
 20
1869.885413258395
 30
0.0
 11
3220.805095833527
 21
2029.885413258408
 31
0.0
  0
LINE
  5
1669C
330
167A9
100
AcDbEntity
  8
HATCH
100
AcDbLine
 10
3156.805095833521
 20
2029.885413258408
 30
0.0
 11
3188.805095833525
 21
1974.459787416202
 31
0.0
  0
LINE
  5
1669D
330
167A9
100
AcDbEntity
  8
HATCH
100
AcDbLine
 10
3160.429052763181
 20
1925.311039100606
 30
0.0
 11
3192.429052763184
 21
1869.885413258395
 31
0.0
  0
LINE
  5
1669E
330
167A9
100
AcDbEntity
  8
HATCH
100
AcDbLine
 10
2888.429052763179
 20
1869.885413258395
 30
0.0
 11
2980.805095833527
 21
2029.885413258408
 31
0.0
  0
LINE
  5
1669F
330
167A9
100
AcDbEntity
  8
HATCH
100
AcDbLine
 10
2916.805095833521
 20
2029.885413258408
 30
0.0
 11
2948.805095833524
 21
1974.459787416202
 31
0.0
  0
LINE
  5
166A0
330
167A9
100
AcDbEntity
  8
HATCH
100
AcDbLine
 10
2920.429052763182
 20
1925.311039100606
 30
0.0
 11
2952.429052763184
 21
1869.885413258395
 31
0.0
  0
LINE
  5
166A1
330
167A9
100
AcDbEntity
  8
HATCH
100
AcDbLine
 10
3368.429052763179
 20
1869.885413258397
 30
0.0
 11
3460.805095833527
 21
2029.88541325841
 31
0.0
  0
LINE
  5
166A2
330
167A9
100
AcDbEntity
  8
HATCH
100
AcDbLine
 10
3396.805095833522
 20
2029.885413258408
 30
0.0
 11
3428.805095833524
 21
1974.459787416203
 31
0.0
  0
LINE
  5
166A3
330
167A9
100
AcDbEntity
  8
HATCH
100
AcDbLine
 10
3400.429052763182
 20
1925.311039100607
 30
0.0
 11
3432.429052763184
 21
1869.885413258397
 31
0.0
  0
LINE
  5
166A4
330
167A9
100
AcDbEntity
  8
HATCH
100
AcDbLine
 10
2648.429052763179
 20
1869.885413258395
 30
0.0
 11
2740.805095833527
 21
2029.885413258408
 31
0.0
  0
LINE
  5
166A5
330
167A9
100
AcDbEntity
  8
HATCH
100
AcDbLine
 10
2676.805095833522
 20
2029.885413258408
 30
0.0
 11
2708.805095833525
 21
1974.459787416202
 31
0.0
  0
LINE
  5
166A6
330
167A9
100
AcDbEntity
  8
HATCH
100
AcDbLine
 10
2680.429052763182
 20
1925.311039100606
 30
0.0
 11
2712.429052763184
 21
1869.885413258395
 31
0.0
  0
LINE
  5
166A7
330
167A9
100
AcDbEntity
  8
HATCH
100
AcDbLine
 10
2408.429052763179
 20
1869.885413258395
 30
0.0
 11
2500.805095833527
 21
2029.885413258408
 31
0.0
  0
LINE
  5
166A8
330
167A9
100
AcDbEntity
  8
HATCH
100
AcDbLine
 10
2436.805095833522
 20
2029.885413258408
 30
0.0
 11
2468.805095833523
 21
1974.459787416202
 31
0.0
  0
LINE
  5
166A9
330
167A9
100
AcDbEntity
  8
HATCH
100
AcDbLine
 10
2440.429052763182
 20
1925.311039100606
 30
0.0
 11
2472.429052763184
 21
1869.885413258395
 31
0.0
  0
LINE
  5
166AA
330
167A9
100
AcDbEntity
  8
HATCH
100
AcDbLine
 10
6746.477527976242
 20
2491.333194071255
 30
0.0
 11
7386.477527976298
 21
3131.333194071311
 31
0.0
  0
LINE
  5
166AB
330
167A9
100
AcDbEntity
  8
HATCH
100
AcDbLine
 10
6468.306062187011
 20
2778.847153231295
 30
0.0
 11
6820.792103027004
 21
3131.333194071311
 31
0.0
  0
LINE
  5
166AC
330
167A9
100
AcDbEntity
  8
HATCH
100
AcDbLine
 10
7312.162952925525
 20
2491.333194071255
 30
0.0
 11
7952.16295292558
 21
3131.333194071311
 31
0.0
  0
LINE
  5
166AD
330
167A9
100
AcDbEntity
  8
HATCH
100
AcDbLine
 10
7877.848377874808
 20
2491.333194071255
 30
0.0
 11
8517.848377874878
 21
3131.333194071311
 31
0.0
  0
LINE
  5
166AE
330
167A9
100
AcDbEntity
  8
HATCH
100
AcDbLine
 10
8443.533802824106
 20
2491.333194071255
 30
0.0
 11
8532.306062187188
 21
2580.105453434327
 31
0.0
  0
LINE
  5
166AF
330
167A9
100
AcDbEntity
  8
HATCH
100
AcDbLine
 10
6675.766849857588
 20
2491.333194071255
 30
0.0
 11
7315.766849857642
 21
3131.333194071311
 31
0.0
  0
LINE
  5
166B0
330
167A9
100
AcDbEntity
  8
HATCH
100
AcDbLine
 10
6468.306062187011
 20
2849.557831349957
 30
0.0
 11
6750.08142490836
 21
3131.333194071311
 31
0.0
  0
LINE
  5
166B1
330
167A9
100
AcDbEntity
  8
HATCH
100
AcDbLine
 10
7241.452274806864
 20
2491.333194071255
 30
0.0
 11
7881.452274806918
 21
3131.333194071311
 31
0.0
  0
LINE
  5
166B2
330
167A9
100
AcDbEntity
  8
HATCH
100
AcDbLine
 10
7807.13769975616
 20
2491.333194071255
 30
0.0
 11
8447.137699756215
 21
3131.333194071311
 31
0.0
  0
LINE
  5
166B3
330
167A9
100
AcDbEntity
  8
HATCH
100
AcDbLine
 10
8372.82312470544
 20
2491.333194071255
 30
0.0
 11
8532.306062187188
 21
2650.816131552989
 31
0.0
  0
LINE
  5
166B4
330
167A9
100
AcDbEntity
  8
HATCH
100
AcDbLine
 10
7170.741596688205
 20
2491.333194071255
 30
0.0
 11
7810.741596688258
 21
3131.333194071311
 31
0.0
  0
LINE
  5
166B5
330
167A9
100
AcDbEntity
  8
HATCH
100
AcDbLine
 10
6605.056171738922
 20
2491.333194071255
 30
0.0
 11
7245.056171738976
 21
3131.333194071311
 31
0.0
  0
LINE
  5
166B6
330
167A9
100
AcDbEntity
  8
HATCH
100
AcDbLine
 10
6468.306062187011
 20
2920.268509468618
 30
0.0
 11
6679.370746789698
 21
3131.333194071311
 31
0.0
  0
LINE
  5
166B7
330
167A9
100
AcDbEntity
  8
HATCH
100
AcDbLine
 10
7736.427021637497
 20
2491.333194071255
 30
0.0
 11
8376.427021637551
 21
3131.333194071311
 31
0.0
  0
LINE
  5
166B8
330
167A9
100
AcDbEntity
  8
HATCH
100
AcDbLine
 10
8302.112446586781
 20
2491.333194071255
 30
0.0
 11
8532.306062187188
 21
2721.52680967165
 31
0.0
  0
LINE
  5
166B9
330
167A9
100
AcDbEntity
  8
HASIRA
100
AcDbLine
 10
3582.946180892386
 20
2897.085413258397
 30
0.0
 11
3582.946180892386
 21
3406.742322023879
 31
0.0
  0
LINE
  5
166BA
330
167A9
100
AcDbEntity
  8
TENSEN-1
100
AcDbLine
 10
3730.066180892381
 20
2277.885413258398
 30
0.0
 11
3682.066180892382
 21
2277.885413258395
 31
0.0
  0
LINE
  5
166BB
330
167A9
100
AcDbEntity
  8
TENSEN-1
100
AcDbLine
 10
3682.066180892382
 20
2277.885413258395
 30
0.0
 11
3682.066180892382
 21
2929.085413258397
 31
0.0
  0
LINE
  5
166BC
330
167A9
100
AcDbEntity
  8
TENSEN-1
100
AcDbLine
 10
3682.066180892382
 20
2929.085413258397
 30
0.0
 11
3661.266180892382
 21
2929.085413258397
 31
0.0
  0
LINE
  5
166BD
330
167A9
100
AcDbEntity
  8
TENSEN-1
100
AcDbLine
 10
3661.266180892382
 20
2929.085413258397
 30
0.0
 11
3661.266180892382
 21
2257.085413258395
 31
0.0
  0
LINE
  5
166BE
330
167A9
100
AcDbEntity
  8
TENSEN-1
100
AcDbLine
 10
3661.266180892382
 20
2257.085413258395
 30
0.0
 11
3730.066180892381
 21
2257.085413258398
 31
0.0
  0
LINE
  5
166BF
330
167A9
100
AcDbEntity
  8
TENSEN-1
100
AcDbLine
 10
3730.066180892381
 20
2257.085413258398
 30
0.0
 11
3730.066180892381
 21
2277.885413258398
 31
0.0
  0
LINE
  5
166C0
330
167A9
100
AcDbEntity
  8
KISO
100
AcDbLine
 10
2825.191924633934
 20
2877.885413258399
 30
0.0
 11
3273.191924633936
 21
2877.885413258399
 31
0.0
  0
LINE
  5
166C1
330
167A9
100
AcDbEntity
  8
KISO
100
AcDbLine
 10
3273.191924633936
 20
2877.885413258399
 30
0.0
 11
3273.191924633936
 21
2897.085413258397
 31
0.0
  0
LINE
  5
166C2
330
167A9
100
AcDbEntity
  8
KISO
100
AcDbLine
 10
3273.191924633936
 20
2897.085413258397
 30
0.0
 11
2825.191924633934
 21
2897.085413258397
 31
0.0
  0
LINE
  5
166C3
330
167A9
100
AcDbEntity
  8
KISO
100
AcDbLine
 10
2825.191924633934
 20
2897.085413258397
 30
0.0
 11
2825.191924633934
 21
2877.885413258399
 31
0.0
  0
LINE
  5
166C4
330
167A9
100
AcDbEntity
  8
HASIRA
100
AcDbLine
 10
2977.911924633931
 20
2897.085413258397
 30
0.0
 11
2977.911924633931
 21
3406.742322023879
 31
0.0
  0
LINE
  5
166C5
330
167A9
100
AcDbEntity
  8
HASIRA
100
AcDbLine
 10
3120.471924633941
 20
2897.085413258397
 30
0.0
 11
3120.471924633941
 21
3406.742322023879
 31
0.0
  0
LINE
  5
166C6
330
167A9
100
AcDbEntity
  8
TENSEN-1
100
AcDbLine
 10
2830.791924633935
 20
2277.885413258398
 30
0.0
 11
2878.791924633935
 21
2277.885413258395
 31
0.0
  0
LINE
  5
166C7
330
167A9
100
AcDbEntity
  8
TENSEN-1
100
AcDbLine
 10
2878.791924633935
 20
2277.885413258395
 30
0.0
 11
2878.791924633935
 21
2929.085413258397
 31
0.0
  0
LINE
  5
166C8
330
167A9
100
AcDbEntity
  8
TENSEN-1
100
AcDbLine
 10
2878.791924633935
 20
2929.085413258397
 30
0.0
 11
2899.591924633936
 21
2929.085413258397
 31
0.0
  0
LINE
  5
166C9
330
167A9
100
AcDbEntity
  8
TENSEN-1
100
AcDbLine
 10
2899.591924633936
 20
2929.085413258397
 30
0.0
 11
2899.591924633936
 21
2257.085413258395
 31
0.0
  0
LINE
  5
166CA
330
167A9
100
AcDbEntity
  8
TENSEN-1
100
AcDbLine
 10
2899.591924633936
 20
2257.085413258395
 30
0.0
 11
2830.791924633935
 21
2257.085413258398
 31
0.0
  0
LINE
  5
166CB
330
167A9
100
AcDbEntity
  8
TENSEN-1
100
AcDbLine
 10
2830.791924633935
 20
2257.085413258398
 30
0.0
 11
2830.791924633935
 21
2277.885413258398
 31
0.0
  0
LINE
  5
166CC
330
167A9
100
AcDbEntity
  8
TENSEN-1
100
AcDbLine
 10
3267.591924633942
 20
2277.885413258398
 30
0.0
 11
3219.591924633942
 21
2277.885413258398
 31
0.0
  0
LINE
  5
166CD
330
167A9
100
AcDbEntity
  8
TENSEN-1
100
AcDbLine
 10
3219.591924633942
 20
2277.885413258398
 30
0.0
 11
3219.591924633942
 21
2929.085413258397
 31
0.0
  0
LINE
  5
166CE
330
167A9
100
AcDbEntity
  8
TENSEN-1
100
AcDbLine
 10
3219.591924633942
 20
2929.085413258397
 30
0.0
 11
3198.791924633936
 21
2929.085413258397
 31
0.0
  0
LINE
  5
166CF
330
167A9
100
AcDbEntity
  8
TENSEN-1
100
AcDbLine
 10
3198.791924633936
 20
2929.085413258397
 30
0.0
 11
3198.791924633936
 21
2257.085413258395
 31
0.0
  0
LINE
  5
166D0
330
167A9
100
AcDbEntity
  8
TENSEN-1
100
AcDbLine
 10
3198.791924633936
 20
2257.085413258395
 30
0.0
 11
3267.591924633936
 21
2257.085413258398
 31
0.0
  0
LINE
  5
166D1
330
167A9
100
AcDbEntity
  8
TENSEN-1
100
AcDbLine
 10
3267.591924633936
 20
2257.085413258398
 30
0.0
 11
3267.591924633942
 21
2277.885413258398
 31
0.0
  0
LINE
  5
166D2
330
167A9
100
AcDbEntity
  8
TENSEN-1
100
AcDbLine
 10
3293.266180892382
 20
2277.885413258398
 30
0.0
 11
3341.266180892382
 21
2277.885413258398
 31
0.0
  0
LINE
  5
166D3
330
167A9
100
AcDbEntity
  8
TENSEN-1
100
AcDbLine
 10
3341.266180892382
 20
2277.885413258398
 30
0.0
 11
3341.266180892382
 21
2929.085413258397
 31
0.0
  0
LINE
  5
166D4
330
167A9
100
AcDbEntity
  8
TENSEN-1
100
AcDbLine
 10
3341.266180892382
 20
2929.085413258397
 30
0.0
 11
3362.066180892381
 21
2929.085413258397
 31
0.0
  0
LINE
  5
166D5
330
167A9
100
AcDbEntity
  8
TENSEN-1
100
AcDbLine
 10
3362.066180892381
 20
2929.085413258397
 30
0.0
 11
3362.066180892381
 21
2257.085413258395
 31
0.0
  0
LINE
  5
166D6
330
167A9
100
AcDbEntity
  8
TENSEN-1
100
AcDbLine
 10
3362.066180892381
 20
2257.085413258395
 30
0.0
 11
3293.266180892382
 21
2257.085413258398
 31
0.0
  0
LINE
  5
166D7
330
167A9
100
AcDbEntity
  8
TENSEN-1
100
AcDbLine
 10
3293.266180892382
 20
2257.085413258398
 30
0.0
 11
3293.266180892382
 21
2277.885413258398
 31
0.0
  0
LINE
  5
166D8
330
167A9
100
AcDbEntity
  8
1PL-M1
100
AcDbLine
 10
3511.666180892382
 20
1525.898498232149
 30
0.0
 11
3511.666180892382
 21
3406.742322023879
 31
0.0
  0
LINE
  5
166D9
330
167A9
100
AcDbEntity
  8
1PL-M1
100
AcDbLine
 10
3049.191924633944
 20
1525.898498232149
 30
0.0
 11
3049.191924633935
 21
3406.742322023879
 31
0.0
  0
LINE
  5
166DA
330
167A9
100
AcDbEntity
  8
KISO
100
AcDbLine
 10
3735.666180892382
 20
2877.885413258399
 30
0.0
 11
3287.666180892382
 21
2877.885413258399
 31
0.0
  0
LINE
  5
166DB
330
167A9
100
AcDbEntity
  8
KISO
100
AcDbLine
 10
3287.666180892382
 20
2877.885413258399
 30
0.0
 11
3287.666180892382
 21
2897.085413258397
 31
0.0
  0
LINE
  5
166DC
330
167A9
100
AcDbEntity
  8
KISO
100
AcDbLine
 10
3287.666180892382
 20
2897.085413258397
 30
0.0
 11
3735.666180892382
 21
2897.085413258397
 31
0.0
  0
LINE
  5
166DD
330
167A9
100
AcDbEntity
  8
KISO
100
AcDbLine
 10
3735.666180892382
 20
2897.085413258397
 30
0.0
 11
3735.666180892382
 21
2877.885413258399
 31
0.0
  0
LINE
  5
166DE
330
167A9
100
AcDbEntity
  8
KISO
100
AcDbLine
 10
6468.306062185526
 20
1851.333194070899
 30
0.0
 11
8532.306062185526
 21
1851.333194070899
 31
0.0
  0
LINE
  5
166DF
330
167A9
100
AcDbEntity
  8
KISO
100
AcDbLine
 10
8532.306062185526
 20
1851.333194070899
 30
0.0
 11
8532.306062185526
 21
3131.333194070899
 31
0.0
  0
LINE
  5
166E0
330
167A9
100
AcDbEntity
  8
KISO
100
AcDbLine
 10
8532.306062185526
 20
3131.333194070899
 30
0.0
 11
6468.306062185526
 21
3131.333194070899
 31
0.0
  0
LINE
  5
166E1
330
167A9
100
AcDbEntity
  8
KISO
100
AcDbLine
 10
6468.306062185526
 20
3131.333194070899
 30
0.0
 11
6468.306062185526
 21
1851.333194070899
 31
0.0
  0
LINE
  5
166E2
330
167A9
100
AcDbEntity
  8
KISO-2
100
AcDbLine
 10
12279.12750789962
 20
7986.279066364534
 30
0.0
 11
12559.12750789963
 21
7986.279066364534
 31
0.0
  0
LINE
  5
166E3
330
167A9
100
AcDbEntity
  8
KISO-2
100
AcDbLine
 10
12559.12750789963
 20
7986.279066364534
 30
0.0
 11
12559.12750789963
 21
8266.279066364537
 31
0.0
  0
LINE
  5
166E4
330
167A9
100
AcDbEntity
  8
KISO-2
100
AcDbLine
 10
12559.12750789963
 20
8266.279066364537
 30
0.0
 11
12279.12750789962
 21
8266.279066364537
 31
0.0
  0
LINE
  5
166E5
330
167A9
100
AcDbEntity
  8
KISO-2
100
AcDbLine
 10
12279.12750789962
 20
8266.279066364537
 30
0.0
 11
12279.12750789962
 21
7986.279066364534
 31
0.0
  0
LINE
  5
166E6
330
167A9
100
AcDbEntity
  8
KISO-2
100
AcDbLine
 10
12279.12750789962
 20
7696.279066364535
 30
0.0
 11
12559.12750789963
 21
7696.279066364535
 31
0.0
  0
LINE
  5
166E7
330
167A9
100
AcDbEntity
  8
KISO-2
100
AcDbLine
 10
12559.12750789963
 20
7696.279066364535
 30
0.0
 11
12559.12750789963
 21
7976.279066364536
 31
0.0
  0
LINE
  5
166E8
330
167A9
100
AcDbEntity
  8
KISO-2
100
AcDbLine
 10
12559.12750789963
 20
7976.279066364536
 30
0.0
 11
12279.12750789962
 21
7976.279066364536
 31
0.0
  0
LINE
  5
166E9
330
167A9
100
AcDbEntity
  8
KISO-2
100
AcDbLine
 10
12279.12750789962
 20
7976.279066364536
 30
0.0
 11
12279.12750789962
 21
7696.279066364535
 31
0.0
  0
LINE
  5
166EA
330
167A9
100
AcDbEntity
  8
KISO-2
100
AcDbLine
 10
9479.127507899645
 20
7986.279066364534
 30
0.0
 11
9759.127507899645
 21
7986.279066364534
 31
0.0
  0
LINE
  5
166EB
330
167A9
100
AcDbEntity
  8
KISO-2
100
AcDbLine
 10
9759.127507899645
 20
7986.279066364534
 30
0.0
 11
9759.127507899645
 21
8266.279066364537
 31
0.0
  0
LINE
  5
166EC
330
167A9
100
AcDbEntity
  8
KISO-2
100
AcDbLine
 10
9759.127507899645
 20
8266.279066364537
 30
0.0
 11
9479.127507899645
 21
8266.279066364537
 31
0.0
  0
LINE
  5
166ED
330
167A9
100
AcDbEntity
  8
KISO-2
100
AcDbLine
 10
9479.127507899645
 20
8266.279066364537
 30
0.0
 11
9479.127507899645
 21
7986.279066364534
 31
0.0
  0
LINE
  5
166EE
330
167A9
100
AcDbEntity
  8
KISO-2
100
AcDbLine
 10
9479.127507899645
 20
7696.279066364535
 30
0.0
 11
9759.127507899645
 21
7696.279066364535
 31
0.0
  0
LINE
  5
166EF
330
167A9
100
AcDbEntity
  8
KISO-2
100
AcDbLine
 10
9759.127507899645
 20
7696.279066364535
 30
0.0
 11
9759.127507899645
 21
7976.279066364536
 31
0.0
  0
LINE
  5
166F0
330
167A9
100
AcDbEntity
  8
KISO-2
100
AcDbLine
 10
9759.127507899645
 20
7976.279066364536
 30
0.0
 11
9479.127507899645
 21
7976.279066364536
 31
0.0
  0
LINE
  5
166F1
330
167A9
100
AcDbEntity
  8
KISO-2
100
AcDbLine
 10
9479.127507899645
 20
7976.279066364536
 30
0.0
 11
9479.127507899645
 21
7696.279066364535
 31
0.0
  0
LINE
  5
166F2
330
167A9
100
AcDbEntity
  8
KISO-3
100
AcDbLine
 10
9859.127507899644
 20
8366.279066364535
 30
0.0
 11
9859.127507899644
 21
7596.279066364536
 31
0.0
  0
LINE
  5
166F3
330
167A9
100
AcDbEntity
  8
KISO-3
100
AcDbLine
 10
9859.127507899644
 20
7596.279066364536
 30
0.0
 11
9379.127507899644
 21
7596.279066364536
 31
0.0
  0
LINE
  5
166F4
330
167A9
100
AcDbEntity
  8
KISO-3
100
AcDbLine
 10
9379.127507899644
 20
7596.279066364536
 30
0.0
 11
9379.127507899644
 21
8366.279066364535
 31
0.0
  0
LINE
  5
166F5
330
167A9
100
AcDbEntity
  8
KISO-3
100
AcDbLine
 10
12659.12750789963
 20
8366.279066364535
 30
0.0
 11
12659.12750789963
 21
7596.279066364536
 31
0.0
  0
LINE
  5
166F6
330
167A9
100
AcDbEntity
  8
KISO-3
100
AcDbLine
 10
12659.12750789963
 20
7596.279066364536
 30
0.0
 11
12179.12750789962
 21
7596.279066364536
 31
0.0
  0
LINE
  5
166F7
330
167A9
100
AcDbEntity
  8
KISO-3
100
AcDbLine
 10
12179.12750789962
 20
7596.279066364536
 30
0.0
 11
12179.12750789962
 21
8366.279066364535
 31
0.0
  0
LINE
  5
166F8
330
167A9
100
AcDbEntity
  8
KISO-2
100
AcDbLine
 10
6679.127507899645
 20
7986.279066364534
 30
0.0
 11
6959.127507899643
 21
7986.279066364534
 31
0.0
  0
LINE
  5
166F9
330
167A9
100
AcDbEntity
  8
KISO-2
100
AcDbLine
 10
6959.127507899643
 20
7986.279066364534
 30
0.0
 11
6959.127507899643
 21
8266.279066364537
 31
0.0
  0
LINE
  5
166FA
330
167A9
100
AcDbEntity
  8
KISO-2
100
AcDbLine
 10
6959.127507899643
 20
8266.279066364537
 30
0.0
 11
6679.127507899645
 21
8266.279066364537
 31
0.0
  0
LINE
  5
166FB
330
167A9
100
AcDbEntity
  8
KISO-2
100
AcDbLine
 10
6679.127507899645
 20
8266.279066364537
 30
0.0
 11
6679.127507899645
 21
7986.279066364534
 31
0.0
  0
LINE
  5
166FC
330
167A9
100
AcDbEntity
  8
KISO-2
100
AcDbLine
 10
6679.127507899645
 20
7696.279066364535
 30
0.0
 11
6959.127507899643
 21
7696.279066364535
 31
0.0
  0
LINE
  5
166FD
330
167A9
100
AcDbEntity
  8
KISO-2
100
AcDbLine
 10
6959.127507899643
 20
7696.279066364535
 30
0.0
 11
6959.127507899643
 21
7976.279066364536
 31
0.0
  0
LINE
  5
166FE
330
167A9
100
AcDbEntity
  8
KISO-2
100
AcDbLine
 10
6959.127507899643
 20
7976.279066364536
 30
0.0
 11
6679.127507899645
 21
7976.279066364536
 31
0.0
  0
LINE
  5
166FF
330
167A9
100
AcDbEntity
  8
KISO-2
100
AcDbLine
 10
6679.127507899645
 20
7976.279066364536
 30
0.0
 11
6679.127507899645
 21
7696.279066364535
 31
0.0
  0
LINE
  5
16700
330
167A9
100
AcDbEntity
  8
KISO-3
100
AcDbLine
 10
7059.127507899645
 20
8366.279066364535
 30
0.0
 11
7059.127507899645
 21
7596.279066364536
 31
0.0
  0
LINE
  5
16701
330
167A9
100
AcDbEntity
  8
KISO-3
100
AcDbLine
 10
7059.127507899645
 20
7596.279066364536
 30
0.0
 11
6579.127507899645
 21
7596.279066364536
 31
0.0
  0
LINE
  5
16702
330
167A9
100
AcDbEntity
  8
KISO-3
100
AcDbLine
 10
6579.127507899645
 20
7596.279066364536
 30
0.0
 11
6579.127507899645
 21
8366.279066364535
 31
0.0
  0
LINE
  5
16703
330
167A9
100
AcDbEntity
  8
KISO-2
100
AcDbLine
 10
3879.127507899644
 20
7986.279066364534
 30
0.0
 11
4159.127507899643
 21
7986.279066364534
 31
0.0
  0
LINE
  5
16704
330
167A9
100
AcDbEntity
  8
KISO-2
100
AcDbLine
 10
4159.127507899643
 20
7986.279066364534
 30
0.0
 11
4159.127507899643
 21
8266.279066364537
 31
0.0
  0
LINE
  5
16705
330
167A9
100
AcDbEntity
  8
KISO-2
100
AcDbLine
 10
4159.127507899643
 20
8266.279066364537
 30
0.0
 11
3879.127507899644
 21
8266.279066364537
 31
0.0
  0
LINE
  5
16706
330
167A9
100
AcDbEntity
  8
KISO-2
100
AcDbLine
 10
3879.127507899644
 20
8266.279066364537
 30
0.0
 11
3879.127507899644
 21
7986.279066364534
 31
0.0
  0
LINE
  5
16707
330
167A9
100
AcDbEntity
  8
KISO-3
100
AcDbLine
 10
4259.127507899644
 20
8366.279066364535
 30
0.0
 11
4259.127507899644
 21
7596.279066364536
 31
0.0
  0
LINE
  5
16708
330
167A9
100
AcDbEntity
  8
KISO-3
100
AcDbLine
 10
4259.127507899644
 20
7596.279066364536
 30
0.0
 11
3779.127507899644
 21
7596.279066364536
 31
0.0
  0
LINE
  5
16709
330
167A9
100
AcDbEntity
  8
KISO-3
100
AcDbLine
 10
3779.127507899644
 20
7596.279066364536
 30
0.0
 11
3779.127507899644
 21
8366.279066364535
 31
0.0
  0
LINE
  5
1670A
330
167A9
100
AcDbEntity
  8
KISO-2
100
AcDbLine
 10
3879.127507899644
 20
7696.279066364535
 30
0.0
 11
4159.127507899643
 21
7696.279066364535
 31
0.0
  0
LINE
  5
1670B
330
167A9
100
AcDbEntity
  8
KISO-2
100
AcDbLine
 10
4159.127507899643
 20
7696.279066364535
 30
0.0
 11
4159.127507899643
 21
7976.279066364536
 31
0.0
  0
LINE
  5
1670C
330
167A9
100
AcDbEntity
  8
KISO-2
100
AcDbLine
 10
4159.127507899643
 20
7976.279066364536
 30
0.0
 11
3879.127507899644
 21
7976.279066364536
 31
0.0
  0
LINE
  5
1670D
330
167A9
100
AcDbEntity
  8
KISO-2
100
AcDbLine
 10
3879.127507899644
 20
7976.279066364536
 30
0.0
 11
3879.127507899644
 21
7696.279066364535
 31
0.0
  0
LINE
  5
1670E
330
167A9
100
AcDbEntity
  8
DOMAKON
100
AcDbLine
 10
3619.127507899644
 20
10126.27906636454
 30
0.0
 11
8159.127507899645
 21
10126.27906636454
 31
0.0
  0
LINE
  5
1670F
330
167A9
100
AcDbEntity
  8
YANE
100
AcDbLine
 10
8159.127507899645
 20
5962.729793983193
 30
0.0
 11
3797.326854848405
 21
5962.729793983193
 31
0.0
  0
LINE
  5
16710
330
167A9
100
AcDbEntity
  8
YANE
100
AcDbLine
 10
3797.326854848405
 20
5962.729793983193
 30
0.0
 11
3797.326854848405
 21
10000.82906636452
 31
0.0
  0
LINE
  5
16711
330
167A9
100
AcDbEntity
  8
YANE
100
AcDbLine
 10
3797.326854848405
 20
10000.82906636452
 30
0.0
 11
8159.127507899645
 21
10000.82906636454
 31
0.0
  0
LINE
  5
16712
330
167A9
100
AcDbEntity
  8
DOMAKON
100
AcDbLine
 10
8159.127507899645
 20
5836.279066364535
 30
0.0
 11
3619.127507899644
 21
5836.279066364536
 31
0.0
  0
LINE
  5
16713
330
167A9
100
AcDbEntity
  8
DOMAKON
100
AcDbLine
 10
3619.127507899644
 20
5836.279066364536
 30
0.0
 11
3619.127507899644
 21
10126.27906636454
 31
0.0
  0
LINE
  5
16714
330
167A9
100
AcDbEntity
  8
YANE
100
AcDbLine
 10
12640.92816095085
 20
5962.729793983193
 30
0.0
 11
8279.127507899648
 21
5962.729793983193
 31
0.0
  0
LINE
  5
16715
330
167A9
100
AcDbEntity
  8
YANE
100
AcDbLine
 10
8279.127507899648
 20
10000.82906636454
 30
0.0
 11
12640.92816095085
 21
10000.82906636452
 31
0.0
  0
LINE
  5
16716
330
167A9
100
AcDbEntity
  8
YANE
100
AcDbLine
 10
12640.92816095085
 20
10000.82906636452
 30
0.0
 11
12640.92816095085
 21
5962.729793983193
 31
0.0
  0
LINE
  5
16717
330
167A9
100
AcDbEntity
  8
DOMAKON
100
AcDbLine
 10
8279.127507899648
 20
10126.27906636454
 30
0.0
 11
12819.12750789963
 21
10126.27906636454
 31
0.0
  0
LINE
  5
16718
330
167A9
100
AcDbEntity
  8
DOMAKON
100
AcDbLine
 10
12819.12750789963
 20
10126.27906636454
 30
0.0
 11
12819.12750789963
 21
5836.279066364536
 31
0.0
  0
LINE
  5
16719
330
167A9
100
AcDbEntity
  8
DOMAKON
100
AcDbLine
 10
12819.12750789963
 20
5836.279066364536
 30
0.0
 11
8279.127507899648
 21
5836.279066364535
 31
0.0
  0
ARC
  5
16833
330
167A9
100
AcDbEntity
  8
SUNPOU
100
AcDbCircle
 10
13192.64962613196
 20
3377.663336276713
 30
0.0
 40
225.0
100
AcDbArc
 50
328.3472725282761
 51
31.65272747172387
  0
TEXT
  5
16834
330
167A9
100
AcDbEntity
  8
SUNPOU
100
AcDbText
 10
10668.22437715944
 20
3259.590198549168
 30
0.0
 40
89.9993750043402
  1
34 m/s
 41
0.6700000000000001
  7
01
100
AcDbText
  0
TEXT
  5
16835
330
167A9
100
AcDbEntity
  8
SUNPOU
100
AcDbText
 10
10558.71935591935
 20
3413.875912834881
 30
0.0
 40
89.9993750043402
  1
50  N/m
 41
0.6700000000000001
  7
01
100
AcDbText
  0
TEXT
  5
16836
330
167A9
100
AcDbEntity
  8
SUNPOU
100
AcDbText
 10
10559.41669358367
 20
2571.733055692025
 30
0.0
 40
90.0
  1
異形鉄筋の場合、原則としてフックは不要ですが、
  7
01
100
AcDbText
  0
TEXT
  5
16837
330
167A9
100
AcDbEntity
  8
SUNPOU
100
AcDbText
 10
10559.41669358367
 20
2880.304484263454
 30
0.0
 40
90.0
  1
あわせて設計して下さい。
  7
01
100
AcDbText
  0
TEXT
  5
16838
330
167A9
100
AcDbEntity
  8
SUNPOU
100
AcDbText
 10
10559.41669358367
 20
2726.01876997774
 30
0.0
 40
90.0
  1
その他現地の実情にあわせて設計して下さい。
  7
01
100
AcDbText
  0
TEXT
  5
16839
330
167A9
100
AcDbEntity
  8
SUNPOU
100
AcDbText
 10
10559.41669358367
 20
3034.590198549168
 30
0.0
 40
90.0
  1
寒冷地の場合、凍結深度等を考慮し、実情に
  7
01
100
AcDbText
  0
TEXT
  5
1683A
330
167A9
100
AcDbEntity
  8
SUNPOU
100
AcDbText
 10
10559.41669358367
 20
2417.447341406311
 30
0.0
 40
90.0
  1
地域によっては、フックをつける様指導している
  7
01
100
AcDbText
  0
TEXT
  5
1683B
330
167A9
100
AcDbEntity
  8
SUNPOU
100
AcDbText
 10
10184.46094849428
 20
3259.590198549168
 30
0.0
 40
89.9993750043402
  1
基準風速   　　 , 地表面粗度区分
  7
01
100
AcDbText
  0
TEXT
  5
1683C
330
167A9
100
AcDbEntity
  8
SUNPOU
100
AcDbText
 10
10053.89731977805
 20
3603.129915280837
 30
0.0
 40
90.0
  1
<下記条件での参考図>
  7
01
 72
     4
 11
10642.75446263519
 21
3648.129915280837
 31
0.0
100
AcDbText
  0
TEXT
  5
1683D
330
167A9
100
AcDbEntity
  8
SUNPOU
100
AcDbText
 10
10179.25446263519
 20
3760.629915280838
 30
0.0
 40
120.0
  1
基礎断面図
  7
01
 72
     4
 11
10519.25446263519
 21
3820.629915280838
 31
0.0
100
AcDbText
  0
TEXT
  5
1683E
330
167A9
100
AcDbEntity
  8
SUNPOU
100
AcDbText
 10
10559.41669358367
 20
2263.161627120595
 30
0.0
 40
90.0
  1
所もありますので、ご注意願います。
  7
01
100
AcDbText
  0
TEXT
  5
1683F
330
167A9
100
AcDbEntity
  8
SUNPOU
100
AcDbText
 10
10184.46094849428
 20
3413.875912834881
 30
0.0
 40
89.9993750043402
  1
地耐力   　　　 以上,コンクリート設計基準強度　　　　　以上
  7
01
100
AcDbText
  0
TEXT
  5
16840
330
167A9
100
AcDbEntity
  8
SUNPOU
100
AcDbText
 10
10353.21094849428
 20
3034.590198549168
 30
0.0
 40
90.0
  1
1
 41
0.6700000000000001
  7
01
100
AcDbText
  0
TEXT
  5
16841
330
167A9
100
AcDbEntity
  8
SUNPOU
100
AcDbText
 10
10242.57702828155
 20
3034.590198549168
 30
0.0
 40
90.0
  1
注　）
  7
01
100
AcDbText
  0
TEXT
  5
16842
330
167A9
100
AcDbEntity
  8
SUNPOU
100
AcDbText
 10
10353.21094849428
 20
2571.733055692025
 30
0.0
 40
90.0
  1
3
 41
0.6700000000000001
  7
01
100
AcDbText
  0
TEXT
  5
16843
330
167A9
100
AcDbEntity
  8
SUNPOU
100
AcDbText
 10
10242.57702828155
 20
2571.733055692025
 30
0.0
 40
90.0
  1
注　）
  7
01
100
AcDbText
  0
TEXT
  5
16844
330
167A9
100
AcDbEntity
  8
SUNPOU
100
AcDbText
 10
10242.57702828155
 20
2726.01876997774
 30
0.0
 40
90.0
  1
注　）
  7
01
100
AcDbText
  0
TEXT
  5
16845
330
167A9
100
AcDbEntity
  8
SUNPOU
100
AcDbText
 10
10353.21094849428
 20
2726.01876997774
 30
0.0
 40
90.0
  1
2
 41
0.6700000000000001
  7
01
100
AcDbText
  0
ARC
  5
16846
330
167A9
100
AcDbEntity
  8
SUNPOU
100
AcDbCircle
 10
10337.41922240148
 20
3377.663336276713
 30
0.0
 40
225.0
100
AcDbArc
 50
148.3472725282761
 51
211.6527274717238
  0
TEXT
  5
16847
330
167A9
100
AcDbEntity
  8
SUNPOU
100
AcDbText
 10
10694.5558087053
 20
3413.875912834881
 30
0.0
 40
71.99950000347218
  1
K
 41
0.6700000000000001
  7
01
100
AcDbText
  0
TEXT
  5
16848
330
167A9
100
AcDbEntity
  8
SUNPOU
100
AcDbText
 10
10896.10479999816
 20
3772.937607588529
 30
0.0
 40
92.30769230769228
  1
（ S = 　　  ）
 41
0.6700000000000001
  7
00
 11
10896.10479999816
 21
3760.629915280837
 31
0.0
100
AcDbText
 73
     1
  0
TEXT
  5
16849
330
167A9
100
AcDbEntity
  8
SUNPOU
100
AcDbText
 10
10962.1959654337
 20
3464.064339192367
 30
0.0
 40
46.28539285937498
  1
2
 41
0.6700000000000001
  7
00
100
AcDbText
  0
TEXT
  5
1684A
330
167A9
100
AcDbEntity
  8
SUNPOU
100
AcDbText
 10
11264.2136291666
 20
3770.476069126991
 30
0.0
 40
73.84615384615384
  1
/
 41
0.6700000000000001
  7
00
 11
11264.2136291666
 21
3760.629915280837
 31
0.0
100
AcDbText
 73
     1
  0
TEXT
  5
1684B
330
167A9
100
AcDbEntity
  8
SUNPOU
100
AcDbText
 10
11328.16307212098
 20
3752.014530665451
 30
0.0
 40
73.84615384615384
  1
25
 41
0.6700000000000001
  7
00
 11
11328.16307212098
 21
3742.168376819298
 31
0.0
100
AcDbText
 73
     1
  0
TEXT
  5
1684C
330
167A9
100
AcDbEntity
  8
SUNPOU
100
AcDbText
 10
11215.80750185123
 20
3788.93760758853
 30
0.0
 40
73.84615384615384
  1
1
 41
0.6700000000000001
  7
00
 11
11215.80750185123
 21
3779.091453742376
 31
0.0
100
AcDbText
 73
     1
  0
LINE
  5
1684D
330
167A9
100
AcDbEntity
  8
SUNPOU
100
AcDbLine
 10
12021.27651006088
 20
3259.590198549168
 30
0.0
 11
12021.27651006088
 21
3343.082562247948
 31
0.0
  0
LINE
  5
1684E
330
167A9
100
AcDbEntity
  8
SUNPOU
100
AcDbLine
 10
12004.40151006088
 20
3259.590198549168
 30
0.0
 11
12004.40151006088
 21
3343.082562247948
 31
0.0
  0
LINE
  5
1684F
330
167A9
100
AcDbEntity
  8
SUNPOU
100
AcDbLine
 10
11987.52651006088
 20
3259.590198549168
 30
0.0
 11
11987.52651006088
 21
3343.082562247948
 31
0.0
  0
LINE
  5
16850
330
167A9
100
AcDbEntity
  8
SUNPOU
100
AcDbLine
 10
11976.27651006088
 20
3259.590198549167
 30
0.0
 11
12032.52651006088
 21
3259.590198549167
 31
0.0
  0
LINE
  5
16851
330
167A9
100
AcDbEntity
  8
SUNPOU
100
AcDbLine
 10
11976.27651006088
 20
3343.082562247948
 30
0.0
 11
12032.52651006088
 21
3343.082562247948
 31
0.0
  0
TEXT
  5
16852
330
167A9
100
AcDbEntity
  8
SUNPOU
100
AcDbText
 10
12603.47142678099
 20
3413.875912834881
 30
0.0
 40
89.9993750043402
  1
18
 41
0.6700000000000001
  7
01
100
AcDbText
  0
TEXT
  5
16853
330
167A9
100
AcDbEntity
  8
SUNPOU
100
AcDbText
 10
12739.30787956694
 20
3413.875912834881
 30
0.0
 40
89.9993750043402
  1
N/mm
 41
0.6700000000000001
  7
01
100
AcDbText
  0
TEXT
  5
16854
330
167A9
100
AcDbEntity
  8
SUNPOU
100
AcDbText
 10
13043.77236159834
 20
3464.064339192367
 30
0.0
 40
46.28539285937498
  1
2
 41
0.6700000000000001
  7
00
100
AcDbText
  0
ENDSEC
  0
SECTION
  2
OBJECTS
  0
DICTIONARY
  5
16799
330
0
100
AcDbDictionary
281
     1
  3
ACAD_GROUP
350
1679A
  3
ACAD_LAYOUT
350
167A6
  3
ACAD_MLEADERSTYLE
350
16806
  3
ACAD_MLINESTYLE
350
167A3
  3
ACAD_PLOTSETTINGS
350
167A5
  3
ACAD_PLOTSTYLENAME
350
1679B
  3
ACAD_TABLESTYLE
350
16805
  3
AcDbVariableDictionary
350
16855
  0
DICTIONARY
  5
1679A
102
{ACAD_REACTORS
330
16799
102
}
330
16799
100
AcDbDictionary
281
     1
  0
DICTIONARY
  5
167A6
102
{ACAD_REACTORS
330
16799
102
}
330
16799
100
AcDbDictionary
281
     1
  3
Layout1
350
167A8
  3
Model
350
167AA
  0
DICTIONARY
  5
16806
102
{ACAD_REACTORS
330
16799
102
}
330
16799
100
AcDbDictionary
281
     1
  0
DICTIONARY
  5
167A3
102
{ACAD_REACTORS
330
16799
102
}
330
16799
100
AcDbDictionary
281
     1
  3
Standard
350
167A4
  0
DICTIONARY
  5
167A5
102
{ACAD_REACTORS
330
16799
102
}
330
16799
100
AcDbDictionary
281
     1
  0
ACDBDICTIONARYWDFLT
  5
1679B
102
{ACAD_REACTORS
330
16799
102
}
330
16799
100
AcDbDictionary
281
     1
  3
Normal
350
1679C
100
AcDbDictionaryWithDefault
340
1679C
  0
DICTIONARY
  5
16805
102
{ACAD_REACTORS
330
16799
102
}
330
16799
100
AcDbDictionary
281
     1
  0
DICTIONARY
  5
16855
102
{ACAD_REACTORS
330
16799
102
}
330
16799
100
AcDbDictionary
281
     1
  3
DIMASSOC
350
16856
  0
LAYOUT
  5
167A8
102
{ACAD_REACTORS
330
167A6
102
}
330
167A6
100
AcDbPlotSettings
  1

  2
none_device
  4

  6

 40
0.0
 41
0.0
 42
0.0
 43
0.0
 44
0.0
 45
0.0
 46
0.0
 47
0.0
 48
0.0
 49
0.0
140
0.0
141
0.0
142
1.0
143
1.0
 70
   688
 72
     0
 73
     0
 74
     5
  7

 75
    16
147
1.0
148
0.0
149
0.0
100
AcDbLayout
  1
Layout1
 70
     0
 71
     1
 10
0.0
 20
0.0
 11
12.0
 21
9.0
 12
0.0
 22
0.0
 32
0.0
 14
1.000000000000000E+20
 24
1.000000000000000E+20
 34
1.000000000000000E+20
 15
-1.000000000000000E+20
 25
-1.000000000000000E+20
 35
-1.000000000000000E+20
146
0.0
 13
0.0
 23
0.0
 33
0.0
 16
1.0
 26
0.0
 36
0.0
 17
0.0
 27
1.0
 37
0.0
 76
     0
330
167A7
  0
LAYOUT
  5
167AA
102
{ACAD_REACTORS
330
167A6
102
}
330
167A6
100
AcDbPlotSettings
  1

  2
none_device
  4

  6

 40
0.0
 41
0.0
 42
0.0
 43
0.0
 44
0.0
 45
0.0
 46
0.0
 47
0.0
 48
0.0
 49
0.0
140
0.0
141
0.0
142
1.0
143
1.0
 70
  1712
 72
     0
 73
     0
 74
     0
  7

 75
     0
147
1.0
148
0.0
149
0.0
100
AcDbLayout
  1
Model
 70
     1
 71
     0
 10
0.0
 20
0.0
 11
12.0
 21
9.0
 12
267.0
 22
194.8999999999998
 32
0.0
 14
433.9966216520332
 24
163.6908237492789
 34
-0.0000000000000053
 15
16382.66605425469
 25
11242.27663824599
 35
0.0000000000000099
146
0.0
 13
0.0
 23
0.0
 33
0.0
 16
1.0
 26
0.0
 36
0.0
 17
0.0
 27
1.0
 37
0.0
 76
     0
330
167A9
331
167AC
  0
MLINESTYLE
  5
167A4
102
{ACAD_REACTORS
330
167A3
102
}
330
167A3
100
AcDbMlineStyle
  2
STANDARD
 70
     0
  3

 62
   256
 51
90.0
 52
90.0
 71
     2
 49
0.5
 62
   256
  6
BYLAYER
 49
-0.5
 62
   256
  6
BYLAYER
  0
ACDBPLACEHOLDER
  5
1679C
102
{ACAD_REACTORS
330
1679B
102
}
330
1679B
  0
DICTIONARYVAR
  5
16856
102
{ACAD_REACTORS
330
16855
102
}
330
16855
100
DictionaryVariables
280
     0
  1
1
  0
ENDSEC
  0
EOF
