  0
SECTION
  2
HEADER
  9
$ACADVER
  1
AC1015
  9
$ACADMAINTVER
 70
    13
  9
$DWGCODEPAGE
  3
ANSI_932
  9
$INSBASE
 10
267.0
 20
194.8999999999998
 30
0.0
  9
$EXTMIN
 10
433.9966216520333
 20
163.6908237492789
 30
-0.000000000000013
  9
$EXTMAX
 10
16382.6660542547
 20
11242.27663824599
 30
0.0000000000000023
  9
$LIMMIN
 10
0.0
 20
0.0
  9
$LIMMAX
 10
16800.0
 20
11880.0
  9
$ORTHOMODE
 70
     0
  9
$REGENMODE
 70
     1
  9
$FILLMODE
 70
     1
  9
$QTEXTMODE
 70
     0
  9
$MIRRTEXT
 70
     0
  9
$LTSCALE
 40
40.0
  9
$ATTMODE
 70
     1
  9
$TEXTSIZE
 40
0.2
  9
$TRACEWID
 40
0.05
  9
$TEXTSTYLE
  7
00
  9
$CLAYER
  8
SUNPOU
  9
$CELTYPE
  6
ByLayer
  9
$CECOLOR
 62
   256
  9
$CELTSCALE
 40
1.0
  9
$DISPSILH
 70
     0
  9
$DIMSCALE
 40
40.0
  9
$DIMASZ
 40
0.5
  9
$DIMEXO
 40
1.0
  9
$DIMDLI
 40
7.0
  9
$DIMRND
 40
0.0
  9
$DIMDLE
 40
3.0
  9
$DIMEXE
 40
1.125
  9
$DIMTP
 40
0.0
  9
$DIMTM
 40
0.0
  9
$DIMTXT
 40
2.25
  9
$DIMCEN
 40
0.0
  9
$DIMTSZ
 40
0.0
  9
$DIMTOL
 70
     0
  9
$DIMLIM
 70
     0
  9
$DIMTIH
 70
     0
  9
$DIMTOH
 70
     0
  9
$DIMSE1
 70
     0
  9
$DIMSE2
 70
     0
  9
$DIMTAD
 70
     1
  9
$DIMZIN
 70
     8
  9
$DIMBLK
  1
DOT
  9
$DIMASO
 70
     1
  9
$DIMSHO
 70
     0
  9
$DIMPOST
  1

  9
$DIMAPOST
  1

  9
$DIMALT
 70
     0
  9
$DIMALTD
 70
     2
  9
$DIMALTF
 40
25.4
  9
$DIMLFAC
 40
0.625
  9
$DIMTOFL
 70
     1
  9
$DIMTVP
 40
0.0
  9
$DIMTIX
 70
     0
  9
$DIMSOXD
 70
     0
  9
$DIMSAH
 70
     1
  9
$DIMBLK1
  1
DOT
  9
$DIMBLK2
  1
DOT
  9
$DIMSTYLE
  2
SUNPOU_図面名
  9
$DIMCLRD
 70
   256
  9
$DIMCLRE
 70
   256
  9
$DIMCLRT
 70
   256
  9
$DIMTFAC
 40
1.0
  9
$DIMGAP
 40
1.125
  9
$DIMJUST
 70
     0
  9
$DIMSD1
 70
     0
  9
$DIMSD2
 70
     0
  9
$DIMTOLJ
 70
     1
  9
$DIMTZIN
 70
     0
  9
$DIMALTZ
 70
     0
  9
$DIMALTTZ
 70
     0
  9
$DIMUPT
 70
     0
  9
$DIMDEC
 70
     2
  9
$DIMTDEC
 70
     2
  9
$DIMALTU
 70
     2
  9
$DIMALTTD
 70
     2
  9
$DIMTXSTY
  7
STANDARD
  9
$DIMAUNIT
 70
     0
  9
$DIMADEC
 70
     0
  9
$DIMALTRND
 40
0.0
  9
$DIMAZIN
 70
     0
  9
$DIMDSEP
 70
    46
  9
$DIMATFIT
 70
     3
  9
$DIMFRAC
 70
     0
  9
$DIMLDRBLK
  1

  9
$DIMLUNIT
 70
     2
  9
$DIMLWD
 70
    -2
  9
$DIMLWE
 70
    -2
  9
$DIMTMOVE
 70
     2
  9
$LUNITS
 70
     2
  9
$LUPREC
 70
     2
  9
$SKETCHINC
 40
0.1
  9
$FILLETRAD
 40
2.0
  9
$AUNITS
 70
     0
  9
$AUPREC
 70
     0
  9
$MENU
  1
A:\TIGER\MENU\TIGER
  9
$ELEVATION
 40
0.0
  9
$PELEVATION
 40
0.0
  9
$THICKNESS
 40
0.0
  9
$LIMCHECK
 70
     0
  9
$CHAMFERA
 40
0.0
  9
$CHAMFERB
 40
0.0
  9
$CHAMFERC
 40
1.0
  9
$CHAMFERD
 40
0.0
  9
$SKPOLY
 70
     0
  9
$TDCREATE
 40
2450266.571064815
  9
$TDUCREATE
 40
2450266.196064815
  9
$TDUPDATE
 40
2456331.299262326
  9
$TDUUPDATE
 40
2456330.924262326
  9
$TDINDWG
 40
0.1757697338
  9
$TDUSRTIMER
 40
0.1757695602
  9
$USRTIMER
 70
     1
  9
$ANGBASE
 50
0.0
  9
$ANGDIR
 70
     0
  9
$PDMODE
 70
     0
  9
$PDSIZE
 40
0.0
  9
$PLINEWID
 40
0.0
  9
$SPLFRAME
 70
     0
  9
$SPLINETYPE
 70
     6
  9
$SPLINESEGS
 70
     8
  9
$HANDSEED
  5
176FC
  9
$SURFTAB1
 70
     6
  9
$SURFTAB2
 70
     6
  9
$SURFTYPE
 70
     6
  9
$SURFU
 70
     6
  9
$SURFV
 70
     6
  9
$UCSBASE
  2

  9
$UCSNAME
  2

  9
$UCSORG
 10
0.0
 20
0.0
 30
0.0
  9
$UCSXDIR
 10
1.0
 20
0.0
 30
0.0
  9
$UCSYDIR
 10
0.0
 20
1.0
 30
0.0
  9
$UCSORTHOREF
  2

  9
$UCSORTHOVIEW
 70
     0
  9
$UCSORGTOP
 10
0.0
 20
0.0
 30
0.0
  9
$UCSORGBOTTOM
 10
0.0
 20
0.0
 30
0.0
  9
$UCSORGLEFT
 10
0.0
 20
0.0
 30
0.0
  9
$UCSORGRIGHT
 10
0.0
 20
0.0
 30
0.0
  9
$UCSORGFRONT
 10
0.0
 20
0.0
 30
0.0
  9
$UCSORGBACK
 10
0.0
 20
0.0
 30
0.0
  9
$PUCSBASE
  2

  9
$PUCSNAME
  2

  9
$PUCSORG
 10
0.0
 20
0.0
 30
0.0
  9
$PUCSXDIR
 10
1.0
 20
0.0
 30
0.0
  9
$PUCSYDIR
 10
0.0
 20
1.0
 30
0.0
  9
$PUCSORTHOREF
  2

  9
$PUCSORTHOVIEW
 70
     0
  9
$PUCSORGTOP
 10
0.0
 20
0.0
 30
0.0
  9
$PUCSORGBOTTOM
 10
0.0
 20
0.0
 30
0.0
  9
$PUCSORGLEFT
 10
0.0
 20
0.0
 30
0.0
  9
$PUCSORGRIGHT
 10
0.0
 20
0.0
 30
0.0
  9
$PUCSORGFRONT
 10
0.0
 20
0.0
 30
0.0
  9
$PUCSORGBACK
 10
0.0
 20
0.0
 30
0.0
  9
$USERI1
 70
     3
  9
$USERI2
 70
     0
  9
$USERI3
 70
     0
  9
$USERI4
 70
     0
  9
$USERI5
 70
  1103
  9
$USERR1
 40
0.0
  9
$USERR2
 40
1.0
  9
$USERR3
 40
0.0
  9
$USERR4
 40
0.0
  9
$USERR5
 40
0.0
  9
$WORLDVIEW
 70
     1
  9
$SHADEDGE
 70
     3
  9
$SHADEDIF
 70
    70
  9
$TILEMODE
 70
     1
  9
$MAXACTVP
 70
    16
  9
$PINSBASE
 10
0.0
 20
0.0
 30
0.0
  9
$PLIMCHECK
 70
     0
  9
$PEXTMIN
 10
1.000000000000000E+20
 20
1.000000000000000E+20
 30
1.000000000000000E+20
  9
$PEXTMAX
 10
-1.000000000000000E+20
 20
-1.000000000000000E+20
 30
-1.000000000000000E+20
  9
$PLIMMIN
 10
0.0
 20
0.0
  9
$PLIMMAX
 10
12.0
 20
9.0
  9
$UNITMODE
 70
     0
  9
$VISRETAIN
 70
     0
  9
$PLINEGEN
 70
     1
  9
$PSLTSCALE
 70
     0
  9
$TREEDEPTH
 70
  3020
  9
$CMLSTYLE
  2
Standard
  9
$CMLJUST
 70
     0
  9
$CMLSCALE
 40
1.0
  9
$PROXYGRAPHICS
 70
     1
  9
$MEASUREMENT
 70
     0
  9
$CELWEIGHT
370
    -1
  9
$ENDCAPS
280
     0
  9
$JOINSTYLE
280
     0
  9
$LWDISPLAY
290
     0
  9
$INSUNITS
 70
     0
  9
$HYPERLINKBASE
  1

  9
$STYLESHEET
  1

  9
$XEDIT
290
     1
  9
$CEPSNTYPE
380
     0
  9
$PSTYLEMODE
290
     1
  9
$FINGERPRINTGUID
  2
{6BA53D2B-9925-42C4-8961-F8CE37A43C62}
  9
$VERSIONGUID
  2
{90FC6D02-F299-4C38-BDA6-DC3A4CE91A36}
  9
$EXTNAMES
290
     1
  9
$PSVPSCALE
 40
0.0
  9
$OLESTARTUP
290
     0
  0
ENDSEC
  0
SECTION
  2
CLASSES
  0
CLASS
  1
ACDBDICTIONARYWDFLT
  2
AcDbDictionaryWithDefault
  3
AutoCAD 2000
 90
        0
280
     0
281
     0
  0
CLASS
  1
ACDBPLACEHOLDER
  2
AcDbPlaceHolder
  3
AutoCAD 2000
 90
        0
280
     0
281
     0
  0
CLASS
  1
LAYOUT
  2
AcDbLayout
  3
AutoCAD 2000
 90
        0
280
     0
281
     0
  0
CLASS
  1
DICTIONARYVAR
  2
AcDbDictionaryVar
  3
AutoCAD 2000
 90
        0
280
     0
281
     0
  0
ENDSEC
  0
SECTION
  2
TABLES
  0
TABLE
  2
VPORT
  5
17642
330
0
100
AcDbSymbolTable
 70
     2
  0
VPORT
  5
176FB
330
17642
100
AcDbSymbolTableRecord
100
AcDbViewportTableRecord
  2
*Active
 70
     0
 10
0.0
 20
0.0
 11
1.0
 21
1.0
 12
8408.331337953368
 22
5702.983730997637
 13
0.0
 23
0.0
 14
1.0
 24
1.0
 15
0.0
 25
0.0
 16
0.0
 26
0.0
 36
1.0
 17
0.0
 27
0.0
 37
0.0
 40
12985.73988638911
 41
1.236040609137055
 42
50.0
 43
0.0
 44
0.0
 50
0.0
 51
0.0
 71
     0
 72
 10000
 73
     1
 74
     0
 75
     0
 76
     0
 77
     0
 78
     0
281
     0
 65
     0
110
0.0
120
0.0
130
0.0
111
1.0
121
0.0
131
0.0
112
0.0
122
1.0
132
0.0
 79
     0
146
0.0
  0
ENDTAB
  0
TABLE
  2
LTYPE
  5
1763F
330
0
100
AcDbSymbolTable
 70
     9
  0
LTYPE
  5
1764D
330
1763F
100
AcDbSymbolTableRecord
100
AcDbLinetypeTableRecord
  2
ByBlock
 70
     0
  3

 72
    65
 73
     0
 40
0.0
  0
LTYPE
  5
1764E
330
1763F
100
AcDbSymbolTableRecord
100
AcDbLinetypeTableRecord
  2
ByLayer
 70
     0
  3

 72
    65
 73
     0
 40
0.0
  0
LTYPE
  5
1764F
330
1763F
100
AcDbSymbolTableRecord
100
AcDbLinetypeTableRecord
  2
CONTINUOUS
 70
     0
  3
実線
 72
    65
 73
     0
 40
0.0
  0
LTYPE
  5
1765B
330
1763F
100
AcDbSymbolTableRecord
100
AcDbLinetypeTableRecord
  2
HIDE-M
 70
     0
  3

 72
    65
 73
     2
 40
2.0
 49
1.0
 74
     0
 49
-1.0
 74
     0
  0
LTYPE
  5
1765C
330
1763F
100
AcDbSymbolTableRecord
100
AcDbLinetypeTableRecord
  2
HIDE-S
 70
     0
  3

 72
    65
 73
     2
 40
1.0
 49
0.5
 74
     0
 49
-0.5
 74
     0
  0
LTYPE
  5
1765D
330
1763F
100
AcDbSymbolTableRecord
100
AcDbLinetypeTableRecord
  2
TENSEN-
 70
     0
  3

 72
    65
 73
     2
 40
0.6000000000000001
 49
0.2
 74
     0
 49
-0.4
 74
     0
  0
LTYPE
  5
1765E
330
1763F
100
AcDbSymbolTableRecord
100
AcDbLinetypeTableRecord
  2
1PL-M
 70
     0
  3

 72
    65
 73
     4
 40
15.0
 49
12.0
 74
     0
 49
-1.0
 74
     0
 49
1.0
 74
     0
 49
-1.0
 74
     0
  0
LTYPE
  5
1765F
330
1763F
100
AcDbSymbolTableRecord
100
AcDbLinetypeTableRecord
  2
1PL-12
 70
     0
  3

 72
    65
 73
     4
 40
15.0
 49
12.0
 74
     0
 49
-1.0
 74
     0
 49
1.0
 74
     0
 49
-1.0
 74
     0
  0
LTYPE
  5
17660
330
1763F
100
AcDbSymbolTableRecord
100
AcDbLinetypeTableRecord
  2
KAKURE-1
 70
     0
  3

 72
    65
 73
     2
 40
2.0
 49
1.0
 74
     0
 49
-1.0
 74
     0
  0
LTYPE
  5
17661
330
1763F
100
AcDbSymbolTableRecord
100
AcDbLinetypeTableRecord
  2
2PL-12
 70
     0
  3

 72
    65
 73
     6
 40
17.0
 49
12.0
 74
     0
 49
-1.0
 74
     0
 49
1.0
 74
     0
 49
-1.0
 74
     0
 49
1.0
 74
     0
 49
-1.0
 74
     0
  0
LTYPE
  5
17662
330
1763F
100
AcDbSymbolTableRecord
100
AcDbLinetypeTableRecord
  2
2PL-5
 70
     0
  3

 72
    65
 73
     6
 40
7.5
 49
5.0
 74
     0
 49
-0.5
 74
     0
 49
0.5
 74
     0
 49
-0.5
 74
     0
 49
0.5
 74
     0
 49
-0.5
 74
     0
  0
ENDTAB
  0
TABLE
  2
LAYER
  5
1763C
330
0
100
AcDbSymbolTable
 70
    25
  0
LAYER
  5
1764A
330
1763C
100
AcDbSymbolTableRecord
100
AcDbLayerTableRecord
  2
0
 70
     0
 62
     7
  6
CONTINUOUS
370
    -3
390
17649
  0
LAYER
  5
17664
330
1763C
100
AcDbSymbolTableRecord
100
AcDbLayerTableRecord
  2
U1
 70
     0
 62
     3
  6
CONTINUOUS
370
    -3
390
17649
  0
LAYER
  5
17665
330
1763C
100
AcDbSymbolTableRecord
100
AcDbLayerTableRecord
  2
U7
 70
     0
 62
     2
  6
CONTINUOUS
370
    -3
390
17649
  0
LAYER
  5
17666
330
1763C
100
AcDbSymbolTableRecord
100
AcDbLayerTableRecord
  2
SUNPOU
 70
     0
 62
     4
  6
CONTINUOUS
370
    -3
390
17649
  0
LAYER
  5
17667
330
1763C
100
AcDbSymbolTableRecord
100
AcDbLayerTableRecord
  2
HIKIDASHI
 70
     0
 62
     6
  6
CONTINUOUS
370
    -3
390
17649
  0
LAYER
  5
17668
330
1763C
100
AcDbSymbolTableRecord
100
AcDbLayerTableRecord
  2
TENSEN-1
 70
     0
 62
     6
  6
TENSEN-
370
    -3
390
17649
  0
LAYER
  5
17669
330
1763C
100
AcDbSymbolTableRecord
100
AcDbLayerTableRecord
  2
HIDE-S1
 70
     0
 62
     6
  6
HIDE-S
370
    -3
390
17649
  0
LAYER
  5
1766A
330
1763C
100
AcDbSymbolTableRecord
100
AcDbLayerTableRecord
  2
HIDE-M1
 70
     0
 62
     6
  6
HIDE-M
370
    -3
390
17649
  0
LAYER
  5
1766B
330
1763C
100
AcDbSymbolTableRecord
100
AcDbLayerTableRecord
  2
1PL-M1
 70
     0
 62
     6
  6
1PL-M
370
    -3
390
17649
  0
LAYER
  5
1766C
330
1763C
100
AcDbSymbolTableRecord
100
AcDbLayerTableRecord
  2
NAME
 70
     0
 62
    20
  6
CONTINUOUS
370
    -3
390
17649
  0
LAYER
  5
1766D
330
1763C
100
AcDbSymbolTableRecord
100
AcDbLayerTableRecord
  2
FILENAME
 70
     0
 62
     7
  6
CONTINUOUS
370
    -3
390
17649
  0
LAYER
  5
1766E
330
1763C
100
AcDbSymbolTableRecord
100
AcDbLayerTableRecord
  2
KISO
 70
     0
 62
     2
  6
CONTINUOUS
370
    -3
390
17649
  0
LAYER
  5
1766F
330
1763C
100
AcDbSymbolTableRecord
100
AcDbLayerTableRecord
  2
YANE
 70
     0
 62
     1
  6
1PL-12
370
    -3
390
17649
  0
LAYER
  5
17670
330
1763C
100
AcDbSymbolTableRecord
100
AcDbLayerTableRecord
  2
HATCH
 70
     0
 62
     1
  6
CONTINUOUS
370
    -3
390
17649
  0
LAYER
  5
17671
330
1763C
100
AcDbSymbolTableRecord
100
AcDbLayerTableRecord
  2
DOMAKON
 70
     0
 62
     2
  6
CONTINUOUS
370
    -3
390
17649
  0
LAYER
  5
17672
330
1763C
100
AcDbSymbolTableRecord
100
AcDbLayerTableRecord
  2
KISO-1
 70
     0
 62
     6
  6
2PL-12
370
    -3
390
17649
  0
LAYER
  5
17673
330
1763C
100
AcDbSymbolTableRecord
100
AcDbLayerTableRecord
  2
KISO-2
 70
     0
 62
     1
  6
KAKURE-1
370
    -3
390
17649
  0
LAYER
  5
17674
330
1763C
100
AcDbSymbolTableRecord
100
AcDbLayerTableRecord
  2
SIN
 70
     0
 62
     6
  6
1PL-12
370
    -3
390
17649
  0
LAYER
  5
17675
330
1763C
100
AcDbSymbolTableRecord
100
AcDbLayerTableRecord
  2
BOLT
 70
     0
 62
     1
  6
CONTINUOUS
370
    -3
390
17649
  0
LAYER
  5
17676
330
1763C
100
AcDbSymbolTableRecord
100
AcDbLayerTableRecord
  2
KISO-3
 70
     0
 62
     1
  6
2PL-5
370
    -3
390
17649
  0
LAYER
  5
17677
330
1763C
100
AcDbSymbolTableRecord
100
AcDbLayerTableRecord
  2
HASIRA
 70
     0
 62
     3
  6
CONTINUOUS
370
    -3
390
17649
  0
LAYER
  5
17678
330
1763C
100
AcDbSymbolTableRecord
100
AcDbLayerTableRecord
  2
YODOROGO
 70
     0
 62
   130
  6
CONTINUOUS
370
    -3
390
17649
  0
LAYER
  5
17679
330
1763C
100
AcDbSymbolTableRecord
100
AcDbLayerTableRecord
  2
WAKUSEN-01
 70
     0
 62
    50
  6
CONTINUOUS
370
    -3
390
17649
  0
LAYER
  5
1767A
330
1763C
100
AcDbSymbolTableRecord
100
AcDbLayerTableRecord
  2
WAKUSEN-02
 70
     0
 62
   130
  6
CONTINUOUS
370
    -3
390
17649
  0
LAYER
  5
1767B
330
1763C
100
AcDbSymbolTableRecord
100
AcDbLayerTableRecord
  2
WAKUMOJI-01
 70
     0
 62
   130
  6
CONTINUOUS
370
    -3
390
17649
  0
ENDTAB
  0
TABLE
  2
STYLE
  5
1763D
330
0
100
AcDbSymbolTable
 70
     5
  0
STYLE
  5
1764B
330
1763D
100
AcDbSymbolTableRecord
100
AcDbTextStyleTableRecord
  2
STANDARD
 70
     0
 40
3.0
 41
1.0
 50
0.0
 71
     0
 42
0.2
  3
ROMANS
  4
EXTFONT
  0
STYLE
  5
1767D
330
1763D
100
AcDbSymbolTableRecord
100
AcDbTextStyleTableRecord
  2
01
 70
     0
 40
3.0
 41
1.0
 50
0.0
 71
     0
 42
0.2
  3
ROMANS
  4
BIGFONT
  0
STYLE
  5
1767E
330
1763D
100
AcDbSymbolTableRecord
100
AcDbTextStyleTableRecord
  2
00
 70
     0
 40
0.0
 41
0.6666666666666666
 50
0.0
 71
     0
 42
0.2
  3
ROMANS
  4
BIGFONT
  0
STYLE
  5
1767F
330
1763D
100
AcDbSymbolTableRecord
100
AcDbTextStyleTableRecord
  2
WAKUMOJI
 70
     0
 40
3.0
 41
1.0
 50
0.0
 71
     0
 42
3.0
  3
SIMPLEX
  4
BIGFONT
  0
STYLE
  5
17680
330
1763D
100
AcDbSymbolTableRecord
100
AcDbTextStyleTableRecord
  2
FILENAME
 70
     0
 40
100.0
 41
1.0
 50
0.0
 71
     0
 42
100.0
  3
romans
  4
bigfont
  0
ENDTAB
  0
TABLE
  2
VIEW
  5
17640
330
0
100
AcDbSymbolTable
 70
     0
  0
ENDTAB
  0
TABLE
  2
UCS
  5
17641
330
0
100
AcDbSymbolTable
 70
     0
  0
ENDTAB
  0
TABLE
  2
APPID
  5
17643
330
0
100
AcDbSymbolTable
 70
     3
  0
APPID
  5
1764C
330
17643
100
AcDbSymbolTableRecord
100
AcDbRegAppTableRecord
  2
ACAD
 70
     0
  0
APPID
  5
17682
330
17643
100
AcDbSymbolTableRecord
100
AcDbRegAppTableRecord
  2
AUTOCAD_POSTSCRIPT_FIGURE
 70
     0
  0
APPID
  5
17683
330
17643
100
AcDbSymbolTableRecord
100
AcDbRegAppTableRecord
  2
ACAD_PSEXT
 70
     0
  0
ENDTAB
  0
TABLE
  2
DIMSTYLE
  5
17644
330
0
100
AcDbSymbolTable
 70
     1
100
AcDbDimStyleTable
 71
     0
  0
DIMSTYLE
105
17684
330
17644
100
AcDbSymbolTableRecord
100
AcDbDimStyleTableRecord
  2
SUNPOU_図面名
 70
     0
 40
40.0
 41
0.5
 42
1.0
 43
7.0
 44
1.125
 46
3.0
 73
     0
 74
     0
 77
     1
 78
     8
140
2.25
141
0.0
147
1.125
172
     1
173
     1
176
   256
177
   256
178
   256
340
1767E
341
17688
343
17688
344
17688
  0
ENDTAB
  0
TABLE
  2
BLOCK_RECORD
  5
1763B
330
0
100
AcDbSymbolTable
 70
    18
  0
BLOCK_RECORD
  5
17656
330
1763B
100
AcDbSymbolTableRecord
100
AcDbBlockTableRecord
  2
*Model_Space
340
17657
  0
BLOCK_RECORD
  5
17654
330
1763B
100
AcDbSymbolTableRecord
100
AcDbBlockTableRecord
  2
*Paper_Space
340
17655
  0
BLOCK_RECORD
  5
17688
330
1763B
100
AcDbSymbolTableRecord
100
AcDbBlockTableRecord
  2
DOT
340
0
  0
BLOCK_RECORD
  5
1768A
330
1763B
100
AcDbSymbolTableRecord
100
AcDbBlockTableRecord
  2
*U1
340
0
  0
BLOCK_RECORD
  5
1768C
330
1763B
100
AcDbSymbolTableRecord
100
AcDbBlockTableRecord
  2
*U2
340
0
  0
BLOCK_RECORD
  5
1768E
330
1763B
100
AcDbSymbolTableRecord
100
AcDbBlockTableRecord
  2
*U3
340
0
  0
BLOCK_RECORD
  5
17690
330
1763B
100
AcDbSymbolTableRecord
100
AcDbBlockTableRecord
  2
*U4
340
0
  0
BLOCK_RECORD
  5
17692
330
1763B
100
AcDbSymbolTableRecord
100
AcDbBlockTableRecord
  2
*U5
340
0
  0
BLOCK_RECORD
  5
17694
330
1763B
100
AcDbSymbolTableRecord
100
AcDbBlockTableRecord
  2
*U6
340
0
  0
BLOCK_RECORD
  5
17696
330
1763B
100
AcDbSymbolTableRecord
100
AcDbBlockTableRecord
  2
*U7
340
0
  0
BLOCK_RECORD
  5
17698
330
1763B
100
AcDbSymbolTableRecord
100
AcDbBlockTableRecord
  2
*U8
340
0
  0
BLOCK_RECORD
  5
1769A
330
1763B
100
AcDbSymbolTableRecord
100
AcDbBlockTableRecord
  2
*U9
340
0
  0
BLOCK_RECORD
  5
1769C
330
1763B
100
AcDbSymbolTableRecord
100
AcDbBlockTableRecord
  2
*U10
340
0
  0
BLOCK_RECORD
  5
1769E
330
1763B
100
AcDbSymbolTableRecord
100
AcDbBlockTableRecord
  2
*U11
340
0
  0
BLOCK_RECORD
  5
176A0
330
1763B
100
AcDbSymbolTableRecord
100
AcDbBlockTableRecord
  2
*U12
340
0
  0
BLOCK_RECORD
  5
176A2
330
1763B
100
AcDbSymbolTableRecord
100
AcDbBlockTableRecord
  2
*U13
340
0
  0
BLOCK_RECORD
  5
176A4
330
1763B
100
AcDbSymbolTableRecord
100
AcDbBlockTableRecord
  2
*U14
340
0
  0
BLOCK_RECORD
  5
176A6
330
1763B
100
AcDbSymbolTableRecord
100
AcDbBlockTableRecord
  2
*U15
340
0
  0
BLOCK_RECORD
  5
176A8
330
1763B
100
AcDbSymbolTableRecord
100
AcDbBlockTableRecord
  2
*U16
340
0
  0
ENDTAB
  0
ENDSEC
  0
SECTION
  2
BLOCKS
  0
BLOCK
  5
17685
330
17656
100
AcDbEntity
  8
0
100
AcDbBlockBegin
  2
*Model_Space
 70
     0
 10
0.0
 20
0.0
 30
0.0
  3
*Model_Space
  1

  0
ENDBLK
  5
125F7
330
17656
100
AcDbEntity
  8
0
100
AcDbBlockEnd
  0
BLOCK
  5
17686
330
17654
100
AcDbEntity
 67
     1
  8
0
100
AcDbBlockBegin
  2
*Paper_Space
 70
     0
 10
0.0
 20
0.0
 30
0.0
  3
*Paper_Space
  1

  0
ENDBLK
  5
125F5
330
17654
100
AcDbEntity
 67
     1
  8
0
100
AcDbBlockEnd
  0
BLOCK
  5
17687
330
17688
100
AcDbEntity
  8
0
100
AcDbBlockBegin
  2
DOT
 70
     0
 10
0.0
 20
0.0
 30
0.0
  3
DOT
  1

  0
LWPOLYLINE
  5
12987
330
17688
100
AcDbEntity
  8
0
  6
ByBlock
 62
     0
100
AcDbPolyline
 90
        2
 70
     1
 43
0.75
 10
-0.375
 20
0.0
 42
1.0
 10
0.375
 20
0.0
 42
1.0
  0
LINE
  5
12988
330
17688
100
AcDbEntity
  8
0
  6
ByBlock
 62
     0
100
AcDbLine
 10
-0.75
 20
0.0
 30
0.0
 11
-1.5
 21
0.0
 31
0.0
  0
ENDBLK
  5
12989
330
17688
100
AcDbEntity
  8
0
100
AcDbBlockEnd
  0
BLOCK
  5
17689
330
1768A
100
AcDbEntity
  8
0
100
AcDbBlockBegin
  2
*U1
 70
     1
 10
0.0
 20
0.0
 30
0.0
  3
*U1
  1

  0
TEXT
  5
175FC
330
1768A
100
AcDbEntity
  8
SUNPOU
100
AcDbText
 10
5103.007034603488
 20
2526.74255611554
 30
0.0
 40
90.0
  1
630
 50
90.0
 41
0.6666666666666666
  7
00
100
AcDbText
  0
ENDBLK
  5
175FE
330
1768A
100
AcDbEntity
  8
0
100
AcDbBlockEnd
  0
BLOCK
  5
1768B
330
1768C
100
AcDbEntity
  8
0
100
AcDbBlockBegin
  2
*U2
 70
     1
 10
0.0
 20
0.0
 30
0.0
  3
*U2
  1

  0
TEXT
  5
17600
330
1768C
100
AcDbEntity
  8
SUNPOU
100
AcDbText
 10
4893.007034603488
 20
2907.885413258394
 30
0.0
 40
90.0
  1
150
 50
90.0
 41
0.6666666666666666
  7
00
100
AcDbText
  0
ENDBLK
  5
17602
330
1768C
100
AcDbEntity
  8
0
100
AcDbBlockEnd
  0
BLOCK
  5
1768D
330
1768E
100
AcDbEntity
  8
0
100
AcDbBlockBegin
  2
*U3
 70
     1
 10
0.0
 20
0.0
 30
0.0
  3
*U3
  1

  0
TEXT
  5
17604
330
1768E
100
AcDbEntity
  8
SUNPOU
100
AcDbText
 10
4893.007034603488
 20
2408.171127544112
 30
0.0
 40
90.0
  1
480
 50
90.0
 41
0.6666666666666666
  7
00
100
AcDbText
  0
ENDBLK
  5
17606
330
1768E
100
AcDbEntity
  8
0
100
AcDbBlockEnd
  0
BLOCK
  5
1768F
330
17690
100
AcDbEntity
  8
0
100
AcDbBlockBegin
  2
*U4
 70
     1
 10
0.0
 20
0.0
 30
0.0
  3
*U4
  1

  0
TEXT
  5
17608
330
17690
100
AcDbEntity
  8
SUNPOU
100
AcDbText
 10
3194.714767048873
 20
3556.260118325357
 30
0.0
 40
90.0
  1
770
 41
0.6666666666666666
  7
00
100
AcDbText
  0
ENDBLK
  5
1760A
330
17690
100
AcDbEntity
  8
0
100
AcDbBlockEnd
  0
BLOCK
  5
17691
330
17692
100
AcDbEntity
  8
0
100
AcDbBlockBegin
  2
*U5
 70
     1
 10
0.0
 20
0.0
 30
0.0
  3
*U5
  1

  0
TEXT
  5
1760C
330
17692
100
AcDbEntity
  8
SUNPOU
100
AcDbText
 10
3194.714767048858
 20
1615.89849823215
 30
0.0
 40
90.0
  1
290
 41
0.6666666666666666
  7
00
100
AcDbText
  0
ENDBLK
  5
1760E
330
17692
100
AcDbEntity
  8
0
100
AcDbBlockEnd
  0
BLOCK
  5
17693
330
17694
100
AcDbEntity
  8
0
100
AcDbBlockBegin
  2
*U6
 70
     1
 10
0.0
 20
0.0
 30
0.0
  3
*U6
  1

  0
TEXT
  5
17610
330
17694
100
AcDbEntity
  8
SUNPOU
100
AcDbText
 10
7381.734633614097
 20
1405.89849823215
 30
0.0
 40
90.0
  1
1290
 41
0.6666666666666666
  7
00
100
AcDbText
  0
ENDBLK
  5
17612
330
17694
100
AcDbEntity
  8
0
100
AcDbBlockEnd
  0
BLOCK
  5
17695
330
17696
100
AcDbEntity
  8
0
100
AcDbBlockBegin
  2
*U7
 70
     1
 10
0.0
 20
0.0
 30
0.0
  3
*U7
  1

  0
TEXT
  5
17614
330
17696
100
AcDbEntity
  8
SUNPOU
100
AcDbText
 10
7414.59177647124
 20
1615.89849823215
 30
0.0
 40
90.0
  1
770
 41
0.6666666666666666
  7
00
100
AcDbText
  0
ENDBLK
  5
17616
330
17696
100
AcDbEntity
  8
0
100
AcDbBlockEnd
  0
BLOCK
  5
17697
330
17698
100
AcDbEntity
  8
0
100
AcDbBlockBegin
  2
*U8
 70
     1
 10
0.0
 20
0.0
 30
0.0
  3
*U8
  1

  0
TEXT
  5
17618
330
17698
100
AcDbEntity
  8
SUNPOU
100
AcDbText
 10
9148.171970751356
 20
2405.618908356616
 30
0.0
 40
90.0
  1
800
 50
90.0
 41
0.6666666666666666
  7
00
100
AcDbText
  0
ENDBLK
  5
1761A
330
17698
100
AcDbEntity
  8
0
100
AcDbBlockEnd
  0
BLOCK
  5
17699
330
1769A
100
AcDbEntity
  8
0
100
AcDbBlockBegin
  2
*U9
 70
     1
 10
0.0
 20
0.0
 30
0.0
  3
*U9
  1

  0
TEXT
  5
1761C
330
1769A
100
AcDbEntity
  8
SUNPOU
100
AcDbText
 10
8938.171970751353
 20
2405.618908356616
 30
0.0
 40
90.0
  1
480
 50
90.0
 41
0.6666666666666666
  7
00
100
AcDbText
  0
ENDBLK
  5
1761E
330
1769A
100
AcDbEntity
  8
0
100
AcDbBlockEnd
  0
BLOCK
  5
1769B
330
1769C
100
AcDbEntity
  8
0
100
AcDbBlockBegin
  2
*U10
 70
     1
 10
0.0
 20
0.0
 30
0.0
  3
*U10
  1

  0
TEXT
  5
17620
330
1769C
100
AcDbEntity
  8
SUNPOU
100
AcDbText
 10
3826.714767048869
 20
1615.89849823215
 30
0.0
 40
90.0
  1
500
 41
0.6666666666666666
  7
00
100
AcDbText
  0
ENDBLK
  5
17622
330
1769C
100
AcDbEntity
  8
0
100
AcDbBlockEnd
  0
BLOCK
  5
1769D
330
1769E
100
AcDbEntity
  8
0
100
AcDbBlockBegin
  2
*U11
 70
     1
 10
0.0
 20
0.0
 30
0.0
  3
*U11
  1

  0
TEXT
  5
17624
330
1769E
100
AcDbEntity
  8
SUNPOU
100
AcDbText
 10
2562.714767048865
 20
1615.89849823215
 30
0.0
 40
90.0
  1
500
 41
0.6666666666666666
  7
00
100
AcDbText
  0
ENDBLK
  5
17626
330
1769E
100
AcDbEntity
  8
0
100
AcDbBlockEnd
  0
BLOCK
  5
1769F
330
176A0
100
AcDbEntity
  8
0
100
AcDbBlockBegin
  2
*U12
 70
     1
 10
0.0
 20
0.0
 30
0.0
  3
*U12
  1

  0
TEXT
  5
17628
330
176A0
100
AcDbEntity
  8
SUNPOU
100
AcDbText
 10
3161.857624191732
 20
1405.89849823215
 30
0.0
 40
90.0
  1
1290
 41
0.6666666666666666
  7
00
100
AcDbText
  0
ENDBLK
  5
1762A
330
176A0
100
AcDbEntity
  8
0
100
AcDbBlockEnd
  0
BLOCK
  5
176A1
330
176A2
100
AcDbEntity
  8
0
100
AcDbBlockBegin
  2
*U13
 70
     1
 10
0.0
 20
0.0
 30
0.0
  3
*U13
  1

  0
TEXT
  5
1762C
330
176A2
100
AcDbEntity
  8
SUNPOU
100
AcDbText
 10
5103.007034603489
 20
1642.028270401257
 30
0.0
 40
90.0
  1
100
 50
90.0
 41
0.6666666666666666
  7
00
100
AcDbText
  0
ENDBLK
  5
1762E
330
176A2
100
AcDbEntity
  8
0
100
AcDbBlockEnd
  0
BLOCK
  5
176A3
330
176A4
100
AcDbEntity
  8
0
100
AcDbBlockBegin
  2
*U14
 70
     1
 10
0.0
 20
0.0
 30
0.0
  3
*U14
  1

  0
TEXT
  5
17630
330
176A4
100
AcDbEntity
  8
SUNPOU
100
AcDbText
 10
5320.630199058618
 20
2012.742556115539
 30
0.0
 40
90.0
  1
50
 50
90.0
 41
0.6666666666666666
  7
00
100
AcDbText
  0
ENDBLK
  5
17632
330
176A4
100
AcDbEntity
  8
0
100
AcDbBlockEnd
  0
BLOCK
  5
176A5
330
176A6
100
AcDbEntity
  8
0
100
AcDbBlockBegin
  2
*U15
 70
     1
 10
0.0
 20
0.0
 30
0.0
  3
*U15
  1

  0
TEXT
  5
17634
330
176A6
100
AcDbEntity
  8
SUNPOU
100
AcDbText
 10
9607.868205983134
 20
5226.803332601655
 30
0.0
 40
90.0
  1
400
 41
0.6666666666666666
  7
00
100
AcDbText
  0
ENDBLK
  5
17636
330
176A6
100
AcDbEntity
  8
0
100
AcDbBlockEnd
  0
BLOCK
  5
176A7
330
176A8
100
AcDbEntity
  8
0
100
AcDbBlockBegin
  2
*U16
 70
     1
 10
0.0
 20
0.0
 30
0.0
  3
*U16
  1

  0
TEXT
  5
17638
330
176A8
100
AcDbEntity
  8
SUNPOU
100
AcDbText
 10
6407.868205983135
 20
5226.803332601655
 30
0.0
 40
90.0
  1
400
 41
0.6666666666666666
  7
00
100
AcDbText
  0
ENDBLK
  5
1763A
330
176A8
100
AcDbEntity
  8
0
100
AcDbBlockEnd
  0
ENDSEC
  0
SECTION
  2
ENTITIES
  0
TEXT
  5
12D59
330
17656
100
AcDbEntity
  8
NAME
100
AcDbText
 10
12303.32857318295
 20
1055.0
 30
0.0
 40
120.0
  1
Y O R
 41
0.6666666666666666
  7
00
100
AcDbText
  0
TEXT
  5
12D5A
330
17656
100
AcDbEntity
  8
NAME
100
AcDbText
 10
11227.73587134625
 20
1055.0
 30
0.0
 40
120.0
  1
ヨド自転車置場　　　 型
  7
01
100
AcDbText
  0
TEXT
  5
12D5B
330
17656
100
AcDbEntity
  8
NAME
100
AcDbText
 10
11656.07508082364
 20
875.0
 30
0.0
 40
120.0
  1
背合せタイプ
  7
01
 72
     4
 11
12072.07508082364
 21
935.0
 31
0.0
100
AcDbText
  0
TEXT
  5
12DBA
330
17656
100
AcDbEntity
  8
NAME
100
AcDbText
 10
12854.79999999999
 20
541.0000000000001
 30
0.0
 40
160.0
  1
<3／3>
 41
0.6
  7
01
 72
     2
 11
13354.0
 21
541.0000000000001
 31
0.0
100
AcDbText
  0
TEXT
  5
12DBB
330
17656
100
AcDbEntity
  8
NAME
100
AcDbText
 10
10896.04264730428
 20
541.0
 30
0.0
 40
160.0
  1
YOR-280B
 41
0.7
  7
01
 72
     2
 11
11776.04264730429
 21
541.0
 31
0.0
100
AcDbText
  0
TEXT
  5
12DBC
330
17656
100
AcDbEntity
  8
NAME
100
AcDbText
 10
11816.04264730429
 20
541.0
 30
0.0
 40
160.0
  1
型（一般地用）
 41
0.8
  7
01
100
AcDbText
  0
TEXT
  5
15447
330
17656
100
AcDbEntity
  8
HIKIDASHI
100
AcDbText
 10
7236.346778466941
 20
4871.468211112027
 30
0.0
 40
135.0
  1
基 礎 平 面 図　 縮尺
  7
01
 72
     4
 11
8068.846778466941
 21
4938.968211112027
 31
0.0
100
AcDbText
  0
LINE
  5
15455
330
17656
100
AcDbEntity
  8
SUNPOU
100
AcDbLine
 10
5843.582491697421
 20
7616.803332601655
 30
0.0
 11
5843.582491697421
 21
5646.803332601656
 31
0.0
  0
LINE
  5
154BE
330
17656
100
AcDbEntity
  8
SUNPOU
100
AcDbLine
 10
6263.58249169742
 20
5631.803332601656
 30
0.0
 11
5813.58249169742
 21
5631.803332601656
 31
0.0
  0
TEXT
  5
15525
330
17656
100
AcDbEntity
  8
HIKIDASHI
100
AcDbText
 10
7591.947069530677
 20
5788.254060220314
 30
0.0
 40
90.0
  1
（鼻隠し外面）
  7
01
100
AcDbText
  0
TEXT
  5
15527
330
17656
100
AcDbEntity
  8
HIKIDASHI
100
AcDbText
 10
7483.300979869142
 20
5496.80333260165
 30
0.0
 40
90.0
  1
（土間コン前面位置）
  7
01
100
AcDbText
  0
LINE
  5
1553F
330
17656
100
AcDbEntity
  8
KISO-1
100
AcDbLine
 10
7093.582491697421
 20
7131.803332601656
 30
0.0
 11
6293.582491697421
 21
7131.803332601656
 31
0.0
  0
LINE
  5
15540
330
17656
100
AcDbEntity
  8
KISO-1
100
AcDbLine
 10
6293.582491697416
 20
8421.803332601658
 30
0.0
 11
7093.582491697417
 21
8421.803332601658
 31
0.0
  0
TEXT
  5
15541
330
17656
100
AcDbEntity
  8
HIKIDASHI
100
AcDbText
 10
6606.781838646188
 20
8901.685084559632
 30
0.0
 40
90.0
  1
（ケラバ外面）
 50
90.0
  7
01
100
AcDbText
  0
TEXT
  5
15542
330
17656
100
AcDbEntity
  8
HIKIDASHI
100
AcDbText
 10
6248.582491697415
 20
8793.038994898097
 30
0.0
 40
90.0
  1
（土間コン側面位置）
 50
90.0
  7
01
100
AcDbText
  0
LINE
  5
15543
330
17656
100
AcDbEntity
  8
SUNPOU
100
AcDbLine
 10
5843.582491697421
 20
9906.803332601658
 30
0.0
 11
5843.582491697421
 21
7936.803332601657
 31
0.0
  0
TEXT
  5
15544
330
17656
100
AcDbEntity
  8
SUNPOU
100
AcDbText
 10
5798.582491697421
 20
8807.517618315944
 30
0.0
 40
90.0
  1
2000
 50
90.0
 41
0.6666666666666666
  7
00
 72
     1
 11
5753.582491697421
 21
8921.803332601658
 31
0.0
100
AcDbText
 73
     2
  0
CIRCLE
  5
15545
330
17656
100
AcDbEntity
  8
KISO-2
100
AcDbCircle
 10
6693.582491697419
 20
7631.803332601656
 30
0.0
 40
44.55
  0
LINE
  5
15547
330
17656
100
AcDbEntity
  8
SIN
100
AcDbLine
 10
6693.582491697416
 20
8488.803332601658
 30
0.0
 11
6693.582491697419
 21
7064.803332601657
 31
0.0
  0
LINE
  5
15548
330
17656
100
AcDbEntity
  8
KISO-1
100
AcDbLine
 10
6293.582491697421
 20
7131.803332601656
 30
0.0
 11
6293.582491697416
 21
8421.803332601658
 31
0.0
  0
TEXT
  5
1554A
330
17656
100
AcDbEntity
  8
SUNPOU
100
AcDbText
 10
5798.582491697421
 20
6517.517618315942
 30
0.0
 40
90.0
  1
2000
 50
90.0
 41
0.6666666666666666
  7
00
 72
     1
 11
5753.582491697421
 21
6631.803332601656
 31
0.0
100
AcDbText
 73
     2
  0
TEXT
  5
1554B
330
17656
100
AcDbEntity
  8
SUNPOU
100
AcDbText
 10
6158.68239156902
 20
6868.231904030226
 30
0.0
 40
90.0
  1
A'
 41
0.6700000000000001
  7
00
 72
     4
 11
6194.575248711878
 21
6921.803332601654
 31
0.0
100
AcDbText
  0
LINE
  5
1554C
330
17656
100
AcDbEntity
  8
SUNPOU
100
AcDbLine
 10
6483.58249169742
 20
6921.803332601655
 30
0.0
 11
6693.582491697419
 21
6921.803332601655
 31
0.0
  0
LINE
  5
1554D
330
17656
100
AcDbEntity
  8
BOLT
100
AcDbLine
 10
6563.58249169742
 20
7531.803332601656
 30
0.0
 11
6623.582491697419
 21
7531.803332601656
 31
0.0
  0
LINE
  5
1554E
330
17656
100
AcDbEntity
  8
SUNPOU
100
AcDbLine
 10
6693.582491697419
 20
6921.803332601657
 30
0.0
 11
6693.582491697419
 21
7071.803332601657
 31
0.0
  0
LINE
  5
1554F
330
17656
100
AcDbEntity
  8
BOLT
100
AcDbLine
 10
6823.582491697419
 20
7531.803332601656
 30
0.0
 11
6763.58249169742
 21
7531.803332601656
 31
0.0
  0
LINE
  5
15550
330
17656
100
AcDbEntity
  8
BOLT
100
AcDbLine
 10
6593.582491697421
 20
7501.803332601657
 30
0.0
 11
6593.582491697421
 21
7561.803332601657
 31
0.0
  0
LINE
  5
15551
330
17656
100
AcDbEntity
  8
BOLT
100
AcDbLine
 10
6793.582491697421
 20
7501.803332601657
 30
0.0
 11
6793.582491697421
 21
7561.803332601657
 31
0.0
  0
LINE
  5
15552
330
17656
100
AcDbEntity
  8
SUNPOU
100
AcDbLine
 10
6544.032491697421
 20
7921.803332601657
 30
0.0
 11
5813.58249169742
 21
7921.803332601657
 31
0.0
  0
LINE
  5
15553
330
17656
100
AcDbEntity
  8
SUNPOU
100
AcDbLine
 10
6544.032491697421
 20
7921.803332601657
 30
0.0
 11
5813.58249169742
 21
7921.803332601657
 31
0.0
  0
LINE
  5
15554
330
17656
100
AcDbEntity
  8
SUNPOU
100
AcDbLine
 10
6544.032491697421
 20
7631.803332601656
 30
0.0
 11
5813.58249169742
 21
7631.803332601656
 31
0.0
  0
LINE
  5
15555
330
17656
100
AcDbEntity
  8
SUNPOU
100
AcDbLine
 10
6544.032491697421
 20
7631.803332601656
 30
0.0
 11
5813.58249169742
 21
7631.803332601656
 31
0.0
  0
TEXT
  5
15556
330
17656
100
AcDbEntity
  8
SUNPOU
100
AcDbText
 10
5798.582491697421
 20
7691.089046887372
 30
0.0
 40
90.0
  1
290
 50
90.0
 41
0.6666666666666666
  7
00
 72
     1
 11
5753.582491697421
 21
7776.803332601656
 31
0.0
100
AcDbText
 73
     2
  0
LINE
  5
15557
330
17656
100
AcDbEntity
  8
SUNPOU
100
AcDbLine
 10
5843.582491697421
 20
7906.803332601656
 30
0.0
 11
5843.582491697421
 21
7646.803332601656
 31
0.0
  0
LINE
  5
15558
330
17656
100
AcDbEntity
  8
BOLT
100
AcDbLine
 10
6563.58249169742
 20
8021.803332601658
 30
0.0
 11
6623.582491697419
 21
8021.803332601658
 31
0.0
  0
LINE
  5
15559
330
17656
100
AcDbEntity
  8
BOLT
100
AcDbLine
 10
6563.58249169742
 20
7821.803332601657
 30
0.0
 11
6623.582491697419
 21
7821.803332601657
 31
0.0
  0
LINE
  5
1555A
330
17656
100
AcDbEntity
  8
BOLT
100
AcDbLine
 10
6563.58249169742
 20
7731.803332601656
 30
0.0
 11
6623.582491697419
 21
7731.803332601656
 31
0.0
  0
LINE
  5
1555C
330
17656
100
AcDbEntity
  8
KISO-3
100
AcDbLine
 10
6453.582491697419
 20
8161.803332601655
 30
0.0
 11
6933.58249169742
 21
8161.803332601655
 31
0.0
  0
CIRCLE
  5
1555D
330
17656
100
AcDbEntity
  8
KISO-2
100
AcDbCircle
 10
6693.582491697419
 20
7921.803332601657
 30
0.0
 40
44.55
  0
LINE
  5
1555E
330
17656
100
AcDbEntity
  8
BOLT
100
AcDbLine
 10
6823.582491697419
 20
7821.803332601657
 30
0.0
 11
6763.58249169742
 21
7821.803332601657
 31
0.0
  0
LINE
  5
1555F
330
17656
100
AcDbEntity
  8
BOLT
100
AcDbLine
 10
6823.582491697419
 20
7731.803332601656
 30
0.0
 11
6763.58249169742
 21
7731.803332601656
 31
0.0
  0
LINE
  5
15560
330
17656
100
AcDbEntity
  8
SIN
100
AcDbLine
 10
6813.13249169742
 20
7631.803332601656
 30
0.0
 11
6574.03249169742
 21
7631.803332601656
 31
0.0
  0
LINE
  5
15561
330
17656
100
AcDbEntity
  8
BOLT
100
AcDbLine
 10
6593.582491697421
 20
7761.803332601657
 30
0.0
 11
6593.582491697421
 21
7701.803332601656
 31
0.0
  0
LINE
  5
15562
330
17656
100
AcDbEntity
  8
BOLT
100
AcDbLine
 10
6793.582491697421
 20
7761.803332601657
 30
0.0
 11
6793.582491697421
 21
7701.803332601656
 31
0.0
  0
LINE
  5
15563
330
17656
100
AcDbEntity
  8
SIN
100
AcDbLine
 10
6813.13249169742
 20
7921.803332601657
 30
0.0
 11
6574.03249169742
 21
7921.803332601657
 31
0.0
  0
LINE
  5
15564
330
17656
100
AcDbEntity
  8
BOLT
100
AcDbLine
 10
6593.582491697421
 20
7791.803332601657
 30
0.0
 11
6593.582491697421
 21
7851.803332601656
 31
0.0
  0
LINE
  5
15565
330
17656
100
AcDbEntity
  8
BOLT
100
AcDbLine
 10
6793.582491697421
 20
7791.803332601657
 30
0.0
 11
6793.582491697421
 21
7851.803332601656
 31
0.0
  0
LINE
  5
15566
330
17656
100
AcDbEntity
  8
BOLT
100
AcDbLine
 10
6823.582491697419
 20
8021.803332601658
 30
0.0
 11
6763.58249169742
 21
8021.803332601658
 31
0.0
  0
LINE
  5
15567
330
17656
100
AcDbEntity
  8
BOLT
100
AcDbLine
 10
6593.582491697421
 20
8051.803332601656
 30
0.0
 11
6593.582491697421
 21
7991.803332601655
 31
0.0
  0
LINE
  5
15568
330
17656
100
AcDbEntity
  8
BOLT
100
AcDbLine
 10
6793.582491697421
 20
8051.803332601656
 30
0.0
 11
6793.582491697421
 21
7991.803332601655
 31
0.0
  0
LINE
  5
15569
330
17656
100
AcDbEntity
  8
SUNPOU
100
AcDbLine
 10
6483.582491697416
 20
8631.803332601657
 30
0.0
 11
6693.582491697416
 21
8631.803332601657
 31
0.0
  0
TEXT
  5
1556A
330
17656
100
AcDbEntity
  8
SUNPOU
100
AcDbText
 10
6168.732391569017
 20
8586.803332601657
 30
0.0
 40
90.0
  1
A
 41
0.6700000000000001
  7
00
 72
     4
 11
6194.575248711874
 21
8631.803332601657
 31
0.0
100
AcDbText
  0
LINE
  5
1556B
330
17656
100
AcDbEntity
  8
SUNPOU
100
AcDbLine
 10
6693.582491697416
 20
8631.803332601657
 30
0.0
 11
6693.582491697416
 21
8481.803332601655
 31
0.0
  0
LINE
  5
1556C
330
17656
100
AcDbEntity
  8
SUNPOU
100
AcDbLine
 10
6263.58249169742
 20
9921.803332601658
 30
0.0
 11
5813.58249169742
 21
9921.803332601658
 31
0.0
  0
LINE
  5
1556D
330
17656
100
AcDbEntity
  8
KISO-1
100
AcDbLine
 10
7093.582491697417
 20
8421.803332601658
 30
0.0
 11
7093.582491697427
 21
7131.803332601656
 31
0.0
  0
TEXT
  5
1558B
330
17656
100
AcDbEntity
  8
HIKIDASHI
100
AcDbText
 10
7591.947069530677
 20
9675.352604982993
 30
0.0
 40
90.0
  1
（鼻隠し外面）
  7
01
100
AcDbText
  0
TEXT
  5
1558C
330
17656
100
AcDbEntity
  8
HIKIDASHI
100
AcDbText
 10
7483.300979869142
 20
9966.803332601658
 30
0.0
 40
90.0
  1
（土間コン後面位置）
  7
01
100
AcDbText
  0
TEXT
  5
155A8
330
17656
100
AcDbEntity
  8
HIKIDASHI
100
AcDbText
 10
8974.337539566469
 20
4881.111068254885
 30
0.0
 40
135.0
  1
=
 41
0.6666666666666666
  7
00
 72
     4
 11
9030.051825280756
 21
4938.968211112027
 31
0.0
100
AcDbText
  0
TEXT
  5
155A9
330
17656
100
AcDbEntity
  8
HIKIDASHI
100
AcDbText
 10
9159.986607623761
 20
4938.882067663231
 30
0.0
 40
67.5
  1
1
 41
0.6666666666666666
  7
00
 72
     4
 11
9178.200893338045
 21
4972.632067663231
 31
0.0
100
AcDbText
  0
LINE
  5
155AA
330
17656
100
AcDbEntity
  8
HIKIDASHI
100
AcDbLine
 10
9292.576511599062
 20
5006.468211112029
 30
0.0
 11
9157.576511599064
 21
4871.468211112027
 31
0.0
  0
TEXT
  5
155AB
330
17656
100
AcDbEntity
  8
HIKIDASHI
100
AcDbText
 10
9243.728574762577
 20
4871.468211112027
 30
0.0
 40
67.5
  1
40
 41
0.6666666666666666
  7
00
 72
     4
 11
9286.58571761972
 21
4905.218211112027
 31
0.0
100
AcDbText
  0
LINE
  5
155B0
330
17656
100
AcDbEntity
  8
KISO-1
100
AcDbLine
 10
9093.582491697425
 20
8421.803332601658
 30
0.0
 11
9893.58249169742
 21
8421.803332601658
 31
0.0
  0
LINE
  5
155B1
330
17656
100
AcDbEntity
  8
KISO-3
100
AcDbLine
 10
9253.58249169742
 20
8161.803332601655
 30
0.0
 11
9733.58249169742
 21
8161.803332601655
 31
0.0
  0
LINE
  5
155B2
330
17656
100
AcDbEntity
  8
HIKIDASHI
100
AcDbLine
 10
9563.136511389542
 20
8073.50480533786
 30
0.0
 11
9187.607135440423
 21
8711.205467163944
 31
0.0
  0
LINE
  5
155B3
330
17656
100
AcDbEntity
  8
HIKIDASHI
100
AcDbLine
 10
9376.406297249804
 20
8079.292273662503
 30
0.0
 11
9187.607135440423
 21
8711.205467163944
 31
0.0
  0
LINE
  5
155B4
330
17656
100
AcDbEntity
  8
SUNPOU
100
AcDbLine
 10
9344.03249169742
 20
7631.803332601656
 30
0.0
 11
8763.582491697427
 21
7631.803332601656
 31
0.0
  0
LINE
  5
155B5
330
17656
100
AcDbEntity
  8
SUNPOU
100
AcDbLine
 10
9344.03249169742
 20
7631.803332601656
 30
0.0
 11
8763.582491697427
 21
7631.803332601656
 31
0.0
  0
LINE
  5
155B6
330
17656
100
AcDbEntity
  8
SUNPOU
100
AcDbLine
 10
9344.03249169742
 20
7921.803332601657
 30
0.0
 11
8763.582491697427
 21
7921.803332601657
 31
0.0
  0
LINE
  5
155B7
330
17656
100
AcDbEntity
  8
SUNPOU
100
AcDbLine
 10
9344.03249169742
 20
7921.803332601657
 30
0.0
 11
8763.582491697427
 21
7921.803332601657
 31
0.0
  0
LINE
  5
155B8
330
17656
100
AcDbEntity
  8
HIKIDASHI
100
AcDbLine
 10
9401.774636515424
 20
7581.896991123779
 30
0.0
 11
9041.346459961692
 21
7372.784926483298
 31
0.0
  0
LINE
  5
155B9
330
17656
100
AcDbEntity
  8
KISO-1
100
AcDbLine
 10
9893.58249169742
 20
7131.803332601656
 30
0.0
 11
9093.582491697429
 21
7131.803332601656
 31
0.0
  0
LINE
  5
155BA
330
17656
100
AcDbEntity
  8
SUNPOU
100
AcDbLine
 10
9878.582491697422
 20
6461.803332601657
 30
0.0
 11
9108.58249169742
 21
6461.803332601657
 31
0.0
  0
LINE
  5
155BB
330
17656
100
AcDbEntity
  8
SUNPOU
100
AcDbLine
 10
9718.58249169742
 20
6671.803332601657
 30
0.0
 11
9268.58249169742
 21
6671.803332601657
 31
0.0
  0
LINE
  5
155BD
330
17656
100
AcDbEntity
  8
HIKIDASHI
100
AcDbLine
 10
9427.110257686724
 20
7841.105472619958
 30
0.0
 11
9041.346459961692
 21
7372.784926483301
 31
0.0
  0
LINE
  5
155DB
330
17656
100
AcDbEntity
  8
KISO-1
100
AcDbLine
 10
9093.582491697429
 20
7131.803332601656
 30
0.0
 11
9093.582491697425
 21
8421.803332601658
 31
0.0
  0
LINE
  5
155DC
330
17656
100
AcDbEntity
  8
SUNPOU
100
AcDbLine
 10
8583.582491697427
 20
7146.803332601656
 30
0.0
 11
8583.582491697427
 21
8406.803332601656
 31
0.0
  0
LINE
  5
155DD
330
17656
100
AcDbEntity
  8
SUNPOU
100
AcDbLine
 10
8793.582491697426
 20
7146.803332601656
 30
0.0
 11
8793.582491697426
 21
7616.803332601655
 31
0.0
  0
LINE
  5
155DE
330
17656
100
AcDbEntity
  8
SUNPOU
100
AcDbLine
 10
9253.58249169742
 20
7361.803332601657
 30
0.0
 11
9253.58249169742
 21
6626.803332601657
 31
0.0
  0
LINE
  5
155DF
330
17656
100
AcDbEntity
  8
SUNPOU
100
AcDbLine
 10
9093.582491697429
 20
7097.226468047498
 30
0.0
 11
9093.582491697429
 21
6416.803332601657
 31
0.0
  0
TEXT
  5
155E0
330
17656
100
AcDbEntity
  8
SUNPOU
100
AcDbText
 10
9083.58249169742
 20
6716.803332601656
 30
0.0
 40
90.0
  1
160
 41
0.6666666666666666
  7
00
 72
     4
 11
9173.58249169742
 21
6761.803332601657
 31
0.0
100
AcDbText
  0
LINE
  5
155E1
330
17656
100
AcDbEntity
  8
SUNPOU
100
AcDbLine
 10
9238.582491697419
 20
6671.803332601657
 30
0.0
 11
9108.58249169742
 21
6671.803332601657
 31
0.0
  0
LINE
  5
155E2
330
17656
100
AcDbEntity
  8
SUNPOU
100
AcDbLine
 10
9063.582491697429
 20
7131.803332601656
 30
0.0
 11
8553.582491697429
 21
7131.803332601656
 31
0.0
  0
LINE
  5
155E3
330
17656
100
AcDbEntity
  8
SUNPOU
100
AcDbLine
 10
8763.582491697427
 20
7131.803332601656
 30
0.0
 11
8763.582491697427
 21
7131.803332601656
 31
0.0
  0
TEXT
  5
155E4
330
17656
100
AcDbEntity
  8
SUNPOU
100
AcDbText
 10
8748.58249169743
 20
7296.089046887371
 30
0.0
 40
90.0
  1
500
 50
90.0
 41
0.6666666666666666
  7
00
 72
     1
 11
8703.58249169743
 21
7381.803332601656
 31
0.0
100
AcDbText
 73
     2
  0
LINE
  5
155E5
330
17656
100
AcDbEntity
  8
HIKIDASHI
100
AcDbLine
 10
8925.661351713632
 20
7372.784926483298
 30
0.0
 11
9041.346459961692
 21
7372.784926483298
 31
0.0
  0
TEXT
  5
155E6
330
17656
100
AcDbEntity
  8
HIKIDASHI
100
AcDbText
 10
8935.661351713632
 20
7417.7849264833
 30
0.0
 40
90.0
  1
柱
  7
01
100
AcDbText
  0
TEXT
  5
155E7
330
17656
100
AcDbEntity
  8
HIKIDASHI
100
AcDbText
 10
8237.994635838925
 20
8756.205467163935
 30
0.0
 40
89.55223880597012
  1
W ／
 41
0.6700000000000001
  7
00
100
AcDbText
  0
LINE
  5
155E8
330
17656
100
AcDbEntity
  8
HIKIDASHI
100
AcDbLine
 10
7443.379896285009
 20
8711.205467163937
 30
0.0
 11
9187.60713544043
 21
8711.205467163937
 31
0.0
  0
TEXT
  5
155E9
330
17656
100
AcDbEntity
  8
HIKIDASHI
100
AcDbText
 10
7477.657581233541
 20
8756.205467163935
 30
0.0
 40
90.00009018009018
  1
アンカーボルト
  7
01
100
AcDbText
  0
TEXT
  5
155EA
330
17656
100
AcDbEntity
  8
HIKIDASHI
100
AcDbText
 10
8312.595446522143
 20
8782.635076802833
 30
0.0
 40
67.16417910447761
  1
1
 41
0.6700000000000001
  7
00
100
AcDbText
  0
LINE
  5
155EB
330
17656
100
AcDbEntity
  8
SUNPOU
100
AcDbLine
 10
8793.582491697426
 20
7936.803332601657
 30
0.0
 11
8793.582491697426
 21
8406.803332601656
 31
0.0
  0
TEXT
  5
155EC
330
17656
100
AcDbEntity
  8
SUNPOU
100
AcDbText
 10
8538.582491697427
 20
7658.231904030228
 30
0.0
 40
90.0
  1
1290
 50
90.0
 41
0.6666666666666666
  7
00
 72
     1
 11
8493.582491697427
 21
7776.803332601656
 31
0.0
100
AcDbText
 73
     2
  0
LINE
  5
155ED
330
17656
100
AcDbEntity
  8
SUNPOU
100
AcDbLine
 10
8793.582491697426
 20
7646.803332601656
 30
0.0
 11
8793.582491697426
 21
7906.803332601656
 31
0.0
  0
TEXT
  5
155EE
330
17656
100
AcDbEntity
  8
SUNPOU
100
AcDbText
 10
8748.58249169743
 20
7691.089046887372
 30
0.0
 40
90.0
  1
290
 50
90.0
 41
0.6666666666666666
  7
00
 72
     1
 11
8703.58249169743
 21
7776.803332601656
 31
0.0
100
AcDbText
 73
     2
  0
TEXT
  5
155EF
330
17656
100
AcDbEntity
  8
SUNPOU
100
AcDbText
 10
8748.58249169743
 20
8086.089046887371
 30
0.0
 40
90.0
  1
500
 50
90.0
 41
0.6666666666666666
  7
00
 72
     1
 11
8703.58249169743
 21
8171.803332601658
 31
0.0
100
AcDbText
 73
     2
  0
TEXT
  5
155F0
330
17656
100
AcDbEntity
  8
HIKIDASHI
100
AcDbText
 10
8795.17795348608
 20
8756.205467163935
 30
0.0
 40
90.00009018009018
  1
（別途）
  7
01
100
AcDbText
  0
LINE
  5
155F1
330
17656
100
AcDbEntity
  8
SUNPOU
100
AcDbLine
 10
9063.582491697422
 20
8421.803332601658
 30
0.0
 11
8553.582491697429
 21
8421.803332601658
 31
0.0
  0
LINE
  5
155F2
330
17656
100
AcDbEntity
  8
SUNPOU
100
AcDbLine
 10
8763.582491697427
 20
8421.803332601658
 30
0.0
 11
8763.582491697427
 21
8421.803332601658
 31
0.0
  0
TEXT
  5
155F3
330
17656
100
AcDbEntity
  8
HIKIDASHI
100
AcDbText
 10
8553.457799424581
 20
8755.996480963846
 30
0.0
 40
89.55223880597012
  1
400
 41
0.6700000000000001
  7
00
100
AcDbText
  0
TEXT
  5
155F4
330
17656
100
AcDbEntity
  8
HIKIDASHI
100
AcDbText
 10
8472.322420271449
 20
8767.399497014684
 30
0.0
 40
89.55223880597012
  1
x
 41
0.6700000000000001
  7
00
100
AcDbText
  0
TEXT
  5
155F5
330
17656
100
AcDbEntity
  8
HIKIDASHI
100
AcDbText
 10
8400.487483081073
 20
8755.609021772269
 30
0.0
 40
67.16417910447761
  1
2
 41
0.6700000000000001
  7
00
100
AcDbText
  0
TEXT
  5
155F7
330
17656
100
AcDbEntity
  8
HIKIDASHI
100
AcDbText
 10
10028.58249169742
 20
8633.98650707332
 30
0.0
 40
90.0
  1
（土間コン側面位置）
 50
90.0
  7
01
100
AcDbText
  0
TEXT
  5
155F8
330
17656
100
AcDbEntity
  8
HIKIDASHI
100
AcDbText
 10
9670.383144748647
 20
8742.632596734855
 30
0.0
 40
90.0
  1
（ケラバ外面）
 50
90.0
  7
01
100
AcDbText
  0
LINE
  5
155F9
330
17656
100
AcDbEntity
  8
SUNPOU
100
AcDbLine
 10
10343.58249169742
 20
7716.803332601656
 30
0.0
 11
10343.58249169742
 21
7546.803332601657
 31
0.0
  0
TEXT
  5
155FA
330
17656
100
AcDbEntity
  8
SUNPOU
100
AcDbText
 10
10298.58249169742
 20
7529.632120444263
 30
0.0
 40
90.0
  1
200
 50
90.0
 41
0.6666666666666666
  7
00
 72
     4
 11
10253.58249169741
 21
7615.346406158548
 31
0.0
100
AcDbText
  0
LINE
  5
155FB
330
17656
100
AcDbEntity
  8
SUNPOU
100
AcDbLine
 10
10553.58249169741
 20
7406.803332601656
 30
0.0
 11
10553.58249169741
 21
8146.803332601658
 31
0.0
  0
LINE
  5
155FD
330
17656
100
AcDbEntity
  8
SIN
100
AcDbLine
 10
9493.58249169742
 20
8488.803332601658
 30
0.0
 11
9493.58249169742
 21
7064.803332601657
 31
0.0
  0
CIRCLE
  5
155FF
330
17656
100
AcDbEntity
  8
KISO-2
100
AcDbCircle
 10
9493.58249169742
 20
7631.803332601656
 30
0.0
 40
44.55
  0
LINE
  5
15600
330
17656
100
AcDbEntity
  8
KISO-1
100
AcDbLine
 10
9893.58249169742
 20
8421.803332601658
 30
0.0
 11
9893.582491697429
 21
7131.803332601656
 31
0.0
  0
LINE
  5
15601
330
17656
100
AcDbEntity
  8
SUNPOU
100
AcDbLine
 10
9653.58249169742
 20
7531.803332601656
 30
0.0
 11
10388.58249169742
 21
7531.803332601656
 31
0.0
  0
LINE
  5
15602
330
17656
100
AcDbEntity
  8
SUNPOU
100
AcDbLine
 10
9923.58249169742
 20
7131.803332601656
 30
0.0
 11
10583.58249169742
 21
7131.803332601656
 31
0.0
  0
LINE
  5
15603
330
17656
100
AcDbEntity
  8
SUNPOU
100
AcDbLine
 10
9763.58249169742
 20
7391.803332601657
 30
0.0
 11
10583.58249169742
 21
7391.803332601657
 31
0.0
  0
LINE
  5
15604
330
17656
100
AcDbEntity
  8
SUNPOU
100
AcDbLine
 10
9763.58249169742
 20
7391.803332601657
 30
0.0
 11
10583.58249169742
 21
7391.803332601657
 31
0.0
  0
LINE
  5
15605
330
17656
100
AcDbEntity
  8
SUNPOU
100
AcDbLine
 10
9393.58249169742
 20
7471.803332601656
 30
0.0
 11
9393.58249169742
 21
6836.803332601657
 31
0.0
  0
LINE
  5
15606
330
17656
100
AcDbEntity
  8
SUNPOU
100
AcDbLine
 10
9593.58249169742
 20
7471.803332601656
 30
0.0
 11
9593.58249169742
 21
6836.803332601657
 31
0.0
  0
LINE
  5
15607
330
17656
100
AcDbEntity
  8
SUNPOU
100
AcDbLine
 10
9733.58249169742
 20
7361.803332601657
 30
0.0
 11
9733.58249169742
 21
6626.803332601657
 31
0.0
  0
LINE
  5
15608
330
17656
100
AcDbEntity
  8
SUNPOU
100
AcDbLine
 10
9878.582491697422
 20
6671.803332601657
 30
0.0
 11
9748.582491697419
 21
6671.803332601657
 31
0.0
  0
TEXT
  5
15609
330
17656
100
AcDbEntity
  8
SUNPOU
100
AcDbText
 10
9723.58249169742
 20
6716.803332601656
 30
0.0
 40
90.0
  1
160
 41
0.6666666666666666
  7
00
 72
     4
 11
9813.58249169742
 21
6761.803332601657
 31
0.0
100
AcDbText
  0
TEXT
  5
1560A
330
17656
100
AcDbEntity
  8
SUNPOU
100
AcDbText
 10
9407.868205983133
 20
6506.803332601659
 30
0.0
 40
90.0
  1
800
 41
0.6666666666666666
  7
00
 72
     1
 11
9493.58249169742
 21
6551.803332601659
 31
0.0
100
AcDbText
 73
     2
  0
TEXT
  5
1560B
330
17656
100
AcDbEntity
  8
SUNPOU
100
AcDbText
 10
9407.868205983133
 20
6716.803332601656
 30
0.0
 40
90.0
  1
480
 41
0.6666666666666666
  7
00
 72
     1
 11
9493.58249169742
 21
6761.803332601657
 31
0.0
100
AcDbText
 73
     2
  0
LINE
  5
1560C
330
17656
100
AcDbEntity
  8
SUNPOU
100
AcDbLine
 10
9493.58249169742
 20
6654.374481988655
 30
0.0
 11
9493.58249169742
 21
6626.803332601657
 31
0.0
  0
LINE
  5
1560D
330
17656
100
AcDbEntity
  8
SUNPOU
100
AcDbLine
 10
9578.582491697423
 20
6881.803332601656
 30
0.0
 11
9408.582491697421
 21
6881.803332601656
 31
0.0
  0
LINE
  5
1560E
330
17656
100
AcDbEntity
  8
SUNPOU
100
AcDbLine
 10
9493.58249169742
 20
6857.888740909347
 30
0.0
 11
9493.58249169742
 21
6836.803332601657
 31
0.0
  0
TEXT
  5
1560F
330
17656
100
AcDbEntity
  8
SUNPOU
100
AcDbText
 10
9407.868205983133
 20
6926.803332601656
 30
0.0
 40
90.0
  1
200
 41
0.6666666666666666
  7
00
 72
     1
 11
9493.58249169742
 21
6971.803332601656
 31
0.0
100
AcDbText
 73
     2
  0
LINE
  5
15610
330
17656
100
AcDbEntity
  8
BOLT
100
AcDbLine
 10
9623.582491697419
 20
7531.803332601656
 30
0.0
 11
9563.58249169742
 21
7531.803332601656
 31
0.0
  0
LINE
  5
15611
330
17656
100
AcDbEntity
  8
BOLT
100
AcDbLine
 10
9363.582491697419
 20
7531.803332601656
 30
0.0
 11
9423.58249169742
 21
7531.803332601656
 31
0.0
  0
LINE
  5
15612
330
17656
100
AcDbEntity
  8
BOLT
100
AcDbLine
 10
9393.58249169742
 20
7501.803332601657
 30
0.0
 11
9393.58249169742
 21
7561.803332601657
 31
0.0
  0
LINE
  5
15613
330
17656
100
AcDbEntity
  8
BOLT
100
AcDbLine
 10
9593.58249169742
 20
7501.803332601657
 30
0.0
 11
9593.58249169742
 21
7561.803332601657
 31
0.0
  0
TEXT
  5
15614
330
17656
100
AcDbEntity
  8
SUNPOU
100
AcDbText
 10
10298.58249169742
 20
7206.653264515877
 30
0.0
 40
90.0
  1
140
 50
90.0
 41
0.6666666666666666
  7
00
 72
     4
 11
10253.58249169741
 21
7296.653264515876
 31
0.0
100
AcDbText
  0
LINE
  5
15615
330
17656
100
AcDbEntity
  8
SUNPOU
100
AcDbLine
 10
10553.58249169741
 20
7146.803332601656
 30
0.0
 11
10553.58249169741
 21
7376.803332601657
 31
0.0
  0
LINE
  5
15616
330
17656
100
AcDbEntity
  8
SUNPOU
100
AcDbLine
 10
10343.58249169742
 20
7391.803332601657
 30
0.0
 11
10343.58249169742
 21
7213.834590193821
 31
0.0
  0
TEXT
  5
15617
330
17656
100
AcDbEntity
  8
SUNPOU
100
AcDbText
 10
10508.58249169742
 20
7176.089046887371
 30
0.0
 40
90.0
  1
260
 50
90.0
 41
0.6666666666666666
  7
00
 72
     1
 11
10463.58249169742
 21
7261.803332601657
 31
0.0
100
AcDbText
 73
     2
  0
LINE
  5
15618
330
17656
100
AcDbEntity
  8
SUNPOU
100
AcDbLine
 10
10343.58249169742
 20
7516.803332601657
 30
0.0
 11
10343.58249169742
 21
7406.803332601656
 31
0.0
  0
LINE
  5
15619
330
17656
100
AcDbEntity
  8
SUNPOU
100
AcDbLine
 10
9763.58249169742
 20
8161.803332601655
 30
0.0
 11
10583.58249169742
 21
8161.803332601655
 31
0.0
  0
LINE
  5
1561A
330
17656
100
AcDbEntity
  8
SUNPOU
100
AcDbLine
 10
9763.58249169742
 20
8161.803332601655
 30
0.0
 11
10583.58249169742
 21
8161.803332601655
 31
0.0
  0
LINE
  5
1561B
330
17656
100
AcDbEntity
  8
SUNPOU
100
AcDbLine
 10
9923.58249169742
 20
8421.803332601658
 30
0.0
 11
10583.58249169742
 21
8421.803332601658
 31
0.0
  0
LINE
  5
1561C
330
17656
100
AcDbEntity
  8
SUNPOU
100
AcDbLine
 10
9653.58249169742
 20
8021.803332601654
 30
0.0
 11
10388.58249169742
 21
8021.803332601654
 31
0.0
  0
TEXT
  5
1561D
330
17656
100
AcDbEntity
  8
SUNPOU
100
AcDbText
 10
10298.58249169742
 20
8166.953400687438
 30
0.0
 40
90.0
  1
140
 50
90.0
 41
0.6666666666666666
  7
00
 72
     4
 11
10253.58249169741
 21
8256.953400687438
 31
0.0
100
AcDbText
  0
LINE
  5
1561E
330
17656
100
AcDbEntity
  8
SUNPOU
100
AcDbLine
 10
9653.58249169742
 20
7731.803332601656
 30
0.0
 11
10185.1523808392
 21
7731.803332601656
 31
0.0
  0
LINE
  5
1561F
330
17656
100
AcDbEntity
  8
SUNPOU
100
AcDbLine
 10
9653.58249169742
 20
7821.803332601657
 30
0.0
 11
10185.1523808392
 21
7821.803332601657
 31
0.0
  0
CIRCLE
  5
15620
330
17656
100
AcDbEntity
  8
KISO-2
100
AcDbCircle
 10
9493.58249169742
 20
7921.803332601657
 30
0.0
 40
44.55
  0
LINE
  5
15622
330
17656
100
AcDbEntity
  8
BOLT
100
AcDbLine
 10
9623.582491697419
 20
7821.803332601657
 30
0.0
 11
9563.58249169742
 21
7821.803332601657
 31
0.0
  0
LINE
  5
15623
330
17656
100
AcDbEntity
  8
BOLT
100
AcDbLine
 10
9623.582491697419
 20
7731.803332601656
 30
0.0
 11
9563.58249169742
 21
7731.803332601656
 31
0.0
  0
LINE
  5
15624
330
17656
100
AcDbEntity
  8
SIN
100
AcDbLine
 10
9613.132491697426
 20
7631.803332601656
 30
0.0
 11
9374.03249169742
 21
7631.803332601656
 31
0.0
  0
LINE
  5
15625
330
17656
100
AcDbEntity
  8
SIN
100
AcDbLine
 10
9613.132491697426
 20
7921.803332601657
 30
0.0
 11
9374.03249169742
 21
7921.803332601657
 31
0.0
  0
LINE
  5
15626
330
17656
100
AcDbEntity
  8
BOLT
100
AcDbLine
 10
9363.582491697419
 20
7731.803332601656
 30
0.0
 11
9423.58249169742
 21
7731.803332601656
 31
0.0
  0
LINE
  5
15627
330
17656
100
AcDbEntity
  8
BOLT
100
AcDbLine
 10
9393.58249169742
 20
7761.803332601657
 30
0.0
 11
9393.58249169742
 21
7701.803332601656
 31
0.0
  0
LINE
  5
15629
330
17656
100
AcDbEntity
  8
BOLT
100
AcDbLine
 10
9363.582491697419
 20
7821.803332601657
 30
0.0
 11
9423.58249169742
 21
7821.803332601657
 31
0.0
  0
LINE
  5
1562A
330
17656
100
AcDbEntity
  8
BOLT
100
AcDbLine
 10
9393.58249169742
 20
7791.803332601657
 30
0.0
 11
9393.58249169742
 21
7851.803332601656
 31
0.0
  0
LINE
  5
1562B
330
17656
100
AcDbEntity
  8
BOLT
100
AcDbLine
 10
9593.58249169742
 20
7761.803332601657
 30
0.0
 11
9593.58249169742
 21
7701.803332601656
 31
0.0
  0
LINE
  5
1562C
330
17656
100
AcDbEntity
  8
BOLT
100
AcDbLine
 10
9593.58249169742
 20
7791.803332601657
 30
0.0
 11
9593.58249169742
 21
7851.803332601656
 31
0.0
  0
LINE
  5
1562E
330
17656
100
AcDbEntity
  8
BOLT
100
AcDbLine
 10
9623.582491697419
 20
8021.803332601658
 30
0.0
 11
9563.58249169742
 21
8021.803332601658
 31
0.0
  0
LINE
  5
15630
330
17656
100
AcDbEntity
  8
BOLT
100
AcDbLine
 10
9363.582491697419
 20
8021.803332601658
 30
0.0
 11
9423.58249169742
 21
8021.803332601658
 31
0.0
  0
LINE
  5
15631
330
17656
100
AcDbEntity
  8
BOLT
100
AcDbLine
 10
9393.58249169742
 20
8051.803332601656
 30
0.0
 11
9393.58249169742
 21
7991.803332601655
 31
0.0
  0
LINE
  5
15632
330
17656
100
AcDbEntity
  8
BOLT
100
AcDbLine
 10
9593.58249169742
 20
8051.803332601656
 30
0.0
 11
9593.58249169742
 21
7991.803332601655
 31
0.0
  0
TEXT
  5
15633
330
17656
100
AcDbEntity
  8
SUNPOU
100
AcDbText
 10
10298.58249169742
 20
7847.06033809785
 30
0.0
 40
90.0
  1
200
 50
90.0
 41
0.6666666666666666
  7
00
 72
     4
 11
10253.58249169741
 21
7932.774623812135
 31
0.0
100
AcDbText
  0
TEXT
  5
15634
330
17656
100
AcDbEntity
  8
SUNPOU
100
AcDbText
 10
10298.58249169742
 20
7719.633759315884
 30
0.0
 40
90.0
  1
90
 50
90.0
 41
0.6666666666666666
  7
00
 72
     4
 11
10253.58249169741
 21
7776.776616458741
 31
0.0
100
AcDbText
  0
LINE
  5
15635
330
17656
100
AcDbEntity
  8
SUNPOU
100
AcDbLine
 10
10553.58249169741
 20
8176.803332601656
 30
0.0
 11
10553.58249169741
 21
8406.803332601656
 31
0.0
  0
TEXT
  5
15636
330
17656
100
AcDbEntity
  8
SUNPOU
100
AcDbText
 10
10508.58249169742
 20
8206.08904688737
 30
0.0
 40
90.0
  1
260
 50
90.0
 41
0.6666666666666666
  7
00
 72
     1
 11
10463.58249169742
 21
8291.803332601658
 31
0.0
100
AcDbText
 73
     2
  0
LINE
  5
15637
330
17656
100
AcDbEntity
  8
SUNPOU
100
AcDbLine
 10
10343.58249169742
 20
8161.803332601657
 30
0.0
 11
10343.58249169742
 21
8339.772075009497
 31
0.0
  0
LINE
  5
15638
330
17656
100
AcDbEntity
  8
SUNPOU
100
AcDbLine
 10
10343.58249169742
 20
7836.803332601657
 30
0.0
 11
10343.58249169742
 21
8006.803332601656
 31
0.0
  0
LINE
  5
15639
330
17656
100
AcDbEntity
  8
SUNPOU
100
AcDbLine
 10
10343.58249169742
 20
7821.803332601657
 30
0.0
 11
10343.58249169742
 21
7731.803332601656
 31
0.0
  0
TEXT
  5
1563A
330
17656
100
AcDbEntity
  8
SUNPOU
100
AcDbText
 10
10508.58249169742
 20
7691.089046887372
 30
0.0
 40
90.0
  1
770
 50
90.0
 41
0.6666666666666666
  7
00
 72
     1
 11
10463.58249169742
 21
7776.803332601656
 31
0.0
100
AcDbText
 73
     2
  0
LINE
  5
1563B
330
17656
100
AcDbEntity
  8
SUNPOU
100
AcDbLine
 10
10320.55334450927
 20
7731.803332601656
 30
0.0
 11
10388.58249169742
 21
7731.803332601656
 31
0.0
  0
LINE
  5
1563C
330
17656
100
AcDbEntity
  8
SUNPOU
100
AcDbLine
 10
10320.55334450927
 20
7821.803332601657
 30
0.0
 11
10388.58249169742
 21
7821.803332601657
 31
0.0
  0
LINE
  5
1563D
330
17656
100
AcDbEntity
  8
SUNPOU
100
AcDbLine
 10
10343.58249169742
 20
8036.803332601657
 30
0.0
 11
10343.58249169742
 21
8146.803332601658
 31
0.0
  0
LINE
  5
1565F
330
17656
100
AcDbEntity
  8
SUNPOU
100
AcDbLine
 10
5843.582491697421
 20
5643.053332601656
 30
0.0
 11
5843.582491697421
 21
5654.303332601656
 31
0.0
  0
LINE
  5
15689
330
17656
100
AcDbEntity
  8
SUNPOU
100
AcDbLine
 10
6483.58249169742
 20
6906.803332601654
 30
0.0
 11
6393.582491697419
 21
6921.803332601655
 31
0.0
  0
LINE
  5
1568A
330
17656
100
AcDbEntity
  8
SUNPOU
100
AcDbLine
 10
6393.582491697419
 20
6921.803332601655
 30
0.0
 11
6483.58249169742
 21
6936.803332601654
 31
0.0
  0
SOLID
  5
1568B
330
17656
100
AcDbEntity
  8
SUNPOU
100
AcDbTrace
 10
6483.58249169742
 20
6906.803332601654
 30
0.0
 11
6483.58249169742
 21
6936.803332601654
 31
0.0
 12
6393.582491697419
 22
6921.803332601655
 32
0.0
 13
6393.582491697419
 23
6921.803332601655
 33
0.0
  0
LINE
  5
1568C
330
17656
100
AcDbEntity
  8
SUNPOU
100
AcDbLine
 10
6483.58249169742
 20
6936.803332601654
 30
0.0
 11
6483.58249169742
 21
6906.803332601654
 31
0.0
  0
LINE
  5
1568E
330
17656
100
AcDbEntity
  8
SUNPOU
100
AcDbLine
 10
5843.582491697421
 20
7933.053332601656
 30
0.0
 11
5843.582491697421
 21
7944.303332601656
 31
0.0
  0
LINE
  5
15690
330
17656
100
AcDbEntity
  8
SUNPOU
100
AcDbLine
 10
5843.582491697421
 20
7620.553332601656
 30
0.0
 11
5843.582491697421
 21
7609.303332601657
 31
0.0
  0
LINE
  5
15692
330
17656
100
AcDbEntity
  8
SUNPOU
100
AcDbLine
 10
5843.582491697421
 20
7643.053332601657
 30
0.0
 11
5843.582491697421
 21
7654.303332601656
 31
0.0
  0
LINE
  5
15694
330
17656
100
AcDbEntity
  8
SUNPOU
100
AcDbLine
 10
5843.582491697421
 20
7910.553332601655
 30
0.0
 11
5843.582491697421
 21
7899.303332601657
 31
0.0
  0
LINE
  5
15695
330
17656
100
AcDbEntity
  8
SUNPOU
100
AcDbLine
 10
6483.582491697416
 20
8646.803332601658
 30
0.0
 11
6393.582491697416
 21
8631.803332601657
 31
0.0
  0
LINE
  5
15696
330
17656
100
AcDbEntity
  8
SUNPOU
100
AcDbLine
 10
6393.582491697416
 20
8631.803332601657
 30
0.0
 11
6483.582491697416
 21
8616.80333260166
 31
0.0
  0
SOLID
  5
15697
330
17656
100
AcDbEntity
  8
SUNPOU
100
AcDbTrace
 10
6483.582491697416
 20
8646.803332601658
 30
0.0
 11
6483.582491697416
 21
8616.80333260166
 31
0.0
 12
6393.582491697416
 22
8631.803332601657
 32
0.0
 13
6393.582491697416
 23
8631.803332601657
 33
0.0
  0
LINE
  5
15698
330
17656
100
AcDbEntity
  8
SUNPOU
100
AcDbLine
 10
6483.582491697416
 20
8616.80333260166
 30
0.0
 11
6483.582491697416
 21
8646.803332601658
 31
0.0
  0
LINE
  5
1569A
330
17656
100
AcDbEntity
  8
SUNPOU
100
AcDbLine
 10
5843.582491697421
 20
9910.553332601658
 30
0.0
 11
5843.582491697421
 21
9899.303332601657
 31
0.0
  0
LINE
  5
156B2
330
17656
100
AcDbEntity
  8
SUNPOU
100
AcDbLine
 10
9104.83249169742
 20
6461.803332601657
 30
0.0
 11
9116.082491697419
 21
6461.803332601657
 31
0.0
  0
LINE
  5
156B4
330
17656
100
AcDbEntity
  8
SUNPOU
100
AcDbLine
 10
9104.83249169742
 20
6671.803332601657
 30
0.0
 11
9116.082491697419
 21
6671.803332601657
 31
0.0
  0
LINE
  5
156B6
330
17656
100
AcDbEntity
  8
SUNPOU
100
AcDbLine
 10
9264.83249169742
 20
6671.803332601657
 30
0.0
 11
9276.082491697421
 21
6671.803332601657
 31
0.0
  0
LINE
  5
156B8
330
17656
100
AcDbEntity
  8
SUNPOU
100
AcDbLine
 10
9242.332491697419
 20
6671.803332601657
 30
0.0
 11
9231.082491697419
 21
6671.803332601657
 31
0.0
  0
LINE
  5
156BA
330
17656
100
AcDbEntity
  8
SUNPOU
100
AcDbLine
 10
8583.582491697427
 20
7143.053332601657
 30
0.0
 11
8583.582491697427
 21
7154.303332601656
 31
0.0
  0
LINE
  5
156BC
330
17656
100
AcDbEntity
  8
SUNPOU
100
AcDbLine
 10
8793.582491697426
 20
7143.053332601657
 30
0.0
 11
8793.582491697426
 21
7154.303332601656
 31
0.0
  0
LINE
  5
156BE
330
17656
100
AcDbEntity
  8
SUNPOU
100
AcDbLine
 10
8793.582491697426
 20
7933.053332601656
 30
0.0
 11
8793.582491697426
 21
7944.303332601656
 31
0.0
  0
LINE
  5
156C0
330
17656
100
AcDbEntity
  8
SUNPOU
100
AcDbLine
 10
8793.582491697426
 20
7643.053332601657
 30
0.0
 11
8793.582491697426
 21
7654.303332601656
 31
0.0
  0
LINE
  5
156C2
330
17656
100
AcDbEntity
  8
SUNPOU
100
AcDbLine
 10
8793.582491697426
 20
7620.553332601656
 30
0.0
 11
8793.582491697426
 21
7609.303332601657
 31
0.0
  0
LINE
  5
156C4
330
17656
100
AcDbEntity
  8
SUNPOU
100
AcDbLine
 10
8793.582491697426
 20
7910.553332601655
 30
0.0
 11
8793.582491697426
 21
7899.303332601657
 31
0.0
  0
LINE
  5
156C6
330
17656
100
AcDbEntity
  8
SUNPOU
100
AcDbLine
 10
8583.582491697427
 20
8410.553332601658
 30
0.0
 11
8583.582491697427
 21
8399.303332601656
 31
0.0
  0
LINE
  5
156C8
330
17656
100
AcDbEntity
  8
SUNPOU
100
AcDbLine
 10
8793.582491697426
 20
8410.553332601658
 30
0.0
 11
8793.582491697426
 21
8399.303332601656
 31
0.0
  0
LINE
  5
156CA
330
17656
100
AcDbEntity
  8
SUNPOU
100
AcDbLine
 10
9404.832491697419
 20
6881.803332601656
 30
0.0
 11
9416.082491697419
 21
6881.803332601656
 31
0.0
  0
LINE
  5
156CC
330
17656
100
AcDbEntity
  8
SUNPOU
100
AcDbLine
 10
9582.332491697419
 20
6881.803332601656
 30
0.0
 11
9571.082491697422
 21
6881.803332601656
 31
0.0
  0
LINE
  5
156CE
330
17656
100
AcDbEntity
  8
SUNPOU
100
AcDbLine
 10
9744.832491697422
 20
6671.803332601657
 30
0.0
 11
9756.082491697419
 21
6671.803332601657
 31
0.0
  0
LINE
  5
156D0
330
17656
100
AcDbEntity
  8
SUNPOU
100
AcDbLine
 10
9722.332491697422
 20
6671.803332601657
 30
0.0
 11
9711.082491697419
 21
6671.803332601657
 31
0.0
  0
LINE
  5
156D2
330
17656
100
AcDbEntity
  8
SUNPOU
100
AcDbLine
 10
9882.33249169742
 20
6461.803332601657
 30
0.0
 11
9871.082491697421
 21
6461.803332601657
 31
0.0
  0
LINE
  5
156D4
330
17656
100
AcDbEntity
  8
SUNPOU
100
AcDbLine
 10
9882.33249169742
 20
6671.803332601657
 30
0.0
 11
9871.082491697421
 21
6671.803332601657
 31
0.0
  0
LINE
  5
156D6
330
17656
100
AcDbEntity
  8
SUNPOU
100
AcDbLine
 10
10553.58249169741
 20
7143.053332601657
 30
0.0
 11
10553.58249169741
 21
7154.303332601656
 31
0.0
  0
LINE
  5
156D8
330
17656
100
AcDbEntity
  8
SUNPOU
100
AcDbLine
 10
10343.58249169742
 20
7403.053332601657
 30
0.0
 11
10343.58249169742
 21
7414.303332601656
 31
0.0
  0
LINE
  5
156DA
330
17656
100
AcDbEntity
  8
SUNPOU
100
AcDbLine
 10
10553.58249169741
 20
7403.053332601657
 30
0.0
 11
10553.58249169741
 21
7414.303332601656
 31
0.0
  0
LINE
  5
156DC
330
17656
100
AcDbEntity
  8
SUNPOU
100
AcDbLine
 10
10553.58249169741
 20
7380.553332601657
 30
0.0
 11
10553.58249169741
 21
7369.303332601656
 31
0.0
  0
LINE
  5
156DE
330
17656
100
AcDbEntity
  8
SUNPOU
100
AcDbLine
 10
10343.58249169742
 20
7543.053332601657
 30
0.0
 11
10343.58249169742
 21
7554.303332601657
 31
0.0
  0
LINE
  5
156E0
330
17656
100
AcDbEntity
  8
SUNPOU
100
AcDbLine
 10
10343.58249169742
 20
7520.553332601656
 30
0.0
 11
10343.58249169742
 21
7509.303332601657
 31
0.0
  0
LINE
  5
156E2
330
17656
100
AcDbEntity
  8
SUNPOU
100
AcDbLine
 10
10343.58249169742
 20
7743.053332601657
 30
0.0
 11
10343.58249169742
 21
7754.303332601655
 31
0.0
  0
LINE
  5
156E4
330
17656
100
AcDbEntity
  8
SUNPOU
100
AcDbLine
 10
10343.58249169742
 20
7720.553332601657
 30
0.0
 11
10343.58249169742
 21
7709.303332601656
 31
0.0
  0
LINE
  5
156E6
330
17656
100
AcDbEntity
  8
SUNPOU
100
AcDbLine
 10
10343.58249169742
 20
7833.053332601656
 30
0.0
 11
10343.58249169742
 21
7844.303332601656
 31
0.0
  0
LINE
  5
156E8
330
17656
100
AcDbEntity
  8
SUNPOU
100
AcDbLine
 10
10343.58249169742
 20
7810.553332601656
 30
0.0
 11
10343.58249169742
 21
7799.303332601657
 31
0.0
  0
LINE
  5
156EA
330
17656
100
AcDbEntity
  8
SUNPOU
100
AcDbLine
 10
10343.58249169742
 20
8033.053332601657
 30
0.0
 11
10343.58249169742
 21
8044.303332601655
 31
0.0
  0
LINE
  5
156EC
330
17656
100
AcDbEntity
  8
SUNPOU
100
AcDbLine
 10
10343.58249169742
 20
8010.553332601658
 30
0.0
 11
10343.58249169742
 21
7999.303332601655
 31
0.0
  0
LINE
  5
156EE
330
17656
100
AcDbEntity
  8
SUNPOU
100
AcDbLine
 10
10343.58249169742
 20
8150.553332601658
 30
0.0
 11
10343.58249169742
 21
8139.303332601658
 31
0.0
  0
LINE
  5
156F0
330
17656
100
AcDbEntity
  8
SUNPOU
100
AcDbLine
 10
10553.58249169741
 20
8173.053332601659
 30
0.0
 11
10553.58249169741
 21
8184.303332601658
 31
0.0
  0
LINE
  5
156F2
330
17656
100
AcDbEntity
  8
SUNPOU
100
AcDbLine
 10
10553.58249169741
 20
8150.553332601658
 30
0.0
 11
10553.58249169741
 21
8139.303332601658
 31
0.0
  0
LINE
  5
156F4
330
17656
100
AcDbEntity
  8
SUNPOU
100
AcDbLine
 10
10553.58249169741
 20
8410.553332601658
 30
0.0
 11
10553.58249169741
 21
8399.303332601656
 31
0.0
  0
LINE
  5
15793
330
17656
100
AcDbEntity
  8
U7
100
AcDbLine
 10
6590.706062185525
 20
3019.333194070902
 30
0.0
 11
8409.906062185525
 21
3019.333194070902
 31
0.0
  0
LINE
  5
15794
330
17656
100
AcDbEntity
  8
1PL-M1
100
AcDbLine
 10
8652.306062185529
 20
2491.333194070902
 30
0.0
 11
6348.306062185526
 21
2491.333194070902
 31
0.0
  0
LINE
  5
15796
330
17656
100
AcDbEntity
  8
U7
100
AcDbLine
 10
6580.306062185525
 20
2755.333194070902
 30
0.0
 11
8420.306062185519
 21
2755.333194070902
 31
0.0
  0
LINE
  5
15797
330
17656
100
AcDbEntity
  8
U7
100
AcDbLine
 10
6580.306062185525
 20
2491.333194070902
 30
0.0
 11
8420.306062185519
 21
2491.333194070902
 31
0.0
  0
LINE
  5
15799
330
17656
100
AcDbEntity
  8
U7
100
AcDbLine
 10
2729.191924633934
 20
2894.685413258395
 30
0.0
 11
3831.666180891755
 21
2894.685413258397
 31
0.0
  0
LINE
  5
1579A
330
17656
100
AcDbEntity
  8
U7
100
AcDbLine
 10
2729.191924633934
 20
3054.685413258396
 30
0.0
 11
3831.66618089229
 21
3054.685413258396
 31
0.0
  0
LINE
  5
1579B
330
17656
100
AcDbEntity
  8
U7
100
AcDbLine
 10
2729.191924633934
 20
2414.685413258395
 30
0.0
 11
3831.666180892971
 21
2414.685413258399
 31
0.0
  0
LINE
  5
1579C
330
17656
100
AcDbEntity
  8
U7
100
AcDbLine
 10
2729.191924633934
 20
2574.685413258396
 30
0.0
 11
3831.666180892213
 21
2574.685413258398
 31
0.0
  0
LINE
  5
1579D
330
17656
100
AcDbEntity
  8
U7
100
AcDbLine
 10
2729.191924633934
 20
2734.685413258398
 30
0.0
 11
3831.666180892628
 21
2734.685413258398
 31
0.0
  0
LINE
  5
1579E
330
17656
100
AcDbEntity
  8
HIDE-S1
100
AcDbLine
 10
3896.429052763159
 20
2877.885413258399
 30
0.0
 11
2664.429052763158
 21
2877.885413258399
 31
0.0
  0
LINE
  5
1579F
330
17656
100
AcDbEntity
  8
U7
100
AcDbLine
 10
2361.191924633935
 20
2189.885413258395
 30
0.0
 11
4199.666095789149
 21
2189.885413258398
 31
0.0
  0
LINE
  5
157A0
330
17656
100
AcDbEntity
  8
U7
100
AcDbLine
 10
2729.191924633934
 20
2254.685413258394
 30
0.0
 11
3831.666180892366
 21
2254.685413258397
 31
0.0
  0
LINE
  5
157A1
330
17656
100
AcDbEntity
  8
KISO
100
AcDbLine
 10
2168.429052763158
 20
2109.885413258393
 30
0.0
 11
4392.429052763158
 21
2109.885413258398
 31
0.0
  0
LINE
  5
157A2
330
17656
100
AcDbEntity
  8
KISO
100
AcDbLine
 10
2168.429052763158
 20
1869.885413258395
 30
0.0
 11
4392.429052763158
 21
1869.885413258397
 31
0.0
  0
LINE
  5
157A3
330
17656
100
AcDbEntity
  8
KISO
100
AcDbLine
 10
2168.429052763158
 20
2029.885413258393
 30
0.0
 11
4392.429052763158
 21
2029.885413258397
 31
0.0
  0
LINE
  5
157A4
330
17656
100
AcDbEntity
  8
HATCH
100
AcDbLine
 10
3958.981779850356
 20
2877.885413258399
 30
0.0
 11
3190.981779850356
 21
2109.885413258395
 31
0.0
  0
LINE
  5
157A5
330
17656
100
AcDbEntity
  8
HATCH
100
AcDbLine
 10
3911.464204154606
 20
2877.885413258399
 30
0.0
 11
3143.464204154629
 21
2109.885413258395
 31
0.0
  0
LINE
  5
157A6
330
17656
100
AcDbEntity
  8
HATCH
100
AcDbLine
 10
3863.94662845889
 20
2877.885413258399
 30
0.0
 11
3095.946628458891
 21
2109.885413258395
 31
0.0
  0
LINE
  5
157A7
330
17656
100
AcDbEntity
  8
HATCH
100
AcDbLine
 10
2904.91147706742
 20
2877.885413258399
 30
0.0
 11
2248.429052763153
 21
2221.402988954126
 31
0.0
  0
LINE
  5
157A8
330
17656
100
AcDbEntity
  8
HATCH
100
AcDbLine
 10
2952.429052763164
 20
2877.885413258399
 30
0.0
 11
2248.429052763158
 21
2173.885413258389
 31
0.0
  0
LINE
  5
157A9
330
17656
100
AcDbEntity
  8
HATCH
100
AcDbLine
 10
2999.946628458896
 20
2877.885413258399
 30
0.0
 11
2248.429052763153
 21
2126.367837562655
 31
0.0
  0
LINE
  5
157AA
330
17656
100
AcDbEntity
  8
KISO
100
AcDbLine
 10
2248.429052763158
 20
2973.885413258394
 30
0.0
 11
2248.429052763158
 21
2109.885413258393
 31
0.0
  0
LINE
  5
157AD
330
17656
100
AcDbEntity
  8
HATCH
100
AcDbLine
 10
3479.464204154631
 20
2877.885413258399
 30
0.0
 11
2711.464204154629
 21
2109.885413258393
 31
0.0
  0
LINE
  5
157AF
330
17656
100
AcDbEntity
  8
HATCH
100
AcDbLine
 10
3431.946628458891
 20
2877.885413258399
 30
0.0
 11
2663.946628458897
 21
2109.885413258393
 31
0.0
  0
LINE
  5
157B0
330
17656
100
AcDbEntity
  8
HATCH
100
AcDbLine
 10
3384.429052763159
 20
2877.885413258399
 30
0.0
 11
2616.429052763153
 21
2109.885413258393
 31
0.0
  0
LINE
  5
157B1
330
17656
100
AcDbEntity
  8
U1
100
AcDbLine
 10
2729.191924633934
 20
3054.685413258396
 30
0.0
 11
2729.191924633934
 21
2247.485413258395
 31
0.0
  0
LINE
  5
157B2
330
17656
100
AcDbEntity
  8
U1
100
AcDbLine
 10
3280.429052763159
 20
3054.685413258396
 30
0.0
 11
3280.429052763166
 21
2247.485413258395
 31
0.0
  0
LINE
  5
157B7
330
17656
100
AcDbEntity
  8
KISO
100
AcDbLine
 10
2168.429052763158
 20
1869.885413258395
 30
0.0
 11
2168.429052763158
 21
2109.885413258393
 31
0.0
  0
CIRCLE
  5
157B9
330
17656
100
AcDbEntity
  8
U7
100
AcDbCircle
 10
2361.191924633935
 20
2200.285413258395
 30
0.0
 40
10.4
  0
CIRCLE
  5
157BA
330
17656
100
AcDbEntity
  8
U7
100
AcDbCircle
 10
2624.071924633935
 20
2200.285413258395
 30
0.0
 40
10.4
  0
LINE
  5
157BB
330
17656
100
AcDbEntity
  8
U1
100
AcDbLine
 10
2409.191924633935
 20
2226.685413258395
 30
0.0
 11
2708.391924633936
 21
2226.685413258395
 31
0.0
  0
CIRCLE
  5
157BC
330
17656
100
AcDbEntity
  8
U7
100
AcDbCircle
 10
2721.991924633936
 20
2414.685413258395
 30
0.0
 40
7.2
  0
CIRCLE
  5
157BD
330
17656
100
AcDbEntity
  8
U7
100
AcDbCircle
 10
2721.991924633936
 20
2254.685413258394
 30
0.0
 40
7.2
  0
ARC
  5
157BE
330
17656
100
AcDbEntity
  8
U1
100
AcDbCircle
 10
2708.391924633936
 20
2247.485413258395
 30
0.0
 40
20.8
100
AcDbArc
 50
270.0
 51
0.0
  0
CIRCLE
  5
157C2
330
17656
100
AcDbEntity
  8
U7
100
AcDbCircle
 10
2886.951924633939
 20
2200.285413258395
 30
0.0
 40
10.4
  0
CIRCLE
  5
157C3
330
17656
100
AcDbEntity
  8
U7
100
AcDbCircle
 10
3149.831924633938
 20
2200.285413258395
 30
0.0
 40
10.4
  0
CIRCLE
  5
157C4
330
17656
100
AcDbEntity
  8
U7
100
AcDbCircle
 10
3412.711924633937
 20
2200.285413258395
 30
0.0
 40
10.4
  0
LINE
  5
157C5
330
17656
100
AcDbEntity
  8
HATCH
100
AcDbLine
 10
2120.386010772775
 20
3117.885413258396
 30
0.0
 11
1976.386010772776
 21
2973.885413258394
 31
0.0
  0
LINE
  5
157C6
330
17656
100
AcDbEntity
  8
HATCH
100
AcDbLine
 10
2025.35085938131
 20
3117.885413258396
 30
0.0
 11
1881.350859381306
 21
2973.885413258395
 31
0.0
  0
LINE
  5
157C7
330
17656
100
AcDbEntity
  8
HATCH
100
AcDbLine
 10
2072.868435077031
 20
3117.885413258396
 30
0.0
 11
1928.868435077031
 21
2973.885413258395
 31
0.0
  0
LINE
  5
157C8
330
17656
100
AcDbEntity
  8
KISO
100
AcDbLine
 10
1720.886240370048
 20
2973.885413258394
 30
0.0
 11
2248.429052763158
 21
2973.885413258394
 31
0.0
  0
LINE
  5
157C9
330
17656
100
AcDbEntity
  8
KISO
100
AcDbLine
 10
1720.886240370048
 20
2877.885413258399
 30
0.0
 11
2248.429052763158
 21
2877.885413258394
 31
0.0
  0
LINE
  5
157CA
330
17656
100
AcDbEntity
  8
KISO
100
AcDbLine
 10
2977.911924633931
 20
3117.885413258396
 30
0.0
 11
1720.886240370048
 21
3117.885413258394
 31
0.0
  0
LINE
  5
157CD
330
17656
100
AcDbEntity
  8
HATCH
100
AcDbLine
 10
2803.472773955737
 20
3068.285413258398
 30
0.0
 11
2753.872773955739
 21
3117.885413258396
 31
0.0
  0
LINE
  5
157CE
330
17656
100
AcDbEntity
  8
HATCH
100
AcDbLine
 10
2504.868435077014
 20
3117.885413258396
 30
0.0
 11
2264.86843507702
 21
2877.885413258399
 31
0.0
  0
LINE
  5
157CF
330
17656
100
AcDbEntity
  8
HATCH
100
AcDbLine
 10
2599.903586468554
 20
3117.885413258396
 30
0.0
 11
2359.903586468543
 21
2877.885413258399
 31
0.0
  0
LINE
  5
157D0
330
17656
100
AcDbEntity
  8
HATCH
100
AcDbLine
 10
2552.386010772758
 20
3117.885413258396
 30
0.0
 11
2312.386010772757
 21
2877.885413258395
 31
0.0
  0
CIRCLE
  5
157D1
330
17656
100
AcDbEntity
  8
U7
100
AcDbCircle
 10
2721.991924633936
 20
3054.685413258396
 30
0.0
 40
7.2
  0
LINE
  5
157D2
330
17656
100
AcDbEntity
  8
KISO
100
AcDbLine
 10
2664.429052763158
 20
3117.885413258396
 30
0.0
 11
2664.429052763158
 21
2877.885413258399
 31
0.0
  0
LINE
  5
157D3
330
17656
100
AcDbEntity
  8
HATCH
100
AcDbLine
 10
2425.393901371688
 20
2877.885413258394
 30
0.0
 11
2248.429052763153
 21
2700.920564649861
 31
0.0
  0
LINE
  5
157D4
330
17656
100
AcDbEntity
  8
KISO
100
AcDbLine
 10
2664.429052763158
 20
2877.885413258399
 30
0.0
 11
2248.429052763158
 21
2877.885413258394
 31
0.0
  0
LINE
  5
157D5
330
17656
100
AcDbEntity
  8
HATCH
100
AcDbLine
 10
2520.429052763164
 20
2877.885413258395
 30
0.0
 11
2248.429052763158
 21
2605.885413258388
 31
0.0
  0
LINE
  5
157D6
330
17656
100
AcDbEntity
  8
HATCH
100
AcDbLine
 10
2472.911477067426
 20
2877.885413258395
 30
0.0
 11
2248.429052763153
 21
2653.402988954121
 31
0.0
  0
CIRCLE
  5
157D9
330
17656
100
AcDbEntity
  8
U7
100
AcDbCircle
 10
2721.991924633936
 20
2574.685413258398
 30
0.0
 40
7.2
  0
CIRCLE
  5
157DA
330
17656
100
AcDbEntity
  8
U7
100
AcDbCircle
 10
2721.991924633936
 20
2734.685413258398
 30
0.0
 40
7.2
  0
CIRCLE
  5
157DB
330
17656
100
AcDbEntity
  8
U7
100
AcDbCircle
 10
2721.991924633936
 20
2894.685413258395
 30
0.0
 40
7.2
  0
LINE
  5
157DC
330
17656
100
AcDbEntity
  8
HATCH
100
AcDbLine
 10
2755.955198260001
 20
3068.285413258398
 30
0.0
 11
2706.355198259995
 21
3117.885413258396
 31
0.0
  0
LINE
  5
157DD
330
17656
100
AcDbEntity
  8
KISO
100
AcDbLine
 10
3440.386180892383
 20
3089.085413258395
 30
0.0
 11
3287.666180892382
 21
2897.085413258397
 31
0.0
  0
LINE
  5
157DE
330
17656
100
AcDbEntity
  8
KISO
100
AcDbLine
 10
2977.911924633931
 20
3089.085413258395
 30
0.0
 11
2825.191924633934
 21
2897.085413258397
 31
0.0
  0
LINE
  5
157DF
330
17656
100
AcDbEntity
  8
KISO
100
AcDbLine
 10
3120.471924633941
 20
3089.085413258395
 30
0.0
 11
3273.191924633936
 21
2897.085413258397
 31
0.0
  0
LINE
  5
157E2
330
17656
100
AcDbEntity
  8
HASIRA
100
AcDbLine
 10
3440.386180892389
 20
2894.685413258397
 30
0.0
 11
3440.386180892389
 21
3406.742322023879
 31
0.0
  0
LINE
  5
157E4
330
17656
100
AcDbEntity
  8
KISO
100
AcDbLine
 10
3433.191924633936
 20
3117.885413258396
 30
0.0
 11
3120.471924633934
 21
3117.885413258396
 31
0.0
  0
LINE
  5
157E5
330
17656
100
AcDbEntity
  8
HATCH
100
AcDbLine
 10
2850.990349651471
 20
3068.285413258398
 30
0.0
 11
2801.390349651465
 21
3117.885413258396
 31
0.0
  0
LINE
  5
157E6
330
17656
100
AcDbEntity
  8
HATCH
100
AcDbLine
 10
3235.472773955722
 20
3068.285413258398
 30
0.0
 11
3185.872773955727
 21
3117.885413258396
 31
0.0
  0
LINE
  5
157E7
330
17656
100
AcDbEntity
  8
HATCH
100
AcDbLine
 10
3282.990349651479
 20
3068.285413258398
 30
0.0
 11
3233.390349651472
 21
3117.885413258396
 31
0.0
  0
LINE
  5
157E8
330
17656
100
AcDbEntity
  8
HATCH
100
AcDbLine
 10
3330.50792534721
 20
3068.285413258398
 30
0.0
 11
3280.907925347205
 21
3117.885413258396
 31
0.0
  0
LINE
  5
157E9
330
17656
100
AcDbEntity
  8
U7
100
AcDbLine
 10
8116.306062185525
 20
2491.333194070902
 30
0.0
 11
8116.306062185525
 21
2109.333194070898
 31
0.0
  0
LINE
  5
157EB
330
17656
100
AcDbEntity
  8
U7
100
AcDbLine
 10
6884.306062185527
 20
2107.333194070899
 30
0.0
 11
6884.306062185527
 21
2491.333194070902
 31
0.0
  0
LINE
  5
157EE
330
17656
100
AcDbEntity
  8
1PL-M1
100
AcDbLine
 10
7500.306062185527
 20
3251.333194070902
 30
0.0
 11
7500.306062185527
 21
1731.333194070899
 31
0.0
  0
LINE
  5
157EF
330
17656
100
AcDbEntity
  8
HATCH
100
AcDbLine
 10
4312.429052763166
 20
2846.850261866936
 30
0.0
 11
3575.464204154624
 21
2109.885413258398
 31
0.0
  0
LINE
  5
157F0
330
17656
100
AcDbEntity
  8
HATCH
100
AcDbLine
 10
4310.981779850362
 20
2797.885413258395
 30
0.0
 11
3622.981779850363
 21
2109.885413258398
 31
0.0
  0
LINE
  5
157F1
330
17656
100
AcDbEntity
  8
HATCH
100
AcDbLine
 10
4312.429052763166
 20
2751.815110475417
 30
0.0
 11
3670.499355546095
 21
2109.885413258398
 31
0.0
  0
LINE
  5
157F2
330
17656
100
AcDbEntity
  8
U1
100
AcDbLine
 10
3831.666180892382
 20
3054.685413258396
 30
0.0
 11
3831.666180892382
 21
2247.485413258395
 31
0.0
  0
LINE
  5
157F4
330
17656
100
AcDbEntity
  8
KISO
100
AcDbLine
 10
4312.429052763166
 20
2973.885413258394
 30
0.0
 11
4312.429052763166
 21
2109.885413258393
 31
0.0
  0
LINE
  5
157F5
330
17656
100
AcDbEntity
  8
HATCH
100
AcDbLine
 10
4356.80509583351
 20
2029.885413258395
 30
0.0
 11
4388.80509583351
 21
1974.459787416195
 31
0.0
  0
LINE
  5
157F6
330
17656
100
AcDbEntity
  8
HATCH
100
AcDbLine
 10
4328.429052763171
 20
1869.885413258397
 30
0.0
 11
4392.429052763158
 21
1980.736664942783
 31
0.0
  0
LINE
  5
157FA
330
17656
100
AcDbEntity
  8
U1
100
AcDbLine
 10
4151.666180892382
 20
2226.685413258395
 30
0.0
 11
3852.466180892383
 21
2226.685413258395
 31
0.0
  0
CIRCLE
  5
157FB
330
17656
100
AcDbEntity
  8
U7
100
AcDbCircle
 10
3675.591924633936
 20
2200.285413258395
 30
0.0
 40
10.4
  0
CIRCLE
  5
157FC
330
17656
100
AcDbEntity
  8
U7
100
AcDbCircle
 10
3938.47192463394
 20
2200.285413258395
 30
0.0
 40
10.4
  0
CIRCLE
  5
157FD
330
17656
100
AcDbEntity
  8
U7
100
AcDbCircle
 10
3838.866180892383
 20
2414.685413258395
 30
0.0
 40
7.2
  0
CIRCLE
  5
157FE
330
17656
100
AcDbEntity
  8
U7
100
AcDbCircle
 10
3838.866180892383
 20
2254.685413258394
 30
0.0
 40
7.2
  0
ARC
  5
157FF
330
17656
100
AcDbEntity
  8
U1
100
AcDbCircle
 10
3852.466180892383
 20
2247.485413258395
 30
0.0
 40
20.8
100
AcDbArc
 50
180.0
 51
270.0
  0
LINE
  5
15800
330
17656
100
AcDbEntity
  8
HATCH
100
AcDbLine
 10
4312.429052763166
 20
2367.332686171205
 30
0.0
 11
4054.981779850355
 21
2109.885413258398
 31
0.0
  0
LINE
  5
15801
330
17656
100
AcDbEntity
  8
HATCH
100
AcDbLine
 10
4312.429052763166
 20
2319.815110475466
 30
0.0
 11
4102.499355546095
 21
2109.885413258398
 31
0.0
  0
LINE
  5
15802
330
17656
100
AcDbEntity
  8
HATCH
100
AcDbLine
 10
4312.429052763166
 20
2272.297534779718
 30
0.0
 11
4150.016931241832
 21
2109.885413258398
 31
0.0
  0
CIRCLE
  5
15803
330
17656
100
AcDbEntity
  8
U7
100
AcDbCircle
 10
4199.666180892381
 20
2200.285413258395
 30
0.0
 40
10.4
  0
LINE
  5
15804
330
17656
100
AcDbEntity
  8
HATCH
100
AcDbLine
 10
4360.429052763171
 20
1925.311039100604
 30
0.0
 11
4392.429052763171
 21
1869.885413258397
 31
0.0
  0
LINE
  5
15805
330
17656
100
AcDbEntity
  8
KISO
100
AcDbLine
 10
4392.429052763158
 20
1869.885413258397
 30
0.0
 11
4392.429052763158
 21
2109.885413258398
 31
0.0
  0
LINE
  5
15807
330
17656
100
AcDbEntity
  8
U7
100
AcDbLine
 10
8114.306062185525
 20
2107.333194070899
 30
0.0
 11
6884.306062185527
 21
2107.333194070899
 31
0.0
  0
LINE
  5
1580A
330
17656
100
AcDbEntity
  8
KISO
100
AcDbLine
 10
3582.946180892386
 20
3117.885413258396
 30
0.0
 11
4734.604572265885
 21
3117.885413258394
 31
0.0
  0
LINE
  5
1580B
330
17656
100
AcDbEntity
  8
KISO
100
AcDbLine
 10
4734.604572265886
 20
2877.885413258394
 30
0.0
 11
4312.429052763166
 21
2877.885413258394
 31
0.0
  0
LINE
  5
1580C
330
17656
100
AcDbEntity
  8
KISO
100
AcDbLine
 10
4734.604572265886
 20
2973.885413258394
 30
0.0
 11
4312.429052763166
 21
2973.885413258394
 31
0.0
  0
LINE
  5
1580E
330
17656
100
AcDbEntity
  8
HATCH
100
AcDbLine
 10
4201.783758434369
 20
3117.885413258396
 30
0.0
 11
3961.783758434363
 21
2877.885413258395
 31
0.0
  0
LINE
  5
1580F
330
17656
100
AcDbEntity
  8
HATCH
100
AcDbLine
 10
4296.818909825833
 20
3117.885413258396
 30
0.0
 11
4056.818909825834
 21
2877.885413258395
 31
0.0
  0
LINE
  5
15810
330
17656
100
AcDbEntity
  8
HATCH
100
AcDbLine
 10
4249.301334130087
 20
3117.885413258396
 30
0.0
 11
4009.301334130088
 21
2877.885413258395
 31
0.0
  0
CIRCLE
  5
15811
330
17656
100
AcDbEntity
  8
U7
100
AcDbCircle
 10
3838.866180892383
 20
3054.685413258396
 30
0.0
 40
7.2
  0
LINE
  5
15812
330
17656
100
AcDbEntity
  8
KISO
100
AcDbLine
 10
3582.946180892386
 20
3089.085413258395
 30
0.0
 11
3735.666180892382
 21
2897.085413258397
 31
0.0
  0
LINE
  5
15813
330
17656
100
AcDbEntity
  8
KISO
100
AcDbLine
 10
3896.429052763159
 20
3117.885413258396
 30
0.0
 11
3896.429052763159
 21
2877.885413258399
 31
0.0
  0
LINE
  5
15815
330
17656
100
AcDbEntity
  8
KISO
100
AcDbLine
 10
3896.429052763159
 20
2877.885413258399
 30
0.0
 11
4312.429052763166
 21
2877.885413258394
 31
0.0
  0
CIRCLE
  5
15816
330
17656
100
AcDbEntity
  8
U7
100
AcDbCircle
 10
3838.866180892383
 20
2574.685413258398
 30
0.0
 40
7.2
  0
CIRCLE
  5
15817
330
17656
100
AcDbEntity
  8
U7
100
AcDbCircle
 10
3838.866180892383
 20
2734.685413258398
 30
0.0
 40
7.2
  0
CIRCLE
  5
15818
330
17656
100
AcDbEntity
  8
U7
100
AcDbCircle
 10
3838.866180892383
 20
2894.685413258395
 30
0.0
 40
7.2
  0
LINE
  5
15819
330
17656
100
AcDbEntity
  8
HATCH
100
AcDbLine
 10
3810.025501042949
 20
3068.285413258398
 30
0.0
 11
3760.425501042943
 21
3117.885413258397
 31
0.0
  0
LINE
  5
1581A
330
17656
100
AcDbEntity
  8
HATCH
100
AcDbLine
 10
3762.50792534721
 20
3068.285413258398
 30
0.0
 11
3712.907925347205
 21
3117.885413258397
 31
0.0
  0
LINE
  5
1581B
330
17656
100
AcDbEntity
  8
HATCH
100
AcDbLine
 10
3714.99034965146
 20
3068.285413258398
 30
0.0
 11
3665.390349651467
 21
3117.885413258397
 31
0.0
  0
LINE
  5
1581C
330
17656
100
AcDbEntity
  8
HATCH
100
AcDbLine
 10
4728.818909825814
 20
3117.885413258396
 30
0.0
 11
4584.818909825814
 21
2973.885413258394
 31
0.0
  0
LINE
  5
1581D
330
17656
100
AcDbEntity
  8
HATCH
100
AcDbLine
 10
4681.301334130072
 20
3117.885413258396
 30
0.0
 11
4537.301334130076
 21
2973.885413258395
 31
0.0
  0
LINE
  5
1581E
330
17656
100
AcDbEntity
  8
HATCH
100
AcDbLine
 10
4734.604572265886
 20
3076.153500002671
 30
0.0
 11
4632.336485521606
 21
2973.885413258395
 31
0.0
  0
LINE
  5
15822
330
17656
100
AcDbEntity
  8
U7
100
AcDbLine
 10
6580.306062185525
 20
2491.333194070902
 30
0.0
 11
6580.306062185525
 21
3008.933194070902
 31
0.0
  0
ARC
  5
15823
330
17656
100
AcDbEntity
  8
U7
100
AcDbCircle
 10
6590.706062185525
 20
3008.933194070902
 30
0.0
 40
10.4
100
AcDbArc
 50
90.0
 51
180.0
  0
LINE
  5
15824
330
17656
100
AcDbEntity
  8
HIDE-M1
100
AcDbLine
 10
6889.106062185525
 20
2875.333194070897
 30
0.0
 11
8116.306062185525
 21
2875.333194070902
 31
0.0
  0
LINE
  5
15825
330
17656
100
AcDbEntity
  8
U7
100
AcDbLine
 10
6843.186062185525
 20
2491.333194070902
 30
0.0
 11
6843.186062185525
 21
3019.333194070902
 31
0.0
  0
LINE
  5
15826
330
17656
100
AcDbEntity
  8
U7
100
AcDbLine
 10
7106.066062185529
 20
2491.333194070902
 30
0.0
 11
7106.066062185522
 21
3019.333194070902
 31
0.0
  0
LINE
  5
15827
330
17656
100
AcDbEntity
  8
U7
100
AcDbLine
 10
7368.946062185521
 20
2491.333194070902
 30
0.0
 11
7368.946062185521
 21
3019.333194070902
 31
0.0
  0
LINE
  5
15828
330
17656
100
AcDbEntity
  8
HIDE-M1
100
AcDbLine
 10
6884.306062185527
 20
2491.333194070902
 30
0.0
 11
6884.306062185527
 21
2870.533194070898
 31
0.0
  0
LINE
  5
15829
330
17656
100
AcDbEntity
  8
HIDE-M1
100
AcDbLine
 10
6884.306062185527
 20
2491.333194070902
 30
0.0
 11
6884.306062185527
 21
2870.533194070898
 31
0.0
  0
ARC
  5
1582A
330
17656
100
AcDbEntity
  8
HIDE-M1
100
AcDbCircle
 10
6889.106062185525
 20
2870.533194070898
 30
0.0
 40
4.799999999999999
100
AcDbArc
 50
90.0
 51
180.0
  0
ARC
  5
1582B
330
17656
100
AcDbEntity
  8
HIDE-M1
100
AcDbCircle
 10
6889.106062185525
 20
2870.533194070898
 30
0.0
 40
4.799999999999999
100
AcDbArc
 50
90.0
 51
180.0
  0
LINE
  5
1582C
330
17656
100
AcDbEntity
  8
U7
100
AcDbLine
 10
7631.82606218553
 20
2491.333194070902
 30
0.0
 11
7631.826062185526
 21
3019.333194070902
 31
0.0
  0
LINE
  5
1582D
330
17656
100
AcDbEntity
  8
U7
100
AcDbLine
 10
7894.706062185526
 20
2491.333194070902
 30
0.0
 11
7894.706062185526
 21
3019.333194070902
 31
0.0
  0
LINE
  5
1582E
330
17656
100
AcDbEntity
  8
U7
100
AcDbLine
 10
8157.586062185528
 20
2491.333194070902
 30
0.0
 11
8157.586062185524
 21
3019.333194070902
 31
0.0
  0
LINE
  5
1582F
330
17656
100
AcDbEntity
  8
HIDE-M1
100
AcDbLine
 10
8116.306062185525
 20
2491.333194070902
 30
0.0
 11
8116.306062185525
 21
2875.333194070902
 31
0.0
  0
LINE
  5
15830
330
17656
100
AcDbEntity
  8
U7
100
AcDbLine
 10
8420.306062185526
 20
3008.933194070902
 30
0.0
 11
8420.306062185526
 21
2491.333194070902
 31
0.0
  0
ARC
  5
15831
330
17656
100
AcDbEntity
  8
U7
100
AcDbCircle
 10
8409.906062185525
 20
3008.933194070902
 30
0.0
 40
10.4
100
AcDbArc
 50
0.0
 51
90.0
  0
LINE
  5
158CF
330
17656
100
AcDbEntity
  8
SUNPOU
100
AcDbLine
 10
6580.306062185525
 20
3171.3331940709
 30
0.0
 11
6580.306062185525
 21
3447.711278313303
 31
0.0
  0
LINE
  5
158D0
330
17656
100
AcDbEntity
  8
SUNPOU
100
AcDbLine
 10
8420.306062185526
 20
3171.3331940709
 30
0.0
 11
8420.306062185526
 21
3447.711278313303
 31
0.0
  0
LINE
  5
158D1
330
17656
100
AcDbEntity
  8
SUNPOU
100
AcDbLine
 10
6600.306062185525
 20
3402.711278313303
 30
0.0
 11
8400.306062185526
 21
3402.711278313303
 31
0.0
  0
LINE
  5
158D5
330
17656
100
AcDbEntity
  8
SUNPOU
100
AcDbLine
 10
6550.706062185525
 20
1963.333194070902
 30
0.0
 11
6010.044979629257
 21
1963.333194070902
 31
0.0
  0
LINE
  5
158D6
330
17656
100
AcDbEntity
  8
SUNPOU
100
AcDbLine
 10
6550.706062185525
 20
3019.333194070902
 30
0.0
 11
6010.044979629257
 21
3019.333194070902
 31
0.0
  0
LINE
  5
158D7
330
17656
100
AcDbEntity
  8
SUNPOU
100
AcDbLine
 10
6055.044979629257
 20
1983.333194070902
 30
0.0
 11
6055.044979629257
 21
2999.333194070903
 31
0.0
  0
TEXT
  5
158DB
330
17656
100
AcDbEntity
  8
SUNPOU
100
AcDbText
 10
7131.567751039828
 20
3447.711278313303
 30
0.0
 40
90.0
  1
ベース筋
  7
01
 72
     4
 11
7335.567751039828
 21
3492.711278313303
 31
0.0
100
AcDbText
  0
TEXT
  5
158DC
330
17656
100
AcDbEntity
  8
SUNPOU
100
AcDbText
 10
7586.370236222745
 20
3447.711278313303
 30
0.0
 40
90.0
  1
8-D13
 41
0.6666666666666666
  7
00
 72
     4
 11
7739.227379079889
 21
3492.711278313303
 31
0.0
100
AcDbText
  0
TEXT
  5
158DD
330
17656
100
AcDbEntity
  8
SUNPOU
100
AcDbText
 10
6010.044979629257
 20
2107.696818884276
 30
0.0
 40
90.0
  1
ベース筋
 50
90.0
  7
01
 72
     4
 11
5965.044979629257
 21
2311.696818884276
 31
0.0
100
AcDbText
  0
TEXT
  5
158DE
330
17656
100
AcDbEntity
  8
SUNPOU
100
AcDbText
 10
6010.044979629257
 20
2570.33185641974
 30
0.0
 40
90.0
  1
5-D13
 50
90.0
 41
0.6666666666666666
  7
00
 72
     4
 11
5965.044979629257
 21
2723.188999276882
 31
0.0
100
AcDbText
  0
TEXT
  5
15A0E
330
17656
100
AcDbEntity
  8
HIKIDASHI
100
AcDbText
 10
1770.42596496575
 20
2627.515993242059
 30
0.0
 40
90.0
  1
6-D13
 41
0.6700000000000001
  7
00
100
AcDbText
  0
TEXT
  5
15A0F
330
17656
100
AcDbEntity
  8
HIKIDASHI
100
AcDbText
 10
1521.162011931966
 20
2627.515993242059
 30
0.0
 40
90.0
  1
主筋
  7
01
100
AcDbText
  0
LINE
  5
15A10
330
17656
100
AcDbEntity
  8
HIKIDASHI
100
AcDbLine
 10
1521.162011931966
 20
2582.51599324206
 30
0.0
 11
2119.067099341151
 21
2582.51599324206
 31
0.0
  0
LINE
  5
15A12
330
17656
100
AcDbEntity
  8
HIKIDASHI
100
AcDbLine
 10
1367.253829721248
 20
2177.621202421254
 30
0.0
 11
2124.975130930299
 21
2177.621202421254
 31
0.0
  0
TEXT
  5
15A13
330
17656
100
AcDbEntity
  8
HIKIDASHI
100
AcDbText
 10
1626.517782755036
 20
2222.621202421254
 30
0.0
 40
90.0
  1
9
 41
0.6700000000000001
  7
00
100
AcDbText
  0
TEXT
  5
15A14
330
17656
100
AcDbEntity
  8
HIKIDASHI
100
AcDbText
 10
1377.253829721247
 20
2222.621202421254
 30
0.0
 40
90.0
  1
帯筋
  7
01
100
AcDbText
  0
TEXT
  5
15A15
330
17656
100
AcDbEntity
  8
HIKIDASHI
100
AcDbText
 10
1815.932149789007
 20
2230.121202421254
 30
0.0
 40
75.0
  1
ア
  7
01
 72
     1
 11
1848.432149789007
 21
2267.621202421254
 31
0.0
100
AcDbText
 73
     2
  0
TEXT
  5
15A16
330
17656
100
AcDbEntity
  8
HIKIDASHI
100
AcDbText
 10
1704.306817219276
 20
2222.621202421254
 30
0.0
 40
90.0
  1
%%C
 41
0.6700000000000001
  7
00
100
AcDbText
  0
CIRCLE
  5
15A17
330
17656
100
AcDbEntity
  8
HIKIDASHI
100
AcDbCircle
 10
1848.432149789007
 20
2267.621202421254
 30
0.0
 40
60.0
  0
TEXT
  5
15A18
330
17656
100
AcDbEntity
  8
HIKIDASHI
100
AcDbText
 10
1925.416823446379
 20
2222.621202421254
 30
0.0
 40
90.0
  1
100
 41
0.6700000000000001
  7
00
100
AcDbText
  0
TEXT
  5
15A1A
330
17656
100
AcDbEntity
  8
HIKIDASHI
100
AcDbText
 10
5349.728067453241
 20
3556.260118325357
 30
0.0
 40
90.00009018009018
  1
（別途）
  7
01
100
AcDbText
  0
LINE
  5
15A1B
330
17656
100
AcDbEntity
  8
HIKIDASHI
100
AcDbLine
 10
3997.930010252171
 20
3511.260118325356
 30
0.0
 11
5742.157249407592
 21
3511.260118325356
 31
0.0
  0
TEXT
  5
15A1C
330
17656
100
AcDbEntity
  8
HIKIDASHI
100
AcDbText
 10
4032.207695200701
 20
3556.260118325357
 30
0.0
 40
90.00009018009018
  1
アンカーボルト
  7
01
100
AcDbText
  0
TEXT
  5
15A1D
330
17656
100
AcDbEntity
  8
HIKIDASHI
100
AcDbText
 10
5108.007913391737
 20
3556.051132125266
 30
0.0
 40
89.55223880597012
  1
400
 41
0.6700000000000001
  7
00
100
AcDbText
  0
TEXT
  5
15A1E
330
17656
100
AcDbEntity
  8
HIKIDASHI
100
AcDbText
 10
4792.544749806086
 20
3556.260118325357
 30
0.0
 40
89.55223880597012
  1
W ／
 41
0.6700000000000001
  7
00
100
AcDbText
  0
TEXT
  5
15A1F
330
17656
100
AcDbEntity
  8
HIKIDASHI
100
AcDbText
 10
4955.037597048232
 20
3555.663672933689
 30
0.0
 40
67.16417910447761
  1
2
 41
0.6700000000000001
  7
00
100
AcDbText
  0
TEXT
  5
15A20
330
17656
100
AcDbEntity
  8
HIKIDASHI
100
AcDbText
 10
4867.145560489309
 20
3582.689727964254
 30
0.0
 40
67.16417910447761
  1
1
 41
0.6700000000000001
  7
00
100
AcDbText
  0
TEXT
  5
15A21
330
17656
100
AcDbEntity
  8
HIKIDASHI
100
AcDbText
 10
5026.872534238606
 20
3567.454148176103
 30
0.0
 40
89.55223880597012
  1
x
 41
0.6700000000000001
  7
00
100
AcDbText
  0
LINE
  5
15A32
330
17656
100
AcDbEntity
  8
SUNPOU
100
AcDbLine
 10
1898.496684319278
 20
3207.885413258394
 30
0.0
 11
1950.458208546343
 21
3117.885413258394
 31
0.0
  0
LINE
  5
15A33
330
17656
100
AcDbEntity
  8
SUNPOU
100
AcDbLine
 10
2002.419732773411
 20
3207.885413258394
 30
0.0
 11
1898.496684319278
 21
3207.885413258394
 31
0.0
  0
LINE
  5
15A34
330
17656
100
AcDbEntity
  8
SUNPOU
100
AcDbLine
 10
1950.458208546343
 20
3117.885413258394
 30
0.0
 11
2002.419732773411
 21
3207.885413258394
 31
0.0
  0
TEXT
  5
15A35
330
17656
100
AcDbEntity
  8
SUNPOU
100
AcDbText
 10
1881.886779974915
 20
3252.885413258394
 30
0.0
 40
90.0
  1
F.L
 41
0.6666666666666666
  7
00
 72
     4
 11
1950.458208546343
 21
3297.885413258395
 31
0.0
100
AcDbText
  0
LINE
  5
15B24
330
17656
100
AcDbEntity
  8
HIKIDASHI
100
AcDbLine
 10
2946.306191125406
 20
886.596771046039
 30
0.0
 11
3873.809328772832
 21
886.596771046039
 31
0.0
  0
LINE
  5
15B25
330
17656
100
AcDbEntity
  8
HIKIDASHI
100
AcDbLine
 10
2946.306191125406
 20
926.5967710460389
 30
0.0
 11
3873.809328772832
 21
926.5967710460389
 31
0.0
  0
TEXT
  5
15B26
330
17656
100
AcDbEntity
  8
HIKIDASHI
100
AcDbText
 10
2986.306191125406
 20
986.596771046039
 30
0.0
 40
120.0
  1
A  ~  A'
 41
0.6700000000000001
  7
00
100
AcDbText
  0
TEXT
  5
15B27
330
17656
100
AcDbEntity
  8
HIKIDASHI
100
AcDbText
 10
3471.662563787486
 20
986.596771046039
 30
0.0
 40
120.0
  1
断  面
  7
01
100
AcDbText
  0
LINE
  5
1704D
330
17656
100
AcDbEntity
  8
SUNPOU
100
AcDbLine
 10
6693.582491697419
 20
7024.803332601656
 30
0.0
 11
6693.582491697419
 21
5136.803332601656
 31
0.0
  0
LINE
  5
1704F
330
17656
100
AcDbEntity
  8
SUNPOU
100
AcDbLine
 10
6713.58249169742
 20
5181.803332601656
 30
0.0
 11
9473.582491697419
 21
5181.803332601656
 31
0.0
  0
LINE
  5
170C5
330
17656
100
AcDbEntity
  8
HATCH
100
AcDbLine
 10
2452.260798623971
 20
2029.885413258393
 30
0.0
 11
2372.260798623978
 21
2109.885413258393
 31
0.0
  0
LINE
  5
170C6
330
17656
100
AcDbEntity
  8
HATCH
100
AcDbLine
 10
2404.743222928241
 20
2029.885413258393
 30
0.0
 11
2324.743222928245
 21
2109.885413258396
 31
0.0
  0
LINE
  5
170C7
330
17656
100
AcDbEntity
  8
HATCH
100
AcDbLine
 10
2357.225647232499
 20
2029.885413258393
 30
0.0
 11
2277.225647232503
 21
2109.885413258397
 31
0.0
  0
LINE
  5
170C8
330
17656
100
AcDbEntity
  8
HATCH
100
AcDbLine
 10
2931.778374319698
 20
2029.885413258396
 30
0.0
 11
2851.778374319705
 21
2109.885413258395
 31
0.0
  0
LINE
  5
170C9
330
17656
100
AcDbEntity
  8
HATCH
100
AcDbLine
 10
2884.260798623968
 20
2029.885413258396
 30
0.0
 11
2804.260798623973
 21
2109.885413258397
 31
0.0
  0
LINE
  5
170CA
330
17656
100
AcDbEntity
  8
HATCH
100
AcDbLine
 10
2836.743222928227
 20
2029.885413258396
 30
0.0
 11
2756.74322292823
 21
2109.885413258399
 31
0.0
  0
LINE
  5
170CB
330
17656
100
AcDbEntity
  8
HATCH
100
AcDbLine
 10
3411.295950015424
 20
2029.885413258396
 30
0.0
 11
3331.295950015432
 21
2109.885413258397
 31
0.0
  0
LINE
  5
170CC
330
17656
100
AcDbEntity
  8
HATCH
100
AcDbLine
 10
3363.778374319694
 20
2029.885413258396
 30
0.0
 11
3283.778374319699
 21
2109.885413258398
 31
0.0
  0
LINE
  5
170CD
330
17656
100
AcDbEntity
  8
HATCH
100
AcDbLine
 10
3316.260798623953
 20
2029.885413258396
 30
0.0
 11
3236.260798623956
 21
2109.8854132584
 31
0.0
  0
LINE
  5
170CE
330
17656
100
AcDbEntity
  8
HATCH
100
AcDbLine
 10
3890.813525711152
 20
2029.885413258397
 30
0.0
 11
3810.813525711159
 21
2109.885413258398
 31
0.0
  0
LINE
  5
170CF
330
17656
100
AcDbEntity
  8
HATCH
100
AcDbLine
 10
3843.295950015421
 20
2029.885413258397
 30
0.0
 11
3763.295950015427
 21
2109.8854132584
 31
0.0
  0
LINE
  5
170D0
330
17656
100
AcDbEntity
  8
HATCH
100
AcDbLine
 10
3795.778374319681
 20
2029.885413258397
 30
0.0
 11
3715.778374319683
 21
2109.885413258401
 31
0.0
  0
LINE
  5
170D1
330
17656
100
AcDbEntity
  8
HATCH
100
AcDbLine
 10
4370.331101406879
 20
2029.8854132584
 30
0.0
 11
4290.331101406886
 21
2109.885413258399
 31
0.0
  0
LINE
  5
170D2
330
17656
100
AcDbEntity
  8
HATCH
100
AcDbLine
 10
4322.813525711148
 20
2029.8854132584
 30
0.0
 11
4242.813525711152
 21
2109.885413258401
 31
0.0
  0
LINE
  5
170D3
330
17656
100
AcDbEntity
  8
HATCH
100
AcDbLine
 10
4275.295950015407
 20
2029.8854132584
 30
0.0
 11
4195.29595001541
 21
2109.885413258401
 31
0.0
  0
TEXT
  5
17197
330
17656
100
AcDbEntity
  8
FILENAME
100
AcDbText
 10
13444.85714285714
 20
174.0
 30
0.0
 40
100.0
  1
＜YOR-280B-SA-A-1_3_JIS_GL.DXF ＞
  7
FILENAME
 72
     2
 11
16382.0
 21
174.0
 31
0.0
100
AcDbText
  0
LINE
  5
1719A
330
17656
100
AcDbEntity
  8
WAKUSEN-01
100
AcDbLine
 10
434.0000000000008
 20
413.9999999999997
 30
0.0
 11
16382.0
 21
413.9999999999997
 31
0.0
  0
LINE
  5
1719B
330
17656
100
AcDbEntity
  8
WAKUSEN-01
100
AcDbLine
 10
434.0000000000008
 20
11242.0
 30
0.0
 11
16382.0
 21
11242.0
 31
0.0
  0
LINE
  5
1719C
330
17656
100
AcDbEntity
  8
WAKUSEN-01
100
AcDbLine
 10
434.0000000000008
 20
413.9999999999997
 30
0.0
 11
434.0000000000008
 21
11242.0
 31
0.0
  0
LINE
  5
1719D
330
17656
100
AcDbEntity
  8
WAKUSEN-01
100
AcDbLine
 10
16382.0
 20
413.9999999999997
 30
0.0
 11
16382.0
 21
11242.0
 31
0.0
  0
LINE
  5
1719E
330
17656
100
AcDbEntity
  8
WAKUSEN-01
100
AcDbLine
 10
10280.0
 20
1242.0
 30
0.0
 11
16382.0
 21
1242.0
 31
0.0
  0
LINE
  5
1719F
330
17656
100
AcDbEntity
  8
WAKUSEN-02
100
AcDbLine
 10
10280.0
 20
827.9999999999997
 30
0.0
 11
13434.0
 21
827.9999999999997
 31
0.0
  0
TEXT
  5
171A0
330
17656
100
AcDbEntity
  8
WAKUMOJI-01
100
AcDbText
 10
10335.13012998137
 20
1062.951504669661
 30
0.0
 40
120.0
  1
名　称
  7
WAKUMOJI
100
AcDbText
  0
TEXT
  5
171A1
330
17656
100
AcDbEntity
  8
WAKUMOJI-01
100
AcDbText
 10
10328.25274254596
 20
659.5644874899107
 30
0.0
 40
120.0
  1
機種名
  7
WAKUMOJI
100
AcDbText
  0
LINE
  5
171A2
330
17656
100
AcDbEntity
  8
WAKUSEN-01
100
AcDbLine
 10
10280.0
 20
413.9999999999986
 30
0.0
 11
10280.0
 21
1242.0
 31
0.0
  0
LINE
  5
171A3
330
17656
100
AcDbEntity
  8
WAKUSEN-02
100
AcDbLine
 10
13434.0
 20
413.9999999999963
 30
0.0
 11
13434.0
 21
1242.0
 31
0.0
  0
LINE
  5
171A4
330
17656
100
AcDbEntity
  8
YODOROGO
100
AcDbLine
 10
14988.80217064596
 20
997.8747482146435
 30
0.0
 11
14914.80217064596
 21
997.8747482146435
 31
0.0
1001
AUTOCAD_POSTSCRIPT_FIGURE
1002
{
1000
PSFILL
1000
Grayscale
1000
Grayscale
1070
    25
1002
}
  0
LINE
  5
171A5
330
17656
100
AcDbEntity
  8
YODOROGO
100
AcDbLine
 10
14914.80217064596
 20
973.8747482146436
 30
0.0
 11
14988.80217064596
 21
973.8747482146436
 31
0.0
1001
AUTOCAD_POSTSCRIPT_FIGURE
1002
{
1000
PSFILL
1000
Grayscale
1000
Grayscale
1070
    25
1002
}
  0
LINE
  5
171A6
330
17656
100
AcDbEntity
  8
YODOROGO
100
AcDbLine
 10
14988.80217064596
 20
953.874748214644
 30
0.0
 11
14914.80217064596
 21
953.874748214644
 31
0.0
1001
AUTOCAD_POSTSCRIPT_FIGURE
1002
{
1000
PSFILL
1000
Grayscale
1000
Grayscale
1070
    25
1002
}
  0
LINE
  5
171A7
330
17656
100
AcDbEntity
  8
YODOROGO
100
AcDbLine
 10
14914.80217064596
 20
929.874748214644
 30
0.0
 11
14988.80217064596
 21
929.874748214644
 31
0.0
1001
AUTOCAD_POSTSCRIPT_FIGURE
1002
{
1000
PSFILL
1000
Grayscale
1000
Grayscale
1070
    25
1002
}
  0
LINE
  5
171A8
330
17656
100
AcDbEntity
  8
YODOROGO
100
AcDbLine
 10
14988.80217064596
 20
909.8747482146439
 30
0.0
 11
14914.80217064596
 21
909.8747482146439
 31
0.0
1001
AUTOCAD_POSTSCRIPT_FIGURE
1002
{
1000
PSFILL
1000
Grayscale
1000
Grayscale
1070
    25
1002
}
  0
LINE
  5
171A9
330
17656
100
AcDbEntity
  8
YODOROGO
100
AcDbLine
 10
14960.80217064594
 20
853.8747482146439
 30
0.0
 11
14988.80217064596
 21
853.8747482146439
 31
0.0
1001
AUTOCAD_POSTSCRIPT_FIGURE
1002
{
1000
PSFILL
1000
Grayscale
1000
Grayscale
1070
    25
1002
}
  0
LINE
  5
171AA
330
17656
100
AcDbEntity
  8
YODOROGO
100
AcDbLine
 10
14868.80217064596
 20
713.8747482146436
 30
0.0
 11
14968.80217064596
 21
740.6696674577553
 31
0.0
  0
LINE
  5
171AB
330
17656
100
AcDbEntity
  8
YODOROGO
100
AcDbLine
 10
14974.80217064595
 20
853.8747482146439
 30
0.0
 11
14942.80217064596
 21
853.8747482146439
 31
0.0
  0
ARC
  5
171AC
330
17656
100
AcDbEntity
  8
YODOROGO
100
AcDbCircle
 10
15127.17387491395
 20
903.9323046166312
 30
0.0
 40
190.9434321028236
100
AcDbArc
 50
213.9611167766784
 51
264.4787207431779
  0
ARC
  5
171AD
330
17656
100
AcDbEntity
  8
YODOROGO
100
AcDbCircle
 10
15127.17387491396
 20
903.9323046166513
 30
0.0
 40
190.9434321028408
100
AcDbArc
 50
208.141144204866
 51
212.9210361185995
  0
LINE
  5
171AE
330
17656
100
AcDbEntity
  8
YODOROGO
100
AcDbLine
 10
14885.70493649264
 20
778.403830673117
 30
0.0
 11
14966.89206625426
 21
800.1578565285436
 31
0.0
  0
LINE
  5
171AF
330
17656
100
AcDbEntity
  8
YODOROGO
100
AcDbLine
 10
14868.80217064596
 20
713.8747482146436
 30
0.0
 11
14968.80217064596
 21
740.6696674577553
 31
0.0
  0
LINE
  5
171B0
330
17656
100
AcDbEntity
  8
YODOROGO
100
AcDbLine
 10
14974.80217064595
 20
853.8747482146439
 30
0.0
 11
14942.80217064596
 21
853.8747482146439
 31
0.0
  0
ARC
  5
171B1
330
17656
100
AcDbEntity
  8
YODOROGO
100
AcDbCircle
 10
15127.17387491395
 20
903.9323046166312
 30
0.0
 40
190.9434321028236
100
AcDbArc
 50
213.9611167766784
 51
264.4787207431779
  0
LINE
  5
171B2
330
17656
100
AcDbEntity
  8
YODOROGO
100
AcDbLine
 10
14396.80217064594
 20
909.8747482146439
 30
0.0
 11
14216.80217064595
 21
909.8747482146439
 31
0.0
  0
LINE
  5
171B3
330
17656
100
AcDbEntity
  8
YODOROGO
100
AcDbLine
 10
14256.80217064595
 20
713.8747482146436
 30
0.0
 11
14396.80217064594
 21
713.8747482146436
 31
0.0
  0
LINE
  5
171B4
330
17656
100
AcDbEntity
  8
YODOROGO
100
AcDbLine
 10
14364.80217064596
 20
961.8747482146432
 30
0.0
 11
14248.80217064595
 21
961.8747482146432
 31
0.0
  0
LINE
  5
171B5
330
17656
100
AcDbEntity
  8
YODOROGO
100
AcDbLine
 10
14292.80217064596
 20
1013.874748214644
 30
0.0
 11
14328.80217064596
 21
1013.874748214644
 31
0.0
  0
LINE
  5
171B6
330
17656
100
AcDbEntity
  8
YODOROGO
100
AcDbLine
 10
14216.80217064595
 20
853.8747482146439
 30
0.0
 11
14216.80217064595
 21
753.8747482146439
 31
0.0
  0
LINE
  5
171B7
330
17656
100
AcDbEntity
  8
YODOROGO
100
AcDbLine
 10
14248.80217064595
 20
781.8747482146434
 30
0.0
 11
14248.80217064595
 21
853.8747482146439
 31
0.0
  0
LINE
  5
171B8
330
17656
100
AcDbEntity
  8
YODOROGO
100
AcDbLine
 10
14292.80217064596
 20
873.8747482146449
 30
0.0
 11
14292.80217064596
 21
773.8747482146439
 31
0.0
  0
LINE
  5
171B9
330
17656
100
AcDbEntity
  8
YODOROGO
100
AcDbLine
 10
13928.80217064596
 20
841.8747482146445
 30
0.0
 11
13888.80217064596
 21
809.9862070222856
 31
0.0
  0
LINE
  5
171BA
330
17656
100
AcDbEntity
  8
YODOROGO
100
AcDbLine
 10
13968.80217064596
 20
809.9862070222856
 30
0.0
 11
13928.80217064596
 21
841.8747482146445
 31
0.0
  0
LINE
  5
171BB
330
17656
100
AcDbEntity
  8
YODOROGO
100
AcDbLine
 10
13928.80217064596
 20
853.8747482146439
 30
0.0
 11
13968.80217064596
 21
821.986207022285
 31
0.0
  0
LINE
  5
171BC
330
17656
100
AcDbEntity
  8
YODOROGO
100
AcDbLine
 10
13888.80217064596
 20
821.986207022285
 30
0.0
 11
13928.80217064596
 21
853.8747482146439
 31
0.0
  0
LINE
  5
171BD
330
17656
100
AcDbEntity
  8
YODOROGO
100
AcDbLine
 10
14020.45660200845
 20
829.874748214644
 30
0.0
 11
14020.45660200845
 21
841.8747482146434
 31
0.0
  0
LINE
  5
171BE
330
17656
100
AcDbEntity
  8
YODOROGO
100
AcDbLine
 10
13988.80217064596
 20
841.8747482146434
 30
0.0
 11
13988.80217064596
 21
833.8747482146427
 31
0.0
  0
LINE
  5
171BF
330
17656
100
AcDbEntity
  8
YODOROGO
100
AcDbLine
 10
14049.06776011545
 20
853.8747482146439
 30
0.0
 11
14049.06776011545
 21
827.751818637328
 31
0.0
1001
AUTOCAD_POSTSCRIPT_FIGURE
1002
{
1000
PSFILL
1000
Grayscale
1000
Grayscale
1070
   100
1002
}
  0
LINE
  5
171C0
330
17656
100
AcDbEntity
  8
YODOROGO
100
AcDbLine
 10
14041.06776011546
 20
827.751818637328
 30
0.0
 11
14041.06776011546
 21
853.8747482146439
 31
0.0
1001
AUTOCAD_POSTSCRIPT_FIGURE
1002
{
1000
PSFILL
1000
Grayscale
1000
Grayscale
1070
   100
1002
}
  0
LINE
  5
171C1
330
17656
100
AcDbEntity
  8
YODOROGO
100
AcDbLine
 10
13904.80217064596
 20
804.3859520216292
 30
0.0
 11
13904.80217064596
 21
816.3859520216298
 31
0.0
  0
LINE
  5
171C2
330
17656
100
AcDbEntity
  8
YODOROGO
100
AcDbLine
 10
13952.80217064596
 20
804.3859520216292
 30
0.0
 11
13904.80217064596
 21
804.3859520216292
 31
0.0
  0
LINE
  5
171C3
330
17656
100
AcDbEntity
  8
YODOROGO
100
AcDbLine
 10
13952.80217064596
 20
816.3859520216298
 30
0.0
 11
13952.80217064596
 21
804.3859520216292
 31
0.0
  0
LINE
  5
171C4
330
17656
100
AcDbEntity
  8
YODOROGO
100
AcDbLine
 10
13904.80217064596
 20
816.3859520216298
 30
0.0
 11
13952.80217064596
 21
816.3859520216298
 31
0.0
  0
LINE
  5
171C5
330
17656
100
AcDbEntity
  8
YODOROGO
100
AcDbLine
 10
13912.25479445787
 20
784.2514286852374
 30
0.0
 11
13892.80217064596
 21
737.8747482146437
 31
0.0
1001
AUTOCAD_POSTSCRIPT_FIGURE
1002
{
1000
PSFILL
1000
Grayscale
1000
Grayscale
1070
   100
1002
}
  0
LINE
  5
171C6
330
17656
100
AcDbEntity
  8
YODOROGO
100
AcDbLine
 10
13888.80217064596
 20
784.2514286852374
 30
0.0
 11
13912.25479445787
 21
784.2514286852374
 31
0.0
1001
AUTOCAD_POSTSCRIPT_FIGURE
1002
{
1000
PSFILL
1000
Grayscale
1000
Grayscale
1070
   100
1002
}
  0
LINE
  5
171C7
330
17656
100
AcDbEntity
  8
YODOROGO
100
AcDbLine
 10
13888.80217064596
 20
794.2514286852374
 30
0.0
 11
13888.80217064596
 21
784.2514286852374
 31
0.0
1001
AUTOCAD_POSTSCRIPT_FIGURE
1002
{
1000
PSFILL
1000
Grayscale
1000
Grayscale
1070
   100
1002
}
  0
LINE
  5
171C8
330
17656
100
AcDbEntity
  8
YODOROGO
100
AcDbLine
 10
13968.80217064596
 20
794.2514286852374
 30
0.0
 11
13888.80217064596
 21
794.2514286852374
 31
0.0
1001
AUTOCAD_POSTSCRIPT_FIGURE
1002
{
1000
PSFILL
1000
Grayscale
1000
Grayscale
1070
   100
1002
}
  0
LINE
  5
171C9
330
17656
100
AcDbEntity
  8
YODOROGO
100
AcDbLine
 10
13968.80217064596
 20
784.2514286852374
 30
0.0
 11
13968.80217064596
 21
794.2514286852374
 31
0.0
1001
AUTOCAD_POSTSCRIPT_FIGURE
1002
{
1000
PSFILL
1000
Grayscale
1000
Grayscale
1070
   100
1002
}
  0
LINE
  5
171CA
330
17656
100
AcDbEntity
  8
YODOROGO
100
AcDbLine
 10
13922.25479445787
 20
784.2514286852374
 30
0.0
 11
13968.80217064596
 21
784.2514286852374
 31
0.0
1001
AUTOCAD_POSTSCRIPT_FIGURE
1002
{
1000
PSFILL
1000
Grayscale
1000
Grayscale
1070
   100
1002
}
  0
LINE
  5
171CB
330
17656
100
AcDbEntity
  8
YODOROGO
100
AcDbLine
 10
13907.77335914239
 20
747.8747482146435
 30
0.0
 11
13922.25479445787
 21
784.2514286852374
 31
0.0
1001
AUTOCAD_POSTSCRIPT_FIGURE
1002
{
1000
PSFILL
1000
Grayscale
1000
Grayscale
1070
   100
1002
}
  0
LINE
  5
171CC
330
17656
100
AcDbEntity
  8
YODOROGO
100
AcDbLine
 10
13951.02739540432
 20
747.8747482146435
 30
0.0
 11
13907.77335914239
 21
747.8747482146435
 31
0.0
1001
AUTOCAD_POSTSCRIPT_FIGURE
1002
{
1000
PSFILL
1000
Grayscale
1000
Grayscale
1070
   100
1002
}
  0
LINE
  5
171CD
330
17656
100
AcDbEntity
  8
YODOROGO
100
AcDbLine
 10
13942.53250239547
 20
768.1169053488464
 30
0.0
 11
13951.02739540432
 21
747.8747482146435
 31
0.0
1001
AUTOCAD_POSTSCRIPT_FIGURE
1002
{
1000
PSFILL
1000
Grayscale
1000
Grayscale
1070
   100
1002
}
  0
LINE
  5
171CE
330
17656
100
AcDbEntity
  8
YODOROGO
100
AcDbLine
 10
13950.53250239547
 20
768.1169053488464
 30
0.0
 11
13942.53250239547
 21
768.1169053488464
 31
0.0
1001
AUTOCAD_POSTSCRIPT_FIGURE
1002
{
1000
PSFILL
1000
Grayscale
1000
Grayscale
1070
   100
1002
}
  0
LINE
  5
171CF
330
17656
100
AcDbEntity
  8
YODOROGO
100
AcDbLine
 10
13964.80217064596
 20
737.8747482146437
 30
0.0
 11
13950.53250239547
 21
768.1169053488464
 31
0.0
1001
AUTOCAD_POSTSCRIPT_FIGURE
1002
{
1000
PSFILL
1000
Grayscale
1000
Grayscale
1070
   100
1002
}
  0
LINE
  5
171D0
330
17656
100
AcDbEntity
  8
YODOROGO
100
AcDbLine
 10
13892.80217064596
 20
737.8747482146437
 30
0.0
 11
13964.80217064596
 21
737.8747482146437
 31
0.0
1001
AUTOCAD_POSTSCRIPT_FIGURE
1002
{
1000
PSFILL
1000
Grayscale
1000
Grayscale
1070
   100
1002
}
  0
LINE
  5
171D1
330
17656
100
AcDbEntity
  8
YODOROGO
100
AcDbLine
 10
13888.80217064596
 20
809.9862070222856
 30
0.0
 11
13888.80217064596
 21
821.986207022285
 31
0.0
  0
LINE
  5
171D2
330
17656
100
AcDbEntity
  8
YODOROGO
100
AcDbLine
 10
13968.80217064596
 20
821.986207022285
 30
0.0
 11
13968.80217064596
 21
809.9862070222856
 31
0.0
  0
ARC
  5
171D3
330
17656
100
AcDbEntity
  8
YODOROGO
100
AcDbCircle
 10
14112.97022107348
 20
800.438882662663
 30
0.0
 40
87.99999999999995
100
AcDbArc
 50
280.3644312771313
 51
3.541483659218056
  0
ARC
  5
171D4
330
17656
100
AcDbEntity
  8
YODOROGO
100
AcDbCircle
 10
14117.87801537965
 20
816.7989034809522
 30
0.0
 40
55.99999999999916
100
AcDbArc
 50
281.2490582504155
 51
348.7509417495832
  0
LINE
  5
171D5
330
17656
100
AcDbEntity
  8
YODOROGO
100
AcDbLine
 10
14128.80217064596
 20
761.8747482146434
 30
0.0
 11
14128.80217064596
 21
713.8747482146436
 31
0.0
  0
LINE
  5
171D6
330
17656
100
AcDbEntity
  8
YODOROGO
100
AcDbLine
 10
14010.04445186844
 20
805.3252825309574
 30
0.0
 11
14020.45660200845
 21
829.874748214644
 31
0.0
  0
LINE
  5
171D7
330
17656
100
AcDbEntity
  8
YODOROGO
100
AcDbLine
 10
14020.80217064596
 20
791.5602449742006
 30
0.0
 11
14010.04445186844
 21
805.3252825309574
 31
0.0
  0
LINE
  5
171D8
330
17656
100
AcDbEntity
  8
YODOROGO
100
AcDbLine
 10
14020.80217064596
 20
781.5602449741995
 30
0.0
 11
14020.80217064596
 21
791.5602449742006
 31
0.0
  0
LINE
  5
171D9
330
17656
100
AcDbEntity
  8
YODOROGO
100
AcDbLine
 10
14008.80217064596
 20
792.6185318747652
 30
0.0
 11
14020.80217064596
 21
781.5602449741995
 31
0.0
  0
LINE
  5
171DA
330
17656
100
AcDbEntity
  8
YODOROGO
100
AcDbLine
 10
14008.80217064596
 20
737.8747482146437
 30
0.0
 11
14008.80217064596
 21
792.6185318747652
 31
0.0
  0
LINE
  5
171DB
330
17656
100
AcDbEntity
  8
YODOROGO
100
AcDbLine
 10
14000.80217064596
 20
737.8747482146437
 30
0.0
 11
14008.80217064596
 21
737.8747482146437
 31
0.0
  0
LINE
  5
171DC
330
17656
100
AcDbEntity
  8
YODOROGO
100
AcDbLine
 10
14000.80217064596
 20
790.0026748448738
 30
0.0
 11
14000.80217064596
 21
737.8747482146437
 31
0.0
  0
LINE
  5
171DD
330
17656
100
AcDbEntity
  8
YODOROGO
100
AcDbLine
 10
13988.80217064596
 20
766.3840395167142
 30
0.0
 11
14000.80217064596
 21
790.0026748448738
 31
0.0
  0
LINE
  5
171DE
330
17656
100
AcDbEntity
  8
YODOROGO
100
AcDbLine
 10
13988.80217064596
 20
778.3840395167149
 30
0.0
 11
13988.80217064596
 21
766.3840395167142
 31
0.0
  0
LINE
  5
171DF
330
17656
100
AcDbEntity
  8
YODOROGO
100
AcDbLine
 10
14012.91438714567
 20
833.8747482146427
 30
0.0
 11
13988.80217064596
 21
778.3840395167149
 31
0.0
  0
LINE
  5
171E0
330
17656
100
AcDbEntity
  8
YODOROGO
100
AcDbLine
 10
13988.80217064596
 20
833.8747482146427
 30
0.0
 11
14012.91438714567
 21
833.8747482146427
 31
0.0
  0
LINE
  5
171E1
330
17656
100
AcDbEntity
  8
YODOROGO
100
AcDbLine
 10
14025.06776011545
 20
827.751818637328
 30
0.0
 11
14041.06776011546
 21
827.751818637328
 31
0.0
1001
AUTOCAD_POSTSCRIPT_FIGURE
1002
{
1000
PSFILL
1000
Grayscale
1000
Grayscale
1070
   100
1002
}
  0
LINE
  5
171E2
330
17656
100
AcDbEntity
  8
YODOROGO
100
AcDbLine
 10
14025.06776011545
 20
815.7518186373286
 30
0.0
 11
14025.06776011545
 21
827.751818637328
 31
0.0
1001
AUTOCAD_POSTSCRIPT_FIGURE
1002
{
1000
PSFILL
1000
Grayscale
1000
Grayscale
1070
   100
1002
}
  0
LINE
  5
171E3
330
17656
100
AcDbEntity
  8
YODOROGO
100
AcDbLine
 10
14041.06776011546
 20
815.7518186373286
 30
0.0
 11
14025.06776011545
 21
815.7518186373286
 31
0.0
1001
AUTOCAD_POSTSCRIPT_FIGURE
1002
{
1000
PSFILL
1000
Grayscale
1000
Grayscale
1070
   100
1002
}
  0
LINE
  5
171E4
330
17656
100
AcDbEntity
  8
YODOROGO
100
AcDbLine
 10
14041.06776011546
 20
749.8747482146441
 30
0.0
 11
14041.06776011546
 21
815.7518186373286
 31
0.0
1001
AUTOCAD_POSTSCRIPT_FIGURE
1002
{
1000
PSFILL
1000
Grayscale
1000
Grayscale
1070
   100
1002
}
  0
LINE
  5
171E5
330
17656
100
AcDbEntity
  8
YODOROGO
100
AcDbLine
 10
14025.06776011545
 20
749.8747482146441
 30
0.0
 11
14041.06776011546
 21
749.8747482146441
 31
0.0
1001
AUTOCAD_POSTSCRIPT_FIGURE
1002
{
1000
PSFILL
1000
Grayscale
1000
Grayscale
1070
   100
1002
}
  0
LINE
  5
171E6
330
17656
100
AcDbEntity
  8
YODOROGO
100
AcDbLine
 10
14025.06776011545
 20
737.8747482146437
 30
0.0
 11
14025.06776011545
 21
749.8747482146441
 31
0.0
1001
AUTOCAD_POSTSCRIPT_FIGURE
1002
{
1000
PSFILL
1000
Grayscale
1000
Grayscale
1070
   100
1002
}
  0
LINE
  5
171E7
330
17656
100
AcDbEntity
  8
YODOROGO
100
AcDbLine
 10
14068.80217064596
 20
737.8747482146437
 30
0.0
 11
14025.06776011545
 21
737.8747482146437
 31
0.0
1001
AUTOCAD_POSTSCRIPT_FIGURE
1002
{
1000
PSFILL
1000
Grayscale
1000
Grayscale
1070
   100
1002
}
  0
LINE
  5
171E8
330
17656
100
AcDbEntity
  8
YODOROGO
100
AcDbLine
 10
14068.80217064596
 20
749.8747482146441
 30
0.0
 11
14068.80217064596
 21
737.8747482146437
 31
0.0
1001
AUTOCAD_POSTSCRIPT_FIGURE
1002
{
1000
PSFILL
1000
Grayscale
1000
Grayscale
1070
   100
1002
}
  0
LINE
  5
171E9
330
17656
100
AcDbEntity
  8
YODOROGO
100
AcDbLine
 10
14049.06776011545
 20
749.8747482146441
 30
0.0
 11
14068.80217064596
 21
749.8747482146441
 31
0.0
1001
AUTOCAD_POSTSCRIPT_FIGURE
1002
{
1000
PSFILL
1000
Grayscale
1000
Grayscale
1070
   100
1002
}
  0
LINE
  5
171EA
330
17656
100
AcDbEntity
  8
YODOROGO
100
AcDbLine
 10
14049.06776011545
 20
815.7518186373286
 30
0.0
 11
14049.06776011545
 21
749.8747482146441
 31
0.0
1001
AUTOCAD_POSTSCRIPT_FIGURE
1002
{
1000
PSFILL
1000
Grayscale
1000
Grayscale
1070
   100
1002
}
  0
LINE
  5
171EB
330
17656
100
AcDbEntity
  8
YODOROGO
100
AcDbLine
 10
14068.80217064596
 20
815.7518186373286
 30
0.0
 11
14049.06776011545
 21
815.7518186373286
 31
0.0
1001
AUTOCAD_POSTSCRIPT_FIGURE
1002
{
1000
PSFILL
1000
Grayscale
1000
Grayscale
1070
   100
1002
}
  0
LINE
  5
171EC
330
17656
100
AcDbEntity
  8
YODOROGO
100
AcDbLine
 10
14068.80217064596
 20
827.751818637328
 30
0.0
 11
14068.80217064596
 21
815.7518186373286
 31
0.0
1001
AUTOCAD_POSTSCRIPT_FIGURE
1002
{
1000
PSFILL
1000
Grayscale
1000
Grayscale
1070
   100
1002
}
  0
LINE
  5
171ED
330
17656
100
AcDbEntity
  8
YODOROGO
100
AcDbLine
 10
14049.06776011545
 20
827.751818637328
 30
0.0
 11
14068.80217064596
 21
827.751818637328
 31
0.0
1001
AUTOCAD_POSTSCRIPT_FIGURE
1002
{
1000
PSFILL
1000
Grayscale
1000
Grayscale
1070
   100
1002
}
  0
LINE
  5
171EE
330
17656
100
AcDbEntity
  8
YODOROGO
100
AcDbLine
 10
14200.80217064595
 20
833.8747482146439
 30
0.0
 11
14172.80217064596
 21
833.8747482146439
 31
0.0
  0
LINE
  5
171EF
330
17656
100
AcDbEntity
  8
YODOROGO
100
AcDbLine
 10
14200.80217064595
 20
805.8747482146443
 30
0.0
 11
14200.80217064595
 21
833.8747482146439
 31
0.0
  0
LINE
  5
171F0
330
17656
100
AcDbEntity
  8
YODOROGO
100
AcDbLine
 10
14172.80217064596
 20
833.8747482146439
 30
0.0
 11
14172.80217064596
 21
805.8747482146443
 31
0.0
  0
ARC
  5
171F1
330
17656
100
AcDbEntity
  8
YODOROGO
100
AcDbCircle
 10
14256.80217064595
 20
753.8747482146439
 30
0.0
 40
40.0
100
AcDbArc
 50
180.0
 51
270.0
  0
ARC
  5
171F2
330
17656
100
AcDbEntity
  8
YODOROGO
100
AcDbCircle
 10
14268.80217064595
 20
781.8747482146434
 30
0.0
 40
20.0
100
AcDbArc
 50
180.0
 51
270.0
  0
LINE
  5
171F3
330
17656
100
AcDbEntity
  8
YODOROGO
100
AcDbLine
 10
14280.80217064596
 20
761.8747482146434
 30
0.0
 11
14268.80217064595
 21
761.8747482146434
 31
0.0
  0
ARC
  5
171F4
330
17656
100
AcDbEntity
  8
YODOROGO
100
AcDbCircle
 10
14280.80217064596
 20
773.8747482146427
 30
0.0
 40
11.99999999999818
100
AcDbArc
 50
270.0
 51
0.0000000000054281
  0
LINE
  5
171F5
330
17656
100
AcDbEntity
  8
YODOROGO
100
AcDbLine
 10
13900.80217064596
 20
945.3932903968532
 30
0.0
 11
13888.80217064596
 21
921.8883739758362
 31
0.0
1001
AUTOCAD_POSTSCRIPT_FIGURE
1002
{
1000
PSFILL
1000
Grayscale
1000
Grayscale
1070
   100
1002
}
  0
LINE
  5
171F6
330
17656
100
AcDbEntity
  8
YODOROGO
100
AcDbLine
 10
13900.80217064596
 20
873.8747482146436
 30
0.0
 11
13900.80217064596
 21
945.3932903968532
 31
0.0
1001
AUTOCAD_POSTSCRIPT_FIGURE
1002
{
1000
PSFILL
1000
Grayscale
1000
Grayscale
1070
   100
1002
}
  0
LINE
  5
171F7
330
17656
100
AcDbEntity
  8
YODOROGO
100
AcDbLine
 10
13908.80217064596
 20
873.8747482146436
 30
0.0
 11
13900.80217064596
 21
873.8747482146436
 31
0.0
1001
AUTOCAD_POSTSCRIPT_FIGURE
1002
{
1000
PSFILL
1000
Grayscale
1000
Grayscale
1070
   100
1002
}
  0
LINE
  5
171F8
330
17656
100
AcDbEntity
  8
YODOROGO
100
AcDbLine
 10
13908.80217064596
 20
946.8856660426334
 30
0.0
 11
13908.80217064596
 21
873.8747482146436
 31
0.0
1001
AUTOCAD_POSTSCRIPT_FIGURE
1002
{
1000
PSFILL
1000
Grayscale
1000
Grayscale
1070
   100
1002
}
  0
LINE
  5
171F9
330
17656
100
AcDbEntity
  8
YODOROGO
100
AcDbLine
 10
13920.80217064596
 20
933.8273791420684
 30
0.0
 11
13908.80217064596
 21
946.8856660426334
 31
0.0
1001
AUTOCAD_POSTSCRIPT_FIGURE
1002
{
1000
PSFILL
1000
Grayscale
1000
Grayscale
1070
   100
1002
}
  0
LINE
  5
171FA
330
17656
100
AcDbEntity
  8
YODOROGO
100
AcDbLine
 10
13920.80217064596
 20
941.8273791420681
 30
0.0
 11
13920.80217064596
 21
933.8273791420684
 31
0.0
1001
AUTOCAD_POSTSCRIPT_FIGURE
1002
{
1000
PSFILL
1000
Grayscale
1000
Grayscale
1070
   100
1002
}
  0
LINE
  5
171FB
330
17656
100
AcDbEntity
  8
YODOROGO
100
AcDbLine
 10
13908.80217064596
 20
958.8856660426326
 30
0.0
 11
13920.80217064596
 21
941.8273791420681
 31
0.0
1001
AUTOCAD_POSTSCRIPT_FIGURE
1002
{
1000
PSFILL
1000
Grayscale
1000
Grayscale
1070
   100
1002
}
  0
LINE
  5
171FC
330
17656
100
AcDbEntity
  8
YODOROGO
100
AcDbLine
 10
13908.80217064596
 20
969.8747482146441
 30
0.0
 11
13908.80217064596
 21
958.8856660426326
 31
0.0
1001
AUTOCAD_POSTSCRIPT_FIGURE
1002
{
1000
PSFILL
1000
Grayscale
1000
Grayscale
1070
   100
1002
}
  0
LINE
  5
171FD
330
17656
100
AcDbEntity
  8
YODOROGO
100
AcDbLine
 10
13944.80217064596
 20
969.8747482146441
 30
0.0
 11
13908.80217064596
 21
969.8747482146441
 31
0.0
1001
AUTOCAD_POSTSCRIPT_FIGURE
1002
{
1000
PSFILL
1000
Grayscale
1000
Grayscale
1070
   100
1002
}
  0
LINE
  5
171FE
330
17656
100
AcDbEntity
  8
YODOROGO
100
AcDbLine
 10
13944.80217064596
 20
950.2841744681497
 30
0.0
 11
13944.80217064596
 21
969.8747482146441
 31
0.0
1001
AUTOCAD_POSTSCRIPT_FIGURE
1002
{
1000
PSFILL
1000
Grayscale
1000
Grayscale
1070
   100
1002
}
  0
LINE
  5
171FF
330
17656
100
AcDbEntity
  8
YODOROGO
100
AcDbLine
 10
13928.80217064596
 20
950.2841744681497
 30
0.0
 11
13944.80217064596
 21
950.2841744681497
 31
0.0
1001
AUTOCAD_POSTSCRIPT_FIGURE
1002
{
1000
PSFILL
1000
Grayscale
1000
Grayscale
1070
   100
1002
}
  0
LINE
  5
17200
330
17656
100
AcDbEntity
  8
YODOROGO
100
AcDbLine
 10
13928.80217064596
 20
942.2841744681491
 30
0.0
 11
13928.80217064596
 21
950.2841744681497
 31
0.0
1001
AUTOCAD_POSTSCRIPT_FIGURE
1002
{
1000
PSFILL
1000
Grayscale
1000
Grayscale
1070
   100
1002
}
  0
LINE
  5
17201
330
17656
100
AcDbEntity
  8
YODOROGO
100
AcDbLine
 10
13944.80217064596
 20
942.2841744681491
 30
0.0
 11
13928.80217064596
 21
942.2841744681491
 31
0.0
1001
AUTOCAD_POSTSCRIPT_FIGURE
1002
{
1000
PSFILL
1000
Grayscale
1000
Grayscale
1070
   100
1002
}
  0
LINE
  5
17202
330
17656
100
AcDbEntity
  8
YODOROGO
100
AcDbLine
 10
13944.80217064596
 20
939.8095889822197
 30
0.0
 11
13944.80217064596
 21
942.2841744681491
 31
0.0
1001
AUTOCAD_POSTSCRIPT_FIGURE
1002
{
1000
PSFILL
1000
Grayscale
1000
Grayscale
1070
   100
1002
}
  0
LINE
  5
17203
330
17656
100
AcDbEntity
  8
YODOROGO
100
AcDbLine
 10
13924.80217064596
 20
906.4874905807087
 30
0.0
 11
13944.80217064596
 21
939.8095889822197
 31
0.0
1001
AUTOCAD_POSTSCRIPT_FIGURE
1002
{
1000
PSFILL
1000
Grayscale
1000
Grayscale
1070
   100
1002
}
  0
LINE
  5
17204
330
17656
100
AcDbEntity
  8
YODOROGO
100
AcDbLine
 10
13924.80217064596
 20
898.487490580708
 30
0.0
 11
13924.80217064596
 21
906.4874905807087
 31
0.0
1001
AUTOCAD_POSTSCRIPT_FIGURE
1002
{
1000
PSFILL
1000
Grayscale
1000
Grayscale
1070
   100
1002
}
  0
LINE
  5
17205
330
17656
100
AcDbEntity
  8
YODOROGO
100
AcDbLine
 10
13944.80217064596
 20
923.8095889822183
 30
0.0
 11
13924.80217064596
 21
898.487490580708
 31
0.0
1001
AUTOCAD_POSTSCRIPT_FIGURE
1002
{
1000
PSFILL
1000
Grayscale
1000
Grayscale
1070
   100
1002
}
  0
LINE
  5
17206
330
17656
100
AcDbEntity
  8
YODOROGO
100
AcDbLine
 10
13944.80217064596
 20
873.8747482146436
 30
0.0
 11
13944.80217064596
 21
923.8095889822183
 31
0.0
1001
AUTOCAD_POSTSCRIPT_FIGURE
1002
{
1000
PSFILL
1000
Grayscale
1000
Grayscale
1070
   100
1002
}
  0
LINE
  5
17207
330
17656
100
AcDbEntity
  8
YODOROGO
100
AcDbLine
 10
13952.80217064596
 20
873.8747482146436
 30
0.0
 11
13944.80217064596
 21
873.8747482146436
 31
0.0
1001
AUTOCAD_POSTSCRIPT_FIGURE
1002
{
1000
PSFILL
1000
Grayscale
1000
Grayscale
1070
   100
1002
}
  0
LINE
  5
17208
330
17656
100
AcDbEntity
  8
YODOROGO
100
AcDbLine
 10
13952.80217064596
 20
924.7045060794032
 30
0.0
 11
13952.80217064596
 21
873.8747482146436
 31
0.0
1001
AUTOCAD_POSTSCRIPT_FIGURE
1002
{
1000
PSFILL
1000
Grayscale
1000
Grayscale
1070
   100
1002
}
  0
LINE
  5
17209
330
17656
100
AcDbEntity
  8
YODOROGO
100
AcDbLine
 10
13968.80217064596
 20
898.487490580708
 30
0.0
 11
13952.80217064596
 21
924.7045060794032
 31
0.0
1001
AUTOCAD_POSTSCRIPT_FIGURE
1002
{
1000
PSFILL
1000
Grayscale
1000
Grayscale
1070
   100
1002
}
  0
LINE
  5
1720A
330
17656
100
AcDbEntity
  8
YODOROGO
100
AcDbLine
 10
13968.80217064596
 20
906.4874905807087
 30
0.0
 11
13968.80217064596
 21
898.487490580708
 31
0.0
1001
AUTOCAD_POSTSCRIPT_FIGURE
1002
{
1000
PSFILL
1000
Grayscale
1000
Grayscale
1070
   100
1002
}
  0
LINE
  5
1720B
330
17656
100
AcDbEntity
  8
YODOROGO
100
AcDbLine
 10
13952.80217064596
 20
940.7045060794045
 30
0.0
 11
13968.80217064596
 21
906.4874905807087
 31
0.0
1001
AUTOCAD_POSTSCRIPT_FIGURE
1002
{
1000
PSFILL
1000
Grayscale
1000
Grayscale
1070
   100
1002
}
  0
LINE
  5
1720C
330
17656
100
AcDbEntity
  8
YODOROGO
100
AcDbLine
 10
13952.80217064596
 20
942.2841744681502
 30
0.0
 11
13952.80217064596
 21
940.7045060794045
 31
0.0
1001
AUTOCAD_POSTSCRIPT_FIGURE
1002
{
1000
PSFILL
1000
Grayscale
1000
Grayscale
1070
   100
1002
}
  0
LINE
  5
1720D
330
17656
100
AcDbEntity
  8
YODOROGO
100
AcDbLine
 10
13968.80217064596
 20
942.2841744681491
 30
0.0
 11
13952.80217064596
 21
942.2841744681502
 31
0.0
1001
AUTOCAD_POSTSCRIPT_FIGURE
1002
{
1000
PSFILL
1000
Grayscale
1000
Grayscale
1070
   100
1002
}
  0
LINE
  5
1720E
330
17656
100
AcDbEntity
  8
YODOROGO
100
AcDbLine
 10
13968.80217064596
 20
950.2841744681497
 30
0.0
 11
13968.80217064596
 21
942.2841744681491
 31
0.0
1001
AUTOCAD_POSTSCRIPT_FIGURE
1002
{
1000
PSFILL
1000
Grayscale
1000
Grayscale
1070
   100
1002
}
  0
LINE
  5
1720F
330
17656
100
AcDbEntity
  8
YODOROGO
100
AcDbLine
 10
13952.80217064596
 20
950.2841744681497
 30
0.0
 11
13968.80217064596
 21
950.2841744681497
 31
0.0
1001
AUTOCAD_POSTSCRIPT_FIGURE
1002
{
1000
PSFILL
1000
Grayscale
1000
Grayscale
1070
   100
1002
}
  0
LINE
  5
17210
330
17656
100
AcDbEntity
  8
YODOROGO
100
AcDbLine
 10
13952.80217064596
 20
969.8747482146441
 30
0.0
 11
13952.80217064596
 21
950.2841744681497
 31
0.0
1001
AUTOCAD_POSTSCRIPT_FIGURE
1002
{
1000
PSFILL
1000
Grayscale
1000
Grayscale
1070
   100
1002
}
  0
LINE
  5
17211
330
17656
100
AcDbEntity
  8
YODOROGO
100
AcDbLine
 10
13968.80217064596
 20
969.8747482146441
 30
0.0
 11
13952.80217064596
 21
969.8747482146441
 31
0.0
1001
AUTOCAD_POSTSCRIPT_FIGURE
1002
{
1000
PSFILL
1000
Grayscale
1000
Grayscale
1070
   100
1002
}
  0
LINE
  5
17212
330
17656
100
AcDbEntity
  8
YODOROGO
100
AcDbLine
 10
13968.80217064596
 20
977.8747482146435
 30
0.0
 11
13968.80217064596
 21
969.8747482146441
 31
0.0
1001
AUTOCAD_POSTSCRIPT_FIGURE
1002
{
1000
PSFILL
1000
Grayscale
1000
Grayscale
1070
   100
1002
}
  0
LINE
  5
17213
330
17656
100
AcDbEntity
  8
YODOROGO
100
AcDbLine
 10
13952.80217064596
 20
977.8747482146435
 30
0.0
 11
13968.80217064596
 21
977.8747482146435
 31
0.0
1001
AUTOCAD_POSTSCRIPT_FIGURE
1002
{
1000
PSFILL
1000
Grayscale
1000
Grayscale
1070
   100
1002
}
  0
LINE
  5
17214
330
17656
100
AcDbEntity
  8
YODOROGO
100
AcDbLine
 10
13952.80217064596
 20
989.8747482146443
 30
0.0
 11
13952.80217064596
 21
977.8747482146435
 31
0.0
1001
AUTOCAD_POSTSCRIPT_FIGURE
1002
{
1000
PSFILL
1000
Grayscale
1000
Grayscale
1070
   100
1002
}
  0
LINE
  5
17215
330
17656
100
AcDbEntity
  8
YODOROGO
100
AcDbLine
 10
13944.80217064596
 20
989.8747482146443
 30
0.0
 11
13952.80217064596
 21
989.8747482146443
 31
0.0
1001
AUTOCAD_POSTSCRIPT_FIGURE
1002
{
1000
PSFILL
1000
Grayscale
1000
Grayscale
1070
   100
1002
}
  0
LINE
  5
17216
330
17656
100
AcDbEntity
  8
YODOROGO
100
AcDbLine
 10
13944.80217064596
 20
977.8747482146435
 30
0.0
 11
13944.80217064596
 21
989.8747482146443
 31
0.0
1001
AUTOCAD_POSTSCRIPT_FIGURE
1002
{
1000
PSFILL
1000
Grayscale
1000
Grayscale
1070
   100
1002
}
  0
LINE
  5
17217
330
17656
100
AcDbEntity
  8
YODOROGO
100
AcDbLine
 10
13932.80217064596
 20
977.8747482146435
 30
0.0
 11
13944.80217064596
 21
977.8747482146435
 31
0.0
1001
AUTOCAD_POSTSCRIPT_FIGURE
1002
{
1000
PSFILL
1000
Grayscale
1000
Grayscale
1070
   100
1002
}
  0
LINE
  5
17218
330
17656
100
AcDbEntity
  8
YODOROGO
100
AcDbLine
 10
13932.80217064596
 20
989.8747482146443
 30
0.0
 11
13932.80217064596
 21
977.8747482146435
 31
0.0
1001
AUTOCAD_POSTSCRIPT_FIGURE
1002
{
1000
PSFILL
1000
Grayscale
1000
Grayscale
1070
   100
1002
}
  0
LINE
  5
17219
330
17656
100
AcDbEntity
  8
YODOROGO
100
AcDbLine
 10
13924.80217064596
 20
989.8747482146443
 30
0.0
 11
13932.80217064596
 21
989.8747482146443
 31
0.0
1001
AUTOCAD_POSTSCRIPT_FIGURE
1002
{
1000
PSFILL
1000
Grayscale
1000
Grayscale
1070
   100
1002
}
  0
LINE
  5
1721A
330
17656
100
AcDbEntity
  8
YODOROGO
100
AcDbLine
 10
13924.80217064596
 20
977.8747482146435
 30
0.0
 11
13924.80217064596
 21
989.8747482146443
 31
0.0
1001
AUTOCAD_POSTSCRIPT_FIGURE
1002
{
1000
PSFILL
1000
Grayscale
1000
Grayscale
1070
   100
1002
}
  0
LINE
  5
1721B
330
17656
100
AcDbEntity
  8
YODOROGO
100
AcDbLine
 10
13908.80217064596
 20
977.8747482146435
 30
0.0
 11
13924.80217064596
 21
977.8747482146435
 31
0.0
1001
AUTOCAD_POSTSCRIPT_FIGURE
1002
{
1000
PSFILL
1000
Grayscale
1000
Grayscale
1070
   100
1002
}
  0
LINE
  5
1721C
330
17656
100
AcDbEntity
  8
YODOROGO
100
AcDbLine
 10
13908.80217064596
 20
989.8747482146443
 30
0.0
 11
13908.80217064596
 21
977.8747482146435
 31
0.0
1001
AUTOCAD_POSTSCRIPT_FIGURE
1002
{
1000
PSFILL
1000
Grayscale
1000
Grayscale
1070
   100
1002
}
  0
LINE
  5
1721D
330
17656
100
AcDbEntity
  8
YODOROGO
100
AcDbLine
 10
13900.80217064596
 20
989.8747482146443
 30
0.0
 11
13908.80217064596
 21
989.8747482146443
 31
0.0
1001
AUTOCAD_POSTSCRIPT_FIGURE
1002
{
1000
PSFILL
1000
Grayscale
1000
Grayscale
1070
   100
1002
}
  0
LINE
  5
1721E
330
17656
100
AcDbEntity
  8
YODOROGO
100
AcDbLine
 10
13900.80217064596
 20
977.8747482146435
 30
0.0
 11
13900.80217064596
 21
989.8747482146443
 31
0.0
1001
AUTOCAD_POSTSCRIPT_FIGURE
1002
{
1000
PSFILL
1000
Grayscale
1000
Grayscale
1070
   100
1002
}
  0
LINE
  5
1721F
330
17656
100
AcDbEntity
  8
YODOROGO
100
AcDbLine
 10
13888.80217064596
 20
977.8747482146435
 30
0.0
 11
13900.80217064596
 21
977.8747482146435
 31
0.0
1001
AUTOCAD_POSTSCRIPT_FIGURE
1002
{
1000
PSFILL
1000
Grayscale
1000
Grayscale
1070
   100
1002
}
  0
LINE
  5
17220
330
17656
100
AcDbEntity
  8
YODOROGO
100
AcDbLine
 10
13888.80217064596
 20
969.8747482146441
 30
0.0
 11
13888.80217064596
 21
977.8747482146435
 31
0.0
1001
AUTOCAD_POSTSCRIPT_FIGURE
1002
{
1000
PSFILL
1000
Grayscale
1000
Grayscale
1070
   100
1002
}
  0
LINE
  5
17221
330
17656
100
AcDbEntity
  8
YODOROGO
100
AcDbLine
 10
13900.80217064596
 20
969.8747482146441
 30
0.0
 11
13888.80217064596
 21
969.8747482146441
 31
0.0
1001
AUTOCAD_POSTSCRIPT_FIGURE
1002
{
1000
PSFILL
1000
Grayscale
1000
Grayscale
1070
   100
1002
}
  0
LINE
  5
17222
330
17656
100
AcDbEntity
  8
YODOROGO
100
AcDbLine
 10
13900.80217064596
 20
957.3932903968524
 30
0.0
 11
13900.80217064596
 21
969.8747482146441
 31
0.0
1001
AUTOCAD_POSTSCRIPT_FIGURE
1002
{
1000
PSFILL
1000
Grayscale
1000
Grayscale
1070
   100
1002
}
  0
LINE
  5
17223
330
17656
100
AcDbEntity
  8
YODOROGO
100
AcDbLine
 10
13888.80217064596
 20
929.8883739758355
 30
0.0
 11
13900.80217064596
 21
957.3932903968524
 31
0.0
1001
AUTOCAD_POSTSCRIPT_FIGURE
1002
{
1000
PSFILL
1000
Grayscale
1000
Grayscale
1070
   100
1002
}
  0
LINE
  5
17224
330
17656
100
AcDbEntity
  8
YODOROGO
100
AcDbLine
 10
13888.80217064596
 20
921.8883739758362
 30
0.0
 11
13888.80217064596
 21
929.8883739758355
 31
0.0
1001
AUTOCAD_POSTSCRIPT_FIGURE
1002
{
1000
PSFILL
1000
Grayscale
1000
Grayscale
1070
   100
1002
}
  0
LINE
  5
17225
330
17656
100
AcDbEntity
  8
YODOROGO
100
AcDbLine
 10
14128.80217064596
 20
933.8747482146439
 30
0.0
 11
14200.80217064595
 21
912.4388128201532
 31
0.0
1001
AUTOCAD_POSTSCRIPT_FIGURE
1002
{
1000
PSFILL
1000
Grayscale
1000
Grayscale
1070
   100
1002
}
  0
LINE
  5
17226
330
17656
100
AcDbEntity
  8
YODOROGO
100
AcDbLine
 10
14200.80217064595
 20
876.4388128201531
 30
0.0
 11
14128.80217064596
 21
897.8747482146435
 31
0.0
1001
AUTOCAD_POSTSCRIPT_FIGURE
1002
{
1000
PSFILL
1000
Grayscale
1000
Grayscale
1070
   100
1002
}
  0
LINE
  5
17227
330
17656
100
AcDbEntity
  8
YODOROGO
100
AcDbLine
 10
14200.80217064595
 20
992.4388128201531
 30
0.0
 11
14128.80217064596
 21
1013.874748214644
 31
0.0
1001
AUTOCAD_POSTSCRIPT_FIGURE
1002
{
1000
PSFILL
1000
Grayscale
1000
Grayscale
1070
   100
1002
}
  0
LINE
  5
17228
330
17656
100
AcDbEntity
  8
YODOROGO
100
AcDbLine
 10
14128.80217064596
 20
979.874748214644
 30
0.0
 11
14200.80217064595
 21
958.4388128201537
 31
0.0
1001
AUTOCAD_POSTSCRIPT_FIGURE
1002
{
1000
PSFILL
1000
Grayscale
1000
Grayscale
1070
   100
1002
}
  0
LINE
  5
17229
330
17656
100
AcDbEntity
  8
YODOROGO
100
AcDbLine
 10
14128.80217064596
 20
897.8747482146435
 30
0.0
 11
14128.80217064596
 21
933.8747482146439
 31
0.0
1001
AUTOCAD_POSTSCRIPT_FIGURE
1002
{
1000
PSFILL
1000
Grayscale
1000
Grayscale
1070
   100
1002
}
  0
LINE
  5
1722A
330
17656
100
AcDbEntity
  8
YODOROGO
100
AcDbLine
 10
14128.80217064596
 20
1013.874748214644
 30
0.0
 11
14128.80217064596
 21
979.874748214644
 31
0.0
1001
AUTOCAD_POSTSCRIPT_FIGURE
1002
{
1000
PSFILL
1000
Grayscale
1000
Grayscale
1070
   100
1002
}
  0
LINE
  5
1722B
330
17656
100
AcDbEntity
  8
YODOROGO
100
AcDbLine
 10
14040.11816010337
 20
969.8747482146441
 30
0.0
 11
14064.80217064595
 21
873.8747482146436
 31
0.0
1001
AUTOCAD_POSTSCRIPT_FIGURE
1002
{
1000
PSFILL
1000
Grayscale
1000
Grayscale
1070
   100
1002
}
  0
LINE
  5
1722C
330
17656
100
AcDbEntity
  8
YODOROGO
100
AcDbLine
 10
13988.80217064596
 20
969.8747482146441
 30
0.0
 11
14040.11816010337
 21
969.8747482146441
 31
0.0
1001
AUTOCAD_POSTSCRIPT_FIGURE
1002
{
1000
PSFILL
1000
Grayscale
1000
Grayscale
1070
   100
1002
}
  0
LINE
  5
1722D
330
17656
100
AcDbEntity
  8
YODOROGO
100
AcDbLine
 10
13988.80217064596
 20
977.8747482146435
 30
0.0
 11
13988.80217064596
 21
969.8747482146441
 31
0.0
1001
AUTOCAD_POSTSCRIPT_FIGURE
1002
{
1000
PSFILL
1000
Grayscale
1000
Grayscale
1070
   100
1002
}
  0
LINE
  5
1722E
330
17656
100
AcDbEntity
  8
YODOROGO
100
AcDbLine
 10
14038.30343925995
 20
977.8747482146435
 30
0.0
 11
13988.80217064596
 21
977.8747482146435
 31
0.0
1001
AUTOCAD_POSTSCRIPT_FIGURE
1002
{
1000
PSFILL
1000
Grayscale
1000
Grayscale
1070
   100
1002
}
  0
LINE
  5
1722F
330
17656
100
AcDbEntity
  8
YODOROGO
100
AcDbLine
 10
14035.58135799485
 20
989.8747482146443
 30
0.0
 11
14038.30343925995
 21
977.8747482146435
 31
0.0
1001
AUTOCAD_POSTSCRIPT_FIGURE
1002
{
1000
PSFILL
1000
Grayscale
1000
Grayscale
1070
   100
1002
}
  0
LINE
  5
17230
330
17656
100
AcDbEntity
  8
YODOROGO
100
AcDbLine
 10
14045.58135799485
 20
989.8747482146443
 30
0.0
 11
14035.58135799485
 21
989.8747482146443
 31
0.0
1001
AUTOCAD_POSTSCRIPT_FIGURE
1002
{
1000
PSFILL
1000
Grayscale
1000
Grayscale
1070
   100
1002
}
  0
LINE
  5
17231
330
17656
100
AcDbEntity
  8
YODOROGO
100
AcDbLine
 10
14047.90343925997
 20
977.8747482146435
 30
0.0
 11
14045.58135799485
 21
989.8747482146443
 31
0.0
1001
AUTOCAD_POSTSCRIPT_FIGURE
1002
{
1000
PSFILL
1000
Grayscale
1000
Grayscale
1070
   100
1002
}
  0
LINE
  5
17232
330
17656
100
AcDbEntity
  8
YODOROGO
100
AcDbLine
 10
14060.80217064596
 20
977.8747482146435
 30
0.0
 11
14047.90343925997
 21
977.8747482146435
 31
0.0
1001
AUTOCAD_POSTSCRIPT_FIGURE
1002
{
1000
PSFILL
1000
Grayscale
1000
Grayscale
1070
   100
1002
}
  0
LINE
  5
17233
330
17656
100
AcDbEntity
  8
YODOROGO
100
AcDbLine
 10
14060.80217064596
 20
989.8747482146443
 30
0.0
 11
14060.80217064596
 21
977.8747482146435
 31
0.0
1001
AUTOCAD_POSTSCRIPT_FIGURE
1002
{
1000
PSFILL
1000
Grayscale
1000
Grayscale
1070
   100
1002
}
  0
LINE
  5
17234
330
17656
100
AcDbEntity
  8
YODOROGO
100
AcDbLine
 10
14068.80217064596
 20
989.8747482146443
 30
0.0
 11
14060.80217064596
 21
989.8747482146443
 31
0.0
1001
AUTOCAD_POSTSCRIPT_FIGURE
1002
{
1000
PSFILL
1000
Grayscale
1000
Grayscale
1070
   100
1002
}
  0
LINE
  5
17235
330
17656
100
AcDbEntity
  8
YODOROGO
100
AcDbLine
 10
14068.80217064596
 20
977.8747482146435
 30
0.0
 11
14068.80217064596
 21
989.8747482146443
 31
0.0
1001
AUTOCAD_POSTSCRIPT_FIGURE
1002
{
1000
PSFILL
1000
Grayscale
1000
Grayscale
1070
   100
1002
}
  0
LINE
  5
17236
330
17656
100
AcDbEntity
  8
YODOROGO
100
AcDbLine
 10
14068.80217064596
 20
969.8747482146441
 30
0.0
 11
14068.80217064596
 21
977.8747482146435
 31
0.0
1001
AUTOCAD_POSTSCRIPT_FIGURE
1002
{
1000
PSFILL
1000
Grayscale
1000
Grayscale
1070
   100
1002
}
  0
LINE
  5
17237
330
17656
100
AcDbEntity
  8
YODOROGO
100
AcDbLine
 10
14049.4514934367
 20
969.8747482146441
 30
0.0
 11
14068.80217064596
 21
969.8747482146441
 31
0.0
1001
AUTOCAD_POSTSCRIPT_FIGURE
1002
{
1000
PSFILL
1000
Grayscale
1000
Grayscale
1070
   100
1002
}
  0
LINE
  5
17238
330
17656
100
AcDbEntity
  8
YODOROGO
100
AcDbLine
 10
14068.80217064596
 20
873.8747482146436
 30
0.0
 11
14049.4514934367
 21
969.8747482146441
 31
0.0
1001
AUTOCAD_POSTSCRIPT_FIGURE
1002
{
1000
PSFILL
1000
Grayscale
1000
Grayscale
1070
   100
1002
}
  0
LINE
  5
17239
330
17656
100
AcDbEntity
  8
YODOROGO
100
AcDbLine
 10
14064.80217064595
 20
873.8747482146436
 30
0.0
 11
14068.80217064596
 21
873.8747482146436
 31
0.0
1001
AUTOCAD_POSTSCRIPT_FIGURE
1002
{
1000
PSFILL
1000
Grayscale
1000
Grayscale
1070
   100
1002
}
  0
LINE
  5
1723A
330
17656
100
AcDbEntity
  8
YODOROGO
100
AcDbLine
 10
14039.03460996689
 20
887.8703881493972
 30
0.0
 11
13988.80217064596
 21
873.8747482146436
 31
0.0
  0
LINE
  5
1723B
330
17656
100
AcDbEntity
  8
YODOROGO
100
AcDbLine
 10
14039.03460996689
 20
899.3344897645366
 30
0.0
 11
14039.03460996689
 21
887.8703881493972
 31
0.0
  0
LINE
  5
1723C
330
17656
100
AcDbEntity
  8
YODOROGO
100
AcDbLine
 10
14016.91839030643
 20
893.4084665668834
 30
0.0
 11
14039.03460996689
 21
899.3344897645366
 31
0.0
  0
LINE
  5
1723D
330
17656
100
AcDbEntity
  8
YODOROGO
100
AcDbLine
 10
14016.91839030643
 20
936.2841744681499
 30
0.0
 11
14016.91839030643
 21
893.4084665668834
 31
0.0
  0
LINE
  5
1723E
330
17656
100
AcDbEntity
  8
YODOROGO
100
AcDbLine
 10
14039.03460996689
 20
936.2841744681499
 30
0.0
 11
14016.91839030643
 21
936.2841744681499
 31
0.0
  0
LINE
  5
1723F
330
17656
100
AcDbEntity
  8
YODOROGO
100
AcDbLine
 10
14039.03460996689
 20
946.2841744681487
 30
0.0
 11
14039.03460996689
 21
936.2841744681499
 31
0.0
  0
LINE
  5
17240
330
17656
100
AcDbEntity
  8
YODOROGO
100
AcDbLine
 10
13988.80217064596
 20
946.2841744681487
 30
0.0
 11
14039.03460996689
 21
946.2841744681487
 31
0.0
  0
LINE
  5
17241
330
17656
100
AcDbEntity
  8
YODOROGO
100
AcDbLine
 10
13988.80217064596
 20
936.2841744681499
 30
0.0
 11
13988.80217064596
 21
946.2841744681487
 31
0.0
  0
LINE
  5
17242
330
17656
100
AcDbEntity
  8
YODOROGO
100
AcDbLine
 10
14010.91839030643
 20
936.2841744681499
 30
0.0
 11
13988.80217064596
 21
936.2841744681499
 31
0.0
  0
LINE
  5
17243
330
17656
100
AcDbEntity
  8
YODOROGO
100
AcDbLine
 10
14010.91839030643
 20
892.3366697971587
 30
0.0
 11
14010.91839030643
 21
936.2841744681499
 31
0.0
  0
LINE
  5
17244
330
17656
100
AcDbEntity
  8
YODOROGO
100
AcDbLine
 10
13988.80217064596
 20
885.8747482146432
 30
0.0
 11
14010.91839030643
 21
892.3366697971587
 31
0.0
  0
LINE
  5
17245
330
17656
100
AcDbEntity
  8
YODOROGO
100
AcDbLine
 10
13988.80217064596
 20
873.8747482146436
 30
0.0
 11
13988.80217064596
 21
885.8747482146432
 31
0.0
  0
LINE
  5
17246
330
17656
100
AcDbEntity
  8
YODOROGO
100
AcDbLine
 10
14000.80217064596
 20
853.8747482146439
 30
0.0
 11
14000.80217064596
 21
841.8747482146434
 31
0.0
  0
LINE
  5
17247
330
17656
100
AcDbEntity
  8
YODOROGO
100
AcDbLine
 10
14000.80217064596
 20
853.8747482146439
 30
0.0
 11
14000.80217064596
 21
853.8747482146439
 31
0.0
  0
LINE
  5
17248
330
17656
100
AcDbEntity
  8
YODOROGO
100
AcDbLine
 10
14008.80217064596
 20
853.8747482146439
 30
0.0
 11
14000.80217064596
 21
853.8747482146439
 31
0.0
  0
LINE
  5
17249
330
17656
100
AcDbEntity
  8
YODOROGO
100
AcDbLine
 10
14008.80217064596
 20
841.8747482146434
 30
0.0
 11
14008.80217064596
 21
853.8747482146439
 31
0.0
  0
LINE
  5
1724A
330
17656
100
AcDbEntity
  8
YODOROGO
100
AcDbLine
 10
14020.45660200845
 20
841.8747482146434
 30
0.0
 11
14008.80217064596
 21
841.8747482146434
 31
0.0
  0
LINE
  5
1724B
330
17656
100
AcDbEntity
  8
YODOROGO
100
AcDbLine
 10
14000.80217064596
 20
841.8747482146434
 30
0.0
 11
13988.80217064596
 21
841.8747482146434
 31
0.0
  0
LINE
  5
1724C
330
17656
100
AcDbEntity
  8
YODOROGO
100
AcDbLine
 10
14041.06776011546
 20
853.8747482146439
 30
0.0
 11
14049.06776011545
 21
853.8747482146439
 31
0.0
1001
AUTOCAD_POSTSCRIPT_FIGURE
1002
{
1000
PSFILL
1000
Grayscale
1000
Grayscale
1070
   100
1002
}
  0
LINE
  5
1724D
330
17656
100
AcDbEntity
  8
YODOROGO
100
AcDbLine
 10
14200.80217064595
 20
912.4388128201532
 30
0.0
 11
14200.80217064595
 21
876.4388128201531
 31
0.0
1001
AUTOCAD_POSTSCRIPT_FIGURE
1002
{
1000
PSFILL
1000
Grayscale
1000
Grayscale
1070
   100
1002
}
  0
LINE
  5
1724E
330
17656
100
AcDbEntity
  8
YODOROGO
100
AcDbLine
 10
14200.80217064595
 20
958.4388128201537
 30
0.0
 11
14200.80217064595
 21
992.4388128201531
 31
0.0
1001
AUTOCAD_POSTSCRIPT_FIGURE
1002
{
1000
PSFILL
1000
Grayscale
1000
Grayscale
1070
   100
1002
}
  0
LINE
  5
1724F
330
17656
100
AcDbEntity
  8
YODOROGO
100
AcDbLine
 10
14216.80217064595
 20
909.8747482146439
 30
0.0
 11
14216.80217064595
 21
873.8747482146449
 31
0.0
  0
LINE
  5
17250
330
17656
100
AcDbEntity
  8
YODOROGO
100
AcDbLine
 10
14248.80217064595
 20
853.8747482146439
 30
0.0
 11
14216.80217064595
 21
853.8747482146439
 31
0.0
  0
LINE
  5
17251
330
17656
100
AcDbEntity
  8
YODOROGO
100
AcDbLine
 10
14216.80217064595
 20
873.8747482146449
 30
0.0
 11
14292.80217064596
 21
873.8747482146449
 31
0.0
  0
LINE
  5
17252
330
17656
100
AcDbEntity
  8
YODOROGO
100
AcDbLine
 10
14248.80217064595
 20
933.8747482146439
 30
0.0
 11
14216.80217064595
 21
933.8747482146439
 31
0.0
  0
LINE
  5
17253
330
17656
100
AcDbEntity
  8
YODOROGO
100
AcDbLine
 10
14248.80217064595
 20
961.8747482146432
 30
0.0
 11
14248.80217064595
 21
933.8747482146439
 31
0.0
  0
LINE
  5
17254
330
17656
100
AcDbEntity
  8
YODOROGO
100
AcDbLine
 10
14292.80217064596
 20
993.8747482146439
 30
0.0
 11
14292.80217064596
 21
1013.874748214644
 31
0.0
  0
LINE
  5
17255
330
17656
100
AcDbEntity
  8
YODOROGO
100
AcDbLine
 10
14216.80217064595
 20
993.8747482146439
 30
0.0
 11
14292.80217064596
 21
993.8747482146439
 31
0.0
  0
LINE
  5
17256
330
17656
100
AcDbEntity
  8
YODOROGO
100
AcDbLine
 10
14216.80217064595
 20
933.8747482146439
 30
0.0
 11
14216.80217064595
 21
993.8747482146439
 31
0.0
  0
LINE
  5
17257
330
17656
100
AcDbEntity
  8
YODOROGO
100
AcDbLine
 10
14500.80217064595
 20
1013.874748214644
 30
0.0
 11
14500.80217064595
 21
809.8747482146441
 31
0.0
  0
LINE
  5
17258
330
17656
100
AcDbEntity
  8
YODOROGO
100
AcDbLine
 10
14536.80217064596
 20
789.8747482146441
 30
0.0
 11
14536.80217064596
 21
1013.874748214644
 31
0.0
  0
LINE
  5
17259
330
17656
100
AcDbEntity
  8
YODOROGO
100
AcDbLine
 10
14630.80217064596
 20
745.8747482146431
 30
0.0
 11
14630.80217064596
 21
1003.874748214644
 31
0.0
  0
LINE
  5
1725A
330
17656
100
AcDbEntity
  8
YODOROGO
100
AcDbLine
 10
14598.80217064596
 20
1003.874748214644
 30
0.0
 11
14598.80217064596
 21
745.8747482146431
 31
0.0
  0
LINE
  5
1725B
330
17656
100
AcDbEntity
  8
YODOROGO
100
AcDbLine
 10
14692.80217064596
 20
1013.874748214644
 30
0.0
 11
14692.80217064596
 21
713.8747482146436
 31
0.0
  0
LINE
  5
1725C
330
17656
100
AcDbEntity
  8
YODOROGO
100
AcDbLine
 10
14728.80217064596
 20
713.8747482146436
 30
0.0
 11
14728.80217064596
 21
1013.874748214644
 31
0.0
  0
LINE
  5
1725D
330
17656
100
AcDbEntity
  8
YODOROGO
100
AcDbLine
 10
14328.80217064595
 20
833.8747482146439
 30
0.0
 11
14328.80217064595
 21
873.8747482146449
 31
0.0
  0
LINE
  5
1725E
330
17656
100
AcDbEntity
  8
YODOROGO
100
AcDbLine
 10
14942.80217064596
 20
853.8747482146439
 30
0.0
 11
14942.80217064596
 21
833.8747482146439
 31
0.0
  0
LINE
  5
1725F
330
17656
100
AcDbEntity
  8
YODOROGO
100
AcDbLine
 10
14942.80217064596
 20
853.8747482146439
 30
0.0
 11
14942.80217064596
 21
833.8747482146439
 31
0.0
  0
ARC
  5
17260
330
17656
100
AcDbEntity
  8
YODOROGO
100
AcDbCircle
 10
14453.45578809341
 20
809.1089322211365
 30
0.0
 40
47.35257558937083
100
AcDbArc
 50
274.052441629071
 51
0.9266642149310712
  0
ARC
  5
17261
330
17656
100
AcDbEntity
  8
YODOROGO
100
AcDbCircle
 10
14454.59308535991
 20
796.30536430522
 30
0.0
 40
82.46021178042756
100
AcDbArc
 50
271.5351210653778
 51
355.5272775058505
  0
LINE
  5
17262
330
17656
100
AcDbEntity
  8
YODOROGO
100
AcDbLine
 10
14456.80217064596
 20
761.8747482146434
 30
0.0
 11
14456.80217064596
 21
713.8747482146436
 31
0.0
  0
LINE
  5
17263
330
17656
100
AcDbEntity
  8
YODOROGO
100
AcDbLine
 10
14396.80217064594
 20
833.8747482146439
 30
0.0
 11
14328.80217064595
 21
833.8747482146439
 31
0.0
  0
LINE
  5
17264
330
17656
100
AcDbEntity
  8
YODOROGO
100
AcDbLine
 10
14396.80217064594
 20
801.8747482146446
 30
0.0
 11
14396.80217064594
 21
833.8747482146439
 31
0.0
  0
LINE
  5
17265
330
17656
100
AcDbEntity
  8
YODOROGO
100
AcDbLine
 10
14328.80217064595
 20
801.8747482146446
 30
0.0
 11
14396.80217064594
 21
801.8747482146446
 31
0.0
  0
LINE
  5
17266
330
17656
100
AcDbEntity
  8
YODOROGO
100
AcDbLine
 10
14328.80217064595
 20
761.8747482146434
 30
0.0
 11
14328.80217064595
 21
801.8747482146446
 31
0.0
  0
LINE
  5
17267
330
17656
100
AcDbEntity
  8
YODOROGO
100
AcDbLine
 10
14396.80217064594
 20
761.8747482146434
 30
0.0
 11
14328.80217064595
 21
761.8747482146434
 31
0.0
  0
LINE
  5
17268
330
17656
100
AcDbEntity
  8
YODOROGO
100
AcDbLine
 10
14396.80217064594
 20
713.8747482146436
 30
0.0
 11
14396.80217064594
 21
761.8747482146434
 31
0.0
  0
LINE
  5
17269
330
17656
100
AcDbEntity
  8
YODOROGO
100
AcDbLine
 10
14598.80217064596
 20
745.8747482146431
 30
0.0
 11
14630.80217064596
 21
745.8747482146431
 31
0.0
  0
LINE
  5
1726A
330
17656
100
AcDbEntity
  8
YODOROGO
100
AcDbLine
 10
14692.80217064596
 20
713.8747482146436
 30
0.0
 11
14728.80217064596
 21
713.8747482146436
 31
0.0
  0
LINE
  5
1726B
330
17656
100
AcDbEntity
  8
YODOROGO
100
AcDbLine
 10
14868.80217064596
 20
764.2207260852821
 30
0.0
 11
14868.80217064596
 21
713.8747482146436
 31
0.0
  0
LINE
  5
1726C
330
17656
100
AcDbEntity
  8
YODOROGO
100
AcDbLine
 10
14808.80217064596
 20
713.8747482146436
 30
0.0
 11
14868.80217064596
 21
764.2207260852821
 31
0.0
  0
LINE
  5
1726D
330
17656
100
AcDbEntity
  8
YODOROGO
100
AcDbLine
 10
14808.80217064596
 20
773.8747482146439
 30
0.0
 11
14808.80217064596
 21
713.8747482146436
 31
0.0
  0
LINE
  5
1726E
330
17656
100
AcDbEntity
  8
YODOROGO
100
AcDbLine
 10
14856.47231434973
 20
813.8747482146436
 30
0.0
 11
14808.80217064596
 21
773.8747482146439
 31
0.0
  0
LINE
  5
1726F
330
17656
100
AcDbEntity
  8
YODOROGO
100
AcDbLine
 10
14808.80217064596
 20
813.8747482146436
 30
0.0
 11
14856.47231434973
 21
813.8747482146436
 31
0.0
  0
LINE
  5
17270
330
17656
100
AcDbEntity
  8
YODOROGO
100
AcDbLine
 10
14808.80217064596
 20
833.8747482146439
 30
0.0
 11
14808.80217064596
 21
813.8747482146436
 31
0.0
  0
LINE
  5
17271
330
17656
100
AcDbEntity
  8
YODOROGO
100
AcDbLine
 10
14942.80217064596
 20
833.8747482146439
 30
0.0
 11
14808.80217064596
 21
833.8747482146439
 31
0.0
  0
LINE
  5
17272
330
17656
100
AcDbEntity
  8
YODOROGO
100
AcDbLine
 10
14958.80217064596
 20
813.8747482146436
 30
0.0
 11
14888.80217064596
 21
813.8747482146436
 31
0.0
  0
LINE
  5
17273
330
17656
100
AcDbEntity
  8
YODOROGO
100
AcDbLine
 10
14888.80217064596
 20
781.0027187088283
 30
0.0
 11
14885.70493649264
 21
778.403830673117
 31
0.0
  0
LINE
  5
17274
330
17656
100
AcDbEntity
  8
YODOROGO
100
AcDbLine
 10
14888.80217064596
 20
813.8747482146436
 30
0.0
 11
14888.80217064596
 21
781.0027187088283
 31
0.0
  0
LINE
  5
17275
330
17656
100
AcDbEntity
  8
YODOROGO
100
AcDbLine
 10
14868.80217064596
 20
764.2207260852821
 30
0.0
 11
14868.80217064596
 21
713.8747482146436
 31
0.0
  0
LINE
  5
17276
330
17656
100
AcDbEntity
  8
YODOROGO
100
AcDbLine
 10
14808.80217064596
 20
713.8747482146436
 30
0.0
 11
14868.80217064596
 21
764.2207260852821
 31
0.0
  0
LINE
  5
17277
330
17656
100
AcDbEntity
  8
YODOROGO
100
AcDbLine
 10
14808.80217064596
 20
773.8747482146439
 30
0.0
 11
14808.80217064596
 21
713.8747482146436
 31
0.0
  0
LINE
  5
17278
330
17656
100
AcDbEntity
  8
YODOROGO
100
AcDbLine
 10
14856.47231434973
 20
813.8747482146436
 30
0.0
 11
14808.80217064596
 21
773.8747482146439
 31
0.0
  0
LINE
  5
17279
330
17656
100
AcDbEntity
  8
YODOROGO
100
AcDbLine
 10
14808.80217064596
 20
813.8747482146436
 30
0.0
 11
14856.47231434973
 21
813.8747482146436
 31
0.0
  0
LINE
  5
1727A
330
17656
100
AcDbEntity
  8
YODOROGO
100
AcDbLine
 10
14808.80217064596
 20
833.8747482146439
 30
0.0
 11
14808.80217064596
 21
813.8747482146436
 31
0.0
  0
LINE
  5
1727B
330
17656
100
AcDbEntity
  8
YODOROGO
100
AcDbLine
 10
14942.80217064596
 20
833.8747482146439
 30
0.0
 11
14808.80217064596
 21
833.8747482146439
 31
0.0
  0
LINE
  5
1727C
330
17656
100
AcDbEntity
  8
YODOROGO
100
AcDbLine
 10
14396.80217064594
 20
873.8747482146449
 30
0.0
 11
14396.80217064594
 21
909.8747482146439
 31
0.0
  0
LINE
  5
1727D
330
17656
100
AcDbEntity
  8
YODOROGO
100
AcDbLine
 10
14328.80217064595
 20
873.8747482146449
 30
0.0
 11
14396.80217064594
 21
873.8747482146449
 31
0.0
  0
LINE
  5
1727E
330
17656
100
AcDbEntity
  8
YODOROGO
100
AcDbLine
 10
14364.80217064596
 20
933.8747482146439
 30
0.0
 11
14364.80217064596
 21
961.8747482146432
 31
0.0
  0
LINE
  5
1727F
330
17656
100
AcDbEntity
  8
YODOROGO
100
AcDbLine
 10
14396.80217064594
 20
933.8747482146439
 30
0.0
 11
14364.80217064596
 21
933.8747482146439
 31
0.0
  0
LINE
  5
17280
330
17656
100
AcDbEntity
  8
YODOROGO
100
AcDbLine
 10
14396.80217064594
 20
973.8747482146436
 30
0.0
 11
14396.80217064594
 21
933.8747482146439
 31
0.0
  0
ARC
  5
17281
330
17656
100
AcDbEntity
  8
YODOROGO
100
AcDbCircle
 10
14376.80217064595
 20
973.8747482146436
 30
0.0
 40
20.0
100
AcDbArc
 50
0.0
 51
90.0
  0
LINE
  5
17282
330
17656
100
AcDbEntity
  8
YODOROGO
100
AcDbLine
 10
14328.80217064596
 20
993.8747482146439
 30
0.0
 11
14376.80217064595
 21
993.8747482146439
 31
0.0
  0
LINE
  5
17283
330
17656
100
AcDbEntity
  8
YODOROGO
100
AcDbLine
 10
14328.80217064596
 20
1013.874748214644
 30
0.0
 11
14328.80217064596
 21
993.8747482146439
 31
0.0
  0
LINE
  5
17284
330
17656
100
AcDbEntity
  8
YODOROGO
100
AcDbLine
 10
14536.80217064596
 20
1013.874748214644
 30
0.0
 11
14500.80217064595
 21
1013.874748214644
 31
0.0
  0
LINE
  5
17285
330
17656
100
AcDbEntity
  8
YODOROGO
100
AcDbLine
 10
14630.80217064596
 20
1003.874748214644
 30
0.0
 11
14598.80217064596
 21
1003.874748214644
 31
0.0
  0
LINE
  5
17286
330
17656
100
AcDbEntity
  8
YODOROGO
100
AcDbLine
 10
14728.80217064596
 20
1013.874748214644
 30
0.0
 11
14692.80217064596
 21
1013.874748214644
 31
0.0
  0
LINE
  5
17287
330
17656
100
AcDbEntity
  8
YODOROGO
100
AcDbLine
 10
14836.80217064596
 20
853.8747482146439
 30
0.0
 11
14836.80217064596
 21
885.8747482146442
 31
0.0
1001
AUTOCAD_POSTSCRIPT_FIGURE
1002
{
1000
PSFILL
1000
Grayscale
1000
Grayscale
1070
    25
1002
}
  0
LINE
  5
17288
330
17656
100
AcDbEntity
  8
YODOROGO
100
AcDbLine
 10
14808.80217064596
 20
853.8747482146439
 30
0.0
 11
14836.80217064596
 21
853.8747482146439
 31
0.0
1001
AUTOCAD_POSTSCRIPT_FIGURE
1002
{
1000
PSFILL
1000
Grayscale
1000
Grayscale
1070
    25
1002
}
  0
LINE
  5
17289
330
17656
100
AcDbEntity
  8
YODOROGO
100
AcDbLine
 10
14808.80217064596
 20
909.8747482146439
 30
0.0
 11
14808.80217064596
 21
853.8747482146439
 31
0.0
1001
AUTOCAD_POSTSCRIPT_FIGURE
1002
{
1000
PSFILL
1000
Grayscale
1000
Grayscale
1070
    25
1002
}
  0
LINE
  5
1728A
330
17656
100
AcDbEntity
  8
YODOROGO
100
AcDbLine
 10
14882.80217064596
 20
909.8747482146439
 30
0.0
 11
14808.80217064596
 21
909.8747482146439
 31
0.0
1001
AUTOCAD_POSTSCRIPT_FIGURE
1002
{
1000
PSFILL
1000
Grayscale
1000
Grayscale
1070
    25
1002
}
  0
LINE
  5
1728B
330
17656
100
AcDbEntity
  8
YODOROGO
100
AcDbLine
 10
14882.80217064596
 20
929.874748214644
 30
0.0
 11
14882.80217064596
 21
909.8747482146439
 31
0.0
1001
AUTOCAD_POSTSCRIPT_FIGURE
1002
{
1000
PSFILL
1000
Grayscale
1000
Grayscale
1070
    25
1002
}
  0
LINE
  5
1728C
330
17656
100
AcDbEntity
  8
YODOROGO
100
AcDbLine
 10
14808.80217064596
 20
929.874748214644
 30
0.0
 11
14882.80217064596
 21
929.874748214644
 31
0.0
1001
AUTOCAD_POSTSCRIPT_FIGURE
1002
{
1000
PSFILL
1000
Grayscale
1000
Grayscale
1070
    25
1002
}
  0
LINE
  5
1728D
330
17656
100
AcDbEntity
  8
YODOROGO
100
AcDbLine
 10
14808.80217064596
 20
953.874748214644
 30
0.0
 11
14808.80217064596
 21
929.874748214644
 31
0.0
1001
AUTOCAD_POSTSCRIPT_FIGURE
1002
{
1000
PSFILL
1000
Grayscale
1000
Grayscale
1070
    25
1002
}
  0
LINE
  5
1728E
330
17656
100
AcDbEntity
  8
YODOROGO
100
AcDbLine
 10
14882.80217064596
 20
953.874748214644
 30
0.0
 11
14808.80217064596
 21
953.874748214644
 31
0.0
1001
AUTOCAD_POSTSCRIPT_FIGURE
1002
{
1000
PSFILL
1000
Grayscale
1000
Grayscale
1070
    25
1002
}
  0
LINE
  5
1728F
330
17656
100
AcDbEntity
  8
YODOROGO
100
AcDbLine
 10
14882.80217064596
 20
973.8747482146436
 30
0.0
 11
14882.80217064596
 21
953.874748214644
 31
0.0
1001
AUTOCAD_POSTSCRIPT_FIGURE
1002
{
1000
PSFILL
1000
Grayscale
1000
Grayscale
1070
    25
1002
}
  0
LINE
  5
17290
330
17656
100
AcDbEntity
  8
YODOROGO
100
AcDbLine
 10
14808.80217064596
 20
973.8747482146436
 30
0.0
 11
14882.80217064596
 21
973.8747482146436
 31
0.0
1001
AUTOCAD_POSTSCRIPT_FIGURE
1002
{
1000
PSFILL
1000
Grayscale
1000
Grayscale
1070
    25
1002
}
  0
LINE
  5
17291
330
17656
100
AcDbEntity
  8
YODOROGO
100
AcDbLine
 10
14808.80217064596
 20
1013.874748214644
 30
0.0
 11
14808.80217064596
 21
973.8747482146436
 31
0.0
1001
AUTOCAD_POSTSCRIPT_FIGURE
1002
{
1000
PSFILL
1000
Grayscale
1000
Grayscale
1070
    25
1002
}
  0
LINE
  5
17292
330
17656
100
AcDbEntity
  8
YODOROGO
100
AcDbLine
 10
14832.80217064596
 20
1013.874748214644
 30
0.0
 11
14808.80217064596
 21
1013.874748214644
 31
0.0
1001
AUTOCAD_POSTSCRIPT_FIGURE
1002
{
1000
PSFILL
1000
Grayscale
1000
Grayscale
1070
    25
1002
}
  0
LINE
  5
17293
330
17656
100
AcDbEntity
  8
YODOROGO
100
AcDbLine
 10
14832.80217064596
 20
997.8747482146435
 30
0.0
 11
14832.80217064596
 21
1013.874748214644
 31
0.0
1001
AUTOCAD_POSTSCRIPT_FIGURE
1002
{
1000
PSFILL
1000
Grayscale
1000
Grayscale
1070
    25
1002
}
  0
LINE
  5
17294
330
17656
100
AcDbEntity
  8
YODOROGO
100
AcDbLine
 10
14882.80217064596
 20
997.8747482146435
 30
0.0
 11
14832.80217064596
 21
997.8747482146435
 31
0.0
1001
AUTOCAD_POSTSCRIPT_FIGURE
1002
{
1000
PSFILL
1000
Grayscale
1000
Grayscale
1070
    25
1002
}
  0
LINE
  5
17295
330
17656
100
AcDbEntity
  8
YODOROGO
100
AcDbLine
 10
14882.80217064596
 20
1013.874748214644
 30
0.0
 11
14882.80217064596
 21
997.8747482146435
 31
0.0
1001
AUTOCAD_POSTSCRIPT_FIGURE
1002
{
1000
PSFILL
1000
Grayscale
1000
Grayscale
1070
    25
1002
}
  0
LINE
  5
17296
330
17656
100
AcDbEntity
  8
YODOROGO
100
AcDbLine
 10
14914.80217064596
 20
1013.874748214644
 30
0.0
 11
14882.80217064596
 21
1013.874748214644
 31
0.0
1001
AUTOCAD_POSTSCRIPT_FIGURE
1002
{
1000
PSFILL
1000
Grayscale
1000
Grayscale
1070
    25
1002
}
  0
LINE
  5
17297
330
17656
100
AcDbEntity
  8
YODOROGO
100
AcDbLine
 10
14914.80217064596
 20
997.8747482146435
 30
0.0
 11
14914.80217064596
 21
1013.874748214644
 31
0.0
1001
AUTOCAD_POSTSCRIPT_FIGURE
1002
{
1000
PSFILL
1000
Grayscale
1000
Grayscale
1070
    25
1002
}
  0
LINE
  5
17298
330
17656
100
AcDbEntity
  8
YODOROGO
100
AcDbLine
 10
14914.80217064596
 20
953.874748214644
 30
0.0
 11
14914.80217064596
 21
973.8747482146436
 31
0.0
1001
AUTOCAD_POSTSCRIPT_FIGURE
1002
{
1000
PSFILL
1000
Grayscale
1000
Grayscale
1070
    25
1002
}
  0
LINE
  5
17299
330
17656
100
AcDbEntity
  8
YODOROGO
100
AcDbLine
 10
14914.80217064596
 20
909.8747482146439
 30
0.0
 11
14914.80217064596
 21
929.874748214644
 31
0.0
1001
AUTOCAD_POSTSCRIPT_FIGURE
1002
{
1000
PSFILL
1000
Grayscale
1000
Grayscale
1070
    25
1002
}
  0
LINE
  5
1729A
330
17656
100
AcDbEntity
  8
YODOROGO
100
AcDbLine
 10
14960.80217064594
 20
885.8747482146442
 30
0.0
 11
14960.80217064594
 21
853.8747482146439
 31
0.0
1001
AUTOCAD_POSTSCRIPT_FIGURE
1002
{
1000
PSFILL
1000
Grayscale
1000
Grayscale
1070
    25
1002
}
  0
LINE
  5
1729B
330
17656
100
AcDbEntity
  8
YODOROGO
100
AcDbLine
 10
14914.80217064596
 20
885.8747482146442
 30
0.0
 11
14960.80217064594
 21
885.8747482146442
 31
0.0
1001
AUTOCAD_POSTSCRIPT_FIGURE
1002
{
1000
PSFILL
1000
Grayscale
1000
Grayscale
1070
    25
1002
}
  0
LINE
  5
1729C
330
17656
100
AcDbEntity
  8
YODOROGO
100
AcDbLine
 10
14914.80217064596
 20
853.8747482146439
 30
0.0
 11
14914.80217064596
 21
885.8747482146442
 31
0.0
1001
AUTOCAD_POSTSCRIPT_FIGURE
1002
{
1000
PSFILL
1000
Grayscale
1000
Grayscale
1070
    25
1002
}
  0
LINE
  5
1729D
330
17656
100
AcDbEntity
  8
YODOROGO
100
AcDbLine
 10
14882.80217064596
 20
853.8747482146439
 30
0.0
 11
14914.80217064596
 21
853.8747482146439
 31
0.0
1001
AUTOCAD_POSTSCRIPT_FIGURE
1002
{
1000
PSFILL
1000
Grayscale
1000
Grayscale
1070
    25
1002
}
  0
LINE
  5
1729E
330
17656
100
AcDbEntity
  8
YODOROGO
100
AcDbLine
 10
14882.80217064596
 20
885.8747482146442
 30
0.0
 11
14882.80217064596
 21
853.8747482146439
 31
0.0
1001
AUTOCAD_POSTSCRIPT_FIGURE
1002
{
1000
PSFILL
1000
Grayscale
1000
Grayscale
1070
    25
1002
}
  0
LINE
  5
1729F
330
17656
100
AcDbEntity
  8
YODOROGO
100
AcDbLine
 10
14836.80217064596
 20
885.8747482146442
 30
0.0
 11
14882.80217064596
 21
885.8747482146442
 31
0.0
1001
AUTOCAD_POSTSCRIPT_FIGURE
1002
{
1000
PSFILL
1000
Grayscale
1000
Grayscale
1070
    25
1002
}
  0
ARC
  5
172A0
330
17656
100
AcDbEntity
  8
YODOROGO
100
AcDbCircle
 10
15529.75894667896
 20
801.3403687577882
 30
0.0
 40
89.11064055536078
100
AcDbArc
 50
281.0262749542535
 51
357.771135755738
  0
LINE
  5
172A1
330
17656
100
AcDbEntity
  8
YODOROGO
100
AcDbLine
 10
15706.80217064596
 20
953.874748214644
 30
0.0
 11
15582.80217064596
 21
953.874748214644
 31
0.0
  0
LINE
  5
172A2
330
17656
100
AcDbEntity
  8
YODOROGO
100
AcDbLine
 10
15706.80217064596
 20
1013.874748214644
 30
0.0
 11
15582.80217064596
 21
1013.874748214644
 31
0.0
  0
LINE
  5
172A3
330
17656
100
AcDbEntity
  8
YODOROGO
100
AcDbLine
 10
15582.80217064596
 20
981.8747482146434
 30
0.0
 11
15706.80217064596
 21
981.8747482146434
 31
0.0
  0
LINE
  5
172A4
330
17656
100
AcDbEntity
  8
YODOROGO
100
AcDbLine
 10
15395.80217064596
 20
781.8747482146434
 30
0.0
 11
15395.80217064596
 21
877.8747482146437
 31
0.0
  0
LINE
  5
172A5
330
17656
100
AcDbEntity
  8
YODOROGO
100
AcDbLine
 10
15381.80217064596
 20
845.8747482146444
 30
0.0
 11
15381.80217064596
 21
781.8747482146434
 31
0.0
  0
LINE
  5
172A6
330
17656
100
AcDbEntity
  8
YODOROGO
100
AcDbLine
 10
15361.80217064596
 20
745.8747482146443
 30
0.0
 11
15361.80217064596
 21
845.8747482146444
 31
0.0
  0
LINE
  5
172A7
330
17656
100
AcDbEntity
  8
YODOROGO
100
AcDbLine
 10
15449.80217064596
 20
845.8747482146444
 30
0.0
 11
15449.80217064596
 21
745.8747482146443
 31
0.0
  0
LINE
  5
172A8
330
17656
100
AcDbEntity
  8
YODOROGO
100
AcDbLine
 10
15429.80217064596
 20
781.8747482146434
 30
0.0
 11
15429.80217064596
 21
845.8747482146444
 31
0.0
  0
LINE
  5
172A9
330
17656
100
AcDbEntity
  8
YODOROGO
100
AcDbLine
 10
15415.80217064596
 20
877.8747482146437
 30
0.0
 11
15415.80217064596
 21
781.8747482146434
 31
0.0
  0
LINE
  5
172AA
330
17656
100
AcDbEntity
  8
YODOROGO
100
AcDbLine
 10
15486.80217064596
 20
1013.874748214644
 30
0.0
 11
15486.80217064596
 21
733.8747482146437
 31
0.0
  0
LINE
  5
172AB
330
17656
100
AcDbEntity
  8
YODOROGO
100
AcDbLine
 10
15322.80217064596
 20
713.8747482146436
 30
0.0
 11
15322.80217064596
 21
1013.874748214644
 31
0.0
  0
LINE
  5
172AC
330
17656
100
AcDbEntity
  8
YODOROGO
100
AcDbLine
 10
15348.80217064596
 20
981.8747482146434
 30
0.0
 11
15348.80217064596
 21
713.8747482146436
 31
0.0
  0
LINE
  5
172AD
330
17656
100
AcDbEntity
  8
YODOROGO
100
AcDbLine
 10
15462.80217064596
 20
773.8747482146439
 30
0.0
 11
15462.80217064596
 21
981.8747482146434
 31
0.0
  0
LINE
  5
172AE
330
17656
100
AcDbEntity
  8
YODOROGO
100
AcDbLine
 10
15190.80217064596
 20
813.8747482146436
 30
0.0
 11
15190.80217064596
 21
839.8747482146443
 31
0.0
  0
LINE
  5
172AF
330
17656
100
AcDbEntity
  8
YODOROGO
100
AcDbLine
 10
15308.80217064596
 20
839.8747482146443
 30
0.0
 11
15308.80217064596
 21
813.8747482146436
 31
0.0
  0
LINE
  5
172B0
330
17656
100
AcDbEntity
  8
YODOROGO
100
AcDbLine
 10
15582.80217064596
 20
953.874748214644
 30
0.0
 11
15582.80217064596
 21
817.8747482146436
 31
0.0
  0
LINE
  5
172B1
330
17656
100
AcDbEntity
  8
YODOROGO
100
AcDbLine
 10
14974.80217064595
 20
833.8747482146439
 30
0.0
 11
14974.80217064595
 21
853.8747482146439
 31
0.0
  0
LINE
  5
172B2
330
17656
100
AcDbEntity
  8
YODOROGO
100
AcDbLine
 10
14974.80217064595
 20
833.8747482146439
 30
0.0
 11
14974.80217064595
 21
853.8747482146439
 31
0.0
  0
ARC
  5
172B3
330
17656
100
AcDbEntity
  8
YODOROGO
100
AcDbCircle
 10
15268.80217064596
 20
753.8747482146439
 30
0.0
 40
40.0
100
AcDbArc
 50
270.0
 51
0.0
  0
LINE
  5
172B4
330
17656
100
AcDbEntity
  8
YODOROGO
100
AcDbLine
 10
15284.80217064596
 20
799.8747482146441
 30
0.0
 11
15308.80217064596
 21
799.8747482146441
 31
0.0
  0
LINE
  5
172B5
330
17656
100
AcDbEntity
  8
YODOROGO
100
AcDbLine
 10
15308.80217064596
 20
813.8747482146436
 30
0.0
 11
15264.80217064596
 21
813.8747482146436
 31
0.0
  0
LINE
  5
172B6
330
17656
100
AcDbEntity
  8
YODOROGO
100
AcDbLine
 10
15108.80217064596
 20
833.8747482146439
 30
0.0
 11
14974.80217064595
 21
833.8747482146439
 31
0.0
  0
LINE
  5
172B7
330
17656
100
AcDbEntity
  8
YODOROGO
100
AcDbLine
 10
15108.80217064596
 20
813.8747482146436
 30
0.0
 11
15108.80217064596
 21
833.8747482146439
 31
0.0
  0
LINE
  5
172B8
330
17656
100
AcDbEntity
  8
YODOROGO
100
AcDbLine
 10
15008.80217064596
 20
813.8747482146436
 30
0.0
 11
15108.80217064596
 21
813.8747482146436
 31
0.0
  0
ARC
  5
172B9
330
17656
100
AcDbEntity
  8
YODOROGO
100
AcDbCircle
 10
15115.02941435068
 20
934.4428574764513
 30
0.0
 40
160.6888181426141
100
AcDbArc
 50
228.6181454618993
 51
245.660289248906
  0
LINE
  5
172BA
330
17656
100
AcDbEntity
  8
YODOROGO
100
AcDbLine
 10
15052.80217064596
 20
801.8747482146446
 30
0.0
 11
15048.80217064598
 21
788.0364079349501
 31
0.0
  0
LINE
  5
172BB
330
17656
100
AcDbEntity
  8
YODOROGO
100
AcDbLine
 10
15094.80217064596
 20
801.8747482146446
 30
0.0
 11
15052.80217064596
 21
801.8747482146446
 31
0.0
  0
LINE
  5
172BC
330
17656
100
AcDbEntity
  8
YODOROGO
100
AcDbLine
 10
15088.80217064596
 20
775.9088612367134
 30
0.0
 11
15094.80217064596
 21
801.8747482146446
 31
0.0
  0
ARC
  5
172BD
330
17656
100
AcDbEntity
  8
YODOROGO
100
AcDbCircle
 10
15115.02941435023
 20
934.4428574765013
 30
0.0
 40
160.6888181426453
100
AcDbArc
 50
260.6062929796993
 51
267.7790355655585
  0
LINE
  5
172BE
330
17656
100
AcDbEntity
  8
YODOROGO
100
AcDbLine
 10
15108.80217064596
 20
713.8747482146428
 30
0.0
 11
15108.80217064596
 21
773.8747482146439
 31
0.0
  0
LINE
  5
172BF
330
17656
100
AcDbEntity
  8
YODOROGO
100
AcDbLine
 10
14968.80217064596
 20
740.6696674577553
 30
0.0
 11
14968.80217064596
 21
797.2655452655707
 31
0.0
  0
LINE
  5
172C0
330
17656
100
AcDbEntity
  8
YODOROGO
100
AcDbLine
 10
15108.80217064596
 20
833.8747482146439
 30
0.0
 11
14974.80217064595
 21
833.8747482146439
 31
0.0
  0
LINE
  5
172C1
330
17656
100
AcDbEntity
  8
YODOROGO
100
AcDbLine
 10
15108.80217064596
 20
813.8747482146436
 30
0.0
 11
15108.80217064596
 21
833.8747482146439
 31
0.0
  0
LINE
  5
172C2
330
17656
100
AcDbEntity
  8
YODOROGO
100
AcDbLine
 10
15008.80217064596
 20
813.8747482146436
 30
0.0
 11
15108.80217064596
 21
813.8747482146436
 31
0.0
  0
ARC
  5
172C3
330
17656
100
AcDbEntity
  8
YODOROGO
100
AcDbCircle
 10
15115.02941435068
 20
934.4428574764513
 30
0.0
 40
160.6888181426141
100
AcDbArc
 50
228.6181454618993
 51
245.660289248906
  0
LINE
  5
172C4
330
17656
100
AcDbEntity
  8
YODOROGO
100
AcDbLine
 10
15052.80217064596
 20
801.8747482146446
 30
0.0
 11
15048.80217064598
 21
788.0364079349501
 31
0.0
  0
LINE
  5
172C5
330
17656
100
AcDbEntity
  8
YODOROGO
100
AcDbLine
 10
15094.80217064596
 20
801.8747482146446
 30
0.0
 11
15052.80217064596
 21
801.8747482146446
 31
0.0
  0
LINE
  5
172C6
330
17656
100
AcDbEntity
  8
YODOROGO
100
AcDbLine
 10
15088.80217064596
 20
775.9088612367134
 30
0.0
 11
15094.80217064596
 21
801.8747482146446
 31
0.0
  0
ARC
  5
172C7
330
17656
100
AcDbEntity
  8
YODOROGO
100
AcDbCircle
 10
15115.02941435023
 20
934.4428574765013
 30
0.0
 40
160.6888181426453
100
AcDbArc
 50
260.6062929796993
 51
267.7790355655585
  0
LINE
  5
172C8
330
17656
100
AcDbEntity
  8
YODOROGO
100
AcDbLine
 10
15108.80217064596
 20
713.8747482146428
 30
0.0
 11
15108.80217064596
 21
773.8747482146439
 31
0.0
  0
LINE
  5
172C9
330
17656
100
AcDbEntity
  8
YODOROGO
100
AcDbLine
 10
14968.80217064596
 20
740.6696674577553
 30
0.0
 11
14968.80217064596
 21
797.2655452655707
 31
0.0
  0
LINE
  5
172CA
330
17656
100
AcDbEntity
  8
YODOROGO
100
AcDbLine
 10
15216.80217064596
 20
786.8747482146446
 30
0.0
 11
15190.80217064596
 21
786.8747482146446
 31
0.0
  0
LINE
  5
172CB
330
17656
100
AcDbEntity
  8
YODOROGO
100
AcDbLine
 10
15216.80217064596
 20
800.8747482146432
 30
0.0
 11
15216.80217064596
 21
786.8747482146446
 31
0.0
  0
LINE
  5
172CC
330
17656
100
AcDbEntity
  8
YODOROGO
100
AcDbLine
 10
15190.80217064596
 20
800.8747482146432
 30
0.0
 11
15216.80217064596
 21
800.8747482146432
 31
0.0
  0
LINE
  5
172CD
330
17656
100
AcDbEntity
  8
YODOROGO
100
AcDbLine
 10
15190.80217064596
 20
786.8747482146446
 30
0.0
 11
15190.80217064596
 21
800.8747482146432
 31
0.0
  0
LINE
  5
172CE
330
17656
100
AcDbEntity
  8
YODOROGO
100
AcDbLine
 10
15214.80217064596
 20
788.8747482146436
 30
0.0
 11
15192.80217064595
 21
788.8747482146436
 31
0.0
  0
LINE
  5
172CF
330
17656
100
AcDbEntity
  8
YODOROGO
100
AcDbLine
 10
15214.80217064596
 20
798.8747482146439
 30
0.0
 11
15214.80217064596
 21
788.8747482146436
 31
0.0
  0
LINE
  5
172D0
330
17656
100
AcDbEntity
  8
YODOROGO
100
AcDbLine
 10
15192.80217064595
 20
798.8747482146439
 30
0.0
 11
15214.80217064596
 21
798.8747482146439
 31
0.0
  0
LINE
  5
172D1
330
17656
100
AcDbEntity
  8
YODOROGO
100
AcDbLine
 10
15192.80217064595
 20
788.8747482146436
 30
0.0
 11
15192.80217064595
 21
798.8747482146439
 31
0.0
  0
LINE
  5
172D2
330
17656
100
AcDbEntity
  8
YODOROGO
100
AcDbLine
 10
15212.80217064596
 20
790.8747482146432
 30
0.0
 11
15194.80217064596
 21
790.8747482146432
 31
0.0
  0
LINE
  5
172D3
330
17656
100
AcDbEntity
  8
YODOROGO
100
AcDbLine
 10
15212.80217064596
 20
796.8747482146445
 30
0.0
 11
15212.80217064596
 21
790.8747482146432
 31
0.0
  0
LINE
  5
172D4
330
17656
100
AcDbEntity
  8
YODOROGO
100
AcDbLine
 10
15194.80217064596
 20
796.8747482146445
 30
0.0
 11
15212.80217064596
 21
796.8747482146445
 31
0.0
  0
LINE
  5
172D5
330
17656
100
AcDbEntity
  8
YODOROGO
100
AcDbLine
 10
15194.80217064596
 20
790.8747482146432
 30
0.0
 11
15194.80217064596
 21
796.8747482146445
 31
0.0
  0
LINE
  5
172D6
330
17656
100
AcDbEntity
  8
YODOROGO
100
AcDbLine
 10
15210.80217064596
 20
792.8747482146435
 30
0.0
 11
15196.80217064596
 21
792.8747482146435
 31
0.0
  0
LINE
  5
172D7
330
17656
100
AcDbEntity
  8
YODOROGO
100
AcDbLine
 10
15210.80217064596
 20
794.8747482146441
 30
0.0
 11
15210.80217064596
 21
792.8747482146435
 31
0.0
  0
LINE
  5
172D8
330
17656
100
AcDbEntity
  8
YODOROGO
100
AcDbLine
 10
15196.80217064596
 20
794.8747482146441
 30
0.0
 11
15210.80217064596
 21
794.8747482146441
 31
0.0
  0
LINE
  5
172D9
330
17656
100
AcDbEntity
  8
YODOROGO
100
AcDbLine
 10
15196.80217064596
 20
792.8747482146435
 30
0.0
 11
15196.80217064596
 21
794.8747482146441
 31
0.0
  0
LINE
  5
172DA
330
17656
100
AcDbEntity
  8
YODOROGO
100
AcDbLine
 10
15232.80217064596
 20
813.8747482146436
 30
0.0
 11
15190.80217064596
 21
813.8747482146436
 31
0.0
  0
LINE
  5
172DB
330
17656
100
AcDbEntity
  8
YODOROGO
100
AcDbLine
 10
15232.80217064596
 20
773.8747482146439
 30
0.0
 11
15232.80217064596
 21
813.8747482146436
 31
0.0
  0
LINE
  5
172DC
330
17656
100
AcDbEntity
  8
YODOROGO
100
AcDbLine
 10
15190.80217064596
 20
773.8747482146439
 30
0.0
 11
15232.80217064596
 21
773.8747482146439
 31
0.0
  0
LINE
  5
172DD
330
17656
100
AcDbEntity
  8
YODOROGO
100
AcDbLine
 10
15190.80217064596
 20
713.8747482146436
 30
0.0
 11
15190.80217064596
 21
773.8747482146439
 31
0.0
  0
LINE
  5
172DE
330
17656
100
AcDbEntity
  8
YODOROGO
100
AcDbLine
 10
15268.80217064596
 20
713.8747482146436
 30
0.0
 11
15190.80217064596
 21
713.8747482146436
 31
0.0
  0
LINE
  5
172DF
330
17656
100
AcDbEntity
  8
YODOROGO
100
AcDbLine
 10
15284.80217064596
 20
785.8747482146432
 30
0.0
 11
15284.80217064596
 21
799.8747482146441
 31
0.0
  0
ARC
  5
172E0
330
17656
100
AcDbEntity
  8
YODOROGO
100
AcDbCircle
 10
15272.80217064594
 20
785.8747482146457
 30
0.0
 40
12.00000000000186
100
AcDbArc
 50
270.0
 51
359.9999999999877
  0
LINE
  5
172E1
330
17656
100
AcDbEntity
  8
YODOROGO
100
AcDbLine
 10
15264.80217064596
 20
773.8747482146439
 30
0.0
 11
15272.80217064594
 21
773.8747482146439
 31
0.0
  0
LINE
  5
172E2
330
17656
100
AcDbEntity
  8
YODOROGO
100
AcDbLine
 10
15264.80217064596
 20
813.8747482146436
 30
0.0
 11
15264.80217064596
 21
773.8747482146439
 31
0.0
  0
LINE
  5
172E3
330
17656
100
AcDbEntity
  8
YODOROGO
100
AcDbLine
 10
15449.80217064597
 20
773.8747482146439
 30
0.0
 11
15462.80217064596
 21
773.8747482146439
 31
0.0
  0
LINE
  5
172E4
330
17656
100
AcDbEntity
  8
YODOROGO
100
AcDbLine
 10
15466.80217064596
 20
713.8747482146436
 30
0.0
 11
15449.80217064596
 21
713.8747482146436
 31
0.0
  0
LINE
  5
172E5
330
17656
100
AcDbEntity
  8
YODOROGO
100
AcDbLine
 10
15381.80217064596
 20
781.8747482146434
 30
0.0
 11
15395.80217064596
 21
781.8747482146434
 31
0.0
  0
LINE
  5
172E6
330
17656
100
AcDbEntity
  8
YODOROGO
100
AcDbLine
 10
15449.80217064596
 20
745.8747482146443
 30
0.0
 11
15361.80217064596
 21
745.8747482146443
 31
0.0
  0
LINE
  5
172E7
330
17656
100
AcDbEntity
  8
YODOROGO
100
AcDbLine
 10
15415.80217064596
 20
781.8747482146434
 30
0.0
 11
15429.80217064596
 21
781.8747482146434
 31
0.0
  0
LINE
  5
172E8
330
17656
100
AcDbEntity
  8
YODOROGO
100
AcDbLine
 10
15449.80217064596
 20
713.8747482146436
 30
0.0
 11
15449.80217064597
 21
773.8747482146439
 31
0.0
  0
LINE
  5
172E9
330
17656
100
AcDbEntity
  8
YODOROGO
100
AcDbLine
 10
15348.80217064596
 20
713.8747482146436
 30
0.0
 11
15322.80217064596
 21
713.8747482146436
 31
0.0
  0
LINE
  5
172EA
330
17656
100
AcDbEntity
  8
YODOROGO
100
AcDbLine
 10
15308.80217064596
 20
799.8747482146441
 30
0.0
 11
15308.80217064596
 21
753.8747482146439
 31
0.0
  0
ARC
  5
172EB
330
17656
100
AcDbEntity
  8
YODOROGO
100
AcDbCircle
 10
15466.80217064596
 20
733.8747482146437
 30
0.0
 40
20.0
100
AcDbArc
 50
270.0
 51
0.0
  0
LINE
  5
172EC
330
17656
100
AcDbEntity
  8
YODOROGO
100
AcDbLine
 10
15546.80217064596
 20
761.8747482146434
 30
0.0
 11
15546.80217064596
 21
713.8747482146436
 31
0.0
  0
ARC
  5
172ED
330
17656
100
AcDbEntity
  8
YODOROGO
100
AcDbCircle
 10
15519.86069778339
 20
818.7656950548667
 30
0.0
 40
62.94777829583771
100
AcDbArc
 50
295.3405244216011
 51
359.1890230341867
  0
LINE
  5
172EE
330
17656
100
AcDbEntity
  8
YODOROGO
100
AcDbLine
 10
15308.80217064596
 20
929.874748214644
 30
0.0
 11
15248.80217064596
 21
969.8747482146441
 31
0.0
  0
LINE
  5
172EF
330
17656
100
AcDbEntity
  8
YODOROGO
100
AcDbLine
 10
15248.80217064596
 20
1013.874748214644
 30
0.0
 11
15308.80217064596
 21
973.8747482146436
 31
0.0
  0
LINE
  5
172F0
330
17656
100
AcDbEntity
  8
YODOROGO
100
AcDbLine
 10
15264.80217064596
 20
839.8747482146443
 30
0.0
 11
15308.80217064596
 21
839.8747482146443
 31
0.0
  0
LINE
  5
172F1
330
17656
100
AcDbEntity
  8
YODOROGO
100
AcDbLine
 10
15308.80217064596
 20
867.8747482146436
 30
0.0
 11
15264.80217064596
 21
867.8747482146436
 31
0.0
  0
LINE
  5
172F2
330
17656
100
AcDbEntity
  8
YODOROGO
100
AcDbLine
 10
15190.80217064596
 20
897.8747482146435
 30
0.0
 11
15308.80217064596
 21
897.8747482146435
 31
0.0
  0
LINE
  5
172F3
330
17656
100
AcDbEntity
  8
YODOROGO
100
AcDbLine
 10
15040.80217064596
 20
1013.874748214644
 30
0.0
 11
15010.80217064596
 21
1013.874748214644
 31
0.0
  0
LINE
  5
172F4
330
17656
100
AcDbEntity
  8
YODOROGO
100
AcDbLine
 10
15040.80217064596
 20
913.8747482146436
 30
0.0
 11
15040.80217064596
 21
1013.874748214644
 31
0.0
  0
LINE
  5
172F5
330
17656
100
AcDbEntity
  8
YODOROGO
100
AcDbLine
 10
15010.80217064596
 20
913.8747482146436
 30
0.0
 11
15040.80217064596
 21
913.8747482146436
 31
0.0
  0
LINE
  5
172F6
330
17656
100
AcDbEntity
  8
YODOROGO
100
AcDbLine
 10
15010.80217064596
 20
1013.874748214644
 30
0.0
 11
15010.80217064596
 21
913.8747482146436
 31
0.0
  0
LINE
  5
172F7
330
17656
100
AcDbEntity
  8
YODOROGO
100
AcDbLine
 10
15080.80217064596
 20
1013.874748214644
 30
0.0
 11
15108.80217064596
 21
1013.874748214644
 31
0.0
  0
LINE
  5
172F8
330
17656
100
AcDbEntity
  8
YODOROGO
100
AcDbLine
 10
15080.80217064596
 20
905.8747482146443
 30
0.0
 11
15080.80217064596
 21
1013.874748214644
 31
0.0
  0
ARC
  5
172F9
330
17656
100
AcDbEntity
  8
YODOROGO
100
AcDbCircle
 10
15060.80217064596
 20
905.8747482146443
 30
0.0
 40
20.0
100
AcDbArc
 50
270.0
 51
0.0
  0
LINE
  5
172FA
330
17656
100
AcDbEntity
  8
YODOROGO
100
AcDbLine
 10
15010.80217064596
 20
885.8747482146442
 30
0.0
 11
15060.80217064596
 21
885.8747482146442
 31
0.0
  0
LINE
  5
172FB
330
17656
100
AcDbEntity
  8
YODOROGO
100
AcDbLine
 10
15010.80217064596
 20
853.8747482146439
 30
0.0
 11
15010.80217064596
 21
885.8747482146442
 31
0.0
  0
LINE
  5
172FC
330
17656
100
AcDbEntity
  8
YODOROGO
100
AcDbLine
 10
15068.80217064596
 20
853.8747482146439
 30
0.0
 11
15010.80217064596
 21
853.8747482146439
 31
0.0
  0
ARC
  5
172FD
330
17656
100
AcDbEntity
  8
YODOROGO
100
AcDbCircle
 10
15068.80217064596
 20
893.8747482146439
 30
0.0
 40
40.0
100
AcDbArc
 50
270.0
 51
0.0
  0
LINE
  5
172FE
330
17656
100
AcDbEntity
  8
YODOROGO
100
AcDbLine
 10
15108.80217064596
 20
1013.874748214644
 30
0.0
 11
15108.80217064596
 21
893.8747482146439
 31
0.0
  0
LINE
  5
172FF
330
17656
100
AcDbEntity
  8
YODOROGO
100
AcDbLine
 10
14988.80217064596
 20
973.8747482146436
 30
0.0
 11
14988.80217064596
 21
997.8747482146435
 31
0.0
1001
AUTOCAD_POSTSCRIPT_FIGURE
1002
{
1000
PSFILL
1000
Grayscale
1000
Grayscale
1070
    25
1002
}
  0
LINE
  5
17300
330
17656
100
AcDbEntity
  8
YODOROGO
100
AcDbLine
 10
14988.80217064596
 20
929.874748214644
 30
0.0
 11
14988.80217064596
 21
953.874748214644
 31
0.0
1001
AUTOCAD_POSTSCRIPT_FIGURE
1002
{
1000
PSFILL
1000
Grayscale
1000
Grayscale
1070
    25
1002
}
  0
LINE
  5
17301
330
17656
100
AcDbEntity
  8
YODOROGO
100
AcDbLine
 10
14988.80217064596
 20
853.8747482146439
 30
0.0
 11
14988.80217064596
 21
909.8747482146439
 31
0.0
1001
AUTOCAD_POSTSCRIPT_FIGURE
1002
{
1000
PSFILL
1000
Grayscale
1000
Grayscale
1070
    25
1002
}
  0
LINE
  5
17302
330
17656
100
AcDbEntity
  8
YODOROGO
100
AcDbLine
 10
15190.80217064596
 20
953.874748214644
 30
0.0
 11
15248.80217064596
 21
1013.874748214644
 31
0.0
  0
LINE
  5
17303
330
17656
100
AcDbEntity
  8
YODOROGO
100
AcDbLine
 10
15190.80217064596
 20
909.8747482146439
 30
0.0
 11
15190.80217064596
 21
953.874748214644
 31
0.0
  0
LINE
  5
17304
330
17656
100
AcDbEntity
  8
YODOROGO
100
AcDbLine
 10
15248.80217064596
 20
969.8747482146441
 30
0.0
 11
15190.80217064596
 21
909.8747482146439
 31
0.0
  0
LINE
  5
17305
330
17656
100
AcDbEntity
  8
YODOROGO
100
AcDbLine
 10
15232.80217064596
 20
839.8747482146443
 30
0.0
 11
15232.80217064596
 21
867.8747482146436
 31
0.0
  0
LINE
  5
17306
330
17656
100
AcDbEntity
  8
YODOROGO
100
AcDbLine
 10
15190.80217064596
 20
839.8747482146443
 30
0.0
 11
15232.80217064596
 21
839.8747482146443
 31
0.0
  0
LINE
  5
17307
330
17656
100
AcDbEntity
  8
YODOROGO
100
AcDbLine
 10
15264.80217064596
 20
867.8747482146436
 30
0.0
 11
15264.80217064596
 21
839.8747482146443
 31
0.0
  0
LINE
  5
17308
330
17656
100
AcDbEntity
  8
YODOROGO
100
AcDbLine
 10
15190.80217064596
 20
867.8747482146436
 30
0.0
 11
15190.80217064596
 21
897.8747482146435
 31
0.0
  0
LINE
  5
17309
330
17656
100
AcDbEntity
  8
YODOROGO
100
AcDbLine
 10
15232.80217064596
 20
867.8747482146436
 30
0.0
 11
15190.80217064596
 21
867.8747482146436
 31
0.0
  0
LINE
  5
1730A
330
17656
100
AcDbEntity
  8
YODOROGO
100
AcDbLine
 10
15322.80217064596
 20
1013.874748214644
 30
0.0
 11
15486.80217064596
 21
1013.874748214644
 31
0.0
  0
LINE
  5
1730B
330
17656
100
AcDbEntity
  8
YODOROGO
100
AcDbLine
 10
15462.80217064596
 20
981.8747482146434
 30
0.0
 11
15348.80217064596
 21
981.8747482146434
 31
0.0
  0
LINE
  5
1730C
330
17656
100
AcDbEntity
  8
YODOROGO
100
AcDbLine
 10
15436.80217064595
 20
909.8747482146439
 30
0.0
 11
15449.80217064596
 21
909.8747482146439
 31
0.0
  0
LINE
  5
1730D
330
17656
100
AcDbEntity
  8
YODOROGO
100
AcDbLine
 10
15449.80217064596
 20
969.8747482146441
 30
0.0
 11
15436.80217064595
 21
909.8747482146439
 31
0.0
  0
LINE
  5
1730E
330
17656
100
AcDbEntity
  8
YODOROGO
100
AcDbLine
 10
15425.80217064596
 20
969.8747482146441
 30
0.0
 11
15449.80217064596
 21
969.8747482146441
 31
0.0
  0
LINE
  5
1730F
330
17656
100
AcDbEntity
  8
YODOROGO
100
AcDbLine
 10
15412.80217064596
 20
909.8747482146439
 30
0.0
 11
15425.80217064596
 21
969.8747482146441
 31
0.0
  0
LINE
  5
17310
330
17656
100
AcDbEntity
  8
YODOROGO
100
AcDbLine
 10
15398.80217064596
 20
909.8747482146439
 30
0.0
 11
15412.80217064596
 21
909.8747482146439
 31
0.0
  0
LINE
  5
17311
330
17656
100
AcDbEntity
  8
YODOROGO
100
AcDbLine
 10
15385.80217064596
 20
969.8747482146441
 30
0.0
 11
15398.80217064596
 21
909.8747482146439
 31
0.0
  0
LINE
  5
17312
330
17656
100
AcDbEntity
  8
YODOROGO
100
AcDbLine
 10
15361.80217064596
 20
969.8747482146441
 30
0.0
 11
15385.80217064596
 21
969.8747482146441
 31
0.0
  0
LINE
  5
17313
330
17656
100
AcDbEntity
  8
YODOROGO
100
AcDbLine
 10
15374.80217064596
 20
909.8747482146439
 30
0.0
 11
15361.80217064596
 21
969.8747482146441
 31
0.0
  0
LINE
  5
17314
330
17656
100
AcDbEntity
  8
YODOROGO
100
AcDbLine
 10
15361.80217064596
 20
909.8747482146439
 30
0.0
 11
15374.80217064596
 21
909.8747482146439
 31
0.0
  0
LINE
  5
17315
330
17656
100
AcDbEntity
  8
YODOROGO
100
AcDbLine
 10
15361.80217064596
 20
877.8747482146437
 30
0.0
 11
15361.80217064596
 21
909.8747482146439
 31
0.0
  0
LINE
  5
17316
330
17656
100
AcDbEntity
  8
YODOROGO
100
AcDbLine
 10
15449.80217064596
 20
877.8747482146437
 30
0.0
 11
15361.80217064596
 21
877.8747482146437
 31
0.0
  0
LINE
  5
17317
330
17656
100
AcDbEntity
  8
YODOROGO
100
AcDbLine
 10
15449.80217064596
 20
909.8747482146439
 30
0.0
 11
15449.80217064596
 21
877.8747482146437
 31
0.0
  0
LINE
  5
17318
330
17656
100
AcDbEntity
  8
YODOROGO
100
AcDbLine
 10
15308.80217064596
 20
973.8747482146436
 30
0.0
 11
15308.80217064596
 21
929.874748214644
 31
0.0
  0
LINE
  5
17319
330
17656
100
AcDbEntity
  8
YODOROGO
100
AcDbLine
 10
15395.80217064596
 20
877.8747482146437
 30
0.0
 11
15415.80217064596
 21
877.8747482146437
 31
0.0
  0
LINE
  5
1731A
330
17656
100
AcDbEntity
  8
YODOROGO
100
AcDbLine
 10
15361.80217064596
 20
845.8747482146444
 30
0.0
 11
15381.80217064596
 21
845.8747482146444
 31
0.0
  0
LINE
  5
1731B
330
17656
100
AcDbEntity
  8
YODOROGO
100
AcDbLine
 10
15429.80217064596
 20
845.8747482146444
 30
0.0
 11
15449.80217064596
 21
845.8747482146444
 31
0.0
  0
LINE
  5
1731C
330
17656
100
AcDbEntity
  8
YODOROGO
100
AcDbLine
 10
15308.80217064596
 20
897.8747482146435
 30
0.0
 11
15308.80217064596
 21
867.8747482146436
 31
0.0
  0
LINE
  5
1731D
330
17656
100
AcDbEntity
  8
YODOROGO
100
AcDbLine
 10
15582.80217064596
 20
1013.874748214644
 30
0.0
 11
15582.80217064596
 21
981.8747482146434
 31
0.0
  0
LINE
  5
1731E
330
17656
100
AcDbEntity
  8
YODOROGO
100
AcDbLine
 10
15766.80217064596
 20
797.8747482146435
 30
0.0
 11
15766.80217064595
 21
905.8747482146443
 31
0.0
  0
LINE
  5
1731F
330
17656
100
AcDbEntity
  8
YODOROGO
100
AcDbLine
 10
15730.80217064594
 20
993.8747482146439
 30
0.0
 11
15730.80217064594
 21
817.8747482146436
 31
0.0
  0
LINE
  5
17320
330
17656
100
AcDbEntity
  8
YODOROGO
100
AcDbLine
 10
15826.80217064596
 20
713.8747482146436
 30
0.0
 11
15826.80217064595
 21
905.8747482146443
 31
0.0
  0
LINE
  5
17321
330
17656
100
AcDbEntity
  8
YODOROGO
100
AcDbLine
 10
15794.80217064596
 20
905.8747482146443
 30
0.0
 11
15794.80217064596
 21
713.8747482146436
 31
0.0
  0
LINE
  5
17322
330
17656
100
AcDbEntity
  8
YODOROGO
100
AcDbLine
 10
15618.80217064596
 20
797.8747482146435
 30
0.0
 11
15618.80217064596
 21
853.8747482146439
 31
0.0
  0
ARC
  5
17323
330
17656
100
AcDbEntity
  8
YODOROGO
100
AcDbCircle
 10
15676.95743255803
 20
803.8951756442788
 30
0.0
 40
90.04622428799429
100
AcDbArc
 50
268.6284910216979
 51
356.1663845733032
  0
LINE
  5
17324
330
17656
100
AcDbEntity
  8
YODOROGO
100
AcDbLine
 10
15674.80217064596
 20
763.8747482146436
 30
0.0
 11
15674.80217064596
 21
713.8747482146436
 31
0.0
  0
ARC
  5
17325
330
17656
100
AcDbEntity
  8
YODOROGO
100
AcDbCircle
 10
15675.75903786228
 20
818.9194785088275
 30
0.0
 40
55.05304649180608
100
AcDbArc
 50
269.0041020930593
 51
358.9126445549248
  0
LINE
  5
17326
330
17656
100
AcDbEntity
  8
YODOROGO
100
AcDbLine
 10
15794.80217064596
 20
713.8747482146436
 30
0.0
 11
15826.80217064596
 21
713.8747482146436
 31
0.0
  0
LINE
  5
17327
330
17656
100
AcDbEntity
  8
YODOROGO
100
AcDbLine
 10
15766.80217064595
 20
905.8747482146443
 30
0.0
 11
15794.80217064596
 21
905.8747482146443
 31
0.0
  0
LINE
  5
17328
330
17656
100
AcDbEntity
  8
YODOROGO
100
AcDbLine
 10
15810.80217064596
 20
993.8747482146439
 30
0.0
 11
15730.80217064594
 21
993.8747482146439
 31
0.0
  0
LINE
  5
17329
330
17656
100
AcDbEntity
  8
YODOROGO
100
AcDbLine
 10
15766.80217064595
 20
957.8747482146436
 30
0.0
 11
15830.80217064596
 21
957.8747482146436
 31
0.0
  0
LINE
  5
1732A
330
17656
100
AcDbEntity
  8
YODOROGO
100
AcDbLine
 10
15850.80217064596
 20
937.8747482146435
 30
0.0
 11
15766.80217064595
 21
937.8747482146435
 31
0.0
  0
LINE
  5
1732B
330
17656
100
AcDbEntity
  8
YODOROGO
100
AcDbLine
 10
15618.80217064596
 20
889.8747482146443
 30
0.0
 11
15674.80217064596
 21
889.8747482146443
 31
0.0
  0
LINE
  5
1732C
330
17656
100
AcDbEntity
  8
YODOROGO
100
AcDbLine
 10
15618.80217064596
 20
917.8747482146436
 30
0.0
 11
15618.80217064596
 21
889.8747482146443
 31
0.0
  0
LINE
  5
1732D
330
17656
100
AcDbEntity
  8
YODOROGO
100
AcDbLine
 10
15674.80217064596
 20
917.8747482146436
 30
0.0
 11
15618.80217064596
 21
917.8747482146436
 31
0.0
  0
LINE
  5
1732E
330
17656
100
AcDbEntity
  8
YODOROGO
100
AcDbLine
 10
15674.80217064596
 20
889.8747482146443
 30
0.0
 11
15674.80217064596
 21
917.8747482146436
 31
0.0
  0
LINE
  5
1732F
330
17656
100
AcDbEntity
  8
YODOROGO
100
AcDbLine
 10
15766.80217064595
 20
937.8747482146435
 30
0.0
 11
15766.80217064595
 21
957.8747482146436
 31
0.0
  0
LINE
  5
17330
330
17656
100
AcDbEntity
  8
YODOROGO
100
AcDbLine
 10
15706.80217064596
 20
853.8747482146439
 30
0.0
 11
15706.80217064596
 21
953.874748214644
 31
0.0
  0
LINE
  5
17331
330
17656
100
AcDbEntity
  8
YODOROGO
100
AcDbLine
 10
15618.80217064596
 20
853.8747482146439
 30
0.0
 11
15706.80217064596
 21
853.8747482146439
 31
0.0
  0
LINE
  5
17332
330
17656
100
AcDbEntity
  8
YODOROGO
100
AcDbLine
 10
15706.80217064596
 20
981.8747482146434
 30
0.0
 11
15706.80217064596
 21
1013.874748214644
 31
0.0
  0
ARC
  5
17333
330
17656
100
AcDbEntity
  8
YODOROGO
100
AcDbCircle
 10
15810.80217064596
 20
1001.874748214642
 30
0.0
 40
7.999999999997271
100
AcDbArc
 50
270.0
 51
0.0000000000081422
  0
LINE
  5
17334
330
17656
100
AcDbEntity
  8
YODOROGO
100
AcDbLine
 10
15818.80217064596
 20
1013.874748214644
 30
0.0
 11
15818.80217064596
 21
1001.874748214643
 31
0.0
  0
LINE
  5
17335
330
17656
100
AcDbEntity
  8
YODOROGO
100
AcDbLine
 10
15850.80217064596
 20
1013.874748214644
 30
0.0
 11
15818.80217064596
 21
1013.874748214644
 31
0.0
  0
LINE
  5
17336
330
17656
100
AcDbEntity
  8
YODOROGO
100
AcDbLine
 10
15850.80217064596
 20
977.8747482146435
 30
0.0
 11
15850.80217064596
 21
1013.874748214644
 31
0.0
  0
ARC
  5
17337
330
17656
100
AcDbEntity
  8
YODOROGO
100
AcDbCircle
 10
15830.80217064596
 20
977.8747482146435
 30
0.0
 40
20.0
100
AcDbArc
 50
270.0
 51
0.0
  0
LINE
  5
17338
330
17656
100
AcDbEntity
  8
YODOROGO
100
AcDbLine
 10
15850.80217064596
 20
905.8747482146443
 30
0.0
 11
15850.80217064596
 21
937.8747482146435
 31
0.0
  0
LINE
  5
17339
330
17656
100
AcDbEntity
  8
YODOROGO
100
AcDbLine
 10
15826.80217064595
 20
905.8747482146443
 30
0.0
 11
15850.80217064596
 21
905.8747482146443
 31
0.0
  0
TEXT
  5
1733A
330
17656
100
AcDbEntity
  8
SUNPOU
100
AcDbText
 10
7979.296777411708
 20
5226.803332601655
 30
0.0
 40
90.0
  1
2800
 41
0.6666666666666666
  7
00
100
AcDbText
  0
LINE
  5
1733C
330
17656
100
AcDbEntity
  8
SUNPOU
100
AcDbLine
 10
9478.582491697419
 20
5181.803332601656
 30
0.0
 11
9463.582491697421
 21
5181.803332601656
 31
0.0
  0
LINE
  5
1733E
330
17656
100
AcDbEntity
  8
SUNPOU
100
AcDbLine
 10
6708.58249169742
 20
5181.803332601656
 30
0.0
 11
6723.58249169742
 21
5181.803332601656
 31
0.0
  0
LINE
  5
1733F
330
17656
100
AcDbEntity
  8
SUNPOU
100
AcDbLine
 10
3048.429052763143
 20
1610.898498232149
 30
0.0
 11
3048.429052763143
 21
1615.89849823215
 31
0.0
  0
LINE
  5
17340
330
17656
100
AcDbEntity
  8
SUNPOU
100
AcDbLine
 10
3512.429052763144
 20
1610.898498232149
 30
0.0
 11
3512.429052763144
 21
1615.89849823215
 31
0.0
  0
LINE
  5
17341
330
17656
100
AcDbEntity
  8
SUNPOU
100
AcDbLine
 10
3068.429052763144
 20
1570.89849823215
 30
0.0
 11
3492.429052763144
 21
1570.89849823215
 31
0.0
  0
LINE
  5
17345
330
17656
100
AcDbEntity
  8
SUNPOU
100
AcDbLine
 10
3512.429052763144
 20
1610.898498232149
 30
0.0
 11
3512.429052763144
 21
1615.89849823215
 31
0.0
  0
LINE
  5
17346
330
17656
100
AcDbEntity
  8
SUNPOU
100
AcDbLine
 10
4312.429052763166
 20
1829.885413258396
 30
0.0
 11
4312.429052763166
 21
1525.898498232149
 31
0.0
  0
LINE
  5
17347
330
17656
100
AcDbEntity
  8
SUNPOU
100
AcDbLine
 10
3532.429052763144
 20
1570.89849823215
 30
0.0
 11
4292.429052763165
 21
1570.89849823215
 31
0.0
  0
LINE
  5
1734B
330
17656
100
AcDbEntity
  8
SUNPOU
100
AcDbLine
 10
2248.429052763158
 20
1829.885413258395
 30
0.0
 11
2248.429052763158
 21
1525.898498232149
 31
0.0
  0
LINE
  5
1734C
330
17656
100
AcDbEntity
  8
SUNPOU
100
AcDbLine
 10
3048.429052763143
 20
1610.898498232149
 30
0.0
 11
3048.429052763143
 21
1615.89849823215
 31
0.0
  0
LINE
  5
1734D
330
17656
100
AcDbEntity
  8
SUNPOU
100
AcDbLine
 10
2268.429052763158
 20
1570.89849823215
 30
0.0
 11
3028.429052763144
 21
1570.89849823215
 31
0.0
  0
LINE
  5
17351
330
17656
100
AcDbEntity
  8
SUNPOU
100
AcDbLine
 10
2248.429052763158
 20
1829.885413258395
 30
0.0
 11
2248.429052763158
 21
1315.898498232149
 31
0.0
  0
LINE
  5
17352
330
17656
100
AcDbEntity
  8
SUNPOU
100
AcDbLine
 10
4312.429052763166
 20
1829.885413258396
 30
0.0
 11
4312.429052763166
 21
1315.898498232149
 31
0.0
  0
LINE
  5
17353
330
17656
100
AcDbEntity
  8
SUNPOU
100
AcDbLine
 10
2268.429052763158
 20
1360.89849823215
 30
0.0
 11
4292.429052763165
 21
1360.89849823215
 31
0.0
  0
LINE
  5
17357
330
17656
100
AcDbEntity
  8
SUNPOU
100
AcDbLine
 10
2664.429052763158
 20
3157.885413258396
 30
0.0
 11
2664.429052763158
 21
3556.260118325357
 31
0.0
  0
LINE
  5
17358
330
17656
100
AcDbEntity
  8
SUNPOU
100
AcDbLine
 10
3896.429052763159
 20
3157.885413258396
 30
0.0
 11
3896.429052763159
 21
3556.260118325357
 31
0.0
  0
LINE
  5
17359
330
17656
100
AcDbEntity
  8
SUNPOU
100
AcDbLine
 10
2684.429052763158
 20
3511.260118325356
 30
0.0
 11
3876.429052763159
 21
3511.260118325356
 31
0.0
  0
LINE
  5
1735D
330
17656
100
AcDbEntity
  8
SUNPOU
100
AcDbLine
 10
4774.604572265885
 20
2877.885413258394
 30
0.0
 11
4983.007034603489
 21
2877.885413258394
 31
0.0
  0
LINE
  5
1735E
330
17656
100
AcDbEntity
  8
SUNPOU
100
AcDbLine
 10
4432.429052763158
 20
2109.885413258398
 30
0.0
 11
4983.007034603489
 21
2109.885413258398
 31
0.0
  0
LINE
  5
1735F
330
17656
100
AcDbEntity
  8
SUNPOU
100
AcDbLine
 10
4938.007034603489
 20
2857.885413258394
 30
0.0
 11
4938.007034603489
 21
2129.885413258398
 31
0.0
  0
LINE
  5
17363
330
17656
100
AcDbEntity
  8
SUNPOU
100
AcDbLine
 10
4774.604572265885
 20
3117.885413258394
 30
0.0
 11
4983.007034603489
 21
3117.885413258394
 31
0.0
  0
LINE
  5
17364
330
17656
100
AcDbEntity
  8
SUNPOU
100
AcDbLine
 10
4774.604572265885
 20
2877.885413258394
 30
0.0
 11
4983.007034603489
 21
2877.885413258394
 31
0.0
  0
LINE
  5
17365
330
17656
100
AcDbEntity
  8
SUNPOU
100
AcDbLine
 10
4938.007034603489
 20
3097.885413258394
 30
0.0
 11
4938.007034603489
 21
2897.885413258394
 31
0.0
  0
LINE
  5
17369
330
17656
100
AcDbEntity
  8
SUNPOU
100
AcDbLine
 10
4432.42905276316
 20
2029.8854132584
 30
0.0
 11
5193.007034603488
 21
2029.885413258399
 31
0.0
  0
LINE
  5
1736A
330
17656
100
AcDbEntity
  8
SUNPOU
100
AcDbLine
 10
4432.42905276316
 20
2109.885413258399
 30
0.0
 11
5193.007034603489
 21
2109.885413258399
 31
0.0
  0
LINE
  5
1736B
330
17656
100
AcDbEntity
  8
SUNPOU
100
AcDbLine
 10
5148.007034603488
 20
2009.885413258399
 30
0.0
 11
5148.007034603488
 21
1989.885413258399
 31
0.0
  0
LINE
  5
1736C
330
17656
100
AcDbEntity
  8
SUNPOU
100
AcDbLine
 10
5148.007034603489
 20
2129.885413258399
 30
0.0
 11
5148.007034603489
 21
2149.885413258399
 31
0.0
  0
LINE
  5
1736E
330
17656
100
AcDbEntity
  8
SUNPOU
100
AcDbLine
 10
5148.007034603488
 20
2029.885413258399
 30
0.0
 11
5148.007034603489
 21
2109.885413258399
 31
0.0
  0
LINE
  5
17371
330
17656
100
AcDbEntity
  8
SUNPOU
100
AcDbLine
 10
4432.42905276316
 20
2029.8854132584
 30
0.0
 11
5193.007034603489
 21
2029.885413258399
 31
0.0
  0
LINE
  5
17372
330
17656
100
AcDbEntity
  8
SUNPOU
100
AcDbLine
 10
4432.42905276316
 20
1869.885413258399
 30
0.0
 11
5193.007034603489
 21
1869.885413258399
 31
0.0
  0
LINE
  5
17373
330
17656
100
AcDbEntity
  8
SUNPOU
100
AcDbLine
 10
5148.007034603489
 20
2009.885413258399
 30
0.0
 11
5148.007034603489
 21
1889.885413258399
 31
0.0
  0
LINE
  5
17374
330
17656
100
AcDbEntity
  8
SUNPOU
100
AcDbLine
 10
5148.007034603489
 20
1869.885413258399
 30
0.0
 11
5148.007034603489
 21
1614.171127544112
 31
0.0
  0
LINE
  5
17378
330
17656
100
AcDbEntity
  8
SUNPOU
100
AcDbLine
 10
4774.604572265885
 20
3117.885413258394
 30
0.0
 11
5193.007034603489
 21
3117.885413258394
 31
0.0
  0
LINE
  5
17379
330
17656
100
AcDbEntity
  8
SUNPOU
100
AcDbLine
 10
4432.42905276316
 20
2109.885413258399
 30
0.0
 11
5193.007034603489
 21
2109.885413258399
 31
0.0
  0
LINE
  5
1737A
330
17656
100
AcDbEntity
  8
SUNPOU
100
AcDbLine
 10
5148.007034603489
 20
3097.885413258394
 30
0.0
 11
5148.007034603489
 21
2129.885413258399
 31
0.0
  0
LINE
  5
1737F
330
17656
100
AcDbEntity
  8
SUNPOU
100
AcDbLine
 10
6055.044979629257
 20
3004.333194070902
 30
0.0
 11
6055.044979629257
 21
2989.333194070902
 31
0.0
  0
LINE
  5
17381
330
17656
100
AcDbEntity
  8
SUNPOU
100
AcDbLine
 10
6055.044979629257
 20
1978.333194070902
 30
0.0
 11
6055.044979629257
 21
1993.333194070902
 31
0.0
  0
LINE
  5
17383
330
17656
100
AcDbEntity
  8
SUNPOU
100
AcDbLine
 10
8405.306062185525
 20
3402.711278313303
 30
0.0
 11
8390.306062185526
 21
3402.711278313303
 31
0.0
  0
LINE
  5
17385
330
17656
100
AcDbEntity
  8
SUNPOU
100
AcDbLine
 10
6595.306062185525
 20
3402.711278313303
 30
0.0
 11
6610.306062185525
 21
3402.711278313303
 31
0.0
  0
LINE
  5
17386
330
17656
100
AcDbEntity
  8
SUNPOU
100
AcDbLine
 10
8476.306062185527
 20
2107.333194070899
 30
0.0
 11
9028.171970751353
 21
2107.333194070899
 31
0.0
  0
LINE
  5
17387
330
17656
100
AcDbEntity
  8
SUNPOU
100
AcDbLine
 10
8476.306062185527
 20
2875.3331940709
 30
0.0
 11
9028.171970751353
 21
2875.3331940709
 31
0.0
  0
LINE
  5
17388
330
17656
100
AcDbEntity
  8
SUNPOU
100
AcDbLine
 10
8983.171970751353
 20
2127.333194070899
 30
0.0
 11
8983.171970751353
 21
2855.3331940709
 31
0.0
  0
LINE
  5
1738C
330
17656
100
AcDbEntity
  8
SUNPOU
100
AcDbLine
 10
8572.306062185525
 20
3131.3331940709
 30
0.0
 11
9238.171970751352
 21
3131.333194070899
 31
0.0
  0
LINE
  5
1738D
330
17656
100
AcDbEntity
  8
SUNPOU
100
AcDbLine
 10
8572.306062185525
 20
1851.3331940709
 30
0.0
 11
9238.171970751352
 21
1851.3331940709
 31
0.0
  0
LINE
  5
1738E
330
17656
100
AcDbEntity
  8
SUNPOU
100
AcDbLine
 10
9193.171970751356
 20
3111.3331940709
 30
0.0
 11
9193.171970751356
 21
1871.3331940709
 31
0.0
  0
LINE
  5
17392
330
17656
100
AcDbEntity
  8
SUNPOU
100
AcDbLine
 10
8116.306062185525
 20
2067.333194070898
 30
0.0
 11
8116.306062185525
 21
1525.898498232149
 31
0.0
  0
LINE
  5
17393
330
17656
100
AcDbEntity
  8
SUNPOU
100
AcDbLine
 10
6884.306062185527
 20
2067.333194070898
 30
0.0
 11
6884.306062185527
 21
1525.898498232149
 31
0.0
  0
LINE
  5
17394
330
17656
100
AcDbEntity
  8
SUNPOU
100
AcDbLine
 10
8096.306062185526
 20
1570.89849823215
 30
0.0
 11
6904.306062185526
 21
1570.89849823215
 31
0.0
  0
LINE
  5
17398
330
17656
100
AcDbEntity
  8
SUNPOU
100
AcDbLine
 10
6468.306062185526
 20
1811.333194070899
 30
0.0
 11
6468.306062185526
 21
1315.898498232149
 31
0.0
  0
LINE
  5
17399
330
17656
100
AcDbEntity
  8
SUNPOU
100
AcDbLine
 10
8532.306062185526
 20
1811.333194070899
 30
0.0
 11
8532.306062185526
 21
1315.898498232149
 31
0.0
  0
LINE
  5
1739A
330
17656
100
AcDbEntity
  8
SUNPOU
100
AcDbLine
 10
6488.306062185526
 20
1360.89849823215
 30
0.0
 11
8512.306062185526
 21
1360.89849823215
 31
0.0
  0
LINE
  5
1739E
330
17656
100
AcDbEntity
  8
SUNPOU
100
AcDbLine
 10
9493.58249169742
 20
6421.803332601657
 30
0.0
 11
9493.58249169742
 21
5136.803332601656
 31
0.0
  0
LINE
  5
1739F
330
17656
100
AcDbEntity
  8
SUNPOU
100
AcDbLine
 10
9893.58249169742
 20
5591.803332601656
 30
0.0
 11
9893.58249169742
 21
5136.803332601656
 31
0.0
  0
LINE
  5
173A0
330
17656
100
AcDbEntity
  8
SUNPOU
100
AcDbLine
 10
9513.58249169742
 20
5181.803332601656
 30
0.0
 11
9873.582491697419
 21
5181.803332601656
 31
0.0
  0
LINE
  5
173A4
330
17656
100
AcDbEntity
  8
SUNPOU
100
AcDbLine
 10
6293.582491697421
 20
5591.803332601656
 30
0.0
 11
6293.582491697421
 21
5136.803332601656
 31
0.0
  0
LINE
  5
173A5
330
17656
100
AcDbEntity
  8
SUNPOU
100
AcDbLine
 10
6693.582491697419
 20
7031.803332601656
 30
0.0
 11
6693.582491697419
 21
5136.803332601656
 31
0.0
  0
LINE
  5
173A6
330
17656
100
AcDbEntity
  8
SUNPOU
100
AcDbLine
 10
6313.58249169742
 20
5181.803332601656
 30
0.0
 11
6673.582491697421
 21
5181.803332601656
 31
0.0
  0
ARC
  5
173AA
330
17656
100
AcDbEntity
  8
SUNPOU
100
AcDbCircle
 10
10553.58249169741
 20
8421.803332601655
 30
0.0
 40
5.624999999998181
100
AcDbArc
 50
270.0
 51
90.0
  0
ARC
  5
173AB
330
17656
100
AcDbEntity
  8
SUNPOU
100
AcDbCircle
 10
10553.58249169741
 20
8421.803332601655
 30
0.0
 40
5.625
100
AcDbArc
 50
90.0
 51
270.0
  0
ARC
  5
173AC
330
17656
100
AcDbEntity
  8
SUNPOU
100
AcDbCircle
 10
10553.58249169741
 20
8161.803332601657
 30
0.0
 40
5.62499999999909
100
AcDbArc
 50
270.0
 51
90.0
  0
ARC
  5
173AD
330
17656
100
AcDbEntity
  8
SUNPOU
100
AcDbCircle
 10
10553.58249169741
 20
8161.803332601657
 30
0.0
 40
5.62499999999909
100
AcDbArc
 50
90.0
 51
270.0
  0
ARC
  5
173AE
330
17656
100
AcDbEntity
  8
SUNPOU
100
AcDbCircle
 10
10553.58249169741
 20
8161.803332601657
 30
0.0
 40
5.62499999999909
100
AcDbArc
 50
90.0
 51
270.0
  0
ARC
  5
173AF
330
17656
100
AcDbEntity
  8
SUNPOU
100
AcDbCircle
 10
10553.58249169741
 20
8161.803332601657
 30
0.0
 40
5.62499999999909
100
AcDbArc
 50
270.0
 51
90.0
  0
ARC
  5
173B0
330
17656
100
AcDbEntity
  8
SUNPOU
100
AcDbCircle
 10
10343.58249169742
 20
8161.803332601657
 30
0.0
 40
5.62499999999909
100
AcDbArc
 50
90.0
 51
270.0
  0
ARC
  5
173B1
330
17656
100
AcDbEntity
  8
SUNPOU
100
AcDbCircle
 10
10343.58249169742
 20
8161.803332601657
 30
0.0
 40
5.62499999999909
100
AcDbArc
 50
270.0
 51
90.0
  0
ARC
  5
173B2
330
17656
100
AcDbEntity
  8
SUNPOU
100
AcDbCircle
 10
10343.58249169742
 20
8021.803332601654
 30
0.0
 40
5.625000000000909
100
AcDbArc
 50
90.0
 51
270.0
  0
ARC
  5
173B3
330
17656
100
AcDbEntity
  8
SUNPOU
100
AcDbCircle
 10
10343.58249169742
 20
8021.803332601654
 30
0.0
 40
5.625000000000909
100
AcDbArc
 50
270.0
 51
90.0
  0
ARC
  5
173B4
330
17656
100
AcDbEntity
  8
SUNPOU
100
AcDbCircle
 10
10343.58249169742
 20
8021.803332601654
 30
0.0
 40
5.625000000000909
100
AcDbArc
 50
270.0
 51
90.0
  0
ARC
  5
173B5
330
17656
100
AcDbEntity
  8
SUNPOU
100
AcDbCircle
 10
10343.58249169742
 20
8021.803332601654
 30
0.0
 40
5.625000000000909
100
AcDbArc
 50
90.0
 51
270.0
  0
ARC
  5
173B6
330
17656
100
AcDbEntity
  8
SUNPOU
100
AcDbCircle
 10
10343.58249169742
 20
7821.803332601655
 30
0.0
 40
5.625
100
AcDbArc
 50
90.0
 51
270.0
  0
ARC
  5
173B7
330
17656
100
AcDbEntity
  8
SUNPOU
100
AcDbCircle
 10
10343.58249169742
 20
7821.803332601655
 30
0.0
 40
5.625000000000909
100
AcDbArc
 50
270.0
 51
90.0
  0
ARC
  5
173B8
330
17656
100
AcDbEntity
  8
SUNPOU
100
AcDbCircle
 10
10343.58249169742
 20
7821.803332601655
 30
0.0
 40
5.625000000000909
100
AcDbArc
 50
270.0
 51
90.0
  0
ARC
  5
173B9
330
17656
100
AcDbEntity
  8
SUNPOU
100
AcDbCircle
 10
10343.58249169742
 20
7821.803332601655
 30
0.0
 40
5.625
100
AcDbArc
 50
90.0
 51
270.0
  0
ARC
  5
173BA
330
17656
100
AcDbEntity
  8
SUNPOU
100
AcDbCircle
 10
10343.58249169742
 20
7731.803332601656
 30
0.0
 40
5.625
100
AcDbArc
 50
270.0
 51
90.0
  0
ARC
  5
173BB
330
17656
100
AcDbEntity
  8
SUNPOU
100
AcDbCircle
 10
10343.58249169742
 20
7731.803332601656
 30
0.0
 40
5.625000000000909
100
AcDbArc
 50
90.0
 51
270.0
  0
ARC
  5
173BC
330
17656
100
AcDbEntity
  8
SUNPOU
100
AcDbCircle
 10
10343.58249169742
 20
7731.803332601656
 30
0.0
 40
5.625000000000909
100
AcDbArc
 50
90.0
 51
270.0
  0
ARC
  5
173BD
330
17656
100
AcDbEntity
  8
SUNPOU
100
AcDbCircle
 10
10343.58249169742
 20
7731.803332601656
 30
0.0
 40
5.625
100
AcDbArc
 50
270.0
 51
90.0
  0
ARC
  5
173BE
330
17656
100
AcDbEntity
  8
SUNPOU
100
AcDbCircle
 10
10343.58249169742
 20
7531.803332601656
 30
0.0
 40
5.625
100
AcDbArc
 50
270.0
 51
90.0
  0
ARC
  5
173BF
330
17656
100
AcDbEntity
  8
SUNPOU
100
AcDbCircle
 10
10343.58249169742
 20
7531.803332601656
 30
0.0
 40
5.625
100
AcDbArc
 50
90.0
 51
270.0
  0
ARC
  5
173C0
330
17656
100
AcDbEntity
  8
SUNPOU
100
AcDbCircle
 10
10343.58249169742
 20
7531.803332601656
 30
0.0
 40
5.625
100
AcDbArc
 50
90.0
 51
270.0
  0
ARC
  5
173C1
330
17656
100
AcDbEntity
  8
SUNPOU
100
AcDbCircle
 10
10343.58249169742
 20
7531.803332601656
 30
0.0
 40
5.625
100
AcDbArc
 50
270.0
 51
90.0
  0
ARC
  5
173C2
330
17656
100
AcDbEntity
  8
SUNPOU
100
AcDbCircle
 10
10553.58249169741
 20
7391.803332601655
 30
0.0
 40
5.625
100
AcDbArc
 50
270.0
 51
90.0
  0
ARC
  5
173C3
330
17656
100
AcDbEntity
  8
SUNPOU
100
AcDbCircle
 10
10553.58249169741
 20
7391.803332601655
 30
0.0
 40
5.625000000000909
100
AcDbArc
 50
90.0
 51
270.0
  0
ARC
  5
173C4
330
17656
100
AcDbEntity
  8
SUNPOU
100
AcDbCircle
 10
10553.58249169741
 20
7391.803332601655
 30
0.0
 40
5.625000000000909
100
AcDbArc
 50
90.0
 51
270.0
  0
ARC
  5
173C5
330
17656
100
AcDbEntity
  8
SUNPOU
100
AcDbCircle
 10
10553.58249169741
 20
7391.803332601655
 30
0.0
 40
5.625
100
AcDbArc
 50
270.0
 51
90.0
  0
ARC
  5
173C6
330
17656
100
AcDbEntity
  8
SUNPOU
100
AcDbCircle
 10
10343.58249169742
 20
7391.803332601655
 30
0.0
 40
5.625000000000909
100
AcDbArc
 50
90.0
 51
270.0
  0
ARC
  5
173C7
330
17656
100
AcDbEntity
  8
SUNPOU
100
AcDbCircle
 10
10343.58249169742
 20
7391.803332601655
 30
0.0
 40
5.625
100
AcDbArc
 50
270.0
 51
90.0
  0
ARC
  5
173C8
330
17656
100
AcDbEntity
  8
SUNPOU
100
AcDbCircle
 10
10553.58249169741
 20
7131.803332601656
 30
0.0
 40
5.625
100
AcDbArc
 50
90.0
 51
270.0
  0
ARC
  5
173C9
330
17656
100
AcDbEntity
  8
SUNPOU
100
AcDbCircle
 10
10553.58249169741
 20
7131.803332601656
 30
0.0
 40
5.625
100
AcDbArc
 50
270.0
 51
90.0
  0
ARC
  5
173CA
330
17656
100
AcDbEntity
  8
SUNPOU
100
AcDbCircle
 10
9893.58249169742
 20
6671.803332601657
 30
0.0
 40
5.625
100
AcDbArc
 50
0.0
 51
180.0
  0
ARC
  5
173CB
330
17656
100
AcDbEntity
  8
SUNPOU
100
AcDbCircle
 10
9893.58249169742
 20
6671.803332601657
 30
0.0
 40
5.625
100
AcDbArc
 50
180.0
 51
0.0
  0
ARC
  5
173CC
330
17656
100
AcDbEntity
  8
SUNPOU
100
AcDbCircle
 10
9893.58249169742
 20
6461.803332601657
 30
0.0
 40
5.625
100
AcDbArc
 50
0.0
 51
180.0
  0
ARC
  5
173CD
330
17656
100
AcDbEntity
  8
SUNPOU
100
AcDbCircle
 10
9893.58249169742
 20
6461.803332601657
 30
0.0
 40
5.625
100
AcDbArc
 50
180.0
 51
0.0
  0
ARC
  5
173CE
330
17656
100
AcDbEntity
  8
SUNPOU
100
AcDbCircle
 10
9733.58249169742
 20
6671.803332601657
 30
0.0
 40
5.625
100
AcDbArc
 50
0.0
 51
180.0
  0
ARC
  5
173CF
330
17656
100
AcDbEntity
  8
SUNPOU
100
AcDbCircle
 10
9733.58249169742
 20
6671.803332601657
 30
0.0
 40
5.625
100
AcDbArc
 50
180.0
 51
0.0
  0
ARC
  5
173D0
330
17656
100
AcDbEntity
  8
SUNPOU
100
AcDbCircle
 10
9733.58249169742
 20
6671.803332601657
 30
0.0
 40
5.625
100
AcDbArc
 50
180.0
 51
0.0
  0
ARC
  5
173D1
330
17656
100
AcDbEntity
  8
SUNPOU
100
AcDbCircle
 10
9733.58249169742
 20
6671.803332601657
 30
0.0
 40
5.625
100
AcDbArc
 50
0.0
 51
180.0
  0
ARC
  5
173D2
330
17656
100
AcDbEntity
  8
SUNPOU
100
AcDbCircle
 10
9593.58249169742
 20
6881.803332601656
 30
0.0
 40
5.625
100
AcDbArc
 50
0.0
 51
180.0
  0
ARC
  5
173D3
330
17656
100
AcDbEntity
  8
SUNPOU
100
AcDbCircle
 10
9593.58249169742
 20
6881.803332601656
 30
0.0
 40
5.625
100
AcDbArc
 50
180.0
 51
0.0
  0
ARC
  5
173D4
330
17656
100
AcDbEntity
  8
SUNPOU
100
AcDbCircle
 10
9393.58249169742
 20
6881.803332601656
 30
0.0
 40
5.625
100
AcDbArc
 50
180.0
 51
0.0
  0
ARC
  5
173D5
330
17656
100
AcDbEntity
  8
SUNPOU
100
AcDbCircle
 10
9393.58249169742
 20
6881.803332601656
 30
0.0
 40
5.625
100
AcDbArc
 50
0.0
 51
180.0
  0
ARC
  5
173D6
330
17656
100
AcDbEntity
  8
SUNPOU
100
AcDbCircle
 10
8793.582491697426
 20
8421.803332601655
 30
0.0
 40
5.624999999998181
100
AcDbArc
 50
270.0
 51
90.0
  0
ARC
  5
173D7
330
17656
100
AcDbEntity
  8
SUNPOU
100
AcDbCircle
 10
8793.582491697426
 20
8421.803332601655
 30
0.0
 40
5.625
100
AcDbArc
 50
90.0
 51
270.0
  0
ARC
  5
173D8
330
17656
100
AcDbEntity
  8
SUNPOU
100
AcDbCircle
 10
8583.582491697427
 20
8421.803332601655
 30
0.0
 40
5.624999999998181
100
AcDbArc
 50
270.0
 51
90.0
  0
ARC
  5
173D9
330
17656
100
AcDbEntity
  8
SUNPOU
100
AcDbCircle
 10
8583.582491697427
 20
8421.803332601655
 30
0.0
 40
5.625
100
AcDbArc
 50
90.0
 51
270.0
  0
ARC
  5
173DA
330
17656
100
AcDbEntity
  8
SUNPOU
100
AcDbCircle
 10
8793.582491697426
 20
7921.803332601657
 30
0.0
 40
5.625
100
AcDbArc
 50
270.0
 51
90.0
  0
ARC
  5
173DB
330
17656
100
AcDbEntity
  8
SUNPOU
100
AcDbCircle
 10
8793.582491697426
 20
7921.803332601657
 30
0.0
 40
5.625
100
AcDbArc
 50
90.0
 51
270.0
  0
ARC
  5
173DC
330
17656
100
AcDbEntity
  8
SUNPOU
100
AcDbCircle
 10
8793.582491697426
 20
7631.803332601656
 30
0.0
 40
5.625
100
AcDbArc
 50
270.0
 51
90.0
  0
ARC
  5
173DD
330
17656
100
AcDbEntity
  8
SUNPOU
100
AcDbCircle
 10
8793.582491697426
 20
7631.803332601656
 30
0.0
 40
5.625
100
AcDbArc
 50
90.0
 51
270.0
  0
ARC
  5
173DE
330
17656
100
AcDbEntity
  8
SUNPOU
100
AcDbCircle
 10
8793.582491697426
 20
7631.803332601656
 30
0.0
 40
5.625
100
AcDbArc
 50
90.0
 51
270.0
  0
ARC
  5
173DF
330
17656
100
AcDbEntity
  8
SUNPOU
100
AcDbCircle
 10
8793.582491697426
 20
7631.803332601656
 30
0.0
 40
5.625
100
AcDbArc
 50
270.0
 51
90.0
  0
ARC
  5
173E0
330
17656
100
AcDbEntity
  8
SUNPOU
100
AcDbCircle
 10
8793.582491697426
 20
7921.803332601657
 30
0.0
 40
5.625
100
AcDbArc
 50
90.0
 51
270.0
  0
ARC
  5
173E1
330
17656
100
AcDbEntity
  8
SUNPOU
100
AcDbCircle
 10
8793.582491697426
 20
7921.803332601657
 30
0.0
 40
5.625
100
AcDbArc
 50
270.0
 51
90.0
  0
ARC
  5
173E2
330
17656
100
AcDbEntity
  8
SUNPOU
100
AcDbCircle
 10
8793.582491697426
 20
7131.803332601656
 30
0.0
 40
5.625
100
AcDbArc
 50
90.0
 51
270.0
  0
ARC
  5
173E3
330
17656
100
AcDbEntity
  8
SUNPOU
100
AcDbCircle
 10
8793.582491697426
 20
7131.803332601656
 30
0.0
 40
5.625
100
AcDbArc
 50
270.0
 51
90.0
  0
ARC
  5
173E4
330
17656
100
AcDbEntity
  8
SUNPOU
100
AcDbCircle
 10
8583.582491697427
 20
7131.803332601656
 30
0.0
 40
5.625
100
AcDbArc
 50
90.0
 51
270.0
  0
ARC
  5
173E5
330
17656
100
AcDbEntity
  8
SUNPOU
100
AcDbCircle
 10
8583.582491697427
 20
7131.803332601656
 30
0.0
 40
5.625
100
AcDbArc
 50
270.0
 51
90.0
  0
ARC
  5
173E6
330
17656
100
AcDbEntity
  8
SUNPOU
100
AcDbCircle
 10
9253.58249169742
 20
6671.803332601657
 30
0.0
 40
5.625
100
AcDbArc
 50
0.0
 51
180.0
  0
ARC
  5
173E7
330
17656
100
AcDbEntity
  8
SUNPOU
100
AcDbCircle
 10
9253.58249169742
 20
6671.803332601657
 30
0.0
 40
5.625
100
AcDbArc
 50
180.0
 51
0.0
  0
ARC
  5
173E8
330
17656
100
AcDbEntity
  8
SUNPOU
100
AcDbCircle
 10
9253.58249169742
 20
6671.803332601657
 30
0.0
 40
5.625
100
AcDbArc
 50
180.0
 51
0.0
  0
ARC
  5
173E9
330
17656
100
AcDbEntity
  8
SUNPOU
100
AcDbCircle
 10
9253.58249169742
 20
6671.803332601657
 30
0.0
 40
5.625
100
AcDbArc
 50
0.0
 51
180.0
  0
ARC
  5
173EA
330
17656
100
AcDbEntity
  8
SUNPOU
100
AcDbCircle
 10
9093.582491697425
 20
6671.803332601657
 30
0.0
 40
5.624999999996362
100
AcDbArc
 50
180.0
 51
0.0
  0
ARC
  5
173EB
330
17656
100
AcDbEntity
  8
SUNPOU
100
AcDbCircle
 10
9093.582491697425
 20
6671.803332601657
 30
0.0
 40
5.624999999996362
100
AcDbArc
 50
0.0
 51
180.0
  0
ARC
  5
173EC
330
17656
100
AcDbEntity
  8
SUNPOU
100
AcDbCircle
 10
9093.582491697425
 20
6461.803332601657
 30
0.0
 40
5.624999999996362
100
AcDbArc
 50
180.0
 51
0.0
  0
ARC
  5
173ED
330
17656
100
AcDbEntity
  8
SUNPOU
100
AcDbCircle
 10
9093.582491697425
 20
6461.803332601657
 30
0.0
 40
5.624999999996362
100
AcDbArc
 50
0.0
 51
180.0
  0
ARC
  5
173EE
330
17656
100
AcDbEntity
  8
SUNPOU
100
AcDbCircle
 10
5843.582491697421
 20
9921.803332601658
 30
0.0
 40
5.625
100
AcDbArc
 50
270.0
 51
90.0
  0
ARC
  5
173EF
330
17656
100
AcDbEntity
  8
SUNPOU
100
AcDbCircle
 10
5843.582491697421
 20
9921.803332601658
 30
0.0
 40
5.625
100
AcDbArc
 50
90.0
 51
270.0
  0
ARC
  5
173F0
330
17656
100
AcDbEntity
  8
SUNPOU
100
AcDbCircle
 10
5843.582491697421
 20
7921.803332601657
 30
0.0
 40
5.625
100
AcDbArc
 50
270.0
 51
90.0
  0
ARC
  5
173F1
330
17656
100
AcDbEntity
  8
SUNPOU
100
AcDbCircle
 10
5843.582491697421
 20
7921.803332601657
 30
0.0
 40
5.625
100
AcDbArc
 50
90.0
 51
270.0
  0
ARC
  5
173F2
330
17656
100
AcDbEntity
  8
SUNPOU
100
AcDbCircle
 10
5843.582491697421
 20
7631.803332601656
 30
0.0
 40
5.625
100
AcDbArc
 50
90.0
 51
270.0
  0
ARC
  5
173F3
330
17656
100
AcDbEntity
  8
SUNPOU
100
AcDbCircle
 10
5843.582491697421
 20
7631.803332601656
 30
0.0
 40
5.625
100
AcDbArc
 50
270.0
 51
90.0
  0
ARC
  5
173F4
330
17656
100
AcDbEntity
  8
SUNPOU
100
AcDbCircle
 10
5843.582491697421
 20
7631.803332601656
 30
0.0
 40
5.625
100
AcDbArc
 50
270.0
 51
90.0
  0
ARC
  5
173F5
330
17656
100
AcDbEntity
  8
SUNPOU
100
AcDbCircle
 10
5843.582491697421
 20
7631.803332601656
 30
0.0
 40
5.625
100
AcDbArc
 50
90.0
 51
270.0
  0
ARC
  5
173F6
330
17656
100
AcDbEntity
  8
SUNPOU
100
AcDbCircle
 10
5843.582491697421
 20
7921.803332601657
 30
0.0
 40
5.625
100
AcDbArc
 50
90.0
 51
270.0
  0
ARC
  5
173F7
330
17656
100
AcDbEntity
  8
SUNPOU
100
AcDbCircle
 10
5843.582491697421
 20
7921.803332601657
 30
0.0
 40
5.625
100
AcDbArc
 50
270.0
 51
90.0
  0
ARC
  5
173F8
330
17656
100
AcDbEntity
  8
SUNPOU
100
AcDbCircle
 10
5843.582491697421
 20
5631.803332601656
 30
0.0
 40
5.625
100
AcDbArc
 50
90.0
 51
270.0
  0
ARC
  5
173F9
330
17656
100
AcDbEntity
  8
SUNPOU
100
AcDbCircle
 10
5843.582491697421
 20
5631.803332601656
 30
0.0
 40
5.62499999999909
100
AcDbArc
 50
270.0
 51
90.0
  0
ARC
  5
173FA
330
17656
100
AcDbEntity
  8
SUNPOU
100
AcDbCircle
 10
9493.58249169742
 20
5181.803332601656
 30
0.0
 40
7.5
100
AcDbArc
 50
180.0
 51
0.0
  0
ARC
  5
173FB
330
17656
100
AcDbEntity
  8
SUNPOU
100
AcDbCircle
 10
9493.58249169742
 20
5181.803332601656
 30
0.0
 40
7.5
100
AcDbArc
 50
0.0
 51
180.0
  0
ARC
  5
173FC
330
17656
100
AcDbEntity
  8
SUNPOU
100
AcDbCircle
 10
6693.582491697419
 20
5181.803332601656
 30
0.0
 40
7.5
100
AcDbArc
 50
0.0
 51
180.0
  0
ARC
  5
173FD
330
17656
100
AcDbEntity
  8
SUNPOU
100
AcDbCircle
 10
6693.582491697419
 20
5181.803332601656
 30
0.0
 40
7.5
100
AcDbArc
 50
180.0
 51
0.0
  0
TEXT
  5
173FE
330
17656
100
AcDbEntity
  8
SUNPOU
100
AcDbText
 10
3194.714767048858
 20
1615.89849823215
 30
0.0
 40
90.0
  1
290
 41
0.6666666666666666
  7
00
100
AcDbText
  0
LINE
  5
17400
330
17656
100
AcDbEntity
  8
SUNPOU
100
AcDbLine
 10
3497.429052763143
 20
1570.89849823215
 30
0.0
 11
3482.429052763144
 21
1570.89849823215
 31
0.0
  0
LINE
  5
17402
330
17656
100
AcDbEntity
  8
SUNPOU
100
AcDbLine
 10
3063.429052763144
 20
1570.89849823215
 30
0.0
 11
3078.429052763143
 21
1570.89849823215
 31
0.0
  0
TEXT
  5
17403
330
17656
100
AcDbEntity
  8
SUNPOU
100
AcDbText
 10
3826.714767048869
 20
1615.89849823215
 30
0.0
 40
90.0
  1
500
 41
0.6666666666666666
  7
00
100
AcDbText
  0
LINE
  5
17405
330
17656
100
AcDbEntity
  8
SUNPOU
100
AcDbLine
 10
4297.429052763166
 20
1570.89849823215
 30
0.0
 11
4282.429052763165
 21
1570.89849823215
 31
0.0
  0
LINE
  5
17407
330
17656
100
AcDbEntity
  8
SUNPOU
100
AcDbLine
 10
3527.429052763143
 20
1570.89849823215
 30
0.0
 11
3542.429052763144
 21
1570.89849823215
 31
0.0
  0
TEXT
  5
17408
330
17656
100
AcDbEntity
  8
SUNPOU
100
AcDbText
 10
2562.714767048865
 20
1615.89849823215
 30
0.0
 40
90.0
  1
500
 41
0.6666666666666666
  7
00
100
AcDbText
  0
LINE
  5
1740A
330
17656
100
AcDbEntity
  8
SUNPOU
100
AcDbLine
 10
3033.429052763144
 20
1570.89849823215
 30
0.0
 11
3018.429052763144
 21
1570.89849823215
 31
0.0
  0
LINE
  5
1740C
330
17656
100
AcDbEntity
  8
SUNPOU
100
AcDbLine
 10
2263.429052763159
 20
1570.89849823215
 30
0.0
 11
2278.429052763157
 21
1570.89849823215
 31
0.0
  0
TEXT
  5
1740D
330
17656
100
AcDbEntity
  8
SUNPOU
100
AcDbText
 10
3161.857624191732
 20
1405.89849823215
 30
0.0
 40
90.0
  1
1290
 41
0.6666666666666666
  7
00
100
AcDbText
  0
LINE
  5
1740F
330
17656
100
AcDbEntity
  8
SUNPOU
100
AcDbLine
 10
4297.429052763166
 20
1360.89849823215
 30
0.0
 11
4282.429052763165
 21
1360.89849823215
 31
0.0
  0
LINE
  5
17411
330
17656
100
AcDbEntity
  8
SUNPOU
100
AcDbLine
 10
2263.429052763159
 20
1360.89849823215
 30
0.0
 11
2278.429052763157
 21
1360.89849823215
 31
0.0
  0
TEXT
  5
17412
330
17656
100
AcDbEntity
  8
SUNPOU
100
AcDbText
 10
3194.714767048873
 20
3556.260118325357
 30
0.0
 40
90.0
  1
770
 41
0.6666666666666666
  7
00
100
AcDbText
  0
LINE
  5
17414
330
17656
100
AcDbEntity
  8
SUNPOU
100
AcDbLine
 10
3881.429052763158
 20
3511.260118325356
 30
0.0
 11
3866.429052763159
 21
3511.260118325356
 31
0.0
  0
LINE
  5
17416
330
17656
100
AcDbEntity
  8
SUNPOU
100
AcDbLine
 10
2679.429052763159
 20
3511.260118325356
 30
0.0
 11
2694.429052763158
 21
3511.260118325356
 31
0.0
  0
TEXT
  5
17417
330
17656
100
AcDbEntity
  8
SUNPOU
100
AcDbText
 10
4893.007034603488
 20
2408.171127544112
 30
0.0
 40
90.0
  1
480
 50
90.0
 41
0.6666666666666666
  7
00
100
AcDbText
  0
LINE
  5
17419
330
17656
100
AcDbEntity
  8
SUNPOU
100
AcDbLine
 10
4938.007034603489
 20
2124.885413258398
 30
0.0
 11
4938.007034603489
 21
2139.885413258399
 31
0.0
  0
LINE
  5
1741B
330
17656
100
AcDbEntity
  8
SUNPOU
100
AcDbLine
 10
4938.007034603489
 20
2862.885413258394
 30
0.0
 11
4938.007034603489
 21
2847.885413258394
 31
0.0
  0
TEXT
  5
1741C
330
17656
100
AcDbEntity
  8
SUNPOU
100
AcDbText
 10
4893.007034603488
 20
2907.885413258394
 30
0.0
 40
90.0
  1
150
 50
90.0
 41
0.6666666666666666
  7
00
100
AcDbText
  0
LINE
  5
1741E
330
17656
100
AcDbEntity
  8
SUNPOU
100
AcDbLine
 10
4938.007034603489
 20
2892.885413258394
 30
0.0
 11
4938.007034603489
 21
2907.885413258394
 31
0.0
  0
LINE
  5
17420
330
17656
100
AcDbEntity
  8
SUNPOU
100
AcDbLine
 10
4938.007034603489
 20
3102.885413258395
 30
0.0
 11
4938.007034603489
 21
3087.885413258394
 31
0.0
  0
LINE
  5
17422
330
17656
100
AcDbEntity
  8
SUNPOU
100
AcDbLine
 10
5148.007034603489
 20
2124.885413258399
 30
0.0
 11
5148.007034603489
 21
2139.885413258399
 31
0.0
  0
LINE
  5
17424
330
17656
100
AcDbEntity
  8
SUNPOU
100
AcDbLine
 10
5148.007034603488
 20
2014.885413258399
 30
0.0
 11
5148.007034603488
 21
1999.885413258398
 31
0.0
  0
TEXT
  5
17425
330
17656
100
AcDbEntity
  8
SUNPOU
100
AcDbText
 10
5320.630199058618
 20
2012.742556115539
 30
0.0
 40
90.0
  1
50
 50
90.0
 41
0.6666666666666666
  7
00
100
AcDbText
  0
TEXT
  5
17426
330
17656
100
AcDbEntity
  8
SUNPOU
100
AcDbText
 10
5103.007034603489
 20
1642.028270401257
 30
0.0
 40
90.0
  1
100
 50
90.0
 41
0.6666666666666666
  7
00
100
AcDbText
  0
LINE
  5
17428
330
17656
100
AcDbEntity
  8
SUNPOU
100
AcDbLine
 10
5148.007034603489
 20
1884.885413258399
 30
0.0
 11
5148.007034603489
 21
1899.8854132584
 31
0.0
  0
LINE
  5
1742A
330
17656
100
AcDbEntity
  8
SUNPOU
100
AcDbLine
 10
5148.007034603489
 20
2014.885413258399
 30
0.0
 11
5148.007034603489
 21
1999.885413258398
 31
0.0
  0
TEXT
  5
1742B
330
17656
100
AcDbEntity
  8
SUNPOU
100
AcDbText
 10
5103.007034603488
 20
2526.74255611554
 30
0.0
 40
90.0
  1
630
 50
90.0
 41
0.6666666666666666
  7
00
100
AcDbText
  0
LINE
  5
1742D
330
17656
100
AcDbEntity
  8
SUNPOU
100
AcDbLine
 10
5148.007034603489
 20
2124.885413258399
 30
0.0
 11
5148.007034603489
 21
2139.885413258399
 31
0.0
  0
LINE
  5
1742F
330
17656
100
AcDbEntity
  8
SUNPOU
100
AcDbLine
 10
5148.007034603489
 20
3102.885413258395
 30
0.0
 11
5148.007034603489
 21
3087.885413258394
 31
0.0
  0
ARC
  5
17430
330
17656
100
AcDbEntity
  8
SUNPOU
100
AcDbCircle
 10
6055.044979629257
 20
3019.333194070902
 30
0.0
 40
7.5
100
AcDbArc
 50
270.0
 51
90.0
  0
ARC
  5
17431
330
17656
100
AcDbEntity
  8
SUNPOU
100
AcDbCircle
 10
6055.044979629257
 20
3019.333194070902
 30
0.0
 40
7.5
100
AcDbArc
 50
90.0
 51
270.0
  0
ARC
  5
17432
330
17656
100
AcDbEntity
  8
SUNPOU
100
AcDbCircle
 10
6055.044979629257
 20
1963.333194070902
 30
0.0
 40
7.5
100
AcDbArc
 50
90.0
 51
270.0
  0
ARC
  5
17433
330
17656
100
AcDbEntity
  8
SUNPOU
100
AcDbCircle
 10
6055.044979629257
 20
1963.333194070902
 30
0.0
 40
7.5
100
AcDbArc
 50
270.0
 51
90.0
  0
ARC
  5
17434
330
17656
100
AcDbEntity
  8
SUNPOU
100
AcDbCircle
 10
8420.306062185526
 20
3402.711278313303
 30
0.0
 40
7.5
100
AcDbArc
 50
180.0
 51
0.0
  0
ARC
  5
17435
330
17656
100
AcDbEntity
  8
SUNPOU
100
AcDbCircle
 10
8420.306062185526
 20
3402.711278313303
 30
0.0
 40
7.5
100
AcDbArc
 50
0.0
 51
180.0
  0
ARC
  5
17436
330
17656
100
AcDbEntity
  8
SUNPOU
100
AcDbCircle
 10
6580.306062185525
 20
3402.711278313303
 30
0.0
 40
7.5
100
AcDbArc
 50
0.0
 51
180.0
  0
ARC
  5
17437
330
17656
100
AcDbEntity
  8
SUNPOU
100
AcDbCircle
 10
6580.306062185525
 20
3402.711278313303
 30
0.0
 40
7.5
100
AcDbArc
 50
180.0
 51
0.0
  0
TEXT
  5
17438
330
17656
100
AcDbEntity
  8
SUNPOU
100
AcDbText
 10
8938.171970751353
 20
2405.618908356616
 30
0.0
 40
90.0
  1
480
 50
90.0
 41
0.6666666666666666
  7
00
100
AcDbText
  0
LINE
  5
1743A
330
17656
100
AcDbEntity
  8
SUNPOU
100
AcDbLine
 10
8983.171970751353
 20
2860.3331940709
 30
0.0
 11
8983.171970751353
 21
2845.3331940709
 31
0.0
  0
LINE
  5
1743C
330
17656
100
AcDbEntity
  8
SUNPOU
100
AcDbLine
 10
8983.171970751353
 20
2122.3331940709
 30
0.0
 11
8983.171970751353
 21
2137.3331940709
 31
0.0
  0
TEXT
  5
1743D
330
17656
100
AcDbEntity
  8
SUNPOU
100
AcDbText
 10
9148.171970751356
 20
2405.618908356616
 30
0.0
 40
90.0
  1
800
 50
90.0
 41
0.6666666666666666
  7
00
100
AcDbText
  0
LINE
  5
1743F
330
17656
100
AcDbEntity
  8
SUNPOU
100
AcDbLine
 10
9193.171970751356
 20
1866.333194070899
 30
0.0
 11
9193.171970751356
 21
1881.333194070899
 31
0.0
  0
LINE
  5
17441
330
17656
100
AcDbEntity
  8
SUNPOU
100
AcDbLine
 10
9193.171970751356
 20
3116.3331940709
 30
0.0
 11
9193.171970751356
 21
3101.3331940709
 31
0.0
  0
TEXT
  5
17442
330
17656
100
AcDbEntity
  8
SUNPOU
100
AcDbText
 10
7414.59177647124
 20
1615.89849823215
 30
0.0
 40
90.0
  1
770
 41
0.6666666666666666
  7
00
100
AcDbText
  0
LINE
  5
17444
330
17656
100
AcDbEntity
  8
SUNPOU
100
AcDbLine
 10
6899.306062185527
 20
1570.89849823215
 30
0.0
 11
6914.306062185527
 21
1570.89849823215
 31
0.0
  0
LINE
  5
17446
330
17656
100
AcDbEntity
  8
SUNPOU
100
AcDbLine
 10
8101.306062185527
 20
1570.89849823215
 30
0.0
 11
8086.306062185526
 21
1570.89849823215
 31
0.0
  0
TEXT
  5
17447
330
17656
100
AcDbEntity
  8
SUNPOU
100
AcDbText
 10
7381.734633614097
 20
1405.89849823215
 30
0.0
 40
90.0
  1
1290
 41
0.6666666666666666
  7
00
100
AcDbText
  0
LINE
  5
17449
330
17656
100
AcDbEntity
  8
SUNPOU
100
AcDbLine
 10
8517.306062185525
 20
1360.89849823215
 30
0.0
 11
8502.306062185526
 21
1360.89849823215
 31
0.0
  0
LINE
  5
1744B
330
17656
100
AcDbEntity
  8
SUNPOU
100
AcDbLine
 10
6483.306062185525
 20
1360.89849823215
 30
0.0
 11
6498.306062185527
 21
1360.89849823215
 31
0.0
  0
TEXT
  5
1744C
330
17656
100
AcDbEntity
  8
SUNPOU
100
AcDbText
 10
9607.868205983134
 20
5226.803332601655
 30
0.0
 40
90.0
  1
400
 41
0.6666666666666666
  7
00
100
AcDbText
  0
LINE
  5
1744E
330
17656
100
AcDbEntity
  8
SUNPOU
100
AcDbLine
 10
9878.582491697422
 20
5181.803332601656
 30
0.0
 11
9863.582491697421
 21
5181.803332601656
 31
0.0
  0
LINE
  5
17450
330
17656
100
AcDbEntity
  8
SUNPOU
100
AcDbLine
 10
9508.582491697422
 20
5181.803332601656
 30
0.0
 11
9523.582491697419
 21
5181.803332601656
 31
0.0
  0
TEXT
  5
17451
330
17656
100
AcDbEntity
  8
SUNPOU
100
AcDbText
 10
6407.868205983135
 20
5226.803332601655
 30
0.0
 40
90.0
  1
400
 41
0.6666666666666666
  7
00
100
AcDbText
  0
LINE
  5
17453
330
17656
100
AcDbEntity
  8
SUNPOU
100
AcDbLine
 10
6678.582491697419
 20
5181.803332601656
 30
0.0
 11
6663.58249169742
 21
5181.803332601656
 31
0.0
  0
LINE
  5
17455
330
17656
100
AcDbEntity
  8
SUNPOU
100
AcDbLine
 10
6308.582491697421
 20
5181.803332601656
 30
0.0
 11
6323.582491697421
 21
5181.803332601656
 31
0.0
  0
ARC
  5
17456
330
17656
100
AcDbEntity
  8
SUNPOU
100
AcDbCircle
 10
3512.429052763144
 20
1570.89849823215
 30
0.0
 40
7.5
100
AcDbArc
 50
180.0
 51
0.0
  0
ARC
  5
17457
330
17656
100
AcDbEntity
  8
SUNPOU
100
AcDbCircle
 10
3512.429052763144
 20
1570.89849823215
 30
0.0
 40
7.5
100
AcDbArc
 50
0.0
 51
180.0
  0
ARC
  5
17458
330
17656
100
AcDbEntity
  8
SUNPOU
100
AcDbCircle
 10
3048.429052763143
 20
1570.89849823215
 30
0.0
 40
7.5
100
AcDbArc
 50
0.0
 51
180.0
  0
ARC
  5
17459
330
17656
100
AcDbEntity
  8
SUNPOU
100
AcDbCircle
 10
3048.429052763143
 20
1570.89849823215
 30
0.0
 40
7.5
100
AcDbArc
 50
180.0
 51
0.0
  0
ARC
  5
1745A
330
17656
100
AcDbEntity
  8
SUNPOU
100
AcDbCircle
 10
4312.429052763166
 20
1570.89849823215
 30
0.0
 40
7.5
100
AcDbArc
 50
180.0
 51
0.0
  0
ARC
  5
1745B
330
17656
100
AcDbEntity
  8
SUNPOU
100
AcDbCircle
 10
4312.429052763166
 20
1570.89849823215
 30
0.0
 40
7.5
100
AcDbArc
 50
0.0
 51
180.0
  0
ARC
  5
1745C
330
17656
100
AcDbEntity
  8
SUNPOU
100
AcDbCircle
 10
3512.429052763144
 20
1570.89849823215
 30
0.0
 40
7.5
100
AcDbArc
 50
0.0
 51
180.0
  0
ARC
  5
1745D
330
17656
100
AcDbEntity
  8
SUNPOU
100
AcDbCircle
 10
3512.429052763144
 20
1570.89849823215
 30
0.0
 40
7.5
100
AcDbArc
 50
180.0
 51
0.0
  0
ARC
  5
1745E
330
17656
100
AcDbEntity
  8
SUNPOU
100
AcDbCircle
 10
3048.429052763143
 20
1570.89849823215
 30
0.0
 40
7.5
100
AcDbArc
 50
180.0
 51
0.0
  0
ARC
  5
1745F
330
17656
100
AcDbEntity
  8
SUNPOU
100
AcDbCircle
 10
3048.429052763143
 20
1570.89849823215
 30
0.0
 40
7.5
100
AcDbArc
 50
0.0
 51
180.0
  0
ARC
  5
17460
330
17656
100
AcDbEntity
  8
SUNPOU
100
AcDbCircle
 10
2248.429052763158
 20
1570.89849823215
 30
0.0
 40
7.5
100
AcDbArc
 50
0.0
 51
180.0
  0
ARC
  5
17461
330
17656
100
AcDbEntity
  8
SUNPOU
100
AcDbCircle
 10
2248.429052763158
 20
1570.89849823215
 30
0.0
 40
7.5
100
AcDbArc
 50
180.0
 51
0.0
  0
ARC
  5
17462
330
17656
100
AcDbEntity
  8
SUNPOU
100
AcDbCircle
 10
4312.429052763166
 20
1360.89849823215
 30
0.0
 40
7.5
100
AcDbArc
 50
180.0
 51
0.0
  0
ARC
  5
17463
330
17656
100
AcDbEntity
  8
SUNPOU
100
AcDbCircle
 10
4312.429052763166
 20
1360.89849823215
 30
0.0
 40
7.5
100
AcDbArc
 50
0.0
 51
180.0
  0
ARC
  5
17464
330
17656
100
AcDbEntity
  8
SUNPOU
100
AcDbCircle
 10
2248.429052763158
 20
1360.89849823215
 30
0.0
 40
7.5
100
AcDbArc
 50
0.0
 51
180.0
  0
ARC
  5
17465
330
17656
100
AcDbEntity
  8
SUNPOU
100
AcDbCircle
 10
2248.429052763158
 20
1360.89849823215
 30
0.0
 40
7.5
100
AcDbArc
 50
180.0
 51
0.0
  0
ARC
  5
17466
330
17656
100
AcDbEntity
  8
SUNPOU
100
AcDbCircle
 10
3896.429052763159
 20
3511.260118325356
 30
0.0
 40
7.5
100
AcDbArc
 50
180.0
 51
0.0
  0
ARC
  5
17467
330
17656
100
AcDbEntity
  8
SUNPOU
100
AcDbCircle
 10
3896.429052763159
 20
3511.260118325356
 30
0.0
 40
7.5
100
AcDbArc
 50
0.0
 51
180.0
  0
ARC
  5
17468
330
17656
100
AcDbEntity
  8
SUNPOU
100
AcDbCircle
 10
2664.429052763158
 20
3511.260118325356
 30
0.0
 40
7.5
100
AcDbArc
 50
0.0
 51
180.0
  0
ARC
  5
17469
330
17656
100
AcDbEntity
  8
SUNPOU
100
AcDbCircle
 10
2664.429052763158
 20
3511.260118325356
 30
0.0
 40
7.5
100
AcDbArc
 50
180.0
 51
0.0
  0
ARC
  5
1746A
330
17656
100
AcDbEntity
  8
SUNPOU
100
AcDbCircle
 10
4938.007034603489
 20
2109.885413258398
 30
0.0
 40
7.5
100
AcDbArc
 50
90.0
 51
270.0
  0
ARC
  5
1746B
330
17656
100
AcDbEntity
  8
SUNPOU
100
AcDbCircle
 10
4938.007034603489
 20
2109.885413258398
 30
0.0
 40
7.5
100
AcDbArc
 50
270.0
 51
90.0
  0
ARC
  5
1746C
330
17656
100
AcDbEntity
  8
SUNPOU
100
AcDbCircle
 10
4938.007034603489
 20
2877.885413258394
 30
0.0
 40
7.5
100
AcDbArc
 50
270.0
 51
90.0
  0
ARC
  5
1746D
330
17656
100
AcDbEntity
  8
SUNPOU
100
AcDbCircle
 10
4938.007034603489
 20
2877.885413258394
 30
0.0
 40
7.5
100
AcDbArc
 50
90.0
 51
270.0
  0
ARC
  5
1746E
330
17656
100
AcDbEntity
  8
SUNPOU
100
AcDbCircle
 10
4938.007034603489
 20
2877.885413258394
 30
0.0
 40
7.5
100
AcDbArc
 50
90.0
 51
270.0
  0
ARC
  5
1746F
330
17656
100
AcDbEntity
  8
SUNPOU
100
AcDbCircle
 10
4938.007034603489
 20
2877.885413258394
 30
0.0
 40
7.5
100
AcDbArc
 50
270.0
 51
90.0
  0
ARC
  5
17470
330
17656
100
AcDbEntity
  8
SUNPOU
100
AcDbCircle
 10
4938.007034603489
 20
3117.885413258394
 30
0.0
 40
7.5
100
AcDbArc
 50
270.0
 51
90.0
  0
ARC
  5
17471
330
17656
100
AcDbEntity
  8
SUNPOU
100
AcDbCircle
 10
4938.007034603489
 20
3117.885413258394
 30
0.0
 40
7.5
100
AcDbArc
 50
90.0
 51
270.0
  0
ARC
  5
17472
330
17656
100
AcDbEntity
  8
SUNPOU
100
AcDbCircle
 10
5148.007034603489
 20
2109.885413258399
 30
0.0
 40
7.5
100
AcDbArc
 50
90.0
 51
270.0
  0
ARC
  5
17473
330
17656
100
AcDbEntity
  8
SUNPOU
100
AcDbCircle
 10
5148.007034603489
 20
2109.885413258399
 30
0.0
 40
7.5
100
AcDbArc
 50
270.0
 51
90.0
  0
ARC
  5
17474
330
17656
100
AcDbEntity
  8
SUNPOU
100
AcDbCircle
 10
5148.007034603488
 20
2029.885413258399
 30
0.0
 40
7.5
100
AcDbArc
 50
270.0
 51
90.0
  0
ARC
  5
17475
330
17656
100
AcDbEntity
  8
SUNPOU
100
AcDbCircle
 10
5148.007034603488
 20
2029.885413258399
 30
0.0
 40
7.5
100
AcDbArc
 50
90.0
 51
270.0
  0
ARC
  5
17476
330
17656
100
AcDbEntity
  8
SUNPOU
100
AcDbCircle
 10
5148.007034603489
 20
1869.885413258399
 30
0.0
 40
7.5
100
AcDbArc
 50
90.0
 51
270.0
  0
ARC
  5
17477
330
17656
100
AcDbEntity
  8
SUNPOU
100
AcDbCircle
 10
5148.007034603489
 20
1869.885413258399
 30
0.0
 40
7.5
100
AcDbArc
 50
270.0
 51
90.0
  0
ARC
  5
17478
330
17656
100
AcDbEntity
  8
SUNPOU
100
AcDbCircle
 10
5148.007034603489
 20
2029.885413258399
 30
0.0
 40
7.5
100
AcDbArc
 50
270.0
 51
90.0
  0
ARC
  5
17479
330
17656
100
AcDbEntity
  8
SUNPOU
100
AcDbCircle
 10
5148.007034603489
 20
2029.885413258399
 30
0.0
 40
7.5
100
AcDbArc
 50
90.0
 51
270.0
  0
ARC
  5
1747A
330
17656
100
AcDbEntity
  8
SUNPOU
100
AcDbCircle
 10
5148.007034603489
 20
2109.885413258399
 30
0.0
 40
7.5
100
AcDbArc
 50
90.0
 51
270.0
  0
ARC
  5
1747B
330
17656
100
AcDbEntity
  8
SUNPOU
100
AcDbCircle
 10
5148.007034603489
 20
2109.885413258399
 30
0.0
 40
7.5
100
AcDbArc
 50
270.0
 51
90.0
  0
ARC
  5
1747C
330
17656
100
AcDbEntity
  8
SUNPOU
100
AcDbCircle
 10
5148.007034603489
 20
3117.885413258394
 30
0.0
 40
7.5
100
AcDbArc
 50
270.0
 51
90.0
  0
ARC
  5
1747D
330
17656
100
AcDbEntity
  8
SUNPOU
100
AcDbCircle
 10
5148.007034603489
 20
3117.885413258394
 30
0.0
 40
7.5
100
AcDbArc
 50
90.0
 51
270.0
  0
ARC
  5
1747E
330
17656
100
AcDbEntity
  8
SUNPOU
100
AcDbCircle
 10
8983.171970751353
 20
2875.3331940709
 30
0.0
 40
7.5
100
AcDbArc
 50
270.0
 51
90.0
  0
ARC
  5
1747F
330
17656
100
AcDbEntity
  8
SUNPOU
100
AcDbCircle
 10
8983.171970751353
 20
2875.3331940709
 30
0.0
 40
7.5
100
AcDbArc
 50
90.0
 51
270.0
  0
ARC
  5
17480
330
17656
100
AcDbEntity
  8
SUNPOU
100
AcDbCircle
 10
8983.171970751353
 20
2107.333194070899
 30
0.0
 40
7.5
100
AcDbArc
 50
90.0
 51
270.0
  0
ARC
  5
17481
330
17656
100
AcDbEntity
  8
SUNPOU
100
AcDbCircle
 10
8983.171970751353
 20
2107.333194070899
 30
0.0
 40
7.5
100
AcDbArc
 50
270.0
 51
90.0
  0
ARC
  5
17482
330
17656
100
AcDbEntity
  8
SUNPOU
100
AcDbCircle
 10
9193.171970751356
 20
1851.3331940709
 30
0.0
 40
7.5
100
AcDbArc
 50
90.0
 51
270.0
  0
ARC
  5
17483
330
17656
100
AcDbEntity
  8
SUNPOU
100
AcDbCircle
 10
9193.171970751356
 20
1851.3331940709
 30
0.0
 40
7.5
100
AcDbArc
 50
270.0
 51
90.0
  0
ARC
  5
17484
330
17656
100
AcDbEntity
  8
SUNPOU
100
AcDbCircle
 10
9193.171970751356
 20
3131.3331940709
 30
0.0
 40
7.5
100
AcDbArc
 50
270.0
 51
90.0
  0
ARC
  5
17485
330
17656
100
AcDbEntity
  8
SUNPOU
100
AcDbCircle
 10
9193.171970751356
 20
3131.3331940709
 30
0.0
 40
7.5
100
AcDbArc
 50
90.0
 51
270.0
  0
ARC
  5
17486
330
17656
100
AcDbEntity
  8
SUNPOU
100
AcDbCircle
 10
6884.306062185527
 20
1570.89849823215
 30
0.0
 40
7.5
100
AcDbArc
 50
0.0
 51
180.0
  0
ARC
  5
17487
330
17656
100
AcDbEntity
  8
SUNPOU
100
AcDbCircle
 10
6884.306062185527
 20
1570.89849823215
 30
0.0
 40
7.5
100
AcDbArc
 50
180.0
 51
0.0
  0
ARC
  5
17488
330
17656
100
AcDbEntity
  8
SUNPOU
100
AcDbCircle
 10
8116.306062185525
 20
1570.89849823215
 30
0.0
 40
7.5
100
AcDbArc
 50
180.0
 51
0.0
  0
ARC
  5
17489
330
17656
100
AcDbEntity
  8
SUNPOU
100
AcDbCircle
 10
8116.306062185525
 20
1570.89849823215
 30
0.0
 40
7.5
100
AcDbArc
 50
0.0
 51
180.0
  0
ARC
  5
1748A
330
17656
100
AcDbEntity
  8
SUNPOU
100
AcDbCircle
 10
8532.306062185526
 20
1360.89849823215
 30
0.0
 40
7.5
100
AcDbArc
 50
180.0
 51
0.0
  0
ARC
  5
1748B
330
17656
100
AcDbEntity
  8
SUNPOU
100
AcDbCircle
 10
8532.306062185526
 20
1360.89849823215
 30
0.0
 40
7.5
100
AcDbArc
 50
0.0
 51
180.0
  0
ARC
  5
1748C
330
17656
100
AcDbEntity
  8
SUNPOU
100
AcDbCircle
 10
6468.306062185526
 20
1360.89849823215
 30
0.0
 40
7.5
100
AcDbArc
 50
0.0
 51
180.0
  0
ARC
  5
1748D
330
17656
100
AcDbEntity
  8
SUNPOU
100
AcDbCircle
 10
6468.306062185526
 20
1360.89849823215
 30
0.0
 40
7.5
100
AcDbArc
 50
180.0
 51
0.0
  0
ARC
  5
1748E
330
17656
100
AcDbEntity
  8
SUNPOU
100
AcDbCircle
 10
9893.58249169742
 20
5181.803332601656
 30
0.0
 40
7.5
100
AcDbArc
 50
180.0
 51
0.0
  0
ARC
  5
1748F
330
17656
100
AcDbEntity
  8
SUNPOU
100
AcDbCircle
 10
9893.58249169742
 20
5181.803332601656
 30
0.0
 40
7.5
100
AcDbArc
 50
0.0
 51
180.0
  0
ARC
  5
17490
330
17656
100
AcDbEntity
  8
SUNPOU
100
AcDbCircle
 10
9493.58249169742
 20
5181.803332601656
 30
0.0
 40
7.5
100
AcDbArc
 50
0.0
 51
180.0
  0
ARC
  5
17491
330
17656
100
AcDbEntity
  8
SUNPOU
100
AcDbCircle
 10
9493.58249169742
 20
5181.803332601656
 30
0.0
 40
7.5
100
AcDbArc
 50
180.0
 51
0.0
  0
ARC
  5
17492
330
17656
100
AcDbEntity
  8
SUNPOU
100
AcDbCircle
 10
6693.582491697419
 20
5181.803332601656
 30
0.0
 40
7.5
100
AcDbArc
 50
180.0
 51
0.0
  0
ARC
  5
17493
330
17656
100
AcDbEntity
  8
SUNPOU
100
AcDbCircle
 10
6693.582491697419
 20
5181.803332601656
 30
0.0
 40
7.5
100
AcDbArc
 50
0.0
 51
180.0
  0
ARC
  5
17494
330
17656
100
AcDbEntity
  8
SUNPOU
100
AcDbCircle
 10
6293.582491697421
 20
5181.803332601656
 30
0.0
 40
7.5
100
AcDbArc
 50
0.0
 51
180.0
  0
ARC
  5
17495
330
17656
100
AcDbEntity
  8
SUNPOU
100
AcDbCircle
 10
6293.582491697421
 20
5181.803332601656
 30
0.0
 40
7.5
100
AcDbArc
 50
180.0
 51
0.0
  0
ARC
  5
17499
330
17656
100
AcDbEntity
  8
HIKIDASHI
100
AcDbCircle
 10
5384.198933629273
 20
3641.644846848218
 30
0.0
 40
74.66417910452284
100
AcDbArc
 50
164.8596129850915
 51
237.5045002941574
  0
ARC
  5
1749A
330
17656
100
AcDbEntity
  8
HIKIDASHI
100
AcDbCircle
 10
5320.775139582967
 20
3658.805870332703
 30
0.0
 40
8.959701492542743
100
AcDbArc
 50
15.14038701504826
 51
164.8596129849796
  0
LINE
  5
1749F
330
17656
100
AcDbEntity
  8
HIKIDASHI
100
AcDbLine
 10
9366.824807072992
 20
8076.429574587903
 30
0.0
 11
9393.58249169742
 21
8021.803332601658
 31
0.0
  0
LINE
  5
174A0
330
17656
100
AcDbEntity
  8
HIKIDASHI
100
AcDbLine
 10
9393.58249169742
 20
8021.803332601658
 30
0.0
 11
9385.987787426607
 21
8082.154972737109
 31
0.0
  0
SOLID
  5
174A1
330
17656
100
AcDbEntity
  8
HIKIDASHI
100
AcDbTrace
 10
9366.824807072992
 20
8076.429574587903
 30
0.0
 11
9385.987787426607
 21
8082.154972737109
 31
0.0
 12
9393.58249169742
 22
8021.803332601658
 32
0.0
 13
9393.58249169742
 23
8021.803332601658
 33
0.0
  0
LINE
  5
174A2
330
17656
100
AcDbEntity
  8
HIKIDASHI
100
AcDbLine
 10
9385.987787426607
 20
8082.154972737109
 30
0.0
 11
9366.824807072992
 21
8076.429574587903
 31
0.0
  0
LINE
  5
174A3
330
17656
100
AcDbEntity
  8
HIKIDASHI
100
AcDbLine
 10
9554.519599266845
 20
8068.430475286548
 30
0.0
 11
9593.58249169742
 21
8021.803332601658
 31
0.0
  0
LINE
  5
174A4
330
17656
100
AcDbEntity
  8
HIKIDASHI
100
AcDbLine
 10
9593.58249169742
 20
8021.803332601658
 30
0.0
 11
9571.753423512246
 21
8078.579135389174
 31
0.0
  0
SOLID
  5
174A5
330
17656
100
AcDbEntity
  8
HIKIDASHI
100
AcDbTrace
 10
9554.519599266845
 20
8068.430475286548
 30
0.0
 11
9571.753423512246
 21
8078.579135389174
 31
0.0
 12
9593.58249169742
 22
8021.803332601658
 32
0.0
 13
9593.58249169742
 23
8021.803332601658
 33
0.0
  0
LINE
  5
174A6
330
17656
100
AcDbEntity
  8
HIKIDASHI
100
AcDbLine
 10
9571.753423512246
 20
8078.579135389174
 30
0.0
 11
9554.519599266845
 21
8068.430475286548
 31
0.0
  0
LINE
  5
174A7
330
17656
100
AcDbEntity
  8
HIKIDASHI
100
AcDbLine
 10
9434.828847833223
 20
7834.747535364029
 30
0.0
 11
9465.257881222282
 21
7887.417013498977
 31
0.0
  0
LINE
  5
174A8
330
17656
100
AcDbEntity
  8
HIKIDASHI
100
AcDbLine
 10
9465.257881222282
 20
7887.417013498977
 30
0.0
 11
9419.391667540216
 21
7847.463409875884
 31
0.0
  0
SOLID
  5
174A9
330
17656
100
AcDbEntity
  8
HIKIDASHI
100
AcDbTrace
 10
9434.828847833223
 20
7834.747535364029
 30
0.0
 11
9419.391667540216
 21
7847.463409875884
 31
0.0
 12
9465.257881222282
 22
7887.417013498977
 32
0.0
 13
9465.257881222282
 23
7887.417013498977
 33
0.0
  0
LINE
  5
174AA
330
17656
100
AcDbEntity
  8
HIKIDASHI
100
AcDbLine
 10
9419.391667540216
 20
7847.463409875884
 30
0.0
 11
9434.828847833223
 21
7834.747535364029
 31
0.0
  0
LINE
  5
174AB
330
17656
100
AcDbEntity
  8
HIKIDASHI
100
AcDbLine
 10
9406.792961654421
 20
7573.247342992241
 30
0.0
 11
9453.67252530465
 21
7612.006941957709
 31
0.0
  0
LINE
  5
174AC
330
17656
100
AcDbEntity
  8
HIKIDASHI
100
AcDbLine
 10
9453.67252530465
 20
7612.006941957709
 30
0.0
 11
9396.75631137644
 21
7590.546639255315
 31
0.0
  0
SOLID
  5
174AD
330
17656
100
AcDbEntity
  8
HIKIDASHI
100
AcDbTrace
 10
9406.792961654421
 20
7573.247342992241
 30
0.0
 11
9396.75631137644
 21
7590.546639255315
 31
0.0
 12
9453.67252530465
 22
7612.006941957709
 32
0.0
 13
9453.67252530465
 23
7612.006941957709
 33
0.0
  0
LINE
  5
174AE
330
17656
100
AcDbEntity
  8
HIKIDASHI
100
AcDbLine
 10
9396.75631137644
 20
7590.546639255315
 30
0.0
 11
9406.792961654421
 21
7573.247342992241
 31
0.0
  0
ARC
  5
174B0
330
17656
100
AcDbEntity
  8
HIKIDASHI
100
AcDbCircle
 10
8829.648819662114
 20
8841.590195686798
 30
0.0
 40
74.66417910452284
100
AcDbArc
 50
164.8596129850635
 51
237.5045002941574
  0
ARC
  5
174B1
330
17656
100
AcDbEntity
  8
HIKIDASHI
100
AcDbCircle
 10
8766.22502561581
 20
8858.751219171283
 30
0.0
 40
8.959701492542743
100
AcDbArc
 50
15.14038701504826
 51
164.8596129849517
  0
LINE
  5
174B2
330
17656
100
AcDbEntity
  8
HIKIDASHI
100
AcDbLine
 10
3729.755090521487
 20
3016.981760727375
 30
0.0
 11
3997.930010252171
 21
3511.260118325356
 31
0.0
1001
ACAD
1000
DSTYLE
1002
{
1070
   147
1040
1.125
1070
    77
1070
     0
1070
   144
1040
0.625
1002
}
  0
LINE
  5
174B3
330
17656
100
AcDbEntity
  8
HIKIDASHI
100
AcDbLine
 10
3715.105699276657
 20
3024.929912332225
 30
0.0
 11
3682.066180892382
 21
2929.085413258397
 31
0.0
  0
LINE
  5
174B4
330
17656
100
AcDbEntity
  8
HIKIDASHI
100
AcDbLine
 10
3682.066180892382
 20
2929.085413258397
 30
0.0
 11
3744.404481766316
 21
3009.033609122524
 31
0.0
  0
SOLID
  5
174B5
330
17656
100
AcDbEntity
  8
HIKIDASHI
100
AcDbTrace
 10
3715.105699276657
 20
3024.929912332225
 30
0.0
 11
3744.404481766316
 21
3009.033609122524
 31
0.0
 12
3682.066180892382
 22
2929.085413258397
 32
0.0
 13
3682.066180892382
 23
2929.085413258397
 33
0.0
  0
LINE
  5
174B6
330
17656
100
AcDbEntity
  8
HIKIDASHI
100
AcDbLine
 10
3744.404481766316
 20
3009.033609122524
 30
0.0
 11
3715.105699276657
 21
3024.929912332225
 31
0.0
  0
ARC
  5
174B7
330
17656
100
AcDbEntity
  8
HIKIDASHI
100
AcDbCircle
 10
5258.530872072402
 20
3642.824974207808
 30
0.0
 40
74.66417910452252
100
AcDbArc
 50
301.7712278330703
 51
15.14038701490934
  0
LINE
  5
174B8
330
17656
100
AcDbEntity
  8
HIKIDASHI
100
AcDbLine
 10
2729.500491295242
 20
2382.576996701931
 30
0.0
 11
2124.975130930299
 21
2177.621202421254
 31
0.0
1001
ACAD
1000
DSTYLE
1002
{
1070
   147
1040
1.125
1070
    77
1070
     0
1070
   144
1040
0.625
1002
}
  0
LINE
  5
174B9
330
17656
100
AcDbEntity
  8
HIKIDASHI
100
AcDbLine
 10
2734.851894054653
 20
2366.792818982316
 30
0.0
 11
2824.205557612924
 21
2414.685413258395
 31
0.0
  0
LINE
  5
174BA
330
17656
100
AcDbEntity
  8
HIKIDASHI
100
AcDbLine
 10
2824.205557612924
 20
2414.685413258395
 30
0.0
 11
2724.149088535832
 21
2398.361174421545
 31
0.0
  0
SOLID
  5
174BB
330
17656
100
AcDbEntity
  8
HIKIDASHI
100
AcDbTrace
 10
2734.851894054653
 20
2366.792818982316
 30
0.0
 11
2724.149088535832
 21
2398.361174421545
 31
0.0
 12
2824.205557612924
 22
2414.685413258395
 32
0.0
 13
2824.205557612924
 23
2414.685413258395
 33
0.0
  0
LINE
  5
174BC
330
17656
100
AcDbEntity
  8
HIKIDASHI
100
AcDbLine
 10
2724.149088535832
 20
2398.361174421545
 30
0.0
 11
2734.851894054653
 21
2366.792818982316
 31
0.0
  0
LINE
  5
174BD
330
17656
100
AcDbEntity
  8
HIKIDASHI
100
AcDbLine
 10
2630.72410894159
 20
2491.904106357348
 30
0.0
 11
2119.067099341151
 21
2582.51599324206
 31
0.0
1001
ACAD
1000
DSTYLE
1002
{
1070
   147
1040
1.125
1070
    77
1070
     0
1070
   144
1040
0.625
1002
}
  0
LINE
  5
174BE
330
17656
100
AcDbEntity
  8
HIKIDASHI
100
AcDbLine
 10
2627.817749665133
 20
2475.492803741957
 30
0.0
 11
2729.191924633934
 21
2474.465950698605
 31
0.0
  0
LINE
  5
174BF
330
17656
100
AcDbEntity
  8
HIKIDASHI
100
AcDbLine
 10
2729.191924633934
 20
2474.465950698605
 30
0.0
 11
2633.630468218048
 21
2508.31540897274
 31
0.0
  0
SOLID
  5
174C0
330
17656
100
AcDbEntity
  8
HIKIDASHI
100
AcDbTrace
 10
2627.817749665133
 20
2475.492803741957
 30
0.0
 11
2633.630468218048
 21
2508.31540897274
 31
0.0
 12
2729.191924633934
 22
2474.465950698605
 32
0.0
 13
2729.191924633934
 23
2474.465950698605
 33
0.0
  0
LINE
  5
174C1
330
17656
100
AcDbEntity
  8
HIKIDASHI
100
AcDbLine
 10
2633.630468218048
 20
2508.31540897274
 30
0.0
 11
2627.817749665133
 21
2475.492803741957
 31
0.0
  0
ARC
  5
174C2
330
17656
100
AcDbEntity
  8
HIKIDASHI
100
AcDbCircle
 10
8703.980758105243
 20
8842.770323046389
 30
0.0
 40
74.6641791045229
100
AcDbArc
 50
301.7712278330701
 51
15.14038701490968
  0
LINE
  5
1754D
330
17656
100
AcDbEntity
  8
HATCH
100
AcDbLine
 10
2168.429052763183
 20
1869.885413258403
 30
0.0
 11
2260.805095833532
 21
2029.885413258417
 31
0.0
  0
LINE
  5
1754E
330
17656
100
AcDbEntity
  8
HATCH
100
AcDbLine
 10
2196.805095833527
 20
2029.885413258416
 30
0.0
 11
2228.805095833529
 21
1974.459787416211
 31
0.0
  0
LINE
  5
1754F
330
17656
100
AcDbEntity
  8
HATCH
100
AcDbLine
 10
2200.429052763186
 20
1925.311039100614
 30
0.0
 11
2232.429052763189
 21
1869.885413258403
 31
0.0
  0
LINE
  5
17550
330
17656
100
AcDbEntity
  8
HATCH
100
AcDbLine
 10
4600.429052763
 20
2877.885413258394
 30
0.0
 11
4655.85467860514
 21
2973.885413258284
 31
0.0
  0
LINE
  5
17551
330
17656
100
AcDbEntity
  8
HATCH
100
AcDbLine
 10
4617.454678605183
 20
2973.885413258283
 30
0.0
 11
4636.654678605163
 21
2940.630037753001
 31
0.0
  0
LINE
  5
17552
330
17656
100
AcDbEntity
  8
HATCH
100
AcDbLine
 10
4619.629052762979
 20
2911.140788763679
 30
0.0
 11
4638.829052762956
 21
2877.885413258394
 31
0.0
  0
LINE
  5
17553
330
17656
100
AcDbEntity
  8
HATCH
100
AcDbLine
 10
4456.429052763
 20
2877.885413258394
 30
0.0
 11
4511.854678605141
 21
2973.885413258284
 31
0.0
  0
LINE
  5
17554
330
17656
100
AcDbEntity
  8
HATCH
100
AcDbLine
 10
4473.454678605185
 20
2973.885413258283
 30
0.0
 11
4492.654678605163
 21
2940.630037753001
 31
0.0
  0
LINE
  5
17555
330
17656
100
AcDbEntity
  8
HATCH
100
AcDbLine
 10
4475.629052762979
 20
2911.140788763679
 30
0.0
 11
4494.829052762955
 21
2877.885413258394
 31
0.0
  0
LINE
  5
17556
330
17656
100
AcDbEntity
  8
HATCH
100
AcDbLine
 10
4312.429052763
 20
2877.885413258394
 30
0.0
 11
4367.854678605141
 21
2973.885413258284
 31
0.0
  0
LINE
  5
17557
330
17656
100
AcDbEntity
  8
HATCH
100
AcDbLine
 10
4329.454678605185
 20
2973.885413258283
 30
0.0
 11
4348.654678605163
 21
2940.630037753001
 31
0.0
  0
LINE
  5
17558
330
17656
100
AcDbEntity
  8
HATCH
100
AcDbLine
 10
4331.629052762979
 20
2911.140788763679
 30
0.0
 11
4350.829052762956
 21
2877.885413258394
 31
0.0
  0
LINE
  5
17559
330
17656
100
AcDbEntity
  8
HATCH
100
AcDbLine
 10
3848.429052763187
 20
1869.885413258397
 30
0.0
 11
3940.805095833534
 21
2029.88541325841
 31
0.0
  0
LINE
  5
1755A
330
17656
100
AcDbEntity
  8
HATCH
100
AcDbLine
 10
3876.805095833528
 20
2029.885413258408
 30
0.0
 11
3908.805095833532
 21
1974.459787416203
 31
0.0
  0
LINE
  5
1755B
330
17656
100
AcDbEntity
  8
HATCH
100
AcDbLine
 10
3880.429052763189
 20
1925.311039100607
 30
0.0
 11
3912.429052763192
 21
1869.885413258397
 31
0.0
  0
LINE
  5
1755C
330
17656
100
AcDbEntity
  8
HATCH
100
AcDbLine
 10
3608.429052763178
 20
1869.885413258397
 30
0.0
 11
3700.805095833526
 21
2029.88541325841
 31
0.0
  0
LINE
  5
1755D
330
17656
100
AcDbEntity
  8
HATCH
100
AcDbLine
 10
3636.805095833521
 20
2029.885413258408
 30
0.0
 11
3668.805095833524
 21
1974.459787416203
 31
0.0
  0
LINE
  5
1755E
330
17656
100
AcDbEntity
  8
HATCH
100
AcDbLine
 10
3640.429052763181
 20
1925.311039100607
 30
0.0
 11
3672.429052763185
 21
1869.885413258397
 31
0.0
  0
LINE
  5
1755F
330
17656
100
AcDbEntity
  8
HATCH
100
AcDbLine
 10
4088.429052763186
 20
1869.885413258397
 30
0.0
 11
4180.805095833534
 21
2029.88541325841
 31
0.0
  0
LINE
  5
17560
330
17656
100
AcDbEntity
  8
HATCH
100
AcDbLine
 10
4116.805095833529
 20
2029.885413258408
 30
0.0
 11
4148.80509583353
 21
1974.459787416203
 31
0.0
  0
LINE
  5
17561
330
17656
100
AcDbEntity
  8
HATCH
100
AcDbLine
 10
4120.429052763189
 20
1925.311039100607
 30
0.0
 11
4152.429052763191
 21
1869.885413258397
 31
0.0
  0
LINE
  5
17562
330
17656
100
AcDbEntity
  8
HATCH
100
AcDbLine
 10
2009.191924633769
 20
2877.885413258394
 30
0.0
 11
2064.617550475909
 21
2973.885413258284
 31
0.0
  0
LINE
  5
17563
330
17656
100
AcDbEntity
  8
HATCH
100
AcDbLine
 10
2026.217550475954
 20
2973.885413258283
 30
0.0
 11
2045.417550475933
 21
2940.630037753001
 31
0.0
  0
LINE
  5
17564
330
17656
100
AcDbEntity
  8
HATCH
100
AcDbLine
 10
2028.391924633747
 20
2911.140788763679
 30
0.0
 11
2047.591924633726
 21
2877.885413258394
 31
0.0
  0
LINE
  5
17565
330
17656
100
AcDbEntity
  8
HATCH
100
AcDbLine
 10
2153.191924633769
 20
2877.885413258394
 30
0.0
 11
2208.61755047591
 21
2973.885413258284
 31
0.0
  0
LINE
  5
17566
330
17656
100
AcDbEntity
  8
HATCH
100
AcDbLine
 10
2170.217550475955
 20
2973.885413258283
 30
0.0
 11
2189.417550475933
 21
2940.630037753001
 31
0.0
  0
LINE
  5
17567
330
17656
100
AcDbEntity
  8
HATCH
100
AcDbLine
 10
2172.391924633747
 20
2911.140788763679
 30
0.0
 11
2191.591924633725
 21
2877.885413258394
 31
0.0
  0
LINE
  5
17568
330
17656
100
AcDbEntity
  8
HATCH
100
AcDbLine
 10
1865.191924633768
 20
2877.885413258394
 30
0.0
 11
1920.61755047591
 21
2973.885413258284
 31
0.0
  0
LINE
  5
17569
330
17656
100
AcDbEntity
  8
HATCH
100
AcDbLine
 10
1882.217550475953
 20
2973.885413258283
 30
0.0
 11
1901.417550475932
 21
2940.630037753001
 31
0.0
  0
LINE
  5
1756A
330
17656
100
AcDbEntity
  8
HATCH
100
AcDbLine
 10
1884.391924633748
 20
2911.140788763679
 30
0.0
 11
1903.591924633726
 21
2877.885413258394
 31
0.0
  0
LINE
  5
1756B
330
17656
100
AcDbEntity
  8
HATCH
100
AcDbLine
 10
1721.191924633768
 20
2877.885413258394
 30
0.0
 11
1776.61755047591
 21
2973.885413258284
 31
0.0
  0
LINE
  5
1756C
330
17656
100
AcDbEntity
  8
HATCH
100
AcDbLine
 10
1738.217550475954
 20
2973.885413258283
 30
0.0
 11
1757.417550475932
 21
2940.630037753001
 31
0.0
  0
LINE
  5
1756D
330
17656
100
AcDbEntity
  8
HATCH
100
AcDbLine
 10
1740.391924633748
 20
2911.140788763679
 30
0.0
 11
1759.591924633725
 21
2877.885413258394
 31
0.0
  0
LINE
  5
1756E
330
17656
100
AcDbEntity
  8
HATCH
100
AcDbLine
 10
3128.429052763179
 20
1869.885413258395
 30
0.0
 11
3220.805095833527
 21
2029.885413258408
 31
0.0
  0
LINE
  5
1756F
330
17656
100
AcDbEntity
  8
HATCH
100
AcDbLine
 10
3156.805095833521
 20
2029.885413258408
 30
0.0
 11
3188.805095833525
 21
1974.459787416202
 31
0.0
  0
LINE
  5
17570
330
17656
100
AcDbEntity
  8
HATCH
100
AcDbLine
 10
3160.429052763181
 20
1925.311039100606
 30
0.0
 11
3192.429052763184
 21
1869.885413258395
 31
0.0
  0
LINE
  5
17571
330
17656
100
AcDbEntity
  8
HATCH
100
AcDbLine
 10
2888.429052763179
 20
1869.885413258395
 30
0.0
 11
2980.805095833527
 21
2029.885413258408
 31
0.0
  0
LINE
  5
17572
330
17656
100
AcDbEntity
  8
HATCH
100
AcDbLine
 10
2916.805095833521
 20
2029.885413258408
 30
0.0
 11
2948.805095833524
 21
1974.459787416202
 31
0.0
  0
LINE
  5
17573
330
17656
100
AcDbEntity
  8
HATCH
100
AcDbLine
 10
2920.429052763182
 20
1925.311039100606
 30
0.0
 11
2952.429052763184
 21
1869.885413258395
 31
0.0
  0
LINE
  5
17574
330
17656
100
AcDbEntity
  8
HATCH
100
AcDbLine
 10
3368.429052763179
 20
1869.885413258397
 30
0.0
 11
3460.805095833527
 21
2029.88541325841
 31
0.0
  0
LINE
  5
17575
330
17656
100
AcDbEntity
  8
HATCH
100
AcDbLine
 10
3396.805095833522
 20
2029.885413258408
 30
0.0
 11
3428.805095833524
 21
1974.459787416203
 31
0.0
  0
LINE
  5
17576
330
17656
100
AcDbEntity
  8
HATCH
100
AcDbLine
 10
3400.429052763182
 20
1925.311039100607
 30
0.0
 11
3432.429052763184
 21
1869.885413258397
 31
0.0
  0
LINE
  5
17577
330
17656
100
AcDbEntity
  8
HATCH
100
AcDbLine
 10
2648.429052763179
 20
1869.885413258395
 30
0.0
 11
2740.805095833527
 21
2029.885413258408
 31
0.0
  0
LINE
  5
17578
330
17656
100
AcDbEntity
  8
HATCH
100
AcDbLine
 10
2676.805095833522
 20
2029.885413258408
 30
0.0
 11
2708.805095833525
 21
1974.459787416202
 31
0.0
  0
LINE
  5
17579
330
17656
100
AcDbEntity
  8
HATCH
100
AcDbLine
 10
2680.429052763182
 20
1925.311039100606
 30
0.0
 11
2712.429052763184
 21
1869.885413258395
 31
0.0
  0
LINE
  5
1757A
330
17656
100
AcDbEntity
  8
HATCH
100
AcDbLine
 10
2408.429052763179
 20
1869.885413258395
 30
0.0
 11
2500.805095833527
 21
2029.885413258408
 31
0.0
  0
LINE
  5
1757B
330
17656
100
AcDbEntity
  8
HATCH
100
AcDbLine
 10
2436.805095833522
 20
2029.885413258408
 30
0.0
 11
2468.805095833523
 21
1974.459787416202
 31
0.0
  0
LINE
  5
1757C
330
17656
100
AcDbEntity
  8
HATCH
100
AcDbLine
 10
2440.429052763182
 20
1925.311039100606
 30
0.0
 11
2472.429052763184
 21
1869.885413258395
 31
0.0
  0
LINE
  5
1757D
330
17656
100
AcDbEntity
  8
HATCH
100
AcDbLine
 10
6746.477527976242
 20
2491.333194071255
 30
0.0
 11
7386.477527976298
 21
3131.333194071311
 31
0.0
  0
LINE
  5
1757E
330
17656
100
AcDbEntity
  8
HATCH
100
AcDbLine
 10
6468.306062187011
 20
2778.847153231295
 30
0.0
 11
6820.792103027004
 21
3131.333194071311
 31
0.0
  0
LINE
  5
1757F
330
17656
100
AcDbEntity
  8
HATCH
100
AcDbLine
 10
7312.162952925525
 20
2491.333194071255
 30
0.0
 11
7952.16295292558
 21
3131.333194071311
 31
0.0
  0
LINE
  5
17580
330
17656
100
AcDbEntity
  8
HATCH
100
AcDbLine
 10
7877.848377874808
 20
2491.333194071255
 30
0.0
 11
8517.848377874878
 21
3131.333194071311
 31
0.0
  0
LINE
  5
17581
330
17656
100
AcDbEntity
  8
HATCH
100
AcDbLine
 10
8443.533802824106
 20
2491.333194071255
 30
0.0
 11
8532.306062187188
 21
2580.105453434327
 31
0.0
  0
LINE
  5
17582
330
17656
100
AcDbEntity
  8
HATCH
100
AcDbLine
 10
6675.766849857588
 20
2491.333194071255
 30
0.0
 11
7315.766849857642
 21
3131.333194071311
 31
0.0
  0
LINE
  5
17583
330
17656
100
AcDbEntity
  8
HATCH
100
AcDbLine
 10
6468.306062187011
 20
2849.557831349957
 30
0.0
 11
6750.08142490836
 21
3131.333194071311
 31
0.0
  0
LINE
  5
17584
330
17656
100
AcDbEntity
  8
HATCH
100
AcDbLine
 10
7241.452274806864
 20
2491.333194071255
 30
0.0
 11
7881.452274806918
 21
3131.333194071311
 31
0.0
  0
LINE
  5
17585
330
17656
100
AcDbEntity
  8
HATCH
100
AcDbLine
 10
7807.13769975616
 20
2491.333194071255
 30
0.0
 11
8447.137699756215
 21
3131.333194071311
 31
0.0
  0
LINE
  5
17586
330
17656
100
AcDbEntity
  8
HATCH
100
AcDbLine
 10
8372.82312470544
 20
2491.333194071255
 30
0.0
 11
8532.306062187188
 21
2650.816131552989
 31
0.0
  0
LINE
  5
17587
330
17656
100
AcDbEntity
  8
HATCH
100
AcDbLine
 10
7170.741596688205
 20
2491.333194071255
 30
0.0
 11
7810.741596688258
 21
3131.333194071311
 31
0.0
  0
LINE
  5
17588
330
17656
100
AcDbEntity
  8
HATCH
100
AcDbLine
 10
6605.056171738922
 20
2491.333194071255
 30
0.0
 11
7245.056171738976
 21
3131.333194071311
 31
0.0
  0
LINE
  5
17589
330
17656
100
AcDbEntity
  8
HATCH
100
AcDbLine
 10
6468.306062187011
 20
2920.268509468618
 30
0.0
 11
6679.370746789698
 21
3131.333194071311
 31
0.0
  0
LINE
  5
1758A
330
17656
100
AcDbEntity
  8
HATCH
100
AcDbLine
 10
7736.427021637497
 20
2491.333194071255
 30
0.0
 11
8376.427021637551
 21
3131.333194071311
 31
0.0
  0
LINE
  5
1758B
330
17656
100
AcDbEntity
  8
HATCH
100
AcDbLine
 10
8302.112446586781
 20
2491.333194071255
 30
0.0
 11
8532.306062187188
 21
2721.52680967165
 31
0.0
  0
LINE
  5
1758C
330
17656
100
AcDbEntity
  8
HASIRA
100
AcDbLine
 10
3582.946180892386
 20
2897.085413258397
 30
0.0
 11
3582.946180892386
 21
3406.742322023879
 31
0.0
  0
LINE
  5
1758D
330
17656
100
AcDbEntity
  8
TENSEN-1
100
AcDbLine
 10
3730.066180892381
 20
2277.885413258398
 30
0.0
 11
3682.066180892382
 21
2277.885413258395
 31
0.0
  0
LINE
  5
1758E
330
17656
100
AcDbEntity
  8
TENSEN-1
100
AcDbLine
 10
3682.066180892382
 20
2277.885413258395
 30
0.0
 11
3682.066180892382
 21
2929.085413258397
 31
0.0
  0
LINE
  5
1758F
330
17656
100
AcDbEntity
  8
TENSEN-1
100
AcDbLine
 10
3682.066180892382
 20
2929.085413258397
 30
0.0
 11
3661.266180892382
 21
2929.085413258397
 31
0.0
  0
LINE
  5
17590
330
17656
100
AcDbEntity
  8
TENSEN-1
100
AcDbLine
 10
3661.266180892382
 20
2929.085413258397
 30
0.0
 11
3661.266180892382
 21
2257.085413258395
 31
0.0
  0
LINE
  5
17591
330
17656
100
AcDbEntity
  8
TENSEN-1
100
AcDbLine
 10
3661.266180892382
 20
2257.085413258395
 30
0.0
 11
3730.066180892381
 21
2257.085413258398
 31
0.0
  0
LINE
  5
17592
330
17656
100
AcDbEntity
  8
TENSEN-1
100
AcDbLine
 10
3730.066180892381
 20
2257.085413258398
 30
0.0
 11
3730.066180892381
 21
2277.885413258398
 31
0.0
  0
LINE
  5
17593
330
17656
100
AcDbEntity
  8
KISO
100
AcDbLine
 10
2825.191924633934
 20
2877.885413258399
 30
0.0
 11
3273.191924633936
 21
2877.885413258399
 31
0.0
  0
LINE
  5
17594
330
17656
100
AcDbEntity
  8
KISO
100
AcDbLine
 10
3273.191924633936
 20
2877.885413258399
 30
0.0
 11
3273.191924633936
 21
2897.085413258397
 31
0.0
  0
LINE
  5
17595
330
17656
100
AcDbEntity
  8
KISO
100
AcDbLine
 10
3273.191924633936
 20
2897.085413258397
 30
0.0
 11
2825.191924633934
 21
2897.085413258397
 31
0.0
  0
LINE
  5
17596
330
17656
100
AcDbEntity
  8
KISO
100
AcDbLine
 10
2825.191924633934
 20
2897.085413258397
 30
0.0
 11
2825.191924633934
 21
2877.885413258399
 31
0.0
  0
LINE
  5
17597
330
17656
100
AcDbEntity
  8
HASIRA
100
AcDbLine
 10
2977.911924633931
 20
2897.085413258397
 30
0.0
 11
2977.911924633931
 21
3406.742322023879
 31
0.0
  0
LINE
  5
17598
330
17656
100
AcDbEntity
  8
HASIRA
100
AcDbLine
 10
3120.471924633941
 20
2897.085413258397
 30
0.0
 11
3120.471924633941
 21
3406.742322023879
 31
0.0
  0
LINE
  5
17599
330
17656
100
AcDbEntity
  8
TENSEN-1
100
AcDbLine
 10
2830.791924633935
 20
2277.885413258398
 30
0.0
 11
2878.791924633935
 21
2277.885413258395
 31
0.0
  0
LINE
  5
1759A
330
17656
100
AcDbEntity
  8
TENSEN-1
100
AcDbLine
 10
2878.791924633935
 20
2277.885413258395
 30
0.0
 11
2878.791924633935
 21
2929.085413258397
 31
0.0
  0
LINE
  5
1759B
330
17656
100
AcDbEntity
  8
TENSEN-1
100
AcDbLine
 10
2878.791924633935
 20
2929.085413258397
 30
0.0
 11
2899.591924633936
 21
2929.085413258397
 31
0.0
  0
LINE
  5
1759C
330
17656
100
AcDbEntity
  8
TENSEN-1
100
AcDbLine
 10
2899.591924633936
 20
2929.085413258397
 30
0.0
 11
2899.591924633936
 21
2257.085413258395
 31
0.0
  0
LINE
  5
1759D
330
17656
100
AcDbEntity
  8
TENSEN-1
100
AcDbLine
 10
2899.591924633936
 20
2257.085413258395
 30
0.0
 11
2830.791924633935
 21
2257.085413258398
 31
0.0
  0
LINE
  5
1759E
330
17656
100
AcDbEntity
  8
TENSEN-1
100
AcDbLine
 10
2830.791924633935
 20
2257.085413258398
 30
0.0
 11
2830.791924633935
 21
2277.885413258398
 31
0.0
  0
LINE
  5
1759F
330
17656
100
AcDbEntity
  8
TENSEN-1
100
AcDbLine
 10
3267.591924633942
 20
2277.885413258398
 30
0.0
 11
3219.591924633942
 21
2277.885413258398
 31
0.0
  0
LINE
  5
175A0
330
17656
100
AcDbEntity
  8
TENSEN-1
100
AcDbLine
 10
3219.591924633942
 20
2277.885413258398
 30
0.0
 11
3219.591924633942
 21
2929.085413258397
 31
0.0
  0
LINE
  5
175A1
330
17656
100
AcDbEntity
  8
TENSEN-1
100
AcDbLine
 10
3219.591924633942
 20
2929.085413258397
 30
0.0
 11
3198.791924633936
 21
2929.085413258397
 31
0.0
  0
LINE
  5
175A2
330
17656
100
AcDbEntity
  8
TENSEN-1
100
AcDbLine
 10
3198.791924633936
 20
2929.085413258397
 30
0.0
 11
3198.791924633936
 21
2257.085413258395
 31
0.0
  0
LINE
  5
175A3
330
17656
100
AcDbEntity
  8
TENSEN-1
100
AcDbLine
 10
3198.791924633936
 20
2257.085413258395
 30
0.0
 11
3267.591924633936
 21
2257.085413258398
 31
0.0
  0
LINE
  5
175A4
330
17656
100
AcDbEntity
  8
TENSEN-1
100
AcDbLine
 10
3267.591924633936
 20
2257.085413258398
 30
0.0
 11
3267.591924633942
 21
2277.885413258398
 31
0.0
  0
LINE
  5
175A5
330
17656
100
AcDbEntity
  8
TENSEN-1
100
AcDbLine
 10
3293.266180892382
 20
2277.885413258398
 30
0.0
 11
3341.266180892382
 21
2277.885413258398
 31
0.0
  0
LINE
  5
175A6
330
17656
100
AcDbEntity
  8
TENSEN-1
100
AcDbLine
 10
3341.266180892382
 20
2277.885413258398
 30
0.0
 11
3341.266180892382
 21
2929.085413258397
 31
0.0
  0
LINE
  5
175A7
330
17656
100
AcDbEntity
  8
TENSEN-1
100
AcDbLine
 10
3341.266180892382
 20
2929.085413258397
 30
0.0
 11
3362.066180892381
 21
2929.085413258397
 31
0.0
  0
LINE
  5
175A8
330
17656
100
AcDbEntity
  8
TENSEN-1
100
AcDbLine
 10
3362.066180892381
 20
2929.085413258397
 30
0.0
 11
3362.066180892381
 21
2257.085413258395
 31
0.0
  0
LINE
  5
175A9
330
17656
100
AcDbEntity
  8
TENSEN-1
100
AcDbLine
 10
3362.066180892381
 20
2257.085413258395
 30
0.0
 11
3293.266180892382
 21
2257.085413258398
 31
0.0
  0
LINE
  5
175AA
330
17656
100
AcDbEntity
  8
TENSEN-1
100
AcDbLine
 10
3293.266180892382
 20
2257.085413258398
 30
0.0
 11
3293.266180892382
 21
2277.885413258398
 31
0.0
  0
LINE
  5
175AB
330
17656
100
AcDbEntity
  8
1PL-M1
100
AcDbLine
 10
3511.666180892382
 20
1525.898498232149
 30
0.0
 11
3511.666180892382
 21
3406.742322023879
 31
0.0
  0
LINE
  5
175AC
330
17656
100
AcDbEntity
  8
1PL-M1
100
AcDbLine
 10
3049.191924633944
 20
1525.898498232149
 30
0.0
 11
3049.191924633935
 21
3406.742322023879
 31
0.0
  0
LINE
  5
175AD
330
17656
100
AcDbEntity
  8
KISO
100
AcDbLine
 10
3735.666180892382
 20
2877.885413258399
 30
0.0
 11
3287.666180892382
 21
2877.885413258399
 31
0.0
  0
LINE
  5
175AE
330
17656
100
AcDbEntity
  8
KISO
100
AcDbLine
 10
3287.666180892382
 20
2877.885413258399
 30
0.0
 11
3287.666180892382
 21
2897.085413258397
 31
0.0
  0
LINE
  5
175AF
330
17656
100
AcDbEntity
  8
KISO
100
AcDbLine
 10
3287.666180892382
 20
2897.085413258397
 30
0.0
 11
3735.666180892382
 21
2897.085413258397
 31
0.0
  0
LINE
  5
175B0
330
17656
100
AcDbEntity
  8
KISO
100
AcDbLine
 10
3735.666180892382
 20
2897.085413258397
 30
0.0
 11
3735.666180892382
 21
2877.885413258399
 31
0.0
  0
LINE
  5
175B1
330
17656
100
AcDbEntity
  8
KISO
100
AcDbLine
 10
6468.306062185526
 20
1851.333194070899
 30
0.0
 11
8532.306062185526
 21
1851.333194070899
 31
0.0
  0
LINE
  5
175B2
330
17656
100
AcDbEntity
  8
KISO
100
AcDbLine
 10
8532.306062185526
 20
1851.333194070899
 30
0.0
 11
8532.306062185526
 21
3131.333194070899
 31
0.0
  0
LINE
  5
175B3
330
17656
100
AcDbEntity
  8
KISO
100
AcDbLine
 10
8532.306062185526
 20
3131.333194070899
 30
0.0
 11
6468.306062185526
 21
3131.333194070899
 31
0.0
  0
LINE
  5
175B4
330
17656
100
AcDbEntity
  8
KISO
100
AcDbLine
 10
6468.306062185526
 20
3131.333194070899
 30
0.0
 11
6468.306062185526
 21
1851.333194070899
 31
0.0
  0
LINE
  5
175B5
330
17656
100
AcDbEntity
  8
KISO-2
100
AcDbLine
 10
9353.582491697419
 20
7781.803332601656
 30
0.0
 11
9633.582491697422
 21
7781.803332601656
 31
0.0
  0
LINE
  5
175B6
330
17656
100
AcDbEntity
  8
KISO-2
100
AcDbLine
 10
9633.582491697422
 20
7781.803332601656
 30
0.0
 11
9633.582491697422
 21
8061.803332601657
 31
0.0
  0
LINE
  5
175B7
330
17656
100
AcDbEntity
  8
KISO-2
100
AcDbLine
 10
9633.582491697422
 20
8061.803332601657
 30
0.0
 11
9353.582491697419
 21
8061.803332601657
 31
0.0
  0
LINE
  5
175B8
330
17656
100
AcDbEntity
  8
KISO-2
100
AcDbLine
 10
9353.582491697419
 20
8061.803332601657
 30
0.0
 11
9353.582491697419
 21
7781.803332601656
 31
0.0
  0
LINE
  5
175B9
330
17656
100
AcDbEntity
  8
KISO-2
100
AcDbLine
 10
9353.582491697419
 20
7491.803332601655
 30
0.0
 11
9633.582491697422
 21
7491.803332601655
 31
0.0
  0
LINE
  5
175BA
330
17656
100
AcDbEntity
  8
KISO-2
100
AcDbLine
 10
9633.582491697422
 20
7491.803332601655
 30
0.0
 11
9633.582491697422
 21
7771.803332601656
 31
0.0
  0
LINE
  5
175BB
330
17656
100
AcDbEntity
  8
KISO-2
100
AcDbLine
 10
9633.582491697422
 20
7771.803332601656
 30
0.0
 11
9353.582491697419
 21
7771.803332601656
 31
0.0
  0
LINE
  5
175BC
330
17656
100
AcDbEntity
  8
KISO-2
100
AcDbLine
 10
9353.582491697419
 20
7771.803332601656
 30
0.0
 11
9353.582491697419
 21
7491.803332601655
 31
0.0
  0
LINE
  5
175BD
330
17656
100
AcDbEntity
  8
KISO-3
100
AcDbLine
 10
9733.58249169742
 20
8161.803332601655
 30
0.0
 11
9733.58249169742
 21
7391.803332601657
 31
0.0
  0
LINE
  5
175BE
330
17656
100
AcDbEntity
  8
KISO-3
100
AcDbLine
 10
9733.58249169742
 20
7391.803332601657
 30
0.0
 11
9253.58249169742
 21
7391.803332601657
 31
0.0
  0
LINE
  5
175BF
330
17656
100
AcDbEntity
  8
KISO-3
100
AcDbLine
 10
9253.58249169742
 20
7391.803332601657
 30
0.0
 11
9253.58249169742
 21
8161.803332601655
 31
0.0
  0
LINE
  5
175C0
330
17656
100
AcDbEntity
  8
KISO-2
100
AcDbLine
 10
6553.582491697419
 20
7781.803332601656
 30
0.0
 11
6833.58249169742
 21
7781.803332601656
 31
0.0
  0
LINE
  5
175C1
330
17656
100
AcDbEntity
  8
KISO-2
100
AcDbLine
 10
6833.58249169742
 20
7781.803332601656
 30
0.0
 11
6833.58249169742
 21
8061.803332601657
 31
0.0
  0
LINE
  5
175C2
330
17656
100
AcDbEntity
  8
KISO-2
100
AcDbLine
 10
6833.58249169742
 20
8061.803332601657
 30
0.0
 11
6553.582491697419
 21
8061.803332601657
 31
0.0
  0
LINE
  5
175C3
330
17656
100
AcDbEntity
  8
KISO-2
100
AcDbLine
 10
6553.582491697419
 20
8061.803332601657
 30
0.0
 11
6553.582491697419
 21
7781.803332601656
 31
0.0
  0
LINE
  5
175C4
330
17656
100
AcDbEntity
  8
KISO-3
100
AcDbLine
 10
6933.58249169742
 20
8161.803332601655
 30
0.0
 11
6933.58249169742
 21
7391.803332601657
 31
0.0
  0
LINE
  5
175C5
330
17656
100
AcDbEntity
  8
KISO-3
100
AcDbLine
 10
6933.58249169742
 20
7391.803332601657
 30
0.0
 11
6453.582491697419
 21
7391.803332601657
 31
0.0
  0
LINE
  5
175C6
330
17656
100
AcDbEntity
  8
KISO-3
100
AcDbLine
 10
6453.582491697419
 20
7391.803332601657
 30
0.0
 11
6453.582491697419
 21
8161.803332601655
 31
0.0
  0
LINE
  5
175C7
330
17656
100
AcDbEntity
  8
KISO-2
100
AcDbLine
 10
6553.582491697419
 20
7491.803332601655
 30
0.0
 11
6833.58249169742
 21
7491.803332601655
 31
0.0
  0
LINE
  5
175C8
330
17656
100
AcDbEntity
  8
KISO-2
100
AcDbLine
 10
6833.58249169742
 20
7491.803332601655
 30
0.0
 11
6833.58249169742
 21
7771.803332601656
 31
0.0
  0
LINE
  5
175C9
330
17656
100
AcDbEntity
  8
KISO-2
100
AcDbLine
 10
6833.58249169742
 20
7771.803332601656
 30
0.0
 11
6553.582491697419
 21
7771.803332601656
 31
0.0
  0
LINE
  5
175CA
330
17656
100
AcDbEntity
  8
KISO-2
100
AcDbLine
 10
6553.582491697419
 20
7771.803332601656
 30
0.0
 11
6553.582491697419
 21
7491.803332601655
 31
0.0
  0
LINE
  5
175CB
330
17656
100
AcDbEntity
  8
DOMAKON
100
AcDbLine
 10
6293.582491697421
 20
9921.803332601658
 30
0.0
 11
8293.582491697419
 21
9921.803332601658
 31
0.0
  0
LINE
  5
175CC
330
17656
100
AcDbEntity
  8
YANE
100
AcDbLine
 10
8293.582491697419
 20
5758.254060220314
 30
0.0
 11
6471.78183864618
 21
5758.254060220314
 31
0.0
  0
LINE
  5
175CD
330
17656
100
AcDbEntity
  8
YANE
100
AcDbLine
 10
6471.78183864618
 20
5758.254060220314
 30
0.0
 11
6471.78183864618
 21
9796.353332601652
 31
0.0
  0
LINE
  5
175CE
330
17656
100
AcDbEntity
  8
YANE
100
AcDbLine
 10
6471.78183864618
 20
9796.353332601652
 30
0.0
 11
8293.582491697419
 21
9796.353332601661
 31
0.0
  0
LINE
  5
175CF
330
17656
100
AcDbEntity
  8
DOMAKON
100
AcDbLine
 10
8293.582491697419
 20
5631.803332601656
 30
0.0
 11
6293.582491697421
 21
5631.803332601656
 31
0.0
  0
LINE
  5
175D0
330
17656
100
AcDbEntity
  8
DOMAKON
100
AcDbLine
 10
6293.582491697421
 20
5631.803332601656
 30
0.0
 11
6293.582491697421
 21
9921.803332601658
 31
0.0
  0
LINE
  5
175D1
330
17656
100
AcDbEntity
  8
YANE
100
AcDbLine
 10
9715.383144748649
 20
5758.254060220314
 30
0.0
 11
8293.582491697419
 21
5758.254060220314
 31
0.0
  0
LINE
  5
175D2
330
17656
100
AcDbEntity
  8
YANE
100
AcDbLine
 10
8293.582491697419
 20
9796.353332601661
 30
0.0
 11
9715.383144748649
 21
9796.353332601652
 31
0.0
  0
LINE
  5
175D3
330
17656
100
AcDbEntity
  8
YANE
100
AcDbLine
 10
9715.383144748649
 20
9796.353332601652
 30
0.0
 11
9715.383144748649
 21
5758.254060220314
 31
0.0
  0
LINE
  5
175D4
330
17656
100
AcDbEntity
  8
DOMAKON
100
AcDbLine
 10
8293.582491697419
 20
9921.803332601658
 30
0.0
 11
9893.58249169742
 21
9921.803332601658
 31
0.0
  0
LINE
  5
175D5
330
17656
100
AcDbEntity
  8
DOMAKON
100
AcDbLine
 10
9893.58249169742
 20
9921.803332601658
 30
0.0
 11
9893.58249169742
 21
5631.803332601656
 31
0.0
  0
LINE
  5
175D6
330
17656
100
AcDbEntity
  8
DOMAKON
100
AcDbLine
 10
9893.58249169742
 20
5631.803332601656
 30
0.0
 11
8293.582491697419
 21
5631.803332601656
 31
0.0
  0
TEXT
  5
176D7
330
17656
100
AcDbEntity
  8
SUNPOU
100
AcDbText
 10
10612.48493332767
 20
3562.002240864201
 30
0.0
 40
89.9993750043402
  1
地耐力   　　　 以上,コンクリート設計基準強度　　　　　以上
  7
01
100
AcDbText
  0
TEXT
  5
176D8
330
17656
100
AcDbEntity
  8
SUNPOU
100
AcDbText
 10
10987.44067841706
 20
2411.287955149916
 30
0.0
 40
90.0
  1
所もありますので、ご注意願います。
  7
01
100
AcDbText
  0
TEXT
  5
176D9
330
17656
100
AcDbEntity
  8
SUNPOU
100
AcDbText
 10
10607.27844746858
 20
3908.756243310159
 30
0.0
 40
120.0
  1
基礎断面図
  7
01
 72
     4
 11
10947.27844746858
 21
3968.75624331016
 31
0.0
100
AcDbText
  0
TEXT
  5
176DA
330
17656
100
AcDbEntity
  8
SUNPOU
100
AcDbText
 10
10670.60101311494
 20
3182.71652657849
 30
0.0
 40
90.0
  1
注　）
  7
01
100
AcDbText
  0
TEXT
  5
176DB
330
17656
100
AcDbEntity
  8
SUNPOU
100
AcDbText
 10
10670.60101311494
 20
2719.859383721346
 30
0.0
 40
90.0
  1
注　）
  7
01
100
AcDbText
  0
TEXT
  5
176DC
330
17656
100
AcDbEntity
  8
SUNPOU
100
AcDbText
 10
10670.60101311494
 20
2874.145098007061
 30
0.0
 40
90.0
  1
注　）
  7
01
100
AcDbText
  0
TEXT
  5
176DD
330
17656
100
AcDbEntity
  8
SUNPOU
100
AcDbText
 10
10481.92130461143
 20
3751.256243310158
 30
0.0
 40
90.0
  1
<下記条件での参考図>
  7
01
 72
     4
 11
11070.77844746858
 21
3796.256243310159
 31
0.0
100
AcDbText
  0
TEXT
  5
176DE
330
17656
100
AcDbEntity
  8
SUNPOU
100
AcDbText
 10
10612.48493332767
 20
3407.716526578489
 30
0.0
 40
89.9993750043402
  1
基準風速   　　 , 地表面粗度区分
  7
01
100
AcDbText
  0
TEXT
  5
176DF
330
17656
100
AcDbEntity
  8
SUNPOU
100
AcDbText
 10
10781.23493332767
 20
2874.145098007061
 30
0.0
 40
90.0
  1
2
 41
0.6700000000000001
  7
01
100
AcDbText
  0
TEXT
  5
176E0
330
17656
100
AcDbEntity
  8
SUNPOU
100
AcDbText
 10
10781.23493332767
 20
2719.859383721346
 30
0.0
 40
90.0
  1
3
 41
0.6700000000000001
  7
01
100
AcDbText
  0
TEXT
  5
176E1
330
17656
100
AcDbEntity
  8
SUNPOU
100
AcDbText
 10
10781.23493332767
 20
3182.71652657849
 30
0.0
 40
90.0
  1
1
 41
0.6700000000000001
  7
01
100
AcDbText
  0
ARC
  5
176E2
330
17656
100
AcDbEntity
  8
SUNPOU
100
AcDbCircle
 10
10765.44320723487
 20
3525.789664306033
 30
0.0
 40
225.0
100
AcDbArc
 50
148.3472725282761
 51
211.6527274717238
  0
TEXT
  5
176E3
330
17656
100
AcDbEntity
  8
SUNPOU
100
AcDbText
 10
10987.44067841706
 20
2565.573669435632
 30
0.0
 40
90.0
  1
地域によっては、フックをつける様指導している
  7
01
100
AcDbText
  0
TEXT
  5
176E4
330
17656
100
AcDbEntity
  8
SUNPOU
100
AcDbText
 10
10987.44067841706
 20
3182.71652657849
 30
0.0
 40
90.0
  1
寒冷地の場合、凍結深度等を考慮し、実情に
  7
01
100
AcDbText
  0
TEXT
  5
176E5
330
17656
100
AcDbEntity
  8
SUNPOU
100
AcDbText
 10
10987.44067841706
 20
2874.145098007061
 30
0.0
 40
90.0
  1
その他現地の実情にあわせて設計して下さい。
  7
01
100
AcDbText
  0
TEXT
  5
176E6
330
17656
100
AcDbEntity
  8
SUNPOU
100
AcDbText
 10
10987.44067841706
 20
3028.430812292774
 30
0.0
 40
90.0
  1
あわせて設計して下さい。
  7
01
100
AcDbText
  0
TEXT
  5
176E7
330
17656
100
AcDbEntity
  8
SUNPOU
100
AcDbText
 10
10987.44067841706
 20
2719.859383721346
 30
0.0
 40
90.0
  1
異形鉄筋の場合、原則としてフックは不要ですが、
  7
01
100
AcDbText
  0
TEXT
  5
176E8
330
17656
100
AcDbEntity
  8
SUNPOU
100
AcDbText
 10
11324.12878483155
 20
3921.063935617851
 30
0.0
 40
92.30769230769228
  1
（ S = 　　  ）
 41
0.6700000000000001
  7
00
 11
11324.12878483155
 21
3908.756243310159
 31
0.0
100
AcDbText
 73
     1
  0
TEXT
  5
176E9
330
17656
100
AcDbEntity
  8
SUNPOU
100
AcDbText
 10
10986.74334075274
 20
3562.002240864201
 30
0.0
 40
89.9993750043402
  1
50  N/m
 41
0.6700000000000001
  7
01
100
AcDbText
  0
TEXT
  5
176EA
330
17656
100
AcDbEntity
  8
SUNPOU
100
AcDbText
 10
11096.24836199283
 20
3407.716526578489
 30
0.0
 40
89.9993750043402
  1
34 m/s
 41
0.6700000000000001
  7
01
100
AcDbText
  0
TEXT
  5
176EB
330
17656
100
AcDbEntity
  8
SUNPOU
100
AcDbText
 10
11122.57979353869
 20
3562.002240864201
 30
0.0
 40
71.99950000347218
  1
K
 41
0.6700000000000001
  7
01
100
AcDbText
  0
TEXT
  5
176EC
330
17656
100
AcDbEntity
  8
SUNPOU
100
AcDbText
 10
11390.21995026709
 20
3612.190667221688
 30
0.0
 40
46.28539285937498
  1
2
 41
0.6700000000000001
  7
00
100
AcDbText
  0
TEXT
  5
176ED
330
17656
100
AcDbEntity
  8
SUNPOU
100
AcDbText
 10
11756.18705695437
 20
3900.140858694772
 30
0.0
 40
73.84615384615384
  1
25
 41
0.6700000000000001
  7
00
 11
11756.18705695437
 21
3890.294704848618
 31
0.0
100
AcDbText
 73
     1
  0
TEXT
  5
176EE
330
17656
100
AcDbEntity
  8
SUNPOU
100
AcDbText
 10
11643.83148668462
 20
3937.063935617851
 30
0.0
 40
73.84615384615384
  1
1
 41
0.6700000000000001
  7
00
 11
11643.83148668462
 21
3927.217781771697
 31
0.0
100
AcDbText
 73
     1
  0
TEXT
  5
176EF
330
17656
100
AcDbEntity
  8
SUNPOU
100
AcDbText
 10
11692.23761399999
 20
3918.602397156312
 30
0.0
 40
73.84615384615384
  1
/
 41
0.6700000000000001
  7
00
 11
11692.23761399999
 21
3908.756243310159
 31
0.0
100
AcDbText
 73
     1
  0
LINE
  5
176F0
330
17656
100
AcDbEntity
  8
SUNPOU
100
AcDbLine
 10
12404.30049489427
 20
3491.208890277269
 30
0.0
 11
12460.55049489427
 21
3491.208890277269
 31
0.0
  0
LINE
  5
176F1
330
17656
100
AcDbEntity
  8
SUNPOU
100
AcDbLine
 10
12404.30049489427
 20
3407.716526578488
 30
0.0
 11
12460.55049489427
 21
3407.716526578488
 31
0.0
  0
LINE
  5
176F2
330
17656
100
AcDbEntity
  8
SUNPOU
100
AcDbLine
 10
12415.55049489427
 20
3407.716526578489
 30
0.0
 11
12415.55049489427
 21
3491.208890277269
 31
0.0
  0
LINE
  5
176F3
330
17656
100
AcDbEntity
  8
SUNPOU
100
AcDbLine
 10
12432.42549489427
 20
3407.716526578489
 30
0.0
 11
12432.42549489427
 21
3491.208890277269
 31
0.0
  0
LINE
  5
176F4
330
17656
100
AcDbEntity
  8
SUNPOU
100
AcDbLine
 10
12449.30049489427
 20
3407.716526578489
 30
0.0
 11
12449.30049489427
 21
3491.208890277269
 31
0.0
  0
TEXT
  5
176F5
330
17656
100
AcDbEntity
  8
SUNPOU
100
AcDbText
 10
13031.49541161438
 20
3562.002240864201
 30
0.0
 40
89.9993750043402
  1
18
 41
0.6700000000000001
  7
01
100
AcDbText
  0
TEXT
  5
176F6
330
17656
100
AcDbEntity
  8
SUNPOU
100
AcDbText
 10
13167.33186440033
 20
3562.002240864201
 30
0.0
 40
89.9993750043402
  1
N/mm
 41
0.6700000000000001
  7
01
100
AcDbText
  0
TEXT
  5
176F7
330
17656
100
AcDbEntity
  8
SUNPOU
100
AcDbText
 10
13471.79634643173
 20
3612.190667221688
 30
0.0
 40
46.28539285937498
  1
2
 41
0.6700000000000001
  7
00
100
AcDbText
  0
ARC
  5
176F8
330
17656
100
AcDbEntity
  8
SUNPOU
100
AcDbCircle
 10
13620.67361096535
 20
3525.789664306033
 30
0.0
 40
225.0
100
AcDbArc
 50
328.3472725282761
 51
31.65272747172387
  0
ENDSEC
  0
SECTION
  2
OBJECTS
  0
DICTIONARY
  5
17646
330
0
100
AcDbDictionary
281
     1
  3
ACAD_GROUP
350
17647
  3
ACAD_LAYOUT
350
17653
  3
ACAD_MLEADERSTYLE
350
176AA
  3
ACAD_MLINESTYLE
350
17650
  3
ACAD_PLOTSETTINGS
350
17652
  3
ACAD_PLOTSTYLENAME
350
17648
  3
ACAD_TABLESTYLE
350
176A9
  3
AcDbVariableDictionary
350
176F9
  0
DICTIONARY
  5
17647
102
{ACAD_REACTORS
330
17646
102
}
330
17646
100
AcDbDictionary
281
     1
  0
DICTIONARY
  5
17653
102
{ACAD_REACTORS
330
17646
102
}
330
17646
100
AcDbDictionary
281
     1
  3
Layout1
350
17655
  3
Model
350
17657
  0
DICTIONARY
  5
176AA
102
{ACAD_REACTORS
330
17646
102
}
330
17646
100
AcDbDictionary
281
     1
  0
DICTIONARY
  5
17650
102
{ACAD_REACTORS
330
17646
102
}
330
17646
100
AcDbDictionary
281
     1
  3
Standard
350
17651
  0
DICTIONARY
  5
17652
102
{ACAD_REACTORS
330
17646
102
}
330
17646
100
AcDbDictionary
281
     1
  0
ACDBDICTIONARYWDFLT
  5
17648
102
{ACAD_REACTORS
330
17646
102
}
330
17646
100
AcDbDictionary
281
     1
  3
Normal
350
17649
100
AcDbDictionaryWithDefault
340
17649
  0
DICTIONARY
  5
176A9
102
{ACAD_REACTORS
330
17646
102
}
330
17646
100
AcDbDictionary
281
     1
  0
DICTIONARY
  5
176F9
102
{ACAD_REACTORS
330
17646
102
}
330
17646
100
AcDbDictionary
281
     1
  3
DIMASSOC
350
176FA
  0
LAYOUT
  5
17655
102
{ACAD_REACTORS
330
17653
102
}
330
17653
100
AcDbPlotSettings
  1

  2
none_device
  4

  6

 40
0.0
 41
0.0
 42
0.0
 43
0.0
 44
0.0
 45
0.0
 46
0.0
 47
0.0
 48
0.0
 49
0.0
140
0.0
141
0.0
142
1.0
143
1.0
 70
   688
 72
     0
 73
     0
 74
     5
  7

 75
    16
147
1.0
148
0.0
149
0.0
100
AcDbLayout
  1
Layout1
 70
     0
 71
     1
 10
0.0
 20
0.0
 11
12.0
 21
9.0
 12
0.0
 22
0.0
 32
0.0
 14
1.000000000000000E+20
 24
1.000000000000000E+20
 34
1.000000000000000E+20
 15
-1.000000000000000E+20
 25
-1.000000000000000E+20
 35
-1.000000000000000E+20
146
0.0
 13
0.0
 23
0.0
 33
0.0
 16
1.0
 26
0.0
 36
0.0
 17
0.0
 27
1.0
 37
0.0
 76
     0
330
17654
  0
LAYOUT
  5
17657
102
{ACAD_REACTORS
330
17653
102
}
330
17653
100
AcDbPlotSettings
  1

  2
none_device
  4

  6

 40
0.0
 41
0.0
 42
0.0
 43
0.0
 44
0.0
 45
0.0
 46
0.0
 47
0.0
 48
0.0
 49
0.0
140
0.0
141
0.0
142
1.0
143
1.0
 70
  1712
 72
     0
 73
     0
 74
     0
  7

 75
     0
147
1.0
148
0.0
149
0.0
100
AcDbLayout
  1
Model
 70
     1
 71
     0
 10
0.0
 20
0.0
 11
12.0
 21
9.0
 12
267.0
 22
194.8999999999998
 32
0.0
 14
433.9966216520332
 24
163.6908237492789
 34
-0.0000000000000053
 15
16382.66605425469
 25
11242.27663824599
 35
0.0000000000000099
146
0.0
 13
0.0
 23
0.0
 33
0.0
 16
1.0
 26
0.0
 36
0.0
 17
0.0
 27
1.0
 37
0.0
 76
     0
330
17656
331
17659
  0
MLINESTYLE
  5
17651
102
{ACAD_REACTORS
330
17650
102
}
330
17650
100
AcDbMlineStyle
  2
STANDARD
 70
     0
  3

 62
   256
 51
90.0
 52
90.0
 71
     2
 49
0.5
 62
   256
  6
BYLAYER
 49
-0.5
 62
   256
  6
BYLAYER
  0
ACDBPLACEHOLDER
  5
17649
102
{ACAD_REACTORS
330
17648
102
}
330
17648
  0
DICTIONARYVAR
  5
176FA
102
{ACAD_REACTORS
330
176F9
102
}
330
176F9
100
DictionaryVariables
280
     0
  1
1
  0
ENDSEC
  0
EOF
