  0
SECTION
  2
HEADER
  9
$ACADVER
  1
AC1015
  9
$ACADMAINTVER
 70
    13
  9
$DWGCODEPAGE
  3
ANSI_932
  9
$INSBASE
 10
267.0
 20
194.8999999999998
 30
0.0
  9
$EXTMIN
 10
325.4974662390304
 20
122.7681178119601
 30
-0.000000000000013
  9
$EXTMAX
 10
12286.99954069103
 20
8431.707478684501
 30
0.0000000000000023
  9
$LIMMIN
 10
0.0
 20
0.0
  9
$LIMMAX
 10
12600.0
 20
8910.0
  9
$ORTHOMODE
 70
     0
  9
$REGENMODE
 70
     1
  9
$FILLMODE
 70
     1
  9
$QTEXTMODE
 70
     0
  9
$MIRRTEXT
 70
     0
  9
$LTSCALE
 40
30.0
  9
$ATTMODE
 70
     1
  9
$TEXTSIZE
 40
0.2
  9
$TRACEWID
 40
0.05
  9
$TEXTSTYLE
  7
00
  9
$CLAYER
  8
SUNPOU
  9
$CELTYPE
  6
ByLayer
  9
$CECOLOR
 62
   256
  9
$CELTSCALE
 40
1.0
  9
$DISPSILH
 70
     0
  9
$DIMSCALE
 40
30.0
  9
$DIMASZ
 40
0.5
  9
$DIMEXO
 40
1.0
  9
$DIMDLI
 40
7.0
  9
$DIMRND
 40
0.0
  9
$DIMDLE
 40
3.0
  9
$DIMEXE
 40
1.5
  9
$DIMTP
 40
0.0
  9
$DIMTM
 40
0.0
  9
$DIMTXT
 40
3.0
  9
$DIMCEN
 40
0.0
  9
$DIMTSZ
 40
0.0
  9
$DIMTOL
 70
     0
  9
$DIMLIM
 70
     0
  9
$DIMTIH
 70
     0
  9
$DIMTOH
 70
     0
  9
$DIMSE1
 70
     0
  9
$DIMSE2
 70
     0
  9
$DIMTAD
 70
     1
  9
$DIMZIN
 70
     8
  9
$DIMBLK
  1
DOT
  9
$DIMASO
 70
     1
  9
$DIMSHO
 70
     0
  9
$DIMPOST
  1

  9
$DIMAPOST
  1

  9
$DIMALT
 70
     0
  9
$DIMALTD
 70
     2
  9
$DIMALTF
 40
25.4
  9
$DIMLFAC
 40
1.0
  9
$DIMTOFL
 70
     1
  9
$DIMTVP
 40
0.0
  9
$DIMTIX
 70
     0
  9
$DIMSOXD
 70
     0
  9
$DIMSAH
 70
     1
  9
$DIMBLK1
  1
DOT
  9
$DIMBLK2
  1
DOT
  9
$DIMSTYLE
  2
SUNPOU
  9
$DIMCLRD
 70
   256
  9
$DIMCLRE
 70
   256
  9
$DIMCLRT
 70
   256
  9
$DIMTFAC
 40
1.0
  9
$DIMGAP
 40
1.5
  9
$DIMJUST
 70
     0
  9
$DIMSD1
 70
     0
  9
$DIMSD2
 70
     0
  9
$DIMTOLJ
 70
     1
  9
$DIMTZIN
 70
     0
  9
$DIMALTZ
 70
     0
  9
$DIMALTTZ
 70
     0
  9
$DIMUPT
 70
     0
  9
$DIMDEC
 70
     2
  9
$DIMTDEC
 70
     2
  9
$DIMALTU
 70
     2
  9
$DIMALTTD
 70
     2
  9
$DIMTXSTY
  7
STANDARD
  9
$DIMAUNIT
 70
     0
  9
$DIMADEC
 70
     0
  9
$DIMALTRND
 40
0.0
  9
$DIMAZIN
 70
     0
  9
$DIMDSEP
 70
    46
  9
$DIMATFIT
 70
     3
  9
$DIMFRAC
 70
     0
  9
$DIMLDRBLK
  1

  9
$DIMLUNIT
 70
     2
  9
$DIMLWD
 70
    -2
  9
$DIMLWE
 70
    -2
  9
$DIMTMOVE
 70
     2
  9
$LUNITS
 70
     2
  9
$LUPREC
 70
     2
  9
$SKETCHINC
 40
0.1
  9
$FILLETRAD
 40
5.0
  9
$AUNITS
 70
     0
  9
$AUPREC
 70
     0
  9
$MENU
  1
A:\TIGER\MENU\TIGER
  9
$ELEVATION
 40
0.0
  9
$PELEVATION
 40
0.0
  9
$THICKNESS
 40
0.0
  9
$LIMCHECK
 70
     0
  9
$CHAMFERA
 40
0.0
  9
$CHAMFERB
 40
0.0
  9
$CHAMFERC
 40
1.0
  9
$CHAMFERD
 40
0.0
  9
$SKPOLY
 70
     0
  9
$TDCREATE
 40
2450266.571064815
  9
$TDUCREATE
 40
2450266.196064815
  9
$TDUPDATE
 40
2456331.316816041
  9
$TDUUPDATE
 40
2456330.941816041
  9
$TDINDWG
 40
0.3787140278
  9
$TDUSRTIMER
 40
0.3787140278
  9
$USRTIMER
 70
     1
  9
$ANGBASE
 50
0.0
  9
$ANGDIR
 70
     0
  9
$PDMODE
 70
     0
  9
$PDSIZE
 40
0.0
  9
$PLINEWID
 40
0.0
  9
$SPLFRAME
 70
     0
  9
$SPLINETYPE
 70
     6
  9
$SPLINESEGS
 70
     8
  9
$HANDSEED
  5
2A8FA
  9
$SURFTAB1
 70
     6
  9
$SURFTAB2
 70
     6
  9
$SURFTYPE
 70
     6
  9
$SURFU
 70
     6
  9
$SURFV
 70
     6
  9
$UCSBASE
  2

  9
$UCSNAME
  2

  9
$UCSORG
 10
0.0
 20
0.0
 30
0.0
  9
$UCSXDIR
 10
1.0
 20
0.0
 30
0.0
  9
$UCSYDIR
 10
0.0
 20
1.0
 30
0.0
  9
$UCSORTHOREF
  2

  9
$UCSORTHOVIEW
 70
     0
  9
$UCSORGTOP
 10
0.0
 20
0.0
 30
0.0
  9
$UCSORGBOTTOM
 10
0.0
 20
0.0
 30
0.0
  9
$UCSORGLEFT
 10
0.0
 20
0.0
 30
0.0
  9
$UCSORGRIGHT
 10
0.0
 20
0.0
 30
0.0
  9
$UCSORGFRONT
 10
0.0
 20
0.0
 30
0.0
  9
$UCSORGBACK
 10
0.0
 20
0.0
 30
0.0
  9
$PUCSBASE
  2

  9
$PUCSNAME
  2

  9
$PUCSORG
 10
0.0
 20
0.0
 30
0.0
  9
$PUCSXDIR
 10
1.0
 20
0.0
 30
0.0
  9
$PUCSYDIR
 10
0.0
 20
1.0
 30
0.0
  9
$PUCSORTHOREF
  2

  9
$PUCSORTHOVIEW
 70
     0
  9
$PUCSORGTOP
 10
0.0
 20
0.0
 30
0.0
  9
$PUCSORGBOTTOM
 10
0.0
 20
0.0
 30
0.0
  9
$PUCSORGLEFT
 10
0.0
 20
0.0
 30
0.0
  9
$PUCSORGRIGHT
 10
0.0
 20
0.0
 30
0.0
  9
$PUCSORGFRONT
 10
0.0
 20
0.0
 30
0.0
  9
$PUCSORGBACK
 10
0.0
 20
0.0
 30
0.0
  9
$USERI1
 70
     3
  9
$USERI2
 70
     0
  9
$USERI3
 70
     0
  9
$USERI4
 70
     0
  9
$USERI5
 70
  1103
  9
$USERR1
 40
0.0
  9
$USERR2
 40
1.0
  9
$USERR3
 40
0.0
  9
$USERR4
 40
0.0
  9
$USERR5
 40
0.0
  9
$WORLDVIEW
 70
     1
  9
$SHADEDGE
 70
     3
  9
$SHADEDIF
 70
    70
  9
$TILEMODE
 70
     1
  9
$MAXACTVP
 70
    16
  9
$PINSBASE
 10
0.0
 20
0.0
 30
0.0
  9
$PLIMCHECK
 70
     0
  9
$PEXTMIN
 10
1.000000000000000E+20
 20
1.000000000000000E+20
 30
1.000000000000000E+20
  9
$PEXTMAX
 10
-1.000000000000000E+20
 20
-1.000000000000000E+20
 30
-1.000000000000000E+20
  9
$PLIMMIN
 10
0.0
 20
0.0
  9
$PLIMMAX
 10
12.0
 20
9.0
  9
$UNITMODE
 70
     0
  9
$VISRETAIN
 70
     0
  9
$PLINEGEN
 70
     1
  9
$PSLTSCALE
 70
     0
  9
$TREEDEPTH
 70
  3020
  9
$CMLSTYLE
  2
Standard
  9
$CMLJUST
 70
     0
  9
$CMLSCALE
 40
1.0
  9
$PROXYGRAPHICS
 70
     1
  9
$MEASUREMENT
 70
     0
  9
$CELWEIGHT
370
    -1
  9
$ENDCAPS
280
     0
  9
$JOINSTYLE
280
     0
  9
$LWDISPLAY
290
     0
  9
$INSUNITS
 70
     0
  9
$HYPERLINKBASE
  1

  9
$STYLESHEET
  1

  9
$XEDIT
290
     1
  9
$CEPSNTYPE
380
     0
  9
$PSTYLEMODE
290
     1
  9
$FINGERPRINTGUID
  2
{D959E001-8506-4343-8507-25A511A2C7DC}
  9
$VERSIONGUID
  2
{C62BF7A9-8366-45A1-A7D1-68DD896A473D}
  9
$EXTNAMES
290
     1
  9
$PSVPSCALE
 40
0.0
  9
$OLESTARTUP
290
     0
  0
ENDSEC
  0
SECTION
  2
CLASSES
  0
CLASS
  1
ACDBDICTIONARYWDFLT
  2
AcDbDictionaryWithDefault
  3
AutoCAD 2000
 90
        0
280
     0
281
     0
  0
CLASS
  1
ACDBPLACEHOLDER
  2
AcDbPlaceHolder
  3
AutoCAD 2000
 90
        0
280
     0
281
     0
  0
CLASS
  1
LAYOUT
  2
AcDbLayout
  3
AutoCAD 2000
 90
        0
280
     0
281
     0
  0
CLASS
  1
DICTIONARYVAR
  2
AcDbDictionaryVar
  3
AutoCAD 2000
 90
        0
280
     0
281
     0
  0
ENDSEC
  0
SECTION
  2
TABLES
  0
TABLE
  2
VPORT
  5
2A84A
330
0
100
AcDbSymbolTable
 70
     3
  0
VPORT
  5
2A8F9
330
2A84A
100
AcDbSymbolTableRecord
100
AcDbViewportTableRecord
  2
*Active
 70
     0
 10
0.0
 20
0.0
 11
1.0
 21
1.0
 12
6306.248503465031
 22
4277.237798248231
 13
0.0
 23
0.0
 14
1.0
 24
1.0
 15
0.0
 25
0.0
 16
0.0
 26
0.0
 36
1.0
 17
0.0
 27
0.0
 37
0.0
 40
9736.810759336549
 41
1.236040609137055
 42
50.0
 43
0.0
 44
0.0
 50
0.0
 51
0.0
 71
     0
 72
 10000
 73
     1
 74
     0
 75
     0
 76
     0
 77
     0
 78
     0
281
     0
 65
     0
110
0.0
120
0.0
130
0.0
111
1.0
121
0.0
131
0.0
112
0.0
122
1.0
132
0.0
 79
     0
146
0.0
  0
ENDTAB
  0
TABLE
  2
LTYPE
  5
2A847
330
0
100
AcDbSymbolTable
 70
     9
  0
LTYPE
  5
2A855
330
2A847
100
AcDbSymbolTableRecord
100
AcDbLinetypeTableRecord
  2
ByBlock
 70
     0
  3

 72
    65
 73
     0
 40
0.0
  0
LTYPE
  5
2A856
330
2A847
100
AcDbSymbolTableRecord
100
AcDbLinetypeTableRecord
  2
ByLayer
 70
     0
  3

 72
    65
 73
     0
 40
0.0
  0
LTYPE
  5
2A857
330
2A847
100
AcDbSymbolTableRecord
100
AcDbLinetypeTableRecord
  2
CONTINUOUS
 70
     0
  3
実線
 72
    65
 73
     0
 40
0.0
  0
LTYPE
  5
2A863
330
2A847
100
AcDbSymbolTableRecord
100
AcDbLinetypeTableRecord
  2
HIDE-M
 70
     0
  3

 72
    65
 73
     2
 40
2.0
 49
1.0
 74
     0
 49
-1.0
 74
     0
  0
LTYPE
  5
2A864
330
2A847
100
AcDbSymbolTableRecord
100
AcDbLinetypeTableRecord
  2
HIDE-S
 70
     0
  3

 72
    65
 73
     2
 40
1.0
 49
0.5
 74
     0
 49
-0.5
 74
     0
  0
LTYPE
  5
2A865
330
2A847
100
AcDbSymbolTableRecord
100
AcDbLinetypeTableRecord
  2
TENSEN-
 70
     0
  3

 72
    65
 73
     2
 40
0.6000000000000001
 49
0.2
 74
     0
 49
-0.4
 74
     0
  0
LTYPE
  5
2A866
330
2A847
100
AcDbSymbolTableRecord
100
AcDbLinetypeTableRecord
  2
1PL-M
 70
     0
  3

 72
    65
 73
     4
 40
15.0
 49
12.0
 74
     0
 49
-1.0
 74
     0
 49
1.0
 74
     0
 49
-1.0
 74
     0
  0
LTYPE
  5
2A867
330
2A847
100
AcDbSymbolTableRecord
100
AcDbLinetypeTableRecord
  2
1PL-12
 70
     0
  3

 72
    65
 73
     4
 40
15.0
 49
12.0
 74
     0
 49
-1.0
 74
     0
 49
1.0
 74
     0
 49
-1.0
 74
     0
  0
LTYPE
  5
2A868
330
2A847
100
AcDbSymbolTableRecord
100
AcDbLinetypeTableRecord
  2
KAKURE-1
 70
     0
  3

 72
    65
 73
     2
 40
2.0
 49
1.0
 74
     0
 49
-1.0
 74
     0
  0
LTYPE
  5
2A869
330
2A847
100
AcDbSymbolTableRecord
100
AcDbLinetypeTableRecord
  2
2PL-12
 70
     0
  3

 72
    65
 73
     6
 40
17.0
 49
12.0
 74
     0
 49
-1.0
 74
     0
 49
1.0
 74
     0
 49
-1.0
 74
     0
 49
1.0
 74
     0
 49
-1.0
 74
     0
  0
LTYPE
  5
2A86A
330
2A847
100
AcDbSymbolTableRecord
100
AcDbLinetypeTableRecord
  2
2PL-5
 70
     0
  3

 72
    65
 73
     6
 40
7.5
 49
5.0
 74
     0
 49
-0.5
 74
     0
 49
0.5
 74
     0
 49
-0.5
 74
     0
 49
0.5
 74
     0
 49
-0.5
 74
     0
  0
ENDTAB
  0
TABLE
  2
LAYER
  5
2A844
330
0
100
AcDbSymbolTable
 70
    27
  0
LAYER
  5
2A852
330
2A844
100
AcDbSymbolTableRecord
100
AcDbLayerTableRecord
  2
0
 70
     0
 62
     7
  6
CONTINUOUS
370
    -3
390
2A851
  0
LAYER
  5
2A86C
330
2A844
100
AcDbSymbolTableRecord
100
AcDbLayerTableRecord
  2
U1
 70
     0
 62
     3
  6
CONTINUOUS
370
    -3
390
2A851
  0
LAYER
  5
2A86D
330
2A844
100
AcDbSymbolTableRecord
100
AcDbLayerTableRecord
  2
U2
 70
     0
 62
     4
  6
CONTINUOUS
370
    -3
390
2A851
  0
LAYER
  5
2A86E
330
2A844
100
AcDbSymbolTableRecord
100
AcDbLayerTableRecord
  2
U3
 70
     0
 62
     6
  6
CONTINUOUS
370
    -3
390
2A851
  0
LAYER
  5
2A86F
330
2A844
100
AcDbSymbolTableRecord
100
AcDbLayerTableRecord
  2
U7
 70
     0
 62
     2
  6
CONTINUOUS
370
    -3
390
2A851
  0
LAYER
  5
2A870
330
2A844
100
AcDbSymbolTableRecord
100
AcDbLayerTableRecord
  2
SUNPOU
 70
     0
 62
     4
  6
CONTINUOUS
370
    -3
390
2A851
  0
LAYER
  5
2A871
330
2A844
100
AcDbSymbolTableRecord
100
AcDbLayerTableRecord
  2
HIKIDASHI
 70
     0
 62
     6
  6
CONTINUOUS
370
    -3
390
2A851
  0
LAYER
  5
2A872
330
2A844
100
AcDbSymbolTableRecord
100
AcDbLayerTableRecord
  2
TENSEN-1
 70
     0
 62
     6
  6
TENSEN-
370
    -3
390
2A851
  0
LAYER
  5
2A873
330
2A844
100
AcDbSymbolTableRecord
100
AcDbLayerTableRecord
  2
HIDE-S1
 70
     0
 62
     6
  6
HIDE-S
370
    -3
390
2A851
  0
LAYER
  5
2A874
330
2A844
100
AcDbSymbolTableRecord
100
AcDbLayerTableRecord
  2
HIDE-M1
 70
     0
 62
     6
  6
HIDE-M
370
    -3
390
2A851
  0
LAYER
  5
2A875
330
2A844
100
AcDbSymbolTableRecord
100
AcDbLayerTableRecord
  2
1PL-M1
 70
     0
 62
     6
  6
1PL-M
370
    -3
390
2A851
  0
LAYER
  5
2A876
330
2A844
100
AcDbSymbolTableRecord
100
AcDbLayerTableRecord
  2
YANE
 70
     0
 62
     1
  6
CONTINUOUS
370
    -3
390
2A851
  0
LAYER
  5
2A877
330
2A844
100
AcDbSymbolTableRecord
100
AcDbLayerTableRecord
  2
KISO
 70
     0
 62
     2
  6
CONTINUOUS
370
    -3
390
2A851
  0
LAYER
  5
2A878
330
2A844
100
AcDbSymbolTableRecord
100
AcDbLayerTableRecord
  2
HATCH
 70
     0
 62
     1
  6
CONTINUOUS
370
    -3
390
2A851
  0
LAYER
  5
2A879
330
2A844
100
AcDbSymbolTableRecord
100
AcDbLayerTableRecord
  2
NAME
 70
     0
 62
    20
  6
CONTINUOUS
370
    -3
390
2A851
  0
LAYER
  5
2A87A
330
2A844
100
AcDbSymbolTableRecord
100
AcDbLayerTableRecord
  2
FILENAME
 70
     0
 62
     7
  6
CONTINUOUS
370
    -3
390
2A851
  0
LAYER
  5
2A87B
330
2A844
100
AcDbSymbolTableRecord
100
AcDbLayerTableRecord
  2
BOLT
 70
     0
 62
     4
  6
CONTINUOUS
370
    -3
390
2A851
  0
LAYER
  5
2A87C
330
2A844
100
AcDbSymbolTableRecord
100
AcDbLayerTableRecord
  2
HASIRA
 70
     0
 62
     3
  6
CONTINUOUS
370
    -3
390
2A851
  0
LAYER
  5
2A87D
330
2A844
100
AcDbSymbolTableRecord
100
AcDbLayerTableRecord
  2
DOMAKON
 70
     0
 62
     2
  6
CONTINUOUS
370
    -3
390
2A851
  0
LAYER
  5
2A87E
330
2A844
100
AcDbSymbolTableRecord
100
AcDbLayerTableRecord
  2
KISO-1
 70
     0
 62
     1
  6
2PL-12
370
    -3
390
2A851
  0
LAYER
  5
2A87F
330
2A844
100
AcDbSymbolTableRecord
100
AcDbLayerTableRecord
  2
KISO-2
 70
     0
 62
     1
  6
KAKURE-1
370
    -3
390
2A851
  0
LAYER
  5
2A880
330
2A844
100
AcDbSymbolTableRecord
100
AcDbLayerTableRecord
  2
SIN
 70
     0
 62
     6
  6
1PL-12
370
    -3
390
2A851
  0
LAYER
  5
2A881
330
2A844
100
AcDbSymbolTableRecord
100
AcDbLayerTableRecord
  2
KISO-3
 70
     0
 62
     1
  6
2PL-5
370
    -3
390
2A851
  0
LAYER
  5
2A882
330
2A844
100
AcDbSymbolTableRecord
100
AcDbLayerTableRecord
  2
YODOROGO
 70
     0
 62
   130
  6
CONTINUOUS
370
    -3
390
2A851
  0
LAYER
  5
2A883
330
2A844
100
AcDbSymbolTableRecord
100
AcDbLayerTableRecord
  2
WAKUSEN-01
 70
     0
 62
    50
  6
CONTINUOUS
370
    -3
390
2A851
  0
LAYER
  5
2A884
330
2A844
100
AcDbSymbolTableRecord
100
AcDbLayerTableRecord
  2
WAKUSEN-02
 70
     0
 62
   130
  6
CONTINUOUS
370
    -3
390
2A851
  0
LAYER
  5
2A885
330
2A844
100
AcDbSymbolTableRecord
100
AcDbLayerTableRecord
  2
WAKUMOJI-01
 70
     0
 62
   130
  6
CONTINUOUS
370
    -3
390
2A851
  0
ENDTAB
  0
TABLE
  2
STYLE
  5
2A845
330
0
100
AcDbSymbolTable
 70
     5
  0
STYLE
  5
2A853
330
2A845
100
AcDbSymbolTableRecord
100
AcDbTextStyleTableRecord
  2
STANDARD
 70
     0
 40
3.0
 41
1.0
 50
0.0
 71
     0
 42
0.2
  3
ROMANS
  4
EXTFONT
  0
STYLE
  5
2A887
330
2A845
100
AcDbSymbolTableRecord
100
AcDbTextStyleTableRecord
  2
01
 70
     0
 40
3.0
 41
1.0
 50
0.0
 71
     0
 42
0.2
  3
ROMANS
  4
BIGFONT
  0
STYLE
  5
2A888
330
2A845
100
AcDbSymbolTableRecord
100
AcDbTextStyleTableRecord
  2
00
 70
     0
 40
0.0
 41
0.6666666666666666
 50
0.0
 71
     0
 42
0.2
  3
ROMANS
  4
BIGFONT
  0
STYLE
  5
2A889
330
2A845
100
AcDbSymbolTableRecord
100
AcDbTextStyleTableRecord
  2
WAKUMOJI
 70
     0
 40
3.0
 41
1.0
 50
0.0
 71
     0
 42
3.0
  3
SIMPLEX
  4
BIGFONT
  0
STYLE
  5
2A88A
330
2A845
100
AcDbSymbolTableRecord
100
AcDbTextStyleTableRecord
  2
FILENAME
 70
     0
 40
75.0
 41
1.0
 50
0.0
 71
     0
 42
75.0
  3
romans
  4
bigfont
  0
ENDTAB
  0
TABLE
  2
VIEW
  5
2A848
330
0
100
AcDbSymbolTable
 70
     0
  0
ENDTAB
  0
TABLE
  2
UCS
  5
2A849
330
0
100
AcDbSymbolTable
 70
     0
  0
ENDTAB
  0
TABLE
  2
APPID
  5
2A84B
330
0
100
AcDbSymbolTable
 70
     4
  0
APPID
  5
2A854
330
2A84B
100
AcDbSymbolTableRecord
100
AcDbRegAppTableRecord
  2
ACAD
 70
     0
  0
APPID
  5
2A88C
330
2A84B
100
AcDbSymbolTableRecord
100
AcDbRegAppTableRecord
  2
AUTOCAD_POSTSCRIPT_FIGURE
 70
     0
  0
APPID
  5
2A88D
330
2A84B
100
AcDbSymbolTableRecord
100
AcDbRegAppTableRecord
  2
ACAD_PSEXT
 70
     0
  0
APPID
  5
2A88E
330
2A84B
100
AcDbSymbolTableRecord
100
AcDbRegAppTableRecord
  2
ACAD_EXEMPT_FROM_CAD_STANDARDS
 70
     0
  0
ENDTAB
  0
TABLE
  2
DIMSTYLE
  5
2A84C
330
0
100
AcDbSymbolTable
 70
     2
100
AcDbDimStyleTable
 71
     0
  0
DIMSTYLE
105
D00
330
2A84C
100
AcDbSymbolTableRecord
100
AcDbDimStyleTableRecord
  2
SUNPOU
 70
     0
 40
30.0
 41
0.5
 42
1.0
 43
7.0
 44
1.5
 46
3.0
 73
     0
 74
     0
 77
     1
 78
     8
140
3.0
141
0.0
147
1.5
172
     1
173
     1
176
   256
177
   256
178
   256
340
2A888
341
2A892
342
2A892
343
2A892
344
2A892
  0
DIMSTYLE
105
2A8AD
330
2A84C
100
AcDbSymbolTableRecord
100
AcDbDimStyleTableRecord
  2
SUNPOU_図面名
 70
     0
 40
40.0
 41
0.5
 42
1.0
 43
7.0
 44
1.125
 46
3.0
 73
     0
 74
     0
 77
     1
 78
     8
140
2.25
141
0.0
147
1.125
172
     1
173
     1
176
   256
177
   256
178
   256
340
2A888
341
2A892
343
2A892
344
2A892
  0
ENDTAB
  0
TABLE
  2
BLOCK_RECORD
  5
2A843
330
0
100
AcDbSymbolTable
 70
    11
  0
BLOCK_RECORD
  5
2A85E
330
2A843
100
AcDbSymbolTableRecord
100
AcDbBlockTableRecord
  2
*Model_Space
340
2A85F
  0
BLOCK_RECORD
  5
2A85C
330
2A843
100
AcDbSymbolTableRecord
100
AcDbBlockTableRecord
  2
*Paper_Space
340
2A85D
  0
BLOCK_RECORD
  5
2A892
330
2A843
100
AcDbSymbolTableRecord
100
AcDbBlockTableRecord
  2
DOT
340
0
  0
BLOCK_RECORD
  5
2A894
330
2A843
100
AcDbSymbolTableRecord
100
AcDbBlockTableRecord
  2
*U1
340
0
  0
BLOCK_RECORD
  5
2A896
330
2A843
100
AcDbSymbolTableRecord
100
AcDbBlockTableRecord
  2
*U2
340
0
  0
BLOCK_RECORD
  5
2A898
330
2A843
100
AcDbSymbolTableRecord
100
AcDbBlockTableRecord
  2
*U3
340
0
  0
BLOCK_RECORD
  5
2A89A
330
2A843
100
AcDbSymbolTableRecord
100
AcDbBlockTableRecord
  2
*U4
340
0
  0
BLOCK_RECORD
  5
2A89C
330
2A843
100
AcDbSymbolTableRecord
100
AcDbBlockTableRecord
  2
*U5
340
0
  0
BLOCK_RECORD
  5
2A89E
330
2A843
100
AcDbSymbolTableRecord
100
AcDbBlockTableRecord
  2
*U6
340
0
  0
BLOCK_RECORD
  5
2A8A0
330
2A843
100
AcDbSymbolTableRecord
100
AcDbBlockTableRecord
  2
*U7
340
0
  0
BLOCK_RECORD
  5
2A8A2
330
2A843
100
AcDbSymbolTableRecord
100
AcDbBlockTableRecord
  2
*U8
340
0
  0
BLOCK_RECORD
  5
2A8A4
330
2A843
100
AcDbSymbolTableRecord
100
AcDbBlockTableRecord
  2
*U9
340
0
  0
ENDTAB
  0
ENDSEC
  0
SECTION
  2
BLOCKS
  0
BLOCK
  5
2A88F
330
2A85E
100
AcDbEntity
  8
0
100
AcDbBlockBegin
  2
*Model_Space
 70
     0
 10
0.0
 20
0.0
 30
0.0
  3
*Model_Space
  1

  0
ENDBLK
  5
125F7
330
2A85E
100
AcDbEntity
  8
0
100
AcDbBlockEnd
  0
BLOCK
  5
2A890
330
2A85C
100
AcDbEntity
 67
     1
  8
0
100
AcDbBlockBegin
  2
*Paper_Space
 70
     0
 10
0.0
 20
0.0
 30
0.0
  3
*Paper_Space
  1

  0
ENDBLK
  5
125F5
330
2A85C
100
AcDbEntity
 67
     1
  8
0
100
AcDbBlockEnd
  0
BLOCK
  5
2A891
330
2A892
100
AcDbEntity
  8
0
100
AcDbBlockBegin
  2
DOT
 70
     0
 10
0.0
 20
0.0
 30
0.0
  3
DOT
  1

  0
LWPOLYLINE
  5
12983
330
2A892
100
AcDbEntity
  8
0
  6
ByBlock
 62
     0
100
AcDbPolyline
 90
        2
 70
     1
 43
0.75
 10
-0.375
 20
0.0
 42
1.0
 10
0.375
 20
0.0
 42
1.0
  0
LINE
  5
12984
330
2A892
100
AcDbEntity
  8
0
  6
ByBlock
 62
     0
100
AcDbLine
 10
-0.75
 20
0.0
 30
0.0
 11
-1.5
 21
0.0
 31
0.0
  0
ENDBLK
  5
12985
330
2A892
100
AcDbEntity
  8
0
100
AcDbBlockEnd
  0
BLOCK
  5
2A893
330
2A894
100
AcDbEntity
  8
0
100
AcDbBlockBegin
  2
*U1
 70
     1
 10
0.0
 20
0.0
 30
0.0
  3
*U1
  1

  0
TEXT
  5
2A820
330
2A894
100
AcDbEntity
  8
SUNPOU
100
AcDbText
 10
3240.856080631056
 20
2243.601765811146
 30
0.0
 40
90.0
  1
150
 50
90.0
 41
0.6666666666666666
  7
00
100
AcDbText
  0
ENDBLK
  5
2A822
330
2A894
100
AcDbEntity
  8
0
100
AcDbBlockEnd
  0
BLOCK
  5
2A895
330
2A896
100
AcDbEntity
  8
0
100
AcDbBlockBegin
  2
*U2
 70
     1
 10
0.0
 20
0.0
 30
0.0
  3
*U2
  1

  0
TEXT
  5
2A824
330
2A896
100
AcDbEntity
  8
SUNPOU
100
AcDbText
 10
2062.734652059631
 20
915.744622954002
 30
0.0
 40
90.0
  1
1000
 41
0.6666666666666666
  7
00
100
AcDbText
  0
ENDBLK
  5
2A826
330
2A896
100
AcDbEntity
  8
0
100
AcDbBlockEnd
  0
BLOCK
  5
2A897
330
2A898
100
AcDbEntity
  8
0
100
AcDbBlockBegin
  2
*U3
 70
     1
 10
0.0
 20
0.0
 30
0.0
  3
*U3
  1

  0
TEXT
  5
2A828
330
2A898
100
AcDbEntity
  8
SUNPOU
100
AcDbText
 10
1945.591794916774
 20
1125.744622954002
 30
0.0
 40
90.0
  1
700
 41
0.6666666666666666
  7
00
100
AcDbText
  0
ENDBLK
  5
2A82A
330
2A898
100
AcDbEntity
  8
0
100
AcDbBlockEnd
  0
BLOCK
  5
2A899
330
2A89A
100
AcDbEntity
  8
0
100
AcDbBlockBegin
  2
*U4
 70
     1
 10
0.0
 20
0.0
 30
0.0
  3
*U4
  1

  0
TEXT
  5
2A82C
330
2A89A
100
AcDbEntity
  8
SUNPOU
100
AcDbText
 10
2445.591794916774
 20
1125.744622954002
 30
0.0
 40
90.0
  1
300
 41
0.6666666666666666
  7
00
100
AcDbText
  0
ENDBLK
  5
2A82E
330
2A89A
100
AcDbEntity
  8
0
100
AcDbBlockEnd
  0
BLOCK
  5
2A89B
330
2A89C
100
AcDbEntity
  8
0
100
AcDbBlockBegin
  2
*U5
 70
     1
 10
0.0
 20
0.0
 30
0.0
  3
*U5
  1

  0
TEXT
  5
2A830
330
2A89C
100
AcDbEntity
  8
SUNPOU
100
AcDbText
 10
3240.856080631056
 20
1182.887480096861
 30
0.0
 40
90.0
  1
100
 50
90.0
 41
0.6666666666666666
  7
00
100
AcDbText
  0
ENDBLK
  5
2A832
330
2A89C
100
AcDbEntity
  8
0
100
AcDbBlockEnd
  0
BLOCK
  5
2A89D
330
2A89E
100
AcDbEntity
  8
0
100
AcDbBlockBegin
  2
*U6
 70
     1
 10
0.0
 20
0.0
 30
0.0
  3
*U6
  1

  0
TEXT
  5
2A834
330
2A89E
100
AcDbEntity
  8
SUNPOU
100
AcDbText
 10
3240.856080631056
 20
1725.030337239718
 30
0.0
 40
90.0
  1
480
 50
90.0
 41
0.6666666666666666
  7
00
100
AcDbText
  0
ENDBLK
  5
2A836
330
2A89E
100
AcDbEntity
  8
0
100
AcDbBlockEnd
  0
BLOCK
  5
2A89F
330
2A8A0
100
AcDbEntity
  8
0
100
AcDbBlockBegin
  2
*U7
 70
     1
 10
0.0
 20
0.0
 30
0.0
  3
*U7
  1

  0
TEXT
  5
2A838
330
2A8A0
100
AcDbEntity
  8
SUNPOU
100
AcDbText
 10
3438.65728512295
 20
1491.838927685163
 30
0.0
 40
90.0
  1
50
 50
90.0
 41
0.6666666666666666
  7
00
100
AcDbText
  0
ENDBLK
  5
2A83A
330
2A8A0
100
AcDbEntity
  8
0
100
AcDbBlockEnd
  0
BLOCK
  5
2A8A1
330
2A8A2
100
AcDbEntity
  8
0
100
AcDbBlockBegin
  2
*U8
 70
     1
 10
0.0
 20
0.0
 30
0.0
  3
*U8
  1

  0
TEXT
  5
2A83C
330
2A8A2
100
AcDbEntity
  8
SUNPOU
100
AcDbText
 10
2295.591794916775
 20
2843.077046087621
 30
0.0
 40
90.0
  1
480
 41
0.6666666666666666
  7
00
100
AcDbText
  0
ENDBLK
  5
2A83E
330
2A8A2
100
AcDbEntity
  8
0
100
AcDbBlockEnd
  0
BLOCK
  5
2A8A3
330
2A8A4
100
AcDbEntity
  8
0
100
AcDbBlockBegin
  2
*U9
 70
     1
 10
0.0
 20
0.0
 30
0.0
  3
*U9
  1

  0
TEXT
  5
2A840
330
2A8A4
100
AcDbEntity
  8
SUNPOU
100
AcDbText
 10
5732.326124563223
 20
4256.942424460623
 30
0.0
 40
90.0
  1
L = 2400 x N + 800
 41
0.6666666666666666
  7
00
100
AcDbText
  0
ENDBLK
  5
2A842
330
2A8A4
100
AcDbEntity
  8
0
100
AcDbBlockEnd
  0
ENDSEC
  0
SECTION
  2
ENTITIES
  0
TEXT
  5
23FF3
330
2A85E
100
AcDbEntity
  8
HIKIDASHI
100
AcDbText
 10
3120.271559542874
 20
733.9669329272346
 30
0.0
 40
90.0
  1
帯筋
  7
01
100
AcDbText
  0
LINE
  5
23FF4
330
2A85E
100
AcDbEntity
  8
HIKIDASHI
100
AcDbLine
 10
3090.271559542875
 20
688.9669329272346
 30
0.0
 11
3867.992860751925
 21
688.9669329272346
 31
0.0
  0
LINE
  5
23FF5
330
2A85E
100
AcDbEntity
  8
HIKIDASHI
100
AcDbLine
 10
3222.877259411718
 20
932.4302402870015
 30
0.0
 11
3850.782346820902
 21
932.4302402870015
 31
0.0
  0
TEXT
  5
23FF6
330
2A85E
100
AcDbEntity
  8
HIKIDASHI
100
AcDbText
 10
3668.434553268009
 20
733.9669329272346
 30
0.0
 40
90.0
  1
100
 41
0.6700000000000001
  7
00
100
AcDbText
  0
TEXT
  5
23FF7
330
2A85E
100
AcDbEntity
  8
HIKIDASHI
100
AcDbText
 10
3447.324547040901
 20
733.9669329272346
 30
0.0
 40
90.0
  1
%%C
 41
0.6700000000000001
  7
00
100
AcDbText
  0
TEXT
  5
23FF8
330
2A85E
100
AcDbEntity
  8
HIKIDASHI
100
AcDbText
 10
3369.535512576665
 20
733.9669329272346
 30
0.0
 40
90.0
  1
9
 41
0.6700000000000001
  7
00
100
AcDbText
  0
TEXT
  5
23FF9
330
2A85E
100
AcDbEntity
  8
HIKIDASHI
100
AcDbText
 10
3558.949879610634
 20
741.4669329272348
 30
0.0
 40
75.0
  1
ア
  7
01
 72
     1
 11
3591.449879610634
 21
778.9669329272348
 31
0.0
100
AcDbText
 73
     2
  0
CIRCLE
  5
23FFA
330
2A85E
100
AcDbEntity
  8
HIKIDASHI
100
AcDbCircle
 10
3591.449879610634
 20
778.9669329272348
 30
0.0
 40
60.0
  0
LINE
  5
23FFB
330
2A85E
100
AcDbEntity
  8
U7
100
AcDbLine
 10
1751.306080631059
 20
1620.744622954002
 30
0.0
 11
2611.306080631061
 21
1620.744622954003
 31
0.0
  0
LINE
  5
23FFC
330
2A85E
100
AcDbEntity
  8
KISO
100
AcDbLine
 10
1581.306080631059
 20
1520.744622954
 30
0.0
 11
2781.306080631061
 21
1520.744622954004
 31
0.0
  0
LINE
  5
23FFD
330
2A85E
100
AcDbEntity
  8
KISO
100
AcDbLine
 10
1581.306080631059
 20
1420.744622953999
 30
0.0
 11
2781.306080631061
 21
1420.744622954003
 31
0.0
  0
LINE
  5
23FFE
330
2A85E
100
AcDbEntity
  8
KISO
100
AcDbLine
 10
1581.306080631059
 20
1570.744622953999
 30
0.0
 11
2781.306080631061
 21
1570.744622954004
 31
0.0
  0
LINE
  5
23FFF
330
2A85E
100
AcDbEntity
  8
HIDE-S1
100
AcDbLine
 10
2621.306080631061
 20
2050.744622954003
 30
0.0
 11
2141.306080631061
 21
2050.744622954003
 31
0.0
  0
LINE
  5
24000
330
2A85E
100
AcDbEntity
  8
U7
100
AcDbLine
 10
2181.306080631061
 20
1961.244622954002
 30
0.0
 11
2581.306080631061
 21
1961.244622954002
 31
0.0
  0
LINE
  5
24001
330
2A85E
100
AcDbEntity
  8
U7
100
AcDbLine
 10
2181.306080631061
 20
1861.244622954002
 30
0.0
 11
2581.306080631061
 21
1861.244622954002
 31
0.0
  0
LINE
  5
24002
330
2A85E
100
AcDbEntity
  8
U7
100
AcDbLine
 10
2181.306080631061
 20
1761.244622954002
 30
0.0
 11
2581.306080631061
 21
1761.244622954003
 31
0.0
  0
LINE
  5
24003
330
2A85E
100
AcDbEntity
  8
U7
100
AcDbLine
 10
2181.306080631061
 20
1661.244622954002
 30
0.0
 11
2581.306080631061
 21
1661.244622954004
 31
0.0
  0
LINE
  5
24004
330
2A85E
100
AcDbEntity
  8
U7
100
AcDbLine
 10
2181.306080631061
 20
2161.244622954002
 30
0.0
 11
2581.306080631061
 21
2161.244622954003
 31
0.0
  0
LINE
  5
24005
330
2A85E
100
AcDbEntity
  8
U7
100
AcDbLine
 10
2181.306080631061
 20
2061.244622954002
 30
0.0
 11
2581.306080631061
 21
2061.244622954003
 31
0.0
  0
LINE
  5
24008
330
2A85E
100
AcDbEntity
  8
KISO
100
AcDbLine
 10
2336.756080631058
 20
2200.744622954003
 30
0.0
 11
1077.057301727902
 21
2200.744622954
 31
0.0
  0
LINE
  5
24009
330
2A85E
100
AcDbEntity
  8
KISO
100
AcDbLine
 10
1077.057301727902
 20
2050.744622954002
 30
0.0
 11
1681.30608063106
 21
2050.744622954002
 31
0.0
  0
LINE
  5
2400A
330
2A85E
100
AcDbEntity
  8
KISO
100
AcDbLine
 10
1077.057301727902
 20
2110.744622954002
 30
0.0
 11
1681.30608063106
 21
2110.744622954003
 31
0.0
  0
LINE
  5
2400E
330
2A85E
100
AcDbEntity
  8
SUNPOU
100
AcDbLine
 10
1290.677972800353
 20
2200.744622954
 30
0.0
 11
1342.639497027418
 21
2290.744622954002
 31
0.0
  0
LINE
  5
2400F
330
2A85E
100
AcDbEntity
  8
SUNPOU
100
AcDbLine
 10
1238.716448573286
 20
2290.744622954002
 30
0.0
 11
1290.677972800353
 21
2200.744622954
 31
0.0
  0
TEXT
  5
24010
330
2A85E
100
AcDbEntity
  8
SUNPOU
100
AcDbText
 10
1222.106544228924
 20
2335.744622954002
 30
0.0
 40
90.0
  1
F.L
 41
0.6666666666666666
  7
00
 72
     4
 11
1290.677972800353
 21
2380.744622954002
 31
0.0
100
AcDbText
  0
LINE
  5
24011
330
2A85E
100
AcDbEntity
  8
SUNPOU
100
AcDbLine
 10
1342.639497027418
 20
2290.744622954002
 30
0.0
 11
1238.716448573286
 21
2290.744622954002
 31
0.0
  0
LINE
  5
24013
330
2A85E
100
AcDbEntity
  8
U1
100
AcDbLine
 10
2181.306080631061
 20
2161.244622954002
 30
0.0
 11
2181.306080631061
 21
1656.744622954002
 31
0.0
  0
LINE
  5
24014
330
2A85E
100
AcDbEntity
  8
KISO
100
AcDbLine
 10
1681.30608063106
 20
2110.744622954003
 30
0.0
 11
1681.30608063106
 21
1570.744622953999
 31
0.0
  0
LINE
  5
24015
330
2A85E
100
AcDbEntity
  8
HATCH
100
AcDbLine
 10
2151.004565440897
 20
2050.744622954003
 30
0.0
 11
1681.30608063106
 21
1581.046138144165
 31
0.0
  0
LINE
  5
24016
330
2A85E
100
AcDbEntity
  8
HATCH
100
AcDbLine
 10
2151.30608063106
 20
1810.744622954002
 30
0.0
 11
2007.806080631061
 21
1667.244622954002
 31
0.0
  0
LINE
  5
24017
330
2A85E
100
AcDbEntity
  8
HATCH
100
AcDbLine
 10
2151.30608063106
 20
1781.046138144167
 30
0.0
 11
2037.504565440896
 21
1667.244622954002
 31
0.0
  0
LINE
  5
24018
330
2A85E
100
AcDbEntity
  8
HATCH
100
AcDbLine
 10
2121.306080631061
 20
2050.744622954003
 30
0.0
 11
1681.30608063106
 21
1610.744622953998
 31
0.0
  0
LINE
  5
24019
330
2A85E
100
AcDbEntity
  8
HATCH
100
AcDbLine
 10
2091.607595821225
 20
2050.744622954003
 30
0.0
 11
1681.30608063106
 21
1640.443107763833
 31
0.0
  0
CIRCLE
  5
2401A
330
2A85E
100
AcDbEntity
  8
U7
100
AcDbCircle
 10
2176.80608063106
 20
1761.244622954002
 30
0.0
 40
4.5
  0
LINE
  5
2401B
330
2A85E
100
AcDbEntity
  8
KISO
100
AcDbLine
 10
1581.306080631059
 20
1420.744622953999
 30
0.0
 11
1581.306080631059
 21
1570.744622953999
 31
0.0
  0
CIRCLE
  5
2401D
330
2A85E
100
AcDbEntity
  8
U7
100
AcDbCircle
 10
1751.306080631059
 20
1627.244622953999
 30
0.0
 40
6.5
  0
LINE
  5
2401E
330
2A85E
100
AcDbEntity
  8
U1
100
AcDbLine
 10
1981.30608063106
 20
1643.744622954002
 30
0.0
 11
2168.306080631059
 21
1643.744622954002
 31
0.0
  0
LINE
  5
24020
330
2A85E
100
AcDbEntity
  8
HATCH
100
AcDbLine
 10
2151.30608063106
 20
1751.347653334333
 30
0.0
 11
2067.203050250733
 21
1667.244622954002
 31
0.0
  0
LINE
  5
24022
330
2A85E
100
AcDbEntity
  8
HATCH
100
AcDbLine
 10
1984.203050250726
 20
1584.244622954002
 30
0.0
 11
1970.703050250725
 21
1570.744622953999
 31
0.0
  0
LINE
  5
24023
330
2A85E
100
AcDbEntity
  8
HATCH
100
AcDbLine
 10
1924.80608063106
 20
1584.244622954002
 30
0.0
 11
1911.30608063106
 21
1570.744622953999
 31
0.0
  0
LINE
  5
24024
330
2A85E
100
AcDbEntity
  8
HATCH
100
AcDbLine
 10
1954.504565440896
 20
1584.244622954002
 30
0.0
 11
1941.004565440896
 21
1570.744622954002
 31
0.0
  0
LINE
  5
24025
330
2A85E
100
AcDbEntity
  8
HATCH
100
AcDbLine
 10
2224.50456544089
 20
1584.244622954002
 30
0.0
 11
2211.00456544089
 21
1570.744622954002
 31
0.0
  0
LINE
  5
24027
330
2A85E
100
AcDbEntity
  8
HATCH
100
AcDbLine
 10
2254.203050250726
 20
1584.244622954002
 30
0.0
 11
2240.703050250726
 21
1570.744622954002
 31
0.0
  0
LINE
  5
24028
330
2A85E
100
AcDbEntity
  8
HATCH
100
AcDbLine
 10
2283.901535060563
 20
1584.244622954002
 30
0.0
 11
2270.401535060562
 21
1570.744622954002
 31
0.0
  0
ARC
  5
24029
330
2A85E
100
AcDbEntity
  8
U1
100
AcDbCircle
 10
2168.306080631059
 20
1656.744622954002
 30
0.0
 40
13.0
100
AcDbArc
 50
270.0
 51
0.0
  0
CIRCLE
  5
2402A
330
2A85E
100
AcDbEntity
  8
U7
100
AcDbCircle
 10
2176.80608063106
 20
1661.244622954002
 30
0.0
 40
4.5
  0
LINE
  5
2402B
330
2A85E
100
AcDbEntity
  8
KISO
100
AcDbLine
 10
2141.306080631061
 20
2050.744622954003
 30
0.0
 11
1681.30608063106
 21
2050.744622954002
 31
0.0
  0
LINE
  5
24030
330
2A85E
100
AcDbEntity
  8
HATCH
100
AcDbLine
 10
1821.607595821224
 20
2050.744622954002
 30
0.0
 11
1681.30608063106
 21
1910.443107763828
 31
0.0
  0
LINE
  5
24031
330
2A85E
100
AcDbEntity
  8
HATCH
100
AcDbLine
 10
1851.30608063106
 20
2050.744622954002
 30
0.0
 11
1681.30608063106
 21
1880.744622953998
 31
0.0
  0
LINE
  5
24032
330
2A85E
100
AcDbEntity
  8
HATCH
100
AcDbLine
 10
1791.909111011395
 20
2050.744622954002
 30
0.0
 11
1681.30608063106
 21
1940.141592573666
 31
0.0
  0
LINE
  5
24033
330
2A85E
100
AcDbEntity
  8
KISO
100
AcDbLine
 10
2141.306080631061
 20
2200.744622954001
 30
0.0
 11
2141.306080631061
 21
2050.744622954003
 31
0.0
  0
LINE
  5
24034
330
2A85E
100
AcDbEntity
  8
KISO
100
AcDbLine
 10
2336.756080631058
 20
2182.744622954003
 30
0.0
 11
2241.30608063106
 21
2062.744622954003
 31
0.0
  0
CIRCLE
  5
24035
330
2A85E
100
AcDbEntity
  8
U7
100
AcDbCircle
 10
2176.80608063106
 20
1861.244622954004
 30
0.0
 40
4.5
  0
CIRCLE
  5
24036
330
2A85E
100
AcDbEntity
  8
U7
100
AcDbCircle
 10
2176.80608063106
 20
1961.244622954002
 30
0.0
 40
4.5
  0
CIRCLE
  5
24037
330
2A85E
100
AcDbEntity
  8
U7
100
AcDbCircle
 10
2176.80608063106
 20
2061.244622954002
 30
0.0
 40
4.5
  0
LINE
  5
24038
330
2A85E
100
AcDbEntity
  8
HATCH
100
AcDbLine
 10
2231.703050250733
 20
2169.744622954002
 30
0.0
 11
2200.703050250726
 21
2200.744622954001
 31
0.0
  0
LINE
  5
24039
330
2A85E
100
AcDbEntity
  8
HATCH
100
AcDbLine
 10
2202.004565440896
 20
2169.744622954002
 30
0.0
 11
2171.004565440897
 21
2200.744622954003
 31
0.0
  0
LINE
  5
2403A
330
2A85E
100
AcDbEntity
  8
HATCH
100
AcDbLine
 10
2172.306080631061
 20
2169.744622954002
 30
0.0
 11
2141.306080631061
 21
2200.744622954001
 31
0.0
  0
CIRCLE
  5
2403B
330
2A85E
100
AcDbEntity
  8
U7
100
AcDbCircle
 10
2176.80608063106
 20
2161.244622954002
 30
0.0
 40
4.5
  0
TEXT
  5
2403D
330
2A85E
100
AcDbEntity
  8
HIKIDASHI
100
AcDbText
 10
3252.877259411718
 20
977.4302402870016
 30
0.0
 40
90.0
  1
主筋
  7
01
100
AcDbText
  0
LINE
  5
2403F
330
2A85E
100
AcDbEntity
  8
U1
100
AcDbLine
 10
2581.306080631061
 20
2161.244622954003
 30
0.0
 11
2581.306080631061
 21
1656.744622954002
 31
0.0
  0
CIRCLE
  5
24040
330
2A85E
100
AcDbEntity
  8
U7
100
AcDbCircle
 10
2585.806080631061
 20
1761.244622954002
 30
0.0
 40
4.5
  0
LINE
  5
24041
330
2A85E
100
AcDbEntity
  8
KISO
100
AcDbLine
 10
2681.306080631061
 20
1570.744622954002
 30
0.0
 11
2681.306080631061
 21
2050.744622954003
 31
0.0
  0
LINE
  5
24042
330
2A85E
100
AcDbEntity
  8
U1
100
AcDbLine
 10
2594.30608063106
 20
1643.744622954002
 30
0.0
 11
2627.806080631061
 21
1643.744622954002
 31
0.0
  0
LINE
  5
24045
330
2A85E
100
AcDbEntity
  8
HATCH
100
AcDbLine
 10
2583.600019870399
 20
1584.244622954003
 30
0.0
 11
2570.100019870398
 21
1570.744622954004
 31
0.0
  0
LINE
  5
24046
330
2A85E
100
AcDbEntity
  8
HATCH
100
AcDbLine
 10
2553.901535060563
 20
1584.244622954003
 30
0.0
 11
2540.401535060562
 21
1570.744622954004
 31
0.0
  0
LINE
  5
24047
330
2A85E
100
AcDbEntity
  8
HATCH
100
AcDbLine
 10
2524.203050250726
 20
1584.244622954003
 30
0.0
 11
2510.703050250726
 21
1570.744622954004
 31
0.0
  0
ARC
  5
24048
330
2A85E
100
AcDbEntity
  8
U1
100
AcDbCircle
 10
2594.30608063106
 20
1656.744622954003
 30
0.0
 40
13.0
100
AcDbArc
 50
180.0
 51
270.0
  0
CIRCLE
  5
24049
330
2A85E
100
AcDbEntity
  8
U7
100
AcDbCircle
 10
2585.806080631061
 20
1661.244622954004
 30
0.0
 40
4.5
  0
LINE
  5
2404B
330
2A85E
100
AcDbEntity
  8
KISO
100
AcDbLine
 10
2781.306080631061
 20
1420.744622954003
 30
0.0
 11
2781.306080631061
 21
1570.744622954004
 31
0.0
  0
CIRCLE
  5
2404C
330
2A85E
100
AcDbEntity
  8
U7
100
AcDbCircle
 10
2611.306080631061
 20
1627.244622954004
 30
0.0
 40
6.5
  0
LINE
  5
2404D
330
2A85E
100
AcDbEntity
  8
HATCH
100
AcDbLine
 10
2681.306080631061
 20
1741.347653334336
 30
0.0
 11
2611.306080631061
 21
1671.347653334338
 31
0.0
  0
LINE
  5
2404E
330
2A85E
100
AcDbEntity
  8
HATCH
100
AcDbLine
 10
2681.306080631061
 20
1711.6491685245
 30
0.0
 11
2636.901535060562
 21
1667.244622954003
 31
0.0
  0
LINE
  5
2404F
330
2A85E
100
AcDbEntity
  8
HATCH
100
AcDbLine
 10
2681.306080631061
 20
1681.950683714664
 30
0.0
 11
2666.600019870398
 21
1667.244622954003
 31
0.0
  0
LINE
  5
24050
330
2A85E
100
AcDbEntity
  8
U3
100
AcDbLine
 10
3082.666470324264
 20
2170.744622954003
 30
0.0
 11
2621.306080631061
 21
2170.744622954003
 31
0.0
  0
LINE
  5
24051
330
2A85E
100
AcDbEntity
  8
U3
100
AcDbLine
 10
2831.30608063106
 20
2065.744622954003
 30
0.0
 11
2936.306080631061
 21
2170.744622954003
 31
0.0
  0
LINE
  5
24052
330
2A85E
100
AcDbEntity
  8
U3
100
AcDbLine
 10
2799.486275477661
 20
2097.564428107398
 30
0.0
 11
2872.666470324272
 21
2170.744622954003
 31
0.0
  0
LINE
  5
24053
330
2A85E
100
AcDbEntity
  8
KISO
100
AcDbLine
 10
2621.306080631061
 20
2050.744622954003
 30
0.0
 11
2621.306080631061
 21
2200.744622954003
 31
0.0
  0
LINE
  5
24054
330
2A85E
100
AcDbEntity
  8
KISO
100
AcDbLine
 10
2425.856080631056
 20
2182.744622954003
 30
0.0
 11
2521.30608063106
 21
2062.744622954003
 31
0.0
  0
LINE
  5
24055
330
2A85E
100
AcDbEntity
  8
U3
100
AcDbLine
 10
2694.486275477662
 20
2138.924817800609
 30
0.0
 11
2767.666470324272
 21
2065.744622954003
 31
0.0
  0
LINE
  5
24056
330
2A85E
100
AcDbEntity
  8
U3
100
AcDbLine
 10
2621.306080631061
 20
2065.744622954003
 30
0.0
 11
2726.306080631061
 21
2170.744622954003
 31
0.0
  0
LINE
  5
24057
330
2A85E
100
AcDbEntity
  8
U3
100
AcDbLine
 10
2726.306080631061
 20
2170.744622954003
 30
0.0
 11
2831.30608063106
 21
2065.744622954003
 31
0.0
  0
CIRCLE
  5
24058
330
2A85E
100
AcDbEntity
  8
U7
100
AcDbCircle
 10
2585.806080631061
 20
1861.244622954004
 30
0.0
 40
4.5
  0
CIRCLE
  5
24059
330
2A85E
100
AcDbEntity
  8
U7
100
AcDbCircle
 10
2585.806080631061
 20
1961.244622954002
 30
0.0
 40
4.5
  0
CIRCLE
  5
2405A
330
2A85E
100
AcDbEntity
  8
U7
100
AcDbCircle
 10
2585.806080631061
 20
2061.244622954003
 30
0.0
 40
4.5
  0
LINE
  5
2405B
330
2A85E
100
AcDbEntity
  8
HATCH
100
AcDbLine
 10
2681.306080631061
 20
1981.649168524495
 30
0.0
 11
2611.306080631061
 21
1911.649168524498
 31
0.0
  0
LINE
  5
2405C
330
2A85E
100
AcDbEntity
  8
HATCH
100
AcDbLine
 10
2681.306080631061
 20
2011.34765333433
 30
0.0
 11
2611.306080631061
 21
1941.347653334334
 31
0.0
  0
LINE
  5
2405D
330
2A85E
100
AcDbEntity
  8
HATCH
100
AcDbLine
 10
2681.306080631061
 20
2041.046138144167
 30
0.0
 11
2611.306080631061
 21
1971.046138144169
 31
0.0
  0
LINE
  5
2405E
330
2A85E
100
AcDbEntity
  8
KISO
100
AcDbLine
 10
2681.306080631061
 20
2050.744622954003
 30
0.0
 11
2621.306080631061
 21
2050.744622954003
 31
0.0
  0
LINE
  5
2405F
330
2A85E
100
AcDbEntity
  8
U3
100
AcDbLine
 10
2662.666470324271
 20
2107.105012647215
 30
0.0
 11
2704.026860017481
 21
2065.744622954003
 31
0.0
  0
LINE
  5
24060
330
2A85E
100
AcDbEntity
  8
KISO
100
AcDbLine
 10
2621.306080631061
 20
2200.744622954003
 30
0.0
 11
2425.856080631056
 21
2200.744622954003
 31
0.0
  0
LINE
  5
24061
330
2A85E
100
AcDbEntity
  8
HATCH
100
AcDbLine
 10
2501.703050250733
 20
2169.744622954004
 30
0.0
 11
2470.703050250726
 21
2200.744622954003
 31
0.0
  0
LINE
  5
24062
330
2A85E
100
AcDbEntity
  8
HATCH
100
AcDbLine
 10
2472.00456544089
 20
2169.744622954002
 30
0.0
 11
2441.00456544089
 21
2200.744622954003
 31
0.0
  0
LINE
  5
24063
330
2A85E
100
AcDbEntity
  8
HATCH
100
AcDbLine
 10
2531.40153506057
 20
2169.744622954004
 30
0.0
 11
2500.401535060563
 21
2200.744622954003
 31
0.0
  0
CIRCLE
  5
24064
330
2A85E
100
AcDbEntity
  8
U7
100
AcDbCircle
 10
2585.806080631061
 20
2161.244622954003
 30
0.0
 40
4.5
  0
LINE
  5
24065
330
2A85E
100
AcDbEntity
  8
U3
100
AcDbLine
 10
2621.306080631061
 20
2129.384233260791
 30
0.0
 11
2662.666470324271
 21
2170.744622954003
 31
0.0
  0
LINE
  5
24066
330
2A85E
100
AcDbEntity
  8
U3
100
AcDbLine
 10
2767.666470324272
 20
2129.384233260795
 30
0.0
 11
2809.026860017475
 21
2170.744622954003
 31
0.0
  0
LINE
  5
24067
330
2A85E
100
AcDbEntity
  8
U3
100
AcDbLine
 10
2936.306080631061
 20
2170.744622954003
 30
0.0
 11
3041.306080631053
 21
2065.744622954003
 31
0.0
  0
LINE
  5
24068
330
2A85E
100
AcDbEntity
  8
U3
100
AcDbLine
 10
2904.486275477662
 20
2138.924817800609
 30
0.0
 11
2977.666470324272
 21
2065.744622954003
 31
0.0
  0
LINE
  5
24069
330
2A85E
100
AcDbEntity
  8
U3
100
AcDbLine
 10
3009.486275477663
 20
2097.564428107398
 30
0.0
 11
3082.666470324264
 21
2170.744622954003
 31
0.0
  0
LINE
  5
2406A
330
2A85E
100
AcDbEntity
  8
U3
100
AcDbLine
 10
2872.666470324272
 20
2107.105012647215
 30
0.0
 11
2914.026860017482
 21
2065.744622954003
 31
0.0
  0
LINE
  5
2406B
330
2A85E
100
AcDbEntity
  8
U3
100
AcDbLine
 10
2977.666470324264
 20
2129.384233260795
 30
0.0
 11
3019.026860017475
 21
2170.744622954003
 31
0.0
  0
TEXT
  5
2406C
330
2A85E
100
AcDbEntity
  8
HIKIDASHI
100
AcDbText
 10
3502.141212445502
 20
977.4302402870016
 30
0.0
 40
90.0
  1
4-D13
 41
0.6700000000000001
  7
00
100
AcDbText
  0
TEXT
  5
240F9
330
2A85E
100
AcDbEntity
  8
SUNPOU
100
AcDbText
 10
2780.557704049091
 20
2305.744622954003
 30
0.0
 40
90.0
  1
G.L
 41
0.6666666666666666
  7
00
 72
     4
 11
2851.986275477663
 21
2350.744622954003
 31
0.0
100
AcDbText
  0
LINE
  5
240FA
330
2A85E
100
AcDbEntity
  8
SUNPOU
100
AcDbLine
 10
2851.986275477663
 20
2170.744622954003
 30
0.0
 11
2903.947799704729
 21
2260.744622954003
 31
0.0
  0
LINE
  5
240FB
330
2A85E
100
AcDbEntity
  8
SUNPOU
100
AcDbLine
 10
2903.947799704729
 20
2260.744622954003
 30
0.0
 11
2800.024751250596
 21
2260.744622954003
 31
0.0
  0
LINE
  5
240FC
330
2A85E
100
AcDbEntity
  8
SUNPOU
100
AcDbLine
 10
2800.024751250596
 20
2260.744622954003
 30
0.0
 11
2851.986275477663
 21
2170.744622954003
 31
0.0
  0
LINE
  5
240FD
330
2A85E
100
AcDbEntity
  8
HIKIDASHI
100
AcDbLine
 10
1833.492404013275
 20
581.6956041113334
 30
0.0
 11
2557.509683509838
 21
581.6956041113334
 31
0.0
  0
LINE
  5
240FE
330
2A85E
100
AcDbEntity
  8
HIKIDASHI
100
AcDbLine
 10
1833.492404013275
 20
551.6956041113334
 30
0.0
 11
2557.509683509838
 21
551.6956041113334
 31
0.0
  0
TEXT
  5
240FF
330
2A85E
100
AcDbEntity
  8
HIKIDASHI
100
AcDbText
 10
1863.492404013275
 20
626.6956041113334
 30
0.0
 40
90.0
  1
A  ~  A'
 41
0.6700000000000001
  7
00
100
AcDbText
  0
TEXT
  5
24100
330
2A85E
100
AcDbEntity
  8
HIKIDASHI
100
AcDbText
 10
2227.509683509838
 20
626.6956041113334
 30
0.0
 40
90.0
  1
断  面
  7
01
100
AcDbText
  0
LINE
  5
24107
330
2A85E
100
AcDbEntity
  8
HATCH
100
AcDbLine
 10
1741.197912084083
 20
2200.744622954001
 30
0.0
 11
1651.19791208409
 21
2110.744622954002
 31
0.0
  0
LINE
  5
24108
330
2A85E
100
AcDbEntity
  8
HATCH
100
AcDbLine
 10
1770.896396893957
 20
2200.744622954001
 30
0.0
 11
1680.89639689395
 21
2110.744622954003
 31
0.0
  0
LINE
  5
24109
330
2A85E
100
AcDbEntity
  8
HATCH
100
AcDbLine
 10
1441.499427274255
 20
2200.744622954
 30
0.0
 11
1351.499427274261
 21
2110.744622954002
 31
0.0
  0
LINE
  5
2410A
330
2A85E
100
AcDbEntity
  8
HATCH
100
AcDbLine
 10
1411.800942464433
 20
2200.744622954001
 30
0.0
 11
1321.800942464426
 21
2110.744622954002
 31
0.0
  0
LINE
  5
2410B
330
2A85E
100
AcDbEntity
  8
HATCH
100
AcDbLine
 10
1471.197912084099
 20
2200.744622954
 30
0.0
 11
1381.197912084099
 21
2110.744622954002
 31
0.0
  0
LINE
  5
2410C
330
2A85E
100
AcDbEntity
  8
HATCH
100
AcDbLine
 10
1711.499427274248
 20
2200.744622954001
 30
0.0
 11
1621.499427274248
 21
2110.744622954003
 31
0.0
  0
LINE
  5
2410D
330
2A85E
100
AcDbEntity
  8
HATCH
100
AcDbLine
 10
2070.594881703815
 20
2200.744622954003
 30
0.0
 11
1920.594881703808
 21
2050.744622954003
 31
0.0
  0
LINE
  5
2410E
330
2A85E
100
AcDbEntity
  8
HATCH
100
AcDbLine
 10
2011.197912084106
 20
2200.744622954003
 30
0.0
 11
1861.197912084113
 21
2050.744622954002
 31
0.0
  0
LINE
  5
2410F
330
2A85E
100
AcDbEntity
  8
HATCH
100
AcDbLine
 10
2040.89639689395
 20
2200.744622954001
 30
0.0
 11
1890.89639689395
 21
2050.744622954002
 31
0.0
  0
LINE
  5
24110
330
2A85E
100
AcDbEntity
  8
HATCH
100
AcDbLine
 10
1141.800942464439
 20
2200.744622954
 30
0.0
 11
1077.057301727902
 21
2136.000982217467
 31
0.0
  0
LINE
  5
24111
330
2A85E
100
AcDbEntity
  8
HATCH
100
AcDbLine
 10
1112.102457654611
 20
2200.744622954
 30
0.0
 11
1077.057301727902
 21
2165.699467027298
 31
0.0
  0
LINE
  5
24112
330
2A85E
100
AcDbEntity
  8
HATCH
100
AcDbLine
 10
1171.499427274276
 20
2200.744622954
 30
0.0
 11
1081.499427274277
 21
2110.744622954002
 31
0.0
  0
TEXT
  5
24113
330
2A85E
100
AcDbEntity
  8
HIKIDASHI
100
AcDbText
 10
2895.985948906207
 20
2633.077046087619
 30
0.0
 40
90.00009018009018
  1
アンカーボルト
  7
01
100
AcDbText
  0
LINE
  5
24114
330
2A85E
100
AcDbEntity
  8
HIKIDASHI
100
AcDbLine
 10
2861.708263957677
 20
2588.077046087621
 30
0.0
 11
4605.935503113104
 21
2588.077046087621
 31
0.0
  0
TEXT
  5
24115
330
2A85E
100
AcDbEntity
  8
HIKIDASHI
100
AcDbText
 10
3656.323003511591
 20
2633.077046087619
 30
0.0
 40
89.55223880597012
  1
W ／
 41
0.6700000000000001
  7
00
100
AcDbText
  0
TEXT
  5
24116
330
2A85E
100
AcDbEntity
  8
HIKIDASHI
100
AcDbText
 10
3730.923814194816
 20
2659.506655726517
 30
0.0
 40
67.16417910447761
  1
1
 41
0.6700000000000001
  7
00
100
AcDbText
  0
TEXT
  5
24117
330
2A85E
100
AcDbEntity
  8
HIKIDASHI
100
AcDbText
 10
3971.786167097249
 20
2632.868059887531
 30
0.0
 40
89.55223880597012
  1
400
 41
0.6700000000000001
  7
00
100
AcDbText
  0
TEXT
  5
24118
330
2A85E
100
AcDbEntity
  8
HIKIDASHI
100
AcDbText
 10
3818.815850753738
 20
2632.480600695954
 30
0.0
 40
67.16417910447761
  1
2
 41
0.6700000000000001
  7
00
100
AcDbText
  0
TEXT
  5
24119
330
2A85E
100
AcDbEntity
  8
HIKIDASHI
100
AcDbText
 10
3890.650787944112
 20
2644.27107593837
 30
0.0
 40
89.55223880597012
  1
x
 41
0.6700000000000001
  7
00
100
AcDbText
  0
TEXT
  5
2411B
330
2A85E
100
AcDbEntity
  8
HIKIDASHI
100
AcDbText
 10
4213.506321158749
 20
2633.077046087619
 30
0.0
 40
90.00009018009018
  1
（別途）
  7
01
100
AcDbText
  0
CIRCLE
  5
2411C
330
2A85E
100
AcDbEntity
  8
U7
100
AcDbCircle
 10
1923.30608063106
 20
1627.244622953999
 30
0.0
 40
6.5
  0
CIRCLE
  5
2411D
330
2A85E
100
AcDbEntity
  8
U7
100
AcDbCircle
 10
2095.306080631061
 20
1627.244622953999
 30
0.0
 40
6.5
  0
CIRCLE
  5
2411E
330
2A85E
100
AcDbEntity
  8
U7
100
AcDbCircle
 10
2267.30608063106
 20
1627.244622953999
 30
0.0
 40
6.5
  0
CIRCLE
  5
2411F
330
2A85E
100
AcDbEntity
  8
U7
100
AcDbCircle
 10
2439.306080631061
 20
1627.244622953999
 30
0.0
 40
6.5
  0
TEXT
  5
241FF
330
2A85E
100
AcDbEntity
  8
HIKIDASHI
100
AcDbText
 10
5517.309722235979
 20
3944.765939479724
 30
0.0
 40
135.0
  1
基 礎 伏 図
  7
01
 72
     2
 11
6363.309722235979
 21
3944.765939479724
 31
0.0
100
AcDbText
  0
TEXT
  5
24200
330
2A85E
100
AcDbEntity
  8
HIKIDASHI
100
AcDbText
 10
6464.559722235979
 20
3971.559436539563
 30
0.0
 40
90.0
  1
(S=
 41
0.6700000000000001
  7
00
100
AcDbText
  0
TEXT
  5
24201
330
2A85E
100
AcDbEntity
  8
HIKIDASHI
100
AcDbText
 10
6757.21745687117
 20
3942.120626439253
 30
0.0
 40
90.0
  1
30
 41
0.6700000000000001
  7
00
100
AcDbText
  0
TEXT
  5
24202
330
2A85E
100
AcDbEntity
  8
HIKIDASHI
100
AcDbText
 10
6893.822219941416
 20
3971.559436539563
 30
0.0
 40
90.0
  1
)
 41
0.6700000000000001
  7
00
100
AcDbText
  0
TEXT
  5
24203
330
2A85E
100
AcDbEntity
  8
HIKIDASHI
100
AcDbText
 10
6705.135407763205
 20
3971.559436539563
 30
0.0
 40
90.0
  1
/
 41
0.6700000000000001
  7
00
100
AcDbText
  0
TEXT
  5
24204
330
2A85E
100
AcDbEntity
  8
HIKIDASHI
100
AcDbText
 10
6667.856127665865
 20
3989.066099006286
 30
0.0
 40
90.0
  1
1
 41
0.6700000000000001
  7
00
100
AcDbText
  0
TEXT
  5
24205
330
2A85E
100
AcDbEntity
  8
HIKIDASHI
100
AcDbText
 10
5668.586907410769
 20
3764.765939479724
 30
0.0
 40
120.0
  1
（  ：スパン数）
  7
01
 72
     4
 11
6224.586907410769
 21
3824.765939479724
 31
0.0
100
AcDbText
  0
TEXT
  5
24206
330
2A85E
100
AcDbEntity
  8
HIKIDASHI
100
AcDbText
 10
5847.176590721074
 20
3764.765939479724
 30
0.0
 40
120.0
  1
N
 41
0.6666666666666666
  7
00
 72
     4
 11
5889.081352625836
 21
3824.765939479724
 31
0.0
100
AcDbText
  0
TEXT
  5
24213
330
2A85E
100
AcDbEntity
  8
NAME
100
AcDbText
 10
9402.694977008243
 20
716.25
 30
0.0
 40
120.0
  1
YOR
 41
0.7
  7
01
100
AcDbText
  0
TEXT
  5
24214
330
2A85E
100
AcDbEntity
  8
NAME
100
AcDbText
 10
8327.765992739108
 20
716.25
 30
0.0
 40
120.0
  1
ヨド自転車置場      型
  7
01
100
AcDbText
  0
TEXT
  5
24215
330
2A85E
100
AcDbEntity
  8
NAME
100
AcDbText
 10
8862.031985478221
 20
405.75
 30
0.0
 40
120.0
  1
型（一般地用）
 41
0.8
  7
01
100
AcDbText
  0
TEXT
  5
24216
330
2A85E
100
AcDbEntity
  8
NAME
100
AcDbText
 10
8172.031985478223
 20
405.75
 30
0.0
 40
120.0
  1
YOR-240B
 41
0.7
  7
01
 72
     2
 11
8832.031985478222
 21
405.75
 31
0.0
100
AcDbText
  0
TEXT
  5
24217
330
2A85E
100
AcDbEntity
  8
NAME
100
AcDbText
 10
9641.10000000001
 20
405.75
 30
0.0
 40
120.0
  1
<3／3>
 41
0.6
  7
01
 72
     2
 11
10015.50000000001
 21
405.75
 31
0.0
100
AcDbText
  0
LINE
  5
24219
330
2A85E
100
AcDbEntity
  8
HATCH
100
AcDbLine
 10
1838.066929828396
 20
1570.744622953999
 30
0.0
 11
1888.066929828396
 21
1520.744622954
 31
0.0
  0
LINE
  5
2421A
330
2A85E
100
AcDbEntity
  8
HATCH
100
AcDbLine
 10
1597.765414638248
 20
1570.744622953999
 30
0.0
 11
1647.765414638248
 21
1520.744622954
 31
0.0
  0
LINE
  5
2421B
330
2A85E
100
AcDbEntity
  8
HATCH
100
AcDbLine
 10
1581.306080631059
 20
1557.505472151351
 30
0.0
 11
1618.066929828412
 21
1520.744622954
 31
0.0
  0
LINE
  5
2421C
330
2A85E
100
AcDbEntity
  8
HATCH
100
AcDbLine
 10
1867.765414638234
 20
1570.744622953999
 30
0.0
 11
1917.765414638241
 21
1520.744622954
 31
0.0
  0
LINE
  5
2421D
330
2A85E
100
AcDbEntity
  8
HATCH
100
AcDbLine
 10
1897.463899448077
 20
1570.744622954002
 30
0.0
 11
1947.463899448084
 21
1520.744622954002
 31
0.0
  0
LINE
  5
2421E
330
2A85E
100
AcDbEntity
  8
HATCH
100
AcDbLine
 10
1581.306080631053
 20
1527.806987341515
 30
0.0
 11
1588.368445018575
 21
1520.744622954
 31
0.0
  0
LINE
  5
24220
330
2A85E
100
AcDbEntity
  8
HATCH
100
AcDbLine
 10
2137.765414638227
 20
1570.744622953999
 30
0.0
 11
2187.765414638227
 21
1520.744622954
 31
0.0
  0
LINE
  5
24221
330
2A85E
100
AcDbEntity
  8
HATCH
100
AcDbLine
 10
2167.463899448062
 20
1570.744622953999
 30
0.0
 11
2217.46389944807
 21
1520.744622954
 31
0.0
  0
LINE
  5
24222
330
2A85E
100
AcDbEntity
  8
HATCH
100
AcDbLine
 10
2197.162384257907
 20
1570.744622954002
 30
0.0
 11
2247.162384257914
 21
1520.744622954002
 31
0.0
  0
LINE
  5
24223
330
2A85E
100
AcDbEntity
  8
HATCH
100
AcDbLine
 10
2437.463899448056
 20
1570.744622954002
 30
0.0
 11
2487.463899448056
 21
1520.744622954002
 31
0.0
  0
LINE
  5
24224
330
2A85E
100
AcDbEntity
  8
HATCH
100
AcDbLine
 10
2467.162384257885
 20
1570.744622954002
 30
0.0
 11
2517.162384257892
 21
1520.744622954002
 31
0.0
  0
LINE
  5
24225
330
2A85E
100
AcDbEntity
  8
HATCH
100
AcDbLine
 10
2496.860869067736
 20
1570.744622954004
 30
0.0
 11
2546.860869067742
 21
1520.744622954004
 31
0.0
  0
LINE
  5
24226
330
2A85E
100
AcDbEntity
  8
HATCH
100
AcDbLine
 10
2737.162384257885
 20
1570.744622954002
 30
0.0
 11
2781.306080631061
 21
1526.600926580826
 31
0.0
  0
LINE
  5
24227
330
2A85E
100
AcDbEntity
  8
HATCH
100
AcDbLine
 10
2766.860869067714
 20
1570.744622954002
 30
0.0
 11
2781.306080631052
 21
1556.299411390662
 31
0.0
  0
TEXT
  5
27D15
330
2A85E
100
AcDbEntity
  8
SUNPOU
100
AcDbText
 10
5806.326124563224
 20
4493.464770760361
 30
0.0
 40
90.0
  1
2400 ×（ N - 2 ）
 41
0.6666666666666666
  7
00
 72
     4
 11
6196.04041027751
 21
4538.464770760362
 31
0.0
100
AcDbText
  0
LINE
  5
27D16
330
2A85E
100
AcDbEntity
  8
SUNPOU
100
AcDbLine
 10
7381.040410277511
 20
4448.464770760362
 30
0.0
 11
5011.04041027751
 21
4448.464770760362
 31
0.0
  0
LINE
  5
27D1B
330
2A85E
100
AcDbEntity
  8
SUNPOU
100
AcDbLine
 10
4996.04041027751
 20
6101.464770760363
 30
0.0
 11
4996.04041027751
 21
4403.464770760365
 31
0.0
  0
LINE
  5
27D1C
330
2A85E
100
AcDbEntity
  8
SUNPOU
100
AcDbLine
 10
2196.04041027751
 20
4868.464770760365
 30
0.0
 11
2196.04041027751
 21
4403.464770760365
 31
0.0
  0
LINE
  5
27D1D
330
2A85E
100
AcDbEntity
  8
SUNPOU
100
AcDbLine
 10
2596.04041027751
 20
6101.464770760363
 30
0.0
 11
2596.04041027751
 21
4403.464770760365
 31
0.0
  0
LINE
  5
27D1E
330
2A85E
100
AcDbEntity
  8
SUNPOU
100
AcDbLine
 10
2581.04041027751
 20
4448.464770760362
 30
0.0
 11
2211.04041027751
 21
4448.464770760362
 31
0.0
  0
LINE
  5
27D3D
330
2A85E
100
AcDbEntity
  8
SUNPOU
100
AcDbLine
 10
4981.04041027751
 20
4448.464770760362
 30
0.0
 11
2611.040410277511
 21
4448.464770760362
 31
0.0
  0
LINE
  5
27DBE
330
2A85E
100
AcDbEntity
  8
KISO-1
100
AcDbLine
 10
2196.04041027751
 20
6198.464770760363
 30
0.0
 11
2996.04041027751
 21
6198.464770760363
 31
0.0
  0
LINE
  5
27DBF
330
2A85E
100
AcDbEntity
  8
KISO-1
100
AcDbLine
 10
2996.04041027751
 20
7198.464770760367
 30
0.0
 11
2196.04041027751
 21
7198.464770760367
 31
0.0
  0
TEXT
  5
27DC0
330
2A85E
100
AcDbEntity
  8
SUNPOU
100
AcDbText
 10
2310.326124563224
 20
4493.464770760361
 30
0.0
 40
90.0
  1
400
 41
0.6666666666666666
  7
00
 72
     1
 11
2396.04041027751
 21
4538.464770760362
 31
0.0
100
AcDbText
 73
     2
  0
LINE
  5
27DC3
330
2A85E
100
AcDbEntity
  8
SUNPOU
100
AcDbLine
 10
2446.49041027751
 20
6898.464770760367
 30
0.0
 11
1701.04041027751
 21
6898.464770760367
 31
0.0
  0
TEXT
  5
27DC4
330
2A85E
100
AcDbEntity
  8
HIKIDASHI
100
AcDbText
 10
2151.040410277507
 20
5057.939776035563
 30
0.0
 40
90.0
  1
（土間コン側面位置）
 50
90.0
  7
01
100
AcDbText
  0
TEXT
  5
27DC5
330
2A85E
100
AcDbEntity
  8
SUNPOU
100
AcDbText
 10
1701.04041027751
 20
5784.179056474648
 30
0.0
 40
90.0
  1
2000
 50
90.0
 41
0.6666666666666666
  7
00
 72
     1
 11
1656.04041027751
 21
5898.464770760362
 31
0.0
100
AcDbText
 73
     2
  0
LINE
  5
27DC6
330
2A85E
100
AcDbEntity
  8
SUNPOU
100
AcDbLine
 10
1746.04041027751
 20
6883.464770760365
 30
0.0
 11
1746.04041027751
 21
4913.464770760362
 31
0.0
  0
LINE
  5
27DC7
330
2A85E
100
AcDbEntity
  8
SUNPOU
100
AcDbLine
 10
2166.040410277509
 20
4898.464770760362
 30
0.0
 11
1701.04041027751
 21
4898.464770760362
 31
0.0
  0
LINE
  5
27DC8
330
2A85E
100
AcDbEntity
  8
SUNPOU
100
AcDbLine
 10
2166.040410277509
 20
7138.464770760363
 30
0.0
 11
1701.04041027751
 21
7138.464770760363
 31
0.0
  0
TEXT
  5
27DC9
330
2A85E
100
AcDbEntity
  8
SUNPOU
100
AcDbText
 10
1701.04041027751
 20
6932.750485046077
 30
0.0
 40
90.0
  1
240
 50
90.0
 41
0.6666666666666666
  7
00
 72
     4
 11
1656.04041027751
 21
7018.464770760363
 31
0.0
100
AcDbText
  0
LINE
  5
27DCA
330
2A85E
100
AcDbEntity
  8
SUNPOU
100
AcDbLine
 10
1746.04041027751
 20
7123.464770760365
 30
0.0
 11
1746.04041027751
 21
6913.464770760363
 31
0.0
  0
LINE
  5
27DCB
330
2A85E
100
AcDbEntity
  8
KISO-1
100
AcDbLine
 10
2196.04041027751
 20
7198.464770760367
 30
0.0
 11
2196.04041027751
 21
7138.464770760363
 31
0.0
  0
LINE
  5
27DCC
330
2A85E
100
AcDbEntity
  8
SIN
100
AcDbLine
 10
4996.04041027751
 20
7265.464770760366
 30
0.0
 11
4996.04041027751
 21
6131.464770760363
 31
0.0
  0
TEXT
  5
27DCD
330
2A85E
100
AcDbEntity
  8
HIKIDASHI
100
AcDbText
 10
3271.820460487732
 20
7183.46477076037
 30
0.0
 40
90.0
  1
（土間コン後面位置）
  7
01
100
AcDbText
  0
LINE
  5
27DCE
330
2A85E
100
AcDbEntity
  8
SIN
100
AcDbLine
 10
2596.04041027751
 20
7265.464770760366
 30
0.0
 11
2596.04041027751
 21
6131.464770760363
 31
0.0
  0
TEXT
  5
27DCF
330
2A85E
100
AcDbEntity
  8
HIKIDASHI
100
AcDbText
 10
2509.239757226278
 20
5166.585865697096
 30
0.0
 40
90.0
  1
（ケラバ外面）
 50
90.0
  7
01
100
AcDbText
  0
TEXT
  5
27DD0
330
2A85E
100
AcDbEntity
  8
HIKIDASHI
100
AcDbText
 10
3271.820460487732
 20
4763.464770760356
 30
0.0
 40
90.0
  1
（土間コン前面位置）
  7
01
100
AcDbText
  0
TEXT
  5
27DD1
330
2A85E
100
AcDbEntity
  8
HIKIDASHI
100
AcDbText
 10
3380.466550149267
 20
5054.915498379021
 30
0.0
 40
90.0
  1
（鼻隠し外面）
  7
01
100
AcDbText
  0
TEXT
  5
27DD2
330
2A85E
100
AcDbEntity
  8
SUNPOU
100
AcDbText
 10
3681.754695991796
 20
4493.464770760361
 30
0.0
 40
90.0
  1
2400
 41
0.6666666666666666
  7
00
 72
     4
 11
3796.040410277511
 21
4538.464770760362
 31
0.0
100
AcDbText
  0
LINE
  5
27DD3
330
2A85E
100
AcDbEntity
  8
KISO-1
100
AcDbLine
 10
2996.04041027751
 20
6198.464770760363
 30
0.0
 11
2996.04041027751
 21
7198.464770760367
 31
0.0
  0
CIRCLE
  5
27DD4
330
2A85E
100
AcDbEntity
  8
KISO-2
100
AcDbCircle
 10
2596.04041027751
 20
6898.464770760367
 30
0.0
 40
44.55
  0
LINE
  5
27DD6
330
2A85E
100
AcDbEntity
  8
BOLT
100
AcDbLine
 10
2466.04041027751
 20
6798.464770760365
 30
0.0
 11
2526.04041027751
 21
6798.464770760365
 31
0.0
  0
LINE
  5
27DD7
330
2A85E
100
AcDbEntity
  8
BOLT
100
AcDbLine
 10
2496.04041027751
 20
6768.464770760366
 30
0.0
 11
2496.04041027751
 21
6828.464770760366
 31
0.0
  0
LINE
  5
27DD8
330
2A85E
100
AcDbEntity
  8
BOLT
100
AcDbLine
 10
2726.04041027751
 20
6798.464770760365
 30
0.0
 11
2666.04041027751
 21
6798.464770760365
 31
0.0
  0
LINE
  5
27DD9
330
2A85E
100
AcDbEntity
  8
BOLT
100
AcDbLine
 10
2696.04041027751
 20
6768.464770760366
 30
0.0
 11
2696.04041027751
 21
6828.464770760366
 31
0.0
  0
LINE
  5
27DDA
330
2A85E
100
AcDbEntity
  8
SIN
100
AcDbLine
 10
2715.590410277509
 20
6898.464770760367
 30
0.0
 11
2476.490410277511
 21
6898.464770760367
 31
0.0
  0
LINE
  5
27DDB
330
2A85E
100
AcDbEntity
  8
BOLT
100
AcDbLine
 10
2466.04041027751
 20
6998.464770760365
 30
0.0
 11
2526.04041027751
 21
6998.464770760365
 31
0.0
  0
LINE
  5
27DDC
330
2A85E
100
AcDbEntity
  8
BOLT
100
AcDbLine
 10
2496.04041027751
 20
7028.464770760365
 30
0.0
 11
2496.04041027751
 21
6968.464770760363
 31
0.0
  0
LINE
  5
27DDD
330
2A85E
100
AcDbEntity
  8
BOLT
100
AcDbLine
 10
2726.04041027751
 20
6998.464770760365
 30
0.0
 11
2666.04041027751
 21
6998.464770760365
 31
0.0
  0
LINE
  5
27DDE
330
2A85E
100
AcDbEntity
  8
BOLT
100
AcDbLine
 10
2696.04041027751
 20
7028.464770760365
 30
0.0
 11
2696.04041027751
 21
6968.464770760363
 31
0.0
  0
TEXT
  5
27DDF
330
2A85E
100
AcDbEntity
  8
HIKIDASHI
100
AcDbText
 10
3380.466550149267
 20
6892.014043141705
 30
0.0
 40
90.0
  1
（屋根後面位置）
  7
01
100
AcDbText
  0
LINE
  5
27DE0
330
2A85E
100
AcDbEntity
  8
U2
100
AcDbLine
 10
6136.04041027751
 20
7213.464770760366
 30
0.0
 11
6136.04041027751
 21
4823.464770760362
 31
0.0
  0
LINE
  5
27DE1
330
2A85E
100
AcDbEntity
  8
U2
100
AcDbLine
 10
6256.04041027751
 20
7213.464770760366
 30
0.0
 11
6256.04041027751
 21
4823.464770760362
 31
0.0
  0
CIRCLE
  5
27DE4
330
2A85E
100
AcDbEntity
  8
KISO-2
100
AcDbCircle
 10
4996.04041027751
 20
6898.464770760367
 30
0.0
 40
44.55
  0
LINE
  5
27DE6
330
2A85E
100
AcDbEntity
  8
BOLT
100
AcDbLine
 10
5126.040410277511
 20
6798.464770760365
 30
0.0
 11
5066.04041027751
 21
6798.464770760365
 31
0.0
  0
LINE
  5
27DE7
330
2A85E
100
AcDbEntity
  8
BOLT
100
AcDbLine
 10
4866.04041027751
 20
6798.464770760365
 30
0.0
 11
4926.040410277511
 21
6798.464770760365
 31
0.0
  0
LINE
  5
27DE8
330
2A85E
100
AcDbEntity
  8
BOLT
100
AcDbLine
 10
4896.04041027751
 20
6768.464770760366
 30
0.0
 11
4896.04041027751
 21
6828.464770760366
 31
0.0
  0
LINE
  5
27DE9
330
2A85E
100
AcDbEntity
  8
BOLT
100
AcDbLine
 10
5096.04041027751
 20
6768.464770760366
 30
0.0
 11
5096.04041027751
 21
6828.464770760366
 31
0.0
  0
LINE
  5
27DEA
330
2A85E
100
AcDbEntity
  8
SIN
100
AcDbLine
 10
5115.590410277506
 20
6898.464770760367
 30
0.0
 11
4876.490410277506
 21
6898.464770760367
 31
0.0
  0
LINE
  5
27DEB
330
2A85E
100
AcDbEntity
  8
BOLT
100
AcDbLine
 10
5126.040410277511
 20
6998.464770760365
 30
0.0
 11
5066.04041027751
 21
6998.464770760365
 31
0.0
  0
LINE
  5
27DEC
330
2A85E
100
AcDbEntity
  8
BOLT
100
AcDbLine
 10
4866.04041027751
 20
6998.464770760365
 30
0.0
 11
4926.040410277511
 21
6998.464770760365
 31
0.0
  0
LINE
  5
27DED
330
2A85E
100
AcDbEntity
  8
BOLT
100
AcDbLine
 10
4896.04041027751
 20
7028.464770760365
 30
0.0
 11
4896.04041027751
 21
6968.464770760363
 31
0.0
  0
LINE
  5
27DEE
330
2A85E
100
AcDbEntity
  8
BOLT
100
AcDbLine
 10
5096.04041027751
 20
7028.464770760365
 30
0.0
 11
5096.04041027751
 21
6968.464770760363
 31
0.0
  0
LINE
  5
27DEF
330
2A85E
100
AcDbEntity
  8
SUNPOU
100
AcDbLine
 10
7396.04041027751
 20
6101.464770760363
 30
0.0
 11
7396.04041027751
 21
4403.464770760365
 31
0.0
  0
LINE
  5
27DF0
330
2A85E
100
AcDbEntity
  8
SUNPOU
100
AcDbLine
 10
10196.0404102775
 20
4868.464770760365
 30
0.0
 11
10196.0404102775
 21
4403.464770760365
 31
0.0
  0
LINE
  5
27DF1
330
2A85E
100
AcDbEntity
  8
SUNPOU
100
AcDbLine
 10
9796.040410277507
 20
6101.464770760363
 30
0.0
 11
9796.040410277507
 21
4403.464770760365
 31
0.0
  0
LINE
  5
27DF4
330
2A85E
100
AcDbEntity
  8
SUNPOU
100
AcDbLine
 10
9781.040410277507
 20
4448.464770760362
 30
0.0
 11
7411.040410277511
 21
4448.464770760362
 31
0.0
  0
LINE
  5
27DF9
330
2A85E
100
AcDbEntity
  8
SUNPOU
100
AcDbLine
 10
10181.04041027749
 20
4448.464770760362
 30
0.0
 11
9811.040410277506
 21
4448.464770760362
 31
0.0
  0
LINE
  5
27DFA
330
2A85E
100
AcDbEntity
  8
SUNPOU
100
AcDbLine
 10
10226.04041027749
 20
7198.464770760367
 30
0.0
 11
10481.0404102775
 21
7198.464770760367
 31
0.0
  0
LINE
  5
27DFB
330
2A85E
100
AcDbEntity
  8
SUNPOU
100
AcDbLine
 10
9956.040410277507
 20
6998.464770760365
 30
0.0
 11
10691.04041027751
 21
6998.464770760365
 31
0.0
  0
LINE
  5
27DFC
330
2A85E
100
AcDbEntity
  8
SUNPOU
100
AcDbLine
 10
9956.040410277507
 20
6798.464770760365
 30
0.0
 11
10691.04041027751
 21
6798.464770760365
 31
0.0
  0
LINE
  5
27DFD
330
2A85E
100
AcDbEntity
  8
SUNPOU
100
AcDbLine
 10
10226.04041027749
 20
6198.464770760363
 30
0.0
 11
10901.0404102775
 21
6198.464770760363
 31
0.0
  0
LINE
  5
27DFE
330
2A85E
100
AcDbEntity
  8
SUNPOU
100
AcDbLine
 10
10226.04041027749
 20
7138.464770760363
 30
0.0
 11
10901.0404102775
 21
7138.464770760363
 31
0.0
  0
LINE
  5
27DFF
330
2A85E
100
AcDbEntity
  8
SUNPOU
100
AcDbLine
 10
10066.04041027749
 20
6658.464770760365
 30
0.0
 11
10901.0404102775
 21
6658.464770760365
 31
0.0
  0
LINE
  5
27E00
330
2A85E
100
AcDbEntity
  8
SIN
100
AcDbLine
 10
7396.04041027751
 20
7265.464770760366
 30
0.0
 11
7396.04041027751
 21
6131.464770760363
 31
0.0
  0
LINE
  5
27E01
330
2A85E
100
AcDbEntity
  8
SIN
100
AcDbLine
 10
9796.040410277507
 20
7265.464770760366
 30
0.0
 11
9796.040410277507
 21
6131.464770760363
 31
0.0
  0
LINE
  5
27E02
330
2A85E
100
AcDbEntity
  8
SUNPOU
100
AcDbLine
 10
9396.040410277507
 20
7228.464770760365
 30
0.0
 11
9396.040410277507
 21
8113.464770760366
 31
0.0
  0
LINE
  5
27E03
330
2A85E
100
AcDbEntity
  8
SUNPOU
100
AcDbLine
 10
10036.0404102775
 20
7168.464770760363
 30
0.0
 11
10036.0404102775
 21
7903.464770760365
 31
0.0
  0
LINE
  5
27E04
330
2A85E
100
AcDbEntity
  8
SUNPOU
100
AcDbLine
 10
9556.040410277507
 20
7168.464770760363
 30
0.0
 11
9556.040410277507
 21
7903.464770760365
 31
0.0
  0
LINE
  5
27E05
330
2A85E
100
AcDbEntity
  8
SUNPOU
100
AcDbLine
 10
9936.040410277506
 20
7068.464770760361
 30
0.0
 11
9936.040410277506
 21
7693.464770760361
 31
0.0
  0
LINE
  5
27E06
330
2A85E
100
AcDbEntity
  8
SUNPOU
100
AcDbLine
 10
9656.040410277507
 20
7068.464770760361
 30
0.0
 11
9656.040410277507
 21
7693.464770760361
 31
0.0
  0
LINE
  5
27E07
330
2A85E
100
AcDbEntity
  8
SUNPOU
100
AcDbLine
 10
9896.040410277507
 20
7058.464770760362
 30
0.0
 11
9896.040410277507
 21
7483.464770760362
 31
0.0
  0
LINE
  5
27E08
330
2A85E
100
AcDbEntity
  8
SUNPOU
100
AcDbLine
 10
9696.040410277507
 20
7058.464770760362
 30
0.0
 11
9696.040410277507
 21
7483.464770760362
 31
0.0
  0
LINE
  5
27E09
330
2A85E
100
AcDbEntity
  8
HIKIDASHI
100
AcDbLine
 10
9653.72462945641
 20
7041.001515975539
 30
0.0
 11
9258.326065489265
 21
7438.464770760361
 31
0.0
  0
LINE
  5
27E0A
330
2A85E
100
AcDbEntity
  8
HIKIDASHI
100
AcDbLine
 10
9846.654774455776
 20
7032.539086226454
 30
0.0
 11
9258.326065489265
 21
7438.464770760366
 31
0.0
  0
LINE
  5
27E0B
330
2A85E
100
AcDbEntity
  8
SUNPOU
100
AcDbLine
 10
10196.0404102775
 20
7228.464770760365
 30
0.0
 11
10196.0404102775
 21
8113.464770760366
 31
0.0
  0
LINE
  5
27E0C
330
2A85E
100
AcDbEntity
  8
BOLT
100
AcDbLine
 10
7266.04041027751
 20
6998.464770760365
 30
0.0
 11
7326.04041027751
 21
6998.464770760365
 31
0.0
  0
LINE
  5
27E0D
330
2A85E
100
AcDbEntity
  8
SIN
100
AcDbLine
 10
7515.590410277512
 20
6898.464770760367
 30
0.0
 11
7276.490410277507
 21
6898.464770760367
 31
0.0
  0
LINE
  5
27E0E
330
2A85E
100
AcDbEntity
  8
BOLT
100
AcDbLine
 10
7266.04041027751
 20
6798.464770760365
 30
0.0
 11
7326.04041027751
 21
6798.464770760365
 31
0.0
  0
CIRCLE
  5
27E12
330
2A85E
100
AcDbEntity
  8
KISO-2
100
AcDbCircle
 10
7396.04041027751
 20
6898.464770760367
 30
0.0
 40
44.55
  0
LINE
  5
27E13
330
2A85E
100
AcDbEntity
  8
BOLT
100
AcDbLine
 10
7296.04041027751
 20
6768.464770760366
 30
0.0
 11
7296.04041027751
 21
6828.464770760366
 31
0.0
  0
LINE
  5
27E14
330
2A85E
100
AcDbEntity
  8
BOLT
100
AcDbLine
 10
7496.04041027751
 20
6768.464770760366
 30
0.0
 11
7496.04041027751
 21
6828.464770760366
 31
0.0
  0
LINE
  5
27E15
330
2A85E
100
AcDbEntity
  8
BOLT
100
AcDbLine
 10
7526.040410277508
 20
6798.464770760365
 30
0.0
 11
7466.040410277511
 21
6798.464770760365
 31
0.0
  0
LINE
  5
27E16
330
2A85E
100
AcDbEntity
  8
BOLT
100
AcDbLine
 10
7296.04041027751
 20
7028.464770760365
 30
0.0
 11
7296.04041027751
 21
6968.464770760363
 31
0.0
  0
LINE
  5
27E17
330
2A85E
100
AcDbEntity
  8
BOLT
100
AcDbLine
 10
7496.04041027751
 20
7028.464770760365
 30
0.0
 11
7496.04041027751
 21
6968.464770760363
 31
0.0
  0
LINE
  5
27E18
330
2A85E
100
AcDbEntity
  8
BOLT
100
AcDbLine
 10
7526.040410277508
 20
6998.464770760365
 30
0.0
 11
7466.040410277511
 21
6998.464770760365
 31
0.0
  0
TEXT
  5
27E19
330
2A85E
100
AcDbEntity
  8
HIKIDASHI
100
AcDbText
 10
9972.841063328743
 20
5166.585865697096
 30
0.0
 40
90.0
  1
（ケラバ外面）
 50
90.0
  7
01
100
AcDbText
  0
TEXT
  5
27E1A
330
2A85E
100
AcDbEntity
  8
SUNPOU
100
AcDbText
 10
8481.754695991794
 20
4493.464770760361
 30
0.0
 40
90.0
  1
2400
 41
0.6666666666666666
  7
00
 72
     4
 11
8596.040410277508
 21
4538.464770760362
 31
0.0
100
AcDbText
  0
TEXT
  5
27E1B
330
2A85E
100
AcDbEntity
  8
SUNPOU
100
AcDbText
 10
9910.326124563223
 20
4493.464770760361
 30
0.0
 40
90.0
  1
400
 41
0.6666666666666666
  7
00
 72
     1
 11
9996.040410277508
 21
4538.464770760362
 31
0.0
100
AcDbText
 73
     2
  0
LINE
  5
27E1C
330
2A85E
100
AcDbEntity
  8
SUNPOU
100
AcDbLine
 10
9646.490410277518
 20
6898.464770760367
 30
0.0
 11
8901.040410277508
 21
6898.464770760367
 31
0.0
  0
LINE
  5
27E1D
330
2A85E
100
AcDbEntity
  8
HIKIDASHI
100
AcDbLine
 10
9142.640957241209
 20
6254.879302087657
 30
0.0
 11
9258.32606548928
 21
6254.879302087657
 31
0.0
  0
LINE
  5
27E1E
330
2A85E
100
AcDbEntity
  8
SUNPOU
100
AcDbLine
 10
9366.040410277506
 20
6198.464770760363
 30
0.0
 11
8691.040410277507
 21
6198.464770760363
 31
0.0
  0
LINE
  5
27E1F
330
2A85E
100
AcDbEntity
  8
SUNPOU
100
AcDbLine
 10
9366.040410277506
 20
7198.464770760367
 30
0.0
 11
8691.040410277507
 21
7198.464770760367
 31
0.0
  0
LINE
  5
27E20
330
2A85E
100
AcDbEntity
  8
SUNPOU
100
AcDbLine
 10
8736.040410277507
 20
6213.464770760365
 30
0.0
 11
8736.040410277507
 21
7183.464770760362
 31
0.0
  0
LINE
  5
27E21
330
2A85E
100
AcDbEntity
  8
SUNPOU
100
AcDbLine
 10
8946.040410277507
 20
6213.464770760365
 30
0.0
 11
8946.040410277507
 21
6883.464770760365
 31
0.0
  0
TEXT
  5
27E22
330
2A85E
100
AcDbEntity
  8
SUNPOU
100
AcDbText
 10
8901.040410277508
 20
6462.750485046079
 30
0.0
 40
90.0
  1
700
 50
90.0
 41
0.6666666666666666
  7
00
 72
     1
 11
8856.040410277506
 21
6548.464770760365
 31
0.0
100
AcDbText
 73
     2
  0
TEXT
  5
27E23
330
2A85E
100
AcDbEntity
  8
HIKIDASHI
100
AcDbText
 10
9152.640957241208
 20
6299.879302087657
 30
0.0
 40
90.0
  1
柱
  7
01
100
AcDbText
  0
TEXT
  5
27E24
330
2A85E
100
AcDbEntity
  8
SUNPOU
100
AcDbText
 10
8691.040410277507
 20
6579.893342188937
 30
0.0
 40
90.0
  1
1000
 50
90.0
 41
0.6666666666666666
  7
00
 72
     1
 11
8646.040410277507
 21
6698.464770760367
 31
0.0
100
AcDbText
 73
     2
  0
TEXT
  5
27E25
330
2A85E
100
AcDbEntity
  8
SUNPOU
100
AcDbText
 10
8901.040410277508
 20
6955.312725517732
 30
0.0
 40
90.0
  1
300
 50
90.0
 41
0.6666666666666666
  7
00
 72
     1
 11
8856.040410277506
 21
7041.027011232016
 31
0.0
100
AcDbText
 73
     2
  0
LINE
  5
27E26
330
2A85E
100
AcDbEntity
  8
SUNPOU
100
AcDbLine
 10
8946.040410277507
 20
6913.464770760363
 30
0.0
 11
8946.040410277507
 21
7183.464770760362
 31
0.0
  0
LINE
  5
27E27
330
2A85E
100
AcDbEntity
  8
KISO-1
100
AcDbLine
 10
9396.040410277507
 20
6198.464770760363
 30
0.0
 11
9396.040410277507
 21
7198.464770760367
 31
0.0
  0
LINE
  5
27E28
330
2A85E
100
AcDbEntity
  8
HIKIDASHI
100
AcDbLine
 10
9729.006690675992
 20
6818.232713972658
 30
0.0
 11
9258.32606548928
 21
6254.879302087657
 31
0.0
  0
LINE
  5
27E29
330
2A85E
100
AcDbEntity
  8
KISO-1
100
AcDbLine
 10
10196.0404102775
 20
6198.464770760363
 30
0.0
 11
9396.040410277507
 21
6198.464770760363
 31
0.0
  0
LINE
  5
27E2A
330
2A85E
100
AcDbEntity
  8
KISO-1
100
AcDbLine
 10
9396.040410277507
 20
7198.464770760367
 30
0.0
 11
10196.0404102775
 21
7198.464770760367
 31
0.0
  0
LINE
  5
27E2D
330
2A85E
100
AcDbEntity
  8
SIN
100
AcDbLine
 10
9915.590410277509
 20
6898.464770760367
 30
0.0
 11
9676.490410277516
 21
6898.464770760367
 31
0.0
  0
LINE
  5
27E2E
330
2A85E
100
AcDbEntity
  8
BOLT
100
AcDbLine
 10
9696.040410277507
 20
6768.464770760366
 30
0.0
 11
9696.040410277507
 21
6828.464770760366
 31
0.0
  0
LINE
  5
27E2F
330
2A85E
100
AcDbEntity
  8
BOLT
100
AcDbLine
 10
9666.040410277506
 20
6798.464770760365
 30
0.0
 11
9726.040410277507
 21
6798.464770760365
 31
0.0
  0
LINE
  5
27E30
330
2A85E
100
AcDbEntity
  8
BOLT
100
AcDbLine
 10
9696.040410277507
 20
7028.464770760365
 30
0.0
 11
9696.040410277507
 21
6968.464770760363
 31
0.0
  0
LINE
  5
27E31
330
2A85E
100
AcDbEntity
  8
BOLT
100
AcDbLine
 10
9666.040410277506
 20
6998.464770760365
 30
0.0
 11
9726.040410277507
 21
6998.464770760365
 31
0.0
  0
CIRCLE
  5
27E32
330
2A85E
100
AcDbEntity
  8
KISO-2
100
AcDbCircle
 10
9796.040410277507
 20
6898.464770760367
 30
0.0
 40
44.55
  0
LINE
  5
27E33
330
2A85E
100
AcDbEntity
  8
BOLT
100
AcDbLine
 10
9926.040410277508
 20
6798.464770760365
 30
0.0
 11
9866.040410277506
 21
6798.464770760365
 31
0.0
  0
LINE
  5
27E34
330
2A85E
100
AcDbEntity
  8
BOLT
100
AcDbLine
 10
9896.040410277507
 20
6768.464770760366
 30
0.0
 11
9896.040410277507
 21
6828.464770760366
 31
0.0
  0
LINE
  5
27E35
330
2A85E
100
AcDbEntity
  8
BOLT
100
AcDbLine
 10
9926.040410277508
 20
6998.464770760365
 30
0.0
 11
9866.040410277506
 21
6998.464770760365
 31
0.0
  0
LINE
  5
27E36
330
2A85E
100
AcDbEntity
  8
BOLT
100
AcDbLine
 10
9896.040410277507
 20
7028.464770760365
 30
0.0
 11
9896.040410277507
 21
6968.464770760363
 31
0.0
  0
LINE
  5
27E37
330
2A85E
100
AcDbEntity
  8
KISO-1
100
AcDbLine
 10
10196.0404102775
 20
7198.464770760367
 30
0.0
 11
10196.0404102775
 21
7138.464770760363
 31
0.0
  0
TEXT
  5
27E38
330
2A85E
100
AcDbEntity
  8
SUNPOU
100
AcDbText
 10
9710.326124563222
 20
7903.464770760367
 30
0.0
 40
90.0
  1
480
 41
0.6666666666666666
  7
00
 72
     1
 11
9796.040410277507
 21
7948.464770760367
 31
0.0
100
AcDbText
 73
     2
  0
TEXT
  5
27E39
330
2A85E
100
AcDbEntity
  8
SUNPOU
100
AcDbText
 10
10026.04041027749
 20
7903.464770760367
 30
0.0
 40
90.0
  1
160
 41
0.6666666666666666
  7
00
 72
     4
 11
10116.0404102775
 21
7948.464770760367
 31
0.0
100
AcDbText
  0
TEXT
  5
27E3A
330
2A85E
100
AcDbEntity
  8
SUNPOU
100
AcDbText
 10
9386.040410277507
 20
7903.464770760367
 30
0.0
 40
90.0
  1
160
 41
0.6666666666666666
  7
00
 72
     4
 11
9476.040410277507
 21
7948.464770760367
 31
0.0
100
AcDbText
  0
TEXT
  5
27E3B
330
2A85E
100
AcDbEntity
  8
SUNPOU
100
AcDbText
 10
9710.326124563222
 20
7693.464770760363
 30
0.0
 40
90.0
  1
280
 41
0.6666666666666666
  7
00
 72
     1
 11
9796.040410277507
 21
7738.464770760363
 31
0.0
100
AcDbText
 73
     2
  0
TEXT
  5
27E3C
330
2A85E
100
AcDbEntity
  8
SUNPOU
100
AcDbText
 10
9710.326124563222
 20
7483.464770760365
 30
0.0
 40
90.0
  1
200
 41
0.6666666666666666
  7
00
 72
     1
 11
9796.040410277507
 21
7528.464770760365
 31
0.0
100
AcDbText
 73
     2
  0
LINE
  5
27E3D
330
2A85E
100
AcDbEntity
  8
SUNPOU
100
AcDbLine
 10
9881.040410277506
 20
7438.464770760361
 30
0.0
 11
9711.040410277506
 21
7438.464770760361
 31
0.0
  0
LINE
  5
27E3E
330
2A85E
100
AcDbEntity
  8
SUNPOU
100
AcDbLine
 10
10021.04041027749
 20
7858.464770760362
 30
0.0
 11
9571.040410277507
 21
7858.464770760362
 31
0.0
  0
LINE
  5
27E3F
330
2A85E
100
AcDbEntity
  8
SUNPOU
100
AcDbLine
 10
9921.040410277507
 20
7648.464770760367
 30
0.0
 11
9671.040410277507
 21
7648.464770760367
 31
0.0
  0
LINE
  5
27E40
330
2A85E
100
AcDbEntity
  8
SUNPOU
100
AcDbLine
 10
9541.040410277506
 20
7858.464770760362
 30
0.0
 11
9411.040410277506
 21
7858.464770760362
 31
0.0
  0
LINE
  5
27E41
330
2A85E
100
AcDbEntity
  8
SUNPOU
100
AcDbLine
 10
10181.04041027749
 20
7858.464770760362
 30
0.0
 11
10051.04041027749
 21
7858.464770760362
 31
0.0
  0
TEXT
  5
27E42
330
2A85E
100
AcDbEntity
  8
SUNPOU
100
AcDbText
 10
9710.326124563222
 20
8113.464770760366
 30
0.0
 40
90.0
  1
800
 41
0.6666666666666666
  7
00
 72
     1
 11
9796.040410277507
 21
8158.464770760366
 31
0.0
100
AcDbText
 73
     2
  0
LINE
  5
27E43
330
2A85E
100
AcDbEntity
  8
SUNPOU
100
AcDbLine
 10
10181.04041027749
 20
8068.464770760362
 30
0.0
 11
9411.040410277506
 21
8068.464770760362
 31
0.0
  0
TEXT
  5
27E44
330
2A85E
100
AcDbEntity
  8
SUNPOU
100
AcDbText
 10
10811.04041027749
 20
7221.256328326432
 30
0.0
 40
90.0
  1
60
 50
90.0
 41
0.6666666666666666
  7
00
 72
     4
 11
10766.04041027749
 21
7279.827756897859
 31
0.0
100
AcDbText
  0
LINE
  5
27E45
330
2A85E
100
AcDbEntity
  8
SUNPOU
100
AcDbLine
 10
10856.04041027749
 20
7198.464770760367
 30
0.0
 11
10856.04041027749
 21
7343.484166610044
 31
0.0
  0
TEXT
  5
27E46
330
2A85E
100
AcDbEntity
  8
SUNPOU
100
AcDbText
 10
10601.0404102775
 20
7148.775790791294
 30
0.0
 40
90.0
  1
140
 50
90.0
 41
0.6666666666666666
  7
00
 72
     4
 11
10556.0404102775
 21
7238.775790791293
 31
0.0
100
AcDbText
  0
LINE
  5
27E47
330
2A85E
100
AcDbEntity
  8
SUNPOU
100
AcDbLine
 10
10646.04041027749
 20
7138.464770760363
 30
0.0
 11
10646.04041027749
 21
7323.449541931927
 31
0.0
  0
TEXT
  5
27E48
330
2A85E
100
AcDbEntity
  8
HIKIDASHI
100
AcDbText
 10
10331.04041027749
 20
5057.939776035563
 30
0.0
 40
90.0
  1
（土間コン側面位置）
 50
90.0
  7
01
100
AcDbText
  0
LINE
  5
27E49
330
2A85E
100
AcDbEntity
  8
SUNPOU
100
AcDbLine
 10
10856.04041027749
 20
6643.464770760363
 30
0.0
 11
10856.04041027749
 21
6213.464770760365
 31
0.0
  0
TEXT
  5
27E4A
330
2A85E
100
AcDbEntity
  8
SUNPOU
100
AcDbText
 10
10601.0404102775
 20
6473.314702674582
 30
0.0
 40
90.0
  1
140
 50
90.0
 41
0.6666666666666666
  7
00
 72
     4
 11
10556.0404102775
 21
6563.314702674583
 31
0.0
100
AcDbText
  0
LINE
  5
27E4B
330
2A85E
100
AcDbEntity
  8
SUNPOU
100
AcDbLine
 10
10646.04041027749
 20
6658.464770760365
 30
0.0
 11
10646.04041027749
 21
6480.496028352525
 31
0.0
  0
TEXT
  5
27E4C
330
2A85E
100
AcDbEntity
  8
SUNPOU
100
AcDbText
 10
10811.04041027749
 20
6342.750485046077
 30
0.0
 40
90.0
  1
460
 50
90.0
 41
0.6666666666666666
  7
00
 72
     1
 11
10766.04041027749
 21
6428.464770760363
 31
0.0
100
AcDbText
 73
     2
  0
TEXT
  5
27E4D
330
2A85E
100
AcDbEntity
  8
SUNPOU
100
AcDbText
 10
10811.04041027749
 20
6812.75048504608
 30
0.0
 40
90.0
  1
480
 50
90.0
 41
0.6666666666666666
  7
00
 72
     1
 11
10766.04041027749
 21
6898.464770760367
 31
0.0
100
AcDbText
 73
     2
  0
LINE
  5
27E4E
330
2A85E
100
AcDbEntity
  8
SUNPOU
100
AcDbLine
 10
10676.04041027749
 20
7198.464770760367
 30
0.0
 11
10901.0404102775
 21
7198.464770760367
 31
0.0
  0
TEXT
  5
27E4F
330
2A85E
100
AcDbEntity
  8
SUNPOU
100
AcDbText
 10
10601.0404102775
 20
6812.75048504608
 30
0.0
 40
90.0
  1
200
 50
90.0
 41
0.6666666666666666
  7
00
 72
     4
 11
10556.0404102775
 21
6898.464770760367
 31
0.0
100
AcDbText
  0
LINE
  5
27E50
330
2A85E
100
AcDbEntity
  8
SUNPOU
100
AcDbLine
 10
10646.04041027749
 20
6983.464770760362
 30
0.0
 11
10646.04041027749
 21
6813.464770760365
 31
0.0
  0
LINE
  5
27E51
330
2A85E
100
AcDbEntity
  8
SUNPOU
100
AcDbLine
 10
10646.04041027749
 20
6783.464770760365
 30
0.0
 11
10646.04041027749
 21
6673.464770760365
 31
0.0
  0
LINE
  5
27E52
330
2A85E
100
AcDbEntity
  8
SUNPOU
100
AcDbLine
 10
10646.04041027749
 20
7123.464770760365
 30
0.0
 11
10646.04041027749
 21
7013.464770760363
 31
0.0
  0
LINE
  5
27E53
330
2A85E
100
AcDbEntity
  8
SUNPOU
100
AcDbLine
 10
10856.04041027749
 20
7123.464770760365
 30
0.0
 11
10856.04041027749
 21
6673.464770760365
 31
0.0
  0
LINE
  5
27E54
330
2A85E
100
AcDbEntity
  8
SUNPOU
100
AcDbLine
 10
10856.04041027749
 20
7183.464770760362
 30
0.0
 11
10856.04041027749
 21
7153.464770760365
 31
0.0
  0
LINE
  5
27E82
330
2A85E
100
AcDbEntity
  8
SUNPOU
100
AcDbLine
 10
7186.04041027751
 20
6003.464770760363
 30
0.0
 11
7396.04041027751
 21
6003.464770760363
 31
0.0
  0
LINE
  5
27E83
330
2A85E
100
AcDbEntity
  8
SUNPOU
100
AcDbLine
 10
7396.04041027751
 20
6003.464770760365
 30
0.0
 11
7396.04041027751
 21
6153.464770760365
 31
0.0
  0
TEXT
  5
27E84
330
2A85E
100
AcDbEntity
  8
SUNPOU
100
AcDbText
 10
6980.197553134654
 20
5958.464770760363
 30
0.0
 40
90.0
  1
A
 41
0.6700000000000001
  7
00
 72
     4
 11
7006.040410277511
 21
6003.464770760363
 31
0.0
100
AcDbText
  0
LINE
  5
27E85
330
2A85E
100
AcDbEntity
  8
SUNPOU
100
AcDbLine
 10
7186.04041027751
 20
7393.464770760363
 30
0.0
 11
7396.04041027751
 21
7393.464770760363
 31
0.0
  0
LINE
  5
27E86
330
2A85E
100
AcDbEntity
  8
SUNPOU
100
AcDbLine
 10
7396.04041027751
 20
7393.464770760363
 30
0.0
 11
7396.04041027751
 21
7243.464770760361
 31
0.0
  0
TEXT
  5
27E87
330
2A85E
100
AcDbEntity
  8
SUNPOU
100
AcDbText
 10
6970.147553134655
 20
7339.893342188934
 30
0.0
 40
90.0
  1
A'
 41
0.6700000000000001
  7
00
 72
     4
 11
7006.040410277511
 21
7393.464770760363
 31
0.0
100
AcDbText
  0
TEXT
  5
27EA2
330
2A85E
100
AcDbEntity
  8
HIKIDASHI
100
AcDbText
 10
7548.376511282379
 20
7483.464770760365
 30
0.0
 40
90.00009018009018
  1
アンカーボルト
  7
01
100
AcDbText
  0
LINE
  5
27EA3
330
2A85E
100
AcDbEntity
  8
HIKIDASHI
100
AcDbLine
 10
7514.098826333849
 20
7438.464770760366
 30
0.0
 11
9258.326065489265
 21
7438.464770760366
 31
0.0
  0
TEXT
  5
27EA4
330
2A85E
100
AcDbEntity
  8
HIKIDASHI
100
AcDbText
 10
8308.713565887767
 20
7483.464770760365
 30
0.0
 40
89.55223880597012
  1
W ／
 41
0.6700000000000001
  7
00
100
AcDbText
  0
TEXT
  5
27EA5
330
2A85E
100
AcDbEntity
  8
HIKIDASHI
100
AcDbText
 10
8383.314376570984
 20
7509.894380399263
 30
0.0
 40
67.16417910447761
  1
1
 41
0.6700000000000001
  7
00
100
AcDbText
  0
TEXT
  5
27EA6
330
2A85E
100
AcDbEntity
  8
HIKIDASHI
100
AcDbText
 10
8624.176729473417
 20
7483.255784560275
 30
0.0
 40
89.55223880597012
  1
400
 41
0.6700000000000001
  7
00
100
AcDbText
  0
TEXT
  5
27EA7
330
2A85E
100
AcDbEntity
  8
HIKIDASHI
100
AcDbText
 10
8471.206413129912
 20
7482.868325368702
 30
0.0
 40
67.16417910447761
  1
2
 41
0.6700000000000001
  7
00
100
AcDbText
  0
TEXT
  5
27EA8
330
2A85E
100
AcDbEntity
  8
HIKIDASHI
100
AcDbText
 10
8543.041350320287
 20
7494.658800611116
 30
0.0
 40
89.55223880597012
  1
x
 41
0.6700000000000001
  7
00
100
AcDbText
  0
TEXT
  5
27EA9
330
2A85E
100
AcDbEntity
  8
HIKIDASHI
100
AcDbText
 10
8865.896883534922
 20
7483.464770760365
 30
0.0
 40
90.00009018009018
  1
（別途）
  7
01
100
AcDbText
  0
LINE
  5
27EF8
330
2A85E
100
AcDbEntity
  8
SUNPOU
100
AcDbLine
 10
2607.29041027751
 20
4448.464770760362
 30
0.0
 11
2618.54041027751
 21
4448.464770760362
 31
0.0
  0
LINE
  5
27EFA
330
2A85E
100
AcDbEntity
  8
SUNPOU
100
AcDbLine
 10
2584.79041027751
 20
4448.464770760362
 30
0.0
 11
2573.540410277511
 21
4448.464770760362
 31
0.0
  0
LINE
  5
27EFC
330
2A85E
100
AcDbEntity
  8
SUNPOU
100
AcDbLine
 10
2207.29041027751
 20
4448.464770760362
 30
0.0
 11
2218.54041027751
 21
4448.464770760362
 31
0.0
  0
LINE
  5
27EFE
330
2A85E
100
AcDbEntity
  8
SUNPOU
100
AcDbLine
 10
5007.29041027751
 20
4448.464770760362
 30
0.0
 11
5018.54041027751
 21
4448.464770760362
 31
0.0
  0
LINE
  5
27F00
330
2A85E
100
AcDbEntity
  8
SUNPOU
100
AcDbLine
 10
4984.79041027751
 20
4448.464770760362
 30
0.0
 11
4973.54041027751
 21
4448.464770760362
 31
0.0
  0
LINE
  5
27F30
330
2A85E
100
AcDbEntity
  8
SUNPOU
100
AcDbLine
 10
1746.04041027751
 20
4909.714770760365
 30
0.0
 11
1746.04041027751
 21
4920.96477076036
 31
0.0
  0
LINE
  5
27F32
330
2A85E
100
AcDbEntity
  8
SUNPOU
100
AcDbLine
 10
1746.04041027751
 20
6909.714770760365
 30
0.0
 11
1746.04041027751
 21
6920.964770760362
 31
0.0
  0
LINE
  5
27F34
330
2A85E
100
AcDbEntity
  8
SUNPOU
100
AcDbLine
 10
1746.04041027751
 20
6887.214770760363
 30
0.0
 11
1746.04041027751
 21
6875.964770760361
 31
0.0
  0
LINE
  5
27F36
330
2A85E
100
AcDbEntity
  8
SUNPOU
100
AcDbLine
 10
1746.04041027751
 20
7127.214770760365
 30
0.0
 11
1746.04041027751
 21
7115.964770760363
 31
0.0
  0
LINE
  5
27F38
330
2A85E
100
AcDbEntity
  8
SUNPOU
100
AcDbLine
 10
9784.790410277507
 20
4448.464770760362
 30
0.0
 11
9773.540410277506
 21
4448.464770760362
 31
0.0
  0
LINE
  5
27F3A
330
2A85E
100
AcDbEntity
  8
SUNPOU
100
AcDbLine
 10
9807.290410277509
 20
4448.464770760362
 30
0.0
 11
9818.540410277506
 21
4448.464770760362
 31
0.0
  0
LINE
  5
27F3C
330
2A85E
100
AcDbEntity
  8
SUNPOU
100
AcDbLine
 10
10184.79041027749
 20
4448.464770760362
 30
0.0
 11
10173.54041027749
 21
4448.464770760362
 31
0.0
  0
LINE
  5
27F3E
330
2A85E
100
AcDbEntity
  8
SUNPOU
100
AcDbLine
 10
7407.29041027751
 20
4448.464770760362
 30
0.0
 11
7418.540410277511
 21
4448.464770760362
 31
0.0
  0
LINE
  5
27F40
330
2A85E
100
AcDbEntity
  8
SUNPOU
100
AcDbLine
 10
7384.79041027751
 20
4448.464770760362
 30
0.0
 11
7373.54041027751
 21
4448.464770760362
 31
0.0
  0
LINE
  5
27F49
330
2A85E
100
AcDbEntity
  8
SUNPOU
100
AcDbLine
 10
7186.04041027751
 20
5988.464770760362
 30
0.0
 11
7096.04041027751
 21
6003.464770760363
 31
0.0
  0
LINE
  5
27F4A
330
2A85E
100
AcDbEntity
  8
SUNPOU
100
AcDbLine
 10
7096.04041027751
 20
6003.464770760363
 30
0.0
 11
7186.04041027751
 21
6018.464770760363
 31
0.0
  0
SOLID
  5
27F4B
330
2A85E
100
AcDbEntity
  8
SUNPOU
100
AcDbTrace
 10
7186.04041027751
 20
5988.464770760362
 30
0.0
 11
7186.04041027751
 21
6018.464770760363
 31
0.0
 12
7096.04041027751
 22
6003.464770760363
 32
0.0
 13
7096.04041027751
 23
6003.464770760363
 33
0.0
  0
LINE
  5
27F4C
330
2A85E
100
AcDbEntity
  8
SUNPOU
100
AcDbLine
 10
7186.04041027751
 20
6018.464770760363
 30
0.0
 11
7186.04041027751
 21
5988.464770760362
 31
0.0
  0
LINE
  5
27F4E
330
2A85E
100
AcDbEntity
  8
SUNPOU
100
AcDbLine
 10
8736.040410277507
 20
6209.714770760363
 30
0.0
 11
8736.040410277507
 21
6220.964770760367
 31
0.0
  0
LINE
  5
27F50
330
2A85E
100
AcDbEntity
  8
SUNPOU
100
AcDbLine
 10
8946.040410277507
 20
6209.714770760363
 30
0.0
 11
8946.040410277507
 21
6220.964770760367
 31
0.0
  0
LINE
  5
27F52
330
2A85E
100
AcDbEntity
  8
SUNPOU
100
AcDbLine
 10
8736.040410277507
 20
7187.214770760363
 30
0.0
 11
8736.040410277507
 21
7175.964770760363
 31
0.0
  0
LINE
  5
27F54
330
2A85E
100
AcDbEntity
  8
SUNPOU
100
AcDbLine
 10
8946.040410277507
 20
6909.714770760365
 30
0.0
 11
8946.040410277507
 21
6920.964770760362
 31
0.0
  0
LINE
  5
27F56
330
2A85E
100
AcDbEntity
  8
SUNPOU
100
AcDbLine
 10
8946.040410277507
 20
6887.214770760363
 30
0.0
 11
8946.040410277507
 21
6875.964770760361
 31
0.0
  0
LINE
  5
27F58
330
2A85E
100
AcDbEntity
  8
SUNPOU
100
AcDbLine
 10
8946.040410277507
 20
7187.214770760363
 30
0.0
 11
8946.040410277507
 21
7175.964770760363
 31
0.0
  0
LINE
  5
27F59
330
2A85E
100
AcDbEntity
  8
SUNPOU
100
AcDbLine
 10
7186.04041027751
 20
7408.464770760365
 30
0.0
 11
7096.04041027751
 21
7393.464770760363
 31
0.0
  0
LINE
  5
27F5A
330
2A85E
100
AcDbEntity
  8
SUNPOU
100
AcDbLine
 10
7096.04041027751
 20
7393.464770760363
 30
0.0
 11
7186.04041027751
 21
7378.464770760365
 31
0.0
  0
SOLID
  5
27F5B
330
2A85E
100
AcDbEntity
  8
SUNPOU
100
AcDbTrace
 10
7186.04041027751
 20
7408.464770760365
 30
0.0
 11
7186.04041027751
 21
7378.464770760365
 31
0.0
 12
7096.04041027751
 22
7393.464770760363
 32
0.0
 13
7096.04041027751
 23
7393.464770760363
 33
0.0
  0
LINE
  5
27F5C
330
2A85E
100
AcDbEntity
  8
SUNPOU
100
AcDbLine
 10
7186.04041027751
 20
7378.464770760365
 30
0.0
 11
7186.04041027751
 21
7408.464770760365
 31
0.0
  0
LINE
  5
27F5E
330
2A85E
100
AcDbEntity
  8
SUNPOU
100
AcDbLine
 10
9707.290410277508
 20
7438.464770760361
 30
0.0
 11
9718.540410277507
 21
7438.464770760361
 31
0.0
  0
LINE
  5
27F60
330
2A85E
100
AcDbEntity
  8
SUNPOU
100
AcDbLine
 10
9407.290410277507
 20
7858.464770760362
 30
0.0
 11
9418.540410277506
 21
7858.464770760362
 31
0.0
  0
LINE
  5
27F62
330
2A85E
100
AcDbEntity
  8
SUNPOU
100
AcDbLine
 10
9667.290410277507
 20
7648.464770760367
 30
0.0
 11
9678.540410277506
 21
7648.464770760367
 31
0.0
  0
LINE
  5
27F64
330
2A85E
100
AcDbEntity
  8
SUNPOU
100
AcDbLine
 10
9544.790410277506
 20
7858.464770760362
 30
0.0
 11
9533.540410277508
 21
7858.464770760362
 31
0.0
  0
LINE
  5
27F66
330
2A85E
100
AcDbEntity
  8
SUNPOU
100
AcDbLine
 10
9567.290410277506
 20
7858.464770760362
 30
0.0
 11
9578.540410277506
 21
7858.464770760362
 31
0.0
  0
LINE
  5
27F68
330
2A85E
100
AcDbEntity
  8
SUNPOU
100
AcDbLine
 10
9884.790410277506
 20
7438.464770760361
 30
0.0
 11
9873.540410277506
 21
7438.464770760361
 31
0.0
  0
LINE
  5
27F6A
330
2A85E
100
AcDbEntity
  8
SUNPOU
100
AcDbLine
 10
9924.790410277507
 20
7648.464770760367
 30
0.0
 11
9913.540410277507
 21
7648.464770760367
 31
0.0
  0
LINE
  5
27F6C
330
2A85E
100
AcDbEntity
  8
SUNPOU
100
AcDbLine
 10
10024.79041027749
 20
7858.464770760362
 30
0.0
 11
10013.54041027749
 21
7858.464770760362
 31
0.0
  0
LINE
  5
27F6E
330
2A85E
100
AcDbEntity
  8
SUNPOU
100
AcDbLine
 10
10047.2904102775
 20
7858.464770760362
 30
0.0
 11
10058.54041027751
 21
7858.464770760362
 31
0.0
  0
LINE
  5
27F70
330
2A85E
100
AcDbEntity
  8
SUNPOU
100
AcDbLine
 10
10184.79041027749
 20
7858.464770760362
 30
0.0
 11
10173.54041027749
 21
7858.464770760362
 31
0.0
  0
LINE
  5
27F72
330
2A85E
100
AcDbEntity
  8
SUNPOU
100
AcDbLine
 10
9407.290410277507
 20
8068.464770760362
 30
0.0
 11
9418.540410277506
 21
8068.464770760362
 31
0.0
  0
LINE
  5
27F74
330
2A85E
100
AcDbEntity
  8
SUNPOU
100
AcDbLine
 10
10184.79041027749
 20
8068.464770760362
 30
0.0
 11
10173.54041027749
 21
8068.464770760362
 31
0.0
  0
LINE
  5
27F76
330
2A85E
100
AcDbEntity
  8
SUNPOU
100
AcDbLine
 10
10856.04041027749
 20
6209.714770760363
 30
0.0
 11
10856.04041027749
 21
6220.964770760367
 31
0.0
  0
LINE
  5
27F78
330
2A85E
100
AcDbEntity
  8
SUNPOU
100
AcDbLine
 10
10646.04041027749
 20
6669.714770760363
 30
0.0
 11
10646.04041027749
 21
6680.964770760361
 31
0.0
  0
LINE
  5
27F7A
330
2A85E
100
AcDbEntity
  8
SUNPOU
100
AcDbLine
 10
10646.04041027749
 20
6787.214770760366
 30
0.0
 11
10646.04041027749
 21
6775.964770760364
 31
0.0
  0
LINE
  5
27F7C
330
2A85E
100
AcDbEntity
  8
SUNPOU
100
AcDbLine
 10
10646.04041027749
 20
6809.714770760365
 30
0.0
 11
10646.04041027749
 21
6820.964770760365
 31
0.0
  0
LINE
  5
27F7E
330
2A85E
100
AcDbEntity
  8
SUNPOU
100
AcDbLine
 10
10646.04041027749
 20
6987.214770760363
 30
0.0
 11
10646.04041027749
 21
6975.964770760363
 31
0.0
  0
LINE
  5
27F80
330
2A85E
100
AcDbEntity
  8
SUNPOU
100
AcDbLine
 10
10646.04041027749
 20
7009.714770760365
 30
0.0
 11
10646.04041027749
 21
7020.964770760365
 31
0.0
  0
LINE
  5
27F82
330
2A85E
100
AcDbEntity
  8
SUNPOU
100
AcDbLine
 10
10646.04041027749
 20
7127.214770760365
 30
0.0
 11
10646.04041027749
 21
7115.964770760363
 31
0.0
  0
LINE
  5
27F84
330
2A85E
100
AcDbEntity
  8
SUNPOU
100
AcDbLine
 10
10856.04041027749
 20
6647.214770760363
 30
0.0
 11
10856.04041027749
 21
6635.964770760367
 31
0.0
  0
LINE
  5
27F86
330
2A85E
100
AcDbEntity
  8
SUNPOU
100
AcDbLine
 10
10856.04041027749
 20
6669.714770760363
 30
0.0
 11
10856.04041027749
 21
6680.964770760361
 31
0.0
  0
LINE
  5
27F88
330
2A85E
100
AcDbEntity
  8
SUNPOU
100
AcDbLine
 10
10856.04041027749
 20
7127.214770760365
 30
0.0
 11
10856.04041027749
 21
7115.964770760363
 31
0.0
  0
LINE
  5
27F8A
330
2A85E
100
AcDbEntity
  8
SUNPOU
100
AcDbLine
 10
10856.04041027749
 20
7149.714770760361
 30
0.0
 11
10856.04041027749
 21
7160.964770760365
 31
0.0
  0
LINE
  5
27F8C
330
2A85E
100
AcDbEntity
  8
SUNPOU
100
AcDbLine
 10
10856.04041027749
 20
7187.214770760363
 30
0.0
 11
10856.04041027749
 21
7175.964770760363
 31
0.0
  0
LINE
  5
27F9C
330
2A85E
100
AcDbEntity
  8
HIKIDASHI
100
AcDbLine
 10
9736.680727671469
 20
6811.821071734351
 30
0.0
 11
9767.476544105855
 21
6864.276935945516
 31
0.0
  0
LINE
  5
27F9D
330
2A85E
100
AcDbEntity
  8
HIKIDASHI
100
AcDbLine
 10
9767.476544105855
 20
6864.276935945516
 30
0.0
 11
9721.332653680525
 21
6824.644356210967
 31
0.0
  0
SOLID
  5
27F9E
330
2A85E
100
AcDbEntity
  8
HIKIDASHI
100
AcDbTrace
 10
9736.680727671469
 20
6811.821071734351
 30
0.0
 11
9721.332653680525
 21
6824.644356210967
 31
0.0
 12
9767.476544105855
 22
6864.276935945516
 32
0.0
 13
9767.476544105855
 23
6864.276935945516
 33
0.0
  0
LINE
  5
27F9F
330
2A85E
100
AcDbEntity
  8
HIKIDASHI
100
AcDbLine
 10
9721.332653680525
 20
6824.644356210967
 30
0.0
 11
9736.680727671469
 21
6811.821071734351
 31
0.0
  0
LINE
  5
27FA0
330
2A85E
100
AcDbEntity
  8
HIKIDASHI
100
AcDbLine
 10
9646.635171920545
 20
7033.948885838687
 30
0.0
 11
9696.040410277507
 21
6998.464770760365
 31
0.0
  0
LINE
  5
27FA1
330
2A85E
100
AcDbEntity
  8
HIKIDASHI
100
AcDbLine
 10
9696.040410277507
 20
6998.464770760365
 30
0.0
 11
9660.814086992282
 21
7048.054146112392
 31
0.0
  0
SOLID
  5
27FA2
330
2A85E
100
AcDbEntity
  8
HIKIDASHI
100
AcDbTrace
 10
9646.635171920545
 20
7033.948885838687
 30
0.0
 11
9660.814086992282
 21
7048.054146112392
 31
0.0
 12
9696.040410277507
 22
6998.464770760365
 32
0.0
 13
9696.040410277507
 23
6998.464770760365
 33
0.0
  0
LINE
  5
27FA3
330
2A85E
100
AcDbEntity
  8
HIKIDASHI
100
AcDbLine
 10
9660.814086992282
 20
7048.054146112392
 30
0.0
 11
9646.635171920545
 21
7033.948885838687
 31
0.0
  0
LINE
  5
27FA4
330
2A85E
100
AcDbEntity
  8
HIKIDASHI
100
AcDbLine
 10
9840.975721878089
 20
7024.308146922831
 30
0.0
 11
9896.040410277507
 21
6998.464770760365
 31
0.0
  0
LINE
  5
27FA5
330
2A85E
100
AcDbEntity
  8
HIKIDASHI
100
AcDbLine
 10
9896.040410277507
 20
6998.464770760365
 30
0.0
 11
9852.333827033453
 21
7040.770025530076
 31
0.0
  0
SOLID
  5
27FA6
330
2A85E
100
AcDbEntity
  8
HIKIDASHI
100
AcDbTrace
 10
9840.975721878089
 20
7024.308146922831
 30
0.0
 11
9852.333827033453
 21
7040.770025530076
 31
0.0
 12
9896.040410277507
 22
6998.464770760365
 32
0.0
 13
9896.040410277507
 23
6998.464770760365
 33
0.0
  0
LINE
  5
27FA7
330
2A85E
100
AcDbEntity
  8
HIKIDASHI
100
AcDbLine
 10
9852.333827033453
 20
7040.770025530076
 30
0.0
 11
9840.975721878089
 21
7024.308146922831
 31
0.0
  0
ARC
  5
27FA9
330
2A85E
100
AcDbEntity
  8
HIKIDASHI
100
AcDbCircle
 10
8900.367749710671
 20
7568.849499283141
 30
0.0
 40
74.66417910444737
100
AcDbArc
 50
164.8596129850655
 51
237.504500294225
  0
ARC
  5
27FAA
330
2A85E
100
AcDbEntity
  8
HIKIDASHI
100
AcDbCircle
 10
8836.943955664422
 20
7586.010522767607
 30
0.0
 40
8.959701492533691
100
AcDbArc
 50
15.14038701513461
 51
164.8596129849654
  0
LINE
  5
2A298
330
2A85E
100
AcDbEntity
  8
SUNPOU
100
AcDbLine
 10
6340.055546028487
 20
2330.744622954003
 30
0.0
 11
7015.055546028489
 21
2330.744622954003
 31
0.0
  0
LINE
  5
2A299
330
2A85E
100
AcDbEntity
  8
SUNPOU
100
AcDbLine
 10
6340.055546028487
 20
1530.744622954002
 30
0.0
 11
7015.055546028489
 21
1530.744622954002
 31
0.0
  0
LINE
  5
2A29A
330
2A85E
100
AcDbEntity
  8
SUNPOU
100
AcDbLine
 10
6310.055546028489
 20
1500.744622954002
 30
0.0
 11
6310.055546028489
 21
825.7446229540018
 31
0.0
  0
LINE
  5
2A29B
330
2A85E
100
AcDbEntity
  8
SUNPOU
100
AcDbLine
 10
5310.055546028489
 20
1500.744622954002
 30
0.0
 11
5310.055546028489
 21
825.7446229540018
 31
0.0
  0
LINE
  5
2A29C
330
2A85E
100
AcDbEntity
  8
SUNPOU
100
AcDbLine
 10
6295.055546028489
 20
870.7446229540019
 30
0.0
 11
5325.055546028488
 21
870.7446229540019
 31
0.0
  0
TEXT
  5
2A29D
330
2A85E
100
AcDbEntity
  8
SUNPOU
100
AcDbText
 10
5691.48411745706
 20
915.7446229540017
 30
0.0
 40
90.0
  1
1000
 41
0.6666666666666666
  7
00
 72
     1
 11
5810.055546028489
 21
960.7446229540018
 31
0.0
100
AcDbText
 73
     2
  0
LINE
  5
2A29E
330
2A85E
100
AcDbEntity
  8
SUNPOU
100
AcDbLine
 10
5280.055546028489
 20
2260.744622954002
 30
0.0
 11
4815.055546028489
 21
2260.744622954002
 31
0.0
  0
LINE
  5
2A29F
330
2A85E
100
AcDbEntity
  8
SUNPOU
100
AcDbLine
 10
5280.055546028489
 20
1600.744622954002
 30
0.0
 11
4815.055546028489
 21
1600.744622954002
 31
0.0
  0
TEXT
  5
2A2A0
330
2A85E
100
AcDbEntity
  8
SUNPOU
100
AcDbText
 10
4815.055546028489
 20
1547.108247767375
 30
0.0
 40
90.0
  1
ベース筋
 50
90.0
  7
01
 72
     4
 11
4770.055546028489
 21
1751.108247767374
 31
0.0
100
AcDbText
  0
TEXT
  5
2A2A1
330
2A85E
100
AcDbEntity
  8
SUNPOU
100
AcDbText
 10
4815.055546028489
 20
2009.743285302838
 30
0.0
 40
90.0
  1
5-D13
 50
90.0
 41
0.6666666666666666
  7
00
 72
     4
 11
4770.055546028489
 21
2162.600428159981
 31
0.0
100
AcDbText
  0
LINE
  5
2A2A2
330
2A85E
100
AcDbEntity
  8
SUNPOU
100
AcDbLine
 10
5370.055546028488
 20
2360.744622954003
 30
0.0
 11
5370.055546028488
 21
2825.744622954003
 31
0.0
  0
LINE
  5
2A2A3
330
2A85E
100
AcDbEntity
  8
SUNPOU
100
AcDbLine
 10
6250.055546028487
 20
2360.744622954003
 30
0.0
 11
6250.055546028487
 21
2825.744622954003
 31
0.0
  0
LINE
  5
2A2A4
330
2A85E
100
AcDbEntity
  8
1PL-M1
100
AcDbLine
 10
6010.055546028489
 20
2405.744622954003
 30
0.0
 11
6010.055546028489
 21
1455.744622954002
 31
0.0
  0
LINE
  5
2A2A5
330
2A85E
100
AcDbEntity
  8
U7
100
AcDbLine
 10
5380.055546028489
 20
1930.744622954003
 30
0.0
 11
6240.055546028488
 21
1930.744622954002
 31
0.0
  0
LINE
  5
2A2A6
330
2A85E
100
AcDbEntity
  8
U7
100
AcDbLine
 10
5380.055546028489
 20
2095.744622954001
 30
0.0
 11
6240.055546028488
 21
2095.744622954001
 31
0.0
  0
LINE
  5
2A2A7
330
2A85E
100
AcDbEntity
  8
HIDE-M1
100
AcDbLine
 10
5770.055546028489
 20
2170.744622954003
 30
0.0
 11
6250.055546028487
 21
2170.744622954003
 31
0.0
  0
LINE
  5
2A2A8
330
2A85E
100
AcDbEntity
  8
U7
100
AcDbLine
 10
6250.055546028488
 20
1690.744622954002
 30
0.0
 11
5770.059221790803
 21
1690.744622954
 31
0.0
  0
LINE
  5
2A2A9
330
2A85E
100
AcDbEntity
  8
U7
100
AcDbLine
 10
5386.555546028489
 20
2260.744622954002
 30
0.0
 11
6233.555546028489
 21
2260.744622954002
 31
0.0
  0
LINE
  5
2A2AA
330
2A85E
100
AcDbEntity
  8
HATCH
100
AcDbLine
 10
6002.109544520404
 20
2330.744622954003
 30
0.0
 11
5602.109544520406
 21
1930.744622954002
 31
0.0
  0
LINE
  5
2A2AB
330
2A85E
100
AcDbEntity
  8
HATCH
100
AcDbLine
 10
6031.80802933024
 20
2330.744622954003
 30
0.0
 11
5631.808029330233
 21
1930.744622954002
 31
0.0
  0
LINE
  5
2A2AC
330
2A85E
100
AcDbEntity
  8
HATCH
100
AcDbLine
 10
5972.411059710569
 20
2330.744622954003
 30
0.0
 11
5572.411059710567
 21
1930.744622954002
 31
0.0
  0
LINE
  5
2A2AD
330
2A85E
100
AcDbEntity
  8
SUNPOU
100
AcDbLine
 10
5785.055546028488
 20
1080.744622954002
 30
0.0
 11
6235.055546028489
 21
1080.744622954002
 31
0.0
  0
LINE
  5
2A2AE
330
2A85E
100
AcDbEntity
  8
1PL-M1
100
AcDbLine
 10
6385.055546028489
 20
1930.744622954002
 30
0.0
 11
5235.055546028489
 21
1930.744622954002
 31
0.0
  0
LINE
  5
2A2B0
330
2A85E
100
AcDbEntity
  8
U7
100
AcDbLine
 10
5770.059221790803
 20
1690.744622954
 30
0.0
 11
5770.055546028489
 21
1930.744622954002
 31
0.0
  0
LINE
  5
2A2B1
330
2A85E
100
AcDbEntity
  8
SUNPOU
100
AcDbLine
 10
4860.055546028489
 20
2245.744622954001
 30
0.0
 11
4860.055546028489
 21
1615.744622954002
 31
0.0
  0
LINE
  5
2A2B2
330
2A85E
100
AcDbEntity
  8
SUNPOU
100
AcDbLine
 10
5770.055546028489
 20
1660.744622954002
 30
0.0
 11
5770.055546028489
 21
1035.744622954002
 31
0.0
  0
LINE
  5
2A2B3
330
2A85E
100
AcDbEntity
  8
HATCH
100
AcDbLine
 10
5729.754030838325
 20
2328.389109271927
 30
0.0
 11
5332.109544520403
 21
1930.744622954002
 31
0.0
  0
LINE
  5
2A2B4
330
2A85E
100
AcDbEntity
  8
HATCH
100
AcDbLine
 10
5672.712574900739
 20
2330.744622954003
 30
0.0
 11
5310.055546028489
 21
1968.087594081756
 31
0.0
  0
LINE
  5
2A2B5
330
2A85E
100
AcDbEntity
  8
HATCH
100
AcDbLine
 10
5702.411059710567
 20
2330.744622954003
 30
0.0
 11
5310.055546028489
 21
1938.389109271921
 31
0.0
  0
LINE
  5
2A2B6
330
2A85E
100
AcDbEntity
  8
HATCH
100
AcDbLine
 10
5432.411059710577
 20
2330.744622954003
 30
0.0
 11
5310.055546028489
 21
2208.389109271924
 31
0.0
  0
LINE
  5
2A2B7
330
2A85E
100
AcDbEntity
  8
HATCH
100
AcDbLine
 10
5402.712574900739
 20
2330.744622954003
 30
0.0
 11
5310.055546028489
 21
2238.087594081755
 31
0.0
  0
LINE
  5
2A2B8
330
2A85E
100
AcDbEntity
  8
HATCH
100
AcDbLine
 10
5373.014090090903
 20
2330.744622954003
 30
0.0
 11
5310.055546028489
 21
2267.786078891593
 31
0.0
  0
LINE
  5
2A2B9
330
2A85E
100
AcDbEntity
  8
U7
100
AcDbLine
 10
5724.055546028488
 20
1930.744622954002
 30
0.0
 11
5724.055546028488
 21
2260.744622954002
 31
0.0
  0
LINE
  5
2A2BA
330
2A85E
100
AcDbEntity
  8
U7
100
AcDbLine
 10
5552.055546028489
 20
1930.744622954003
 30
0.0
 11
5552.055546028489
 21
2260.744622954002
 31
0.0
  0
LINE
  5
2A2BB
330
2A85E
100
AcDbEntity
  8
HIDE-M1
100
AcDbLine
 10
5770.055546028489
 20
1930.744622954002
 30
0.0
 11
5770.055546028489
 21
2170.744622954003
 31
0.0
  0
LINE
  5
2A2BC
330
2A85E
100
AcDbEntity
  8
U7
100
AcDbLine
 10
5380.055546028489
 20
1930.744622954002
 30
0.0
 11
5380.055546028489
 21
2254.244622954002
 31
0.0
  0
ARC
  5
2A2BE
330
2A85E
100
AcDbEntity
  8
U7
100
AcDbCircle
 10
5386.555546028489
 20
2254.244622954002
 30
0.0
 40
6.5
100
AcDbArc
 50
90.0
 51
180.0
  0
LINE
  5
2A2BF
330
2A85E
100
AcDbEntity
  8
SUNPOU
100
AcDbLine
 10
6760.055546028488
 20
1705.744622954002
 30
0.0
 11
6760.055546028488
 21
2155.744622954002
 31
0.0
  0
LINE
  5
2A2C0
330
2A85E
100
AcDbEntity
  8
U7
100
AcDbLine
 10
6250.055546028487
 20
1930.744622954002
 30
0.0
 11
6250.055546028488
 21
1690.744622954002
 31
0.0
  0
LINE
  5
2A2C1
330
2A85E
100
AcDbEntity
  8
SUNPOU
100
AcDbLine
 10
6280.055546028489
 20
1690.744622954002
 30
0.0
 11
6805.055546028488
 21
1690.744622954002
 31
0.0
  0
LINE
  5
2A2C2
330
2A85E
100
AcDbEntity
  8
SUNPOU
100
AcDbLine
 10
6250.055546028487
 20
1660.744622954002
 30
0.0
 11
6250.055546028487
 21
1035.744622954002
 31
0.0
  0
TEXT
  5
2A2C3
330
2A85E
100
AcDbEntity
  8
SUNPOU
100
AcDbText
 10
5924.341260314204
 20
1125.744622954002
 30
0.0
 40
90.0
  1
480
 41
0.6666666666666666
  7
00
 72
     1
 11
6010.055546028489
 21
1170.744622954002
 31
0.0
100
AcDbText
 73
     2
  0
LINE
  5
2A2C4
330
2A85E
100
AcDbEntity
  8
SUNPOU
100
AcDbLine
 10
6280.055546028489
 20
2170.744622954003
 30
0.0
 11
6805.055546028488
 21
2170.744622954003
 31
0.0
  0
LINE
  5
2A2C5
330
2A85E
100
AcDbEntity
  8
U7
100
AcDbLine
 10
6068.055546028489
 20
1930.744622954002
 30
0.0
 11
6068.055546028489
 21
2260.744622954002
 31
0.0
  0
LINE
  5
2A2C6
330
2A85E
100
AcDbEntity
  8
U7
100
AcDbLine
 10
5896.055546028488
 20
1930.744622954002
 30
0.0
 11
5896.055546028488
 21
2260.744622954002
 31
0.0
  0
LINE
  5
2A2C7
330
2A85E
100
AcDbEntity
  8
HATCH
100
AcDbLine
 10
6272.109544520397
 20
2330.744622954003
 30
0.0
 11
5872.109544520396
 21
1930.744622954002
 31
0.0
  0
LINE
  5
2A2C8
330
2A85E
100
AcDbEntity
  8
U7
100
AcDbLine
 10
6240.055546028488
 20
2254.244622954002
 30
0.0
 11
6240.055546028488
 21
1930.744622954002
 31
0.0
  0
LINE
  5
2A2C9
330
2A85E
100
AcDbEntity
  8
HIDE-M1
100
AcDbLine
 10
6250.055546028487
 20
1930.744622954002
 30
0.0
 11
6250.055546028487
 21
2170.744622954003
 31
0.0
  0
LINE
  5
2A2CA
330
2A85E
100
AcDbEntity
  8
HATCH
100
AcDbLine
 10
6301.80802933024
 20
2330.744622954003
 30
0.0
 11
5901.80802933024
 21
1930.744622954002
 31
0.0
  0
LINE
  5
2A2CB
330
2A85E
100
AcDbEntity
  8
HATCH
100
AcDbLine
 10
6310.055546028496
 20
2309.293654842421
 30
0.0
 11
5931.506514140071
 21
1930.744622954002
 31
0.0
  0
LINE
  5
2A2CC
330
2A85E
100
AcDbEntity
  8
HATCH
100
AcDbLine
 10
6310.055546028496
 20
2068.992139652261
 30
0.0
 11
6171.808029330232
 21
1930.744622954002
 31
0.0
  0
LINE
  5
2A2CE
330
2A85E
100
AcDbEntity
  8
HATCH
100
AcDbLine
 10
6310.055546028496
 20
2039.293654842426
 30
0.0
 11
6201.506514140071
 21
1930.744622954002
 31
0.0
  0
LINE
  5
2A2CF
330
2A85E
100
AcDbEntity
  8
HATCH
100
AcDbLine
 10
6310.055546028496
 20
2009.595170032593
 30
0.0
 11
6231.204998949898
 21
1930.744622954002
 31
0.0
  0
ARC
  5
2A2D0
330
2A85E
100
AcDbEntity
  8
U7
100
AcDbCircle
 10
6233.555546028489
 20
2254.244622954002
 30
0.0
 40
6.5
100
AcDbArc
 50
0.0
 51
90.0
  0
TEXT
  5
2A2D1
330
2A85E
100
AcDbEntity
  8
SUNPOU
100
AcDbText
 10
6715.055546028489
 20
1845.030337239716
 30
0.0
 40
90.0
  1
480
 50
90.0
 41
0.6666666666666666
  7
00
 72
     1
 11
6670.055546028489
 21
1930.744622954002
 31
0.0
100
AcDbText
 73
     2
  0
LINE
  5
2A2D2
330
2A85E
100
AcDbEntity
  8
SUNPOU
100
AcDbLine
 10
5385.055546028489
 20
2780.744622954003
 30
0.0
 11
6235.055546028489
 21
2780.744622954003
 31
0.0
  0
LINE
  5
2A2D3
330
2A85E
100
AcDbEntity
  8
SUNPOU
100
AcDbLine
 10
6970.055546028489
 20
1545.744622954002
 30
0.0
 11
6970.055546028489
 21
2315.744622954003
 31
0.0
  0
TEXT
  5
2A2D4
330
2A85E
100
AcDbEntity
  8
SUNPOU
100
AcDbText
 10
6925.055546028487
 20
1845.030337239716
 30
0.0
 40
90.0
  1
800
 50
90.0
 41
0.6666666666666666
  7
00
 72
     1
 11
6880.055546028488
 21
1930.744622954002
 31
0.0
100
AcDbText
 73
     2
  0
TEXT
  5
2A2D5
330
2A85E
100
AcDbEntity
  8
SUNPOU
100
AcDbText
 10
5445.33416311624
 20
2825.744622954003
 30
0.0
 40
90.0
  1
ベース筋
  7
01
 72
     4
 11
5649.33416311624
 21
2870.744622954004
 31
0.0
100
AcDbText
  0
TEXT
  5
2A2D6
330
2A85E
100
AcDbEntity
  8
SUNPOU
100
AcDbText
 10
5898.708076870588
 20
2825.744622954003
 30
0.0
 40
90.0
  1
6-D13
 41
0.6666666666666666
  7
00
 72
     4
 11
6052.993791156303
 21
2870.744622954004
 31
0.0
100
AcDbText
  0
LINE
  5
2A2D8
330
2A85E
100
AcDbEntity
  8
SUNPOU
100
AcDbLine
 10
4860.055546028489
 20
1611.994622954002
 30
0.0
 11
4860.055546028489
 21
1623.244622954002
 31
0.0
  0
LINE
  5
2A2DA
330
2A85E
100
AcDbEntity
  8
SUNPOU
100
AcDbLine
 10
5781.305546028487
 20
1080.744622954002
 30
0.0
 11
5792.555546028489
 21
1080.744622954002
 31
0.0
  0
LINE
  5
2A2DC
330
2A85E
100
AcDbEntity
  8
SUNPOU
100
AcDbLine
 10
6238.805546028489
 20
1080.744622954002
 30
0.0
 11
6227.555546028487
 21
1080.744622954002
 31
0.0
  0
LINE
  5
2A2DE
330
2A85E
100
AcDbEntity
  8
SUNPOU
100
AcDbLine
 10
4860.055546028489
 20
2249.494622954002
 30
0.0
 11
4860.055546028489
 21
2238.244622954002
 31
0.0
  0
LINE
  5
2A2E0
330
2A85E
100
AcDbEntity
  8
SUNPOU
100
AcDbLine
 10
5381.305546028489
 20
2780.744622954003
 30
0.0
 11
5392.555546028489
 21
2780.744622954003
 31
0.0
  0
LINE
  5
2A2E2
330
2A85E
100
AcDbEntity
  8
SUNPOU
100
AcDbLine
 10
6238.805546028489
 20
2780.744622954003
 30
0.0
 11
6227.555546028487
 21
2780.744622954003
 31
0.0
  0
LINE
  5
2A2E4
330
2A85E
100
AcDbEntity
  8
SUNPOU
100
AcDbLine
 10
6970.055546028489
 20
1541.994622954002
 30
0.0
 11
6970.055546028489
 21
1553.244622954002
 31
0.0
  0
LINE
  5
2A2E6
330
2A85E
100
AcDbEntity
  8
SUNPOU
100
AcDbLine
 10
6760.055546028488
 20
1701.994622954002
 30
0.0
 11
6760.055546028488
 21
1713.244622954002
 31
0.0
  0
LINE
  5
2A2E8
330
2A85E
100
AcDbEntity
  8
SUNPOU
100
AcDbLine
 10
6760.055546028488
 20
2159.494622954003
 30
0.0
 11
6760.055546028488
 21
2148.244622954002
 31
0.0
  0
LINE
  5
2A2EA
330
2A85E
100
AcDbEntity
  8
SUNPOU
100
AcDbLine
 10
6970.055546028489
 20
2319.494622954003
 30
0.0
 11
6970.055546028489
 21
2308.244622954001
 31
0.0
  0
LINE
  5
2A2EC
330
2A85E
100
AcDbEntity
  8
SUNPOU
100
AcDbLine
 10
6298.805546028489
 20
870.7446229540019
 30
0.0
 11
6287.555546028489
 21
870.7446229540019
 31
0.0
  0
LINE
  5
2A2EE
330
2A85E
100
AcDbEntity
  8
SUNPOU
100
AcDbLine
 10
5321.305546028488
 20
870.7446229540019
 30
0.0
 11
5332.555546028489
 21
870.7446229540019
 31
0.0
  0
TEXT
  5
2A4C5
330
2A85E
100
AcDbEntity
  8
FILENAME
100
AcDbText
 10
10633.64285714285
 20
130.4999999999999
 30
0.0
 40
75.0
  1
＜YOR-240B_3_JIS_GL.DXF ＞
  7
FILENAME
 72
     2
 11
12286.5
 21
130.4999999999999
 31
0.0
100
AcDbText
  0
LINE
  5
2A4C8
330
2A85E
100
AcDbEntity
  8
WAKUSEN-01
100
AcDbLine
 10
325.5000000000006
 20
310.4999999999998
 30
0.0
 11
12286.5
 21
310.4999999999998
 31
0.0
  0
LINE
  5
2A4C9
330
2A85E
100
AcDbEntity
  8
WAKUSEN-01
100
AcDbLine
 10
325.5000000000006
 20
8431.500000000005
 30
0.0
 11
12286.5
 21
8431.500000000005
 31
0.0
  0
LINE
  5
2A4CA
330
2A85E
100
AcDbEntity
  8
WAKUSEN-01
100
AcDbLine
 10
325.5000000000006
 20
310.4999999999998
 30
0.0
 11
325.5000000000006
 21
8431.500000000005
 31
0.0
  0
LINE
  5
2A4CB
330
2A85E
100
AcDbEntity
  8
WAKUSEN-01
100
AcDbLine
 10
12286.5
 20
310.4999999999998
 30
0.0
 11
12286.5
 21
8431.500000000005
 31
0.0
  0
LINE
  5
2A4CC
330
2A85E
100
AcDbEntity
  8
WAKUSEN-01
100
AcDbLine
 10
7710.0
 20
931.4999999999999
 30
0.0
 11
12286.5
 21
931.4999999999995
 31
0.0
  0
LINE
  5
2A4CD
330
2A85E
100
AcDbEntity
  8
WAKUSEN-02
100
AcDbLine
 10
7710.0
 20
620.9999999999999
 30
0.0
 11
10075.49999999999
 21
620.9999999999999
 31
0.0
  0
TEXT
  5
2A4CE
330
2A85E
100
AcDbEntity
  8
WAKUMOJI-01
100
AcDbText
 10
7751.347597486038
 20
797.2136285022457
 30
0.0
 40
90.0
  1
名　称
  7
WAKUMOJI
100
AcDbText
  0
TEXT
  5
2A4CF
330
2A85E
100
AcDbEntity
  8
WAKUMOJI-01
100
AcDbText
 10
7746.18955690947
 20
494.673365617433
 30
0.0
 40
90.0
  1
機種名
  7
WAKUMOJI
100
AcDbText
  0
LINE
  5
2A4D0
330
2A85E
100
AcDbEntity
  8
WAKUSEN-01
100
AcDbLine
 10
7710.0
 20
310.499999999999
 30
0.0
 11
7710.0
 21
931.4999999999999
 31
0.0
  0
LINE
  5
2A4D1
330
2A85E
100
AcDbEntity
  8
WAKUSEN-02
100
AcDbLine
 10
10075.49999999999
 20
310.4999999999973
 30
0.0
 11
10075.49999999999
 21
931.4999999999999
 31
0.0
  0
LINE
  5
2A4D2
330
2A85E
100
AcDbEntity
  8
YODOROGO
100
AcDbLine
 10
11241.60162798446
 20
748.4060611609828
 30
0.0
 11
11186.10162798447
 21
748.4060611609828
 31
0.0
1001
AUTOCAD_POSTSCRIPT_FIGURE
1002
{
1000
PSFILL
1000
Grayscale
1000
Grayscale
1070
    25
1002
}
  0
LINE
  5
2A4D3
330
2A85E
100
AcDbEntity
  8
YODOROGO
100
AcDbLine
 10
11186.10162798447
 20
730.406061160983
 30
0.0
 11
11241.60162798446
 21
730.406061160983
 31
0.0
1001
AUTOCAD_POSTSCRIPT_FIGURE
1002
{
1000
PSFILL
1000
Grayscale
1000
Grayscale
1070
    25
1002
}
  0
LINE
  5
2A4D4
330
2A85E
100
AcDbEntity
  8
YODOROGO
100
AcDbLine
 10
11241.60162798446
 20
715.4060611609828
 30
0.0
 11
11186.10162798447
 21
715.4060611609828
 31
0.0
1001
AUTOCAD_POSTSCRIPT_FIGURE
1002
{
1000
PSFILL
1000
Grayscale
1000
Grayscale
1070
    25
1002
}
  0
LINE
  5
2A4D5
330
2A85E
100
AcDbEntity
  8
YODOROGO
100
AcDbLine
 10
11186.10162798447
 20
697.406061160983
 30
0.0
 11
11241.60162798446
 21
697.406061160983
 31
0.0
1001
AUTOCAD_POSTSCRIPT_FIGURE
1002
{
1000
PSFILL
1000
Grayscale
1000
Grayscale
1070
    25
1002
}
  0
LINE
  5
2A4D6
330
2A85E
100
AcDbEntity
  8
YODOROGO
100
AcDbLine
 10
11241.60162798446
 20
682.4060611609829
 30
0.0
 11
11186.10162798447
 21
682.4060611609829
 31
0.0
1001
AUTOCAD_POSTSCRIPT_FIGURE
1002
{
1000
PSFILL
1000
Grayscale
1000
Grayscale
1070
    25
1002
}
  0
LINE
  5
2A4D7
330
2A85E
100
AcDbEntity
  8
YODOROGO
100
AcDbLine
 10
11220.60162798447
 20
640.4060611609828
 30
0.0
 11
11241.60162798446
 21
640.4060611609828
 31
0.0
1001
AUTOCAD_POSTSCRIPT_FIGURE
1002
{
1000
PSFILL
1000
Grayscale
1000
Grayscale
1070
    25
1002
}
  0
LINE
  5
2A4D8
330
2A85E
100
AcDbEntity
  8
YODOROGO
100
AcDbLine
 10
11151.60162798447
 20
535.4060611609829
 30
0.0
 11
11226.60162798446
 21
555.5022505933164
 31
0.0
  0
LINE
  5
2A4D9
330
2A85E
100
AcDbEntity
  8
YODOROGO
100
AcDbLine
 10
11231.10162798446
 20
640.4060611609828
 30
0.0
 11
11207.10162798447
 21
640.4060611609828
 31
0.0
  0
ARC
  5
2A4DA
330
2A85E
100
AcDbEntity
  8
YODOROGO
100
AcDbCircle
 10
11345.38040618545
 20
677.9492284624735
 30
0.0
 40
143.2075740771177
100
AcDbArc
 50
213.9611167766784
 51
264.4787207431779
  0
ARC
  5
2A4DB
330
2A85E
100
AcDbEntity
  8
YODOROGO
100
AcDbCircle
 10
11345.38040618547
 20
677.9492284624882
 30
0.0
 40
143.2075740771305
100
AcDbArc
 50
208.141144204866
 51
212.9210361185995
  0
LINE
  5
2A4DC
330
2A85E
100
AcDbEntity
  8
YODOROGO
100
AcDbLine
 10
11164.27870236949
 20
583.8028730048376
 30
0.0
 11
11225.1690496907
 21
600.1183923964076
 31
0.0
  0
LINE
  5
2A4DD
330
2A85E
100
AcDbEntity
  8
YODOROGO
100
AcDbLine
 10
11151.60162798447
 20
535.4060611609829
 30
0.0
 11
11226.60162798446
 21
555.5022505933164
 31
0.0
  0
LINE
  5
2A4DE
330
2A85E
100
AcDbEntity
  8
YODOROGO
100
AcDbLine
 10
11231.10162798446
 20
640.4060611609828
 30
0.0
 11
11207.10162798447
 21
640.4060611609828
 31
0.0
  0
ARC
  5
2A4DF
330
2A85E
100
AcDbEntity
  8
YODOROGO
100
AcDbCircle
 10
11345.38040618545
 20
677.9492284624735
 30
0.0
 40
143.2075740771177
100
AcDbArc
 50
213.9611167766784
 51
264.4787207431779
  0
LINE
  5
2A4E0
330
2A85E
100
AcDbEntity
  8
YODOROGO
100
AcDbLine
 10
10797.60162798445
 20
682.4060611609829
 30
0.0
 11
10662.60162798446
 21
682.4060611609829
 31
0.0
  0
LINE
  5
2A4E1
330
2A85E
100
AcDbEntity
  8
YODOROGO
100
AcDbLine
 10
10692.60162798445
 20
535.4060611609829
 30
0.0
 11
10797.60162798445
 21
535.4060611609829
 31
0.0
  0
LINE
  5
2A4E2
330
2A85E
100
AcDbEntity
  8
YODOROGO
100
AcDbLine
 10
10773.60162798447
 20
721.4060611609826
 30
0.0
 11
10686.60162798446
 21
721.4060611609826
 31
0.0
  0
LINE
  5
2A4E3
330
2A85E
100
AcDbEntity
  8
YODOROGO
100
AcDbLine
 10
10719.60162798446
 20
760.4060611609829
 30
0.0
 11
10746.60162798447
 21
760.4060611609829
 31
0.0
  0
LINE
  5
2A4E4
330
2A85E
100
AcDbEntity
  8
YODOROGO
100
AcDbLine
 10
10662.60162798446
 20
640.4060611609828
 30
0.0
 11
10662.60162798446
 21
565.4060611609828
 31
0.0
  0
LINE
  5
2A4E5
330
2A85E
100
AcDbEntity
  8
YODOROGO
100
AcDbLine
 10
10686.60162798446
 20
586.4060611609826
 30
0.0
 11
10686.60162798446
 21
640.4060611609828
 31
0.0
  0
LINE
  5
2A4E6
330
2A85E
100
AcDbEntity
  8
YODOROGO
100
AcDbLine
 10
10719.60162798446
 20
655.4060611609838
 30
0.0
 11
10719.60162798446
 21
580.406061160983
 31
0.0
  0
LINE
  5
2A4E7
330
2A85E
100
AcDbEntity
  8
YODOROGO
100
AcDbLine
 10
10446.60162798447
 20
631.4060611609833
 30
0.0
 11
10416.60162798446
 21
607.4896552667143
 31
0.0
  0
LINE
  5
2A4E8
330
2A85E
100
AcDbEntity
  8
YODOROGO
100
AcDbLine
 10
10476.60162798446
 20
607.4896552667143
 30
0.0
 11
10446.60162798447
 21
631.4060611609833
 31
0.0
  0
LINE
  5
2A4E9
330
2A85E
100
AcDbEntity
  8
YODOROGO
100
AcDbLine
 10
10446.60162798447
 20
640.4060611609828
 30
0.0
 11
10476.60162798446
 21
616.4896552667137
 31
0.0
  0
LINE
  5
2A4EA
330
2A85E
100
AcDbEntity
  8
YODOROGO
100
AcDbLine
 10
10416.60162798446
 20
616.4896552667137
 30
0.0
 11
10446.60162798447
 21
640.4060611609828
 31
0.0
  0
LINE
  5
2A4EB
330
2A85E
100
AcDbEntity
  8
YODOROGO
100
AcDbLine
 10
10515.34245150633
 20
622.406061160983
 30
0.0
 11
10515.34245150633
 21
631.4060611609826
 31
0.0
  0
LINE
  5
2A4EC
330
2A85E
100
AcDbEntity
  8
YODOROGO
100
AcDbLine
 10
10491.60162798447
 20
631.4060611609826
 30
0.0
 11
10491.60162798447
 21
625.4060611609819
 31
0.0
  0
LINE
  5
2A4ED
330
2A85E
100
AcDbEntity
  8
YODOROGO
100
AcDbLine
 10
10536.8008200866
 20
640.4060611609828
 30
0.0
 11
10536.8008200866
 21
620.813863977996
 31
0.0
1001
AUTOCAD_POSTSCRIPT_FIGURE
1002
{
1000
PSFILL
1000
Grayscale
1000
Grayscale
1070
   100
1002
}
  0
LINE
  5
2A4EE
330
2A85E
100
AcDbEntity
  8
YODOROGO
100
AcDbLine
 10
10530.80082008658
 20
620.813863977996
 30
0.0
 11
10530.80082008658
 21
640.4060611609828
 31
0.0
1001
AUTOCAD_POSTSCRIPT_FIGURE
1002
{
1000
PSFILL
1000
Grayscale
1000
Grayscale
1070
   100
1002
}
  0
LINE
  5
2A4EF
330
2A85E
100
AcDbEntity
  8
YODOROGO
100
AcDbLine
 10
10428.60162798447
 20
603.2894640162218
 30
0.0
 11
10428.60162798447
 21
612.2894640162222
 31
0.0
  0
LINE
  5
2A4F0
330
2A85E
100
AcDbEntity
  8
YODOROGO
100
AcDbLine
 10
10464.60162798447
 20
603.2894640162218
 30
0.0
 11
10428.60162798447
 21
603.2894640162218
 31
0.0
  0
LINE
  5
2A4F1
330
2A85E
100
AcDbEntity
  8
YODOROGO
100
AcDbLine
 10
10464.60162798447
 20
612.2894640162222
 30
0.0
 11
10464.60162798447
 21
603.2894640162218
 31
0.0
  0
LINE
  5
2A4F2
330
2A85E
100
AcDbEntity
  8
YODOROGO
100
AcDbLine
 10
10428.60162798447
 20
612.2894640162222
 30
0.0
 11
10464.60162798447
 21
612.2894640162222
 31
0.0
  0
LINE
  5
2A4F3
330
2A85E
100
AcDbEntity
  8
YODOROGO
100
AcDbLine
 10
10434.1910958434
 20
588.1885715139279
 30
0.0
 11
10419.60162798446
 21
553.4060611609826
 31
0.0
1001
AUTOCAD_POSTSCRIPT_FIGURE
1002
{
1000
PSFILL
1000
Grayscale
1000
Grayscale
1070
   100
1002
}
  0
LINE
  5
2A4F4
330
2A85E
100
AcDbEntity
  8
YODOROGO
100
AcDbLine
 10
10416.60162798446
 20
588.1885715139279
 30
0.0
 11
10434.1910958434
 21
588.1885715139279
 31
0.0
1001
AUTOCAD_POSTSCRIPT_FIGURE
1002
{
1000
PSFILL
1000
Grayscale
1000
Grayscale
1070
   100
1002
}
  0
LINE
  5
2A4F5
330
2A85E
100
AcDbEntity
  8
YODOROGO
100
AcDbLine
 10
10416.60162798446
 20
595.688571513928
 30
0.0
 11
10416.60162798446
 21
588.1885715139279
 31
0.0
1001
AUTOCAD_POSTSCRIPT_FIGURE
1002
{
1000
PSFILL
1000
Grayscale
1000
Grayscale
1070
   100
1002
}
  0
LINE
  5
2A4F6
330
2A85E
100
AcDbEntity
  8
YODOROGO
100
AcDbLine
 10
10476.60162798446
 20
595.688571513928
 30
0.0
 11
10416.60162798446
 21
595.688571513928
 31
0.0
1001
AUTOCAD_POSTSCRIPT_FIGURE
1002
{
1000
PSFILL
1000
Grayscale
1000
Grayscale
1070
   100
1002
}
  0
LINE
  5
2A4F7
330
2A85E
100
AcDbEntity
  8
YODOROGO
100
AcDbLine
 10
10476.60162798446
 20
588.1885715139279
 30
0.0
 11
10476.60162798446
 21
595.688571513928
 31
0.0
1001
AUTOCAD_POSTSCRIPT_FIGURE
1002
{
1000
PSFILL
1000
Grayscale
1000
Grayscale
1070
   100
1002
}
  0
LINE
  5
2A4F8
330
2A85E
100
AcDbEntity
  8
YODOROGO
100
AcDbLine
 10
10441.69109584339
 20
588.1885715139279
 30
0.0
 11
10476.60162798446
 21
588.1885715139279
 31
0.0
1001
AUTOCAD_POSTSCRIPT_FIGURE
1002
{
1000
PSFILL
1000
Grayscale
1000
Grayscale
1070
   100
1002
}
  0
LINE
  5
2A4F9
330
2A85E
100
AcDbEntity
  8
YODOROGO
100
AcDbLine
 10
10430.83001935679
 20
560.9060611609826
 30
0.0
 11
10441.69109584339
 21
588.1885715139279
 31
0.0
1001
AUTOCAD_POSTSCRIPT_FIGURE
1002
{
1000
PSFILL
1000
Grayscale
1000
Grayscale
1070
   100
1002
}
  0
LINE
  5
2A4FA
330
2A85E
100
AcDbEntity
  8
YODOROGO
100
AcDbLine
 10
10463.27054655324
 20
560.9060611609826
 30
0.0
 11
10430.83001935679
 21
560.9060611609826
 31
0.0
1001
AUTOCAD_POSTSCRIPT_FIGURE
1002
{
1000
PSFILL
1000
Grayscale
1000
Grayscale
1070
   100
1002
}
  0
LINE
  5
2A4FB
330
2A85E
100
AcDbEntity
  8
YODOROGO
100
AcDbLine
 10
10456.8993767966
 20
576.0876790116348
 30
0.0
 11
10463.27054655324
 21
560.9060611609826
 31
0.0
1001
AUTOCAD_POSTSCRIPT_FIGURE
1002
{
1000
PSFILL
1000
Grayscale
1000
Grayscale
1070
   100
1002
}
  0
LINE
  5
2A4FC
330
2A85E
100
AcDbEntity
  8
YODOROGO
100
AcDbLine
 10
10462.89937679661
 20
576.0876790116348
 30
0.0
 11
10456.8993767966
 21
576.0876790116348
 31
0.0
1001
AUTOCAD_POSTSCRIPT_FIGURE
1002
{
1000
PSFILL
1000
Grayscale
1000
Grayscale
1070
   100
1002
}
  0
LINE
  5
2A4FD
330
2A85E
100
AcDbEntity
  8
YODOROGO
100
AcDbLine
 10
10473.60162798447
 20
553.4060611609826
 30
0.0
 11
10462.89937679661
 21
576.0876790116348
 31
0.0
1001
AUTOCAD_POSTSCRIPT_FIGURE
1002
{
1000
PSFILL
1000
Grayscale
1000
Grayscale
1070
   100
1002
}
  0
LINE
  5
2A4FE
330
2A85E
100
AcDbEntity
  8
YODOROGO
100
AcDbLine
 10
10419.60162798446
 20
553.4060611609826
 30
0.0
 11
10473.60162798447
 21
553.4060611609826
 31
0.0
1001
AUTOCAD_POSTSCRIPT_FIGURE
1002
{
1000
PSFILL
1000
Grayscale
1000
Grayscale
1070
   100
1002
}
  0
LINE
  5
2A4FF
330
2A85E
100
AcDbEntity
  8
YODOROGO
100
AcDbLine
 10
10416.60162798446
 20
607.4896552667143
 30
0.0
 11
10416.60162798446
 21
616.4896552667137
 31
0.0
  0
LINE
  5
2A500
330
2A85E
100
AcDbEntity
  8
YODOROGO
100
AcDbLine
 10
10476.60162798446
 20
616.4896552667137
 30
0.0
 11
10476.60162798446
 21
607.4896552667143
 31
0.0
  0
ARC
  5
2A501
330
2A85E
100
AcDbEntity
  8
YODOROGO
100
AcDbCircle
 10
10584.72766580511
 20
600.3291619969972
 30
0.0
 40
65.99999999999997
100
AcDbArc
 50
280.3644312771313
 51
3.541483659218056
  0
ARC
  5
2A502
330
2A85E
100
AcDbEntity
  8
YODOROGO
100
AcDbCircle
 10
10588.40851153474
 20
612.5991776107142
 30
0.0
 40
41.99999999999936
100
AcDbArc
 50
281.2490582504155
 51
348.7509417495832
  0
LINE
  5
2A503
330
2A85E
100
AcDbEntity
  8
YODOROGO
100
AcDbLine
 10
10596.60162798446
 20
571.4060611609826
 30
0.0
 11
10596.60162798446
 21
535.4060611609829
 31
0.0
  0
LINE
  5
2A504
330
2A85E
100
AcDbEntity
  8
YODOROGO
100
AcDbLine
 10
10507.53333890132
 20
603.9939618982182
 30
0.0
 11
10515.34245150633
 21
622.406061160983
 31
0.0
  0
LINE
  5
2A505
330
2A85E
100
AcDbEntity
  8
YODOROGO
100
AcDbLine
 10
10515.60162798445
 20
593.6701837306506
 30
0.0
 11
10507.53333890132
 21
603.9939618982182
 31
0.0
  0
LINE
  5
2A506
330
2A85E
100
AcDbEntity
  8
YODOROGO
100
AcDbLine
 10
10515.60162798445
 20
586.1701837306497
 30
0.0
 11
10515.60162798445
 21
593.6701837306506
 31
0.0
  0
LINE
  5
2A507
330
2A85E
100
AcDbEntity
  8
YODOROGO
100
AcDbLine
 10
10506.60162798447
 20
594.4638989060739
 30
0.0
 11
10515.60162798445
 21
586.1701837306497
 31
0.0
  0
LINE
  5
2A508
330
2A85E
100
AcDbEntity
  8
YODOROGO
100
AcDbLine
 10
10506.60162798447
 20
553.4060611609826
 30
0.0
 11
10506.60162798447
 21
594.4638989060739
 31
0.0
  0
LINE
  5
2A509
330
2A85E
100
AcDbEntity
  8
YODOROGO
100
AcDbLine
 10
10500.60162798446
 20
553.4060611609826
 30
0.0
 11
10506.60162798447
 21
553.4060611609826
 31
0.0
  0
LINE
  5
2A50A
330
2A85E
100
AcDbEntity
  8
YODOROGO
100
AcDbLine
 10
10500.60162798446
 20
592.5020061336555
 30
0.0
 11
10500.60162798446
 21
553.4060611609826
 31
0.0
  0
LINE
  5
2A50B
330
2A85E
100
AcDbEntity
  8
YODOROGO
100
AcDbLine
 10
10491.60162798447
 20
574.7880296375358
 30
0.0
 11
10500.60162798446
 21
592.5020061336555
 31
0.0
  0
LINE
  5
2A50C
330
2A85E
100
AcDbEntity
  8
YODOROGO
100
AcDbLine
 10
10491.60162798447
 20
583.788029637536
 30
0.0
 11
10491.60162798447
 21
574.7880296375358
 31
0.0
  0
LINE
  5
2A50D
330
2A85E
100
AcDbEntity
  8
YODOROGO
100
AcDbLine
 10
10509.68579035925
 20
625.4060611609819
 30
0.0
 11
10491.60162798447
 21
583.788029637536
 31
0.0
  0
LINE
  5
2A50E
330
2A85E
100
AcDbEntity
  8
YODOROGO
100
AcDbLine
 10
10491.60162798447
 20
625.4060611609819
 30
0.0
 11
10509.68579035925
 21
625.4060611609819
 31
0.0
  0
LINE
  5
2A50F
330
2A85E
100
AcDbEntity
  8
YODOROGO
100
AcDbLine
 10
10518.80082008659
 20
620.813863977996
 30
0.0
 11
10530.80082008658
 21
620.813863977996
 31
0.0
1001
AUTOCAD_POSTSCRIPT_FIGURE
1002
{
1000
PSFILL
1000
Grayscale
1000
Grayscale
1070
   100
1002
}
  0
LINE
  5
2A510
330
2A85E
100
AcDbEntity
  8
YODOROGO
100
AcDbLine
 10
10518.80082008659
 20
611.8138639779963
 30
0.0
 11
10518.80082008659
 21
620.813863977996
 31
0.0
1001
AUTOCAD_POSTSCRIPT_FIGURE
1002
{
1000
PSFILL
1000
Grayscale
1000
Grayscale
1070
   100
1002
}
  0
LINE
  5
2A511
330
2A85E
100
AcDbEntity
  8
YODOROGO
100
AcDbLine
 10
10530.80082008658
 20
611.8138639779963
 30
0.0
 11
10518.80082008659
 21
611.8138639779963
 31
0.0
1001
AUTOCAD_POSTSCRIPT_FIGURE
1002
{
1000
PSFILL
1000
Grayscale
1000
Grayscale
1070
   100
1002
}
  0
LINE
  5
2A512
330
2A85E
100
AcDbEntity
  8
YODOROGO
100
AcDbLine
 10
10530.80082008658
 20
562.4060611609831
 30
0.0
 11
10530.80082008658
 21
611.8138639779963
 31
0.0
1001
AUTOCAD_POSTSCRIPT_FIGURE
1002
{
1000
PSFILL
1000
Grayscale
1000
Grayscale
1070
   100
1002
}
  0
LINE
  5
2A513
330
2A85E
100
AcDbEntity
  8
YODOROGO
100
AcDbLine
 10
10518.8008200866
 20
562.4060611609831
 30
0.0
 11
10530.80082008658
 21
562.4060611609831
 31
0.0
1001
AUTOCAD_POSTSCRIPT_FIGURE
1002
{
1000
PSFILL
1000
Grayscale
1000
Grayscale
1070
   100
1002
}
  0
LINE
  5
2A514
330
2A85E
100
AcDbEntity
  8
YODOROGO
100
AcDbLine
 10
10518.8008200866
 20
553.4060611609826
 30
0.0
 11
10518.8008200866
 21
562.4060611609831
 31
0.0
1001
AUTOCAD_POSTSCRIPT_FIGURE
1002
{
1000
PSFILL
1000
Grayscale
1000
Grayscale
1070
   100
1002
}
  0
LINE
  5
2A515
330
2A85E
100
AcDbEntity
  8
YODOROGO
100
AcDbLine
 10
10551.60162798447
 20
553.4060611609826
 30
0.0
 11
10518.8008200866
 21
553.4060611609826
 31
0.0
1001
AUTOCAD_POSTSCRIPT_FIGURE
1002
{
1000
PSFILL
1000
Grayscale
1000
Grayscale
1070
   100
1002
}
  0
LINE
  5
2A516
330
2A85E
100
AcDbEntity
  8
YODOROGO
100
AcDbLine
 10
10551.60162798447
 20
562.4060611609831
 30
0.0
 11
10551.60162798447
 21
553.4060611609826
 31
0.0
1001
AUTOCAD_POSTSCRIPT_FIGURE
1002
{
1000
PSFILL
1000
Grayscale
1000
Grayscale
1070
   100
1002
}
  0
LINE
  5
2A517
330
2A85E
100
AcDbEntity
  8
YODOROGO
100
AcDbLine
 10
10536.8008200866
 20
562.4060611609831
 30
0.0
 11
10551.60162798447
 21
562.4060611609831
 31
0.0
1001
AUTOCAD_POSTSCRIPT_FIGURE
1002
{
1000
PSFILL
1000
Grayscale
1000
Grayscale
1070
   100
1002
}
  0
LINE
  5
2A518
330
2A85E
100
AcDbEntity
  8
YODOROGO
100
AcDbLine
 10
10536.8008200866
 20
611.8138639779963
 30
0.0
 11
10536.8008200866
 21
562.4060611609831
 31
0.0
1001
AUTOCAD_POSTSCRIPT_FIGURE
1002
{
1000
PSFILL
1000
Grayscale
1000
Grayscale
1070
   100
1002
}
  0
LINE
  5
2A519
330
2A85E
100
AcDbEntity
  8
YODOROGO
100
AcDbLine
 10
10551.60162798447
 20
611.8138639779963
 30
0.0
 11
10536.8008200866
 21
611.8138639779963
 31
0.0
1001
AUTOCAD_POSTSCRIPT_FIGURE
1002
{
1000
PSFILL
1000
Grayscale
1000
Grayscale
1070
   100
1002
}
  0
LINE
  5
2A51A
330
2A85E
100
AcDbEntity
  8
YODOROGO
100
AcDbLine
 10
10551.60162798447
 20
620.813863977996
 30
0.0
 11
10551.60162798447
 21
611.8138639779963
 31
0.0
1001
AUTOCAD_POSTSCRIPT_FIGURE
1002
{
1000
PSFILL
1000
Grayscale
1000
Grayscale
1070
   100
1002
}
  0
LINE
  5
2A51B
330
2A85E
100
AcDbEntity
  8
YODOROGO
100
AcDbLine
 10
10536.8008200866
 20
620.813863977996
 30
0.0
 11
10551.60162798447
 21
620.813863977996
 31
0.0
1001
AUTOCAD_POSTSCRIPT_FIGURE
1002
{
1000
PSFILL
1000
Grayscale
1000
Grayscale
1070
   100
1002
}
  0
LINE
  5
2A51C
330
2A85E
100
AcDbEntity
  8
YODOROGO
100
AcDbLine
 10
10650.60162798447
 20
625.406061160983
 30
0.0
 11
10629.60162798447
 21
625.406061160983
 31
0.0
  0
LINE
  5
2A51D
330
2A85E
100
AcDbEntity
  8
YODOROGO
100
AcDbLine
 10
10650.60162798447
 20
604.4060611609832
 30
0.0
 11
10650.60162798447
 21
625.406061160983
 31
0.0
  0
LINE
  5
2A51E
330
2A85E
100
AcDbEntity
  8
YODOROGO
100
AcDbLine
 10
10629.60162798447
 20
625.406061160983
 30
0.0
 11
10629.60162798447
 21
604.4060611609832
 31
0.0
  0
ARC
  5
2A51F
330
2A85E
100
AcDbEntity
  8
YODOROGO
100
AcDbCircle
 10
10692.60162798445
 20
565.4060611609828
 30
0.0
 40
30.0
100
AcDbArc
 50
180.0
 51
270.0
  0
ARC
  5
2A520
330
2A85E
100
AcDbEntity
  8
YODOROGO
100
AcDbCircle
 10
10701.60162798445
 20
586.4060611609826
 30
0.0
 40
15.0
100
AcDbArc
 50
180.0
 51
270.0
  0
LINE
  5
2A521
330
2A85E
100
AcDbEntity
  8
YODOROGO
100
AcDbLine
 10
10710.60162798447
 20
571.4060611609826
 30
0.0
 11
10701.60162798445
 21
571.4060611609826
 31
0.0
  0
ARC
  5
2A522
330
2A85E
100
AcDbEntity
  8
YODOROGO
100
AcDbCircle
 10
10710.60162798447
 20
580.4060611609819
 30
0.0
 40
8.999999999998635
100
AcDbArc
 50
270.0
 51
0.0000000000054281
  0
LINE
  5
2A523
330
2A85E
100
AcDbEntity
  8
YODOROGO
100
AcDbLine
 10
10425.60162798447
 20
709.0449677976399
 30
0.0
 11
10416.60162798446
 21
691.4162804818772
 31
0.0
1001
AUTOCAD_POSTSCRIPT_FIGURE
1002
{
1000
PSFILL
1000
Grayscale
1000
Grayscale
1070
   100
1002
}
  0
LINE
  5
2A524
330
2A85E
100
AcDbEntity
  8
YODOROGO
100
AcDbLine
 10
10425.60162798447
 20
655.406061160983
 30
0.0
 11
10425.60162798447
 21
709.0449677976399
 31
0.0
1001
AUTOCAD_POSTSCRIPT_FIGURE
1002
{
1000
PSFILL
1000
Grayscale
1000
Grayscale
1070
   100
1002
}
  0
LINE
  5
2A525
330
2A85E
100
AcDbEntity
  8
YODOROGO
100
AcDbLine
 10
10431.60162798447
 20
655.406061160983
 30
0.0
 11
10425.60162798447
 21
655.406061160983
 31
0.0
1001
AUTOCAD_POSTSCRIPT_FIGURE
1002
{
1000
PSFILL
1000
Grayscale
1000
Grayscale
1070
   100
1002
}
  0
LINE
  5
2A526
330
2A85E
100
AcDbEntity
  8
YODOROGO
100
AcDbLine
 10
10431.60162798447
 20
710.1642495319751
 30
0.0
 11
10431.60162798447
 21
655.406061160983
 31
0.0
1001
AUTOCAD_POSTSCRIPT_FIGURE
1002
{
1000
PSFILL
1000
Grayscale
1000
Grayscale
1070
   100
1002
}
  0
LINE
  5
2A527
330
2A85E
100
AcDbEntity
  8
YODOROGO
100
AcDbLine
 10
10440.60162798446
 20
700.3705343565512
 30
0.0
 11
10431.60162798447
 21
710.1642495319751
 31
0.0
1001
AUTOCAD_POSTSCRIPT_FIGURE
1002
{
1000
PSFILL
1000
Grayscale
1000
Grayscale
1070
   100
1002
}
  0
LINE
  5
2A528
330
2A85E
100
AcDbEntity
  8
YODOROGO
100
AcDbLine
 10
10440.60162798446
 20
706.3705343565509
 30
0.0
 11
10440.60162798446
 21
700.3705343565512
 31
0.0
1001
AUTOCAD_POSTSCRIPT_FIGURE
1002
{
1000
PSFILL
1000
Grayscale
1000
Grayscale
1070
   100
1002
}
  0
LINE
  5
2A529
330
2A85E
100
AcDbEntity
  8
YODOROGO
100
AcDbLine
 10
10431.60162798447
 20
719.1642495319745
 30
0.0
 11
10440.60162798446
 21
706.3705343565509
 31
0.0
1001
AUTOCAD_POSTSCRIPT_FIGURE
1002
{
1000
PSFILL
1000
Grayscale
1000
Grayscale
1070
   100
1002
}
  0
LINE
  5
2A52A
330
2A85E
100
AcDbEntity
  8
YODOROGO
100
AcDbLine
 10
10431.60162798447
 20
727.4060611609829
 30
0.0
 11
10431.60162798447
 21
719.1642495319745
 31
0.0
1001
AUTOCAD_POSTSCRIPT_FIGURE
1002
{
1000
PSFILL
1000
Grayscale
1000
Grayscale
1070
   100
1002
}
  0
LINE
  5
2A52B
330
2A85E
100
AcDbEntity
  8
YODOROGO
100
AcDbLine
 10
10458.60162798446
 20
727.4060611609829
 30
0.0
 11
10431.60162798447
 21
727.4060611609829
 31
0.0
1001
AUTOCAD_POSTSCRIPT_FIGURE
1002
{
1000
PSFILL
1000
Grayscale
1000
Grayscale
1070
   100
1002
}
  0
LINE
  5
2A52C
330
2A85E
100
AcDbEntity
  8
YODOROGO
100
AcDbLine
 10
10458.60162798446
 20
712.7131308511124
 30
0.0
 11
10458.60162798446
 21
727.4060611609829
 31
0.0
1001
AUTOCAD_POSTSCRIPT_FIGURE
1002
{
1000
PSFILL
1000
Grayscale
1000
Grayscale
1070
   100
1002
}
  0
LINE
  5
2A52D
330
2A85E
100
AcDbEntity
  8
YODOROGO
100
AcDbLine
 10
10446.60162798447
 20
712.7131308511124
 30
0.0
 11
10458.60162798446
 21
712.7131308511124
 31
0.0
1001
AUTOCAD_POSTSCRIPT_FIGURE
1002
{
1000
PSFILL
1000
Grayscale
1000
Grayscale
1070
   100
1002
}
  0
LINE
  5
2A52E
330
2A85E
100
AcDbEntity
  8
YODOROGO
100
AcDbLine
 10
10446.60162798447
 20
706.7131308511116
 30
0.0
 11
10446.60162798447
 21
712.7131308511124
 31
0.0
1001
AUTOCAD_POSTSCRIPT_FIGURE
1002
{
1000
PSFILL
1000
Grayscale
1000
Grayscale
1070
   100
1002
}
  0
LINE
  5
2A52F
330
2A85E
100
AcDbEntity
  8
YODOROGO
100
AcDbLine
 10
10458.60162798446
 20
706.7131308511116
 30
0.0
 11
10446.60162798447
 21
706.7131308511116
 31
0.0
1001
AUTOCAD_POSTSCRIPT_FIGURE
1002
{
1000
PSFILL
1000
Grayscale
1000
Grayscale
1070
   100
1002
}
  0
LINE
  5
2A530
330
2A85E
100
AcDbEntity
  8
YODOROGO
100
AcDbLine
 10
10458.60162798446
 20
704.8571917366647
 30
0.0
 11
10458.60162798446
 21
706.7131308511116
 31
0.0
1001
AUTOCAD_POSTSCRIPT_FIGURE
1002
{
1000
PSFILL
1000
Grayscale
1000
Grayscale
1070
   100
1002
}
  0
LINE
  5
2A531
330
2A85E
100
AcDbEntity
  8
YODOROGO
100
AcDbLine
 10
10443.60162798447
 20
679.8656179355313
 30
0.0
 11
10458.60162798446
 21
704.8571917366647
 31
0.0
1001
AUTOCAD_POSTSCRIPT_FIGURE
1002
{
1000
PSFILL
1000
Grayscale
1000
Grayscale
1070
   100
1002
}
  0
LINE
  5
2A532
330
2A85E
100
AcDbEntity
  8
YODOROGO
100
AcDbLine
 10
10443.60162798447
 20
673.8656179355309
 30
0.0
 11
10443.60162798447
 21
679.8656179355313
 31
0.0
1001
AUTOCAD_POSTSCRIPT_FIGURE
1002
{
1000
PSFILL
1000
Grayscale
1000
Grayscale
1070
   100
1002
}
  0
LINE
  5
2A533
330
2A85E
100
AcDbEntity
  8
YODOROGO
100
AcDbLine
 10
10458.60162798446
 20
692.8571917366638
 30
0.0
 11
10443.60162798447
 21
673.8656179355309
 31
0.0
1001
AUTOCAD_POSTSCRIPT_FIGURE
1002
{
1000
PSFILL
1000
Grayscale
1000
Grayscale
1070
   100
1002
}
  0
LINE
  5
2A534
330
2A85E
100
AcDbEntity
  8
YODOROGO
100
AcDbLine
 10
10458.60162798446
 20
655.406061160983
 30
0.0
 11
10458.60162798446
 21
692.8571917366638
 31
0.0
1001
AUTOCAD_POSTSCRIPT_FIGURE
1002
{
1000
PSFILL
1000
Grayscale
1000
Grayscale
1070
   100
1002
}
  0
LINE
  5
2A535
330
2A85E
100
AcDbEntity
  8
YODOROGO
100
AcDbLine
 10
10464.60162798447
 20
655.406061160983
 30
0.0
 11
10458.60162798446
 21
655.406061160983
 31
0.0
1001
AUTOCAD_POSTSCRIPT_FIGURE
1002
{
1000
PSFILL
1000
Grayscale
1000
Grayscale
1070
   100
1002
}
  0
LINE
  5
2A536
330
2A85E
100
AcDbEntity
  8
YODOROGO
100
AcDbLine
 10
10464.60162798447
 20
693.5283795595521
 30
0.0
 11
10464.60162798447
 21
655.406061160983
 31
0.0
1001
AUTOCAD_POSTSCRIPT_FIGURE
1002
{
1000
PSFILL
1000
Grayscale
1000
Grayscale
1070
   100
1002
}
  0
LINE
  5
2A537
330
2A85E
100
AcDbEntity
  8
YODOROGO
100
AcDbLine
 10
10476.60162798446
 20
673.8656179355309
 30
0.0
 11
10464.60162798447
 21
693.5283795595521
 31
0.0
1001
AUTOCAD_POSTSCRIPT_FIGURE
1002
{
1000
PSFILL
1000
Grayscale
1000
Grayscale
1070
   100
1002
}
  0
LINE
  5
2A538
330
2A85E
100
AcDbEntity
  8
YODOROGO
100
AcDbLine
 10
10476.60162798446
 20
679.8656179355313
 30
0.0
 11
10476.60162798446
 21
673.8656179355309
 31
0.0
1001
AUTOCAD_POSTSCRIPT_FIGURE
1002
{
1000
PSFILL
1000
Grayscale
1000
Grayscale
1070
   100
1002
}
  0
LINE
  5
2A539
330
2A85E
100
AcDbEntity
  8
YODOROGO
100
AcDbLine
 10
10464.60162798447
 20
705.5283795595531
 30
0.0
 11
10476.60162798446
 21
679.8656179355313
 31
0.0
1001
AUTOCAD_POSTSCRIPT_FIGURE
1002
{
1000
PSFILL
1000
Grayscale
1000
Grayscale
1070
   100
1002
}
  0
LINE
  5
2A53A
330
2A85E
100
AcDbEntity
  8
YODOROGO
100
AcDbLine
 10
10464.60162798447
 20
706.7131308511128
 30
0.0
 11
10464.60162798447
 21
705.5283795595531
 31
0.0
1001
AUTOCAD_POSTSCRIPT_FIGURE
1002
{
1000
PSFILL
1000
Grayscale
1000
Grayscale
1070
   100
1002
}
  0
LINE
  5
2A53B
330
2A85E
100
AcDbEntity
  8
YODOROGO
100
AcDbLine
 10
10476.60162798446
 20
706.7131308511116
 30
0.0
 11
10464.60162798447
 21
706.7131308511128
 31
0.0
1001
AUTOCAD_POSTSCRIPT_FIGURE
1002
{
1000
PSFILL
1000
Grayscale
1000
Grayscale
1070
   100
1002
}
  0
LINE
  5
2A53C
330
2A85E
100
AcDbEntity
  8
YODOROGO
100
AcDbLine
 10
10476.60162798446
 20
712.7131308511124
 30
0.0
 11
10476.60162798446
 21
706.7131308511116
 31
0.0
1001
AUTOCAD_POSTSCRIPT_FIGURE
1002
{
1000
PSFILL
1000
Grayscale
1000
Grayscale
1070
   100
1002
}
  0
LINE
  5
2A53D
330
2A85E
100
AcDbEntity
  8
YODOROGO
100
AcDbLine
 10
10464.60162798447
 20
712.7131308511124
 30
0.0
 11
10476.60162798446
 21
712.7131308511124
 31
0.0
1001
AUTOCAD_POSTSCRIPT_FIGURE
1002
{
1000
PSFILL
1000
Grayscale
1000
Grayscale
1070
   100
1002
}
  0
LINE
  5
2A53E
330
2A85E
100
AcDbEntity
  8
YODOROGO
100
AcDbLine
 10
10464.60162798447
 20
727.4060611609829
 30
0.0
 11
10464.60162798447
 21
712.7131308511124
 31
0.0
1001
AUTOCAD_POSTSCRIPT_FIGURE
1002
{
1000
PSFILL
1000
Grayscale
1000
Grayscale
1070
   100
1002
}
  0
LINE
  5
2A53F
330
2A85E
100
AcDbEntity
  8
YODOROGO
100
AcDbLine
 10
10476.60162798446
 20
727.4060611609829
 30
0.0
 11
10464.60162798447
 21
727.4060611609829
 31
0.0
1001
AUTOCAD_POSTSCRIPT_FIGURE
1002
{
1000
PSFILL
1000
Grayscale
1000
Grayscale
1070
   100
1002
}
  0
LINE
  5
2A540
330
2A85E
100
AcDbEntity
  8
YODOROGO
100
AcDbLine
 10
10476.60162798446
 20
733.4060611609828
 30
0.0
 11
10476.60162798446
 21
727.4060611609829
 31
0.0
1001
AUTOCAD_POSTSCRIPT_FIGURE
1002
{
1000
PSFILL
1000
Grayscale
1000
Grayscale
1070
   100
1002
}
  0
LINE
  5
2A541
330
2A85E
100
AcDbEntity
  8
YODOROGO
100
AcDbLine
 10
10464.60162798447
 20
733.4060611609828
 30
0.0
 11
10476.60162798446
 21
733.4060611609828
 31
0.0
1001
AUTOCAD_POSTSCRIPT_FIGURE
1002
{
1000
PSFILL
1000
Grayscale
1000
Grayscale
1070
   100
1002
}
  0
LINE
  5
2A542
330
2A85E
100
AcDbEntity
  8
YODOROGO
100
AcDbLine
 10
10464.60162798447
 20
742.4060611609831
 30
0.0
 11
10464.60162798447
 21
733.4060611609828
 31
0.0
1001
AUTOCAD_POSTSCRIPT_FIGURE
1002
{
1000
PSFILL
1000
Grayscale
1000
Grayscale
1070
   100
1002
}
  0
LINE
  5
2A543
330
2A85E
100
AcDbEntity
  8
YODOROGO
100
AcDbLine
 10
10458.60162798446
 20
742.4060611609831
 30
0.0
 11
10464.60162798447
 21
742.4060611609831
 31
0.0
1001
AUTOCAD_POSTSCRIPT_FIGURE
1002
{
1000
PSFILL
1000
Grayscale
1000
Grayscale
1070
   100
1002
}
  0
LINE
  5
2A544
330
2A85E
100
AcDbEntity
  8
YODOROGO
100
AcDbLine
 10
10458.60162798446
 20
733.4060611609828
 30
0.0
 11
10458.60162798446
 21
742.4060611609831
 31
0.0
1001
AUTOCAD_POSTSCRIPT_FIGURE
1002
{
1000
PSFILL
1000
Grayscale
1000
Grayscale
1070
   100
1002
}
  0
LINE
  5
2A545
330
2A85E
100
AcDbEntity
  8
YODOROGO
100
AcDbLine
 10
10449.60162798447
 20
733.4060611609828
 30
0.0
 11
10458.60162798446
 21
733.4060611609828
 31
0.0
1001
AUTOCAD_POSTSCRIPT_FIGURE
1002
{
1000
PSFILL
1000
Grayscale
1000
Grayscale
1070
   100
1002
}
  0
LINE
  5
2A546
330
2A85E
100
AcDbEntity
  8
YODOROGO
100
AcDbLine
 10
10449.60162798447
 20
742.4060611609831
 30
0.0
 11
10449.60162798447
 21
733.4060611609828
 31
0.0
1001
AUTOCAD_POSTSCRIPT_FIGURE
1002
{
1000
PSFILL
1000
Grayscale
1000
Grayscale
1070
   100
1002
}
  0
LINE
  5
2A547
330
2A85E
100
AcDbEntity
  8
YODOROGO
100
AcDbLine
 10
10443.60162798447
 20
742.4060611609831
 30
0.0
 11
10449.60162798447
 21
742.4060611609831
 31
0.0
1001
AUTOCAD_POSTSCRIPT_FIGURE
1002
{
1000
PSFILL
1000
Grayscale
1000
Grayscale
1070
   100
1002
}
  0
LINE
  5
2A548
330
2A85E
100
AcDbEntity
  8
YODOROGO
100
AcDbLine
 10
10443.60162798447
 20
733.4060611609828
 30
0.0
 11
10443.60162798447
 21
742.4060611609831
 31
0.0
1001
AUTOCAD_POSTSCRIPT_FIGURE
1002
{
1000
PSFILL
1000
Grayscale
1000
Grayscale
1070
   100
1002
}
  0
LINE
  5
2A549
330
2A85E
100
AcDbEntity
  8
YODOROGO
100
AcDbLine
 10
10431.60162798447
 20
733.4060611609828
 30
0.0
 11
10443.60162798447
 21
733.4060611609828
 31
0.0
1001
AUTOCAD_POSTSCRIPT_FIGURE
1002
{
1000
PSFILL
1000
Grayscale
1000
Grayscale
1070
   100
1002
}
  0
LINE
  5
2A54A
330
2A85E
100
AcDbEntity
  8
YODOROGO
100
AcDbLine
 10
10431.60162798447
 20
742.4060611609831
 30
0.0
 11
10431.60162798447
 21
733.4060611609828
 31
0.0
1001
AUTOCAD_POSTSCRIPT_FIGURE
1002
{
1000
PSFILL
1000
Grayscale
1000
Grayscale
1070
   100
1002
}
  0
LINE
  5
2A54B
330
2A85E
100
AcDbEntity
  8
YODOROGO
100
AcDbLine
 10
10425.60162798447
 20
742.4060611609831
 30
0.0
 11
10431.60162798447
 21
742.4060611609831
 31
0.0
1001
AUTOCAD_POSTSCRIPT_FIGURE
1002
{
1000
PSFILL
1000
Grayscale
1000
Grayscale
1070
   100
1002
}
  0
LINE
  5
2A54C
330
2A85E
100
AcDbEntity
  8
YODOROGO
100
AcDbLine
 10
10425.60162798447
 20
733.4060611609828
 30
0.0
 11
10425.60162798447
 21
742.4060611609831
 31
0.0
1001
AUTOCAD_POSTSCRIPT_FIGURE
1002
{
1000
PSFILL
1000
Grayscale
1000
Grayscale
1070
   100
1002
}
  0
LINE
  5
2A54D
330
2A85E
100
AcDbEntity
  8
YODOROGO
100
AcDbLine
 10
10416.60162798446
 20
733.4060611609828
 30
0.0
 11
10425.60162798447
 21
733.4060611609828
 31
0.0
1001
AUTOCAD_POSTSCRIPT_FIGURE
1002
{
1000
PSFILL
1000
Grayscale
1000
Grayscale
1070
   100
1002
}
  0
LINE
  5
2A54E
330
2A85E
100
AcDbEntity
  8
YODOROGO
100
AcDbLine
 10
10416.60162798446
 20
727.4060611609829
 30
0.0
 11
10416.60162798446
 21
733.4060611609828
 31
0.0
1001
AUTOCAD_POSTSCRIPT_FIGURE
1002
{
1000
PSFILL
1000
Grayscale
1000
Grayscale
1070
   100
1002
}
  0
LINE
  5
2A54F
330
2A85E
100
AcDbEntity
  8
YODOROGO
100
AcDbLine
 10
10425.60162798447
 20
727.4060611609829
 30
0.0
 11
10416.60162798446
 21
727.4060611609829
 31
0.0
1001
AUTOCAD_POSTSCRIPT_FIGURE
1002
{
1000
PSFILL
1000
Grayscale
1000
Grayscale
1070
   100
1002
}
  0
LINE
  5
2A550
330
2A85E
100
AcDbEntity
  8
YODOROGO
100
AcDbLine
 10
10425.60162798447
 20
718.0449677976392
 30
0.0
 11
10425.60162798447
 21
727.4060611609829
 31
0.0
1001
AUTOCAD_POSTSCRIPT_FIGURE
1002
{
1000
PSFILL
1000
Grayscale
1000
Grayscale
1070
   100
1002
}
  0
LINE
  5
2A551
330
2A85E
100
AcDbEntity
  8
YODOROGO
100
AcDbLine
 10
10416.60162798446
 20
697.4162804818766
 30
0.0
 11
10425.60162798447
 21
718.0449677976392
 31
0.0
1001
AUTOCAD_POSTSCRIPT_FIGURE
1002
{
1000
PSFILL
1000
Grayscale
1000
Grayscale
1070
   100
1002
}
  0
LINE
  5
2A552
330
2A85E
100
AcDbEntity
  8
YODOROGO
100
AcDbLine
 10
10416.60162798446
 20
691.4162804818772
 30
0.0
 11
10416.60162798446
 21
697.4162804818766
 31
0.0
1001
AUTOCAD_POSTSCRIPT_FIGURE
1002
{
1000
PSFILL
1000
Grayscale
1000
Grayscale
1070
   100
1002
}
  0
LINE
  5
2A553
330
2A85E
100
AcDbEntity
  8
YODOROGO
100
AcDbLine
 10
10596.60162798446
 20
700.406061160983
 30
0.0
 11
10650.60162798447
 21
684.3291096151149
 31
0.0
1001
AUTOCAD_POSTSCRIPT_FIGURE
1002
{
1000
PSFILL
1000
Grayscale
1000
Grayscale
1070
   100
1002
}
  0
LINE
  5
2A554
330
2A85E
100
AcDbEntity
  8
YODOROGO
100
AcDbLine
 10
10650.60162798447
 20
657.3291096151146
 30
0.0
 11
10596.60162798446
 21
673.4060611609827
 31
0.0
1001
AUTOCAD_POSTSCRIPT_FIGURE
1002
{
1000
PSFILL
1000
Grayscale
1000
Grayscale
1070
   100
1002
}
  0
LINE
  5
2A555
330
2A85E
100
AcDbEntity
  8
YODOROGO
100
AcDbLine
 10
10650.60162798447
 20
744.329109615115
 30
0.0
 11
10596.60162798446
 21
760.4060611609829
 31
0.0
1001
AUTOCAD_POSTSCRIPT_FIGURE
1002
{
1000
PSFILL
1000
Grayscale
1000
Grayscale
1070
   100
1002
}
  0
LINE
  5
2A556
330
2A85E
100
AcDbEntity
  8
YODOROGO
100
AcDbLine
 10
10596.60162798446
 20
734.906061160983
 30
0.0
 11
10650.60162798447
 21
718.829109615115
 31
0.0
1001
AUTOCAD_POSTSCRIPT_FIGURE
1002
{
1000
PSFILL
1000
Grayscale
1000
Grayscale
1070
   100
1002
}
  0
LINE
  5
2A557
330
2A85E
100
AcDbEntity
  8
YODOROGO
100
AcDbLine
 10
10596.60162798446
 20
673.4060611609827
 30
0.0
 11
10596.60162798446
 21
700.406061160983
 31
0.0
1001
AUTOCAD_POSTSCRIPT_FIGURE
1002
{
1000
PSFILL
1000
Grayscale
1000
Grayscale
1070
   100
1002
}
  0
LINE
  5
2A558
330
2A85E
100
AcDbEntity
  8
YODOROGO
100
AcDbLine
 10
10596.60162798446
 20
760.4060611609829
 30
0.0
 11
10596.60162798446
 21
734.906061160983
 31
0.0
1001
AUTOCAD_POSTSCRIPT_FIGURE
1002
{
1000
PSFILL
1000
Grayscale
1000
Grayscale
1070
   100
1002
}
  0
LINE
  5
2A559
330
2A85E
100
AcDbEntity
  8
YODOROGO
100
AcDbLine
 10
10530.08862007752
 20
727.4060611609829
 30
0.0
 11
10548.60162798447
 21
655.406061160983
 31
0.0
1001
AUTOCAD_POSTSCRIPT_FIGURE
1002
{
1000
PSFILL
1000
Grayscale
1000
Grayscale
1070
   100
1002
}
  0
LINE
  5
2A55A
330
2A85E
100
AcDbEntity
  8
YODOROGO
100
AcDbLine
 10
10491.60162798447
 20
727.4060611609829
 30
0.0
 11
10530.08862007752
 21
727.4060611609829
 31
0.0
1001
AUTOCAD_POSTSCRIPT_FIGURE
1002
{
1000
PSFILL
1000
Grayscale
1000
Grayscale
1070
   100
1002
}
  0
LINE
  5
2A55B
330
2A85E
100
AcDbEntity
  8
YODOROGO
100
AcDbLine
 10
10491.60162798447
 20
733.4060611609828
 30
0.0
 11
10491.60162798447
 21
727.4060611609829
 31
0.0
1001
AUTOCAD_POSTSCRIPT_FIGURE
1002
{
1000
PSFILL
1000
Grayscale
1000
Grayscale
1070
   100
1002
}
  0
LINE
  5
2A55C
330
2A85E
100
AcDbEntity
  8
YODOROGO
100
AcDbLine
 10
10528.72757944497
 20
733.4060611609828
 30
0.0
 11
10491.60162798447
 21
733.4060611609828
 31
0.0
1001
AUTOCAD_POSTSCRIPT_FIGURE
1002
{
1000
PSFILL
1000
Grayscale
1000
Grayscale
1070
   100
1002
}
  0
LINE
  5
2A55D
330
2A85E
100
AcDbEntity
  8
YODOROGO
100
AcDbLine
 10
10526.68601849614
 20
742.4060611609831
 30
0.0
 11
10528.72757944497
 21
733.4060611609828
 31
0.0
1001
AUTOCAD_POSTSCRIPT_FIGURE
1002
{
1000
PSFILL
1000
Grayscale
1000
Grayscale
1070
   100
1002
}
  0
LINE
  5
2A55E
330
2A85E
100
AcDbEntity
  8
YODOROGO
100
AcDbLine
 10
10534.18601849614
 20
742.4060611609831
 30
0.0
 11
10526.68601849614
 21
742.4060611609831
 31
0.0
1001
AUTOCAD_POSTSCRIPT_FIGURE
1002
{
1000
PSFILL
1000
Grayscale
1000
Grayscale
1070
   100
1002
}
  0
LINE
  5
2A55F
330
2A85E
100
AcDbEntity
  8
YODOROGO
100
AcDbLine
 10
10535.92757944497
 20
733.4060611609828
 30
0.0
 11
10534.18601849614
 21
742.4060611609831
 31
0.0
1001
AUTOCAD_POSTSCRIPT_FIGURE
1002
{
1000
PSFILL
1000
Grayscale
1000
Grayscale
1070
   100
1002
}
  0
LINE
  5
2A560
330
2A85E
100
AcDbEntity
  8
YODOROGO
100
AcDbLine
 10
10545.60162798447
 20
733.4060611609828
 30
0.0
 11
10535.92757944497
 21
733.4060611609828
 31
0.0
1001
AUTOCAD_POSTSCRIPT_FIGURE
1002
{
1000
PSFILL
1000
Grayscale
1000
Grayscale
1070
   100
1002
}
  0
LINE
  5
2A561
330
2A85E
100
AcDbEntity
  8
YODOROGO
100
AcDbLine
 10
10545.60162798447
 20
742.4060611609831
 30
0.0
 11
10545.60162798447
 21
733.4060611609828
 31
0.0
1001
AUTOCAD_POSTSCRIPT_FIGURE
1002
{
1000
PSFILL
1000
Grayscale
1000
Grayscale
1070
   100
1002
}
  0
LINE
  5
2A562
330
2A85E
100
AcDbEntity
  8
YODOROGO
100
AcDbLine
 10
10551.60162798447
 20
742.4060611609831
 30
0.0
 11
10545.60162798447
 21
742.4060611609831
 31
0.0
1001
AUTOCAD_POSTSCRIPT_FIGURE
1002
{
1000
PSFILL
1000
Grayscale
1000
Grayscale
1070
   100
1002
}
  0
LINE
  5
2A563
330
2A85E
100
AcDbEntity
  8
YODOROGO
100
AcDbLine
 10
10551.60162798447
 20
733.4060611609828
 30
0.0
 11
10551.60162798447
 21
742.4060611609831
 31
0.0
1001
AUTOCAD_POSTSCRIPT_FIGURE
1002
{
1000
PSFILL
1000
Grayscale
1000
Grayscale
1070
   100
1002
}
  0
LINE
  5
2A564
330
2A85E
100
AcDbEntity
  8
YODOROGO
100
AcDbLine
 10
10551.60162798447
 20
727.4060611609829
 30
0.0
 11
10551.60162798447
 21
733.4060611609828
 31
0.0
1001
AUTOCAD_POSTSCRIPT_FIGURE
1002
{
1000
PSFILL
1000
Grayscale
1000
Grayscale
1070
   100
1002
}
  0
LINE
  5
2A565
330
2A85E
100
AcDbEntity
  8
YODOROGO
100
AcDbLine
 10
10537.08862007753
 20
727.4060611609829
 30
0.0
 11
10551.60162798447
 21
727.4060611609829
 31
0.0
1001
AUTOCAD_POSTSCRIPT_FIGURE
1002
{
1000
PSFILL
1000
Grayscale
1000
Grayscale
1070
   100
1002
}
  0
LINE
  5
2A566
330
2A85E
100
AcDbEntity
  8
YODOROGO
100
AcDbLine
 10
10551.60162798447
 20
655.406061160983
 30
0.0
 11
10537.08862007753
 21
727.4060611609829
 31
0.0
1001
AUTOCAD_POSTSCRIPT_FIGURE
1002
{
1000
PSFILL
1000
Grayscale
1000
Grayscale
1070
   100
1002
}
  0
LINE
  5
2A567
330
2A85E
100
AcDbEntity
  8
YODOROGO
100
AcDbLine
 10
10548.60162798447
 20
655.406061160983
 30
0.0
 11
10551.60162798447
 21
655.406061160983
 31
0.0
1001
AUTOCAD_POSTSCRIPT_FIGURE
1002
{
1000
PSFILL
1000
Grayscale
1000
Grayscale
1070
   100
1002
}
  0
LINE
  5
2A568
330
2A85E
100
AcDbEntity
  8
YODOROGO
100
AcDbLine
 10
10529.27595747517
 20
665.902791112048
 30
0.0
 11
10491.60162798447
 21
655.406061160983
 31
0.0
  0
LINE
  5
2A569
330
2A85E
100
AcDbEntity
  8
YODOROGO
100
AcDbLine
 10
10529.27595747517
 20
674.5008673234024
 30
0.0
 11
10529.27595747517
 21
665.902791112048
 31
0.0
  0
LINE
  5
2A56A
330
2A85E
100
AcDbEntity
  8
YODOROGO
100
AcDbLine
 10
10512.68879272982
 20
670.0563499251625
 30
0.0
 11
10529.27595747517
 21
674.5008673234024
 31
0.0
  0
LINE
  5
2A56B
330
2A85E
100
AcDbEntity
  8
YODOROGO
100
AcDbLine
 10
10512.68879272982
 20
702.2131308511124
 30
0.0
 11
10512.68879272982
 21
670.0563499251625
 31
0.0
  0
LINE
  5
2A56C
330
2A85E
100
AcDbEntity
  8
YODOROGO
100
AcDbLine
 10
10529.27595747517
 20
702.2131308511124
 30
0.0
 11
10512.68879272982
 21
702.2131308511124
 31
0.0
  0
LINE
  5
2A56D
330
2A85E
100
AcDbEntity
  8
YODOROGO
100
AcDbLine
 10
10529.27595747517
 20
709.7131308511117
 30
0.0
 11
10529.27595747517
 21
702.2131308511124
 31
0.0
  0
LINE
  5
2A56E
330
2A85E
100
AcDbEntity
  8
YODOROGO
100
AcDbLine
 10
10491.60162798447
 20
709.7131308511117
 30
0.0
 11
10529.27595747517
 21
709.7131308511117
 31
0.0
  0
LINE
  5
2A56F
330
2A85E
100
AcDbEntity
  8
YODOROGO
100
AcDbLine
 10
10491.60162798447
 20
702.2131308511124
 30
0.0
 11
10491.60162798447
 21
709.7131308511117
 31
0.0
  0
LINE
  5
2A570
330
2A85E
100
AcDbEntity
  8
YODOROGO
100
AcDbLine
 10
10508.18879272982
 20
702.2131308511124
 30
0.0
 11
10491.60162798447
 21
702.2131308511124
 31
0.0
  0
LINE
  5
2A571
330
2A85E
100
AcDbEntity
  8
YODOROGO
100
AcDbLine
 10
10508.18879272982
 20
669.252502347869
 30
0.0
 11
10508.18879272982
 21
702.2131308511124
 31
0.0
  0
LINE
  5
2A572
330
2A85E
100
AcDbEntity
  8
YODOROGO
100
AcDbLine
 10
10491.60162798447
 20
664.4060611609822
 30
0.0
 11
10508.18879272982
 21
669.252502347869
 31
0.0
  0
LINE
  5
2A573
330
2A85E
100
AcDbEntity
  8
YODOROGO
100
AcDbLine
 10
10491.60162798447
 20
655.406061160983
 30
0.0
 11
10491.60162798447
 21
664.4060611609822
 31
0.0
  0
LINE
  5
2A574
330
2A85E
100
AcDbEntity
  8
YODOROGO
100
AcDbLine
 10
10500.60162798446
 20
640.4060611609828
 30
0.0
 11
10500.60162798446
 21
631.4060611609826
 31
0.0
  0
LINE
  5
2A575
330
2A85E
100
AcDbEntity
  8
YODOROGO
100
AcDbLine
 10
10500.60162798446
 20
640.4060611609828
 30
0.0
 11
10500.60162798446
 21
640.4060611609828
 31
0.0
  0
LINE
  5
2A576
330
2A85E
100
AcDbEntity
  8
YODOROGO
100
AcDbLine
 10
10506.60162798447
 20
640.4060611609828
 30
0.0
 11
10500.60162798446
 21
640.4060611609828
 31
0.0
  0
LINE
  5
2A577
330
2A85E
100
AcDbEntity
  8
YODOROGO
100
AcDbLine
 10
10506.60162798447
 20
631.4060611609826
 30
0.0
 11
10506.60162798447
 21
640.4060611609828
 31
0.0
  0
LINE
  5
2A578
330
2A85E
100
AcDbEntity
  8
YODOROGO
100
AcDbLine
 10
10515.34245150633
 20
631.4060611609826
 30
0.0
 11
10506.60162798447
 21
631.4060611609826
 31
0.0
  0
LINE
  5
2A579
330
2A85E
100
AcDbEntity
  8
YODOROGO
100
AcDbLine
 10
10500.60162798446
 20
631.4060611609826
 30
0.0
 11
10491.60162798447
 21
631.4060611609826
 31
0.0
  0
LINE
  5
2A57A
330
2A85E
100
AcDbEntity
  8
YODOROGO
100
AcDbLine
 10
10530.80082008658
 20
640.4060611609828
 30
0.0
 11
10536.8008200866
 21
640.4060611609828
 31
0.0
1001
AUTOCAD_POSTSCRIPT_FIGURE
1002
{
1000
PSFILL
1000
Grayscale
1000
Grayscale
1070
   100
1002
}
  0
LINE
  5
2A57B
330
2A85E
100
AcDbEntity
  8
YODOROGO
100
AcDbLine
 10
10650.60162798447
 20
684.3291096151149
 30
0.0
 11
10650.60162798447
 21
657.3291096151146
 31
0.0
1001
AUTOCAD_POSTSCRIPT_FIGURE
1002
{
1000
PSFILL
1000
Grayscale
1000
Grayscale
1070
   100
1002
}
  0
LINE
  5
2A57C
330
2A85E
100
AcDbEntity
  8
YODOROGO
100
AcDbLine
 10
10650.60162798447
 20
718.829109615115
 30
0.0
 11
10650.60162798447
 21
744.329109615115
 31
0.0
1001
AUTOCAD_POSTSCRIPT_FIGURE
1002
{
1000
PSFILL
1000
Grayscale
1000
Grayscale
1070
   100
1002
}
  0
LINE
  5
2A57D
330
2A85E
100
AcDbEntity
  8
YODOROGO
100
AcDbLine
 10
10662.60162798446
 20
682.4060611609829
 30
0.0
 11
10662.60162798446
 21
655.4060611609838
 31
0.0
  0
LINE
  5
2A57E
330
2A85E
100
AcDbEntity
  8
YODOROGO
100
AcDbLine
 10
10686.60162798446
 20
640.4060611609828
 30
0.0
 11
10662.60162798446
 21
640.4060611609828
 31
0.0
  0
LINE
  5
2A57F
330
2A85E
100
AcDbEntity
  8
YODOROGO
100
AcDbLine
 10
10662.60162798446
 20
655.4060611609838
 30
0.0
 11
10719.60162798446
 21
655.4060611609838
 31
0.0
  0
LINE
  5
2A580
330
2A85E
100
AcDbEntity
  8
YODOROGO
100
AcDbLine
 10
10686.60162798446
 20
700.406061160983
 30
0.0
 11
10662.60162798446
 21
700.406061160983
 31
0.0
  0
LINE
  5
2A581
330
2A85E
100
AcDbEntity
  8
YODOROGO
100
AcDbLine
 10
10686.60162798446
 20
721.4060611609826
 30
0.0
 11
10686.60162798446
 21
700.406061160983
 31
0.0
  0
LINE
  5
2A582
330
2A85E
100
AcDbEntity
  8
YODOROGO
100
AcDbLine
 10
10719.60162798446
 20
745.4060611609828
 30
0.0
 11
10719.60162798446
 21
760.4060611609829
 31
0.0
  0
LINE
  5
2A583
330
2A85E
100
AcDbEntity
  8
YODOROGO
100
AcDbLine
 10
10662.60162798446
 20
745.4060611609828
 30
0.0
 11
10719.60162798446
 21
745.4060611609828
 31
0.0
  0
LINE
  5
2A584
330
2A85E
100
AcDbEntity
  8
YODOROGO
100
AcDbLine
 10
10662.60162798446
 20
700.406061160983
 30
0.0
 11
10662.60162798446
 21
745.4060611609828
 31
0.0
  0
LINE
  5
2A585
330
2A85E
100
AcDbEntity
  8
YODOROGO
100
AcDbLine
 10
10875.60162798447
 20
760.4060611609829
 30
0.0
 11
10875.60162798447
 21
607.4060611609829
 31
0.0
  0
LINE
  5
2A586
330
2A85E
100
AcDbEntity
  8
YODOROGO
100
AcDbLine
 10
10902.60162798446
 20
592.4060611609831
 30
0.0
 11
10902.60162798446
 21
760.4060611609829
 31
0.0
  0
LINE
  5
2A587
330
2A85E
100
AcDbEntity
  8
YODOROGO
100
AcDbLine
 10
10973.10162798446
 20
559.4060611609823
 30
0.0
 11
10973.10162798446
 21
752.9060611609828
 31
0.0
  0
LINE
  5
2A588
330
2A85E
100
AcDbEntity
  8
YODOROGO
100
AcDbLine
 10
10949.10162798447
 20
752.9060611609828
 30
0.0
 11
10949.10162798447
 21
559.4060611609823
 31
0.0
  0
LINE
  5
2A589
330
2A85E
100
AcDbEntity
  8
YODOROGO
100
AcDbLine
 10
11019.60162798446
 20
760.4060611609829
 30
0.0
 11
11019.60162798446
 21
535.4060611609829
 31
0.0
  0
LINE
  5
2A58A
330
2A85E
100
AcDbEntity
  8
YODOROGO
100
AcDbLine
 10
11046.60162798447
 20
535.4060611609829
 30
0.0
 11
11046.60162798447
 21
760.4060611609829
 31
0.0
  0
LINE
  5
2A58B
330
2A85E
100
AcDbEntity
  8
YODOROGO
100
AcDbLine
 10
10746.60162798446
 20
625.406061160983
 30
0.0
 11
10746.60162798446
 21
655.4060611609838
 31
0.0
  0
LINE
  5
2A58C
330
2A85E
100
AcDbEntity
  8
YODOROGO
100
AcDbLine
 10
11207.10162798447
 20
640.4060611609828
 30
0.0
 11
11207.10162798447
 21
625.406061160983
 31
0.0
  0
LINE
  5
2A58D
330
2A85E
100
AcDbEntity
  8
YODOROGO
100
AcDbLine
 10
11207.10162798447
 20
640.4060611609828
 30
0.0
 11
11207.10162798447
 21
625.406061160983
 31
0.0
  0
ARC
  5
2A58E
330
2A85E
100
AcDbEntity
  8
YODOROGO
100
AcDbCircle
 10
10840.09184107006
 20
606.8316991658524
 30
0.0
 40
35.51443169202812
100
AcDbArc
 50
274.052441629071
 51
0.9266642149310715
  0
ARC
  5
2A58F
330
2A85E
100
AcDbEntity
  8
YODOROGO
100
AcDbCircle
 10
10840.94481401993
 20
597.229023228915
 30
0.0
 40
61.84515883532068
100
AcDbArc
 50
271.5351210653778
 51
355.5272775058505
  0
LINE
  5
2A590
330
2A85E
100
AcDbEntity
  8
YODOROGO
100
AcDbLine
 10
10842.60162798446
 20
571.4060611609826
 30
0.0
 11
10842.60162798446
 21
535.4060611609829
 31
0.0
  0
LINE
  5
2A591
330
2A85E
100
AcDbEntity
  8
YODOROGO
100
AcDbLine
 10
10797.60162798445
 20
625.406061160983
 30
0.0
 11
10746.60162798446
 21
625.406061160983
 31
0.0
  0
LINE
  5
2A592
330
2A85E
100
AcDbEntity
  8
YODOROGO
100
AcDbLine
 10
10797.60162798445
 20
601.4060611609833
 30
0.0
 11
10797.60162798445
 21
625.406061160983
 31
0.0
  0
LINE
  5
2A593
330
2A85E
100
AcDbEntity
  8
YODOROGO
100
AcDbLine
 10
10746.60162798446
 20
601.4060611609833
 30
0.0
 11
10797.60162798445
 21
601.4060611609833
 31
0.0
  0
LINE
  5
2A594
330
2A85E
100
AcDbEntity
  8
YODOROGO
100
AcDbLine
 10
10746.60162798446
 20
571.4060611609826
 30
0.0
 11
10746.60162798446
 21
601.4060611609833
 31
0.0
  0
LINE
  5
2A595
330
2A85E
100
AcDbEntity
  8
YODOROGO
100
AcDbLine
 10
10797.60162798445
 20
571.4060611609826
 30
0.0
 11
10746.60162798446
 21
571.4060611609826
 31
0.0
  0
LINE
  5
2A596
330
2A85E
100
AcDbEntity
  8
YODOROGO
100
AcDbLine
 10
10797.60162798445
 20
535.4060611609829
 30
0.0
 11
10797.60162798445
 21
571.4060611609826
 31
0.0
  0
LINE
  5
2A597
330
2A85E
100
AcDbEntity
  8
YODOROGO
100
AcDbLine
 10
10949.10162798447
 20
559.4060611609823
 30
0.0
 11
10973.10162798446
 21
559.4060611609823
 31
0.0
  0
LINE
  5
2A598
330
2A85E
100
AcDbEntity
  8
YODOROGO
100
AcDbLine
 10
11019.60162798446
 20
535.4060611609829
 30
0.0
 11
11046.60162798447
 21
535.4060611609829
 31
0.0
  0
LINE
  5
2A599
330
2A85E
100
AcDbEntity
  8
YODOROGO
100
AcDbLine
 10
11151.60162798447
 20
573.1655445639615
 30
0.0
 11
11151.60162798447
 21
535.4060611609829
 31
0.0
  0
LINE
  5
2A59A
330
2A85E
100
AcDbEntity
  8
YODOROGO
100
AcDbLine
 10
11106.60162798446
 20
535.4060611609829
 30
0.0
 11
11151.60162798447
 21
573.1655445639615
 31
0.0
  0
LINE
  5
2A59B
330
2A85E
100
AcDbEntity
  8
YODOROGO
100
AcDbLine
 10
11106.60162798446
 20
580.406061160983
 30
0.0
 11
11106.60162798446
 21
535.4060611609829
 31
0.0
  0
LINE
  5
2A59C
330
2A85E
100
AcDbEntity
  8
YODOROGO
100
AcDbLine
 10
11142.35423576229
 20
610.4060611609829
 30
0.0
 11
11106.60162798446
 21
580.406061160983
 31
0.0
  0
LINE
  5
2A59D
330
2A85E
100
AcDbEntity
  8
YODOROGO
100
AcDbLine
 10
11106.60162798446
 20
610.4060611609829
 30
0.0
 11
11142.35423576229
 21
610.4060611609829
 31
0.0
  0
LINE
  5
2A59E
330
2A85E
100
AcDbEntity
  8
YODOROGO
100
AcDbLine
 10
11106.60162798446
 20
625.406061160983
 30
0.0
 11
11106.60162798446
 21
610.4060611609829
 31
0.0
  0
LINE
  5
2A59F
330
2A85E
100
AcDbEntity
  8
YODOROGO
100
AcDbLine
 10
11207.10162798447
 20
625.406061160983
 30
0.0
 11
11106.60162798446
 21
625.406061160983
 31
0.0
  0
LINE
  5
2A5A0
330
2A85E
100
AcDbEntity
  8
YODOROGO
100
AcDbLine
 10
11219.10162798447
 20
610.4060611609829
 30
0.0
 11
11166.60162798446
 21
610.4060611609829
 31
0.0
  0
LINE
  5
2A5A1
330
2A85E
100
AcDbEntity
  8
YODOROGO
100
AcDbLine
 10
11166.60162798446
 20
585.7520390316213
 30
0.0
 11
11164.27870236949
 21
583.8028730048376
 31
0.0
  0
LINE
  5
2A5A2
330
2A85E
100
AcDbEntity
  8
YODOROGO
100
AcDbLine
 10
11166.60162798446
 20
610.4060611609829
 30
0.0
 11
11166.60162798446
 21
585.7520390316213
 31
0.0
  0
LINE
  5
2A5A3
330
2A85E
100
AcDbEntity
  8
YODOROGO
100
AcDbLine
 10
11151.60162798447
 20
573.1655445639615
 30
0.0
 11
11151.60162798447
 21
535.4060611609829
 31
0.0
  0
LINE
  5
2A5A4
330
2A85E
100
AcDbEntity
  8
YODOROGO
100
AcDbLine
 10
11106.60162798446
 20
535.4060611609829
 30
0.0
 11
11151.60162798447
 21
573.1655445639615
 31
0.0
  0
LINE
  5
2A5A5
330
2A85E
100
AcDbEntity
  8
YODOROGO
100
AcDbLine
 10
11106.60162798446
 20
580.406061160983
 30
0.0
 11
11106.60162798446
 21
535.4060611609829
 31
0.0
  0
LINE
  5
2A5A6
330
2A85E
100
AcDbEntity
  8
YODOROGO
100
AcDbLine
 10
11142.35423576229
 20
610.4060611609829
 30
0.0
 11
11106.60162798446
 21
580.406061160983
 31
0.0
  0
LINE
  5
2A5A7
330
2A85E
100
AcDbEntity
  8
YODOROGO
100
AcDbLine
 10
11106.60162798446
 20
610.4060611609829
 30
0.0
 11
11142.35423576229
 21
610.4060611609829
 31
0.0
  0
LINE
  5
2A5A8
330
2A85E
100
AcDbEntity
  8
YODOROGO
100
AcDbLine
 10
11106.60162798446
 20
625.406061160983
 30
0.0
 11
11106.60162798446
 21
610.4060611609829
 31
0.0
  0
LINE
  5
2A5A9
330
2A85E
100
AcDbEntity
  8
YODOROGO
100
AcDbLine
 10
11207.10162798447
 20
625.406061160983
 30
0.0
 11
11106.60162798446
 21
625.406061160983
 31
0.0
  0
LINE
  5
2A5AA
330
2A85E
100
AcDbEntity
  8
YODOROGO
100
AcDbLine
 10
10797.60162798445
 20
655.4060611609838
 30
0.0
 11
10797.60162798445
 21
682.4060611609829
 31
0.0
  0
LINE
  5
2A5AB
330
2A85E
100
AcDbEntity
  8
YODOROGO
100
AcDbLine
 10
10746.60162798446
 20
655.4060611609838
 30
0.0
 11
10797.60162798445
 21
655.4060611609838
 31
0.0
  0
LINE
  5
2A5AC
330
2A85E
100
AcDbEntity
  8
YODOROGO
100
AcDbLine
 10
10773.60162798447
 20
700.406061160983
 30
0.0
 11
10773.60162798447
 21
721.4060611609826
 31
0.0
  0
LINE
  5
2A5AD
330
2A85E
100
AcDbEntity
  8
YODOROGO
100
AcDbLine
 10
10797.60162798445
 20
700.406061160983
 30
0.0
 11
10773.60162798447
 21
700.406061160983
 31
0.0
  0
LINE
  5
2A5AE
330
2A85E
100
AcDbEntity
  8
YODOROGO
100
AcDbLine
 10
10797.60162798445
 20
730.406061160983
 30
0.0
 11
10797.60162798445
 21
700.406061160983
 31
0.0
  0
ARC
  5
2A5AF
330
2A85E
100
AcDbEntity
  8
YODOROGO
100
AcDbCircle
 10
10782.60162798445
 20
730.406061160983
 30
0.0
 40
15.0
100
AcDbArc
 50
0.0
 51
90.0
  0
LINE
  5
2A5B0
330
2A85E
100
AcDbEntity
  8
YODOROGO
100
AcDbLine
 10
10746.60162798447
 20
745.4060611609828
 30
0.0
 11
10782.60162798445
 21
745.4060611609828
 31
0.0
  0
LINE
  5
2A5B1
330
2A85E
100
AcDbEntity
  8
YODOROGO
100
AcDbLine
 10
10746.60162798447
 20
760.4060611609829
 30
0.0
 11
10746.60162798447
 21
745.4060611609828
 31
0.0
  0
LINE
  5
2A5B2
330
2A85E
100
AcDbEntity
  8
YODOROGO
100
AcDbLine
 10
10902.60162798446
 20
760.4060611609829
 30
0.0
 11
10875.60162798447
 21
760.4060611609829
 31
0.0
  0
LINE
  5
2A5B3
330
2A85E
100
AcDbEntity
  8
YODOROGO
100
AcDbLine
 10
10973.10162798446
 20
752.9060611609828
 30
0.0
 11
10949.10162798447
 21
752.9060611609828
 31
0.0
  0
LINE
  5
2A5B4
330
2A85E
100
AcDbEntity
  8
YODOROGO
100
AcDbLine
 10
11046.60162798447
 20
760.4060611609829
 30
0.0
 11
11019.60162798446
 21
760.4060611609829
 31
0.0
  0
LINE
  5
2A5B5
330
2A85E
100
AcDbEntity
  8
YODOROGO
100
AcDbLine
 10
11127.60162798447
 20
640.4060611609828
 30
0.0
 11
11127.60162798447
 21
664.4060611609833
 31
0.0
1001
AUTOCAD_POSTSCRIPT_FIGURE
1002
{
1000
PSFILL
1000
Grayscale
1000
Grayscale
1070
    25
1002
}
  0
LINE
  5
2A5B6
330
2A85E
100
AcDbEntity
  8
YODOROGO
100
AcDbLine
 10
11106.60162798446
 20
640.4060611609828
 30
0.0
 11
11127.60162798447
 21
640.4060611609828
 31
0.0
1001
AUTOCAD_POSTSCRIPT_FIGURE
1002
{
1000
PSFILL
1000
Grayscale
1000
Grayscale
1070
    25
1002
}
  0
LINE
  5
2A5B7
330
2A85E
100
AcDbEntity
  8
YODOROGO
100
AcDbLine
 10
11106.60162798446
 20
682.4060611609829
 30
0.0
 11
11106.60162798446
 21
640.4060611609828
 31
0.0
1001
AUTOCAD_POSTSCRIPT_FIGURE
1002
{
1000
PSFILL
1000
Grayscale
1000
Grayscale
1070
    25
1002
}
  0
LINE
  5
2A5B8
330
2A85E
100
AcDbEntity
  8
YODOROGO
100
AcDbLine
 10
11162.10162798447
 20
682.4060611609829
 30
0.0
 11
11106.60162798446
 21
682.4060611609829
 31
0.0
1001
AUTOCAD_POSTSCRIPT_FIGURE
1002
{
1000
PSFILL
1000
Grayscale
1000
Grayscale
1070
    25
1002
}
  0
LINE
  5
2A5B9
330
2A85E
100
AcDbEntity
  8
YODOROGO
100
AcDbLine
 10
11162.10162798447
 20
697.406061160983
 30
0.0
 11
11162.10162798447
 21
682.4060611609829
 31
0.0
1001
AUTOCAD_POSTSCRIPT_FIGURE
1002
{
1000
PSFILL
1000
Grayscale
1000
Grayscale
1070
    25
1002
}
  0
LINE
  5
2A5BA
330
2A85E
100
AcDbEntity
  8
YODOROGO
100
AcDbLine
 10
11106.60162798446
 20
697.406061160983
 30
0.0
 11
11162.10162798447
 21
697.406061160983
 31
0.0
1001
AUTOCAD_POSTSCRIPT_FIGURE
1002
{
1000
PSFILL
1000
Grayscale
1000
Grayscale
1070
    25
1002
}
  0
LINE
  5
2A5BB
330
2A85E
100
AcDbEntity
  8
YODOROGO
100
AcDbLine
 10
11106.60162798446
 20
715.4060611609828
 30
0.0
 11
11106.60162798446
 21
697.406061160983
 31
0.0
1001
AUTOCAD_POSTSCRIPT_FIGURE
1002
{
1000
PSFILL
1000
Grayscale
1000
Grayscale
1070
    25
1002
}
  0
LINE
  5
2A5BC
330
2A85E
100
AcDbEntity
  8
YODOROGO
100
AcDbLine
 10
11162.10162798447
 20
715.4060611609828
 30
0.0
 11
11106.60162798446
 21
715.4060611609828
 31
0.0
1001
AUTOCAD_POSTSCRIPT_FIGURE
1002
{
1000
PSFILL
1000
Grayscale
1000
Grayscale
1070
    25
1002
}
  0
LINE
  5
2A5BD
330
2A85E
100
AcDbEntity
  8
YODOROGO
100
AcDbLine
 10
11162.10162798447
 20
730.406061160983
 30
0.0
 11
11162.10162798447
 21
715.4060611609828
 31
0.0
1001
AUTOCAD_POSTSCRIPT_FIGURE
1002
{
1000
PSFILL
1000
Grayscale
1000
Grayscale
1070
    25
1002
}
  0
LINE
  5
2A5BE
330
2A85E
100
AcDbEntity
  8
YODOROGO
100
AcDbLine
 10
11106.60162798446
 20
730.406061160983
 30
0.0
 11
11162.10162798447
 21
730.406061160983
 31
0.0
1001
AUTOCAD_POSTSCRIPT_FIGURE
1002
{
1000
PSFILL
1000
Grayscale
1000
Grayscale
1070
    25
1002
}
  0
LINE
  5
2A5BF
330
2A85E
100
AcDbEntity
  8
YODOROGO
100
AcDbLine
 10
11106.60162798446
 20
760.4060611609829
 30
0.0
 11
11106.60162798446
 21
730.406061160983
 31
0.0
1001
AUTOCAD_POSTSCRIPT_FIGURE
1002
{
1000
PSFILL
1000
Grayscale
1000
Grayscale
1070
    25
1002
}
  0
LINE
  5
2A5C0
330
2A85E
100
AcDbEntity
  8
YODOROGO
100
AcDbLine
 10
11124.60162798446
 20
760.4060611609829
 30
0.0
 11
11106.60162798446
 21
760.4060611609829
 31
0.0
1001
AUTOCAD_POSTSCRIPT_FIGURE
1002
{
1000
PSFILL
1000
Grayscale
1000
Grayscale
1070
    25
1002
}
  0
LINE
  5
2A5C1
330
2A85E
100
AcDbEntity
  8
YODOROGO
100
AcDbLine
 10
11124.60162798446
 20
748.4060611609828
 30
0.0
 11
11124.60162798446
 21
760.4060611609829
 31
0.0
1001
AUTOCAD_POSTSCRIPT_FIGURE
1002
{
1000
PSFILL
1000
Grayscale
1000
Grayscale
1070
    25
1002
}
  0
LINE
  5
2A5C2
330
2A85E
100
AcDbEntity
  8
YODOROGO
100
AcDbLine
 10
11162.10162798447
 20
748.4060611609828
 30
0.0
 11
11124.60162798446
 21
748.4060611609828
 31
0.0
1001
AUTOCAD_POSTSCRIPT_FIGURE
1002
{
1000
PSFILL
1000
Grayscale
1000
Grayscale
1070
    25
1002
}
  0
LINE
  5
2A5C3
330
2A85E
100
AcDbEntity
  8
YODOROGO
100
AcDbLine
 10
11162.10162798447
 20
760.4060611609829
 30
0.0
 11
11162.10162798447
 21
748.4060611609828
 31
0.0
1001
AUTOCAD_POSTSCRIPT_FIGURE
1002
{
1000
PSFILL
1000
Grayscale
1000
Grayscale
1070
    25
1002
}
  0
LINE
  5
2A5C4
330
2A85E
100
AcDbEntity
  8
YODOROGO
100
AcDbLine
 10
11186.10162798447
 20
760.4060611609829
 30
0.0
 11
11162.10162798447
 21
760.4060611609829
 31
0.0
1001
AUTOCAD_POSTSCRIPT_FIGURE
1002
{
1000
PSFILL
1000
Grayscale
1000
Grayscale
1070
    25
1002
}
  0
LINE
  5
2A5C5
330
2A85E
100
AcDbEntity
  8
YODOROGO
100
AcDbLine
 10
11186.10162798447
 20
748.4060611609828
 30
0.0
 11
11186.10162798447
 21
760.4060611609829
 31
0.0
1001
AUTOCAD_POSTSCRIPT_FIGURE
1002
{
1000
PSFILL
1000
Grayscale
1000
Grayscale
1070
    25
1002
}
  0
LINE
  5
2A5C6
330
2A85E
100
AcDbEntity
  8
YODOROGO
100
AcDbLine
 10
11186.10162798447
 20
715.4060611609828
 30
0.0
 11
11186.10162798447
 21
730.406061160983
 31
0.0
1001
AUTOCAD_POSTSCRIPT_FIGURE
1002
{
1000
PSFILL
1000
Grayscale
1000
Grayscale
1070
    25
1002
}
  0
LINE
  5
2A5C7
330
2A85E
100
AcDbEntity
  8
YODOROGO
100
AcDbLine
 10
11186.10162798447
 20
682.4060611609829
 30
0.0
 11
11186.10162798447
 21
697.406061160983
 31
0.0
1001
AUTOCAD_POSTSCRIPT_FIGURE
1002
{
1000
PSFILL
1000
Grayscale
1000
Grayscale
1070
    25
1002
}
  0
LINE
  5
2A5C8
330
2A85E
100
AcDbEntity
  8
YODOROGO
100
AcDbLine
 10
11220.60162798447
 20
664.4060611609833
 30
0.0
 11
11220.60162798447
 21
640.4060611609828
 31
0.0
1001
AUTOCAD_POSTSCRIPT_FIGURE
1002
{
1000
PSFILL
1000
Grayscale
1000
Grayscale
1070
    25
1002
}
  0
LINE
  5
2A5C9
330
2A85E
100
AcDbEntity
  8
YODOROGO
100
AcDbLine
 10
11186.10162798447
 20
664.4060611609833
 30
0.0
 11
11220.60162798447
 21
664.4060611609833
 31
0.0
1001
AUTOCAD_POSTSCRIPT_FIGURE
1002
{
1000
PSFILL
1000
Grayscale
1000
Grayscale
1070
    25
1002
}
  0
LINE
  5
2A5CA
330
2A85E
100
AcDbEntity
  8
YODOROGO
100
AcDbLine
 10
11186.10162798447
 20
640.4060611609828
 30
0.0
 11
11186.10162798447
 21
664.4060611609833
 31
0.0
1001
AUTOCAD_POSTSCRIPT_FIGURE
1002
{
1000
PSFILL
1000
Grayscale
1000
Grayscale
1070
    25
1002
}
  0
LINE
  5
2A5CB
330
2A85E
100
AcDbEntity
  8
YODOROGO
100
AcDbLine
 10
11162.10162798447
 20
640.4060611609828
 30
0.0
 11
11186.10162798447
 21
640.4060611609828
 31
0.0
1001
AUTOCAD_POSTSCRIPT_FIGURE
1002
{
1000
PSFILL
1000
Grayscale
1000
Grayscale
1070
    25
1002
}
  0
LINE
  5
2A5CC
330
2A85E
100
AcDbEntity
  8
YODOROGO
100
AcDbLine
 10
11162.10162798447
 20
664.4060611609833
 30
0.0
 11
11162.10162798447
 21
640.4060611609828
 31
0.0
1001
AUTOCAD_POSTSCRIPT_FIGURE
1002
{
1000
PSFILL
1000
Grayscale
1000
Grayscale
1070
    25
1002
}
  0
LINE
  5
2A5CD
330
2A85E
100
AcDbEntity
  8
YODOROGO
100
AcDbLine
 10
11127.60162798447
 20
664.4060611609833
 30
0.0
 11
11162.10162798447
 21
664.4060611609833
 31
0.0
1001
AUTOCAD_POSTSCRIPT_FIGURE
1002
{
1000
PSFILL
1000
Grayscale
1000
Grayscale
1070
    25
1002
}
  0
ARC
  5
2A5CE
330
2A85E
100
AcDbEntity
  8
YODOROGO
100
AcDbCircle
 10
11647.31921000922
 20
601.0052765683411
 30
0.0
 40
66.83298041652057
100
AcDbArc
 50
281.0262749542535
 51
357.771135755738
  0
LINE
  5
2A5CF
330
2A85E
100
AcDbEntity
  8
YODOROGO
100
AcDbLine
 10
11780.10162798446
 20
715.4060611609828
 30
0.0
 11
11687.10162798447
 21
715.4060611609828
 31
0.0
  0
LINE
  5
2A5D0
330
2A85E
100
AcDbEntity
  8
YODOROGO
100
AcDbLine
 10
11780.10162798446
 20
760.4060611609829
 30
0.0
 11
11687.10162798447
 21
760.4060611609829
 31
0.0
  0
LINE
  5
2A5D1
330
2A85E
100
AcDbEntity
  8
YODOROGO
100
AcDbLine
 10
11687.10162798447
 20
736.4060611609826
 30
0.0
 11
11780.10162798446
 21
736.4060611609826
 31
0.0
  0
LINE
  5
2A5D2
330
2A85E
100
AcDbEntity
  8
YODOROGO
100
AcDbLine
 10
11546.85162798447
 20
586.4060611609826
 30
0.0
 11
11546.85162798447
 21
658.4060611609827
 31
0.0
  0
LINE
  5
2A5D3
330
2A85E
100
AcDbEntity
  8
YODOROGO
100
AcDbLine
 10
11536.35162798447
 20
634.4060611609833
 30
0.0
 11
11536.35162798447
 21
586.4060611609826
 31
0.0
  0
LINE
  5
2A5D4
330
2A85E
100
AcDbEntity
  8
YODOROGO
100
AcDbLine
 10
11521.35162798447
 20
559.4060611609831
 30
0.0
 11
11521.35162798447
 21
634.4060611609833
 31
0.0
  0
LINE
  5
2A5D5
330
2A85E
100
AcDbEntity
  8
YODOROGO
100
AcDbLine
 10
11587.35162798447
 20
634.4060611609833
 30
0.0
 11
11587.35162798447
 21
559.4060611609831
 31
0.0
  0
LINE
  5
2A5D6
330
2A85E
100
AcDbEntity
  8
YODOROGO
100
AcDbLine
 10
11572.35162798446
 20
586.4060611609826
 30
0.0
 11
11572.35162798446
 21
634.4060611609833
 31
0.0
  0
LINE
  5
2A5D7
330
2A85E
100
AcDbEntity
  8
YODOROGO
100
AcDbLine
 10
11561.85162798446
 20
658.4060611609827
 30
0.0
 11
11561.85162798446
 21
586.4060611609826
 31
0.0
  0
LINE
  5
2A5D8
330
2A85E
100
AcDbEntity
  8
YODOROGO
100
AcDbLine
 10
11615.10162798446
 20
760.4060611609829
 30
0.0
 11
11615.10162798446
 21
550.4060611609828
 31
0.0
  0
LINE
  5
2A5D9
330
2A85E
100
AcDbEntity
  8
YODOROGO
100
AcDbLine
 10
11492.10162798447
 20
535.4060611609829
 30
0.0
 11
11492.10162798447
 21
760.4060611609829
 31
0.0
  0
LINE
  5
2A5DA
330
2A85E
100
AcDbEntity
  8
YODOROGO
100
AcDbLine
 10
11511.60162798447
 20
736.4060611609826
 30
0.0
 11
11511.60162798447
 21
535.4060611609829
 31
0.0
  0
LINE
  5
2A5DB
330
2A85E
100
AcDbEntity
  8
YODOROGO
100
AcDbLine
 10
11597.10162798446
 20
580.406061160983
 30
0.0
 11
11597.10162798446
 21
736.4060611609826
 31
0.0
  0
LINE
  5
2A5DC
330
2A85E
100
AcDbEntity
  8
YODOROGO
100
AcDbLine
 10
11393.10162798446
 20
610.4060611609829
 30
0.0
 11
11393.10162798446
 21
629.9060611609831
 31
0.0
  0
LINE
  5
2A5DD
330
2A85E
100
AcDbEntity
  8
YODOROGO
100
AcDbLine
 10
11481.60162798447
 20
629.9060611609831
 30
0.0
 11
11481.60162798447
 21
610.4060611609829
 31
0.0
  0
LINE
  5
2A5DE
330
2A85E
100
AcDbEntity
  8
YODOROGO
100
AcDbLine
 10
11687.10162798447
 20
715.4060611609828
 30
0.0
 11
11687.10162798447
 21
613.4060611609827
 31
0.0
  0
LINE
  5
2A5DF
330
2A85E
100
AcDbEntity
  8
YODOROGO
100
AcDbLine
 10
11231.10162798446
 20
625.406061160983
 30
0.0
 11
11231.10162798446
 21
640.4060611609828
 31
0.0
  0
LINE
  5
2A5E0
330
2A85E
100
AcDbEntity
  8
YODOROGO
100
AcDbLine
 10
11231.10162798446
 20
625.406061160983
 30
0.0
 11
11231.10162798446
 21
640.4060611609828
 31
0.0
  0
ARC
  5
2A5E1
330
2A85E
100
AcDbEntity
  8
YODOROGO
100
AcDbCircle
 10
11451.60162798447
 20
565.4060611609828
 30
0.0
 40
30.0
100
AcDbArc
 50
270.0
 51
0.0
  0
LINE
  5
2A5E2
330
2A85E
100
AcDbEntity
  8
YODOROGO
100
AcDbLine
 10
11463.60162798446
 20
599.9060611609831
 30
0.0
 11
11481.60162798447
 21
599.9060611609831
 31
0.0
  0
LINE
  5
2A5E3
330
2A85E
100
AcDbEntity
  8
YODOROGO
100
AcDbLine
 10
11481.60162798447
 20
610.4060611609829
 30
0.0
 11
11448.60162798446
 21
610.4060611609829
 31
0.0
  0
LINE
  5
2A5E4
330
2A85E
100
AcDbEntity
  8
YODOROGO
100
AcDbLine
 10
11331.60162798447
 20
625.406061160983
 30
0.0
 11
11231.10162798446
 21
625.406061160983
 31
0.0
  0
LINE
  5
2A5E5
330
2A85E
100
AcDbEntity
  8
YODOROGO
100
AcDbLine
 10
11331.60162798447
 20
610.4060611609829
 30
0.0
 11
11331.60162798447
 21
625.406061160983
 31
0.0
  0
LINE
  5
2A5E6
330
2A85E
100
AcDbEntity
  8
YODOROGO
100
AcDbLine
 10
11256.60162798447
 20
610.4060611609829
 30
0.0
 11
11331.60162798447
 21
610.4060611609829
 31
0.0
  0
ARC
  5
2A5E7
330
2A85E
100
AcDbEntity
  8
YODOROGO
100
AcDbCircle
 10
11336.27206076301
 20
700.8321431073384
 30
0.0
 40
120.5166136069605
100
AcDbArc
 50
228.6181454618993
 51
245.660289248906
  0
LINE
  5
2A5E8
330
2A85E
100
AcDbEntity
  8
YODOROGO
100
AcDbLine
 10
11289.60162798447
 20
601.4060611609833
 30
0.0
 11
11286.60162798448
 21
591.0273059512126
 31
0.0
  0
LINE
  5
2A5E9
330
2A85E
100
AcDbEntity
  8
YODOROGO
100
AcDbLine
 10
11321.10162798447
 20
601.4060611609833
 30
0.0
 11
11289.60162798447
 21
601.4060611609833
 31
0.0
  0
LINE
  5
2A5EA
330
2A85E
100
AcDbEntity
  8
YODOROGO
100
AcDbLine
 10
11316.60162798447
 20
581.9316459275352
 30
0.0
 11
11321.10162798447
 21
601.4060611609833
 31
0.0
  0
ARC
  5
2A5EB
330
2A85E
100
AcDbEntity
  8
YODOROGO
100
AcDbCircle
 10
11336.27206076267
 20
700.8321431073759
 30
0.0
 40
120.516613606984
100
AcDbArc
 50
260.6062929796993
 51
267.7790355655585
  0
LINE
  5
2A5EC
330
2A85E
100
AcDbEntity
  8
YODOROGO
100
AcDbLine
 10
11331.60162798447
 20
535.4060611609821
 30
0.0
 11
11331.60162798447
 21
580.406061160983
 31
0.0
  0
LINE
  5
2A5ED
330
2A85E
100
AcDbEntity
  8
YODOROGO
100
AcDbLine
 10
11226.60162798446
 20
555.5022505933164
 30
0.0
 11
11226.60162798446
 21
597.949158949178
 31
0.0
  0
LINE
  5
2A5EE
330
2A85E
100
AcDbEntity
  8
YODOROGO
100
AcDbLine
 10
11331.60162798447
 20
625.406061160983
 30
0.0
 11
11231.10162798446
 21
625.406061160983
 31
0.0
  0
LINE
  5
2A5EF
330
2A85E
100
AcDbEntity
  8
YODOROGO
100
AcDbLine
 10
11331.60162798447
 20
610.4060611609829
 30
0.0
 11
11331.60162798447
 21
625.406061160983
 31
0.0
  0
LINE
  5
2A5F0
330
2A85E
100
AcDbEntity
  8
YODOROGO
100
AcDbLine
 10
11256.60162798447
 20
610.4060611609829
 30
0.0
 11
11331.60162798447
 21
610.4060611609829
 31
0.0
  0
ARC
  5
2A5F1
330
2A85E
100
AcDbEntity
  8
YODOROGO
100
AcDbCircle
 10
11336.27206076301
 20
700.8321431073384
 30
0.0
 40
120.5166136069605
100
AcDbArc
 50
228.6181454618993
 51
245.660289248906
  0
LINE
  5
2A5F2
330
2A85E
100
AcDbEntity
  8
YODOROGO
100
AcDbLine
 10
11289.60162798447
 20
601.4060611609833
 30
0.0
 11
11286.60162798448
 21
591.0273059512126
 31
0.0
  0
LINE
  5
2A5F3
330
2A85E
100
AcDbEntity
  8
YODOROGO
100
AcDbLine
 10
11321.10162798447
 20
601.4060611609833
 30
0.0
 11
11289.60162798447
 21
601.4060611609833
 31
0.0
  0
LINE
  5
2A5F4
330
2A85E
100
AcDbEntity
  8
YODOROGO
100
AcDbLine
 10
11316.60162798447
 20
581.9316459275352
 30
0.0
 11
11321.10162798447
 21
601.4060611609833
 31
0.0
  0
ARC
  5
2A5F5
330
2A85E
100
AcDbEntity
  8
YODOROGO
100
AcDbCircle
 10
11336.27206076267
 20
700.8321431073759
 30
0.0
 40
120.516613606984
100
AcDbArc
 50
260.6062929796993
 51
267.7790355655585
  0
LINE
  5
2A5F6
330
2A85E
100
AcDbEntity
  8
YODOROGO
100
AcDbLine
 10
11331.60162798447
 20
535.4060611609821
 30
0.0
 11
11331.60162798447
 21
580.406061160983
 31
0.0
  0
LINE
  5
2A5F7
330
2A85E
100
AcDbEntity
  8
YODOROGO
100
AcDbLine
 10
11226.60162798446
 20
555.5022505933164
 30
0.0
 11
11226.60162798446
 21
597.949158949178
 31
0.0
  0
LINE
  5
2A5F8
330
2A85E
100
AcDbEntity
  8
YODOROGO
100
AcDbLine
 10
11412.60162798447
 20
590.1560611609832
 30
0.0
 11
11393.10162798446
 21
590.1560611609832
 31
0.0
  0
LINE
  5
2A5F9
330
2A85E
100
AcDbEntity
  8
YODOROGO
100
AcDbLine
 10
11412.60162798447
 20
600.6560611609824
 30
0.0
 11
11412.60162798447
 21
590.1560611609832
 31
0.0
  0
LINE
  5
2A5FA
330
2A85E
100
AcDbEntity
  8
YODOROGO
100
AcDbLine
 10
11393.10162798446
 20
600.6560611609824
 30
0.0
 11
11412.60162798447
 21
600.6560611609824
 31
0.0
  0
LINE
  5
2A5FB
330
2A85E
100
AcDbEntity
  8
YODOROGO
100
AcDbLine
 10
11393.10162798446
 20
590.1560611609832
 30
0.0
 11
11393.10162798446
 21
600.6560611609824
 31
0.0
  0
LINE
  5
2A5FC
330
2A85E
100
AcDbEntity
  8
YODOROGO
100
AcDbLine
 10
11411.10162798447
 20
591.6560611609829
 30
0.0
 11
11394.60162798447
 21
591.6560611609829
 31
0.0
  0
LINE
  5
2A5FD
330
2A85E
100
AcDbEntity
  8
YODOROGO
100
AcDbLine
 10
11411.10162798447
 20
599.156061160983
 30
0.0
 11
11411.10162798447
 21
591.6560611609829
 31
0.0
  0
LINE
  5
2A5FE
330
2A85E
100
AcDbEntity
  8
YODOROGO
100
AcDbLine
 10
11394.60162798447
 20
599.156061160983
 30
0.0
 11
11411.10162798447
 21
599.156061160983
 31
0.0
  0
LINE
  5
2A5FF
330
2A85E
100
AcDbEntity
  8
YODOROGO
100
AcDbLine
 10
11394.60162798447
 20
591.6560611609829
 30
0.0
 11
11394.60162798447
 21
599.156061160983
 31
0.0
  0
LINE
  5
2A600
330
2A85E
100
AcDbEntity
  8
YODOROGO
100
AcDbLine
 10
11409.60162798447
 20
593.1560611609824
 30
0.0
 11
11396.10162798446
 21
593.1560611609824
 31
0.0
  0
LINE
  5
2A601
330
2A85E
100
AcDbEntity
  8
YODOROGO
100
AcDbLine
 10
11409.60162798447
 20
597.6560611609833
 30
0.0
 11
11409.60162798447
 21
593.1560611609824
 31
0.0
  0
LINE
  5
2A602
330
2A85E
100
AcDbEntity
  8
YODOROGO
100
AcDbLine
 10
11396.10162798446
 20
597.6560611609833
 30
0.0
 11
11409.60162798447
 21
597.6560611609833
 31
0.0
  0
LINE
  5
2A603
330
2A85E
100
AcDbEntity
  8
YODOROGO
100
AcDbLine
 10
11396.10162798446
 20
593.1560611609824
 30
0.0
 11
11396.10162798446
 21
597.6560611609833
 31
0.0
  0
LINE
  5
2A604
330
2A85E
100
AcDbEntity
  8
YODOROGO
100
AcDbLine
 10
11408.10162798447
 20
594.6560611609827
 30
0.0
 11
11397.60162798447
 21
594.6560611609827
 31
0.0
  0
LINE
  5
2A605
330
2A85E
100
AcDbEntity
  8
YODOROGO
100
AcDbLine
 10
11408.10162798447
 20
596.1560611609829
 30
0.0
 11
11408.10162798447
 21
594.6560611609827
 31
0.0
  0
LINE
  5
2A606
330
2A85E
100
AcDbEntity
  8
YODOROGO
100
AcDbLine
 10
11397.60162798447
 20
596.1560611609829
 30
0.0
 11
11408.10162798447
 21
596.1560611609829
 31
0.0
  0
LINE
  5
2A607
330
2A85E
100
AcDbEntity
  8
YODOROGO
100
AcDbLine
 10
11397.60162798447
 20
594.6560611609827
 30
0.0
 11
11397.60162798447
 21
596.1560611609829
 31
0.0
  0
LINE
  5
2A608
330
2A85E
100
AcDbEntity
  8
YODOROGO
100
AcDbLine
 10
11424.60162798446
 20
610.4060611609829
 30
0.0
 11
11393.10162798446
 21
610.4060611609829
 31
0.0
  0
LINE
  5
2A609
330
2A85E
100
AcDbEntity
  8
YODOROGO
100
AcDbLine
 10
11424.60162798446
 20
580.406061160983
 30
0.0
 11
11424.60162798446
 21
610.4060611609829
 31
0.0
  0
LINE
  5
2A60A
330
2A85E
100
AcDbEntity
  8
YODOROGO
100
AcDbLine
 10
11393.10162798446
 20
580.406061160983
 30
0.0
 11
11424.60162798446
 21
580.406061160983
 31
0.0
  0
LINE
  5
2A60B
330
2A85E
100
AcDbEntity
  8
YODOROGO
100
AcDbLine
 10
11393.10162798446
 20
535.4060611609829
 30
0.0
 11
11393.10162798446
 21
580.406061160983
 31
0.0
  0
LINE
  5
2A60C
330
2A85E
100
AcDbEntity
  8
YODOROGO
100
AcDbLine
 10
11451.60162798447
 20
535.4060611609829
 30
0.0
 11
11393.10162798446
 21
535.4060611609829
 31
0.0
  0
LINE
  5
2A60D
330
2A85E
100
AcDbEntity
  8
YODOROGO
100
AcDbLine
 10
11463.60162798446
 20
589.4060611609822
 30
0.0
 11
11463.60162798446
 21
599.9060611609831
 31
0.0
  0
ARC
  5
2A60E
330
2A85E
100
AcDbEntity
  8
YODOROGO
100
AcDbCircle
 10
11454.60162798446
 20
589.4060611609842
 30
0.0
 40
9.000000000001408
100
AcDbArc
 50
270.0
 51
359.9999999999877
  0
LINE
  5
2A60F
330
2A85E
100
AcDbEntity
  8
YODOROGO
100
AcDbLine
 10
11448.60162798446
 20
580.406061160983
 30
0.0
 11
11454.60162798446
 21
580.406061160983
 31
0.0
  0
LINE
  5
2A610
330
2A85E
100
AcDbEntity
  8
YODOROGO
100
AcDbLine
 10
11448.60162798446
 20
610.4060611609829
 30
0.0
 11
11448.60162798446
 21
580.406061160983
 31
0.0
  0
LINE
  5
2A611
330
2A85E
100
AcDbEntity
  8
YODOROGO
100
AcDbLine
 10
11587.35162798447
 20
580.406061160983
 30
0.0
 11
11597.10162798446
 21
580.406061160983
 31
0.0
  0
LINE
  5
2A612
330
2A85E
100
AcDbEntity
  8
YODOROGO
100
AcDbLine
 10
11600.10162798446
 20
535.4060611609829
 30
0.0
 11
11587.35162798447
 21
535.4060611609829
 31
0.0
  0
LINE
  5
2A613
330
2A85E
100
AcDbEntity
  8
YODOROGO
100
AcDbLine
 10
11536.35162798447
 20
586.4060611609826
 30
0.0
 11
11546.85162798447
 21
586.4060611609826
 31
0.0
  0
LINE
  5
2A614
330
2A85E
100
AcDbEntity
  8
YODOROGO
100
AcDbLine
 10
11587.35162798447
 20
559.4060611609831
 30
0.0
 11
11521.35162798447
 21
559.4060611609831
 31
0.0
  0
LINE
  5
2A615
330
2A85E
100
AcDbEntity
  8
YODOROGO
100
AcDbLine
 10
11561.85162798446
 20
586.4060611609826
 30
0.0
 11
11572.35162798446
 21
586.4060611609826
 31
0.0
  0
LINE
  5
2A616
330
2A85E
100
AcDbEntity
  8
YODOROGO
100
AcDbLine
 10
11587.35162798447
 20
535.4060611609829
 30
0.0
 11
11587.35162798447
 21
580.406061160983
 31
0.0
  0
LINE
  5
2A617
330
2A85E
100
AcDbEntity
  8
YODOROGO
100
AcDbLine
 10
11511.60162798447
 20
535.4060611609829
 30
0.0
 11
11492.10162798447
 21
535.4060611609829
 31
0.0
  0
LINE
  5
2A618
330
2A85E
100
AcDbEntity
  8
YODOROGO
100
AcDbLine
 10
11481.60162798447
 20
599.9060611609831
 30
0.0
 11
11481.60162798447
 21
565.4060611609828
 31
0.0
  0
ARC
  5
2A619
330
2A85E
100
AcDbEntity
  8
YODOROGO
100
AcDbCircle
 10
11600.10162798446
 20
550.4060611609828
 30
0.0
 40
15.0
100
AcDbArc
 50
270.0
 51
0.0
  0
LINE
  5
2A61A
330
2A85E
100
AcDbEntity
  8
YODOROGO
100
AcDbLine
 10
11660.10162798446
 20
571.4060611609826
 30
0.0
 11
11660.10162798446
 21
535.4060611609829
 31
0.0
  0
ARC
  5
2A61B
330
2A85E
100
AcDbEntity
  8
YODOROGO
100
AcDbCircle
 10
11639.89552333754
 20
614.0742712911499
 30
0.0
 40
47.21083372187828
100
AcDbArc
 50
295.3405244216011
 51
359.1890230341867
  0
LINE
  5
2A61C
330
2A85E
100
AcDbEntity
  8
YODOROGO
100
AcDbLine
 10
11481.60162798447
 20
697.406061160983
 30
0.0
 11
11436.60162798447
 21
727.4060611609829
 31
0.0
  0
LINE
  5
2A61D
330
2A85E
100
AcDbEntity
  8
YODOROGO
100
AcDbLine
 10
11436.60162798447
 20
760.4060611609829
 30
0.0
 11
11481.60162798447
 21
730.406061160983
 31
0.0
  0
LINE
  5
2A61E
330
2A85E
100
AcDbEntity
  8
YODOROGO
100
AcDbLine
 10
11448.60162798446
 20
629.9060611609831
 30
0.0
 11
11481.60162798447
 21
629.9060611609831
 31
0.0
  0
LINE
  5
2A61F
330
2A85E
100
AcDbEntity
  8
YODOROGO
100
AcDbLine
 10
11481.60162798447
 20
650.9060611609827
 30
0.0
 11
11448.60162798446
 21
650.9060611609827
 31
0.0
  0
LINE
  5
2A620
330
2A85E
100
AcDbEntity
  8
YODOROGO
100
AcDbLine
 10
11393.10162798446
 20
673.4060611609827
 30
0.0
 11
11481.60162798447
 21
673.4060611609827
 31
0.0
  0
LINE
  5
2A621
330
2A85E
100
AcDbEntity
  8
YODOROGO
100
AcDbLine
 10
11280.60162798447
 20
760.4060611609829
 30
0.0
 11
11258.10162798447
 21
760.4060611609829
 31
0.0
  0
LINE
  5
2A622
330
2A85E
100
AcDbEntity
  8
YODOROGO
100
AcDbLine
 10
11280.60162798447
 20
685.4060611609829
 30
0.0
 11
11280.60162798447
 21
760.4060611609829
 31
0.0
  0
LINE
  5
2A623
330
2A85E
100
AcDbEntity
  8
YODOROGO
100
AcDbLine
 10
11258.10162798447
 20
685.4060611609829
 30
0.0
 11
11280.60162798447
 21
685.4060611609829
 31
0.0
  0
LINE
  5
2A624
330
2A85E
100
AcDbEntity
  8
YODOROGO
100
AcDbLine
 10
11258.10162798447
 20
760.4060611609829
 30
0.0
 11
11258.10162798447
 21
685.4060611609829
 31
0.0
  0
LINE
  5
2A625
330
2A85E
100
AcDbEntity
  8
YODOROGO
100
AcDbLine
 10
11310.60162798447
 20
760.4060611609829
 30
0.0
 11
11331.60162798447
 21
760.4060611609829
 31
0.0
  0
LINE
  5
2A626
330
2A85E
100
AcDbEntity
  8
YODOROGO
100
AcDbLine
 10
11310.60162798447
 20
679.4060611609832
 30
0.0
 11
11310.60162798447
 21
760.4060611609829
 31
0.0
  0
ARC
  5
2A627
330
2A85E
100
AcDbEntity
  8
YODOROGO
100
AcDbCircle
 10
11295.60162798447
 20
679.4060611609832
 30
0.0
 40
15.0
100
AcDbArc
 50
270.0
 51
0.0
  0
LINE
  5
2A628
330
2A85E
100
AcDbEntity
  8
YODOROGO
100
AcDbLine
 10
11258.10162798447
 20
664.4060611609833
 30
0.0
 11
11295.60162798447
 21
664.4060611609833
 31
0.0
  0
LINE
  5
2A629
330
2A85E
100
AcDbEntity
  8
YODOROGO
100
AcDbLine
 10
11258.10162798447
 20
640.4060611609828
 30
0.0
 11
11258.10162798447
 21
664.4060611609833
 31
0.0
  0
LINE
  5
2A62A
330
2A85E
100
AcDbEntity
  8
YODOROGO
100
AcDbLine
 10
11301.60162798446
 20
640.4060611609828
 30
0.0
 11
11258.10162798447
 21
640.4060611609828
 31
0.0
  0
ARC
  5
2A62B
330
2A85E
100
AcDbEntity
  8
YODOROGO
100
AcDbCircle
 10
11301.60162798446
 20
670.4060611609828
 30
0.0
 40
30.0
100
AcDbArc
 50
270.0
 51
0.0
  0
LINE
  5
2A62C
330
2A85E
100
AcDbEntity
  8
YODOROGO
100
AcDbLine
 10
11331.60162798447
 20
760.4060611609829
 30
0.0
 11
11331.60162798447
 21
670.4060611609828
 31
0.0
  0
LINE
  5
2A62D
330
2A85E
100
AcDbEntity
  8
YODOROGO
100
AcDbLine
 10
11241.60162798446
 20
730.406061160983
 30
0.0
 11
11241.60162798446
 21
748.4060611609828
 31
0.0
1001
AUTOCAD_POSTSCRIPT_FIGURE
1002
{
1000
PSFILL
1000
Grayscale
1000
Grayscale
1070
    25
1002
}
  0
LINE
  5
2A62E
330
2A85E
100
AcDbEntity
  8
YODOROGO
100
AcDbLine
 10
11241.60162798446
 20
697.406061160983
 30
0.0
 11
11241.60162798446
 21
715.4060611609828
 31
0.0
1001
AUTOCAD_POSTSCRIPT_FIGURE
1002
{
1000
PSFILL
1000
Grayscale
1000
Grayscale
1070
    25
1002
}
  0
LINE
  5
2A62F
330
2A85E
100
AcDbEntity
  8
YODOROGO
100
AcDbLine
 10
11241.60162798446
 20
640.4060611609828
 30
0.0
 11
11241.60162798446
 21
682.4060611609829
 31
0.0
1001
AUTOCAD_POSTSCRIPT_FIGURE
1002
{
1000
PSFILL
1000
Grayscale
1000
Grayscale
1070
    25
1002
}
  0
LINE
  5
2A630
330
2A85E
100
AcDbEntity
  8
YODOROGO
100
AcDbLine
 10
11393.10162798446
 20
715.4060611609828
 30
0.0
 11
11436.60162798447
 21
760.4060611609829
 31
0.0
  0
LINE
  5
2A631
330
2A85E
100
AcDbEntity
  8
YODOROGO
100
AcDbLine
 10
11393.10162798446
 20
682.4060611609829
 30
0.0
 11
11393.10162798446
 21
715.4060611609828
 31
0.0
  0
LINE
  5
2A632
330
2A85E
100
AcDbEntity
  8
YODOROGO
100
AcDbLine
 10
11436.60162798447
 20
727.4060611609829
 30
0.0
 11
11393.10162798446
 21
682.4060611609829
 31
0.0
  0
LINE
  5
2A633
330
2A85E
100
AcDbEntity
  8
YODOROGO
100
AcDbLine
 10
11424.60162798446
 20
629.9060611609831
 30
0.0
 11
11424.60162798446
 21
650.9060611609827
 31
0.0
  0
LINE
  5
2A634
330
2A85E
100
AcDbEntity
  8
YODOROGO
100
AcDbLine
 10
11393.10162798446
 20
629.9060611609831
 30
0.0
 11
11424.60162798446
 21
629.9060611609831
 31
0.0
  0
LINE
  5
2A635
330
2A85E
100
AcDbEntity
  8
YODOROGO
100
AcDbLine
 10
11448.60162798446
 20
650.9060611609827
 30
0.0
 11
11448.60162798446
 21
629.9060611609831
 31
0.0
  0
LINE
  5
2A636
330
2A85E
100
AcDbEntity
  8
YODOROGO
100
AcDbLine
 10
11393.10162798446
 20
650.9060611609827
 30
0.0
 11
11393.10162798446
 21
673.4060611609827
 31
0.0
  0
LINE
  5
2A637
330
2A85E
100
AcDbEntity
  8
YODOROGO
100
AcDbLine
 10
11424.60162798446
 20
650.9060611609827
 30
0.0
 11
11393.10162798446
 21
650.9060611609827
 31
0.0
  0
LINE
  5
2A638
330
2A85E
100
AcDbEntity
  8
YODOROGO
100
AcDbLine
 10
11492.10162798447
 20
760.4060611609829
 30
0.0
 11
11615.10162798446
 21
760.4060611609829
 31
0.0
  0
LINE
  5
2A639
330
2A85E
100
AcDbEntity
  8
YODOROGO
100
AcDbLine
 10
11597.10162798446
 20
736.4060611609826
 30
0.0
 11
11511.60162798447
 21
736.4060611609826
 31
0.0
  0
LINE
  5
2A63A
330
2A85E
100
AcDbEntity
  8
YODOROGO
100
AcDbLine
 10
11577.60162798447
 20
682.4060611609829
 30
0.0
 11
11587.35162798447
 21
682.4060611609829
 31
0.0
  0
LINE
  5
2A63B
330
2A85E
100
AcDbEntity
  8
YODOROGO
100
AcDbLine
 10
11587.35162798447
 20
727.4060611609829
 30
0.0
 11
11577.60162798447
 21
682.4060611609829
 31
0.0
  0
LINE
  5
2A63C
330
2A85E
100
AcDbEntity
  8
YODOROGO
100
AcDbLine
 10
11569.35162798446
 20
727.4060611609829
 30
0.0
 11
11587.35162798447
 21
727.4060611609829
 31
0.0
  0
LINE
  5
2A63D
330
2A85E
100
AcDbEntity
  8
YODOROGO
100
AcDbLine
 10
11559.60162798447
 20
682.4060611609829
 30
0.0
 11
11569.35162798446
 21
727.4060611609829
 31
0.0
  0
LINE
  5
2A63E
330
2A85E
100
AcDbEntity
  8
YODOROGO
100
AcDbLine
 10
11549.10162798447
 20
682.4060611609829
 30
0.0
 11
11559.60162798447
 21
682.4060611609829
 31
0.0
  0
LINE
  5
2A63F
330
2A85E
100
AcDbEntity
  8
YODOROGO
100
AcDbLine
 10
11539.35162798447
 20
727.4060611609829
 30
0.0
 11
11549.10162798447
 21
682.4060611609829
 31
0.0
  0
LINE
  5
2A640
330
2A85E
100
AcDbEntity
  8
YODOROGO
100
AcDbLine
 10
11521.35162798447
 20
727.4060611609829
 30
0.0
 11
11539.35162798447
 21
727.4060611609829
 31
0.0
  0
LINE
  5
2A641
330
2A85E
100
AcDbEntity
  8
YODOROGO
100
AcDbLine
 10
11531.10162798447
 20
682.4060611609829
 30
0.0
 11
11521.35162798447
 21
727.4060611609829
 31
0.0
  0
LINE
  5
2A642
330
2A85E
100
AcDbEntity
  8
YODOROGO
100
AcDbLine
 10
11521.35162798447
 20
682.4060611609829
 30
0.0
 11
11531.10162798447
 21
682.4060611609829
 31
0.0
  0
LINE
  5
2A643
330
2A85E
100
AcDbEntity
  8
YODOROGO
100
AcDbLine
 10
11521.35162798447
 20
658.4060611609827
 30
0.0
 11
11521.35162798447
 21
682.4060611609829
 31
0.0
  0
LINE
  5
2A644
330
2A85E
100
AcDbEntity
  8
YODOROGO
100
AcDbLine
 10
11587.35162798447
 20
658.4060611609827
 30
0.0
 11
11521.35162798447
 21
658.4060611609827
 31
0.0
  0
LINE
  5
2A645
330
2A85E
100
AcDbEntity
  8
YODOROGO
100
AcDbLine
 10
11587.35162798447
 20
682.4060611609829
 30
0.0
 11
11587.35162798447
 21
658.4060611609827
 31
0.0
  0
LINE
  5
2A646
330
2A85E
100
AcDbEntity
  8
YODOROGO
100
AcDbLine
 10
11481.60162798447
 20
730.406061160983
 30
0.0
 11
11481.60162798447
 21
697.406061160983
 31
0.0
  0
LINE
  5
2A647
330
2A85E
100
AcDbEntity
  8
YODOROGO
100
AcDbLine
 10
11546.85162798447
 20
658.4060611609827
 30
0.0
 11
11561.85162798446
 21
658.4060611609827
 31
0.0
  0
LINE
  5
2A648
330
2A85E
100
AcDbEntity
  8
YODOROGO
100
AcDbLine
 10
11521.35162798447
 20
634.4060611609833
 30
0.0
 11
11536.35162798447
 21
634.4060611609833
 31
0.0
  0
LINE
  5
2A649
330
2A85E
100
AcDbEntity
  8
YODOROGO
100
AcDbLine
 10
11572.35162798446
 20
634.4060611609833
 30
0.0
 11
11587.35162798447
 21
634.4060611609833
 31
0.0
  0
LINE
  5
2A64A
330
2A85E
100
AcDbEntity
  8
YODOROGO
100
AcDbLine
 10
11481.60162798447
 20
673.4060611609827
 30
0.0
 11
11481.60162798447
 21
650.9060611609827
 31
0.0
  0
LINE
  5
2A64B
330
2A85E
100
AcDbEntity
  8
YODOROGO
100
AcDbLine
 10
11687.10162798447
 20
760.4060611609829
 30
0.0
 11
11687.10162798447
 21
736.4060611609826
 31
0.0
  0
LINE
  5
2A64C
330
2A85E
100
AcDbEntity
  8
YODOROGO
100
AcDbLine
 10
11825.10162798447
 20
598.4060611609827
 30
0.0
 11
11825.10162798446
 21
679.4060611609832
 31
0.0
  0
LINE
  5
2A64D
330
2A85E
100
AcDbEntity
  8
YODOROGO
100
AcDbLine
 10
11798.10162798446
 20
745.4060611609828
 30
0.0
 11
11798.10162798446
 21
613.4060611609827
 31
0.0
  0
LINE
  5
2A64E
330
2A85E
100
AcDbEntity
  8
YODOROGO
100
AcDbLine
 10
11870.10162798447
 20
535.4060611609829
 30
0.0
 11
11870.10162798446
 21
679.4060611609832
 31
0.0
  0
LINE
  5
2A64F
330
2A85E
100
AcDbEntity
  8
YODOROGO
100
AcDbLine
 10
11846.10162798447
 20
679.4060611609832
 30
0.0
 11
11846.10162798447
 21
535.4060611609829
 31
0.0
  0
LINE
  5
2A650
330
2A85E
100
AcDbEntity
  8
YODOROGO
100
AcDbLine
 10
11714.10162798447
 20
598.4060611609827
 30
0.0
 11
11714.10162798447
 21
640.4060611609828
 31
0.0
  0
ARC
  5
2A651
330
2A85E
100
AcDbEntity
  8
YODOROGO
100
AcDbCircle
 10
11757.71807441852
 20
602.921381733209
 30
0.0
 40
67.53466821599572
100
AcDbArc
 50
268.6284910216979
 51
356.1663845733032
  0
LINE
  5
2A652
330
2A85E
100
AcDbEntity
  8
YODOROGO
100
AcDbLine
 10
11756.10162798446
 20
572.9060611609829
 30
0.0
 11
11756.10162798446
 21
535.4060611609829
 31
0.0
  0
ARC
  5
2A653
330
2A85E
100
AcDbEntity
  8
YODOROGO
100
AcDbCircle
 10
11756.81927839671
 20
614.1896088816206
 30
0.0
 40
41.28978486885457
100
AcDbArc
 50
269.0041020930593
 51
358.9126445549248
  0
LINE
  5
2A654
330
2A85E
100
AcDbEntity
  8
YODOROGO
100
AcDbLine
 10
11846.10162798447
 20
535.4060611609829
 30
0.0
 11
11870.10162798447
 21
535.4060611609829
 31
0.0
  0
LINE
  5
2A655
330
2A85E
100
AcDbEntity
  8
YODOROGO
100
AcDbLine
 10
11825.10162798446
 20
679.4060611609832
 30
0.0
 11
11846.10162798447
 21
679.4060611609832
 31
0.0
  0
LINE
  5
2A656
330
2A85E
100
AcDbEntity
  8
YODOROGO
100
AcDbLine
 10
11858.10162798446
 20
745.4060611609828
 30
0.0
 11
11798.10162798446
 21
745.4060611609828
 31
0.0
  0
LINE
  5
2A657
330
2A85E
100
AcDbEntity
  8
YODOROGO
100
AcDbLine
 10
11825.10162798446
 20
718.4060611609829
 30
0.0
 11
11873.10162798447
 21
718.4060611609829
 31
0.0
  0
LINE
  5
2A658
330
2A85E
100
AcDbEntity
  8
YODOROGO
100
AcDbLine
 10
11888.10162798447
 20
703.4060611609828
 30
0.0
 11
11825.10162798446
 21
703.4060611609828
 31
0.0
  0
LINE
  5
2A659
330
2A85E
100
AcDbEntity
  8
YODOROGO
100
AcDbLine
 10
11714.10162798447
 20
667.4060611609831
 30
0.0
 11
11756.10162798446
 21
667.4060611609831
 31
0.0
  0
LINE
  5
2A65A
330
2A85E
100
AcDbEntity
  8
YODOROGO
100
AcDbLine
 10
11714.10162798447
 20
688.4060611609828
 30
0.0
 11
11714.10162798447
 21
667.4060611609831
 31
0.0
  0
LINE
  5
2A65B
330
2A85E
100
AcDbEntity
  8
YODOROGO
100
AcDbLine
 10
11756.10162798446
 20
688.4060611609828
 30
0.0
 11
11714.10162798447
 21
688.4060611609828
 31
0.0
  0
LINE
  5
2A65C
330
2A85E
100
AcDbEntity
  8
YODOROGO
100
AcDbLine
 10
11756.10162798446
 20
667.4060611609831
 30
0.0
 11
11756.10162798446
 21
688.4060611609828
 31
0.0
  0
LINE
  5
2A65D
330
2A85E
100
AcDbEntity
  8
YODOROGO
100
AcDbLine
 10
11825.10162798446
 20
703.4060611609828
 30
0.0
 11
11825.10162798446
 21
718.4060611609829
 31
0.0
  0
LINE
  5
2A65E
330
2A85E
100
AcDbEntity
  8
YODOROGO
100
AcDbLine
 10
11780.10162798446
 20
640.4060611609828
 30
0.0
 11
11780.10162798446
 21
715.4060611609828
 31
0.0
  0
LINE
  5
2A65F
330
2A85E
100
AcDbEntity
  8
YODOROGO
100
AcDbLine
 10
11714.10162798447
 20
640.4060611609828
 30
0.0
 11
11780.10162798446
 21
640.4060611609828
 31
0.0
  0
LINE
  5
2A660
330
2A85E
100
AcDbEntity
  8
YODOROGO
100
AcDbLine
 10
11780.10162798446
 20
736.4060611609826
 30
0.0
 11
11780.10162798446
 21
760.4060611609829
 31
0.0
  0
ARC
  5
2A661
330
2A85E
100
AcDbEntity
  8
YODOROGO
100
AcDbCircle
 10
11858.10162798446
 20
751.4060611609817
 30
0.0
 40
5.999999999997951
100
AcDbArc
 50
270.0
 51
0.0000000000081422
  0
LINE
  5
2A662
330
2A85E
100
AcDbEntity
  8
YODOROGO
100
AcDbLine
 10
11864.10162798447
 20
760.4060611609829
 30
0.0
 11
11864.10162798447
 21
751.4060611609826
 31
0.0
  0
LINE
  5
2A663
330
2A85E
100
AcDbEntity
  8
YODOROGO
100
AcDbLine
 10
11888.10162798447
 20
760.4060611609829
 30
0.0
 11
11864.10162798447
 21
760.4060611609829
 31
0.0
  0
LINE
  5
2A664
330
2A85E
100
AcDbEntity
  8
YODOROGO
100
AcDbLine
 10
11888.10162798447
 20
733.4060611609828
 30
0.0
 11
11888.10162798447
 21
760.4060611609829
 31
0.0
  0
ARC
  5
2A665
330
2A85E
100
AcDbEntity
  8
YODOROGO
100
AcDbCircle
 10
11873.10162798447
 20
733.4060611609828
 30
0.0
 40
15.0
100
AcDbArc
 50
270.0
 51
0.0
  0
LINE
  5
2A666
330
2A85E
100
AcDbEntity
  8
YODOROGO
100
AcDbLine
 10
11888.10162798447
 20
679.4060611609832
 30
0.0
 11
11888.10162798447
 21
703.4060611609828
 31
0.0
  0
LINE
  5
2A667
330
2A85E
100
AcDbEntity
  8
YODOROGO
100
AcDbLine
 10
11870.10162798446
 20
679.4060611609832
 30
0.0
 11
11888.10162798447
 21
679.4060611609832
 31
0.0
  0
LINE
  5
2A668
330
2A85E
100
AcDbEntity
  8
SUNPOU
100
AcDbLine
 10
10196.0404102775
 20
4868.464770760361
 30
0.0
 11
10196.0404102775
 21
4166.942424460623
 31
0.0
  0
LINE
  5
2A669
330
2A85E
100
AcDbEntity
  8
SUNPOU
100
AcDbLine
 10
2196.04041027751
 20
4868.464770760361
 30
0.0
 11
2196.04041027751
 21
4166.942424460623
 31
0.0
  0
LINE
  5
2A66A
330
2A85E
100
AcDbEntity
  8
SUNPOU
100
AcDbLine
 10
10181.04041027749
 20
4211.942424460623
 30
0.0
 11
2211.04041027751
 21
4211.942424460623
 31
0.0
  0
ARC
  5
2A66F
330
2A85E
100
AcDbEntity
  8
SUNPOU
100
AcDbCircle
 10
5310.055546028489
 20
870.7446229540019
 30
0.0
 40
5.625
100
AcDbArc
 50
0.0
 51
180.0
  0
ARC
  5
2A670
330
2A85E
100
AcDbEntity
  8
SUNPOU
100
AcDbCircle
 10
5310.055546028489
 20
870.7446229540019
 30
0.0
 40
5.625
100
AcDbArc
 50
180.0
 51
0.0
  0
ARC
  5
2A671
330
2A85E
100
AcDbEntity
  8
SUNPOU
100
AcDbCircle
 10
6310.055546028489
 20
870.7446229540019
 30
0.0
 40
5.625
100
AcDbArc
 50
180.0
 51
0.0
  0
ARC
  5
2A672
330
2A85E
100
AcDbEntity
  8
SUNPOU
100
AcDbCircle
 10
6310.055546028489
 20
870.7446229540019
 30
0.0
 40
5.625
100
AcDbArc
 50
0.0
 51
180.0
  0
ARC
  5
2A673
330
2A85E
100
AcDbEntity
  8
SUNPOU
100
AcDbCircle
 10
6970.055546028489
 20
2330.744622954001
 30
0.0
 40
5.625
100
AcDbArc
 50
270.0
 51
90.0
  0
ARC
  5
2A674
330
2A85E
100
AcDbEntity
  8
SUNPOU
100
AcDbCircle
 10
6970.055546028489
 20
2330.744622954001
 30
0.0
 40
5.625
100
AcDbArc
 50
90.0
 51
270.0
  0
ARC
  5
2A675
330
2A85E
100
AcDbEntity
  8
SUNPOU
100
AcDbCircle
 10
6760.055546028488
 20
2170.744622954003
 30
0.0
 40
5.62499999999909
100
AcDbArc
 50
270.0
 51
90.0
  0
ARC
  5
2A676
330
2A85E
100
AcDbEntity
  8
SUNPOU
100
AcDbCircle
 10
6760.055546028488
 20
2170.744622954003
 30
0.0
 40
5.62499999999909
100
AcDbArc
 50
90.0
 51
270.0
  0
ARC
  5
2A677
330
2A85E
100
AcDbEntity
  8
SUNPOU
100
AcDbCircle
 10
6760.055546028488
 20
1690.744622954002
 30
0.0
 40
5.625
100
AcDbArc
 50
90.0
 51
270.0
  0
ARC
  5
2A678
330
2A85E
100
AcDbEntity
  8
SUNPOU
100
AcDbCircle
 10
6760.055546028488
 20
1690.744622954002
 30
0.0
 40
5.625
100
AcDbArc
 50
270.0
 51
90.0
  0
ARC
  5
2A679
330
2A85E
100
AcDbEntity
  8
SUNPOU
100
AcDbCircle
 10
6970.055546028489
 20
1530.744622954002
 30
0.0
 40
5.625
100
AcDbArc
 50
90.0
 51
270.0
  0
ARC
  5
2A67A
330
2A85E
100
AcDbEntity
  8
SUNPOU
100
AcDbCircle
 10
6970.055546028489
 20
1530.744622954002
 30
0.0
 40
5.625
100
AcDbArc
 50
270.0
 51
90.0
  0
ARC
  5
2A67B
330
2A85E
100
AcDbEntity
  8
SUNPOU
100
AcDbCircle
 10
6250.055546028487
 20
2780.744622954003
 30
0.0
 40
5.625
100
AcDbArc
 50
180.0
 51
0.0
  0
ARC
  5
2A67C
330
2A85E
100
AcDbEntity
  8
SUNPOU
100
AcDbCircle
 10
6250.055546028487
 20
2780.744622954003
 30
0.0
 40
5.625
100
AcDbArc
 50
0.0
 51
180.0
  0
ARC
  5
2A67D
330
2A85E
100
AcDbEntity
  8
SUNPOU
100
AcDbCircle
 10
5370.055546028488
 20
2780.744622954003
 30
0.0
 40
5.625
100
AcDbArc
 50
0.0
 51
180.0
  0
ARC
  5
2A67E
330
2A85E
100
AcDbEntity
  8
SUNPOU
100
AcDbCircle
 10
5370.055546028488
 20
2780.744622954003
 30
0.0
 40
5.625
100
AcDbArc
 50
180.0
 51
0.0
  0
ARC
  5
2A67F
330
2A85E
100
AcDbEntity
  8
SUNPOU
100
AcDbCircle
 10
4860.055546028489
 20
2260.744622954003
 30
0.0
 40
5.625
100
AcDbArc
 50
270.0
 51
90.0
  0
ARC
  5
2A680
330
2A85E
100
AcDbEntity
  8
SUNPOU
100
AcDbCircle
 10
4860.055546028489
 20
2260.744622954003
 30
0.0
 40
5.625
100
AcDbArc
 50
90.0
 51
270.0
  0
ARC
  5
2A681
330
2A85E
100
AcDbEntity
  8
SUNPOU
100
AcDbCircle
 10
6250.055546028487
 20
1080.744622954002
 30
0.0
 40
5.625
100
AcDbArc
 50
180.0
 51
0.0
  0
ARC
  5
2A682
330
2A85E
100
AcDbEntity
  8
SUNPOU
100
AcDbCircle
 10
6250.055546028487
 20
1080.744622954002
 30
0.0
 40
5.625
100
AcDbArc
 50
0.0
 51
180.0
  0
ARC
  5
2A683
330
2A85E
100
AcDbEntity
  8
SUNPOU
100
AcDbCircle
 10
5770.055546028489
 20
1080.744622954002
 30
0.0
 40
5.625
100
AcDbArc
 50
0.0
 51
180.0
  0
ARC
  5
2A684
330
2A85E
100
AcDbEntity
  8
SUNPOU
100
AcDbCircle
 10
5770.055546028489
 20
1080.744622954002
 30
0.0
 40
5.625
100
AcDbArc
 50
180.0
 51
0.0
  0
ARC
  5
2A685
330
2A85E
100
AcDbEntity
  8
SUNPOU
100
AcDbCircle
 10
4860.055546028489
 20
1600.744622954002
 30
0.0
 40
5.625
100
AcDbArc
 50
90.0
 51
270.0
  0
ARC
  5
2A686
330
2A85E
100
AcDbEntity
  8
SUNPOU
100
AcDbCircle
 10
4860.055546028489
 20
1600.744622954002
 30
0.0
 40
5.625
100
AcDbArc
 50
270.0
 51
90.0
  0
ARC
  5
2A687
330
2A85E
100
AcDbEntity
  8
SUNPOU
100
AcDbCircle
 10
10856.04041027749
 20
7198.464770760364
 30
0.0
 40
5.624999999998181
100
AcDbArc
 50
270.0
 51
90.0
  0
ARC
  5
2A688
330
2A85E
100
AcDbEntity
  8
SUNPOU
100
AcDbCircle
 10
10856.04041027749
 20
7198.464770760364
 30
0.0
 40
5.624999999998181
100
AcDbArc
 50
90.0
 51
270.0
  0
ARC
  5
2A689
330
2A85E
100
AcDbEntity
  8
SUNPOU
100
AcDbCircle
 10
10856.04041027749
 20
7138.464770760366
 30
0.0
 40
5.625
100
AcDbArc
 50
90.0
 51
270.0
  0
ARC
  5
2A68A
330
2A85E
100
AcDbEntity
  8
SUNPOU
100
AcDbCircle
 10
10856.04041027749
 20
7138.464770760366
 30
0.0
 40
5.625
100
AcDbArc
 50
270.0
 51
90.0
  0
ARC
  5
2A68B
330
2A85E
100
AcDbEntity
  8
SUNPOU
100
AcDbCircle
 10
10856.04041027749
 20
7138.464770760366
 30
0.0
 40
5.625
100
AcDbArc
 50
270.0
 51
90.0
  0
ARC
  5
2A68C
330
2A85E
100
AcDbEntity
  8
SUNPOU
100
AcDbCircle
 10
10856.04041027749
 20
7138.464770760366
 30
0.0
 40
5.625
100
AcDbArc
 50
90.0
 51
270.0
  0
ARC
  5
2A68D
330
2A85E
100
AcDbEntity
  8
SUNPOU
100
AcDbCircle
 10
10856.04041027749
 20
6658.464770760364
 30
0.0
 40
5.625000000001818
100
AcDbArc
 50
90.0
 51
270.0
  0
ARC
  5
2A68E
330
2A85E
100
AcDbEntity
  8
SUNPOU
100
AcDbCircle
 10
10856.04041027749
 20
6658.464770760364
 30
0.0
 40
5.625000000001818
100
AcDbArc
 50
270.0
 51
90.0
  0
ARC
  5
2A68F
330
2A85E
100
AcDbEntity
  8
SUNPOU
100
AcDbCircle
 10
10856.04041027749
 20
6658.464770760364
 30
0.0
 40
5.625000000001818
100
AcDbArc
 50
270.0
 51
90.0
  0
ARC
  5
2A690
330
2A85E
100
AcDbEntity
  8
SUNPOU
100
AcDbCircle
 10
10856.04041027749
 20
6658.464770760364
 30
0.0
 40
5.625000000001818
100
AcDbArc
 50
90.0
 51
270.0
  0
ARC
  5
2A691
330
2A85E
100
AcDbEntity
  8
SUNPOU
100
AcDbCircle
 10
10646.04041027749
 20
7138.464770760366
 30
0.0
 40
5.625
100
AcDbArc
 50
270.0
 51
90.0
  0
ARC
  5
2A692
330
2A85E
100
AcDbEntity
  8
SUNPOU
100
AcDbCircle
 10
10646.04041027749
 20
7138.464770760366
 30
0.0
 40
5.625
100
AcDbArc
 50
90.0
 51
270.0
  0
ARC
  5
2A693
330
2A85E
100
AcDbEntity
  8
SUNPOU
100
AcDbCircle
 10
10646.04041027749
 20
6998.464770760364
 30
0.0
 40
5.624999999998181
100
AcDbArc
 50
90.0
 51
270.0
  0
ARC
  5
2A694
330
2A85E
100
AcDbEntity
  8
SUNPOU
100
AcDbCircle
 10
10646.04041027749
 20
6998.464770760364
 30
0.0
 40
5.624999999998181
100
AcDbArc
 50
270.0
 51
90.0
  0
ARC
  5
2A695
330
2A85E
100
AcDbEntity
  8
SUNPOU
100
AcDbCircle
 10
10646.04041027749
 20
6998.464770760364
 30
0.0
 40
5.624999999998181
100
AcDbArc
 50
270.0
 51
90.0
  0
ARC
  5
2A696
330
2A85E
100
AcDbEntity
  8
SUNPOU
100
AcDbCircle
 10
10646.04041027749
 20
6998.464770760364
 30
0.0
 40
5.624999999998181
100
AcDbArc
 50
90.0
 51
270.0
  0
ARC
  5
2A697
330
2A85E
100
AcDbEntity
  8
SUNPOU
100
AcDbCircle
 10
10646.04041027749
 20
6798.464770760365
 30
0.0
 40
5.625
100
AcDbArc
 50
90.0
 51
270.0
  0
ARC
  5
2A698
330
2A85E
100
AcDbEntity
  8
SUNPOU
100
AcDbCircle
 10
10646.04041027749
 20
6798.464770760365
 30
0.0
 40
5.625
100
AcDbArc
 50
270.0
 51
90.0
  0
ARC
  5
2A699
330
2A85E
100
AcDbEntity
  8
SUNPOU
100
AcDbCircle
 10
10646.04041027749
 20
6798.464770760365
 30
0.0
 40
5.625
100
AcDbArc
 50
270.0
 51
90.0
  0
ARC
  5
2A69A
330
2A85E
100
AcDbEntity
  8
SUNPOU
100
AcDbCircle
 10
10646.04041027749
 20
6798.464770760365
 30
0.0
 40
5.625
100
AcDbArc
 50
90.0
 51
270.0
  0
ARC
  5
2A69B
330
2A85E
100
AcDbEntity
  8
SUNPOU
100
AcDbCircle
 10
10646.04041027749
 20
6658.464770760364
 30
0.0
 40
5.625000000001818
100
AcDbArc
 50
90.0
 51
270.0
  0
ARC
  5
2A69C
330
2A85E
100
AcDbEntity
  8
SUNPOU
100
AcDbCircle
 10
10646.04041027749
 20
6658.464770760364
 30
0.0
 40
5.625000000001818
100
AcDbArc
 50
270.0
 51
90.0
  0
ARC
  5
2A69D
330
2A85E
100
AcDbEntity
  8
SUNPOU
100
AcDbCircle
 10
10856.04041027749
 20
6198.464770760363
 30
0.0
 40
5.624999999998181
100
AcDbArc
 50
90.0
 51
270.0
  0
ARC
  5
2A69E
330
2A85E
100
AcDbEntity
  8
SUNPOU
100
AcDbCircle
 10
10856.04041027749
 20
6198.464770760363
 30
0.0
 40
5.624999999998181
100
AcDbArc
 50
270.0
 51
90.0
  0
ARC
  5
2A69F
330
2A85E
100
AcDbEntity
  8
SUNPOU
100
AcDbCircle
 10
10196.0404102775
 20
8068.464770760362
 30
0.0
 40
5.625
100
AcDbArc
 50
180.0
 51
0.0
  0
ARC
  5
2A6A0
330
2A85E
100
AcDbEntity
  8
SUNPOU
100
AcDbCircle
 10
10196.0404102775
 20
8068.464770760362
 30
0.0
 40
5.625
100
AcDbArc
 50
0.0
 51
180.0
  0
ARC
  5
2A6A1
330
2A85E
100
AcDbEntity
  8
SUNPOU
100
AcDbCircle
 10
9396.040410277507
 20
8068.464770760362
 30
0.0
 40
5.625
100
AcDbArc
 50
0.0
 51
180.0
  0
ARC
  5
2A6A2
330
2A85E
100
AcDbEntity
  8
SUNPOU
100
AcDbCircle
 10
9396.040410277507
 20
8068.464770760362
 30
0.0
 40
5.625
100
AcDbArc
 50
180.0
 51
0.0
  0
ARC
  5
2A6A3
330
2A85E
100
AcDbEntity
  8
SUNPOU
100
AcDbCircle
 10
10196.0404102775
 20
7858.464770760362
 30
0.0
 40
5.625
100
AcDbArc
 50
180.0
 51
0.0
  0
ARC
  5
2A6A4
330
2A85E
100
AcDbEntity
  8
SUNPOU
100
AcDbCircle
 10
10196.0404102775
 20
7858.464770760362
 30
0.0
 40
5.625
100
AcDbArc
 50
0.0
 51
180.0
  0
ARC
  5
2A6A5
330
2A85E
100
AcDbEntity
  8
SUNPOU
100
AcDbCircle
 10
10036.0404102775
 20
7858.464770760362
 30
0.0
 40
5.625
100
AcDbArc
 50
0.0
 51
180.0
  0
ARC
  5
2A6A6
330
2A85E
100
AcDbEntity
  8
SUNPOU
100
AcDbCircle
 10
10036.0404102775
 20
7858.464770760362
 30
0.0
 40
5.625
100
AcDbArc
 50
180.0
 51
0.0
  0
ARC
  5
2A6A7
330
2A85E
100
AcDbEntity
  8
SUNPOU
100
AcDbCircle
 10
10036.0404102775
 20
7858.464770760362
 30
0.0
 40
5.625
100
AcDbArc
 50
180.0
 51
0.0
  0
ARC
  5
2A6A8
330
2A85E
100
AcDbEntity
  8
SUNPOU
100
AcDbCircle
 10
10036.0404102775
 20
7858.464770760362
 30
0.0
 40
5.625
100
AcDbArc
 50
0.0
 51
180.0
  0
ARC
  5
2A6A9
330
2A85E
100
AcDbEntity
  8
SUNPOU
100
AcDbCircle
 10
9936.040410277506
 20
7648.464770760367
 30
0.0
 40
5.625
100
AcDbArc
 50
180.0
 51
0.0
  0
ARC
  5
2A6AA
330
2A85E
100
AcDbEntity
  8
SUNPOU
100
AcDbCircle
 10
9936.040410277506
 20
7648.464770760367
 30
0.0
 40
5.625
100
AcDbArc
 50
0.0
 51
180.0
  0
ARC
  5
2A6AB
330
2A85E
100
AcDbEntity
  8
SUNPOU
100
AcDbCircle
 10
9896.040410277507
 20
7438.464770760361
 30
0.0
 40
5.625
100
AcDbArc
 50
180.0
 51
0.0
  0
ARC
  5
2A6AC
330
2A85E
100
AcDbEntity
  8
SUNPOU
100
AcDbCircle
 10
9896.040410277507
 20
7438.464770760361
 30
0.0
 40
5.625
100
AcDbArc
 50
0.0
 51
180.0
  0
ARC
  5
2A6AD
330
2A85E
100
AcDbEntity
  8
SUNPOU
100
AcDbCircle
 10
9556.040410277507
 20
7858.464770760362
 30
0.0
 40
5.625
100
AcDbArc
 50
0.0
 51
180.0
  0
ARC
  5
2A6AE
330
2A85E
100
AcDbEntity
  8
SUNPOU
100
AcDbCircle
 10
9556.040410277507
 20
7858.464770760362
 30
0.0
 40
5.625
100
AcDbArc
 50
180.0
 51
0.0
  0
ARC
  5
2A6AF
330
2A85E
100
AcDbEntity
  8
SUNPOU
100
AcDbCircle
 10
9556.040410277507
 20
7858.464770760362
 30
0.0
 40
5.625
100
AcDbArc
 50
180.0
 51
0.0
  0
ARC
  5
2A6B0
330
2A85E
100
AcDbEntity
  8
SUNPOU
100
AcDbCircle
 10
9556.040410277507
 20
7858.464770760362
 30
0.0
 40
5.625
100
AcDbArc
 50
0.0
 51
180.0
  0
ARC
  5
2A6B1
330
2A85E
100
AcDbEntity
  8
SUNPOU
100
AcDbCircle
 10
9656.040410277507
 20
7648.464770760367
 30
0.0
 40
5.625
100
AcDbArc
 50
0.0
 51
180.0
  0
ARC
  5
2A6B2
330
2A85E
100
AcDbEntity
  8
SUNPOU
100
AcDbCircle
 10
9656.040410277507
 20
7648.464770760367
 30
0.0
 40
5.625
100
AcDbArc
 50
180.0
 51
0.0
  0
ARC
  5
2A6B3
330
2A85E
100
AcDbEntity
  8
SUNPOU
100
AcDbCircle
 10
9396.040410277507
 20
7858.464770760362
 30
0.0
 40
5.625
100
AcDbArc
 50
0.0
 51
180.0
  0
ARC
  5
2A6B4
330
2A85E
100
AcDbEntity
  8
SUNPOU
100
AcDbCircle
 10
9396.040410277507
 20
7858.464770760362
 30
0.0
 40
5.625
100
AcDbArc
 50
180.0
 51
0.0
  0
ARC
  5
2A6B5
330
2A85E
100
AcDbEntity
  8
SUNPOU
100
AcDbCircle
 10
9696.040410277507
 20
7438.464770760361
 30
0.0
 40
5.625
100
AcDbArc
 50
0.0
 51
180.0
  0
ARC
  5
2A6B6
330
2A85E
100
AcDbEntity
  8
SUNPOU
100
AcDbCircle
 10
9696.040410277507
 20
7438.464770760361
 30
0.0
 40
5.625
100
AcDbArc
 50
180.0
 51
0.0
  0
ARC
  5
2A6B7
330
2A85E
100
AcDbEntity
  8
SUNPOU
100
AcDbCircle
 10
8946.040410277507
 20
7198.464770760364
 30
0.0
 40
5.624999999998181
100
AcDbArc
 50
270.0
 51
90.0
  0
ARC
  5
2A6B8
330
2A85E
100
AcDbEntity
  8
SUNPOU
100
AcDbCircle
 10
8946.040410277507
 20
7198.464770760364
 30
0.0
 40
5.624999999998181
100
AcDbArc
 50
90.0
 51
270.0
  0
ARC
  5
2A6B9
330
2A85E
100
AcDbEntity
  8
SUNPOU
100
AcDbCircle
 10
8946.040410277507
 20
6898.464770760364
 30
0.0
 40
5.624999999998181
100
AcDbArc
 50
270.0
 51
90.0
  0
ARC
  5
2A6BA
330
2A85E
100
AcDbEntity
  8
SUNPOU
100
AcDbCircle
 10
8946.040410277507
 20
6898.464770760364
 30
0.0
 40
5.624999999998181
100
AcDbArc
 50
90.0
 51
270.0
  0
ARC
  5
2A6BB
330
2A85E
100
AcDbEntity
  8
SUNPOU
100
AcDbCircle
 10
8946.040410277507
 20
6898.464770760364
 30
0.0
 40
5.624999999998181
100
AcDbArc
 50
90.0
 51
270.0
  0
ARC
  5
2A6BC
330
2A85E
100
AcDbEntity
  8
SUNPOU
100
AcDbCircle
 10
8946.040410277507
 20
6898.464770760364
 30
0.0
 40
5.624999999998181
100
AcDbArc
 50
270.0
 51
90.0
  0
ARC
  5
2A6BD
330
2A85E
100
AcDbEntity
  8
SUNPOU
100
AcDbCircle
 10
8736.040410277507
 20
7198.464770760364
 30
0.0
 40
5.624999999998181
100
AcDbArc
 50
270.0
 51
90.0
  0
ARC
  5
2A6BE
330
2A85E
100
AcDbEntity
  8
SUNPOU
100
AcDbCircle
 10
8736.040410277507
 20
7198.464770760364
 30
0.0
 40
5.624999999998181
100
AcDbArc
 50
90.0
 51
270.0
  0
ARC
  5
2A6BF
330
2A85E
100
AcDbEntity
  8
SUNPOU
100
AcDbCircle
 10
8946.040410277507
 20
6198.464770760363
 30
0.0
 40
5.624999999998181
100
AcDbArc
 50
90.0
 51
270.0
  0
ARC
  5
2A6C0
330
2A85E
100
AcDbEntity
  8
SUNPOU
100
AcDbCircle
 10
8946.040410277507
 20
6198.464770760363
 30
0.0
 40
5.624999999998181
100
AcDbArc
 50
270.0
 51
90.0
  0
ARC
  5
2A6C1
330
2A85E
100
AcDbEntity
  8
SUNPOU
100
AcDbCircle
 10
8736.040410277507
 20
6198.464770760363
 30
0.0
 40
5.624999999998181
100
AcDbArc
 50
90.0
 51
270.0
  0
ARC
  5
2A6C2
330
2A85E
100
AcDbEntity
  8
SUNPOU
100
AcDbCircle
 10
8736.040410277507
 20
6198.464770760363
 30
0.0
 40
5.624999999998181
100
AcDbArc
 50
270.0
 51
90.0
  0
ARC
  5
2A6C3
330
2A85E
100
AcDbEntity
  8
SUNPOU
100
AcDbCircle
 10
7396.04041027751
 20
4448.464770760362
 30
0.0
 40
5.625
100
AcDbArc
 50
180.0
 51
0.0
  0
ARC
  5
2A6C4
330
2A85E
100
AcDbEntity
  8
SUNPOU
100
AcDbCircle
 10
7396.04041027751
 20
4448.464770760362
 30
0.0
 40
5.625
100
AcDbArc
 50
0.0
 51
180.0
  0
ARC
  5
2A6C5
330
2A85E
100
AcDbEntity
  8
SUNPOU
100
AcDbCircle
 10
7396.04041027751
 20
4448.464770760362
 30
0.0
 40
5.625
100
AcDbArc
 50
0.0
 51
180.0
  0
ARC
  5
2A6C6
330
2A85E
100
AcDbEntity
  8
SUNPOU
100
AcDbCircle
 10
7396.04041027751
 20
4448.464770760362
 30
0.0
 40
5.625
100
AcDbArc
 50
180.0
 51
0.0
  0
ARC
  5
2A6C7
330
2A85E
100
AcDbEntity
  8
SUNPOU
100
AcDbCircle
 10
10196.0404102775
 20
4448.464770760362
 30
0.0
 40
5.625
100
AcDbArc
 50
180.0
 51
0.0
  0
ARC
  5
2A6C8
330
2A85E
100
AcDbEntity
  8
SUNPOU
100
AcDbCircle
 10
10196.0404102775
 20
4448.464770760362
 30
0.0
 40
5.625
100
AcDbArc
 50
0.0
 51
180.0
  0
ARC
  5
2A6C9
330
2A85E
100
AcDbEntity
  8
SUNPOU
100
AcDbCircle
 10
9796.040410277507
 20
4448.464770760362
 30
0.0
 40
5.625
100
AcDbArc
 50
0.0
 51
180.0
  0
ARC
  5
2A6CA
330
2A85E
100
AcDbEntity
  8
SUNPOU
100
AcDbCircle
 10
9796.040410277507
 20
4448.464770760362
 30
0.0
 40
5.625
100
AcDbArc
 50
180.0
 51
0.0
  0
ARC
  5
2A6CB
330
2A85E
100
AcDbEntity
  8
SUNPOU
100
AcDbCircle
 10
9796.040410277507
 20
4448.464770760362
 30
0.0
 40
5.625
100
AcDbArc
 50
180.0
 51
0.0
  0
ARC
  5
2A6CC
330
2A85E
100
AcDbEntity
  8
SUNPOU
100
AcDbCircle
 10
9796.040410277507
 20
4448.464770760362
 30
0.0
 40
5.625
100
AcDbArc
 50
0.0
 51
180.0
  0
ARC
  5
2A6CD
330
2A85E
100
AcDbEntity
  8
SUNPOU
100
AcDbCircle
 10
1746.04041027751
 20
7138.464770760366
 30
0.0
 40
5.625
100
AcDbArc
 50
270.0
 51
90.0
  0
ARC
  5
2A6CE
330
2A85E
100
AcDbEntity
  8
SUNPOU
100
AcDbCircle
 10
1746.04041027751
 20
7138.464770760366
 30
0.0
 40
5.625
100
AcDbArc
 50
90.0
 51
270.0
  0
ARC
  5
2A6CF
330
2A85E
100
AcDbEntity
  8
SUNPOU
100
AcDbCircle
 10
1746.04041027751
 20
6898.464770760364
 30
0.0
 40
5.624999999998181
100
AcDbArc
 50
270.0
 51
90.0
  0
ARC
  5
2A6D0
330
2A85E
100
AcDbEntity
  8
SUNPOU
100
AcDbCircle
 10
1746.04041027751
 20
6898.464770760364
 30
0.0
 40
5.624999999998181
100
AcDbArc
 50
90.0
 51
270.0
  0
ARC
  5
2A6D1
330
2A85E
100
AcDbEntity
  8
SUNPOU
100
AcDbCircle
 10
1746.04041027751
 20
6898.464770760364
 30
0.0
 40
5.624999999998181
100
AcDbArc
 50
90.0
 51
270.0
  0
ARC
  5
2A6D2
330
2A85E
100
AcDbEntity
  8
SUNPOU
100
AcDbCircle
 10
1746.04041027751
 20
6898.464770760364
 30
0.0
 40
5.624999999998181
100
AcDbArc
 50
270.0
 51
90.0
  0
ARC
  5
2A6D3
330
2A85E
100
AcDbEntity
  8
SUNPOU
100
AcDbCircle
 10
1746.04041027751
 20
4898.464770760363
 30
0.0
 40
5.624999999998181
100
AcDbArc
 50
90.0
 51
270.0
  0
ARC
  5
2A6D4
330
2A85E
100
AcDbEntity
  8
SUNPOU
100
AcDbCircle
 10
1746.04041027751
 20
4898.464770760363
 30
0.0
 40
5.624999999998181
100
AcDbArc
 50
270.0
 51
90.0
  0
ARC
  5
2A6D5
330
2A85E
100
AcDbEntity
  8
SUNPOU
100
AcDbCircle
 10
4996.04041027751
 20
4448.464770760362
 30
0.0
 40
5.625
100
AcDbArc
 50
180.0
 51
0.0
  0
ARC
  5
2A6D6
330
2A85E
100
AcDbEntity
  8
SUNPOU
100
AcDbCircle
 10
4996.04041027751
 20
4448.464770760362
 30
0.0
 40
5.625
100
AcDbArc
 50
0.0
 51
180.0
  0
ARC
  5
2A6D7
330
2A85E
100
AcDbEntity
  8
SUNPOU
100
AcDbCircle
 10
4996.04041027751
 20
4448.464770760362
 30
0.0
 40
5.625
100
AcDbArc
 50
0.0
 51
180.0
  0
ARC
  5
2A6D8
330
2A85E
100
AcDbEntity
  8
SUNPOU
100
AcDbCircle
 10
4996.04041027751
 20
4448.464770760362
 30
0.0
 40
5.625
100
AcDbArc
 50
180.0
 51
0.0
  0
ARC
  5
2A6D9
330
2A85E
100
AcDbEntity
  8
SUNPOU
100
AcDbCircle
 10
2196.04041027751
 20
4448.464770760362
 30
0.0
 40
5.625
100
AcDbArc
 50
0.0
 51
180.0
  0
ARC
  5
2A6DA
330
2A85E
100
AcDbEntity
  8
SUNPOU
100
AcDbCircle
 10
2196.04041027751
 20
4448.464770760362
 30
0.0
 40
5.625
100
AcDbArc
 50
180.0
 51
0.0
  0
ARC
  5
2A6DB
330
2A85E
100
AcDbEntity
  8
SUNPOU
100
AcDbCircle
 10
2596.04041027751
 20
4448.464770760362
 30
0.0
 40
5.625
100
AcDbArc
 50
180.0
 51
0.0
  0
ARC
  5
2A6DC
330
2A85E
100
AcDbEntity
  8
SUNPOU
100
AcDbCircle
 10
2596.04041027751
 20
4448.464770760362
 30
0.0
 40
5.625
100
AcDbArc
 50
0.0
 51
180.0
  0
ARC
  5
2A6DD
330
2A85E
100
AcDbEntity
  8
SUNPOU
100
AcDbCircle
 10
2596.04041027751
 20
4448.464770760362
 30
0.0
 40
5.625
100
AcDbArc
 50
0.0
 51
180.0
  0
ARC
  5
2A6DE
330
2A85E
100
AcDbEntity
  8
SUNPOU
100
AcDbCircle
 10
2596.04041027751
 20
4448.464770760362
 30
0.0
 40
5.625
100
AcDbArc
 50
180.0
 51
0.0
  0
LINE
  5
2A6DF
330
2A85E
100
AcDbEntity
  8
SUNPOU
100
AcDbLine
 10
2141.306080631061
 20
2230.744622954002
 30
0.0
 11
2141.306080631061
 21
2843.077046087621
 31
0.0
  0
LINE
  5
2A6E0
330
2A85E
100
AcDbEntity
  8
SUNPOU
100
AcDbLine
 10
2621.306080631061
 20
2230.744622954003
 30
0.0
 11
2621.306080631061
 21
2843.077046087621
 31
0.0
  0
LINE
  5
2A6E1
330
2A85E
100
AcDbEntity
  8
SUNPOU
100
AcDbLine
 10
2156.306080631061
 20
2798.077046087621
 30
0.0
 11
2606.30608063106
 21
2798.077046087621
 31
0.0
  0
LINE
  5
2A6E5
330
2A85E
100
AcDbEntity
  8
SUNPOU
100
AcDbLine
 10
2811.306080631061
 20
1520.744622954004
 30
0.0
 11
3330.856080631056
 21
1520.744622954004
 31
0.0
  0
LINE
  5
2A6E6
330
2A85E
100
AcDbEntity
  8
SUNPOU
100
AcDbLine
 10
2811.306080631061
 20
1570.744622954004
 30
0.0
 11
3330.856080631056
 21
1570.744622954004
 31
0.0
  0
LINE
  5
2A6E7
330
2A85E
100
AcDbEntity
  8
SUNPOU
100
AcDbLine
 10
3285.856080631056
 20
1505.744622954003
 30
0.0
 11
3285.856080631056
 21
1490.744622954004
 31
0.0
  0
LINE
  5
2A6E8
330
2A85E
100
AcDbEntity
  8
SUNPOU
100
AcDbLine
 10
3285.856080631056
 20
1585.744622954003
 30
0.0
 11
3285.856080631056
 21
1600.744622954002
 31
0.0
  0
LINE
  5
2A6EA
330
2A85E
100
AcDbEntity
  8
SUNPOU
100
AcDbLine
 10
3285.856080631056
 20
1520.744622954004
 30
0.0
 11
3285.856080631056
 21
1570.744622954004
 31
0.0
  0
LINE
  5
2A6ED
330
2A85E
100
AcDbEntity
  8
SUNPOU
100
AcDbLine
 10
2811.306080631061
 20
1570.744622954004
 30
0.0
 11
3330.856080631056
 21
1570.744622954004
 31
0.0
  0
LINE
  5
2A6EE
330
2A85E
100
AcDbEntity
  8
SUNPOU
100
AcDbLine
 10
2711.306080631061
 20
2050.744622954003
 30
0.0
 11
3330.856080631056
 21
2050.744622954002
 31
0.0
  0
LINE
  5
2A6EF
330
2A85E
100
AcDbEntity
  8
SUNPOU
100
AcDbLine
 10
3285.856080631056
 20
1585.744622954003
 30
0.0
 11
3285.856080631056
 21
2035.744622954004
 31
0.0
  0
LINE
  5
2A6F3
330
2A85E
100
AcDbEntity
  8
SUNPOU
100
AcDbLine
 10
2811.306080631061
 20
1520.744622954004
 30
0.0
 11
3330.856080631056
 21
1520.744622954004
 31
0.0
  0
LINE
  5
2A6F4
330
2A85E
100
AcDbEntity
  8
SUNPOU
100
AcDbLine
 10
2811.306080631061
 20
1420.744622954003
 30
0.0
 11
3330.856080631056
 21
1420.744622954003
 31
0.0
  0
LINE
  5
2A6F5
330
2A85E
100
AcDbEntity
  8
SUNPOU
100
AcDbLine
 10
3285.856080631056
 20
1535.744622954004
 30
0.0
 11
3285.856080631056
 21
1550.744622954004
 31
0.0
  0
LINE
  5
2A6F6
330
2A85E
100
AcDbEntity
  8
SUNPOU
100
AcDbLine
 10
3285.856080631056
 20
1405.744622954004
 30
0.0
 11
3285.856080631056
 21
1155.030337239717
 31
0.0
  0
LINE
  5
2A6F7
330
2A85E
100
AcDbEntity
  8
SUNPOU
100
AcDbLine
 10
3285.856080631056
 20
1520.744622954004
 30
0.0
 11
3285.856080631056
 21
1420.744622954003
 31
0.0
  0
LINE
  5
2A6FB
330
2A85E
100
AcDbEntity
  8
SUNPOU
100
AcDbLine
 10
2381.30608063106
 20
1110.744622954002
 30
0.0
 11
2381.30608063106
 21
1125.744622954002
 31
0.0
  0
LINE
  5
2A6FC
330
2A85E
100
AcDbEntity
  8
SUNPOU
100
AcDbLine
 10
2681.306080631061
 20
1540.744622954002
 30
0.0
 11
2681.306080631061
 21
1035.744622954002
 31
0.0
  0
LINE
  5
2A6FD
330
2A85E
100
AcDbEntity
  8
SUNPOU
100
AcDbLine
 10
2396.30608063106
 20
1080.744622954002
 30
0.0
 11
2666.306080631061
 21
1080.744622954002
 31
0.0
  0
LINE
  5
2A701
330
2A85E
100
AcDbEntity
  8
SUNPOU
100
AcDbLine
 10
1681.30608063106
 20
1540.744622954
 30
0.0
 11
1681.30608063106
 21
1035.744622954002
 31
0.0
  0
LINE
  5
2A702
330
2A85E
100
AcDbEntity
  8
SUNPOU
100
AcDbLine
 10
2381.30608063106
 20
1110.744622954002
 30
0.0
 11
2381.30608063106
 21
1125.744622954002
 31
0.0
  0
LINE
  5
2A703
330
2A85E
100
AcDbEntity
  8
SUNPOU
100
AcDbLine
 10
1696.306080631059
 20
1080.744622954002
 30
0.0
 11
2366.30608063106
 21
1080.744622954002
 31
0.0
  0
LINE
  5
2A707
330
2A85E
100
AcDbEntity
  8
SUNPOU
100
AcDbLine
 10
1681.30608063106
 20
1540.744622954
 30
0.0
 11
1681.30608063106
 21
825.7446229540018
 31
0.0
  0
LINE
  5
2A708
330
2A85E
100
AcDbEntity
  8
SUNPOU
100
AcDbLine
 10
2681.306080631061
 20
1540.744622954002
 30
0.0
 11
2681.306080631061
 21
825.7446229540018
 31
0.0
  0
LINE
  5
2A709
330
2A85E
100
AcDbEntity
  8
SUNPOU
100
AcDbLine
 10
1696.306080631059
 20
870.7446229540019
 30
0.0
 11
2666.306080631061
 21
870.7446229540019
 31
0.0
  0
LINE
  5
2A70D
330
2A85E
100
AcDbEntity
  8
SUNPOU
100
AcDbLine
 10
2711.306080631061
 20
2050.744622954003
 30
0.0
 11
3330.856080631056
 21
2050.744622954002
 31
0.0
  0
LINE
  5
2A70E
330
2A85E
100
AcDbEntity
  8
SUNPOU
100
AcDbLine
 10
2651.30608063106
 20
2200.744622954003
 30
0.0
 11
3330.856080631056
 21
2200.744622954002
 31
0.0
  0
LINE
  5
2A70F
330
2A85E
100
AcDbEntity
  8
SUNPOU
100
AcDbLine
 10
3285.856080631056
 20
2065.744622954003
 30
0.0
 11
3285.856080631056
 21
2185.744622954004
 31
0.0
  0
LINE
  5
2A710
330
2A85E
100
AcDbEntity
  8
SUNPOU
100
AcDbLine
 10
3285.856080631056
 20
2200.744622954002
 30
0.0
 11
3285.856080631056
 21
2451.458908668289
 31
0.0
  0
TEXT
  5
2A714
330
2A85E
100
AcDbEntity
  8
SUNPOU
100
AcDbText
 10
5732.326124563223
 20
4256.942424460623
 30
0.0
 40
90.0
  1
L = 2400 x N + 800
 41
0.6666666666666666
  7
00
100
AcDbText
  0
LINE
  5
2A716
330
2A85E
100
AcDbEntity
  8
SUNPOU
100
AcDbLine
 10
2207.29041027751
 20
4211.942424460623
 30
0.0
 11
2218.54041027751
 21
4211.942424460623
 31
0.0
  0
LINE
  5
2A718
330
2A85E
100
AcDbEntity
  8
SUNPOU
100
AcDbLine
 10
10184.79041027749
 20
4211.942424460623
 30
0.0
 11
10173.54041027749
 21
4211.942424460623
 31
0.0
  0
TEXT
  5
2A719
330
2A85E
100
AcDbEntity
  8
SUNPOU
100
AcDbText
 10
2295.591794916775
 20
2843.077046087621
 30
0.0
 40
90.0
  1
480
 41
0.6666666666666666
  7
00
100
AcDbText
  0
LINE
  5
2A71B
330
2A85E
100
AcDbEntity
  8
SUNPOU
100
AcDbLine
 10
2610.056080631061
 20
2798.077046087621
 30
0.0
 11
2598.806080631061
 21
2798.077046087621
 31
0.0
  0
LINE
  5
2A71D
330
2A85E
100
AcDbEntity
  8
SUNPOU
100
AcDbLine
 10
2152.556080631061
 20
2798.077046087621
 30
0.0
 11
2163.806080631061
 21
2798.077046087621
 31
0.0
  0
LINE
  5
2A71F
330
2A85E
100
AcDbEntity
  8
SUNPOU
100
AcDbLine
 10
3285.856080631056
 20
1581.994622954004
 30
0.0
 11
3285.856080631056
 21
1593.244622954004
 31
0.0
  0
LINE
  5
2A721
330
2A85E
100
AcDbEntity
  8
SUNPOU
100
AcDbLine
 10
3285.856080631056
 20
1509.494622954004
 30
0.0
 11
3285.856080631056
 21
1498.244622954004
 31
0.0
  0
TEXT
  5
2A722
330
2A85E
100
AcDbEntity
  8
SUNPOU
100
AcDbText
 10
3438.65728512295
 20
1491.838927685163
 30
0.0
 40
90.0
  1
50
 50
90.0
 41
0.6666666666666666
  7
00
100
AcDbText
  0
TEXT
  5
2A723
330
2A85E
100
AcDbEntity
  8
SUNPOU
100
AcDbText
 10
3240.856080631056
 20
1725.030337239718
 30
0.0
 40
90.0
  1
480
 50
90.0
 41
0.6666666666666666
  7
00
100
AcDbText
  0
LINE
  5
2A725
330
2A85E
100
AcDbEntity
  8
SUNPOU
100
AcDbLine
 10
3285.856080631056
 20
2039.494622954003
 30
0.0
 11
3285.856080631056
 21
2028.244622954003
 31
0.0
  0
LINE
  5
2A727
330
2A85E
100
AcDbEntity
  8
SUNPOU
100
AcDbLine
 10
3285.856080631056
 20
1581.994622954004
 30
0.0
 11
3285.856080631056
 21
1593.244622954004
 31
0.0
  0
TEXT
  5
2A728
330
2A85E
100
AcDbEntity
  8
SUNPOU
100
AcDbText
 10
3240.856080631056
 20
1182.887480096861
 30
0.0
 40
90.0
  1
100
 50
90.0
 41
0.6666666666666666
  7
00
100
AcDbText
  0
LINE
  5
2A72A
330
2A85E
100
AcDbEntity
  8
SUNPOU
100
AcDbLine
 10
3285.856080631056
 20
1409.494622954003
 30
0.0
 11
3285.856080631056
 21
1398.244622954003
 31
0.0
  0
LINE
  5
2A72C
330
2A85E
100
AcDbEntity
  8
SUNPOU
100
AcDbLine
 10
3285.856080631056
 20
1531.994622954004
 30
0.0
 11
3285.856080631056
 21
1543.244622954003
 31
0.0
  0
TEXT
  5
2A72D
330
2A85E
100
AcDbEntity
  8
SUNPOU
100
AcDbText
 10
2445.591794916774
 20
1125.744622954002
 30
0.0
 40
90.0
  1
300
 41
0.6666666666666666
  7
00
100
AcDbText
  0
LINE
  5
2A72F
330
2A85E
100
AcDbEntity
  8
SUNPOU
100
AcDbLine
 10
2670.056080631061
 20
1080.744622954002
 30
0.0
 11
2658.806080631061
 21
1080.744622954002
 31
0.0
  0
LINE
  5
2A731
330
2A85E
100
AcDbEntity
  8
SUNPOU
100
AcDbLine
 10
2392.556080631061
 20
1080.744622954002
 30
0.0
 11
2403.80608063106
 21
1080.744622954002
 31
0.0
  0
TEXT
  5
2A732
330
2A85E
100
AcDbEntity
  8
SUNPOU
100
AcDbText
 10
1945.591794916774
 20
1125.744622954002
 30
0.0
 40
90.0
  1
700
 41
0.6666666666666666
  7
00
100
AcDbText
  0
LINE
  5
2A734
330
2A85E
100
AcDbEntity
  8
SUNPOU
100
AcDbLine
 10
2370.05608063106
 20
1080.744622954002
 30
0.0
 11
2358.80608063106
 21
1080.744622954002
 31
0.0
  0
LINE
  5
2A736
330
2A85E
100
AcDbEntity
  8
SUNPOU
100
AcDbLine
 10
1692.556080631059
 20
1080.744622954002
 30
0.0
 11
1703.806080631059
 21
1080.744622954002
 31
0.0
  0
TEXT
  5
2A737
330
2A85E
100
AcDbEntity
  8
SUNPOU
100
AcDbText
 10
2062.734652059631
 20
915.744622954002
 30
0.0
 40
90.0
  1
1000
 41
0.6666666666666666
  7
00
100
AcDbText
  0
LINE
  5
2A739
330
2A85E
100
AcDbEntity
  8
SUNPOU
100
AcDbLine
 10
2670.056080631061
 20
870.7446229540019
 30
0.0
 11
2658.806080631061
 21
870.7446229540019
 31
0.0
  0
LINE
  5
2A73B
330
2A85E
100
AcDbEntity
  8
SUNPOU
100
AcDbLine
 10
1692.556080631059
 20
870.7446229540019
 30
0.0
 11
1703.806080631059
 21
870.7446229540019
 31
0.0
  0
TEXT
  5
2A73C
330
2A85E
100
AcDbEntity
  8
SUNPOU
100
AcDbText
 10
3240.856080631056
 20
2243.601765811146
 30
0.0
 40
90.0
  1
150
 50
90.0
 41
0.6666666666666666
  7
00
100
AcDbText
  0
LINE
  5
2A73E
330
2A85E
100
AcDbEntity
  8
SUNPOU
100
AcDbLine
 10
3285.856080631056
 20
2189.494622954002
 30
0.0
 11
3285.856080631056
 21
2178.244622954002
 31
0.0
  0
LINE
  5
2A740
330
2A85E
100
AcDbEntity
  8
SUNPOU
100
AcDbLine
 10
3285.856080631056
 20
2061.994622954002
 30
0.0
 11
3285.856080631056
 21
2073.244622954002
 31
0.0
  0
ARC
  5
2A741
330
2A85E
100
AcDbEntity
  8
SUNPOU
100
AcDbCircle
 10
2196.04041027751
 20
4211.942424460623
 30
0.0
 40
5.625
100
AcDbArc
 50
0.0
 51
180.0
  0
ARC
  5
2A742
330
2A85E
100
AcDbEntity
  8
SUNPOU
100
AcDbCircle
 10
2196.04041027751
 20
4211.942424460623
 30
0.0
 40
5.625
100
AcDbArc
 50
180.0
 51
0.0
  0
ARC
  5
2A743
330
2A85E
100
AcDbEntity
  8
SUNPOU
100
AcDbCircle
 10
10196.0404102775
 20
4211.942424460623
 30
0.0
 40
5.625
100
AcDbArc
 50
180.0
 51
0.0
  0
ARC
  5
2A744
330
2A85E
100
AcDbEntity
  8
SUNPOU
100
AcDbCircle
 10
10196.0404102775
 20
4211.942424460623
 30
0.0
 40
5.625
100
AcDbArc
 50
0.0
 51
180.0
  0
ARC
  5
2A745
330
2A85E
100
AcDbEntity
  8
SUNPOU
100
AcDbCircle
 10
2621.306080631061
 20
2798.077046087621
 30
0.0
 40
5.625
100
AcDbArc
 50
180.0
 51
0.0
  0
ARC
  5
2A746
330
2A85E
100
AcDbEntity
  8
SUNPOU
100
AcDbCircle
 10
2621.306080631061
 20
2798.077046087621
 30
0.0
 40
5.625
100
AcDbArc
 50
0.0
 51
180.0
  0
ARC
  5
2A747
330
2A85E
100
AcDbEntity
  8
SUNPOU
100
AcDbCircle
 10
2141.306080631061
 20
2798.077046087621
 30
0.0
 40
5.625
100
AcDbArc
 50
0.0
 51
180.0
  0
ARC
  5
2A748
330
2A85E
100
AcDbEntity
  8
SUNPOU
100
AcDbCircle
 10
2141.306080631061
 20
2798.077046087621
 30
0.0
 40
5.625
100
AcDbArc
 50
180.0
 51
0.0
  0
ARC
  5
2A749
330
2A85E
100
AcDbEntity
  8
SUNPOU
100
AcDbCircle
 10
3285.856080631056
 20
1570.744622954004
 30
0.0
 40
5.625
100
AcDbArc
 50
90.0
 51
270.0
  0
ARC
  5
2A74A
330
2A85E
100
AcDbEntity
  8
SUNPOU
100
AcDbCircle
 10
3285.856080631056
 20
1570.744622954004
 30
0.0
 40
5.625
100
AcDbArc
 50
270.0
 51
90.0
  0
ARC
  5
2A74B
330
2A85E
100
AcDbEntity
  8
SUNPOU
100
AcDbCircle
 10
3285.856080631056
 20
1520.744622954004
 30
0.0
 40
5.625
100
AcDbArc
 50
270.0
 51
90.0
  0
ARC
  5
2A74C
330
2A85E
100
AcDbEntity
  8
SUNPOU
100
AcDbCircle
 10
3285.856080631056
 20
1520.744622954004
 30
0.0
 40
5.625
100
AcDbArc
 50
90.0
 51
270.0
  0
ARC
  5
2A74D
330
2A85E
100
AcDbEntity
  8
SUNPOU
100
AcDbCircle
 10
3285.856080631056
 20
2050.744622954002
 30
0.0
 40
5.625
100
AcDbArc
 50
270.0
 51
90.0
  0
ARC
  5
2A74E
330
2A85E
100
AcDbEntity
  8
SUNPOU
100
AcDbCircle
 10
3285.856080631056
 20
2050.744622954002
 30
0.0
 40
5.625
100
AcDbArc
 50
90.0
 51
270.0
  0
ARC
  5
2A74F
330
2A85E
100
AcDbEntity
  8
SUNPOU
100
AcDbCircle
 10
3285.856080631056
 20
1570.744622954004
 30
0.0
 40
5.625
100
AcDbArc
 50
90.0
 51
270.0
  0
ARC
  5
2A750
330
2A85E
100
AcDbEntity
  8
SUNPOU
100
AcDbCircle
 10
3285.856080631056
 20
1570.744622954004
 30
0.0
 40
5.625
100
AcDbArc
 50
270.0
 51
90.0
  0
ARC
  5
2A751
330
2A85E
100
AcDbEntity
  8
SUNPOU
100
AcDbCircle
 10
3285.856080631056
 20
1420.744622954003
 30
0.0
 40
5.625
100
AcDbArc
 50
270.0
 51
90.0
  0
ARC
  5
2A752
330
2A85E
100
AcDbEntity
  8
SUNPOU
100
AcDbCircle
 10
3285.856080631056
 20
1420.744622954003
 30
0.0
 40
5.625
100
AcDbArc
 50
90.0
 51
270.0
  0
ARC
  5
2A753
330
2A85E
100
AcDbEntity
  8
SUNPOU
100
AcDbCircle
 10
3285.856080631056
 20
1520.744622954004
 30
0.0
 40
5.625
100
AcDbArc
 50
90.0
 51
270.0
  0
ARC
  5
2A754
330
2A85E
100
AcDbEntity
  8
SUNPOU
100
AcDbCircle
 10
3285.856080631056
 20
1520.744622954004
 30
0.0
 40
5.625
100
AcDbArc
 50
270.0
 51
90.0
  0
ARC
  5
2A755
330
2A85E
100
AcDbEntity
  8
SUNPOU
100
AcDbCircle
 10
2681.306080631061
 20
1080.744622954002
 30
0.0
 40
5.625
100
AcDbArc
 50
180.0
 51
0.0
  0
ARC
  5
2A756
330
2A85E
100
AcDbEntity
  8
SUNPOU
100
AcDbCircle
 10
2681.306080631061
 20
1080.744622954002
 30
0.0
 40
5.625
100
AcDbArc
 50
0.0
 51
180.0
  0
ARC
  5
2A757
330
2A85E
100
AcDbEntity
  8
SUNPOU
100
AcDbCircle
 10
2381.30608063106
 20
1080.744622954002
 30
0.0
 40
5.625
100
AcDbArc
 50
0.0
 51
180.0
  0
ARC
  5
2A758
330
2A85E
100
AcDbEntity
  8
SUNPOU
100
AcDbCircle
 10
2381.30608063106
 20
1080.744622954002
 30
0.0
 40
5.625
100
AcDbArc
 50
180.0
 51
0.0
  0
ARC
  5
2A759
330
2A85E
100
AcDbEntity
  8
SUNPOU
100
AcDbCircle
 10
2381.30608063106
 20
1080.744622954002
 30
0.0
 40
5.625
100
AcDbArc
 50
180.0
 51
0.0
  0
ARC
  5
2A75A
330
2A85E
100
AcDbEntity
  8
SUNPOU
100
AcDbCircle
 10
2381.30608063106
 20
1080.744622954002
 30
0.0
 40
5.625
100
AcDbArc
 50
0.0
 51
180.0
  0
ARC
  5
2A75B
330
2A85E
100
AcDbEntity
  8
SUNPOU
100
AcDbCircle
 10
1681.30608063106
 20
1080.744622954002
 30
0.0
 40
5.625
100
AcDbArc
 50
0.0
 51
180.0
  0
ARC
  5
2A75C
330
2A85E
100
AcDbEntity
  8
SUNPOU
100
AcDbCircle
 10
1681.30608063106
 20
1080.744622954002
 30
0.0
 40
5.625
100
AcDbArc
 50
180.0
 51
0.0
  0
ARC
  5
2A75D
330
2A85E
100
AcDbEntity
  8
SUNPOU
100
AcDbCircle
 10
2681.306080631061
 20
870.7446229540019
 30
0.0
 40
5.625
100
AcDbArc
 50
180.0
 51
0.0
  0
ARC
  5
2A75E
330
2A85E
100
AcDbEntity
  8
SUNPOU
100
AcDbCircle
 10
2681.306080631061
 20
870.7446229540019
 30
0.0
 40
5.625
100
AcDbArc
 50
0.0
 51
180.0
  0
ARC
  5
2A75F
330
2A85E
100
AcDbEntity
  8
SUNPOU
100
AcDbCircle
 10
1681.30608063106
 20
870.7446229540019
 30
0.0
 40
5.625
100
AcDbArc
 50
0.0
 51
180.0
  0
ARC
  5
2A760
330
2A85E
100
AcDbEntity
  8
SUNPOU
100
AcDbCircle
 10
1681.30608063106
 20
870.7446229540019
 30
0.0
 40
5.625
100
AcDbArc
 50
180.0
 51
0.0
  0
ARC
  5
2A761
330
2A85E
100
AcDbEntity
  8
SUNPOU
100
AcDbCircle
 10
3285.856080631056
 20
2200.744622954002
 30
0.0
 40
5.625
100
AcDbArc
 50
270.0
 51
90.0
  0
ARC
  5
2A762
330
2A85E
100
AcDbEntity
  8
SUNPOU
100
AcDbCircle
 10
3285.856080631056
 20
2200.744622954002
 30
0.0
 40
5.625
100
AcDbArc
 50
90.0
 51
270.0
  0
ARC
  5
2A763
330
2A85E
100
AcDbEntity
  8
SUNPOU
100
AcDbCircle
 10
3285.856080631056
 20
2050.744622954002
 30
0.0
 40
5.625
100
AcDbArc
 50
90.0
 51
270.0
  0
ARC
  5
2A764
330
2A85E
100
AcDbEntity
  8
SUNPOU
100
AcDbCircle
 10
3285.856080631056
 20
2050.744622954002
 30
0.0
 40
5.625
100
AcDbArc
 50
270.0
 51
90.0
  0
ARC
  5
2A765
330
2A85E
100
AcDbEntity
  8
HIKIDASHI
100
AcDbCircle
 10
8774.699688153928
 20
7570.029626642723
 30
0.0
 40
74.66417910444343
100
AcDbArc
 50
301.7712278330751
 51
15.14038701491457
  0
ARC
  5
2A76D
330
2A85E
100
AcDbEntity
  8
HIKIDASHI
100
AcDbCircle
 10
4247.977187334782
 20
2718.461774610483
 30
0.0
 40
74.66417910452284
100
AcDbArc
 50
164.859612985099
 51
237.5045002941329
  0
ARC
  5
2A76E
330
2A85E
100
AcDbEntity
  8
HIKIDASHI
100
AcDbCircle
 10
4184.553393288477
 20
2735.622798094968
 30
0.0
 40
8.959701492542743
100
AcDbArc
 50
15.14038701504826
 51
164.8596129849796
  0
LINE
  5
2A76F
330
2A85E
100
AcDbEntity
  8
HIKIDASHI
100
AcDbLine
 10
2541.337898128639
 20
2155.093392918709
 30
0.0
 11
2861.708263957677
 21
2588.077046087621
 31
0.0
1001
ACAD
1000
DSTYLE
1002
{
1070
   147
1040
1.5
1070
    77
1070
     0
1002
}
  0
LINE
  5
2A770
330
2A85E
100
AcDbEntity
  8
HIKIDASHI
100
AcDbLine
 10
2529.279769801189
 20
2164.015362501639
 30
0.0
 11
2487.80608063106
 21
2082.744622954003
 31
0.0
  0
LINE
  5
2A771
330
2A85E
100
AcDbEntity
  8
HIKIDASHI
100
AcDbLine
 10
2487.80608063106
 20
2082.744622954003
 30
0.0
 11
2553.396026456091
 21
2146.171423335779
 31
0.0
  0
SOLID
  5
2A772
330
2A85E
100
AcDbEntity
  8
HIKIDASHI
100
AcDbTrace
 10
2529.279769801189
 20
2164.015362501639
 30
0.0
 11
2553.396026456091
 21
2146.171423335779
 31
0.0
 12
2487.80608063106
 22
2082.744622954003
 32
0.0
 13
2487.80608063106
 23
2082.744622954003
 33
0.0
  0
LINE
  5
2A773
330
2A85E
100
AcDbEntity
  8
HIKIDASHI
100
AcDbLine
 10
2553.396026456091
 20
2146.171423335779
 30
0.0
 11
2529.279769801189
 21
2164.015362501639
 31
0.0
  0
LINE
  5
2A774
330
2A85E
100
AcDbEntity
  8
HIKIDASHI
100
AcDbLine
 10
2486.519879054727
 20
1586.566247873522
 30
0.0
 11
3090.271559542875
 21
688.9669329272346
 31
0.0
1001
ACAD
1000
DSTYLE
1002
{
1070
   147
1040
1.5
1070
    77
1070
     0
1002
}
  0
LINE
  5
2A775
330
2A85E
100
AcDbEntity
  8
HIKIDASHI
100
AcDbLine
 10
2498.966274901474
 20
1594.938059530869
 30
0.0
 11
2436.289009110646
 21
1661.244622954002
 31
0.0
  0
LINE
  5
2A776
330
2A85E
100
AcDbEntity
  8
HIKIDASHI
100
AcDbLine
 10
2436.289009110646
 20
1661.244622954002
 30
0.0
 11
2474.07348320798
 21
1578.194436216175
 31
0.0
  0
SOLID
  5
2A777
330
2A85E
100
AcDbEntity
  8
HIKIDASHI
100
AcDbTrace
 10
2498.966274901474
 20
1594.938059530869
 30
0.0
 11
2474.07348320798
 21
1578.194436216175
 31
0.0
 12
2436.289009110646
 22
1661.244622954002
 32
0.0
 13
2436.289009110646
 23
1661.244622954002
 33
0.0
  0
LINE
  5
2A778
330
2A85E
100
AcDbEntity
  8
HIKIDASHI
100
AcDbLine
 10
2474.07348320798
 20
1578.194436216175
 30
0.0
 11
2498.966274901474
 21
1594.938059530869
 31
0.0
  0
LINE
  5
2A779
330
2A85E
100
AcDbEntity
  8
HIKIDASHI
100
AcDbLine
 10
2634.61343526516
 20
1732.649061714796
 30
0.0
 11
3222.877259411718
 21
932.4302402870015
 31
0.0
1001
ACAD
1000
DSTYLE
1002
{
1070
   147
1040
1.5
1070
    77
1070
     0
1002
}
  0
LINE
  5
2A77A
330
2A85E
100
AcDbEntity
  8
HIKIDASHI
100
AcDbLine
 10
2646.699154503072
 20
1741.533620820479
 30
0.0
 11
2581.306080631061
 21
1805.163377142264
 31
0.0
  0
LINE
  5
2A77B
330
2A85E
100
AcDbEntity
  8
HIKIDASHI
100
AcDbLine
 10
2581.306080631061
 20
1805.163377142264
 30
0.0
 11
2622.527716027247
 21
1723.764502609111
 31
0.0
  0
SOLID
  5
2A77C
330
2A85E
100
AcDbEntity
  8
HIKIDASHI
100
AcDbTrace
 10
2646.699154503072
 20
1741.533620820479
 30
0.0
 11
2622.527716027247
 21
1723.764502609111
 31
0.0
 12
2581.306080631061
 22
1805.163377142264
 32
0.0
 13
2581.306080631061
 23
1805.163377142264
 33
0.0
  0
LINE
  5
2A77D
330
2A85E
100
AcDbEntity
  8
HIKIDASHI
100
AcDbLine
 10
2622.527716027247
 20
1723.764502609111
 30
0.0
 11
2646.699154503072
 21
1741.533620820479
 31
0.0
  0
ARC
  5
2A77E
330
2A85E
100
AcDbEntity
  8
HIKIDASHI
100
AcDbCircle
 10
4122.309125777911
 20
2719.641901970073
 30
0.0
 40
74.66417910452252
100
AcDbArc
 50
301.7712278330703
 51
15.14038701490934
  0
LINE
  5
2A77F
330
2A85E
100
AcDbEntity
  8
HATCH
100
AcDbLine
 10
1631.621770949263
 20
1420.744622953998
 30
0.0
 11
1689.356797868225
 21
1520.744622953998
 31
0.0
  0
LINE
  5
2A780
330
2A85E
100
AcDbEntity
  8
HATCH
100
AcDbLine
 10
1649.356797868225
 20
1520.744622953996
 30
0.0
 11
1669.356797868226
 21
1486.103606802622
 31
0.0
  0
LINE
  5
2A781
330
2A85E
100
AcDbEntity
  8
HATCH
100
AcDbLine
 10
1651.621770949263
 20
1455.385639105377
 30
0.0
 11
1671.621770949263
 21
1420.744622953998
 31
0.0
  0
LINE
  5
2A782
330
2A85E
100
AcDbEntity
  8
HATCH
100
AcDbLine
 10
2681.621770949263
 20
1420.744622954002
 30
0.0
 11
2739.356797868226
 21
1520.744622954002
 31
0.0
  0
LINE
  5
2A783
330
2A85E
100
AcDbEntity
  8
HATCH
100
AcDbLine
 10
2699.356797868226
 20
1520.744622954
 30
0.0
 11
2719.356797868226
 21
1486.103606802626
 31
0.0
  0
LINE
  5
2A784
330
2A85E
100
AcDbEntity
  8
HATCH
100
AcDbLine
 10
2701.621770949262
 20
1455.38563910538
 30
0.0
 11
2721.621770949263
 21
1420.744622954002
 31
0.0
  0
LINE
  5
2A785
330
2A85E
100
AcDbEntity
  8
HATCH
100
AcDbLine
 10
2531.621770949262
 20
1420.744622954002
 30
0.0
 11
2589.356797868226
 21
1520.744622954002
 31
0.0
  0
LINE
  5
2A786
330
2A85E
100
AcDbEntity
  8
HATCH
100
AcDbLine
 10
2549.356797868226
 20
1520.744622954
 30
0.0
 11
2569.356797868226
 21
1486.103606802626
 31
0.0
  0
LINE
  5
2A787
330
2A85E
100
AcDbEntity
  8
HATCH
100
AcDbLine
 10
2551.621770949263
 20
1455.38563910538
 30
0.0
 11
2571.621770949263
 21
1420.744622954002
 31
0.0
  0
LINE
  5
2A788
330
2A85E
100
AcDbEntity
  8
HATCH
100
AcDbLine
 10
2381.621770949263
 20
1420.744622954002
 30
0.0
 11
2439.356797868226
 21
1520.744622954002
 31
0.0
  0
LINE
  5
2A789
330
2A85E
100
AcDbEntity
  8
HATCH
100
AcDbLine
 10
2399.356797868225
 20
1520.744622954
 30
0.0
 11
2419.356797868226
 21
1486.103606802626
 31
0.0
  0
LINE
  5
2A78A
330
2A85E
100
AcDbEntity
  8
HATCH
100
AcDbLine
 10
2401.621770949263
 20
1455.38563910538
 30
0.0
 11
2421.621770949264
 21
1420.744622954002
 31
0.0
  0
LINE
  5
2A78B
330
2A85E
100
AcDbEntity
  8
HATCH
100
AcDbLine
 10
1371.306080630978
 20
2050.744622954002
 30
0.0
 11
1405.947096782324
 21
2110.744622953947
 31
0.0
  0
LINE
  5
2A78C
330
2A85E
100
AcDbEntity
  8
HATCH
100
AcDbLine
 10
1381.947096782345
 20
2110.744622953947
 30
0.0
 11
1393.947096782335
 21
2089.96001326314
 31
0.0
  0
LINE
  5
2A78D
330
2A85E
100
AcDbEntity
  8
HATCH
100
AcDbLine
 10
1383.306080630968
 20
2071.52923264481
 30
0.0
 11
1395.306080630956
 21
2050.744622954002
 31
0.0
  0
LINE
  5
2A78E
330
2A85E
100
AcDbEntity
  8
HATCH
100
AcDbLine
 10
1461.306080630978
 20
2050.744622954002
 30
0.0
 11
1495.947096782324
 21
2110.744622953947
 31
0.0
  0
LINE
  5
2A78F
330
2A85E
100
AcDbEntity
  8
HATCH
100
AcDbLine
 10
1471.947096782345
 20
2110.744622953947
 30
0.0
 11
1483.947096782334
 21
2089.96001326314
 31
0.0
  0
LINE
  5
2A790
330
2A85E
100
AcDbEntity
  8
HATCH
100
AcDbLine
 10
1473.306080630966
 20
2071.52923264481
 30
0.0
 11
1485.306080630957
 21
2050.744622954002
 31
0.0
  0
LINE
  5
2A791
330
2A85E
100
AcDbEntity
  8
HATCH
100
AcDbLine
 10
1641.306080630978
 20
2050.744622954002
 30
0.0
 11
1675.947096782325
 21
2110.744622953947
 31
0.0
  0
LINE
  5
2A792
330
2A85E
100
AcDbEntity
  8
HATCH
100
AcDbLine
 10
1651.947096782345
 20
2110.744622953947
 30
0.0
 11
1663.947096782336
 21
2089.96001326314
 31
0.0
  0
LINE
  5
2A793
330
2A85E
100
AcDbEntity
  8
HATCH
100
AcDbLine
 10
1653.306080630968
 20
2071.52923264481
 30
0.0
 11
1665.306080630957
 21
2050.744622954002
 31
0.0
  0
LINE
  5
2A794
330
2A85E
100
AcDbEntity
  8
HATCH
100
AcDbLine
 10
1551.306080630978
 20
2050.744622954002
 30
0.0
 11
1585.947096782325
 21
2110.744622953947
 31
0.0
  0
LINE
  5
2A795
330
2A85E
100
AcDbEntity
  8
HATCH
100
AcDbLine
 10
1561.947096782345
 20
2110.744622953947
 30
0.0
 11
1573.947096782335
 21
2089.96001326314
 31
0.0
  0
LINE
  5
2A796
330
2A85E
100
AcDbEntity
  8
HATCH
100
AcDbLine
 10
1563.306080630967
 20
2071.52923264481
 30
0.0
 11
1575.306080630957
 21
2050.744622954002
 31
0.0
  0
LINE
  5
2A797
330
2A85E
100
AcDbEntity
  8
HATCH
100
AcDbLine
 10
2231.621770949263
 20
1420.744622953999
 30
0.0
 11
2289.356797868225
 21
1520.744622954
 31
0.0
  0
LINE
  5
2A798
330
2A85E
100
AcDbEntity
  8
HATCH
100
AcDbLine
 10
2249.356797868225
 20
1520.744622953999
 30
0.0
 11
2269.356797868226
 21
1486.103606802624
 31
0.0
  0
LINE
  5
2A799
330
2A85E
100
AcDbEntity
  8
HATCH
100
AcDbLine
 10
2251.621770949263
 20
1455.385639105378
 30
0.0
 11
2271.621770949263
 21
1420.744622953999
 31
0.0
  0
LINE
  5
2A79A
330
2A85E
100
AcDbEntity
  8
HATCH
100
AcDbLine
 10
1931.621770949263
 20
1420.744622953999
 30
0.0
 11
1989.356797868225
 21
1520.744622954
 31
0.0
  0
LINE
  5
2A79B
330
2A85E
100
AcDbEntity
  8
HATCH
100
AcDbLine
 10
1949.356797868226
 20
1520.744622953999
 30
0.0
 11
1969.356797868226
 21
1486.103606802624
 31
0.0
  0
LINE
  5
2A79C
330
2A85E
100
AcDbEntity
  8
HATCH
100
AcDbLine
 10
1951.621770949262
 20
1455.385639105378
 30
0.0
 11
1971.621770949263
 21
1420.744622953999
 31
0.0
  0
LINE
  5
2A79D
330
2A85E
100
AcDbEntity
  8
HATCH
100
AcDbLine
 10
2081.621770949263
 20
1420.744622953999
 30
0.0
 11
2139.356797868225
 21
1520.744622954
 31
0.0
  0
LINE
  5
2A79E
330
2A85E
100
AcDbEntity
  8
HATCH
100
AcDbLine
 10
2099.356797868225
 20
1520.744622953999
 30
0.0
 11
2119.356797868225
 21
1486.103606802624
 31
0.0
  0
LINE
  5
2A79F
330
2A85E
100
AcDbEntity
  8
HATCH
100
AcDbLine
 10
2101.621770949262
 20
1455.385639105378
 30
0.0
 11
2121.621770949263
 21
1420.744622953999
 31
0.0
  0
LINE
  5
2A7A0
330
2A85E
100
AcDbEntity
  8
HATCH
100
AcDbLine
 10
1781.621770949262
 20
1420.744622953999
 30
0.0
 11
1839.356797868226
 21
1520.744622954
 31
0.0
  0
LINE
  5
2A7A1
330
2A85E
100
AcDbEntity
  8
HATCH
100
AcDbLine
 10
1799.356797868226
 20
1520.744622953999
 30
0.0
 11
1819.356797868226
 21
1486.103606802624
 31
0.0
  0
LINE
  5
2A7A2
330
2A85E
100
AcDbEntity
  8
HATCH
100
AcDbLine
 10
1801.621770949262
 20
1455.385639105378
 30
0.0
 11
1821.621770949263
 21
1420.744622953999
 31
0.0
  0
LINE
  5
2A7A3
330
2A85E
100
AcDbEntity
  8
HATCH
100
AcDbLine
 10
1281.306080630979
 20
2050.744622954002
 30
0.0
 11
1315.947096782325
 21
2110.744622953947
 31
0.0
  0
LINE
  5
2A7A4
330
2A85E
100
AcDbEntity
  8
HATCH
100
AcDbLine
 10
1291.947096782346
 20
2110.744622953947
 30
0.0
 11
1303.947096782336
 21
2089.96001326314
 31
0.0
  0
LINE
  5
2A7A5
330
2A85E
100
AcDbEntity
  8
HATCH
100
AcDbLine
 10
1293.306080630967
 20
2071.52923264481
 30
0.0
 11
1305.306080630957
 21
2050.744622954002
 31
0.0
  0
LINE
  5
2A7A6
330
2A85E
100
AcDbEntity
  8
HATCH
100
AcDbLine
 10
1191.306080630978
 20
2050.744622954002
 30
0.0
 11
1225.947096782324
 21
2110.744622953947
 31
0.0
  0
LINE
  5
2A7A7
330
2A85E
100
AcDbEntity
  8
HATCH
100
AcDbLine
 10
1201.947096782346
 20
2110.744622953947
 30
0.0
 11
1213.947096782336
 21
2089.96001326314
 31
0.0
  0
LINE
  5
2A7A8
330
2A85E
100
AcDbEntity
  8
HATCH
100
AcDbLine
 10
1203.306080630968
 20
2071.52923264481
 30
0.0
 11
1215.306080630957
 21
2050.744622954002
 31
0.0
  0
LINE
  5
2A7A9
330
2A85E
100
AcDbEntity
  8
HATCH
100
AcDbLine
 10
1101.306080630978
 20
2050.744622954002
 30
0.0
 11
1135.947096782324
 21
2110.744622953947
 31
0.0
  0
LINE
  5
2A7AA
330
2A85E
100
AcDbEntity
  8
HATCH
100
AcDbLine
 10
1111.947096782346
 20
2110.744622953947
 30
0.0
 11
1123.947096782335
 21
2089.96001326314
 31
0.0
  0
LINE
  5
2A7AB
330
2A85E
100
AcDbEntity
  8
HATCH
100
AcDbLine
 10
1113.306080630968
 20
2071.52923264481
 30
0.0
 11
1125.306080630956
 21
2050.744622954002
 31
0.0
  0
LINE
  5
2A7AC
330
2A85E
100
AcDbEntity
  8
KISO
100
AcDbLine
 10
5310.055546028489
 20
1530.744622954004
 30
0.0
 11
6310.055546028489
 21
1530.744622954004
 31
0.0
  0
LINE
  5
2A7AD
330
2A85E
100
AcDbEntity
  8
KISO
100
AcDbLine
 10
6310.055546028489
 20
1530.744622954004
 30
0.0
 11
6310.055546028489
 21
2330.744622954003
 31
0.0
  0
LINE
  5
2A7AE
330
2A85E
100
AcDbEntity
  8
KISO
100
AcDbLine
 10
6310.055546028489
 20
2330.744622954003
 30
0.0
 11
5310.055546028489
 21
2330.744622954003
 31
0.0
  0
LINE
  5
2A7AF
330
2A85E
100
AcDbEntity
  8
KISO
100
AcDbLine
 10
5310.055546028489
 20
2330.744622954003
 30
0.0
 11
5310.055546028489
 21
1530.744622954004
 31
0.0
  0
LINE
  5
2A7B0
330
2A85E
100
AcDbEntity
  8
KISO-3
100
AcDbLine
 10
10036.0404102775
 20
7138.464770760363
 30
0.0
 11
10036.0404102775
 21
6658.464770760365
 31
0.0
  0
LINE
  5
2A7B1
330
2A85E
100
AcDbEntity
  8
KISO-3
100
AcDbLine
 10
10036.0404102775
 20
6658.464770760365
 30
0.0
 11
9556.040410277507
 21
6658.464770760365
 31
0.0
  0
LINE
  5
2A7B2
330
2A85E
100
AcDbEntity
  8
KISO-3
100
AcDbLine
 10
9556.040410277507
 20
6658.464770760365
 30
0.0
 11
9556.040410277507
 21
7138.464770760363
 31
0.0
  0
LINE
  5
2A7B3
330
2A85E
100
AcDbEntity
  8
KISO-2
100
AcDbLine
 10
9656.040410277507
 20
6758.464770760365
 30
0.0
 11
9936.040410277506
 21
6758.464770760365
 31
0.0
  0
LINE
  5
2A7B4
330
2A85E
100
AcDbEntity
  8
KISO-2
100
AcDbLine
 10
9936.040410277506
 20
6758.464770760365
 30
0.0
 11
9936.040410277506
 21
7038.464770760363
 31
0.0
  0
LINE
  5
2A7B5
330
2A85E
100
AcDbEntity
  8
KISO-2
100
AcDbLine
 10
9936.040410277506
 20
7038.464770760363
 30
0.0
 11
9656.040410277507
 21
7038.464770760363
 31
0.0
  0
LINE
  5
2A7B6
330
2A85E
100
AcDbEntity
  8
KISO-2
100
AcDbLine
 10
9656.040410277507
 20
7038.464770760363
 30
0.0
 11
9656.040410277507
 21
6758.464770760365
 31
0.0
  0
LINE
  5
2A7B7
330
2A85E
100
AcDbEntity
  8
KISO-1
100
AcDbLine
 10
7796.040410277507
 20
6198.464770760363
 30
0.0
 11
6996.04041027751
 21
6198.464770760363
 31
0.0
  0
LINE
  5
2A7B8
330
2A85E
100
AcDbEntity
  8
KISO-1
100
AcDbLine
 10
6996.04041027751
 20
6198.464770760363
 30
0.0
 11
6996.04041027751
 21
7198.464770760367
 31
0.0
  0
LINE
  5
2A7B9
330
2A85E
100
AcDbEntity
  8
KISO-1
100
AcDbLine
 10
6996.04041027751
 20
7198.464770760367
 30
0.0
 11
7796.040410277507
 21
7198.464770760367
 31
0.0
  0
LINE
  5
2A7BA
330
2A85E
100
AcDbEntity
  8
KISO-1
100
AcDbLine
 10
7796.040410277507
 20
7198.464770760367
 30
0.0
 11
7796.040410277507
 21
6198.464770760363
 31
0.0
  0
LINE
  5
2A7BB
330
2A85E
100
AcDbEntity
  8
KISO-3
100
AcDbLine
 10
7636.040410277506
 20
7138.464770760363
 30
0.0
 11
7636.040410277506
 21
6658.464770760365
 31
0.0
  0
LINE
  5
2A7BC
330
2A85E
100
AcDbEntity
  8
KISO-3
100
AcDbLine
 10
7636.040410277506
 20
6658.464770760365
 30
0.0
 11
7156.040410277511
 21
6658.464770760365
 31
0.0
  0
LINE
  5
2A7BD
330
2A85E
100
AcDbEntity
  8
KISO-3
100
AcDbLine
 10
7156.040410277511
 20
6658.464770760365
 30
0.0
 11
7156.040410277511
 21
7138.464770760363
 31
0.0
  0
LINE
  5
2A7BE
330
2A85E
100
AcDbEntity
  8
KISO-2
100
AcDbLine
 10
7256.040410277511
 20
6758.464770760365
 30
0.0
 11
7536.040410277511
 21
6758.464770760365
 31
0.0
  0
LINE
  5
2A7BF
330
2A85E
100
AcDbEntity
  8
KISO-2
100
AcDbLine
 10
7536.040410277511
 20
6758.464770760365
 30
0.0
 11
7536.040410277511
 21
7038.464770760363
 31
0.0
  0
LINE
  5
2A7C0
330
2A85E
100
AcDbEntity
  8
KISO-2
100
AcDbLine
 10
7536.040410277511
 20
7038.464770760363
 30
0.0
 11
7256.040410277511
 21
7038.464770760363
 31
0.0
  0
LINE
  5
2A7C1
330
2A85E
100
AcDbEntity
  8
KISO-2
100
AcDbLine
 10
7256.040410277511
 20
7038.464770760363
 30
0.0
 11
7256.040410277511
 21
6758.464770760365
 31
0.0
  0
LINE
  5
2A7C2
330
2A85E
100
AcDbEntity
  8
KISO-2
100
AcDbLine
 10
4856.04041027751
 20
6758.464770760365
 30
0.0
 11
5136.04041027751
 21
6758.464770760365
 31
0.0
  0
LINE
  5
2A7C3
330
2A85E
100
AcDbEntity
  8
KISO-2
100
AcDbLine
 10
5136.04041027751
 20
6758.464770760365
 30
0.0
 11
5136.04041027751
 21
7038.464770760363
 31
0.0
  0
LINE
  5
2A7C4
330
2A85E
100
AcDbEntity
  8
KISO-2
100
AcDbLine
 10
5136.04041027751
 20
7038.464770760363
 30
0.0
 11
4856.04041027751
 21
7038.464770760363
 31
0.0
  0
LINE
  5
2A7C5
330
2A85E
100
AcDbEntity
  8
KISO-2
100
AcDbLine
 10
4856.04041027751
 20
7038.464770760363
 30
0.0
 11
4856.04041027751
 21
6758.464770760365
 31
0.0
  0
LINE
  5
2A7C6
330
2A85E
100
AcDbEntity
  8
KISO-3
100
AcDbLine
 10
5236.04041027751
 20
7138.464770760363
 30
0.0
 11
5236.04041027751
 21
6658.464770760365
 31
0.0
  0
LINE
  5
2A7C7
330
2A85E
100
AcDbEntity
  8
KISO-3
100
AcDbLine
 10
5236.04041027751
 20
6658.464770760365
 30
0.0
 11
4756.04041027751
 21
6658.464770760365
 31
0.0
  0
LINE
  5
2A7C8
330
2A85E
100
AcDbEntity
  8
KISO-3
100
AcDbLine
 10
4756.04041027751
 20
6658.464770760365
 30
0.0
 11
4756.04041027751
 21
7138.464770760363
 31
0.0
  0
LINE
  5
2A7C9
330
2A85E
100
AcDbEntity
  8
KISO-1
100
AcDbLine
 10
5396.04041027751
 20
6198.464770760363
 30
0.0
 11
4596.04041027751
 21
6198.464770760363
 31
0.0
  0
LINE
  5
2A7CA
330
2A85E
100
AcDbEntity
  8
KISO-1
100
AcDbLine
 10
4596.04041027751
 20
6198.464770760363
 30
0.0
 11
4596.04041027751
 21
7198.464770760367
 31
0.0
  0
LINE
  5
2A7CB
330
2A85E
100
AcDbEntity
  8
KISO-1
100
AcDbLine
 10
4596.04041027751
 20
7198.464770760367
 30
0.0
 11
5396.04041027751
 21
7198.464770760367
 31
0.0
  0
LINE
  5
2A7CC
330
2A85E
100
AcDbEntity
  8
KISO-1
100
AcDbLine
 10
5396.04041027751
 20
7198.464770760367
 30
0.0
 11
5396.04041027751
 21
6198.464770760363
 31
0.0
  0
LINE
  5
2A7CD
330
2A85E
100
AcDbEntity
  8
KISO-2
100
AcDbLine
 10
2736.040410277511
 20
6758.464770760365
 30
0.0
 11
2456.04041027751
 21
6758.464770760365
 31
0.0
  0
LINE
  5
2A7CE
330
2A85E
100
AcDbEntity
  8
KISO-2
100
AcDbLine
 10
2456.04041027751
 20
6758.464770760365
 30
0.0
 11
2456.04041027751
 21
7038.464770760363
 31
0.0
  0
LINE
  5
2A7CF
330
2A85E
100
AcDbEntity
  8
KISO-2
100
AcDbLine
 10
2456.04041027751
 20
7038.464770760363
 30
0.0
 11
2736.040410277511
 21
7038.464770760363
 31
0.0
  0
LINE
  5
2A7D0
330
2A85E
100
AcDbEntity
  8
KISO-2
100
AcDbLine
 10
2736.040410277511
 20
7038.464770760363
 30
0.0
 11
2736.040410277511
 21
6758.464770760365
 31
0.0
  0
LINE
  5
2A7D1
330
2A85E
100
AcDbEntity
  8
DOMAKON
100
AcDbLine
 10
2196.04041027751
 20
7138.464770760363
 30
0.0
 11
6136.04041027751
 21
7138.464770760363
 31
0.0
  0
LINE
  5
2A7D2
330
2A85E
100
AcDbEntity
  8
DOMAKON
100
AcDbLine
 10
6136.04041027751
 20
4898.464770760362
 30
0.0
 11
2196.04041027751
 21
4898.464770760362
 31
0.0
  0
LINE
  5
2A7D3
330
2A85E
100
AcDbEntity
  8
DOMAKON
100
AcDbLine
 10
2196.04041027751
 20
4898.464770760362
 30
0.0
 11
2196.04041027751
 21
7138.464770760363
 31
0.0
  0
LINE
  5
2A7D4
330
2A85E
100
AcDbEntity
  8
KISO-3
100
AcDbLine
 10
2356.04041027751
 20
7138.464770760363
 30
0.0
 11
2356.04041027751
 21
6658.464770760365
 31
0.0
  0
LINE
  5
2A7D5
330
2A85E
100
AcDbEntity
  8
KISO-3
100
AcDbLine
 10
2356.04041027751
 20
6658.464770760365
 30
0.0
 11
2836.04041027751
 21
6658.464770760365
 31
0.0
  0
LINE
  5
2A7D6
330
2A85E
100
AcDbEntity
  8
KISO-3
100
AcDbLine
 10
2836.04041027751
 20
6658.464770760365
 30
0.0
 11
2836.04041027751
 21
7138.464770760363
 31
0.0
  0
LINE
  5
2A7D7
330
2A85E
100
AcDbEntity
  8
DOMAKON
100
AcDbLine
 10
6256.04041027751
 20
7138.464770760363
 30
0.0
 11
10196.0404102775
 21
7138.464770760363
 31
0.0
  0
LINE
  5
2A7D8
330
2A85E
100
AcDbEntity
  8
DOMAKON
100
AcDbLine
 10
10196.0404102775
 20
7138.464770760363
 30
0.0
 11
10196.0404102775
 21
4898.464770760362
 31
0.0
  0
LINE
  5
2A7D9
330
2A85E
100
AcDbEntity
  8
DOMAKON
100
AcDbLine
 10
10196.0404102775
 20
4898.464770760362
 30
0.0
 11
6256.04041027751
 21
4898.464770760362
 31
0.0
  0
LINE
  5
2A7DA
330
2A85E
100
AcDbEntity
  8
YANE
100
AcDbLine
 10
10017.84106332874
 20
5024.915498379021
 30
0.0
 11
2374.239757226271
 21
5024.915498379021
 31
0.0
  0
LINE
  5
2A7DB
330
2A85E
100
AcDbEntity
  8
YANE
100
AcDbLine
 10
2374.239757226271
 20
5024.915498379021
 30
0.0
 11
2374.239757226271
 21
7013.014770760361
 31
0.0
  0
LINE
  5
2A7DC
330
2A85E
100
AcDbEntity
  8
YANE
100
AcDbLine
 10
2374.239757226271
 20
7013.014770760361
 30
0.0
 11
10017.84106332874
 21
7013.014770760361
 31
0.0
  0
LINE
  5
2A7DD
330
2A85E
100
AcDbEntity
  8
YANE
100
AcDbLine
 10
10017.84106332874
 20
7013.014770760361
 30
0.0
 11
10017.84106332874
 21
5024.915498379021
 31
0.0
  0
LINE
  5
2A7DE
330
2A85E
100
AcDbEntity
  8
TENSEN-1
100
AcDbLine
 10
2517.806080631061
 20
1675.744622954002
 30
0.0
 11
2487.80608063106
 21
1675.744622954004
 31
0.0
  0
LINE
  5
2A7DF
330
2A85E
100
AcDbEntity
  8
TENSEN-1
100
AcDbLine
 10
2487.80608063106
 20
1675.744622954004
 30
0.0
 11
2487.80608063106
 21
2082.744622954003
 31
0.0
  0
LINE
  5
2A7E0
330
2A85E
100
AcDbEntity
  8
TENSEN-1
100
AcDbLine
 10
2487.80608063106
 20
2082.744622954003
 30
0.0
 11
2474.806080631061
 21
2082.744622954002
 31
0.0
  0
LINE
  5
2A7E1
330
2A85E
100
AcDbEntity
  8
TENSEN-1
100
AcDbLine
 10
2474.806080631061
 20
2082.744622954002
 30
0.0
 11
2474.806080631061
 21
1662.744622954002
 31
0.0
  0
LINE
  5
2A7E2
330
2A85E
100
AcDbEntity
  8
TENSEN-1
100
AcDbLine
 10
2474.806080631061
 20
1662.744622954002
 30
0.0
 11
2517.806080631061
 21
1662.744622954004
 31
0.0
  0
LINE
  5
2A7E3
330
2A85E
100
AcDbEntity
  8
TENSEN-1
100
AcDbLine
 10
2517.806080631061
 20
1662.744622954004
 30
0.0
 11
2517.806080631061
 21
1675.744622954002
 31
0.0
  0
LINE
  5
2A7E4
330
2A85E
100
AcDbEntity
  8
HASIRA
100
AcDbLine
 10
2425.856080631056
 20
2062.744622954002
 30
0.0
 11
2425.856080631056
 21
2577.036476938623
 31
0.0
  0
LINE
  5
2A7E5
330
2A85E
100
AcDbEntity
  8
TENSEN-1
100
AcDbLine
 10
2244.806080631061
 20
1675.744622954002
 30
0.0
 11
2274.80608063106
 21
1675.744622954002
 31
0.0
  0
LINE
  5
2A7E6
330
2A85E
100
AcDbEntity
  8
TENSEN-1
100
AcDbLine
 10
2274.80608063106
 20
1675.744622954002
 30
0.0
 11
2274.80608063106
 21
2082.744622954002
 31
0.0
  0
LINE
  5
2A7E7
330
2A85E
100
AcDbEntity
  8
TENSEN-1
100
AcDbLine
 10
2274.80608063106
 20
2082.744622954002
 30
0.0
 11
2287.80608063106
 21
2082.744622954002
 31
0.0
  0
LINE
  5
2A7E8
330
2A85E
100
AcDbEntity
  8
TENSEN-1
100
AcDbLine
 10
2287.80608063106
 20
2082.744622954002
 30
0.0
 11
2287.80608063106
 21
1662.744622954002
 31
0.0
  0
LINE
  5
2A7E9
330
2A85E
100
AcDbEntity
  8
TENSEN-1
100
AcDbLine
 10
2287.80608063106
 20
1662.744622954002
 30
0.0
 11
2244.806080631061
 21
1662.744622954004
 31
0.0
  0
LINE
  5
2A7EA
330
2A85E
100
AcDbEntity
  8
TENSEN-1
100
AcDbLine
 10
2244.806080631061
 20
1662.744622954004
 30
0.0
 11
2244.806080631061
 21
1675.744622954002
 31
0.0
  0
LINE
  5
2A7EB
330
2A85E
100
AcDbEntity
  8
HASIRA
100
AcDbLine
 10
2336.756080631058
 20
2062.744622954002
 30
0.0
 11
2336.756080631058
 21
2577.036476938623
 31
0.0
  0
LINE
  5
2A7EC
330
2A85E
100
AcDbEntity
  8
KISO
100
AcDbLine
 10
2241.30608063106
 20
2050.744622954002
 30
0.0
 11
2521.30608063106
 21
2050.744622954003
 31
0.0
  0
LINE
  5
2A7ED
330
2A85E
100
AcDbEntity
  8
KISO
100
AcDbLine
 10
2521.30608063106
 20
2050.744622954003
 30
0.0
 11
2521.30608063106
 21
2062.744622954002
 31
0.0
  0
LINE
  5
2A7EE
330
2A85E
100
AcDbEntity
  8
KISO
100
AcDbLine
 10
2521.30608063106
 20
2062.744622954002
 30
0.0
 11
2241.30608063106
 21
2062.744622954002
 31
0.0
  0
LINE
  5
2A7EF
330
2A85E
100
AcDbEntity
  8
KISO
100
AcDbLine
 10
2241.30608063106
 20
2062.744622954002
 30
0.0
 11
2241.30608063106
 21
2050.744622954002
 31
0.0
  0
LINE
  5
2A7F0
330
2A85E
100
AcDbEntity
  8
1PL-M1
100
AcDbLine
 10
2381.30608063106
 20
1035.744622954002
 30
0.0
 11
2381.30608063106
 21
2577.036476938623
 31
0.0
  0
ARC
  5
2A8D4
330
2A85E
100
AcDbEntity
  8
SUNPOU
100
AcDbCircle
 10
11027.25540629277
 20
2779.770976640978
 30
0.0
 40
225.0
100
AcDbArc
 50
328.3472725282761
 51
31.65272747172387
  0
TEXT
  5
2A8D5
330
2A85E
100
AcDbEntity
  8
SUNPOU
100
AcDbText
 10
8502.830157320255
 20
2661.697838913434
 30
0.0
 40
89.9993750043402
  1
34 m/s
 41
0.6700000000000001
  7
01
100
AcDbText
  0
TEXT
  5
2A8D6
330
2A85E
100
AcDbEntity
  8
SUNPOU
100
AcDbText
 10
8393.325136080166
 20
2815.983553199147
 30
0.0
 40
89.9993750043402
  1
50  N/m
 41
0.6700000000000001
  7
01
100
AcDbText
  0
TEXT
  5
2A8D7
330
2A85E
100
AcDbEntity
  8
SUNPOU
100
AcDbText
 10
8394.022473744486
 20
1973.84069605629
 30
0.0
 40
90.0
  1
異形鉄筋の場合、原則としてフックは不要ですが、
  7
01
100
AcDbText
  0
TEXT
  5
2A8D8
330
2A85E
100
AcDbEntity
  8
SUNPOU
100
AcDbText
 10
8394.022473744486
 20
2282.41212462772
 30
0.0
 40
90.0
  1
あわせて設計して下さい。
  7
01
100
AcDbText
  0
TEXT
  5
2A8D9
330
2A85E
100
AcDbEntity
  8
SUNPOU
100
AcDbText
 10
8394.022473744486
 20
2128.126410342005
 30
0.0
 40
90.0
  1
その他現地の実情にあわせて設計して下さい。
  7
01
100
AcDbText
  0
TEXT
  5
2A8DA
330
2A85E
100
AcDbEntity
  8
SUNPOU
100
AcDbText
 10
8394.022473744486
 20
2436.697838913434
 30
0.0
 40
90.0
  1
寒冷地の場合、凍結深度等を考慮し、実情に
  7
01
100
AcDbText
  0
TEXT
  5
2A8DB
330
2A85E
100
AcDbEntity
  8
SUNPOU
100
AcDbText
 10
8394.022473744486
 20
1819.554981770576
 30
0.0
 40
90.0
  1
地域によっては、フックをつける様指導している
  7
01
100
AcDbText
  0
TEXT
  5
2A8DC
330
2A85E
100
AcDbEntity
  8
SUNPOU
100
AcDbText
 10
8019.066728655095
 20
2661.697838913434
 30
0.0
 40
89.9993750043402
  1
基準風速   　　 , 地表面粗度区分
  7
01
100
AcDbText
  0
TEXT
  5
2A8DD
330
2A85E
100
AcDbEntity
  8
SUNPOU
100
AcDbText
 10
7888.503099938862
 20
3005.237555645102
 30
0.0
 40
90.0
  1
<下記条件での参考図>
  7
01
 72
     4
 11
8477.360242796006
 21
3050.237555645102
 31
0.0
100
AcDbText
  0
TEXT
  5
2A8DE
330
2A85E
100
AcDbEntity
  8
SUNPOU
100
AcDbText
 10
8013.860242796004
 20
3162.737555645104
 30
0.0
 40
120.0
  1
基礎断面図
  7
01
 72
     4
 11
8353.860242796006
 21
3222.737555645103
 31
0.0
100
AcDbText
  0
TEXT
  5
2A8DF
330
2A85E
100
AcDbEntity
  8
SUNPOU
100
AcDbText
 10
8394.022473744486
 20
1665.269267484861
 30
0.0
 40
90.0
  1
所もありますので、ご注意願います。
  7
01
100
AcDbText
  0
TEXT
  5
2A8E0
330
2A85E
100
AcDbEntity
  8
SUNPOU
100
AcDbText
 10
8019.066728655095
 20
2815.983553199147
 30
0.0
 40
89.9993750043402
  1
地耐力   　　　 以上,コンクリート設計基準強度　　　　　以上
  7
01
100
AcDbText
  0
TEXT
  5
2A8E1
330
2A85E
100
AcDbEntity
  8
SUNPOU
100
AcDbText
 10
8187.816728655096
 20
2436.697838913434
 30
0.0
 40
90.0
  1
1
 41
0.6700000000000001
  7
01
100
AcDbText
  0
TEXT
  5
2A8E2
330
2A85E
100
AcDbEntity
  8
SUNPOU
100
AcDbText
 10
8077.182808442367
 20
2436.697838913434
 30
0.0
 40
90.0
  1
注　）
  7
01
100
AcDbText
  0
TEXT
  5
2A8E3
330
2A85E
100
AcDbEntity
  8
SUNPOU
100
AcDbText
 10
8187.816728655096
 20
1973.84069605629
 30
0.0
 40
90.0
  1
3
 41
0.6700000000000001
  7
01
100
AcDbText
  0
TEXT
  5
2A8E4
330
2A85E
100
AcDbEntity
  8
SUNPOU
100
AcDbText
 10
8077.182808442367
 20
1973.84069605629
 30
0.0
 40
90.0
  1
注　）
  7
01
100
AcDbText
  0
TEXT
  5
2A8E5
330
2A85E
100
AcDbEntity
  8
SUNPOU
100
AcDbText
 10
8077.182808442367
 20
2128.126410342005
 30
0.0
 40
90.0
  1
注　）
  7
01
100
AcDbText
  0
TEXT
  5
2A8E6
330
2A85E
100
AcDbEntity
  8
SUNPOU
100
AcDbText
 10
8187.816728655096
 20
2128.126410342005
 30
0.0
 40
90.0
  1
2
 41
0.6700000000000001
  7
01
100
AcDbText
  0
ARC
  5
2A8E7
330
2A85E
100
AcDbEntity
  8
SUNPOU
100
AcDbCircle
 10
8172.025002562296
 20
2779.770976640978
 30
0.0
 40
225.0
100
AcDbArc
 50
148.3472725282761
 51
211.6527274717238
  0
TEXT
  5
2A8E8
330
2A85E
100
AcDbEntity
  8
SUNPOU
100
AcDbText
 10
8529.161588866116
 20
2815.983553199147
 30
0.0
 40
71.99950000347218
  1
K
 41
0.6700000000000001
  7
01
100
AcDbText
  0
TEXT
  5
2A8E9
330
2A85E
100
AcDbEntity
  8
SUNPOU
100
AcDbText
 10
8730.710580158975
 20
3175.045247952795
 30
0.0
 40
92.30769230769228
  1
（ S = 　　  ）
 41
0.6700000000000001
  7
00
 11
8730.710580158975
 21
3162.737555645103
 31
0.0
100
AcDbText
 73
     1
  0
TEXT
  5
2A8EA
330
2A85E
100
AcDbEntity
  8
SUNPOU
100
AcDbText
 10
8796.801745594517
 20
2866.171979556632
 30
0.0
 40
46.28539285937498
  1
2
 41
0.6700000000000001
  7
00
100
AcDbText
  0
TEXT
  5
2A8EB
330
2A85E
100
AcDbEntity
  8
SUNPOU
100
AcDbText
 10
9098.819409327417
 20
3172.583709491256
 30
0.0
 40
73.84615384615384
  1
/
 41
0.6700000000000001
  7
00
 11
9098.819409327417
 21
3162.737555645103
 31
0.0
100
AcDbText
 73
     1
  0
TEXT
  5
2A8EC
330
2A85E
100
AcDbEntity
  8
SUNPOU
100
AcDbText
 10
9162.768852281795
 20
3154.122171029718
 30
0.0
 40
73.84615384615384
  1
30
 41
0.6700000000000001
  7
00
 11
9162.768852281795
 21
3144.276017183564
 31
0.0
100
AcDbText
 73
     1
  0
TEXT
  5
2A8ED
330
2A85E
100
AcDbEntity
  8
SUNPOU
100
AcDbText
 10
9050.413282012048
 20
3191.045247952795
 30
0.0
 40
73.84615384615384
  1
1
 41
0.6700000000000001
  7
00
 11
9050.413282012048
 21
3181.199094106641
 31
0.0
100
AcDbText
 73
     1
  0
LINE
  5
2A8EE
330
2A85E
100
AcDbEntity
  8
SUNPOU
100
AcDbLine
 10
9855.882290221694
 20
2661.697838913434
 30
0.0
 11
9855.882290221694
 21
2745.190202612214
 31
0.0
  0
LINE
  5
2A8EF
330
2A85E
100
AcDbEntity
  8
SUNPOU
100
AcDbLine
 10
9839.007290221694
 20
2661.697838913434
 30
0.0
 11
9839.007290221694
 21
2745.190202612214
 31
0.0
  0
LINE
  5
2A8F0
330
2A85E
100
AcDbEntity
  8
SUNPOU
100
AcDbLine
 10
9822.132290221695
 20
2661.697838913434
 30
0.0
 11
9822.132290221695
 21
2745.190202612214
 31
0.0
  0
LINE
  5
2A8F1
330
2A85E
100
AcDbEntity
  8
SUNPOU
100
AcDbLine
 10
9810.882290221695
 20
2661.697838913432
 30
0.0
 11
9867.132290221695
 21
2661.697838913432
 31
0.0
  0
LINE
  5
2A8F2
330
2A85E
100
AcDbEntity
  8
SUNPOU
100
AcDbLine
 10
9810.882290221695
 20
2745.190202612214
 30
0.0
 11
9867.132290221695
 21
2745.190202612214
 31
0.0
  0
TEXT
  5
2A8F3
330
2A85E
100
AcDbEntity
  8
SUNPOU
100
AcDbText
 10
10438.0772069418
 20
2815.983553199147
 30
0.0
 40
89.9993750043402
  1
18
 41
0.6700000000000001
  7
01
100
AcDbText
  0
TEXT
  5
2A8F4
330
2A85E
100
AcDbEntity
  8
SUNPOU
100
AcDbText
 10
10573.91365972775
 20
2815.983553199147
 30
0.0
 40
89.9993750043402
  1
N/mm
 41
0.6700000000000001
  7
01
100
AcDbText
  0
TEXT
  5
2A8F5
330
2A85E
100
AcDbEntity
  8
SUNPOU
100
AcDbText
 10
10878.37814175915
 20
2866.171979556632
 30
0.0
 40
46.28539285937498
  1
2
 41
0.6700000000000001
  7
00
100
AcDbText
  0
ENDSEC
  0
SECTION
  2
OBJECTS
  0
DICTIONARY
  5
2A84E
330
0
100
AcDbDictionary
281
     1
  3
ACAD_GROUP
350
2A84F
  3
ACAD_LAYOUT
350
2A85B
  3
ACAD_MLEADERSTYLE
350
2A8A6
  3
ACAD_MLINESTYLE
350
2A858
  3
ACAD_PLOTSETTINGS
350
2A85A
  3
ACAD_PLOTSTYLENAME
350
2A850
  3
ACAD_TABLESTYLE
350
2A8A5
  3
AcDbVariableDictionary
350
2A8F6
  0
DICTIONARY
  5
2A84F
102
{ACAD_REACTORS
330
2A84E
102
}
330
2A84E
100
AcDbDictionary
281
     1
  0
DICTIONARY
  5
2A85B
102
{ACAD_REACTORS
330
2A84E
102
}
330
2A84E
100
AcDbDictionary
281
     1
  3
Layout1
350
2A85D
  3
Model
350
2A85F
  0
DICTIONARY
  5
2A8A6
102
{ACAD_REACTORS
330
2A84E
102
}
330
2A84E
100
AcDbDictionary
281
     1
  0
DICTIONARY
  5
2A858
102
{ACAD_REACTORS
330
2A84E
102
}
330
2A84E
100
AcDbDictionary
281
     1
  3
Standard
350
2A859
  0
DICTIONARY
  5
2A85A
102
{ACAD_REACTORS
330
2A84E
102
}
330
2A84E
100
AcDbDictionary
281
     1
  0
ACDBDICTIONARYWDFLT
  5
2A850
102
{ACAD_REACTORS
330
2A84E
102
}
330
2A84E
100
AcDbDictionary
281
     1
  3
Normal
350
2A851
100
AcDbDictionaryWithDefault
340
2A851
  0
DICTIONARY
  5
2A8A5
102
{ACAD_REACTORS
330
2A84E
102
}
330
2A84E
100
AcDbDictionary
281
     1
  0
DICTIONARY
  5
2A8F6
102
{ACAD_REACTORS
330
2A84E
102
}
330
2A84E
100
AcDbDictionary
281
     1
  3
DIMASSOC
350
2A8F7
  0
LAYOUT
  5
2A85D
102
{ACAD_REACTORS
330
2A85B
102
}
330
2A85B
100
AcDbPlotSettings
  1

  2
none_device
  4

  6

 40
0.0
 41
0.0
 42
0.0
 43
0.0
 44
0.0
 45
0.0
 46
0.0
 47
0.0
 48
0.0
 49
0.0
140
0.0
141
0.0
142
1.0
143
1.0
 70
   688
 72
     0
 73
     0
 74
     5
  7

 75
    16
147
1.0
148
0.0
149
0.0
100
AcDbLayout
  1
Layout1
 70
     0
 71
     1
 10
0.0
 20
0.0
 11
12.0
 21
9.0
 12
0.0
 22
0.0
 32
0.0
 14
1.000000000000000E+20
 24
1.000000000000000E+20
 34
1.000000000000000E+20
 15
-1.000000000000000E+20
 25
-1.000000000000000E+20
 35
-1.000000000000000E+20
146
0.0
 13
0.0
 23
0.0
 33
0.0
 16
1.0
 26
0.0
 36
0.0
 17
0.0
 27
1.0
 37
0.0
 76
     0
330
2A85C
  0
LAYOUT
  5
2A85F
102
{ACAD_REACTORS
330
2A85B
102
}
330
2A85B
100
AcDbPlotSettings
  1

  2
none_device
  4

  6

 40
0.0
 41
0.0
 42
0.0
 43
0.0
 44
0.0
 45
0.0
 46
0.0
 47
0.0
 48
0.0
 49
0.0
140
0.0
141
0.0
142
1.0
143
1.0
 70
  1712
 72
     0
 73
     0
 74
     0
  7

 75
     0
147
1.0
148
0.0
149
0.0
100
AcDbLayout
  1
Model
 70
     1
 71
     0
 10
0.0
 20
0.0
 11
12.0
 21
9.0
 12
267.0
 22
194.8999999999998
 32
0.0
 14
325.4974662390304
 24
122.76811781196
 34
-0.0000000000000053
 15
12286.99954069103
 25
8431.707478684499
 35
0.0000000000000099
146
0.0
 13
0.0
 23
0.0
 33
0.0
 16
1.0
 26
0.0
 36
0.0
 17
0.0
 27
1.0
 37
0.0
 76
     0
330
2A85E
331
2A861
  0
MLINESTYLE
  5
2A859
102
{ACAD_REACTORS
330
2A858
102
}
330
2A858
100
AcDbMlineStyle
  2
STANDARD
 70
     0
  3

 62
   256
 51
90.0
 52
90.0
 71
     2
 49
0.5
 62
   256
  6
BYLAYER
 49
-0.5
 62
   256
  6
BYLAYER
  0
ACDBPLACEHOLDER
  5
2A851
102
{ACAD_REACTORS
330
2A850
102
}
330
2A850
  0
DICTIONARYVAR
  5
2A8F7
102
{ACAD_REACTORS
330
2A8F6
102
}
330
2A8F6
100
DictionaryVariables
280
     0
  1
1
  0
ENDSEC
  0
EOF
