  0
SECTION
  2
HEADER
  9
$ACADVER
  1
AC1015
  9
$ACADMAINTVER
 70
    13
  9
$DWGCODEPAGE
  3
ANSI_932
  9
$INSBASE
 10
267.0
 20
194.8999999999998
 30
0.0
  9
$EXTMIN
 10
325.4974662390304
 20
122.7681178119601
 30
-0.0000000000000053
  9
$EXTMAX
 10
12286.99954069103
 20
8431.707478684501
 30
0.00000000000001
  9
$LIMMIN
 10
0.0
 20
0.0
  9
$LIMMAX
 10
12600.0
 20
8910.0
  9
$ORTHOMODE
 70
     0
  9
$REGENMODE
 70
     1
  9
$FILLMODE
 70
     1
  9
$QTEXTMODE
 70
     0
  9
$MIRRTEXT
 70
     0
  9
$LTSCALE
 40
30.0
  9
$ATTMODE
 70
     1
  9
$TEXTSIZE
 40
0.2
  9
$TRACEWID
 40
0.05
  9
$TEXTSTYLE
  7
00
  9
$CLAYER
  8
SUNPOU
  9
$CELTYPE
  6
ByLayer
  9
$CECOLOR
 62
   256
  9
$CELTSCALE
 40
1.0
  9
$DISPSILH
 70
     0
  9
$DIMSCALE
 40
30.0
  9
$DIMASZ
 40
0.5
  9
$DIMEXO
 40
1.0
  9
$DIMDLI
 40
7.0
  9
$DIMRND
 40
0.0
  9
$DIMDLE
 40
3.0
  9
$DIMEXE
 40
1.5
  9
$DIMTP
 40
0.0
  9
$DIMTM
 40
0.0
  9
$DIMTXT
 40
3.0
  9
$DIMCEN
 40
0.0
  9
$DIMTSZ
 40
0.0
  9
$DIMTOL
 70
     0
  9
$DIMLIM
 70
     0
  9
$DIMTIH
 70
     0
  9
$DIMTOH
 70
     0
  9
$DIMSE1
 70
     0
  9
$DIMSE2
 70
     0
  9
$DIMTAD
 70
     1
  9
$DIMZIN
 70
     8
  9
$DIMBLK
  1
DOT
  9
$DIMASO
 70
     1
  9
$DIMSHO
 70
     0
  9
$DIMPOST
  1

  9
$DIMAPOST
  1

  9
$DIMALT
 70
     0
  9
$DIMALTD
 70
     2
  9
$DIMALTF
 40
25.4
  9
$DIMLFAC
 40
1.0
  9
$DIMTOFL
 70
     1
  9
$DIMTVP
 40
0.0
  9
$DIMTIX
 70
     0
  9
$DIMSOXD
 70
     0
  9
$DIMSAH
 70
     1
  9
$DIMBLK1
  1
DOT
  9
$DIMBLK2
  1
DOT
  9
$DIMSTYLE
  2
SUNPOU
  9
$DIMCLRD
 70
   256
  9
$DIMCLRE
 70
   256
  9
$DIMCLRT
 70
   256
  9
$DIMTFAC
 40
1.0
  9
$DIMGAP
 40
1.5
  9
$DIMJUST
 70
     0
  9
$DIMSD1
 70
     0
  9
$DIMSD2
 70
     0
  9
$DIMTOLJ
 70
     1
  9
$DIMTZIN
 70
     0
  9
$DIMALTZ
 70
     0
  9
$DIMALTTZ
 70
     0
  9
$DIMUPT
 70
     0
  9
$DIMDEC
 70
     2
  9
$DIMTDEC
 70
     2
  9
$DIMALTU
 70
     2
  9
$DIMALTTD
 70
     2
  9
$DIMTXSTY
  7
STANDARD
  9
$DIMAUNIT
 70
     0
  9
$DIMADEC
 70
     0
  9
$DIMALTRND
 40
0.0
  9
$DIMAZIN
 70
     0
  9
$DIMDSEP
 70
    46
  9
$DIMATFIT
 70
     3
  9
$DIMFRAC
 70
     0
  9
$DIMLDRBLK
  1

  9
$DIMLUNIT
 70
     2
  9
$DIMLWD
 70
    -2
  9
$DIMLWE
 70
    -2
  9
$DIMTMOVE
 70
     2
  9
$LUNITS
 70
     2
  9
$LUPREC
 70
     2
  9
$SKETCHINC
 40
0.1
  9
$FILLETRAD
 40
5.0
  9
$AUNITS
 70
     0
  9
$AUPREC
 70
     0
  9
$MENU
  1
A:\TIGER\MENU\TIGER
  9
$ELEVATION
 40
0.0
  9
$PELEVATION
 40
0.0
  9
$THICKNESS
 40
0.0
  9
$LIMCHECK
 70
     0
  9
$CHAMFERA
 40
0.0
  9
$CHAMFERB
 40
0.0
  9
$CHAMFERC
 40
1.0
  9
$CHAMFERD
 40
0.0
  9
$SKPOLY
 70
     0
  9
$TDCREATE
 40
2450266.571064815
  9
$TDUCREATE
 40
2450266.196064815
  9
$TDUPDATE
 40
2456331.305369455
  9
$TDUUPDATE
 40
2456330.930369456
  9
$TDINDWG
 40
0.2772012616
  9
$TDUSRTIMER
 40
0.2772010880
  9
$USRTIMER
 70
     1
  9
$ANGBASE
 50
0.0
  9
$ANGDIR
 70
     0
  9
$PDMODE
 70
     0
  9
$PDSIZE
 40
0.0
  9
$PLINEWID
 40
0.0
  9
$SPLFRAME
 70
     0
  9
$SPLINETYPE
 70
     6
  9
$SPLINESEGS
 70
     8
  9
$HANDSEED
  5
25142
  9
$SURFTAB1
 70
     6
  9
$SURFTAB2
 70
     6
  9
$SURFTYPE
 70
     6
  9
$SURFU
 70
     6
  9
$SURFV
 70
     6
  9
$UCSBASE
  2

  9
$UCSNAME
  2

  9
$UCSORG
 10
0.0
 20
0.0
 30
0.0
  9
$UCSXDIR
 10
1.0
 20
0.0
 30
0.0
  9
$UCSYDIR
 10
0.0
 20
1.0
 30
0.0
  9
$UCSORTHOREF
  2

  9
$UCSORTHOVIEW
 70
     0
  9
$UCSORGTOP
 10
0.0
 20
0.0
 30
0.0
  9
$UCSORGBOTTOM
 10
0.0
 20
0.0
 30
0.0
  9
$UCSORGLEFT
 10
0.0
 20
0.0
 30
0.0
  9
$UCSORGRIGHT
 10
0.0
 20
0.0
 30
0.0
  9
$UCSORGFRONT
 10
0.0
 20
0.0
 30
0.0
  9
$UCSORGBACK
 10
0.0
 20
0.0
 30
0.0
  9
$PUCSBASE
  2

  9
$PUCSNAME
  2

  9
$PUCSORG
 10
0.0
 20
0.0
 30
0.0
  9
$PUCSXDIR
 10
1.0
 20
0.0
 30
0.0
  9
$PUCSYDIR
 10
0.0
 20
1.0
 30
0.0
  9
$PUCSORTHOREF
  2

  9
$PUCSORTHOVIEW
 70
     0
  9
$PUCSORGTOP
 10
0.0
 20
0.0
 30
0.0
  9
$PUCSORGBOTTOM
 10
0.0
 20
0.0
 30
0.0
  9
$PUCSORGLEFT
 10
0.0
 20
0.0
 30
0.0
  9
$PUCSORGRIGHT
 10
0.0
 20
0.0
 30
0.0
  9
$PUCSORGFRONT
 10
0.0
 20
0.0
 30
0.0
  9
$PUCSORGBACK
 10
0.0
 20
0.0
 30
0.0
  9
$USERI1
 70
     3
  9
$USERI2
 70
     0
  9
$USERI3
 70
     0
  9
$USERI4
 70
     0
  9
$USERI5
 70
  1103
  9
$USERR1
 40
0.0
  9
$USERR2
 40
1.0
  9
$USERR3
 40
0.0
  9
$USERR4
 40
0.0
  9
$USERR5
 40
0.0
  9
$WORLDVIEW
 70
     1
  9
$SHADEDGE
 70
     3
  9
$SHADEDIF
 70
    70
  9
$TILEMODE
 70
     1
  9
$MAXACTVP
 70
    16
  9
$PINSBASE
 10
0.0
 20
0.0
 30
0.0
  9
$PLIMCHECK
 70
     0
  9
$PEXTMIN
 10
1.000000000000000E+20
 20
1.000000000000000E+20
 30
1.000000000000000E+20
  9
$PEXTMAX
 10
-1.000000000000000E+20
 20
-1.000000000000000E+20
 30
-1.000000000000000E+20
  9
$PLIMMIN
 10
0.0
 20
0.0
  9
$PLIMMAX
 10
12.0
 20
9.0
  9
$UNITMODE
 70
     0
  9
$VISRETAIN
 70
     0
  9
$PLINEGEN
 70
     1
  9
$PSLTSCALE
 70
     0
  9
$TREEDEPTH
 70
  3020
  9
$CMLSTYLE
  2
Standard
  9
$CMLJUST
 70
     0
  9
$CMLSCALE
 40
1.0
  9
$PROXYGRAPHICS
 70
     1
  9
$MEASUREMENT
 70
     0
  9
$CELWEIGHT
370
    -1
  9
$ENDCAPS
280
     0
  9
$JOINSTYLE
280
     0
  9
$LWDISPLAY
290
     0
  9
$INSUNITS
 70
     0
  9
$HYPERLINKBASE
  1

  9
$STYLESHEET
  1

  9
$XEDIT
290
     1
  9
$CEPSNTYPE
380
     0
  9
$PSTYLEMODE
290
     1
  9
$FINGERPRINTGUID
  2
{B9E74826-3EEF-410A-A36D-AD292E3F71B2}
  9
$VERSIONGUID
  2
{D7D21244-B5A7-48BD-B573-62540540D83E}
  9
$EXTNAMES
290
     1
  9
$PSVPSCALE
 40
0.0
  9
$OLESTARTUP
290
     0
  0
ENDSEC
  0
SECTION
  2
CLASSES
  0
CLASS
  1
ACDBDICTIONARYWDFLT
  2
AcDbDictionaryWithDefault
  3
AutoCAD 2000
 90
        0
280
     0
281
     0
  0
CLASS
  1
ACDBPLACEHOLDER
  2
AcDbPlaceHolder
  3
AutoCAD 2000
 90
        0
280
     0
281
     0
  0
CLASS
  1
LAYOUT
  2
AcDbLayout
  3
AutoCAD 2000
 90
        0
280
     0
281
     0
  0
CLASS
  1
DICTIONARYVAR
  2
AcDbDictionaryVar
  3
AutoCAD 2000
 90
        0
280
     0
281
     0
  0
ENDSEC
  0
SECTION
  2
TABLES
  0
TABLE
  2
VPORT
  5
25090
330
0
100
AcDbSymbolTable
 70
     2
  0
VPORT
  5
25141
330
25090
100
AcDbSymbolTableRecord
100
AcDbViewportTableRecord
  2
*Active
 70
     0
 10
0.0
 20
0.0
 11
1.0
 21
1.0
 12
6306.248503465031
 22
4277.237798248231
 13
0.0
 23
0.0
 14
1.0
 24
1.0
 15
0.0
 25
0.0
 16
0.0
 26
0.0
 36
1.0
 17
0.0
 27
0.0
 37
0.0
 40
9739.304914791837
 41
1.236040609137055
 42
50.0
 43
0.0
 44
0.0
 50
0.0
 51
0.0
 71
     0
 72
 10000
 73
     1
 74
     0
 75
     0
 76
     0
 77
     0
 78
     0
281
     0
 65
     0
110
0.0
120
0.0
130
0.0
111
1.0
121
0.0
131
0.0
112
0.0
122
1.0
132
0.0
 79
     0
146
0.0
  0
ENDTAB
  0
TABLE
  2
LTYPE
  5
2508D
330
0
100
AcDbSymbolTable
 70
     9
  0
LTYPE
  5
2509B
330
2508D
100
AcDbSymbolTableRecord
100
AcDbLinetypeTableRecord
  2
ByBlock
 70
     0
  3

 72
    65
 73
     0
 40
0.0
  0
LTYPE
  5
2509C
330
2508D
100
AcDbSymbolTableRecord
100
AcDbLinetypeTableRecord
  2
ByLayer
 70
     0
  3

 72
    65
 73
     0
 40
0.0
  0
LTYPE
  5
2509D
330
2508D
100
AcDbSymbolTableRecord
100
AcDbLinetypeTableRecord
  2
CONTINUOUS
 70
     0
  3
実線
 72
    65
 73
     0
 40
0.0
  0
LTYPE
  5
250A9
330
2508D
100
AcDbSymbolTableRecord
100
AcDbLinetypeTableRecord
  2
HIDE-M
 70
     0
  3

 72
    65
 73
     2
 40
2.0
 49
1.0
 74
     0
 49
-1.0
 74
     0
  0
LTYPE
  5
250AA
330
2508D
100
AcDbSymbolTableRecord
100
AcDbLinetypeTableRecord
  2
HIDE-S
 70
     0
  3

 72
    65
 73
     2
 40
1.0
 49
0.5
 74
     0
 49
-0.5
 74
     0
  0
LTYPE
  5
250AB
330
2508D
100
AcDbSymbolTableRecord
100
AcDbLinetypeTableRecord
  2
TENSEN-
 70
     0
  3

 72
    65
 73
     2
 40
0.6000000000000001
 49
0.2
 74
     0
 49
-0.4
 74
     0
  0
LTYPE
  5
250AC
330
2508D
100
AcDbSymbolTableRecord
100
AcDbLinetypeTableRecord
  2
1PL-M
 70
     0
  3

 72
    65
 73
     4
 40
15.0
 49
12.0
 74
     0
 49
-1.0
 74
     0
 49
1.0
 74
     0
 49
-1.0
 74
     0
  0
LTYPE
  5
250AD
330
2508D
100
AcDbSymbolTableRecord
100
AcDbLinetypeTableRecord
  2
1PL-12
 70
     0
  3

 72
    65
 73
     4
 40
15.0
 49
12.0
 74
     0
 49
-1.0
 74
     0
 49
1.0
 74
     0
 49
-1.0
 74
     0
  0
LTYPE
  5
250AE
330
2508D
100
AcDbSymbolTableRecord
100
AcDbLinetypeTableRecord
  2
KAKURE-1
 70
     0
  3

 72
    65
 73
     2
 40
2.0
 49
1.0
 74
     0
 49
-1.0
 74
     0
  0
LTYPE
  5
250AF
330
2508D
100
AcDbSymbolTableRecord
100
AcDbLinetypeTableRecord
  2
2PL-12
 70
     0
  3

 72
    65
 73
     6
 40
17.0
 49
12.0
 74
     0
 49
-1.0
 74
     0
 49
1.0
 74
     0
 49
-1.0
 74
     0
 49
1.0
 74
     0
 49
-1.0
 74
     0
  0
LTYPE
  5
250B0
330
2508D
100
AcDbSymbolTableRecord
100
AcDbLinetypeTableRecord
  2
2PL-5
 70
     0
  3

 72
    65
 73
     6
 40
7.5
 49
5.0
 74
     0
 49
-0.5
 74
     0
 49
0.5
 74
     0
 49
-0.5
 74
     0
 49
0.5
 74
     0
 49
-0.5
 74
     0
  0
ENDTAB
  0
TABLE
  2
LAYER
  5
2508A
330
0
100
AcDbSymbolTable
 70
    26
  0
LAYER
  5
25098
330
2508A
100
AcDbSymbolTableRecord
100
AcDbLayerTableRecord
  2
0
 70
     0
 62
     7
  6
CONTINUOUS
370
    -3
390
25097
  0
LAYER
  5
250B2
330
2508A
100
AcDbSymbolTableRecord
100
AcDbLayerTableRecord
  2
U1
 70
     0
 62
     3
  6
CONTINUOUS
370
    -3
390
25097
  0
LAYER
  5
250B3
330
2508A
100
AcDbSymbolTableRecord
100
AcDbLayerTableRecord
  2
U3
 70
     0
 62
     6
  6
CONTINUOUS
370
    -3
390
25097
  0
LAYER
  5
250B4
330
2508A
100
AcDbSymbolTableRecord
100
AcDbLayerTableRecord
  2
U7
 70
     0
 62
     2
  6
CONTINUOUS
370
    -3
390
25097
  0
LAYER
  5
250B5
330
2508A
100
AcDbSymbolTableRecord
100
AcDbLayerTableRecord
  2
SUNPOU
 70
     0
 62
     4
  6
CONTINUOUS
370
    -3
390
25097
  0
LAYER
  5
250B6
330
2508A
100
AcDbSymbolTableRecord
100
AcDbLayerTableRecord
  2
HIKIDASHI
 70
     0
 62
     6
  6
CONTINUOUS
370
    -3
390
25097
  0
LAYER
  5
250B7
330
2508A
100
AcDbSymbolTableRecord
100
AcDbLayerTableRecord
  2
TENSEN-1
 70
     0
 62
     6
  6
TENSEN-
370
    -3
390
25097
  0
LAYER
  5
250B8
330
2508A
100
AcDbSymbolTableRecord
100
AcDbLayerTableRecord
  2
HIDE-S1
 70
     0
 62
     6
  6
HIDE-S
370
    -3
390
25097
  0
LAYER
  5
250B9
330
2508A
100
AcDbSymbolTableRecord
100
AcDbLayerTableRecord
  2
HIDE-M1
 70
     0
 62
     6
  6
HIDE-M
370
    -3
390
25097
  0
LAYER
  5
250BA
330
2508A
100
AcDbSymbolTableRecord
100
AcDbLayerTableRecord
  2
1PL-M1
 70
     0
 62
     6
  6
1PL-M
370
    -3
390
25097
  0
LAYER
  5
250BB
330
2508A
100
AcDbSymbolTableRecord
100
AcDbLayerTableRecord
  2
YANE
 70
     0
 62
     1
  6
CONTINUOUS
370
    -3
390
25097
  0
LAYER
  5
250BC
330
2508A
100
AcDbSymbolTableRecord
100
AcDbLayerTableRecord
  2
KISO
 70
     0
 62
     2
  6
CONTINUOUS
370
    -3
390
25097
  0
LAYER
  5
250BD
330
2508A
100
AcDbSymbolTableRecord
100
AcDbLayerTableRecord
  2
HATCH
 70
     0
 62
     1
  6
CONTINUOUS
370
    -3
390
25097
  0
LAYER
  5
250BE
330
2508A
100
AcDbSymbolTableRecord
100
AcDbLayerTableRecord
  2
NAME
 70
     0
 62
    20
  6
CONTINUOUS
370
    -3
390
25097
  0
LAYER
  5
250BF
330
2508A
100
AcDbSymbolTableRecord
100
AcDbLayerTableRecord
  2
FILENAME
 70
     0
 62
     7
  6
CONTINUOUS
370
    -3
390
25097
  0
LAYER
  5
250C0
330
2508A
100
AcDbSymbolTableRecord
100
AcDbLayerTableRecord
  2
BOLT
 70
     0
 62
     4
  6
CONTINUOUS
370
    -3
390
25097
  0
LAYER
  5
250C1
330
2508A
100
AcDbSymbolTableRecord
100
AcDbLayerTableRecord
  2
HASIRA
 70
     0
 62
     3
  6
CONTINUOUS
370
    -3
390
25097
  0
LAYER
  5
250C2
330
2508A
100
AcDbSymbolTableRecord
100
AcDbLayerTableRecord
  2
DOMAKON
 70
     0
 62
     2
  6
CONTINUOUS
370
    -3
390
25097
  0
LAYER
  5
250C3
330
2508A
100
AcDbSymbolTableRecord
100
AcDbLayerTableRecord
  2
KISO-1
 70
     0
 62
     1
  6
2PL-12
370
    -3
390
25097
  0
LAYER
  5
250C4
330
2508A
100
AcDbSymbolTableRecord
100
AcDbLayerTableRecord
  2
KISO-2
 70
     0
 62
     1
  6
KAKURE-1
370
    -3
390
25097
  0
LAYER
  5
250C5
330
2508A
100
AcDbSymbolTableRecord
100
AcDbLayerTableRecord
  2
SIN
 70
     0
 62
     6
  6
1PL-12
370
    -3
390
25097
  0
LAYER
  5
250C6
330
2508A
100
AcDbSymbolTableRecord
100
AcDbLayerTableRecord
  2
KISO-3
 70
     0
 62
     1
  6
2PL-5
370
    -3
390
25097
  0
LAYER
  5
250C7
330
2508A
100
AcDbSymbolTableRecord
100
AcDbLayerTableRecord
  2
YODOROGO
 70
     0
 62
   130
  6
CONTINUOUS
370
    -3
390
25097
  0
LAYER
  5
250C8
330
2508A
100
AcDbSymbolTableRecord
100
AcDbLayerTableRecord
  2
WAKUSEN-01
 70
     0
 62
    50
  6
CONTINUOUS
370
    -3
390
25097
  0
LAYER
  5
250C9
330
2508A
100
AcDbSymbolTableRecord
100
AcDbLayerTableRecord
  2
WAKUSEN-02
 70
     0
 62
   130
  6
CONTINUOUS
370
    -3
390
25097
  0
LAYER
  5
250CA
330
2508A
100
AcDbSymbolTableRecord
100
AcDbLayerTableRecord
  2
WAKUMOJI-01
 70
     0
 62
   130
  6
CONTINUOUS
370
    -3
390
25097
  0
ENDTAB
  0
TABLE
  2
STYLE
  5
2508B
330
0
100
AcDbSymbolTable
 70
     5
  0
STYLE
  5
25099
330
2508B
100
AcDbSymbolTableRecord
100
AcDbTextStyleTableRecord
  2
STANDARD
 70
     0
 40
3.0
 41
1.0
 50
0.0
 71
     0
 42
0.2
  3
ROMANS
  4
EXTFONT
  0
STYLE
  5
250CC
330
2508B
100
AcDbSymbolTableRecord
100
AcDbTextStyleTableRecord
  2
01
 70
     0
 40
3.0
 41
1.0
 50
0.0
 71
     0
 42
0.2
  3
ROMANS
  4
BIGFONT
  0
STYLE
  5
250CD
330
2508B
100
AcDbSymbolTableRecord
100
AcDbTextStyleTableRecord
  2
00
 70
     0
 40
0.0
 41
0.6666666666666666
 50
0.0
 71
     0
 42
0.2
  3
ROMANS
  4
BIGFONT
  0
STYLE
  5
250CE
330
2508B
100
AcDbSymbolTableRecord
100
AcDbTextStyleTableRecord
  2
WAKUMOJI
 70
     0
 40
3.0
 41
1.0
 50
0.0
 71
     0
 42
3.0
  3
SIMPLEX
  4
BIGFONT
  0
STYLE
  5
250CF
330
2508B
100
AcDbSymbolTableRecord
100
AcDbTextStyleTableRecord
  2
FILENAME
 70
     0
 40
75.0
 41
1.0
 50
0.0
 71
     0
 42
75.0
  3
romans
  4
bigfont
  0
ENDTAB
  0
TABLE
  2
VIEW
  5
2508E
330
0
100
AcDbSymbolTable
 70
     0
  0
ENDTAB
  0
TABLE
  2
UCS
  5
2508F
330
0
100
AcDbSymbolTable
 70
     0
  0
ENDTAB
  0
TABLE
  2
APPID
  5
25091
330
0
100
AcDbSymbolTable
 70
     4
  0
APPID
  5
2509A
330
25091
100
AcDbSymbolTableRecord
100
AcDbRegAppTableRecord
  2
ACAD
 70
     0
  0
APPID
  5
250D1
330
25091
100
AcDbSymbolTableRecord
100
AcDbRegAppTableRecord
  2
AUTOCAD_POSTSCRIPT_FIGURE
 70
     0
  0
APPID
  5
250D2
330
25091
100
AcDbSymbolTableRecord
100
AcDbRegAppTableRecord
  2
ACAD_PSEXT
 70
     0
  0
APPID
  5
250D3
330
25091
100
AcDbSymbolTableRecord
100
AcDbRegAppTableRecord
  2
ACAD_EXEMPT_FROM_CAD_STANDARDS
 70
     0
  0
ENDTAB
  0
TABLE
  2
DIMSTYLE
  5
25092
330
0
100
AcDbSymbolTable
 70
     2
100
AcDbDimStyleTable
 71
     0
  0
DIMSTYLE
105
D00
330
25092
100
AcDbSymbolTableRecord
100
AcDbDimStyleTableRecord
  2
SUNPOU
 70
     0
 40
30.0
 41
0.5
 42
1.0
 43
7.0
 44
1.5
 46
3.0
 73
     0
 74
     0
 77
     1
 78
     8
140
3.0
141
0.0
147
1.5
172
     1
173
     1
176
   256
177
   256
178
   256
340
250CD
341
250D7
342
250D7
343
250D7
344
250D7
  0
DIMSTYLE
105
250F6
330
25092
100
AcDbSymbolTableRecord
100
AcDbDimStyleTableRecord
  2
SUNPOU_図面名
 70
     0
 40
40.0
 41
0.5
 42
1.0
 43
7.0
 44
1.125
 46
3.0
 73
     0
 74
     0
 77
     1
 78
     8
140
2.25
141
0.0
147
1.125
172
     1
173
     1
176
   256
177
   256
178
   256
340
250CD
341
250D7
343
250D7
344
250D7
  0
ENDTAB
  0
TABLE
  2
BLOCK_RECORD
  5
25089
330
0
100
AcDbSymbolTable
 70
    13
  0
BLOCK_RECORD
  5
250A4
330
25089
100
AcDbSymbolTableRecord
100
AcDbBlockTableRecord
  2
*Model_Space
340
250A5
  0
BLOCK_RECORD
  5
250A2
330
25089
100
AcDbSymbolTableRecord
100
AcDbBlockTableRecord
  2
*Paper_Space
340
250A3
  0
BLOCK_RECORD
  5
250D7
330
25089
100
AcDbSymbolTableRecord
100
AcDbBlockTableRecord
  2
DOT
340
0
  0
BLOCK_RECORD
  5
250D9
330
25089
100
AcDbSymbolTableRecord
100
AcDbBlockTableRecord
  2
*U1
340
0
  0
BLOCK_RECORD
  5
250DB
330
25089
100
AcDbSymbolTableRecord
100
AcDbBlockTableRecord
  2
*U2
340
0
  0
BLOCK_RECORD
  5
250DD
330
25089
100
AcDbSymbolTableRecord
100
AcDbBlockTableRecord
  2
*U3
340
0
  0
BLOCK_RECORD
  5
250DF
330
25089
100
AcDbSymbolTableRecord
100
AcDbBlockTableRecord
  2
*U4
340
0
  0
BLOCK_RECORD
  5
250E1
330
25089
100
AcDbSymbolTableRecord
100
AcDbBlockTableRecord
  2
*U5
340
0
  0
BLOCK_RECORD
  5
250E3
330
25089
100
AcDbSymbolTableRecord
100
AcDbBlockTableRecord
  2
*U6
340
0
  0
BLOCK_RECORD
  5
250E5
330
25089
100
AcDbSymbolTableRecord
100
AcDbBlockTableRecord
  2
*U7
340
0
  0
BLOCK_RECORD
  5
250E7
330
25089
100
AcDbSymbolTableRecord
100
AcDbBlockTableRecord
  2
*U8
340
0
  0
BLOCK_RECORD
  5
250E9
330
25089
100
AcDbSymbolTableRecord
100
AcDbBlockTableRecord
  2
*U9
340
0
  0
BLOCK_RECORD
  5
250EB
330
25089
100
AcDbSymbolTableRecord
100
AcDbBlockTableRecord
  2
*U10
340
0
  0
BLOCK_RECORD
  5
250ED
330
25089
100
AcDbSymbolTableRecord
100
AcDbBlockTableRecord
  2
*U11
340
0
  0
ENDTAB
  0
ENDSEC
  0
SECTION
  2
BLOCKS
  0
BLOCK
  5
250D4
330
250A4
100
AcDbEntity
  8
0
100
AcDbBlockBegin
  2
*Model_Space
 70
     0
 10
0.0
 20
0.0
 30
0.0
  3
*Model_Space
  1

  0
ENDBLK
  5
125F7
330
250A4
100
AcDbEntity
  8
0
100
AcDbBlockEnd
  0
BLOCK
  5
250D5
330
250A2
100
AcDbEntity
 67
     1
  8
0
100
AcDbBlockBegin
  2
*Paper_Space
 70
     0
 10
0.0
 20
0.0
 30
0.0
  3
*Paper_Space
  1

  0
ENDBLK
  5
125F5
330
250A2
100
AcDbEntity
 67
     1
  8
0
100
AcDbBlockEnd
  0
BLOCK
  5
250D6
330
250D7
100
AcDbEntity
  8
0
100
AcDbBlockBegin
  2
DOT
 70
     0
 10
0.0
 20
0.0
 30
0.0
  3
DOT
  1

  0
LWPOLYLINE
  5
12983
330
250D7
100
AcDbEntity
  8
0
  6
ByBlock
 62
     0
100
AcDbPolyline
 90
        2
 70
     1
 43
0.75
 10
-0.375
 20
0.0
 42
1.0
 10
0.375
 20
0.0
 42
1.0
  0
LINE
  5
12984
330
250D7
100
AcDbEntity
  8
0
  6
ByBlock
 62
     0
100
AcDbLine
 10
-0.75
 20
0.0
 30
0.0
 11
-1.5
 21
0.0
 31
0.0
  0
ENDBLK
  5
12985
330
250D7
100
AcDbEntity
  8
0
100
AcDbBlockEnd
  0
BLOCK
  5
250D8
330
250D9
100
AcDbEntity
  8
0
100
AcDbBlockBegin
  2
*U1
 70
     1
 10
0.0
 20
0.0
 30
0.0
  3
*U1
  1

  0
TEXT
  5
2505E
330
250D9
100
AcDbEntity
  8
SUNPOU
100
AcDbText
 10
3240.856080631056
 20
2243.601765811146
 30
0.0
 40
90.0
  1
150
 50
90.0
 41
0.6666666666666666
  7
00
100
AcDbText
  0
ENDBLK
  5
25060
330
250D9
100
AcDbEntity
  8
0
100
AcDbBlockEnd
  0
BLOCK
  5
250DA
330
250DB
100
AcDbEntity
  8
0
100
AcDbBlockBegin
  2
*U2
 70
     1
 10
0.0
 20
0.0
 30
0.0
  3
*U2
  1

  0
TEXT
  5
25062
330
250DB
100
AcDbEntity
  8
SUNPOU
100
AcDbText
 10
2062.734652059631
 20
915.744622954002
 30
0.0
 40
90.0
  1
1000
 41
0.6666666666666666
  7
00
100
AcDbText
  0
ENDBLK
  5
25064
330
250DB
100
AcDbEntity
  8
0
100
AcDbBlockEnd
  0
BLOCK
  5
250DC
330
250DD
100
AcDbEntity
  8
0
100
AcDbBlockBegin
  2
*U3
 70
     1
 10
0.0
 20
0.0
 30
0.0
  3
*U3
  1

  0
TEXT
  5
25066
330
250DD
100
AcDbEntity
  8
SUNPOU
100
AcDbText
 10
1945.591794916774
 20
1125.744622954002
 30
0.0
 40
90.0
  1
700
 41
0.6666666666666666
  7
00
100
AcDbText
  0
ENDBLK
  5
25068
330
250DD
100
AcDbEntity
  8
0
100
AcDbBlockEnd
  0
BLOCK
  5
250DE
330
250DF
100
AcDbEntity
  8
0
100
AcDbBlockBegin
  2
*U4
 70
     1
 10
0.0
 20
0.0
 30
0.0
  3
*U4
  1

  0
TEXT
  5
2506A
330
250DF
100
AcDbEntity
  8
SUNPOU
100
AcDbText
 10
2445.591794916774
 20
1125.744622954002
 30
0.0
 40
90.0
  1
300
 41
0.6666666666666666
  7
00
100
AcDbText
  0
ENDBLK
  5
2506C
330
250DF
100
AcDbEntity
  8
0
100
AcDbBlockEnd
  0
BLOCK
  5
250E0
330
250E1
100
AcDbEntity
  8
0
100
AcDbBlockBegin
  2
*U5
 70
     1
 10
0.0
 20
0.0
 30
0.0
  3
*U5
  1

  0
TEXT
  5
2506E
330
250E1
100
AcDbEntity
  8
SUNPOU
100
AcDbText
 10
3240.856080631056
 20
1182.887480096861
 30
0.0
 40
90.0
  1
100
 50
90.0
 41
0.6666666666666666
  7
00
100
AcDbText
  0
ENDBLK
  5
25070
330
250E1
100
AcDbEntity
  8
0
100
AcDbBlockEnd
  0
BLOCK
  5
250E2
330
250E3
100
AcDbEntity
  8
0
100
AcDbBlockBegin
  2
*U6
 70
     1
 10
0.0
 20
0.0
 30
0.0
  3
*U6
  1

  0
TEXT
  5
25072
330
250E3
100
AcDbEntity
  8
SUNPOU
100
AcDbText
 10
3240.856080631056
 20
1725.030337239718
 30
0.0
 40
90.0
  1
480
 50
90.0
 41
0.6666666666666666
  7
00
100
AcDbText
  0
ENDBLK
  5
25074
330
250E3
100
AcDbEntity
  8
0
100
AcDbBlockEnd
  0
BLOCK
  5
250E4
330
250E5
100
AcDbEntity
  8
0
100
AcDbBlockBegin
  2
*U7
 70
     1
 10
0.0
 20
0.0
 30
0.0
  3
*U7
  1

  0
TEXT
  5
25076
330
250E5
100
AcDbEntity
  8
SUNPOU
100
AcDbText
 10
3438.65728512295
 20
1491.838927685163
 30
0.0
 40
90.0
  1
50
 50
90.0
 41
0.6666666666666666
  7
00
100
AcDbText
  0
ENDBLK
  5
25078
330
250E5
100
AcDbEntity
  8
0
100
AcDbBlockEnd
  0
BLOCK
  5
250E6
330
250E7
100
AcDbEntity
  8
0
100
AcDbBlockBegin
  2
*U8
 70
     1
 10
0.0
 20
0.0
 30
0.0
  3
*U8
  1

  0
TEXT
  5
2507A
330
250E7
100
AcDbEntity
  8
SUNPOU
100
AcDbText
 10
2295.591794916775
 20
2843.077046087621
 30
0.0
 40
90.0
  1
480
 41
0.6666666666666666
  7
00
100
AcDbText
  0
ENDBLK
  5
2507C
330
250E7
100
AcDbEntity
  8
0
100
AcDbBlockEnd
  0
BLOCK
  5
250E8
330
250E9
100
AcDbEntity
  8
0
100
AcDbBlockBegin
  2
*U9
 70
     1
 10
0.0
 20
0.0
 30
0.0
  3
*U9
  1

  0
TEXT
  5
2507E
330
250E9
100
AcDbEntity
  8
SUNPOU
100
AcDbText
 10
7510.326124563218
 20
4493.46477076036
 30
0.0
 40
90.0
  1
400
 41
0.6666666666666666
  7
00
100
AcDbText
  0
ENDBLK
  5
25080
330
250E9
100
AcDbEntity
  8
0
100
AcDbBlockEnd
  0
BLOCK
  5
250EA
330
250EB
100
AcDbEntity
  8
0
100
AcDbBlockBegin
  2
*U10
 70
     1
 10
0.0
 20
0.0
 30
0.0
  3
*U10
  1

  0
TEXT
  5
25082
330
250EB
100
AcDbEntity
  8
SUNPOU
100
AcDbText
 10
6081.75469599179
 20
4493.46477076036
 30
0.0
 40
90.0
  1
2400
 41
0.6666666666666666
  7
00
100
AcDbText
  0
ENDBLK
  5
25084
330
250EB
100
AcDbEntity
  8
0
100
AcDbBlockEnd
  0
BLOCK
  5
250EC
330
250ED
100
AcDbEntity
  8
0
100
AcDbBlockBegin
  2
*U11
 70
     1
 10
0.0
 20
0.0
 30
0.0
  3
*U11
  1

  0
TEXT
  5
25086
330
250ED
100
AcDbEntity
  8
SUNPOU
100
AcDbText
 10
4710.326124563217
 20
4493.46477076036
 30
0.0
 40
90.0
  1
400
 41
0.6666666666666666
  7
00
100
AcDbText
  0
ENDBLK
  5
25088
330
250ED
100
AcDbEntity
  8
0
100
AcDbBlockEnd
  0
ENDSEC
  0
SECTION
  2
ENTITIES
  0
TEXT
  5
20C00
330
250A4
100
AcDbEntity
  8
HIKIDASHI
100
AcDbText
 10
3120.271559542874
 20
733.9669329272346
 30
0.0
 40
90.0
  1
帯筋
  7
01
100
AcDbText
  0
LINE
  5
20C01
330
250A4
100
AcDbEntity
  8
HIKIDASHI
100
AcDbLine
 10
3090.271559542875
 20
688.9669329272346
 30
0.0
 11
3867.992860751925
 21
688.9669329272346
 31
0.0
  0
LINE
  5
20C02
330
250A4
100
AcDbEntity
  8
HIKIDASHI
100
AcDbLine
 10
3222.877259411718
 20
932.4302402870015
 30
0.0
 11
3850.782346820902
 21
932.4302402870015
 31
0.0
  0
TEXT
  5
20C03
330
250A4
100
AcDbEntity
  8
HIKIDASHI
100
AcDbText
 10
3668.434553268009
 20
733.9669329272346
 30
0.0
 40
90.0
  1
100
 41
0.6700000000000001
  7
00
100
AcDbText
  0
TEXT
  5
20C04
330
250A4
100
AcDbEntity
  8
HIKIDASHI
100
AcDbText
 10
3447.324547040901
 20
733.9669329272346
 30
0.0
 40
90.0
  1
%%C
 41
0.6700000000000001
  7
00
100
AcDbText
  0
TEXT
  5
20C05
330
250A4
100
AcDbEntity
  8
HIKIDASHI
100
AcDbText
 10
3369.535512576665
 20
733.9669329272346
 30
0.0
 40
90.0
  1
9
 41
0.6700000000000001
  7
00
100
AcDbText
  0
TEXT
  5
20C06
330
250A4
100
AcDbEntity
  8
HIKIDASHI
100
AcDbText
 10
3558.949879610634
 20
741.4669329272348
 30
0.0
 40
75.0
  1
ア
  7
01
 72
     1
 11
3591.449879610634
 21
778.9669329272348
 31
0.0
100
AcDbText
 73
     2
  0
CIRCLE
  5
20C07
330
250A4
100
AcDbEntity
  8
HIKIDASHI
100
AcDbCircle
 10
3591.449879610634
 20
778.9669329272348
 30
0.0
 40
60.0
  0
LINE
  5
20C0B
330
250A4
100
AcDbEntity
  8
U7
100
AcDbLine
 10
1751.306080631059
 20
1620.744622954002
 30
0.0
 11
2611.306080631061
 21
1620.744622954003
 31
0.0
  0
LINE
  5
20C0C
330
250A4
100
AcDbEntity
  8
KISO
100
AcDbLine
 10
1581.306080631059
 20
1520.744622954
 30
0.0
 11
2781.306080631061
 21
1520.744622954004
 31
0.0
  0
LINE
  5
20C0D
330
250A4
100
AcDbEntity
  8
KISO
100
AcDbLine
 10
1581.306080631059
 20
1420.744622953999
 30
0.0
 11
2781.306080631061
 21
1420.744622954003
 31
0.0
  0
LINE
  5
20C0E
330
250A4
100
AcDbEntity
  8
KISO
100
AcDbLine
 10
1581.306080631059
 20
1570.744622953999
 30
0.0
 11
2781.306080631061
 21
1570.744622954004
 31
0.0
  0
LINE
  5
20C0F
330
250A4
100
AcDbEntity
  8
HIDE-S1
100
AcDbLine
 10
2621.306080631061
 20
2050.744622954003
 30
0.0
 11
2141.306080631061
 21
2050.744622954003
 31
0.0
  0
LINE
  5
20C10
330
250A4
100
AcDbEntity
  8
U7
100
AcDbLine
 10
2181.306080631061
 20
1961.244622954002
 30
0.0
 11
2581.306080631061
 21
1961.244622954002
 31
0.0
  0
LINE
  5
20C11
330
250A4
100
AcDbEntity
  8
U7
100
AcDbLine
 10
2181.306080631061
 20
1861.244622954002
 30
0.0
 11
2581.306080631061
 21
1861.244622954002
 31
0.0
  0
LINE
  5
20C12
330
250A4
100
AcDbEntity
  8
U7
100
AcDbLine
 10
2181.306080631061
 20
1761.244622954002
 30
0.0
 11
2581.306080631061
 21
1761.244622954003
 31
0.0
  0
LINE
  5
20C13
330
250A4
100
AcDbEntity
  8
U7
100
AcDbLine
 10
2181.306080631061
 20
1661.244622954002
 30
0.0
 11
2581.306080631061
 21
1661.244622954004
 31
0.0
  0
LINE
  5
20C14
330
250A4
100
AcDbEntity
  8
U7
100
AcDbLine
 10
2181.306080631061
 20
2161.244622954002
 30
0.0
 11
2581.306080631061
 21
2161.244622954003
 31
0.0
  0
LINE
  5
20C15
330
250A4
100
AcDbEntity
  8
U7
100
AcDbLine
 10
2181.306080631061
 20
2061.244622954002
 30
0.0
 11
2581.306080631061
 21
2061.244622954003
 31
0.0
  0
LINE
  5
20C1A
330
250A4
100
AcDbEntity
  8
KISO
100
AcDbLine
 10
2336.756080631058
 20
2200.744622954003
 30
0.0
 11
1077.057301727902
 21
2200.744622954
 31
0.0
  0
LINE
  5
20C1B
330
250A4
100
AcDbEntity
  8
KISO
100
AcDbLine
 10
1077.057301727902
 20
2050.744622954002
 30
0.0
 11
1681.30608063106
 21
2050.744622954002
 31
0.0
  0
LINE
  5
20C1C
330
250A4
100
AcDbEntity
  8
KISO
100
AcDbLine
 10
1077.057301727902
 20
2110.744622954002
 30
0.0
 11
1681.30608063106
 21
2110.744622954003
 31
0.0
  0
LINE
  5
20C20
330
250A4
100
AcDbEntity
  8
SUNPOU
100
AcDbLine
 10
1290.677972800353
 20
2200.744622954
 30
0.0
 11
1342.639497027418
 21
2290.744622954002
 31
0.0
  0
LINE
  5
20C21
330
250A4
100
AcDbEntity
  8
SUNPOU
100
AcDbLine
 10
1238.716448573286
 20
2290.744622954002
 30
0.0
 11
1290.677972800353
 21
2200.744622954
 31
0.0
  0
TEXT
  5
20C22
330
250A4
100
AcDbEntity
  8
SUNPOU
100
AcDbText
 10
1222.106544228924
 20
2335.744622954002
 30
0.0
 40
90.0
  1
F.L
 41
0.6666666666666666
  7
00
 72
     4
 11
1290.677972800353
 21
2380.744622954002
 31
0.0
100
AcDbText
  0
LINE
  5
20C23
330
250A4
100
AcDbEntity
  8
SUNPOU
100
AcDbLine
 10
1342.639497027418
 20
2290.744622954002
 30
0.0
 11
1238.716448573286
 21
2290.744622954002
 31
0.0
  0
LINE
  5
20C25
330
250A4
100
AcDbEntity
  8
U1
100
AcDbLine
 10
2181.306080631061
 20
2161.244622954002
 30
0.0
 11
2181.306080631061
 21
1656.744622954002
 31
0.0
  0
LINE
  5
20C26
330
250A4
100
AcDbEntity
  8
KISO
100
AcDbLine
 10
1681.30608063106
 20
2110.744622954003
 30
0.0
 11
1681.30608063106
 21
1570.744622953999
 31
0.0
  0
LINE
  5
20C27
330
250A4
100
AcDbEntity
  8
HATCH
100
AcDbLine
 10
2151.004565440897
 20
2050.744622954003
 30
0.0
 11
1681.30608063106
 21
1581.046138144165
 31
0.0
  0
LINE
  5
20C28
330
250A4
100
AcDbEntity
  8
HATCH
100
AcDbLine
 10
2151.30608063106
 20
1810.744622954002
 30
0.0
 11
2007.806080631061
 21
1667.244622954002
 31
0.0
  0
LINE
  5
20C29
330
250A4
100
AcDbEntity
  8
HATCH
100
AcDbLine
 10
2151.30608063106
 20
1781.046138144167
 30
0.0
 11
2037.504565440896
 21
1667.244622954002
 31
0.0
  0
LINE
  5
20C2A
330
250A4
100
AcDbEntity
  8
HATCH
100
AcDbLine
 10
2121.306080631061
 20
2050.744622954003
 30
0.0
 11
1681.30608063106
 21
1610.744622953998
 31
0.0
  0
LINE
  5
20C2B
330
250A4
100
AcDbEntity
  8
HATCH
100
AcDbLine
 10
2091.607595821225
 20
2050.744622954003
 30
0.0
 11
1681.30608063106
 21
1640.443107763833
 31
0.0
  0
CIRCLE
  5
20C2C
330
250A4
100
AcDbEntity
  8
U7
100
AcDbCircle
 10
2176.80608063106
 20
1761.244622954002
 30
0.0
 40
4.5
  0
LINE
  5
20C2D
330
250A4
100
AcDbEntity
  8
KISO
100
AcDbLine
 10
1581.306080631059
 20
1420.744622953999
 30
0.0
 11
1581.306080631059
 21
1570.744622953999
 31
0.0
  0
CIRCLE
  5
20C30
330
250A4
100
AcDbEntity
  8
U7
100
AcDbCircle
 10
1751.306080631059
 20
1627.244622953999
 30
0.0
 40
6.5
  0
LINE
  5
20C32
330
250A4
100
AcDbEntity
  8
U1
100
AcDbLine
 10
1981.30608063106
 20
1643.744622954002
 30
0.0
 11
2168.306080631059
 21
1643.744622954002
 31
0.0
  0
LINE
  5
20C34
330
250A4
100
AcDbEntity
  8
HATCH
100
AcDbLine
 10
2151.30608063106
 20
1751.347653334333
 30
0.0
 11
2067.203050250733
 21
1667.244622954002
 31
0.0
  0
LINE
  5
20C36
330
250A4
100
AcDbEntity
  8
HATCH
100
AcDbLine
 10
1984.203050250726
 20
1584.244622954002
 30
0.0
 11
1970.703050250725
 21
1570.744622953999
 31
0.0
  0
LINE
  5
20C37
330
250A4
100
AcDbEntity
  8
HATCH
100
AcDbLine
 10
1924.80608063106
 20
1584.244622954002
 30
0.0
 11
1911.30608063106
 21
1570.744622953999
 31
0.0
  0
LINE
  5
20C38
330
250A4
100
AcDbEntity
  8
HATCH
100
AcDbLine
 10
1954.504565440896
 20
1584.244622954002
 30
0.0
 11
1941.004565440896
 21
1570.744622954002
 31
0.0
  0
LINE
  5
20C39
330
250A4
100
AcDbEntity
  8
HATCH
100
AcDbLine
 10
2224.50456544089
 20
1584.244622954002
 30
0.0
 11
2211.00456544089
 21
1570.744622954002
 31
0.0
  0
LINE
  5
20C3B
330
250A4
100
AcDbEntity
  8
HATCH
100
AcDbLine
 10
2254.203050250726
 20
1584.244622954002
 30
0.0
 11
2240.703050250726
 21
1570.744622954002
 31
0.0
  0
LINE
  5
20C3C
330
250A4
100
AcDbEntity
  8
HATCH
100
AcDbLine
 10
2283.901535060563
 20
1584.244622954002
 30
0.0
 11
2270.401535060562
 21
1570.744622954002
 31
0.0
  0
ARC
  5
20C3D
330
250A4
100
AcDbEntity
  8
U1
100
AcDbCircle
 10
2168.306080631059
 20
1656.744622954002
 30
0.0
 40
13.0
100
AcDbArc
 50
270.0
 51
0.0
  0
CIRCLE
  5
20C3E
330
250A4
100
AcDbEntity
  8
U7
100
AcDbCircle
 10
2176.80608063106
 20
1661.244622954002
 30
0.0
 40
4.5
  0
LINE
  5
20C3F
330
250A4
100
AcDbEntity
  8
KISO
100
AcDbLine
 10
2141.306080631061
 20
2050.744622954003
 30
0.0
 11
1681.30608063106
 21
2050.744622954002
 31
0.0
  0
LINE
  5
20C44
330
250A4
100
AcDbEntity
  8
HATCH
100
AcDbLine
 10
1821.607595821224
 20
2050.744622954002
 30
0.0
 11
1681.30608063106
 21
1910.443107763828
 31
0.0
  0
LINE
  5
20C45
330
250A4
100
AcDbEntity
  8
HATCH
100
AcDbLine
 10
1851.30608063106
 20
2050.744622954002
 30
0.0
 11
1681.30608063106
 21
1880.744622953998
 31
0.0
  0
LINE
  5
20C46
330
250A4
100
AcDbEntity
  8
HATCH
100
AcDbLine
 10
1791.909111011395
 20
2050.744622954002
 30
0.0
 11
1681.30608063106
 21
1940.141592573666
 31
0.0
  0
LINE
  5
20C47
330
250A4
100
AcDbEntity
  8
KISO
100
AcDbLine
 10
2141.306080631061
 20
2200.744622954001
 30
0.0
 11
2141.306080631061
 21
2050.744622954003
 31
0.0
  0
LINE
  5
20C48
330
250A4
100
AcDbEntity
  8
KISO
100
AcDbLine
 10
2336.756080631058
 20
2182.744622954003
 30
0.0
 11
2241.30608063106
 21
2062.744622954003
 31
0.0
  0
CIRCLE
  5
20C49
330
250A4
100
AcDbEntity
  8
U7
100
AcDbCircle
 10
2176.80608063106
 20
1861.244622954004
 30
0.0
 40
4.5
  0
CIRCLE
  5
20C4A
330
250A4
100
AcDbEntity
  8
U7
100
AcDbCircle
 10
2176.80608063106
 20
1961.244622954002
 30
0.0
 40
4.5
  0
CIRCLE
  5
20C4B
330
250A4
100
AcDbEntity
  8
U7
100
AcDbCircle
 10
2176.80608063106
 20
2061.244622954002
 30
0.0
 40
4.5
  0
LINE
  5
20C4C
330
250A4
100
AcDbEntity
  8
HATCH
100
AcDbLine
 10
2231.703050250733
 20
2169.744622954002
 30
0.0
 11
2200.703050250726
 21
2200.744622954001
 31
0.0
  0
LINE
  5
20C4D
330
250A4
100
AcDbEntity
  8
HATCH
100
AcDbLine
 10
2202.004565440896
 20
2169.744622954002
 30
0.0
 11
2171.004565440897
 21
2200.744622954003
 31
0.0
  0
LINE
  5
20C4E
330
250A4
100
AcDbEntity
  8
HATCH
100
AcDbLine
 10
2172.306080631061
 20
2169.744622954002
 30
0.0
 11
2141.306080631061
 21
2200.744622954001
 31
0.0
  0
CIRCLE
  5
20C4F
330
250A4
100
AcDbEntity
  8
U7
100
AcDbCircle
 10
2176.80608063106
 20
2161.244622954002
 30
0.0
 40
4.5
  0
TEXT
  5
20C52
330
250A4
100
AcDbEntity
  8
HIKIDASHI
100
AcDbText
 10
3252.877259411718
 20
977.4302402870016
 30
0.0
 40
90.0
  1
主筋
  7
01
100
AcDbText
  0
LINE
  5
20C55
330
250A4
100
AcDbEntity
  8
U1
100
AcDbLine
 10
2581.306080631061
 20
2161.244622954003
 30
0.0
 11
2581.306080631061
 21
1656.744622954002
 31
0.0
  0
CIRCLE
  5
20C57
330
250A4
100
AcDbEntity
  8
U7
100
AcDbCircle
 10
2585.806080631061
 20
1761.244622954002
 30
0.0
 40
4.5
  0
LINE
  5
20C58
330
250A4
100
AcDbEntity
  8
KISO
100
AcDbLine
 10
2681.306080631061
 20
1570.744622954002
 30
0.0
 11
2681.306080631061
 21
2050.744622954003
 31
0.0
  0
LINE
  5
20C60
330
250A4
100
AcDbEntity
  8
U1
100
AcDbLine
 10
2594.30608063106
 20
1643.744622954002
 30
0.0
 11
2627.806080631061
 21
1643.744622954002
 31
0.0
  0
LINE
  5
20C63
330
250A4
100
AcDbEntity
  8
HATCH
100
AcDbLine
 10
2583.600019870399
 20
1584.244622954003
 30
0.0
 11
2570.100019870398
 21
1570.744622954004
 31
0.0
  0
LINE
  5
20C64
330
250A4
100
AcDbEntity
  8
HATCH
100
AcDbLine
 10
2553.901535060563
 20
1584.244622954003
 30
0.0
 11
2540.401535060562
 21
1570.744622954004
 31
0.0
  0
LINE
  5
20C65
330
250A4
100
AcDbEntity
  8
HATCH
100
AcDbLine
 10
2524.203050250726
 20
1584.244622954003
 30
0.0
 11
2510.703050250726
 21
1570.744622954004
 31
0.0
  0
ARC
  5
20C67
330
250A4
100
AcDbEntity
  8
U1
100
AcDbCircle
 10
2594.30608063106
 20
1656.744622954003
 30
0.0
 40
13.0
100
AcDbArc
 50
180.0
 51
270.0
  0
CIRCLE
  5
20C68
330
250A4
100
AcDbEntity
  8
U7
100
AcDbCircle
 10
2585.806080631061
 20
1661.244622954004
 30
0.0
 40
4.5
  0
LINE
  5
20C6A
330
250A4
100
AcDbEntity
  8
KISO
100
AcDbLine
 10
2781.306080631061
 20
1420.744622954003
 30
0.0
 11
2781.306080631061
 21
1570.744622954004
 31
0.0
  0
CIRCLE
  5
20C6B
330
250A4
100
AcDbEntity
  8
U7
100
AcDbCircle
 10
2611.306080631061
 20
1627.244622954004
 30
0.0
 40
6.5
  0
LINE
  5
20C6C
330
250A4
100
AcDbEntity
  8
HATCH
100
AcDbLine
 10
2681.306080631061
 20
1741.347653334336
 30
0.0
 11
2611.306080631061
 21
1671.347653334338
 31
0.0
  0
LINE
  5
20C6D
330
250A4
100
AcDbEntity
  8
HATCH
100
AcDbLine
 10
2681.306080631061
 20
1711.6491685245
 30
0.0
 11
2636.901535060562
 21
1667.244622954003
 31
0.0
  0
LINE
  5
20C6E
330
250A4
100
AcDbEntity
  8
HATCH
100
AcDbLine
 10
2681.306080631061
 20
1681.950683714664
 30
0.0
 11
2666.600019870398
 21
1667.244622954003
 31
0.0
  0
LINE
  5
20C78
330
250A4
100
AcDbEntity
  8
U3
100
AcDbLine
 10
3082.666470324264
 20
2170.744622954003
 30
0.0
 11
2621.306080631061
 21
2170.744622954003
 31
0.0
  0
LINE
  5
20C79
330
250A4
100
AcDbEntity
  8
U3
100
AcDbLine
 10
2831.30608063106
 20
2065.744622954003
 30
0.0
 11
2936.306080631061
 21
2170.744622954003
 31
0.0
  0
LINE
  5
20C7A
330
250A4
100
AcDbEntity
  8
U3
100
AcDbLine
 10
2799.486275477661
 20
2097.564428107398
 30
0.0
 11
2872.666470324272
 21
2170.744622954003
 31
0.0
  0
LINE
  5
20C7B
330
250A4
100
AcDbEntity
  8
KISO
100
AcDbLine
 10
2621.306080631061
 20
2050.744622954003
 30
0.0
 11
2621.306080631061
 21
2200.744622954003
 31
0.0
  0
LINE
  5
20C7C
330
250A4
100
AcDbEntity
  8
KISO
100
AcDbLine
 10
2425.856080631056
 20
2182.744622954003
 30
0.0
 11
2521.30608063106
 21
2062.744622954003
 31
0.0
  0
LINE
  5
20C7D
330
250A4
100
AcDbEntity
  8
U3
100
AcDbLine
 10
2694.486275477662
 20
2138.924817800609
 30
0.0
 11
2767.666470324272
 21
2065.744622954003
 31
0.0
  0
LINE
  5
20C7E
330
250A4
100
AcDbEntity
  8
U3
100
AcDbLine
 10
2621.306080631061
 20
2065.744622954003
 30
0.0
 11
2726.306080631061
 21
2170.744622954003
 31
0.0
  0
LINE
  5
20C7F
330
250A4
100
AcDbEntity
  8
U3
100
AcDbLine
 10
2726.306080631061
 20
2170.744622954003
 30
0.0
 11
2831.30608063106
 21
2065.744622954003
 31
0.0
  0
CIRCLE
  5
20C81
330
250A4
100
AcDbEntity
  8
U7
100
AcDbCircle
 10
2585.806080631061
 20
1861.244622954004
 30
0.0
 40
4.5
  0
CIRCLE
  5
20C82
330
250A4
100
AcDbEntity
  8
U7
100
AcDbCircle
 10
2585.806080631061
 20
1961.244622954002
 30
0.0
 40
4.5
  0
CIRCLE
  5
20C83
330
250A4
100
AcDbEntity
  8
U7
100
AcDbCircle
 10
2585.806080631061
 20
2061.244622954003
 30
0.0
 40
4.5
  0
LINE
  5
20C84
330
250A4
100
AcDbEntity
  8
HATCH
100
AcDbLine
 10
2681.306080631061
 20
1981.649168524495
 30
0.0
 11
2611.306080631061
 21
1911.649168524498
 31
0.0
  0
LINE
  5
20C85
330
250A4
100
AcDbEntity
  8
HATCH
100
AcDbLine
 10
2681.306080631061
 20
2011.34765333433
 30
0.0
 11
2611.306080631061
 21
1941.347653334334
 31
0.0
  0
LINE
  5
20C86
330
250A4
100
AcDbEntity
  8
HATCH
100
AcDbLine
 10
2681.306080631061
 20
2041.046138144167
 30
0.0
 11
2611.306080631061
 21
1971.046138144169
 31
0.0
  0
LINE
  5
20C87
330
250A4
100
AcDbEntity
  8
KISO
100
AcDbLine
 10
2681.306080631061
 20
2050.744622954003
 30
0.0
 11
2621.306080631061
 21
2050.744622954003
 31
0.0
  0
LINE
  5
20C88
330
250A4
100
AcDbEntity
  8
U3
100
AcDbLine
 10
2662.666470324271
 20
2107.105012647215
 30
0.0
 11
2704.026860017481
 21
2065.744622954003
 31
0.0
  0
LINE
  5
20C8A
330
250A4
100
AcDbEntity
  8
KISO
100
AcDbLine
 10
2621.306080631061
 20
2200.744622954003
 30
0.0
 11
2425.856080631056
 21
2200.744622954003
 31
0.0
  0
LINE
  5
20C8B
330
250A4
100
AcDbEntity
  8
HATCH
100
AcDbLine
 10
2501.703050250733
 20
2169.744622954004
 30
0.0
 11
2470.703050250726
 21
2200.744622954003
 31
0.0
  0
LINE
  5
20C8C
330
250A4
100
AcDbEntity
  8
HATCH
100
AcDbLine
 10
2472.00456544089
 20
2169.744622954002
 30
0.0
 11
2441.00456544089
 21
2200.744622954003
 31
0.0
  0
LINE
  5
20C8D
330
250A4
100
AcDbEntity
  8
HATCH
100
AcDbLine
 10
2531.40153506057
 20
2169.744622954004
 30
0.0
 11
2500.401535060563
 21
2200.744622954003
 31
0.0
  0
CIRCLE
  5
20C8E
330
250A4
100
AcDbEntity
  8
U7
100
AcDbCircle
 10
2585.806080631061
 20
2161.244622954003
 30
0.0
 40
4.5
  0
LINE
  5
20C8F
330
250A4
100
AcDbEntity
  8
U3
100
AcDbLine
 10
2621.306080631061
 20
2129.384233260791
 30
0.0
 11
2662.666470324271
 21
2170.744622954003
 31
0.0
  0
LINE
  5
20C90
330
250A4
100
AcDbEntity
  8
U3
100
AcDbLine
 10
2767.666470324272
 20
2129.384233260795
 30
0.0
 11
2809.026860017475
 21
2170.744622954003
 31
0.0
  0
LINE
  5
20C91
330
250A4
100
AcDbEntity
  8
U3
100
AcDbLine
 10
2936.306080631061
 20
2170.744622954003
 30
0.0
 11
3041.306080631053
 21
2065.744622954003
 31
0.0
  0
LINE
  5
20C92
330
250A4
100
AcDbEntity
  8
U3
100
AcDbLine
 10
2904.486275477662
 20
2138.924817800609
 30
0.0
 11
2977.666470324272
 21
2065.744622954003
 31
0.0
  0
LINE
  5
20C93
330
250A4
100
AcDbEntity
  8
U3
100
AcDbLine
 10
3009.486275477663
 20
2097.564428107398
 30
0.0
 11
3082.666470324264
 21
2170.744622954003
 31
0.0
  0
LINE
  5
20C96
330
250A4
100
AcDbEntity
  8
U3
100
AcDbLine
 10
2872.666470324272
 20
2107.105012647215
 30
0.0
 11
2914.026860017482
 21
2065.744622954003
 31
0.0
  0
LINE
  5
20C97
330
250A4
100
AcDbEntity
  8
U3
100
AcDbLine
 10
2977.666470324264
 20
2129.384233260795
 30
0.0
 11
3019.026860017475
 21
2170.744622954003
 31
0.0
  0
TEXT
  5
20C98
330
250A4
100
AcDbEntity
  8
HIKIDASHI
100
AcDbText
 10
3502.141212445502
 20
977.4302402870016
 30
0.0
 40
90.0
  1
4-D13
 41
0.6700000000000001
  7
00
100
AcDbText
  0
LINE
  5
20C9B
330
250A4
100
AcDbEntity
  8
KISO-1
100
AcDbLine
 10
4596.040410277502
 20
6198.464770760363
 30
0.0
 11
5396.040410277503
 21
6198.464770760363
 31
0.0
  0
LINE
  5
20C9C
330
250A4
100
AcDbEntity
  8
KISO-1
100
AcDbLine
 10
5396.040410277503
 20
7198.464770760367
 30
0.0
 11
4596.040410277502
 21
7198.464770760367
 31
0.0
  0
LINE
  5
20CA0
330
250A4
100
AcDbEntity
  8
SUNPOU
100
AcDbLine
 10
4846.490410277507
 20
6898.464770760367
 30
0.0
 11
4101.040410277501
 21
6898.464770760367
 31
0.0
  0
TEXT
  5
20CA1
330
250A4
100
AcDbEntity
  8
HIKIDASHI
100
AcDbText
 10
4551.040410277503
 20
5057.939776035563
 30
0.0
 40
90.0
  1
（土間コン側面位置）
 50
90.0
  7
01
100
AcDbText
  0
TEXT
  5
20CA2
330
250A4
100
AcDbEntity
  8
SUNPOU
100
AcDbText
 10
4101.040410277501
 20
5784.179056474648
 30
0.0
 40
90.0
  1
2000
 50
90.0
 41
0.6666666666666666
  7
00
 72
     1
 11
4056.040410277502
 21
5898.464770760362
 31
0.0
100
AcDbText
 73
     2
  0
LINE
  5
20CA3
330
250A4
100
AcDbEntity
  8
SUNPOU
100
AcDbLine
 10
4146.040410277502
 20
6883.464770760365
 30
0.0
 11
4146.040410277502
 21
4913.464770760362
 31
0.0
  0
LINE
  5
20CA4
330
250A4
100
AcDbEntity
  8
SUNPOU
100
AcDbLine
 10
4566.040410277501
 20
4898.464770760362
 30
0.0
 11
4101.040410277501
 21
4898.464770760362
 31
0.0
  0
LINE
  5
20CA5
330
250A4
100
AcDbEntity
  8
SUNPOU
100
AcDbLine
 10
4566.040410277501
 20
7138.464770760363
 30
0.0
 11
4101.040410277501
 21
7138.464770760363
 31
0.0
  0
TEXT
  5
20CA6
330
250A4
100
AcDbEntity
  8
SUNPOU
100
AcDbText
 10
4101.040410277501
 20
6932.750485046077
 30
0.0
 40
90.0
  1
240
 50
90.0
 41
0.6666666666666666
  7
00
 72
     4
 11
4056.040410277502
 21
7018.464770760363
 31
0.0
100
AcDbText
  0
LINE
  5
20CA7
330
250A4
100
AcDbEntity
  8
SUNPOU
100
AcDbLine
 10
4146.040410277502
 20
7123.464770760365
 30
0.0
 11
4146.040410277502
 21
6913.464770760363
 31
0.0
  0
LINE
  5
20CA8
330
250A4
100
AcDbEntity
  8
KISO-1
100
AcDbLine
 10
4596.040410277502
 20
7198.464770760367
 30
0.0
 11
4596.040410277502
 21
7138.464770760363
 31
0.0
  0
TEXT
  5
20CAA
330
250A4
100
AcDbEntity
  8
HIKIDASHI
100
AcDbText
 10
5325.715729246637
 20
7183.46477076037
 30
0.0
 40
90.0
  1
（土間コン後面位置）
  7
01
100
AcDbText
  0
LINE
  5
20CAB
330
250A4
100
AcDbEntity
  8
SIN
100
AcDbLine
 10
4996.040410277503
 20
7265.464770760366
 30
0.0
 11
4996.040410277503
 21
6131.464770760363
 31
0.0
  0
TEXT
  5
20CAC
330
250A4
100
AcDbEntity
  8
HIKIDASHI
100
AcDbText
 10
4909.239757226274
 20
5166.585865697096
 30
0.0
 40
90.0
  1
（ケラバ外面）
 50
90.0
  7
01
100
AcDbText
  0
TEXT
  5
20CAD
330
250A4
100
AcDbEntity
  8
HIKIDASHI
100
AcDbText
 10
5325.715729246637
 20
4763.464770760356
 30
0.0
 40
90.0
  1
（土間コン前面位置）
  7
01
100
AcDbText
  0
TEXT
  5
20CAE
330
250A4
100
AcDbEntity
  8
HIKIDASHI
100
AcDbText
 10
5434.361818908168
 20
5054.915498379021
 30
0.0
 40
90.0
  1
（鼻隠し外面）
  7
01
100
AcDbText
  0
LINE
  5
20CB0
330
250A4
100
AcDbEntity
  8
KISO-1
100
AcDbLine
 10
5396.040410277503
 20
6198.464770760363
 30
0.0
 11
5396.040410277503
 21
7198.464770760367
 31
0.0
  0
CIRCLE
  5
20CB1
330
250A4
100
AcDbEntity
  8
KISO-2
100
AcDbCircle
 10
4996.040410277503
 20
6898.464770760367
 30
0.0
 40
44.55
  0
LINE
  5
20CB3
330
250A4
100
AcDbEntity
  8
BOLT
100
AcDbLine
 10
4866.040410277503
 20
6798.464770760365
 30
0.0
 11
4926.040410277503
 21
6798.464770760365
 31
0.0
  0
LINE
  5
20CB4
330
250A4
100
AcDbEntity
  8
BOLT
100
AcDbLine
 10
4896.040410277503
 20
6768.464770760366
 30
0.0
 11
4896.040410277503
 21
6828.464770760366
 31
0.0
  0
LINE
  5
20CB5
330
250A4
100
AcDbEntity
  8
BOLT
100
AcDbLine
 10
5126.040410277503
 20
6798.464770760365
 30
0.0
 11
5066.040410277503
 21
6798.464770760365
 31
0.0
  0
LINE
  5
20CB6
330
250A4
100
AcDbEntity
  8
BOLT
100
AcDbLine
 10
5096.040410277502
 20
6768.464770760366
 30
0.0
 11
5096.040410277502
 21
6828.464770760366
 31
0.0
  0
LINE
  5
20CB7
330
250A4
100
AcDbEntity
  8
SIN
100
AcDbLine
 10
5115.590410277506
 20
6898.464770760367
 30
0.0
 11
4876.490410277506
 21
6898.464770760367
 31
0.0
  0
LINE
  5
20CB8
330
250A4
100
AcDbEntity
  8
BOLT
100
AcDbLine
 10
4866.040410277503
 20
6998.464770760365
 30
0.0
 11
4926.040410277503
 21
6998.464770760365
 31
0.0
  0
LINE
  5
20CB9
330
250A4
100
AcDbEntity
  8
BOLT
100
AcDbLine
 10
4896.040410277503
 20
7028.464770760365
 30
0.0
 11
4896.040410277503
 21
6968.464770760363
 31
0.0
  0
LINE
  5
20CBA
330
250A4
100
AcDbEntity
  8
BOLT
100
AcDbLine
 10
5126.040410277503
 20
6998.464770760365
 30
0.0
 11
5066.040410277503
 21
6998.464770760365
 31
0.0
  0
LINE
  5
20CBB
330
250A4
100
AcDbEntity
  8
BOLT
100
AcDbLine
 10
5096.040410277502
 20
7028.464770760365
 30
0.0
 11
5096.040410277502
 21
6968.464770760363
 31
0.0
  0
TEXT
  5
20CBC
330
250A4
100
AcDbEntity
  8
HIKIDASHI
100
AcDbText
 10
5434.361818908168
 20
6892.014043141705
 30
0.0
 40
90.0
  1
（屋根後面位置）
  7
01
100
AcDbText
  0
LINE
  5
20CD7
330
250A4
100
AcDbEntity
  8
SUNPOU
100
AcDbLine
 10
7826.040410277503
 20
7198.464770760367
 30
0.0
 11
8081.040410277502
 21
7198.464770760367
 31
0.0
  0
LINE
  5
20CD8
330
250A4
100
AcDbEntity
  8
SUNPOU
100
AcDbLine
 10
7556.040410277502
 20
6998.464770760365
 30
0.0
 11
8291.040410277503
 21
6998.464770760365
 31
0.0
  0
LINE
  5
20CD9
330
250A4
100
AcDbEntity
  8
SUNPOU
100
AcDbLine
 10
7556.040410277502
 20
6798.464770760365
 30
0.0
 11
8291.040410277503
 21
6798.464770760365
 31
0.0
  0
LINE
  5
20CDA
330
250A4
100
AcDbEntity
  8
SUNPOU
100
AcDbLine
 10
7826.040410277503
 20
6198.464770760363
 30
0.0
 11
8501.040410277502
 21
6198.464770760363
 31
0.0
  0
LINE
  5
20CDB
330
250A4
100
AcDbEntity
  8
SUNPOU
100
AcDbLine
 10
7826.040410277503
 20
7138.464770760363
 30
0.0
 11
8501.040410277502
 21
7138.464770760363
 31
0.0
  0
LINE
  5
20CDC
330
250A4
100
AcDbEntity
  8
SUNPOU
100
AcDbLine
 10
7666.040410277503
 20
6658.464770760365
 30
0.0
 11
8501.040410277502
 21
6658.464770760365
 31
0.0
  0
LINE
  5
20CDE
330
250A4
100
AcDbEntity
  8
SIN
100
AcDbLine
 10
7396.040410277503
 20
7265.464770760366
 30
0.0
 11
7396.040410277503
 21
6131.464770760363
 31
0.0
  0
LINE
  5
20CDF
330
250A4
100
AcDbEntity
  8
SUNPOU
100
AcDbLine
 10
6996.040410277517
 20
7228.464770760365
 30
0.0
 11
6996.040410277517
 21
8113.464770760366
 31
0.0
  0
LINE
  5
20CE0
330
250A4
100
AcDbEntity
  8
SUNPOU
100
AcDbLine
 10
7636.040410277503
 20
7168.464770760363
 30
0.0
 11
7636.040410277503
 21
7903.464770760365
 31
0.0
  0
LINE
  5
20CE1
330
250A4
100
AcDbEntity
  8
SUNPOU
100
AcDbLine
 10
7156.040410277502
 20
7168.464770760363
 30
0.0
 11
7156.040410277502
 21
7903.464770760365
 31
0.0
  0
LINE
  5
20CE2
330
250A4
100
AcDbEntity
  8
SUNPOU
100
AcDbLine
 10
7536.040410277504
 20
7068.464770760361
 30
0.0
 11
7536.040410277504
 21
7693.464770760361
 31
0.0
  0
LINE
  5
20CE3
330
250A4
100
AcDbEntity
  8
SUNPOU
100
AcDbLine
 10
7256.040410277503
 20
7068.464770760361
 30
0.0
 11
7256.040410277503
 21
7693.464770760361
 31
0.0
  0
LINE
  5
20CE4
330
250A4
100
AcDbEntity
  8
SUNPOU
100
AcDbLine
 10
7496.040410277503
 20
7058.464770760362
 30
0.0
 11
7496.040410277503
 21
7483.464770760362
 31
0.0
  0
LINE
  5
20CE5
330
250A4
100
AcDbEntity
  8
SUNPOU
100
AcDbLine
 10
7296.040410277503
 20
7058.464770760362
 30
0.0
 11
7296.040410277503
 21
7483.464770760362
 31
0.0
  0
LINE
  5
20CE6
330
250A4
100
AcDbEntity
  8
HIKIDASHI
100
AcDbLine
 10
7253.724629456407
 20
7041.001515975533
 30
0.0
 11
6858.326065489278
 21
7438.464770760361
 31
0.0
  0
LINE
  5
20CE7
330
250A4
100
AcDbEntity
  8
HIKIDASHI
100
AcDbLine
 10
7446.65477445578
 20
7032.539086226454
 30
0.0
 11
6858.326065489278
 21
7438.464770760366
 31
0.0
  0
LINE
  5
20CE8
330
250A4
100
AcDbEntity
  8
SUNPOU
100
AcDbLine
 10
7796.040410277503
 20
7228.464770760365
 30
0.0
 11
7796.040410277503
 21
8113.464770760366
 31
0.0
  0
TEXT
  5
20CF6
330
250A4
100
AcDbEntity
  8
HIKIDASHI
100
AcDbText
 10
7572.841063328745
 20
5166.585865697096
 30
0.0
 40
90.0
  1
（ケラバ外面）
 50
90.0
  7
01
100
AcDbText
  0
LINE
  5
20CF9
330
250A4
100
AcDbEntity
  8
SUNPOU
100
AcDbLine
 10
7246.490410277509
 20
6898.464770760367
 30
0.0
 11
6571.576551619564
 21
6898.464770760367
 31
0.0
  0
LINE
  5
20CFA
330
250A4
100
AcDbEntity
  8
HIKIDASHI
100
AcDbLine
 10
6742.640957241221
 20
6254.879302087655
 30
0.0
 11
6858.326065489278
 21
6254.879302087655
 31
0.0
  0
LINE
  5
20CFB
330
250A4
100
AcDbEntity
  8
SUNPOU
100
AcDbLine
 10
6966.040410277519
 20
6198.464770760363
 30
0.0
 11
6361.576551619564
 21
6198.464770760363
 31
0.0
  0
LINE
  5
20CFC
330
250A4
100
AcDbEntity
  8
SUNPOU
100
AcDbLine
 10
6966.040410277519
 20
7198.464770760367
 30
0.0
 11
6361.576551619564
 21
7198.464770760367
 31
0.0
  0
LINE
  5
20CFD
330
250A4
100
AcDbEntity
  8
SUNPOU
100
AcDbLine
 10
6406.576551619564
 20
6213.464770760365
 30
0.0
 11
6406.576551619564
 21
7183.464770760362
 31
0.0
  0
LINE
  5
20CFE
330
250A4
100
AcDbEntity
  8
SUNPOU
100
AcDbLine
 10
6616.576551619565
 20
6213.464770760365
 30
0.0
 11
6616.576551619565
 21
6883.464770760365
 31
0.0
  0
TEXT
  5
20CFF
330
250A4
100
AcDbEntity
  8
SUNPOU
100
AcDbText
 10
6571.576551619564
 20
6462.750485046079
 30
0.0
 40
90.0
  1
700
 50
90.0
 41
0.6666666666666666
  7
00
 72
     1
 11
6526.576551619564
 21
6548.464770760365
 31
0.0
100
AcDbText
 73
     2
  0
TEXT
  5
20D00
330
250A4
100
AcDbEntity
  8
HIKIDASHI
100
AcDbText
 10
6752.640957241219
 20
6299.879302087655
 30
0.0
 40
90.0
  1
柱
  7
01
100
AcDbText
  0
TEXT
  5
20D01
330
250A4
100
AcDbEntity
  8
SUNPOU
100
AcDbText
 10
6361.576551619564
 20
6579.893342188937
 30
0.0
 40
90.0
  1
1000
 50
90.0
 41
0.6666666666666666
  7
00
 72
     1
 11
6316.576551619564
 21
6698.464770760367
 31
0.0
100
AcDbText
 73
     2
  0
TEXT
  5
20D02
330
250A4
100
AcDbEntity
  8
SUNPOU
100
AcDbText
 10
6571.576551619564
 20
6955.312725517732
 30
0.0
 40
90.0
  1
300
 50
90.0
 41
0.6666666666666666
  7
00
 72
     1
 11
6526.576551619564
 21
7041.027011232016
 31
0.0
100
AcDbText
 73
     2
  0
LINE
  5
20D03
330
250A4
100
AcDbEntity
  8
SUNPOU
100
AcDbLine
 10
6616.576551619565
 20
6913.464770760363
 30
0.0
 11
6616.576551619565
 21
7183.464770760362
 31
0.0
  0
LINE
  5
20D04
330
250A4
100
AcDbEntity
  8
KISO-1
100
AcDbLine
 10
6996.040410277517
 20
6198.464770760363
 30
0.0
 11
6996.040410277517
 21
7198.464770760367
 31
0.0
  0
LINE
  5
20D05
330
250A4
100
AcDbEntity
  8
HIKIDASHI
100
AcDbLine
 10
7329.006690675992
 20
6818.232713972658
 30
0.0
 11
6858.326065489278
 21
6254.879302087655
 31
0.0
  0
LINE
  5
20D06
330
250A4
100
AcDbEntity
  8
KISO-1
100
AcDbLine
 10
7796.040410277503
 20
6198.464770760363
 30
0.0
 11
6996.040410277517
 21
6198.464770760363
 31
0.0
  0
LINE
  5
20D07
330
250A4
100
AcDbEntity
  8
KISO-1
100
AcDbLine
 10
6996.040410277517
 20
7198.464770760367
 30
0.0
 11
7796.040410277503
 21
7198.464770760367
 31
0.0
  0
LINE
  5
20D0A
330
250A4
100
AcDbEntity
  8
SIN
100
AcDbLine
 10
7515.590410277505
 20
6898.464770760367
 30
0.0
 11
7276.490410277522
 21
6898.464770760367
 31
0.0
  0
LINE
  5
20D0C
330
250A4
100
AcDbEntity
  8
BOLT
100
AcDbLine
 10
7296.040410277503
 20
6768.464770760366
 30
0.0
 11
7296.040410277503
 21
6828.464770760366
 31
0.0
  0
LINE
  5
20D0D
330
250A4
100
AcDbEntity
  8
BOLT
100
AcDbLine
 10
7266.040410277503
 20
6798.464770760365
 30
0.0
 11
7326.040410277503
 21
6798.464770760365
 31
0.0
  0
LINE
  5
20D0E
330
250A4
100
AcDbEntity
  8
BOLT
100
AcDbLine
 10
7296.040410277503
 20
7028.464770760365
 30
0.0
 11
7296.040410277503
 21
6968.464770760363
 31
0.0
  0
LINE
  5
20D0F
330
250A4
100
AcDbEntity
  8
BOLT
100
AcDbLine
 10
7266.040410277503
 20
6998.464770760365
 30
0.0
 11
7326.040410277503
 21
6998.464770760365
 31
0.0
  0
CIRCLE
  5
20D11
330
250A4
100
AcDbEntity
  8
KISO-2
100
AcDbCircle
 10
7396.040410277503
 20
6898.464770760367
 30
0.0
 40
44.55
  0
LINE
  5
20D12
330
250A4
100
AcDbEntity
  8
BOLT
100
AcDbLine
 10
7526.040410277502
 20
6798.464770760365
 30
0.0
 11
7466.040410277503
 21
6798.464770760365
 31
0.0
  0
LINE
  5
20D13
330
250A4
100
AcDbEntity
  8
BOLT
100
AcDbLine
 10
7496.040410277503
 20
6768.464770760366
 30
0.0
 11
7496.040410277503
 21
6828.464770760366
 31
0.0
  0
LINE
  5
20D14
330
250A4
100
AcDbEntity
  8
BOLT
100
AcDbLine
 10
7526.040410277502
 20
6998.464770760365
 30
0.0
 11
7466.040410277503
 21
6998.464770760365
 31
0.0
  0
LINE
  5
20D16
330
250A4
100
AcDbEntity
  8
BOLT
100
AcDbLine
 10
7496.040410277503
 20
7028.464770760365
 30
0.0
 11
7496.040410277503
 21
6968.464770760363
 31
0.0
  0
LINE
  5
20D17
330
250A4
100
AcDbEntity
  8
KISO-1
100
AcDbLine
 10
7796.040410277503
 20
7198.464770760367
 30
0.0
 11
7796.040410277503
 21
7138.464770760363
 31
0.0
  0
TEXT
  5
20D18
330
250A4
100
AcDbEntity
  8
SUNPOU
100
AcDbText
 10
7310.326124563218
 20
7903.464770760367
 30
0.0
 40
90.0
  1
480
 41
0.6666666666666666
  7
00
 72
     1
 11
7396.040410277503
 21
7948.464770760367
 31
0.0
100
AcDbText
 73
     2
  0
TEXT
  5
20D19
330
250A4
100
AcDbEntity
  8
SUNPOU
100
AcDbText
 10
7626.040410277503
 20
7903.464770760367
 30
0.0
 40
90.0
  1
160
 41
0.6666666666666666
  7
00
 72
     4
 11
7716.040410277503
 21
7948.464770760367
 31
0.0
100
AcDbText
  0
TEXT
  5
20D1A
330
250A4
100
AcDbEntity
  8
SUNPOU
100
AcDbText
 10
6986.040410277503
 20
7903.464770760367
 30
0.0
 40
90.0
  1
160
 41
0.6666666666666666
  7
00
 72
     4
 11
7076.040410277503
 21
7948.464770760367
 31
0.0
100
AcDbText
  0
TEXT
  5
20D1B
330
250A4
100
AcDbEntity
  8
SUNPOU
100
AcDbText
 10
7310.326124563218
 20
7693.464770760363
 30
0.0
 40
90.0
  1
280
 41
0.6666666666666666
  7
00
 72
     1
 11
7396.040410277503
 21
7738.464770760363
 31
0.0
100
AcDbText
 73
     2
  0
TEXT
  5
20D1C
330
250A4
100
AcDbEntity
  8
SUNPOU
100
AcDbText
 10
7310.326124563218
 20
7483.464770760365
 30
0.0
 40
90.0
  1
200
 41
0.6666666666666666
  7
00
 72
     1
 11
7396.040410277503
 21
7528.464770760365
 31
0.0
100
AcDbText
 73
     2
  0
LINE
  5
20D1D
330
250A4
100
AcDbEntity
  8
SUNPOU
100
AcDbLine
 10
7481.040410277502
 20
7438.464770760361
 30
0.0
 11
7311.040410277503
 21
7438.464770760361
 31
0.0
  0
LINE
  5
20D1E
330
250A4
100
AcDbEntity
  8
SUNPOU
100
AcDbLine
 10
7621.040410277503
 20
7858.464770760362
 30
0.0
 11
7171.040410277503
 21
7858.464770760362
 31
0.0
  0
LINE
  5
20D1F
330
250A4
100
AcDbEntity
  8
SUNPOU
100
AcDbLine
 10
7521.040410277503
 20
7648.464770760367
 30
0.0
 11
7271.040410277503
 21
7648.464770760367
 31
0.0
  0
LINE
  5
20D20
330
250A4
100
AcDbEntity
  8
SUNPOU
100
AcDbLine
 10
7141.040410277503
 20
7858.464770760362
 30
0.0
 11
7011.040410277503
 21
7858.464770760362
 31
0.0
  0
LINE
  5
20D21
330
250A4
100
AcDbEntity
  8
SUNPOU
100
AcDbLine
 10
7781.040410277502
 20
7858.464770760362
 30
0.0
 11
7651.040410277502
 21
7858.464770760362
 31
0.0
  0
TEXT
  5
20D22
330
250A4
100
AcDbEntity
  8
SUNPOU
100
AcDbText
 10
7310.326124563218
 20
8113.464770760366
 30
0.0
 40
90.0
  1
800
 41
0.6666666666666666
  7
00
 72
     1
 11
7396.040410277503
 21
8158.464770760366
 31
0.0
100
AcDbText
 73
     2
  0
LINE
  5
20D23
330
250A4
100
AcDbEntity
  8
SUNPOU
100
AcDbLine
 10
7781.040410277502
 20
8068.464770760362
 30
0.0
 11
7011.040410277503
 21
8068.464770760362
 31
0.0
  0
TEXT
  5
20D24
330
250A4
100
AcDbEntity
  8
SUNPOU
100
AcDbText
 10
8411.040410277506
 20
7221.256328326432
 30
0.0
 40
90.0
  1
60
 50
90.0
 41
0.6666666666666666
  7
00
 72
     4
 11
8366.040410277504
 21
7279.827756897859
 31
0.0
100
AcDbText
  0
LINE
  5
20D25
330
250A4
100
AcDbEntity
  8
SUNPOU
100
AcDbLine
 10
8456.040410277502
 20
7198.464770760367
 30
0.0
 11
8456.040410277502
 21
7343.484166610048
 31
0.0
  0
TEXT
  5
20D26
330
250A4
100
AcDbEntity
  8
SUNPOU
100
AcDbText
 10
8201.040410277503
 20
7148.775790791294
 30
0.0
 40
90.0
  1
140
 50
90.0
 41
0.6666666666666666
  7
00
 72
     4
 11
8156.040410277503
 21
7238.775790791293
 31
0.0
100
AcDbText
  0
LINE
  5
20D27
330
250A4
100
AcDbEntity
  8
SUNPOU
100
AcDbLine
 10
8246.040410277503
 20
7138.464770760363
 30
0.0
 11
8246.040410277503
 21
7323.449541931927
 31
0.0
  0
TEXT
  5
20D28
330
250A4
100
AcDbEntity
  8
HIKIDASHI
100
AcDbText
 10
7931.040410277518
 20
5057.939776035563
 30
0.0
 40
90.0
  1
（土間コン側面位置）
 50
90.0
  7
01
100
AcDbText
  0
LINE
  5
20D29
330
250A4
100
AcDbEntity
  8
SUNPOU
100
AcDbLine
 10
8456.040410277502
 20
6643.464770760363
 30
0.0
 11
8456.040410277502
 21
6213.464770760365
 31
0.0
  0
TEXT
  5
20D2A
330
250A4
100
AcDbEntity
  8
SUNPOU
100
AcDbText
 10
8201.040410277503
 20
6473.314702674582
 30
0.0
 40
90.0
  1
140
 50
90.0
 41
0.6666666666666666
  7
00
 72
     4
 11
8156.040410277503
 21
6563.314702674583
 31
0.0
100
AcDbText
  0
LINE
  5
20D2B
330
250A4
100
AcDbEntity
  8
SUNPOU
100
AcDbLine
 10
8246.040410277503
 20
6658.464770760365
 30
0.0
 11
8246.040410277503
 21
6480.49602835253
 31
0.0
  0
TEXT
  5
20D2C
330
250A4
100
AcDbEntity
  8
SUNPOU
100
AcDbText
 10
8411.040410277506
 20
6342.750485046077
 30
0.0
 40
90.0
  1
460
 50
90.0
 41
0.6666666666666666
  7
00
 72
     1
 11
8366.040410277504
 21
6428.464770760363
 31
0.0
100
AcDbText
 73
     2
  0
TEXT
  5
20D2D
330
250A4
100
AcDbEntity
  8
SUNPOU
100
AcDbText
 10
8411.040410277506
 20
6812.75048504608
 30
0.0
 40
90.0
  1
480
 50
90.0
 41
0.6666666666666666
  7
00
 72
     1
 11
8366.040410277504
 21
6898.464770760367
 31
0.0
100
AcDbText
 73
     2
  0
LINE
  5
20D2E
330
250A4
100
AcDbEntity
  8
SUNPOU
100
AcDbLine
 10
8276.040410277502
 20
7198.464770760367
 30
0.0
 11
8501.040410277502
 21
7198.464770760367
 31
0.0
  0
TEXT
  5
20D2F
330
250A4
100
AcDbEntity
  8
SUNPOU
100
AcDbText
 10
8201.040410277503
 20
6812.75048504608
 30
0.0
 40
90.0
  1
200
 50
90.0
 41
0.6666666666666666
  7
00
 72
     4
 11
8156.040410277503
 21
6898.464770760367
 31
0.0
100
AcDbText
  0
LINE
  5
20D30
330
250A4
100
AcDbEntity
  8
SUNPOU
100
AcDbLine
 10
8246.040410277503
 20
6983.464770760362
 30
0.0
 11
8246.040410277503
 21
6813.464770760365
 31
0.0
  0
LINE
  5
20D31
330
250A4
100
AcDbEntity
  8
SUNPOU
100
AcDbLine
 10
8246.040410277503
 20
6783.464770760365
 30
0.0
 11
8246.040410277503
 21
6673.464770760365
 31
0.0
  0
LINE
  5
20D32
330
250A4
100
AcDbEntity
  8
SUNPOU
100
AcDbLine
 10
8246.040410277503
 20
7123.464770760365
 30
0.0
 11
8246.040410277503
 21
7013.464770760363
 31
0.0
  0
LINE
  5
20D33
330
250A4
100
AcDbEntity
  8
SUNPOU
100
AcDbLine
 10
8456.040410277502
 20
7123.464770760365
 30
0.0
 11
8456.040410277502
 21
6673.464770760365
 31
0.0
  0
LINE
  5
20D34
330
250A4
100
AcDbEntity
  8
SUNPOU
100
AcDbLine
 10
8456.040410277502
 20
7183.464770760362
 30
0.0
 11
8456.040410277502
 21
7153.464770760365
 31
0.0
  0
TEXT
  5
20D39
330
250A4
100
AcDbEntity
  8
SUNPOU
100
AcDbText
 10
2780.557704049091
 20
2305.744622954003
 30
0.0
 40
90.0
  1
G.L
 41
0.6666666666666666
  7
00
 72
     4
 11
2851.986275477663
 21
2350.744622954003
 31
0.0
100
AcDbText
  0
LINE
  5
20D3A
330
250A4
100
AcDbEntity
  8
SUNPOU
100
AcDbLine
 10
2851.986275477663
 20
2170.744622954003
 30
0.0
 11
2903.947799704729
 21
2260.744622954003
 31
0.0
  0
LINE
  5
20D3B
330
250A4
100
AcDbEntity
  8
SUNPOU
100
AcDbLine
 10
2903.947799704729
 20
2260.744622954003
 30
0.0
 11
2800.024751250596
 21
2260.744622954003
 31
0.0
  0
LINE
  5
20D3C
330
250A4
100
AcDbEntity
  8
SUNPOU
100
AcDbLine
 10
2800.024751250596
 20
2260.744622954003
 30
0.0
 11
2851.986275477663
 21
2170.744622954003
 31
0.0
  0
LINE
  5
20D52
330
250A4
100
AcDbEntity
  8
HIKIDASHI
100
AcDbLine
 10
1833.492404013275
 20
581.6956041113334
 30
0.0
 11
2557.509683509838
 21
581.6956041113334
 31
0.0
  0
LINE
  5
20D53
330
250A4
100
AcDbEntity
  8
HIKIDASHI
100
AcDbLine
 10
1833.492404013275
 20
551.6956041113334
 30
0.0
 11
2557.509683509838
 21
551.6956041113334
 31
0.0
  0
TEXT
  5
20D54
330
250A4
100
AcDbEntity
  8
HIKIDASHI
100
AcDbText
 10
1863.492404013275
 20
626.6956041113334
 30
0.0
 40
90.0
  1
A  ~  A'
 41
0.6700000000000001
  7
00
100
AcDbText
  0
TEXT
  5
20D55
330
250A4
100
AcDbEntity
  8
HIKIDASHI
100
AcDbText
 10
2227.509683509838
 20
626.6956041113334
 30
0.0
 40
90.0
  1
断  面
  7
01
100
AcDbText
  0
LINE
  5
20D62
330
250A4
100
AcDbEntity
  8
SUNPOU
100
AcDbLine
 10
4808.105917487909
 20
6043.67531546178
 30
0.0
 11
4996.040410277503
 21
6043.67531546178
 31
0.0
  0
LINE
  5
20D63
330
250A4
100
AcDbEntity
  8
SUNPOU
100
AcDbLine
 10
4996.040410277503
 20
6003.464770760365
 30
0.0
 11
4996.040410277503
 21
6153.464770760365
 31
0.0
  0
TEXT
  5
20D64
330
250A4
100
AcDbEntity
  8
SUNPOU
100
AcDbText
 10
4642.576841447318
 20
5998.67531546178
 30
0.0
 40
90.0
  1
A
 41
0.6700000000000001
  7
00
 72
     4
 11
4668.419698590176
 21
6043.67531546178
 31
0.0
100
AcDbText
  0
LINE
  5
20D65
330
250A4
100
AcDbEntity
  8
SUNPOU
100
AcDbLine
 10
4808.105917487909
 20
7393.464770760363
 30
0.0
 11
4996.040410277503
 21
7393.464770760363
 31
0.0
  0
LINE
  5
20D66
330
250A4
100
AcDbEntity
  8
SUNPOU
100
AcDbLine
 10
4996.040410277503
 20
7393.464770760363
 30
0.0
 11
4996.040410277503
 21
7243.464770760361
 31
0.0
  0
TEXT
  5
20D67
330
250A4
100
AcDbEntity
  8
SUNPOU
100
AcDbText
 10
4632.526841447318
 20
7339.893342188934
 30
0.0
 40
90.0
  1
A'
 41
0.6700000000000001
  7
00
 72
     4
 11
4668.419698590176
 21
7393.464770760363
 31
0.0
100
AcDbText
  0
LINE
  5
20D68
330
250A4
100
AcDbEntity
  8
HATCH
100
AcDbLine
 10
1741.197912084083
 20
2200.744622954001
 30
0.0
 11
1651.19791208409
 21
2110.744622954002
 31
0.0
  0
LINE
  5
20D69
330
250A4
100
AcDbEntity
  8
HATCH
100
AcDbLine
 10
1770.896396893957
 20
2200.744622954001
 30
0.0
 11
1680.89639689395
 21
2110.744622954003
 31
0.0
  0
LINE
  5
20D6A
330
250A4
100
AcDbEntity
  8
HATCH
100
AcDbLine
 10
1441.499427274255
 20
2200.744622954
 30
0.0
 11
1351.499427274261
 21
2110.744622954002
 31
0.0
  0
LINE
  5
20D6B
330
250A4
100
AcDbEntity
  8
HATCH
100
AcDbLine
 10
1411.800942464433
 20
2200.744622954001
 30
0.0
 11
1321.800942464426
 21
2110.744622954002
 31
0.0
  0
LINE
  5
20D6C
330
250A4
100
AcDbEntity
  8
HATCH
100
AcDbLine
 10
1471.197912084099
 20
2200.744622954
 30
0.0
 11
1381.197912084099
 21
2110.744622954002
 31
0.0
  0
LINE
  5
20D6D
330
250A4
100
AcDbEntity
  8
HATCH
100
AcDbLine
 10
1711.499427274248
 20
2200.744622954001
 30
0.0
 11
1621.499427274248
 21
2110.744622954003
 31
0.0
  0
LINE
  5
20D6E
330
250A4
100
AcDbEntity
  8
HATCH
100
AcDbLine
 10
2070.594881703815
 20
2200.744622954003
 30
0.0
 11
1920.594881703808
 21
2050.744622954003
 31
0.0
  0
LINE
  5
20D6F
330
250A4
100
AcDbEntity
  8
HATCH
100
AcDbLine
 10
2011.197912084106
 20
2200.744622954003
 30
0.0
 11
1861.197912084113
 21
2050.744622954002
 31
0.0
  0
LINE
  5
20D70
330
250A4
100
AcDbEntity
  8
HATCH
100
AcDbLine
 10
2040.89639689395
 20
2200.744622954001
 30
0.0
 11
1890.89639689395
 21
2050.744622954002
 31
0.0
  0
LINE
  5
20D71
330
250A4
100
AcDbEntity
  8
HATCH
100
AcDbLine
 10
1141.800942464439
 20
2200.744622954
 30
0.0
 11
1077.057301727902
 21
2136.000982217467
 31
0.0
  0
LINE
  5
20D72
330
250A4
100
AcDbEntity
  8
HATCH
100
AcDbLine
 10
1112.102457654611
 20
2200.744622954
 30
0.0
 11
1077.057301727902
 21
2165.699467027298
 31
0.0
  0
LINE
  5
20D73
330
250A4
100
AcDbEntity
  8
HATCH
100
AcDbLine
 10
1171.499427274276
 20
2200.744622954
 30
0.0
 11
1081.499427274277
 21
2110.744622954002
 31
0.0
  0
TEXT
  5
20D76
330
250A4
100
AcDbEntity
  8
HIKIDASHI
100
AcDbText
 10
2895.985948906207
 20
2633.077046087619
 30
0.0
 40
90.00009018009018
  1
アンカーボルト
  7
01
100
AcDbText
  0
LINE
  5
20D77
330
250A4
100
AcDbEntity
  8
HIKIDASHI
100
AcDbLine
 10
2861.708263957677
 20
2588.077046087621
 30
0.0
 11
4605.935503113104
 21
2588.077046087621
 31
0.0
  0
TEXT
  5
20D78
330
250A4
100
AcDbEntity
  8
HIKIDASHI
100
AcDbText
 10
3656.323003511591
 20
2633.077046087619
 30
0.0
 40
89.55223880597012
  1
W ／
 41
0.6700000000000001
  7
00
100
AcDbText
  0
TEXT
  5
20D79
330
250A4
100
AcDbEntity
  8
HIKIDASHI
100
AcDbText
 10
3730.923814194816
 20
2659.506655726517
 30
0.0
 40
67.16417910447761
  1
1
 41
0.6700000000000001
  7
00
100
AcDbText
  0
TEXT
  5
20D7A
330
250A4
100
AcDbEntity
  8
HIKIDASHI
100
AcDbText
 10
3971.786167097249
 20
2632.868059887531
 30
0.0
 40
89.55223880597012
  1
400
 41
0.6700000000000001
  7
00
100
AcDbText
  0
TEXT
  5
20D7B
330
250A4
100
AcDbEntity
  8
HIKIDASHI
100
AcDbText
 10
3818.815850753738
 20
2632.480600695954
 30
0.0
 40
67.16417910447761
  1
2
 41
0.6700000000000001
  7
00
100
AcDbText
  0
TEXT
  5
20D7C
330
250A4
100
AcDbEntity
  8
HIKIDASHI
100
AcDbText
 10
3890.650787944112
 20
2644.27107593837
 30
0.0
 40
89.55223880597012
  1
x
 41
0.6700000000000001
  7
00
100
AcDbText
  0
TEXT
  5
20D7E
330
250A4
100
AcDbEntity
  8
HIKIDASHI
100
AcDbText
 10
4213.506321158749
 20
2633.077046087619
 30
0.0
 40
90.00009018009018
  1
（別途）
  7
01
100
AcDbText
  0
CIRCLE
  5
20D7F
330
250A4
100
AcDbEntity
  8
U7
100
AcDbCircle
 10
1923.30608063106
 20
1627.244622953999
 30
0.0
 40
6.5
  0
CIRCLE
  5
20D80
330
250A4
100
AcDbEntity
  8
U7
100
AcDbCircle
 10
2095.306080631061
 20
1627.244622953999
 30
0.0
 40
6.5
  0
CIRCLE
  5
20D81
330
250A4
100
AcDbEntity
  8
U7
100
AcDbCircle
 10
2267.30608063106
 20
1627.244622953999
 30
0.0
 40
6.5
  0
CIRCLE
  5
20D82
330
250A4
100
AcDbEntity
  8
U7
100
AcDbCircle
 10
2439.306080631061
 20
1627.244622953999
 30
0.0
 40
6.5
  0
TEXT
  5
20D83
330
250A4
100
AcDbEntity
  8
HIKIDASHI
100
AcDbText
 10
5148.376511282378
 20
7483.464770760365
 30
0.0
 40
90.00009018009018
  1
アンカーボルト
  7
01
100
AcDbText
  0
LINE
  5
20D84
330
250A4
100
AcDbEntity
  8
HIKIDASHI
100
AcDbLine
 10
5114.098826333847
 20
7438.464770760366
 30
0.0
 11
6858.326065489269
 21
7438.464770760366
 31
0.0
  0
TEXT
  5
20D85
330
250A4
100
AcDbEntity
  8
HIKIDASHI
100
AcDbText
 10
5908.713565887762
 20
7483.464770760365
 30
0.0
 40
89.55223880597012
  1
W ／
 41
0.6700000000000001
  7
00
100
AcDbText
  0
TEXT
  5
20D86
330
250A4
100
AcDbEntity
  8
HIKIDASHI
100
AcDbText
 10
5983.314376570986
 20
7509.894380399263
 30
0.0
 40
67.16417910447761
  1
1
 41
0.6700000000000001
  7
00
100
AcDbText
  0
TEXT
  5
20D87
330
250A4
100
AcDbEntity
  8
HIKIDASHI
100
AcDbText
 10
6224.17672947342
 20
7483.255784560275
 30
0.0
 40
89.55223880597012
  1
400
 41
0.6700000000000001
  7
00
100
AcDbText
  0
TEXT
  5
20D88
330
250A4
100
AcDbEntity
  8
HIKIDASHI
100
AcDbText
 10
6071.206413129909
 20
7482.868325368702
 30
0.0
 40
67.16417910447761
  1
2
 41
0.6700000000000001
  7
00
100
AcDbText
  0
TEXT
  5
20D89
330
250A4
100
AcDbEntity
  8
HIKIDASHI
100
AcDbText
 10
6143.041350320291
 20
7494.658800611112
 30
0.0
 40
89.55223880597012
  1
x
 41
0.6700000000000001
  7
00
100
AcDbText
  0
TEXT
  5
20D8B
330
250A4
100
AcDbEntity
  8
HIKIDASHI
100
AcDbText
 10
6465.896883534918
 20
7483.464770760365
 30
0.0
 40
90.00009018009018
  1
（別途）
  7
01
100
AcDbText
  0
LINE
  5
20E0A
330
250A4
100
AcDbEntity
  8
SUNPOU
100
AcDbLine
 10
4146.040410277502
 20
4909.714770760365
 30
0.0
 11
4146.040410277502
 21
4920.96477076036
 31
0.0
  0
LINE
  5
20E0C
330
250A4
100
AcDbEntity
  8
SUNPOU
100
AcDbLine
 10
4146.040410277502
 20
6909.714770760365
 30
0.0
 11
4146.040410277502
 21
6920.964770760362
 31
0.0
  0
LINE
  5
20E0E
330
250A4
100
AcDbEntity
  8
SUNPOU
100
AcDbLine
 10
4146.040410277502
 20
6887.214770760363
 30
0.0
 11
4146.040410277502
 21
6875.964770760361
 31
0.0
  0
LINE
  5
20E10
330
250A4
100
AcDbEntity
  8
SUNPOU
100
AcDbLine
 10
4146.040410277502
 20
7127.214770760365
 30
0.0
 11
4146.040410277502
 21
7115.964770760363
 31
0.0
  0
LINE
  5
20E23
330
250A4
100
AcDbEntity
  8
SUNPOU
100
AcDbLine
 10
4808.105917487909
 20
6028.67531546178
 30
0.0
 11
4718.105917487907
 21
6043.67531546178
 31
0.0
  0
LINE
  5
20E24
330
250A4
100
AcDbEntity
  8
SUNPOU
100
AcDbLine
 10
4718.105917487907
 20
6043.67531546178
 30
0.0
 11
4808.105917487909
 21
6058.67531546178
 31
0.0
  0
SOLID
  5
20E25
330
250A4
100
AcDbEntity
  8
SUNPOU
100
AcDbTrace
 10
4808.105917487909
 20
6028.67531546178
 30
0.0
 11
4808.105917487909
 21
6058.67531546178
 31
0.0
 12
4718.105917487907
 22
6043.67531546178
 32
0.0
 13
4718.105917487907
 23
6043.67531546178
 33
0.0
  0
LINE
  5
20E26
330
250A4
100
AcDbEntity
  8
SUNPOU
100
AcDbLine
 10
4808.105917487909
 20
6058.67531546178
 30
0.0
 11
4808.105917487909
 21
6028.67531546178
 31
0.0
  0
LINE
  5
20E28
330
250A4
100
AcDbEntity
  8
SUNPOU
100
AcDbLine
 10
6616.576551619565
 20
6209.714770760363
 30
0.0
 11
6616.576551619565
 21
6220.964770760367
 31
0.0
  0
LINE
  5
20E2A
330
250A4
100
AcDbEntity
  8
SUNPOU
100
AcDbLine
 10
6406.576551619564
 20
6209.714770760363
 30
0.0
 11
6406.576551619564
 21
6220.964770760367
 31
0.0
  0
LINE
  5
20E2C
330
250A4
100
AcDbEntity
  8
SUNPOU
100
AcDbLine
 10
6616.576551619565
 20
6909.714770760365
 30
0.0
 11
6616.576551619565
 21
6920.964770760362
 31
0.0
  0
LINE
  5
20E2E
330
250A4
100
AcDbEntity
  8
SUNPOU
100
AcDbLine
 10
6616.576551619565
 20
6887.214770760363
 30
0.0
 11
6616.576551619565
 21
6875.964770760361
 31
0.0
  0
LINE
  5
20E30
330
250A4
100
AcDbEntity
  8
SUNPOU
100
AcDbLine
 10
6406.576551619564
 20
7187.214770760363
 30
0.0
 11
6406.576551619564
 21
7175.964770760363
 31
0.0
  0
LINE
  5
20E32
330
250A4
100
AcDbEntity
  8
SUNPOU
100
AcDbLine
 10
6616.576551619565
 20
7187.214770760363
 30
0.0
 11
6616.576551619565
 21
7175.964770760363
 31
0.0
  0
LINE
  5
20E33
330
250A4
100
AcDbEntity
  8
SUNPOU
100
AcDbLine
 10
4808.105917487909
 20
7408.464770760365
 30
0.0
 11
4718.105917487907
 21
7393.464770760363
 31
0.0
  0
LINE
  5
20E34
330
250A4
100
AcDbEntity
  8
SUNPOU
100
AcDbLine
 10
4718.105917487907
 20
7393.464770760363
 30
0.0
 11
4808.105917487909
 21
7378.464770760365
 31
0.0
  0
SOLID
  5
20E35
330
250A4
100
AcDbEntity
  8
SUNPOU
100
AcDbTrace
 10
4808.105917487909
 20
7408.464770760365
 30
0.0
 11
4808.105917487909
 21
7378.464770760365
 31
0.0
 12
4718.105917487907
 22
7393.464770760363
 32
0.0
 13
4718.105917487907
 23
7393.464770760363
 33
0.0
  0
LINE
  5
20E36
330
250A4
100
AcDbEntity
  8
SUNPOU
100
AcDbLine
 10
4808.105917487909
 20
7378.464770760365
 30
0.0
 11
4808.105917487909
 21
7408.464770760365
 31
0.0
  0
LINE
  5
20E38
330
250A4
100
AcDbEntity
  8
SUNPOU
100
AcDbLine
 10
7007.290410277502
 20
7858.464770760362
 30
0.0
 11
7018.540410277502
 21
7858.464770760362
 31
0.0
  0
LINE
  5
20E3A
330
250A4
100
AcDbEntity
  8
SUNPOU
100
AcDbLine
 10
7144.790410277503
 20
7858.464770760362
 30
0.0
 11
7133.540410277503
 21
7858.464770760362
 31
0.0
  0
LINE
  5
20E3C
330
250A4
100
AcDbEntity
  8
SUNPOU
100
AcDbLine
 10
7167.290410277503
 20
7858.464770760362
 30
0.0
 11
7178.540410277503
 21
7858.464770760362
 31
0.0
  0
LINE
  5
20E3E
330
250A4
100
AcDbEntity
  8
SUNPOU
100
AcDbLine
 10
7007.290410277502
 20
8068.464770760362
 30
0.0
 11
7018.540410277502
 21
8068.464770760362
 31
0.0
  0
LINE
  5
20E40
330
250A4
100
AcDbEntity
  8
SUNPOU
100
AcDbLine
 10
8456.040410277502
 20
6209.714770760363
 30
0.0
 11
8456.040410277502
 21
6220.964770760367
 31
0.0
  0
LINE
  5
20E42
330
250A4
100
AcDbEntity
  8
SUNPOU
100
AcDbLine
 10
8246.040410277503
 20
6669.714770760363
 30
0.0
 11
8246.040410277503
 21
6680.964770760361
 31
0.0
  0
LINE
  5
20E44
330
250A4
100
AcDbEntity
  8
SUNPOU
100
AcDbLine
 10
8456.040410277502
 20
6647.214770760363
 30
0.0
 11
8456.040410277502
 21
6635.964770760367
 31
0.0
  0
LINE
  5
20E46
330
250A4
100
AcDbEntity
  8
SUNPOU
100
AcDbLine
 10
8456.040410277502
 20
6669.714770760363
 30
0.0
 11
8456.040410277502
 21
6680.964770760361
 31
0.0
  0
LINE
  5
20E48
330
250A4
100
AcDbEntity
  8
SUNPOU
100
AcDbLine
 10
8246.040410277503
 20
6787.214770760366
 30
0.0
 11
8246.040410277503
 21
6775.964770760364
 31
0.0
  0
LINE
  5
20E4A
330
250A4
100
AcDbEntity
  8
SUNPOU
100
AcDbLine
 10
8246.040410277503
 20
6809.714770760365
 30
0.0
 11
8246.040410277503
 21
6820.964770760365
 31
0.0
  0
LINE
  5
20E4C
330
250A4
100
AcDbEntity
  8
SUNPOU
100
AcDbLine
 10
8246.040410277503
 20
6987.214770760363
 30
0.0
 11
8246.040410277503
 21
6975.964770760363
 31
0.0
  0
LINE
  5
20E4E
330
250A4
100
AcDbEntity
  8
SUNPOU
100
AcDbLine
 10
8246.040410277503
 20
7009.714770760365
 30
0.0
 11
8246.040410277503
 21
7020.964770760365
 31
0.0
  0
LINE
  5
20E50
330
250A4
100
AcDbEntity
  8
SUNPOU
100
AcDbLine
 10
8246.040410277503
 20
7127.214770760365
 30
0.0
 11
8246.040410277503
 21
7115.964770760363
 31
0.0
  0
LINE
  5
20E52
330
250A4
100
AcDbEntity
  8
SUNPOU
100
AcDbLine
 10
8456.040410277502
 20
7127.214770760365
 30
0.0
 11
8456.040410277502
 21
7115.964770760363
 31
0.0
  0
LINE
  5
20E54
330
250A4
100
AcDbEntity
  8
SUNPOU
100
AcDbLine
 10
8456.040410277502
 20
7149.714770760361
 30
0.0
 11
8456.040410277502
 21
7160.964770760365
 31
0.0
  0
LINE
  5
20E56
330
250A4
100
AcDbEntity
  8
SUNPOU
100
AcDbLine
 10
8456.040410277502
 20
7187.214770760363
 30
0.0
 11
8456.040410277502
 21
7175.964770760363
 31
0.0
  0
LINE
  5
20E58
330
250A4
100
AcDbEntity
  8
SUNPOU
100
AcDbLine
 10
7484.790410277503
 20
7438.464770760361
 30
0.0
 11
7473.540410277504
 21
7438.464770760361
 31
0.0
  0
LINE
  5
20E5A
330
250A4
100
AcDbEntity
  8
SUNPOU
100
AcDbLine
 10
7307.290410277502
 20
7438.464770760361
 30
0.0
 11
7318.540410277503
 21
7438.464770760361
 31
0.0
  0
LINE
  5
20E5C
330
250A4
100
AcDbEntity
  8
SUNPOU
100
AcDbLine
 10
7267.290410277503
 20
7648.464770760367
 30
0.0
 11
7278.540410277503
 21
7648.464770760367
 31
0.0
  0
LINE
  5
20E5E
330
250A4
100
AcDbEntity
  8
SUNPOU
100
AcDbLine
 10
7524.790410277502
 20
7648.464770760367
 30
0.0
 11
7513.540410277503
 21
7648.464770760367
 31
0.0
  0
LINE
  5
20E60
330
250A4
100
AcDbEntity
  8
SUNPOU
100
AcDbLine
 10
7624.790410277502
 20
7858.464770760362
 30
0.0
 11
7613.540410277503
 21
7858.464770760362
 31
0.0
  0
LINE
  5
20E62
330
250A4
100
AcDbEntity
  8
SUNPOU
100
AcDbLine
 10
7647.290410277503
 20
7858.464770760362
 30
0.0
 11
7658.540410277502
 21
7858.464770760362
 31
0.0
  0
LINE
  5
20E64
330
250A4
100
AcDbEntity
  8
SUNPOU
100
AcDbLine
 10
7784.790410277503
 20
7858.464770760362
 30
0.0
 11
7773.540410277504
 21
7858.464770760362
 31
0.0
  0
LINE
  5
20E66
330
250A4
100
AcDbEntity
  8
SUNPOU
100
AcDbLine
 10
7784.790410277503
 20
8068.464770760362
 30
0.0
 11
7773.540410277504
 21
8068.464770760362
 31
0.0
  0
TEXT
  5
225E0
330
250A4
100
AcDbEntity
  8
HIKIDASHI
100
AcDbText
 10
5540.385669664423
 20
4050.861773577753
 30
0.0
 40
135.0
  1
基 礎 伏 図
  7
01
 72
     2
 11
6386.385669664423
 21
4050.861773577753
 31
0.0
100
AcDbText
  0
TEXT
  5
225E1
330
250A4
100
AcDbEntity
  8
HIKIDASHI
100
AcDbText
 10
6487.635669664422
 20
4077.655270637591
 30
0.0
 40
90.0
  1
(S=
 41
0.6700000000000001
  7
00
100
AcDbText
  0
TEXT
  5
225E2
330
250A4
100
AcDbEntity
  8
HIKIDASHI
100
AcDbText
 10
6780.293404299612
 20
4048.216460537282
 30
0.0
 40
90.0
  1
30
 41
0.6700000000000001
  7
00
100
AcDbText
  0
TEXT
  5
225E3
330
250A4
100
AcDbEntity
  8
HIKIDASHI
100
AcDbText
 10
6916.898167369858
 20
4077.655270637591
 30
0.0
 40
90.0
  1
)
 41
0.6700000000000001
  7
00
100
AcDbText
  0
TEXT
  5
225E4
330
250A4
100
AcDbEntity
  8
HIKIDASHI
100
AcDbText
 10
6728.211355191648
 20
4077.655270637591
 30
0.0
 40
90.0
  1
/
 41
0.6700000000000001
  7
00
100
AcDbText
  0
TEXT
  5
225E5
330
250A4
100
AcDbEntity
  8
HIKIDASHI
100
AcDbText
 10
6690.932075094308
 20
4095.161933104313
 30
0.0
 40
90.0
  1
1
 41
0.6700000000000001
  7
00
100
AcDbText
  0
TEXT
  5
23AF4
330
250A4
100
AcDbEntity
  8
NAME
100
AcDbText
 10
9402.694977008243
 20
716.25
 30
0.0
 40
120.0
  1
YOR
 41
0.7
  7
01
100
AcDbText
  0
TEXT
  5
23AF5
330
250A4
100
AcDbEntity
  8
NAME
100
AcDbText
 10
8327.765992739108
 20
716.25
 30
0.0
 40
120.0
  1
ヨド自転車置場      型
  7
01
100
AcDbText
  0
TEXT
  5
23AF6
330
250A4
100
AcDbEntity
  8
NAME
100
AcDbText
 10
8862.031985478221
 20
405.75
 30
0.0
 40
120.0
  1
型（一般地用）
 41
0.8
  7
01
100
AcDbText
  0
TEXT
  5
23AF7
330
250A4
100
AcDbEntity
  8
NAME
100
AcDbText
 10
8172.031985478223
 20
405.75
 30
0.0
 40
120.0
  1
YOR-240B
 41
0.7
  7
01
 72
     2
 11
8832.031985478222
 21
405.75
 31
0.0
100
AcDbText
  0
TEXT
  5
23AF8
330
250A4
100
AcDbEntity
  8
NAME
100
AcDbText
 10
9641.10000000001
 20
405.75
 30
0.0
 40
120.0
  1
<3／3>
 41
0.6
  7
01
 72
     2
 11
10015.50000000001
 21
405.75
 31
0.0
100
AcDbText
  0
LINE
  5
23AFA
330
250A4
100
AcDbEntity
  8
HATCH
100
AcDbLine
 10
1838.066929828396
 20
1570.744622953999
 30
0.0
 11
1888.066929828396
 21
1520.744622954
 31
0.0
  0
LINE
  5
23AFB
330
250A4
100
AcDbEntity
  8
HATCH
100
AcDbLine
 10
1597.765414638248
 20
1570.744622953999
 30
0.0
 11
1647.765414638248
 21
1520.744622954
 31
0.0
  0
LINE
  5
23AFC
330
250A4
100
AcDbEntity
  8
HATCH
100
AcDbLine
 10
1581.306080631059
 20
1557.505472151351
 30
0.0
 11
1618.066929828412
 21
1520.744622954
 31
0.0
  0
LINE
  5
23AFD
330
250A4
100
AcDbEntity
  8
HATCH
100
AcDbLine
 10
1867.765414638234
 20
1570.744622953999
 30
0.0
 11
1917.765414638241
 21
1520.744622954
 31
0.0
  0
LINE
  5
23AFE
330
250A4
100
AcDbEntity
  8
HATCH
100
AcDbLine
 10
1897.463899448077
 20
1570.744622954002
 30
0.0
 11
1947.463899448084
 21
1520.744622954002
 31
0.0
  0
LINE
  5
23AFF
330
250A4
100
AcDbEntity
  8
HATCH
100
AcDbLine
 10
1581.306080631053
 20
1527.806987341515
 30
0.0
 11
1588.368445018575
 21
1520.744622954
 31
0.0
  0
LINE
  5
23B01
330
250A4
100
AcDbEntity
  8
HATCH
100
AcDbLine
 10
2137.765414638227
 20
1570.744622953999
 30
0.0
 11
2187.765414638227
 21
1520.744622954
 31
0.0
  0
LINE
  5
23B02
330
250A4
100
AcDbEntity
  8
HATCH
100
AcDbLine
 10
2167.463899448062
 20
1570.744622953999
 30
0.0
 11
2217.46389944807
 21
1520.744622954
 31
0.0
  0
LINE
  5
23B03
330
250A4
100
AcDbEntity
  8
HATCH
100
AcDbLine
 10
2197.162384257907
 20
1570.744622954002
 30
0.0
 11
2247.162384257914
 21
1520.744622954002
 31
0.0
  0
LINE
  5
23B04
330
250A4
100
AcDbEntity
  8
HATCH
100
AcDbLine
 10
2437.463899448056
 20
1570.744622954002
 30
0.0
 11
2487.463899448056
 21
1520.744622954002
 31
0.0
  0
LINE
  5
23B05
330
250A4
100
AcDbEntity
  8
HATCH
100
AcDbLine
 10
2467.162384257885
 20
1570.744622954002
 30
0.0
 11
2517.162384257892
 21
1520.744622954002
 31
0.0
  0
LINE
  5
23B06
330
250A4
100
AcDbEntity
  8
HATCH
100
AcDbLine
 10
2496.860869067736
 20
1570.744622954004
 30
0.0
 11
2546.860869067742
 21
1520.744622954004
 31
0.0
  0
LINE
  5
23B07
330
250A4
100
AcDbEntity
  8
HATCH
100
AcDbLine
 10
2737.162384257885
 20
1570.744622954002
 30
0.0
 11
2787.162384257885
 21
1520.744622954002
 31
0.0
  0
LINE
  5
23B08
330
250A4
100
AcDbEntity
  8
HATCH
100
AcDbLine
 10
2766.860869067714
 20
1570.744622954002
 30
0.0
 11
2781.306080631052
 21
1556.299411390662
 31
0.0
  0
LINE
  5
24822
330
250A4
100
AcDbEntity
  8
DOMAKON
100
AcDbLine
 10
7796.040410277503
 20
4898.464770760362
 30
0.0
 11
4596.040410277502
 21
4898.464770760362
 31
0.0
  0
LINE
  5
24823
330
250A4
100
AcDbEntity
  8
DOMAKON
100
AcDbLine
 10
4596.040410277502
 20
4898.464770760362
 30
0.0
 11
4596.040410277502
 21
7138.464770760363
 31
0.0
  0
LINE
  5
24824
330
250A4
100
AcDbEntity
  8
DOMAKON
100
AcDbLine
 10
4596.040410277502
 20
7138.464770760363
 30
0.0
 11
7796.040410277503
 21
7138.464770760363
 31
0.0
  0
LINE
  5
24825
330
250A4
100
AcDbEntity
  8
DOMAKON
100
AcDbLine
 10
7796.040410277503
 20
7138.464770760363
 30
0.0
 11
7796.040410277503
 21
4898.464770760362
 31
0.0
  0
LINE
  5
24B4B
330
250A4
100
AcDbEntity
  8
SUNPOU
100
AcDbLine
 10
6340.055546028487
 20
2330.744622954003
 30
0.0
 11
7015.055546028489
 21
2330.744622954003
 31
0.0
  0
LINE
  5
24B4C
330
250A4
100
AcDbEntity
  8
SUNPOU
100
AcDbLine
 10
6340.055546028487
 20
1530.744622954002
 30
0.0
 11
7015.055546028489
 21
1530.744622954002
 31
0.0
  0
LINE
  5
24B4D
330
250A4
100
AcDbEntity
  8
SUNPOU
100
AcDbLine
 10
6310.055546028489
 20
1500.744622954002
 30
0.0
 11
6310.055546028489
 21
825.7446229540018
 31
0.0
  0
LINE
  5
24B4E
330
250A4
100
AcDbEntity
  8
SUNPOU
100
AcDbLine
 10
5310.055546028489
 20
1500.744622954002
 30
0.0
 11
5310.055546028489
 21
825.7446229540018
 31
0.0
  0
LINE
  5
24B4F
330
250A4
100
AcDbEntity
  8
SUNPOU
100
AcDbLine
 10
6295.055546028489
 20
870.7446229540019
 30
0.0
 11
5325.055546028488
 21
870.7446229540019
 31
0.0
  0
TEXT
  5
24B50
330
250A4
100
AcDbEntity
  8
SUNPOU
100
AcDbText
 10
5691.48411745706
 20
915.7446229540017
 30
0.0
 40
90.0
  1
1000
 41
0.6666666666666666
  7
00
 72
     1
 11
5810.055546028489
 21
960.7446229540018
 31
0.0
100
AcDbText
 73
     2
  0
LINE
  5
24B51
330
250A4
100
AcDbEntity
  8
SUNPOU
100
AcDbLine
 10
5280.055546028489
 20
2260.744622954002
 30
0.0
 11
4815.055546028489
 21
2260.744622954002
 31
0.0
  0
LINE
  5
24B52
330
250A4
100
AcDbEntity
  8
SUNPOU
100
AcDbLine
 10
5280.055546028489
 20
1600.744622954002
 30
0.0
 11
4815.055546028489
 21
1600.744622954002
 31
0.0
  0
TEXT
  5
24B53
330
250A4
100
AcDbEntity
  8
SUNPOU
100
AcDbText
 10
4815.055546028489
 20
1547.108247767375
 30
0.0
 40
90.0
  1
ベース筋
 50
90.0
  7
01
 72
     4
 11
4770.055546028489
 21
1751.108247767374
 31
0.0
100
AcDbText
  0
TEXT
  5
24B54
330
250A4
100
AcDbEntity
  8
SUNPOU
100
AcDbText
 10
4815.055546028489
 20
2009.743285302838
 30
0.0
 40
90.0
  1
5-D13
 50
90.0
 41
0.6666666666666666
  7
00
 72
     4
 11
4770.055546028489
 21
2162.600428159981
 31
0.0
100
AcDbText
  0
LINE
  5
24B55
330
250A4
100
AcDbEntity
  8
SUNPOU
100
AcDbLine
 10
5370.055546028488
 20
2360.744622954003
 30
0.0
 11
5370.055546028488
 21
2825.744622954003
 31
0.0
  0
LINE
  5
24B56
330
250A4
100
AcDbEntity
  8
SUNPOU
100
AcDbLine
 10
6250.055546028487
 20
2360.744622954003
 30
0.0
 11
6250.055546028487
 21
2825.744622954003
 31
0.0
  0
LINE
  5
24B57
330
250A4
100
AcDbEntity
  8
1PL-M1
100
AcDbLine
 10
6010.055546028489
 20
2405.744622954003
 30
0.0
 11
6010.055546028489
 21
1455.744622954002
 31
0.0
  0
LINE
  5
24B58
330
250A4
100
AcDbEntity
  8
U7
100
AcDbLine
 10
5380.055546028489
 20
1930.744622954003
 30
0.0
 11
6240.055546028488
 21
1930.744622954002
 31
0.0
  0
LINE
  5
24B59
330
250A4
100
AcDbEntity
  8
U7
100
AcDbLine
 10
5380.055546028489
 20
2095.744622954001
 30
0.0
 11
6240.055546028488
 21
2095.744622954001
 31
0.0
  0
LINE
  5
24B5A
330
250A4
100
AcDbEntity
  8
HIDE-M1
100
AcDbLine
 10
5770.055546028489
 20
2170.744622954003
 30
0.0
 11
6250.055546028487
 21
2170.744622954003
 31
0.0
  0
LINE
  5
24B5B
330
250A4
100
AcDbEntity
  8
U7
100
AcDbLine
 10
6250.055546028488
 20
1690.744622954002
 30
0.0
 11
5770.059221790803
 21
1690.744622954
 31
0.0
  0
LINE
  5
24B5C
330
250A4
100
AcDbEntity
  8
U7
100
AcDbLine
 10
5386.555546028489
 20
2260.744622954002
 30
0.0
 11
6233.555546028489
 21
2260.744622954002
 31
0.0
  0
LINE
  5
24B5D
330
250A4
100
AcDbEntity
  8
HATCH
100
AcDbLine
 10
6002.109544520404
 20
2330.744622954003
 30
0.0
 11
5602.109544520406
 21
1930.744622954002
 31
0.0
  0
LINE
  5
24B5E
330
250A4
100
AcDbEntity
  8
HATCH
100
AcDbLine
 10
6031.80802933024
 20
2330.744622954003
 30
0.0
 11
5631.808029330233
 21
1930.744622954002
 31
0.0
  0
LINE
  5
24B5F
330
250A4
100
AcDbEntity
  8
HATCH
100
AcDbLine
 10
5972.411059710569
 20
2330.744622954003
 30
0.0
 11
5572.411059710567
 21
1930.744622954002
 31
0.0
  0
LINE
  5
24B60
330
250A4
100
AcDbEntity
  8
SUNPOU
100
AcDbLine
 10
5785.055546028488
 20
1080.744622954002
 30
0.0
 11
6235.055546028489
 21
1080.744622954002
 31
0.0
  0
LINE
  5
24B61
330
250A4
100
AcDbEntity
  8
1PL-M1
100
AcDbLine
 10
6385.055546028489
 20
1930.744622954002
 30
0.0
 11
5235.055546028489
 21
1930.744622954002
 31
0.0
  0
LINE
  5
24B63
330
250A4
100
AcDbEntity
  8
U7
100
AcDbLine
 10
5770.059221790803
 20
1690.744622954
 30
0.0
 11
5770.055546028489
 21
1930.744622954002
 31
0.0
  0
LINE
  5
24B64
330
250A4
100
AcDbEntity
  8
SUNPOU
100
AcDbLine
 10
4860.055546028489
 20
2245.744622954001
 30
0.0
 11
4860.055546028489
 21
1615.744622954002
 31
0.0
  0
LINE
  5
24B65
330
250A4
100
AcDbEntity
  8
SUNPOU
100
AcDbLine
 10
5770.055546028489
 20
1660.744622954002
 30
0.0
 11
5770.055546028489
 21
1035.744622954002
 31
0.0
  0
LINE
  5
24B66
330
250A4
100
AcDbEntity
  8
HATCH
100
AcDbLine
 10
5729.754030838325
 20
2328.389109271927
 30
0.0
 11
5332.109544520403
 21
1930.744622954002
 31
0.0
  0
LINE
  5
24B67
330
250A4
100
AcDbEntity
  8
HATCH
100
AcDbLine
 10
5672.712574900739
 20
2330.744622954003
 30
0.0
 11
5310.055546028489
 21
1968.087594081756
 31
0.0
  0
LINE
  5
24B68
330
250A4
100
AcDbEntity
  8
HATCH
100
AcDbLine
 10
5702.411059710567
 20
2330.744622954003
 30
0.0
 11
5310.055546028489
 21
1938.389109271921
 31
0.0
  0
LINE
  5
24B69
330
250A4
100
AcDbEntity
  8
HATCH
100
AcDbLine
 10
5432.411059710577
 20
2330.744622954003
 30
0.0
 11
5310.055546028489
 21
2208.389109271924
 31
0.0
  0
LINE
  5
24B6A
330
250A4
100
AcDbEntity
  8
HATCH
100
AcDbLine
 10
5402.712574900739
 20
2330.744622954003
 30
0.0
 11
5310.055546028489
 21
2238.087594081755
 31
0.0
  0
LINE
  5
24B6B
330
250A4
100
AcDbEntity
  8
HATCH
100
AcDbLine
 10
5373.014090090903
 20
2330.744622954003
 30
0.0
 11
5310.055546028489
 21
2267.786078891593
 31
0.0
  0
LINE
  5
24B6C
330
250A4
100
AcDbEntity
  8
U7
100
AcDbLine
 10
5724.055546028488
 20
1930.744622954002
 30
0.0
 11
5724.055546028488
 21
2260.744622954002
 31
0.0
  0
LINE
  5
24B6D
330
250A4
100
AcDbEntity
  8
U7
100
AcDbLine
 10
5552.055546028489
 20
1930.744622954003
 30
0.0
 11
5552.055546028489
 21
2260.744622954002
 31
0.0
  0
LINE
  5
24B6E
330
250A4
100
AcDbEntity
  8
HIDE-M1
100
AcDbLine
 10
5770.055546028489
 20
1930.744622954002
 30
0.0
 11
5770.055546028489
 21
2170.744622954003
 31
0.0
  0
LINE
  5
24B6F
330
250A4
100
AcDbEntity
  8
U7
100
AcDbLine
 10
5380.055546028489
 20
1930.744622954002
 30
0.0
 11
5380.055546028489
 21
2254.244622954002
 31
0.0
  0
ARC
  5
24B71
330
250A4
100
AcDbEntity
  8
U7
100
AcDbCircle
 10
5386.555546028489
 20
2254.244622954002
 30
0.0
 40
6.5
100
AcDbArc
 50
90.0
 51
180.0
  0
LINE
  5
24B72
330
250A4
100
AcDbEntity
  8
SUNPOU
100
AcDbLine
 10
6760.055546028488
 20
1705.744622954002
 30
0.0
 11
6760.055546028488
 21
2155.744622954002
 31
0.0
  0
LINE
  5
24B73
330
250A4
100
AcDbEntity
  8
U7
100
AcDbLine
 10
6250.055546028487
 20
1930.744622954002
 30
0.0
 11
6250.055546028488
 21
1690.744622954002
 31
0.0
  0
LINE
  5
24B74
330
250A4
100
AcDbEntity
  8
SUNPOU
100
AcDbLine
 10
6280.055546028489
 20
1690.744622954002
 30
0.0
 11
6805.055546028488
 21
1690.744622954002
 31
0.0
  0
LINE
  5
24B75
330
250A4
100
AcDbEntity
  8
SUNPOU
100
AcDbLine
 10
6250.055546028487
 20
1660.744622954002
 30
0.0
 11
6250.055546028487
 21
1035.744622954002
 31
0.0
  0
TEXT
  5
24B76
330
250A4
100
AcDbEntity
  8
SUNPOU
100
AcDbText
 10
5924.341260314204
 20
1125.744622954002
 30
0.0
 40
90.0
  1
480
 41
0.6666666666666666
  7
00
 72
     1
 11
6010.055546028489
 21
1170.744622954002
 31
0.0
100
AcDbText
 73
     2
  0
LINE
  5
24B77
330
250A4
100
AcDbEntity
  8
SUNPOU
100
AcDbLine
 10
6280.055546028489
 20
2170.744622954003
 30
0.0
 11
6805.055546028488
 21
2170.744622954003
 31
0.0
  0
LINE
  5
24B78
330
250A4
100
AcDbEntity
  8
U7
100
AcDbLine
 10
6068.055546028489
 20
1930.744622954002
 30
0.0
 11
6068.055546028489
 21
2260.744622954002
 31
0.0
  0
LINE
  5
24B79
330
250A4
100
AcDbEntity
  8
U7
100
AcDbLine
 10
5896.055546028488
 20
1930.744622954002
 30
0.0
 11
5896.055546028488
 21
2260.744622954002
 31
0.0
  0
LINE
  5
24B7A
330
250A4
100
AcDbEntity
  8
HATCH
100
AcDbLine
 10
6272.109544520397
 20
2330.744622954003
 30
0.0
 11
5872.109544520396
 21
1930.744622954002
 31
0.0
  0
LINE
  5
24B7B
330
250A4
100
AcDbEntity
  8
U7
100
AcDbLine
 10
6240.055546028488
 20
2254.244622954002
 30
0.0
 11
6240.055546028488
 21
1930.744622954002
 31
0.0
  0
LINE
  5
24B7C
330
250A4
100
AcDbEntity
  8
HIDE-M1
100
AcDbLine
 10
6250.055546028487
 20
1930.744622954002
 30
0.0
 11
6250.055546028487
 21
2170.744622954003
 31
0.0
  0
LINE
  5
24B7D
330
250A4
100
AcDbEntity
  8
HATCH
100
AcDbLine
 10
6301.80802933024
 20
2330.744622954003
 30
0.0
 11
5901.80802933024
 21
1930.744622954002
 31
0.0
  0
LINE
  5
24B7E
330
250A4
100
AcDbEntity
  8
HATCH
100
AcDbLine
 10
6310.055546028496
 20
2309.293654842421
 30
0.0
 11
5931.506514140071
 21
1930.744622954002
 31
0.0
  0
LINE
  5
24B7F
330
250A4
100
AcDbEntity
  8
HATCH
100
AcDbLine
 10
6310.055546028496
 20
2068.992139652261
 30
0.0
 11
6171.808029330232
 21
1930.744622954002
 31
0.0
  0
LINE
  5
24B81
330
250A4
100
AcDbEntity
  8
HATCH
100
AcDbLine
 10
6310.055546028496
 20
2039.293654842426
 30
0.0
 11
6201.506514140071
 21
1930.744622954002
 31
0.0
  0
LINE
  5
24B82
330
250A4
100
AcDbEntity
  8
HATCH
100
AcDbLine
 10
6310.055546028496
 20
2009.595170032593
 30
0.0
 11
6231.204998949898
 21
1930.744622954002
 31
0.0
  0
ARC
  5
24B83
330
250A4
100
AcDbEntity
  8
U7
100
AcDbCircle
 10
6233.555546028489
 20
2254.244622954002
 30
0.0
 40
6.5
100
AcDbArc
 50
0.0
 51
90.0
  0
TEXT
  5
24B84
330
250A4
100
AcDbEntity
  8
SUNPOU
100
AcDbText
 10
6715.055546028489
 20
1845.030337239716
 30
0.0
 40
90.0
  1
480
 50
90.0
 41
0.6666666666666666
  7
00
 72
     1
 11
6670.055546028489
 21
1930.744622954002
 31
0.0
100
AcDbText
 73
     2
  0
LINE
  5
24B85
330
250A4
100
AcDbEntity
  8
SUNPOU
100
AcDbLine
 10
5385.055546028489
 20
2780.744622954003
 30
0.0
 11
6235.055546028489
 21
2780.744622954003
 31
0.0
  0
LINE
  5
24B86
330
250A4
100
AcDbEntity
  8
SUNPOU
100
AcDbLine
 10
6970.055546028489
 20
1545.744622954002
 30
0.0
 11
6970.055546028489
 21
2315.744622954003
 31
0.0
  0
TEXT
  5
24B87
330
250A4
100
AcDbEntity
  8
SUNPOU
100
AcDbText
 10
6925.055546028487
 20
1845.030337239716
 30
0.0
 40
90.0
  1
800
 50
90.0
 41
0.6666666666666666
  7
00
 72
     1
 11
6880.055546028488
 21
1930.744622954002
 31
0.0
100
AcDbText
 73
     2
  0
TEXT
  5
24B88
330
250A4
100
AcDbEntity
  8
SUNPOU
100
AcDbText
 10
5445.33416311624
 20
2825.744622954003
 30
0.0
 40
90.0
  1
ベース筋
  7
01
 72
     4
 11
5649.33416311624
 21
2870.744622954004
 31
0.0
100
AcDbText
  0
TEXT
  5
24B89
330
250A4
100
AcDbEntity
  8
SUNPOU
100
AcDbText
 10
5898.708076870588
 20
2825.744622954003
 30
0.0
 40
90.0
  1
6-D13
 41
0.6666666666666666
  7
00
 72
     4
 11
6052.993791156303
 21
2870.744622954004
 31
0.0
100
AcDbText
  0
LINE
  5
24B8B
330
250A4
100
AcDbEntity
  8
SUNPOU
100
AcDbLine
 10
4860.055546028489
 20
1611.994622954002
 30
0.0
 11
4860.055546028489
 21
1623.244622954002
 31
0.0
  0
LINE
  5
24B8D
330
250A4
100
AcDbEntity
  8
SUNPOU
100
AcDbLine
 10
5781.305546028487
 20
1080.744622954002
 30
0.0
 11
5792.555546028489
 21
1080.744622954002
 31
0.0
  0
LINE
  5
24B8F
330
250A4
100
AcDbEntity
  8
SUNPOU
100
AcDbLine
 10
6238.805546028489
 20
1080.744622954002
 30
0.0
 11
6227.555546028487
 21
1080.744622954002
 31
0.0
  0
LINE
  5
24B91
330
250A4
100
AcDbEntity
  8
SUNPOU
100
AcDbLine
 10
4860.055546028489
 20
2249.494622954002
 30
0.0
 11
4860.055546028489
 21
2238.244622954002
 31
0.0
  0
LINE
  5
24B93
330
250A4
100
AcDbEntity
  8
SUNPOU
100
AcDbLine
 10
5381.305546028489
 20
2780.744622954003
 30
0.0
 11
5392.555546028489
 21
2780.744622954003
 31
0.0
  0
LINE
  5
24B95
330
250A4
100
AcDbEntity
  8
SUNPOU
100
AcDbLine
 10
6238.805546028489
 20
2780.744622954003
 30
0.0
 11
6227.555546028487
 21
2780.744622954003
 31
0.0
  0
LINE
  5
24B97
330
250A4
100
AcDbEntity
  8
SUNPOU
100
AcDbLine
 10
6970.055546028489
 20
1541.994622954002
 30
0.0
 11
6970.055546028489
 21
1553.244622954002
 31
0.0
  0
LINE
  5
24B99
330
250A4
100
AcDbEntity
  8
SUNPOU
100
AcDbLine
 10
6760.055546028488
 20
1701.994622954002
 30
0.0
 11
6760.055546028488
 21
1713.244622954002
 31
0.0
  0
LINE
  5
24B9B
330
250A4
100
AcDbEntity
  8
SUNPOU
100
AcDbLine
 10
6760.055546028488
 20
2159.494622954003
 30
0.0
 11
6760.055546028488
 21
2148.244622954002
 31
0.0
  0
LINE
  5
24B9D
330
250A4
100
AcDbEntity
  8
SUNPOU
100
AcDbLine
 10
6970.055546028489
 20
2319.494622954003
 30
0.0
 11
6970.055546028489
 21
2308.244622954001
 31
0.0
  0
LINE
  5
24B9F
330
250A4
100
AcDbEntity
  8
SUNPOU
100
AcDbLine
 10
6298.805546028489
 20
870.7446229540019
 30
0.0
 11
6287.555546028489
 21
870.7446229540019
 31
0.0
  0
LINE
  5
24BA1
330
250A4
100
AcDbEntity
  8
SUNPOU
100
AcDbLine
 10
5321.305546028488
 20
870.7446229540019
 30
0.0
 11
5332.555546028489
 21
870.7446229540019
 31
0.0
  0
TEXT
  5
24D07
330
250A4
100
AcDbEntity
  8
FILENAME
100
AcDbText
 10
10469.35714285714
 20
130.4999999999999
 30
0.0
 40
75.0
  1
＜YOR-240B-1_3_JIS_GL.DXF ＞
  7
FILENAME
 72
     2
 11
12286.5
 21
130.4999999999999
 31
0.0
100
AcDbText
  0
LINE
  5
24D0A
330
250A4
100
AcDbEntity
  8
WAKUSEN-01
100
AcDbLine
 10
325.5000000000006
 20
310.4999999999998
 30
0.0
 11
12286.5
 21
310.4999999999998
 31
0.0
  0
LINE
  5
24D0B
330
250A4
100
AcDbEntity
  8
WAKUSEN-01
100
AcDbLine
 10
325.5000000000006
 20
8431.500000000005
 30
0.0
 11
12286.5
 21
8431.500000000005
 31
0.0
  0
LINE
  5
24D0C
330
250A4
100
AcDbEntity
  8
WAKUSEN-01
100
AcDbLine
 10
325.5000000000006
 20
310.4999999999998
 30
0.0
 11
325.5000000000006
 21
8431.500000000005
 31
0.0
  0
LINE
  5
24D0D
330
250A4
100
AcDbEntity
  8
WAKUSEN-01
100
AcDbLine
 10
12286.5
 20
310.4999999999998
 30
0.0
 11
12286.5
 21
8431.500000000005
 31
0.0
  0
LINE
  5
24D0E
330
250A4
100
AcDbEntity
  8
WAKUSEN-01
100
AcDbLine
 10
7710.0
 20
931.4999999999999
 30
0.0
 11
12286.5
 21
931.4999999999995
 31
0.0
  0
LINE
  5
24D0F
330
250A4
100
AcDbEntity
  8
WAKUSEN-02
100
AcDbLine
 10
7710.0
 20
620.9999999999999
 30
0.0
 11
10075.49999999999
 21
620.9999999999999
 31
0.0
  0
TEXT
  5
24D10
330
250A4
100
AcDbEntity
  8
WAKUMOJI-01
100
AcDbText
 10
7751.347597486038
 20
797.2136285022457
 30
0.0
 40
90.0
  1
名　称
  7
WAKUMOJI
100
AcDbText
  0
TEXT
  5
24D11
330
250A4
100
AcDbEntity
  8
WAKUMOJI-01
100
AcDbText
 10
7746.18955690947
 20
494.673365617433
 30
0.0
 40
90.0
  1
機種名
  7
WAKUMOJI
100
AcDbText
  0
LINE
  5
24D12
330
250A4
100
AcDbEntity
  8
WAKUSEN-01
100
AcDbLine
 10
7710.0
 20
310.499999999999
 30
0.0
 11
7710.0
 21
931.4999999999999
 31
0.0
  0
LINE
  5
24D13
330
250A4
100
AcDbEntity
  8
WAKUSEN-02
100
AcDbLine
 10
10075.49999999999
 20
310.4999999999973
 30
0.0
 11
10075.49999999999
 21
931.4999999999999
 31
0.0
  0
LINE
  5
24D14
330
250A4
100
AcDbEntity
  8
YODOROGO
100
AcDbLine
 10
11241.60162798446
 20
748.4060611609828
 30
0.0
 11
11186.10162798447
 21
748.4060611609828
 31
0.0
1001
AUTOCAD_POSTSCRIPT_FIGURE
1002
{
1000
PSFILL
1000
Grayscale
1000
Grayscale
1070
    25
1002
}
  0
LINE
  5
24D15
330
250A4
100
AcDbEntity
  8
YODOROGO
100
AcDbLine
 10
11186.10162798447
 20
730.406061160983
 30
0.0
 11
11241.60162798446
 21
730.406061160983
 31
0.0
1001
AUTOCAD_POSTSCRIPT_FIGURE
1002
{
1000
PSFILL
1000
Grayscale
1000
Grayscale
1070
    25
1002
}
  0
LINE
  5
24D16
330
250A4
100
AcDbEntity
  8
YODOROGO
100
AcDbLine
 10
11241.60162798446
 20
715.4060611609828
 30
0.0
 11
11186.10162798447
 21
715.4060611609828
 31
0.0
1001
AUTOCAD_POSTSCRIPT_FIGURE
1002
{
1000
PSFILL
1000
Grayscale
1000
Grayscale
1070
    25
1002
}
  0
LINE
  5
24D17
330
250A4
100
AcDbEntity
  8
YODOROGO
100
AcDbLine
 10
11186.10162798447
 20
697.406061160983
 30
0.0
 11
11241.60162798446
 21
697.406061160983
 31
0.0
1001
AUTOCAD_POSTSCRIPT_FIGURE
1002
{
1000
PSFILL
1000
Grayscale
1000
Grayscale
1070
    25
1002
}
  0
LINE
  5
24D18
330
250A4
100
AcDbEntity
  8
YODOROGO
100
AcDbLine
 10
11241.60162798446
 20
682.4060611609829
 30
0.0
 11
11186.10162798447
 21
682.4060611609829
 31
0.0
1001
AUTOCAD_POSTSCRIPT_FIGURE
1002
{
1000
PSFILL
1000
Grayscale
1000
Grayscale
1070
    25
1002
}
  0
LINE
  5
24D19
330
250A4
100
AcDbEntity
  8
YODOROGO
100
AcDbLine
 10
11220.60162798447
 20
640.4060611609828
 30
0.0
 11
11241.60162798446
 21
640.4060611609828
 31
0.0
1001
AUTOCAD_POSTSCRIPT_FIGURE
1002
{
1000
PSFILL
1000
Grayscale
1000
Grayscale
1070
    25
1002
}
  0
LINE
  5
24D1A
330
250A4
100
AcDbEntity
  8
YODOROGO
100
AcDbLine
 10
11151.60162798447
 20
535.4060611609829
 30
0.0
 11
11226.60162798446
 21
555.5022505933164
 31
0.0
  0
LINE
  5
24D1B
330
250A4
100
AcDbEntity
  8
YODOROGO
100
AcDbLine
 10
11231.10162798446
 20
640.4060611609828
 30
0.0
 11
11207.10162798447
 21
640.4060611609828
 31
0.0
  0
ARC
  5
24D1C
330
250A4
100
AcDbEntity
  8
YODOROGO
100
AcDbCircle
 10
11345.38040618545
 20
677.9492284624735
 30
0.0
 40
143.2075740771177
100
AcDbArc
 50
213.9611167766784
 51
264.4787207431779
  0
ARC
  5
24D1D
330
250A4
100
AcDbEntity
  8
YODOROGO
100
AcDbCircle
 10
11345.38040618547
 20
677.9492284624882
 30
0.0
 40
143.2075740771305
100
AcDbArc
 50
208.141144204866
 51
212.9210361185995
  0
LINE
  5
24D1E
330
250A4
100
AcDbEntity
  8
YODOROGO
100
AcDbLine
 10
11164.27870236949
 20
583.8028730048376
 30
0.0
 11
11225.1690496907
 21
600.1183923964076
 31
0.0
  0
LINE
  5
24D1F
330
250A4
100
AcDbEntity
  8
YODOROGO
100
AcDbLine
 10
11151.60162798447
 20
535.4060611609829
 30
0.0
 11
11226.60162798446
 21
555.5022505933164
 31
0.0
  0
LINE
  5
24D20
330
250A4
100
AcDbEntity
  8
YODOROGO
100
AcDbLine
 10
11231.10162798446
 20
640.4060611609828
 30
0.0
 11
11207.10162798447
 21
640.4060611609828
 31
0.0
  0
ARC
  5
24D21
330
250A4
100
AcDbEntity
  8
YODOROGO
100
AcDbCircle
 10
11345.38040618545
 20
677.9492284624735
 30
0.0
 40
143.2075740771177
100
AcDbArc
 50
213.9611167766784
 51
264.4787207431779
  0
LINE
  5
24D22
330
250A4
100
AcDbEntity
  8
YODOROGO
100
AcDbLine
 10
10797.60162798445
 20
682.4060611609829
 30
0.0
 11
10662.60162798446
 21
682.4060611609829
 31
0.0
  0
LINE
  5
24D23
330
250A4
100
AcDbEntity
  8
YODOROGO
100
AcDbLine
 10
10692.60162798445
 20
535.4060611609829
 30
0.0
 11
10797.60162798445
 21
535.4060611609829
 31
0.0
  0
LINE
  5
24D24
330
250A4
100
AcDbEntity
  8
YODOROGO
100
AcDbLine
 10
10773.60162798447
 20
721.4060611609826
 30
0.0
 11
10686.60162798446
 21
721.4060611609826
 31
0.0
  0
LINE
  5
24D25
330
250A4
100
AcDbEntity
  8
YODOROGO
100
AcDbLine
 10
10719.60162798446
 20
760.4060611609829
 30
0.0
 11
10746.60162798447
 21
760.4060611609829
 31
0.0
  0
LINE
  5
24D26
330
250A4
100
AcDbEntity
  8
YODOROGO
100
AcDbLine
 10
10662.60162798446
 20
640.4060611609828
 30
0.0
 11
10662.60162798446
 21
565.4060611609828
 31
0.0
  0
LINE
  5
24D27
330
250A4
100
AcDbEntity
  8
YODOROGO
100
AcDbLine
 10
10686.60162798446
 20
586.4060611609826
 30
0.0
 11
10686.60162798446
 21
640.4060611609828
 31
0.0
  0
LINE
  5
24D28
330
250A4
100
AcDbEntity
  8
YODOROGO
100
AcDbLine
 10
10719.60162798446
 20
655.4060611609838
 30
0.0
 11
10719.60162798446
 21
580.406061160983
 31
0.0
  0
LINE
  5
24D29
330
250A4
100
AcDbEntity
  8
YODOROGO
100
AcDbLine
 10
10446.60162798447
 20
631.4060611609833
 30
0.0
 11
10416.60162798446
 21
607.4896552667143
 31
0.0
  0
LINE
  5
24D2A
330
250A4
100
AcDbEntity
  8
YODOROGO
100
AcDbLine
 10
10476.60162798446
 20
607.4896552667143
 30
0.0
 11
10446.60162798447
 21
631.4060611609833
 31
0.0
  0
LINE
  5
24D2B
330
250A4
100
AcDbEntity
  8
YODOROGO
100
AcDbLine
 10
10446.60162798447
 20
640.4060611609828
 30
0.0
 11
10476.60162798446
 21
616.4896552667137
 31
0.0
  0
LINE
  5
24D2C
330
250A4
100
AcDbEntity
  8
YODOROGO
100
AcDbLine
 10
10416.60162798446
 20
616.4896552667137
 30
0.0
 11
10446.60162798447
 21
640.4060611609828
 31
0.0
  0
LINE
  5
24D2D
330
250A4
100
AcDbEntity
  8
YODOROGO
100
AcDbLine
 10
10515.34245150633
 20
622.406061160983
 30
0.0
 11
10515.34245150633
 21
631.4060611609826
 31
0.0
  0
LINE
  5
24D2E
330
250A4
100
AcDbEntity
  8
YODOROGO
100
AcDbLine
 10
10491.60162798447
 20
631.4060611609826
 30
0.0
 11
10491.60162798447
 21
625.4060611609819
 31
0.0
  0
LINE
  5
24D2F
330
250A4
100
AcDbEntity
  8
YODOROGO
100
AcDbLine
 10
10536.8008200866
 20
640.4060611609828
 30
0.0
 11
10536.8008200866
 21
620.813863977996
 31
0.0
1001
AUTOCAD_POSTSCRIPT_FIGURE
1002
{
1000
PSFILL
1000
Grayscale
1000
Grayscale
1070
   100
1002
}
  0
LINE
  5
24D30
330
250A4
100
AcDbEntity
  8
YODOROGO
100
AcDbLine
 10
10530.80082008658
 20
620.813863977996
 30
0.0
 11
10530.80082008658
 21
640.4060611609828
 31
0.0
1001
AUTOCAD_POSTSCRIPT_FIGURE
1002
{
1000
PSFILL
1000
Grayscale
1000
Grayscale
1070
   100
1002
}
  0
LINE
  5
24D31
330
250A4
100
AcDbEntity
  8
YODOROGO
100
AcDbLine
 10
10428.60162798447
 20
603.2894640162218
 30
0.0
 11
10428.60162798447
 21
612.2894640162222
 31
0.0
  0
LINE
  5
24D32
330
250A4
100
AcDbEntity
  8
YODOROGO
100
AcDbLine
 10
10464.60162798447
 20
603.2894640162218
 30
0.0
 11
10428.60162798447
 21
603.2894640162218
 31
0.0
  0
LINE
  5
24D33
330
250A4
100
AcDbEntity
  8
YODOROGO
100
AcDbLine
 10
10464.60162798447
 20
612.2894640162222
 30
0.0
 11
10464.60162798447
 21
603.2894640162218
 31
0.0
  0
LINE
  5
24D34
330
250A4
100
AcDbEntity
  8
YODOROGO
100
AcDbLine
 10
10428.60162798447
 20
612.2894640162222
 30
0.0
 11
10464.60162798447
 21
612.2894640162222
 31
0.0
  0
LINE
  5
24D35
330
250A4
100
AcDbEntity
  8
YODOROGO
100
AcDbLine
 10
10434.1910958434
 20
588.1885715139279
 30
0.0
 11
10419.60162798446
 21
553.4060611609826
 31
0.0
1001
AUTOCAD_POSTSCRIPT_FIGURE
1002
{
1000
PSFILL
1000
Grayscale
1000
Grayscale
1070
   100
1002
}
  0
LINE
  5
24D36
330
250A4
100
AcDbEntity
  8
YODOROGO
100
AcDbLine
 10
10416.60162798446
 20
588.1885715139279
 30
0.0
 11
10434.1910958434
 21
588.1885715139279
 31
0.0
1001
AUTOCAD_POSTSCRIPT_FIGURE
1002
{
1000
PSFILL
1000
Grayscale
1000
Grayscale
1070
   100
1002
}
  0
LINE
  5
24D37
330
250A4
100
AcDbEntity
  8
YODOROGO
100
AcDbLine
 10
10416.60162798446
 20
595.688571513928
 30
0.0
 11
10416.60162798446
 21
588.1885715139279
 31
0.0
1001
AUTOCAD_POSTSCRIPT_FIGURE
1002
{
1000
PSFILL
1000
Grayscale
1000
Grayscale
1070
   100
1002
}
  0
LINE
  5
24D38
330
250A4
100
AcDbEntity
  8
YODOROGO
100
AcDbLine
 10
10476.60162798446
 20
595.688571513928
 30
0.0
 11
10416.60162798446
 21
595.688571513928
 31
0.0
1001
AUTOCAD_POSTSCRIPT_FIGURE
1002
{
1000
PSFILL
1000
Grayscale
1000
Grayscale
1070
   100
1002
}
  0
LINE
  5
24D39
330
250A4
100
AcDbEntity
  8
YODOROGO
100
AcDbLine
 10
10476.60162798446
 20
588.1885715139279
 30
0.0
 11
10476.60162798446
 21
595.688571513928
 31
0.0
1001
AUTOCAD_POSTSCRIPT_FIGURE
1002
{
1000
PSFILL
1000
Grayscale
1000
Grayscale
1070
   100
1002
}
  0
LINE
  5
24D3A
330
250A4
100
AcDbEntity
  8
YODOROGO
100
AcDbLine
 10
10441.69109584339
 20
588.1885715139279
 30
0.0
 11
10476.60162798446
 21
588.1885715139279
 31
0.0
1001
AUTOCAD_POSTSCRIPT_FIGURE
1002
{
1000
PSFILL
1000
Grayscale
1000
Grayscale
1070
   100
1002
}
  0
LINE
  5
24D3B
330
250A4
100
AcDbEntity
  8
YODOROGO
100
AcDbLine
 10
10430.83001935679
 20
560.9060611609826
 30
0.0
 11
10441.69109584339
 21
588.1885715139279
 31
0.0
1001
AUTOCAD_POSTSCRIPT_FIGURE
1002
{
1000
PSFILL
1000
Grayscale
1000
Grayscale
1070
   100
1002
}
  0
LINE
  5
24D3C
330
250A4
100
AcDbEntity
  8
YODOROGO
100
AcDbLine
 10
10463.27054655324
 20
560.9060611609826
 30
0.0
 11
10430.83001935679
 21
560.9060611609826
 31
0.0
1001
AUTOCAD_POSTSCRIPT_FIGURE
1002
{
1000
PSFILL
1000
Grayscale
1000
Grayscale
1070
   100
1002
}
  0
LINE
  5
24D3D
330
250A4
100
AcDbEntity
  8
YODOROGO
100
AcDbLine
 10
10456.8993767966
 20
576.0876790116348
 30
0.0
 11
10463.27054655324
 21
560.9060611609826
 31
0.0
1001
AUTOCAD_POSTSCRIPT_FIGURE
1002
{
1000
PSFILL
1000
Grayscale
1000
Grayscale
1070
   100
1002
}
  0
LINE
  5
24D3E
330
250A4
100
AcDbEntity
  8
YODOROGO
100
AcDbLine
 10
10462.89937679661
 20
576.0876790116348
 30
0.0
 11
10456.8993767966
 21
576.0876790116348
 31
0.0
1001
AUTOCAD_POSTSCRIPT_FIGURE
1002
{
1000
PSFILL
1000
Grayscale
1000
Grayscale
1070
   100
1002
}
  0
LINE
  5
24D3F
330
250A4
100
AcDbEntity
  8
YODOROGO
100
AcDbLine
 10
10473.60162798447
 20
553.4060611609826
 30
0.0
 11
10462.89937679661
 21
576.0876790116348
 31
0.0
1001
AUTOCAD_POSTSCRIPT_FIGURE
1002
{
1000
PSFILL
1000
Grayscale
1000
Grayscale
1070
   100
1002
}
  0
LINE
  5
24D40
330
250A4
100
AcDbEntity
  8
YODOROGO
100
AcDbLine
 10
10419.60162798446
 20
553.4060611609826
 30
0.0
 11
10473.60162798447
 21
553.4060611609826
 31
0.0
1001
AUTOCAD_POSTSCRIPT_FIGURE
1002
{
1000
PSFILL
1000
Grayscale
1000
Grayscale
1070
   100
1002
}
  0
LINE
  5
24D41
330
250A4
100
AcDbEntity
  8
YODOROGO
100
AcDbLine
 10
10416.60162798446
 20
607.4896552667143
 30
0.0
 11
10416.60162798446
 21
616.4896552667137
 31
0.0
  0
LINE
  5
24D42
330
250A4
100
AcDbEntity
  8
YODOROGO
100
AcDbLine
 10
10476.60162798446
 20
616.4896552667137
 30
0.0
 11
10476.60162798446
 21
607.4896552667143
 31
0.0
  0
ARC
  5
24D43
330
250A4
100
AcDbEntity
  8
YODOROGO
100
AcDbCircle
 10
10584.72766580511
 20
600.3291619969972
 30
0.0
 40
65.99999999999997
100
AcDbArc
 50
280.3644312771313
 51
3.541483659218056
  0
ARC
  5
24D44
330
250A4
100
AcDbEntity
  8
YODOROGO
100
AcDbCircle
 10
10588.40851153474
 20
612.5991776107142
 30
0.0
 40
41.99999999999936
100
AcDbArc
 50
281.2490582504155
 51
348.7509417495832
  0
LINE
  5
24D45
330
250A4
100
AcDbEntity
  8
YODOROGO
100
AcDbLine
 10
10596.60162798446
 20
571.4060611609826
 30
0.0
 11
10596.60162798446
 21
535.4060611609829
 31
0.0
  0
LINE
  5
24D46
330
250A4
100
AcDbEntity
  8
YODOROGO
100
AcDbLine
 10
10507.53333890132
 20
603.9939618982182
 30
0.0
 11
10515.34245150633
 21
622.406061160983
 31
0.0
  0
LINE
  5
24D47
330
250A4
100
AcDbEntity
  8
YODOROGO
100
AcDbLine
 10
10515.60162798445
 20
593.6701837306506
 30
0.0
 11
10507.53333890132
 21
603.9939618982182
 31
0.0
  0
LINE
  5
24D48
330
250A4
100
AcDbEntity
  8
YODOROGO
100
AcDbLine
 10
10515.60162798445
 20
586.1701837306497
 30
0.0
 11
10515.60162798445
 21
593.6701837306506
 31
0.0
  0
LINE
  5
24D49
330
250A4
100
AcDbEntity
  8
YODOROGO
100
AcDbLine
 10
10506.60162798447
 20
594.4638989060739
 30
0.0
 11
10515.60162798445
 21
586.1701837306497
 31
0.0
  0
LINE
  5
24D4A
330
250A4
100
AcDbEntity
  8
YODOROGO
100
AcDbLine
 10
10506.60162798447
 20
553.4060611609826
 30
0.0
 11
10506.60162798447
 21
594.4638989060739
 31
0.0
  0
LINE
  5
24D4B
330
250A4
100
AcDbEntity
  8
YODOROGO
100
AcDbLine
 10
10500.60162798446
 20
553.4060611609826
 30
0.0
 11
10506.60162798447
 21
553.4060611609826
 31
0.0
  0
LINE
  5
24D4C
330
250A4
100
AcDbEntity
  8
YODOROGO
100
AcDbLine
 10
10500.60162798446
 20
592.5020061336555
 30
0.0
 11
10500.60162798446
 21
553.4060611609826
 31
0.0
  0
LINE
  5
24D4D
330
250A4
100
AcDbEntity
  8
YODOROGO
100
AcDbLine
 10
10491.60162798447
 20
574.7880296375358
 30
0.0
 11
10500.60162798446
 21
592.5020061336555
 31
0.0
  0
LINE
  5
24D4E
330
250A4
100
AcDbEntity
  8
YODOROGO
100
AcDbLine
 10
10491.60162798447
 20
583.788029637536
 30
0.0
 11
10491.60162798447
 21
574.7880296375358
 31
0.0
  0
LINE
  5
24D4F
330
250A4
100
AcDbEntity
  8
YODOROGO
100
AcDbLine
 10
10509.68579035925
 20
625.4060611609819
 30
0.0
 11
10491.60162798447
 21
583.788029637536
 31
0.0
  0
LINE
  5
24D50
330
250A4
100
AcDbEntity
  8
YODOROGO
100
AcDbLine
 10
10491.60162798447
 20
625.4060611609819
 30
0.0
 11
10509.68579035925
 21
625.4060611609819
 31
0.0
  0
LINE
  5
24D51
330
250A4
100
AcDbEntity
  8
YODOROGO
100
AcDbLine
 10
10518.80082008659
 20
620.813863977996
 30
0.0
 11
10530.80082008658
 21
620.813863977996
 31
0.0
1001
AUTOCAD_POSTSCRIPT_FIGURE
1002
{
1000
PSFILL
1000
Grayscale
1000
Grayscale
1070
   100
1002
}
  0
LINE
  5
24D52
330
250A4
100
AcDbEntity
  8
YODOROGO
100
AcDbLine
 10
10518.80082008659
 20
611.8138639779963
 30
0.0
 11
10518.80082008659
 21
620.813863977996
 31
0.0
1001
AUTOCAD_POSTSCRIPT_FIGURE
1002
{
1000
PSFILL
1000
Grayscale
1000
Grayscale
1070
   100
1002
}
  0
LINE
  5
24D53
330
250A4
100
AcDbEntity
  8
YODOROGO
100
AcDbLine
 10
10530.80082008658
 20
611.8138639779963
 30
0.0
 11
10518.80082008659
 21
611.8138639779963
 31
0.0
1001
AUTOCAD_POSTSCRIPT_FIGURE
1002
{
1000
PSFILL
1000
Grayscale
1000
Grayscale
1070
   100
1002
}
  0
LINE
  5
24D54
330
250A4
100
AcDbEntity
  8
YODOROGO
100
AcDbLine
 10
10530.80082008658
 20
562.4060611609831
 30
0.0
 11
10530.80082008658
 21
611.8138639779963
 31
0.0
1001
AUTOCAD_POSTSCRIPT_FIGURE
1002
{
1000
PSFILL
1000
Grayscale
1000
Grayscale
1070
   100
1002
}
  0
LINE
  5
24D55
330
250A4
100
AcDbEntity
  8
YODOROGO
100
AcDbLine
 10
10518.8008200866
 20
562.4060611609831
 30
0.0
 11
10530.80082008658
 21
562.4060611609831
 31
0.0
1001
AUTOCAD_POSTSCRIPT_FIGURE
1002
{
1000
PSFILL
1000
Grayscale
1000
Grayscale
1070
   100
1002
}
  0
LINE
  5
24D56
330
250A4
100
AcDbEntity
  8
YODOROGO
100
AcDbLine
 10
10518.8008200866
 20
553.4060611609826
 30
0.0
 11
10518.8008200866
 21
562.4060611609831
 31
0.0
1001
AUTOCAD_POSTSCRIPT_FIGURE
1002
{
1000
PSFILL
1000
Grayscale
1000
Grayscale
1070
   100
1002
}
  0
LINE
  5
24D57
330
250A4
100
AcDbEntity
  8
YODOROGO
100
AcDbLine
 10
10551.60162798447
 20
553.4060611609826
 30
0.0
 11
10518.8008200866
 21
553.4060611609826
 31
0.0
1001
AUTOCAD_POSTSCRIPT_FIGURE
1002
{
1000
PSFILL
1000
Grayscale
1000
Grayscale
1070
   100
1002
}
  0
LINE
  5
24D58
330
250A4
100
AcDbEntity
  8
YODOROGO
100
AcDbLine
 10
10551.60162798447
 20
562.4060611609831
 30
0.0
 11
10551.60162798447
 21
553.4060611609826
 31
0.0
1001
AUTOCAD_POSTSCRIPT_FIGURE
1002
{
1000
PSFILL
1000
Grayscale
1000
Grayscale
1070
   100
1002
}
  0
LINE
  5
24D59
330
250A4
100
AcDbEntity
  8
YODOROGO
100
AcDbLine
 10
10536.8008200866
 20
562.4060611609831
 30
0.0
 11
10551.60162798447
 21
562.4060611609831
 31
0.0
1001
AUTOCAD_POSTSCRIPT_FIGURE
1002
{
1000
PSFILL
1000
Grayscale
1000
Grayscale
1070
   100
1002
}
  0
LINE
  5
24D5A
330
250A4
100
AcDbEntity
  8
YODOROGO
100
AcDbLine
 10
10536.8008200866
 20
611.8138639779963
 30
0.0
 11
10536.8008200866
 21
562.4060611609831
 31
0.0
1001
AUTOCAD_POSTSCRIPT_FIGURE
1002
{
1000
PSFILL
1000
Grayscale
1000
Grayscale
1070
   100
1002
}
  0
LINE
  5
24D5B
330
250A4
100
AcDbEntity
  8
YODOROGO
100
AcDbLine
 10
10551.60162798447
 20
611.8138639779963
 30
0.0
 11
10536.8008200866
 21
611.8138639779963
 31
0.0
1001
AUTOCAD_POSTSCRIPT_FIGURE
1002
{
1000
PSFILL
1000
Grayscale
1000
Grayscale
1070
   100
1002
}
  0
LINE
  5
24D5C
330
250A4
100
AcDbEntity
  8
YODOROGO
100
AcDbLine
 10
10551.60162798447
 20
620.813863977996
 30
0.0
 11
10551.60162798447
 21
611.8138639779963
 31
0.0
1001
AUTOCAD_POSTSCRIPT_FIGURE
1002
{
1000
PSFILL
1000
Grayscale
1000
Grayscale
1070
   100
1002
}
  0
LINE
  5
24D5D
330
250A4
100
AcDbEntity
  8
YODOROGO
100
AcDbLine
 10
10536.8008200866
 20
620.813863977996
 30
0.0
 11
10551.60162798447
 21
620.813863977996
 31
0.0
1001
AUTOCAD_POSTSCRIPT_FIGURE
1002
{
1000
PSFILL
1000
Grayscale
1000
Grayscale
1070
   100
1002
}
  0
LINE
  5
24D5E
330
250A4
100
AcDbEntity
  8
YODOROGO
100
AcDbLine
 10
10650.60162798447
 20
625.406061160983
 30
0.0
 11
10629.60162798447
 21
625.406061160983
 31
0.0
  0
LINE
  5
24D5F
330
250A4
100
AcDbEntity
  8
YODOROGO
100
AcDbLine
 10
10650.60162798447
 20
604.4060611609832
 30
0.0
 11
10650.60162798447
 21
625.406061160983
 31
0.0
  0
LINE
  5
24D60
330
250A4
100
AcDbEntity
  8
YODOROGO
100
AcDbLine
 10
10629.60162798447
 20
625.406061160983
 30
0.0
 11
10629.60162798447
 21
604.4060611609832
 31
0.0
  0
ARC
  5
24D61
330
250A4
100
AcDbEntity
  8
YODOROGO
100
AcDbCircle
 10
10692.60162798445
 20
565.4060611609828
 30
0.0
 40
30.0
100
AcDbArc
 50
180.0
 51
270.0
  0
ARC
  5
24D62
330
250A4
100
AcDbEntity
  8
YODOROGO
100
AcDbCircle
 10
10701.60162798445
 20
586.4060611609826
 30
0.0
 40
15.0
100
AcDbArc
 50
180.0
 51
270.0
  0
LINE
  5
24D63
330
250A4
100
AcDbEntity
  8
YODOROGO
100
AcDbLine
 10
10710.60162798447
 20
571.4060611609826
 30
0.0
 11
10701.60162798445
 21
571.4060611609826
 31
0.0
  0
ARC
  5
24D64
330
250A4
100
AcDbEntity
  8
YODOROGO
100
AcDbCircle
 10
10710.60162798447
 20
580.4060611609819
 30
0.0
 40
8.999999999998635
100
AcDbArc
 50
270.0
 51
0.0000000000054281
  0
LINE
  5
24D65
330
250A4
100
AcDbEntity
  8
YODOROGO
100
AcDbLine
 10
10425.60162798447
 20
709.0449677976399
 30
0.0
 11
10416.60162798446
 21
691.4162804818772
 31
0.0
1001
AUTOCAD_POSTSCRIPT_FIGURE
1002
{
1000
PSFILL
1000
Grayscale
1000
Grayscale
1070
   100
1002
}
  0
LINE
  5
24D66
330
250A4
100
AcDbEntity
  8
YODOROGO
100
AcDbLine
 10
10425.60162798447
 20
655.406061160983
 30
0.0
 11
10425.60162798447
 21
709.0449677976399
 31
0.0
1001
AUTOCAD_POSTSCRIPT_FIGURE
1002
{
1000
PSFILL
1000
Grayscale
1000
Grayscale
1070
   100
1002
}
  0
LINE
  5
24D67
330
250A4
100
AcDbEntity
  8
YODOROGO
100
AcDbLine
 10
10431.60162798447
 20
655.406061160983
 30
0.0
 11
10425.60162798447
 21
655.406061160983
 31
0.0
1001
AUTOCAD_POSTSCRIPT_FIGURE
1002
{
1000
PSFILL
1000
Grayscale
1000
Grayscale
1070
   100
1002
}
  0
LINE
  5
24D68
330
250A4
100
AcDbEntity
  8
YODOROGO
100
AcDbLine
 10
10431.60162798447
 20
710.1642495319751
 30
0.0
 11
10431.60162798447
 21
655.406061160983
 31
0.0
1001
AUTOCAD_POSTSCRIPT_FIGURE
1002
{
1000
PSFILL
1000
Grayscale
1000
Grayscale
1070
   100
1002
}
  0
LINE
  5
24D69
330
250A4
100
AcDbEntity
  8
YODOROGO
100
AcDbLine
 10
10440.60162798446
 20
700.3705343565512
 30
0.0
 11
10431.60162798447
 21
710.1642495319751
 31
0.0
1001
AUTOCAD_POSTSCRIPT_FIGURE
1002
{
1000
PSFILL
1000
Grayscale
1000
Grayscale
1070
   100
1002
}
  0
LINE
  5
24D6A
330
250A4
100
AcDbEntity
  8
YODOROGO
100
AcDbLine
 10
10440.60162798446
 20
706.3705343565509
 30
0.0
 11
10440.60162798446
 21
700.3705343565512
 31
0.0
1001
AUTOCAD_POSTSCRIPT_FIGURE
1002
{
1000
PSFILL
1000
Grayscale
1000
Grayscale
1070
   100
1002
}
  0
LINE
  5
24D6B
330
250A4
100
AcDbEntity
  8
YODOROGO
100
AcDbLine
 10
10431.60162798447
 20
719.1642495319745
 30
0.0
 11
10440.60162798446
 21
706.3705343565509
 31
0.0
1001
AUTOCAD_POSTSCRIPT_FIGURE
1002
{
1000
PSFILL
1000
Grayscale
1000
Grayscale
1070
   100
1002
}
  0
LINE
  5
24D6C
330
250A4
100
AcDbEntity
  8
YODOROGO
100
AcDbLine
 10
10431.60162798447
 20
727.4060611609829
 30
0.0
 11
10431.60162798447
 21
719.1642495319745
 31
0.0
1001
AUTOCAD_POSTSCRIPT_FIGURE
1002
{
1000
PSFILL
1000
Grayscale
1000
Grayscale
1070
   100
1002
}
  0
LINE
  5
24D6D
330
250A4
100
AcDbEntity
  8
YODOROGO
100
AcDbLine
 10
10458.60162798446
 20
727.4060611609829
 30
0.0
 11
10431.60162798447
 21
727.4060611609829
 31
0.0
1001
AUTOCAD_POSTSCRIPT_FIGURE
1002
{
1000
PSFILL
1000
Grayscale
1000
Grayscale
1070
   100
1002
}
  0
LINE
  5
24D6E
330
250A4
100
AcDbEntity
  8
YODOROGO
100
AcDbLine
 10
10458.60162798446
 20
712.7131308511124
 30
0.0
 11
10458.60162798446
 21
727.4060611609829
 31
0.0
1001
AUTOCAD_POSTSCRIPT_FIGURE
1002
{
1000
PSFILL
1000
Grayscale
1000
Grayscale
1070
   100
1002
}
  0
LINE
  5
24D6F
330
250A4
100
AcDbEntity
  8
YODOROGO
100
AcDbLine
 10
10446.60162798447
 20
712.7131308511124
 30
0.0
 11
10458.60162798446
 21
712.7131308511124
 31
0.0
1001
AUTOCAD_POSTSCRIPT_FIGURE
1002
{
1000
PSFILL
1000
Grayscale
1000
Grayscale
1070
   100
1002
}
  0
LINE
  5
24D70
330
250A4
100
AcDbEntity
  8
YODOROGO
100
AcDbLine
 10
10446.60162798447
 20
706.7131308511116
 30
0.0
 11
10446.60162798447
 21
712.7131308511124
 31
0.0
1001
AUTOCAD_POSTSCRIPT_FIGURE
1002
{
1000
PSFILL
1000
Grayscale
1000
Grayscale
1070
   100
1002
}
  0
LINE
  5
24D71
330
250A4
100
AcDbEntity
  8
YODOROGO
100
AcDbLine
 10
10458.60162798446
 20
706.7131308511116
 30
0.0
 11
10446.60162798447
 21
706.7131308511116
 31
0.0
1001
AUTOCAD_POSTSCRIPT_FIGURE
1002
{
1000
PSFILL
1000
Grayscale
1000
Grayscale
1070
   100
1002
}
  0
LINE
  5
24D72
330
250A4
100
AcDbEntity
  8
YODOROGO
100
AcDbLine
 10
10458.60162798446
 20
704.8571917366647
 30
0.0
 11
10458.60162798446
 21
706.7131308511116
 31
0.0
1001
AUTOCAD_POSTSCRIPT_FIGURE
1002
{
1000
PSFILL
1000
Grayscale
1000
Grayscale
1070
   100
1002
}
  0
LINE
  5
24D73
330
250A4
100
AcDbEntity
  8
YODOROGO
100
AcDbLine
 10
10443.60162798447
 20
679.8656179355313
 30
0.0
 11
10458.60162798446
 21
704.8571917366647
 31
0.0
1001
AUTOCAD_POSTSCRIPT_FIGURE
1002
{
1000
PSFILL
1000
Grayscale
1000
Grayscale
1070
   100
1002
}
  0
LINE
  5
24D74
330
250A4
100
AcDbEntity
  8
YODOROGO
100
AcDbLine
 10
10443.60162798447
 20
673.8656179355309
 30
0.0
 11
10443.60162798447
 21
679.8656179355313
 31
0.0
1001
AUTOCAD_POSTSCRIPT_FIGURE
1002
{
1000
PSFILL
1000
Grayscale
1000
Grayscale
1070
   100
1002
}
  0
LINE
  5
24D75
330
250A4
100
AcDbEntity
  8
YODOROGO
100
AcDbLine
 10
10458.60162798446
 20
692.8571917366638
 30
0.0
 11
10443.60162798447
 21
673.8656179355309
 31
0.0
1001
AUTOCAD_POSTSCRIPT_FIGURE
1002
{
1000
PSFILL
1000
Grayscale
1000
Grayscale
1070
   100
1002
}
  0
LINE
  5
24D76
330
250A4
100
AcDbEntity
  8
YODOROGO
100
AcDbLine
 10
10458.60162798446
 20
655.406061160983
 30
0.0
 11
10458.60162798446
 21
692.8571917366638
 31
0.0
1001
AUTOCAD_POSTSCRIPT_FIGURE
1002
{
1000
PSFILL
1000
Grayscale
1000
Grayscale
1070
   100
1002
}
  0
LINE
  5
24D77
330
250A4
100
AcDbEntity
  8
YODOROGO
100
AcDbLine
 10
10464.60162798447
 20
655.406061160983
 30
0.0
 11
10458.60162798446
 21
655.406061160983
 31
0.0
1001
AUTOCAD_POSTSCRIPT_FIGURE
1002
{
1000
PSFILL
1000
Grayscale
1000
Grayscale
1070
   100
1002
}
  0
LINE
  5
24D78
330
250A4
100
AcDbEntity
  8
YODOROGO
100
AcDbLine
 10
10464.60162798447
 20
693.5283795595521
 30
0.0
 11
10464.60162798447
 21
655.406061160983
 31
0.0
1001
AUTOCAD_POSTSCRIPT_FIGURE
1002
{
1000
PSFILL
1000
Grayscale
1000
Grayscale
1070
   100
1002
}
  0
LINE
  5
24D79
330
250A4
100
AcDbEntity
  8
YODOROGO
100
AcDbLine
 10
10476.60162798446
 20
673.8656179355309
 30
0.0
 11
10464.60162798447
 21
693.5283795595521
 31
0.0
1001
AUTOCAD_POSTSCRIPT_FIGURE
1002
{
1000
PSFILL
1000
Grayscale
1000
Grayscale
1070
   100
1002
}
  0
LINE
  5
24D7A
330
250A4
100
AcDbEntity
  8
YODOROGO
100
AcDbLine
 10
10476.60162798446
 20
679.8656179355313
 30
0.0
 11
10476.60162798446
 21
673.8656179355309
 31
0.0
1001
AUTOCAD_POSTSCRIPT_FIGURE
1002
{
1000
PSFILL
1000
Grayscale
1000
Grayscale
1070
   100
1002
}
  0
LINE
  5
24D7B
330
250A4
100
AcDbEntity
  8
YODOROGO
100
AcDbLine
 10
10464.60162798447
 20
705.5283795595531
 30
0.0
 11
10476.60162798446
 21
679.8656179355313
 31
0.0
1001
AUTOCAD_POSTSCRIPT_FIGURE
1002
{
1000
PSFILL
1000
Grayscale
1000
Grayscale
1070
   100
1002
}
  0
LINE
  5
24D7C
330
250A4
100
AcDbEntity
  8
YODOROGO
100
AcDbLine
 10
10464.60162798447
 20
706.7131308511128
 30
0.0
 11
10464.60162798447
 21
705.5283795595531
 31
0.0
1001
AUTOCAD_POSTSCRIPT_FIGURE
1002
{
1000
PSFILL
1000
Grayscale
1000
Grayscale
1070
   100
1002
}
  0
LINE
  5
24D7D
330
250A4
100
AcDbEntity
  8
YODOROGO
100
AcDbLine
 10
10476.60162798446
 20
706.7131308511116
 30
0.0
 11
10464.60162798447
 21
706.7131308511128
 31
0.0
1001
AUTOCAD_POSTSCRIPT_FIGURE
1002
{
1000
PSFILL
1000
Grayscale
1000
Grayscale
1070
   100
1002
}
  0
LINE
  5
24D7E
330
250A4
100
AcDbEntity
  8
YODOROGO
100
AcDbLine
 10
10476.60162798446
 20
712.7131308511124
 30
0.0
 11
10476.60162798446
 21
706.7131308511116
 31
0.0
1001
AUTOCAD_POSTSCRIPT_FIGURE
1002
{
1000
PSFILL
1000
Grayscale
1000
Grayscale
1070
   100
1002
}
  0
LINE
  5
24D7F
330
250A4
100
AcDbEntity
  8
YODOROGO
100
AcDbLine
 10
10464.60162798447
 20
712.7131308511124
 30
0.0
 11
10476.60162798446
 21
712.7131308511124
 31
0.0
1001
AUTOCAD_POSTSCRIPT_FIGURE
1002
{
1000
PSFILL
1000
Grayscale
1000
Grayscale
1070
   100
1002
}
  0
LINE
  5
24D80
330
250A4
100
AcDbEntity
  8
YODOROGO
100
AcDbLine
 10
10464.60162798447
 20
727.4060611609829
 30
0.0
 11
10464.60162798447
 21
712.7131308511124
 31
0.0
1001
AUTOCAD_POSTSCRIPT_FIGURE
1002
{
1000
PSFILL
1000
Grayscale
1000
Grayscale
1070
   100
1002
}
  0
LINE
  5
24D81
330
250A4
100
AcDbEntity
  8
YODOROGO
100
AcDbLine
 10
10476.60162798446
 20
727.4060611609829
 30
0.0
 11
10464.60162798447
 21
727.4060611609829
 31
0.0
1001
AUTOCAD_POSTSCRIPT_FIGURE
1002
{
1000
PSFILL
1000
Grayscale
1000
Grayscale
1070
   100
1002
}
  0
LINE
  5
24D82
330
250A4
100
AcDbEntity
  8
YODOROGO
100
AcDbLine
 10
10476.60162798446
 20
733.4060611609828
 30
0.0
 11
10476.60162798446
 21
727.4060611609829
 31
0.0
1001
AUTOCAD_POSTSCRIPT_FIGURE
1002
{
1000
PSFILL
1000
Grayscale
1000
Grayscale
1070
   100
1002
}
  0
LINE
  5
24D83
330
250A4
100
AcDbEntity
  8
YODOROGO
100
AcDbLine
 10
10464.60162798447
 20
733.4060611609828
 30
0.0
 11
10476.60162798446
 21
733.4060611609828
 31
0.0
1001
AUTOCAD_POSTSCRIPT_FIGURE
1002
{
1000
PSFILL
1000
Grayscale
1000
Grayscale
1070
   100
1002
}
  0
LINE
  5
24D84
330
250A4
100
AcDbEntity
  8
YODOROGO
100
AcDbLine
 10
10464.60162798447
 20
742.4060611609831
 30
0.0
 11
10464.60162798447
 21
733.4060611609828
 31
0.0
1001
AUTOCAD_POSTSCRIPT_FIGURE
1002
{
1000
PSFILL
1000
Grayscale
1000
Grayscale
1070
   100
1002
}
  0
LINE
  5
24D85
330
250A4
100
AcDbEntity
  8
YODOROGO
100
AcDbLine
 10
10458.60162798446
 20
742.4060611609831
 30
0.0
 11
10464.60162798447
 21
742.4060611609831
 31
0.0
1001
AUTOCAD_POSTSCRIPT_FIGURE
1002
{
1000
PSFILL
1000
Grayscale
1000
Grayscale
1070
   100
1002
}
  0
LINE
  5
24D86
330
250A4
100
AcDbEntity
  8
YODOROGO
100
AcDbLine
 10
10458.60162798446
 20
733.4060611609828
 30
0.0
 11
10458.60162798446
 21
742.4060611609831
 31
0.0
1001
AUTOCAD_POSTSCRIPT_FIGURE
1002
{
1000
PSFILL
1000
Grayscale
1000
Grayscale
1070
   100
1002
}
  0
LINE
  5
24D87
330
250A4
100
AcDbEntity
  8
YODOROGO
100
AcDbLine
 10
10449.60162798447
 20
733.4060611609828
 30
0.0
 11
10458.60162798446
 21
733.4060611609828
 31
0.0
1001
AUTOCAD_POSTSCRIPT_FIGURE
1002
{
1000
PSFILL
1000
Grayscale
1000
Grayscale
1070
   100
1002
}
  0
LINE
  5
24D88
330
250A4
100
AcDbEntity
  8
YODOROGO
100
AcDbLine
 10
10449.60162798447
 20
742.4060611609831
 30
0.0
 11
10449.60162798447
 21
733.4060611609828
 31
0.0
1001
AUTOCAD_POSTSCRIPT_FIGURE
1002
{
1000
PSFILL
1000
Grayscale
1000
Grayscale
1070
   100
1002
}
  0
LINE
  5
24D89
330
250A4
100
AcDbEntity
  8
YODOROGO
100
AcDbLine
 10
10443.60162798447
 20
742.4060611609831
 30
0.0
 11
10449.60162798447
 21
742.4060611609831
 31
0.0
1001
AUTOCAD_POSTSCRIPT_FIGURE
1002
{
1000
PSFILL
1000
Grayscale
1000
Grayscale
1070
   100
1002
}
  0
LINE
  5
24D8A
330
250A4
100
AcDbEntity
  8
YODOROGO
100
AcDbLine
 10
10443.60162798447
 20
733.4060611609828
 30
0.0
 11
10443.60162798447
 21
742.4060611609831
 31
0.0
1001
AUTOCAD_POSTSCRIPT_FIGURE
1002
{
1000
PSFILL
1000
Grayscale
1000
Grayscale
1070
   100
1002
}
  0
LINE
  5
24D8B
330
250A4
100
AcDbEntity
  8
YODOROGO
100
AcDbLine
 10
10431.60162798447
 20
733.4060611609828
 30
0.0
 11
10443.60162798447
 21
733.4060611609828
 31
0.0
1001
AUTOCAD_POSTSCRIPT_FIGURE
1002
{
1000
PSFILL
1000
Grayscale
1000
Grayscale
1070
   100
1002
}
  0
LINE
  5
24D8C
330
250A4
100
AcDbEntity
  8
YODOROGO
100
AcDbLine
 10
10431.60162798447
 20
742.4060611609831
 30
0.0
 11
10431.60162798447
 21
733.4060611609828
 31
0.0
1001
AUTOCAD_POSTSCRIPT_FIGURE
1002
{
1000
PSFILL
1000
Grayscale
1000
Grayscale
1070
   100
1002
}
  0
LINE
  5
24D8D
330
250A4
100
AcDbEntity
  8
YODOROGO
100
AcDbLine
 10
10425.60162798447
 20
742.4060611609831
 30
0.0
 11
10431.60162798447
 21
742.4060611609831
 31
0.0
1001
AUTOCAD_POSTSCRIPT_FIGURE
1002
{
1000
PSFILL
1000
Grayscale
1000
Grayscale
1070
   100
1002
}
  0
LINE
  5
24D8E
330
250A4
100
AcDbEntity
  8
YODOROGO
100
AcDbLine
 10
10425.60162798447
 20
733.4060611609828
 30
0.0
 11
10425.60162798447
 21
742.4060611609831
 31
0.0
1001
AUTOCAD_POSTSCRIPT_FIGURE
1002
{
1000
PSFILL
1000
Grayscale
1000
Grayscale
1070
   100
1002
}
  0
LINE
  5
24D8F
330
250A4
100
AcDbEntity
  8
YODOROGO
100
AcDbLine
 10
10416.60162798446
 20
733.4060611609828
 30
0.0
 11
10425.60162798447
 21
733.4060611609828
 31
0.0
1001
AUTOCAD_POSTSCRIPT_FIGURE
1002
{
1000
PSFILL
1000
Grayscale
1000
Grayscale
1070
   100
1002
}
  0
LINE
  5
24D90
330
250A4
100
AcDbEntity
  8
YODOROGO
100
AcDbLine
 10
10416.60162798446
 20
727.4060611609829
 30
0.0
 11
10416.60162798446
 21
733.4060611609828
 31
0.0
1001
AUTOCAD_POSTSCRIPT_FIGURE
1002
{
1000
PSFILL
1000
Grayscale
1000
Grayscale
1070
   100
1002
}
  0
LINE
  5
24D91
330
250A4
100
AcDbEntity
  8
YODOROGO
100
AcDbLine
 10
10425.60162798447
 20
727.4060611609829
 30
0.0
 11
10416.60162798446
 21
727.4060611609829
 31
0.0
1001
AUTOCAD_POSTSCRIPT_FIGURE
1002
{
1000
PSFILL
1000
Grayscale
1000
Grayscale
1070
   100
1002
}
  0
LINE
  5
24D92
330
250A4
100
AcDbEntity
  8
YODOROGO
100
AcDbLine
 10
10425.60162798447
 20
718.0449677976392
 30
0.0
 11
10425.60162798447
 21
727.4060611609829
 31
0.0
1001
AUTOCAD_POSTSCRIPT_FIGURE
1002
{
1000
PSFILL
1000
Grayscale
1000
Grayscale
1070
   100
1002
}
  0
LINE
  5
24D93
330
250A4
100
AcDbEntity
  8
YODOROGO
100
AcDbLine
 10
10416.60162798446
 20
697.4162804818766
 30
0.0
 11
10425.60162798447
 21
718.0449677976392
 31
0.0
1001
AUTOCAD_POSTSCRIPT_FIGURE
1002
{
1000
PSFILL
1000
Grayscale
1000
Grayscale
1070
   100
1002
}
  0
LINE
  5
24D94
330
250A4
100
AcDbEntity
  8
YODOROGO
100
AcDbLine
 10
10416.60162798446
 20
691.4162804818772
 30
0.0
 11
10416.60162798446
 21
697.4162804818766
 31
0.0
1001
AUTOCAD_POSTSCRIPT_FIGURE
1002
{
1000
PSFILL
1000
Grayscale
1000
Grayscale
1070
   100
1002
}
  0
LINE
  5
24D95
330
250A4
100
AcDbEntity
  8
YODOROGO
100
AcDbLine
 10
10596.60162798446
 20
700.406061160983
 30
0.0
 11
10650.60162798447
 21
684.3291096151149
 31
0.0
1001
AUTOCAD_POSTSCRIPT_FIGURE
1002
{
1000
PSFILL
1000
Grayscale
1000
Grayscale
1070
   100
1002
}
  0
LINE
  5
24D96
330
250A4
100
AcDbEntity
  8
YODOROGO
100
AcDbLine
 10
10650.60162798447
 20
657.3291096151146
 30
0.0
 11
10596.60162798446
 21
673.4060611609827
 31
0.0
1001
AUTOCAD_POSTSCRIPT_FIGURE
1002
{
1000
PSFILL
1000
Grayscale
1000
Grayscale
1070
   100
1002
}
  0
LINE
  5
24D97
330
250A4
100
AcDbEntity
  8
YODOROGO
100
AcDbLine
 10
10650.60162798447
 20
744.329109615115
 30
0.0
 11
10596.60162798446
 21
760.4060611609829
 31
0.0
1001
AUTOCAD_POSTSCRIPT_FIGURE
1002
{
1000
PSFILL
1000
Grayscale
1000
Grayscale
1070
   100
1002
}
  0
LINE
  5
24D98
330
250A4
100
AcDbEntity
  8
YODOROGO
100
AcDbLine
 10
10596.60162798446
 20
734.906061160983
 30
0.0
 11
10650.60162798447
 21
718.829109615115
 31
0.0
1001
AUTOCAD_POSTSCRIPT_FIGURE
1002
{
1000
PSFILL
1000
Grayscale
1000
Grayscale
1070
   100
1002
}
  0
LINE
  5
24D99
330
250A4
100
AcDbEntity
  8
YODOROGO
100
AcDbLine
 10
10596.60162798446
 20
673.4060611609827
 30
0.0
 11
10596.60162798446
 21
700.406061160983
 31
0.0
1001
AUTOCAD_POSTSCRIPT_FIGURE
1002
{
1000
PSFILL
1000
Grayscale
1000
Grayscale
1070
   100
1002
}
  0
LINE
  5
24D9A
330
250A4
100
AcDbEntity
  8
YODOROGO
100
AcDbLine
 10
10596.60162798446
 20
760.4060611609829
 30
0.0
 11
10596.60162798446
 21
734.906061160983
 31
0.0
1001
AUTOCAD_POSTSCRIPT_FIGURE
1002
{
1000
PSFILL
1000
Grayscale
1000
Grayscale
1070
   100
1002
}
  0
LINE
  5
24D9B
330
250A4
100
AcDbEntity
  8
YODOROGO
100
AcDbLine
 10
10530.08862007752
 20
727.4060611609829
 30
0.0
 11
10548.60162798447
 21
655.406061160983
 31
0.0
1001
AUTOCAD_POSTSCRIPT_FIGURE
1002
{
1000
PSFILL
1000
Grayscale
1000
Grayscale
1070
   100
1002
}
  0
LINE
  5
24D9C
330
250A4
100
AcDbEntity
  8
YODOROGO
100
AcDbLine
 10
10491.60162798447
 20
727.4060611609829
 30
0.0
 11
10530.08862007752
 21
727.4060611609829
 31
0.0
1001
AUTOCAD_POSTSCRIPT_FIGURE
1002
{
1000
PSFILL
1000
Grayscale
1000
Grayscale
1070
   100
1002
}
  0
LINE
  5
24D9D
330
250A4
100
AcDbEntity
  8
YODOROGO
100
AcDbLine
 10
10491.60162798447
 20
733.4060611609828
 30
0.0
 11
10491.60162798447
 21
727.4060611609829
 31
0.0
1001
AUTOCAD_POSTSCRIPT_FIGURE
1002
{
1000
PSFILL
1000
Grayscale
1000
Grayscale
1070
   100
1002
}
  0
LINE
  5
24D9E
330
250A4
100
AcDbEntity
  8
YODOROGO
100
AcDbLine
 10
10528.72757944497
 20
733.4060611609828
 30
0.0
 11
10491.60162798447
 21
733.4060611609828
 31
0.0
1001
AUTOCAD_POSTSCRIPT_FIGURE
1002
{
1000
PSFILL
1000
Grayscale
1000
Grayscale
1070
   100
1002
}
  0
LINE
  5
24D9F
330
250A4
100
AcDbEntity
  8
YODOROGO
100
AcDbLine
 10
10526.68601849614
 20
742.4060611609831
 30
0.0
 11
10528.72757944497
 21
733.4060611609828
 31
0.0
1001
AUTOCAD_POSTSCRIPT_FIGURE
1002
{
1000
PSFILL
1000
Grayscale
1000
Grayscale
1070
   100
1002
}
  0
LINE
  5
24DA0
330
250A4
100
AcDbEntity
  8
YODOROGO
100
AcDbLine
 10
10534.18601849614
 20
742.4060611609831
 30
0.0
 11
10526.68601849614
 21
742.4060611609831
 31
0.0
1001
AUTOCAD_POSTSCRIPT_FIGURE
1002
{
1000
PSFILL
1000
Grayscale
1000
Grayscale
1070
   100
1002
}
  0
LINE
  5
24DA1
330
250A4
100
AcDbEntity
  8
YODOROGO
100
AcDbLine
 10
10535.92757944497
 20
733.4060611609828
 30
0.0
 11
10534.18601849614
 21
742.4060611609831
 31
0.0
1001
AUTOCAD_POSTSCRIPT_FIGURE
1002
{
1000
PSFILL
1000
Grayscale
1000
Grayscale
1070
   100
1002
}
  0
LINE
  5
24DA2
330
250A4
100
AcDbEntity
  8
YODOROGO
100
AcDbLine
 10
10545.60162798447
 20
733.4060611609828
 30
0.0
 11
10535.92757944497
 21
733.4060611609828
 31
0.0
1001
AUTOCAD_POSTSCRIPT_FIGURE
1002
{
1000
PSFILL
1000
Grayscale
1000
Grayscale
1070
   100
1002
}
  0
LINE
  5
24DA3
330
250A4
100
AcDbEntity
  8
YODOROGO
100
AcDbLine
 10
10545.60162798447
 20
742.4060611609831
 30
0.0
 11
10545.60162798447
 21
733.4060611609828
 31
0.0
1001
AUTOCAD_POSTSCRIPT_FIGURE
1002
{
1000
PSFILL
1000
Grayscale
1000
Grayscale
1070
   100
1002
}
  0
LINE
  5
24DA4
330
250A4
100
AcDbEntity
  8
YODOROGO
100
AcDbLine
 10
10551.60162798447
 20
742.4060611609831
 30
0.0
 11
10545.60162798447
 21
742.4060611609831
 31
0.0
1001
AUTOCAD_POSTSCRIPT_FIGURE
1002
{
1000
PSFILL
1000
Grayscale
1000
Grayscale
1070
   100
1002
}
  0
LINE
  5
24DA5
330
250A4
100
AcDbEntity
  8
YODOROGO
100
AcDbLine
 10
10551.60162798447
 20
733.4060611609828
 30
0.0
 11
10551.60162798447
 21
742.4060611609831
 31
0.0
1001
AUTOCAD_POSTSCRIPT_FIGURE
1002
{
1000
PSFILL
1000
Grayscale
1000
Grayscale
1070
   100
1002
}
  0
LINE
  5
24DA6
330
250A4
100
AcDbEntity
  8
YODOROGO
100
AcDbLine
 10
10551.60162798447
 20
727.4060611609829
 30
0.0
 11
10551.60162798447
 21
733.4060611609828
 31
0.0
1001
AUTOCAD_POSTSCRIPT_FIGURE
1002
{
1000
PSFILL
1000
Grayscale
1000
Grayscale
1070
   100
1002
}
  0
LINE
  5
24DA7
330
250A4
100
AcDbEntity
  8
YODOROGO
100
AcDbLine
 10
10537.08862007753
 20
727.4060611609829
 30
0.0
 11
10551.60162798447
 21
727.4060611609829
 31
0.0
1001
AUTOCAD_POSTSCRIPT_FIGURE
1002
{
1000
PSFILL
1000
Grayscale
1000
Grayscale
1070
   100
1002
}
  0
LINE
  5
24DA8
330
250A4
100
AcDbEntity
  8
YODOROGO
100
AcDbLine
 10
10551.60162798447
 20
655.406061160983
 30
0.0
 11
10537.08862007753
 21
727.4060611609829
 31
0.0
1001
AUTOCAD_POSTSCRIPT_FIGURE
1002
{
1000
PSFILL
1000
Grayscale
1000
Grayscale
1070
   100
1002
}
  0
LINE
  5
24DA9
330
250A4
100
AcDbEntity
  8
YODOROGO
100
AcDbLine
 10
10548.60162798447
 20
655.406061160983
 30
0.0
 11
10551.60162798447
 21
655.406061160983
 31
0.0
1001
AUTOCAD_POSTSCRIPT_FIGURE
1002
{
1000
PSFILL
1000
Grayscale
1000
Grayscale
1070
   100
1002
}
  0
LINE
  5
24DAA
330
250A4
100
AcDbEntity
  8
YODOROGO
100
AcDbLine
 10
10529.27595747517
 20
665.902791112048
 30
0.0
 11
10491.60162798447
 21
655.406061160983
 31
0.0
  0
LINE
  5
24DAB
330
250A4
100
AcDbEntity
  8
YODOROGO
100
AcDbLine
 10
10529.27595747517
 20
674.5008673234024
 30
0.0
 11
10529.27595747517
 21
665.902791112048
 31
0.0
  0
LINE
  5
24DAC
330
250A4
100
AcDbEntity
  8
YODOROGO
100
AcDbLine
 10
10512.68879272982
 20
670.0563499251625
 30
0.0
 11
10529.27595747517
 21
674.5008673234024
 31
0.0
  0
LINE
  5
24DAD
330
250A4
100
AcDbEntity
  8
YODOROGO
100
AcDbLine
 10
10512.68879272982
 20
702.2131308511124
 30
0.0
 11
10512.68879272982
 21
670.0563499251625
 31
0.0
  0
LINE
  5
24DAE
330
250A4
100
AcDbEntity
  8
YODOROGO
100
AcDbLine
 10
10529.27595747517
 20
702.2131308511124
 30
0.0
 11
10512.68879272982
 21
702.2131308511124
 31
0.0
  0
LINE
  5
24DAF
330
250A4
100
AcDbEntity
  8
YODOROGO
100
AcDbLine
 10
10529.27595747517
 20
709.7131308511117
 30
0.0
 11
10529.27595747517
 21
702.2131308511124
 31
0.0
  0
LINE
  5
24DB0
330
250A4
100
AcDbEntity
  8
YODOROGO
100
AcDbLine
 10
10491.60162798447
 20
709.7131308511117
 30
0.0
 11
10529.27595747517
 21
709.7131308511117
 31
0.0
  0
LINE
  5
24DB1
330
250A4
100
AcDbEntity
  8
YODOROGO
100
AcDbLine
 10
10491.60162798447
 20
702.2131308511124
 30
0.0
 11
10491.60162798447
 21
709.7131308511117
 31
0.0
  0
LINE
  5
24DB2
330
250A4
100
AcDbEntity
  8
YODOROGO
100
AcDbLine
 10
10508.18879272982
 20
702.2131308511124
 30
0.0
 11
10491.60162798447
 21
702.2131308511124
 31
0.0
  0
LINE
  5
24DB3
330
250A4
100
AcDbEntity
  8
YODOROGO
100
AcDbLine
 10
10508.18879272982
 20
669.252502347869
 30
0.0
 11
10508.18879272982
 21
702.2131308511124
 31
0.0
  0
LINE
  5
24DB4
330
250A4
100
AcDbEntity
  8
YODOROGO
100
AcDbLine
 10
10491.60162798447
 20
664.4060611609822
 30
0.0
 11
10508.18879272982
 21
669.252502347869
 31
0.0
  0
LINE
  5
24DB5
330
250A4
100
AcDbEntity
  8
YODOROGO
100
AcDbLine
 10
10491.60162798447
 20
655.406061160983
 30
0.0
 11
10491.60162798447
 21
664.4060611609822
 31
0.0
  0
LINE
  5
24DB6
330
250A4
100
AcDbEntity
  8
YODOROGO
100
AcDbLine
 10
10500.60162798446
 20
640.4060611609828
 30
0.0
 11
10500.60162798446
 21
631.4060611609826
 31
0.0
  0
LINE
  5
24DB7
330
250A4
100
AcDbEntity
  8
YODOROGO
100
AcDbLine
 10
10500.60162798446
 20
640.4060611609828
 30
0.0
 11
10500.60162798446
 21
640.4060611609828
 31
0.0
  0
LINE
  5
24DB8
330
250A4
100
AcDbEntity
  8
YODOROGO
100
AcDbLine
 10
10506.60162798447
 20
640.4060611609828
 30
0.0
 11
10500.60162798446
 21
640.4060611609828
 31
0.0
  0
LINE
  5
24DB9
330
250A4
100
AcDbEntity
  8
YODOROGO
100
AcDbLine
 10
10506.60162798447
 20
631.4060611609826
 30
0.0
 11
10506.60162798447
 21
640.4060611609828
 31
0.0
  0
LINE
  5
24DBA
330
250A4
100
AcDbEntity
  8
YODOROGO
100
AcDbLine
 10
10515.34245150633
 20
631.4060611609826
 30
0.0
 11
10506.60162798447
 21
631.4060611609826
 31
0.0
  0
LINE
  5
24DBB
330
250A4
100
AcDbEntity
  8
YODOROGO
100
AcDbLine
 10
10500.60162798446
 20
631.4060611609826
 30
0.0
 11
10491.60162798447
 21
631.4060611609826
 31
0.0
  0
LINE
  5
24DBC
330
250A4
100
AcDbEntity
  8
YODOROGO
100
AcDbLine
 10
10530.80082008658
 20
640.4060611609828
 30
0.0
 11
10536.8008200866
 21
640.4060611609828
 31
0.0
1001
AUTOCAD_POSTSCRIPT_FIGURE
1002
{
1000
PSFILL
1000
Grayscale
1000
Grayscale
1070
   100
1002
}
  0
LINE
  5
24DBD
330
250A4
100
AcDbEntity
  8
YODOROGO
100
AcDbLine
 10
10650.60162798447
 20
684.3291096151149
 30
0.0
 11
10650.60162798447
 21
657.3291096151146
 31
0.0
1001
AUTOCAD_POSTSCRIPT_FIGURE
1002
{
1000
PSFILL
1000
Grayscale
1000
Grayscale
1070
   100
1002
}
  0
LINE
  5
24DBE
330
250A4
100
AcDbEntity
  8
YODOROGO
100
AcDbLine
 10
10650.60162798447
 20
718.829109615115
 30
0.0
 11
10650.60162798447
 21
744.329109615115
 31
0.0
1001
AUTOCAD_POSTSCRIPT_FIGURE
1002
{
1000
PSFILL
1000
Grayscale
1000
Grayscale
1070
   100
1002
}
  0
LINE
  5
24DBF
330
250A4
100
AcDbEntity
  8
YODOROGO
100
AcDbLine
 10
10662.60162798446
 20
682.4060611609829
 30
0.0
 11
10662.60162798446
 21
655.4060611609838
 31
0.0
  0
LINE
  5
24DC0
330
250A4
100
AcDbEntity
  8
YODOROGO
100
AcDbLine
 10
10686.60162798446
 20
640.4060611609828
 30
0.0
 11
10662.60162798446
 21
640.4060611609828
 31
0.0
  0
LINE
  5
24DC1
330
250A4
100
AcDbEntity
  8
YODOROGO
100
AcDbLine
 10
10662.60162798446
 20
655.4060611609838
 30
0.0
 11
10719.60162798446
 21
655.4060611609838
 31
0.0
  0
LINE
  5
24DC2
330
250A4
100
AcDbEntity
  8
YODOROGO
100
AcDbLine
 10
10686.60162798446
 20
700.406061160983
 30
0.0
 11
10662.60162798446
 21
700.406061160983
 31
0.0
  0
LINE
  5
24DC3
330
250A4
100
AcDbEntity
  8
YODOROGO
100
AcDbLine
 10
10686.60162798446
 20
721.4060611609826
 30
0.0
 11
10686.60162798446
 21
700.406061160983
 31
0.0
  0
LINE
  5
24DC4
330
250A4
100
AcDbEntity
  8
YODOROGO
100
AcDbLine
 10
10719.60162798446
 20
745.4060611609828
 30
0.0
 11
10719.60162798446
 21
760.4060611609829
 31
0.0
  0
LINE
  5
24DC5
330
250A4
100
AcDbEntity
  8
YODOROGO
100
AcDbLine
 10
10662.60162798446
 20
745.4060611609828
 30
0.0
 11
10719.60162798446
 21
745.4060611609828
 31
0.0
  0
LINE
  5
24DC6
330
250A4
100
AcDbEntity
  8
YODOROGO
100
AcDbLine
 10
10662.60162798446
 20
700.406061160983
 30
0.0
 11
10662.60162798446
 21
745.4060611609828
 31
0.0
  0
LINE
  5
24DC7
330
250A4
100
AcDbEntity
  8
YODOROGO
100
AcDbLine
 10
10875.60162798447
 20
760.4060611609829
 30
0.0
 11
10875.60162798447
 21
607.4060611609829
 31
0.0
  0
LINE
  5
24DC8
330
250A4
100
AcDbEntity
  8
YODOROGO
100
AcDbLine
 10
10902.60162798446
 20
592.4060611609831
 30
0.0
 11
10902.60162798446
 21
760.4060611609829
 31
0.0
  0
LINE
  5
24DC9
330
250A4
100
AcDbEntity
  8
YODOROGO
100
AcDbLine
 10
10973.10162798446
 20
559.4060611609823
 30
0.0
 11
10973.10162798446
 21
752.9060611609828
 31
0.0
  0
LINE
  5
24DCA
330
250A4
100
AcDbEntity
  8
YODOROGO
100
AcDbLine
 10
10949.10162798447
 20
752.9060611609828
 30
0.0
 11
10949.10162798447
 21
559.4060611609823
 31
0.0
  0
LINE
  5
24DCB
330
250A4
100
AcDbEntity
  8
YODOROGO
100
AcDbLine
 10
11019.60162798446
 20
760.4060611609829
 30
0.0
 11
11019.60162798446
 21
535.4060611609829
 31
0.0
  0
LINE
  5
24DCC
330
250A4
100
AcDbEntity
  8
YODOROGO
100
AcDbLine
 10
11046.60162798447
 20
535.4060611609829
 30
0.0
 11
11046.60162798447
 21
760.4060611609829
 31
0.0
  0
LINE
  5
24DCD
330
250A4
100
AcDbEntity
  8
YODOROGO
100
AcDbLine
 10
10746.60162798446
 20
625.406061160983
 30
0.0
 11
10746.60162798446
 21
655.4060611609838
 31
0.0
  0
LINE
  5
24DCE
330
250A4
100
AcDbEntity
  8
YODOROGO
100
AcDbLine
 10
11207.10162798447
 20
640.4060611609828
 30
0.0
 11
11207.10162798447
 21
625.406061160983
 31
0.0
  0
LINE
  5
24DCF
330
250A4
100
AcDbEntity
  8
YODOROGO
100
AcDbLine
 10
11207.10162798447
 20
640.4060611609828
 30
0.0
 11
11207.10162798447
 21
625.406061160983
 31
0.0
  0
ARC
  5
24DD0
330
250A4
100
AcDbEntity
  8
YODOROGO
100
AcDbCircle
 10
10840.09184107006
 20
606.8316991658524
 30
0.0
 40
35.51443169202812
100
AcDbArc
 50
274.052441629071
 51
0.9266642149310715
  0
ARC
  5
24DD1
330
250A4
100
AcDbEntity
  8
YODOROGO
100
AcDbCircle
 10
10840.94481401993
 20
597.229023228915
 30
0.0
 40
61.84515883532068
100
AcDbArc
 50
271.5351210653778
 51
355.5272775058505
  0
LINE
  5
24DD2
330
250A4
100
AcDbEntity
  8
YODOROGO
100
AcDbLine
 10
10842.60162798446
 20
571.4060611609826
 30
0.0
 11
10842.60162798446
 21
535.4060611609829
 31
0.0
  0
LINE
  5
24DD3
330
250A4
100
AcDbEntity
  8
YODOROGO
100
AcDbLine
 10
10797.60162798445
 20
625.406061160983
 30
0.0
 11
10746.60162798446
 21
625.406061160983
 31
0.0
  0
LINE
  5
24DD4
330
250A4
100
AcDbEntity
  8
YODOROGO
100
AcDbLine
 10
10797.60162798445
 20
601.4060611609833
 30
0.0
 11
10797.60162798445
 21
625.406061160983
 31
0.0
  0
LINE
  5
24DD5
330
250A4
100
AcDbEntity
  8
YODOROGO
100
AcDbLine
 10
10746.60162798446
 20
601.4060611609833
 30
0.0
 11
10797.60162798445
 21
601.4060611609833
 31
0.0
  0
LINE
  5
24DD6
330
250A4
100
AcDbEntity
  8
YODOROGO
100
AcDbLine
 10
10746.60162798446
 20
571.4060611609826
 30
0.0
 11
10746.60162798446
 21
601.4060611609833
 31
0.0
  0
LINE
  5
24DD7
330
250A4
100
AcDbEntity
  8
YODOROGO
100
AcDbLine
 10
10797.60162798445
 20
571.4060611609826
 30
0.0
 11
10746.60162798446
 21
571.4060611609826
 31
0.0
  0
LINE
  5
24DD8
330
250A4
100
AcDbEntity
  8
YODOROGO
100
AcDbLine
 10
10797.60162798445
 20
535.4060611609829
 30
0.0
 11
10797.60162798445
 21
571.4060611609826
 31
0.0
  0
LINE
  5
24DD9
330
250A4
100
AcDbEntity
  8
YODOROGO
100
AcDbLine
 10
10949.10162798447
 20
559.4060611609823
 30
0.0
 11
10973.10162798446
 21
559.4060611609823
 31
0.0
  0
LINE
  5
24DDA
330
250A4
100
AcDbEntity
  8
YODOROGO
100
AcDbLine
 10
11019.60162798446
 20
535.4060611609829
 30
0.0
 11
11046.60162798447
 21
535.4060611609829
 31
0.0
  0
LINE
  5
24DDB
330
250A4
100
AcDbEntity
  8
YODOROGO
100
AcDbLine
 10
11151.60162798447
 20
573.1655445639615
 30
0.0
 11
11151.60162798447
 21
535.4060611609829
 31
0.0
  0
LINE
  5
24DDC
330
250A4
100
AcDbEntity
  8
YODOROGO
100
AcDbLine
 10
11106.60162798446
 20
535.4060611609829
 30
0.0
 11
11151.60162798447
 21
573.1655445639615
 31
0.0
  0
LINE
  5
24DDD
330
250A4
100
AcDbEntity
  8
YODOROGO
100
AcDbLine
 10
11106.60162798446
 20
580.406061160983
 30
0.0
 11
11106.60162798446
 21
535.4060611609829
 31
0.0
  0
LINE
  5
24DDE
330
250A4
100
AcDbEntity
  8
YODOROGO
100
AcDbLine
 10
11142.35423576229
 20
610.4060611609829
 30
0.0
 11
11106.60162798446
 21
580.406061160983
 31
0.0
  0
LINE
  5
24DDF
330
250A4
100
AcDbEntity
  8
YODOROGO
100
AcDbLine
 10
11106.60162798446
 20
610.4060611609829
 30
0.0
 11
11142.35423576229
 21
610.4060611609829
 31
0.0
  0
LINE
  5
24DE0
330
250A4
100
AcDbEntity
  8
YODOROGO
100
AcDbLine
 10
11106.60162798446
 20
625.406061160983
 30
0.0
 11
11106.60162798446
 21
610.4060611609829
 31
0.0
  0
LINE
  5
24DE1
330
250A4
100
AcDbEntity
  8
YODOROGO
100
AcDbLine
 10
11207.10162798447
 20
625.406061160983
 30
0.0
 11
11106.60162798446
 21
625.406061160983
 31
0.0
  0
LINE
  5
24DE2
330
250A4
100
AcDbEntity
  8
YODOROGO
100
AcDbLine
 10
11219.10162798447
 20
610.4060611609829
 30
0.0
 11
11166.60162798446
 21
610.4060611609829
 31
0.0
  0
LINE
  5
24DE3
330
250A4
100
AcDbEntity
  8
YODOROGO
100
AcDbLine
 10
11166.60162798446
 20
585.7520390316213
 30
0.0
 11
11164.27870236949
 21
583.8028730048376
 31
0.0
  0
LINE
  5
24DE4
330
250A4
100
AcDbEntity
  8
YODOROGO
100
AcDbLine
 10
11166.60162798446
 20
610.4060611609829
 30
0.0
 11
11166.60162798446
 21
585.7520390316213
 31
0.0
  0
LINE
  5
24DE5
330
250A4
100
AcDbEntity
  8
YODOROGO
100
AcDbLine
 10
11151.60162798447
 20
573.1655445639615
 30
0.0
 11
11151.60162798447
 21
535.4060611609829
 31
0.0
  0
LINE
  5
24DE6
330
250A4
100
AcDbEntity
  8
YODOROGO
100
AcDbLine
 10
11106.60162798446
 20
535.4060611609829
 30
0.0
 11
11151.60162798447
 21
573.1655445639615
 31
0.0
  0
LINE
  5
24DE7
330
250A4
100
AcDbEntity
  8
YODOROGO
100
AcDbLine
 10
11106.60162798446
 20
580.406061160983
 30
0.0
 11
11106.60162798446
 21
535.4060611609829
 31
0.0
  0
LINE
  5
24DE8
330
250A4
100
AcDbEntity
  8
YODOROGO
100
AcDbLine
 10
11142.35423576229
 20
610.4060611609829
 30
0.0
 11
11106.60162798446
 21
580.406061160983
 31
0.0
  0
LINE
  5
24DE9
330
250A4
100
AcDbEntity
  8
YODOROGO
100
AcDbLine
 10
11106.60162798446
 20
610.4060611609829
 30
0.0
 11
11142.35423576229
 21
610.4060611609829
 31
0.0
  0
LINE
  5
24DEA
330
250A4
100
AcDbEntity
  8
YODOROGO
100
AcDbLine
 10
11106.60162798446
 20
625.406061160983
 30
0.0
 11
11106.60162798446
 21
610.4060611609829
 31
0.0
  0
LINE
  5
24DEB
330
250A4
100
AcDbEntity
  8
YODOROGO
100
AcDbLine
 10
11207.10162798447
 20
625.406061160983
 30
0.0
 11
11106.60162798446
 21
625.406061160983
 31
0.0
  0
LINE
  5
24DEC
330
250A4
100
AcDbEntity
  8
YODOROGO
100
AcDbLine
 10
10797.60162798445
 20
655.4060611609838
 30
0.0
 11
10797.60162798445
 21
682.4060611609829
 31
0.0
  0
LINE
  5
24DED
330
250A4
100
AcDbEntity
  8
YODOROGO
100
AcDbLine
 10
10746.60162798446
 20
655.4060611609838
 30
0.0
 11
10797.60162798445
 21
655.4060611609838
 31
0.0
  0
LINE
  5
24DEE
330
250A4
100
AcDbEntity
  8
YODOROGO
100
AcDbLine
 10
10773.60162798447
 20
700.406061160983
 30
0.0
 11
10773.60162798447
 21
721.4060611609826
 31
0.0
  0
LINE
  5
24DEF
330
250A4
100
AcDbEntity
  8
YODOROGO
100
AcDbLine
 10
10797.60162798445
 20
700.406061160983
 30
0.0
 11
10773.60162798447
 21
700.406061160983
 31
0.0
  0
LINE
  5
24DF0
330
250A4
100
AcDbEntity
  8
YODOROGO
100
AcDbLine
 10
10797.60162798445
 20
730.406061160983
 30
0.0
 11
10797.60162798445
 21
700.406061160983
 31
0.0
  0
ARC
  5
24DF1
330
250A4
100
AcDbEntity
  8
YODOROGO
100
AcDbCircle
 10
10782.60162798445
 20
730.406061160983
 30
0.0
 40
15.0
100
AcDbArc
 50
0.0
 51
90.0
  0
LINE
  5
24DF2
330
250A4
100
AcDbEntity
  8
YODOROGO
100
AcDbLine
 10
10746.60162798447
 20
745.4060611609828
 30
0.0
 11
10782.60162798445
 21
745.4060611609828
 31
0.0
  0
LINE
  5
24DF3
330
250A4
100
AcDbEntity
  8
YODOROGO
100
AcDbLine
 10
10746.60162798447
 20
760.4060611609829
 30
0.0
 11
10746.60162798447
 21
745.4060611609828
 31
0.0
  0
LINE
  5
24DF4
330
250A4
100
AcDbEntity
  8
YODOROGO
100
AcDbLine
 10
10902.60162798446
 20
760.4060611609829
 30
0.0
 11
10875.60162798447
 21
760.4060611609829
 31
0.0
  0
LINE
  5
24DF5
330
250A4
100
AcDbEntity
  8
YODOROGO
100
AcDbLine
 10
10973.10162798446
 20
752.9060611609828
 30
0.0
 11
10949.10162798447
 21
752.9060611609828
 31
0.0
  0
LINE
  5
24DF6
330
250A4
100
AcDbEntity
  8
YODOROGO
100
AcDbLine
 10
11046.60162798447
 20
760.4060611609829
 30
0.0
 11
11019.60162798446
 21
760.4060611609829
 31
0.0
  0
LINE
  5
24DF7
330
250A4
100
AcDbEntity
  8
YODOROGO
100
AcDbLine
 10
11127.60162798447
 20
640.4060611609828
 30
0.0
 11
11127.60162798447
 21
664.4060611609833
 31
0.0
1001
AUTOCAD_POSTSCRIPT_FIGURE
1002
{
1000
PSFILL
1000
Grayscale
1000
Grayscale
1070
    25
1002
}
  0
LINE
  5
24DF8
330
250A4
100
AcDbEntity
  8
YODOROGO
100
AcDbLine
 10
11106.60162798446
 20
640.4060611609828
 30
0.0
 11
11127.60162798447
 21
640.4060611609828
 31
0.0
1001
AUTOCAD_POSTSCRIPT_FIGURE
1002
{
1000
PSFILL
1000
Grayscale
1000
Grayscale
1070
    25
1002
}
  0
LINE
  5
24DF9
330
250A4
100
AcDbEntity
  8
YODOROGO
100
AcDbLine
 10
11106.60162798446
 20
682.4060611609829
 30
0.0
 11
11106.60162798446
 21
640.4060611609828
 31
0.0
1001
AUTOCAD_POSTSCRIPT_FIGURE
1002
{
1000
PSFILL
1000
Grayscale
1000
Grayscale
1070
    25
1002
}
  0
LINE
  5
24DFA
330
250A4
100
AcDbEntity
  8
YODOROGO
100
AcDbLine
 10
11162.10162798447
 20
682.4060611609829
 30
0.0
 11
11106.60162798446
 21
682.4060611609829
 31
0.0
1001
AUTOCAD_POSTSCRIPT_FIGURE
1002
{
1000
PSFILL
1000
Grayscale
1000
Grayscale
1070
    25
1002
}
  0
LINE
  5
24DFB
330
250A4
100
AcDbEntity
  8
YODOROGO
100
AcDbLine
 10
11162.10162798447
 20
697.406061160983
 30
0.0
 11
11162.10162798447
 21
682.4060611609829
 31
0.0
1001
AUTOCAD_POSTSCRIPT_FIGURE
1002
{
1000
PSFILL
1000
Grayscale
1000
Grayscale
1070
    25
1002
}
  0
LINE
  5
24DFC
330
250A4
100
AcDbEntity
  8
YODOROGO
100
AcDbLine
 10
11106.60162798446
 20
697.406061160983
 30
0.0
 11
11162.10162798447
 21
697.406061160983
 31
0.0
1001
AUTOCAD_POSTSCRIPT_FIGURE
1002
{
1000
PSFILL
1000
Grayscale
1000
Grayscale
1070
    25
1002
}
  0
LINE
  5
24DFD
330
250A4
100
AcDbEntity
  8
YODOROGO
100
AcDbLine
 10
11106.60162798446
 20
715.4060611609828
 30
0.0
 11
11106.60162798446
 21
697.406061160983
 31
0.0
1001
AUTOCAD_POSTSCRIPT_FIGURE
1002
{
1000
PSFILL
1000
Grayscale
1000
Grayscale
1070
    25
1002
}
  0
LINE
  5
24DFE
330
250A4
100
AcDbEntity
  8
YODOROGO
100
AcDbLine
 10
11162.10162798447
 20
715.4060611609828
 30
0.0
 11
11106.60162798446
 21
715.4060611609828
 31
0.0
1001
AUTOCAD_POSTSCRIPT_FIGURE
1002
{
1000
PSFILL
1000
Grayscale
1000
Grayscale
1070
    25
1002
}
  0
LINE
  5
24DFF
330
250A4
100
AcDbEntity
  8
YODOROGO
100
AcDbLine
 10
11162.10162798447
 20
730.406061160983
 30
0.0
 11
11162.10162798447
 21
715.4060611609828
 31
0.0
1001
AUTOCAD_POSTSCRIPT_FIGURE
1002
{
1000
PSFILL
1000
Grayscale
1000
Grayscale
1070
    25
1002
}
  0
LINE
  5
24E00
330
250A4
100
AcDbEntity
  8
YODOROGO
100
AcDbLine
 10
11106.60162798446
 20
730.406061160983
 30
0.0
 11
11162.10162798447
 21
730.406061160983
 31
0.0
1001
AUTOCAD_POSTSCRIPT_FIGURE
1002
{
1000
PSFILL
1000
Grayscale
1000
Grayscale
1070
    25
1002
}
  0
LINE
  5
24E01
330
250A4
100
AcDbEntity
  8
YODOROGO
100
AcDbLine
 10
11106.60162798446
 20
760.4060611609829
 30
0.0
 11
11106.60162798446
 21
730.406061160983
 31
0.0
1001
AUTOCAD_POSTSCRIPT_FIGURE
1002
{
1000
PSFILL
1000
Grayscale
1000
Grayscale
1070
    25
1002
}
  0
LINE
  5
24E02
330
250A4
100
AcDbEntity
  8
YODOROGO
100
AcDbLine
 10
11124.60162798446
 20
760.4060611609829
 30
0.0
 11
11106.60162798446
 21
760.4060611609829
 31
0.0
1001
AUTOCAD_POSTSCRIPT_FIGURE
1002
{
1000
PSFILL
1000
Grayscale
1000
Grayscale
1070
    25
1002
}
  0
LINE
  5
24E03
330
250A4
100
AcDbEntity
  8
YODOROGO
100
AcDbLine
 10
11124.60162798446
 20
748.4060611609828
 30
0.0
 11
11124.60162798446
 21
760.4060611609829
 31
0.0
1001
AUTOCAD_POSTSCRIPT_FIGURE
1002
{
1000
PSFILL
1000
Grayscale
1000
Grayscale
1070
    25
1002
}
  0
LINE
  5
24E04
330
250A4
100
AcDbEntity
  8
YODOROGO
100
AcDbLine
 10
11162.10162798447
 20
748.4060611609828
 30
0.0
 11
11124.60162798446
 21
748.4060611609828
 31
0.0
1001
AUTOCAD_POSTSCRIPT_FIGURE
1002
{
1000
PSFILL
1000
Grayscale
1000
Grayscale
1070
    25
1002
}
  0
LINE
  5
24E05
330
250A4
100
AcDbEntity
  8
YODOROGO
100
AcDbLine
 10
11162.10162798447
 20
760.4060611609829
 30
0.0
 11
11162.10162798447
 21
748.4060611609828
 31
0.0
1001
AUTOCAD_POSTSCRIPT_FIGURE
1002
{
1000
PSFILL
1000
Grayscale
1000
Grayscale
1070
    25
1002
}
  0
LINE
  5
24E06
330
250A4
100
AcDbEntity
  8
YODOROGO
100
AcDbLine
 10
11186.10162798447
 20
760.4060611609829
 30
0.0
 11
11162.10162798447
 21
760.4060611609829
 31
0.0
1001
AUTOCAD_POSTSCRIPT_FIGURE
1002
{
1000
PSFILL
1000
Grayscale
1000
Grayscale
1070
    25
1002
}
  0
LINE
  5
24E07
330
250A4
100
AcDbEntity
  8
YODOROGO
100
AcDbLine
 10
11186.10162798447
 20
748.4060611609828
 30
0.0
 11
11186.10162798447
 21
760.4060611609829
 31
0.0
1001
AUTOCAD_POSTSCRIPT_FIGURE
1002
{
1000
PSFILL
1000
Grayscale
1000
Grayscale
1070
    25
1002
}
  0
LINE
  5
24E08
330
250A4
100
AcDbEntity
  8
YODOROGO
100
AcDbLine
 10
11186.10162798447
 20
715.4060611609828
 30
0.0
 11
11186.10162798447
 21
730.406061160983
 31
0.0
1001
AUTOCAD_POSTSCRIPT_FIGURE
1002
{
1000
PSFILL
1000
Grayscale
1000
Grayscale
1070
    25
1002
}
  0
LINE
  5
24E09
330
250A4
100
AcDbEntity
  8
YODOROGO
100
AcDbLine
 10
11186.10162798447
 20
682.4060611609829
 30
0.0
 11
11186.10162798447
 21
697.406061160983
 31
0.0
1001
AUTOCAD_POSTSCRIPT_FIGURE
1002
{
1000
PSFILL
1000
Grayscale
1000
Grayscale
1070
    25
1002
}
  0
LINE
  5
24E0A
330
250A4
100
AcDbEntity
  8
YODOROGO
100
AcDbLine
 10
11220.60162798447
 20
664.4060611609833
 30
0.0
 11
11220.60162798447
 21
640.4060611609828
 31
0.0
1001
AUTOCAD_POSTSCRIPT_FIGURE
1002
{
1000
PSFILL
1000
Grayscale
1000
Grayscale
1070
    25
1002
}
  0
LINE
  5
24E0B
330
250A4
100
AcDbEntity
  8
YODOROGO
100
AcDbLine
 10
11186.10162798447
 20
664.4060611609833
 30
0.0
 11
11220.60162798447
 21
664.4060611609833
 31
0.0
1001
AUTOCAD_POSTSCRIPT_FIGURE
1002
{
1000
PSFILL
1000
Grayscale
1000
Grayscale
1070
    25
1002
}
  0
LINE
  5
24E0C
330
250A4
100
AcDbEntity
  8
YODOROGO
100
AcDbLine
 10
11186.10162798447
 20
640.4060611609828
 30
0.0
 11
11186.10162798447
 21
664.4060611609833
 31
0.0
1001
AUTOCAD_POSTSCRIPT_FIGURE
1002
{
1000
PSFILL
1000
Grayscale
1000
Grayscale
1070
    25
1002
}
  0
LINE
  5
24E0D
330
250A4
100
AcDbEntity
  8
YODOROGO
100
AcDbLine
 10
11162.10162798447
 20
640.4060611609828
 30
0.0
 11
11186.10162798447
 21
640.4060611609828
 31
0.0
1001
AUTOCAD_POSTSCRIPT_FIGURE
1002
{
1000
PSFILL
1000
Grayscale
1000
Grayscale
1070
    25
1002
}
  0
LINE
  5
24E0E
330
250A4
100
AcDbEntity
  8
YODOROGO
100
AcDbLine
 10
11162.10162798447
 20
664.4060611609833
 30
0.0
 11
11162.10162798447
 21
640.4060611609828
 31
0.0
1001
AUTOCAD_POSTSCRIPT_FIGURE
1002
{
1000
PSFILL
1000
Grayscale
1000
Grayscale
1070
    25
1002
}
  0
LINE
  5
24E0F
330
250A4
100
AcDbEntity
  8
YODOROGO
100
AcDbLine
 10
11127.60162798447
 20
664.4060611609833
 30
0.0
 11
11162.10162798447
 21
664.4060611609833
 31
0.0
1001
AUTOCAD_POSTSCRIPT_FIGURE
1002
{
1000
PSFILL
1000
Grayscale
1000
Grayscale
1070
    25
1002
}
  0
ARC
  5
24E10
330
250A4
100
AcDbEntity
  8
YODOROGO
100
AcDbCircle
 10
11647.31921000922
 20
601.0052765683411
 30
0.0
 40
66.83298041652057
100
AcDbArc
 50
281.0262749542535
 51
357.771135755738
  0
LINE
  5
24E11
330
250A4
100
AcDbEntity
  8
YODOROGO
100
AcDbLine
 10
11780.10162798446
 20
715.4060611609828
 30
0.0
 11
11687.10162798447
 21
715.4060611609828
 31
0.0
  0
LINE
  5
24E12
330
250A4
100
AcDbEntity
  8
YODOROGO
100
AcDbLine
 10
11780.10162798446
 20
760.4060611609829
 30
0.0
 11
11687.10162798447
 21
760.4060611609829
 31
0.0
  0
LINE
  5
24E13
330
250A4
100
AcDbEntity
  8
YODOROGO
100
AcDbLine
 10
11687.10162798447
 20
736.4060611609826
 30
0.0
 11
11780.10162798446
 21
736.4060611609826
 31
0.0
  0
LINE
  5
24E14
330
250A4
100
AcDbEntity
  8
YODOROGO
100
AcDbLine
 10
11546.85162798447
 20
586.4060611609826
 30
0.0
 11
11546.85162798447
 21
658.4060611609827
 31
0.0
  0
LINE
  5
24E15
330
250A4
100
AcDbEntity
  8
YODOROGO
100
AcDbLine
 10
11536.35162798447
 20
634.4060611609833
 30
0.0
 11
11536.35162798447
 21
586.4060611609826
 31
0.0
  0
LINE
  5
24E16
330
250A4
100
AcDbEntity
  8
YODOROGO
100
AcDbLine
 10
11521.35162798447
 20
559.4060611609831
 30
0.0
 11
11521.35162798447
 21
634.4060611609833
 31
0.0
  0
LINE
  5
24E17
330
250A4
100
AcDbEntity
  8
YODOROGO
100
AcDbLine
 10
11587.35162798447
 20
634.4060611609833
 30
0.0
 11
11587.35162798447
 21
559.4060611609831
 31
0.0
  0
LINE
  5
24E18
330
250A4
100
AcDbEntity
  8
YODOROGO
100
AcDbLine
 10
11572.35162798446
 20
586.4060611609826
 30
0.0
 11
11572.35162798446
 21
634.4060611609833
 31
0.0
  0
LINE
  5
24E19
330
250A4
100
AcDbEntity
  8
YODOROGO
100
AcDbLine
 10
11561.85162798446
 20
658.4060611609827
 30
0.0
 11
11561.85162798446
 21
586.4060611609826
 31
0.0
  0
LINE
  5
24E1A
330
250A4
100
AcDbEntity
  8
YODOROGO
100
AcDbLine
 10
11615.10162798446
 20
760.4060611609829
 30
0.0
 11
11615.10162798446
 21
550.4060611609828
 31
0.0
  0
LINE
  5
24E1B
330
250A4
100
AcDbEntity
  8
YODOROGO
100
AcDbLine
 10
11492.10162798447
 20
535.4060611609829
 30
0.0
 11
11492.10162798447
 21
760.4060611609829
 31
0.0
  0
LINE
  5
24E1C
330
250A4
100
AcDbEntity
  8
YODOROGO
100
AcDbLine
 10
11511.60162798447
 20
736.4060611609826
 30
0.0
 11
11511.60162798447
 21
535.4060611609829
 31
0.0
  0
LINE
  5
24E1D
330
250A4
100
AcDbEntity
  8
YODOROGO
100
AcDbLine
 10
11597.10162798446
 20
580.406061160983
 30
0.0
 11
11597.10162798446
 21
736.4060611609826
 31
0.0
  0
LINE
  5
24E1E
330
250A4
100
AcDbEntity
  8
YODOROGO
100
AcDbLine
 10
11393.10162798446
 20
610.4060611609829
 30
0.0
 11
11393.10162798446
 21
629.9060611609831
 31
0.0
  0
LINE
  5
24E1F
330
250A4
100
AcDbEntity
  8
YODOROGO
100
AcDbLine
 10
11481.60162798447
 20
629.9060611609831
 30
0.0
 11
11481.60162798447
 21
610.4060611609829
 31
0.0
  0
LINE
  5
24E20
330
250A4
100
AcDbEntity
  8
YODOROGO
100
AcDbLine
 10
11687.10162798447
 20
715.4060611609828
 30
0.0
 11
11687.10162798447
 21
613.4060611609827
 31
0.0
  0
LINE
  5
24E21
330
250A4
100
AcDbEntity
  8
YODOROGO
100
AcDbLine
 10
11231.10162798446
 20
625.406061160983
 30
0.0
 11
11231.10162798446
 21
640.4060611609828
 31
0.0
  0
LINE
  5
24E22
330
250A4
100
AcDbEntity
  8
YODOROGO
100
AcDbLine
 10
11231.10162798446
 20
625.406061160983
 30
0.0
 11
11231.10162798446
 21
640.4060611609828
 31
0.0
  0
ARC
  5
24E23
330
250A4
100
AcDbEntity
  8
YODOROGO
100
AcDbCircle
 10
11451.60162798447
 20
565.4060611609828
 30
0.0
 40
30.0
100
AcDbArc
 50
270.0
 51
0.0
  0
LINE
  5
24E24
330
250A4
100
AcDbEntity
  8
YODOROGO
100
AcDbLine
 10
11463.60162798446
 20
599.9060611609831
 30
0.0
 11
11481.60162798447
 21
599.9060611609831
 31
0.0
  0
LINE
  5
24E25
330
250A4
100
AcDbEntity
  8
YODOROGO
100
AcDbLine
 10
11481.60162798447
 20
610.4060611609829
 30
0.0
 11
11448.60162798446
 21
610.4060611609829
 31
0.0
  0
LINE
  5
24E26
330
250A4
100
AcDbEntity
  8
YODOROGO
100
AcDbLine
 10
11331.60162798447
 20
625.406061160983
 30
0.0
 11
11231.10162798446
 21
625.406061160983
 31
0.0
  0
LINE
  5
24E27
330
250A4
100
AcDbEntity
  8
YODOROGO
100
AcDbLine
 10
11331.60162798447
 20
610.4060611609829
 30
0.0
 11
11331.60162798447
 21
625.406061160983
 31
0.0
  0
LINE
  5
24E28
330
250A4
100
AcDbEntity
  8
YODOROGO
100
AcDbLine
 10
11256.60162798447
 20
610.4060611609829
 30
0.0
 11
11331.60162798447
 21
610.4060611609829
 31
0.0
  0
ARC
  5
24E29
330
250A4
100
AcDbEntity
  8
YODOROGO
100
AcDbCircle
 10
11336.27206076301
 20
700.8321431073384
 30
0.0
 40
120.5166136069605
100
AcDbArc
 50
228.6181454618993
 51
245.660289248906
  0
LINE
  5
24E2A
330
250A4
100
AcDbEntity
  8
YODOROGO
100
AcDbLine
 10
11289.60162798447
 20
601.4060611609833
 30
0.0
 11
11286.60162798448
 21
591.0273059512126
 31
0.0
  0
LINE
  5
24E2B
330
250A4
100
AcDbEntity
  8
YODOROGO
100
AcDbLine
 10
11321.10162798447
 20
601.4060611609833
 30
0.0
 11
11289.60162798447
 21
601.4060611609833
 31
0.0
  0
LINE
  5
24E2C
330
250A4
100
AcDbEntity
  8
YODOROGO
100
AcDbLine
 10
11316.60162798447
 20
581.9316459275352
 30
0.0
 11
11321.10162798447
 21
601.4060611609833
 31
0.0
  0
ARC
  5
24E2D
330
250A4
100
AcDbEntity
  8
YODOROGO
100
AcDbCircle
 10
11336.27206076267
 20
700.8321431073759
 30
0.0
 40
120.516613606984
100
AcDbArc
 50
260.6062929796993
 51
267.7790355655585
  0
LINE
  5
24E2E
330
250A4
100
AcDbEntity
  8
YODOROGO
100
AcDbLine
 10
11331.60162798447
 20
535.4060611609821
 30
0.0
 11
11331.60162798447
 21
580.406061160983
 31
0.0
  0
LINE
  5
24E2F
330
250A4
100
AcDbEntity
  8
YODOROGO
100
AcDbLine
 10
11226.60162798446
 20
555.5022505933164
 30
0.0
 11
11226.60162798446
 21
597.949158949178
 31
0.0
  0
LINE
  5
24E30
330
250A4
100
AcDbEntity
  8
YODOROGO
100
AcDbLine
 10
11331.60162798447
 20
625.406061160983
 30
0.0
 11
11231.10162798446
 21
625.406061160983
 31
0.0
  0
LINE
  5
24E31
330
250A4
100
AcDbEntity
  8
YODOROGO
100
AcDbLine
 10
11331.60162798447
 20
610.4060611609829
 30
0.0
 11
11331.60162798447
 21
625.406061160983
 31
0.0
  0
LINE
  5
24E32
330
250A4
100
AcDbEntity
  8
YODOROGO
100
AcDbLine
 10
11256.60162798447
 20
610.4060611609829
 30
0.0
 11
11331.60162798447
 21
610.4060611609829
 31
0.0
  0
ARC
  5
24E33
330
250A4
100
AcDbEntity
  8
YODOROGO
100
AcDbCircle
 10
11336.27206076301
 20
700.8321431073384
 30
0.0
 40
120.5166136069605
100
AcDbArc
 50
228.6181454618993
 51
245.660289248906
  0
LINE
  5
24E34
330
250A4
100
AcDbEntity
  8
YODOROGO
100
AcDbLine
 10
11289.60162798447
 20
601.4060611609833
 30
0.0
 11
11286.60162798448
 21
591.0273059512126
 31
0.0
  0
LINE
  5
24E35
330
250A4
100
AcDbEntity
  8
YODOROGO
100
AcDbLine
 10
11321.10162798447
 20
601.4060611609833
 30
0.0
 11
11289.60162798447
 21
601.4060611609833
 31
0.0
  0
LINE
  5
24E36
330
250A4
100
AcDbEntity
  8
YODOROGO
100
AcDbLine
 10
11316.60162798447
 20
581.9316459275352
 30
0.0
 11
11321.10162798447
 21
601.4060611609833
 31
0.0
  0
ARC
  5
24E37
330
250A4
100
AcDbEntity
  8
YODOROGO
100
AcDbCircle
 10
11336.27206076267
 20
700.8321431073759
 30
0.0
 40
120.516613606984
100
AcDbArc
 50
260.6062929796993
 51
267.7790355655585
  0
LINE
  5
24E38
330
250A4
100
AcDbEntity
  8
YODOROGO
100
AcDbLine
 10
11331.60162798447
 20
535.4060611609821
 30
0.0
 11
11331.60162798447
 21
580.406061160983
 31
0.0
  0
LINE
  5
24E39
330
250A4
100
AcDbEntity
  8
YODOROGO
100
AcDbLine
 10
11226.60162798446
 20
555.5022505933164
 30
0.0
 11
11226.60162798446
 21
597.949158949178
 31
0.0
  0
LINE
  5
24E3A
330
250A4
100
AcDbEntity
  8
YODOROGO
100
AcDbLine
 10
11412.60162798447
 20
590.1560611609832
 30
0.0
 11
11393.10162798446
 21
590.1560611609832
 31
0.0
  0
LINE
  5
24E3B
330
250A4
100
AcDbEntity
  8
YODOROGO
100
AcDbLine
 10
11412.60162798447
 20
600.6560611609824
 30
0.0
 11
11412.60162798447
 21
590.1560611609832
 31
0.0
  0
LINE
  5
24E3C
330
250A4
100
AcDbEntity
  8
YODOROGO
100
AcDbLine
 10
11393.10162798446
 20
600.6560611609824
 30
0.0
 11
11412.60162798447
 21
600.6560611609824
 31
0.0
  0
LINE
  5
24E3D
330
250A4
100
AcDbEntity
  8
YODOROGO
100
AcDbLine
 10
11393.10162798446
 20
590.1560611609832
 30
0.0
 11
11393.10162798446
 21
600.6560611609824
 31
0.0
  0
LINE
  5
24E3E
330
250A4
100
AcDbEntity
  8
YODOROGO
100
AcDbLine
 10
11411.10162798447
 20
591.6560611609829
 30
0.0
 11
11394.60162798447
 21
591.6560611609829
 31
0.0
  0
LINE
  5
24E3F
330
250A4
100
AcDbEntity
  8
YODOROGO
100
AcDbLine
 10
11411.10162798447
 20
599.156061160983
 30
0.0
 11
11411.10162798447
 21
591.6560611609829
 31
0.0
  0
LINE
  5
24E40
330
250A4
100
AcDbEntity
  8
YODOROGO
100
AcDbLine
 10
11394.60162798447
 20
599.156061160983
 30
0.0
 11
11411.10162798447
 21
599.156061160983
 31
0.0
  0
LINE
  5
24E41
330
250A4
100
AcDbEntity
  8
YODOROGO
100
AcDbLine
 10
11394.60162798447
 20
591.6560611609829
 30
0.0
 11
11394.60162798447
 21
599.156061160983
 31
0.0
  0
LINE
  5
24E42
330
250A4
100
AcDbEntity
  8
YODOROGO
100
AcDbLine
 10
11409.60162798447
 20
593.1560611609824
 30
0.0
 11
11396.10162798446
 21
593.1560611609824
 31
0.0
  0
LINE
  5
24E43
330
250A4
100
AcDbEntity
  8
YODOROGO
100
AcDbLine
 10
11409.60162798447
 20
597.6560611609833
 30
0.0
 11
11409.60162798447
 21
593.1560611609824
 31
0.0
  0
LINE
  5
24E44
330
250A4
100
AcDbEntity
  8
YODOROGO
100
AcDbLine
 10
11396.10162798446
 20
597.6560611609833
 30
0.0
 11
11409.60162798447
 21
597.6560611609833
 31
0.0
  0
LINE
  5
24E45
330
250A4
100
AcDbEntity
  8
YODOROGO
100
AcDbLine
 10
11396.10162798446
 20
593.1560611609824
 30
0.0
 11
11396.10162798446
 21
597.6560611609833
 31
0.0
  0
LINE
  5
24E46
330
250A4
100
AcDbEntity
  8
YODOROGO
100
AcDbLine
 10
11408.10162798447
 20
594.6560611609827
 30
0.0
 11
11397.60162798447
 21
594.6560611609827
 31
0.0
  0
LINE
  5
24E47
330
250A4
100
AcDbEntity
  8
YODOROGO
100
AcDbLine
 10
11408.10162798447
 20
596.1560611609829
 30
0.0
 11
11408.10162798447
 21
594.6560611609827
 31
0.0
  0
LINE
  5
24E48
330
250A4
100
AcDbEntity
  8
YODOROGO
100
AcDbLine
 10
11397.60162798447
 20
596.1560611609829
 30
0.0
 11
11408.10162798447
 21
596.1560611609829
 31
0.0
  0
LINE
  5
24E49
330
250A4
100
AcDbEntity
  8
YODOROGO
100
AcDbLine
 10
11397.60162798447
 20
594.6560611609827
 30
0.0
 11
11397.60162798447
 21
596.1560611609829
 31
0.0
  0
LINE
  5
24E4A
330
250A4
100
AcDbEntity
  8
YODOROGO
100
AcDbLine
 10
11424.60162798446
 20
610.4060611609829
 30
0.0
 11
11393.10162798446
 21
610.4060611609829
 31
0.0
  0
LINE
  5
24E4B
330
250A4
100
AcDbEntity
  8
YODOROGO
100
AcDbLine
 10
11424.60162798446
 20
580.406061160983
 30
0.0
 11
11424.60162798446
 21
610.4060611609829
 31
0.0
  0
LINE
  5
24E4C
330
250A4
100
AcDbEntity
  8
YODOROGO
100
AcDbLine
 10
11393.10162798446
 20
580.406061160983
 30
0.0
 11
11424.60162798446
 21
580.406061160983
 31
0.0
  0
LINE
  5
24E4D
330
250A4
100
AcDbEntity
  8
YODOROGO
100
AcDbLine
 10
11393.10162798446
 20
535.4060611609829
 30
0.0
 11
11393.10162798446
 21
580.406061160983
 31
0.0
  0
LINE
  5
24E4E
330
250A4
100
AcDbEntity
  8
YODOROGO
100
AcDbLine
 10
11451.60162798447
 20
535.4060611609829
 30
0.0
 11
11393.10162798446
 21
535.4060611609829
 31
0.0
  0
LINE
  5
24E4F
330
250A4
100
AcDbEntity
  8
YODOROGO
100
AcDbLine
 10
11463.60162798446
 20
589.4060611609822
 30
0.0
 11
11463.60162798446
 21
599.9060611609831
 31
0.0
  0
ARC
  5
24E50
330
250A4
100
AcDbEntity
  8
YODOROGO
100
AcDbCircle
 10
11454.60162798446
 20
589.4060611609842
 30
0.0
 40
9.000000000001408
100
AcDbArc
 50
270.0
 51
359.9999999999877
  0
LINE
  5
24E51
330
250A4
100
AcDbEntity
  8
YODOROGO
100
AcDbLine
 10
11448.60162798446
 20
580.406061160983
 30
0.0
 11
11454.60162798446
 21
580.406061160983
 31
0.0
  0
LINE
  5
24E52
330
250A4
100
AcDbEntity
  8
YODOROGO
100
AcDbLine
 10
11448.60162798446
 20
610.4060611609829
 30
0.0
 11
11448.60162798446
 21
580.406061160983
 31
0.0
  0
LINE
  5
24E53
330
250A4
100
AcDbEntity
  8
YODOROGO
100
AcDbLine
 10
11587.35162798447
 20
580.406061160983
 30
0.0
 11
11597.10162798446
 21
580.406061160983
 31
0.0
  0
LINE
  5
24E54
330
250A4
100
AcDbEntity
  8
YODOROGO
100
AcDbLine
 10
11600.10162798446
 20
535.4060611609829
 30
0.0
 11
11587.35162798447
 21
535.4060611609829
 31
0.0
  0
LINE
  5
24E55
330
250A4
100
AcDbEntity
  8
YODOROGO
100
AcDbLine
 10
11536.35162798447
 20
586.4060611609826
 30
0.0
 11
11546.85162798447
 21
586.4060611609826
 31
0.0
  0
LINE
  5
24E56
330
250A4
100
AcDbEntity
  8
YODOROGO
100
AcDbLine
 10
11587.35162798447
 20
559.4060611609831
 30
0.0
 11
11521.35162798447
 21
559.4060611609831
 31
0.0
  0
LINE
  5
24E57
330
250A4
100
AcDbEntity
  8
YODOROGO
100
AcDbLine
 10
11561.85162798446
 20
586.4060611609826
 30
0.0
 11
11572.35162798446
 21
586.4060611609826
 31
0.0
  0
LINE
  5
24E58
330
250A4
100
AcDbEntity
  8
YODOROGO
100
AcDbLine
 10
11587.35162798447
 20
535.4060611609829
 30
0.0
 11
11587.35162798447
 21
580.406061160983
 31
0.0
  0
LINE
  5
24E59
330
250A4
100
AcDbEntity
  8
YODOROGO
100
AcDbLine
 10
11511.60162798447
 20
535.4060611609829
 30
0.0
 11
11492.10162798447
 21
535.4060611609829
 31
0.0
  0
LINE
  5
24E5A
330
250A4
100
AcDbEntity
  8
YODOROGO
100
AcDbLine
 10
11481.60162798447
 20
599.9060611609831
 30
0.0
 11
11481.60162798447
 21
565.4060611609828
 31
0.0
  0
ARC
  5
24E5B
330
250A4
100
AcDbEntity
  8
YODOROGO
100
AcDbCircle
 10
11600.10162798446
 20
550.4060611609828
 30
0.0
 40
15.0
100
AcDbArc
 50
270.0
 51
0.0
  0
LINE
  5
24E5C
330
250A4
100
AcDbEntity
  8
YODOROGO
100
AcDbLine
 10
11660.10162798446
 20
571.4060611609826
 30
0.0
 11
11660.10162798446
 21
535.4060611609829
 31
0.0
  0
ARC
  5
24E5D
330
250A4
100
AcDbEntity
  8
YODOROGO
100
AcDbCircle
 10
11639.89552333754
 20
614.0742712911499
 30
0.0
 40
47.21083372187828
100
AcDbArc
 50
295.3405244216011
 51
359.1890230341867
  0
LINE
  5
24E5E
330
250A4
100
AcDbEntity
  8
YODOROGO
100
AcDbLine
 10
11481.60162798447
 20
697.406061160983
 30
0.0
 11
11436.60162798447
 21
727.4060611609829
 31
0.0
  0
LINE
  5
24E5F
330
250A4
100
AcDbEntity
  8
YODOROGO
100
AcDbLine
 10
11436.60162798447
 20
760.4060611609829
 30
0.0
 11
11481.60162798447
 21
730.406061160983
 31
0.0
  0
LINE
  5
24E60
330
250A4
100
AcDbEntity
  8
YODOROGO
100
AcDbLine
 10
11448.60162798446
 20
629.9060611609831
 30
0.0
 11
11481.60162798447
 21
629.9060611609831
 31
0.0
  0
LINE
  5
24E61
330
250A4
100
AcDbEntity
  8
YODOROGO
100
AcDbLine
 10
11481.60162798447
 20
650.9060611609827
 30
0.0
 11
11448.60162798446
 21
650.9060611609827
 31
0.0
  0
LINE
  5
24E62
330
250A4
100
AcDbEntity
  8
YODOROGO
100
AcDbLine
 10
11393.10162798446
 20
673.4060611609827
 30
0.0
 11
11481.60162798447
 21
673.4060611609827
 31
0.0
  0
LINE
  5
24E63
330
250A4
100
AcDbEntity
  8
YODOROGO
100
AcDbLine
 10
11280.60162798447
 20
760.4060611609829
 30
0.0
 11
11258.10162798447
 21
760.4060611609829
 31
0.0
  0
LINE
  5
24E64
330
250A4
100
AcDbEntity
  8
YODOROGO
100
AcDbLine
 10
11280.60162798447
 20
685.4060611609829
 30
0.0
 11
11280.60162798447
 21
760.4060611609829
 31
0.0
  0
LINE
  5
24E65
330
250A4
100
AcDbEntity
  8
YODOROGO
100
AcDbLine
 10
11258.10162798447
 20
685.4060611609829
 30
0.0
 11
11280.60162798447
 21
685.4060611609829
 31
0.0
  0
LINE
  5
24E66
330
250A4
100
AcDbEntity
  8
YODOROGO
100
AcDbLine
 10
11258.10162798447
 20
760.4060611609829
 30
0.0
 11
11258.10162798447
 21
685.4060611609829
 31
0.0
  0
LINE
  5
24E67
330
250A4
100
AcDbEntity
  8
YODOROGO
100
AcDbLine
 10
11310.60162798447
 20
760.4060611609829
 30
0.0
 11
11331.60162798447
 21
760.4060611609829
 31
0.0
  0
LINE
  5
24E68
330
250A4
100
AcDbEntity
  8
YODOROGO
100
AcDbLine
 10
11310.60162798447
 20
679.4060611609832
 30
0.0
 11
11310.60162798447
 21
760.4060611609829
 31
0.0
  0
ARC
  5
24E69
330
250A4
100
AcDbEntity
  8
YODOROGO
100
AcDbCircle
 10
11295.60162798447
 20
679.4060611609832
 30
0.0
 40
15.0
100
AcDbArc
 50
270.0
 51
0.0
  0
LINE
  5
24E6A
330
250A4
100
AcDbEntity
  8
YODOROGO
100
AcDbLine
 10
11258.10162798447
 20
664.4060611609833
 30
0.0
 11
11295.60162798447
 21
664.4060611609833
 31
0.0
  0
LINE
  5
24E6B
330
250A4
100
AcDbEntity
  8
YODOROGO
100
AcDbLine
 10
11258.10162798447
 20
640.4060611609828
 30
0.0
 11
11258.10162798447
 21
664.4060611609833
 31
0.0
  0
LINE
  5
24E6C
330
250A4
100
AcDbEntity
  8
YODOROGO
100
AcDbLine
 10
11301.60162798446
 20
640.4060611609828
 30
0.0
 11
11258.10162798447
 21
640.4060611609828
 31
0.0
  0
ARC
  5
24E6D
330
250A4
100
AcDbEntity
  8
YODOROGO
100
AcDbCircle
 10
11301.60162798446
 20
670.4060611609828
 30
0.0
 40
30.0
100
AcDbArc
 50
270.0
 51
0.0
  0
LINE
  5
24E6E
330
250A4
100
AcDbEntity
  8
YODOROGO
100
AcDbLine
 10
11331.60162798447
 20
760.4060611609829
 30
0.0
 11
11331.60162798447
 21
670.4060611609828
 31
0.0
  0
LINE
  5
24E6F
330
250A4
100
AcDbEntity
  8
YODOROGO
100
AcDbLine
 10
11241.60162798446
 20
730.406061160983
 30
0.0
 11
11241.60162798446
 21
748.4060611609828
 31
0.0
1001
AUTOCAD_POSTSCRIPT_FIGURE
1002
{
1000
PSFILL
1000
Grayscale
1000
Grayscale
1070
    25
1002
}
  0
LINE
  5
24E70
330
250A4
100
AcDbEntity
  8
YODOROGO
100
AcDbLine
 10
11241.60162798446
 20
697.406061160983
 30
0.0
 11
11241.60162798446
 21
715.4060611609828
 31
0.0
1001
AUTOCAD_POSTSCRIPT_FIGURE
1002
{
1000
PSFILL
1000
Grayscale
1000
Grayscale
1070
    25
1002
}
  0
LINE
  5
24E71
330
250A4
100
AcDbEntity
  8
YODOROGO
100
AcDbLine
 10
11241.60162798446
 20
640.4060611609828
 30
0.0
 11
11241.60162798446
 21
682.4060611609829
 31
0.0
1001
AUTOCAD_POSTSCRIPT_FIGURE
1002
{
1000
PSFILL
1000
Grayscale
1000
Grayscale
1070
    25
1002
}
  0
LINE
  5
24E72
330
250A4
100
AcDbEntity
  8
YODOROGO
100
AcDbLine
 10
11393.10162798446
 20
715.4060611609828
 30
0.0
 11
11436.60162798447
 21
760.4060611609829
 31
0.0
  0
LINE
  5
24E73
330
250A4
100
AcDbEntity
  8
YODOROGO
100
AcDbLine
 10
11393.10162798446
 20
682.4060611609829
 30
0.0
 11
11393.10162798446
 21
715.4060611609828
 31
0.0
  0
LINE
  5
24E74
330
250A4
100
AcDbEntity
  8
YODOROGO
100
AcDbLine
 10
11436.60162798447
 20
727.4060611609829
 30
0.0
 11
11393.10162798446
 21
682.4060611609829
 31
0.0
  0
LINE
  5
24E75
330
250A4
100
AcDbEntity
  8
YODOROGO
100
AcDbLine
 10
11424.60162798446
 20
629.9060611609831
 30
0.0
 11
11424.60162798446
 21
650.9060611609827
 31
0.0
  0
LINE
  5
24E76
330
250A4
100
AcDbEntity
  8
YODOROGO
100
AcDbLine
 10
11393.10162798446
 20
629.9060611609831
 30
0.0
 11
11424.60162798446
 21
629.9060611609831
 31
0.0
  0
LINE
  5
24E77
330
250A4
100
AcDbEntity
  8
YODOROGO
100
AcDbLine
 10
11448.60162798446
 20
650.9060611609827
 30
0.0
 11
11448.60162798446
 21
629.9060611609831
 31
0.0
  0
LINE
  5
24E78
330
250A4
100
AcDbEntity
  8
YODOROGO
100
AcDbLine
 10
11393.10162798446
 20
650.9060611609827
 30
0.0
 11
11393.10162798446
 21
673.4060611609827
 31
0.0
  0
LINE
  5
24E79
330
250A4
100
AcDbEntity
  8
YODOROGO
100
AcDbLine
 10
11424.60162798446
 20
650.9060611609827
 30
0.0
 11
11393.10162798446
 21
650.9060611609827
 31
0.0
  0
LINE
  5
24E7A
330
250A4
100
AcDbEntity
  8
YODOROGO
100
AcDbLine
 10
11492.10162798447
 20
760.4060611609829
 30
0.0
 11
11615.10162798446
 21
760.4060611609829
 31
0.0
  0
LINE
  5
24E7B
330
250A4
100
AcDbEntity
  8
YODOROGO
100
AcDbLine
 10
11597.10162798446
 20
736.4060611609826
 30
0.0
 11
11511.60162798447
 21
736.4060611609826
 31
0.0
  0
LINE
  5
24E7C
330
250A4
100
AcDbEntity
  8
YODOROGO
100
AcDbLine
 10
11577.60162798447
 20
682.4060611609829
 30
0.0
 11
11587.35162798447
 21
682.4060611609829
 31
0.0
  0
LINE
  5
24E7D
330
250A4
100
AcDbEntity
  8
YODOROGO
100
AcDbLine
 10
11587.35162798447
 20
727.4060611609829
 30
0.0
 11
11577.60162798447
 21
682.4060611609829
 31
0.0
  0
LINE
  5
24E7E
330
250A4
100
AcDbEntity
  8
YODOROGO
100
AcDbLine
 10
11569.35162798446
 20
727.4060611609829
 30
0.0
 11
11587.35162798447
 21
727.4060611609829
 31
0.0
  0
LINE
  5
24E7F
330
250A4
100
AcDbEntity
  8
YODOROGO
100
AcDbLine
 10
11559.60162798447
 20
682.4060611609829
 30
0.0
 11
11569.35162798446
 21
727.4060611609829
 31
0.0
  0
LINE
  5
24E80
330
250A4
100
AcDbEntity
  8
YODOROGO
100
AcDbLine
 10
11549.10162798447
 20
682.4060611609829
 30
0.0
 11
11559.60162798447
 21
682.4060611609829
 31
0.0
  0
LINE
  5
24E81
330
250A4
100
AcDbEntity
  8
YODOROGO
100
AcDbLine
 10
11539.35162798447
 20
727.4060611609829
 30
0.0
 11
11549.10162798447
 21
682.4060611609829
 31
0.0
  0
LINE
  5
24E82
330
250A4
100
AcDbEntity
  8
YODOROGO
100
AcDbLine
 10
11521.35162798447
 20
727.4060611609829
 30
0.0
 11
11539.35162798447
 21
727.4060611609829
 31
0.0
  0
LINE
  5
24E83
330
250A4
100
AcDbEntity
  8
YODOROGO
100
AcDbLine
 10
11531.10162798447
 20
682.4060611609829
 30
0.0
 11
11521.35162798447
 21
727.4060611609829
 31
0.0
  0
LINE
  5
24E84
330
250A4
100
AcDbEntity
  8
YODOROGO
100
AcDbLine
 10
11521.35162798447
 20
682.4060611609829
 30
0.0
 11
11531.10162798447
 21
682.4060611609829
 31
0.0
  0
LINE
  5
24E85
330
250A4
100
AcDbEntity
  8
YODOROGO
100
AcDbLine
 10
11521.35162798447
 20
658.4060611609827
 30
0.0
 11
11521.35162798447
 21
682.4060611609829
 31
0.0
  0
LINE
  5
24E86
330
250A4
100
AcDbEntity
  8
YODOROGO
100
AcDbLine
 10
11587.35162798447
 20
658.4060611609827
 30
0.0
 11
11521.35162798447
 21
658.4060611609827
 31
0.0
  0
LINE
  5
24E87
330
250A4
100
AcDbEntity
  8
YODOROGO
100
AcDbLine
 10
11587.35162798447
 20
682.4060611609829
 30
0.0
 11
11587.35162798447
 21
658.4060611609827
 31
0.0
  0
LINE
  5
24E88
330
250A4
100
AcDbEntity
  8
YODOROGO
100
AcDbLine
 10
11481.60162798447
 20
730.406061160983
 30
0.0
 11
11481.60162798447
 21
697.406061160983
 31
0.0
  0
LINE
  5
24E89
330
250A4
100
AcDbEntity
  8
YODOROGO
100
AcDbLine
 10
11546.85162798447
 20
658.4060611609827
 30
0.0
 11
11561.85162798446
 21
658.4060611609827
 31
0.0
  0
LINE
  5
24E8A
330
250A4
100
AcDbEntity
  8
YODOROGO
100
AcDbLine
 10
11521.35162798447
 20
634.4060611609833
 30
0.0
 11
11536.35162798447
 21
634.4060611609833
 31
0.0
  0
LINE
  5
24E8B
330
250A4
100
AcDbEntity
  8
YODOROGO
100
AcDbLine
 10
11572.35162798446
 20
634.4060611609833
 30
0.0
 11
11587.35162798447
 21
634.4060611609833
 31
0.0
  0
LINE
  5
24E8C
330
250A4
100
AcDbEntity
  8
YODOROGO
100
AcDbLine
 10
11481.60162798447
 20
673.4060611609827
 30
0.0
 11
11481.60162798447
 21
650.9060611609827
 31
0.0
  0
LINE
  5
24E8D
330
250A4
100
AcDbEntity
  8
YODOROGO
100
AcDbLine
 10
11687.10162798447
 20
760.4060611609829
 30
0.0
 11
11687.10162798447
 21
736.4060611609826
 31
0.0
  0
LINE
  5
24E8E
330
250A4
100
AcDbEntity
  8
YODOROGO
100
AcDbLine
 10
11825.10162798447
 20
598.4060611609827
 30
0.0
 11
11825.10162798446
 21
679.4060611609832
 31
0.0
  0
LINE
  5
24E8F
330
250A4
100
AcDbEntity
  8
YODOROGO
100
AcDbLine
 10
11798.10162798446
 20
745.4060611609828
 30
0.0
 11
11798.10162798446
 21
613.4060611609827
 31
0.0
  0
LINE
  5
24E90
330
250A4
100
AcDbEntity
  8
YODOROGO
100
AcDbLine
 10
11870.10162798447
 20
535.4060611609829
 30
0.0
 11
11870.10162798446
 21
679.4060611609832
 31
0.0
  0
LINE
  5
24E91
330
250A4
100
AcDbEntity
  8
YODOROGO
100
AcDbLine
 10
11846.10162798447
 20
679.4060611609832
 30
0.0
 11
11846.10162798447
 21
535.4060611609829
 31
0.0
  0
LINE
  5
24E92
330
250A4
100
AcDbEntity
  8
YODOROGO
100
AcDbLine
 10
11714.10162798447
 20
598.4060611609827
 30
0.0
 11
11714.10162798447
 21
640.4060611609828
 31
0.0
  0
ARC
  5
24E93
330
250A4
100
AcDbEntity
  8
YODOROGO
100
AcDbCircle
 10
11757.71807441852
 20
602.921381733209
 30
0.0
 40
67.53466821599572
100
AcDbArc
 50
268.6284910216979
 51
356.1663845733032
  0
LINE
  5
24E94
330
250A4
100
AcDbEntity
  8
YODOROGO
100
AcDbLine
 10
11756.10162798446
 20
572.9060611609829
 30
0.0
 11
11756.10162798446
 21
535.4060611609829
 31
0.0
  0
ARC
  5
24E95
330
250A4
100
AcDbEntity
  8
YODOROGO
100
AcDbCircle
 10
11756.81927839671
 20
614.1896088816206
 30
0.0
 40
41.28978486885457
100
AcDbArc
 50
269.0041020930593
 51
358.9126445549248
  0
LINE
  5
24E96
330
250A4
100
AcDbEntity
  8
YODOROGO
100
AcDbLine
 10
11846.10162798447
 20
535.4060611609829
 30
0.0
 11
11870.10162798447
 21
535.4060611609829
 31
0.0
  0
LINE
  5
24E97
330
250A4
100
AcDbEntity
  8
YODOROGO
100
AcDbLine
 10
11825.10162798446
 20
679.4060611609832
 30
0.0
 11
11846.10162798447
 21
679.4060611609832
 31
0.0
  0
LINE
  5
24E98
330
250A4
100
AcDbEntity
  8
YODOROGO
100
AcDbLine
 10
11858.10162798446
 20
745.4060611609828
 30
0.0
 11
11798.10162798446
 21
745.4060611609828
 31
0.0
  0
LINE
  5
24E99
330
250A4
100
AcDbEntity
  8
YODOROGO
100
AcDbLine
 10
11825.10162798446
 20
718.4060611609829
 30
0.0
 11
11873.10162798447
 21
718.4060611609829
 31
0.0
  0
LINE
  5
24E9A
330
250A4
100
AcDbEntity
  8
YODOROGO
100
AcDbLine
 10
11888.10162798447
 20
703.4060611609828
 30
0.0
 11
11825.10162798446
 21
703.4060611609828
 31
0.0
  0
LINE
  5
24E9B
330
250A4
100
AcDbEntity
  8
YODOROGO
100
AcDbLine
 10
11714.10162798447
 20
667.4060611609831
 30
0.0
 11
11756.10162798446
 21
667.4060611609831
 31
0.0
  0
LINE
  5
24E9C
330
250A4
100
AcDbEntity
  8
YODOROGO
100
AcDbLine
 10
11714.10162798447
 20
688.4060611609828
 30
0.0
 11
11714.10162798447
 21
667.4060611609831
 31
0.0
  0
LINE
  5
24E9D
330
250A4
100
AcDbEntity
  8
YODOROGO
100
AcDbLine
 10
11756.10162798446
 20
688.4060611609828
 30
0.0
 11
11714.10162798447
 21
688.4060611609828
 31
0.0
  0
LINE
  5
24E9E
330
250A4
100
AcDbEntity
  8
YODOROGO
100
AcDbLine
 10
11756.10162798446
 20
667.4060611609831
 30
0.0
 11
11756.10162798446
 21
688.4060611609828
 31
0.0
  0
LINE
  5
24E9F
330
250A4
100
AcDbEntity
  8
YODOROGO
100
AcDbLine
 10
11825.10162798446
 20
703.4060611609828
 30
0.0
 11
11825.10162798446
 21
718.4060611609829
 31
0.0
  0
LINE
  5
24EA0
330
250A4
100
AcDbEntity
  8
YODOROGO
100
AcDbLine
 10
11780.10162798446
 20
640.4060611609828
 30
0.0
 11
11780.10162798446
 21
715.4060611609828
 31
0.0
  0
LINE
  5
24EA1
330
250A4
100
AcDbEntity
  8
YODOROGO
100
AcDbLine
 10
11714.10162798447
 20
640.4060611609828
 30
0.0
 11
11780.10162798446
 21
640.4060611609828
 31
0.0
  0
LINE
  5
24EA2
330
250A4
100
AcDbEntity
  8
YODOROGO
100
AcDbLine
 10
11780.10162798446
 20
736.4060611609826
 30
0.0
 11
11780.10162798446
 21
760.4060611609829
 31
0.0
  0
ARC
  5
24EA3
330
250A4
100
AcDbEntity
  8
YODOROGO
100
AcDbCircle
 10
11858.10162798446
 20
751.4060611609817
 30
0.0
 40
5.999999999997951
100
AcDbArc
 50
270.0
 51
0.0000000000081422
  0
LINE
  5
24EA4
330
250A4
100
AcDbEntity
  8
YODOROGO
100
AcDbLine
 10
11864.10162798447
 20
760.4060611609829
 30
0.0
 11
11864.10162798447
 21
751.4060611609826
 31
0.0
  0
LINE
  5
24EA5
330
250A4
100
AcDbEntity
  8
YODOROGO
100
AcDbLine
 10
11888.10162798447
 20
760.4060611609829
 30
0.0
 11
11864.10162798447
 21
760.4060611609829
 31
0.0
  0
LINE
  5
24EA6
330
250A4
100
AcDbEntity
  8
YODOROGO
100
AcDbLine
 10
11888.10162798447
 20
733.4060611609828
 30
0.0
 11
11888.10162798447
 21
760.4060611609829
 31
0.0
  0
ARC
  5
24EA7
330
250A4
100
AcDbEntity
  8
YODOROGO
100
AcDbCircle
 10
11873.10162798447
 20
733.4060611609828
 30
0.0
 40
15.0
100
AcDbArc
 50
270.0
 51
0.0
  0
LINE
  5
24EA8
330
250A4
100
AcDbEntity
  8
YODOROGO
100
AcDbLine
 10
11888.10162798447
 20
679.4060611609832
 30
0.0
 11
11888.10162798447
 21
703.4060611609828
 31
0.0
  0
LINE
  5
24EA9
330
250A4
100
AcDbEntity
  8
YODOROGO
100
AcDbLine
 10
11870.10162798446
 20
679.4060611609832
 30
0.0
 11
11888.10162798447
 21
679.4060611609832
 31
0.0
  0
ARC
  5
24EAA
330
250A4
100
AcDbEntity
  8
SUNPOU
100
AcDbCircle
 10
5310.055546028489
 20
870.7446229540019
 30
0.0
 40
5.625
100
AcDbArc
 50
0.0
 51
180.0
  0
ARC
  5
24EAB
330
250A4
100
AcDbEntity
  8
SUNPOU
100
AcDbCircle
 10
5310.055546028489
 20
870.7446229540019
 30
0.0
 40
5.625
100
AcDbArc
 50
180.0
 51
0.0
  0
ARC
  5
24EAC
330
250A4
100
AcDbEntity
  8
SUNPOU
100
AcDbCircle
 10
6310.055546028489
 20
870.7446229540019
 30
0.0
 40
5.625
100
AcDbArc
 50
180.0
 51
0.0
  0
ARC
  5
24EAD
330
250A4
100
AcDbEntity
  8
SUNPOU
100
AcDbCircle
 10
6310.055546028489
 20
870.7446229540019
 30
0.0
 40
5.625
100
AcDbArc
 50
0.0
 51
180.0
  0
ARC
  5
24EAE
330
250A4
100
AcDbEntity
  8
SUNPOU
100
AcDbCircle
 10
6970.055546028489
 20
2330.744622954001
 30
0.0
 40
5.625
100
AcDbArc
 50
270.0
 51
90.0
  0
ARC
  5
24EAF
330
250A4
100
AcDbEntity
  8
SUNPOU
100
AcDbCircle
 10
6970.055546028489
 20
2330.744622954001
 30
0.0
 40
5.625
100
AcDbArc
 50
90.0
 51
270.0
  0
ARC
  5
24EB0
330
250A4
100
AcDbEntity
  8
SUNPOU
100
AcDbCircle
 10
6760.055546028488
 20
2170.744622954003
 30
0.0
 40
5.62499999999909
100
AcDbArc
 50
270.0
 51
90.0
  0
ARC
  5
24EB1
330
250A4
100
AcDbEntity
  8
SUNPOU
100
AcDbCircle
 10
6760.055546028488
 20
2170.744622954003
 30
0.0
 40
5.62499999999909
100
AcDbArc
 50
90.0
 51
270.0
  0
ARC
  5
24EB2
330
250A4
100
AcDbEntity
  8
SUNPOU
100
AcDbCircle
 10
6760.055546028488
 20
1690.744622954002
 30
0.0
 40
5.625
100
AcDbArc
 50
90.0
 51
270.0
  0
ARC
  5
24EB3
330
250A4
100
AcDbEntity
  8
SUNPOU
100
AcDbCircle
 10
6760.055546028488
 20
1690.744622954002
 30
0.0
 40
5.625
100
AcDbArc
 50
270.0
 51
90.0
  0
ARC
  5
24EB4
330
250A4
100
AcDbEntity
  8
SUNPOU
100
AcDbCircle
 10
6970.055546028489
 20
1530.744622954002
 30
0.0
 40
5.625
100
AcDbArc
 50
90.0
 51
270.0
  0
ARC
  5
24EB5
330
250A4
100
AcDbEntity
  8
SUNPOU
100
AcDbCircle
 10
6970.055546028489
 20
1530.744622954002
 30
0.0
 40
5.625
100
AcDbArc
 50
270.0
 51
90.0
  0
ARC
  5
24EB6
330
250A4
100
AcDbEntity
  8
SUNPOU
100
AcDbCircle
 10
6250.055546028487
 20
2780.744622954003
 30
0.0
 40
5.625
100
AcDbArc
 50
180.0
 51
0.0
  0
ARC
  5
24EB7
330
250A4
100
AcDbEntity
  8
SUNPOU
100
AcDbCircle
 10
6250.055546028487
 20
2780.744622954003
 30
0.0
 40
5.625
100
AcDbArc
 50
0.0
 51
180.0
  0
ARC
  5
24EB8
330
250A4
100
AcDbEntity
  8
SUNPOU
100
AcDbCircle
 10
5370.055546028488
 20
2780.744622954003
 30
0.0
 40
5.625
100
AcDbArc
 50
0.0
 51
180.0
  0
ARC
  5
24EB9
330
250A4
100
AcDbEntity
  8
SUNPOU
100
AcDbCircle
 10
5370.055546028488
 20
2780.744622954003
 30
0.0
 40
5.625
100
AcDbArc
 50
180.0
 51
0.0
  0
ARC
  5
24EBA
330
250A4
100
AcDbEntity
  8
SUNPOU
100
AcDbCircle
 10
4860.055546028489
 20
2260.744622954003
 30
0.0
 40
5.625
100
AcDbArc
 50
270.0
 51
90.0
  0
ARC
  5
24EBB
330
250A4
100
AcDbEntity
  8
SUNPOU
100
AcDbCircle
 10
4860.055546028489
 20
2260.744622954003
 30
0.0
 40
5.625
100
AcDbArc
 50
90.0
 51
270.0
  0
ARC
  5
24EBC
330
250A4
100
AcDbEntity
  8
SUNPOU
100
AcDbCircle
 10
6250.055546028487
 20
1080.744622954002
 30
0.0
 40
5.625
100
AcDbArc
 50
180.0
 51
0.0
  0
ARC
  5
24EBD
330
250A4
100
AcDbEntity
  8
SUNPOU
100
AcDbCircle
 10
6250.055546028487
 20
1080.744622954002
 30
0.0
 40
5.625
100
AcDbArc
 50
0.0
 51
180.0
  0
ARC
  5
24EBE
330
250A4
100
AcDbEntity
  8
SUNPOU
100
AcDbCircle
 10
5770.055546028489
 20
1080.744622954002
 30
0.0
 40
5.625
100
AcDbArc
 50
0.0
 51
180.0
  0
ARC
  5
24EBF
330
250A4
100
AcDbEntity
  8
SUNPOU
100
AcDbCircle
 10
5770.055546028489
 20
1080.744622954002
 30
0.0
 40
5.625
100
AcDbArc
 50
180.0
 51
0.0
  0
ARC
  5
24EC0
330
250A4
100
AcDbEntity
  8
SUNPOU
100
AcDbCircle
 10
4860.055546028489
 20
1600.744622954002
 30
0.0
 40
5.625
100
AcDbArc
 50
90.0
 51
270.0
  0
ARC
  5
24EC1
330
250A4
100
AcDbEntity
  8
SUNPOU
100
AcDbCircle
 10
4860.055546028489
 20
1600.744622954002
 30
0.0
 40
5.625
100
AcDbArc
 50
270.0
 51
90.0
  0
LINE
  5
24EC2
330
250A4
100
AcDbEntity
  8
SUNPOU
100
AcDbLine
 10
2141.306080631061
 20
2230.744622954002
 30
0.0
 11
2141.306080631061
 21
2843.077046087621
 31
0.0
  0
LINE
  5
24EC3
330
250A4
100
AcDbEntity
  8
SUNPOU
100
AcDbLine
 10
2621.306080631061
 20
2230.744622954003
 30
0.0
 11
2621.306080631061
 21
2843.077046087621
 31
0.0
  0
LINE
  5
24EC4
330
250A4
100
AcDbEntity
  8
SUNPOU
100
AcDbLine
 10
2156.306080631061
 20
2798.077046087621
 30
0.0
 11
2606.30608063106
 21
2798.077046087621
 31
0.0
  0
LINE
  5
24EC8
330
250A4
100
AcDbEntity
  8
SUNPOU
100
AcDbLine
 10
2811.306080631061
 20
1520.744622954004
 30
0.0
 11
3330.856080631056
 21
1520.744622954004
 31
0.0
  0
LINE
  5
24EC9
330
250A4
100
AcDbEntity
  8
SUNPOU
100
AcDbLine
 10
2811.306080631061
 20
1570.744622954004
 30
0.0
 11
3330.856080631056
 21
1570.744622954004
 31
0.0
  0
LINE
  5
24ECA
330
250A4
100
AcDbEntity
  8
SUNPOU
100
AcDbLine
 10
3285.856080631056
 20
1505.744622954003
 30
0.0
 11
3285.856080631056
 21
1490.744622954004
 31
0.0
  0
LINE
  5
24ECB
330
250A4
100
AcDbEntity
  8
SUNPOU
100
AcDbLine
 10
3285.856080631056
 20
1585.744622954003
 30
0.0
 11
3285.856080631056
 21
1600.744622954002
 31
0.0
  0
LINE
  5
24ECD
330
250A4
100
AcDbEntity
  8
SUNPOU
100
AcDbLine
 10
3285.856080631056
 20
1520.744622954004
 30
0.0
 11
3285.856080631056
 21
1570.744622954004
 31
0.0
  0
LINE
  5
24ED0
330
250A4
100
AcDbEntity
  8
SUNPOU
100
AcDbLine
 10
2811.306080631061
 20
1570.744622954004
 30
0.0
 11
3330.856080631056
 21
1570.744622954004
 31
0.0
  0
LINE
  5
24ED1
330
250A4
100
AcDbEntity
  8
SUNPOU
100
AcDbLine
 10
2711.306080631061
 20
2050.744622954003
 30
0.0
 11
3330.856080631056
 21
2050.744622954002
 31
0.0
  0
LINE
  5
24ED2
330
250A4
100
AcDbEntity
  8
SUNPOU
100
AcDbLine
 10
3285.856080631056
 20
1585.744622954003
 30
0.0
 11
3285.856080631056
 21
2035.744622954004
 31
0.0
  0
LINE
  5
24ED6
330
250A4
100
AcDbEntity
  8
SUNPOU
100
AcDbLine
 10
2811.306080631061
 20
1520.744622954004
 30
0.0
 11
3330.856080631056
 21
1520.744622954004
 31
0.0
  0
LINE
  5
24ED7
330
250A4
100
AcDbEntity
  8
SUNPOU
100
AcDbLine
 10
2811.306080631061
 20
1420.744622954003
 30
0.0
 11
3330.856080631056
 21
1420.744622954003
 31
0.0
  0
LINE
  5
24ED8
330
250A4
100
AcDbEntity
  8
SUNPOU
100
AcDbLine
 10
3285.856080631056
 20
1535.744622954004
 30
0.0
 11
3285.856080631056
 21
1550.744622954004
 31
0.0
  0
LINE
  5
24ED9
330
250A4
100
AcDbEntity
  8
SUNPOU
100
AcDbLine
 10
3285.856080631056
 20
1405.744622954004
 30
0.0
 11
3285.856080631056
 21
1155.030337239717
 31
0.0
  0
LINE
  5
24EDA
330
250A4
100
AcDbEntity
  8
SUNPOU
100
AcDbLine
 10
3285.856080631056
 20
1520.744622954004
 30
0.0
 11
3285.856080631056
 21
1420.744622954003
 31
0.0
  0
LINE
  5
24EDE
330
250A4
100
AcDbEntity
  8
SUNPOU
100
AcDbLine
 10
2381.30608063106
 20
1110.744622954002
 30
0.0
 11
2381.30608063106
 21
1125.744622954002
 31
0.0
  0
LINE
  5
24EDF
330
250A4
100
AcDbEntity
  8
SUNPOU
100
AcDbLine
 10
2681.306080631061
 20
1540.744622954002
 30
0.0
 11
2681.306080631061
 21
1035.744622954002
 31
0.0
  0
LINE
  5
24EE0
330
250A4
100
AcDbEntity
  8
SUNPOU
100
AcDbLine
 10
2396.30608063106
 20
1080.744622954002
 30
0.0
 11
2666.306080631061
 21
1080.744622954002
 31
0.0
  0
LINE
  5
24EE4
330
250A4
100
AcDbEntity
  8
SUNPOU
100
AcDbLine
 10
1681.30608063106
 20
1540.744622954
 30
0.0
 11
1681.30608063106
 21
1035.744622954002
 31
0.0
  0
LINE
  5
24EE5
330
250A4
100
AcDbEntity
  8
SUNPOU
100
AcDbLine
 10
2381.30608063106
 20
1110.744622954002
 30
0.0
 11
2381.30608063106
 21
1125.744622954002
 31
0.0
  0
LINE
  5
24EE6
330
250A4
100
AcDbEntity
  8
SUNPOU
100
AcDbLine
 10
1696.306080631059
 20
1080.744622954002
 30
0.0
 11
2366.30608063106
 21
1080.744622954002
 31
0.0
  0
LINE
  5
24EEA
330
250A4
100
AcDbEntity
  8
SUNPOU
100
AcDbLine
 10
1681.30608063106
 20
1540.744622954
 30
0.0
 11
1681.30608063106
 21
825.7446229540018
 31
0.0
  0
LINE
  5
24EEB
330
250A4
100
AcDbEntity
  8
SUNPOU
100
AcDbLine
 10
2681.306080631061
 20
1540.744622954002
 30
0.0
 11
2681.306080631061
 21
825.7446229540018
 31
0.0
  0
LINE
  5
24EEC
330
250A4
100
AcDbEntity
  8
SUNPOU
100
AcDbLine
 10
1696.306080631059
 20
870.7446229540019
 30
0.0
 11
2666.306080631061
 21
870.7446229540019
 31
0.0
  0
LINE
  5
24EF0
330
250A4
100
AcDbEntity
  8
SUNPOU
100
AcDbLine
 10
2711.306080631061
 20
2050.744622954003
 30
0.0
 11
3330.856080631056
 21
2050.744622954002
 31
0.0
  0
LINE
  5
24EF1
330
250A4
100
AcDbEntity
  8
SUNPOU
100
AcDbLine
 10
2651.30608063106
 20
2200.744622954003
 30
0.0
 11
3330.856080631056
 21
2200.744622954002
 31
0.0
  0
LINE
  5
24EF2
330
250A4
100
AcDbEntity
  8
SUNPOU
100
AcDbLine
 10
3285.856080631056
 20
2065.744622954003
 30
0.0
 11
3285.856080631056
 21
2185.744622954004
 31
0.0
  0
LINE
  5
24EF3
330
250A4
100
AcDbEntity
  8
SUNPOU
100
AcDbLine
 10
3285.856080631056
 20
2200.744622954002
 30
0.0
 11
3285.856080631056
 21
2451.458908668289
 31
0.0
  0
LINE
  5
24EF7
330
250A4
100
AcDbEntity
  8
SUNPOU
100
AcDbLine
 10
7396.040410277503
 20
6101.464770760363
 30
0.0
 11
7396.040410277503
 21
4403.46477076036
 31
0.0
  0
LINE
  5
24EF8
330
250A4
100
AcDbEntity
  8
SUNPOU
100
AcDbLine
 10
7796.040410277503
 20
4868.464770760361
 30
0.0
 11
7796.040410277503
 21
4403.46477076036
 31
0.0
  0
LINE
  5
24EF9
330
250A4
100
AcDbEntity
  8
SUNPOU
100
AcDbLine
 10
7411.040410277504
 20
4448.464770760362
 30
0.0
 11
7781.040410277502
 21
4448.464770760362
 31
0.0
  0
LINE
  5
24EFD
330
250A4
100
AcDbEntity
  8
SUNPOU
100
AcDbLine
 10
4996.040410277503
 20
6101.464770760363
 30
0.0
 11
4996.040410277503
 21
4403.46477076036
 31
0.0
  0
LINE
  5
24EFE
330
250A4
100
AcDbEntity
  8
SUNPOU
100
AcDbLine
 10
7396.040410277503
 20
6101.464770760363
 30
0.0
 11
7396.040410277503
 21
4403.46477076036
 31
0.0
  0
LINE
  5
24EFF
330
250A4
100
AcDbEntity
  8
SUNPOU
100
AcDbLine
 10
5011.040410277503
 20
4448.464770760362
 30
0.0
 11
7381.040410277503
 21
4448.464770760362
 31
0.0
  0
LINE
  5
24F03
330
250A4
100
AcDbEntity
  8
SUNPOU
100
AcDbLine
 10
4596.040410277502
 20
4868.464770760361
 30
0.0
 11
4596.040410277502
 21
4403.46477076036
 31
0.0
  0
LINE
  5
24F04
330
250A4
100
AcDbEntity
  8
SUNPOU
100
AcDbLine
 10
4996.040410277503
 20
6101.464770760363
 30
0.0
 11
4996.040410277503
 21
4403.46477076036
 31
0.0
  0
LINE
  5
24F05
330
250A4
100
AcDbEntity
  8
SUNPOU
100
AcDbLine
 10
4611.040410277502
 20
4448.464770760362
 30
0.0
 11
4981.040410277503
 21
4448.464770760362
 31
0.0
  0
ARC
  5
24F09
330
250A4
100
AcDbEntity
  8
SUNPOU
100
AcDbCircle
 10
7796.040410277503
 20
8068.464770760362
 30
0.0
 40
5.625
100
AcDbArc
 50
180.0
 51
0.0
  0
ARC
  5
24F0A
330
250A4
100
AcDbEntity
  8
SUNPOU
100
AcDbCircle
 10
7796.040410277503
 20
8068.464770760362
 30
0.0
 40
5.625
100
AcDbArc
 50
0.0
 51
180.0
  0
ARC
  5
24F0B
330
250A4
100
AcDbEntity
  8
SUNPOU
100
AcDbCircle
 10
7796.040410277503
 20
7858.464770760362
 30
0.0
 40
5.625
100
AcDbArc
 50
180.0
 51
0.0
  0
ARC
  5
24F0C
330
250A4
100
AcDbEntity
  8
SUNPOU
100
AcDbCircle
 10
7796.040410277503
 20
7858.464770760362
 30
0.0
 40
5.625
100
AcDbArc
 50
0.0
 51
180.0
  0
ARC
  5
24F0D
330
250A4
100
AcDbEntity
  8
SUNPOU
100
AcDbCircle
 10
7636.040410277503
 20
7858.464770760362
 30
0.0
 40
5.625
100
AcDbArc
 50
0.0
 51
180.0
  0
ARC
  5
24F0E
330
250A4
100
AcDbEntity
  8
SUNPOU
100
AcDbCircle
 10
7636.040410277503
 20
7858.464770760362
 30
0.0
 40
5.625
100
AcDbArc
 50
180.0
 51
0.0
  0
ARC
  5
24F0F
330
250A4
100
AcDbEntity
  8
SUNPOU
100
AcDbCircle
 10
7636.040410277503
 20
7858.464770760362
 30
0.0
 40
5.625
100
AcDbArc
 50
180.0
 51
0.0
  0
ARC
  5
24F10
330
250A4
100
AcDbEntity
  8
SUNPOU
100
AcDbCircle
 10
7636.040410277503
 20
7858.464770760362
 30
0.0
 40
5.625
100
AcDbArc
 50
0.0
 51
180.0
  0
ARC
  5
24F11
330
250A4
100
AcDbEntity
  8
SUNPOU
100
AcDbCircle
 10
7536.040410277504
 20
7648.464770760367
 30
0.0
 40
5.625
100
AcDbArc
 50
180.0
 51
0.0
  0
ARC
  5
24F12
330
250A4
100
AcDbEntity
  8
SUNPOU
100
AcDbCircle
 10
7536.040410277504
 20
7648.464770760367
 30
0.0
 40
5.625
100
AcDbArc
 50
0.0
 51
180.0
  0
ARC
  5
24F13
330
250A4
100
AcDbEntity
  8
SUNPOU
100
AcDbCircle
 10
7256.040410277503
 20
7648.464770760367
 30
0.0
 40
5.625
100
AcDbArc
 50
0.0
 51
180.0
  0
ARC
  5
24F14
330
250A4
100
AcDbEntity
  8
SUNPOU
100
AcDbCircle
 10
7256.040410277503
 20
7648.464770760367
 30
0.0
 40
5.625
100
AcDbArc
 50
180.0
 51
0.0
  0
ARC
  5
24F15
330
250A4
100
AcDbEntity
  8
SUNPOU
100
AcDbCircle
 10
7296.040410277503
 20
7438.464770760361
 30
0.0
 40
5.625
100
AcDbArc
 50
0.0
 51
180.0
  0
ARC
  5
24F16
330
250A4
100
AcDbEntity
  8
SUNPOU
100
AcDbCircle
 10
7296.040410277503
 20
7438.464770760361
 30
0.0
 40
5.625
100
AcDbArc
 50
180.0
 51
0.0
  0
ARC
  5
24F17
330
250A4
100
AcDbEntity
  8
SUNPOU
100
AcDbCircle
 10
7496.040410277503
 20
7438.464770760361
 30
0.0
 40
5.625
100
AcDbArc
 50
180.0
 51
0.0
  0
ARC
  5
24F18
330
250A4
100
AcDbEntity
  8
SUNPOU
100
AcDbCircle
 10
7496.040410277503
 20
7438.464770760361
 30
0.0
 40
5.625
100
AcDbArc
 50
0.0
 51
180.0
  0
ARC
  5
24F19
330
250A4
100
AcDbEntity
  8
SUNPOU
100
AcDbCircle
 10
8456.040410277502
 20
7198.464770760364
 30
0.0
 40
5.624999999998181
100
AcDbArc
 50
270.0
 51
90.0
  0
ARC
  5
24F1A
330
250A4
100
AcDbEntity
  8
SUNPOU
100
AcDbCircle
 10
8456.040410277502
 20
7198.464770760364
 30
0.0
 40
5.624999999998181
100
AcDbArc
 50
90.0
 51
270.0
  0
ARC
  5
24F1B
330
250A4
100
AcDbEntity
  8
SUNPOU
100
AcDbCircle
 10
8456.040410277502
 20
7138.464770760366
 30
0.0
 40
5.625
100
AcDbArc
 50
90.0
 51
270.0
  0
ARC
  5
24F1C
330
250A4
100
AcDbEntity
  8
SUNPOU
100
AcDbCircle
 10
8456.040410277502
 20
7138.464770760366
 30
0.0
 40
5.625
100
AcDbArc
 50
270.0
 51
90.0
  0
ARC
  5
24F1D
330
250A4
100
AcDbEntity
  8
SUNPOU
100
AcDbCircle
 10
8456.040410277502
 20
7138.464770760366
 30
0.0
 40
5.625
100
AcDbArc
 50
270.0
 51
90.0
  0
ARC
  5
24F1E
330
250A4
100
AcDbEntity
  8
SUNPOU
100
AcDbCircle
 10
8456.040410277502
 20
7138.464770760366
 30
0.0
 40
5.625
100
AcDbArc
 50
90.0
 51
270.0
  0
ARC
  5
24F1F
330
250A4
100
AcDbEntity
  8
SUNPOU
100
AcDbCircle
 10
8246.040410277503
 20
7138.464770760366
 30
0.0
 40
5.625
100
AcDbArc
 50
270.0
 51
90.0
  0
ARC
  5
24F20
330
250A4
100
AcDbEntity
  8
SUNPOU
100
AcDbCircle
 10
8246.040410277503
 20
7138.464770760366
 30
0.0
 40
5.625
100
AcDbArc
 50
90.0
 51
270.0
  0
ARC
  5
24F21
330
250A4
100
AcDbEntity
  8
SUNPOU
100
AcDbCircle
 10
8246.040410277503
 20
6998.464770760364
 30
0.0
 40
5.624999999998181
100
AcDbArc
 50
90.0
 51
270.0
  0
ARC
  5
24F22
330
250A4
100
AcDbEntity
  8
SUNPOU
100
AcDbCircle
 10
8246.040410277503
 20
6998.464770760364
 30
0.0
 40
5.624999999998181
100
AcDbArc
 50
270.0
 51
90.0
  0
ARC
  5
24F23
330
250A4
100
AcDbEntity
  8
SUNPOU
100
AcDbCircle
 10
8246.040410277503
 20
6998.464770760364
 30
0.0
 40
5.624999999998181
100
AcDbArc
 50
270.0
 51
90.0
  0
ARC
  5
24F24
330
250A4
100
AcDbEntity
  8
SUNPOU
100
AcDbCircle
 10
8246.040410277503
 20
6998.464770760364
 30
0.0
 40
5.624999999998181
100
AcDbArc
 50
90.0
 51
270.0
  0
ARC
  5
24F25
330
250A4
100
AcDbEntity
  8
SUNPOU
100
AcDbCircle
 10
8246.040410277503
 20
6798.464770760365
 30
0.0
 40
5.625
100
AcDbArc
 50
90.0
 51
270.0
  0
ARC
  5
24F26
330
250A4
100
AcDbEntity
  8
SUNPOU
100
AcDbCircle
 10
8246.040410277503
 20
6798.464770760365
 30
0.0
 40
5.625
100
AcDbArc
 50
270.0
 51
90.0
  0
ARC
  5
24F27
330
250A4
100
AcDbEntity
  8
SUNPOU
100
AcDbCircle
 10
8246.040410277503
 20
6798.464770760365
 30
0.0
 40
5.625
100
AcDbArc
 50
270.0
 51
90.0
  0
ARC
  5
24F28
330
250A4
100
AcDbEntity
  8
SUNPOU
100
AcDbCircle
 10
8246.040410277503
 20
6798.464770760365
 30
0.0
 40
5.625
100
AcDbArc
 50
90.0
 51
270.0
  0
ARC
  5
24F29
330
250A4
100
AcDbEntity
  8
SUNPOU
100
AcDbCircle
 10
8456.040410277502
 20
6658.464770760364
 30
0.0
 40
5.625000000001818
100
AcDbArc
 50
90.0
 51
270.0
  0
ARC
  5
24F2A
330
250A4
100
AcDbEntity
  8
SUNPOU
100
AcDbCircle
 10
8456.040410277502
 20
6658.464770760364
 30
0.0
 40
5.625000000001818
100
AcDbArc
 50
270.0
 51
90.0
  0
ARC
  5
24F2B
330
250A4
100
AcDbEntity
  8
SUNPOU
100
AcDbCircle
 10
8456.040410277502
 20
6658.464770760364
 30
0.0
 40
5.625000000001818
100
AcDbArc
 50
270.0
 51
90.0
  0
ARC
  5
24F2C
330
250A4
100
AcDbEntity
  8
SUNPOU
100
AcDbCircle
 10
8456.040410277502
 20
6658.464770760364
 30
0.0
 40
5.625000000001818
100
AcDbArc
 50
90.0
 51
270.0
  0
ARC
  5
24F2D
330
250A4
100
AcDbEntity
  8
SUNPOU
100
AcDbCircle
 10
8246.040410277503
 20
6658.464770760364
 30
0.0
 40
5.625000000001818
100
AcDbArc
 50
90.0
 51
270.0
  0
ARC
  5
24F2E
330
250A4
100
AcDbEntity
  8
SUNPOU
100
AcDbCircle
 10
8246.040410277503
 20
6658.464770760364
 30
0.0
 40
5.625000000001818
100
AcDbArc
 50
270.0
 51
90.0
  0
ARC
  5
24F2F
330
250A4
100
AcDbEntity
  8
SUNPOU
100
AcDbCircle
 10
8456.040410277502
 20
6198.464770760363
 30
0.0
 40
5.624999999998181
100
AcDbArc
 50
90.0
 51
270.0
  0
ARC
  5
24F30
330
250A4
100
AcDbEntity
  8
SUNPOU
100
AcDbCircle
 10
8456.040410277502
 20
6198.464770760363
 30
0.0
 40
5.624999999998181
100
AcDbArc
 50
270.0
 51
90.0
  0
ARC
  5
24F31
330
250A4
100
AcDbEntity
  8
SUNPOU
100
AcDbCircle
 10
6996.04041027751
 20
8068.464770760362
 30
0.0
 40
5.624999999992723
100
AcDbArc
 50
0.0
 51
180.0
  0
ARC
  5
24F32
330
250A4
100
AcDbEntity
  8
SUNPOU
100
AcDbCircle
 10
6996.04041027751
 20
8068.464770760362
 30
0.0
 40
5.624999999992723
100
AcDbArc
 50
180.0
 51
0.0
  0
ARC
  5
24F33
330
250A4
100
AcDbEntity
  8
SUNPOU
100
AcDbCircle
 10
7156.040410277502
 20
7858.464770760362
 30
0.0
 40
5.625
100
AcDbArc
 50
0.0
 51
180.0
  0
ARC
  5
24F34
330
250A4
100
AcDbEntity
  8
SUNPOU
100
AcDbCircle
 10
7156.040410277502
 20
7858.464770760362
 30
0.0
 40
5.625
100
AcDbArc
 50
180.0
 51
0.0
  0
ARC
  5
24F35
330
250A4
100
AcDbEntity
  8
SUNPOU
100
AcDbCircle
 10
7156.040410277502
 20
7858.464770760362
 30
0.0
 40
5.625
100
AcDbArc
 50
180.0
 51
0.0
  0
ARC
  5
24F36
330
250A4
100
AcDbEntity
  8
SUNPOU
100
AcDbCircle
 10
7156.040410277502
 20
7858.464770760362
 30
0.0
 40
5.625
100
AcDbArc
 50
0.0
 51
180.0
  0
ARC
  5
24F37
330
250A4
100
AcDbEntity
  8
SUNPOU
100
AcDbCircle
 10
6996.04041027751
 20
7858.464770760362
 30
0.0
 40
5.624999999992723
100
AcDbArc
 50
0.0
 51
180.0
  0
ARC
  5
24F38
330
250A4
100
AcDbEntity
  8
SUNPOU
100
AcDbCircle
 10
6996.04041027751
 20
7858.464770760362
 30
0.0
 40
5.624999999992723
100
AcDbArc
 50
180.0
 51
0.0
  0
ARC
  5
24F39
330
250A4
100
AcDbEntity
  8
SUNPOU
100
AcDbCircle
 10
6616.576551619565
 20
7198.464770760364
 30
0.0
 40
5.624999999998181
100
AcDbArc
 50
270.0
 51
90.0
  0
ARC
  5
24F3A
330
250A4
100
AcDbEntity
  8
SUNPOU
100
AcDbCircle
 10
6616.576551619565
 20
7198.464770760364
 30
0.0
 40
5.624999999998181
100
AcDbArc
 50
90.0
 51
270.0
  0
ARC
  5
24F3B
330
250A4
100
AcDbEntity
  8
SUNPOU
100
AcDbCircle
 10
6406.576551619564
 20
7198.464770760364
 30
0.0
 40
5.624999999998181
100
AcDbArc
 50
270.0
 51
90.0
  0
ARC
  5
24F3C
330
250A4
100
AcDbEntity
  8
SUNPOU
100
AcDbCircle
 10
6406.576551619564
 20
7198.464770760364
 30
0.0
 40
5.624999999998181
100
AcDbArc
 50
90.0
 51
270.0
  0
ARC
  5
24F3D
330
250A4
100
AcDbEntity
  8
SUNPOU
100
AcDbCircle
 10
6616.576551619565
 20
6898.464770760364
 30
0.0
 40
5.624999999998181
100
AcDbArc
 50
270.0
 51
90.0
  0
ARC
  5
24F3E
330
250A4
100
AcDbEntity
  8
SUNPOU
100
AcDbCircle
 10
6616.576551619565
 20
6898.464770760364
 30
0.0
 40
5.624999999998181
100
AcDbArc
 50
90.0
 51
270.0
  0
ARC
  5
24F3F
330
250A4
100
AcDbEntity
  8
SUNPOU
100
AcDbCircle
 10
6616.576551619565
 20
6898.464770760364
 30
0.0
 40
5.624999999998181
100
AcDbArc
 50
90.0
 51
270.0
  0
ARC
  5
24F40
330
250A4
100
AcDbEntity
  8
SUNPOU
100
AcDbCircle
 10
6616.576551619565
 20
6898.464770760364
 30
0.0
 40
5.624999999998181
100
AcDbArc
 50
270.0
 51
90.0
  0
ARC
  5
24F41
330
250A4
100
AcDbEntity
  8
SUNPOU
100
AcDbCircle
 10
6406.576551619564
 20
6198.464770760363
 30
0.0
 40
5.624999999998181
100
AcDbArc
 50
90.0
 51
270.0
  0
ARC
  5
24F42
330
250A4
100
AcDbEntity
  8
SUNPOU
100
AcDbCircle
 10
6406.576551619564
 20
6198.464770760363
 30
0.0
 40
5.624999999998181
100
AcDbArc
 50
270.0
 51
90.0
  0
ARC
  5
24F43
330
250A4
100
AcDbEntity
  8
SUNPOU
100
AcDbCircle
 10
6616.576551619565
 20
6198.464770760363
 30
0.0
 40
5.624999999998181
100
AcDbArc
 50
90.0
 51
270.0
  0
ARC
  5
24F44
330
250A4
100
AcDbEntity
  8
SUNPOU
100
AcDbCircle
 10
6616.576551619565
 20
6198.464770760363
 30
0.0
 40
5.624999999998181
100
AcDbArc
 50
270.0
 51
90.0
  0
ARC
  5
24F45
330
250A4
100
AcDbEntity
  8
SUNPOU
100
AcDbCircle
 10
4146.040410277502
 20
7138.464770760366
 30
0.0
 40
5.625
100
AcDbArc
 50
270.0
 51
90.0
  0
ARC
  5
24F46
330
250A4
100
AcDbEntity
  8
SUNPOU
100
AcDbCircle
 10
4146.040410277502
 20
7138.464770760366
 30
0.0
 40
5.625
100
AcDbArc
 50
90.0
 51
270.0
  0
ARC
  5
24F47
330
250A4
100
AcDbEntity
  8
SUNPOU
100
AcDbCircle
 10
4146.040410277502
 20
6898.464770760364
 30
0.0
 40
5.624999999998181
100
AcDbArc
 50
270.0
 51
90.0
  0
ARC
  5
24F48
330
250A4
100
AcDbEntity
  8
SUNPOU
100
AcDbCircle
 10
4146.040410277502
 20
6898.464770760364
 30
0.0
 40
5.624999999998181
100
AcDbArc
 50
90.0
 51
270.0
  0
ARC
  5
24F49
330
250A4
100
AcDbEntity
  8
SUNPOU
100
AcDbCircle
 10
4146.040410277502
 20
6898.464770760364
 30
0.0
 40
5.624999999998181
100
AcDbArc
 50
90.0
 51
270.0
  0
ARC
  5
24F4A
330
250A4
100
AcDbEntity
  8
SUNPOU
100
AcDbCircle
 10
4146.040410277502
 20
6898.464770760364
 30
0.0
 40
5.624999999998181
100
AcDbArc
 50
270.0
 51
90.0
  0
ARC
  5
24F4B
330
250A4
100
AcDbEntity
  8
SUNPOU
100
AcDbCircle
 10
4146.040410277502
 20
4898.464770760363
 30
0.0
 40
5.624999999998181
100
AcDbArc
 50
90.0
 51
270.0
  0
ARC
  5
24F4C
330
250A4
100
AcDbEntity
  8
SUNPOU
100
AcDbCircle
 10
4146.040410277502
 20
4898.464770760363
 30
0.0
 40
5.624999999998181
100
AcDbArc
 50
270.0
 51
90.0
  0
TEXT
  5
24F4D
330
250A4
100
AcDbEntity
  8
SUNPOU
100
AcDbText
 10
2295.591794916775
 20
2843.077046087621
 30
0.0
 40
90.0
  1
480
 41
0.6666666666666666
  7
00
100
AcDbText
  0
LINE
  5
24F4F
330
250A4
100
AcDbEntity
  8
SUNPOU
100
AcDbLine
 10
2610.056080631061
 20
2798.077046087621
 30
0.0
 11
2598.806080631061
 21
2798.077046087621
 31
0.0
  0
LINE
  5
24F51
330
250A4
100
AcDbEntity
  8
SUNPOU
100
AcDbLine
 10
2152.556080631061
 20
2798.077046087621
 30
0.0
 11
2163.806080631061
 21
2798.077046087621
 31
0.0
  0
LINE
  5
24F53
330
250A4
100
AcDbEntity
  8
SUNPOU
100
AcDbLine
 10
3285.856080631056
 20
1581.994622954004
 30
0.0
 11
3285.856080631056
 21
1593.244622954004
 31
0.0
  0
LINE
  5
24F55
330
250A4
100
AcDbEntity
  8
SUNPOU
100
AcDbLine
 10
3285.856080631056
 20
1509.494622954004
 30
0.0
 11
3285.856080631056
 21
1498.244622954004
 31
0.0
  0
TEXT
  5
24F56
330
250A4
100
AcDbEntity
  8
SUNPOU
100
AcDbText
 10
3438.65728512295
 20
1491.838927685163
 30
0.0
 40
90.0
  1
50
 50
90.0
 41
0.6666666666666666
  7
00
100
AcDbText
  0
TEXT
  5
24F57
330
250A4
100
AcDbEntity
  8
SUNPOU
100
AcDbText
 10
3240.856080631056
 20
1725.030337239718
 30
0.0
 40
90.0
  1
480
 50
90.0
 41
0.6666666666666666
  7
00
100
AcDbText
  0
LINE
  5
24F59
330
250A4
100
AcDbEntity
  8
SUNPOU
100
AcDbLine
 10
3285.856080631056
 20
2039.494622954003
 30
0.0
 11
3285.856080631056
 21
2028.244622954003
 31
0.0
  0
LINE
  5
24F5B
330
250A4
100
AcDbEntity
  8
SUNPOU
100
AcDbLine
 10
3285.856080631056
 20
1581.994622954004
 30
0.0
 11
3285.856080631056
 21
1593.244622954004
 31
0.0
  0
TEXT
  5
24F5C
330
250A4
100
AcDbEntity
  8
SUNPOU
100
AcDbText
 10
3240.856080631056
 20
1182.887480096861
 30
0.0
 40
90.0
  1
100
 50
90.0
 41
0.6666666666666666
  7
00
100
AcDbText
  0
LINE
  5
24F5E
330
250A4
100
AcDbEntity
  8
SUNPOU
100
AcDbLine
 10
3285.856080631056
 20
1409.494622954003
 30
0.0
 11
3285.856080631056
 21
1398.244622954003
 31
0.0
  0
LINE
  5
24F60
330
250A4
100
AcDbEntity
  8
SUNPOU
100
AcDbLine
 10
3285.856080631056
 20
1531.994622954004
 30
0.0
 11
3285.856080631056
 21
1543.244622954003
 31
0.0
  0
TEXT
  5
24F61
330
250A4
100
AcDbEntity
  8
SUNPOU
100
AcDbText
 10
2445.591794916774
 20
1125.744622954002
 30
0.0
 40
90.0
  1
300
 41
0.6666666666666666
  7
00
100
AcDbText
  0
LINE
  5
24F63
330
250A4
100
AcDbEntity
  8
SUNPOU
100
AcDbLine
 10
2670.056080631061
 20
1080.744622954002
 30
0.0
 11
2658.806080631061
 21
1080.744622954002
 31
0.0
  0
LINE
  5
24F65
330
250A4
100
AcDbEntity
  8
SUNPOU
100
AcDbLine
 10
2392.556080631061
 20
1080.744622954002
 30
0.0
 11
2403.80608063106
 21
1080.744622954002
 31
0.0
  0
TEXT
  5
24F66
330
250A4
100
AcDbEntity
  8
SUNPOU
100
AcDbText
 10
1945.591794916774
 20
1125.744622954002
 30
0.0
 40
90.0
  1
700
 41
0.6666666666666666
  7
00
100
AcDbText
  0
LINE
  5
24F68
330
250A4
100
AcDbEntity
  8
SUNPOU
100
AcDbLine
 10
2370.05608063106
 20
1080.744622954002
 30
0.0
 11
2358.80608063106
 21
1080.744622954002
 31
0.0
  0
LINE
  5
24F6A
330
250A4
100
AcDbEntity
  8
SUNPOU
100
AcDbLine
 10
1692.556080631059
 20
1080.744622954002
 30
0.0
 11
1703.806080631059
 21
1080.744622954002
 31
0.0
  0
TEXT
  5
24F6B
330
250A4
100
AcDbEntity
  8
SUNPOU
100
AcDbText
 10
2062.734652059631
 20
915.744622954002
 30
0.0
 40
90.0
  1
1000
 41
0.6666666666666666
  7
00
100
AcDbText
  0
LINE
  5
24F6D
330
250A4
100
AcDbEntity
  8
SUNPOU
100
AcDbLine
 10
2670.056080631061
 20
870.7446229540019
 30
0.0
 11
2658.806080631061
 21
870.7446229540019
 31
0.0
  0
LINE
  5
24F6F
330
250A4
100
AcDbEntity
  8
SUNPOU
100
AcDbLine
 10
1692.556080631059
 20
870.7446229540019
 30
0.0
 11
1703.806080631059
 21
870.7446229540019
 31
0.0
  0
TEXT
  5
24F70
330
250A4
100
AcDbEntity
  8
SUNPOU
100
AcDbText
 10
3240.856080631056
 20
2243.601765811146
 30
0.0
 40
90.0
  1
150
 50
90.0
 41
0.6666666666666666
  7
00
100
AcDbText
  0
LINE
  5
24F72
330
250A4
100
AcDbEntity
  8
SUNPOU
100
AcDbLine
 10
3285.856080631056
 20
2189.494622954002
 30
0.0
 11
3285.856080631056
 21
2178.244622954002
 31
0.0
  0
LINE
  5
24F74
330
250A4
100
AcDbEntity
  8
SUNPOU
100
AcDbLine
 10
3285.856080631056
 20
2061.994622954002
 30
0.0
 11
3285.856080631056
 21
2073.244622954002
 31
0.0
  0
TEXT
  5
24F75
330
250A4
100
AcDbEntity
  8
SUNPOU
100
AcDbText
 10
7510.326124563218
 20
4493.46477076036
 30
0.0
 40
90.0
  1
400
 41
0.6666666666666666
  7
00
100
AcDbText
  0
LINE
  5
24F77
330
250A4
100
AcDbEntity
  8
SUNPOU
100
AcDbLine
 10
7784.790410277503
 20
4448.464770760362
 30
0.0
 11
7773.540410277504
 21
4448.464770760362
 31
0.0
  0
LINE
  5
24F79
330
250A4
100
AcDbEntity
  8
SUNPOU
100
AcDbLine
 10
7407.290410277503
 20
4448.464770760362
 30
0.0
 11
7418.540410277502
 21
4448.464770760362
 31
0.0
  0
TEXT
  5
24F7A
330
250A4
100
AcDbEntity
  8
SUNPOU
100
AcDbText
 10
6081.75469599179
 20
4493.46477076036
 30
0.0
 40
90.0
  1
2400
 41
0.6666666666666666
  7
00
100
AcDbText
  0
LINE
  5
24F7C
330
250A4
100
AcDbEntity
  8
SUNPOU
100
AcDbLine
 10
7384.790410277503
 20
4448.464770760362
 30
0.0
 11
7373.540410277503
 21
4448.464770760362
 31
0.0
  0
LINE
  5
24F7E
330
250A4
100
AcDbEntity
  8
SUNPOU
100
AcDbLine
 10
5007.290410277501
 20
4448.464770760362
 30
0.0
 11
5018.540410277503
 21
4448.464770760362
 31
0.0
  0
TEXT
  5
24F7F
330
250A4
100
AcDbEntity
  8
SUNPOU
100
AcDbText
 10
4710.326124563217
 20
4493.46477076036
 30
0.0
 40
90.0
  1
400
 41
0.6666666666666666
  7
00
100
AcDbText
  0
LINE
  5
24F81
330
250A4
100
AcDbEntity
  8
SUNPOU
100
AcDbLine
 10
4984.790410277503
 20
4448.464770760362
 30
0.0
 11
4973.540410277503
 21
4448.464770760362
 31
0.0
  0
LINE
  5
24F83
330
250A4
100
AcDbEntity
  8
SUNPOU
100
AcDbLine
 10
4607.290410277502
 20
4448.464770760362
 30
0.0
 11
4618.540410277502
 21
4448.464770760362
 31
0.0
  0
ARC
  5
24F84
330
250A4
100
AcDbEntity
  8
SUNPOU
100
AcDbCircle
 10
2621.306080631061
 20
2798.077046087621
 30
0.0
 40
5.625
100
AcDbArc
 50
180.0
 51
0.0
  0
ARC
  5
24F85
330
250A4
100
AcDbEntity
  8
SUNPOU
100
AcDbCircle
 10
2621.306080631061
 20
2798.077046087621
 30
0.0
 40
5.625
100
AcDbArc
 50
0.0
 51
180.0
  0
ARC
  5
24F86
330
250A4
100
AcDbEntity
  8
SUNPOU
100
AcDbCircle
 10
2141.306080631061
 20
2798.077046087621
 30
0.0
 40
5.625
100
AcDbArc
 50
0.0
 51
180.0
  0
ARC
  5
24F87
330
250A4
100
AcDbEntity
  8
SUNPOU
100
AcDbCircle
 10
2141.306080631061
 20
2798.077046087621
 30
0.0
 40
5.625
100
AcDbArc
 50
180.0
 51
0.0
  0
ARC
  5
24F88
330
250A4
100
AcDbEntity
  8
SUNPOU
100
AcDbCircle
 10
3285.856080631056
 20
1570.744622954004
 30
0.0
 40
5.625
100
AcDbArc
 50
90.0
 51
270.0
  0
ARC
  5
24F89
330
250A4
100
AcDbEntity
  8
SUNPOU
100
AcDbCircle
 10
3285.856080631056
 20
1570.744622954004
 30
0.0
 40
5.625
100
AcDbArc
 50
270.0
 51
90.0
  0
ARC
  5
24F8A
330
250A4
100
AcDbEntity
  8
SUNPOU
100
AcDbCircle
 10
3285.856080631056
 20
1520.744622954004
 30
0.0
 40
5.625
100
AcDbArc
 50
270.0
 51
90.0
  0
ARC
  5
24F8B
330
250A4
100
AcDbEntity
  8
SUNPOU
100
AcDbCircle
 10
3285.856080631056
 20
1520.744622954004
 30
0.0
 40
5.625
100
AcDbArc
 50
90.0
 51
270.0
  0
ARC
  5
24F8C
330
250A4
100
AcDbEntity
  8
SUNPOU
100
AcDbCircle
 10
3285.856080631056
 20
2050.744622954002
 30
0.0
 40
5.625
100
AcDbArc
 50
270.0
 51
90.0
  0
ARC
  5
24F8D
330
250A4
100
AcDbEntity
  8
SUNPOU
100
AcDbCircle
 10
3285.856080631056
 20
2050.744622954002
 30
0.0
 40
5.625
100
AcDbArc
 50
90.0
 51
270.0
  0
ARC
  5
24F8E
330
250A4
100
AcDbEntity
  8
SUNPOU
100
AcDbCircle
 10
3285.856080631056
 20
1570.744622954004
 30
0.0
 40
5.625
100
AcDbArc
 50
90.0
 51
270.0
  0
ARC
  5
24F8F
330
250A4
100
AcDbEntity
  8
SUNPOU
100
AcDbCircle
 10
3285.856080631056
 20
1570.744622954004
 30
0.0
 40
5.625
100
AcDbArc
 50
270.0
 51
90.0
  0
ARC
  5
24F90
330
250A4
100
AcDbEntity
  8
SUNPOU
100
AcDbCircle
 10
3285.856080631056
 20
1420.744622954003
 30
0.0
 40
5.625
100
AcDbArc
 50
270.0
 51
90.0
  0
ARC
  5
24F91
330
250A4
100
AcDbEntity
  8
SUNPOU
100
AcDbCircle
 10
3285.856080631056
 20
1420.744622954003
 30
0.0
 40
5.625
100
AcDbArc
 50
90.0
 51
270.0
  0
ARC
  5
24F92
330
250A4
100
AcDbEntity
  8
SUNPOU
100
AcDbCircle
 10
3285.856080631056
 20
1520.744622954004
 30
0.0
 40
5.625
100
AcDbArc
 50
90.0
 51
270.0
  0
ARC
  5
24F93
330
250A4
100
AcDbEntity
  8
SUNPOU
100
AcDbCircle
 10
3285.856080631056
 20
1520.744622954004
 30
0.0
 40
5.625
100
AcDbArc
 50
270.0
 51
90.0
  0
ARC
  5
24F94
330
250A4
100
AcDbEntity
  8
SUNPOU
100
AcDbCircle
 10
2681.306080631061
 20
1080.744622954002
 30
0.0
 40
5.625
100
AcDbArc
 50
180.0
 51
0.0
  0
ARC
  5
24F95
330
250A4
100
AcDbEntity
  8
SUNPOU
100
AcDbCircle
 10
2681.306080631061
 20
1080.744622954002
 30
0.0
 40
5.625
100
AcDbArc
 50
0.0
 51
180.0
  0
ARC
  5
24F96
330
250A4
100
AcDbEntity
  8
SUNPOU
100
AcDbCircle
 10
2381.30608063106
 20
1080.744622954002
 30
0.0
 40
5.625
100
AcDbArc
 50
0.0
 51
180.0
  0
ARC
  5
24F97
330
250A4
100
AcDbEntity
  8
SUNPOU
100
AcDbCircle
 10
2381.30608063106
 20
1080.744622954002
 30
0.0
 40
5.625
100
AcDbArc
 50
180.0
 51
0.0
  0
ARC
  5
24F98
330
250A4
100
AcDbEntity
  8
SUNPOU
100
AcDbCircle
 10
2381.30608063106
 20
1080.744622954002
 30
0.0
 40
5.625
100
AcDbArc
 50
180.0
 51
0.0
  0
ARC
  5
24F99
330
250A4
100
AcDbEntity
  8
SUNPOU
100
AcDbCircle
 10
2381.30608063106
 20
1080.744622954002
 30
0.0
 40
5.625
100
AcDbArc
 50
0.0
 51
180.0
  0
ARC
  5
24F9A
330
250A4
100
AcDbEntity
  8
SUNPOU
100
AcDbCircle
 10
1681.30608063106
 20
1080.744622954002
 30
0.0
 40
5.625
100
AcDbArc
 50
0.0
 51
180.0
  0
ARC
  5
24F9B
330
250A4
100
AcDbEntity
  8
SUNPOU
100
AcDbCircle
 10
1681.30608063106
 20
1080.744622954002
 30
0.0
 40
5.625
100
AcDbArc
 50
180.0
 51
0.0
  0
ARC
  5
24F9C
330
250A4
100
AcDbEntity
  8
SUNPOU
100
AcDbCircle
 10
2681.306080631061
 20
870.7446229540019
 30
0.0
 40
5.625
100
AcDbArc
 50
180.0
 51
0.0
  0
ARC
  5
24F9D
330
250A4
100
AcDbEntity
  8
SUNPOU
100
AcDbCircle
 10
2681.306080631061
 20
870.7446229540019
 30
0.0
 40
5.625
100
AcDbArc
 50
0.0
 51
180.0
  0
ARC
  5
24F9E
330
250A4
100
AcDbEntity
  8
SUNPOU
100
AcDbCircle
 10
1681.30608063106
 20
870.7446229540019
 30
0.0
 40
5.625
100
AcDbArc
 50
0.0
 51
180.0
  0
ARC
  5
24F9F
330
250A4
100
AcDbEntity
  8
SUNPOU
100
AcDbCircle
 10
1681.30608063106
 20
870.7446229540019
 30
0.0
 40
5.625
100
AcDbArc
 50
180.0
 51
0.0
  0
ARC
  5
24FA0
330
250A4
100
AcDbEntity
  8
SUNPOU
100
AcDbCircle
 10
3285.856080631056
 20
2200.744622954002
 30
0.0
 40
5.625
100
AcDbArc
 50
270.0
 51
90.0
  0
ARC
  5
24FA1
330
250A4
100
AcDbEntity
  8
SUNPOU
100
AcDbCircle
 10
3285.856080631056
 20
2200.744622954002
 30
0.0
 40
5.625
100
AcDbArc
 50
90.0
 51
270.0
  0
ARC
  5
24FA2
330
250A4
100
AcDbEntity
  8
SUNPOU
100
AcDbCircle
 10
3285.856080631056
 20
2050.744622954002
 30
0.0
 40
5.625
100
AcDbArc
 50
90.0
 51
270.0
  0
ARC
  5
24FA3
330
250A4
100
AcDbEntity
  8
SUNPOU
100
AcDbCircle
 10
3285.856080631056
 20
2050.744622954002
 30
0.0
 40
5.625
100
AcDbArc
 50
270.0
 51
90.0
  0
ARC
  5
24FA4
330
250A4
100
AcDbEntity
  8
SUNPOU
100
AcDbCircle
 10
7796.040410277503
 20
4448.464770760362
 30
0.0
 40
5.625
100
AcDbArc
 50
180.0
 51
0.0
  0
ARC
  5
24FA5
330
250A4
100
AcDbEntity
  8
SUNPOU
100
AcDbCircle
 10
7796.040410277503
 20
4448.464770760362
 30
0.0
 40
5.625
100
AcDbArc
 50
0.0
 51
180.0
  0
ARC
  5
24FA6
330
250A4
100
AcDbEntity
  8
SUNPOU
100
AcDbCircle
 10
7396.040410277503
 20
4448.464770760362
 30
0.0
 40
5.625
100
AcDbArc
 50
0.0
 51
180.0
  0
ARC
  5
24FA7
330
250A4
100
AcDbEntity
  8
SUNPOU
100
AcDbCircle
 10
7396.040410277503
 20
4448.464770760362
 30
0.0
 40
5.625
100
AcDbArc
 50
180.0
 51
0.0
  0
ARC
  5
24FA8
330
250A4
100
AcDbEntity
  8
SUNPOU
100
AcDbCircle
 10
7396.040410277503
 20
4448.464770760362
 30
0.0
 40
5.625
100
AcDbArc
 50
180.0
 51
0.0
  0
ARC
  5
24FA9
330
250A4
100
AcDbEntity
  8
SUNPOU
100
AcDbCircle
 10
7396.040410277503
 20
4448.464770760362
 30
0.0
 40
5.625
100
AcDbArc
 50
0.0
 51
180.0
  0
ARC
  5
24FAA
330
250A4
100
AcDbEntity
  8
SUNPOU
100
AcDbCircle
 10
4996.040410277503
 20
4448.464770760362
 30
0.0
 40
5.625
100
AcDbArc
 50
0.0
 51
180.0
  0
ARC
  5
24FAB
330
250A4
100
AcDbEntity
  8
SUNPOU
100
AcDbCircle
 10
4996.040410277503
 20
4448.464770760362
 30
0.0
 40
5.625
100
AcDbArc
 50
180.0
 51
0.0
  0
ARC
  5
24FAC
330
250A4
100
AcDbEntity
  8
SUNPOU
100
AcDbCircle
 10
4996.040410277503
 20
4448.464770760362
 30
0.0
 40
5.625
100
AcDbArc
 50
180.0
 51
0.0
  0
ARC
  5
24FAD
330
250A4
100
AcDbEntity
  8
SUNPOU
100
AcDbCircle
 10
4996.040410277503
 20
4448.464770760362
 30
0.0
 40
5.625
100
AcDbArc
 50
0.0
 51
180.0
  0
ARC
  5
24FAE
330
250A4
100
AcDbEntity
  8
SUNPOU
100
AcDbCircle
 10
4596.040410277502
 20
4448.464770760362
 30
0.0
 40
5.625
100
AcDbArc
 50
0.0
 51
180.0
  0
ARC
  5
24FAF
330
250A4
100
AcDbEntity
  8
SUNPOU
100
AcDbCircle
 10
4596.040410277502
 20
4448.464770760362
 30
0.0
 40
5.625
100
AcDbArc
 50
180.0
 51
0.0
  0
ARC
  5
24FB7
330
250A4
100
AcDbEntity
  8
HIKIDASHI
100
AcDbCircle
 10
6500.367749710395
 20
7568.849499283054
 30
0.0
 40
74.66417910437195
100
AcDbArc
 50
164.8596129851043
 51
237.5045002941751
  0
ARC
  5
24FB8
330
250A4
100
AcDbEntity
  8
HIKIDASHI
100
AcDbCircle
 10
6436.943955664218
 20
7586.010522767502
 30
0.0
 40
8.959701492524635
100
AcDbArc
 50
15.14038701502261
 51
164.8596129849773
  0
ARC
  5
24FBA
330
250A4
100
AcDbEntity
  8
HIKIDASHI
100
AcDbCircle
 10
4247.977187334782
 20
2718.461774610483
 30
0.0
 40
74.66417910452284
100
AcDbArc
 50
164.859612985099
 51
237.5045002941329
  0
ARC
  5
24FBB
330
250A4
100
AcDbEntity
  8
HIKIDASHI
100
AcDbCircle
 10
4184.553393288477
 20
2735.622798094968
 30
0.0
 40
8.959701492542743
100
AcDbArc
 50
15.14038701504826
 51
164.8596129849796
  0
LINE
  5
24FBC
330
250A4
100
AcDbEntity
  8
HIKIDASHI
100
AcDbLine
 10
7440.975721878082
 20
7024.308146922834
 30
0.0
 11
7496.040410277503
 21
6998.464770760365
 31
0.0
  0
LINE
  5
24FBD
330
250A4
100
AcDbEntity
  8
HIKIDASHI
100
AcDbLine
 10
7496.040410277503
 20
6998.464770760365
 30
0.0
 11
7452.333827033449
 21
7040.770025530079
 31
0.0
  0
SOLID
  5
24FBE
330
250A4
100
AcDbEntity
  8
HIKIDASHI
100
AcDbTrace
 10
7440.975721878082
 20
7024.308146922834
 30
0.0
 11
7452.333827033449
 21
7040.770025530079
 31
0.0
 12
7496.040410277503
 22
6998.464770760365
 32
0.0
 13
7496.040410277503
 23
6998.464770760365
 33
0.0
  0
LINE
  5
24FBF
330
250A4
100
AcDbEntity
  8
HIKIDASHI
100
AcDbLine
 10
7452.333827033449
 20
7040.770025530079
 30
0.0
 11
7440.975721878082
 21
7024.308146922834
 31
0.0
  0
LINE
  5
24FC0
330
250A4
100
AcDbEntity
  8
HIKIDASHI
100
AcDbLine
 10
7246.635171920539
 20
7033.94888583869
 30
0.0
 11
7296.040410277503
 21
6998.464770760365
 31
0.0
  0
LINE
  5
24FC1
330
250A4
100
AcDbEntity
  8
HIKIDASHI
100
AcDbLine
 10
7296.040410277503
 20
6998.464770760365
 30
0.0
 11
7260.814086992265
 21
7048.054146112393
 31
0.0
  0
SOLID
  5
24FC2
330
250A4
100
AcDbEntity
  8
HIKIDASHI
100
AcDbTrace
 10
7246.635171920539
 20
7033.94888583869
 30
0.0
 11
7260.814086992265
 21
7048.054146112393
 31
0.0
 12
7296.040410277503
 22
6998.464770760365
 32
0.0
 13
7296.040410277503
 23
6998.464770760365
 33
0.0
  0
LINE
  5
24FC3
330
250A4
100
AcDbEntity
  8
HIKIDASHI
100
AcDbLine
 10
7260.814086992265
 20
7048.054146112393
 30
0.0
 11
7246.635171920539
 21
7033.94888583869
 31
0.0
  0
LINE
  5
24FC4
330
250A4
100
AcDbEntity
  8
HIKIDASHI
100
AcDbLine
 10
7336.680727671477
 20
6811.821071734349
 30
0.0
 11
7367.476544105851
 21
6864.276935945516
 31
0.0
  0
LINE
  5
24FC5
330
250A4
100
AcDbEntity
  8
HIKIDASHI
100
AcDbLine
 10
7367.476544105851
 20
6864.276935945516
 30
0.0
 11
7321.332653680524
 21
6824.644356210964
 31
0.0
  0
SOLID
  5
24FC6
330
250A4
100
AcDbEntity
  8
HIKIDASHI
100
AcDbTrace
 10
7336.680727671477
 20
6811.821071734349
 30
0.0
 11
7321.332653680524
 21
6824.644356210964
 31
0.0
 12
7367.476544105851
 22
6864.276935945516
 32
0.0
 13
7367.476544105851
 23
6864.276935945516
 33
0.0
  0
LINE
  5
24FC7
330
250A4
100
AcDbEntity
  8
HIKIDASHI
100
AcDbLine
 10
7321.332653680524
 20
6824.644356210964
 30
0.0
 11
7336.680727671477
 21
6811.821071734349
 31
0.0
  0
LINE
  5
24FC8
330
250A4
100
AcDbEntity
  8
HIKIDASHI
100
AcDbLine
 10
2541.337898128639
 20
2155.093392918709
 30
0.0
 11
2861.708263957677
 21
2588.077046087621
 31
0.0
1001
ACAD
1000
DSTYLE
1002
{
1070
   147
1040
1.5
1070
    77
1070
     0
1002
}
  0
LINE
  5
24FC9
330
250A4
100
AcDbEntity
  8
HIKIDASHI
100
AcDbLine
 10
2529.279769801189
 20
2164.015362501639
 30
0.0
 11
2487.80608063106
 21
2082.744622954003
 31
0.0
  0
LINE
  5
24FCA
330
250A4
100
AcDbEntity
  8
HIKIDASHI
100
AcDbLine
 10
2487.80608063106
 20
2082.744622954003
 30
0.0
 11
2553.396026456091
 21
2146.171423335779
 31
0.0
  0
SOLID
  5
24FCB
330
250A4
100
AcDbEntity
  8
HIKIDASHI
100
AcDbTrace
 10
2529.279769801189
 20
2164.015362501639
 30
0.0
 11
2553.396026456091
 21
2146.171423335779
 31
0.0
 12
2487.80608063106
 22
2082.744622954003
 32
0.0
 13
2487.80608063106
 23
2082.744622954003
 33
0.0
  0
LINE
  5
24FCC
330
250A4
100
AcDbEntity
  8
HIKIDASHI
100
AcDbLine
 10
2553.396026456091
 20
2146.171423335779
 30
0.0
 11
2529.279769801189
 21
2164.015362501639
 31
0.0
  0
LINE
  5
24FCD
330
250A4
100
AcDbEntity
  8
HIKIDASHI
100
AcDbLine
 10
2486.519879054727
 20
1586.566247873522
 30
0.0
 11
3090.271559542875
 21
688.9669329272346
 31
0.0
1001
ACAD
1000
DSTYLE
1002
{
1070
   147
1040
1.5
1070
    77
1070
     0
1002
}
  0
LINE
  5
24FCE
330
250A4
100
AcDbEntity
  8
HIKIDASHI
100
AcDbLine
 10
2498.966274901474
 20
1594.938059530869
 30
0.0
 11
2436.289009110646
 21
1661.244622954002
 31
0.0
  0
LINE
  5
24FCF
330
250A4
100
AcDbEntity
  8
HIKIDASHI
100
AcDbLine
 10
2436.289009110646
 20
1661.244622954002
 30
0.0
 11
2474.07348320798
 21
1578.194436216175
 31
0.0
  0
SOLID
  5
24FD0
330
250A4
100
AcDbEntity
  8
HIKIDASHI
100
AcDbTrace
 10
2498.966274901474
 20
1594.938059530869
 30
0.0
 11
2474.07348320798
 21
1578.194436216175
 31
0.0
 12
2436.289009110646
 22
1661.244622954002
 32
0.0
 13
2436.289009110646
 23
1661.244622954002
 33
0.0
  0
LINE
  5
24FD1
330
250A4
100
AcDbEntity
  8
HIKIDASHI
100
AcDbLine
 10
2474.07348320798
 20
1578.194436216175
 30
0.0
 11
2498.966274901474
 21
1594.938059530869
 31
0.0
  0
LINE
  5
24FD2
330
250A4
100
AcDbEntity
  8
HIKIDASHI
100
AcDbLine
 10
2634.61343526516
 20
1732.649061714796
 30
0.0
 11
3222.877259411718
 21
932.4302402870015
 31
0.0
1001
ACAD
1000
DSTYLE
1002
{
1070
   147
1040
1.5
1070
    77
1070
     0
1002
}
  0
LINE
  5
24FD3
330
250A4
100
AcDbEntity
  8
HIKIDASHI
100
AcDbLine
 10
2646.699154503072
 20
1741.533620820479
 30
0.0
 11
2581.306080631061
 21
1805.163377142264
 31
0.0
  0
LINE
  5
24FD4
330
250A4
100
AcDbEntity
  8
HIKIDASHI
100
AcDbLine
 10
2581.306080631061
 20
1805.163377142264
 30
0.0
 11
2622.527716027247
 21
1723.764502609111
 31
0.0
  0
SOLID
  5
24FD5
330
250A4
100
AcDbEntity
  8
HIKIDASHI
100
AcDbTrace
 10
2646.699154503072
 20
1741.533620820479
 30
0.0
 11
2622.527716027247
 21
1723.764502609111
 31
0.0
 12
2581.306080631061
 22
1805.163377142264
 32
0.0
 13
2581.306080631061
 23
1805.163377142264
 33
0.0
  0
LINE
  5
24FD6
330
250A4
100
AcDbEntity
  8
HIKIDASHI
100
AcDbLine
 10
2622.527716027247
 20
1723.764502609111
 30
0.0
 11
2646.699154503072
 21
1741.533620820479
 31
0.0
  0
ARC
  5
24FD7
330
250A4
100
AcDbEntity
  8
HIKIDASHI
100
AcDbCircle
 10
6374.699688153778
 20
7570.029626642642
 30
0.0
 40
74.66417910437143
100
AcDbArc
 50
301.7712278330706
 51
15.14038701490919
  0
ARC
  5
24FD8
330
250A4
100
AcDbEntity
  8
HIKIDASHI
100
AcDbCircle
 10
4122.309125777911
 20
2719.641901970073
 30
0.0
 40
74.66417910452252
100
AcDbArc
 50
301.7712278330703
 51
15.14038701490934
  0
LINE
  5
24FD9
330
250A4
100
AcDbEntity
  8
KISO
100
AcDbLine
 10
5310.055546028489
 20
1530.744622954004
 30
0.0
 11
6310.055546028489
 21
1530.744622954004
 31
0.0
  0
LINE
  5
24FDA
330
250A4
100
AcDbEntity
  8
KISO
100
AcDbLine
 10
6310.055546028489
 20
1530.744622954004
 30
0.0
 11
6310.055546028489
 21
2330.744622954003
 31
0.0
  0
LINE
  5
24FDB
330
250A4
100
AcDbEntity
  8
KISO
100
AcDbLine
 10
6310.055546028489
 20
2330.744622954003
 30
0.0
 11
5310.055546028489
 21
2330.744622954003
 31
0.0
  0
LINE
  5
24FDC
330
250A4
100
AcDbEntity
  8
KISO
100
AcDbLine
 10
5310.055546028489
 20
2330.744622954003
 30
0.0
 11
5310.055546028489
 21
1530.744622954004
 31
0.0
  0
LINE
  5
24FDD
330
250A4
100
AcDbEntity
  8
HATCH
100
AcDbLine
 10
1631.621770949263
 20
1420.744622953998
 30
0.0
 11
1689.356797868225
 21
1520.744622953998
 31
0.0
  0
LINE
  5
24FDE
330
250A4
100
AcDbEntity
  8
HATCH
100
AcDbLine
 10
1649.356797868225
 20
1520.744622953996
 30
0.0
 11
1669.356797868226
 21
1486.103606802622
 31
0.0
  0
LINE
  5
24FDF
330
250A4
100
AcDbEntity
  8
HATCH
100
AcDbLine
 10
1651.621770949263
 20
1455.385639105377
 30
0.0
 11
1671.621770949263
 21
1420.744622953998
 31
0.0
  0
LINE
  5
24FE0
330
250A4
100
AcDbEntity
  8
KISO-3
100
AcDbLine
 10
7636.040410277503
 20
7138.464770760363
 30
0.0
 11
7636.040410277503
 21
6658.464770760365
 31
0.0
  0
LINE
  5
24FE1
330
250A4
100
AcDbEntity
  8
KISO-3
100
AcDbLine
 10
7636.040410277503
 20
6658.464770760365
 30
0.0
 11
7156.040410277502
 21
6658.464770760365
 31
0.0
  0
LINE
  5
24FE2
330
250A4
100
AcDbEntity
  8
KISO-3
100
AcDbLine
 10
7156.040410277502
 20
6658.464770760365
 30
0.0
 11
7156.040410277502
 21
7138.464770760363
 31
0.0
  0
LINE
  5
24FE3
330
250A4
100
AcDbEntity
  8
KISO-2
100
AcDbLine
 10
7256.040410277503
 20
6758.464770760365
 30
0.0
 11
7536.040410277504
 21
6758.464770760365
 31
0.0
  0
LINE
  5
24FE4
330
250A4
100
AcDbEntity
  8
KISO-2
100
AcDbLine
 10
7536.040410277504
 20
6758.464770760365
 30
0.0
 11
7536.040410277504
 21
7038.464770760363
 31
0.0
  0
LINE
  5
24FE5
330
250A4
100
AcDbEntity
  8
KISO-2
100
AcDbLine
 10
7536.040410277504
 20
7038.464770760363
 30
0.0
 11
7256.040410277503
 21
7038.464770760363
 31
0.0
  0
LINE
  5
24FE6
330
250A4
100
AcDbEntity
  8
KISO-2
100
AcDbLine
 10
7256.040410277503
 20
7038.464770760363
 30
0.0
 11
7256.040410277503
 21
6758.464770760365
 31
0.0
  0
LINE
  5
24FE7
330
250A4
100
AcDbEntity
  8
KISO-2
100
AcDbLine
 10
5136.040410277503
 20
6758.464770760365
 30
0.0
 11
4856.040410277503
 21
6758.464770760365
 31
0.0
  0
LINE
  5
24FE8
330
250A4
100
AcDbEntity
  8
KISO-2
100
AcDbLine
 10
4856.040410277503
 20
6758.464770760365
 30
0.0
 11
4856.040410277503
 21
7038.464770760363
 31
0.0
  0
LINE
  5
24FE9
330
250A4
100
AcDbEntity
  8
KISO-2
100
AcDbLine
 10
4856.040410277503
 20
7038.464770760363
 30
0.0
 11
5136.040410277503
 21
7038.464770760363
 31
0.0
  0
LINE
  5
24FEA
330
250A4
100
AcDbEntity
  8
KISO-2
100
AcDbLine
 10
5136.040410277503
 20
7038.464770760363
 30
0.0
 11
5136.040410277503
 21
6758.464770760365
 31
0.0
  0
LINE
  5
24FEB
330
250A4
100
AcDbEntity
  8
KISO-3
100
AcDbLine
 10
4756.040410277503
 20
7138.464770760363
 30
0.0
 11
4756.040410277503
 21
6658.464770760365
 31
0.0
  0
LINE
  5
24FEC
330
250A4
100
AcDbEntity
  8
KISO-3
100
AcDbLine
 10
4756.040410277503
 20
6658.464770760365
 30
0.0
 11
5236.040410277503
 21
6658.464770760365
 31
0.0
  0
LINE
  5
24FED
330
250A4
100
AcDbEntity
  8
KISO-3
100
AcDbLine
 10
5236.040410277503
 20
6658.464770760365
 30
0.0
 11
5236.040410277503
 21
7138.464770760363
 31
0.0
  0
LINE
  5
24FEE
330
250A4
100
AcDbEntity
  8
HATCH
100
AcDbLine
 10
2681.621770949263
 20
1420.744622954002
 30
0.0
 11
2739.356797868226
 21
1520.744622954002
 31
0.0
  0
LINE
  5
24FEF
330
250A4
100
AcDbEntity
  8
HATCH
100
AcDbLine
 10
2699.356797868226
 20
1520.744622954
 30
0.0
 11
2719.356797868226
 21
1486.103606802626
 31
0.0
  0
LINE
  5
24FF0
330
250A4
100
AcDbEntity
  8
HATCH
100
AcDbLine
 10
2701.621770949262
 20
1455.38563910538
 30
0.0
 11
2721.621770949263
 21
1420.744622954002
 31
0.0
  0
LINE
  5
24FF1
330
250A4
100
AcDbEntity
  8
HATCH
100
AcDbLine
 10
2531.621770949262
 20
1420.744622954002
 30
0.0
 11
2589.356797868226
 21
1520.744622954002
 31
0.0
  0
LINE
  5
24FF2
330
250A4
100
AcDbEntity
  8
HATCH
100
AcDbLine
 10
2549.356797868226
 20
1520.744622954
 30
0.0
 11
2569.356797868226
 21
1486.103606802626
 31
0.0
  0
LINE
  5
24FF3
330
250A4
100
AcDbEntity
  8
HATCH
100
AcDbLine
 10
2551.621770949263
 20
1455.38563910538
 30
0.0
 11
2571.621770949263
 21
1420.744622954002
 31
0.0
  0
LINE
  5
24FF4
330
250A4
100
AcDbEntity
  8
HATCH
100
AcDbLine
 10
2381.621770949263
 20
1420.744622954002
 30
0.0
 11
2439.356797868226
 21
1520.744622954002
 31
0.0
  0
LINE
  5
24FF5
330
250A4
100
AcDbEntity
  8
HATCH
100
AcDbLine
 10
2399.356797868225
 20
1520.744622954
 30
0.0
 11
2419.356797868226
 21
1486.103606802626
 31
0.0
  0
LINE
  5
24FF6
330
250A4
100
AcDbEntity
  8
HATCH
100
AcDbLine
 10
2401.621770949263
 20
1455.38563910538
 30
0.0
 11
2421.621770949264
 21
1420.744622954002
 31
0.0
  0
LINE
  5
24FF7
330
250A4
100
AcDbEntity
  8
TENSEN-1
100
AcDbLine
 10
2517.806080631061
 20
1675.744622954002
 30
0.0
 11
2487.80608063106
 21
1675.744622954004
 31
0.0
  0
LINE
  5
24FF8
330
250A4
100
AcDbEntity
  8
TENSEN-1
100
AcDbLine
 10
2487.80608063106
 20
1675.744622954004
 30
0.0
 11
2487.80608063106
 21
2082.744622954003
 31
0.0
  0
LINE
  5
24FF9
330
250A4
100
AcDbEntity
  8
TENSEN-1
100
AcDbLine
 10
2487.80608063106
 20
2082.744622954003
 30
0.0
 11
2474.806080631061
 21
2082.744622954002
 31
0.0
  0
LINE
  5
24FFA
330
250A4
100
AcDbEntity
  8
TENSEN-1
100
AcDbLine
 10
2474.806080631061
 20
2082.744622954002
 30
0.0
 11
2474.806080631061
 21
1662.744622954002
 31
0.0
  0
LINE
  5
24FFB
330
250A4
100
AcDbEntity
  8
TENSEN-1
100
AcDbLine
 10
2474.806080631061
 20
1662.744622954002
 30
0.0
 11
2517.806080631061
 21
1662.744622954004
 31
0.0
  0
LINE
  5
24FFC
330
250A4
100
AcDbEntity
  8
TENSEN-1
100
AcDbLine
 10
2517.806080631061
 20
1662.744622954004
 30
0.0
 11
2517.806080631061
 21
1675.744622954002
 31
0.0
  0
LINE
  5
24FFD
330
250A4
100
AcDbEntity
  8
HASIRA
100
AcDbLine
 10
2425.856080631056
 20
2062.744622954002
 30
0.0
 11
2425.856080631056
 21
2577.036476938623
 31
0.0
  0
LINE
  5
24FFE
330
250A4
100
AcDbEntity
  8
HATCH
100
AcDbLine
 10
1371.306080630978
 20
2050.744622954002
 30
0.0
 11
1405.947096782324
 21
2110.744622953947
 31
0.0
  0
LINE
  5
24FFF
330
250A4
100
AcDbEntity
  8
HATCH
100
AcDbLine
 10
1381.947096782345
 20
2110.744622953947
 30
0.0
 11
1393.947096782335
 21
2089.96001326314
 31
0.0
  0
LINE
  5
25000
330
250A4
100
AcDbEntity
  8
HATCH
100
AcDbLine
 10
1383.306080630968
 20
2071.52923264481
 30
0.0
 11
1395.306080630956
 21
2050.744622954002
 31
0.0
  0
LINE
  5
25001
330
250A4
100
AcDbEntity
  8
HATCH
100
AcDbLine
 10
1461.306080630978
 20
2050.744622954002
 30
0.0
 11
1495.947096782324
 21
2110.744622953947
 31
0.0
  0
LINE
  5
25002
330
250A4
100
AcDbEntity
  8
HATCH
100
AcDbLine
 10
1471.947096782345
 20
2110.744622953947
 30
0.0
 11
1483.947096782334
 21
2089.96001326314
 31
0.0
  0
LINE
  5
25003
330
250A4
100
AcDbEntity
  8
HATCH
100
AcDbLine
 10
1473.306080630966
 20
2071.52923264481
 30
0.0
 11
1485.306080630957
 21
2050.744622954002
 31
0.0
  0
LINE
  5
25004
330
250A4
100
AcDbEntity
  8
HATCH
100
AcDbLine
 10
1641.306080630978
 20
2050.744622954002
 30
0.0
 11
1675.947096782325
 21
2110.744622953947
 31
0.0
  0
LINE
  5
25005
330
250A4
100
AcDbEntity
  8
HATCH
100
AcDbLine
 10
1651.947096782345
 20
2110.744622953947
 30
0.0
 11
1663.947096782336
 21
2089.96001326314
 31
0.0
  0
LINE
  5
25006
330
250A4
100
AcDbEntity
  8
HATCH
100
AcDbLine
 10
1653.306080630968
 20
2071.52923264481
 30
0.0
 11
1665.306080630957
 21
2050.744622954002
 31
0.0
  0
LINE
  5
25007
330
250A4
100
AcDbEntity
  8
HATCH
100
AcDbLine
 10
1551.306080630978
 20
2050.744622954002
 30
0.0
 11
1585.947096782325
 21
2110.744622953947
 31
0.0
  0
LINE
  5
25008
330
250A4
100
AcDbEntity
  8
HATCH
100
AcDbLine
 10
1561.947096782345
 20
2110.744622953947
 30
0.0
 11
1573.947096782335
 21
2089.96001326314
 31
0.0
  0
LINE
  5
25009
330
250A4
100
AcDbEntity
  8
HATCH
100
AcDbLine
 10
1563.306080630967
 20
2071.52923264481
 30
0.0
 11
1575.306080630957
 21
2050.744622954002
 31
0.0
  0
LINE
  5
2500A
330
250A4
100
AcDbEntity
  8
HATCH
100
AcDbLine
 10
2231.621770949263
 20
1420.744622953999
 30
0.0
 11
2289.356797868225
 21
1520.744622954
 31
0.0
  0
LINE
  5
2500B
330
250A4
100
AcDbEntity
  8
HATCH
100
AcDbLine
 10
2249.356797868225
 20
1520.744622953999
 30
0.0
 11
2269.356797868226
 21
1486.103606802624
 31
0.0
  0
LINE
  5
2500C
330
250A4
100
AcDbEntity
  8
HATCH
100
AcDbLine
 10
2251.621770949263
 20
1455.385639105378
 30
0.0
 11
2271.621770949263
 21
1420.744622953999
 31
0.0
  0
LINE
  5
2500D
330
250A4
100
AcDbEntity
  8
HATCH
100
AcDbLine
 10
1931.621770949263
 20
1420.744622953999
 30
0.0
 11
1989.356797868225
 21
1520.744622954
 31
0.0
  0
LINE
  5
2500E
330
250A4
100
AcDbEntity
  8
HATCH
100
AcDbLine
 10
1949.356797868226
 20
1520.744622953999
 30
0.0
 11
1969.356797868226
 21
1486.103606802624
 31
0.0
  0
LINE
  5
2500F
330
250A4
100
AcDbEntity
  8
HATCH
100
AcDbLine
 10
1951.621770949262
 20
1455.385639105378
 30
0.0
 11
1971.621770949263
 21
1420.744622953999
 31
0.0
  0
LINE
  5
25010
330
250A4
100
AcDbEntity
  8
HATCH
100
AcDbLine
 10
2081.621770949263
 20
1420.744622953999
 30
0.0
 11
2139.356797868225
 21
1520.744622954
 31
0.0
  0
LINE
  5
25011
330
250A4
100
AcDbEntity
  8
HATCH
100
AcDbLine
 10
2099.356797868225
 20
1520.744622953999
 30
0.0
 11
2119.356797868225
 21
1486.103606802624
 31
0.0
  0
LINE
  5
25012
330
250A4
100
AcDbEntity
  8
HATCH
100
AcDbLine
 10
2101.621770949262
 20
1455.385639105378
 30
0.0
 11
2121.621770949263
 21
1420.744622953999
 31
0.0
  0
LINE
  5
25013
330
250A4
100
AcDbEntity
  8
HATCH
100
AcDbLine
 10
1781.621770949262
 20
1420.744622953999
 30
0.0
 11
1839.356797868226
 21
1520.744622954
 31
0.0
  0
LINE
  5
25014
330
250A4
100
AcDbEntity
  8
HATCH
100
AcDbLine
 10
1799.356797868226
 20
1520.744622953999
 30
0.0
 11
1819.356797868226
 21
1486.103606802624
 31
0.0
  0
LINE
  5
25015
330
250A4
100
AcDbEntity
  8
HATCH
100
AcDbLine
 10
1801.621770949262
 20
1455.385639105378
 30
0.0
 11
1821.621770949263
 21
1420.744622953999
 31
0.0
  0
LINE
  5
25016
330
250A4
100
AcDbEntity
  8
TENSEN-1
100
AcDbLine
 10
2244.806080631061
 20
1675.744622954002
 30
0.0
 11
2274.80608063106
 21
1675.744622954002
 31
0.0
  0
LINE
  5
25017
330
250A4
100
AcDbEntity
  8
TENSEN-1
100
AcDbLine
 10
2274.80608063106
 20
1675.744622954002
 30
0.0
 11
2274.80608063106
 21
2082.744622954002
 31
0.0
  0
LINE
  5
25018
330
250A4
100
AcDbEntity
  8
TENSEN-1
100
AcDbLine
 10
2274.80608063106
 20
2082.744622954002
 30
0.0
 11
2287.80608063106
 21
2082.744622954002
 31
0.0
  0
LINE
  5
25019
330
250A4
100
AcDbEntity
  8
TENSEN-1
100
AcDbLine
 10
2287.80608063106
 20
2082.744622954002
 30
0.0
 11
2287.80608063106
 21
1662.744622954002
 31
0.0
  0
LINE
  5
2501A
330
250A4
100
AcDbEntity
  8
TENSEN-1
100
AcDbLine
 10
2287.80608063106
 20
1662.744622954002
 30
0.0
 11
2244.806080631061
 21
1662.744622954004
 31
0.0
  0
LINE
  5
2501B
330
250A4
100
AcDbEntity
  8
TENSEN-1
100
AcDbLine
 10
2244.806080631061
 20
1662.744622954004
 30
0.0
 11
2244.806080631061
 21
1675.744622954002
 31
0.0
  0
LINE
  5
2501C
330
250A4
100
AcDbEntity
  8
HATCH
100
AcDbLine
 10
1281.306080630979
 20
2050.744622954002
 30
0.0
 11
1315.947096782325
 21
2110.744622953947
 31
0.0
  0
LINE
  5
2501D
330
250A4
100
AcDbEntity
  8
HATCH
100
AcDbLine
 10
1291.947096782346
 20
2110.744622953947
 30
0.0
 11
1303.947096782336
 21
2089.96001326314
 31
0.0
  0
LINE
  5
2501E
330
250A4
100
AcDbEntity
  8
HATCH
100
AcDbLine
 10
1293.306080630967
 20
2071.52923264481
 30
0.0
 11
1305.306080630957
 21
2050.744622954002
 31
0.0
  0
LINE
  5
2501F
330
250A4
100
AcDbEntity
  8
HATCH
100
AcDbLine
 10
1191.306080630978
 20
2050.744622954002
 30
0.0
 11
1225.947096782324
 21
2110.744622953947
 31
0.0
  0
LINE
  5
25020
330
250A4
100
AcDbEntity
  8
HATCH
100
AcDbLine
 10
1201.947096782346
 20
2110.744622953947
 30
0.0
 11
1213.947096782336
 21
2089.96001326314
 31
0.0
  0
LINE
  5
25021
330
250A4
100
AcDbEntity
  8
HATCH
100
AcDbLine
 10
1203.306080630968
 20
2071.52923264481
 30
0.0
 11
1215.306080630957
 21
2050.744622954002
 31
0.0
  0
LINE
  5
25022
330
250A4
100
AcDbEntity
  8
HATCH
100
AcDbLine
 10
1101.306080630978
 20
2050.744622954002
 30
0.0
 11
1135.947096782324
 21
2110.744622953947
 31
0.0
  0
LINE
  5
25023
330
250A4
100
AcDbEntity
  8
HATCH
100
AcDbLine
 10
1111.947096782346
 20
2110.744622953947
 30
0.0
 11
1123.947096782335
 21
2089.96001326314
 31
0.0
  0
LINE
  5
25024
330
250A4
100
AcDbEntity
  8
HATCH
100
AcDbLine
 10
1113.306080630968
 20
2071.52923264481
 30
0.0
 11
1125.306080630956
 21
2050.744622954002
 31
0.0
  0
LINE
  5
25025
330
250A4
100
AcDbEntity
  8
HASIRA
100
AcDbLine
 10
2336.756080631058
 20
2062.744622954002
 30
0.0
 11
2336.756080631058
 21
2577.036476938623
 31
0.0
  0
LINE
  5
25026
330
250A4
100
AcDbEntity
  8
KISO
100
AcDbLine
 10
2241.30608063106
 20
2050.744622954002
 30
0.0
 11
2521.30608063106
 21
2050.744622954003
 31
0.0
  0
LINE
  5
25027
330
250A4
100
AcDbEntity
  8
KISO
100
AcDbLine
 10
2521.30608063106
 20
2050.744622954003
 30
0.0
 11
2521.30608063106
 21
2062.744622954002
 31
0.0
  0
LINE
  5
25028
330
250A4
100
AcDbEntity
  8
KISO
100
AcDbLine
 10
2521.30608063106
 20
2062.744622954002
 30
0.0
 11
2241.30608063106
 21
2062.744622954002
 31
0.0
  0
LINE
  5
25029
330
250A4
100
AcDbEntity
  8
KISO
100
AcDbLine
 10
2241.30608063106
 20
2062.744622954002
 30
0.0
 11
2241.30608063106
 21
2050.744622954002
 31
0.0
  0
LINE
  5
2502A
330
250A4
100
AcDbEntity
  8
1PL-M1
100
AcDbLine
 10
2381.30608063106
 20
1035.744622954002
 30
0.0
 11
2381.30608063106
 21
2577.036476938623
 31
0.0
  0
LINE
  5
2502B
330
250A4
100
AcDbEntity
  8
YANE
100
AcDbLine
 10
7617.841063328746
 20
5024.915498379021
 30
0.0
 11
4774.239757226268
 21
5024.915498379021
 31
0.0
  0
LINE
  5
2502C
330
250A4
100
AcDbEntity
  8
YANE
100
AcDbLine
 10
4774.239757226268
 20
5024.915498379021
 30
0.0
 11
4774.239757226268
 21
7013.014770760361
 31
0.0
  0
LINE
  5
2502D
330
250A4
100
AcDbEntity
  8
YANE
100
AcDbLine
 10
4774.239757226268
 20
7013.014770760361
 30
0.0
 11
7617.841063328746
 21
7013.014770760361
 31
0.0
  0
LINE
  5
2502E
330
250A4
100
AcDbEntity
  8
YANE
100
AcDbLine
 10
7617.841063328746
 20
7013.014770760361
 30
0.0
 11
7617.841063328746
 21
5024.915498379021
 31
0.0
  0
TEXT
  5
2511D
330
250A4
100
AcDbEntity
  8
SUNPOU
100
AcDbText
 10
7580.272955655761
 20
2897.460928034632
 30
0.0
 40
89.9993750043402
  1
地耐力   　　　 以上,コンクリート設計基準強度　　　　　以上
  7
01
100
AcDbText
  0
TEXT
  5
2511E
330
250A4
100
AcDbEntity
  8
SUNPOU
100
AcDbText
 10
7955.228700745151
 20
1746.746642320347
 30
0.0
 40
90.0
  1
所もありますので、ご注意願います。
  7
01
100
AcDbText
  0
TEXT
  5
2511F
330
250A4
100
AcDbEntity
  8
SUNPOU
100
AcDbText
 10
7575.06646979667
 20
3244.21493048059
 30
0.0
 40
120.0
  1
基礎断面図
  7
01
 72
     4
 11
7915.066469796669
 21
3304.214930480589
 31
0.0
100
AcDbText
  0
TEXT
  5
25120
330
250A4
100
AcDbEntity
  8
SUNPOU
100
AcDbText
 10
7638.389035443032
 20
2518.17521374892
 30
0.0
 40
90.0
  1
注　）
  7
01
100
AcDbText
  0
TEXT
  5
25121
330
250A4
100
AcDbEntity
  8
SUNPOU
100
AcDbText
 10
7638.389035443032
 20
2055.318070891777
 30
0.0
 40
90.0
  1
注　）
  7
01
100
AcDbText
  0
TEXT
  5
25122
330
250A4
100
AcDbEntity
  8
SUNPOU
100
AcDbText
 10
7638.389035443032
 20
2209.603785177491
 30
0.0
 40
90.0
  1
注　）
  7
01
100
AcDbText
  0
TEXT
  5
25123
330
250A4
100
AcDbEntity
  8
SUNPOU
100
AcDbText
 10
7449.709326939526
 20
3086.714930480589
 30
0.0
 40
90.0
  1
<下記条件での参考図>
  7
01
 72
     4
 11
8038.56646979667
 21
3131.714930480589
 31
0.0
100
AcDbText
  0
TEXT
  5
25124
330
250A4
100
AcDbEntity
  8
SUNPOU
100
AcDbText
 10
7580.272955655761
 20
2743.17521374892
 30
0.0
 40
89.9993750043402
  1
基準風速   　　 , 地表面粗度区分
  7
01
100
AcDbText
  0
TEXT
  5
25125
330
250A4
100
AcDbEntity
  8
SUNPOU
100
AcDbText
 10
7749.02295565576
 20
2209.603785177491
 30
0.0
 40
90.0
  1
2
 41
0.6700000000000001
  7
01
100
AcDbText
  0
TEXT
  5
25126
330
250A4
100
AcDbEntity
  8
SUNPOU
100
AcDbText
 10
7749.02295565576
 20
2055.318070891777
 30
0.0
 40
90.0
  1
3
 41
0.6700000000000001
  7
01
100
AcDbText
  0
TEXT
  5
25127
330
250A4
100
AcDbEntity
  8
SUNPOU
100
AcDbText
 10
7749.02295565576
 20
2518.17521374892
 30
0.0
 40
90.0
  1
1
 41
0.6700000000000001
  7
01
100
AcDbText
  0
ARC
  5
25128
330
250A4
100
AcDbEntity
  8
SUNPOU
100
AcDbCircle
 10
7733.23122956296
 20
2861.248351476463
 30
0.0
 40
225.0
100
AcDbArc
 50
148.3472725282761
 51
211.6527274717238
  0
TEXT
  5
25129
330
250A4
100
AcDbEntity
  8
SUNPOU
100
AcDbText
 10
7955.228700745151
 20
1901.032356606063
 30
0.0
 40
90.0
  1
地域によっては、フックをつける様指導している
  7
01
100
AcDbText
  0
TEXT
  5
2512A
330
250A4
100
AcDbEntity
  8
SUNPOU
100
AcDbText
 10
7955.228700745151
 20
2518.17521374892
 30
0.0
 40
90.0
  1
寒冷地の場合、凍結深度等を考慮し、実情に
  7
01
100
AcDbText
  0
TEXT
  5
2512B
330
250A4
100
AcDbEntity
  8
SUNPOU
100
AcDbText
 10
7955.228700745151
 20
2209.603785177491
 30
0.0
 40
90.0
  1
その他現地の実情にあわせて設計して下さい。
  7
01
100
AcDbText
  0
TEXT
  5
2512C
330
250A4
100
AcDbEntity
  8
SUNPOU
100
AcDbText
 10
7955.228700745151
 20
2363.889499463204
 30
0.0
 40
90.0
  1
あわせて設計して下さい。
  7
01
100
AcDbText
  0
TEXT
  5
2512D
330
250A4
100
AcDbEntity
  8
SUNPOU
100
AcDbText
 10
7955.228700745151
 20
2055.318070891777
 30
0.0
 40
90.0
  1
異形鉄筋の場合、原則としてフックは不要ですが、
  7
01
100
AcDbText
  0
TEXT
  5
2512E
330
250A4
100
AcDbEntity
  8
SUNPOU
100
AcDbText
 10
8291.91680715964
 20
3256.522622788281
 30
0.0
 40
92.30769230769228
  1
（ S = 　　  ）
 41
0.6700000000000001
  7
00
 11
8291.91680715964
 21
3244.214930480588
 31
0.0
100
AcDbText
 73
     1
  0
TEXT
  5
2512F
330
250A4
100
AcDbEntity
  8
SUNPOU
100
AcDbText
 10
7954.531363080831
 20
2897.460928034632
 30
0.0
 40
89.9993750043402
  1
50  N/m
 41
0.6700000000000001
  7
01
100
AcDbText
  0
TEXT
  5
25130
330
250A4
100
AcDbEntity
  8
SUNPOU
100
AcDbText
 10
8064.036384320919
 20
2743.17521374892
 30
0.0
 40
89.9993750043402
  1
34 m/s
 41
0.6700000000000001
  7
01
100
AcDbText
  0
TEXT
  5
25131
330
250A4
100
AcDbEntity
  8
SUNPOU
100
AcDbText
 10
8090.367815866782
 20
2897.460928034632
 30
0.0
 40
71.99950000347218
  1
K
 41
0.6700000000000001
  7
01
100
AcDbText
  0
TEXT
  5
25132
330
250A4
100
AcDbEntity
  8
SUNPOU
100
AcDbText
 10
8358.00797259518
 20
2947.649354392119
 30
0.0
 40
46.28539285937498
  1
2
 41
0.6700000000000001
  7
00
100
AcDbText
  0
TEXT
  5
25133
330
250A4
100
AcDbEntity
  8
SUNPOU
100
AcDbText
 10
8723.975079282459
 20
3235.599545865203
 30
0.0
 40
73.84615384615384
  1
30
 41
0.6700000000000001
  7
00
 11
8723.975079282459
 21
3225.753392019049
 31
0.0
100
AcDbText
 73
     1
  0
TEXT
  5
25134
330
250A4
100
AcDbEntity
  8
SUNPOU
100
AcDbText
 10
8611.61950901271
 20
3272.522622788282
 30
0.0
 40
73.84615384615384
  1
1
 41
0.6700000000000001
  7
00
 11
8611.61950901271
 21
3262.676468942128
 31
0.0
100
AcDbText
 73
     1
  0
TEXT
  5
25135
330
250A4
100
AcDbEntity
  8
SUNPOU
100
AcDbText
 10
8660.02563632808
 20
3254.061084326743
 30
0.0
 40
73.84615384615384
  1
/
 41
0.6700000000000001
  7
00
 11
8660.02563632808
 21
3244.214930480588
 31
0.0
100
AcDbText
 73
     1
  0
LINE
  5
25136
330
250A4
100
AcDbEntity
  8
SUNPOU
100
AcDbLine
 10
9372.088517222358
 20
2826.667577447699
 30
0.0
 11
9428.338517222359
 21
2826.667577447699
 31
0.0
  0
LINE
  5
25137
330
250A4
100
AcDbEntity
  8
SUNPOU
100
AcDbLine
 10
9372.088517222358
 20
2743.175213748918
 30
0.0
 11
9428.338517222359
 21
2743.175213748918
 31
0.0
  0
LINE
  5
25138
330
250A4
100
AcDbEntity
  8
SUNPOU
100
AcDbLine
 10
9383.338517222359
 20
2743.17521374892
 30
0.0
 11
9383.338517222359
 21
2826.667577447699
 31
0.0
  0
LINE
  5
25139
330
250A4
100
AcDbEntity
  8
SUNPOU
100
AcDbLine
 10
9400.213517222359
 20
2743.17521374892
 30
0.0
 11
9400.213517222359
 21
2826.667577447699
 31
0.0
  0
LINE
  5
2513A
330
250A4
100
AcDbEntity
  8
SUNPOU
100
AcDbLine
 10
9417.088517222358
 20
2743.17521374892
 30
0.0
 11
9417.088517222358
 21
2826.667577447699
 31
0.0
  0
TEXT
  5
2513B
330
250A4
100
AcDbEntity
  8
SUNPOU
100
AcDbText
 10
9999.283433942471
 20
2897.460928034632
 30
0.0
 40
89.9993750043402
  1
18
 41
0.6700000000000001
  7
01
100
AcDbText
  0
TEXT
  5
2513C
330
250A4
100
AcDbEntity
  8
SUNPOU
100
AcDbText
 10
10135.11988672841
 20
2897.460928034632
 30
0.0
 40
89.9993750043402
  1
N/mm
 41
0.6700000000000001
  7
01
100
AcDbText
  0
TEXT
  5
2513D
330
250A4
100
AcDbEntity
  8
SUNPOU
100
AcDbText
 10
10439.58436875982
 20
2947.649354392119
 30
0.0
 40
46.28539285937498
  1
2
 41
0.6700000000000001
  7
00
100
AcDbText
  0
ARC
  5
2513E
330
250A4
100
AcDbEntity
  8
SUNPOU
100
AcDbCircle
 10
10588.46163329344
 20
2861.248351476463
 30
0.0
 40
225.0
100
AcDbArc
 50
328.3472725282761
 51
31.65272747172387
  0
ENDSEC
  0
SECTION
  2
OBJECTS
  0
DICTIONARY
  5
25094
330
0
100
AcDbDictionary
281
     1
  3
ACAD_GROUP
350
25095
  3
ACAD_LAYOUT
350
250A1
  3
ACAD_MLEADERSTYLE
350
250EF
  3
ACAD_MLINESTYLE
350
2509E
  3
ACAD_PLOTSETTINGS
350
250A0
  3
ACAD_PLOTSTYLENAME
350
25096
  3
ACAD_TABLESTYLE
350
250EE
  3
AcDbVariableDictionary
350
2513F
  0
DICTIONARY
  5
25095
102
{ACAD_REACTORS
330
25094
102
}
330
25094
100
AcDbDictionary
281
     1
  0
DICTIONARY
  5
250A1
102
{ACAD_REACTORS
330
25094
102
}
330
25094
100
AcDbDictionary
281
     1
  3
Layout1
350
250A3
  3
Model
350
250A5
  0
DICTIONARY
  5
250EF
102
{ACAD_REACTORS
330
25094
102
}
330
25094
100
AcDbDictionary
281
     1
  0
DICTIONARY
  5
2509E
102
{ACAD_REACTORS
330
25094
102
}
330
25094
100
AcDbDictionary
281
     1
  3
Standard
350
2509F
  0
DICTIONARY
  5
250A0
102
{ACAD_REACTORS
330
25094
102
}
330
25094
100
AcDbDictionary
281
     1
  0
ACDBDICTIONARYWDFLT
  5
25096
102
{ACAD_REACTORS
330
25094
102
}
330
25094
100
AcDbDictionary
281
     1
  3
Normal
350
25097
100
AcDbDictionaryWithDefault
340
25097
  0
DICTIONARY
  5
250EE
102
{ACAD_REACTORS
330
25094
102
}
330
25094
100
AcDbDictionary
281
     1
  0
DICTIONARY
  5
2513F
102
{ACAD_REACTORS
330
25094
102
}
330
25094
100
AcDbDictionary
281
     1
  3
DIMASSOC
350
25140
  0
LAYOUT
  5
250A3
102
{ACAD_REACTORS
330
250A1
102
}
330
250A1
100
AcDbPlotSettings
  1

  2
none_device
  4

  6

 40
0.0
 41
0.0
 42
0.0
 43
0.0
 44
0.0
 45
0.0
 46
0.0
 47
0.0
 48
0.0
 49
0.0
140
0.0
141
0.0
142
1.0
143
1.0
 70
   688
 72
     0
 73
     0
 74
     5
  7

 75
    16
147
1.0
148
0.0
149
0.0
100
AcDbLayout
  1
Layout1
 70
     0
 71
     1
 10
0.0
 20
0.0
 11
12.0
 21
9.0
 12
0.0
 22
0.0
 32
0.0
 14
1.000000000000000E+20
 24
1.000000000000000E+20
 34
1.000000000000000E+20
 15
-1.000000000000000E+20
 25
-1.000000000000000E+20
 35
-1.000000000000000E+20
146
0.0
 13
0.0
 23
0.0
 33
0.0
 16
1.0
 26
0.0
 36
0.0
 17
0.0
 27
1.0
 37
0.0
 76
     0
330
250A2
  0
LAYOUT
  5
250A5
102
{ACAD_REACTORS
330
250A1
102
}
330
250A1
100
AcDbPlotSettings
  1

  2
none_device
  4

  6

 40
0.0
 41
0.0
 42
0.0
 43
0.0
 44
0.0
 45
0.0
 46
0.0
 47
0.0
 48
0.0
 49
0.0
140
0.0
141
0.0
142
1.0
143
1.0
 70
  1712
 72
     0
 73
     0
 74
     0
  7

 75
     0
147
1.0
148
0.0
149
0.0
100
AcDbLayout
  1
Model
 70
     1
 71
     0
 10
0.0
 20
0.0
 11
12.0
 21
9.0
 12
267.0
 22
194.8999999999998
 32
0.0
 14
325.4974662390304
 24
122.76811781196
 34
-0.0000000000000129
 15
12286.99954069103
 25
8431.707478684499
 35
0.0000000000000023
146
0.0
 13
0.0
 23
0.0
 33
0.0
 16
1.0
 26
0.0
 36
0.0
 17
0.0
 27
1.0
 37
0.0
 76
     0
330
250A4
331
250A7
  0
MLINESTYLE
  5
2509F
102
{ACAD_REACTORS
330
2509E
102
}
330
2509E
100
AcDbMlineStyle
  2
STANDARD
 70
     0
  3

 62
   256
 51
90.0
 52
90.0
 71
     2
 49
0.5
 62
   256
  6
BYLAYER
 49
-0.5
 62
   256
  6
BYLAYER
  0
ACDBPLACEHOLDER
  5
25097
102
{ACAD_REACTORS
330
25096
102
}
330
25096
  0
DICTIONARYVAR
  5
25140
102
{ACAD_REACTORS
330
2513F
102
}
330
2513F
100
DictionaryVariables
280
     0
  1
1
  0
ENDSEC
  0
EOF
