  0
SECTION
  2
HEADER
  9
$ACADVER
  1
AC1015
  9
$ACADMAINTVER
 70
    13
  9
$DWGCODEPAGE
  3
ANSI_932
  9
$INSBASE
 10
267.0
 20
194.8999999999998
 30
0.0
  9
$EXTMIN
 10
433.9966216520333
 20
163.6908237492789
 30
-0.0000000000000053
  9
$EXTMAX
 10
16382.6660542547
 20
11242.27663824599
 30
0.00000000000001
  9
$LIMMIN
 10
0.0
 20
0.0
  9
$LIMMAX
 10
16800.0
 20
11880.0
  9
$ORTHOMODE
 70
     0
  9
$REGENMODE
 70
     1
  9
$FILLMODE
 70
     1
  9
$QTEXTMODE
 70
     0
  9
$MIRRTEXT
 70
     0
  9
$LTSCALE
 40
40.0
  9
$ATTMODE
 70
     1
  9
$TEXTSIZE
 40
0.2
  9
$TRACEWID
 40
0.05
  9
$TEXTSTYLE
  7
00
  9
$CLAYER
  8
SUNPOU
  9
$CELTYPE
  6
ByLayer
  9
$CECOLOR
 62
   256
  9
$CELTSCALE
 40
1.0
  9
$DISPSILH
 70
     0
  9
$DIMSCALE
 40
40.0
  9
$DIMASZ
 40
0.5
  9
$DIMEXO
 40
1.0
  9
$DIMDLI
 40
7.0
  9
$DIMRND
 40
0.0
  9
$DIMDLE
 40
3.0
  9
$DIMEXE
 40
1.125
  9
$DIMTP
 40
0.0
  9
$DIMTM
 40
0.0
  9
$DIMTXT
 40
2.25
  9
$DIMCEN
 40
0.0
  9
$DIMTSZ
 40
0.0
  9
$DIMTOL
 70
     0
  9
$DIMLIM
 70
     0
  9
$DIMTIH
 70
     0
  9
$DIMTOH
 70
     0
  9
$DIMSE1
 70
     0
  9
$DIMSE2
 70
     0
  9
$DIMTAD
 70
     1
  9
$DIMZIN
 70
     8
  9
$DIMBLK
  1
DOT
  9
$DIMASO
 70
     1
  9
$DIMSHO
 70
     0
  9
$DIMPOST
  1

  9
$DIMAPOST
  1

  9
$DIMALT
 70
     0
  9
$DIMALTD
 70
     2
  9
$DIMALTF
 40
25.4
  9
$DIMLFAC
 40
0.625
  9
$DIMTOFL
 70
     1
  9
$DIMTVP
 40
0.0
  9
$DIMTIX
 70
     0
  9
$DIMSOXD
 70
     0
  9
$DIMSAH
 70
     1
  9
$DIMBLK1
  1
DOT
  9
$DIMBLK2
  1
DOT
  9
$DIMSTYLE
  2
SUNPOU_図面名
  9
$DIMCLRD
 70
   256
  9
$DIMCLRE
 70
   256
  9
$DIMCLRT
 70
   256
  9
$DIMTFAC
 40
1.0
  9
$DIMGAP
 40
1.125
  9
$DIMJUST
 70
     0
  9
$DIMSD1
 70
     0
  9
$DIMSD2
 70
     0
  9
$DIMTOLJ
 70
     1
  9
$DIMTZIN
 70
     0
  9
$DIMALTZ
 70
     0
  9
$DIMALTTZ
 70
     0
  9
$DIMUPT
 70
     0
  9
$DIMDEC
 70
     2
  9
$DIMTDEC
 70
     2
  9
$DIMALTU
 70
     2
  9
$DIMALTTD
 70
     2
  9
$DIMTXSTY
  7
STANDARD
  9
$DIMAUNIT
 70
     0
  9
$DIMADEC
 70
     0
  9
$DIMALTRND
 40
0.0
  9
$DIMAZIN
 70
     0
  9
$DIMDSEP
 70
    46
  9
$DIMATFIT
 70
     3
  9
$DIMFRAC
 70
     0
  9
$DIMLDRBLK
  1

  9
$DIMLUNIT
 70
     2
  9
$DIMLWD
 70
    -2
  9
$DIMLWE
 70
    -2
  9
$DIMTMOVE
 70
     2
  9
$LUNITS
 70
     2
  9
$LUPREC
 70
     2
  9
$SKETCHINC
 40
0.1
  9
$FILLETRAD
 40
0.0
  9
$AUNITS
 70
     0
  9
$AUPREC
 70
     0
  9
$MENU
  1
A:\TIGER\MENU\TIGER
  9
$ELEVATION
 40
0.0
  9
$PELEVATION
 40
0.0
  9
$THICKNESS
 40
0.0
  9
$LIMCHECK
 70
     0
  9
$CHAMFERA
 40
0.0
  9
$CHAMFERB
 40
0.0
  9
$CHAMFERC
 40
1.0
  9
$CHAMFERD
 40
0.0
  9
$SKPOLY
 70
     0
  9
$TDCREATE
 40
2450266.571064815
  9
$TDUCREATE
 40
2450266.196064815
  9
$TDUPDATE
 40
2456331.310726088
  9
$TDUUPDATE
 40
2456330.935726088
  9
$TDINDWG
 40
0.1608937963
  9
$TDUSRTIMER
 40
0.1608936111
  9
$USRTIMER
 70
     1
  9
$ANGBASE
 50
0.0
  9
$ANGDIR
 70
     0
  9
$PDMODE
 70
     0
  9
$PDSIZE
 40
0.0
  9
$PLINEWID
 40
0.0
  9
$SPLFRAME
 70
     0
  9
$SPLINETYPE
 70
     6
  9
$SPLINESEGS
 70
     8
  9
$HANDSEED
  5
17803
  9
$SURFTAB1
 70
     6
  9
$SURFTAB2
 70
     6
  9
$SURFTYPE
 70
     6
  9
$SURFU
 70
     6
  9
$SURFV
 70
     6
  9
$UCSBASE
  2

  9
$UCSNAME
  2

  9
$UCSORG
 10
0.0
 20
0.0
 30
0.0
  9
$UCSXDIR
 10
1.0
 20
0.0
 30
0.0
  9
$UCSYDIR
 10
0.0
 20
1.0
 30
0.0
  9
$UCSORTHOREF
  2

  9
$UCSORTHOVIEW
 70
     0
  9
$UCSORGTOP
 10
0.0
 20
0.0
 30
0.0
  9
$UCSORGBOTTOM
 10
0.0
 20
0.0
 30
0.0
  9
$UCSORGLEFT
 10
0.0
 20
0.0
 30
0.0
  9
$UCSORGRIGHT
 10
0.0
 20
0.0
 30
0.0
  9
$UCSORGFRONT
 10
0.0
 20
0.0
 30
0.0
  9
$UCSORGBACK
 10
0.0
 20
0.0
 30
0.0
  9
$PUCSBASE
  2

  9
$PUCSNAME
  2

  9
$PUCSORG
 10
0.0
 20
0.0
 30
0.0
  9
$PUCSXDIR
 10
1.0
 20
0.0
 30
0.0
  9
$PUCSYDIR
 10
0.0
 20
1.0
 30
0.0
  9
$PUCSORTHOREF
  2

  9
$PUCSORTHOVIEW
 70
     0
  9
$PUCSORGTOP
 10
0.0
 20
0.0
 30
0.0
  9
$PUCSORGBOTTOM
 10
0.0
 20
0.0
 30
0.0
  9
$PUCSORGLEFT
 10
0.0
 20
0.0
 30
0.0
  9
$PUCSORGRIGHT
 10
0.0
 20
0.0
 30
0.0
  9
$PUCSORGFRONT
 10
0.0
 20
0.0
 30
0.0
  9
$PUCSORGBACK
 10
0.0
 20
0.0
 30
0.0
  9
$USERI1
 70
     3
  9
$USERI2
 70
     0
  9
$USERI3
 70
     0
  9
$USERI4
 70
     0
  9
$USERI5
 70
  1103
  9
$USERR1
 40
0.0
  9
$USERR2
 40
1.0
  9
$USERR3
 40
0.0
  9
$USERR4
 40
0.0
  9
$USERR5
 40
0.0
  9
$WORLDVIEW
 70
     1
  9
$SHADEDGE
 70
     3
  9
$SHADEDIF
 70
    70
  9
$TILEMODE
 70
     1
  9
$MAXACTVP
 70
    16
  9
$PINSBASE
 10
0.0
 20
0.0
 30
0.0
  9
$PLIMCHECK
 70
     0
  9
$PEXTMIN
 10
1.000000000000000E+20
 20
1.000000000000000E+20
 30
1.000000000000000E+20
  9
$PEXTMAX
 10
-1.000000000000000E+20
 20
-1.000000000000000E+20
 30
-1.000000000000000E+20
  9
$PLIMMIN
 10
0.0
 20
0.0
  9
$PLIMMAX
 10
12.0
 20
9.0
  9
$UNITMODE
 70
     0
  9
$VISRETAIN
 70
     0
  9
$PLINEGEN
 70
     1
  9
$PSLTSCALE
 70
     0
  9
$TREEDEPTH
 70
  3020
  9
$CMLSTYLE
  2
Standard
  9
$CMLJUST
 70
     0
  9
$CMLSCALE
 40
1.0
  9
$PROXYGRAPHICS
 70
     1
  9
$MEASUREMENT
 70
     0
  9
$CELWEIGHT
370
    -1
  9
$ENDCAPS
280
     0
  9
$JOINSTYLE
280
     0
  9
$LWDISPLAY
290
     0
  9
$INSUNITS
 70
     0
  9
$HYPERLINKBASE
  1

  9
$STYLESHEET
  1

  9
$XEDIT
290
     1
  9
$CEPSNTYPE
380
     0
  9
$PSTYLEMODE
290
     1
  9
$FINGERPRINTGUID
  2
{4B16B469-9D57-4F7E-BF65-E879597CB14E}
  9
$VERSIONGUID
  2
{9CB52172-DB53-4EDA-B625-968CE4D3BC17}
  9
$EXTNAMES
290
     1
  9
$PSVPSCALE
 40
0.0
  9
$OLESTARTUP
290
     0
  0
ENDSEC
  0
SECTION
  2
CLASSES
  0
CLASS
  1
ACDBDICTIONARYWDFLT
  2
AcDbDictionaryWithDefault
  3
AutoCAD 2000
 90
        0
280
     0
281
     0
  0
CLASS
  1
ACDBPLACEHOLDER
  2
AcDbPlaceHolder
  3
AutoCAD 2000
 90
        0
280
     0
281
     0
  0
CLASS
  1
LAYOUT
  2
AcDbLayout
  3
AutoCAD 2000
 90
        0
280
     0
281
     0
  0
CLASS
  1
DICTIONARYVAR
  2
AcDbDictionaryVar
  3
AutoCAD 2000
 90
        0
280
     0
281
     0
  0
ENDSEC
  0
SECTION
  2
TABLES
  0
TABLE
  2
VPORT
  5
17740
330
0
100
AcDbSymbolTable
 70
     2
  0
VPORT
  5
17802
330
17740
100
AcDbSymbolTableRecord
100
AcDbViewportTableRecord
  2
*Active
 70
     0
 10
0.0
 20
0.0
 11
1.0
 21
1.0
 12
8408.331337953368
 22
5702.983730997637
 13
0.0
 23
0.0
 14
1.0
 24
1.0
 15
0.0
 25
0.0
 16
0.0
 26
0.0
 36
1.0
 17
0.0
 27
0.0
 37
0.0
 40
12982.41434578206
 41
1.236040609137055
 42
50.0
 43
0.0
 44
0.0
 50
0.0
 51
0.0
 71
     0
 72
 10000
 73
     1
 74
     0
 75
     0
 76
     0
 77
     0
 78
     0
281
     0
 65
     0
110
0.0
120
0.0
130
0.0
111
1.0
121
0.0
131
0.0
112
0.0
122
1.0
132
0.0
 79
     0
146
0.0
  0
ENDTAB
  0
TABLE
  2
LTYPE
  5
1773D
330
0
100
AcDbSymbolTable
 70
     9
  0
LTYPE
  5
1774B
330
1773D
100
AcDbSymbolTableRecord
100
AcDbLinetypeTableRecord
  2
ByBlock
 70
     0
  3

 72
    65
 73
     0
 40
0.0
  0
LTYPE
  5
1774C
330
1773D
100
AcDbSymbolTableRecord
100
AcDbLinetypeTableRecord
  2
ByLayer
 70
     0
  3

 72
    65
 73
     0
 40
0.0
  0
LTYPE
  5
1774D
330
1773D
100
AcDbSymbolTableRecord
100
AcDbLinetypeTableRecord
  2
CONTINUOUS
 70
     0
  3
実線
 72
    65
 73
     0
 40
0.0
  0
LTYPE
  5
17759
330
1773D
100
AcDbSymbolTableRecord
100
AcDbLinetypeTableRecord
  2
HIDE-M
 70
     0
  3

 72
    65
 73
     2
 40
2.0
 49
1.0
 74
     0
 49
-1.0
 74
     0
  0
LTYPE
  5
1775A
330
1773D
100
AcDbSymbolTableRecord
100
AcDbLinetypeTableRecord
  2
HIDE-S
 70
     0
  3

 72
    65
 73
     2
 40
1.0
 49
0.5
 74
     0
 49
-0.5
 74
     0
  0
LTYPE
  5
1775B
330
1773D
100
AcDbSymbolTableRecord
100
AcDbLinetypeTableRecord
  2
TENSEN-
 70
     0
  3

 72
    65
 73
     2
 40
0.6000000000000001
 49
0.2
 74
     0
 49
-0.4
 74
     0
  0
LTYPE
  5
1775C
330
1773D
100
AcDbSymbolTableRecord
100
AcDbLinetypeTableRecord
  2
1PL-M
 70
     0
  3

 72
    65
 73
     4
 40
15.0
 49
12.0
 74
     0
 49
-1.0
 74
     0
 49
1.0
 74
     0
 49
-1.0
 74
     0
  0
LTYPE
  5
1775D
330
1773D
100
AcDbSymbolTableRecord
100
AcDbLinetypeTableRecord
  2
1PL-12
 70
     0
  3

 72
    65
 73
     4
 40
15.0
 49
12.0
 74
     0
 49
-1.0
 74
     0
 49
1.0
 74
     0
 49
-1.0
 74
     0
  0
LTYPE
  5
1775E
330
1773D
100
AcDbSymbolTableRecord
100
AcDbLinetypeTableRecord
  2
KAKURE-1
 70
     0
  3

 72
    65
 73
     2
 40
2.0
 49
1.0
 74
     0
 49
-1.0
 74
     0
  0
LTYPE
  5
1775F
330
1773D
100
AcDbSymbolTableRecord
100
AcDbLinetypeTableRecord
  2
2PL-12
 70
     0
  3

 72
    65
 73
     6
 40
17.0
 49
12.0
 74
     0
 49
-1.0
 74
     0
 49
1.0
 74
     0
 49
-1.0
 74
     0
 49
1.0
 74
     0
 49
-1.0
 74
     0
  0
LTYPE
  5
17760
330
1773D
100
AcDbSymbolTableRecord
100
AcDbLinetypeTableRecord
  2
2PL-5
 70
     0
  3

 72
    65
 73
     6
 40
7.5
 49
5.0
 74
     0
 49
-0.5
 74
     0
 49
0.5
 74
     0
 49
-0.5
 74
     0
 49
0.5
 74
     0
 49
-0.5
 74
     0
  0
ENDTAB
  0
TABLE
  2
LAYER
  5
1773A
330
0
100
AcDbSymbolTable
 70
    26
  0
LAYER
  5
17748
330
1773A
100
AcDbSymbolTableRecord
100
AcDbLayerTableRecord
  2
0
 70
     0
 62
     7
  6
CONTINUOUS
370
    -3
390
17747
  0
LAYER
  5
17762
330
1773A
100
AcDbSymbolTableRecord
100
AcDbLayerTableRecord
  2
U1
 70
     0
 62
     3
  6
CONTINUOUS
370
    -3
390
17747
  0
LAYER
  5
17763
330
1773A
100
AcDbSymbolTableRecord
100
AcDbLayerTableRecord
  2
U2
 70
     0
 62
     4
  6
CONTINUOUS
370
    -3
390
17747
  0
LAYER
  5
17764
330
1773A
100
AcDbSymbolTableRecord
100
AcDbLayerTableRecord
  2
U7
 70
     0
 62
     2
  6
CONTINUOUS
370
    -3
390
17747
  0
LAYER
  5
17765
330
1773A
100
AcDbSymbolTableRecord
100
AcDbLayerTableRecord
  2
SUNPOU
 70
     0
 62
     4
  6
CONTINUOUS
370
    -3
390
17747
  0
LAYER
  5
17766
330
1773A
100
AcDbSymbolTableRecord
100
AcDbLayerTableRecord
  2
HIKIDASHI
 70
     0
 62
     6
  6
CONTINUOUS
370
    -3
390
17747
  0
LAYER
  5
17767
330
1773A
100
AcDbSymbolTableRecord
100
AcDbLayerTableRecord
  2
TENSEN-1
 70
     0
 62
     6
  6
TENSEN-
370
    -3
390
17747
  0
LAYER
  5
17768
330
1773A
100
AcDbSymbolTableRecord
100
AcDbLayerTableRecord
  2
HIDE-S1
 70
     0
 62
     6
  6
HIDE-S
370
    -3
390
17747
  0
LAYER
  5
17769
330
1773A
100
AcDbSymbolTableRecord
100
AcDbLayerTableRecord
  2
HIDE-M1
 70
     0
 62
     6
  6
HIDE-M
370
    -3
390
17747
  0
LAYER
  5
1776A
330
1773A
100
AcDbSymbolTableRecord
100
AcDbLayerTableRecord
  2
1PL-M1
 70
     0
 62
     6
  6
1PL-M
370
    -3
390
17747
  0
LAYER
  5
1776B
330
1773A
100
AcDbSymbolTableRecord
100
AcDbLayerTableRecord
  2
NAME
 70
     0
 62
    20
  6
CONTINUOUS
370
    -3
390
17747
  0
LAYER
  5
1776C
330
1773A
100
AcDbSymbolTableRecord
100
AcDbLayerTableRecord
  2
FILENAME
 70
     0
 62
     7
  6
CONTINUOUS
370
    -3
390
17747
  0
LAYER
  5
1776D
330
1773A
100
AcDbSymbolTableRecord
100
AcDbLayerTableRecord
  2
KISO
 70
     0
 62
     2
  6
CONTINUOUS
370
    -3
390
17747
  0
LAYER
  5
1776E
330
1773A
100
AcDbSymbolTableRecord
100
AcDbLayerTableRecord
  2
YANE
 70
     0
 62
     1
  6
1PL-12
370
    -3
390
17747
  0
LAYER
  5
1776F
330
1773A
100
AcDbSymbolTableRecord
100
AcDbLayerTableRecord
  2
HATCH
 70
     0
 62
     1
  6
CONTINUOUS
370
    -3
390
17747
  0
LAYER
  5
17770
330
1773A
100
AcDbSymbolTableRecord
100
AcDbLayerTableRecord
  2
DOMAKON
 70
     0
 62
     2
  6
CONTINUOUS
370
    -3
390
17747
  0
LAYER
  5
17771
330
1773A
100
AcDbSymbolTableRecord
100
AcDbLayerTableRecord
  2
KISO-1
 70
     0
 62
     6
  6
2PL-12
370
    -3
390
17747
  0
LAYER
  5
17772
330
1773A
100
AcDbSymbolTableRecord
100
AcDbLayerTableRecord
  2
KISO-2
 70
     0
 62
     1
  6
KAKURE-1
370
    -3
390
17747
  0
LAYER
  5
17773
330
1773A
100
AcDbSymbolTableRecord
100
AcDbLayerTableRecord
  2
SIN
 70
     0
 62
     6
  6
1PL-12
370
    -3
390
17747
  0
LAYER
  5
17774
330
1773A
100
AcDbSymbolTableRecord
100
AcDbLayerTableRecord
  2
BOLT
 70
     0
 62
     1
  6
CONTINUOUS
370
    -3
390
17747
  0
LAYER
  5
17775
330
1773A
100
AcDbSymbolTableRecord
100
AcDbLayerTableRecord
  2
KISO-3
 70
     0
 62
     1
  6
2PL-5
370
    -3
390
17747
  0
LAYER
  5
17776
330
1773A
100
AcDbSymbolTableRecord
100
AcDbLayerTableRecord
  2
HASIRA
 70
     0
 62
     3
  6
CONTINUOUS
370
    -3
390
17747
  0
LAYER
  5
17777
330
1773A
100
AcDbSymbolTableRecord
100
AcDbLayerTableRecord
  2
YODOROGO
 70
     0
 62
   130
  6
CONTINUOUS
370
    -3
390
17747
  0
LAYER
  5
17778
330
1773A
100
AcDbSymbolTableRecord
100
AcDbLayerTableRecord
  2
WAKUSEN-01
 70
     0
 62
    50
  6
CONTINUOUS
370
    -3
390
17747
  0
LAYER
  5
17779
330
1773A
100
AcDbSymbolTableRecord
100
AcDbLayerTableRecord
  2
WAKUSEN-02
 70
     0
 62
   130
  6
CONTINUOUS
370
    -3
390
17747
  0
LAYER
  5
1777A
330
1773A
100
AcDbSymbolTableRecord
100
AcDbLayerTableRecord
  2
WAKUMOJI-01
 70
     0
 62
   130
  6
CONTINUOUS
370
    -3
390
17747
  0
ENDTAB
  0
TABLE
  2
STYLE
  5
1773B
330
0
100
AcDbSymbolTable
 70
     5
  0
STYLE
  5
17749
330
1773B
100
AcDbSymbolTableRecord
100
AcDbTextStyleTableRecord
  2
STANDARD
 70
     0
 40
3.0
 41
1.0
 50
0.0
 71
     0
 42
0.2
  3
ROMANS
  4
EXTFONT
  0
STYLE
  5
1777C
330
1773B
100
AcDbSymbolTableRecord
100
AcDbTextStyleTableRecord
  2
01
 70
     0
 40
3.0
 41
1.0
 50
0.0
 71
     0
 42
0.2
  3
ROMANS
  4
BIGFONT
  0
STYLE
  5
1777D
330
1773B
100
AcDbSymbolTableRecord
100
AcDbTextStyleTableRecord
  2
00
 70
     0
 40
0.0
 41
0.6666666666666666
 50
0.0
 71
     0
 42
0.2
  3
ROMANS
  4
BIGFONT
  0
STYLE
  5
1777E
330
1773B
100
AcDbSymbolTableRecord
100
AcDbTextStyleTableRecord
  2
WAKUMOJI
 70
     0
 40
3.0
 41
1.0
 50
0.0
 71
     0
 42
3.0
  3
SIMPLEX
  4
BIGFONT
  0
STYLE
  5
1777F
330
1773B
100
AcDbSymbolTableRecord
100
AcDbTextStyleTableRecord
  2
FILENAME
 70
     0
 40
100.0
 41
1.0
 50
0.0
 71
     0
 42
100.0
  3
romans
  4
bigfont
  0
ENDTAB
  0
TABLE
  2
VIEW
  5
1773E
330
0
100
AcDbSymbolTable
 70
     0
  0
ENDTAB
  0
TABLE
  2
UCS
  5
1773F
330
0
100
AcDbSymbolTable
 70
     0
  0
ENDTAB
  0
TABLE
  2
APPID
  5
17741
330
0
100
AcDbSymbolTable
 70
     3
  0
APPID
  5
1774A
330
17741
100
AcDbSymbolTableRecord
100
AcDbRegAppTableRecord
  2
ACAD
 70
     0
  0
APPID
  5
17781
330
17741
100
AcDbSymbolTableRecord
100
AcDbRegAppTableRecord
  2
AUTOCAD_POSTSCRIPT_FIGURE
 70
     0
  0
APPID
  5
17782
330
17741
100
AcDbSymbolTableRecord
100
AcDbRegAppTableRecord
  2
ACAD_PSEXT
 70
     0
  0
ENDTAB
  0
TABLE
  2
DIMSTYLE
  5
17742
330
0
100
AcDbSymbolTable
 70
     1
100
AcDbDimStyleTable
 71
     0
  0
DIMSTYLE
105
17783
330
17742
100
AcDbSymbolTableRecord
100
AcDbDimStyleTableRecord
  2
SUNPOU_図面名
 70
     0
 40
40.0
 41
0.5
 42
1.0
 43
7.0
 44
1.125
 46
3.0
 73
     0
 74
     0
 77
     1
 78
     8
140
2.25
141
0.0
147
1.125
172
     1
173
     1
176
   256
177
   256
178
   256
340
1777D
341
17787
343
17787
344
17787
  0
ENDTAB
  0
TABLE
  2
BLOCK_RECORD
  5
17739
330
0
100
AcDbSymbolTable
 70
    22
  0
BLOCK_RECORD
  5
17754
330
17739
100
AcDbSymbolTableRecord
100
AcDbBlockTableRecord
  2
*Model_Space
340
17755
  0
BLOCK_RECORD
  5
17752
330
17739
100
AcDbSymbolTableRecord
100
AcDbBlockTableRecord
  2
*Paper_Space
340
17753
  0
BLOCK_RECORD
  5
17787
330
17739
100
AcDbSymbolTableRecord
100
AcDbBlockTableRecord
  2
DOT
340
0
  0
BLOCK_RECORD
  5
17789
330
17739
100
AcDbSymbolTableRecord
100
AcDbBlockTableRecord
  2
*U1
340
0
  0
BLOCK_RECORD
  5
1778B
330
17739
100
AcDbSymbolTableRecord
100
AcDbBlockTableRecord
  2
*U2
340
0
  0
BLOCK_RECORD
  5
1778D
330
17739
100
AcDbSymbolTableRecord
100
AcDbBlockTableRecord
  2
*U3
340
0
  0
BLOCK_RECORD
  5
1778F
330
17739
100
AcDbSymbolTableRecord
100
AcDbBlockTableRecord
  2
*U4
340
0
  0
BLOCK_RECORD
  5
17791
330
17739
100
AcDbSymbolTableRecord
100
AcDbBlockTableRecord
  2
*U5
340
0
  0
BLOCK_RECORD
  5
17793
330
17739
100
AcDbSymbolTableRecord
100
AcDbBlockTableRecord
  2
*U6
340
0
  0
BLOCK_RECORD
  5
17795
330
17739
100
AcDbSymbolTableRecord
100
AcDbBlockTableRecord
  2
*U7
340
0
  0
BLOCK_RECORD
  5
17797
330
17739
100
AcDbSymbolTableRecord
100
AcDbBlockTableRecord
  2
*U8
340
0
  0
BLOCK_RECORD
  5
17799
330
17739
100
AcDbSymbolTableRecord
100
AcDbBlockTableRecord
  2
*U9
340
0
  0
BLOCK_RECORD
  5
1779B
330
17739
100
AcDbSymbolTableRecord
100
AcDbBlockTableRecord
  2
*U10
340
0
  0
BLOCK_RECORD
  5
1779D
330
17739
100
AcDbSymbolTableRecord
100
AcDbBlockTableRecord
  2
*U11
340
0
  0
BLOCK_RECORD
  5
1779F
330
17739
100
AcDbSymbolTableRecord
100
AcDbBlockTableRecord
  2
*U12
340
0
  0
BLOCK_RECORD
  5
177A1
330
17739
100
AcDbSymbolTableRecord
100
AcDbBlockTableRecord
  2
*U13
340
0
  0
BLOCK_RECORD
  5
177A3
330
17739
100
AcDbSymbolTableRecord
100
AcDbBlockTableRecord
  2
*U14
340
0
  0
BLOCK_RECORD
  5
177A5
330
17739
100
AcDbSymbolTableRecord
100
AcDbBlockTableRecord
  2
*U15
340
0
  0
BLOCK_RECORD
  5
177A7
330
17739
100
AcDbSymbolTableRecord
100
AcDbBlockTableRecord
  2
*U16
340
0
  0
BLOCK_RECORD
  5
177A9
330
17739
100
AcDbSymbolTableRecord
100
AcDbBlockTableRecord
  2
*U17
340
0
  0
BLOCK_RECORD
  5
177AB
330
17739
100
AcDbSymbolTableRecord
100
AcDbBlockTableRecord
  2
*U18
340
0
  0
BLOCK_RECORD
  5
177AD
330
17739
100
AcDbSymbolTableRecord
100
AcDbBlockTableRecord
  2
*U19
340
0
  0
BLOCK_RECORD
  5
177AF
330
17739
100
AcDbSymbolTableRecord
100
AcDbBlockTableRecord
  2
*U20
340
0
  0
ENDTAB
  0
ENDSEC
  0
SECTION
  2
BLOCKS
  0
BLOCK
  5
17784
330
17754
100
AcDbEntity
  8
0
100
AcDbBlockBegin
  2
*Model_Space
 70
     0
 10
0.0
 20
0.0
 30
0.0
  3
*Model_Space
  1

  0
ENDBLK
  5
125F7
330
17754
100
AcDbEntity
  8
0
100
AcDbBlockEnd
  0
BLOCK
  5
17785
330
17752
100
AcDbEntity
 67
     1
  8
0
100
AcDbBlockBegin
  2
*Paper_Space
 70
     0
 10
0.0
 20
0.0
 30
0.0
  3
*Paper_Space
  1

  0
ENDBLK
  5
125F5
330
17752
100
AcDbEntity
 67
     1
  8
0
100
AcDbBlockEnd
  0
BLOCK
  5
17786
330
17787
100
AcDbEntity
  8
0
100
AcDbBlockBegin
  2
DOT
 70
     0
 10
0.0
 20
0.0
 30
0.0
  3
DOT
  1

  0
LWPOLYLINE
  5
12987
330
17787
100
AcDbEntity
  8
0
  6
ByBlock
 62
     0
100
AcDbPolyline
 90
        2
 70
     1
 43
0.75
 10
-0.375
 20
0.0
 42
1.0
 10
0.375
 20
0.0
 42
1.0
  0
LINE
  5
12988
330
17787
100
AcDbEntity
  8
0
  6
ByBlock
 62
     0
100
AcDbLine
 10
-0.75
 20
0.0
 30
0.0
 11
-1.5
 21
0.0
 31
0.0
  0
ENDBLK
  5
12989
330
17787
100
AcDbEntity
  8
0
100
AcDbBlockEnd
  0
BLOCK
  5
17788
330
17789
100
AcDbEntity
  8
0
100
AcDbBlockBegin
  2
*U1
 70
     1
 10
0.0
 20
0.0
 30
0.0
  3
*U1
  1

  0
TEXT
  5
176EA
330
17789
100
AcDbEntity
  8
SUNPOU
100
AcDbText
 10
5103.007034603488
 20
2526.74255611554
 30
0.0
 40
90.0
  1
630
 50
90.0
 41
0.6666666666666666
  7
00
100
AcDbText
  0
ENDBLK
  5
176EC
330
17789
100
AcDbEntity
  8
0
100
AcDbBlockEnd
  0
BLOCK
  5
1778A
330
1778B
100
AcDbEntity
  8
0
100
AcDbBlockBegin
  2
*U2
 70
     1
 10
0.0
 20
0.0
 30
0.0
  3
*U2
  1

  0
TEXT
  5
176EE
330
1778B
100
AcDbEntity
  8
SUNPOU
100
AcDbText
 10
4893.007034603488
 20
2907.885413258394
 30
0.0
 40
90.0
  1
150
 50
90.0
 41
0.6666666666666666
  7
00
100
AcDbText
  0
ENDBLK
  5
176F0
330
1778B
100
AcDbEntity
  8
0
100
AcDbBlockEnd
  0
BLOCK
  5
1778C
330
1778D
100
AcDbEntity
  8
0
100
AcDbBlockBegin
  2
*U3
 70
     1
 10
0.0
 20
0.0
 30
0.0
  3
*U3
  1

  0
TEXT
  5
176F2
330
1778D
100
AcDbEntity
  8
SUNPOU
100
AcDbText
 10
4893.007034603488
 20
2408.171127544112
 30
0.0
 40
90.0
  1
480
 50
90.0
 41
0.6666666666666666
  7
00
100
AcDbText
  0
ENDBLK
  5
176F4
330
1778D
100
AcDbEntity
  8
0
100
AcDbBlockEnd
  0
BLOCK
  5
1778E
330
1778F
100
AcDbEntity
  8
0
100
AcDbBlockBegin
  2
*U4
 70
     1
 10
0.0
 20
0.0
 30
0.0
  3
*U4
  1

  0
TEXT
  5
176F6
330
1778F
100
AcDbEntity
  8
SUNPOU
100
AcDbText
 10
3194.714767048873
 20
3556.260118325357
 30
0.0
 40
90.0
  1
770
 41
0.6666666666666666
  7
00
100
AcDbText
  0
ENDBLK
  5
176F8
330
1778F
100
AcDbEntity
  8
0
100
AcDbBlockEnd
  0
BLOCK
  5
17790
330
17791
100
AcDbEntity
  8
0
100
AcDbBlockBegin
  2
*U5
 70
     1
 10
0.0
 20
0.0
 30
0.0
  3
*U5
  1

  0
TEXT
  5
176FA
330
17791
100
AcDbEntity
  8
SUNPOU
100
AcDbText
 10
3194.714767048858
 20
1615.89849823215
 30
0.0
 40
90.0
  1
290
 41
0.6666666666666666
  7
00
100
AcDbText
  0
ENDBLK
  5
176FC
330
17791
100
AcDbEntity
  8
0
100
AcDbBlockEnd
  0
BLOCK
  5
17792
330
17793
100
AcDbEntity
  8
0
100
AcDbBlockBegin
  2
*U6
 70
     1
 10
0.0
 20
0.0
 30
0.0
  3
*U6
  1

  0
TEXT
  5
176FE
330
17793
100
AcDbEntity
  8
SUNPOU
100
AcDbText
 10
7829.413222185358
 20
5431.279066364536
 30
0.0
 40
90.0
  1
2400 ×（ N - 2 ）
 41
0.6666666666666666
  7
00
100
AcDbText
  0
ENDBLK
  5
17700
330
17793
100
AcDbEntity
  8
0
100
AcDbBlockEnd
  0
BLOCK
  5
17794
330
17795
100
AcDbEntity
  8
0
100
AcDbBlockBegin
  2
*U7
 70
     1
 10
0.0
 20
0.0
 30
0.0
  3
*U7
  1

  0
TEXT
  5
17702
330
17795
100
AcDbEntity
  8
SUNPOU
100
AcDbText
 10
5504.84179361393
 20
5431.279066364536
 30
0.0
 40
90.0
  1
2400
 41
0.6666666666666666
  7
00
100
AcDbText
  0
ENDBLK
  5
17704
330
17795
100
AcDbEntity
  8
0
100
AcDbBlockEnd
  0
BLOCK
  5
17796
330
17797
100
AcDbEntity
  8
0
100
AcDbBlockBegin
  2
*U8
 70
     1
 10
0.0
 20
0.0
 30
0.0
  3
*U8
  1

  0
TEXT
  5
17706
330
17797
100
AcDbEntity
  8
SUNPOU
100
AcDbText
 10
4133.413222185359
 20
5431.279066364536
 30
0.0
 40
90.0
  1
400
 41
0.6666666666666666
  7
00
100
AcDbText
  0
ENDBLK
  5
17708
330
17797
100
AcDbEntity
  8
0
100
AcDbBlockEnd
  0
BLOCK
  5
17798
330
17799
100
AcDbEntity
  8
0
100
AcDbBlockBegin
  2
*U9
 70
     1
 10
0.0
 20
0.0
 30
0.0
  3
*U9
  1

  0
TEXT
  5
1770A
330
17799
100
AcDbEntity
  8
SUNPOU
100
AcDbText
 10
12133.41322218534
 20
5431.279066364536
 30
0.0
 40
90.0
  1
400
 41
0.6666666666666666
  7
00
100
AcDbText
  0
ENDBLK
  5
1770C
330
17799
100
AcDbEntity
  8
0
100
AcDbBlockEnd
  0
BLOCK
  5
1779A
330
1779B
100
AcDbEntity
  8
0
100
AcDbBlockBegin
  2
*U10
 70
     1
 10
0.0
 20
0.0
 30
0.0
  3
*U10
  1

  0
TEXT
  5
1770E
330
1779B
100
AcDbEntity
  8
SUNPOU
100
AcDbText
 10
10704.84179361392
 20
5431.279066364536
 30
0.0
 40
90.0
  1
2400
 41
0.6666666666666666
  7
00
100
AcDbText
  0
ENDBLK
  5
17710
330
1779B
100
AcDbEntity
  8
0
100
AcDbBlockEnd
  0
BLOCK
  5
1779C
330
1779D
100
AcDbEntity
  8
0
100
AcDbBlockBegin
  2
*U11
 70
     1
 10
0.0
 20
0.0
 30
0.0
  3
*U11
  1

  0
TEXT
  5
17712
330
1779D
100
AcDbEntity
  8
SUNPOU
100
AcDbText
 10
3826.714767048869
 20
1615.89849823215
 30
0.0
 40
90.0
  1
500
 41
0.6666666666666666
  7
00
100
AcDbText
  0
ENDBLK
  5
17714
330
1779D
100
AcDbEntity
  8
0
100
AcDbBlockEnd
  0
BLOCK
  5
1779E
330
1779F
100
AcDbEntity
  8
0
100
AcDbBlockBegin
  2
*U12
 70
     1
 10
0.0
 20
0.0
 30
0.0
  3
*U12
  1

  0
TEXT
  5
17716
330
1779F
100
AcDbEntity
  8
SUNPOU
100
AcDbText
 10
2562.714767048865
 20
1615.89849823215
 30
0.0
 40
90.0
  1
500
 41
0.6666666666666666
  7
00
100
AcDbText
  0
ENDBLK
  5
17718
330
1779F
100
AcDbEntity
  8
0
100
AcDbBlockEnd
  0
BLOCK
  5
177A0
330
177A1
100
AcDbEntity
  8
0
100
AcDbBlockBegin
  2
*U13
 70
     1
 10
0.0
 20
0.0
 30
0.0
  3
*U13
  1

  0
TEXT
  5
1771A
330
177A1
100
AcDbEntity
  8
SUNPOU
100
AcDbText
 10
3161.857624191732
 20
1405.89849823215
 30
0.0
 40
90.0
  1
1290
 41
0.6666666666666666
  7
00
100
AcDbText
  0
ENDBLK
  5
1771C
330
177A1
100
AcDbEntity
  8
0
100
AcDbBlockEnd
  0
BLOCK
  5
177A2
330
177A3
100
AcDbEntity
  8
0
100
AcDbBlockBegin
  2
*U14
 70
     1
 10
0.0
 20
0.0
 30
0.0
  3
*U14
  1

  0
TEXT
  5
1771E
330
177A3
100
AcDbEntity
  8
SUNPOU
100
AcDbText
 10
5103.007034603489
 20
1642.028270401257
 30
0.0
 40
90.0
  1
100
 50
90.0
 41
0.6666666666666666
  7
00
100
AcDbText
  0
ENDBLK
  5
17720
330
177A3
100
AcDbEntity
  8
0
100
AcDbBlockEnd
  0
BLOCK
  5
177A4
330
177A5
100
AcDbEntity
  8
0
100
AcDbBlockBegin
  2
*U15
 70
     1
 10
0.0
 20
0.0
 30
0.0
  3
*U15
  1

  0
TEXT
  5
17722
330
177A5
100
AcDbEntity
  8
SUNPOU
100
AcDbText
 10
5320.630199058618
 20
2012.742556115539
 30
0.0
 40
90.0
  1
50
 50
90.0
 41
0.6666666666666666
  7
00
100
AcDbText
  0
ENDBLK
  5
17724
330
177A5
100
AcDbEntity
  8
0
100
AcDbBlockEnd
  0
BLOCK
  5
177A6
330
177A7
100
AcDbEntity
  8
0
100
AcDbBlockBegin
  2
*U16
 70
     1
 10
0.0
 20
0.0
 30
0.0
  3
*U16
  1

  0
TEXT
  5
17726
330
177A7
100
AcDbEntity
  8
SUNPOU
100
AcDbText
 10
7381.734633614097
 20
1405.89849823215
 30
0.0
 40
90.0
  1
1290
 41
0.6666666666666666
  7
00
100
AcDbText
  0
ENDBLK
  5
17728
330
177A7
100
AcDbEntity
  8
0
100
AcDbBlockEnd
  0
BLOCK
  5
177A8
330
177A9
100
AcDbEntity
  8
0
100
AcDbBlockBegin
  2
*U17
 70
     1
 10
0.0
 20
0.0
 30
0.0
  3
*U17
  1

  0
TEXT
  5
1772A
330
177A9
100
AcDbEntity
  8
SUNPOU
100
AcDbText
 10
7414.59177647124
 20
1615.89849823215
 30
0.0
 40
90.0
  1
770
 41
0.6666666666666666
  7
00
100
AcDbText
  0
ENDBLK
  5
1772C
330
177A9
100
AcDbEntity
  8
0
100
AcDbBlockEnd
  0
BLOCK
  5
177AA
330
177AB
100
AcDbEntity
  8
0
100
AcDbBlockBegin
  2
*U18
 70
     1
 10
0.0
 20
0.0
 30
0.0
  3
*U18
  1

  0
TEXT
  5
1772E
330
177AB
100
AcDbEntity
  8
SUNPOU
100
AcDbText
 10
9148.171970751356
 20
2405.618908356616
 30
0.0
 40
90.0
  1
800
 50
90.0
 41
0.6666666666666666
  7
00
100
AcDbText
  0
ENDBLK
  5
17730
330
177AB
100
AcDbEntity
  8
0
100
AcDbBlockEnd
  0
BLOCK
  5
177AC
330
177AD
100
AcDbEntity
  8
0
100
AcDbBlockBegin
  2
*U19
 70
     1
 10
0.0
 20
0.0
 30
0.0
  3
*U19
  1

  0
TEXT
  5
17732
330
177AD
100
AcDbEntity
  8
SUNPOU
100
AcDbText
 10
8938.171970751353
 20
2405.618908356616
 30
0.0
 40
90.0
  1
480
 50
90.0
 41
0.6666666666666666
  7
00
100
AcDbText
  0
ENDBLK
  5
17734
330
177AD
100
AcDbEntity
  8
0
100
AcDbBlockEnd
  0
BLOCK
  5
177AE
330
177AF
100
AcDbEntity
  8
0
100
AcDbBlockBegin
  2
*U20
 70
     1
 10
0.0
 20
0.0
 30
0.0
  3
*U20
  1

  0
TEXT
  5
17736
330
177AF
100
AcDbEntity
  8
SUNPOU
100
AcDbText
 10
7755.413222185355
 20
5123.638389810428
 30
0.0
 40
90.0
  1
L = 2400 x N + 800
 41
0.6666666666666666
  7
00
100
AcDbText
  0
ENDBLK
  5
17738
330
177AF
100
AcDbEntity
  8
0
100
AcDbBlockEnd
  0
ENDSEC
  0
SECTION
  2
ENTITIES
  0
TEXT
  5
12D59
330
17754
100
AcDbEntity
  8
NAME
100
AcDbText
 10
12303.32857318295
 20
1055.0
 30
0.0
 40
120.0
  1
Y O R
 41
0.6666666666666666
  7
00
100
AcDbText
  0
TEXT
  5
12D5A
330
17754
100
AcDbEntity
  8
NAME
100
AcDbText
 10
11227.73587134625
 20
1055.0
 30
0.0
 40
120.0
  1
ヨド自転車置場　　　 型
  7
01
100
AcDbText
  0
TEXT
  5
12D5B
330
17754
100
AcDbEntity
  8
NAME
100
AcDbText
 10
11656.07508082364
 20
875.0
 30
0.0
 40
120.0
  1
背合せタイプ
  7
01
 72
     4
 11
12072.07508082364
 21
935.0
 31
0.0
100
AcDbText
  0
TEXT
  5
12DBA
330
17754
100
AcDbEntity
  8
NAME
100
AcDbText
 10
12854.79999999999
 20
541.0000000000001
 30
0.0
 40
160.0
  1
<3／3>
 41
0.6
  7
01
 72
     2
 11
13354.0
 21
541.0000000000001
 31
0.0
100
AcDbText
  0
TEXT
  5
12DBB
330
17754
100
AcDbEntity
  8
NAME
100
AcDbText
 10
10896.04264730428
 20
541.0
 30
0.0
 40
160.0
  1
YOR-240B
 41
0.7
  7
01
 72
     2
 11
11776.04264730429
 21
541.0
 31
0.0
100
AcDbText
  0
TEXT
  5
12DBC
330
17754
100
AcDbEntity
  8
NAME
100
AcDbText
 10
11816.04264730429
 20
541.0
 30
0.0
 40
160.0
  1
型（一般地用）
 41
0.8
  7
01
100
AcDbText
  0
TEXT
  5
15446
330
17754
100
AcDbEntity
  8
HIKIDASHI
100
AcDbText
 10
8069.139998170619
 20
4452.824387026232
 30
0.0
 40
135.0
  1
（  ：スパン数）
  7
01
 72
     4
 11
8694.63999817062
 21
4520.324387026231
 31
0.0
100
AcDbText
  0
TEXT
  5
15447
330
17754
100
AcDbEntity
  8
HIKIDASHI
100
AcDbText
 10
7167.044242116741
 20
4655.324387026229
 30
0.0
 40
135.0
  1
基 礎 平 面 図　 縮尺
  7
01
 72
     4
 11
7999.544242116741
 21
4722.824387026229
 31
0.0
100
AcDbText
  0
TEXT
  5
15448
330
17754
100
AcDbEntity
  8
HIKIDASHI
100
AcDbText
 10
8270.053391894711
 20
4452.824387026232
 30
0.0
 40
135.0
  1
N
 41
0.6666666666666666
  7
00
 72
     4
 11
8317.196249037566
 21
4520.324387026231
 31
0.0
100
AcDbText
  0
LINE
  5
1544E
330
17754
100
AcDbEntity
  8
U2
100
AcDbLine
 10
8279.127507899648
 20
10201.27906636453
 30
0.0
 11
8279.127507899648
 21
5761.279066364537
 31
0.0
  0
LINE
  5
1544F
330
17754
100
AcDbEntity
  8
U2
100
AcDbLine
 10
8159.127507899645
 20
10201.27906636453
 30
0.0
 11
8159.127507899645
 21
5761.279066364537
 31
0.0
  0
LINE
  5
15455
330
17754
100
AcDbEntity
  8
SUNPOU
100
AcDbLine
 10
3569.127507899644
 20
7821.279066364535
 30
0.0
 11
3569.127507899644
 21
5851.279066364535
 31
0.0
  0
LINE
  5
154BE
330
17754
100
AcDbEntity
  8
SUNPOU
100
AcDbLine
 10
3989.127507899644
 20
5836.279066364536
 30
0.0
 11
3539.127507899644
 21
5836.279066364536
 31
0.0
  0
TEXT
  5
15525
330
17754
100
AcDbEntity
  8
HIKIDASHI
100
AcDbText
 10
5203.5536477714
 20
5992.729793983193
 30
0.0
 40
90.0
  1
（鼻隠し外面）
  7
01
100
AcDbText
  0
TEXT
  5
15527
330
17754
100
AcDbEntity
  8
HIKIDASHI
100
AcDbText
 10
5094.907558109866
 20
5701.279066364527
 30
0.0
 40
90.0
  1
（土間コン前面位置）
  7
01
100
AcDbText
  0
LINE
  5
1553F
330
17754
100
AcDbEntity
  8
KISO-1
100
AcDbLine
 10
4819.127507899644
 20
7336.279066364537
 30
0.0
 11
4019.127507899644
 21
7336.279066364537
 31
0.0
  0
LINE
  5
15540
330
17754
100
AcDbEntity
  8
KISO-1
100
AcDbLine
 10
4019.127507899639
 20
8626.279066364537
 30
0.0
 11
4819.12750789964
 21
8626.279066364537
 31
0.0
  0
TEXT
  5
15541
330
17754
100
AcDbEntity
  8
HIKIDASHI
100
AcDbText
 10
4332.326854848412
 20
9106.160818322512
 30
0.0
 40
90.0
  1
（ケラバ外面）
 50
90.0
  7
01
100
AcDbText
  0
TEXT
  5
15542
330
17754
100
AcDbEntity
  8
HIKIDASHI
100
AcDbText
 10
3974.12750789964
 20
8997.514728660977
 30
0.0
 40
90.0
  1
（土間コン側面位置）
 50
90.0
  7
01
100
AcDbText
  0
LINE
  5
15543
330
17754
100
AcDbEntity
  8
SUNPOU
100
AcDbLine
 10
3569.127507899644
 20
10111.27906636454
 30
0.0
 11
3569.127507899644
 21
8141.279066364537
 31
0.0
  0
TEXT
  5
15544
330
17754
100
AcDbEntity
  8
SUNPOU
100
AcDbText
 10
3524.127507899644
 20
9011.993352078823
 30
0.0
 40
90.0
  1
2000
 50
90.0
 41
0.6666666666666666
  7
00
 72
     1
 11
3479.127507899644
 21
9126.279066364537
 31
0.0
100
AcDbText
 73
     2
  0
CIRCLE
  5
15545
330
17754
100
AcDbEntity
  8
KISO-2
100
AcDbCircle
 10
4419.127507899644
 20
7836.279066364537
 30
0.0
 40
44.55
  0
LINE
  5
15547
330
17754
100
AcDbEntity
  8
SIN
100
AcDbLine
 10
4419.127507899641
 20
8693.279066364537
 30
0.0
 11
4419.127507899644
 21
7269.279066364537
 31
0.0
  0
LINE
  5
15548
330
17754
100
AcDbEntity
  8
KISO-1
100
AcDbLine
 10
4019.127507899644
 20
7336.279066364537
 30
0.0
 11
4019.127507899639
 21
8626.279066364537
 31
0.0
  0
TEXT
  5
1554A
330
17754
100
AcDbEntity
  8
SUNPOU
100
AcDbText
 10
3524.127507899644
 20
6721.993352078823
 30
0.0
 40
90.0
  1
2000
 50
90.0
 41
0.6666666666666666
  7
00
 72
     1
 11
3479.127507899644
 21
6836.279066364537
 31
0.0
100
AcDbText
 73
     2
  0
TEXT
  5
1554B
330
17754
100
AcDbEntity
  8
SUNPOU
100
AcDbText
 10
3884.227407771245
 20
7072.707637793104
 30
0.0
 40
90.0
  1
A'
 41
0.6700000000000001
  7
00
 72
     4
 11
3920.120264914102
 21
7126.279066364533
 31
0.0
100
AcDbText
  0
LINE
  5
1554C
330
17754
100
AcDbEntity
  8
SUNPOU
100
AcDbLine
 10
4209.127507899643
 20
7126.279066364535
 30
0.0
 11
4419.127507899644
 21
7126.279066364535
 31
0.0
  0
LINE
  5
1554D
330
17754
100
AcDbEntity
  8
BOLT
100
AcDbLine
 10
4289.127507899644
 20
7736.279066364537
 30
0.0
 11
4349.127507899644
 21
7736.279066364537
 31
0.0
  0
LINE
  5
1554E
330
17754
100
AcDbEntity
  8
SUNPOU
100
AcDbLine
 10
4419.127507899644
 20
7126.279066364536
 30
0.0
 11
4419.127507899644
 21
7276.279066364536
 31
0.0
  0
LINE
  5
1554F
330
17754
100
AcDbEntity
  8
BOLT
100
AcDbLine
 10
4549.127507899644
 20
7736.279066364537
 30
0.0
 11
4489.127507899644
 21
7736.279066364537
 31
0.0
  0
LINE
  5
15550
330
17754
100
AcDbEntity
  8
BOLT
100
AcDbLine
 10
4319.127507899644
 20
7706.279066364537
 30
0.0
 11
4319.127507899644
 21
7766.279066364536
 31
0.0
  0
LINE
  5
15551
330
17754
100
AcDbEntity
  8
BOLT
100
AcDbLine
 10
4519.127507899644
 20
7706.279066364537
 30
0.0
 11
4519.127507899644
 21
7766.279066364536
 31
0.0
  0
LINE
  5
15552
330
17754
100
AcDbEntity
  8
SUNPOU
100
AcDbLine
 10
4269.577507899644
 20
8126.279066364537
 30
0.0
 11
3539.127507899644
 21
8126.279066364537
 31
0.0
  0
LINE
  5
15553
330
17754
100
AcDbEntity
  8
SUNPOU
100
AcDbLine
 10
4269.577507899644
 20
8126.279066364537
 30
0.0
 11
3539.127507899644
 21
8126.279066364537
 31
0.0
  0
LINE
  5
15554
330
17754
100
AcDbEntity
  8
SUNPOU
100
AcDbLine
 10
4269.577507899644
 20
7836.279066364537
 30
0.0
 11
3539.127507899644
 21
7836.279066364537
 31
0.0
  0
LINE
  5
15555
330
17754
100
AcDbEntity
  8
SUNPOU
100
AcDbLine
 10
4269.577507899644
 20
7836.279066364537
 30
0.0
 11
3539.127507899644
 21
7836.279066364537
 31
0.0
  0
TEXT
  5
15556
330
17754
100
AcDbEntity
  8
SUNPOU
100
AcDbText
 10
3524.127507899644
 20
7895.56478065025
 30
0.0
 40
90.0
  1
290
 50
90.0
 41
0.6666666666666666
  7
00
 72
     1
 11
3479.127507899644
 21
7981.279066364534
 31
0.0
100
AcDbText
 73
     2
  0
LINE
  5
15557
330
17754
100
AcDbEntity
  8
SUNPOU
100
AcDbLine
 10
3569.127507899644
 20
8111.279066364536
 30
0.0
 11
3569.127507899644
 21
7851.279066364536
 31
0.0
  0
LINE
  5
15558
330
17754
100
AcDbEntity
  8
BOLT
100
AcDbLine
 10
4289.127507899644
 20
8226.279066364538
 30
0.0
 11
4349.127507899644
 21
8226.279066364538
 31
0.0
  0
LINE
  5
15559
330
17754
100
AcDbEntity
  8
BOLT
100
AcDbLine
 10
4289.127507899644
 20
8026.279066364535
 30
0.0
 11
4349.127507899644
 21
8026.279066364535
 31
0.0
  0
LINE
  5
1555A
330
17754
100
AcDbEntity
  8
BOLT
100
AcDbLine
 10
4289.127507899644
 20
7936.279066364534
 30
0.0
 11
4349.127507899644
 21
7936.279066364534
 31
0.0
  0
LINE
  5
1555C
330
17754
100
AcDbEntity
  8
KISO-3
100
AcDbLine
 10
4179.127507899644
 20
8366.279066364535
 30
0.0
 11
4659.127507899643
 21
8366.279066364535
 31
0.0
  0
CIRCLE
  5
1555D
330
17754
100
AcDbEntity
  8
KISO-2
100
AcDbCircle
 10
4419.127507899644
 20
8126.279066364537
 30
0.0
 40
44.55
  0
LINE
  5
1555E
330
17754
100
AcDbEntity
  8
BOLT
100
AcDbLine
 10
4549.127507899644
 20
8026.279066364535
 30
0.0
 11
4489.127507899644
 21
8026.279066364535
 31
0.0
  0
LINE
  5
1555F
330
17754
100
AcDbEntity
  8
BOLT
100
AcDbLine
 10
4549.127507899644
 20
7936.279066364534
 30
0.0
 11
4489.127507899644
 21
7936.279066364534
 31
0.0
  0
LINE
  5
15560
330
17754
100
AcDbEntity
  8
SIN
100
AcDbLine
 10
4538.677507899643
 20
7836.279066364537
 30
0.0
 11
4299.577507899645
 21
7836.279066364537
 31
0.0
  0
LINE
  5
15561
330
17754
100
AcDbEntity
  8
BOLT
100
AcDbLine
 10
4319.127507899644
 20
7966.279066364538
 30
0.0
 11
4319.127507899644
 21
7906.279066364537
 31
0.0
  0
LINE
  5
15562
330
17754
100
AcDbEntity
  8
BOLT
100
AcDbLine
 10
4519.127507899644
 20
7966.279066364538
 30
0.0
 11
4519.127507899644
 21
7906.279066364537
 31
0.0
  0
LINE
  5
15563
330
17754
100
AcDbEntity
  8
SIN
100
AcDbLine
 10
4538.677507899643
 20
8126.279066364537
 30
0.0
 11
4299.577507899645
 21
8126.279066364537
 31
0.0
  0
LINE
  5
15564
330
17754
100
AcDbEntity
  8
BOLT
100
AcDbLine
 10
4319.127507899644
 20
7996.279066364536
 30
0.0
 11
4319.127507899644
 21
8056.279066364536
 31
0.0
  0
LINE
  5
15565
330
17754
100
AcDbEntity
  8
BOLT
100
AcDbLine
 10
4519.127507899644
 20
7996.279066364536
 30
0.0
 11
4519.127507899644
 21
8056.279066364536
 31
0.0
  0
LINE
  5
15566
330
17754
100
AcDbEntity
  8
BOLT
100
AcDbLine
 10
4549.127507899644
 20
8226.279066364538
 30
0.0
 11
4489.127507899644
 21
8226.279066364538
 31
0.0
  0
LINE
  5
15567
330
17754
100
AcDbEntity
  8
BOLT
100
AcDbLine
 10
4319.127507899644
 20
8256.279066364538
 30
0.0
 11
4319.127507899644
 21
8196.279066364535
 31
0.0
  0
LINE
  5
15568
330
17754
100
AcDbEntity
  8
BOLT
100
AcDbLine
 10
4519.127507899644
 20
8256.279066364538
 30
0.0
 11
4519.127507899644
 21
8196.279066364535
 31
0.0
  0
LINE
  5
15569
330
17754
100
AcDbEntity
  8
SUNPOU
100
AcDbLine
 10
4209.12750789964
 20
8836.279066364538
 30
0.0
 11
4419.127507899641
 21
8836.279066364538
 31
0.0
  0
TEXT
  5
1556A
330
17754
100
AcDbEntity
  8
SUNPOU
100
AcDbText
 10
3894.277407771241
 20
8791.279066364538
 30
0.0
 40
90.0
  1
A
 41
0.6700000000000001
  7
00
 72
     4
 11
3920.120264914098
 21
8836.279066364538
 31
0.0
100
AcDbText
  0
LINE
  5
1556B
330
17754
100
AcDbEntity
  8
SUNPOU
100
AcDbLine
 10
4419.127507899641
 20
8836.279066364538
 30
0.0
 11
4419.127507899641
 21
8686.279066364535
 31
0.0
  0
LINE
  5
1556C
330
17754
100
AcDbEntity
  8
SUNPOU
100
AcDbLine
 10
3989.127507899644
 20
10126.27906636454
 30
0.0
 11
3539.127507899644
 21
10126.27906636454
 31
0.0
  0
LINE
  5
1556D
330
17754
100
AcDbEntity
  8
KISO-1
100
AcDbLine
 10
4819.12750789964
 20
8626.279066364537
 30
0.0
 11
4819.127507899651
 21
7336.279066364537
 31
0.0
  0
LINE
  5
1556E
330
17754
100
AcDbEntity
  8
KISO-1
100
AcDbLine
 10
7219.127507899644
 20
8626.279066364537
 30
0.0
 11
7219.127507899651
 21
7336.279066364537
 31
0.0
  0
CIRCLE
  5
1556F
330
17754
100
AcDbEntity
  8
KISO-2
100
AcDbCircle
 10
6819.127507899643
 20
7836.279066364537
 30
0.0
 40
44.55
  0
LINE
  5
15572
330
17754
100
AcDbEntity
  8
KISO-1
100
AcDbLine
 10
6419.127507899642
 20
7336.279066364537
 30
0.0
 11
6419.127507899641
 21
8626.279066364537
 31
0.0
  0
LINE
  5
15573
330
17754
100
AcDbEntity
  8
SIN
100
AcDbLine
 10
6819.127507899643
 20
8693.279066364537
 30
0.0
 11
6819.127507899643
 21
7269.279066364537
 31
0.0
  0
LINE
  5
15574
330
17754
100
AcDbEntity
  8
KISO-1
100
AcDbLine
 10
7219.127507899644
 20
7336.279066364537
 30
0.0
 11
6419.127507899642
 21
7336.279066364537
 31
0.0
  0
LINE
  5
15575
330
17754
100
AcDbEntity
  8
BOLT
100
AcDbLine
 10
6689.127507899645
 20
7736.279066364537
 30
0.0
 11
6749.127507899643
 21
7736.279066364537
 31
0.0
  0
LINE
  5
15576
330
17754
100
AcDbEntity
  8
BOLT
100
AcDbLine
 10
6719.127507899642
 20
7706.279066364537
 30
0.0
 11
6719.127507899642
 21
7766.279066364536
 31
0.0
  0
LINE
  5
15577
330
17754
100
AcDbEntity
  8
BOLT
100
AcDbLine
 10
6919.127507899644
 20
7706.279066364537
 30
0.0
 11
6919.127507899644
 21
7766.279066364536
 31
0.0
  0
LINE
  5
15578
330
17754
100
AcDbEntity
  8
BOLT
100
AcDbLine
 10
6949.127507899643
 20
7736.279066364537
 30
0.0
 11
6889.127507899643
 21
7736.279066364537
 31
0.0
  0
LINE
  5
15579
330
17754
100
AcDbEntity
  8
SIN
100
AcDbLine
 10
6938.677507899644
 20
8126.279066364537
 30
0.0
 11
6699.577507899644
 21
8126.279066364537
 31
0.0
  0
LINE
  5
1557A
330
17754
100
AcDbEntity
  8
SIN
100
AcDbLine
 10
6938.677507899644
 20
7836.279066364537
 30
0.0
 11
6699.577507899644
 21
7836.279066364537
 31
0.0
  0
CIRCLE
  5
1557C
330
17754
100
AcDbEntity
  8
KISO-2
100
AcDbCircle
 10
6819.127507899643
 20
8126.279066364537
 30
0.0
 40
44.55
  0
LINE
  5
1557D
330
17754
100
AcDbEntity
  8
KISO-3
100
AcDbLine
 10
6579.127507899645
 20
8366.279066364535
 30
0.0
 11
7059.127507899645
 21
8366.279066364535
 31
0.0
  0
LINE
  5
1557E
330
17754
100
AcDbEntity
  8
BOLT
100
AcDbLine
 10
6689.127507899645
 20
7936.279066364534
 30
0.0
 11
6749.127507899643
 21
7936.279066364534
 31
0.0
  0
LINE
  5
1557F
330
17754
100
AcDbEntity
  8
BOLT
100
AcDbLine
 10
6719.127507899642
 20
7966.279066364538
 30
0.0
 11
6719.127507899642
 21
7906.279066364537
 31
0.0
  0
LINE
  5
15580
330
17754
100
AcDbEntity
  8
BOLT
100
AcDbLine
 10
6689.127507899645
 20
8026.279066364535
 30
0.0
 11
6749.127507899643
 21
8026.279066364535
 31
0.0
  0
LINE
  5
15581
330
17754
100
AcDbEntity
  8
BOLT
100
AcDbLine
 10
6719.127507899642
 20
7996.279066364536
 30
0.0
 11
6719.127507899642
 21
8056.279066364536
 31
0.0
  0
LINE
  5
15582
330
17754
100
AcDbEntity
  8
BOLT
100
AcDbLine
 10
6689.127507899645
 20
8226.279066364538
 30
0.0
 11
6749.127507899643
 21
8226.279066364538
 31
0.0
  0
LINE
  5
15583
330
17754
100
AcDbEntity
  8
BOLT
100
AcDbLine
 10
6719.127507899642
 20
8256.279066364538
 30
0.0
 11
6719.127507899642
 21
8196.279066364535
 31
0.0
  0
LINE
  5
15584
330
17754
100
AcDbEntity
  8
BOLT
100
AcDbLine
 10
6919.127507899644
 20
7966.279066364538
 30
0.0
 11
6919.127507899644
 21
7906.279066364537
 31
0.0
  0
LINE
  5
15585
330
17754
100
AcDbEntity
  8
BOLT
100
AcDbLine
 10
6949.127507899643
 20
7936.279066364534
 30
0.0
 11
6889.127507899643
 21
7936.279066364534
 31
0.0
  0
LINE
  5
15586
330
17754
100
AcDbEntity
  8
BOLT
100
AcDbLine
 10
6919.127507899644
 20
7996.279066364536
 30
0.0
 11
6919.127507899644
 21
8056.279066364536
 31
0.0
  0
LINE
  5
15587
330
17754
100
AcDbEntity
  8
BOLT
100
AcDbLine
 10
6949.127507899643
 20
8026.279066364535
 30
0.0
 11
6889.127507899643
 21
8026.279066364535
 31
0.0
  0
LINE
  5
15588
330
17754
100
AcDbEntity
  8
BOLT
100
AcDbLine
 10
6919.127507899644
 20
8256.279066364538
 30
0.0
 11
6919.127507899644
 21
8196.279066364535
 31
0.0
  0
LINE
  5
15589
330
17754
100
AcDbEntity
  8
BOLT
100
AcDbLine
 10
6949.127507899643
 20
8226.279066364538
 30
0.0
 11
6889.127507899643
 21
8226.279066364538
 31
0.0
  0
LINE
  5
1558A
330
17754
100
AcDbEntity
  8
KISO-1
100
AcDbLine
 10
6419.127507899641
 20
8626.279066364537
 30
0.0
 11
7219.127507899644
 21
8626.279066364537
 31
0.0
  0
TEXT
  5
1558B
330
17754
100
AcDbEntity
  8
HIKIDASHI
100
AcDbText
 10
5203.5536477714
 20
9879.828338745873
 30
0.0
 40
90.0
  1
（鼻隠し外面）
  7
01
100
AcDbText
  0
TEXT
  5
1558C
330
17754
100
AcDbEntity
  8
HIKIDASHI
100
AcDbText
 10
5094.907558109866
 20
10171.27906636454
 30
0.0
 40
90.0
  1
（土間コン後面位置）
  7
01
100
AcDbText
  0
TEXT
  5
155A8
330
17754
100
AcDbEntity
  8
HIKIDASHI
100
AcDbText
 10
8905.035003216269
 20
4664.967244169086
 30
0.0
 40
135.0
  1
=
 41
0.6666666666666666
  7
00
 72
     4
 11
8960.749288930555
 21
4722.824387026229
 31
0.0
100
AcDbText
  0
TEXT
  5
155A9
330
17754
100
AcDbEntity
  8
HIKIDASHI
100
AcDbText
 10
9090.684071273557
 20
4722.738243577434
 30
0.0
 40
67.5
  1
1
 41
0.6666666666666666
  7
00
 72
     4
 11
9108.898356987843
 21
4756.488243577434
 31
0.0
100
AcDbText
  0
LINE
  5
155AA
330
17754
100
AcDbEntity
  8
HIKIDASHI
100
AcDbLine
 10
9223.27397524886
 20
4790.324387026229
 30
0.0
 11
9088.273975248863
 21
4655.324387026229
 31
0.0
  0
TEXT
  5
155AB
330
17754
100
AcDbEntity
  8
HIKIDASHI
100
AcDbText
 10
9174.426038412377
 20
4655.324387026229
 30
0.0
 40
67.5
  1
40
 41
0.6666666666666666
  7
00
 72
     4
 11
9217.28318126952
 21
4689.07438702623
 31
0.0
100
AcDbText
  0
LINE
  5
155B0
330
17754
100
AcDbEntity
  8
KISO-1
100
AcDbLine
 10
11619.12750789964
 20
8626.279066364537
 30
0.0
 11
12419.12750789962
 21
8626.279066364537
 31
0.0
  0
LINE
  5
155B1
330
17754
100
AcDbEntity
  8
KISO-3
100
AcDbLine
 10
11779.12750789964
 20
8366.279066364535
 30
0.0
 11
12259.12750789962
 21
8366.279066364535
 31
0.0
  0
LINE
  5
155B2
330
17754
100
AcDbEntity
  8
HIKIDASHI
100
AcDbLine
 10
12088.68152759176
 20
8277.980539100742
 30
0.0
 11
11713.15215164264
 21
8915.681200926824
 31
0.0
  0
LINE
  5
155B3
330
17754
100
AcDbEntity
  8
HIKIDASHI
100
AcDbLine
 10
11901.95131345202
 20
8283.768007425384
 30
0.0
 11
11713.15215164264
 21
8915.681200926824
 31
0.0
  0
LINE
  5
155B4
330
17754
100
AcDbEntity
  8
SUNPOU
100
AcDbLine
 10
11869.57750789964
 20
7836.279066364537
 30
0.0
 11
11289.12750789964
 21
7836.279066364537
 31
0.0
  0
LINE
  5
155B5
330
17754
100
AcDbEntity
  8
SUNPOU
100
AcDbLine
 10
11869.57750789964
 20
7836.279066364537
 30
0.0
 11
11289.12750789964
 21
7836.279066364537
 31
0.0
  0
LINE
  5
155B6
330
17754
100
AcDbEntity
  8
SUNPOU
100
AcDbLine
 10
11869.57750789964
 20
8126.279066364537
 30
0.0
 11
11289.12750789964
 21
8126.279066364537
 31
0.0
  0
LINE
  5
155B7
330
17754
100
AcDbEntity
  8
SUNPOU
100
AcDbLine
 10
11869.57750789964
 20
8126.279066364537
 30
0.0
 11
11289.12750789964
 21
8126.279066364537
 31
0.0
  0
LINE
  5
155B8
330
17754
100
AcDbEntity
  8
HIKIDASHI
100
AcDbLine
 10
11927.31965271764
 20
7786.372724886658
 30
0.0
 11
11566.8914761639
 21
7577.260660246178
 31
0.0
  0
LINE
  5
155B9
330
17754
100
AcDbEntity
  8
KISO-1
100
AcDbLine
 10
12419.12750789962
 20
7336.279066364537
 30
0.0
 11
11619.12750789964
 21
7336.279066364537
 31
0.0
  0
LINE
  5
155BA
330
17754
100
AcDbEntity
  8
SUNPOU
100
AcDbLine
 10
12404.12750789964
 20
6666.279066364538
 30
0.0
 11
11634.12750789962
 21
6666.279066364538
 31
0.0
  0
LINE
  5
155BB
330
17754
100
AcDbEntity
  8
SUNPOU
100
AcDbLine
 10
12244.12750789964
 20
6876.279066364536
 30
0.0
 11
11794.12750789962
 21
6876.279066364536
 31
0.0
  0
LINE
  5
155BD
330
17754
100
AcDbEntity
  8
HIKIDASHI
100
AcDbLine
 10
11952.65527388894
 20
8045.581206382836
 30
0.0
 11
11566.8914761639
 21
7577.260660246181
 31
0.0
  0
LINE
  5
155BE
330
17754
100
AcDbEntity
  8
KISO-1
100
AcDbLine
 10
10019.12750789964
 20
8626.279066364537
 30
0.0
 11
10019.12750789965
 21
7336.279066364537
 31
0.0
  0
CIRCLE
  5
155BF
330
17754
100
AcDbEntity
  8
KISO-2
100
AcDbCircle
 10
9619.127507899644
 20
7836.279066364537
 30
0.0
 40
44.55
  0
LINE
  5
155C2
330
17754
100
AcDbEntity
  8
KISO-1
100
AcDbLine
 10
9219.127507899644
 20
7336.279066364537
 30
0.0
 11
9219.12750789964
 21
8626.279066364537
 31
0.0
  0
LINE
  5
155C3
330
17754
100
AcDbEntity
  8
SIN
100
AcDbLine
 10
9619.127507899641
 20
8693.279066364537
 30
0.0
 11
9619.127507899644
 21
7269.279066364537
 31
0.0
  0
LINE
  5
155C4
330
17754
100
AcDbEntity
  8
KISO-1
100
AcDbLine
 10
10019.12750789964
 20
7336.279066364537
 30
0.0
 11
9219.127507899644
 21
7336.279066364537
 31
0.0
  0
LINE
  5
155C5
330
17754
100
AcDbEntity
  8
BOLT
100
AcDbLine
 10
9519.127507899645
 20
7706.279066364537
 30
0.0
 11
9519.127507899645
 21
7766.279066364536
 31
0.0
  0
LINE
  5
155C6
330
17754
100
AcDbEntity
  8
BOLT
100
AcDbLine
 10
9489.127507899643
 20
7736.279066364537
 30
0.0
 11
9549.127507899644
 21
7736.279066364537
 31
0.0
  0
LINE
  5
155C7
330
17754
100
AcDbEntity
  8
BOLT
100
AcDbLine
 10
9749.127507899643
 20
7736.279066364537
 30
0.0
 11
9689.127507899645
 21
7736.279066364537
 31
0.0
  0
LINE
  5
155C8
330
17754
100
AcDbEntity
  8
BOLT
100
AcDbLine
 10
9719.127507899644
 20
7706.279066364537
 30
0.0
 11
9719.127507899644
 21
7766.279066364536
 31
0.0
  0
LINE
  5
155C9
330
17754
100
AcDbEntity
  8
KISO-1
100
AcDbLine
 10
9219.12750789964
 20
8626.279066364537
 30
0.0
 11
10019.12750789964
 21
8626.279066364537
 31
0.0
  0
LINE
  5
155CA
330
17754
100
AcDbEntity
  8
KISO-3
100
AcDbLine
 10
9379.127507899644
 20
8366.279066364535
 30
0.0
 11
9859.127507899644
 21
8366.279066364535
 31
0.0
  0
CIRCLE
  5
155CB
330
17754
100
AcDbEntity
  8
KISO-2
100
AcDbCircle
 10
9619.127507899644
 20
8126.279066364537
 30
0.0
 40
44.55
  0
LINE
  5
155CD
330
17754
100
AcDbEntity
  8
SIN
100
AcDbLine
 10
9738.677507899645
 20
8126.279066364537
 30
0.0
 11
9499.577507899642
 21
8126.279066364537
 31
0.0
  0
LINE
  5
155CE
330
17754
100
AcDbEntity
  8
SIN
100
AcDbLine
 10
9738.677507899645
 20
7836.279066364537
 30
0.0
 11
9499.577507899642
 21
7836.279066364537
 31
0.0
  0
LINE
  5
155CF
330
17754
100
AcDbEntity
  8
BOLT
100
AcDbLine
 10
9519.127507899645
 20
7966.279066364538
 30
0.0
 11
9519.127507899645
 21
7906.279066364537
 31
0.0
  0
LINE
  5
155D0
330
17754
100
AcDbEntity
  8
BOLT
100
AcDbLine
 10
9489.127507899643
 20
7936.279066364534
 30
0.0
 11
9549.127507899644
 21
7936.279066364534
 31
0.0
  0
LINE
  5
155D1
330
17754
100
AcDbEntity
  8
BOLT
100
AcDbLine
 10
9519.127507899645
 20
7996.279066364536
 30
0.0
 11
9519.127507899645
 21
8056.279066364536
 31
0.0
  0
LINE
  5
155D2
330
17754
100
AcDbEntity
  8
BOLT
100
AcDbLine
 10
9489.127507899643
 20
8026.279066364535
 30
0.0
 11
9549.127507899644
 21
8026.279066364535
 31
0.0
  0
LINE
  5
155D3
330
17754
100
AcDbEntity
  8
BOLT
100
AcDbLine
 10
9749.127507899643
 20
7936.279066364534
 30
0.0
 11
9689.127507899645
 21
7936.279066364534
 31
0.0
  0
LINE
  5
155D4
330
17754
100
AcDbEntity
  8
BOLT
100
AcDbLine
 10
9719.127507899644
 20
7966.279066364538
 30
0.0
 11
9719.127507899644
 21
7906.279066364537
 31
0.0
  0
LINE
  5
155D5
330
17754
100
AcDbEntity
  8
BOLT
100
AcDbLine
 10
9719.127507899644
 20
7996.279066364536
 30
0.0
 11
9719.127507899644
 21
8056.279066364536
 31
0.0
  0
LINE
  5
155D6
330
17754
100
AcDbEntity
  8
BOLT
100
AcDbLine
 10
9749.127507899643
 20
8026.279066364535
 30
0.0
 11
9689.127507899645
 21
8026.279066364535
 31
0.0
  0
LINE
  5
155D7
330
17754
100
AcDbEntity
  8
BOLT
100
AcDbLine
 10
9519.127507899645
 20
8256.279066364538
 30
0.0
 11
9519.127507899645
 21
8196.279066364535
 31
0.0
  0
LINE
  5
155D8
330
17754
100
AcDbEntity
  8
BOLT
100
AcDbLine
 10
9489.127507899643
 20
8226.279066364538
 30
0.0
 11
9549.127507899644
 21
8226.279066364538
 31
0.0
  0
LINE
  5
155D9
330
17754
100
AcDbEntity
  8
BOLT
100
AcDbLine
 10
9749.127507899643
 20
8226.279066364538
 30
0.0
 11
9689.127507899645
 21
8226.279066364538
 31
0.0
  0
LINE
  5
155DA
330
17754
100
AcDbEntity
  8
BOLT
100
AcDbLine
 10
9719.127507899644
 20
8256.279066364538
 30
0.0
 11
9719.127507899644
 21
8196.279066364535
 31
0.0
  0
LINE
  5
155DB
330
17754
100
AcDbEntity
  8
KISO-1
100
AcDbLine
 10
11619.12750789964
 20
7336.279066364537
 30
0.0
 11
11619.12750789964
 21
8626.279066364537
 31
0.0
  0
LINE
  5
155DC
330
17754
100
AcDbEntity
  8
SUNPOU
100
AcDbLine
 10
11109.12750789964
 20
7351.279066364536
 30
0.0
 11
11109.12750789964
 21
8611.279066364536
 31
0.0
  0
LINE
  5
155DD
330
17754
100
AcDbEntity
  8
SUNPOU
100
AcDbLine
 10
11319.12750789964
 20
7351.279066364536
 30
0.0
 11
11319.12750789964
 21
7821.279066364535
 31
0.0
  0
LINE
  5
155DE
330
17754
100
AcDbEntity
  8
SUNPOU
100
AcDbLine
 10
11779.12750789964
 20
7566.279066364536
 30
0.0
 11
11779.12750789964
 21
6831.279066364537
 31
0.0
  0
LINE
  5
155DF
330
17754
100
AcDbEntity
  8
SUNPOU
100
AcDbLine
 10
11619.12750789964
 20
7301.702201810378
 30
0.0
 11
11619.12750789964
 21
6621.279066364536
 31
0.0
  0
TEXT
  5
155E0
330
17754
100
AcDbEntity
  8
SUNPOU
100
AcDbText
 10
11609.12750789964
 20
6921.279066364538
 30
0.0
 40
90.0
  1
160
 41
0.6666666666666666
  7
00
 72
     4
 11
11699.12750789964
 21
6966.279066364538
 31
0.0
100
AcDbText
  0
LINE
  5
155E1
330
17754
100
AcDbEntity
  8
SUNPOU
100
AcDbLine
 10
11764.12750789963
 20
6876.279066364536
 30
0.0
 11
11634.12750789962
 21
6876.279066364536
 31
0.0
  0
LINE
  5
155E2
330
17754
100
AcDbEntity
  8
SUNPOU
100
AcDbLine
 10
11589.12750789964
 20
7336.279066364537
 30
0.0
 11
11079.12750789964
 21
7336.279066364537
 31
0.0
  0
LINE
  5
155E3
330
17754
100
AcDbEntity
  8
SUNPOU
100
AcDbLine
 10
11289.12750789964
 20
7336.279066364537
 30
0.0
 11
11289.12750789964
 21
7336.279066364537
 31
0.0
  0
TEXT
  5
155E4
330
17754
100
AcDbEntity
  8
SUNPOU
100
AcDbText
 10
11274.12750789964
 20
7500.564780650252
 30
0.0
 40
90.0
  1
500
 50
90.0
 41
0.6666666666666666
  7
00
 72
     1
 11
11229.12750789964
 21
7586.279066364537
 31
0.0
100
AcDbText
 73
     2
  0
LINE
  5
155E5
330
17754
100
AcDbEntity
  8
HIKIDASHI
100
AcDbLine
 10
11451.20636791584
 20
7577.260660246178
 30
0.0
 11
11566.8914761639
 21
7577.260660246178
 31
0.0
  0
TEXT
  5
155E6
330
17754
100
AcDbEntity
  8
HIKIDASHI
100
AcDbText
 10
11461.20636791585
 20
7622.260660246181
 30
0.0
 40
90.0
  1
柱
  7
01
100
AcDbText
  0
TEXT
  5
155E7
330
17754
100
AcDbEntity
  8
HIKIDASHI
100
AcDbText
 10
10763.53965204114
 20
8960.681200926819
 30
0.0
 40
89.55223880597012
  1
W ／
 41
0.6700000000000001
  7
00
100
AcDbText
  0
LINE
  5
155E8
330
17754
100
AcDbEntity
  8
HIKIDASHI
100
AcDbLine
 10
9968.924912487226
 20
8915.681200926817
 30
0.0
 11
11713.15215164264
 21
8915.681200926817
 31
0.0
  0
TEXT
  5
155E9
330
17754
100
AcDbEntity
  8
HIKIDASHI
100
AcDbText
 10
10003.20259743574
 20
8960.681200926819
 30
0.0
 40
90.00009018009018
  1
アンカーボルト
  7
01
100
AcDbText
  0
TEXT
  5
155EA
330
17754
100
AcDbEntity
  8
HIKIDASHI
100
AcDbText
 10
10838.14046272435
 20
8987.110810565713
 30
0.0
 40
67.16417910447761
  1
1
 41
0.6700000000000001
  7
00
100
AcDbText
  0
LINE
  5
155EB
330
17754
100
AcDbEntity
  8
SUNPOU
100
AcDbLine
 10
11319.12750789964
 20
8141.279066364537
 30
0.0
 11
11319.12750789964
 21
8611.279066364536
 31
0.0
  0
TEXT
  5
155EC
330
17754
100
AcDbEntity
  8
SUNPOU
100
AcDbText
 10
11064.12750789964
 20
7862.707637793106
 30
0.0
 40
90.0
  1
1290
 50
90.0
 41
0.6666666666666666
  7
00
 72
     1
 11
11019.12750789964
 21
7981.279066364534
 31
0.0
100
AcDbText
 73
     2
  0
LINE
  5
155ED
330
17754
100
AcDbEntity
  8
SUNPOU
100
AcDbLine
 10
11319.12750789964
 20
7851.279066364536
 30
0.0
 11
11319.12750789964
 21
8111.279066364536
 31
0.0
  0
TEXT
  5
155EE
330
17754
100
AcDbEntity
  8
SUNPOU
100
AcDbText
 10
11274.12750789964
 20
7895.56478065025
 30
0.0
 40
90.0
  1
290
 50
90.0
 41
0.6666666666666666
  7
00
 72
     1
 11
11229.12750789964
 21
7981.279066364534
 31
0.0
100
AcDbText
 73
     2
  0
TEXT
  5
155EF
330
17754
100
AcDbEntity
  8
SUNPOU
100
AcDbText
 10
11274.12750789964
 20
8290.564780650251
 30
0.0
 40
90.0
  1
500
 50
90.0
 41
0.6666666666666666
  7
00
 72
     1
 11
11229.12750789964
 21
8376.279066364537
 31
0.0
100
AcDbText
 73
     2
  0
TEXT
  5
155F0
330
17754
100
AcDbEntity
  8
HIKIDASHI
100
AcDbText
 10
11320.72296968829
 20
8960.681200926819
 30
0.0
 40
90.00009018009018
  1
（別途）
  7
01
100
AcDbText
  0
LINE
  5
155F1
330
17754
100
AcDbEntity
  8
SUNPOU
100
AcDbLine
 10
11589.12750789964
 20
8626.279066364537
 30
0.0
 11
11079.12750789964
 21
8626.279066364537
 31
0.0
  0
LINE
  5
155F2
330
17754
100
AcDbEntity
  8
SUNPOU
100
AcDbLine
 10
11289.12750789964
 20
8626.279066364537
 30
0.0
 11
11289.12750789964
 21
8626.279066364537
 31
0.0
  0
TEXT
  5
155F3
330
17754
100
AcDbEntity
  8
HIKIDASHI
100
AcDbText
 10
11079.00281562679
 20
8960.472214726726
 30
0.0
 40
89.55223880597012
  1
400
 41
0.6700000000000001
  7
00
100
AcDbText
  0
TEXT
  5
155F4
330
17754
100
AcDbEntity
  8
HIKIDASHI
100
AcDbText
 10
10997.86743647366
 20
8971.875230777563
 30
0.0
 40
89.55223880597012
  1
x
 41
0.6700000000000001
  7
00
100
AcDbText
  0
TEXT
  5
155F5
330
17754
100
AcDbEntity
  8
HIKIDASHI
100
AcDbText
 10
10926.03249928329
 20
8960.084755535147
 30
0.0
 40
67.16417910447761
  1
2
 41
0.6700000000000001
  7
00
100
AcDbText
  0
TEXT
  5
155F7
330
17754
100
AcDbEntity
  8
HIKIDASHI
100
AcDbText
 10
12554.12750789965
 20
8838.462240836198
 30
0.0
 40
90.0
  1
（土間コン側面位置）
 50
90.0
  7
01
100
AcDbText
  0
TEXT
  5
155F8
330
17754
100
AcDbEntity
  8
HIKIDASHI
100
AcDbText
 10
12195.92816095085
 20
8947.108330497737
 30
0.0
 40
90.0
  1
（ケラバ外面）
 50
90.0
  7
01
100
AcDbText
  0
LINE
  5
155F9
330
17754
100
AcDbEntity
  8
SUNPOU
100
AcDbLine
 10
12869.12750789964
 20
7921.279066364538
 30
0.0
 11
12869.12750789964
 21
7751.279066364536
 31
0.0
  0
TEXT
  5
155FA
330
17754
100
AcDbEntity
  8
SUNPOU
100
AcDbText
 10
12824.12750789962
 20
7734.107854207142
 30
0.0
 40
90.0
  1
200
 50
90.0
 41
0.6666666666666666
  7
00
 72
     4
 11
12779.12750789963
 21
7819.822139921427
 31
0.0
100
AcDbText
  0
LINE
  5
155FB
330
17754
100
AcDbEntity
  8
SUNPOU
100
AcDbLine
 10
13079.12750789963
 20
7611.279066364534
 30
0.0
 11
13079.12750789963
 21
8351.279066364538
 31
0.0
  0
LINE
  5
155FD
330
17754
100
AcDbEntity
  8
SIN
100
AcDbLine
 10
12019.12750789964
 20
8693.279066364537
 30
0.0
 11
12019.12750789964
 21
7269.279066364537
 31
0.0
  0
CIRCLE
  5
155FF
330
17754
100
AcDbEntity
  8
KISO-2
100
AcDbCircle
 10
12019.12750789964
 20
7836.279066364537
 30
0.0
 40
44.55
  0
LINE
  5
15600
330
17754
100
AcDbEntity
  8
KISO-1
100
AcDbLine
 10
12419.12750789962
 20
8626.279066364537
 30
0.0
 11
12419.12750789964
 21
7336.279066364537
 31
0.0
  0
LINE
  5
15601
330
17754
100
AcDbEntity
  8
SUNPOU
100
AcDbLine
 10
12179.12750789962
 20
7736.279066364537
 30
0.0
 11
12914.12750789963
 21
7736.279066364537
 31
0.0
  0
LINE
  5
15602
330
17754
100
AcDbEntity
  8
SUNPOU
100
AcDbLine
 10
12449.12750789963
 20
7336.279066364537
 30
0.0
 11
13109.12750789964
 21
7336.279066364537
 31
0.0
  0
LINE
  5
15603
330
17754
100
AcDbEntity
  8
SUNPOU
100
AcDbLine
 10
12289.12750789963
 20
7596.279066364536
 30
0.0
 11
13109.12750789964
 21
7596.279066364536
 31
0.0
  0
LINE
  5
15604
330
17754
100
AcDbEntity
  8
SUNPOU
100
AcDbLine
 10
12289.12750789963
 20
7596.279066364536
 30
0.0
 11
13109.12750789964
 21
7596.279066364536
 31
0.0
  0
LINE
  5
15605
330
17754
100
AcDbEntity
  8
SUNPOU
100
AcDbLine
 10
11919.12750789964
 20
7676.279066364536
 30
0.0
 11
11919.12750789964
 21
7041.279066364538
 31
0.0
  0
LINE
  5
15606
330
17754
100
AcDbEntity
  8
SUNPOU
100
AcDbLine
 10
12119.12750789962
 20
7676.279066364536
 30
0.0
 11
12119.12750789962
 21
7041.279066364538
 31
0.0
  0
LINE
  5
15607
330
17754
100
AcDbEntity
  8
SUNPOU
100
AcDbLine
 10
12259.12750789962
 20
7566.279066364536
 30
0.0
 11
12259.12750789962
 21
6831.279066364537
 31
0.0
  0
LINE
  5
15608
330
17754
100
AcDbEntity
  8
SUNPOU
100
AcDbLine
 10
12404.12750789964
 20
6876.279066364536
 30
0.0
 11
12274.12750789963
 21
6876.279066364536
 31
0.0
  0
TEXT
  5
15609
330
17754
100
AcDbEntity
  8
SUNPOU
100
AcDbText
 10
12249.12750789963
 20
6921.279066364538
 30
0.0
 40
90.0
  1
160
 41
0.6666666666666666
  7
00
 72
     4
 11
12339.12750789962
 21
6966.279066364538
 31
0.0
100
AcDbText
  0
TEXT
  5
1560A
330
17754
100
AcDbEntity
  8
SUNPOU
100
AcDbText
 10
11933.41322218535
 20
6711.279066364538
 30
0.0
 40
90.0
  1
800
 41
0.6666666666666666
  7
00
 72
     1
 11
12019.12750789964
 21
6756.279066364538
 31
0.0
100
AcDbText
 73
     2
  0
TEXT
  5
1560B
330
17754
100
AcDbEntity
  8
SUNPOU
100
AcDbText
 10
11933.41322218535
 20
6921.279066364538
 30
0.0
 40
90.0
  1
480
 41
0.6666666666666666
  7
00
 72
     1
 11
12019.12750789964
 21
6966.279066364538
 31
0.0
100
AcDbText
 73
     2
  0
LINE
  5
1560C
330
17754
100
AcDbEntity
  8
SUNPOU
100
AcDbLine
 10
12019.12750789964
 20
6858.850215751536
 30
0.0
 11
12019.12750789964
 21
6831.279066364537
 31
0.0
  0
LINE
  5
1560D
330
17754
100
AcDbEntity
  8
SUNPOU
100
AcDbLine
 10
12104.12750789964
 20
7086.279066364537
 30
0.0
 11
11934.12750789963
 21
7086.279066364537
 31
0.0
  0
LINE
  5
1560E
330
17754
100
AcDbEntity
  8
SUNPOU
100
AcDbLine
 10
12019.12750789964
 20
7062.364474672226
 30
0.0
 11
12019.12750789964
 21
7041.279066364538
 31
0.0
  0
TEXT
  5
1560F
330
17754
100
AcDbEntity
  8
SUNPOU
100
AcDbText
 10
11933.41322218535
 20
7131.279066364538
 30
0.0
 40
90.0
  1
200
 41
0.6666666666666666
  7
00
 72
     1
 11
12019.12750789964
 21
7176.279066364536
 31
0.0
100
AcDbText
 73
     2
  0
LINE
  5
15610
330
17754
100
AcDbEntity
  8
BOLT
100
AcDbLine
 10
12149.12750789963
 20
7736.279066364537
 30
0.0
 11
12089.12750789963
 21
7736.279066364537
 31
0.0
  0
LINE
  5
15611
330
17754
100
AcDbEntity
  8
BOLT
100
AcDbLine
 10
11889.12750789963
 20
7736.279066364537
 30
0.0
 11
11949.12750789963
 21
7736.279066364537
 31
0.0
  0
LINE
  5
15612
330
17754
100
AcDbEntity
  8
BOLT
100
AcDbLine
 10
11919.12750789964
 20
7706.279066364537
 30
0.0
 11
11919.12750789964
 21
7766.279066364536
 31
0.0
  0
LINE
  5
15613
330
17754
100
AcDbEntity
  8
BOLT
100
AcDbLine
 10
12119.12750789962
 20
7706.279066364537
 30
0.0
 11
12119.12750789962
 21
7766.279066364536
 31
0.0
  0
TEXT
  5
15614
330
17754
100
AcDbEntity
  8
SUNPOU
100
AcDbText
 10
12824.12750789962
 20
7411.128998278755
 30
0.0
 40
90.0
  1
140
 50
90.0
 41
0.6666666666666666
  7
00
 72
     4
 11
12779.12750789963
 21
7501.128998278756
 31
0.0
100
AcDbText
  0
LINE
  5
15615
330
17754
100
AcDbEntity
  8
SUNPOU
100
AcDbLine
 10
13079.12750789963
 20
7351.279066364536
 30
0.0
 11
13079.12750789963
 21
7581.279066364537
 31
0.0
  0
LINE
  5
15616
330
17754
100
AcDbEntity
  8
SUNPOU
100
AcDbLine
 10
12869.12750789964
 20
7596.279066364536
 30
0.0
 11
12869.12750789964
 21
7418.3103239567
 31
0.0
  0
TEXT
  5
15617
330
17754
100
AcDbEntity
  8
SUNPOU
100
AcDbText
 10
13034.12750789964
 20
7380.564780650252
 30
0.0
 40
90.0
  1
260
 50
90.0
 41
0.6666666666666666
  7
00
 72
     1
 11
12989.12750789964
 21
7466.279066364538
 31
0.0
100
AcDbText
 73
     2
  0
LINE
  5
15618
330
17754
100
AcDbEntity
  8
SUNPOU
100
AcDbLine
 10
12869.12750789964
 20
7721.279066364536
 30
0.0
 11
12869.12750789964
 21
7611.279066364534
 31
0.0
  0
LINE
  5
15619
330
17754
100
AcDbEntity
  8
SUNPOU
100
AcDbLine
 10
12289.12750789963
 20
8366.279066364535
 30
0.0
 11
13109.12750789964
 21
8366.279066364535
 31
0.0
  0
LINE
  5
1561A
330
17754
100
AcDbEntity
  8
SUNPOU
100
AcDbLine
 10
12289.12750789963
 20
8366.279066364535
 30
0.0
 11
13109.12750789964
 21
8366.279066364535
 31
0.0
  0
LINE
  5
1561B
330
17754
100
AcDbEntity
  8
SUNPOU
100
AcDbLine
 10
12449.12750789963
 20
8626.279066364537
 30
0.0
 11
13109.12750789964
 21
8626.279066364537
 31
0.0
  0
LINE
  5
1561C
330
17754
100
AcDbEntity
  8
SUNPOU
100
AcDbLine
 10
12179.12750789962
 20
8226.279066364536
 30
0.0
 11
12914.12750789963
 21
8226.279066364536
 31
0.0
  0
TEXT
  5
1561D
330
17754
100
AcDbEntity
  8
SUNPOU
100
AcDbText
 10
12824.12750789962
 20
8371.429134450318
 30
0.0
 40
90.0
  1
140
 50
90.0
 41
0.6666666666666666
  7
00
 72
     4
 11
12779.12750789963
 21
8461.429134450318
 31
0.0
100
AcDbText
  0
LINE
  5
1561E
330
17754
100
AcDbEntity
  8
SUNPOU
100
AcDbLine
 10
12179.12750789962
 20
7936.279066364534
 30
0.0
 11
12710.69739704142
 21
7936.279066364534
 31
0.0
  0
LINE
  5
1561F
330
17754
100
AcDbEntity
  8
SUNPOU
100
AcDbLine
 10
12179.12750789962
 20
8026.279066364535
 30
0.0
 11
12710.69739704142
 21
8026.279066364535
 31
0.0
  0
CIRCLE
  5
15620
330
17754
100
AcDbEntity
  8
KISO-2
100
AcDbCircle
 10
12019.12750789964
 20
8126.279066364537
 30
0.0
 40
44.55
  0
LINE
  5
15622
330
17754
100
AcDbEntity
  8
BOLT
100
AcDbLine
 10
12149.12750789963
 20
8026.279066364535
 30
0.0
 11
12089.12750789963
 21
8026.279066364535
 31
0.0
  0
LINE
  5
15623
330
17754
100
AcDbEntity
  8
BOLT
100
AcDbLine
 10
12149.12750789963
 20
7936.279066364534
 30
0.0
 11
12089.12750789963
 21
7936.279066364534
 31
0.0
  0
LINE
  5
15624
330
17754
100
AcDbEntity
  8
SIN
100
AcDbLine
 10
12138.67750789964
 20
7836.279066364537
 30
0.0
 11
11899.57750789964
 21
7836.279066364537
 31
0.0
  0
LINE
  5
15625
330
17754
100
AcDbEntity
  8
SIN
100
AcDbLine
 10
12138.67750789964
 20
8126.279066364537
 30
0.0
 11
11899.57750789964
 21
8126.279066364537
 31
0.0
  0
LINE
  5
15626
330
17754
100
AcDbEntity
  8
BOLT
100
AcDbLine
 10
11889.12750789963
 20
7936.279066364534
 30
0.0
 11
11949.12750789963
 21
7936.279066364534
 31
0.0
  0
LINE
  5
15627
330
17754
100
AcDbEntity
  8
BOLT
100
AcDbLine
 10
11919.12750789964
 20
7966.279066364538
 30
0.0
 11
11919.12750789964
 21
7906.279066364537
 31
0.0
  0
LINE
  5
15629
330
17754
100
AcDbEntity
  8
BOLT
100
AcDbLine
 10
11889.12750789963
 20
8026.279066364535
 30
0.0
 11
11949.12750789963
 21
8026.279066364535
 31
0.0
  0
LINE
  5
1562A
330
17754
100
AcDbEntity
  8
BOLT
100
AcDbLine
 10
11919.12750789964
 20
7996.279066364536
 30
0.0
 11
11919.12750789964
 21
8056.279066364536
 31
0.0
  0
LINE
  5
1562B
330
17754
100
AcDbEntity
  8
BOLT
100
AcDbLine
 10
12119.12750789962
 20
7966.279066364538
 30
0.0
 11
12119.12750789962
 21
7906.279066364537
 31
0.0
  0
LINE
  5
1562C
330
17754
100
AcDbEntity
  8
BOLT
100
AcDbLine
 10
12119.12750789962
 20
7996.279066364536
 30
0.0
 11
12119.12750789962
 21
8056.279066364536
 31
0.0
  0
LINE
  5
1562E
330
17754
100
AcDbEntity
  8
BOLT
100
AcDbLine
 10
12149.12750789963
 20
8226.279066364538
 30
0.0
 11
12089.12750789963
 21
8226.279066364538
 31
0.0
  0
LINE
  5
15630
330
17754
100
AcDbEntity
  8
BOLT
100
AcDbLine
 10
11889.12750789963
 20
8226.279066364538
 30
0.0
 11
11949.12750789963
 21
8226.279066364538
 31
0.0
  0
LINE
  5
15631
330
17754
100
AcDbEntity
  8
BOLT
100
AcDbLine
 10
11919.12750789964
 20
8256.279066364538
 30
0.0
 11
11919.12750789964
 21
8196.279066364535
 31
0.0
  0
LINE
  5
15632
330
17754
100
AcDbEntity
  8
BOLT
100
AcDbLine
 10
12119.12750789962
 20
8256.279066364538
 30
0.0
 11
12119.12750789962
 21
8196.279066364535
 31
0.0
  0
TEXT
  5
15633
330
17754
100
AcDbEntity
  8
SUNPOU
100
AcDbText
 10
12824.12750789962
 20
8051.536071860729
 30
0.0
 40
90.0
  1
200
 50
90.0
 41
0.6666666666666666
  7
00
 72
     4
 11
12779.12750789963
 21
8137.250357575013
 31
0.0
100
AcDbText
  0
TEXT
  5
15634
330
17754
100
AcDbEntity
  8
SUNPOU
100
AcDbText
 10
12824.12750789962
 20
7924.109493078764
 30
0.0
 40
90.0
  1
90
 50
90.0
 41
0.6666666666666666
  7
00
 72
     4
 11
12779.12750789963
 21
7981.252350221621
 31
0.0
100
AcDbText
  0
LINE
  5
15635
330
17754
100
AcDbEntity
  8
SUNPOU
100
AcDbLine
 10
13079.12750789963
 20
8381.279066364538
 30
0.0
 11
13079.12750789963
 21
8611.279066364536
 31
0.0
  0
TEXT
  5
15636
330
17754
100
AcDbEntity
  8
SUNPOU
100
AcDbText
 10
13034.12750789964
 20
8410.564780650252
 30
0.0
 40
90.0
  1
260
 50
90.0
 41
0.6666666666666666
  7
00
 72
     1
 11
12989.12750789964
 21
8496.279066364538
 31
0.0
100
AcDbText
 73
     2
  0
LINE
  5
15637
330
17754
100
AcDbEntity
  8
SUNPOU
100
AcDbLine
 10
12869.12750789964
 20
8366.27906636454
 30
0.0
 11
12869.12750789964
 21
8544.247808772373
 31
0.0
  0
LINE
  5
15638
330
17754
100
AcDbEntity
  8
SUNPOU
100
AcDbLine
 10
12869.12750789964
 20
8041.279066364536
 30
0.0
 11
12869.12750789964
 21
8211.279066364536
 31
0.0
  0
LINE
  5
15639
330
17754
100
AcDbEntity
  8
SUNPOU
100
AcDbLine
 10
12869.12750789964
 20
8026.279066364535
 30
0.0
 11
12869.12750789964
 21
7936.279066364534
 31
0.0
  0
TEXT
  5
1563A
330
17754
100
AcDbEntity
  8
SUNPOU
100
AcDbText
 10
13034.12750789964
 20
7895.56478065025
 30
0.0
 40
90.0
  1
770
 50
90.0
 41
0.6666666666666666
  7
00
 72
     1
 11
12989.12750789964
 21
7981.279066364534
 31
0.0
100
AcDbText
 73
     2
  0
LINE
  5
1563B
330
17754
100
AcDbEntity
  8
SUNPOU
100
AcDbLine
 10
12846.09836071149
 20
7936.279066364534
 30
0.0
 11
12914.12750789963
 21
7936.279066364534
 31
0.0
  0
LINE
  5
1563C
330
17754
100
AcDbEntity
  8
SUNPOU
100
AcDbLine
 10
12846.09836071149
 20
8026.279066364535
 30
0.0
 11
12914.12750789963
 21
8026.279066364535
 31
0.0
  0
LINE
  5
1563D
330
17754
100
AcDbEntity
  8
SUNPOU
100
AcDbLine
 10
12869.12750789964
 20
8241.27906636454
 30
0.0
 11
12869.12750789964
 21
8351.279066364538
 31
0.0
  0
LINE
  5
1565F
330
17754
100
AcDbEntity
  8
SUNPOU
100
AcDbLine
 10
3569.127507899644
 20
5847.529066364536
 30
0.0
 11
3569.127507899644
 21
5858.779066364537
 31
0.0
  0
LINE
  5
15689
330
17754
100
AcDbEntity
  8
SUNPOU
100
AcDbLine
 10
4209.127507899643
 20
7111.279066364534
 30
0.0
 11
4119.127507899643
 21
7126.279066364535
 31
0.0
  0
LINE
  5
1568A
330
17754
100
AcDbEntity
  8
SUNPOU
100
AcDbLine
 10
4119.127507899643
 20
7126.279066364535
 30
0.0
 11
4209.127507899643
 21
7141.279066364536
 31
0.0
  0
SOLID
  5
1568B
330
17754
100
AcDbEntity
  8
SUNPOU
100
AcDbTrace
 10
4209.127507899643
 20
7111.279066364534
 30
0.0
 11
4209.127507899643
 21
7141.279066364536
 31
0.0
 12
4119.127507899643
 22
7126.279066364535
 32
0.0
 13
4119.127507899643
 23
7126.279066364535
 33
0.0
  0
LINE
  5
1568C
330
17754
100
AcDbEntity
  8
SUNPOU
100
AcDbLine
 10
4209.127507899643
 20
7141.279066364536
 30
0.0
 11
4209.127507899643
 21
7111.279066364534
 31
0.0
  0
LINE
  5
1568E
330
17754
100
AcDbEntity
  8
SUNPOU
100
AcDbLine
 10
3569.127507899644
 20
8137.529066364534
 30
0.0
 11
3569.127507899644
 21
8148.779066364538
 31
0.0
  0
LINE
  5
15690
330
17754
100
AcDbEntity
  8
SUNPOU
100
AcDbLine
 10
3569.127507899644
 20
7825.029066364534
 30
0.0
 11
3569.127507899644
 21
7813.779066364536
 31
0.0
  0
LINE
  5
15692
330
17754
100
AcDbEntity
  8
SUNPOU
100
AcDbLine
 10
3569.127507899644
 20
7847.529066364536
 30
0.0
 11
3569.127507899644
 21
7858.779066364538
 31
0.0
  0
LINE
  5
15694
330
17754
100
AcDbEntity
  8
SUNPOU
100
AcDbLine
 10
3569.127507899644
 20
8115.029066364535
 30
0.0
 11
3569.127507899644
 21
8103.779066364536
 31
0.0
  0
LINE
  5
15695
330
17754
100
AcDbEntity
  8
SUNPOU
100
AcDbLine
 10
4209.12750789964
 20
8851.279066364538
 30
0.0
 11
4119.12750789964
 21
8836.279066364538
 31
0.0
  0
LINE
  5
15696
330
17754
100
AcDbEntity
  8
SUNPOU
100
AcDbLine
 10
4119.12750789964
 20
8836.279066364538
 30
0.0
 11
4209.12750789964
 21
8821.279066364537
 31
0.0
  0
SOLID
  5
15697
330
17754
100
AcDbEntity
  8
SUNPOU
100
AcDbTrace
 10
4209.12750789964
 20
8851.279066364538
 30
0.0
 11
4209.12750789964
 21
8821.279066364537
 31
0.0
 12
4119.12750789964
 22
8836.279066364538
 32
0.0
 13
4119.12750789964
 23
8836.279066364538
 33
0.0
  0
LINE
  5
15698
330
17754
100
AcDbEntity
  8
SUNPOU
100
AcDbLine
 10
4209.12750789964
 20
8821.279066364537
 30
0.0
 11
4209.12750789964
 21
8851.279066364538
 31
0.0
  0
LINE
  5
1569A
330
17754
100
AcDbEntity
  8
SUNPOU
100
AcDbLine
 10
3569.127507899644
 20
10115.02906636454
 30
0.0
 11
3569.127507899644
 21
10103.77906636453
 31
0.0
  0
LINE
  5
156B2
330
17754
100
AcDbEntity
  8
SUNPOU
100
AcDbLine
 10
11630.37750789962
 20
6666.279066364538
 30
0.0
 11
11641.62750789963
 21
6666.279066364538
 31
0.0
  0
LINE
  5
156B4
330
17754
100
AcDbEntity
  8
SUNPOU
100
AcDbLine
 10
11630.37750789962
 20
6876.279066364536
 30
0.0
 11
11641.62750789963
 21
6876.279066364536
 31
0.0
  0
LINE
  5
156B6
330
17754
100
AcDbEntity
  8
SUNPOU
100
AcDbLine
 10
11790.37750789962
 20
6876.279066364536
 30
0.0
 11
11801.62750789963
 21
6876.279066364536
 31
0.0
  0
LINE
  5
156B8
330
17754
100
AcDbEntity
  8
SUNPOU
100
AcDbLine
 10
11767.87750789964
 20
6876.279066364536
 30
0.0
 11
11756.62750789963
 21
6876.279066364536
 31
0.0
  0
LINE
  5
156BA
330
17754
100
AcDbEntity
  8
SUNPOU
100
AcDbLine
 10
11109.12750789964
 20
7347.529066364536
 30
0.0
 11
11109.12750789964
 21
7358.779066364538
 31
0.0
  0
LINE
  5
156BC
330
17754
100
AcDbEntity
  8
SUNPOU
100
AcDbLine
 10
11319.12750789964
 20
7347.529066364536
 30
0.0
 11
11319.12750789964
 21
7358.779066364538
 31
0.0
  0
LINE
  5
156BE
330
17754
100
AcDbEntity
  8
SUNPOU
100
AcDbLine
 10
11319.12750789964
 20
8137.529066364534
 30
0.0
 11
11319.12750789964
 21
8148.779066364538
 31
0.0
  0
LINE
  5
156C0
330
17754
100
AcDbEntity
  8
SUNPOU
100
AcDbLine
 10
11319.12750789964
 20
7847.529066364536
 30
0.0
 11
11319.12750789964
 21
7858.779066364538
 31
0.0
  0
LINE
  5
156C2
330
17754
100
AcDbEntity
  8
SUNPOU
100
AcDbLine
 10
11319.12750789964
 20
7825.029066364534
 30
0.0
 11
11319.12750789964
 21
7813.779066364536
 31
0.0
  0
LINE
  5
156C4
330
17754
100
AcDbEntity
  8
SUNPOU
100
AcDbLine
 10
11319.12750789964
 20
8115.029066364535
 30
0.0
 11
11319.12750789964
 21
8103.779066364536
 31
0.0
  0
LINE
  5
156C6
330
17754
100
AcDbEntity
  8
SUNPOU
100
AcDbLine
 10
11109.12750789964
 20
8615.029066364538
 30
0.0
 11
11109.12750789964
 21
8603.779066364536
 31
0.0
  0
LINE
  5
156C8
330
17754
100
AcDbEntity
  8
SUNPOU
100
AcDbLine
 10
11319.12750789964
 20
8615.029066364538
 30
0.0
 11
11319.12750789964
 21
8603.779066364536
 31
0.0
  0
LINE
  5
156CA
330
17754
100
AcDbEntity
  8
SUNPOU
100
AcDbLine
 10
11930.37750789962
 20
7086.279066364537
 30
0.0
 11
11941.62750789963
 21
7086.279066364537
 31
0.0
  0
LINE
  5
156CC
330
17754
100
AcDbEntity
  8
SUNPOU
100
AcDbLine
 10
12107.87750789964
 20
7086.279066364537
 30
0.0
 11
12096.62750789963
 21
7086.279066364537
 31
0.0
  0
LINE
  5
156CE
330
17754
100
AcDbEntity
  8
SUNPOU
100
AcDbLine
 10
12270.37750789963
 20
6876.279066364536
 30
0.0
 11
12281.62750789963
 21
6876.279066364536
 31
0.0
  0
LINE
  5
156D0
330
17754
100
AcDbEntity
  8
SUNPOU
100
AcDbLine
 10
12247.87750789964
 20
6876.279066364536
 30
0.0
 11
12236.62750789964
 21
6876.279066364536
 31
0.0
  0
LINE
  5
156D2
330
17754
100
AcDbEntity
  8
SUNPOU
100
AcDbLine
 10
12407.87750789964
 20
6666.279066364538
 30
0.0
 11
12396.62750789964
 21
6666.279066364538
 31
0.0
  0
LINE
  5
156D4
330
17754
100
AcDbEntity
  8
SUNPOU
100
AcDbLine
 10
12407.87750789964
 20
6876.279066364536
 30
0.0
 11
12396.62750789964
 21
6876.279066364536
 31
0.0
  0
LINE
  5
156D6
330
17754
100
AcDbEntity
  8
SUNPOU
100
AcDbLine
 10
13079.12750789963
 20
7347.529066364536
 30
0.0
 11
13079.12750789963
 21
7358.779066364538
 31
0.0
  0
LINE
  5
156D8
330
17754
100
AcDbEntity
  8
SUNPOU
100
AcDbLine
 10
12869.12750789964
 20
7607.529066364536
 30
0.0
 11
12869.12750789964
 21
7618.779066364537
 31
0.0
  0
LINE
  5
156DA
330
17754
100
AcDbEntity
  8
SUNPOU
100
AcDbLine
 10
13079.12750789963
 20
7607.529066364536
 30
0.0
 11
13079.12750789963
 21
7618.779066364537
 31
0.0
  0
LINE
  5
156DC
330
17754
100
AcDbEntity
  8
SUNPOU
100
AcDbLine
 10
13079.12750789963
 20
7585.029066364538
 30
0.0
 11
13079.12750789963
 21
7573.779066364537
 31
0.0
  0
LINE
  5
156DE
330
17754
100
AcDbEntity
  8
SUNPOU
100
AcDbLine
 10
12869.12750789964
 20
7747.529066364538
 30
0.0
 11
12869.12750789964
 21
7758.779066364536
 31
0.0
  0
LINE
  5
156E0
330
17754
100
AcDbEntity
  8
SUNPOU
100
AcDbLine
 10
12869.12750789964
 20
7725.029066364538
 30
0.0
 11
12869.12750789964
 21
7713.779066364536
 31
0.0
  0
LINE
  5
156E2
330
17754
100
AcDbEntity
  8
SUNPOU
100
AcDbLine
 10
12869.12750789964
 20
7947.529066364538
 30
0.0
 11
12869.12750789964
 21
7958.779066364535
 31
0.0
  0
LINE
  5
156E4
330
17754
100
AcDbEntity
  8
SUNPOU
100
AcDbLine
 10
12869.12750789964
 20
7925.029066364537
 30
0.0
 11
12869.12750789964
 21
7913.779066364536
 31
0.0
  0
LINE
  5
156E6
330
17754
100
AcDbEntity
  8
SUNPOU
100
AcDbLine
 10
12869.12750789964
 20
8037.529066364539
 30
0.0
 11
12869.12750789964
 21
8048.779066364536
 31
0.0
  0
LINE
  5
156E8
330
17754
100
AcDbEntity
  8
SUNPOU
100
AcDbLine
 10
12869.12750789964
 20
8015.029066364538
 30
0.0
 11
12869.12750789964
 21
8003.779066364536
 31
0.0
  0
LINE
  5
156EA
330
17754
100
AcDbEntity
  8
SUNPOU
100
AcDbLine
 10
12869.12750789964
 20
8237.529066364535
 30
0.0
 11
12869.12750789964
 21
8248.779066364535
 31
0.0
  0
LINE
  5
156EC
330
17754
100
AcDbEntity
  8
SUNPOU
100
AcDbLine
 10
12869.12750789964
 20
8215.029066364534
 30
0.0
 11
12869.12750789964
 21
8203.779066364536
 31
0.0
  0
LINE
  5
156EE
330
17754
100
AcDbEntity
  8
SUNPOU
100
AcDbLine
 10
12869.12750789964
 20
8355.029066364537
 30
0.0
 11
12869.12750789964
 21
8343.779066364538
 31
0.0
  0
LINE
  5
156F0
330
17754
100
AcDbEntity
  8
SUNPOU
100
AcDbLine
 10
13079.12750789963
 20
8377.529066364537
 30
0.0
 11
13079.12750789963
 21
8388.779066364538
 31
0.0
  0
LINE
  5
156F2
330
17754
100
AcDbEntity
  8
SUNPOU
100
AcDbLine
 10
13079.12750789963
 20
8355.029066364537
 30
0.0
 11
13079.12750789963
 21
8343.779066364538
 31
0.0
  0
LINE
  5
156F4
330
17754
100
AcDbEntity
  8
SUNPOU
100
AcDbLine
 10
13079.12750789963
 20
8615.029066364538
 30
0.0
 11
13079.12750789963
 21
8603.779066364536
 31
0.0
  0
LINE
  5
15799
330
17754
100
AcDbEntity
  8
U7
100
AcDbLine
 10
2729.191924633934
 20
2894.685413258395
 30
0.0
 11
3831.666180891755
 21
2894.685413258397
 31
0.0
  0
LINE
  5
1579A
330
17754
100
AcDbEntity
  8
U7
100
AcDbLine
 10
2729.191924633934
 20
3054.685413258396
 30
0.0
 11
3831.66618089229
 21
3054.685413258396
 31
0.0
  0
LINE
  5
1579B
330
17754
100
AcDbEntity
  8
U7
100
AcDbLine
 10
2729.191924633934
 20
2414.685413258395
 30
0.0
 11
3831.666180892971
 21
2414.685413258399
 31
0.0
  0
LINE
  5
1579C
330
17754
100
AcDbEntity
  8
U7
100
AcDbLine
 10
2729.191924633934
 20
2574.685413258396
 30
0.0
 11
3831.666180892213
 21
2574.685413258398
 31
0.0
  0
LINE
  5
1579D
330
17754
100
AcDbEntity
  8
U7
100
AcDbLine
 10
2729.191924633934
 20
2734.685413258398
 30
0.0
 11
3831.666180892628
 21
2734.685413258398
 31
0.0
  0
LINE
  5
1579E
330
17754
100
AcDbEntity
  8
HIDE-S1
100
AcDbLine
 10
3896.429052763159
 20
2877.885413258399
 30
0.0
 11
2664.429052763158
 21
2877.885413258399
 31
0.0
  0
LINE
  5
1579F
330
17754
100
AcDbEntity
  8
U7
100
AcDbLine
 10
2361.191924633935
 20
2189.885413258395
 30
0.0
 11
4199.666095789149
 21
2189.885413258398
 31
0.0
  0
LINE
  5
157A0
330
17754
100
AcDbEntity
  8
U7
100
AcDbLine
 10
2729.191924633934
 20
2254.685413258394
 30
0.0
 11
3831.666180892366
 21
2254.685413258397
 31
0.0
  0
LINE
  5
157A1
330
17754
100
AcDbEntity
  8
KISO
100
AcDbLine
 10
2168.429052763158
 20
2109.885413258393
 30
0.0
 11
4392.429052763158
 21
2109.885413258398
 31
0.0
  0
LINE
  5
157A2
330
17754
100
AcDbEntity
  8
KISO
100
AcDbLine
 10
2168.429052763158
 20
1869.885413258395
 30
0.0
 11
4392.429052763158
 21
1869.885413258397
 31
0.0
  0
LINE
  5
157A3
330
17754
100
AcDbEntity
  8
KISO
100
AcDbLine
 10
2168.429052763158
 20
2029.885413258393
 30
0.0
 11
4392.429052763158
 21
2029.885413258397
 31
0.0
  0
LINE
  5
157A4
330
17754
100
AcDbEntity
  8
HATCH
100
AcDbLine
 10
3958.981779850356
 20
2877.885413258399
 30
0.0
 11
3190.981779850356
 21
2109.885413258395
 31
0.0
  0
LINE
  5
157A5
330
17754
100
AcDbEntity
  8
HATCH
100
AcDbLine
 10
3911.464204154606
 20
2877.885413258399
 30
0.0
 11
3143.464204154629
 21
2109.885413258395
 31
0.0
  0
LINE
  5
157A6
330
17754
100
AcDbEntity
  8
HATCH
100
AcDbLine
 10
3863.94662845889
 20
2877.885413258399
 30
0.0
 11
3095.946628458891
 21
2109.885413258395
 31
0.0
  0
LINE
  5
157A7
330
17754
100
AcDbEntity
  8
HATCH
100
AcDbLine
 10
2904.91147706742
 20
2877.885413258399
 30
0.0
 11
2248.429052763153
 21
2221.402988954126
 31
0.0
  0
LINE
  5
157A8
330
17754
100
AcDbEntity
  8
HATCH
100
AcDbLine
 10
2952.429052763164
 20
2877.885413258399
 30
0.0
 11
2248.429052763158
 21
2173.885413258389
 31
0.0
  0
LINE
  5
157A9
330
17754
100
AcDbEntity
  8
HATCH
100
AcDbLine
 10
2999.946628458896
 20
2877.885413258399
 30
0.0
 11
2248.429052763153
 21
2126.367837562655
 31
0.0
  0
LINE
  5
157AA
330
17754
100
AcDbEntity
  8
KISO
100
AcDbLine
 10
2248.429052763158
 20
2973.885413258394
 30
0.0
 11
2248.429052763158
 21
2109.885413258393
 31
0.0
  0
LINE
  5
157AD
330
17754
100
AcDbEntity
  8
HATCH
100
AcDbLine
 10
3479.464204154631
 20
2877.885413258399
 30
0.0
 11
2711.464204154629
 21
2109.885413258393
 31
0.0
  0
LINE
  5
157AF
330
17754
100
AcDbEntity
  8
HATCH
100
AcDbLine
 10
3431.946628458891
 20
2877.885413258399
 30
0.0
 11
2663.946628458897
 21
2109.885413258393
 31
0.0
  0
LINE
  5
157B0
330
17754
100
AcDbEntity
  8
HATCH
100
AcDbLine
 10
3384.429052763159
 20
2877.885413258399
 30
0.0
 11
2616.429052763153
 21
2109.885413258393
 31
0.0
  0
LINE
  5
157B1
330
17754
100
AcDbEntity
  8
U1
100
AcDbLine
 10
2729.191924633934
 20
3054.685413258396
 30
0.0
 11
2729.191924633934
 21
2247.485413258395
 31
0.0
  0
LINE
  5
157B2
330
17754
100
AcDbEntity
  8
U1
100
AcDbLine
 10
3280.429052763159
 20
3054.685413258396
 30
0.0
 11
3280.429052763166
 21
2247.485413258395
 31
0.0
  0
LINE
  5
157B7
330
17754
100
AcDbEntity
  8
KISO
100
AcDbLine
 10
2168.429052763158
 20
1869.885413258395
 30
0.0
 11
2168.429052763158
 21
2109.885413258393
 31
0.0
  0
CIRCLE
  5
157B9
330
17754
100
AcDbEntity
  8
U7
100
AcDbCircle
 10
2361.191924633935
 20
2200.285413258395
 30
0.0
 40
10.4
  0
CIRCLE
  5
157BA
330
17754
100
AcDbEntity
  8
U7
100
AcDbCircle
 10
2624.071924633935
 20
2200.285413258395
 30
0.0
 40
10.4
  0
LINE
  5
157BB
330
17754
100
AcDbEntity
  8
U1
100
AcDbLine
 10
2409.191924633935
 20
2226.685413258395
 30
0.0
 11
2708.391924633936
 21
2226.685413258395
 31
0.0
  0
CIRCLE
  5
157BC
330
17754
100
AcDbEntity
  8
U7
100
AcDbCircle
 10
2721.991924633936
 20
2414.685413258395
 30
0.0
 40
7.2
  0
CIRCLE
  5
157BD
330
17754
100
AcDbEntity
  8
U7
100
AcDbCircle
 10
2721.991924633936
 20
2254.685413258394
 30
0.0
 40
7.2
  0
ARC
  5
157BE
330
17754
100
AcDbEntity
  8
U1
100
AcDbCircle
 10
2708.391924633936
 20
2247.485413258395
 30
0.0
 40
20.8
100
AcDbArc
 50
270.0
 51
0.0
  0
CIRCLE
  5
157C2
330
17754
100
AcDbEntity
  8
U7
100
AcDbCircle
 10
2886.951924633939
 20
2200.285413258395
 30
0.0
 40
10.4
  0
CIRCLE
  5
157C3
330
17754
100
AcDbEntity
  8
U7
100
AcDbCircle
 10
3149.831924633938
 20
2200.285413258395
 30
0.0
 40
10.4
  0
CIRCLE
  5
157C4
330
17754
100
AcDbEntity
  8
U7
100
AcDbCircle
 10
3412.711924633937
 20
2200.285413258395
 30
0.0
 40
10.4
  0
LINE
  5
157C5
330
17754
100
AcDbEntity
  8
HATCH
100
AcDbLine
 10
2120.386010772775
 20
3117.885413258396
 30
0.0
 11
1976.386010772776
 21
2973.885413258394
 31
0.0
  0
LINE
  5
157C6
330
17754
100
AcDbEntity
  8
HATCH
100
AcDbLine
 10
2025.35085938131
 20
3117.885413258396
 30
0.0
 11
1881.350859381306
 21
2973.885413258395
 31
0.0
  0
LINE
  5
157C7
330
17754
100
AcDbEntity
  8
HATCH
100
AcDbLine
 10
2072.868435077031
 20
3117.885413258396
 30
0.0
 11
1928.868435077031
 21
2973.885413258395
 31
0.0
  0
LINE
  5
157C8
330
17754
100
AcDbEntity
  8
KISO
100
AcDbLine
 10
1720.886240370048
 20
2973.885413258394
 30
0.0
 11
2248.429052763158
 21
2973.885413258394
 31
0.0
  0
LINE
  5
157C9
330
17754
100
AcDbEntity
  8
KISO
100
AcDbLine
 10
1720.886240370048
 20
2877.885413258399
 30
0.0
 11
2248.429052763158
 21
2877.885413258394
 31
0.0
  0
LINE
  5
157CA
330
17754
100
AcDbEntity
  8
KISO
100
AcDbLine
 10
2977.911924633931
 20
3117.885413258396
 30
0.0
 11
1720.886240370048
 21
3117.885413258394
 31
0.0
  0
LINE
  5
157CD
330
17754
100
AcDbEntity
  8
HATCH
100
AcDbLine
 10
2803.472773955737
 20
3068.285413258398
 30
0.0
 11
2753.872773955739
 21
3117.885413258396
 31
0.0
  0
LINE
  5
157CE
330
17754
100
AcDbEntity
  8
HATCH
100
AcDbLine
 10
2504.868435077014
 20
3117.885413258396
 30
0.0
 11
2264.86843507702
 21
2877.885413258399
 31
0.0
  0
LINE
  5
157CF
330
17754
100
AcDbEntity
  8
HATCH
100
AcDbLine
 10
2599.903586468554
 20
3117.885413258396
 30
0.0
 11
2359.903586468543
 21
2877.885413258399
 31
0.0
  0
LINE
  5
157D0
330
17754
100
AcDbEntity
  8
HATCH
100
AcDbLine
 10
2552.386010772758
 20
3117.885413258396
 30
0.0
 11
2312.386010772757
 21
2877.885413258395
 31
0.0
  0
CIRCLE
  5
157D1
330
17754
100
AcDbEntity
  8
U7
100
AcDbCircle
 10
2721.991924633936
 20
3054.685413258396
 30
0.0
 40
7.2
  0
LINE
  5
157D2
330
17754
100
AcDbEntity
  8
KISO
100
AcDbLine
 10
2664.429052763158
 20
3117.885413258396
 30
0.0
 11
2664.429052763158
 21
2877.885413258399
 31
0.0
  0
LINE
  5
157D3
330
17754
100
AcDbEntity
  8
HATCH
100
AcDbLine
 10
2425.393901371688
 20
2877.885413258394
 30
0.0
 11
2248.429052763153
 21
2700.920564649861
 31
0.0
  0
LINE
  5
157D4
330
17754
100
AcDbEntity
  8
KISO
100
AcDbLine
 10
2664.429052763158
 20
2877.885413258399
 30
0.0
 11
2248.429052763158
 21
2877.885413258394
 31
0.0
  0
LINE
  5
157D5
330
17754
100
AcDbEntity
  8
HATCH
100
AcDbLine
 10
2520.429052763164
 20
2877.885413258395
 30
0.0
 11
2248.429052763158
 21
2605.885413258388
 31
0.0
  0
LINE
  5
157D6
330
17754
100
AcDbEntity
  8
HATCH
100
AcDbLine
 10
2472.911477067426
 20
2877.885413258395
 30
0.0
 11
2248.429052763153
 21
2653.402988954121
 31
0.0
  0
CIRCLE
  5
157D9
330
17754
100
AcDbEntity
  8
U7
100
AcDbCircle
 10
2721.991924633936
 20
2574.685413258398
 30
0.0
 40
7.2
  0
CIRCLE
  5
157DA
330
17754
100
AcDbEntity
  8
U7
100
AcDbCircle
 10
2721.991924633936
 20
2734.685413258398
 30
0.0
 40
7.2
  0
CIRCLE
  5
157DB
330
17754
100
AcDbEntity
  8
U7
100
AcDbCircle
 10
2721.991924633936
 20
2894.685413258395
 30
0.0
 40
7.2
  0
LINE
  5
157DC
330
17754
100
AcDbEntity
  8
HATCH
100
AcDbLine
 10
2755.955198260001
 20
3068.285413258398
 30
0.0
 11
2706.355198259995
 21
3117.885413258396
 31
0.0
  0
LINE
  5
157DD
330
17754
100
AcDbEntity
  8
KISO
100
AcDbLine
 10
3440.386180892383
 20
3089.085413258395
 30
0.0
 11
3287.666180892382
 21
2897.085413258397
 31
0.0
  0
LINE
  5
157DE
330
17754
100
AcDbEntity
  8
KISO
100
AcDbLine
 10
2977.911924633931
 20
3089.085413258395
 30
0.0
 11
2825.191924633934
 21
2897.085413258397
 31
0.0
  0
LINE
  5
157DF
330
17754
100
AcDbEntity
  8
KISO
100
AcDbLine
 10
3120.471924633941
 20
3089.085413258395
 30
0.0
 11
3273.191924633936
 21
2897.085413258397
 31
0.0
  0
LINE
  5
157E2
330
17754
100
AcDbEntity
  8
HASIRA
100
AcDbLine
 10
3440.386180892389
 20
2894.685413258397
 30
0.0
 11
3440.386180892389
 21
3406.742322023879
 31
0.0
  0
LINE
  5
157E4
330
17754
100
AcDbEntity
  8
KISO
100
AcDbLine
 10
3433.191924633936
 20
3117.885413258396
 30
0.0
 11
3120.471924633934
 21
3117.885413258396
 31
0.0
  0
LINE
  5
157E5
330
17754
100
AcDbEntity
  8
HATCH
100
AcDbLine
 10
2850.990349651471
 20
3068.285413258398
 30
0.0
 11
2801.390349651465
 21
3117.885413258396
 31
0.0
  0
LINE
  5
157E6
330
17754
100
AcDbEntity
  8
HATCH
100
AcDbLine
 10
3235.472773955722
 20
3068.285413258398
 30
0.0
 11
3185.872773955727
 21
3117.885413258396
 31
0.0
  0
LINE
  5
157E7
330
17754
100
AcDbEntity
  8
HATCH
100
AcDbLine
 10
3282.990349651479
 20
3068.285413258398
 30
0.0
 11
3233.390349651472
 21
3117.885413258396
 31
0.0
  0
LINE
  5
157E8
330
17754
100
AcDbEntity
  8
HATCH
100
AcDbLine
 10
3330.50792534721
 20
3068.285413258398
 30
0.0
 11
3280.907925347205
 21
3117.885413258396
 31
0.0
  0
LINE
  5
157EF
330
17754
100
AcDbEntity
  8
HATCH
100
AcDbLine
 10
4312.429052763166
 20
2846.850261866936
 30
0.0
 11
3575.464204154624
 21
2109.885413258398
 31
0.0
  0
LINE
  5
157F0
330
17754
100
AcDbEntity
  8
HATCH
100
AcDbLine
 10
4310.981779850362
 20
2797.885413258395
 30
0.0
 11
3622.981779850363
 21
2109.885413258398
 31
0.0
  0
LINE
  5
157F1
330
17754
100
AcDbEntity
  8
HATCH
100
AcDbLine
 10
4312.429052763166
 20
2751.815110475417
 30
0.0
 11
3670.499355546095
 21
2109.885413258398
 31
0.0
  0
LINE
  5
157F2
330
17754
100
AcDbEntity
  8
U1
100
AcDbLine
 10
3831.666180892382
 20
3054.685413258396
 30
0.0
 11
3831.666180892382
 21
2247.485413258395
 31
0.0
  0
LINE
  5
157F4
330
17754
100
AcDbEntity
  8
KISO
100
AcDbLine
 10
4312.429052763166
 20
2973.885413258394
 30
0.0
 11
4312.429052763166
 21
2109.885413258393
 31
0.0
  0
LINE
  5
157F5
330
17754
100
AcDbEntity
  8
HATCH
100
AcDbLine
 10
4356.80509583351
 20
2029.885413258395
 30
0.0
 11
4388.80509583351
 21
1974.459787416195
 31
0.0
  0
LINE
  5
157F6
330
17754
100
AcDbEntity
  8
HATCH
100
AcDbLine
 10
4328.429052763171
 20
1869.885413258397
 30
0.0
 11
4392.429052763158
 21
1980.736664942783
 31
0.0
  0
LINE
  5
157FA
330
17754
100
AcDbEntity
  8
U1
100
AcDbLine
 10
4151.666180892382
 20
2226.685413258395
 30
0.0
 11
3852.466180892383
 21
2226.685413258395
 31
0.0
  0
CIRCLE
  5
157FB
330
17754
100
AcDbEntity
  8
U7
100
AcDbCircle
 10
3675.591924633936
 20
2200.285413258395
 30
0.0
 40
10.4
  0
CIRCLE
  5
157FC
330
17754
100
AcDbEntity
  8
U7
100
AcDbCircle
 10
3938.47192463394
 20
2200.285413258395
 30
0.0
 40
10.4
  0
CIRCLE
  5
157FD
330
17754
100
AcDbEntity
  8
U7
100
AcDbCircle
 10
3838.866180892383
 20
2414.685413258395
 30
0.0
 40
7.2
  0
CIRCLE
  5
157FE
330
17754
100
AcDbEntity
  8
U7
100
AcDbCircle
 10
3838.866180892383
 20
2254.685413258394
 30
0.0
 40
7.2
  0
ARC
  5
157FF
330
17754
100
AcDbEntity
  8
U1
100
AcDbCircle
 10
3852.466180892383
 20
2247.485413258395
 30
0.0
 40
20.8
100
AcDbArc
 50
180.0
 51
270.0
  0
LINE
  5
15800
330
17754
100
AcDbEntity
  8
HATCH
100
AcDbLine
 10
4312.429052763166
 20
2367.332686171205
 30
0.0
 11
4054.981779850355
 21
2109.885413258398
 31
0.0
  0
LINE
  5
15801
330
17754
100
AcDbEntity
  8
HATCH
100
AcDbLine
 10
4312.429052763166
 20
2319.815110475466
 30
0.0
 11
4102.499355546095
 21
2109.885413258398
 31
0.0
  0
LINE
  5
15802
330
17754
100
AcDbEntity
  8
HATCH
100
AcDbLine
 10
4312.429052763166
 20
2272.297534779718
 30
0.0
 11
4150.016931241832
 21
2109.885413258398
 31
0.0
  0
CIRCLE
  5
15803
330
17754
100
AcDbEntity
  8
U7
100
AcDbCircle
 10
4199.666180892381
 20
2200.285413258395
 30
0.0
 40
10.4
  0
LINE
  5
15804
330
17754
100
AcDbEntity
  8
HATCH
100
AcDbLine
 10
4360.429052763171
 20
1925.311039100604
 30
0.0
 11
4392.429052763171
 21
1869.885413258397
 31
0.0
  0
LINE
  5
15805
330
17754
100
AcDbEntity
  8
KISO
100
AcDbLine
 10
4392.429052763158
 20
1869.885413258397
 30
0.0
 11
4392.429052763158
 21
2109.885413258398
 31
0.0
  0
LINE
  5
1580A
330
17754
100
AcDbEntity
  8
KISO
100
AcDbLine
 10
3582.946180892386
 20
3117.885413258396
 30
0.0
 11
4734.604572265885
 21
3117.885413258394
 31
0.0
  0
LINE
  5
1580B
330
17754
100
AcDbEntity
  8
KISO
100
AcDbLine
 10
4734.604572265886
 20
2877.885413258394
 30
0.0
 11
4312.429052763166
 21
2877.885413258394
 31
0.0
  0
LINE
  5
1580C
330
17754
100
AcDbEntity
  8
KISO
100
AcDbLine
 10
4734.604572265886
 20
2973.885413258394
 30
0.0
 11
4312.429052763166
 21
2973.885413258394
 31
0.0
  0
LINE
  5
1580E
330
17754
100
AcDbEntity
  8
HATCH
100
AcDbLine
 10
4201.783758434369
 20
3117.885413258396
 30
0.0
 11
3961.783758434363
 21
2877.885413258395
 31
0.0
  0
LINE
  5
1580F
330
17754
100
AcDbEntity
  8
HATCH
100
AcDbLine
 10
4296.818909825833
 20
3117.885413258396
 30
0.0
 11
4056.818909825834
 21
2877.885413258395
 31
0.0
  0
LINE
  5
15810
330
17754
100
AcDbEntity
  8
HATCH
100
AcDbLine
 10
4249.301334130087
 20
3117.885413258396
 30
0.0
 11
4009.301334130088
 21
2877.885413258395
 31
0.0
  0
CIRCLE
  5
15811
330
17754
100
AcDbEntity
  8
U7
100
AcDbCircle
 10
3838.866180892383
 20
3054.685413258396
 30
0.0
 40
7.2
  0
LINE
  5
15812
330
17754
100
AcDbEntity
  8
KISO
100
AcDbLine
 10
3582.946180892386
 20
3089.085413258395
 30
0.0
 11
3735.666180892382
 21
2897.085413258397
 31
0.0
  0
LINE
  5
15813
330
17754
100
AcDbEntity
  8
KISO
100
AcDbLine
 10
3896.429052763159
 20
3117.885413258396
 30
0.0
 11
3896.429052763159
 21
2877.885413258399
 31
0.0
  0
LINE
  5
15815
330
17754
100
AcDbEntity
  8
KISO
100
AcDbLine
 10
3896.429052763159
 20
2877.885413258399
 30
0.0
 11
4312.429052763166
 21
2877.885413258394
 31
0.0
  0
CIRCLE
  5
15816
330
17754
100
AcDbEntity
  8
U7
100
AcDbCircle
 10
3838.866180892383
 20
2574.685413258398
 30
0.0
 40
7.2
  0
CIRCLE
  5
15817
330
17754
100
AcDbEntity
  8
U7
100
AcDbCircle
 10
3838.866180892383
 20
2734.685413258398
 30
0.0
 40
7.2
  0
CIRCLE
  5
15818
330
17754
100
AcDbEntity
  8
U7
100
AcDbCircle
 10
3838.866180892383
 20
2894.685413258395
 30
0.0
 40
7.2
  0
LINE
  5
15819
330
17754
100
AcDbEntity
  8
HATCH
100
AcDbLine
 10
3810.025501042949
 20
3068.285413258398
 30
0.0
 11
3760.425501042943
 21
3117.885413258397
 31
0.0
  0
LINE
  5
1581A
330
17754
100
AcDbEntity
  8
HATCH
100
AcDbLine
 10
3762.50792534721
 20
3068.285413258398
 30
0.0
 11
3712.907925347205
 21
3117.885413258397
 31
0.0
  0
LINE
  5
1581B
330
17754
100
AcDbEntity
  8
HATCH
100
AcDbLine
 10
3714.99034965146
 20
3068.285413258398
 30
0.0
 11
3665.390349651467
 21
3117.885413258397
 31
0.0
  0
LINE
  5
1581C
330
17754
100
AcDbEntity
  8
HATCH
100
AcDbLine
 10
4728.818909825814
 20
3117.885413258396
 30
0.0
 11
4584.818909825814
 21
2973.885413258394
 31
0.0
  0
LINE
  5
1581D
330
17754
100
AcDbEntity
  8
HATCH
100
AcDbLine
 10
4681.301334130072
 20
3117.885413258396
 30
0.0
 11
4537.301334130076
 21
2973.885413258395
 31
0.0
  0
LINE
  5
1581E
330
17754
100
AcDbEntity
  8
HATCH
100
AcDbLine
 10
4734.604572265886
 20
3076.153500002671
 30
0.0
 11
4632.336485521606
 21
2973.885413258395
 31
0.0
  0
TEXT
  5
15A0E
330
17754
100
AcDbEntity
  8
HIKIDASHI
100
AcDbText
 10
1770.42596496575
 20
2627.515993242059
 30
0.0
 40
90.0
  1
6-D13
 41
0.6700000000000001
  7
00
100
AcDbText
  0
TEXT
  5
15A0F
330
17754
100
AcDbEntity
  8
HIKIDASHI
100
AcDbText
 10
1521.162011931966
 20
2627.515993242059
 30
0.0
 40
90.0
  1
主筋
  7
01
100
AcDbText
  0
LINE
  5
15A10
330
17754
100
AcDbEntity
  8
HIKIDASHI
100
AcDbLine
 10
1521.162011931966
 20
2582.51599324206
 30
0.0
 11
2119.067099341151
 21
2582.51599324206
 31
0.0
  0
LINE
  5
15A12
330
17754
100
AcDbEntity
  8
HIKIDASHI
100
AcDbLine
 10
1367.253829721248
 20
2177.621202421254
 30
0.0
 11
2124.975130930299
 21
2177.621202421254
 31
0.0
  0
TEXT
  5
15A13
330
17754
100
AcDbEntity
  8
HIKIDASHI
100
AcDbText
 10
1626.517782755036
 20
2222.621202421254
 30
0.0
 40
90.0
  1
9
 41
0.6700000000000001
  7
00
100
AcDbText
  0
TEXT
  5
15A14
330
17754
100
AcDbEntity
  8
HIKIDASHI
100
AcDbText
 10
1377.253829721247
 20
2222.621202421254
 30
0.0
 40
90.0
  1
帯筋
  7
01
100
AcDbText
  0
TEXT
  5
15A15
330
17754
100
AcDbEntity
  8
HIKIDASHI
100
AcDbText
 10
1815.932149789007
 20
2230.121202421254
 30
0.0
 40
75.0
  1
ア
  7
01
 72
     1
 11
1848.432149789007
 21
2267.621202421254
 31
0.0
100
AcDbText
 73
     2
  0
TEXT
  5
15A16
330
17754
100
AcDbEntity
  8
HIKIDASHI
100
AcDbText
 10
1704.306817219276
 20
2222.621202421254
 30
0.0
 40
90.0
  1
%%C
 41
0.6700000000000001
  7
00
100
AcDbText
  0
CIRCLE
  5
15A17
330
17754
100
AcDbEntity
  8
HIKIDASHI
100
AcDbCircle
 10
1848.432149789007
 20
2267.621202421254
 30
0.0
 40
60.0
  0
TEXT
  5
15A18
330
17754
100
AcDbEntity
  8
HIKIDASHI
100
AcDbText
 10
1925.416823446379
 20
2222.621202421254
 30
0.0
 40
90.0
  1
100
 41
0.6700000000000001
  7
00
100
AcDbText
  0
TEXT
  5
15A1A
330
17754
100
AcDbEntity
  8
HIKIDASHI
100
AcDbText
 10
5349.728067453241
 20
3556.260118325357
 30
0.0
 40
90.00009018009018
  1
（別途）
  7
01
100
AcDbText
  0
LINE
  5
15A1B
330
17754
100
AcDbEntity
  8
HIKIDASHI
100
AcDbLine
 10
3997.930010252171
 20
3511.260118325356
 30
0.0
 11
5742.157249407592
 21
3511.260118325356
 31
0.0
  0
TEXT
  5
15A1C
330
17754
100
AcDbEntity
  8
HIKIDASHI
100
AcDbText
 10
4032.207695200701
 20
3556.260118325357
 30
0.0
 40
90.00009018009018
  1
アンカーボルト
  7
01
100
AcDbText
  0
TEXT
  5
15A1D
330
17754
100
AcDbEntity
  8
HIKIDASHI
100
AcDbText
 10
5108.007913391737
 20
3556.051132125266
 30
0.0
 40
89.55223880597012
  1
400
 41
0.6700000000000001
  7
00
100
AcDbText
  0
TEXT
  5
15A1E
330
17754
100
AcDbEntity
  8
HIKIDASHI
100
AcDbText
 10
4792.544749806086
 20
3556.260118325357
 30
0.0
 40
89.55223880597012
  1
W ／
 41
0.6700000000000001
  7
00
100
AcDbText
  0
TEXT
  5
15A1F
330
17754
100
AcDbEntity
  8
HIKIDASHI
100
AcDbText
 10
4955.037597048232
 20
3555.663672933689
 30
0.0
 40
67.16417910447761
  1
2
 41
0.6700000000000001
  7
00
100
AcDbText
  0
TEXT
  5
15A20
330
17754
100
AcDbEntity
  8
HIKIDASHI
100
AcDbText
 10
4867.145560489309
 20
3582.689727964254
 30
0.0
 40
67.16417910447761
  1
1
 41
0.6700000000000001
  7
00
100
AcDbText
  0
TEXT
  5
15A21
330
17754
100
AcDbEntity
  8
HIKIDASHI
100
AcDbText
 10
5026.872534238606
 20
3567.454148176103
 30
0.0
 40
89.55223880597012
  1
x
 41
0.6700000000000001
  7
00
100
AcDbText
  0
LINE
  5
15A32
330
17754
100
AcDbEntity
  8
SUNPOU
100
AcDbLine
 10
1898.496684319278
 20
3207.885413258394
 30
0.0
 11
1950.458208546343
 21
3117.885413258394
 31
0.0
  0
LINE
  5
15A33
330
17754
100
AcDbEntity
  8
SUNPOU
100
AcDbLine
 10
2002.419732773411
 20
3207.885413258394
 30
0.0
 11
1898.496684319278
 21
3207.885413258394
 31
0.0
  0
LINE
  5
15A34
330
17754
100
AcDbEntity
  8
SUNPOU
100
AcDbLine
 10
1950.458208546343
 20
3117.885413258394
 30
0.0
 11
2002.419732773411
 21
3207.885413258394
 31
0.0
  0
TEXT
  5
15A35
330
17754
100
AcDbEntity
  8
SUNPOU
100
AcDbText
 10
1881.886779974915
 20
3252.885413258394
 30
0.0
 40
90.0
  1
F.L
 41
0.6666666666666666
  7
00
 72
     4
 11
1950.458208546343
 21
3297.885413258395
 31
0.0
100
AcDbText
  0
LINE
  5
15B24
330
17754
100
AcDbEntity
  8
HIKIDASHI
100
AcDbLine
 10
2946.306191125406
 20
886.596771046039
 30
0.0
 11
3873.809328772832
 21
886.596771046039
 31
0.0
  0
LINE
  5
15B25
330
17754
100
AcDbEntity
  8
HIKIDASHI
100
AcDbLine
 10
2946.306191125406
 20
926.5967710460389
 30
0.0
 11
3873.809328772832
 21
926.5967710460389
 31
0.0
  0
TEXT
  5
15B26
330
17754
100
AcDbEntity
  8
HIKIDASHI
100
AcDbText
 10
2986.306191125406
 20
986.596771046039
 30
0.0
 40
120.0
  1
A  ~  A'
 41
0.6700000000000001
  7
00
100
AcDbText
  0
TEXT
  5
15B27
330
17754
100
AcDbEntity
  8
HIKIDASHI
100
AcDbText
 10
3471.662563787486
 20
986.596771046039
 30
0.0
 40
120.0
  1
断  面
  7
01
100
AcDbText
  0
LINE
  5
17062
330
17754
100
AcDbEntity
  8
U7
100
AcDbLine
 10
6590.706062185525
 20
3019.333194070902
 30
0.0
 11
8409.906062185525
 21
3019.333194070902
 31
0.0
  0
LINE
  5
17063
330
17754
100
AcDbEntity
  8
1PL-M1
100
AcDbLine
 10
8652.306062185529
 20
2491.333194070902
 30
0.0
 11
6348.306062185526
 21
2491.333194070902
 31
0.0
  0
LINE
  5
17065
330
17754
100
AcDbEntity
  8
U7
100
AcDbLine
 10
6580.306062185525
 20
2755.333194070902
 30
0.0
 11
8420.306062185519
 21
2755.333194070902
 31
0.0
  0
LINE
  5
17066
330
17754
100
AcDbEntity
  8
U7
100
AcDbLine
 10
6580.306062185525
 20
2491.333194070902
 30
0.0
 11
8420.306062185519
 21
2491.333194070902
 31
0.0
  0
LINE
  5
17067
330
17754
100
AcDbEntity
  8
U7
100
AcDbLine
 10
8116.306062185525
 20
2491.333194070902
 30
0.0
 11
8116.306062185527
 21
2107.358500742754
 31
0.0
  0
LINE
  5
17068
330
17754
100
AcDbEntity
  8
U7
100
AcDbLine
 10
6884.306062185527
 20
2107.332999742968
 30
0.0
 11
6884.306062185527
 21
2491.333194070902
 31
0.0
  0
LINE
  5
17069
330
17754
100
AcDbEntity
  8
1PL-M1
100
AcDbLine
 10
7500.306062185527
 20
3251.333194070902
 30
0.0
 11
7500.306062185527
 21
1731.333194070899
 31
0.0
  0
LINE
  5
1706A
330
17754
100
AcDbEntity
  8
U7
100
AcDbLine
 10
8116.306062185527
 20
2107.358500742754
 30
0.0
 11
6884.306062185527
 21
2107.332999742968
 31
0.0
  0
LINE
  5
1706D
330
17754
100
AcDbEntity
  8
U7
100
AcDbLine
 10
6580.306062185525
 20
2491.333194070902
 30
0.0
 11
6580.306062185525
 21
3008.933194070902
 31
0.0
  0
ARC
  5
1706E
330
17754
100
AcDbEntity
  8
U7
100
AcDbCircle
 10
6590.706062185525
 20
3008.933194070902
 30
0.0
 40
10.4
100
AcDbArc
 50
90.0
 51
180.0
  0
LINE
  5
1706F
330
17754
100
AcDbEntity
  8
HIDE-M1
100
AcDbLine
 10
6889.106062185525
 20
2875.333194070897
 30
0.0
 11
8116.306062185525
 21
2875.333194070902
 31
0.0
  0
LINE
  5
17070
330
17754
100
AcDbEntity
  8
U7
100
AcDbLine
 10
6843.186062185525
 20
2491.333194070902
 30
0.0
 11
6843.186062185525
 21
3019.333194070902
 31
0.0
  0
LINE
  5
17071
330
17754
100
AcDbEntity
  8
U7
100
AcDbLine
 10
7106.066062185529
 20
2491.333194070902
 30
0.0
 11
7106.066062185522
 21
3019.333194070902
 31
0.0
  0
LINE
  5
17072
330
17754
100
AcDbEntity
  8
U7
100
AcDbLine
 10
7368.946062185521
 20
2491.333194070902
 30
0.0
 11
7368.946062185521
 21
3019.333194070902
 31
0.0
  0
LINE
  5
17073
330
17754
100
AcDbEntity
  8
HIDE-M1
100
AcDbLine
 10
6884.306062185527
 20
2491.333194070902
 30
0.0
 11
6884.306062185527
 21
2870.533194070898
 31
0.0
  0
LINE
  5
17074
330
17754
100
AcDbEntity
  8
HIDE-M1
100
AcDbLine
 10
6884.306062185527
 20
2491.333194070902
 30
0.0
 11
6884.306062185527
 21
2870.533194070898
 31
0.0
  0
ARC
  5
17075
330
17754
100
AcDbEntity
  8
HIDE-M1
100
AcDbCircle
 10
6889.106062185525
 20
2870.533194070898
 30
0.0
 40
4.799999999999999
100
AcDbArc
 50
90.0
 51
180.0
  0
ARC
  5
17076
330
17754
100
AcDbEntity
  8
HIDE-M1
100
AcDbCircle
 10
6889.106062185525
 20
2870.533194070898
 30
0.0
 40
4.799999999999999
100
AcDbArc
 50
90.0
 51
180.0
  0
LINE
  5
17077
330
17754
100
AcDbEntity
  8
U7
100
AcDbLine
 10
7631.82606218553
 20
2491.333194070902
 30
0.0
 11
7631.826062185526
 21
3019.333194070902
 31
0.0
  0
LINE
  5
17078
330
17754
100
AcDbEntity
  8
U7
100
AcDbLine
 10
7894.706062185526
 20
2491.333194070902
 30
0.0
 11
7894.706062185526
 21
3019.333194070902
 31
0.0
  0
LINE
  5
17079
330
17754
100
AcDbEntity
  8
U7
100
AcDbLine
 10
8157.586062185528
 20
2491.333194070902
 30
0.0
 11
8157.586062185524
 21
3019.333194070902
 31
0.0
  0
LINE
  5
1707A
330
17754
100
AcDbEntity
  8
HIDE-M1
100
AcDbLine
 10
8116.306062185525
 20
2491.333194070902
 30
0.0
 11
8116.306062185525
 21
2875.333194070902
 31
0.0
  0
LINE
  5
1707B
330
17754
100
AcDbEntity
  8
U7
100
AcDbLine
 10
8420.306062185526
 20
3008.933194070902
 30
0.0
 11
8420.306062185526
 21
2491.333194070902
 31
0.0
  0
ARC
  5
1707C
330
17754
100
AcDbEntity
  8
U7
100
AcDbCircle
 10
8409.906062185525
 20
3008.933194070902
 30
0.0
 40
10.4
100
AcDbArc
 50
0.0
 51
90.0
  0
LINE
  5
17081
330
17754
100
AcDbEntity
  8
SUNPOU
100
AcDbLine
 10
6580.306062185525
 20
3171.3331940709
 30
0.0
 11
6580.306062185525
 21
3447.711278313303
 31
0.0
  0
LINE
  5
17082
330
17754
100
AcDbEntity
  8
SUNPOU
100
AcDbLine
 10
8420.306062185526
 20
3171.3331940709
 30
0.0
 11
8420.306062185526
 21
3447.711278313303
 31
0.0
  0
LINE
  5
17083
330
17754
100
AcDbEntity
  8
SUNPOU
100
AcDbLine
 10
6600.306062185525
 20
3402.711278313303
 30
0.0
 11
8400.306062185526
 21
3402.711278313303
 31
0.0
  0
LINE
  5
17086
330
17754
100
AcDbEntity
  8
SUNPOU
100
AcDbLine
 10
6550.706062185525
 20
1963.333194070902
 30
0.0
 11
6010.044979629257
 21
1963.333194070902
 31
0.0
  0
LINE
  5
17087
330
17754
100
AcDbEntity
  8
SUNPOU
100
AcDbLine
 10
6550.706062185525
 20
3019.333194070902
 30
0.0
 11
6010.044979629257
 21
3019.333194070902
 31
0.0
  0
LINE
  5
17088
330
17754
100
AcDbEntity
  8
SUNPOU
100
AcDbLine
 10
6055.044979629257
 20
1983.333194070902
 30
0.0
 11
6055.044979629257
 21
2999.333194070903
 31
0.0
  0
TEXT
  5
1708B
330
17754
100
AcDbEntity
  8
SUNPOU
100
AcDbText
 10
7131.567751039828
 20
3447.711278313303
 30
0.0
 40
90.0
  1
ベース筋
  7
01
 72
     4
 11
7335.567751039828
 21
3492.711278313303
 31
0.0
100
AcDbText
  0
TEXT
  5
1708C
330
17754
100
AcDbEntity
  8
SUNPOU
100
AcDbText
 10
7586.370236222745
 20
3447.711278313303
 30
0.0
 40
90.0
  1
8-D13
 41
0.6666666666666666
  7
00
 72
     4
 11
7739.227379079889
 21
3492.711278313303
 31
0.0
100
AcDbText
  0
TEXT
  5
1708D
330
17754
100
AcDbEntity
  8
SUNPOU
100
AcDbText
 10
6010.044979629257
 20
2107.696818884276
 30
0.0
 40
90.0
  1
ベース筋
 50
90.0
  7
01
 72
     4
 11
5965.044979629257
 21
2311.696818884276
 31
0.0
100
AcDbText
  0
TEXT
  5
1708E
330
17754
100
AcDbEntity
  8
SUNPOU
100
AcDbText
 10
6010.044979629257
 20
2570.33185641974
 30
0.0
 40
90.0
  1
5-D13
 50
90.0
 41
0.6666666666666666
  7
00
 72
     4
 11
5965.044979629257
 21
2723.188999276882
 31
0.0
100
AcDbText
  0
LINE
  5
17154
330
17754
100
AcDbEntity
  8
HATCH
100
AcDbLine
 10
2764.825190896138
 20
2109.885413258393
 30
0.0
 11
2844.825190896139
 21
2029.885413258393
 31
0.0
  0
LINE
  5
17155
330
17754
100
AcDbEntity
  8
HATCH
100
AcDbLine
 10
2812.342766591877
 20
2109.885413258393
 30
0.0
 11
2892.342766591889
 21
2029.885413258393
 31
0.0
  0
LINE
  5
17156
330
17754
100
AcDbEntity
  8
HATCH
100
AcDbLine
 10
2859.860342287626
 20
2109.885413258397
 30
0.0
 11
2939.860342287639
 21
2029.885413258396
 31
0.0
  0
LINE
  5
17157
330
17754
100
AcDbEntity
  8
HATCH
100
AcDbLine
 10
3244.342766591865
 20
2109.885413258393
 30
0.0
 11
3324.342766591865
 21
2029.885413258393
 31
0.0
  0
LINE
  5
17158
330
17754
100
AcDbEntity
  8
HATCH
100
AcDbLine
 10
3291.860342287604
 20
2109.885413258393
 30
0.0
 11
3371.860342287615
 21
2029.885413258393
 31
0.0
  0
LINE
  5
17159
330
17754
100
AcDbEntity
  8
HATCH
100
AcDbLine
 10
3339.377917983354
 20
2109.885413258397
 30
0.0
 11
3419.377917983366
 21
2029.885413258396
 31
0.0
  0
LINE
  5
1715A
330
17754
100
AcDbEntity
  8
HATCH
100
AcDbLine
 10
2285.307615200411
 20
2109.885413258393
 30
0.0
 11
2365.307615200411
 21
2029.885413258393
 31
0.0
  0
LINE
  5
1715B
330
17754
100
AcDbEntity
  8
HATCH
100
AcDbLine
 10
2332.825190896149
 20
2109.885413258393
 30
0.0
 11
2412.825190896162
 21
2029.885413258393
 31
0.0
  0
LINE
  5
1715C
330
17754
100
AcDbEntity
  8
HATCH
100
AcDbLine
 10
2380.3427665919
 20
2109.885413258397
 30
0.0
 11
2460.342766591912
 21
2029.885413258396
 31
0.0
  0
LINE
  5
1715D
330
17754
100
AcDbEntity
  8
HATCH
100
AcDbLine
 10
3723.860342287592
 20
2109.885413258393
 30
0.0
 11
3803.860342287593
 21
2029.885413258393
 31
0.0
  0
LINE
  5
1715E
330
17754
100
AcDbEntity
  8
HATCH
100
AcDbLine
 10
3771.377917983331
 20
2109.885413258393
 30
0.0
 11
3851.377917983344
 21
2029.885413258393
 31
0.0
  0
LINE
  5
1715F
330
17754
100
AcDbEntity
  8
HATCH
100
AcDbLine
 10
3818.895493679081
 20
2109.885413258396
 30
0.0
 11
3898.895493679093
 21
2029.885413258396
 31
0.0
  0
LINE
  5
17160
330
17754
100
AcDbEntity
  8
HATCH
100
AcDbLine
 10
4203.37791798332
 20
2109.885413258393
 30
0.0
 11
4283.37791798332
 21
2029.885413258393
 31
0.0
  0
LINE
  5
17161
330
17754
100
AcDbEntity
  8
HATCH
100
AcDbLine
 10
4250.895493679058
 20
2109.885413258393
 30
0.0
 11
4330.89549367907
 21
2029.885413258393
 31
0.0
  0
LINE
  5
17162
330
17754
100
AcDbEntity
  8
HATCH
100
AcDbLine
 10
4298.413069374809
 20
2109.885413258396
 30
0.0
 11
4378.413069374818
 21
2029.885413258396
 31
0.0
  0
TEXT
  5
17226
330
17754
100
AcDbEntity
  8
FILENAME
100
AcDbText
 10
13663.90476190475
 20
174.0
 30
0.0
 40
100.0
  1
＜YOR-240B-SA-A_3_JIS_GL.DXF ＞
  7
FILENAME
 72
     2
 11
16382.0
 21
174.0
 31
0.0
100
AcDbText
  0
LINE
  5
17229
330
17754
100
AcDbEntity
  8
WAKUSEN-01
100
AcDbLine
 10
434.0000000000008
 20
413.9999999999997
 30
0.0
 11
16382.0
 21
413.9999999999997
 31
0.0
  0
LINE
  5
1722A
330
17754
100
AcDbEntity
  8
WAKUSEN-01
100
AcDbLine
 10
434.0000000000008
 20
11242.0
 30
0.0
 11
16382.0
 21
11242.0
 31
0.0
  0
LINE
  5
1722B
330
17754
100
AcDbEntity
  8
WAKUSEN-01
100
AcDbLine
 10
434.0000000000008
 20
413.9999999999997
 30
0.0
 11
434.0000000000008
 21
11242.0
 31
0.0
  0
LINE
  5
1722C
330
17754
100
AcDbEntity
  8
WAKUSEN-01
100
AcDbLine
 10
16382.0
 20
413.9999999999997
 30
0.0
 11
16382.0
 21
11242.0
 31
0.0
  0
LINE
  5
1722D
330
17754
100
AcDbEntity
  8
WAKUSEN-01
100
AcDbLine
 10
10280.0
 20
1242.0
 30
0.0
 11
16382.0
 21
1242.0
 31
0.0
  0
LINE
  5
1722E
330
17754
100
AcDbEntity
  8
WAKUSEN-02
100
AcDbLine
 10
10280.0
 20
827.9999999999997
 30
0.0
 11
13434.0
 21
827.9999999999997
 31
0.0
  0
TEXT
  5
1722F
330
17754
100
AcDbEntity
  8
WAKUMOJI-01
100
AcDbText
 10
10335.13012998137
 20
1062.951504669661
 30
0.0
 40
120.0
  1
名　称
  7
WAKUMOJI
100
AcDbText
  0
TEXT
  5
17230
330
17754
100
AcDbEntity
  8
WAKUMOJI-01
100
AcDbText
 10
10328.25274254596
 20
659.5644874899107
 30
0.0
 40
120.0
  1
機種名
  7
WAKUMOJI
100
AcDbText
  0
LINE
  5
17231
330
17754
100
AcDbEntity
  8
WAKUSEN-01
100
AcDbLine
 10
10280.0
 20
413.9999999999986
 30
0.0
 11
10280.0
 21
1242.0
 31
0.0
  0
LINE
  5
17232
330
17754
100
AcDbEntity
  8
WAKUSEN-02
100
AcDbLine
 10
13434.0
 20
413.9999999999963
 30
0.0
 11
13434.0
 21
1242.0
 31
0.0
  0
LINE
  5
17233
330
17754
100
AcDbEntity
  8
YODOROGO
100
AcDbLine
 10
14988.80217064596
 20
997.8747482146435
 30
0.0
 11
14914.80217064596
 21
997.8747482146435
 31
0.0
1001
AUTOCAD_POSTSCRIPT_FIGURE
1002
{
1000
PSFILL
1000
Grayscale
1000
Grayscale
1070
    25
1002
}
  0
LINE
  5
17234
330
17754
100
AcDbEntity
  8
YODOROGO
100
AcDbLine
 10
14914.80217064596
 20
973.8747482146436
 30
0.0
 11
14988.80217064596
 21
973.8747482146436
 31
0.0
1001
AUTOCAD_POSTSCRIPT_FIGURE
1002
{
1000
PSFILL
1000
Grayscale
1000
Grayscale
1070
    25
1002
}
  0
LINE
  5
17235
330
17754
100
AcDbEntity
  8
YODOROGO
100
AcDbLine
 10
14988.80217064596
 20
953.874748214644
 30
0.0
 11
14914.80217064596
 21
953.874748214644
 31
0.0
1001
AUTOCAD_POSTSCRIPT_FIGURE
1002
{
1000
PSFILL
1000
Grayscale
1000
Grayscale
1070
    25
1002
}
  0
LINE
  5
17236
330
17754
100
AcDbEntity
  8
YODOROGO
100
AcDbLine
 10
14914.80217064596
 20
929.874748214644
 30
0.0
 11
14988.80217064596
 21
929.874748214644
 31
0.0
1001
AUTOCAD_POSTSCRIPT_FIGURE
1002
{
1000
PSFILL
1000
Grayscale
1000
Grayscale
1070
    25
1002
}
  0
LINE
  5
17237
330
17754
100
AcDbEntity
  8
YODOROGO
100
AcDbLine
 10
14988.80217064596
 20
909.8747482146439
 30
0.0
 11
14914.80217064596
 21
909.8747482146439
 31
0.0
1001
AUTOCAD_POSTSCRIPT_FIGURE
1002
{
1000
PSFILL
1000
Grayscale
1000
Grayscale
1070
    25
1002
}
  0
LINE
  5
17238
330
17754
100
AcDbEntity
  8
YODOROGO
100
AcDbLine
 10
14960.80217064594
 20
853.8747482146439
 30
0.0
 11
14988.80217064596
 21
853.8747482146439
 31
0.0
1001
AUTOCAD_POSTSCRIPT_FIGURE
1002
{
1000
PSFILL
1000
Grayscale
1000
Grayscale
1070
    25
1002
}
  0
LINE
  5
17239
330
17754
100
AcDbEntity
  8
YODOROGO
100
AcDbLine
 10
14868.80217064596
 20
713.8747482146436
 30
0.0
 11
14968.80217064596
 21
740.6696674577553
 31
0.0
  0
LINE
  5
1723A
330
17754
100
AcDbEntity
  8
YODOROGO
100
AcDbLine
 10
14974.80217064595
 20
853.8747482146439
 30
0.0
 11
14942.80217064596
 21
853.8747482146439
 31
0.0
  0
ARC
  5
1723B
330
17754
100
AcDbEntity
  8
YODOROGO
100
AcDbCircle
 10
15127.17387491395
 20
903.9323046166312
 30
0.0
 40
190.9434321028236
100
AcDbArc
 50
213.9611167766784
 51
264.4787207431779
  0
ARC
  5
1723C
330
17754
100
AcDbEntity
  8
YODOROGO
100
AcDbCircle
 10
15127.17387491396
 20
903.9323046166513
 30
0.0
 40
190.9434321028408
100
AcDbArc
 50
208.141144204866
 51
212.9210361185995
  0
LINE
  5
1723D
330
17754
100
AcDbEntity
  8
YODOROGO
100
AcDbLine
 10
14885.70493649264
 20
778.403830673117
 30
0.0
 11
14966.89206625426
 21
800.1578565285436
 31
0.0
  0
LINE
  5
1723E
330
17754
100
AcDbEntity
  8
YODOROGO
100
AcDbLine
 10
14868.80217064596
 20
713.8747482146436
 30
0.0
 11
14968.80217064596
 21
740.6696674577553
 31
0.0
  0
LINE
  5
1723F
330
17754
100
AcDbEntity
  8
YODOROGO
100
AcDbLine
 10
14974.80217064595
 20
853.8747482146439
 30
0.0
 11
14942.80217064596
 21
853.8747482146439
 31
0.0
  0
ARC
  5
17240
330
17754
100
AcDbEntity
  8
YODOROGO
100
AcDbCircle
 10
15127.17387491395
 20
903.9323046166312
 30
0.0
 40
190.9434321028236
100
AcDbArc
 50
213.9611167766784
 51
264.4787207431779
  0
LINE
  5
17241
330
17754
100
AcDbEntity
  8
YODOROGO
100
AcDbLine
 10
14396.80217064594
 20
909.8747482146439
 30
0.0
 11
14216.80217064595
 21
909.8747482146439
 31
0.0
  0
LINE
  5
17242
330
17754
100
AcDbEntity
  8
YODOROGO
100
AcDbLine
 10
14256.80217064595
 20
713.8747482146436
 30
0.0
 11
14396.80217064594
 21
713.8747482146436
 31
0.0
  0
LINE
  5
17243
330
17754
100
AcDbEntity
  8
YODOROGO
100
AcDbLine
 10
14364.80217064596
 20
961.8747482146432
 30
0.0
 11
14248.80217064595
 21
961.8747482146432
 31
0.0
  0
LINE
  5
17244
330
17754
100
AcDbEntity
  8
YODOROGO
100
AcDbLine
 10
14292.80217064596
 20
1013.874748214644
 30
0.0
 11
14328.80217064596
 21
1013.874748214644
 31
0.0
  0
LINE
  5
17245
330
17754
100
AcDbEntity
  8
YODOROGO
100
AcDbLine
 10
14216.80217064595
 20
853.8747482146439
 30
0.0
 11
14216.80217064595
 21
753.8747482146439
 31
0.0
  0
LINE
  5
17246
330
17754
100
AcDbEntity
  8
YODOROGO
100
AcDbLine
 10
14248.80217064595
 20
781.8747482146434
 30
0.0
 11
14248.80217064595
 21
853.8747482146439
 31
0.0
  0
LINE
  5
17247
330
17754
100
AcDbEntity
  8
YODOROGO
100
AcDbLine
 10
14292.80217064596
 20
873.8747482146449
 30
0.0
 11
14292.80217064596
 21
773.8747482146439
 31
0.0
  0
LINE
  5
17248
330
17754
100
AcDbEntity
  8
YODOROGO
100
AcDbLine
 10
13928.80217064596
 20
841.8747482146445
 30
0.0
 11
13888.80217064596
 21
809.9862070222856
 31
0.0
  0
LINE
  5
17249
330
17754
100
AcDbEntity
  8
YODOROGO
100
AcDbLine
 10
13968.80217064596
 20
809.9862070222856
 30
0.0
 11
13928.80217064596
 21
841.8747482146445
 31
0.0
  0
LINE
  5
1724A
330
17754
100
AcDbEntity
  8
YODOROGO
100
AcDbLine
 10
13928.80217064596
 20
853.8747482146439
 30
0.0
 11
13968.80217064596
 21
821.986207022285
 31
0.0
  0
LINE
  5
1724B
330
17754
100
AcDbEntity
  8
YODOROGO
100
AcDbLine
 10
13888.80217064596
 20
821.986207022285
 30
0.0
 11
13928.80217064596
 21
853.8747482146439
 31
0.0
  0
LINE
  5
1724C
330
17754
100
AcDbEntity
  8
YODOROGO
100
AcDbLine
 10
14020.45660200845
 20
829.874748214644
 30
0.0
 11
14020.45660200845
 21
841.8747482146434
 31
0.0
  0
LINE
  5
1724D
330
17754
100
AcDbEntity
  8
YODOROGO
100
AcDbLine
 10
13988.80217064596
 20
841.8747482146434
 30
0.0
 11
13988.80217064596
 21
833.8747482146427
 31
0.0
  0
LINE
  5
1724E
330
17754
100
AcDbEntity
  8
YODOROGO
100
AcDbLine
 10
14049.06776011545
 20
853.8747482146439
 30
0.0
 11
14049.06776011545
 21
827.751818637328
 31
0.0
1001
AUTOCAD_POSTSCRIPT_FIGURE
1002
{
1000
PSFILL
1000
Grayscale
1000
Grayscale
1070
   100
1002
}
  0
LINE
  5
1724F
330
17754
100
AcDbEntity
  8
YODOROGO
100
AcDbLine
 10
14041.06776011546
 20
827.751818637328
 30
0.0
 11
14041.06776011546
 21
853.8747482146439
 31
0.0
1001
AUTOCAD_POSTSCRIPT_FIGURE
1002
{
1000
PSFILL
1000
Grayscale
1000
Grayscale
1070
   100
1002
}
  0
LINE
  5
17250
330
17754
100
AcDbEntity
  8
YODOROGO
100
AcDbLine
 10
13904.80217064596
 20
804.3859520216292
 30
0.0
 11
13904.80217064596
 21
816.3859520216298
 31
0.0
  0
LINE
  5
17251
330
17754
100
AcDbEntity
  8
YODOROGO
100
AcDbLine
 10
13952.80217064596
 20
804.3859520216292
 30
0.0
 11
13904.80217064596
 21
804.3859520216292
 31
0.0
  0
LINE
  5
17252
330
17754
100
AcDbEntity
  8
YODOROGO
100
AcDbLine
 10
13952.80217064596
 20
816.3859520216298
 30
0.0
 11
13952.80217064596
 21
804.3859520216292
 31
0.0
  0
LINE
  5
17253
330
17754
100
AcDbEntity
  8
YODOROGO
100
AcDbLine
 10
13904.80217064596
 20
816.3859520216298
 30
0.0
 11
13952.80217064596
 21
816.3859520216298
 31
0.0
  0
LINE
  5
17254
330
17754
100
AcDbEntity
  8
YODOROGO
100
AcDbLine
 10
13912.25479445787
 20
784.2514286852374
 30
0.0
 11
13892.80217064596
 21
737.8747482146437
 31
0.0
1001
AUTOCAD_POSTSCRIPT_FIGURE
1002
{
1000
PSFILL
1000
Grayscale
1000
Grayscale
1070
   100
1002
}
  0
LINE
  5
17255
330
17754
100
AcDbEntity
  8
YODOROGO
100
AcDbLine
 10
13888.80217064596
 20
784.2514286852374
 30
0.0
 11
13912.25479445787
 21
784.2514286852374
 31
0.0
1001
AUTOCAD_POSTSCRIPT_FIGURE
1002
{
1000
PSFILL
1000
Grayscale
1000
Grayscale
1070
   100
1002
}
  0
LINE
  5
17256
330
17754
100
AcDbEntity
  8
YODOROGO
100
AcDbLine
 10
13888.80217064596
 20
794.2514286852374
 30
0.0
 11
13888.80217064596
 21
784.2514286852374
 31
0.0
1001
AUTOCAD_POSTSCRIPT_FIGURE
1002
{
1000
PSFILL
1000
Grayscale
1000
Grayscale
1070
   100
1002
}
  0
LINE
  5
17257
330
17754
100
AcDbEntity
  8
YODOROGO
100
AcDbLine
 10
13968.80217064596
 20
794.2514286852374
 30
0.0
 11
13888.80217064596
 21
794.2514286852374
 31
0.0
1001
AUTOCAD_POSTSCRIPT_FIGURE
1002
{
1000
PSFILL
1000
Grayscale
1000
Grayscale
1070
   100
1002
}
  0
LINE
  5
17258
330
17754
100
AcDbEntity
  8
YODOROGO
100
AcDbLine
 10
13968.80217064596
 20
784.2514286852374
 30
0.0
 11
13968.80217064596
 21
794.2514286852374
 31
0.0
1001
AUTOCAD_POSTSCRIPT_FIGURE
1002
{
1000
PSFILL
1000
Grayscale
1000
Grayscale
1070
   100
1002
}
  0
LINE
  5
17259
330
17754
100
AcDbEntity
  8
YODOROGO
100
AcDbLine
 10
13922.25479445787
 20
784.2514286852374
 30
0.0
 11
13968.80217064596
 21
784.2514286852374
 31
0.0
1001
AUTOCAD_POSTSCRIPT_FIGURE
1002
{
1000
PSFILL
1000
Grayscale
1000
Grayscale
1070
   100
1002
}
  0
LINE
  5
1725A
330
17754
100
AcDbEntity
  8
YODOROGO
100
AcDbLine
 10
13907.77335914239
 20
747.8747482146435
 30
0.0
 11
13922.25479445787
 21
784.2514286852374
 31
0.0
1001
AUTOCAD_POSTSCRIPT_FIGURE
1002
{
1000
PSFILL
1000
Grayscale
1000
Grayscale
1070
   100
1002
}
  0
LINE
  5
1725B
330
17754
100
AcDbEntity
  8
YODOROGO
100
AcDbLine
 10
13951.02739540432
 20
747.8747482146435
 30
0.0
 11
13907.77335914239
 21
747.8747482146435
 31
0.0
1001
AUTOCAD_POSTSCRIPT_FIGURE
1002
{
1000
PSFILL
1000
Grayscale
1000
Grayscale
1070
   100
1002
}
  0
LINE
  5
1725C
330
17754
100
AcDbEntity
  8
YODOROGO
100
AcDbLine
 10
13942.53250239547
 20
768.1169053488464
 30
0.0
 11
13951.02739540432
 21
747.8747482146435
 31
0.0
1001
AUTOCAD_POSTSCRIPT_FIGURE
1002
{
1000
PSFILL
1000
Grayscale
1000
Grayscale
1070
   100
1002
}
  0
LINE
  5
1725D
330
17754
100
AcDbEntity
  8
YODOROGO
100
AcDbLine
 10
13950.53250239547
 20
768.1169053488464
 30
0.0
 11
13942.53250239547
 21
768.1169053488464
 31
0.0
1001
AUTOCAD_POSTSCRIPT_FIGURE
1002
{
1000
PSFILL
1000
Grayscale
1000
Grayscale
1070
   100
1002
}
  0
LINE
  5
1725E
330
17754
100
AcDbEntity
  8
YODOROGO
100
AcDbLine
 10
13964.80217064596
 20
737.8747482146437
 30
0.0
 11
13950.53250239547
 21
768.1169053488464
 31
0.0
1001
AUTOCAD_POSTSCRIPT_FIGURE
1002
{
1000
PSFILL
1000
Grayscale
1000
Grayscale
1070
   100
1002
}
  0
LINE
  5
1725F
330
17754
100
AcDbEntity
  8
YODOROGO
100
AcDbLine
 10
13892.80217064596
 20
737.8747482146437
 30
0.0
 11
13964.80217064596
 21
737.8747482146437
 31
0.0
1001
AUTOCAD_POSTSCRIPT_FIGURE
1002
{
1000
PSFILL
1000
Grayscale
1000
Grayscale
1070
   100
1002
}
  0
LINE
  5
17260
330
17754
100
AcDbEntity
  8
YODOROGO
100
AcDbLine
 10
13888.80217064596
 20
809.9862070222856
 30
0.0
 11
13888.80217064596
 21
821.986207022285
 31
0.0
  0
LINE
  5
17261
330
17754
100
AcDbEntity
  8
YODOROGO
100
AcDbLine
 10
13968.80217064596
 20
821.986207022285
 30
0.0
 11
13968.80217064596
 21
809.9862070222856
 31
0.0
  0
ARC
  5
17262
330
17754
100
AcDbEntity
  8
YODOROGO
100
AcDbCircle
 10
14112.97022107348
 20
800.438882662663
 30
0.0
 40
87.99999999999995
100
AcDbArc
 50
280.3644312771313
 51
3.541483659218056
  0
ARC
  5
17263
330
17754
100
AcDbEntity
  8
YODOROGO
100
AcDbCircle
 10
14117.87801537965
 20
816.7989034809522
 30
0.0
 40
55.99999999999916
100
AcDbArc
 50
281.2490582504155
 51
348.7509417495832
  0
LINE
  5
17264
330
17754
100
AcDbEntity
  8
YODOROGO
100
AcDbLine
 10
14128.80217064596
 20
761.8747482146434
 30
0.0
 11
14128.80217064596
 21
713.8747482146436
 31
0.0
  0
LINE
  5
17265
330
17754
100
AcDbEntity
  8
YODOROGO
100
AcDbLine
 10
14010.04445186844
 20
805.3252825309574
 30
0.0
 11
14020.45660200845
 21
829.874748214644
 31
0.0
  0
LINE
  5
17266
330
17754
100
AcDbEntity
  8
YODOROGO
100
AcDbLine
 10
14020.80217064596
 20
791.5602449742006
 30
0.0
 11
14010.04445186844
 21
805.3252825309574
 31
0.0
  0
LINE
  5
17267
330
17754
100
AcDbEntity
  8
YODOROGO
100
AcDbLine
 10
14020.80217064596
 20
781.5602449741995
 30
0.0
 11
14020.80217064596
 21
791.5602449742006
 31
0.0
  0
LINE
  5
17268
330
17754
100
AcDbEntity
  8
YODOROGO
100
AcDbLine
 10
14008.80217064596
 20
792.6185318747652
 30
0.0
 11
14020.80217064596
 21
781.5602449741995
 31
0.0
  0
LINE
  5
17269
330
17754
100
AcDbEntity
  8
YODOROGO
100
AcDbLine
 10
14008.80217064596
 20
737.8747482146437
 30
0.0
 11
14008.80217064596
 21
792.6185318747652
 31
0.0
  0
LINE
  5
1726A
330
17754
100
AcDbEntity
  8
YODOROGO
100
AcDbLine
 10
14000.80217064596
 20
737.8747482146437
 30
0.0
 11
14008.80217064596
 21
737.8747482146437
 31
0.0
  0
LINE
  5
1726B
330
17754
100
AcDbEntity
  8
YODOROGO
100
AcDbLine
 10
14000.80217064596
 20
790.0026748448738
 30
0.0
 11
14000.80217064596
 21
737.8747482146437
 31
0.0
  0
LINE
  5
1726C
330
17754
100
AcDbEntity
  8
YODOROGO
100
AcDbLine
 10
13988.80217064596
 20
766.3840395167142
 30
0.0
 11
14000.80217064596
 21
790.0026748448738
 31
0.0
  0
LINE
  5
1726D
330
17754
100
AcDbEntity
  8
YODOROGO
100
AcDbLine
 10
13988.80217064596
 20
778.3840395167149
 30
0.0
 11
13988.80217064596
 21
766.3840395167142
 31
0.0
  0
LINE
  5
1726E
330
17754
100
AcDbEntity
  8
YODOROGO
100
AcDbLine
 10
14012.91438714567
 20
833.8747482146427
 30
0.0
 11
13988.80217064596
 21
778.3840395167149
 31
0.0
  0
LINE
  5
1726F
330
17754
100
AcDbEntity
  8
YODOROGO
100
AcDbLine
 10
13988.80217064596
 20
833.8747482146427
 30
0.0
 11
14012.91438714567
 21
833.8747482146427
 31
0.0
  0
LINE
  5
17270
330
17754
100
AcDbEntity
  8
YODOROGO
100
AcDbLine
 10
14025.06776011545
 20
827.751818637328
 30
0.0
 11
14041.06776011546
 21
827.751818637328
 31
0.0
1001
AUTOCAD_POSTSCRIPT_FIGURE
1002
{
1000
PSFILL
1000
Grayscale
1000
Grayscale
1070
   100
1002
}
  0
LINE
  5
17271
330
17754
100
AcDbEntity
  8
YODOROGO
100
AcDbLine
 10
14025.06776011545
 20
815.7518186373286
 30
0.0
 11
14025.06776011545
 21
827.751818637328
 31
0.0
1001
AUTOCAD_POSTSCRIPT_FIGURE
1002
{
1000
PSFILL
1000
Grayscale
1000
Grayscale
1070
   100
1002
}
  0
LINE
  5
17272
330
17754
100
AcDbEntity
  8
YODOROGO
100
AcDbLine
 10
14041.06776011546
 20
815.7518186373286
 30
0.0
 11
14025.06776011545
 21
815.7518186373286
 31
0.0
1001
AUTOCAD_POSTSCRIPT_FIGURE
1002
{
1000
PSFILL
1000
Grayscale
1000
Grayscale
1070
   100
1002
}
  0
LINE
  5
17273
330
17754
100
AcDbEntity
  8
YODOROGO
100
AcDbLine
 10
14041.06776011546
 20
749.8747482146441
 30
0.0
 11
14041.06776011546
 21
815.7518186373286
 31
0.0
1001
AUTOCAD_POSTSCRIPT_FIGURE
1002
{
1000
PSFILL
1000
Grayscale
1000
Grayscale
1070
   100
1002
}
  0
LINE
  5
17274
330
17754
100
AcDbEntity
  8
YODOROGO
100
AcDbLine
 10
14025.06776011545
 20
749.8747482146441
 30
0.0
 11
14041.06776011546
 21
749.8747482146441
 31
0.0
1001
AUTOCAD_POSTSCRIPT_FIGURE
1002
{
1000
PSFILL
1000
Grayscale
1000
Grayscale
1070
   100
1002
}
  0
LINE
  5
17275
330
17754
100
AcDbEntity
  8
YODOROGO
100
AcDbLine
 10
14025.06776011545
 20
737.8747482146437
 30
0.0
 11
14025.06776011545
 21
749.8747482146441
 31
0.0
1001
AUTOCAD_POSTSCRIPT_FIGURE
1002
{
1000
PSFILL
1000
Grayscale
1000
Grayscale
1070
   100
1002
}
  0
LINE
  5
17276
330
17754
100
AcDbEntity
  8
YODOROGO
100
AcDbLine
 10
14068.80217064596
 20
737.8747482146437
 30
0.0
 11
14025.06776011545
 21
737.8747482146437
 31
0.0
1001
AUTOCAD_POSTSCRIPT_FIGURE
1002
{
1000
PSFILL
1000
Grayscale
1000
Grayscale
1070
   100
1002
}
  0
LINE
  5
17277
330
17754
100
AcDbEntity
  8
YODOROGO
100
AcDbLine
 10
14068.80217064596
 20
749.8747482146441
 30
0.0
 11
14068.80217064596
 21
737.8747482146437
 31
0.0
1001
AUTOCAD_POSTSCRIPT_FIGURE
1002
{
1000
PSFILL
1000
Grayscale
1000
Grayscale
1070
   100
1002
}
  0
LINE
  5
17278
330
17754
100
AcDbEntity
  8
YODOROGO
100
AcDbLine
 10
14049.06776011545
 20
749.8747482146441
 30
0.0
 11
14068.80217064596
 21
749.8747482146441
 31
0.0
1001
AUTOCAD_POSTSCRIPT_FIGURE
1002
{
1000
PSFILL
1000
Grayscale
1000
Grayscale
1070
   100
1002
}
  0
LINE
  5
17279
330
17754
100
AcDbEntity
  8
YODOROGO
100
AcDbLine
 10
14049.06776011545
 20
815.7518186373286
 30
0.0
 11
14049.06776011545
 21
749.8747482146441
 31
0.0
1001
AUTOCAD_POSTSCRIPT_FIGURE
1002
{
1000
PSFILL
1000
Grayscale
1000
Grayscale
1070
   100
1002
}
  0
LINE
  5
1727A
330
17754
100
AcDbEntity
  8
YODOROGO
100
AcDbLine
 10
14068.80217064596
 20
815.7518186373286
 30
0.0
 11
14049.06776011545
 21
815.7518186373286
 31
0.0
1001
AUTOCAD_POSTSCRIPT_FIGURE
1002
{
1000
PSFILL
1000
Grayscale
1000
Grayscale
1070
   100
1002
}
  0
LINE
  5
1727B
330
17754
100
AcDbEntity
  8
YODOROGO
100
AcDbLine
 10
14068.80217064596
 20
827.751818637328
 30
0.0
 11
14068.80217064596
 21
815.7518186373286
 31
0.0
1001
AUTOCAD_POSTSCRIPT_FIGURE
1002
{
1000
PSFILL
1000
Grayscale
1000
Grayscale
1070
   100
1002
}
  0
LINE
  5
1727C
330
17754
100
AcDbEntity
  8
YODOROGO
100
AcDbLine
 10
14049.06776011545
 20
827.751818637328
 30
0.0
 11
14068.80217064596
 21
827.751818637328
 31
0.0
1001
AUTOCAD_POSTSCRIPT_FIGURE
1002
{
1000
PSFILL
1000
Grayscale
1000
Grayscale
1070
   100
1002
}
  0
LINE
  5
1727D
330
17754
100
AcDbEntity
  8
YODOROGO
100
AcDbLine
 10
14200.80217064595
 20
833.8747482146439
 30
0.0
 11
14172.80217064596
 21
833.8747482146439
 31
0.0
  0
LINE
  5
1727E
330
17754
100
AcDbEntity
  8
YODOROGO
100
AcDbLine
 10
14200.80217064595
 20
805.8747482146443
 30
0.0
 11
14200.80217064595
 21
833.8747482146439
 31
0.0
  0
LINE
  5
1727F
330
17754
100
AcDbEntity
  8
YODOROGO
100
AcDbLine
 10
14172.80217064596
 20
833.8747482146439
 30
0.0
 11
14172.80217064596
 21
805.8747482146443
 31
0.0
  0
ARC
  5
17280
330
17754
100
AcDbEntity
  8
YODOROGO
100
AcDbCircle
 10
14256.80217064595
 20
753.8747482146439
 30
0.0
 40
40.0
100
AcDbArc
 50
180.0
 51
270.0
  0
ARC
  5
17281
330
17754
100
AcDbEntity
  8
YODOROGO
100
AcDbCircle
 10
14268.80217064595
 20
781.8747482146434
 30
0.0
 40
20.0
100
AcDbArc
 50
180.0
 51
270.0
  0
LINE
  5
17282
330
17754
100
AcDbEntity
  8
YODOROGO
100
AcDbLine
 10
14280.80217064596
 20
761.8747482146434
 30
0.0
 11
14268.80217064595
 21
761.8747482146434
 31
0.0
  0
ARC
  5
17283
330
17754
100
AcDbEntity
  8
YODOROGO
100
AcDbCircle
 10
14280.80217064596
 20
773.8747482146427
 30
0.0
 40
11.99999999999818
100
AcDbArc
 50
270.0
 51
0.0000000000054281
  0
LINE
  5
17284
330
17754
100
AcDbEntity
  8
YODOROGO
100
AcDbLine
 10
13900.80217064596
 20
945.3932903968532
 30
0.0
 11
13888.80217064596
 21
921.8883739758362
 31
0.0
1001
AUTOCAD_POSTSCRIPT_FIGURE
1002
{
1000
PSFILL
1000
Grayscale
1000
Grayscale
1070
   100
1002
}
  0
LINE
  5
17285
330
17754
100
AcDbEntity
  8
YODOROGO
100
AcDbLine
 10
13900.80217064596
 20
873.8747482146436
 30
0.0
 11
13900.80217064596
 21
945.3932903968532
 31
0.0
1001
AUTOCAD_POSTSCRIPT_FIGURE
1002
{
1000
PSFILL
1000
Grayscale
1000
Grayscale
1070
   100
1002
}
  0
LINE
  5
17286
330
17754
100
AcDbEntity
  8
YODOROGO
100
AcDbLine
 10
13908.80217064596
 20
873.8747482146436
 30
0.0
 11
13900.80217064596
 21
873.8747482146436
 31
0.0
1001
AUTOCAD_POSTSCRIPT_FIGURE
1002
{
1000
PSFILL
1000
Grayscale
1000
Grayscale
1070
   100
1002
}
  0
LINE
  5
17287
330
17754
100
AcDbEntity
  8
YODOROGO
100
AcDbLine
 10
13908.80217064596
 20
946.8856660426334
 30
0.0
 11
13908.80217064596
 21
873.8747482146436
 31
0.0
1001
AUTOCAD_POSTSCRIPT_FIGURE
1002
{
1000
PSFILL
1000
Grayscale
1000
Grayscale
1070
   100
1002
}
  0
LINE
  5
17288
330
17754
100
AcDbEntity
  8
YODOROGO
100
AcDbLine
 10
13920.80217064596
 20
933.8273791420684
 30
0.0
 11
13908.80217064596
 21
946.8856660426334
 31
0.0
1001
AUTOCAD_POSTSCRIPT_FIGURE
1002
{
1000
PSFILL
1000
Grayscale
1000
Grayscale
1070
   100
1002
}
  0
LINE
  5
17289
330
17754
100
AcDbEntity
  8
YODOROGO
100
AcDbLine
 10
13920.80217064596
 20
941.8273791420681
 30
0.0
 11
13920.80217064596
 21
933.8273791420684
 31
0.0
1001
AUTOCAD_POSTSCRIPT_FIGURE
1002
{
1000
PSFILL
1000
Grayscale
1000
Grayscale
1070
   100
1002
}
  0
LINE
  5
1728A
330
17754
100
AcDbEntity
  8
YODOROGO
100
AcDbLine
 10
13908.80217064596
 20
958.8856660426326
 30
0.0
 11
13920.80217064596
 21
941.8273791420681
 31
0.0
1001
AUTOCAD_POSTSCRIPT_FIGURE
1002
{
1000
PSFILL
1000
Grayscale
1000
Grayscale
1070
   100
1002
}
  0
LINE
  5
1728B
330
17754
100
AcDbEntity
  8
YODOROGO
100
AcDbLine
 10
13908.80217064596
 20
969.8747482146441
 30
0.0
 11
13908.80217064596
 21
958.8856660426326
 31
0.0
1001
AUTOCAD_POSTSCRIPT_FIGURE
1002
{
1000
PSFILL
1000
Grayscale
1000
Grayscale
1070
   100
1002
}
  0
LINE
  5
1728C
330
17754
100
AcDbEntity
  8
YODOROGO
100
AcDbLine
 10
13944.80217064596
 20
969.8747482146441
 30
0.0
 11
13908.80217064596
 21
969.8747482146441
 31
0.0
1001
AUTOCAD_POSTSCRIPT_FIGURE
1002
{
1000
PSFILL
1000
Grayscale
1000
Grayscale
1070
   100
1002
}
  0
LINE
  5
1728D
330
17754
100
AcDbEntity
  8
YODOROGO
100
AcDbLine
 10
13944.80217064596
 20
950.2841744681497
 30
0.0
 11
13944.80217064596
 21
969.8747482146441
 31
0.0
1001
AUTOCAD_POSTSCRIPT_FIGURE
1002
{
1000
PSFILL
1000
Grayscale
1000
Grayscale
1070
   100
1002
}
  0
LINE
  5
1728E
330
17754
100
AcDbEntity
  8
YODOROGO
100
AcDbLine
 10
13928.80217064596
 20
950.2841744681497
 30
0.0
 11
13944.80217064596
 21
950.2841744681497
 31
0.0
1001
AUTOCAD_POSTSCRIPT_FIGURE
1002
{
1000
PSFILL
1000
Grayscale
1000
Grayscale
1070
   100
1002
}
  0
LINE
  5
1728F
330
17754
100
AcDbEntity
  8
YODOROGO
100
AcDbLine
 10
13928.80217064596
 20
942.2841744681491
 30
0.0
 11
13928.80217064596
 21
950.2841744681497
 31
0.0
1001
AUTOCAD_POSTSCRIPT_FIGURE
1002
{
1000
PSFILL
1000
Grayscale
1000
Grayscale
1070
   100
1002
}
  0
LINE
  5
17290
330
17754
100
AcDbEntity
  8
YODOROGO
100
AcDbLine
 10
13944.80217064596
 20
942.2841744681491
 30
0.0
 11
13928.80217064596
 21
942.2841744681491
 31
0.0
1001
AUTOCAD_POSTSCRIPT_FIGURE
1002
{
1000
PSFILL
1000
Grayscale
1000
Grayscale
1070
   100
1002
}
  0
LINE
  5
17291
330
17754
100
AcDbEntity
  8
YODOROGO
100
AcDbLine
 10
13944.80217064596
 20
939.8095889822197
 30
0.0
 11
13944.80217064596
 21
942.2841744681491
 31
0.0
1001
AUTOCAD_POSTSCRIPT_FIGURE
1002
{
1000
PSFILL
1000
Grayscale
1000
Grayscale
1070
   100
1002
}
  0
LINE
  5
17292
330
17754
100
AcDbEntity
  8
YODOROGO
100
AcDbLine
 10
13924.80217064596
 20
906.4874905807087
 30
0.0
 11
13944.80217064596
 21
939.8095889822197
 31
0.0
1001
AUTOCAD_POSTSCRIPT_FIGURE
1002
{
1000
PSFILL
1000
Grayscale
1000
Grayscale
1070
   100
1002
}
  0
LINE
  5
17293
330
17754
100
AcDbEntity
  8
YODOROGO
100
AcDbLine
 10
13924.80217064596
 20
898.487490580708
 30
0.0
 11
13924.80217064596
 21
906.4874905807087
 31
0.0
1001
AUTOCAD_POSTSCRIPT_FIGURE
1002
{
1000
PSFILL
1000
Grayscale
1000
Grayscale
1070
   100
1002
}
  0
LINE
  5
17294
330
17754
100
AcDbEntity
  8
YODOROGO
100
AcDbLine
 10
13944.80217064596
 20
923.8095889822183
 30
0.0
 11
13924.80217064596
 21
898.487490580708
 31
0.0
1001
AUTOCAD_POSTSCRIPT_FIGURE
1002
{
1000
PSFILL
1000
Grayscale
1000
Grayscale
1070
   100
1002
}
  0
LINE
  5
17295
330
17754
100
AcDbEntity
  8
YODOROGO
100
AcDbLine
 10
13944.80217064596
 20
873.8747482146436
 30
0.0
 11
13944.80217064596
 21
923.8095889822183
 31
0.0
1001
AUTOCAD_POSTSCRIPT_FIGURE
1002
{
1000
PSFILL
1000
Grayscale
1000
Grayscale
1070
   100
1002
}
  0
LINE
  5
17296
330
17754
100
AcDbEntity
  8
YODOROGO
100
AcDbLine
 10
13952.80217064596
 20
873.8747482146436
 30
0.0
 11
13944.80217064596
 21
873.8747482146436
 31
0.0
1001
AUTOCAD_POSTSCRIPT_FIGURE
1002
{
1000
PSFILL
1000
Grayscale
1000
Grayscale
1070
   100
1002
}
  0
LINE
  5
17297
330
17754
100
AcDbEntity
  8
YODOROGO
100
AcDbLine
 10
13952.80217064596
 20
924.7045060794032
 30
0.0
 11
13952.80217064596
 21
873.8747482146436
 31
0.0
1001
AUTOCAD_POSTSCRIPT_FIGURE
1002
{
1000
PSFILL
1000
Grayscale
1000
Grayscale
1070
   100
1002
}
  0
LINE
  5
17298
330
17754
100
AcDbEntity
  8
YODOROGO
100
AcDbLine
 10
13968.80217064596
 20
898.487490580708
 30
0.0
 11
13952.80217064596
 21
924.7045060794032
 31
0.0
1001
AUTOCAD_POSTSCRIPT_FIGURE
1002
{
1000
PSFILL
1000
Grayscale
1000
Grayscale
1070
   100
1002
}
  0
LINE
  5
17299
330
17754
100
AcDbEntity
  8
YODOROGO
100
AcDbLine
 10
13968.80217064596
 20
906.4874905807087
 30
0.0
 11
13968.80217064596
 21
898.487490580708
 31
0.0
1001
AUTOCAD_POSTSCRIPT_FIGURE
1002
{
1000
PSFILL
1000
Grayscale
1000
Grayscale
1070
   100
1002
}
  0
LINE
  5
1729A
330
17754
100
AcDbEntity
  8
YODOROGO
100
AcDbLine
 10
13952.80217064596
 20
940.7045060794045
 30
0.0
 11
13968.80217064596
 21
906.4874905807087
 31
0.0
1001
AUTOCAD_POSTSCRIPT_FIGURE
1002
{
1000
PSFILL
1000
Grayscale
1000
Grayscale
1070
   100
1002
}
  0
LINE
  5
1729B
330
17754
100
AcDbEntity
  8
YODOROGO
100
AcDbLine
 10
13952.80217064596
 20
942.2841744681502
 30
0.0
 11
13952.80217064596
 21
940.7045060794045
 31
0.0
1001
AUTOCAD_POSTSCRIPT_FIGURE
1002
{
1000
PSFILL
1000
Grayscale
1000
Grayscale
1070
   100
1002
}
  0
LINE
  5
1729C
330
17754
100
AcDbEntity
  8
YODOROGO
100
AcDbLine
 10
13968.80217064596
 20
942.2841744681491
 30
0.0
 11
13952.80217064596
 21
942.2841744681502
 31
0.0
1001
AUTOCAD_POSTSCRIPT_FIGURE
1002
{
1000
PSFILL
1000
Grayscale
1000
Grayscale
1070
   100
1002
}
  0
LINE
  5
1729D
330
17754
100
AcDbEntity
  8
YODOROGO
100
AcDbLine
 10
13968.80217064596
 20
950.2841744681497
 30
0.0
 11
13968.80217064596
 21
942.2841744681491
 31
0.0
1001
AUTOCAD_POSTSCRIPT_FIGURE
1002
{
1000
PSFILL
1000
Grayscale
1000
Grayscale
1070
   100
1002
}
  0
LINE
  5
1729E
330
17754
100
AcDbEntity
  8
YODOROGO
100
AcDbLine
 10
13952.80217064596
 20
950.2841744681497
 30
0.0
 11
13968.80217064596
 21
950.2841744681497
 31
0.0
1001
AUTOCAD_POSTSCRIPT_FIGURE
1002
{
1000
PSFILL
1000
Grayscale
1000
Grayscale
1070
   100
1002
}
  0
LINE
  5
1729F
330
17754
100
AcDbEntity
  8
YODOROGO
100
AcDbLine
 10
13952.80217064596
 20
969.8747482146441
 30
0.0
 11
13952.80217064596
 21
950.2841744681497
 31
0.0
1001
AUTOCAD_POSTSCRIPT_FIGURE
1002
{
1000
PSFILL
1000
Grayscale
1000
Grayscale
1070
   100
1002
}
  0
LINE
  5
172A0
330
17754
100
AcDbEntity
  8
YODOROGO
100
AcDbLine
 10
13968.80217064596
 20
969.8747482146441
 30
0.0
 11
13952.80217064596
 21
969.8747482146441
 31
0.0
1001
AUTOCAD_POSTSCRIPT_FIGURE
1002
{
1000
PSFILL
1000
Grayscale
1000
Grayscale
1070
   100
1002
}
  0
LINE
  5
172A1
330
17754
100
AcDbEntity
  8
YODOROGO
100
AcDbLine
 10
13968.80217064596
 20
977.8747482146435
 30
0.0
 11
13968.80217064596
 21
969.8747482146441
 31
0.0
1001
AUTOCAD_POSTSCRIPT_FIGURE
1002
{
1000
PSFILL
1000
Grayscale
1000
Grayscale
1070
   100
1002
}
  0
LINE
  5
172A2
330
17754
100
AcDbEntity
  8
YODOROGO
100
AcDbLine
 10
13952.80217064596
 20
977.8747482146435
 30
0.0
 11
13968.80217064596
 21
977.8747482146435
 31
0.0
1001
AUTOCAD_POSTSCRIPT_FIGURE
1002
{
1000
PSFILL
1000
Grayscale
1000
Grayscale
1070
   100
1002
}
  0
LINE
  5
172A3
330
17754
100
AcDbEntity
  8
YODOROGO
100
AcDbLine
 10
13952.80217064596
 20
989.8747482146443
 30
0.0
 11
13952.80217064596
 21
977.8747482146435
 31
0.0
1001
AUTOCAD_POSTSCRIPT_FIGURE
1002
{
1000
PSFILL
1000
Grayscale
1000
Grayscale
1070
   100
1002
}
  0
LINE
  5
172A4
330
17754
100
AcDbEntity
  8
YODOROGO
100
AcDbLine
 10
13944.80217064596
 20
989.8747482146443
 30
0.0
 11
13952.80217064596
 21
989.8747482146443
 31
0.0
1001
AUTOCAD_POSTSCRIPT_FIGURE
1002
{
1000
PSFILL
1000
Grayscale
1000
Grayscale
1070
   100
1002
}
  0
LINE
  5
172A5
330
17754
100
AcDbEntity
  8
YODOROGO
100
AcDbLine
 10
13944.80217064596
 20
977.8747482146435
 30
0.0
 11
13944.80217064596
 21
989.8747482146443
 31
0.0
1001
AUTOCAD_POSTSCRIPT_FIGURE
1002
{
1000
PSFILL
1000
Grayscale
1000
Grayscale
1070
   100
1002
}
  0
LINE
  5
172A6
330
17754
100
AcDbEntity
  8
YODOROGO
100
AcDbLine
 10
13932.80217064596
 20
977.8747482146435
 30
0.0
 11
13944.80217064596
 21
977.8747482146435
 31
0.0
1001
AUTOCAD_POSTSCRIPT_FIGURE
1002
{
1000
PSFILL
1000
Grayscale
1000
Grayscale
1070
   100
1002
}
  0
LINE
  5
172A7
330
17754
100
AcDbEntity
  8
YODOROGO
100
AcDbLine
 10
13932.80217064596
 20
989.8747482146443
 30
0.0
 11
13932.80217064596
 21
977.8747482146435
 31
0.0
1001
AUTOCAD_POSTSCRIPT_FIGURE
1002
{
1000
PSFILL
1000
Grayscale
1000
Grayscale
1070
   100
1002
}
  0
LINE
  5
172A8
330
17754
100
AcDbEntity
  8
YODOROGO
100
AcDbLine
 10
13924.80217064596
 20
989.8747482146443
 30
0.0
 11
13932.80217064596
 21
989.8747482146443
 31
0.0
1001
AUTOCAD_POSTSCRIPT_FIGURE
1002
{
1000
PSFILL
1000
Grayscale
1000
Grayscale
1070
   100
1002
}
  0
LINE
  5
172A9
330
17754
100
AcDbEntity
  8
YODOROGO
100
AcDbLine
 10
13924.80217064596
 20
977.8747482146435
 30
0.0
 11
13924.80217064596
 21
989.8747482146443
 31
0.0
1001
AUTOCAD_POSTSCRIPT_FIGURE
1002
{
1000
PSFILL
1000
Grayscale
1000
Grayscale
1070
   100
1002
}
  0
LINE
  5
172AA
330
17754
100
AcDbEntity
  8
YODOROGO
100
AcDbLine
 10
13908.80217064596
 20
977.8747482146435
 30
0.0
 11
13924.80217064596
 21
977.8747482146435
 31
0.0
1001
AUTOCAD_POSTSCRIPT_FIGURE
1002
{
1000
PSFILL
1000
Grayscale
1000
Grayscale
1070
   100
1002
}
  0
LINE
  5
172AB
330
17754
100
AcDbEntity
  8
YODOROGO
100
AcDbLine
 10
13908.80217064596
 20
989.8747482146443
 30
0.0
 11
13908.80217064596
 21
977.8747482146435
 31
0.0
1001
AUTOCAD_POSTSCRIPT_FIGURE
1002
{
1000
PSFILL
1000
Grayscale
1000
Grayscale
1070
   100
1002
}
  0
LINE
  5
172AC
330
17754
100
AcDbEntity
  8
YODOROGO
100
AcDbLine
 10
13900.80217064596
 20
989.8747482146443
 30
0.0
 11
13908.80217064596
 21
989.8747482146443
 31
0.0
1001
AUTOCAD_POSTSCRIPT_FIGURE
1002
{
1000
PSFILL
1000
Grayscale
1000
Grayscale
1070
   100
1002
}
  0
LINE
  5
172AD
330
17754
100
AcDbEntity
  8
YODOROGO
100
AcDbLine
 10
13900.80217064596
 20
977.8747482146435
 30
0.0
 11
13900.80217064596
 21
989.8747482146443
 31
0.0
1001
AUTOCAD_POSTSCRIPT_FIGURE
1002
{
1000
PSFILL
1000
Grayscale
1000
Grayscale
1070
   100
1002
}
  0
LINE
  5
172AE
330
17754
100
AcDbEntity
  8
YODOROGO
100
AcDbLine
 10
13888.80217064596
 20
977.8747482146435
 30
0.0
 11
13900.80217064596
 21
977.8747482146435
 31
0.0
1001
AUTOCAD_POSTSCRIPT_FIGURE
1002
{
1000
PSFILL
1000
Grayscale
1000
Grayscale
1070
   100
1002
}
  0
LINE
  5
172AF
330
17754
100
AcDbEntity
  8
YODOROGO
100
AcDbLine
 10
13888.80217064596
 20
969.8747482146441
 30
0.0
 11
13888.80217064596
 21
977.8747482146435
 31
0.0
1001
AUTOCAD_POSTSCRIPT_FIGURE
1002
{
1000
PSFILL
1000
Grayscale
1000
Grayscale
1070
   100
1002
}
  0
LINE
  5
172B0
330
17754
100
AcDbEntity
  8
YODOROGO
100
AcDbLine
 10
13900.80217064596
 20
969.8747482146441
 30
0.0
 11
13888.80217064596
 21
969.8747482146441
 31
0.0
1001
AUTOCAD_POSTSCRIPT_FIGURE
1002
{
1000
PSFILL
1000
Grayscale
1000
Grayscale
1070
   100
1002
}
  0
LINE
  5
172B1
330
17754
100
AcDbEntity
  8
YODOROGO
100
AcDbLine
 10
13900.80217064596
 20
957.3932903968524
 30
0.0
 11
13900.80217064596
 21
969.8747482146441
 31
0.0
1001
AUTOCAD_POSTSCRIPT_FIGURE
1002
{
1000
PSFILL
1000
Grayscale
1000
Grayscale
1070
   100
1002
}
  0
LINE
  5
172B2
330
17754
100
AcDbEntity
  8
YODOROGO
100
AcDbLine
 10
13888.80217064596
 20
929.8883739758355
 30
0.0
 11
13900.80217064596
 21
957.3932903968524
 31
0.0
1001
AUTOCAD_POSTSCRIPT_FIGURE
1002
{
1000
PSFILL
1000
Grayscale
1000
Grayscale
1070
   100
1002
}
  0
LINE
  5
172B3
330
17754
100
AcDbEntity
  8
YODOROGO
100
AcDbLine
 10
13888.80217064596
 20
921.8883739758362
 30
0.0
 11
13888.80217064596
 21
929.8883739758355
 31
0.0
1001
AUTOCAD_POSTSCRIPT_FIGURE
1002
{
1000
PSFILL
1000
Grayscale
1000
Grayscale
1070
   100
1002
}
  0
LINE
  5
172B4
330
17754
100
AcDbEntity
  8
YODOROGO
100
AcDbLine
 10
14128.80217064596
 20
933.8747482146439
 30
0.0
 11
14200.80217064595
 21
912.4388128201532
 31
0.0
1001
AUTOCAD_POSTSCRIPT_FIGURE
1002
{
1000
PSFILL
1000
Grayscale
1000
Grayscale
1070
   100
1002
}
  0
LINE
  5
172B5
330
17754
100
AcDbEntity
  8
YODOROGO
100
AcDbLine
 10
14200.80217064595
 20
876.4388128201531
 30
0.0
 11
14128.80217064596
 21
897.8747482146435
 31
0.0
1001
AUTOCAD_POSTSCRIPT_FIGURE
1002
{
1000
PSFILL
1000
Grayscale
1000
Grayscale
1070
   100
1002
}
  0
LINE
  5
172B6
330
17754
100
AcDbEntity
  8
YODOROGO
100
AcDbLine
 10
14200.80217064595
 20
992.4388128201531
 30
0.0
 11
14128.80217064596
 21
1013.874748214644
 31
0.0
1001
AUTOCAD_POSTSCRIPT_FIGURE
1002
{
1000
PSFILL
1000
Grayscale
1000
Grayscale
1070
   100
1002
}
  0
LINE
  5
172B7
330
17754
100
AcDbEntity
  8
YODOROGO
100
AcDbLine
 10
14128.80217064596
 20
979.874748214644
 30
0.0
 11
14200.80217064595
 21
958.4388128201537
 31
0.0
1001
AUTOCAD_POSTSCRIPT_FIGURE
1002
{
1000
PSFILL
1000
Grayscale
1000
Grayscale
1070
   100
1002
}
  0
LINE
  5
172B8
330
17754
100
AcDbEntity
  8
YODOROGO
100
AcDbLine
 10
14128.80217064596
 20
897.8747482146435
 30
0.0
 11
14128.80217064596
 21
933.8747482146439
 31
0.0
1001
AUTOCAD_POSTSCRIPT_FIGURE
1002
{
1000
PSFILL
1000
Grayscale
1000
Grayscale
1070
   100
1002
}
  0
LINE
  5
172B9
330
17754
100
AcDbEntity
  8
YODOROGO
100
AcDbLine
 10
14128.80217064596
 20
1013.874748214644
 30
0.0
 11
14128.80217064596
 21
979.874748214644
 31
0.0
1001
AUTOCAD_POSTSCRIPT_FIGURE
1002
{
1000
PSFILL
1000
Grayscale
1000
Grayscale
1070
   100
1002
}
  0
LINE
  5
172BA
330
17754
100
AcDbEntity
  8
YODOROGO
100
AcDbLine
 10
14040.11816010337
 20
969.8747482146441
 30
0.0
 11
14064.80217064595
 21
873.8747482146436
 31
0.0
1001
AUTOCAD_POSTSCRIPT_FIGURE
1002
{
1000
PSFILL
1000
Grayscale
1000
Grayscale
1070
   100
1002
}
  0
LINE
  5
172BB
330
17754
100
AcDbEntity
  8
YODOROGO
100
AcDbLine
 10
13988.80217064596
 20
969.8747482146441
 30
0.0
 11
14040.11816010337
 21
969.8747482146441
 31
0.0
1001
AUTOCAD_POSTSCRIPT_FIGURE
1002
{
1000
PSFILL
1000
Grayscale
1000
Grayscale
1070
   100
1002
}
  0
LINE
  5
172BC
330
17754
100
AcDbEntity
  8
YODOROGO
100
AcDbLine
 10
13988.80217064596
 20
977.8747482146435
 30
0.0
 11
13988.80217064596
 21
969.8747482146441
 31
0.0
1001
AUTOCAD_POSTSCRIPT_FIGURE
1002
{
1000
PSFILL
1000
Grayscale
1000
Grayscale
1070
   100
1002
}
  0
LINE
  5
172BD
330
17754
100
AcDbEntity
  8
YODOROGO
100
AcDbLine
 10
14038.30343925995
 20
977.8747482146435
 30
0.0
 11
13988.80217064596
 21
977.8747482146435
 31
0.0
1001
AUTOCAD_POSTSCRIPT_FIGURE
1002
{
1000
PSFILL
1000
Grayscale
1000
Grayscale
1070
   100
1002
}
  0
LINE
  5
172BE
330
17754
100
AcDbEntity
  8
YODOROGO
100
AcDbLine
 10
14035.58135799485
 20
989.8747482146443
 30
0.0
 11
14038.30343925995
 21
977.8747482146435
 31
0.0
1001
AUTOCAD_POSTSCRIPT_FIGURE
1002
{
1000
PSFILL
1000
Grayscale
1000
Grayscale
1070
   100
1002
}
  0
LINE
  5
172BF
330
17754
100
AcDbEntity
  8
YODOROGO
100
AcDbLine
 10
14045.58135799485
 20
989.8747482146443
 30
0.0
 11
14035.58135799485
 21
989.8747482146443
 31
0.0
1001
AUTOCAD_POSTSCRIPT_FIGURE
1002
{
1000
PSFILL
1000
Grayscale
1000
Grayscale
1070
   100
1002
}
  0
LINE
  5
172C0
330
17754
100
AcDbEntity
  8
YODOROGO
100
AcDbLine
 10
14047.90343925997
 20
977.8747482146435
 30
0.0
 11
14045.58135799485
 21
989.8747482146443
 31
0.0
1001
AUTOCAD_POSTSCRIPT_FIGURE
1002
{
1000
PSFILL
1000
Grayscale
1000
Grayscale
1070
   100
1002
}
  0
LINE
  5
172C1
330
17754
100
AcDbEntity
  8
YODOROGO
100
AcDbLine
 10
14060.80217064596
 20
977.8747482146435
 30
0.0
 11
14047.90343925997
 21
977.8747482146435
 31
0.0
1001
AUTOCAD_POSTSCRIPT_FIGURE
1002
{
1000
PSFILL
1000
Grayscale
1000
Grayscale
1070
   100
1002
}
  0
LINE
  5
172C2
330
17754
100
AcDbEntity
  8
YODOROGO
100
AcDbLine
 10
14060.80217064596
 20
989.8747482146443
 30
0.0
 11
14060.80217064596
 21
977.8747482146435
 31
0.0
1001
AUTOCAD_POSTSCRIPT_FIGURE
1002
{
1000
PSFILL
1000
Grayscale
1000
Grayscale
1070
   100
1002
}
  0
LINE
  5
172C3
330
17754
100
AcDbEntity
  8
YODOROGO
100
AcDbLine
 10
14068.80217064596
 20
989.8747482146443
 30
0.0
 11
14060.80217064596
 21
989.8747482146443
 31
0.0
1001
AUTOCAD_POSTSCRIPT_FIGURE
1002
{
1000
PSFILL
1000
Grayscale
1000
Grayscale
1070
   100
1002
}
  0
LINE
  5
172C4
330
17754
100
AcDbEntity
  8
YODOROGO
100
AcDbLine
 10
14068.80217064596
 20
977.8747482146435
 30
0.0
 11
14068.80217064596
 21
989.8747482146443
 31
0.0
1001
AUTOCAD_POSTSCRIPT_FIGURE
1002
{
1000
PSFILL
1000
Grayscale
1000
Grayscale
1070
   100
1002
}
  0
LINE
  5
172C5
330
17754
100
AcDbEntity
  8
YODOROGO
100
AcDbLine
 10
14068.80217064596
 20
969.8747482146441
 30
0.0
 11
14068.80217064596
 21
977.8747482146435
 31
0.0
1001
AUTOCAD_POSTSCRIPT_FIGURE
1002
{
1000
PSFILL
1000
Grayscale
1000
Grayscale
1070
   100
1002
}
  0
LINE
  5
172C6
330
17754
100
AcDbEntity
  8
YODOROGO
100
AcDbLine
 10
14049.4514934367
 20
969.8747482146441
 30
0.0
 11
14068.80217064596
 21
969.8747482146441
 31
0.0
1001
AUTOCAD_POSTSCRIPT_FIGURE
1002
{
1000
PSFILL
1000
Grayscale
1000
Grayscale
1070
   100
1002
}
  0
LINE
  5
172C7
330
17754
100
AcDbEntity
  8
YODOROGO
100
AcDbLine
 10
14068.80217064596
 20
873.8747482146436
 30
0.0
 11
14049.4514934367
 21
969.8747482146441
 31
0.0
1001
AUTOCAD_POSTSCRIPT_FIGURE
1002
{
1000
PSFILL
1000
Grayscale
1000
Grayscale
1070
   100
1002
}
  0
LINE
  5
172C8
330
17754
100
AcDbEntity
  8
YODOROGO
100
AcDbLine
 10
14064.80217064595
 20
873.8747482146436
 30
0.0
 11
14068.80217064596
 21
873.8747482146436
 31
0.0
1001
AUTOCAD_POSTSCRIPT_FIGURE
1002
{
1000
PSFILL
1000
Grayscale
1000
Grayscale
1070
   100
1002
}
  0
LINE
  5
172C9
330
17754
100
AcDbEntity
  8
YODOROGO
100
AcDbLine
 10
14039.03460996689
 20
887.8703881493972
 30
0.0
 11
13988.80217064596
 21
873.8747482146436
 31
0.0
  0
LINE
  5
172CA
330
17754
100
AcDbEntity
  8
YODOROGO
100
AcDbLine
 10
14039.03460996689
 20
899.3344897645366
 30
0.0
 11
14039.03460996689
 21
887.8703881493972
 31
0.0
  0
LINE
  5
172CB
330
17754
100
AcDbEntity
  8
YODOROGO
100
AcDbLine
 10
14016.91839030643
 20
893.4084665668834
 30
0.0
 11
14039.03460996689
 21
899.3344897645366
 31
0.0
  0
LINE
  5
172CC
330
17754
100
AcDbEntity
  8
YODOROGO
100
AcDbLine
 10
14016.91839030643
 20
936.2841744681499
 30
0.0
 11
14016.91839030643
 21
893.4084665668834
 31
0.0
  0
LINE
  5
172CD
330
17754
100
AcDbEntity
  8
YODOROGO
100
AcDbLine
 10
14039.03460996689
 20
936.2841744681499
 30
0.0
 11
14016.91839030643
 21
936.2841744681499
 31
0.0
  0
LINE
  5
172CE
330
17754
100
AcDbEntity
  8
YODOROGO
100
AcDbLine
 10
14039.03460996689
 20
946.2841744681487
 30
0.0
 11
14039.03460996689
 21
936.2841744681499
 31
0.0
  0
LINE
  5
172CF
330
17754
100
AcDbEntity
  8
YODOROGO
100
AcDbLine
 10
13988.80217064596
 20
946.2841744681487
 30
0.0
 11
14039.03460996689
 21
946.2841744681487
 31
0.0
  0
LINE
  5
172D0
330
17754
100
AcDbEntity
  8
YODOROGO
100
AcDbLine
 10
13988.80217064596
 20
936.2841744681499
 30
0.0
 11
13988.80217064596
 21
946.2841744681487
 31
0.0
  0
LINE
  5
172D1
330
17754
100
AcDbEntity
  8
YODOROGO
100
AcDbLine
 10
14010.91839030643
 20
936.2841744681499
 30
0.0
 11
13988.80217064596
 21
936.2841744681499
 31
0.0
  0
LINE
  5
172D2
330
17754
100
AcDbEntity
  8
YODOROGO
100
AcDbLine
 10
14010.91839030643
 20
892.3366697971587
 30
0.0
 11
14010.91839030643
 21
936.2841744681499
 31
0.0
  0
LINE
  5
172D3
330
17754
100
AcDbEntity
  8
YODOROGO
100
AcDbLine
 10
13988.80217064596
 20
885.8747482146432
 30
0.0
 11
14010.91839030643
 21
892.3366697971587
 31
0.0
  0
LINE
  5
172D4
330
17754
100
AcDbEntity
  8
YODOROGO
100
AcDbLine
 10
13988.80217064596
 20
873.8747482146436
 30
0.0
 11
13988.80217064596
 21
885.8747482146432
 31
0.0
  0
LINE
  5
172D5
330
17754
100
AcDbEntity
  8
YODOROGO
100
AcDbLine
 10
14000.80217064596
 20
853.8747482146439
 30
0.0
 11
14000.80217064596
 21
841.8747482146434
 31
0.0
  0
LINE
  5
172D6
330
17754
100
AcDbEntity
  8
YODOROGO
100
AcDbLine
 10
14000.80217064596
 20
853.8747482146439
 30
0.0
 11
14000.80217064596
 21
853.8747482146439
 31
0.0
  0
LINE
  5
172D7
330
17754
100
AcDbEntity
  8
YODOROGO
100
AcDbLine
 10
14008.80217064596
 20
853.8747482146439
 30
0.0
 11
14000.80217064596
 21
853.8747482146439
 31
0.0
  0
LINE
  5
172D8
330
17754
100
AcDbEntity
  8
YODOROGO
100
AcDbLine
 10
14008.80217064596
 20
841.8747482146434
 30
0.0
 11
14008.80217064596
 21
853.8747482146439
 31
0.0
  0
LINE
  5
172D9
330
17754
100
AcDbEntity
  8
YODOROGO
100
AcDbLine
 10
14020.45660200845
 20
841.8747482146434
 30
0.0
 11
14008.80217064596
 21
841.8747482146434
 31
0.0
  0
LINE
  5
172DA
330
17754
100
AcDbEntity
  8
YODOROGO
100
AcDbLine
 10
14000.80217064596
 20
841.8747482146434
 30
0.0
 11
13988.80217064596
 21
841.8747482146434
 31
0.0
  0
LINE
  5
172DB
330
17754
100
AcDbEntity
  8
YODOROGO
100
AcDbLine
 10
14041.06776011546
 20
853.8747482146439
 30
0.0
 11
14049.06776011545
 21
853.8747482146439
 31
0.0
1001
AUTOCAD_POSTSCRIPT_FIGURE
1002
{
1000
PSFILL
1000
Grayscale
1000
Grayscale
1070
   100
1002
}
  0
LINE
  5
172DC
330
17754
100
AcDbEntity
  8
YODOROGO
100
AcDbLine
 10
14200.80217064595
 20
912.4388128201532
 30
0.0
 11
14200.80217064595
 21
876.4388128201531
 31
0.0
1001
AUTOCAD_POSTSCRIPT_FIGURE
1002
{
1000
PSFILL
1000
Grayscale
1000
Grayscale
1070
   100
1002
}
  0
LINE
  5
172DD
330
17754
100
AcDbEntity
  8
YODOROGO
100
AcDbLine
 10
14200.80217064595
 20
958.4388128201537
 30
0.0
 11
14200.80217064595
 21
992.4388128201531
 31
0.0
1001
AUTOCAD_POSTSCRIPT_FIGURE
1002
{
1000
PSFILL
1000
Grayscale
1000
Grayscale
1070
   100
1002
}
  0
LINE
  5
172DE
330
17754
100
AcDbEntity
  8
YODOROGO
100
AcDbLine
 10
14216.80217064595
 20
909.8747482146439
 30
0.0
 11
14216.80217064595
 21
873.8747482146449
 31
0.0
  0
LINE
  5
172DF
330
17754
100
AcDbEntity
  8
YODOROGO
100
AcDbLine
 10
14248.80217064595
 20
853.8747482146439
 30
0.0
 11
14216.80217064595
 21
853.8747482146439
 31
0.0
  0
LINE
  5
172E0
330
17754
100
AcDbEntity
  8
YODOROGO
100
AcDbLine
 10
14216.80217064595
 20
873.8747482146449
 30
0.0
 11
14292.80217064596
 21
873.8747482146449
 31
0.0
  0
LINE
  5
172E1
330
17754
100
AcDbEntity
  8
YODOROGO
100
AcDbLine
 10
14248.80217064595
 20
933.8747482146439
 30
0.0
 11
14216.80217064595
 21
933.8747482146439
 31
0.0
  0
LINE
  5
172E2
330
17754
100
AcDbEntity
  8
YODOROGO
100
AcDbLine
 10
14248.80217064595
 20
961.8747482146432
 30
0.0
 11
14248.80217064595
 21
933.8747482146439
 31
0.0
  0
LINE
  5
172E3
330
17754
100
AcDbEntity
  8
YODOROGO
100
AcDbLine
 10
14292.80217064596
 20
993.8747482146439
 30
0.0
 11
14292.80217064596
 21
1013.874748214644
 31
0.0
  0
LINE
  5
172E4
330
17754
100
AcDbEntity
  8
YODOROGO
100
AcDbLine
 10
14216.80217064595
 20
993.8747482146439
 30
0.0
 11
14292.80217064596
 21
993.8747482146439
 31
0.0
  0
LINE
  5
172E5
330
17754
100
AcDbEntity
  8
YODOROGO
100
AcDbLine
 10
14216.80217064595
 20
933.8747482146439
 30
0.0
 11
14216.80217064595
 21
993.8747482146439
 31
0.0
  0
LINE
  5
172E6
330
17754
100
AcDbEntity
  8
YODOROGO
100
AcDbLine
 10
14500.80217064595
 20
1013.874748214644
 30
0.0
 11
14500.80217064595
 21
809.8747482146441
 31
0.0
  0
LINE
  5
172E7
330
17754
100
AcDbEntity
  8
YODOROGO
100
AcDbLine
 10
14536.80217064596
 20
789.8747482146441
 30
0.0
 11
14536.80217064596
 21
1013.874748214644
 31
0.0
  0
LINE
  5
172E8
330
17754
100
AcDbEntity
  8
YODOROGO
100
AcDbLine
 10
14630.80217064596
 20
745.8747482146431
 30
0.0
 11
14630.80217064596
 21
1003.874748214644
 31
0.0
  0
LINE
  5
172E9
330
17754
100
AcDbEntity
  8
YODOROGO
100
AcDbLine
 10
14598.80217064596
 20
1003.874748214644
 30
0.0
 11
14598.80217064596
 21
745.8747482146431
 31
0.0
  0
LINE
  5
172EA
330
17754
100
AcDbEntity
  8
YODOROGO
100
AcDbLine
 10
14692.80217064596
 20
1013.874748214644
 30
0.0
 11
14692.80217064596
 21
713.8747482146436
 31
0.0
  0
LINE
  5
172EB
330
17754
100
AcDbEntity
  8
YODOROGO
100
AcDbLine
 10
14728.80217064596
 20
713.8747482146436
 30
0.0
 11
14728.80217064596
 21
1013.874748214644
 31
0.0
  0
LINE
  5
172EC
330
17754
100
AcDbEntity
  8
YODOROGO
100
AcDbLine
 10
14328.80217064595
 20
833.8747482146439
 30
0.0
 11
14328.80217064595
 21
873.8747482146449
 31
0.0
  0
LINE
  5
172ED
330
17754
100
AcDbEntity
  8
YODOROGO
100
AcDbLine
 10
14942.80217064596
 20
853.8747482146439
 30
0.0
 11
14942.80217064596
 21
833.8747482146439
 31
0.0
  0
LINE
  5
172EE
330
17754
100
AcDbEntity
  8
YODOROGO
100
AcDbLine
 10
14942.80217064596
 20
853.8747482146439
 30
0.0
 11
14942.80217064596
 21
833.8747482146439
 31
0.0
  0
ARC
  5
172EF
330
17754
100
AcDbEntity
  8
YODOROGO
100
AcDbCircle
 10
14453.45578809341
 20
809.1089322211365
 30
0.0
 40
47.35257558937083
100
AcDbArc
 50
274.052441629071
 51
0.9266642149310712
  0
ARC
  5
172F0
330
17754
100
AcDbEntity
  8
YODOROGO
100
AcDbCircle
 10
14454.59308535991
 20
796.30536430522
 30
0.0
 40
82.46021178042756
100
AcDbArc
 50
271.5351210653778
 51
355.5272775058505
  0
LINE
  5
172F1
330
17754
100
AcDbEntity
  8
YODOROGO
100
AcDbLine
 10
14456.80217064596
 20
761.8747482146434
 30
0.0
 11
14456.80217064596
 21
713.8747482146436
 31
0.0
  0
LINE
  5
172F2
330
17754
100
AcDbEntity
  8
YODOROGO
100
AcDbLine
 10
14396.80217064594
 20
833.8747482146439
 30
0.0
 11
14328.80217064595
 21
833.8747482146439
 31
0.0
  0
LINE
  5
172F3
330
17754
100
AcDbEntity
  8
YODOROGO
100
AcDbLine
 10
14396.80217064594
 20
801.8747482146446
 30
0.0
 11
14396.80217064594
 21
833.8747482146439
 31
0.0
  0
LINE
  5
172F4
330
17754
100
AcDbEntity
  8
YODOROGO
100
AcDbLine
 10
14328.80217064595
 20
801.8747482146446
 30
0.0
 11
14396.80217064594
 21
801.8747482146446
 31
0.0
  0
LINE
  5
172F5
330
17754
100
AcDbEntity
  8
YODOROGO
100
AcDbLine
 10
14328.80217064595
 20
761.8747482146434
 30
0.0
 11
14328.80217064595
 21
801.8747482146446
 31
0.0
  0
LINE
  5
172F6
330
17754
100
AcDbEntity
  8
YODOROGO
100
AcDbLine
 10
14396.80217064594
 20
761.8747482146434
 30
0.0
 11
14328.80217064595
 21
761.8747482146434
 31
0.0
  0
LINE
  5
172F7
330
17754
100
AcDbEntity
  8
YODOROGO
100
AcDbLine
 10
14396.80217064594
 20
713.8747482146436
 30
0.0
 11
14396.80217064594
 21
761.8747482146434
 31
0.0
  0
LINE
  5
172F8
330
17754
100
AcDbEntity
  8
YODOROGO
100
AcDbLine
 10
14598.80217064596
 20
745.8747482146431
 30
0.0
 11
14630.80217064596
 21
745.8747482146431
 31
0.0
  0
LINE
  5
172F9
330
17754
100
AcDbEntity
  8
YODOROGO
100
AcDbLine
 10
14692.80217064596
 20
713.8747482146436
 30
0.0
 11
14728.80217064596
 21
713.8747482146436
 31
0.0
  0
LINE
  5
172FA
330
17754
100
AcDbEntity
  8
YODOROGO
100
AcDbLine
 10
14868.80217064596
 20
764.2207260852821
 30
0.0
 11
14868.80217064596
 21
713.8747482146436
 31
0.0
  0
LINE
  5
172FB
330
17754
100
AcDbEntity
  8
YODOROGO
100
AcDbLine
 10
14808.80217064596
 20
713.8747482146436
 30
0.0
 11
14868.80217064596
 21
764.2207260852821
 31
0.0
  0
LINE
  5
172FC
330
17754
100
AcDbEntity
  8
YODOROGO
100
AcDbLine
 10
14808.80217064596
 20
773.8747482146439
 30
0.0
 11
14808.80217064596
 21
713.8747482146436
 31
0.0
  0
LINE
  5
172FD
330
17754
100
AcDbEntity
  8
YODOROGO
100
AcDbLine
 10
14856.47231434973
 20
813.8747482146436
 30
0.0
 11
14808.80217064596
 21
773.8747482146439
 31
0.0
  0
LINE
  5
172FE
330
17754
100
AcDbEntity
  8
YODOROGO
100
AcDbLine
 10
14808.80217064596
 20
813.8747482146436
 30
0.0
 11
14856.47231434973
 21
813.8747482146436
 31
0.0
  0
LINE
  5
172FF
330
17754
100
AcDbEntity
  8
YODOROGO
100
AcDbLine
 10
14808.80217064596
 20
833.8747482146439
 30
0.0
 11
14808.80217064596
 21
813.8747482146436
 31
0.0
  0
LINE
  5
17300
330
17754
100
AcDbEntity
  8
YODOROGO
100
AcDbLine
 10
14942.80217064596
 20
833.8747482146439
 30
0.0
 11
14808.80217064596
 21
833.8747482146439
 31
0.0
  0
LINE
  5
17301
330
17754
100
AcDbEntity
  8
YODOROGO
100
AcDbLine
 10
14958.80217064596
 20
813.8747482146436
 30
0.0
 11
14888.80217064596
 21
813.8747482146436
 31
0.0
  0
LINE
  5
17302
330
17754
100
AcDbEntity
  8
YODOROGO
100
AcDbLine
 10
14888.80217064596
 20
781.0027187088283
 30
0.0
 11
14885.70493649264
 21
778.403830673117
 31
0.0
  0
LINE
  5
17303
330
17754
100
AcDbEntity
  8
YODOROGO
100
AcDbLine
 10
14888.80217064596
 20
813.8747482146436
 30
0.0
 11
14888.80217064596
 21
781.0027187088283
 31
0.0
  0
LINE
  5
17304
330
17754
100
AcDbEntity
  8
YODOROGO
100
AcDbLine
 10
14868.80217064596
 20
764.2207260852821
 30
0.0
 11
14868.80217064596
 21
713.8747482146436
 31
0.0
  0
LINE
  5
17305
330
17754
100
AcDbEntity
  8
YODOROGO
100
AcDbLine
 10
14808.80217064596
 20
713.8747482146436
 30
0.0
 11
14868.80217064596
 21
764.2207260852821
 31
0.0
  0
LINE
  5
17306
330
17754
100
AcDbEntity
  8
YODOROGO
100
AcDbLine
 10
14808.80217064596
 20
773.8747482146439
 30
0.0
 11
14808.80217064596
 21
713.8747482146436
 31
0.0
  0
LINE
  5
17307
330
17754
100
AcDbEntity
  8
YODOROGO
100
AcDbLine
 10
14856.47231434973
 20
813.8747482146436
 30
0.0
 11
14808.80217064596
 21
773.8747482146439
 31
0.0
  0
LINE
  5
17308
330
17754
100
AcDbEntity
  8
YODOROGO
100
AcDbLine
 10
14808.80217064596
 20
813.8747482146436
 30
0.0
 11
14856.47231434973
 21
813.8747482146436
 31
0.0
  0
LINE
  5
17309
330
17754
100
AcDbEntity
  8
YODOROGO
100
AcDbLine
 10
14808.80217064596
 20
833.8747482146439
 30
0.0
 11
14808.80217064596
 21
813.8747482146436
 31
0.0
  0
LINE
  5
1730A
330
17754
100
AcDbEntity
  8
YODOROGO
100
AcDbLine
 10
14942.80217064596
 20
833.8747482146439
 30
0.0
 11
14808.80217064596
 21
833.8747482146439
 31
0.0
  0
LINE
  5
1730B
330
17754
100
AcDbEntity
  8
YODOROGO
100
AcDbLine
 10
14396.80217064594
 20
873.8747482146449
 30
0.0
 11
14396.80217064594
 21
909.8747482146439
 31
0.0
  0
LINE
  5
1730C
330
17754
100
AcDbEntity
  8
YODOROGO
100
AcDbLine
 10
14328.80217064595
 20
873.8747482146449
 30
0.0
 11
14396.80217064594
 21
873.8747482146449
 31
0.0
  0
LINE
  5
1730D
330
17754
100
AcDbEntity
  8
YODOROGO
100
AcDbLine
 10
14364.80217064596
 20
933.8747482146439
 30
0.0
 11
14364.80217064596
 21
961.8747482146432
 31
0.0
  0
LINE
  5
1730E
330
17754
100
AcDbEntity
  8
YODOROGO
100
AcDbLine
 10
14396.80217064594
 20
933.8747482146439
 30
0.0
 11
14364.80217064596
 21
933.8747482146439
 31
0.0
  0
LINE
  5
1730F
330
17754
100
AcDbEntity
  8
YODOROGO
100
AcDbLine
 10
14396.80217064594
 20
973.8747482146436
 30
0.0
 11
14396.80217064594
 21
933.8747482146439
 31
0.0
  0
ARC
  5
17310
330
17754
100
AcDbEntity
  8
YODOROGO
100
AcDbCircle
 10
14376.80217064595
 20
973.8747482146436
 30
0.0
 40
20.0
100
AcDbArc
 50
0.0
 51
90.0
  0
LINE
  5
17311
330
17754
100
AcDbEntity
  8
YODOROGO
100
AcDbLine
 10
14328.80217064596
 20
993.8747482146439
 30
0.0
 11
14376.80217064595
 21
993.8747482146439
 31
0.0
  0
LINE
  5
17312
330
17754
100
AcDbEntity
  8
YODOROGO
100
AcDbLine
 10
14328.80217064596
 20
1013.874748214644
 30
0.0
 11
14328.80217064596
 21
993.8747482146439
 31
0.0
  0
LINE
  5
17313
330
17754
100
AcDbEntity
  8
YODOROGO
100
AcDbLine
 10
14536.80217064596
 20
1013.874748214644
 30
0.0
 11
14500.80217064595
 21
1013.874748214644
 31
0.0
  0
LINE
  5
17314
330
17754
100
AcDbEntity
  8
YODOROGO
100
AcDbLine
 10
14630.80217064596
 20
1003.874748214644
 30
0.0
 11
14598.80217064596
 21
1003.874748214644
 31
0.0
  0
LINE
  5
17315
330
17754
100
AcDbEntity
  8
YODOROGO
100
AcDbLine
 10
14728.80217064596
 20
1013.874748214644
 30
0.0
 11
14692.80217064596
 21
1013.874748214644
 31
0.0
  0
LINE
  5
17316
330
17754
100
AcDbEntity
  8
YODOROGO
100
AcDbLine
 10
14836.80217064596
 20
853.8747482146439
 30
0.0
 11
14836.80217064596
 21
885.8747482146442
 31
0.0
1001
AUTOCAD_POSTSCRIPT_FIGURE
1002
{
1000
PSFILL
1000
Grayscale
1000
Grayscale
1070
    25
1002
}
  0
LINE
  5
17317
330
17754
100
AcDbEntity
  8
YODOROGO
100
AcDbLine
 10
14808.80217064596
 20
853.8747482146439
 30
0.0
 11
14836.80217064596
 21
853.8747482146439
 31
0.0
1001
AUTOCAD_POSTSCRIPT_FIGURE
1002
{
1000
PSFILL
1000
Grayscale
1000
Grayscale
1070
    25
1002
}
  0
LINE
  5
17318
330
17754
100
AcDbEntity
  8
YODOROGO
100
AcDbLine
 10
14808.80217064596
 20
909.8747482146439
 30
0.0
 11
14808.80217064596
 21
853.8747482146439
 31
0.0
1001
AUTOCAD_POSTSCRIPT_FIGURE
1002
{
1000
PSFILL
1000
Grayscale
1000
Grayscale
1070
    25
1002
}
  0
LINE
  5
17319
330
17754
100
AcDbEntity
  8
YODOROGO
100
AcDbLine
 10
14882.80217064596
 20
909.8747482146439
 30
0.0
 11
14808.80217064596
 21
909.8747482146439
 31
0.0
1001
AUTOCAD_POSTSCRIPT_FIGURE
1002
{
1000
PSFILL
1000
Grayscale
1000
Grayscale
1070
    25
1002
}
  0
LINE
  5
1731A
330
17754
100
AcDbEntity
  8
YODOROGO
100
AcDbLine
 10
14882.80217064596
 20
929.874748214644
 30
0.0
 11
14882.80217064596
 21
909.8747482146439
 31
0.0
1001
AUTOCAD_POSTSCRIPT_FIGURE
1002
{
1000
PSFILL
1000
Grayscale
1000
Grayscale
1070
    25
1002
}
  0
LINE
  5
1731B
330
17754
100
AcDbEntity
  8
YODOROGO
100
AcDbLine
 10
14808.80217064596
 20
929.874748214644
 30
0.0
 11
14882.80217064596
 21
929.874748214644
 31
0.0
1001
AUTOCAD_POSTSCRIPT_FIGURE
1002
{
1000
PSFILL
1000
Grayscale
1000
Grayscale
1070
    25
1002
}
  0
LINE
  5
1731C
330
17754
100
AcDbEntity
  8
YODOROGO
100
AcDbLine
 10
14808.80217064596
 20
953.874748214644
 30
0.0
 11
14808.80217064596
 21
929.874748214644
 31
0.0
1001
AUTOCAD_POSTSCRIPT_FIGURE
1002
{
1000
PSFILL
1000
Grayscale
1000
Grayscale
1070
    25
1002
}
  0
LINE
  5
1731D
330
17754
100
AcDbEntity
  8
YODOROGO
100
AcDbLine
 10
14882.80217064596
 20
953.874748214644
 30
0.0
 11
14808.80217064596
 21
953.874748214644
 31
0.0
1001
AUTOCAD_POSTSCRIPT_FIGURE
1002
{
1000
PSFILL
1000
Grayscale
1000
Grayscale
1070
    25
1002
}
  0
LINE
  5
1731E
330
17754
100
AcDbEntity
  8
YODOROGO
100
AcDbLine
 10
14882.80217064596
 20
973.8747482146436
 30
0.0
 11
14882.80217064596
 21
953.874748214644
 31
0.0
1001
AUTOCAD_POSTSCRIPT_FIGURE
1002
{
1000
PSFILL
1000
Grayscale
1000
Grayscale
1070
    25
1002
}
  0
LINE
  5
1731F
330
17754
100
AcDbEntity
  8
YODOROGO
100
AcDbLine
 10
14808.80217064596
 20
973.8747482146436
 30
0.0
 11
14882.80217064596
 21
973.8747482146436
 31
0.0
1001
AUTOCAD_POSTSCRIPT_FIGURE
1002
{
1000
PSFILL
1000
Grayscale
1000
Grayscale
1070
    25
1002
}
  0
LINE
  5
17320
330
17754
100
AcDbEntity
  8
YODOROGO
100
AcDbLine
 10
14808.80217064596
 20
1013.874748214644
 30
0.0
 11
14808.80217064596
 21
973.8747482146436
 31
0.0
1001
AUTOCAD_POSTSCRIPT_FIGURE
1002
{
1000
PSFILL
1000
Grayscale
1000
Grayscale
1070
    25
1002
}
  0
LINE
  5
17321
330
17754
100
AcDbEntity
  8
YODOROGO
100
AcDbLine
 10
14832.80217064596
 20
1013.874748214644
 30
0.0
 11
14808.80217064596
 21
1013.874748214644
 31
0.0
1001
AUTOCAD_POSTSCRIPT_FIGURE
1002
{
1000
PSFILL
1000
Grayscale
1000
Grayscale
1070
    25
1002
}
  0
LINE
  5
17322
330
17754
100
AcDbEntity
  8
YODOROGO
100
AcDbLine
 10
14832.80217064596
 20
997.8747482146435
 30
0.0
 11
14832.80217064596
 21
1013.874748214644
 31
0.0
1001
AUTOCAD_POSTSCRIPT_FIGURE
1002
{
1000
PSFILL
1000
Grayscale
1000
Grayscale
1070
    25
1002
}
  0
LINE
  5
17323
330
17754
100
AcDbEntity
  8
YODOROGO
100
AcDbLine
 10
14882.80217064596
 20
997.8747482146435
 30
0.0
 11
14832.80217064596
 21
997.8747482146435
 31
0.0
1001
AUTOCAD_POSTSCRIPT_FIGURE
1002
{
1000
PSFILL
1000
Grayscale
1000
Grayscale
1070
    25
1002
}
  0
LINE
  5
17324
330
17754
100
AcDbEntity
  8
YODOROGO
100
AcDbLine
 10
14882.80217064596
 20
1013.874748214644
 30
0.0
 11
14882.80217064596
 21
997.8747482146435
 31
0.0
1001
AUTOCAD_POSTSCRIPT_FIGURE
1002
{
1000
PSFILL
1000
Grayscale
1000
Grayscale
1070
    25
1002
}
  0
LINE
  5
17325
330
17754
100
AcDbEntity
  8
YODOROGO
100
AcDbLine
 10
14914.80217064596
 20
1013.874748214644
 30
0.0
 11
14882.80217064596
 21
1013.874748214644
 31
0.0
1001
AUTOCAD_POSTSCRIPT_FIGURE
1002
{
1000
PSFILL
1000
Grayscale
1000
Grayscale
1070
    25
1002
}
  0
LINE
  5
17326
330
17754
100
AcDbEntity
  8
YODOROGO
100
AcDbLine
 10
14914.80217064596
 20
997.8747482146435
 30
0.0
 11
14914.80217064596
 21
1013.874748214644
 31
0.0
1001
AUTOCAD_POSTSCRIPT_FIGURE
1002
{
1000
PSFILL
1000
Grayscale
1000
Grayscale
1070
    25
1002
}
  0
LINE
  5
17327
330
17754
100
AcDbEntity
  8
YODOROGO
100
AcDbLine
 10
14914.80217064596
 20
953.874748214644
 30
0.0
 11
14914.80217064596
 21
973.8747482146436
 31
0.0
1001
AUTOCAD_POSTSCRIPT_FIGURE
1002
{
1000
PSFILL
1000
Grayscale
1000
Grayscale
1070
    25
1002
}
  0
LINE
  5
17328
330
17754
100
AcDbEntity
  8
YODOROGO
100
AcDbLine
 10
14914.80217064596
 20
909.8747482146439
 30
0.0
 11
14914.80217064596
 21
929.874748214644
 31
0.0
1001
AUTOCAD_POSTSCRIPT_FIGURE
1002
{
1000
PSFILL
1000
Grayscale
1000
Grayscale
1070
    25
1002
}
  0
LINE
  5
17329
330
17754
100
AcDbEntity
  8
YODOROGO
100
AcDbLine
 10
14960.80217064594
 20
885.8747482146442
 30
0.0
 11
14960.80217064594
 21
853.8747482146439
 31
0.0
1001
AUTOCAD_POSTSCRIPT_FIGURE
1002
{
1000
PSFILL
1000
Grayscale
1000
Grayscale
1070
    25
1002
}
  0
LINE
  5
1732A
330
17754
100
AcDbEntity
  8
YODOROGO
100
AcDbLine
 10
14914.80217064596
 20
885.8747482146442
 30
0.0
 11
14960.80217064594
 21
885.8747482146442
 31
0.0
1001
AUTOCAD_POSTSCRIPT_FIGURE
1002
{
1000
PSFILL
1000
Grayscale
1000
Grayscale
1070
    25
1002
}
  0
LINE
  5
1732B
330
17754
100
AcDbEntity
  8
YODOROGO
100
AcDbLine
 10
14914.80217064596
 20
853.8747482146439
 30
0.0
 11
14914.80217064596
 21
885.8747482146442
 31
0.0
1001
AUTOCAD_POSTSCRIPT_FIGURE
1002
{
1000
PSFILL
1000
Grayscale
1000
Grayscale
1070
    25
1002
}
  0
LINE
  5
1732C
330
17754
100
AcDbEntity
  8
YODOROGO
100
AcDbLine
 10
14882.80217064596
 20
853.8747482146439
 30
0.0
 11
14914.80217064596
 21
853.8747482146439
 31
0.0
1001
AUTOCAD_POSTSCRIPT_FIGURE
1002
{
1000
PSFILL
1000
Grayscale
1000
Grayscale
1070
    25
1002
}
  0
LINE
  5
1732D
330
17754
100
AcDbEntity
  8
YODOROGO
100
AcDbLine
 10
14882.80217064596
 20
885.8747482146442
 30
0.0
 11
14882.80217064596
 21
853.8747482146439
 31
0.0
1001
AUTOCAD_POSTSCRIPT_FIGURE
1002
{
1000
PSFILL
1000
Grayscale
1000
Grayscale
1070
    25
1002
}
  0
LINE
  5
1732E
330
17754
100
AcDbEntity
  8
YODOROGO
100
AcDbLine
 10
14836.80217064596
 20
885.8747482146442
 30
0.0
 11
14882.80217064596
 21
885.8747482146442
 31
0.0
1001
AUTOCAD_POSTSCRIPT_FIGURE
1002
{
1000
PSFILL
1000
Grayscale
1000
Grayscale
1070
    25
1002
}
  0
ARC
  5
1732F
330
17754
100
AcDbEntity
  8
YODOROGO
100
AcDbCircle
 10
15529.75894667896
 20
801.3403687577882
 30
0.0
 40
89.11064055536078
100
AcDbArc
 50
281.0262749542535
 51
357.771135755738
  0
LINE
  5
17330
330
17754
100
AcDbEntity
  8
YODOROGO
100
AcDbLine
 10
15706.80217064596
 20
953.874748214644
 30
0.0
 11
15582.80217064596
 21
953.874748214644
 31
0.0
  0
LINE
  5
17331
330
17754
100
AcDbEntity
  8
YODOROGO
100
AcDbLine
 10
15706.80217064596
 20
1013.874748214644
 30
0.0
 11
15582.80217064596
 21
1013.874748214644
 31
0.0
  0
LINE
  5
17332
330
17754
100
AcDbEntity
  8
YODOROGO
100
AcDbLine
 10
15582.80217064596
 20
981.8747482146434
 30
0.0
 11
15706.80217064596
 21
981.8747482146434
 31
0.0
  0
LINE
  5
17333
330
17754
100
AcDbEntity
  8
YODOROGO
100
AcDbLine
 10
15395.80217064596
 20
781.8747482146434
 30
0.0
 11
15395.80217064596
 21
877.8747482146437
 31
0.0
  0
LINE
  5
17334
330
17754
100
AcDbEntity
  8
YODOROGO
100
AcDbLine
 10
15381.80217064596
 20
845.8747482146444
 30
0.0
 11
15381.80217064596
 21
781.8747482146434
 31
0.0
  0
LINE
  5
17335
330
17754
100
AcDbEntity
  8
YODOROGO
100
AcDbLine
 10
15361.80217064596
 20
745.8747482146443
 30
0.0
 11
15361.80217064596
 21
845.8747482146444
 31
0.0
  0
LINE
  5
17336
330
17754
100
AcDbEntity
  8
YODOROGO
100
AcDbLine
 10
15449.80217064596
 20
845.8747482146444
 30
0.0
 11
15449.80217064596
 21
745.8747482146443
 31
0.0
  0
LINE
  5
17337
330
17754
100
AcDbEntity
  8
YODOROGO
100
AcDbLine
 10
15429.80217064596
 20
781.8747482146434
 30
0.0
 11
15429.80217064596
 21
845.8747482146444
 31
0.0
  0
LINE
  5
17338
330
17754
100
AcDbEntity
  8
YODOROGO
100
AcDbLine
 10
15415.80217064596
 20
877.8747482146437
 30
0.0
 11
15415.80217064596
 21
781.8747482146434
 31
0.0
  0
LINE
  5
17339
330
17754
100
AcDbEntity
  8
YODOROGO
100
AcDbLine
 10
15486.80217064596
 20
1013.874748214644
 30
0.0
 11
15486.80217064596
 21
733.8747482146437
 31
0.0
  0
LINE
  5
1733A
330
17754
100
AcDbEntity
  8
YODOROGO
100
AcDbLine
 10
15322.80217064596
 20
713.8747482146436
 30
0.0
 11
15322.80217064596
 21
1013.874748214644
 31
0.0
  0
LINE
  5
1733B
330
17754
100
AcDbEntity
  8
YODOROGO
100
AcDbLine
 10
15348.80217064596
 20
981.8747482146434
 30
0.0
 11
15348.80217064596
 21
713.8747482146436
 31
0.0
  0
LINE
  5
1733C
330
17754
100
AcDbEntity
  8
YODOROGO
100
AcDbLine
 10
15462.80217064596
 20
773.8747482146439
 30
0.0
 11
15462.80217064596
 21
981.8747482146434
 31
0.0
  0
LINE
  5
1733D
330
17754
100
AcDbEntity
  8
YODOROGO
100
AcDbLine
 10
15190.80217064596
 20
813.8747482146436
 30
0.0
 11
15190.80217064596
 21
839.8747482146443
 31
0.0
  0
LINE
  5
1733E
330
17754
100
AcDbEntity
  8
YODOROGO
100
AcDbLine
 10
15308.80217064596
 20
839.8747482146443
 30
0.0
 11
15308.80217064596
 21
813.8747482146436
 31
0.0
  0
LINE
  5
1733F
330
17754
100
AcDbEntity
  8
YODOROGO
100
AcDbLine
 10
15582.80217064596
 20
953.874748214644
 30
0.0
 11
15582.80217064596
 21
817.8747482146436
 31
0.0
  0
LINE
  5
17340
330
17754
100
AcDbEntity
  8
YODOROGO
100
AcDbLine
 10
14974.80217064595
 20
833.8747482146439
 30
0.0
 11
14974.80217064595
 21
853.8747482146439
 31
0.0
  0
LINE
  5
17341
330
17754
100
AcDbEntity
  8
YODOROGO
100
AcDbLine
 10
14974.80217064595
 20
833.8747482146439
 30
0.0
 11
14974.80217064595
 21
853.8747482146439
 31
0.0
  0
ARC
  5
17342
330
17754
100
AcDbEntity
  8
YODOROGO
100
AcDbCircle
 10
15268.80217064596
 20
753.8747482146439
 30
0.0
 40
40.0
100
AcDbArc
 50
270.0
 51
0.0
  0
LINE
  5
17343
330
17754
100
AcDbEntity
  8
YODOROGO
100
AcDbLine
 10
15284.80217064596
 20
799.8747482146441
 30
0.0
 11
15308.80217064596
 21
799.8747482146441
 31
0.0
  0
LINE
  5
17344
330
17754
100
AcDbEntity
  8
YODOROGO
100
AcDbLine
 10
15308.80217064596
 20
813.8747482146436
 30
0.0
 11
15264.80217064596
 21
813.8747482146436
 31
0.0
  0
LINE
  5
17345
330
17754
100
AcDbEntity
  8
YODOROGO
100
AcDbLine
 10
15108.80217064596
 20
833.8747482146439
 30
0.0
 11
14974.80217064595
 21
833.8747482146439
 31
0.0
  0
LINE
  5
17346
330
17754
100
AcDbEntity
  8
YODOROGO
100
AcDbLine
 10
15108.80217064596
 20
813.8747482146436
 30
0.0
 11
15108.80217064596
 21
833.8747482146439
 31
0.0
  0
LINE
  5
17347
330
17754
100
AcDbEntity
  8
YODOROGO
100
AcDbLine
 10
15008.80217064596
 20
813.8747482146436
 30
0.0
 11
15108.80217064596
 21
813.8747482146436
 31
0.0
  0
ARC
  5
17348
330
17754
100
AcDbEntity
  8
YODOROGO
100
AcDbCircle
 10
15115.02941435068
 20
934.4428574764513
 30
0.0
 40
160.6888181426141
100
AcDbArc
 50
228.6181454618993
 51
245.660289248906
  0
LINE
  5
17349
330
17754
100
AcDbEntity
  8
YODOROGO
100
AcDbLine
 10
15052.80217064596
 20
801.8747482146446
 30
0.0
 11
15048.80217064598
 21
788.0364079349501
 31
0.0
  0
LINE
  5
1734A
330
17754
100
AcDbEntity
  8
YODOROGO
100
AcDbLine
 10
15094.80217064596
 20
801.8747482146446
 30
0.0
 11
15052.80217064596
 21
801.8747482146446
 31
0.0
  0
LINE
  5
1734B
330
17754
100
AcDbEntity
  8
YODOROGO
100
AcDbLine
 10
15088.80217064596
 20
775.9088612367134
 30
0.0
 11
15094.80217064596
 21
801.8747482146446
 31
0.0
  0
ARC
  5
1734C
330
17754
100
AcDbEntity
  8
YODOROGO
100
AcDbCircle
 10
15115.02941435023
 20
934.4428574765013
 30
0.0
 40
160.6888181426453
100
AcDbArc
 50
260.6062929796993
 51
267.7790355655585
  0
LINE
  5
1734D
330
17754
100
AcDbEntity
  8
YODOROGO
100
AcDbLine
 10
15108.80217064596
 20
713.8747482146428
 30
0.0
 11
15108.80217064596
 21
773.8747482146439
 31
0.0
  0
LINE
  5
1734E
330
17754
100
AcDbEntity
  8
YODOROGO
100
AcDbLine
 10
14968.80217064596
 20
740.6696674577553
 30
0.0
 11
14968.80217064596
 21
797.2655452655707
 31
0.0
  0
LINE
  5
1734F
330
17754
100
AcDbEntity
  8
YODOROGO
100
AcDbLine
 10
15108.80217064596
 20
833.8747482146439
 30
0.0
 11
14974.80217064595
 21
833.8747482146439
 31
0.0
  0
LINE
  5
17350
330
17754
100
AcDbEntity
  8
YODOROGO
100
AcDbLine
 10
15108.80217064596
 20
813.8747482146436
 30
0.0
 11
15108.80217064596
 21
833.8747482146439
 31
0.0
  0
LINE
  5
17351
330
17754
100
AcDbEntity
  8
YODOROGO
100
AcDbLine
 10
15008.80217064596
 20
813.8747482146436
 30
0.0
 11
15108.80217064596
 21
813.8747482146436
 31
0.0
  0
ARC
  5
17352
330
17754
100
AcDbEntity
  8
YODOROGO
100
AcDbCircle
 10
15115.02941435068
 20
934.4428574764513
 30
0.0
 40
160.6888181426141
100
AcDbArc
 50
228.6181454618993
 51
245.660289248906
  0
LINE
  5
17353
330
17754
100
AcDbEntity
  8
YODOROGO
100
AcDbLine
 10
15052.80217064596
 20
801.8747482146446
 30
0.0
 11
15048.80217064598
 21
788.0364079349501
 31
0.0
  0
LINE
  5
17354
330
17754
100
AcDbEntity
  8
YODOROGO
100
AcDbLine
 10
15094.80217064596
 20
801.8747482146446
 30
0.0
 11
15052.80217064596
 21
801.8747482146446
 31
0.0
  0
LINE
  5
17355
330
17754
100
AcDbEntity
  8
YODOROGO
100
AcDbLine
 10
15088.80217064596
 20
775.9088612367134
 30
0.0
 11
15094.80217064596
 21
801.8747482146446
 31
0.0
  0
ARC
  5
17356
330
17754
100
AcDbEntity
  8
YODOROGO
100
AcDbCircle
 10
15115.02941435023
 20
934.4428574765013
 30
0.0
 40
160.6888181426453
100
AcDbArc
 50
260.6062929796993
 51
267.7790355655585
  0
LINE
  5
17357
330
17754
100
AcDbEntity
  8
YODOROGO
100
AcDbLine
 10
15108.80217064596
 20
713.8747482146428
 30
0.0
 11
15108.80217064596
 21
773.8747482146439
 31
0.0
  0
LINE
  5
17358
330
17754
100
AcDbEntity
  8
YODOROGO
100
AcDbLine
 10
14968.80217064596
 20
740.6696674577553
 30
0.0
 11
14968.80217064596
 21
797.2655452655707
 31
0.0
  0
LINE
  5
17359
330
17754
100
AcDbEntity
  8
YODOROGO
100
AcDbLine
 10
15216.80217064596
 20
786.8747482146446
 30
0.0
 11
15190.80217064596
 21
786.8747482146446
 31
0.0
  0
LINE
  5
1735A
330
17754
100
AcDbEntity
  8
YODOROGO
100
AcDbLine
 10
15216.80217064596
 20
800.8747482146432
 30
0.0
 11
15216.80217064596
 21
786.8747482146446
 31
0.0
  0
LINE
  5
1735B
330
17754
100
AcDbEntity
  8
YODOROGO
100
AcDbLine
 10
15190.80217064596
 20
800.8747482146432
 30
0.0
 11
15216.80217064596
 21
800.8747482146432
 31
0.0
  0
LINE
  5
1735C
330
17754
100
AcDbEntity
  8
YODOROGO
100
AcDbLine
 10
15190.80217064596
 20
786.8747482146446
 30
0.0
 11
15190.80217064596
 21
800.8747482146432
 31
0.0
  0
LINE
  5
1735D
330
17754
100
AcDbEntity
  8
YODOROGO
100
AcDbLine
 10
15214.80217064596
 20
788.8747482146436
 30
0.0
 11
15192.80217064595
 21
788.8747482146436
 31
0.0
  0
LINE
  5
1735E
330
17754
100
AcDbEntity
  8
YODOROGO
100
AcDbLine
 10
15214.80217064596
 20
798.8747482146439
 30
0.0
 11
15214.80217064596
 21
788.8747482146436
 31
0.0
  0
LINE
  5
1735F
330
17754
100
AcDbEntity
  8
YODOROGO
100
AcDbLine
 10
15192.80217064595
 20
798.8747482146439
 30
0.0
 11
15214.80217064596
 21
798.8747482146439
 31
0.0
  0
LINE
  5
17360
330
17754
100
AcDbEntity
  8
YODOROGO
100
AcDbLine
 10
15192.80217064595
 20
788.8747482146436
 30
0.0
 11
15192.80217064595
 21
798.8747482146439
 31
0.0
  0
LINE
  5
17361
330
17754
100
AcDbEntity
  8
YODOROGO
100
AcDbLine
 10
15212.80217064596
 20
790.8747482146432
 30
0.0
 11
15194.80217064596
 21
790.8747482146432
 31
0.0
  0
LINE
  5
17362
330
17754
100
AcDbEntity
  8
YODOROGO
100
AcDbLine
 10
15212.80217064596
 20
796.8747482146445
 30
0.0
 11
15212.80217064596
 21
790.8747482146432
 31
0.0
  0
LINE
  5
17363
330
17754
100
AcDbEntity
  8
YODOROGO
100
AcDbLine
 10
15194.80217064596
 20
796.8747482146445
 30
0.0
 11
15212.80217064596
 21
796.8747482146445
 31
0.0
  0
LINE
  5
17364
330
17754
100
AcDbEntity
  8
YODOROGO
100
AcDbLine
 10
15194.80217064596
 20
790.8747482146432
 30
0.0
 11
15194.80217064596
 21
796.8747482146445
 31
0.0
  0
LINE
  5
17365
330
17754
100
AcDbEntity
  8
YODOROGO
100
AcDbLine
 10
15210.80217064596
 20
792.8747482146435
 30
0.0
 11
15196.80217064596
 21
792.8747482146435
 31
0.0
  0
LINE
  5
17366
330
17754
100
AcDbEntity
  8
YODOROGO
100
AcDbLine
 10
15210.80217064596
 20
794.8747482146441
 30
0.0
 11
15210.80217064596
 21
792.8747482146435
 31
0.0
  0
LINE
  5
17367
330
17754
100
AcDbEntity
  8
YODOROGO
100
AcDbLine
 10
15196.80217064596
 20
794.8747482146441
 30
0.0
 11
15210.80217064596
 21
794.8747482146441
 31
0.0
  0
LINE
  5
17368
330
17754
100
AcDbEntity
  8
YODOROGO
100
AcDbLine
 10
15196.80217064596
 20
792.8747482146435
 30
0.0
 11
15196.80217064596
 21
794.8747482146441
 31
0.0
  0
LINE
  5
17369
330
17754
100
AcDbEntity
  8
YODOROGO
100
AcDbLine
 10
15232.80217064596
 20
813.8747482146436
 30
0.0
 11
15190.80217064596
 21
813.8747482146436
 31
0.0
  0
LINE
  5
1736A
330
17754
100
AcDbEntity
  8
YODOROGO
100
AcDbLine
 10
15232.80217064596
 20
773.8747482146439
 30
0.0
 11
15232.80217064596
 21
813.8747482146436
 31
0.0
  0
LINE
  5
1736B
330
17754
100
AcDbEntity
  8
YODOROGO
100
AcDbLine
 10
15190.80217064596
 20
773.8747482146439
 30
0.0
 11
15232.80217064596
 21
773.8747482146439
 31
0.0
  0
LINE
  5
1736C
330
17754
100
AcDbEntity
  8
YODOROGO
100
AcDbLine
 10
15190.80217064596
 20
713.8747482146436
 30
0.0
 11
15190.80217064596
 21
773.8747482146439
 31
0.0
  0
LINE
  5
1736D
330
17754
100
AcDbEntity
  8
YODOROGO
100
AcDbLine
 10
15268.80217064596
 20
713.8747482146436
 30
0.0
 11
15190.80217064596
 21
713.8747482146436
 31
0.0
  0
LINE
  5
1736E
330
17754
100
AcDbEntity
  8
YODOROGO
100
AcDbLine
 10
15284.80217064596
 20
785.8747482146432
 30
0.0
 11
15284.80217064596
 21
799.8747482146441
 31
0.0
  0
ARC
  5
1736F
330
17754
100
AcDbEntity
  8
YODOROGO
100
AcDbCircle
 10
15272.80217064594
 20
785.8747482146457
 30
0.0
 40
12.00000000000186
100
AcDbArc
 50
270.0
 51
359.9999999999877
  0
LINE
  5
17370
330
17754
100
AcDbEntity
  8
YODOROGO
100
AcDbLine
 10
15264.80217064596
 20
773.8747482146439
 30
0.0
 11
15272.80217064594
 21
773.8747482146439
 31
0.0
  0
LINE
  5
17371
330
17754
100
AcDbEntity
  8
YODOROGO
100
AcDbLine
 10
15264.80217064596
 20
813.8747482146436
 30
0.0
 11
15264.80217064596
 21
773.8747482146439
 31
0.0
  0
LINE
  5
17372
330
17754
100
AcDbEntity
  8
YODOROGO
100
AcDbLine
 10
15449.80217064597
 20
773.8747482146439
 30
0.0
 11
15462.80217064596
 21
773.8747482146439
 31
0.0
  0
LINE
  5
17373
330
17754
100
AcDbEntity
  8
YODOROGO
100
AcDbLine
 10
15466.80217064596
 20
713.8747482146436
 30
0.0
 11
15449.80217064596
 21
713.8747482146436
 31
0.0
  0
LINE
  5
17374
330
17754
100
AcDbEntity
  8
YODOROGO
100
AcDbLine
 10
15381.80217064596
 20
781.8747482146434
 30
0.0
 11
15395.80217064596
 21
781.8747482146434
 31
0.0
  0
LINE
  5
17375
330
17754
100
AcDbEntity
  8
YODOROGO
100
AcDbLine
 10
15449.80217064596
 20
745.8747482146443
 30
0.0
 11
15361.80217064596
 21
745.8747482146443
 31
0.0
  0
LINE
  5
17376
330
17754
100
AcDbEntity
  8
YODOROGO
100
AcDbLine
 10
15415.80217064596
 20
781.8747482146434
 30
0.0
 11
15429.80217064596
 21
781.8747482146434
 31
0.0
  0
LINE
  5
17377
330
17754
100
AcDbEntity
  8
YODOROGO
100
AcDbLine
 10
15449.80217064596
 20
713.8747482146436
 30
0.0
 11
15449.80217064597
 21
773.8747482146439
 31
0.0
  0
LINE
  5
17378
330
17754
100
AcDbEntity
  8
YODOROGO
100
AcDbLine
 10
15348.80217064596
 20
713.8747482146436
 30
0.0
 11
15322.80217064596
 21
713.8747482146436
 31
0.0
  0
LINE
  5
17379
330
17754
100
AcDbEntity
  8
YODOROGO
100
AcDbLine
 10
15308.80217064596
 20
799.8747482146441
 30
0.0
 11
15308.80217064596
 21
753.8747482146439
 31
0.0
  0
ARC
  5
1737A
330
17754
100
AcDbEntity
  8
YODOROGO
100
AcDbCircle
 10
15466.80217064596
 20
733.8747482146437
 30
0.0
 40
20.0
100
AcDbArc
 50
270.0
 51
0.0
  0
LINE
  5
1737B
330
17754
100
AcDbEntity
  8
YODOROGO
100
AcDbLine
 10
15546.80217064596
 20
761.8747482146434
 30
0.0
 11
15546.80217064596
 21
713.8747482146436
 31
0.0
  0
ARC
  5
1737C
330
17754
100
AcDbEntity
  8
YODOROGO
100
AcDbCircle
 10
15519.86069778339
 20
818.7656950548667
 30
0.0
 40
62.94777829583771
100
AcDbArc
 50
295.3405244216011
 51
359.1890230341867
  0
LINE
  5
1737D
330
17754
100
AcDbEntity
  8
YODOROGO
100
AcDbLine
 10
15308.80217064596
 20
929.874748214644
 30
0.0
 11
15248.80217064596
 21
969.8747482146441
 31
0.0
  0
LINE
  5
1737E
330
17754
100
AcDbEntity
  8
YODOROGO
100
AcDbLine
 10
15248.80217064596
 20
1013.874748214644
 30
0.0
 11
15308.80217064596
 21
973.8747482146436
 31
0.0
  0
LINE
  5
1737F
330
17754
100
AcDbEntity
  8
YODOROGO
100
AcDbLine
 10
15264.80217064596
 20
839.8747482146443
 30
0.0
 11
15308.80217064596
 21
839.8747482146443
 31
0.0
  0
LINE
  5
17380
330
17754
100
AcDbEntity
  8
YODOROGO
100
AcDbLine
 10
15308.80217064596
 20
867.8747482146436
 30
0.0
 11
15264.80217064596
 21
867.8747482146436
 31
0.0
  0
LINE
  5
17381
330
17754
100
AcDbEntity
  8
YODOROGO
100
AcDbLine
 10
15190.80217064596
 20
897.8747482146435
 30
0.0
 11
15308.80217064596
 21
897.8747482146435
 31
0.0
  0
LINE
  5
17382
330
17754
100
AcDbEntity
  8
YODOROGO
100
AcDbLine
 10
15040.80217064596
 20
1013.874748214644
 30
0.0
 11
15010.80217064596
 21
1013.874748214644
 31
0.0
  0
LINE
  5
17383
330
17754
100
AcDbEntity
  8
YODOROGO
100
AcDbLine
 10
15040.80217064596
 20
913.8747482146436
 30
0.0
 11
15040.80217064596
 21
1013.874748214644
 31
0.0
  0
LINE
  5
17384
330
17754
100
AcDbEntity
  8
YODOROGO
100
AcDbLine
 10
15010.80217064596
 20
913.8747482146436
 30
0.0
 11
15040.80217064596
 21
913.8747482146436
 31
0.0
  0
LINE
  5
17385
330
17754
100
AcDbEntity
  8
YODOROGO
100
AcDbLine
 10
15010.80217064596
 20
1013.874748214644
 30
0.0
 11
15010.80217064596
 21
913.8747482146436
 31
0.0
  0
LINE
  5
17386
330
17754
100
AcDbEntity
  8
YODOROGO
100
AcDbLine
 10
15080.80217064596
 20
1013.874748214644
 30
0.0
 11
15108.80217064596
 21
1013.874748214644
 31
0.0
  0
LINE
  5
17387
330
17754
100
AcDbEntity
  8
YODOROGO
100
AcDbLine
 10
15080.80217064596
 20
905.8747482146443
 30
0.0
 11
15080.80217064596
 21
1013.874748214644
 31
0.0
  0
ARC
  5
17388
330
17754
100
AcDbEntity
  8
YODOROGO
100
AcDbCircle
 10
15060.80217064596
 20
905.8747482146443
 30
0.0
 40
20.0
100
AcDbArc
 50
270.0
 51
0.0
  0
LINE
  5
17389
330
17754
100
AcDbEntity
  8
YODOROGO
100
AcDbLine
 10
15010.80217064596
 20
885.8747482146442
 30
0.0
 11
15060.80217064596
 21
885.8747482146442
 31
0.0
  0
LINE
  5
1738A
330
17754
100
AcDbEntity
  8
YODOROGO
100
AcDbLine
 10
15010.80217064596
 20
853.8747482146439
 30
0.0
 11
15010.80217064596
 21
885.8747482146442
 31
0.0
  0
LINE
  5
1738B
330
17754
100
AcDbEntity
  8
YODOROGO
100
AcDbLine
 10
15068.80217064596
 20
853.8747482146439
 30
0.0
 11
15010.80217064596
 21
853.8747482146439
 31
0.0
  0
ARC
  5
1738C
330
17754
100
AcDbEntity
  8
YODOROGO
100
AcDbCircle
 10
15068.80217064596
 20
893.8747482146439
 30
0.0
 40
40.0
100
AcDbArc
 50
270.0
 51
0.0
  0
LINE
  5
1738D
330
17754
100
AcDbEntity
  8
YODOROGO
100
AcDbLine
 10
15108.80217064596
 20
1013.874748214644
 30
0.0
 11
15108.80217064596
 21
893.8747482146439
 31
0.0
  0
LINE
  5
1738E
330
17754
100
AcDbEntity
  8
YODOROGO
100
AcDbLine
 10
14988.80217064596
 20
973.8747482146436
 30
0.0
 11
14988.80217064596
 21
997.8747482146435
 31
0.0
1001
AUTOCAD_POSTSCRIPT_FIGURE
1002
{
1000
PSFILL
1000
Grayscale
1000
Grayscale
1070
    25
1002
}
  0
LINE
  5
1738F
330
17754
100
AcDbEntity
  8
YODOROGO
100
AcDbLine
 10
14988.80217064596
 20
929.874748214644
 30
0.0
 11
14988.80217064596
 21
953.874748214644
 31
0.0
1001
AUTOCAD_POSTSCRIPT_FIGURE
1002
{
1000
PSFILL
1000
Grayscale
1000
Grayscale
1070
    25
1002
}
  0
LINE
  5
17390
330
17754
100
AcDbEntity
  8
YODOROGO
100
AcDbLine
 10
14988.80217064596
 20
853.8747482146439
 30
0.0
 11
14988.80217064596
 21
909.8747482146439
 31
0.0
1001
AUTOCAD_POSTSCRIPT_FIGURE
1002
{
1000
PSFILL
1000
Grayscale
1000
Grayscale
1070
    25
1002
}
  0
LINE
  5
17391
330
17754
100
AcDbEntity
  8
YODOROGO
100
AcDbLine
 10
15190.80217064596
 20
953.874748214644
 30
0.0
 11
15248.80217064596
 21
1013.874748214644
 31
0.0
  0
LINE
  5
17392
330
17754
100
AcDbEntity
  8
YODOROGO
100
AcDbLine
 10
15190.80217064596
 20
909.8747482146439
 30
0.0
 11
15190.80217064596
 21
953.874748214644
 31
0.0
  0
LINE
  5
17393
330
17754
100
AcDbEntity
  8
YODOROGO
100
AcDbLine
 10
15248.80217064596
 20
969.8747482146441
 30
0.0
 11
15190.80217064596
 21
909.8747482146439
 31
0.0
  0
LINE
  5
17394
330
17754
100
AcDbEntity
  8
YODOROGO
100
AcDbLine
 10
15232.80217064596
 20
839.8747482146443
 30
0.0
 11
15232.80217064596
 21
867.8747482146436
 31
0.0
  0
LINE
  5
17395
330
17754
100
AcDbEntity
  8
YODOROGO
100
AcDbLine
 10
15190.80217064596
 20
839.8747482146443
 30
0.0
 11
15232.80217064596
 21
839.8747482146443
 31
0.0
  0
LINE
  5
17396
330
17754
100
AcDbEntity
  8
YODOROGO
100
AcDbLine
 10
15264.80217064596
 20
867.8747482146436
 30
0.0
 11
15264.80217064596
 21
839.8747482146443
 31
0.0
  0
LINE
  5
17397
330
17754
100
AcDbEntity
  8
YODOROGO
100
AcDbLine
 10
15190.80217064596
 20
867.8747482146436
 30
0.0
 11
15190.80217064596
 21
897.8747482146435
 31
0.0
  0
LINE
  5
17398
330
17754
100
AcDbEntity
  8
YODOROGO
100
AcDbLine
 10
15232.80217064596
 20
867.8747482146436
 30
0.0
 11
15190.80217064596
 21
867.8747482146436
 31
0.0
  0
LINE
  5
17399
330
17754
100
AcDbEntity
  8
YODOROGO
100
AcDbLine
 10
15322.80217064596
 20
1013.874748214644
 30
0.0
 11
15486.80217064596
 21
1013.874748214644
 31
0.0
  0
LINE
  5
1739A
330
17754
100
AcDbEntity
  8
YODOROGO
100
AcDbLine
 10
15462.80217064596
 20
981.8747482146434
 30
0.0
 11
15348.80217064596
 21
981.8747482146434
 31
0.0
  0
LINE
  5
1739B
330
17754
100
AcDbEntity
  8
YODOROGO
100
AcDbLine
 10
15436.80217064595
 20
909.8747482146439
 30
0.0
 11
15449.80217064596
 21
909.8747482146439
 31
0.0
  0
LINE
  5
1739C
330
17754
100
AcDbEntity
  8
YODOROGO
100
AcDbLine
 10
15449.80217064596
 20
969.8747482146441
 30
0.0
 11
15436.80217064595
 21
909.8747482146439
 31
0.0
  0
LINE
  5
1739D
330
17754
100
AcDbEntity
  8
YODOROGO
100
AcDbLine
 10
15425.80217064596
 20
969.8747482146441
 30
0.0
 11
15449.80217064596
 21
969.8747482146441
 31
0.0
  0
LINE
  5
1739E
330
17754
100
AcDbEntity
  8
YODOROGO
100
AcDbLine
 10
15412.80217064596
 20
909.8747482146439
 30
0.0
 11
15425.80217064596
 21
969.8747482146441
 31
0.0
  0
LINE
  5
1739F
330
17754
100
AcDbEntity
  8
YODOROGO
100
AcDbLine
 10
15398.80217064596
 20
909.8747482146439
 30
0.0
 11
15412.80217064596
 21
909.8747482146439
 31
0.0
  0
LINE
  5
173A0
330
17754
100
AcDbEntity
  8
YODOROGO
100
AcDbLine
 10
15385.80217064596
 20
969.8747482146441
 30
0.0
 11
15398.80217064596
 21
909.8747482146439
 31
0.0
  0
LINE
  5
173A1
330
17754
100
AcDbEntity
  8
YODOROGO
100
AcDbLine
 10
15361.80217064596
 20
969.8747482146441
 30
0.0
 11
15385.80217064596
 21
969.8747482146441
 31
0.0
  0
LINE
  5
173A2
330
17754
100
AcDbEntity
  8
YODOROGO
100
AcDbLine
 10
15374.80217064596
 20
909.8747482146439
 30
0.0
 11
15361.80217064596
 21
969.8747482146441
 31
0.0
  0
LINE
  5
173A3
330
17754
100
AcDbEntity
  8
YODOROGO
100
AcDbLine
 10
15361.80217064596
 20
909.8747482146439
 30
0.0
 11
15374.80217064596
 21
909.8747482146439
 31
0.0
  0
LINE
  5
173A4
330
17754
100
AcDbEntity
  8
YODOROGO
100
AcDbLine
 10
15361.80217064596
 20
877.8747482146437
 30
0.0
 11
15361.80217064596
 21
909.8747482146439
 31
0.0
  0
LINE
  5
173A5
330
17754
100
AcDbEntity
  8
YODOROGO
100
AcDbLine
 10
15449.80217064596
 20
877.8747482146437
 30
0.0
 11
15361.80217064596
 21
877.8747482146437
 31
0.0
  0
LINE
  5
173A6
330
17754
100
AcDbEntity
  8
YODOROGO
100
AcDbLine
 10
15449.80217064596
 20
909.8747482146439
 30
0.0
 11
15449.80217064596
 21
877.8747482146437
 31
0.0
  0
LINE
  5
173A7
330
17754
100
AcDbEntity
  8
YODOROGO
100
AcDbLine
 10
15308.80217064596
 20
973.8747482146436
 30
0.0
 11
15308.80217064596
 21
929.874748214644
 31
0.0
  0
LINE
  5
173A8
330
17754
100
AcDbEntity
  8
YODOROGO
100
AcDbLine
 10
15395.80217064596
 20
877.8747482146437
 30
0.0
 11
15415.80217064596
 21
877.8747482146437
 31
0.0
  0
LINE
  5
173A9
330
17754
100
AcDbEntity
  8
YODOROGO
100
AcDbLine
 10
15361.80217064596
 20
845.8747482146444
 30
0.0
 11
15381.80217064596
 21
845.8747482146444
 31
0.0
  0
LINE
  5
173AA
330
17754
100
AcDbEntity
  8
YODOROGO
100
AcDbLine
 10
15429.80217064596
 20
845.8747482146444
 30
0.0
 11
15449.80217064596
 21
845.8747482146444
 31
0.0
  0
LINE
  5
173AB
330
17754
100
AcDbEntity
  8
YODOROGO
100
AcDbLine
 10
15308.80217064596
 20
897.8747482146435
 30
0.0
 11
15308.80217064596
 21
867.8747482146436
 31
0.0
  0
LINE
  5
173AC
330
17754
100
AcDbEntity
  8
YODOROGO
100
AcDbLine
 10
15582.80217064596
 20
1013.874748214644
 30
0.0
 11
15582.80217064596
 21
981.8747482146434
 31
0.0
  0
LINE
  5
173AD
330
17754
100
AcDbEntity
  8
YODOROGO
100
AcDbLine
 10
15766.80217064596
 20
797.8747482146435
 30
0.0
 11
15766.80217064595
 21
905.8747482146443
 31
0.0
  0
LINE
  5
173AE
330
17754
100
AcDbEntity
  8
YODOROGO
100
AcDbLine
 10
15730.80217064594
 20
993.8747482146439
 30
0.0
 11
15730.80217064594
 21
817.8747482146436
 31
0.0
  0
LINE
  5
173AF
330
17754
100
AcDbEntity
  8
YODOROGO
100
AcDbLine
 10
15826.80217064596
 20
713.8747482146436
 30
0.0
 11
15826.80217064595
 21
905.8747482146443
 31
0.0
  0
LINE
  5
173B0
330
17754
100
AcDbEntity
  8
YODOROGO
100
AcDbLine
 10
15794.80217064596
 20
905.8747482146443
 30
0.0
 11
15794.80217064596
 21
713.8747482146436
 31
0.0
  0
LINE
  5
173B1
330
17754
100
AcDbEntity
  8
YODOROGO
100
AcDbLine
 10
15618.80217064596
 20
797.8747482146435
 30
0.0
 11
15618.80217064596
 21
853.8747482146439
 31
0.0
  0
ARC
  5
173B2
330
17754
100
AcDbEntity
  8
YODOROGO
100
AcDbCircle
 10
15676.95743255803
 20
803.8951756442788
 30
0.0
 40
90.04622428799429
100
AcDbArc
 50
268.6284910216979
 51
356.1663845733032
  0
LINE
  5
173B3
330
17754
100
AcDbEntity
  8
YODOROGO
100
AcDbLine
 10
15674.80217064596
 20
763.8747482146436
 30
0.0
 11
15674.80217064596
 21
713.8747482146436
 31
0.0
  0
ARC
  5
173B4
330
17754
100
AcDbEntity
  8
YODOROGO
100
AcDbCircle
 10
15675.75903786228
 20
818.9194785088275
 30
0.0
 40
55.05304649180608
100
AcDbArc
 50
269.0041020930593
 51
358.9126445549248
  0
LINE
  5
173B5
330
17754
100
AcDbEntity
  8
YODOROGO
100
AcDbLine
 10
15794.80217064596
 20
713.8747482146436
 30
0.0
 11
15826.80217064596
 21
713.8747482146436
 31
0.0
  0
LINE
  5
173B6
330
17754
100
AcDbEntity
  8
YODOROGO
100
AcDbLine
 10
15766.80217064595
 20
905.8747482146443
 30
0.0
 11
15794.80217064596
 21
905.8747482146443
 31
0.0
  0
LINE
  5
173B7
330
17754
100
AcDbEntity
  8
YODOROGO
100
AcDbLine
 10
15810.80217064596
 20
993.8747482146439
 30
0.0
 11
15730.80217064594
 21
993.8747482146439
 31
0.0
  0
LINE
  5
173B8
330
17754
100
AcDbEntity
  8
YODOROGO
100
AcDbLine
 10
15766.80217064595
 20
957.8747482146436
 30
0.0
 11
15830.80217064596
 21
957.8747482146436
 31
0.0
  0
LINE
  5
173B9
330
17754
100
AcDbEntity
  8
YODOROGO
100
AcDbLine
 10
15850.80217064596
 20
937.8747482146435
 30
0.0
 11
15766.80217064595
 21
937.8747482146435
 31
0.0
  0
LINE
  5
173BA
330
17754
100
AcDbEntity
  8
YODOROGO
100
AcDbLine
 10
15618.80217064596
 20
889.8747482146443
 30
0.0
 11
15674.80217064596
 21
889.8747482146443
 31
0.0
  0
LINE
  5
173BB
330
17754
100
AcDbEntity
  8
YODOROGO
100
AcDbLine
 10
15618.80217064596
 20
917.8747482146436
 30
0.0
 11
15618.80217064596
 21
889.8747482146443
 31
0.0
  0
LINE
  5
173BC
330
17754
100
AcDbEntity
  8
YODOROGO
100
AcDbLine
 10
15674.80217064596
 20
917.8747482146436
 30
0.0
 11
15618.80217064596
 21
917.8747482146436
 31
0.0
  0
LINE
  5
173BD
330
17754
100
AcDbEntity
  8
YODOROGO
100
AcDbLine
 10
15674.80217064596
 20
889.8747482146443
 30
0.0
 11
15674.80217064596
 21
917.8747482146436
 31
0.0
  0
LINE
  5
173BE
330
17754
100
AcDbEntity
  8
YODOROGO
100
AcDbLine
 10
15766.80217064595
 20
937.8747482146435
 30
0.0
 11
15766.80217064595
 21
957.8747482146436
 31
0.0
  0
LINE
  5
173BF
330
17754
100
AcDbEntity
  8
YODOROGO
100
AcDbLine
 10
15706.80217064596
 20
853.8747482146439
 30
0.0
 11
15706.80217064596
 21
953.874748214644
 31
0.0
  0
LINE
  5
173C0
330
17754
100
AcDbEntity
  8
YODOROGO
100
AcDbLine
 10
15618.80217064596
 20
853.8747482146439
 30
0.0
 11
15706.80217064596
 21
853.8747482146439
 31
0.0
  0
LINE
  5
173C1
330
17754
100
AcDbEntity
  8
YODOROGO
100
AcDbLine
 10
15706.80217064596
 20
981.8747482146434
 30
0.0
 11
15706.80217064596
 21
1013.874748214644
 31
0.0
  0
ARC
  5
173C2
330
17754
100
AcDbEntity
  8
YODOROGO
100
AcDbCircle
 10
15810.80217064596
 20
1001.874748214642
 30
0.0
 40
7.999999999997271
100
AcDbArc
 50
270.0
 51
0.0000000000081422
  0
LINE
  5
173C3
330
17754
100
AcDbEntity
  8
YODOROGO
100
AcDbLine
 10
15818.80217064596
 20
1013.874748214644
 30
0.0
 11
15818.80217064596
 21
1001.874748214643
 31
0.0
  0
LINE
  5
173C4
330
17754
100
AcDbEntity
  8
YODOROGO
100
AcDbLine
 10
15850.80217064596
 20
1013.874748214644
 30
0.0
 11
15818.80217064596
 21
1013.874748214644
 31
0.0
  0
LINE
  5
173C5
330
17754
100
AcDbEntity
  8
YODOROGO
100
AcDbLine
 10
15850.80217064596
 20
977.8747482146435
 30
0.0
 11
15850.80217064596
 21
1013.874748214644
 31
0.0
  0
ARC
  5
173C6
330
17754
100
AcDbEntity
  8
YODOROGO
100
AcDbCircle
 10
15830.80217064596
 20
977.8747482146435
 30
0.0
 40
20.0
100
AcDbArc
 50
270.0
 51
0.0
  0
LINE
  5
173C7
330
17754
100
AcDbEntity
  8
YODOROGO
100
AcDbLine
 10
15850.80217064596
 20
905.8747482146443
 30
0.0
 11
15850.80217064596
 21
937.8747482146435
 31
0.0
  0
LINE
  5
173C8
330
17754
100
AcDbEntity
  8
YODOROGO
100
AcDbLine
 10
15826.80217064595
 20
905.8747482146443
 30
0.0
 11
15850.80217064596
 21
905.8747482146443
 31
0.0
  0
LINE
  5
173C9
330
17754
100
AcDbEntity
  8
SUNPOU
100
AcDbLine
 10
12419.12750789962
 20
5796.279066364537
 30
0.0
 11
12419.12750789962
 21
5033.638389810429
 31
0.0
  0
LINE
  5
173CA
330
17754
100
AcDbEntity
  8
SUNPOU
100
AcDbLine
 10
4019.127507899644
 20
5796.279066364537
 30
0.0
 11
4019.127507899644
 21
5033.638389810429
 31
0.0
  0
LINE
  5
173CB
330
17754
100
AcDbEntity
  8
SUNPOU
100
AcDbLine
 10
12399.12750789962
 20
5078.638389810429
 30
0.0
 11
4039.127507899644
 21
5078.638389810429
 31
0.0
  0
LINE
  5
173D0
330
17754
100
AcDbEntity
  8
SUNPOU
100
AcDbLine
 10
6055.044979629257
 20
3004.333194070902
 30
0.0
 11
6055.044979629257
 21
2989.333194070902
 31
0.0
  0
LINE
  5
173D2
330
17754
100
AcDbEntity
  8
SUNPOU
100
AcDbLine
 10
6055.044979629257
 20
1978.333194070902
 30
0.0
 11
6055.044979629257
 21
1993.333194070902
 31
0.0
  0
LINE
  5
173D4
330
17754
100
AcDbEntity
  8
SUNPOU
100
AcDbLine
 10
8405.306062185525
 20
3402.711278313303
 30
0.0
 11
8390.306062185526
 21
3402.711278313303
 31
0.0
  0
LINE
  5
173D6
330
17754
100
AcDbEntity
  8
SUNPOU
100
AcDbLine
 10
6595.306062185525
 20
3402.711278313303
 30
0.0
 11
6610.306062185525
 21
3402.711278313303
 31
0.0
  0
LINE
  5
173D7
330
17754
100
AcDbEntity
  8
SUNPOU
100
AcDbLine
 10
8476.306062185527
 20
2107.333194070899
 30
0.0
 11
9028.171970751353
 21
2107.333194070899
 31
0.0
  0
LINE
  5
173D8
330
17754
100
AcDbEntity
  8
SUNPOU
100
AcDbLine
 10
8476.306062185527
 20
2875.3331940709
 30
0.0
 11
9028.171970751353
 21
2875.3331940709
 31
0.0
  0
LINE
  5
173D9
330
17754
100
AcDbEntity
  8
SUNPOU
100
AcDbLine
 10
8983.171970751353
 20
2127.333194070899
 30
0.0
 11
8983.171970751353
 21
2855.3331940709
 31
0.0
  0
LINE
  5
173DD
330
17754
100
AcDbEntity
  8
SUNPOU
100
AcDbLine
 10
8572.306062185525
 20
3131.3331940709
 30
0.0
 11
9238.171970751352
 21
3131.333194070899
 31
0.0
  0
LINE
  5
173DE
330
17754
100
AcDbEntity
  8
SUNPOU
100
AcDbLine
 10
8572.306062185525
 20
1851.3331940709
 30
0.0
 11
9238.171970751352
 21
1851.3331940709
 31
0.0
  0
LINE
  5
173DF
330
17754
100
AcDbEntity
  8
SUNPOU
100
AcDbLine
 10
9193.171970751356
 20
3111.3331940709
 30
0.0
 11
9193.171970751356
 21
1871.3331940709
 31
0.0
  0
LINE
  5
173E3
330
17754
100
AcDbEntity
  8
SUNPOU
100
AcDbLine
 10
8116.306062185525
 20
2067.333194070898
 30
0.0
 11
8116.306062185525
 21
1525.898498232149
 31
0.0
  0
LINE
  5
173E4
330
17754
100
AcDbEntity
  8
SUNPOU
100
AcDbLine
 10
6884.306062185527
 20
2067.333194070898
 30
0.0
 11
6884.306062185527
 21
1525.898498232149
 31
0.0
  0
LINE
  5
173E5
330
17754
100
AcDbEntity
  8
SUNPOU
100
AcDbLine
 10
8096.306062185526
 20
1570.89849823215
 30
0.0
 11
6904.306062185526
 21
1570.89849823215
 31
0.0
  0
LINE
  5
173E9
330
17754
100
AcDbEntity
  8
SUNPOU
100
AcDbLine
 10
6468.306062185526
 20
1811.333194070899
 30
0.0
 11
6468.306062185526
 21
1315.898498232149
 31
0.0
  0
LINE
  5
173EA
330
17754
100
AcDbEntity
  8
SUNPOU
100
AcDbLine
 10
8532.306062185526
 20
1811.333194070899
 30
0.0
 11
8532.306062185526
 21
1315.898498232149
 31
0.0
  0
LINE
  5
173EB
330
17754
100
AcDbEntity
  8
SUNPOU
100
AcDbLine
 10
6488.306062185526
 20
1360.89849823215
 30
0.0
 11
8512.306062185526
 21
1360.89849823215
 31
0.0
  0
LINE
  5
173EF
330
17754
100
AcDbEntity
  8
SUNPOU
100
AcDbLine
 10
3048.429052763143
 20
1610.898498232149
 30
0.0
 11
3048.429052763143
 21
1615.89849823215
 31
0.0
  0
LINE
  5
173F0
330
17754
100
AcDbEntity
  8
SUNPOU
100
AcDbLine
 10
3512.429052763144
 20
1610.898498232149
 30
0.0
 11
3512.429052763144
 21
1615.89849823215
 31
0.0
  0
LINE
  5
173F1
330
17754
100
AcDbEntity
  8
SUNPOU
100
AcDbLine
 10
3068.429052763144
 20
1570.89849823215
 30
0.0
 11
3492.429052763144
 21
1570.89849823215
 31
0.0
  0
LINE
  5
173F5
330
17754
100
AcDbEntity
  8
SUNPOU
100
AcDbLine
 10
3512.429052763144
 20
1610.898498232149
 30
0.0
 11
3512.429052763144
 21
1615.89849823215
 31
0.0
  0
LINE
  5
173F6
330
17754
100
AcDbEntity
  8
SUNPOU
100
AcDbLine
 10
4312.429052763166
 20
1829.885413258396
 30
0.0
 11
4312.429052763166
 21
1525.898498232149
 31
0.0
  0
LINE
  5
173F7
330
17754
100
AcDbEntity
  8
SUNPOU
100
AcDbLine
 10
3532.429052763144
 20
1570.89849823215
 30
0.0
 11
4292.429052763165
 21
1570.89849823215
 31
0.0
  0
LINE
  5
173FB
330
17754
100
AcDbEntity
  8
SUNPOU
100
AcDbLine
 10
2248.429052763158
 20
1829.885413258395
 30
0.0
 11
2248.429052763158
 21
1525.898498232149
 31
0.0
  0
LINE
  5
173FC
330
17754
100
AcDbEntity
  8
SUNPOU
100
AcDbLine
 10
3048.429052763143
 20
1610.898498232149
 30
0.0
 11
3048.429052763143
 21
1615.89849823215
 31
0.0
  0
LINE
  5
173FD
330
17754
100
AcDbEntity
  8
SUNPOU
100
AcDbLine
 10
2268.429052763158
 20
1570.89849823215
 30
0.0
 11
3028.429052763144
 21
1570.89849823215
 31
0.0
  0
LINE
  5
17401
330
17754
100
AcDbEntity
  8
SUNPOU
100
AcDbLine
 10
2248.429052763158
 20
1829.885413258395
 30
0.0
 11
2248.429052763158
 21
1315.898498232149
 31
0.0
  0
LINE
  5
17402
330
17754
100
AcDbEntity
  8
SUNPOU
100
AcDbLine
 10
4312.429052763166
 20
1829.885413258396
 30
0.0
 11
4312.429052763166
 21
1315.898498232149
 31
0.0
  0
LINE
  5
17403
330
17754
100
AcDbEntity
  8
SUNPOU
100
AcDbLine
 10
2268.429052763158
 20
1360.89849823215
 30
0.0
 11
4292.429052763165
 21
1360.89849823215
 31
0.0
  0
LINE
  5
17407
330
17754
100
AcDbEntity
  8
SUNPOU
100
AcDbLine
 10
2664.429052763158
 20
3157.885413258396
 30
0.0
 11
2664.429052763158
 21
3556.260118325357
 31
0.0
  0
LINE
  5
17408
330
17754
100
AcDbEntity
  8
SUNPOU
100
AcDbLine
 10
3896.429052763159
 20
3157.885413258396
 30
0.0
 11
3896.429052763159
 21
3556.260118325357
 31
0.0
  0
LINE
  5
17409
330
17754
100
AcDbEntity
  8
SUNPOU
100
AcDbLine
 10
2684.429052763158
 20
3511.260118325356
 30
0.0
 11
3876.429052763159
 21
3511.260118325356
 31
0.0
  0
LINE
  5
1740D
330
17754
100
AcDbEntity
  8
SUNPOU
100
AcDbLine
 10
4774.604572265885
 20
2877.885413258394
 30
0.0
 11
4983.007034603489
 21
2877.885413258394
 31
0.0
  0
LINE
  5
1740E
330
17754
100
AcDbEntity
  8
SUNPOU
100
AcDbLine
 10
4432.429052763158
 20
2109.885413258398
 30
0.0
 11
4983.007034603489
 21
2109.885413258398
 31
0.0
  0
LINE
  5
1740F
330
17754
100
AcDbEntity
  8
SUNPOU
100
AcDbLine
 10
4938.007034603489
 20
2857.885413258394
 30
0.0
 11
4938.007034603489
 21
2129.885413258398
 31
0.0
  0
LINE
  5
17413
330
17754
100
AcDbEntity
  8
SUNPOU
100
AcDbLine
 10
4774.604572265885
 20
3117.885413258394
 30
0.0
 11
4983.007034603489
 21
3117.885413258394
 31
0.0
  0
LINE
  5
17414
330
17754
100
AcDbEntity
  8
SUNPOU
100
AcDbLine
 10
4774.604572265885
 20
2877.885413258394
 30
0.0
 11
4983.007034603489
 21
2877.885413258394
 31
0.0
  0
LINE
  5
17415
330
17754
100
AcDbEntity
  8
SUNPOU
100
AcDbLine
 10
4938.007034603489
 20
3097.885413258394
 30
0.0
 11
4938.007034603489
 21
2897.885413258394
 31
0.0
  0
LINE
  5
17419
330
17754
100
AcDbEntity
  8
SUNPOU
100
AcDbLine
 10
4432.42905276316
 20
2029.8854132584
 30
0.0
 11
5193.007034603488
 21
2029.885413258399
 31
0.0
  0
LINE
  5
1741A
330
17754
100
AcDbEntity
  8
SUNPOU
100
AcDbLine
 10
4432.42905276316
 20
2109.885413258399
 30
0.0
 11
5193.007034603489
 21
2109.885413258399
 31
0.0
  0
LINE
  5
1741B
330
17754
100
AcDbEntity
  8
SUNPOU
100
AcDbLine
 10
5148.007034603488
 20
2009.885413258399
 30
0.0
 11
5148.007034603488
 21
1989.885413258399
 31
0.0
  0
LINE
  5
1741C
330
17754
100
AcDbEntity
  8
SUNPOU
100
AcDbLine
 10
5148.007034603489
 20
2129.885413258399
 30
0.0
 11
5148.007034603489
 21
2149.885413258399
 31
0.0
  0
LINE
  5
1741E
330
17754
100
AcDbEntity
  8
SUNPOU
100
AcDbLine
 10
5148.007034603488
 20
2029.885413258399
 30
0.0
 11
5148.007034603489
 21
2109.885413258399
 31
0.0
  0
LINE
  5
17421
330
17754
100
AcDbEntity
  8
SUNPOU
100
AcDbLine
 10
4432.42905276316
 20
2029.8854132584
 30
0.0
 11
5193.007034603489
 21
2029.885413258399
 31
0.0
  0
LINE
  5
17422
330
17754
100
AcDbEntity
  8
SUNPOU
100
AcDbLine
 10
4432.42905276316
 20
1869.885413258399
 30
0.0
 11
5193.007034603489
 21
1869.885413258399
 31
0.0
  0
LINE
  5
17423
330
17754
100
AcDbEntity
  8
SUNPOU
100
AcDbLine
 10
5148.007034603489
 20
2009.885413258399
 30
0.0
 11
5148.007034603489
 21
1889.885413258399
 31
0.0
  0
LINE
  5
17424
330
17754
100
AcDbEntity
  8
SUNPOU
100
AcDbLine
 10
5148.007034603489
 20
1869.885413258399
 30
0.0
 11
5148.007034603489
 21
1614.171127544112
 31
0.0
  0
LINE
  5
17428
330
17754
100
AcDbEntity
  8
SUNPOU
100
AcDbLine
 10
4774.604572265885
 20
3117.885413258394
 30
0.0
 11
5193.007034603489
 21
3117.885413258394
 31
0.0
  0
LINE
  5
17429
330
17754
100
AcDbEntity
  8
SUNPOU
100
AcDbLine
 10
4432.42905276316
 20
2109.885413258399
 30
0.0
 11
5193.007034603489
 21
2109.885413258399
 31
0.0
  0
LINE
  5
1742A
330
17754
100
AcDbEntity
  8
SUNPOU
100
AcDbLine
 10
5148.007034603489
 20
3097.885413258394
 30
0.0
 11
5148.007034603489
 21
2129.885413258399
 31
0.0
  0
LINE
  5
1742E
330
17754
100
AcDbEntity
  8
SUNPOU
100
AcDbLine
 10
12019.12750789964
 20
6626.279066364536
 30
0.0
 11
12019.12750789964
 21
5341.279066364535
 31
0.0
  0
LINE
  5
1742F
330
17754
100
AcDbEntity
  8
SUNPOU
100
AcDbLine
 10
12419.12750789962
 20
5796.279066364537
 30
0.0
 11
12419.12750789962
 21
5341.279066364535
 31
0.0
  0
LINE
  5
17430
330
17754
100
AcDbEntity
  8
SUNPOU
100
AcDbLine
 10
12039.12750789964
 20
5386.279066364537
 30
0.0
 11
12399.12750789962
 21
5386.279066364537
 31
0.0
  0
LINE
  5
17434
330
17754
100
AcDbEntity
  8
SUNPOU
100
AcDbLine
 10
9619.127507899644
 20
7229.279066364536
 30
0.0
 11
9619.127507899644
 21
5341.279066364535
 31
0.0
  0
LINE
  5
17435
330
17754
100
AcDbEntity
  8
SUNPOU
100
AcDbLine
 10
12019.12750789964
 20
6626.279066364536
 30
0.0
 11
12019.12750789964
 21
5341.279066364535
 31
0.0
  0
LINE
  5
17436
330
17754
100
AcDbEntity
  8
SUNPOU
100
AcDbLine
 10
9639.127507899644
 20
5386.279066364537
 30
0.0
 11
11999.12750789964
 21
5386.279066364537
 31
0.0
  0
LINE
  5
1743A
330
17754
100
AcDbEntity
  8
SUNPOU
100
AcDbLine
 10
6819.127507899643
 20
7229.279066364536
 30
0.0
 11
6819.127507899643
 21
5341.279066364535
 31
0.0
  0
LINE
  5
1743B
330
17754
100
AcDbEntity
  8
SUNPOU
100
AcDbLine
 10
9619.127507899644
 20
7229.279066364536
 30
0.0
 11
9619.127507899644
 21
5341.279066364535
 31
0.0
  0
LINE
  5
1743C
330
17754
100
AcDbEntity
  8
SUNPOU
100
AcDbLine
 10
6839.127507899643
 20
5386.279066364537
 30
0.0
 11
9599.127507899643
 21
5386.279066364537
 31
0.0
  0
LINE
  5
17440
330
17754
100
AcDbEntity
  8
SUNPOU
100
AcDbLine
 10
4419.127507899644
 20
7236.279066364537
 30
0.0
 11
4419.127507899644
 21
5341.279066364535
 31
0.0
  0
LINE
  5
17441
330
17754
100
AcDbEntity
  8
SUNPOU
100
AcDbLine
 10
6819.127507899643
 20
7229.279066364536
 30
0.0
 11
6819.127507899643
 21
5341.279066364535
 31
0.0
  0
LINE
  5
17442
330
17754
100
AcDbEntity
  8
SUNPOU
100
AcDbLine
 10
4439.127507899644
 20
5386.279066364537
 30
0.0
 11
6799.127507899644
 21
5386.279066364537
 31
0.0
  0
LINE
  5
17446
330
17754
100
AcDbEntity
  8
SUNPOU
100
AcDbLine
 10
4019.127507899644
 20
5796.279066364537
 30
0.0
 11
4019.127507899644
 21
5341.279066364535
 31
0.0
  0
LINE
  5
17447
330
17754
100
AcDbEntity
  8
SUNPOU
100
AcDbLine
 10
4419.127507899644
 20
7236.279066364537
 30
0.0
 11
4419.127507899644
 21
5341.279066364535
 31
0.0
  0
LINE
  5
17448
330
17754
100
AcDbEntity
  8
SUNPOU
100
AcDbLine
 10
4039.127507899644
 20
5386.279066364537
 30
0.0
 11
4399.127507899645
 21
5386.279066364537
 31
0.0
  0
ARC
  5
1744C
330
17754
100
AcDbEntity
  8
SUNPOU
100
AcDbCircle
 10
13079.12750789963
 20
8626.279066364537
 30
0.0
 40
5.624999999998181
100
AcDbArc
 50
270.0
 51
90.0
  0
ARC
  5
1744D
330
17754
100
AcDbEntity
  8
SUNPOU
100
AcDbCircle
 10
13079.12750789963
 20
8626.279066364537
 30
0.0
 40
5.625
100
AcDbArc
 50
90.0
 51
270.0
  0
ARC
  5
1744E
330
17754
100
AcDbEntity
  8
SUNPOU
100
AcDbCircle
 10
13079.12750789963
 20
8366.279066364535
 30
0.0
 40
5.624999999998181
100
AcDbArc
 50
270.0
 51
90.0
  0
ARC
  5
1744F
330
17754
100
AcDbEntity
  8
SUNPOU
100
AcDbCircle
 10
13079.12750789963
 20
8366.279066364535
 30
0.0
 40
5.625
100
AcDbArc
 50
90.0
 51
270.0
  0
ARC
  5
17450
330
17754
100
AcDbEntity
  8
SUNPOU
100
AcDbCircle
 10
13079.12750789963
 20
8366.279066364535
 30
0.0
 40
5.625
100
AcDbArc
 50
90.0
 51
270.0
  0
ARC
  5
17451
330
17754
100
AcDbEntity
  8
SUNPOU
100
AcDbCircle
 10
13079.12750789963
 20
8366.279066364535
 30
0.0
 40
5.624999999998181
100
AcDbArc
 50
270.0
 51
90.0
  0
ARC
  5
17452
330
17754
100
AcDbEntity
  8
SUNPOU
100
AcDbCircle
 10
12869.12750789964
 20
8366.279066364535
 30
0.0
 40
5.624999999998181
100
AcDbArc
 50
90.0
 51
270.0
  0
ARC
  5
17453
330
17754
100
AcDbEntity
  8
SUNPOU
100
AcDbCircle
 10
12869.12750789964
 20
8366.279066364535
 30
0.0
 40
5.625
100
AcDbArc
 50
270.0
 51
90.0
  0
ARC
  5
17454
330
17754
100
AcDbEntity
  8
SUNPOU
100
AcDbCircle
 10
12869.12750789964
 20
8226.279066364536
 30
0.0
 40
5.625000000001818
100
AcDbArc
 50
90.0
 51
270.0
  0
ARC
  5
17455
330
17754
100
AcDbEntity
  8
SUNPOU
100
AcDbCircle
 10
12869.12750789964
 20
8226.279066364536
 30
0.0
 40
5.625
100
AcDbArc
 50
270.0
 51
90.0
  0
ARC
  5
17456
330
17754
100
AcDbEntity
  8
SUNPOU
100
AcDbCircle
 10
12869.12750789964
 20
8226.279066364536
 30
0.0
 40
5.625
100
AcDbArc
 50
270.0
 51
90.0
  0
ARC
  5
17457
330
17754
100
AcDbEntity
  8
SUNPOU
100
AcDbCircle
 10
12869.12750789964
 20
8226.279066364536
 30
0.0
 40
5.625000000001818
100
AcDbArc
 50
90.0
 51
270.0
  0
ARC
  5
17458
330
17754
100
AcDbEntity
  8
SUNPOU
100
AcDbCircle
 10
12869.12750789964
 20
8026.279066364535
 30
0.0
 40
5.625
100
AcDbArc
 50
90.0
 51
270.0
  0
ARC
  5
17459
330
17754
100
AcDbEntity
  8
SUNPOU
100
AcDbCircle
 10
12869.12750789964
 20
8026.279066364535
 30
0.0
 40
5.625000000000909
100
AcDbArc
 50
270.0
 51
90.0
  0
ARC
  5
1745A
330
17754
100
AcDbEntity
  8
SUNPOU
100
AcDbCircle
 10
12869.12750789964
 20
8026.279066364535
 30
0.0
 40
5.625000000000909
100
AcDbArc
 50
270.0
 51
90.0
  0
ARC
  5
1745B
330
17754
100
AcDbEntity
  8
SUNPOU
100
AcDbCircle
 10
12869.12750789964
 20
8026.279066364535
 30
0.0
 40
5.625
100
AcDbArc
 50
90.0
 51
270.0
  0
ARC
  5
1745C
330
17754
100
AcDbEntity
  8
SUNPOU
100
AcDbCircle
 10
12869.12750789964
 20
7936.279066364534
 30
0.0
 40
5.625
100
AcDbArc
 50
270.0
 51
90.0
  0
ARC
  5
1745D
330
17754
100
AcDbEntity
  8
SUNPOU
100
AcDbCircle
 10
12869.12750789964
 20
7936.279066364534
 30
0.0
 40
5.625000000000909
100
AcDbArc
 50
90.0
 51
270.0
  0
ARC
  5
1745E
330
17754
100
AcDbEntity
  8
SUNPOU
100
AcDbCircle
 10
12869.12750789964
 20
7936.279066364534
 30
0.0
 40
5.625000000000909
100
AcDbArc
 50
90.0
 51
270.0
  0
ARC
  5
1745F
330
17754
100
AcDbEntity
  8
SUNPOU
100
AcDbCircle
 10
12869.12750789964
 20
7936.279066364534
 30
0.0
 40
5.625
100
AcDbArc
 50
270.0
 51
90.0
  0
ARC
  5
17460
330
17754
100
AcDbEntity
  8
SUNPOU
100
AcDbCircle
 10
12869.12750789964
 20
7736.279066364537
 30
0.0
 40
5.625
100
AcDbArc
 50
270.0
 51
90.0
  0
ARC
  5
17461
330
17754
100
AcDbEntity
  8
SUNPOU
100
AcDbCircle
 10
12869.12750789964
 20
7736.279066364537
 30
0.0
 40
5.625
100
AcDbArc
 50
90.0
 51
270.0
  0
ARC
  5
17462
330
17754
100
AcDbEntity
  8
SUNPOU
100
AcDbCircle
 10
12869.12750789964
 20
7736.279066364537
 30
0.0
 40
5.625
100
AcDbArc
 50
90.0
 51
270.0
  0
ARC
  5
17463
330
17754
100
AcDbEntity
  8
SUNPOU
100
AcDbCircle
 10
12869.12750789964
 20
7736.279066364537
 30
0.0
 40
5.625
100
AcDbArc
 50
270.0
 51
90.0
  0
ARC
  5
17464
330
17754
100
AcDbEntity
  8
SUNPOU
100
AcDbCircle
 10
13079.12750789963
 20
7596.279066364535
 30
0.0
 40
5.625
100
AcDbArc
 50
270.0
 51
90.0
  0
ARC
  5
17465
330
17754
100
AcDbEntity
  8
SUNPOU
100
AcDbCircle
 10
13079.12750789963
 20
7596.279066364535
 30
0.0
 40
5.625000000000909
100
AcDbArc
 50
90.0
 51
270.0
  0
ARC
  5
17466
330
17754
100
AcDbEntity
  8
SUNPOU
100
AcDbCircle
 10
13079.12750789963
 20
7596.279066364535
 30
0.0
 40
5.625000000000909
100
AcDbArc
 50
90.0
 51
270.0
  0
ARC
  5
17467
330
17754
100
AcDbEntity
  8
SUNPOU
100
AcDbCircle
 10
13079.12750789963
 20
7596.279066364535
 30
0.0
 40
5.625
100
AcDbArc
 50
270.0
 51
90.0
  0
ARC
  5
17468
330
17754
100
AcDbEntity
  8
SUNPOU
100
AcDbCircle
 10
12869.12750789964
 20
7596.279066364535
 30
0.0
 40
5.625000000000909
100
AcDbArc
 50
90.0
 51
270.0
  0
ARC
  5
17469
330
17754
100
AcDbEntity
  8
SUNPOU
100
AcDbCircle
 10
12869.12750789964
 20
7596.279066364535
 30
0.0
 40
5.625
100
AcDbArc
 50
270.0
 51
90.0
  0
ARC
  5
1746A
330
17754
100
AcDbEntity
  8
SUNPOU
100
AcDbCircle
 10
13079.12750789963
 20
7336.279066364537
 30
0.0
 40
5.625
100
AcDbArc
 50
90.0
 51
270.0
  0
ARC
  5
1746B
330
17754
100
AcDbEntity
  8
SUNPOU
100
AcDbCircle
 10
13079.12750789963
 20
7336.279066364537
 30
0.0
 40
5.625
100
AcDbArc
 50
270.0
 51
90.0
  0
ARC
  5
1746C
330
17754
100
AcDbEntity
  8
SUNPOU
100
AcDbCircle
 10
12419.12750789962
 20
6876.279066364536
 30
0.0
 40
5.625
100
AcDbArc
 50
0.0
 51
180.0
  0
ARC
  5
1746D
330
17754
100
AcDbEntity
  8
SUNPOU
100
AcDbCircle
 10
12419.12750789962
 20
6876.279066364536
 30
0.0
 40
5.625
100
AcDbArc
 50
180.0
 51
0.0
  0
ARC
  5
1746E
330
17754
100
AcDbEntity
  8
SUNPOU
100
AcDbCircle
 10
12419.12750789962
 20
6666.279066364538
 30
0.0
 40
5.625
100
AcDbArc
 50
0.0
 51
180.0
  0
ARC
  5
1746F
330
17754
100
AcDbEntity
  8
SUNPOU
100
AcDbCircle
 10
12419.12750789962
 20
6666.279066364538
 30
0.0
 40
5.625
100
AcDbArc
 50
180.0
 51
0.0
  0
ARC
  5
17470
330
17754
100
AcDbEntity
  8
SUNPOU
100
AcDbCircle
 10
12259.12750789962
 20
6876.279066364536
 30
0.0
 40
5.625
100
AcDbArc
 50
0.0
 51
180.0
  0
ARC
  5
17471
330
17754
100
AcDbEntity
  8
SUNPOU
100
AcDbCircle
 10
12259.12750789962
 20
6876.279066364536
 30
0.0
 40
5.625
100
AcDbArc
 50
180.0
 51
0.0
  0
ARC
  5
17472
330
17754
100
AcDbEntity
  8
SUNPOU
100
AcDbCircle
 10
12259.12750789962
 20
6876.279066364536
 30
0.0
 40
5.625
100
AcDbArc
 50
180.0
 51
0.0
  0
ARC
  5
17473
330
17754
100
AcDbEntity
  8
SUNPOU
100
AcDbCircle
 10
12259.12750789962
 20
6876.279066364536
 30
0.0
 40
5.625
100
AcDbArc
 50
0.0
 51
180.0
  0
ARC
  5
17474
330
17754
100
AcDbEntity
  8
SUNPOU
100
AcDbCircle
 10
12119.12750789962
 20
7086.279066364537
 30
0.0
 40
5.625
100
AcDbArc
 50
0.0
 51
180.0
  0
ARC
  5
17475
330
17754
100
AcDbEntity
  8
SUNPOU
100
AcDbCircle
 10
12119.12750789962
 20
7086.279066364537
 30
0.0
 40
5.625
100
AcDbArc
 50
180.0
 51
0.0
  0
ARC
  5
17476
330
17754
100
AcDbEntity
  8
SUNPOU
100
AcDbCircle
 10
11919.12750789964
 20
7086.279066364537
 30
0.0
 40
5.625
100
AcDbArc
 50
180.0
 51
0.0
  0
ARC
  5
17477
330
17754
100
AcDbEntity
  8
SUNPOU
100
AcDbCircle
 10
11919.12750789964
 20
7086.279066364537
 30
0.0
 40
5.625
100
AcDbArc
 50
0.0
 51
180.0
  0
ARC
  5
17478
330
17754
100
AcDbEntity
  8
SUNPOU
100
AcDbCircle
 10
11319.12750789964
 20
8626.279066364537
 30
0.0
 40
5.624999999998181
100
AcDbArc
 50
270.0
 51
90.0
  0
ARC
  5
17479
330
17754
100
AcDbEntity
  8
SUNPOU
100
AcDbCircle
 10
11319.12750789964
 20
8626.279066364537
 30
0.0
 40
5.625
100
AcDbArc
 50
90.0
 51
270.0
  0
ARC
  5
1747A
330
17754
100
AcDbEntity
  8
SUNPOU
100
AcDbCircle
 10
11109.12750789964
 20
8626.279066364537
 30
0.0
 40
5.624999999998181
100
AcDbArc
 50
270.0
 51
90.0
  0
ARC
  5
1747B
330
17754
100
AcDbEntity
  8
SUNPOU
100
AcDbCircle
 10
11109.12750789964
 20
8626.279066364537
 30
0.0
 40
5.625
100
AcDbArc
 50
90.0
 51
270.0
  0
ARC
  5
1747C
330
17754
100
AcDbEntity
  8
SUNPOU
100
AcDbCircle
 10
11319.12750789964
 20
8126.279066364537
 30
0.0
 40
5.625
100
AcDbArc
 50
270.0
 51
90.0
  0
ARC
  5
1747D
330
17754
100
AcDbEntity
  8
SUNPOU
100
AcDbCircle
 10
11319.12750789964
 20
8126.279066364537
 30
0.0
 40
5.625
100
AcDbArc
 50
90.0
 51
270.0
  0
ARC
  5
1747E
330
17754
100
AcDbEntity
  8
SUNPOU
100
AcDbCircle
 10
11319.12750789964
 20
7836.279066364537
 30
0.0
 40
5.625
100
AcDbArc
 50
270.0
 51
90.0
  0
ARC
  5
1747F
330
17754
100
AcDbEntity
  8
SUNPOU
100
AcDbCircle
 10
11319.12750789964
 20
7836.279066364537
 30
0.0
 40
5.625
100
AcDbArc
 50
90.0
 51
270.0
  0
ARC
  5
17480
330
17754
100
AcDbEntity
  8
SUNPOU
100
AcDbCircle
 10
11319.12750789964
 20
7836.279066364537
 30
0.0
 40
5.625
100
AcDbArc
 50
90.0
 51
270.0
  0
ARC
  5
17481
330
17754
100
AcDbEntity
  8
SUNPOU
100
AcDbCircle
 10
11319.12750789964
 20
7836.279066364537
 30
0.0
 40
5.625
100
AcDbArc
 50
270.0
 51
90.0
  0
ARC
  5
17482
330
17754
100
AcDbEntity
  8
SUNPOU
100
AcDbCircle
 10
11319.12750789964
 20
8126.279066364537
 30
0.0
 40
5.625
100
AcDbArc
 50
90.0
 51
270.0
  0
ARC
  5
17483
330
17754
100
AcDbEntity
  8
SUNPOU
100
AcDbCircle
 10
11319.12750789964
 20
8126.279066364537
 30
0.0
 40
5.625
100
AcDbArc
 50
270.0
 51
90.0
  0
ARC
  5
17484
330
17754
100
AcDbEntity
  8
SUNPOU
100
AcDbCircle
 10
11319.12750789964
 20
7336.279066364537
 30
0.0
 40
5.625
100
AcDbArc
 50
90.0
 51
270.0
  0
ARC
  5
17485
330
17754
100
AcDbEntity
  8
SUNPOU
100
AcDbCircle
 10
11319.12750789964
 20
7336.279066364537
 30
0.0
 40
5.625
100
AcDbArc
 50
270.0
 51
90.0
  0
ARC
  5
17486
330
17754
100
AcDbEntity
  8
SUNPOU
100
AcDbCircle
 10
11109.12750789964
 20
7336.279066364537
 30
0.0
 40
5.625
100
AcDbArc
 50
90.0
 51
270.0
  0
ARC
  5
17487
330
17754
100
AcDbEntity
  8
SUNPOU
100
AcDbCircle
 10
11109.12750789964
 20
7336.279066364537
 30
0.0
 40
5.625
100
AcDbArc
 50
270.0
 51
90.0
  0
ARC
  5
17488
330
17754
100
AcDbEntity
  8
SUNPOU
100
AcDbCircle
 10
11779.12750789964
 20
6876.279066364536
 30
0.0
 40
5.625
100
AcDbArc
 50
0.0
 51
180.0
  0
ARC
  5
17489
330
17754
100
AcDbEntity
  8
SUNPOU
100
AcDbCircle
 10
11779.12750789964
 20
6876.279066364536
 30
0.0
 40
5.625
100
AcDbArc
 50
180.0
 51
0.0
  0
ARC
  5
1748A
330
17754
100
AcDbEntity
  8
SUNPOU
100
AcDbCircle
 10
11779.12750789964
 20
6876.279066364536
 30
0.0
 40
5.625
100
AcDbArc
 50
180.0
 51
0.0
  0
ARC
  5
1748B
330
17754
100
AcDbEntity
  8
SUNPOU
100
AcDbCircle
 10
11779.12750789964
 20
6876.279066364536
 30
0.0
 40
5.625
100
AcDbArc
 50
0.0
 51
180.0
  0
ARC
  5
1748C
330
17754
100
AcDbEntity
  8
SUNPOU
100
AcDbCircle
 10
11619.12750789964
 20
6876.279066364536
 30
0.0
 40
5.624999999996362
100
AcDbArc
 50
180.0
 51
0.0
  0
ARC
  5
1748D
330
17754
100
AcDbEntity
  8
SUNPOU
100
AcDbCircle
 10
11619.12750789964
 20
6876.279066364536
 30
0.0
 40
5.624999999996362
100
AcDbArc
 50
0.0
 51
180.0
  0
ARC
  5
1748E
330
17754
100
AcDbEntity
  8
SUNPOU
100
AcDbCircle
 10
11619.12750789964
 20
6666.279066364538
 30
0.0
 40
5.624999999996362
100
AcDbArc
 50
180.0
 51
0.0
  0
ARC
  5
1748F
330
17754
100
AcDbEntity
  8
SUNPOU
100
AcDbCircle
 10
11619.12750789964
 20
6666.279066364538
 30
0.0
 40
5.624999999996362
100
AcDbArc
 50
0.0
 51
180.0
  0
ARC
  5
17490
330
17754
100
AcDbEntity
  8
SUNPOU
100
AcDbCircle
 10
3569.127507899644
 20
10126.27906636454
 30
0.0
 40
5.625
100
AcDbArc
 50
270.0
 51
90.0
  0
ARC
  5
17491
330
17754
100
AcDbEntity
  8
SUNPOU
100
AcDbCircle
 10
3569.127507899644
 20
10126.27906636454
 30
0.0
 40
5.625
100
AcDbArc
 50
90.0
 51
270.0
  0
ARC
  5
17492
330
17754
100
AcDbEntity
  8
SUNPOU
100
AcDbCircle
 10
3569.127507899644
 20
8126.279066364537
 30
0.0
 40
5.625
100
AcDbArc
 50
270.0
 51
90.0
  0
ARC
  5
17493
330
17754
100
AcDbEntity
  8
SUNPOU
100
AcDbCircle
 10
3569.127507899644
 20
8126.279066364537
 30
0.0
 40
5.625
100
AcDbArc
 50
90.0
 51
270.0
  0
ARC
  5
17494
330
17754
100
AcDbEntity
  8
SUNPOU
100
AcDbCircle
 10
3569.127507899644
 20
7836.279066364537
 30
0.0
 40
5.625
100
AcDbArc
 50
90.0
 51
270.0
  0
ARC
  5
17495
330
17754
100
AcDbEntity
  8
SUNPOU
100
AcDbCircle
 10
3569.127507899644
 20
7836.279066364537
 30
0.0
 40
5.625
100
AcDbArc
 50
270.0
 51
90.0
  0
ARC
  5
17496
330
17754
100
AcDbEntity
  8
SUNPOU
100
AcDbCircle
 10
3569.127507899644
 20
7836.279066364537
 30
0.0
 40
5.625
100
AcDbArc
 50
270.0
 51
90.0
  0
ARC
  5
17497
330
17754
100
AcDbEntity
  8
SUNPOU
100
AcDbCircle
 10
3569.127507899644
 20
7836.279066364537
 30
0.0
 40
5.625
100
AcDbArc
 50
90.0
 51
270.0
  0
ARC
  5
17498
330
17754
100
AcDbEntity
  8
SUNPOU
100
AcDbCircle
 10
3569.127507899644
 20
8126.279066364537
 30
0.0
 40
5.625
100
AcDbArc
 50
90.0
 51
270.0
  0
ARC
  5
17499
330
17754
100
AcDbEntity
  8
SUNPOU
100
AcDbCircle
 10
3569.127507899644
 20
8126.279066364537
 30
0.0
 40
5.625
100
AcDbArc
 50
270.0
 51
90.0
  0
ARC
  5
1749A
330
17754
100
AcDbEntity
  8
SUNPOU
100
AcDbCircle
 10
3569.127507899644
 20
5836.279066364536
 30
0.0
 40
5.625
100
AcDbArc
 50
90.0
 51
270.0
  0
ARC
  5
1749B
330
17754
100
AcDbEntity
  8
SUNPOU
100
AcDbCircle
 10
3569.127507899644
 20
5836.279066364536
 30
0.0
 40
5.62499999999909
100
AcDbArc
 50
270.0
 51
90.0
  0
TEXT
  5
1749C
330
17754
100
AcDbEntity
  8
SUNPOU
100
AcDbText
 10
7755.413222185355
 20
5123.638389810428
 30
0.0
 40
90.0
  1
L = 2400 x N + 800
 41
0.6666666666666666
  7
00
100
AcDbText
  0
LINE
  5
1749E
330
17754
100
AcDbEntity
  8
SUNPOU
100
AcDbLine
 10
4034.127507899643
 20
5078.638389810429
 30
0.0
 11
4049.127507899644
 21
5078.638389810429
 31
0.0
  0
LINE
  5
174A0
330
17754
100
AcDbEntity
  8
SUNPOU
100
AcDbLine
 10
12404.12750789964
 20
5078.638389810429
 30
0.0
 11
12389.12750789963
 21
5078.638389810429
 31
0.0
  0
ARC
  5
174A1
330
17754
100
AcDbEntity
  8
SUNPOU
100
AcDbCircle
 10
6055.044979629257
 20
3019.333194070902
 30
0.0
 40
7.5
100
AcDbArc
 50
270.0
 51
90.0
  0
ARC
  5
174A2
330
17754
100
AcDbEntity
  8
SUNPOU
100
AcDbCircle
 10
6055.044979629257
 20
3019.333194070902
 30
0.0
 40
7.5
100
AcDbArc
 50
90.0
 51
270.0
  0
ARC
  5
174A3
330
17754
100
AcDbEntity
  8
SUNPOU
100
AcDbCircle
 10
6055.044979629257
 20
1963.333194070902
 30
0.0
 40
7.5
100
AcDbArc
 50
90.0
 51
270.0
  0
ARC
  5
174A4
330
17754
100
AcDbEntity
  8
SUNPOU
100
AcDbCircle
 10
6055.044979629257
 20
1963.333194070902
 30
0.0
 40
7.5
100
AcDbArc
 50
270.0
 51
90.0
  0
ARC
  5
174A5
330
17754
100
AcDbEntity
  8
SUNPOU
100
AcDbCircle
 10
8420.306062185526
 20
3402.711278313303
 30
0.0
 40
7.5
100
AcDbArc
 50
180.0
 51
0.0
  0
ARC
  5
174A6
330
17754
100
AcDbEntity
  8
SUNPOU
100
AcDbCircle
 10
8420.306062185526
 20
3402.711278313303
 30
0.0
 40
7.5
100
AcDbArc
 50
0.0
 51
180.0
  0
ARC
  5
174A7
330
17754
100
AcDbEntity
  8
SUNPOU
100
AcDbCircle
 10
6580.306062185525
 20
3402.711278313303
 30
0.0
 40
7.5
100
AcDbArc
 50
0.0
 51
180.0
  0
ARC
  5
174A8
330
17754
100
AcDbEntity
  8
SUNPOU
100
AcDbCircle
 10
6580.306062185525
 20
3402.711278313303
 30
0.0
 40
7.5
100
AcDbArc
 50
180.0
 51
0.0
  0
TEXT
  5
174A9
330
17754
100
AcDbEntity
  8
SUNPOU
100
AcDbText
 10
8938.171970751353
 20
2405.618908356616
 30
0.0
 40
90.0
  1
480
 50
90.0
 41
0.6666666666666666
  7
00
100
AcDbText
  0
LINE
  5
174AB
330
17754
100
AcDbEntity
  8
SUNPOU
100
AcDbLine
 10
8983.171970751353
 20
2860.3331940709
 30
0.0
 11
8983.171970751353
 21
2845.3331940709
 31
0.0
  0
LINE
  5
174AD
330
17754
100
AcDbEntity
  8
SUNPOU
100
AcDbLine
 10
8983.171970751353
 20
2122.3331940709
 30
0.0
 11
8983.171970751353
 21
2137.3331940709
 31
0.0
  0
TEXT
  5
174AE
330
17754
100
AcDbEntity
  8
SUNPOU
100
AcDbText
 10
9148.171970751356
 20
2405.618908356616
 30
0.0
 40
90.0
  1
800
 50
90.0
 41
0.6666666666666666
  7
00
100
AcDbText
  0
LINE
  5
174B0
330
17754
100
AcDbEntity
  8
SUNPOU
100
AcDbLine
 10
9193.171970751356
 20
1866.333194070899
 30
0.0
 11
9193.171970751356
 21
1881.333194070899
 31
0.0
  0
LINE
  5
174B2
330
17754
100
AcDbEntity
  8
SUNPOU
100
AcDbLine
 10
9193.171970751356
 20
3116.3331940709
 30
0.0
 11
9193.171970751356
 21
3101.3331940709
 31
0.0
  0
TEXT
  5
174B3
330
17754
100
AcDbEntity
  8
SUNPOU
100
AcDbText
 10
7414.59177647124
 20
1615.89849823215
 30
0.0
 40
90.0
  1
770
 41
0.6666666666666666
  7
00
100
AcDbText
  0
LINE
  5
174B5
330
17754
100
AcDbEntity
  8
SUNPOU
100
AcDbLine
 10
6899.306062185527
 20
1570.89849823215
 30
0.0
 11
6914.306062185527
 21
1570.89849823215
 31
0.0
  0
LINE
  5
174B7
330
17754
100
AcDbEntity
  8
SUNPOU
100
AcDbLine
 10
8101.306062185527
 20
1570.89849823215
 30
0.0
 11
8086.306062185526
 21
1570.89849823215
 31
0.0
  0
TEXT
  5
174B8
330
17754
100
AcDbEntity
  8
SUNPOU
100
AcDbText
 10
7381.734633614097
 20
1405.89849823215
 30
0.0
 40
90.0
  1
1290
 41
0.6666666666666666
  7
00
100
AcDbText
  0
LINE
  5
174BA
330
17754
100
AcDbEntity
  8
SUNPOU
100
AcDbLine
 10
8517.306062185525
 20
1360.89849823215
 30
0.0
 11
8502.306062185526
 21
1360.89849823215
 31
0.0
  0
LINE
  5
174BC
330
17754
100
AcDbEntity
  8
SUNPOU
100
AcDbLine
 10
6483.306062185525
 20
1360.89849823215
 30
0.0
 11
6498.306062185527
 21
1360.89849823215
 31
0.0
  0
TEXT
  5
174BD
330
17754
100
AcDbEntity
  8
SUNPOU
100
AcDbText
 10
3194.714767048858
 20
1615.89849823215
 30
0.0
 40
90.0
  1
290
 41
0.6666666666666666
  7
00
100
AcDbText
  0
LINE
  5
174BF
330
17754
100
AcDbEntity
  8
SUNPOU
100
AcDbLine
 10
3497.429052763143
 20
1570.89849823215
 30
0.0
 11
3482.429052763144
 21
1570.89849823215
 31
0.0
  0
LINE
  5
174C1
330
17754
100
AcDbEntity
  8
SUNPOU
100
AcDbLine
 10
3063.429052763144
 20
1570.89849823215
 30
0.0
 11
3078.429052763143
 21
1570.89849823215
 31
0.0
  0
TEXT
  5
174C2
330
17754
100
AcDbEntity
  8
SUNPOU
100
AcDbText
 10
3826.714767048869
 20
1615.89849823215
 30
0.0
 40
90.0
  1
500
 41
0.6666666666666666
  7
00
100
AcDbText
  0
LINE
  5
174C4
330
17754
100
AcDbEntity
  8
SUNPOU
100
AcDbLine
 10
4297.429052763166
 20
1570.89849823215
 30
0.0
 11
4282.429052763165
 21
1570.89849823215
 31
0.0
  0
LINE
  5
174C6
330
17754
100
AcDbEntity
  8
SUNPOU
100
AcDbLine
 10
3527.429052763143
 20
1570.89849823215
 30
0.0
 11
3542.429052763144
 21
1570.89849823215
 31
0.0
  0
TEXT
  5
174C7
330
17754
100
AcDbEntity
  8
SUNPOU
100
AcDbText
 10
2562.714767048865
 20
1615.89849823215
 30
0.0
 40
90.0
  1
500
 41
0.6666666666666666
  7
00
100
AcDbText
  0
LINE
  5
174C9
330
17754
100
AcDbEntity
  8
SUNPOU
100
AcDbLine
 10
3033.429052763144
 20
1570.89849823215
 30
0.0
 11
3018.429052763144
 21
1570.89849823215
 31
0.0
  0
LINE
  5
174CB
330
17754
100
AcDbEntity
  8
SUNPOU
100
AcDbLine
 10
2263.429052763159
 20
1570.89849823215
 30
0.0
 11
2278.429052763157
 21
1570.89849823215
 31
0.0
  0
TEXT
  5
174CC
330
17754
100
AcDbEntity
  8
SUNPOU
100
AcDbText
 10
3161.857624191732
 20
1405.89849823215
 30
0.0
 40
90.0
  1
1290
 41
0.6666666666666666
  7
00
100
AcDbText
  0
LINE
  5
174CE
330
17754
100
AcDbEntity
  8
SUNPOU
100
AcDbLine
 10
4297.429052763166
 20
1360.89849823215
 30
0.0
 11
4282.429052763165
 21
1360.89849823215
 31
0.0
  0
LINE
  5
174D0
330
17754
100
AcDbEntity
  8
SUNPOU
100
AcDbLine
 10
2263.429052763159
 20
1360.89849823215
 30
0.0
 11
2278.429052763157
 21
1360.89849823215
 31
0.0
  0
TEXT
  5
174D1
330
17754
100
AcDbEntity
  8
SUNPOU
100
AcDbText
 10
3194.714767048873
 20
3556.260118325357
 30
0.0
 40
90.0
  1
770
 41
0.6666666666666666
  7
00
100
AcDbText
  0
LINE
  5
174D3
330
17754
100
AcDbEntity
  8
SUNPOU
100
AcDbLine
 10
3881.429052763158
 20
3511.260118325356
 30
0.0
 11
3866.429052763159
 21
3511.260118325356
 31
0.0
  0
LINE
  5
174D5
330
17754
100
AcDbEntity
  8
SUNPOU
100
AcDbLine
 10
2679.429052763159
 20
3511.260118325356
 30
0.0
 11
2694.429052763158
 21
3511.260118325356
 31
0.0
  0
TEXT
  5
174D6
330
17754
100
AcDbEntity
  8
SUNPOU
100
AcDbText
 10
4893.007034603488
 20
2408.171127544112
 30
0.0
 40
90.0
  1
480
 50
90.0
 41
0.6666666666666666
  7
00
100
AcDbText
  0
LINE
  5
174D8
330
17754
100
AcDbEntity
  8
SUNPOU
100
AcDbLine
 10
4938.007034603489
 20
2124.885413258398
 30
0.0
 11
4938.007034603489
 21
2139.885413258399
 31
0.0
  0
LINE
  5
174DA
330
17754
100
AcDbEntity
  8
SUNPOU
100
AcDbLine
 10
4938.007034603489
 20
2862.885413258394
 30
0.0
 11
4938.007034603489
 21
2847.885413258394
 31
0.0
  0
TEXT
  5
174DB
330
17754
100
AcDbEntity
  8
SUNPOU
100
AcDbText
 10
4893.007034603488
 20
2907.885413258394
 30
0.0
 40
90.0
  1
150
 50
90.0
 41
0.6666666666666666
  7
00
100
AcDbText
  0
LINE
  5
174DD
330
17754
100
AcDbEntity
  8
SUNPOU
100
AcDbLine
 10
4938.007034603489
 20
2892.885413258394
 30
0.0
 11
4938.007034603489
 21
2907.885413258394
 31
0.0
  0
LINE
  5
174DF
330
17754
100
AcDbEntity
  8
SUNPOU
100
AcDbLine
 10
4938.007034603489
 20
3102.885413258395
 30
0.0
 11
4938.007034603489
 21
3087.885413258394
 31
0.0
  0
LINE
  5
174E1
330
17754
100
AcDbEntity
  8
SUNPOU
100
AcDbLine
 10
5148.007034603489
 20
2124.885413258399
 30
0.0
 11
5148.007034603489
 21
2139.885413258399
 31
0.0
  0
LINE
  5
174E3
330
17754
100
AcDbEntity
  8
SUNPOU
100
AcDbLine
 10
5148.007034603488
 20
2014.885413258399
 30
0.0
 11
5148.007034603488
 21
1999.885413258398
 31
0.0
  0
TEXT
  5
174E4
330
17754
100
AcDbEntity
  8
SUNPOU
100
AcDbText
 10
5320.630199058618
 20
2012.742556115539
 30
0.0
 40
90.0
  1
50
 50
90.0
 41
0.6666666666666666
  7
00
100
AcDbText
  0
TEXT
  5
174E5
330
17754
100
AcDbEntity
  8
SUNPOU
100
AcDbText
 10
5103.007034603489
 20
1642.028270401257
 30
0.0
 40
90.0
  1
100
 50
90.0
 41
0.6666666666666666
  7
00
100
AcDbText
  0
LINE
  5
174E7
330
17754
100
AcDbEntity
  8
SUNPOU
100
AcDbLine
 10
5148.007034603489
 20
1884.885413258399
 30
0.0
 11
5148.007034603489
 21
1899.8854132584
 31
0.0
  0
LINE
  5
174E9
330
17754
100
AcDbEntity
  8
SUNPOU
100
AcDbLine
 10
5148.007034603489
 20
2014.885413258399
 30
0.0
 11
5148.007034603489
 21
1999.885413258398
 31
0.0
  0
TEXT
  5
174EA
330
17754
100
AcDbEntity
  8
SUNPOU
100
AcDbText
 10
5103.007034603488
 20
2526.74255611554
 30
0.0
 40
90.0
  1
630
 50
90.0
 41
0.6666666666666666
  7
00
100
AcDbText
  0
LINE
  5
174EC
330
17754
100
AcDbEntity
  8
SUNPOU
100
AcDbLine
 10
5148.007034603489
 20
2124.885413258399
 30
0.0
 11
5148.007034603489
 21
2139.885413258399
 31
0.0
  0
LINE
  5
174EE
330
17754
100
AcDbEntity
  8
SUNPOU
100
AcDbLine
 10
5148.007034603489
 20
3102.885413258395
 30
0.0
 11
5148.007034603489
 21
3087.885413258394
 31
0.0
  0
TEXT
  5
174EF
330
17754
100
AcDbEntity
  8
SUNPOU
100
AcDbText
 10
12133.41322218534
 20
5431.279066364536
 30
0.0
 40
90.0
  1
400
 41
0.6666666666666666
  7
00
100
AcDbText
  0
LINE
  5
174F1
330
17754
100
AcDbEntity
  8
SUNPOU
100
AcDbLine
 10
12404.12750789964
 20
5386.279066364537
 30
0.0
 11
12389.12750789963
 21
5386.279066364537
 31
0.0
  0
LINE
  5
174F3
330
17754
100
AcDbEntity
  8
SUNPOU
100
AcDbLine
 10
12034.12750789963
 20
5386.279066364537
 30
0.0
 11
12049.12750789963
 21
5386.279066364537
 31
0.0
  0
TEXT
  5
174F4
330
17754
100
AcDbEntity
  8
SUNPOU
100
AcDbText
 10
10704.84179361392
 20
5431.279066364536
 30
0.0
 40
90.0
  1
2400
 41
0.6666666666666666
  7
00
100
AcDbText
  0
LINE
  5
174F6
330
17754
100
AcDbEntity
  8
SUNPOU
100
AcDbLine
 10
12004.12750789964
 20
5386.279066364537
 30
0.0
 11
11989.12750789963
 21
5386.279066364537
 31
0.0
  0
LINE
  5
174F8
330
17754
100
AcDbEntity
  8
SUNPOU
100
AcDbLine
 10
9634.127507899645
 20
5386.279066364537
 30
0.0
 11
9649.127507899644
 21
5386.279066364537
 31
0.0
  0
TEXT
  5
174F9
330
17754
100
AcDbEntity
  8
SUNPOU
100
AcDbText
 10
7829.413222185358
 20
5431.279066364536
 30
0.0
 40
90.0
  1
2400 ×（ N - 2 ）
 41
0.6666666666666666
  7
00
100
AcDbText
  0
LINE
  5
174FB
330
17754
100
AcDbEntity
  8
SUNPOU
100
AcDbLine
 10
9604.127507899645
 20
5386.279066364537
 30
0.0
 11
9589.127507899645
 21
5386.279066364537
 31
0.0
  0
LINE
  5
174FD
330
17754
100
AcDbEntity
  8
SUNPOU
100
AcDbLine
 10
6834.127507899643
 20
5386.279066364537
 30
0.0
 11
6849.127507899644
 21
5386.279066364537
 31
0.0
  0
TEXT
  5
174FE
330
17754
100
AcDbEntity
  8
SUNPOU
100
AcDbText
 10
5504.84179361393
 20
5431.279066364536
 30
0.0
 40
90.0
  1
2400
 41
0.6666666666666666
  7
00
100
AcDbText
  0
LINE
  5
17500
330
17754
100
AcDbEntity
  8
SUNPOU
100
AcDbLine
 10
6804.127507899645
 20
5386.279066364537
 30
0.0
 11
6789.127507899642
 21
5386.279066364537
 31
0.0
  0
LINE
  5
17502
330
17754
100
AcDbEntity
  8
SUNPOU
100
AcDbLine
 10
4434.127507899644
 20
5386.279066364537
 30
0.0
 11
4449.127507899644
 21
5386.279066364537
 31
0.0
  0
TEXT
  5
17503
330
17754
100
AcDbEntity
  8
SUNPOU
100
AcDbText
 10
4133.413222185359
 20
5431.279066364536
 30
0.0
 40
90.0
  1
400
 41
0.6666666666666666
  7
00
100
AcDbText
  0
LINE
  5
17505
330
17754
100
AcDbEntity
  8
SUNPOU
100
AcDbLine
 10
4404.127507899644
 20
5386.279066364537
 30
0.0
 11
4389.127507899644
 21
5386.279066364537
 31
0.0
  0
LINE
  5
17507
330
17754
100
AcDbEntity
  8
SUNPOU
100
AcDbLine
 10
4034.127507899643
 20
5386.279066364537
 30
0.0
 11
4049.127507899644
 21
5386.279066364537
 31
0.0
  0
ARC
  5
17508
330
17754
100
AcDbEntity
  8
SUNPOU
100
AcDbCircle
 10
4019.127507899644
 20
5078.638389810429
 30
0.0
 40
7.5
100
AcDbArc
 50
0.0
 51
180.0
  0
ARC
  5
17509
330
17754
100
AcDbEntity
  8
SUNPOU
100
AcDbCircle
 10
4019.127507899644
 20
5078.638389810429
 30
0.0
 40
7.5
100
AcDbArc
 50
180.0
 51
0.0
  0
ARC
  5
1750A
330
17754
100
AcDbEntity
  8
SUNPOU
100
AcDbCircle
 10
12419.12750789962
 20
5078.638389810429
 30
0.0
 40
7.5
100
AcDbArc
 50
180.0
 51
0.0
  0
ARC
  5
1750B
330
17754
100
AcDbEntity
  8
SUNPOU
100
AcDbCircle
 10
12419.12750789962
 20
5078.638389810429
 30
0.0
 40
7.5
100
AcDbArc
 50
0.0
 51
180.0
  0
ARC
  5
1750C
330
17754
100
AcDbEntity
  8
SUNPOU
100
AcDbCircle
 10
8983.171970751353
 20
2875.3331940709
 30
0.0
 40
7.5
100
AcDbArc
 50
270.0
 51
90.0
  0
ARC
  5
1750D
330
17754
100
AcDbEntity
  8
SUNPOU
100
AcDbCircle
 10
8983.171970751353
 20
2875.3331940709
 30
0.0
 40
7.5
100
AcDbArc
 50
90.0
 51
270.0
  0
ARC
  5
1750E
330
17754
100
AcDbEntity
  8
SUNPOU
100
AcDbCircle
 10
8983.171970751353
 20
2107.333194070899
 30
0.0
 40
7.5
100
AcDbArc
 50
90.0
 51
270.0
  0
ARC
  5
1750F
330
17754
100
AcDbEntity
  8
SUNPOU
100
AcDbCircle
 10
8983.171970751353
 20
2107.333194070899
 30
0.0
 40
7.5
100
AcDbArc
 50
270.0
 51
90.0
  0
ARC
  5
17510
330
17754
100
AcDbEntity
  8
SUNPOU
100
AcDbCircle
 10
9193.171970751356
 20
1851.3331940709
 30
0.0
 40
7.5
100
AcDbArc
 50
90.0
 51
270.0
  0
ARC
  5
17511
330
17754
100
AcDbEntity
  8
SUNPOU
100
AcDbCircle
 10
9193.171970751356
 20
1851.3331940709
 30
0.0
 40
7.5
100
AcDbArc
 50
270.0
 51
90.0
  0
ARC
  5
17512
330
17754
100
AcDbEntity
  8
SUNPOU
100
AcDbCircle
 10
9193.171970751356
 20
3131.3331940709
 30
0.0
 40
7.5
100
AcDbArc
 50
270.0
 51
90.0
  0
ARC
  5
17513
330
17754
100
AcDbEntity
  8
SUNPOU
100
AcDbCircle
 10
9193.171970751356
 20
3131.3331940709
 30
0.0
 40
7.5
100
AcDbArc
 50
90.0
 51
270.0
  0
ARC
  5
17514
330
17754
100
AcDbEntity
  8
SUNPOU
100
AcDbCircle
 10
6884.306062185527
 20
1570.89849823215
 30
0.0
 40
7.5
100
AcDbArc
 50
0.0
 51
180.0
  0
ARC
  5
17515
330
17754
100
AcDbEntity
  8
SUNPOU
100
AcDbCircle
 10
6884.306062185527
 20
1570.89849823215
 30
0.0
 40
7.5
100
AcDbArc
 50
180.0
 51
0.0
  0
ARC
  5
17516
330
17754
100
AcDbEntity
  8
SUNPOU
100
AcDbCircle
 10
8116.306062185525
 20
1570.89849823215
 30
0.0
 40
7.5
100
AcDbArc
 50
180.0
 51
0.0
  0
ARC
  5
17517
330
17754
100
AcDbEntity
  8
SUNPOU
100
AcDbCircle
 10
8116.306062185525
 20
1570.89849823215
 30
0.0
 40
7.5
100
AcDbArc
 50
0.0
 51
180.0
  0
ARC
  5
17518
330
17754
100
AcDbEntity
  8
SUNPOU
100
AcDbCircle
 10
8532.306062185526
 20
1360.89849823215
 30
0.0
 40
7.5
100
AcDbArc
 50
180.0
 51
0.0
  0
ARC
  5
17519
330
17754
100
AcDbEntity
  8
SUNPOU
100
AcDbCircle
 10
8532.306062185526
 20
1360.89849823215
 30
0.0
 40
7.5
100
AcDbArc
 50
0.0
 51
180.0
  0
ARC
  5
1751A
330
17754
100
AcDbEntity
  8
SUNPOU
100
AcDbCircle
 10
6468.306062185526
 20
1360.89849823215
 30
0.0
 40
7.5
100
AcDbArc
 50
0.0
 51
180.0
  0
ARC
  5
1751B
330
17754
100
AcDbEntity
  8
SUNPOU
100
AcDbCircle
 10
6468.306062185526
 20
1360.89849823215
 30
0.0
 40
7.5
100
AcDbArc
 50
180.0
 51
0.0
  0
ARC
  5
1751C
330
17754
100
AcDbEntity
  8
SUNPOU
100
AcDbCircle
 10
3512.429052763144
 20
1570.89849823215
 30
0.0
 40
7.5
100
AcDbArc
 50
180.0
 51
0.0
  0
ARC
  5
1751D
330
17754
100
AcDbEntity
  8
SUNPOU
100
AcDbCircle
 10
3512.429052763144
 20
1570.89849823215
 30
0.0
 40
7.5
100
AcDbArc
 50
0.0
 51
180.0
  0
ARC
  5
1751E
330
17754
100
AcDbEntity
  8
SUNPOU
100
AcDbCircle
 10
3048.429052763143
 20
1570.89849823215
 30
0.0
 40
7.5
100
AcDbArc
 50
0.0
 51
180.0
  0
ARC
  5
1751F
330
17754
100
AcDbEntity
  8
SUNPOU
100
AcDbCircle
 10
3048.429052763143
 20
1570.89849823215
 30
0.0
 40
7.5
100
AcDbArc
 50
180.0
 51
0.0
  0
ARC
  5
17520
330
17754
100
AcDbEntity
  8
SUNPOU
100
AcDbCircle
 10
4312.429052763166
 20
1570.89849823215
 30
0.0
 40
7.5
100
AcDbArc
 50
180.0
 51
0.0
  0
ARC
  5
17521
330
17754
100
AcDbEntity
  8
SUNPOU
100
AcDbCircle
 10
4312.429052763166
 20
1570.89849823215
 30
0.0
 40
7.5
100
AcDbArc
 50
0.0
 51
180.0
  0
ARC
  5
17522
330
17754
100
AcDbEntity
  8
SUNPOU
100
AcDbCircle
 10
3512.429052763144
 20
1570.89849823215
 30
0.0
 40
7.5
100
AcDbArc
 50
0.0
 51
180.0
  0
ARC
  5
17523
330
17754
100
AcDbEntity
  8
SUNPOU
100
AcDbCircle
 10
3512.429052763144
 20
1570.89849823215
 30
0.0
 40
7.5
100
AcDbArc
 50
180.0
 51
0.0
  0
ARC
  5
17524
330
17754
100
AcDbEntity
  8
SUNPOU
100
AcDbCircle
 10
3048.429052763143
 20
1570.89849823215
 30
0.0
 40
7.5
100
AcDbArc
 50
180.0
 51
0.0
  0
ARC
  5
17525
330
17754
100
AcDbEntity
  8
SUNPOU
100
AcDbCircle
 10
3048.429052763143
 20
1570.89849823215
 30
0.0
 40
7.5
100
AcDbArc
 50
0.0
 51
180.0
  0
ARC
  5
17526
330
17754
100
AcDbEntity
  8
SUNPOU
100
AcDbCircle
 10
2248.429052763158
 20
1570.89849823215
 30
0.0
 40
7.5
100
AcDbArc
 50
0.0
 51
180.0
  0
ARC
  5
17527
330
17754
100
AcDbEntity
  8
SUNPOU
100
AcDbCircle
 10
2248.429052763158
 20
1570.89849823215
 30
0.0
 40
7.5
100
AcDbArc
 50
180.0
 51
0.0
  0
ARC
  5
17528
330
17754
100
AcDbEntity
  8
SUNPOU
100
AcDbCircle
 10
4312.429052763166
 20
1360.89849823215
 30
0.0
 40
7.5
100
AcDbArc
 50
180.0
 51
0.0
  0
ARC
  5
17529
330
17754
100
AcDbEntity
  8
SUNPOU
100
AcDbCircle
 10
4312.429052763166
 20
1360.89849823215
 30
0.0
 40
7.5
100
AcDbArc
 50
0.0
 51
180.0
  0
ARC
  5
1752A
330
17754
100
AcDbEntity
  8
SUNPOU
100
AcDbCircle
 10
2248.429052763158
 20
1360.89849823215
 30
0.0
 40
7.5
100
AcDbArc
 50
0.0
 51
180.0
  0
ARC
  5
1752B
330
17754
100
AcDbEntity
  8
SUNPOU
100
AcDbCircle
 10
2248.429052763158
 20
1360.89849823215
 30
0.0
 40
7.5
100
AcDbArc
 50
180.0
 51
0.0
  0
ARC
  5
1752C
330
17754
100
AcDbEntity
  8
SUNPOU
100
AcDbCircle
 10
3896.429052763159
 20
3511.260118325356
 30
0.0
 40
7.5
100
AcDbArc
 50
180.0
 51
0.0
  0
ARC
  5
1752D
330
17754
100
AcDbEntity
  8
SUNPOU
100
AcDbCircle
 10
3896.429052763159
 20
3511.260118325356
 30
0.0
 40
7.5
100
AcDbArc
 50
0.0
 51
180.0
  0
ARC
  5
1752E
330
17754
100
AcDbEntity
  8
SUNPOU
100
AcDbCircle
 10
2664.429052763158
 20
3511.260118325356
 30
0.0
 40
7.5
100
AcDbArc
 50
0.0
 51
180.0
  0
ARC
  5
1752F
330
17754
100
AcDbEntity
  8
SUNPOU
100
AcDbCircle
 10
2664.429052763158
 20
3511.260118325356
 30
0.0
 40
7.5
100
AcDbArc
 50
180.0
 51
0.0
  0
ARC
  5
17530
330
17754
100
AcDbEntity
  8
SUNPOU
100
AcDbCircle
 10
4938.007034603489
 20
2109.885413258398
 30
0.0
 40
7.5
100
AcDbArc
 50
90.0
 51
270.0
  0
ARC
  5
17531
330
17754
100
AcDbEntity
  8
SUNPOU
100
AcDbCircle
 10
4938.007034603489
 20
2109.885413258398
 30
0.0
 40
7.5
100
AcDbArc
 50
270.0
 51
90.0
  0
ARC
  5
17532
330
17754
100
AcDbEntity
  8
SUNPOU
100
AcDbCircle
 10
4938.007034603489
 20
2877.885413258394
 30
0.0
 40
7.5
100
AcDbArc
 50
270.0
 51
90.0
  0
ARC
  5
17533
330
17754
100
AcDbEntity
  8
SUNPOU
100
AcDbCircle
 10
4938.007034603489
 20
2877.885413258394
 30
0.0
 40
7.5
100
AcDbArc
 50
90.0
 51
270.0
  0
ARC
  5
17534
330
17754
100
AcDbEntity
  8
SUNPOU
100
AcDbCircle
 10
4938.007034603489
 20
2877.885413258394
 30
0.0
 40
7.5
100
AcDbArc
 50
90.0
 51
270.0
  0
ARC
  5
17535
330
17754
100
AcDbEntity
  8
SUNPOU
100
AcDbCircle
 10
4938.007034603489
 20
2877.885413258394
 30
0.0
 40
7.5
100
AcDbArc
 50
270.0
 51
90.0
  0
ARC
  5
17536
330
17754
100
AcDbEntity
  8
SUNPOU
100
AcDbCircle
 10
4938.007034603489
 20
3117.885413258394
 30
0.0
 40
7.5
100
AcDbArc
 50
270.0
 51
90.0
  0
ARC
  5
17537
330
17754
100
AcDbEntity
  8
SUNPOU
100
AcDbCircle
 10
4938.007034603489
 20
3117.885413258394
 30
0.0
 40
7.5
100
AcDbArc
 50
90.0
 51
270.0
  0
ARC
  5
17538
330
17754
100
AcDbEntity
  8
SUNPOU
100
AcDbCircle
 10
5148.007034603489
 20
2109.885413258399
 30
0.0
 40
7.5
100
AcDbArc
 50
90.0
 51
270.0
  0
ARC
  5
17539
330
17754
100
AcDbEntity
  8
SUNPOU
100
AcDbCircle
 10
5148.007034603489
 20
2109.885413258399
 30
0.0
 40
7.5
100
AcDbArc
 50
270.0
 51
90.0
  0
ARC
  5
1753A
330
17754
100
AcDbEntity
  8
SUNPOU
100
AcDbCircle
 10
5148.007034603488
 20
2029.885413258399
 30
0.0
 40
7.5
100
AcDbArc
 50
270.0
 51
90.0
  0
ARC
  5
1753B
330
17754
100
AcDbEntity
  8
SUNPOU
100
AcDbCircle
 10
5148.007034603488
 20
2029.885413258399
 30
0.0
 40
7.5
100
AcDbArc
 50
90.0
 51
270.0
  0
ARC
  5
1753C
330
17754
100
AcDbEntity
  8
SUNPOU
100
AcDbCircle
 10
5148.007034603489
 20
1869.885413258399
 30
0.0
 40
7.5
100
AcDbArc
 50
90.0
 51
270.0
  0
ARC
  5
1753D
330
17754
100
AcDbEntity
  8
SUNPOU
100
AcDbCircle
 10
5148.007034603489
 20
1869.885413258399
 30
0.0
 40
7.5
100
AcDbArc
 50
270.0
 51
90.0
  0
ARC
  5
1753E
330
17754
100
AcDbEntity
  8
SUNPOU
100
AcDbCircle
 10
5148.007034603489
 20
2029.885413258399
 30
0.0
 40
7.5
100
AcDbArc
 50
270.0
 51
90.0
  0
ARC
  5
1753F
330
17754
100
AcDbEntity
  8
SUNPOU
100
AcDbCircle
 10
5148.007034603489
 20
2029.885413258399
 30
0.0
 40
7.5
100
AcDbArc
 50
90.0
 51
270.0
  0
ARC
  5
17540
330
17754
100
AcDbEntity
  8
SUNPOU
100
AcDbCircle
 10
5148.007034603489
 20
2109.885413258399
 30
0.0
 40
7.5
100
AcDbArc
 50
90.0
 51
270.0
  0
ARC
  5
17541
330
17754
100
AcDbEntity
  8
SUNPOU
100
AcDbCircle
 10
5148.007034603489
 20
2109.885413258399
 30
0.0
 40
7.5
100
AcDbArc
 50
270.0
 51
90.0
  0
ARC
  5
17542
330
17754
100
AcDbEntity
  8
SUNPOU
100
AcDbCircle
 10
5148.007034603489
 20
3117.885413258394
 30
0.0
 40
7.5
100
AcDbArc
 50
270.0
 51
90.0
  0
ARC
  5
17543
330
17754
100
AcDbEntity
  8
SUNPOU
100
AcDbCircle
 10
5148.007034603489
 20
3117.885413258394
 30
0.0
 40
7.5
100
AcDbArc
 50
90.0
 51
270.0
  0
ARC
  5
17544
330
17754
100
AcDbEntity
  8
SUNPOU
100
AcDbCircle
 10
12419.12750789962
 20
5386.279066364537
 30
0.0
 40
7.5
100
AcDbArc
 50
180.0
 51
0.0
  0
ARC
  5
17545
330
17754
100
AcDbEntity
  8
SUNPOU
100
AcDbCircle
 10
12419.12750789962
 20
5386.279066364537
 30
0.0
 40
7.5
100
AcDbArc
 50
0.0
 51
180.0
  0
ARC
  5
17546
330
17754
100
AcDbEntity
  8
SUNPOU
100
AcDbCircle
 10
12019.12750789964
 20
5386.279066364537
 30
0.0
 40
7.5
100
AcDbArc
 50
0.0
 51
180.0
  0
ARC
  5
17547
330
17754
100
AcDbEntity
  8
SUNPOU
100
AcDbCircle
 10
12019.12750789964
 20
5386.279066364537
 30
0.0
 40
7.5
100
AcDbArc
 50
180.0
 51
0.0
  0
ARC
  5
17548
330
17754
100
AcDbEntity
  8
SUNPOU
100
AcDbCircle
 10
12019.12750789964
 20
5386.279066364537
 30
0.0
 40
7.5
100
AcDbArc
 50
180.0
 51
0.0
  0
ARC
  5
17549
330
17754
100
AcDbEntity
  8
SUNPOU
100
AcDbCircle
 10
12019.12750789964
 20
5386.279066364537
 30
0.0
 40
7.5
100
AcDbArc
 50
0.0
 51
180.0
  0
ARC
  5
1754A
330
17754
100
AcDbEntity
  8
SUNPOU
100
AcDbCircle
 10
9619.127507899644
 20
5386.279066364537
 30
0.0
 40
7.5
100
AcDbArc
 50
0.0
 51
180.0
  0
ARC
  5
1754B
330
17754
100
AcDbEntity
  8
SUNPOU
100
AcDbCircle
 10
9619.127507899644
 20
5386.279066364537
 30
0.0
 40
7.5
100
AcDbArc
 50
180.0
 51
0.0
  0
ARC
  5
1754C
330
17754
100
AcDbEntity
  8
SUNPOU
100
AcDbCircle
 10
9619.127507899644
 20
5386.279066364537
 30
0.0
 40
7.5
100
AcDbArc
 50
180.0
 51
0.0
  0
ARC
  5
1754D
330
17754
100
AcDbEntity
  8
SUNPOU
100
AcDbCircle
 10
9619.127507899644
 20
5386.279066364537
 30
0.0
 40
7.5
100
AcDbArc
 50
0.0
 51
180.0
  0
ARC
  5
1754E
330
17754
100
AcDbEntity
  8
SUNPOU
100
AcDbCircle
 10
6819.127507899643
 20
5386.279066364537
 30
0.0
 40
7.5
100
AcDbArc
 50
0.0
 51
180.0
  0
ARC
  5
1754F
330
17754
100
AcDbEntity
  8
SUNPOU
100
AcDbCircle
 10
6819.127507899643
 20
5386.279066364537
 30
0.0
 40
7.5
100
AcDbArc
 50
180.0
 51
0.0
  0
ARC
  5
17550
330
17754
100
AcDbEntity
  8
SUNPOU
100
AcDbCircle
 10
6819.127507899643
 20
5386.279066364537
 30
0.0
 40
7.5
100
AcDbArc
 50
180.0
 51
0.0
  0
ARC
  5
17551
330
17754
100
AcDbEntity
  8
SUNPOU
100
AcDbCircle
 10
6819.127507899643
 20
5386.279066364537
 30
0.0
 40
7.5
100
AcDbArc
 50
0.0
 51
180.0
  0
ARC
  5
17552
330
17754
100
AcDbEntity
  8
SUNPOU
100
AcDbCircle
 10
4419.127507899644
 20
5386.279066364537
 30
0.0
 40
7.5
100
AcDbArc
 50
0.0
 51
180.0
  0
ARC
  5
17553
330
17754
100
AcDbEntity
  8
SUNPOU
100
AcDbCircle
 10
4419.127507899644
 20
5386.279066364537
 30
0.0
 40
7.5
100
AcDbArc
 50
180.0
 51
0.0
  0
ARC
  5
17554
330
17754
100
AcDbEntity
  8
SUNPOU
100
AcDbCircle
 10
4419.127507899644
 20
5386.279066364537
 30
0.0
 40
7.5
100
AcDbArc
 50
180.0
 51
0.0
  0
ARC
  5
17555
330
17754
100
AcDbEntity
  8
SUNPOU
100
AcDbCircle
 10
4419.127507899644
 20
5386.279066364537
 30
0.0
 40
7.5
100
AcDbArc
 50
0.0
 51
180.0
  0
ARC
  5
17556
330
17754
100
AcDbEntity
  8
SUNPOU
100
AcDbCircle
 10
4019.127507899644
 20
5386.279066364537
 30
0.0
 40
7.5
100
AcDbArc
 50
0.0
 51
180.0
  0
ARC
  5
17557
330
17754
100
AcDbEntity
  8
SUNPOU
100
AcDbCircle
 10
4019.127507899644
 20
5386.279066364537
 30
0.0
 40
7.5
100
AcDbArc
 50
180.0
 51
0.0
  0
ARC
  5
1755B
330
17754
100
AcDbEntity
  8
HIKIDASHI
100
AcDbCircle
 10
5384.198933629273
 20
3641.644846848218
 30
0.0
 40
74.66417910452284
100
AcDbArc
 50
164.8596129850915
 51
237.5045002941574
  0
ARC
  5
1755C
330
17754
100
AcDbEntity
  8
HIKIDASHI
100
AcDbCircle
 10
5320.775139582967
 20
3658.805870332703
 30
0.0
 40
8.959701492542743
100
AcDbArc
 50
15.14038701504826
 51
164.8596129849796
  0
LINE
  5
17561
330
17754
100
AcDbEntity
  8
HIKIDASHI
100
AcDbLine
 10
11892.36982327521
 20
8280.90530835078
 30
0.0
 11
11919.12750789964
 21
8226.279066364538
 31
0.0
  0
LINE
  5
17562
330
17754
100
AcDbEntity
  8
HIKIDASHI
100
AcDbLine
 10
11919.12750789964
 20
8226.279066364538
 30
0.0
 11
11911.53280362882
 21
8286.630706499991
 31
0.0
  0
SOLID
  5
17563
330
17754
100
AcDbEntity
  8
HIKIDASHI
100
AcDbTrace
 10
11892.36982327521
 20
8280.90530835078
 30
0.0
 11
11911.53280362882
 21
8286.630706499991
 31
0.0
 12
11919.12750789964
 22
8226.279066364538
 32
0.0
 13
11919.12750789964
 23
8226.279066364538
 33
0.0
  0
LINE
  5
17564
330
17754
100
AcDbEntity
  8
HIKIDASHI
100
AcDbLine
 10
11911.53280362882
 20
8286.630706499991
 30
0.0
 11
11892.36982327521
 21
8280.90530835078
 31
0.0
  0
LINE
  5
17565
330
17754
100
AcDbEntity
  8
HIKIDASHI
100
AcDbLine
 10
12080.06461546906
 20
8272.906209049429
 30
0.0
 11
12119.12750789962
 21
8226.279066364538
 31
0.0
  0
LINE
  5
17566
330
17754
100
AcDbEntity
  8
HIKIDASHI
100
AcDbLine
 10
12119.12750789962
 20
8226.279066364538
 30
0.0
 11
12097.29843971446
 21
8283.054869152055
 31
0.0
  0
SOLID
  5
17567
330
17754
100
AcDbEntity
  8
HIKIDASHI
100
AcDbTrace
 10
12080.06461546906
 20
8272.906209049429
 30
0.0
 11
12097.29843971446
 21
8283.054869152055
 31
0.0
 12
12119.12750789962
 22
8226.279066364538
 32
0.0
 13
12119.12750789962
 23
8226.279066364538
 33
0.0
  0
LINE
  5
17568
330
17754
100
AcDbEntity
  8
HIKIDASHI
100
AcDbLine
 10
12097.29843971446
 20
8283.054869152055
 30
0.0
 11
12080.06461546906
 21
8272.906209049429
 31
0.0
  0
LINE
  5
17569
330
17754
100
AcDbEntity
  8
HIKIDASHI
100
AcDbLine
 10
11960.37386403543
 20
8039.223269126908
 30
0.0
 11
11990.80289742449
 21
8091.892747261857
 31
0.0
  0
LINE
  5
1756A
330
17754
100
AcDbEntity
  8
HIKIDASHI
100
AcDbLine
 10
11990.80289742449
 20
8091.892747261857
 30
0.0
 11
11944.93668374243
 21
8051.939143638763
 31
0.0
  0
SOLID
  5
1756B
330
17754
100
AcDbEntity
  8
HIKIDASHI
100
AcDbTrace
 10
11960.37386403543
 20
8039.223269126908
 30
0.0
 11
11944.93668374243
 21
8051.939143638763
 31
0.0
 12
11990.80289742449
 22
8091.892747261857
 32
0.0
 13
11990.80289742449
 23
8091.892747261857
 33
0.0
  0
LINE
  5
1756C
330
17754
100
AcDbEntity
  8
HIKIDASHI
100
AcDbLine
 10
11944.93668374243
 20
8051.939143638763
 30
0.0
 11
11960.37386403543
 21
8039.223269126908
 31
0.0
  0
LINE
  5
1756D
330
17754
100
AcDbEntity
  8
HIKIDASHI
100
AcDbLine
 10
11932.33797785663
 20
7777.723076755122
 30
0.0
 11
11979.21754150687
 21
7816.482675720589
 31
0.0
  0
LINE
  5
1756E
330
17754
100
AcDbEntity
  8
HIKIDASHI
100
AcDbLine
 10
11979.21754150687
 20
7816.482675720589
 30
0.0
 11
11922.30132757865
 21
7795.022373018195
 31
0.0
  0
SOLID
  5
1756F
330
17754
100
AcDbEntity
  8
HIKIDASHI
100
AcDbTrace
 10
11932.33797785663
 20
7777.723076755122
 30
0.0
 11
11922.30132757865
 21
7795.022373018195
 31
0.0
 12
11979.21754150687
 22
7816.482675720589
 32
0.0
 13
11979.21754150687
 23
7816.482675720589
 33
0.0
  0
LINE
  5
17570
330
17754
100
AcDbEntity
  8
HIKIDASHI
100
AcDbLine
 10
11922.30132757865
 20
7795.022373018195
 30
0.0
 11
11932.33797785663
 21
7777.723076755122
 31
0.0
  0
ARC
  5
17572
330
17754
100
AcDbEntity
  8
HIKIDASHI
100
AcDbCircle
 10
11355.19383586433
 20
9046.065929449678
 30
0.0
 40
74.66417910452284
100
AcDbArc
 50
164.8596129850635
 51
237.5045002941574
  0
ARC
  5
17573
330
17754
100
AcDbEntity
  8
HIKIDASHI
100
AcDbCircle
 10
11291.77004181803
 20
9063.226952934163
 30
0.0
 40
8.959701492542743
100
AcDbArc
 50
15.14038701504826
 51
164.8596129849517
  0
LINE
  5
17574
330
17754
100
AcDbEntity
  8
HIKIDASHI
100
AcDbLine
 10
3729.755090521487
 20
3016.981760727375
 30
0.0
 11
3997.930010252171
 21
3511.260118325356
 31
0.0
1001
ACAD
1000
DSTYLE
1002
{
1070
   147
1040
1.125
1070
    77
1070
     0
1070
   144
1040
0.625
1002
}
  0
LINE
  5
17575
330
17754
100
AcDbEntity
  8
HIKIDASHI
100
AcDbLine
 10
3715.105699276657
 20
3024.929912332225
 30
0.0
 11
3682.066180892382
 21
2929.085413258397
 31
0.0
  0
LINE
  5
17576
330
17754
100
AcDbEntity
  8
HIKIDASHI
100
AcDbLine
 10
3682.066180892382
 20
2929.085413258397
 30
0.0
 11
3744.404481766316
 21
3009.033609122524
 31
0.0
  0
SOLID
  5
17577
330
17754
100
AcDbEntity
  8
HIKIDASHI
100
AcDbTrace
 10
3715.105699276657
 20
3024.929912332225
 30
0.0
 11
3744.404481766316
 21
3009.033609122524
 31
0.0
 12
3682.066180892382
 22
2929.085413258397
 32
0.0
 13
3682.066180892382
 23
2929.085413258397
 33
0.0
  0
LINE
  5
17578
330
17754
100
AcDbEntity
  8
HIKIDASHI
100
AcDbLine
 10
3744.404481766316
 20
3009.033609122524
 30
0.0
 11
3715.105699276657
 21
3024.929912332225
 31
0.0
  0
ARC
  5
17579
330
17754
100
AcDbEntity
  8
HIKIDASHI
100
AcDbCircle
 10
5258.530872072402
 20
3642.824974207808
 30
0.0
 40
74.66417910452252
100
AcDbArc
 50
301.7712278330703
 51
15.14038701490934
  0
LINE
  5
1757A
330
17754
100
AcDbEntity
  8
HIKIDASHI
100
AcDbLine
 10
2729.500491295242
 20
2382.576996701931
 30
0.0
 11
2124.975130930299
 21
2177.621202421254
 31
0.0
1001
ACAD
1000
DSTYLE
1002
{
1070
   147
1040
1.125
1070
    77
1070
     0
1070
   144
1040
0.625
1002
}
  0
LINE
  5
1757B
330
17754
100
AcDbEntity
  8
HIKIDASHI
100
AcDbLine
 10
2734.851894054653
 20
2366.792818982316
 30
0.0
 11
2824.205557612924
 21
2414.685413258395
 31
0.0
  0
LINE
  5
1757C
330
17754
100
AcDbEntity
  8
HIKIDASHI
100
AcDbLine
 10
2824.205557612924
 20
2414.685413258395
 30
0.0
 11
2724.149088535832
 21
2398.361174421545
 31
0.0
  0
SOLID
  5
1757D
330
17754
100
AcDbEntity
  8
HIKIDASHI
100
AcDbTrace
 10
2734.851894054653
 20
2366.792818982316
 30
0.0
 11
2724.149088535832
 21
2398.361174421545
 31
0.0
 12
2824.205557612924
 22
2414.685413258395
 32
0.0
 13
2824.205557612924
 23
2414.685413258395
 33
0.0
  0
LINE
  5
1757E
330
17754
100
AcDbEntity
  8
HIKIDASHI
100
AcDbLine
 10
2724.149088535832
 20
2398.361174421545
 30
0.0
 11
2734.851894054653
 21
2366.792818982316
 31
0.0
  0
LINE
  5
1757F
330
17754
100
AcDbEntity
  8
HIKIDASHI
100
AcDbLine
 10
2630.72410894159
 20
2491.904106357348
 30
0.0
 11
2119.067099341151
 21
2582.51599324206
 31
0.0
1001
ACAD
1000
DSTYLE
1002
{
1070
   147
1040
1.125
1070
    77
1070
     0
1070
   144
1040
0.625
1002
}
  0
LINE
  5
17580
330
17754
100
AcDbEntity
  8
HIKIDASHI
100
AcDbLine
 10
2627.817749665133
 20
2475.492803741957
 30
0.0
 11
2729.191924633934
 21
2474.465950698605
 31
0.0
  0
LINE
  5
17581
330
17754
100
AcDbEntity
  8
HIKIDASHI
100
AcDbLine
 10
2729.191924633934
 20
2474.465950698605
 30
0.0
 11
2633.630468218048
 21
2508.31540897274
 31
0.0
  0
SOLID
  5
17582
330
17754
100
AcDbEntity
  8
HIKIDASHI
100
AcDbTrace
 10
2627.817749665133
 20
2475.492803741957
 30
0.0
 11
2633.630468218048
 21
2508.31540897274
 31
0.0
 12
2729.191924633934
 22
2474.465950698605
 32
0.0
 13
2729.191924633934
 23
2474.465950698605
 33
0.0
  0
LINE
  5
17583
330
17754
100
AcDbEntity
  8
HIKIDASHI
100
AcDbLine
 10
2633.630468218048
 20
2508.31540897274
 30
0.0
 11
2627.817749665133
 21
2475.492803741957
 31
0.0
  0
ARC
  5
17584
330
17754
100
AcDbEntity
  8
HIKIDASHI
100
AcDbCircle
 10
11229.52577430745
 20
9047.246056809269
 30
0.0
 40
74.6641791045229
100
AcDbArc
 50
301.7712278330701
 51
15.14038701490968
  0
LINE
  5
17625
330
17754
100
AcDbEntity
  8
HATCH
100
AcDbLine
 10
2168.429052763183
 20
1869.885413258403
 30
0.0
 11
2260.805095833532
 21
2029.885413258417
 31
0.0
  0
LINE
  5
17626
330
17754
100
AcDbEntity
  8
HATCH
100
AcDbLine
 10
2196.805095833527
 20
2029.885413258416
 30
0.0
 11
2228.805095833529
 21
1974.459787416211
 31
0.0
  0
LINE
  5
17627
330
17754
100
AcDbEntity
  8
HATCH
100
AcDbLine
 10
2200.429052763186
 20
1925.311039100614
 30
0.0
 11
2232.429052763189
 21
1869.885413258403
 31
0.0
  0
LINE
  5
17628
330
17754
100
AcDbEntity
  8
HATCH
100
AcDbLine
 10
6746.477527976242
 20
2491.333194071255
 30
0.0
 11
7386.477527976298
 21
3131.333194071311
 31
0.0
  0
LINE
  5
17629
330
17754
100
AcDbEntity
  8
HATCH
100
AcDbLine
 10
6468.306062187011
 20
2778.847153231295
 30
0.0
 11
6820.792103027004
 21
3131.333194071311
 31
0.0
  0
LINE
  5
1762A
330
17754
100
AcDbEntity
  8
HATCH
100
AcDbLine
 10
7312.162952925525
 20
2491.333194071255
 30
0.0
 11
7952.16295292558
 21
3131.333194071311
 31
0.0
  0
LINE
  5
1762B
330
17754
100
AcDbEntity
  8
HATCH
100
AcDbLine
 10
7877.848377874808
 20
2491.333194071255
 30
0.0
 11
8517.848377874878
 21
3131.333194071311
 31
0.0
  0
LINE
  5
1762C
330
17754
100
AcDbEntity
  8
HATCH
100
AcDbLine
 10
8443.533802824106
 20
2491.333194071255
 30
0.0
 11
8532.306062187188
 21
2580.105453434327
 31
0.0
  0
LINE
  5
1762D
330
17754
100
AcDbEntity
  8
HATCH
100
AcDbLine
 10
6675.766849857588
 20
2491.333194071255
 30
0.0
 11
7315.766849857642
 21
3131.333194071311
 31
0.0
  0
LINE
  5
1762E
330
17754
100
AcDbEntity
  8
HATCH
100
AcDbLine
 10
6468.306062187011
 20
2849.557831349957
 30
0.0
 11
6750.08142490836
 21
3131.333194071311
 31
0.0
  0
LINE
  5
1762F
330
17754
100
AcDbEntity
  8
HATCH
100
AcDbLine
 10
7241.452274806864
 20
2491.333194071255
 30
0.0
 11
7881.452274806918
 21
3131.333194071311
 31
0.0
  0
LINE
  5
17630
330
17754
100
AcDbEntity
  8
HATCH
100
AcDbLine
 10
7807.13769975616
 20
2491.333194071255
 30
0.0
 11
8447.137699756215
 21
3131.333194071311
 31
0.0
  0
LINE
  5
17631
330
17754
100
AcDbEntity
  8
HATCH
100
AcDbLine
 10
8372.82312470544
 20
2491.333194071255
 30
0.0
 11
8532.306062187188
 21
2650.816131552989
 31
0.0
  0
LINE
  5
17632
330
17754
100
AcDbEntity
  8
HATCH
100
AcDbLine
 10
7170.741596688205
 20
2491.333194071255
 30
0.0
 11
7810.741596688258
 21
3131.333194071311
 31
0.0
  0
LINE
  5
17633
330
17754
100
AcDbEntity
  8
HATCH
100
AcDbLine
 10
6605.056171738922
 20
2491.333194071255
 30
0.0
 11
7245.056171738976
 21
3131.333194071311
 31
0.0
  0
LINE
  5
17634
330
17754
100
AcDbEntity
  8
HATCH
100
AcDbLine
 10
6468.306062187011
 20
2920.268509468618
 30
0.0
 11
6679.370746789698
 21
3131.333194071311
 31
0.0
  0
LINE
  5
17635
330
17754
100
AcDbEntity
  8
HATCH
100
AcDbLine
 10
7736.427021637497
 20
2491.333194071255
 30
0.0
 11
8376.427021637551
 21
3131.333194071311
 31
0.0
  0
LINE
  5
17636
330
17754
100
AcDbEntity
  8
HATCH
100
AcDbLine
 10
8302.112446586781
 20
2491.333194071255
 30
0.0
 11
8532.306062187188
 21
2721.52680967165
 31
0.0
  0
LINE
  5
17637
330
17754
100
AcDbEntity
  8
HATCH
100
AcDbLine
 10
4600.429052763
 20
2877.885413258394
 30
0.0
 11
4655.85467860514
 21
2973.885413258284
 31
0.0
  0
LINE
  5
17638
330
17754
100
AcDbEntity
  8
HATCH
100
AcDbLine
 10
4617.454678605183
 20
2973.885413258283
 30
0.0
 11
4636.654678605163
 21
2940.630037753001
 31
0.0
  0
LINE
  5
17639
330
17754
100
AcDbEntity
  8
HATCH
100
AcDbLine
 10
4619.629052762979
 20
2911.140788763679
 30
0.0
 11
4638.829052762956
 21
2877.885413258394
 31
0.0
  0
LINE
  5
1763A
330
17754
100
AcDbEntity
  8
HATCH
100
AcDbLine
 10
4456.429052763
 20
2877.885413258394
 30
0.0
 11
4511.854678605141
 21
2973.885413258284
 31
0.0
  0
LINE
  5
1763B
330
17754
100
AcDbEntity
  8
HATCH
100
AcDbLine
 10
4473.454678605185
 20
2973.885413258283
 30
0.0
 11
4492.654678605163
 21
2940.630037753001
 31
0.0
  0
LINE
  5
1763C
330
17754
100
AcDbEntity
  8
HATCH
100
AcDbLine
 10
4475.629052762979
 20
2911.140788763679
 30
0.0
 11
4494.829052762955
 21
2877.885413258394
 31
0.0
  0
LINE
  5
1763D
330
17754
100
AcDbEntity
  8
HATCH
100
AcDbLine
 10
4312.429052763
 20
2877.885413258394
 30
0.0
 11
4367.854678605141
 21
2973.885413258284
 31
0.0
  0
LINE
  5
1763E
330
17754
100
AcDbEntity
  8
HATCH
100
AcDbLine
 10
4329.454678605185
 20
2973.885413258283
 30
0.0
 11
4348.654678605163
 21
2940.630037753001
 31
0.0
  0
LINE
  5
1763F
330
17754
100
AcDbEntity
  8
HATCH
100
AcDbLine
 10
4331.629052762979
 20
2911.140788763679
 30
0.0
 11
4350.829052762956
 21
2877.885413258394
 31
0.0
  0
LINE
  5
17640
330
17754
100
AcDbEntity
  8
HATCH
100
AcDbLine
 10
3848.429052763187
 20
1869.885413258397
 30
0.0
 11
3940.805095833534
 21
2029.88541325841
 31
0.0
  0
LINE
  5
17641
330
17754
100
AcDbEntity
  8
HATCH
100
AcDbLine
 10
3876.805095833528
 20
2029.885413258408
 30
0.0
 11
3908.805095833532
 21
1974.459787416203
 31
0.0
  0
LINE
  5
17642
330
17754
100
AcDbEntity
  8
HATCH
100
AcDbLine
 10
3880.429052763189
 20
1925.311039100607
 30
0.0
 11
3912.429052763192
 21
1869.885413258397
 31
0.0
  0
LINE
  5
17643
330
17754
100
AcDbEntity
  8
HATCH
100
AcDbLine
 10
3608.429052763178
 20
1869.885413258397
 30
0.0
 11
3700.805095833526
 21
2029.88541325841
 31
0.0
  0
LINE
  5
17644
330
17754
100
AcDbEntity
  8
HATCH
100
AcDbLine
 10
3636.805095833521
 20
2029.885413258408
 30
0.0
 11
3668.805095833524
 21
1974.459787416203
 31
0.0
  0
LINE
  5
17645
330
17754
100
AcDbEntity
  8
HATCH
100
AcDbLine
 10
3640.429052763181
 20
1925.311039100607
 30
0.0
 11
3672.429052763185
 21
1869.885413258397
 31
0.0
  0
LINE
  5
17646
330
17754
100
AcDbEntity
  8
HATCH
100
AcDbLine
 10
4088.429052763186
 20
1869.885413258397
 30
0.0
 11
4180.805095833534
 21
2029.88541325841
 31
0.0
  0
LINE
  5
17647
330
17754
100
AcDbEntity
  8
HATCH
100
AcDbLine
 10
4116.805095833529
 20
2029.885413258408
 30
0.0
 11
4148.80509583353
 21
1974.459787416203
 31
0.0
  0
LINE
  5
17648
330
17754
100
AcDbEntity
  8
HATCH
100
AcDbLine
 10
4120.429052763189
 20
1925.311039100607
 30
0.0
 11
4152.429052763191
 21
1869.885413258397
 31
0.0
  0
LINE
  5
17649
330
17754
100
AcDbEntity
  8
HATCH
100
AcDbLine
 10
2009.191924633769
 20
2877.885413258394
 30
0.0
 11
2064.617550475909
 21
2973.885413258284
 31
0.0
  0
LINE
  5
1764A
330
17754
100
AcDbEntity
  8
HATCH
100
AcDbLine
 10
2026.217550475954
 20
2973.885413258283
 30
0.0
 11
2045.417550475933
 21
2940.630037753001
 31
0.0
  0
LINE
  5
1764B
330
17754
100
AcDbEntity
  8
HATCH
100
AcDbLine
 10
2028.391924633747
 20
2911.140788763679
 30
0.0
 11
2047.591924633726
 21
2877.885413258394
 31
0.0
  0
LINE
  5
1764C
330
17754
100
AcDbEntity
  8
HATCH
100
AcDbLine
 10
2153.191924633769
 20
2877.885413258394
 30
0.0
 11
2208.61755047591
 21
2973.885413258284
 31
0.0
  0
LINE
  5
1764D
330
17754
100
AcDbEntity
  8
HATCH
100
AcDbLine
 10
2170.217550475955
 20
2973.885413258283
 30
0.0
 11
2189.417550475933
 21
2940.630037753001
 31
0.0
  0
LINE
  5
1764E
330
17754
100
AcDbEntity
  8
HATCH
100
AcDbLine
 10
2172.391924633747
 20
2911.140788763679
 30
0.0
 11
2191.591924633725
 21
2877.885413258394
 31
0.0
  0
LINE
  5
1764F
330
17754
100
AcDbEntity
  8
HATCH
100
AcDbLine
 10
1865.191924633768
 20
2877.885413258394
 30
0.0
 11
1920.61755047591
 21
2973.885413258284
 31
0.0
  0
LINE
  5
17650
330
17754
100
AcDbEntity
  8
HATCH
100
AcDbLine
 10
1882.217550475953
 20
2973.885413258283
 30
0.0
 11
1901.417550475932
 21
2940.630037753001
 31
0.0
  0
LINE
  5
17651
330
17754
100
AcDbEntity
  8
HATCH
100
AcDbLine
 10
1884.391924633748
 20
2911.140788763679
 30
0.0
 11
1903.591924633726
 21
2877.885413258394
 31
0.0
  0
LINE
  5
17652
330
17754
100
AcDbEntity
  8
HATCH
100
AcDbLine
 10
1721.191924633768
 20
2877.885413258394
 30
0.0
 11
1776.61755047591
 21
2973.885413258284
 31
0.0
  0
LINE
  5
17653
330
17754
100
AcDbEntity
  8
HATCH
100
AcDbLine
 10
1738.217550475954
 20
2973.885413258283
 30
0.0
 11
1757.417550475932
 21
2940.630037753001
 31
0.0
  0
LINE
  5
17654
330
17754
100
AcDbEntity
  8
HATCH
100
AcDbLine
 10
1740.391924633748
 20
2911.140788763679
 30
0.0
 11
1759.591924633725
 21
2877.885413258394
 31
0.0
  0
LINE
  5
17655
330
17754
100
AcDbEntity
  8
HATCH
100
AcDbLine
 10
3128.429052763179
 20
1869.885413258395
 30
0.0
 11
3220.805095833527
 21
2029.885413258408
 31
0.0
  0
LINE
  5
17656
330
17754
100
AcDbEntity
  8
HATCH
100
AcDbLine
 10
3156.805095833521
 20
2029.885413258408
 30
0.0
 11
3188.805095833525
 21
1974.459787416202
 31
0.0
  0
LINE
  5
17657
330
17754
100
AcDbEntity
  8
HATCH
100
AcDbLine
 10
3160.429052763181
 20
1925.311039100606
 30
0.0
 11
3192.429052763184
 21
1869.885413258395
 31
0.0
  0
LINE
  5
17658
330
17754
100
AcDbEntity
  8
HATCH
100
AcDbLine
 10
2888.429052763179
 20
1869.885413258395
 30
0.0
 11
2980.805095833527
 21
2029.885413258408
 31
0.0
  0
LINE
  5
17659
330
17754
100
AcDbEntity
  8
HATCH
100
AcDbLine
 10
2916.805095833521
 20
2029.885413258408
 30
0.0
 11
2948.805095833524
 21
1974.459787416202
 31
0.0
  0
LINE
  5
1765A
330
17754
100
AcDbEntity
  8
HATCH
100
AcDbLine
 10
2920.429052763182
 20
1925.311039100606
 30
0.0
 11
2952.429052763184
 21
1869.885413258395
 31
0.0
  0
LINE
  5
1765B
330
17754
100
AcDbEntity
  8
HATCH
100
AcDbLine
 10
3368.429052763179
 20
1869.885413258397
 30
0.0
 11
3460.805095833527
 21
2029.88541325841
 31
0.0
  0
LINE
  5
1765C
330
17754
100
AcDbEntity
  8
HATCH
100
AcDbLine
 10
3396.805095833522
 20
2029.885413258408
 30
0.0
 11
3428.805095833524
 21
1974.459787416203
 31
0.0
  0
LINE
  5
1765D
330
17754
100
AcDbEntity
  8
HATCH
100
AcDbLine
 10
3400.429052763182
 20
1925.311039100607
 30
0.0
 11
3432.429052763184
 21
1869.885413258397
 31
0.0
  0
LINE
  5
1765E
330
17754
100
AcDbEntity
  8
HATCH
100
AcDbLine
 10
2648.429052763179
 20
1869.885413258395
 30
0.0
 11
2740.805095833527
 21
2029.885413258408
 31
0.0
  0
LINE
  5
1765F
330
17754
100
AcDbEntity
  8
HATCH
100
AcDbLine
 10
2676.805095833522
 20
2029.885413258408
 30
0.0
 11
2708.805095833525
 21
1974.459787416202
 31
0.0
  0
LINE
  5
17660
330
17754
100
AcDbEntity
  8
HATCH
100
AcDbLine
 10
2680.429052763182
 20
1925.311039100606
 30
0.0
 11
2712.429052763184
 21
1869.885413258395
 31
0.0
  0
LINE
  5
17661
330
17754
100
AcDbEntity
  8
HATCH
100
AcDbLine
 10
2408.429052763179
 20
1869.885413258395
 30
0.0
 11
2500.805095833527
 21
2029.885413258408
 31
0.0
  0
LINE
  5
17662
330
17754
100
AcDbEntity
  8
HATCH
100
AcDbLine
 10
2436.805095833522
 20
2029.885413258408
 30
0.0
 11
2468.805095833523
 21
1974.459787416202
 31
0.0
  0
LINE
  5
17663
330
17754
100
AcDbEntity
  8
HATCH
100
AcDbLine
 10
2440.429052763182
 20
1925.311039100606
 30
0.0
 11
2472.429052763184
 21
1869.885413258395
 31
0.0
  0
LINE
  5
17664
330
17754
100
AcDbEntity
  8
KISO
100
AcDbLine
 10
6468.306062185526
 20
1851.333194070899
 30
0.0
 11
8532.306062185526
 21
1851.333194070899
 31
0.0
  0
LINE
  5
17665
330
17754
100
AcDbEntity
  8
KISO
100
AcDbLine
 10
8532.306062185526
 20
1851.333194070899
 30
0.0
 11
8532.306062185526
 21
3131.333194070899
 31
0.0
  0
LINE
  5
17666
330
17754
100
AcDbEntity
  8
KISO
100
AcDbLine
 10
8532.306062185526
 20
3131.333194070899
 30
0.0
 11
6468.306062185526
 21
3131.333194070899
 31
0.0
  0
LINE
  5
17667
330
17754
100
AcDbEntity
  8
KISO
100
AcDbLine
 10
6468.306062185526
 20
3131.333194070899
 30
0.0
 11
6468.306062185526
 21
1851.333194070899
 31
0.0
  0
LINE
  5
17668
330
17754
100
AcDbEntity
  8
HASIRA
100
AcDbLine
 10
3582.946180892386
 20
2897.085413258397
 30
0.0
 11
3582.946180892386
 21
3406.742322023879
 31
0.0
  0
LINE
  5
17669
330
17754
100
AcDbEntity
  8
TENSEN-1
100
AcDbLine
 10
3730.066180892381
 20
2277.885413258398
 30
0.0
 11
3682.066180892382
 21
2277.885413258395
 31
0.0
  0
LINE
  5
1766A
330
17754
100
AcDbEntity
  8
TENSEN-1
100
AcDbLine
 10
3682.066180892382
 20
2277.885413258395
 30
0.0
 11
3682.066180892382
 21
2929.085413258397
 31
0.0
  0
LINE
  5
1766B
330
17754
100
AcDbEntity
  8
TENSEN-1
100
AcDbLine
 10
3682.066180892382
 20
2929.085413258397
 30
0.0
 11
3661.266180892382
 21
2929.085413258397
 31
0.0
  0
LINE
  5
1766C
330
17754
100
AcDbEntity
  8
TENSEN-1
100
AcDbLine
 10
3661.266180892382
 20
2929.085413258397
 30
0.0
 11
3661.266180892382
 21
2257.085413258395
 31
0.0
  0
LINE
  5
1766D
330
17754
100
AcDbEntity
  8
TENSEN-1
100
AcDbLine
 10
3661.266180892382
 20
2257.085413258395
 30
0.0
 11
3730.066180892381
 21
2257.085413258398
 31
0.0
  0
LINE
  5
1766E
330
17754
100
AcDbEntity
  8
TENSEN-1
100
AcDbLine
 10
3730.066180892381
 20
2257.085413258398
 30
0.0
 11
3730.066180892381
 21
2277.885413258398
 31
0.0
  0
LINE
  5
1766F
330
17754
100
AcDbEntity
  8
KISO
100
AcDbLine
 10
2825.191924633934
 20
2877.885413258399
 30
0.0
 11
3273.191924633936
 21
2877.885413258399
 31
0.0
  0
LINE
  5
17670
330
17754
100
AcDbEntity
  8
KISO
100
AcDbLine
 10
3273.191924633936
 20
2877.885413258399
 30
0.0
 11
3273.191924633936
 21
2897.085413258397
 31
0.0
  0
LINE
  5
17671
330
17754
100
AcDbEntity
  8
KISO
100
AcDbLine
 10
3273.191924633936
 20
2897.085413258397
 30
0.0
 11
2825.191924633934
 21
2897.085413258397
 31
0.0
  0
LINE
  5
17672
330
17754
100
AcDbEntity
  8
KISO
100
AcDbLine
 10
2825.191924633934
 20
2897.085413258397
 30
0.0
 11
2825.191924633934
 21
2877.885413258399
 31
0.0
  0
LINE
  5
17673
330
17754
100
AcDbEntity
  8
HASIRA
100
AcDbLine
 10
2977.911924633931
 20
2897.085413258397
 30
0.0
 11
2977.911924633931
 21
3406.742322023879
 31
0.0
  0
LINE
  5
17674
330
17754
100
AcDbEntity
  8
HASIRA
100
AcDbLine
 10
3120.471924633941
 20
2897.085413258397
 30
0.0
 11
3120.471924633941
 21
3406.742322023879
 31
0.0
  0
LINE
  5
17675
330
17754
100
AcDbEntity
  8
TENSEN-1
100
AcDbLine
 10
2830.791924633935
 20
2277.885413258398
 30
0.0
 11
2878.791924633935
 21
2277.885413258395
 31
0.0
  0
LINE
  5
17676
330
17754
100
AcDbEntity
  8
TENSEN-1
100
AcDbLine
 10
2878.791924633935
 20
2277.885413258395
 30
0.0
 11
2878.791924633935
 21
2929.085413258397
 31
0.0
  0
LINE
  5
17677
330
17754
100
AcDbEntity
  8
TENSEN-1
100
AcDbLine
 10
2878.791924633935
 20
2929.085413258397
 30
0.0
 11
2899.591924633936
 21
2929.085413258397
 31
0.0
  0
LINE
  5
17678
330
17754
100
AcDbEntity
  8
TENSEN-1
100
AcDbLine
 10
2899.591924633936
 20
2929.085413258397
 30
0.0
 11
2899.591924633936
 21
2257.085413258395
 31
0.0
  0
LINE
  5
17679
330
17754
100
AcDbEntity
  8
TENSEN-1
100
AcDbLine
 10
2899.591924633936
 20
2257.085413258395
 30
0.0
 11
2830.791924633935
 21
2257.085413258398
 31
0.0
  0
LINE
  5
1767A
330
17754
100
AcDbEntity
  8
TENSEN-1
100
AcDbLine
 10
2830.791924633935
 20
2257.085413258398
 30
0.0
 11
2830.791924633935
 21
2277.885413258398
 31
0.0
  0
LINE
  5
1767B
330
17754
100
AcDbEntity
  8
TENSEN-1
100
AcDbLine
 10
3267.591924633942
 20
2277.885413258398
 30
0.0
 11
3219.591924633942
 21
2277.885413258398
 31
0.0
  0
LINE
  5
1767C
330
17754
100
AcDbEntity
  8
TENSEN-1
100
AcDbLine
 10
3219.591924633942
 20
2277.885413258398
 30
0.0
 11
3219.591924633942
 21
2929.085413258397
 31
0.0
  0
LINE
  5
1767D
330
17754
100
AcDbEntity
  8
TENSEN-1
100
AcDbLine
 10
3219.591924633942
 20
2929.085413258397
 30
0.0
 11
3198.791924633936
 21
2929.085413258397
 31
0.0
  0
LINE
  5
1767E
330
17754
100
AcDbEntity
  8
TENSEN-1
100
AcDbLine
 10
3198.791924633936
 20
2929.085413258397
 30
0.0
 11
3198.791924633936
 21
2257.085413258395
 31
0.0
  0
LINE
  5
1767F
330
17754
100
AcDbEntity
  8
TENSEN-1
100
AcDbLine
 10
3198.791924633936
 20
2257.085413258395
 30
0.0
 11
3267.591924633936
 21
2257.085413258398
 31
0.0
  0
LINE
  5
17680
330
17754
100
AcDbEntity
  8
TENSEN-1
100
AcDbLine
 10
3267.591924633936
 20
2257.085413258398
 30
0.0
 11
3267.591924633942
 21
2277.885413258398
 31
0.0
  0
LINE
  5
17681
330
17754
100
AcDbEntity
  8
TENSEN-1
100
AcDbLine
 10
3293.266180892382
 20
2277.885413258398
 30
0.0
 11
3341.266180892382
 21
2277.885413258398
 31
0.0
  0
LINE
  5
17682
330
17754
100
AcDbEntity
  8
TENSEN-1
100
AcDbLine
 10
3341.266180892382
 20
2277.885413258398
 30
0.0
 11
3341.266180892382
 21
2929.085413258397
 31
0.0
  0
LINE
  5
17683
330
17754
100
AcDbEntity
  8
TENSEN-1
100
AcDbLine
 10
3341.266180892382
 20
2929.085413258397
 30
0.0
 11
3362.066180892381
 21
2929.085413258397
 31
0.0
  0
LINE
  5
17684
330
17754
100
AcDbEntity
  8
TENSEN-1
100
AcDbLine
 10
3362.066180892381
 20
2929.085413258397
 30
0.0
 11
3362.066180892381
 21
2257.085413258395
 31
0.0
  0
LINE
  5
17685
330
17754
100
AcDbEntity
  8
TENSEN-1
100
AcDbLine
 10
3362.066180892381
 20
2257.085413258395
 30
0.0
 11
3293.266180892382
 21
2257.085413258398
 31
0.0
  0
LINE
  5
17686
330
17754
100
AcDbEntity
  8
TENSEN-1
100
AcDbLine
 10
3293.266180892382
 20
2257.085413258398
 30
0.0
 11
3293.266180892382
 21
2277.885413258398
 31
0.0
  0
LINE
  5
17687
330
17754
100
AcDbEntity
  8
1PL-M1
100
AcDbLine
 10
3511.666180892382
 20
1525.898498232149
 30
0.0
 11
3511.666180892382
 21
3406.742322023879
 31
0.0
  0
LINE
  5
17688
330
17754
100
AcDbEntity
  8
1PL-M1
100
AcDbLine
 10
3049.191924633944
 20
1525.898498232149
 30
0.0
 11
3049.191924633935
 21
3406.742322023879
 31
0.0
  0
LINE
  5
17689
330
17754
100
AcDbEntity
  8
KISO
100
AcDbLine
 10
3735.666180892382
 20
2877.885413258399
 30
0.0
 11
3287.666180892382
 21
2877.885413258399
 31
0.0
  0
LINE
  5
1768A
330
17754
100
AcDbEntity
  8
KISO
100
AcDbLine
 10
3287.666180892382
 20
2877.885413258399
 30
0.0
 11
3287.666180892382
 21
2897.085413258397
 31
0.0
  0
LINE
  5
1768B
330
17754
100
AcDbEntity
  8
KISO
100
AcDbLine
 10
3287.666180892382
 20
2897.085413258397
 30
0.0
 11
3735.666180892382
 21
2897.085413258397
 31
0.0
  0
LINE
  5
1768C
330
17754
100
AcDbEntity
  8
KISO
100
AcDbLine
 10
3735.666180892382
 20
2897.085413258397
 30
0.0
 11
3735.666180892382
 21
2877.885413258399
 31
0.0
  0
LINE
  5
1768D
330
17754
100
AcDbEntity
  8
KISO-2
100
AcDbLine
 10
11879.12750789964
 20
7986.279066364534
 30
0.0
 11
12159.12750789962
 21
7986.279066364534
 31
0.0
  0
LINE
  5
1768E
330
17754
100
AcDbEntity
  8
KISO-2
100
AcDbLine
 10
12159.12750789962
 20
7986.279066364534
 30
0.0
 11
12159.12750789962
 21
8266.279066364537
 31
0.0
  0
LINE
  5
1768F
330
17754
100
AcDbEntity
  8
KISO-2
100
AcDbLine
 10
12159.12750789962
 20
8266.279066364537
 30
0.0
 11
11879.12750789964
 21
8266.279066364537
 31
0.0
  0
LINE
  5
17690
330
17754
100
AcDbEntity
  8
KISO-2
100
AcDbLine
 10
11879.12750789964
 20
8266.279066364537
 30
0.0
 11
11879.12750789964
 21
7986.279066364534
 31
0.0
  0
LINE
  5
17691
330
17754
100
AcDbEntity
  8
KISO-2
100
AcDbLine
 10
11879.12750789964
 20
7696.279066364535
 30
0.0
 11
12159.12750789962
 21
7696.279066364535
 31
0.0
  0
LINE
  5
17692
330
17754
100
AcDbEntity
  8
KISO-2
100
AcDbLine
 10
12159.12750789962
 20
7696.279066364535
 30
0.0
 11
12159.12750789962
 21
7976.279066364536
 31
0.0
  0
LINE
  5
17693
330
17754
100
AcDbEntity
  8
KISO-2
100
AcDbLine
 10
12159.12750789962
 20
7976.279066364536
 30
0.0
 11
11879.12750789964
 21
7976.279066364536
 31
0.0
  0
LINE
  5
17694
330
17754
100
AcDbEntity
  8
KISO-2
100
AcDbLine
 10
11879.12750789964
 20
7976.279066364536
 30
0.0
 11
11879.12750789964
 21
7696.279066364535
 31
0.0
  0
LINE
  5
17695
330
17754
100
AcDbEntity
  8
KISO-2
100
AcDbLine
 10
9479.127507899645
 20
7986.279066364534
 30
0.0
 11
9759.127507899645
 21
7986.279066364534
 31
0.0
  0
LINE
  5
17696
330
17754
100
AcDbEntity
  8
KISO-2
100
AcDbLine
 10
9759.127507899645
 20
7986.279066364534
 30
0.0
 11
9759.127507899645
 21
8266.279066364537
 31
0.0
  0
LINE
  5
17697
330
17754
100
AcDbEntity
  8
KISO-2
100
AcDbLine
 10
9759.127507899645
 20
8266.279066364537
 30
0.0
 11
9479.127507899645
 21
8266.279066364537
 31
0.0
  0
LINE
  5
17698
330
17754
100
AcDbEntity
  8
KISO-2
100
AcDbLine
 10
9479.127507899645
 20
8266.279066364537
 30
0.0
 11
9479.127507899645
 21
7986.279066364534
 31
0.0
  0
LINE
  5
17699
330
17754
100
AcDbEntity
  8
KISO-2
100
AcDbLine
 10
9479.127507899645
 20
7696.279066364535
 30
0.0
 11
9759.127507899645
 21
7696.279066364535
 31
0.0
  0
LINE
  5
1769A
330
17754
100
AcDbEntity
  8
KISO-2
100
AcDbLine
 10
9759.127507899645
 20
7696.279066364535
 30
0.0
 11
9759.127507899645
 21
7976.279066364536
 31
0.0
  0
LINE
  5
1769B
330
17754
100
AcDbEntity
  8
KISO-2
100
AcDbLine
 10
9759.127507899645
 20
7976.279066364536
 30
0.0
 11
9479.127507899645
 21
7976.279066364536
 31
0.0
  0
LINE
  5
1769C
330
17754
100
AcDbEntity
  8
KISO-2
100
AcDbLine
 10
9479.127507899645
 20
7976.279066364536
 30
0.0
 11
9479.127507899645
 21
7696.279066364535
 31
0.0
  0
LINE
  5
1769D
330
17754
100
AcDbEntity
  8
KISO-3
100
AcDbLine
 10
9859.127507899644
 20
8366.279066364535
 30
0.0
 11
9859.127507899644
 21
7596.279066364536
 31
0.0
  0
LINE
  5
1769E
330
17754
100
AcDbEntity
  8
KISO-3
100
AcDbLine
 10
9859.127507899644
 20
7596.279066364536
 30
0.0
 11
9379.127507899644
 21
7596.279066364536
 31
0.0
  0
LINE
  5
1769F
330
17754
100
AcDbEntity
  8
KISO-3
100
AcDbLine
 10
9379.127507899644
 20
7596.279066364536
 30
0.0
 11
9379.127507899644
 21
8366.279066364535
 31
0.0
  0
LINE
  5
176A0
330
17754
100
AcDbEntity
  8
KISO-3
100
AcDbLine
 10
12259.12750789962
 20
8366.279066364535
 30
0.0
 11
12259.12750789962
 21
7596.279066364536
 31
0.0
  0
LINE
  5
176A1
330
17754
100
AcDbEntity
  8
KISO-3
100
AcDbLine
 10
12259.12750789962
 20
7596.279066364536
 30
0.0
 11
11779.12750789964
 21
7596.279066364536
 31
0.0
  0
LINE
  5
176A2
330
17754
100
AcDbEntity
  8
KISO-3
100
AcDbLine
 10
11779.12750789964
 20
7596.279066364536
 30
0.0
 11
11779.12750789964
 21
8366.279066364535
 31
0.0
  0
LINE
  5
176A3
330
17754
100
AcDbEntity
  8
KISO-2
100
AcDbLine
 10
6679.127507899645
 20
7986.279066364534
 30
0.0
 11
6959.127507899643
 21
7986.279066364534
 31
0.0
  0
LINE
  5
176A4
330
17754
100
AcDbEntity
  8
KISO-2
100
AcDbLine
 10
6959.127507899643
 20
7986.279066364534
 30
0.0
 11
6959.127507899643
 21
8266.279066364537
 31
0.0
  0
LINE
  5
176A5
330
17754
100
AcDbEntity
  8
KISO-2
100
AcDbLine
 10
6959.127507899643
 20
8266.279066364537
 30
0.0
 11
6679.127507899645
 21
8266.279066364537
 31
0.0
  0
LINE
  5
176A6
330
17754
100
AcDbEntity
  8
KISO-2
100
AcDbLine
 10
6679.127507899645
 20
8266.279066364537
 30
0.0
 11
6679.127507899645
 21
7986.279066364534
 31
0.0
  0
LINE
  5
176A7
330
17754
100
AcDbEntity
  8
KISO-2
100
AcDbLine
 10
6679.127507899645
 20
7696.279066364535
 30
0.0
 11
6959.127507899643
 21
7696.279066364535
 31
0.0
  0
LINE
  5
176A8
330
17754
100
AcDbEntity
  8
KISO-2
100
AcDbLine
 10
6959.127507899643
 20
7696.279066364535
 30
0.0
 11
6959.127507899643
 21
7976.279066364536
 31
0.0
  0
LINE
  5
176A9
330
17754
100
AcDbEntity
  8
KISO-2
100
AcDbLine
 10
6959.127507899643
 20
7976.279066364536
 30
0.0
 11
6679.127507899645
 21
7976.279066364536
 31
0.0
  0
LINE
  5
176AA
330
17754
100
AcDbEntity
  8
KISO-2
100
AcDbLine
 10
6679.127507899645
 20
7976.279066364536
 30
0.0
 11
6679.127507899645
 21
7696.279066364535
 31
0.0
  0
LINE
  5
176AB
330
17754
100
AcDbEntity
  8
KISO-3
100
AcDbLine
 10
7059.127507899645
 20
8366.279066364535
 30
0.0
 11
7059.127507899645
 21
7596.279066364536
 31
0.0
  0
LINE
  5
176AC
330
17754
100
AcDbEntity
  8
KISO-3
100
AcDbLine
 10
7059.127507899645
 20
7596.279066364536
 30
0.0
 11
6579.127507899645
 21
7596.279066364536
 31
0.0
  0
LINE
  5
176AD
330
17754
100
AcDbEntity
  8
KISO-3
100
AcDbLine
 10
6579.127507899645
 20
7596.279066364536
 30
0.0
 11
6579.127507899645
 21
8366.279066364535
 31
0.0
  0
LINE
  5
176AE
330
17754
100
AcDbEntity
  8
KISO-2
100
AcDbLine
 10
4279.127507899644
 20
7986.279066364534
 30
0.0
 11
4559.127507899644
 21
7986.279066364534
 31
0.0
  0
LINE
  5
176AF
330
17754
100
AcDbEntity
  8
KISO-2
100
AcDbLine
 10
4559.127507899644
 20
7986.279066364534
 30
0.0
 11
4559.127507899644
 21
8266.279066364537
 31
0.0
  0
LINE
  5
176B0
330
17754
100
AcDbEntity
  8
KISO-2
100
AcDbLine
 10
4559.127507899644
 20
8266.279066364537
 30
0.0
 11
4279.127507899644
 21
8266.279066364537
 31
0.0
  0
LINE
  5
176B1
330
17754
100
AcDbEntity
  8
KISO-2
100
AcDbLine
 10
4279.127507899644
 20
8266.279066364537
 30
0.0
 11
4279.127507899644
 21
7986.279066364534
 31
0.0
  0
LINE
  5
176B2
330
17754
100
AcDbEntity
  8
KISO-3
100
AcDbLine
 10
4659.127507899643
 20
8366.279066364535
 30
0.0
 11
4659.127507899643
 21
7596.279066364536
 31
0.0
  0
LINE
  5
176B3
330
17754
100
AcDbEntity
  8
KISO-3
100
AcDbLine
 10
4659.127507899643
 20
7596.279066364536
 30
0.0
 11
4179.127507899644
 21
7596.279066364536
 31
0.0
  0
LINE
  5
176B4
330
17754
100
AcDbEntity
  8
KISO-3
100
AcDbLine
 10
4179.127507899644
 20
7596.279066364536
 30
0.0
 11
4179.127507899644
 21
8366.279066364535
 31
0.0
  0
LINE
  5
176B5
330
17754
100
AcDbEntity
  8
KISO-2
100
AcDbLine
 10
4279.127507899644
 20
7696.279066364535
 30
0.0
 11
4559.127507899644
 21
7696.279066364535
 31
0.0
  0
LINE
  5
176B6
330
17754
100
AcDbEntity
  8
KISO-2
100
AcDbLine
 10
4559.127507899644
 20
7696.279066364535
 30
0.0
 11
4559.127507899644
 21
7976.279066364536
 31
0.0
  0
LINE
  5
176B7
330
17754
100
AcDbEntity
  8
KISO-2
100
AcDbLine
 10
4559.127507899644
 20
7976.279066364536
 30
0.0
 11
4279.127507899644
 21
7976.279066364536
 31
0.0
  0
LINE
  5
176B8
330
17754
100
AcDbEntity
  8
KISO-2
100
AcDbLine
 10
4279.127507899644
 20
7976.279066364536
 30
0.0
 11
4279.127507899644
 21
7696.279066364535
 31
0.0
  0
LINE
  5
176B9
330
17754
100
AcDbEntity
  8
DOMAKON
100
AcDbLine
 10
4019.127507899644
 20
10126.27906636454
 30
0.0
 11
8159.127507899645
 21
10126.27906636454
 31
0.0
  0
LINE
  5
176BA
330
17754
100
AcDbEntity
  8
YANE
100
AcDbLine
 10
8159.127507899645
 20
5962.729793983193
 30
0.0
 11
4197.326854848403
 21
5962.729793983193
 31
0.0
  0
LINE
  5
176BB
330
17754
100
AcDbEntity
  8
YANE
100
AcDbLine
 10
4197.326854848403
 20
5962.729793983193
 30
0.0
 11
4197.326854848403
 21
10000.82906636452
 31
0.0
  0
LINE
  5
176BC
330
17754
100
AcDbEntity
  8
YANE
100
AcDbLine
 10
4197.326854848403
 20
10000.82906636452
 30
0.0
 11
8159.127507899645
 21
10000.82906636454
 31
0.0
  0
LINE
  5
176BD
330
17754
100
AcDbEntity
  8
DOMAKON
100
AcDbLine
 10
8159.127507899645
 20
5836.279066364535
 30
0.0
 11
4019.127507899644
 21
5836.279066364536
 31
0.0
  0
LINE
  5
176BE
330
17754
100
AcDbEntity
  8
DOMAKON
100
AcDbLine
 10
4019.127507899644
 20
5836.279066364536
 30
0.0
 11
4019.127507899644
 21
10126.27906636454
 31
0.0
  0
LINE
  5
176BF
330
17754
100
AcDbEntity
  8
YANE
100
AcDbLine
 10
12240.92816095086
 20
5962.729793983193
 30
0.0
 11
8279.127507899648
 21
5962.729793983193
 31
0.0
  0
LINE
  5
176C0
330
17754
100
AcDbEntity
  8
YANE
100
AcDbLine
 10
8279.127507899648
 20
10000.82906636454
 30
0.0
 11
12240.92816095086
 21
10000.82906636452
 31
0.0
  0
LINE
  5
176C1
330
17754
100
AcDbEntity
  8
YANE
100
AcDbLine
 10
12240.92816095086
 20
10000.82906636452
 30
0.0
 11
12240.92816095086
 21
5962.729793983193
 31
0.0
  0
LINE
  5
176C2
330
17754
100
AcDbEntity
  8
DOMAKON
100
AcDbLine
 10
8279.127507899648
 20
10126.27906636454
 30
0.0
 11
12419.12750789962
 21
10126.27906636454
 31
0.0
  0
LINE
  5
176C3
330
17754
100
AcDbEntity
  8
DOMAKON
100
AcDbLine
 10
12419.12750789962
 20
10126.27906636454
 30
0.0
 11
12419.12750789962
 21
5836.279066364536
 31
0.0
  0
LINE
  5
176C4
330
17754
100
AcDbEntity
  8
DOMAKON
100
AcDbLine
 10
12419.12750789962
 20
5836.279066364536
 30
0.0
 11
8279.127507899648
 21
5836.279066364535
 31
0.0
  0
TEXT
  5
177DE
330
17754
100
AcDbEntity
  8
SUNPOU
100
AcDbText
 10
10432.57945526062
 20
3507.701692103938
 30
0.0
 40
89.9993750043402
  1
地耐力   　　　 以上,コンクリート設計基準強度　　　　　以上
  7
01
100
AcDbText
  0
TEXT
  5
177DF
330
17754
100
AcDbEntity
  8
SUNPOU
100
AcDbText
 10
10807.53520035001
 20
2356.987406389652
 30
0.0
 40
90.0
  1
所もありますので、ご注意願います。
  7
01
100
AcDbText
  0
TEXT
  5
177E0
330
17754
100
AcDbEntity
  8
SUNPOU
100
AcDbText
 10
10427.37296940153
 20
3854.455694549895
 30
0.0
 40
120.0
  1
基礎断面図
  7
01
 72
     4
 11
10767.37296940153
 21
3914.455694549895
 31
0.0
100
AcDbText
  0
TEXT
  5
177E1
330
17754
100
AcDbEntity
  8
SUNPOU
100
AcDbText
 10
10490.69553504789
 20
3128.415977818225
 30
0.0
 40
90.0
  1
注　）
  7
01
100
AcDbText
  0
TEXT
  5
177E2
330
17754
100
AcDbEntity
  8
SUNPOU
100
AcDbText
 10
10490.69553504789
 20
2665.558834961082
 30
0.0
 40
90.0
  1
注　）
  7
01
100
AcDbText
  0
TEXT
  5
177E3
330
17754
100
AcDbEntity
  8
SUNPOU
100
AcDbText
 10
10490.69553504789
 20
2819.844549246797
 30
0.0
 40
90.0
  1
注　）
  7
01
100
AcDbText
  0
TEXT
  5
177E4
330
17754
100
AcDbEntity
  8
SUNPOU
100
AcDbText
 10
10302.01582654439
 20
3696.955694549894
 30
0.0
 40
90.0
  1
<下記条件での参考図>
  7
01
 72
     4
 11
10890.87296940153
 21
3741.955694549894
 31
0.0
100
AcDbText
  0
TEXT
  5
177E5
330
17754
100
AcDbEntity
  8
SUNPOU
100
AcDbText
 10
10432.57945526062
 20
3353.415977818225
 30
0.0
 40
89.9993750043402
  1
基準風速   　　 , 地表面粗度区分
  7
01
100
AcDbText
  0
TEXT
  5
177E6
330
17754
100
AcDbEntity
  8
SUNPOU
100
AcDbText
 10
10601.32945526062
 20
2819.844549246797
 30
0.0
 40
90.0
  1
2
 41
0.6700000000000001
  7
01
100
AcDbText
  0
TEXT
  5
177E7
330
17754
100
AcDbEntity
  8
SUNPOU
100
AcDbText
 10
10601.32945526062
 20
2665.558834961082
 30
0.0
 40
90.0
  1
3
 41
0.6700000000000001
  7
01
100
AcDbText
  0
TEXT
  5
177E8
330
17754
100
AcDbEntity
  8
SUNPOU
100
AcDbText
 10
10601.32945526062
 20
3128.415977818225
 30
0.0
 40
90.0
  1
1
 41
0.6700000000000001
  7
01
100
AcDbText
  0
ARC
  5
177E9
330
17754
100
AcDbEntity
  8
SUNPOU
100
AcDbCircle
 10
10585.53772916782
 20
3471.489115545769
 30
0.0
 40
225.0
100
AcDbArc
 50
148.3472725282761
 51
211.6527274717238
  0
TEXT
  5
177EA
330
17754
100
AcDbEntity
  8
SUNPOU
100
AcDbText
 10
10807.53520035001
 20
2511.273120675368
 30
0.0
 40
90.0
  1
地域によっては、フックをつける様指導している
  7
01
100
AcDbText
  0
TEXT
  5
177EB
330
17754
100
AcDbEntity
  8
SUNPOU
100
AcDbText
 10
10807.53520035001
 20
3128.415977818225
 30
0.0
 40
90.0
  1
寒冷地の場合、凍結深度等を考慮し、実情に
  7
01
100
AcDbText
  0
TEXT
  5
177EC
330
17754
100
AcDbEntity
  8
SUNPOU
100
AcDbText
 10
10807.53520035001
 20
2819.844549246797
 30
0.0
 40
90.0
  1
その他現地の実情にあわせて設計して下さい。
  7
01
100
AcDbText
  0
TEXT
  5
177ED
330
17754
100
AcDbEntity
  8
SUNPOU
100
AcDbText
 10
10807.53520035001
 20
2974.13026353251
 30
0.0
 40
90.0
  1
あわせて設計して下さい。
  7
01
100
AcDbText
  0
TEXT
  5
177EE
330
17754
100
AcDbEntity
  8
SUNPOU
100
AcDbText
 10
10807.53520035001
 20
2665.558834961082
 30
0.0
 40
90.0
  1
異形鉄筋の場合、原則としてフックは不要ですが、
  7
01
100
AcDbText
  0
TEXT
  5
177EF
330
17754
100
AcDbEntity
  8
SUNPOU
100
AcDbText
 10
11144.2233067645
 20
3866.763386857586
 30
0.0
 40
92.30769230769228
  1
（ S = 　　  ）
 41
0.6700000000000001
  7
00
 11
11144.2233067645
 21
3854.455694549894
 31
0.0
100
AcDbText
 73
     1
  0
TEXT
  5
177F0
330
17754
100
AcDbEntity
  8
SUNPOU
100
AcDbText
 10
10806.83786268569
 20
3507.701692103938
 30
0.0
 40
89.9993750043402
  1
50  N/m
 41
0.6700000000000001
  7
01
100
AcDbText
  0
TEXT
  5
177F1
330
17754
100
AcDbEntity
  8
SUNPOU
100
AcDbText
 10
10916.34288392578
 20
3353.415977818225
 30
0.0
 40
89.9993750043402
  1
34 m/s
 41
0.6700000000000001
  7
01
100
AcDbText
  0
TEXT
  5
177F2
330
17754
100
AcDbEntity
  8
SUNPOU
100
AcDbText
 10
10942.67431547164
 20
3507.701692103938
 30
0.0
 40
71.99950000347218
  1
K
 41
0.6700000000000001
  7
01
100
AcDbText
  0
TEXT
  5
177F3
330
17754
100
AcDbEntity
  8
SUNPOU
100
AcDbText
 10
11210.31447220004
 20
3557.890118461424
 30
0.0
 40
46.28539285937498
  1
2
 41
0.6700000000000001
  7
00
100
AcDbText
  0
TEXT
  5
177F4
330
17754
100
AcDbEntity
  8
SUNPOU
100
AcDbText
 10
11576.28157888732
 20
3845.840309934508
 30
0.0
 40
73.84615384615384
  1
25
 41
0.6700000000000001
  7
00
 11
11576.28157888732
 21
3835.994156088355
 31
0.0
100
AcDbText
 73
     1
  0
TEXT
  5
177F5
330
17754
100
AcDbEntity
  8
SUNPOU
100
AcDbText
 10
11463.92600861757
 20
3882.763386857587
 30
0.0
 40
73.84615384615384
  1
1
 41
0.6700000000000001
  7
00
 11
11463.92600861757
 21
3872.917233011433
 31
0.0
100
AcDbText
 73
     1
  0
TEXT
  5
177F6
330
17754
100
AcDbEntity
  8
SUNPOU
100
AcDbText
 10
11512.33213593294
 20
3864.301848396048
 30
0.0
 40
73.84615384615384
  1
/
 41
0.6700000000000001
  7
00
 11
11512.33213593294
 21
3854.455694549894
 31
0.0
100
AcDbText
 73
     1
  0
LINE
  5
177F7
330
17754
100
AcDbEntity
  8
SUNPOU
100
AcDbLine
 10
12224.39501682722
 20
3436.908341517005
 30
0.0
 11
12280.64501682722
 21
3436.908341517005
 31
0.0
  0
LINE
  5
177F8
330
17754
100
AcDbEntity
  8
SUNPOU
100
AcDbLine
 10
12224.39501682722
 20
3353.415977818223
 30
0.0
 11
12280.64501682722
 21
3353.415977818223
 31
0.0
  0
LINE
  5
177F9
330
17754
100
AcDbEntity
  8
SUNPOU
100
AcDbLine
 10
12235.64501682722
 20
3353.415977818225
 30
0.0
 11
12235.64501682722
 21
3436.908341517005
 31
0.0
  0
LINE
  5
177FA
330
17754
100
AcDbEntity
  8
SUNPOU
100
AcDbLine
 10
12252.52001682722
 20
3353.415977818225
 30
0.0
 11
12252.52001682722
 21
3436.908341517005
 31
0.0
  0
LINE
  5
177FB
330
17754
100
AcDbEntity
  8
SUNPOU
100
AcDbLine
 10
12269.39501682722
 20
3353.415977818225
 30
0.0
 11
12269.39501682722
 21
3436.908341517005
 31
0.0
  0
TEXT
  5
177FC
330
17754
100
AcDbEntity
  8
SUNPOU
100
AcDbText
 10
12851.58993354733
 20
3507.701692103938
 30
0.0
 40
89.9993750043402
  1
18
 41
0.6700000000000001
  7
01
100
AcDbText
  0
TEXT
  5
177FD
330
17754
100
AcDbEntity
  8
SUNPOU
100
AcDbText
 10
12987.42638633328
 20
3507.701692103938
 30
0.0
 40
89.9993750043402
  1
N/mm
 41
0.6700000000000001
  7
01
100
AcDbText
  0
TEXT
  5
177FE
330
17754
100
AcDbEntity
  8
SUNPOU
100
AcDbText
 10
13291.89086836468
 20
3557.890118461424
 30
0.0
 40
46.28539285937498
  1
2
 41
0.6700000000000001
  7
00
100
AcDbText
  0
ARC
  5
177FF
330
17754
100
AcDbEntity
  8
SUNPOU
100
AcDbCircle
 10
13440.7681328983
 20
3471.489115545769
 30
0.0
 40
225.0
100
AcDbArc
 50
328.3472725282761
 51
31.65272747172387
  0
ENDSEC
  0
SECTION
  2
OBJECTS
  0
DICTIONARY
  5
17744
330
0
100
AcDbDictionary
281
     1
  3
ACAD_GROUP
350
17745
  3
ACAD_LAYOUT
350
17751
  3
ACAD_MLEADERSTYLE
350
177B1
  3
ACAD_MLINESTYLE
350
1774E
  3
ACAD_PLOTSETTINGS
350
17750
  3
ACAD_PLOTSTYLENAME
350
17746
  3
ACAD_TABLESTYLE
350
177B0
  3
AcDbVariableDictionary
350
17800
  0
DICTIONARY
  5
17745
102
{ACAD_REACTORS
330
17744
102
}
330
17744
100
AcDbDictionary
281
     1
  0
DICTIONARY
  5
17751
102
{ACAD_REACTORS
330
17744
102
}
330
17744
100
AcDbDictionary
281
     1
  3
Layout1
350
17753
  3
Model
350
17755
  0
DICTIONARY
  5
177B1
102
{ACAD_REACTORS
330
17744
102
}
330
17744
100
AcDbDictionary
281
     1
  0
DICTIONARY
  5
1774E
102
{ACAD_REACTORS
330
17744
102
}
330
17744
100
AcDbDictionary
281
     1
  3
Standard
350
1774F
  0
DICTIONARY
  5
17750
102
{ACAD_REACTORS
330
17744
102
}
330
17744
100
AcDbDictionary
281
     1
  0
ACDBDICTIONARYWDFLT
  5
17746
102
{ACAD_REACTORS
330
17744
102
}
330
17744
100
AcDbDictionary
281
     1
  3
Normal
350
17747
100
AcDbDictionaryWithDefault
340
17747
  0
DICTIONARY
  5
177B0
102
{ACAD_REACTORS
330
17744
102
}
330
17744
100
AcDbDictionary
281
     1
  0
DICTIONARY
  5
17800
102
{ACAD_REACTORS
330
17744
102
}
330
17744
100
AcDbDictionary
281
     1
  3
DIMASSOC
350
17801
  0
LAYOUT
  5
17753
102
{ACAD_REACTORS
330
17751
102
}
330
17751
100
AcDbPlotSettings
  1

  2
none_device
  4

  6

 40
0.0
 41
0.0
 42
0.0
 43
0.0
 44
0.0
 45
0.0
 46
0.0
 47
0.0
 48
0.0
 49
0.0
140
0.0
141
0.0
142
1.0
143
1.0
 70
   688
 72
     0
 73
     0
 74
     5
  7

 75
    16
147
1.0
148
0.0
149
0.0
100
AcDbLayout
  1
Layout1
 70
     0
 71
     1
 10
0.0
 20
0.0
 11
12.0
 21
9.0
 12
0.0
 22
0.0
 32
0.0
 14
1.000000000000000E+20
 24
1.000000000000000E+20
 34
1.000000000000000E+20
 15
-1.000000000000000E+20
 25
-1.000000000000000E+20
 35
-1.000000000000000E+20
146
0.0
 13
0.0
 23
0.0
 33
0.0
 16
1.0
 26
0.0
 36
0.0
 17
0.0
 27
1.0
 37
0.0
 76
     0
330
17752
  0
LAYOUT
  5
17755
102
{ACAD_REACTORS
330
17751
102
}
330
17751
100
AcDbPlotSettings
  1

  2
none_device
  4

  6

 40
0.0
 41
0.0
 42
0.0
 43
0.0
 44
0.0
 45
0.0
 46
0.0
 47
0.0
 48
0.0
 49
0.0
140
0.0
141
0.0
142
1.0
143
1.0
 70
  1712
 72
     0
 73
     0
 74
     0
  7

 75
     0
147
1.0
148
0.0
149
0.0
100
AcDbLayout
  1
Model
 70
     1
 71
     0
 10
0.0
 20
0.0
 11
12.0
 21
9.0
 12
267.0
 22
194.8999999999998
 32
0.0
 14
433.9966216520332
 24
163.6908237492789
 34
-0.0000000000000129
 15
16382.66605425469
 25
11242.27663824599
 35
0.0000000000000023
146
0.0
 13
0.0
 23
0.0
 33
0.0
 16
1.0
 26
0.0
 36
0.0
 17
0.0
 27
1.0
 37
0.0
 76
     0
330
17754
331
17757
  0
MLINESTYLE
  5
1774F
102
{ACAD_REACTORS
330
1774E
102
}
330
1774E
100
AcDbMlineStyle
  2
STANDARD
 70
     0
  3

 62
   256
 51
90.0
 52
90.0
 71
     2
 49
0.5
 62
   256
  6
BYLAYER
 49
-0.5
 62
   256
  6
BYLAYER
  0
ACDBPLACEHOLDER
  5
17747
102
{ACAD_REACTORS
330
17746
102
}
330
17746
  0
DICTIONARYVAR
  5
17801
102
{ACAD_REACTORS
330
17800
102
}
330
17800
100
DictionaryVariables
280
     0
  1
1
  0
ENDSEC
  0
EOF
