  0
SECTION
  2
HEADER
  9
$ACADVER
  1
AC1015
  9
$ACADMAINTVER
 70
    13
  9
$DWGCODEPAGE
  3
ANSI_932
  9
$INSBASE
 10
267.0
 20
194.8999999999998
 30
0.0
  9
$EXTMIN
 10
325.4974662390304
 20
122.7681178119601
 30
-0.000000000000013
  9
$EXTMAX
 10
12286.99954069103
 20
8431.707478684501
 30
0.0000000000000023
  9
$LIMMIN
 10
0.0
 20
0.0
  9
$LIMMAX
 10
12600.0
 20
8910.0
  9
$ORTHOMODE
 70
     0
  9
$REGENMODE
 70
     1
  9
$FILLMODE
 70
     1
  9
$QTEXTMODE
 70
     0
  9
$MIRRTEXT
 70
     0
  9
$LTSCALE
 40
30.0
  9
$ATTMODE
 70
     1
  9
$TEXTSIZE
 40
0.2
  9
$TRACEWID
 40
0.05
  9
$TEXTSTYLE
  7
00
  9
$CLAYER
  8
SUNPOU
  9
$CELTYPE
  6
ByLayer
  9
$CECOLOR
 62
   256
  9
$CELTSCALE
 40
1.0
  9
$DISPSILH
 70
     0
  9
$DIMSCALE
 40
30.0
  9
$DIMASZ
 40
0.5
  9
$DIMEXO
 40
1.0
  9
$DIMDLI
 40
7.0
  9
$DIMRND
 40
0.0
  9
$DIMDLE
 40
3.0
  9
$DIMEXE
 40
1.5
  9
$DIMTP
 40
0.0
  9
$DIMTM
 40
0.0
  9
$DIMTXT
 40
3.0
  9
$DIMCEN
 40
0.0
  9
$DIMTSZ
 40
0.0
  9
$DIMTOL
 70
     0
  9
$DIMLIM
 70
     0
  9
$DIMTIH
 70
     0
  9
$DIMTOH
 70
     0
  9
$DIMSE1
 70
     0
  9
$DIMSE2
 70
     0
  9
$DIMTAD
 70
     1
  9
$DIMZIN
 70
     8
  9
$DIMBLK
  1
DOT
  9
$DIMASO
 70
     1
  9
$DIMSHO
 70
     0
  9
$DIMPOST
  1

  9
$DIMAPOST
  1

  9
$DIMALT
 70
     0
  9
$DIMALTD
 70
     2
  9
$DIMALTF
 40
25.4
  9
$DIMLFAC
 40
1.0
  9
$DIMTOFL
 70
     1
  9
$DIMTVP
 40
0.0
  9
$DIMTIX
 70
     0
  9
$DIMSOXD
 70
     0
  9
$DIMSAH
 70
     1
  9
$DIMBLK1
  1
DOT
  9
$DIMBLK2
  1
DOT
  9
$DIMSTYLE
  2
SUNPOU_図面名
  9
$DIMCLRD
 70
   256
  9
$DIMCLRE
 70
   256
  9
$DIMCLRT
 70
   256
  9
$DIMTFAC
 40
1.0
  9
$DIMGAP
 40
1.5
  9
$DIMJUST
 70
     0
  9
$DIMSD1
 70
     0
  9
$DIMSD2
 70
     0
  9
$DIMTOLJ
 70
     1
  9
$DIMTZIN
 70
     0
  9
$DIMALTZ
 70
     0
  9
$DIMALTTZ
 70
     0
  9
$DIMUPT
 70
     0
  9
$DIMDEC
 70
     2
  9
$DIMTDEC
 70
     2
  9
$DIMALTU
 70
     2
  9
$DIMALTTD
 70
     2
  9
$DIMTXSTY
  7
STANDARD
  9
$DIMAUNIT
 70
     0
  9
$DIMADEC
 70
     0
  9
$DIMALTRND
 40
0.0
  9
$DIMAZIN
 70
     0
  9
$DIMDSEP
 70
    46
  9
$DIMATFIT
 70
     3
  9
$DIMFRAC
 70
     0
  9
$DIMLDRBLK
  1

  9
$DIMLUNIT
 70
     2
  9
$DIMLWD
 70
    -2
  9
$DIMLWE
 70
    -2
  9
$DIMTMOVE
 70
     2
  9
$LUNITS
 70
     2
  9
$LUPREC
 70
     2
  9
$SKETCHINC
 40
0.1
  9
$FILLETRAD
 40
5.0
  9
$AUNITS
 70
     0
  9
$AUPREC
 70
     0
  9
$MENU
  1
A:\TIGER\MENU\TIGER
  9
$ELEVATION
 40
0.0
  9
$PELEVATION
 40
0.0
  9
$THICKNESS
 40
0.0
  9
$LIMCHECK
 70
     0
  9
$CHAMFERA
 40
0.0
  9
$CHAMFERB
 40
0.0
  9
$CHAMFERC
 40
1.0
  9
$CHAMFERD
 40
0.0
  9
$SKPOLY
 70
     0
  9
$TDCREATE
 40
2450266.571064815
  9
$TDUCREATE
 40
2450266.196064815
  9
$TDUPDATE
 40
2456331.326558333
  9
$TDUUPDATE
 40
2456330.951558333
  9
$TDINDWG
 40
0.3997488426
  9
$TDUSRTIMER
 40
0.3997488426
  9
$USRTIMER
 70
     1
  9
$ANGBASE
 50
0.0
  9
$ANGDIR
 70
     0
  9
$PDMODE
 70
     0
  9
$PDSIZE
 40
0.0
  9
$PLINEWID
 40
0.0
  9
$SPLFRAME
 70
     0
  9
$SPLINETYPE
 70
     6
  9
$SPLINESEGS
 70
     8
  9
$HANDSEED
  5
2C9F7
  9
$SURFTAB1
 70
     6
  9
$SURFTAB2
 70
     6
  9
$SURFTYPE
 70
     6
  9
$SURFU
 70
     6
  9
$SURFV
 70
     6
  9
$UCSBASE
  2

  9
$UCSNAME
  2

  9
$UCSORG
 10
0.0
 20
0.0
 30
0.0
  9
$UCSXDIR
 10
1.0
 20
0.0
 30
0.0
  9
$UCSYDIR
 10
0.0
 20
1.0
 30
0.0
  9
$UCSORTHOREF
  2

  9
$UCSORTHOVIEW
 70
     0
  9
$UCSORGTOP
 10
0.0
 20
0.0
 30
0.0
  9
$UCSORGBOTTOM
 10
0.0
 20
0.0
 30
0.0
  9
$UCSORGLEFT
 10
0.0
 20
0.0
 30
0.0
  9
$UCSORGRIGHT
 10
0.0
 20
0.0
 30
0.0
  9
$UCSORGFRONT
 10
0.0
 20
0.0
 30
0.0
  9
$UCSORGBACK
 10
0.0
 20
0.0
 30
0.0
  9
$PUCSBASE
  2

  9
$PUCSNAME
  2

  9
$PUCSORG
 10
0.0
 20
0.0
 30
0.0
  9
$PUCSXDIR
 10
1.0
 20
0.0
 30
0.0
  9
$PUCSYDIR
 10
0.0
 20
1.0
 30
0.0
  9
$PUCSORTHOREF
  2

  9
$PUCSORTHOVIEW
 70
     0
  9
$PUCSORGTOP
 10
0.0
 20
0.0
 30
0.0
  9
$PUCSORGBOTTOM
 10
0.0
 20
0.0
 30
0.0
  9
$PUCSORGLEFT
 10
0.0
 20
0.0
 30
0.0
  9
$PUCSORGRIGHT
 10
0.0
 20
0.0
 30
0.0
  9
$PUCSORGFRONT
 10
0.0
 20
0.0
 30
0.0
  9
$PUCSORGBACK
 10
0.0
 20
0.0
 30
0.0
  9
$USERI1
 70
     3
  9
$USERI2
 70
     0
  9
$USERI3
 70
     0
  9
$USERI4
 70
     0
  9
$USERI5
 70
  1103
  9
$USERR1
 40
0.0
  9
$USERR2
 40
1.0
  9
$USERR3
 40
0.0
  9
$USERR4
 40
0.0
  9
$USERR5
 40
0.0
  9
$WORLDVIEW
 70
     1
  9
$SHADEDGE
 70
     3
  9
$SHADEDIF
 70
    70
  9
$TILEMODE
 70
     1
  9
$MAXACTVP
 70
    16
  9
$PINSBASE
 10
0.0
 20
0.0
 30
0.0
  9
$PLIMCHECK
 70
     0
  9
$PEXTMIN
 10
1.000000000000000E+20
 20
1.000000000000000E+20
 30
1.000000000000000E+20
  9
$PEXTMAX
 10
-1.000000000000000E+20
 20
-1.000000000000000E+20
 30
-1.000000000000000E+20
  9
$PLIMMIN
 10
0.0
 20
0.0
  9
$PLIMMAX
 10
12.0
 20
9.0
  9
$UNITMODE
 70
     0
  9
$VISRETAIN
 70
     0
  9
$PLINEGEN
 70
     1
  9
$PSLTSCALE
 70
     0
  9
$TREEDEPTH
 70
  3020
  9
$CMLSTYLE
  2
Standard
  9
$CMLJUST
 70
     0
  9
$CMLSCALE
 40
1.0
  9
$PROXYGRAPHICS
 70
     1
  9
$MEASUREMENT
 70
     0
  9
$CELWEIGHT
370
    -1
  9
$ENDCAPS
280
     0
  9
$JOINSTYLE
280
     0
  9
$LWDISPLAY
290
     0
  9
$INSUNITS
 70
     0
  9
$HYPERLINKBASE
  1

  9
$STYLESHEET
  1

  9
$XEDIT
290
     1
  9
$CEPSNTYPE
380
     0
  9
$PSTYLEMODE
290
     1
  9
$FINGERPRINTGUID
  2
{E65E4730-192E-4D77-9A36-74C5FC38A4E5}
  9
$VERSIONGUID
  2
{46066668-92E4-4FA4-9397-B0644217C457}
  9
$EXTNAMES
290
     1
  9
$PSVPSCALE
 40
0.0
  9
$OLESTARTUP
290
     0
  0
ENDSEC
  0
SECTION
  2
CLASSES
  0
CLASS
  1
ACDBDICTIONARYWDFLT
  2
AcDbDictionaryWithDefault
  3
AutoCAD 2000
 90
        0
280
     0
281
     0
  0
CLASS
  1
ACDBPLACEHOLDER
  2
AcDbPlaceHolder
  3
AutoCAD 2000
 90
        0
280
     0
281
     0
  0
CLASS
  1
LAYOUT
  2
AcDbLayout
  3
AutoCAD 2000
 90
        0
280
     0
281
     0
  0
CLASS
  1
DICTIONARYVAR
  2
AcDbDictionaryVar
  3
AutoCAD 2000
 90
        0
280
     0
281
     0
  0
ENDSEC
  0
SECTION
  2
TABLES
  0
TABLE
  2
VPORT
  5
2C911
330
0
100
AcDbSymbolTable
 70
     3
  0
VPORT
  5
2C9F6
330
2C911
100
AcDbSymbolTableRecord
100
AcDbViewportTableRecord
  2
*Active
 70
     0
 10
0.0
 20
0.0
 11
1.0
 21
1.0
 12
6306.248503465031
 22
4277.237798248231
 13
0.0
 23
0.0
 14
1.0
 24
1.0
 15
0.0
 25
0.0
 16
0.0
 26
0.0
 36
1.0
 17
0.0
 27
0.0
 37
0.0
 40
9739.304914791837
 41
1.236040609137055
 42
50.0
 43
0.0
 44
0.0
 50
0.0
 51
0.0
 71
     0
 72
 10000
 73
     1
 74
     0
 75
     0
 76
     0
 77
     0
 78
     0
281
     0
 65
     0
110
0.0
120
0.0
130
0.0
111
1.0
121
0.0
131
0.0
112
0.0
122
1.0
132
0.0
 79
     0
146
0.0
  0
ENDTAB
  0
TABLE
  2
LTYPE
  5
2C90E
330
0
100
AcDbSymbolTable
 70
     9
  0
LTYPE
  5
2C91C
330
2C90E
100
AcDbSymbolTableRecord
100
AcDbLinetypeTableRecord
  2
ByBlock
 70
     0
  3

 72
    65
 73
     0
 40
0.0
  0
LTYPE
  5
2C91D
330
2C90E
100
AcDbSymbolTableRecord
100
AcDbLinetypeTableRecord
  2
ByLayer
 70
     0
  3

 72
    65
 73
     0
 40
0.0
  0
LTYPE
  5
2C91E
330
2C90E
100
AcDbSymbolTableRecord
100
AcDbLinetypeTableRecord
  2
CONTINUOUS
 70
     0
  3
実線
 72
    65
 73
     0
 40
0.0
  0
LTYPE
  5
2C92A
330
2C90E
100
AcDbSymbolTableRecord
100
AcDbLinetypeTableRecord
  2
HIDE-M
 70
     0
  3

 72
    65
 73
     2
 40
2.0
 49
1.0
 74
     0
 49
-1.0
 74
     0
  0
LTYPE
  5
2C92B
330
2C90E
100
AcDbSymbolTableRecord
100
AcDbLinetypeTableRecord
  2
HIDE-S
 70
     0
  3

 72
    65
 73
     2
 40
1.0
 49
0.5
 74
     0
 49
-0.5
 74
     0
  0
LTYPE
  5
2C92C
330
2C90E
100
AcDbSymbolTableRecord
100
AcDbLinetypeTableRecord
  2
TENSEN-
 70
     0
  3

 72
    65
 73
     2
 40
0.6000000000000001
 49
0.2
 74
     0
 49
-0.4
 74
     0
  0
LTYPE
  5
2C92D
330
2C90E
100
AcDbSymbolTableRecord
100
AcDbLinetypeTableRecord
  2
1PL-M
 70
     0
  3

 72
    65
 73
     4
 40
15.0
 49
12.0
 74
     0
 49
-1.0
 74
     0
 49
1.0
 74
     0
 49
-1.0
 74
     0
  0
LTYPE
  5
2C92E
330
2C90E
100
AcDbSymbolTableRecord
100
AcDbLinetypeTableRecord
  2
1PL-12
 70
     0
  3

 72
    65
 73
     4
 40
15.0
 49
12.0
 74
     0
 49
-1.0
 74
     0
 49
1.0
 74
     0
 49
-1.0
 74
     0
  0
LTYPE
  5
2C92F
330
2C90E
100
AcDbSymbolTableRecord
100
AcDbLinetypeTableRecord
  2
KAKURE-1
 70
     0
  3

 72
    65
 73
     2
 40
2.0
 49
1.0
 74
     0
 49
-1.0
 74
     0
  0
LTYPE
  5
2C930
330
2C90E
100
AcDbSymbolTableRecord
100
AcDbLinetypeTableRecord
  2
2PL-12
 70
     0
  3

 72
    65
 73
     6
 40
17.0
 49
12.0
 74
     0
 49
-1.0
 74
     0
 49
1.0
 74
     0
 49
-1.0
 74
     0
 49
1.0
 74
     0
 49
-1.0
 74
     0
  0
LTYPE
  5
2C931
330
2C90E
100
AcDbSymbolTableRecord
100
AcDbLinetypeTableRecord
  2
2PL-5
 70
     0
  3

 72
    65
 73
     6
 40
7.5
 49
5.0
 74
     0
 49
-0.5
 74
     0
 49
0.5
 74
     0
 49
-0.5
 74
     0
 49
0.5
 74
     0
 49
-0.5
 74
     0
  0
ENDTAB
  0
TABLE
  2
LAYER
  5
2C90B
330
0
100
AcDbSymbolTable
 70
    26
  0
LAYER
  5
2C919
330
2C90B
100
AcDbSymbolTableRecord
100
AcDbLayerTableRecord
  2
0
 70
     0
 62
     7
  6
CONTINUOUS
370
    -3
390
2C918
  0
LAYER
  5
2C933
330
2C90B
100
AcDbSymbolTableRecord
100
AcDbLayerTableRecord
  2
U1
 70
     0
 62
     3
  6
CONTINUOUS
370
    -3
390
2C918
  0
LAYER
  5
2C934
330
2C90B
100
AcDbSymbolTableRecord
100
AcDbLayerTableRecord
  2
U3
 70
     0
 62
     6
  6
CONTINUOUS
370
    -3
390
2C918
  0
LAYER
  5
2C935
330
2C90B
100
AcDbSymbolTableRecord
100
AcDbLayerTableRecord
  2
U7
 70
     0
 62
     2
  6
CONTINUOUS
370
    -3
390
2C918
  0
LAYER
  5
2C936
330
2C90B
100
AcDbSymbolTableRecord
100
AcDbLayerTableRecord
  2
SUNPOU
 70
     0
 62
     4
  6
CONTINUOUS
370
    -3
390
2C918
  0
LAYER
  5
2C937
330
2C90B
100
AcDbSymbolTableRecord
100
AcDbLayerTableRecord
  2
HIKIDASHI
 70
     0
 62
     6
  6
CONTINUOUS
370
    -3
390
2C918
  0
LAYER
  5
2C938
330
2C90B
100
AcDbSymbolTableRecord
100
AcDbLayerTableRecord
  2
TENSEN-1
 70
     0
 62
     6
  6
TENSEN-
370
    -3
390
2C918
  0
LAYER
  5
2C939
330
2C90B
100
AcDbSymbolTableRecord
100
AcDbLayerTableRecord
  2
HIDE-S1
 70
     0
 62
     6
  6
HIDE-S
370
    -3
390
2C918
  0
LAYER
  5
2C93A
330
2C90B
100
AcDbSymbolTableRecord
100
AcDbLayerTableRecord
  2
HIDE-M1
 70
     0
 62
     6
  6
HIDE-M
370
    -3
390
2C918
  0
LAYER
  5
2C93B
330
2C90B
100
AcDbSymbolTableRecord
100
AcDbLayerTableRecord
  2
1PL-M1
 70
     0
 62
     6
  6
1PL-M
370
    -3
390
2C918
  0
LAYER
  5
2C93C
330
2C90B
100
AcDbSymbolTableRecord
100
AcDbLayerTableRecord
  2
YANE
 70
     0
 62
     1
  6
CONTINUOUS
370
    -3
390
2C918
  0
LAYER
  5
2C93D
330
2C90B
100
AcDbSymbolTableRecord
100
AcDbLayerTableRecord
  2
KISO
 70
     0
 62
     2
  6
CONTINUOUS
370
    -3
390
2C918
  0
LAYER
  5
2C93E
330
2C90B
100
AcDbSymbolTableRecord
100
AcDbLayerTableRecord
  2
HATCH
 70
     0
 62
     1
  6
CONTINUOUS
370
    -3
390
2C918
  0
LAYER
  5
2C93F
330
2C90B
100
AcDbSymbolTableRecord
100
AcDbLayerTableRecord
  2
NAME
 70
     0
 62
    20
  6
CONTINUOUS
370
    -3
390
2C918
  0
LAYER
  5
2C940
330
2C90B
100
AcDbSymbolTableRecord
100
AcDbLayerTableRecord
  2
FILENAME
 70
     0
 62
     7
  6
CONTINUOUS
370
    -3
390
2C918
  0
LAYER
  5
2C941
330
2C90B
100
AcDbSymbolTableRecord
100
AcDbLayerTableRecord
  2
BOLT
 70
     0
 62
     4
  6
CONTINUOUS
370
    -3
390
2C918
  0
LAYER
  5
2C942
330
2C90B
100
AcDbSymbolTableRecord
100
AcDbLayerTableRecord
  2
HASIRA
 70
     0
 62
     3
  6
CONTINUOUS
370
    -3
390
2C918
  0
LAYER
  5
2C943
330
2C90B
100
AcDbSymbolTableRecord
100
AcDbLayerTableRecord
  2
DOMAKON
 70
     0
 62
     2
  6
CONTINUOUS
370
    -3
390
2C918
  0
LAYER
  5
2C944
330
2C90B
100
AcDbSymbolTableRecord
100
AcDbLayerTableRecord
  2
KISO-1
 70
     0
 62
     1
  6
2PL-12
370
    -3
390
2C918
  0
LAYER
  5
2C945
330
2C90B
100
AcDbSymbolTableRecord
100
AcDbLayerTableRecord
  2
KISO-2
 70
     0
 62
     1
  6
KAKURE-1
370
    -3
390
2C918
  0
LAYER
  5
2C946
330
2C90B
100
AcDbSymbolTableRecord
100
AcDbLayerTableRecord
  2
SIN
 70
     0
 62
     6
  6
1PL-12
370
    -3
390
2C918
  0
LAYER
  5
2C947
330
2C90B
100
AcDbSymbolTableRecord
100
AcDbLayerTableRecord
  2
KISO-3
 70
     0
 62
     1
  6
2PL-5
370
    -3
390
2C918
  0
LAYER
  5
2C948
330
2C90B
100
AcDbSymbolTableRecord
100
AcDbLayerTableRecord
  2
YODOROGO
 70
     0
 62
   130
  6
CONTINUOUS
370
    -3
390
2C918
  0
LAYER
  5
2C949
330
2C90B
100
AcDbSymbolTableRecord
100
AcDbLayerTableRecord
  2
WAKUSEN-01
 70
     0
 62
    50
  6
CONTINUOUS
370
    -3
390
2C918
  0
LAYER
  5
2C94A
330
2C90B
100
AcDbSymbolTableRecord
100
AcDbLayerTableRecord
  2
WAKUSEN-02
 70
     0
 62
   130
  6
CONTINUOUS
370
    -3
390
2C918
  0
LAYER
  5
2C94B
330
2C90B
100
AcDbSymbolTableRecord
100
AcDbLayerTableRecord
  2
WAKUMOJI-01
 70
     0
 62
   130
  6
CONTINUOUS
370
    -3
390
2C918
  0
ENDTAB
  0
TABLE
  2
STYLE
  5
2C90C
330
0
100
AcDbSymbolTable
 70
     5
  0
STYLE
  5
2C91A
330
2C90C
100
AcDbSymbolTableRecord
100
AcDbTextStyleTableRecord
  2
STANDARD
 70
     0
 40
3.0
 41
1.0
 50
0.0
 71
     0
 42
0.2
  3
ROMANS
  4
EXTFONT
  0
STYLE
  5
2C94D
330
2C90C
100
AcDbSymbolTableRecord
100
AcDbTextStyleTableRecord
  2
01
 70
     0
 40
3.0
 41
1.0
 50
0.0
 71
     0
 42
0.2
  3
ROMANS
  4
BIGFONT
  0
STYLE
  5
2C94E
330
2C90C
100
AcDbSymbolTableRecord
100
AcDbTextStyleTableRecord
  2
00
 70
     0
 40
0.0
 41
0.6666666666666666
 50
0.0
 71
     0
 42
0.2
  3
ROMANS
  4
BIGFONT
  0
STYLE
  5
2C94F
330
2C90C
100
AcDbSymbolTableRecord
100
AcDbTextStyleTableRecord
  2
WAKUMOJI
 70
     0
 40
3.0
 41
1.0
 50
0.0
 71
     0
 42
3.0
  3
SIMPLEX
  4
BIGFONT
  0
STYLE
  5
2C950
330
2C90C
100
AcDbSymbolTableRecord
100
AcDbTextStyleTableRecord
  2
FILENAME
 70
     0
 40
75.0
 41
1.0
 50
0.0
 71
     0
 42
75.0
  3
romans
  4
bigfont
  0
ENDTAB
  0
TABLE
  2
VIEW
  5
2C90F
330
0
100
AcDbSymbolTable
 70
     0
  0
ENDTAB
  0
TABLE
  2
UCS
  5
2C910
330
0
100
AcDbSymbolTable
 70
     0
  0
ENDTAB
  0
TABLE
  2
APPID
  5
2C912
330
0
100
AcDbSymbolTable
 70
     4
  0
APPID
  5
2C91B
330
2C912
100
AcDbSymbolTableRecord
100
AcDbRegAppTableRecord
  2
ACAD
 70
     0
  0
APPID
  5
2C952
330
2C912
100
AcDbSymbolTableRecord
100
AcDbRegAppTableRecord
  2
AUTOCAD_POSTSCRIPT_FIGURE
 70
     0
  0
APPID
  5
2C953
330
2C912
100
AcDbSymbolTableRecord
100
AcDbRegAppTableRecord
  2
ACAD_PSEXT
 70
     0
  0
APPID
  5
2C954
330
2C912
100
AcDbSymbolTableRecord
100
AcDbRegAppTableRecord
  2
ACAD_EXEMPT_FROM_CAD_STANDARDS
 70
     0
  0
ENDTAB
  0
TABLE
  2
DIMSTYLE
  5
2C913
330
0
100
AcDbSymbolTable
 70
     1
100
AcDbDimStyleTable
 71
     0
  0
DIMSTYLE
105
D00
330
2C913
100
AcDbSymbolTableRecord
100
AcDbDimStyleTableRecord
  2
SUNPOU_図面名
 70
     0
 40
30.0
 41
0.5
 42
1.0
 43
7.0
 44
1.5
 46
3.0
 73
     0
 74
     0
 77
     1
 78
     8
140
3.0
141
0.0
147
1.5
172
     1
173
     1
176
   256
177
   256
178
   256
340
2C94E
341
2C958
342
2C958
343
2C958
344
2C958
  0
ENDTAB
  0
TABLE
  2
BLOCK_RECORD
  5
2C90A
330
0
100
AcDbSymbolTable
 70
    39
  0
BLOCK_RECORD
  5
2C925
330
2C90A
100
AcDbSymbolTableRecord
100
AcDbBlockTableRecord
  2
*Model_Space
340
2C926
  0
BLOCK_RECORD
  5
2C923
330
2C90A
100
AcDbSymbolTableRecord
100
AcDbBlockTableRecord
  2
*Paper_Space
340
2C924
  0
BLOCK_RECORD
  5
2C958
330
2C90A
100
AcDbSymbolTableRecord
100
AcDbBlockTableRecord
  2
DOT
340
0
  0
BLOCK_RECORD
  5
2C95A
330
2C90A
100
AcDbSymbolTableRecord
100
AcDbBlockTableRecord
  2
*U1
340
0
  0
BLOCK_RECORD
  5
2C95C
330
2C90A
100
AcDbSymbolTableRecord
100
AcDbBlockTableRecord
  2
*U2
340
0
  0
BLOCK_RECORD
  5
2C95E
330
2C90A
100
AcDbSymbolTableRecord
100
AcDbBlockTableRecord
  2
*U3
340
0
  0
BLOCK_RECORD
  5
2C960
330
2C90A
100
AcDbSymbolTableRecord
100
AcDbBlockTableRecord
  2
*U4
340
0
  0
BLOCK_RECORD
  5
2C962
330
2C90A
100
AcDbSymbolTableRecord
100
AcDbBlockTableRecord
  2
*U5
340
0
  0
BLOCK_RECORD
  5
2C964
330
2C90A
100
AcDbSymbolTableRecord
100
AcDbBlockTableRecord
  2
*U6
340
0
  0
BLOCK_RECORD
  5
2C966
330
2C90A
100
AcDbSymbolTableRecord
100
AcDbBlockTableRecord
  2
*U7
340
0
  0
BLOCK_RECORD
  5
2C968
330
2C90A
100
AcDbSymbolTableRecord
100
AcDbBlockTableRecord
  2
*U8
340
0
  0
BLOCK_RECORD
  5
2C96A
330
2C90A
100
AcDbSymbolTableRecord
100
AcDbBlockTableRecord
  2
*U9
340
0
  0
BLOCK_RECORD
  5
2C96C
330
2C90A
100
AcDbSymbolTableRecord
100
AcDbBlockTableRecord
  2
*U10
340
0
  0
BLOCK_RECORD
  5
2C96E
330
2C90A
100
AcDbSymbolTableRecord
100
AcDbBlockTableRecord
  2
*U11
340
0
  0
BLOCK_RECORD
  5
2C970
330
2C90A
100
AcDbSymbolTableRecord
100
AcDbBlockTableRecord
  2
*U12
340
0
  0
BLOCK_RECORD
  5
2C972
330
2C90A
100
AcDbSymbolTableRecord
100
AcDbBlockTableRecord
  2
*U13
340
0
  0
BLOCK_RECORD
  5
2C974
330
2C90A
100
AcDbSymbolTableRecord
100
AcDbBlockTableRecord
  2
*U14
340
0
  0
BLOCK_RECORD
  5
2C976
330
2C90A
100
AcDbSymbolTableRecord
100
AcDbBlockTableRecord
  2
*U15
340
0
  0
BLOCK_RECORD
  5
2C978
330
2C90A
100
AcDbSymbolTableRecord
100
AcDbBlockTableRecord
  2
*U16
340
0
  0
BLOCK_RECORD
  5
2C97A
330
2C90A
100
AcDbSymbolTableRecord
100
AcDbBlockTableRecord
  2
*U17
340
0
  0
BLOCK_RECORD
  5
2C97C
330
2C90A
100
AcDbSymbolTableRecord
100
AcDbBlockTableRecord
  2
*U18
340
0
  0
BLOCK_RECORD
  5
2C97E
330
2C90A
100
AcDbSymbolTableRecord
100
AcDbBlockTableRecord
  2
*U19
340
0
  0
BLOCK_RECORD
  5
2C980
330
2C90A
100
AcDbSymbolTableRecord
100
AcDbBlockTableRecord
  2
*U20
340
0
  0
BLOCK_RECORD
  5
2C982
330
2C90A
100
AcDbSymbolTableRecord
100
AcDbBlockTableRecord
  2
*U21
340
0
  0
BLOCK_RECORD
  5
2C984
330
2C90A
100
AcDbSymbolTableRecord
100
AcDbBlockTableRecord
  2
*U22
340
0
  0
BLOCK_RECORD
  5
2C986
330
2C90A
100
AcDbSymbolTableRecord
100
AcDbBlockTableRecord
  2
*U23
340
0
  0
BLOCK_RECORD
  5
2C988
330
2C90A
100
AcDbSymbolTableRecord
100
AcDbBlockTableRecord
  2
*U24
340
0
  0
BLOCK_RECORD
  5
2C98A
330
2C90A
100
AcDbSymbolTableRecord
100
AcDbBlockTableRecord
  2
*U25
340
0
  0
BLOCK_RECORD
  5
2C98C
330
2C90A
100
AcDbSymbolTableRecord
100
AcDbBlockTableRecord
  2
*U26
340
0
  0
BLOCK_RECORD
  5
2C98E
330
2C90A
100
AcDbSymbolTableRecord
100
AcDbBlockTableRecord
  2
*U27
340
0
  0
BLOCK_RECORD
  5
2C990
330
2C90A
100
AcDbSymbolTableRecord
100
AcDbBlockTableRecord
  2
*U28
340
0
  0
BLOCK_RECORD
  5
2C992
330
2C90A
100
AcDbSymbolTableRecord
100
AcDbBlockTableRecord
  2
*U29
340
0
  0
BLOCK_RECORD
  5
2C994
330
2C90A
100
AcDbSymbolTableRecord
100
AcDbBlockTableRecord
  2
*U30
340
0
  0
BLOCK_RECORD
  5
2C996
330
2C90A
100
AcDbSymbolTableRecord
100
AcDbBlockTableRecord
  2
*U31
340
0
  0
BLOCK_RECORD
  5
2C998
330
2C90A
100
AcDbSymbolTableRecord
100
AcDbBlockTableRecord
  2
*U32
340
0
  0
BLOCK_RECORD
  5
2C99A
330
2C90A
100
AcDbSymbolTableRecord
100
AcDbBlockTableRecord
  2
*U33
340
0
  0
BLOCK_RECORD
  5
2C99C
330
2C90A
100
AcDbSymbolTableRecord
100
AcDbBlockTableRecord
  2
*U34
340
0
  0
BLOCK_RECORD
  5
2C99E
330
2C90A
100
AcDbSymbolTableRecord
100
AcDbBlockTableRecord
  2
*U35
340
0
  0
BLOCK_RECORD
  5
2C9A0
330
2C90A
100
AcDbSymbolTableRecord
100
AcDbBlockTableRecord
  2
*U36
340
0
  0
BLOCK_RECORD
  5
2C9A2
330
2C90A
100
AcDbSymbolTableRecord
100
AcDbBlockTableRecord
  2
*U37
340
0
  0
ENDTAB
  0
ENDSEC
  0
SECTION
  2
BLOCKS
  0
BLOCK
  5
2C955
330
2C925
100
AcDbEntity
  8
0
100
AcDbBlockBegin
  2
*Model_Space
 70
     0
 10
0.0
 20
0.0
 30
0.0
  3
*Model_Space
  1

  0
ENDBLK
  5
125F7
330
2C925
100
AcDbEntity
  8
0
100
AcDbBlockEnd
  0
BLOCK
  5
2C956
330
2C923
100
AcDbEntity
 67
     1
  8
0
100
AcDbBlockBegin
  2
*Paper_Space
 70
     0
 10
0.0
 20
0.0
 30
0.0
  3
*Paper_Space
  1

  0
ENDBLK
  5
125F5
330
2C923
100
AcDbEntity
 67
     1
  8
0
100
AcDbBlockEnd
  0
BLOCK
  5
2C957
330
2C958
100
AcDbEntity
  8
0
100
AcDbBlockBegin
  2
DOT
 70
     0
 10
0.0
 20
0.0
 30
0.0
  3
DOT
  1

  0
LWPOLYLINE
  5
12983
330
2C958
100
AcDbEntity
  8
0
  6
ByBlock
 62
     0
100
AcDbPolyline
 90
        2
 70
     1
 43
0.75
 10
-0.375
 20
0.0
 42
1.0
 10
0.375
 20
0.0
 42
1.0
  0
LINE
  5
12984
330
2C958
100
AcDbEntity
  8
0
  6
ByBlock
 62
     0
100
AcDbLine
 10
-0.75
 20
0.0
 30
0.0
 11
-1.5
 21
0.0
 31
0.0
  0
ENDBLK
  5
12985
330
2C958
100
AcDbEntity
  8
0
100
AcDbBlockEnd
  0
BLOCK
  5
2C959
330
2C95A
100
AcDbEntity
  8
0
100
AcDbBlockBegin
  2
*U1
 70
     1
 10
0.0
 20
0.0
 30
0.0
  3
*U1
  1

  0
TEXT
  5
2C877
330
2C95A
100
AcDbEntity
  8
SUNPOU
100
AcDbText
 10
1708.091794916773
 20
1125.744622954003
 30
0.0
 40
90.0
  1
375
 41
0.6666666666666666
  7
00
100
AcDbText
  0
ENDBLK
  5
2C879
330
2C95A
100
AcDbEntity
  8
0
100
AcDbBlockEnd
  0
BLOCK
  5
2C95B
330
2C95C
100
AcDbEntity
  8
0
100
AcDbBlockBegin
  2
*U2
 70
     1
 10
0.0
 20
0.0
 30
0.0
  3
*U2
  1

  0
TEXT
  5
2C87B
330
2C95C
100
AcDbEntity
  8
SUNPOU
100
AcDbText
 10
2083.091794916773
 20
1125.744622954003
 30
0.0
 40
90.0
  1
375
 41
0.6666666666666666
  7
00
100
AcDbText
  0
ENDBLK
  5
2C87D
330
2C95C
100
AcDbEntity
  8
0
100
AcDbBlockEnd
  0
BLOCK
  5
2C95D
330
2C95E
100
AcDbEntity
  8
0
100
AcDbBlockBegin
  2
*U3
 70
     1
 10
0.0
 20
0.0
 30
0.0
  3
*U3
  1

  0
TEXT
  5
2C87F
330
2C95E
100
AcDbEntity
  8
SUNPOU
100
AcDbText
 10
1895.591794916773
 20
915.7446229540033
 30
0.0
 40
90.0
  1
750
 41
0.6666666666666666
  7
00
100
AcDbText
  0
ENDBLK
  5
2C881
330
2C95E
100
AcDbEntity
  8
0
100
AcDbBlockEnd
  0
BLOCK
  5
2C95F
330
2C960
100
AcDbEntity
  8
0
100
AcDbBlockBegin
  2
*U4
 70
     1
 10
0.0
 20
0.0
 30
0.0
  3
*U4
  1

  0
TEXT
  5
2C883
330
2C960
100
AcDbEntity
  8
SUNPOU
100
AcDbText
 10
2900.856080631056
 20
2183.601765811148
 30
0.0
 40
90.0
  1
150
 50
90.0
 41
0.6666666666666666
  7
00
100
AcDbText
  0
ENDBLK
  5
2C885
330
2C960
100
AcDbEntity
  8
0
100
AcDbBlockEnd
  0
BLOCK
  5
2C961
330
2C962
100
AcDbEntity
  8
0
100
AcDbBlockBegin
  2
*U5
 70
     1
 10
0.0
 20
0.0
 30
0.0
  3
*U5
  1

  0
TEXT
  5
2C887
330
2C962
100
AcDbEntity
  8
SUNPOU
100
AcDbText
 10
2900.856080631056
 20
1665.030337239717
 30
0.0
 40
90.0
  1
480
 50
90.0
 41
0.6666666666666666
  7
00
100
AcDbText
  0
ENDBLK
  5
2C889
330
2C962
100
AcDbEntity
  8
0
100
AcDbBlockEnd
  0
BLOCK
  5
2C963
330
2C964
100
AcDbEntity
  8
0
100
AcDbBlockBegin
  2
*U6
 70
     1
 10
0.0
 20
0.0
 30
0.0
  3
*U6
  1

  0
TEXT
  5
2C88B
330
2C964
100
AcDbEntity
  8
SUNPOU
100
AcDbText
 10
2900.856080631056
 20
1166.662736498127
 30
0.0
 40
90.0
  1
100
 50
90.0
 41
0.6666666666666666
  7
00
100
AcDbText
  0
ENDBLK
  5
2C88D
330
2C964
100
AcDbEntity
  8
0
100
AcDbBlockEnd
  0
BLOCK
  5
2C965
330
2C966
100
AcDbEntity
  8
0
100
AcDbBlockBegin
  2
*U7
 70
     1
 10
0.0
 20
0.0
 30
0.0
  3
*U7
  1

  0
TEXT
  5
2C88F
330
2C966
100
AcDbEntity
  8
SUNPOU
100
AcDbText
 10
3102.998619794345
 20
1428.601765811145
 30
0.0
 40
90.0
  1
50
 50
90.0
 41
0.6666666666666666
  7
00
100
AcDbText
  0
ENDBLK
  5
2C891
330
2C966
100
AcDbEntity
  8
0
100
AcDbBlockEnd
  0
BLOCK
  5
2C967
330
2C968
100
AcDbEntity
  8
0
100
AcDbBlockBegin
  2
*U8
 70
     1
 10
0.0
 20
0.0
 30
0.0
  3
*U8
  1

  0
TEXT
  5
2C893
330
2C968
100
AcDbEntity
  8
SUNPOU
100
AcDbText
 10
5724.341260314205
 20
915.7446229540033
 30
0.0
 40
90.0
  1
750
 41
0.6666666666666666
  7
00
100
AcDbText
  0
ENDBLK
  5
2C895
330
2C968
100
AcDbEntity
  8
0
100
AcDbBlockEnd
  0
BLOCK
  5
2C969
330
2C96A
100
AcDbEntity
  8
0
100
AcDbBlockBegin
  2
*U9
 70
     1
 10
0.0
 20
0.0
 30
0.0
  3
*U9
  1

  0
TEXT
  5
2C897
330
2C96A
100
AcDbEntity
  8
SUNPOU
100
AcDbText
 10
5724.341260314205
 20
1125.744622954003
 30
0.0
 40
90.0
  1
480
 41
0.6666666666666666
  7
00
100
AcDbText
  0
ENDBLK
  5
2C899
330
2C96A
100
AcDbEntity
  8
0
100
AcDbBlockEnd
  0
BLOCK
  5
2C96B
330
2C96C
100
AcDbEntity
  8
0
100
AcDbBlockBegin
  2
*U10
 70
     1
 10
0.0
 20
0.0
 30
0.0
  3
*U10
  1

  0
TEXT
  5
2C89B
330
2C96C
100
AcDbEntity
  8
SUNPOU
100
AcDbText
 10
6515.055546028489
 20
1795.030337239716
 30
0.0
 40
90.0
  1
480
 50
90.0
 41
0.6666666666666666
  7
00
100
AcDbText
  0
ENDBLK
  5
2C89D
330
2C96C
100
AcDbEntity
  8
0
100
AcDbBlockEnd
  0
BLOCK
  5
2C96D
330
2C96E
100
AcDbEntity
  8
0
100
AcDbBlockBegin
  2
*U11
 70
     1
 10
0.0
 20
0.0
 30
0.0
  3
*U11
  1

  0
TEXT
  5
2C89F
330
2C96E
100
AcDbEntity
  8
SUNPOU
100
AcDbText
 10
6725.05554602849
 20
1795.030337239716
 30
0.0
 40
90.0
  1
750
 50
90.0
 41
0.6666666666666666
  7
00
100
AcDbText
  0
ENDBLK
  5
2C8A1
330
2C96E
100
AcDbEntity
  8
0
100
AcDbBlockEnd
  0
BLOCK
  5
2C96F
330
2C970
100
AcDbEntity
  8
0
100
AcDbBlockBegin
  2
*U12
 70
     1
 10
0.0
 20
0.0
 30
0.0
  3
*U12
  1

  0
TEXT
  5
2C8A3
330
2C970
100
AcDbEntity
  8
SUNPOU
100
AcDbText
 10
1895.591794916773
 20
2725.744622954003
 30
0.0
 40
90.0
  1
480
 41
0.6666666666666666
  7
00
100
AcDbText
  0
ENDBLK
  5
2C8A5
330
2C970
100
AcDbEntity
  8
0
100
AcDbBlockEnd
  0
BLOCK
  5
2C971
330
2C972
100
AcDbEntity
  8
0
100
AcDbBlockBegin
  2
*U13
 70
     1
 10
0.0
 20
0.0
 30
0.0
  3
*U13
  1

  0
TEXT
  5
2C8A7
330
2C972
100
AcDbEntity
  8
SUNPOU
100
AcDbText
 10
4368.429643942908
 20
4433.464770760363
 30
0.0
 40
90.0
  1
400
 41
0.6666666666666666
  7
00
100
AcDbText
  0
ENDBLK
  5
2C8A9
330
2C972
100
AcDbEntity
  8
0
100
AcDbBlockEnd
  0
BLOCK
  5
2C973
330
2C974
100
AcDbEntity
  8
0
100
AcDbBlockBegin
  2
*U14
 70
     1
 10
0.0
 20
0.0
 30
0.0
  3
*U14
  1

  0
TEXT
  5
2C8AB
330
2C974
100
AcDbEntity
  8
SUNPOU
100
AcDbText
 10
3759.143929657194
 20
6932.75048504608
 30
0.0
 40
90.0
  1
240
 50
90.0
 41
0.6666666666666666
  7
00
100
AcDbText
  0
ENDBLK
  5
2C8AD
330
2C974
100
AcDbEntity
  8
0
100
AcDbBlockEnd
  0
BLOCK
  5
2C975
330
2C976
100
AcDbEntity
  8
0
100
AcDbBlockBegin
  2
*U15
 70
     1
 10
0.0
 20
0.0
 30
0.0
  3
*U15
  1

  0
TEXT
  5
2C8AF
330
2C976
100
AcDbEntity
  8
SUNPOU
100
AcDbText
 10
3759.143929657192
 20
6079.893342188938
 30
0.0
 40
90.0
  1
1400
 50
90.0
 41
0.6666666666666666
  7
00
100
AcDbText
  0
ENDBLK
  5
2C8B1
330
2C976
100
AcDbEntity
  8
0
100
AcDbBlockEnd
  0
BLOCK
  5
2C977
330
2C978
100
AcDbEntity
  8
0
100
AcDbBlockBegin
  2
*U16
 70
     1
 10
0.0
 20
0.0
 30
0.0
  3
*U16
  1

  0
TEXT
  5
2C8B3
330
2C978
100
AcDbEntity
  8
SUNPOU
100
AcDbText
 10
3759.143929657192
 20
5111.321913617508
 30
0.0
 40
90.0
  1
600
 50
90.0
 41
0.6666666666666666
  7
00
100
AcDbText
  0
ENDBLK
  5
2C8B5
330
2C978
100
AcDbEntity
  8
0
100
AcDbBlockEnd
  0
BLOCK
  5
2C979
330
2C97A
100
AcDbEntity
  8
0
100
AcDbBlockBegin
  2
*U17
 70
     1
 10
0.0
 20
0.0
 30
0.0
  3
*U17
  1

  0
TEXT
  5
2C8B7
330
2C97A
100
AcDbEntity
  8
SUNPOU
100
AcDbText
 10
3549.143929657193
 20
5904.179056474649
 30
0.0
 40
90.0
  1
2240
 50
90.0
 41
0.6666666666666666
  7
00
100
AcDbText
  0
ENDBLK
  5
2C8B9
330
2C97A
100
AcDbEntity
  8
0
100
AcDbBlockEnd
  0
BLOCK
  5
2C97B
330
2C97C
100
AcDbEntity
  8
0
100
AcDbBlockBegin
  2
*U18
 70
     1
 10
0.0
 20
0.0
 30
0.0
  3
*U18
  1

  0
TEXT
  5
2C8BB
330
2C97C
100
AcDbEntity
  8
SUNPOU
100
AcDbText
 10
8109.143929657188
 20
6812.75048504608
 30
0.0
 40
90.0
  1
200
 50
90.0
 41
0.6666666666666666
  7
00
100
AcDbText
  0
ENDBLK
  5
2C8BD
330
2C97C
100
AcDbEntity
  8
0
100
AcDbBlockEnd
  0
BLOCK
  5
2C97D
330
2C97E
100
AcDbEntity
  8
0
100
AcDbBlockBegin
  2
*U19
 70
     1
 10
0.0
 20
0.0
 30
0.0
  3
*U19
  1

  0
TEXT
  5
2C8BF
330
2C97E
100
AcDbEntity
  8
SUNPOU
100
AcDbText
 10
8109.143929657186
 20
7181.321913617509
 30
0.0
 40
90.0
  1
140
 50
90.0
 41
0.6666666666666666
  7
00
100
AcDbText
  0
ENDBLK
  5
2C8C1
330
2C97E
100
AcDbEntity
  8
0
100
AcDbBlockEnd
  0
BLOCK
  5
2C97F
330
2C980
100
AcDbEntity
  8
0
100
AcDbBlockBegin
  2
*U20
 70
     1
 10
0.0
 20
0.0
 30
0.0
  3
*U20
  1

  0
TEXT
  5
2C8C3
330
2C980
100
AcDbEntity
  8
SUNPOU
100
AcDbText
 10
8109.143929657186
 20
6435.607627903222
 30
0.0
 40
90.0
  1
140
 50
90.0
 41
0.6666666666666666
  7
00
100
AcDbText
  0
ENDBLK
  5
2C8C5
330
2C980
100
AcDbEntity
  8
0
100
AcDbBlockEnd
  0
BLOCK
  5
2C981
330
2C982
100
AcDbEntity
  8
0
100
AcDbBlockBegin
  2
*U21
 70
     1
 10
0.0
 20
0.0
 30
0.0
  3
*U21
  1

  0
TEXT
  5
2C8C7
330
2C982
100
AcDbEntity
  8
SUNPOU
100
AcDbText
 10
8319.143929657185
 20
6300.607627903224
 30
0.0
 40
90.0
  1
135
 50
90.0
 41
0.6666666666666666
  7
00
100
AcDbText
  0
ENDBLK
  5
2C8C9
330
2C982
100
AcDbEntity
  8
0
100
AcDbBlockEnd
  0
BLOCK
  5
2C983
330
2C984
100
AcDbEntity
  8
0
100
AcDbBlockBegin
  2
*U22
 70
     1
 10
0.0
 20
0.0
 30
0.0
  3
*U22
  1

  0
TEXT
  5
2C8CB
330
2C984
100
AcDbEntity
  8
SUNPOU
100
AcDbText
 10
8319.143929657185
 20
7316.32191361751
 30
0.0
 40
90.0
  1
135
 50
90.0
 41
0.6666666666666666
  7
00
100
AcDbText
  0
ENDBLK
  5
2C8CD
330
2C984
100
AcDbEntity
  8
0
100
AcDbBlockEnd
  0
BLOCK
  5
2C985
330
2C986
100
AcDbEntity
  8
0
100
AcDbBlockBegin
  2
*U23
 70
     1
 10
0.0
 20
0.0
 30
0.0
  3
*U23
  1

  0
TEXT
  5
2C8CF
330
2C986
100
AcDbEntity
  8
SUNPOU
100
AcDbText
 10
8319.143929657185
 20
6812.75048504608
 30
0.0
 40
90.0
  1
480
 50
90.0
 41
0.6666666666666666
  7
00
100
AcDbText
  0
ENDBLK
  5
2C8D1
330
2C986
100
AcDbEntity
  8
0
100
AcDbBlockEnd
  0
BLOCK
  5
2C987
330
2C988
100
AcDbEntity
  8
0
100
AcDbBlockBegin
  2
*U24
 70
     1
 10
0.0
 20
0.0
 30
0.0
  3
*U24
  1

  0
TEXT
  5
2C8D3
330
2C988
100
AcDbEntity
  8
SUNPOU
100
AcDbText
 10
6734.143929657193
 20
7000.250485046082
 30
0.0
 40
90.0
  1
375
 50
90.0
 41
0.6666666666666666
  7
00
100
AcDbText
  0
ENDBLK
  5
2C8D5
330
2C988
100
AcDbEntity
  8
0
100
AcDbBlockEnd
  0
BLOCK
  5
2C989
330
2C98A
100
AcDbEntity
  8
0
100
AcDbBlockBegin
  2
*U25
 70
     1
 10
0.0
 20
0.0
 30
0.0
  3
*U25
  1

  0
TEXT
  5
2C8D7
330
2C98A
100
AcDbEntity
  8
SUNPOU
100
AcDbText
 10
6734.143929657193
 20
6625.250485046082
 30
0.0
 40
90.0
  1
375
 50
90.0
 41
0.6666666666666666
  7
00
100
AcDbText
  0
ENDBLK
  5
2C8D9
330
2C98A
100
AcDbEntity
  8
0
100
AcDbBlockEnd
  0
BLOCK
  5
2C98B
330
2C98C
100
AcDbEntity
  8
0
100
AcDbBlockBegin
  2
*U26
 70
     1
 10
0.0
 20
0.0
 30
0.0
  3
*U26
  1

  0
TEXT
  5
2C8DB
330
2C98C
100
AcDbEntity
  8
SUNPOU
100
AcDbText
 10
6524.143929657194
 20
6812.750485046082
 30
0.0
 40
90.0
  1
750
 50
90.0
 41
0.6666666666666666
  7
00
100
AcDbText
  0
ENDBLK
  5
2C8DD
330
2C98C
100
AcDbEntity
  8
0
100
AcDbBlockEnd
  0
BLOCK
  5
2C98D
330
2C98E
100
AcDbEntity
  8
0
100
AcDbBlockBegin
  2
*U27
 70
     1
 10
0.0
 20
0.0
 30
0.0
  3
*U27
  1

  0
TEXT
  5
2C8DF
330
2C98E
100
AcDbEntity
  8
SUNPOU
100
AcDbText
 10
8109.143929657188
 20
5412.750485046081
 30
0.0
 40
90.0
  1
200
 50
90.0
 41
0.6666666666666666
  7
00
100
AcDbText
  0
ENDBLK
  5
2C8E1
330
2C98E
100
AcDbEntity
  8
0
100
AcDbBlockEnd
  0
BLOCK
  5
2C98F
330
2C990
100
AcDbEntity
  8
0
100
AcDbBlockBegin
  2
*U28
 70
     1
 10
0.0
 20
0.0
 30
0.0
  3
*U28
  1

  0
TEXT
  5
2C8E3
330
2C990
100
AcDbEntity
  8
SUNPOU
100
AcDbText
 10
8109.143929657188
 20
5781.321913617508
 30
0.0
 40
90.0
  1
140
 50
90.0
 41
0.6666666666666666
  7
00
100
AcDbText
  0
ENDBLK
  5
2C8E5
330
2C990
100
AcDbEntity
  8
0
100
AcDbBlockEnd
  0
BLOCK
  5
2C991
330
2C992
100
AcDbEntity
  8
0
100
AcDbBlockBegin
  2
*U29
 70
     1
 10
0.0
 20
0.0
 30
0.0
  3
*U29
  1

  0
TEXT
  5
2C8E7
330
2C992
100
AcDbEntity
  8
SUNPOU
100
AcDbText
 10
8109.143929657188
 20
5035.607627903225
 30
0.0
 40
90.0
  1
140
 50
90.0
 41
0.6666666666666666
  7
00
100
AcDbText
  0
ENDBLK
  5
2C8E9
330
2C992
100
AcDbEntity
  8
0
100
AcDbBlockEnd
  0
BLOCK
  5
2C993
330
2C994
100
AcDbEntity
  8
0
100
AcDbBlockBegin
  2
*U30
 70
     1
 10
0.0
 20
0.0
 30
0.0
  3
*U30
  1

  0
TEXT
  5
2C8EB
330
2C994
100
AcDbEntity
  8
SUNPOU
100
AcDbText
 10
8319.143929657185
 20
4900.607627903224
 30
0.0
 40
90.0
  1
135
 50
90.0
 41
0.6666666666666666
  7
00
100
AcDbText
  0
ENDBLK
  5
2C8ED
330
2C994
100
AcDbEntity
  8
0
100
AcDbBlockEnd
  0
BLOCK
  5
2C995
330
2C996
100
AcDbEntity
  8
0
100
AcDbBlockBegin
  2
*U31
 70
     1
 10
0.0
 20
0.0
 30
0.0
  3
*U31
  1

  0
TEXT
  5
2C8EF
330
2C996
100
AcDbEntity
  8
SUNPOU
100
AcDbText
 10
8319.143929657185
 20
5916.321913617509
 30
0.0
 40
90.0
  1
135
 50
90.0
 41
0.6666666666666666
  7
00
100
AcDbText
  0
ENDBLK
  5
2C8F1
330
2C996
100
AcDbEntity
  8
0
100
AcDbBlockEnd
  0
BLOCK
  5
2C997
330
2C998
100
AcDbEntity
  8
0
100
AcDbBlockBegin
  2
*U32
 70
     1
 10
0.0
 20
0.0
 30
0.0
  3
*U32
  1

  0
TEXT
  5
2C8F3
330
2C998
100
AcDbEntity
  8
SUNPOU
100
AcDbText
 10
8319.143929657185
 20
5412.750485046081
 30
0.0
 40
90.0
  1
480
 50
90.0
 41
0.6666666666666666
  7
00
100
AcDbText
  0
ENDBLK
  5
2C8F5
330
2C998
100
AcDbEntity
  8
0
100
AcDbBlockEnd
  0
BLOCK
  5
2C999
330
2C99A
100
AcDbEntity
  8
0
100
AcDbBlockBegin
  2
*U33
 70
     1
 10
0.0
 20
0.0
 30
0.0
  3
*U33
  1

  0
TEXT
  5
2C8F7
330
2C99A
100
AcDbEntity
  8
SUNPOU
100
AcDbText
 10
6734.143929657195
 20
5600.250485046083
 30
0.0
 40
90.0
  1
375
 50
90.0
 41
0.6666666666666666
  7
00
100
AcDbText
  0
ENDBLK
  5
2C8F9
330
2C99A
100
AcDbEntity
  8
0
100
AcDbBlockEnd
  0
BLOCK
  5
2C99B
330
2C99C
100
AcDbEntity
  8
0
100
AcDbBlockBegin
  2
*U34
 70
     1
 10
0.0
 20
0.0
 30
0.0
  3
*U34
  1

  0
TEXT
  5
2C8FB
330
2C99C
100
AcDbEntity
  8
SUNPOU
100
AcDbText
 10
6734.143929657195
 20
5225.250485046083
 30
0.0
 40
90.0
  1
375
 50
90.0
 41
0.6666666666666666
  7
00
100
AcDbText
  0
ENDBLK
  5
2C8FD
330
2C99C
100
AcDbEntity
  8
0
100
AcDbBlockEnd
  0
BLOCK
  5
2C99D
330
2C99E
100
AcDbEntity
  8
0
100
AcDbBlockBegin
  2
*U35
 70
     1
 10
0.0
 20
0.0
 30
0.0
  3
*U35
  1

  0
TEXT
  5
2C8FF
330
2C99E
100
AcDbEntity
  8
SUNPOU
100
AcDbText
 10
6524.143929657194
 20
5412.750485046083
 30
0.0
 40
90.0
  1
750
 50
90.0
 41
0.6666666666666666
  7
00
100
AcDbText
  0
ENDBLK
  5
2C901
330
2C99E
100
AcDbEntity
  8
0
100
AcDbBlockEnd
  0
BLOCK
  5
2C99F
330
2C9A0
100
AcDbEntity
  8
0
100
AcDbBlockBegin
  2
*U36
 70
     1
 10
0.0
 20
0.0
 30
0.0
  3
*U36
  1

  0
TEXT
  5
2C903
330
2C9A0
100
AcDbEntity
  8
SUNPOU
100
AcDbText
 10
7568.429643942906
 20
4433.464770760363
 30
0.0
 40
90.0
  1
400
 41
0.6666666666666666
  7
00
100
AcDbText
  0
ENDBLK
  5
2C905
330
2C9A0
100
AcDbEntity
  8
0
100
AcDbBlockEnd
  0
BLOCK
  5
2C9A1
330
2C9A2
100
AcDbEntity
  8
0
100
AcDbBlockBegin
  2
*U37
 70
     1
 10
0.0
 20
0.0
 30
0.0
  3
*U37
  1

  0
TEXT
  5
2C907
330
2C9A2
100
AcDbEntity
  8
SUNPOU
100
AcDbText
 10
5939.858215371479
 20
4433.464770760363
 30
0.0
 40
90.0
  1
2800
 41
0.6666666666666666
  7
00
100
AcDbText
  0
ENDBLK
  5
2C909
330
2C9A2
100
AcDbEntity
  8
0
100
AcDbBlockEnd
  0
ENDSEC
  0
SECTION
  2
ENTITIES
  0
TEXT
  5
24213
330
2C925
100
AcDbEntity
  8
NAME
100
AcDbText
 10
9402.694977008243
 20
716.25
 30
0.0
 40
120.0
  1
YORS
 41
0.7
  7
01
100
AcDbText
  0
TEXT
  5
24214
330
2C925
100
AcDbEntity
  8
NAME
100
AcDbText
 10
8327.765992739108
 20
716.25
 30
0.0
 40
120.0
  1
ヨド自転車置場      型
  7
01
100
AcDbText
  0
TEXT
  5
24215
330
2C925
100
AcDbEntity
  8
NAME
100
AcDbText
 10
8862.031985478221
 20
405.75
 30
0.0
 40
120.0
  1
型（積雪地用）
 41
0.8
  7
01
100
AcDbText
  0
TEXT
  5
24216
330
2C925
100
AcDbEntity
  8
NAME
100
AcDbText
 10
8092.031985478223
 20
405.75
 30
0.0
 40
120.0
  1
YORS-280B
 41
0.7
  7
01
 72
     2
 11
8832.031985478222
 21
405.75
 31
0.0
100
AcDbText
  0
TEXT
  5
24217
330
2C925
100
AcDbEntity
  8
NAME
100
AcDbText
 10
9641.10000000001
 20
405.75
 30
0.0
 40
120.0
  1
<3／3>
 41
0.6
  7
01
 72
     2
 11
10015.50000000001
 21
405.75
 31
0.0
100
AcDbText
  0
TEXT
  5
2A5AD
330
2C925
100
AcDbEntity
  8
SUNPOU
100
AcDbText
 10
5208.251072514338
 20
5834.893342188934
 30
0.0
 40
90.0
  1
A'
 41
0.6700000000000001
  7
00
 72
     4
 11
5244.143929657195
 21
5888.464770760363
 31
0.0
100
AcDbText
  0
LINE
  5
2A5AE
330
2C925
100
AcDbEntity
  8
SUNPOU
100
AcDbLine
 10
5244.143929657195
 20
5498.464770760366
 30
0.0
 11
5094.143929657193
 21
5498.464770760366
 31
0.0
  0
LINE
  5
2A5AF
330
2C925
100
AcDbEntity
  8
SUNPOU
100
AcDbLine
 10
5244.143929657195
 20
5708.464770760366
 30
0.0
 11
5244.143929657195
 21
5498.464770760366
 31
0.0
  0
TEXT
  5
2A5B0
330
2C925
100
AcDbEntity
  8
SUNPOU
100
AcDbText
 10
4038.301072514334
 20
5843.464770760363
 30
0.0
 40
90.0
  1
A
 41
0.6700000000000001
  7
00
 72
     4
 11
4064.14392965719
 21
5888.464770760363
 31
0.0
100
AcDbText
  0
LINE
  5
2A5B1
330
2C925
100
AcDbEntity
  8
SUNPOU
100
AcDbLine
 10
4064.143929657194
 20
5498.464770760366
 30
0.0
 11
4214.143929657193
 21
5498.464770760366
 31
0.0
  0
LINE
  5
2A5B2
330
2C925
100
AcDbEntity
  8
SUNPOU
100
AcDbLine
 10
4064.14392965719
 20
5708.464770760366
 30
0.0
 11
4064.14392965719
 21
5498.464770760366
 31
0.0
  0
CIRCLE
  5
2A5CF
330
2C925
100
AcDbEntity
  8
KISO-2
100
AcDbCircle
 10
7454.143929657195
 20
5498.464770760366
 30
0.0
 40
44.55
  0
LINE
  5
2A623
330
2C925
100
AcDbEntity
  8
SUNPOU
100
AcDbLine
 10
7829.143929657186
 20
7643.464770760363
 30
0.0
 11
7829.143929657186
 21
7628.464770760366
 31
0.0
  0
LINE
  5
2A624
330
2C925
100
AcDbEntity
  8
SUNPOU
100
AcDbLine
 10
7844.143929657189
 20
7673.464770760367
 30
0.0
 11
7859.143929657188
 21
7673.464770760367
 31
0.0
  0
LINE
  5
2A625
330
2C925
100
AcDbEntity
  8
SUNPOU
100
AcDbLine
 10
7679.143929657186
 20
7673.464770760367
 30
0.0
 11
7664.143929657187
 21
7673.464770760367
 31
0.0
  0
LINE
  5
2A626
330
2C925
100
AcDbEntity
  8
SUNPOU
100
AcDbLine
 10
7829.143929657186
 20
7303.464770760363
 30
0.0
 11
7829.143929657186
 21
7928.464770760363
 31
0.0
  0
LINE
  5
2A627
330
2C925
100
AcDbEntity
  8
SUNPOU
100
AcDbLine
 10
7214.143929657196
 20
7643.464770760363
 30
0.0
 11
7214.143929657196
 21
7628.464770760366
 31
0.0
  0
LINE
  5
2A628
330
2C925
100
AcDbEntity
  8
SUNPOU
100
AcDbLine
 10
7229.143929657195
 20
7673.464770760367
 30
0.0
 11
7244.143929657195
 21
7673.464770760367
 31
0.0
  0
LINE
  5
2A629
330
2C925
100
AcDbEntity
  8
SUNPOU
100
AcDbLine
 10
7079.143929657195
 20
7643.464770760363
 30
0.0
 11
7079.143929657195
 21
7628.464770760366
 31
0.0
  0
LINE
  5
2A62A
330
2C925
100
AcDbEntity
  8
SUNPOU
100
AcDbLine
 10
7064.143929657196
 20
7673.464770760367
 30
0.0
 11
7049.1439296572
 21
7673.464770760367
 31
0.0
  0
TEXT
  5
2A62B
330
2C925
100
AcDbEntity
  8
SUNPOU
100
AcDbText
 10
6890.729643942913
 20
7718.464770760363
 30
0.0
 40
90.0
  1
135
 41
0.6666666666666666
  7
00
 72
     1
 11
6980.729643942912
 21
7763.464770760363
 31
0.0
100
AcDbText
 73
     2
  0
LINE
  5
2A62C
330
2C925
100
AcDbEntity
  8
SUNPOU
100
AcDbLine
 10
7214.143929657196
 20
7673.464770760367
 30
0.0
 11
6915.015358228626
 21
7673.464770760367
 31
0.0
  0
LINE
  5
2A62D
330
2C925
100
AcDbEntity
  8
SUNPOU
100
AcDbLine
 10
7079.143929657195
 20
7303.464770760363
 30
0.0
 11
7079.143929657195
 21
7928.464770760363
 31
0.0
  0
LINE
  5
2A62E
330
2C925
100
AcDbEntity
  8
SUNPOU
100
AcDbLine
 10
7094.143929657196
 20
7883.464770760366
 30
0.0
 11
7814.143929657188
 21
7883.464770760366
 31
0.0
  0
LINE
  5
2A62F
330
2C925
100
AcDbEntity
  8
SUNPOU
100
AcDbLine
 10
7229.143929657195
 20
7673.464770760367
 30
0.0
 11
7679.143929657186
 21
7673.464770760367
 31
0.0
  0
TEXT
  5
2A630
330
2C925
100
AcDbEntity
  8
SUNPOU
100
AcDbText
 10
7368.42964394291
 20
7718.464770760363
 30
0.0
 40
90.0
  1
480
 41
0.6666666666666666
  7
00
 72
     1
 11
7454.143929657195
 21
7763.464770760363
 31
0.0
100
AcDbText
 73
     2
  0
LINE
  5
2A631
330
2C925
100
AcDbEntity
  8
SUNPOU
100
AcDbLine
 10
7369.143929657195
 20
7463.464770760366
 30
0.0
 11
7539.143929657196
 21
7463.464770760366
 31
0.0
  0
TEXT
  5
2A632
330
2C925
100
AcDbEntity
  8
SUNPOU
100
AcDbText
 10
7368.42964394291
 20
7508.464770760362
 30
0.0
 40
90.0
  1
200
 41
0.6666666666666666
  7
00
 72
     1
 11
7454.143929657195
 21
7553.464770760363
 31
0.0
100
AcDbText
 73
     2
  0
TEXT
  5
2A633
330
2C925
100
AcDbEntity
  8
SUNPOU
100
AcDbText
 10
7368.42964394291
 20
7928.464770760367
 30
0.0
 40
90.0
  1
750
 41
0.6666666666666666
  7
00
 72
     1
 11
7454.143929657195
 21
7973.464770760367
 31
0.0
100
AcDbText
 73
     2
  0
CIRCLE
  5
2A637
330
2C925
100
AcDbEntity
  8
KISO-2
100
AcDbCircle
 10
7454.143929657195
 20
6898.464770760367
 30
0.0
 40
44.55
  0
TEXT
  5
2A643
330
2C925
100
AcDbEntity
  8
HIKIDASHI
100
AcDbText
 10
6888.975032409596
 20
6403.464770760364
 30
0.0
 40
90.0
  1
柱
  7
01
100
AcDbText
  0
LINE
  5
2A648
330
2C925
100
AcDbEntity
  8
HIKIDASHI
100
AcDbLine
 10
6344.650652995961
 20
4598.464770760362
 30
0.0
 11
6702.195767577858
 21
4598.464770760362
 31
0.0
  0
TEXT
  5
2A649
330
2C925
100
AcDbEntity
  8
HIKIDASHI
100
AcDbText
 10
6367.380125226198
 20
4643.464770760362
 30
0.0
 40
90.0
  1
控え柱
  7
01
100
AcDbText
  0
LINE
  5
2A668
330
2C925
100
AcDbEntity
  8
SUNPOU
100
AcDbLine
 10
7214.143929657196
 20
7168.464770760363
 30
0.0
 11
7214.143929657196
 21
7718.464770760363
 31
0.0
  0
LINE
  5
2A669
330
2C925
100
AcDbEntity
  8
SUNPOU
100
AcDbLine
 10
7694.143929657187
 20
7168.464770760363
 30
0.0
 11
7694.143929657187
 21
7718.464770760363
 31
0.0
  0
LINE
  5
2A66A
330
2C925
100
AcDbEntity
  8
SUNPOU
100
AcDbLine
 10
7354.143929657195
 20
7058.464770760362
 30
0.0
 11
7354.143929657195
 21
7508.464770760366
 31
0.0
  0
LINE
  5
2A66B
330
2C925
100
AcDbEntity
  8
SUNPOU
100
AcDbLine
 10
7554.143929657195
 20
7058.464770760362
 30
0.0
 11
7554.143929657195
 21
7508.464770760366
 31
0.0
  0
LINE
  5
2A66C
330
2C925
100
AcDbEntity
  8
SIN
100
AcDbLine
 10
7454.143929657195
 20
7365.464770760365
 30
0.0
 11
7454.143929657195
 21
5056.464770760366
 31
0.0
  0
LINE
  5
2A673
330
2C925
100
AcDbEntity
  8
SUNPOU
100
AcDbLine
 10
7694.143929657187
 20
7673.464770760367
 30
0.0
 11
8021.852330467901
 21
7673.464770760367
 31
0.0
  0
TEXT
  5
2A674
330
2C925
100
AcDbEntity
  8
SUNPOU
100
AcDbText
 10
7854.490246898527
 20
7718.464770760363
 30
0.0
 40
90.0
  1
135
 41
0.6666666666666666
  7
00
 72
     1
 11
7944.490246898528
 21
7763.464770760363
 31
0.0
100
AcDbText
 73
     2
  0
LINE
  5
2A69D
330
2C925
100
AcDbEntity
  8
BOLT
100
AcDbLine
 10
4784.143929657193
 20
6998.464770760367
 30
0.0
 11
4724.143929657193
 21
6998.464770760367
 31
0.0
  0
LINE
  5
2A69E
330
2C925
100
AcDbEntity
  8
BOLT
100
AcDbLine
 10
4754.143929657193
 20
7028.464770760367
 30
0.0
 11
4754.143929657193
 21
6968.464770760363
 31
0.0
  0
LINE
  5
2A69F
330
2C925
100
AcDbEntity
  8
BOLT
100
AcDbLine
 10
4554.143929657193
 20
7028.464770760367
 30
0.0
 11
4554.143929657193
 21
6968.464770760363
 31
0.0
  0
LINE
  5
2A6A0
330
2C925
100
AcDbEntity
  8
BOLT
100
AcDbLine
 10
4524.143929657193
 20
6998.464770760367
 30
0.0
 11
4584.143929657193
 21
6998.464770760367
 31
0.0
  0
LINE
  5
2A6A1
330
2C925
100
AcDbEntity
  8
SIN
100
AcDbLine
 10
4773.693929657191
 20
6898.464770760367
 30
0.0
 11
4534.593929657193
 21
6898.464770760367
 31
0.0
  0
LINE
  5
2A6A2
330
2C925
100
AcDbEntity
  8
BOLT
100
AcDbLine
 10
4784.143929657193
 20
6798.464770760367
 30
0.0
 11
4724.143929657193
 21
6798.464770760367
 31
0.0
  0
LINE
  5
2A6A3
330
2C925
100
AcDbEntity
  8
BOLT
100
AcDbLine
 10
4754.143929657193
 20
6768.464770760366
 30
0.0
 11
4754.143929657193
 21
6828.464770760366
 31
0.0
  0
LINE
  5
2A6A4
330
2C925
100
AcDbEntity
  8
BOLT
100
AcDbLine
 10
4554.143929657193
 20
6768.464770760366
 30
0.0
 11
4554.143929657193
 21
6828.464770760366
 31
0.0
  0
LINE
  5
2A6A5
330
2C925
100
AcDbEntity
  8
BOLT
100
AcDbLine
 10
4524.143929657193
 20
6798.464770760367
 30
0.0
 11
4584.143929657193
 21
6798.464770760367
 31
0.0
  0
CIRCLE
  5
2A6A6
330
2C925
100
AcDbEntity
  8
KISO-2
100
AcDbCircle
 10
4654.143929657194
 20
6898.464770760367
 30
0.0
 40
44.55
  0
LINE
  5
2A6A8
330
2C925
100
AcDbEntity
  8
BOLT
100
AcDbLine
 10
4784.143929657193
 20
5598.464770760362
 30
0.0
 11
4724.143929657193
 21
5598.464770760362
 31
0.0
  0
LINE
  5
2A6A9
330
2C925
100
AcDbEntity
  8
BOLT
100
AcDbLine
 10
4754.143929657193
 20
5628.464770760366
 30
0.0
 11
4754.143929657193
 21
5568.464770760368
 31
0.0
  0
LINE
  5
2A6AA
330
2C925
100
AcDbEntity
  8
BOLT
100
AcDbLine
 10
4554.143929657193
 20
5628.464770760366
 30
0.0
 11
4554.143929657193
 21
5568.464770760368
 31
0.0
  0
LINE
  5
2A6AB
330
2C925
100
AcDbEntity
  8
BOLT
100
AcDbLine
 10
4524.143929657193
 20
5598.464770760362
 30
0.0
 11
4584.143929657193
 21
5598.464770760362
 31
0.0
  0
LINE
  5
2A6AC
330
2C925
100
AcDbEntity
  8
BOLT
100
AcDbLine
 10
4784.143929657193
 20
5398.464770760366
 30
0.0
 11
4724.143929657193
 21
5398.464770760366
 31
0.0
  0
LINE
  5
2A6AD
330
2C925
100
AcDbEntity
  8
BOLT
100
AcDbLine
 10
4754.143929657193
 20
5368.464770760366
 30
0.0
 11
4754.143929657193
 21
5428.464770760366
 31
0.0
  0
LINE
  5
2A6AE
330
2C925
100
AcDbEntity
  8
BOLT
100
AcDbLine
 10
4554.143929657193
 20
5368.464770760366
 30
0.0
 11
4554.143929657193
 21
5428.464770760366
 31
0.0
  0
LINE
  5
2A6AF
330
2C925
100
AcDbEntity
  8
BOLT
100
AcDbLine
 10
4524.143929657193
 20
5398.464770760366
 30
0.0
 11
4584.143929657193
 21
5398.464770760366
 31
0.0
  0
LINE
  5
2A6B0
330
2C925
100
AcDbEntity
  8
SIN
100
AcDbLine
 10
4773.693929657191
 20
5498.464770760366
 30
0.0
 11
4534.593929657193
 21
5498.464770760366
 31
0.0
  0
CIRCLE
  5
2A6B2
330
2C925
100
AcDbEntity
  8
KISO-2
100
AcDbCircle
 10
4654.143929657194
 20
5498.464770760366
 30
0.0
 40
44.55
  0
TEXT
  5
2A6B3
330
2C925
100
AcDbEntity
  8
HIKIDASHI
100
AcDbText
 10
5357.178319741895
 20
6892.014043141706
 30
0.0
 40
90.0
  1
（屋根後面位置）
  7
01
100
AcDbText
  0
TEXT
  5
2A6B4
330
2C925
100
AcDbEntity
  8
HIKIDASHI
100
AcDbText
 10
5248.53223008036
 20
4763.464770760356
 30
0.0
 40
90.0
  1
（土間コン前面位置）
  7
01
100
AcDbText
  0
TEXT
  5
2A6B5
330
2C925
100
AcDbEntity
  8
HIKIDASHI
100
AcDbText
 10
5357.178319741895
 20
5054.915498379022
 30
0.0
 40
90.0
  1
（鼻隠し外面）
  7
01
100
AcDbText
  0
TEXT
  5
2A6B6
330
2C925
100
AcDbEntity
  8
HIKIDASHI
100
AcDbText
 10
5248.53223008036
 20
7183.46477076037
 30
0.0
 40
90.0
  1
（土間コン後面位置）
  7
01
100
AcDbText
  0
LINE
  5
2A6B7
330
2C925
100
AcDbEntity
  8
SIN
100
AcDbLine
 10
4654.143929657194
 20
7340.464770760366
 30
0.0
 11
4654.143929657194
 21
5056.464770760366
 31
0.0
  0
TEXT
  5
2A6BD
330
2C925
100
AcDbEntity
  8
HIKIDASHI
100
AcDbText
 10
4388.665031236953
 20
5873.46477076036
 30
0.0
 40
90.0
  1
（ケラバ外面）
 50
90.0
 41
0.9
  7
01
100
AcDbText
  0
TEXT
  5
2A6C3
330
2C925
100
AcDbEntity
  8
HIKIDASHI
100
AcDbText
 10
4209.14392965719
 20
5714.677995545154
 30
0.0
 40
90.0
  1
（土間コン側面位置）
 50
90.0
 41
0.9
  7
01
100
AcDbText
  0
LINE
  5
2A6CB
330
2C925
100
AcDbEntity
  8
KISO-3
100
AcDbLine
 10
4414.143929657194
 20
5738.464770760362
 30
0.0
 11
4894.143929657193
 21
5738.464770760362
 31
0.0
  0
TEXT
  5
2A6EE
330
2C925
100
AcDbEntity
  8
SUNPOU
100
AcDbText
 10
2399.479226137721
 20
2275.744622954003
 30
0.0
 40
90.0
  1
F.L
 50
0.0000000000000799
 41
0.6666666666666666
  7
00
 72
     4
 11
2468.05065470915
 21
2320.744622954003
 31
0.0
100
AcDbText
  0
LINE
  5
2A6F4
330
2C925
100
AcDbEntity
  8
U3
100
AcDbLine
 10
1384.945690937851
 20
2069.384233260793
 30
0.0
 11
1343.58530124464
 21
2110.744622954002
 31
0.0
  0
LINE
  5
2A6F5
330
2C925
100
AcDbEntity
  8
U3
100
AcDbLine
 10
1531.306080631058
 20
2005.744622954004
 30
0.0
 11
1426.306080631059
 21
2110.744622954003
 31
0.0
  0
LINE
  5
2A6F6
330
2C925
100
AcDbEntity
  8
U3
100
AcDbLine
 10
1489.945690937848
 20
2047.105012647213
 30
0.0
 11
1448.585301244637
 21
2005.744622954003
 31
0.0
  0
LINE
  5
2A6F7
330
2C925
100
AcDbEntity
  8
U3
100
AcDbLine
 10
1458.125885784453
 20
2078.924817800607
 30
0.0
 11
1384.945690937848
 21
2005.744622954002
 31
0.0
  0
LINE
  5
2A6F8
330
2C925
100
AcDbEntity
  8
U3
100
AcDbLine
 10
1426.306080631059
 20
2110.744622954003
 30
0.0
 11
1321.306080631062
 21
2005.744622954004
 31
0.0
  0
LINE
  5
2A6F9
330
2C925
100
AcDbEntity
  8
U3
100
AcDbLine
 10
1594.945690937848
 20
2069.384233260794
 30
0.0
 11
1553.585301244639
 21
2110.744622954003
 31
0.0
  0
LINE
  5
2A6FA
330
2C925
100
AcDbEntity
  8
U3
100
AcDbLine
 10
1741.306080631057
 20
2069.384233260789
 30
0.0
 11
1699.945690937843
 21
2110.744622954003
 31
0.0
  0
LINE
  5
2A6FB
330
2C925
100
AcDbEntity
  8
HATCH
100
AcDbLine
 10
2291.004565440892
 20
1990.744622954004
 30
0.0
 11
2211.306080631059
 21
1911.046138144171
 31
0.0
  0
LINE
  5
2A6FC
330
2C925
100
AcDbEntity
  8
HATCH
100
AcDbLine
 10
2320.703050250725
 20
1990.744622954002
 30
0.0
 11
2211.306080631059
 21
1881.347653334335
 31
0.0
  0
LINE
  5
2A6FD
330
2C925
100
AcDbEntity
  8
KISO
100
AcDbLine
 10
2356.306080631059
 20
1990.744622954002
 30
0.0
 11
2221.306080631058
 21
1990.744622954002
 31
0.0
  0
LINE
  5
2A6FE
330
2C925
100
AcDbEntity
  8
U3
100
AcDbLine
 10
1699.945690937848
 20
2047.105012647215
 30
0.0
 11
1658.585301244636
 21
2005.744622954003
 31
0.0
  0
LINE
  5
2A6FF
330
2C925
100
AcDbEntity
  8
U3
100
AcDbLine
 10
1741.306080631058
 20
2005.744622954005
 30
0.0
 11
1636.306080631057
 21
2110.744622954003
 31
0.0
  0
LINE
  5
2A700
330
2C925
100
AcDbEntity
  8
U3
100
AcDbLine
 10
1668.125885784453
 20
2078.924817800607
 30
0.0
 11
1594.945690937848
 21
2005.744622954003
 31
0.0
  0
LINE
  5
2A701
330
2C925
100
AcDbEntity
  8
KISO
100
AcDbLine
 10
2221.306080631057
 20
1990.744622954002
 30
0.0
 11
2221.306080631058
 21
2140.744622954002
 31
0.0
  0
LINE
  5
2A702
330
2C925
100
AcDbEntity
  8
U3
100
AcDbLine
 10
1563.125885784454
 20
2037.564428107399
 30
0.0
 11
1489.945690937848
 21
2110.744622954003
 31
0.0
  0
LINE
  5
2A703
330
2C925
100
AcDbEntity
  8
U3
100
AcDbLine
 10
1636.306080631057
 20
2110.744622954003
 30
0.0
 11
1531.306080631058
 21
2005.744622954004
 31
0.0
  0
CIRCLE
  5
2A704
330
2C925
100
AcDbEntity
  8
U7
100
AcDbCircle
 10
2286.306080631058
 20
1567.244622954003
 30
0.0
 40
6.5
  0
LINE
  5
2A705
330
2C925
100
AcDbEntity
  8
U1
100
AcDbLine
 10
2194.306080631059
 20
1583.744622954003
 30
0.0
 11
2227.806080631059
 21
1583.744622954002
 31
0.0
  0
LINE
  5
2A706
330
2C925
100
AcDbEntity
  8
HATCH
100
AcDbLine
 10
2356.306080631059
 20
1696.950683714661
 30
0.0
 11
2266.600019870396
 21
1607.244622954002
 31
0.0
  0
LINE
  5
2A707
330
2C925
100
AcDbEntity
  8
HATCH
100
AcDbLine
 10
2356.306080631059
 20
1726.649168524502
 30
0.0
 11
2236.90153506056
 21
1607.244622954002
 31
0.0
  0
LINE
  5
2A708
330
2C925
100
AcDbEntity
  8
HATCH
100
AcDbLine
 10
2356.306080631059
 20
1756.347653334339
 30
0.0
 11
2211.30608063106
 21
1611.347653334338
 31
0.0
  0
LINE
  5
2A709
330
2C925
100
AcDbEntity
  8
HATCH
100
AcDbLine
 10
2350.401535060565
 20
1990.744622954004
 30
0.0
 11
2211.306080631057
 21
1851.649168524497
 31
0.0
  0
LINE
  5
2A70D
330
2C925
100
AcDbEntity
  8
U3
100
AcDbLine
 10
1279.945690937851
 20
2110.744622954002
 30
0.0
 11
1741.306080631058
 21
2110.744622954003
 31
0.0
  0
LINE
  5
2A70E
330
2C925
100
AcDbEntity
  8
U3
100
AcDbLine
 10
1353.125885784456
 20
2037.564428107399
 30
0.0
 11
1279.945690937851
 21
2110.744622954002
 31
0.0
  0
TEXT
  5
2A713
330
2C925
100
AcDbEntity
  8
HIKIDASHI
100
AcDbText
 10
2916.003881448336
 20
1023.864494626815
 30
0.0
 40
90.0
  1
主筋
  7
01
100
AcDbText
  0
LINE
  5
2A714
330
2C925
100
AcDbEntity
  8
KISO
100
AcDbLine
 10
2406.306080631059
 20
1360.744622954004
 30
0.0
 11
2406.306080631059
 21
1510.744622954003
 31
0.0
  0
LINE
  5
2A71B
330
2C925
100
AcDbEntity
  8
KISO
100
AcDbLine
 10
2356.306080631059
 20
1510.744622954003
 30
0.0
 11
2356.306080631059
 21
1990.744622954002
 31
0.0
  0
LINE
  5
2A720
330
2C925
100
AcDbEntity
  8
HATCH
100
AcDbLine
 10
2101.703050250729
 20
2109.744622954003
 30
0.0
 11
2070.703050250725
 21
2140.744622954002
 31
0.0
  0
LINE
  5
2A721
330
2C925
100
AcDbEntity
  8
HATCH
100
AcDbLine
 10
2131.401535060566
 20
2109.744622954003
 30
0.0
 11
2100.401535060562
 21
2140.744622954002
 31
0.0
  0
LINE
  5
2A722
330
2C925
100
AcDbEntity
  8
HATCH
100
AcDbLine
 10
2072.004565440886
 20
2109.744622954001
 30
0.0
 11
2041.004565440889
 21
2140.744622954002
 31
0.0
  0
LINE
  5
2A723
330
2C925
100
AcDbEntity
  8
KISO
100
AcDbLine
 10
2025.856080631057
 20
2122.744622954003
 30
0.0
 11
2121.306080631059
 21
2002.744622954002
 31
0.0
  0
CIRCLE
  5
2A724
330
2C925
100
AcDbEntity
  8
U7
100
AcDbCircle
 10
1776.806080631059
 20
2101.244622954002
 30
0.0
 40
4.5
  0
LINE
  5
2A725
330
2C925
100
AcDbEntity
  8
HATCH
100
AcDbLine
 10
1772.306080631058
 20
2109.744622954001
 30
0.0
 11
1741.306080631058
 21
2140.744622954002
 31
0.0
  0
LINE
  5
2A726
330
2C925
100
AcDbEntity
  8
HATCH
100
AcDbLine
 10
1802.004565440896
 20
2109.744622954001
 30
0.0
 11
1771.004565440895
 21
2140.744622954002
 31
0.0
  0
LINE
  5
2A727
330
2C925
100
AcDbEntity
  8
HATCH
100
AcDbLine
 10
1831.70305025073
 20
2109.744622954001
 30
0.0
 11
1800.703050250725
 21
2140.744622954002
 31
0.0
  0
CIRCLE
  5
2A728
330
2C925
100
AcDbEntity
  8
U7
100
AcDbCircle
 10
1776.806080631059
 20
2001.244622954002
 30
0.0
 40
4.5
  0
CIRCLE
  5
2A729
330
2C925
100
AcDbEntity
  8
U7
100
AcDbCircle
 10
1776.806080631059
 20
1901.244622954002
 30
0.0
 40
4.5
  0
LINE
  5
2A72A
330
2C925
100
AcDbEntity
  8
KISO
100
AcDbLine
 10
1936.756080631054
 20
2122.744622954001
 30
0.0
 11
1841.306080631057
 21
2002.744622954002
 31
0.0
  0
LINE
  5
2A72B
330
2C925
100
AcDbEntity
  8
KISO
100
AcDbLine
 10
1741.306080631058
 20
2140.744622954002
 30
0.0
 11
1741.306080631058
 21
1990.744622954002
 31
0.0
  0
LINE
  5
2A72D
330
2C925
100
AcDbEntity
  8
U7
100
AcDbLine
 10
1781.306080631058
 20
2001.244622954002
 30
0.0
 11
2181.306080631059
 21
2001.244622954002
 31
0.0
  0
LINE
  5
2A72E
330
2C925
100
AcDbEntity
  8
U7
100
AcDbLine
 10
1781.306080631058
 20
2101.244622954002
 30
0.0
 11
2181.306080631059
 21
2101.244622954002
 31
0.0
  0
LINE
  5
2A72F
330
2C925
100
AcDbEntity
  8
U7
100
AcDbLine
 10
1781.306080631058
 20
1901.244622954002
 30
0.0
 11
2181.306080631059
 21
1901.244622954004
 31
0.0
  0
CIRCLE
  5
2A732
330
2C925
100
AcDbEntity
  8
U7
100
AcDbCircle
 10
1776.806080631059
 20
1801.244622954003
 30
0.0
 40
4.5
  0
CIRCLE
  5
2A733
330
2C925
100
AcDbEntity
  8
U7
100
AcDbCircle
 10
1676.306080631058
 20
1567.244622954003
 30
0.0
 40
6.5
  0
LINE
  5
2A734
330
2C925
100
AcDbEntity
  8
U1
100
AcDbLine
 10
1768.306080631057
 20
1583.744622954003
 30
0.0
 11
1734.806080631057
 21
1583.744622954002
 31
0.0
  0
CIRCLE
  5
2A735
330
2C925
100
AcDbEntity
  8
U7
100
AcDbCircle
 10
1776.806080631059
 20
1601.244622954002
 30
0.0
 40
4.5
  0
ARC
  5
2A736
330
2C925
100
AcDbEntity
  8
U1
100
AcDbCircle
 10
1768.306080631057
 20
1596.744622954003
 30
0.0
 40
13.0
100
AcDbArc
 50
270.0
 51
0.0
  0
CIRCLE
  5
2A737
330
2C925
100
AcDbEntity
  8
U7
100
AcDbCircle
 10
1776.806080631059
 20
1701.244622954002
 30
0.0
 40
4.5
  0
LINE
  5
2A738
330
2C925
100
AcDbEntity
  8
U7
100
AcDbLine
 10
1781.306080631058
 20
1601.244622954002
 30
0.0
 11
2181.306080631059
 21
1601.244622954003
 31
0.0
  0
LINE
  5
2A739
330
2C925
100
AcDbEntity
  8
U7
100
AcDbLine
 10
1781.306080631058
 20
1701.244622954002
 30
0.0
 11
2181.306080631059
 21
1701.244622954003
 31
0.0
  0
LINE
  5
2A73A
330
2C925
100
AcDbEntity
  8
U7
100
AcDbLine
 10
1781.306080631058
 20
1801.244622954
 30
0.0
 11
2181.306080631059
 21
1801.244622954
 31
0.0
  0
LINE
  5
2A73B
330
2C925
100
AcDbEntity
  8
U1
100
AcDbLine
 10
1781.306080631058
 20
2101.244622954002
 30
0.0
 11
1781.306080631058
 21
1596.744622954003
 31
0.0
  0
LINE
  5
2A73C
330
2C925
100
AcDbEntity
  8
U1
100
AcDbLine
 10
2181.306080631059
 20
2101.244622954002
 30
0.0
 11
2181.306080631059
 21
1596.744622954003
 31
0.0
  0
LINE
  5
2A73F
330
2C925
100
AcDbEntity
  8
HATCH
100
AcDbLine
 10
1740.703050250726
 20
1990.744622954002
 30
0.0
 11
1606.306080631058
 21
1856.347653334335
 31
0.0
  0
LINE
  5
2A740
330
2C925
100
AcDbEntity
  8
HATCH
100
AcDbLine
 10
1711.004565440891
 20
1990.744622954002
 30
0.0
 11
1606.306080631058
 21
1886.046138144173
 31
0.0
  0
LINE
  5
2A746
330
2C925
100
AcDbEntity
  8
HATCH
100
AcDbLine
 10
1770.401535060564
 20
1990.744622954002
 30
0.0
 11
1606.306080631058
 21
1826.649168524498
 31
0.0
  0
LINE
  5
2A747
330
2C925
100
AcDbEntity
  8
HATCH
100
AcDbLine
 10
1751.306080631058
 20
1731.347653334339
 30
0.0
 11
1606.306080631058
 21
1586.347653334336
 31
0.0
  0
LINE
  5
2A748
330
2C925
100
AcDbEntity
  8
HATCH
100
AcDbLine
 10
1751.306080631058
 20
1701.649168524502
 30
0.0
 11
1606.306080631058
 21
1556.649168524502
 31
0.0
  0
LINE
  5
2A749
330
2C925
100
AcDbEntity
  8
HATCH
100
AcDbLine
 10
1751.306080631058
 20
1671.950683714663
 30
0.0
 11
1606.306080631058
 21
1526.95068371467
 31
0.0
  0
LINE
  5
2A74A
330
2C925
100
AcDbEntity
  8
KISO
100
AcDbLine
 10
2724.092880111837
 20
1990.744622954002
 30
0.0
 11
2221.306080631058
 21
1990.744622954002
 31
0.0
  0
LINE
  5
2A74B
330
2C925
100
AcDbEntity
  8
KISO
100
AcDbLine
 10
2724.092880111837
 20
2050.744622954003
 30
0.0
 11
2221.306080631058
 21
2050.744622954003
 31
0.0
  0
LINE
  5
2A74C
330
2C925
100
AcDbEntity
  8
KISO
100
AcDbLine
 10
2025.856080631061
 20
2140.744622954002
 30
0.0
 11
2724.092880111837
 21
2140.744622954005
 31
0.0
  0
LINE
  5
2A74E
330
2C925
100
AcDbEntity
  8
KISO
100
AcDbLine
 10
1741.306080631058
 20
1990.744622954002
 30
0.0
 11
1606.306080631058
 21
1990.744622954002
 31
0.0
  0
LINE
  5
2A755
330
2C925
100
AcDbEntity
  8
KISO
100
AcDbLine
 10
1556.306080631058
 20
1360.744622954004
 30
0.0
 11
1556.306080631058
 21
1510.744622954003
 31
0.0
  0
LINE
  5
2A759
330
2C925
100
AcDbEntity
  8
KISO
100
AcDbLine
 10
1606.306080631058
 20
1990.744622954002
 30
0.0
 11
1606.306080631058
 21
1510.744622954003
 31
0.0
  0
LINE
  5
2A75A
330
2C925
100
AcDbEntity
  8
HATCH
100
AcDbLine
 10
2124.203050250723
 20
1524.244622954003
 30
0.0
 11
2110.703050250723
 21
1510.744622954003
 31
0.0
  0
LINE
  5
2A75B
330
2C925
100
AcDbEntity
  8
HATCH
100
AcDbLine
 10
2153.901535060561
 20
1524.244622954003
 30
0.0
 11
2140.40153506056
 21
1510.744622954003
 31
0.0
  0
LINE
  5
2A75C
330
2C925
100
AcDbEntity
  8
HATCH
100
AcDbLine
 10
2183.600019870396
 20
1524.244622954003
 30
0.0
 11
2170.100019870397
 21
1510.744622954003
 31
0.0
  0
LINE
  5
2A75D
330
2C925
100
AcDbEntity
  8
HATCH
100
AcDbLine
 10
1883.901535060556
 20
1524.244622954003
 30
0.0
 11
1870.401535060556
 21
1510.744622954003
 31
0.0
  0
LINE
  5
2A75E
330
2C925
100
AcDbEntity
  8
HATCH
100
AcDbLine
 10
1854.203050250728
 20
1524.244622954003
 30
0.0
 11
1840.703050250726
 21
1510.744622954003
 31
0.0
  0
LINE
  5
2A75F
330
2C925
100
AcDbEntity
  8
HATCH
100
AcDbLine
 10
1824.504565440889
 20
1524.244622954003
 30
0.0
 11
1811.004565440889
 21
1510.744622954003
 31
0.0
  0
LINE
  5
2A762
330
2C925
100
AcDbEntity
  8
KISO
100
AcDbLine
 10
1556.306080631058
 20
1510.744622954003
 30
0.0
 11
2406.306080631059
 21
1510.744622954003
 31
0.0
  0
LINE
  5
2A763
330
2C925
100
AcDbEntity
  8
KISO
100
AcDbLine
 10
1556.306080631058
 20
1360.744622954003
 30
0.0
 11
2406.306080631059
 21
1360.744622954003
 31
0.0
  0
LINE
  5
2A764
330
2C925
100
AcDbEntity
  8
KISO
100
AcDbLine
 10
1556.306080631058
 20
1460.744622954002
 30
0.0
 11
2406.306080631059
 21
1460.744622954003
 31
0.0
  0
ARC
  5
2A768
330
2C925
100
AcDbEntity
  8
U1
100
AcDbCircle
 10
2194.306080631059
 20
1596.744622954004
 30
0.0
 40
13.0
100
AcDbArc
 50
180.0
 51
270.0
  0
LINE
  5
2A769
330
2C925
100
AcDbEntity
  8
U7
100
AcDbLine
 10
1676.306080631058
 20
1560.744622954003
 30
0.0
 11
2286.306080631058
 21
1560.744622954003
 31
0.0
  0
CIRCLE
  5
2A76B
330
2C925
100
AcDbEntity
  8
U7
100
AcDbCircle
 10
2185.806080631057
 20
1601.244622954003
 30
0.0
 40
4.5
  0
CIRCLE
  5
2A76C
330
2C925
100
AcDbEntity
  8
U7
100
AcDbCircle
 10
2185.806080631057
 20
1801.244622954003
 30
0.0
 40
4.5
  0
CIRCLE
  5
2A76D
330
2C925
100
AcDbEntity
  8
U7
100
AcDbCircle
 10
2185.806080631057
 20
1701.244622954002
 30
0.0
 40
4.5
  0
LINE
  5
2A76F
330
2C925
100
AcDbEntity
  8
KISO
100
AcDbLine
 10
2221.306080631058
 20
2140.744622954002
 30
0.0
 11
2025.856080631057
 21
2140.744622954002
 31
0.0
  0
LINE
  5
2A770
330
2C925
100
AcDbEntity
  8
HIDE-S1
100
AcDbLine
 10
2221.306080631058
 20
1990.744622954002
 30
0.0
 11
1741.306080631058
 21
1990.744622954002
 31
0.0
  0
CIRCLE
  5
2A771
330
2C925
100
AcDbEntity
  8
U7
100
AcDbCircle
 10
2185.806080631057
 20
2001.244622954002
 30
0.0
 40
4.5
  0
CIRCLE
  5
2A772
330
2C925
100
AcDbEntity
  8
U7
100
AcDbCircle
 10
2185.806080631057
 20
1901.244622954002
 30
0.0
 40
4.5
  0
CIRCLE
  5
2A773
330
2C925
100
AcDbEntity
  8
U7
100
AcDbCircle
 10
2185.806080631057
 20
2101.244622954002
 30
0.0
 40
4.5
  0
TEXT
  5
2A77C
330
2C925
100
AcDbEntity
  8
HIKIDASHI
100
AcDbText
 10
3165.267834482123
 20
1023.864494626815
 30
0.0
 40
90.0
  1
4-D13
 41
0.6700000000000001
  7
00
100
AcDbText
  0
LINE
  5
2A77D
330
2C925
100
AcDbEntity
  8
HIKIDASHI
100
AcDbLine
 10
2886.003881448336
 20
978.8644946268147
 30
0.0
 11
3513.908968857524
 21
978.8644946268147
 31
0.0
  0
LINE
  5
2A77E
330
2C925
100
AcDbEntity
  8
HIKIDASHI
100
AcDbLine
 10
2813.54893349964
 20
756.040606718153
 30
0.0
 11
3591.270234708687
 21
756.040606718153
 31
0.0
  0
TEXT
  5
2A782
330
2C925
100
AcDbEntity
  8
HIKIDASHI
100
AcDbText
 10
3170.601920997666
 20
801.0406067181527
 30
0.0
 40
90.0
  1
%%C
 41
0.6700000000000001
  7
00
100
AcDbText
  0
TEXT
  5
2A783
330
2C925
100
AcDbEntity
  8
HIKIDASHI
100
AcDbText
 10
3092.812886533428
 20
801.0406067181527
 30
0.0
 40
90.0
  1
9
 41
0.6700000000000001
  7
00
100
AcDbText
  0
CIRCLE
  5
2A784
330
2C925
100
AcDbEntity
  8
HIKIDASHI
100
AcDbCircle
 10
3314.727253567396
 20
846.0406067181525
 30
0.0
 40
60.0
  0
TEXT
  5
2A785
330
2C925
100
AcDbEntity
  8
HIKIDASHI
100
AcDbText
 10
3391.711927224768
 20
801.0406067181527
 30
0.0
 40
90.0
  1
100
 41
0.6700000000000001
  7
00
100
AcDbText
  0
TEXT
  5
2A786
330
2C925
100
AcDbEntity
  8
HIKIDASHI
100
AcDbText
 10
3282.227253567396
 20
808.5406067181525
 30
0.0
 40
75.0
  1
ア
  7
01
 72
     1
 11
3314.727253567396
 21
846.0406067181525
 31
0.0
100
AcDbText
 73
     2
  0
TEXT
  5
2A787
330
2C925
100
AcDbEntity
  8
HIKIDASHI
100
AcDbText
 10
2843.54893349964
 20
801.0406067181527
 30
0.0
 40
90.0
  1
帯筋
  7
01
100
AcDbText
  0
LINE
  5
2A7B4
330
2C925
100
AcDbEntity
  8
HATCH
100
AcDbLine
 10
2394.95873823853
 20
2140.744622954002
 30
0.0
 11
2304.95873823853
 21
2050.744622954002
 31
0.0
  0
LINE
  5
2A7B5
330
2C925
100
AcDbEntity
  8
HATCH
100
AcDbLine
 10
2335.561768618862
 20
2140.744622954002
 30
0.0
 11
2245.56176861886
 21
2050.744622954002
 31
0.0
  0
LINE
  5
2A7B6
330
2C925
100
AcDbEntity
  8
HATCH
100
AcDbLine
 10
2365.260253428691
 20
2140.744622954002
 30
0.0
 11
2275.260253428692
 21
2050.744622954002
 31
0.0
  0
LINE
  5
2A7B7
330
2C925
100
AcDbEntity
  8
HATCH
100
AcDbLine
 10
2694.657223048391
 20
2140.744622954002
 30
0.0
 11
2604.657223048385
 21
2050.744622954002
 31
0.0
  0
LINE
  5
2A7B8
330
2C925
100
AcDbEntity
  8
HATCH
100
AcDbLine
 10
2664.958738238522
 20
2140.744622954002
 30
0.0
 11
2574.958738238524
 21
2050.744622954002
 31
0.0
  0
LINE
  5
2A7B9
330
2C925
100
AcDbEntity
  8
HATCH
100
AcDbLine
 10
2635.260253428683
 20
2140.744622954002
 30
0.0
 11
2545.260253428684
 21
2050.744622954002
 31
0.0
  0
TEXT
  5
2A7BD
330
2C925
100
AcDbEntity
  8
SUNPOU
100
AcDbText
 10
1439.197314355883
 20
2245.744622954002
 30
0.0
 40
90.0
  1
G.L
 50
0.0000000000000799
 41
0.6666666666666666
  7
00
 72
     4
 11
1510.625885784455
 21
2290.744622954002
 31
0.0
100
AcDbText
  0
LINE
  5
2A7BF
330
2C925
100
AcDbEntity
  8
KISO
100
AcDbLine
 10
1936.756080631057
 20
2140.744622954002
 30
0.0
 11
1741.306080631058
 21
2140.744622954002
 31
0.0
  0
TEXT
  5
2A7C0
330
2C925
100
AcDbEntity
  8
SUNPOU
100
AcDbText
 10
4965.055546028486
 20
1959.74328530284
 30
0.0
 40
90.0
  1
5-D13
 50
90.0
 41
0.6666666666666666
  7
00
 72
     4
 11
4920.055546028486
 21
2112.600428159983
 31
0.0
100
AcDbText
  0
TEXT
  5
2A7C1
330
2C925
100
AcDbEntity
  8
SUNPOU
100
AcDbText
 10
4965.055546028486
 20
1497.108247767377
 30
0.0
 40
90.0
  1
ベース筋
 50
90.0
  7
01
 72
     4
 11
4920.055546028486
 21
1701.108247767377
 31
0.0
100
AcDbText
  0
LINE
  5
2A7C9
330
2C925
100
AcDbEntity
  8
U7
100
AcDbLine
 10
6050.055546028492
 20
1880.744622954002
 30
0.0
 11
6050.055546028492
 21
1640.744622954002
 31
0.0
  0
LINE
  5
2A7CA
330
2C925
100
AcDbEntity
  8
KISO
100
AcDbLine
 10
6185.055546028491
 20
1505.744622954002
 30
0.0
 11
6185.055546028491
 21
2255.744622954003
 31
0.0
  0
LINE
  5
2A7CB
330
2C925
100
AcDbEntity
  8
U7
100
AcDbLine
 10
5570.055546028491
 20
1640.744622954003
 30
0.0
 11
5570.05554602849
 21
1880.744622954002
 31
0.0
  0
LINE
  5
2A7CC
330
2C925
100
AcDbEntity
  8
1PL-M1
100
AcDbLine
 10
5810.055546028491
 20
2330.744622954001
 30
0.0
 11
5810.055546028491
 21
1430.744622954002
 31
0.0
  0
LINE
  5
2A7CD
330
2C925
100
AcDbEntity
  8
SUNPOU
100
AcDbLine
 10
5010.055546028485
 20
2145.744622954003
 30
0.0
 11
5010.055546028485
 21
1615.744622954003
 31
0.0
  0
LINE
  5
2A7CE
330
2C925
100
AcDbEntity
  8
KISO
100
AcDbLine
 10
5435.055546028491
 20
2255.744622954003
 30
0.0
 11
5435.055546028491
 21
1505.744622954002
 31
0.0
  0
LINE
  5
2A7D3
330
2C925
100
AcDbEntity
  8
U7
100
AcDbLine
 10
6050.055546028492
 20
1640.744622954002
 30
0.0
 11
5570.055546028491
 21
1640.744622954003
 31
0.0
  0
LINE
  5
2A7D4
330
2C925
100
AcDbEntity
  8
KISO
100
AcDbLine
 10
5435.055546028491
 20
1505.744622954002
 30
0.0
 11
6185.055546028491
 21
1505.744622954002
 31
0.0
  0
LINE
  5
2A7DA
330
2C925
100
AcDbEntity
  8
SUNPOU
100
AcDbLine
 10
5430.055546028491
 20
1600.744622954002
 30
0.0
 11
4965.055546028487
 21
1600.744622954002
 31
0.0
  0
LINE
  5
2A7E5
330
2C925
100
AcDbEntity
  8
U7
100
AcDbLine
 10
5505.05554602849
 20
1880.744622954002
 30
0.0
 11
6115.05554602849
 21
1880.744622954002
 31
0.0
  0
LINE
  5
2A7E6
330
2C925
100
AcDbEntity
  8
U7
100
AcDbLine
 10
5505.05554602849
 20
2020.744622954003
 30
0.0
 11
6115.05554602849
 21
2020.744622954003
 31
0.0
  0
TEXT
  5
2A7E7
330
2C925
100
AcDbEntity
  8
SUNPOU
100
AcDbText
 10
5852.568158861097
 20
2725.744622954003
 30
0.0
 40
90.0
  1
5-D13
 41
0.6
  7
00
 72
     4
 11
5990.139587432525
 21
2770.744622954004
 31
0.0
100
AcDbText
  0
LINE
  5
2A7E8
330
2C925
100
AcDbEntity
  8
SUNPOU
100
AcDbLine
 10
5520.055546028491
 20
2680.744622954003
 30
0.0
 11
6100.055546028491
 21
2680.744622954003
 31
0.0
  0
LINE
  5
2A7E9
330
2C925
100
AcDbEntity
  8
HATCH
100
AcDbLine
 10
6156.506514140072
 20
2255.744622954003
 30
0.0
 11
5781.506514140065
 21
1880.744622954002
 31
0.0
  0
LINE
  5
2A7EA
330
2C925
100
AcDbEntity
  8
HIDE-M1
100
AcDbLine
 10
5570.05554602849
 20
2120.744622954002
 30
0.0
 11
6050.055546028492
 21
2120.744622954002
 31
0.0
  0
LINE
  5
2A7EB
330
2C925
100
AcDbEntity
  8
HATCH
100
AcDbLine
 10
6097.109544520399
 20
2255.744622954003
 30
0.0
 11
5722.109544520399
 21
1880.744622954002
 31
0.0
  0
LINE
  5
2A7EC
330
2C925
100
AcDbEntity
  8
HATCH
100
AcDbLine
 10
6126.808029330235
 20
2255.744622954003
 30
0.0
 11
5751.808029330235
 21
1880.744622954002
 31
0.0
  0
LINE
  5
2A7ED
330
2C925
100
AcDbEntity
  8
1PL-M1
100
AcDbLine
 10
6235.05554602849
 20
1880.744622954002
 30
0.0
 11
5385.055546028492
 21
1880.744622954002
 31
0.0
  0
LINE
  5
2A7EE
330
2C925
100
AcDbEntity
  8
U7
100
AcDbLine
 10
5511.55554602849
 20
2160.744622954001
 30
0.0
 11
6108.55554602849
 21
2160.744622954001
 31
0.0
  0
LINE
  5
2A7EF
330
2C925
100
AcDbEntity
  8
KISO
100
AcDbLine
 10
6185.055546028491
 20
2255.744622954003
 30
0.0
 11
5435.055546028491
 21
2255.744622954003
 31
0.0
  0
LINE
  5
2A7F0
330
2C925
100
AcDbEntity
  8
SUNPOU
100
AcDbLine
 10
5505.05554602849
 20
2210.744622954002
 30
0.0
 11
5505.05554602849
 21
2725.744622954003
 31
0.0
  0
LINE
  5
2A7F1
330
2C925
100
AcDbEntity
  8
SUNPOU
100
AcDbLine
 10
5430.055546028491
 20
2160.744622954001
 30
0.0
 11
4965.055546028487
 21
2160.744622954001
 31
0.0
  0
LINE
  5
2A7F2
330
2C925
100
AcDbEntity
  8
U7
100
AcDbLine
 10
5505.05554602849
 20
1880.744622954002
 30
0.0
 11
5505.05554602849
 21
2154.244622954001
 31
0.0
  0
LINE
  5
2A7F3
330
2C925
100
AcDbEntity
  8
HATCH
100
AcDbLine
 10
5557.109544520403
 20
2255.744622954003
 30
0.0
 11
5435.055546028491
 21
2133.690624462091
 31
0.0
  0
LINE
  5
2A7F4
330
2C925
100
AcDbEntity
  8
HATCH
100
AcDbLine
 10
5797.411059710563
 20
2255.744622954002
 30
0.0
 11
5435.055546028491
 21
1893.389109271928
 31
0.0
  0
LINE
  5
2A7F5
330
2C925
100
AcDbEntity
  8
HATCH
100
AcDbLine
 10
5827.109544520395
 20
2255.744622954002
 30
0.0
 11
5452.109544520403
 21
1880.744622954002
 31
0.0
  0
LINE
  5
2A7F6
330
2C925
100
AcDbEntity
  8
HATCH
100
AcDbLine
 10
5856.808029330232
 20
2255.744622954002
 30
0.0
 11
5481.808029330232
 21
1880.744622954002
 31
0.0
  0
LINE
  5
2A7F7
330
2C925
100
AcDbEntity
  8
HIDE-M1
100
AcDbLine
 10
5570.05554602849
 20
1880.744622954002
 30
0.0
 11
5570.05554602849
 21
2120.744622954002
 31
0.0
  0
LINE
  5
2A7F8
330
2C925
100
AcDbEntity
  8
HATCH
100
AcDbLine
 10
5497.712574900734
 20
2255.744622954003
 30
0.0
 11
5435.055546028491
 21
2193.08759408176
 31
0.0
  0
ARC
  5
2A7F9
330
2C925
100
AcDbEntity
  8
U7
100
AcDbCircle
 10
5511.55554602849
 20
2154.244622954001
 30
0.0
 40
6.5
100
AcDbArc
 50
90.0
 51
180.0
  0
LINE
  5
2A7FA
330
2C925
100
AcDbEntity
  8
HATCH
100
AcDbLine
 10
5527.41105971057
 20
2255.744622954003
 30
0.0
 11
5435.055546028491
 21
2163.389109271924
 31
0.0
  0
TEXT
  5
2A7FB
330
2C925
100
AcDbEntity
  8
SUNPOU
100
AcDbText
 10
5511.902819179521
 20
2725.744622954003
 30
0.0
 40
90.0
  1
ベース筋
 41
0.8
  7
01
 72
     4
 11
5675.102819179521
 21
2770.744622954004
 31
0.0
100
AcDbText
  0
LINE
  5
2A7FC
330
2C925
100
AcDbEntity
  8
SUNPOU
100
AcDbLine
 10
6115.05554602849
 20
2210.744622954002
 30
0.0
 11
6115.05554602849
 21
2725.744622954003
 31
0.0
  0
LINE
  5
2A7FF
330
2C925
100
AcDbEntity
  8
U7
100
AcDbLine
 10
6115.05554602849
 20
2154.244622954001
 30
0.0
 11
6115.05554602849
 21
1880.744622954002
 31
0.0
  0
LINE
  5
2A800
330
2C925
100
AcDbEntity
  8
HATCH
100
AcDbLine
 10
6185.055546028491
 20
1984.595170032589
 30
0.0
 11
6081.204998949901
 21
1880.744622954002
 31
0.0
  0
LINE
  5
2A801
330
2C925
100
AcDbEntity
  8
HATCH
100
AcDbLine
 10
6185.055546028491
 20
2014.293654842421
 30
0.0
 11
6051.506514140069
 21
1880.744622954002
 31
0.0
  0
LINE
  5
2A802
330
2C925
100
AcDbEntity
  8
HATCH
100
AcDbLine
 10
6185.055546028491
 20
2043.992139652258
 30
0.0
 11
6021.808029330228
 21
1880.744622954002
 31
0.0
  0
LINE
  5
2A803
330
2C925
100
AcDbEntity
  8
HIDE-M1
100
AcDbLine
 10
6050.055546028492
 20
1880.744622954002
 30
0.0
 11
6050.055546028492
 21
2120.744622954002
 31
0.0
  0
ARC
  5
2A806
330
2C925
100
AcDbEntity
  8
U7
100
AcDbCircle
 10
6108.55554602849
 20
2154.244622954001
 30
0.0
 40
6.5
100
AcDbArc
 50
0.0
 51
90.0
  0
LINE
  5
2A807
330
2C925
100
AcDbEntity
  8
U7
100
AcDbLine
 10
5962.55554602849
 20
1880.744622954002
 30
0.0
 11
5962.55554602849
 21
2160.744622954001
 31
0.0
  0
LINE
  5
2A808
330
2C925
100
AcDbEntity
  8
U7
100
AcDbLine
 10
5810.055546028491
 20
1880.744622954002
 30
0.0
 11
5810.055546028491
 21
2160.744622954001
 31
0.0
  0
LINE
  5
2A809
330
2C925
100
AcDbEntity
  8
U7
100
AcDbLine
 10
5657.55554602849
 20
1880.744622954002
 30
0.0
 11
5657.55554602849
 21
2160.744622954001
 31
0.0
  0
TEXT
  5
2A80A
330
2C925
100
AcDbEntity
  8
HIKIDASHI
100
AcDbText
 10
3841.360328347337
 20
2725.744622954003
 30
0.0
 40
90.00009018009018
  1
（別途）
  7
01
100
AcDbText
  0
LINE
  5
2A80B
330
2C925
100
AcDbEntity
  8
HIKIDASHI
100
AcDbLine
 10
2489.562271146263
 20
2680.744622954003
 30
0.0
 11
4233.789510301686
 21
2680.744622954003
 31
0.0
  0
TEXT
  5
2A80C
330
2C925
100
AcDbEntity
  8
HIKIDASHI
100
AcDbText
 10
2523.839956094795
 20
2725.744622954003
 30
0.0
 40
90.00009018009018
  1
アンカーボルト
  7
01
100
AcDbText
  0
TEXT
  5
2A80D
330
2C925
100
AcDbEntity
  8
HIKIDASHI
100
AcDbText
 10
3599.640174285833
 20
2725.535636753914
 30
0.0
 40
89.55223880597012
  1
400
 41
0.6700000000000001
  7
00
100
AcDbText
  0
TEXT
  5
2A80E
330
2C925
100
AcDbEntity
  8
HIKIDASHI
100
AcDbText
 10
3284.177010700179
 20
2725.744622954003
 30
0.0
 40
89.55223880597012
  1
W ／
 41
0.6700000000000001
  7
00
100
AcDbText
  0
TEXT
  5
2A80F
330
2C925
100
AcDbEntity
  8
HIKIDASHI
100
AcDbText
 10
3358.777821383402
 20
2752.1742325929
 30
0.0
 40
67.16417910447761
  1
1
 41
0.6700000000000001
  7
00
100
AcDbText
  0
TEXT
  5
2A810
330
2C925
100
AcDbEntity
  8
HIKIDASHI
100
AcDbText
 10
3446.669857942328
 20
2725.148177562338
 30
0.0
 40
67.16417910447761
  1
2
 41
0.6700000000000001
  7
00
100
AcDbText
  0
TEXT
  5
2A811
330
2C925
100
AcDbEntity
  8
HIKIDASHI
100
AcDbText
 10
3518.5047951327
 20
2736.938652804752
 30
0.0
 40
89.55223880597012
  1
x
 41
0.6700000000000001
  7
00
100
AcDbText
  0
CIRCLE
  5
2A813
330
2C925
100
AcDbEntity
  8
U7
100
AcDbCircle
 10
1828.806080631057
 20
1567.244622954003
 30
0.0
 40
6.5
  0
CIRCLE
  5
2A814
330
2C925
100
AcDbEntity
  8
U7
100
AcDbCircle
 10
1981.306080631058
 20
1567.244622954003
 30
0.0
 40
6.5
  0
CIRCLE
  5
2A815
330
2C925
100
AcDbEntity
  8
U7
100
AcDbCircle
 10
2133.806080631059
 20
1567.244622954003
 30
0.0
 40
6.5
  0
TEXT
  5
2A816
330
2C925
100
AcDbEntity
  8
HIKIDASHI
100
AcDbText
 10
5206.48003066206
 20
7483.464770760368
 30
0.0
 40
90.00009018009018
  1
アンカーボルト
  7
01
100
AcDbText
  0
LINE
  5
2A817
330
2C925
100
AcDbEntity
  8
HIKIDASHI
100
AcDbLine
 10
5172.202345713529
 20
7438.464770760368
 30
0.0
 11
6916.429584868954
 21
7438.464770760368
 31
0.0
  0
TEXT
  5
2A818
330
2C925
100
AcDbEntity
  8
HIKIDASHI
100
AcDbText
 10
5966.817085267445
 20
7483.464770760368
 30
0.0
 40
89.55223880597012
  1
W ／
 41
0.6700000000000001
  7
00
100
AcDbText
  0
TEXT
  5
2A819
330
2C925
100
AcDbEntity
  8
HIKIDASHI
100
AcDbText
 10
6041.417895950668
 20
7509.894380399263
 30
0.0
 40
67.16417910447761
  1
1
 41
0.6700000000000001
  7
00
100
AcDbText
  0
TEXT
  5
2A81A
330
2C925
100
AcDbEntity
  8
HIKIDASHI
100
AcDbText
 10
6282.280248853098
 20
7483.255784560276
 30
0.0
 40
89.55223880597012
  1
400
 41
0.6700000000000001
  7
00
100
AcDbText
  0
TEXT
  5
2A81B
330
2C925
100
AcDbEntity
  8
HIKIDASHI
100
AcDbText
 10
6129.30993250959
 20
7482.868325368702
 30
0.0
 40
67.16417910447761
  1
2
 41
0.6700000000000001
  7
00
100
AcDbText
  0
TEXT
  5
2A81C
330
2C925
100
AcDbEntity
  8
HIKIDASHI
100
AcDbText
 10
6201.14486969997
 20
7494.658800611116
 30
0.0
 40
89.55223880597012
  1
x
 41
0.6700000000000001
  7
00
100
AcDbText
  0
TEXT
  5
2A81E
330
2C925
100
AcDbEntity
  8
HIKIDASHI
100
AcDbText
 10
6524.000402914603
 20
7483.464770760368
 30
0.0
 40
90.00009018009018
  1
（別途）
  7
01
100
AcDbText
  0
LINE
  5
2A838
330
2C925
100
AcDbEntity
  8
SUNPOU
100
AcDbLine
 10
5010.055546028485
 20
1611.994622954003
 30
0.0
 11
5010.055546028485
 21
1623.244622954002
 31
0.0
  0
LINE
  5
2A84C
330
2C925
100
AcDbEntity
  8
SUNPOU
100
AcDbLine
 10
5010.055546028485
 20
2149.494622954003
 30
0.0
 11
5010.055546028485
 21
2138.244622954001
 31
0.0
  0
LINE
  5
2A84E
330
2C925
100
AcDbEntity
  8
SUNPOU
100
AcDbLine
 10
5516.30554602849
 20
2680.744622954003
 30
0.0
 11
5527.555546028491
 21
2680.744622954003
 31
0.0
  0
LINE
  5
2A850
330
2C925
100
AcDbEntity
  8
SUNPOU
100
AcDbLine
 10
6103.805546028492
 20
2680.744622954003
 30
0.0
 11
6092.55554602849
 21
2680.744622954003
 31
0.0
  0
LINE
  5
2A85D
330
2C925
100
AcDbEntity
  8
SUNPOU
100
AcDbLine
 10
4049.143929657192
 20
5708.464770760366
 30
0.0
 11
4064.14392965719
 21
5798.464770760366
 31
0.0
  0
LINE
  5
2A85E
330
2C925
100
AcDbEntity
  8
SUNPOU
100
AcDbLine
 10
4064.14392965719
 20
5798.464770760366
 30
0.0
 11
4079.143929657191
 21
5708.464770760366
 31
0.0
  0
SOLID
  5
2A85F
330
2C925
100
AcDbEntity
  8
SUNPOU
100
AcDbTrace
 10
4049.143929657192
 20
5708.464770760366
 30
0.0
 11
4079.143929657191
 21
5708.464770760366
 31
0.0
 12
4064.14392965719
 22
5798.464770760366
 32
0.0
 13
4064.14392965719
 23
5798.464770760366
 33
0.0
  0
LINE
  5
2A860
330
2C925
100
AcDbEntity
  8
SUNPOU
100
AcDbLine
 10
4079.143929657191
 20
5708.464770760366
 30
0.0
 11
4049.143929657192
 21
5708.464770760366
 31
0.0
  0
LINE
  5
2A86B
330
2C925
100
AcDbEntity
  8
SUNPOU
100
AcDbLine
 10
5259.143929657193
 20
5708.464770760366
 30
0.0
 11
5244.143929657195
 21
5798.464770760366
 31
0.0
  0
LINE
  5
2A86C
330
2C925
100
AcDbEntity
  8
SUNPOU
100
AcDbLine
 10
5244.143929657195
 20
5798.464770760366
 30
0.0
 11
5229.143929657194
 21
5708.464770760366
 31
0.0
  0
SOLID
  5
2A86D
330
2C925
100
AcDbEntity
  8
SUNPOU
100
AcDbTrace
 10
5259.143929657193
 20
5708.464770760366
 30
0.0
 11
5229.143929657194
 21
5708.464770760366
 31
0.0
 12
5244.143929657195
 22
5798.464770760366
 32
0.0
 13
5244.143929657195
 23
5798.464770760366
 33
0.0
  0
LINE
  5
2A86E
330
2C925
100
AcDbEntity
  8
SUNPOU
100
AcDbLine
 10
5229.143929657194
 20
5708.464770760366
 30
0.0
 11
5259.143929657193
 21
5708.464770760366
 31
0.0
  0
LINE
  5
2A89C
330
2C925
100
AcDbEntity
  8
SUNPOU
100
AcDbLine
 10
7365.393929657193
 20
7463.464770760366
 30
0.0
 11
7376.643929657196
 21
7463.464770760366
 31
0.0
  0
LINE
  5
2A89E
330
2C925
100
AcDbEntity
  8
SUNPOU
100
AcDbLine
 10
7067.893929657195
 20
7673.464770760367
 30
0.0
 11
7056.643929657195
 21
7673.464770760367
 31
0.0
  0
LINE
  5
2A8A0
330
2C925
100
AcDbEntity
  8
SUNPOU
100
AcDbLine
 10
7090.393929657195
 20
7883.464770760366
 30
0.0
 11
7101.643929657196
 21
7883.464770760366
 31
0.0
  0
LINE
  5
2A8A2
330
2C925
100
AcDbEntity
  8
SUNPOU
100
AcDbLine
 10
7225.393929657196
 20
7673.464770760367
 30
0.0
 11
7236.6439296572
 21
7673.464770760367
 31
0.0
  0
LINE
  5
2A8A4
330
2C925
100
AcDbEntity
  8
SUNPOU
100
AcDbLine
 10
7225.393929657196
 20
7673.464770760367
 30
0.0
 11
7236.6439296572
 21
7673.464770760367
 31
0.0
  0
LINE
  5
2A8A6
330
2C925
100
AcDbEntity
  8
SUNPOU
100
AcDbLine
 10
7542.8939296572
 20
7463.464770760366
 30
0.0
 11
7531.643929657196
 21
7463.464770760366
 31
0.0
  0
LINE
  5
2A8A8
330
2C925
100
AcDbEntity
  8
SUNPOU
100
AcDbLine
 10
7682.893929657187
 20
7673.464770760367
 30
0.0
 11
7671.643929657188
 21
7673.464770760367
 31
0.0
  0
LINE
  5
2A8AA
330
2C925
100
AcDbEntity
  8
SUNPOU
100
AcDbLine
 10
7682.893929657187
 20
7673.464770760367
 30
0.0
 11
7671.643929657188
 21
7673.464770760367
 31
0.0
  0
LINE
  5
2A8AC
330
2C925
100
AcDbEntity
  8
SUNPOU
100
AcDbLine
 10
7840.393929657188
 20
7673.464770760367
 30
0.0
 11
7851.643929657187
 21
7673.464770760367
 31
0.0
  0
LINE
  5
2A8AE
330
2C925
100
AcDbEntity
  8
SUNPOU
100
AcDbLine
 10
7817.893929657187
 20
7883.464770760366
 30
0.0
 11
7806.643929657187
 21
7883.464770760366
 31
0.0
  0
LINE
  5
2ABDE
330
2C925
100
AcDbEntity
  8
SUNPOU
100
AcDbLine
 10
7974.143929657187
 20
5873.464770760366
 30
0.0
 11
7859.143929657188
 21
5873.464770760366
 31
0.0
  0
LINE
  5
2ABE9
330
2C925
100
AcDbEntity
  8
SUNPOU
100
AcDbLine
 10
7974.143929657187
 20
5123.464770760364
 30
0.0
 11
7859.143929657188
 21
5123.464770760364
 31
0.0
  0
LINE
  5
2ABFD
330
2C925
100
AcDbEntity
  8
SUNPOU
100
AcDbLine
 10
7974.143929657187
 20
7273.464770760367
 30
0.0
 11
7859.143929657188
 21
7273.464770760367
 31
0.0
  0
LINE
  5
2ABFE
330
2C925
100
AcDbEntity
  8
SUNPOU
100
AcDbLine
 10
7974.143929657187
 20
6523.464770760364
 30
0.0
 11
7859.143929657188
 21
6523.464770760364
 31
0.0
  0
LINE
  5
2ACDC
330
2C925
100
AcDbEntity
  8
HIKIDASHI
100
AcDbLine
 10
6858.975032409595
 20
6358.464770760363
 30
0.0
 11
7002.975032409596
 21
6358.464770760363
 31
0.0
  0
LINE
  5
2AD75
330
2C925
100
AcDbEntity
  8
SUNPOU
100
AcDbLine
 10
2945.856080631056
 20
1330.744622954004
 30
0.0
 11
2945.856080631056
 21
1171.839439405352
 31
0.0
  0
LINE
  5
2AE46
330
2C925
100
AcDbEntity
  8
HIKIDASHI
100
AcDbLine
 10
1633.492404013274
 20
581.6956041113349
 30
0.0
 11
2357.509683509836
 21
581.6956041113349
 31
0.0
  0
LINE
  5
2AE47
330
2C925
100
AcDbEntity
  8
HIKIDASHI
100
AcDbLine
 10
1633.492404013274
 20
551.6956041113348
 30
0.0
 11
2357.509683509836
 21
551.6956041113348
 31
0.0
  0
TEXT
  5
2AE48
330
2C925
100
AcDbEntity
  8
HIKIDASHI
100
AcDbText
 10
1663.492404013273
 20
626.6956041113347
 30
0.0
 40
90.0
  1
A  ~  A'
 41
0.6700000000000001
  7
00
100
AcDbText
  0
TEXT
  5
2AE49
330
2C925
100
AcDbEntity
  8
HIKIDASHI
100
AcDbText
 10
2027.509683509836
 20
626.6956041113347
 30
0.0
 40
90.0
  1
断  面
  7
01
100
AcDbText
  0
LINE
  5
2B6E1
330
2C925
100
AcDbEntity
  8
DOMAKON
100
AcDbLine
 10
7854.143929657187
 20
4898.464770760362
 30
0.0
 11
4254.143929657193
 21
4898.464770760362
 31
0.0
  0
LINE
  5
2B6E2
330
2C925
100
AcDbEntity
  8
DOMAKON
100
AcDbLine
 10
4254.143929657193
 20
4898.464770760362
 30
0.0
 11
4254.143929657193
 21
7138.464770760363
 31
0.0
  0
LINE
  5
2B6E3
330
2C925
100
AcDbEntity
  8
DOMAKON
100
AcDbLine
 10
4254.143929657193
 20
7138.464770760363
 30
0.0
 11
6614.143929657195
 21
7138.464770760363
 31
0.0
  0
LINE
  5
2B6E4
330
2C925
100
AcDbEntity
  8
DOMAKON
100
AcDbLine
 10
7854.143929657187
 20
7138.464770760363
 30
0.0
 11
7854.143929657187
 21
4898.464770760362
 31
0.0
  0
LINE
  5
2B6E7
330
2C925
100
AcDbEntity
  8
DOMAKON
100
AcDbLine
 10
6764.143929657196
 20
7138.464770760363
 30
0.0
 11
7854.143929657187
 21
7138.464770760363
 31
0.0
  0
TEXT
  5
2BA0C
330
2C925
100
AcDbEntity
  8
HIKIDASHI
100
AcDbText
 10
5398.489189044107
 20
3990.861773577755
 30
0.0
 40
135.0
  1
基 礎 伏 図
  7
01
 72
     2
 11
6244.489189044107
 21
3990.861773577755
 31
0.0
100
AcDbText
  0
TEXT
  5
2BA0D
330
2C925
100
AcDbEntity
  8
HIKIDASHI
100
AcDbText
 10
6345.739189044106
 20
4017.655270637592
 30
0.0
 40
90.0
  1
(S=
 41
0.6700000000000001
  7
00
100
AcDbText
  0
TEXT
  5
2BA0E
330
2C925
100
AcDbEntity
  8
HIKIDASHI
100
AcDbText
 10
6638.396923679298
 20
3988.216460537284
 30
0.0
 40
90.0
  1
30
 41
0.6700000000000001
  7
00
100
AcDbText
  0
TEXT
  5
2BA0F
330
2C925
100
AcDbEntity
  8
HIKIDASHI
100
AcDbText
 10
6775.001686749542
 20
4017.655270637592
 30
0.0
 40
90.0
  1
)
 41
0.6700000000000001
  7
00
100
AcDbText
  0
TEXT
  5
2BA10
330
2C925
100
AcDbEntity
  8
HIKIDASHI
100
AcDbText
 10
6586.314874571333
 20
4017.655270637592
 30
0.0
 40
90.0
  1
/
 41
0.6700000000000001
  7
00
100
AcDbText
  0
TEXT
  5
2BA11
330
2C925
100
AcDbEntity
  8
HIKIDASHI
100
AcDbText
 10
6549.03559447399
 20
4035.161933104316
 30
0.0
 40
90.0
  1
1
 41
0.6700000000000001
  7
00
100
AcDbText
  0
TEXT
  5
2C0FB
330
2C925
100
AcDbEntity
  8
HIKIDASHI
100
AcDbText
 10
7646.902812821974
 20
5860.118377569589
 30
0.0
 40
90.0
  1
（ケラバ外面）
 50
90.0
 41
0.9
  7
01
100
AcDbText
  0
LINE
  5
2C259
330
2C925
100
AcDbEntity
  8
HATCH
100
AcDbLine
 10
1666.607595821223
 20
1510.744622954003
 30
0.0
 11
1716.607595821221
 21
1460.744622954003
 31
0.0
  0
LINE
  5
2C25A
330
2C925
100
AcDbEntity
  8
HATCH
100
AcDbLine
 10
1696.306080631055
 20
1510.744622954003
 30
0.0
 11
1746.306080631055
 21
1460.744622954002
 31
0.0
  0
LINE
  5
2C25B
330
2C925
100
AcDbEntity
  8
HATCH
100
AcDbLine
 10
1726.004565440891
 20
1510.744622954003
 30
0.0
 11
1776.004565440891
 21
1460.744622954003
 31
0.0
  0
LINE
  5
2C25C
330
2C925
100
AcDbEntity
  8
HATCH
100
AcDbLine
 10
1966.306080631056
 20
1510.744622954003
 30
0.0
 11
2016.306080631055
 21
1460.744622954003
 31
0.0
  0
LINE
  5
2C25D
330
2C925
100
AcDbEntity
  8
HATCH
100
AcDbLine
 10
1996.004565440888
 20
1510.744622954003
 30
0.0
 11
2046.004565440888
 21
1460.744622954002
 31
0.0
  0
LINE
  5
2C25E
330
2C925
100
AcDbEntity
  8
HATCH
100
AcDbLine
 10
2025.703050250724
 20
1510.744622954003
 30
0.0
 11
2075.703050250723
 21
1460.744622954003
 31
0.0
  0
LINE
  5
2C25F
330
2C925
100
AcDbEntity
  8
HATCH
100
AcDbLine
 10
2266.004565440888
 20
1510.744622954003
 30
0.0
 11
2316.004565440888
 21
1460.744622954003
 31
0.0
  0
LINE
  5
2C260
330
2C925
100
AcDbEntity
  8
HATCH
100
AcDbLine
 10
2295.70305025072
 20
1510.744622954003
 30
0.0
 11
2345.70305025072
 21
1460.744622954002
 31
0.0
  0
LINE
  5
2C261
330
2C925
100
AcDbEntity
  8
HATCH
100
AcDbLine
 10
2325.401535060557
 20
1510.744622954003
 30
0.0
 11
2375.401535060557
 21
1460.744622954003
 31
0.0
  0
TEXT
  5
2C397
330
2C925
100
AcDbEntity
  8
FILENAME
100
AcDbText
 10
10397.92857142857
 20
130.4999999999999
 30
0.0
 40
75.0
  1
＜YORS-280B-1_3_JIS_GL.DXF ＞
  7
FILENAME
 72
     2
 11
12286.5
 21
130.4999999999999
 31
0.0
100
AcDbText
  0
LINE
  5
2C39A
330
2C925
100
AcDbEntity
  8
WAKUSEN-01
100
AcDbLine
 10
325.5000000000006
 20
310.4999999999998
 30
0.0
 11
12286.5
 21
310.4999999999998
 31
0.0
  0
LINE
  5
2C39B
330
2C925
100
AcDbEntity
  8
WAKUSEN-01
100
AcDbLine
 10
325.5000000000006
 20
8431.500000000005
 30
0.0
 11
12286.5
 21
8431.500000000005
 31
0.0
  0
LINE
  5
2C39C
330
2C925
100
AcDbEntity
  8
WAKUSEN-01
100
AcDbLine
 10
325.5000000000006
 20
310.4999999999998
 30
0.0
 11
325.5000000000006
 21
8431.500000000005
 31
0.0
  0
LINE
  5
2C39D
330
2C925
100
AcDbEntity
  8
WAKUSEN-01
100
AcDbLine
 10
12286.5
 20
310.4999999999998
 30
0.0
 11
12286.5
 21
8431.500000000005
 31
0.0
  0
LINE
  5
2C39E
330
2C925
100
AcDbEntity
  8
WAKUSEN-01
100
AcDbLine
 10
7710.0
 20
931.4999999999999
 30
0.0
 11
12286.5
 21
931.4999999999995
 31
0.0
  0
LINE
  5
2C39F
330
2C925
100
AcDbEntity
  8
WAKUSEN-02
100
AcDbLine
 10
7710.0
 20
620.9999999999999
 30
0.0
 11
10075.49999999999
 21
620.9999999999999
 31
0.0
  0
TEXT
  5
2C3A0
330
2C925
100
AcDbEntity
  8
WAKUMOJI-01
100
AcDbText
 10
7751.347597486038
 20
797.2136285022457
 30
0.0
 40
90.0
  1
名　称
  7
WAKUMOJI
100
AcDbText
  0
TEXT
  5
2C3A1
330
2C925
100
AcDbEntity
  8
WAKUMOJI-01
100
AcDbText
 10
7746.18955690947
 20
494.673365617433
 30
0.0
 40
90.0
  1
機種名
  7
WAKUMOJI
100
AcDbText
  0
LINE
  5
2C3A2
330
2C925
100
AcDbEntity
  8
WAKUSEN-01
100
AcDbLine
 10
7710.0
 20
310.499999999999
 30
0.0
 11
7710.0
 21
931.4999999999999
 31
0.0
  0
LINE
  5
2C3A3
330
2C925
100
AcDbEntity
  8
WAKUSEN-02
100
AcDbLine
 10
10075.49999999999
 20
310.4999999999973
 30
0.0
 11
10075.49999999999
 21
931.4999999999999
 31
0.0
  0
LINE
  5
2C3A4
330
2C925
100
AcDbEntity
  8
YODOROGO
100
AcDbLine
 10
11241.60162798446
 20
748.4060611609828
 30
0.0
 11
11186.10162798447
 21
748.4060611609828
 31
0.0
1001
AUTOCAD_POSTSCRIPT_FIGURE
1002
{
1000
PSFILL
1000
Grayscale
1000
Grayscale
1070
    25
1002
}
  0
LINE
  5
2C3A5
330
2C925
100
AcDbEntity
  8
YODOROGO
100
AcDbLine
 10
11186.10162798447
 20
730.406061160983
 30
0.0
 11
11241.60162798446
 21
730.406061160983
 31
0.0
1001
AUTOCAD_POSTSCRIPT_FIGURE
1002
{
1000
PSFILL
1000
Grayscale
1000
Grayscale
1070
    25
1002
}
  0
LINE
  5
2C3A6
330
2C925
100
AcDbEntity
  8
YODOROGO
100
AcDbLine
 10
11241.60162798446
 20
715.4060611609828
 30
0.0
 11
11186.10162798447
 21
715.4060611609828
 31
0.0
1001
AUTOCAD_POSTSCRIPT_FIGURE
1002
{
1000
PSFILL
1000
Grayscale
1000
Grayscale
1070
    25
1002
}
  0
LINE
  5
2C3A7
330
2C925
100
AcDbEntity
  8
YODOROGO
100
AcDbLine
 10
11186.10162798447
 20
697.406061160983
 30
0.0
 11
11241.60162798446
 21
697.406061160983
 31
0.0
1001
AUTOCAD_POSTSCRIPT_FIGURE
1002
{
1000
PSFILL
1000
Grayscale
1000
Grayscale
1070
    25
1002
}
  0
LINE
  5
2C3A8
330
2C925
100
AcDbEntity
  8
YODOROGO
100
AcDbLine
 10
11241.60162798446
 20
682.4060611609829
 30
0.0
 11
11186.10162798447
 21
682.4060611609829
 31
0.0
1001
AUTOCAD_POSTSCRIPT_FIGURE
1002
{
1000
PSFILL
1000
Grayscale
1000
Grayscale
1070
    25
1002
}
  0
LINE
  5
2C3A9
330
2C925
100
AcDbEntity
  8
YODOROGO
100
AcDbLine
 10
11220.60162798447
 20
640.4060611609828
 30
0.0
 11
11241.60162798446
 21
640.4060611609828
 31
0.0
1001
AUTOCAD_POSTSCRIPT_FIGURE
1002
{
1000
PSFILL
1000
Grayscale
1000
Grayscale
1070
    25
1002
}
  0
LINE
  5
2C3AA
330
2C925
100
AcDbEntity
  8
YODOROGO
100
AcDbLine
 10
11151.60162798447
 20
535.4060611609829
 30
0.0
 11
11226.60162798446
 21
555.5022505933164
 31
0.0
  0
LINE
  5
2C3AB
330
2C925
100
AcDbEntity
  8
YODOROGO
100
AcDbLine
 10
11231.10162798446
 20
640.4060611609828
 30
0.0
 11
11207.10162798447
 21
640.4060611609828
 31
0.0
  0
ARC
  5
2C3AC
330
2C925
100
AcDbEntity
  8
YODOROGO
100
AcDbCircle
 10
11345.38040618545
 20
677.9492284624735
 30
0.0
 40
143.2075740771177
100
AcDbArc
 50
213.9611167766784
 51
264.4787207431779
  0
ARC
  5
2C3AD
330
2C925
100
AcDbEntity
  8
YODOROGO
100
AcDbCircle
 10
11345.38040618547
 20
677.9492284624882
 30
0.0
 40
143.2075740771305
100
AcDbArc
 50
208.141144204866
 51
212.9210361185995
  0
LINE
  5
2C3AE
330
2C925
100
AcDbEntity
  8
YODOROGO
100
AcDbLine
 10
11164.27870236949
 20
583.8028730048376
 30
0.0
 11
11225.1690496907
 21
600.1183923964076
 31
0.0
  0
LINE
  5
2C3AF
330
2C925
100
AcDbEntity
  8
YODOROGO
100
AcDbLine
 10
11151.60162798447
 20
535.4060611609829
 30
0.0
 11
11226.60162798446
 21
555.5022505933164
 31
0.0
  0
LINE
  5
2C3B0
330
2C925
100
AcDbEntity
  8
YODOROGO
100
AcDbLine
 10
11231.10162798446
 20
640.4060611609828
 30
0.0
 11
11207.10162798447
 21
640.4060611609828
 31
0.0
  0
ARC
  5
2C3B1
330
2C925
100
AcDbEntity
  8
YODOROGO
100
AcDbCircle
 10
11345.38040618545
 20
677.9492284624735
 30
0.0
 40
143.2075740771177
100
AcDbArc
 50
213.9611167766784
 51
264.4787207431779
  0
LINE
  5
2C3B2
330
2C925
100
AcDbEntity
  8
YODOROGO
100
AcDbLine
 10
10797.60162798445
 20
682.4060611609829
 30
0.0
 11
10662.60162798446
 21
682.4060611609829
 31
0.0
  0
LINE
  5
2C3B3
330
2C925
100
AcDbEntity
  8
YODOROGO
100
AcDbLine
 10
10692.60162798445
 20
535.4060611609829
 30
0.0
 11
10797.60162798445
 21
535.4060611609829
 31
0.0
  0
LINE
  5
2C3B4
330
2C925
100
AcDbEntity
  8
YODOROGO
100
AcDbLine
 10
10773.60162798447
 20
721.4060611609826
 30
0.0
 11
10686.60162798446
 21
721.4060611609826
 31
0.0
  0
LINE
  5
2C3B5
330
2C925
100
AcDbEntity
  8
YODOROGO
100
AcDbLine
 10
10719.60162798446
 20
760.4060611609829
 30
0.0
 11
10746.60162798447
 21
760.4060611609829
 31
0.0
  0
LINE
  5
2C3B6
330
2C925
100
AcDbEntity
  8
YODOROGO
100
AcDbLine
 10
10662.60162798446
 20
640.4060611609828
 30
0.0
 11
10662.60162798446
 21
565.4060611609828
 31
0.0
  0
LINE
  5
2C3B7
330
2C925
100
AcDbEntity
  8
YODOROGO
100
AcDbLine
 10
10686.60162798446
 20
586.4060611609826
 30
0.0
 11
10686.60162798446
 21
640.4060611609828
 31
0.0
  0
LINE
  5
2C3B8
330
2C925
100
AcDbEntity
  8
YODOROGO
100
AcDbLine
 10
10719.60162798446
 20
655.4060611609838
 30
0.0
 11
10719.60162798446
 21
580.406061160983
 31
0.0
  0
LINE
  5
2C3B9
330
2C925
100
AcDbEntity
  8
YODOROGO
100
AcDbLine
 10
10446.60162798447
 20
631.4060611609833
 30
0.0
 11
10416.60162798446
 21
607.4896552667143
 31
0.0
  0
LINE
  5
2C3BA
330
2C925
100
AcDbEntity
  8
YODOROGO
100
AcDbLine
 10
10476.60162798446
 20
607.4896552667143
 30
0.0
 11
10446.60162798447
 21
631.4060611609833
 31
0.0
  0
LINE
  5
2C3BB
330
2C925
100
AcDbEntity
  8
YODOROGO
100
AcDbLine
 10
10446.60162798447
 20
640.4060611609828
 30
0.0
 11
10476.60162798446
 21
616.4896552667137
 31
0.0
  0
LINE
  5
2C3BC
330
2C925
100
AcDbEntity
  8
YODOROGO
100
AcDbLine
 10
10416.60162798446
 20
616.4896552667137
 30
0.0
 11
10446.60162798447
 21
640.4060611609828
 31
0.0
  0
LINE
  5
2C3BD
330
2C925
100
AcDbEntity
  8
YODOROGO
100
AcDbLine
 10
10515.34245150633
 20
622.406061160983
 30
0.0
 11
10515.34245150633
 21
631.4060611609826
 31
0.0
  0
LINE
  5
2C3BE
330
2C925
100
AcDbEntity
  8
YODOROGO
100
AcDbLine
 10
10491.60162798447
 20
631.4060611609826
 30
0.0
 11
10491.60162798447
 21
625.4060611609819
 31
0.0
  0
LINE
  5
2C3BF
330
2C925
100
AcDbEntity
  8
YODOROGO
100
AcDbLine
 10
10536.8008200866
 20
640.4060611609828
 30
0.0
 11
10536.8008200866
 21
620.813863977996
 31
0.0
1001
AUTOCAD_POSTSCRIPT_FIGURE
1002
{
1000
PSFILL
1000
Grayscale
1000
Grayscale
1070
   100
1002
}
  0
LINE
  5
2C3C0
330
2C925
100
AcDbEntity
  8
YODOROGO
100
AcDbLine
 10
10530.80082008658
 20
620.813863977996
 30
0.0
 11
10530.80082008658
 21
640.4060611609828
 31
0.0
1001
AUTOCAD_POSTSCRIPT_FIGURE
1002
{
1000
PSFILL
1000
Grayscale
1000
Grayscale
1070
   100
1002
}
  0
LINE
  5
2C3C1
330
2C925
100
AcDbEntity
  8
YODOROGO
100
AcDbLine
 10
10428.60162798447
 20
603.2894640162218
 30
0.0
 11
10428.60162798447
 21
612.2894640162222
 31
0.0
  0
LINE
  5
2C3C2
330
2C925
100
AcDbEntity
  8
YODOROGO
100
AcDbLine
 10
10464.60162798447
 20
603.2894640162218
 30
0.0
 11
10428.60162798447
 21
603.2894640162218
 31
0.0
  0
LINE
  5
2C3C3
330
2C925
100
AcDbEntity
  8
YODOROGO
100
AcDbLine
 10
10464.60162798447
 20
612.2894640162222
 30
0.0
 11
10464.60162798447
 21
603.2894640162218
 31
0.0
  0
LINE
  5
2C3C4
330
2C925
100
AcDbEntity
  8
YODOROGO
100
AcDbLine
 10
10428.60162798447
 20
612.2894640162222
 30
0.0
 11
10464.60162798447
 21
612.2894640162222
 31
0.0
  0
LINE
  5
2C3C5
330
2C925
100
AcDbEntity
  8
YODOROGO
100
AcDbLine
 10
10434.1910958434
 20
588.1885715139279
 30
0.0
 11
10419.60162798446
 21
553.4060611609826
 31
0.0
1001
AUTOCAD_POSTSCRIPT_FIGURE
1002
{
1000
PSFILL
1000
Grayscale
1000
Grayscale
1070
   100
1002
}
  0
LINE
  5
2C3C6
330
2C925
100
AcDbEntity
  8
YODOROGO
100
AcDbLine
 10
10416.60162798446
 20
588.1885715139279
 30
0.0
 11
10434.1910958434
 21
588.1885715139279
 31
0.0
1001
AUTOCAD_POSTSCRIPT_FIGURE
1002
{
1000
PSFILL
1000
Grayscale
1000
Grayscale
1070
   100
1002
}
  0
LINE
  5
2C3C7
330
2C925
100
AcDbEntity
  8
YODOROGO
100
AcDbLine
 10
10416.60162798446
 20
595.688571513928
 30
0.0
 11
10416.60162798446
 21
588.1885715139279
 31
0.0
1001
AUTOCAD_POSTSCRIPT_FIGURE
1002
{
1000
PSFILL
1000
Grayscale
1000
Grayscale
1070
   100
1002
}
  0
LINE
  5
2C3C8
330
2C925
100
AcDbEntity
  8
YODOROGO
100
AcDbLine
 10
10476.60162798446
 20
595.688571513928
 30
0.0
 11
10416.60162798446
 21
595.688571513928
 31
0.0
1001
AUTOCAD_POSTSCRIPT_FIGURE
1002
{
1000
PSFILL
1000
Grayscale
1000
Grayscale
1070
   100
1002
}
  0
LINE
  5
2C3C9
330
2C925
100
AcDbEntity
  8
YODOROGO
100
AcDbLine
 10
10476.60162798446
 20
588.1885715139279
 30
0.0
 11
10476.60162798446
 21
595.688571513928
 31
0.0
1001
AUTOCAD_POSTSCRIPT_FIGURE
1002
{
1000
PSFILL
1000
Grayscale
1000
Grayscale
1070
   100
1002
}
  0
LINE
  5
2C3CA
330
2C925
100
AcDbEntity
  8
YODOROGO
100
AcDbLine
 10
10441.69109584339
 20
588.1885715139279
 30
0.0
 11
10476.60162798446
 21
588.1885715139279
 31
0.0
1001
AUTOCAD_POSTSCRIPT_FIGURE
1002
{
1000
PSFILL
1000
Grayscale
1000
Grayscale
1070
   100
1002
}
  0
LINE
  5
2C3CB
330
2C925
100
AcDbEntity
  8
YODOROGO
100
AcDbLine
 10
10430.83001935679
 20
560.9060611609826
 30
0.0
 11
10441.69109584339
 21
588.1885715139279
 31
0.0
1001
AUTOCAD_POSTSCRIPT_FIGURE
1002
{
1000
PSFILL
1000
Grayscale
1000
Grayscale
1070
   100
1002
}
  0
LINE
  5
2C3CC
330
2C925
100
AcDbEntity
  8
YODOROGO
100
AcDbLine
 10
10463.27054655324
 20
560.9060611609826
 30
0.0
 11
10430.83001935679
 21
560.9060611609826
 31
0.0
1001
AUTOCAD_POSTSCRIPT_FIGURE
1002
{
1000
PSFILL
1000
Grayscale
1000
Grayscale
1070
   100
1002
}
  0
LINE
  5
2C3CD
330
2C925
100
AcDbEntity
  8
YODOROGO
100
AcDbLine
 10
10456.8993767966
 20
576.0876790116348
 30
0.0
 11
10463.27054655324
 21
560.9060611609826
 31
0.0
1001
AUTOCAD_POSTSCRIPT_FIGURE
1002
{
1000
PSFILL
1000
Grayscale
1000
Grayscale
1070
   100
1002
}
  0
LINE
  5
2C3CE
330
2C925
100
AcDbEntity
  8
YODOROGO
100
AcDbLine
 10
10462.89937679661
 20
576.0876790116348
 30
0.0
 11
10456.8993767966
 21
576.0876790116348
 31
0.0
1001
AUTOCAD_POSTSCRIPT_FIGURE
1002
{
1000
PSFILL
1000
Grayscale
1000
Grayscale
1070
   100
1002
}
  0
LINE
  5
2C3CF
330
2C925
100
AcDbEntity
  8
YODOROGO
100
AcDbLine
 10
10473.60162798447
 20
553.4060611609826
 30
0.0
 11
10462.89937679661
 21
576.0876790116348
 31
0.0
1001
AUTOCAD_POSTSCRIPT_FIGURE
1002
{
1000
PSFILL
1000
Grayscale
1000
Grayscale
1070
   100
1002
}
  0
LINE
  5
2C3D0
330
2C925
100
AcDbEntity
  8
YODOROGO
100
AcDbLine
 10
10419.60162798446
 20
553.4060611609826
 30
0.0
 11
10473.60162798447
 21
553.4060611609826
 31
0.0
1001
AUTOCAD_POSTSCRIPT_FIGURE
1002
{
1000
PSFILL
1000
Grayscale
1000
Grayscale
1070
   100
1002
}
  0
LINE
  5
2C3D1
330
2C925
100
AcDbEntity
  8
YODOROGO
100
AcDbLine
 10
10416.60162798446
 20
607.4896552667143
 30
0.0
 11
10416.60162798446
 21
616.4896552667137
 31
0.0
  0
LINE
  5
2C3D2
330
2C925
100
AcDbEntity
  8
YODOROGO
100
AcDbLine
 10
10476.60162798446
 20
616.4896552667137
 30
0.0
 11
10476.60162798446
 21
607.4896552667143
 31
0.0
  0
ARC
  5
2C3D3
330
2C925
100
AcDbEntity
  8
YODOROGO
100
AcDbCircle
 10
10584.72766580511
 20
600.3291619969972
 30
0.0
 40
65.99999999999997
100
AcDbArc
 50
280.3644312771313
 51
3.541483659218056
  0
ARC
  5
2C3D4
330
2C925
100
AcDbEntity
  8
YODOROGO
100
AcDbCircle
 10
10588.40851153474
 20
612.5991776107142
 30
0.0
 40
41.99999999999936
100
AcDbArc
 50
281.2490582504155
 51
348.7509417495832
  0
LINE
  5
2C3D5
330
2C925
100
AcDbEntity
  8
YODOROGO
100
AcDbLine
 10
10596.60162798446
 20
571.4060611609826
 30
0.0
 11
10596.60162798446
 21
535.4060611609829
 31
0.0
  0
LINE
  5
2C3D6
330
2C925
100
AcDbEntity
  8
YODOROGO
100
AcDbLine
 10
10507.53333890132
 20
603.9939618982182
 30
0.0
 11
10515.34245150633
 21
622.406061160983
 31
0.0
  0
LINE
  5
2C3D7
330
2C925
100
AcDbEntity
  8
YODOROGO
100
AcDbLine
 10
10515.60162798445
 20
593.6701837306506
 30
0.0
 11
10507.53333890132
 21
603.9939618982182
 31
0.0
  0
LINE
  5
2C3D8
330
2C925
100
AcDbEntity
  8
YODOROGO
100
AcDbLine
 10
10515.60162798445
 20
586.1701837306497
 30
0.0
 11
10515.60162798445
 21
593.6701837306506
 31
0.0
  0
LINE
  5
2C3D9
330
2C925
100
AcDbEntity
  8
YODOROGO
100
AcDbLine
 10
10506.60162798447
 20
594.4638989060739
 30
0.0
 11
10515.60162798445
 21
586.1701837306497
 31
0.0
  0
LINE
  5
2C3DA
330
2C925
100
AcDbEntity
  8
YODOROGO
100
AcDbLine
 10
10506.60162798447
 20
553.4060611609826
 30
0.0
 11
10506.60162798447
 21
594.4638989060739
 31
0.0
  0
LINE
  5
2C3DB
330
2C925
100
AcDbEntity
  8
YODOROGO
100
AcDbLine
 10
10500.60162798446
 20
553.4060611609826
 30
0.0
 11
10506.60162798447
 21
553.4060611609826
 31
0.0
  0
LINE
  5
2C3DC
330
2C925
100
AcDbEntity
  8
YODOROGO
100
AcDbLine
 10
10500.60162798446
 20
592.5020061336555
 30
0.0
 11
10500.60162798446
 21
553.4060611609826
 31
0.0
  0
LINE
  5
2C3DD
330
2C925
100
AcDbEntity
  8
YODOROGO
100
AcDbLine
 10
10491.60162798447
 20
574.7880296375358
 30
0.0
 11
10500.60162798446
 21
592.5020061336555
 31
0.0
  0
LINE
  5
2C3DE
330
2C925
100
AcDbEntity
  8
YODOROGO
100
AcDbLine
 10
10491.60162798447
 20
583.788029637536
 30
0.0
 11
10491.60162798447
 21
574.7880296375358
 31
0.0
  0
LINE
  5
2C3DF
330
2C925
100
AcDbEntity
  8
YODOROGO
100
AcDbLine
 10
10509.68579035925
 20
625.4060611609819
 30
0.0
 11
10491.60162798447
 21
583.788029637536
 31
0.0
  0
LINE
  5
2C3E0
330
2C925
100
AcDbEntity
  8
YODOROGO
100
AcDbLine
 10
10491.60162798447
 20
625.4060611609819
 30
0.0
 11
10509.68579035925
 21
625.4060611609819
 31
0.0
  0
LINE
  5
2C3E1
330
2C925
100
AcDbEntity
  8
YODOROGO
100
AcDbLine
 10
10518.80082008659
 20
620.813863977996
 30
0.0
 11
10530.80082008658
 21
620.813863977996
 31
0.0
1001
AUTOCAD_POSTSCRIPT_FIGURE
1002
{
1000
PSFILL
1000
Grayscale
1000
Grayscale
1070
   100
1002
}
  0
LINE
  5
2C3E2
330
2C925
100
AcDbEntity
  8
YODOROGO
100
AcDbLine
 10
10518.80082008659
 20
611.8138639779963
 30
0.0
 11
10518.80082008659
 21
620.813863977996
 31
0.0
1001
AUTOCAD_POSTSCRIPT_FIGURE
1002
{
1000
PSFILL
1000
Grayscale
1000
Grayscale
1070
   100
1002
}
  0
LINE
  5
2C3E3
330
2C925
100
AcDbEntity
  8
YODOROGO
100
AcDbLine
 10
10530.80082008658
 20
611.8138639779963
 30
0.0
 11
10518.80082008659
 21
611.8138639779963
 31
0.0
1001
AUTOCAD_POSTSCRIPT_FIGURE
1002
{
1000
PSFILL
1000
Grayscale
1000
Grayscale
1070
   100
1002
}
  0
LINE
  5
2C3E4
330
2C925
100
AcDbEntity
  8
YODOROGO
100
AcDbLine
 10
10530.80082008658
 20
562.4060611609831
 30
0.0
 11
10530.80082008658
 21
611.8138639779963
 31
0.0
1001
AUTOCAD_POSTSCRIPT_FIGURE
1002
{
1000
PSFILL
1000
Grayscale
1000
Grayscale
1070
   100
1002
}
  0
LINE
  5
2C3E5
330
2C925
100
AcDbEntity
  8
YODOROGO
100
AcDbLine
 10
10518.8008200866
 20
562.4060611609831
 30
0.0
 11
10530.80082008658
 21
562.4060611609831
 31
0.0
1001
AUTOCAD_POSTSCRIPT_FIGURE
1002
{
1000
PSFILL
1000
Grayscale
1000
Grayscale
1070
   100
1002
}
  0
LINE
  5
2C3E6
330
2C925
100
AcDbEntity
  8
YODOROGO
100
AcDbLine
 10
10518.8008200866
 20
553.4060611609826
 30
0.0
 11
10518.8008200866
 21
562.4060611609831
 31
0.0
1001
AUTOCAD_POSTSCRIPT_FIGURE
1002
{
1000
PSFILL
1000
Grayscale
1000
Grayscale
1070
   100
1002
}
  0
LINE
  5
2C3E7
330
2C925
100
AcDbEntity
  8
YODOROGO
100
AcDbLine
 10
10551.60162798447
 20
553.4060611609826
 30
0.0
 11
10518.8008200866
 21
553.4060611609826
 31
0.0
1001
AUTOCAD_POSTSCRIPT_FIGURE
1002
{
1000
PSFILL
1000
Grayscale
1000
Grayscale
1070
   100
1002
}
  0
LINE
  5
2C3E8
330
2C925
100
AcDbEntity
  8
YODOROGO
100
AcDbLine
 10
10551.60162798447
 20
562.4060611609831
 30
0.0
 11
10551.60162798447
 21
553.4060611609826
 31
0.0
1001
AUTOCAD_POSTSCRIPT_FIGURE
1002
{
1000
PSFILL
1000
Grayscale
1000
Grayscale
1070
   100
1002
}
  0
LINE
  5
2C3E9
330
2C925
100
AcDbEntity
  8
YODOROGO
100
AcDbLine
 10
10536.8008200866
 20
562.4060611609831
 30
0.0
 11
10551.60162798447
 21
562.4060611609831
 31
0.0
1001
AUTOCAD_POSTSCRIPT_FIGURE
1002
{
1000
PSFILL
1000
Grayscale
1000
Grayscale
1070
   100
1002
}
  0
LINE
  5
2C3EA
330
2C925
100
AcDbEntity
  8
YODOROGO
100
AcDbLine
 10
10536.8008200866
 20
611.8138639779963
 30
0.0
 11
10536.8008200866
 21
562.4060611609831
 31
0.0
1001
AUTOCAD_POSTSCRIPT_FIGURE
1002
{
1000
PSFILL
1000
Grayscale
1000
Grayscale
1070
   100
1002
}
  0
LINE
  5
2C3EB
330
2C925
100
AcDbEntity
  8
YODOROGO
100
AcDbLine
 10
10551.60162798447
 20
611.8138639779963
 30
0.0
 11
10536.8008200866
 21
611.8138639779963
 31
0.0
1001
AUTOCAD_POSTSCRIPT_FIGURE
1002
{
1000
PSFILL
1000
Grayscale
1000
Grayscale
1070
   100
1002
}
  0
LINE
  5
2C3EC
330
2C925
100
AcDbEntity
  8
YODOROGO
100
AcDbLine
 10
10551.60162798447
 20
620.813863977996
 30
0.0
 11
10551.60162798447
 21
611.8138639779963
 31
0.0
1001
AUTOCAD_POSTSCRIPT_FIGURE
1002
{
1000
PSFILL
1000
Grayscale
1000
Grayscale
1070
   100
1002
}
  0
LINE
  5
2C3ED
330
2C925
100
AcDbEntity
  8
YODOROGO
100
AcDbLine
 10
10536.8008200866
 20
620.813863977996
 30
0.0
 11
10551.60162798447
 21
620.813863977996
 31
0.0
1001
AUTOCAD_POSTSCRIPT_FIGURE
1002
{
1000
PSFILL
1000
Grayscale
1000
Grayscale
1070
   100
1002
}
  0
LINE
  5
2C3EE
330
2C925
100
AcDbEntity
  8
YODOROGO
100
AcDbLine
 10
10650.60162798447
 20
625.406061160983
 30
0.0
 11
10629.60162798447
 21
625.406061160983
 31
0.0
  0
LINE
  5
2C3EF
330
2C925
100
AcDbEntity
  8
YODOROGO
100
AcDbLine
 10
10650.60162798447
 20
604.4060611609832
 30
0.0
 11
10650.60162798447
 21
625.406061160983
 31
0.0
  0
LINE
  5
2C3F0
330
2C925
100
AcDbEntity
  8
YODOROGO
100
AcDbLine
 10
10629.60162798447
 20
625.406061160983
 30
0.0
 11
10629.60162798447
 21
604.4060611609832
 31
0.0
  0
ARC
  5
2C3F1
330
2C925
100
AcDbEntity
  8
YODOROGO
100
AcDbCircle
 10
10692.60162798445
 20
565.4060611609828
 30
0.0
 40
30.0
100
AcDbArc
 50
180.0
 51
270.0
  0
ARC
  5
2C3F2
330
2C925
100
AcDbEntity
  8
YODOROGO
100
AcDbCircle
 10
10701.60162798445
 20
586.4060611609826
 30
0.0
 40
15.0
100
AcDbArc
 50
180.0
 51
270.0
  0
LINE
  5
2C3F3
330
2C925
100
AcDbEntity
  8
YODOROGO
100
AcDbLine
 10
10710.60162798447
 20
571.4060611609826
 30
0.0
 11
10701.60162798445
 21
571.4060611609826
 31
0.0
  0
ARC
  5
2C3F4
330
2C925
100
AcDbEntity
  8
YODOROGO
100
AcDbCircle
 10
10710.60162798447
 20
580.4060611609819
 30
0.0
 40
8.999999999998635
100
AcDbArc
 50
270.0
 51
0.0000000000054281
  0
LINE
  5
2C3F5
330
2C925
100
AcDbEntity
  8
YODOROGO
100
AcDbLine
 10
10425.60162798447
 20
709.0449677976399
 30
0.0
 11
10416.60162798446
 21
691.4162804818772
 31
0.0
1001
AUTOCAD_POSTSCRIPT_FIGURE
1002
{
1000
PSFILL
1000
Grayscale
1000
Grayscale
1070
   100
1002
}
  0
LINE
  5
2C3F6
330
2C925
100
AcDbEntity
  8
YODOROGO
100
AcDbLine
 10
10425.60162798447
 20
655.406061160983
 30
0.0
 11
10425.60162798447
 21
709.0449677976399
 31
0.0
1001
AUTOCAD_POSTSCRIPT_FIGURE
1002
{
1000
PSFILL
1000
Grayscale
1000
Grayscale
1070
   100
1002
}
  0
LINE
  5
2C3F7
330
2C925
100
AcDbEntity
  8
YODOROGO
100
AcDbLine
 10
10431.60162798447
 20
655.406061160983
 30
0.0
 11
10425.60162798447
 21
655.406061160983
 31
0.0
1001
AUTOCAD_POSTSCRIPT_FIGURE
1002
{
1000
PSFILL
1000
Grayscale
1000
Grayscale
1070
   100
1002
}
  0
LINE
  5
2C3F8
330
2C925
100
AcDbEntity
  8
YODOROGO
100
AcDbLine
 10
10431.60162798447
 20
710.1642495319751
 30
0.0
 11
10431.60162798447
 21
655.406061160983
 31
0.0
1001
AUTOCAD_POSTSCRIPT_FIGURE
1002
{
1000
PSFILL
1000
Grayscale
1000
Grayscale
1070
   100
1002
}
  0
LINE
  5
2C3F9
330
2C925
100
AcDbEntity
  8
YODOROGO
100
AcDbLine
 10
10440.60162798446
 20
700.3705343565512
 30
0.0
 11
10431.60162798447
 21
710.1642495319751
 31
0.0
1001
AUTOCAD_POSTSCRIPT_FIGURE
1002
{
1000
PSFILL
1000
Grayscale
1000
Grayscale
1070
   100
1002
}
  0
LINE
  5
2C3FA
330
2C925
100
AcDbEntity
  8
YODOROGO
100
AcDbLine
 10
10440.60162798446
 20
706.3705343565509
 30
0.0
 11
10440.60162798446
 21
700.3705343565512
 31
0.0
1001
AUTOCAD_POSTSCRIPT_FIGURE
1002
{
1000
PSFILL
1000
Grayscale
1000
Grayscale
1070
   100
1002
}
  0
LINE
  5
2C3FB
330
2C925
100
AcDbEntity
  8
YODOROGO
100
AcDbLine
 10
10431.60162798447
 20
719.1642495319745
 30
0.0
 11
10440.60162798446
 21
706.3705343565509
 31
0.0
1001
AUTOCAD_POSTSCRIPT_FIGURE
1002
{
1000
PSFILL
1000
Grayscale
1000
Grayscale
1070
   100
1002
}
  0
LINE
  5
2C3FC
330
2C925
100
AcDbEntity
  8
YODOROGO
100
AcDbLine
 10
10431.60162798447
 20
727.4060611609829
 30
0.0
 11
10431.60162798447
 21
719.1642495319745
 31
0.0
1001
AUTOCAD_POSTSCRIPT_FIGURE
1002
{
1000
PSFILL
1000
Grayscale
1000
Grayscale
1070
   100
1002
}
  0
LINE
  5
2C3FD
330
2C925
100
AcDbEntity
  8
YODOROGO
100
AcDbLine
 10
10458.60162798446
 20
727.4060611609829
 30
0.0
 11
10431.60162798447
 21
727.4060611609829
 31
0.0
1001
AUTOCAD_POSTSCRIPT_FIGURE
1002
{
1000
PSFILL
1000
Grayscale
1000
Grayscale
1070
   100
1002
}
  0
LINE
  5
2C3FE
330
2C925
100
AcDbEntity
  8
YODOROGO
100
AcDbLine
 10
10458.60162798446
 20
712.7131308511124
 30
0.0
 11
10458.60162798446
 21
727.4060611609829
 31
0.0
1001
AUTOCAD_POSTSCRIPT_FIGURE
1002
{
1000
PSFILL
1000
Grayscale
1000
Grayscale
1070
   100
1002
}
  0
LINE
  5
2C3FF
330
2C925
100
AcDbEntity
  8
YODOROGO
100
AcDbLine
 10
10446.60162798447
 20
712.7131308511124
 30
0.0
 11
10458.60162798446
 21
712.7131308511124
 31
0.0
1001
AUTOCAD_POSTSCRIPT_FIGURE
1002
{
1000
PSFILL
1000
Grayscale
1000
Grayscale
1070
   100
1002
}
  0
LINE
  5
2C400
330
2C925
100
AcDbEntity
  8
YODOROGO
100
AcDbLine
 10
10446.60162798447
 20
706.7131308511116
 30
0.0
 11
10446.60162798447
 21
712.7131308511124
 31
0.0
1001
AUTOCAD_POSTSCRIPT_FIGURE
1002
{
1000
PSFILL
1000
Grayscale
1000
Grayscale
1070
   100
1002
}
  0
LINE
  5
2C401
330
2C925
100
AcDbEntity
  8
YODOROGO
100
AcDbLine
 10
10458.60162798446
 20
706.7131308511116
 30
0.0
 11
10446.60162798447
 21
706.7131308511116
 31
0.0
1001
AUTOCAD_POSTSCRIPT_FIGURE
1002
{
1000
PSFILL
1000
Grayscale
1000
Grayscale
1070
   100
1002
}
  0
LINE
  5
2C402
330
2C925
100
AcDbEntity
  8
YODOROGO
100
AcDbLine
 10
10458.60162798446
 20
704.8571917366647
 30
0.0
 11
10458.60162798446
 21
706.7131308511116
 31
0.0
1001
AUTOCAD_POSTSCRIPT_FIGURE
1002
{
1000
PSFILL
1000
Grayscale
1000
Grayscale
1070
   100
1002
}
  0
LINE
  5
2C403
330
2C925
100
AcDbEntity
  8
YODOROGO
100
AcDbLine
 10
10443.60162798447
 20
679.8656179355313
 30
0.0
 11
10458.60162798446
 21
704.8571917366647
 31
0.0
1001
AUTOCAD_POSTSCRIPT_FIGURE
1002
{
1000
PSFILL
1000
Grayscale
1000
Grayscale
1070
   100
1002
}
  0
LINE
  5
2C404
330
2C925
100
AcDbEntity
  8
YODOROGO
100
AcDbLine
 10
10443.60162798447
 20
673.8656179355309
 30
0.0
 11
10443.60162798447
 21
679.8656179355313
 31
0.0
1001
AUTOCAD_POSTSCRIPT_FIGURE
1002
{
1000
PSFILL
1000
Grayscale
1000
Grayscale
1070
   100
1002
}
  0
LINE
  5
2C405
330
2C925
100
AcDbEntity
  8
YODOROGO
100
AcDbLine
 10
10458.60162798446
 20
692.8571917366638
 30
0.0
 11
10443.60162798447
 21
673.8656179355309
 31
0.0
1001
AUTOCAD_POSTSCRIPT_FIGURE
1002
{
1000
PSFILL
1000
Grayscale
1000
Grayscale
1070
   100
1002
}
  0
LINE
  5
2C406
330
2C925
100
AcDbEntity
  8
YODOROGO
100
AcDbLine
 10
10458.60162798446
 20
655.406061160983
 30
0.0
 11
10458.60162798446
 21
692.8571917366638
 31
0.0
1001
AUTOCAD_POSTSCRIPT_FIGURE
1002
{
1000
PSFILL
1000
Grayscale
1000
Grayscale
1070
   100
1002
}
  0
LINE
  5
2C407
330
2C925
100
AcDbEntity
  8
YODOROGO
100
AcDbLine
 10
10464.60162798447
 20
655.406061160983
 30
0.0
 11
10458.60162798446
 21
655.406061160983
 31
0.0
1001
AUTOCAD_POSTSCRIPT_FIGURE
1002
{
1000
PSFILL
1000
Grayscale
1000
Grayscale
1070
   100
1002
}
  0
LINE
  5
2C408
330
2C925
100
AcDbEntity
  8
YODOROGO
100
AcDbLine
 10
10464.60162798447
 20
693.5283795595521
 30
0.0
 11
10464.60162798447
 21
655.406061160983
 31
0.0
1001
AUTOCAD_POSTSCRIPT_FIGURE
1002
{
1000
PSFILL
1000
Grayscale
1000
Grayscale
1070
   100
1002
}
  0
LINE
  5
2C409
330
2C925
100
AcDbEntity
  8
YODOROGO
100
AcDbLine
 10
10476.60162798446
 20
673.8656179355309
 30
0.0
 11
10464.60162798447
 21
693.5283795595521
 31
0.0
1001
AUTOCAD_POSTSCRIPT_FIGURE
1002
{
1000
PSFILL
1000
Grayscale
1000
Grayscale
1070
   100
1002
}
  0
LINE
  5
2C40A
330
2C925
100
AcDbEntity
  8
YODOROGO
100
AcDbLine
 10
10476.60162798446
 20
679.8656179355313
 30
0.0
 11
10476.60162798446
 21
673.8656179355309
 31
0.0
1001
AUTOCAD_POSTSCRIPT_FIGURE
1002
{
1000
PSFILL
1000
Grayscale
1000
Grayscale
1070
   100
1002
}
  0
LINE
  5
2C40B
330
2C925
100
AcDbEntity
  8
YODOROGO
100
AcDbLine
 10
10464.60162798447
 20
705.5283795595531
 30
0.0
 11
10476.60162798446
 21
679.8656179355313
 31
0.0
1001
AUTOCAD_POSTSCRIPT_FIGURE
1002
{
1000
PSFILL
1000
Grayscale
1000
Grayscale
1070
   100
1002
}
  0
LINE
  5
2C40C
330
2C925
100
AcDbEntity
  8
YODOROGO
100
AcDbLine
 10
10464.60162798447
 20
706.7131308511128
 30
0.0
 11
10464.60162798447
 21
705.5283795595531
 31
0.0
1001
AUTOCAD_POSTSCRIPT_FIGURE
1002
{
1000
PSFILL
1000
Grayscale
1000
Grayscale
1070
   100
1002
}
  0
LINE
  5
2C40D
330
2C925
100
AcDbEntity
  8
YODOROGO
100
AcDbLine
 10
10476.60162798446
 20
706.7131308511116
 30
0.0
 11
10464.60162798447
 21
706.7131308511128
 31
0.0
1001
AUTOCAD_POSTSCRIPT_FIGURE
1002
{
1000
PSFILL
1000
Grayscale
1000
Grayscale
1070
   100
1002
}
  0
LINE
  5
2C40E
330
2C925
100
AcDbEntity
  8
YODOROGO
100
AcDbLine
 10
10476.60162798446
 20
712.7131308511124
 30
0.0
 11
10476.60162798446
 21
706.7131308511116
 31
0.0
1001
AUTOCAD_POSTSCRIPT_FIGURE
1002
{
1000
PSFILL
1000
Grayscale
1000
Grayscale
1070
   100
1002
}
  0
LINE
  5
2C40F
330
2C925
100
AcDbEntity
  8
YODOROGO
100
AcDbLine
 10
10464.60162798447
 20
712.7131308511124
 30
0.0
 11
10476.60162798446
 21
712.7131308511124
 31
0.0
1001
AUTOCAD_POSTSCRIPT_FIGURE
1002
{
1000
PSFILL
1000
Grayscale
1000
Grayscale
1070
   100
1002
}
  0
LINE
  5
2C410
330
2C925
100
AcDbEntity
  8
YODOROGO
100
AcDbLine
 10
10464.60162798447
 20
727.4060611609829
 30
0.0
 11
10464.60162798447
 21
712.7131308511124
 31
0.0
1001
AUTOCAD_POSTSCRIPT_FIGURE
1002
{
1000
PSFILL
1000
Grayscale
1000
Grayscale
1070
   100
1002
}
  0
LINE
  5
2C411
330
2C925
100
AcDbEntity
  8
YODOROGO
100
AcDbLine
 10
10476.60162798446
 20
727.4060611609829
 30
0.0
 11
10464.60162798447
 21
727.4060611609829
 31
0.0
1001
AUTOCAD_POSTSCRIPT_FIGURE
1002
{
1000
PSFILL
1000
Grayscale
1000
Grayscale
1070
   100
1002
}
  0
LINE
  5
2C412
330
2C925
100
AcDbEntity
  8
YODOROGO
100
AcDbLine
 10
10476.60162798446
 20
733.4060611609828
 30
0.0
 11
10476.60162798446
 21
727.4060611609829
 31
0.0
1001
AUTOCAD_POSTSCRIPT_FIGURE
1002
{
1000
PSFILL
1000
Grayscale
1000
Grayscale
1070
   100
1002
}
  0
LINE
  5
2C413
330
2C925
100
AcDbEntity
  8
YODOROGO
100
AcDbLine
 10
10464.60162798447
 20
733.4060611609828
 30
0.0
 11
10476.60162798446
 21
733.4060611609828
 31
0.0
1001
AUTOCAD_POSTSCRIPT_FIGURE
1002
{
1000
PSFILL
1000
Grayscale
1000
Grayscale
1070
   100
1002
}
  0
LINE
  5
2C414
330
2C925
100
AcDbEntity
  8
YODOROGO
100
AcDbLine
 10
10464.60162798447
 20
742.4060611609831
 30
0.0
 11
10464.60162798447
 21
733.4060611609828
 31
0.0
1001
AUTOCAD_POSTSCRIPT_FIGURE
1002
{
1000
PSFILL
1000
Grayscale
1000
Grayscale
1070
   100
1002
}
  0
LINE
  5
2C415
330
2C925
100
AcDbEntity
  8
YODOROGO
100
AcDbLine
 10
10458.60162798446
 20
742.4060611609831
 30
0.0
 11
10464.60162798447
 21
742.4060611609831
 31
0.0
1001
AUTOCAD_POSTSCRIPT_FIGURE
1002
{
1000
PSFILL
1000
Grayscale
1000
Grayscale
1070
   100
1002
}
  0
LINE
  5
2C416
330
2C925
100
AcDbEntity
  8
YODOROGO
100
AcDbLine
 10
10458.60162798446
 20
733.4060611609828
 30
0.0
 11
10458.60162798446
 21
742.4060611609831
 31
0.0
1001
AUTOCAD_POSTSCRIPT_FIGURE
1002
{
1000
PSFILL
1000
Grayscale
1000
Grayscale
1070
   100
1002
}
  0
LINE
  5
2C417
330
2C925
100
AcDbEntity
  8
YODOROGO
100
AcDbLine
 10
10449.60162798447
 20
733.4060611609828
 30
0.0
 11
10458.60162798446
 21
733.4060611609828
 31
0.0
1001
AUTOCAD_POSTSCRIPT_FIGURE
1002
{
1000
PSFILL
1000
Grayscale
1000
Grayscale
1070
   100
1002
}
  0
LINE
  5
2C418
330
2C925
100
AcDbEntity
  8
YODOROGO
100
AcDbLine
 10
10449.60162798447
 20
742.4060611609831
 30
0.0
 11
10449.60162798447
 21
733.4060611609828
 31
0.0
1001
AUTOCAD_POSTSCRIPT_FIGURE
1002
{
1000
PSFILL
1000
Grayscale
1000
Grayscale
1070
   100
1002
}
  0
LINE
  5
2C419
330
2C925
100
AcDbEntity
  8
YODOROGO
100
AcDbLine
 10
10443.60162798447
 20
742.4060611609831
 30
0.0
 11
10449.60162798447
 21
742.4060611609831
 31
0.0
1001
AUTOCAD_POSTSCRIPT_FIGURE
1002
{
1000
PSFILL
1000
Grayscale
1000
Grayscale
1070
   100
1002
}
  0
LINE
  5
2C41A
330
2C925
100
AcDbEntity
  8
YODOROGO
100
AcDbLine
 10
10443.60162798447
 20
733.4060611609828
 30
0.0
 11
10443.60162798447
 21
742.4060611609831
 31
0.0
1001
AUTOCAD_POSTSCRIPT_FIGURE
1002
{
1000
PSFILL
1000
Grayscale
1000
Grayscale
1070
   100
1002
}
  0
LINE
  5
2C41B
330
2C925
100
AcDbEntity
  8
YODOROGO
100
AcDbLine
 10
10431.60162798447
 20
733.4060611609828
 30
0.0
 11
10443.60162798447
 21
733.4060611609828
 31
0.0
1001
AUTOCAD_POSTSCRIPT_FIGURE
1002
{
1000
PSFILL
1000
Grayscale
1000
Grayscale
1070
   100
1002
}
  0
LINE
  5
2C41C
330
2C925
100
AcDbEntity
  8
YODOROGO
100
AcDbLine
 10
10431.60162798447
 20
742.4060611609831
 30
0.0
 11
10431.60162798447
 21
733.4060611609828
 31
0.0
1001
AUTOCAD_POSTSCRIPT_FIGURE
1002
{
1000
PSFILL
1000
Grayscale
1000
Grayscale
1070
   100
1002
}
  0
LINE
  5
2C41D
330
2C925
100
AcDbEntity
  8
YODOROGO
100
AcDbLine
 10
10425.60162798447
 20
742.4060611609831
 30
0.0
 11
10431.60162798447
 21
742.4060611609831
 31
0.0
1001
AUTOCAD_POSTSCRIPT_FIGURE
1002
{
1000
PSFILL
1000
Grayscale
1000
Grayscale
1070
   100
1002
}
  0
LINE
  5
2C41E
330
2C925
100
AcDbEntity
  8
YODOROGO
100
AcDbLine
 10
10425.60162798447
 20
733.4060611609828
 30
0.0
 11
10425.60162798447
 21
742.4060611609831
 31
0.0
1001
AUTOCAD_POSTSCRIPT_FIGURE
1002
{
1000
PSFILL
1000
Grayscale
1000
Grayscale
1070
   100
1002
}
  0
LINE
  5
2C41F
330
2C925
100
AcDbEntity
  8
YODOROGO
100
AcDbLine
 10
10416.60162798446
 20
733.4060611609828
 30
0.0
 11
10425.60162798447
 21
733.4060611609828
 31
0.0
1001
AUTOCAD_POSTSCRIPT_FIGURE
1002
{
1000
PSFILL
1000
Grayscale
1000
Grayscale
1070
   100
1002
}
  0
LINE
  5
2C420
330
2C925
100
AcDbEntity
  8
YODOROGO
100
AcDbLine
 10
10416.60162798446
 20
727.4060611609829
 30
0.0
 11
10416.60162798446
 21
733.4060611609828
 31
0.0
1001
AUTOCAD_POSTSCRIPT_FIGURE
1002
{
1000
PSFILL
1000
Grayscale
1000
Grayscale
1070
   100
1002
}
  0
LINE
  5
2C421
330
2C925
100
AcDbEntity
  8
YODOROGO
100
AcDbLine
 10
10425.60162798447
 20
727.4060611609829
 30
0.0
 11
10416.60162798446
 21
727.4060611609829
 31
0.0
1001
AUTOCAD_POSTSCRIPT_FIGURE
1002
{
1000
PSFILL
1000
Grayscale
1000
Grayscale
1070
   100
1002
}
  0
LINE
  5
2C422
330
2C925
100
AcDbEntity
  8
YODOROGO
100
AcDbLine
 10
10425.60162798447
 20
718.0449677976392
 30
0.0
 11
10425.60162798447
 21
727.4060611609829
 31
0.0
1001
AUTOCAD_POSTSCRIPT_FIGURE
1002
{
1000
PSFILL
1000
Grayscale
1000
Grayscale
1070
   100
1002
}
  0
LINE
  5
2C423
330
2C925
100
AcDbEntity
  8
YODOROGO
100
AcDbLine
 10
10416.60162798446
 20
697.4162804818766
 30
0.0
 11
10425.60162798447
 21
718.0449677976392
 31
0.0
1001
AUTOCAD_POSTSCRIPT_FIGURE
1002
{
1000
PSFILL
1000
Grayscale
1000
Grayscale
1070
   100
1002
}
  0
LINE
  5
2C424
330
2C925
100
AcDbEntity
  8
YODOROGO
100
AcDbLine
 10
10416.60162798446
 20
691.4162804818772
 30
0.0
 11
10416.60162798446
 21
697.4162804818766
 31
0.0
1001
AUTOCAD_POSTSCRIPT_FIGURE
1002
{
1000
PSFILL
1000
Grayscale
1000
Grayscale
1070
   100
1002
}
  0
LINE
  5
2C425
330
2C925
100
AcDbEntity
  8
YODOROGO
100
AcDbLine
 10
10596.60162798446
 20
700.406061160983
 30
0.0
 11
10650.60162798447
 21
684.3291096151149
 31
0.0
1001
AUTOCAD_POSTSCRIPT_FIGURE
1002
{
1000
PSFILL
1000
Grayscale
1000
Grayscale
1070
   100
1002
}
  0
LINE
  5
2C426
330
2C925
100
AcDbEntity
  8
YODOROGO
100
AcDbLine
 10
10650.60162798447
 20
657.3291096151146
 30
0.0
 11
10596.60162798446
 21
673.4060611609827
 31
0.0
1001
AUTOCAD_POSTSCRIPT_FIGURE
1002
{
1000
PSFILL
1000
Grayscale
1000
Grayscale
1070
   100
1002
}
  0
LINE
  5
2C427
330
2C925
100
AcDbEntity
  8
YODOROGO
100
AcDbLine
 10
10650.60162798447
 20
744.329109615115
 30
0.0
 11
10596.60162798446
 21
760.4060611609829
 31
0.0
1001
AUTOCAD_POSTSCRIPT_FIGURE
1002
{
1000
PSFILL
1000
Grayscale
1000
Grayscale
1070
   100
1002
}
  0
LINE
  5
2C428
330
2C925
100
AcDbEntity
  8
YODOROGO
100
AcDbLine
 10
10596.60162798446
 20
734.906061160983
 30
0.0
 11
10650.60162798447
 21
718.829109615115
 31
0.0
1001
AUTOCAD_POSTSCRIPT_FIGURE
1002
{
1000
PSFILL
1000
Grayscale
1000
Grayscale
1070
   100
1002
}
  0
LINE
  5
2C429
330
2C925
100
AcDbEntity
  8
YODOROGO
100
AcDbLine
 10
10596.60162798446
 20
673.4060611609827
 30
0.0
 11
10596.60162798446
 21
700.406061160983
 31
0.0
1001
AUTOCAD_POSTSCRIPT_FIGURE
1002
{
1000
PSFILL
1000
Grayscale
1000
Grayscale
1070
   100
1002
}
  0
LINE
  5
2C42A
330
2C925
100
AcDbEntity
  8
YODOROGO
100
AcDbLine
 10
10596.60162798446
 20
760.4060611609829
 30
0.0
 11
10596.60162798446
 21
734.906061160983
 31
0.0
1001
AUTOCAD_POSTSCRIPT_FIGURE
1002
{
1000
PSFILL
1000
Grayscale
1000
Grayscale
1070
   100
1002
}
  0
LINE
  5
2C42B
330
2C925
100
AcDbEntity
  8
YODOROGO
100
AcDbLine
 10
10530.08862007752
 20
727.4060611609829
 30
0.0
 11
10548.60162798447
 21
655.406061160983
 31
0.0
1001
AUTOCAD_POSTSCRIPT_FIGURE
1002
{
1000
PSFILL
1000
Grayscale
1000
Grayscale
1070
   100
1002
}
  0
LINE
  5
2C42C
330
2C925
100
AcDbEntity
  8
YODOROGO
100
AcDbLine
 10
10491.60162798447
 20
727.4060611609829
 30
0.0
 11
10530.08862007752
 21
727.4060611609829
 31
0.0
1001
AUTOCAD_POSTSCRIPT_FIGURE
1002
{
1000
PSFILL
1000
Grayscale
1000
Grayscale
1070
   100
1002
}
  0
LINE
  5
2C42D
330
2C925
100
AcDbEntity
  8
YODOROGO
100
AcDbLine
 10
10491.60162798447
 20
733.4060611609828
 30
0.0
 11
10491.60162798447
 21
727.4060611609829
 31
0.0
1001
AUTOCAD_POSTSCRIPT_FIGURE
1002
{
1000
PSFILL
1000
Grayscale
1000
Grayscale
1070
   100
1002
}
  0
LINE
  5
2C42E
330
2C925
100
AcDbEntity
  8
YODOROGO
100
AcDbLine
 10
10528.72757944497
 20
733.4060611609828
 30
0.0
 11
10491.60162798447
 21
733.4060611609828
 31
0.0
1001
AUTOCAD_POSTSCRIPT_FIGURE
1002
{
1000
PSFILL
1000
Grayscale
1000
Grayscale
1070
   100
1002
}
  0
LINE
  5
2C42F
330
2C925
100
AcDbEntity
  8
YODOROGO
100
AcDbLine
 10
10526.68601849614
 20
742.4060611609831
 30
0.0
 11
10528.72757944497
 21
733.4060611609828
 31
0.0
1001
AUTOCAD_POSTSCRIPT_FIGURE
1002
{
1000
PSFILL
1000
Grayscale
1000
Grayscale
1070
   100
1002
}
  0
LINE
  5
2C430
330
2C925
100
AcDbEntity
  8
YODOROGO
100
AcDbLine
 10
10534.18601849614
 20
742.4060611609831
 30
0.0
 11
10526.68601849614
 21
742.4060611609831
 31
0.0
1001
AUTOCAD_POSTSCRIPT_FIGURE
1002
{
1000
PSFILL
1000
Grayscale
1000
Grayscale
1070
   100
1002
}
  0
LINE
  5
2C431
330
2C925
100
AcDbEntity
  8
YODOROGO
100
AcDbLine
 10
10535.92757944497
 20
733.4060611609828
 30
0.0
 11
10534.18601849614
 21
742.4060611609831
 31
0.0
1001
AUTOCAD_POSTSCRIPT_FIGURE
1002
{
1000
PSFILL
1000
Grayscale
1000
Grayscale
1070
   100
1002
}
  0
LINE
  5
2C432
330
2C925
100
AcDbEntity
  8
YODOROGO
100
AcDbLine
 10
10545.60162798447
 20
733.4060611609828
 30
0.0
 11
10535.92757944497
 21
733.4060611609828
 31
0.0
1001
AUTOCAD_POSTSCRIPT_FIGURE
1002
{
1000
PSFILL
1000
Grayscale
1000
Grayscale
1070
   100
1002
}
  0
LINE
  5
2C433
330
2C925
100
AcDbEntity
  8
YODOROGO
100
AcDbLine
 10
10545.60162798447
 20
742.4060611609831
 30
0.0
 11
10545.60162798447
 21
733.4060611609828
 31
0.0
1001
AUTOCAD_POSTSCRIPT_FIGURE
1002
{
1000
PSFILL
1000
Grayscale
1000
Grayscale
1070
   100
1002
}
  0
LINE
  5
2C434
330
2C925
100
AcDbEntity
  8
YODOROGO
100
AcDbLine
 10
10551.60162798447
 20
742.4060611609831
 30
0.0
 11
10545.60162798447
 21
742.4060611609831
 31
0.0
1001
AUTOCAD_POSTSCRIPT_FIGURE
1002
{
1000
PSFILL
1000
Grayscale
1000
Grayscale
1070
   100
1002
}
  0
LINE
  5
2C435
330
2C925
100
AcDbEntity
  8
YODOROGO
100
AcDbLine
 10
10551.60162798447
 20
733.4060611609828
 30
0.0
 11
10551.60162798447
 21
742.4060611609831
 31
0.0
1001
AUTOCAD_POSTSCRIPT_FIGURE
1002
{
1000
PSFILL
1000
Grayscale
1000
Grayscale
1070
   100
1002
}
  0
LINE
  5
2C436
330
2C925
100
AcDbEntity
  8
YODOROGO
100
AcDbLine
 10
10551.60162798447
 20
727.4060611609829
 30
0.0
 11
10551.60162798447
 21
733.4060611609828
 31
0.0
1001
AUTOCAD_POSTSCRIPT_FIGURE
1002
{
1000
PSFILL
1000
Grayscale
1000
Grayscale
1070
   100
1002
}
  0
LINE
  5
2C437
330
2C925
100
AcDbEntity
  8
YODOROGO
100
AcDbLine
 10
10537.08862007753
 20
727.4060611609829
 30
0.0
 11
10551.60162798447
 21
727.4060611609829
 31
0.0
1001
AUTOCAD_POSTSCRIPT_FIGURE
1002
{
1000
PSFILL
1000
Grayscale
1000
Grayscale
1070
   100
1002
}
  0
LINE
  5
2C438
330
2C925
100
AcDbEntity
  8
YODOROGO
100
AcDbLine
 10
10551.60162798447
 20
655.406061160983
 30
0.0
 11
10537.08862007753
 21
727.4060611609829
 31
0.0
1001
AUTOCAD_POSTSCRIPT_FIGURE
1002
{
1000
PSFILL
1000
Grayscale
1000
Grayscale
1070
   100
1002
}
  0
LINE
  5
2C439
330
2C925
100
AcDbEntity
  8
YODOROGO
100
AcDbLine
 10
10548.60162798447
 20
655.406061160983
 30
0.0
 11
10551.60162798447
 21
655.406061160983
 31
0.0
1001
AUTOCAD_POSTSCRIPT_FIGURE
1002
{
1000
PSFILL
1000
Grayscale
1000
Grayscale
1070
   100
1002
}
  0
LINE
  5
2C43A
330
2C925
100
AcDbEntity
  8
YODOROGO
100
AcDbLine
 10
10529.27595747517
 20
665.902791112048
 30
0.0
 11
10491.60162798447
 21
655.406061160983
 31
0.0
  0
LINE
  5
2C43B
330
2C925
100
AcDbEntity
  8
YODOROGO
100
AcDbLine
 10
10529.27595747517
 20
674.5008673234024
 30
0.0
 11
10529.27595747517
 21
665.902791112048
 31
0.0
  0
LINE
  5
2C43C
330
2C925
100
AcDbEntity
  8
YODOROGO
100
AcDbLine
 10
10512.68879272982
 20
670.0563499251625
 30
0.0
 11
10529.27595747517
 21
674.5008673234024
 31
0.0
  0
LINE
  5
2C43D
330
2C925
100
AcDbEntity
  8
YODOROGO
100
AcDbLine
 10
10512.68879272982
 20
702.2131308511124
 30
0.0
 11
10512.68879272982
 21
670.0563499251625
 31
0.0
  0
LINE
  5
2C43E
330
2C925
100
AcDbEntity
  8
YODOROGO
100
AcDbLine
 10
10529.27595747517
 20
702.2131308511124
 30
0.0
 11
10512.68879272982
 21
702.2131308511124
 31
0.0
  0
LINE
  5
2C43F
330
2C925
100
AcDbEntity
  8
YODOROGO
100
AcDbLine
 10
10529.27595747517
 20
709.7131308511117
 30
0.0
 11
10529.27595747517
 21
702.2131308511124
 31
0.0
  0
LINE
  5
2C440
330
2C925
100
AcDbEntity
  8
YODOROGO
100
AcDbLine
 10
10491.60162798447
 20
709.7131308511117
 30
0.0
 11
10529.27595747517
 21
709.7131308511117
 31
0.0
  0
LINE
  5
2C441
330
2C925
100
AcDbEntity
  8
YODOROGO
100
AcDbLine
 10
10491.60162798447
 20
702.2131308511124
 30
0.0
 11
10491.60162798447
 21
709.7131308511117
 31
0.0
  0
LINE
  5
2C442
330
2C925
100
AcDbEntity
  8
YODOROGO
100
AcDbLine
 10
10508.18879272982
 20
702.2131308511124
 30
0.0
 11
10491.60162798447
 21
702.2131308511124
 31
0.0
  0
LINE
  5
2C443
330
2C925
100
AcDbEntity
  8
YODOROGO
100
AcDbLine
 10
10508.18879272982
 20
669.252502347869
 30
0.0
 11
10508.18879272982
 21
702.2131308511124
 31
0.0
  0
LINE
  5
2C444
330
2C925
100
AcDbEntity
  8
YODOROGO
100
AcDbLine
 10
10491.60162798447
 20
664.4060611609822
 30
0.0
 11
10508.18879272982
 21
669.252502347869
 31
0.0
  0
LINE
  5
2C445
330
2C925
100
AcDbEntity
  8
YODOROGO
100
AcDbLine
 10
10491.60162798447
 20
655.406061160983
 30
0.0
 11
10491.60162798447
 21
664.4060611609822
 31
0.0
  0
LINE
  5
2C446
330
2C925
100
AcDbEntity
  8
YODOROGO
100
AcDbLine
 10
10500.60162798446
 20
640.4060611609828
 30
0.0
 11
10500.60162798446
 21
631.4060611609826
 31
0.0
  0
LINE
  5
2C447
330
2C925
100
AcDbEntity
  8
YODOROGO
100
AcDbLine
 10
10500.60162798446
 20
640.4060611609828
 30
0.0
 11
10500.60162798446
 21
640.4060611609828
 31
0.0
  0
LINE
  5
2C448
330
2C925
100
AcDbEntity
  8
YODOROGO
100
AcDbLine
 10
10506.60162798447
 20
640.4060611609828
 30
0.0
 11
10500.60162798446
 21
640.4060611609828
 31
0.0
  0
LINE
  5
2C449
330
2C925
100
AcDbEntity
  8
YODOROGO
100
AcDbLine
 10
10506.60162798447
 20
631.4060611609826
 30
0.0
 11
10506.60162798447
 21
640.4060611609828
 31
0.0
  0
LINE
  5
2C44A
330
2C925
100
AcDbEntity
  8
YODOROGO
100
AcDbLine
 10
10515.34245150633
 20
631.4060611609826
 30
0.0
 11
10506.60162798447
 21
631.4060611609826
 31
0.0
  0
LINE
  5
2C44B
330
2C925
100
AcDbEntity
  8
YODOROGO
100
AcDbLine
 10
10500.60162798446
 20
631.4060611609826
 30
0.0
 11
10491.60162798447
 21
631.4060611609826
 31
0.0
  0
LINE
  5
2C44C
330
2C925
100
AcDbEntity
  8
YODOROGO
100
AcDbLine
 10
10530.80082008658
 20
640.4060611609828
 30
0.0
 11
10536.8008200866
 21
640.4060611609828
 31
0.0
1001
AUTOCAD_POSTSCRIPT_FIGURE
1002
{
1000
PSFILL
1000
Grayscale
1000
Grayscale
1070
   100
1002
}
  0
LINE
  5
2C44D
330
2C925
100
AcDbEntity
  8
YODOROGO
100
AcDbLine
 10
10650.60162798447
 20
684.3291096151149
 30
0.0
 11
10650.60162798447
 21
657.3291096151146
 31
0.0
1001
AUTOCAD_POSTSCRIPT_FIGURE
1002
{
1000
PSFILL
1000
Grayscale
1000
Grayscale
1070
   100
1002
}
  0
LINE
  5
2C44E
330
2C925
100
AcDbEntity
  8
YODOROGO
100
AcDbLine
 10
10650.60162798447
 20
718.829109615115
 30
0.0
 11
10650.60162798447
 21
744.329109615115
 31
0.0
1001
AUTOCAD_POSTSCRIPT_FIGURE
1002
{
1000
PSFILL
1000
Grayscale
1000
Grayscale
1070
   100
1002
}
  0
LINE
  5
2C44F
330
2C925
100
AcDbEntity
  8
YODOROGO
100
AcDbLine
 10
10662.60162798446
 20
682.4060611609829
 30
0.0
 11
10662.60162798446
 21
655.4060611609838
 31
0.0
  0
LINE
  5
2C450
330
2C925
100
AcDbEntity
  8
YODOROGO
100
AcDbLine
 10
10686.60162798446
 20
640.4060611609828
 30
0.0
 11
10662.60162798446
 21
640.4060611609828
 31
0.0
  0
LINE
  5
2C451
330
2C925
100
AcDbEntity
  8
YODOROGO
100
AcDbLine
 10
10662.60162798446
 20
655.4060611609838
 30
0.0
 11
10719.60162798446
 21
655.4060611609838
 31
0.0
  0
LINE
  5
2C452
330
2C925
100
AcDbEntity
  8
YODOROGO
100
AcDbLine
 10
10686.60162798446
 20
700.406061160983
 30
0.0
 11
10662.60162798446
 21
700.406061160983
 31
0.0
  0
LINE
  5
2C453
330
2C925
100
AcDbEntity
  8
YODOROGO
100
AcDbLine
 10
10686.60162798446
 20
721.4060611609826
 30
0.0
 11
10686.60162798446
 21
700.406061160983
 31
0.0
  0
LINE
  5
2C454
330
2C925
100
AcDbEntity
  8
YODOROGO
100
AcDbLine
 10
10719.60162798446
 20
745.4060611609828
 30
0.0
 11
10719.60162798446
 21
760.4060611609829
 31
0.0
  0
LINE
  5
2C455
330
2C925
100
AcDbEntity
  8
YODOROGO
100
AcDbLine
 10
10662.60162798446
 20
745.4060611609828
 30
0.0
 11
10719.60162798446
 21
745.4060611609828
 31
0.0
  0
LINE
  5
2C456
330
2C925
100
AcDbEntity
  8
YODOROGO
100
AcDbLine
 10
10662.60162798446
 20
700.406061160983
 30
0.0
 11
10662.60162798446
 21
745.4060611609828
 31
0.0
  0
LINE
  5
2C457
330
2C925
100
AcDbEntity
  8
YODOROGO
100
AcDbLine
 10
10875.60162798447
 20
760.4060611609829
 30
0.0
 11
10875.60162798447
 21
607.4060611609829
 31
0.0
  0
LINE
  5
2C458
330
2C925
100
AcDbEntity
  8
YODOROGO
100
AcDbLine
 10
10902.60162798446
 20
592.4060611609831
 30
0.0
 11
10902.60162798446
 21
760.4060611609829
 31
0.0
  0
LINE
  5
2C459
330
2C925
100
AcDbEntity
  8
YODOROGO
100
AcDbLine
 10
10973.10162798446
 20
559.4060611609823
 30
0.0
 11
10973.10162798446
 21
752.9060611609828
 31
0.0
  0
LINE
  5
2C45A
330
2C925
100
AcDbEntity
  8
YODOROGO
100
AcDbLine
 10
10949.10162798447
 20
752.9060611609828
 30
0.0
 11
10949.10162798447
 21
559.4060611609823
 31
0.0
  0
LINE
  5
2C45B
330
2C925
100
AcDbEntity
  8
YODOROGO
100
AcDbLine
 10
11019.60162798446
 20
760.4060611609829
 30
0.0
 11
11019.60162798446
 21
535.4060611609829
 31
0.0
  0
LINE
  5
2C45C
330
2C925
100
AcDbEntity
  8
YODOROGO
100
AcDbLine
 10
11046.60162798447
 20
535.4060611609829
 30
0.0
 11
11046.60162798447
 21
760.4060611609829
 31
0.0
  0
LINE
  5
2C45D
330
2C925
100
AcDbEntity
  8
YODOROGO
100
AcDbLine
 10
10746.60162798446
 20
625.406061160983
 30
0.0
 11
10746.60162798446
 21
655.4060611609838
 31
0.0
  0
LINE
  5
2C45E
330
2C925
100
AcDbEntity
  8
YODOROGO
100
AcDbLine
 10
11207.10162798447
 20
640.4060611609828
 30
0.0
 11
11207.10162798447
 21
625.406061160983
 31
0.0
  0
LINE
  5
2C45F
330
2C925
100
AcDbEntity
  8
YODOROGO
100
AcDbLine
 10
11207.10162798447
 20
640.4060611609828
 30
0.0
 11
11207.10162798447
 21
625.406061160983
 31
0.0
  0
ARC
  5
2C460
330
2C925
100
AcDbEntity
  8
YODOROGO
100
AcDbCircle
 10
10840.09184107006
 20
606.8316991658524
 30
0.0
 40
35.51443169202812
100
AcDbArc
 50
274.052441629071
 51
0.9266642149310715
  0
ARC
  5
2C461
330
2C925
100
AcDbEntity
  8
YODOROGO
100
AcDbCircle
 10
10840.94481401993
 20
597.229023228915
 30
0.0
 40
61.84515883532068
100
AcDbArc
 50
271.5351210653778
 51
355.5272775058505
  0
LINE
  5
2C462
330
2C925
100
AcDbEntity
  8
YODOROGO
100
AcDbLine
 10
10842.60162798446
 20
571.4060611609826
 30
0.0
 11
10842.60162798446
 21
535.4060611609829
 31
0.0
  0
LINE
  5
2C463
330
2C925
100
AcDbEntity
  8
YODOROGO
100
AcDbLine
 10
10797.60162798445
 20
625.406061160983
 30
0.0
 11
10746.60162798446
 21
625.406061160983
 31
0.0
  0
LINE
  5
2C464
330
2C925
100
AcDbEntity
  8
YODOROGO
100
AcDbLine
 10
10797.60162798445
 20
601.4060611609833
 30
0.0
 11
10797.60162798445
 21
625.406061160983
 31
0.0
  0
LINE
  5
2C465
330
2C925
100
AcDbEntity
  8
YODOROGO
100
AcDbLine
 10
10746.60162798446
 20
601.4060611609833
 30
0.0
 11
10797.60162798445
 21
601.4060611609833
 31
0.0
  0
LINE
  5
2C466
330
2C925
100
AcDbEntity
  8
YODOROGO
100
AcDbLine
 10
10746.60162798446
 20
571.4060611609826
 30
0.0
 11
10746.60162798446
 21
601.4060611609833
 31
0.0
  0
LINE
  5
2C467
330
2C925
100
AcDbEntity
  8
YODOROGO
100
AcDbLine
 10
10797.60162798445
 20
571.4060611609826
 30
0.0
 11
10746.60162798446
 21
571.4060611609826
 31
0.0
  0
LINE
  5
2C468
330
2C925
100
AcDbEntity
  8
YODOROGO
100
AcDbLine
 10
10797.60162798445
 20
535.4060611609829
 30
0.0
 11
10797.60162798445
 21
571.4060611609826
 31
0.0
  0
LINE
  5
2C469
330
2C925
100
AcDbEntity
  8
YODOROGO
100
AcDbLine
 10
10949.10162798447
 20
559.4060611609823
 30
0.0
 11
10973.10162798446
 21
559.4060611609823
 31
0.0
  0
LINE
  5
2C46A
330
2C925
100
AcDbEntity
  8
YODOROGO
100
AcDbLine
 10
11019.60162798446
 20
535.4060611609829
 30
0.0
 11
11046.60162798447
 21
535.4060611609829
 31
0.0
  0
LINE
  5
2C46B
330
2C925
100
AcDbEntity
  8
YODOROGO
100
AcDbLine
 10
11151.60162798447
 20
573.1655445639615
 30
0.0
 11
11151.60162798447
 21
535.4060611609829
 31
0.0
  0
LINE
  5
2C46C
330
2C925
100
AcDbEntity
  8
YODOROGO
100
AcDbLine
 10
11106.60162798446
 20
535.4060611609829
 30
0.0
 11
11151.60162798447
 21
573.1655445639615
 31
0.0
  0
LINE
  5
2C46D
330
2C925
100
AcDbEntity
  8
YODOROGO
100
AcDbLine
 10
11106.60162798446
 20
580.406061160983
 30
0.0
 11
11106.60162798446
 21
535.4060611609829
 31
0.0
  0
LINE
  5
2C46E
330
2C925
100
AcDbEntity
  8
YODOROGO
100
AcDbLine
 10
11142.35423576229
 20
610.4060611609829
 30
0.0
 11
11106.60162798446
 21
580.406061160983
 31
0.0
  0
LINE
  5
2C46F
330
2C925
100
AcDbEntity
  8
YODOROGO
100
AcDbLine
 10
11106.60162798446
 20
610.4060611609829
 30
0.0
 11
11142.35423576229
 21
610.4060611609829
 31
0.0
  0
LINE
  5
2C470
330
2C925
100
AcDbEntity
  8
YODOROGO
100
AcDbLine
 10
11106.60162798446
 20
625.406061160983
 30
0.0
 11
11106.60162798446
 21
610.4060611609829
 31
0.0
  0
LINE
  5
2C471
330
2C925
100
AcDbEntity
  8
YODOROGO
100
AcDbLine
 10
11207.10162798447
 20
625.406061160983
 30
0.0
 11
11106.60162798446
 21
625.406061160983
 31
0.0
  0
LINE
  5
2C472
330
2C925
100
AcDbEntity
  8
YODOROGO
100
AcDbLine
 10
11219.10162798447
 20
610.4060611609829
 30
0.0
 11
11166.60162798446
 21
610.4060611609829
 31
0.0
  0
LINE
  5
2C473
330
2C925
100
AcDbEntity
  8
YODOROGO
100
AcDbLine
 10
11166.60162798446
 20
585.7520390316213
 30
0.0
 11
11164.27870236949
 21
583.8028730048376
 31
0.0
  0
LINE
  5
2C474
330
2C925
100
AcDbEntity
  8
YODOROGO
100
AcDbLine
 10
11166.60162798446
 20
610.4060611609829
 30
0.0
 11
11166.60162798446
 21
585.7520390316213
 31
0.0
  0
LINE
  5
2C475
330
2C925
100
AcDbEntity
  8
YODOROGO
100
AcDbLine
 10
11151.60162798447
 20
573.1655445639615
 30
0.0
 11
11151.60162798447
 21
535.4060611609829
 31
0.0
  0
LINE
  5
2C476
330
2C925
100
AcDbEntity
  8
YODOROGO
100
AcDbLine
 10
11106.60162798446
 20
535.4060611609829
 30
0.0
 11
11151.60162798447
 21
573.1655445639615
 31
0.0
  0
LINE
  5
2C477
330
2C925
100
AcDbEntity
  8
YODOROGO
100
AcDbLine
 10
11106.60162798446
 20
580.406061160983
 30
0.0
 11
11106.60162798446
 21
535.4060611609829
 31
0.0
  0
LINE
  5
2C478
330
2C925
100
AcDbEntity
  8
YODOROGO
100
AcDbLine
 10
11142.35423576229
 20
610.4060611609829
 30
0.0
 11
11106.60162798446
 21
580.406061160983
 31
0.0
  0
LINE
  5
2C479
330
2C925
100
AcDbEntity
  8
YODOROGO
100
AcDbLine
 10
11106.60162798446
 20
610.4060611609829
 30
0.0
 11
11142.35423576229
 21
610.4060611609829
 31
0.0
  0
LINE
  5
2C47A
330
2C925
100
AcDbEntity
  8
YODOROGO
100
AcDbLine
 10
11106.60162798446
 20
625.406061160983
 30
0.0
 11
11106.60162798446
 21
610.4060611609829
 31
0.0
  0
LINE
  5
2C47B
330
2C925
100
AcDbEntity
  8
YODOROGO
100
AcDbLine
 10
11207.10162798447
 20
625.406061160983
 30
0.0
 11
11106.60162798446
 21
625.406061160983
 31
0.0
  0
LINE
  5
2C47C
330
2C925
100
AcDbEntity
  8
YODOROGO
100
AcDbLine
 10
10797.60162798445
 20
655.4060611609838
 30
0.0
 11
10797.60162798445
 21
682.4060611609829
 31
0.0
  0
LINE
  5
2C47D
330
2C925
100
AcDbEntity
  8
YODOROGO
100
AcDbLine
 10
10746.60162798446
 20
655.4060611609838
 30
0.0
 11
10797.60162798445
 21
655.4060611609838
 31
0.0
  0
LINE
  5
2C47E
330
2C925
100
AcDbEntity
  8
YODOROGO
100
AcDbLine
 10
10773.60162798447
 20
700.406061160983
 30
0.0
 11
10773.60162798447
 21
721.4060611609826
 31
0.0
  0
LINE
  5
2C47F
330
2C925
100
AcDbEntity
  8
YODOROGO
100
AcDbLine
 10
10797.60162798445
 20
700.406061160983
 30
0.0
 11
10773.60162798447
 21
700.406061160983
 31
0.0
  0
LINE
  5
2C480
330
2C925
100
AcDbEntity
  8
YODOROGO
100
AcDbLine
 10
10797.60162798445
 20
730.406061160983
 30
0.0
 11
10797.60162798445
 21
700.406061160983
 31
0.0
  0
ARC
  5
2C481
330
2C925
100
AcDbEntity
  8
YODOROGO
100
AcDbCircle
 10
10782.60162798445
 20
730.406061160983
 30
0.0
 40
15.0
100
AcDbArc
 50
0.0
 51
90.0
  0
LINE
  5
2C482
330
2C925
100
AcDbEntity
  8
YODOROGO
100
AcDbLine
 10
10746.60162798447
 20
745.4060611609828
 30
0.0
 11
10782.60162798445
 21
745.4060611609828
 31
0.0
  0
LINE
  5
2C483
330
2C925
100
AcDbEntity
  8
YODOROGO
100
AcDbLine
 10
10746.60162798447
 20
760.4060611609829
 30
0.0
 11
10746.60162798447
 21
745.4060611609828
 31
0.0
  0
LINE
  5
2C484
330
2C925
100
AcDbEntity
  8
YODOROGO
100
AcDbLine
 10
10902.60162798446
 20
760.4060611609829
 30
0.0
 11
10875.60162798447
 21
760.4060611609829
 31
0.0
  0
LINE
  5
2C485
330
2C925
100
AcDbEntity
  8
YODOROGO
100
AcDbLine
 10
10973.10162798446
 20
752.9060611609828
 30
0.0
 11
10949.10162798447
 21
752.9060611609828
 31
0.0
  0
LINE
  5
2C486
330
2C925
100
AcDbEntity
  8
YODOROGO
100
AcDbLine
 10
11046.60162798447
 20
760.4060611609829
 30
0.0
 11
11019.60162798446
 21
760.4060611609829
 31
0.0
  0
LINE
  5
2C487
330
2C925
100
AcDbEntity
  8
YODOROGO
100
AcDbLine
 10
11127.60162798447
 20
640.4060611609828
 30
0.0
 11
11127.60162798447
 21
664.4060611609833
 31
0.0
1001
AUTOCAD_POSTSCRIPT_FIGURE
1002
{
1000
PSFILL
1000
Grayscale
1000
Grayscale
1070
    25
1002
}
  0
LINE
  5
2C488
330
2C925
100
AcDbEntity
  8
YODOROGO
100
AcDbLine
 10
11106.60162798446
 20
640.4060611609828
 30
0.0
 11
11127.60162798447
 21
640.4060611609828
 31
0.0
1001
AUTOCAD_POSTSCRIPT_FIGURE
1002
{
1000
PSFILL
1000
Grayscale
1000
Grayscale
1070
    25
1002
}
  0
LINE
  5
2C489
330
2C925
100
AcDbEntity
  8
YODOROGO
100
AcDbLine
 10
11106.60162798446
 20
682.4060611609829
 30
0.0
 11
11106.60162798446
 21
640.4060611609828
 31
0.0
1001
AUTOCAD_POSTSCRIPT_FIGURE
1002
{
1000
PSFILL
1000
Grayscale
1000
Grayscale
1070
    25
1002
}
  0
LINE
  5
2C48A
330
2C925
100
AcDbEntity
  8
YODOROGO
100
AcDbLine
 10
11162.10162798447
 20
682.4060611609829
 30
0.0
 11
11106.60162798446
 21
682.4060611609829
 31
0.0
1001
AUTOCAD_POSTSCRIPT_FIGURE
1002
{
1000
PSFILL
1000
Grayscale
1000
Grayscale
1070
    25
1002
}
  0
LINE
  5
2C48B
330
2C925
100
AcDbEntity
  8
YODOROGO
100
AcDbLine
 10
11162.10162798447
 20
697.406061160983
 30
0.0
 11
11162.10162798447
 21
682.4060611609829
 31
0.0
1001
AUTOCAD_POSTSCRIPT_FIGURE
1002
{
1000
PSFILL
1000
Grayscale
1000
Grayscale
1070
    25
1002
}
  0
LINE
  5
2C48C
330
2C925
100
AcDbEntity
  8
YODOROGO
100
AcDbLine
 10
11106.60162798446
 20
697.406061160983
 30
0.0
 11
11162.10162798447
 21
697.406061160983
 31
0.0
1001
AUTOCAD_POSTSCRIPT_FIGURE
1002
{
1000
PSFILL
1000
Grayscale
1000
Grayscale
1070
    25
1002
}
  0
LINE
  5
2C48D
330
2C925
100
AcDbEntity
  8
YODOROGO
100
AcDbLine
 10
11106.60162798446
 20
715.4060611609828
 30
0.0
 11
11106.60162798446
 21
697.406061160983
 31
0.0
1001
AUTOCAD_POSTSCRIPT_FIGURE
1002
{
1000
PSFILL
1000
Grayscale
1000
Grayscale
1070
    25
1002
}
  0
LINE
  5
2C48E
330
2C925
100
AcDbEntity
  8
YODOROGO
100
AcDbLine
 10
11162.10162798447
 20
715.4060611609828
 30
0.0
 11
11106.60162798446
 21
715.4060611609828
 31
0.0
1001
AUTOCAD_POSTSCRIPT_FIGURE
1002
{
1000
PSFILL
1000
Grayscale
1000
Grayscale
1070
    25
1002
}
  0
LINE
  5
2C48F
330
2C925
100
AcDbEntity
  8
YODOROGO
100
AcDbLine
 10
11162.10162798447
 20
730.406061160983
 30
0.0
 11
11162.10162798447
 21
715.4060611609828
 31
0.0
1001
AUTOCAD_POSTSCRIPT_FIGURE
1002
{
1000
PSFILL
1000
Grayscale
1000
Grayscale
1070
    25
1002
}
  0
LINE
  5
2C490
330
2C925
100
AcDbEntity
  8
YODOROGO
100
AcDbLine
 10
11106.60162798446
 20
730.406061160983
 30
0.0
 11
11162.10162798447
 21
730.406061160983
 31
0.0
1001
AUTOCAD_POSTSCRIPT_FIGURE
1002
{
1000
PSFILL
1000
Grayscale
1000
Grayscale
1070
    25
1002
}
  0
LINE
  5
2C491
330
2C925
100
AcDbEntity
  8
YODOROGO
100
AcDbLine
 10
11106.60162798446
 20
760.4060611609829
 30
0.0
 11
11106.60162798446
 21
730.406061160983
 31
0.0
1001
AUTOCAD_POSTSCRIPT_FIGURE
1002
{
1000
PSFILL
1000
Grayscale
1000
Grayscale
1070
    25
1002
}
  0
LINE
  5
2C492
330
2C925
100
AcDbEntity
  8
YODOROGO
100
AcDbLine
 10
11124.60162798446
 20
760.4060611609829
 30
0.0
 11
11106.60162798446
 21
760.4060611609829
 31
0.0
1001
AUTOCAD_POSTSCRIPT_FIGURE
1002
{
1000
PSFILL
1000
Grayscale
1000
Grayscale
1070
    25
1002
}
  0
LINE
  5
2C493
330
2C925
100
AcDbEntity
  8
YODOROGO
100
AcDbLine
 10
11124.60162798446
 20
748.4060611609828
 30
0.0
 11
11124.60162798446
 21
760.4060611609829
 31
0.0
1001
AUTOCAD_POSTSCRIPT_FIGURE
1002
{
1000
PSFILL
1000
Grayscale
1000
Grayscale
1070
    25
1002
}
  0
LINE
  5
2C494
330
2C925
100
AcDbEntity
  8
YODOROGO
100
AcDbLine
 10
11162.10162798447
 20
748.4060611609828
 30
0.0
 11
11124.60162798446
 21
748.4060611609828
 31
0.0
1001
AUTOCAD_POSTSCRIPT_FIGURE
1002
{
1000
PSFILL
1000
Grayscale
1000
Grayscale
1070
    25
1002
}
  0
LINE
  5
2C495
330
2C925
100
AcDbEntity
  8
YODOROGO
100
AcDbLine
 10
11162.10162798447
 20
760.4060611609829
 30
0.0
 11
11162.10162798447
 21
748.4060611609828
 31
0.0
1001
AUTOCAD_POSTSCRIPT_FIGURE
1002
{
1000
PSFILL
1000
Grayscale
1000
Grayscale
1070
    25
1002
}
  0
LINE
  5
2C496
330
2C925
100
AcDbEntity
  8
YODOROGO
100
AcDbLine
 10
11186.10162798447
 20
760.4060611609829
 30
0.0
 11
11162.10162798447
 21
760.4060611609829
 31
0.0
1001
AUTOCAD_POSTSCRIPT_FIGURE
1002
{
1000
PSFILL
1000
Grayscale
1000
Grayscale
1070
    25
1002
}
  0
LINE
  5
2C497
330
2C925
100
AcDbEntity
  8
YODOROGO
100
AcDbLine
 10
11186.10162798447
 20
748.4060611609828
 30
0.0
 11
11186.10162798447
 21
760.4060611609829
 31
0.0
1001
AUTOCAD_POSTSCRIPT_FIGURE
1002
{
1000
PSFILL
1000
Grayscale
1000
Grayscale
1070
    25
1002
}
  0
LINE
  5
2C498
330
2C925
100
AcDbEntity
  8
YODOROGO
100
AcDbLine
 10
11186.10162798447
 20
715.4060611609828
 30
0.0
 11
11186.10162798447
 21
730.406061160983
 31
0.0
1001
AUTOCAD_POSTSCRIPT_FIGURE
1002
{
1000
PSFILL
1000
Grayscale
1000
Grayscale
1070
    25
1002
}
  0
LINE
  5
2C499
330
2C925
100
AcDbEntity
  8
YODOROGO
100
AcDbLine
 10
11186.10162798447
 20
682.4060611609829
 30
0.0
 11
11186.10162798447
 21
697.406061160983
 31
0.0
1001
AUTOCAD_POSTSCRIPT_FIGURE
1002
{
1000
PSFILL
1000
Grayscale
1000
Grayscale
1070
    25
1002
}
  0
LINE
  5
2C49A
330
2C925
100
AcDbEntity
  8
YODOROGO
100
AcDbLine
 10
11220.60162798447
 20
664.4060611609833
 30
0.0
 11
11220.60162798447
 21
640.4060611609828
 31
0.0
1001
AUTOCAD_POSTSCRIPT_FIGURE
1002
{
1000
PSFILL
1000
Grayscale
1000
Grayscale
1070
    25
1002
}
  0
LINE
  5
2C49B
330
2C925
100
AcDbEntity
  8
YODOROGO
100
AcDbLine
 10
11186.10162798447
 20
664.4060611609833
 30
0.0
 11
11220.60162798447
 21
664.4060611609833
 31
0.0
1001
AUTOCAD_POSTSCRIPT_FIGURE
1002
{
1000
PSFILL
1000
Grayscale
1000
Grayscale
1070
    25
1002
}
  0
LINE
  5
2C49C
330
2C925
100
AcDbEntity
  8
YODOROGO
100
AcDbLine
 10
11186.10162798447
 20
640.4060611609828
 30
0.0
 11
11186.10162798447
 21
664.4060611609833
 31
0.0
1001
AUTOCAD_POSTSCRIPT_FIGURE
1002
{
1000
PSFILL
1000
Grayscale
1000
Grayscale
1070
    25
1002
}
  0
LINE
  5
2C49D
330
2C925
100
AcDbEntity
  8
YODOROGO
100
AcDbLine
 10
11162.10162798447
 20
640.4060611609828
 30
0.0
 11
11186.10162798447
 21
640.4060611609828
 31
0.0
1001
AUTOCAD_POSTSCRIPT_FIGURE
1002
{
1000
PSFILL
1000
Grayscale
1000
Grayscale
1070
    25
1002
}
  0
LINE
  5
2C49E
330
2C925
100
AcDbEntity
  8
YODOROGO
100
AcDbLine
 10
11162.10162798447
 20
664.4060611609833
 30
0.0
 11
11162.10162798447
 21
640.4060611609828
 31
0.0
1001
AUTOCAD_POSTSCRIPT_FIGURE
1002
{
1000
PSFILL
1000
Grayscale
1000
Grayscale
1070
    25
1002
}
  0
LINE
  5
2C49F
330
2C925
100
AcDbEntity
  8
YODOROGO
100
AcDbLine
 10
11127.60162798447
 20
664.4060611609833
 30
0.0
 11
11162.10162798447
 21
664.4060611609833
 31
0.0
1001
AUTOCAD_POSTSCRIPT_FIGURE
1002
{
1000
PSFILL
1000
Grayscale
1000
Grayscale
1070
    25
1002
}
  0
ARC
  5
2C4A0
330
2C925
100
AcDbEntity
  8
YODOROGO
100
AcDbCircle
 10
11647.31921000922
 20
601.0052765683411
 30
0.0
 40
66.83298041652057
100
AcDbArc
 50
281.0262749542535
 51
357.771135755738
  0
LINE
  5
2C4A1
330
2C925
100
AcDbEntity
  8
YODOROGO
100
AcDbLine
 10
11780.10162798446
 20
715.4060611609828
 30
0.0
 11
11687.10162798447
 21
715.4060611609828
 31
0.0
  0
LINE
  5
2C4A2
330
2C925
100
AcDbEntity
  8
YODOROGO
100
AcDbLine
 10
11780.10162798446
 20
760.4060611609829
 30
0.0
 11
11687.10162798447
 21
760.4060611609829
 31
0.0
  0
LINE
  5
2C4A3
330
2C925
100
AcDbEntity
  8
YODOROGO
100
AcDbLine
 10
11687.10162798447
 20
736.4060611609826
 30
0.0
 11
11780.10162798446
 21
736.4060611609826
 31
0.0
  0
LINE
  5
2C4A4
330
2C925
100
AcDbEntity
  8
YODOROGO
100
AcDbLine
 10
11546.85162798447
 20
586.4060611609826
 30
0.0
 11
11546.85162798447
 21
658.4060611609827
 31
0.0
  0
LINE
  5
2C4A5
330
2C925
100
AcDbEntity
  8
YODOROGO
100
AcDbLine
 10
11536.35162798447
 20
634.4060611609833
 30
0.0
 11
11536.35162798447
 21
586.4060611609826
 31
0.0
  0
LINE
  5
2C4A6
330
2C925
100
AcDbEntity
  8
YODOROGO
100
AcDbLine
 10
11521.35162798447
 20
559.4060611609831
 30
0.0
 11
11521.35162798447
 21
634.4060611609833
 31
0.0
  0
LINE
  5
2C4A7
330
2C925
100
AcDbEntity
  8
YODOROGO
100
AcDbLine
 10
11587.35162798447
 20
634.4060611609833
 30
0.0
 11
11587.35162798447
 21
559.4060611609831
 31
0.0
  0
LINE
  5
2C4A8
330
2C925
100
AcDbEntity
  8
YODOROGO
100
AcDbLine
 10
11572.35162798446
 20
586.4060611609826
 30
0.0
 11
11572.35162798446
 21
634.4060611609833
 31
0.0
  0
LINE
  5
2C4A9
330
2C925
100
AcDbEntity
  8
YODOROGO
100
AcDbLine
 10
11561.85162798446
 20
658.4060611609827
 30
0.0
 11
11561.85162798446
 21
586.4060611609826
 31
0.0
  0
LINE
  5
2C4AA
330
2C925
100
AcDbEntity
  8
YODOROGO
100
AcDbLine
 10
11615.10162798446
 20
760.4060611609829
 30
0.0
 11
11615.10162798446
 21
550.4060611609828
 31
0.0
  0
LINE
  5
2C4AB
330
2C925
100
AcDbEntity
  8
YODOROGO
100
AcDbLine
 10
11492.10162798447
 20
535.4060611609829
 30
0.0
 11
11492.10162798447
 21
760.4060611609829
 31
0.0
  0
LINE
  5
2C4AC
330
2C925
100
AcDbEntity
  8
YODOROGO
100
AcDbLine
 10
11511.60162798447
 20
736.4060611609826
 30
0.0
 11
11511.60162798447
 21
535.4060611609829
 31
0.0
  0
LINE
  5
2C4AD
330
2C925
100
AcDbEntity
  8
YODOROGO
100
AcDbLine
 10
11597.10162798446
 20
580.406061160983
 30
0.0
 11
11597.10162798446
 21
736.4060611609826
 31
0.0
  0
LINE
  5
2C4AE
330
2C925
100
AcDbEntity
  8
YODOROGO
100
AcDbLine
 10
11393.10162798446
 20
610.4060611609829
 30
0.0
 11
11393.10162798446
 21
629.9060611609831
 31
0.0
  0
LINE
  5
2C4AF
330
2C925
100
AcDbEntity
  8
YODOROGO
100
AcDbLine
 10
11481.60162798447
 20
629.9060611609831
 30
0.0
 11
11481.60162798447
 21
610.4060611609829
 31
0.0
  0
LINE
  5
2C4B0
330
2C925
100
AcDbEntity
  8
YODOROGO
100
AcDbLine
 10
11687.10162798447
 20
715.4060611609828
 30
0.0
 11
11687.10162798447
 21
613.4060611609827
 31
0.0
  0
LINE
  5
2C4B1
330
2C925
100
AcDbEntity
  8
YODOROGO
100
AcDbLine
 10
11231.10162798446
 20
625.406061160983
 30
0.0
 11
11231.10162798446
 21
640.4060611609828
 31
0.0
  0
LINE
  5
2C4B2
330
2C925
100
AcDbEntity
  8
YODOROGO
100
AcDbLine
 10
11231.10162798446
 20
625.406061160983
 30
0.0
 11
11231.10162798446
 21
640.4060611609828
 31
0.0
  0
ARC
  5
2C4B3
330
2C925
100
AcDbEntity
  8
YODOROGO
100
AcDbCircle
 10
11451.60162798447
 20
565.4060611609828
 30
0.0
 40
30.0
100
AcDbArc
 50
270.0
 51
0.0
  0
LINE
  5
2C4B4
330
2C925
100
AcDbEntity
  8
YODOROGO
100
AcDbLine
 10
11463.60162798446
 20
599.9060611609831
 30
0.0
 11
11481.60162798447
 21
599.9060611609831
 31
0.0
  0
LINE
  5
2C4B5
330
2C925
100
AcDbEntity
  8
YODOROGO
100
AcDbLine
 10
11481.60162798447
 20
610.4060611609829
 30
0.0
 11
11448.60162798446
 21
610.4060611609829
 31
0.0
  0
LINE
  5
2C4B6
330
2C925
100
AcDbEntity
  8
YODOROGO
100
AcDbLine
 10
11331.60162798447
 20
625.406061160983
 30
0.0
 11
11231.10162798446
 21
625.406061160983
 31
0.0
  0
LINE
  5
2C4B7
330
2C925
100
AcDbEntity
  8
YODOROGO
100
AcDbLine
 10
11331.60162798447
 20
610.4060611609829
 30
0.0
 11
11331.60162798447
 21
625.406061160983
 31
0.0
  0
LINE
  5
2C4B8
330
2C925
100
AcDbEntity
  8
YODOROGO
100
AcDbLine
 10
11256.60162798447
 20
610.4060611609829
 30
0.0
 11
11331.60162798447
 21
610.4060611609829
 31
0.0
  0
ARC
  5
2C4B9
330
2C925
100
AcDbEntity
  8
YODOROGO
100
AcDbCircle
 10
11336.27206076301
 20
700.8321431073384
 30
0.0
 40
120.5166136069605
100
AcDbArc
 50
228.6181454618993
 51
245.660289248906
  0
LINE
  5
2C4BA
330
2C925
100
AcDbEntity
  8
YODOROGO
100
AcDbLine
 10
11289.60162798447
 20
601.4060611609833
 30
0.0
 11
11286.60162798448
 21
591.0273059512126
 31
0.0
  0
LINE
  5
2C4BB
330
2C925
100
AcDbEntity
  8
YODOROGO
100
AcDbLine
 10
11321.10162798447
 20
601.4060611609833
 30
0.0
 11
11289.60162798447
 21
601.4060611609833
 31
0.0
  0
LINE
  5
2C4BC
330
2C925
100
AcDbEntity
  8
YODOROGO
100
AcDbLine
 10
11316.60162798447
 20
581.9316459275352
 30
0.0
 11
11321.10162798447
 21
601.4060611609833
 31
0.0
  0
ARC
  5
2C4BD
330
2C925
100
AcDbEntity
  8
YODOROGO
100
AcDbCircle
 10
11336.27206076267
 20
700.8321431073759
 30
0.0
 40
120.516613606984
100
AcDbArc
 50
260.6062929796993
 51
267.7790355655585
  0
LINE
  5
2C4BE
330
2C925
100
AcDbEntity
  8
YODOROGO
100
AcDbLine
 10
11331.60162798447
 20
535.4060611609821
 30
0.0
 11
11331.60162798447
 21
580.406061160983
 31
0.0
  0
LINE
  5
2C4BF
330
2C925
100
AcDbEntity
  8
YODOROGO
100
AcDbLine
 10
11226.60162798446
 20
555.5022505933164
 30
0.0
 11
11226.60162798446
 21
597.949158949178
 31
0.0
  0
LINE
  5
2C4C0
330
2C925
100
AcDbEntity
  8
YODOROGO
100
AcDbLine
 10
11331.60162798447
 20
625.406061160983
 30
0.0
 11
11231.10162798446
 21
625.406061160983
 31
0.0
  0
LINE
  5
2C4C1
330
2C925
100
AcDbEntity
  8
YODOROGO
100
AcDbLine
 10
11331.60162798447
 20
610.4060611609829
 30
0.0
 11
11331.60162798447
 21
625.406061160983
 31
0.0
  0
LINE
  5
2C4C2
330
2C925
100
AcDbEntity
  8
YODOROGO
100
AcDbLine
 10
11256.60162798447
 20
610.4060611609829
 30
0.0
 11
11331.60162798447
 21
610.4060611609829
 31
0.0
  0
ARC
  5
2C4C3
330
2C925
100
AcDbEntity
  8
YODOROGO
100
AcDbCircle
 10
11336.27206076301
 20
700.8321431073384
 30
0.0
 40
120.5166136069605
100
AcDbArc
 50
228.6181454618993
 51
245.660289248906
  0
LINE
  5
2C4C4
330
2C925
100
AcDbEntity
  8
YODOROGO
100
AcDbLine
 10
11289.60162798447
 20
601.4060611609833
 30
0.0
 11
11286.60162798448
 21
591.0273059512126
 31
0.0
  0
LINE
  5
2C4C5
330
2C925
100
AcDbEntity
  8
YODOROGO
100
AcDbLine
 10
11321.10162798447
 20
601.4060611609833
 30
0.0
 11
11289.60162798447
 21
601.4060611609833
 31
0.0
  0
LINE
  5
2C4C6
330
2C925
100
AcDbEntity
  8
YODOROGO
100
AcDbLine
 10
11316.60162798447
 20
581.9316459275352
 30
0.0
 11
11321.10162798447
 21
601.4060611609833
 31
0.0
  0
ARC
  5
2C4C7
330
2C925
100
AcDbEntity
  8
YODOROGO
100
AcDbCircle
 10
11336.27206076267
 20
700.8321431073759
 30
0.0
 40
120.516613606984
100
AcDbArc
 50
260.6062929796993
 51
267.7790355655585
  0
LINE
  5
2C4C8
330
2C925
100
AcDbEntity
  8
YODOROGO
100
AcDbLine
 10
11331.60162798447
 20
535.4060611609821
 30
0.0
 11
11331.60162798447
 21
580.406061160983
 31
0.0
  0
LINE
  5
2C4C9
330
2C925
100
AcDbEntity
  8
YODOROGO
100
AcDbLine
 10
11226.60162798446
 20
555.5022505933164
 30
0.0
 11
11226.60162798446
 21
597.949158949178
 31
0.0
  0
LINE
  5
2C4CA
330
2C925
100
AcDbEntity
  8
YODOROGO
100
AcDbLine
 10
11412.60162798447
 20
590.1560611609832
 30
0.0
 11
11393.10162798446
 21
590.1560611609832
 31
0.0
  0
LINE
  5
2C4CB
330
2C925
100
AcDbEntity
  8
YODOROGO
100
AcDbLine
 10
11412.60162798447
 20
600.6560611609824
 30
0.0
 11
11412.60162798447
 21
590.1560611609832
 31
0.0
  0
LINE
  5
2C4CC
330
2C925
100
AcDbEntity
  8
YODOROGO
100
AcDbLine
 10
11393.10162798446
 20
600.6560611609824
 30
0.0
 11
11412.60162798447
 21
600.6560611609824
 31
0.0
  0
LINE
  5
2C4CD
330
2C925
100
AcDbEntity
  8
YODOROGO
100
AcDbLine
 10
11393.10162798446
 20
590.1560611609832
 30
0.0
 11
11393.10162798446
 21
600.6560611609824
 31
0.0
  0
LINE
  5
2C4CE
330
2C925
100
AcDbEntity
  8
YODOROGO
100
AcDbLine
 10
11411.10162798447
 20
591.6560611609829
 30
0.0
 11
11394.60162798447
 21
591.6560611609829
 31
0.0
  0
LINE
  5
2C4CF
330
2C925
100
AcDbEntity
  8
YODOROGO
100
AcDbLine
 10
11411.10162798447
 20
599.156061160983
 30
0.0
 11
11411.10162798447
 21
591.6560611609829
 31
0.0
  0
LINE
  5
2C4D0
330
2C925
100
AcDbEntity
  8
YODOROGO
100
AcDbLine
 10
11394.60162798447
 20
599.156061160983
 30
0.0
 11
11411.10162798447
 21
599.156061160983
 31
0.0
  0
LINE
  5
2C4D1
330
2C925
100
AcDbEntity
  8
YODOROGO
100
AcDbLine
 10
11394.60162798447
 20
591.6560611609829
 30
0.0
 11
11394.60162798447
 21
599.156061160983
 31
0.0
  0
LINE
  5
2C4D2
330
2C925
100
AcDbEntity
  8
YODOROGO
100
AcDbLine
 10
11409.60162798447
 20
593.1560611609824
 30
0.0
 11
11396.10162798446
 21
593.1560611609824
 31
0.0
  0
LINE
  5
2C4D3
330
2C925
100
AcDbEntity
  8
YODOROGO
100
AcDbLine
 10
11409.60162798447
 20
597.6560611609833
 30
0.0
 11
11409.60162798447
 21
593.1560611609824
 31
0.0
  0
LINE
  5
2C4D4
330
2C925
100
AcDbEntity
  8
YODOROGO
100
AcDbLine
 10
11396.10162798446
 20
597.6560611609833
 30
0.0
 11
11409.60162798447
 21
597.6560611609833
 31
0.0
  0
LINE
  5
2C4D5
330
2C925
100
AcDbEntity
  8
YODOROGO
100
AcDbLine
 10
11396.10162798446
 20
593.1560611609824
 30
0.0
 11
11396.10162798446
 21
597.6560611609833
 31
0.0
  0
LINE
  5
2C4D6
330
2C925
100
AcDbEntity
  8
YODOROGO
100
AcDbLine
 10
11408.10162798447
 20
594.6560611609827
 30
0.0
 11
11397.60162798447
 21
594.6560611609827
 31
0.0
  0
LINE
  5
2C4D7
330
2C925
100
AcDbEntity
  8
YODOROGO
100
AcDbLine
 10
11408.10162798447
 20
596.1560611609829
 30
0.0
 11
11408.10162798447
 21
594.6560611609827
 31
0.0
  0
LINE
  5
2C4D8
330
2C925
100
AcDbEntity
  8
YODOROGO
100
AcDbLine
 10
11397.60162798447
 20
596.1560611609829
 30
0.0
 11
11408.10162798447
 21
596.1560611609829
 31
0.0
  0
LINE
  5
2C4D9
330
2C925
100
AcDbEntity
  8
YODOROGO
100
AcDbLine
 10
11397.60162798447
 20
594.6560611609827
 30
0.0
 11
11397.60162798447
 21
596.1560611609829
 31
0.0
  0
LINE
  5
2C4DA
330
2C925
100
AcDbEntity
  8
YODOROGO
100
AcDbLine
 10
11424.60162798446
 20
610.4060611609829
 30
0.0
 11
11393.10162798446
 21
610.4060611609829
 31
0.0
  0
LINE
  5
2C4DB
330
2C925
100
AcDbEntity
  8
YODOROGO
100
AcDbLine
 10
11424.60162798446
 20
580.406061160983
 30
0.0
 11
11424.60162798446
 21
610.4060611609829
 31
0.0
  0
LINE
  5
2C4DC
330
2C925
100
AcDbEntity
  8
YODOROGO
100
AcDbLine
 10
11393.10162798446
 20
580.406061160983
 30
0.0
 11
11424.60162798446
 21
580.406061160983
 31
0.0
  0
LINE
  5
2C4DD
330
2C925
100
AcDbEntity
  8
YODOROGO
100
AcDbLine
 10
11393.10162798446
 20
535.4060611609829
 30
0.0
 11
11393.10162798446
 21
580.406061160983
 31
0.0
  0
LINE
  5
2C4DE
330
2C925
100
AcDbEntity
  8
YODOROGO
100
AcDbLine
 10
11451.60162798447
 20
535.4060611609829
 30
0.0
 11
11393.10162798446
 21
535.4060611609829
 31
0.0
  0
LINE
  5
2C4DF
330
2C925
100
AcDbEntity
  8
YODOROGO
100
AcDbLine
 10
11463.60162798446
 20
589.4060611609822
 30
0.0
 11
11463.60162798446
 21
599.9060611609831
 31
0.0
  0
ARC
  5
2C4E0
330
2C925
100
AcDbEntity
  8
YODOROGO
100
AcDbCircle
 10
11454.60162798446
 20
589.4060611609842
 30
0.0
 40
9.000000000001408
100
AcDbArc
 50
270.0
 51
359.9999999999877
  0
LINE
  5
2C4E1
330
2C925
100
AcDbEntity
  8
YODOROGO
100
AcDbLine
 10
11448.60162798446
 20
580.406061160983
 30
0.0
 11
11454.60162798446
 21
580.406061160983
 31
0.0
  0
LINE
  5
2C4E2
330
2C925
100
AcDbEntity
  8
YODOROGO
100
AcDbLine
 10
11448.60162798446
 20
610.4060611609829
 30
0.0
 11
11448.60162798446
 21
580.406061160983
 31
0.0
  0
LINE
  5
2C4E3
330
2C925
100
AcDbEntity
  8
YODOROGO
100
AcDbLine
 10
11587.35162798447
 20
580.406061160983
 30
0.0
 11
11597.10162798446
 21
580.406061160983
 31
0.0
  0
LINE
  5
2C4E4
330
2C925
100
AcDbEntity
  8
YODOROGO
100
AcDbLine
 10
11600.10162798446
 20
535.4060611609829
 30
0.0
 11
11587.35162798447
 21
535.4060611609829
 31
0.0
  0
LINE
  5
2C4E5
330
2C925
100
AcDbEntity
  8
YODOROGO
100
AcDbLine
 10
11536.35162798447
 20
586.4060611609826
 30
0.0
 11
11546.85162798447
 21
586.4060611609826
 31
0.0
  0
LINE
  5
2C4E6
330
2C925
100
AcDbEntity
  8
YODOROGO
100
AcDbLine
 10
11587.35162798447
 20
559.4060611609831
 30
0.0
 11
11521.35162798447
 21
559.4060611609831
 31
0.0
  0
LINE
  5
2C4E7
330
2C925
100
AcDbEntity
  8
YODOROGO
100
AcDbLine
 10
11561.85162798446
 20
586.4060611609826
 30
0.0
 11
11572.35162798446
 21
586.4060611609826
 31
0.0
  0
LINE
  5
2C4E8
330
2C925
100
AcDbEntity
  8
YODOROGO
100
AcDbLine
 10
11587.35162798447
 20
535.4060611609829
 30
0.0
 11
11587.35162798447
 21
580.406061160983
 31
0.0
  0
LINE
  5
2C4E9
330
2C925
100
AcDbEntity
  8
YODOROGO
100
AcDbLine
 10
11511.60162798447
 20
535.4060611609829
 30
0.0
 11
11492.10162798447
 21
535.4060611609829
 31
0.0
  0
LINE
  5
2C4EA
330
2C925
100
AcDbEntity
  8
YODOROGO
100
AcDbLine
 10
11481.60162798447
 20
599.9060611609831
 30
0.0
 11
11481.60162798447
 21
565.4060611609828
 31
0.0
  0
ARC
  5
2C4EB
330
2C925
100
AcDbEntity
  8
YODOROGO
100
AcDbCircle
 10
11600.10162798446
 20
550.4060611609828
 30
0.0
 40
15.0
100
AcDbArc
 50
270.0
 51
0.0
  0
LINE
  5
2C4EC
330
2C925
100
AcDbEntity
  8
YODOROGO
100
AcDbLine
 10
11660.10162798446
 20
571.4060611609826
 30
0.0
 11
11660.10162798446
 21
535.4060611609829
 31
0.0
  0
ARC
  5
2C4ED
330
2C925
100
AcDbEntity
  8
YODOROGO
100
AcDbCircle
 10
11639.89552333754
 20
614.0742712911499
 30
0.0
 40
47.21083372187828
100
AcDbArc
 50
295.3405244216011
 51
359.1890230341867
  0
LINE
  5
2C4EE
330
2C925
100
AcDbEntity
  8
YODOROGO
100
AcDbLine
 10
11481.60162798447
 20
697.406061160983
 30
0.0
 11
11436.60162798447
 21
727.4060611609829
 31
0.0
  0
LINE
  5
2C4EF
330
2C925
100
AcDbEntity
  8
YODOROGO
100
AcDbLine
 10
11436.60162798447
 20
760.4060611609829
 30
0.0
 11
11481.60162798447
 21
730.406061160983
 31
0.0
  0
LINE
  5
2C4F0
330
2C925
100
AcDbEntity
  8
YODOROGO
100
AcDbLine
 10
11448.60162798446
 20
629.9060611609831
 30
0.0
 11
11481.60162798447
 21
629.9060611609831
 31
0.0
  0
LINE
  5
2C4F1
330
2C925
100
AcDbEntity
  8
YODOROGO
100
AcDbLine
 10
11481.60162798447
 20
650.9060611609827
 30
0.0
 11
11448.60162798446
 21
650.9060611609827
 31
0.0
  0
LINE
  5
2C4F2
330
2C925
100
AcDbEntity
  8
YODOROGO
100
AcDbLine
 10
11393.10162798446
 20
673.4060611609827
 30
0.0
 11
11481.60162798447
 21
673.4060611609827
 31
0.0
  0
LINE
  5
2C4F3
330
2C925
100
AcDbEntity
  8
YODOROGO
100
AcDbLine
 10
11280.60162798447
 20
760.4060611609829
 30
0.0
 11
11258.10162798447
 21
760.4060611609829
 31
0.0
  0
LINE
  5
2C4F4
330
2C925
100
AcDbEntity
  8
YODOROGO
100
AcDbLine
 10
11280.60162798447
 20
685.4060611609829
 30
0.0
 11
11280.60162798447
 21
760.4060611609829
 31
0.0
  0
LINE
  5
2C4F5
330
2C925
100
AcDbEntity
  8
YODOROGO
100
AcDbLine
 10
11258.10162798447
 20
685.4060611609829
 30
0.0
 11
11280.60162798447
 21
685.4060611609829
 31
0.0
  0
LINE
  5
2C4F6
330
2C925
100
AcDbEntity
  8
YODOROGO
100
AcDbLine
 10
11258.10162798447
 20
760.4060611609829
 30
0.0
 11
11258.10162798447
 21
685.4060611609829
 31
0.0
  0
LINE
  5
2C4F7
330
2C925
100
AcDbEntity
  8
YODOROGO
100
AcDbLine
 10
11310.60162798447
 20
760.4060611609829
 30
0.0
 11
11331.60162798447
 21
760.4060611609829
 31
0.0
  0
LINE
  5
2C4F8
330
2C925
100
AcDbEntity
  8
YODOROGO
100
AcDbLine
 10
11310.60162798447
 20
679.4060611609832
 30
0.0
 11
11310.60162798447
 21
760.4060611609829
 31
0.0
  0
ARC
  5
2C4F9
330
2C925
100
AcDbEntity
  8
YODOROGO
100
AcDbCircle
 10
11295.60162798447
 20
679.4060611609832
 30
0.0
 40
15.0
100
AcDbArc
 50
270.0
 51
0.0
  0
LINE
  5
2C4FA
330
2C925
100
AcDbEntity
  8
YODOROGO
100
AcDbLine
 10
11258.10162798447
 20
664.4060611609833
 30
0.0
 11
11295.60162798447
 21
664.4060611609833
 31
0.0
  0
LINE
  5
2C4FB
330
2C925
100
AcDbEntity
  8
YODOROGO
100
AcDbLine
 10
11258.10162798447
 20
640.4060611609828
 30
0.0
 11
11258.10162798447
 21
664.4060611609833
 31
0.0
  0
LINE
  5
2C4FC
330
2C925
100
AcDbEntity
  8
YODOROGO
100
AcDbLine
 10
11301.60162798446
 20
640.4060611609828
 30
0.0
 11
11258.10162798447
 21
640.4060611609828
 31
0.0
  0
ARC
  5
2C4FD
330
2C925
100
AcDbEntity
  8
YODOROGO
100
AcDbCircle
 10
11301.60162798446
 20
670.4060611609828
 30
0.0
 40
30.0
100
AcDbArc
 50
270.0
 51
0.0
  0
LINE
  5
2C4FE
330
2C925
100
AcDbEntity
  8
YODOROGO
100
AcDbLine
 10
11331.60162798447
 20
760.4060611609829
 30
0.0
 11
11331.60162798447
 21
670.4060611609828
 31
0.0
  0
LINE
  5
2C4FF
330
2C925
100
AcDbEntity
  8
YODOROGO
100
AcDbLine
 10
11241.60162798446
 20
730.406061160983
 30
0.0
 11
11241.60162798446
 21
748.4060611609828
 31
0.0
1001
AUTOCAD_POSTSCRIPT_FIGURE
1002
{
1000
PSFILL
1000
Grayscale
1000
Grayscale
1070
    25
1002
}
  0
LINE
  5
2C500
330
2C925
100
AcDbEntity
  8
YODOROGO
100
AcDbLine
 10
11241.60162798446
 20
697.406061160983
 30
0.0
 11
11241.60162798446
 21
715.4060611609828
 31
0.0
1001
AUTOCAD_POSTSCRIPT_FIGURE
1002
{
1000
PSFILL
1000
Grayscale
1000
Grayscale
1070
    25
1002
}
  0
LINE
  5
2C501
330
2C925
100
AcDbEntity
  8
YODOROGO
100
AcDbLine
 10
11241.60162798446
 20
640.4060611609828
 30
0.0
 11
11241.60162798446
 21
682.4060611609829
 31
0.0
1001
AUTOCAD_POSTSCRIPT_FIGURE
1002
{
1000
PSFILL
1000
Grayscale
1000
Grayscale
1070
    25
1002
}
  0
LINE
  5
2C502
330
2C925
100
AcDbEntity
  8
YODOROGO
100
AcDbLine
 10
11393.10162798446
 20
715.4060611609828
 30
0.0
 11
11436.60162798447
 21
760.4060611609829
 31
0.0
  0
LINE
  5
2C503
330
2C925
100
AcDbEntity
  8
YODOROGO
100
AcDbLine
 10
11393.10162798446
 20
682.4060611609829
 30
0.0
 11
11393.10162798446
 21
715.4060611609828
 31
0.0
  0
LINE
  5
2C504
330
2C925
100
AcDbEntity
  8
YODOROGO
100
AcDbLine
 10
11436.60162798447
 20
727.4060611609829
 30
0.0
 11
11393.10162798446
 21
682.4060611609829
 31
0.0
  0
LINE
  5
2C505
330
2C925
100
AcDbEntity
  8
YODOROGO
100
AcDbLine
 10
11424.60162798446
 20
629.9060611609831
 30
0.0
 11
11424.60162798446
 21
650.9060611609827
 31
0.0
  0
LINE
  5
2C506
330
2C925
100
AcDbEntity
  8
YODOROGO
100
AcDbLine
 10
11393.10162798446
 20
629.9060611609831
 30
0.0
 11
11424.60162798446
 21
629.9060611609831
 31
0.0
  0
LINE
  5
2C507
330
2C925
100
AcDbEntity
  8
YODOROGO
100
AcDbLine
 10
11448.60162798446
 20
650.9060611609827
 30
0.0
 11
11448.60162798446
 21
629.9060611609831
 31
0.0
  0
LINE
  5
2C508
330
2C925
100
AcDbEntity
  8
YODOROGO
100
AcDbLine
 10
11393.10162798446
 20
650.9060611609827
 30
0.0
 11
11393.10162798446
 21
673.4060611609827
 31
0.0
  0
LINE
  5
2C509
330
2C925
100
AcDbEntity
  8
YODOROGO
100
AcDbLine
 10
11424.60162798446
 20
650.9060611609827
 30
0.0
 11
11393.10162798446
 21
650.9060611609827
 31
0.0
  0
LINE
  5
2C50A
330
2C925
100
AcDbEntity
  8
YODOROGO
100
AcDbLine
 10
11492.10162798447
 20
760.4060611609829
 30
0.0
 11
11615.10162798446
 21
760.4060611609829
 31
0.0
  0
LINE
  5
2C50B
330
2C925
100
AcDbEntity
  8
YODOROGO
100
AcDbLine
 10
11597.10162798446
 20
736.4060611609826
 30
0.0
 11
11511.60162798447
 21
736.4060611609826
 31
0.0
  0
LINE
  5
2C50C
330
2C925
100
AcDbEntity
  8
YODOROGO
100
AcDbLine
 10
11577.60162798447
 20
682.4060611609829
 30
0.0
 11
11587.35162798447
 21
682.4060611609829
 31
0.0
  0
LINE
  5
2C50D
330
2C925
100
AcDbEntity
  8
YODOROGO
100
AcDbLine
 10
11587.35162798447
 20
727.4060611609829
 30
0.0
 11
11577.60162798447
 21
682.4060611609829
 31
0.0
  0
LINE
  5
2C50E
330
2C925
100
AcDbEntity
  8
YODOROGO
100
AcDbLine
 10
11569.35162798446
 20
727.4060611609829
 30
0.0
 11
11587.35162798447
 21
727.4060611609829
 31
0.0
  0
LINE
  5
2C50F
330
2C925
100
AcDbEntity
  8
YODOROGO
100
AcDbLine
 10
11559.60162798447
 20
682.4060611609829
 30
0.0
 11
11569.35162798446
 21
727.4060611609829
 31
0.0
  0
LINE
  5
2C510
330
2C925
100
AcDbEntity
  8
YODOROGO
100
AcDbLine
 10
11549.10162798447
 20
682.4060611609829
 30
0.0
 11
11559.60162798447
 21
682.4060611609829
 31
0.0
  0
LINE
  5
2C511
330
2C925
100
AcDbEntity
  8
YODOROGO
100
AcDbLine
 10
11539.35162798447
 20
727.4060611609829
 30
0.0
 11
11549.10162798447
 21
682.4060611609829
 31
0.0
  0
LINE
  5
2C512
330
2C925
100
AcDbEntity
  8
YODOROGO
100
AcDbLine
 10
11521.35162798447
 20
727.4060611609829
 30
0.0
 11
11539.35162798447
 21
727.4060611609829
 31
0.0
  0
LINE
  5
2C513
330
2C925
100
AcDbEntity
  8
YODOROGO
100
AcDbLine
 10
11531.10162798447
 20
682.4060611609829
 30
0.0
 11
11521.35162798447
 21
727.4060611609829
 31
0.0
  0
LINE
  5
2C514
330
2C925
100
AcDbEntity
  8
YODOROGO
100
AcDbLine
 10
11521.35162798447
 20
682.4060611609829
 30
0.0
 11
11531.10162798447
 21
682.4060611609829
 31
0.0
  0
LINE
  5
2C515
330
2C925
100
AcDbEntity
  8
YODOROGO
100
AcDbLine
 10
11521.35162798447
 20
658.4060611609827
 30
0.0
 11
11521.35162798447
 21
682.4060611609829
 31
0.0
  0
LINE
  5
2C516
330
2C925
100
AcDbEntity
  8
YODOROGO
100
AcDbLine
 10
11587.35162798447
 20
658.4060611609827
 30
0.0
 11
11521.35162798447
 21
658.4060611609827
 31
0.0
  0
LINE
  5
2C517
330
2C925
100
AcDbEntity
  8
YODOROGO
100
AcDbLine
 10
11587.35162798447
 20
682.4060611609829
 30
0.0
 11
11587.35162798447
 21
658.4060611609827
 31
0.0
  0
LINE
  5
2C518
330
2C925
100
AcDbEntity
  8
YODOROGO
100
AcDbLine
 10
11481.60162798447
 20
730.406061160983
 30
0.0
 11
11481.60162798447
 21
697.406061160983
 31
0.0
  0
LINE
  5
2C519
330
2C925
100
AcDbEntity
  8
YODOROGO
100
AcDbLine
 10
11546.85162798447
 20
658.4060611609827
 30
0.0
 11
11561.85162798446
 21
658.4060611609827
 31
0.0
  0
LINE
  5
2C51A
330
2C925
100
AcDbEntity
  8
YODOROGO
100
AcDbLine
 10
11521.35162798447
 20
634.4060611609833
 30
0.0
 11
11536.35162798447
 21
634.4060611609833
 31
0.0
  0
LINE
  5
2C51B
330
2C925
100
AcDbEntity
  8
YODOROGO
100
AcDbLine
 10
11572.35162798446
 20
634.4060611609833
 30
0.0
 11
11587.35162798447
 21
634.4060611609833
 31
0.0
  0
LINE
  5
2C51C
330
2C925
100
AcDbEntity
  8
YODOROGO
100
AcDbLine
 10
11481.60162798447
 20
673.4060611609827
 30
0.0
 11
11481.60162798447
 21
650.9060611609827
 31
0.0
  0
LINE
  5
2C51D
330
2C925
100
AcDbEntity
  8
YODOROGO
100
AcDbLine
 10
11687.10162798447
 20
760.4060611609829
 30
0.0
 11
11687.10162798447
 21
736.4060611609826
 31
0.0
  0
LINE
  5
2C51E
330
2C925
100
AcDbEntity
  8
YODOROGO
100
AcDbLine
 10
11825.10162798447
 20
598.4060611609827
 30
0.0
 11
11825.10162798446
 21
679.4060611609832
 31
0.0
  0
LINE
  5
2C51F
330
2C925
100
AcDbEntity
  8
YODOROGO
100
AcDbLine
 10
11798.10162798446
 20
745.4060611609828
 30
0.0
 11
11798.10162798446
 21
613.4060611609827
 31
0.0
  0
LINE
  5
2C520
330
2C925
100
AcDbEntity
  8
YODOROGO
100
AcDbLine
 10
11870.10162798447
 20
535.4060611609829
 30
0.0
 11
11870.10162798446
 21
679.4060611609832
 31
0.0
  0
LINE
  5
2C521
330
2C925
100
AcDbEntity
  8
YODOROGO
100
AcDbLine
 10
11846.10162798447
 20
679.4060611609832
 30
0.0
 11
11846.10162798447
 21
535.4060611609829
 31
0.0
  0
LINE
  5
2C522
330
2C925
100
AcDbEntity
  8
YODOROGO
100
AcDbLine
 10
11714.10162798447
 20
598.4060611609827
 30
0.0
 11
11714.10162798447
 21
640.4060611609828
 31
0.0
  0
ARC
  5
2C523
330
2C925
100
AcDbEntity
  8
YODOROGO
100
AcDbCircle
 10
11757.71807441852
 20
602.921381733209
 30
0.0
 40
67.53466821599572
100
AcDbArc
 50
268.6284910216979
 51
356.1663845733032
  0
LINE
  5
2C524
330
2C925
100
AcDbEntity
  8
YODOROGO
100
AcDbLine
 10
11756.10162798446
 20
572.9060611609829
 30
0.0
 11
11756.10162798446
 21
535.4060611609829
 31
0.0
  0
ARC
  5
2C525
330
2C925
100
AcDbEntity
  8
YODOROGO
100
AcDbCircle
 10
11756.81927839671
 20
614.1896088816206
 30
0.0
 40
41.28978486885457
100
AcDbArc
 50
269.0041020930593
 51
358.9126445549248
  0
LINE
  5
2C526
330
2C925
100
AcDbEntity
  8
YODOROGO
100
AcDbLine
 10
11846.10162798447
 20
535.4060611609829
 30
0.0
 11
11870.10162798447
 21
535.4060611609829
 31
0.0
  0
LINE
  5
2C527
330
2C925
100
AcDbEntity
  8
YODOROGO
100
AcDbLine
 10
11825.10162798446
 20
679.4060611609832
 30
0.0
 11
11846.10162798447
 21
679.4060611609832
 31
0.0
  0
LINE
  5
2C528
330
2C925
100
AcDbEntity
  8
YODOROGO
100
AcDbLine
 10
11858.10162798446
 20
745.4060611609828
 30
0.0
 11
11798.10162798446
 21
745.4060611609828
 31
0.0
  0
LINE
  5
2C529
330
2C925
100
AcDbEntity
  8
YODOROGO
100
AcDbLine
 10
11825.10162798446
 20
718.4060611609829
 30
0.0
 11
11873.10162798447
 21
718.4060611609829
 31
0.0
  0
LINE
  5
2C52A
330
2C925
100
AcDbEntity
  8
YODOROGO
100
AcDbLine
 10
11888.10162798447
 20
703.4060611609828
 30
0.0
 11
11825.10162798446
 21
703.4060611609828
 31
0.0
  0
LINE
  5
2C52B
330
2C925
100
AcDbEntity
  8
YODOROGO
100
AcDbLine
 10
11714.10162798447
 20
667.4060611609831
 30
0.0
 11
11756.10162798446
 21
667.4060611609831
 31
0.0
  0
LINE
  5
2C52C
330
2C925
100
AcDbEntity
  8
YODOROGO
100
AcDbLine
 10
11714.10162798447
 20
688.4060611609828
 30
0.0
 11
11714.10162798447
 21
667.4060611609831
 31
0.0
  0
LINE
  5
2C52D
330
2C925
100
AcDbEntity
  8
YODOROGO
100
AcDbLine
 10
11756.10162798446
 20
688.4060611609828
 30
0.0
 11
11714.10162798447
 21
688.4060611609828
 31
0.0
  0
LINE
  5
2C52E
330
2C925
100
AcDbEntity
  8
YODOROGO
100
AcDbLine
 10
11756.10162798446
 20
667.4060611609831
 30
0.0
 11
11756.10162798446
 21
688.4060611609828
 31
0.0
  0
LINE
  5
2C52F
330
2C925
100
AcDbEntity
  8
YODOROGO
100
AcDbLine
 10
11825.10162798446
 20
703.4060611609828
 30
0.0
 11
11825.10162798446
 21
718.4060611609829
 31
0.0
  0
LINE
  5
2C530
330
2C925
100
AcDbEntity
  8
YODOROGO
100
AcDbLine
 10
11780.10162798446
 20
640.4060611609828
 30
0.0
 11
11780.10162798446
 21
715.4060611609828
 31
0.0
  0
LINE
  5
2C531
330
2C925
100
AcDbEntity
  8
YODOROGO
100
AcDbLine
 10
11714.10162798447
 20
640.4060611609828
 30
0.0
 11
11780.10162798446
 21
640.4060611609828
 31
0.0
  0
LINE
  5
2C532
330
2C925
100
AcDbEntity
  8
YODOROGO
100
AcDbLine
 10
11780.10162798446
 20
736.4060611609826
 30
0.0
 11
11780.10162798446
 21
760.4060611609829
 31
0.0
  0
ARC
  5
2C533
330
2C925
100
AcDbEntity
  8
YODOROGO
100
AcDbCircle
 10
11858.10162798446
 20
751.4060611609817
 30
0.0
 40
5.999999999997951
100
AcDbArc
 50
270.0
 51
0.0000000000081422
  0
LINE
  5
2C534
330
2C925
100
AcDbEntity
  8
YODOROGO
100
AcDbLine
 10
11864.10162798447
 20
760.4060611609829
 30
0.0
 11
11864.10162798447
 21
751.4060611609826
 31
0.0
  0
LINE
  5
2C535
330
2C925
100
AcDbEntity
  8
YODOROGO
100
AcDbLine
 10
11888.10162798447
 20
760.4060611609829
 30
0.0
 11
11864.10162798447
 21
760.4060611609829
 31
0.0
  0
LINE
  5
2C536
330
2C925
100
AcDbEntity
  8
YODOROGO
100
AcDbLine
 10
11888.10162798447
 20
733.4060611609828
 30
0.0
 11
11888.10162798447
 21
760.4060611609829
 31
0.0
  0
ARC
  5
2C537
330
2C925
100
AcDbEntity
  8
YODOROGO
100
AcDbCircle
 10
11873.10162798447
 20
733.4060611609828
 30
0.0
 40
15.0
100
AcDbArc
 50
270.0
 51
0.0
  0
LINE
  5
2C538
330
2C925
100
AcDbEntity
  8
YODOROGO
100
AcDbLine
 10
11888.10162798447
 20
679.4060611609832
 30
0.0
 11
11888.10162798447
 21
703.4060611609828
 31
0.0
  0
LINE
  5
2C539
330
2C925
100
AcDbEntity
  8
YODOROGO
100
AcDbLine
 10
11870.10162798446
 20
679.4060611609832
 30
0.0
 11
11888.10162798447
 21
679.4060611609832
 31
0.0
  0
LINE
  5
2C53A
330
2C925
100
AcDbEntity
  8
SUNPOU
100
AcDbLine
 10
1741.306080631058
 20
2170.744622954003
 30
0.0
 11
1741.306080631058
 21
2725.744622954003
 31
0.0
  0
LINE
  5
2C53B
330
2C925
100
AcDbEntity
  8
SUNPOU
100
AcDbLine
 10
2221.306080631058
 20
2170.744622954003
 30
0.0
 11
2221.306080631058
 21
2725.744622954003
 31
0.0
  0
LINE
  5
2C53C
330
2C925
100
AcDbEntity
  8
SUNPOU
100
AcDbLine
 10
1756.306080631058
 20
2680.744622954003
 30
0.0
 11
2206.306080631059
 21
2680.744622954003
 31
0.0
  0
LINE
  5
2C540
330
2C925
100
AcDbEntity
  8
SUNPOU
100
AcDbLine
 10
6215.055546028491
 20
1505.744622954002
 30
0.0
 11
6815.055546028489
 21
1505.744622954002
 31
0.0
  0
LINE
  5
2C541
330
2C925
100
AcDbEntity
  8
SUNPOU
100
AcDbLine
 10
6215.055546028491
 20
2255.744622954003
 30
0.0
 11
6815.05554602849
 21
2255.744622954003
 31
0.0
  0
LINE
  5
2C542
330
2C925
100
AcDbEntity
  8
SUNPOU
100
AcDbLine
 10
6770.055546028491
 20
1520.744622954002
 30
0.0
 11
6770.055546028491
 21
2240.744622954002
 31
0.0
  0
LINE
  5
2C546
330
2C925
100
AcDbEntity
  8
SUNPOU
100
AcDbLine
 10
6080.05554602849
 20
1640.744622954002
 30
0.0
 11
6605.055546028491
 21
1640.744622954002
 31
0.0
  0
LINE
  5
2C547
330
2C925
100
AcDbEntity
  8
SUNPOU
100
AcDbLine
 10
6080.05554602849
 20
2120.744622954002
 30
0.0
 11
6605.055546028491
 21
2120.744622954002
 31
0.0
  0
LINE
  5
2C548
330
2C925
100
AcDbEntity
  8
SUNPOU
100
AcDbLine
 10
6560.055546028491
 20
1655.744622954002
 30
0.0
 11
6560.055546028491
 21
2105.744622954002
 31
0.0
  0
LINE
  5
2C54C
330
2C925
100
AcDbEntity
  8
SUNPOU
100
AcDbLine
 10
5570.05554602849
 20
1610.744622954003
 30
0.0
 11
5570.05554602849
 21
1035.744622954003
 31
0.0
  0
LINE
  5
2C54D
330
2C925
100
AcDbEntity
  8
SUNPOU
100
AcDbLine
 10
6050.055546028492
 20
1610.744622954003
 30
0.0
 11
6050.055546028492
 21
1035.744622954003
 31
0.0
  0
LINE
  5
2C54E
330
2C925
100
AcDbEntity
  8
SUNPOU
100
AcDbLine
 10
5585.055546028492
 20
1080.744622954002
 30
0.0
 11
6035.055546028491
 21
1080.744622954002
 31
0.0
  0
LINE
  5
2C552
330
2C925
100
AcDbEntity
  8
SUNPOU
100
AcDbLine
 10
5435.055546028491
 20
1475.744622954002
 30
0.0
 11
5435.055546028491
 21
825.7446229540033
 31
0.0
  0
LINE
  5
2C553
330
2C925
100
AcDbEntity
  8
SUNPOU
100
AcDbLine
 10
6185.055546028491
 20
1475.744622954002
 30
0.0
 11
6185.055546028491
 21
825.7446229540033
 31
0.0
  0
LINE
  5
2C554
330
2C925
100
AcDbEntity
  8
SUNPOU
100
AcDbLine
 10
5450.05554602849
 20
870.7446229540032
 30
0.0
 11
6170.05554602849
 21
870.7446229540032
 31
0.0
  0
LINE
  5
2C558
330
2C925
100
AcDbEntity
  8
SUNPOU
100
AcDbLine
 10
2436.306080631059
 20
1510.744622954003
 30
0.0
 11
2990.856080631056
 21
1510.744622954002
 31
0.0
  0
LINE
  5
2C559
330
2C925
100
AcDbEntity
  8
SUNPOU
100
AcDbLine
 10
2436.306080631059
 20
1460.744622954003
 30
0.0
 11
2990.856080631056
 21
1460.744622954002
 31
0.0
  0
LINE
  5
2C55A
330
2C925
100
AcDbEntity
  8
SUNPOU
100
AcDbLine
 10
2945.856080631056
 20
1525.744622954002
 30
0.0
 11
2945.856080631056
 21
1540.744622954002
 31
0.0
  0
LINE
  5
2C55B
330
2C925
100
AcDbEntity
  8
SUNPOU
100
AcDbLine
 10
2945.856080631056
 20
1445.744622954002
 30
0.0
 11
2945.856080631056
 21
1430.744622954003
 31
0.0
  0
LINE
  5
2C55D
330
2C925
100
AcDbEntity
  8
SUNPOU
100
AcDbLine
 10
2945.856080631056
 20
1510.744622954002
 30
0.0
 11
2945.856080631056
 21
1460.744622954002
 31
0.0
  0
LINE
  5
2C560
330
2C925
100
AcDbEntity
  8
SUNPOU
100
AcDbLine
 10
2436.306080631059
 20
1460.744622954003
 30
0.0
 11
2990.856080631056
 21
1460.744622954002
 31
0.0
  0
LINE
  5
2C561
330
2C925
100
AcDbEntity
  8
SUNPOU
100
AcDbLine
 10
2436.306080631059
 20
1360.744622954004
 30
0.0
 11
2990.856080631056
 21
1360.744622954003
 31
0.0
  0
LINE
  5
2C562
330
2C925
100
AcDbEntity
  8
SUNPOU
100
AcDbLine
 10
2945.856080631056
 20
1475.744622954002
 30
0.0
 11
2945.856080631056
 21
1490.744622954002
 31
0.0
  0
LINE
  5
2C563
330
2C925
100
AcDbEntity
  8
SUNPOU
100
AcDbLine
 10
2945.856080631056
 20
1345.744622954003
 30
0.0
 11
2945.856080631056
 21
1330.744622954003
 31
0.0
  0
LINE
  5
2C565
330
2C925
100
AcDbEntity
  8
SUNPOU
100
AcDbLine
 10
2945.856080631056
 20
1460.744622954002
 30
0.0
 11
2945.856080631056
 21
1360.744622954003
 31
0.0
  0
LINE
  5
2C568
330
2C925
100
AcDbEntity
  8
SUNPOU
100
AcDbLine
 10
2754.092880111838
 20
1990.744622954002
 30
0.0
 11
2990.856080631056
 21
1990.744622954002
 31
0.0
  0
LINE
  5
2C569
330
2C925
100
AcDbEntity
  8
SUNPOU
100
AcDbLine
 10
2436.306080631059
 20
1510.744622954003
 30
0.0
 11
2990.856080631056
 21
1510.744622954002
 31
0.0
  0
LINE
  5
2C56A
330
2C925
100
AcDbEntity
  8
SUNPOU
100
AcDbLine
 10
2945.856080631056
 20
1975.744622954002
 30
0.0
 11
2945.856080631056
 21
1525.744622954002
 31
0.0
  0
LINE
  5
2C56E
330
2C925
100
AcDbEntity
  8
SUNPOU
100
AcDbLine
 10
2754.092880111838
 20
1990.744622954002
 30
0.0
 11
2990.856080631056
 21
1990.744622954002
 31
0.0
  0
LINE
  5
2C56F
330
2C925
100
AcDbEntity
  8
SUNPOU
100
AcDbLine
 10
2754.092880111838
 20
2140.744622954005
 30
0.0
 11
2990.856080631056
 21
2140.744622954005
 31
0.0
  0
LINE
  5
2C570
330
2C925
100
AcDbEntity
  8
SUNPOU
100
AcDbLine
 10
2945.856080631056
 20
2005.744622954003
 30
0.0
 11
2945.856080631056
 21
2125.744622954005
 31
0.0
  0
LINE
  5
2C571
330
2C925
100
AcDbEntity
  8
SUNPOU
100
AcDbLine
 10
2945.856080631056
 20
2140.744622954005
 30
0.0
 11
2945.856080631056
 21
2391.45890866829
 31
0.0
  0
LINE
  5
2C575
330
2C925
100
AcDbEntity
  8
SUNPOU
100
AcDbLine
 10
1606.306080631058
 20
1330.744622954003
 30
0.0
 11
1606.306080631058
 21
825.7446229540033
 31
0.0
  0
LINE
  5
2C576
330
2C925
100
AcDbEntity
  8
SUNPOU
100
AcDbLine
 10
2356.306080631059
 20
1330.744622954003
 30
0.0
 11
2356.306080631059
 21
825.7446229540033
 31
0.0
  0
LINE
  5
2C577
330
2C925
100
AcDbEntity
  8
SUNPOU
100
AcDbLine
 10
1621.306080631059
 20
870.7446229540032
 30
0.0
 11
2341.306080631059
 21
870.7446229540032
 31
0.0
  0
LINE
  5
2C57B
330
2C925
100
AcDbEntity
  8
SUNPOU
100
AcDbLine
 10
2356.306080631059
 20
1330.744622954003
 30
0.0
 11
2356.306080631059
 21
1035.744622954003
 31
0.0
  0
LINE
  5
2C57C
330
2C925
100
AcDbEntity
  8
SUNPOU
100
AcDbLine
 10
1981.306080631058
 20
1110.744622954003
 30
0.0
 11
1981.306080631058
 21
1125.744622954003
 31
0.0
  0
LINE
  5
2C57D
330
2C925
100
AcDbEntity
  8
SUNPOU
100
AcDbLine
 10
2341.306080631059
 20
1080.744622954002
 30
0.0
 11
1996.306080631059
 21
1080.744622954002
 31
0.0
  0
LINE
  5
2C581
330
2C925
100
AcDbEntity
  8
SUNPOU
100
AcDbLine
 10
1606.306080631058
 20
1330.744622954003
 30
0.0
 11
1606.306080631058
 21
1035.744622954003
 31
0.0
  0
LINE
  5
2C582
330
2C925
100
AcDbEntity
  8
SUNPOU
100
AcDbLine
 10
1981.306080631058
 20
1110.744622954003
 30
0.0
 11
1981.306080631058
 21
1125.744622954003
 31
0.0
  0
LINE
  5
2C583
330
2C925
100
AcDbEntity
  8
SUNPOU
100
AcDbLine
 10
1621.306080631059
 20
1080.744622954002
 30
0.0
 11
1966.306080631057
 21
1080.744622954002
 31
0.0
  0
LINE
  5
2C587
330
2C925
100
AcDbEntity
  8
SUNPOU
100
AcDbLine
 10
7614.143929657195
 20
6798.464770760367
 30
0.0
 11
8199.143929657191
 21
6798.464770760367
 31
0.0
  0
LINE
  5
2C588
330
2C925
100
AcDbEntity
  8
SUNPOU
100
AcDbLine
 10
7614.143929657195
 20
6998.464770760364
 30
0.0
 11
8199.143929657191
 21
6998.464770760364
 31
0.0
  0
LINE
  5
2C589
330
2C925
100
AcDbEntity
  8
SUNPOU
100
AcDbLine
 10
8154.143929657189
 20
6813.464770760366
 30
0.0
 11
8154.143929657189
 21
6983.464770760362
 31
0.0
  0
LINE
  5
2C58D
330
2C925
100
AcDbEntity
  8
SUNPOU
100
AcDbLine
 10
7614.143929657195
 20
6998.464770760364
 30
0.0
 11
8199.143929657187
 21
6998.464770760364
 31
0.0
  0
LINE
  5
2C58E
330
2C925
100
AcDbEntity
  8
SUNPOU
100
AcDbLine
 10
7724.143929657187
 20
7138.464770760363
 30
0.0
 11
8199.143929657187
 21
7138.464770760363
 31
0.0
  0
LINE
  5
2C58F
330
2C925
100
AcDbEntity
  8
SUNPOU
100
AcDbLine
 10
8154.143929657186
 20
7013.464770760363
 30
0.0
 11
8154.143929657186
 21
7123.464770760364
 31
0.0
  0
LINE
  5
2C590
330
2C925
100
AcDbEntity
  8
SUNPOU
100
AcDbLine
 10
8154.143929657186
 20
7138.464770760363
 30
0.0
 11
8154.143929657186
 21
7389.179056474649
 31
0.0
  0
LINE
  5
2C594
330
2C925
100
AcDbEntity
  8
SUNPOU
100
AcDbLine
 10
7614.143929657195
 20
6798.464770760367
 30
0.0
 11
8199.143929657187
 21
6798.464770760367
 31
0.0
  0
LINE
  5
2C595
330
2C925
100
AcDbEntity
  8
SUNPOU
100
AcDbLine
 10
7724.143929657187
 20
6658.464770760367
 30
0.0
 11
8199.143929657187
 21
6658.464770760367
 31
0.0
  0
LINE
  5
2C596
330
2C925
100
AcDbEntity
  8
SUNPOU
100
AcDbLine
 10
8154.143929657186
 20
6783.464770760367
 30
0.0
 11
8154.143929657186
 21
6673.464770760367
 31
0.0
  0
LINE
  5
2C597
330
2C925
100
AcDbEntity
  8
SUNPOU
100
AcDbLine
 10
8154.143929657186
 20
6658.464770760367
 30
0.0
 11
8154.143929657186
 21
6407.750485046083
 31
0.0
  0
LINE
  5
2C59B
330
2C925
100
AcDbEntity
  8
SUNPOU
100
AcDbLine
 10
7724.143929657187
 20
6658.464770760367
 30
0.0
 11
8409.143929657188
 21
6658.464770760367
 31
0.0
  0
LINE
  5
2C59C
330
2C925
100
AcDbEntity
  8
SUNPOU
100
AcDbLine
 10
8184.143929657187
 20
6523.464770760367
 30
0.0
 11
8409.143929657188
 21
6523.464770760367
 31
0.0
  0
LINE
  5
2C59D
330
2C925
100
AcDbEntity
  8
SUNPOU
100
AcDbLine
 10
8364.143929657187
 20
6643.464770760366
 30
0.0
 11
8364.143929657187
 21
6538.464770760366
 31
0.0
  0
LINE
  5
2C59E
330
2C925
100
AcDbEntity
  8
SUNPOU
100
AcDbLine
 10
8364.143929657187
 20
6523.464770760367
 30
0.0
 11
8364.143929657187
 21
6272.750485046081
 31
0.0
  0
LINE
  5
2C5A2
330
2C925
100
AcDbEntity
  8
SUNPOU
100
AcDbLine
 10
7724.143929657187
 20
7138.464770760363
 30
0.0
 11
8409.143929657188
 21
7138.464770760363
 31
0.0
  0
LINE
  5
2C5A3
330
2C925
100
AcDbEntity
  8
SUNPOU
100
AcDbLine
 10
8184.143929657187
 20
7273.464770760367
 30
0.0
 11
8409.143929657188
 21
7273.464770760367
 31
0.0
  0
LINE
  5
2C5A4
330
2C925
100
AcDbEntity
  8
SUNPOU
100
AcDbLine
 10
8364.143929657187
 20
7153.464770760364
 30
0.0
 11
8364.143929657187
 21
7258.464770760366
 31
0.0
  0
LINE
  5
2C5A5
330
2C925
100
AcDbEntity
  8
SUNPOU
100
AcDbLine
 10
8364.143929657187
 20
7273.464770760367
 30
0.0
 11
8364.143929657187
 21
7524.179056474652
 31
0.0
  0
LINE
  5
2C5A9
330
2C925
100
AcDbEntity
  8
SUNPOU
100
AcDbLine
 10
7724.143929657187
 20
6658.464770760367
 30
0.0
 11
8409.143929657188
 21
6658.464770760367
 31
0.0
  0
LINE
  5
2C5AA
330
2C925
100
AcDbEntity
  8
SUNPOU
100
AcDbLine
 10
7724.143929657187
 20
7138.464770760363
 30
0.0
 11
8409.143929657188
 21
7138.464770760363
 31
0.0
  0
LINE
  5
2C5AB
330
2C925
100
AcDbEntity
  8
SUNPOU
100
AcDbLine
 10
8364.143929657187
 20
6673.464770760367
 30
0.0
 11
8364.143929657187
 21
7123.464770760364
 31
0.0
  0
LINE
  5
2C5AF
330
2C925
100
AcDbEntity
  8
SUNPOU
100
AcDbLine
 10
7304.5939296572
 20
6898.464770760367
 30
0.0
 11
6734.143929657195
 21
6898.464770760367
 31
0.0
  0
LINE
  5
2C5B0
330
2C925
100
AcDbEntity
  8
SUNPOU
100
AcDbLine
 10
7049.143929657195
 20
7273.464770760367
 30
0.0
 11
6734.143929657195
 21
7273.464770760367
 31
0.0
  0
LINE
  5
2C5B1
330
2C925
100
AcDbEntity
  8
SUNPOU
100
AcDbLine
 10
6779.143929657195
 20
6913.464770760366
 30
0.0
 11
6779.143929657195
 21
7258.464770760366
 31
0.0
  0
LINE
  5
2C5B5
330
2C925
100
AcDbEntity
  8
SUNPOU
100
AcDbLine
 10
7049.143929657195
 20
6523.464770760367
 30
0.0
 11
6734.143929657195
 21
6523.464770760367
 31
0.0
  0
LINE
  5
2C5B6
330
2C925
100
AcDbEntity
  8
SUNPOU
100
AcDbLine
 10
7304.5939296572
 20
6898.464770760367
 30
0.0
 11
6734.143929657195
 21
6898.464770760367
 31
0.0
  0
LINE
  5
2C5B7
330
2C925
100
AcDbEntity
  8
SUNPOU
100
AcDbLine
 10
6779.143929657195
 20
6538.464770760366
 30
0.0
 11
6779.143929657195
 21
6883.464770760366
 31
0.0
  0
LINE
  5
2C5BB
330
2C925
100
AcDbEntity
  8
SUNPOU
100
AcDbLine
 10
7049.143929657195
 20
7273.464770760367
 30
0.0
 11
6524.143929657197
 21
7273.464770760367
 31
0.0
  0
LINE
  5
2C5BC
330
2C925
100
AcDbEntity
  8
SUNPOU
100
AcDbLine
 10
7049.143929657195
 20
6523.464770760367
 30
0.0
 11
6524.143929657197
 21
6523.464770760367
 31
0.0
  0
LINE
  5
2C5BD
330
2C925
100
AcDbEntity
  8
SUNPOU
100
AcDbLine
 10
6569.143929657196
 20
7258.464770760366
 30
0.0
 11
6569.143929657196
 21
6538.464770760366
 31
0.0
  0
LINE
  5
2C5C1
330
2C925
100
AcDbEntity
  8
SUNPOU
100
AcDbLine
 10
7614.143929657195
 20
5398.464770760366
 30
0.0
 11
8199.143929657191
 21
5398.464770760366
 31
0.0
  0
LINE
  5
2C5C2
330
2C925
100
AcDbEntity
  8
SUNPOU
100
AcDbLine
 10
7614.143929657195
 20
5598.464770760362
 30
0.0
 11
8199.143929657191
 21
5598.464770760362
 31
0.0
  0
LINE
  5
2C5C3
330
2C925
100
AcDbEntity
  8
SUNPOU
100
AcDbLine
 10
8154.143929657189
 20
5413.464770760366
 30
0.0
 11
8154.143929657189
 21
5583.464770760364
 31
0.0
  0
LINE
  5
2C5C7
330
2C925
100
AcDbEntity
  8
SUNPOU
100
AcDbLine
 10
7614.143929657195
 20
5598.464770760362
 30
0.0
 11
8199.143929657191
 21
5598.464770760362
 31
0.0
  0
LINE
  5
2C5C8
330
2C925
100
AcDbEntity
  8
SUNPOU
100
AcDbLine
 10
7724.143929657187
 20
5738.464770760362
 30
0.0
 11
8199.143929657191
 21
5738.464770760362
 31
0.0
  0
LINE
  5
2C5C9
330
2C925
100
AcDbEntity
  8
SUNPOU
100
AcDbLine
 10
8154.143929657186
 20
5613.464770760362
 30
0.0
 11
8154.143929657186
 21
5723.464770760362
 31
0.0
  0
LINE
  5
2C5CA
330
2C925
100
AcDbEntity
  8
SUNPOU
100
AcDbLine
 10
8154.143929657186
 20
5738.464770760362
 30
0.0
 11
8154.143929657186
 21
5989.179056474648
 31
0.0
  0
LINE
  5
2C5CE
330
2C925
100
AcDbEntity
  8
SUNPOU
100
AcDbLine
 10
7614.143929657195
 20
5398.464770760366
 30
0.0
 11
8199.143929657191
 21
5398.464770760366
 31
0.0
  0
LINE
  5
2C5CF
330
2C925
100
AcDbEntity
  8
SUNPOU
100
AcDbLine
 10
7724.143929657187
 20
5258.464770760366
 30
0.0
 11
8199.143929657191
 21
5258.464770760366
 31
0.0
  0
LINE
  5
2C5D0
330
2C925
100
AcDbEntity
  8
SUNPOU
100
AcDbLine
 10
8154.143929657186
 20
5383.464770760366
 30
0.0
 11
8154.143929657186
 21
5273.464770760366
 31
0.0
  0
LINE
  5
2C5D1
330
2C925
100
AcDbEntity
  8
SUNPOU
100
AcDbLine
 10
8154.143929657186
 20
5258.464770760366
 30
0.0
 11
8154.143929657186
 21
5007.750485046081
 31
0.0
  0
LINE
  5
2C5D5
330
2C925
100
AcDbEntity
  8
SUNPOU
100
AcDbLine
 10
7724.143929657187
 20
5258.464770760366
 30
0.0
 11
8409.143929657188
 21
5258.464770760366
 31
0.0
  0
LINE
  5
2C5D6
330
2C925
100
AcDbEntity
  8
SUNPOU
100
AcDbLine
 10
8184.143929657187
 20
5123.464770760366
 30
0.0
 11
8409.143929657188
 21
5123.464770760366
 31
0.0
  0
LINE
  5
2C5D7
330
2C925
100
AcDbEntity
  8
SUNPOU
100
AcDbLine
 10
8364.143929657187
 20
5243.464770760366
 30
0.0
 11
8364.143929657187
 21
5138.464770760366
 31
0.0
  0
LINE
  5
2C5D8
330
2C925
100
AcDbEntity
  8
SUNPOU
100
AcDbLine
 10
8364.143929657187
 20
5123.464770760366
 30
0.0
 11
8364.143929657187
 21
4872.750485046081
 31
0.0
  0
LINE
  5
2C5DC
330
2C925
100
AcDbEntity
  8
SUNPOU
100
AcDbLine
 10
7724.143929657187
 20
5738.464770760362
 30
0.0
 11
8409.143929657188
 21
5738.464770760362
 31
0.0
  0
LINE
  5
2C5DD
330
2C925
100
AcDbEntity
  8
SUNPOU
100
AcDbLine
 10
8184.143929657187
 20
5873.464770760366
 30
0.0
 11
8409.143929657188
 21
5873.464770760366
 31
0.0
  0
LINE
  5
2C5DE
330
2C925
100
AcDbEntity
  8
SUNPOU
100
AcDbLine
 10
8364.143929657187
 20
5753.464770760364
 30
0.0
 11
8364.143929657187
 21
5858.464770760367
 31
0.0
  0
LINE
  5
2C5DF
330
2C925
100
AcDbEntity
  8
SUNPOU
100
AcDbLine
 10
8364.143929657187
 20
5873.464770760366
 30
0.0
 11
8364.143929657187
 21
6124.179056474652
 31
0.0
  0
LINE
  5
2C5E3
330
2C925
100
AcDbEntity
  8
SUNPOU
100
AcDbLine
 10
7724.143929657187
 20
5258.464770760366
 30
0.0
 11
8409.143929657188
 21
5258.464770760366
 31
0.0
  0
LINE
  5
2C5E4
330
2C925
100
AcDbEntity
  8
SUNPOU
100
AcDbLine
 10
7724.143929657187
 20
5738.464770760362
 30
0.0
 11
8409.143929657188
 21
5738.464770760362
 31
0.0
  0
LINE
  5
2C5E5
330
2C925
100
AcDbEntity
  8
SUNPOU
100
AcDbLine
 10
8364.143929657187
 20
5273.464770760366
 30
0.0
 11
8364.143929657187
 21
5723.464770760362
 31
0.0
  0
LINE
  5
2C5E9
330
2C925
100
AcDbEntity
  8
SUNPOU
100
AcDbLine
 10
7304.5939296572
 20
5498.464770760366
 30
0.0
 11
6734.143929657195
 21
5498.464770760366
 31
0.0
  0
LINE
  5
2C5EA
330
2C925
100
AcDbEntity
  8
SUNPOU
100
AcDbLine
 10
7049.143929657195
 20
5873.464770760366
 30
0.0
 11
6734.143929657195
 21
5873.464770760366
 31
0.0
  0
LINE
  5
2C5EB
330
2C925
100
AcDbEntity
  8
SUNPOU
100
AcDbLine
 10
6779.143929657195
 20
5513.464770760366
 30
0.0
 11
6779.143929657195
 21
5858.464770760367
 31
0.0
  0
LINE
  5
2C5EF
330
2C925
100
AcDbEntity
  8
SUNPOU
100
AcDbLine
 10
7049.143929657195
 20
5123.464770760366
 30
0.0
 11
6734.143929657195
 21
5123.464770760366
 31
0.0
  0
LINE
  5
2C5F0
330
2C925
100
AcDbEntity
  8
SUNPOU
100
AcDbLine
 10
7304.5939296572
 20
5498.464770760366
 30
0.0
 11
6734.143929657195
 21
5498.464770760366
 31
0.0
  0
LINE
  5
2C5F1
330
2C925
100
AcDbEntity
  8
SUNPOU
100
AcDbLine
 10
6779.143929657195
 20
5138.464770760366
 30
0.0
 11
6779.143929657195
 21
5483.464770760367
 31
0.0
  0
LINE
  5
2C5F5
330
2C925
100
AcDbEntity
  8
SUNPOU
100
AcDbLine
 10
7049.143929657195
 20
5873.464770760366
 30
0.0
 11
6524.143929657197
 21
5873.464770760366
 31
0.0
  0
LINE
  5
2C5F6
330
2C925
100
AcDbEntity
  8
SUNPOU
100
AcDbLine
 10
7049.143929657195
 20
5123.464770760366
 30
0.0
 11
6524.143929657197
 21
5123.464770760366
 31
0.0
  0
LINE
  5
2C5F7
330
2C925
100
AcDbEntity
  8
SUNPOU
100
AcDbLine
 10
6569.143929657196
 20
5858.464770760367
 30
0.0
 11
6569.143929657196
 21
5138.464770760366
 31
0.0
  0
LINE
  5
2C5FB
330
2C925
100
AcDbEntity
  8
SUNPOU
100
AcDbLine
 10
7454.143929657195
 20
5026.464770760366
 30
0.0
 11
7454.143929657195
 21
4343.464770760363
 31
0.0
  0
LINE
  5
2C5FC
330
2C925
100
AcDbEntity
  8
SUNPOU
100
AcDbLine
 10
7854.143929657187
 20
4868.464770760364
 30
0.0
 11
7854.143929657187
 21
4343.464770760363
 31
0.0
  0
LINE
  5
2C5FD
330
2C925
100
AcDbEntity
  8
SUNPOU
100
AcDbLine
 10
7469.143929657196
 20
4388.464770760363
 30
0.0
 11
7839.143929657187
 21
4388.464770760363
 31
0.0
  0
LINE
  5
2C601
330
2C925
100
AcDbEntity
  8
SUNPOU
100
AcDbLine
 10
4654.143929657194
 20
5026.464770760366
 30
0.0
 11
4654.143929657194
 21
4343.464770760363
 31
0.0
  0
LINE
  5
2C602
330
2C925
100
AcDbEntity
  8
SUNPOU
100
AcDbLine
 10
7454.143929657195
 20
5026.464770760366
 30
0.0
 11
7454.143929657195
 21
4343.464770760363
 31
0.0
  0
LINE
  5
2C603
330
2C925
100
AcDbEntity
  8
SUNPOU
100
AcDbLine
 10
4669.143929657193
 20
4388.464770760363
 30
0.0
 11
7439.143929657196
 21
4388.464770760363
 31
0.0
  0
LINE
  5
2C607
330
2C925
100
AcDbEntity
  8
SUNPOU
100
AcDbLine
 10
4254.143929657193
 20
4868.464770760364
 30
0.0
 11
4254.143929657193
 21
4343.464770760363
 31
0.0
  0
LINE
  5
2C608
330
2C925
100
AcDbEntity
  8
SUNPOU
100
AcDbLine
 10
4654.143929657194
 20
5026.464770760366
 30
0.0
 11
4654.143929657194
 21
4343.464770760363
 31
0.0
  0
LINE
  5
2C609
330
2C925
100
AcDbEntity
  8
SUNPOU
100
AcDbLine
 10
4269.143929657193
 20
4388.464770760363
 30
0.0
 11
4639.143929657193
 21
4388.464770760363
 31
0.0
  0
LINE
  5
2C60D
330
2C925
100
AcDbEntity
  8
SUNPOU
100
AcDbLine
 10
4504.593929657194
 20
6898.464770760367
 30
0.0
 11
3759.143929657194
 21
6898.464770760367
 31
0.0
  0
LINE
  5
2C60E
330
2C925
100
AcDbEntity
  8
SUNPOU
100
AcDbLine
 10
4224.143929657193
 20
7138.464770760363
 30
0.0
 11
3759.143929657194
 21
7138.464770760363
 31
0.0
  0
LINE
  5
2C60F
330
2C925
100
AcDbEntity
  8
SUNPOU
100
AcDbLine
 10
3804.143929657195
 20
6913.464770760366
 30
0.0
 11
3804.143929657195
 21
7123.464770760364
 31
0.0
  0
LINE
  5
2C613
330
2C925
100
AcDbEntity
  8
SUNPOU
100
AcDbLine
 10
4504.593929657194
 20
5498.464770760366
 30
0.0
 11
3759.143929657194
 21
5498.464770760366
 31
0.0
  0
LINE
  5
2C614
330
2C925
100
AcDbEntity
  8
SUNPOU
100
AcDbLine
 10
4504.593929657194
 20
6898.464770760367
 30
0.0
 11
3759.143929657194
 21
6898.464770760367
 31
0.0
  0
LINE
  5
2C615
330
2C925
100
AcDbEntity
  8
SUNPOU
100
AcDbLine
 10
3804.143929657194
 20
5513.464770760366
 30
0.0
 11
3804.143929657194
 21
6883.464770760366
 31
0.0
  0
LINE
  5
2C619
330
2C925
100
AcDbEntity
  8
SUNPOU
100
AcDbLine
 10
4224.143929657193
 20
4898.464770760362
 30
0.0
 11
3759.143929657192
 21
4898.464770760362
 31
0.0
  0
LINE
  5
2C61A
330
2C925
100
AcDbEntity
  8
SUNPOU
100
AcDbLine
 10
4504.593929657194
 20
5498.464770760366
 30
0.0
 11
3759.143929657194
 21
5498.464770760366
 31
0.0
  0
LINE
  5
2C61B
330
2C925
100
AcDbEntity
  8
SUNPOU
100
AcDbLine
 10
3804.143929657193
 20
4913.464770760363
 30
0.0
 11
3804.143929657194
 21
5483.464770760367
 31
0.0
  0
LINE
  5
2C61F
330
2C925
100
AcDbEntity
  8
SUNPOU
100
AcDbLine
 10
4224.143929657193
 20
4898.464770760362
 30
0.0
 11
3549.143929657193
 21
4898.464770760362
 31
0.0
  0
LINE
  5
2C620
330
2C925
100
AcDbEntity
  8
SUNPOU
100
AcDbLine
 10
4224.143929657193
 20
7138.464770760363
 30
0.0
 11
3549.143929657193
 21
7138.464770760363
 31
0.0
  0
LINE
  5
2C621
330
2C925
100
AcDbEntity
  8
SUNPOU
100
AcDbLine
 10
3594.143929657192
 20
4913.464770760363
 30
0.0
 11
3594.143929657194
 21
7123.464770760364
 31
0.0
  0
ARC
  5
2C625
330
2C925
100
AcDbEntity
  8
SUNPOU
100
AcDbCircle
 10
7829.143929657186
 20
7883.464770760366
 30
0.0
 40
5.625
100
AcDbArc
 50
0.0
 51
180.0
  0
ARC
  5
2C626
330
2C925
100
AcDbEntity
  8
SUNPOU
100
AcDbCircle
 10
7829.143929657186
 20
7883.464770760366
 30
0.0
 40
5.625
100
AcDbArc
 50
180.0
 51
0.0
  0
ARC
  5
2C627
330
2C925
100
AcDbEntity
  8
SUNPOU
100
AcDbCircle
 10
7829.143929657186
 20
7673.464770760367
 30
0.0
 40
5.625
100
AcDbArc
 50
180.0
 51
0.0
  0
ARC
  5
2C628
330
2C925
100
AcDbEntity
  8
SUNPOU
100
AcDbCircle
 10
7829.143929657186
 20
7673.464770760367
 30
0.0
 40
5.625
100
AcDbArc
 50
0.0
 51
180.0
  0
ARC
  5
2C629
330
2C925
100
AcDbEntity
  8
SUNPOU
100
AcDbCircle
 10
7694.143929657187
 20
7673.464770760367
 30
0.0
 40
5.625
100
AcDbArc
 50
0.0
 51
180.0
  0
ARC
  5
2C62A
330
2C925
100
AcDbEntity
  8
SUNPOU
100
AcDbCircle
 10
7694.143929657187
 20
7673.464770760367
 30
0.0
 40
5.625
100
AcDbArc
 50
180.0
 51
0.0
  0
ARC
  5
2C62B
330
2C925
100
AcDbEntity
  8
SUNPOU
100
AcDbCircle
 10
7694.143929657187
 20
7673.464770760367
 30
0.0
 40
5.625
100
AcDbArc
 50
0.0
 51
180.0
  0
ARC
  5
2C62C
330
2C925
100
AcDbEntity
  8
SUNPOU
100
AcDbCircle
 10
7694.143929657187
 20
7673.464770760367
 30
0.0
 40
5.625
100
AcDbArc
 50
180.0
 51
0.0
  0
ARC
  5
2C62D
330
2C925
100
AcDbEntity
  8
SUNPOU
100
AcDbCircle
 10
7554.143929657195
 20
7463.464770760366
 30
0.0
 40
5.625
100
AcDbArc
 50
0.0
 51
180.0
  0
ARC
  5
2C62E
330
2C925
100
AcDbEntity
  8
SUNPOU
100
AcDbCircle
 10
7554.143929657195
 20
7463.464770760366
 30
0.0
 40
5.625
100
AcDbArc
 50
180.0
 51
0.0
  0
ARC
  5
2C62F
330
2C925
100
AcDbEntity
  8
SUNPOU
100
AcDbCircle
 10
7214.143929657196
 20
7673.464770760367
 30
0.0
 40
5.625
100
AcDbArc
 50
180.0
 51
0.0
  0
ARC
  5
2C630
330
2C925
100
AcDbEntity
  8
SUNPOU
100
AcDbCircle
 10
7214.143929657196
 20
7673.464770760367
 30
0.0
 40
5.625
100
AcDbArc
 50
0.0
 51
180.0
  0
ARC
  5
2C631
330
2C925
100
AcDbEntity
  8
SUNPOU
100
AcDbCircle
 10
7214.143929657196
 20
7673.464770760367
 30
0.0
 40
5.625
100
AcDbArc
 50
180.0
 51
0.0
  0
ARC
  5
2C632
330
2C925
100
AcDbEntity
  8
SUNPOU
100
AcDbCircle
 10
7214.143929657196
 20
7673.464770760367
 30
0.0
 40
5.625
100
AcDbArc
 50
0.0
 51
180.0
  0
ARC
  5
2C633
330
2C925
100
AcDbEntity
  8
SUNPOU
100
AcDbCircle
 10
7079.143929657195
 20
7883.464770760366
 30
0.0
 40
5.625
100
AcDbArc
 50
180.0
 51
0.0
  0
ARC
  5
2C634
330
2C925
100
AcDbEntity
  8
SUNPOU
100
AcDbCircle
 10
7079.143929657195
 20
7883.464770760366
 30
0.0
 40
5.625
100
AcDbArc
 50
0.0
 51
180.0
  0
ARC
  5
2C635
330
2C925
100
AcDbEntity
  8
SUNPOU
100
AcDbCircle
 10
7079.143929657195
 20
7673.464770760367
 30
0.0
 40
5.625
100
AcDbArc
 50
0.0
 51
180.0
  0
ARC
  5
2C636
330
2C925
100
AcDbEntity
  8
SUNPOU
100
AcDbCircle
 10
7079.143929657195
 20
7673.464770760367
 30
0.0
 40
5.625
100
AcDbArc
 50
180.0
 51
0.0
  0
ARC
  5
2C637
330
2C925
100
AcDbEntity
  8
SUNPOU
100
AcDbCircle
 10
7354.143929657195
 20
7463.464770760366
 30
0.0
 40
5.625
100
AcDbArc
 50
180.0
 51
0.0
  0
ARC
  5
2C638
330
2C925
100
AcDbEntity
  8
SUNPOU
100
AcDbCircle
 10
7354.143929657195
 20
7463.464770760366
 30
0.0
 40
5.625
100
AcDbArc
 50
0.0
 51
180.0
  0
ARC
  5
2C639
330
2C925
100
AcDbEntity
  8
SUNPOU
100
AcDbCircle
 10
6115.05554602849
 20
2680.744622954003
 30
0.0
 40
5.625
100
AcDbArc
 50
180.0
 51
0.0
  0
ARC
  5
2C63A
330
2C925
100
AcDbEntity
  8
SUNPOU
100
AcDbCircle
 10
6115.05554602849
 20
2680.744622954003
 30
0.0
 40
5.625
100
AcDbArc
 50
0.0
 51
180.0
  0
ARC
  5
2C63B
330
2C925
100
AcDbEntity
  8
SUNPOU
100
AcDbCircle
 10
5505.05554602849
 20
2680.744622954003
 30
0.0
 40
5.625
100
AcDbArc
 50
0.0
 51
180.0
  0
ARC
  5
2C63C
330
2C925
100
AcDbEntity
  8
SUNPOU
100
AcDbCircle
 10
5505.05554602849
 20
2680.744622954003
 30
0.0
 40
5.625
100
AcDbArc
 50
180.0
 51
0.0
  0
ARC
  5
2C63D
330
2C925
100
AcDbEntity
  8
SUNPOU
100
AcDbCircle
 10
5010.055546028485
 20
2160.744622954003
 30
0.0
 40
5.625
100
AcDbArc
 50
270.0
 51
90.0
  0
ARC
  5
2C63E
330
2C925
100
AcDbEntity
  8
SUNPOU
100
AcDbCircle
 10
5010.055546028485
 20
2160.744622954003
 30
0.0
 40
5.625
100
AcDbArc
 50
90.0
 51
270.0
  0
ARC
  5
2C63F
330
2C925
100
AcDbEntity
  8
SUNPOU
100
AcDbCircle
 10
5010.055546028485
 20
1600.744622954002
 30
0.0
 40
5.625
100
AcDbArc
 50
90.0
 51
270.0
  0
ARC
  5
2C640
330
2C925
100
AcDbEntity
  8
SUNPOU
100
AcDbCircle
 10
5010.055546028485
 20
1600.744622954002
 30
0.0
 40
5.625
100
AcDbArc
 50
270.0
 51
90.0
  0
LINE
  5
2C641
330
2C925
100
AcDbEntity
  8
SUNPOU
100
AcDbLine
 10
1458.664361557388
 20
2200.744622954001
 30
0.0
 11
1562.587410011521
 21
2200.744622954001
 31
0.0
  0
LINE
  5
2C642
330
2C925
100
AcDbEntity
  8
SUNPOU
100
AcDbLine
 10
1562.587410011521
 20
2200.744622954001
 30
0.0
 11
1510.625885784455
 21
2110.744622954003
 31
0.0
  0
LINE
  5
2C643
330
2C925
100
AcDbEntity
  8
SUNPOU
100
AcDbLine
 10
1510.625885784455
 20
2110.744622954003
 30
0.0
 11
1458.664361557388
 21
2200.744622954001
 31
0.0
  0
LINE
  5
2C644
330
2C925
100
AcDbEntity
  8
SUNPOU
100
AcDbLine
 10
2520.012178936216
 20
2230.744622954003
 30
0.0
 11
2468.05065470915
 21
2140.744622954004
 31
0.0
  0
LINE
  5
2C645
330
2C925
100
AcDbEntity
  8
SUNPOU
100
AcDbLine
 10
2468.05065470915
 20
2140.744622954004
 30
0.0
 11
2416.089130482084
 21
2230.744622954003
 31
0.0
  0
LINE
  5
2C646
330
2C925
100
AcDbEntity
  8
SUNPOU
100
AcDbLine
 10
2416.089130482084
 20
2230.744622954003
 30
0.0
 11
2520.012178936216
 21
2230.744622954003
 31
0.0
  0
TEXT
  5
2C647
330
2C925
100
AcDbEntity
  8
SUNPOU
100
AcDbText
 10
1895.591794916773
 20
2725.744622954003
 30
0.0
 40
90.0
  1
480
 41
0.6666666666666666
  7
00
100
AcDbText
  0
LINE
  5
2C649
330
2C925
100
AcDbEntity
  8
SUNPOU
100
AcDbLine
 10
2210.056080631058
 20
2680.744622954003
 30
0.0
 11
2198.806080631058
 21
2680.744622954003
 31
0.0
  0
LINE
  5
2C64B
330
2C925
100
AcDbEntity
  8
SUNPOU
100
AcDbLine
 10
1752.556080631058
 20
2680.744622954003
 30
0.0
 11
1763.806080631058
 21
2680.744622954003
 31
0.0
  0
TEXT
  5
2C64C
330
2C925
100
AcDbEntity
  8
SUNPOU
100
AcDbText
 10
6725.05554602849
 20
1795.030337239716
 30
0.0
 40
90.0
  1
750
 50
90.0
 41
0.6666666666666666
  7
00
100
AcDbText
  0
LINE
  5
2C64E
330
2C925
100
AcDbEntity
  8
SUNPOU
100
AcDbLine
 10
6770.055546028491
 20
2244.494622954002
 30
0.0
 11
6770.055546028491
 21
2233.244622954003
 31
0.0
  0
LINE
  5
2C650
330
2C925
100
AcDbEntity
  8
SUNPOU
100
AcDbLine
 10
6770.055546028491
 20
1516.994622954002
 30
0.0
 11
6770.055546028491
 21
1528.244622954002
 31
0.0
  0
TEXT
  5
2C651
330
2C925
100
AcDbEntity
  8
SUNPOU
100
AcDbText
 10
6515.055546028489
 20
1795.030337239716
 30
0.0
 40
90.0
  1
480
 50
90.0
 41
0.6666666666666666
  7
00
100
AcDbText
  0
LINE
  5
2C653
330
2C925
100
AcDbEntity
  8
SUNPOU
100
AcDbLine
 10
6560.055546028491
 20
2109.494622954002
 30
0.0
 11
6560.055546028491
 21
2098.244622954001
 31
0.0
  0
LINE
  5
2C655
330
2C925
100
AcDbEntity
  8
SUNPOU
100
AcDbLine
 10
6560.055546028491
 20
1651.994622954003
 30
0.0
 11
6560.055546028491
 21
1663.244622954002
 31
0.0
  0
TEXT
  5
2C656
330
2C925
100
AcDbEntity
  8
SUNPOU
100
AcDbText
 10
5724.341260314205
 20
1125.744622954003
 30
0.0
 40
90.0
  1
480
 41
0.6666666666666666
  7
00
100
AcDbText
  0
LINE
  5
2C658
330
2C925
100
AcDbEntity
  8
SUNPOU
100
AcDbLine
 10
6038.80554602849
 20
1080.744622954002
 30
0.0
 11
6027.555546028491
 21
1080.744622954002
 31
0.0
  0
LINE
  5
2C65A
330
2C925
100
AcDbEntity
  8
SUNPOU
100
AcDbLine
 10
5581.305546028492
 20
1080.744622954002
 30
0.0
 11
5592.55554602849
 21
1080.744622954002
 31
0.0
  0
TEXT
  5
2C65B
330
2C925
100
AcDbEntity
  8
SUNPOU
100
AcDbText
 10
5724.341260314205
 20
915.7446229540033
 30
0.0
 40
90.0
  1
750
 41
0.6666666666666666
  7
00
100
AcDbText
  0
LINE
  5
2C65D
330
2C925
100
AcDbEntity
  8
SUNPOU
100
AcDbLine
 10
6173.80554602849
 20
870.7446229540032
 30
0.0
 11
6162.555546028491
 21
870.7446229540032
 31
0.0
  0
LINE
  5
2C65F
330
2C925
100
AcDbEntity
  8
SUNPOU
100
AcDbLine
 10
5446.30554602849
 20
870.7446229540032
 30
0.0
 11
5457.555546028491
 21
870.7446229540032
 31
0.0
  0
LINE
  5
2C661
330
2C925
100
AcDbEntity
  8
SUNPOU
100
AcDbLine
 10
2945.856080631056
 20
1449.494622954002
 30
0.0
 11
2945.856080631056
 21
1438.244622954002
 31
0.0
  0
LINE
  5
2C663
330
2C925
100
AcDbEntity
  8
SUNPOU
100
AcDbLine
 10
2945.856080631056
 20
1521.994622954002
 30
0.0
 11
2945.856080631056
 21
1533.244622954002
 31
0.0
  0
TEXT
  5
2C664
330
2C925
100
AcDbEntity
  8
SUNPOU
100
AcDbText
 10
3102.998619794345
 20
1428.601765811145
 30
0.0
 40
90.0
  1
50
 50
90.0
 41
0.6666666666666666
  7
00
100
AcDbText
  0
LINE
  5
2C666
330
2C925
100
AcDbEntity
  8
SUNPOU
100
AcDbLine
 10
2945.856080631056
 20
1349.494622954003
 30
0.0
 11
2945.856080631056
 21
1338.244622954003
 31
0.0
  0
LINE
  5
2C668
330
2C925
100
AcDbEntity
  8
SUNPOU
100
AcDbLine
 10
2945.856080631056
 20
1471.994622954002
 30
0.0
 11
2945.856080631056
 21
1483.244622954002
 31
0.0
  0
TEXT
  5
2C669
330
2C925
100
AcDbEntity
  8
SUNPOU
100
AcDbText
 10
2900.856080631056
 20
1166.662736498127
 30
0.0
 40
90.0
  1
100
 50
90.0
 41
0.6666666666666666
  7
00
100
AcDbText
  0
TEXT
  5
2C66A
330
2C925
100
AcDbEntity
  8
SUNPOU
100
AcDbText
 10
2900.856080631056
 20
1665.030337239717
 30
0.0
 40
90.0
  1
480
 50
90.0
 41
0.6666666666666666
  7
00
100
AcDbText
  0
LINE
  5
2C66C
330
2C925
100
AcDbEntity
  8
SUNPOU
100
AcDbLine
 10
2945.856080631056
 20
1521.994622954002
 30
0.0
 11
2945.856080631056
 21
1533.244622954002
 31
0.0
  0
LINE
  5
2C66E
330
2C925
100
AcDbEntity
  8
SUNPOU
100
AcDbLine
 10
2945.856080631056
 20
1979.494622954002
 30
0.0
 11
2945.856080631056
 21
1968.244622954002
 31
0.0
  0
TEXT
  5
2C66F
330
2C925
100
AcDbEntity
  8
SUNPOU
100
AcDbText
 10
2900.856080631056
 20
2183.601765811148
 30
0.0
 40
90.0
  1
150
 50
90.0
 41
0.6666666666666666
  7
00
100
AcDbText
  0
LINE
  5
2C671
330
2C925
100
AcDbEntity
  8
SUNPOU
100
AcDbLine
 10
2945.856080631056
 20
2129.494622954005
 30
0.0
 11
2945.856080631056
 21
2118.244622954005
 31
0.0
  0
LINE
  5
2C673
330
2C925
100
AcDbEntity
  8
SUNPOU
100
AcDbLine
 10
2945.856080631056
 20
2001.994622954002
 30
0.0
 11
2945.856080631056
 21
2013.244622954002
 31
0.0
  0
TEXT
  5
2C674
330
2C925
100
AcDbEntity
  8
SUNPOU
100
AcDbText
 10
1895.591794916773
 20
915.7446229540033
 30
0.0
 40
90.0
  1
750
 41
0.6666666666666666
  7
00
100
AcDbText
  0
LINE
  5
2C676
330
2C925
100
AcDbEntity
  8
SUNPOU
100
AcDbLine
 10
2345.056080631059
 20
870.7446229540032
 30
0.0
 11
2333.806080631059
 21
870.7446229540032
 31
0.0
  0
LINE
  5
2C678
330
2C925
100
AcDbEntity
  8
SUNPOU
100
AcDbLine
 10
1617.556080631057
 20
870.7446229540032
 30
0.0
 11
1628.806080631058
 21
870.7446229540032
 31
0.0
  0
TEXT
  5
2C679
330
2C925
100
AcDbEntity
  8
SUNPOU
100
AcDbText
 10
2083.091794916773
 20
1125.744622954003
 30
0.0
 40
90.0
  1
375
 41
0.6666666666666666
  7
00
100
AcDbText
  0
LINE
  5
2C67B
330
2C925
100
AcDbEntity
  8
SUNPOU
100
AcDbLine
 10
1992.556080631058
 20
1080.744622954002
 30
0.0
 11
2003.806080631059
 21
1080.744622954002
 31
0.0
  0
LINE
  5
2C67D
330
2C925
100
AcDbEntity
  8
SUNPOU
100
AcDbLine
 10
2345.056080631059
 20
1080.744622954002
 30
0.0
 11
2333.806080631059
 21
1080.744622954002
 31
0.0
  0
TEXT
  5
2C67E
330
2C925
100
AcDbEntity
  8
SUNPOU
100
AcDbText
 10
1708.091794916773
 20
1125.744622954003
 30
0.0
 40
90.0
  1
375
 41
0.6666666666666666
  7
00
100
AcDbText
  0
LINE
  5
2C680
330
2C925
100
AcDbEntity
  8
SUNPOU
100
AcDbLine
 10
1970.056080631058
 20
1080.744622954002
 30
0.0
 11
1958.806080631059
 21
1080.744622954002
 31
0.0
  0
LINE
  5
2C682
330
2C925
100
AcDbEntity
  8
SUNPOU
100
AcDbLine
 10
1617.556080631057
 20
1080.744622954002
 30
0.0
 11
1628.806080631058
 21
1080.744622954002
 31
0.0
  0
TEXT
  5
2C683
330
2C925
100
AcDbEntity
  8
SUNPOU
100
AcDbText
 10
8109.143929657188
 20
6812.75048504608
 30
0.0
 40
90.0
  1
200
 50
90.0
 41
0.6666666666666666
  7
00
100
AcDbText
  0
LINE
  5
2C685
330
2C925
100
AcDbEntity
  8
SUNPOU
100
AcDbLine
 10
8154.143929657189
 20
6987.214770760363
 30
0.0
 11
8154.143929657189
 21
6975.964770760363
 31
0.0
  0
LINE
  5
2C687
330
2C925
100
AcDbEntity
  8
SUNPOU
100
AcDbLine
 10
8154.143929657189
 20
6809.714770760367
 30
0.0
 11
8154.143929657189
 21
6820.964770760366
 31
0.0
  0
TEXT
  5
2C688
330
2C925
100
AcDbEntity
  8
SUNPOU
100
AcDbText
 10
8109.143929657186
 20
7181.321913617509
 30
0.0
 40
90.0
  1
140
 50
90.0
 41
0.6666666666666666
  7
00
100
AcDbText
  0
LINE
  5
2C68A
330
2C925
100
AcDbEntity
  8
SUNPOU
100
AcDbLine
 10
8154.143929657186
 20
7127.214770760364
 30
0.0
 11
8154.143929657186
 21
7115.964770760363
 31
0.0
  0
LINE
  5
2C68C
330
2C925
100
AcDbEntity
  8
SUNPOU
100
AcDbLine
 10
8154.143929657186
 20
7009.714770760364
 30
0.0
 11
8154.143929657186
 21
7020.964770760364
 31
0.0
  0
TEXT
  5
2C68D
330
2C925
100
AcDbEntity
  8
SUNPOU
100
AcDbText
 10
8109.143929657186
 20
6435.607627903222
 30
0.0
 40
90.0
  1
140
 50
90.0
 41
0.6666666666666666
  7
00
100
AcDbText
  0
LINE
  5
2C68F
330
2C925
100
AcDbEntity
  8
SUNPOU
100
AcDbLine
 10
8154.143929657186
 20
6669.714770760366
 30
0.0
 11
8154.143929657186
 21
6680.964770760366
 31
0.0
  0
LINE
  5
2C691
330
2C925
100
AcDbEntity
  8
SUNPOU
100
AcDbLine
 10
8154.143929657186
 20
6787.214770760366
 30
0.0
 11
8154.143929657186
 21
6775.964770760366
 31
0.0
  0
TEXT
  5
2C692
330
2C925
100
AcDbEntity
  8
SUNPOU
100
AcDbText
 10
8319.143929657185
 20
6300.607627903224
 30
0.0
 40
90.0
  1
135
 50
90.0
 41
0.6666666666666666
  7
00
100
AcDbText
  0
LINE
  5
2C694
330
2C925
100
AcDbEntity
  8
SUNPOU
100
AcDbLine
 10
8364.143929657187
 20
6534.714770760366
 30
0.0
 11
8364.143929657187
 21
6545.964770760368
 31
0.0
  0
LINE
  5
2C696
330
2C925
100
AcDbEntity
  8
SUNPOU
100
AcDbLine
 10
8364.143929657187
 20
6647.214770760367
 30
0.0
 11
8364.143929657187
 21
6635.964770760367
 31
0.0
  0
TEXT
  5
2C697
330
2C925
100
AcDbEntity
  8
SUNPOU
100
AcDbText
 10
8319.143929657185
 20
7316.32191361751
 30
0.0
 40
90.0
  1
135
 50
90.0
 41
0.6666666666666666
  7
00
100
AcDbText
  0
LINE
  5
2C699
330
2C925
100
AcDbEntity
  8
SUNPOU
100
AcDbLine
 10
8364.143929657187
 20
7262.214770760365
 30
0.0
 11
8364.143929657187
 21
7250.964770760366
 31
0.0
  0
LINE
  5
2C69B
330
2C925
100
AcDbEntity
  8
SUNPOU
100
AcDbLine
 10
8364.143929657187
 20
7149.714770760363
 30
0.0
 11
8364.143929657187
 21
7160.964770760364
 31
0.0
  0
TEXT
  5
2C69C
330
2C925
100
AcDbEntity
  8
SUNPOU
100
AcDbText
 10
8319.143929657185
 20
6812.75048504608
 30
0.0
 40
90.0
  1
480
 50
90.0
 41
0.6666666666666666
  7
00
100
AcDbText
  0
LINE
  5
2C69E
330
2C925
100
AcDbEntity
  8
SUNPOU
100
AcDbLine
 10
8364.143929657187
 20
7127.214770760364
 30
0.0
 11
8364.143929657187
 21
7115.964770760363
 31
0.0
  0
LINE
  5
2C6A0
330
2C925
100
AcDbEntity
  8
SUNPOU
100
AcDbLine
 10
8364.143929657187
 20
6669.714770760366
 30
0.0
 11
8364.143929657187
 21
6680.964770760366
 31
0.0
  0
TEXT
  5
2C6A1
330
2C925
100
AcDbEntity
  8
SUNPOU
100
AcDbText
 10
6734.143929657193
 20
7000.250485046082
 30
0.0
 40
90.0
  1
375
 50
90.0
 41
0.6666666666666666
  7
00
100
AcDbText
  0
LINE
  5
2C6A3
330
2C925
100
AcDbEntity
  8
SUNPOU
100
AcDbLine
 10
6779.143929657195
 20
7262.214770760365
 30
0.0
 11
6779.143929657195
 21
7250.964770760366
 31
0.0
  0
LINE
  5
2C6A5
330
2C925
100
AcDbEntity
  8
SUNPOU
100
AcDbLine
 10
6779.143929657195
 20
6909.714770760366
 30
0.0
 11
6779.143929657195
 21
6920.964770760368
 31
0.0
  0
TEXT
  5
2C6A6
330
2C925
100
AcDbEntity
  8
SUNPOU
100
AcDbText
 10
6734.143929657193
 20
6625.250485046082
 30
0.0
 40
90.0
  1
375
 50
90.0
 41
0.6666666666666666
  7
00
100
AcDbText
  0
LINE
  5
2C6A8
330
2C925
100
AcDbEntity
  8
SUNPOU
100
AcDbLine
 10
6779.143929657195
 20
6887.214770760365
 30
0.0
 11
6779.143929657195
 21
6875.964770760366
 31
0.0
  0
LINE
  5
2C6AA
330
2C925
100
AcDbEntity
  8
SUNPOU
100
AcDbLine
 10
6779.143929657195
 20
6534.714770760366
 30
0.0
 11
6779.143929657195
 21
6545.964770760368
 31
0.0
  0
TEXT
  5
2C6AB
330
2C925
100
AcDbEntity
  8
SUNPOU
100
AcDbText
 10
6524.143929657194
 20
6812.750485046082
 30
0.0
 40
90.0
  1
750
 50
90.0
 41
0.6666666666666666
  7
00
100
AcDbText
  0
LINE
  5
2C6AD
330
2C925
100
AcDbEntity
  8
SUNPOU
100
AcDbLine
 10
6569.143929657196
 20
6534.714770760366
 30
0.0
 11
6569.143929657196
 21
6545.964770760368
 31
0.0
  0
LINE
  5
2C6AF
330
2C925
100
AcDbEntity
  8
SUNPOU
100
AcDbLine
 10
6569.143929657196
 20
7262.214770760365
 30
0.0
 11
6569.143929657196
 21
7250.964770760366
 31
0.0
  0
TEXT
  5
2C6B0
330
2C925
100
AcDbEntity
  8
SUNPOU
100
AcDbText
 10
8109.143929657188
 20
5412.750485046081
 30
0.0
 40
90.0
  1
200
 50
90.0
 41
0.6666666666666666
  7
00
100
AcDbText
  0
LINE
  5
2C6B2
330
2C925
100
AcDbEntity
  8
SUNPOU
100
AcDbLine
 10
8154.143929657189
 20
5587.214770760364
 30
0.0
 11
8154.143929657189
 21
5575.964770760363
 31
0.0
  0
LINE
  5
2C6B4
330
2C925
100
AcDbEntity
  8
SUNPOU
100
AcDbLine
 10
8154.143929657189
 20
5409.714770760366
 30
0.0
 11
8154.143929657189
 21
5420.964770760367
 31
0.0
  0
TEXT
  5
2C6B5
330
2C925
100
AcDbEntity
  8
SUNPOU
100
AcDbText
 10
8109.143929657188
 20
5781.321913617508
 30
0.0
 40
90.0
  1
140
 50
90.0
 41
0.6666666666666666
  7
00
100
AcDbText
  0
LINE
  5
2C6B7
330
2C925
100
AcDbEntity
  8
SUNPOU
100
AcDbLine
 10
8154.143929657186
 20
5727.214770760364
 30
0.0
 11
8154.143929657186
 21
5715.964770760364
 31
0.0
  0
LINE
  5
2C6B9
330
2C925
100
AcDbEntity
  8
SUNPOU
100
AcDbLine
 10
8154.143929657186
 20
5609.714770760364
 30
0.0
 11
8154.143929657186
 21
5620.964770760362
 31
0.0
  0
TEXT
  5
2C6BA
330
2C925
100
AcDbEntity
  8
SUNPOU
100
AcDbText
 10
8109.143929657188
 20
5035.607627903225
 30
0.0
 40
90.0
  1
140
 50
90.0
 41
0.6666666666666666
  7
00
100
AcDbText
  0
LINE
  5
2C6BC
330
2C925
100
AcDbEntity
  8
SUNPOU
100
AcDbLine
 10
8154.143929657186
 20
5269.714770760366
 30
0.0
 11
8154.143929657186
 21
5280.964770760366
 31
0.0
  0
LINE
  5
2C6BE
330
2C925
100
AcDbEntity
  8
SUNPOU
100
AcDbLine
 10
8154.143929657186
 20
5387.214770760366
 30
0.0
 11
8154.143929657186
 21
5375.964770760366
 31
0.0
  0
TEXT
  5
2C6BF
330
2C925
100
AcDbEntity
  8
SUNPOU
100
AcDbText
 10
8319.143929657185
 20
4900.607627903224
 30
0.0
 40
90.0
  1
135
 50
90.0
 41
0.6666666666666666
  7
00
100
AcDbText
  0
LINE
  5
2C6C1
330
2C925
100
AcDbEntity
  8
SUNPOU
100
AcDbLine
 10
8364.143929657187
 20
5134.714770760366
 30
0.0
 11
8364.143929657187
 21
5145.964770760366
 31
0.0
  0
LINE
  5
2C6C3
330
2C925
100
AcDbEntity
  8
SUNPOU
100
AcDbLine
 10
8364.143929657187
 20
5247.214770760366
 30
0.0
 11
8364.143929657187
 21
5235.964770760366
 31
0.0
  0
TEXT
  5
2C6C4
330
2C925
100
AcDbEntity
  8
SUNPOU
100
AcDbText
 10
8319.143929657185
 20
5916.321913617509
 30
0.0
 40
90.0
  1
135
 50
90.0
 41
0.6666666666666666
  7
00
100
AcDbText
  0
LINE
  5
2C6C6
330
2C925
100
AcDbEntity
  8
SUNPOU
100
AcDbLine
 10
8364.143929657187
 20
5862.214770760367
 30
0.0
 11
8364.143929657187
 21
5850.964770760366
 31
0.0
  0
LINE
  5
2C6C8
330
2C925
100
AcDbEntity
  8
SUNPOU
100
AcDbLine
 10
8364.143929657187
 20
5749.714770760363
 30
0.0
 11
8364.143929657187
 21
5760.964770760363
 31
0.0
  0
TEXT
  5
2C6C9
330
2C925
100
AcDbEntity
  8
SUNPOU
100
AcDbText
 10
8319.143929657185
 20
5412.750485046081
 30
0.0
 40
90.0
  1
480
 50
90.0
 41
0.6666666666666666
  7
00
100
AcDbText
  0
LINE
  5
2C6CB
330
2C925
100
AcDbEntity
  8
SUNPOU
100
AcDbLine
 10
8364.143929657187
 20
5727.214770760364
 30
0.0
 11
8364.143929657187
 21
5715.964770760364
 31
0.0
  0
LINE
  5
2C6CD
330
2C925
100
AcDbEntity
  8
SUNPOU
100
AcDbLine
 10
8364.143929657187
 20
5269.714770760366
 30
0.0
 11
8364.143929657187
 21
5280.964770760366
 31
0.0
  0
TEXT
  5
2C6CE
330
2C925
100
AcDbEntity
  8
SUNPOU
100
AcDbText
 10
6734.143929657195
 20
5600.250485046083
 30
0.0
 40
90.0
  1
375
 50
90.0
 41
0.6666666666666666
  7
00
100
AcDbText
  0
LINE
  5
2C6D0
330
2C925
100
AcDbEntity
  8
SUNPOU
100
AcDbLine
 10
6779.143929657195
 20
5862.214770760367
 30
0.0
 11
6779.143929657195
 21
5850.964770760366
 31
0.0
  0
LINE
  5
2C6D2
330
2C925
100
AcDbEntity
  8
SUNPOU
100
AcDbLine
 10
6779.143929657195
 20
5509.714770760366
 30
0.0
 11
6779.143929657195
 21
5520.964770760366
 31
0.0
  0
TEXT
  5
2C6D3
330
2C925
100
AcDbEntity
  8
SUNPOU
100
AcDbText
 10
6734.143929657195
 20
5225.250485046083
 30
0.0
 40
90.0
  1
375
 50
90.0
 41
0.6666666666666666
  7
00
100
AcDbText
  0
LINE
  5
2C6D5
330
2C925
100
AcDbEntity
  8
SUNPOU
100
AcDbLine
 10
6779.143929657195
 20
5487.214770760367
 30
0.0
 11
6779.143929657195
 21
5475.964770760366
 31
0.0
  0
LINE
  5
2C6D7
330
2C925
100
AcDbEntity
  8
SUNPOU
100
AcDbLine
 10
6779.143929657195
 20
5134.714770760366
 30
0.0
 11
6779.143929657195
 21
5145.964770760366
 31
0.0
  0
TEXT
  5
2C6D8
330
2C925
100
AcDbEntity
  8
SUNPOU
100
AcDbText
 10
6524.143929657194
 20
5412.750485046083
 30
0.0
 40
90.0
  1
750
 50
90.0
 41
0.6666666666666666
  7
00
100
AcDbText
  0
LINE
  5
2C6DA
330
2C925
100
AcDbEntity
  8
SUNPOU
100
AcDbLine
 10
6569.143929657196
 20
5134.714770760366
 30
0.0
 11
6569.143929657196
 21
5145.964770760366
 31
0.0
  0
LINE
  5
2C6DC
330
2C925
100
AcDbEntity
  8
SUNPOU
100
AcDbLine
 10
6569.143929657196
 20
5862.214770760367
 30
0.0
 11
6569.143929657196
 21
5850.964770760366
 31
0.0
  0
TEXT
  5
2C6DD
330
2C925
100
AcDbEntity
  8
SUNPOU
100
AcDbText
 10
7568.429643942906
 20
4433.464770760363
 30
0.0
 40
90.0
  1
400
 41
0.6666666666666666
  7
00
100
AcDbText
  0
LINE
  5
2C6DF
330
2C925
100
AcDbEntity
  8
SUNPOU
100
AcDbLine
 10
7842.893929657186
 20
4388.464770760363
 30
0.0
 11
7831.643929657189
 21
4388.464770760363
 31
0.0
  0
LINE
  5
2C6E1
330
2C925
100
AcDbEntity
  8
SUNPOU
100
AcDbLine
 10
7465.393929657195
 20
4388.464770760363
 30
0.0
 11
7476.643929657196
 21
4388.464770760363
 31
0.0
  0
TEXT
  5
2C6E2
330
2C925
100
AcDbEntity
  8
SUNPOU
100
AcDbText
 10
5939.858215371479
 20
4433.464770760363
 30
0.0
 40
90.0
  1
2800
 41
0.6666666666666666
  7
00
100
AcDbText
  0
LINE
  5
2C6E4
330
2C925
100
AcDbEntity
  8
SUNPOU
100
AcDbLine
 10
7442.893929657195
 20
4388.464770760363
 30
0.0
 11
7431.643929657195
 21
4388.464770760363
 31
0.0
  0
LINE
  5
2C6E6
330
2C925
100
AcDbEntity
  8
SUNPOU
100
AcDbLine
 10
4665.393929657193
 20
4388.464770760363
 30
0.0
 11
4676.643929657195
 21
4388.464770760363
 31
0.0
  0
TEXT
  5
2C6E7
330
2C925
100
AcDbEntity
  8
SUNPOU
100
AcDbText
 10
4368.429643942908
 20
4433.464770760363
 30
0.0
 40
90.0
  1
400
 41
0.6666666666666666
  7
00
100
AcDbText
  0
LINE
  5
2C6E9
330
2C925
100
AcDbEntity
  8
SUNPOU
100
AcDbLine
 10
4642.893929657193
 20
4388.464770760363
 30
0.0
 11
4631.643929657193
 21
4388.464770760363
 31
0.0
  0
LINE
  5
2C6EB
330
2C925
100
AcDbEntity
  8
SUNPOU
100
AcDbLine
 10
4265.393929657193
 20
4388.464770760363
 30
0.0
 11
4276.643929657193
 21
4388.464770760363
 31
0.0
  0
TEXT
  5
2C6EC
330
2C925
100
AcDbEntity
  8
SUNPOU
100
AcDbText
 10
3759.143929657194
 20
6932.75048504608
 30
0.0
 40
90.0
  1
240
 50
90.0
 41
0.6666666666666666
  7
00
100
AcDbText
  0
LINE
  5
2C6EE
330
2C925
100
AcDbEntity
  8
SUNPOU
100
AcDbLine
 10
3804.143929657195
 20
7127.214770760364
 30
0.0
 11
3804.143929657195
 21
7115.964770760363
 31
0.0
  0
LINE
  5
2C6F0
330
2C925
100
AcDbEntity
  8
SUNPOU
100
AcDbLine
 10
3804.143929657195
 20
6909.714770760366
 30
0.0
 11
3804.143929657195
 21
6920.964770760368
 31
0.0
  0
TEXT
  5
2C6F1
330
2C925
100
AcDbEntity
  8
SUNPOU
100
AcDbText
 10
3759.143929657192
 20
6079.893342188938
 30
0.0
 40
90.0
  1
1400
 50
90.0
 41
0.6666666666666666
  7
00
100
AcDbText
  0
LINE
  5
2C6F3
330
2C925
100
AcDbEntity
  8
SUNPOU
100
AcDbLine
 10
3804.143929657194
 20
6887.214770760365
 30
0.0
 11
3804.143929657194
 21
6875.964770760366
 31
0.0
  0
LINE
  5
2C6F5
330
2C925
100
AcDbEntity
  8
SUNPOU
100
AcDbLine
 10
3804.143929657194
 20
5509.714770760366
 30
0.0
 11
3804.143929657194
 21
5520.964770760366
 31
0.0
  0
TEXT
  5
2C6F6
330
2C925
100
AcDbEntity
  8
SUNPOU
100
AcDbText
 10
3759.143929657192
 20
5111.321913617508
 30
0.0
 40
90.0
  1
600
 50
90.0
 41
0.6666666666666666
  7
00
100
AcDbText
  0
LINE
  5
2C6F8
330
2C925
100
AcDbEntity
  8
SUNPOU
100
AcDbLine
 10
3804.143929657194
 20
5487.214770760367
 30
0.0
 11
3804.143929657194
 21
5475.964770760366
 31
0.0
  0
LINE
  5
2C6FA
330
2C925
100
AcDbEntity
  8
SUNPOU
100
AcDbLine
 10
3804.143929657193
 20
4909.714770760364
 30
0.0
 11
3804.143929657193
 21
4920.964770760363
 31
0.0
  0
TEXT
  5
2C6FB
330
2C925
100
AcDbEntity
  8
SUNPOU
100
AcDbText
 10
3549.143929657193
 20
5904.179056474649
 30
0.0
 40
90.0
  1
2240
 50
90.0
 41
0.6666666666666666
  7
00
100
AcDbText
  0
LINE
  5
2C6FD
330
2C925
100
AcDbEntity
  8
SUNPOU
100
AcDbLine
 10
3594.143929657194
 20
7127.214770760364
 30
0.0
 11
3594.143929657194
 21
7115.964770760363
 31
0.0
  0
LINE
  5
2C6FF
330
2C925
100
AcDbEntity
  8
SUNPOU
100
AcDbLine
 10
3594.143929657192
 20
4909.714770760364
 30
0.0
 11
3594.143929657192
 21
4920.964770760363
 31
0.0
  0
ARC
  5
2C700
330
2C925
100
AcDbEntity
  8
SUNPOU
100
AcDbCircle
 10
2221.306080631058
 20
2680.744622954003
 30
0.0
 40
5.625
100
AcDbArc
 50
180.0
 51
0.0
  0
ARC
  5
2C701
330
2C925
100
AcDbEntity
  8
SUNPOU
100
AcDbCircle
 10
2221.306080631058
 20
2680.744622954003
 30
0.0
 40
5.625
100
AcDbArc
 50
0.0
 51
180.0
  0
ARC
  5
2C702
330
2C925
100
AcDbEntity
  8
SUNPOU
100
AcDbCircle
 10
1741.306080631058
 20
2680.744622954003
 30
0.0
 40
5.625
100
AcDbArc
 50
0.0
 51
180.0
  0
ARC
  5
2C703
330
2C925
100
AcDbEntity
  8
SUNPOU
100
AcDbCircle
 10
1741.306080631058
 20
2680.744622954003
 30
0.0
 40
5.625
100
AcDbArc
 50
180.0
 51
0.0
  0
ARC
  5
2C704
330
2C925
100
AcDbEntity
  8
SUNPOU
100
AcDbCircle
 10
6770.055546028491
 20
2255.744622954003
 30
0.0
 40
5.625
100
AcDbArc
 50
270.0
 51
90.0
  0
ARC
  5
2C705
330
2C925
100
AcDbEntity
  8
SUNPOU
100
AcDbCircle
 10
6770.055546028491
 20
2255.744622954003
 30
0.0
 40
5.625
100
AcDbArc
 50
90.0
 51
270.0
  0
ARC
  5
2C706
330
2C925
100
AcDbEntity
  8
SUNPOU
100
AcDbCircle
 10
6770.055546028491
 20
1505.744622954002
 30
0.0
 40
5.625
100
AcDbArc
 50
90.0
 51
270.0
  0
ARC
  5
2C707
330
2C925
100
AcDbEntity
  8
SUNPOU
100
AcDbCircle
 10
6770.055546028491
 20
1505.744622954002
 30
0.0
 40
5.625
100
AcDbArc
 50
270.0
 51
90.0
  0
ARC
  5
2C708
330
2C925
100
AcDbEntity
  8
SUNPOU
100
AcDbCircle
 10
6560.055546028491
 20
2120.744622954002
 30
0.0
 40
5.625
100
AcDbArc
 50
270.0
 51
90.0
  0
ARC
  5
2C709
330
2C925
100
AcDbEntity
  8
SUNPOU
100
AcDbCircle
 10
6560.055546028491
 20
2120.744622954002
 30
0.0
 40
5.625
100
AcDbArc
 50
90.0
 51
270.0
  0
ARC
  5
2C70A
330
2C925
100
AcDbEntity
  8
SUNPOU
100
AcDbCircle
 10
6560.055546028491
 20
1640.744622954002
 30
0.0
 40
5.625
100
AcDbArc
 50
90.0
 51
270.0
  0
ARC
  5
2C70B
330
2C925
100
AcDbEntity
  8
SUNPOU
100
AcDbCircle
 10
6560.055546028491
 20
1640.744622954002
 30
0.0
 40
5.625
100
AcDbArc
 50
270.0
 51
90.0
  0
ARC
  5
2C70C
330
2C925
100
AcDbEntity
  8
SUNPOU
100
AcDbCircle
 10
6050.055546028492
 20
1080.744622954002
 30
0.0
 40
5.625
100
AcDbArc
 50
180.0
 51
0.0
  0
ARC
  5
2C70D
330
2C925
100
AcDbEntity
  8
SUNPOU
100
AcDbCircle
 10
6050.055546028492
 20
1080.744622954002
 30
0.0
 40
5.625
100
AcDbArc
 50
0.0
 51
180.0
  0
ARC
  5
2C70E
330
2C925
100
AcDbEntity
  8
SUNPOU
100
AcDbCircle
 10
5570.05554602849
 20
1080.744622954002
 30
0.0
 40
5.625
100
AcDbArc
 50
0.0
 51
180.0
  0
ARC
  5
2C70F
330
2C925
100
AcDbEntity
  8
SUNPOU
100
AcDbCircle
 10
5570.05554602849
 20
1080.744622954002
 30
0.0
 40
5.625
100
AcDbArc
 50
180.0
 51
0.0
  0
ARC
  5
2C710
330
2C925
100
AcDbEntity
  8
SUNPOU
100
AcDbCircle
 10
6185.055546028491
 20
870.7446229540032
 30
0.0
 40
5.625
100
AcDbArc
 50
180.0
 51
0.0
  0
ARC
  5
2C711
330
2C925
100
AcDbEntity
  8
SUNPOU
100
AcDbCircle
 10
6185.055546028491
 20
870.7446229540032
 30
0.0
 40
5.625
100
AcDbArc
 50
0.0
 51
180.0
  0
ARC
  5
2C712
330
2C925
100
AcDbEntity
  8
SUNPOU
100
AcDbCircle
 10
5435.055546028491
 20
870.7446229540032
 30
0.0
 40
5.625
100
AcDbArc
 50
0.0
 51
180.0
  0
ARC
  5
2C713
330
2C925
100
AcDbEntity
  8
SUNPOU
100
AcDbCircle
 10
5435.055546028491
 20
870.7446229540032
 30
0.0
 40
5.625
100
AcDbArc
 50
180.0
 51
0.0
  0
ARC
  5
2C714
330
2C925
100
AcDbEntity
  8
SUNPOU
100
AcDbCircle
 10
2945.856080631056
 20
1460.744622954002
 30
0.0
 40
5.625
100
AcDbArc
 50
270.0
 51
90.0
  0
ARC
  5
2C715
330
2C925
100
AcDbEntity
  8
SUNPOU
100
AcDbCircle
 10
2945.856080631056
 20
1460.744622954002
 30
0.0
 40
5.625
100
AcDbArc
 50
90.0
 51
270.0
  0
ARC
  5
2C716
330
2C925
100
AcDbEntity
  8
SUNPOU
100
AcDbCircle
 10
2945.856080631056
 20
1510.744622954002
 30
0.0
 40
5.625
100
AcDbArc
 50
90.0
 51
270.0
  0
ARC
  5
2C717
330
2C925
100
AcDbEntity
  8
SUNPOU
100
AcDbCircle
 10
2945.856080631056
 20
1510.744622954002
 30
0.0
 40
5.625
100
AcDbArc
 50
270.0
 51
90.0
  0
ARC
  5
2C718
330
2C925
100
AcDbEntity
  8
SUNPOU
100
AcDbCircle
 10
2945.856080631056
 20
1360.744622954003
 30
0.0
 40
5.625
100
AcDbArc
 50
270.0
 51
90.0
  0
ARC
  5
2C719
330
2C925
100
AcDbEntity
  8
SUNPOU
100
AcDbCircle
 10
2945.856080631056
 20
1360.744622954003
 30
0.0
 40
5.625
100
AcDbArc
 50
90.0
 51
270.0
  0
ARC
  5
2C71A
330
2C925
100
AcDbEntity
  8
SUNPOU
100
AcDbCircle
 10
2945.856080631056
 20
1460.744622954002
 30
0.0
 40
5.625
100
AcDbArc
 50
90.0
 51
270.0
  0
ARC
  5
2C71B
330
2C925
100
AcDbEntity
  8
SUNPOU
100
AcDbCircle
 10
2945.856080631056
 20
1460.744622954002
 30
0.0
 40
5.625
100
AcDbArc
 50
270.0
 51
90.0
  0
ARC
  5
2C71C
330
2C925
100
AcDbEntity
  8
SUNPOU
100
AcDbCircle
 10
2945.856080631056
 20
1510.744622954002
 30
0.0
 40
5.625
100
AcDbArc
 50
90.0
 51
270.0
  0
ARC
  5
2C71D
330
2C925
100
AcDbEntity
  8
SUNPOU
100
AcDbCircle
 10
2945.856080631056
 20
1510.744622954002
 30
0.0
 40
5.625
100
AcDbArc
 50
270.0
 51
90.0
  0
ARC
  5
2C71E
330
2C925
100
AcDbEntity
  8
SUNPOU
100
AcDbCircle
 10
2945.856080631056
 20
1990.744622954002
 30
0.0
 40
5.625
100
AcDbArc
 50
270.0
 51
90.0
  0
ARC
  5
2C71F
330
2C925
100
AcDbEntity
  8
SUNPOU
100
AcDbCircle
 10
2945.856080631056
 20
1990.744622954002
 30
0.0
 40
5.625
100
AcDbArc
 50
90.0
 51
270.0
  0
ARC
  5
2C720
330
2C925
100
AcDbEntity
  8
SUNPOU
100
AcDbCircle
 10
2945.856080631056
 20
2140.744622954005
 30
0.0
 40
5.625
100
AcDbArc
 50
270.0
 51
90.0
  0
ARC
  5
2C721
330
2C925
100
AcDbEntity
  8
SUNPOU
100
AcDbCircle
 10
2945.856080631056
 20
2140.744622954005
 30
0.0
 40
5.625
100
AcDbArc
 50
90.0
 51
270.0
  0
ARC
  5
2C722
330
2C925
100
AcDbEntity
  8
SUNPOU
100
AcDbCircle
 10
2945.856080631056
 20
1990.744622954002
 30
0.0
 40
5.625
100
AcDbArc
 50
90.0
 51
270.0
  0
ARC
  5
2C723
330
2C925
100
AcDbEntity
  8
SUNPOU
100
AcDbCircle
 10
2945.856080631056
 20
1990.744622954002
 30
0.0
 40
5.625
100
AcDbArc
 50
270.0
 51
90.0
  0
ARC
  5
2C724
330
2C925
100
AcDbEntity
  8
SUNPOU
100
AcDbCircle
 10
2356.306080631059
 20
870.7446229540032
 30
0.0
 40
5.625
100
AcDbArc
 50
180.0
 51
0.0
  0
ARC
  5
2C725
330
2C925
100
AcDbEntity
  8
SUNPOU
100
AcDbCircle
 10
2356.306080631059
 20
870.7446229540032
 30
0.0
 40
5.625
100
AcDbArc
 50
0.0
 51
180.0
  0
ARC
  5
2C726
330
2C925
100
AcDbEntity
  8
SUNPOU
100
AcDbCircle
 10
1606.306080631058
 20
870.7446229540032
 30
0.0
 40
5.625
100
AcDbArc
 50
0.0
 51
180.0
  0
ARC
  5
2C727
330
2C925
100
AcDbEntity
  8
SUNPOU
100
AcDbCircle
 10
1606.306080631058
 20
870.7446229540032
 30
0.0
 40
5.625
100
AcDbArc
 50
180.0
 51
0.0
  0
ARC
  5
2C728
330
2C925
100
AcDbEntity
  8
SUNPOU
100
AcDbCircle
 10
1981.306080631058
 20
1080.744622954002
 30
0.0
 40
5.625
100
AcDbArc
 50
0.0
 51
180.0
  0
ARC
  5
2C729
330
2C925
100
AcDbEntity
  8
SUNPOU
100
AcDbCircle
 10
1981.306080631058
 20
1080.744622954002
 30
0.0
 40
5.625
100
AcDbArc
 50
180.0
 51
0.0
  0
ARC
  5
2C72A
330
2C925
100
AcDbEntity
  8
SUNPOU
100
AcDbCircle
 10
2356.306080631059
 20
1080.744622954002
 30
0.0
 40
5.625
100
AcDbArc
 50
180.0
 51
0.0
  0
ARC
  5
2C72B
330
2C925
100
AcDbEntity
  8
SUNPOU
100
AcDbCircle
 10
2356.306080631059
 20
1080.744622954002
 30
0.0
 40
5.625
100
AcDbArc
 50
0.0
 51
180.0
  0
ARC
  5
2C72C
330
2C925
100
AcDbEntity
  8
SUNPOU
100
AcDbCircle
 10
1981.306080631058
 20
1080.744622954002
 30
0.0
 40
5.625
100
AcDbArc
 50
180.0
 51
0.0
  0
ARC
  5
2C72D
330
2C925
100
AcDbEntity
  8
SUNPOU
100
AcDbCircle
 10
1981.306080631058
 20
1080.744622954002
 30
0.0
 40
5.625
100
AcDbArc
 50
0.0
 51
180.0
  0
ARC
  5
2C72E
330
2C925
100
AcDbEntity
  8
SUNPOU
100
AcDbCircle
 10
1606.306080631058
 20
1080.744622954002
 30
0.0
 40
5.625
100
AcDbArc
 50
0.0
 51
180.0
  0
ARC
  5
2C72F
330
2C925
100
AcDbEntity
  8
SUNPOU
100
AcDbCircle
 10
1606.306080631058
 20
1080.744622954002
 30
0.0
 40
5.625
100
AcDbArc
 50
180.0
 51
0.0
  0
ARC
  5
2C730
330
2C925
100
AcDbEntity
  8
SUNPOU
100
AcDbCircle
 10
8154.143929657189
 20
6998.464770760364
 30
0.0
 40
5.625
100
AcDbArc
 50
270.0
 51
90.0
  0
ARC
  5
2C731
330
2C925
100
AcDbEntity
  8
SUNPOU
100
AcDbCircle
 10
8154.143929657189
 20
6998.464770760364
 30
0.0
 40
5.625
100
AcDbArc
 50
90.0
 51
270.0
  0
ARC
  5
2C732
330
2C925
100
AcDbEntity
  8
SUNPOU
100
AcDbCircle
 10
8154.143929657189
 20
6798.464770760367
 30
0.0
 40
5.625
100
AcDbArc
 50
90.0
 51
270.0
  0
ARC
  5
2C733
330
2C925
100
AcDbEntity
  8
SUNPOU
100
AcDbCircle
 10
8154.143929657189
 20
6798.464770760367
 30
0.0
 40
5.625
100
AcDbArc
 50
270.0
 51
90.0
  0
ARC
  5
2C734
330
2C925
100
AcDbEntity
  8
SUNPOU
100
AcDbCircle
 10
8154.143929657186
 20
7138.464770760363
 30
0.0
 40
5.625
100
AcDbArc
 50
270.0
 51
90.0
  0
ARC
  5
2C735
330
2C925
100
AcDbEntity
  8
SUNPOU
100
AcDbCircle
 10
8154.143929657186
 20
7138.464770760363
 30
0.0
 40
5.625
100
AcDbArc
 50
90.0
 51
270.0
  0
ARC
  5
2C736
330
2C925
100
AcDbEntity
  8
SUNPOU
100
AcDbCircle
 10
8154.143929657186
 20
6998.464770760364
 30
0.0
 40
5.625
100
AcDbArc
 50
90.0
 51
270.0
  0
ARC
  5
2C737
330
2C925
100
AcDbEntity
  8
SUNPOU
100
AcDbCircle
 10
8154.143929657186
 20
6998.464770760364
 30
0.0
 40
5.625
100
AcDbArc
 50
270.0
 51
90.0
  0
ARC
  5
2C738
330
2C925
100
AcDbEntity
  8
SUNPOU
100
AcDbCircle
 10
8154.143929657186
 20
6658.464770760367
 30
0.0
 40
5.625
100
AcDbArc
 50
90.0
 51
270.0
  0
ARC
  5
2C739
330
2C925
100
AcDbEntity
  8
SUNPOU
100
AcDbCircle
 10
8154.143929657186
 20
6658.464770760367
 30
0.0
 40
5.625
100
AcDbArc
 50
270.0
 51
90.0
  0
ARC
  5
2C73A
330
2C925
100
AcDbEntity
  8
SUNPOU
100
AcDbCircle
 10
8154.143929657186
 20
6798.464770760367
 30
0.0
 40
5.625
100
AcDbArc
 50
270.0
 51
90.0
  0
ARC
  5
2C73B
330
2C925
100
AcDbEntity
  8
SUNPOU
100
AcDbCircle
 10
8154.143929657186
 20
6798.464770760367
 30
0.0
 40
5.625
100
AcDbArc
 50
90.0
 51
270.0
  0
ARC
  5
2C73C
330
2C925
100
AcDbEntity
  8
SUNPOU
100
AcDbCircle
 10
8364.143929657187
 20
6523.464770760367
 30
0.0
 40
5.625
100
AcDbArc
 50
90.0
 51
270.0
  0
ARC
  5
2C73D
330
2C925
100
AcDbEntity
  8
SUNPOU
100
AcDbCircle
 10
8364.143929657187
 20
6523.464770760367
 30
0.0
 40
5.625
100
AcDbArc
 50
270.0
 51
90.0
  0
ARC
  5
2C73E
330
2C925
100
AcDbEntity
  8
SUNPOU
100
AcDbCircle
 10
8364.143929657187
 20
6658.464770760367
 30
0.0
 40
5.625
100
AcDbArc
 50
270.0
 51
90.0
  0
ARC
  5
2C73F
330
2C925
100
AcDbEntity
  8
SUNPOU
100
AcDbCircle
 10
8364.143929657187
 20
6658.464770760367
 30
0.0
 40
5.625
100
AcDbArc
 50
90.0
 51
270.0
  0
ARC
  5
2C740
330
2C925
100
AcDbEntity
  8
SUNPOU
100
AcDbCircle
 10
8364.143929657187
 20
7273.464770760367
 30
0.0
 40
5.625
100
AcDbArc
 50
270.0
 51
90.0
  0
ARC
  5
2C741
330
2C925
100
AcDbEntity
  8
SUNPOU
100
AcDbCircle
 10
8364.143929657187
 20
7273.464770760367
 30
0.0
 40
5.625
100
AcDbArc
 50
90.0
 51
270.0
  0
ARC
  5
2C742
330
2C925
100
AcDbEntity
  8
SUNPOU
100
AcDbCircle
 10
8364.143929657187
 20
7138.464770760363
 30
0.0
 40
5.625
100
AcDbArc
 50
90.0
 51
270.0
  0
ARC
  5
2C743
330
2C925
100
AcDbEntity
  8
SUNPOU
100
AcDbCircle
 10
8364.143929657187
 20
7138.464770760363
 30
0.0
 40
5.625
100
AcDbArc
 50
270.0
 51
90.0
  0
ARC
  5
2C744
330
2C925
100
AcDbEntity
  8
SUNPOU
100
AcDbCircle
 10
8364.143929657187
 20
7138.464770760363
 30
0.0
 40
5.625
100
AcDbArc
 50
270.0
 51
90.0
  0
ARC
  5
2C745
330
2C925
100
AcDbEntity
  8
SUNPOU
100
AcDbCircle
 10
8364.143929657187
 20
7138.464770760363
 30
0.0
 40
5.625
100
AcDbArc
 50
90.0
 51
270.0
  0
ARC
  5
2C746
330
2C925
100
AcDbEntity
  8
SUNPOU
100
AcDbCircle
 10
8364.143929657187
 20
6658.464770760367
 30
0.0
 40
5.625
100
AcDbArc
 50
90.0
 51
270.0
  0
ARC
  5
2C747
330
2C925
100
AcDbEntity
  8
SUNPOU
100
AcDbCircle
 10
8364.143929657187
 20
6658.464770760367
 30
0.0
 40
5.625
100
AcDbArc
 50
270.0
 51
90.0
  0
ARC
  5
2C748
330
2C925
100
AcDbEntity
  8
SUNPOU
100
AcDbCircle
 10
6779.143929657195
 20
7273.464770760367
 30
0.0
 40
5.625
100
AcDbArc
 50
270.0
 51
90.0
  0
ARC
  5
2C749
330
2C925
100
AcDbEntity
  8
SUNPOU
100
AcDbCircle
 10
6779.143929657195
 20
7273.464770760367
 30
0.0
 40
5.625
100
AcDbArc
 50
90.0
 51
270.0
  0
ARC
  5
2C74A
330
2C925
100
AcDbEntity
  8
SUNPOU
100
AcDbCircle
 10
6779.143929657195
 20
6898.464770760367
 30
0.0
 40
5.625
100
AcDbArc
 50
90.0
 51
270.0
  0
ARC
  5
2C74B
330
2C925
100
AcDbEntity
  8
SUNPOU
100
AcDbCircle
 10
6779.143929657195
 20
6898.464770760367
 30
0.0
 40
5.625
100
AcDbArc
 50
270.0
 51
90.0
  0
ARC
  5
2C74C
330
2C925
100
AcDbEntity
  8
SUNPOU
100
AcDbCircle
 10
6779.143929657195
 20
6898.464770760367
 30
0.0
 40
5.625
100
AcDbArc
 50
270.0
 51
90.0
  0
ARC
  5
2C74D
330
2C925
100
AcDbEntity
  8
SUNPOU
100
AcDbCircle
 10
6779.143929657195
 20
6898.464770760367
 30
0.0
 40
5.625
100
AcDbArc
 50
90.0
 51
270.0
  0
ARC
  5
2C74E
330
2C925
100
AcDbEntity
  8
SUNPOU
100
AcDbCircle
 10
6779.143929657195
 20
6523.464770760367
 30
0.0
 40
5.625
100
AcDbArc
 50
90.0
 51
270.0
  0
ARC
  5
2C74F
330
2C925
100
AcDbEntity
  8
SUNPOU
100
AcDbCircle
 10
6779.143929657195
 20
6523.464770760367
 30
0.0
 40
5.625
100
AcDbArc
 50
270.0
 51
90.0
  0
ARC
  5
2C750
330
2C925
100
AcDbEntity
  8
SUNPOU
100
AcDbCircle
 10
6569.143929657196
 20
6523.464770760367
 30
0.0
 40
5.625
100
AcDbArc
 50
90.0
 51
270.0
  0
ARC
  5
2C751
330
2C925
100
AcDbEntity
  8
SUNPOU
100
AcDbCircle
 10
6569.143929657196
 20
6523.464770760367
 30
0.0
 40
5.625
100
AcDbArc
 50
270.0
 51
90.0
  0
ARC
  5
2C752
330
2C925
100
AcDbEntity
  8
SUNPOU
100
AcDbCircle
 10
6569.143929657196
 20
7273.464770760367
 30
0.0
 40
5.625
100
AcDbArc
 50
270.0
 51
90.0
  0
ARC
  5
2C753
330
2C925
100
AcDbEntity
  8
SUNPOU
100
AcDbCircle
 10
6569.143929657196
 20
7273.464770760367
 30
0.0
 40
5.625
100
AcDbArc
 50
90.0
 51
270.0
  0
ARC
  5
2C754
330
2C925
100
AcDbEntity
  8
SUNPOU
100
AcDbCircle
 10
8154.143929657189
 20
5598.464770760362
 30
0.0
 40
5.625
100
AcDbArc
 50
270.0
 51
90.0
  0
ARC
  5
2C755
330
2C925
100
AcDbEntity
  8
SUNPOU
100
AcDbCircle
 10
8154.143929657189
 20
5598.464770760362
 30
0.0
 40
5.625
100
AcDbArc
 50
90.0
 51
270.0
  0
ARC
  5
2C756
330
2C925
100
AcDbEntity
  8
SUNPOU
100
AcDbCircle
 10
8154.143929657189
 20
5398.464770760366
 30
0.0
 40
5.625
100
AcDbArc
 50
90.0
 51
270.0
  0
ARC
  5
2C757
330
2C925
100
AcDbEntity
  8
SUNPOU
100
AcDbCircle
 10
8154.143929657189
 20
5398.464770760366
 30
0.0
 40
5.625
100
AcDbArc
 50
270.0
 51
90.0
  0
ARC
  5
2C758
330
2C925
100
AcDbEntity
  8
SUNPOU
100
AcDbCircle
 10
8154.143929657186
 20
5738.464770760362
 30
0.0
 40
5.625
100
AcDbArc
 50
270.0
 51
90.0
  0
ARC
  5
2C759
330
2C925
100
AcDbEntity
  8
SUNPOU
100
AcDbCircle
 10
8154.143929657186
 20
5738.464770760362
 30
0.0
 40
5.625
100
AcDbArc
 50
90.0
 51
270.0
  0
ARC
  5
2C75A
330
2C925
100
AcDbEntity
  8
SUNPOU
100
AcDbCircle
 10
8154.143929657186
 20
5598.464770760362
 30
0.0
 40
5.625
100
AcDbArc
 50
90.0
 51
270.0
  0
ARC
  5
2C75B
330
2C925
100
AcDbEntity
  8
SUNPOU
100
AcDbCircle
 10
8154.143929657186
 20
5598.464770760362
 30
0.0
 40
5.625
100
AcDbArc
 50
270.0
 51
90.0
  0
ARC
  5
2C75C
330
2C925
100
AcDbEntity
  8
SUNPOU
100
AcDbCircle
 10
8154.143929657186
 20
5258.464770760366
 30
0.0
 40
5.625
100
AcDbArc
 50
90.0
 51
270.0
  0
ARC
  5
2C75D
330
2C925
100
AcDbEntity
  8
SUNPOU
100
AcDbCircle
 10
8154.143929657186
 20
5258.464770760366
 30
0.0
 40
5.625
100
AcDbArc
 50
270.0
 51
90.0
  0
ARC
  5
2C75E
330
2C925
100
AcDbEntity
  8
SUNPOU
100
AcDbCircle
 10
8154.143929657186
 20
5398.464770760366
 30
0.0
 40
5.625
100
AcDbArc
 50
270.0
 51
90.0
  0
ARC
  5
2C75F
330
2C925
100
AcDbEntity
  8
SUNPOU
100
AcDbCircle
 10
8154.143929657186
 20
5398.464770760366
 30
0.0
 40
5.625
100
AcDbArc
 50
90.0
 51
270.0
  0
ARC
  5
2C760
330
2C925
100
AcDbEntity
  8
SUNPOU
100
AcDbCircle
 10
8364.143929657187
 20
5123.464770760366
 30
0.0
 40
5.625
100
AcDbArc
 50
90.0
 51
270.0
  0
ARC
  5
2C761
330
2C925
100
AcDbEntity
  8
SUNPOU
100
AcDbCircle
 10
8364.143929657187
 20
5123.464770760366
 30
0.0
 40
5.625
100
AcDbArc
 50
270.0
 51
90.0
  0
ARC
  5
2C762
330
2C925
100
AcDbEntity
  8
SUNPOU
100
AcDbCircle
 10
8364.143929657187
 20
5258.464770760366
 30
0.0
 40
5.625
100
AcDbArc
 50
270.0
 51
90.0
  0
ARC
  5
2C763
330
2C925
100
AcDbEntity
  8
SUNPOU
100
AcDbCircle
 10
8364.143929657187
 20
5258.464770760366
 30
0.0
 40
5.625
100
AcDbArc
 50
90.0
 51
270.0
  0
ARC
  5
2C764
330
2C925
100
AcDbEntity
  8
SUNPOU
100
AcDbCircle
 10
8364.143929657187
 20
5873.464770760366
 30
0.0
 40
5.625
100
AcDbArc
 50
270.0
 51
90.0
  0
ARC
  5
2C765
330
2C925
100
AcDbEntity
  8
SUNPOU
100
AcDbCircle
 10
8364.143929657187
 20
5873.464770760366
 30
0.0
 40
5.625
100
AcDbArc
 50
90.0
 51
270.0
  0
ARC
  5
2C766
330
2C925
100
AcDbEntity
  8
SUNPOU
100
AcDbCircle
 10
8364.143929657187
 20
5738.464770760362
 30
0.0
 40
5.625
100
AcDbArc
 50
90.0
 51
270.0
  0
ARC
  5
2C767
330
2C925
100
AcDbEntity
  8
SUNPOU
100
AcDbCircle
 10
8364.143929657187
 20
5738.464770760362
 30
0.0
 40
5.625
100
AcDbArc
 50
270.0
 51
90.0
  0
ARC
  5
2C768
330
2C925
100
AcDbEntity
  8
SUNPOU
100
AcDbCircle
 10
8364.143929657187
 20
5738.464770760362
 30
0.0
 40
5.625
100
AcDbArc
 50
270.0
 51
90.0
  0
ARC
  5
2C769
330
2C925
100
AcDbEntity
  8
SUNPOU
100
AcDbCircle
 10
8364.143929657187
 20
5738.464770760362
 30
0.0
 40
5.625
100
AcDbArc
 50
90.0
 51
270.0
  0
ARC
  5
2C76A
330
2C925
100
AcDbEntity
  8
SUNPOU
100
AcDbCircle
 10
8364.143929657187
 20
5258.464770760366
 30
0.0
 40
5.625
100
AcDbArc
 50
90.0
 51
270.0
  0
ARC
  5
2C76B
330
2C925
100
AcDbEntity
  8
SUNPOU
100
AcDbCircle
 10
8364.143929657187
 20
5258.464770760366
 30
0.0
 40
5.625
100
AcDbArc
 50
270.0
 51
90.0
  0
ARC
  5
2C76C
330
2C925
100
AcDbEntity
  8
SUNPOU
100
AcDbCircle
 10
6779.143929657195
 20
5873.464770760366
 30
0.0
 40
5.625
100
AcDbArc
 50
270.0
 51
90.0
  0
ARC
  5
2C76D
330
2C925
100
AcDbEntity
  8
SUNPOU
100
AcDbCircle
 10
6779.143929657195
 20
5873.464770760366
 30
0.0
 40
5.625
100
AcDbArc
 50
90.0
 51
270.0
  0
ARC
  5
2C76E
330
2C925
100
AcDbEntity
  8
SUNPOU
100
AcDbCircle
 10
6779.143929657195
 20
5498.464770760366
 30
0.0
 40
5.625
100
AcDbArc
 50
90.0
 51
270.0
  0
ARC
  5
2C76F
330
2C925
100
AcDbEntity
  8
SUNPOU
100
AcDbCircle
 10
6779.143929657195
 20
5498.464770760366
 30
0.0
 40
5.625
100
AcDbArc
 50
270.0
 51
90.0
  0
ARC
  5
2C770
330
2C925
100
AcDbEntity
  8
SUNPOU
100
AcDbCircle
 10
6779.143929657195
 20
5498.464770760366
 30
0.0
 40
5.625
100
AcDbArc
 50
270.0
 51
90.0
  0
ARC
  5
2C771
330
2C925
100
AcDbEntity
  8
SUNPOU
100
AcDbCircle
 10
6779.143929657195
 20
5498.464770760366
 30
0.0
 40
5.625
100
AcDbArc
 50
90.0
 51
270.0
  0
ARC
  5
2C772
330
2C925
100
AcDbEntity
  8
SUNPOU
100
AcDbCircle
 10
6779.143929657195
 20
5123.464770760366
 30
0.0
 40
5.625
100
AcDbArc
 50
90.0
 51
270.0
  0
ARC
  5
2C773
330
2C925
100
AcDbEntity
  8
SUNPOU
100
AcDbCircle
 10
6779.143929657195
 20
5123.464770760366
 30
0.0
 40
5.625
100
AcDbArc
 50
270.0
 51
90.0
  0
ARC
  5
2C774
330
2C925
100
AcDbEntity
  8
SUNPOU
100
AcDbCircle
 10
6569.143929657196
 20
5123.464770760366
 30
0.0
 40
5.625
100
AcDbArc
 50
90.0
 51
270.0
  0
ARC
  5
2C775
330
2C925
100
AcDbEntity
  8
SUNPOU
100
AcDbCircle
 10
6569.143929657196
 20
5123.464770760366
 30
0.0
 40
5.625
100
AcDbArc
 50
270.0
 51
90.0
  0
ARC
  5
2C776
330
2C925
100
AcDbEntity
  8
SUNPOU
100
AcDbCircle
 10
6569.143929657196
 20
5873.464770760366
 30
0.0
 40
5.625
100
AcDbArc
 50
270.0
 51
90.0
  0
ARC
  5
2C777
330
2C925
100
AcDbEntity
  8
SUNPOU
100
AcDbCircle
 10
6569.143929657196
 20
5873.464770760366
 30
0.0
 40
5.625
100
AcDbArc
 50
90.0
 51
270.0
  0
ARC
  5
2C778
330
2C925
100
AcDbEntity
  8
SUNPOU
100
AcDbCircle
 10
7854.143929657187
 20
4388.464770760363
 30
0.0
 40
5.625
100
AcDbArc
 50
180.0
 51
0.0
  0
ARC
  5
2C779
330
2C925
100
AcDbEntity
  8
SUNPOU
100
AcDbCircle
 10
7854.143929657187
 20
4388.464770760363
 30
0.0
 40
5.625
100
AcDbArc
 50
0.0
 51
180.0
  0
ARC
  5
2C77A
330
2C925
100
AcDbEntity
  8
SUNPOU
100
AcDbCircle
 10
7454.143929657195
 20
4388.464770760363
 30
0.0
 40
5.625
100
AcDbArc
 50
0.0
 51
180.0
  0
ARC
  5
2C77B
330
2C925
100
AcDbEntity
  8
SUNPOU
100
AcDbCircle
 10
7454.143929657195
 20
4388.464770760363
 30
0.0
 40
5.625
100
AcDbArc
 50
180.0
 51
0.0
  0
ARC
  5
2C77C
330
2C925
100
AcDbEntity
  8
SUNPOU
100
AcDbCircle
 10
7454.143929657195
 20
4388.464770760363
 30
0.0
 40
5.625
100
AcDbArc
 50
180.0
 51
0.0
  0
ARC
  5
2C77D
330
2C925
100
AcDbEntity
  8
SUNPOU
100
AcDbCircle
 10
7454.143929657195
 20
4388.464770760363
 30
0.0
 40
5.625
100
AcDbArc
 50
0.0
 51
180.0
  0
ARC
  5
2C77E
330
2C925
100
AcDbEntity
  8
SUNPOU
100
AcDbCircle
 10
4654.143929657194
 20
4388.464770760363
 30
0.0
 40
5.625
100
AcDbArc
 50
0.0
 51
180.0
  0
ARC
  5
2C77F
330
2C925
100
AcDbEntity
  8
SUNPOU
100
AcDbCircle
 10
4654.143929657194
 20
4388.464770760363
 30
0.0
 40
5.625
100
AcDbArc
 50
180.0
 51
0.0
  0
ARC
  5
2C780
330
2C925
100
AcDbEntity
  8
SUNPOU
100
AcDbCircle
 10
4654.143929657194
 20
4388.464770760363
 30
0.0
 40
5.625
100
AcDbArc
 50
180.0
 51
0.0
  0
ARC
  5
2C781
330
2C925
100
AcDbEntity
  8
SUNPOU
100
AcDbCircle
 10
4654.143929657194
 20
4388.464770760363
 30
0.0
 40
5.625
100
AcDbArc
 50
0.0
 51
180.0
  0
ARC
  5
2C782
330
2C925
100
AcDbEntity
  8
SUNPOU
100
AcDbCircle
 10
4254.143929657193
 20
4388.464770760363
 30
0.0
 40
5.625
100
AcDbArc
 50
0.0
 51
180.0
  0
ARC
  5
2C783
330
2C925
100
AcDbEntity
  8
SUNPOU
100
AcDbCircle
 10
4254.143929657193
 20
4388.464770760363
 30
0.0
 40
5.625
100
AcDbArc
 50
180.0
 51
0.0
  0
ARC
  5
2C784
330
2C925
100
AcDbEntity
  8
SUNPOU
100
AcDbCircle
 10
3804.143929657195
 20
7138.464770760363
 30
0.0
 40
5.625
100
AcDbArc
 50
270.0
 51
90.0
  0
ARC
  5
2C785
330
2C925
100
AcDbEntity
  8
SUNPOU
100
AcDbCircle
 10
3804.143929657195
 20
7138.464770760363
 30
0.0
 40
5.625
100
AcDbArc
 50
90.0
 51
270.0
  0
ARC
  5
2C786
330
2C925
100
AcDbEntity
  8
SUNPOU
100
AcDbCircle
 10
3804.143929657195
 20
6898.464770760367
 30
0.0
 40
5.625
100
AcDbArc
 50
90.0
 51
270.0
  0
ARC
  5
2C787
330
2C925
100
AcDbEntity
  8
SUNPOU
100
AcDbCircle
 10
3804.143929657195
 20
6898.464770760367
 30
0.0
 40
5.625
100
AcDbArc
 50
270.0
 51
90.0
  0
ARC
  5
2C788
330
2C925
100
AcDbEntity
  8
SUNPOU
100
AcDbCircle
 10
3804.143929657194
 20
6898.464770760367
 30
0.0
 40
5.625
100
AcDbArc
 50
270.0
 51
90.0
  0
ARC
  5
2C789
330
2C925
100
AcDbEntity
  8
SUNPOU
100
AcDbCircle
 10
3804.143929657194
 20
6898.464770760367
 30
0.0
 40
5.625
100
AcDbArc
 50
90.0
 51
270.0
  0
ARC
  5
2C78A
330
2C925
100
AcDbEntity
  8
SUNPOU
100
AcDbCircle
 10
3804.143929657194
 20
5498.464770760366
 30
0.0
 40
5.625
100
AcDbArc
 50
90.0
 51
270.0
  0
ARC
  5
2C78B
330
2C925
100
AcDbEntity
  8
SUNPOU
100
AcDbCircle
 10
3804.143929657194
 20
5498.464770760366
 30
0.0
 40
5.625
100
AcDbArc
 50
270.0
 51
90.0
  0
ARC
  5
2C78C
330
2C925
100
AcDbEntity
  8
SUNPOU
100
AcDbCircle
 10
3804.143929657194
 20
5498.464770760366
 30
0.0
 40
5.625
100
AcDbArc
 50
270.0
 51
90.0
  0
ARC
  5
2C78D
330
2C925
100
AcDbEntity
  8
SUNPOU
100
AcDbCircle
 10
3804.143929657194
 20
5498.464770760366
 30
0.0
 40
5.625
100
AcDbArc
 50
90.0
 51
270.0
  0
ARC
  5
2C78E
330
2C925
100
AcDbEntity
  8
SUNPOU
100
AcDbCircle
 10
3804.143929657193
 20
4898.464770760362
 30
0.0
 40
5.625
100
AcDbArc
 50
90.0
 51
270.0
  0
ARC
  5
2C78F
330
2C925
100
AcDbEntity
  8
SUNPOU
100
AcDbCircle
 10
3804.143929657193
 20
4898.464770760362
 30
0.0
 40
5.625
100
AcDbArc
 50
270.0
 51
90.0
  0
ARC
  5
2C790
330
2C925
100
AcDbEntity
  8
SUNPOU
100
AcDbCircle
 10
3594.143929657194
 20
7138.464770760363
 30
0.0
 40
5.625
100
AcDbArc
 50
270.0
 51
90.0
  0
ARC
  5
2C791
330
2C925
100
AcDbEntity
  8
SUNPOU
100
AcDbCircle
 10
3594.143929657194
 20
7138.464770760363
 30
0.0
 40
5.625
100
AcDbArc
 50
90.0
 51
270.0
  0
ARC
  5
2C792
330
2C925
100
AcDbEntity
  8
SUNPOU
100
AcDbCircle
 10
3594.143929657192
 20
4898.464770760362
 30
0.0
 40
5.625
100
AcDbArc
 50
90.0
 51
270.0
  0
ARC
  5
2C793
330
2C925
100
AcDbEntity
  8
SUNPOU
100
AcDbCircle
 10
3594.143929657192
 20
4898.464770760362
 30
0.0
 40
5.625
100
AcDbArc
 50
270.0
 51
90.0
  0
ARC
  5
2C7A3
330
2C925
100
AcDbEntity
  8
HIKIDASHI
100
AcDbCircle
 10
6558.471269090353
 20
7568.849499283142
 30
0.0
 40
74.66417910444737
100
AcDbArc
 50
164.8596129851194
 51
237.5045002941262
  0
ARC
  5
2C7A4
330
2C925
100
AcDbEntity
  8
HIKIDASHI
100
AcDbCircle
 10
6495.04747504411
 20
7586.010522767607
 30
0.0
 40
8.959701492533691
100
AcDbArc
 50
15.14038701506339
 51
164.8596129849925
  0
ARC
  5
2C7A6
330
2C925
100
AcDbEntity
  8
HIKIDASHI
100
AcDbCircle
 10
3875.831194523087
 20
2811.129351476779
 30
0.0
 40
74.66417910444737
100
AcDbArc
 50
164.8596129850839
 51
237.5045002941419
  0
ARC
  5
2C7A7
330
2C925
100
AcDbEntity
  8
HIKIDASHI
100
AcDbCircle
 10
3812.407400476846
 20
2828.290374961246
 30
0.0
 40
8.959701492533691
100
AcDbArc
 50
15.14038701503544
 51
164.8596129849645
  0
LINE
  5
2C7A8
330
2C925
100
AcDbEntity
  8
HIKIDASHI
100
AcDbLine
 10
2076.903124189239
 20
1557.080229418233
 30
0.0
 11
2813.54893349964
 21
756.040606718153
 31
0.0
1001
ACAD
1000
DSTYLE
1002
{
1070
   147
1040
1.5
1070
    77
1070
     0
1002
}
  0
LINE
  5
2C7A9
330
2C925
100
AcDbEntity
  8
HIKIDASHI
100
AcDbLine
 10
2084.263856445202
 20
1563.849248598
 30
0.0
 11
2036.28900911064
 21
1601.244622954002
 31
0.0
  0
LINE
  5
2C7AA
330
2C925
100
AcDbEntity
  8
HIKIDASHI
100
AcDbLine
 10
2036.28900911064
 20
1601.244622954002
 30
0.0
 11
2069.542391933278
 21
1550.311210238466
 31
0.0
  0
SOLID
  5
2C7AB
330
2C925
100
AcDbEntity
  8
HIKIDASHI
100
AcDbTrace
 10
2084.263856445202
 20
1563.849248598
 30
0.0
 11
2069.542391933278
 21
1550.311210238466
 31
0.0
 12
2036.28900911064
 22
1601.244622954002
 32
0.0
 13
2036.28900911064
 23
1601.244622954002
 33
0.0
  0
LINE
  5
2C7AC
330
2C925
100
AcDbEntity
  8
HIKIDASHI
100
AcDbLine
 10
2069.542391933278
 20
1550.311210238466
 30
0.0
 11
2084.263856445202
 21
1563.849248598
 31
0.0
  0
LINE
  5
2C7AD
330
2C925
100
AcDbEntity
  8
HIKIDASHI
100
AcDbLine
 10
2221.920195709659
 20
1700.998983606496
 30
0.0
 11
2886.003881448336
 21
978.8644946268147
 31
0.0
1001
ACAD
1000
DSTYLE
1002
{
1070
   147
1040
1.5
1070
    77
1070
     0
1002
}
  0
LINE
  5
2C7AE
330
2C925
100
AcDbEntity
  8
HIKIDASHI
100
AcDbLine
 10
2229.28092796562
 20
1707.768002786263
 30
0.0
 11
2181.306080631059
 21
1745.163377142264
 31
0.0
  0
LINE
  5
2C7AF
330
2C925
100
AcDbEntity
  8
HIKIDASHI
100
AcDbLine
 10
2181.306080631059
 20
1745.163377142264
 30
0.0
 11
2214.559463453697
 21
1694.229964426729
 31
0.0
  0
SOLID
  5
2C7B0
330
2C925
100
AcDbEntity
  8
HIKIDASHI
100
AcDbTrace
 10
2229.28092796562
 20
1707.768002786263
 30
0.0
 11
2214.559463453697
 21
1694.229964426729
 31
0.0
 12
2181.306080631059
 22
1745.163377142264
 32
0.0
 13
2181.306080631059
 23
1745.163377142264
 33
0.0
  0
LINE
  5
2C7B1
330
2C925
100
AcDbEntity
  8
HIKIDASHI
100
AcDbLine
 10
2214.559463453697
 20
1694.229964426729
 30
0.0
 11
2229.28092796562
 21
1707.768002786263
 31
0.0
  0
LINE
  5
2C7B2
330
2C925
100
AcDbEntity
  8
HIKIDASHI
100
AcDbLine
 10
2119.072967571308
 20
2073.95381920883
 30
0.0
 11
2489.562271146263
 21
2680.744622954003
 31
0.0
1001
ACAD
1000
DSTYLE
1002
{
1070
   147
1040
1.5
1070
    77
1070
     0
1002
}
  0
LINE
  5
2C7B3
330
2C925
100
AcDbEntity
  8
HIKIDASHI
100
AcDbLine
 10
2110.538101528837
 20
2079.164967032206
 30
0.0
 11
2087.806080631057
 21
2022.744622954002
 31
0.0
  0
LINE
  5
2C7B4
330
2C925
100
AcDbEntity
  8
HIKIDASHI
100
AcDbLine
 10
2087.806080631057
 20
2022.744622954002
 30
0.0
 11
2127.60783361378
 21
2068.742671385455
 31
0.0
  0
SOLID
  5
2C7B5
330
2C925
100
AcDbEntity
  8
HIKIDASHI
100
AcDbTrace
 10
2110.538101528837
 20
2079.164967032206
 30
0.0
 11
2127.60783361378
 21
2068.742671385455
 31
0.0
 12
2087.806080631057
 22
2022.744622954002
 32
0.0
 13
2087.806080631057
 23
2022.744622954002
 33
0.0
  0
LINE
  5
2C7B6
330
2C925
100
AcDbEntity
  8
HIKIDASHI
100
AcDbLine
 10
2127.60783361378
 20
2068.742671385455
 30
0.0
 11
2110.538101528837
 21
2079.164967032206
 31
0.0
  0
LINE
  5
2C7B7
330
2C925
100
AcDbEntity
  8
HIKIDASHI
100
AcDbLine
 10
7387.110210055687
 20
5418.232713972656
 30
0.0
 11
6702.195767577858
 21
4598.464770760362
 31
0.0
1001
ACAD
1000
DSTYLE
1002
{
1070
   147
1040
1.5
1070
    77
1070
     0
1002
}
  0
LINE
  5
2C7B8
330
2C925
100
AcDbEntity
  8
HIKIDASHI
100
AcDbLine
 10
7394.784247051164
 20
5411.82107173435
 30
0.0
 11
7425.580063485537
 21
5464.276935945517
 31
0.0
  0
LINE
  5
2C7B9
330
2C925
100
AcDbEntity
  8
HIKIDASHI
100
AcDbLine
 10
7425.580063485537
 20
5464.276935945517
 30
0.0
 11
7379.436173060209
 21
5424.644356210966
 31
0.0
  0
SOLID
  5
2C7BA
330
2C925
100
AcDbEntity
  8
HIKIDASHI
100
AcDbTrace
 10
7394.784247051164
 20
5411.82107173435
 30
0.0
 11
7379.436173060209
 21
5424.644356210966
 31
0.0
 12
7425.580063485537
 22
5464.276935945517
 32
0.0
 13
7425.580063485537
 23
5464.276935945517
 33
0.0
  0
LINE
  5
2C7BB
330
2C925
100
AcDbEntity
  8
HIKIDASHI
100
AcDbLine
 10
7379.436173060209
 20
5424.644356210966
 30
0.0
 11
7394.784247051164
 21
5411.82107173435
 31
0.0
  0
LINE
  5
2C7BC
330
2C925
100
AcDbEntity
  8
HIKIDASHI
100
AcDbLine
 10
7387.110210055687
 20
6818.232713972658
 30
0.0
 11
7002.975032409596
 21
6358.464770760363
 31
0.0
1001
ACAD
1000
DSTYLE
1002
{
1070
   147
1040
1.5
1070
    77
1070
     0
1002
}
  0
LINE
  5
2C7BD
330
2C925
100
AcDbEntity
  8
HIKIDASHI
100
AcDbLine
 10
7394.784247051164
 20
6811.821071734351
 30
0.0
 11
7425.580063485537
 21
6864.276935945518
 31
0.0
  0
LINE
  5
2C7BE
330
2C925
100
AcDbEntity
  8
HIKIDASHI
100
AcDbLine
 10
7425.580063485537
 20
6864.276935945518
 30
0.0
 11
7379.436173060209
 21
6824.644356210964
 31
0.0
  0
SOLID
  5
2C7BF
330
2C925
100
AcDbEntity
  8
HIKIDASHI
100
AcDbTrace
 10
7394.784247051164
 20
6811.821071734351
 30
0.0
 11
7379.436173060209
 21
6824.644356210964
 31
0.0
 12
7425.580063485537
 22
6864.276935945518
 32
0.0
 13
7425.580063485537
 23
6864.276935945518
 33
0.0
  0
LINE
  5
2C7C0
330
2C925
100
AcDbEntity
  8
HIKIDASHI
100
AcDbLine
 10
7379.436173060209
 20
6824.644356210964
 30
0.0
 11
7394.784247051164
 21
6811.821071734351
 31
0.0
  0
LINE
  5
2C7C1
330
2C925
100
AcDbEntity
  8
HIKIDASHI
100
AcDbLine
 10
7311.828148836095
 20
7041.001515975541
 30
0.0
 11
6916.429584868954
 21
7438.464770760363
 31
0.0
1001
ACAD
1000
DSTYLE
1002
{
1070
   147
1040
1.5
1070
    77
1070
     0
1002
}
  0
LINE
  5
2C7C2
330
2C925
100
AcDbEntity
  8
HIKIDASHI
100
AcDbLine
 10
7304.738691300233
 20
7033.94888583869
 30
0.0
 11
7354.143929657195
 21
6998.464770760367
 31
0.0
  0
LINE
  5
2C7C3
330
2C925
100
AcDbEntity
  8
HIKIDASHI
100
AcDbLine
 10
7354.143929657195
 20
6998.464770760367
 30
0.0
 11
7318.917606371957
 21
7048.054146112392
 31
0.0
  0
SOLID
  5
2C7C4
330
2C925
100
AcDbEntity
  8
HIKIDASHI
100
AcDbTrace
 10
7304.738691300233
 20
7033.94888583869
 30
0.0
 11
7318.917606371957
 21
7048.054146112392
 31
0.0
 12
7354.143929657195
 22
6998.464770760367
 32
0.0
 13
7354.143929657195
 23
6998.464770760367
 33
0.0
  0
LINE
  5
2C7C5
330
2C925
100
AcDbEntity
  8
HIKIDASHI
100
AcDbLine
 10
7318.917606371957
 20
7048.054146112392
 30
0.0
 11
7304.738691300233
 21
7033.94888583869
 31
0.0
  0
LINE
  5
2C7C6
330
2C925
100
AcDbEntity
  8
HIKIDASHI
100
AcDbLine
 10
7504.758293835457
 20
7032.539086226456
 30
0.0
 11
6916.429584868954
 21
7438.464770760363
 31
0.0
1001
ACAD
1000
DSTYLE
1002
{
1070
   147
1040
1.5
1070
    77
1070
     0
1002
}
  0
LINE
  5
2C7C7
330
2C925
100
AcDbEntity
  8
HIKIDASHI
100
AcDbLine
 10
7499.079241257773
 20
7024.308146922831
 30
0.0
 11
7554.143929657195
 21
6998.464770760367
 31
0.0
  0
LINE
  5
2C7C8
330
2C925
100
AcDbEntity
  8
HIKIDASHI
100
AcDbLine
 10
7554.143929657195
 20
6998.464770760367
 30
0.0
 11
7510.437346413138
 21
7040.770025530079
 31
0.0
  0
SOLID
  5
2C7C9
330
2C925
100
AcDbEntity
  8
HIKIDASHI
100
AcDbTrace
 10
7499.079241257773
 20
7024.308146922831
 30
0.0
 11
7510.437346413138
 21
7040.770025530079
 31
0.0
 12
7554.143929657195
 22
6998.464770760367
 32
0.0
 13
7554.143929657195
 23
6998.464770760367
 33
0.0
  0
LINE
  5
2C7CA
330
2C925
100
AcDbEntity
  8
HIKIDASHI
100
AcDbLine
 10
7510.437346413138
 20
7040.770025530079
 30
0.0
 11
7499.079241257773
 21
7024.308146922831
 31
0.0
  0
ARC
  5
2C7CB
330
2C925
100
AcDbEntity
  8
HIKIDASHI
100
AcDbCircle
 10
6432.803207533608
 20
7570.029626642733
 30
0.0
 40
74.66417910444693
100
AcDbArc
 50
301.7712278330701
 51
15.14038701490877
  0
ARC
  5
2C7CC
330
2C925
100
AcDbEntity
  8
HIKIDASHI
100
AcDbCircle
 10
3750.163132966342
 20
2812.309478836369
 30
0.0
 40
74.66417910444717
100
AcDbArc
 50
301.7712278330705
 51
15.14038701490942
  0
LINE
  5
2C7CD
330
2C925
100
AcDbEntity
  8
HATCH
100
AcDbLine
 10
2173.80204852599
 20
1360.744622954003
 30
0.0
 11
2231.537075444952
 21
1460.744622954003
 31
0.0
  0
LINE
  5
2C7CE
330
2C925
100
AcDbEntity
  8
HATCH
100
AcDbLine
 10
2191.537075444952
 20
1460.744622954002
 30
0.0
 11
2211.537075444952
 21
1426.103606802627
 31
0.0
  0
LINE
  5
2C7CF
330
2C925
100
AcDbEntity
  8
HATCH
100
AcDbLine
 10
2193.802048525989
 20
1395.385639105381
 30
0.0
 11
2213.802048525989
 21
1360.744622954003
 31
0.0
  0
LINE
  5
2C7D0
330
2C925
100
AcDbEntity
  8
HATCH
100
AcDbLine
 10
1723.802048525991
 20
1360.744622954002
 30
0.0
 11
1781.537075444953
 21
1460.744622954002
 31
0.0
  0
LINE
  5
2C7D1
330
2C925
100
AcDbEntity
  8
HATCH
100
AcDbLine
 10
1741.537075444954
 20
1460.744622954
 30
0.0
 11
1761.537075444953
 21
1426.103606802626
 31
0.0
  0
LINE
  5
2C7D2
330
2C925
100
AcDbEntity
  8
HATCH
100
AcDbLine
 10
1743.80204852599
 20
1395.38563910538
 30
0.0
 11
1763.80204852599
 21
1360.744622954002
 31
0.0
  0
LINE
  5
2C7D3
330
2C925
100
AcDbEntity
  8
HATCH
100
AcDbLine
 10
1873.80204852599
 20
1360.744622954002
 30
0.0
 11
1931.537075444953
 21
1460.744622954002
 31
0.0
  0
LINE
  5
2C7D4
330
2C925
100
AcDbEntity
  8
HATCH
100
AcDbLine
 10
1891.537075444954
 20
1460.744622954
 30
0.0
 11
1911.537075444954
 21
1426.103606802626
 31
0.0
  0
LINE
  5
2C7D5
330
2C925
100
AcDbEntity
  8
HATCH
100
AcDbLine
 10
1893.802048525991
 20
1395.38563910538
 30
0.0
 11
1913.80204852599
 21
1360.744622954002
 31
0.0
  0
LINE
  5
2C7D6
330
2C925
100
AcDbEntity
  8
HATCH
100
AcDbLine
 10
2023.802048525991
 20
1360.744622954003
 30
0.0
 11
2081.537075444954
 21
1460.744622954003
 31
0.0
  0
LINE
  5
2C7D7
330
2C925
100
AcDbEntity
  8
HATCH
100
AcDbLine
 10
2041.537075444954
 20
1460.744622954002
 30
0.0
 11
2061.537075444954
 21
1426.103606802627
 31
0.0
  0
LINE
  5
2C7D8
330
2C925
100
AcDbEntity
  8
HATCH
100
AcDbLine
 10
2043.802048525991
 20
1395.385639105381
 30
0.0
 11
2063.80204852599
 21
1360.744622954003
 31
0.0
  0
LINE
  5
2C7D9
330
2C925
100
AcDbEntity
  8
HATCH
100
AcDbLine
 10
2681.717252581865
 20
1990.744622954002
 30
0.0
 11
2716.358268733265
 21
2050.744622954038
 31
0.0
  0
LINE
  5
2C7DA
330
2C925
100
AcDbEntity
  8
HATCH
100
AcDbLine
 10
2692.35826873325
 20
2050.744622954038
 30
0.0
 11
2704.358268733257
 21
2029.9600132632
 31
0.0
  0
LINE
  5
2C7DB
330
2C925
100
AcDbEntity
  8
HATCH
100
AcDbLine
 10
2693.717252581873
 20
2011.529232644841
 30
0.0
 11
2705.717252581881
 21
1990.744622954002
 31
0.0
  0
LINE
  5
2C7DC
330
2C925
100
AcDbEntity
  8
HATCH
100
AcDbLine
 10
2411.717252581865
 20
1990.744622954002
 30
0.0
 11
2446.358268733265
 21
2050.744622954038
 31
0.0
  0
LINE
  5
2C7DD
330
2C925
100
AcDbEntity
  8
HATCH
100
AcDbLine
 10
2422.35826873325
 20
2050.744622954038
 30
0.0
 11
2434.358268733257
 21
2029.9600132632
 31
0.0
  0
LINE
  5
2C7DE
330
2C925
100
AcDbEntity
  8
HATCH
100
AcDbLine
 10
2423.717252581873
 20
2011.529232644841
 30
0.0
 11
2435.717252581881
 21
1990.744622954002
 31
0.0
  0
LINE
  5
2C7DF
330
2C925
100
AcDbEntity
  8
HATCH
100
AcDbLine
 10
2231.717252581865
 20
1990.744622954002
 30
0.0
 11
2266.358268733264
 21
2050.744622954038
 31
0.0
  0
LINE
  5
2C7E0
330
2C925
100
AcDbEntity
  8
HATCH
100
AcDbLine
 10
2242.35826873325
 20
2050.744622954038
 30
0.0
 11
2254.358268733257
 21
2029.9600132632
 31
0.0
  0
LINE
  5
2C7E1
330
2C925
100
AcDbEntity
  8
HATCH
100
AcDbLine
 10
2243.717252581872
 20
2011.529232644841
 30
0.0
 11
2255.71725258188
 21
1990.744622954002
 31
0.0
  0
LINE
  5
2C7E2
330
2C925
100
AcDbEntity
  8
HATCH
100
AcDbLine
 10
2321.717252581866
 20
1990.744622954002
 30
0.0
 11
2356.358268733265
 21
2050.744622954038
 31
0.0
  0
LINE
  5
2C7E3
330
2C925
100
AcDbEntity
  8
HATCH
100
AcDbLine
 10
2332.35826873325
 20
2050.744622954038
 30
0.0
 11
2344.358268733257
 21
2029.9600132632
 31
0.0
  0
LINE
  5
2C7E4
330
2C925
100
AcDbEntity
  8
HATCH
100
AcDbLine
 10
2333.717252581873
 20
2011.529232644841
 30
0.0
 11
2345.71725258188
 21
1990.744622954002
 31
0.0
  0
LINE
  5
2C7E5
330
2C925
100
AcDbEntity
  8
HATCH
100
AcDbLine
 10
2501.717252581866
 20
1990.744622954002
 30
0.0
 11
2536.358268733265
 21
2050.744622954038
 31
0.0
  0
LINE
  5
2C7E6
330
2C925
100
AcDbEntity
  8
HATCH
100
AcDbLine
 10
2512.35826873325
 20
2050.744622954038
 30
0.0
 11
2524.358268733257
 21
2029.9600132632
 31
0.0
  0
LINE
  5
2C7E7
330
2C925
100
AcDbEntity
  8
HATCH
100
AcDbLine
 10
2513.717252581872
 20
2011.529232644841
 30
0.0
 11
2525.71725258188
 21
1990.744622954002
 31
0.0
  0
LINE
  5
2C7E8
330
2C925
100
AcDbEntity
  8
HATCH
100
AcDbLine
 10
2591.717252581866
 20
1990.744622954002
 30
0.0
 11
2626.358268733265
 21
2050.744622954038
 31
0.0
  0
LINE
  5
2C7E9
330
2C925
100
AcDbEntity
  8
HATCH
100
AcDbLine
 10
2602.35826873325
 20
2050.744622954038
 30
0.0
 11
2614.358268733258
 21
2029.9600132632
 31
0.0
  0
LINE
  5
2C7EA
330
2C925
100
AcDbEntity
  8
HATCH
100
AcDbLine
 10
2603.717252581873
 20
2011.529232644841
 30
0.0
 11
2615.717252581881
 21
1990.744622954002
 31
0.0
  0
LINE
  5
2C7EB
330
2C925
100
AcDbEntity
  8
HATCH
100
AcDbLine
 10
2323.802048525993
 20
1360.744622954003
 30
0.0
 11
2381.537075444956
 21
1460.744622954003
 31
0.0
  0
LINE
  5
2C7EC
330
2C925
100
AcDbEntity
  8
HATCH
100
AcDbLine
 10
2341.537075444955
 20
1460.744622954002
 30
0.0
 11
2361.537075444956
 21
1426.103606802627
 31
0.0
  0
LINE
  5
2C7ED
330
2C925
100
AcDbEntity
  8
HATCH
100
AcDbLine
 10
2343.802048525993
 20
1395.385639105381
 30
0.0
 11
2363.802048525993
 21
1360.744622954003
 31
0.0
  0
LINE
  5
2C7EE
330
2C925
100
AcDbEntity
  8
HATCH
100
AcDbLine
 10
1573.80204852599
 20
1360.744622954003
 30
0.0
 11
1631.537075444954
 21
1460.744622954003
 31
0.0
  0
LINE
  5
2C7EF
330
2C925
100
AcDbEntity
  8
HATCH
100
AcDbLine
 10
1591.537075444954
 20
1460.744622954002
 30
0.0
 11
1611.537075444954
 21
1426.103606802627
 31
0.0
  0
LINE
  5
2C7F0
330
2C925
100
AcDbEntity
  8
HATCH
100
AcDbLine
 10
1593.80204852599
 20
1395.385639105381
 30
0.0
 11
1613.80204852599
 21
1360.744622954003
 31
0.0
  0
LINE
  5
2C7F1
330
2C925
100
AcDbEntity
  8
KISO-1
100
AcDbLine
 10
4279.14392965719
 20
5123.46477076036
 30
0.0
 11
5029.143929657195
 21
5123.46477076036
 31
0.0
  0
LINE
  5
2C7F2
330
2C925
100
AcDbEntity
  8
KISO-1
100
AcDbLine
 10
5029.143929657195
 20
5123.46477076036
 30
0.0
 11
5029.143929657195
 21
5873.46477076036
 31
0.0
  0
LINE
  5
2C7F3
330
2C925
100
AcDbEntity
  8
KISO-1
100
AcDbLine
 10
5029.143929657195
 20
5873.46477076036
 30
0.0
 11
4279.14392965719
 21
5873.46477076036
 31
0.0
  0
LINE
  5
2C7F4
330
2C925
100
AcDbEntity
  8
KISO-1
100
AcDbLine
 10
4279.14392965719
 20
5873.46477076036
 30
0.0
 11
4279.14392965719
 21
5123.46477076036
 31
0.0
  0
LINE
  5
2C7F5
330
2C925
100
AcDbEntity
  8
KISO-1
100
AcDbLine
 10
5029.143929657195
 20
6523.464770760362
 30
0.0
 11
5029.143929657195
 21
7273.464770760364
 31
0.0
  0
LINE
  5
2C7F6
330
2C925
100
AcDbEntity
  8
KISO-1
100
AcDbLine
 10
5029.143929657195
 20
7273.464770760364
 30
0.0
 11
4279.14392965719
 21
7273.464770760364
 31
0.0
  0
LINE
  5
2C7F7
330
2C925
100
AcDbEntity
  8
KISO-1
100
AcDbLine
 10
4279.14392965719
 20
7273.464770760364
 30
0.0
 11
4279.14392965719
 21
6523.464770760362
 31
0.0
  0
LINE
  5
2C7F8
330
2C925
100
AcDbEntity
  8
KISO-1
100
AcDbLine
 10
4279.14392965719
 20
6523.464770760362
 30
0.0
 11
5029.143929657195
 21
6523.464770760362
 31
0.0
  0
LINE
  5
2C7F9
330
2C925
100
AcDbEntity
  8
BOLT
100
AcDbLine
 10
7554.143929657195
 20
7028.464770760367
 30
0.0
 11
7554.143929657195
 21
6968.464770760363
 31
0.0
  0
LINE
  5
2C7FA
330
2C925
100
AcDbEntity
  8
BOLT
100
AcDbLine
 10
7584.143929657193
 20
6998.464770760367
 30
0.0
 11
7524.143929657197
 21
6998.464770760367
 31
0.0
  0
LINE
  5
2C7FB
330
2C925
100
AcDbEntity
  8
BOLT
100
AcDbLine
 10
7554.143929657195
 20
6768.464770760366
 30
0.0
 11
7554.143929657195
 21
6828.464770760366
 31
0.0
  0
LINE
  5
2C7FC
330
2C925
100
AcDbEntity
  8
BOLT
100
AcDbLine
 10
7584.143929657193
 20
6798.464770760367
 30
0.0
 11
7524.143929657197
 21
6798.464770760367
 31
0.0
  0
LINE
  5
2C7FD
330
2C925
100
AcDbEntity
  8
BOLT
100
AcDbLine
 10
7354.143929657195
 20
7028.464770760367
 30
0.0
 11
7354.143929657195
 21
6968.464770760363
 31
0.0
  0
LINE
  5
2C7FE
330
2C925
100
AcDbEntity
  8
BOLT
100
AcDbLine
 10
7324.1439296572
 20
6998.464770760367
 30
0.0
 11
7384.143929657195
 21
6998.464770760367
 31
0.0
  0
LINE
  5
2C7FF
330
2C925
100
AcDbEntity
  8
BOLT
100
AcDbLine
 10
7354.143929657195
 20
6768.464770760366
 30
0.0
 11
7354.143929657195
 21
6828.464770760366
 31
0.0
  0
LINE
  5
2C800
330
2C925
100
AcDbEntity
  8
BOLT
100
AcDbLine
 10
7324.1439296572
 20
6798.464770760367
 30
0.0
 11
7384.143929657195
 21
6798.464770760367
 31
0.0
  0
LINE
  5
2C801
330
2C925
100
AcDbEntity
  8
SIN
100
AcDbLine
 10
7573.693929657199
 20
6898.464770760367
 30
0.0
 11
7334.5939296572
 21
6898.464770760367
 31
0.0
  0
LINE
  5
2C802
330
2C925
100
AcDbEntity
  8
KISO-1
100
AcDbLine
 10
7829.143929657186
 20
6523.464770760367
 30
0.0
 11
7829.143929657186
 21
7273.464770760367
 31
0.0
  0
LINE
  5
2C803
330
2C925
100
AcDbEntity
  8
KISO-1
100
AcDbLine
 10
7829.143929657186
 20
7273.464770760367
 30
0.0
 11
7079.143929657195
 21
7273.464770760367
 31
0.0
  0
LINE
  5
2C804
330
2C925
100
AcDbEntity
  8
KISO-1
100
AcDbLine
 10
7079.143929657195
 20
7273.464770760367
 30
0.0
 11
7079.143929657195
 21
6523.464770760367
 31
0.0
  0
LINE
  5
2C805
330
2C925
100
AcDbEntity
  8
KISO-1
100
AcDbLine
 10
7079.143929657195
 20
6523.464770760367
 30
0.0
 11
7829.143929657186
 21
6523.464770760367
 31
0.0
  0
LINE
  5
2C806
330
2C925
100
AcDbEntity
  8
BOLT
100
AcDbLine
 10
7554.143929657195
 20
5628.464770760366
 30
0.0
 11
7554.143929657195
 21
5568.464770760368
 31
0.0
  0
LINE
  5
2C807
330
2C925
100
AcDbEntity
  8
BOLT
100
AcDbLine
 10
7584.143929657193
 20
5598.464770760362
 30
0.0
 11
7524.143929657197
 21
5598.464770760362
 31
0.0
  0
LINE
  5
2C808
330
2C925
100
AcDbEntity
  8
BOLT
100
AcDbLine
 10
7554.143929657195
 20
5368.464770760366
 30
0.0
 11
7554.143929657195
 21
5428.464770760366
 31
0.0
  0
LINE
  5
2C809
330
2C925
100
AcDbEntity
  8
BOLT
100
AcDbLine
 10
7584.143929657193
 20
5398.464770760366
 30
0.0
 11
7524.143929657197
 21
5398.464770760366
 31
0.0
  0
LINE
  5
2C80A
330
2C925
100
AcDbEntity
  8
BOLT
100
AcDbLine
 10
7324.1439296572
 20
5598.464770760362
 30
0.0
 11
7384.143929657195
 21
5598.464770760362
 31
0.0
  0
LINE
  5
2C80B
330
2C925
100
AcDbEntity
  8
BOLT
100
AcDbLine
 10
7354.143929657195
 20
5628.464770760366
 30
0.0
 11
7354.143929657195
 21
5568.464770760368
 31
0.0
  0
LINE
  5
2C80C
330
2C925
100
AcDbEntity
  8
BOLT
100
AcDbLine
 10
7324.1439296572
 20
5398.464770760366
 30
0.0
 11
7384.143929657195
 21
5398.464770760366
 31
0.0
  0
LINE
  5
2C80D
330
2C925
100
AcDbEntity
  8
BOLT
100
AcDbLine
 10
7354.143929657195
 20
5368.464770760366
 30
0.0
 11
7354.143929657195
 21
5428.464770760366
 31
0.0
  0
LINE
  5
2C80E
330
2C925
100
AcDbEntity
  8
SIN
100
AcDbLine
 10
7573.693929657199
 20
5498.464770760366
 30
0.0
 11
7334.5939296572
 21
5498.464770760366
 31
0.0
  0
LINE
  5
2C80F
330
2C925
100
AcDbEntity
  8
KISO-1
100
AcDbLine
 10
7079.143929657195
 20
5123.464770760366
 30
0.0
 11
7829.143929657186
 21
5123.464770760366
 31
0.0
  0
LINE
  5
2C810
330
2C925
100
AcDbEntity
  8
KISO-1
100
AcDbLine
 10
7829.143929657186
 20
5123.464770760366
 30
0.0
 11
7829.143929657186
 21
5873.464770760366
 31
0.0
  0
LINE
  5
2C811
330
2C925
100
AcDbEntity
  8
KISO-1
100
AcDbLine
 10
7829.143929657186
 20
5873.464770760366
 30
0.0
 11
7079.143929657195
 21
5873.464770760366
 31
0.0
  0
LINE
  5
2C812
330
2C925
100
AcDbEntity
  8
KISO-1
100
AcDbLine
 10
7079.143929657195
 20
5873.464770760366
 30
0.0
 11
7079.143929657195
 21
5123.464770760366
 31
0.0
  0
LINE
  5
2C813
330
2C925
100
AcDbEntity
  8
YANE
100
AcDbLine
 10
7675.944582708431
 20
5024.915498379022
 30
0.0
 11
4432.343276605956
 21
5024.915498379022
 31
0.0
  0
LINE
  5
2C814
330
2C925
100
AcDbEntity
  8
YANE
100
AcDbLine
 10
4432.343276605956
 20
5024.915498379022
 30
0.0
 11
4432.343276605956
 21
7013.014770760363
 31
0.0
  0
LINE
  5
2C815
330
2C925
100
AcDbEntity
  8
YANE
100
AcDbLine
 10
4432.343276605956
 20
7013.014770760363
 30
0.0
 11
6614.143929657195
 21
7013.014770760363
 31
0.0
  0
LINE
  5
2C816
330
2C925
100
AcDbEntity
  8
HASIRA
100
AcDbLine
 10
1936.756080631059
 20
2002.744622954002
 30
0.0
 11
1936.756080631059
 21
2548.731527970458
 31
0.0
  0
LINE
  5
2C817
330
2C925
100
AcDbEntity
  8
HASIRA
100
AcDbLine
 10
2025.856080631061
 20
2002.744622954002
 30
0.0
 11
2025.85608063106
 21
2548.731527970458
 31
0.0
  0
LINE
  5
2C818
330
2C925
100
AcDbEntity
  8
1PL-M1
100
AcDbLine
 10
1981.306080631058
 20
1035.322626136144
 30
0.0
 11
1981.306080631058
 21
2548.731527970458
 31
0.0
  0
LINE
  5
2C819
330
2C925
100
AcDbEntity
  8
TENSEN-1
100
AcDbLine
 10
1844.806080631057
 20
1615.744622954003
 30
0.0
 11
1874.806080631057
 21
1615.744622954003
 31
0.0
  0
LINE
  5
2C81A
330
2C925
100
AcDbEntity
  8
TENSEN-1
100
AcDbLine
 10
1874.806080631057
 20
1615.744622954003
 30
0.0
 11
1874.806080631057
 21
2022.744622954002
 31
0.0
  0
LINE
  5
2C81B
330
2C925
100
AcDbEntity
  8
TENSEN-1
100
AcDbLine
 10
1874.806080631057
 20
2022.744622954002
 30
0.0
 11
1887.806080631056
 21
2022.744622954002
 31
0.0
  0
LINE
  5
2C81C
330
2C925
100
AcDbEntity
  8
TENSEN-1
100
AcDbLine
 10
1887.806080631056
 20
2022.744622954002
 30
0.0
 11
1887.806080631057
 21
1602.744622954002
 31
0.0
  0
LINE
  5
2C81D
330
2C925
100
AcDbEntity
  8
TENSEN-1
100
AcDbLine
 10
1887.806080631057
 20
1602.744622954002
 30
0.0
 11
1844.806080631057
 21
1602.744622954002
 31
0.0
  0
LINE
  5
2C81E
330
2C925
100
AcDbEntity
  8
TENSEN-1
100
AcDbLine
 10
1844.806080631057
 20
1602.744622954002
 30
0.0
 11
1844.806080631057
 21
1615.744622954003
 31
0.0
  0
LINE
  5
2C81F
330
2C925
100
AcDbEntity
  8
TENSEN-1
100
AcDbLine
 10
2117.806080631059
 20
1615.744622954003
 30
0.0
 11
2087.806080631059
 21
1615.744622954003
 31
0.0
  0
LINE
  5
2C820
330
2C925
100
AcDbEntity
  8
TENSEN-1
100
AcDbLine
 10
2087.806080631059
 20
1615.744622954003
 30
0.0
 11
2087.806080631057
 21
2022.744622954002
 31
0.0
  0
LINE
  5
2C821
330
2C925
100
AcDbEntity
  8
TENSEN-1
100
AcDbLine
 10
2087.806080631057
 20
2022.744622954002
 30
0.0
 11
2074.806080631059
 21
2022.744622954002
 31
0.0
  0
LINE
  5
2C822
330
2C925
100
AcDbEntity
  8
TENSEN-1
100
AcDbLine
 10
2074.806080631059
 20
2022.744622954002
 30
0.0
 11
2074.806080631059
 21
1602.744622954002
 31
0.0
  0
LINE
  5
2C823
330
2C925
100
AcDbEntity
  8
TENSEN-1
100
AcDbLine
 10
2074.806080631059
 20
1602.744622954002
 30
0.0
 11
2117.806080631057
 21
1602.744622954002
 31
0.0
  0
LINE
  5
2C824
330
2C925
100
AcDbEntity
  8
TENSEN-1
100
AcDbLine
 10
2117.806080631057
 20
1602.744622954002
 30
0.0
 11
2117.806080631059
 21
1615.744622954003
 31
0.0
  0
LINE
  5
2C825
330
2C925
100
AcDbEntity
  8
KISO
100
AcDbLine
 10
1841.306080631057
 20
1990.744622954002
 30
0.0
 11
2121.306080631059
 21
1990.744622954002
 31
0.0
  0
LINE
  5
2C826
330
2C925
100
AcDbEntity
  8
KISO
100
AcDbLine
 10
2121.306080631059
 20
1990.744622954002
 30
0.0
 11
2121.306080631059
 21
2002.744622954002
 31
0.0
  0
LINE
  5
2C827
330
2C925
100
AcDbEntity
  8
KISO
100
AcDbLine
 10
2121.306080631059
 20
2002.744622954002
 30
0.0
 11
1841.306080631057
 21
2002.744622954002
 31
0.0
  0
LINE
  5
2C828
330
2C925
100
AcDbEntity
  8
KISO
100
AcDbLine
 10
1841.306080631057
 20
2002.744622954002
 30
0.0
 11
1841.306080631057
 21
1990.744622954002
 31
0.0
  0
LINE
  5
2C829
330
2C925
100
AcDbEntity
  8
KISO-3
100
AcDbLine
 10
4414.143929657194
 20
5738.464770760362
 30
0.0
 11
4414.143929657194
 21
5258.464770760366
 31
0.0
  0
LINE
  5
2C82A
330
2C925
100
AcDbEntity
  8
KISO-3
100
AcDbLine
 10
4414.143929657194
 20
5258.464770760366
 30
0.0
 11
4894.143929657193
 21
5258.464770760366
 31
0.0
  0
LINE
  5
2C82B
330
2C925
100
AcDbEntity
  8
KISO-3
100
AcDbLine
 10
4894.143929657193
 20
5258.464770760366
 30
0.0
 11
4894.143929657193
 21
5738.464770760362
 31
0.0
  0
LINE
  5
2C82C
330
2C925
100
AcDbEntity
  8
KISO-3
100
AcDbLine
 10
4414.143929657194
 20
7138.464770760363
 30
0.0
 11
4414.143929657194
 21
6658.464770760367
 31
0.0
  0
LINE
  5
2C82D
330
2C925
100
AcDbEntity
  8
KISO-3
100
AcDbLine
 10
4414.143929657194
 20
6658.464770760367
 30
0.0
 11
4894.143929657193
 21
6658.464770760367
 31
0.0
  0
LINE
  5
2C82E
330
2C925
100
AcDbEntity
  8
KISO-3
100
AcDbLine
 10
4894.143929657193
 20
6658.464770760367
 30
0.0
 11
4894.143929657193
 21
7138.464770760363
 31
0.0
  0
LINE
  5
2C82F
330
2C925
100
AcDbEntity
  8
KISO-2
100
AcDbLine
 10
4794.143929657193
 20
5358.464770760363
 30
0.0
 11
4514.143929657193
 21
5358.464770760363
 31
0.0
  0
LINE
  5
2C830
330
2C925
100
AcDbEntity
  8
KISO-2
100
AcDbLine
 10
4514.143929657193
 20
5358.464770760363
 30
0.0
 11
4514.143929657193
 21
5638.464770760363
 31
0.0
  0
LINE
  5
2C831
330
2C925
100
AcDbEntity
  8
KISO-2
100
AcDbLine
 10
4514.143929657193
 20
5638.464770760363
 30
0.0
 11
4794.143929657193
 21
5638.464770760363
 31
0.0
  0
LINE
  5
2C832
330
2C925
100
AcDbEntity
  8
KISO-2
100
AcDbLine
 10
4794.143929657193
 20
5638.464770760363
 30
0.0
 11
4794.143929657193
 21
5358.464770760363
 31
0.0
  0
LINE
  5
2C833
330
2C925
100
AcDbEntity
  8
KISO-2
100
AcDbLine
 10
4794.143929657193
 20
6758.464770760366
 30
0.0
 11
4514.143929657193
 21
6758.464770760366
 31
0.0
  0
LINE
  5
2C834
330
2C925
100
AcDbEntity
  8
KISO-2
100
AcDbLine
 10
4514.143929657193
 20
6758.464770760366
 30
0.0
 11
4514.143929657193
 21
7038.464770760363
 31
0.0
  0
LINE
  5
2C835
330
2C925
100
AcDbEntity
  8
KISO-2
100
AcDbLine
 10
4514.143929657193
 20
7038.464770760363
 30
0.0
 11
4794.143929657193
 21
7038.464770760363
 31
0.0
  0
LINE
  5
2C836
330
2C925
100
AcDbEntity
  8
KISO-2
100
AcDbLine
 10
4794.143929657193
 20
7038.464770760363
 30
0.0
 11
4794.143929657193
 21
6758.464770760366
 31
0.0
  0
LINE
  5
2C837
330
2C925
100
AcDbEntity
  8
YANE
100
AcDbLine
 10
6764.143929657196
 20
7013.014770760363
 30
0.0
 11
7675.944582708431
 21
7013.014770760363
 31
0.0
  0
LINE
  5
2C838
330
2C925
100
AcDbEntity
  8
YANE
100
AcDbLine
 10
7675.944582708431
 20
7013.014770760363
 30
0.0
 11
7675.944582708431
 21
5024.915498379022
 31
0.0
  0
LINE
  5
2C839
330
2C925
100
AcDbEntity
  8
KISO-2
100
AcDbLine
 10
7594.143929657196
 20
6758.464770760366
 30
0.0
 11
7314.143929657196
 21
6758.464770760366
 31
0.0
  0
LINE
  5
2C83A
330
2C925
100
AcDbEntity
  8
KISO-2
100
AcDbLine
 10
7314.143929657196
 20
6758.464770760366
 30
0.0
 11
7314.143929657196
 21
7038.464770760363
 31
0.0
  0
LINE
  5
2C83B
330
2C925
100
AcDbEntity
  8
KISO-2
100
AcDbLine
 10
7314.143929657196
 20
7038.464770760363
 30
0.0
 11
7594.143929657196
 21
7038.464770760363
 31
0.0
  0
LINE
  5
2C83C
330
2C925
100
AcDbEntity
  8
KISO-2
100
AcDbLine
 10
7594.143929657196
 20
7038.464770760363
 30
0.0
 11
7594.143929657196
 21
6758.464770760366
 31
0.0
  0
LINE
  5
2C83D
330
2C925
100
AcDbEntity
  8
KISO-3
100
AcDbLine
 10
7214.143929657196
 20
7138.464770760363
 30
0.0
 11
7214.143929657196
 21
6658.464770760367
 31
0.0
  0
LINE
  5
2C83E
330
2C925
100
AcDbEntity
  8
KISO-3
100
AcDbLine
 10
7214.143929657196
 20
6658.464770760367
 30
0.0
 11
7694.143929657187
 21
6658.464770760367
 31
0.0
  0
LINE
  5
2C83F
330
2C925
100
AcDbEntity
  8
KISO-3
100
AcDbLine
 10
7694.143929657187
 20
6658.464770760367
 30
0.0
 11
7694.143929657187
 21
7138.464770760363
 31
0.0
  0
LINE
  5
2C840
330
2C925
100
AcDbEntity
  8
KISO-3
100
AcDbLine
 10
7694.143929657187
 20
5738.464770760362
 30
0.0
 11
7214.143929657196
 21
5738.464770760362
 31
0.0
  0
LINE
  5
2C841
330
2C925
100
AcDbEntity
  8
KISO-3
100
AcDbLine
 10
7214.143929657196
 20
5738.464770760362
 30
0.0
 11
7214.143929657196
 21
5258.464770760366
 31
0.0
  0
LINE
  5
2C842
330
2C925
100
AcDbEntity
  8
KISO-3
100
AcDbLine
 10
7214.143929657196
 20
5258.464770760366
 30
0.0
 11
7694.143929657187
 21
5258.464770760366
 31
0.0
  0
LINE
  5
2C843
330
2C925
100
AcDbEntity
  8
KISO-3
100
AcDbLine
 10
7694.143929657187
 20
5258.464770760366
 30
0.0
 11
7694.143929657187
 21
5738.464770760362
 31
0.0
  0
LINE
  5
2C844
330
2C925
100
AcDbEntity
  8
KISO-2
100
AcDbLine
 10
7594.143929657196
 20
5358.464770760363
 30
0.0
 11
7314.143929657196
 21
5358.464770760363
 31
0.0
  0
LINE
  5
2C845
330
2C925
100
AcDbEntity
  8
KISO-2
100
AcDbLine
 10
7314.143929657196
 20
5358.464770760363
 30
0.0
 11
7314.143929657196
 21
5638.464770760363
 31
0.0
  0
LINE
  5
2C846
330
2C925
100
AcDbEntity
  8
KISO-2
100
AcDbLine
 10
7314.143929657196
 20
5638.464770760363
 30
0.0
 11
7594.143929657196
 21
5638.464770760363
 31
0.0
  0
LINE
  5
2C847
330
2C925
100
AcDbEntity
  8
KISO-2
100
AcDbLine
 10
7594.143929657196
 20
5638.464770760363
 30
0.0
 11
7594.143929657196
 21
5358.464770760363
 31
0.0
  0
TEXT
  5
2C9D4
330
2C925
100
AcDbEntity
  8
SUNPOU
100
AcDbText
 10
10369.68887041554
 20
2786.366198686851
 30
0.0
 40
89.9993750043402
  1
18
 41
0.6700000000000001
  7
01
100
AcDbText
  0
TEXT
  5
2C9D5
330
2C925
100
AcDbEntity
  8
SUNPOU
100
AcDbText
 10
8325.634137218241
 20
2407.08048440114
 30
0.0
 40
90.0
  1
寒冷地の場合、凍結深度等を考慮し、実情に
  7
01
100
AcDbText
  0
TEXT
  5
2C9D6
330
2C925
100
AcDbEntity
  8
SUNPOU
100
AcDbText
 10
8325.634137218241
 20
2098.50905582971
 30
0.0
 40
90.0
  1
その他現地の実情にあわせて設計して下さい。
  7
01
100
AcDbText
  0
TEXT
  5
2C9D7
330
2C925
100
AcDbEntity
  8
SUNPOU
100
AcDbText
 10
7950.678392128847
 20
2786.366198686851
 30
0.0
 40
89.9993750043402
  1
地耐力   　　　 以上,コンクリート設計基準強度　　　　　以上
  7
01
100
AcDbText
  0
TEXT
  5
2C9D8
330
2C925
100
AcDbEntity
  8
SUNPOU
100
AcDbText
 10
8325.634137218241
 20
1789.937627258282
 30
0.0
 40
90.0
  1
地域によっては、フックをつける様指導している
  7
01
100
AcDbText
  0
TEXT
  5
2C9D9
330
2C925
100
AcDbEntity
  8
SUNPOU
100
AcDbText
 10
8325.634137218241
 20
1944.223341543996
 30
0.0
 40
90.0
  1
異形鉄筋の場合、原則としてフックは不要ですが、
  7
01
100
AcDbText
  0
TEXT
  5
2C9DA
330
2C925
100
AcDbEntity
  8
SUNPOU
100
AcDbText
 10
7945.471906269753
 20
3133.120201132808
 30
0.0
 40
120.0
  1
基礎断面図
  7
01
 72
     4
 11
8285.471906269753
 21
3193.120201132808
 31
0.0
100
AcDbText
  0
TEXT
  5
2C9DB
330
2C925
100
AcDbEntity
  8
SUNPOU
100
AcDbText
 10
8325.634137218241
 20
1635.651912972566
 30
0.0
 40
90.0
  1
所もありますので、ご注意願います。
  7
01
100
AcDbText
  0
TEXT
  5
2C9DC
330
2C925
100
AcDbEntity
  8
SUNPOU
100
AcDbText
 10
7820.114763412616
 20
2975.620201132809
 30
0.0
 40
90.0
  1
<下記条件での参考図>
  7
01
 72
     4
 11
8408.971906269758
 21
3020.620201132809
 31
0.0
100
AcDbText
  0
TEXT
  5
2C9DD
330
2C925
100
AcDbEntity
  8
SUNPOU
100
AcDbText
 10
7950.678392128847
 20
2632.08048440114
 30
0.0
 40
89.9993750043402
  1
基準風速   　　 , 地表面粗度区分
  7
01
100
AcDbText
  0
TEXT
  5
2C9DE
330
2C925
100
AcDbEntity
  8
SUNPOU
100
AcDbText
 10
8325.634137218241
 20
2252.794770115424
 30
0.0
 40
90.0
  1
あわせて設計して下さい。
  7
01
100
AcDbText
  0
TEXT
  5
2C9DF
330
2C925
100
AcDbEntity
  8
SUNPOU
100
AcDbText
 10
8324.936799553917
 20
2786.366198686851
 30
0.0
 40
89.9993750043402
  1
50  N/m
 41
0.6700000000000001
  7
01
100
AcDbText
  0
TEXT
  5
2C9E0
330
2C925
100
AcDbEntity
  8
SUNPOU
100
AcDbText
 10
8434.441820794006
 20
2632.08048440114
 30
0.0
 40
89.9993750043402
  1
34 m/s
 41
0.6700000000000001
  7
01
100
AcDbText
  0
ARC
  5
2C9E1
330
2C925
100
AcDbEntity
  8
SUNPOU
100
AcDbCircle
 10
8103.636666036049
 20
2750.153622128681
 30
0.0
 40
225.0
100
AcDbArc
 50
148.3472725282761
 51
211.6527274717238
  0
TEXT
  5
2C9E2
330
2C925
100
AcDbEntity
  8
SUNPOU
100
AcDbText
 10
8008.79447191612
 20
2098.50905582971
 30
0.0
 40
90.0
  1
注　）
  7
01
100
AcDbText
  0
TEXT
  5
2C9E3
330
2C925
100
AcDbEntity
  8
SUNPOU
100
AcDbText
 10
8119.428392128847
 20
2098.50905582971
 30
0.0
 40
90.0
  1
2
 41
0.6700000000000001
  7
01
100
AcDbText
  0
TEXT
  5
2C9E4
330
2C925
100
AcDbEntity
  8
SUNPOU
100
AcDbText
 10
8008.79447191612
 20
1944.223341543996
 30
0.0
 40
90.0
  1
注　）
  7
01
100
AcDbText
  0
TEXT
  5
2C9E5
330
2C925
100
AcDbEntity
  8
SUNPOU
100
AcDbText
 10
8119.428392128847
 20
1944.223341543996
 30
0.0
 40
90.0
  1
3
 41
0.6700000000000001
  7
01
100
AcDbText
  0
TEXT
  5
2C9E6
330
2C925
100
AcDbEntity
  8
SUNPOU
100
AcDbText
 10
8008.79447191612
 20
2407.08048440114
 30
0.0
 40
90.0
  1
注　）
  7
01
100
AcDbText
  0
TEXT
  5
2C9E7
330
2C925
100
AcDbEntity
  8
SUNPOU
100
AcDbText
 10
8119.428392128847
 20
2407.08048440114
 30
0.0
 40
90.0
  1
1
 41
0.6700000000000001
  7
01
100
AcDbText
  0
TEXT
  5
2C9E8
330
2C925
100
AcDbEntity
  8
SUNPOU
100
AcDbText
 10
8728.413409068265
 20
2836.554625044337
 30
0.0
 40
46.28539285937498
  1
2
 41
0.6700000000000001
  7
00
100
AcDbText
  0
TEXT
  5
2C9E9
330
2C925
100
AcDbEntity
  8
SUNPOU
100
AcDbText
 10
8460.773252339869
 20
2786.366198686851
 30
0.0
 40
71.99950000347218
  1
K
 41
0.6700000000000001
  7
01
100
AcDbText
  0
LINE
  5
2C9EA
330
2C925
100
AcDbEntity
  8
SUNPOU
100
AcDbLine
 10
9753.743953695447
 20
2632.08048440114
 30
0.0
 11
9753.743953695447
 21
2715.572848099918
 31
0.0
  0
LINE
  5
2C9EB
330
2C925
100
AcDbEntity
  8
SUNPOU
100
AcDbLine
 10
9770.618953695445
 20
2632.08048440114
 30
0.0
 11
9770.618953695445
 21
2715.572848099918
 31
0.0
  0
LINE
  5
2C9EC
330
2C925
100
AcDbEntity
  8
SUNPOU
100
AcDbLine
 10
9787.493953695445
 20
2632.08048440114
 30
0.0
 11
9787.493953695445
 21
2715.572848099918
 31
0.0
  0
LINE
  5
2C9ED
330
2C925
100
AcDbEntity
  8
SUNPOU
100
AcDbLine
 10
9742.493953695447
 20
2632.080484401138
 30
0.0
 11
9798.743953695447
 21
2632.080484401138
 31
0.0
  0
LINE
  5
2C9EE
330
2C925
100
AcDbEntity
  8
SUNPOU
100
AcDbLine
 10
9742.493953695447
 20
2715.572848099918
 30
0.0
 11
9798.743953695447
 21
2715.572848099918
 31
0.0
  0
TEXT
  5
2C9EF
330
2C925
100
AcDbEntity
  8
SUNPOU
100
AcDbText
 10
8662.322243632727
 20
3145.4278934405
 30
0.0
 40
92.30769230769228
  1
（ S = 　　  ）
 41
0.6700000000000001
  7
00
 11
8662.322243632727
 21
3133.120201132808
 31
0.0
100
AcDbText
 73
     1
  0
TEXT
  5
2C9F0
330
2C925
100
AcDbEntity
  8
SUNPOU
100
AcDbText
 10
8982.024945485795
 20
3161.427893440502
 30
0.0
 40
73.84615384615384
  1
1
 41
0.6700000000000001
  7
00
 11
8982.024945485795
 21
3151.581739594348
 31
0.0
100
AcDbText
 73
     1
  0
TEXT
  5
2C9F1
330
2C925
100
AcDbEntity
  8
SUNPOU
100
AcDbText
 10
9030.431072801169
 20
3142.966354978962
 30
0.0
 40
73.84615384615384
  1
/
 41
0.6700000000000001
  7
00
 11
9030.431072801169
 21
3133.120201132808
 31
0.0
100
AcDbText
 73
     1
  0
TEXT
  5
2C9F2
330
2C925
100
AcDbEntity
  8
SUNPOU
100
AcDbText
 10
9094.380515755544
 20
3124.504816517422
 30
0.0
 40
73.84615384615384
  1
30
 41
0.6700000000000001
  7
00
 11
9094.380515755544
 21
3114.658662671269
 31
0.0
100
AcDbText
 73
     1
  0
ARC
  5
2C9F3
330
2C925
100
AcDbEntity
  8
SUNPOU
100
AcDbCircle
 10
10958.86706976652
 20
2750.153622128681
 30
0.0
 40
225.0
100
AcDbArc
 50
328.3472725282761
 51
31.65272747172387
  0
TEXT
  5
2C9F4
330
2C925
100
AcDbEntity
  8
SUNPOU
100
AcDbText
 10
10809.9898052329
 20
2836.554625044337
 30
0.0
 40
46.28539285937498
  1
2
 41
0.6700000000000001
  7
00
100
AcDbText
  0
TEXT
  5
2C9F5
330
2C925
100
AcDbEntity
  8
SUNPOU
100
AcDbText
 10
10505.52532320149
 20
2786.366198686851
 30
0.0
 40
89.9993750043402
  1
N/mm
 41
0.6700000000000001
  7
01
100
AcDbText
  0
ENDSEC
  0
SECTION
  2
OBJECTS
  0
DICTIONARY
  5
2C915
330
0
100
AcDbDictionary
281
     1
  3
ACAD_GROUP
350
2C916
  3
ACAD_LAYOUT
350
2C922
  3
ACAD_MLEADERSTYLE
350
2C9A4
  3
ACAD_MLINESTYLE
350
2C91F
  3
ACAD_PLOTSETTINGS
350
2C921
  3
ACAD_PLOTSTYLENAME
350
2C917
  3
ACAD_TABLESTYLE
350
2C9A3
  3
AcDbVariableDictionary
350
2C9AB
  0
DICTIONARY
  5
2C916
102
{ACAD_REACTORS
330
2C915
102
}
330
2C915
100
AcDbDictionary
281
     1
  0
DICTIONARY
  5
2C922
102
{ACAD_REACTORS
330
2C915
102
}
330
2C915
100
AcDbDictionary
281
     1
  3
Layout1
350
2C924
  3
Model
350
2C926
  0
DICTIONARY
  5
2C9A4
102
{ACAD_REACTORS
330
2C915
102
}
330
2C915
100
AcDbDictionary
281
     1
  0
DICTIONARY
  5
2C91F
102
{ACAD_REACTORS
330
2C915
102
}
330
2C915
100
AcDbDictionary
281
     1
  3
Standard
350
2C920
  0
DICTIONARY
  5
2C921
102
{ACAD_REACTORS
330
2C915
102
}
330
2C915
100
AcDbDictionary
281
     1
  0
ACDBDICTIONARYWDFLT
  5
2C917
102
{ACAD_REACTORS
330
2C915
102
}
330
2C915
100
AcDbDictionary
281
     1
  3
Normal
350
2C918
100
AcDbDictionaryWithDefault
340
2C918
  0
DICTIONARY
  5
2C9A3
102
{ACAD_REACTORS
330
2C915
102
}
330
2C915
100
AcDbDictionary
281
     1
  0
DICTIONARY
  5
2C9AB
102
{ACAD_REACTORS
330
2C915
102
}
330
2C915
100
AcDbDictionary
281
     1
  3
DIMASSOC
350
2C9AC
  0
LAYOUT
  5
2C924
102
{ACAD_REACTORS
330
2C922
102
}
330
2C922
100
AcDbPlotSettings
  1

  2
none_device
  4

  6

 40
0.0
 41
0.0
 42
0.0
 43
0.0
 44
0.0
 45
0.0
 46
0.0
 47
0.0
 48
0.0
 49
0.0
140
0.0
141
0.0
142
1.0
143
1.0
 70
   688
 72
     0
 73
     0
 74
     5
  7

 75
    16
147
1.0
148
0.0
149
0.0
100
AcDbLayout
  1
Layout1
 70
     0
 71
     1
 10
0.0
 20
0.0
 11
12.0
 21
9.0
 12
0.0
 22
0.0
 32
0.0
 14
1.000000000000000E+20
 24
1.000000000000000E+20
 34
1.000000000000000E+20
 15
-1.000000000000000E+20
 25
-1.000000000000000E+20
 35
-1.000000000000000E+20
146
0.0
 13
0.0
 23
0.0
 33
0.0
 16
1.0
 26
0.0
 36
0.0
 17
0.0
 27
1.0
 37
0.0
 76
     0
330
2C923
  0
LAYOUT
  5
2C926
102
{ACAD_REACTORS
330
2C922
102
}
330
2C922
100
AcDbPlotSettings
  1

  2
none_device
  4

  6

 40
0.0
 41
0.0
 42
0.0
 43
0.0
 44
0.0
 45
0.0
 46
0.0
 47
0.0
 48
0.0
 49
0.0
140
0.0
141
0.0
142
1.0
143
1.0
 70
  1712
 72
     0
 73
     0
 74
     0
  7

 75
     0
147
1.0
148
0.0
149
0.0
100
AcDbLayout
  1
Model
 70
     1
 71
     0
 10
0.0
 20
0.0
 11
12.0
 21
9.0
 12
267.0
 22
194.8999999999998
 32
0.0
 14
325.4974662390304
 24
122.76811781196
 34
-0.0000000000000053
 15
12286.99954069103
 25
8431.707478684499
 35
0.0000000000000099
146
0.0
 13
0.0
 23
0.0
 33
0.0
 16
1.0
 26
0.0
 36
0.0
 17
0.0
 27
1.0
 37
0.0
 76
     0
330
2C925
331
2C928
  0
MLINESTYLE
  5
2C920
102
{ACAD_REACTORS
330
2C91F
102
}
330
2C91F
100
AcDbMlineStyle
  2
STANDARD
 70
     0
  3

 62
   256
 51
90.0
 52
90.0
 71
     2
 49
0.5
 62
   256
  6
BYLAYER
 49
-0.5
 62
   256
  6
BYLAYER
  0
ACDBPLACEHOLDER
  5
2C918
102
{ACAD_REACTORS
330
2C917
102
}
330
2C917
  0
DICTIONARYVAR
  5
2C9AC
102
{ACAD_REACTORS
330
2C9AB
102
}
330
2C9AB
100
DictionaryVariables
280
     0
  1
1
  0
ENDSEC
  0
EOF
