  0
SECTION
  2
HEADER
  9
$ACADVER
  1
AC1015
  9
$ACADMAINTVER
 70
    13
  9
$DWGCODEPAGE
  3
ANSI_932
  9
$INSBASE
 10
267.0
 20
194.8999999999998
 30
0.0
  9
$EXTMIN
 10
325.5000000000006
 20
123.3571428571426
 30
0.0
  9
$EXTMAX
 10
12286.5
 20
8431.500000000005
 30
0.0
  9
$LIMMIN
 10
0.0
 20
0.0
  9
$LIMMAX
 10
12600.0
 20
8910.0
  9
$ORTHOMODE
 70
     0
  9
$REGENMODE
 70
     1
  9
$FILLMODE
 70
     1
  9
$QTEXTMODE
 70
     0
  9
$MIRRTEXT
 70
     0
  9
$LTSCALE
 40
30.0
  9
$ATTMODE
 70
     1
  9
$TEXTSIZE
 40
0.2
  9
$TRACEWID
 40
0.05
  9
$TEXTSTYLE
  7
00
  9
$CLAYER
  8
SUNPOU
  9
$CELTYPE
  6
ByLayer
  9
$CECOLOR
 62
   256
  9
$CELTSCALE
 40
1.0
  9
$DISPSILH
 70
     0
  9
$DIMSCALE
 40
30.0
  9
$DIMASZ
 40
0.5
  9
$DIMEXO
 40
1.0
  9
$DIMDLI
 40
7.0
  9
$DIMRND
 40
0.0
  9
$DIMDLE
 40
3.0
  9
$DIMEXE
 40
1.5
  9
$DIMTP
 40
0.0
  9
$DIMTM
 40
0.0
  9
$DIMTXT
 40
3.0
  9
$DIMCEN
 40
0.0
  9
$DIMTSZ
 40
0.0
  9
$DIMTOL
 70
     0
  9
$DIMLIM
 70
     0
  9
$DIMTIH
 70
     0
  9
$DIMTOH
 70
     0
  9
$DIMSE1
 70
     0
  9
$DIMSE2
 70
     0
  9
$DIMTAD
 70
     1
  9
$DIMZIN
 70
     8
  9
$DIMBLK
  1
DOT
  9
$DIMASO
 70
     1
  9
$DIMSHO
 70
     0
  9
$DIMPOST
  1

  9
$DIMAPOST
  1

  9
$DIMALT
 70
     0
  9
$DIMALTD
 70
     2
  9
$DIMALTF
 40
25.4
  9
$DIMLFAC
 40
1.0
  9
$DIMTOFL
 70
     1
  9
$DIMTVP
 40
0.0
  9
$DIMTIX
 70
     0
  9
$DIMSOXD
 70
     0
  9
$DIMSAH
 70
     1
  9
$DIMBLK1
  1
DOT
  9
$DIMBLK2
  1
DOT
  9
$DIMSTYLE
  2
SUNPOU_図面名
  9
$DIMCLRD
 70
   256
  9
$DIMCLRE
 70
   256
  9
$DIMCLRT
 70
   256
  9
$DIMTFAC
 40
1.0
  9
$DIMGAP
 40
1.5
  9
$DIMJUST
 70
     0
  9
$DIMSD1
 70
     0
  9
$DIMSD2
 70
     0
  9
$DIMTOLJ
 70
     1
  9
$DIMTZIN
 70
     0
  9
$DIMALTZ
 70
     0
  9
$DIMALTTZ
 70
     0
  9
$DIMUPT
 70
     0
  9
$DIMDEC
 70
     2
  9
$DIMTDEC
 70
     2
  9
$DIMALTU
 70
     2
  9
$DIMALTTD
 70
     2
  9
$DIMTXSTY
  7
STANDARD
  9
$DIMAUNIT
 70
     0
  9
$DIMADEC
 70
     0
  9
$DIMALTRND
 40
0.0
  9
$DIMAZIN
 70
     0
  9
$DIMDSEP
 70
    46
  9
$DIMATFIT
 70
     3
  9
$DIMFRAC
 70
     0
  9
$DIMLDRBLK
  1

  9
$DIMLUNIT
 70
     2
  9
$DIMLWD
 70
    -2
  9
$DIMLWE
 70
    -2
  9
$DIMTMOVE
 70
     2
  9
$LUNITS
 70
     2
  9
$LUPREC
 70
     2
  9
$SKETCHINC
 40
0.1
  9
$FILLETRAD
 40
5.0
  9
$AUNITS
 70
     0
  9
$AUPREC
 70
     0
  9
$MENU
  1
A:\TIGER\MENU\TIGER
  9
$ELEVATION
 40
0.0
  9
$PELEVATION
 40
0.0
  9
$THICKNESS
 40
0.0
  9
$LIMCHECK
 70
     0
  9
$CHAMFERA
 40
0.0
  9
$CHAMFERB
 40
0.0
  9
$CHAMFERC
 40
1.0
  9
$CHAMFERD
 40
0.0
  9
$SKPOLY
 70
     0
  9
$TDCREATE
 40
2450266.571064815
  9
$TDUCREATE
 40
2450266.196064815
  9
$TDUPDATE
 40
2456331.331408414
  9
$TDUUPDATE
 40
2456330.956408414
  9
$TDINDWG
 40
0.3923423148
  9
$TDUSRTIMER
 40
0.3923421296
  9
$USRTIMER
 70
     1
  9
$ANGBASE
 50
0.0
  9
$ANGDIR
 70
     0
  9
$PDMODE
 70
     0
  9
$PDSIZE
 40
0.0
  9
$PLINEWID
 40
0.0
  9
$SPLFRAME
 70
     0
  9
$SPLINETYPE
 70
     6
  9
$SPLINESEGS
 70
     8
  9
$HANDSEED
  5
2C00D
  9
$SURFTAB1
 70
     6
  9
$SURFTAB2
 70
     6
  9
$SURFTYPE
 70
     6
  9
$SURFU
 70
     6
  9
$SURFV
 70
     6
  9
$UCSBASE
  2

  9
$UCSNAME
  2

  9
$UCSORG
 10
0.0
 20
0.0
 30
0.0
  9
$UCSXDIR
 10
1.0
 20
0.0
 30
0.0
  9
$UCSYDIR
 10
0.0
 20
1.0
 30
0.0
  9
$UCSORTHOREF
  2

  9
$UCSORTHOVIEW
 70
     0
  9
$UCSORGTOP
 10
0.0
 20
0.0
 30
0.0
  9
$UCSORGBOTTOM
 10
0.0
 20
0.0
 30
0.0
  9
$UCSORGLEFT
 10
0.0
 20
0.0
 30
0.0
  9
$UCSORGRIGHT
 10
0.0
 20
0.0
 30
0.0
  9
$UCSORGFRONT
 10
0.0
 20
0.0
 30
0.0
  9
$UCSORGBACK
 10
0.0
 20
0.0
 30
0.0
  9
$PUCSBASE
  2

  9
$PUCSNAME
  2

  9
$PUCSORG
 10
0.0
 20
0.0
 30
0.0
  9
$PUCSXDIR
 10
1.0
 20
0.0
 30
0.0
  9
$PUCSYDIR
 10
0.0
 20
1.0
 30
0.0
  9
$PUCSORTHOREF
  2

  9
$PUCSORTHOVIEW
 70
     0
  9
$PUCSORGTOP
 10
0.0
 20
0.0
 30
0.0
  9
$PUCSORGBOTTOM
 10
0.0
 20
0.0
 30
0.0
  9
$PUCSORGLEFT
 10
0.0
 20
0.0
 30
0.0
  9
$PUCSORGRIGHT
 10
0.0
 20
0.0
 30
0.0
  9
$PUCSORGFRONT
 10
0.0
 20
0.0
 30
0.0
  9
$PUCSORGBACK
 10
0.0
 20
0.0
 30
0.0
  9
$USERI1
 70
     3
  9
$USERI2
 70
     0
  9
$USERI3
 70
     0
  9
$USERI4
 70
     0
  9
$USERI5
 70
  1103
  9
$USERR1
 40
0.0
  9
$USERR2
 40
1.0
  9
$USERR3
 40
0.0
  9
$USERR4
 40
0.0
  9
$USERR5
 40
0.0
  9
$WORLDVIEW
 70
     1
  9
$SHADEDGE
 70
     3
  9
$SHADEDIF
 70
    70
  9
$TILEMODE
 70
     1
  9
$MAXACTVP
 70
    16
  9
$PINSBASE
 10
0.0
 20
0.0
 30
0.0
  9
$PLIMCHECK
 70
     0
  9
$PEXTMIN
 10
1.000000000000000E+20
 20
1.000000000000000E+20
 30
1.000000000000000E+20
  9
$PEXTMAX
 10
-1.000000000000000E+20
 20
-1.000000000000000E+20
 30
-1.000000000000000E+20
  9
$PLIMMIN
 10
0.0
 20
0.0
  9
$PLIMMAX
 10
12.0
 20
9.0
  9
$UNITMODE
 70
     0
  9
$VISRETAIN
 70
     0
  9
$PLINEGEN
 70
     1
  9
$PSLTSCALE
 70
     0
  9
$TREEDEPTH
 70
  3020
  9
$CMLSTYLE
  2
Standard
  9
$CMLJUST
 70
     0
  9
$CMLSCALE
 40
1.0
  9
$PROXYGRAPHICS
 70
     1
  9
$MEASUREMENT
 70
     0
  9
$CELWEIGHT
370
    -1
  9
$ENDCAPS
280
     0
  9
$JOINSTYLE
280
     0
  9
$LWDISPLAY
290
     0
  9
$INSUNITS
 70
     0
  9
$HYPERLINKBASE
  1

  9
$STYLESHEET
  1

  9
$XEDIT
290
     1
  9
$CEPSNTYPE
380
     0
  9
$PSTYLEMODE
290
     1
  9
$FINGERPRINTGUID
  2
{7A6F9727-EDC6-4220-924F-4455BABA8684}
  9
$VERSIONGUID
  2
{7A8CB80B-D0A3-416C-9E05-04C8AACED477}
  9
$EXTNAMES
290
     1
  9
$PSVPSCALE
 40
0.0
  9
$OLESTARTUP
290
     0
  0
ENDSEC
  0
SECTION
  2
CLASSES
  0
CLASS
  1
ACDBDICTIONARYWDFLT
  2
AcDbDictionaryWithDefault
  3
AutoCAD 2000
 90
        0
280
     0
281
     0
  0
CLASS
  1
ACDBPLACEHOLDER
  2
AcDbPlaceHolder
  3
AutoCAD 2000
 90
        0
280
     0
281
     0
  0
CLASS
  1
LAYOUT
  2
AcDbLayout
  3
AutoCAD 2000
 90
        0
280
     0
281
     0
  0
CLASS
  1
DICTIONARYVAR
  2
AcDbDictionaryVar
  3
AutoCAD 2000
 90
        0
280
     0
281
     0
  0
ENDSEC
  0
SECTION
  2
TABLES
  0
TABLE
  2
VPORT
  5
2BF21
330
0
100
AcDbSymbolTable
 70
     2
  0
VPORT
  5
2C00C
330
2BF21
100
AcDbSymbolTableRecord
100
AcDbViewportTableRecord
  2
*Active
 70
     0
 10
0.0
 20
0.0
 11
1.0
 21
1.0
 12
6300.000000000002
 22
5830.682562647865
 13
0.0
 23
0.0
 14
1.0
 24
1.0
 15
0.0
 25
0.0
 16
0.0
 26
0.0
 36
1.0
 17
0.0
 27
0.0
 37
0.0
 40
11739.50481274205
 41
1.236040609137055
 42
50.0
 43
0.0
 44
0.0
 50
0.0
 51
0.0
 71
     0
 72
 10000
 73
     1
 74
     0
 75
     0
 76
     0
 77
     0
 78
     0
281
     0
 65
     0
110
0.0
120
0.0
130
0.0
111
1.0
121
0.0
131
0.0
112
0.0
122
1.0
132
0.0
 79
     0
146
0.0
  0
ENDTAB
  0
TABLE
  2
LTYPE
  5
2BF1E
330
0
100
AcDbSymbolTable
 70
     9
  0
LTYPE
  5
2BF2C
330
2BF1E
100
AcDbSymbolTableRecord
100
AcDbLinetypeTableRecord
  2
ByBlock
 70
     0
  3

 72
    65
 73
     0
 40
0.0
  0
LTYPE
  5
2BF2D
330
2BF1E
100
AcDbSymbolTableRecord
100
AcDbLinetypeTableRecord
  2
ByLayer
 70
     0
  3

 72
    65
 73
     0
 40
0.0
  0
LTYPE
  5
2BF2E
330
2BF1E
100
AcDbSymbolTableRecord
100
AcDbLinetypeTableRecord
  2
CONTINUOUS
 70
     0
  3
実線
 72
    65
 73
     0
 40
0.0
  0
LTYPE
  5
2BF3A
330
2BF1E
100
AcDbSymbolTableRecord
100
AcDbLinetypeTableRecord
  2
HIDE-M
 70
     0
  3

 72
    65
 73
     2
 40
2.0
 49
1.0
 74
     0
 49
-1.0
 74
     0
  0
LTYPE
  5
2BF3B
330
2BF1E
100
AcDbSymbolTableRecord
100
AcDbLinetypeTableRecord
  2
HIDE-S
 70
     0
  3

 72
    65
 73
     2
 40
1.0
 49
0.5
 74
     0
 49
-0.5
 74
     0
  0
LTYPE
  5
2BF3C
330
2BF1E
100
AcDbSymbolTableRecord
100
AcDbLinetypeTableRecord
  2
TENSEN-
 70
     0
  3

 72
    65
 73
     2
 40
0.6000000000000001
 49
0.2
 74
     0
 49
-0.4
 74
     0
  0
LTYPE
  5
2BF3D
330
2BF1E
100
AcDbSymbolTableRecord
100
AcDbLinetypeTableRecord
  2
1PL-M
 70
     0
  3

 72
    65
 73
     4
 40
15.0
 49
12.0
 74
     0
 49
-1.0
 74
     0
 49
1.0
 74
     0
 49
-1.0
 74
     0
  0
LTYPE
  5
2BF3E
330
2BF1E
100
AcDbSymbolTableRecord
100
AcDbLinetypeTableRecord
  2
1PL-12
 70
     0
  3

 72
    65
 73
     4
 40
15.0
 49
12.0
 74
     0
 49
-1.0
 74
     0
 49
1.0
 74
     0
 49
-1.0
 74
     0
  0
LTYPE
  5
2BF3F
330
2BF1E
100
AcDbSymbolTableRecord
100
AcDbLinetypeTableRecord
  2
KAKURE-1
 70
     0
  3

 72
    65
 73
     2
 40
2.0
 49
1.0
 74
     0
 49
-1.0
 74
     0
  0
LTYPE
  5
2BF40
330
2BF1E
100
AcDbSymbolTableRecord
100
AcDbLinetypeTableRecord
  2
2PL-12
 70
     0
  3

 72
    65
 73
     6
 40
17.0
 49
12.0
 74
     0
 49
-1.0
 74
     0
 49
1.0
 74
     0
 49
-1.0
 74
     0
 49
1.0
 74
     0
 49
-1.0
 74
     0
  0
LTYPE
  5
2BF41
330
2BF1E
100
AcDbSymbolTableRecord
100
AcDbLinetypeTableRecord
  2
2PL-5
 70
     0
  3

 72
    65
 73
     6
 40
7.5
 49
5.0
 74
     0
 49
-0.5
 74
     0
 49
0.5
 74
     0
 49
-0.5
 74
     0
 49
0.5
 74
     0
 49
-0.5
 74
     0
  0
ENDTAB
  0
TABLE
  2
LAYER
  5
2BF1B
330
0
100
AcDbSymbolTable
 70
    27
  0
LAYER
  5
2BF29
330
2BF1B
100
AcDbSymbolTableRecord
100
AcDbLayerTableRecord
  2
0
 70
     0
 62
     7
  6
CONTINUOUS
370
    -3
390
2BF28
  0
LAYER
  5
2BF43
330
2BF1B
100
AcDbSymbolTableRecord
100
AcDbLayerTableRecord
  2
U1
 70
     0
 62
     3
  6
CONTINUOUS
370
    -3
390
2BF28
  0
LAYER
  5
2BF44
330
2BF1B
100
AcDbSymbolTableRecord
100
AcDbLayerTableRecord
  2
U2
 70
     0
 62
     4
  6
CONTINUOUS
370
    -3
390
2BF28
  0
LAYER
  5
2BF45
330
2BF1B
100
AcDbSymbolTableRecord
100
AcDbLayerTableRecord
  2
U3
 70
     0
 62
     6
  6
CONTINUOUS
370
    -3
390
2BF28
  0
LAYER
  5
2BF46
330
2BF1B
100
AcDbSymbolTableRecord
100
AcDbLayerTableRecord
  2
U7
 70
     0
 62
     2
  6
CONTINUOUS
370
    -3
390
2BF28
  0
LAYER
  5
2BF47
330
2BF1B
100
AcDbSymbolTableRecord
100
AcDbLayerTableRecord
  2
SUNPOU
 70
     0
 62
     4
  6
CONTINUOUS
370
    -3
390
2BF28
  0
LAYER
  5
2BF48
330
2BF1B
100
AcDbSymbolTableRecord
100
AcDbLayerTableRecord
  2
HIKIDASHI
 70
     0
 62
     6
  6
CONTINUOUS
370
    -3
390
2BF28
  0
LAYER
  5
2BF49
330
2BF1B
100
AcDbSymbolTableRecord
100
AcDbLayerTableRecord
  2
TENSEN-1
 70
     0
 62
     6
  6
TENSEN-
370
    -3
390
2BF28
  0
LAYER
  5
2BF4A
330
2BF1B
100
AcDbSymbolTableRecord
100
AcDbLayerTableRecord
  2
HIDE-S1
 70
     0
 62
     6
  6
HIDE-S
370
    -3
390
2BF28
  0
LAYER
  5
2BF4B
330
2BF1B
100
AcDbSymbolTableRecord
100
AcDbLayerTableRecord
  2
HIDE-M1
 70
     0
 62
     6
  6
HIDE-M
370
    -3
390
2BF28
  0
LAYER
  5
2BF4C
330
2BF1B
100
AcDbSymbolTableRecord
100
AcDbLayerTableRecord
  2
1PL-M1
 70
     0
 62
     6
  6
1PL-M
370
    -3
390
2BF28
  0
LAYER
  5
2BF4D
330
2BF1B
100
AcDbSymbolTableRecord
100
AcDbLayerTableRecord
  2
YANE
 70
     0
 62
     1
  6
CONTINUOUS
370
    -3
390
2BF28
  0
LAYER
  5
2BF4E
330
2BF1B
100
AcDbSymbolTableRecord
100
AcDbLayerTableRecord
  2
KISO
 70
     0
 62
     2
  6
CONTINUOUS
370
    -3
390
2BF28
  0
LAYER
  5
2BF4F
330
2BF1B
100
AcDbSymbolTableRecord
100
AcDbLayerTableRecord
  2
HATCH
 70
     0
 62
     1
  6
CONTINUOUS
370
    -3
390
2BF28
  0
LAYER
  5
2BF50
330
2BF1B
100
AcDbSymbolTableRecord
100
AcDbLayerTableRecord
  2
NAME
 70
     0
 62
    20
  6
CONTINUOUS
370
    -3
390
2BF28
  0
LAYER
  5
2BF51
330
2BF1B
100
AcDbSymbolTableRecord
100
AcDbLayerTableRecord
  2
FILENAME
 70
     0
 62
     7
  6
CONTINUOUS
370
    -3
390
2BF28
  0
LAYER
  5
2BF52
330
2BF1B
100
AcDbSymbolTableRecord
100
AcDbLayerTableRecord
  2
BOLT
 70
     0
 62
     4
  6
CONTINUOUS
370
    -3
390
2BF28
  0
LAYER
  5
2BF53
330
2BF1B
100
AcDbSymbolTableRecord
100
AcDbLayerTableRecord
  2
HASIRA
 70
     0
 62
     3
  6
CONTINUOUS
370
    -3
390
2BF28
  0
LAYER
  5
2BF54
330
2BF1B
100
AcDbSymbolTableRecord
100
AcDbLayerTableRecord
  2
DOMAKON
 70
     0
 62
     2
  6
CONTINUOUS
370
    -3
390
2BF28
  0
LAYER
  5
2BF55
330
2BF1B
100
AcDbSymbolTableRecord
100
AcDbLayerTableRecord
  2
KISO-1
 70
     0
 62
     1
  6
2PL-12
370
    -3
390
2BF28
  0
LAYER
  5
2BF56
330
2BF1B
100
AcDbSymbolTableRecord
100
AcDbLayerTableRecord
  2
KISO-2
 70
     0
 62
     1
  6
KAKURE-1
370
    -3
390
2BF28
  0
LAYER
  5
2BF57
330
2BF1B
100
AcDbSymbolTableRecord
100
AcDbLayerTableRecord
  2
SIN
 70
     0
 62
     6
  6
1PL-12
370
    -3
390
2BF28
  0
LAYER
  5
2BF58
330
2BF1B
100
AcDbSymbolTableRecord
100
AcDbLayerTableRecord
  2
KISO-3
 70
     0
 62
     1
  6
2PL-5
370
    -3
390
2BF28
  0
LAYER
  5
2BF59
330
2BF1B
100
AcDbSymbolTableRecord
100
AcDbLayerTableRecord
  2
YODOROGO
 70
     0
 62
   130
  6
CONTINUOUS
370
    -3
390
2BF28
  0
LAYER
  5
2BF5A
330
2BF1B
100
AcDbSymbolTableRecord
100
AcDbLayerTableRecord
  2
WAKUSEN-01
 70
     0
 62
    50
  6
CONTINUOUS
370
    -3
390
2BF28
  0
LAYER
  5
2BF5B
330
2BF1B
100
AcDbSymbolTableRecord
100
AcDbLayerTableRecord
  2
WAKUSEN-02
 70
     0
 62
   130
  6
CONTINUOUS
370
    -3
390
2BF28
  0
LAYER
  5
2BF5C
330
2BF1B
100
AcDbSymbolTableRecord
100
AcDbLayerTableRecord
  2
WAKUMOJI-01
 70
     0
 62
   130
  6
CONTINUOUS
370
    -3
390
2BF28
  0
ENDTAB
  0
TABLE
  2
STYLE
  5
2BF1C
330
0
100
AcDbSymbolTable
 70
     5
  0
STYLE
  5
2BF2A
330
2BF1C
100
AcDbSymbolTableRecord
100
AcDbTextStyleTableRecord
  2
STANDARD
 70
     0
 40
3.0
 41
1.0
 50
0.0
 71
     0
 42
0.2
  3
ROMANS
  4
EXTFONT
  0
STYLE
  5
2BF5E
330
2BF1C
100
AcDbSymbolTableRecord
100
AcDbTextStyleTableRecord
  2
01
 70
     0
 40
3.0
 41
1.0
 50
0.0
 71
     0
 42
0.2
  3
ROMANS
  4
BIGFONT
  0
STYLE
  5
2BF5F
330
2BF1C
100
AcDbSymbolTableRecord
100
AcDbTextStyleTableRecord
  2
00
 70
     0
 40
0.0
 41
0.6666666666666666
 50
0.0
 71
     0
 42
0.2
  3
ROMANS
  4
BIGFONT
  0
STYLE
  5
2BF60
330
2BF1C
100
AcDbSymbolTableRecord
100
AcDbTextStyleTableRecord
  2
WAKUMOJI
 70
     0
 40
3.0
 41
1.0
 50
0.0
 71
     0
 42
3.0
  3
SIMPLEX
  4
BIGFONT
  0
STYLE
  5
2BF61
330
2BF1C
100
AcDbSymbolTableRecord
100
AcDbTextStyleTableRecord
  2
FILENAME
 70
     0
 40
75.0
 41
1.0
 50
0.0
 71
     0
 42
75.0
  3
romans
  4
bigfont
  0
ENDTAB
  0
TABLE
  2
VIEW
  5
2BF1F
330
0
100
AcDbSymbolTable
 70
     0
  0
ENDTAB
  0
TABLE
  2
UCS
  5
2BF20
330
0
100
AcDbSymbolTable
 70
     0
  0
ENDTAB
  0
TABLE
  2
APPID
  5
2BF22
330
0
100
AcDbSymbolTable
 70
     4
  0
APPID
  5
2BF2B
330
2BF22
100
AcDbSymbolTableRecord
100
AcDbRegAppTableRecord
  2
ACAD
 70
     0
  0
APPID
  5
2BF63
330
2BF22
100
AcDbSymbolTableRecord
100
AcDbRegAppTableRecord
  2
AUTOCAD_POSTSCRIPT_FIGURE
 70
     0
  0
APPID
  5
2BF64
330
2BF22
100
AcDbSymbolTableRecord
100
AcDbRegAppTableRecord
  2
ACAD_PSEXT
 70
     0
  0
APPID
  5
2BF65
330
2BF22
100
AcDbSymbolTableRecord
100
AcDbRegAppTableRecord
  2
ACAD_EXEMPT_FROM_CAD_STANDARDS
 70
     0
  0
ENDTAB
  0
TABLE
  2
DIMSTYLE
  5
2BF23
330
0
100
AcDbSymbolTable
 70
     1
100
AcDbDimStyleTable
 71
     0
  0
DIMSTYLE
105
D00
330
2BF23
100
AcDbSymbolTableRecord
100
AcDbDimStyleTableRecord
  2
SUNPOU_図面名
 70
     0
 40
30.0
 41
0.5
 42
1.0
 43
7.0
 44
1.5
 46
3.0
 73
     0
 74
     0
 77
     1
 78
     8
140
3.0
141
0.0
147
1.5
172
     1
173
     1
176
   256
177
   256
178
   256
340
2BF5F
341
2BF69
342
2BF69
343
2BF69
344
2BF69
  0
ENDTAB
  0
TABLE
  2
BLOCK_RECORD
  5
2BF1A
330
0
100
AcDbSymbolTable
 70
    42
  0
BLOCK_RECORD
  5
2BF35
330
2BF1A
100
AcDbSymbolTableRecord
100
AcDbBlockTableRecord
  2
*Model_Space
340
2BF36
  0
BLOCK_RECORD
  5
2BF33
330
2BF1A
100
AcDbSymbolTableRecord
100
AcDbBlockTableRecord
  2
*Paper_Space
340
2BF34
  0
BLOCK_RECORD
  5
2BF69
330
2BF1A
100
AcDbSymbolTableRecord
100
AcDbBlockTableRecord
  2
DOT
340
0
  0
BLOCK_RECORD
  5
2BF6B
330
2BF1A
100
AcDbSymbolTableRecord
100
AcDbBlockTableRecord
  2
*U1
340
0
  0
BLOCK_RECORD
  5
2BF6D
330
2BF1A
100
AcDbSymbolTableRecord
100
AcDbBlockTableRecord
  2
*U2
340
0
  0
BLOCK_RECORD
  5
2BF6F
330
2BF1A
100
AcDbSymbolTableRecord
100
AcDbBlockTableRecord
  2
*U3
340
0
  0
BLOCK_RECORD
  5
2BF71
330
2BF1A
100
AcDbSymbolTableRecord
100
AcDbBlockTableRecord
  2
*U4
340
0
  0
BLOCK_RECORD
  5
2BF73
330
2BF1A
100
AcDbSymbolTableRecord
100
AcDbBlockTableRecord
  2
*U5
340
0
  0
BLOCK_RECORD
  5
2BF75
330
2BF1A
100
AcDbSymbolTableRecord
100
AcDbBlockTableRecord
  2
*U6
340
0
  0
BLOCK_RECORD
  5
2BF77
330
2BF1A
100
AcDbSymbolTableRecord
100
AcDbBlockTableRecord
  2
*U7
340
0
  0
BLOCK_RECORD
  5
2BF79
330
2BF1A
100
AcDbSymbolTableRecord
100
AcDbBlockTableRecord
  2
*U8
340
0
  0
BLOCK_RECORD
  5
2BF7B
330
2BF1A
100
AcDbSymbolTableRecord
100
AcDbBlockTableRecord
  2
*U9
340
0
  0
BLOCK_RECORD
  5
2BF7D
330
2BF1A
100
AcDbSymbolTableRecord
100
AcDbBlockTableRecord
  2
*U10
340
0
  0
BLOCK_RECORD
  5
2BF7F
330
2BF1A
100
AcDbSymbolTableRecord
100
AcDbBlockTableRecord
  2
*U11
340
0
  0
BLOCK_RECORD
  5
2BF81
330
2BF1A
100
AcDbSymbolTableRecord
100
AcDbBlockTableRecord
  2
*U12
340
0
  0
BLOCK_RECORD
  5
2BF83
330
2BF1A
100
AcDbSymbolTableRecord
100
AcDbBlockTableRecord
  2
*U13
340
0
  0
BLOCK_RECORD
  5
2BF85
330
2BF1A
100
AcDbSymbolTableRecord
100
AcDbBlockTableRecord
  2
*U14
340
0
  0
BLOCK_RECORD
  5
2BF87
330
2BF1A
100
AcDbSymbolTableRecord
100
AcDbBlockTableRecord
  2
*U15
340
0
  0
BLOCK_RECORD
  5
2BF89
330
2BF1A
100
AcDbSymbolTableRecord
100
AcDbBlockTableRecord
  2
*U16
340
0
  0
BLOCK_RECORD
  5
2BF8B
330
2BF1A
100
AcDbSymbolTableRecord
100
AcDbBlockTableRecord
  2
*U17
340
0
  0
BLOCK_RECORD
  5
2BF8D
330
2BF1A
100
AcDbSymbolTableRecord
100
AcDbBlockTableRecord
  2
*U18
340
0
  0
BLOCK_RECORD
  5
2BF8F
330
2BF1A
100
AcDbSymbolTableRecord
100
AcDbBlockTableRecord
  2
*U19
340
0
  0
BLOCK_RECORD
  5
2BF91
330
2BF1A
100
AcDbSymbolTableRecord
100
AcDbBlockTableRecord
  2
*U20
340
0
  0
BLOCK_RECORD
  5
2BF93
330
2BF1A
100
AcDbSymbolTableRecord
100
AcDbBlockTableRecord
  2
*U21
340
0
  0
BLOCK_RECORD
  5
2BF95
330
2BF1A
100
AcDbSymbolTableRecord
100
AcDbBlockTableRecord
  2
*U22
340
0
  0
BLOCK_RECORD
  5
2BF97
330
2BF1A
100
AcDbSymbolTableRecord
100
AcDbBlockTableRecord
  2
*U23
340
0
  0
BLOCK_RECORD
  5
2BF99
330
2BF1A
100
AcDbSymbolTableRecord
100
AcDbBlockTableRecord
  2
*U24
340
0
  0
BLOCK_RECORD
  5
2BF9B
330
2BF1A
100
AcDbSymbolTableRecord
100
AcDbBlockTableRecord
  2
*U25
340
0
  0
BLOCK_RECORD
  5
2BF9D
330
2BF1A
100
AcDbSymbolTableRecord
100
AcDbBlockTableRecord
  2
*U26
340
0
  0
BLOCK_RECORD
  5
2BF9F
330
2BF1A
100
AcDbSymbolTableRecord
100
AcDbBlockTableRecord
  2
*U27
340
0
  0
BLOCK_RECORD
  5
2BFA1
330
2BF1A
100
AcDbSymbolTableRecord
100
AcDbBlockTableRecord
  2
*U28
340
0
  0
BLOCK_RECORD
  5
2BFA3
330
2BF1A
100
AcDbSymbolTableRecord
100
AcDbBlockTableRecord
  2
*U29
340
0
  0
BLOCK_RECORD
  5
2BFA5
330
2BF1A
100
AcDbSymbolTableRecord
100
AcDbBlockTableRecord
  2
*U30
340
0
  0
BLOCK_RECORD
  5
2BFA7
330
2BF1A
100
AcDbSymbolTableRecord
100
AcDbBlockTableRecord
  2
*U31
340
0
  0
BLOCK_RECORD
  5
2BFA9
330
2BF1A
100
AcDbSymbolTableRecord
100
AcDbBlockTableRecord
  2
*U32
340
0
  0
BLOCK_RECORD
  5
2BFAB
330
2BF1A
100
AcDbSymbolTableRecord
100
AcDbBlockTableRecord
  2
*U33
340
0
  0
BLOCK_RECORD
  5
2BFAD
330
2BF1A
100
AcDbSymbolTableRecord
100
AcDbBlockTableRecord
  2
*U34
340
0
  0
BLOCK_RECORD
  5
2BFAF
330
2BF1A
100
AcDbSymbolTableRecord
100
AcDbBlockTableRecord
  2
*U35
340
0
  0
BLOCK_RECORD
  5
2BFB1
330
2BF1A
100
AcDbSymbolTableRecord
100
AcDbBlockTableRecord
  2
*U36
340
0
  0
BLOCK_RECORD
  5
2BFB3
330
2BF1A
100
AcDbSymbolTableRecord
100
AcDbBlockTableRecord
  2
*U37
340
0
  0
BLOCK_RECORD
  5
2BFB5
330
2BF1A
100
AcDbSymbolTableRecord
100
AcDbBlockTableRecord
  2
*U38
340
0
  0
BLOCK_RECORD
  5
2BFB7
330
2BF1A
100
AcDbSymbolTableRecord
100
AcDbBlockTableRecord
  2
*U39
340
0
  0
BLOCK_RECORD
  5
2BFB9
330
2BF1A
100
AcDbSymbolTableRecord
100
AcDbBlockTableRecord
  2
*U40
340
0
  0
ENDTAB
  0
ENDSEC
  0
SECTION
  2
BLOCKS
  0
BLOCK
  5
2BF66
330
2BF35
100
AcDbEntity
  8
0
100
AcDbBlockBegin
  2
*Model_Space
 70
     0
 10
0.0
 20
0.0
 30
0.0
  3
*Model_Space
  1

  0
ENDBLK
  5
125F7
330
2BF35
100
AcDbEntity
  8
0
100
AcDbBlockEnd
  0
BLOCK
  5
2BF67
330
2BF33
100
AcDbEntity
 67
     1
  8
0
100
AcDbBlockBegin
  2
*Paper_Space
 70
     0
 10
0.0
 20
0.0
 30
0.0
  3
*Paper_Space
  1

  0
ENDBLK
  5
125F5
330
2BF33
100
AcDbEntity
 67
     1
  8
0
100
AcDbBlockEnd
  0
BLOCK
  5
2BF68
330
2BF69
100
AcDbEntity
  8
0
100
AcDbBlockBegin
  2
DOT
 70
     0
 10
0.0
 20
0.0
 30
0.0
  3
DOT
  1

  0
LWPOLYLINE
  5
12983
330
2BF69
100
AcDbEntity
  8
0
  6
ByBlock
 62
     0
100
AcDbPolyline
 90
        2
 70
     1
 43
0.75
 10
-0.375
 20
0.0
 42
1.0
 10
0.375
 20
0.0
 42
1.0
  0
LINE
  5
12984
330
2BF69
100
AcDbEntity
  8
0
  6
ByBlock
 62
     0
100
AcDbLine
 10
-0.75
 20
0.0
 30
0.0
 11
-1.5
 21
0.0
 31
0.0
  0
ENDBLK
  5
12985
330
2BF69
100
AcDbEntity
  8
0
100
AcDbBlockEnd
  0
BLOCK
  5
2BF6A
330
2BF6B
100
AcDbEntity
  8
0
100
AcDbBlockBegin
  2
*U1
 70
     1
 10
0.0
 20
0.0
 30
0.0
  3
*U1
  1

  0
TEXT
  5
2BE7B
330
2BF6B
100
AcDbEntity
  8
SUNPOU
100
AcDbText
 10
1491.040410277507
 20
5904.179056474649
 30
0.0
 40
90.0
  1
2240
 50
90.0
 41
0.6666666666666666
  7
00
100
AcDbText
  0
ENDBLK
  5
2BE7D
330
2BF6B
100
AcDbEntity
  8
0
100
AcDbBlockEnd
  0
BLOCK
  5
2BF6C
330
2BF6D
100
AcDbEntity
  8
0
100
AcDbBlockBegin
  2
*U2
 70
     1
 10
0.0
 20
0.0
 30
0.0
  3
*U2
  1

  0
TEXT
  5
2BE7F
330
2BF6D
100
AcDbEntity
  8
SUNPOU
100
AcDbText
 10
1701.040410277506
 20
5111.321913617508
 30
0.0
 40
90.0
  1
600
 50
90.0
 41
0.6666666666666666
  7
00
100
AcDbText
  0
ENDBLK
  5
2BE81
330
2BF6D
100
AcDbEntity
  8
0
100
AcDbBlockEnd
  0
BLOCK
  5
2BF6E
330
2BF6F
100
AcDbEntity
  8
0
100
AcDbBlockBegin
  2
*U3
 70
     1
 10
0.0
 20
0.0
 30
0.0
  3
*U3
  1

  0
TEXT
  5
2BE83
330
2BF6F
100
AcDbEntity
  8
SUNPOU
100
AcDbText
 10
1701.040410277506
 20
6079.893342188938
 30
0.0
 40
90.0
  1
1400
 50
90.0
 41
0.6666666666666666
  7
00
100
AcDbText
  0
ENDBLK
  5
2BE85
330
2BF6F
100
AcDbEntity
  8
0
100
AcDbBlockEnd
  0
BLOCK
  5
2BF70
330
2BF71
100
AcDbEntity
  8
0
100
AcDbBlockBegin
  2
*U4
 70
     1
 10
0.0
 20
0.0
 30
0.0
  3
*U4
  1

  0
TEXT
  5
2BE87
330
2BF71
100
AcDbEntity
  8
SUNPOU
100
AcDbText
 10
1701.040410277508
 20
6932.75048504608
 30
0.0
 40
90.0
  1
240
 50
90.0
 41
0.6666666666666666
  7
00
100
AcDbText
  0
ENDBLK
  5
2BE89
330
2BF71
100
AcDbEntity
  8
0
100
AcDbBlockEnd
  0
BLOCK
  5
2BF72
330
2BF73
100
AcDbEntity
  8
0
100
AcDbBlockBegin
  2
*U5
 70
     1
 10
0.0
 20
0.0
 30
0.0
  3
*U5
  1

  0
TEXT
  5
2BE8B
330
2BF73
100
AcDbEntity
  8
SUNPOU
100
AcDbText
 10
2310.326124563223
 20
4433.464770760363
 30
0.0
 40
90.0
  1
400
 41
0.6666666666666666
  7
00
100
AcDbText
  0
ENDBLK
  5
2BE8D
330
2BF73
100
AcDbEntity
  8
0
100
AcDbBlockEnd
  0
BLOCK
  5
2BF74
330
2BF75
100
AcDbEntity
  8
0
100
AcDbBlockBegin
  2
*U6
 70
     1
 10
0.0
 20
0.0
 30
0.0
  3
*U6
  1

  0
TEXT
  5
2BE8F
330
2BF75
100
AcDbEntity
  8
SUNPOU
100
AcDbText
 10
3681.754695991793
 20
4433.464770760363
 30
0.0
 40
90.0
  1
2400
 41
0.6666666666666666
  7
00
100
AcDbText
  0
ENDBLK
  5
2BE91
330
2BF75
100
AcDbEntity
  8
0
100
AcDbBlockEnd
  0
BLOCK
  5
2BF76
330
2BF77
100
AcDbEntity
  8
0
100
AcDbBlockBegin
  2
*U7
 70
     1
 10
0.0
 20
0.0
 30
0.0
  3
*U7
  1

  0
TEXT
  5
2BE93
330
2BF77
100
AcDbEntity
  8
SUNPOU
100
AcDbText
 10
5806.326124563224
 20
4433.464770760363
 30
0.0
 40
90.0
  1
2400 ×（ N - 2 ）
 41
0.6666666666666666
  7
00
100
AcDbText
  0
ENDBLK
  5
2BE95
330
2BF77
100
AcDbEntity
  8
0
100
AcDbBlockEnd
  0
BLOCK
  5
2BF78
330
2BF79
100
AcDbEntity
  8
0
100
AcDbBlockBegin
  2
*U8
 70
     1
 10
0.0
 20
0.0
 30
0.0
  3
*U8
  1

  0
TEXT
  5
2BE97
330
2BF79
100
AcDbEntity
  8
SUNPOU
100
AcDbText
 10
8481.754695991794
 20
4433.464770760363
 30
0.0
 40
90.0
  1
2400
 41
0.6666666666666666
  7
00
100
AcDbText
  0
ENDBLK
  5
2BE99
330
2BF79
100
AcDbEntity
  8
0
100
AcDbBlockEnd
  0
BLOCK
  5
2BF7A
330
2BF7B
100
AcDbEntity
  8
0
100
AcDbBlockBegin
  2
*U9
 70
     1
 10
0.0
 20
0.0
 30
0.0
  3
*U9
  1

  0
TEXT
  5
2BE9B
330
2BF7B
100
AcDbEntity
  8
SUNPOU
100
AcDbText
 10
9910.326124563219
 20
4433.464770760363
 30
0.0
 40
90.0
  1
400
 41
0.6666666666666666
  7
00
100
AcDbText
  0
ENDBLK
  5
2BE9D
330
2BF7B
100
AcDbEntity
  8
0
100
AcDbBlockEnd
  0
BLOCK
  5
2BF7C
330
2BF7D
100
AcDbEntity
  8
0
100
AcDbBlockBegin
  2
*U10
 70
     1
 10
0.0
 20
0.0
 30
0.0
  3
*U10
  1

  0
TEXT
  5
2BE9F
330
2BF7D
100
AcDbEntity
  8
SUNPOU
100
AcDbText
 10
8866.040410277506
 20
5412.750485046082
 30
0.0
 40
90.0
  1
750
 50
90.0
 41
0.6666666666666666
  7
00
100
AcDbText
  0
ENDBLK
  5
2BEA1
330
2BF7D
100
AcDbEntity
  8
0
100
AcDbBlockEnd
  0
BLOCK
  5
2BF7E
330
2BF7F
100
AcDbEntity
  8
0
100
AcDbBlockBegin
  2
*U11
 70
     1
 10
0.0
 20
0.0
 30
0.0
  3
*U11
  1

  0
TEXT
  5
2BEA3
330
2BF7F
100
AcDbEntity
  8
SUNPOU
100
AcDbText
 10
9076.040410277506
 20
5225.250485046082
 30
0.0
 40
90.0
  1
375
 50
90.0
 41
0.6666666666666666
  7
00
100
AcDbText
  0
ENDBLK
  5
2BEA5
330
2BF7F
100
AcDbEntity
  8
0
100
AcDbBlockEnd
  0
BLOCK
  5
2BF80
330
2BF81
100
AcDbEntity
  8
0
100
AcDbBlockBegin
  2
*U12
 70
     1
 10
0.0
 20
0.0
 30
0.0
  3
*U12
  1

  0
TEXT
  5
2BEA7
330
2BF81
100
AcDbEntity
  8
SUNPOU
100
AcDbText
 10
9076.040410277506
 20
5600.250485046082
 30
0.0
 40
90.0
  1
375
 50
90.0
 41
0.6666666666666666
  7
00
100
AcDbText
  0
ENDBLK
  5
2BEA9
330
2BF81
100
AcDbEntity
  8
0
100
AcDbBlockEnd
  0
BLOCK
  5
2BF82
330
2BF83
100
AcDbEntity
  8
0
100
AcDbBlockBegin
  2
*U13
 70
     1
 10
0.0
 20
0.0
 30
0.0
  3
*U13
  1

  0
TEXT
  5
2BEAB
330
2BF83
100
AcDbEntity
  8
SUNPOU
100
AcDbText
 10
10661.0404102775
 20
5412.750485046081
 30
0.0
 40
90.0
  1
480
 50
90.0
 41
0.6666666666666666
  7
00
100
AcDbText
  0
ENDBLK
  5
2BEAD
330
2BF83
100
AcDbEntity
  8
0
100
AcDbBlockEnd
  0
BLOCK
  5
2BF84
330
2BF85
100
AcDbEntity
  8
0
100
AcDbBlockBegin
  2
*U14
 70
     1
 10
0.0
 20
0.0
 30
0.0
  3
*U14
  1

  0
TEXT
  5
2BEAF
330
2BF85
100
AcDbEntity
  8
SUNPOU
100
AcDbText
 10
10661.0404102775
 20
5916.321913617512
 30
0.0
 40
90.0
  1
135
 50
90.0
 41
0.6666666666666666
  7
00
100
AcDbText
  0
ENDBLK
  5
2BEB1
330
2BF85
100
AcDbEntity
  8
0
100
AcDbBlockEnd
  0
BLOCK
  5
2BF86
330
2BF87
100
AcDbEntity
  8
0
100
AcDbBlockBegin
  2
*U15
 70
     1
 10
0.0
 20
0.0
 30
0.0
  3
*U15
  1

  0
TEXT
  5
2BEB3
330
2BF87
100
AcDbEntity
  8
SUNPOU
100
AcDbText
 10
10661.0404102775
 20
4900.607627903225
 30
0.0
 40
90.0
  1
135
 50
90.0
 41
0.6666666666666666
  7
00
100
AcDbText
  0
ENDBLK
  5
2BEB5
330
2BF87
100
AcDbEntity
  8
0
100
AcDbBlockEnd
  0
BLOCK
  5
2BF88
330
2BF89
100
AcDbEntity
  8
0
100
AcDbBlockBegin
  2
*U16
 70
     1
 10
0.0
 20
0.0
 30
0.0
  3
*U16
  1

  0
TEXT
  5
2BEB7
330
2BF89
100
AcDbEntity
  8
SUNPOU
100
AcDbText
 10
10451.04041027749
 20
5035.607627903225
 30
0.0
 40
90.0
  1
140
 50
90.0
 41
0.6666666666666666
  7
00
100
AcDbText
  0
ENDBLK
  5
2BEB9
330
2BF89
100
AcDbEntity
  8
0
100
AcDbBlockEnd
  0
BLOCK
  5
2BF8A
330
2BF8B
100
AcDbEntity
  8
0
100
AcDbBlockBegin
  2
*U17
 70
     1
 10
0.0
 20
0.0
 30
0.0
  3
*U17
  1

  0
TEXT
  5
2BEBB
330
2BF8B
100
AcDbEntity
  8
SUNPOU
100
AcDbText
 10
10451.04041027749
 20
5781.321913617508
 30
0.0
 40
90.0
  1
140
 50
90.0
 41
0.6666666666666666
  7
00
100
AcDbText
  0
ENDBLK
  5
2BEBD
330
2BF8B
100
AcDbEntity
  8
0
100
AcDbBlockEnd
  0
BLOCK
  5
2BF8C
330
2BF8D
100
AcDbEntity
  8
0
100
AcDbBlockBegin
  2
*U18
 70
     1
 10
0.0
 20
0.0
 30
0.0
  3
*U18
  1

  0
TEXT
  5
2BEBF
330
2BF8D
100
AcDbEntity
  8
SUNPOU
100
AcDbText
 10
10451.04041027749
 20
5412.750485046081
 30
0.0
 40
90.0
  1
200
 50
90.0
 41
0.6666666666666666
  7
00
100
AcDbText
  0
ENDBLK
  5
2BEC1
330
2BF8D
100
AcDbEntity
  8
0
100
AcDbBlockEnd
  0
BLOCK
  5
2BF8E
330
2BF8F
100
AcDbEntity
  8
0
100
AcDbBlockBegin
  2
*U19
 70
     1
 10
0.0
 20
0.0
 30
0.0
  3
*U19
  1

  0
TEXT
  5
2BEC3
330
2BF8F
100
AcDbEntity
  8
SUNPOU
100
AcDbText
 10
8866.040410277506
 20
6812.750485046082
 30
0.0
 40
90.0
  1
750
 50
90.0
 41
0.6666666666666666
  7
00
100
AcDbText
  0
ENDBLK
  5
2BEC5
330
2BF8F
100
AcDbEntity
  8
0
100
AcDbBlockEnd
  0
BLOCK
  5
2BF90
330
2BF91
100
AcDbEntity
  8
0
100
AcDbBlockBegin
  2
*U20
 70
     1
 10
0.0
 20
0.0
 30
0.0
  3
*U20
  1

  0
TEXT
  5
2BEC7
330
2BF91
100
AcDbEntity
  8
SUNPOU
100
AcDbText
 10
9076.040410277506
 20
6625.250485046082
 30
0.0
 40
90.0
  1
375
 50
90.0
 41
0.6666666666666666
  7
00
100
AcDbText
  0
ENDBLK
  5
2BEC9
330
2BF91
100
AcDbEntity
  8
0
100
AcDbBlockEnd
  0
BLOCK
  5
2BF92
330
2BF93
100
AcDbEntity
  8
0
100
AcDbBlockBegin
  2
*U21
 70
     1
 10
0.0
 20
0.0
 30
0.0
  3
*U21
  1

  0
TEXT
  5
2BECB
330
2BF93
100
AcDbEntity
  8
SUNPOU
100
AcDbText
 10
9076.040410277506
 20
7000.250485046082
 30
0.0
 40
90.0
  1
375
 50
90.0
 41
0.6666666666666666
  7
00
100
AcDbText
  0
ENDBLK
  5
2BECD
330
2BF93
100
AcDbEntity
  8
0
100
AcDbBlockEnd
  0
BLOCK
  5
2BF94
330
2BF95
100
AcDbEntity
  8
0
100
AcDbBlockBegin
  2
*U22
 70
     1
 10
0.0
 20
0.0
 30
0.0
  3
*U22
  1

  0
TEXT
  5
2BECF
330
2BF95
100
AcDbEntity
  8
SUNPOU
100
AcDbText
 10
10661.0404102775
 20
6812.75048504608
 30
0.0
 40
90.0
  1
480
 50
90.0
 41
0.6666666666666666
  7
00
100
AcDbText
  0
ENDBLK
  5
2BED1
330
2BF95
100
AcDbEntity
  8
0
100
AcDbBlockEnd
  0
BLOCK
  5
2BF96
330
2BF97
100
AcDbEntity
  8
0
100
AcDbBlockBegin
  2
*U23
 70
     1
 10
0.0
 20
0.0
 30
0.0
  3
*U23
  1

  0
TEXT
  5
2BED3
330
2BF97
100
AcDbEntity
  8
SUNPOU
100
AcDbText
 10
10661.0404102775
 20
7316.321913617511
 30
0.0
 40
90.0
  1
135
 50
90.0
 41
0.6666666666666666
  7
00
100
AcDbText
  0
ENDBLK
  5
2BED5
330
2BF97
100
AcDbEntity
  8
0
100
AcDbBlockEnd
  0
BLOCK
  5
2BF98
330
2BF99
100
AcDbEntity
  8
0
100
AcDbBlockBegin
  2
*U24
 70
     1
 10
0.0
 20
0.0
 30
0.0
  3
*U24
  1

  0
TEXT
  5
2BED7
330
2BF99
100
AcDbEntity
  8
SUNPOU
100
AcDbText
 10
10661.0404102775
 20
6300.607627903225
 30
0.0
 40
90.0
  1
135
 50
90.0
 41
0.6666666666666666
  7
00
100
AcDbText
  0
ENDBLK
  5
2BED9
330
2BF99
100
AcDbEntity
  8
0
100
AcDbBlockEnd
  0
BLOCK
  5
2BF9A
330
2BF9B
100
AcDbEntity
  8
0
100
AcDbBlockBegin
  2
*U25
 70
     1
 10
0.0
 20
0.0
 30
0.0
  3
*U25
  1

  0
TEXT
  5
2BEDB
330
2BF9B
100
AcDbEntity
  8
SUNPOU
100
AcDbText
 10
10451.04041027749
 20
6435.607627903222
 30
0.0
 40
90.0
  1
140
 50
90.0
 41
0.6666666666666666
  7
00
100
AcDbText
  0
ENDBLK
  5
2BEDD
330
2BF9B
100
AcDbEntity
  8
0
100
AcDbBlockEnd
  0
BLOCK
  5
2BF9C
330
2BF9D
100
AcDbEntity
  8
0
100
AcDbBlockBegin
  2
*U26
 70
     1
 10
0.0
 20
0.0
 30
0.0
  3
*U26
  1

  0
TEXT
  5
2BEDF
330
2BF9D
100
AcDbEntity
  8
SUNPOU
100
AcDbText
 10
10451.04041027749
 20
7181.321913617509
 30
0.0
 40
90.0
  1
140
 50
90.0
 41
0.6666666666666666
  7
00
100
AcDbText
  0
ENDBLK
  5
2BEE1
330
2BF9D
100
AcDbEntity
  8
0
100
AcDbBlockEnd
  0
BLOCK
  5
2BF9E
330
2BF9F
100
AcDbEntity
  8
0
100
AcDbBlockBegin
  2
*U27
 70
     1
 10
0.0
 20
0.0
 30
0.0
  3
*U27
  1

  0
TEXT
  5
2BEE3
330
2BF9F
100
AcDbEntity
  8
SUNPOU
100
AcDbText
 10
10451.04041027749
 20
6812.75048504608
 30
0.0
 40
90.0
  1
200
 50
90.0
 41
0.6666666666666666
  7
00
100
AcDbText
  0
ENDBLK
  5
2BEE5
330
2BF9F
100
AcDbEntity
  8
0
100
AcDbBlockEnd
  0
BLOCK
  5
2BFA0
330
2BFA1
100
AcDbEntity
  8
0
100
AcDbBlockBegin
  2
*U28
 70
     1
 10
0.0
 20
0.0
 30
0.0
  3
*U28
  1

  0
TEXT
  5
2BEE7
330
2BFA1
100
AcDbEntity
  8
SUNPOU
100
AcDbText
 10
1708.091794916773
 20
1125.744622954003
 30
0.0
 40
90.0
  1
375
 41
0.6666666666666666
  7
00
100
AcDbText
  0
ENDBLK
  5
2BEE9
330
2BFA1
100
AcDbEntity
  8
0
100
AcDbBlockEnd
  0
BLOCK
  5
2BFA2
330
2BFA3
100
AcDbEntity
  8
0
100
AcDbBlockBegin
  2
*U29
 70
     1
 10
0.0
 20
0.0
 30
0.0
  3
*U29
  1

  0
TEXT
  5
2BEEB
330
2BFA3
100
AcDbEntity
  8
SUNPOU
100
AcDbText
 10
2083.091794916773
 20
1125.744622954003
 30
0.0
 40
90.0
  1
375
 41
0.6666666666666666
  7
00
100
AcDbText
  0
ENDBLK
  5
2BEED
330
2BFA3
100
AcDbEntity
  8
0
100
AcDbBlockEnd
  0
BLOCK
  5
2BFA4
330
2BFA5
100
AcDbEntity
  8
0
100
AcDbBlockBegin
  2
*U30
 70
     1
 10
0.0
 20
0.0
 30
0.0
  3
*U30
  1

  0
TEXT
  5
2BEEF
330
2BFA5
100
AcDbEntity
  8
SUNPOU
100
AcDbText
 10
1895.591794916773
 20
915.7446229540033
 30
0.0
 40
90.0
  1
750
 41
0.6666666666666666
  7
00
100
AcDbText
  0
ENDBLK
  5
2BEF1
330
2BFA5
100
AcDbEntity
  8
0
100
AcDbBlockEnd
  0
BLOCK
  5
2BFA6
330
2BFA7
100
AcDbEntity
  8
0
100
AcDbBlockBegin
  2
*U31
 70
     1
 10
0.0
 20
0.0
 30
0.0
  3
*U31
  1

  0
TEXT
  5
2BEF3
330
2BFA7
100
AcDbEntity
  8
SUNPOU
100
AcDbText
 10
2900.856080631056
 20
2183.601765811148
 30
0.0
 40
90.0
  1
150
 50
90.0
 41
0.6666666666666666
  7
00
100
AcDbText
  0
ENDBLK
  5
2BEF5
330
2BFA7
100
AcDbEntity
  8
0
100
AcDbBlockEnd
  0
BLOCK
  5
2BFA8
330
2BFA9
100
AcDbEntity
  8
0
100
AcDbBlockBegin
  2
*U32
 70
     1
 10
0.0
 20
0.0
 30
0.0
  3
*U32
  1

  0
TEXT
  5
2BEF7
330
2BFA9
100
AcDbEntity
  8
SUNPOU
100
AcDbText
 10
2900.856080631056
 20
1665.030337239717
 30
0.0
 40
90.0
  1
480
 50
90.0
 41
0.6666666666666666
  7
00
100
AcDbText
  0
ENDBLK
  5
2BEF9
330
2BFA9
100
AcDbEntity
  8
0
100
AcDbBlockEnd
  0
BLOCK
  5
2BFAA
330
2BFAB
100
AcDbEntity
  8
0
100
AcDbBlockBegin
  2
*U33
 70
     1
 10
0.0
 20
0.0
 30
0.0
  3
*U33
  1

  0
TEXT
  5
2BEFB
330
2BFAB
100
AcDbEntity
  8
SUNPOU
100
AcDbText
 10
2900.856080631056
 20
1166.662736498127
 30
0.0
 40
90.0
  1
100
 50
90.0
 41
0.6666666666666666
  7
00
100
AcDbText
  0
ENDBLK
  5
2BEFD
330
2BFAB
100
AcDbEntity
  8
0
100
AcDbBlockEnd
  0
BLOCK
  5
2BFAC
330
2BFAD
100
AcDbEntity
  8
0
100
AcDbBlockBegin
  2
*U34
 70
     1
 10
0.0
 20
0.0
 30
0.0
  3
*U34
  1

  0
TEXT
  5
2BEFF
330
2BFAD
100
AcDbEntity
  8
SUNPOU
100
AcDbText
 10
3102.998619794345
 20
1428.601765811145
 30
0.0
 40
90.0
  1
50
 50
90.0
 41
0.6666666666666666
  7
00
100
AcDbText
  0
ENDBLK
  5
2BF01
330
2BFAD
100
AcDbEntity
  8
0
100
AcDbBlockEnd
  0
BLOCK
  5
2BFAE
330
2BFAF
100
AcDbEntity
  8
0
100
AcDbBlockBegin
  2
*U35
 70
     1
 10
0.0
 20
0.0
 30
0.0
  3
*U35
  1

  0
TEXT
  5
2BF03
330
2BFAF
100
AcDbEntity
  8
SUNPOU
100
AcDbText
 10
1895.591794916773
 20
2725.744622954003
 30
0.0
 40
90.0
  1
480
 41
0.6666666666666666
  7
00
100
AcDbText
  0
ENDBLK
  5
2BF05
330
2BFAF
100
AcDbEntity
  8
0
100
AcDbBlockEnd
  0
BLOCK
  5
2BFB0
330
2BFB1
100
AcDbEntity
  8
0
100
AcDbBlockBegin
  2
*U36
 70
     1
 10
0.0
 20
0.0
 30
0.0
  3
*U36
  1

  0
TEXT
  5
2BF07
330
2BFB1
100
AcDbEntity
  8
SUNPOU
100
AcDbText
 10
5732.326124563219
 20
4202.520639852555
 30
0.0
 40
90.0
  1
L = 2400 x N + 800
 41
0.6666666666666666
  7
00
100
AcDbText
  0
ENDBLK
  5
2BF09
330
2BFB1
100
AcDbEntity
  8
0
100
AcDbBlockEnd
  0
BLOCK
  5
2BFB2
330
2BFB3
100
AcDbEntity
  8
0
100
AcDbBlockBegin
  2
*U37
 70
     1
 10
0.0
 20
0.0
 30
0.0
  3
*U37
  1

  0
TEXT
  5
2BF0B
330
2BFB3
100
AcDbEntity
  8
SUNPOU
100
AcDbText
 10
5724.341260314205
 20
915.7446229540033
 30
0.0
 40
90.0
  1
750
 41
0.6666666666666666
  7
00
100
AcDbText
  0
ENDBLK
  5
2BF0D
330
2BFB3
100
AcDbEntity
  8
0
100
AcDbBlockEnd
  0
BLOCK
  5
2BFB4
330
2BFB5
100
AcDbEntity
  8
0
100
AcDbBlockBegin
  2
*U38
 70
     1
 10
0.0
 20
0.0
 30
0.0
  3
*U38
  1

  0
TEXT
  5
2BF0F
330
2BFB5
100
AcDbEntity
  8
SUNPOU
100
AcDbText
 10
5724.341260314205
 20
1125.744622954003
 30
0.0
 40
90.0
  1
480
 41
0.6666666666666666
  7
00
100
AcDbText
  0
ENDBLK
  5
2BF11
330
2BFB5
100
AcDbEntity
  8
0
100
AcDbBlockEnd
  0
BLOCK
  5
2BFB6
330
2BFB7
100
AcDbEntity
  8
0
100
AcDbBlockBegin
  2
*U39
 70
     1
 10
0.0
 20
0.0
 30
0.0
  3
*U39
  1

  0
TEXT
  5
2BF13
330
2BFB7
100
AcDbEntity
  8
SUNPOU
100
AcDbText
 10
6515.055546028489
 20
1795.030337239716
 30
0.0
 40
90.0
  1
480
 50
90.0
 41
0.6666666666666666
  7
00
100
AcDbText
  0
ENDBLK
  5
2BF15
330
2BFB7
100
AcDbEntity
  8
0
100
AcDbBlockEnd
  0
BLOCK
  5
2BFB8
330
2BFB9
100
AcDbEntity
  8
0
100
AcDbBlockBegin
  2
*U40
 70
     1
 10
0.0
 20
0.0
 30
0.0
  3
*U40
  1

  0
TEXT
  5
2BF17
330
2BFB9
100
AcDbEntity
  8
SUNPOU
100
AcDbText
 10
6725.05554602849
 20
1795.030337239716
 30
0.0
 40
90.0
  1
750
 50
90.0
 41
0.6666666666666666
  7
00
100
AcDbText
  0
ENDBLK
  5
2BF19
330
2BFB9
100
AcDbEntity
  8
0
100
AcDbBlockEnd
  0
ENDSEC
  0
SECTION
  2
ENTITIES
  0
TEXT
  5
24213
330
2BF35
100
AcDbEntity
  8
NAME
100
AcDbText
 10
9402.694977008243
 20
716.25
 30
0.0
 40
120.0
  1
YORS
 41
0.7
  7
01
100
AcDbText
  0
TEXT
  5
24214
330
2BF35
100
AcDbEntity
  8
NAME
100
AcDbText
 10
8327.765992739108
 20
716.25
 30
0.0
 40
120.0
  1
ヨド自転車置場      型
  7
01
100
AcDbText
  0
TEXT
  5
24215
330
2BF35
100
AcDbEntity
  8
NAME
100
AcDbText
 10
8862.031985478221
 20
405.75
 30
0.0
 40
120.0
  1
型（積雪地用）
 41
0.8
  7
01
100
AcDbText
  0
TEXT
  5
24216
330
2BF35
100
AcDbEntity
  8
NAME
100
AcDbText
 10
8092.031985478223
 20
405.75
 30
0.0
 40
120.0
  1
YORS-240B
 41
0.7
  7
01
 72
     2
 11
8832.031985478222
 21
405.75
 31
0.0
100
AcDbText
  0
TEXT
  5
24217
330
2BF35
100
AcDbEntity
  8
NAME
100
AcDbText
 10
9641.10000000001
 20
405.75
 30
0.0
 40
120.0
  1
<3／3>
 41
0.6
  7
01
 72
     2
 11
10015.50000000001
 21
405.75
 31
0.0
100
AcDbText
  0
TEXT
  5
2A5AD
330
2BF35
100
AcDbEntity
  8
SUNPOU
100
AcDbText
 10
3150.14755313465
 20
5834.893342188934
 30
0.0
 40
90.0
  1
A'
 41
0.6700000000000001
  7
00
 72
     4
 11
3186.040410277508
 21
5888.464770760363
 31
0.0
100
AcDbText
  0
LINE
  5
2A5AE
330
2BF35
100
AcDbEntity
  8
SUNPOU
100
AcDbLine
 10
3186.040410277508
 20
5498.464770760366
 30
0.0
 11
3036.040410277507
 21
5498.464770760366
 31
0.0
  0
LINE
  5
2A5AF
330
2BF35
100
AcDbEntity
  8
SUNPOU
100
AcDbLine
 10
3186.040410277508
 20
5708.464770760366
 30
0.0
 11
3186.040410277508
 21
5498.464770760366
 31
0.0
  0
TEXT
  5
2A5B0
330
2BF35
100
AcDbEntity
  8
SUNPOU
100
AcDbText
 10
1980.197553134648
 20
5843.464770760363
 30
0.0
 40
90.0
  1
A
 41
0.6700000000000001
  7
00
 72
     4
 11
2006.040410277506
 21
5888.464770760363
 31
0.0
100
AcDbText
  0
LINE
  5
2A5B1
330
2BF35
100
AcDbEntity
  8
SUNPOU
100
AcDbLine
 10
2006.040410277508
 20
5498.464770760366
 30
0.0
 11
2156.040410277507
 21
5498.464770760366
 31
0.0
  0
LINE
  5
2A5B2
330
2BF35
100
AcDbEntity
  8
SUNPOU
100
AcDbLine
 10
2006.040410277506
 20
5708.464770760366
 30
0.0
 11
2006.040410277506
 21
5498.464770760366
 31
0.0
  0
CIRCLE
  5
2A5CF
330
2BF35
100
AcDbEntity
  8
KISO-2
100
AcDbCircle
 10
9796.040410277509
 20
5498.464770760366
 30
0.0
 40
44.55
  0
LINE
  5
2A623
330
2BF35
100
AcDbEntity
  8
SUNPOU
100
AcDbLine
 10
10171.04041027749
 20
7643.464770760363
 30
0.0
 11
10171.04041027749
 21
7628.464770760366
 31
0.0
  0
LINE
  5
2A624
330
2BF35
100
AcDbEntity
  8
SUNPOU
100
AcDbLine
 10
10186.04041027749
 20
7673.464770760367
 30
0.0
 11
10201.04041027749
 21
7673.464770760367
 31
0.0
  0
LINE
  5
2A625
330
2BF35
100
AcDbEntity
  8
SUNPOU
100
AcDbLine
 10
10021.04041027749
 20
7673.464770760367
 30
0.0
 11
10006.04041027749
 21
7673.464770760367
 31
0.0
  0
LINE
  5
2A626
330
2BF35
100
AcDbEntity
  8
SUNPOU
100
AcDbLine
 10
10171.04041027749
 20
7303.464770760363
 30
0.0
 11
10171.04041027749
 21
7928.464770760363
 31
0.0
  0
LINE
  5
2A627
330
2BF35
100
AcDbEntity
  8
SUNPOU
100
AcDbLine
 10
9556.040410277509
 20
7643.464770760363
 30
0.0
 11
9556.040410277509
 21
7628.464770760366
 31
0.0
  0
LINE
  5
2A628
330
2BF35
100
AcDbEntity
  8
SUNPOU
100
AcDbLine
 10
9571.040410277509
 20
7673.464770760367
 30
0.0
 11
9586.040410277508
 21
7673.464770760367
 31
0.0
  0
LINE
  5
2A629
330
2BF35
100
AcDbEntity
  8
SUNPOU
100
AcDbLine
 10
9421.040410277509
 20
7643.464770760363
 30
0.0
 11
9421.040410277509
 21
7628.464770760366
 31
0.0
  0
LINE
  5
2A62A
330
2BF35
100
AcDbEntity
  8
SUNPOU
100
AcDbLine
 10
9406.040410277508
 20
7673.464770760367
 30
0.0
 11
9391.04041027751
 21
7673.464770760367
 31
0.0
  0
TEXT
  5
2A62B
330
2BF35
100
AcDbEntity
  8
SUNPOU
100
AcDbText
 10
9232.626124563223
 20
7718.464770760363
 30
0.0
 40
90.0
  1
135
 41
0.6666666666666666
  7
00
 72
     1
 11
9322.626124563223
 21
7763.464770760363
 31
0.0
100
AcDbText
 73
     2
  0
LINE
  5
2A62C
330
2BF35
100
AcDbEntity
  8
SUNPOU
100
AcDbLine
 10
9556.040410277509
 20
7673.464770760367
 30
0.0
 11
9256.911838848941
 21
7673.464770760367
 31
0.0
  0
LINE
  5
2A62D
330
2BF35
100
AcDbEntity
  8
SUNPOU
100
AcDbLine
 10
9421.040410277509
 20
7303.464770760363
 30
0.0
 11
9421.040410277509
 21
7928.464770760363
 31
0.0
  0
LINE
  5
2A62E
330
2BF35
100
AcDbEntity
  8
SUNPOU
100
AcDbLine
 10
9436.040410277508
 20
7883.464770760366
 30
0.0
 11
10156.0404102775
 21
7883.464770760366
 31
0.0
  0
LINE
  5
2A62F
330
2BF35
100
AcDbEntity
  8
SUNPOU
100
AcDbLine
 10
9571.040410277509
 20
7673.464770760367
 30
0.0
 11
10021.04041027749
 21
7673.464770760367
 31
0.0
  0
TEXT
  5
2A630
330
2BF35
100
AcDbEntity
  8
SUNPOU
100
AcDbText
 10
9710.326124563223
 20
7718.464770760363
 30
0.0
 40
90.0
  1
480
 41
0.6666666666666666
  7
00
 72
     1
 11
9796.040410277509
 21
7763.464770760363
 31
0.0
100
AcDbText
 73
     2
  0
LINE
  5
2A631
330
2BF35
100
AcDbEntity
  8
SUNPOU
100
AcDbLine
 10
9711.040410277508
 20
7463.464770760366
 30
0.0
 11
9881.040410277508
 21
7463.464770760366
 31
0.0
  0
TEXT
  5
2A632
330
2BF35
100
AcDbEntity
  8
SUNPOU
100
AcDbText
 10
9710.326124563223
 20
7508.464770760362
 30
0.0
 40
90.0
  1
200
 41
0.6666666666666666
  7
00
 72
     1
 11
9796.040410277509
 21
7553.464770760363
 31
0.0
100
AcDbText
 73
     2
  0
TEXT
  5
2A633
330
2BF35
100
AcDbEntity
  8
SUNPOU
100
AcDbText
 10
9710.326124563223
 20
7928.464770760367
 30
0.0
 40
90.0
  1
750
 41
0.6666666666666666
  7
00
 72
     1
 11
9796.040410277509
 21
7973.464770760367
 31
0.0
100
AcDbText
 73
     2
  0
CIRCLE
  5
2A637
330
2BF35
100
AcDbEntity
  8
KISO-2
100
AcDbCircle
 10
9796.040410277509
 20
6898.464770760367
 30
0.0
 40
44.55
  0
TEXT
  5
2A643
330
2BF35
100
AcDbEntity
  8
HIKIDASHI
100
AcDbText
 10
9230.871513029908
 20
6403.464770760364
 30
0.0
 40
90.0
  1
柱
  7
01
100
AcDbText
  0
LINE
  5
2A648
330
2BF35
100
AcDbEntity
  8
HIKIDASHI
100
AcDbLine
 10
8686.547133616274
 20
4598.464770760362
 30
0.0
 11
9044.09224819817
 21
4598.464770760362
 31
0.0
  0
TEXT
  5
2A649
330
2BF35
100
AcDbEntity
  8
HIKIDASHI
100
AcDbText
 10
8709.276605846511
 20
4643.464770760362
 30
0.0
 40
90.0
  1
控え柱
  7
01
100
AcDbText
  0
LINE
  5
2A64C
330
2BF35
100
AcDbEntity
  8
BOLT
100
AcDbLine
 10
7526.040410277508
 20
6998.464770760367
 30
0.0
 11
7466.040410277509
 21
6998.464770760367
 31
0.0
  0
LINE
  5
2A64D
330
2BF35
100
AcDbEntity
  8
BOLT
100
AcDbLine
 10
7496.040410277508
 20
7028.464770760367
 30
0.0
 11
7496.040410277508
 21
6968.464770760363
 31
0.0
  0
LINE
  5
2A64E
330
2BF35
100
AcDbEntity
  8
BOLT
100
AcDbLine
 10
7296.040410277509
 20
7028.464770760367
 30
0.0
 11
7296.040410277509
 21
6968.464770760363
 31
0.0
  0
LINE
  5
2A64F
330
2BF35
100
AcDbEntity
  8
BOLT
100
AcDbLine
 10
7526.040410277508
 20
6798.464770760367
 30
0.0
 11
7466.040410277509
 21
6798.464770760367
 31
0.0
  0
LINE
  5
2A650
330
2BF35
100
AcDbEntity
  8
BOLT
100
AcDbLine
 10
7496.040410277508
 20
6768.464770760366
 30
0.0
 11
7496.040410277508
 21
6828.464770760366
 31
0.0
  0
LINE
  5
2A651
330
2BF35
100
AcDbEntity
  8
BOLT
100
AcDbLine
 10
7296.040410277509
 20
6768.464770760366
 30
0.0
 11
7296.040410277509
 21
6828.464770760366
 31
0.0
  0
CIRCLE
  5
2A652
330
2BF35
100
AcDbEntity
  8
KISO-2
100
AcDbCircle
 10
7396.040410277509
 20
6898.464770760367
 30
0.0
 40
44.55
  0
LINE
  5
2A655
330
2BF35
100
AcDbEntity
  8
BOLT
100
AcDbLine
 10
7266.040410277509
 20
6798.464770760367
 30
0.0
 11
7326.040410277508
 21
6798.464770760367
 31
0.0
  0
LINE
  5
2A656
330
2BF35
100
AcDbEntity
  8
SIN
100
AcDbLine
 10
7515.590410277508
 20
6898.464770760367
 30
0.0
 11
7276.490410277509
 21
6898.464770760367
 31
0.0
  0
LINE
  5
2A657
330
2BF35
100
AcDbEntity
  8
BOLT
100
AcDbLine
 10
7266.040410277509
 20
6998.464770760367
 30
0.0
 11
7326.040410277508
 21
6998.464770760367
 31
0.0
  0
LINE
  5
2A658
330
2BF35
100
AcDbEntity
  8
BOLT
100
AcDbLine
 10
7526.040410277508
 20
5598.464770760362
 30
0.0
 11
7466.040410277509
 21
5598.464770760362
 31
0.0
  0
LINE
  5
2A659
330
2BF35
100
AcDbEntity
  8
BOLT
100
AcDbLine
 10
7496.040410277508
 20
5628.464770760366
 30
0.0
 11
7496.040410277508
 21
5568.464770760368
 31
0.0
  0
LINE
  5
2A65A
330
2BF35
100
AcDbEntity
  8
BOLT
100
AcDbLine
 10
7296.040410277509
 20
5628.464770760366
 30
0.0
 11
7296.040410277509
 21
5568.464770760368
 31
0.0
  0
LINE
  5
2A65B
330
2BF35
100
AcDbEntity
  8
BOLT
100
AcDbLine
 10
7526.040410277508
 20
5398.464770760366
 30
0.0
 11
7466.040410277509
 21
5398.464770760366
 31
0.0
  0
LINE
  5
2A65C
330
2BF35
100
AcDbEntity
  8
BOLT
100
AcDbLine
 10
7496.040410277508
 20
5368.464770760366
 30
0.0
 11
7496.040410277508
 21
5428.464770760366
 31
0.0
  0
LINE
  5
2A65D
330
2BF35
100
AcDbEntity
  8
BOLT
100
AcDbLine
 10
7296.040410277509
 20
5368.464770760366
 30
0.0
 11
7296.040410277509
 21
5428.464770760366
 31
0.0
  0
CIRCLE
  5
2A65E
330
2BF35
100
AcDbEntity
  8
KISO-2
100
AcDbCircle
 10
7396.040410277509
 20
5498.464770760366
 30
0.0
 40
44.55
  0
LINE
  5
2A661
330
2BF35
100
AcDbEntity
  8
SIN
100
AcDbLine
 10
7515.590410277508
 20
5498.464770760366
 30
0.0
 11
7276.490410277509
 21
5498.464770760366
 31
0.0
  0
LINE
  5
2A662
330
2BF35
100
AcDbEntity
  8
BOLT
100
AcDbLine
 10
7266.040410277509
 20
5398.464770760366
 30
0.0
 11
7326.040410277508
 21
5398.464770760366
 31
0.0
  0
LINE
  5
2A663
330
2BF35
100
AcDbEntity
  8
BOLT
100
AcDbLine
 10
7266.040410277509
 20
5598.464770760362
 30
0.0
 11
7326.040410277508
 21
5598.464770760362
 31
0.0
  0
LINE
  5
2A664
330
2BF35
100
AcDbEntity
  8
KISO-3
100
AcDbLine
 10
7156.040410277508
 20
5738.464770760362
 30
0.0
 11
7636.040410277508
 21
5738.464770760362
 31
0.0
  0
LINE
  5
2A667
330
2BF35
100
AcDbEntity
  8
SIN
100
AcDbLine
 10
7396.040410277509
 20
7340.464770760366
 30
0.0
 11
7396.040410277509
 21
5056.464770760366
 31
0.0
  0
LINE
  5
2A668
330
2BF35
100
AcDbEntity
  8
SUNPOU
100
AcDbLine
 10
9556.040410277509
 20
7168.464770760363
 30
0.0
 11
9556.040410277509
 21
7718.464770760363
 31
0.0
  0
LINE
  5
2A669
330
2BF35
100
AcDbEntity
  8
SUNPOU
100
AcDbLine
 10
10036.0404102775
 20
7168.464770760363
 30
0.0
 11
10036.0404102775
 21
7718.464770760363
 31
0.0
  0
LINE
  5
2A66A
330
2BF35
100
AcDbEntity
  8
SUNPOU
100
AcDbLine
 10
9696.040410277509
 20
7058.464770760362
 30
0.0
 11
9696.040410277509
 21
7508.464770760366
 31
0.0
  0
LINE
  5
2A66B
330
2BF35
100
AcDbEntity
  8
SUNPOU
100
AcDbLine
 10
9896.040410277509
 20
7058.464770760362
 30
0.0
 11
9896.040410277509
 21
7508.464770760366
 31
0.0
  0
LINE
  5
2A66C
330
2BF35
100
AcDbEntity
  8
SIN
100
AcDbLine
 10
9796.040410277509
 20
7365.464770760365
 30
0.0
 11
9796.040410277509
 21
5056.464770760366
 31
0.0
  0
LINE
  5
2A673
330
2BF35
100
AcDbEntity
  8
SUNPOU
100
AcDbLine
 10
10036.0404102775
 20
7673.464770760367
 30
0.0
 11
10363.7488110882
 21
7673.464770760367
 31
0.0
  0
TEXT
  5
2A674
330
2BF35
100
AcDbEntity
  8
SUNPOU
100
AcDbText
 10
10196.38672751884
 20
7718.464770760363
 30
0.0
 40
90.0
  1
135
 41
0.6666666666666666
  7
00
 72
     1
 11
10286.38672751884
 21
7763.464770760363
 31
0.0
100
AcDbText
 73
     2
  0
LINE
  5
2A682
330
2BF35
100
AcDbEntity
  8
BOLT
100
AcDbLine
 10
5096.04041027751
 20
7028.464770760367
 30
0.0
 11
5096.04041027751
 21
6968.464770760363
 31
0.0
  0
LINE
  5
2A683
330
2BF35
100
AcDbEntity
  8
BOLT
100
AcDbLine
 10
4866.040410277508
 20
6998.464770760367
 30
0.0
 11
4926.040410277508
 21
6998.464770760367
 31
0.0
  0
LINE
  5
2A684
330
2BF35
100
AcDbEntity
  8
BOLT
100
AcDbLine
 10
4896.040410277509
 20
7028.464770760367
 30
0.0
 11
4896.040410277509
 21
6968.464770760363
 31
0.0
  0
LINE
  5
2A685
330
2BF35
100
AcDbEntity
  8
SIN
100
AcDbLine
 10
5115.590410277508
 20
6898.464770760367
 30
0.0
 11
4876.490410277504
 21
6898.464770760367
 31
0.0
  0
LINE
  5
2A686
330
2BF35
100
AcDbEntity
  8
BOLT
100
AcDbLine
 10
5126.040410277508
 20
6998.464770760367
 30
0.0
 11
5066.040410277508
 21
6998.464770760367
 31
0.0
  0
LINE
  5
2A687
330
2BF35
100
AcDbEntity
  8
BOLT
100
AcDbLine
 10
5096.04041027751
 20
6768.464770760366
 30
0.0
 11
5096.04041027751
 21
6828.464770760366
 31
0.0
  0
LINE
  5
2A688
330
2BF35
100
AcDbEntity
  8
BOLT
100
AcDbLine
 10
4866.040410277508
 20
6798.464770760367
 30
0.0
 11
4926.040410277508
 21
6798.464770760367
 31
0.0
  0
LINE
  5
2A689
330
2BF35
100
AcDbEntity
  8
BOLT
100
AcDbLine
 10
4896.040410277509
 20
6768.464770760366
 30
0.0
 11
4896.040410277509
 21
6828.464770760366
 31
0.0
  0
LINE
  5
2A68A
330
2BF35
100
AcDbEntity
  8
BOLT
100
AcDbLine
 10
5126.040410277508
 20
6798.464770760367
 30
0.0
 11
5066.040410277508
 21
6798.464770760367
 31
0.0
  0
CIRCLE
  5
2A68C
330
2BF35
100
AcDbEntity
  8
KISO-2
100
AcDbCircle
 10
4996.040410277508
 20
6898.464770760367
 30
0.0
 40
44.55
  0
LINE
  5
2A68E
330
2BF35
100
AcDbEntity
  8
BOLT
100
AcDbLine
 10
5096.04041027751
 20
5628.464770760366
 30
0.0
 11
5096.04041027751
 21
5568.464770760368
 31
0.0
  0
LINE
  5
2A68F
330
2BF35
100
AcDbEntity
  8
BOLT
100
AcDbLine
 10
4896.040410277509
 20
5628.464770760366
 30
0.0
 11
4896.040410277509
 21
5568.464770760368
 31
0.0
  0
LINE
  5
2A690
330
2BF35
100
AcDbEntity
  8
BOLT
100
AcDbLine
 10
4866.040410277508
 20
5598.464770760362
 30
0.0
 11
4926.040410277508
 21
5598.464770760362
 31
0.0
  0
LINE
  5
2A691
330
2BF35
100
AcDbEntity
  8
BOLT
100
AcDbLine
 10
5126.040410277508
 20
5598.464770760362
 30
0.0
 11
5066.040410277508
 21
5598.464770760362
 31
0.0
  0
LINE
  5
2A692
330
2BF35
100
AcDbEntity
  8
BOLT
100
AcDbLine
 10
5096.04041027751
 20
5368.464770760366
 30
0.0
 11
5096.04041027751
 21
5428.464770760366
 31
0.0
  0
LINE
  5
2A693
330
2BF35
100
AcDbEntity
  8
BOLT
100
AcDbLine
 10
4896.040410277509
 20
5368.464770760366
 30
0.0
 11
4896.040410277509
 21
5428.464770760366
 31
0.0
  0
LINE
  5
2A694
330
2BF35
100
AcDbEntity
  8
BOLT
100
AcDbLine
 10
4866.040410277508
 20
5398.464770760366
 30
0.0
 11
4926.040410277508
 21
5398.464770760366
 31
0.0
  0
LINE
  5
2A695
330
2BF35
100
AcDbEntity
  8
SIN
100
AcDbLine
 10
5115.590410277508
 20
5498.464770760366
 30
0.0
 11
4876.490410277504
 21
5498.464770760366
 31
0.0
  0
LINE
  5
2A696
330
2BF35
100
AcDbEntity
  8
BOLT
100
AcDbLine
 10
5126.040410277508
 20
5398.464770760366
 30
0.0
 11
5066.040410277508
 21
5398.464770760366
 31
0.0
  0
CIRCLE
  5
2A697
330
2BF35
100
AcDbEntity
  8
KISO-2
100
AcDbCircle
 10
4996.040410277508
 20
5498.464770760366
 30
0.0
 40
44.55
  0
LINE
  5
2A69A
330
2BF35
100
AcDbEntity
  8
KISO-3
100
AcDbLine
 10
4756.040410277508
 20
5738.464770760362
 30
0.0
 11
5236.040410277508
 21
5738.464770760362
 31
0.0
  0
LINE
  5
2A69B
330
2BF35
100
AcDbEntity
  8
U2
100
AcDbLine
 10
6136.040410277509
 20
7213.464770760366
 30
0.0
 11
6136.040410277509
 21
4823.464770760363
 31
0.0
  0
LINE
  5
2A69C
330
2BF35
100
AcDbEntity
  8
U2
100
AcDbLine
 10
6256.040410277512
 20
7213.464770760366
 30
0.0
 11
6256.040410277512
 21
4823.464770760363
 31
0.0
  0
LINE
  5
2A69D
330
2BF35
100
AcDbEntity
  8
BOLT
100
AcDbLine
 10
2726.040410277509
 20
6998.464770760367
 30
0.0
 11
2666.040410277509
 21
6998.464770760367
 31
0.0
  0
LINE
  5
2A69E
330
2BF35
100
AcDbEntity
  8
BOLT
100
AcDbLine
 10
2696.040410277507
 20
7028.464770760367
 30
0.0
 11
2696.040410277507
 21
6968.464770760363
 31
0.0
  0
LINE
  5
2A69F
330
2BF35
100
AcDbEntity
  8
BOLT
100
AcDbLine
 10
2496.040410277508
 20
7028.464770760367
 30
0.0
 11
2496.040410277508
 21
6968.464770760363
 31
0.0
  0
LINE
  5
2A6A0
330
2BF35
100
AcDbEntity
  8
BOLT
100
AcDbLine
 10
2466.040410277507
 20
6998.464770760367
 30
0.0
 11
2526.040410277508
 21
6998.464770760367
 31
0.0
  0
LINE
  5
2A6A1
330
2BF35
100
AcDbEntity
  8
SIN
100
AcDbLine
 10
2715.590410277508
 20
6898.464770760367
 30
0.0
 11
2476.490410277509
 21
6898.464770760367
 31
0.0
  0
LINE
  5
2A6A2
330
2BF35
100
AcDbEntity
  8
BOLT
100
AcDbLine
 10
2726.040410277509
 20
6798.464770760367
 30
0.0
 11
2666.040410277509
 21
6798.464770760367
 31
0.0
  0
LINE
  5
2A6A3
330
2BF35
100
AcDbEntity
  8
BOLT
100
AcDbLine
 10
2696.040410277507
 20
6768.464770760366
 30
0.0
 11
2696.040410277507
 21
6828.464770760366
 31
0.0
  0
LINE
  5
2A6A4
330
2BF35
100
AcDbEntity
  8
BOLT
100
AcDbLine
 10
2496.040410277508
 20
6768.464770760366
 30
0.0
 11
2496.040410277508
 21
6828.464770760366
 31
0.0
  0
LINE
  5
2A6A5
330
2BF35
100
AcDbEntity
  8
BOLT
100
AcDbLine
 10
2466.040410277507
 20
6798.464770760367
 30
0.0
 11
2526.040410277508
 21
6798.464770760367
 31
0.0
  0
CIRCLE
  5
2A6A6
330
2BF35
100
AcDbEntity
  8
KISO-2
100
AcDbCircle
 10
2596.040410277508
 20
6898.464770760367
 30
0.0
 40
44.55
  0
LINE
  5
2A6A8
330
2BF35
100
AcDbEntity
  8
BOLT
100
AcDbLine
 10
2726.040410277509
 20
5598.464770760362
 30
0.0
 11
2666.040410277509
 21
5598.464770760362
 31
0.0
  0
LINE
  5
2A6A9
330
2BF35
100
AcDbEntity
  8
BOLT
100
AcDbLine
 10
2696.040410277507
 20
5628.464770760366
 30
0.0
 11
2696.040410277507
 21
5568.464770760368
 31
0.0
  0
LINE
  5
2A6AA
330
2BF35
100
AcDbEntity
  8
BOLT
100
AcDbLine
 10
2496.040410277508
 20
5628.464770760366
 30
0.0
 11
2496.040410277508
 21
5568.464770760368
 31
0.0
  0
LINE
  5
2A6AB
330
2BF35
100
AcDbEntity
  8
BOLT
100
AcDbLine
 10
2466.040410277507
 20
5598.464770760362
 30
0.0
 11
2526.040410277508
 21
5598.464770760362
 31
0.0
  0
LINE
  5
2A6AC
330
2BF35
100
AcDbEntity
  8
BOLT
100
AcDbLine
 10
2726.040410277509
 20
5398.464770760366
 30
0.0
 11
2666.040410277509
 21
5398.464770760366
 31
0.0
  0
LINE
  5
2A6AD
330
2BF35
100
AcDbEntity
  8
BOLT
100
AcDbLine
 10
2696.040410277507
 20
5368.464770760366
 30
0.0
 11
2696.040410277507
 21
5428.464770760366
 31
0.0
  0
LINE
  5
2A6AE
330
2BF35
100
AcDbEntity
  8
BOLT
100
AcDbLine
 10
2496.040410277508
 20
5368.464770760366
 30
0.0
 11
2496.040410277508
 21
5428.464770760366
 31
0.0
  0
LINE
  5
2A6AF
330
2BF35
100
AcDbEntity
  8
BOLT
100
AcDbLine
 10
2466.040410277507
 20
5398.464770760366
 30
0.0
 11
2526.040410277508
 21
5398.464770760366
 31
0.0
  0
LINE
  5
2A6B0
330
2BF35
100
AcDbEntity
  8
SIN
100
AcDbLine
 10
2715.590410277508
 20
5498.464770760366
 30
0.0
 11
2476.490410277509
 21
5498.464770760366
 31
0.0
  0
CIRCLE
  5
2A6B2
330
2BF35
100
AcDbEntity
  8
KISO-2
100
AcDbCircle
 10
2596.040410277508
 20
5498.464770760366
 30
0.0
 40
44.55
  0
TEXT
  5
2A6B3
330
2BF35
100
AcDbEntity
  8
HIKIDASHI
100
AcDbText
 10
3380.466550149267
 20
6892.014043141706
 30
0.0
 40
90.0
  1
（屋根後面位置）
  7
01
100
AcDbText
  0
TEXT
  5
2A6B4
330
2BF35
100
AcDbEntity
  8
HIKIDASHI
100
AcDbText
 10
3271.820460487732
 20
4763.464770760356
 30
0.0
 40
90.0
  1
（土間コン前面位置）
  7
01
100
AcDbText
  0
TEXT
  5
2A6B5
330
2BF35
100
AcDbEntity
  8
HIKIDASHI
100
AcDbText
 10
3380.466550149267
 20
5054.915498379022
 30
0.0
 40
90.0
  1
（鼻隠し外面）
  7
01
100
AcDbText
  0
TEXT
  5
2A6B6
330
2BF35
100
AcDbEntity
  8
HIKIDASHI
100
AcDbText
 10
3271.820460487732
 20
7183.46477076037
 30
0.0
 40
90.0
  1
（土間コン後面位置）
  7
01
100
AcDbText
  0
LINE
  5
2A6B7
330
2BF35
100
AcDbEntity
  8
SIN
100
AcDbLine
 10
2596.040410277508
 20
7340.464770760366
 30
0.0
 11
2596.040410277508
 21
5056.464770760366
 31
0.0
  0
LINE
  5
2A6B8
330
2BF35
100
AcDbEntity
  8
SIN
100
AcDbLine
 10
4996.040410277508
 20
7340.464770760366
 30
0.0
 11
4996.040410277508
 21
5056.464770760366
 31
0.0
  0
TEXT
  5
2A6BD
330
2BF35
100
AcDbEntity
  8
HIKIDASHI
100
AcDbText
 10
2331.040410277516
 20
5823.324085206689
 30
0.0
 40
90.0
  1
（ケラバ外面）
 50
90.0
 41
0.9
  7
01
100
AcDbText
  0
TEXT
  5
2A6C3
330
2BF35
100
AcDbEntity
  8
HIKIDASHI
100
AcDbText
 10
2151.040410277505
 20
5714.677995545154
 30
0.0
 40
90.0
  1
（土間コン側面位置）
 50
90.0
 41
0.9
  7
01
100
AcDbText
  0
LINE
  5
2A6CB
330
2BF35
100
AcDbEntity
  8
KISO-3
100
AcDbLine
 10
2356.040410277507
 20
5738.464770760362
 30
0.0
 11
2836.040410277508
 21
5738.464770760362
 31
0.0
  0
TEXT
  5
2A6CE
330
2BF35
100
AcDbEntity
  8
HIKIDASHI
100
AcDbText
 10
5854.202540347088
 20
3682.03496710805
 30
0.0
 40
120.0
  1
N
 41
0.6666666666666666
  7
00
 72
     4
 11
5896.107302251849
 21
3742.03496710805
 31
0.0
100
AcDbText
  0
TEXT
  5
2A6EE
330
2BF35
100
AcDbEntity
  8
SUNPOU
100
AcDbText
 10
2399.479226137721
 20
2275.744622954003
 30
0.0
 40
90.0
  1
F.L
 50
0.0000000000000799
 41
0.6666666666666666
  7
00
 72
     4
 11
2468.05065470915
 21
2320.744622954003
 31
0.0
100
AcDbText
  0
LINE
  5
2A6F4
330
2BF35
100
AcDbEntity
  8
U3
100
AcDbLine
 10
1384.945690937851
 20
2069.384233260793
 30
0.0
 11
1343.58530124464
 21
2110.744622954002
 31
0.0
  0
LINE
  5
2A6F5
330
2BF35
100
AcDbEntity
  8
U3
100
AcDbLine
 10
1531.306080631058
 20
2005.744622954004
 30
0.0
 11
1426.306080631059
 21
2110.744622954003
 31
0.0
  0
LINE
  5
2A6F6
330
2BF35
100
AcDbEntity
  8
U3
100
AcDbLine
 10
1489.945690937848
 20
2047.105012647213
 30
0.0
 11
1448.585301244637
 21
2005.744622954003
 31
0.0
  0
LINE
  5
2A6F7
330
2BF35
100
AcDbEntity
  8
U3
100
AcDbLine
 10
1458.125885784453
 20
2078.924817800607
 30
0.0
 11
1384.945690937848
 21
2005.744622954002
 31
0.0
  0
LINE
  5
2A6F8
330
2BF35
100
AcDbEntity
  8
U3
100
AcDbLine
 10
1426.306080631059
 20
2110.744622954003
 30
0.0
 11
1321.306080631062
 21
2005.744622954004
 31
0.0
  0
LINE
  5
2A6F9
330
2BF35
100
AcDbEntity
  8
U3
100
AcDbLine
 10
1594.945690937848
 20
2069.384233260794
 30
0.0
 11
1553.585301244639
 21
2110.744622954003
 31
0.0
  0
LINE
  5
2A6FA
330
2BF35
100
AcDbEntity
  8
U3
100
AcDbLine
 10
1741.306080631057
 20
2069.384233260789
 30
0.0
 11
1699.945690937843
 21
2110.744622954003
 31
0.0
  0
LINE
  5
2A6FB
330
2BF35
100
AcDbEntity
  8
HATCH
100
AcDbLine
 10
2291.004565440892
 20
1990.744622954004
 30
0.0
 11
2211.306080631059
 21
1911.046138144171
 31
0.0
  0
LINE
  5
2A6FC
330
2BF35
100
AcDbEntity
  8
HATCH
100
AcDbLine
 10
2320.703050250725
 20
1990.744622954002
 30
0.0
 11
2211.306080631059
 21
1881.347653334335
 31
0.0
  0
LINE
  5
2A6FD
330
2BF35
100
AcDbEntity
  8
KISO
100
AcDbLine
 10
2356.306080631059
 20
1990.744622954002
 30
0.0
 11
2221.306080631058
 21
1990.744622954002
 31
0.0
  0
LINE
  5
2A6FE
330
2BF35
100
AcDbEntity
  8
U3
100
AcDbLine
 10
1699.945690937848
 20
2047.105012647215
 30
0.0
 11
1658.585301244636
 21
2005.744622954003
 31
0.0
  0
LINE
  5
2A6FF
330
2BF35
100
AcDbEntity
  8
U3
100
AcDbLine
 10
1741.306080631058
 20
2005.744622954005
 30
0.0
 11
1636.306080631057
 21
2110.744622954003
 31
0.0
  0
LINE
  5
2A700
330
2BF35
100
AcDbEntity
  8
U3
100
AcDbLine
 10
1668.125885784453
 20
2078.924817800607
 30
0.0
 11
1594.945690937848
 21
2005.744622954003
 31
0.0
  0
LINE
  5
2A701
330
2BF35
100
AcDbEntity
  8
KISO
100
AcDbLine
 10
2221.306080631057
 20
1990.744622954002
 30
0.0
 11
2221.306080631058
 21
2140.744622954002
 31
0.0
  0
LINE
  5
2A702
330
2BF35
100
AcDbEntity
  8
U3
100
AcDbLine
 10
1563.125885784454
 20
2037.564428107399
 30
0.0
 11
1489.945690937848
 21
2110.744622954003
 31
0.0
  0
LINE
  5
2A703
330
2BF35
100
AcDbEntity
  8
U3
100
AcDbLine
 10
1636.306080631057
 20
2110.744622954003
 30
0.0
 11
1531.306080631058
 21
2005.744622954004
 31
0.0
  0
CIRCLE
  5
2A704
330
2BF35
100
AcDbEntity
  8
U7
100
AcDbCircle
 10
2286.306080631058
 20
1567.244622954003
 30
0.0
 40
6.5
  0
LINE
  5
2A705
330
2BF35
100
AcDbEntity
  8
U1
100
AcDbLine
 10
2194.306080631059
 20
1583.744622954003
 30
0.0
 11
2227.806080631059
 21
1583.744622954002
 31
0.0
  0
LINE
  5
2A706
330
2BF35
100
AcDbEntity
  8
HATCH
100
AcDbLine
 10
2356.306080631059
 20
1696.950683714661
 30
0.0
 11
2266.600019870396
 21
1607.244622954002
 31
0.0
  0
LINE
  5
2A707
330
2BF35
100
AcDbEntity
  8
HATCH
100
AcDbLine
 10
2356.306080631059
 20
1726.649168524502
 30
0.0
 11
2236.90153506056
 21
1607.244622954002
 31
0.0
  0
LINE
  5
2A708
330
2BF35
100
AcDbEntity
  8
HATCH
100
AcDbLine
 10
2356.306080631059
 20
1756.347653334339
 30
0.0
 11
2211.30608063106
 21
1611.347653334338
 31
0.0
  0
LINE
  5
2A709
330
2BF35
100
AcDbEntity
  8
HATCH
100
AcDbLine
 10
2350.401535060565
 20
1990.744622954004
 30
0.0
 11
2211.306080631057
 21
1851.649168524497
 31
0.0
  0
LINE
  5
2A70D
330
2BF35
100
AcDbEntity
  8
U3
100
AcDbLine
 10
1279.945690937851
 20
2110.744622954002
 30
0.0
 11
1741.306080631058
 21
2110.744622954003
 31
0.0
  0
LINE
  5
2A70E
330
2BF35
100
AcDbEntity
  8
U3
100
AcDbLine
 10
1353.125885784456
 20
2037.564428107399
 30
0.0
 11
1279.945690937851
 21
2110.744622954002
 31
0.0
  0
TEXT
  5
2A713
330
2BF35
100
AcDbEntity
  8
HIKIDASHI
100
AcDbText
 10
2916.003881448336
 20
1023.864494626815
 30
0.0
 40
90.0
  1
主筋
  7
01
100
AcDbText
  0
LINE
  5
2A714
330
2BF35
100
AcDbEntity
  8
KISO
100
AcDbLine
 10
2406.306080631059
 20
1360.744622954004
 30
0.0
 11
2406.306080631059
 21
1510.744622954003
 31
0.0
  0
LINE
  5
2A71B
330
2BF35
100
AcDbEntity
  8
KISO
100
AcDbLine
 10
2356.306080631059
 20
1510.744622954003
 30
0.0
 11
2356.306080631059
 21
1990.744622954002
 31
0.0
  0
LINE
  5
2A720
330
2BF35
100
AcDbEntity
  8
HATCH
100
AcDbLine
 10
2101.703050250729
 20
2109.744622954003
 30
0.0
 11
2070.703050250725
 21
2140.744622954002
 31
0.0
  0
LINE
  5
2A721
330
2BF35
100
AcDbEntity
  8
HATCH
100
AcDbLine
 10
2131.401535060566
 20
2109.744622954003
 30
0.0
 11
2100.401535060562
 21
2140.744622954002
 31
0.0
  0
LINE
  5
2A722
330
2BF35
100
AcDbEntity
  8
HATCH
100
AcDbLine
 10
2072.004565440886
 20
2109.744622954001
 30
0.0
 11
2041.004565440889
 21
2140.744622954002
 31
0.0
  0
LINE
  5
2A723
330
2BF35
100
AcDbEntity
  8
KISO
100
AcDbLine
 10
2025.856080631057
 20
2122.744622954003
 30
0.0
 11
2121.306080631059
 21
2002.744622954002
 31
0.0
  0
CIRCLE
  5
2A724
330
2BF35
100
AcDbEntity
  8
U7
100
AcDbCircle
 10
1776.806080631059
 20
2101.244622954002
 30
0.0
 40
4.5
  0
LINE
  5
2A725
330
2BF35
100
AcDbEntity
  8
HATCH
100
AcDbLine
 10
1772.306080631058
 20
2109.744622954001
 30
0.0
 11
1741.306080631058
 21
2140.744622954002
 31
0.0
  0
LINE
  5
2A726
330
2BF35
100
AcDbEntity
  8
HATCH
100
AcDbLine
 10
1802.004565440896
 20
2109.744622954001
 30
0.0
 11
1771.004565440895
 21
2140.744622954002
 31
0.0
  0
LINE
  5
2A727
330
2BF35
100
AcDbEntity
  8
HATCH
100
AcDbLine
 10
1831.70305025073
 20
2109.744622954001
 30
0.0
 11
1800.703050250725
 21
2140.744622954002
 31
0.0
  0
CIRCLE
  5
2A728
330
2BF35
100
AcDbEntity
  8
U7
100
AcDbCircle
 10
1776.806080631059
 20
2001.244622954002
 30
0.0
 40
4.5
  0
CIRCLE
  5
2A729
330
2BF35
100
AcDbEntity
  8
U7
100
AcDbCircle
 10
1776.806080631059
 20
1901.244622954002
 30
0.0
 40
4.5
  0
LINE
  5
2A72A
330
2BF35
100
AcDbEntity
  8
KISO
100
AcDbLine
 10
1936.756080631054
 20
2122.744622954001
 30
0.0
 11
1841.306080631057
 21
2002.744622954002
 31
0.0
  0
LINE
  5
2A72B
330
2BF35
100
AcDbEntity
  8
KISO
100
AcDbLine
 10
1741.306080631058
 20
2140.744622954002
 30
0.0
 11
1741.306080631058
 21
1990.744622954002
 31
0.0
  0
LINE
  5
2A72D
330
2BF35
100
AcDbEntity
  8
U7
100
AcDbLine
 10
1781.306080631058
 20
2001.244622954002
 30
0.0
 11
2181.306080631059
 21
2001.244622954002
 31
0.0
  0
LINE
  5
2A72E
330
2BF35
100
AcDbEntity
  8
U7
100
AcDbLine
 10
1781.306080631058
 20
2101.244622954002
 30
0.0
 11
2181.306080631059
 21
2101.244622954002
 31
0.0
  0
LINE
  5
2A72F
330
2BF35
100
AcDbEntity
  8
U7
100
AcDbLine
 10
1781.306080631058
 20
1901.244622954002
 30
0.0
 11
2181.306080631059
 21
1901.244622954004
 31
0.0
  0
CIRCLE
  5
2A732
330
2BF35
100
AcDbEntity
  8
U7
100
AcDbCircle
 10
1776.806080631059
 20
1801.244622954003
 30
0.0
 40
4.5
  0
CIRCLE
  5
2A733
330
2BF35
100
AcDbEntity
  8
U7
100
AcDbCircle
 10
1676.306080631058
 20
1567.244622954003
 30
0.0
 40
6.5
  0
LINE
  5
2A734
330
2BF35
100
AcDbEntity
  8
U1
100
AcDbLine
 10
1768.306080631057
 20
1583.744622954003
 30
0.0
 11
1734.806080631057
 21
1583.744622954002
 31
0.0
  0
CIRCLE
  5
2A735
330
2BF35
100
AcDbEntity
  8
U7
100
AcDbCircle
 10
1776.806080631059
 20
1601.244622954002
 30
0.0
 40
4.5
  0
ARC
  5
2A736
330
2BF35
100
AcDbEntity
  8
U1
100
AcDbCircle
 10
1768.306080631057
 20
1596.744622954003
 30
0.0
 40
13.0
100
AcDbArc
 50
270.0
 51
0.0
  0
CIRCLE
  5
2A737
330
2BF35
100
AcDbEntity
  8
U7
100
AcDbCircle
 10
1776.806080631059
 20
1701.244622954002
 30
0.0
 40
4.5
  0
LINE
  5
2A738
330
2BF35
100
AcDbEntity
  8
U7
100
AcDbLine
 10
1781.306080631058
 20
1601.244622954002
 30
0.0
 11
2181.306080631059
 21
1601.244622954003
 31
0.0
  0
LINE
  5
2A739
330
2BF35
100
AcDbEntity
  8
U7
100
AcDbLine
 10
1781.306080631058
 20
1701.244622954002
 30
0.0
 11
2181.306080631059
 21
1701.244622954003
 31
0.0
  0
LINE
  5
2A73A
330
2BF35
100
AcDbEntity
  8
U7
100
AcDbLine
 10
1781.306080631058
 20
1801.244622954
 30
0.0
 11
2181.306080631059
 21
1801.244622954
 31
0.0
  0
LINE
  5
2A73B
330
2BF35
100
AcDbEntity
  8
U1
100
AcDbLine
 10
1781.306080631058
 20
2101.244622954002
 30
0.0
 11
1781.306080631058
 21
1596.744622954003
 31
0.0
  0
LINE
  5
2A73C
330
2BF35
100
AcDbEntity
  8
U1
100
AcDbLine
 10
2181.306080631059
 20
2101.244622954002
 30
0.0
 11
2181.306080631059
 21
1596.744622954003
 31
0.0
  0
LINE
  5
2A73F
330
2BF35
100
AcDbEntity
  8
HATCH
100
AcDbLine
 10
1740.703050250726
 20
1990.744622954002
 30
0.0
 11
1606.306080631058
 21
1856.347653334335
 31
0.0
  0
LINE
  5
2A740
330
2BF35
100
AcDbEntity
  8
HATCH
100
AcDbLine
 10
1711.004565440891
 20
1990.744622954002
 30
0.0
 11
1606.306080631058
 21
1886.046138144173
 31
0.0
  0
LINE
  5
2A746
330
2BF35
100
AcDbEntity
  8
HATCH
100
AcDbLine
 10
1770.401535060564
 20
1990.744622954002
 30
0.0
 11
1606.306080631058
 21
1826.649168524498
 31
0.0
  0
LINE
  5
2A747
330
2BF35
100
AcDbEntity
  8
HATCH
100
AcDbLine
 10
1751.306080631058
 20
1731.347653334339
 30
0.0
 11
1606.306080631058
 21
1586.347653334336
 31
0.0
  0
LINE
  5
2A748
330
2BF35
100
AcDbEntity
  8
HATCH
100
AcDbLine
 10
1751.306080631058
 20
1701.649168524502
 30
0.0
 11
1606.306080631058
 21
1556.649168524502
 31
0.0
  0
LINE
  5
2A749
330
2BF35
100
AcDbEntity
  8
HATCH
100
AcDbLine
 10
1751.306080631058
 20
1671.950683714663
 30
0.0
 11
1606.306080631058
 21
1526.95068371467
 31
0.0
  0
LINE
  5
2A74A
330
2BF35
100
AcDbEntity
  8
KISO
100
AcDbLine
 10
2724.092880111837
 20
1990.744622954002
 30
0.0
 11
2221.306080631058
 21
1990.744622954002
 31
0.0
  0
LINE
  5
2A74B
330
2BF35
100
AcDbEntity
  8
KISO
100
AcDbLine
 10
2724.092880111837
 20
2050.744622954003
 30
0.0
 11
2221.306080631058
 21
2050.744622954003
 31
0.0
  0
LINE
  5
2A74C
330
2BF35
100
AcDbEntity
  8
KISO
100
AcDbLine
 10
2025.856080631061
 20
2140.744622954002
 30
0.0
 11
2724.092880111837
 21
2140.744622954005
 31
0.0
  0
LINE
  5
2A74E
330
2BF35
100
AcDbEntity
  8
KISO
100
AcDbLine
 10
1741.306080631058
 20
1990.744622954002
 30
0.0
 11
1606.306080631058
 21
1990.744622954002
 31
0.0
  0
LINE
  5
2A755
330
2BF35
100
AcDbEntity
  8
KISO
100
AcDbLine
 10
1556.306080631058
 20
1360.744622954004
 30
0.0
 11
1556.306080631058
 21
1510.744622954003
 31
0.0
  0
LINE
  5
2A759
330
2BF35
100
AcDbEntity
  8
KISO
100
AcDbLine
 10
1606.306080631058
 20
1990.744622954002
 30
0.0
 11
1606.306080631058
 21
1510.744622954003
 31
0.0
  0
LINE
  5
2A75A
330
2BF35
100
AcDbEntity
  8
HATCH
100
AcDbLine
 10
2124.203050250723
 20
1524.244622954003
 30
0.0
 11
2110.703050250723
 21
1510.744622954003
 31
0.0
  0
LINE
  5
2A75B
330
2BF35
100
AcDbEntity
  8
HATCH
100
AcDbLine
 10
2153.901535060561
 20
1524.244622954003
 30
0.0
 11
2140.40153506056
 21
1510.744622954003
 31
0.0
  0
LINE
  5
2A75C
330
2BF35
100
AcDbEntity
  8
HATCH
100
AcDbLine
 10
2183.600019870396
 20
1524.244622954003
 30
0.0
 11
2170.100019870397
 21
1510.744622954003
 31
0.0
  0
LINE
  5
2A75D
330
2BF35
100
AcDbEntity
  8
HATCH
100
AcDbLine
 10
1883.901535060556
 20
1524.244622954003
 30
0.0
 11
1870.401535060556
 21
1510.744622954003
 31
0.0
  0
LINE
  5
2A75E
330
2BF35
100
AcDbEntity
  8
HATCH
100
AcDbLine
 10
1854.203050250728
 20
1524.244622954003
 30
0.0
 11
1840.703050250726
 21
1510.744622954003
 31
0.0
  0
LINE
  5
2A75F
330
2BF35
100
AcDbEntity
  8
HATCH
100
AcDbLine
 10
1824.504565440889
 20
1524.244622954003
 30
0.0
 11
1811.004565440889
 21
1510.744622954003
 31
0.0
  0
LINE
  5
2A762
330
2BF35
100
AcDbEntity
  8
KISO
100
AcDbLine
 10
1556.306080631058
 20
1510.744622954003
 30
0.0
 11
2406.306080631059
 21
1510.744622954003
 31
0.0
  0
LINE
  5
2A763
330
2BF35
100
AcDbEntity
  8
KISO
100
AcDbLine
 10
1556.306080631058
 20
1360.744622954003
 30
0.0
 11
2406.306080631059
 21
1360.744622954003
 31
0.0
  0
LINE
  5
2A764
330
2BF35
100
AcDbEntity
  8
KISO
100
AcDbLine
 10
1556.306080631058
 20
1460.744622954002
 30
0.0
 11
2406.306080631059
 21
1460.744622954003
 31
0.0
  0
ARC
  5
2A768
330
2BF35
100
AcDbEntity
  8
U1
100
AcDbCircle
 10
2194.306080631059
 20
1596.744622954004
 30
0.0
 40
13.0
100
AcDbArc
 50
180.0
 51
270.0
  0
LINE
  5
2A769
330
2BF35
100
AcDbEntity
  8
U7
100
AcDbLine
 10
1676.306080631058
 20
1560.744622954003
 30
0.0
 11
2286.306080631058
 21
1560.744622954003
 31
0.0
  0
CIRCLE
  5
2A76B
330
2BF35
100
AcDbEntity
  8
U7
100
AcDbCircle
 10
2185.806080631057
 20
1601.244622954003
 30
0.0
 40
4.5
  0
CIRCLE
  5
2A76C
330
2BF35
100
AcDbEntity
  8
U7
100
AcDbCircle
 10
2185.806080631057
 20
1801.244622954003
 30
0.0
 40
4.5
  0
CIRCLE
  5
2A76D
330
2BF35
100
AcDbEntity
  8
U7
100
AcDbCircle
 10
2185.806080631057
 20
1701.244622954002
 30
0.0
 40
4.5
  0
LINE
  5
2A76F
330
2BF35
100
AcDbEntity
  8
KISO
100
AcDbLine
 10
2221.306080631058
 20
2140.744622954002
 30
0.0
 11
2025.856080631057
 21
2140.744622954002
 31
0.0
  0
LINE
  5
2A770
330
2BF35
100
AcDbEntity
  8
HIDE-S1
100
AcDbLine
 10
2221.306080631058
 20
1990.744622954002
 30
0.0
 11
1741.306080631058
 21
1990.744622954002
 31
0.0
  0
CIRCLE
  5
2A771
330
2BF35
100
AcDbEntity
  8
U7
100
AcDbCircle
 10
2185.806080631057
 20
2001.244622954002
 30
0.0
 40
4.5
  0
CIRCLE
  5
2A772
330
2BF35
100
AcDbEntity
  8
U7
100
AcDbCircle
 10
2185.806080631057
 20
1901.244622954002
 30
0.0
 40
4.5
  0
CIRCLE
  5
2A773
330
2BF35
100
AcDbEntity
  8
U7
100
AcDbCircle
 10
2185.806080631057
 20
2101.244622954002
 30
0.0
 40
4.5
  0
TEXT
  5
2A77C
330
2BF35
100
AcDbEntity
  8
HIKIDASHI
100
AcDbText
 10
3165.267834482123
 20
1023.864494626815
 30
0.0
 40
90.0
  1
4-D13
 41
0.6700000000000001
  7
00
100
AcDbText
  0
LINE
  5
2A77D
330
2BF35
100
AcDbEntity
  8
HIKIDASHI
100
AcDbLine
 10
2886.003881448336
 20
978.8644946268147
 30
0.0
 11
3513.908968857524
 21
978.8644946268147
 31
0.0
  0
LINE
  5
2A77E
330
2BF35
100
AcDbEntity
  8
HIKIDASHI
100
AcDbLine
 10
2813.54893349964
 20
756.040606718153
 30
0.0
 11
3591.270234708687
 21
756.040606718153
 31
0.0
  0
TEXT
  5
2A782
330
2BF35
100
AcDbEntity
  8
HIKIDASHI
100
AcDbText
 10
3170.601920997666
 20
801.0406067181527
 30
0.0
 40
90.0
  1
%%C
 41
0.6700000000000001
  7
00
100
AcDbText
  0
TEXT
  5
2A783
330
2BF35
100
AcDbEntity
  8
HIKIDASHI
100
AcDbText
 10
3092.812886533428
 20
801.0406067181527
 30
0.0
 40
90.0
  1
9
 41
0.6700000000000001
  7
00
100
AcDbText
  0
CIRCLE
  5
2A784
330
2BF35
100
AcDbEntity
  8
HIKIDASHI
100
AcDbCircle
 10
3314.727253567396
 20
846.0406067181525
 30
0.0
 40
60.0
  0
TEXT
  5
2A785
330
2BF35
100
AcDbEntity
  8
HIKIDASHI
100
AcDbText
 10
3391.711927224768
 20
801.0406067181527
 30
0.0
 40
90.0
  1
100
 41
0.6700000000000001
  7
00
100
AcDbText
  0
TEXT
  5
2A786
330
2BF35
100
AcDbEntity
  8
HIKIDASHI
100
AcDbText
 10
3282.227253567396
 20
808.5406067181525
 30
0.0
 40
75.0
  1
ア
  7
01
 72
     1
 11
3314.727253567396
 21
846.0406067181525
 31
0.0
100
AcDbText
 73
     2
  0
TEXT
  5
2A787
330
2BF35
100
AcDbEntity
  8
HIKIDASHI
100
AcDbText
 10
2843.54893349964
 20
801.0406067181527
 30
0.0
 40
90.0
  1
帯筋
  7
01
100
AcDbText
  0
TEXT
  5
2A790
330
2BF35
100
AcDbEntity
  8
HIKIDASHI
100
AcDbText
 10
5675.612857036783
 20
3682.03496710805
 30
0.0
 40
120.0
  1
（  ：スパン数）
  7
01
 72
     4
 11
6231.612857036783
 21
3742.03496710805
 31
0.0
100
AcDbText
  0
LINE
  5
2A7B4
330
2BF35
100
AcDbEntity
  8
HATCH
100
AcDbLine
 10
2394.95873823853
 20
2140.744622954002
 30
0.0
 11
2304.95873823853
 21
2050.744622954002
 31
0.0
  0
LINE
  5
2A7B5
330
2BF35
100
AcDbEntity
  8
HATCH
100
AcDbLine
 10
2335.561768618862
 20
2140.744622954002
 30
0.0
 11
2245.56176861886
 21
2050.744622954002
 31
0.0
  0
LINE
  5
2A7B6
330
2BF35
100
AcDbEntity
  8
HATCH
100
AcDbLine
 10
2365.260253428691
 20
2140.744622954002
 30
0.0
 11
2275.260253428692
 21
2050.744622954002
 31
0.0
  0
LINE
  5
2A7B7
330
2BF35
100
AcDbEntity
  8
HATCH
100
AcDbLine
 10
2694.657223048391
 20
2140.744622954002
 30
0.0
 11
2604.657223048385
 21
2050.744622954002
 31
0.0
  0
LINE
  5
2A7B8
330
2BF35
100
AcDbEntity
  8
HATCH
100
AcDbLine
 10
2664.958738238522
 20
2140.744622954002
 30
0.0
 11
2574.958738238524
 21
2050.744622954002
 31
0.0
  0
LINE
  5
2A7B9
330
2BF35
100
AcDbEntity
  8
HATCH
100
AcDbLine
 10
2635.260253428683
 20
2140.744622954002
 30
0.0
 11
2545.260253428684
 21
2050.744622954002
 31
0.0
  0
TEXT
  5
2A7BD
330
2BF35
100
AcDbEntity
  8
SUNPOU
100
AcDbText
 10
1439.197314355883
 20
2245.744622954002
 30
0.0
 40
90.0
  1
G.L
 50
0.0000000000000799
 41
0.6666666666666666
  7
00
 72
     4
 11
1510.625885784455
 21
2290.744622954002
 31
0.0
100
AcDbText
  0
LINE
  5
2A7BF
330
2BF35
100
AcDbEntity
  8
KISO
100
AcDbLine
 10
1936.756080631057
 20
2140.744622954002
 30
0.0
 11
1741.306080631058
 21
2140.744622954002
 31
0.0
  0
TEXT
  5
2A80A
330
2BF35
100
AcDbEntity
  8
HIKIDASHI
100
AcDbText
 10
3841.360328347337
 20
2725.744622954003
 30
0.0
 40
90.00009018009018
  1
（別途）
  7
01
100
AcDbText
  0
LINE
  5
2A80B
330
2BF35
100
AcDbEntity
  8
HIKIDASHI
100
AcDbLine
 10
2489.562271146263
 20
2680.744622954003
 30
0.0
 11
4233.789510301686
 21
2680.744622954003
 31
0.0
  0
TEXT
  5
2A80C
330
2BF35
100
AcDbEntity
  8
HIKIDASHI
100
AcDbText
 10
2523.839956094795
 20
2725.744622954003
 30
0.0
 40
90.00009018009018
  1
アンカーボルト
  7
01
100
AcDbText
  0
TEXT
  5
2A80D
330
2BF35
100
AcDbEntity
  8
HIKIDASHI
100
AcDbText
 10
3599.640174285833
 20
2725.535636753914
 30
0.0
 40
89.55223880597012
  1
400
 41
0.6700000000000001
  7
00
100
AcDbText
  0
TEXT
  5
2A80E
330
2BF35
100
AcDbEntity
  8
HIKIDASHI
100
AcDbText
 10
3284.177010700179
 20
2725.744622954003
 30
0.0
 40
89.55223880597012
  1
W ／
 41
0.6700000000000001
  7
00
100
AcDbText
  0
TEXT
  5
2A80F
330
2BF35
100
AcDbEntity
  8
HIKIDASHI
100
AcDbText
 10
3358.777821383402
 20
2752.1742325929
 30
0.0
 40
67.16417910447761
  1
1
 41
0.6700000000000001
  7
00
100
AcDbText
  0
TEXT
  5
2A810
330
2BF35
100
AcDbEntity
  8
HIKIDASHI
100
AcDbText
 10
3446.669857942328
 20
2725.148177562338
 30
0.0
 40
67.16417910447761
  1
2
 41
0.6700000000000001
  7
00
100
AcDbText
  0
TEXT
  5
2A811
330
2BF35
100
AcDbEntity
  8
HIKIDASHI
100
AcDbText
 10
3518.5047951327
 20
2736.938652804752
 30
0.0
 40
89.55223880597012
  1
x
 41
0.6700000000000001
  7
00
100
AcDbText
  0
CIRCLE
  5
2A813
330
2BF35
100
AcDbEntity
  8
U7
100
AcDbCircle
 10
1828.806080631057
 20
1567.244622954003
 30
0.0
 40
6.5
  0
CIRCLE
  5
2A814
330
2BF35
100
AcDbEntity
  8
U7
100
AcDbCircle
 10
1981.306080631058
 20
1567.244622954003
 30
0.0
 40
6.5
  0
CIRCLE
  5
2A815
330
2BF35
100
AcDbEntity
  8
U7
100
AcDbCircle
 10
2133.806080631059
 20
1567.244622954003
 30
0.0
 40
6.5
  0
TEXT
  5
2A816
330
2BF35
100
AcDbEntity
  8
HIKIDASHI
100
AcDbText
 10
7548.376511282373
 20
7483.464770760368
 30
0.0
 40
90.00009018009018
  1
アンカーボルト
  7
01
100
AcDbText
  0
LINE
  5
2A817
330
2BF35
100
AcDbEntity
  8
HIKIDASHI
100
AcDbLine
 10
7514.098826333841
 20
7438.464770760368
 30
0.0
 11
9258.326065489267
 21
7438.464770760368
 31
0.0
  0
TEXT
  5
2A818
330
2BF35
100
AcDbEntity
  8
HIKIDASHI
100
AcDbText
 10
8308.713565887758
 20
7483.464770760368
 30
0.0
 40
89.55223880597012
  1
W ／
 41
0.6700000000000001
  7
00
100
AcDbText
  0
TEXT
  5
2A819
330
2BF35
100
AcDbEntity
  8
HIKIDASHI
100
AcDbText
 10
8383.31437657098
 20
7509.894380399263
 30
0.0
 40
67.16417910447761
  1
1
 41
0.6700000000000001
  7
00
100
AcDbText
  0
TEXT
  5
2A81A
330
2BF35
100
AcDbEntity
  8
HIKIDASHI
100
AcDbText
 10
8624.176729473409
 20
7483.255784560276
 30
0.0
 40
89.55223880597012
  1
400
 41
0.6700000000000001
  7
00
100
AcDbText
  0
TEXT
  5
2A81B
330
2BF35
100
AcDbEntity
  8
HIKIDASHI
100
AcDbText
 10
8471.206413129904
 20
7482.868325368702
 30
0.0
 40
67.16417910447761
  1
2
 41
0.6700000000000001
  7
00
100
AcDbText
  0
TEXT
  5
2A81C
330
2BF35
100
AcDbEntity
  8
HIKIDASHI
100
AcDbText
 10
8543.041350320281
 20
7494.658800611116
 30
0.0
 40
89.55223880597012
  1
x
 41
0.6700000000000001
  7
00
100
AcDbText
  0
TEXT
  5
2A81E
330
2BF35
100
AcDbEntity
  8
HIKIDASHI
100
AcDbText
 10
8865.896883534917
 20
7483.464770760368
 30
0.0
 40
90.00009018009018
  1
（別途）
  7
01
100
AcDbText
  0
LINE
  5
2A85D
330
2BF35
100
AcDbEntity
  8
SUNPOU
100
AcDbLine
 10
1991.040410277506
 20
5708.464770760366
 30
0.0
 11
2006.040410277506
 21
5798.464770760366
 31
0.0
  0
LINE
  5
2A85E
330
2BF35
100
AcDbEntity
  8
SUNPOU
100
AcDbLine
 10
2006.040410277506
 20
5798.464770760366
 30
0.0
 11
2021.040410277506
 21
5708.464770760366
 31
0.0
  0
SOLID
  5
2A85F
330
2BF35
100
AcDbEntity
  8
SUNPOU
100
AcDbTrace
 10
1991.040410277506
 20
5708.464770760366
 30
0.0
 11
2021.040410277506
 21
5708.464770760366
 31
0.0
 12
2006.040410277506
 22
5798.464770760366
 32
0.0
 13
2006.040410277506
 23
5798.464770760366
 33
0.0
  0
LINE
  5
2A860
330
2BF35
100
AcDbEntity
  8
SUNPOU
100
AcDbLine
 10
2021.040410277506
 20
5708.464770760366
 30
0.0
 11
1991.040410277506
 21
5708.464770760366
 31
0.0
  0
LINE
  5
2A86B
330
2BF35
100
AcDbEntity
  8
SUNPOU
100
AcDbLine
 10
3201.040410277509
 20
5708.464770760366
 30
0.0
 11
3186.040410277508
 21
5798.464770760366
 31
0.0
  0
LINE
  5
2A86C
330
2BF35
100
AcDbEntity
  8
SUNPOU
100
AcDbLine
 10
3186.040410277508
 20
5798.464770760366
 30
0.0
 11
3171.040410277508
 21
5708.464770760366
 31
0.0
  0
SOLID
  5
2A86D
330
2BF35
100
AcDbEntity
  8
SUNPOU
100
AcDbTrace
 10
3201.040410277509
 20
5708.464770760366
 30
0.0
 11
3171.040410277508
 21
5708.464770760366
 31
0.0
 12
3186.040410277508
 22
5798.464770760366
 32
0.0
 13
3186.040410277508
 23
5798.464770760366
 33
0.0
  0
LINE
  5
2A86E
330
2BF35
100
AcDbEntity
  8
SUNPOU
100
AcDbLine
 10
3171.040410277508
 20
5708.464770760366
 30
0.0
 11
3201.040410277509
 21
5708.464770760366
 31
0.0
  0
LINE
  5
2A89C
330
2BF35
100
AcDbEntity
  8
SUNPOU
100
AcDbLine
 10
9707.290410277508
 20
7463.464770760366
 30
0.0
 11
9718.540410277508
 21
7463.464770760366
 31
0.0
  0
LINE
  5
2A89E
330
2BF35
100
AcDbEntity
  8
SUNPOU
100
AcDbLine
 10
9409.790410277508
 20
7673.464770760367
 30
0.0
 11
9398.540410277508
 21
7673.464770760367
 31
0.0
  0
LINE
  5
2A8A0
330
2BF35
100
AcDbEntity
  8
SUNPOU
100
AcDbLine
 10
9432.290410277508
 20
7883.464770760366
 30
0.0
 11
9443.540410277508
 21
7883.464770760366
 31
0.0
  0
LINE
  5
2A8A2
330
2BF35
100
AcDbEntity
  8
SUNPOU
100
AcDbLine
 10
9567.290410277506
 20
7673.464770760367
 30
0.0
 11
9578.54041027751
 21
7673.464770760367
 31
0.0
  0
LINE
  5
2A8A4
330
2BF35
100
AcDbEntity
  8
SUNPOU
100
AcDbLine
 10
9567.290410277506
 20
7673.464770760367
 30
0.0
 11
9578.54041027751
 21
7673.464770760367
 31
0.0
  0
LINE
  5
2A8A6
330
2BF35
100
AcDbEntity
  8
SUNPOU
100
AcDbLine
 10
9884.790410277512
 20
7463.464770760366
 30
0.0
 11
9873.540410277508
 21
7463.464770760366
 31
0.0
  0
LINE
  5
2A8A8
330
2BF35
100
AcDbEntity
  8
SUNPOU
100
AcDbLine
 10
10024.79041027749
 20
7673.464770760367
 30
0.0
 11
10013.54041027749
 21
7673.464770760367
 31
0.0
  0
LINE
  5
2A8AA
330
2BF35
100
AcDbEntity
  8
SUNPOU
100
AcDbLine
 10
10024.79041027749
 20
7673.464770760367
 30
0.0
 11
10013.54041027749
 21
7673.464770760367
 31
0.0
  0
LINE
  5
2A8AC
330
2BF35
100
AcDbEntity
  8
SUNPOU
100
AcDbLine
 10
10182.29041027749
 20
7673.464770760367
 30
0.0
 11
10193.54041027749
 21
7673.464770760367
 31
0.0
  0
LINE
  5
2A8AE
330
2BF35
100
AcDbEntity
  8
SUNPOU
100
AcDbLine
 10
10159.7904102775
 20
7883.464770760366
 30
0.0
 11
10148.5404102775
 21
7883.464770760366
 31
0.0
  0
LINE
  5
2ABDE
330
2BF35
100
AcDbEntity
  8
SUNPOU
100
AcDbLine
 10
10316.0404102775
 20
5873.464770760366
 30
0.0
 11
10201.04041027749
 21
5873.464770760366
 31
0.0
  0
LINE
  5
2ABE9
330
2BF35
100
AcDbEntity
  8
SUNPOU
100
AcDbLine
 10
10316.0404102775
 20
5123.464770760364
 30
0.0
 11
10201.04041027749
 21
5123.464770760364
 31
0.0
  0
LINE
  5
2ABFD
330
2BF35
100
AcDbEntity
  8
SUNPOU
100
AcDbLine
 10
10316.0404102775
 20
7273.464770760367
 30
0.0
 11
10201.04041027749
 21
7273.464770760367
 31
0.0
  0
LINE
  5
2ABFE
330
2BF35
100
AcDbEntity
  8
SUNPOU
100
AcDbLine
 10
10316.0404102775
 20
6523.464770760364
 30
0.0
 11
10201.04041027749
 21
6523.464770760364
 31
0.0
  0
LINE
  5
2ACDC
330
2BF35
100
AcDbEntity
  8
HIKIDASHI
100
AcDbLine
 10
9200.871513029907
 20
6358.464770760363
 30
0.0
 11
9344.871513029907
 21
6358.464770760363
 31
0.0
  0
LINE
  5
2AD75
330
2BF35
100
AcDbEntity
  8
SUNPOU
100
AcDbLine
 10
2945.856080631056
 20
1330.744622954004
 30
0.0
 11
2945.856080631056
 21
1171.839439405352
 31
0.0
  0
LINE
  5
2AE46
330
2BF35
100
AcDbEntity
  8
HIKIDASHI
100
AcDbLine
 10
1633.492404013274
 20
581.6956041113349
 30
0.0
 11
2357.509683509836
 21
581.6956041113349
 31
0.0
  0
LINE
  5
2AE47
330
2BF35
100
AcDbEntity
  8
HIKIDASHI
100
AcDbLine
 10
1633.492404013274
 20
551.6956041113348
 30
0.0
 11
2357.509683509836
 21
551.6956041113348
 31
0.0
  0
TEXT
  5
2AE48
330
2BF35
100
AcDbEntity
  8
HIKIDASHI
100
AcDbText
 10
1663.492404013273
 20
626.6956041113347
 30
0.0
 40
90.0
  1
A  ~  A'
 41
0.6700000000000001
  7
00
100
AcDbText
  0
TEXT
  5
2AE49
330
2BF35
100
AcDbEntity
  8
HIKIDASHI
100
AcDbText
 10
2027.509683509836
 20
626.6956041113347
 30
0.0
 40
90.0
  1
断  面
  7
01
100
AcDbText
  0
TEXT
  5
2B3B8
330
2BF35
100
AcDbEntity
  8
HIKIDASHI
100
AcDbText
 10
5530.097798917128
 20
3857.187012089296
 30
0.0
 40
135.0
  1
基 礎 伏 図
  7
01
 72
     2
 11
6376.097798917128
 21
3857.187012089296
 31
0.0
100
AcDbText
  0
TEXT
  5
2B3B9
330
2BF35
100
AcDbEntity
  8
HIKIDASHI
100
AcDbText
 10
6477.347798917128
 20
3883.980509149134
 30
0.0
 40
90.0
  1
(S=
 41
0.6700000000000001
  7
00
100
AcDbText
  0
TEXT
  5
2B3BA
330
2BF35
100
AcDbEntity
  8
HIKIDASHI
100
AcDbText
 10
6770.005533552319
 20
3854.541699048825
 30
0.0
 40
90.0
  1
30
 41
0.6700000000000001
  7
00
100
AcDbText
  0
TEXT
  5
2B3BB
330
2BF35
100
AcDbEntity
  8
HIKIDASHI
100
AcDbText
 10
6906.610296622564
 20
3883.980509149134
 30
0.0
 40
90.0
  1
)
 41
0.6700000000000001
  7
00
100
AcDbText
  0
TEXT
  5
2B3BC
330
2BF35
100
AcDbEntity
  8
HIKIDASHI
100
AcDbText
 10
6717.923484444354
 20
3883.980509149134
 30
0.0
 40
90.0
  1
/
 41
0.6700000000000001
  7
00
100
AcDbText
  0
TEXT
  5
2B3BD
330
2BF35
100
AcDbEntity
  8
HIKIDASHI
100
AcDbText
 10
6680.644204347014
 20
3901.487171615858
 30
0.0
 40
90.0
  1
1
 41
0.6700000000000001
  7
00
100
AcDbText
  0
TEXT
  5
2B62B
330
2BF35
100
AcDbEntity
  8
HIKIDASHI
100
AcDbText
 10
9981.158713324854
 20
5873.464770760366
 30
0.0
 40
90.0
  1
（ケラバ外面）
 50
90.0
 41
0.9
  7
01
100
AcDbText
  0
TEXT
  5
2B73C
330
2BF35
100
AcDbEntity
  8
SUNPOU
100
AcDbText
 10
4965.055546028486
 20
1959.74328530284
 30
0.0
 40
90.0
  1
5-D13
 50
90.0
 41
0.6666666666666666
  7
00
 72
     4
 11
4920.055546028486
 21
2112.600428159983
 31
0.0
100
AcDbText
  0
TEXT
  5
2B73D
330
2BF35
100
AcDbEntity
  8
SUNPOU
100
AcDbText
 10
4965.055546028486
 20
1497.108247767377
 30
0.0
 40
90.0
  1
ベース筋
 50
90.0
  7
01
 72
     4
 11
4920.055546028486
 21
1701.108247767377
 31
0.0
100
AcDbText
  0
LINE
  5
2B73E
330
2BF35
100
AcDbEntity
  8
U7
100
AcDbLine
 10
6050.055546028492
 20
1880.744622954002
 30
0.0
 11
6050.055546028492
 21
1640.744622954002
 31
0.0
  0
LINE
  5
2B73F
330
2BF35
100
AcDbEntity
  8
KISO
100
AcDbLine
 10
6185.055546028491
 20
1505.744622954002
 30
0.0
 11
6185.055546028491
 21
2255.744622954003
 31
0.0
  0
LINE
  5
2B740
330
2BF35
100
AcDbEntity
  8
U7
100
AcDbLine
 10
5570.055546028491
 20
1640.744622954003
 30
0.0
 11
5570.05554602849
 21
1880.744622954002
 31
0.0
  0
LINE
  5
2B741
330
2BF35
100
AcDbEntity
  8
1PL-M1
100
AcDbLine
 10
5810.055546028491
 20
2330.744622954001
 30
0.0
 11
5810.055546028491
 21
1430.744622954002
 31
0.0
  0
LINE
  5
2B742
330
2BF35
100
AcDbEntity
  8
SUNPOU
100
AcDbLine
 10
5010.055546028485
 20
2145.744622954003
 30
0.0
 11
5010.055546028485
 21
1615.744622954003
 31
0.0
  0
LINE
  5
2B743
330
2BF35
100
AcDbEntity
  8
KISO
100
AcDbLine
 10
5435.055546028491
 20
2255.744622954003
 30
0.0
 11
5435.055546028491
 21
1505.744622954002
 31
0.0
  0
LINE
  5
2B744
330
2BF35
100
AcDbEntity
  8
U7
100
AcDbLine
 10
6050.055546028492
 20
1640.744622954002
 30
0.0
 11
5570.055546028491
 21
1640.744622954003
 31
0.0
  0
LINE
  5
2B745
330
2BF35
100
AcDbEntity
  8
KISO
100
AcDbLine
 10
5435.055546028491
 20
1505.744622954002
 30
0.0
 11
6185.055546028491
 21
1505.744622954002
 31
0.0
  0
LINE
  5
2B746
330
2BF35
100
AcDbEntity
  8
SUNPOU
100
AcDbLine
 10
5430.055546028491
 20
1600.744622954002
 30
0.0
 11
4965.055546028487
 21
1600.744622954002
 31
0.0
  0
LINE
  5
2B749
330
2BF35
100
AcDbEntity
  8
U7
100
AcDbLine
 10
5505.05554602849
 20
1880.744622954002
 30
0.0
 11
6115.05554602849
 21
1880.744622954002
 31
0.0
  0
LINE
  5
2B74A
330
2BF35
100
AcDbEntity
  8
U7
100
AcDbLine
 10
5505.05554602849
 20
2020.744622954003
 30
0.0
 11
6115.05554602849
 21
2020.744622954003
 31
0.0
  0
TEXT
  5
2B74B
330
2BF35
100
AcDbEntity
  8
SUNPOU
100
AcDbText
 10
5852.568158861097
 20
2725.744622954003
 30
0.0
 40
90.0
  1
5-D13
 41
0.6
  7
00
 72
     4
 11
5990.139587432525
 21
2770.744622954004
 31
0.0
100
AcDbText
  0
LINE
  5
2B74C
330
2BF35
100
AcDbEntity
  8
SUNPOU
100
AcDbLine
 10
5520.055546028491
 20
2680.744622954003
 30
0.0
 11
6100.055546028491
 21
2680.744622954003
 31
0.0
  0
LINE
  5
2B74D
330
2BF35
100
AcDbEntity
  8
HATCH
100
AcDbLine
 10
6156.506514140072
 20
2255.744622954003
 30
0.0
 11
5781.506514140065
 21
1880.744622954002
 31
0.0
  0
LINE
  5
2B74E
330
2BF35
100
AcDbEntity
  8
HIDE-M1
100
AcDbLine
 10
5570.05554602849
 20
2120.744622954002
 30
0.0
 11
6050.055546028492
 21
2120.744622954002
 31
0.0
  0
LINE
  5
2B74F
330
2BF35
100
AcDbEntity
  8
HATCH
100
AcDbLine
 10
6097.109544520399
 20
2255.744622954003
 30
0.0
 11
5722.109544520399
 21
1880.744622954002
 31
0.0
  0
LINE
  5
2B750
330
2BF35
100
AcDbEntity
  8
HATCH
100
AcDbLine
 10
6126.808029330235
 20
2255.744622954003
 30
0.0
 11
5751.808029330235
 21
1880.744622954002
 31
0.0
  0
LINE
  5
2B751
330
2BF35
100
AcDbEntity
  8
1PL-M1
100
AcDbLine
 10
6235.05554602849
 20
1880.744622954002
 30
0.0
 11
5385.055546028492
 21
1880.744622954002
 31
0.0
  0
LINE
  5
2B752
330
2BF35
100
AcDbEntity
  8
U7
100
AcDbLine
 10
5511.55554602849
 20
2160.744622954001
 30
0.0
 11
6108.55554602849
 21
2160.744622954001
 31
0.0
  0
LINE
  5
2B753
330
2BF35
100
AcDbEntity
  8
KISO
100
AcDbLine
 10
6185.055546028491
 20
2255.744622954003
 30
0.0
 11
5435.055546028491
 21
2255.744622954003
 31
0.0
  0
LINE
  5
2B754
330
2BF35
100
AcDbEntity
  8
SUNPOU
100
AcDbLine
 10
5505.05554602849
 20
2210.744622954002
 30
0.0
 11
5505.05554602849
 21
2725.744622954003
 31
0.0
  0
LINE
  5
2B755
330
2BF35
100
AcDbEntity
  8
SUNPOU
100
AcDbLine
 10
5430.055546028491
 20
2160.744622954001
 30
0.0
 11
4965.055546028487
 21
2160.744622954001
 31
0.0
  0
LINE
  5
2B756
330
2BF35
100
AcDbEntity
  8
U7
100
AcDbLine
 10
5505.05554602849
 20
1880.744622954002
 30
0.0
 11
5505.05554602849
 21
2154.244622954001
 31
0.0
  0
LINE
  5
2B757
330
2BF35
100
AcDbEntity
  8
HATCH
100
AcDbLine
 10
5557.109544520403
 20
2255.744622954003
 30
0.0
 11
5435.055546028491
 21
2133.690624462091
 31
0.0
  0
LINE
  5
2B758
330
2BF35
100
AcDbEntity
  8
HATCH
100
AcDbLine
 10
5797.411059710563
 20
2255.744622954002
 30
0.0
 11
5435.055546028491
 21
1893.389109271928
 31
0.0
  0
LINE
  5
2B759
330
2BF35
100
AcDbEntity
  8
HATCH
100
AcDbLine
 10
5827.109544520395
 20
2255.744622954002
 30
0.0
 11
5452.109544520403
 21
1880.744622954002
 31
0.0
  0
LINE
  5
2B75A
330
2BF35
100
AcDbEntity
  8
HATCH
100
AcDbLine
 10
5856.808029330232
 20
2255.744622954002
 30
0.0
 11
5481.808029330232
 21
1880.744622954002
 31
0.0
  0
LINE
  5
2B75B
330
2BF35
100
AcDbEntity
  8
HIDE-M1
100
AcDbLine
 10
5570.05554602849
 20
1880.744622954002
 30
0.0
 11
5570.05554602849
 21
2120.744622954002
 31
0.0
  0
LINE
  5
2B75C
330
2BF35
100
AcDbEntity
  8
HATCH
100
AcDbLine
 10
5497.712574900734
 20
2255.744622954003
 30
0.0
 11
5435.055546028491
 21
2193.08759408176
 31
0.0
  0
ARC
  5
2B75D
330
2BF35
100
AcDbEntity
  8
U7
100
AcDbCircle
 10
5511.55554602849
 20
2154.244622954001
 30
0.0
 40
6.5
100
AcDbArc
 50
90.0
 51
180.0
  0
LINE
  5
2B75E
330
2BF35
100
AcDbEntity
  8
HATCH
100
AcDbLine
 10
5527.41105971057
 20
2255.744622954003
 30
0.0
 11
5435.055546028491
 21
2163.389109271924
 31
0.0
  0
TEXT
  5
2B75F
330
2BF35
100
AcDbEntity
  8
SUNPOU
100
AcDbText
 10
5511.902819179521
 20
2725.744622954003
 30
0.0
 40
90.0
  1
ベース筋
 41
0.8
  7
01
 72
     4
 11
5675.102819179521
 21
2770.744622954004
 31
0.0
100
AcDbText
  0
LINE
  5
2B760
330
2BF35
100
AcDbEntity
  8
SUNPOU
100
AcDbLine
 10
6115.05554602849
 20
2210.744622954002
 30
0.0
 11
6115.05554602849
 21
2725.744622954003
 31
0.0
  0
LINE
  5
2B761
330
2BF35
100
AcDbEntity
  8
U7
100
AcDbLine
 10
6115.05554602849
 20
2154.244622954001
 30
0.0
 11
6115.05554602849
 21
1880.744622954002
 31
0.0
  0
LINE
  5
2B762
330
2BF35
100
AcDbEntity
  8
HATCH
100
AcDbLine
 10
6185.055546028491
 20
1984.595170032589
 30
0.0
 11
6081.204998949901
 21
1880.744622954002
 31
0.0
  0
LINE
  5
2B763
330
2BF35
100
AcDbEntity
  8
HATCH
100
AcDbLine
 10
6185.055546028491
 20
2014.293654842421
 30
0.0
 11
6051.506514140069
 21
1880.744622954002
 31
0.0
  0
LINE
  5
2B764
330
2BF35
100
AcDbEntity
  8
HATCH
100
AcDbLine
 10
6185.055546028491
 20
2043.992139652258
 30
0.0
 11
6021.808029330228
 21
1880.744622954002
 31
0.0
  0
LINE
  5
2B765
330
2BF35
100
AcDbEntity
  8
HIDE-M1
100
AcDbLine
 10
6050.055546028492
 20
1880.744622954002
 30
0.0
 11
6050.055546028492
 21
2120.744622954002
 31
0.0
  0
ARC
  5
2B766
330
2BF35
100
AcDbEntity
  8
U7
100
AcDbCircle
 10
6108.55554602849
 20
2154.244622954001
 30
0.0
 40
6.5
100
AcDbArc
 50
0.0
 51
90.0
  0
LINE
  5
2B767
330
2BF35
100
AcDbEntity
  8
U7
100
AcDbLine
 10
5962.55554602849
 20
1880.744622954002
 30
0.0
 11
5962.55554602849
 21
2160.744622954001
 31
0.0
  0
LINE
  5
2B768
330
2BF35
100
AcDbEntity
  8
U7
100
AcDbLine
 10
5810.055546028491
 20
1880.744622954002
 30
0.0
 11
5810.055546028491
 21
2160.744622954001
 31
0.0
  0
LINE
  5
2B769
330
2BF35
100
AcDbEntity
  8
U7
100
AcDbLine
 10
5657.55554602849
 20
1880.744622954002
 30
0.0
 11
5657.55554602849
 21
2160.744622954001
 31
0.0
  0
LINE
  5
2B76B
330
2BF35
100
AcDbEntity
  8
SUNPOU
100
AcDbLine
 10
5010.055546028485
 20
1611.994622954003
 30
0.0
 11
5010.055546028485
 21
1623.244622954002
 31
0.0
  0
LINE
  5
2B76D
330
2BF35
100
AcDbEntity
  8
SUNPOU
100
AcDbLine
 10
5010.055546028485
 20
2149.494622954003
 30
0.0
 11
5010.055546028485
 21
2138.244622954001
 31
0.0
  0
LINE
  5
2B76F
330
2BF35
100
AcDbEntity
  8
SUNPOU
100
AcDbLine
 10
5516.30554602849
 20
2680.744622954003
 30
0.0
 11
5527.555546028491
 21
2680.744622954003
 31
0.0
  0
LINE
  5
2B771
330
2BF35
100
AcDbEntity
  8
SUNPOU
100
AcDbLine
 10
6103.805546028492
 20
2680.744622954003
 30
0.0
 11
6092.55554602849
 21
2680.744622954003
 31
0.0
  0
LINE
  5
2B7F7
330
2BF35
100
AcDbEntity
  8
HATCH
100
AcDbLine
 10
1929.053666964171
 20
1510.744622954003
 30
0.0
 11
1979.053666964171
 21
1460.744622954003
 31
0.0
  0
LINE
  5
2B7F8
330
2BF35
100
AcDbEntity
  8
HATCH
100
AcDbLine
 10
1958.752151774008
 20
1510.744622954003
 30
0.0
 11
2008.752151774015
 21
1460.744622954003
 31
0.0
  0
LINE
  5
2B7F9
330
2BF35
100
AcDbEntity
  8
HATCH
100
AcDbLine
 10
1988.450636583851
 20
1510.744622954003
 30
0.0
 11
2038.450636583859
 21
1460.744622954005
 31
0.0
  0
LINE
  5
2B7FA
330
2BF35
100
AcDbEntity
  8
HATCH
100
AcDbLine
 10
2228.752151774
 20
1510.744622954003
 30
0.0
 11
2278.752151774001
 21
1460.744622954003
 31
0.0
  0
LINE
  5
2B7FB
330
2BF35
100
AcDbEntity
  8
HATCH
100
AcDbLine
 10
2258.450636583837
 20
1510.744622954003
 30
0.0
 11
2308.450636583843
 21
1460.744622954003
 31
0.0
  0
LINE
  5
2B7FC
330
2BF35
100
AcDbEntity
  8
HATCH
100
AcDbLine
 10
2288.149121393681
 20
1510.744622954003
 30
0.0
 11
2338.149121393688
 21
1460.744622954005
 31
0.0
  0
LINE
  5
2B7FD
330
2BF35
100
AcDbEntity
  8
HATCH
100
AcDbLine
 10
1629.355182154342
 20
1510.744622954003
 30
0.0
 11
1679.355182154342
 21
1460.744622954003
 31
0.0
  0
LINE
  5
2B7FE
330
2BF35
100
AcDbEntity
  8
HATCH
100
AcDbLine
 10
1659.053666964179
 20
1510.744622954003
 30
0.0
 11
1709.053666964186
 21
1460.744622954003
 31
0.0
  0
LINE
  5
2B7FF
330
2BF35
100
AcDbEntity
  8
HATCH
100
AcDbLine
 10
1688.752151774021
 20
1510.744622954003
 30
0.0
 11
1738.752151774028
 21
1460.744622954005
 31
0.0
  0
TEXT
  5
2B93B
330
2BF35
100
AcDbEntity
  8
FILENAME
100
AcDbText
 10
10562.21428571428
 20
130.4999999999999
 30
0.0
 40
75.0
  1
＜YORS-240B_3_JIS_GL.DXF ＞
  7
FILENAME
 72
     2
 11
12286.5
 21
130.4999999999999
 31
0.0
100
AcDbText
  0
LINE
  5
2B93E
330
2BF35
100
AcDbEntity
  8
WAKUSEN-01
100
AcDbLine
 10
325.5000000000006
 20
310.4999999999998
 30
0.0
 11
12286.5
 21
310.4999999999998
 31
0.0
  0
LINE
  5
2B93F
330
2BF35
100
AcDbEntity
  8
WAKUSEN-01
100
AcDbLine
 10
325.5000000000006
 20
8431.500000000005
 30
0.0
 11
12286.5
 21
8431.500000000005
 31
0.0
  0
LINE
  5
2B940
330
2BF35
100
AcDbEntity
  8
WAKUSEN-01
100
AcDbLine
 10
325.5000000000006
 20
310.4999999999998
 30
0.0
 11
325.5000000000006
 21
8431.500000000005
 31
0.0
  0
LINE
  5
2B941
330
2BF35
100
AcDbEntity
  8
WAKUSEN-01
100
AcDbLine
 10
12286.5
 20
310.4999999999998
 30
0.0
 11
12286.5
 21
8431.500000000005
 31
0.0
  0
LINE
  5
2B942
330
2BF35
100
AcDbEntity
  8
WAKUSEN-01
100
AcDbLine
 10
7710.0
 20
931.4999999999999
 30
0.0
 11
12286.5
 21
931.4999999999995
 31
0.0
  0
LINE
  5
2B943
330
2BF35
100
AcDbEntity
  8
WAKUSEN-02
100
AcDbLine
 10
7710.0
 20
620.9999999999999
 30
0.0
 11
10075.49999999999
 21
620.9999999999999
 31
0.0
  0
TEXT
  5
2B944
330
2BF35
100
AcDbEntity
  8
WAKUMOJI-01
100
AcDbText
 10
7751.347597486038
 20
797.2136285022457
 30
0.0
 40
90.0
  1
名　称
  7
WAKUMOJI
100
AcDbText
  0
TEXT
  5
2B945
330
2BF35
100
AcDbEntity
  8
WAKUMOJI-01
100
AcDbText
 10
7746.18955690947
 20
494.673365617433
 30
0.0
 40
90.0
  1
機種名
  7
WAKUMOJI
100
AcDbText
  0
LINE
  5
2B946
330
2BF35
100
AcDbEntity
  8
WAKUSEN-01
100
AcDbLine
 10
7710.0
 20
310.499999999999
 30
0.0
 11
7710.0
 21
931.4999999999999
 31
0.0
  0
LINE
  5
2B947
330
2BF35
100
AcDbEntity
  8
WAKUSEN-02
100
AcDbLine
 10
10075.49999999999
 20
310.4999999999973
 30
0.0
 11
10075.49999999999
 21
931.4999999999999
 31
0.0
  0
LINE
  5
2B948
330
2BF35
100
AcDbEntity
  8
YODOROGO
100
AcDbLine
 10
11241.60162798446
 20
748.4060611609828
 30
0.0
 11
11186.10162798447
 21
748.4060611609828
 31
0.0
1001
AUTOCAD_POSTSCRIPT_FIGURE
1002
{
1000
PSFILL
1000
Grayscale
1000
Grayscale
1070
    25
1002
}
  0
LINE
  5
2B949
330
2BF35
100
AcDbEntity
  8
YODOROGO
100
AcDbLine
 10
11186.10162798447
 20
730.406061160983
 30
0.0
 11
11241.60162798446
 21
730.406061160983
 31
0.0
1001
AUTOCAD_POSTSCRIPT_FIGURE
1002
{
1000
PSFILL
1000
Grayscale
1000
Grayscale
1070
    25
1002
}
  0
LINE
  5
2B94A
330
2BF35
100
AcDbEntity
  8
YODOROGO
100
AcDbLine
 10
11241.60162798446
 20
715.4060611609828
 30
0.0
 11
11186.10162798447
 21
715.4060611609828
 31
0.0
1001
AUTOCAD_POSTSCRIPT_FIGURE
1002
{
1000
PSFILL
1000
Grayscale
1000
Grayscale
1070
    25
1002
}
  0
LINE
  5
2B94B
330
2BF35
100
AcDbEntity
  8
YODOROGO
100
AcDbLine
 10
11186.10162798447
 20
697.406061160983
 30
0.0
 11
11241.60162798446
 21
697.406061160983
 31
0.0
1001
AUTOCAD_POSTSCRIPT_FIGURE
1002
{
1000
PSFILL
1000
Grayscale
1000
Grayscale
1070
    25
1002
}
  0
LINE
  5
2B94C
330
2BF35
100
AcDbEntity
  8
YODOROGO
100
AcDbLine
 10
11241.60162798446
 20
682.4060611609829
 30
0.0
 11
11186.10162798447
 21
682.4060611609829
 31
0.0
1001
AUTOCAD_POSTSCRIPT_FIGURE
1002
{
1000
PSFILL
1000
Grayscale
1000
Grayscale
1070
    25
1002
}
  0
LINE
  5
2B94D
330
2BF35
100
AcDbEntity
  8
YODOROGO
100
AcDbLine
 10
11220.60162798447
 20
640.4060611609828
 30
0.0
 11
11241.60162798446
 21
640.4060611609828
 31
0.0
1001
AUTOCAD_POSTSCRIPT_FIGURE
1002
{
1000
PSFILL
1000
Grayscale
1000
Grayscale
1070
    25
1002
}
  0
LINE
  5
2B94E
330
2BF35
100
AcDbEntity
  8
YODOROGO
100
AcDbLine
 10
11151.60162798447
 20
535.4060611609829
 30
0.0
 11
11226.60162798446
 21
555.5022505933164
 31
0.0
  0
LINE
  5
2B94F
330
2BF35
100
AcDbEntity
  8
YODOROGO
100
AcDbLine
 10
11231.10162798446
 20
640.4060611609828
 30
0.0
 11
11207.10162798447
 21
640.4060611609828
 31
0.0
  0
ARC
  5
2B950
330
2BF35
100
AcDbEntity
  8
YODOROGO
100
AcDbCircle
 10
11345.38040618545
 20
677.9492284624735
 30
0.0
 40
143.2075740771177
100
AcDbArc
 50
213.9611167766784
 51
264.4787207431779
  0
ARC
  5
2B951
330
2BF35
100
AcDbEntity
  8
YODOROGO
100
AcDbCircle
 10
11345.38040618547
 20
677.9492284624882
 30
0.0
 40
143.2075740771305
100
AcDbArc
 50
208.141144204866
 51
212.9210361185995
  0
LINE
  5
2B952
330
2BF35
100
AcDbEntity
  8
YODOROGO
100
AcDbLine
 10
11164.27870236949
 20
583.8028730048376
 30
0.0
 11
11225.1690496907
 21
600.1183923964076
 31
0.0
  0
LINE
  5
2B953
330
2BF35
100
AcDbEntity
  8
YODOROGO
100
AcDbLine
 10
11151.60162798447
 20
535.4060611609829
 30
0.0
 11
11226.60162798446
 21
555.5022505933164
 31
0.0
  0
LINE
  5
2B954
330
2BF35
100
AcDbEntity
  8
YODOROGO
100
AcDbLine
 10
11231.10162798446
 20
640.4060611609828
 30
0.0
 11
11207.10162798447
 21
640.4060611609828
 31
0.0
  0
ARC
  5
2B955
330
2BF35
100
AcDbEntity
  8
YODOROGO
100
AcDbCircle
 10
11345.38040618545
 20
677.9492284624735
 30
0.0
 40
143.2075740771177
100
AcDbArc
 50
213.9611167766784
 51
264.4787207431779
  0
LINE
  5
2B956
330
2BF35
100
AcDbEntity
  8
YODOROGO
100
AcDbLine
 10
10797.60162798445
 20
682.4060611609829
 30
0.0
 11
10662.60162798446
 21
682.4060611609829
 31
0.0
  0
LINE
  5
2B957
330
2BF35
100
AcDbEntity
  8
YODOROGO
100
AcDbLine
 10
10692.60162798445
 20
535.4060611609829
 30
0.0
 11
10797.60162798445
 21
535.4060611609829
 31
0.0
  0
LINE
  5
2B958
330
2BF35
100
AcDbEntity
  8
YODOROGO
100
AcDbLine
 10
10773.60162798447
 20
721.4060611609826
 30
0.0
 11
10686.60162798446
 21
721.4060611609826
 31
0.0
  0
LINE
  5
2B959
330
2BF35
100
AcDbEntity
  8
YODOROGO
100
AcDbLine
 10
10719.60162798446
 20
760.4060611609829
 30
0.0
 11
10746.60162798447
 21
760.4060611609829
 31
0.0
  0
LINE
  5
2B95A
330
2BF35
100
AcDbEntity
  8
YODOROGO
100
AcDbLine
 10
10662.60162798446
 20
640.4060611609828
 30
0.0
 11
10662.60162798446
 21
565.4060611609828
 31
0.0
  0
LINE
  5
2B95B
330
2BF35
100
AcDbEntity
  8
YODOROGO
100
AcDbLine
 10
10686.60162798446
 20
586.4060611609826
 30
0.0
 11
10686.60162798446
 21
640.4060611609828
 31
0.0
  0
LINE
  5
2B95C
330
2BF35
100
AcDbEntity
  8
YODOROGO
100
AcDbLine
 10
10719.60162798446
 20
655.4060611609838
 30
0.0
 11
10719.60162798446
 21
580.406061160983
 31
0.0
  0
LINE
  5
2B95D
330
2BF35
100
AcDbEntity
  8
YODOROGO
100
AcDbLine
 10
10446.60162798447
 20
631.4060611609833
 30
0.0
 11
10416.60162798446
 21
607.4896552667143
 31
0.0
  0
LINE
  5
2B95E
330
2BF35
100
AcDbEntity
  8
YODOROGO
100
AcDbLine
 10
10476.60162798446
 20
607.4896552667143
 30
0.0
 11
10446.60162798447
 21
631.4060611609833
 31
0.0
  0
LINE
  5
2B95F
330
2BF35
100
AcDbEntity
  8
YODOROGO
100
AcDbLine
 10
10446.60162798447
 20
640.4060611609828
 30
0.0
 11
10476.60162798446
 21
616.4896552667137
 31
0.0
  0
LINE
  5
2B960
330
2BF35
100
AcDbEntity
  8
YODOROGO
100
AcDbLine
 10
10416.60162798446
 20
616.4896552667137
 30
0.0
 11
10446.60162798447
 21
640.4060611609828
 31
0.0
  0
LINE
  5
2B961
330
2BF35
100
AcDbEntity
  8
YODOROGO
100
AcDbLine
 10
10515.34245150633
 20
622.406061160983
 30
0.0
 11
10515.34245150633
 21
631.4060611609826
 31
0.0
  0
LINE
  5
2B962
330
2BF35
100
AcDbEntity
  8
YODOROGO
100
AcDbLine
 10
10491.60162798447
 20
631.4060611609826
 30
0.0
 11
10491.60162798447
 21
625.4060611609819
 31
0.0
  0
LINE
  5
2B963
330
2BF35
100
AcDbEntity
  8
YODOROGO
100
AcDbLine
 10
10536.8008200866
 20
640.4060611609828
 30
0.0
 11
10536.8008200866
 21
620.813863977996
 31
0.0
1001
AUTOCAD_POSTSCRIPT_FIGURE
1002
{
1000
PSFILL
1000
Grayscale
1000
Grayscale
1070
   100
1002
}
  0
LINE
  5
2B964
330
2BF35
100
AcDbEntity
  8
YODOROGO
100
AcDbLine
 10
10530.80082008658
 20
620.813863977996
 30
0.0
 11
10530.80082008658
 21
640.4060611609828
 31
0.0
1001
AUTOCAD_POSTSCRIPT_FIGURE
1002
{
1000
PSFILL
1000
Grayscale
1000
Grayscale
1070
   100
1002
}
  0
LINE
  5
2B965
330
2BF35
100
AcDbEntity
  8
YODOROGO
100
AcDbLine
 10
10428.60162798447
 20
603.2894640162218
 30
0.0
 11
10428.60162798447
 21
612.2894640162222
 31
0.0
  0
LINE
  5
2B966
330
2BF35
100
AcDbEntity
  8
YODOROGO
100
AcDbLine
 10
10464.60162798447
 20
603.2894640162218
 30
0.0
 11
10428.60162798447
 21
603.2894640162218
 31
0.0
  0
LINE
  5
2B967
330
2BF35
100
AcDbEntity
  8
YODOROGO
100
AcDbLine
 10
10464.60162798447
 20
612.2894640162222
 30
0.0
 11
10464.60162798447
 21
603.2894640162218
 31
0.0
  0
LINE
  5
2B968
330
2BF35
100
AcDbEntity
  8
YODOROGO
100
AcDbLine
 10
10428.60162798447
 20
612.2894640162222
 30
0.0
 11
10464.60162798447
 21
612.2894640162222
 31
0.0
  0
LINE
  5
2B969
330
2BF35
100
AcDbEntity
  8
YODOROGO
100
AcDbLine
 10
10434.1910958434
 20
588.1885715139279
 30
0.0
 11
10419.60162798446
 21
553.4060611609826
 31
0.0
1001
AUTOCAD_POSTSCRIPT_FIGURE
1002
{
1000
PSFILL
1000
Grayscale
1000
Grayscale
1070
   100
1002
}
  0
LINE
  5
2B96A
330
2BF35
100
AcDbEntity
  8
YODOROGO
100
AcDbLine
 10
10416.60162798446
 20
588.1885715139279
 30
0.0
 11
10434.1910958434
 21
588.1885715139279
 31
0.0
1001
AUTOCAD_POSTSCRIPT_FIGURE
1002
{
1000
PSFILL
1000
Grayscale
1000
Grayscale
1070
   100
1002
}
  0
LINE
  5
2B96B
330
2BF35
100
AcDbEntity
  8
YODOROGO
100
AcDbLine
 10
10416.60162798446
 20
595.688571513928
 30
0.0
 11
10416.60162798446
 21
588.1885715139279
 31
0.0
1001
AUTOCAD_POSTSCRIPT_FIGURE
1002
{
1000
PSFILL
1000
Grayscale
1000
Grayscale
1070
   100
1002
}
  0
LINE
  5
2B96C
330
2BF35
100
AcDbEntity
  8
YODOROGO
100
AcDbLine
 10
10476.60162798446
 20
595.688571513928
 30
0.0
 11
10416.60162798446
 21
595.688571513928
 31
0.0
1001
AUTOCAD_POSTSCRIPT_FIGURE
1002
{
1000
PSFILL
1000
Grayscale
1000
Grayscale
1070
   100
1002
}
  0
LINE
  5
2B96D
330
2BF35
100
AcDbEntity
  8
YODOROGO
100
AcDbLine
 10
10476.60162798446
 20
588.1885715139279
 30
0.0
 11
10476.60162798446
 21
595.688571513928
 31
0.0
1001
AUTOCAD_POSTSCRIPT_FIGURE
1002
{
1000
PSFILL
1000
Grayscale
1000
Grayscale
1070
   100
1002
}
  0
LINE
  5
2B96E
330
2BF35
100
AcDbEntity
  8
YODOROGO
100
AcDbLine
 10
10441.69109584339
 20
588.1885715139279
 30
0.0
 11
10476.60162798446
 21
588.1885715139279
 31
0.0
1001
AUTOCAD_POSTSCRIPT_FIGURE
1002
{
1000
PSFILL
1000
Grayscale
1000
Grayscale
1070
   100
1002
}
  0
LINE
  5
2B96F
330
2BF35
100
AcDbEntity
  8
YODOROGO
100
AcDbLine
 10
10430.83001935679
 20
560.9060611609826
 30
0.0
 11
10441.69109584339
 21
588.1885715139279
 31
0.0
1001
AUTOCAD_POSTSCRIPT_FIGURE
1002
{
1000
PSFILL
1000
Grayscale
1000
Grayscale
1070
   100
1002
}
  0
LINE
  5
2B970
330
2BF35
100
AcDbEntity
  8
YODOROGO
100
AcDbLine
 10
10463.27054655324
 20
560.9060611609826
 30
0.0
 11
10430.83001935679
 21
560.9060611609826
 31
0.0
1001
AUTOCAD_POSTSCRIPT_FIGURE
1002
{
1000
PSFILL
1000
Grayscale
1000
Grayscale
1070
   100
1002
}
  0
LINE
  5
2B971
330
2BF35
100
AcDbEntity
  8
YODOROGO
100
AcDbLine
 10
10456.8993767966
 20
576.0876790116348
 30
0.0
 11
10463.27054655324
 21
560.9060611609826
 31
0.0
1001
AUTOCAD_POSTSCRIPT_FIGURE
1002
{
1000
PSFILL
1000
Grayscale
1000
Grayscale
1070
   100
1002
}
  0
LINE
  5
2B972
330
2BF35
100
AcDbEntity
  8
YODOROGO
100
AcDbLine
 10
10462.89937679661
 20
576.0876790116348
 30
0.0
 11
10456.8993767966
 21
576.0876790116348
 31
0.0
1001
AUTOCAD_POSTSCRIPT_FIGURE
1002
{
1000
PSFILL
1000
Grayscale
1000
Grayscale
1070
   100
1002
}
  0
LINE
  5
2B973
330
2BF35
100
AcDbEntity
  8
YODOROGO
100
AcDbLine
 10
10473.60162798447
 20
553.4060611609826
 30
0.0
 11
10462.89937679661
 21
576.0876790116348
 31
0.0
1001
AUTOCAD_POSTSCRIPT_FIGURE
1002
{
1000
PSFILL
1000
Grayscale
1000
Grayscale
1070
   100
1002
}
  0
LINE
  5
2B974
330
2BF35
100
AcDbEntity
  8
YODOROGO
100
AcDbLine
 10
10419.60162798446
 20
553.4060611609826
 30
0.0
 11
10473.60162798447
 21
553.4060611609826
 31
0.0
1001
AUTOCAD_POSTSCRIPT_FIGURE
1002
{
1000
PSFILL
1000
Grayscale
1000
Grayscale
1070
   100
1002
}
  0
LINE
  5
2B975
330
2BF35
100
AcDbEntity
  8
YODOROGO
100
AcDbLine
 10
10416.60162798446
 20
607.4896552667143
 30
0.0
 11
10416.60162798446
 21
616.4896552667137
 31
0.0
  0
LINE
  5
2B976
330
2BF35
100
AcDbEntity
  8
YODOROGO
100
AcDbLine
 10
10476.60162798446
 20
616.4896552667137
 30
0.0
 11
10476.60162798446
 21
607.4896552667143
 31
0.0
  0
ARC
  5
2B977
330
2BF35
100
AcDbEntity
  8
YODOROGO
100
AcDbCircle
 10
10584.72766580511
 20
600.3291619969972
 30
0.0
 40
65.99999999999997
100
AcDbArc
 50
280.3644312771313
 51
3.541483659218056
  0
ARC
  5
2B978
330
2BF35
100
AcDbEntity
  8
YODOROGO
100
AcDbCircle
 10
10588.40851153474
 20
612.5991776107142
 30
0.0
 40
41.99999999999936
100
AcDbArc
 50
281.2490582504155
 51
348.7509417495832
  0
LINE
  5
2B979
330
2BF35
100
AcDbEntity
  8
YODOROGO
100
AcDbLine
 10
10596.60162798446
 20
571.4060611609826
 30
0.0
 11
10596.60162798446
 21
535.4060611609829
 31
0.0
  0
LINE
  5
2B97A
330
2BF35
100
AcDbEntity
  8
YODOROGO
100
AcDbLine
 10
10507.53333890132
 20
603.9939618982182
 30
0.0
 11
10515.34245150633
 21
622.406061160983
 31
0.0
  0
LINE
  5
2B97B
330
2BF35
100
AcDbEntity
  8
YODOROGO
100
AcDbLine
 10
10515.60162798445
 20
593.6701837306506
 30
0.0
 11
10507.53333890132
 21
603.9939618982182
 31
0.0
  0
LINE
  5
2B97C
330
2BF35
100
AcDbEntity
  8
YODOROGO
100
AcDbLine
 10
10515.60162798445
 20
586.1701837306497
 30
0.0
 11
10515.60162798445
 21
593.6701837306506
 31
0.0
  0
LINE
  5
2B97D
330
2BF35
100
AcDbEntity
  8
YODOROGO
100
AcDbLine
 10
10506.60162798447
 20
594.4638989060739
 30
0.0
 11
10515.60162798445
 21
586.1701837306497
 31
0.0
  0
LINE
  5
2B97E
330
2BF35
100
AcDbEntity
  8
YODOROGO
100
AcDbLine
 10
10506.60162798447
 20
553.4060611609826
 30
0.0
 11
10506.60162798447
 21
594.4638989060739
 31
0.0
  0
LINE
  5
2B97F
330
2BF35
100
AcDbEntity
  8
YODOROGO
100
AcDbLine
 10
10500.60162798446
 20
553.4060611609826
 30
0.0
 11
10506.60162798447
 21
553.4060611609826
 31
0.0
  0
LINE
  5
2B980
330
2BF35
100
AcDbEntity
  8
YODOROGO
100
AcDbLine
 10
10500.60162798446
 20
592.5020061336555
 30
0.0
 11
10500.60162798446
 21
553.4060611609826
 31
0.0
  0
LINE
  5
2B981
330
2BF35
100
AcDbEntity
  8
YODOROGO
100
AcDbLine
 10
10491.60162798447
 20
574.7880296375358
 30
0.0
 11
10500.60162798446
 21
592.5020061336555
 31
0.0
  0
LINE
  5
2B982
330
2BF35
100
AcDbEntity
  8
YODOROGO
100
AcDbLine
 10
10491.60162798447
 20
583.788029637536
 30
0.0
 11
10491.60162798447
 21
574.7880296375358
 31
0.0
  0
LINE
  5
2B983
330
2BF35
100
AcDbEntity
  8
YODOROGO
100
AcDbLine
 10
10509.68579035925
 20
625.4060611609819
 30
0.0
 11
10491.60162798447
 21
583.788029637536
 31
0.0
  0
LINE
  5
2B984
330
2BF35
100
AcDbEntity
  8
YODOROGO
100
AcDbLine
 10
10491.60162798447
 20
625.4060611609819
 30
0.0
 11
10509.68579035925
 21
625.4060611609819
 31
0.0
  0
LINE
  5
2B985
330
2BF35
100
AcDbEntity
  8
YODOROGO
100
AcDbLine
 10
10518.80082008659
 20
620.813863977996
 30
0.0
 11
10530.80082008658
 21
620.813863977996
 31
0.0
1001
AUTOCAD_POSTSCRIPT_FIGURE
1002
{
1000
PSFILL
1000
Grayscale
1000
Grayscale
1070
   100
1002
}
  0
LINE
  5
2B986
330
2BF35
100
AcDbEntity
  8
YODOROGO
100
AcDbLine
 10
10518.80082008659
 20
611.8138639779963
 30
0.0
 11
10518.80082008659
 21
620.813863977996
 31
0.0
1001
AUTOCAD_POSTSCRIPT_FIGURE
1002
{
1000
PSFILL
1000
Grayscale
1000
Grayscale
1070
   100
1002
}
  0
LINE
  5
2B987
330
2BF35
100
AcDbEntity
  8
YODOROGO
100
AcDbLine
 10
10530.80082008658
 20
611.8138639779963
 30
0.0
 11
10518.80082008659
 21
611.8138639779963
 31
0.0
1001
AUTOCAD_POSTSCRIPT_FIGURE
1002
{
1000
PSFILL
1000
Grayscale
1000
Grayscale
1070
   100
1002
}
  0
LINE
  5
2B988
330
2BF35
100
AcDbEntity
  8
YODOROGO
100
AcDbLine
 10
10530.80082008658
 20
562.4060611609831
 30
0.0
 11
10530.80082008658
 21
611.8138639779963
 31
0.0
1001
AUTOCAD_POSTSCRIPT_FIGURE
1002
{
1000
PSFILL
1000
Grayscale
1000
Grayscale
1070
   100
1002
}
  0
LINE
  5
2B989
330
2BF35
100
AcDbEntity
  8
YODOROGO
100
AcDbLine
 10
10518.8008200866
 20
562.4060611609831
 30
0.0
 11
10530.80082008658
 21
562.4060611609831
 31
0.0
1001
AUTOCAD_POSTSCRIPT_FIGURE
1002
{
1000
PSFILL
1000
Grayscale
1000
Grayscale
1070
   100
1002
}
  0
LINE
  5
2B98A
330
2BF35
100
AcDbEntity
  8
YODOROGO
100
AcDbLine
 10
10518.8008200866
 20
553.4060611609826
 30
0.0
 11
10518.8008200866
 21
562.4060611609831
 31
0.0
1001
AUTOCAD_POSTSCRIPT_FIGURE
1002
{
1000
PSFILL
1000
Grayscale
1000
Grayscale
1070
   100
1002
}
  0
LINE
  5
2B98B
330
2BF35
100
AcDbEntity
  8
YODOROGO
100
AcDbLine
 10
10551.60162798447
 20
553.4060611609826
 30
0.0
 11
10518.8008200866
 21
553.4060611609826
 31
0.0
1001
AUTOCAD_POSTSCRIPT_FIGURE
1002
{
1000
PSFILL
1000
Grayscale
1000
Grayscale
1070
   100
1002
}
  0
LINE
  5
2B98C
330
2BF35
100
AcDbEntity
  8
YODOROGO
100
AcDbLine
 10
10551.60162798447
 20
562.4060611609831
 30
0.0
 11
10551.60162798447
 21
553.4060611609826
 31
0.0
1001
AUTOCAD_POSTSCRIPT_FIGURE
1002
{
1000
PSFILL
1000
Grayscale
1000
Grayscale
1070
   100
1002
}
  0
LINE
  5
2B98D
330
2BF35
100
AcDbEntity
  8
YODOROGO
100
AcDbLine
 10
10536.8008200866
 20
562.4060611609831
 30
0.0
 11
10551.60162798447
 21
562.4060611609831
 31
0.0
1001
AUTOCAD_POSTSCRIPT_FIGURE
1002
{
1000
PSFILL
1000
Grayscale
1000
Grayscale
1070
   100
1002
}
  0
LINE
  5
2B98E
330
2BF35
100
AcDbEntity
  8
YODOROGO
100
AcDbLine
 10
10536.8008200866
 20
611.8138639779963
 30
0.0
 11
10536.8008200866
 21
562.4060611609831
 31
0.0
1001
AUTOCAD_POSTSCRIPT_FIGURE
1002
{
1000
PSFILL
1000
Grayscale
1000
Grayscale
1070
   100
1002
}
  0
LINE
  5
2B98F
330
2BF35
100
AcDbEntity
  8
YODOROGO
100
AcDbLine
 10
10551.60162798447
 20
611.8138639779963
 30
0.0
 11
10536.8008200866
 21
611.8138639779963
 31
0.0
1001
AUTOCAD_POSTSCRIPT_FIGURE
1002
{
1000
PSFILL
1000
Grayscale
1000
Grayscale
1070
   100
1002
}
  0
LINE
  5
2B990
330
2BF35
100
AcDbEntity
  8
YODOROGO
100
AcDbLine
 10
10551.60162798447
 20
620.813863977996
 30
0.0
 11
10551.60162798447
 21
611.8138639779963
 31
0.0
1001
AUTOCAD_POSTSCRIPT_FIGURE
1002
{
1000
PSFILL
1000
Grayscale
1000
Grayscale
1070
   100
1002
}
  0
LINE
  5
2B991
330
2BF35
100
AcDbEntity
  8
YODOROGO
100
AcDbLine
 10
10536.8008200866
 20
620.813863977996
 30
0.0
 11
10551.60162798447
 21
620.813863977996
 31
0.0
1001
AUTOCAD_POSTSCRIPT_FIGURE
1002
{
1000
PSFILL
1000
Grayscale
1000
Grayscale
1070
   100
1002
}
  0
LINE
  5
2B992
330
2BF35
100
AcDbEntity
  8
YODOROGO
100
AcDbLine
 10
10650.60162798447
 20
625.406061160983
 30
0.0
 11
10629.60162798447
 21
625.406061160983
 31
0.0
  0
LINE
  5
2B993
330
2BF35
100
AcDbEntity
  8
YODOROGO
100
AcDbLine
 10
10650.60162798447
 20
604.4060611609832
 30
0.0
 11
10650.60162798447
 21
625.406061160983
 31
0.0
  0
LINE
  5
2B994
330
2BF35
100
AcDbEntity
  8
YODOROGO
100
AcDbLine
 10
10629.60162798447
 20
625.406061160983
 30
0.0
 11
10629.60162798447
 21
604.4060611609832
 31
0.0
  0
ARC
  5
2B995
330
2BF35
100
AcDbEntity
  8
YODOROGO
100
AcDbCircle
 10
10692.60162798445
 20
565.4060611609828
 30
0.0
 40
30.0
100
AcDbArc
 50
180.0
 51
270.0
  0
ARC
  5
2B996
330
2BF35
100
AcDbEntity
  8
YODOROGO
100
AcDbCircle
 10
10701.60162798445
 20
586.4060611609826
 30
0.0
 40
15.0
100
AcDbArc
 50
180.0
 51
270.0
  0
LINE
  5
2B997
330
2BF35
100
AcDbEntity
  8
YODOROGO
100
AcDbLine
 10
10710.60162798447
 20
571.4060611609826
 30
0.0
 11
10701.60162798445
 21
571.4060611609826
 31
0.0
  0
ARC
  5
2B998
330
2BF35
100
AcDbEntity
  8
YODOROGO
100
AcDbCircle
 10
10710.60162798447
 20
580.4060611609819
 30
0.0
 40
8.999999999998635
100
AcDbArc
 50
270.0
 51
0.0000000000054281
  0
LINE
  5
2B999
330
2BF35
100
AcDbEntity
  8
YODOROGO
100
AcDbLine
 10
10425.60162798447
 20
709.0449677976399
 30
0.0
 11
10416.60162798446
 21
691.4162804818772
 31
0.0
1001
AUTOCAD_POSTSCRIPT_FIGURE
1002
{
1000
PSFILL
1000
Grayscale
1000
Grayscale
1070
   100
1002
}
  0
LINE
  5
2B99A
330
2BF35
100
AcDbEntity
  8
YODOROGO
100
AcDbLine
 10
10425.60162798447
 20
655.406061160983
 30
0.0
 11
10425.60162798447
 21
709.0449677976399
 31
0.0
1001
AUTOCAD_POSTSCRIPT_FIGURE
1002
{
1000
PSFILL
1000
Grayscale
1000
Grayscale
1070
   100
1002
}
  0
LINE
  5
2B99B
330
2BF35
100
AcDbEntity
  8
YODOROGO
100
AcDbLine
 10
10431.60162798447
 20
655.406061160983
 30
0.0
 11
10425.60162798447
 21
655.406061160983
 31
0.0
1001
AUTOCAD_POSTSCRIPT_FIGURE
1002
{
1000
PSFILL
1000
Grayscale
1000
Grayscale
1070
   100
1002
}
  0
LINE
  5
2B99C
330
2BF35
100
AcDbEntity
  8
YODOROGO
100
AcDbLine
 10
10431.60162798447
 20
710.1642495319751
 30
0.0
 11
10431.60162798447
 21
655.406061160983
 31
0.0
1001
AUTOCAD_POSTSCRIPT_FIGURE
1002
{
1000
PSFILL
1000
Grayscale
1000
Grayscale
1070
   100
1002
}
  0
LINE
  5
2B99D
330
2BF35
100
AcDbEntity
  8
YODOROGO
100
AcDbLine
 10
10440.60162798446
 20
700.3705343565512
 30
0.0
 11
10431.60162798447
 21
710.1642495319751
 31
0.0
1001
AUTOCAD_POSTSCRIPT_FIGURE
1002
{
1000
PSFILL
1000
Grayscale
1000
Grayscale
1070
   100
1002
}
  0
LINE
  5
2B99E
330
2BF35
100
AcDbEntity
  8
YODOROGO
100
AcDbLine
 10
10440.60162798446
 20
706.3705343565509
 30
0.0
 11
10440.60162798446
 21
700.3705343565512
 31
0.0
1001
AUTOCAD_POSTSCRIPT_FIGURE
1002
{
1000
PSFILL
1000
Grayscale
1000
Grayscale
1070
   100
1002
}
  0
LINE
  5
2B99F
330
2BF35
100
AcDbEntity
  8
YODOROGO
100
AcDbLine
 10
10431.60162798447
 20
719.1642495319745
 30
0.0
 11
10440.60162798446
 21
706.3705343565509
 31
0.0
1001
AUTOCAD_POSTSCRIPT_FIGURE
1002
{
1000
PSFILL
1000
Grayscale
1000
Grayscale
1070
   100
1002
}
  0
LINE
  5
2B9A0
330
2BF35
100
AcDbEntity
  8
YODOROGO
100
AcDbLine
 10
10431.60162798447
 20
727.4060611609829
 30
0.0
 11
10431.60162798447
 21
719.1642495319745
 31
0.0
1001
AUTOCAD_POSTSCRIPT_FIGURE
1002
{
1000
PSFILL
1000
Grayscale
1000
Grayscale
1070
   100
1002
}
  0
LINE
  5
2B9A1
330
2BF35
100
AcDbEntity
  8
YODOROGO
100
AcDbLine
 10
10458.60162798446
 20
727.4060611609829
 30
0.0
 11
10431.60162798447
 21
727.4060611609829
 31
0.0
1001
AUTOCAD_POSTSCRIPT_FIGURE
1002
{
1000
PSFILL
1000
Grayscale
1000
Grayscale
1070
   100
1002
}
  0
LINE
  5
2B9A2
330
2BF35
100
AcDbEntity
  8
YODOROGO
100
AcDbLine
 10
10458.60162798446
 20
712.7131308511124
 30
0.0
 11
10458.60162798446
 21
727.4060611609829
 31
0.0
1001
AUTOCAD_POSTSCRIPT_FIGURE
1002
{
1000
PSFILL
1000
Grayscale
1000
Grayscale
1070
   100
1002
}
  0
LINE
  5
2B9A3
330
2BF35
100
AcDbEntity
  8
YODOROGO
100
AcDbLine
 10
10446.60162798447
 20
712.7131308511124
 30
0.0
 11
10458.60162798446
 21
712.7131308511124
 31
0.0
1001
AUTOCAD_POSTSCRIPT_FIGURE
1002
{
1000
PSFILL
1000
Grayscale
1000
Grayscale
1070
   100
1002
}
  0
LINE
  5
2B9A4
330
2BF35
100
AcDbEntity
  8
YODOROGO
100
AcDbLine
 10
10446.60162798447
 20
706.7131308511116
 30
0.0
 11
10446.60162798447
 21
712.7131308511124
 31
0.0
1001
AUTOCAD_POSTSCRIPT_FIGURE
1002
{
1000
PSFILL
1000
Grayscale
1000
Grayscale
1070
   100
1002
}
  0
LINE
  5
2B9A5
330
2BF35
100
AcDbEntity
  8
YODOROGO
100
AcDbLine
 10
10458.60162798446
 20
706.7131308511116
 30
0.0
 11
10446.60162798447
 21
706.7131308511116
 31
0.0
1001
AUTOCAD_POSTSCRIPT_FIGURE
1002
{
1000
PSFILL
1000
Grayscale
1000
Grayscale
1070
   100
1002
}
  0
LINE
  5
2B9A6
330
2BF35
100
AcDbEntity
  8
YODOROGO
100
AcDbLine
 10
10458.60162798446
 20
704.8571917366647
 30
0.0
 11
10458.60162798446
 21
706.7131308511116
 31
0.0
1001
AUTOCAD_POSTSCRIPT_FIGURE
1002
{
1000
PSFILL
1000
Grayscale
1000
Grayscale
1070
   100
1002
}
  0
LINE
  5
2B9A7
330
2BF35
100
AcDbEntity
  8
YODOROGO
100
AcDbLine
 10
10443.60162798447
 20
679.8656179355313
 30
0.0
 11
10458.60162798446
 21
704.8571917366647
 31
0.0
1001
AUTOCAD_POSTSCRIPT_FIGURE
1002
{
1000
PSFILL
1000
Grayscale
1000
Grayscale
1070
   100
1002
}
  0
LINE
  5
2B9A8
330
2BF35
100
AcDbEntity
  8
YODOROGO
100
AcDbLine
 10
10443.60162798447
 20
673.8656179355309
 30
0.0
 11
10443.60162798447
 21
679.8656179355313
 31
0.0
1001
AUTOCAD_POSTSCRIPT_FIGURE
1002
{
1000
PSFILL
1000
Grayscale
1000
Grayscale
1070
   100
1002
}
  0
LINE
  5
2B9A9
330
2BF35
100
AcDbEntity
  8
YODOROGO
100
AcDbLine
 10
10458.60162798446
 20
692.8571917366638
 30
0.0
 11
10443.60162798447
 21
673.8656179355309
 31
0.0
1001
AUTOCAD_POSTSCRIPT_FIGURE
1002
{
1000
PSFILL
1000
Grayscale
1000
Grayscale
1070
   100
1002
}
  0
LINE
  5
2B9AA
330
2BF35
100
AcDbEntity
  8
YODOROGO
100
AcDbLine
 10
10458.60162798446
 20
655.406061160983
 30
0.0
 11
10458.60162798446
 21
692.8571917366638
 31
0.0
1001
AUTOCAD_POSTSCRIPT_FIGURE
1002
{
1000
PSFILL
1000
Grayscale
1000
Grayscale
1070
   100
1002
}
  0
LINE
  5
2B9AB
330
2BF35
100
AcDbEntity
  8
YODOROGO
100
AcDbLine
 10
10464.60162798447
 20
655.406061160983
 30
0.0
 11
10458.60162798446
 21
655.406061160983
 31
0.0
1001
AUTOCAD_POSTSCRIPT_FIGURE
1002
{
1000
PSFILL
1000
Grayscale
1000
Grayscale
1070
   100
1002
}
  0
LINE
  5
2B9AC
330
2BF35
100
AcDbEntity
  8
YODOROGO
100
AcDbLine
 10
10464.60162798447
 20
693.5283795595521
 30
0.0
 11
10464.60162798447
 21
655.406061160983
 31
0.0
1001
AUTOCAD_POSTSCRIPT_FIGURE
1002
{
1000
PSFILL
1000
Grayscale
1000
Grayscale
1070
   100
1002
}
  0
LINE
  5
2B9AD
330
2BF35
100
AcDbEntity
  8
YODOROGO
100
AcDbLine
 10
10476.60162798446
 20
673.8656179355309
 30
0.0
 11
10464.60162798447
 21
693.5283795595521
 31
0.0
1001
AUTOCAD_POSTSCRIPT_FIGURE
1002
{
1000
PSFILL
1000
Grayscale
1000
Grayscale
1070
   100
1002
}
  0
LINE
  5
2B9AE
330
2BF35
100
AcDbEntity
  8
YODOROGO
100
AcDbLine
 10
10476.60162798446
 20
679.8656179355313
 30
0.0
 11
10476.60162798446
 21
673.8656179355309
 31
0.0
1001
AUTOCAD_POSTSCRIPT_FIGURE
1002
{
1000
PSFILL
1000
Grayscale
1000
Grayscale
1070
   100
1002
}
  0
LINE
  5
2B9AF
330
2BF35
100
AcDbEntity
  8
YODOROGO
100
AcDbLine
 10
10464.60162798447
 20
705.5283795595531
 30
0.0
 11
10476.60162798446
 21
679.8656179355313
 31
0.0
1001
AUTOCAD_POSTSCRIPT_FIGURE
1002
{
1000
PSFILL
1000
Grayscale
1000
Grayscale
1070
   100
1002
}
  0
LINE
  5
2B9B0
330
2BF35
100
AcDbEntity
  8
YODOROGO
100
AcDbLine
 10
10464.60162798447
 20
706.7131308511128
 30
0.0
 11
10464.60162798447
 21
705.5283795595531
 31
0.0
1001
AUTOCAD_POSTSCRIPT_FIGURE
1002
{
1000
PSFILL
1000
Grayscale
1000
Grayscale
1070
   100
1002
}
  0
LINE
  5
2B9B1
330
2BF35
100
AcDbEntity
  8
YODOROGO
100
AcDbLine
 10
10476.60162798446
 20
706.7131308511116
 30
0.0
 11
10464.60162798447
 21
706.7131308511128
 31
0.0
1001
AUTOCAD_POSTSCRIPT_FIGURE
1002
{
1000
PSFILL
1000
Grayscale
1000
Grayscale
1070
   100
1002
}
  0
LINE
  5
2B9B2
330
2BF35
100
AcDbEntity
  8
YODOROGO
100
AcDbLine
 10
10476.60162798446
 20
712.7131308511124
 30
0.0
 11
10476.60162798446
 21
706.7131308511116
 31
0.0
1001
AUTOCAD_POSTSCRIPT_FIGURE
1002
{
1000
PSFILL
1000
Grayscale
1000
Grayscale
1070
   100
1002
}
  0
LINE
  5
2B9B3
330
2BF35
100
AcDbEntity
  8
YODOROGO
100
AcDbLine
 10
10464.60162798447
 20
712.7131308511124
 30
0.0
 11
10476.60162798446
 21
712.7131308511124
 31
0.0
1001
AUTOCAD_POSTSCRIPT_FIGURE
1002
{
1000
PSFILL
1000
Grayscale
1000
Grayscale
1070
   100
1002
}
  0
LINE
  5
2B9B4
330
2BF35
100
AcDbEntity
  8
YODOROGO
100
AcDbLine
 10
10464.60162798447
 20
727.4060611609829
 30
0.0
 11
10464.60162798447
 21
712.7131308511124
 31
0.0
1001
AUTOCAD_POSTSCRIPT_FIGURE
1002
{
1000
PSFILL
1000
Grayscale
1000
Grayscale
1070
   100
1002
}
  0
LINE
  5
2B9B5
330
2BF35
100
AcDbEntity
  8
YODOROGO
100
AcDbLine
 10
10476.60162798446
 20
727.4060611609829
 30
0.0
 11
10464.60162798447
 21
727.4060611609829
 31
0.0
1001
AUTOCAD_POSTSCRIPT_FIGURE
1002
{
1000
PSFILL
1000
Grayscale
1000
Grayscale
1070
   100
1002
}
  0
LINE
  5
2B9B6
330
2BF35
100
AcDbEntity
  8
YODOROGO
100
AcDbLine
 10
10476.60162798446
 20
733.4060611609828
 30
0.0
 11
10476.60162798446
 21
727.4060611609829
 31
0.0
1001
AUTOCAD_POSTSCRIPT_FIGURE
1002
{
1000
PSFILL
1000
Grayscale
1000
Grayscale
1070
   100
1002
}
  0
LINE
  5
2B9B7
330
2BF35
100
AcDbEntity
  8
YODOROGO
100
AcDbLine
 10
10464.60162798447
 20
733.4060611609828
 30
0.0
 11
10476.60162798446
 21
733.4060611609828
 31
0.0
1001
AUTOCAD_POSTSCRIPT_FIGURE
1002
{
1000
PSFILL
1000
Grayscale
1000
Grayscale
1070
   100
1002
}
  0
LINE
  5
2B9B8
330
2BF35
100
AcDbEntity
  8
YODOROGO
100
AcDbLine
 10
10464.60162798447
 20
742.4060611609831
 30
0.0
 11
10464.60162798447
 21
733.4060611609828
 31
0.0
1001
AUTOCAD_POSTSCRIPT_FIGURE
1002
{
1000
PSFILL
1000
Grayscale
1000
Grayscale
1070
   100
1002
}
  0
LINE
  5
2B9B9
330
2BF35
100
AcDbEntity
  8
YODOROGO
100
AcDbLine
 10
10458.60162798446
 20
742.4060611609831
 30
0.0
 11
10464.60162798447
 21
742.4060611609831
 31
0.0
1001
AUTOCAD_POSTSCRIPT_FIGURE
1002
{
1000
PSFILL
1000
Grayscale
1000
Grayscale
1070
   100
1002
}
  0
LINE
  5
2B9BA
330
2BF35
100
AcDbEntity
  8
YODOROGO
100
AcDbLine
 10
10458.60162798446
 20
733.4060611609828
 30
0.0
 11
10458.60162798446
 21
742.4060611609831
 31
0.0
1001
AUTOCAD_POSTSCRIPT_FIGURE
1002
{
1000
PSFILL
1000
Grayscale
1000
Grayscale
1070
   100
1002
}
  0
LINE
  5
2B9BB
330
2BF35
100
AcDbEntity
  8
YODOROGO
100
AcDbLine
 10
10449.60162798447
 20
733.4060611609828
 30
0.0
 11
10458.60162798446
 21
733.4060611609828
 31
0.0
1001
AUTOCAD_POSTSCRIPT_FIGURE
1002
{
1000
PSFILL
1000
Grayscale
1000
Grayscale
1070
   100
1002
}
  0
LINE
  5
2B9BC
330
2BF35
100
AcDbEntity
  8
YODOROGO
100
AcDbLine
 10
10449.60162798447
 20
742.4060611609831
 30
0.0
 11
10449.60162798447
 21
733.4060611609828
 31
0.0
1001
AUTOCAD_POSTSCRIPT_FIGURE
1002
{
1000
PSFILL
1000
Grayscale
1000
Grayscale
1070
   100
1002
}
  0
LINE
  5
2B9BD
330
2BF35
100
AcDbEntity
  8
YODOROGO
100
AcDbLine
 10
10443.60162798447
 20
742.4060611609831
 30
0.0
 11
10449.60162798447
 21
742.4060611609831
 31
0.0
1001
AUTOCAD_POSTSCRIPT_FIGURE
1002
{
1000
PSFILL
1000
Grayscale
1000
Grayscale
1070
   100
1002
}
  0
LINE
  5
2B9BE
330
2BF35
100
AcDbEntity
  8
YODOROGO
100
AcDbLine
 10
10443.60162798447
 20
733.4060611609828
 30
0.0
 11
10443.60162798447
 21
742.4060611609831
 31
0.0
1001
AUTOCAD_POSTSCRIPT_FIGURE
1002
{
1000
PSFILL
1000
Grayscale
1000
Grayscale
1070
   100
1002
}
  0
LINE
  5
2B9BF
330
2BF35
100
AcDbEntity
  8
YODOROGO
100
AcDbLine
 10
10431.60162798447
 20
733.4060611609828
 30
0.0
 11
10443.60162798447
 21
733.4060611609828
 31
0.0
1001
AUTOCAD_POSTSCRIPT_FIGURE
1002
{
1000
PSFILL
1000
Grayscale
1000
Grayscale
1070
   100
1002
}
  0
LINE
  5
2B9C0
330
2BF35
100
AcDbEntity
  8
YODOROGO
100
AcDbLine
 10
10431.60162798447
 20
742.4060611609831
 30
0.0
 11
10431.60162798447
 21
733.4060611609828
 31
0.0
1001
AUTOCAD_POSTSCRIPT_FIGURE
1002
{
1000
PSFILL
1000
Grayscale
1000
Grayscale
1070
   100
1002
}
  0
LINE
  5
2B9C1
330
2BF35
100
AcDbEntity
  8
YODOROGO
100
AcDbLine
 10
10425.60162798447
 20
742.4060611609831
 30
0.0
 11
10431.60162798447
 21
742.4060611609831
 31
0.0
1001
AUTOCAD_POSTSCRIPT_FIGURE
1002
{
1000
PSFILL
1000
Grayscale
1000
Grayscale
1070
   100
1002
}
  0
LINE
  5
2B9C2
330
2BF35
100
AcDbEntity
  8
YODOROGO
100
AcDbLine
 10
10425.60162798447
 20
733.4060611609828
 30
0.0
 11
10425.60162798447
 21
742.4060611609831
 31
0.0
1001
AUTOCAD_POSTSCRIPT_FIGURE
1002
{
1000
PSFILL
1000
Grayscale
1000
Grayscale
1070
   100
1002
}
  0
LINE
  5
2B9C3
330
2BF35
100
AcDbEntity
  8
YODOROGO
100
AcDbLine
 10
10416.60162798446
 20
733.4060611609828
 30
0.0
 11
10425.60162798447
 21
733.4060611609828
 31
0.0
1001
AUTOCAD_POSTSCRIPT_FIGURE
1002
{
1000
PSFILL
1000
Grayscale
1000
Grayscale
1070
   100
1002
}
  0
LINE
  5
2B9C4
330
2BF35
100
AcDbEntity
  8
YODOROGO
100
AcDbLine
 10
10416.60162798446
 20
727.4060611609829
 30
0.0
 11
10416.60162798446
 21
733.4060611609828
 31
0.0
1001
AUTOCAD_POSTSCRIPT_FIGURE
1002
{
1000
PSFILL
1000
Grayscale
1000
Grayscale
1070
   100
1002
}
  0
LINE
  5
2B9C5
330
2BF35
100
AcDbEntity
  8
YODOROGO
100
AcDbLine
 10
10425.60162798447
 20
727.4060611609829
 30
0.0
 11
10416.60162798446
 21
727.4060611609829
 31
0.0
1001
AUTOCAD_POSTSCRIPT_FIGURE
1002
{
1000
PSFILL
1000
Grayscale
1000
Grayscale
1070
   100
1002
}
  0
LINE
  5
2B9C6
330
2BF35
100
AcDbEntity
  8
YODOROGO
100
AcDbLine
 10
10425.60162798447
 20
718.0449677976392
 30
0.0
 11
10425.60162798447
 21
727.4060611609829
 31
0.0
1001
AUTOCAD_POSTSCRIPT_FIGURE
1002
{
1000
PSFILL
1000
Grayscale
1000
Grayscale
1070
   100
1002
}
  0
LINE
  5
2B9C7
330
2BF35
100
AcDbEntity
  8
YODOROGO
100
AcDbLine
 10
10416.60162798446
 20
697.4162804818766
 30
0.0
 11
10425.60162798447
 21
718.0449677976392
 31
0.0
1001
AUTOCAD_POSTSCRIPT_FIGURE
1002
{
1000
PSFILL
1000
Grayscale
1000
Grayscale
1070
   100
1002
}
  0
LINE
  5
2B9C8
330
2BF35
100
AcDbEntity
  8
YODOROGO
100
AcDbLine
 10
10416.60162798446
 20
691.4162804818772
 30
0.0
 11
10416.60162798446
 21
697.4162804818766
 31
0.0
1001
AUTOCAD_POSTSCRIPT_FIGURE
1002
{
1000
PSFILL
1000
Grayscale
1000
Grayscale
1070
   100
1002
}
  0
LINE
  5
2B9C9
330
2BF35
100
AcDbEntity
  8
YODOROGO
100
AcDbLine
 10
10596.60162798446
 20
700.406061160983
 30
0.0
 11
10650.60162798447
 21
684.3291096151149
 31
0.0
1001
AUTOCAD_POSTSCRIPT_FIGURE
1002
{
1000
PSFILL
1000
Grayscale
1000
Grayscale
1070
   100
1002
}
  0
LINE
  5
2B9CA
330
2BF35
100
AcDbEntity
  8
YODOROGO
100
AcDbLine
 10
10650.60162798447
 20
657.3291096151146
 30
0.0
 11
10596.60162798446
 21
673.4060611609827
 31
0.0
1001
AUTOCAD_POSTSCRIPT_FIGURE
1002
{
1000
PSFILL
1000
Grayscale
1000
Grayscale
1070
   100
1002
}
  0
LINE
  5
2B9CB
330
2BF35
100
AcDbEntity
  8
YODOROGO
100
AcDbLine
 10
10650.60162798447
 20
744.329109615115
 30
0.0
 11
10596.60162798446
 21
760.4060611609829
 31
0.0
1001
AUTOCAD_POSTSCRIPT_FIGURE
1002
{
1000
PSFILL
1000
Grayscale
1000
Grayscale
1070
   100
1002
}
  0
LINE
  5
2B9CC
330
2BF35
100
AcDbEntity
  8
YODOROGO
100
AcDbLine
 10
10596.60162798446
 20
734.906061160983
 30
0.0
 11
10650.60162798447
 21
718.829109615115
 31
0.0
1001
AUTOCAD_POSTSCRIPT_FIGURE
1002
{
1000
PSFILL
1000
Grayscale
1000
Grayscale
1070
   100
1002
}
  0
LINE
  5
2B9CD
330
2BF35
100
AcDbEntity
  8
YODOROGO
100
AcDbLine
 10
10596.60162798446
 20
673.4060611609827
 30
0.0
 11
10596.60162798446
 21
700.406061160983
 31
0.0
1001
AUTOCAD_POSTSCRIPT_FIGURE
1002
{
1000
PSFILL
1000
Grayscale
1000
Grayscale
1070
   100
1002
}
  0
LINE
  5
2B9CE
330
2BF35
100
AcDbEntity
  8
YODOROGO
100
AcDbLine
 10
10596.60162798446
 20
760.4060611609829
 30
0.0
 11
10596.60162798446
 21
734.906061160983
 31
0.0
1001
AUTOCAD_POSTSCRIPT_FIGURE
1002
{
1000
PSFILL
1000
Grayscale
1000
Grayscale
1070
   100
1002
}
  0
LINE
  5
2B9CF
330
2BF35
100
AcDbEntity
  8
YODOROGO
100
AcDbLine
 10
10530.08862007752
 20
727.4060611609829
 30
0.0
 11
10548.60162798447
 21
655.406061160983
 31
0.0
1001
AUTOCAD_POSTSCRIPT_FIGURE
1002
{
1000
PSFILL
1000
Grayscale
1000
Grayscale
1070
   100
1002
}
  0
LINE
  5
2B9D0
330
2BF35
100
AcDbEntity
  8
YODOROGO
100
AcDbLine
 10
10491.60162798447
 20
727.4060611609829
 30
0.0
 11
10530.08862007752
 21
727.4060611609829
 31
0.0
1001
AUTOCAD_POSTSCRIPT_FIGURE
1002
{
1000
PSFILL
1000
Grayscale
1000
Grayscale
1070
   100
1002
}
  0
LINE
  5
2B9D1
330
2BF35
100
AcDbEntity
  8
YODOROGO
100
AcDbLine
 10
10491.60162798447
 20
733.4060611609828
 30
0.0
 11
10491.60162798447
 21
727.4060611609829
 31
0.0
1001
AUTOCAD_POSTSCRIPT_FIGURE
1002
{
1000
PSFILL
1000
Grayscale
1000
Grayscale
1070
   100
1002
}
  0
LINE
  5
2B9D2
330
2BF35
100
AcDbEntity
  8
YODOROGO
100
AcDbLine
 10
10528.72757944497
 20
733.4060611609828
 30
0.0
 11
10491.60162798447
 21
733.4060611609828
 31
0.0
1001
AUTOCAD_POSTSCRIPT_FIGURE
1002
{
1000
PSFILL
1000
Grayscale
1000
Grayscale
1070
   100
1002
}
  0
LINE
  5
2B9D3
330
2BF35
100
AcDbEntity
  8
YODOROGO
100
AcDbLine
 10
10526.68601849614
 20
742.4060611609831
 30
0.0
 11
10528.72757944497
 21
733.4060611609828
 31
0.0
1001
AUTOCAD_POSTSCRIPT_FIGURE
1002
{
1000
PSFILL
1000
Grayscale
1000
Grayscale
1070
   100
1002
}
  0
LINE
  5
2B9D4
330
2BF35
100
AcDbEntity
  8
YODOROGO
100
AcDbLine
 10
10534.18601849614
 20
742.4060611609831
 30
0.0
 11
10526.68601849614
 21
742.4060611609831
 31
0.0
1001
AUTOCAD_POSTSCRIPT_FIGURE
1002
{
1000
PSFILL
1000
Grayscale
1000
Grayscale
1070
   100
1002
}
  0
LINE
  5
2B9D5
330
2BF35
100
AcDbEntity
  8
YODOROGO
100
AcDbLine
 10
10535.92757944497
 20
733.4060611609828
 30
0.0
 11
10534.18601849614
 21
742.4060611609831
 31
0.0
1001
AUTOCAD_POSTSCRIPT_FIGURE
1002
{
1000
PSFILL
1000
Grayscale
1000
Grayscale
1070
   100
1002
}
  0
LINE
  5
2B9D6
330
2BF35
100
AcDbEntity
  8
YODOROGO
100
AcDbLine
 10
10545.60162798447
 20
733.4060611609828
 30
0.0
 11
10535.92757944497
 21
733.4060611609828
 31
0.0
1001
AUTOCAD_POSTSCRIPT_FIGURE
1002
{
1000
PSFILL
1000
Grayscale
1000
Grayscale
1070
   100
1002
}
  0
LINE
  5
2B9D7
330
2BF35
100
AcDbEntity
  8
YODOROGO
100
AcDbLine
 10
10545.60162798447
 20
742.4060611609831
 30
0.0
 11
10545.60162798447
 21
733.4060611609828
 31
0.0
1001
AUTOCAD_POSTSCRIPT_FIGURE
1002
{
1000
PSFILL
1000
Grayscale
1000
Grayscale
1070
   100
1002
}
  0
LINE
  5
2B9D8
330
2BF35
100
AcDbEntity
  8
YODOROGO
100
AcDbLine
 10
10551.60162798447
 20
742.4060611609831
 30
0.0
 11
10545.60162798447
 21
742.4060611609831
 31
0.0
1001
AUTOCAD_POSTSCRIPT_FIGURE
1002
{
1000
PSFILL
1000
Grayscale
1000
Grayscale
1070
   100
1002
}
  0
LINE
  5
2B9D9
330
2BF35
100
AcDbEntity
  8
YODOROGO
100
AcDbLine
 10
10551.60162798447
 20
733.4060611609828
 30
0.0
 11
10551.60162798447
 21
742.4060611609831
 31
0.0
1001
AUTOCAD_POSTSCRIPT_FIGURE
1002
{
1000
PSFILL
1000
Grayscale
1000
Grayscale
1070
   100
1002
}
  0
LINE
  5
2B9DA
330
2BF35
100
AcDbEntity
  8
YODOROGO
100
AcDbLine
 10
10551.60162798447
 20
727.4060611609829
 30
0.0
 11
10551.60162798447
 21
733.4060611609828
 31
0.0
1001
AUTOCAD_POSTSCRIPT_FIGURE
1002
{
1000
PSFILL
1000
Grayscale
1000
Grayscale
1070
   100
1002
}
  0
LINE
  5
2B9DB
330
2BF35
100
AcDbEntity
  8
YODOROGO
100
AcDbLine
 10
10537.08862007753
 20
727.4060611609829
 30
0.0
 11
10551.60162798447
 21
727.4060611609829
 31
0.0
1001
AUTOCAD_POSTSCRIPT_FIGURE
1002
{
1000
PSFILL
1000
Grayscale
1000
Grayscale
1070
   100
1002
}
  0
LINE
  5
2B9DC
330
2BF35
100
AcDbEntity
  8
YODOROGO
100
AcDbLine
 10
10551.60162798447
 20
655.406061160983
 30
0.0
 11
10537.08862007753
 21
727.4060611609829
 31
0.0
1001
AUTOCAD_POSTSCRIPT_FIGURE
1002
{
1000
PSFILL
1000
Grayscale
1000
Grayscale
1070
   100
1002
}
  0
LINE
  5
2B9DD
330
2BF35
100
AcDbEntity
  8
YODOROGO
100
AcDbLine
 10
10548.60162798447
 20
655.406061160983
 30
0.0
 11
10551.60162798447
 21
655.406061160983
 31
0.0
1001
AUTOCAD_POSTSCRIPT_FIGURE
1002
{
1000
PSFILL
1000
Grayscale
1000
Grayscale
1070
   100
1002
}
  0
LINE
  5
2B9DE
330
2BF35
100
AcDbEntity
  8
YODOROGO
100
AcDbLine
 10
10529.27595747517
 20
665.902791112048
 30
0.0
 11
10491.60162798447
 21
655.406061160983
 31
0.0
  0
LINE
  5
2B9DF
330
2BF35
100
AcDbEntity
  8
YODOROGO
100
AcDbLine
 10
10529.27595747517
 20
674.5008673234024
 30
0.0
 11
10529.27595747517
 21
665.902791112048
 31
0.0
  0
LINE
  5
2B9E0
330
2BF35
100
AcDbEntity
  8
YODOROGO
100
AcDbLine
 10
10512.68879272982
 20
670.0563499251625
 30
0.0
 11
10529.27595747517
 21
674.5008673234024
 31
0.0
  0
LINE
  5
2B9E1
330
2BF35
100
AcDbEntity
  8
YODOROGO
100
AcDbLine
 10
10512.68879272982
 20
702.2131308511124
 30
0.0
 11
10512.68879272982
 21
670.0563499251625
 31
0.0
  0
LINE
  5
2B9E2
330
2BF35
100
AcDbEntity
  8
YODOROGO
100
AcDbLine
 10
10529.27595747517
 20
702.2131308511124
 30
0.0
 11
10512.68879272982
 21
702.2131308511124
 31
0.0
  0
LINE
  5
2B9E3
330
2BF35
100
AcDbEntity
  8
YODOROGO
100
AcDbLine
 10
10529.27595747517
 20
709.7131308511117
 30
0.0
 11
10529.27595747517
 21
702.2131308511124
 31
0.0
  0
LINE
  5
2B9E4
330
2BF35
100
AcDbEntity
  8
YODOROGO
100
AcDbLine
 10
10491.60162798447
 20
709.7131308511117
 30
0.0
 11
10529.27595747517
 21
709.7131308511117
 31
0.0
  0
LINE
  5
2B9E5
330
2BF35
100
AcDbEntity
  8
YODOROGO
100
AcDbLine
 10
10491.60162798447
 20
702.2131308511124
 30
0.0
 11
10491.60162798447
 21
709.7131308511117
 31
0.0
  0
LINE
  5
2B9E6
330
2BF35
100
AcDbEntity
  8
YODOROGO
100
AcDbLine
 10
10508.18879272982
 20
702.2131308511124
 30
0.0
 11
10491.60162798447
 21
702.2131308511124
 31
0.0
  0
LINE
  5
2B9E7
330
2BF35
100
AcDbEntity
  8
YODOROGO
100
AcDbLine
 10
10508.18879272982
 20
669.252502347869
 30
0.0
 11
10508.18879272982
 21
702.2131308511124
 31
0.0
  0
LINE
  5
2B9E8
330
2BF35
100
AcDbEntity
  8
YODOROGO
100
AcDbLine
 10
10491.60162798447
 20
664.4060611609822
 30
0.0
 11
10508.18879272982
 21
669.252502347869
 31
0.0
  0
LINE
  5
2B9E9
330
2BF35
100
AcDbEntity
  8
YODOROGO
100
AcDbLine
 10
10491.60162798447
 20
655.406061160983
 30
0.0
 11
10491.60162798447
 21
664.4060611609822
 31
0.0
  0
LINE
  5
2B9EA
330
2BF35
100
AcDbEntity
  8
YODOROGO
100
AcDbLine
 10
10500.60162798446
 20
640.4060611609828
 30
0.0
 11
10500.60162798446
 21
631.4060611609826
 31
0.0
  0
LINE
  5
2B9EB
330
2BF35
100
AcDbEntity
  8
YODOROGO
100
AcDbLine
 10
10500.60162798446
 20
640.4060611609828
 30
0.0
 11
10500.60162798446
 21
640.4060611609828
 31
0.0
  0
LINE
  5
2B9EC
330
2BF35
100
AcDbEntity
  8
YODOROGO
100
AcDbLine
 10
10506.60162798447
 20
640.4060611609828
 30
0.0
 11
10500.60162798446
 21
640.4060611609828
 31
0.0
  0
LINE
  5
2B9ED
330
2BF35
100
AcDbEntity
  8
YODOROGO
100
AcDbLine
 10
10506.60162798447
 20
631.4060611609826
 30
0.0
 11
10506.60162798447
 21
640.4060611609828
 31
0.0
  0
LINE
  5
2B9EE
330
2BF35
100
AcDbEntity
  8
YODOROGO
100
AcDbLine
 10
10515.34245150633
 20
631.4060611609826
 30
0.0
 11
10506.60162798447
 21
631.4060611609826
 31
0.0
  0
LINE
  5
2B9EF
330
2BF35
100
AcDbEntity
  8
YODOROGO
100
AcDbLine
 10
10500.60162798446
 20
631.4060611609826
 30
0.0
 11
10491.60162798447
 21
631.4060611609826
 31
0.0
  0
LINE
  5
2B9F0
330
2BF35
100
AcDbEntity
  8
YODOROGO
100
AcDbLine
 10
10530.80082008658
 20
640.4060611609828
 30
0.0
 11
10536.8008200866
 21
640.4060611609828
 31
0.0
1001
AUTOCAD_POSTSCRIPT_FIGURE
1002
{
1000
PSFILL
1000
Grayscale
1000
Grayscale
1070
   100
1002
}
  0
LINE
  5
2B9F1
330
2BF35
100
AcDbEntity
  8
YODOROGO
100
AcDbLine
 10
10650.60162798447
 20
684.3291096151149
 30
0.0
 11
10650.60162798447
 21
657.3291096151146
 31
0.0
1001
AUTOCAD_POSTSCRIPT_FIGURE
1002
{
1000
PSFILL
1000
Grayscale
1000
Grayscale
1070
   100
1002
}
  0
LINE
  5
2B9F2
330
2BF35
100
AcDbEntity
  8
YODOROGO
100
AcDbLine
 10
10650.60162798447
 20
718.829109615115
 30
0.0
 11
10650.60162798447
 21
744.329109615115
 31
0.0
1001
AUTOCAD_POSTSCRIPT_FIGURE
1002
{
1000
PSFILL
1000
Grayscale
1000
Grayscale
1070
   100
1002
}
  0
LINE
  5
2B9F3
330
2BF35
100
AcDbEntity
  8
YODOROGO
100
AcDbLine
 10
10662.60162798446
 20
682.4060611609829
 30
0.0
 11
10662.60162798446
 21
655.4060611609838
 31
0.0
  0
LINE
  5
2B9F4
330
2BF35
100
AcDbEntity
  8
YODOROGO
100
AcDbLine
 10
10686.60162798446
 20
640.4060611609828
 30
0.0
 11
10662.60162798446
 21
640.4060611609828
 31
0.0
  0
LINE
  5
2B9F5
330
2BF35
100
AcDbEntity
  8
YODOROGO
100
AcDbLine
 10
10662.60162798446
 20
655.4060611609838
 30
0.0
 11
10719.60162798446
 21
655.4060611609838
 31
0.0
  0
LINE
  5
2B9F6
330
2BF35
100
AcDbEntity
  8
YODOROGO
100
AcDbLine
 10
10686.60162798446
 20
700.406061160983
 30
0.0
 11
10662.60162798446
 21
700.406061160983
 31
0.0
  0
LINE
  5
2B9F7
330
2BF35
100
AcDbEntity
  8
YODOROGO
100
AcDbLine
 10
10686.60162798446
 20
721.4060611609826
 30
0.0
 11
10686.60162798446
 21
700.406061160983
 31
0.0
  0
LINE
  5
2B9F8
330
2BF35
100
AcDbEntity
  8
YODOROGO
100
AcDbLine
 10
10719.60162798446
 20
745.4060611609828
 30
0.0
 11
10719.60162798446
 21
760.4060611609829
 31
0.0
  0
LINE
  5
2B9F9
330
2BF35
100
AcDbEntity
  8
YODOROGO
100
AcDbLine
 10
10662.60162798446
 20
745.4060611609828
 30
0.0
 11
10719.60162798446
 21
745.4060611609828
 31
0.0
  0
LINE
  5
2B9FA
330
2BF35
100
AcDbEntity
  8
YODOROGO
100
AcDbLine
 10
10662.60162798446
 20
700.406061160983
 30
0.0
 11
10662.60162798446
 21
745.4060611609828
 31
0.0
  0
LINE
  5
2B9FB
330
2BF35
100
AcDbEntity
  8
YODOROGO
100
AcDbLine
 10
10875.60162798447
 20
760.4060611609829
 30
0.0
 11
10875.60162798447
 21
607.4060611609829
 31
0.0
  0
LINE
  5
2B9FC
330
2BF35
100
AcDbEntity
  8
YODOROGO
100
AcDbLine
 10
10902.60162798446
 20
592.4060611609831
 30
0.0
 11
10902.60162798446
 21
760.4060611609829
 31
0.0
  0
LINE
  5
2B9FD
330
2BF35
100
AcDbEntity
  8
YODOROGO
100
AcDbLine
 10
10973.10162798446
 20
559.4060611609823
 30
0.0
 11
10973.10162798446
 21
752.9060611609828
 31
0.0
  0
LINE
  5
2B9FE
330
2BF35
100
AcDbEntity
  8
YODOROGO
100
AcDbLine
 10
10949.10162798447
 20
752.9060611609828
 30
0.0
 11
10949.10162798447
 21
559.4060611609823
 31
0.0
  0
LINE
  5
2B9FF
330
2BF35
100
AcDbEntity
  8
YODOROGO
100
AcDbLine
 10
11019.60162798446
 20
760.4060611609829
 30
0.0
 11
11019.60162798446
 21
535.4060611609829
 31
0.0
  0
LINE
  5
2BA00
330
2BF35
100
AcDbEntity
  8
YODOROGO
100
AcDbLine
 10
11046.60162798447
 20
535.4060611609829
 30
0.0
 11
11046.60162798447
 21
760.4060611609829
 31
0.0
  0
LINE
  5
2BA01
330
2BF35
100
AcDbEntity
  8
YODOROGO
100
AcDbLine
 10
10746.60162798446
 20
625.406061160983
 30
0.0
 11
10746.60162798446
 21
655.4060611609838
 31
0.0
  0
LINE
  5
2BA02
330
2BF35
100
AcDbEntity
  8
YODOROGO
100
AcDbLine
 10
11207.10162798447
 20
640.4060611609828
 30
0.0
 11
11207.10162798447
 21
625.406061160983
 31
0.0
  0
LINE
  5
2BA03
330
2BF35
100
AcDbEntity
  8
YODOROGO
100
AcDbLine
 10
11207.10162798447
 20
640.4060611609828
 30
0.0
 11
11207.10162798447
 21
625.406061160983
 31
0.0
  0
ARC
  5
2BA04
330
2BF35
100
AcDbEntity
  8
YODOROGO
100
AcDbCircle
 10
10840.09184107006
 20
606.8316991658524
 30
0.0
 40
35.51443169202812
100
AcDbArc
 50
274.052441629071
 51
0.9266642149310715
  0
ARC
  5
2BA05
330
2BF35
100
AcDbEntity
  8
YODOROGO
100
AcDbCircle
 10
10840.94481401993
 20
597.229023228915
 30
0.0
 40
61.84515883532068
100
AcDbArc
 50
271.5351210653778
 51
355.5272775058505
  0
LINE
  5
2BA06
330
2BF35
100
AcDbEntity
  8
YODOROGO
100
AcDbLine
 10
10842.60162798446
 20
571.4060611609826
 30
0.0
 11
10842.60162798446
 21
535.4060611609829
 31
0.0
  0
LINE
  5
2BA07
330
2BF35
100
AcDbEntity
  8
YODOROGO
100
AcDbLine
 10
10797.60162798445
 20
625.406061160983
 30
0.0
 11
10746.60162798446
 21
625.406061160983
 31
0.0
  0
LINE
  5
2BA08
330
2BF35
100
AcDbEntity
  8
YODOROGO
100
AcDbLine
 10
10797.60162798445
 20
601.4060611609833
 30
0.0
 11
10797.60162798445
 21
625.406061160983
 31
0.0
  0
LINE
  5
2BA09
330
2BF35
100
AcDbEntity
  8
YODOROGO
100
AcDbLine
 10
10746.60162798446
 20
601.4060611609833
 30
0.0
 11
10797.60162798445
 21
601.4060611609833
 31
0.0
  0
LINE
  5
2BA0A
330
2BF35
100
AcDbEntity
  8
YODOROGO
100
AcDbLine
 10
10746.60162798446
 20
571.4060611609826
 30
0.0
 11
10746.60162798446
 21
601.4060611609833
 31
0.0
  0
LINE
  5
2BA0B
330
2BF35
100
AcDbEntity
  8
YODOROGO
100
AcDbLine
 10
10797.60162798445
 20
571.4060611609826
 30
0.0
 11
10746.60162798446
 21
571.4060611609826
 31
0.0
  0
LINE
  5
2BA0C
330
2BF35
100
AcDbEntity
  8
YODOROGO
100
AcDbLine
 10
10797.60162798445
 20
535.4060611609829
 30
0.0
 11
10797.60162798445
 21
571.4060611609826
 31
0.0
  0
LINE
  5
2BA0D
330
2BF35
100
AcDbEntity
  8
YODOROGO
100
AcDbLine
 10
10949.10162798447
 20
559.4060611609823
 30
0.0
 11
10973.10162798446
 21
559.4060611609823
 31
0.0
  0
LINE
  5
2BA0E
330
2BF35
100
AcDbEntity
  8
YODOROGO
100
AcDbLine
 10
11019.60162798446
 20
535.4060611609829
 30
0.0
 11
11046.60162798447
 21
535.4060611609829
 31
0.0
  0
LINE
  5
2BA0F
330
2BF35
100
AcDbEntity
  8
YODOROGO
100
AcDbLine
 10
11151.60162798447
 20
573.1655445639615
 30
0.0
 11
11151.60162798447
 21
535.4060611609829
 31
0.0
  0
LINE
  5
2BA10
330
2BF35
100
AcDbEntity
  8
YODOROGO
100
AcDbLine
 10
11106.60162798446
 20
535.4060611609829
 30
0.0
 11
11151.60162798447
 21
573.1655445639615
 31
0.0
  0
LINE
  5
2BA11
330
2BF35
100
AcDbEntity
  8
YODOROGO
100
AcDbLine
 10
11106.60162798446
 20
580.406061160983
 30
0.0
 11
11106.60162798446
 21
535.4060611609829
 31
0.0
  0
LINE
  5
2BA12
330
2BF35
100
AcDbEntity
  8
YODOROGO
100
AcDbLine
 10
11142.35423576229
 20
610.4060611609829
 30
0.0
 11
11106.60162798446
 21
580.406061160983
 31
0.0
  0
LINE
  5
2BA13
330
2BF35
100
AcDbEntity
  8
YODOROGO
100
AcDbLine
 10
11106.60162798446
 20
610.4060611609829
 30
0.0
 11
11142.35423576229
 21
610.4060611609829
 31
0.0
  0
LINE
  5
2BA14
330
2BF35
100
AcDbEntity
  8
YODOROGO
100
AcDbLine
 10
11106.60162798446
 20
625.406061160983
 30
0.0
 11
11106.60162798446
 21
610.4060611609829
 31
0.0
  0
LINE
  5
2BA15
330
2BF35
100
AcDbEntity
  8
YODOROGO
100
AcDbLine
 10
11207.10162798447
 20
625.406061160983
 30
0.0
 11
11106.60162798446
 21
625.406061160983
 31
0.0
  0
LINE
  5
2BA16
330
2BF35
100
AcDbEntity
  8
YODOROGO
100
AcDbLine
 10
11219.10162798447
 20
610.4060611609829
 30
0.0
 11
11166.60162798446
 21
610.4060611609829
 31
0.0
  0
LINE
  5
2BA17
330
2BF35
100
AcDbEntity
  8
YODOROGO
100
AcDbLine
 10
11166.60162798446
 20
585.7520390316213
 30
0.0
 11
11164.27870236949
 21
583.8028730048376
 31
0.0
  0
LINE
  5
2BA18
330
2BF35
100
AcDbEntity
  8
YODOROGO
100
AcDbLine
 10
11166.60162798446
 20
610.4060611609829
 30
0.0
 11
11166.60162798446
 21
585.7520390316213
 31
0.0
  0
LINE
  5
2BA19
330
2BF35
100
AcDbEntity
  8
YODOROGO
100
AcDbLine
 10
11151.60162798447
 20
573.1655445639615
 30
0.0
 11
11151.60162798447
 21
535.4060611609829
 31
0.0
  0
LINE
  5
2BA1A
330
2BF35
100
AcDbEntity
  8
YODOROGO
100
AcDbLine
 10
11106.60162798446
 20
535.4060611609829
 30
0.0
 11
11151.60162798447
 21
573.1655445639615
 31
0.0
  0
LINE
  5
2BA1B
330
2BF35
100
AcDbEntity
  8
YODOROGO
100
AcDbLine
 10
11106.60162798446
 20
580.406061160983
 30
0.0
 11
11106.60162798446
 21
535.4060611609829
 31
0.0
  0
LINE
  5
2BA1C
330
2BF35
100
AcDbEntity
  8
YODOROGO
100
AcDbLine
 10
11142.35423576229
 20
610.4060611609829
 30
0.0
 11
11106.60162798446
 21
580.406061160983
 31
0.0
  0
LINE
  5
2BA1D
330
2BF35
100
AcDbEntity
  8
YODOROGO
100
AcDbLine
 10
11106.60162798446
 20
610.4060611609829
 30
0.0
 11
11142.35423576229
 21
610.4060611609829
 31
0.0
  0
LINE
  5
2BA1E
330
2BF35
100
AcDbEntity
  8
YODOROGO
100
AcDbLine
 10
11106.60162798446
 20
625.406061160983
 30
0.0
 11
11106.60162798446
 21
610.4060611609829
 31
0.0
  0
LINE
  5
2BA1F
330
2BF35
100
AcDbEntity
  8
YODOROGO
100
AcDbLine
 10
11207.10162798447
 20
625.406061160983
 30
0.0
 11
11106.60162798446
 21
625.406061160983
 31
0.0
  0
LINE
  5
2BA20
330
2BF35
100
AcDbEntity
  8
YODOROGO
100
AcDbLine
 10
10797.60162798445
 20
655.4060611609838
 30
0.0
 11
10797.60162798445
 21
682.4060611609829
 31
0.0
  0
LINE
  5
2BA21
330
2BF35
100
AcDbEntity
  8
YODOROGO
100
AcDbLine
 10
10746.60162798446
 20
655.4060611609838
 30
0.0
 11
10797.60162798445
 21
655.4060611609838
 31
0.0
  0
LINE
  5
2BA22
330
2BF35
100
AcDbEntity
  8
YODOROGO
100
AcDbLine
 10
10773.60162798447
 20
700.406061160983
 30
0.0
 11
10773.60162798447
 21
721.4060611609826
 31
0.0
  0
LINE
  5
2BA23
330
2BF35
100
AcDbEntity
  8
YODOROGO
100
AcDbLine
 10
10797.60162798445
 20
700.406061160983
 30
0.0
 11
10773.60162798447
 21
700.406061160983
 31
0.0
  0
LINE
  5
2BA24
330
2BF35
100
AcDbEntity
  8
YODOROGO
100
AcDbLine
 10
10797.60162798445
 20
730.406061160983
 30
0.0
 11
10797.60162798445
 21
700.406061160983
 31
0.0
  0
ARC
  5
2BA25
330
2BF35
100
AcDbEntity
  8
YODOROGO
100
AcDbCircle
 10
10782.60162798445
 20
730.406061160983
 30
0.0
 40
15.0
100
AcDbArc
 50
0.0
 51
90.0
  0
LINE
  5
2BA26
330
2BF35
100
AcDbEntity
  8
YODOROGO
100
AcDbLine
 10
10746.60162798447
 20
745.4060611609828
 30
0.0
 11
10782.60162798445
 21
745.4060611609828
 31
0.0
  0
LINE
  5
2BA27
330
2BF35
100
AcDbEntity
  8
YODOROGO
100
AcDbLine
 10
10746.60162798447
 20
760.4060611609829
 30
0.0
 11
10746.60162798447
 21
745.4060611609828
 31
0.0
  0
LINE
  5
2BA28
330
2BF35
100
AcDbEntity
  8
YODOROGO
100
AcDbLine
 10
10902.60162798446
 20
760.4060611609829
 30
0.0
 11
10875.60162798447
 21
760.4060611609829
 31
0.0
  0
LINE
  5
2BA29
330
2BF35
100
AcDbEntity
  8
YODOROGO
100
AcDbLine
 10
10973.10162798446
 20
752.9060611609828
 30
0.0
 11
10949.10162798447
 21
752.9060611609828
 31
0.0
  0
LINE
  5
2BA2A
330
2BF35
100
AcDbEntity
  8
YODOROGO
100
AcDbLine
 10
11046.60162798447
 20
760.4060611609829
 30
0.0
 11
11019.60162798446
 21
760.4060611609829
 31
0.0
  0
LINE
  5
2BA2B
330
2BF35
100
AcDbEntity
  8
YODOROGO
100
AcDbLine
 10
11127.60162798447
 20
640.4060611609828
 30
0.0
 11
11127.60162798447
 21
664.4060611609833
 31
0.0
1001
AUTOCAD_POSTSCRIPT_FIGURE
1002
{
1000
PSFILL
1000
Grayscale
1000
Grayscale
1070
    25
1002
}
  0
LINE
  5
2BA2C
330
2BF35
100
AcDbEntity
  8
YODOROGO
100
AcDbLine
 10
11106.60162798446
 20
640.4060611609828
 30
0.0
 11
11127.60162798447
 21
640.4060611609828
 31
0.0
1001
AUTOCAD_POSTSCRIPT_FIGURE
1002
{
1000
PSFILL
1000
Grayscale
1000
Grayscale
1070
    25
1002
}
  0
LINE
  5
2BA2D
330
2BF35
100
AcDbEntity
  8
YODOROGO
100
AcDbLine
 10
11106.60162798446
 20
682.4060611609829
 30
0.0
 11
11106.60162798446
 21
640.4060611609828
 31
0.0
1001
AUTOCAD_POSTSCRIPT_FIGURE
1002
{
1000
PSFILL
1000
Grayscale
1000
Grayscale
1070
    25
1002
}
  0
LINE
  5
2BA2E
330
2BF35
100
AcDbEntity
  8
YODOROGO
100
AcDbLine
 10
11162.10162798447
 20
682.4060611609829
 30
0.0
 11
11106.60162798446
 21
682.4060611609829
 31
0.0
1001
AUTOCAD_POSTSCRIPT_FIGURE
1002
{
1000
PSFILL
1000
Grayscale
1000
Grayscale
1070
    25
1002
}
  0
LINE
  5
2BA2F
330
2BF35
100
AcDbEntity
  8
YODOROGO
100
AcDbLine
 10
11162.10162798447
 20
697.406061160983
 30
0.0
 11
11162.10162798447
 21
682.4060611609829
 31
0.0
1001
AUTOCAD_POSTSCRIPT_FIGURE
1002
{
1000
PSFILL
1000
Grayscale
1000
Grayscale
1070
    25
1002
}
  0
LINE
  5
2BA30
330
2BF35
100
AcDbEntity
  8
YODOROGO
100
AcDbLine
 10
11106.60162798446
 20
697.406061160983
 30
0.0
 11
11162.10162798447
 21
697.406061160983
 31
0.0
1001
AUTOCAD_POSTSCRIPT_FIGURE
1002
{
1000
PSFILL
1000
Grayscale
1000
Grayscale
1070
    25
1002
}
  0
LINE
  5
2BA31
330
2BF35
100
AcDbEntity
  8
YODOROGO
100
AcDbLine
 10
11106.60162798446
 20
715.4060611609828
 30
0.0
 11
11106.60162798446
 21
697.406061160983
 31
0.0
1001
AUTOCAD_POSTSCRIPT_FIGURE
1002
{
1000
PSFILL
1000
Grayscale
1000
Grayscale
1070
    25
1002
}
  0
LINE
  5
2BA32
330
2BF35
100
AcDbEntity
  8
YODOROGO
100
AcDbLine
 10
11162.10162798447
 20
715.4060611609828
 30
0.0
 11
11106.60162798446
 21
715.4060611609828
 31
0.0
1001
AUTOCAD_POSTSCRIPT_FIGURE
1002
{
1000
PSFILL
1000
Grayscale
1000
Grayscale
1070
    25
1002
}
  0
LINE
  5
2BA33
330
2BF35
100
AcDbEntity
  8
YODOROGO
100
AcDbLine
 10
11162.10162798447
 20
730.406061160983
 30
0.0
 11
11162.10162798447
 21
715.4060611609828
 31
0.0
1001
AUTOCAD_POSTSCRIPT_FIGURE
1002
{
1000
PSFILL
1000
Grayscale
1000
Grayscale
1070
    25
1002
}
  0
LINE
  5
2BA34
330
2BF35
100
AcDbEntity
  8
YODOROGO
100
AcDbLine
 10
11106.60162798446
 20
730.406061160983
 30
0.0
 11
11162.10162798447
 21
730.406061160983
 31
0.0
1001
AUTOCAD_POSTSCRIPT_FIGURE
1002
{
1000
PSFILL
1000
Grayscale
1000
Grayscale
1070
    25
1002
}
  0
LINE
  5
2BA35
330
2BF35
100
AcDbEntity
  8
YODOROGO
100
AcDbLine
 10
11106.60162798446
 20
760.4060611609829
 30
0.0
 11
11106.60162798446
 21
730.406061160983
 31
0.0
1001
AUTOCAD_POSTSCRIPT_FIGURE
1002
{
1000
PSFILL
1000
Grayscale
1000
Grayscale
1070
    25
1002
}
  0
LINE
  5
2BA36
330
2BF35
100
AcDbEntity
  8
YODOROGO
100
AcDbLine
 10
11124.60162798446
 20
760.4060611609829
 30
0.0
 11
11106.60162798446
 21
760.4060611609829
 31
0.0
1001
AUTOCAD_POSTSCRIPT_FIGURE
1002
{
1000
PSFILL
1000
Grayscale
1000
Grayscale
1070
    25
1002
}
  0
LINE
  5
2BA37
330
2BF35
100
AcDbEntity
  8
YODOROGO
100
AcDbLine
 10
11124.60162798446
 20
748.4060611609828
 30
0.0
 11
11124.60162798446
 21
760.4060611609829
 31
0.0
1001
AUTOCAD_POSTSCRIPT_FIGURE
1002
{
1000
PSFILL
1000
Grayscale
1000
Grayscale
1070
    25
1002
}
  0
LINE
  5
2BA38
330
2BF35
100
AcDbEntity
  8
YODOROGO
100
AcDbLine
 10
11162.10162798447
 20
748.4060611609828
 30
0.0
 11
11124.60162798446
 21
748.4060611609828
 31
0.0
1001
AUTOCAD_POSTSCRIPT_FIGURE
1002
{
1000
PSFILL
1000
Grayscale
1000
Grayscale
1070
    25
1002
}
  0
LINE
  5
2BA39
330
2BF35
100
AcDbEntity
  8
YODOROGO
100
AcDbLine
 10
11162.10162798447
 20
760.4060611609829
 30
0.0
 11
11162.10162798447
 21
748.4060611609828
 31
0.0
1001
AUTOCAD_POSTSCRIPT_FIGURE
1002
{
1000
PSFILL
1000
Grayscale
1000
Grayscale
1070
    25
1002
}
  0
LINE
  5
2BA3A
330
2BF35
100
AcDbEntity
  8
YODOROGO
100
AcDbLine
 10
11186.10162798447
 20
760.4060611609829
 30
0.0
 11
11162.10162798447
 21
760.4060611609829
 31
0.0
1001
AUTOCAD_POSTSCRIPT_FIGURE
1002
{
1000
PSFILL
1000
Grayscale
1000
Grayscale
1070
    25
1002
}
  0
LINE
  5
2BA3B
330
2BF35
100
AcDbEntity
  8
YODOROGO
100
AcDbLine
 10
11186.10162798447
 20
748.4060611609828
 30
0.0
 11
11186.10162798447
 21
760.4060611609829
 31
0.0
1001
AUTOCAD_POSTSCRIPT_FIGURE
1002
{
1000
PSFILL
1000
Grayscale
1000
Grayscale
1070
    25
1002
}
  0
LINE
  5
2BA3C
330
2BF35
100
AcDbEntity
  8
YODOROGO
100
AcDbLine
 10
11186.10162798447
 20
715.4060611609828
 30
0.0
 11
11186.10162798447
 21
730.406061160983
 31
0.0
1001
AUTOCAD_POSTSCRIPT_FIGURE
1002
{
1000
PSFILL
1000
Grayscale
1000
Grayscale
1070
    25
1002
}
  0
LINE
  5
2BA3D
330
2BF35
100
AcDbEntity
  8
YODOROGO
100
AcDbLine
 10
11186.10162798447
 20
682.4060611609829
 30
0.0
 11
11186.10162798447
 21
697.406061160983
 31
0.0
1001
AUTOCAD_POSTSCRIPT_FIGURE
1002
{
1000
PSFILL
1000
Grayscale
1000
Grayscale
1070
    25
1002
}
  0
LINE
  5
2BA3E
330
2BF35
100
AcDbEntity
  8
YODOROGO
100
AcDbLine
 10
11220.60162798447
 20
664.4060611609833
 30
0.0
 11
11220.60162798447
 21
640.4060611609828
 31
0.0
1001
AUTOCAD_POSTSCRIPT_FIGURE
1002
{
1000
PSFILL
1000
Grayscale
1000
Grayscale
1070
    25
1002
}
  0
LINE
  5
2BA3F
330
2BF35
100
AcDbEntity
  8
YODOROGO
100
AcDbLine
 10
11186.10162798447
 20
664.4060611609833
 30
0.0
 11
11220.60162798447
 21
664.4060611609833
 31
0.0
1001
AUTOCAD_POSTSCRIPT_FIGURE
1002
{
1000
PSFILL
1000
Grayscale
1000
Grayscale
1070
    25
1002
}
  0
LINE
  5
2BA40
330
2BF35
100
AcDbEntity
  8
YODOROGO
100
AcDbLine
 10
11186.10162798447
 20
640.4060611609828
 30
0.0
 11
11186.10162798447
 21
664.4060611609833
 31
0.0
1001
AUTOCAD_POSTSCRIPT_FIGURE
1002
{
1000
PSFILL
1000
Grayscale
1000
Grayscale
1070
    25
1002
}
  0
LINE
  5
2BA41
330
2BF35
100
AcDbEntity
  8
YODOROGO
100
AcDbLine
 10
11162.10162798447
 20
640.4060611609828
 30
0.0
 11
11186.10162798447
 21
640.4060611609828
 31
0.0
1001
AUTOCAD_POSTSCRIPT_FIGURE
1002
{
1000
PSFILL
1000
Grayscale
1000
Grayscale
1070
    25
1002
}
  0
LINE
  5
2BA42
330
2BF35
100
AcDbEntity
  8
YODOROGO
100
AcDbLine
 10
11162.10162798447
 20
664.4060611609833
 30
0.0
 11
11162.10162798447
 21
640.4060611609828
 31
0.0
1001
AUTOCAD_POSTSCRIPT_FIGURE
1002
{
1000
PSFILL
1000
Grayscale
1000
Grayscale
1070
    25
1002
}
  0
LINE
  5
2BA43
330
2BF35
100
AcDbEntity
  8
YODOROGO
100
AcDbLine
 10
11127.60162798447
 20
664.4060611609833
 30
0.0
 11
11162.10162798447
 21
664.4060611609833
 31
0.0
1001
AUTOCAD_POSTSCRIPT_FIGURE
1002
{
1000
PSFILL
1000
Grayscale
1000
Grayscale
1070
    25
1002
}
  0
ARC
  5
2BA44
330
2BF35
100
AcDbEntity
  8
YODOROGO
100
AcDbCircle
 10
11647.31921000922
 20
601.0052765683411
 30
0.0
 40
66.83298041652057
100
AcDbArc
 50
281.0262749542535
 51
357.771135755738
  0
LINE
  5
2BA45
330
2BF35
100
AcDbEntity
  8
YODOROGO
100
AcDbLine
 10
11780.10162798446
 20
715.4060611609828
 30
0.0
 11
11687.10162798447
 21
715.4060611609828
 31
0.0
  0
LINE
  5
2BA46
330
2BF35
100
AcDbEntity
  8
YODOROGO
100
AcDbLine
 10
11780.10162798446
 20
760.4060611609829
 30
0.0
 11
11687.10162798447
 21
760.4060611609829
 31
0.0
  0
LINE
  5
2BA47
330
2BF35
100
AcDbEntity
  8
YODOROGO
100
AcDbLine
 10
11687.10162798447
 20
736.4060611609826
 30
0.0
 11
11780.10162798446
 21
736.4060611609826
 31
0.0
  0
LINE
  5
2BA48
330
2BF35
100
AcDbEntity
  8
YODOROGO
100
AcDbLine
 10
11546.85162798447
 20
586.4060611609826
 30
0.0
 11
11546.85162798447
 21
658.4060611609827
 31
0.0
  0
LINE
  5
2BA49
330
2BF35
100
AcDbEntity
  8
YODOROGO
100
AcDbLine
 10
11536.35162798447
 20
634.4060611609833
 30
0.0
 11
11536.35162798447
 21
586.4060611609826
 31
0.0
  0
LINE
  5
2BA4A
330
2BF35
100
AcDbEntity
  8
YODOROGO
100
AcDbLine
 10
11521.35162798447
 20
559.4060611609831
 30
0.0
 11
11521.35162798447
 21
634.4060611609833
 31
0.0
  0
LINE
  5
2BA4B
330
2BF35
100
AcDbEntity
  8
YODOROGO
100
AcDbLine
 10
11587.35162798447
 20
634.4060611609833
 30
0.0
 11
11587.35162798447
 21
559.4060611609831
 31
0.0
  0
LINE
  5
2BA4C
330
2BF35
100
AcDbEntity
  8
YODOROGO
100
AcDbLine
 10
11572.35162798446
 20
586.4060611609826
 30
0.0
 11
11572.35162798446
 21
634.4060611609833
 31
0.0
  0
LINE
  5
2BA4D
330
2BF35
100
AcDbEntity
  8
YODOROGO
100
AcDbLine
 10
11561.85162798446
 20
658.4060611609827
 30
0.0
 11
11561.85162798446
 21
586.4060611609826
 31
0.0
  0
LINE
  5
2BA4E
330
2BF35
100
AcDbEntity
  8
YODOROGO
100
AcDbLine
 10
11615.10162798446
 20
760.4060611609829
 30
0.0
 11
11615.10162798446
 21
550.4060611609828
 31
0.0
  0
LINE
  5
2BA4F
330
2BF35
100
AcDbEntity
  8
YODOROGO
100
AcDbLine
 10
11492.10162798447
 20
535.4060611609829
 30
0.0
 11
11492.10162798447
 21
760.4060611609829
 31
0.0
  0
LINE
  5
2BA50
330
2BF35
100
AcDbEntity
  8
YODOROGO
100
AcDbLine
 10
11511.60162798447
 20
736.4060611609826
 30
0.0
 11
11511.60162798447
 21
535.4060611609829
 31
0.0
  0
LINE
  5
2BA51
330
2BF35
100
AcDbEntity
  8
YODOROGO
100
AcDbLine
 10
11597.10162798446
 20
580.406061160983
 30
0.0
 11
11597.10162798446
 21
736.4060611609826
 31
0.0
  0
LINE
  5
2BA52
330
2BF35
100
AcDbEntity
  8
YODOROGO
100
AcDbLine
 10
11393.10162798446
 20
610.4060611609829
 30
0.0
 11
11393.10162798446
 21
629.9060611609831
 31
0.0
  0
LINE
  5
2BA53
330
2BF35
100
AcDbEntity
  8
YODOROGO
100
AcDbLine
 10
11481.60162798447
 20
629.9060611609831
 30
0.0
 11
11481.60162798447
 21
610.4060611609829
 31
0.0
  0
LINE
  5
2BA54
330
2BF35
100
AcDbEntity
  8
YODOROGO
100
AcDbLine
 10
11687.10162798447
 20
715.4060611609828
 30
0.0
 11
11687.10162798447
 21
613.4060611609827
 31
0.0
  0
LINE
  5
2BA55
330
2BF35
100
AcDbEntity
  8
YODOROGO
100
AcDbLine
 10
11231.10162798446
 20
625.406061160983
 30
0.0
 11
11231.10162798446
 21
640.4060611609828
 31
0.0
  0
LINE
  5
2BA56
330
2BF35
100
AcDbEntity
  8
YODOROGO
100
AcDbLine
 10
11231.10162798446
 20
625.406061160983
 30
0.0
 11
11231.10162798446
 21
640.4060611609828
 31
0.0
  0
ARC
  5
2BA57
330
2BF35
100
AcDbEntity
  8
YODOROGO
100
AcDbCircle
 10
11451.60162798447
 20
565.4060611609828
 30
0.0
 40
30.0
100
AcDbArc
 50
270.0
 51
0.0
  0
LINE
  5
2BA58
330
2BF35
100
AcDbEntity
  8
YODOROGO
100
AcDbLine
 10
11463.60162798446
 20
599.9060611609831
 30
0.0
 11
11481.60162798447
 21
599.9060611609831
 31
0.0
  0
LINE
  5
2BA59
330
2BF35
100
AcDbEntity
  8
YODOROGO
100
AcDbLine
 10
11481.60162798447
 20
610.4060611609829
 30
0.0
 11
11448.60162798446
 21
610.4060611609829
 31
0.0
  0
LINE
  5
2BA5A
330
2BF35
100
AcDbEntity
  8
YODOROGO
100
AcDbLine
 10
11331.60162798447
 20
625.406061160983
 30
0.0
 11
11231.10162798446
 21
625.406061160983
 31
0.0
  0
LINE
  5
2BA5B
330
2BF35
100
AcDbEntity
  8
YODOROGO
100
AcDbLine
 10
11331.60162798447
 20
610.4060611609829
 30
0.0
 11
11331.60162798447
 21
625.406061160983
 31
0.0
  0
LINE
  5
2BA5C
330
2BF35
100
AcDbEntity
  8
YODOROGO
100
AcDbLine
 10
11256.60162798447
 20
610.4060611609829
 30
0.0
 11
11331.60162798447
 21
610.4060611609829
 31
0.0
  0
ARC
  5
2BA5D
330
2BF35
100
AcDbEntity
  8
YODOROGO
100
AcDbCircle
 10
11336.27206076301
 20
700.8321431073384
 30
0.0
 40
120.5166136069605
100
AcDbArc
 50
228.6181454618993
 51
245.660289248906
  0
LINE
  5
2BA5E
330
2BF35
100
AcDbEntity
  8
YODOROGO
100
AcDbLine
 10
11289.60162798447
 20
601.4060611609833
 30
0.0
 11
11286.60162798448
 21
591.0273059512126
 31
0.0
  0
LINE
  5
2BA5F
330
2BF35
100
AcDbEntity
  8
YODOROGO
100
AcDbLine
 10
11321.10162798447
 20
601.4060611609833
 30
0.0
 11
11289.60162798447
 21
601.4060611609833
 31
0.0
  0
LINE
  5
2BA60
330
2BF35
100
AcDbEntity
  8
YODOROGO
100
AcDbLine
 10
11316.60162798447
 20
581.9316459275352
 30
0.0
 11
11321.10162798447
 21
601.4060611609833
 31
0.0
  0
ARC
  5
2BA61
330
2BF35
100
AcDbEntity
  8
YODOROGO
100
AcDbCircle
 10
11336.27206076267
 20
700.8321431073759
 30
0.0
 40
120.516613606984
100
AcDbArc
 50
260.6062929796993
 51
267.7790355655585
  0
LINE
  5
2BA62
330
2BF35
100
AcDbEntity
  8
YODOROGO
100
AcDbLine
 10
11331.60162798447
 20
535.4060611609821
 30
0.0
 11
11331.60162798447
 21
580.406061160983
 31
0.0
  0
LINE
  5
2BA63
330
2BF35
100
AcDbEntity
  8
YODOROGO
100
AcDbLine
 10
11226.60162798446
 20
555.5022505933164
 30
0.0
 11
11226.60162798446
 21
597.949158949178
 31
0.0
  0
LINE
  5
2BA64
330
2BF35
100
AcDbEntity
  8
YODOROGO
100
AcDbLine
 10
11331.60162798447
 20
625.406061160983
 30
0.0
 11
11231.10162798446
 21
625.406061160983
 31
0.0
  0
LINE
  5
2BA65
330
2BF35
100
AcDbEntity
  8
YODOROGO
100
AcDbLine
 10
11331.60162798447
 20
610.4060611609829
 30
0.0
 11
11331.60162798447
 21
625.406061160983
 31
0.0
  0
LINE
  5
2BA66
330
2BF35
100
AcDbEntity
  8
YODOROGO
100
AcDbLine
 10
11256.60162798447
 20
610.4060611609829
 30
0.0
 11
11331.60162798447
 21
610.4060611609829
 31
0.0
  0
ARC
  5
2BA67
330
2BF35
100
AcDbEntity
  8
YODOROGO
100
AcDbCircle
 10
11336.27206076301
 20
700.8321431073384
 30
0.0
 40
120.5166136069605
100
AcDbArc
 50
228.6181454618993
 51
245.660289248906
  0
LINE
  5
2BA68
330
2BF35
100
AcDbEntity
  8
YODOROGO
100
AcDbLine
 10
11289.60162798447
 20
601.4060611609833
 30
0.0
 11
11286.60162798448
 21
591.0273059512126
 31
0.0
  0
LINE
  5
2BA69
330
2BF35
100
AcDbEntity
  8
YODOROGO
100
AcDbLine
 10
11321.10162798447
 20
601.4060611609833
 30
0.0
 11
11289.60162798447
 21
601.4060611609833
 31
0.0
  0
LINE
  5
2BA6A
330
2BF35
100
AcDbEntity
  8
YODOROGO
100
AcDbLine
 10
11316.60162798447
 20
581.9316459275352
 30
0.0
 11
11321.10162798447
 21
601.4060611609833
 31
0.0
  0
ARC
  5
2BA6B
330
2BF35
100
AcDbEntity
  8
YODOROGO
100
AcDbCircle
 10
11336.27206076267
 20
700.8321431073759
 30
0.0
 40
120.516613606984
100
AcDbArc
 50
260.6062929796993
 51
267.7790355655585
  0
LINE
  5
2BA6C
330
2BF35
100
AcDbEntity
  8
YODOROGO
100
AcDbLine
 10
11331.60162798447
 20
535.4060611609821
 30
0.0
 11
11331.60162798447
 21
580.406061160983
 31
0.0
  0
LINE
  5
2BA6D
330
2BF35
100
AcDbEntity
  8
YODOROGO
100
AcDbLine
 10
11226.60162798446
 20
555.5022505933164
 30
0.0
 11
11226.60162798446
 21
597.949158949178
 31
0.0
  0
LINE
  5
2BA6E
330
2BF35
100
AcDbEntity
  8
YODOROGO
100
AcDbLine
 10
11412.60162798447
 20
590.1560611609832
 30
0.0
 11
11393.10162798446
 21
590.1560611609832
 31
0.0
  0
LINE
  5
2BA6F
330
2BF35
100
AcDbEntity
  8
YODOROGO
100
AcDbLine
 10
11412.60162798447
 20
600.6560611609824
 30
0.0
 11
11412.60162798447
 21
590.1560611609832
 31
0.0
  0
LINE
  5
2BA70
330
2BF35
100
AcDbEntity
  8
YODOROGO
100
AcDbLine
 10
11393.10162798446
 20
600.6560611609824
 30
0.0
 11
11412.60162798447
 21
600.6560611609824
 31
0.0
  0
LINE
  5
2BA71
330
2BF35
100
AcDbEntity
  8
YODOROGO
100
AcDbLine
 10
11393.10162798446
 20
590.1560611609832
 30
0.0
 11
11393.10162798446
 21
600.6560611609824
 31
0.0
  0
LINE
  5
2BA72
330
2BF35
100
AcDbEntity
  8
YODOROGO
100
AcDbLine
 10
11411.10162798447
 20
591.6560611609829
 30
0.0
 11
11394.60162798447
 21
591.6560611609829
 31
0.0
  0
LINE
  5
2BA73
330
2BF35
100
AcDbEntity
  8
YODOROGO
100
AcDbLine
 10
11411.10162798447
 20
599.156061160983
 30
0.0
 11
11411.10162798447
 21
591.6560611609829
 31
0.0
  0
LINE
  5
2BA74
330
2BF35
100
AcDbEntity
  8
YODOROGO
100
AcDbLine
 10
11394.60162798447
 20
599.156061160983
 30
0.0
 11
11411.10162798447
 21
599.156061160983
 31
0.0
  0
LINE
  5
2BA75
330
2BF35
100
AcDbEntity
  8
YODOROGO
100
AcDbLine
 10
11394.60162798447
 20
591.6560611609829
 30
0.0
 11
11394.60162798447
 21
599.156061160983
 31
0.0
  0
LINE
  5
2BA76
330
2BF35
100
AcDbEntity
  8
YODOROGO
100
AcDbLine
 10
11409.60162798447
 20
593.1560611609824
 30
0.0
 11
11396.10162798446
 21
593.1560611609824
 31
0.0
  0
LINE
  5
2BA77
330
2BF35
100
AcDbEntity
  8
YODOROGO
100
AcDbLine
 10
11409.60162798447
 20
597.6560611609833
 30
0.0
 11
11409.60162798447
 21
593.1560611609824
 31
0.0
  0
LINE
  5
2BA78
330
2BF35
100
AcDbEntity
  8
YODOROGO
100
AcDbLine
 10
11396.10162798446
 20
597.6560611609833
 30
0.0
 11
11409.60162798447
 21
597.6560611609833
 31
0.0
  0
LINE
  5
2BA79
330
2BF35
100
AcDbEntity
  8
YODOROGO
100
AcDbLine
 10
11396.10162798446
 20
593.1560611609824
 30
0.0
 11
11396.10162798446
 21
597.6560611609833
 31
0.0
  0
LINE
  5
2BA7A
330
2BF35
100
AcDbEntity
  8
YODOROGO
100
AcDbLine
 10
11408.10162798447
 20
594.6560611609827
 30
0.0
 11
11397.60162798447
 21
594.6560611609827
 31
0.0
  0
LINE
  5
2BA7B
330
2BF35
100
AcDbEntity
  8
YODOROGO
100
AcDbLine
 10
11408.10162798447
 20
596.1560611609829
 30
0.0
 11
11408.10162798447
 21
594.6560611609827
 31
0.0
  0
LINE
  5
2BA7C
330
2BF35
100
AcDbEntity
  8
YODOROGO
100
AcDbLine
 10
11397.60162798447
 20
596.1560611609829
 30
0.0
 11
11408.10162798447
 21
596.1560611609829
 31
0.0
  0
LINE
  5
2BA7D
330
2BF35
100
AcDbEntity
  8
YODOROGO
100
AcDbLine
 10
11397.60162798447
 20
594.6560611609827
 30
0.0
 11
11397.60162798447
 21
596.1560611609829
 31
0.0
  0
LINE
  5
2BA7E
330
2BF35
100
AcDbEntity
  8
YODOROGO
100
AcDbLine
 10
11424.60162798446
 20
610.4060611609829
 30
0.0
 11
11393.10162798446
 21
610.4060611609829
 31
0.0
  0
LINE
  5
2BA7F
330
2BF35
100
AcDbEntity
  8
YODOROGO
100
AcDbLine
 10
11424.60162798446
 20
580.406061160983
 30
0.0
 11
11424.60162798446
 21
610.4060611609829
 31
0.0
  0
LINE
  5
2BA80
330
2BF35
100
AcDbEntity
  8
YODOROGO
100
AcDbLine
 10
11393.10162798446
 20
580.406061160983
 30
0.0
 11
11424.60162798446
 21
580.406061160983
 31
0.0
  0
LINE
  5
2BA81
330
2BF35
100
AcDbEntity
  8
YODOROGO
100
AcDbLine
 10
11393.10162798446
 20
535.4060611609829
 30
0.0
 11
11393.10162798446
 21
580.406061160983
 31
0.0
  0
LINE
  5
2BA82
330
2BF35
100
AcDbEntity
  8
YODOROGO
100
AcDbLine
 10
11451.60162798447
 20
535.4060611609829
 30
0.0
 11
11393.10162798446
 21
535.4060611609829
 31
0.0
  0
LINE
  5
2BA83
330
2BF35
100
AcDbEntity
  8
YODOROGO
100
AcDbLine
 10
11463.60162798446
 20
589.4060611609822
 30
0.0
 11
11463.60162798446
 21
599.9060611609831
 31
0.0
  0
ARC
  5
2BA84
330
2BF35
100
AcDbEntity
  8
YODOROGO
100
AcDbCircle
 10
11454.60162798446
 20
589.4060611609842
 30
0.0
 40
9.000000000001408
100
AcDbArc
 50
270.0
 51
359.9999999999877
  0
LINE
  5
2BA85
330
2BF35
100
AcDbEntity
  8
YODOROGO
100
AcDbLine
 10
11448.60162798446
 20
580.406061160983
 30
0.0
 11
11454.60162798446
 21
580.406061160983
 31
0.0
  0
LINE
  5
2BA86
330
2BF35
100
AcDbEntity
  8
YODOROGO
100
AcDbLine
 10
11448.60162798446
 20
610.4060611609829
 30
0.0
 11
11448.60162798446
 21
580.406061160983
 31
0.0
  0
LINE
  5
2BA87
330
2BF35
100
AcDbEntity
  8
YODOROGO
100
AcDbLine
 10
11587.35162798447
 20
580.406061160983
 30
0.0
 11
11597.10162798446
 21
580.406061160983
 31
0.0
  0
LINE
  5
2BA88
330
2BF35
100
AcDbEntity
  8
YODOROGO
100
AcDbLine
 10
11600.10162798446
 20
535.4060611609829
 30
0.0
 11
11587.35162798447
 21
535.4060611609829
 31
0.0
  0
LINE
  5
2BA89
330
2BF35
100
AcDbEntity
  8
YODOROGO
100
AcDbLine
 10
11536.35162798447
 20
586.4060611609826
 30
0.0
 11
11546.85162798447
 21
586.4060611609826
 31
0.0
  0
LINE
  5
2BA8A
330
2BF35
100
AcDbEntity
  8
YODOROGO
100
AcDbLine
 10
11587.35162798447
 20
559.4060611609831
 30
0.0
 11
11521.35162798447
 21
559.4060611609831
 31
0.0
  0
LINE
  5
2BA8B
330
2BF35
100
AcDbEntity
  8
YODOROGO
100
AcDbLine
 10
11561.85162798446
 20
586.4060611609826
 30
0.0
 11
11572.35162798446
 21
586.4060611609826
 31
0.0
  0
LINE
  5
2BA8C
330
2BF35
100
AcDbEntity
  8
YODOROGO
100
AcDbLine
 10
11587.35162798447
 20
535.4060611609829
 30
0.0
 11
11587.35162798447
 21
580.406061160983
 31
0.0
  0
LINE
  5
2BA8D
330
2BF35
100
AcDbEntity
  8
YODOROGO
100
AcDbLine
 10
11511.60162798447
 20
535.4060611609829
 30
0.0
 11
11492.10162798447
 21
535.4060611609829
 31
0.0
  0
LINE
  5
2BA8E
330
2BF35
100
AcDbEntity
  8
YODOROGO
100
AcDbLine
 10
11481.60162798447
 20
599.9060611609831
 30
0.0
 11
11481.60162798447
 21
565.4060611609828
 31
0.0
  0
ARC
  5
2BA8F
330
2BF35
100
AcDbEntity
  8
YODOROGO
100
AcDbCircle
 10
11600.10162798446
 20
550.4060611609828
 30
0.0
 40
15.0
100
AcDbArc
 50
270.0
 51
0.0
  0
LINE
  5
2BA90
330
2BF35
100
AcDbEntity
  8
YODOROGO
100
AcDbLine
 10
11660.10162798446
 20
571.4060611609826
 30
0.0
 11
11660.10162798446
 21
535.4060611609829
 31
0.0
  0
ARC
  5
2BA91
330
2BF35
100
AcDbEntity
  8
YODOROGO
100
AcDbCircle
 10
11639.89552333754
 20
614.0742712911499
 30
0.0
 40
47.21083372187828
100
AcDbArc
 50
295.3405244216011
 51
359.1890230341867
  0
LINE
  5
2BA92
330
2BF35
100
AcDbEntity
  8
YODOROGO
100
AcDbLine
 10
11481.60162798447
 20
697.406061160983
 30
0.0
 11
11436.60162798447
 21
727.4060611609829
 31
0.0
  0
LINE
  5
2BA93
330
2BF35
100
AcDbEntity
  8
YODOROGO
100
AcDbLine
 10
11436.60162798447
 20
760.4060611609829
 30
0.0
 11
11481.60162798447
 21
730.406061160983
 31
0.0
  0
LINE
  5
2BA94
330
2BF35
100
AcDbEntity
  8
YODOROGO
100
AcDbLine
 10
11448.60162798446
 20
629.9060611609831
 30
0.0
 11
11481.60162798447
 21
629.9060611609831
 31
0.0
  0
LINE
  5
2BA95
330
2BF35
100
AcDbEntity
  8
YODOROGO
100
AcDbLine
 10
11481.60162798447
 20
650.9060611609827
 30
0.0
 11
11448.60162798446
 21
650.9060611609827
 31
0.0
  0
LINE
  5
2BA96
330
2BF35
100
AcDbEntity
  8
YODOROGO
100
AcDbLine
 10
11393.10162798446
 20
673.4060611609827
 30
0.0
 11
11481.60162798447
 21
673.4060611609827
 31
0.0
  0
LINE
  5
2BA97
330
2BF35
100
AcDbEntity
  8
YODOROGO
100
AcDbLine
 10
11280.60162798447
 20
760.4060611609829
 30
0.0
 11
11258.10162798447
 21
760.4060611609829
 31
0.0
  0
LINE
  5
2BA98
330
2BF35
100
AcDbEntity
  8
YODOROGO
100
AcDbLine
 10
11280.60162798447
 20
685.4060611609829
 30
0.0
 11
11280.60162798447
 21
760.4060611609829
 31
0.0
  0
LINE
  5
2BA99
330
2BF35
100
AcDbEntity
  8
YODOROGO
100
AcDbLine
 10
11258.10162798447
 20
685.4060611609829
 30
0.0
 11
11280.60162798447
 21
685.4060611609829
 31
0.0
  0
LINE
  5
2BA9A
330
2BF35
100
AcDbEntity
  8
YODOROGO
100
AcDbLine
 10
11258.10162798447
 20
760.4060611609829
 30
0.0
 11
11258.10162798447
 21
685.4060611609829
 31
0.0
  0
LINE
  5
2BA9B
330
2BF35
100
AcDbEntity
  8
YODOROGO
100
AcDbLine
 10
11310.60162798447
 20
760.4060611609829
 30
0.0
 11
11331.60162798447
 21
760.4060611609829
 31
0.0
  0
LINE
  5
2BA9C
330
2BF35
100
AcDbEntity
  8
YODOROGO
100
AcDbLine
 10
11310.60162798447
 20
679.4060611609832
 30
0.0
 11
11310.60162798447
 21
760.4060611609829
 31
0.0
  0
ARC
  5
2BA9D
330
2BF35
100
AcDbEntity
  8
YODOROGO
100
AcDbCircle
 10
11295.60162798447
 20
679.4060611609832
 30
0.0
 40
15.0
100
AcDbArc
 50
270.0
 51
0.0
  0
LINE
  5
2BA9E
330
2BF35
100
AcDbEntity
  8
YODOROGO
100
AcDbLine
 10
11258.10162798447
 20
664.4060611609833
 30
0.0
 11
11295.60162798447
 21
664.4060611609833
 31
0.0
  0
LINE
  5
2BA9F
330
2BF35
100
AcDbEntity
  8
YODOROGO
100
AcDbLine
 10
11258.10162798447
 20
640.4060611609828
 30
0.0
 11
11258.10162798447
 21
664.4060611609833
 31
0.0
  0
LINE
  5
2BAA0
330
2BF35
100
AcDbEntity
  8
YODOROGO
100
AcDbLine
 10
11301.60162798446
 20
640.4060611609828
 30
0.0
 11
11258.10162798447
 21
640.4060611609828
 31
0.0
  0
ARC
  5
2BAA1
330
2BF35
100
AcDbEntity
  8
YODOROGO
100
AcDbCircle
 10
11301.60162798446
 20
670.4060611609828
 30
0.0
 40
30.0
100
AcDbArc
 50
270.0
 51
0.0
  0
LINE
  5
2BAA2
330
2BF35
100
AcDbEntity
  8
YODOROGO
100
AcDbLine
 10
11331.60162798447
 20
760.4060611609829
 30
0.0
 11
11331.60162798447
 21
670.4060611609828
 31
0.0
  0
LINE
  5
2BAA3
330
2BF35
100
AcDbEntity
  8
YODOROGO
100
AcDbLine
 10
11241.60162798446
 20
730.406061160983
 30
0.0
 11
11241.60162798446
 21
748.4060611609828
 31
0.0
1001
AUTOCAD_POSTSCRIPT_FIGURE
1002
{
1000
PSFILL
1000
Grayscale
1000
Grayscale
1070
    25
1002
}
  0
LINE
  5
2BAA4
330
2BF35
100
AcDbEntity
  8
YODOROGO
100
AcDbLine
 10
11241.60162798446
 20
697.406061160983
 30
0.0
 11
11241.60162798446
 21
715.4060611609828
 31
0.0
1001
AUTOCAD_POSTSCRIPT_FIGURE
1002
{
1000
PSFILL
1000
Grayscale
1000
Grayscale
1070
    25
1002
}
  0
LINE
  5
2BAA5
330
2BF35
100
AcDbEntity
  8
YODOROGO
100
AcDbLine
 10
11241.60162798446
 20
640.4060611609828
 30
0.0
 11
11241.60162798446
 21
682.4060611609829
 31
0.0
1001
AUTOCAD_POSTSCRIPT_FIGURE
1002
{
1000
PSFILL
1000
Grayscale
1000
Grayscale
1070
    25
1002
}
  0
LINE
  5
2BAA6
330
2BF35
100
AcDbEntity
  8
YODOROGO
100
AcDbLine
 10
11393.10162798446
 20
715.4060611609828
 30
0.0
 11
11436.60162798447
 21
760.4060611609829
 31
0.0
  0
LINE
  5
2BAA7
330
2BF35
100
AcDbEntity
  8
YODOROGO
100
AcDbLine
 10
11393.10162798446
 20
682.4060611609829
 30
0.0
 11
11393.10162798446
 21
715.4060611609828
 31
0.0
  0
LINE
  5
2BAA8
330
2BF35
100
AcDbEntity
  8
YODOROGO
100
AcDbLine
 10
11436.60162798447
 20
727.4060611609829
 30
0.0
 11
11393.10162798446
 21
682.4060611609829
 31
0.0
  0
LINE
  5
2BAA9
330
2BF35
100
AcDbEntity
  8
YODOROGO
100
AcDbLine
 10
11424.60162798446
 20
629.9060611609831
 30
0.0
 11
11424.60162798446
 21
650.9060611609827
 31
0.0
  0
LINE
  5
2BAAA
330
2BF35
100
AcDbEntity
  8
YODOROGO
100
AcDbLine
 10
11393.10162798446
 20
629.9060611609831
 30
0.0
 11
11424.60162798446
 21
629.9060611609831
 31
0.0
  0
LINE
  5
2BAAB
330
2BF35
100
AcDbEntity
  8
YODOROGO
100
AcDbLine
 10
11448.60162798446
 20
650.9060611609827
 30
0.0
 11
11448.60162798446
 21
629.9060611609831
 31
0.0
  0
LINE
  5
2BAAC
330
2BF35
100
AcDbEntity
  8
YODOROGO
100
AcDbLine
 10
11393.10162798446
 20
650.9060611609827
 30
0.0
 11
11393.10162798446
 21
673.4060611609827
 31
0.0
  0
LINE
  5
2BAAD
330
2BF35
100
AcDbEntity
  8
YODOROGO
100
AcDbLine
 10
11424.60162798446
 20
650.9060611609827
 30
0.0
 11
11393.10162798446
 21
650.9060611609827
 31
0.0
  0
LINE
  5
2BAAE
330
2BF35
100
AcDbEntity
  8
YODOROGO
100
AcDbLine
 10
11492.10162798447
 20
760.4060611609829
 30
0.0
 11
11615.10162798446
 21
760.4060611609829
 31
0.0
  0
LINE
  5
2BAAF
330
2BF35
100
AcDbEntity
  8
YODOROGO
100
AcDbLine
 10
11597.10162798446
 20
736.4060611609826
 30
0.0
 11
11511.60162798447
 21
736.4060611609826
 31
0.0
  0
LINE
  5
2BAB0
330
2BF35
100
AcDbEntity
  8
YODOROGO
100
AcDbLine
 10
11577.60162798447
 20
682.4060611609829
 30
0.0
 11
11587.35162798447
 21
682.4060611609829
 31
0.0
  0
LINE
  5
2BAB1
330
2BF35
100
AcDbEntity
  8
YODOROGO
100
AcDbLine
 10
11587.35162798447
 20
727.4060611609829
 30
0.0
 11
11577.60162798447
 21
682.4060611609829
 31
0.0
  0
LINE
  5
2BAB2
330
2BF35
100
AcDbEntity
  8
YODOROGO
100
AcDbLine
 10
11569.35162798446
 20
727.4060611609829
 30
0.0
 11
11587.35162798447
 21
727.4060611609829
 31
0.0
  0
LINE
  5
2BAB3
330
2BF35
100
AcDbEntity
  8
YODOROGO
100
AcDbLine
 10
11559.60162798447
 20
682.4060611609829
 30
0.0
 11
11569.35162798446
 21
727.4060611609829
 31
0.0
  0
LINE
  5
2BAB4
330
2BF35
100
AcDbEntity
  8
YODOROGO
100
AcDbLine
 10
11549.10162798447
 20
682.4060611609829
 30
0.0
 11
11559.60162798447
 21
682.4060611609829
 31
0.0
  0
LINE
  5
2BAB5
330
2BF35
100
AcDbEntity
  8
YODOROGO
100
AcDbLine
 10
11539.35162798447
 20
727.4060611609829
 30
0.0
 11
11549.10162798447
 21
682.4060611609829
 31
0.0
  0
LINE
  5
2BAB6
330
2BF35
100
AcDbEntity
  8
YODOROGO
100
AcDbLine
 10
11521.35162798447
 20
727.4060611609829
 30
0.0
 11
11539.35162798447
 21
727.4060611609829
 31
0.0
  0
LINE
  5
2BAB7
330
2BF35
100
AcDbEntity
  8
YODOROGO
100
AcDbLine
 10
11531.10162798447
 20
682.4060611609829
 30
0.0
 11
11521.35162798447
 21
727.4060611609829
 31
0.0
  0
LINE
  5
2BAB8
330
2BF35
100
AcDbEntity
  8
YODOROGO
100
AcDbLine
 10
11521.35162798447
 20
682.4060611609829
 30
0.0
 11
11531.10162798447
 21
682.4060611609829
 31
0.0
  0
LINE
  5
2BAB9
330
2BF35
100
AcDbEntity
  8
YODOROGO
100
AcDbLine
 10
11521.35162798447
 20
658.4060611609827
 30
0.0
 11
11521.35162798447
 21
682.4060611609829
 31
0.0
  0
LINE
  5
2BABA
330
2BF35
100
AcDbEntity
  8
YODOROGO
100
AcDbLine
 10
11587.35162798447
 20
658.4060611609827
 30
0.0
 11
11521.35162798447
 21
658.4060611609827
 31
0.0
  0
LINE
  5
2BABB
330
2BF35
100
AcDbEntity
  8
YODOROGO
100
AcDbLine
 10
11587.35162798447
 20
682.4060611609829
 30
0.0
 11
11587.35162798447
 21
658.4060611609827
 31
0.0
  0
LINE
  5
2BABC
330
2BF35
100
AcDbEntity
  8
YODOROGO
100
AcDbLine
 10
11481.60162798447
 20
730.406061160983
 30
0.0
 11
11481.60162798447
 21
697.406061160983
 31
0.0
  0
LINE
  5
2BABD
330
2BF35
100
AcDbEntity
  8
YODOROGO
100
AcDbLine
 10
11546.85162798447
 20
658.4060611609827
 30
0.0
 11
11561.85162798446
 21
658.4060611609827
 31
0.0
  0
LINE
  5
2BABE
330
2BF35
100
AcDbEntity
  8
YODOROGO
100
AcDbLine
 10
11521.35162798447
 20
634.4060611609833
 30
0.0
 11
11536.35162798447
 21
634.4060611609833
 31
0.0
  0
LINE
  5
2BABF
330
2BF35
100
AcDbEntity
  8
YODOROGO
100
AcDbLine
 10
11572.35162798446
 20
634.4060611609833
 30
0.0
 11
11587.35162798447
 21
634.4060611609833
 31
0.0
  0
LINE
  5
2BAC0
330
2BF35
100
AcDbEntity
  8
YODOROGO
100
AcDbLine
 10
11481.60162798447
 20
673.4060611609827
 30
0.0
 11
11481.60162798447
 21
650.9060611609827
 31
0.0
  0
LINE
  5
2BAC1
330
2BF35
100
AcDbEntity
  8
YODOROGO
100
AcDbLine
 10
11687.10162798447
 20
760.4060611609829
 30
0.0
 11
11687.10162798447
 21
736.4060611609826
 31
0.0
  0
LINE
  5
2BAC2
330
2BF35
100
AcDbEntity
  8
YODOROGO
100
AcDbLine
 10
11825.10162798447
 20
598.4060611609827
 30
0.0
 11
11825.10162798446
 21
679.4060611609832
 31
0.0
  0
LINE
  5
2BAC3
330
2BF35
100
AcDbEntity
  8
YODOROGO
100
AcDbLine
 10
11798.10162798446
 20
745.4060611609828
 30
0.0
 11
11798.10162798446
 21
613.4060611609827
 31
0.0
  0
LINE
  5
2BAC4
330
2BF35
100
AcDbEntity
  8
YODOROGO
100
AcDbLine
 10
11870.10162798447
 20
535.4060611609829
 30
0.0
 11
11870.10162798446
 21
679.4060611609832
 31
0.0
  0
LINE
  5
2BAC5
330
2BF35
100
AcDbEntity
  8
YODOROGO
100
AcDbLine
 10
11846.10162798447
 20
679.4060611609832
 30
0.0
 11
11846.10162798447
 21
535.4060611609829
 31
0.0
  0
LINE
  5
2BAC6
330
2BF35
100
AcDbEntity
  8
YODOROGO
100
AcDbLine
 10
11714.10162798447
 20
598.4060611609827
 30
0.0
 11
11714.10162798447
 21
640.4060611609828
 31
0.0
  0
ARC
  5
2BAC7
330
2BF35
100
AcDbEntity
  8
YODOROGO
100
AcDbCircle
 10
11757.71807441852
 20
602.921381733209
 30
0.0
 40
67.53466821599572
100
AcDbArc
 50
268.6284910216979
 51
356.1663845733032
  0
LINE
  5
2BAC8
330
2BF35
100
AcDbEntity
  8
YODOROGO
100
AcDbLine
 10
11756.10162798446
 20
572.9060611609829
 30
0.0
 11
11756.10162798446
 21
535.4060611609829
 31
0.0
  0
ARC
  5
2BAC9
330
2BF35
100
AcDbEntity
  8
YODOROGO
100
AcDbCircle
 10
11756.81927839671
 20
614.1896088816206
 30
0.0
 40
41.28978486885457
100
AcDbArc
 50
269.0041020930593
 51
358.9126445549248
  0
LINE
  5
2BACA
330
2BF35
100
AcDbEntity
  8
YODOROGO
100
AcDbLine
 10
11846.10162798447
 20
535.4060611609829
 30
0.0
 11
11870.10162798447
 21
535.4060611609829
 31
0.0
  0
LINE
  5
2BACB
330
2BF35
100
AcDbEntity
  8
YODOROGO
100
AcDbLine
 10
11825.10162798446
 20
679.4060611609832
 30
0.0
 11
11846.10162798447
 21
679.4060611609832
 31
0.0
  0
LINE
  5
2BACC
330
2BF35
100
AcDbEntity
  8
YODOROGO
100
AcDbLine
 10
11858.10162798446
 20
745.4060611609828
 30
0.0
 11
11798.10162798446
 21
745.4060611609828
 31
0.0
  0
LINE
  5
2BACD
330
2BF35
100
AcDbEntity
  8
YODOROGO
100
AcDbLine
 10
11825.10162798446
 20
718.4060611609829
 30
0.0
 11
11873.10162798447
 21
718.4060611609829
 31
0.0
  0
LINE
  5
2BACE
330
2BF35
100
AcDbEntity
  8
YODOROGO
100
AcDbLine
 10
11888.10162798447
 20
703.4060611609828
 30
0.0
 11
11825.10162798446
 21
703.4060611609828
 31
0.0
  0
LINE
  5
2BACF
330
2BF35
100
AcDbEntity
  8
YODOROGO
100
AcDbLine
 10
11714.10162798447
 20
667.4060611609831
 30
0.0
 11
11756.10162798446
 21
667.4060611609831
 31
0.0
  0
LINE
  5
2BAD0
330
2BF35
100
AcDbEntity
  8
YODOROGO
100
AcDbLine
 10
11714.10162798447
 20
688.4060611609828
 30
0.0
 11
11714.10162798447
 21
667.4060611609831
 31
0.0
  0
LINE
  5
2BAD1
330
2BF35
100
AcDbEntity
  8
YODOROGO
100
AcDbLine
 10
11756.10162798446
 20
688.4060611609828
 30
0.0
 11
11714.10162798447
 21
688.4060611609828
 31
0.0
  0
LINE
  5
2BAD2
330
2BF35
100
AcDbEntity
  8
YODOROGO
100
AcDbLine
 10
11756.10162798446
 20
667.4060611609831
 30
0.0
 11
11756.10162798446
 21
688.4060611609828
 31
0.0
  0
LINE
  5
2BAD3
330
2BF35
100
AcDbEntity
  8
YODOROGO
100
AcDbLine
 10
11825.10162798446
 20
703.4060611609828
 30
0.0
 11
11825.10162798446
 21
718.4060611609829
 31
0.0
  0
LINE
  5
2BAD4
330
2BF35
100
AcDbEntity
  8
YODOROGO
100
AcDbLine
 10
11780.10162798446
 20
640.4060611609828
 30
0.0
 11
11780.10162798446
 21
715.4060611609828
 31
0.0
  0
LINE
  5
2BAD5
330
2BF35
100
AcDbEntity
  8
YODOROGO
100
AcDbLine
 10
11714.10162798447
 20
640.4060611609828
 30
0.0
 11
11780.10162798446
 21
640.4060611609828
 31
0.0
  0
LINE
  5
2BAD6
330
2BF35
100
AcDbEntity
  8
YODOROGO
100
AcDbLine
 10
11780.10162798446
 20
736.4060611609826
 30
0.0
 11
11780.10162798446
 21
760.4060611609829
 31
0.0
  0
ARC
  5
2BAD7
330
2BF35
100
AcDbEntity
  8
YODOROGO
100
AcDbCircle
 10
11858.10162798446
 20
751.4060611609817
 30
0.0
 40
5.999999999997951
100
AcDbArc
 50
270.0
 51
0.0000000000081422
  0
LINE
  5
2BAD8
330
2BF35
100
AcDbEntity
  8
YODOROGO
100
AcDbLine
 10
11864.10162798447
 20
760.4060611609829
 30
0.0
 11
11864.10162798447
 21
751.4060611609826
 31
0.0
  0
LINE
  5
2BAD9
330
2BF35
100
AcDbEntity
  8
YODOROGO
100
AcDbLine
 10
11888.10162798447
 20
760.4060611609829
 30
0.0
 11
11864.10162798447
 21
760.4060611609829
 31
0.0
  0
LINE
  5
2BADA
330
2BF35
100
AcDbEntity
  8
YODOROGO
100
AcDbLine
 10
11888.10162798447
 20
733.4060611609828
 30
0.0
 11
11888.10162798447
 21
760.4060611609829
 31
0.0
  0
ARC
  5
2BADB
330
2BF35
100
AcDbEntity
  8
YODOROGO
100
AcDbCircle
 10
11873.10162798447
 20
733.4060611609828
 30
0.0
 40
15.0
100
AcDbArc
 50
270.0
 51
0.0
  0
LINE
  5
2BADC
330
2BF35
100
AcDbEntity
  8
YODOROGO
100
AcDbLine
 10
11888.10162798447
 20
679.4060611609832
 30
0.0
 11
11888.10162798447
 21
703.4060611609828
 31
0.0
  0
LINE
  5
2BADD
330
2BF35
100
AcDbEntity
  8
YODOROGO
100
AcDbLine
 10
11870.10162798446
 20
679.4060611609832
 30
0.0
 11
11888.10162798447
 21
679.4060611609832
 31
0.0
  0
LINE
  5
2BADE
330
2BF35
100
AcDbEntity
  8
SUNPOU
100
AcDbLine
 10
6215.055546028491
 20
1505.744622954002
 30
0.0
 11
6815.055546028489
 21
1505.744622954002
 31
0.0
  0
LINE
  5
2BADF
330
2BF35
100
AcDbEntity
  8
SUNPOU
100
AcDbLine
 10
6215.055546028491
 20
2255.744622954003
 30
0.0
 11
6815.05554602849
 21
2255.744622954003
 31
0.0
  0
LINE
  5
2BAE0
330
2BF35
100
AcDbEntity
  8
SUNPOU
100
AcDbLine
 10
6770.055546028491
 20
1520.744622954002
 30
0.0
 11
6770.055546028491
 21
2240.744622954002
 31
0.0
  0
LINE
  5
2BAE4
330
2BF35
100
AcDbEntity
  8
SUNPOU
100
AcDbLine
 10
6080.05554602849
 20
1640.744622954002
 30
0.0
 11
6605.055546028491
 21
1640.744622954002
 31
0.0
  0
LINE
  5
2BAE5
330
2BF35
100
AcDbEntity
  8
SUNPOU
100
AcDbLine
 10
6080.05554602849
 20
2120.744622954002
 30
0.0
 11
6605.055546028491
 21
2120.744622954002
 31
0.0
  0
LINE
  5
2BAE6
330
2BF35
100
AcDbEntity
  8
SUNPOU
100
AcDbLine
 10
6560.055546028491
 20
1655.744622954002
 30
0.0
 11
6560.055546028491
 21
2105.744622954002
 31
0.0
  0
LINE
  5
2BAEA
330
2BF35
100
AcDbEntity
  8
SUNPOU
100
AcDbLine
 10
5570.05554602849
 20
1610.744622954003
 30
0.0
 11
5570.05554602849
 21
1035.744622954003
 31
0.0
  0
LINE
  5
2BAEB
330
2BF35
100
AcDbEntity
  8
SUNPOU
100
AcDbLine
 10
6050.055546028492
 20
1610.744622954003
 30
0.0
 11
6050.055546028492
 21
1035.744622954003
 31
0.0
  0
LINE
  5
2BAEC
330
2BF35
100
AcDbEntity
  8
SUNPOU
100
AcDbLine
 10
5585.055546028492
 20
1080.744622954002
 30
0.0
 11
6035.055546028491
 21
1080.744622954002
 31
0.0
  0
LINE
  5
2BAF0
330
2BF35
100
AcDbEntity
  8
SUNPOU
100
AcDbLine
 10
5435.055546028491
 20
1475.744622954002
 30
0.0
 11
5435.055546028491
 21
825.7446229540033
 31
0.0
  0
LINE
  5
2BAF1
330
2BF35
100
AcDbEntity
  8
SUNPOU
100
AcDbLine
 10
6185.055546028491
 20
1475.744622954002
 30
0.0
 11
6185.055546028491
 21
825.7446229540033
 31
0.0
  0
LINE
  5
2BAF2
330
2BF35
100
AcDbEntity
  8
SUNPOU
100
AcDbLine
 10
5450.05554602849
 20
870.7446229540032
 30
0.0
 11
6170.05554602849
 21
870.7446229540032
 31
0.0
  0
ARC
  5
2BAF6
330
2BF35
100
AcDbEntity
  8
SUNPOU
100
AcDbCircle
 10
6115.05554602849
 20
2680.744622954003
 30
0.0
 40
5.625
100
AcDbArc
 50
180.0
 51
0.0
  0
ARC
  5
2BAF7
330
2BF35
100
AcDbEntity
  8
SUNPOU
100
AcDbCircle
 10
6115.05554602849
 20
2680.744622954003
 30
0.0
 40
5.625
100
AcDbArc
 50
0.0
 51
180.0
  0
ARC
  5
2BAF8
330
2BF35
100
AcDbEntity
  8
SUNPOU
100
AcDbCircle
 10
5505.05554602849
 20
2680.744622954003
 30
0.0
 40
5.625
100
AcDbArc
 50
0.0
 51
180.0
  0
ARC
  5
2BAF9
330
2BF35
100
AcDbEntity
  8
SUNPOU
100
AcDbCircle
 10
5505.05554602849
 20
2680.744622954003
 30
0.0
 40
5.625
100
AcDbArc
 50
180.0
 51
0.0
  0
ARC
  5
2BAFA
330
2BF35
100
AcDbEntity
  8
SUNPOU
100
AcDbCircle
 10
5010.055546028485
 20
2160.744622954003
 30
0.0
 40
5.625
100
AcDbArc
 50
270.0
 51
90.0
  0
ARC
  5
2BAFB
330
2BF35
100
AcDbEntity
  8
SUNPOU
100
AcDbCircle
 10
5010.055546028485
 20
2160.744622954003
 30
0.0
 40
5.625
100
AcDbArc
 50
90.0
 51
270.0
  0
ARC
  5
2BAFC
330
2BF35
100
AcDbEntity
  8
SUNPOU
100
AcDbCircle
 10
5010.055546028485
 20
1600.744622954002
 30
0.0
 40
5.625
100
AcDbArc
 50
90.0
 51
270.0
  0
ARC
  5
2BAFD
330
2BF35
100
AcDbEntity
  8
SUNPOU
100
AcDbCircle
 10
5010.055546028485
 20
1600.744622954002
 30
0.0
 40
5.625
100
AcDbArc
 50
270.0
 51
90.0
  0
LINE
  5
2BAFE
330
2BF35
100
AcDbEntity
  8
SUNPOU
100
AcDbLine
 10
10196.0404102775
 20
4868.464770760364
 30
0.0
 11
10196.0404102775
 21
4112.520639852555
 31
0.0
  0
LINE
  5
2BAFF
330
2BF35
100
AcDbEntity
  8
SUNPOU
100
AcDbLine
 10
2196.040410277507
 20
4868.464770760364
 30
0.0
 11
2196.040410277507
 21
4112.520639852555
 31
0.0
  0
LINE
  5
2BB00
330
2BF35
100
AcDbEntity
  8
SUNPOU
100
AcDbLine
 10
10181.04041027749
 20
4157.520639852555
 30
0.0
 11
2211.040410277508
 21
4157.520639852555
 31
0.0
  0
LINE
  5
2BB04
330
2BF35
100
AcDbEntity
  8
SUNPOU
100
AcDbLine
 10
1741.306080631058
 20
2170.744622954003
 30
0.0
 11
1741.306080631058
 21
2725.744622954003
 31
0.0
  0
LINE
  5
2BB05
330
2BF35
100
AcDbEntity
  8
SUNPOU
100
AcDbLine
 10
2221.306080631058
 20
2170.744622954003
 30
0.0
 11
2221.306080631058
 21
2725.744622954003
 31
0.0
  0
LINE
  5
2BB06
330
2BF35
100
AcDbEntity
  8
SUNPOU
100
AcDbLine
 10
1756.306080631058
 20
2680.744622954003
 30
0.0
 11
2206.306080631059
 21
2680.744622954003
 31
0.0
  0
LINE
  5
2BB0A
330
2BF35
100
AcDbEntity
  8
SUNPOU
100
AcDbLine
 10
2436.306080631059
 20
1510.744622954003
 30
0.0
 11
2990.856080631056
 21
1510.744622954002
 31
0.0
  0
LINE
  5
2BB0B
330
2BF35
100
AcDbEntity
  8
SUNPOU
100
AcDbLine
 10
2436.306080631059
 20
1460.744622954003
 30
0.0
 11
2990.856080631056
 21
1460.744622954002
 31
0.0
  0
LINE
  5
2BB0C
330
2BF35
100
AcDbEntity
  8
SUNPOU
100
AcDbLine
 10
2945.856080631056
 20
1525.744622954002
 30
0.0
 11
2945.856080631056
 21
1540.744622954002
 31
0.0
  0
LINE
  5
2BB0D
330
2BF35
100
AcDbEntity
  8
SUNPOU
100
AcDbLine
 10
2945.856080631056
 20
1445.744622954002
 30
0.0
 11
2945.856080631056
 21
1430.744622954003
 31
0.0
  0
LINE
  5
2BB0F
330
2BF35
100
AcDbEntity
  8
SUNPOU
100
AcDbLine
 10
2945.856080631056
 20
1510.744622954002
 30
0.0
 11
2945.856080631056
 21
1460.744622954002
 31
0.0
  0
LINE
  5
2BB12
330
2BF35
100
AcDbEntity
  8
SUNPOU
100
AcDbLine
 10
2436.306080631059
 20
1460.744622954003
 30
0.0
 11
2990.856080631056
 21
1460.744622954002
 31
0.0
  0
LINE
  5
2BB13
330
2BF35
100
AcDbEntity
  8
SUNPOU
100
AcDbLine
 10
2436.306080631059
 20
1360.744622954004
 30
0.0
 11
2990.856080631056
 21
1360.744622954003
 31
0.0
  0
LINE
  5
2BB14
330
2BF35
100
AcDbEntity
  8
SUNPOU
100
AcDbLine
 10
2945.856080631056
 20
1475.744622954002
 30
0.0
 11
2945.856080631056
 21
1490.744622954002
 31
0.0
  0
LINE
  5
2BB15
330
2BF35
100
AcDbEntity
  8
SUNPOU
100
AcDbLine
 10
2945.856080631056
 20
1345.744622954003
 30
0.0
 11
2945.856080631056
 21
1330.744622954003
 31
0.0
  0
LINE
  5
2BB17
330
2BF35
100
AcDbEntity
  8
SUNPOU
100
AcDbLine
 10
2945.856080631056
 20
1460.744622954002
 30
0.0
 11
2945.856080631056
 21
1360.744622954003
 31
0.0
  0
LINE
  5
2BB1A
330
2BF35
100
AcDbEntity
  8
SUNPOU
100
AcDbLine
 10
2754.092880111838
 20
1990.744622954002
 30
0.0
 11
2990.856080631056
 21
1990.744622954002
 31
0.0
  0
LINE
  5
2BB1B
330
2BF35
100
AcDbEntity
  8
SUNPOU
100
AcDbLine
 10
2436.306080631059
 20
1510.744622954003
 30
0.0
 11
2990.856080631056
 21
1510.744622954002
 31
0.0
  0
LINE
  5
2BB1C
330
2BF35
100
AcDbEntity
  8
SUNPOU
100
AcDbLine
 10
2945.856080631056
 20
1975.744622954002
 30
0.0
 11
2945.856080631056
 21
1525.744622954002
 31
0.0
  0
LINE
  5
2BB20
330
2BF35
100
AcDbEntity
  8
SUNPOU
100
AcDbLine
 10
2754.092880111838
 20
1990.744622954002
 30
0.0
 11
2990.856080631056
 21
1990.744622954002
 31
0.0
  0
LINE
  5
2BB21
330
2BF35
100
AcDbEntity
  8
SUNPOU
100
AcDbLine
 10
2754.092880111838
 20
2140.744622954005
 30
0.0
 11
2990.856080631056
 21
2140.744622954005
 31
0.0
  0
LINE
  5
2BB22
330
2BF35
100
AcDbEntity
  8
SUNPOU
100
AcDbLine
 10
2945.856080631056
 20
2005.744622954003
 30
0.0
 11
2945.856080631056
 21
2125.744622954005
 31
0.0
  0
LINE
  5
2BB23
330
2BF35
100
AcDbEntity
  8
SUNPOU
100
AcDbLine
 10
2945.856080631056
 20
2140.744622954005
 30
0.0
 11
2945.856080631056
 21
2391.45890866829
 31
0.0
  0
LINE
  5
2BB27
330
2BF35
100
AcDbEntity
  8
SUNPOU
100
AcDbLine
 10
1606.306080631058
 20
1330.744622954003
 30
0.0
 11
1606.306080631058
 21
825.7446229540033
 31
0.0
  0
LINE
  5
2BB28
330
2BF35
100
AcDbEntity
  8
SUNPOU
100
AcDbLine
 10
2356.306080631059
 20
1330.744622954003
 30
0.0
 11
2356.306080631059
 21
825.7446229540033
 31
0.0
  0
LINE
  5
2BB29
330
2BF35
100
AcDbEntity
  8
SUNPOU
100
AcDbLine
 10
1621.306080631059
 20
870.7446229540032
 30
0.0
 11
2341.306080631059
 21
870.7446229540032
 31
0.0
  0
LINE
  5
2BB2D
330
2BF35
100
AcDbEntity
  8
SUNPOU
100
AcDbLine
 10
2356.306080631059
 20
1330.744622954003
 30
0.0
 11
2356.306080631059
 21
1035.744622954003
 31
0.0
  0
LINE
  5
2BB2E
330
2BF35
100
AcDbEntity
  8
SUNPOU
100
AcDbLine
 10
1981.306080631058
 20
1110.744622954003
 30
0.0
 11
1981.306080631058
 21
1125.744622954003
 31
0.0
  0
LINE
  5
2BB2F
330
2BF35
100
AcDbEntity
  8
SUNPOU
100
AcDbLine
 10
2341.306080631059
 20
1080.744622954002
 30
0.0
 11
1996.306080631059
 21
1080.744622954002
 31
0.0
  0
LINE
  5
2BB33
330
2BF35
100
AcDbEntity
  8
SUNPOU
100
AcDbLine
 10
1606.306080631058
 20
1330.744622954003
 30
0.0
 11
1606.306080631058
 21
1035.744622954003
 31
0.0
  0
LINE
  5
2BB34
330
2BF35
100
AcDbEntity
  8
SUNPOU
100
AcDbLine
 10
1981.306080631058
 20
1110.744622954003
 30
0.0
 11
1981.306080631058
 21
1125.744622954003
 31
0.0
  0
LINE
  5
2BB35
330
2BF35
100
AcDbEntity
  8
SUNPOU
100
AcDbLine
 10
1621.306080631059
 20
1080.744622954002
 30
0.0
 11
1966.306080631057
 21
1080.744622954002
 31
0.0
  0
LINE
  5
2BB39
330
2BF35
100
AcDbEntity
  8
SUNPOU
100
AcDbLine
 10
9956.040410277509
 20
6798.464770760367
 30
0.0
 11
10541.0404102775
 21
6798.464770760365
 31
0.0
  0
LINE
  5
2BB3A
330
2BF35
100
AcDbEntity
  8
SUNPOU
100
AcDbLine
 10
9956.040410277509
 20
6998.464770760364
 30
0.0
 11
10541.0404102775
 21
6998.464770760363
 31
0.0
  0
LINE
  5
2BB3B
330
2BF35
100
AcDbEntity
  8
SUNPOU
100
AcDbLine
 10
10496.0404102775
 20
6813.464770760365
 30
0.0
 11
10496.0404102775
 21
6983.464770760362
 31
0.0
  0
LINE
  5
2BB3F
330
2BF35
100
AcDbEntity
  8
SUNPOU
100
AcDbLine
 10
9956.040410277509
 20
6998.464770760364
 30
0.0
 11
10541.0404102775
 21
6998.464770760363
 31
0.0
  0
LINE
  5
2BB40
330
2BF35
100
AcDbEntity
  8
SUNPOU
100
AcDbLine
 10
10066.04041027749
 20
7138.464770760363
 30
0.0
 11
10541.0404102775
 21
7138.464770760363
 31
0.0
  0
LINE
  5
2BB41
330
2BF35
100
AcDbEntity
  8
SUNPOU
100
AcDbLine
 10
10496.0404102775
 20
7013.464770760363
 30
0.0
 11
10496.0404102775
 21
7123.464770760363
 31
0.0
  0
LINE
  5
2BB42
330
2BF35
100
AcDbEntity
  8
SUNPOU
100
AcDbLine
 10
10496.0404102775
 20
7138.464770760363
 30
0.0
 11
10496.0404102775
 21
7389.179056474649
 31
0.0
  0
LINE
  5
2BB46
330
2BF35
100
AcDbEntity
  8
SUNPOU
100
AcDbLine
 10
9956.040410277509
 20
6798.464770760367
 30
0.0
 11
10541.0404102775
 21
6798.464770760365
 31
0.0
  0
LINE
  5
2BB47
330
2BF35
100
AcDbEntity
  8
SUNPOU
100
AcDbLine
 10
10066.04041027749
 20
6658.464770760367
 30
0.0
 11
10541.0404102775
 21
6658.464770760365
 31
0.0
  0
LINE
  5
2BB48
330
2BF35
100
AcDbEntity
  8
SUNPOU
100
AcDbLine
 10
10496.0404102775
 20
6783.464770760365
 30
0.0
 11
10496.0404102775
 21
6673.464770760365
 31
0.0
  0
LINE
  5
2BB49
330
2BF35
100
AcDbEntity
  8
SUNPOU
100
AcDbLine
 10
10496.0404102775
 20
6658.464770760365
 30
0.0
 11
10496.0404102775
 21
6407.750485046079
 31
0.0
  0
LINE
  5
2BB4D
330
2BF35
100
AcDbEntity
  8
SUNPOU
100
AcDbLine
 10
10066.04041027749
 20
6658.464770760367
 30
0.0
 11
10751.04041027749
 21
6658.464770760365
 31
0.0
  0
LINE
  5
2BB4E
330
2BF35
100
AcDbEntity
  8
SUNPOU
100
AcDbLine
 10
10526.04041027749
 20
6523.464770760367
 30
0.0
 11
10751.04041027749
 21
6523.464770760367
 31
0.0
  0
LINE
  5
2BB4F
330
2BF35
100
AcDbEntity
  8
SUNPOU
100
AcDbLine
 10
10706.04041027749
 20
6643.464770760366
 30
0.0
 11
10706.04041027749
 21
6538.464770760366
 31
0.0
  0
LINE
  5
2BB50
330
2BF35
100
AcDbEntity
  8
SUNPOU
100
AcDbLine
 10
10706.04041027749
 20
6523.464770760367
 30
0.0
 11
10706.04041027749
 21
6272.750485046081
 31
0.0
  0
LINE
  5
2BB54
330
2BF35
100
AcDbEntity
  8
SUNPOU
100
AcDbLine
 10
10066.04041027749
 20
7138.464770760363
 30
0.0
 11
10751.04041027749
 21
7138.464770760363
 31
0.0
  0
LINE
  5
2BB55
330
2BF35
100
AcDbEntity
  8
SUNPOU
100
AcDbLine
 10
10526.04041027749
 20
7273.464770760367
 30
0.0
 11
10751.04041027749
 21
7273.464770760367
 31
0.0
  0
LINE
  5
2BB56
330
2BF35
100
AcDbEntity
  8
SUNPOU
100
AcDbLine
 10
10706.04041027749
 20
7153.464770760362
 30
0.0
 11
10706.04041027749
 21
7258.464770760366
 31
0.0
  0
LINE
  5
2BB57
330
2BF35
100
AcDbEntity
  8
SUNPOU
100
AcDbLine
 10
10706.04041027749
 20
7273.464770760367
 30
0.0
 11
10706.04041027749
 21
7524.179056474652
 31
0.0
  0
LINE
  5
2BB5B
330
2BF35
100
AcDbEntity
  8
SUNPOU
100
AcDbLine
 10
10066.04041027749
 20
6658.464770760367
 30
0.0
 11
10751.04041027749
 21
6658.464770760365
 31
0.0
  0
LINE
  5
2BB5C
330
2BF35
100
AcDbEntity
  8
SUNPOU
100
AcDbLine
 10
10066.04041027749
 20
7138.464770760363
 30
0.0
 11
10751.04041027749
 21
7138.464770760363
 31
0.0
  0
LINE
  5
2BB5D
330
2BF35
100
AcDbEntity
  8
SUNPOU
100
AcDbLine
 10
10706.04041027749
 20
6673.464770760365
 30
0.0
 11
10706.04041027749
 21
7123.464770760363
 31
0.0
  0
LINE
  5
2BB61
330
2BF35
100
AcDbEntity
  8
SUNPOU
100
AcDbLine
 10
9646.490410277513
 20
6898.464770760367
 30
0.0
 11
9076.040410277508
 21
6898.464770760367
 31
0.0
  0
LINE
  5
2BB62
330
2BF35
100
AcDbEntity
  8
SUNPOU
100
AcDbLine
 10
9391.04041027751
 20
7273.464770760367
 30
0.0
 11
9076.040410277508
 21
7273.464770760367
 31
0.0
  0
LINE
  5
2BB63
330
2BF35
100
AcDbEntity
  8
SUNPOU
100
AcDbLine
 10
9121.040410277508
 20
6913.464770760366
 30
0.0
 11
9121.040410277508
 21
7258.464770760366
 31
0.0
  0
LINE
  5
2BB67
330
2BF35
100
AcDbEntity
  8
SUNPOU
100
AcDbLine
 10
9391.04041027751
 20
6523.464770760367
 30
0.0
 11
9076.040410277508
 21
6523.464770760367
 31
0.0
  0
LINE
  5
2BB68
330
2BF35
100
AcDbEntity
  8
SUNPOU
100
AcDbLine
 10
9646.490410277513
 20
6898.464770760367
 30
0.0
 11
9076.040410277508
 21
6898.464770760367
 31
0.0
  0
LINE
  5
2BB69
330
2BF35
100
AcDbEntity
  8
SUNPOU
100
AcDbLine
 10
9121.040410277508
 20
6538.464770760366
 30
0.0
 11
9121.040410277508
 21
6883.464770760366
 31
0.0
  0
LINE
  5
2BB6D
330
2BF35
100
AcDbEntity
  8
SUNPOU
100
AcDbLine
 10
9391.04041027751
 20
7273.464770760367
 30
0.0
 11
8866.040410277509
 21
7273.464770760367
 31
0.0
  0
LINE
  5
2BB6E
330
2BF35
100
AcDbEntity
  8
SUNPOU
100
AcDbLine
 10
9391.04041027751
 20
6523.464770760367
 30
0.0
 11
8866.040410277509
 21
6523.464770760367
 31
0.0
  0
LINE
  5
2BB6F
330
2BF35
100
AcDbEntity
  8
SUNPOU
100
AcDbLine
 10
8911.040410277506
 20
7258.464770760366
 30
0.0
 11
8911.040410277506
 21
6538.464770760366
 31
0.0
  0
LINE
  5
2BB73
330
2BF35
100
AcDbEntity
  8
SUNPOU
100
AcDbLine
 10
9956.040410277509
 20
5398.464770760366
 30
0.0
 11
10541.0404102775
 21
5398.464770760366
 31
0.0
  0
LINE
  5
2BB74
330
2BF35
100
AcDbEntity
  8
SUNPOU
100
AcDbLine
 10
9956.040410277509
 20
5598.464770760362
 30
0.0
 11
10541.0404102775
 21
5598.464770760362
 31
0.0
  0
LINE
  5
2BB75
330
2BF35
100
AcDbEntity
  8
SUNPOU
100
AcDbLine
 10
10496.0404102775
 20
5413.464770760366
 30
0.0
 11
10496.0404102775
 21
5583.464770760363
 31
0.0
  0
LINE
  5
2BB79
330
2BF35
100
AcDbEntity
  8
SUNPOU
100
AcDbLine
 10
9956.040410277509
 20
5598.464770760362
 30
0.0
 11
10541.0404102775
 21
5598.464770760362
 31
0.0
  0
LINE
  5
2BB7A
330
2BF35
100
AcDbEntity
  8
SUNPOU
100
AcDbLine
 10
10066.04041027749
 20
5738.464770760362
 30
0.0
 11
10541.0404102775
 21
5738.464770760362
 31
0.0
  0
LINE
  5
2BB7B
330
2BF35
100
AcDbEntity
  8
SUNPOU
100
AcDbLine
 10
10496.0404102775
 20
5613.464770760362
 30
0.0
 11
10496.0404102775
 21
5723.464770760362
 31
0.0
  0
LINE
  5
2BB7C
330
2BF35
100
AcDbEntity
  8
SUNPOU
100
AcDbLine
 10
10496.0404102775
 20
5738.464770760362
 30
0.0
 11
10496.0404102775
 21
5989.179056474648
 31
0.0
  0
LINE
  5
2BB80
330
2BF35
100
AcDbEntity
  8
SUNPOU
100
AcDbLine
 10
9956.040410277509
 20
5398.464770760366
 30
0.0
 11
10541.0404102775
 21
5398.464770760366
 31
0.0
  0
LINE
  5
2BB81
330
2BF35
100
AcDbEntity
  8
SUNPOU
100
AcDbLine
 10
10066.04041027749
 20
5258.464770760366
 30
0.0
 11
10541.0404102775
 21
5258.464770760365
 31
0.0
  0
LINE
  5
2BB82
330
2BF35
100
AcDbEntity
  8
SUNPOU
100
AcDbLine
 10
10496.0404102775
 20
5383.464770760365
 30
0.0
 11
10496.0404102775
 21
5273.464770760366
 31
0.0
  0
LINE
  5
2BB83
330
2BF35
100
AcDbEntity
  8
SUNPOU
100
AcDbLine
 10
10496.0404102775
 20
5258.464770760365
 30
0.0
 11
10496.0404102775
 21
5007.75048504608
 31
0.0
  0
LINE
  5
2BB87
330
2BF35
100
AcDbEntity
  8
SUNPOU
100
AcDbLine
 10
10066.04041027749
 20
5258.464770760366
 30
0.0
 11
10751.04041027749
 21
5258.464770760365
 31
0.0
  0
LINE
  5
2BB88
330
2BF35
100
AcDbEntity
  8
SUNPOU
100
AcDbLine
 10
10526.04041027749
 20
5123.464770760366
 30
0.0
 11
10751.04041027749
 21
5123.464770760366
 31
0.0
  0
LINE
  5
2BB89
330
2BF35
100
AcDbEntity
  8
SUNPOU
100
AcDbLine
 10
10706.04041027749
 20
5243.464770760365
 30
0.0
 11
10706.04041027749
 21
5138.464770760366
 31
0.0
  0
LINE
  5
2BB8A
330
2BF35
100
AcDbEntity
  8
SUNPOU
100
AcDbLine
 10
10706.04041027749
 20
5123.464770760366
 30
0.0
 11
10706.04041027749
 21
4872.750485046081
 31
0.0
  0
LINE
  5
2BB8E
330
2BF35
100
AcDbEntity
  8
SUNPOU
100
AcDbLine
 10
10066.04041027749
 20
5738.464770760362
 30
0.0
 11
10751.04041027749
 21
5738.464770760362
 31
0.0
  0
LINE
  5
2BB8F
330
2BF35
100
AcDbEntity
  8
SUNPOU
100
AcDbLine
 10
10526.04041027749
 20
5873.464770760366
 30
0.0
 11
10751.04041027749
 21
5873.464770760366
 31
0.0
  0
LINE
  5
2BB90
330
2BF35
100
AcDbEntity
  8
SUNPOU
100
AcDbLine
 10
10706.04041027749
 20
5753.464770760363
 30
0.0
 11
10706.04041027749
 21
5858.464770760367
 31
0.0
  0
LINE
  5
2BB91
330
2BF35
100
AcDbEntity
  8
SUNPOU
100
AcDbLine
 10
10706.04041027749
 20
5873.464770760366
 30
0.0
 11
10706.04041027749
 21
6124.179056474652
 31
0.0
  0
LINE
  5
2BB95
330
2BF35
100
AcDbEntity
  8
SUNPOU
100
AcDbLine
 10
10066.04041027749
 20
5258.464770760366
 30
0.0
 11
10751.04041027749
 21
5258.464770760365
 31
0.0
  0
LINE
  5
2BB96
330
2BF35
100
AcDbEntity
  8
SUNPOU
100
AcDbLine
 10
10066.04041027749
 20
5738.464770760362
 30
0.0
 11
10751.04041027749
 21
5738.464770760362
 31
0.0
  0
LINE
  5
2BB97
330
2BF35
100
AcDbEntity
  8
SUNPOU
100
AcDbLine
 10
10706.04041027749
 20
5273.464770760366
 30
0.0
 11
10706.04041027749
 21
5723.464770760362
 31
0.0
  0
LINE
  5
2BB9B
330
2BF35
100
AcDbEntity
  8
SUNPOU
100
AcDbLine
 10
9646.490410277513
 20
5498.464770760366
 30
0.0
 11
9076.040410277508
 21
5498.464770760366
 31
0.0
  0
LINE
  5
2BB9C
330
2BF35
100
AcDbEntity
  8
SUNPOU
100
AcDbLine
 10
9391.04041027751
 20
5873.464770760366
 30
0.0
 11
9076.040410277508
 21
5873.464770760366
 31
0.0
  0
LINE
  5
2BB9D
330
2BF35
100
AcDbEntity
  8
SUNPOU
100
AcDbLine
 10
9121.040410277508
 20
5513.464770760366
 30
0.0
 11
9121.040410277508
 21
5858.464770760367
 31
0.0
  0
LINE
  5
2BBA1
330
2BF35
100
AcDbEntity
  8
SUNPOU
100
AcDbLine
 10
9391.04041027751
 20
5123.464770760366
 30
0.0
 11
9076.040410277508
 21
5123.464770760366
 31
0.0
  0
LINE
  5
2BBA2
330
2BF35
100
AcDbEntity
  8
SUNPOU
100
AcDbLine
 10
9646.490410277513
 20
5498.464770760366
 30
0.0
 11
9076.040410277508
 21
5498.464770760366
 31
0.0
  0
LINE
  5
2BBA3
330
2BF35
100
AcDbEntity
  8
SUNPOU
100
AcDbLine
 10
9121.040410277508
 20
5138.464770760366
 30
0.0
 11
9121.040410277508
 21
5483.464770760367
 31
0.0
  0
LINE
  5
2BBA7
330
2BF35
100
AcDbEntity
  8
SUNPOU
100
AcDbLine
 10
9391.04041027751
 20
5873.464770760366
 30
0.0
 11
8866.040410277509
 21
5873.464770760366
 31
0.0
  0
LINE
  5
2BBA8
330
2BF35
100
AcDbEntity
  8
SUNPOU
100
AcDbLine
 10
9391.04041027751
 20
5123.464770760366
 30
0.0
 11
8866.040410277509
 21
5123.464770760366
 31
0.0
  0
LINE
  5
2BBA9
330
2BF35
100
AcDbEntity
  8
SUNPOU
100
AcDbLine
 10
8911.040410277506
 20
5858.464770760367
 30
0.0
 11
8911.040410277506
 21
5138.464770760366
 31
0.0
  0
LINE
  5
2BBAD
330
2BF35
100
AcDbEntity
  8
SUNPOU
100
AcDbLine
 10
9796.040410277509
 20
5026.464770760366
 30
0.0
 11
9796.040410277509
 21
4343.464770760363
 31
0.0
  0
LINE
  5
2BBAE
330
2BF35
100
AcDbEntity
  8
SUNPOU
100
AcDbLine
 10
10196.0404102775
 20
4868.464770760364
 30
0.0
 11
10196.0404102775
 21
4343.464770760363
 31
0.0
  0
LINE
  5
2BBAF
330
2BF35
100
AcDbEntity
  8
SUNPOU
100
AcDbLine
 10
9811.040410277508
 20
4388.464770760363
 30
0.0
 11
10181.04041027749
 21
4388.464770760363
 31
0.0
  0
LINE
  5
2BBB3
330
2BF35
100
AcDbEntity
  8
SUNPOU
100
AcDbLine
 10
7396.040410277509
 20
5026.464770760366
 30
0.0
 11
7396.040410277509
 21
4343.464770760363
 31
0.0
  0
LINE
  5
2BBB4
330
2BF35
100
AcDbEntity
  8
SUNPOU
100
AcDbLine
 10
9796.040410277509
 20
5026.464770760366
 30
0.0
 11
9796.040410277509
 21
4343.464770760363
 31
0.0
  0
LINE
  5
2BBB5
330
2BF35
100
AcDbEntity
  8
SUNPOU
100
AcDbLine
 10
7411.040410277507
 20
4388.464770760363
 30
0.0
 11
9781.040410277508
 21
4388.464770760363
 31
0.0
  0
LINE
  5
2BBB9
330
2BF35
100
AcDbEntity
  8
SUNPOU
100
AcDbLine
 10
4996.040410277508
 20
5026.464770760366
 30
0.0
 11
4996.040410277508
 21
4343.464770760363
 31
0.0
  0
LINE
  5
2BBBA
330
2BF35
100
AcDbEntity
  8
SUNPOU
100
AcDbLine
 10
7396.040410277509
 20
5026.464770760366
 30
0.0
 11
7396.040410277509
 21
4343.464770760363
 31
0.0
  0
LINE
  5
2BBBB
330
2BF35
100
AcDbEntity
  8
SUNPOU
100
AcDbLine
 10
5011.040410277509
 20
4388.464770760363
 30
0.0
 11
7381.040410277508
 21
4388.464770760363
 31
0.0
  0
LINE
  5
2BBBF
330
2BF35
100
AcDbEntity
  8
SUNPOU
100
AcDbLine
 10
2596.040410277508
 20
5026.464770760366
 30
0.0
 11
2596.040410277508
 21
4343.464770760363
 31
0.0
  0
LINE
  5
2BBC0
330
2BF35
100
AcDbEntity
  8
SUNPOU
100
AcDbLine
 10
4996.040410277508
 20
5026.464770760366
 30
0.0
 11
4996.040410277508
 21
4343.464770760363
 31
0.0
  0
LINE
  5
2BBC1
330
2BF35
100
AcDbEntity
  8
SUNPOU
100
AcDbLine
 10
2611.040410277507
 20
4388.464770760363
 30
0.0
 11
4981.040410277508
 21
4388.464770760363
 31
0.0
  0
LINE
  5
2BBC5
330
2BF35
100
AcDbEntity
  8
SUNPOU
100
AcDbLine
 10
2196.040410277507
 20
4868.464770760364
 30
0.0
 11
2196.040410277507
 21
4343.464770760363
 31
0.0
  0
LINE
  5
2BBC6
330
2BF35
100
AcDbEntity
  8
SUNPOU
100
AcDbLine
 10
2596.040410277508
 20
5026.464770760366
 30
0.0
 11
2596.040410277508
 21
4343.464770760363
 31
0.0
  0
LINE
  5
2BBC7
330
2BF35
100
AcDbEntity
  8
SUNPOU
100
AcDbLine
 10
2211.040410277508
 20
4388.464770760363
 30
0.0
 11
2581.040410277509
 21
4388.464770760363
 31
0.0
  0
LINE
  5
2BBCB
330
2BF35
100
AcDbEntity
  8
SUNPOU
100
AcDbLine
 10
2446.490410277509
 20
6898.464770760367
 30
0.0
 11
1701.040410277509
 21
6898.464770760367
 31
0.0
  0
LINE
  5
2BBCC
330
2BF35
100
AcDbEntity
  8
SUNPOU
100
AcDbLine
 10
2166.040410277508
 20
7138.464770760363
 30
0.0
 11
1701.040410277509
 21
7138.464770760363
 31
0.0
  0
LINE
  5
2BBCD
330
2BF35
100
AcDbEntity
  8
SUNPOU
100
AcDbLine
 10
1746.040410277509
 20
6913.464770760367
 30
0.0
 11
1746.040410277509
 21
7123.464770760364
 31
0.0
  0
LINE
  5
2BBD1
330
2BF35
100
AcDbEntity
  8
SUNPOU
100
AcDbLine
 10
2446.490410277509
 20
5498.464770760366
 30
0.0
 11
1701.040410277508
 21
5498.464770760367
 31
0.0
  0
LINE
  5
2BBD2
330
2BF35
100
AcDbEntity
  8
SUNPOU
100
AcDbLine
 10
2446.490410277509
 20
6898.464770760367
 30
0.0
 11
1701.040410277508
 21
6898.464770760367
 31
0.0
  0
LINE
  5
2BBD3
330
2BF35
100
AcDbEntity
  8
SUNPOU
100
AcDbLine
 10
1746.040410277507
 20
5513.464770760368
 30
0.0
 11
1746.040410277507
 21
6883.464770760368
 31
0.0
  0
LINE
  5
2BBD7
330
2BF35
100
AcDbEntity
  8
SUNPOU
100
AcDbLine
 10
2166.040410277508
 20
4898.464770760362
 30
0.0
 11
1701.040410277508
 21
4898.464770760363
 31
0.0
  0
LINE
  5
2BBD8
330
2BF35
100
AcDbEntity
  8
SUNPOU
100
AcDbLine
 10
2446.490410277509
 20
5498.464770760366
 30
0.0
 11
1701.040410277508
 21
5498.464770760367
 31
0.0
  0
LINE
  5
2BBD9
330
2BF35
100
AcDbEntity
  8
SUNPOU
100
AcDbLine
 10
1746.040410277507
 20
4913.464770760363
 30
0.0
 11
1746.040410277507
 21
5483.464770760367
 31
0.0
  0
LINE
  5
2BBDD
330
2BF35
100
AcDbEntity
  8
SUNPOU
100
AcDbLine
 10
2166.040410277508
 20
4898.464770760362
 30
0.0
 11
1491.040410277508
 21
4898.464770760363
 31
0.0
  0
LINE
  5
2BBDE
330
2BF35
100
AcDbEntity
  8
SUNPOU
100
AcDbLine
 10
2166.040410277508
 20
7138.464770760363
 30
0.0
 11
1491.040410277508
 21
7138.464770760363
 31
0.0
  0
LINE
  5
2BBDF
330
2BF35
100
AcDbEntity
  8
SUNPOU
100
AcDbLine
 10
1536.040410277506
 20
4913.464770760363
 30
0.0
 11
1536.040410277507
 21
7123.464770760364
 31
0.0
  0
ARC
  5
2BBE3
330
2BF35
100
AcDbEntity
  8
SUNPOU
100
AcDbCircle
 10
10171.04041027749
 20
7883.464770760366
 30
0.0
 40
5.625
100
AcDbArc
 50
0.0
 51
180.0
  0
ARC
  5
2BBE4
330
2BF35
100
AcDbEntity
  8
SUNPOU
100
AcDbCircle
 10
10171.04041027749
 20
7883.464770760366
 30
0.0
 40
5.625
100
AcDbArc
 50
180.0
 51
0.0
  0
ARC
  5
2BBE5
330
2BF35
100
AcDbEntity
  8
SUNPOU
100
AcDbCircle
 10
10171.04041027749
 20
7673.464770760367
 30
0.0
 40
5.625
100
AcDbArc
 50
180.0
 51
0.0
  0
ARC
  5
2BBE6
330
2BF35
100
AcDbEntity
  8
SUNPOU
100
AcDbCircle
 10
10171.04041027749
 20
7673.464770760367
 30
0.0
 40
5.625
100
AcDbArc
 50
0.0
 51
180.0
  0
ARC
  5
2BBE7
330
2BF35
100
AcDbEntity
  8
SUNPOU
100
AcDbCircle
 10
10036.0404102775
 20
7673.464770760367
 30
0.0
 40
5.625
100
AcDbArc
 50
0.0
 51
180.0
  0
ARC
  5
2BBE8
330
2BF35
100
AcDbEntity
  8
SUNPOU
100
AcDbCircle
 10
10036.0404102775
 20
7673.464770760367
 30
0.0
 40
5.625
100
AcDbArc
 50
180.0
 51
0.0
  0
ARC
  5
2BBE9
330
2BF35
100
AcDbEntity
  8
SUNPOU
100
AcDbCircle
 10
10036.0404102775
 20
7673.464770760367
 30
0.0
 40
5.625
100
AcDbArc
 50
0.0
 51
180.0
  0
ARC
  5
2BBEA
330
2BF35
100
AcDbEntity
  8
SUNPOU
100
AcDbCircle
 10
10036.0404102775
 20
7673.464770760367
 30
0.0
 40
5.625
100
AcDbArc
 50
180.0
 51
0.0
  0
ARC
  5
2BBEB
330
2BF35
100
AcDbEntity
  8
SUNPOU
100
AcDbCircle
 10
9896.040410277509
 20
7463.464770760366
 30
0.0
 40
5.625
100
AcDbArc
 50
0.0
 51
180.0
  0
ARC
  5
2BBEC
330
2BF35
100
AcDbEntity
  8
SUNPOU
100
AcDbCircle
 10
9896.040410277509
 20
7463.464770760366
 30
0.0
 40
5.625
100
AcDbArc
 50
180.0
 51
0.0
  0
ARC
  5
2BBED
330
2BF35
100
AcDbEntity
  8
SUNPOU
100
AcDbCircle
 10
9556.040410277509
 20
7673.464770760367
 30
0.0
 40
5.625
100
AcDbArc
 50
180.0
 51
0.0
  0
ARC
  5
2BBEE
330
2BF35
100
AcDbEntity
  8
SUNPOU
100
AcDbCircle
 10
9556.040410277509
 20
7673.464770760367
 30
0.0
 40
5.625
100
AcDbArc
 50
0.0
 51
180.0
  0
ARC
  5
2BBEF
330
2BF35
100
AcDbEntity
  8
SUNPOU
100
AcDbCircle
 10
9556.040410277509
 20
7673.464770760367
 30
0.0
 40
5.625
100
AcDbArc
 50
180.0
 51
0.0
  0
ARC
  5
2BBF0
330
2BF35
100
AcDbEntity
  8
SUNPOU
100
AcDbCircle
 10
9556.040410277509
 20
7673.464770760367
 30
0.0
 40
5.625
100
AcDbArc
 50
0.0
 51
180.0
  0
ARC
  5
2BBF1
330
2BF35
100
AcDbEntity
  8
SUNPOU
100
AcDbCircle
 10
9421.040410277509
 20
7883.464770760366
 30
0.0
 40
5.625
100
AcDbArc
 50
180.0
 51
0.0
  0
ARC
  5
2BBF2
330
2BF35
100
AcDbEntity
  8
SUNPOU
100
AcDbCircle
 10
9421.040410277509
 20
7883.464770760366
 30
0.0
 40
5.625
100
AcDbArc
 50
0.0
 51
180.0
  0
ARC
  5
2BBF3
330
2BF35
100
AcDbEntity
  8
SUNPOU
100
AcDbCircle
 10
9421.040410277509
 20
7673.464770760367
 30
0.0
 40
5.625
100
AcDbArc
 50
0.0
 51
180.0
  0
ARC
  5
2BBF4
330
2BF35
100
AcDbEntity
  8
SUNPOU
100
AcDbCircle
 10
9421.040410277509
 20
7673.464770760367
 30
0.0
 40
5.625
100
AcDbArc
 50
180.0
 51
0.0
  0
ARC
  5
2BBF5
330
2BF35
100
AcDbEntity
  8
SUNPOU
100
AcDbCircle
 10
9696.040410277509
 20
7463.464770760366
 30
0.0
 40
5.625
100
AcDbArc
 50
180.0
 51
0.0
  0
ARC
  5
2BBF6
330
2BF35
100
AcDbEntity
  8
SUNPOU
100
AcDbCircle
 10
9696.040410277509
 20
7463.464770760366
 30
0.0
 40
5.625
100
AcDbArc
 50
0.0
 51
180.0
  0
LINE
  5
2BBF7
330
2BF35
100
AcDbEntity
  8
SUNPOU
100
AcDbLine
 10
1458.664361557388
 20
2200.744622954001
 30
0.0
 11
1562.587410011521
 21
2200.744622954001
 31
0.0
  0
LINE
  5
2BBF8
330
2BF35
100
AcDbEntity
  8
SUNPOU
100
AcDbLine
 10
1562.587410011521
 20
2200.744622954001
 30
0.0
 11
1510.625885784455
 21
2110.744622954003
 31
0.0
  0
LINE
  5
2BBF9
330
2BF35
100
AcDbEntity
  8
SUNPOU
100
AcDbLine
 10
1510.625885784455
 20
2110.744622954003
 30
0.0
 11
1458.664361557388
 21
2200.744622954001
 31
0.0
  0
LINE
  5
2BBFA
330
2BF35
100
AcDbEntity
  8
SUNPOU
100
AcDbLine
 10
2520.012178936216
 20
2230.744622954003
 30
0.0
 11
2468.05065470915
 21
2140.744622954004
 31
0.0
  0
LINE
  5
2BBFB
330
2BF35
100
AcDbEntity
  8
SUNPOU
100
AcDbLine
 10
2468.05065470915
 20
2140.744622954004
 30
0.0
 11
2416.089130482084
 21
2230.744622954003
 31
0.0
  0
LINE
  5
2BBFC
330
2BF35
100
AcDbEntity
  8
SUNPOU
100
AcDbLine
 10
2416.089130482084
 20
2230.744622954003
 30
0.0
 11
2520.012178936216
 21
2230.744622954003
 31
0.0
  0
TEXT
  5
2BBFD
330
2BF35
100
AcDbEntity
  8
SUNPOU
100
AcDbText
 10
6725.05554602849
 20
1795.030337239716
 30
0.0
 40
90.0
  1
750
 50
90.0
 41
0.6666666666666666
  7
00
100
AcDbText
  0
LINE
  5
2BBFF
330
2BF35
100
AcDbEntity
  8
SUNPOU
100
AcDbLine
 10
6770.055546028491
 20
2244.494622954002
 30
0.0
 11
6770.055546028491
 21
2233.244622954003
 31
0.0
  0
LINE
  5
2BC01
330
2BF35
100
AcDbEntity
  8
SUNPOU
100
AcDbLine
 10
6770.055546028491
 20
1516.994622954002
 30
0.0
 11
6770.055546028491
 21
1528.244622954002
 31
0.0
  0
TEXT
  5
2BC02
330
2BF35
100
AcDbEntity
  8
SUNPOU
100
AcDbText
 10
6515.055546028489
 20
1795.030337239716
 30
0.0
 40
90.0
  1
480
 50
90.0
 41
0.6666666666666666
  7
00
100
AcDbText
  0
LINE
  5
2BC04
330
2BF35
100
AcDbEntity
  8
SUNPOU
100
AcDbLine
 10
6560.055546028491
 20
2109.494622954002
 30
0.0
 11
6560.055546028491
 21
2098.244622954001
 31
0.0
  0
LINE
  5
2BC06
330
2BF35
100
AcDbEntity
  8
SUNPOU
100
AcDbLine
 10
6560.055546028491
 20
1651.994622954003
 30
0.0
 11
6560.055546028491
 21
1663.244622954002
 31
0.0
  0
TEXT
  5
2BC07
330
2BF35
100
AcDbEntity
  8
SUNPOU
100
AcDbText
 10
5724.341260314205
 20
1125.744622954003
 30
0.0
 40
90.0
  1
480
 41
0.6666666666666666
  7
00
100
AcDbText
  0
LINE
  5
2BC09
330
2BF35
100
AcDbEntity
  8
SUNPOU
100
AcDbLine
 10
6038.80554602849
 20
1080.744622954002
 30
0.0
 11
6027.555546028491
 21
1080.744622954002
 31
0.0
  0
LINE
  5
2BC0B
330
2BF35
100
AcDbEntity
  8
SUNPOU
100
AcDbLine
 10
5581.305546028492
 20
1080.744622954002
 30
0.0
 11
5592.55554602849
 21
1080.744622954002
 31
0.0
  0
TEXT
  5
2BC0C
330
2BF35
100
AcDbEntity
  8
SUNPOU
100
AcDbText
 10
5724.341260314205
 20
915.7446229540033
 30
0.0
 40
90.0
  1
750
 41
0.6666666666666666
  7
00
100
AcDbText
  0
LINE
  5
2BC0E
330
2BF35
100
AcDbEntity
  8
SUNPOU
100
AcDbLine
 10
6173.80554602849
 20
870.7446229540032
 30
0.0
 11
6162.555546028491
 21
870.7446229540032
 31
0.0
  0
LINE
  5
2BC10
330
2BF35
100
AcDbEntity
  8
SUNPOU
100
AcDbLine
 10
5446.30554602849
 20
870.7446229540032
 30
0.0
 11
5457.555546028491
 21
870.7446229540032
 31
0.0
  0
TEXT
  5
2BC11
330
2BF35
100
AcDbEntity
  8
SUNPOU
100
AcDbText
 10
5732.326124563219
 20
4202.520639852555
 30
0.0
 40
90.0
  1
L = 2400 x N + 800
 41
0.6666666666666666
  7
00
100
AcDbText
  0
LINE
  5
2BC13
330
2BF35
100
AcDbEntity
  8
SUNPOU
100
AcDbLine
 10
2207.290410277507
 20
4157.520639852555
 30
0.0
 11
2218.540410277507
 21
4157.520639852555
 31
0.0
  0
LINE
  5
2BC15
330
2BF35
100
AcDbEntity
  8
SUNPOU
100
AcDbLine
 10
10184.79041027749
 20
4157.520639852555
 30
0.0
 11
10173.54041027749
 21
4157.520639852555
 31
0.0
  0
TEXT
  5
2BC16
330
2BF35
100
AcDbEntity
  8
SUNPOU
100
AcDbText
 10
1895.591794916773
 20
2725.744622954003
 30
0.0
 40
90.0
  1
480
 41
0.6666666666666666
  7
00
100
AcDbText
  0
LINE
  5
2BC18
330
2BF35
100
AcDbEntity
  8
SUNPOU
100
AcDbLine
 10
2210.056080631058
 20
2680.744622954003
 30
0.0
 11
2198.806080631058
 21
2680.744622954003
 31
0.0
  0
LINE
  5
2BC1A
330
2BF35
100
AcDbEntity
  8
SUNPOU
100
AcDbLine
 10
1752.556080631058
 20
2680.744622954003
 30
0.0
 11
1763.806080631058
 21
2680.744622954003
 31
0.0
  0
LINE
  5
2BC1C
330
2BF35
100
AcDbEntity
  8
SUNPOU
100
AcDbLine
 10
2945.856080631056
 20
1449.494622954002
 30
0.0
 11
2945.856080631056
 21
1438.244622954002
 31
0.0
  0
LINE
  5
2BC1E
330
2BF35
100
AcDbEntity
  8
SUNPOU
100
AcDbLine
 10
2945.856080631056
 20
1521.994622954002
 30
0.0
 11
2945.856080631056
 21
1533.244622954002
 31
0.0
  0
TEXT
  5
2BC1F
330
2BF35
100
AcDbEntity
  8
SUNPOU
100
AcDbText
 10
3102.998619794345
 20
1428.601765811145
 30
0.0
 40
90.0
  1
50
 50
90.0
 41
0.6666666666666666
  7
00
100
AcDbText
  0
LINE
  5
2BC21
330
2BF35
100
AcDbEntity
  8
SUNPOU
100
AcDbLine
 10
2945.856080631056
 20
1349.494622954003
 30
0.0
 11
2945.856080631056
 21
1338.244622954003
 31
0.0
  0
LINE
  5
2BC23
330
2BF35
100
AcDbEntity
  8
SUNPOU
100
AcDbLine
 10
2945.856080631056
 20
1471.994622954002
 30
0.0
 11
2945.856080631056
 21
1483.244622954002
 31
0.0
  0
TEXT
  5
2BC24
330
2BF35
100
AcDbEntity
  8
SUNPOU
100
AcDbText
 10
2900.856080631056
 20
1166.662736498127
 30
0.0
 40
90.0
  1
100
 50
90.0
 41
0.6666666666666666
  7
00
100
AcDbText
  0
TEXT
  5
2BC25
330
2BF35
100
AcDbEntity
  8
SUNPOU
100
AcDbText
 10
2900.856080631056
 20
1665.030337239717
 30
0.0
 40
90.0
  1
480
 50
90.0
 41
0.6666666666666666
  7
00
100
AcDbText
  0
LINE
  5
2BC27
330
2BF35
100
AcDbEntity
  8
SUNPOU
100
AcDbLine
 10
2945.856080631056
 20
1521.994622954002
 30
0.0
 11
2945.856080631056
 21
1533.244622954002
 31
0.0
  0
LINE
  5
2BC29
330
2BF35
100
AcDbEntity
  8
SUNPOU
100
AcDbLine
 10
2945.856080631056
 20
1979.494622954002
 30
0.0
 11
2945.856080631056
 21
1968.244622954002
 31
0.0
  0
TEXT
  5
2BC2A
330
2BF35
100
AcDbEntity
  8
SUNPOU
100
AcDbText
 10
2900.856080631056
 20
2183.601765811148
 30
0.0
 40
90.0
  1
150
 50
90.0
 41
0.6666666666666666
  7
00
100
AcDbText
  0
LINE
  5
2BC2C
330
2BF35
100
AcDbEntity
  8
SUNPOU
100
AcDbLine
 10
2945.856080631056
 20
2129.494622954005
 30
0.0
 11
2945.856080631056
 21
2118.244622954005
 31
0.0
  0
LINE
  5
2BC2E
330
2BF35
100
AcDbEntity
  8
SUNPOU
100
AcDbLine
 10
2945.856080631056
 20
2001.994622954002
 30
0.0
 11
2945.856080631056
 21
2013.244622954002
 31
0.0
  0
TEXT
  5
2BC2F
330
2BF35
100
AcDbEntity
  8
SUNPOU
100
AcDbText
 10
1895.591794916773
 20
915.7446229540033
 30
0.0
 40
90.0
  1
750
 41
0.6666666666666666
  7
00
100
AcDbText
  0
LINE
  5
2BC31
330
2BF35
100
AcDbEntity
  8
SUNPOU
100
AcDbLine
 10
2345.056080631059
 20
870.7446229540032
 30
0.0
 11
2333.806080631059
 21
870.7446229540032
 31
0.0
  0
LINE
  5
2BC33
330
2BF35
100
AcDbEntity
  8
SUNPOU
100
AcDbLine
 10
1617.556080631057
 20
870.7446229540032
 30
0.0
 11
1628.806080631058
 21
870.7446229540032
 31
0.0
  0
TEXT
  5
2BC34
330
2BF35
100
AcDbEntity
  8
SUNPOU
100
AcDbText
 10
2083.091794916773
 20
1125.744622954003
 30
0.0
 40
90.0
  1
375
 41
0.6666666666666666
  7
00
100
AcDbText
  0
LINE
  5
2BC36
330
2BF35
100
AcDbEntity
  8
SUNPOU
100
AcDbLine
 10
1992.556080631058
 20
1080.744622954002
 30
0.0
 11
2003.806080631059
 21
1080.744622954002
 31
0.0
  0
LINE
  5
2BC38
330
2BF35
100
AcDbEntity
  8
SUNPOU
100
AcDbLine
 10
2345.056080631059
 20
1080.744622954002
 30
0.0
 11
2333.806080631059
 21
1080.744622954002
 31
0.0
  0
TEXT
  5
2BC39
330
2BF35
100
AcDbEntity
  8
SUNPOU
100
AcDbText
 10
1708.091794916773
 20
1125.744622954003
 30
0.0
 40
90.0
  1
375
 41
0.6666666666666666
  7
00
100
AcDbText
  0
LINE
  5
2BC3B
330
2BF35
100
AcDbEntity
  8
SUNPOU
100
AcDbLine
 10
1970.056080631058
 20
1080.744622954002
 30
0.0
 11
1958.806080631059
 21
1080.744622954002
 31
0.0
  0
LINE
  5
2BC3D
330
2BF35
100
AcDbEntity
  8
SUNPOU
100
AcDbLine
 10
1617.556080631057
 20
1080.744622954002
 30
0.0
 11
1628.806080631058
 21
1080.744622954002
 31
0.0
  0
TEXT
  5
2BC3E
330
2BF35
100
AcDbEntity
  8
SUNPOU
100
AcDbText
 10
10451.04041027749
 20
6812.75048504608
 30
0.0
 40
90.0
  1
200
 50
90.0
 41
0.6666666666666666
  7
00
100
AcDbText
  0
LINE
  5
2BC40
330
2BF35
100
AcDbEntity
  8
SUNPOU
100
AcDbLine
 10
10496.0404102775
 20
6987.214770760363
 30
0.0
 11
10496.0404102775
 21
6975.964770760363
 31
0.0
  0
LINE
  5
2BC42
330
2BF35
100
AcDbEntity
  8
SUNPOU
100
AcDbLine
 10
10496.0404102775
 20
6809.714770760365
 30
0.0
 11
10496.0404102775
 21
6820.964770760365
 31
0.0
  0
TEXT
  5
2BC43
330
2BF35
100
AcDbEntity
  8
SUNPOU
100
AcDbText
 10
10451.04041027749
 20
7181.321913617509
 30
0.0
 40
90.0
  1
140
 50
90.0
 41
0.6666666666666666
  7
00
100
AcDbText
  0
LINE
  5
2BC45
330
2BF35
100
AcDbEntity
  8
SUNPOU
100
AcDbLine
 10
10496.0404102775
 20
7127.214770760362
 30
0.0
 11
10496.0404102775
 21
7115.964770760363
 31
0.0
  0
LINE
  5
2BC47
330
2BF35
100
AcDbEntity
  8
SUNPOU
100
AcDbLine
 10
10496.0404102775
 20
7009.714770760362
 30
0.0
 11
10496.0404102775
 21
7020.964770760362
 31
0.0
  0
TEXT
  5
2BC48
330
2BF35
100
AcDbEntity
  8
SUNPOU
100
AcDbText
 10
10451.04041027749
 20
6435.607627903222
 30
0.0
 40
90.0
  1
140
 50
90.0
 41
0.6666666666666666
  7
00
100
AcDbText
  0
LINE
  5
2BC4A
330
2BF35
100
AcDbEntity
  8
SUNPOU
100
AcDbLine
 10
10496.0404102775
 20
6669.714770760363
 30
0.0
 11
10496.0404102775
 21
6680.964770760366
 31
0.0
  0
LINE
  5
2BC4C
330
2BF35
100
AcDbEntity
  8
SUNPOU
100
AcDbLine
 10
10496.0404102775
 20
6787.214770760366
 30
0.0
 11
10496.0404102775
 21
6775.964770760364
 31
0.0
  0
TEXT
  5
2BC4D
330
2BF35
100
AcDbEntity
  8
SUNPOU
100
AcDbText
 10
10661.0404102775
 20
6300.607627903225
 30
0.0
 40
90.0
  1
135
 50
90.0
 41
0.6666666666666666
  7
00
100
AcDbText
  0
LINE
  5
2BC4F
330
2BF35
100
AcDbEntity
  8
SUNPOU
100
AcDbLine
 10
10706.04041027749
 20
6534.714770760366
 30
0.0
 11
10706.04041027749
 21
6545.964770760368
 31
0.0
  0
LINE
  5
2BC51
330
2BF35
100
AcDbEntity
  8
SUNPOU
100
AcDbLine
 10
10706.04041027749
 20
6647.214770760365
 30
0.0
 11
10706.04041027749
 21
6635.964770760367
 31
0.0
  0
TEXT
  5
2BC52
330
2BF35
100
AcDbEntity
  8
SUNPOU
100
AcDbText
 10
10661.0404102775
 20
7316.321913617511
 30
0.0
 40
90.0
  1
135
 50
90.0
 41
0.6666666666666666
  7
00
100
AcDbText
  0
LINE
  5
2BC54
330
2BF35
100
AcDbEntity
  8
SUNPOU
100
AcDbLine
 10
10706.04041027749
 20
7262.214770760365
 30
0.0
 11
10706.04041027749
 21
7250.964770760366
 31
0.0
  0
LINE
  5
2BC56
330
2BF35
100
AcDbEntity
  8
SUNPOU
100
AcDbLine
 10
10706.04041027749
 20
7149.714770760363
 30
0.0
 11
10706.04041027749
 21
7160.964770760362
 31
0.0
  0
TEXT
  5
2BC57
330
2BF35
100
AcDbEntity
  8
SUNPOU
100
AcDbText
 10
10661.0404102775
 20
6812.75048504608
 30
0.0
 40
90.0
  1
480
 50
90.0
 41
0.6666666666666666
  7
00
100
AcDbText
  0
LINE
  5
2BC59
330
2BF35
100
AcDbEntity
  8
SUNPOU
100
AcDbLine
 10
10706.04041027749
 20
7127.214770760362
 30
0.0
 11
10706.04041027749
 21
7115.964770760363
 31
0.0
  0
LINE
  5
2BC5B
330
2BF35
100
AcDbEntity
  8
SUNPOU
100
AcDbLine
 10
10706.04041027749
 20
6669.714770760363
 30
0.0
 11
10706.04041027749
 21
6680.964770760366
 31
0.0
  0
TEXT
  5
2BC5C
330
2BF35
100
AcDbEntity
  8
SUNPOU
100
AcDbText
 10
9076.040410277506
 20
7000.250485046082
 30
0.0
 40
90.0
  1
375
 50
90.0
 41
0.6666666666666666
  7
00
100
AcDbText
  0
LINE
  5
2BC5E
330
2BF35
100
AcDbEntity
  8
SUNPOU
100
AcDbLine
 10
9121.040410277508
 20
7262.214770760365
 30
0.0
 11
9121.040410277508
 21
7250.964770760366
 31
0.0
  0
LINE
  5
2BC60
330
2BF35
100
AcDbEntity
  8
SUNPOU
100
AcDbLine
 10
9121.040410277508
 20
6909.714770760366
 30
0.0
 11
9121.040410277508
 21
6920.964770760368
 31
0.0
  0
TEXT
  5
2BC61
330
2BF35
100
AcDbEntity
  8
SUNPOU
100
AcDbText
 10
9076.040410277506
 20
6625.250485046082
 30
0.0
 40
90.0
  1
375
 50
90.0
 41
0.6666666666666666
  7
00
100
AcDbText
  0
LINE
  5
2BC63
330
2BF35
100
AcDbEntity
  8
SUNPOU
100
AcDbLine
 10
9121.040410277508
 20
6887.214770760365
 30
0.0
 11
9121.040410277508
 21
6875.964770760366
 31
0.0
  0
LINE
  5
2BC65
330
2BF35
100
AcDbEntity
  8
SUNPOU
100
AcDbLine
 10
9121.040410277508
 20
6534.714770760366
 30
0.0
 11
9121.040410277508
 21
6545.964770760368
 31
0.0
  0
TEXT
  5
2BC66
330
2BF35
100
AcDbEntity
  8
SUNPOU
100
AcDbText
 10
8866.040410277506
 20
6812.750485046082
 30
0.0
 40
90.0
  1
750
 50
90.0
 41
0.6666666666666666
  7
00
100
AcDbText
  0
LINE
  5
2BC68
330
2BF35
100
AcDbEntity
  8
SUNPOU
100
AcDbLine
 10
8911.040410277506
 20
6534.714770760366
 30
0.0
 11
8911.040410277506
 21
6545.964770760368
 31
0.0
  0
LINE
  5
2BC6A
330
2BF35
100
AcDbEntity
  8
SUNPOU
100
AcDbLine
 10
8911.040410277506
 20
7262.214770760365
 30
0.0
 11
8911.040410277506
 21
7250.964770760366
 31
0.0
  0
TEXT
  5
2BC6B
330
2BF35
100
AcDbEntity
  8
SUNPOU
100
AcDbText
 10
10451.04041027749
 20
5412.750485046081
 30
0.0
 40
90.0
  1
200
 50
90.0
 41
0.6666666666666666
  7
00
100
AcDbText
  0
LINE
  5
2BC6D
330
2BF35
100
AcDbEntity
  8
SUNPOU
100
AcDbLine
 10
10496.0404102775
 20
5587.214770760363
 30
0.0
 11
10496.0404102775
 21
5575.964770760363
 31
0.0
  0
LINE
  5
2BC6F
330
2BF35
100
AcDbEntity
  8
SUNPOU
100
AcDbLine
 10
10496.0404102775
 20
5409.714770760365
 30
0.0
 11
10496.0404102775
 21
5420.964770760367
 31
0.0
  0
TEXT
  5
2BC70
330
2BF35
100
AcDbEntity
  8
SUNPOU
100
AcDbText
 10
10451.04041027749
 20
5781.321913617508
 30
0.0
 40
90.0
  1
140
 50
90.0
 41
0.6666666666666666
  7
00
100
AcDbText
  0
LINE
  5
2BC72
330
2BF35
100
AcDbEntity
  8
SUNPOU
100
AcDbLine
 10
10496.0404102775
 20
5727.214770760363
 30
0.0
 11
10496.0404102775
 21
5715.964770760362
 31
0.0
  0
LINE
  5
2BC74
330
2BF35
100
AcDbEntity
  8
SUNPOU
100
AcDbLine
 10
10496.0404102775
 20
5609.714770760362
 30
0.0
 11
10496.0404102775
 21
5620.964770760362
 31
0.0
  0
TEXT
  5
2BC75
330
2BF35
100
AcDbEntity
  8
SUNPOU
100
AcDbText
 10
10451.04041027749
 20
5035.607627903225
 30
0.0
 40
90.0
  1
140
 50
90.0
 41
0.6666666666666666
  7
00
100
AcDbText
  0
LINE
  5
2BC77
330
2BF35
100
AcDbEntity
  8
SUNPOU
100
AcDbLine
 10
10496.0404102775
 20
5269.714770760366
 30
0.0
 11
10496.0404102775
 21
5280.964770760365
 31
0.0
  0
LINE
  5
2BC79
330
2BF35
100
AcDbEntity
  8
SUNPOU
100
AcDbLine
 10
10496.0404102775
 20
5387.214770760365
 30
0.0
 11
10496.0404102775
 21
5375.964770760365
 31
0.0
  0
TEXT
  5
2BC7A
330
2BF35
100
AcDbEntity
  8
SUNPOU
100
AcDbText
 10
10661.0404102775
 20
4900.607627903225
 30
0.0
 40
90.0
  1
135
 50
90.0
 41
0.6666666666666666
  7
00
100
AcDbText
  0
LINE
  5
2BC7C
330
2BF35
100
AcDbEntity
  8
SUNPOU
100
AcDbLine
 10
10706.04041027749
 20
5134.714770760366
 30
0.0
 11
10706.04041027749
 21
5145.964770760366
 31
0.0
  0
LINE
  5
2BC7E
330
2BF35
100
AcDbEntity
  8
SUNPOU
100
AcDbLine
 10
10706.04041027749
 20
5247.214770760365
 30
0.0
 11
10706.04041027749
 21
5235.964770760365
 31
0.0
  0
TEXT
  5
2BC7F
330
2BF35
100
AcDbEntity
  8
SUNPOU
100
AcDbText
 10
10661.0404102775
 20
5916.321913617512
 30
0.0
 40
90.0
  1
135
 50
90.0
 41
0.6666666666666666
  7
00
100
AcDbText
  0
LINE
  5
2BC81
330
2BF35
100
AcDbEntity
  8
SUNPOU
100
AcDbLine
 10
10706.04041027749
 20
5862.214770760367
 30
0.0
 11
10706.04041027749
 21
5850.964770760366
 31
0.0
  0
LINE
  5
2BC83
330
2BF35
100
AcDbEntity
  8
SUNPOU
100
AcDbLine
 10
10706.04041027749
 20
5749.714770760363
 30
0.0
 11
10706.04041027749
 21
5760.964770760363
 31
0.0
  0
TEXT
  5
2BC84
330
2BF35
100
AcDbEntity
  8
SUNPOU
100
AcDbText
 10
10661.0404102775
 20
5412.750485046081
 30
0.0
 40
90.0
  1
480
 50
90.0
 41
0.6666666666666666
  7
00
100
AcDbText
  0
LINE
  5
2BC86
330
2BF35
100
AcDbEntity
  8
SUNPOU
100
AcDbLine
 10
10706.04041027749
 20
5727.214770760363
 30
0.0
 11
10706.04041027749
 21
5715.964770760362
 31
0.0
  0
LINE
  5
2BC88
330
2BF35
100
AcDbEntity
  8
SUNPOU
100
AcDbLine
 10
10706.04041027749
 20
5269.714770760366
 30
0.0
 11
10706.04041027749
 21
5280.964770760365
 31
0.0
  0
TEXT
  5
2BC89
330
2BF35
100
AcDbEntity
  8
SUNPOU
100
AcDbText
 10
9076.040410277506
 20
5600.250485046082
 30
0.0
 40
90.0
  1
375
 50
90.0
 41
0.6666666666666666
  7
00
100
AcDbText
  0
LINE
  5
2BC8B
330
2BF35
100
AcDbEntity
  8
SUNPOU
100
AcDbLine
 10
9121.040410277508
 20
5862.214770760367
 30
0.0
 11
9121.040410277508
 21
5850.964770760366
 31
0.0
  0
LINE
  5
2BC8D
330
2BF35
100
AcDbEntity
  8
SUNPOU
100
AcDbLine
 10
9121.040410277508
 20
5509.714770760366
 30
0.0
 11
9121.040410277508
 21
5520.964770760366
 31
0.0
  0
TEXT
  5
2BC8E
330
2BF35
100
AcDbEntity
  8
SUNPOU
100
AcDbText
 10
9076.040410277506
 20
5225.250485046082
 30
0.0
 40
90.0
  1
375
 50
90.0
 41
0.6666666666666666
  7
00
100
AcDbText
  0
LINE
  5
2BC90
330
2BF35
100
AcDbEntity
  8
SUNPOU
100
AcDbLine
 10
9121.040410277508
 20
5487.214770760367
 30
0.0
 11
9121.040410277508
 21
5475.964770760366
 31
0.0
  0
LINE
  5
2BC92
330
2BF35
100
AcDbEntity
  8
SUNPOU
100
AcDbLine
 10
9121.040410277508
 20
5134.714770760366
 30
0.0
 11
9121.040410277508
 21
5145.964770760366
 31
0.0
  0
TEXT
  5
2BC93
330
2BF35
100
AcDbEntity
  8
SUNPOU
100
AcDbText
 10
8866.040410277506
 20
5412.750485046082
 30
0.0
 40
90.0
  1
750
 50
90.0
 41
0.6666666666666666
  7
00
100
AcDbText
  0
LINE
  5
2BC95
330
2BF35
100
AcDbEntity
  8
SUNPOU
100
AcDbLine
 10
8911.040410277506
 20
5134.714770760366
 30
0.0
 11
8911.040410277506
 21
5145.964770760366
 31
0.0
  0
LINE
  5
2BC97
330
2BF35
100
AcDbEntity
  8
SUNPOU
100
AcDbLine
 10
8911.040410277506
 20
5862.214770760367
 30
0.0
 11
8911.040410277506
 21
5850.964770760366
 31
0.0
  0
TEXT
  5
2BC98
330
2BF35
100
AcDbEntity
  8
SUNPOU
100
AcDbText
 10
9910.326124563219
 20
4433.464770760363
 30
0.0
 40
90.0
  1
400
 41
0.6666666666666666
  7
00
100
AcDbText
  0
LINE
  5
2BC9A
330
2BF35
100
AcDbEntity
  8
SUNPOU
100
AcDbLine
 10
10184.79041027749
 20
4388.464770760363
 30
0.0
 11
10173.54041027749
 21
4388.464770760363
 31
0.0
  0
LINE
  5
2BC9C
330
2BF35
100
AcDbEntity
  8
SUNPOU
100
AcDbLine
 10
9807.290410277509
 20
4388.464770760363
 30
0.0
 11
9818.540410277508
 21
4388.464770760363
 31
0.0
  0
TEXT
  5
2BC9D
330
2BF35
100
AcDbEntity
  8
SUNPOU
100
AcDbText
 10
8481.754695991794
 20
4433.464770760363
 30
0.0
 40
90.0
  1
2400
 41
0.6666666666666666
  7
00
100
AcDbText
  0
LINE
  5
2BC9F
330
2BF35
100
AcDbEntity
  8
SUNPOU
100
AcDbLine
 10
9784.790410277508
 20
4388.464770760363
 30
0.0
 11
9773.540410277508
 21
4388.464770760363
 31
0.0
  0
LINE
  5
2BCA1
330
2BF35
100
AcDbEntity
  8
SUNPOU
100
AcDbLine
 10
7407.290410277508
 20
4388.464770760363
 30
0.0
 11
7418.540410277508
 21
4388.464770760363
 31
0.0
  0
TEXT
  5
2BCA2
330
2BF35
100
AcDbEntity
  8
SUNPOU
100
AcDbText
 10
5806.326124563224
 20
4433.464770760363
 30
0.0
 40
90.0
  1
2400 ×（ N - 2 ）
 41
0.6666666666666666
  7
00
100
AcDbText
  0
LINE
  5
2BCA4
330
2BF35
100
AcDbEntity
  8
SUNPOU
100
AcDbLine
 10
7384.790410277509
 20
4388.464770760363
 30
0.0
 11
7373.540410277508
 21
4388.464770760363
 31
0.0
  0
LINE
  5
2BCA6
330
2BF35
100
AcDbEntity
  8
SUNPOU
100
AcDbLine
 10
5007.290410277509
 20
4388.464770760363
 30
0.0
 11
5018.540410277508
 21
4388.464770760363
 31
0.0
  0
TEXT
  5
2BCA7
330
2BF35
100
AcDbEntity
  8
SUNPOU
100
AcDbText
 10
3681.754695991793
 20
4433.464770760363
 30
0.0
 40
90.0
  1
2400
 41
0.6666666666666666
  7
00
100
AcDbText
  0
LINE
  5
2BCA9
330
2BF35
100
AcDbEntity
  8
SUNPOU
100
AcDbLine
 10
4984.790410277508
 20
4388.464770760363
 30
0.0
 11
4973.540410277508
 21
4388.464770760363
 31
0.0
  0
LINE
  5
2BCAB
330
2BF35
100
AcDbEntity
  8
SUNPOU
100
AcDbLine
 10
2607.290410277508
 20
4388.464770760363
 30
0.0
 11
2618.540410277509
 21
4388.464770760363
 31
0.0
  0
TEXT
  5
2BCAC
330
2BF35
100
AcDbEntity
  8
SUNPOU
100
AcDbText
 10
2310.326124563223
 20
4433.464770760363
 30
0.0
 40
90.0
  1
400
 41
0.6666666666666666
  7
00
100
AcDbText
  0
LINE
  5
2BCAE
330
2BF35
100
AcDbEntity
  8
SUNPOU
100
AcDbLine
 10
2584.790410277507
 20
4388.464770760363
 30
0.0
 11
2573.540410277507
 21
4388.464770760363
 31
0.0
  0
LINE
  5
2BCB0
330
2BF35
100
AcDbEntity
  8
SUNPOU
100
AcDbLine
 10
2207.290410277507
 20
4388.464770760363
 30
0.0
 11
2218.540410277507
 21
4388.464770760363
 31
0.0
  0
TEXT
  5
2BCB1
330
2BF35
100
AcDbEntity
  8
SUNPOU
100
AcDbText
 10
1701.040410277508
 20
6932.75048504608
 30
0.0
 40
90.0
  1
240
 50
90.0
 41
0.6666666666666666
  7
00
100
AcDbText
  0
LINE
  5
2BCB3
330
2BF35
100
AcDbEntity
  8
SUNPOU
100
AcDbLine
 10
1746.040410277509
 20
7127.214770760365
 30
0.0
 11
1746.040410277509
 21
7115.964770760363
 31
0.0
  0
LINE
  5
2BCB5
330
2BF35
100
AcDbEntity
  8
SUNPOU
100
AcDbLine
 10
1746.040410277509
 20
6909.714770760366
 30
0.0
 11
1746.040410277509
 21
6920.964770760368
 31
0.0
  0
TEXT
  5
2BCB6
330
2BF35
100
AcDbEntity
  8
SUNPOU
100
AcDbText
 10
1701.040410277506
 20
6079.893342188938
 30
0.0
 40
90.0
  1
1400
 50
90.0
 41
0.6666666666666666
  7
00
100
AcDbText
  0
LINE
  5
2BCB8
330
2BF35
100
AcDbEntity
  8
SUNPOU
100
AcDbLine
 10
1746.040410277507
 20
6887.214770760367
 30
0.0
 11
1746.040410277507
 21
6875.964770760368
 31
0.0
  0
LINE
  5
2BCBA
330
2BF35
100
AcDbEntity
  8
SUNPOU
100
AcDbLine
 10
1746.040410277507
 20
5509.714770760368
 30
0.0
 11
1746.040410277507
 21
5520.964770760367
 31
0.0
  0
TEXT
  5
2BCBB
330
2BF35
100
AcDbEntity
  8
SUNPOU
100
AcDbText
 10
1701.040410277506
 20
5111.321913617508
 30
0.0
 40
90.0
  1
600
 50
90.0
 41
0.6666666666666666
  7
00
100
AcDbText
  0
LINE
  5
2BCBD
330
2BF35
100
AcDbEntity
  8
SUNPOU
100
AcDbLine
 10
1746.040410277507
 20
5487.214770760367
 30
0.0
 11
1746.040410277507
 21
5475.964770760367
 31
0.0
  0
LINE
  5
2BCBF
330
2BF35
100
AcDbEntity
  8
SUNPOU
100
AcDbLine
 10
1746.040410277507
 20
4909.714770760364
 30
0.0
 11
1746.040410277507
 21
4920.964770760363
 31
0.0
  0
TEXT
  5
2BCC0
330
2BF35
100
AcDbEntity
  8
SUNPOU
100
AcDbText
 10
1491.040410277507
 20
5904.179056474649
 30
0.0
 40
90.0
  1
2240
 50
90.0
 41
0.6666666666666666
  7
00
100
AcDbText
  0
LINE
  5
2BCC2
330
2BF35
100
AcDbEntity
  8
SUNPOU
100
AcDbLine
 10
1536.040410277507
 20
7127.214770760365
 30
0.0
 11
1536.040410277507
 21
7115.964770760363
 31
0.0
  0
LINE
  5
2BCC4
330
2BF35
100
AcDbEntity
  8
SUNPOU
100
AcDbLine
 10
1536.040410277506
 20
4909.714770760364
 30
0.0
 11
1536.040410277506
 21
4920.964770760363
 31
0.0
  0
ARC
  5
2BCC5
330
2BF35
100
AcDbEntity
  8
SUNPOU
100
AcDbCircle
 10
6770.055546028491
 20
2255.744622954003
 30
0.0
 40
5.625
100
AcDbArc
 50
270.0
 51
90.0
  0
ARC
  5
2BCC6
330
2BF35
100
AcDbEntity
  8
SUNPOU
100
AcDbCircle
 10
6770.055546028491
 20
2255.744622954003
 30
0.0
 40
5.625
100
AcDbArc
 50
90.0
 51
270.0
  0
ARC
  5
2BCC7
330
2BF35
100
AcDbEntity
  8
SUNPOU
100
AcDbCircle
 10
6770.055546028491
 20
1505.744622954002
 30
0.0
 40
5.625
100
AcDbArc
 50
90.0
 51
270.0
  0
ARC
  5
2BCC8
330
2BF35
100
AcDbEntity
  8
SUNPOU
100
AcDbCircle
 10
6770.055546028491
 20
1505.744622954002
 30
0.0
 40
5.625
100
AcDbArc
 50
270.0
 51
90.0
  0
ARC
  5
2BCC9
330
2BF35
100
AcDbEntity
  8
SUNPOU
100
AcDbCircle
 10
6560.055546028491
 20
2120.744622954002
 30
0.0
 40
5.625
100
AcDbArc
 50
270.0
 51
90.0
  0
ARC
  5
2BCCA
330
2BF35
100
AcDbEntity
  8
SUNPOU
100
AcDbCircle
 10
6560.055546028491
 20
2120.744622954002
 30
0.0
 40
5.625
100
AcDbArc
 50
90.0
 51
270.0
  0
ARC
  5
2BCCB
330
2BF35
100
AcDbEntity
  8
SUNPOU
100
AcDbCircle
 10
6560.055546028491
 20
1640.744622954002
 30
0.0
 40
5.625
100
AcDbArc
 50
90.0
 51
270.0
  0
ARC
  5
2BCCC
330
2BF35
100
AcDbEntity
  8
SUNPOU
100
AcDbCircle
 10
6560.055546028491
 20
1640.744622954002
 30
0.0
 40
5.625
100
AcDbArc
 50
270.0
 51
90.0
  0
ARC
  5
2BCCD
330
2BF35
100
AcDbEntity
  8
SUNPOU
100
AcDbCircle
 10
6050.055546028492
 20
1080.744622954002
 30
0.0
 40
5.625
100
AcDbArc
 50
180.0
 51
0.0
  0
ARC
  5
2BCCE
330
2BF35
100
AcDbEntity
  8
SUNPOU
100
AcDbCircle
 10
6050.055546028492
 20
1080.744622954002
 30
0.0
 40
5.625
100
AcDbArc
 50
0.0
 51
180.0
  0
ARC
  5
2BCCF
330
2BF35
100
AcDbEntity
  8
SUNPOU
100
AcDbCircle
 10
5570.05554602849
 20
1080.744622954002
 30
0.0
 40
5.625
100
AcDbArc
 50
0.0
 51
180.0
  0
ARC
  5
2BCD0
330
2BF35
100
AcDbEntity
  8
SUNPOU
100
AcDbCircle
 10
5570.05554602849
 20
1080.744622954002
 30
0.0
 40
5.625
100
AcDbArc
 50
180.0
 51
0.0
  0
ARC
  5
2BCD1
330
2BF35
100
AcDbEntity
  8
SUNPOU
100
AcDbCircle
 10
6185.055546028491
 20
870.7446229540032
 30
0.0
 40
5.625
100
AcDbArc
 50
180.0
 51
0.0
  0
ARC
  5
2BCD2
330
2BF35
100
AcDbEntity
  8
SUNPOU
100
AcDbCircle
 10
6185.055546028491
 20
870.7446229540032
 30
0.0
 40
5.625
100
AcDbArc
 50
0.0
 51
180.0
  0
ARC
  5
2BCD3
330
2BF35
100
AcDbEntity
  8
SUNPOU
100
AcDbCircle
 10
5435.055546028491
 20
870.7446229540032
 30
0.0
 40
5.625
100
AcDbArc
 50
0.0
 51
180.0
  0
ARC
  5
2BCD4
330
2BF35
100
AcDbEntity
  8
SUNPOU
100
AcDbCircle
 10
5435.055546028491
 20
870.7446229540032
 30
0.0
 40
5.625
100
AcDbArc
 50
180.0
 51
0.0
  0
ARC
  5
2BCD5
330
2BF35
100
AcDbEntity
  8
SUNPOU
100
AcDbCircle
 10
2196.040410277507
 20
4157.520639852555
 30
0.0
 40
5.625
100
AcDbArc
 50
0.0
 51
180.0
  0
ARC
  5
2BCD6
330
2BF35
100
AcDbEntity
  8
SUNPOU
100
AcDbCircle
 10
2196.040410277507
 20
4157.520639852555
 30
0.0
 40
5.625
100
AcDbArc
 50
180.0
 51
0.0
  0
ARC
  5
2BCD7
330
2BF35
100
AcDbEntity
  8
SUNPOU
100
AcDbCircle
 10
10196.0404102775
 20
4157.520639852555
 30
0.0
 40
5.625
100
AcDbArc
 50
180.0
 51
0.0
  0
ARC
  5
2BCD8
330
2BF35
100
AcDbEntity
  8
SUNPOU
100
AcDbCircle
 10
10196.0404102775
 20
4157.520639852555
 30
0.0
 40
5.625
100
AcDbArc
 50
0.0
 51
180.0
  0
ARC
  5
2BCD9
330
2BF35
100
AcDbEntity
  8
SUNPOU
100
AcDbCircle
 10
2221.306080631058
 20
2680.744622954003
 30
0.0
 40
5.625
100
AcDbArc
 50
180.0
 51
0.0
  0
ARC
  5
2BCDA
330
2BF35
100
AcDbEntity
  8
SUNPOU
100
AcDbCircle
 10
2221.306080631058
 20
2680.744622954003
 30
0.0
 40
5.625
100
AcDbArc
 50
0.0
 51
180.0
  0
ARC
  5
2BCDB
330
2BF35
100
AcDbEntity
  8
SUNPOU
100
AcDbCircle
 10
1741.306080631058
 20
2680.744622954003
 30
0.0
 40
5.625
100
AcDbArc
 50
0.0
 51
180.0
  0
ARC
  5
2BCDC
330
2BF35
100
AcDbEntity
  8
SUNPOU
100
AcDbCircle
 10
1741.306080631058
 20
2680.744622954003
 30
0.0
 40
5.625
100
AcDbArc
 50
180.0
 51
0.0
  0
ARC
  5
2BCDD
330
2BF35
100
AcDbEntity
  8
SUNPOU
100
AcDbCircle
 10
2945.856080631056
 20
1460.744622954002
 30
0.0
 40
5.625
100
AcDbArc
 50
270.0
 51
90.0
  0
ARC
  5
2BCDE
330
2BF35
100
AcDbEntity
  8
SUNPOU
100
AcDbCircle
 10
2945.856080631056
 20
1460.744622954002
 30
0.0
 40
5.625
100
AcDbArc
 50
90.0
 51
270.0
  0
ARC
  5
2BCDF
330
2BF35
100
AcDbEntity
  8
SUNPOU
100
AcDbCircle
 10
2945.856080631056
 20
1510.744622954002
 30
0.0
 40
5.625
100
AcDbArc
 50
90.0
 51
270.0
  0
ARC
  5
2BCE0
330
2BF35
100
AcDbEntity
  8
SUNPOU
100
AcDbCircle
 10
2945.856080631056
 20
1510.744622954002
 30
0.0
 40
5.625
100
AcDbArc
 50
270.0
 51
90.0
  0
ARC
  5
2BCE1
330
2BF35
100
AcDbEntity
  8
SUNPOU
100
AcDbCircle
 10
2945.856080631056
 20
1360.744622954003
 30
0.0
 40
5.625
100
AcDbArc
 50
270.0
 51
90.0
  0
ARC
  5
2BCE2
330
2BF35
100
AcDbEntity
  8
SUNPOU
100
AcDbCircle
 10
2945.856080631056
 20
1360.744622954003
 30
0.0
 40
5.625
100
AcDbArc
 50
90.0
 51
270.0
  0
ARC
  5
2BCE3
330
2BF35
100
AcDbEntity
  8
SUNPOU
100
AcDbCircle
 10
2945.856080631056
 20
1460.744622954002
 30
0.0
 40
5.625
100
AcDbArc
 50
90.0
 51
270.0
  0
ARC
  5
2BCE4
330
2BF35
100
AcDbEntity
  8
SUNPOU
100
AcDbCircle
 10
2945.856080631056
 20
1460.744622954002
 30
0.0
 40
5.625
100
AcDbArc
 50
270.0
 51
90.0
  0
ARC
  5
2BCE5
330
2BF35
100
AcDbEntity
  8
SUNPOU
100
AcDbCircle
 10
2945.856080631056
 20
1510.744622954002
 30
0.0
 40
5.625
100
AcDbArc
 50
90.0
 51
270.0
  0
ARC
  5
2BCE6
330
2BF35
100
AcDbEntity
  8
SUNPOU
100
AcDbCircle
 10
2945.856080631056
 20
1510.744622954002
 30
0.0
 40
5.625
100
AcDbArc
 50
270.0
 51
90.0
  0
ARC
  5
2BCE7
330
2BF35
100
AcDbEntity
  8
SUNPOU
100
AcDbCircle
 10
2945.856080631056
 20
1990.744622954002
 30
0.0
 40
5.625
100
AcDbArc
 50
270.0
 51
90.0
  0
ARC
  5
2BCE8
330
2BF35
100
AcDbEntity
  8
SUNPOU
100
AcDbCircle
 10
2945.856080631056
 20
1990.744622954002
 30
0.0
 40
5.625
100
AcDbArc
 50
90.0
 51
270.0
  0
ARC
  5
2BCE9
330
2BF35
100
AcDbEntity
  8
SUNPOU
100
AcDbCircle
 10
2945.856080631056
 20
2140.744622954005
 30
0.0
 40
5.625
100
AcDbArc
 50
270.0
 51
90.0
  0
ARC
  5
2BCEA
330
2BF35
100
AcDbEntity
  8
SUNPOU
100
AcDbCircle
 10
2945.856080631056
 20
2140.744622954005
 30
0.0
 40
5.625
100
AcDbArc
 50
90.0
 51
270.0
  0
ARC
  5
2BCEB
330
2BF35
100
AcDbEntity
  8
SUNPOU
100
AcDbCircle
 10
2945.856080631056
 20
1990.744622954002
 30
0.0
 40
5.625
100
AcDbArc
 50
90.0
 51
270.0
  0
ARC
  5
2BCEC
330
2BF35
100
AcDbEntity
  8
SUNPOU
100
AcDbCircle
 10
2945.856080631056
 20
1990.744622954002
 30
0.0
 40
5.625
100
AcDbArc
 50
270.0
 51
90.0
  0
ARC
  5
2BCED
330
2BF35
100
AcDbEntity
  8
SUNPOU
100
AcDbCircle
 10
2356.306080631059
 20
870.7446229540032
 30
0.0
 40
5.625
100
AcDbArc
 50
180.0
 51
0.0
  0
ARC
  5
2BCEE
330
2BF35
100
AcDbEntity
  8
SUNPOU
100
AcDbCircle
 10
2356.306080631059
 20
870.7446229540032
 30
0.0
 40
5.625
100
AcDbArc
 50
0.0
 51
180.0
  0
ARC
  5
2BCEF
330
2BF35
100
AcDbEntity
  8
SUNPOU
100
AcDbCircle
 10
1606.306080631058
 20
870.7446229540032
 30
0.0
 40
5.625
100
AcDbArc
 50
0.0
 51
180.0
  0
ARC
  5
2BCF0
330
2BF35
100
AcDbEntity
  8
SUNPOU
100
AcDbCircle
 10
1606.306080631058
 20
870.7446229540032
 30
0.0
 40
5.625
100
AcDbArc
 50
180.0
 51
0.0
  0
ARC
  5
2BCF1
330
2BF35
100
AcDbEntity
  8
SUNPOU
100
AcDbCircle
 10
1981.306080631058
 20
1080.744622954002
 30
0.0
 40
5.625
100
AcDbArc
 50
0.0
 51
180.0
  0
ARC
  5
2BCF2
330
2BF35
100
AcDbEntity
  8
SUNPOU
100
AcDbCircle
 10
1981.306080631058
 20
1080.744622954002
 30
0.0
 40
5.625
100
AcDbArc
 50
180.0
 51
0.0
  0
ARC
  5
2BCF3
330
2BF35
100
AcDbEntity
  8
SUNPOU
100
AcDbCircle
 10
2356.306080631059
 20
1080.744622954002
 30
0.0
 40
5.625
100
AcDbArc
 50
180.0
 51
0.0
  0
ARC
  5
2BCF4
330
2BF35
100
AcDbEntity
  8
SUNPOU
100
AcDbCircle
 10
2356.306080631059
 20
1080.744622954002
 30
0.0
 40
5.625
100
AcDbArc
 50
0.0
 51
180.0
  0
ARC
  5
2BCF5
330
2BF35
100
AcDbEntity
  8
SUNPOU
100
AcDbCircle
 10
1981.306080631058
 20
1080.744622954002
 30
0.0
 40
5.625
100
AcDbArc
 50
180.0
 51
0.0
  0
ARC
  5
2BCF6
330
2BF35
100
AcDbEntity
  8
SUNPOU
100
AcDbCircle
 10
1981.306080631058
 20
1080.744622954002
 30
0.0
 40
5.625
100
AcDbArc
 50
0.0
 51
180.0
  0
ARC
  5
2BCF7
330
2BF35
100
AcDbEntity
  8
SUNPOU
100
AcDbCircle
 10
1606.306080631058
 20
1080.744622954002
 30
0.0
 40
5.625
100
AcDbArc
 50
0.0
 51
180.0
  0
ARC
  5
2BCF8
330
2BF35
100
AcDbEntity
  8
SUNPOU
100
AcDbCircle
 10
1606.306080631058
 20
1080.744622954002
 30
0.0
 40
5.625
100
AcDbArc
 50
180.0
 51
0.0
  0
ARC
  5
2BCF9
330
2BF35
100
AcDbEntity
  8
SUNPOU
100
AcDbCircle
 10
10496.0404102775
 20
6998.464770760363
 30
0.0
 40
5.625
100
AcDbArc
 50
270.0
 51
90.0
  0
ARC
  5
2BCFA
330
2BF35
100
AcDbEntity
  8
SUNPOU
100
AcDbCircle
 10
10496.0404102775
 20
6998.464770760363
 30
0.0
 40
5.625
100
AcDbArc
 50
90.0
 51
270.0
  0
ARC
  5
2BCFB
330
2BF35
100
AcDbEntity
  8
SUNPOU
100
AcDbCircle
 10
10496.0404102775
 20
6798.464770760365
 30
0.0
 40
5.625
100
AcDbArc
 50
90.0
 51
270.0
  0
ARC
  5
2BCFC
330
2BF35
100
AcDbEntity
  8
SUNPOU
100
AcDbCircle
 10
10496.0404102775
 20
6798.464770760365
 30
0.0
 40
5.625
100
AcDbArc
 50
270.0
 51
90.0
  0
ARC
  5
2BCFD
330
2BF35
100
AcDbEntity
  8
SUNPOU
100
AcDbCircle
 10
10496.0404102775
 20
7138.464770760363
 30
0.0
 40
5.625
100
AcDbArc
 50
270.0
 51
90.0
  0
ARC
  5
2BCFE
330
2BF35
100
AcDbEntity
  8
SUNPOU
100
AcDbCircle
 10
10496.0404102775
 20
7138.464770760363
 30
0.0
 40
5.625
100
AcDbArc
 50
90.0
 51
270.0
  0
ARC
  5
2BCFF
330
2BF35
100
AcDbEntity
  8
SUNPOU
100
AcDbCircle
 10
10496.0404102775
 20
6998.464770760363
 30
0.0
 40
5.625
100
AcDbArc
 50
90.0
 51
270.0
  0
ARC
  5
2BD00
330
2BF35
100
AcDbEntity
  8
SUNPOU
100
AcDbCircle
 10
10496.0404102775
 20
6998.464770760363
 30
0.0
 40
5.625
100
AcDbArc
 50
270.0
 51
90.0
  0
ARC
  5
2BD01
330
2BF35
100
AcDbEntity
  8
SUNPOU
100
AcDbCircle
 10
10496.0404102775
 20
6658.464770760365
 30
0.0
 40
5.625
100
AcDbArc
 50
90.0
 51
270.0
  0
ARC
  5
2BD02
330
2BF35
100
AcDbEntity
  8
SUNPOU
100
AcDbCircle
 10
10496.0404102775
 20
6658.464770760365
 30
0.0
 40
5.625
100
AcDbArc
 50
270.0
 51
90.0
  0
ARC
  5
2BD03
330
2BF35
100
AcDbEntity
  8
SUNPOU
100
AcDbCircle
 10
10496.0404102775
 20
6798.464770760365
 30
0.0
 40
5.625
100
AcDbArc
 50
270.0
 51
90.0
  0
ARC
  5
2BD04
330
2BF35
100
AcDbEntity
  8
SUNPOU
100
AcDbCircle
 10
10496.0404102775
 20
6798.464770760365
 30
0.0
 40
5.625
100
AcDbArc
 50
90.0
 51
270.0
  0
ARC
  5
2BD05
330
2BF35
100
AcDbEntity
  8
SUNPOU
100
AcDbCircle
 10
10706.04041027749
 20
6523.464770760367
 30
0.0
 40
5.625
100
AcDbArc
 50
90.0
 51
270.0
  0
ARC
  5
2BD06
330
2BF35
100
AcDbEntity
  8
SUNPOU
100
AcDbCircle
 10
10706.04041027749
 20
6523.464770760367
 30
0.0
 40
5.625
100
AcDbArc
 50
270.0
 51
90.0
  0
ARC
  5
2BD07
330
2BF35
100
AcDbEntity
  8
SUNPOU
100
AcDbCircle
 10
10706.04041027749
 20
6658.464770760365
 30
0.0
 40
5.625
100
AcDbArc
 50
270.0
 51
90.0
  0
ARC
  5
2BD08
330
2BF35
100
AcDbEntity
  8
SUNPOU
100
AcDbCircle
 10
10706.04041027749
 20
6658.464770760365
 30
0.0
 40
5.625
100
AcDbArc
 50
90.0
 51
270.0
  0
ARC
  5
2BD09
330
2BF35
100
AcDbEntity
  8
SUNPOU
100
AcDbCircle
 10
10706.04041027749
 20
7273.464770760367
 30
0.0
 40
5.625
100
AcDbArc
 50
270.0
 51
90.0
  0
ARC
  5
2BD0A
330
2BF35
100
AcDbEntity
  8
SUNPOU
100
AcDbCircle
 10
10706.04041027749
 20
7273.464770760367
 30
0.0
 40
5.625
100
AcDbArc
 50
90.0
 51
270.0
  0
ARC
  5
2BD0B
330
2BF35
100
AcDbEntity
  8
SUNPOU
100
AcDbCircle
 10
10706.04041027749
 20
7138.464770760363
 30
0.0
 40
5.625
100
AcDbArc
 50
90.0
 51
270.0
  0
ARC
  5
2BD0C
330
2BF35
100
AcDbEntity
  8
SUNPOU
100
AcDbCircle
 10
10706.04041027749
 20
7138.464770760363
 30
0.0
 40
5.625
100
AcDbArc
 50
270.0
 51
90.0
  0
ARC
  5
2BD0D
330
2BF35
100
AcDbEntity
  8
SUNPOU
100
AcDbCircle
 10
10706.04041027749
 20
7138.464770760363
 30
0.0
 40
5.625
100
AcDbArc
 50
270.0
 51
90.0
  0
ARC
  5
2BD0E
330
2BF35
100
AcDbEntity
  8
SUNPOU
100
AcDbCircle
 10
10706.04041027749
 20
7138.464770760363
 30
0.0
 40
5.625
100
AcDbArc
 50
90.0
 51
270.0
  0
ARC
  5
2BD0F
330
2BF35
100
AcDbEntity
  8
SUNPOU
100
AcDbCircle
 10
10706.04041027749
 20
6658.464770760365
 30
0.0
 40
5.625
100
AcDbArc
 50
90.0
 51
270.0
  0
ARC
  5
2BD10
330
2BF35
100
AcDbEntity
  8
SUNPOU
100
AcDbCircle
 10
10706.04041027749
 20
6658.464770760365
 30
0.0
 40
5.625
100
AcDbArc
 50
270.0
 51
90.0
  0
ARC
  5
2BD11
330
2BF35
100
AcDbEntity
  8
SUNPOU
100
AcDbCircle
 10
9121.040410277508
 20
7273.464770760367
 30
0.0
 40
5.625
100
AcDbArc
 50
270.0
 51
90.0
  0
ARC
  5
2BD12
330
2BF35
100
AcDbEntity
  8
SUNPOU
100
AcDbCircle
 10
9121.040410277508
 20
7273.464770760367
 30
0.0
 40
5.625
100
AcDbArc
 50
90.0
 51
270.0
  0
ARC
  5
2BD13
330
2BF35
100
AcDbEntity
  8
SUNPOU
100
AcDbCircle
 10
9121.040410277508
 20
6898.464770760367
 30
0.0
 40
5.625
100
AcDbArc
 50
90.0
 51
270.0
  0
ARC
  5
2BD14
330
2BF35
100
AcDbEntity
  8
SUNPOU
100
AcDbCircle
 10
9121.040410277508
 20
6898.464770760367
 30
0.0
 40
5.625
100
AcDbArc
 50
270.0
 51
90.0
  0
ARC
  5
2BD15
330
2BF35
100
AcDbEntity
  8
SUNPOU
100
AcDbCircle
 10
9121.040410277508
 20
6898.464770760367
 30
0.0
 40
5.625
100
AcDbArc
 50
270.0
 51
90.0
  0
ARC
  5
2BD16
330
2BF35
100
AcDbEntity
  8
SUNPOU
100
AcDbCircle
 10
9121.040410277508
 20
6898.464770760367
 30
0.0
 40
5.625
100
AcDbArc
 50
90.0
 51
270.0
  0
ARC
  5
2BD17
330
2BF35
100
AcDbEntity
  8
SUNPOU
100
AcDbCircle
 10
9121.040410277508
 20
6523.464770760367
 30
0.0
 40
5.625
100
AcDbArc
 50
90.0
 51
270.0
  0
ARC
  5
2BD18
330
2BF35
100
AcDbEntity
  8
SUNPOU
100
AcDbCircle
 10
9121.040410277508
 20
6523.464770760367
 30
0.0
 40
5.625
100
AcDbArc
 50
270.0
 51
90.0
  0
ARC
  5
2BD19
330
2BF35
100
AcDbEntity
  8
SUNPOU
100
AcDbCircle
 10
8911.040410277506
 20
6523.464770760367
 30
0.0
 40
5.625
100
AcDbArc
 50
90.0
 51
270.0
  0
ARC
  5
2BD1A
330
2BF35
100
AcDbEntity
  8
SUNPOU
100
AcDbCircle
 10
8911.040410277506
 20
6523.464770760367
 30
0.0
 40
5.625
100
AcDbArc
 50
270.0
 51
90.0
  0
ARC
  5
2BD1B
330
2BF35
100
AcDbEntity
  8
SUNPOU
100
AcDbCircle
 10
8911.040410277506
 20
7273.464770760367
 30
0.0
 40
5.625
100
AcDbArc
 50
270.0
 51
90.0
  0
ARC
  5
2BD1C
330
2BF35
100
AcDbEntity
  8
SUNPOU
100
AcDbCircle
 10
8911.040410277506
 20
7273.464770760367
 30
0.0
 40
5.625
100
AcDbArc
 50
90.0
 51
270.0
  0
ARC
  5
2BD1D
330
2BF35
100
AcDbEntity
  8
SUNPOU
100
AcDbCircle
 10
10496.0404102775
 20
5598.464770760362
 30
0.0
 40
5.625
100
AcDbArc
 50
270.0
 51
90.0
  0
ARC
  5
2BD1E
330
2BF35
100
AcDbEntity
  8
SUNPOU
100
AcDbCircle
 10
10496.0404102775
 20
5598.464770760362
 30
0.0
 40
5.625
100
AcDbArc
 50
90.0
 51
270.0
  0
ARC
  5
2BD1F
330
2BF35
100
AcDbEntity
  8
SUNPOU
100
AcDbCircle
 10
10496.0404102775
 20
5398.464770760366
 30
0.0
 40
5.625
100
AcDbArc
 50
90.0
 51
270.0
  0
ARC
  5
2BD20
330
2BF35
100
AcDbEntity
  8
SUNPOU
100
AcDbCircle
 10
10496.0404102775
 20
5398.464770760366
 30
0.0
 40
5.625
100
AcDbArc
 50
270.0
 51
90.0
  0
ARC
  5
2BD21
330
2BF35
100
AcDbEntity
  8
SUNPOU
100
AcDbCircle
 10
10496.0404102775
 20
5738.464770760362
 30
0.0
 40
5.625
100
AcDbArc
 50
270.0
 51
90.0
  0
ARC
  5
2BD22
330
2BF35
100
AcDbEntity
  8
SUNPOU
100
AcDbCircle
 10
10496.0404102775
 20
5738.464770760362
 30
0.0
 40
5.625
100
AcDbArc
 50
90.0
 51
270.0
  0
ARC
  5
2BD23
330
2BF35
100
AcDbEntity
  8
SUNPOU
100
AcDbCircle
 10
10496.0404102775
 20
5598.464770760362
 30
0.0
 40
5.625
100
AcDbArc
 50
90.0
 51
270.0
  0
ARC
  5
2BD24
330
2BF35
100
AcDbEntity
  8
SUNPOU
100
AcDbCircle
 10
10496.0404102775
 20
5598.464770760362
 30
0.0
 40
5.625
100
AcDbArc
 50
270.0
 51
90.0
  0
ARC
  5
2BD25
330
2BF35
100
AcDbEntity
  8
SUNPOU
100
AcDbCircle
 10
10496.0404102775
 20
5258.464770760365
 30
0.0
 40
5.625
100
AcDbArc
 50
90.0
 51
270.0
  0
ARC
  5
2BD26
330
2BF35
100
AcDbEntity
  8
SUNPOU
100
AcDbCircle
 10
10496.0404102775
 20
5258.464770760365
 30
0.0
 40
5.625
100
AcDbArc
 50
270.0
 51
90.0
  0
ARC
  5
2BD27
330
2BF35
100
AcDbEntity
  8
SUNPOU
100
AcDbCircle
 10
10496.0404102775
 20
5398.464770760366
 30
0.0
 40
5.625
100
AcDbArc
 50
270.0
 51
90.0
  0
ARC
  5
2BD28
330
2BF35
100
AcDbEntity
  8
SUNPOU
100
AcDbCircle
 10
10496.0404102775
 20
5398.464770760366
 30
0.0
 40
5.625
100
AcDbArc
 50
90.0
 51
270.0
  0
ARC
  5
2BD29
330
2BF35
100
AcDbEntity
  8
SUNPOU
100
AcDbCircle
 10
10706.04041027749
 20
5123.464770760366
 30
0.0
 40
5.625
100
AcDbArc
 50
90.0
 51
270.0
  0
ARC
  5
2BD2A
330
2BF35
100
AcDbEntity
  8
SUNPOU
100
AcDbCircle
 10
10706.04041027749
 20
5123.464770760366
 30
0.0
 40
5.625
100
AcDbArc
 50
270.0
 51
90.0
  0
ARC
  5
2BD2B
330
2BF35
100
AcDbEntity
  8
SUNPOU
100
AcDbCircle
 10
10706.04041027749
 20
5258.464770760365
 30
0.0
 40
5.625
100
AcDbArc
 50
270.0
 51
90.0
  0
ARC
  5
2BD2C
330
2BF35
100
AcDbEntity
  8
SUNPOU
100
AcDbCircle
 10
10706.04041027749
 20
5258.464770760365
 30
0.0
 40
5.625
100
AcDbArc
 50
90.0
 51
270.0
  0
ARC
  5
2BD2D
330
2BF35
100
AcDbEntity
  8
SUNPOU
100
AcDbCircle
 10
10706.04041027749
 20
5873.464770760366
 30
0.0
 40
5.625
100
AcDbArc
 50
270.0
 51
90.0
  0
ARC
  5
2BD2E
330
2BF35
100
AcDbEntity
  8
SUNPOU
100
AcDbCircle
 10
10706.04041027749
 20
5873.464770760366
 30
0.0
 40
5.625
100
AcDbArc
 50
90.0
 51
270.0
  0
ARC
  5
2BD2F
330
2BF35
100
AcDbEntity
  8
SUNPOU
100
AcDbCircle
 10
10706.04041027749
 20
5738.464770760362
 30
0.0
 40
5.625
100
AcDbArc
 50
90.0
 51
270.0
  0
ARC
  5
2BD30
330
2BF35
100
AcDbEntity
  8
SUNPOU
100
AcDbCircle
 10
10706.04041027749
 20
5738.464770760362
 30
0.0
 40
5.625
100
AcDbArc
 50
270.0
 51
90.0
  0
ARC
  5
2BD31
330
2BF35
100
AcDbEntity
  8
SUNPOU
100
AcDbCircle
 10
10706.04041027749
 20
5738.464770760362
 30
0.0
 40
5.625
100
AcDbArc
 50
270.0
 51
90.0
  0
ARC
  5
2BD32
330
2BF35
100
AcDbEntity
  8
SUNPOU
100
AcDbCircle
 10
10706.04041027749
 20
5738.464770760362
 30
0.0
 40
5.625
100
AcDbArc
 50
90.0
 51
270.0
  0
ARC
  5
2BD33
330
2BF35
100
AcDbEntity
  8
SUNPOU
100
AcDbCircle
 10
10706.04041027749
 20
5258.464770760365
 30
0.0
 40
5.625
100
AcDbArc
 50
90.0
 51
270.0
  0
ARC
  5
2BD34
330
2BF35
100
AcDbEntity
  8
SUNPOU
100
AcDbCircle
 10
10706.04041027749
 20
5258.464770760365
 30
0.0
 40
5.625
100
AcDbArc
 50
270.0
 51
90.0
  0
ARC
  5
2BD35
330
2BF35
100
AcDbEntity
  8
SUNPOU
100
AcDbCircle
 10
9121.040410277508
 20
5873.464770760366
 30
0.0
 40
5.625
100
AcDbArc
 50
270.0
 51
90.0
  0
ARC
  5
2BD36
330
2BF35
100
AcDbEntity
  8
SUNPOU
100
AcDbCircle
 10
9121.040410277508
 20
5873.464770760366
 30
0.0
 40
5.625
100
AcDbArc
 50
90.0
 51
270.0
  0
ARC
  5
2BD37
330
2BF35
100
AcDbEntity
  8
SUNPOU
100
AcDbCircle
 10
9121.040410277508
 20
5498.464770760366
 30
0.0
 40
5.625
100
AcDbArc
 50
90.0
 51
270.0
  0
ARC
  5
2BD38
330
2BF35
100
AcDbEntity
  8
SUNPOU
100
AcDbCircle
 10
9121.040410277508
 20
5498.464770760366
 30
0.0
 40
5.625
100
AcDbArc
 50
270.0
 51
90.0
  0
ARC
  5
2BD39
330
2BF35
100
AcDbEntity
  8
SUNPOU
100
AcDbCircle
 10
9121.040410277508
 20
5498.464770760366
 30
0.0
 40
5.625
100
AcDbArc
 50
270.0
 51
90.0
  0
ARC
  5
2BD3A
330
2BF35
100
AcDbEntity
  8
SUNPOU
100
AcDbCircle
 10
9121.040410277508
 20
5498.464770760366
 30
0.0
 40
5.625
100
AcDbArc
 50
90.0
 51
270.0
  0
ARC
  5
2BD3B
330
2BF35
100
AcDbEntity
  8
SUNPOU
100
AcDbCircle
 10
9121.040410277508
 20
5123.464770760366
 30
0.0
 40
5.625
100
AcDbArc
 50
90.0
 51
270.0
  0
ARC
  5
2BD3C
330
2BF35
100
AcDbEntity
  8
SUNPOU
100
AcDbCircle
 10
9121.040410277508
 20
5123.464770760366
 30
0.0
 40
5.625
100
AcDbArc
 50
270.0
 51
90.0
  0
ARC
  5
2BD3D
330
2BF35
100
AcDbEntity
  8
SUNPOU
100
AcDbCircle
 10
8911.040410277506
 20
5123.464770760366
 30
0.0
 40
5.625
100
AcDbArc
 50
90.0
 51
270.0
  0
ARC
  5
2BD3E
330
2BF35
100
AcDbEntity
  8
SUNPOU
100
AcDbCircle
 10
8911.040410277506
 20
5123.464770760366
 30
0.0
 40
5.625
100
AcDbArc
 50
270.0
 51
90.0
  0
ARC
  5
2BD3F
330
2BF35
100
AcDbEntity
  8
SUNPOU
100
AcDbCircle
 10
8911.040410277506
 20
5873.464770760366
 30
0.0
 40
5.625
100
AcDbArc
 50
270.0
 51
90.0
  0
ARC
  5
2BD40
330
2BF35
100
AcDbEntity
  8
SUNPOU
100
AcDbCircle
 10
8911.040410277506
 20
5873.464770760366
 30
0.0
 40
5.625
100
AcDbArc
 50
90.0
 51
270.0
  0
ARC
  5
2BD41
330
2BF35
100
AcDbEntity
  8
SUNPOU
100
AcDbCircle
 10
10196.0404102775
 20
4388.464770760363
 30
0.0
 40
5.625
100
AcDbArc
 50
180.0
 51
0.0
  0
ARC
  5
2BD42
330
2BF35
100
AcDbEntity
  8
SUNPOU
100
AcDbCircle
 10
10196.0404102775
 20
4388.464770760363
 30
0.0
 40
5.625
100
AcDbArc
 50
0.0
 51
180.0
  0
ARC
  5
2BD43
330
2BF35
100
AcDbEntity
  8
SUNPOU
100
AcDbCircle
 10
9796.040410277509
 20
4388.464770760363
 30
0.0
 40
5.625
100
AcDbArc
 50
0.0
 51
180.0
  0
ARC
  5
2BD44
330
2BF35
100
AcDbEntity
  8
SUNPOU
100
AcDbCircle
 10
9796.040410277509
 20
4388.464770760363
 30
0.0
 40
5.625
100
AcDbArc
 50
180.0
 51
0.0
  0
ARC
  5
2BD45
330
2BF35
100
AcDbEntity
  8
SUNPOU
100
AcDbCircle
 10
9796.040410277509
 20
4388.464770760363
 30
0.0
 40
5.625
100
AcDbArc
 50
180.0
 51
0.0
  0
ARC
  5
2BD46
330
2BF35
100
AcDbEntity
  8
SUNPOU
100
AcDbCircle
 10
9796.040410277509
 20
4388.464770760363
 30
0.0
 40
5.625
100
AcDbArc
 50
0.0
 51
180.0
  0
ARC
  5
2BD47
330
2BF35
100
AcDbEntity
  8
SUNPOU
100
AcDbCircle
 10
7396.040410277509
 20
4388.464770760363
 30
0.0
 40
5.625
100
AcDbArc
 50
0.0
 51
180.0
  0
ARC
  5
2BD48
330
2BF35
100
AcDbEntity
  8
SUNPOU
100
AcDbCircle
 10
7396.040410277509
 20
4388.464770760363
 30
0.0
 40
5.625
100
AcDbArc
 50
180.0
 51
0.0
  0
ARC
  5
2BD49
330
2BF35
100
AcDbEntity
  8
SUNPOU
100
AcDbCircle
 10
7396.040410277509
 20
4388.464770760363
 30
0.0
 40
5.625
100
AcDbArc
 50
180.0
 51
0.0
  0
ARC
  5
2BD4A
330
2BF35
100
AcDbEntity
  8
SUNPOU
100
AcDbCircle
 10
7396.040410277509
 20
4388.464770760363
 30
0.0
 40
5.625
100
AcDbArc
 50
0.0
 51
180.0
  0
ARC
  5
2BD4B
330
2BF35
100
AcDbEntity
  8
SUNPOU
100
AcDbCircle
 10
4996.040410277508
 20
4388.464770760363
 30
0.0
 40
5.625
100
AcDbArc
 50
0.0
 51
180.0
  0
ARC
  5
2BD4C
330
2BF35
100
AcDbEntity
  8
SUNPOU
100
AcDbCircle
 10
4996.040410277508
 20
4388.464770760363
 30
0.0
 40
5.625
100
AcDbArc
 50
180.0
 51
0.0
  0
ARC
  5
2BD4D
330
2BF35
100
AcDbEntity
  8
SUNPOU
100
AcDbCircle
 10
4996.040410277508
 20
4388.464770760363
 30
0.0
 40
5.625
100
AcDbArc
 50
180.0
 51
0.0
  0
ARC
  5
2BD4E
330
2BF35
100
AcDbEntity
  8
SUNPOU
100
AcDbCircle
 10
4996.040410277508
 20
4388.464770760363
 30
0.0
 40
5.625
100
AcDbArc
 50
0.0
 51
180.0
  0
ARC
  5
2BD4F
330
2BF35
100
AcDbEntity
  8
SUNPOU
100
AcDbCircle
 10
2596.040410277508
 20
4388.464770760363
 30
0.0
 40
5.625
100
AcDbArc
 50
0.0
 51
180.0
  0
ARC
  5
2BD50
330
2BF35
100
AcDbEntity
  8
SUNPOU
100
AcDbCircle
 10
2596.040410277508
 20
4388.464770760363
 30
0.0
 40
5.625
100
AcDbArc
 50
180.0
 51
0.0
  0
ARC
  5
2BD51
330
2BF35
100
AcDbEntity
  8
SUNPOU
100
AcDbCircle
 10
2596.040410277508
 20
4388.464770760363
 30
0.0
 40
5.625
100
AcDbArc
 50
180.0
 51
0.0
  0
ARC
  5
2BD52
330
2BF35
100
AcDbEntity
  8
SUNPOU
100
AcDbCircle
 10
2596.040410277508
 20
4388.464770760363
 30
0.0
 40
5.625
100
AcDbArc
 50
0.0
 51
180.0
  0
ARC
  5
2BD53
330
2BF35
100
AcDbEntity
  8
SUNPOU
100
AcDbCircle
 10
2196.040410277507
 20
4388.464770760363
 30
0.0
 40
5.625
100
AcDbArc
 50
0.0
 51
180.0
  0
ARC
  5
2BD54
330
2BF35
100
AcDbEntity
  8
SUNPOU
100
AcDbCircle
 10
2196.040410277507
 20
4388.464770760363
 30
0.0
 40
5.625
100
AcDbArc
 50
180.0
 51
0.0
  0
ARC
  5
2BD55
330
2BF35
100
AcDbEntity
  8
SUNPOU
100
AcDbCircle
 10
1746.040410277509
 20
7138.464770760363
 30
0.0
 40
5.625
100
AcDbArc
 50
270.0
 51
90.0
  0
ARC
  5
2BD56
330
2BF35
100
AcDbEntity
  8
SUNPOU
100
AcDbCircle
 10
1746.040410277509
 20
7138.464770760363
 30
0.0
 40
5.625
100
AcDbArc
 50
90.0
 51
270.0
  0
ARC
  5
2BD57
330
2BF35
100
AcDbEntity
  8
SUNPOU
100
AcDbCircle
 10
1746.040410277509
 20
6898.464770760367
 30
0.0
 40
5.625
100
AcDbArc
 50
90.0
 51
270.0
  0
ARC
  5
2BD58
330
2BF35
100
AcDbEntity
  8
SUNPOU
100
AcDbCircle
 10
1746.040410277509
 20
6898.464770760367
 30
0.0
 40
5.625
100
AcDbArc
 50
270.0
 51
90.0
  0
ARC
  5
2BD59
330
2BF35
100
AcDbEntity
  8
SUNPOU
100
AcDbCircle
 10
1746.040410277507
 20
6898.464770760367
 30
0.0
 40
5.625
100
AcDbArc
 50
270.0
 51
90.0
  0
ARC
  5
2BD5A
330
2BF35
100
AcDbEntity
  8
SUNPOU
100
AcDbCircle
 10
1746.040410277507
 20
6898.464770760367
 30
0.0
 40
5.625
100
AcDbArc
 50
90.0
 51
270.0
  0
ARC
  5
2BD5B
330
2BF35
100
AcDbEntity
  8
SUNPOU
100
AcDbCircle
 10
1746.040410277507
 20
5498.464770760367
 30
0.0
 40
5.625
100
AcDbArc
 50
90.0
 51
270.0
  0
ARC
  5
2BD5C
330
2BF35
100
AcDbEntity
  8
SUNPOU
100
AcDbCircle
 10
1746.040410277507
 20
5498.464770760367
 30
0.0
 40
5.625
100
AcDbArc
 50
270.0
 51
90.0
  0
ARC
  5
2BD5D
330
2BF35
100
AcDbEntity
  8
SUNPOU
100
AcDbCircle
 10
1746.040410277507
 20
5498.464770760367
 30
0.0
 40
5.625
100
AcDbArc
 50
270.0
 51
90.0
  0
ARC
  5
2BD5E
330
2BF35
100
AcDbEntity
  8
SUNPOU
100
AcDbCircle
 10
1746.040410277507
 20
5498.464770760367
 30
0.0
 40
5.625
100
AcDbArc
 50
90.0
 51
270.0
  0
ARC
  5
2BD5F
330
2BF35
100
AcDbEntity
  8
SUNPOU
100
AcDbCircle
 10
1746.040410277507
 20
4898.464770760363
 30
0.0
 40
5.625
100
AcDbArc
 50
90.0
 51
270.0
  0
ARC
  5
2BD60
330
2BF35
100
AcDbEntity
  8
SUNPOU
100
AcDbCircle
 10
1746.040410277507
 20
4898.464770760363
 30
0.0
 40
5.625
100
AcDbArc
 50
270.0
 51
90.0
  0
ARC
  5
2BD61
330
2BF35
100
AcDbEntity
  8
SUNPOU
100
AcDbCircle
 10
1536.040410277507
 20
7138.464770760363
 30
0.0
 40
5.625
100
AcDbArc
 50
270.0
 51
90.0
  0
ARC
  5
2BD62
330
2BF35
100
AcDbEntity
  8
SUNPOU
100
AcDbCircle
 10
1536.040410277507
 20
7138.464770760363
 30
0.0
 40
5.625
100
AcDbArc
 50
90.0
 51
270.0
  0
ARC
  5
2BD63
330
2BF35
100
AcDbEntity
  8
SUNPOU
100
AcDbCircle
 10
1536.040410277506
 20
4898.464770760363
 30
0.0
 40
5.625
100
AcDbArc
 50
90.0
 51
270.0
  0
ARC
  5
2BD64
330
2BF35
100
AcDbEntity
  8
SUNPOU
100
AcDbCircle
 10
1536.040410277506
 20
4898.464770760363
 30
0.0
 40
5.625
100
AcDbArc
 50
270.0
 51
90.0
  0
ARC
  5
2BD74
330
2BF35
100
AcDbEntity
  8
HIKIDASHI
100
AcDbCircle
 10
8900.367749710667
 20
7568.849499283142
 30
0.0
 40
74.66417910444737
100
AcDbArc
 50
164.8596129851194
 51
237.5045002941262
  0
ARC
  5
2BD75
330
2BF35
100
AcDbEntity
  8
HIKIDASHI
100
AcDbCircle
 10
8836.943955664425
 20
7586.010522767607
 30
0.0
 40
8.959701492533691
100
AcDbArc
 50
15.14038701507851
 51
164.8596129849773
  0
ARC
  5
2BD77
330
2BF35
100
AcDbEntity
  8
HIKIDASHI
100
AcDbCircle
 10
3875.831194523087
 20
2811.129351476779
 30
0.0
 40
74.66417910444737
100
AcDbArc
 50
164.8596129850839
 51
237.5045002941419
  0
ARC
  5
2BD78
330
2BF35
100
AcDbEntity
  8
HIKIDASHI
100
AcDbCircle
 10
3812.407400476846
 20
2828.290374961246
 30
0.0
 40
8.959701492533691
100
AcDbArc
 50
15.14038701503544
 51
164.8596129849645
  0
LINE
  5
2BD79
330
2BF35
100
AcDbEntity
  8
HIKIDASHI
100
AcDbLine
 10
2076.903124189239
 20
1557.080229418233
 30
0.0
 11
2813.54893349964
 21
756.040606718153
 31
0.0
1001
ACAD
1000
DSTYLE
1002
{
1070
   147
1040
1.5
1070
    77
1070
     0
1002
}
  0
LINE
  5
2BD7A
330
2BF35
100
AcDbEntity
  8
HIKIDASHI
100
AcDbLine
 10
2084.263856445202
 20
1563.849248598
 30
0.0
 11
2036.28900911064
 21
1601.244622954002
 31
0.0
  0
LINE
  5
2BD7B
330
2BF35
100
AcDbEntity
  8
HIKIDASHI
100
AcDbLine
 10
2036.28900911064
 20
1601.244622954002
 30
0.0
 11
2069.542391933278
 21
1550.311210238466
 31
0.0
  0
SOLID
  5
2BD7C
330
2BF35
100
AcDbEntity
  8
HIKIDASHI
100
AcDbTrace
 10
2084.263856445202
 20
1563.849248598
 30
0.0
 11
2069.542391933278
 21
1550.311210238466
 31
0.0
 12
2036.28900911064
 22
1601.244622954002
 32
0.0
 13
2036.28900911064
 23
1601.244622954002
 33
0.0
  0
LINE
  5
2BD7D
330
2BF35
100
AcDbEntity
  8
HIKIDASHI
100
AcDbLine
 10
2069.542391933278
 20
1550.311210238466
 30
0.0
 11
2084.263856445202
 21
1563.849248598
 31
0.0
  0
LINE
  5
2BD7E
330
2BF35
100
AcDbEntity
  8
HIKIDASHI
100
AcDbLine
 10
2221.920195709659
 20
1700.998983606496
 30
0.0
 11
2886.003881448336
 21
978.8644946268147
 31
0.0
1001
ACAD
1000
DSTYLE
1002
{
1070
   147
1040
1.5
1070
    77
1070
     0
1002
}
  0
LINE
  5
2BD7F
330
2BF35
100
AcDbEntity
  8
HIKIDASHI
100
AcDbLine
 10
2229.28092796562
 20
1707.768002786263
 30
0.0
 11
2181.306080631059
 21
1745.163377142264
 31
0.0
  0
LINE
  5
2BD80
330
2BF35
100
AcDbEntity
  8
HIKIDASHI
100
AcDbLine
 10
2181.306080631059
 20
1745.163377142264
 30
0.0
 11
2214.559463453697
 21
1694.229964426729
 31
0.0
  0
SOLID
  5
2BD81
330
2BF35
100
AcDbEntity
  8
HIKIDASHI
100
AcDbTrace
 10
2229.28092796562
 20
1707.768002786263
 30
0.0
 11
2214.559463453697
 21
1694.229964426729
 31
0.0
 12
2181.306080631059
 22
1745.163377142264
 32
0.0
 13
2181.306080631059
 23
1745.163377142264
 33
0.0
  0
LINE
  5
2BD82
330
2BF35
100
AcDbEntity
  8
HIKIDASHI
100
AcDbLine
 10
2214.559463453697
 20
1694.229964426729
 30
0.0
 11
2229.28092796562
 21
1707.768002786263
 31
0.0
  0
LINE
  5
2BD83
330
2BF35
100
AcDbEntity
  8
HIKIDASHI
100
AcDbLine
 10
2119.072967571308
 20
2073.95381920883
 30
0.0
 11
2489.562271146263
 21
2680.744622954003
 31
0.0
1001
ACAD
1000
DSTYLE
1002
{
1070
   147
1040
1.5
1070
    77
1070
     0
1002
}
  0
LINE
  5
2BD84
330
2BF35
100
AcDbEntity
  8
HIKIDASHI
100
AcDbLine
 10
2110.538101528837
 20
2079.164967032206
 30
0.0
 11
2087.806080631057
 21
2022.744622954002
 31
0.0
  0
LINE
  5
2BD85
330
2BF35
100
AcDbEntity
  8
HIKIDASHI
100
AcDbLine
 10
2087.806080631057
 20
2022.744622954002
 30
0.0
 11
2127.60783361378
 21
2068.742671385455
 31
0.0
  0
SOLID
  5
2BD86
330
2BF35
100
AcDbEntity
  8
HIKIDASHI
100
AcDbTrace
 10
2110.538101528837
 20
2079.164967032206
 30
0.0
 11
2127.60783361378
 21
2068.742671385455
 31
0.0
 12
2087.806080631057
 22
2022.744622954002
 32
0.0
 13
2087.806080631057
 23
2022.744622954002
 33
0.0
  0
LINE
  5
2BD87
330
2BF35
100
AcDbEntity
  8
HIKIDASHI
100
AcDbLine
 10
2127.60783361378
 20
2068.742671385455
 30
0.0
 11
2110.538101528837
 21
2079.164967032206
 31
0.0
  0
LINE
  5
2BD88
330
2BF35
100
AcDbEntity
  8
HIKIDASHI
100
AcDbLine
 10
9729.006690676001
 20
5418.232713972656
 30
0.0
 11
9044.09224819817
 21
4598.464770760362
 31
0.0
1001
ACAD
1000
DSTYLE
1002
{
1070
   147
1040
1.5
1070
    77
1070
     0
1002
}
  0
LINE
  5
2BD89
330
2BF35
100
AcDbEntity
  8
HIKIDASHI
100
AcDbLine
 10
9736.680727671476
 20
5411.82107173435
 30
0.0
 11
9767.47654410585
 21
5464.276935945517
 31
0.0
  0
LINE
  5
2BD8A
330
2BF35
100
AcDbEntity
  8
HIKIDASHI
100
AcDbLine
 10
9767.47654410585
 20
5464.276935945517
 30
0.0
 11
9721.332653680525
 21
5424.644356210966
 31
0.0
  0
SOLID
  5
2BD8B
330
2BF35
100
AcDbEntity
  8
HIKIDASHI
100
AcDbTrace
 10
9736.680727671476
 20
5411.82107173435
 30
0.0
 11
9721.332653680525
 21
5424.644356210966
 31
0.0
 12
9767.47654410585
 22
5464.276935945517
 32
0.0
 13
9767.47654410585
 23
5464.276935945517
 33
0.0
  0
LINE
  5
2BD8C
330
2BF35
100
AcDbEntity
  8
HIKIDASHI
100
AcDbLine
 10
9721.332653680525
 20
5424.644356210966
 30
0.0
 11
9736.680727671476
 21
5411.82107173435
 31
0.0
  0
LINE
  5
2BD8D
330
2BF35
100
AcDbEntity
  8
HIKIDASHI
100
AcDbLine
 10
9729.006690676001
 20
6818.232713972658
 30
0.0
 11
9344.871513029907
 21
6358.464770760363
 31
0.0
1001
ACAD
1000
DSTYLE
1002
{
1070
   147
1040
1.5
1070
    77
1070
     0
1002
}
  0
LINE
  5
2BD8E
330
2BF35
100
AcDbEntity
  8
HIKIDASHI
100
AcDbLine
 10
9736.680727671476
 20
6811.821071734351
 30
0.0
 11
9767.47654410585
 21
6864.276935945518
 31
0.0
  0
LINE
  5
2BD8F
330
2BF35
100
AcDbEntity
  8
HIKIDASHI
100
AcDbLine
 10
9767.47654410585
 20
6864.276935945518
 30
0.0
 11
9721.332653680525
 21
6824.644356210964
 31
0.0
  0
SOLID
  5
2BD90
330
2BF35
100
AcDbEntity
  8
HIKIDASHI
100
AcDbTrace
 10
9736.680727671476
 20
6811.821071734351
 30
0.0
 11
9721.332653680525
 21
6824.644356210964
 31
0.0
 12
9767.47654410585
 22
6864.276935945518
 32
0.0
 13
9767.47654410585
 23
6864.276935945518
 33
0.0
  0
LINE
  5
2BD91
330
2BF35
100
AcDbEntity
  8
HIKIDASHI
100
AcDbLine
 10
9721.332653680525
 20
6824.644356210964
 30
0.0
 11
9736.680727671476
 21
6811.821071734351
 31
0.0
  0
LINE
  5
2BD92
330
2BF35
100
AcDbEntity
  8
HIKIDASHI
100
AcDbLine
 10
9653.724629456409
 20
7041.001515975541
 30
0.0
 11
9258.326065489267
 21
7438.464770760363
 31
0.0
1001
ACAD
1000
DSTYLE
1002
{
1070
   147
1040
1.5
1070
    77
1070
     0
1002
}
  0
LINE
  5
2BD93
330
2BF35
100
AcDbEntity
  8
HIKIDASHI
100
AcDbLine
 10
9646.635171920545
 20
7033.94888583869
 30
0.0
 11
9696.040410277509
 21
6998.464770760367
 31
0.0
  0
LINE
  5
2BD94
330
2BF35
100
AcDbEntity
  8
HIKIDASHI
100
AcDbLine
 10
9696.040410277509
 20
6998.464770760367
 30
0.0
 11
9660.814086992273
 21
7048.054146112392
 31
0.0
  0
SOLID
  5
2BD95
330
2BF35
100
AcDbEntity
  8
HIKIDASHI
100
AcDbTrace
 10
9646.635171920545
 20
7033.94888583869
 30
0.0
 11
9660.814086992273
 21
7048.054146112392
 31
0.0
 12
9696.040410277509
 22
6998.464770760367
 32
0.0
 13
9696.040410277509
 23
6998.464770760367
 33
0.0
  0
LINE
  5
2BD96
330
2BF35
100
AcDbEntity
  8
HIKIDASHI
100
AcDbLine
 10
9660.814086992273
 20
7048.054146112392
 30
0.0
 11
9646.635171920545
 21
7033.94888583869
 31
0.0
  0
LINE
  5
2BD97
330
2BF35
100
AcDbEntity
  8
HIKIDASHI
100
AcDbLine
 10
9846.654774455771
 20
7032.539086226456
 30
0.0
 11
9258.326065489267
 21
7438.464770760363
 31
0.0
1001
ACAD
1000
DSTYLE
1002
{
1070
   147
1040
1.5
1070
    77
1070
     0
1002
}
  0
LINE
  5
2BD98
330
2BF35
100
AcDbEntity
  8
HIKIDASHI
100
AcDbLine
 10
9840.975721878089
 20
7024.308146922831
 30
0.0
 11
9896.040410277509
 21
6998.464770760367
 31
0.0
  0
LINE
  5
2BD99
330
2BF35
100
AcDbEntity
  8
HIKIDASHI
100
AcDbLine
 10
9896.040410277509
 20
6998.464770760367
 30
0.0
 11
9852.333827033453
 21
7040.770025530079
 31
0.0
  0
SOLID
  5
2BD9A
330
2BF35
100
AcDbEntity
  8
HIKIDASHI
100
AcDbTrace
 10
9840.975721878089
 20
7024.308146922831
 30
0.0
 11
9852.333827033453
 21
7040.770025530079
 31
0.0
 12
9896.040410277509
 22
6998.464770760367
 32
0.0
 13
9896.040410277509
 23
6998.464770760367
 33
0.0
  0
LINE
  5
2BD9B
330
2BF35
100
AcDbEntity
  8
HIKIDASHI
100
AcDbLine
 10
9852.333827033453
 20
7040.770025530079
 30
0.0
 11
9840.975721878089
 21
7024.308146922831
 31
0.0
  0
ARC
  5
2BD9C
330
2BF35
100
AcDbEntity
  8
HIKIDASHI
100
AcDbCircle
 10
8774.699688153921
 20
7570.02962664273
 30
0.0
 40
74.6641791044454
100
AcDbArc
 50
301.7712278330709
 51
15.14038701491048
  0
ARC
  5
2BD9D
330
2BF35
100
AcDbEntity
  8
HIKIDASHI
100
AcDbCircle
 10
3750.163132966342
 20
2812.309478836369
 30
0.0
 40
74.66417910444717
100
AcDbArc
 50
301.7712278330705
 51
15.14038701490942
  0
LINE
  5
2BD9E
330
2BF35
100
AcDbEntity
  8
HATCH
100
AcDbLine
 10
2173.80204852599
 20
1360.744622954003
 30
0.0
 11
2231.537075444952
 21
1460.744622954003
 31
0.0
  0
LINE
  5
2BD9F
330
2BF35
100
AcDbEntity
  8
HATCH
100
AcDbLine
 10
2191.537075444952
 20
1460.744622954002
 30
0.0
 11
2211.537075444952
 21
1426.103606802627
 31
0.0
  0
LINE
  5
2BDA0
330
2BF35
100
AcDbEntity
  8
HATCH
100
AcDbLine
 10
2193.802048525989
 20
1395.385639105381
 30
0.0
 11
2213.802048525989
 21
1360.744622954003
 31
0.0
  0
LINE
  5
2BDA1
330
2BF35
100
AcDbEntity
  8
HATCH
100
AcDbLine
 10
1723.802048525991
 20
1360.744622954002
 30
0.0
 11
1781.537075444953
 21
1460.744622954002
 31
0.0
  0
LINE
  5
2BDA2
330
2BF35
100
AcDbEntity
  8
HATCH
100
AcDbLine
 10
1741.537075444954
 20
1460.744622954
 30
0.0
 11
1761.537075444953
 21
1426.103606802626
 31
0.0
  0
LINE
  5
2BDA3
330
2BF35
100
AcDbEntity
  8
HATCH
100
AcDbLine
 10
1743.80204852599
 20
1395.38563910538
 30
0.0
 11
1763.80204852599
 21
1360.744622954002
 31
0.0
  0
LINE
  5
2BDA4
330
2BF35
100
AcDbEntity
  8
HATCH
100
AcDbLine
 10
1873.80204852599
 20
1360.744622954002
 30
0.0
 11
1931.537075444953
 21
1460.744622954002
 31
0.0
  0
LINE
  5
2BDA5
330
2BF35
100
AcDbEntity
  8
HATCH
100
AcDbLine
 10
1891.537075444954
 20
1460.744622954
 30
0.0
 11
1911.537075444954
 21
1426.103606802626
 31
0.0
  0
LINE
  5
2BDA6
330
2BF35
100
AcDbEntity
  8
HATCH
100
AcDbLine
 10
1893.802048525991
 20
1395.38563910538
 30
0.0
 11
1913.80204852599
 21
1360.744622954002
 31
0.0
  0
LINE
  5
2BDA7
330
2BF35
100
AcDbEntity
  8
HATCH
100
AcDbLine
 10
2023.802048525991
 20
1360.744622954003
 30
0.0
 11
2081.537075444954
 21
1460.744622954003
 31
0.0
  0
LINE
  5
2BDA8
330
2BF35
100
AcDbEntity
  8
HATCH
100
AcDbLine
 10
2041.537075444954
 20
1460.744622954002
 30
0.0
 11
2061.537075444954
 21
1426.103606802627
 31
0.0
  0
LINE
  5
2BDA9
330
2BF35
100
AcDbEntity
  8
HATCH
100
AcDbLine
 10
2043.802048525991
 20
1395.385639105381
 30
0.0
 11
2063.80204852599
 21
1360.744622954003
 31
0.0
  0
LINE
  5
2BDAA
330
2BF35
100
AcDbEntity
  8
HATCH
100
AcDbLine
 10
2681.717252581865
 20
1990.744622954002
 30
0.0
 11
2716.358268733265
 21
2050.744622954038
 31
0.0
  0
LINE
  5
2BDAB
330
2BF35
100
AcDbEntity
  8
HATCH
100
AcDbLine
 10
2692.35826873325
 20
2050.744622954038
 30
0.0
 11
2704.358268733257
 21
2029.9600132632
 31
0.0
  0
LINE
  5
2BDAC
330
2BF35
100
AcDbEntity
  8
HATCH
100
AcDbLine
 10
2693.717252581873
 20
2011.529232644841
 30
0.0
 11
2705.717252581881
 21
1990.744622954002
 31
0.0
  0
LINE
  5
2BDAD
330
2BF35
100
AcDbEntity
  8
HATCH
100
AcDbLine
 10
2411.717252581865
 20
1990.744622954002
 30
0.0
 11
2446.358268733265
 21
2050.744622954038
 31
0.0
  0
LINE
  5
2BDAE
330
2BF35
100
AcDbEntity
  8
HATCH
100
AcDbLine
 10
2422.35826873325
 20
2050.744622954038
 30
0.0
 11
2434.358268733257
 21
2029.9600132632
 31
0.0
  0
LINE
  5
2BDAF
330
2BF35
100
AcDbEntity
  8
HATCH
100
AcDbLine
 10
2423.717252581873
 20
2011.529232644841
 30
0.0
 11
2435.717252581881
 21
1990.744622954002
 31
0.0
  0
LINE
  5
2BDB0
330
2BF35
100
AcDbEntity
  8
HATCH
100
AcDbLine
 10
2231.717252581865
 20
1990.744622954002
 30
0.0
 11
2266.358268733264
 21
2050.744622954038
 31
0.0
  0
LINE
  5
2BDB1
330
2BF35
100
AcDbEntity
  8
HATCH
100
AcDbLine
 10
2242.35826873325
 20
2050.744622954038
 30
0.0
 11
2254.358268733257
 21
2029.9600132632
 31
0.0
  0
LINE
  5
2BDB2
330
2BF35
100
AcDbEntity
  8
HATCH
100
AcDbLine
 10
2243.717252581872
 20
2011.529232644841
 30
0.0
 11
2255.71725258188
 21
1990.744622954002
 31
0.0
  0
LINE
  5
2BDB3
330
2BF35
100
AcDbEntity
  8
HATCH
100
AcDbLine
 10
2321.717252581866
 20
1990.744622954002
 30
0.0
 11
2356.358268733265
 21
2050.744622954038
 31
0.0
  0
LINE
  5
2BDB4
330
2BF35
100
AcDbEntity
  8
HATCH
100
AcDbLine
 10
2332.35826873325
 20
2050.744622954038
 30
0.0
 11
2344.358268733257
 21
2029.9600132632
 31
0.0
  0
LINE
  5
2BDB5
330
2BF35
100
AcDbEntity
  8
HATCH
100
AcDbLine
 10
2333.717252581873
 20
2011.529232644841
 30
0.0
 11
2345.71725258188
 21
1990.744622954002
 31
0.0
  0
LINE
  5
2BDB6
330
2BF35
100
AcDbEntity
  8
HATCH
100
AcDbLine
 10
2501.717252581866
 20
1990.744622954002
 30
0.0
 11
2536.358268733265
 21
2050.744622954038
 31
0.0
  0
LINE
  5
2BDB7
330
2BF35
100
AcDbEntity
  8
HATCH
100
AcDbLine
 10
2512.35826873325
 20
2050.744622954038
 30
0.0
 11
2524.358268733257
 21
2029.9600132632
 31
0.0
  0
LINE
  5
2BDB8
330
2BF35
100
AcDbEntity
  8
HATCH
100
AcDbLine
 10
2513.717252581872
 20
2011.529232644841
 30
0.0
 11
2525.71725258188
 21
1990.744622954002
 31
0.0
  0
LINE
  5
2BDB9
330
2BF35
100
AcDbEntity
  8
HATCH
100
AcDbLine
 10
2591.717252581866
 20
1990.744622954002
 30
0.0
 11
2626.358268733265
 21
2050.744622954038
 31
0.0
  0
LINE
  5
2BDBA
330
2BF35
100
AcDbEntity
  8
HATCH
100
AcDbLine
 10
2602.35826873325
 20
2050.744622954038
 30
0.0
 11
2614.358268733258
 21
2029.9600132632
 31
0.0
  0
LINE
  5
2BDBB
330
2BF35
100
AcDbEntity
  8
HATCH
100
AcDbLine
 10
2603.717252581873
 20
2011.529232644841
 30
0.0
 11
2615.717252581881
 21
1990.744622954002
 31
0.0
  0
LINE
  5
2BDBC
330
2BF35
100
AcDbEntity
  8
HATCH
100
AcDbLine
 10
2323.802048525993
 20
1360.744622954003
 30
0.0
 11
2381.537075444956
 21
1460.744622954003
 31
0.0
  0
LINE
  5
2BDBD
330
2BF35
100
AcDbEntity
  8
HATCH
100
AcDbLine
 10
2341.537075444955
 20
1460.744622954002
 30
0.0
 11
2361.537075444956
 21
1426.103606802627
 31
0.0
  0
LINE
  5
2BDBE
330
2BF35
100
AcDbEntity
  8
HATCH
100
AcDbLine
 10
2343.802048525993
 20
1395.385639105381
 30
0.0
 11
2363.802048525993
 21
1360.744622954003
 31
0.0
  0
LINE
  5
2BDBF
330
2BF35
100
AcDbEntity
  8
HATCH
100
AcDbLine
 10
1573.80204852599
 20
1360.744622954003
 30
0.0
 11
1631.537075444954
 21
1460.744622954003
 31
0.0
  0
LINE
  5
2BDC0
330
2BF35
100
AcDbEntity
  8
HATCH
100
AcDbLine
 10
1591.537075444954
 20
1460.744622954002
 30
0.0
 11
1611.537075444954
 21
1426.103606802627
 31
0.0
  0
LINE
  5
2BDC1
330
2BF35
100
AcDbEntity
  8
HATCH
100
AcDbLine
 10
1593.80204852599
 20
1395.385639105381
 30
0.0
 11
1613.80204852599
 21
1360.744622954003
 31
0.0
  0
LINE
  5
2BDC2
330
2BF35
100
AcDbEntity
  8
KISO-1
100
AcDbLine
 10
4621.040410277508
 20
5123.46477076036
 30
0.0
 11
5371.040410277508
 21
5123.46477076036
 31
0.0
  0
LINE
  5
2BDC3
330
2BF35
100
AcDbEntity
  8
KISO-1
100
AcDbLine
 10
5371.040410277508
 20
5123.46477076036
 30
0.0
 11
5371.040410277508
 21
5873.46477076036
 31
0.0
  0
LINE
  5
2BDC4
330
2BF35
100
AcDbEntity
  8
KISO-1
100
AcDbLine
 10
5371.040410277508
 20
5873.46477076036
 30
0.0
 11
4621.040410277508
 21
5873.46477076036
 31
0.0
  0
LINE
  5
2BDC5
330
2BF35
100
AcDbEntity
  8
KISO-1
100
AcDbLine
 10
4621.040410277508
 20
5873.46477076036
 30
0.0
 11
4621.040410277508
 21
5123.46477076036
 31
0.0
  0
LINE
  5
2BDC6
330
2BF35
100
AcDbEntity
  8
KISO-1
100
AcDbLine
 10
5371.040410277508
 20
6523.464770760362
 30
0.0
 11
5371.040410277508
 21
7273.464770760364
 31
0.0
  0
LINE
  5
2BDC7
330
2BF35
100
AcDbEntity
  8
KISO-1
100
AcDbLine
 10
5371.040410277508
 20
7273.464770760364
 30
0.0
 11
4621.040410277508
 21
7273.464770760364
 31
0.0
  0
LINE
  5
2BDC8
330
2BF35
100
AcDbEntity
  8
KISO-1
100
AcDbLine
 10
4621.040410277508
 20
7273.464770760364
 30
0.0
 11
4621.040410277508
 21
6523.464770760362
 31
0.0
  0
LINE
  5
2BDC9
330
2BF35
100
AcDbEntity
  8
KISO-1
100
AcDbLine
 10
4621.040410277508
 20
6523.464770760362
 30
0.0
 11
5371.040410277508
 21
6523.464770760362
 31
0.0
  0
LINE
  5
2BDCA
330
2BF35
100
AcDbEntity
  8
KISO-1
100
AcDbLine
 10
2221.040410277506
 20
5123.46477076036
 30
0.0
 11
2971.040410277508
 21
5123.46477076036
 31
0.0
  0
LINE
  5
2BDCB
330
2BF35
100
AcDbEntity
  8
KISO-1
100
AcDbLine
 10
2971.040410277508
 20
5123.46477076036
 30
0.0
 11
2971.040410277508
 21
5873.46477076036
 31
0.0
  0
LINE
  5
2BDCC
330
2BF35
100
AcDbEntity
  8
KISO-1
100
AcDbLine
 10
2971.040410277508
 20
5873.46477076036
 30
0.0
 11
2221.040410277506
 21
5873.46477076036
 31
0.0
  0
LINE
  5
2BDCD
330
2BF35
100
AcDbEntity
  8
KISO-1
100
AcDbLine
 10
2221.040410277506
 20
5873.46477076036
 30
0.0
 11
2221.040410277506
 21
5123.46477076036
 31
0.0
  0
LINE
  5
2BDCE
330
2BF35
100
AcDbEntity
  8
KISO-1
100
AcDbLine
 10
2971.040410277508
 20
6523.464770760362
 30
0.0
 11
2971.040410277508
 21
7273.464770760364
 31
0.0
  0
LINE
  5
2BDCF
330
2BF35
100
AcDbEntity
  8
KISO-1
100
AcDbLine
 10
2971.040410277508
 20
7273.464770760364
 30
0.0
 11
2221.040410277506
 21
7273.464770760364
 31
0.0
  0
LINE
  5
2BDD0
330
2BF35
100
AcDbEntity
  8
KISO-1
100
AcDbLine
 10
2221.040410277506
 20
7273.464770760364
 30
0.0
 11
2221.040410277506
 21
6523.464770760362
 31
0.0
  0
LINE
  5
2BDD1
330
2BF35
100
AcDbEntity
  8
KISO-1
100
AcDbLine
 10
2221.040410277506
 20
6523.464770760362
 30
0.0
 11
2971.040410277508
 21
6523.464770760362
 31
0.0
  0
LINE
  5
2BDD2
330
2BF35
100
AcDbEntity
  8
KISO-1
100
AcDbLine
 10
7021.040410277509
 20
5123.464770760366
 30
0.0
 11
7771.040410277509
 21
5123.464770760366
 31
0.0
  0
LINE
  5
2BDD3
330
2BF35
100
AcDbEntity
  8
KISO-1
100
AcDbLine
 10
7771.040410277509
 20
5123.464770760366
 30
0.0
 11
7771.040410277509
 21
5873.464770760366
 31
0.0
  0
LINE
  5
2BDD4
330
2BF35
100
AcDbEntity
  8
KISO-1
100
AcDbLine
 10
7771.040410277509
 20
5873.464770760366
 30
0.0
 11
7021.040410277509
 21
5873.464770760366
 31
0.0
  0
LINE
  5
2BDD5
330
2BF35
100
AcDbEntity
  8
KISO-1
100
AcDbLine
 10
7021.040410277509
 20
5873.464770760366
 30
0.0
 11
7021.040410277509
 21
5123.464770760366
 31
0.0
  0
LINE
  5
2BDD6
330
2BF35
100
AcDbEntity
  8
KISO-1
100
AcDbLine
 10
7771.040410277509
 20
6523.464770760367
 30
0.0
 11
7771.040410277509
 21
7273.464770760367
 31
0.0
  0
LINE
  5
2BDD7
330
2BF35
100
AcDbEntity
  8
KISO-1
100
AcDbLine
 10
7771.040410277509
 20
7273.464770760367
 30
0.0
 11
7021.040410277509
 21
7273.464770760367
 31
0.0
  0
LINE
  5
2BDD8
330
2BF35
100
AcDbEntity
  8
KISO-1
100
AcDbLine
 10
7021.040410277509
 20
7273.464770760367
 30
0.0
 11
7021.040410277509
 21
6523.464770760367
 31
0.0
  0
LINE
  5
2BDD9
330
2BF35
100
AcDbEntity
  8
KISO-1
100
AcDbLine
 10
7021.040410277509
 20
6523.464770760367
 30
0.0
 11
7771.040410277509
 21
6523.464770760367
 31
0.0
  0
LINE
  5
2BDDA
330
2BF35
100
AcDbEntity
  8
BOLT
100
AcDbLine
 10
9896.040410277509
 20
7028.464770760367
 30
0.0
 11
9896.040410277509
 21
6968.464770760363
 31
0.0
  0
LINE
  5
2BDDB
330
2BF35
100
AcDbEntity
  8
BOLT
100
AcDbLine
 10
9926.040410277508
 20
6998.464770760367
 30
0.0
 11
9866.040410277509
 21
6998.464770760367
 31
0.0
  0
LINE
  5
2BDDC
330
2BF35
100
AcDbEntity
  8
BOLT
100
AcDbLine
 10
9896.040410277509
 20
6768.464770760366
 30
0.0
 11
9896.040410277509
 21
6828.464770760366
 31
0.0
  0
LINE
  5
2BDDD
330
2BF35
100
AcDbEntity
  8
BOLT
100
AcDbLine
 10
9926.040410277508
 20
6798.464770760367
 30
0.0
 11
9866.040410277509
 21
6798.464770760367
 31
0.0
  0
LINE
  5
2BDDE
330
2BF35
100
AcDbEntity
  8
BOLT
100
AcDbLine
 10
9696.040410277509
 20
7028.464770760367
 30
0.0
 11
9696.040410277509
 21
6968.464770760363
 31
0.0
  0
LINE
  5
2BDDF
330
2BF35
100
AcDbEntity
  8
BOLT
100
AcDbLine
 10
9666.040410277512
 20
6998.464770760367
 30
0.0
 11
9726.040410277509
 21
6998.464770760367
 31
0.0
  0
LINE
  5
2BDE0
330
2BF35
100
AcDbEntity
  8
BOLT
100
AcDbLine
 10
9696.040410277509
 20
6768.464770760366
 30
0.0
 11
9696.040410277509
 21
6828.464770760366
 31
0.0
  0
LINE
  5
2BDE1
330
2BF35
100
AcDbEntity
  8
BOLT
100
AcDbLine
 10
9666.040410277512
 20
6798.464770760367
 30
0.0
 11
9726.040410277509
 21
6798.464770760367
 31
0.0
  0
LINE
  5
2BDE2
330
2BF35
100
AcDbEntity
  8
SIN
100
AcDbLine
 10
9915.590410277514
 20
6898.464770760367
 30
0.0
 11
9676.490410277514
 21
6898.464770760367
 31
0.0
  0
LINE
  5
2BDE3
330
2BF35
100
AcDbEntity
  8
KISO-1
100
AcDbLine
 10
10171.04041027749
 20
6523.464770760367
 30
0.0
 11
10171.04041027749
 21
7273.464770760367
 31
0.0
  0
LINE
  5
2BDE4
330
2BF35
100
AcDbEntity
  8
KISO-1
100
AcDbLine
 10
10171.04041027749
 20
7273.464770760367
 30
0.0
 11
9421.040410277509
 21
7273.464770760367
 31
0.0
  0
LINE
  5
2BDE5
330
2BF35
100
AcDbEntity
  8
KISO-1
100
AcDbLine
 10
9421.040410277509
 20
7273.464770760367
 30
0.0
 11
9421.040410277509
 21
6523.464770760367
 31
0.0
  0
LINE
  5
2BDE6
330
2BF35
100
AcDbEntity
  8
KISO-1
100
AcDbLine
 10
9421.040410277509
 20
6523.464770760367
 30
0.0
 11
10171.04041027749
 21
6523.464770760367
 31
0.0
  0
LINE
  5
2BDE7
330
2BF35
100
AcDbEntity
  8
BOLT
100
AcDbLine
 10
9896.040410277509
 20
5628.464770760366
 30
0.0
 11
9896.040410277509
 21
5568.464770760368
 31
0.0
  0
LINE
  5
2BDE8
330
2BF35
100
AcDbEntity
  8
BOLT
100
AcDbLine
 10
9926.040410277508
 20
5598.464770760362
 30
0.0
 11
9866.040410277509
 21
5598.464770760362
 31
0.0
  0
LINE
  5
2BDE9
330
2BF35
100
AcDbEntity
  8
BOLT
100
AcDbLine
 10
9896.040410277509
 20
5368.464770760366
 30
0.0
 11
9896.040410277509
 21
5428.464770760366
 31
0.0
  0
LINE
  5
2BDEA
330
2BF35
100
AcDbEntity
  8
BOLT
100
AcDbLine
 10
9926.040410277508
 20
5398.464770760366
 30
0.0
 11
9866.040410277509
 21
5398.464770760366
 31
0.0
  0
LINE
  5
2BDEB
330
2BF35
100
AcDbEntity
  8
BOLT
100
AcDbLine
 10
9666.040410277512
 20
5598.464770760362
 30
0.0
 11
9726.040410277509
 21
5598.464770760362
 31
0.0
  0
LINE
  5
2BDEC
330
2BF35
100
AcDbEntity
  8
BOLT
100
AcDbLine
 10
9696.040410277509
 20
5628.464770760366
 30
0.0
 11
9696.040410277509
 21
5568.464770760368
 31
0.0
  0
LINE
  5
2BDED
330
2BF35
100
AcDbEntity
  8
BOLT
100
AcDbLine
 10
9666.040410277512
 20
5398.464770760366
 30
0.0
 11
9726.040410277509
 21
5398.464770760366
 31
0.0
  0
LINE
  5
2BDEE
330
2BF35
100
AcDbEntity
  8
BOLT
100
AcDbLine
 10
9696.040410277509
 20
5368.464770760366
 30
0.0
 11
9696.040410277509
 21
5428.464770760366
 31
0.0
  0
LINE
  5
2BDEF
330
2BF35
100
AcDbEntity
  8
SIN
100
AcDbLine
 10
9915.590410277514
 20
5498.464770760366
 30
0.0
 11
9676.490410277514
 21
5498.464770760366
 31
0.0
  0
LINE
  5
2BDF0
330
2BF35
100
AcDbEntity
  8
KISO-1
100
AcDbLine
 10
9421.040410277509
 20
5123.464770760366
 30
0.0
 11
10171.04041027749
 21
5123.464770760366
 31
0.0
  0
LINE
  5
2BDF1
330
2BF35
100
AcDbEntity
  8
KISO-1
100
AcDbLine
 10
10171.04041027749
 20
5123.464770760366
 30
0.0
 11
10171.04041027749
 21
5873.464770760366
 31
0.0
  0
LINE
  5
2BDF2
330
2BF35
100
AcDbEntity
  8
KISO-1
100
AcDbLine
 10
10171.04041027749
 20
5873.464770760366
 30
0.0
 11
9421.040410277509
 21
5873.464770760366
 31
0.0
  0
LINE
  5
2BDF3
330
2BF35
100
AcDbEntity
  8
KISO-1
100
AcDbLine
 10
9421.040410277509
 20
5873.464770760366
 30
0.0
 11
9421.040410277509
 21
5123.464770760366
 31
0.0
  0
LINE
  5
2BDF4
330
2BF35
100
AcDbEntity
  8
YANE
100
AcDbLine
 10
10017.84106332874
 20
5024.915498379022
 30
0.0
 11
2374.239757226271
 21
5024.915498379022
 31
0.0
  0
LINE
  5
2BDF5
330
2BF35
100
AcDbEntity
  8
YANE
100
AcDbLine
 10
2374.239757226271
 20
5024.915498379022
 30
0.0
 11
2374.239757226271
 21
7013.014770760363
 31
0.0
  0
LINE
  5
2BDF6
330
2BF35
100
AcDbEntity
  8
YANE
100
AcDbLine
 10
2374.239757226271
 20
7013.014770760363
 30
0.0
 11
8956.040410277507
 21
7013.014770760363
 31
0.0
  0
LINE
  5
2BDF7
330
2BF35
100
AcDbEntity
  8
DOMAKON
100
AcDbLine
 10
9106.040410277508
 20
7138.464770760363
 30
0.0
 11
10196.0404102775
 21
7138.464770760363
 31
0.0
  0
LINE
  5
2BDF8
330
2BF35
100
AcDbEntity
  8
DOMAKON
100
AcDbLine
 10
10196.0404102775
 20
7138.464770760363
 30
0.0
 11
10196.0404102775
 21
4898.464770760362
 31
0.0
  0
LINE
  5
2BDF9
330
2BF35
100
AcDbEntity
  8
DOMAKON
100
AcDbLine
 10
10196.0404102775
 20
4898.464770760362
 30
0.0
 11
6256.040410277512
 21
4898.464770760362
 31
0.0
  0
LINE
  5
2BDFA
330
2BF35
100
AcDbEntity
  8
DOMAKON
100
AcDbLine
 10
6256.040410277512
 20
7138.464770760363
 30
0.0
 11
8956.040410277507
 21
7138.464770760363
 31
0.0
  0
LINE
  5
2BDFB
330
2BF35
100
AcDbEntity
  8
HASIRA
100
AcDbLine
 10
1936.756080631059
 20
2002.744622954002
 30
0.0
 11
1936.756080631059
 21
2548.731527970458
 31
0.0
  0
LINE
  5
2BDFC
330
2BF35
100
AcDbEntity
  8
HASIRA
100
AcDbLine
 10
2025.856080631061
 20
2002.744622954002
 30
0.0
 11
2025.85608063106
 21
2548.731527970458
 31
0.0
  0
LINE
  5
2BDFD
330
2BF35
100
AcDbEntity
  8
1PL-M1
100
AcDbLine
 10
1981.306080631058
 20
1035.322626136144
 30
0.0
 11
1981.306080631058
 21
2548.731527970458
 31
0.0
  0
LINE
  5
2BDFE
330
2BF35
100
AcDbEntity
  8
TENSEN-1
100
AcDbLine
 10
1844.806080631057
 20
1615.744622954003
 30
0.0
 11
1874.806080631057
 21
1615.744622954003
 31
0.0
  0
LINE
  5
2BDFF
330
2BF35
100
AcDbEntity
  8
TENSEN-1
100
AcDbLine
 10
1874.806080631057
 20
1615.744622954003
 30
0.0
 11
1874.806080631057
 21
2022.744622954002
 31
0.0
  0
LINE
  5
2BE00
330
2BF35
100
AcDbEntity
  8
TENSEN-1
100
AcDbLine
 10
1874.806080631057
 20
2022.744622954002
 30
0.0
 11
1887.806080631056
 21
2022.744622954002
 31
0.0
  0
LINE
  5
2BE01
330
2BF35
100
AcDbEntity
  8
TENSEN-1
100
AcDbLine
 10
1887.806080631056
 20
2022.744622954002
 30
0.0
 11
1887.806080631057
 21
1602.744622954002
 31
0.0
  0
LINE
  5
2BE02
330
2BF35
100
AcDbEntity
  8
TENSEN-1
100
AcDbLine
 10
1887.806080631057
 20
1602.744622954002
 30
0.0
 11
1844.806080631057
 21
1602.744622954002
 31
0.0
  0
LINE
  5
2BE03
330
2BF35
100
AcDbEntity
  8
TENSEN-1
100
AcDbLine
 10
1844.806080631057
 20
1602.744622954002
 30
0.0
 11
1844.806080631057
 21
1615.744622954003
 31
0.0
  0
LINE
  5
2BE04
330
2BF35
100
AcDbEntity
  8
TENSEN-1
100
AcDbLine
 10
2117.806080631059
 20
1615.744622954003
 30
0.0
 11
2087.806080631059
 21
1615.744622954003
 31
0.0
  0
LINE
  5
2BE05
330
2BF35
100
AcDbEntity
  8
TENSEN-1
100
AcDbLine
 10
2087.806080631059
 20
1615.744622954003
 30
0.0
 11
2087.806080631057
 21
2022.744622954002
 31
0.0
  0
LINE
  5
2BE06
330
2BF35
100
AcDbEntity
  8
TENSEN-1
100
AcDbLine
 10
2087.806080631057
 20
2022.744622954002
 30
0.0
 11
2074.806080631059
 21
2022.744622954002
 31
0.0
  0
LINE
  5
2BE07
330
2BF35
100
AcDbEntity
  8
TENSEN-1
100
AcDbLine
 10
2074.806080631059
 20
2022.744622954002
 30
0.0
 11
2074.806080631059
 21
1602.744622954002
 31
0.0
  0
LINE
  5
2BE08
330
2BF35
100
AcDbEntity
  8
TENSEN-1
100
AcDbLine
 10
2074.806080631059
 20
1602.744622954002
 30
0.0
 11
2117.806080631057
 21
1602.744622954002
 31
0.0
  0
LINE
  5
2BE09
330
2BF35
100
AcDbEntity
  8
TENSEN-1
100
AcDbLine
 10
2117.806080631057
 20
1602.744622954002
 30
0.0
 11
2117.806080631059
 21
1615.744622954003
 31
0.0
  0
LINE
  5
2BE0A
330
2BF35
100
AcDbEntity
  8
KISO
100
AcDbLine
 10
1841.306080631057
 20
1990.744622954002
 30
0.0
 11
2121.306080631059
 21
1990.744622954002
 31
0.0
  0
LINE
  5
2BE0B
330
2BF35
100
AcDbEntity
  8
KISO
100
AcDbLine
 10
2121.306080631059
 20
1990.744622954002
 30
0.0
 11
2121.306080631059
 21
2002.744622954002
 31
0.0
  0
LINE
  5
2BE0C
330
2BF35
100
AcDbEntity
  8
KISO
100
AcDbLine
 10
2121.306080631059
 20
2002.744622954002
 30
0.0
 11
1841.306080631057
 21
2002.744622954002
 31
0.0
  0
LINE
  5
2BE0D
330
2BF35
100
AcDbEntity
  8
KISO
100
AcDbLine
 10
1841.306080631057
 20
2002.744622954002
 30
0.0
 11
1841.306080631057
 21
1990.744622954002
 31
0.0
  0
LINE
  5
2BE0E
330
2BF35
100
AcDbEntity
  8
KISO-3
100
AcDbLine
 10
2356.040410277507
 20
5738.464770760362
 30
0.0
 11
2356.040410277507
 21
5258.464770760366
 31
0.0
  0
LINE
  5
2BE0F
330
2BF35
100
AcDbEntity
  8
KISO-3
100
AcDbLine
 10
2356.040410277507
 20
5258.464770760366
 30
0.0
 11
2836.040410277508
 21
5258.464770760366
 31
0.0
  0
LINE
  5
2BE10
330
2BF35
100
AcDbEntity
  8
KISO-3
100
AcDbLine
 10
2836.040410277508
 20
5258.464770760366
 30
0.0
 11
2836.040410277508
 21
5738.464770760362
 31
0.0
  0
LINE
  5
2BE11
330
2BF35
100
AcDbEntity
  8
KISO-3
100
AcDbLine
 10
2356.040410277507
 20
7138.464770760363
 30
0.0
 11
2356.040410277507
 21
6658.464770760367
 31
0.0
  0
LINE
  5
2BE12
330
2BF35
100
AcDbEntity
  8
KISO-3
100
AcDbLine
 10
2356.040410277507
 20
6658.464770760367
 30
0.0
 11
2836.040410277508
 21
6658.464770760367
 31
0.0
  0
LINE
  5
2BE13
330
2BF35
100
AcDbEntity
  8
KISO-3
100
AcDbLine
 10
2836.040410277508
 20
6658.464770760367
 30
0.0
 11
2836.040410277508
 21
7138.464770760363
 31
0.0
  0
LINE
  5
2BE14
330
2BF35
100
AcDbEntity
  8
DOMAKON
100
AcDbLine
 10
2196.040410277507
 20
7138.464770760363
 30
0.0
 11
6136.040410277509
 21
7138.464770760363
 31
0.0
  0
LINE
  5
2BE15
330
2BF35
100
AcDbEntity
  8
DOMAKON
100
AcDbLine
 10
6136.040410277509
 20
4898.464770760362
 30
0.0
 11
2196.040410277507
 21
4898.464770760362
 31
0.0
  0
LINE
  5
2BE16
330
2BF35
100
AcDbEntity
  8
DOMAKON
100
AcDbLine
 10
2196.040410277507
 20
4898.464770760362
 30
0.0
 11
2196.040410277507
 21
7138.464770760363
 31
0.0
  0
LINE
  5
2BE17
330
2BF35
100
AcDbEntity
  8
KISO-2
100
AcDbLine
 10
2736.040410277507
 20
5358.464770760363
 30
0.0
 11
2456.040410277509
 21
5358.464770760363
 31
0.0
  0
LINE
  5
2BE18
330
2BF35
100
AcDbEntity
  8
KISO-2
100
AcDbLine
 10
2456.040410277509
 20
5358.464770760363
 30
0.0
 11
2456.040410277509
 21
5638.464770760363
 31
0.0
  0
LINE
  5
2BE19
330
2BF35
100
AcDbEntity
  8
KISO-2
100
AcDbLine
 10
2456.040410277509
 20
5638.464770760363
 30
0.0
 11
2736.040410277507
 21
5638.464770760363
 31
0.0
  0
LINE
  5
2BE1A
330
2BF35
100
AcDbEntity
  8
KISO-2
100
AcDbLine
 10
2736.040410277507
 20
5638.464770760363
 30
0.0
 11
2736.040410277507
 21
5358.464770760363
 31
0.0
  0
LINE
  5
2BE1B
330
2BF35
100
AcDbEntity
  8
KISO-2
100
AcDbLine
 10
2736.040410277507
 20
6758.464770760366
 30
0.0
 11
2456.040410277509
 21
6758.464770760366
 31
0.0
  0
LINE
  5
2BE1C
330
2BF35
100
AcDbEntity
  8
KISO-2
100
AcDbLine
 10
2456.040410277509
 20
6758.464770760366
 30
0.0
 11
2456.040410277509
 21
7038.464770760363
 31
0.0
  0
LINE
  5
2BE1D
330
2BF35
100
AcDbEntity
  8
KISO-2
100
AcDbLine
 10
2456.040410277509
 20
7038.464770760363
 30
0.0
 11
2736.040410277507
 21
7038.464770760363
 31
0.0
  0
LINE
  5
2BE1E
330
2BF35
100
AcDbEntity
  8
KISO-2
100
AcDbLine
 10
2736.040410277507
 20
7038.464770760363
 30
0.0
 11
2736.040410277507
 21
6758.464770760366
 31
0.0
  0
LINE
  5
2BE1F
330
2BF35
100
AcDbEntity
  8
KISO-3
100
AcDbLine
 10
4756.040410277508
 20
5738.464770760362
 30
0.0
 11
4756.040410277508
 21
5258.464770760366
 31
0.0
  0
LINE
  5
2BE20
330
2BF35
100
AcDbEntity
  8
KISO-3
100
AcDbLine
 10
4756.040410277508
 20
5258.464770760366
 30
0.0
 11
5236.040410277508
 21
5258.464770760366
 31
0.0
  0
LINE
  5
2BE21
330
2BF35
100
AcDbEntity
  8
KISO-3
100
AcDbLine
 10
5236.040410277508
 20
5258.464770760366
 30
0.0
 11
5236.040410277508
 21
5738.464770760362
 31
0.0
  0
LINE
  5
2BE22
330
2BF35
100
AcDbEntity
  8
KISO-2
100
AcDbLine
 10
5136.040410277509
 20
5358.464770760363
 30
0.0
 11
4856.040410277508
 21
5358.464770760363
 31
0.0
  0
LINE
  5
2BE23
330
2BF35
100
AcDbEntity
  8
KISO-2
100
AcDbLine
 10
4856.040410277508
 20
5358.464770760363
 30
0.0
 11
4856.040410277508
 21
5638.464770760363
 31
0.0
  0
LINE
  5
2BE24
330
2BF35
100
AcDbEntity
  8
KISO-2
100
AcDbLine
 10
4856.040410277508
 20
5638.464770760363
 30
0.0
 11
5136.040410277509
 21
5638.464770760363
 31
0.0
  0
LINE
  5
2BE25
330
2BF35
100
AcDbEntity
  8
KISO-2
100
AcDbLine
 10
5136.040410277509
 20
5638.464770760363
 30
0.0
 11
5136.040410277509
 21
5358.464770760363
 31
0.0
  0
LINE
  5
2BE26
330
2BF35
100
AcDbEntity
  8
KISO-3
100
AcDbLine
 10
4756.040410277508
 20
7138.464770760363
 30
0.0
 11
4756.040410277508
 21
6658.464770760367
 31
0.0
  0
LINE
  5
2BE27
330
2BF35
100
AcDbEntity
  8
KISO-3
100
AcDbLine
 10
4756.040410277508
 20
6658.464770760367
 30
0.0
 11
5236.040410277508
 21
6658.464770760367
 31
0.0
  0
LINE
  5
2BE28
330
2BF35
100
AcDbEntity
  8
KISO-3
100
AcDbLine
 10
5236.040410277508
 20
6658.464770760367
 30
0.0
 11
5236.040410277508
 21
7138.464770760363
 31
0.0
  0
LINE
  5
2BE29
330
2BF35
100
AcDbEntity
  8
KISO-2
100
AcDbLine
 10
5136.040410277509
 20
6758.464770760366
 30
0.0
 11
4856.040410277508
 21
6758.464770760366
 31
0.0
  0
LINE
  5
2BE2A
330
2BF35
100
AcDbEntity
  8
KISO-2
100
AcDbLine
 10
4856.040410277508
 20
6758.464770760366
 30
0.0
 11
4856.040410277508
 21
7038.464770760363
 31
0.0
  0
LINE
  5
2BE2B
330
2BF35
100
AcDbEntity
  8
KISO-2
100
AcDbLine
 10
4856.040410277508
 20
7038.464770760363
 30
0.0
 11
5136.040410277509
 21
7038.464770760363
 31
0.0
  0
LINE
  5
2BE2C
330
2BF35
100
AcDbEntity
  8
KISO-2
100
AcDbLine
 10
5136.040410277509
 20
7038.464770760363
 30
0.0
 11
5136.040410277509
 21
6758.464770760366
 31
0.0
  0
LINE
  5
2BE2D
330
2BF35
100
AcDbEntity
  8
KISO-2
100
AcDbLine
 10
7536.040410277507
 20
5358.464770760363
 30
0.0
 11
7256.040410277508
 21
5358.464770760363
 31
0.0
  0
LINE
  5
2BE2E
330
2BF35
100
AcDbEntity
  8
KISO-2
100
AcDbLine
 10
7256.040410277508
 20
5358.464770760363
 30
0.0
 11
7256.040410277508
 21
5638.464770760363
 31
0.0
  0
LINE
  5
2BE2F
330
2BF35
100
AcDbEntity
  8
KISO-2
100
AcDbLine
 10
7256.040410277508
 20
5638.464770760363
 30
0.0
 11
7536.040410277507
 21
5638.464770760363
 31
0.0
  0
LINE
  5
2BE30
330
2BF35
100
AcDbEntity
  8
KISO-2
100
AcDbLine
 10
7536.040410277507
 20
5638.464770760363
 30
0.0
 11
7536.040410277507
 21
5358.464770760363
 31
0.0
  0
LINE
  5
2BE31
330
2BF35
100
AcDbEntity
  8
KISO-3
100
AcDbLine
 10
7156.040410277508
 20
5738.464770760362
 30
0.0
 11
7156.040410277508
 21
5258.464770760366
 31
0.0
  0
LINE
  5
2BE32
330
2BF35
100
AcDbEntity
  8
KISO-3
100
AcDbLine
 10
7156.040410277508
 20
5258.464770760366
 30
0.0
 11
7636.040410277508
 21
5258.464770760366
 31
0.0
  0
LINE
  5
2BE33
330
2BF35
100
AcDbEntity
  8
KISO-3
100
AcDbLine
 10
7636.040410277508
 20
5258.464770760366
 30
0.0
 11
7636.040410277508
 21
5738.464770760362
 31
0.0
  0
LINE
  5
2BE34
330
2BF35
100
AcDbEntity
  8
KISO-2
100
AcDbLine
 10
7536.040410277507
 20
6758.464770760366
 30
0.0
 11
7256.040410277508
 21
6758.464770760366
 31
0.0
  0
LINE
  5
2BE35
330
2BF35
100
AcDbEntity
  8
KISO-2
100
AcDbLine
 10
7256.040410277508
 20
6758.464770760366
 30
0.0
 11
7256.040410277508
 21
7038.464770760363
 31
0.0
  0
LINE
  5
2BE36
330
2BF35
100
AcDbEntity
  8
KISO-2
100
AcDbLine
 10
7256.040410277508
 20
7038.464770760363
 30
0.0
 11
7536.040410277507
 21
7038.464770760363
 31
0.0
  0
LINE
  5
2BE37
330
2BF35
100
AcDbEntity
  8
KISO-2
100
AcDbLine
 10
7536.040410277507
 20
7038.464770760363
 30
0.0
 11
7536.040410277507
 21
6758.464770760366
 31
0.0
  0
LINE
  5
2BE38
330
2BF35
100
AcDbEntity
  8
KISO-3
100
AcDbLine
 10
7156.040410277508
 20
7138.464770760363
 30
0.0
 11
7156.040410277508
 21
6658.464770760367
 31
0.0
  0
LINE
  5
2BE39
330
2BF35
100
AcDbEntity
  8
KISO-3
100
AcDbLine
 10
7156.040410277508
 20
6658.464770760367
 30
0.0
 11
7636.040410277508
 21
6658.464770760367
 31
0.0
  0
LINE
  5
2BE3A
330
2BF35
100
AcDbEntity
  8
KISO-3
100
AcDbLine
 10
7636.040410277508
 20
6658.464770760367
 30
0.0
 11
7636.040410277508
 21
7138.464770760363
 31
0.0
  0
LINE
  5
2BE3B
330
2BF35
100
AcDbEntity
  8
YANE
100
AcDbLine
 10
9106.040410277508
 20
7013.014770760363
 30
0.0
 11
10017.84106332874
 21
7013.014770760363
 31
0.0
  0
LINE
  5
2BE3C
330
2BF35
100
AcDbEntity
  8
YANE
100
AcDbLine
 10
10017.84106332874
 20
7013.014770760363
 30
0.0
 11
10017.84106332874
 21
5024.915498379022
 31
0.0
  0
LINE
  5
2BE3D
330
2BF35
100
AcDbEntity
  8
KISO-2
100
AcDbLine
 10
9936.040410277508
 20
6758.464770760366
 30
0.0
 11
9656.040410277508
 21
6758.464770760366
 31
0.0
  0
LINE
  5
2BE3E
330
2BF35
100
AcDbEntity
  8
KISO-2
100
AcDbLine
 10
9656.040410277508
 20
6758.464770760366
 30
0.0
 11
9656.040410277508
 21
7038.464770760363
 31
0.0
  0
LINE
  5
2BE3F
330
2BF35
100
AcDbEntity
  8
KISO-2
100
AcDbLine
 10
9656.040410277508
 20
7038.464770760363
 30
0.0
 11
9936.040410277508
 21
7038.464770760363
 31
0.0
  0
LINE
  5
2BE40
330
2BF35
100
AcDbEntity
  8
KISO-2
100
AcDbLine
 10
9936.040410277508
 20
7038.464770760363
 30
0.0
 11
9936.040410277508
 21
6758.464770760366
 31
0.0
  0
LINE
  5
2BE41
330
2BF35
100
AcDbEntity
  8
KISO-3
100
AcDbLine
 10
9556.040410277509
 20
7138.464770760363
 30
0.0
 11
9556.040410277509
 21
6658.464770760367
 31
0.0
  0
LINE
  5
2BE42
330
2BF35
100
AcDbEntity
  8
KISO-3
100
AcDbLine
 10
9556.040410277509
 20
6658.464770760367
 30
0.0
 11
10036.0404102775
 21
6658.464770760367
 31
0.0
  0
LINE
  5
2BE43
330
2BF35
100
AcDbEntity
  8
KISO-3
100
AcDbLine
 10
10036.0404102775
 20
6658.464770760367
 30
0.0
 11
10036.0404102775
 21
7138.464770760363
 31
0.0
  0
LINE
  5
2BE44
330
2BF35
100
AcDbEntity
  8
KISO-3
100
AcDbLine
 10
10036.0404102775
 20
5738.464770760362
 30
0.0
 11
9556.040410277509
 21
5738.464770760362
 31
0.0
  0
LINE
  5
2BE45
330
2BF35
100
AcDbEntity
  8
KISO-3
100
AcDbLine
 10
9556.040410277509
 20
5738.464770760362
 30
0.0
 11
9556.040410277509
 21
5258.464770760366
 31
0.0
  0
LINE
  5
2BE46
330
2BF35
100
AcDbEntity
  8
KISO-3
100
AcDbLine
 10
9556.040410277509
 20
5258.464770760366
 30
0.0
 11
10036.0404102775
 21
5258.464770760366
 31
0.0
  0
LINE
  5
2BE47
330
2BF35
100
AcDbEntity
  8
KISO-3
100
AcDbLine
 10
10036.0404102775
 20
5258.464770760366
 30
0.0
 11
10036.0404102775
 21
5738.464770760362
 31
0.0
  0
LINE
  5
2BE48
330
2BF35
100
AcDbEntity
  8
KISO-2
100
AcDbLine
 10
9936.040410277508
 20
5358.464770760363
 30
0.0
 11
9656.040410277508
 21
5358.464770760363
 31
0.0
  0
LINE
  5
2BE49
330
2BF35
100
AcDbEntity
  8
KISO-2
100
AcDbLine
 10
9656.040410277508
 20
5358.464770760363
 30
0.0
 11
9656.040410277508
 21
5638.464770760363
 31
0.0
  0
LINE
  5
2BE4A
330
2BF35
100
AcDbEntity
  8
KISO-2
100
AcDbLine
 10
9656.040410277508
 20
5638.464770760363
 30
0.0
 11
9936.040410277508
 21
5638.464770760363
 31
0.0
  0
LINE
  5
2BE4B
330
2BF35
100
AcDbEntity
  8
KISO-2
100
AcDbLine
 10
9936.040410277508
 20
5638.464770760363
 30
0.0
 11
9936.040410277508
 21
5358.464770760363
 31
0.0
  0
TEXT
  5
2BFE8
330
2BF35
100
AcDbEntity
  8
SUNPOU
100
AcDbText
 10
10097.4496184353
 20
2815.286123950221
 30
0.0
 40
89.9993750043402
  1
18
 41
0.6700000000000001
  7
01
100
AcDbText
  0
TEXT
  5
2BFE9
330
2BF35
100
AcDbEntity
  8
SUNPOU
100
AcDbText
 10
8053.394885237995
 20
2436.00040966451
 30
0.0
 40
90.0
  1
寒冷地の場合、凍結深度等を考慮し、実情に
  7
01
100
AcDbText
  0
TEXT
  5
2BFEA
330
2BF35
100
AcDbEntity
  8
SUNPOU
100
AcDbText
 10
8053.394885237995
 20
2127.428981093079
 30
0.0
 40
90.0
  1
その他現地の実情にあわせて設計して下さい。
  7
01
100
AcDbText
  0
TEXT
  5
2BFEB
330
2BF35
100
AcDbEntity
  8
SUNPOU
100
AcDbText
 10
7678.439140148602
 20
2815.286123950221
 30
0.0
 40
89.9993750043402
  1
地耐力   　　　 以上,コンクリート設計基準強度　　　　　以上
  7
01
100
AcDbText
  0
TEXT
  5
2BFEC
330
2BF35
100
AcDbEntity
  8
SUNPOU
100
AcDbText
 10
8053.394885237995
 20
1818.857552521651
 30
0.0
 40
90.0
  1
地域によっては、フックをつける様指導している
  7
01
100
AcDbText
  0
TEXT
  5
2BFED
330
2BF35
100
AcDbEntity
  8
SUNPOU
100
AcDbText
 10
8053.394885237995
 20
1973.143266807366
 30
0.0
 40
90.0
  1
異形鉄筋の場合、原則としてフックは不要ですが、
  7
01
100
AcDbText
  0
TEXT
  5
2BFEE
330
2BF35
100
AcDbEntity
  8
SUNPOU
100
AcDbText
 10
7673.232654289508
 20
3162.040126396178
 30
0.0
 40
120.0
  1
基礎断面図
  7
01
 72
     4
 11
8013.232654289508
 21
3222.040126396178
 31
0.0
100
AcDbText
  0
TEXT
  5
2BFEF
330
2BF35
100
AcDbEntity
  8
SUNPOU
100
AcDbText
 10
8053.394885237995
 20
1664.571838235936
 30
0.0
 40
90.0
  1
所もありますので、ご注意願います。
  7
01
100
AcDbText
  0
TEXT
  5
2BFF0
330
2BF35
100
AcDbEntity
  8
SUNPOU
100
AcDbText
 10
7547.87551143237
 20
3004.540126396178
 30
0.0
 40
90.0
  1
<下記条件での参考図>
  7
01
 72
     4
 11
8136.732654289515
 21
3049.540126396178
 31
0.0
100
AcDbText
  0
TEXT
  5
2BFF1
330
2BF35
100
AcDbEntity
  8
SUNPOU
100
AcDbText
 10
7678.439140148602
 20
2661.000409664509
 30
0.0
 40
89.9993750043402
  1
基準風速   　　 , 地表面粗度区分
  7
01
100
AcDbText
  0
TEXT
  5
2BFF2
330
2BF35
100
AcDbEntity
  8
SUNPOU
100
AcDbText
 10
8053.394885237995
 20
2281.714695378793
 30
0.0
 40
90.0
  1
あわせて設計して下さい。
  7
01
100
AcDbText
  0
TEXT
  5
2BFF3
330
2BF35
100
AcDbEntity
  8
SUNPOU
100
AcDbText
 10
8052.697547573673
 20
2815.286123950221
 30
0.0
 40
89.9993750043402
  1
50  N/m
 41
0.6700000000000001
  7
01
100
AcDbText
  0
TEXT
  5
2BFF4
330
2BF35
100
AcDbEntity
  8
SUNPOU
100
AcDbText
 10
8162.202568813762
 20
2661.000409664509
 30
0.0
 40
89.9993750043402
  1
34 m/s
 41
0.6700000000000001
  7
01
100
AcDbText
  0
ARC
  5
2BFF5
330
2BF35
100
AcDbEntity
  8
SUNPOU
100
AcDbCircle
 10
7831.397414055803
 20
2779.073547392052
 30
0.0
 40
225.0
100
AcDbArc
 50
148.3472725282761
 51
211.6527274717238
  0
TEXT
  5
2BFF6
330
2BF35
100
AcDbEntity
  8
SUNPOU
100
AcDbText
 10
7736.555219935876
 20
2127.428981093079
 30
0.0
 40
90.0
  1
注　）
  7
01
100
AcDbText
  0
TEXT
  5
2BFF7
330
2BF35
100
AcDbEntity
  8
SUNPOU
100
AcDbText
 10
7847.189140148602
 20
2127.428981093079
 30
0.0
 40
90.0
  1
2
 41
0.6700000000000001
  7
01
100
AcDbText
  0
TEXT
  5
2BFF8
330
2BF35
100
AcDbEntity
  8
SUNPOU
100
AcDbText
 10
7736.555219935876
 20
1973.143266807366
 30
0.0
 40
90.0
  1
注　）
  7
01
100
AcDbText
  0
TEXT
  5
2BFF9
330
2BF35
100
AcDbEntity
  8
SUNPOU
100
AcDbText
 10
7847.189140148602
 20
1973.143266807366
 30
0.0
 40
90.0
  1
3
 41
0.6700000000000001
  7
01
100
AcDbText
  0
TEXT
  5
2BFFA
330
2BF35
100
AcDbEntity
  8
SUNPOU
100
AcDbText
 10
7736.555219935876
 20
2436.00040966451
 30
0.0
 40
90.0
  1
注　）
  7
01
100
AcDbText
  0
TEXT
  5
2BFFB
330
2BF35
100
AcDbEntity
  8
SUNPOU
100
AcDbText
 10
7847.189140148602
 20
2436.00040966451
 30
0.0
 40
90.0
  1
1
 41
0.6700000000000001
  7
01
100
AcDbText
  0
TEXT
  5
2BFFC
330
2BF35
100
AcDbEntity
  8
SUNPOU
100
AcDbText
 10
8456.174157088019
 20
2865.474550307708
 30
0.0
 40
46.28539285937498
  1
2
 41
0.6700000000000001
  7
00
100
AcDbText
  0
TEXT
  5
2BFFD
330
2BF35
100
AcDbEntity
  8
SUNPOU
100
AcDbText
 10
8188.534000359625
 20
2815.286123950221
 30
0.0
 40
71.99950000347218
  1
K
 41
0.6700000000000001
  7
01
100
AcDbText
  0
LINE
  5
2BFFE
330
2BF35
100
AcDbEntity
  8
SUNPOU
100
AcDbLine
 10
9481.5047017152
 20
2661.000409664509
 30
0.0
 11
9481.5047017152
 21
2744.492773363287
 31
0.0
  0
LINE
  5
2BFFF
330
2BF35
100
AcDbEntity
  8
SUNPOU
100
AcDbLine
 10
9498.379701715199
 20
2661.000409664509
 30
0.0
 11
9498.379701715199
 21
2744.492773363287
 31
0.0
  0
LINE
  5
2C000
330
2BF35
100
AcDbEntity
  8
SUNPOU
100
AcDbLine
 10
9515.254701715202
 20
2661.000409664509
 30
0.0
 11
9515.254701715202
 21
2744.492773363287
 31
0.0
  0
LINE
  5
2C001
330
2BF35
100
AcDbEntity
  8
SUNPOU
100
AcDbLine
 10
9470.254701715202
 20
2661.000409664508
 30
0.0
 11
9526.504701715202
 21
2661.000409664508
 31
0.0
  0
LINE
  5
2C002
330
2BF35
100
AcDbEntity
  8
SUNPOU
100
AcDbLine
 10
9470.254701715202
 20
2744.492773363287
 30
0.0
 11
9526.504701715202
 21
2744.492773363287
 31
0.0
  0
TEXT
  5
2C003
330
2BF35
100
AcDbEntity
  8
SUNPOU
100
AcDbText
 10
8390.082991652484
 20
3174.34781870387
 30
0.0
 40
92.30769230769228
  1
（ S = 　　  ）
 41
0.6700000000000001
  7
00
 11
8390.082991652484
 21
3162.040126396178
 31
0.0
100
AcDbText
 73
     1
  0
TEXT
  5
2C004
330
2BF35
100
AcDbEntity
  8
SUNPOU
100
AcDbText
 10
8709.785693505549
 20
3190.347818703871
 30
0.0
 40
73.84615384615384
  1
1
 41
0.6700000000000001
  7
00
 11
8709.785693505549
 21
3180.501664857718
 31
0.0
100
AcDbText
 73
     1
  0
TEXT
  5
2C005
330
2BF35
100
AcDbEntity
  8
SUNPOU
100
AcDbText
 10
8758.191820820924
 20
3171.886280242332
 30
0.0
 40
73.84615384615384
  1
/
 41
0.6700000000000001
  7
00
 11
8758.191820820924
 21
3162.040126396178
 31
0.0
100
AcDbText
 73
     1
  0
TEXT
  5
2C006
330
2BF35
100
AcDbEntity
  8
SUNPOU
100
AcDbText
 10
8822.141263775298
 20
3153.424741780792
 30
0.0
 40
73.84615384615384
  1
30
 41
0.6700000000000001
  7
00
 11
8822.141263775298
 21
3143.578587934638
 31
0.0
100
AcDbText
 73
     1
  0
ARC
  5
2C007
330
2BF35
100
AcDbEntity
  8
SUNPOU
100
AcDbCircle
 10
10686.62781778627
 20
2779.073547392052
 30
0.0
 40
225.0
100
AcDbArc
 50
328.3472725282761
 51
31.65272747172387
  0
TEXT
  5
2C008
330
2BF35
100
AcDbEntity
  8
SUNPOU
100
AcDbText
 10
10537.75055325265
 20
2865.474550307708
 30
0.0
 40
46.28539285937498
  1
2
 41
0.6700000000000001
  7
00
100
AcDbText
  0
TEXT
  5
2C009
330
2BF35
100
AcDbEntity
  8
SUNPOU
100
AcDbText
 10
10233.28607122124
 20
2815.286123950221
 30
0.0
 40
89.9993750043402
  1
N/mm
 41
0.6700000000000001
  7
01
100
AcDbText
  0
ENDSEC
  0
SECTION
  2
OBJECTS
  0
DICTIONARY
  5
2BF25
330
0
100
AcDbDictionary
281
     1
  3
ACAD_GROUP
350
2BF26
  3
ACAD_LAYOUT
350
2BF32
  3
ACAD_MLEADERSTYLE
350
2BFBB
  3
ACAD_MLINESTYLE
350
2BF2F
  3
ACAD_PLOTSETTINGS
350
2BF31
  3
ACAD_PLOTSTYLENAME
350
2BF27
  3
ACAD_TABLESTYLE
350
2BFBA
  3
AcDbVariableDictionary
350
2C00A
  0
DICTIONARY
  5
2BF26
102
{ACAD_REACTORS
330
2BF25
102
}
330
2BF25
100
AcDbDictionary
281
     1
  0
DICTIONARY
  5
2BF32
102
{ACAD_REACTORS
330
2BF25
102
}
330
2BF25
100
AcDbDictionary
281
     1
  3
Layout1
350
2BF34
  3
Model
350
2BF36
  0
DICTIONARY
  5
2BFBB
102
{ACAD_REACTORS
330
2BF25
102
}
330
2BF25
100
AcDbDictionary
281
     1
  0
DICTIONARY
  5
2BF2F
102
{ACAD_REACTORS
330
2BF25
102
}
330
2BF25
100
AcDbDictionary
281
     1
  3
Standard
350
2BF30
  0
DICTIONARY
  5
2BF31
102
{ACAD_REACTORS
330
2BF25
102
}
330
2BF25
100
AcDbDictionary
281
     1
  0
ACDBDICTIONARYWDFLT
  5
2BF27
102
{ACAD_REACTORS
330
2BF25
102
}
330
2BF25
100
AcDbDictionary
281
     1
  3
Normal
350
2BF28
100
AcDbDictionaryWithDefault
340
2BF28
  0
DICTIONARY
  5
2BFBA
102
{ACAD_REACTORS
330
2BF25
102
}
330
2BF25
100
AcDbDictionary
281
     1
  0
DICTIONARY
  5
2C00A
102
{ACAD_REACTORS
330
2BF25
102
}
330
2BF25
100
AcDbDictionary
281
     1
  3
DIMASSOC
350
2C00B
  0
LAYOUT
  5
2BF34
102
{ACAD_REACTORS
330
2BF32
102
}
330
2BF32
100
AcDbPlotSettings
  1

  2
none_device
  4

  6

 40
0.0
 41
0.0
 42
0.0
 43
0.0
 44
0.0
 45
0.0
 46
0.0
 47
0.0
 48
0.0
 49
0.0
140
0.0
141
0.0
142
1.0
143
1.0
 70
   688
 72
     0
 73
     0
 74
     5
  7

 75
    16
147
1.0
148
0.0
149
0.0
100
AcDbLayout
  1
Layout1
 70
     0
 71
     1
 10
0.0
 20
0.0
 11
12.0
 21
9.0
 12
0.0
 22
0.0
 32
0.0
 14
1.000000000000000E+20
 24
1.000000000000000E+20
 34
1.000000000000000E+20
 15
-1.000000000000000E+20
 25
-1.000000000000000E+20
 35
-1.000000000000000E+20
146
0.0
 13
0.0
 23
0.0
 33
0.0
 16
1.0
 26
0.0
 36
0.0
 17
0.0
 27
1.0
 37
0.0
 76
     0
330
2BF33
  0
LAYOUT
  5
2BF36
102
{ACAD_REACTORS
330
2BF32
102
}
330
2BF32
100
AcDbPlotSettings
  1

  2
none_device
  4

  6

 40
0.0
 41
0.0
 42
0.0
 43
0.0
 44
0.0
 45
0.0
 46
0.0
 47
0.0
 48
0.0
 49
0.0
140
0.0
141
0.0
142
1.0
143
1.0
 70
  1712
 72
     0
 73
     0
 74
     0
  7

 75
     0
147
1.0
148
0.0
149
0.0
100
AcDbLayout
  1
Model
 70
     1
 71
     0
 10
0.0
 20
0.0
 11
12.0
 21
9.0
 12
267.0
 22
194.8999999999998
 32
0.0
 14
325.4974662390304
 24
122.76811781196
 34
-0.0000000000000053
 15
12286.99954069103
 25
8431.707478684499
 35
0.0000000000000099
146
0.0
 13
0.0
 23
0.0
 33
0.0
 16
1.0
 26
0.0
 36
0.0
 17
0.0
 27
1.0
 37
0.0
 76
     0
330
2BF35
331
2BF38
  0
MLINESTYLE
  5
2BF30
102
{ACAD_REACTORS
330
2BF2F
102
}
330
2BF2F
100
AcDbMlineStyle
  2
STANDARD
 70
     0
  3

 62
   256
 51
90.0
 52
90.0
 71
     2
 49
0.5
 62
   256
  6
BYLAYER
 49
-0.5
 62
   256
  6
BYLAYER
  0
ACDBPLACEHOLDER
  5
2BF28
102
{ACAD_REACTORS
330
2BF27
102
}
330
2BF27
  0
DICTIONARYVAR
  5
2C00B
102
{ACAD_REACTORS
330
2C00A
102
}
330
2C00A
100
DictionaryVariables
280
     0
  1
1
  0
ENDSEC
  0
EOF
