  0
SECTION
  2
HEADER
  9
$ACADVER
  1
AC1015
  9
$ACADMAINTVER
 70
    13
  9
$DWGCODEPAGE
  3
ANSI_932
  9
$INSBASE
 10
267.0
 20
194.8999999999998
 30
0.0
  9
$EXTMIN
 10
433.9966216520333
 20
163.6908237492789
 30
-0.0000000349181948
  9
$EXTMAX
 10
16382.6660542547
 20
11242.27663824599
 30
0.0000000814935747
  9
$LIMMIN
 10
0.0
 20
0.0
  9
$LIMMAX
 10
16800.0
 20
11880.0
  9
$ORTHOMODE
 70
     1
  9
$REGENMODE
 70
     1
  9
$FILLMODE
 70
     1
  9
$QTEXTMODE
 70
     0
  9
$MIRRTEXT
 70
     0
  9
$LTSCALE
 40
40.0
  9
$ATTMODE
 70
     1
  9
$TEXTSIZE
 40
0.2
  9
$TRACEWID
 40
0.05
  9
$TEXTSTYLE
  7
00
  9
$CLAYER
  8
SUNPOU
  9
$CELTYPE
  6
ByLayer
  9
$CECOLOR
 62
   256
  9
$CELTSCALE
 40
1.0
  9
$DISPSILH
 70
     0
  9
$DIMSCALE
 40
40.0
  9
$DIMASZ
 40
0.5
  9
$DIMEXO
 40
1.0
  9
$DIMDLI
 40
7.0
  9
$DIMRND
 40
0.0
  9
$DIMDLE
 40
3.0
  9
$DIMEXE
 40
1.125
  9
$DIMTP
 40
0.0
  9
$DIMTM
 40
0.0
  9
$DIMTXT
 40
2.25
  9
$DIMCEN
 40
0.0
  9
$DIMTSZ
 40
0.0
  9
$DIMTOL
 70
     0
  9
$DIMLIM
 70
     0
  9
$DIMTIH
 70
     0
  9
$DIMTOH
 70
     0
  9
$DIMSE1
 70
     0
  9
$DIMSE2
 70
     0
  9
$DIMTAD
 70
     1
  9
$DIMZIN
 70
     8
  9
$DIMBLK
  1
DOT
  9
$DIMASO
 70
     1
  9
$DIMSHO
 70
     0
  9
$DIMPOST
  1

  9
$DIMAPOST
  1

  9
$DIMALT
 70
     0
  9
$DIMALTD
 70
     2
  9
$DIMALTF
 40
25.4
  9
$DIMLFAC
 40
1.0
  9
$DIMTOFL
 70
     1
  9
$DIMTVP
 40
0.0
  9
$DIMTIX
 70
     0
  9
$DIMSOXD
 70
     0
  9
$DIMSAH
 70
     1
  9
$DIMBLK1
  1
DOT
  9
$DIMBLK2
  1
DOT
  9
$DIMSTYLE
  2
SUNPOU_図面名
  9
$DIMCLRD
 70
   256
  9
$DIMCLRE
 70
   256
  9
$DIMCLRT
 70
   256
  9
$DIMTFAC
 40
1.0
  9
$DIMGAP
 40
1.125
  9
$DIMJUST
 70
     0
  9
$DIMSD1
 70
     0
  9
$DIMSD2
 70
     0
  9
$DIMTOLJ
 70
     1
  9
$DIMTZIN
 70
     0
  9
$DIMALTZ
 70
     0
  9
$DIMALTTZ
 70
     0
  9
$DIMUPT
 70
     0
  9
$DIMDEC
 70
     4
  9
$DIMTDEC
 70
     4
  9
$DIMALTU
 70
     2
  9
$DIMALTTD
 70
     2
  9
$DIMTXSTY
  7
STANDARD
  9
$DIMAUNIT
 70
     0
  9
$DIMADEC
 70
     0
  9
$DIMALTRND
 40
0.0
  9
$DIMAZIN
 70
     0
  9
$DIMDSEP
 70
    46
  9
$DIMATFIT
 70
     3
  9
$DIMFRAC
 70
     0
  9
$DIMLDRBLK
  1
DOT
  9
$DIMLUNIT
 70
     2
  9
$DIMLWD
 70
    -2
  9
$DIMLWE
 70
    -2
  9
$DIMTMOVE
 70
     0
  9
$LUNITS
 70
     2
  9
$LUPREC
 70
     2
  9
$SKETCHINC
 40
0.1
  9
$FILLETRAD
 40
0.0
  9
$AUNITS
 70
     0
  9
$AUPREC
 70
     0
  9
$MENU
  1
A:\TIGER\MENU\TIGER
  9
$ELEVATION
 40
0.0
  9
$PELEVATION
 40
0.0
  9
$THICKNESS
 40
0.0
  9
$LIMCHECK
 70
     0
  9
$CHAMFERA
 40
0.0
  9
$CHAMFERB
 40
0.0
  9
$CHAMFERC
 40
0.0
  9
$CHAMFERD
 40
0.0
  9
$SKPOLY
 70
     0
  9
$TDCREATE
 40
2450266.571064815
  9
$TDUCREATE
 40
2450266.196064815
  9
$TDUPDATE
 40
2456330.284323993
  9
$TDUUPDATE
 40
2456329.909323993
  9
$TDINDWG
 40
0.1276353588
  9
$TDUSRTIMER
 40
0.1276353588
  9
$USRTIMER
 70
     1
  9
$ANGBASE
 50
0.0
  9
$ANGDIR
 70
     0
  9
$PDMODE
 70
     0
  9
$PDSIZE
 40
0.0
  9
$PLINEWID
 40
0.0
  9
$SPLFRAME
 70
     0
  9
$SPLINETYPE
 70
     6
  9
$SPLINESEGS
 70
     8
  9
$HANDSEED
  5
16DB7
  9
$SURFTAB1
 70
     6
  9
$SURFTAB2
 70
     6
  9
$SURFTYPE
 70
     6
  9
$SURFU
 70
     6
  9
$SURFV
 70
     6
  9
$UCSBASE
  2

  9
$UCSNAME
  2

  9
$UCSORG
 10
0.0
 20
0.0
 30
0.0
  9
$UCSXDIR
 10
1.0
 20
0.0
 30
0.0
  9
$UCSYDIR
 10
0.0
 20
1.0
 30
0.0
  9
$UCSORTHOREF
  2

  9
$UCSORTHOVIEW
 70
     0
  9
$UCSORGTOP
 10
0.0
 20
0.0
 30
0.0
  9
$UCSORGBOTTOM
 10
0.0
 20
0.0
 30
0.0
  9
$UCSORGLEFT
 10
0.0
 20
0.0
 30
0.0
  9
$UCSORGRIGHT
 10
0.0
 20
0.0
 30
0.0
  9
$UCSORGFRONT
 10
0.0
 20
0.0
 30
0.0
  9
$UCSORGBACK
 10
0.0
 20
0.0
 30
0.0
  9
$PUCSBASE
  2

  9
$PUCSNAME
  2

  9
$PUCSORG
 10
0.0
 20
0.0
 30
0.0
  9
$PUCSXDIR
 10
1.0
 20
0.0
 30
0.0
  9
$PUCSYDIR
 10
0.0
 20
1.0
 30
0.0
  9
$PUCSORTHOREF
  2

  9
$PUCSORTHOVIEW
 70
     0
  9
$PUCSORGTOP
 10
0.0
 20
0.0
 30
0.0
  9
$PUCSORGBOTTOM
 10
0.0
 20
0.0
 30
0.0
  9
$PUCSORGLEFT
 10
0.0
 20
0.0
 30
0.0
  9
$PUCSORGRIGHT
 10
0.0
 20
0.0
 30
0.0
  9
$PUCSORGFRONT
 10
0.0
 20
0.0
 30
0.0
  9
$PUCSORGBACK
 10
0.0
 20
0.0
 30
0.0
  9
$USERI1
 70
     3
  9
$USERI2
 70
     0
  9
$USERI3
 70
     0
  9
$USERI4
 70
     0
  9
$USERI5
 70
  1103
  9
$USERR1
 40
0.0
  9
$USERR2
 40
1.0
  9
$USERR3
 40
0.0
  9
$USERR4
 40
0.0
  9
$USERR5
 40
0.0
  9
$WORLDVIEW
 70
     1
  9
$SHADEDGE
 70
     3
  9
$SHADEDIF
 70
    70
  9
$TILEMODE
 70
     1
  9
$MAXACTVP
 70
    16
  9
$PINSBASE
 10
0.0
 20
0.0
 30
0.0
  9
$PLIMCHECK
 70
     0
  9
$PEXTMIN
 10
1.000000000000000E+20
 20
1.000000000000000E+20
 30
1.000000000000000E+20
  9
$PEXTMAX
 10
-1.000000000000000E+20
 20
-1.000000000000000E+20
 30
-1.000000000000000E+20
  9
$PLIMMIN
 10
0.0
 20
0.0
  9
$PLIMMAX
 10
12.0
 20
9.0
  9
$UNITMODE
 70
     0
  9
$VISRETAIN
 70
     0
  9
$PLINEGEN
 70
     1
  9
$PSLTSCALE
 70
     0
  9
$TREEDEPTH
 70
  3020
  9
$CMLSTYLE
  2
Standard
  9
$CMLJUST
 70
     0
  9
$CMLSCALE
 40
1.0
  9
$PROXYGRAPHICS
 70
     1
  9
$MEASUREMENT
 70
     0
  9
$CELWEIGHT
370
    -1
  9
$ENDCAPS
280
     0
  9
$JOINSTYLE
280
     0
  9
$LWDISPLAY
290
     0
  9
$INSUNITS
 70
     0
  9
$HYPERLINKBASE
  1

  9
$STYLESHEET
  1

  9
$XEDIT
290
     1
  9
$CEPSNTYPE
380
     0
  9
$PSTYLEMODE
290
     1
  9
$FINGERPRINTGUID
  2
{37CE1AB0-4D4D-4FB5-A6DB-65ACF305338E}
  9
$VERSIONGUID
  2
{B3029E8F-2C87-42B9-BC3C-8CA853004B99}
  9
$EXTNAMES
290
     1
  9
$PSVPSCALE
 40
0.0
  9
$OLESTARTUP
290
     0
  0
ENDSEC
  0
SECTION
  2
CLASSES
  0
CLASS
  1
ACDBDICTIONARYWDFLT
  2
AcDbDictionaryWithDefault
  3
AutoCAD 2000
 90
        0
280
     0
281
     0
  0
CLASS
  1
ACDBPLACEHOLDER
  2
AcDbPlaceHolder
  3
AutoCAD 2000
 90
        0
280
     0
281
     0
  0
CLASS
  1
LAYOUT
  2
AcDbLayout
  3
AutoCAD 2000
 90
        0
280
     0
281
     0
  0
CLASS
  1
DICTIONARYVAR
  2
AcDbDictionaryVar
  3
AutoCAD 2000
 90
        0
280
     0
281
     0
  0
ENDSEC
  0
SECTION
  2
TABLES
  0
TABLE
  2
VPORT
  5
167BD
330
0
100
AcDbSymbolTable
 70
     2
  0
VPORT
  5
16DB6
330
167BD
100
AcDbSymbolTableRecord
100
AcDbViewportTableRecord
  2
*Active
 70
     0
 10
0.0
 20
0.0
 11
1.0
 21
1.0
 12
8408.331337953367
 22
5702.983730997637
 13
0.0
 23
0.0
 14
1.0
 24
1.0
 15
0.0
 25
0.0
 16
0.0
 26
0.0
 36
1.0
 17
0.0
 27
0.0
 37
0.0
 40
11163.50538397298
 41
1.527918781725888
 42
50.0
 43
0.0
 44
0.0
 50
0.0
 51
0.0
 71
     0
 72
 10000
 73
     1
 74
     0
 75
     0
 76
     0
 77
     0
 78
     0
281
     0
 65
     1
110
0.0
120
0.0
130
0.0
111
1.0
121
0.0
131
0.0
112
0.0
122
1.0
132
0.0
 79
     0
146
0.0
  0
ENDTAB
  0
TABLE
  2
LTYPE
  5
167BA
330
0
100
AcDbSymbolTable
 70
     6
  0
LTYPE
  5
167C8
330
167BA
100
AcDbSymbolTableRecord
100
AcDbLinetypeTableRecord
  2
ByBlock
 70
     0
  3

 72
    65
 73
     0
 40
0.0
  0
LTYPE
  5
167C9
330
167BA
100
AcDbSymbolTableRecord
100
AcDbLinetypeTableRecord
  2
ByLayer
 70
     0
  3

 72
    65
 73
     0
 40
0.0
  0
LTYPE
  5
167CA
330
167BA
100
AcDbSymbolTableRecord
100
AcDbLinetypeTableRecord
  2
CONTINUOUS
 70
     0
  3
実線
 72
    65
 73
     0
 40
0.0
  0
LTYPE
  5
167DA
330
167BA
100
AcDbSymbolTableRecord
100
AcDbLinetypeTableRecord
  2
TENSEN-
 70
     0
  3

 72
    65
 73
     2
 40
0.6000000000000001
 49
0.2
 74
     0
 49
-0.4
 74
     0
  0
LTYPE
  5
167DB
330
167BA
100
AcDbSymbolTableRecord
100
AcDbLinetypeTableRecord
  2
1PL-L
 70
     0
  3

 72
    65
 73
     4
 40
56.0
 49
50.0
 74
     0
 49
-2.0
 74
     0
 49
2.0
 74
     0
 49
-2.0
 74
     0
  0
LTYPE
  5
167DC
330
167BA
100
AcDbSymbolTableRecord
100
AcDbLinetypeTableRecord
  2
1PL-M
 70
     0
  3

 72
    65
 73
     4
 40
15.0
 49
12.0
 74
     0
 49
-1.0
 74
     0
 49
1.0
 74
     0
 49
-1.0
 74
     0
  0
LTYPE
  5
167DD
330
167BA
100
AcDbSymbolTableRecord
100
AcDbLinetypeTableRecord
  2
1PL-S
 70
     0
  3

 72
    65
 73
     4
 40
4.0
 49
2.5
 74
     0
 49
-0.5
 74
     0
 49
0.5
 74
     0
 49
-0.5
 74
     0
  0
LTYPE
  5
167DE
330
167BA
100
AcDbSymbolTableRecord
100
AcDbLinetypeTableRecord
  2
1PL-12
 70
     0
  3

 72
    65
 73
     4
 40
15.0
 49
12.0
 74
     0
 49
-1.0
 74
     0
 49
1.0
 74
     0
 49
-1.0
 74
     0
  0
ENDTAB
  0
TABLE
  2
LAYER
  5
167B7
330
0
100
AcDbSymbolTable
 70
    21
  0
LAYER
  5
167C5
330
167B7
100
AcDbSymbolTableRecord
100
AcDbLayerTableRecord
  2
0
 70
     0
 62
     7
  6
CONTINUOUS
370
    -3
390
167C4
  0
LAYER
  5
167D7
330
167B7
100
AcDbSymbolTableRecord
100
AcDbLayerTableRecord
  2
SUNPOU
 70
     0
 62
     4
  6
CONTINUOUS
370
    -3
390
167C4
  0
LAYER
  5
167DF
330
167B7
100
AcDbSymbolTableRecord
100
AcDbLayerTableRecord
  2
U1
 70
     0
 62
     3
  6
CONTINUOUS
370
    -3
390
167C4
  0
LAYER
  5
167E0
330
167B7
100
AcDbSymbolTableRecord
100
AcDbLayerTableRecord
  2
U3
 70
     0
 62
     6
  6
CONTINUOUS
370
    -3
390
167C4
  0
LAYER
  5
167E1
330
167B7
100
AcDbSymbolTableRecord
100
AcDbLayerTableRecord
  2
HIKIDASHI
 70
     0
 62
     6
  6
CONTINUOUS
370
    -3
390
167C4
  0
LAYER
  5
167E2
330
167B7
100
AcDbSymbolTableRecord
100
AcDbLayerTableRecord
  2
TENSEN-1
 70
     0
 62
     6
  6
TENSEN-
370
    -3
390
167C4
  0
LAYER
  5
167E3
330
167B7
100
AcDbSymbolTableRecord
100
AcDbLayerTableRecord
  2
1PL-S1
 70
     0
 62
     6
  6
1PL-S
370
    -3
390
167C4
  0
LAYER
  5
167E4
330
167B7
100
AcDbSymbolTableRecord
100
AcDbLayerTableRecord
  2
1PL-M1
 70
     0
 62
     6
  6
1PL-M
370
    -3
390
167C4
  0
LAYER
  5
167E5
330
167B7
100
AcDbSymbolTableRecord
100
AcDbLayerTableRecord
  2
1PL-L1
 70
     0
 62
     6
  6
1PL-L
370
    -3
390
167C4
  0
LAYER
  5
167E6
330
167B7
100
AcDbSymbolTableRecord
100
AcDbLayerTableRecord
  2
NAME
 70
     0
 62
    20
  6
CONTINUOUS
370
    -3
390
167C4
  0
LAYER
  5
167E7
330
167B7
100
AcDbSymbolTableRecord
100
AcDbLayerTableRecord
  2
FILENAME
 70
     0
 62
     7
  6
CONTINUOUS
370
    -3
390
167C4
  0
LAYER
  5
167E8
330
167B7
100
AcDbSymbolTableRecord
100
AcDbLayerTableRecord
  2
KISO
 70
     0
 62
     2
  6
CONTINUOUS
370
    -3
390
167C4
  0
LAYER
  5
167E9
330
167B7
100
AcDbSymbolTableRecord
100
AcDbLayerTableRecord
  2
YANE
 70
     0
 62
     1
  6
1PL-12
370
    -3
390
167C4
  0
LAYER
  5
167EA
330
167B7
100
AcDbSymbolTableRecord
100
AcDbLayerTableRecord
  2
HATCH
 70
     0
 62
     1
  6
CONTINUOUS
370
    -3
390
167C4
  0
LAYER
  5
167EB
330
167B7
100
AcDbSymbolTableRecord
100
AcDbLayerTableRecord
  2
HASHIRA
 70
     0
 62
     3
  6
CONTINUOUS
370
    -3
390
167C4
  0
LAYER
  5
167EC
330
167B7
100
AcDbSymbolTableRecord
100
AcDbLayerTableRecord
  2
DOMAKON
 70
     0
 62
     2
  6
CONTINUOUS
370
    -3
390
167C4
  0
LAYER
  5
167ED
330
167B7
100
AcDbSymbolTableRecord
100
AcDbLayerTableRecord
  2
BOLT
 70
     0
 62
     1
  6
CONTINUOUS
370
    -3
390
167C4
  0
LAYER
  5
167EE
330
167B7
100
AcDbSymbolTableRecord
100
AcDbLayerTableRecord
  2
YODOROGO
 70
     0
 62
   130
  6
CONTINUOUS
370
    -3
390
167C4
  0
LAYER
  5
167EF
330
167B7
100
AcDbSymbolTableRecord
100
AcDbLayerTableRecord
  2
WAKUSEN-01
 70
     0
 62
    50
  6
CONTINUOUS
370
    -3
390
167C4
  0
LAYER
  5
167F0
330
167B7
100
AcDbSymbolTableRecord
100
AcDbLayerTableRecord
  2
WAKUSEN-02
 70
     0
 62
   130
  6
CONTINUOUS
370
    -3
390
167C4
  0
LAYER
  5
167F1
330
167B7
100
AcDbSymbolTableRecord
100
AcDbLayerTableRecord
  2
WAKUMOJI-01
 70
     0
 62
   130
  6
CONTINUOUS
370
    -3
390
167C4
  0
ENDTAB
  0
TABLE
  2
STYLE
  5
167B8
330
0
100
AcDbSymbolTable
 70
     5
  0
STYLE
  5
167C6
330
167B8
100
AcDbSymbolTableRecord
100
AcDbTextStyleTableRecord
  2
STANDARD
 70
     0
 40
3.0
 41
1.0
 50
0.0
 71
     0
 42
0.2
  3
ROMANS
  4
EXTFONT
  0
STYLE
  5
167D8
330
167B8
100
AcDbSymbolTableRecord
100
AcDbTextStyleTableRecord
  2
00
 70
     0
 40
0.0
 41
0.6666666666666666
 50
0.0
 71
     0
 42
0.2
  3
ROMANS
  4
BIGFONT
  0
STYLE
  5
167F2
330
167B8
100
AcDbSymbolTableRecord
100
AcDbTextStyleTableRecord
  2
01
 70
     0
 40
3.0
 41
1.0
 50
0.0
 71
     0
 42
0.2
  3
ROMANS
  4
BIGFONT
  0
STYLE
  5
167F3
330
167B8
100
AcDbSymbolTableRecord
100
AcDbTextStyleTableRecord
  2
WAKUMOJI
 70
     0
 40
3.0
 41
1.0
 50
0.0
 71
     0
 42
3.0
  3
SIMPLEX
  4
BIGFONT
  0
STYLE
  5
167F4
330
167B8
100
AcDbSymbolTableRecord
100
AcDbTextStyleTableRecord
  2
FILENAME
 70
     0
 40
75.0
 41
1.0
 50
0.0
 71
     0
 42
75.0
  3
romans
  4
bigfont
  0
ENDTAB
  0
TABLE
  2
VIEW
  5
167BB
330
0
100
AcDbSymbolTable
 70
     0
  0
ENDTAB
  0
TABLE
  2
UCS
  5
167BC
330
0
100
AcDbSymbolTable
 70
     0
  0
ENDTAB
  0
TABLE
  2
APPID
  5
167BE
330
0
100
AcDbSymbolTable
 70
     5
  0
APPID
  5
167C7
330
167BE
100
AcDbSymbolTableRecord
100
AcDbRegAppTableRecord
  2
ACAD
 70
     0
  0
APPID
  5
167F5
330
167BE
100
AcDbSymbolTableRecord
100
AcDbRegAppTableRecord
  2
AUTOCAD_POSTSCRIPT_FIGURE
 70
     0
  0
APPID
  5
167F6
330
167BE
100
AcDbSymbolTableRecord
100
AcDbRegAppTableRecord
  2
ACAD_PSEXT
 70
     0
  0
APPID
  5
167F7
330
167BE
100
AcDbSymbolTableRecord
100
AcDbRegAppTableRecord
  2
ACAD_EXEMPT_FROM_CAD_STANDARDS
 70
     0
  0
APPID
  5
167F8
330
167BE
100
AcDbSymbolTableRecord
100
AcDbRegAppTableRecord
  2
ACAD_MLEADERVER
 70
     0
  0
ENDTAB
  0
TABLE
  2
DIMSTYLE
  5
167BF
330
0
100
AcDbSymbolTable
 70
     1
100
AcDbDimStyleTable
 71
     0
  0
DIMSTYLE
105
167F9
330
167BF
100
AcDbSymbolTableRecord
100
AcDbDimStyleTableRecord
  2
SUNPOU_図面名
 70
     0
 40
40.0
 41
0.5
 42
1.0
 43
7.0
 44
1.125
 46
3.0
 73
     0
 74
     0
 77
     1
 78
     8
140
2.25
141
0.0
147
1.125
172
     1
173
     1
176
   256
177
   256
178
   256
271
     2
272
     2
279
     2
284
     8
285
     8
286
     8
340
167D8
  0
ENDTAB
  0
TABLE
  2
BLOCK_RECORD
  5
167B6
330
0
100
AcDbSymbolTable
 70
     4
  0
BLOCK_RECORD
  5
167D3
330
167B6
100
AcDbSymbolTableRecord
100
AcDbBlockTableRecord
  2
*Model_Space
340
167D6
  0
BLOCK_RECORD
  5
167CF
330
167B6
100
AcDbSymbolTableRecord
100
AcDbBlockTableRecord
  2
*Paper_Space
340
167D2
  0
BLOCK_RECORD
  5
167FE
330
167B6
100
AcDbSymbolTableRecord
100
AcDbBlockTableRecord
  2
$MODEL_SPACE
340
0
  0
BLOCK_RECORD
  5
16801
330
167B6
100
AcDbSymbolTableRecord
100
AcDbBlockTableRecord
  2
$PAPER_SPACE
340
0
  0
BLOCK_RECORD
  5
16804
330
167B6
100
AcDbSymbolTableRecord
100
AcDbBlockTableRecord
  2
DOT
340
0
  0
ENDTAB
  0
ENDSEC
  0
SECTION
  2
BLOCKS
  0
BLOCK
  5
167D4
330
167D3
100
AcDbEntity
  8
0
100
AcDbBlockBegin
  2
*Model_Space
 70
     0
 10
0.0
 20
0.0
 30
0.0
  3
*Model_Space
  1

  0
ENDBLK
  5
167D5
330
167D3
100
AcDbEntity
  8
0
100
AcDbBlockEnd
  0
BLOCK
  5
167D0
330
167CF
100
AcDbEntity
 67
     1
  8
0
100
AcDbBlockBegin
  2
*Paper_Space
 70
     0
 10
0.0
 20
0.0
 30
0.0
  3
*Paper_Space
  1

  0
ENDBLK
  5
167D1
330
167CF
100
AcDbEntity
 67
     1
  8
0
100
AcDbBlockEnd
  0
BLOCK
  5
167FF
330
167FE
100
AcDbEntity
  8
0
100
AcDbBlockBegin
  2
$MODEL_SPACE
 70
     0
 10
0.0
 20
0.0
 30
0.0
  3
$MODEL_SPACE
  1

  0
ENDBLK
  5
16800
330
167FE
100
AcDbEntity
  8
0
100
AcDbBlockEnd
  0
BLOCK
  5
16802
330
16801
100
AcDbEntity
  8
0
100
AcDbBlockBegin
  2
$PAPER_SPACE
 70
     0
 10
0.0
 20
0.0
 30
0.0
  3
$PAPER_SPACE
  1

  0
ENDBLK
  5
16803
330
16801
100
AcDbEntity
  8
0
100
AcDbBlockEnd
  0
BLOCK
  5
16805
330
16804
100
AcDbEntity
  8
0
100
AcDbBlockBegin
  2
DOT
 70
     0
 10
0.0
 20
0.0
 30
0.0
  3
DOT
  1

  0
LWPOLYLINE
  5
16806
330
16804
100
AcDbEntity
  8
0
  6
ByBlock
 62
     0
100
AcDbPolyline
 90
        2
 70
     1
 43
0.75
 10
-0.375
 20
0.0
 42
1.0
 10
0.375
 20
0.0
 42
1.0
  0
LINE
  5
1680A
330
16804
100
AcDbEntity
  8
0
  6
ByBlock
 62
     0
100
AcDbLine
 10
-0.75
 20
0.0
 30
0.0
 11
-1.5
 21
0.0
 31
0.0
  0
ENDBLK
  5
1680B
330
16804
100
AcDbEntity
  8
0
100
AcDbBlockEnd
  0
ENDSEC
  0
SECTION
  2
ENTITIES
  0
TEXT
  5
1680C
330
167D3
100
AcDbEntity
  8
HIKIDASHI
100
AcDbText
 10
7296.425291021581
 20
5925.099271528259
 30
0.0
 40
135.0
  1
基 礎 平 面 図　縮尺
  7
01
 72
     4
 11
8088.425291021581
 21
5992.599271528259
 31
0.0
100
AcDbText
  0
LINE
  5
1680D
330
167D3
100
AcDbEntity
  8
HIKIDASHI
100
AcDbLine
 10
9222.146825158439
 20
6060.099271528261
 30
0.0
 11
9087.146825158439
 21
5925.099271528259
 31
0.0
  0
TEXT
  5
1680E
330
167D3
100
AcDbEntity
  8
HIKIDASHI
100
AcDbText
 10
8942.911256885487
 20
5934.742128671116
 30
0.0
 40
135.0
  1
=
 41
0.6666666666666666
  7
00
 72
     4
 11
8998.625542599773
 21
5992.599271528259
 31
0.0
100
AcDbText
  0
TEXT
  5
1680F
330
167D3
100
AcDbEntity
  8
HIKIDASHI
100
AcDbText
 10
9173.298888321953
 20
5925.099271528261
 30
0.0
 40
67.5
  1
40
 41
0.6666666666666666
  7
00
 72
     4
 11
9216.156031179096
 21
5958.849271528261
 31
0.0
100
AcDbText
  0
TEXT
  5
16810
330
167D3
100
AcDbEntity
  8
HIKIDASHI
100
AcDbText
 10
9089.556921183138
 20
5992.513128079463
 30
0.0
 40
67.5
  1
1
 41
0.6666666666666666
  7
00
 72
     4
 11
9107.771206897425
 21
6026.263128079463
 31
0.0
100
AcDbText
  0
TEXT
  5
16811
330
167D3
100
AcDbEntity
  8
HIKIDASHI
100
AcDbText
 10
7296.425291021581
 20
5925.099271528259
 30
0.0
 40
135.0
  1
基 礎 平 面 図　縮尺
  7
01
 72
     4
 11
8088.425291021581
 21
5992.599271528259
 31
0.0
100
AcDbText
  0
LINE
  5
16812
330
167D3
100
AcDbEntity
  8
HIKIDASHI
100
AcDbLine
 10
9222.146825158443
 20
6060.099271528261
 30
0.0
 11
9087.146825158443
 21
5925.099271528259
 31
0.0
  0
TEXT
  5
16813
330
167D3
100
AcDbEntity
  8
HIKIDASHI
100
AcDbText
 10
8942.911256885487
 20
5934.742128671116
 30
0.0
 40
135.0
  1
=
 41
0.6666666666666666
  7
00
 72
     4
 11
8998.625542599773
 21
5992.599271528259
 31
0.0
100
AcDbText
  0
TEXT
  5
16814
330
167D3
100
AcDbEntity
  8
HIKIDASHI
100
AcDbText
 10
9173.298888321953
 20
5925.099271528261
 30
0.0
 40
67.5
  1
40
 41
0.6666666666666666
  7
00
 72
     4
 11
9216.156031179096
 21
5958.849271528261
 31
0.0
100
AcDbText
  0
TEXT
  5
16815
330
167D3
100
AcDbEntity
  8
HIKIDASHI
100
AcDbText
 10
9089.556921183138
 20
5992.513128079463
 30
0.0
 40
67.5
  1
1
 41
0.6666666666666666
  7
00
 72
     4
 11
9107.771206897425
 21
6026.263128079463
 31
0.0
100
AcDbText
  0
TEXT
  5
16816
330
167D3
100
AcDbEntity
  8
SUNPOU
100
AcDbText
 10
6372.33186105243
 20
7997.341779768404
 30
0.0
 40
90.0
  1
A
 41
0.6700000000000001
  7
00
 72
     4
 11
6398.174718195287
 21
8042.341779768404
 31
0.0
100
AcDbText
  0
LINE
  5
16817
330
167D3
100
AcDbEntity
  8
SUNPOU
100
AcDbLine
 10
6398.174718195289
 20
7652.341779768402
 30
0.0
 11
6548.174718195288
 21
7652.341779768402
 31
0.0
  0
LINE
  5
16818
330
167D3
100
AcDbEntity
  8
SUNPOU
100
AcDbLine
 10
6398.174718195287
 20
7862.341779768399
 30
0.0
 11
6398.174718195287
 21
7652.341779768402
 31
0.0
  0
TEXT
  5
16819
330
167D3
100
AcDbEntity
  8
SUNPOU
100
AcDbText
 10
10313.17471819527
 20
7216.627494054119
 30
0.0
 40
90.0
  1
700
 50
90.0
 41
0.6666666666666666
  7
00
 72
     1
 11
10268.17471819527
 21
7302.341779768403
 31
0.0
100
AcDbText
 73
     2
  0
LINE
  5
1681A
330
167D3
100
AcDbEntity
  8
SUNPOU
100
AcDbLine
 10
10358.17471819528
 20
7637.341779768402
 30
0.0
 11
10358.17471819528
 21
6967.341779768403
 31
0.0
  0
LINE
  5
1681B
330
167D3
100
AcDbEntity
  8
SUNPOU
100
AcDbLine
 10
10328.17471819527
 20
6952.341779768405
 30
0.0
 11
10313.17471819527
 21
6952.341779768405
 31
0.0
  0
TEXT
  5
1681C
330
167D3
100
AcDbEntity
  8
SUNPOU
100
AcDbText
 10
10313.17471819527
 20
8251.270351196971
 30
0.0
 40
90.0
  1
1435
 50
90.0
 41
0.6666666666666666
  7
00
 72
     1
 11
10268.17471819527
 21
8369.841779768401
 31
0.0
100
AcDbText
 73
     2
  0
LINE
  5
1681D
330
167D3
100
AcDbEntity
  8
SUNPOU
100
AcDbLine
 10
10358.17471819528
 20
9072.341779768398
 30
0.0
 11
10358.17471819528
 21
7667.341779768404
 31
0.0
  0
TEXT
  5
1681E
330
167D3
100
AcDbEntity
  8
SUNPOU
100
AcDbText
 10
10313.17471819527
 20
9101.627494054119
 30
0.0
 40
90.0
  1
200
 50
90.0
 41
0.6666666666666666
  7
00
 72
     1
 11
10268.17471819527
 21
9187.341779768406
 31
0.0
100
AcDbText
 73
     2
  0
LINE
  5
1681F
330
167D3
100
AcDbEntity
  8
SUNPOU
100
AcDbLine
 10
10358.17471819528
 20
9272.3417797684
 30
0.0
 11
10358.17471819528
 21
9102.3417797684
 31
0.0
  0
LINE
  5
16820
330
167D3
100
AcDbEntity
  8
SUNPOU
100
AcDbLine
 10
10328.17471819527
 20
9287.341779768405
 30
0.0
 11
10313.17471819527
 21
9287.341779768405
 31
0.0
  0
TEXT
  5
16821
330
167D3
100
AcDbEntity
  8
SUNPOU
100
AcDbText
 10
10523.17471819528
 20
8005.556065482689
 30
0.0
 40
90.0
  1
2335
 50
90.0
 41
0.6666666666666666
  7
00
 72
     1
 11
10478.17471819528
 21
8119.841779768403
 31
0.0
100
AcDbText
 73
     2
  0
LINE
  5
16822
330
167D3
100
AcDbEntity
  8
SUNPOU
100
AcDbLine
 10
10568.17471819528
 20
9272.3417797684
 30
0.0
 11
10568.17471819528
 21
6967.341779768403
 31
0.0
  0
LINE
  5
16823
330
167D3
100
AcDbEntity
  8
SUNPOU
100
AcDbLine
 10
9988.174718195285
 20
6952.341779768405
 30
0.0
 11
10613.17471819527
 21
6952.341779768405
 31
0.0
  0
LINE
  5
16824
330
167D3
100
AcDbEntity
  8
SUNPOU
100
AcDbLine
 10
9988.174718195285
 20
9287.341779768405
 30
0.0
 11
10613.17471819527
 21
9287.341779768405
 31
0.0
  0
CIRCLE
  5
16825
330
167D3
100
AcDbEntity
  8
HASHIRA
100
AcDbCircle
 10
9758.17471819529
 20
9147.3417797684
 30
0.0
 40
9.0
  0
CIRCLE
  5
16826
330
167D3
100
AcDbEntity
  8
HASHIRA
100
AcDbCircle
 10
9758.17471819529
 20
9027.3417797684
 30
0.0
 40
9.0
  0
CIRCLE
  5
16827
330
167D3
100
AcDbEntity
  8
HASHIRA
100
AcDbCircle
 10
9758.17471819529
 20
7712.341779768404
 30
0.0
 40
9.0
  0
CIRCLE
  5
16828
330
167D3
100
AcDbEntity
  8
HASHIRA
100
AcDbCircle
 10
9758.17471819529
 20
7592.341779768403
 30
0.0
 40
9.0
  0
LINE
  5
16829
330
167D3
100
AcDbEntity
  8
1PL-M1
100
AcDbLine
 10
9758.17471819529
 20
6752.341779768404
 30
0.0
 11
9758.174718195284
 21
8397.341779768403
 31
0.0
  0
CIRCLE
  5
1682A
330
167D3
100
AcDbEntity
  8
HASHIRA
100
AcDbCircle
 10
6958.174718195287
 20
9147.3417797684
 30
0.0
 40
9.0
  0
CIRCLE
  5
1682B
330
167D3
100
AcDbEntity
  8
HASHIRA
100
AcDbCircle
 10
6958.174718195287
 20
9027.3417797684
 30
0.0
 40
9.0
  0
TEXT
  5
1682C
330
167D3
100
AcDbEntity
  8
SUNPOU
100
AcDbText
 10
7487.695123746128
 20
7988.770351196975
 30
0.0
 40
90.0
  1
A'
 41
0.6700000000000001
  7
00
 72
     4
 11
7523.587980888986
 21
8042.341779768404
 31
0.0
100
AcDbText
  0
LINE
  5
1682D
330
167D3
100
AcDbEntity
  8
SUNPOU
100
AcDbLine
 10
6958.174718195287
 20
8212.341779768401
 30
0.0
 11
6958.174718195287
 21
8062.341779768402
 31
0.0
  0
TEXT
  5
1682E
330
167D3
100
AcDbEntity
  8
SUNPOU
100
AcDbText
 10
6517.585062521153
 20
8167.341779768401
 30
0.0
 40
90.0
  1
B
 41
0.6700000000000001
  7
00
 72
     4
 11
6549.170776806866
 21
8212.341779768401
 31
0.0
100
AcDbText
  0
LINE
  5
1682F
330
167D3
100
AcDbEntity
  8
SUNPOU
100
AcDbLine
 10
6748.174718195288
 20
8212.341779768401
 30
0.0
 11
6958.174718195287
 21
8212.341779768401
 31
0.0
  0
LINE
  5
16830
330
167D3
100
AcDbEntity
  8
1PL-L1
100
AcDbLine
 10
6508.174718195286
 20
9087.341779768399
 30
0.0
 11
8943.174718195281
 21
9087.341779768406
 31
0.0
  0
LINE
  5
16831
330
167D3
100
AcDbEntity
  8
SUNPOU
100
AcDbLine
 10
7313.587980888986
 20
7652.341779768402
 30
0.0
 11
7163.587980888985
 21
7652.341779768402
 31
0.0
  0
LINE
  5
16832
330
167D3
100
AcDbEntity
  8
SUNPOU
100
AcDbLine
 10
7523.587980888986
 20
7862.341779768399
 30
0.0
 11
7523.587980888986
 21
7652.341779768402
 31
0.0
  0
CIRCLE
  5
16833
330
167D3
100
AcDbEntity
  8
HASHIRA
100
AcDbCircle
 10
6958.174718195287
 20
7712.3417797684
 30
0.0
 40
9.0
  0
CIRCLE
  5
16834
330
167D3
100
AcDbEntity
  8
HASHIRA
100
AcDbCircle
 10
6958.174718195287
 20
7592.341779768402
 30
0.0
 40
9.0
  0
LINE
  5
16835
330
167D3
100
AcDbEntity
  8
SUNPOU
100
AcDbLine
 10
6958.174718195287
 20
7092.341779768403
 30
0.0
 11
6958.174718195287
 21
7242.341779768399
 31
0.0
  0
TEXT
  5
16836
330
167D3
100
AcDbEntity
  8
SUNPOU
100
AcDbText
 10
6504.663633949724
 20
7038.770351196975
 30
0.0
 40
90.0
  1
B'
 41
0.6700000000000001
  7
00
 72
     4
 11
6549.170776806866
 21
7092.341779768403
 31
0.0
100
AcDbText
  0
LINE
  5
16837
330
167D3
100
AcDbEntity
  8
SUNPOU
100
AcDbLine
 10
6748.174718195288
 20
7092.341779768403
 30
0.0
 11
6958.174718195287
 21
7092.341779768403
 31
0.0
  0
LINE
  5
16838
330
167D3
100
AcDbEntity
  8
1PL-M1
100
AcDbLine
 10
6958.174718195287
 20
6752.341779768403
 30
0.0
 11
6958.174718195287
 21
9517.341779768399
 31
0.0
  0
LINE
  5
16839
330
167D3
100
AcDbEntity
  8
1PL-L1
100
AcDbLine
 10
6548.174718195288
 20
7652.341779768402
 30
0.0
 11
10403.17471819528
 21
7652.341779768402
 31
0.0
  0
TEXT
  5
1683A
330
167D3
100
AcDbEntity
  8
HIKIDASHI
100
AcDbText
 10
7703.721914333056
 20
9140.784800032012
 30
0.0
 40
90.0
  1
（土間コン後面位置）
  7
01
100
AcDbText
  0
TEXT
  5
1683B
330
167D3
100
AcDbEntity
  8
HIKIDASHI
100
AcDbText
 10
7787.830516249075
 20
9419.637916483369
 30
0.0
 40
90.0
  1
（屋根後面位置）
  7
01
100
AcDbText
  0
LINE
  5
1683C
330
167D3
100
AcDbEntity
  8
YANE
100
AcDbLine
 10
6722.174718195287
 20
9367.3417797684
 30
0.0
 11
9994.174718195273
 21
9367.3417797684
 31
0.0
  0
LINE
  5
1683D
330
167D3
100
AcDbEntity
  8
YANE
100
AcDbLine
 10
6722.174718195287
 20
6957.341779768403
 30
0.0
 11
9994.174718195273
 21
6957.341779768403
 31
0.0
  0
LINE
  5
1683E
330
167D3
100
AcDbEntity
  8
YANE
100
AcDbLine
 10
9994.174718195273
 20
6957.341779768403
 30
0.0
 11
9994.174718195273
 21
9367.3417797684
 31
0.0
  0
LINE
  5
1683F
330
167D3
100
AcDbEntity
  8
YANE
100
AcDbLine
 10
6722.174718195287
 20
6957.341779768403
 30
0.0
 11
6722.174718195287
 21
9367.3417797684
 31
0.0
  0
LINE
  5
16840
330
167D3
100
AcDbEntity
  8
SUNPOU
100
AcDbLine
 10
6383.174718195287
 20
7862.341779768399
 30
0.0
 11
6398.174718195287
 21
7952.341779768402
 31
0.0
  0
LINE
  5
16841
330
167D3
100
AcDbEntity
  8
SUNPOU
100
AcDbLine
 10
6398.174718195287
 20
7952.341779768402
 30
0.0
 11
6413.174718195287
 21
7862.341779768399
 31
0.0
  0
SOLID
  5
16842
330
167D3
100
AcDbEntity
  8
SUNPOU
100
AcDbTrace
 10
6383.174718195287
 20
7862.341779768399
 30
0.0
 11
6413.174718195287
 21
7862.341779768399
 31
0.0
 12
6398.174718195287
 22
7952.341779768402
 32
0.0
 13
6398.174718195287
 23
7952.341779768402
 33
0.0
  0
LINE
  5
16843
330
167D3
100
AcDbEntity
  8
SUNPOU
100
AcDbLine
 10
6413.174718195287
 20
7862.341779768399
 30
0.0
 11
6383.174718195287
 21
7862.341779768399
 31
0.0
  0
LINE
  5
16844
330
167D3
100
AcDbEntity
  8
SUNPOU
100
AcDbLine
 10
6748.174718195288
 20
7107.341779768403
 30
0.0
 11
6658.174718195287
 21
7092.341779768403
 31
0.0
  0
LINE
  5
16845
330
167D3
100
AcDbEntity
  8
SUNPOU
100
AcDbLine
 10
6658.174718195287
 20
7092.341779768403
 30
0.0
 11
6748.174718195288
 21
7077.341779768403
 31
0.0
  0
SOLID
  5
16846
330
167D3
100
AcDbEntity
  8
SUNPOU
100
AcDbTrace
 10
6748.174718195288
 20
7107.341779768403
 30
0.0
 11
6748.174718195288
 21
7077.341779768403
 31
0.0
 12
6658.174718195287
 22
7092.341779768403
 32
0.0
 13
6658.174718195287
 23
7092.341779768403
 33
0.0
  0
LINE
  5
16847
330
167D3
100
AcDbEntity
  8
SUNPOU
100
AcDbLine
 10
6748.174718195288
 20
7077.341779768403
 30
0.0
 11
6748.174718195288
 21
7107.341779768403
 31
0.0
  0
LINE
  5
16848
330
167D3
100
AcDbEntity
  8
SUNPOU
100
AcDbLine
 10
6748.174718195288
 20
8227.341779768401
 30
0.0
 11
6658.174718195287
 21
8212.341779768401
 31
0.0
  0
LINE
  5
16849
330
167D3
100
AcDbEntity
  8
SUNPOU
100
AcDbLine
 10
6658.174718195287
 20
8212.341779768401
 30
0.0
 11
6748.174718195288
 21
8197.341779768402
 31
0.0
  0
SOLID
  5
1684A
330
167D3
100
AcDbEntity
  8
SUNPOU
100
AcDbTrace
 10
6748.174718195288
 20
8227.341779768401
 30
0.0
 11
6748.174718195288
 21
8197.341779768402
 31
0.0
 12
6658.174718195287
 22
8212.341779768401
 32
0.0
 13
6658.174718195287
 23
8212.341779768401
 33
0.0
  0
LINE
  5
1684B
330
167D3
100
AcDbEntity
  8
SUNPOU
100
AcDbLine
 10
6748.174718195288
 20
8197.341779768402
 30
0.0
 11
6748.174718195288
 21
8227.341779768401
 31
0.0
  0
LINE
  5
1684C
330
167D3
100
AcDbEntity
  8
SUNPOU
100
AcDbLine
 10
7538.587980888985
 20
7862.341779768399
 30
0.0
 11
7523.587980888986
 21
7952.341779768402
 31
0.0
  0
LINE
  5
1684D
330
167D3
100
AcDbEntity
  8
SUNPOU
100
AcDbLine
 10
7523.587980888986
 20
7952.341779768402
 30
0.0
 11
7508.587980888986
 21
7862.341779768399
 31
0.0
  0
SOLID
  5
1684E
330
167D3
100
AcDbEntity
  8
SUNPOU
100
AcDbTrace
 10
7538.587980888985
 20
7862.341779768399
 30
0.0
 11
7508.587980888986
 21
7862.341779768399
 31
0.0
 12
7523.587980888986
 22
7952.341779768402
 32
0.0
 13
7523.587980888986
 23
7952.341779768402
 33
0.0
  0
LINE
  5
1684F
330
167D3
100
AcDbEntity
  8
SUNPOU
100
AcDbLine
 10
7508.587980888986
 20
7862.341779768399
 30
0.0
 11
7538.587980888985
 21
7862.341779768399
 31
0.0
  0
LINE
  5
16850
330
167D3
100
AcDbEntity
  8
SUNPOU
100
AcDbLine
 10
10358.17471819528
 20
6963.591779768404
 30
0.0
 11
10358.17471819528
 21
6974.841779768404
 31
0.0
  0
LINE
  5
16851
330
167D3
100
AcDbEntity
  8
SUNPOU
100
AcDbLine
 10
10568.17471819528
 20
6963.591779768404
 30
0.0
 11
10568.17471819528
 21
6974.841779768404
 31
0.0
  0
LINE
  5
16852
330
167D3
100
AcDbEntity
  8
SUNPOU
100
AcDbLine
 10
10358.17471819528
 20
7663.591779768403
 30
0.0
 11
10358.17471819528
 21
7674.841779768404
 31
0.0
  0
LINE
  5
16853
330
167D3
100
AcDbEntity
  8
SUNPOU
100
AcDbLine
 10
10358.17471819528
 20
7641.091779768402
 30
0.0
 11
10358.17471819528
 21
7629.841779768402
 31
0.0
  0
LINE
  5
16854
330
167D3
100
AcDbEntity
  8
SUNPOU
100
AcDbLine
 10
10358.17471819528
 20
9098.591779768399
 30
0.0
 11
10358.17471819528
 21
9109.8417797684
 31
0.0
  0
LINE
  5
16855
330
167D3
100
AcDbEntity
  8
SUNPOU
100
AcDbLine
 10
10358.17471819528
 20
9076.0917797684
 30
0.0
 11
10358.17471819528
 21
9064.8417797684
 31
0.0
  0
LINE
  5
16856
330
167D3
100
AcDbEntity
  8
SUNPOU
100
AcDbLine
 10
10358.17471819528
 20
9276.091779768405
 30
0.0
 11
10358.17471819528
 21
9264.841779768401
 31
0.0
  0
LINE
  5
16857
330
167D3
100
AcDbEntity
  8
SUNPOU
100
AcDbLine
 10
10568.17471819528
 20
9276.091779768405
 30
0.0
 11
10568.17471819528
 21
9264.841779768401
 31
0.0
  0
LINE
  5
16875
330
167D3
100
AcDbEntity
  8
1PL-M1
100
AcDbLine
 10
6100.122937215783
 20
2700.732872548873
 30
0.0
 11
6100.122937215783
 21
4480.046158226281
 31
0.0
  0
LINE
  5
16876
330
167D3
100
AcDbEntity
  8
KISO
100
AcDbLine
 10
7302.519659955092
 20
3751.645586089699
 30
0.0
 11
6152.122937215774
 21
3751.645586089699
 31
0.0
  0
LINE
  5
16877
330
167D3
100
AcDbEntity
  8
KISO
100
AcDbLine
 10
7302.519659955092
 20
3623.645586089693
 30
0.0
 11
5540.122937215781
 21
3623.645586089689
 31
0.0
  0
LINE
  5
16878
330
167D3
100
AcDbEntity
  8
HATCH
100
AcDbLine
 10
6321.881397407209
 20
3751.645586089697
 30
0.0
 11
6193.881397407209
 21
3623.645586089689
 31
0.0
  0
LINE
  5
16879
330
167D3
100
AcDbEntity
  8
U3
100
AcDbLine
 10
4734.287543971283
 20
3671.645586089695
 30
0.0
 11
4902.287543971283
 21
3503.6455860897
 31
0.0
  0
LINE
  5
1687A
330
167D3
100
AcDbEntity
  8
U3
100
AcDbLine
 10
4683.37585572585
 20
3620.733897844266
 30
0.0
 11
4800.464167480416
 21
3503.645586089696
 31
0.0
  0
LINE
  5
1687B
330
167D3
100
AcDbEntity
  8
U3
100
AcDbLine
 10
4970.145981481639
 20
3671.645586089695
 30
0.0
 11
4398.287543971281
 21
3671.645586089695
 31
0.0
  0
LINE
  5
1687C
330
167D3
100
AcDbEntity
  8
U3
100
AcDbLine
 10
4464.464167480417
 20
3605.468962580559
 30
0.0
 11
4530.640790989552
 21
3671.645586089693
 31
0.0
  0
LINE
  5
1687D
330
167D3
100
AcDbEntity
  8
U3
100
AcDbLine
 10
4398.287543971281
 20
3671.645586089693
 30
0.0
 11
4566.287543971284
 21
3503.645586089698
 31
0.0
  0
LINE
  5
1687E
330
167D3
100
AcDbEntity
  8
U3
100
AcDbLine
 10
4515.375855725848
 20
3554.557274335128
 30
0.0
 11
4632.464167480416
 21
3671.645586089693
 31
0.0
  0
LINE
  5
1687F
330
167D3
100
AcDbEntity
  8
U3
100
AcDbLine
 10
4566.287543971284
 20
3503.645586089698
 30
0.0
 11
4734.287543971283
 21
3671.645586089695
 31
0.0
  0
LINE
  5
16880
330
167D3
100
AcDbEntity
  8
U3
100
AcDbLine
 10
4632.464167480416
 20
3569.822209598832
 30
0.0
 11
4698.640790989555
 21
3503.645586089696
 31
0.0
  0
LINE
  5
16881
330
167D3
100
AcDbEntity
  8
U3
100
AcDbLine
 10
4902.287543971283
 20
3503.6455860897
 30
0.0
 11
4970.145981481639
 21
3571.504023600056
 31
0.0
  0
LINE
  5
16882
330
167D3
100
AcDbEntity
  8
U3
100
AcDbLine
 10
4800.464167480416
 20
3605.468962580561
 30
0.0
 11
4866.640790989553
 21
3671.645586089695
 31
0.0
  0
LINE
  5
16883
330
167D3
100
AcDbEntity
  8
U3
100
AcDbLine
 10
4851.375855725851
 20
3554.557274335131
 30
0.0
 11
4968.464167480419
 21
3671.645586089695
 31
0.0
  0
LINE
  5
16884
330
167D3
100
AcDbEntity
  8
HASHIRA
100
AcDbLine
 10
6152.122937215774
 20
3633.245586089696
 30
0.0
 11
6152.122937215774
 21
4023.47879129044
 31
0.0
  0
LINE
  5
16885
330
167D3
100
AcDbEntity
  8
HASHIRA
100
AcDbLine
 10
6048.122937215774
 20
4023.47879129044
 30
0.0
 11
6048.122937215774
 21
3633.245586089696
 31
0.0
  0
LINE
  5
16886
330
167D3
100
AcDbEntity
  8
U3
100
AcDbLine
 10
5540.122937215781
 20
3681.245586089693
 30
0.0
 11
5290.145981481639
 21
3681.245586089693
 31
0.0
  0
LINE
  5
16887
330
167D3
100
AcDbEntity
  8
U3
100
AcDbLine
 10
5479.108759357905
 20
3615.068962580559
 30
0.0
 11
5540.122937215781
 21
3676.083140438433
 31
0.0
  0
LINE
  5
16888
330
167D3
100
AcDbEntity
  8
U3
100
AcDbLine
 10
5412.932135848774
 20
3681.245586089693
 30
0.0
 11
5540.122937215781
 21
3554.054784722683
 31
0.0
  0
LINE
  5
16889
330
167D3
100
AcDbEntity
  8
U3
100
AcDbLine
 10
5356.091228848165
 20
3636.263116599437
 30
0.0
 11
5479.108759357912
 21
3513.245586089693
 31
0.0
  0
LINE
  5
1688A
330
167D3
100
AcDbEntity
  8
KISO
100
AcDbLine
 10
6048.122937215774
 20
3751.645586089699
 30
0.0
 11
5540.122937215781
 21
3751.645586089699
 31
0.0
  0
LINE
  5
1688B
330
167D3
100
AcDbEntity
  8
HATCH
100
AcDbLine
 10
6122.04051291152
 20
3623.645586089689
 30
0.0
 11
6110.522937215783
 21
3612.128010393954
 31
0.0
  0
LINE
  5
1688C
330
167D3
100
AcDbEntity
  8
KISO
100
AcDbLine
 10
6660.122937215786
 20
3495.645586089689
 30
0.0
 11
7302.519659955092
 21
3495.645586089692
 31
0.0
  0
LINE
  5
1688D
330
167D3
100
AcDbEntity
  8
HATCH
100
AcDbLine
 10
7302.519659955092
 20
3724.766272941844
 30
0.0
 11
7201.398973102948
 21
3623.645586089693
 31
0.0
  0
LINE
  5
1688E
330
167D3
100
AcDbEntity
  8
HATCH
100
AcDbLine
 10
7302.519659955092
 20
3677.248697246103
 30
0.0
 11
7248.916548798682
 21
3623.645586089693
 31
0.0
  0
LINE
  5
1688F
330
167D3
100
AcDbEntity
  8
HATCH
100
AcDbLine
 10
6801.881397407209
 20
3751.645586089699
 30
0.0
 11
6673.881397407206
 21
3623.64558608969
 31
0.0
  0
LINE
  5
16890
330
167D3
100
AcDbEntity
  8
HATCH
100
AcDbLine
 10
6849.398973102946
 20
3751.645586089699
 30
0.0
 11
6721.398973102949
 21
3623.64558608969
 31
0.0
  0
LINE
  5
16891
330
167D3
100
AcDbEntity
  8
HATCH
100
AcDbLine
 10
6416.916548798686
 20
3751.645586089699
 30
0.0
 11
6288.916548798679
 21
3623.64558608969
 31
0.0
  0
LINE
  5
16892
330
167D3
100
AcDbEntity
  8
HATCH
100
AcDbLine
 10
6369.398973102946
 20
3751.645586089699
 30
0.0
 11
6241.398973102948
 21
3623.645586089689
 31
0.0
  0
LINE
  5
16893
330
167D3
100
AcDbEntity
  8
HATCH
100
AcDbLine
 10
6896.916548798684
 20
3751.645586089699
 30
0.0
 11
6768.91654879868
 21
3623.64558608969
 31
0.0
  0
LINE
  5
16894
330
167D3
100
AcDbEntity
  8
HATCH
100
AcDbLine
 10
7281.881397407208
 20
3751.645586089699
 30
0.0
 11
7153.881397407204
 21
3623.645586089693
 31
0.0
  0
LINE
  5
16895
330
167D3
100
AcDbEntity
  8
KISO
100
AcDbLine
 10
6660.122937215781
 20
3623.645586089689
 30
0.0
 11
6660.122937215781
 21
2983.645586089688
 31
0.0
  0
LINE
  5
16896
330
167D3
100
AcDbEntity
  8
HATCH
100
AcDbLine
 10
6660.122937215781
 20
3297.728010393952
 30
0.0
 11
6346.040512911522
 21
2983.645586089689
 31
0.0
  0
LINE
  5
16897
330
167D3
100
AcDbEntity
  8
HATCH
100
AcDbLine
 10
6601.558088607255
 20
3623.64558608969
 30
0.0
 11
5961.558088607262
 21
2983.645586089689
 31
0.0
  0
LINE
  5
16898
330
167D3
100
AcDbEntity
  8
HATCH
100
AcDbLine
 10
6554.040512911523
 20
3623.64558608969
 30
0.0
 11
6110.522937215783
 21
3180.128010393946
 31
0.0
  0
LINE
  5
16899
330
167D3
100
AcDbEntity
  8
HATCH
100
AcDbLine
 10
6506.522937215784
 20
3623.64558608969
 30
0.0
 11
6110.522937215783
 21
3227.645586089685
 31
0.0
  0
LINE
  5
1689A
330
167D3
100
AcDbEntity
  8
HATCH
100
AcDbLine
 10
6660.122937215781
 20
3250.210434698212
 30
0.0
 11
6393.558088607263
 21
2983.645586089688
 31
0.0
  0
LINE
  5
1689B
330
167D3
100
AcDbEntity
  8
HATCH
100
AcDbLine
 10
6660.122937215781
 20
3202.692859002478
 30
0.0
 11
6441.075664302996
 21
2983.645586089688
 31
0.0
  0
LINE
  5
1689C
330
167D3
100
AcDbEntity
  8
HATCH
100
AcDbLine
 10
6074.522937215793
 20
3623.645586089689
 30
0.0
 11
5540.122937215781
 21
3089.24558608968
 31
0.0
  0
LINE
  5
1689D
330
167D3
100
AcDbEntity
  8
HATCH
100
AcDbLine
 10
6027.00536152005
 20
3623.64558608969
 30
0.0
 11
5540.122937215781
 21
3136.763161785423
 31
0.0
  0
LINE
  5
1689E
330
167D3
100
AcDbEntity
  8
HATCH
100
AcDbLine
 10
6089.72293721578
 20
3591.328010393951
 30
0.0
 11
5540.122937215781
 21
3041.728010393947
 31
0.0
  0
LINE
  5
1689F
330
167D3
100
AcDbEntity
  8
HATCH
100
AcDbLine
 10
5642.52293721579
 20
3623.64558608969
 30
0.0
 11
5540.122937215781
 21
3521.245586089685
 31
0.0
  0
LINE
  5
168A0
330
167D3
100
AcDbEntity
  8
HATCH
100
AcDbLine
 10
5547.487785824319
 20
3623.645586089693
 30
0.0
 11
5540.122937215781
 21
3616.280737481155
 31
0.0
  0
LINE
  5
168A1
330
167D3
100
AcDbEntity
  8
HATCH
100
AcDbLine
 10
5595.005361520058
 20
3623.64558608969
 30
0.0
 11
5540.122937215781
 21
3568.763161785416
 31
0.0
  0
LINE
  5
168A2
330
167D3
100
AcDbEntity
  8
HATCH
100
AcDbLine
 10
6089.72293721578
 20
3206.845586089684
 30
0.0
 11
6066.522937215797
 21
3183.645586089697
 31
0.0
  0
LINE
  5
168A3
330
167D3
100
AcDbEntity
  8
HATCH
100
AcDbLine
 10
6045.722937215798
 20
3162.845586089697
 30
0.0
 11
5866.52293721579
 21
2983.645586089689
 31
0.0
  0
LINE
  5
168A4
330
167D3
100
AcDbEntity
  8
HATCH
100
AcDbLine
 10
6740.122937215781
 20
3589.796748745406
 30
0.0
 11
6759.665572568259
 21
3623.64558608969
 31
0.0
  0
LINE
  5
168A5
330
167D3
100
AcDbEntity
  8
U3
100
AcDbLine
 10
5305.179540602733
 20
3585.351428354007
 30
0.0
 11
5377.28538286705
 21
3513.245586089693
 31
0.0
  0
LINE
  5
168A6
330
167D3
100
AcDbEntity
  8
U3
100
AcDbLine
 10
5290.145981481639
 20
3570.317869232913
 30
0.0
 11
5401.073698338418
 21
3681.245586089691
 31
0.0
  0
LINE
  5
168A7
330
167D3
100
AcDbEntity
  8
HATCH
100
AcDbLine
 10
6093.240512911538
 20
3162.845586089697
 30
0.0
 11
5914.04051291153
 21
2983.645586089689
 31
0.0
  0
LINE
  5
168A8
330
167D3
100
AcDbEntity
  8
HATCH
100
AcDbLine
 10
5936.916548798685
 20
3751.645586089699
 30
0.0
 11
5808.916548798681
 21
3623.645586089689
 31
0.0
  0
LINE
  5
168A9
330
167D3
100
AcDbEntity
  8
HATCH
100
AcDbLine
 10
5889.398973102946
 20
3751.645586089699
 30
0.0
 11
5761.398973102948
 21
3623.645586089689
 31
0.0
  0
LINE
  5
168AA
330
167D3
100
AcDbEntity
  8
HATCH
100
AcDbLine
 10
5841.881397407211
 20
3751.645586089699
 30
0.0
 11
5713.88139740721
 21
3623.64558608969
 31
0.0
  0
LINE
  5
168AB
330
167D3
100
AcDbEntity
  8
SUNPOU
100
AcDbLine
 10
6100.122937215783
 20
4435.046158226281
 30
0.0
 11
7525.353444466031
 21
4435.046158226281
 31
0.0
  0
TEXT
  5
168AC
330
167D3
100
AcDbEntity
  8
SUNPOU
100
AcDbText
 10
6885.950636356246
 20
4480.046158226279
 30
0.0
 40
90.0
  1
2800
 41
0.6666666666666666
  7
00
 72
     4
 11
7000.236350641961
 21
4525.046158226279
 31
0.0
100
AcDbText
  0
LINE
  5
168AD
330
167D3
100
AcDbEntity
  8
HATCH
100
AcDbLine
 10
6027.429280234475
 20
2823.645586089688
 30
0.0
 11
6119.80532290114
 21
2983.645586089688
 31
0.0
  0
LINE
  5
168AE
330
167D3
100
AcDbEntity
  8
HATCH
100
AcDbLine
 10
6066.471989567808
 20
2983.645586089688
 30
0.0
 11
6093.138656234472
 21
2937.457563423025
 31
0.0
  0
LINE
  5
168AF
330
167D3
100
AcDbEntity
  8
HATCH
100
AcDbLine
 10
6054.095946901142
 20
2869.833607423018
 30
0.0
 11
6080.762613567809
 21
2823.645586089688
 31
0.0
  0
LINE
  5
168B0
330
167D3
100
AcDbEntity
  8
HATCH
100
AcDbLine
 10
5854.095946901143
 20
2869.833607423018
 30
0.0
 11
5880.762613567807
 21
2823.645586089688
 31
0.0
  0
LINE
  5
168B1
330
167D3
100
AcDbEntity
  8
HATCH
100
AcDbLine
 10
5866.471989567806
 20
2983.645586089688
 30
0.0
 11
5893.138656234473
 21
2937.457563423025
 31
0.0
  0
LINE
  5
168B2
330
167D3
100
AcDbEntity
  8
HATCH
100
AcDbLine
 10
5654.095946901143
 20
2869.833607423018
 30
0.0
 11
5680.762613567807
 21
2823.645586089688
 31
0.0
  0
LINE
  5
168B3
330
167D3
100
AcDbEntity
  8
HATCH
100
AcDbLine
 10
5627.429280234475
 20
2823.645586089688
 30
0.0
 11
5719.805322901141
 21
2983.645586089688
 31
0.0
  0
LINE
  5
168B4
330
167D3
100
AcDbEntity
  8
HATCH
100
AcDbLine
 10
5666.471989567806
 20
2983.645586089688
 30
0.0
 11
5693.138656234474
 21
2937.457563423025
 31
0.0
  0
LINE
  5
168B5
330
167D3
100
AcDbEntity
  8
HATCH
100
AcDbLine
 10
5454.095946901142
 20
2869.833607423018
 30
0.0
 11
5480.762613567808
 21
2823.645586089688
 31
0.0
  0
LINE
  5
168B6
330
167D3
100
AcDbEntity
  8
HATCH
100
AcDbLine
 10
5466.471989567807
 20
2983.645586089688
 30
0.0
 11
5493.138656234473
 21
2937.457563423025
 31
0.0
  0
LINE
  5
168B7
330
167D3
100
AcDbEntity
  8
HATCH
100
AcDbLine
 10
5427.429280234475
 20
2823.645586089688
 30
0.0
 11
5519.805322901142
 21
2983.645586089688
 31
0.0
  0
LINE
  5
168B8
330
167D3
100
AcDbEntity
  8
HATCH
100
AcDbLine
 10
5827.429280234476
 20
2823.645586089688
 30
0.0
 11
5919.80532290114
 21
2983.645586089688
 31
0.0
  0
LINE
  5
168B9
330
167D3
100
AcDbEntity
  8
HATCH
100
AcDbLine
 10
6266.471989567808
 20
2983.645586089688
 30
0.0
 11
6293.138656234472
 21
2937.457563423025
 31
0.0
  0
LINE
  5
168BA
330
167D3
100
AcDbEntity
  8
HATCH
100
AcDbLine
 10
6227.429280234475
 20
2823.645586089688
 30
0.0
 11
6319.805322901141
 21
2983.645586089688
 31
0.0
  0
LINE
  5
168BB
330
167D3
100
AcDbEntity
  8
HATCH
100
AcDbLine
 10
6254.095946901142
 20
2869.833607423018
 30
0.0
 11
6280.762613567809
 21
2823.645586089688
 31
0.0
  0
LINE
  5
168BC
330
167D3
100
AcDbEntity
  8
HATCH
100
AcDbLine
 10
6427.429280234476
 20
2823.645586089688
 30
0.0
 11
6519.805322901141
 21
2983.645586089688
 31
0.0
  0
LINE
  5
168BD
330
167D3
100
AcDbEntity
  8
HATCH
100
AcDbLine
 10
6466.471989567806
 20
2983.645586089688
 30
0.0
 11
6493.138656234473
 21
2937.457563423025
 31
0.0
  0
LINE
  5
168BE
330
167D3
100
AcDbEntity
  8
HATCH
100
AcDbLine
 10
6454.095946901142
 20
2869.833607423018
 30
0.0
 11
6480.762613567808
 21
2823.645586089688
 31
0.0
  0
TEXT
  5
168BF
330
167D3
100
AcDbEntity
  8
SUNPOU
100
AcDbText
 10
4450.387402080786
 20
3806.645586089695
 30
0.0
 40
90.0
  1
G.L
 41
0.6700000000000001
  7
01
 72
     4
 11
4522.173116366501
 21
3851.645586089696
 31
0.0
100
AcDbText
  0
LINE
  5
168C0
330
167D3
100
AcDbEntity
  8
SUNPOU
100
AcDbLine
 10
4574.134640593569
 20
3761.645586089695
 30
0.0
 11
4470.211592139434
 21
3761.645586089695
 31
0.0
  0
LINE
  5
168C1
330
167D3
100
AcDbEntity
  8
SUNPOU
100
AcDbLine
 10
4470.211592139434
 20
3761.645586089695
 30
0.0
 11
4522.173116366501
 21
3671.645586089695
 31
0.0
  0
LINE
  5
168C2
330
167D3
100
AcDbEntity
  8
SUNPOU
100
AcDbLine
 10
4522.173116366501
 20
3671.645586089695
 30
0.0
 11
4574.134640593569
 21
3761.645586089695
 31
0.0
  0
TEXT
  5
168C3
330
167D3
100
AcDbEntity
  8
HIKIDASHI
100
AcDbText
 10
6176.326540094557
 20
1969.196567247024
 30
0.0
 40
90.0
  1
断 面
  7
01
100
AcDbText
  0
LINE
  5
168C4
330
167D3
100
AcDbEntity
  8
HIKIDASHI
100
AcDbLine
 10
5752.309260597995
 20
1924.196567247025
 30
0.0
 11
6447.936613833565
 21
1924.196567247025
 31
0.0
  0
LINE
  5
168C5
330
167D3
100
AcDbEntity
  8
HIKIDASHI
100
AcDbLine
 10
5752.309260597995
 20
1894.196567247025
 30
0.0
 11
6447.936613833565
 21
1894.196567247025
 31
0.0
  0
TEXT
  5
168C6
330
167D3
100
AcDbEntity
  8
HIKIDASHI
100
AcDbText
 10
5782.309260597994
 20
1969.196567247024
 30
0.0
 40
90.0
  1
A  ~  A'
 41
0.6700000000000001
  7
00
100
AcDbText
  0
TEXT
  5
168C7
330
167D3
100
AcDbEntity
  8
HIKIDASHI
100
AcDbText
 10
6939.031417640943
 20
3253.675453690969
 30
0.0
 40
90.0
  1
敷砂利又は砕石
  7
01
 72
     2
 11
7671.031417640944
 21
3298.675453690969
 31
0.0
100
AcDbText
 73
     2
  0
LINE
  5
168C8
330
167D3
100
AcDbEntity
  8
HIKIDASHI
100
AcDbLine
 10
7696.261718286621
 20
3208.675453690969
 30
0.0
 11
6895.197548559474
 21
3208.675453690969
 31
0.0
  0
TEXT
  5
168C9
330
167D3
100
AcDbEntity
  8
HIKIDASHI
100
AcDbText
 10
7063.731590342887
 20
2617.864985222971
 30
0.0
 40
90.0
  1
砕　石
  7
01
 72
     2
 11
7363.731590342887
 21
2662.864985222971
 31
0.0
100
AcDbText
 73
     2
  0
LINE
  5
168CA
330
167D3
100
AcDbEntity
  8
HIKIDASHI
100
AcDbLine
 10
7405.430359578602
 20
2572.864985222971
 30
0.0
 11
7036.663982750976
 21
2572.864985222971
 31
0.0
  0
CIRCLE
  5
168CB
330
167D3
100
AcDbEntity
  8
BOLT
100
AcDbCircle
 10
10112.2085569219
 20
3729.245586089696
 30
0.0
 40
13.2
  0
CIRCLE
  5
168CC
330
167D3
100
AcDbEntity
  8
BOLT
100
AcDbCircle
 10
10112.2085569219
 20
3729.245586089696
 30
0.0
 40
16.8
  0
CIRCLE
  5
168CD
330
167D3
100
AcDbEntity
  8
BOLT
100
AcDbCircle
 10
10112.2085569219
 20
3665.245586089696
 30
0.0
 40
16.8
  0
CIRCLE
  5
168CE
330
167D3
100
AcDbEntity
  8
BOLT
100
AcDbCircle
 10
10112.2085569219
 20
3665.245586089696
 30
0.0
 40
13.2
  0
LINE
  5
168CF
330
167D3
100
AcDbEntity
  8
KISO
100
AcDbLine
 10
11314.6052796612
 20
3751.645586089699
 30
0.0
 11
10164.2085569219
 21
3751.645586089697
 31
0.0
  0
LINE
  5
168D0
330
167D3
100
AcDbEntity
  8
KISO
100
AcDbLine
 10
11314.6052796612
 20
3623.64558608969
 30
0.0
 11
8992.208556921905
 21
3623.645586089693
 31
0.0
  0
LINE
  5
168D1
330
167D3
100
AcDbEntity
  8
KISO
100
AcDbLine
 10
8992.208556921905
 20
3495.645586089688
 30
0.0
 11
9552.2085569219
 21
3495.645586089688
 31
0.0
  0
LINE
  5
168D2
330
167D3
100
AcDbEntity
  8
KISO
100
AcDbLine
 10
10672.2085569219
 20
3495.645586089689
 30
0.0
 11
11314.6052796612
 21
3495.645586089692
 31
0.0
  0
LINE
  5
168D3
330
167D3
100
AcDbEntity
  8
KISO
100
AcDbLine
 10
10060.2085569219
 20
3751.645586089699
 30
0.0
 11
8992.208556921905
 21
3751.645586089699
 31
0.0
  0
LINE
  5
168D4
330
167D3
100
AcDbEntity
  8
KISO
100
AcDbLine
 10
9552.2085569219
 20
3623.64558608969
 30
0.0
 11
9552.2085569219
 21
3495.645586089692
 31
0.0
  0
LINE
  5
168D5
330
167D3
100
AcDbEntity
  8
HASHIRA
100
AcDbLine
 10
10164.2085569219
 20
3633.245586089696
 30
0.0
 11
10164.20855692189
 21
3888.046158226281
 31
0.0
  0
LINE
  5
168D6
330
167D3
100
AcDbEntity
  8
HASHIRA
100
AcDbLine
 10
10060.2085569219
 20
3888.046158226281
 30
0.0
 11
10060.2085569219
 21
3633.245586089696
 31
0.0
  0
LINE
  5
168D7
330
167D3
100
AcDbEntity
  8
HATCH
100
AcDbLine
 10
9853.967017113333
 20
3751.645586089699
 30
0.0
 11
9725.967017113328
 21
3623.645586089693
 31
0.0
  0
LINE
  5
168D8
330
167D3
100
AcDbEntity
  8
HATCH
100
AcDbLine
 10
9949.002168504804
 20
3751.645586089697
 30
0.0
 11
9821.002168504797
 21
3623.645586089689
 31
0.0
  0
LINE
  5
168D9
330
167D3
100
AcDbEntity
  8
HATCH
100
AcDbLine
 10
9901.484592809076
 20
3751.645586089699
 30
0.0
 11
9773.484592809063
 21
3623.645586089693
 31
0.0
  0
LINE
  5
168DA
330
167D3
100
AcDbEntity
  8
1PL-S1
100
AcDbLine
 10
10016.20855692189
 20
3614.045586089695
 30
0.0
 11
10016.20855692189
 21
3642.845586089697
 31
0.0
  0
LINE
  5
168DB
330
167D3
100
AcDbEntity
  8
HATCH
100
AcDbLine
 10
10333.96701711332
 20
3751.645586089697
 30
0.0
 11
10215.56701711332
 21
3633.245586089696
 31
0.0
  0
LINE
  5
168DC
330
167D3
100
AcDbEntity
  8
HATCH
100
AcDbLine
 10
10381.48459280907
 20
3751.645586089699
 30
0.0
 11
10253.48459280905
 21
3623.64558608969
 31
0.0
  0
LINE
  5
168DD
330
167D3
100
AcDbEntity
  8
1PL-S1
100
AcDbLine
 10
10208.2085569219
 20
3614.045586089695
 30
0.0
 11
10208.2085569219
 21
3642.845586089696
 31
0.0
  0
LINE
  5
168DE
330
167D3
100
AcDbEntity
  8
HATCH
100
AcDbLine
 10
10429.00216850479
 20
3751.645586089699
 30
0.0
 11
10301.0021685048
 21
3623.64558608969
 31
0.0
  0
LINE
  5
168DF
330
167D3
100
AcDbEntity
  8
HATCH
100
AcDbLine
 10
10813.96701711332
 20
3751.645586089699
 30
0.0
 11
10685.96701711332
 21
3623.64558608969
 31
0.0
  0
LINE
  5
168E0
330
167D3
100
AcDbEntity
  8
HATCH
100
AcDbLine
 10
10861.48459280907
 20
3751.645586089699
 30
0.0
 11
10733.48459280907
 21
3623.64558608969
 31
0.0
  0
LINE
  5
168E1
330
167D3
100
AcDbEntity
  8
HATCH
100
AcDbLine
 10
10909.0021685048
 20
3751.645586089699
 30
0.0
 11
10781.00216850479
 21
3623.64558608969
 31
0.0
  0
LINE
  5
168E2
330
167D3
100
AcDbEntity
  8
HATCH
100
AcDbLine
 10
11314.6052796612
 20
3677.248697246104
 30
0.0
 11
11261.00216850479
 21
3623.64558608969
 31
0.0
  0
LINE
  5
168E3
330
167D3
100
AcDbEntity
  8
HATCH
100
AcDbLine
 10
11314.6052796612
 20
3724.766272941833
 30
0.0
 11
11213.48459280907
 21
3623.64558608969
 31
0.0
  0
LINE
  5
168E4
330
167D3
100
AcDbEntity
  8
HATCH
100
AcDbLine
 10
11293.96701711332
 20
3751.645586089699
 30
0.0
 11
11165.96701711332
 21
3623.64558608969
 31
0.0
  0
LINE
  5
168E5
330
167D3
100
AcDbEntity
  8
HATCH
100
AcDbLine
 10
10672.2085569219
 20
3297.728010393956
 30
0.0
 11
10358.12613261764
 21
2983.645586089688
 31
0.0
  0
LINE
  5
168E6
330
167D3
100
AcDbEntity
  8
HATCH
100
AcDbLine
 10
10672.2085569219
 20
3250.21043469822
 30
0.0
 11
10405.64370831337
 21
2983.645586089688
 31
0.0
  0
LINE
  5
168E7
330
167D3
100
AcDbEntity
  8
HATCH
100
AcDbLine
 10
10672.2085569219
 20
3202.692859002485
 30
0.0
 11
10453.1612840091
 21
2983.645586089688
 31
0.0
  0
LINE
  5
168E8
330
167D3
100
AcDbEntity
  8
HATCH
100
AcDbLine
 10
10566.12613261764
 20
3623.64558608969
 30
0.0
 11
10218.60855692189
 21
3276.12801039395
 31
0.0
  0
LINE
  5
168E9
330
167D3
100
AcDbEntity
  8
HATCH
100
AcDbLine
 10
10613.64370831336
 20
3623.64558608969
 30
0.0
 11
10218.60855692189
 21
3228.61043469822
 31
0.0
  0
LINE
  5
168EA
330
167D3
100
AcDbEntity
  8
HATCH
100
AcDbLine
 10
10518.6085569219
 20
3623.64558608969
 30
0.0
 11
10218.60855692189
 21
3323.645586089689
 31
0.0
  0
LINE
  5
168EB
330
167D3
100
AcDbEntity
  8
KISO
100
AcDbLine
 10
10672.2085569219
 20
3623.645586089693
 30
0.0
 11
10672.2085569219
 21
2983.645586089688
 31
0.0
  0
LINE
  5
168EC
330
167D3
100
AcDbEntity
  8
HATCH
100
AcDbLine
 10
10039.09098122617
 20
3623.645586089689
 30
0.0
 11
10026.6085569219
 21
3611.163161785427
 31
0.0
  0
LINE
  5
168ED
330
167D3
100
AcDbEntity
  8
HATCH
100
AcDbLine
 10
10101.8085569219
 20
3591.328010393957
 30
0.0
 11
10026.6085569219
 21
3516.128010393956
 31
0.0
  0
LINE
  5
168EE
330
167D3
100
AcDbEntity
  8
HATCH
100
AcDbLine
 10
10086.60855692189
 20
3623.64558608969
 30
0.0
 11
10026.6085569219
 21
3563.645586089688
 31
0.0
  0
LINE
  5
168EF
330
167D3
100
AcDbEntity
  8
KISO
100
AcDbLine
 10
9552.2085569219
 20
3623.645586089693
 30
0.0
 11
9552.208556921902
 21
2983.645586089688
 31
0.0
  0
LINE
  5
168F0
330
167D3
100
AcDbEntity
  8
HATCH
100
AcDbLine
 10
9654.608556921905
 20
3623.645586089693
 30
0.0
 11
9552.2085569219
 21
3521.245586089691
 31
0.0
  0
LINE
  5
168F1
330
167D3
100
AcDbEntity
  8
HATCH
100
AcDbLine
 10
9607.090981226175
 20
3623.64558608969
 30
0.0
 11
9552.2085569219
 21
3568.763161785422
 31
0.0
  0
LINE
  5
168F2
330
167D3
100
AcDbEntity
  8
HATCH
100
AcDbLine
 10
10197.8085569219
 20
3302.845586089687
 30
0.0
 11
9878.608556921912
 21
2983.645586089689
 31
0.0
  0
LINE
  5
168F3
330
167D3
100
AcDbEntity
  8
HATCH
100
AcDbLine
 10
10197.8085569219
 20
3255.32801039395
 30
0.0
 11
9926.126132617646
 21
2983.645586089688
 31
0.0
  0
LINE
  5
168F4
330
167D3
100
AcDbEntity
  8
HATCH
100
AcDbLine
 10
10197.8085569219
 20
3207.810434698218
 30
0.0
 11
9973.643708313376
 21
2983.645586089688
 31
0.0
  0
LINE
  5
168F5
330
167D3
100
AcDbEntity
  8
HATCH
100
AcDbLine
 10
10005.8085569219
 20
3590.363161785428
 30
0.0
 11
9552.208556921902
 21
3136.763161785425
 31
0.0
  0
LINE
  5
168F6
330
167D3
100
AcDbEntity
  8
HATCH
100
AcDbLine
 10
10005.8085569219
 20
3542.845586089688
 30
0.0
 11
9552.2085569219
 21
3089.245586089682
 31
0.0
  0
LINE
  5
168F7
330
167D3
100
AcDbEntity
  8
HATCH
100
AcDbLine
 10
10005.8085569219
 20
3495.328010393956
 30
0.0
 11
9552.2085569219
 21
3041.728010393953
 31
0.0
  0
LINE
  5
168F8
330
167D3
100
AcDbEntity
  8
HATCH
100
AcDbLine
 10
9559.573405530436
 20
3623.645586089693
 30
0.0
 11
9552.2085569219
 21
3616.28073748116
 31
0.0
  0
LINE
  5
168F9
330
167D3
100
AcDbEntity
  8
1PL-M1
100
AcDbLine
 10
10112.2085569219
 20
2700.732872548873
 30
0.0
 11
10112.2085569219
 21
4480.046158226286
 31
0.0
  0
LINE
  5
168FA
330
167D3
100
AcDbEntity
  8
SUNPOU
100
AcDbLine
 10
10112.2085569219
 20
4435.046158226285
 30
0.0
 11
11537.43906417215
 21
4435.046158226285
 31
0.0
  0
TEXT
  5
168FB
330
167D3
100
AcDbEntity
  8
SUNPOU
100
AcDbText
 10
10893.75054177665
 20
4480.046158226286
 30
0.0
 40
90.0
  1
1435
 41
0.6666666666666666
  7
00
 72
     4
 11
11012.32197034808
 21
4525.046158226285
 31
0.0
100
AcDbText
  0
TEXT
  5
168FC
330
167D3
100
AcDbEntity
  8
SUNPOU
100
AcDbText
 10
7956.685364023607
 20
3806.645586089702
 30
0.0
 40
90.0
  1
G.L
 41
0.6700000000000001
  7
01
 72
     4
 11
8028.471078309323
 21
3851.645586089702
 31
0.0
100
AcDbText
  0
LINE
  5
168FD
330
167D3
100
AcDbEntity
  8
SUNPOU
100
AcDbLine
 10
8080.43260253639
 20
3761.645586089704
 30
0.0
 11
7976.509554082255
 21
3761.645586089704
 31
0.0
  0
LINE
  5
168FE
330
167D3
100
AcDbEntity
  8
SUNPOU
100
AcDbLine
 10
7976.509554082255
 20
3761.645586089704
 30
0.0
 11
8028.471078309323
 21
3671.645586089704
 31
0.0
  0
LINE
  5
168FF
330
167D3
100
AcDbEntity
  8
SUNPOU
100
AcDbLine
 10
8028.471078309323
 20
3671.645586089704
 30
0.0
 11
8080.43260253639
 21
3761.645586089704
 31
0.0
  0
LINE
  5
16900
330
167D3
100
AcDbEntity
  8
U3
100
AcDbLine
 10
8240.585505914102
 20
3671.645586089697
 30
0.0
 11
8408.585505914107
 21
3503.645586089703
 31
0.0
  0
LINE
  5
16901
330
167D3
100
AcDbEntity
  8
U3
100
AcDbLine
 10
8189.673817668674
 20
3620.733897844268
 30
0.0
 11
8306.762129423239
 21
3503.645586089699
 31
0.0
  0
LINE
  5
16902
330
167D3
100
AcDbEntity
  8
U3
100
AcDbLine
 10
8992.208556921905
 20
3671.645586089699
 30
0.0
 11
8821.339034185019
 21
3671.645586089697
 31
0.0
  0
LINE
  5
16903
330
167D3
100
AcDbEntity
  8
U3
100
AcDbLine
 10
8505.57748959727
 20
3671.645586089697
 30
0.0
 11
7904.585505914107
 21
3671.645586089699
 31
0.0
  0
LINE
  5
16904
330
167D3
100
AcDbEntity
  8
U3
100
AcDbLine
 10
7970.762129423238
 20
3605.468962580561
 30
0.0
 11
8036.938752932377
 21
3671.645586089695
 31
0.0
  0
LINE
  5
16905
330
167D3
100
AcDbEntity
  8
U3
100
AcDbLine
 10
7904.585505914107
 20
3671.645586089695
 30
0.0
 11
8072.585505914107
 21
3503.6455860897
 31
0.0
  0
LINE
  5
16906
330
167D3
100
AcDbEntity
  8
U3
100
AcDbLine
 10
8021.673817668672
 20
3554.557274335131
 30
0.0
 11
8138.762129423239
 21
3671.645586089695
 31
0.0
  0
LINE
  5
16907
330
167D3
100
AcDbEntity
  8
U3
100
AcDbLine
 10
8072.585505914107
 20
3503.6455860897
 30
0.0
 11
8240.585505914102
 21
3671.645586089697
 31
0.0
  0
LINE
  5
16908
330
167D3
100
AcDbEntity
  8
U3
100
AcDbLine
 10
8138.762129423239
 20
3569.822209598835
 30
0.0
 11
8204.938752932378
 21
3503.645586089699
 31
0.0
  0
LINE
  5
16909
330
167D3
100
AcDbEntity
  8
U3
100
AcDbLine
 10
8408.585505914107
 20
3503.645586089703
 30
0.0
 11
8505.57748959727
 21
3600.637569772866
 31
0.0
  0
LINE
  5
1690A
330
167D3
100
AcDbEntity
  8
U3
100
AcDbLine
 10
8306.762129423239
 20
3605.468962580562
 30
0.0
 11
8372.938752932375
 21
3671.645586089697
 31
0.0
  0
LINE
  5
1690B
330
167D3
100
AcDbEntity
  8
U3
100
AcDbLine
 10
8357.673817668672
 20
3554.557274335133
 30
0.0
 11
8474.762129423243
 21
3671.645586089697
 31
0.0
  0
LINE
  5
1690C
330
167D3
100
AcDbEntity
  8
HIKIDASHI
100
AcDbLine
 10
11178.70532711539
 20
4215.446158226288
 30
0.0
 11
10809.93895028776
 21
4215.446158226288
 31
0.0
  0
TEXT
  5
1690D
330
167D3
100
AcDbEntity
  8
HIKIDASHI
100
AcDbText
 10
10843.00655787967
 20
4260.446158226288
 30
0.0
 40
90.0
  1
土　間
  7
01
 72
     2
 11
11137.00655787968
 21
4305.446158226287
 31
0.0
100
AcDbText
 73
     2
  0
TEXT
  5
1690E
330
167D3
100
AcDbEntity
  8
SUNPOU
100
AcDbText
 10
10930.67289141318
 20
3886.645586089697
 30
0.0
 40
90.0
  1
F.L
 41
0.6666666666666666
  7
00
 72
     4
 11
10999.24431998461
 21
3931.645586089697
 31
0.0
100
AcDbText
  0
LINE
  5
1690F
330
167D3
100
AcDbEntity
  8
SUNPOU
100
AcDbLine
 10
10999.24431998461
 20
3751.645586089697
 30
0.0
 11
11051.20584421168
 21
3841.645586089697
 31
0.0
  0
LINE
  5
16910
330
167D3
100
AcDbEntity
  8
SUNPOU
100
AcDbLine
 10
10947.28279575755
 20
3841.645586089697
 30
0.0
 11
10999.24431998461
 21
3751.645586089697
 31
0.0
  0
LINE
  5
16911
330
167D3
100
AcDbEntity
  8
SUNPOU
100
AcDbLine
 10
11051.20584421168
 20
3841.645586089697
 30
0.0
 11
10947.28279575755
 21
3841.645586089697
 31
0.0
  0
TEXT
  5
16912
330
167D3
100
AcDbEntity
  8
HIKIDASHI
100
AcDbText
 10
8543.512091918172
 20
2119.439615940441
 30
0.0
 40
89.55223880597014
  1
x
 41
0.6700000000000001
  7
00
100
AcDbText
  0
TEXT
  5
16913
330
167D3
100
AcDbEntity
  8
HIKIDASHI
100
AcDbText
 10
8471.677154727798
 20
2107.649140698029
 30
0.0
 40
67.16417910447761
  1
2
 41
0.6700000000000001
  7
00
100
AcDbText
  0
TEXT
  5
16914
330
167D3
100
AcDbEntity
  8
HIKIDASHI
100
AcDbText
 10
8383.785118168875
 20
2134.675195728591
 30
0.0
 40
67.16417910447761
  1
1
 41
0.6700000000000001
  7
00
100
AcDbText
  0
TEXT
  5
16915
330
167D3
100
AcDbEntity
  8
HIKIDASHI
100
AcDbText
 10
8309.184307485651
 20
2108.245586089696
 30
0.0
 40
89.55223880597014
  1
W ／
 41
0.6700000000000001
  7
00
100
AcDbText
  0
TEXT
  5
16916
330
167D3
100
AcDbEntity
  8
HIKIDASHI
100
AcDbText
 10
8624.647471071304
 20
2108.036599889604
 30
0.0
 40
89.55223880597014
  1
300
 41
0.6700000000000001
  7
00
100
AcDbText
  0
TEXT
  5
16917
330
167D3
100
AcDbEntity
  8
HIKIDASHI
100
AcDbText
 10
8309.184307485651
 20
2288.245586089695
 30
0.0
 40
90.0
  1
アンカーボルト
  7
01
100
AcDbText
  0
LINE
  5
16918
330
167D3
100
AcDbEntity
  8
HIKIDASHI
100
AcDbLine
 10
8280.104698623947
 20
2243.245586089694
 30
0.0
 11
9100.110712020796
 21
2243.245586089694
 31
0.0
  0
TEXT
  5
16919
330
167D3
100
AcDbEntity
  8
HIKIDASHI
100
AcDbText
 10
9794.394880304118
 20
1969.196567247029
 30
0.0
 40
90.0
  1
B  ~  B'
 41
0.6700000000000001
  7
00
100
AcDbText
  0
LINE
  5
1691A
330
167D3
100
AcDbEntity
  8
HIKIDASHI
100
AcDbLine
 10
9764.394880304113
 20
1894.196567247029
 30
0.0
 11
10460.02223353968
 21
1894.196567247029
 31
0.0
  0
LINE
  5
1691B
330
167D3
100
AcDbEntity
  8
HIKIDASHI
100
AcDbLine
 10
9764.394880304113
 20
1924.196567247028
 30
0.0
 11
10460.02223353968
 21
1924.196567247028
 31
0.0
  0
TEXT
  5
1691C
330
167D3
100
AcDbEntity
  8
HIKIDASHI
100
AcDbText
 10
10188.41215980067
 20
1969.196567247029
 30
0.0
 40
90.0
  1
断 面
  7
01
100
AcDbText
  0
LINE
  5
1691D
330
167D3
100
AcDbEntity
  8
1PL-S1
100
AcDbLine
 10
12525.6642600104
 20
3004.705090723239
 30
0.0
 11
13157.66426001041
 21
3004.705090723239
 31
0.0
  0
LINE
  5
1691E
330
167D3
100
AcDbEntity
  8
U1
100
AcDbLine
 10
12691.66426001043
 20
3946.89778325465
 30
0.0
 11
12691.66426001043
 21
4330.962322433918
 31
0.0
  0
LINE
  5
1691F
330
167D3
100
AcDbEntity
  8
U1
100
AcDbLine
 10
12991.6642600104
 20
3946.89778325465
 30
0.0
 11
12991.6642600104
 21
4330.962322433918
 31
0.0
  0
LINE
  5
16920
330
167D3
100
AcDbEntity
  8
1PL-S1
100
AcDbLine
 10
12841.66426001041
 20
3882.89778325465
 30
0.0
 11
12841.66426001041
 21
4370.962322433917
 31
0.0
  0
CIRCLE
  5
16921
330
167D3
100
AcDbEntity
  8
U1
100
AcDbCircle
 10
12841.66426001041
 20
4190.89778325465
 30
0.0
 40
24.0
  0
LINE
  5
16922
330
167D3
100
AcDbEntity
  8
1PL-S1
100
AcDbLine
 10
12601.66426001041
 20
2928.705090723239
 30
0.0
 11
12601.66426001041
 21
3080.705090723239
 31
0.0
  0
LINE
  5
16923
330
167D3
100
AcDbEntity
  8
1PL-S1
100
AcDbLine
 10
13081.66426001041
 20
2928.705090723239
 30
0.0
 11
13081.66426001041
 21
3080.705090723239
 31
0.0
  0
LINE
  5
16924
330
167D3
100
AcDbEntity
  8
1PL-S1
100
AcDbLine
 10
12841.66426001041
 20
2804.705090723239
 30
0.0
 11
12841.66426001041
 21
3204.705090723239
 31
0.0
  0
CIRCLE
  5
16925
330
167D3
100
AcDbEntity
  8
U1
100
AcDbCircle
 10
12601.66426001041
 20
3004.705090723239
 30
0.0
 40
36.0
  0
LINE
  5
16926
330
167D3
100
AcDbEntity
  8
U1
100
AcDbLine
 10
12991.6642600104
 20
3004.705090723239
 30
0.0
 11
12912.63718125207
 21
3004.705090723239
 31
0.0
  0
CIRCLE
  5
16927
330
167D3
100
AcDbEntity
  8
U1
100
AcDbCircle
 10
13081.66426001041
 20
3004.705090723239
 30
0.0
 40
36.0
  0
LINE
  5
16928
330
167D3
100
AcDbEntity
  8
1PL-S1
100
AcDbLine
 10
12777.66426001041
 20
4030.897783254649
 30
0.0
 11
12905.6642600104
 21
4030.897783254649
 31
0.0
  0
LINE
  5
16929
330
167D3
100
AcDbEntity
  8
1PL-S1
100
AcDbLine
 10
12601.66426001043
 20
3882.89778325465
 30
0.0
 11
12601.66426001041
 21
3986.897783254649
 31
0.0
  0
LINE
  5
1692A
330
167D3
100
AcDbEntity
  8
1PL-S1
100
AcDbLine
 10
13081.66426001041
 20
3882.89778325465
 30
0.0
 11
13081.66426001041
 21
3986.897783254649
 31
0.0
  0
CIRCLE
  5
1692B
330
167D3
100
AcDbEntity
  8
U1
100
AcDbCircle
 10
12841.66426001041
 20
4030.897783254649
 30
0.0
 40
24.0
  0
LINE
  5
1692C
330
167D3
100
AcDbEntity
  8
1PL-S1
100
AcDbLine
 10
12777.66426001041
 20
4190.89778325465
 30
0.0
 11
12905.6642600104
 21
4190.89778325465
 31
0.0
  0
TEXT
  5
1692D
330
167D3
100
AcDbEntity
  8
SUNPOU
100
AcDbText
 10
12050.37729612778
 20
1979.147008505161
 30
0.0
 40
120.0
  1
柱脚金具詳細図
  7
01
 72
     4
 11
12534.37729612778
 21
2039.147008505161
 31
0.0
100
AcDbText
  0
TEXT
  5
1692E
330
167D3
100
AcDbEntity
  8
SUNPOU
100
AcDbText
 10
13446.48612529624
 20
1976.685470043622
 30
0.0
 40
73.84615384615384
  1
/
 41
0.6700000000000001
  7
00
 11
13446.48612529624
 21
1966.839316197468
 31
0.0
100
AcDbText
 73
     1
  0
TEXT
  5
1692F
330
167D3
100
AcDbEntity
  8
SUNPOU
100
AcDbText
 10
13510.43556825062
 20
1958.223931582083
 30
0.0
 40
73.84615384615384
  1
10
 41
0.6700000000000001
  7
00
 11
13510.43556825062
 21
1948.37777773593
 31
0.0
100
AcDbText
 73
     1
  0
TEXT
  5
16930
330
167D3
100
AcDbEntity
  8
SUNPOU
100
AcDbText
 10
13398.07999798087
 20
1995.147008505161
 30
0.0
 40
73.84615384615384
  1
1
 41
0.6700000000000001
  7
00
 11
13398.07999798087
 21
1985.300854659008
 31
0.0
100
AcDbText
 73
     1
  0
TEXT
  5
16931
330
167D3
100
AcDbEntity
  8
SUNPOU
100
AcDbText
 10
13078.37729612778
 20
1979.147008505161
 30
0.0
 40
92.30769230769228
  1
（ S = 　　  ）
 41
0.6700000000000001
  7
00
 11
13078.37729612778
 21
1966.839316197468
 31
0.0
100
AcDbText
 73
     1
  0
LINE
  5
16932
330
167D3
100
AcDbEntity
  8
HIKIDASHI
100
AcDbLine
 10
13373.55951818639
 20
3372.222346834924
 30
0.0
 11
13957.60031375036
 21
3372.222346834924
 31
0.0
  0
TEXT
  5
16933
330
167D3
100
AcDbEntity
  8
HIKIDASHI
100
AcDbText
 10
13392.84951598312
 20
3417.222346834924
 30
0.0
 40
90.0
  1
プレ－ト
  7
01
 72
     2
 11
13782.84951598312
 21
3417.222346834924
 31
0.0
100
AcDbText
  0
TEXT
  5
16934
330
167D3
100
AcDbEntity
  8
HIKIDASHI
100
AcDbText
 10
13821.30469666554
 20
3417.222346834924
 30
0.0
 40
90.0
  1
6
 41
0.6666666666666666
  7
00
 72
     2
 11
13869.87612523697
 21
3417.222346834924
 31
0.0
100
AcDbText
  0
TEXT
  5
16935
330
167D3
100
AcDbEntity
  8
HIKIDASHI
100
AcDbText
 10
13907.30234713754
 20
3431.208095270888
 30
0.0
 40
89.99999909999997
  1
t
 41
0.6700000000000001
  7
00
100
AcDbText
  0
LINE
  5
16936
330
167D3
100
AcDbEntity
  8
KISO
100
AcDbLine
 10
5540.122937215781
 20
3751.645586089699
 30
0.0
 11
5540.122937215781
 21
2983.645586089689
 31
0.0
  0
LINE
  5
16937
330
167D3
100
AcDbEntity
  8
KISO
100
AcDbLine
 10
8992.208556921905
 20
3495.645586089688
 30
0.0
 11
8992.208556921905
 21
3751.645586089699
 31
0.0
  0
LINE
  5
16938
330
167D3
100
AcDbEntity
  8
HATCH
100
AcDbLine
 10
10039.5148999406
 20
2823.645586089688
 30
0.0
 11
10131.89094260726
 21
2983.645586089688
 31
0.0
  0
LINE
  5
16939
330
167D3
100
AcDbEntity
  8
HATCH
100
AcDbLine
 10
10078.55760927393
 20
2983.645586089688
 30
0.0
 11
10105.2242759406
 21
2937.457563423025
 31
0.0
  0
LINE
  5
1693A
330
167D3
100
AcDbEntity
  8
HATCH
100
AcDbLine
 10
10066.18156660725
 20
2869.833607423018
 30
0.0
 11
10092.84823327392
 21
2823.645586089688
 31
0.0
  0
LINE
  5
1693B
330
167D3
100
AcDbEntity
  8
HATCH
100
AcDbLine
 10
9866.181566607266
 20
2869.833607423018
 30
0.0
 11
9892.848233273932
 21
2823.645586089688
 31
0.0
  0
LINE
  5
1693C
330
167D3
100
AcDbEntity
  8
HATCH
100
AcDbLine
 10
9878.557609273931
 20
2983.645586089688
 30
0.0
 11
9905.224275940598
 21
2937.457563423025
 31
0.0
  0
LINE
  5
1693D
330
167D3
100
AcDbEntity
  8
HATCH
100
AcDbLine
 10
9666.181566607265
 20
2869.833607423018
 30
0.0
 11
9692.848233273933
 21
2823.645586089688
 31
0.0
  0
LINE
  5
1693E
330
167D3
100
AcDbEntity
  8
HATCH
100
AcDbLine
 10
9639.514899940602
 20
2823.645586089688
 30
0.0
 11
9731.890942607265
 21
2983.645586089688
 31
0.0
  0
LINE
  5
1693F
330
167D3
100
AcDbEntity
  8
HATCH
100
AcDbLine
 10
9678.55760927393
 20
2983.645586089688
 30
0.0
 11
9705.224275940597
 21
2937.457563423025
 31
0.0
  0
LINE
  5
16940
330
167D3
100
AcDbEntity
  8
HATCH
100
AcDbLine
 10
9466.181566607266
 20
2869.833607423018
 30
0.0
 11
9492.848233273932
 21
2823.645586089688
 31
0.0
  0
LINE
  5
16941
330
167D3
100
AcDbEntity
  8
HATCH
100
AcDbLine
 10
9478.557609273931
 20
2983.645586089688
 30
0.0
 11
9505.224275940596
 21
2937.457563423025
 31
0.0
  0
LINE
  5
16942
330
167D3
100
AcDbEntity
  8
HATCH
100
AcDbLine
 10
9439.514899940602
 20
2823.645586089688
 30
0.0
 11
9531.890942607262
 21
2983.645586089688
 31
0.0
  0
LINE
  5
16943
330
167D3
100
AcDbEntity
  8
HATCH
100
AcDbLine
 10
9839.514899940603
 20
2823.645586089688
 30
0.0
 11
9931.890942607267
 21
2983.645586089688
 31
0.0
  0
LINE
  5
16944
330
167D3
100
AcDbEntity
  8
HATCH
100
AcDbLine
 10
10278.55760927393
 20
2983.645586089688
 30
0.0
 11
10305.2242759406
 21
2937.457563423025
 31
0.0
  0
LINE
  5
16945
330
167D3
100
AcDbEntity
  8
HATCH
100
AcDbLine
 10
10239.5148999406
 20
2823.645586089688
 30
0.0
 11
10331.89094260726
 21
2983.645586089688
 31
0.0
  0
LINE
  5
16946
330
167D3
100
AcDbEntity
  8
HATCH
100
AcDbLine
 10
10266.18156660725
 20
2869.833607423018
 30
0.0
 11
10292.84823327393
 21
2823.645586089688
 31
0.0
  0
LINE
  5
16947
330
167D3
100
AcDbEntity
  8
HATCH
100
AcDbLine
 10
10439.5148999406
 20
2823.645586089688
 30
0.0
 11
10531.89094260725
 21
2983.645586089688
 31
0.0
  0
LINE
  5
16948
330
167D3
100
AcDbEntity
  8
HATCH
100
AcDbLine
 10
10478.55760927393
 20
2983.645586089688
 30
0.0
 11
10505.2242759406
 21
2937.457563423025
 31
0.0
  0
LINE
  5
16949
330
167D3
100
AcDbEntity
  8
HATCH
100
AcDbLine
 10
10466.18156660725
 20
2869.833607423018
 30
0.0
 11
10492.84823327393
 21
2823.645586089688
 31
0.0
  0
LINE
  5
1694A
330
167D3
100
AcDbEntity
  8
U3
100
AcDbLine
 10
8474.762129423238
 20
3569.822209598836
 30
0.0
 11
8505.57748959727
 21
3539.006849424807
 31
0.0
  0
LINE
  5
1694B
330
167D3
100
AcDbEntity
  8
U3
100
AcDbLine
 10
8821.339034185019
 20
3580.399114360615
 30
0.0
 11
8912.585505914107
 21
3671.645586089699
 31
0.0
  0
LINE
  5
1694C
330
167D3
100
AcDbEntity
  8
U3
100
AcDbLine
 10
8861.673817668672
 20
3620.733897844269
 30
0.0
 11
8978.762129423238
 21
3503.6455860897
 31
0.0
  0
LINE
  5
1694D
330
167D3
100
AcDbEntity
  8
U3
100
AcDbLine
 10
8821.339034185019
 20
3559.245304837061
 30
0.0
 11
8876.938752932378
 21
3503.6455860897
 31
0.0
  0
LINE
  5
1694E
330
167D3
100
AcDbEntity
  8
U3
100
AcDbLine
 10
8912.585505914101
 20
3671.645586089699
 30
0.0
 11
8992.208556921905
 21
3592.022535081901
 31
0.0
  0
LINE
  5
1694F
330
167D3
100
AcDbEntity
  8
HATCH
100
AcDbLine
 10
9373.967017113336
 20
3751.645586089699
 30
0.0
 11
9245.967017113333
 21
3623.645586089693
 31
0.0
  0
LINE
  5
16950
330
167D3
100
AcDbEntity
  8
HATCH
100
AcDbLine
 10
9469.002168504809
 20
3751.645586089699
 30
0.0
 11
9341.002168504799
 21
3623.64558608969
 31
0.0
  0
LINE
  5
16951
330
167D3
100
AcDbEntity
  8
HATCH
100
AcDbLine
 10
9421.484592809077
 20
3751.645586089699
 30
0.0
 11
9293.484592809072
 21
3623.645586089693
 31
0.0
  0
LINE
  5
16952
330
167D3
100
AcDbEntity
  8
1PL-L1
100
AcDbLine
 10
9148.17471819528
 20
9087.341779768406
 30
0.0
 11
10403.17471819528
 21
9087.341779768406
 31
0.0
  0
LINE
  5
16953
330
167D3
100
AcDbEntity
  8
DOMAKON
100
AcDbLine
 10
6608.174718195286
 20
6952.341779768403
 30
0.0
 11
10108.17471819527
 21
6952.341779768405
 31
0.0
  0
LINE
  5
16954
330
167D3
100
AcDbEntity
  8
DOMAKON
100
AcDbLine
 10
10108.17471819527
 20
6952.341779768405
 30
0.0
 11
10108.17471819527
 21
9287.341779768405
 31
0.0
  0
LINE
  5
16955
330
167D3
100
AcDbEntity
  8
DOMAKON
100
AcDbLine
 10
10108.17471819527
 20
9287.341779768405
 30
0.0
 11
6608.174718195286
 21
9287.3417797684
 31
0.0
  0
LINE
  5
16956
330
167D3
100
AcDbEntity
  8
DOMAKON
100
AcDbLine
 10
6608.174718195286
 20
9287.3417797684
 30
0.0
 11
6608.174718195286
 21
6952.341779768403
 31
0.0
  0
LINE
  5
16957
330
167D3
100
AcDbEntity
  8
1PL-M1
100
AcDbLine
 10
9758.17471819529
 20
8602.341779768403
 30
0.0
 11
9758.17471819529
 21
9517.341779768406
 31
0.0
  0
TEXT
  5
16958
330
167D3
100
AcDbEntity
  8
NAME
100
AcDbText
 10
12303.32857318295
 20
1055.0
 30
0.0
 40
120.0
  1
Y O K R
 41
0.6666666666666666
  7
00
100
AcDbText
  0
TEXT
  5
16959
330
167D3
100
AcDbEntity
  8
NAME
100
AcDbText
 10
11227.73587134625
 20
1055.0
 30
0.0
 40
120.0
  1
ヨド自転車置場　　　  型
  7
01
100
AcDbText
  0
TEXT
  5
1695A
330
167D3
100
AcDbEntity
  8
NAME
100
AcDbText
 10
11228.07508082364
 20
875.0
 30
0.0
 40
120.0
  1
（アンカープレート方式）
  7
01
 72
     4
 11
12072.07508082364
 21
935.0
 31
0.0
100
AcDbText
  0
TEXT
  5
1695B
330
167D3
100
AcDbEntity
  8
NAME
100
AcDbText
 10
11816.04264730429
 20
541.0
 30
0.0
 40
160.0
  1
型（一般地用）
 41
0.8
  7
01
100
AcDbText
  0
TEXT
  5
1695C
330
167D3
100
AcDbEntity
  8
NAME
100
AcDbText
 10
10896.04264730428
 20
541.0
 30
0.0
 40
160.0
  1
YOKR-280
 41
0.7
  7
01
 72
     2
 11
11776.04264730429
 21
541.0
 31
0.0
100
AcDbText
  0
TEXT
  5
1695D
330
167D3
100
AcDbEntity
  8
FILENAME
100
AcDbText
 10
13933.42857142857
 20
174.0
 30
0.0
 40
100.0
  1
＜YOKR-280-A1_3_JIS_GL.DXF＞
  7
FILENAME
 72
     2
 11
16382.0
 21
174.0
 31
0.0
100
AcDbText
  0
TEXT
  5
1695E
330
167D3
100
AcDbEntity
  8
NAME
100
AcDbText
 10
12854.79999999999
 20
541.0000000000001
 30
0.0
 40
160.0
  1
<3／3>
 41
0.6
  7
01
 72
     2
 11
13354.0
 21
541.0000000000001
 31
0.0
100
AcDbText
  0
LINE
  5
1695F
330
167D3
100
AcDbEntity
  8
HATCH
100
AcDbLine
 10
6627.429280234476
 20
2823.645586089688
 30
0.0
 11
6719.805322901141
 21
2983.645586089688
 31
0.0
  0
LINE
  5
16960
330
167D3
100
AcDbEntity
  8
HATCH
100
AcDbLine
 10
6666.471989567806
 20
2983.645586089688
 30
0.0
 11
6693.138656234473
 21
2937.457563423025
 31
0.0
  0
LINE
  5
16961
330
167D3
100
AcDbEntity
  8
HATCH
100
AcDbLine
 10
6654.095946901143
 20
2869.833607423018
 30
0.0
 11
6680.762613567807
 21
2823.645586089688
 31
0.0
  0
LINE
  5
16962
330
167D3
100
AcDbEntity
  8
HATCH
100
AcDbLine
 10
10639.5148999406
 20
2823.645586089688
 30
0.0
 11
10731.89094260725
 21
2983.645586089688
 31
0.0
  0
LINE
  5
16963
330
167D3
100
AcDbEntity
  8
HATCH
100
AcDbLine
 10
10678.55760927393
 20
2983.645586089688
 30
0.0
 11
10705.2242759406
 21
2937.457563423025
 31
0.0
  0
LINE
  5
16964
330
167D3
100
AcDbEntity
  8
HATCH
100
AcDbLine
 10
10666.18156660726
 20
2869.833607423018
 30
0.0
 11
10692.84823327393
 21
2823.645586089688
 31
0.0
  0
TEXT
  5
16965
330
167D3
100
AcDbEntity
  8
HIKIDASHI
100
AcDbText
 10
13586.96828470476
 20
2595.365723386175
 30
0.0
 40
90.0
  1
2
 41
0.6666666666666666
  7
00
100
AcDbText
  0
TEXT
  5
16966
330
167D3
100
AcDbEntity
  8
HIKIDASHI
100
AcDbText
 10
13665.53971327619
 20
2610.365723386175
 30
0.0
 40
90.0
  1
ｹ
  7
01
100
AcDbText
  0
TEXT
  5
16967
330
167D3
100
AcDbEntity
  8
HIKIDASHI
100
AcDbText
 10
13746.53971327619
 20
2595.365723386175
 30
0.0
 40
90.0
  1
-
 41
0.6666666666666666
  7
00
100
AcDbText
  0
TEXT
  5
16968
330
167D3
100
AcDbEntity
  8
HIKIDASHI
100
AcDbText
 10
13854.39685613332
 20
2595.365723386175
 30
0.0
 40
90.0
  1
18
 41
0.6666666666666666
  7
00
100
AcDbText
  0
TEXT
  5
16969
330
167D3
100
AcDbEntity
  8
HIKIDASHI
100
AcDbText
 10
13990.11114184762
 20
2610.365723386175
 30
0.0
 40
90.0
  1
%%c
 41
0.6666666666666666
  7
00
100
AcDbText
  0
TEXT
  5
1696A
330
167D3
100
AcDbEntity
  8
HIKIDASHI
100
AcDbText
 10
14065.82542756189
 20
2595.365723386175
 30
0.0
 40
90.0
  1
孔
  7
01
100
AcDbText
  0
LINE
  5
1696B
330
167D3
100
AcDbEntity
  8
HIKIDASHI
100
AcDbLine
 10
13556.96828470476
 20
2550.365723386175
 30
0.0
 11
14179.8254275619
 21
2550.365723386175
 31
0.0
  0
TEXT
  5
1696C
330
167D3
100
AcDbEntity
  8
SUNPOU
100
AcDbText
 10
7112.933360790346
 20
2986.445452526465
 30
0.0
 40
90.0
  1
ベース筋
  7
01
 72
     4
 11
7316.933360790347
 21
3031.445452526465
 31
0.0
100
AcDbText
  0
TEXT
  5
1696D
330
167D3
100
AcDbEntity
  8
SUNPOU
100
AcDbText
 10
6977.817646504632
 20
2851.445452526465
 30
0.0
 40
90.0
  1
5-D13×5-D13
 41
0.6700000000000001
  7
01
 72
     4
 11
7321.240503647491
 21
2896.445452526465
 31
0.0
100
AcDbText
  0
LINE
  5
1696E
330
167D3
100
AcDbEntity
  8
HIKIDASHI
100
AcDbLine
 10
7002.952310615293
 20
4215.446158226288
 30
0.0
 11
6634.185933787673
 21
4215.446158226288
 31
0.0
  0
TEXT
  5
1696F
330
167D3
100
AcDbEntity
  8
HIKIDASHI
100
AcDbText
 10
6667.253541379583
 20
4260.446158226288
 30
0.0
 40
90.0
  1
土　間
  7
01
 72
     2
 11
6961.253541379583
 21
4305.446158226287
 31
0.0
100
AcDbText
 73
     2
  0
TEXT
  5
16970
330
167D3
100
AcDbEntity
  8
HIKIDASHI
100
AcDbText
 10
7833.177684399766
 20
6804.020934524941
 30
0.0
 40
90.0
  1
（土間コン前面位置）
  7
01
100
AcDbText
  0
TEXT
  5
16971
330
167D3
100
AcDbEntity
  8
HIKIDASHI
100
AcDbText
 10
7995.177684399767
 20
7010.452901758879
 30
0.0
 40
90.0
  1
（鼻隠し外面）
  7
01
100
AcDbText
  0
LINE
  5
16972
330
167D3
100
AcDbEntity
  8
WAKUSEN-01
100
AcDbLine
 10
434.0000000000008
 20
413.9999999999997
 30
0.0
 11
16382.0
 21
413.9999999999997
 31
0.0
  0
LINE
  5
16973
330
167D3
100
AcDbEntity
  8
WAKUSEN-01
100
AcDbLine
 10
434.0000000000008
 20
11242.0
 30
0.0
 11
16382.0
 21
11242.0
 31
0.0
  0
LINE
  5
16974
330
167D3
100
AcDbEntity
  8
WAKUSEN-01
100
AcDbLine
 10
434.0000000000008
 20
413.9999999999997
 30
0.0
 11
434.0000000000008
 21
11242.0
 31
0.0
  0
LINE
  5
16975
330
167D3
100
AcDbEntity
  8
WAKUSEN-01
100
AcDbLine
 10
16382.0
 20
413.9999999999997
 30
0.0
 11
16382.0
 21
11242.0
 31
0.0
  0
LINE
  5
16976
330
167D3
100
AcDbEntity
  8
WAKUSEN-01
100
AcDbLine
 10
10280.0
 20
1242.0
 30
0.0
 11
16382.0
 21
1242.0
 31
0.0
  0
LINE
  5
16977
330
167D3
100
AcDbEntity
  8
WAKUSEN-02
100
AcDbLine
 10
10280.0
 20
827.9999999999997
 30
0.0
 11
13434.0
 21
827.9999999999997
 31
0.0
  0
TEXT
  5
16978
330
167D3
100
AcDbEntity
  8
WAKUMOJI-01
100
AcDbText
 10
10335.13012998137
 20
1062.951504669661
 30
0.0
 40
120.0
  1
名　称
  7
WAKUMOJI
100
AcDbText
  0
TEXT
  5
16979
330
167D3
100
AcDbEntity
  8
WAKUMOJI-01
100
AcDbText
 10
10328.25274254596
 20
659.5644874899107
 30
0.0
 40
120.0
  1
図面名
  7
WAKUMOJI
100
AcDbText
  0
LINE
  5
1697A
330
167D3
100
AcDbEntity
  8
WAKUSEN-01
100
AcDbLine
 10
10280.0
 20
413.9999999999985
 30
0.0
 11
10280.0
 21
1242.0
 31
0.0
  0
LINE
  5
1697B
330
167D3
100
AcDbEntity
  8
WAKUSEN-02
100
AcDbLine
 10
13434.0
 20
413.9999999999963
 30
0.0
 11
13434.0
 21
1242.0
 31
0.0
  0
LINE
  5
1697C
330
167D3
100
AcDbEntity
  8
YODOROGO
100
AcDbLine
 10
15674.80217064596
 20
889.8747482146442
 30
0.0
 11
15674.80217064596
 21
917.8747482146436
 31
0.0
  0
LINE
  5
1697D
330
167D3
100
AcDbEntity
  8
YODOROGO
100
AcDbLine
 10
15674.80217064596
 20
917.8747482146436
 30
0.0
 11
15618.80217064596
 21
917.8747482146436
 31
0.0
  0
LINE
  5
1697E
330
167D3
100
AcDbEntity
  8
YODOROGO
100
AcDbLine
 10
15618.80217064596
 20
917.8747482146436
 30
0.0
 11
15618.80217064596
 21
889.8747482146442
 31
0.0
  0
LINE
  5
1697F
330
167D3
100
AcDbEntity
  8
YODOROGO
100
AcDbLine
 10
15618.80217064596
 20
889.8747482146442
 30
0.0
 11
15674.80217064596
 21
889.8747482146442
 31
0.0
  0
LINE
  5
16980
330
167D3
100
AcDbEntity
  8
YODOROGO
100
AcDbLine
 10
15794.80217064596
 20
905.8747482146443
 30
0.0
 11
15794.80217064596
 21
713.8747482146436
 31
0.0
  0
LINE
  5
16981
330
167D3
100
AcDbEntity
  8
YODOROGO
100
AcDbLine
 10
15794.80217064596
 20
713.8747482146436
 30
0.0
 11
15826.80217064596
 21
713.8747482146436
 31
0.0
  0
LINE
  5
16982
330
167D3
100
AcDbEntity
  8
YODOROGO
100
AcDbLine
 10
15826.80217064596
 20
713.8747482146436
 30
0.0
 11
15826.80217064594
 21
905.8747482146443
 31
0.0
  0
LINE
  5
16983
330
167D3
100
AcDbEntity
  8
YODOROGO
100
AcDbLine
 10
15826.80217064594
 20
905.8747482146443
 30
0.0
 11
15850.80217064596
 21
905.8747482146443
 31
0.0
  0
LINE
  5
16984
330
167D3
100
AcDbEntity
  8
YODOROGO
100
AcDbLine
 10
15850.80217064596
 20
905.8747482146443
 30
0.0
 11
15850.80217064596
 21
937.8747482146435
 31
0.0
  0
LINE
  5
16985
330
167D3
100
AcDbEntity
  8
YODOROGO
100
AcDbLine
 10
15850.80217064596
 20
937.8747482146435
 30
0.0
 11
15766.80217064594
 21
937.8747482146435
 31
0.0
  0
LINE
  5
16986
330
167D3
100
AcDbEntity
  8
YODOROGO
100
AcDbLine
 10
15766.80217064594
 20
937.8747482146435
 30
0.0
 11
15766.80217064594
 21
957.8747482146436
 31
0.0
  0
LINE
  5
16987
330
167D3
100
AcDbEntity
  8
YODOROGO
100
AcDbLine
 10
15766.80217064594
 20
957.8747482146436
 30
0.0
 11
15830.80217064596
 21
957.8747482146436
 31
0.0
  0
ARC
  5
16988
330
167D3
100
AcDbEntity
  8
YODOROGO
100
AcDbCircle
 10
15830.80217064596
 20
977.8747482146435
 30
0.0
 40
20.0
100
AcDbArc
 50
270.0
 51
0.0
  0
LINE
  5
16989
330
167D3
100
AcDbEntity
  8
YODOROGO
100
AcDbLine
 10
15850.80217064596
 20
977.8747482146435
 30
0.0
 11
15850.80217064596
 21
1013.874748214644
 31
0.0
  0
LINE
  5
1698A
330
167D3
100
AcDbEntity
  8
YODOROGO
100
AcDbLine
 10
15850.80217064596
 20
1013.874748214644
 30
0.0
 11
15818.80217064596
 21
1013.874748214644
 31
0.0
  0
LINE
  5
1698B
330
167D3
100
AcDbEntity
  8
YODOROGO
100
AcDbLine
 10
15818.80217064596
 20
1013.874748214644
 30
0.0
 11
15818.80217064596
 21
1001.874748214643
 31
0.0
  0
ARC
  5
1698C
330
167D3
100
AcDbEntity
  8
YODOROGO
100
AcDbCircle
 10
15810.80217064596
 20
1001.874748214642
 30
0.0
 40
7.999999999998181
100
AcDbArc
 50
270.000000000013
 51
0.0000000000113991
  0
LINE
  5
1698D
330
167D3
100
AcDbEntity
  8
YODOROGO
100
AcDbLine
 10
15810.80217064596
 20
993.8747482146439
 30
0.0
 11
15730.80217064594
 21
993.8747482146439
 31
0.0
  0
LINE
  5
1698E
330
167D3
100
AcDbEntity
  8
YODOROGO
100
AcDbLine
 10
15730.80217064594
 20
993.8747482146439
 30
0.0
 11
15730.80217064594
 21
817.8747482146436
 31
0.0
  0
ARC
  5
1698F
330
167D3
100
AcDbEntity
  8
YODOROGO
100
AcDbCircle
 10
15675.75903786228
 20
818.9194785088274
 30
0.0
 40
55.05304649180789
100
AcDbArc
 50
269.0041020930613
 51
358.912644554925
  0
LINE
  5
16990
330
167D3
100
AcDbEntity
  8
YODOROGO
100
AcDbLine
 10
15674.80217064596
 20
763.8747482146435
 30
0.0
 11
15674.80217064596
 21
713.8747482146436
 31
0.0
  0
ARC
  5
16991
330
167D3
100
AcDbEntity
  8
YODOROGO
100
AcDbCircle
 10
15676.95743255803
 20
803.8951756442784
 30
0.0
 40
90.04622428799427
100
AcDbArc
 50
268.6284910216973
 51
356.1663845733032
  0
LINE
  5
16992
330
167D3
100
AcDbEntity
  8
YODOROGO
100
AcDbLine
 10
15766.80217064596
 20
797.8747482146435
 30
0.0
 11
15766.80217064594
 21
905.8747482146443
 31
0.0
  0
LINE
  5
16993
330
167D3
100
AcDbEntity
  8
YODOROGO
100
AcDbLine
 10
15766.80217064594
 20
905.8747482146443
 30
0.0
 11
15794.80217064596
 21
905.8747482146443
 31
0.0
  0
LINE
  5
16994
330
167D3
100
AcDbEntity
  8
YODOROGO
100
AcDbLine
 10
15449.80217064596
 20
909.8747482146439
 30
0.0
 11
15449.80217064596
 21
877.8747482146435
 31
0.0
  0
LINE
  5
16995
330
167D3
100
AcDbEntity
  8
YODOROGO
100
AcDbLine
 10
15449.80217064596
 20
877.8747482146435
 30
0.0
 11
15361.80217064596
 21
877.8747482146435
 31
0.0
  0
LINE
  5
16996
330
167D3
100
AcDbEntity
  8
YODOROGO
100
AcDbLine
 10
15361.80217064596
 20
877.8747482146435
 30
0.0
 11
15361.80217064596
 21
909.8747482146439
 31
0.0
  0
LINE
  5
16997
330
167D3
100
AcDbEntity
  8
YODOROGO
100
AcDbLine
 10
15361.80217064596
 20
909.8747482146439
 30
0.0
 11
15374.80217064596
 21
909.8747482146439
 31
0.0
  0
LINE
  5
16998
330
167D3
100
AcDbEntity
  8
YODOROGO
100
AcDbLine
 10
15374.80217064596
 20
909.8747482146439
 30
0.0
 11
15361.80217064596
 21
969.8747482146441
 31
0.0
  0
LINE
  5
16999
330
167D3
100
AcDbEntity
  8
YODOROGO
100
AcDbLine
 10
15361.80217064596
 20
969.8747482146441
 30
0.0
 11
15385.80217064596
 21
969.8747482146441
 31
0.0
  0
LINE
  5
1699A
330
167D3
100
AcDbEntity
  8
YODOROGO
100
AcDbLine
 10
15385.80217064596
 20
969.8747482146441
 30
0.0
 11
15398.80217064596
 21
909.8747482146439
 31
0.0
  0
LINE
  5
1699B
330
167D3
100
AcDbEntity
  8
YODOROGO
100
AcDbLine
 10
15398.80217064596
 20
909.8747482146439
 30
0.0
 11
15412.80217064596
 21
909.8747482146439
 31
0.0
  0
LINE
  5
1699C
330
167D3
100
AcDbEntity
  8
YODOROGO
100
AcDbLine
 10
15412.80217064596
 20
909.8747482146439
 30
0.0
 11
15425.80217064596
 21
969.8747482146441
 31
0.0
  0
LINE
  5
1699D
330
167D3
100
AcDbEntity
  8
YODOROGO
100
AcDbLine
 10
15425.80217064596
 20
969.8747482146441
 30
0.0
 11
15449.80217064596
 21
969.8747482146441
 31
0.0
  0
LINE
  5
1699E
330
167D3
100
AcDbEntity
  8
YODOROGO
100
AcDbLine
 10
15449.80217064596
 20
969.8747482146441
 30
0.0
 11
15436.80217064595
 21
909.8747482146439
 31
0.0
  0
LINE
  5
1699F
330
167D3
100
AcDbEntity
  8
YODOROGO
100
AcDbLine
 10
15436.80217064595
 20
909.8747482146439
 30
0.0
 11
15449.80217064596
 21
909.8747482146439
 31
0.0
  0
LINE
  5
169A0
330
167D3
100
AcDbEntity
  8
YODOROGO
100
AcDbLine
 10
15010.80217064596
 20
1013.874748214644
 30
0.0
 11
15010.80217064596
 21
913.8747482146435
 31
0.0
  0
LINE
  5
169A1
330
167D3
100
AcDbEntity
  8
YODOROGO
100
AcDbLine
 10
15010.80217064596
 20
913.8747482146435
 30
0.0
 11
15040.80217064596
 21
913.8747482146435
 31
0.0
  0
LINE
  5
169A2
330
167D3
100
AcDbEntity
  8
YODOROGO
100
AcDbLine
 10
15040.80217064596
 20
913.8747482146435
 30
0.0
 11
15040.80217064596
 21
1013.874748214644
 31
0.0
  0
LINE
  5
169A3
330
167D3
100
AcDbEntity
  8
YODOROGO
100
AcDbLine
 10
15040.80217064596
 20
1013.874748214644
 30
0.0
 11
15010.80217064596
 21
1013.874748214644
 31
0.0
  0
LINE
  5
169A4
330
167D3
100
AcDbEntity
  8
YODOROGO
100
AcDbLine
 10
15108.80217064596
 20
1013.874748214644
 30
0.0
 11
15108.80217064596
 21
893.8747482146439
 31
0.0
  0
ARC
  5
169A5
330
167D3
100
AcDbEntity
  8
YODOROGO
100
AcDbCircle
 10
15068.80217064596
 20
893.8747482146439
 30
0.0
 40
40.0
100
AcDbArc
 50
270.0
 51
0.0
  0
LINE
  5
169A6
330
167D3
100
AcDbEntity
  8
YODOROGO
100
AcDbLine
 10
15068.80217064596
 20
853.874748214644
 30
0.0
 11
15010.80217064596
 21
853.874748214644
 31
0.0
  0
LINE
  5
169A7
330
167D3
100
AcDbEntity
  8
YODOROGO
100
AcDbLine
 10
15010.80217064596
 20
853.874748214644
 30
0.0
 11
15010.80217064596
 21
885.8747482146441
 31
0.0
  0
LINE
  5
169A8
330
167D3
100
AcDbEntity
  8
YODOROGO
100
AcDbLine
 10
15010.80217064596
 20
885.8747482146441
 30
0.0
 11
15060.80217064596
 21
885.8747482146441
 31
0.0
  0
ARC
  5
169A9
330
167D3
100
AcDbEntity
  8
YODOROGO
100
AcDbCircle
 10
15060.80217064596
 20
905.8747482146443
 30
0.0
 40
20.0
100
AcDbArc
 50
270.0
 51
0.0
  0
LINE
  5
169AA
330
167D3
100
AcDbEntity
  8
YODOROGO
100
AcDbLine
 10
15080.80217064596
 20
905.8747482146443
 30
0.0
 11
15080.80217064596
 21
1013.874748214644
 31
0.0
  0
LINE
  5
169AB
330
167D3
100
AcDbEntity
  8
YODOROGO
100
AcDbLine
 10
15080.80217064596
 20
1013.874748214644
 30
0.0
 11
15108.80217064596
 21
1013.874748214644
 31
0.0
  0
LINE
  5
169AC
330
167D3
100
AcDbEntity
  8
YODOROGO
100
AcDbLine
 10
15248.80217064596
 20
969.8747482146441
 30
0.0
 11
15190.80217064596
 21
909.8747482146439
 31
0.0
  0
LINE
  5
169AD
330
167D3
100
AcDbEntity
  8
YODOROGO
100
AcDbLine
 10
15190.80217064596
 20
909.8747482146439
 30
0.0
 11
15190.80217064596
 21
953.874748214644
 31
0.0
  0
LINE
  5
169AE
330
167D3
100
AcDbEntity
  8
YODOROGO
100
AcDbLine
 10
15190.80217064596
 20
953.874748214644
 30
0.0
 11
15248.80217064596
 21
1013.874748214644
 31
0.0
  0
LINE
  5
169AF
330
167D3
100
AcDbEntity
  8
YODOROGO
100
AcDbLine
 10
15248.80217064596
 20
1013.874748214644
 30
0.0
 11
15308.80217064596
 21
973.8747482146434
 31
0.0
  0
LINE
  5
169B0
330
167D3
100
AcDbEntity
  8
YODOROGO
100
AcDbLine
 10
15308.80217064596
 20
973.8747482146434
 30
0.0
 11
15308.80217064596
 21
929.874748214644
 31
0.0
  0
LINE
  5
169B1
330
167D3
100
AcDbEntity
  8
YODOROGO
100
AcDbLine
 10
15308.80217064596
 20
929.874748214644
 30
0.0
 11
15248.80217064596
 21
969.8747482146441
 31
0.0
  0
LINE
  5
169B2
330
167D3
100
AcDbEntity
  8
YODOROGO
100
AcDbLine
 10
15190.80217064596
 20
786.8747482146444
 30
0.0
 11
15190.80217064596
 21
800.8747482146432
 31
0.0
  0
LINE
  5
169B3
330
167D3
100
AcDbEntity
  8
YODOROGO
100
AcDbLine
 10
15190.80217064596
 20
800.8747482146432
 30
0.0
 11
15216.80217064596
 21
800.8747482146432
 31
0.0
  0
LINE
  5
169B4
330
167D3
100
AcDbEntity
  8
YODOROGO
100
AcDbLine
 10
15216.80217064596
 20
800.8747482146432
 30
0.0
 11
15216.80217064596
 21
786.8747482146444
 31
0.0
  0
LINE
  5
169B5
330
167D3
100
AcDbEntity
  8
YODOROGO
100
AcDbLine
 10
15216.80217064596
 20
786.8747482146444
 30
0.0
 11
15190.80217064596
 21
786.8747482146444
 31
0.0
  0
LINE
  5
169B6
330
167D3
100
AcDbEntity
  8
YODOROGO
100
AcDbLine
 10
15192.80217064595
 20
788.8747482146436
 30
0.0
 11
15192.80217064595
 21
798.874748214644
 31
0.0
  0
LINE
  5
169B7
330
167D3
100
AcDbEntity
  8
YODOROGO
100
AcDbLine
 10
15192.80217064595
 20
798.874748214644
 30
0.0
 11
15214.80217064596
 21
798.874748214644
 31
0.0
  0
LINE
  5
169B8
330
167D3
100
AcDbEntity
  8
YODOROGO
100
AcDbLine
 10
15214.80217064596
 20
798.874748214644
 30
0.0
 11
15214.80217064596
 21
788.8747482146436
 31
0.0
  0
LINE
  5
169B9
330
167D3
100
AcDbEntity
  8
YODOROGO
100
AcDbLine
 10
15214.80217064596
 20
788.8747482146436
 30
0.0
 11
15192.80217064595
 21
788.8747482146436
 31
0.0
  0
LINE
  5
169BA
330
167D3
100
AcDbEntity
  8
YODOROGO
100
AcDbLine
 10
15194.80217064596
 20
790.8747482146432
 30
0.0
 11
15194.80217064596
 21
796.8747482146445
 31
0.0
  0
LINE
  5
169BB
330
167D3
100
AcDbEntity
  8
YODOROGO
100
AcDbLine
 10
15194.80217064596
 20
796.8747482146445
 30
0.0
 11
15212.80217064596
 21
796.8747482146445
 31
0.0
  0
LINE
  5
169BC
330
167D3
100
AcDbEntity
  8
YODOROGO
100
AcDbLine
 10
15212.80217064596
 20
796.8747482146445
 30
0.0
 11
15212.80217064596
 21
790.8747482146432
 31
0.0
  0
LINE
  5
169BD
330
167D3
100
AcDbEntity
  8
YODOROGO
100
AcDbLine
 10
15212.80217064596
 20
790.8747482146432
 30
0.0
 11
15194.80217064596
 21
790.8747482146432
 31
0.0
  0
LINE
  5
169BE
330
167D3
100
AcDbEntity
  8
YODOROGO
100
AcDbLine
 10
15196.80217064596
 20
792.8747482146435
 30
0.0
 11
15196.80217064596
 21
794.8747482146441
 31
0.0
  0
LINE
  5
169BF
330
167D3
100
AcDbEntity
  8
YODOROGO
100
AcDbLine
 10
15196.80217064596
 20
794.8747482146441
 30
0.0
 11
15210.80217064596
 21
794.8747482146441
 31
0.0
  0
LINE
  5
169C0
330
167D3
100
AcDbEntity
  8
YODOROGO
100
AcDbLine
 10
15210.80217064596
 20
794.8747482146441
 30
0.0
 11
15210.80217064596
 21
792.8747482146435
 31
0.0
  0
LINE
  5
169C1
330
167D3
100
AcDbEntity
  8
YODOROGO
100
AcDbLine
 10
15210.80217064596
 20
792.8747482146435
 30
0.0
 11
15196.80217064596
 21
792.8747482146435
 31
0.0
  0
LINE
  5
169C2
330
167D3
100
AcDbEntity
  8
YODOROGO
100
AcDbLine
 10
15415.80217064596
 20
877.8747482146435
 30
0.0
 11
15415.80217064596
 21
781.8747482146434
 31
0.0
  0
LINE
  5
169C3
330
167D3
100
AcDbEntity
  8
YODOROGO
100
AcDbLine
 10
15415.80217064596
 20
781.8747482146434
 30
0.0
 11
15429.80217064596
 21
781.8747482146434
 31
0.0
  0
LINE
  5
169C4
330
167D3
100
AcDbEntity
  8
YODOROGO
100
AcDbLine
 10
15429.80217064596
 20
781.8747482146434
 30
0.0
 11
15429.80217064596
 21
845.8747482146444
 31
0.0
  0
LINE
  5
169C5
330
167D3
100
AcDbEntity
  8
YODOROGO
100
AcDbLine
 10
15429.80217064596
 20
845.8747482146444
 30
0.0
 11
15449.80217064596
 21
845.8747482146444
 31
0.0
  0
LINE
  5
169C6
330
167D3
100
AcDbEntity
  8
YODOROGO
100
AcDbLine
 10
15449.80217064596
 20
845.8747482146444
 30
0.0
 11
15449.80217064596
 21
745.8747482146443
 31
0.0
  0
LINE
  5
169C7
330
167D3
100
AcDbEntity
  8
YODOROGO
100
AcDbLine
 10
15449.80217064596
 20
745.8747482146443
 30
0.0
 11
15361.80217064596
 21
745.8747482146443
 31
0.0
  0
LINE
  5
169C8
330
167D3
100
AcDbEntity
  8
YODOROGO
100
AcDbLine
 10
15361.80217064596
 20
745.8747482146443
 30
0.0
 11
15361.80217064596
 21
845.8747482146444
 31
0.0
  0
LINE
  5
169C9
330
167D3
100
AcDbEntity
  8
YODOROGO
100
AcDbLine
 10
15361.80217064596
 20
845.8747482146444
 30
0.0
 11
15381.80217064596
 21
845.8747482146444
 31
0.0
  0
LINE
  5
169CA
330
167D3
100
AcDbEntity
  8
YODOROGO
100
AcDbLine
 10
15381.80217064596
 20
845.8747482146444
 30
0.0
 11
15381.80217064596
 21
781.8747482146434
 31
0.0
  0
LINE
  5
169CB
330
167D3
100
AcDbEntity
  8
YODOROGO
100
AcDbLine
 10
15381.80217064596
 20
781.8747482146434
 30
0.0
 11
15395.80217064596
 21
781.8747482146434
 31
0.0
  0
LINE
  5
169CC
330
167D3
100
AcDbEntity
  8
YODOROGO
100
AcDbLine
 10
15395.80217064596
 20
781.8747482146434
 30
0.0
 11
15395.80217064596
 21
877.8747482146435
 31
0.0
  0
LINE
  5
169CD
330
167D3
100
AcDbEntity
  8
YODOROGO
100
AcDbLine
 10
15395.80217064596
 20
877.8747482146435
 30
0.0
 11
15415.80217064596
 21
877.8747482146435
 31
0.0
  0
LINE
  5
169CE
330
167D3
100
AcDbEntity
  8
YODOROGO
100
AcDbLine
 10
15462.80217064596
 20
773.874748214644
 30
0.0
 11
15462.80217064596
 21
981.8747482146434
 31
0.0
  0
LINE
  5
169CF
330
167D3
100
AcDbEntity
  8
YODOROGO
100
AcDbLine
 10
15462.80217064596
 20
981.8747482146434
 30
0.0
 11
15348.80217064596
 21
981.8747482146434
 31
0.0
  0
LINE
  5
169D0
330
167D3
100
AcDbEntity
  8
YODOROGO
100
AcDbLine
 10
15348.80217064596
 20
981.8747482146434
 30
0.0
 11
15348.80217064596
 21
713.8747482146436
 31
0.0
  0
LINE
  5
169D1
330
167D3
100
AcDbEntity
  8
YODOROGO
100
AcDbLine
 10
15348.80217064596
 20
713.8747482146436
 30
0.0
 11
15322.80217064596
 21
713.8747482146436
 31
0.0
  0
LINE
  5
169D2
330
167D3
100
AcDbEntity
  8
YODOROGO
100
AcDbLine
 10
15322.80217064596
 20
713.8747482146436
 30
0.0
 11
15322.80217064596
 21
1013.874748214644
 31
0.0
  0
LINE
  5
169D3
330
167D3
100
AcDbEntity
  8
YODOROGO
100
AcDbLine
 10
15322.80217064596
 20
1013.874748214644
 30
0.0
 11
15486.80217064596
 21
1013.874748214644
 31
0.0
  0
LINE
  5
169D4
330
167D3
100
AcDbEntity
  8
YODOROGO
100
AcDbLine
 10
15486.80217064596
 20
1013.874748214644
 30
0.0
 11
15486.80217064596
 21
733.8747482146435
 31
0.0
  0
ARC
  5
169D5
330
167D3
100
AcDbEntity
  8
YODOROGO
100
AcDbCircle
 10
15466.80217064596
 20
733.8747482146435
 30
0.0
 40
20.0
100
AcDbArc
 50
270.0
 51
0.0
  0
LINE
  5
169D6
330
167D3
100
AcDbEntity
  8
YODOROGO
100
AcDbLine
 10
15466.80217064596
 20
713.8747482146436
 30
0.0
 11
15449.80217064596
 21
713.8747482146436
 31
0.0
  0
LINE
  5
169D7
330
167D3
100
AcDbEntity
  8
YODOROGO
100
AcDbLine
 10
15449.80217064596
 20
713.8747482146436
 30
0.0
 11
15449.80217064596
 21
773.874748214644
 31
0.0
  0
LINE
  5
169D8
330
167D3
100
AcDbEntity
  8
YODOROGO
100
AcDbLine
 10
15449.80217064596
 20
773.874748214644
 30
0.0
 11
15462.80217064596
 21
773.874748214644
 31
0.0
  0
LINE
  5
169D9
330
167D3
100
AcDbEntity
  8
YODOROGO
100
AcDbLine
 10
15232.80217064596
 20
867.8747482146436
 30
0.0
 11
15190.80217064596
 21
867.8747482146436
 31
0.0
  0
LINE
  5
169DA
330
167D3
100
AcDbEntity
  8
YODOROGO
100
AcDbLine
 10
15190.80217064596
 20
867.8747482146436
 30
0.0
 11
15190.80217064596
 21
897.8747482146435
 31
0.0
  0
LINE
  5
169DB
330
167D3
100
AcDbEntity
  8
YODOROGO
100
AcDbLine
 10
15190.80217064596
 20
897.8747482146435
 30
0.0
 11
15308.80217064596
 21
897.8747482146435
 31
0.0
  0
LINE
  5
169DC
330
167D3
100
AcDbEntity
  8
YODOROGO
100
AcDbLine
 10
15308.80217064596
 20
897.8747482146435
 30
0.0
 11
15308.80217064596
 21
867.8747482146436
 31
0.0
  0
LINE
  5
169DD
330
167D3
100
AcDbEntity
  8
YODOROGO
100
AcDbLine
 10
15308.80217064596
 20
867.8747482146436
 30
0.0
 11
15264.80217064596
 21
867.8747482146436
 31
0.0
  0
LINE
  5
169DE
330
167D3
100
AcDbEntity
  8
YODOROGO
100
AcDbLine
 10
15264.80217064596
 20
867.8747482146436
 30
0.0
 11
15264.80217064596
 21
839.8747482146442
 31
0.0
  0
LINE
  5
169DF
330
167D3
100
AcDbEntity
  8
YODOROGO
100
AcDbLine
 10
15264.80217064596
 20
839.8747482146442
 30
0.0
 11
15308.80217064596
 21
839.8747482146442
 31
0.0
  0
LINE
  5
169E0
330
167D3
100
AcDbEntity
  8
YODOROGO
100
AcDbLine
 10
15308.80217064596
 20
839.8747482146442
 30
0.0
 11
15308.80217064596
 21
813.8747482146435
 31
0.0
  0
LINE
  5
169E1
330
167D3
100
AcDbEntity
  8
YODOROGO
100
AcDbLine
 10
15308.80217064596
 20
813.8747482146435
 30
0.0
 11
15264.80217064596
 21
813.8747482146435
 31
0.0
  0
LINE
  5
169E2
330
167D3
100
AcDbEntity
  8
YODOROGO
100
AcDbLine
 10
15264.80217064596
 20
813.8747482146435
 30
0.0
 11
15264.80217064596
 21
773.874748214644
 31
0.0
  0
LINE
  5
169E3
330
167D3
100
AcDbEntity
  8
YODOROGO
100
AcDbLine
 10
15264.80217064596
 20
773.874748214644
 30
0.0
 11
15272.80217064594
 21
773.874748214644
 31
0.0
  0
ARC
  5
169E4
330
167D3
100
AcDbEntity
  8
YODOROGO
100
AcDbCircle
 10
15272.80217064596
 20
785.8747482146461
 30
0.0
 40
12.00000000000227
100
AcDbArc
 50
269.9999999999914
 51
359.9999999999859
  0
LINE
  5
169E5
330
167D3
100
AcDbEntity
  8
YODOROGO
100
AcDbLine
 10
15284.80217064596
 20
785.8747482146432
 30
0.0
 11
15284.80217064596
 21
799.8747482146441
 31
0.0
  0
LINE
  5
169E6
330
167D3
100
AcDbEntity
  8
YODOROGO
100
AcDbLine
 10
15284.80217064596
 20
799.8747482146441
 30
0.0
 11
15308.80217064596
 21
799.8747482146441
 31
0.0
  0
LINE
  5
169E7
330
167D3
100
AcDbEntity
  8
YODOROGO
100
AcDbLine
 10
15308.80217064596
 20
799.8747482146441
 30
0.0
 11
15308.80217064596
 21
753.8747482146439
 31
0.0
  0
ARC
  5
169E8
330
167D3
100
AcDbEntity
  8
YODOROGO
100
AcDbCircle
 10
15268.80217064596
 20
753.8747482146439
 30
0.0
 40
40.0
100
AcDbArc
 50
270.0
 51
0.0
  0
LINE
  5
169E9
330
167D3
100
AcDbEntity
  8
YODOROGO
100
AcDbLine
 10
15268.80217064596
 20
713.8747482146436
 30
0.0
 11
15190.80217064596
 21
713.8747482146436
 31
0.0
  0
LINE
  5
169EA
330
167D3
100
AcDbEntity
  8
YODOROGO
100
AcDbLine
 10
15190.80217064596
 20
713.8747482146436
 30
0.0
 11
15190.80217064596
 21
773.874748214644
 31
0.0
  0
LINE
  5
169EB
330
167D3
100
AcDbEntity
  8
YODOROGO
100
AcDbLine
 10
15190.80217064596
 20
773.874748214644
 30
0.0
 11
15232.80217064596
 21
773.874748214644
 31
0.0
  0
LINE
  5
169EC
330
167D3
100
AcDbEntity
  8
YODOROGO
100
AcDbLine
 10
15232.80217064596
 20
773.874748214644
 30
0.0
 11
15232.80217064596
 21
813.8747482146435
 31
0.0
  0
LINE
  5
169ED
330
167D3
100
AcDbEntity
  8
YODOROGO
100
AcDbLine
 10
15232.80217064596
 20
813.8747482146435
 30
0.0
 11
15190.80217064596
 21
813.8747482146435
 31
0.0
  0
LINE
  5
169EE
330
167D3
100
AcDbEntity
  8
YODOROGO
100
AcDbLine
 10
15190.80217064596
 20
813.8747482146435
 30
0.0
 11
15190.80217064596
 21
839.8747482146442
 31
0.0
  0
LINE
  5
169EF
330
167D3
100
AcDbEntity
  8
YODOROGO
100
AcDbLine
 10
15190.80217064596
 20
839.8747482146442
 30
0.0
 11
15232.80217064596
 21
839.8747482146442
 31
0.0
  0
LINE
  5
169F0
330
167D3
100
AcDbEntity
  8
YODOROGO
100
AcDbLine
 10
15232.80217064596
 20
839.8747482146442
 30
0.0
 11
15232.80217064596
 21
867.8747482146436
 31
0.0
  0
LINE
  5
169F1
330
167D3
100
AcDbEntity
  8
YODOROGO
100
AcDbLine
 10
15618.80217064596
 20
797.8747482146435
 30
0.0
 11
15618.80217064596
 21
853.874748214644
 31
0.0
  0
LINE
  5
169F2
330
167D3
100
AcDbEntity
  8
YODOROGO
100
AcDbLine
 10
15618.80217064596
 20
853.874748214644
 30
0.0
 11
15706.80217064596
 21
853.874748214644
 31
0.0
  0
LINE
  5
169F3
330
167D3
100
AcDbEntity
  8
YODOROGO
100
AcDbLine
 10
15706.80217064596
 20
853.874748214644
 30
0.0
 11
15706.80217064596
 21
953.874748214644
 31
0.0
  0
LINE
  5
169F4
330
167D3
100
AcDbEntity
  8
YODOROGO
100
AcDbLine
 10
15706.80217064596
 20
953.874748214644
 30
0.0
 11
15582.80217064596
 21
953.874748214644
 31
0.0
  0
LINE
  5
169F5
330
167D3
100
AcDbEntity
  8
YODOROGO
100
AcDbLine
 10
15582.80217064596
 20
953.874748214644
 30
0.0
 11
15582.80217064596
 21
817.8747482146436
 31
0.0
  0
ARC
  5
169F6
330
167D3
100
AcDbEntity
  8
YODOROGO
100
AcDbCircle
 10
15519.86069778339
 20
818.7656950548657
 30
0.0
 40
62.94777829583679
100
AcDbArc
 50
295.3405244216012
 51
359.1890230341872
  0
LINE
  5
169F7
330
167D3
100
AcDbEntity
  8
YODOROGO
100
AcDbLine
 10
15546.80217064596
 20
761.8747482146434
 30
0.0
 11
15546.80217064596
 21
713.8747482146436
 31
0.0
  0
ARC
  5
169F8
330
167D3
100
AcDbEntity
  8
YODOROGO
100
AcDbCircle
 10
15529.75894667896
 20
801.3403687577881
 30
0.0
 40
89.11064055536114
100
AcDbArc
 50
281.0262749542548
 51
357.771135755738
  0
LINE
  5
169F9
330
167D3
100
AcDbEntity
  8
YODOROGO
100
AcDbLine
 10
15582.80217064596
 20
1013.874748214644
 30
0.0
 11
15582.80217064596
 21
981.8747482146434
 31
0.0
  0
LINE
  5
169FA
330
167D3
100
AcDbEntity
  8
YODOROGO
100
AcDbLine
 10
15582.80217064596
 20
981.8747482146434
 30
0.0
 11
15706.80217064596
 21
981.8747482146434
 31
0.0
  0
LINE
  5
169FB
330
167D3
100
AcDbEntity
  8
YODOROGO
100
AcDbLine
 10
15706.80217064596
 20
981.8747482146434
 30
0.0
 11
15706.80217064596
 21
1013.874748214644
 31
0.0
  0
LINE
  5
169FC
330
167D3
100
AcDbEntity
  8
YODOROGO
100
AcDbLine
 10
15706.80217064596
 20
1013.874748214644
 30
0.0
 11
15582.80217064596
 21
1013.874748214644
 31
0.0
  0
ARC
  5
169FD
330
167D3
100
AcDbEntity
  8
YODOROGO
100
AcDbCircle
 10
14454.5930853599
 20
796.3053643052199
 30
0.0
 40
82.46021178042751
100
AcDbArc
 50
271.5351210653781
 51
355.5272775058505
  0
LINE
  5
169FE
330
167D3
100
AcDbEntity
  8
YODOROGO
100
AcDbLine
 10
14536.80217064596
 20
789.8747482146441
 30
0.0
 11
14536.80217064596
 21
1013.874748214644
 31
0.0
  0
LINE
  5
169FF
330
167D3
100
AcDbEntity
  8
YODOROGO
100
AcDbLine
 10
14536.80217064596
 20
1013.874748214644
 30
0.0
 11
14500.80217064594
 21
1013.874748214644
 31
0.0
  0
LINE
  5
16A00
330
167D3
100
AcDbEntity
  8
YODOROGO
100
AcDbLine
 10
14500.80217064594
 20
1013.874748214644
 30
0.0
 11
14500.80217064594
 21
809.8747482146441
 31
0.0
  0
ARC
  5
16A01
330
167D3
100
AcDbEntity
  8
YODOROGO
100
AcDbCircle
 10
14453.45578809342
 20
809.1089322211363
 30
0.0
 40
47.35257558937173
100
AcDbArc
 50
274.0524416290722
 51
0.9266642149309848
  0
LINE
  5
16A02
330
167D3
100
AcDbEntity
  8
YODOROGO
100
AcDbLine
 10
14456.80217064596
 20
761.8747482146434
 30
0.0
 11
14456.80217064596
 21
713.8747482146436
 31
0.0
  0
LINE
  5
16A03
330
167D3
100
AcDbEntity
  8
YODOROGO
100
AcDbLine
 10
14630.80217064596
 20
1003.874748214644
 30
0.0
 11
14598.80217064596
 21
1003.874748214644
 31
0.0
  0
LINE
  5
16A04
330
167D3
100
AcDbEntity
  8
YODOROGO
100
AcDbLine
 10
14598.80217064596
 20
1003.874748214644
 30
0.0
 11
14598.80217064596
 21
745.8747482146431
 31
0.0
  0
LINE
  5
16A05
330
167D3
100
AcDbEntity
  8
YODOROGO
100
AcDbLine
 10
14598.80217064596
 20
745.8747482146431
 30
0.0
 11
14630.80217064596
 21
745.8747482146431
 31
0.0
  0
LINE
  5
16A06
330
167D3
100
AcDbEntity
  8
YODOROGO
100
AcDbLine
 10
14630.80217064596
 20
745.8747482146431
 30
0.0
 11
14630.80217064596
 21
1003.874748214644
 31
0.0
  0
LINE
  5
16A07
330
167D3
100
AcDbEntity
  8
YODOROGO
100
AcDbLine
 10
14728.80217064596
 20
713.8747482146436
 30
0.0
 11
14728.80217064596
 21
1013.874748214644
 31
0.0
  0
LINE
  5
16A08
330
167D3
100
AcDbEntity
  8
YODOROGO
100
AcDbLine
 10
14728.80217064596
 20
1013.874748214644
 30
0.0
 11
14692.80217064596
 21
1013.874748214644
 31
0.0
  0
LINE
  5
16A09
330
167D3
100
AcDbEntity
  8
YODOROGO
100
AcDbLine
 10
14692.80217064596
 20
1013.874748214644
 30
0.0
 11
14692.80217064596
 21
713.8747482146436
 31
0.0
  0
LINE
  5
16A0A
330
167D3
100
AcDbEntity
  8
YODOROGO
100
AcDbLine
 10
14692.80217064596
 20
713.8747482146436
 30
0.0
 11
14728.80217064596
 21
713.8747482146436
 31
0.0
  0
LINE
  5
16A0B
330
167D3
100
AcDbEntity
  8
YODOROGO
100
AcDbLine
 10
14064.80217064595
 20
873.8747482146434
 30
0.0
 11
14068.80217064596
 21
873.8747482146434
 31
0.0
1001
AUTOCAD_POSTSCRIPT_FIGURE
1002
{
1000
PSFILL
1000
Grayscale
1000
Grayscale
1070
   100
1002
}
  0
LINE
  5
16A0C
330
167D3
100
AcDbEntity
  8
YODOROGO
100
AcDbLine
 10
14068.80217064596
 20
873.8747482146434
 30
0.0
 11
14049.45149343671
 21
969.8747482146441
 31
0.0
1001
AUTOCAD_POSTSCRIPT_FIGURE
1002
{
1000
PSFILL
1000
Grayscale
1000
Grayscale
1070
   100
1002
}
  0
LINE
  5
16A0D
330
167D3
100
AcDbEntity
  8
YODOROGO
100
AcDbLine
 10
14049.45149343671
 20
969.8747482146441
 30
0.0
 11
14068.80217064596
 21
969.8747482146441
 31
0.0
1001
AUTOCAD_POSTSCRIPT_FIGURE
1002
{
1000
PSFILL
1000
Grayscale
1000
Grayscale
1070
   100
1002
}
  0
LINE
  5
16A0E
330
167D3
100
AcDbEntity
  8
YODOROGO
100
AcDbLine
 10
14068.80217064596
 20
969.8747482146441
 30
0.0
 11
14068.80217064596
 21
977.8747482146435
 31
0.0
1001
AUTOCAD_POSTSCRIPT_FIGURE
1002
{
1000
PSFILL
1000
Grayscale
1000
Grayscale
1070
   100
1002
}
  0
LINE
  5
16A0F
330
167D3
100
AcDbEntity
  8
YODOROGO
100
AcDbLine
 10
14068.80217064596
 20
977.8747482146435
 30
0.0
 11
14068.80217064596
 21
989.8747482146442
 31
0.0
1001
AUTOCAD_POSTSCRIPT_FIGURE
1002
{
1000
PSFILL
1000
Grayscale
1000
Grayscale
1070
   100
1002
}
  0
LINE
  5
16A10
330
167D3
100
AcDbEntity
  8
YODOROGO
100
AcDbLine
 10
14068.80217064596
 20
989.8747482146442
 30
0.0
 11
14060.80217064596
 21
989.8747482146442
 31
0.0
1001
AUTOCAD_POSTSCRIPT_FIGURE
1002
{
1000
PSFILL
1000
Grayscale
1000
Grayscale
1070
   100
1002
}
  0
LINE
  5
16A11
330
167D3
100
AcDbEntity
  8
YODOROGO
100
AcDbLine
 10
14060.80217064596
 20
989.8747482146442
 30
0.0
 11
14060.80217064596
 21
977.8747482146435
 31
0.0
1001
AUTOCAD_POSTSCRIPT_FIGURE
1002
{
1000
PSFILL
1000
Grayscale
1000
Grayscale
1070
   100
1002
}
  0
LINE
  5
16A12
330
167D3
100
AcDbEntity
  8
YODOROGO
100
AcDbLine
 10
14060.80217064596
 20
977.8747482146435
 30
0.0
 11
14047.90343925997
 21
977.8747482146435
 31
0.0
1001
AUTOCAD_POSTSCRIPT_FIGURE
1002
{
1000
PSFILL
1000
Grayscale
1000
Grayscale
1070
   100
1002
}
  0
LINE
  5
16A13
330
167D3
100
AcDbEntity
  8
YODOROGO
100
AcDbLine
 10
14047.90343925997
 20
977.8747482146435
 30
0.0
 11
14045.58135799485
 21
989.8747482146442
 31
0.0
1001
AUTOCAD_POSTSCRIPT_FIGURE
1002
{
1000
PSFILL
1000
Grayscale
1000
Grayscale
1070
   100
1002
}
  0
LINE
  5
16A14
330
167D3
100
AcDbEntity
  8
YODOROGO
100
AcDbLine
 10
14045.58135799485
 20
989.8747482146442
 30
0.0
 11
14035.58135799485
 21
989.8747482146442
 31
0.0
1001
AUTOCAD_POSTSCRIPT_FIGURE
1002
{
1000
PSFILL
1000
Grayscale
1000
Grayscale
1070
   100
1002
}
  0
LINE
  5
16A15
330
167D3
100
AcDbEntity
  8
YODOROGO
100
AcDbLine
 10
14035.58135799485
 20
989.8747482146442
 30
0.0
 11
14038.30343925995
 21
977.8747482146435
 31
0.0
1001
AUTOCAD_POSTSCRIPT_FIGURE
1002
{
1000
PSFILL
1000
Grayscale
1000
Grayscale
1070
   100
1002
}
  0
LINE
  5
16A16
330
167D3
100
AcDbEntity
  8
YODOROGO
100
AcDbLine
 10
14038.30343925995
 20
977.8747482146435
 30
0.0
 11
13988.80217064596
 21
977.8747482146435
 31
0.0
1001
AUTOCAD_POSTSCRIPT_FIGURE
1002
{
1000
PSFILL
1000
Grayscale
1000
Grayscale
1070
   100
1002
}
  0
LINE
  5
16A17
330
167D3
100
AcDbEntity
  8
YODOROGO
100
AcDbLine
 10
13988.80217064596
 20
977.8747482146435
 30
0.0
 11
13988.80217064596
 21
969.8747482146441
 31
0.0
1001
AUTOCAD_POSTSCRIPT_FIGURE
1002
{
1000
PSFILL
1000
Grayscale
1000
Grayscale
1070
   100
1002
}
  0
LINE
  5
16A18
330
167D3
100
AcDbEntity
  8
YODOROGO
100
AcDbLine
 10
13988.80217064596
 20
969.8747482146441
 30
0.0
 11
14040.11816010337
 21
969.8747482146441
 31
0.0
1001
AUTOCAD_POSTSCRIPT_FIGURE
1002
{
1000
PSFILL
1000
Grayscale
1000
Grayscale
1070
   100
1002
}
  0
LINE
  5
16A19
330
167D3
100
AcDbEntity
  8
YODOROGO
100
AcDbLine
 10
14040.11816010337
 20
969.8747482146441
 30
0.0
 11
14064.80217064595
 21
873.8747482146434
 31
0.0
1001
AUTOCAD_POSTSCRIPT_FIGURE
1002
{
1000
PSFILL
1000
Grayscale
1000
Grayscale
1070
   100
1002
}
  0
LINE
  5
16A1A
330
167D3
100
AcDbEntity
  8
YODOROGO
100
AcDbLine
 10
13988.80217064596
 20
873.8747482146434
 30
0.0
 11
13988.80217064596
 21
885.8747482146432
 31
0.0
  0
LINE
  5
16A1B
330
167D3
100
AcDbEntity
  8
YODOROGO
100
AcDbLine
 10
13988.80217064596
 20
885.8747482146432
 30
0.0
 11
14010.91839030643
 21
892.3366697971587
 31
0.0
  0
LINE
  5
16A1C
330
167D3
100
AcDbEntity
  8
YODOROGO
100
AcDbLine
 10
14010.91839030643
 20
892.3366697971587
 30
0.0
 11
14010.91839030643
 21
936.2841744681499
 31
0.0
  0
LINE
  5
16A1D
330
167D3
100
AcDbEntity
  8
YODOROGO
100
AcDbLine
 10
14010.91839030643
 20
936.2841744681499
 30
0.0
 11
13988.80217064596
 21
936.2841744681499
 31
0.0
  0
LINE
  5
16A1E
330
167D3
100
AcDbEntity
  8
YODOROGO
100
AcDbLine
 10
13988.80217064596
 20
936.2841744681499
 30
0.0
 11
13988.80217064596
 21
946.2841744681487
 31
0.0
  0
LINE
  5
16A1F
330
167D3
100
AcDbEntity
  8
YODOROGO
100
AcDbLine
 10
13988.80217064596
 20
946.2841744681487
 30
0.0
 11
14039.03460996689
 21
946.2841744681487
 31
0.0
  0
LINE
  5
16A20
330
167D3
100
AcDbEntity
  8
YODOROGO
100
AcDbLine
 10
14039.03460996689
 20
946.2841744681487
 30
0.0
 11
14039.03460996689
 21
936.2841744681499
 31
0.0
  0
LINE
  5
16A21
330
167D3
100
AcDbEntity
  8
YODOROGO
100
AcDbLine
 10
14039.03460996689
 20
936.2841744681499
 30
0.0
 11
14016.91839030643
 21
936.2841744681499
 31
0.0
  0
LINE
  5
16A22
330
167D3
100
AcDbEntity
  8
YODOROGO
100
AcDbLine
 10
14016.91839030643
 20
936.2841744681499
 30
0.0
 11
14016.91839030643
 21
893.4084665668834
 31
0.0
  0
LINE
  5
16A23
330
167D3
100
AcDbEntity
  8
YODOROGO
100
AcDbLine
 10
14016.91839030643
 20
893.4084665668834
 30
0.0
 11
14039.03460996689
 21
899.3344897645364
 31
0.0
  0
LINE
  5
16A24
330
167D3
100
AcDbEntity
  8
YODOROGO
100
AcDbLine
 10
14039.03460996689
 20
899.3344897645364
 30
0.0
 11
14039.03460996689
 21
887.8703881493972
 31
0.0
  0
LINE
  5
16A25
330
167D3
100
AcDbEntity
  8
YODOROGO
100
AcDbLine
 10
14039.03460996689
 20
887.8703881493972
 30
0.0
 11
13988.80217064596
 21
873.8747482146434
 31
0.0
  0
LINE
  5
16A26
330
167D3
100
AcDbEntity
  8
YODOROGO
100
AcDbLine
 10
14200.80217064594
 20
912.4388128201532
 30
0.0
 11
14200.80217064594
 21
876.4388128201531
 31
0.0
1001
AUTOCAD_POSTSCRIPT_FIGURE
1002
{
1000
PSFILL
1000
Grayscale
1000
Grayscale
1070
   100
1002
}
  0
LINE
  5
16A27
330
167D3
100
AcDbEntity
  8
YODOROGO
100
AcDbLine
 10
14200.80217064594
 20
876.4388128201531
 30
0.0
 11
14128.80217064596
 21
897.8747482146435
 31
0.0
1001
AUTOCAD_POSTSCRIPT_FIGURE
1002
{
1000
PSFILL
1000
Grayscale
1000
Grayscale
1070
   100
1002
}
  0
LINE
  5
16A28
330
167D3
100
AcDbEntity
  8
YODOROGO
100
AcDbLine
 10
14128.80217064596
 20
897.8747482146435
 30
0.0
 11
14128.80217064596
 21
933.8747482146439
 31
0.0
1001
AUTOCAD_POSTSCRIPT_FIGURE
1002
{
1000
PSFILL
1000
Grayscale
1000
Grayscale
1070
   100
1002
}
  0
LINE
  5
16A29
330
167D3
100
AcDbEntity
  8
YODOROGO
100
AcDbLine
 10
14128.80217064596
 20
933.8747482146439
 30
0.0
 11
14200.80217064594
 21
912.4388128201532
 31
0.0
1001
AUTOCAD_POSTSCRIPT_FIGURE
1002
{
1000
PSFILL
1000
Grayscale
1000
Grayscale
1070
   100
1002
}
  0
LINE
  5
16A2A
330
167D3
100
AcDbEntity
  8
YODOROGO
100
AcDbLine
 10
14128.80217064596
 20
1013.874748214644
 30
0.0
 11
14128.80217064596
 21
979.874748214644
 31
0.0
1001
AUTOCAD_POSTSCRIPT_FIGURE
1002
{
1000
PSFILL
1000
Grayscale
1000
Grayscale
1070
   100
1002
}
  0
LINE
  5
16A2B
330
167D3
100
AcDbEntity
  8
YODOROGO
100
AcDbLine
 10
14128.80217064596
 20
979.874748214644
 30
0.0
 11
14200.80217064594
 21
958.4388128201537
 31
0.0
1001
AUTOCAD_POSTSCRIPT_FIGURE
1002
{
1000
PSFILL
1000
Grayscale
1000
Grayscale
1070
   100
1002
}
  0
LINE
  5
16A2C
330
167D3
100
AcDbEntity
  8
YODOROGO
100
AcDbLine
 10
14200.80217064594
 20
958.4388128201537
 30
0.0
 11
14200.80217064594
 21
992.4388128201531
 31
0.0
1001
AUTOCAD_POSTSCRIPT_FIGURE
1002
{
1000
PSFILL
1000
Grayscale
1000
Grayscale
1070
   100
1002
}
  0
LINE
  5
16A2D
330
167D3
100
AcDbEntity
  8
YODOROGO
100
AcDbLine
 10
14200.80217064594
 20
992.4388128201531
 30
0.0
 11
14128.80217064596
 21
1013.874748214644
 31
0.0
1001
AUTOCAD_POSTSCRIPT_FIGURE
1002
{
1000
PSFILL
1000
Grayscale
1000
Grayscale
1070
   100
1002
}
  0
LINE
  5
16A2E
330
167D3
100
AcDbEntity
  8
YODOROGO
100
AcDbLine
 10
13888.80217064596
 20
921.8883739758362
 30
0.0
 11
13888.80217064596
 21
929.8883739758355
 31
0.0
1001
AUTOCAD_POSTSCRIPT_FIGURE
1002
{
1000
PSFILL
1000
Grayscale
1000
Grayscale
1070
   100
1002
}
  0
LINE
  5
16A2F
330
167D3
100
AcDbEntity
  8
YODOROGO
100
AcDbLine
 10
13888.80217064596
 20
929.8883739758355
 30
0.0
 11
13900.80217064596
 21
957.3932903968525
 31
0.0
1001
AUTOCAD_POSTSCRIPT_FIGURE
1002
{
1000
PSFILL
1000
Grayscale
1000
Grayscale
1070
   100
1002
}
  0
LINE
  5
16A30
330
167D3
100
AcDbEntity
  8
YODOROGO
100
AcDbLine
 10
13900.80217064596
 20
957.3932903968525
 30
0.0
 11
13900.80217064596
 21
969.8747482146441
 31
0.0
1001
AUTOCAD_POSTSCRIPT_FIGURE
1002
{
1000
PSFILL
1000
Grayscale
1000
Grayscale
1070
   100
1002
}
  0
LINE
  5
16A31
330
167D3
100
AcDbEntity
  8
YODOROGO
100
AcDbLine
 10
13900.80217064596
 20
969.8747482146441
 30
0.0
 11
13888.80217064596
 21
969.8747482146441
 31
0.0
1001
AUTOCAD_POSTSCRIPT_FIGURE
1002
{
1000
PSFILL
1000
Grayscale
1000
Grayscale
1070
   100
1002
}
  0
LINE
  5
16A32
330
167D3
100
AcDbEntity
  8
YODOROGO
100
AcDbLine
 10
13888.80217064596
 20
969.8747482146441
 30
0.0
 11
13888.80217064596
 21
977.8747482146435
 31
0.0
1001
AUTOCAD_POSTSCRIPT_FIGURE
1002
{
1000
PSFILL
1000
Grayscale
1000
Grayscale
1070
   100
1002
}
  0
LINE
  5
16A33
330
167D3
100
AcDbEntity
  8
YODOROGO
100
AcDbLine
 10
13888.80217064596
 20
977.8747482146435
 30
0.0
 11
13900.80217064596
 21
977.8747482146435
 31
0.0
1001
AUTOCAD_POSTSCRIPT_FIGURE
1002
{
1000
PSFILL
1000
Grayscale
1000
Grayscale
1070
   100
1002
}
  0
LINE
  5
16A34
330
167D3
100
AcDbEntity
  8
YODOROGO
100
AcDbLine
 10
13900.80217064596
 20
977.8747482146435
 30
0.0
 11
13900.80217064596
 21
989.8747482146442
 31
0.0
1001
AUTOCAD_POSTSCRIPT_FIGURE
1002
{
1000
PSFILL
1000
Grayscale
1000
Grayscale
1070
   100
1002
}
  0
LINE
  5
16A35
330
167D3
100
AcDbEntity
  8
YODOROGO
100
AcDbLine
 10
13900.80217064596
 20
989.8747482146442
 30
0.0
 11
13908.80217064596
 21
989.8747482146442
 31
0.0
1001
AUTOCAD_POSTSCRIPT_FIGURE
1002
{
1000
PSFILL
1000
Grayscale
1000
Grayscale
1070
   100
1002
}
  0
LINE
  5
16A36
330
167D3
100
AcDbEntity
  8
YODOROGO
100
AcDbLine
 10
13908.80217064596
 20
989.8747482146442
 30
0.0
 11
13908.80217064596
 21
977.8747482146435
 31
0.0
1001
AUTOCAD_POSTSCRIPT_FIGURE
1002
{
1000
PSFILL
1000
Grayscale
1000
Grayscale
1070
   100
1002
}
  0
LINE
  5
16A37
330
167D3
100
AcDbEntity
  8
YODOROGO
100
AcDbLine
 10
13908.80217064596
 20
977.8747482146435
 30
0.0
 11
13924.80217064596
 21
977.8747482146435
 31
0.0
1001
AUTOCAD_POSTSCRIPT_FIGURE
1002
{
1000
PSFILL
1000
Grayscale
1000
Grayscale
1070
   100
1002
}
  0
LINE
  5
16A38
330
167D3
100
AcDbEntity
  8
YODOROGO
100
AcDbLine
 10
13924.80217064596
 20
977.8747482146435
 30
0.0
 11
13924.80217064596
 21
989.8747482146442
 31
0.0
1001
AUTOCAD_POSTSCRIPT_FIGURE
1002
{
1000
PSFILL
1000
Grayscale
1000
Grayscale
1070
   100
1002
}
  0
LINE
  5
16A39
330
167D3
100
AcDbEntity
  8
YODOROGO
100
AcDbLine
 10
13924.80217064596
 20
989.8747482146442
 30
0.0
 11
13932.80217064596
 21
989.8747482146442
 31
0.0
1001
AUTOCAD_POSTSCRIPT_FIGURE
1002
{
1000
PSFILL
1000
Grayscale
1000
Grayscale
1070
   100
1002
}
  0
LINE
  5
16A3A
330
167D3
100
AcDbEntity
  8
YODOROGO
100
AcDbLine
 10
13932.80217064596
 20
989.8747482146442
 30
0.0
 11
13932.80217064596
 21
977.8747482146435
 31
0.0
1001
AUTOCAD_POSTSCRIPT_FIGURE
1002
{
1000
PSFILL
1000
Grayscale
1000
Grayscale
1070
   100
1002
}
  0
LINE
  5
16A3B
330
167D3
100
AcDbEntity
  8
YODOROGO
100
AcDbLine
 10
13932.80217064596
 20
977.8747482146435
 30
0.0
 11
13944.80217064596
 21
977.8747482146435
 31
0.0
1001
AUTOCAD_POSTSCRIPT_FIGURE
1002
{
1000
PSFILL
1000
Grayscale
1000
Grayscale
1070
   100
1002
}
  0
LINE
  5
16A3C
330
167D3
100
AcDbEntity
  8
YODOROGO
100
AcDbLine
 10
13944.80217064596
 20
977.8747482146435
 30
0.0
 11
13944.80217064596
 21
989.8747482146442
 31
0.0
1001
AUTOCAD_POSTSCRIPT_FIGURE
1002
{
1000
PSFILL
1000
Grayscale
1000
Grayscale
1070
   100
1002
}
  0
LINE
  5
16A3D
330
167D3
100
AcDbEntity
  8
YODOROGO
100
AcDbLine
 10
13944.80217064596
 20
989.8747482146442
 30
0.0
 11
13952.80217064596
 21
989.8747482146442
 31
0.0
1001
AUTOCAD_POSTSCRIPT_FIGURE
1002
{
1000
PSFILL
1000
Grayscale
1000
Grayscale
1070
   100
1002
}
  0
LINE
  5
16A3E
330
167D3
100
AcDbEntity
  8
YODOROGO
100
AcDbLine
 10
13952.80217064596
 20
989.8747482146442
 30
0.0
 11
13952.80217064596
 21
977.8747482146435
 31
0.0
1001
AUTOCAD_POSTSCRIPT_FIGURE
1002
{
1000
PSFILL
1000
Grayscale
1000
Grayscale
1070
   100
1002
}
  0
LINE
  5
16A3F
330
167D3
100
AcDbEntity
  8
YODOROGO
100
AcDbLine
 10
13952.80217064596
 20
977.8747482146435
 30
0.0
 11
13968.80217064596
 21
977.8747482146435
 31
0.0
1001
AUTOCAD_POSTSCRIPT_FIGURE
1002
{
1000
PSFILL
1000
Grayscale
1000
Grayscale
1070
   100
1002
}
  0
LINE
  5
16A40
330
167D3
100
AcDbEntity
  8
YODOROGO
100
AcDbLine
 10
13968.80217064596
 20
977.8747482146435
 30
0.0
 11
13968.80217064596
 21
969.8747482146441
 31
0.0
1001
AUTOCAD_POSTSCRIPT_FIGURE
1002
{
1000
PSFILL
1000
Grayscale
1000
Grayscale
1070
   100
1002
}
  0
LINE
  5
16A41
330
167D3
100
AcDbEntity
  8
YODOROGO
100
AcDbLine
 10
13968.80217064596
 20
969.8747482146441
 30
0.0
 11
13952.80217064596
 21
969.8747482146441
 31
0.0
1001
AUTOCAD_POSTSCRIPT_FIGURE
1002
{
1000
PSFILL
1000
Grayscale
1000
Grayscale
1070
   100
1002
}
  0
LINE
  5
16A42
330
167D3
100
AcDbEntity
  8
YODOROGO
100
AcDbLine
 10
13952.80217064596
 20
969.8747482146441
 30
0.0
 11
13952.80217064596
 21
950.2841744681497
 31
0.0
1001
AUTOCAD_POSTSCRIPT_FIGURE
1002
{
1000
PSFILL
1000
Grayscale
1000
Grayscale
1070
   100
1002
}
  0
LINE
  5
16A43
330
167D3
100
AcDbEntity
  8
YODOROGO
100
AcDbLine
 10
13952.80217064596
 20
950.2841744681497
 30
0.0
 11
13968.80217064596
 21
950.2841744681497
 31
0.0
1001
AUTOCAD_POSTSCRIPT_FIGURE
1002
{
1000
PSFILL
1000
Grayscale
1000
Grayscale
1070
   100
1002
}
  0
LINE
  5
16A44
330
167D3
100
AcDbEntity
  8
YODOROGO
100
AcDbLine
 10
13968.80217064596
 20
950.2841744681497
 30
0.0
 11
13968.80217064596
 21
942.2841744681491
 31
0.0
1001
AUTOCAD_POSTSCRIPT_FIGURE
1002
{
1000
PSFILL
1000
Grayscale
1000
Grayscale
1070
   100
1002
}
  0
LINE
  5
16A45
330
167D3
100
AcDbEntity
  8
YODOROGO
100
AcDbLine
 10
13968.80217064596
 20
942.2841744681491
 30
0.0
 11
13952.80217064596
 21
942.2841744681502
 31
0.0
1001
AUTOCAD_POSTSCRIPT_FIGURE
1002
{
1000
PSFILL
1000
Grayscale
1000
Grayscale
1070
   100
1002
}
  0
LINE
  5
16A46
330
167D3
100
AcDbEntity
  8
YODOROGO
100
AcDbLine
 10
13952.80217064596
 20
942.2841744681502
 30
0.0
 11
13952.80217064596
 21
940.7045060794041
 31
0.0
1001
AUTOCAD_POSTSCRIPT_FIGURE
1002
{
1000
PSFILL
1000
Grayscale
1000
Grayscale
1070
   100
1002
}
  0
LINE
  5
16A47
330
167D3
100
AcDbEntity
  8
YODOROGO
100
AcDbLine
 10
13952.80217064596
 20
940.7045060794041
 30
0.0
 11
13968.80217064596
 21
906.4874905807087
 31
0.0
1001
AUTOCAD_POSTSCRIPT_FIGURE
1002
{
1000
PSFILL
1000
Grayscale
1000
Grayscale
1070
   100
1002
}
  0
LINE
  5
16A48
330
167D3
100
AcDbEntity
  8
YODOROGO
100
AcDbLine
 10
13968.80217064596
 20
906.4874905807087
 30
0.0
 11
13968.80217064596
 21
898.487490580708
 31
0.0
1001
AUTOCAD_POSTSCRIPT_FIGURE
1002
{
1000
PSFILL
1000
Grayscale
1000
Grayscale
1070
   100
1002
}
  0
LINE
  5
16A49
330
167D3
100
AcDbEntity
  8
YODOROGO
100
AcDbLine
 10
13968.80217064596
 20
898.487490580708
 30
0.0
 11
13952.80217064596
 21
924.7045060794032
 31
0.0
1001
AUTOCAD_POSTSCRIPT_FIGURE
1002
{
1000
PSFILL
1000
Grayscale
1000
Grayscale
1070
   100
1002
}
  0
LINE
  5
16A4A
330
167D3
100
AcDbEntity
  8
YODOROGO
100
AcDbLine
 10
13952.80217064596
 20
924.7045060794032
 30
0.0
 11
13952.80217064596
 21
873.8747482146434
 31
0.0
1001
AUTOCAD_POSTSCRIPT_FIGURE
1002
{
1000
PSFILL
1000
Grayscale
1000
Grayscale
1070
   100
1002
}
  0
LINE
  5
16A4B
330
167D3
100
AcDbEntity
  8
YODOROGO
100
AcDbLine
 10
13952.80217064596
 20
873.8747482146434
 30
0.0
 11
13944.80217064596
 21
873.8747482146434
 31
0.0
1001
AUTOCAD_POSTSCRIPT_FIGURE
1002
{
1000
PSFILL
1000
Grayscale
1000
Grayscale
1070
   100
1002
}
  0
LINE
  5
16A4C
330
167D3
100
AcDbEntity
  8
YODOROGO
100
AcDbLine
 10
13944.80217064596
 20
873.8747482146434
 30
0.0
 11
13944.80217064596
 21
923.8095889822183
 31
0.0
1001
AUTOCAD_POSTSCRIPT_FIGURE
1002
{
1000
PSFILL
1000
Grayscale
1000
Grayscale
1070
   100
1002
}
  0
LINE
  5
16A4D
330
167D3
100
AcDbEntity
  8
YODOROGO
100
AcDbLine
 10
13944.80217064596
 20
923.8095889822183
 30
0.0
 11
13924.80217064596
 21
898.487490580708
 31
0.0
1001
AUTOCAD_POSTSCRIPT_FIGURE
1002
{
1000
PSFILL
1000
Grayscale
1000
Grayscale
1070
   100
1002
}
  0
LINE
  5
16A4E
330
167D3
100
AcDbEntity
  8
YODOROGO
100
AcDbLine
 10
13924.80217064596
 20
898.487490580708
 30
0.0
 11
13924.80217064596
 21
906.4874905807087
 31
0.0
1001
AUTOCAD_POSTSCRIPT_FIGURE
1002
{
1000
PSFILL
1000
Grayscale
1000
Grayscale
1070
   100
1002
}
  0
LINE
  5
16A4F
330
167D3
100
AcDbEntity
  8
YODOROGO
100
AcDbLine
 10
13924.80217064596
 20
906.4874905807087
 30
0.0
 11
13944.80217064596
 21
939.8095889822196
 31
0.0
1001
AUTOCAD_POSTSCRIPT_FIGURE
1002
{
1000
PSFILL
1000
Grayscale
1000
Grayscale
1070
   100
1002
}
  0
LINE
  5
16A50
330
167D3
100
AcDbEntity
  8
YODOROGO
100
AcDbLine
 10
13944.80217064596
 20
939.8095889822196
 30
0.0
 11
13944.80217064596
 21
942.2841744681491
 31
0.0
1001
AUTOCAD_POSTSCRIPT_FIGURE
1002
{
1000
PSFILL
1000
Grayscale
1000
Grayscale
1070
   100
1002
}
  0
LINE
  5
16A51
330
167D3
100
AcDbEntity
  8
YODOROGO
100
AcDbLine
 10
13944.80217064596
 20
942.2841744681491
 30
0.0
 11
13928.80217064596
 21
942.2841744681491
 31
0.0
1001
AUTOCAD_POSTSCRIPT_FIGURE
1002
{
1000
PSFILL
1000
Grayscale
1000
Grayscale
1070
   100
1002
}
  0
LINE
  5
16A52
330
167D3
100
AcDbEntity
  8
YODOROGO
100
AcDbLine
 10
13928.80217064596
 20
942.2841744681491
 30
0.0
 11
13928.80217064596
 21
950.2841744681497
 31
0.0
1001
AUTOCAD_POSTSCRIPT_FIGURE
1002
{
1000
PSFILL
1000
Grayscale
1000
Grayscale
1070
   100
1002
}
  0
LINE
  5
16A53
330
167D3
100
AcDbEntity
  8
YODOROGO
100
AcDbLine
 10
13928.80217064596
 20
950.2841744681497
 30
0.0
 11
13944.80217064596
 21
950.2841744681497
 31
0.0
1001
AUTOCAD_POSTSCRIPT_FIGURE
1002
{
1000
PSFILL
1000
Grayscale
1000
Grayscale
1070
   100
1002
}
  0
LINE
  5
16A54
330
167D3
100
AcDbEntity
  8
YODOROGO
100
AcDbLine
 10
13944.80217064596
 20
950.2841744681497
 30
0.0
 11
13944.80217064596
 21
969.8747482146441
 31
0.0
1001
AUTOCAD_POSTSCRIPT_FIGURE
1002
{
1000
PSFILL
1000
Grayscale
1000
Grayscale
1070
   100
1002
}
  0
LINE
  5
16A55
330
167D3
100
AcDbEntity
  8
YODOROGO
100
AcDbLine
 10
13944.80217064596
 20
969.8747482146441
 30
0.0
 11
13908.80217064596
 21
969.8747482146441
 31
0.0
1001
AUTOCAD_POSTSCRIPT_FIGURE
1002
{
1000
PSFILL
1000
Grayscale
1000
Grayscale
1070
   100
1002
}
  0
LINE
  5
16A56
330
167D3
100
AcDbEntity
  8
YODOROGO
100
AcDbLine
 10
13908.80217064596
 20
969.8747482146441
 30
0.0
 11
13908.80217064596
 21
958.8856660426325
 31
0.0
1001
AUTOCAD_POSTSCRIPT_FIGURE
1002
{
1000
PSFILL
1000
Grayscale
1000
Grayscale
1070
   100
1002
}
  0
LINE
  5
16A57
330
167D3
100
AcDbEntity
  8
YODOROGO
100
AcDbLine
 10
13908.80217064596
 20
958.8856660426325
 30
0.0
 11
13920.80217064596
 21
941.8273791420681
 31
0.0
1001
AUTOCAD_POSTSCRIPT_FIGURE
1002
{
1000
PSFILL
1000
Grayscale
1000
Grayscale
1070
   100
1002
}
  0
LINE
  5
16A58
330
167D3
100
AcDbEntity
  8
YODOROGO
100
AcDbLine
 10
13920.80217064596
 20
941.8273791420681
 30
0.0
 11
13920.80217064596
 21
933.8273791420684
 31
0.0
1001
AUTOCAD_POSTSCRIPT_FIGURE
1002
{
1000
PSFILL
1000
Grayscale
1000
Grayscale
1070
   100
1002
}
  0
LINE
  5
16A59
330
167D3
100
AcDbEntity
  8
YODOROGO
100
AcDbLine
 10
13920.80217064596
 20
933.8273791420684
 30
0.0
 11
13908.80217064596
 21
946.8856660426332
 31
0.0
1001
AUTOCAD_POSTSCRIPT_FIGURE
1002
{
1000
PSFILL
1000
Grayscale
1000
Grayscale
1070
   100
1002
}
  0
LINE
  5
16A5A
330
167D3
100
AcDbEntity
  8
YODOROGO
100
AcDbLine
 10
13908.80217064596
 20
946.8856660426332
 30
0.0
 11
13908.80217064596
 21
873.8747482146434
 31
0.0
1001
AUTOCAD_POSTSCRIPT_FIGURE
1002
{
1000
PSFILL
1000
Grayscale
1000
Grayscale
1070
   100
1002
}
  0
LINE
  5
16A5B
330
167D3
100
AcDbEntity
  8
YODOROGO
100
AcDbLine
 10
13908.80217064596
 20
873.8747482146434
 30
0.0
 11
13900.80217064596
 21
873.8747482146434
 31
0.0
1001
AUTOCAD_POSTSCRIPT_FIGURE
1002
{
1000
PSFILL
1000
Grayscale
1000
Grayscale
1070
   100
1002
}
  0
LINE
  5
16A5C
330
167D3
100
AcDbEntity
  8
YODOROGO
100
AcDbLine
 10
13900.80217064596
 20
873.8747482146434
 30
0.0
 11
13900.80217064596
 21
945.3932903968532
 31
0.0
1001
AUTOCAD_POSTSCRIPT_FIGURE
1002
{
1000
PSFILL
1000
Grayscale
1000
Grayscale
1070
   100
1002
}
  0
LINE
  5
16A5D
330
167D3
100
AcDbEntity
  8
YODOROGO
100
AcDbLine
 10
13900.80217064596
 20
945.3932903968532
 30
0.0
 11
13888.80217064596
 21
921.8883739758362
 31
0.0
1001
AUTOCAD_POSTSCRIPT_FIGURE
1002
{
1000
PSFILL
1000
Grayscale
1000
Grayscale
1070
   100
1002
}
  0
LINE
  5
16A5E
330
167D3
100
AcDbEntity
  8
YODOROGO
100
AcDbLine
 10
14172.80217064596
 20
833.8747482146439
 30
0.0
 11
14172.80217064596
 21
805.8747482146443
 31
0.0
  0
ARC
  5
16A5F
330
167D3
100
AcDbEntity
  8
YODOROGO
100
AcDbCircle
 10
14117.87801537965
 20
816.7989034809513
 30
0.0
 40
55.99999999999901
100
AcDbArc
 50
281.2490582504167
 51
348.7509417495839
  0
LINE
  5
16A60
330
167D3
100
AcDbEntity
  8
YODOROGO
100
AcDbLine
 10
14128.80217064596
 20
761.8747482146434
 30
0.0
 11
14128.80217064596
 21
713.8747482146436
 31
0.0
  0
ARC
  5
16A61
330
167D3
100
AcDbEntity
  8
YODOROGO
100
AcDbCircle
 10
14112.97022107349
 20
800.438882662663
 30
0.0
 40
87.99999999999979
100
AcDbArc
 50
280.3644312771306
 51
3.541483659218113
  0
LINE
  5
16A62
330
167D3
100
AcDbEntity
  8
YODOROGO
100
AcDbLine
 10
14200.80217064594
 20
805.8747482146443
 30
0.0
 11
14200.80217064594
 21
833.8747482146439
 31
0.0
  0
LINE
  5
16A63
330
167D3
100
AcDbEntity
  8
YODOROGO
100
AcDbLine
 10
14200.80217064594
 20
833.8747482146439
 30
0.0
 11
14172.80217064596
 21
833.8747482146439
 31
0.0
  0
LINE
  5
16A64
330
167D3
100
AcDbEntity
  8
YODOROGO
100
AcDbLine
 10
13904.80217064596
 20
816.3859520216298
 30
0.0
 11
13952.80217064596
 21
816.3859520216298
 31
0.0
  0
LINE
  5
16A65
330
167D3
100
AcDbEntity
  8
YODOROGO
100
AcDbLine
 10
13952.80217064596
 20
816.3859520216298
 30
0.0
 11
13952.80217064596
 21
804.3859520216292
 31
0.0
  0
LINE
  5
16A66
330
167D3
100
AcDbEntity
  8
YODOROGO
100
AcDbLine
 10
13952.80217064596
 20
804.3859520216292
 30
0.0
 11
13904.80217064596
 21
804.3859520216292
 31
0.0
  0
LINE
  5
16A67
330
167D3
100
AcDbEntity
  8
YODOROGO
100
AcDbLine
 10
13904.80217064596
 20
804.3859520216292
 30
0.0
 11
13904.80217064596
 21
816.3859520216298
 31
0.0
  0
LINE
  5
16A68
330
167D3
100
AcDbEntity
  8
YODOROGO
100
AcDbLine
 10
13892.80217064596
 20
737.8747482146435
 30
0.0
 11
13964.80217064596
 21
737.8747482146435
 31
0.0
1001
AUTOCAD_POSTSCRIPT_FIGURE
1002
{
1000
PSFILL
1000
Grayscale
1000
Grayscale
1070
   100
1002
}
  0
LINE
  5
16A69
330
167D3
100
AcDbEntity
  8
YODOROGO
100
AcDbLine
 10
13964.80217064596
 20
737.8747482146435
 30
0.0
 11
13950.53250239547
 21
768.1169053488464
 31
0.0
1001
AUTOCAD_POSTSCRIPT_FIGURE
1002
{
1000
PSFILL
1000
Grayscale
1000
Grayscale
1070
   100
1002
}
  0
LINE
  5
16A6A
330
167D3
100
AcDbEntity
  8
YODOROGO
100
AcDbLine
 10
13950.53250239547
 20
768.1169053488464
 30
0.0
 11
13942.53250239547
 21
768.1169053488464
 31
0.0
1001
AUTOCAD_POSTSCRIPT_FIGURE
1002
{
1000
PSFILL
1000
Grayscale
1000
Grayscale
1070
   100
1002
}
  0
LINE
  5
16A6B
330
167D3
100
AcDbEntity
  8
YODOROGO
100
AcDbLine
 10
13942.53250239547
 20
768.1169053488464
 30
0.0
 11
13951.02739540432
 21
747.8747482146435
 31
0.0
1001
AUTOCAD_POSTSCRIPT_FIGURE
1002
{
1000
PSFILL
1000
Grayscale
1000
Grayscale
1070
   100
1002
}
  0
LINE
  5
16A6C
330
167D3
100
AcDbEntity
  8
YODOROGO
100
AcDbLine
 10
13951.02739540432
 20
747.8747482146435
 30
0.0
 11
13907.77335914238
 21
747.8747482146435
 31
0.0
1001
AUTOCAD_POSTSCRIPT_FIGURE
1002
{
1000
PSFILL
1000
Grayscale
1000
Grayscale
1070
   100
1002
}
  0
LINE
  5
16A6D
330
167D3
100
AcDbEntity
  8
YODOROGO
100
AcDbLine
 10
13907.77335914238
 20
747.8747482146435
 30
0.0
 11
13922.25479445786
 21
784.2514286852374
 31
0.0
1001
AUTOCAD_POSTSCRIPT_FIGURE
1002
{
1000
PSFILL
1000
Grayscale
1000
Grayscale
1070
   100
1002
}
  0
LINE
  5
16A6E
330
167D3
100
AcDbEntity
  8
YODOROGO
100
AcDbLine
 10
13922.25479445786
 20
784.2514286852374
 30
0.0
 11
13968.80217064596
 21
784.2514286852374
 31
0.0
1001
AUTOCAD_POSTSCRIPT_FIGURE
1002
{
1000
PSFILL
1000
Grayscale
1000
Grayscale
1070
   100
1002
}
  0
LINE
  5
16A6F
330
167D3
100
AcDbEntity
  8
YODOROGO
100
AcDbLine
 10
13968.80217064596
 20
784.2514286852374
 30
0.0
 11
13968.80217064596
 21
794.2514286852374
 31
0.0
1001
AUTOCAD_POSTSCRIPT_FIGURE
1002
{
1000
PSFILL
1000
Grayscale
1000
Grayscale
1070
   100
1002
}
  0
LINE
  5
16A70
330
167D3
100
AcDbEntity
  8
YODOROGO
100
AcDbLine
 10
13968.80217064596
 20
794.2514286852374
 30
0.0
 11
13888.80217064596
 21
794.2514286852374
 31
0.0
1001
AUTOCAD_POSTSCRIPT_FIGURE
1002
{
1000
PSFILL
1000
Grayscale
1000
Grayscale
1070
   100
1002
}
  0
LINE
  5
16A71
330
167D3
100
AcDbEntity
  8
YODOROGO
100
AcDbLine
 10
13888.80217064596
 20
794.2514286852374
 30
0.0
 11
13888.80217064596
 21
784.2514286852374
 31
0.0
1001
AUTOCAD_POSTSCRIPT_FIGURE
1002
{
1000
PSFILL
1000
Grayscale
1000
Grayscale
1070
   100
1002
}
  0
LINE
  5
16A72
330
167D3
100
AcDbEntity
  8
YODOROGO
100
AcDbLine
 10
13888.80217064596
 20
784.2514286852374
 30
0.0
 11
13912.25479445787
 21
784.2514286852374
 31
0.0
1001
AUTOCAD_POSTSCRIPT_FIGURE
1002
{
1000
PSFILL
1000
Grayscale
1000
Grayscale
1070
   100
1002
}
  0
LINE
  5
16A73
330
167D3
100
AcDbEntity
  8
YODOROGO
100
AcDbLine
 10
13912.25479445787
 20
784.2514286852374
 30
0.0
 11
13892.80217064596
 21
737.8747482146435
 31
0.0
1001
AUTOCAD_POSTSCRIPT_FIGURE
1002
{
1000
PSFILL
1000
Grayscale
1000
Grayscale
1070
   100
1002
}
  0
LINE
  5
16A74
330
167D3
100
AcDbEntity
  8
YODOROGO
100
AcDbLine
 10
13888.80217064596
 20
821.986207022285
 30
0.0
 11
13928.80217064596
 21
853.874748214644
 31
0.0
  0
LINE
  5
16A75
330
167D3
100
AcDbEntity
  8
YODOROGO
100
AcDbLine
 10
13928.80217064596
 20
853.874748214644
 30
0.0
 11
13968.80217064596
 21
821.986207022285
 31
0.0
  0
LINE
  5
16A76
330
167D3
100
AcDbEntity
  8
YODOROGO
100
AcDbLine
 10
13968.80217064596
 20
821.986207022285
 30
0.0
 11
13968.80217064596
 21
809.9862070222856
 31
0.0
  0
LINE
  5
16A77
330
167D3
100
AcDbEntity
  8
YODOROGO
100
AcDbLine
 10
13968.80217064596
 20
809.9862070222856
 30
0.0
 11
13928.80217064596
 21
841.8747482146445
 31
0.0
  0
LINE
  5
16A78
330
167D3
100
AcDbEntity
  8
YODOROGO
100
AcDbLine
 10
13928.80217064596
 20
841.8747482146445
 30
0.0
 11
13888.80217064596
 21
809.9862070222856
 31
0.0
  0
LINE
  5
16A79
330
167D3
100
AcDbEntity
  8
YODOROGO
100
AcDbLine
 10
13888.80217064596
 20
809.9862070222856
 30
0.0
 11
13888.80217064596
 21
821.986207022285
 31
0.0
  0
LINE
  5
16A7A
330
167D3
100
AcDbEntity
  8
YODOROGO
100
AcDbLine
 10
14000.80217064596
 20
841.8747482146434
 30
0.0
 11
13988.80217064596
 21
841.8747482146434
 31
0.0
  0
LINE
  5
16A7B
330
167D3
100
AcDbEntity
  8
YODOROGO
100
AcDbLine
 10
13988.80217064596
 20
841.8747482146434
 30
0.0
 11
13988.80217064596
 21
833.8747482146427
 31
0.0
  0
LINE
  5
16A7C
330
167D3
100
AcDbEntity
  8
YODOROGO
100
AcDbLine
 10
13988.80217064596
 20
833.8747482146427
 30
0.0
 11
14012.91438714567
 21
833.8747482146427
 31
0.0
  0
LINE
  5
16A7D
330
167D3
100
AcDbEntity
  8
YODOROGO
100
AcDbLine
 10
14012.91438714567
 20
833.8747482146427
 30
0.0
 11
13988.80217064596
 21
778.3840395167149
 31
0.0
  0
LINE
  5
16A7E
330
167D3
100
AcDbEntity
  8
YODOROGO
100
AcDbLine
 10
13988.80217064596
 20
778.3840395167149
 30
0.0
 11
13988.80217064596
 21
766.3840395167142
 31
0.0
  0
LINE
  5
16A7F
330
167D3
100
AcDbEntity
  8
YODOROGO
100
AcDbLine
 10
13988.80217064596
 20
766.3840395167142
 30
0.0
 11
14000.80217064596
 21
790.0026748448738
 31
0.0
  0
LINE
  5
16A80
330
167D3
100
AcDbEntity
  8
YODOROGO
100
AcDbLine
 10
14000.80217064596
 20
790.0026748448738
 30
0.0
 11
14000.80217064596
 21
737.8747482146435
 31
0.0
  0
LINE
  5
16A81
330
167D3
100
AcDbEntity
  8
YODOROGO
100
AcDbLine
 10
14000.80217064596
 20
737.8747482146435
 30
0.0
 11
14008.80217064596
 21
737.8747482146435
 31
0.0
  0
LINE
  5
16A82
330
167D3
100
AcDbEntity
  8
YODOROGO
100
AcDbLine
 10
14008.80217064596
 20
737.8747482146435
 30
0.0
 11
14008.80217064596
 21
792.6185318747651
 31
0.0
  0
LINE
  5
16A83
330
167D3
100
AcDbEntity
  8
YODOROGO
100
AcDbLine
 10
14008.80217064596
 20
792.6185318747651
 30
0.0
 11
14020.80217064596
 21
781.5602449741994
 31
0.0
  0
LINE
  5
16A84
330
167D3
100
AcDbEntity
  8
YODOROGO
100
AcDbLine
 10
14020.80217064596
 20
781.5602449741994
 30
0.0
 11
14020.80217064596
 21
791.5602449742006
 31
0.0
  0
LINE
  5
16A85
330
167D3
100
AcDbEntity
  8
YODOROGO
100
AcDbLine
 10
14020.80217064596
 20
791.5602449742006
 30
0.0
 11
14010.04445186845
 21
805.3252825309574
 31
0.0
  0
LINE
  5
16A86
330
167D3
100
AcDbEntity
  8
YODOROGO
100
AcDbLine
 10
14010.04445186845
 20
805.3252825309574
 30
0.0
 11
14020.45660200844
 21
829.874748214644
 31
0.0
  0
LINE
  5
16A87
330
167D3
100
AcDbEntity
  8
YODOROGO
100
AcDbLine
 10
14020.45660200844
 20
829.874748214644
 30
0.0
 11
14020.45660200844
 21
841.8747482146434
 31
0.0
  0
LINE
  5
16A88
330
167D3
100
AcDbEntity
  8
YODOROGO
100
AcDbLine
 10
14020.45660200844
 20
841.8747482146434
 30
0.0
 11
14008.80217064596
 21
841.8747482146434
 31
0.0
  0
LINE
  5
16A89
330
167D3
100
AcDbEntity
  8
YODOROGO
100
AcDbLine
 10
14008.80217064596
 20
841.8747482146434
 30
0.0
 11
14008.80217064596
 21
853.874748214644
 31
0.0
  0
LINE
  5
16A8A
330
167D3
100
AcDbEntity
  8
YODOROGO
100
AcDbLine
 10
14008.80217064596
 20
853.874748214644
 30
0.0
 11
14000.80217064596
 21
853.874748214644
 31
0.0
  0
LINE
  5
16A8B
330
167D3
100
AcDbEntity
  8
YODOROGO
100
AcDbLine
 10
14000.80217064596
 20
853.874748214644
 30
0.0
 11
14000.80217064596
 21
841.8747482146434
 31
0.0
  0
LINE
  5
16A8C
330
167D3
100
AcDbEntity
  8
YODOROGO
100
AcDbLine
 10
14041.06776011546
 20
827.751818637328
 30
0.0
 11
14041.06776011546
 21
853.874748214644
 31
0.0
1001
AUTOCAD_POSTSCRIPT_FIGURE
1002
{
1000
PSFILL
1000
Grayscale
1000
Grayscale
1070
   100
1002
}
  0
LINE
  5
16A8D
330
167D3
100
AcDbEntity
  8
YODOROGO
100
AcDbLine
 10
14041.06776011546
 20
853.874748214644
 30
0.0
 11
14049.06776011545
 21
853.874748214644
 31
0.0
1001
AUTOCAD_POSTSCRIPT_FIGURE
1002
{
1000
PSFILL
1000
Grayscale
1000
Grayscale
1070
   100
1002
}
  0
LINE
  5
16A8E
330
167D3
100
AcDbEntity
  8
YODOROGO
100
AcDbLine
 10
14049.06776011545
 20
853.874748214644
 30
0.0
 11
14049.06776011545
 21
827.751818637328
 31
0.0
1001
AUTOCAD_POSTSCRIPT_FIGURE
1002
{
1000
PSFILL
1000
Grayscale
1000
Grayscale
1070
   100
1002
}
  0
LINE
  5
16A8F
330
167D3
100
AcDbEntity
  8
YODOROGO
100
AcDbLine
 10
14049.06776011545
 20
827.751818637328
 30
0.0
 11
14068.80217064596
 21
827.751818637328
 31
0.0
1001
AUTOCAD_POSTSCRIPT_FIGURE
1002
{
1000
PSFILL
1000
Grayscale
1000
Grayscale
1070
   100
1002
}
  0
LINE
  5
16A90
330
167D3
100
AcDbEntity
  8
YODOROGO
100
AcDbLine
 10
14068.80217064596
 20
827.751818637328
 30
0.0
 11
14068.80217064596
 21
815.7518186373286
 31
0.0
1001
AUTOCAD_POSTSCRIPT_FIGURE
1002
{
1000
PSFILL
1000
Grayscale
1000
Grayscale
1070
   100
1002
}
  0
LINE
  5
16A91
330
167D3
100
AcDbEntity
  8
YODOROGO
100
AcDbLine
 10
14068.80217064596
 20
815.7518186373286
 30
0.0
 11
14049.06776011545
 21
815.7518186373286
 31
0.0
1001
AUTOCAD_POSTSCRIPT_FIGURE
1002
{
1000
PSFILL
1000
Grayscale
1000
Grayscale
1070
   100
1002
}
  0
LINE
  5
16A92
330
167D3
100
AcDbEntity
  8
YODOROGO
100
AcDbLine
 10
14049.06776011545
 20
815.7518186373286
 30
0.0
 11
14049.06776011545
 21
749.8747482146441
 31
0.0
1001
AUTOCAD_POSTSCRIPT_FIGURE
1002
{
1000
PSFILL
1000
Grayscale
1000
Grayscale
1070
   100
1002
}
  0
LINE
  5
16A93
330
167D3
100
AcDbEntity
  8
YODOROGO
100
AcDbLine
 10
14049.06776011545
 20
749.8747482146441
 30
0.0
 11
14068.80217064596
 21
749.8747482146441
 31
0.0
1001
AUTOCAD_POSTSCRIPT_FIGURE
1002
{
1000
PSFILL
1000
Grayscale
1000
Grayscale
1070
   100
1002
}
  0
LINE
  5
16A94
330
167D3
100
AcDbEntity
  8
YODOROGO
100
AcDbLine
 10
14068.80217064596
 20
749.8747482146441
 30
0.0
 11
14068.80217064596
 21
737.8747482146435
 31
0.0
1001
AUTOCAD_POSTSCRIPT_FIGURE
1002
{
1000
PSFILL
1000
Grayscale
1000
Grayscale
1070
   100
1002
}
  0
LINE
  5
16A95
330
167D3
100
AcDbEntity
  8
YODOROGO
100
AcDbLine
 10
14068.80217064596
 20
737.8747482146435
 30
0.0
 11
14025.06776011545
 21
737.8747482146435
 31
0.0
1001
AUTOCAD_POSTSCRIPT_FIGURE
1002
{
1000
PSFILL
1000
Grayscale
1000
Grayscale
1070
   100
1002
}
  0
LINE
  5
16A96
330
167D3
100
AcDbEntity
  8
YODOROGO
100
AcDbLine
 10
14025.06776011545
 20
737.8747482146435
 30
0.0
 11
14025.06776011545
 21
749.8747482146441
 31
0.0
1001
AUTOCAD_POSTSCRIPT_FIGURE
1002
{
1000
PSFILL
1000
Grayscale
1000
Grayscale
1070
   100
1002
}
  0
LINE
  5
16A97
330
167D3
100
AcDbEntity
  8
YODOROGO
100
AcDbLine
 10
14025.06776011545
 20
749.8747482146441
 30
0.0
 11
14041.06776011546
 21
749.8747482146441
 31
0.0
1001
AUTOCAD_POSTSCRIPT_FIGURE
1002
{
1000
PSFILL
1000
Grayscale
1000
Grayscale
1070
   100
1002
}
  0
LINE
  5
16A98
330
167D3
100
AcDbEntity
  8
YODOROGO
100
AcDbLine
 10
14041.06776011546
 20
749.8747482146441
 30
0.0
 11
14041.06776011546
 21
815.7518186373286
 31
0.0
1001
AUTOCAD_POSTSCRIPT_FIGURE
1002
{
1000
PSFILL
1000
Grayscale
1000
Grayscale
1070
   100
1002
}
  0
LINE
  5
16A99
330
167D3
100
AcDbEntity
  8
YODOROGO
100
AcDbLine
 10
14041.06776011546
 20
815.7518186373286
 30
0.0
 11
14025.06776011545
 21
815.7518186373286
 31
0.0
1001
AUTOCAD_POSTSCRIPT_FIGURE
1002
{
1000
PSFILL
1000
Grayscale
1000
Grayscale
1070
   100
1002
}
  0
LINE
  5
16A9A
330
167D3
100
AcDbEntity
  8
YODOROGO
100
AcDbLine
 10
14025.06776011545
 20
815.7518186373286
 30
0.0
 11
14025.06776011545
 21
827.751818637328
 31
0.0
1001
AUTOCAD_POSTSCRIPT_FIGURE
1002
{
1000
PSFILL
1000
Grayscale
1000
Grayscale
1070
   100
1002
}
  0
LINE
  5
16A9B
330
167D3
100
AcDbEntity
  8
YODOROGO
100
AcDbLine
 10
14025.06776011545
 20
827.751818637328
 30
0.0
 11
14041.06776011546
 21
827.751818637328
 31
0.0
1001
AUTOCAD_POSTSCRIPT_FIGURE
1002
{
1000
PSFILL
1000
Grayscale
1000
Grayscale
1070
   100
1002
}
  0
LINE
  5
16A9C
330
167D3
100
AcDbEntity
  8
YODOROGO
100
AcDbLine
 10
14216.80217064594
 20
873.8747482146449
 30
0.0
 11
14292.80217064596
 21
873.8747482146449
 31
0.0
  0
LINE
  5
16A9D
330
167D3
100
AcDbEntity
  8
YODOROGO
100
AcDbLine
 10
14292.80217064596
 20
873.8747482146449
 30
0.0
 11
14292.80217064596
 21
773.874748214644
 31
0.0
  0
ARC
  5
16A9E
330
167D3
100
AcDbEntity
  8
YODOROGO
100
AcDbCircle
 10
14280.80217064596
 20
773.8747482146417
 30
0.0
 40
11.99999999999818
100
AcDbArc
 50
270.0000000000085
 51
0.0000000000097707
  0
LINE
  5
16A9F
330
167D3
100
AcDbEntity
  8
YODOROGO
100
AcDbLine
 10
14280.80217064596
 20
761.8747482146434
 30
0.0
 11
14268.80217064594
 21
761.8747482146434
 31
0.0
  0
ARC
  5
16AA0
330
167D3
100
AcDbEntity
  8
YODOROGO
100
AcDbCircle
 10
14268.80217064594
 20
781.8747482146434
 30
0.0
 40
20.0
100
AcDbArc
 50
180.0
 51
270.0
  0
LINE
  5
16AA1
330
167D3
100
AcDbEntity
  8
YODOROGO
100
AcDbLine
 10
14248.80217064594
 20
781.8747482146434
 30
0.0
 11
14248.80217064594
 21
853.874748214644
 31
0.0
  0
LINE
  5
16AA2
330
167D3
100
AcDbEntity
  8
YODOROGO
100
AcDbLine
 10
14248.80217064594
 20
853.874748214644
 30
0.0
 11
14216.80217064594
 21
853.874748214644
 31
0.0
  0
LINE
  5
16AA3
330
167D3
100
AcDbEntity
  8
YODOROGO
100
AcDbLine
 10
14216.80217064594
 20
853.874748214644
 30
0.0
 11
14216.80217064594
 21
753.8747482146439
 31
0.0
  0
ARC
  5
16AA4
330
167D3
100
AcDbEntity
  8
YODOROGO
100
AcDbCircle
 10
14256.80217064594
 20
753.8747482146439
 30
0.0
 40
40.0
100
AcDbArc
 50
180.0
 51
270.0
  0
LINE
  5
16AA5
330
167D3
100
AcDbEntity
  8
YODOROGO
100
AcDbLine
 10
14256.80217064594
 20
713.8747482146436
 30
0.0
 11
14396.80217064594
 21
713.8747482146436
 31
0.0
  0
LINE
  5
16AA6
330
167D3
100
AcDbEntity
  8
YODOROGO
100
AcDbLine
 10
14396.80217064594
 20
713.8747482146436
 30
0.0
 11
14396.80217064594
 21
761.8747482146434
 31
0.0
  0
LINE
  5
16AA7
330
167D3
100
AcDbEntity
  8
YODOROGO
100
AcDbLine
 10
14396.80217064594
 20
761.8747482146434
 30
0.0
 11
14328.80217064594
 21
761.8747482146434
 31
0.0
  0
LINE
  5
16AA8
330
167D3
100
AcDbEntity
  8
YODOROGO
100
AcDbLine
 10
14328.80217064594
 20
761.8747482146434
 30
0.0
 11
14328.80217064594
 21
801.8747482146444
 31
0.0
  0
LINE
  5
16AA9
330
167D3
100
AcDbEntity
  8
YODOROGO
100
AcDbLine
 10
14328.80217064594
 20
801.8747482146444
 30
0.0
 11
14396.80217064594
 21
801.8747482146444
 31
0.0
  0
LINE
  5
16AAA
330
167D3
100
AcDbEntity
  8
YODOROGO
100
AcDbLine
 10
14396.80217064594
 20
801.8747482146444
 30
0.0
 11
14396.80217064594
 21
833.8747482146439
 31
0.0
  0
LINE
  5
16AAB
330
167D3
100
AcDbEntity
  8
YODOROGO
100
AcDbLine
 10
14396.80217064594
 20
833.8747482146439
 30
0.0
 11
14328.80217064594
 21
833.8747482146439
 31
0.0
  0
LINE
  5
16AAC
330
167D3
100
AcDbEntity
  8
YODOROGO
100
AcDbLine
 10
14328.80217064594
 20
833.8747482146439
 30
0.0
 11
14328.80217064594
 21
873.8747482146449
 31
0.0
  0
LINE
  5
16AAD
330
167D3
100
AcDbEntity
  8
YODOROGO
100
AcDbLine
 10
14328.80217064594
 20
873.8747482146449
 30
0.0
 11
14396.80217064594
 21
873.8747482146449
 31
0.0
  0
LINE
  5
16AAE
330
167D3
100
AcDbEntity
  8
YODOROGO
100
AcDbLine
 10
14396.80217064594
 20
873.8747482146449
 30
0.0
 11
14396.80217064594
 21
909.8747482146439
 31
0.0
  0
LINE
  5
16AAF
330
167D3
100
AcDbEntity
  8
YODOROGO
100
AcDbLine
 10
14396.80217064594
 20
909.8747482146439
 30
0.0
 11
14216.80217064594
 21
909.8747482146439
 31
0.0
  0
LINE
  5
16AB0
330
167D3
100
AcDbEntity
  8
YODOROGO
100
AcDbLine
 10
14216.80217064594
 20
909.8747482146439
 30
0.0
 11
14216.80217064594
 21
873.8747482146449
 31
0.0
  0
LINE
  5
16AB1
330
167D3
100
AcDbEntity
  8
YODOROGO
100
AcDbLine
 10
14216.80217064594
 20
933.8747482146439
 30
0.0
 11
14216.80217064594
 21
993.8747482146439
 31
0.0
  0
LINE
  5
16AB2
330
167D3
100
AcDbEntity
  8
YODOROGO
100
AcDbLine
 10
14216.80217064594
 20
993.8747482146439
 30
0.0
 11
14292.80217064596
 21
993.8747482146439
 31
0.0
  0
LINE
  5
16AB3
330
167D3
100
AcDbEntity
  8
YODOROGO
100
AcDbLine
 10
14292.80217064596
 20
993.8747482146439
 30
0.0
 11
14292.80217064596
 21
1013.874748214644
 31
0.0
  0
LINE
  5
16AB4
330
167D3
100
AcDbEntity
  8
YODOROGO
100
AcDbLine
 10
14292.80217064596
 20
1013.874748214644
 30
0.0
 11
14328.80217064596
 21
1013.874748214644
 31
0.0
  0
LINE
  5
16AB5
330
167D3
100
AcDbEntity
  8
YODOROGO
100
AcDbLine
 10
14328.80217064596
 20
1013.874748214644
 30
0.0
 11
14328.80217064596
 21
993.8747482146439
 31
0.0
  0
LINE
  5
16AB6
330
167D3
100
AcDbEntity
  8
YODOROGO
100
AcDbLine
 10
14328.80217064596
 20
993.8747482146439
 30
0.0
 11
14376.80217064594
 21
993.8747482146439
 31
0.0
  0
ARC
  5
16AB7
330
167D3
100
AcDbEntity
  8
YODOROGO
100
AcDbCircle
 10
14376.80217064594
 20
973.8747482146434
 30
0.0
 40
20.0
100
AcDbArc
 50
0.0
 51
90.0
  0
LINE
  5
16AB8
330
167D3
100
AcDbEntity
  8
YODOROGO
100
AcDbLine
 10
14396.80217064594
 20
973.8747482146434
 30
0.0
 11
14396.80217064594
 21
933.8747482146439
 31
0.0
  0
LINE
  5
16AB9
330
167D3
100
AcDbEntity
  8
YODOROGO
100
AcDbLine
 10
14396.80217064594
 20
933.8747482146439
 30
0.0
 11
14364.80217064596
 21
933.8747482146439
 31
0.0
  0
LINE
  5
16ABA
330
167D3
100
AcDbEntity
  8
YODOROGO
100
AcDbLine
 10
14364.80217064596
 20
933.8747482146439
 30
0.0
 11
14364.80217064596
 21
961.8747482146432
 31
0.0
  0
LINE
  5
16ABB
330
167D3
100
AcDbEntity
  8
YODOROGO
100
AcDbLine
 10
14364.80217064596
 20
961.8747482146432
 30
0.0
 11
14248.80217064594
 21
961.8747482146432
 31
0.0
  0
LINE
  5
16ABC
330
167D3
100
AcDbEntity
  8
YODOROGO
100
AcDbLine
 10
14248.80217064594
 20
961.8747482146432
 30
0.0
 11
14248.80217064594
 21
933.8747482146439
 31
0.0
  0
LINE
  5
16ABD
330
167D3
100
AcDbEntity
  8
YODOROGO
100
AcDbLine
 10
14248.80217064594
 20
933.8747482146439
 30
0.0
 11
14216.80217064594
 21
933.8747482146439
 31
0.0
  0
LINE
  5
16ABE
330
167D3
100
AcDbEntity
  8
YODOROGO
100
AcDbLine
 10
14836.80217064596
 20
885.8747482146441
 30
0.0
 11
14882.80217064596
 21
885.8747482146441
 31
0.0
1001
AUTOCAD_POSTSCRIPT_FIGURE
1002
{
1000
PSFILL
1000
Grayscale
1000
Grayscale
1070
    25
1002
}
  0
LINE
  5
16ABF
330
167D3
100
AcDbEntity
  8
YODOROGO
100
AcDbLine
 10
14882.80217064596
 20
885.8747482146441
 30
0.0
 11
14882.80217064596
 21
853.874748214644
 31
0.0
1001
AUTOCAD_POSTSCRIPT_FIGURE
1002
{
1000
PSFILL
1000
Grayscale
1000
Grayscale
1070
    25
1002
}
  0
LINE
  5
16AC0
330
167D3
100
AcDbEntity
  8
YODOROGO
100
AcDbLine
 10
14882.80217064596
 20
853.874748214644
 30
0.0
 11
14914.80217064596
 21
853.874748214644
 31
0.0
1001
AUTOCAD_POSTSCRIPT_FIGURE
1002
{
1000
PSFILL
1000
Grayscale
1000
Grayscale
1070
    25
1002
}
  0
LINE
  5
16AC1
330
167D3
100
AcDbEntity
  8
YODOROGO
100
AcDbLine
 10
14914.80217064596
 20
853.874748214644
 30
0.0
 11
14914.80217064596
 21
885.8747482146441
 31
0.0
1001
AUTOCAD_POSTSCRIPT_FIGURE
1002
{
1000
PSFILL
1000
Grayscale
1000
Grayscale
1070
    25
1002
}
  0
LINE
  5
16AC2
330
167D3
100
AcDbEntity
  8
YODOROGO
100
AcDbLine
 10
14914.80217064596
 20
885.8747482146441
 30
0.0
 11
14960.80217064594
 21
885.8747482146441
 31
0.0
1001
AUTOCAD_POSTSCRIPT_FIGURE
1002
{
1000
PSFILL
1000
Grayscale
1000
Grayscale
1070
    25
1002
}
  0
LINE
  5
16AC3
330
167D3
100
AcDbEntity
  8
YODOROGO
100
AcDbLine
 10
14960.80217064594
 20
885.8747482146441
 30
0.0
 11
14960.80217064594
 21
853.874748214644
 31
0.0
1001
AUTOCAD_POSTSCRIPT_FIGURE
1002
{
1000
PSFILL
1000
Grayscale
1000
Grayscale
1070
    25
1002
}
  0
LINE
  5
16AC4
330
167D3
100
AcDbEntity
  8
YODOROGO
100
AcDbLine
 10
14960.80217064594
 20
853.874748214644
 30
0.0
 11
14988.80217064596
 21
853.874748214644
 31
0.0
1001
AUTOCAD_POSTSCRIPT_FIGURE
1002
{
1000
PSFILL
1000
Grayscale
1000
Grayscale
1070
    25
1002
}
  0
LINE
  5
16AC5
330
167D3
100
AcDbEntity
  8
YODOROGO
100
AcDbLine
 10
14988.80217064596
 20
853.874748214644
 30
0.0
 11
14988.80217064596
 21
909.8747482146439
 31
0.0
1001
AUTOCAD_POSTSCRIPT_FIGURE
1002
{
1000
PSFILL
1000
Grayscale
1000
Grayscale
1070
    25
1002
}
  0
LINE
  5
16AC6
330
167D3
100
AcDbEntity
  8
YODOROGO
100
AcDbLine
 10
14988.80217064596
 20
909.8747482146439
 30
0.0
 11
14914.80217064596
 21
909.8747482146439
 31
0.0
1001
AUTOCAD_POSTSCRIPT_FIGURE
1002
{
1000
PSFILL
1000
Grayscale
1000
Grayscale
1070
    25
1002
}
  0
LINE
  5
16AC7
330
167D3
100
AcDbEntity
  8
YODOROGO
100
AcDbLine
 10
14914.80217064596
 20
909.8747482146439
 30
0.0
 11
14914.80217064596
 21
929.874748214644
 31
0.0
1001
AUTOCAD_POSTSCRIPT_FIGURE
1002
{
1000
PSFILL
1000
Grayscale
1000
Grayscale
1070
    25
1002
}
  0
LINE
  5
16AC8
330
167D3
100
AcDbEntity
  8
YODOROGO
100
AcDbLine
 10
14914.80217064596
 20
929.874748214644
 30
0.0
 11
14988.80217064596
 21
929.874748214644
 31
0.0
1001
AUTOCAD_POSTSCRIPT_FIGURE
1002
{
1000
PSFILL
1000
Grayscale
1000
Grayscale
1070
    25
1002
}
  0
LINE
  5
16AC9
330
167D3
100
AcDbEntity
  8
YODOROGO
100
AcDbLine
 10
14988.80217064596
 20
929.874748214644
 30
0.0
 11
14988.80217064596
 21
953.874748214644
 31
0.0
1001
AUTOCAD_POSTSCRIPT_FIGURE
1002
{
1000
PSFILL
1000
Grayscale
1000
Grayscale
1070
    25
1002
}
  0
LINE
  5
16ACA
330
167D3
100
AcDbEntity
  8
YODOROGO
100
AcDbLine
 10
14988.80217064596
 20
953.874748214644
 30
0.0
 11
14914.80217064596
 21
953.874748214644
 31
0.0
1001
AUTOCAD_POSTSCRIPT_FIGURE
1002
{
1000
PSFILL
1000
Grayscale
1000
Grayscale
1070
    25
1002
}
  0
LINE
  5
16ACB
330
167D3
100
AcDbEntity
  8
YODOROGO
100
AcDbLine
 10
14914.80217064596
 20
953.874748214644
 30
0.0
 11
14914.80217064596
 21
973.8747482146434
 31
0.0
1001
AUTOCAD_POSTSCRIPT_FIGURE
1002
{
1000
PSFILL
1000
Grayscale
1000
Grayscale
1070
    25
1002
}
  0
LINE
  5
16ACC
330
167D3
100
AcDbEntity
  8
YODOROGO
100
AcDbLine
 10
14914.80217064596
 20
973.8747482146434
 30
0.0
 11
14988.80217064596
 21
973.8747482146434
 31
0.0
1001
AUTOCAD_POSTSCRIPT_FIGURE
1002
{
1000
PSFILL
1000
Grayscale
1000
Grayscale
1070
    25
1002
}
  0
LINE
  5
16ACD
330
167D3
100
AcDbEntity
  8
YODOROGO
100
AcDbLine
 10
14988.80217064596
 20
973.8747482146434
 30
0.0
 11
14988.80217064596
 21
997.8747482146435
 31
0.0
1001
AUTOCAD_POSTSCRIPT_FIGURE
1002
{
1000
PSFILL
1000
Grayscale
1000
Grayscale
1070
    25
1002
}
  0
LINE
  5
16ACE
330
167D3
100
AcDbEntity
  8
YODOROGO
100
AcDbLine
 10
14988.80217064596
 20
997.8747482146435
 30
0.0
 11
14914.80217064596
 21
997.8747482146435
 31
0.0
1001
AUTOCAD_POSTSCRIPT_FIGURE
1002
{
1000
PSFILL
1000
Grayscale
1000
Grayscale
1070
    25
1002
}
  0
LINE
  5
16ACF
330
167D3
100
AcDbEntity
  8
YODOROGO
100
AcDbLine
 10
14914.80217064596
 20
997.8747482146435
 30
0.0
 11
14914.80217064596
 21
1013.874748214644
 31
0.0
1001
AUTOCAD_POSTSCRIPT_FIGURE
1002
{
1000
PSFILL
1000
Grayscale
1000
Grayscale
1070
    25
1002
}
  0
LINE
  5
16AD0
330
167D3
100
AcDbEntity
  8
YODOROGO
100
AcDbLine
 10
14914.80217064596
 20
1013.874748214644
 30
0.0
 11
14882.80217064596
 21
1013.874748214644
 31
0.0
1001
AUTOCAD_POSTSCRIPT_FIGURE
1002
{
1000
PSFILL
1000
Grayscale
1000
Grayscale
1070
    25
1002
}
  0
LINE
  5
16AD1
330
167D3
100
AcDbEntity
  8
YODOROGO
100
AcDbLine
 10
14882.80217064596
 20
1013.874748214644
 30
0.0
 11
14882.80217064596
 21
997.8747482146435
 31
0.0
1001
AUTOCAD_POSTSCRIPT_FIGURE
1002
{
1000
PSFILL
1000
Grayscale
1000
Grayscale
1070
    25
1002
}
  0
LINE
  5
16AD2
330
167D3
100
AcDbEntity
  8
YODOROGO
100
AcDbLine
 10
14882.80217064596
 20
997.8747482146435
 30
0.0
 11
14832.80217064596
 21
997.8747482146435
 31
0.0
1001
AUTOCAD_POSTSCRIPT_FIGURE
1002
{
1000
PSFILL
1000
Grayscale
1000
Grayscale
1070
    25
1002
}
  0
LINE
  5
16AD3
330
167D3
100
AcDbEntity
  8
YODOROGO
100
AcDbLine
 10
14832.80217064596
 20
997.8747482146435
 30
0.0
 11
14832.80217064596
 21
1013.874748214644
 31
0.0
1001
AUTOCAD_POSTSCRIPT_FIGURE
1002
{
1000
PSFILL
1000
Grayscale
1000
Grayscale
1070
    25
1002
}
  0
LINE
  5
16AD4
330
167D3
100
AcDbEntity
  8
YODOROGO
100
AcDbLine
 10
14832.80217064596
 20
1013.874748214644
 30
0.0
 11
14808.80217064596
 21
1013.874748214644
 31
0.0
1001
AUTOCAD_POSTSCRIPT_FIGURE
1002
{
1000
PSFILL
1000
Grayscale
1000
Grayscale
1070
    25
1002
}
  0
LINE
  5
16AD5
330
167D3
100
AcDbEntity
  8
YODOROGO
100
AcDbLine
 10
14808.80217064596
 20
1013.874748214644
 30
0.0
 11
14808.80217064596
 21
973.8747482146434
 31
0.0
1001
AUTOCAD_POSTSCRIPT_FIGURE
1002
{
1000
PSFILL
1000
Grayscale
1000
Grayscale
1070
    25
1002
}
  0
LINE
  5
16AD6
330
167D3
100
AcDbEntity
  8
YODOROGO
100
AcDbLine
 10
14808.80217064596
 20
973.8747482146434
 30
0.0
 11
14882.80217064596
 21
973.8747482146434
 31
0.0
1001
AUTOCAD_POSTSCRIPT_FIGURE
1002
{
1000
PSFILL
1000
Grayscale
1000
Grayscale
1070
    25
1002
}
  0
LINE
  5
16AD7
330
167D3
100
AcDbEntity
  8
YODOROGO
100
AcDbLine
 10
14882.80217064596
 20
973.8747482146434
 30
0.0
 11
14882.80217064596
 21
953.874748214644
 31
0.0
1001
AUTOCAD_POSTSCRIPT_FIGURE
1002
{
1000
PSFILL
1000
Grayscale
1000
Grayscale
1070
    25
1002
}
  0
LINE
  5
16AD8
330
167D3
100
AcDbEntity
  8
YODOROGO
100
AcDbLine
 10
14882.80217064596
 20
953.874748214644
 30
0.0
 11
14808.80217064596
 21
953.874748214644
 31
0.0
1001
AUTOCAD_POSTSCRIPT_FIGURE
1002
{
1000
PSFILL
1000
Grayscale
1000
Grayscale
1070
    25
1002
}
  0
LINE
  5
16AD9
330
167D3
100
AcDbEntity
  8
YODOROGO
100
AcDbLine
 10
14808.80217064596
 20
953.874748214644
 30
0.0
 11
14808.80217064596
 21
929.874748214644
 31
0.0
1001
AUTOCAD_POSTSCRIPT_FIGURE
1002
{
1000
PSFILL
1000
Grayscale
1000
Grayscale
1070
    25
1002
}
  0
LINE
  5
16ADA
330
167D3
100
AcDbEntity
  8
YODOROGO
100
AcDbLine
 10
14808.80217064596
 20
929.874748214644
 30
0.0
 11
14882.80217064596
 21
929.874748214644
 31
0.0
1001
AUTOCAD_POSTSCRIPT_FIGURE
1002
{
1000
PSFILL
1000
Grayscale
1000
Grayscale
1070
    25
1002
}
  0
LINE
  5
16ADB
330
167D3
100
AcDbEntity
  8
YODOROGO
100
AcDbLine
 10
14882.80217064596
 20
929.874748214644
 30
0.0
 11
14882.80217064596
 21
909.8747482146439
 31
0.0
1001
AUTOCAD_POSTSCRIPT_FIGURE
1002
{
1000
PSFILL
1000
Grayscale
1000
Grayscale
1070
    25
1002
}
  0
LINE
  5
16ADC
330
167D3
100
AcDbEntity
  8
YODOROGO
100
AcDbLine
 10
14882.80217064596
 20
909.8747482146439
 30
0.0
 11
14808.80217064596
 21
909.8747482146439
 31
0.0
1001
AUTOCAD_POSTSCRIPT_FIGURE
1002
{
1000
PSFILL
1000
Grayscale
1000
Grayscale
1070
    25
1002
}
  0
LINE
  5
16ADD
330
167D3
100
AcDbEntity
  8
YODOROGO
100
AcDbLine
 10
14808.80217064596
 20
909.8747482146439
 30
0.0
 11
14808.80217064596
 21
853.874748214644
 31
0.0
1001
AUTOCAD_POSTSCRIPT_FIGURE
1002
{
1000
PSFILL
1000
Grayscale
1000
Grayscale
1070
    25
1002
}
  0
LINE
  5
16ADE
330
167D3
100
AcDbEntity
  8
YODOROGO
100
AcDbLine
 10
14808.80217064596
 20
853.874748214644
 30
0.0
 11
14836.80217064596
 21
853.874748214644
 31
0.0
1001
AUTOCAD_POSTSCRIPT_FIGURE
1002
{
1000
PSFILL
1000
Grayscale
1000
Grayscale
1070
    25
1002
}
  0
LINE
  5
16ADF
330
167D3
100
AcDbEntity
  8
YODOROGO
100
AcDbLine
 10
14836.80217064596
 20
853.874748214644
 30
0.0
 11
14836.80217064596
 21
885.8747482146441
 31
0.0
1001
AUTOCAD_POSTSCRIPT_FIGURE
1002
{
1000
PSFILL
1000
Grayscale
1000
Grayscale
1070
    25
1002
}
  0
LINE
  5
16AE0
330
167D3
100
AcDbEntity
  8
YODOROGO
100
AcDbLine
 10
14968.80217064596
 20
740.6696674577553
 30
0.0
 11
14968.80217064596
 21
797.2655452655705
 31
0.0
  0
ARC
  5
16AE1
330
167D3
100
AcDbEntity
  8
YODOROGO
100
AcDbCircle
 10
15127.17387491394
 20
903.9323046166312
 30
0.0
 40
190.9434321028236
100
AcDbArc
 50
213.9611167766784
 51
264.4787207431779
  0
LINE
  5
16AE2
330
167D3
100
AcDbEntity
  8
YODOROGO
100
AcDbLine
 10
15108.80217064596
 20
713.8747482146428
 30
0.0
 11
15108.80217064596
 21
773.874748214644
 31
0.0
  0
ARC
  5
16AE3
330
167D3
100
AcDbEntity
  8
YODOROGO
100
AcDbCircle
 10
15115.02941435022
 20
934.4428574765011
 30
0.0
 40
160.6888181426452
100
AcDbArc
 50
260.6062929797
 51
267.7790355655591
  0
LINE
  5
16AE4
330
167D3
100
AcDbEntity
  8
YODOROGO
100
AcDbLine
 10
15088.80217064596
 20
775.9088612367134
 30
0.0
 11
15094.80217064596
 21
801.8747482146444
 31
0.0
  0
LINE
  5
16AE5
330
167D3
100
AcDbEntity
  8
YODOROGO
100
AcDbLine
 10
15094.80217064596
 20
801.8747482146444
 30
0.0
 11
15052.80217064596
 21
801.8747482146444
 31
0.0
  0
LINE
  5
16AE6
330
167D3
100
AcDbEntity
  8
YODOROGO
100
AcDbLine
 10
15052.80217064596
 20
801.8747482146444
 30
0.0
 11
15048.80217064598
 21
788.0364079349501
 31
0.0
  0
ARC
  5
16AE7
330
167D3
100
AcDbEntity
  8
YODOROGO
100
AcDbCircle
 10
15115.02941435068
 20
934.442857476448
 30
0.0
 40
160.6888181426116
100
AcDbArc
 50
228.6181454618984
 51
245.6602892489051
  0
LINE
  5
16AE8
330
167D3
100
AcDbEntity
  8
YODOROGO
100
AcDbLine
 10
15008.80217064596
 20
813.8747482146435
 30
0.0
 11
15108.80217064596
 21
813.8747482146435
 31
0.0
  0
LINE
  5
16AE9
330
167D3
100
AcDbEntity
  8
YODOROGO
100
AcDbLine
 10
15108.80217064596
 20
813.8747482146435
 30
0.0
 11
15108.80217064596
 21
833.8747482146439
 31
0.0
  0
LINE
  5
16AEA
330
167D3
100
AcDbEntity
  8
YODOROGO
100
AcDbLine
 10
15108.80217064596
 20
833.8747482146439
 30
0.0
 11
14974.80217064595
 21
833.8747482146439
 31
0.0
  0
LINE
  5
16AEB
330
167D3
100
AcDbEntity
  8
YODOROGO
100
AcDbLine
 10
14974.80217064595
 20
833.8747482146439
 30
0.0
 11
14974.80217064595
 21
853.874748214644
 31
0.0
  0
LINE
  5
16AEC
330
167D3
100
AcDbEntity
  8
YODOROGO
100
AcDbLine
 10
14974.80217064595
 20
853.874748214644
 30
0.0
 11
14942.80217064596
 21
853.874748214644
 31
0.0
  0
LINE
  5
16AED
330
167D3
100
AcDbEntity
  8
YODOROGO
100
AcDbLine
 10
14942.80217064596
 20
853.874748214644
 30
0.0
 11
14942.80217064596
 21
833.8747482146439
 31
0.0
  0
LINE
  5
16AEE
330
167D3
100
AcDbEntity
  8
YODOROGO
100
AcDbLine
 10
14942.80217064596
 20
833.8747482146439
 30
0.0
 11
14808.80217064596
 21
833.8747482146439
 31
0.0
  0
LINE
  5
16AEF
330
167D3
100
AcDbEntity
  8
YODOROGO
100
AcDbLine
 10
14808.80217064596
 20
833.8747482146439
 30
0.0
 11
14808.80217064596
 21
813.8747482146435
 31
0.0
  0
LINE
  5
16AF0
330
167D3
100
AcDbEntity
  8
YODOROGO
100
AcDbLine
 10
14808.80217064596
 20
813.8747482146435
 30
0.0
 11
14856.47231434973
 21
813.8747482146435
 31
0.0
  0
LINE
  5
16AF1
330
167D3
100
AcDbEntity
  8
YODOROGO
100
AcDbLine
 10
14856.47231434973
 20
813.8747482146435
 30
0.0
 11
14808.80217064596
 21
773.874748214644
 31
0.0
  0
LINE
  5
16AF2
330
167D3
100
AcDbEntity
  8
YODOROGO
100
AcDbLine
 10
14808.80217064596
 20
773.874748214644
 30
0.0
 11
14808.80217064596
 21
713.8747482146436
 31
0.0
  0
LINE
  5
16AF3
330
167D3
100
AcDbEntity
  8
YODOROGO
100
AcDbLine
 10
14808.80217064596
 20
713.8747482146436
 30
0.0
 11
14868.80217064596
 21
764.2207260852818
 31
0.0
  0
LINE
  5
16AF4
330
167D3
100
AcDbEntity
  8
YODOROGO
100
AcDbLine
 10
14868.80217064596
 20
764.2207260852818
 30
0.0
 11
14868.80217064596
 21
713.8747482146436
 31
0.0
  0
LINE
  5
16AF5
330
167D3
100
AcDbEntity
  8
YODOROGO
100
AcDbLine
 10
14868.80217064596
 20
713.8747482146436
 30
0.0
 11
14968.80217064596
 21
740.6696674577553
 31
0.0
  0
LINE
  5
16AF6
330
167D3
100
AcDbEntity
  8
YODOROGO
100
AcDbLine
 10
14888.80217064596
 20
813.8747482146435
 30
0.0
 11
14888.80217064596
 21
781.0027187088283
 31
0.0
  0
LINE
  5
16AF7
330
167D3
100
AcDbEntity
  8
YODOROGO
100
AcDbLine
 10
14888.80217064596
 20
781.0027187088283
 30
0.0
 11
14885.70493649264
 21
778.403830673117
 31
0.0
  0
LINE
  5
16AF8
330
167D3
100
AcDbEntity
  8
YODOROGO
100
AcDbLine
 10
14885.70493649264
 20
778.403830673117
 30
0.0
 11
14966.89206625426
 21
800.1578565285436
 31
0.0
  0
ARC
  5
16AF9
330
167D3
100
AcDbEntity
  8
YODOROGO
100
AcDbCircle
 10
15127.17387491396
 20
903.9323046166616
 30
0.0
 40
190.9434321028459
100
AcDbArc
 50
208.1411442048688
 51
212.9210361186024
  0
LINE
  5
16AFA
330
167D3
100
AcDbEntity
  8
YODOROGO
100
AcDbLine
 10
14958.80217064596
 20
813.8747482146435
 30
0.0
 11
14888.80217064596
 21
813.8747482146435
 31
0.0
  0
LINE
  5
16AFB
330
167D3
100
AcDbEntity
  8
YODOROGO
100
AcDbLine
 10
14968.80217064596
 20
740.6696674577553
 30
0.0
 11
14968.80217064596
 21
797.2655452655705
 31
0.0
  0
ARC
  5
16AFC
330
167D3
100
AcDbEntity
  8
YODOROGO
100
AcDbCircle
 10
15127.17387491394
 20
903.9323046166312
 30
0.0
 40
190.9434321028236
100
AcDbArc
 50
213.9611167766784
 51
264.4787207431779
  0
LINE
  5
16AFD
330
167D3
100
AcDbEntity
  8
YODOROGO
100
AcDbLine
 10
15108.80217064596
 20
713.8747482146428
 30
0.0
 11
15108.80217064596
 21
773.874748214644
 31
0.0
  0
ARC
  5
16AFE
330
167D3
100
AcDbEntity
  8
YODOROGO
100
AcDbCircle
 10
15115.02941435022
 20
934.4428574765011
 30
0.0
 40
160.6888181426452
100
AcDbArc
 50
260.6062929797
 51
267.7790355655591
  0
LINE
  5
16AFF
330
167D3
100
AcDbEntity
  8
YODOROGO
100
AcDbLine
 10
15088.80217064596
 20
775.9088612367134
 30
0.0
 11
15094.80217064596
 21
801.8747482146444
 31
0.0
  0
LINE
  5
16B00
330
167D3
100
AcDbEntity
  8
YODOROGO
100
AcDbLine
 10
15094.80217064596
 20
801.8747482146444
 30
0.0
 11
15052.80217064596
 21
801.8747482146444
 31
0.0
  0
LINE
  5
16B01
330
167D3
100
AcDbEntity
  8
YODOROGO
100
AcDbLine
 10
15052.80217064596
 20
801.8747482146444
 30
0.0
 11
15048.80217064598
 21
788.0364079349501
 31
0.0
  0
ARC
  5
16B02
330
167D3
100
AcDbEntity
  8
YODOROGO
100
AcDbCircle
 10
15115.02941435068
 20
934.442857476448
 30
0.0
 40
160.6888181426116
100
AcDbArc
 50
228.6181454618984
 51
245.6602892489051
  0
LINE
  5
16B03
330
167D3
100
AcDbEntity
  8
YODOROGO
100
AcDbLine
 10
15008.80217064596
 20
813.8747482146435
 30
0.0
 11
15108.80217064596
 21
813.8747482146435
 31
0.0
  0
LINE
  5
16B04
330
167D3
100
AcDbEntity
  8
YODOROGO
100
AcDbLine
 10
15108.80217064596
 20
813.8747482146435
 30
0.0
 11
15108.80217064596
 21
833.8747482146439
 31
0.0
  0
LINE
  5
16B05
330
167D3
100
AcDbEntity
  8
YODOROGO
100
AcDbLine
 10
15108.80217064596
 20
833.8747482146439
 30
0.0
 11
14974.80217064595
 21
833.8747482146439
 31
0.0
  0
LINE
  5
16B06
330
167D3
100
AcDbEntity
  8
YODOROGO
100
AcDbLine
 10
14974.80217064595
 20
833.8747482146439
 30
0.0
 11
14974.80217064595
 21
853.874748214644
 31
0.0
  0
LINE
  5
16B07
330
167D3
100
AcDbEntity
  8
YODOROGO
100
AcDbLine
 10
14974.80217064595
 20
853.874748214644
 30
0.0
 11
14942.80217064596
 21
853.874748214644
 31
0.0
  0
LINE
  5
16B08
330
167D3
100
AcDbEntity
  8
YODOROGO
100
AcDbLine
 10
14942.80217064596
 20
853.874748214644
 30
0.0
 11
14942.80217064596
 21
833.8747482146439
 31
0.0
  0
LINE
  5
16B09
330
167D3
100
AcDbEntity
  8
YODOROGO
100
AcDbLine
 10
14942.80217064596
 20
833.8747482146439
 30
0.0
 11
14808.80217064596
 21
833.8747482146439
 31
0.0
  0
LINE
  5
16B0A
330
167D3
100
AcDbEntity
  8
YODOROGO
100
AcDbLine
 10
14808.80217064596
 20
833.8747482146439
 30
0.0
 11
14808.80217064596
 21
813.8747482146435
 31
0.0
  0
LINE
  5
16B0B
330
167D3
100
AcDbEntity
  8
YODOROGO
100
AcDbLine
 10
14808.80217064596
 20
813.8747482146435
 30
0.0
 11
14856.47231434973
 21
813.8747482146435
 31
0.0
  0
LINE
  5
16B0C
330
167D3
100
AcDbEntity
  8
YODOROGO
100
AcDbLine
 10
14856.47231434973
 20
813.8747482146435
 30
0.0
 11
14808.80217064596
 21
773.874748214644
 31
0.0
  0
LINE
  5
16B0D
330
167D3
100
AcDbEntity
  8
YODOROGO
100
AcDbLine
 10
14808.80217064596
 20
773.874748214644
 30
0.0
 11
14808.80217064596
 21
713.8747482146436
 31
0.0
  0
LINE
  5
16B0E
330
167D3
100
AcDbEntity
  8
YODOROGO
100
AcDbLine
 10
14808.80217064596
 20
713.8747482146436
 30
0.0
 11
14868.80217064596
 21
764.2207260852818
 31
0.0
  0
LINE
  5
16B0F
330
167D3
100
AcDbEntity
  8
YODOROGO
100
AcDbLine
 10
14868.80217064596
 20
764.2207260852818
 30
0.0
 11
14868.80217064596
 21
713.8747482146436
 31
0.0
  0
LINE
  5
16B10
330
167D3
100
AcDbEntity
  8
YODOROGO
100
AcDbLine
 10
14868.80217064596
 20
713.8747482146436
 30
0.0
 11
14968.80217064596
 21
740.6696674577553
 31
0.0
  0
LINE
  5
16B11
330
167D3
100
AcDbEntity
  8
SUNPOU
100
AcDbLine
 10
6608.174718195286
 20
6912.341779768404
 30
0.0
 11
6608.174718195286
 21
6297.341779768403
 31
0.0
  0
LINE
  5
16B12
330
167D3
100
AcDbEntity
  8
SUNPOU
100
AcDbLine
 10
10108.17471819527
 20
6912.341779768404
 30
0.0
 11
10108.17471819527
 21
6297.341779768403
 31
0.0
  0
LINE
  5
16B13
330
167D3
100
AcDbEntity
  8
SUNPOU
100
AcDbLine
 10
6628.174718195286
 20
6342.341779768403
 30
0.0
 11
10088.17471819527
 21
6342.341779768403
 31
0.0
  0
LINE
  5
16B14
330
167D3
100
AcDbEntity
  8
SUNPOU
100
AcDbLine
 10
5340.122937215778
 20
2983.645586089689
 30
0.0
 11
5215.769541215022
 21
2983.645586089689
 31
0.0
  0
LINE
  5
16B15
330
167D3
100
AcDbEntity
  8
SUNPOU
100
AcDbLine
 10
5340.122937215778
 20
2823.645586089688
 30
0.0
 11
5215.769541215022
 21
2823.645586089688
 31
0.0
  0
LINE
  5
16B16
330
167D3
100
AcDbEntity
  8
SUNPOU
100
AcDbLine
 10
5260.769541215022
 20
2963.645586089689
 30
0.0
 11
5260.769541215022
 21
2843.645586089688
 31
0.0
  0
LINE
  5
16B17
330
167D3
100
AcDbEntity
  8
SUNPOU
100
AcDbLine
 10
5260.769541215022
 20
2823.645586089688
 30
0.0
 11
5260.769541215022
 21
2567.931300375403
 31
0.0
  0
LINE
  5
16B18
330
167D3
100
AcDbEntity
  8
SUNPOU
100
AcDbLine
 10
5500.122937215781
 20
3751.645586089699
 30
0.0
 11
4991.95933919114
 21
3751.645586089699
 31
0.0
  0
LINE
  5
16B19
330
167D3
100
AcDbEntity
  8
SUNPOU
100
AcDbLine
 10
5340.122937215778
 20
2823.645586089688
 30
0.0
 11
4991.95933919114
 21
2823.645586089688
 31
0.0
  0
LINE
  5
16B1A
330
167D3
100
AcDbEntity
  8
SUNPOU
100
AcDbLine
 10
5036.95933919114
 20
3731.6455860897
 30
0.0
 11
5036.95933919114
 21
2843.645586089689
 31
0.0
  0
LINE
  5
16B1B
330
167D3
100
AcDbEntity
  8
SUNPOU
100
AcDbLine
 10
9352.208556921903
 20
2983.645586089688
 30
0.0
 11
8722.067503157843
 21
2983.645586089688
 31
0.0
  0
LINE
  5
16B1C
330
167D3
100
AcDbEntity
  8
SUNPOU
100
AcDbLine
 10
9352.208556921903
 20
2823.645586089688
 30
0.0
 11
8722.067503157843
 21
2823.645586089688
 31
0.0
  0
LINE
  5
16B1D
330
167D3
100
AcDbEntity
  8
SUNPOU
100
AcDbLine
 10
8767.067503157843
 20
2963.645586089688
 30
0.0
 11
8767.067503157843
 21
2843.645586089689
 31
0.0
  0
LINE
  5
16B1E
330
167D3
100
AcDbEntity
  8
SUNPOU
100
AcDbLine
 10
8767.067503157843
 20
2823.645586089688
 30
0.0
 11
8767.067503157843
 21
2567.931300375404
 31
0.0
  0
LINE
  5
16B1F
330
167D3
100
AcDbEntity
  8
SUNPOU
100
AcDbLine
 10
8952.208556921906
 20
3751.645586089697
 30
0.0
 11
8509.445028916262
 21
3751.645586089697
 31
0.0
  0
LINE
  5
16B20
330
167D3
100
AcDbEntity
  8
SUNPOU
100
AcDbLine
 10
9352.208556921903
 20
2823.645586089688
 30
0.0
 11
8509.445028916262
 21
2823.645586089688
 31
0.0
  0
LINE
  5
16B21
330
167D3
100
AcDbEntity
  8
SUNPOU
100
AcDbLine
 10
8554.44502891626
 20
3731.645586089697
 30
0.0
 11
8554.44502891626
 21
2843.645586089689
 31
0.0
  0
LINE
  5
16B22
330
167D3
100
AcDbEntity
  8
SUNPOU
100
AcDbLine
 10
9408.174718195288
 20
8697.341779768404
 30
0.0
 11
9408.174718195288
 21
8392.341779768404
 31
0.0
  0
LINE
  5
16B23
330
167D3
100
AcDbEntity
  8
SUNPOU
100
AcDbLine
 10
10108.17471819527
 20
8697.341779768404
 30
0.0
 11
10108.17471819527
 21
8392.341779768404
 31
0.0
  0
LINE
  5
16B24
330
167D3
100
AcDbEntity
  8
SUNPOU
100
AcDbLine
 10
9428.174718195284
 20
8437.341779768404
 30
0.0
 11
10088.17471819527
 21
8437.341779768404
 31
0.0
  0
LINE
  5
16B25
330
167D3
100
AcDbEntity
  8
SUNPOU
100
AcDbLine
 10
9368.174718195289
 20
9437.341779768406
 30
0.0
 11
9063.174718195281
 21
9437.341779768406
 31
0.0
  0
LINE
  5
16B26
330
167D3
100
AcDbEntity
  8
SUNPOU
100
AcDbLine
 10
9368.174718195289
 20
8737.341779768405
 30
0.0
 11
9063.174718195281
 21
8737.341779768405
 31
0.0
  0
LINE
  5
16B27
330
167D3
100
AcDbEntity
  8
SUNPOU
100
AcDbLine
 10
9108.174718195284
 20
9417.341779768404
 30
0.0
 11
9108.174718195284
 21
8757.341779768403
 31
0.0
  0
LINE
  5
16B28
330
167D3
100
AcDbEntity
  8
SUNPOU
100
AcDbLine
 10
12945.66426001041
 20
4030.897783254649
 30
0.0
 11
13618.73268909785
 21
4030.897783254649
 31
0.0
  0
LINE
  5
16B29
330
167D3
100
AcDbEntity
  8
SUNPOU
100
AcDbLine
 10
12945.66426001041
 20
4190.89778325465
 30
0.0
 11
13618.73268909786
 21
4190.89778325465
 31
0.0
  0
LINE
  5
16B2A
330
167D3
100
AcDbEntity
  8
SUNPOU
100
AcDbLine
 10
13573.73268909787
 20
4050.897783254649
 30
0.0
 11
13573.73268909787
 21
4170.89778325465
 31
0.0
  0
LINE
  5
16B2B
330
167D3
100
AcDbEntity
  8
SUNPOU
100
AcDbLine
 10
13573.73268909787
 20
4190.89778325465
 30
0.0
 11
13573.73268909787
 21
4398.040640397506
 31
0.0
  0
LINE
  5
16B2C
330
167D3
100
AcDbEntity
  8
SUNPOU
100
AcDbLine
 10
12945.66426001041
 20
4030.897783254649
 30
0.0
 11
13618.73268909786
 21
4030.897783254649
 31
0.0
  0
LINE
  5
16B2D
330
167D3
100
AcDbEntity
  8
SUNPOU
100
AcDbLine
 10
13201.66426001041
 20
3922.897783254649
 30
0.0
 11
13618.73268909786
 21
3922.897783254649
 31
0.0
  0
LINE
  5
16B2E
330
167D3
100
AcDbEntity
  8
SUNPOU
100
AcDbLine
 10
13573.73268909787
 20
4050.897783254649
 30
0.0
 11
13573.73268909787
 21
4070.89778325465
 31
0.0
  0
LINE
  5
16B2F
330
167D3
100
AcDbEntity
  8
SUNPOU
100
AcDbLine
 10
13573.73268909787
 20
3902.897783254649
 30
0.0
 11
13573.73268909787
 21
3695.754926111793
 31
0.0
  0
LINE
  5
16B30
330
167D3
100
AcDbEntity
  8
SUNPOU
100
AcDbLine
 10
13573.73268909787
 20
4030.897783254649
 30
0.0
 11
13573.73268909787
 21
3922.897783254649
 31
0.0
  0
LINE
  5
16B31
330
167D3
100
AcDbEntity
  8
SUNPOU
100
AcDbLine
 10
8952.208556921906
 20
3623.645586089693
 30
0.0
 11
8722.067503157843
 21
3623.645586089693
 31
0.0
  0
LINE
  5
16B32
330
167D3
100
AcDbEntity
  8
SUNPOU
100
AcDbLine
 10
8952.208556921906
 20
3495.645586089688
 30
0.0
 11
8722.067503157843
 21
3495.645586089688
 31
0.0
  0
LINE
  5
16B33
330
167D3
100
AcDbEntity
  8
SUNPOU
100
AcDbLine
 10
8767.067503157843
 20
3643.645586089693
 30
0.0
 11
8767.067503157843
 21
3663.645586089693
 31
0.0
  0
LINE
  5
16B34
330
167D3
100
AcDbEntity
  8
SUNPOU
100
AcDbLine
 10
8767.067503157843
 20
3475.645586089688
 30
0.0
 11
8767.067503157843
 21
3455.645586089689
 31
0.0
  0
LINE
  5
16B35
330
167D3
100
AcDbEntity
  8
SUNPOU
100
AcDbLine
 10
8767.067503157843
 20
3623.645586089693
 30
0.0
 11
8767.067503157843
 21
3495.645586089688
 31
0.0
  0
LINE
  5
16B36
330
167D3
100
AcDbEntity
  8
SUNPOU
100
AcDbLine
 10
8952.208556921906
 20
3623.645586089693
 30
0.0
 11
8722.067503157843
 21
3623.645586089693
 31
0.0
  0
LINE
  5
16B37
330
167D3
100
AcDbEntity
  8
SUNPOU
100
AcDbLine
 10
8952.208556921906
 20
3751.645586089699
 30
0.0
 11
8722.067503157843
 21
3751.645586089699
 31
0.0
  0
LINE
  5
16B38
330
167D3
100
AcDbEntity
  8
SUNPOU
100
AcDbLine
 10
8767.067503157843
 20
3603.645586089692
 30
0.0
 11
8767.067503157843
 21
3583.645586089693
 31
0.0
  0
LINE
  5
16B39
330
167D3
100
AcDbEntity
  8
SUNPOU
100
AcDbLine
 10
8767.067503157843
 20
3771.645586089699
 30
0.0
 11
8767.067503157843
 21
3978.788443232556
 31
0.0
  0
LINE
  5
16B3A
330
167D3
100
AcDbEntity
  8
SUNPOU
100
AcDbLine
 10
8767.067503157843
 20
3623.645586089693
 30
0.0
 11
8767.067503157843
 21
3751.645586089699
 31
0.0
  0
LINE
  5
16B3B
330
167D3
100
AcDbEntity
  8
SUNPOU
100
AcDbLine
 10
9352.208556921903
 20
2983.645586089688
 30
0.0
 11
8722.067503157843
 21
2983.645586089688
 31
0.0
  0
LINE
  5
16B3C
330
167D3
100
AcDbEntity
  8
SUNPOU
100
AcDbLine
 10
8952.208556921906
 20
3495.645586089688
 30
0.0
 11
8722.067503157843
 21
3495.645586089688
 31
0.0
  0
LINE
  5
16B3D
330
167D3
100
AcDbEntity
  8
SUNPOU
100
AcDbLine
 10
8767.067503157843
 20
3003.645586089688
 30
0.0
 11
8767.067503157843
 21
3475.645586089688
 31
0.0
  0
LINE
  5
16B3E
330
167D3
100
AcDbEntity
  8
SUNPOU
100
AcDbLine
 10
13081.66426001041
 20
2764.705090723239
 30
0.0
 11
13081.66426001041
 21
2505.365723386175
 31
0.0
  0
LINE
  5
16B3F
330
167D3
100
AcDbEntity
  8
SUNPOU
100
AcDbLine
 10
13161.66426001041
 20
2804.705090723239
 30
0.0
 11
13161.66426001041
 21
2505.365723386175
 31
0.0
  0
LINE
  5
16B40
330
167D3
100
AcDbEntity
  8
SUNPOU
100
AcDbLine
 10
13061.66426001041
 20
2550.365723386175
 30
0.0
 11
13041.66426001041
 21
2550.365723386175
 31
0.0
  0
LINE
  5
16B41
330
167D3
100
AcDbEntity
  8
SUNPOU
100
AcDbLine
 10
13181.66426001041
 20
2550.365723386175
 30
0.0
 11
13388.80711715327
 21
2550.365723386175
 31
0.0
  0
LINE
  5
16B42
330
167D3
100
AcDbEntity
  8
SUNPOU
100
AcDbLine
 10
13081.66426001041
 20
2550.365723386175
 30
0.0
 11
13161.66426001041
 21
2550.365723386175
 31
0.0
  0
LINE
  5
16B43
330
167D3
100
AcDbEntity
  8
SUNPOU
100
AcDbLine
 10
12601.66426001043
 20
2764.705090723239
 30
0.0
 11
12601.66426001043
 21
2505.365723386175
 31
0.0
  0
LINE
  5
16B44
330
167D3
100
AcDbEntity
  8
SUNPOU
100
AcDbLine
 10
13081.66426001041
 20
2764.705090723239
 30
0.0
 11
13081.66426001041
 21
2505.365723386175
 31
0.0
  0
LINE
  5
16B45
330
167D3
100
AcDbEntity
  8
SUNPOU
100
AcDbLine
 10
12621.66426001043
 20
2550.365723386175
 30
0.0
 11
13061.66426001041
 21
2550.365723386175
 31
0.0
  0
LINE
  5
16B46
330
167D3
100
AcDbEntity
  8
SUNPOU
100
AcDbLine
 10
12601.66426001043
 20
2764.705090723239
 30
0.0
 11
12601.66426001043
 21
2505.365723386175
 31
0.0
  0
LINE
  5
16B47
330
167D3
100
AcDbEntity
  8
SUNPOU
100
AcDbLine
 10
12521.6642600104
 20
2804.705090723239
 30
0.0
 11
12521.6642600104
 21
2505.365723386175
 31
0.0
  0
LINE
  5
16B48
330
167D3
100
AcDbEntity
  8
SUNPOU
100
AcDbLine
 10
12621.66426001043
 20
2550.365723386175
 30
0.0
 11
12641.66426001043
 21
2550.365723386175
 31
0.0
  0
LINE
  5
16B49
330
167D3
100
AcDbEntity
  8
SUNPOU
100
AcDbLine
 10
12501.6642600104
 20
2550.365723386175
 30
0.0
 11
12294.52140286754
 21
2550.365723386175
 31
0.0
  0
LINE
  5
16B4A
330
167D3
100
AcDbEntity
  8
SUNPOU
100
AcDbLine
 10
12601.66426001043
 20
2550.365723386175
 30
0.0
 11
12521.6642600104
 21
2550.365723386175
 31
0.0
  0
LINE
  5
16B4B
330
167D3
100
AcDbEntity
  8
SUNPOU
100
AcDbLine
 10
12521.6642600104
 20
2804.705090723239
 30
0.0
 11
12521.6642600104
 21
2295.365723386175
 31
0.0
  0
LINE
  5
16B4C
330
167D3
100
AcDbEntity
  8
SUNPOU
100
AcDbLine
 10
13161.66426001041
 20
2804.705090723239
 30
0.0
 11
13161.66426001041
 21
2295.365723386175
 31
0.0
  0
LINE
  5
16B4D
330
167D3
100
AcDbEntity
  8
SUNPOU
100
AcDbLine
 10
12541.66426001041
 20
2340.365723386175
 30
0.0
 11
13141.66426001041
 21
2340.365723386175
 31
0.0
  0
LINE
  5
16B4E
330
167D3
100
AcDbEntity
  8
SUNPOU
100
AcDbLine
 10
12485.6642600104
 20
3004.705090723239
 30
0.0
 11
12173.66426001041
 21
3004.705090723239
 31
0.0
  0
LINE
  5
16B4F
330
167D3
100
AcDbEntity
  8
SUNPOU
100
AcDbLine
 10
12481.6642600104
 20
2844.705090723239
 30
0.0
 11
12173.66426001041
 21
2844.705090723239
 31
0.0
  0
LINE
  5
16B50
330
167D3
100
AcDbEntity
  8
SUNPOU
100
AcDbLine
 10
12218.66426001041
 20
2984.705090723237
 30
0.0
 11
12218.66426001041
 21
2864.705090723239
 31
0.0
  0
LINE
  5
16B51
330
167D3
100
AcDbEntity
  8
SUNPOU
100
AcDbLine
 10
12218.66426001041
 20
2844.705090723239
 30
0.0
 11
12218.66426001041
 21
2637.562233580381
 31
0.0
  0
LINE
  5
16B52
330
167D3
100
AcDbEntity
  8
SUNPOU
100
AcDbLine
 10
12485.6642600104
 20
3004.705090723239
 30
0.0
 11
12173.66426001041
 21
3004.705090723239
 31
0.0
  0
LINE
  5
16B53
330
167D3
100
AcDbEntity
  8
SUNPOU
100
AcDbLine
 10
12481.6642600104
 20
3164.705090723239
 30
0.0
 11
12173.66426001041
 21
3164.705090723239
 31
0.0
  0
LINE
  5
16B54
330
167D3
100
AcDbEntity
  8
SUNPOU
100
AcDbLine
 10
12218.66426001041
 20
3024.705090723239
 30
0.0
 11
12218.66426001041
 21
3144.705090723239
 31
0.0
  0
LINE
  5
16B55
330
167D3
100
AcDbEntity
  8
SUNPOU
100
AcDbLine
 10
12218.66426001041
 20
3164.705090723239
 30
0.0
 11
12218.66426001041
 21
3371.847947866096
 31
0.0
  0
LINE
  5
16B56
330
167D3
100
AcDbEntity
  8
SUNPOU
100
AcDbLine
 10
12481.6642600104
 20
2844.705090723239
 30
0.0
 11
11963.6642600104
 21
2844.705090723239
 31
0.0
  0
LINE
  5
16B57
330
167D3
100
AcDbEntity
  8
SUNPOU
100
AcDbLine
 10
12481.6642600104
 20
3164.705090723239
 30
0.0
 11
11963.6642600104
 21
3164.705090723239
 31
0.0
  0
LINE
  5
16B58
330
167D3
100
AcDbEntity
  8
SUNPOU
100
AcDbLine
 10
12008.66426001041
 20
2864.705090723239
 30
0.0
 11
12008.66426001041
 21
3144.705090723239
 31
0.0
  0
LINE
  5
16B59
330
167D3
100
AcDbEntity
  8
SUNPOU
100
AcDbLine
 10
13081.66426001041
 20
3842.89778325465
 30
0.0
 11
13081.66426001041
 21
3653.731609325148
 31
0.0
  0
LINE
  5
16B5A
330
167D3
100
AcDbEntity
  8
SUNPOU
100
AcDbLine
 10
13161.66426001041
 20
3882.89778325465
 30
0.0
 11
13161.66426001041
 21
3653.731609325148
 31
0.0
  0
LINE
  5
16B5B
330
167D3
100
AcDbEntity
  8
SUNPOU
100
AcDbLine
 10
13061.66426001041
 20
3698.731609325147
 30
0.0
 11
13041.66426001041
 21
3698.731609325147
 31
0.0
  0
LINE
  5
16B5C
330
167D3
100
AcDbEntity
  8
SUNPOU
100
AcDbLine
 10
13181.66426001041
 20
3698.731609325147
 30
0.0
 11
13388.80711715327
 21
3698.731609325147
 31
0.0
  0
LINE
  5
16B5D
330
167D3
100
AcDbEntity
  8
SUNPOU
100
AcDbLine
 10
13081.66426001041
 20
3698.731609325147
 30
0.0
 11
13161.66426001041
 21
3698.731609325147
 31
0.0
  0
LINE
  5
16B5E
330
167D3
100
AcDbEntity
  8
SUNPOU
100
AcDbLine
 10
12601.66426001043
 20
3842.89778325465
 30
0.0
 11
12601.66426001043
 21
3653.731609325148
 31
0.0
  0
LINE
  5
16B5F
330
167D3
100
AcDbEntity
  8
SUNPOU
100
AcDbLine
 10
13081.66426001041
 20
3842.89778325465
 30
0.0
 11
13081.66426001041
 21
3653.731609325148
 31
0.0
  0
LINE
  5
16B60
330
167D3
100
AcDbEntity
  8
SUNPOU
100
AcDbLine
 10
12621.66426001043
 20
3698.731609325147
 30
0.0
 11
13061.66426001041
 21
3698.731609325147
 31
0.0
  0
LINE
  5
16B61
330
167D3
100
AcDbEntity
  8
SUNPOU
100
AcDbLine
 10
12601.66426001043
 20
3842.89778325465
 30
0.0
 11
12601.66426001043
 21
3653.731609325148
 31
0.0
  0
LINE
  5
16B62
330
167D3
100
AcDbEntity
  8
SUNPOU
100
AcDbLine
 10
12521.6642600104
 20
3882.89778325465
 30
0.0
 11
12521.6642600104
 21
3653.731609325148
 31
0.0
  0
LINE
  5
16B63
330
167D3
100
AcDbEntity
  8
SUNPOU
100
AcDbLine
 10
12621.66426001043
 20
3698.731609325147
 30
0.0
 11
12641.66426001043
 21
3698.731609325147
 31
0.0
  0
LINE
  5
16B64
330
167D3
100
AcDbEntity
  8
SUNPOU
100
AcDbLine
 10
12501.6642600104
 20
3698.731609325147
 30
0.0
 11
12294.52140286754
 21
3698.731609325147
 31
0.0
  0
LINE
  5
16B65
330
167D3
100
AcDbEntity
  8
SUNPOU
100
AcDbLine
 10
12601.66426001043
 20
3698.731609325147
 30
0.0
 11
12521.6642600104
 21
3698.731609325147
 31
0.0
  0
LINE
  5
16B66
330
167D3
100
AcDbEntity
  8
SUNPOU
100
AcDbLine
 10
12521.6642600104
 20
3882.89778325465
 30
0.0
 11
12521.6642600104
 21
3443.731609325148
 31
0.0
  0
LINE
  5
16B67
330
167D3
100
AcDbEntity
  8
SUNPOU
100
AcDbLine
 10
13161.66426001041
 20
3882.89778325465
 30
0.0
 11
13161.66426001041
 21
3443.731609325148
 31
0.0
  0
LINE
  5
16B68
330
167D3
100
AcDbEntity
  8
SUNPOU
100
AcDbLine
 10
12541.66426001041
 20
3488.731609325148
 30
0.0
 11
13141.66426001041
 21
3488.731609325148
 31
0.0
  0
LINE
  5
16B69
330
167D3
100
AcDbEntity
  8
SUNPOU
100
AcDbLine
 10
9552.208556921902
 20
2943.645586089688
 30
0.0
 11
9552.208556921902
 21
2376.245586089687
 31
0.0
  0
LINE
  5
16B6A
330
167D3
100
AcDbEntity
  8
SUNPOU
100
AcDbLine
 10
10672.2085569219
 20
2943.645586089688
 30
0.0
 11
10672.2085569219
 21
2376.245586089687
 31
0.0
  0
LINE
  5
16B6B
330
167D3
100
AcDbEntity
  8
SUNPOU
100
AcDbLine
 10
9572.208556921903
 20
2421.245586089687
 30
0.0
 11
10652.2085569219
 21
2421.245586089687
 31
0.0
  0
LINE
  5
16B6C
330
167D3
100
AcDbEntity
  8
SUNPOU
100
AcDbLine
 10
9392.208556921904
 20
2783.645586089688
 30
0.0
 11
9392.208556921904
 21
2166.245586089688
 31
0.0
  0
LINE
  5
16B6D
330
167D3
100
AcDbEntity
  8
SUNPOU
100
AcDbLine
 10
10832.2085569219
 20
2783.645586089688
 30
0.0
 11
10832.2085569219
 21
2166.245586089688
 31
0.0
  0
LINE
  5
16B6E
330
167D3
100
AcDbEntity
  8
SUNPOU
100
AcDbLine
 10
9412.208556921903
 20
2211.245586089688
 30
0.0
 11
10812.2085569219
 21
2211.245586089688
 31
0.0
  0
LINE
  5
16B6F
330
167D3
100
AcDbEntity
  8
SUNPOU
100
AcDbLine
 10
8387.067503157842
 20
3671.645586089699
 30
0.0
 11
8392.067503157843
 21
3671.645586089699
 31
0.0
  0
LINE
  5
16B70
330
167D3
100
AcDbEntity
  8
SUNPOU
100
AcDbLine
 10
8952.208556921906
 20
3751.645586089699
 30
0.0
 11
8302.067503157843
 21
3751.645586089699
 31
0.0
  0
LINE
  5
16B71
330
167D3
100
AcDbEntity
  8
SUNPOU
100
AcDbLine
 10
8347.067503157843
 20
3651.645586089699
 30
0.0
 11
8347.067503157843
 21
3631.645586089699
 31
0.0
  0
LINE
  5
16B72
330
167D3
100
AcDbEntity
  8
SUNPOU
100
AcDbLine
 10
8347.067503157843
 20
3771.645586089699
 30
0.0
 11
8347.067503157843
 21
3978.788443232556
 31
0.0
  0
LINE
  5
16B73
330
167D3
100
AcDbEntity
  8
SUNPOU
100
AcDbLine
 10
8347.067503157843
 20
3671.645586089699
 30
0.0
 11
8347.067503157843
 21
3751.645586089699
 31
0.0
  0
LINE
  5
16B74
330
167D3
100
AcDbEntity
  8
SUNPOU
  6
ByBlock
100
AcDbLine
 10
11657.43906417215
 20
4435.046158226285
 30
0.0
 11
11597.43906417213
 21
4435.046158226285
 31
0.0
  0
LINE
  5
16B75
330
167D3
100
AcDbEntity
  8
SUNPOU
  6
ByBlock
100
AcDbLine
 10
11657.43906417214
 20
4435.046158226285
 30
0.0
 11
11597.43906417214
 21
4451.123109772153
 31
0.0
  0
LINE
  5
16B76
330
167D3
100
AcDbEntity
  8
SUNPOU
  6
ByBlock
100
AcDbLine
 10
11657.43906417215
 20
4435.046158226285
 30
0.0
 11
11597.43906417213
 21
4418.969206680415
 31
0.0
  0
LINE
  5
16B77
330
167D3
100
AcDbEntity
  8
SUNPOU
  6
ByBlock
100
AcDbLine
 10
11597.43906417215
 20
4435.046158226285
 30
0.0
 11
11537.43906417213
 21
4435.046158226285
 31
0.0
  0
LINE
  5
16B78
330
167D3
100
AcDbEntity
  8
SUNPOU
  6
ByBlock
100
AcDbLine
 10
11597.43906417214
 20
4435.046158226285
 30
0.0
 11
11537.43906417214
 21
4451.123109772153
 31
0.0
  0
LINE
  5
16B79
330
167D3
100
AcDbEntity
  8
SUNPOU
  6
ByBlock
100
AcDbLine
 10
11597.43906417215
 20
4435.046158226285
 30
0.0
 11
11537.43906417213
 21
4418.969206680415
 31
0.0
  0
LINE
  5
16B7A
330
167D3
100
AcDbEntity
  8
SUNPOU
100
AcDbLine
 10
10112.2085569219
 20
4475.046158226285
 30
0.0
 11
10112.2085569219
 21
4480.046158226286
 31
0.0
  0
LINE
  5
16B7B
330
167D3
100
AcDbEntity
  8
SUNPOU
100
AcDbLine
 10
8992.208556921905
 20
3791.645586089697
 30
0.0
 11
8992.208556921905
 21
4480.046158226286
 31
0.0
  0
LINE
  5
16B7C
330
167D3
100
AcDbEntity
  8
SUNPOU
100
AcDbLine
 10
10092.20855692189
 20
4435.046158226285
 30
0.0
 11
9012.208556921903
 21
4435.046158226285
 31
0.0
  0
LINE
  5
16B7D
330
167D3
100
AcDbEntity
  8
SUNPOU
100
AcDbLine
 10
5540.122937215781
 20
2943.645586089689
 30
0.0
 11
5540.122937215781
 21
2376.245586089687
 31
0.0
  0
LINE
  5
16B7E
330
167D3
100
AcDbEntity
  8
SUNPOU
100
AcDbLine
 10
6660.122937215781
 20
2943.645586089688
 30
0.0
 11
6660.122937215781
 21
2376.245586089687
 31
0.0
  0
LINE
  5
16B7F
330
167D3
100
AcDbEntity
  8
SUNPOU
100
AcDbLine
 10
5560.122937215782
 20
2421.245586089687
 30
0.0
 11
6640.122937215782
 21
2421.245586089687
 31
0.0
  0
LINE
  5
16B80
330
167D3
100
AcDbEntity
  8
SUNPOU
100
AcDbLine
 10
5380.122937215781
 20
2783.645586089688
 30
0.0
 11
5380.122937215781
 21
2166.245586089688
 31
0.0
  0
LINE
  5
16B81
330
167D3
100
AcDbEntity
  8
SUNPOU
100
AcDbLine
 10
6820.122937215778
 20
2783.645586089688
 30
0.0
 11
6820.122937215778
 21
2166.245586089688
 31
0.0
  0
LINE
  5
16B82
330
167D3
100
AcDbEntity
  8
SUNPOU
100
AcDbLine
 10
5400.122937215781
 20
2211.245586089688
 30
0.0
 11
6800.122937215778
 21
2211.245586089688
 31
0.0
  0
LINE
  5
16B83
330
167D3
100
AcDbEntity
  8
SUNPOU
100
AcDbLine
 10
4880.769541215021
 20
3671.645586089695
 30
0.0
 11
4885.769541215022
 21
3671.645586089695
 31
0.0
  0
LINE
  5
16B84
330
167D3
100
AcDbEntity
  8
SUNPOU
100
AcDbLine
 10
5500.122937215781
 20
3751.645586089699
 30
0.0
 11
4795.769541215022
 21
3751.645586089699
 31
0.0
  0
LINE
  5
16B85
330
167D3
100
AcDbEntity
  8
SUNPOU
100
AcDbLine
 10
4840.769541215022
 20
3651.645586089696
 30
0.0
 11
4840.769541215022
 21
3631.645586089696
 31
0.0
  0
LINE
  5
16B86
330
167D3
100
AcDbEntity
  8
SUNPOU
100
AcDbLine
 10
4840.769541215022
 20
3771.645586089699
 30
0.0
 11
4840.769541215022
 21
3978.788443232556
 31
0.0
  0
LINE
  5
16B87
330
167D3
100
AcDbEntity
  8
SUNPOU
100
AcDbLine
 10
4840.769541215022
 20
3671.645586089695
 30
0.0
 11
4840.769541215022
 21
3751.645586089699
 31
0.0
  0
LINE
  5
16B88
330
167D3
100
AcDbEntity
  8
SUNPOU
100
AcDbLine
 10
5500.122937215781
 20
3623.645586089689
 30
0.0
 11
5215.769541215023
 21
3623.645586089689
 31
0.0
  0
LINE
  5
16B89
330
167D3
100
AcDbEntity
  8
SUNPOU
100
AcDbLine
 10
5500.122937215781
 20
3495.645586089686
 30
0.0
 11
5215.769541215023
 21
3495.645586089686
 31
0.0
  0
LINE
  5
16B8A
330
167D3
100
AcDbEntity
  8
SUNPOU
100
AcDbLine
 10
5260.769541215023
 20
3643.645586089688
 30
0.0
 11
5260.769541215023
 21
3663.645586089689
 31
0.0
  0
LINE
  5
16B8B
330
167D3
100
AcDbEntity
  8
SUNPOU
100
AcDbLine
 10
5260.769541215023
 20
3475.645586089685
 30
0.0
 11
5260.769541215023
 21
3455.645586089686
 31
0.0
  0
LINE
  5
16B8C
330
167D3
100
AcDbEntity
  8
SUNPOU
100
AcDbLine
 10
5260.769541215023
 20
3623.645586089689
 30
0.0
 11
5260.769541215023
 21
3495.645586089686
 31
0.0
  0
LINE
  5
16B8D
330
167D3
100
AcDbEntity
  8
SUNPOU
100
AcDbLine
 10
5500.122937215781
 20
3623.645586089689
 30
0.0
 11
5215.769541215022
 21
3623.645586089689
 31
0.0
  0
LINE
  5
16B8E
330
167D3
100
AcDbEntity
  8
SUNPOU
100
AcDbLine
 10
5500.122937215781
 20
3751.645586089699
 30
0.0
 11
5215.769541215022
 21
3751.645586089699
 31
0.0
  0
LINE
  5
16B8F
330
167D3
100
AcDbEntity
  8
SUNPOU
100
AcDbLine
 10
5260.769541215022
 20
3603.645586089688
 30
0.0
 11
5260.769541215022
 21
3583.645586089689
 31
0.0
  0
LINE
  5
16B90
330
167D3
100
AcDbEntity
  8
SUNPOU
100
AcDbLine
 10
5260.769541215022
 20
3771.645586089699
 30
0.0
 11
5260.769541215022
 21
3978.788443232556
 31
0.0
  0
LINE
  5
16B91
330
167D3
100
AcDbEntity
  8
SUNPOU
100
AcDbLine
 10
5260.769541215022
 20
3623.645586089689
 30
0.0
 11
5260.769541215022
 21
3751.645586089699
 31
0.0
  0
LINE
  5
16B92
330
167D3
100
AcDbEntity
  8
SUNPOU
100
AcDbLine
 10
5340.122937215778
 20
2983.645586089689
 30
0.0
 11
5215.769541215022
 21
2983.645586089689
 31
0.0
  0
LINE
  5
16B93
330
167D3
100
AcDbEntity
  8
SUNPOU
100
AcDbLine
 10
5500.122937215781
 20
3495.645586089686
 30
0.0
 11
5215.769541215022
 21
3495.645586089686
 31
0.0
  0
LINE
  5
16B94
330
167D3
100
AcDbEntity
  8
SUNPOU
100
AcDbLine
 10
5260.769541215022
 20
3003.645586089688
 30
0.0
 11
5260.769541215022
 21
3475.645586089685
 31
0.0
  0
LINE
  5
16B95
330
167D3
100
AcDbEntity
  8
SUNPOU
  6
ByBlock
100
AcDbLine
 10
7645.353444466032
 20
4435.046158226281
 30
0.0
 11
7585.353444466019
 21
4435.046158226281
 31
0.0
  0
LINE
  5
16B96
330
167D3
100
AcDbEntity
  8
SUNPOU
  6
ByBlock
100
AcDbLine
 10
7645.353444466022
 20
4435.046158226281
 30
0.0
 11
7585.353444466021
 21
4451.123109772151
 31
0.0
  0
LINE
  5
16B97
330
167D3
100
AcDbEntity
  8
SUNPOU
  6
ByBlock
100
AcDbLine
 10
7645.353444466032
 20
4435.046158226281
 30
0.0
 11
7585.353444466019
 21
4418.969206680412
 31
0.0
  0
LINE
  5
16B98
330
167D3
100
AcDbEntity
  8
SUNPOU
  6
ByBlock
100
AcDbLine
 10
7585.353444466033
 20
4435.046158226281
 30
0.0
 11
7525.353444466019
 21
4435.046158226281
 31
0.0
  0
LINE
  5
16B99
330
167D3
100
AcDbEntity
  8
SUNPOU
  6
ByBlock
100
AcDbLine
 10
7585.353444466021
 20
4435.046158226281
 30
0.0
 11
7525.353444466022
 21
4451.123109772151
 31
0.0
  0
LINE
  5
16B9A
330
167D3
100
AcDbEntity
  8
SUNPOU
  6
ByBlock
100
AcDbLine
 10
7585.353444466033
 20
4435.046158226281
 30
0.0
 11
7525.353444466019
 21
4418.969206680412
 31
0.0
  0
LINE
  5
16B9B
330
167D3
100
AcDbEntity
  8
SUNPOU
100
AcDbLine
 10
6100.122937215783
 20
4475.046158226281
 30
0.0
 11
6100.122937215783
 21
4480.046158226281
 31
0.0
  0
LINE
  5
16B9C
330
167D3
100
AcDbEntity
  8
SUNPOU
100
AcDbLine
 10
5540.122937215781
 20
3791.645586089698
 30
0.0
 11
5540.122937215781
 21
4480.046158226281
 31
0.0
  0
LINE
  5
16B9D
330
167D3
100
AcDbEntity
  8
SUNPOU
100
AcDbLine
 10
6080.122937215781
 20
4435.046158226281
 30
0.0
 11
5560.122937215782
 21
4435.046158226281
 31
0.0
  0
LINE
  5
16B9E
330
167D3
100
AcDbEntity
  8
SUNPOU
100
AcDbLine
 10
9758.17471819529
 20
6712.341779768404
 30
0.0
 11
9758.17471819529
 21
6507.341779768404
 31
0.0
  0
LINE
  5
16B9F
330
167D3
100
AcDbEntity
  8
SUNPOU
100
AcDbLine
 10
10108.17471819527
 20
6912.341779768404
 30
0.0
 11
10108.17471819527
 21
6507.341779768404
 31
0.0
  0
LINE
  5
16BA0
330
167D3
100
AcDbEntity
  8
SUNPOU
100
AcDbLine
 10
9778.174718195289
 20
6552.341779768404
 30
0.0
 11
10088.17471819527
 21
6552.341779768404
 31
0.0
  0
LINE
  5
16BA1
330
167D3
100
AcDbEntity
  8
SUNPOU
100
AcDbLine
 10
6958.174718195287
 20
6712.341779768403
 30
0.0
 11
6958.174718195287
 21
6507.341779768403
 31
0.0
  0
LINE
  5
16BA2
330
167D3
100
AcDbEntity
  8
SUNPOU
100
AcDbLine
 10
9758.17471819529
 20
6712.341779768404
 30
0.0
 11
9758.17471819529
 21
6507.341779768403
 31
0.0
  0
LINE
  5
16BA3
330
167D3
100
AcDbEntity
  8
SUNPOU
100
AcDbLine
 10
6978.174718195287
 20
6552.341779768403
 30
0.0
 11
9738.174718195288
 21
6552.341779768403
 31
0.0
  0
LINE
  5
16BA4
330
167D3
100
AcDbEntity
  8
SUNPOU
100
AcDbLine
 10
6608.174718195286
 20
6912.341779768404
 30
0.0
 11
6608.174718195286
 21
6507.341779768403
 31
0.0
  0
LINE
  5
16BA5
330
167D3
100
AcDbEntity
  8
SUNPOU
100
AcDbLine
 10
6958.174718195287
 20
6712.341779768403
 30
0.0
 11
6958.174718195287
 21
6507.341779768403
 31
0.0
  0
LINE
  5
16BA6
330
167D3
100
AcDbEntity
  8
SUNPOU
100
AcDbLine
 10
6628.174718195286
 20
6552.341779768403
 30
0.0
 11
6938.174718195288
 21
6552.341779768403
 31
0.0
  0
ARC
  5
16BA7
330
167D3
100
AcDbEntity
  8
SUNPOU
100
AcDbCircle
 10
10568.17471819528
 20
9287.3417797684
 30
0.0
 40
5.625
100
AcDbArc
 50
270.0
 51
90.0
  0
ARC
  5
16BA8
330
167D3
100
AcDbEntity
  8
SUNPOU
100
AcDbCircle
 10
10568.17471819528
 20
9287.3417797684
 30
0.0
 40
5.625
100
AcDbArc
 50
90.0
 51
270.0
  0
ARC
  5
16BA9
330
167D3
100
AcDbEntity
  8
SUNPOU
100
AcDbCircle
 10
10358.17471819528
 20
9287.3417797684
 30
0.0
 40
5.625
100
AcDbArc
 50
270.0
 51
90.0
  0
ARC
  5
16BAA
330
167D3
100
AcDbEntity
  8
SUNPOU
100
AcDbCircle
 10
10358.17471819528
 20
9287.3417797684
 30
0.0
 40
5.625
100
AcDbArc
 50
90.0
 51
270.0
  0
ARC
  5
16BAB
330
167D3
100
AcDbEntity
  8
SUNPOU
100
AcDbCircle
 10
10358.17471819528
 20
9087.341779768399
 30
0.0
 40
5.624999999998181
100
AcDbArc
 50
270.0
 51
90.0
  0
ARC
  5
16BAC
330
167D3
100
AcDbEntity
  8
SUNPOU
100
AcDbCircle
 10
10358.17471819528
 20
9087.341779768399
 30
0.0
 40
5.625
100
AcDbArc
 50
90.0
 51
270.0
  0
ARC
  5
16BAD
330
167D3
100
AcDbEntity
  8
SUNPOU
100
AcDbCircle
 10
10358.17471819528
 20
9087.341779768399
 30
0.0
 40
5.625
100
AcDbArc
 50
90.0
 51
270.0
  0
ARC
  5
16BAE
330
167D3
100
AcDbEntity
  8
SUNPOU
100
AcDbCircle
 10
10358.17471819528
 20
9087.341779768399
 30
0.0
 40
5.624999999998181
100
AcDbArc
 50
270.0
 51
90.0
  0
ARC
  5
16BAF
330
167D3
100
AcDbEntity
  8
SUNPOU
100
AcDbCircle
 10
10358.17471819528
 20
7652.341779768403
 30
0.0
 40
5.625000000000908
100
AcDbArc
 50
270.0
 51
90.0
  0
ARC
  5
16BB0
330
167D3
100
AcDbEntity
  8
SUNPOU
100
AcDbCircle
 10
10358.17471819528
 20
7652.341779768403
 30
0.0
 40
5.625
100
AcDbArc
 50
90.0
 51
270.0
  0
ARC
  5
16BB1
330
167D3
100
AcDbEntity
  8
SUNPOU
100
AcDbCircle
 10
10358.17471819528
 20
7652.341779768403
 30
0.0
 40
5.625
100
AcDbArc
 50
90.0
 51
270.0
  0
ARC
  5
16BB2
330
167D3
100
AcDbEntity
  8
SUNPOU
100
AcDbCircle
 10
10358.17471819528
 20
7652.341779768403
 30
0.0
 40
5.625000000000908
100
AcDbArc
 50
270.0
 51
90.0
  0
ARC
  5
16BB3
330
167D3
100
AcDbEntity
  8
SUNPOU
100
AcDbCircle
 10
10568.17471819528
 20
6952.341779768403
 30
0.0
 40
5.625
100
AcDbArc
 50
90.0
 51
270.0
  0
ARC
  5
16BB4
330
167D3
100
AcDbEntity
  8
SUNPOU
100
AcDbCircle
 10
10568.17471819528
 20
6952.341779768403
 30
0.0
 40
5.625
100
AcDbArc
 50
270.0
 51
90.0
  0
ARC
  5
16BB5
330
167D3
100
AcDbEntity
  8
SUNPOU
100
AcDbCircle
 10
10358.17471819528
 20
6952.341779768403
 30
0.0
 40
5.625
100
AcDbArc
 50
90.0
 51
270.0
  0
ARC
  5
16BB6
330
167D3
100
AcDbEntity
  8
SUNPOU
100
AcDbCircle
 10
10358.17471819528
 20
6952.341779768403
 30
0.0
 40
5.625
100
AcDbArc
 50
270.0
 51
90.0
  0
TEXT
  5
16BB7
330
167D3
100
AcDbEntity
  8
SUNPOU
100
AcDbText
 10
8243.88900390957
 20
6387.341779768403
 30
0.0
 40
90.0
  1
3500
 41
0.6666666666666666
  7
00
100
AcDbText
  0
LINE
  5
16BB8
330
167D3
100
AcDbEntity
  8
SUNPOU
  6
ByBlock
100
AcDbLine
 10
10093.17471819527
 20
6342.341779768403
 30
0.0
 11
10078.17471819528
 21
6342.341779768403
 31
0.0
  0
LINE
  5
16BB9
330
167D3
100
AcDbEntity
  8
SUNPOU
  6
ByBlock
100
AcDbLine
 10
6623.174718195286
 20
6342.341779768403
 30
0.0
 11
6638.174718195287
 21
6342.341779768403
 31
0.0
  0
TEXT
  5
16BBA
330
167D3
100
AcDbEntity
  8
SUNPOU
100
AcDbText
 10
5215.769541215022
 20
2595.788443232546
 30
0.0
 40
90.0
  1
100
 50
90.0
 41
0.6666666666666666
  7
00
100
AcDbText
  0
LINE
  5
16BBB
330
167D3
100
AcDbEntity
  8
SUNPOU
  6
ByBlock
100
AcDbLine
 10
5260.769541215022
 20
2838.645586089688
 30
0.0
 11
5260.769541215022
 21
2853.645586089688
 31
0.0
  0
LINE
  5
16BBC
330
167D3
100
AcDbEntity
  8
SUNPOU
  6
ByBlock
100
AcDbLine
 10
5260.769541215022
 20
2968.645586089689
 30
0.0
 11
5260.769541215022
 21
2953.645586089689
 31
0.0
  0
TEXT
  5
16BBD
330
167D3
100
AcDbEntity
  8
SUNPOU
100
AcDbText
 10
4991.95933919114
 20
3201.931300375409
 30
0.0
 40
90.0
  1
580
 50
90.0
 41
0.6666666666666666
  7
00
100
AcDbText
  0
LINE
  5
16BBE
330
167D3
100
AcDbEntity
  8
SUNPOU
  6
ByBlock
100
AcDbLine
 10
5036.95933919114
 20
2838.645586089689
 30
0.0
 11
5036.95933919114
 21
2853.645586089688
 31
0.0
  0
LINE
  5
16BBF
330
167D3
100
AcDbEntity
  8
SUNPOU
  6
ByBlock
100
AcDbLine
 10
5036.95933919114
 20
3736.645586089699
 30
0.0
 11
5036.95933919114
 21
3721.645586089699
 31
0.0
  0
TEXT
  5
16BC0
330
167D3
100
AcDbEntity
  8
SUNPOU
100
AcDbText
 10
8722.067503157843
 20
2595.788443232548
 30
0.0
 40
90.0
  1
100
 50
90.0
 41
0.6666666666666666
  7
00
100
AcDbText
  0
LINE
  5
16BC1
330
167D3
100
AcDbEntity
  8
SUNPOU
  6
ByBlock
100
AcDbLine
 10
8767.067503157843
 20
2838.645586089689
 30
0.0
 11
8767.067503157843
 21
2853.645586089688
 31
0.0
  0
LINE
  5
16BC2
330
167D3
100
AcDbEntity
  8
SUNPOU
  6
ByBlock
100
AcDbLine
 10
8767.067503157843
 20
2968.645586089688
 30
0.0
 11
8767.067503157843
 21
2953.645586089688
 31
0.0
  0
TEXT
  5
16BC3
330
167D3
100
AcDbEntity
  8
SUNPOU
100
AcDbText
 10
8509.445028916262
 20
3201.931300375409
 30
0.0
 40
90.0
  1
580
 50
90.0
 41
0.6666666666666666
  7
00
100
AcDbText
  0
LINE
  5
16BC4
330
167D3
100
AcDbEntity
  8
SUNPOU
  6
ByBlock
100
AcDbLine
 10
8554.44502891626
 20
2838.645586089689
 30
0.0
 11
8554.44502891626
 21
2853.645586089688
 31
0.0
  0
LINE
  5
16BC5
330
167D3
100
AcDbEntity
  8
SUNPOU
  6
ByBlock
100
AcDbLine
 10
8554.44502891626
 20
3736.645586089696
 30
0.0
 11
8554.44502891626
 21
3721.645586089697
 31
0.0
  0
TEXT
  5
16BC6
330
167D3
100
AcDbEntity
  8
SUNPOU
100
AcDbText
 10
9672.460432480999
 20
8482.341779768402
 30
0.0
 40
90.0
  1
700
 41
0.6666666666666666
  7
00
100
AcDbText
  0
LINE
  5
16BC7
330
167D3
100
AcDbEntity
  8
SUNPOU
  6
ByBlock
100
AcDbLine
 10
10093.17471819527
 20
8437.341779768404
 30
0.0
 11
10078.17471819528
 21
8437.341779768404
 31
0.0
  0
LINE
  5
16BC8
330
167D3
100
AcDbEntity
  8
SUNPOU
  6
ByBlock
100
AcDbLine
 10
9423.174718195289
 20
8437.341779768404
 30
0.0
 11
9438.174718195289
 21
8437.341779768404
 31
0.0
  0
TEXT
  5
16BC9
330
167D3
100
AcDbEntity
  8
SUNPOU
100
AcDbText
 10
9063.174718195281
 20
9001.627494054121
 30
0.0
 40
90.0
  1
700
 50
90.0
 41
0.6666666666666666
  7
00
100
AcDbText
  0
LINE
  5
16BCA
330
167D3
100
AcDbEntity
  8
SUNPOU
  6
ByBlock
100
AcDbLine
 10
9108.174718195284
 20
8752.341779768403
 30
0.0
 11
9108.174718195284
 21
8767.341779768404
 31
0.0
  0
LINE
  5
16BCB
330
167D3
100
AcDbEntity
  8
SUNPOU
  6
ByBlock
100
AcDbLine
 10
9108.174718195284
 20
9422.341779768405
 30
0.0
 11
9108.174718195284
 21
9407.341779768406
 31
0.0
  0
TEXT
  5
16BCC
330
167D3
100
AcDbEntity
  8
SUNPOU
100
AcDbText
 10
13528.73268909787
 20
4247.326354683223
 30
0.0
 40
90.0
  1
40
 50
90.0
 41
0.6666666666666666
  7
00
100
AcDbText
  0
LINE
  5
16BCD
330
167D3
100
AcDbEntity
  8
SUNPOU
  6
ByBlock
100
AcDbLine
 10
13573.73268909787
 20
4175.89778325465
 30
0.0
 11
13573.73268909787
 21
4160.897783254648
 31
0.0
  0
LINE
  5
16BCE
330
167D3
100
AcDbEntity
  8
SUNPOU
  6
ByBlock
100
AcDbLine
 10
13573.73268909787
 20
4045.897783254648
 30
0.0
 11
13573.73268909787
 21
4060.897783254648
 31
0.0
  0
TEXT
  5
16BCF
330
167D3
100
AcDbEntity
  8
SUNPOU
100
AcDbText
 10
13528.73268909787
 20
3732.183497540366
 30
0.0
 40
90.0
  1
27
 50
90.0
 41
0.6666666666666666
  7
00
100
AcDbText
  0
LINE
  5
16BD0
330
167D3
100
AcDbEntity
  8
SUNPOU
  6
ByBlock
100
AcDbLine
 10
13573.73268909787
 20
3907.897783254649
 30
0.0
 11
13573.73268909787
 21
3892.89778325465
 31
0.0
  0
LINE
  5
16BD1
330
167D3
100
AcDbEntity
  8
SUNPOU
  6
ByBlock
100
AcDbLine
 10
13573.73268909787
 20
4045.897783254648
 30
0.0
 11
13573.73268909787
 21
4060.897783254648
 31
0.0
  0
TEXT
  5
16BD2
330
167D3
100
AcDbEntity
  8
SUNPOU
100
AcDbText
 10
8722.067503157843
 20
3502.502728946836
 30
0.0
 40
90.0
  1
80
 50
90.0
 41
0.6666666666666666
  7
00
100
AcDbText
  0
LINE
  5
16BD3
330
167D3
100
AcDbEntity
  8
SUNPOU
  6
ByBlock
100
AcDbLine
 10
8767.067503157843
 20
3480.645586089689
 30
0.0
 11
8767.067503157843
 21
3465.645586089688
 31
0.0
  0
LINE
  5
16BD4
330
167D3
100
AcDbEntity
  8
SUNPOU
  6
ByBlock
100
AcDbLine
 10
8767.067503157843
 20
3638.645586089693
 30
0.0
 11
8767.067503157843
 21
3653.645586089693
 31
0.0
  0
TEXT
  5
16BD5
330
167D3
100
AcDbEntity
  8
SUNPOU
100
AcDbText
 10
8722.067503157843
 20
3828.074157518272
 30
0.0
 40
90.0
  1
80
 50
90.0
 41
0.6666666666666666
  7
00
100
AcDbText
  0
LINE
  5
16BD6
330
167D3
100
AcDbEntity
  8
SUNPOU
  6
ByBlock
100
AcDbLine
 10
8767.067503157843
 20
3766.645586089699
 30
0.0
 11
8767.067503157843
 21
3781.645586089699
 31
0.0
  0
LINE
  5
16BD7
330
167D3
100
AcDbEntity
  8
SUNPOU
  6
ByBlock
100
AcDbLine
 10
8767.067503157843
 20
3608.645586089693
 30
0.0
 11
8767.067503157843
 21
3593.645586089694
 31
0.0
  0
TEXT
  5
16BD8
330
167D3
100
AcDbEntity
  8
SUNPOU
100
AcDbText
 10
8722.067503157843
 20
3153.931300375405
 30
0.0
 40
90.0
  1
320
 50
90.0
 41
0.6666666666666666
  7
00
100
AcDbText
  0
LINE
  5
16BD9
330
167D3
100
AcDbEntity
  8
SUNPOU
  6
ByBlock
100
AcDbLine
 10
8767.067503157843
 20
3480.645586089689
 30
0.0
 11
8767.067503157843
 21
3465.645586089688
 31
0.0
  0
LINE
  5
16BDA
330
167D3
100
AcDbEntity
  8
SUNPOU
  6
ByBlock
100
AcDbLine
 10
8767.067503157843
 20
2998.645586089688
 30
0.0
 11
8767.067503157843
 21
3013.645586089689
 31
0.0
  0
TEXT
  5
16BDB
330
167D3
100
AcDbEntity
  8
SUNPOU
100
AcDbText
 10
13238.09283143898
 20
2595.365723386175
 30
0.0
 40
90.0
  1
20
 41
0.6666666666666666
  7
00
100
AcDbText
  0
LINE
  5
16BDC
330
167D3
100
AcDbEntity
  8
SUNPOU
  6
ByBlock
100
AcDbLine
 10
13176.66426001041
 20
2550.365723386175
 30
0.0
 11
13191.6642600104
 21
2550.365723386175
 31
0.0
  0
LINE
  5
16BDD
330
167D3
100
AcDbEntity
  8
SUNPOU
  6
ByBlock
100
AcDbLine
 10
13066.6642600104
 20
2550.365723386175
 30
0.0
 11
13051.6642600104
 21
2550.365723386175
 31
0.0
  0
TEXT
  5
16BDE
330
167D3
100
AcDbEntity
  8
SUNPOU
100
AcDbText
 10
12751.66426001042
 20
2595.365723386175
 30
0.0
 40
90.0
  1
120
 41
0.6666666666666666
  7
00
100
AcDbText
  0
LINE
  5
16BDF
330
167D3
100
AcDbEntity
  8
SUNPOU
  6
ByBlock
100
AcDbLine
 10
13066.6642600104
 20
2550.365723386175
 30
0.0
 11
13051.6642600104
 21
2550.365723386175
 31
0.0
  0
LINE
  5
16BE0
330
167D3
100
AcDbEntity
  8
SUNPOU
  6
ByBlock
100
AcDbLine
 10
12616.66426001043
 20
2550.365723386175
 30
0.0
 11
12631.66426001043
 21
2550.365723386175
 31
0.0
  0
TEXT
  5
16BE1
330
167D3
100
AcDbEntity
  8
SUNPOU
100
AcDbText
 10
12330.94997429611
 20
2595.365723386175
 30
0.0
 40
90.0
  1
20
 41
0.6666666666666666
  7
00
100
AcDbText
  0
LINE
  5
16BE2
330
167D3
100
AcDbEntity
  8
SUNPOU
  6
ByBlock
100
AcDbLine
 10
12506.6642600104
 20
2550.365723386175
 30
0.0
 11
12491.66426001041
 21
2550.365723386175
 31
0.0
  0
LINE
  5
16BE3
330
167D3
100
AcDbEntity
  8
SUNPOU
  6
ByBlock
100
AcDbLine
 10
12616.66426001043
 20
2550.365723386175
 30
0.0
 11
12631.66426001043
 21
2550.365723386175
 31
0.0
  0
TEXT
  5
16BE4
330
167D3
100
AcDbEntity
  8
SUNPOU
100
AcDbText
 10
12751.66426001041
 20
2385.365723386175
 30
0.0
 40
90.0
  1
160
 41
0.6666666666666666
  7
00
100
AcDbText
  0
LINE
  5
16BE5
330
167D3
100
AcDbEntity
  8
SUNPOU
  6
ByBlock
100
AcDbLine
 10
13146.6642600104
 20
2340.365723386175
 30
0.0
 11
13131.6642600104
 21
2340.365723386175
 31
0.0
  0
LINE
  5
16BE6
330
167D3
100
AcDbEntity
  8
SUNPOU
  6
ByBlock
100
AcDbLine
 10
12536.66426001041
 20
2340.365723386175
 30
0.0
 11
12551.66426001041
 21
2340.365723386175
 31
0.0
  0
TEXT
  5
16BE7
330
167D3
100
AcDbEntity
  8
SUNPOU
100
AcDbText
 10
12173.66426001041
 20
2673.990805008955
 30
0.0
 40
90.0
  1
40
 50
90.0
 41
0.6666666666666666
  7
00
100
AcDbText
  0
LINE
  5
16BE8
330
167D3
100
AcDbEntity
  8
SUNPOU
  6
ByBlock
100
AcDbLine
 10
12218.66426001041
 20
2859.705090723237
 30
0.0
 11
12218.66426001041
 21
2874.705090723239
 31
0.0
  0
LINE
  5
16BE9
330
167D3
100
AcDbEntity
  8
SUNPOU
  6
ByBlock
100
AcDbLine
 10
12218.66426001041
 20
2989.705090723239
 30
0.0
 11
12218.66426001041
 21
2974.705090723239
 31
0.0
  0
TEXT
  5
16BEA
330
167D3
100
AcDbEntity
  8
SUNPOU
100
AcDbText
 10
12173.66426001041
 20
3221.133662151812
 30
0.0
 40
90.0
  1
40
 50
90.0
 41
0.6666666666666666
  7
00
100
AcDbText
  0
LINE
  5
16BEB
330
167D3
100
AcDbEntity
  8
SUNPOU
  6
ByBlock
100
AcDbLine
 10
12218.66426001041
 20
3149.705090723239
 30
0.0
 11
12218.66426001041
 21
3134.705090723239
 31
0.0
  0
LINE
  5
16BEC
330
167D3
100
AcDbEntity
  8
SUNPOU
  6
ByBlock
100
AcDbLine
 10
12218.66426001041
 20
3019.705090723239
 30
0.0
 11
12218.66426001041
 21
3034.705090723239
 31
0.0
  0
TEXT
  5
16BED
330
167D3
100
AcDbEntity
  8
SUNPOU
100
AcDbText
 10
11963.6642600104
 20
2947.562233580383
 30
0.0
 40
90.0
  1
80
 50
90.0
 41
0.6666666666666666
  7
00
100
AcDbText
  0
LINE
  5
16BEE
330
167D3
100
AcDbEntity
  8
SUNPOU
  6
ByBlock
100
AcDbLine
 10
12008.66426001041
 20
3149.705090723239
 30
0.0
 11
12008.66426001041
 21
3134.705090723239
 31
0.0
  0
LINE
  5
16BEF
330
167D3
100
AcDbEntity
  8
SUNPOU
  6
ByBlock
100
AcDbLine
 10
12008.66426001041
 20
2859.705090723237
 30
0.0
 11
12008.66426001041
 21
2874.705090723239
 31
0.0
  0
TEXT
  5
16BF0
330
167D3
100
AcDbEntity
  8
SUNPOU
100
AcDbText
 10
13238.09283143898
 20
3743.731609325148
 30
0.0
 40
90.0
  1
20
 41
0.6666666666666666
  7
00
100
AcDbText
  0
LINE
  5
16BF1
330
167D3
100
AcDbEntity
  8
SUNPOU
  6
ByBlock
100
AcDbLine
 10
13176.66426001041
 20
3698.731609325147
 30
0.0
 11
13191.6642600104
 21
3698.731609325147
 31
0.0
  0
LINE
  5
16BF2
330
167D3
100
AcDbEntity
  8
SUNPOU
  6
ByBlock
100
AcDbLine
 10
13066.6642600104
 20
3698.731609325147
 30
0.0
 11
13051.6642600104
 21
3698.731609325147
 31
0.0
  0
TEXT
  5
16BF3
330
167D3
100
AcDbEntity
  8
SUNPOU
100
AcDbText
 10
12751.66426001042
 20
3743.731609325148
 30
0.0
 40
90.0
  1
120
 41
0.6666666666666666
  7
00
100
AcDbText
  0
LINE
  5
16BF4
330
167D3
100
AcDbEntity
  8
SUNPOU
  6
ByBlock
100
AcDbLine
 10
13066.6642600104
 20
3698.731609325147
 30
0.0
 11
13051.6642600104
 21
3698.731609325147
 31
0.0
  0
LINE
  5
16BF5
330
167D3
100
AcDbEntity
  8
SUNPOU
  6
ByBlock
100
AcDbLine
 10
12616.66426001043
 20
3698.731609325147
 30
0.0
 11
12631.66426001043
 21
3698.731609325147
 31
0.0
  0
TEXT
  5
16BF6
330
167D3
100
AcDbEntity
  8
SUNPOU
100
AcDbText
 10
12330.94997429611
 20
3743.731609325148
 30
0.0
 40
90.0
  1
20
 41
0.6666666666666666
  7
00
100
AcDbText
  0
LINE
  5
16BF7
330
167D3
100
AcDbEntity
  8
SUNPOU
  6
ByBlock
100
AcDbLine
 10
12506.6642600104
 20
3698.731609325147
 30
0.0
 11
12491.66426001041
 21
3698.731609325147
 31
0.0
  0
LINE
  5
16BF8
330
167D3
100
AcDbEntity
  8
SUNPOU
  6
ByBlock
100
AcDbLine
 10
12616.66426001043
 20
3698.731609325147
 30
0.0
 11
12631.66426001043
 21
3698.731609325147
 31
0.0
  0
TEXT
  5
16BF9
330
167D3
100
AcDbEntity
  8
SUNPOU
100
AcDbText
 10
12751.66426001041
 20
3533.731609325148
 30
0.0
 40
90.0
  1
160
 41
0.6666666666666666
  7
00
100
AcDbText
  0
LINE
  5
16BFA
330
167D3
100
AcDbEntity
  8
SUNPOU
  6
ByBlock
100
AcDbLine
 10
13146.6642600104
 20
3488.731609325148
 30
0.0
 11
13131.6642600104
 21
3488.731609325148
 31
0.0
  0
LINE
  5
16BFB
330
167D3
100
AcDbEntity
  8
SUNPOU
  6
ByBlock
100
AcDbLine
 10
12536.66426001041
 20
3488.731609325148
 30
0.0
 11
12551.66426001041
 21
3488.731609325148
 31
0.0
  0
TEXT
  5
16BFC
330
167D3
100
AcDbEntity
  8
SUNPOU
100
AcDbText
 10
10026.49427120761
 20
2466.245586089687
 30
0.0
 40
90.0
  1
700
 41
0.6666666666666666
  7
00
100
AcDbText
  0
LINE
  5
16BFD
330
167D3
100
AcDbEntity
  8
SUNPOU
  6
ByBlock
100
AcDbLine
 10
10657.20855692189
 20
2421.245586089687
 30
0.0
 11
10642.20855692189
 21
2421.245586089687
 31
0.0
  0
LINE
  5
16BFE
330
167D3
100
AcDbEntity
  8
SUNPOU
  6
ByBlock
100
AcDbLine
 10
9567.208556921903
 20
2421.245586089687
 30
0.0
 11
9582.208556921903
 21
2421.245586089687
 31
0.0
  0
TEXT
  5
16BFF
330
167D3
100
AcDbEntity
  8
SUNPOU
100
AcDbText
 10
10026.49427120761
 20
2256.245586089688
 30
0.0
 40
90.0
  1
900
 41
0.6666666666666666
  7
00
100
AcDbText
  0
LINE
  5
16C00
330
167D3
100
AcDbEntity
  8
SUNPOU
  6
ByBlock
100
AcDbLine
 10
10817.20855692189
 20
2211.245586089688
 30
0.0
 11
10802.20855692189
 21
2211.245586089688
 31
0.0
  0
LINE
  5
16C01
330
167D3
100
AcDbEntity
  8
SUNPOU
  6
ByBlock
100
AcDbLine
 10
9407.208556921904
 20
2211.245586089688
 30
0.0
 11
9422.208556921903
 21
2211.245586089688
 31
0.0
  0
TEXT
  5
16C02
330
167D3
100
AcDbEntity
  8
SUNPOU
100
AcDbText
 10
8302.067503157843
 20
3828.074157518272
 30
0.0
 40
90.0
  1
50
 50
90.0
 41
0.6666666666666666
  7
00
100
AcDbText
  0
LINE
  5
16C03
330
167D3
100
AcDbEntity
  8
SUNPOU
  6
ByBlock
100
AcDbLine
 10
8347.067503157843
 20
3766.645586089699
 30
0.0
 11
8347.067503157843
 21
3781.645586089699
 31
0.0
  0
LINE
  5
16C04
330
167D3
100
AcDbEntity
  8
SUNPOU
  6
ByBlock
100
AcDbLine
 10
8347.067503157843
 20
3656.645586089699
 30
0.0
 11
8347.067503157843
 21
3641.645586089699
 31
0.0
  0
TEXT
  5
16C05
330
167D3
100
AcDbEntity
  8
SUNPOU
100
AcDbText
 10
9466.494271207615
 20
4480.046158226286
 30
0.0
 40
90.0
  1
700
 41
0.6666666666666666
  7
00
100
AcDbText
  0
LINE
  5
16C06
330
167D3
100
AcDbEntity
  8
SUNPOU
  6
ByBlock
100
AcDbLine
 10
9007.208556921904
 20
4435.046158226285
 30
0.0
 11
9022.208556921903
 21
4435.046158226285
 31
0.0
  0
LINE
  5
16C07
330
167D3
100
AcDbEntity
  8
SUNPOU
  6
ByBlock
100
AcDbLine
 10
10097.20855692189
 20
4435.046158226285
 30
0.0
 11
10082.2085569219
 21
4435.046158226285
 31
0.0
  0
TEXT
  5
16C08
330
167D3
100
AcDbEntity
  8
SUNPOU
100
AcDbText
 10
6014.408651501497
 20
2466.245586089687
 30
0.0
 40
90.0
  1
700
 41
0.6666666666666666
  7
00
100
AcDbText
  0
LINE
  5
16C09
330
167D3
100
AcDbEntity
  8
SUNPOU
  6
ByBlock
100
AcDbLine
 10
6645.122937215781
 20
2421.245586089687
 30
0.0
 11
6630.122937215782
 21
2421.245586089687
 31
0.0
  0
LINE
  5
16C0A
330
167D3
100
AcDbEntity
  8
SUNPOU
  6
ByBlock
100
AcDbLine
 10
5555.122937215781
 20
2421.245586089687
 30
0.0
 11
5570.122937215781
 21
2421.245586089687
 31
0.0
  0
TEXT
  5
16C0B
330
167D3
100
AcDbEntity
  8
SUNPOU
100
AcDbText
 10
6014.408651501494
 20
2256.245586089688
 30
0.0
 40
90.0
  1
900
 41
0.6666666666666666
  7
00
100
AcDbText
  0
LINE
  5
16C0C
330
167D3
100
AcDbEntity
  8
SUNPOU
  6
ByBlock
100
AcDbLine
 10
6805.122937215777
 20
2211.245586089688
 30
0.0
 11
6790.122937215777
 21
2211.245586089688
 31
0.0
  0
LINE
  5
16C0D
330
167D3
100
AcDbEntity
  8
SUNPOU
  6
ByBlock
100
AcDbLine
 10
5395.122937215781
 20
2211.245586089688
 30
0.0
 11
5410.122937215779
 21
2211.245586089688
 31
0.0
  0
TEXT
  5
16C0E
330
167D3
100
AcDbEntity
  8
SUNPOU
100
AcDbText
 10
4795.769541215022
 20
3828.074157518271
 30
0.0
 40
90.0
  1
50
 50
90.0
 41
0.6666666666666666
  7
00
100
AcDbText
  0
LINE
  5
16C0F
330
167D3
100
AcDbEntity
  8
SUNPOU
  6
ByBlock
100
AcDbLine
 10
4840.769541215022
 20
3766.645586089699
 30
0.0
 11
4840.769541215022
 21
3781.6455860897
 31
0.0
  0
LINE
  5
16C10
330
167D3
100
AcDbEntity
  8
SUNPOU
  6
ByBlock
100
AcDbLine
 10
4840.769541215022
 20
3656.645586089696
 30
0.0
 11
4840.769541215022
 21
3641.645586089696
 31
0.0
  0
TEXT
  5
16C11
330
167D3
100
AcDbEntity
  8
SUNPOU
100
AcDbText
 10
5215.769541215022
 20
3502.502728946832
 30
0.0
 40
90.0
  1
80
 50
90.0
 41
0.6666666666666666
  7
00
100
AcDbText
  0
LINE
  5
16C12
330
167D3
100
AcDbEntity
  8
SUNPOU
  6
ByBlock
100
AcDbLine
 10
5260.769541215023
 20
3480.645586089686
 30
0.0
 11
5260.769541215023
 21
3465.645586089686
 31
0.0
  0
LINE
  5
16C13
330
167D3
100
AcDbEntity
  8
SUNPOU
  6
ByBlock
100
AcDbLine
 10
5260.769541215023
 20
3638.645586089689
 30
0.0
 11
5260.769541215023
 21
3653.645586089689
 31
0.0
  0
TEXT
  5
16C14
330
167D3
100
AcDbEntity
  8
SUNPOU
100
AcDbText
 10
5215.769541215022
 20
3828.074157518271
 30
0.0
 40
90.0
  1
80
 50
90.0
 41
0.6666666666666666
  7
00
100
AcDbText
  0
LINE
  5
16C15
330
167D3
100
AcDbEntity
  8
SUNPOU
  6
ByBlock
100
AcDbLine
 10
5260.769541215022
 20
3766.645586089699
 30
0.0
 11
5260.769541215022
 21
3781.645586089699
 31
0.0
  0
LINE
  5
16C16
330
167D3
100
AcDbEntity
  8
SUNPOU
  6
ByBlock
100
AcDbLine
 10
5260.769541215022
 20
3608.645586089689
 30
0.0
 11
5260.769541215022
 21
3593.645586089688
 31
0.0
  0
TEXT
  5
16C17
330
167D3
100
AcDbEntity
  8
SUNPOU
100
AcDbText
 10
5215.769541215022
 20
3153.931300375402
 30
0.0
 40
90.0
  1
320
 50
90.0
 41
0.6666666666666666
  7
00
100
AcDbText
  0
LINE
  5
16C18
330
167D3
100
AcDbEntity
  8
SUNPOU
  6
ByBlock
100
AcDbLine
 10
5260.769541215022
 20
3480.645586089686
 30
0.0
 11
5260.769541215022
 21
3465.645586089686
 31
0.0
  0
LINE
  5
16C19
330
167D3
100
AcDbEntity
  8
SUNPOU
  6
ByBlock
100
AcDbLine
 10
5260.769541215022
 20
2998.645586089689
 30
0.0
 11
5260.769541215022
 21
3013.645586089689
 31
0.0
  0
TEXT
  5
16C1A
330
167D3
100
AcDbEntity
  8
SUNPOU
100
AcDbText
 10
5734.408651501497
 20
4480.046158226281
 30
0.0
 40
90.0
  1
350
 41
0.6666666666666666
  7
00
100
AcDbText
  0
LINE
  5
16C1B
330
167D3
100
AcDbEntity
  8
SUNPOU
  6
ByBlock
100
AcDbLine
 10
5555.122937215781
 20
4435.046158226281
 30
0.0
 11
5570.122937215781
 21
4435.046158226281
 31
0.0
  0
LINE
  5
16C1C
330
167D3
100
AcDbEntity
  8
SUNPOU
  6
ByBlock
100
AcDbLine
 10
6085.122937215782
 20
4435.046158226281
 30
0.0
 11
6070.122937215781
 21
4435.046158226281
 31
0.0
  0
TEXT
  5
16C1D
330
167D3
100
AcDbEntity
  8
SUNPOU
100
AcDbText
 10
9847.460432481
 20
6597.341779768405
 30
0.0
 40
90.0
  1
350
 41
0.6666666666666666
  7
00
100
AcDbText
  0
LINE
  5
16C1E
330
167D3
100
AcDbEntity
  8
SUNPOU
  6
ByBlock
100
AcDbLine
 10
10093.17471819527
 20
6552.341779768404
 30
0.0
 11
10078.17471819528
 21
6552.341779768404
 31
0.0
  0
LINE
  5
16C1F
330
167D3
100
AcDbEntity
  8
SUNPOU
  6
ByBlock
100
AcDbLine
 10
9773.174718195289
 20
6552.341779768404
 30
0.0
 11
9788.174718195289
 21
6552.341779768404
 31
0.0
  0
TEXT
  5
16C20
330
167D3
100
AcDbEntity
  8
SUNPOU
100
AcDbText
 10
8243.88900390957
 20
6597.341779768403
 30
0.0
 40
90.0
  1
2800
 41
0.6666666666666666
  7
00
100
AcDbText
  0
LINE
  5
16C21
330
167D3
100
AcDbEntity
  8
SUNPOU
  6
ByBlock
100
AcDbLine
 10
9743.174718195289
 20
6552.341779768403
 30
0.0
 11
9728.17471819529
 21
6552.341779768403
 31
0.0
  0
LINE
  5
16C22
330
167D3
100
AcDbEntity
  8
SUNPOU
  6
ByBlock
100
AcDbLine
 10
6973.174718195287
 20
6552.341779768403
 30
0.0
 11
6988.174718195288
 21
6552.341779768403
 31
0.0
  0
TEXT
  5
16C23
330
167D3
100
AcDbEntity
  8
SUNPOU
100
AcDbText
 10
6697.460432481
 20
6597.341779768403
 30
0.0
 40
90.0
  1
350
 41
0.6666666666666666
  7
00
100
AcDbText
  0
LINE
  5
16C24
330
167D3
100
AcDbEntity
  8
SUNPOU
  6
ByBlock
100
AcDbLine
 10
6943.174718195287
 20
6552.341779768403
 30
0.0
 11
6928.174718195286
 21
6552.341779768403
 31
0.0
  0
LINE
  5
16C25
330
167D3
100
AcDbEntity
  8
SUNPOU
  6
ByBlock
100
AcDbLine
 10
6623.174718195286
 20
6552.341779768403
 30
0.0
 11
6638.174718195287
 21
6552.341779768403
 31
0.0
  0
ARC
  5
16C26
330
167D3
100
AcDbEntity
  8
SUNPOU
  6
ByBlock
100
AcDbCircle
 10
10108.17471819527
 20
6342.341779768403
 30
0.0
 40
7.5
100
AcDbArc
 50
180.0
 51
0.0
  0
ARC
  5
16C27
330
167D3
100
AcDbEntity
  8
SUNPOU
  6
ByBlock
100
AcDbCircle
 10
10108.17471819527
 20
6342.341779768403
 30
0.0
 40
7.5
100
AcDbArc
 50
0.0
 51
180.0
  0
ARC
  5
16C28
330
167D3
100
AcDbEntity
  8
SUNPOU
  6
ByBlock
100
AcDbCircle
 10
6608.174718195286
 20
6342.341779768403
 30
0.0
 40
7.5
100
AcDbArc
 50
0.0
 51
180.0
  0
ARC
  5
16C29
330
167D3
100
AcDbEntity
  8
SUNPOU
  6
ByBlock
100
AcDbCircle
 10
6608.174718195286
 20
6342.341779768403
 30
0.0
 40
7.5
100
AcDbArc
 50
180.0
 51
0.0
  0
ARC
  5
16C2A
330
167D3
100
AcDbEntity
  8
SUNPOU
  6
ByBlock
100
AcDbCircle
 10
5260.769541215022
 20
2823.645586089688
 30
0.0
 40
7.5
100
AcDbArc
 50
90.0
 51
270.0
  0
ARC
  5
16C2B
330
167D3
100
AcDbEntity
  8
SUNPOU
  6
ByBlock
100
AcDbCircle
 10
5260.769541215022
 20
2823.645586089688
 30
0.0
 40
7.5
100
AcDbArc
 50
270.0
 51
90.0
  0
ARC
  5
16C2C
330
167D3
100
AcDbEntity
  8
SUNPOU
  6
ByBlock
100
AcDbCircle
 10
5260.769541215022
 20
2983.645586089689
 30
0.0
 40
7.5
100
AcDbArc
 50
270.0
 51
90.0
  0
ARC
  5
16C2D
330
167D3
100
AcDbEntity
  8
SUNPOU
  6
ByBlock
100
AcDbCircle
 10
5260.769541215022
 20
2983.645586089689
 30
0.0
 40
7.5
100
AcDbArc
 50
90.0
 51
270.0
  0
ARC
  5
16C2E
330
167D3
100
AcDbEntity
  8
SUNPOU
  6
ByBlock
100
AcDbCircle
 10
5036.95933919114
 20
2823.645586089688
 30
0.0
 40
7.5
100
AcDbArc
 50
90.0
 51
270.0
  0
ARC
  5
16C2F
330
167D3
100
AcDbEntity
  8
SUNPOU
  6
ByBlock
100
AcDbCircle
 10
5036.95933919114
 20
2823.645586089688
 30
0.0
 40
7.5
100
AcDbArc
 50
270.0
 51
90.0
  0
ARC
  5
16C30
330
167D3
100
AcDbEntity
  8
SUNPOU
  6
ByBlock
100
AcDbCircle
 10
5036.95933919114
 20
3751.645586089699
 30
0.0
 40
7.5
100
AcDbArc
 50
270.0
 51
90.0
  0
ARC
  5
16C31
330
167D3
100
AcDbEntity
  8
SUNPOU
  6
ByBlock
100
AcDbCircle
 10
5036.95933919114
 20
3751.645586089699
 30
0.0
 40
7.5
100
AcDbArc
 50
90.0
 51
270.0
  0
ARC
  5
16C32
330
167D3
100
AcDbEntity
  8
SUNPOU
  6
ByBlock
100
AcDbCircle
 10
8767.067503157843
 20
2823.645586089688
 30
0.0
 40
7.5
100
AcDbArc
 50
90.0
 51
270.0
  0
ARC
  5
16C33
330
167D3
100
AcDbEntity
  8
SUNPOU
  6
ByBlock
100
AcDbCircle
 10
8767.067503157843
 20
2823.645586089688
 30
0.0
 40
7.5
100
AcDbArc
 50
270.0
 51
90.0
  0
ARC
  5
16C34
330
167D3
100
AcDbEntity
  8
SUNPOU
  6
ByBlock
100
AcDbCircle
 10
8767.067503157843
 20
2983.645586089688
 30
0.0
 40
7.5
100
AcDbArc
 50
270.0
 51
90.0
  0
ARC
  5
16C35
330
167D3
100
AcDbEntity
  8
SUNPOU
  6
ByBlock
100
AcDbCircle
 10
8767.067503157843
 20
2983.645586089688
 30
0.0
 40
7.5
100
AcDbArc
 50
90.0
 51
270.0
  0
ARC
  5
16C36
330
167D3
100
AcDbEntity
  8
SUNPOU
  6
ByBlock
100
AcDbCircle
 10
8554.44502891626
 20
2823.645586089688
 30
0.0
 40
7.5
100
AcDbArc
 50
90.0
 51
270.0
  0
ARC
  5
16C37
330
167D3
100
AcDbEntity
  8
SUNPOU
  6
ByBlock
100
AcDbCircle
 10
8554.44502891626
 20
2823.645586089688
 30
0.0
 40
7.5
100
AcDbArc
 50
270.0
 51
90.0
  0
ARC
  5
16C38
330
167D3
100
AcDbEntity
  8
SUNPOU
  6
ByBlock
100
AcDbCircle
 10
8554.44502891626
 20
3751.645586089697
 30
0.0
 40
7.5
100
AcDbArc
 50
270.0
 51
90.0
  0
ARC
  5
16C39
330
167D3
100
AcDbEntity
  8
SUNPOU
  6
ByBlock
100
AcDbCircle
 10
8554.44502891626
 20
3751.645586089697
 30
0.0
 40
7.5
100
AcDbArc
 50
90.0
 51
270.0
  0
ARC
  5
16C3A
330
167D3
100
AcDbEntity
  8
SUNPOU
  6
ByBlock
100
AcDbCircle
 10
10108.17471819527
 20
8437.341779768404
 30
0.0
 40
7.5
100
AcDbArc
 50
180.0
 51
0.0
  0
ARC
  5
16C3B
330
167D3
100
AcDbEntity
  8
SUNPOU
  6
ByBlock
100
AcDbCircle
 10
10108.17471819527
 20
8437.341779768404
 30
0.0
 40
7.5
100
AcDbArc
 50
0.0
 51
180.0
  0
ARC
  5
16C3C
330
167D3
100
AcDbEntity
  8
SUNPOU
  6
ByBlock
100
AcDbCircle
 10
9408.174718195288
 20
8437.341779768404
 30
0.0
 40
7.5
100
AcDbArc
 50
0.0
 51
180.0
  0
ARC
  5
16C3D
330
167D3
100
AcDbEntity
  8
SUNPOU
  6
ByBlock
100
AcDbCircle
 10
9408.174718195288
 20
8437.341779768404
 30
0.0
 40
7.5
100
AcDbArc
 50
180.0
 51
0.0
  0
ARC
  5
16C3E
330
167D3
100
AcDbEntity
  8
SUNPOU
  6
ByBlock
100
AcDbCircle
 10
9108.174718195284
 20
8737.341779768405
 30
0.0
 40
7.5
100
AcDbArc
 50
90.0
 51
270.0
  0
ARC
  5
16C3F
330
167D3
100
AcDbEntity
  8
SUNPOU
  6
ByBlock
100
AcDbCircle
 10
9108.174718195284
 20
8737.341779768405
 30
0.0
 40
7.5
100
AcDbArc
 50
270.0
 51
90.0
  0
ARC
  5
16C40
330
167D3
100
AcDbEntity
  8
SUNPOU
  6
ByBlock
100
AcDbCircle
 10
9108.174718195284
 20
9437.341779768406
 30
0.0
 40
7.5
100
AcDbArc
 50
270.0
 51
90.0
  0
ARC
  5
16C41
330
167D3
100
AcDbEntity
  8
SUNPOU
  6
ByBlock
100
AcDbCircle
 10
9108.174718195284
 20
9437.341779768406
 30
0.0
 40
7.5
100
AcDbArc
 50
90.0
 51
270.0
  0
ARC
  5
16C42
330
167D3
100
AcDbEntity
  8
SUNPOU
  6
ByBlock
100
AcDbCircle
 10
13573.73268909787
 20
4190.89778325465
 30
0.0
 40
7.5
100
AcDbArc
 50
270.0
 51
90.0
  0
ARC
  5
16C43
330
167D3
100
AcDbEntity
  8
SUNPOU
  6
ByBlock
100
AcDbCircle
 10
13573.73268909787
 20
4190.89778325465
 30
0.0
 40
7.5
100
AcDbArc
 50
90.0
 51
270.0
  0
ARC
  5
16C44
330
167D3
100
AcDbEntity
  8
SUNPOU
  6
ByBlock
100
AcDbCircle
 10
13573.73268909787
 20
4030.897783254649
 30
0.0
 40
7.5
100
AcDbArc
 50
90.0
 51
270.0
  0
ARC
  5
16C45
330
167D3
100
AcDbEntity
  8
SUNPOU
  6
ByBlock
100
AcDbCircle
 10
13573.73268909787
 20
4030.897783254649
 30
0.0
 40
7.5
100
AcDbArc
 50
270.0
 51
90.0
  0
ARC
  5
16C46
330
167D3
100
AcDbEntity
  8
SUNPOU
  6
ByBlock
100
AcDbCircle
 10
13573.73268909787
 20
3922.897783254649
 30
0.0
 40
7.5
100
AcDbArc
 50
270.0
 51
90.0
  0
ARC
  5
16C47
330
167D3
100
AcDbEntity
  8
SUNPOU
  6
ByBlock
100
AcDbCircle
 10
13573.73268909787
 20
3922.897783254649
 30
0.0
 40
7.5
100
AcDbArc
 50
90.0
 51
270.0
  0
ARC
  5
16C48
330
167D3
100
AcDbEntity
  8
SUNPOU
  6
ByBlock
100
AcDbCircle
 10
13573.73268909787
 20
4030.897783254649
 30
0.0
 40
7.5
100
AcDbArc
 50
90.0
 51
270.0
  0
ARC
  5
16C49
330
167D3
100
AcDbEntity
  8
SUNPOU
  6
ByBlock
100
AcDbCircle
 10
13573.73268909787
 20
4030.897783254649
 30
0.0
 40
7.5
100
AcDbArc
 50
270.0
 51
90.0
  0
ARC
  5
16C4A
330
167D3
100
AcDbEntity
  8
SUNPOU
  6
ByBlock
100
AcDbCircle
 10
8767.067503157843
 20
3495.645586089688
 30
0.0
 40
7.5
100
AcDbArc
 50
270.0
 51
90.0
  0
ARC
  5
16C4B
330
167D3
100
AcDbEntity
  8
SUNPOU
  6
ByBlock
100
AcDbCircle
 10
8767.067503157843
 20
3495.645586089688
 30
0.0
 40
7.5
100
AcDbArc
 50
90.0
 51
270.0
  0
ARC
  5
16C4C
330
167D3
100
AcDbEntity
  8
SUNPOU
  6
ByBlock
100
AcDbCircle
 10
8767.067503157843
 20
3623.645586089693
 30
0.0
 40
7.5
100
AcDbArc
 50
90.0
 51
270.0
  0
ARC
  5
16C4D
330
167D3
100
AcDbEntity
  8
SUNPOU
  6
ByBlock
100
AcDbCircle
 10
8767.067503157843
 20
3623.645586089693
 30
0.0
 40
7.5
100
AcDbArc
 50
270.0
 51
90.0
  0
ARC
  5
16C4E
330
167D3
100
AcDbEntity
  8
SUNPOU
  6
ByBlock
100
AcDbCircle
 10
8767.067503157843
 20
3751.645586089699
 30
0.0
 40
7.5
100
AcDbArc
 50
90.0
 51
270.0
  0
ARC
  5
16C4F
330
167D3
100
AcDbEntity
  8
SUNPOU
  6
ByBlock
100
AcDbCircle
 10
8767.067503157843
 20
3751.645586089699
 30
0.0
 40
7.5
100
AcDbArc
 50
270.0
 51
90.0
  0
ARC
  5
16C50
330
167D3
100
AcDbEntity
  8
SUNPOU
  6
ByBlock
100
AcDbCircle
 10
8767.067503157843
 20
3623.645586089693
 30
0.0
 40
7.5
100
AcDbArc
 50
270.0
 51
90.0
  0
ARC
  5
16C51
330
167D3
100
AcDbEntity
  8
SUNPOU
  6
ByBlock
100
AcDbCircle
 10
8767.067503157843
 20
3623.645586089693
 30
0.0
 40
7.5
100
AcDbArc
 50
90.0
 51
270.0
  0
ARC
  5
16C52
330
167D3
100
AcDbEntity
  8
SUNPOU
  6
ByBlock
100
AcDbCircle
 10
8767.067503157843
 20
3495.645586089688
 30
0.0
 40
7.5
100
AcDbArc
 50
270.0
 51
90.0
  0
ARC
  5
16C53
330
167D3
100
AcDbEntity
  8
SUNPOU
  6
ByBlock
100
AcDbCircle
 10
8767.067503157843
 20
3495.645586089688
 30
0.0
 40
7.5
100
AcDbArc
 50
90.0
 51
270.0
  0
ARC
  5
16C54
330
167D3
100
AcDbEntity
  8
SUNPOU
  6
ByBlock
100
AcDbCircle
 10
8767.067503157843
 20
2983.645586089688
 30
0.0
 40
7.5
100
AcDbArc
 50
90.0
 51
270.0
  0
ARC
  5
16C55
330
167D3
100
AcDbEntity
  8
SUNPOU
  6
ByBlock
100
AcDbCircle
 10
8767.067503157843
 20
2983.645586089688
 30
0.0
 40
7.5
100
AcDbArc
 50
270.0
 51
90.0
  0
ARC
  5
16C56
330
167D3
100
AcDbEntity
  8
SUNPOU
  6
ByBlock
100
AcDbCircle
 10
13161.66426001041
 20
2550.365723386175
 30
0.0
 40
7.5
100
AcDbArc
 50
0.0
 51
180.0
  0
ARC
  5
16C57
330
167D3
100
AcDbEntity
  8
SUNPOU
  6
ByBlock
100
AcDbCircle
 10
13161.66426001041
 20
2550.365723386175
 30
0.0
 40
7.5
100
AcDbArc
 50
180.0
 51
0.0
  0
ARC
  5
16C58
330
167D3
100
AcDbEntity
  8
SUNPOU
  6
ByBlock
100
AcDbCircle
 10
13081.66426001041
 20
2550.365723386175
 30
0.0
 40
7.5
100
AcDbArc
 50
180.0
 51
0.0
  0
ARC
  5
16C59
330
167D3
100
AcDbEntity
  8
SUNPOU
  6
ByBlock
100
AcDbCircle
 10
13081.66426001041
 20
2550.365723386175
 30
0.0
 40
7.5
100
AcDbArc
 50
0.0
 51
180.0
  0
ARC
  5
16C5A
330
167D3
100
AcDbEntity
  8
SUNPOU
  6
ByBlock
100
AcDbCircle
 10
13081.66426001041
 20
2550.365723386175
 30
0.0
 40
7.5
100
AcDbArc
 50
180.0
 51
0.0
  0
ARC
  5
16C5B
330
167D3
100
AcDbEntity
  8
SUNPOU
  6
ByBlock
100
AcDbCircle
 10
13081.66426001041
 20
2550.365723386175
 30
0.0
 40
7.5
100
AcDbArc
 50
0.0
 51
180.0
  0
ARC
  5
16C5C
330
167D3
100
AcDbEntity
  8
SUNPOU
  6
ByBlock
100
AcDbCircle
 10
12601.66426001043
 20
2550.365723386175
 30
0.0
 40
7.5
100
AcDbArc
 50
0.0
 51
180.0
  0
ARC
  5
16C5D
330
167D3
100
AcDbEntity
  8
SUNPOU
  6
ByBlock
100
AcDbCircle
 10
12601.66426001043
 20
2550.365723386175
 30
0.0
 40
7.5
100
AcDbArc
 50
180.0
 51
0.0
  0
ARC
  5
16C5E
330
167D3
100
AcDbEntity
  8
SUNPOU
  6
ByBlock
100
AcDbCircle
 10
12521.6642600104
 20
2550.365723386175
 30
0.0
 40
7.5
100
AcDbArc
 50
180.0
 51
0.0
  0
ARC
  5
16C5F
330
167D3
100
AcDbEntity
  8
SUNPOU
  6
ByBlock
100
AcDbCircle
 10
12521.6642600104
 20
2550.365723386175
 30
0.0
 40
7.5
100
AcDbArc
 50
0.0
 51
180.0
  0
ARC
  5
16C60
330
167D3
100
AcDbEntity
  8
SUNPOU
  6
ByBlock
100
AcDbCircle
 10
12601.66426001043
 20
2550.365723386175
 30
0.0
 40
7.5
100
AcDbArc
 50
0.0
 51
180.0
  0
ARC
  5
16C61
330
167D3
100
AcDbEntity
  8
SUNPOU
  6
ByBlock
100
AcDbCircle
 10
12601.66426001043
 20
2550.365723386175
 30
0.0
 40
7.5
100
AcDbArc
 50
180.0
 51
0.0
  0
ARC
  5
16C62
330
167D3
100
AcDbEntity
  8
SUNPOU
  6
ByBlock
100
AcDbCircle
 10
13161.66426001041
 20
2340.365723386175
 30
0.0
 40
7.5
100
AcDbArc
 50
180.0
 51
0.0
  0
ARC
  5
16C63
330
167D3
100
AcDbEntity
  8
SUNPOU
  6
ByBlock
100
AcDbCircle
 10
13161.66426001041
 20
2340.365723386175
 30
0.0
 40
7.5
100
AcDbArc
 50
0.0
 51
180.0
  0
ARC
  5
16C64
330
167D3
100
AcDbEntity
  8
SUNPOU
  6
ByBlock
100
AcDbCircle
 10
12521.6642600104
 20
2340.365723386175
 30
0.0
 40
7.5
100
AcDbArc
 50
0.0
 51
180.0
  0
ARC
  5
16C65
330
167D3
100
AcDbEntity
  8
SUNPOU
  6
ByBlock
100
AcDbCircle
 10
12521.6642600104
 20
2340.365723386175
 30
0.0
 40
7.5
100
AcDbArc
 50
180.0
 51
0.0
  0
ARC
  5
16C66
330
167D3
100
AcDbEntity
  8
SUNPOU
  6
ByBlock
100
AcDbCircle
 10
12218.66426001041
 20
2844.705090723239
 30
0.0
 40
7.5
100
AcDbArc
 50
90.0
 51
270.0
  0
ARC
  5
16C67
330
167D3
100
AcDbEntity
  8
SUNPOU
  6
ByBlock
100
AcDbCircle
 10
12218.66426001041
 20
2844.705090723239
 30
0.0
 40
7.5
100
AcDbArc
 50
270.0
 51
90.0
  0
ARC
  5
16C68
330
167D3
100
AcDbEntity
  8
SUNPOU
  6
ByBlock
100
AcDbCircle
 10
12218.66426001041
 20
3004.705090723239
 30
0.0
 40
7.5
100
AcDbArc
 50
270.0
 51
90.0
  0
ARC
  5
16C69
330
167D3
100
AcDbEntity
  8
SUNPOU
  6
ByBlock
100
AcDbCircle
 10
12218.66426001041
 20
3004.705090723239
 30
0.0
 40
7.5
100
AcDbArc
 50
90.0
 51
270.0
  0
ARC
  5
16C6A
330
167D3
100
AcDbEntity
  8
SUNPOU
  6
ByBlock
100
AcDbCircle
 10
12218.66426001041
 20
3164.705090723239
 30
0.0
 40
7.5
100
AcDbArc
 50
270.0
 51
90.0
  0
ARC
  5
16C6B
330
167D3
100
AcDbEntity
  8
SUNPOU
  6
ByBlock
100
AcDbCircle
 10
12218.66426001041
 20
3164.705090723239
 30
0.0
 40
7.5
100
AcDbArc
 50
90.0
 51
270.0
  0
ARC
  5
16C6C
330
167D3
100
AcDbEntity
  8
SUNPOU
  6
ByBlock
100
AcDbCircle
 10
12218.66426001041
 20
3004.705090723239
 30
0.0
 40
7.5
100
AcDbArc
 50
90.0
 51
270.0
  0
ARC
  5
16C6D
330
167D3
100
AcDbEntity
  8
SUNPOU
  6
ByBlock
100
AcDbCircle
 10
12218.66426001041
 20
3004.705090723239
 30
0.0
 40
7.5
100
AcDbArc
 50
270.0
 51
90.0
  0
ARC
  5
16C6E
330
167D3
100
AcDbEntity
  8
SUNPOU
  6
ByBlock
100
AcDbCircle
 10
12008.66426001041
 20
3164.705090723239
 30
0.0
 40
7.5
100
AcDbArc
 50
270.0
 51
90.0
  0
ARC
  5
16C6F
330
167D3
100
AcDbEntity
  8
SUNPOU
  6
ByBlock
100
AcDbCircle
 10
12008.66426001041
 20
3164.705090723239
 30
0.0
 40
7.5
100
AcDbArc
 50
90.0
 51
270.0
  0
ARC
  5
16C70
330
167D3
100
AcDbEntity
  8
SUNPOU
  6
ByBlock
100
AcDbCircle
 10
12008.66426001041
 20
2844.705090723239
 30
0.0
 40
7.5
100
AcDbArc
 50
90.0
 51
270.0
  0
ARC
  5
16C71
330
167D3
100
AcDbEntity
  8
SUNPOU
  6
ByBlock
100
AcDbCircle
 10
12008.66426001041
 20
2844.705090723239
 30
0.0
 40
7.5
100
AcDbArc
 50
270.0
 51
90.0
  0
ARC
  5
16C72
330
167D3
100
AcDbEntity
  8
SUNPOU
  6
ByBlock
100
AcDbCircle
 10
13161.66426001041
 20
3698.731609325147
 30
0.0
 40
7.5
100
AcDbArc
 50
0.0
 51
180.0
  0
ARC
  5
16C73
330
167D3
100
AcDbEntity
  8
SUNPOU
  6
ByBlock
100
AcDbCircle
 10
13161.66426001041
 20
3698.731609325147
 30
0.0
 40
7.5
100
AcDbArc
 50
180.0
 51
0.0
  0
ARC
  5
16C74
330
167D3
100
AcDbEntity
  8
SUNPOU
  6
ByBlock
100
AcDbCircle
 10
13081.66426001041
 20
3698.731609325147
 30
0.0
 40
7.5
100
AcDbArc
 50
180.0
 51
0.0
  0
ARC
  5
16C75
330
167D3
100
AcDbEntity
  8
SUNPOU
  6
ByBlock
100
AcDbCircle
 10
13081.66426001041
 20
3698.731609325147
 30
0.0
 40
7.5
100
AcDbArc
 50
0.0
 51
180.0
  0
ARC
  5
16C76
330
167D3
100
AcDbEntity
  8
SUNPOU
  6
ByBlock
100
AcDbCircle
 10
13081.66426001041
 20
3698.731609325147
 30
0.0
 40
7.5
100
AcDbArc
 50
180.0
 51
0.0
  0
ARC
  5
16C77
330
167D3
100
AcDbEntity
  8
SUNPOU
  6
ByBlock
100
AcDbCircle
 10
13081.66426001041
 20
3698.731609325147
 30
0.0
 40
7.5
100
AcDbArc
 50
0.0
 51
180.0
  0
ARC
  5
16C78
330
167D3
100
AcDbEntity
  8
SUNPOU
  6
ByBlock
100
AcDbCircle
 10
12601.66426001043
 20
3698.731609325147
 30
0.0
 40
7.5
100
AcDbArc
 50
0.0
 51
180.0
  0
ARC
  5
16C79
330
167D3
100
AcDbEntity
  8
SUNPOU
  6
ByBlock
100
AcDbCircle
 10
12601.66426001043
 20
3698.731609325147
 30
0.0
 40
7.5
100
AcDbArc
 50
180.0
 51
0.0
  0
ARC
  5
16C7A
330
167D3
100
AcDbEntity
  8
SUNPOU
  6
ByBlock
100
AcDbCircle
 10
12521.6642600104
 20
3698.731609325147
 30
0.0
 40
7.5
100
AcDbArc
 50
180.0
 51
0.0
  0
ARC
  5
16C7B
330
167D3
100
AcDbEntity
  8
SUNPOU
  6
ByBlock
100
AcDbCircle
 10
12521.6642600104
 20
3698.731609325147
 30
0.0
 40
7.5
100
AcDbArc
 50
0.0
 51
180.0
  0
ARC
  5
16C7C
330
167D3
100
AcDbEntity
  8
SUNPOU
  6
ByBlock
100
AcDbCircle
 10
12601.66426001043
 20
3698.731609325147
 30
0.0
 40
7.5
100
AcDbArc
 50
0.0
 51
180.0
  0
ARC
  5
16C7D
330
167D3
100
AcDbEntity
  8
SUNPOU
  6
ByBlock
100
AcDbCircle
 10
12601.66426001043
 20
3698.731609325147
 30
0.0
 40
7.5
100
AcDbArc
 50
180.0
 51
0.0
  0
ARC
  5
16C7E
330
167D3
100
AcDbEntity
  8
SUNPOU
  6
ByBlock
100
AcDbCircle
 10
13161.66426001041
 20
3488.731609325148
 30
0.0
 40
7.5
100
AcDbArc
 50
180.0
 51
0.0
  0
ARC
  5
16C7F
330
167D3
100
AcDbEntity
  8
SUNPOU
  6
ByBlock
100
AcDbCircle
 10
13161.66426001041
 20
3488.731609325148
 30
0.0
 40
7.5
100
AcDbArc
 50
0.0
 51
180.0
  0
ARC
  5
16C80
330
167D3
100
AcDbEntity
  8
SUNPOU
  6
ByBlock
100
AcDbCircle
 10
12521.6642600104
 20
3488.731609325148
 30
0.0
 40
7.5
100
AcDbArc
 50
0.0
 51
180.0
  0
ARC
  5
16C81
330
167D3
100
AcDbEntity
  8
SUNPOU
  6
ByBlock
100
AcDbCircle
 10
12521.6642600104
 20
3488.731609325148
 30
0.0
 40
7.5
100
AcDbArc
 50
180.0
 51
0.0
  0
ARC
  5
16C82
330
167D3
100
AcDbEntity
  8
SUNPOU
  6
ByBlock
100
AcDbCircle
 10
10672.2085569219
 20
2421.245586089687
 30
0.0
 40
7.5
100
AcDbArc
 50
180.0
 51
0.0
  0
ARC
  5
16C83
330
167D3
100
AcDbEntity
  8
SUNPOU
  6
ByBlock
100
AcDbCircle
 10
10672.2085569219
 20
2421.245586089687
 30
0.0
 40
7.5
100
AcDbArc
 50
0.0
 51
180.0
  0
ARC
  5
16C84
330
167D3
100
AcDbEntity
  8
SUNPOU
  6
ByBlock
100
AcDbCircle
 10
9552.208556921902
 20
2421.245586089687
 30
0.0
 40
7.5
100
AcDbArc
 50
0.0
 51
180.0
  0
ARC
  5
16C85
330
167D3
100
AcDbEntity
  8
SUNPOU
  6
ByBlock
100
AcDbCircle
 10
9552.208556921902
 20
2421.245586089687
 30
0.0
 40
7.5
100
AcDbArc
 50
180.0
 51
0.0
  0
ARC
  5
16C86
330
167D3
100
AcDbEntity
  8
SUNPOU
  6
ByBlock
100
AcDbCircle
 10
10832.2085569219
 20
2211.245586089688
 30
0.0
 40
7.5
100
AcDbArc
 50
180.0
 51
0.0
  0
ARC
  5
16C87
330
167D3
100
AcDbEntity
  8
SUNPOU
  6
ByBlock
100
AcDbCircle
 10
10832.2085569219
 20
2211.245586089688
 30
0.0
 40
7.5
100
AcDbArc
 50
0.0
 51
180.0
  0
ARC
  5
16C88
330
167D3
100
AcDbEntity
  8
SUNPOU
  6
ByBlock
100
AcDbCircle
 10
9392.208556921904
 20
2211.245586089688
 30
0.0
 40
7.5
100
AcDbArc
 50
0.0
 51
180.0
  0
ARC
  5
16C89
330
167D3
100
AcDbEntity
  8
SUNPOU
  6
ByBlock
100
AcDbCircle
 10
9392.208556921904
 20
2211.245586089688
 30
0.0
 40
7.5
100
AcDbArc
 50
180.0
 51
0.0
  0
ARC
  5
16C8A
330
167D3
100
AcDbEntity
  8
SUNPOU
  6
ByBlock
100
AcDbCircle
 10
8347.067503157843
 20
3751.645586089699
 30
0.0
 40
7.5
100
AcDbArc
 50
90.0
 51
270.0
  0
ARC
  5
16C8B
330
167D3
100
AcDbEntity
  8
SUNPOU
  6
ByBlock
100
AcDbCircle
 10
8347.067503157843
 20
3751.645586089699
 30
0.0
 40
7.5
100
AcDbArc
 50
270.0
 51
90.0
  0
ARC
  5
16C8C
330
167D3
100
AcDbEntity
  8
SUNPOU
  6
ByBlock
100
AcDbCircle
 10
8347.067503157843
 20
3671.645586089699
 30
0.0
 40
7.5
100
AcDbArc
 50
270.0
 51
90.0
  0
ARC
  5
16C8D
330
167D3
100
AcDbEntity
  8
SUNPOU
  6
ByBlock
100
AcDbCircle
 10
8347.067503157843
 20
3671.645586089699
 30
0.0
 40
7.5
100
AcDbArc
 50
90.0
 51
270.0
  0
ARC
  5
16C8E
330
167D3
100
AcDbEntity
  8
SUNPOU
  6
ByBlock
100
AcDbCircle
 10
8992.208556921905
 20
4435.046158226285
 30
0.0
 40
7.5
100
AcDbArc
 50
0.0
 51
180.0
  0
ARC
  5
16C8F
330
167D3
100
AcDbEntity
  8
SUNPOU
  6
ByBlock
100
AcDbCircle
 10
8992.208556921905
 20
4435.046158226285
 30
0.0
 40
7.5
100
AcDbArc
 50
180.0
 51
0.0
  0
ARC
  5
16C90
330
167D3
100
AcDbEntity
  8
SUNPOU
  6
ByBlock
100
AcDbCircle
 10
10112.2085569219
 20
4435.046158226285
 30
0.0
 40
7.5
100
AcDbArc
 50
180.0
 51
0.0
  0
ARC
  5
16C91
330
167D3
100
AcDbEntity
  8
SUNPOU
  6
ByBlock
100
AcDbCircle
 10
10112.2085569219
 20
4435.046158226285
 30
0.0
 40
7.5
100
AcDbArc
 50
0.0
 51
180.0
  0
ARC
  5
16C92
330
167D3
100
AcDbEntity
  8
SUNPOU
  6
ByBlock
100
AcDbCircle
 10
6660.122937215781
 20
2421.245586089687
 30
0.0
 40
7.5
100
AcDbArc
 50
180.0
 51
0.0
  0
ARC
  5
16C93
330
167D3
100
AcDbEntity
  8
SUNPOU
  6
ByBlock
100
AcDbCircle
 10
6660.122937215781
 20
2421.245586089687
 30
0.0
 40
7.5
100
AcDbArc
 50
0.0
 51
180.0
  0
ARC
  5
16C94
330
167D3
100
AcDbEntity
  8
SUNPOU
  6
ByBlock
100
AcDbCircle
 10
5540.122937215781
 20
2421.245586089687
 30
0.0
 40
7.5
100
AcDbArc
 50
0.0
 51
180.0
  0
ARC
  5
16C95
330
167D3
100
AcDbEntity
  8
SUNPOU
  6
ByBlock
100
AcDbCircle
 10
5540.122937215781
 20
2421.245586089687
 30
0.0
 40
7.5
100
AcDbArc
 50
180.0
 51
0.0
  0
ARC
  5
16C96
330
167D3
100
AcDbEntity
  8
SUNPOU
  6
ByBlock
100
AcDbCircle
 10
6820.122937215778
 20
2211.245586089688
 30
0.0
 40
7.5
100
AcDbArc
 50
180.0
 51
0.0
  0
ARC
  5
16C97
330
167D3
100
AcDbEntity
  8
SUNPOU
  6
ByBlock
100
AcDbCircle
 10
6820.122937215778
 20
2211.245586089688
 30
0.0
 40
7.5
100
AcDbArc
 50
0.0
 51
180.0
  0
ARC
  5
16C98
330
167D3
100
AcDbEntity
  8
SUNPOU
  6
ByBlock
100
AcDbCircle
 10
5380.122937215781
 20
2211.245586089688
 30
0.0
 40
7.5
100
AcDbArc
 50
0.0
 51
180.0
  0
ARC
  5
16C99
330
167D3
100
AcDbEntity
  8
SUNPOU
  6
ByBlock
100
AcDbCircle
 10
5380.122937215781
 20
2211.245586089688
 30
0.0
 40
7.5
100
AcDbArc
 50
180.0
 51
0.0
  0
ARC
  5
16C9A
330
167D3
100
AcDbEntity
  8
SUNPOU
  6
ByBlock
100
AcDbCircle
 10
4840.769541215022
 20
3751.645586089699
 30
0.0
 40
7.5
100
AcDbArc
 50
90.0
 51
270.0
  0
ARC
  5
16C9B
330
167D3
100
AcDbEntity
  8
SUNPOU
  6
ByBlock
100
AcDbCircle
 10
4840.769541215022
 20
3751.645586089699
 30
0.0
 40
7.5
100
AcDbArc
 50
270.0
 51
90.0
  0
ARC
  5
16C9C
330
167D3
100
AcDbEntity
  8
SUNPOU
  6
ByBlock
100
AcDbCircle
 10
4840.769541215022
 20
3671.645586089695
 30
0.0
 40
7.5
100
AcDbArc
 50
270.0
 51
90.0
  0
ARC
  5
16C9D
330
167D3
100
AcDbEntity
  8
SUNPOU
  6
ByBlock
100
AcDbCircle
 10
4840.769541215022
 20
3671.645586089695
 30
0.0
 40
7.5
100
AcDbArc
 50
90.0
 51
270.0
  0
ARC
  5
16C9E
330
167D3
100
AcDbEntity
  8
SUNPOU
  6
ByBlock
100
AcDbCircle
 10
5260.769541215023
 20
3495.645586089686
 30
0.0
 40
7.5
100
AcDbArc
 50
270.0
 51
90.0
  0
ARC
  5
16C9F
330
167D3
100
AcDbEntity
  8
SUNPOU
  6
ByBlock
100
AcDbCircle
 10
5260.769541215023
 20
3495.645586089686
 30
0.0
 40
7.5
100
AcDbArc
 50
90.0
 51
270.0
  0
ARC
  5
16CA0
330
167D3
100
AcDbEntity
  8
SUNPOU
  6
ByBlock
100
AcDbCircle
 10
5260.769541215023
 20
3623.645586089689
 30
0.0
 40
7.5
100
AcDbArc
 50
90.0
 51
270.0
  0
ARC
  5
16CA1
330
167D3
100
AcDbEntity
  8
SUNPOU
  6
ByBlock
100
AcDbCircle
 10
5260.769541215023
 20
3623.645586089689
 30
0.0
 40
7.5
100
AcDbArc
 50
270.0
 51
90.0
  0
ARC
  5
16CA2
330
167D3
100
AcDbEntity
  8
SUNPOU
  6
ByBlock
100
AcDbCircle
 10
5260.769541215022
 20
3751.645586089699
 30
0.0
 40
7.5
100
AcDbArc
 50
90.0
 51
270.0
  0
ARC
  5
16CA3
330
167D3
100
AcDbEntity
  8
SUNPOU
  6
ByBlock
100
AcDbCircle
 10
5260.769541215022
 20
3751.645586089699
 30
0.0
 40
7.5
100
AcDbArc
 50
270.0
 51
90.0
  0
ARC
  5
16CA4
330
167D3
100
AcDbEntity
  8
SUNPOU
  6
ByBlock
100
AcDbCircle
 10
5260.769541215022
 20
3623.645586089689
 30
0.0
 40
7.5
100
AcDbArc
 50
270.0
 51
90.0
  0
ARC
  5
16CA5
330
167D3
100
AcDbEntity
  8
SUNPOU
  6
ByBlock
100
AcDbCircle
 10
5260.769541215022
 20
3623.645586089689
 30
0.0
 40
7.5
100
AcDbArc
 50
90.0
 51
270.0
  0
ARC
  5
16CA6
330
167D3
100
AcDbEntity
  8
SUNPOU
  6
ByBlock
100
AcDbCircle
 10
5260.769541215022
 20
3495.645586089686
 30
0.0
 40
7.5
100
AcDbArc
 50
270.0
 51
90.0
  0
ARC
  5
16CA7
330
167D3
100
AcDbEntity
  8
SUNPOU
  6
ByBlock
100
AcDbCircle
 10
5260.769541215022
 20
3495.645586089686
 30
0.0
 40
7.5
100
AcDbArc
 50
90.0
 51
270.0
  0
ARC
  5
16CA8
330
167D3
100
AcDbEntity
  8
SUNPOU
  6
ByBlock
100
AcDbCircle
 10
5260.769541215022
 20
2983.645586089689
 30
0.0
 40
7.5
100
AcDbArc
 50
90.0
 51
270.0
  0
ARC
  5
16CA9
330
167D3
100
AcDbEntity
  8
SUNPOU
  6
ByBlock
100
AcDbCircle
 10
5260.769541215022
 20
2983.645586089689
 30
0.0
 40
7.5
100
AcDbArc
 50
270.0
 51
90.0
  0
ARC
  5
16CAA
330
167D3
100
AcDbEntity
  8
SUNPOU
  6
ByBlock
100
AcDbCircle
 10
5540.122937215781
 20
4435.046158226281
 30
0.0
 40
7.5
100
AcDbArc
 50
0.0
 51
180.0
  0
ARC
  5
16CAB
330
167D3
100
AcDbEntity
  8
SUNPOU
  6
ByBlock
100
AcDbCircle
 10
5540.122937215781
 20
4435.046158226281
 30
0.0
 40
7.5
100
AcDbArc
 50
180.0
 51
0.0
  0
ARC
  5
16CAC
330
167D3
100
AcDbEntity
  8
SUNPOU
  6
ByBlock
100
AcDbCircle
 10
6100.122937215783
 20
4435.046158226281
 30
0.0
 40
7.5
100
AcDbArc
 50
180.0
 51
0.0
  0
ARC
  5
16CAD
330
167D3
100
AcDbEntity
  8
SUNPOU
  6
ByBlock
100
AcDbCircle
 10
6100.122937215783
 20
4435.046158226281
 30
0.0
 40
7.5
100
AcDbArc
 50
0.0
 51
180.0
  0
ARC
  5
16CAE
330
167D3
100
AcDbEntity
  8
SUNPOU
  6
ByBlock
100
AcDbCircle
 10
10108.17471819527
 20
6552.341779768404
 30
0.0
 40
7.5
100
AcDbArc
 50
180.0
 51
0.0
  0
ARC
  5
16CAF
330
167D3
100
AcDbEntity
  8
SUNPOU
  6
ByBlock
100
AcDbCircle
 10
10108.17471819527
 20
6552.341779768404
 30
0.0
 40
7.5
100
AcDbArc
 50
0.0
 51
180.0
  0
ARC
  5
16CB0
330
167D3
100
AcDbEntity
  8
SUNPOU
  6
ByBlock
100
AcDbCircle
 10
9758.17471819529
 20
6552.341779768404
 30
0.0
 40
7.5
100
AcDbArc
 50
0.0
 51
180.0
  0
ARC
  5
16CB1
330
167D3
100
AcDbEntity
  8
SUNPOU
  6
ByBlock
100
AcDbCircle
 10
9758.17471819529
 20
6552.341779768404
 30
0.0
 40
7.5
100
AcDbArc
 50
180.0
 51
0.0
  0
ARC
  5
16CB2
330
167D3
100
AcDbEntity
  8
SUNPOU
  6
ByBlock
100
AcDbCircle
 10
9758.17471819529
 20
6552.341779768403
 30
0.0
 40
7.5
100
AcDbArc
 50
180.0
 51
0.0
  0
ARC
  5
16CB3
330
167D3
100
AcDbEntity
  8
SUNPOU
  6
ByBlock
100
AcDbCircle
 10
9758.17471819529
 20
6552.341779768403
 30
0.0
 40
7.5
100
AcDbArc
 50
0.0
 51
180.0
  0
ARC
  5
16CB4
330
167D3
100
AcDbEntity
  8
SUNPOU
  6
ByBlock
100
AcDbCircle
 10
6958.174718195287
 20
6552.341779768403
 30
0.0
 40
7.5
100
AcDbArc
 50
0.0
 51
180.0
  0
ARC
  5
16CB5
330
167D3
100
AcDbEntity
  8
SUNPOU
  6
ByBlock
100
AcDbCircle
 10
6958.174718195287
 20
6552.341779768403
 30
0.0
 40
7.5
100
AcDbArc
 50
180.0
 51
0.0
  0
ARC
  5
16CB6
330
167D3
100
AcDbEntity
  8
SUNPOU
  6
ByBlock
100
AcDbCircle
 10
6958.174718195287
 20
6552.341779768403
 30
0.0
 40
7.5
100
AcDbArc
 50
180.0
 51
0.0
  0
ARC
  5
16CB7
330
167D3
100
AcDbEntity
  8
SUNPOU
  6
ByBlock
100
AcDbCircle
 10
6958.174718195287
 20
6552.341779768403
 30
0.0
 40
7.5
100
AcDbArc
 50
0.0
 51
180.0
  0
ARC
  5
16CB8
330
167D3
100
AcDbEntity
  8
SUNPOU
  6
ByBlock
100
AcDbCircle
 10
6608.174718195286
 20
6552.341779768403
 30
0.0
 40
7.5
100
AcDbArc
 50
0.0
 51
180.0
  0
ARC
  5
16CB9
330
167D3
100
AcDbEntity
  8
SUNPOU
  6
ByBlock
100
AcDbCircle
 10
6608.174718195286
 20
6552.341779768403
 30
0.0
 40
7.5
100
AcDbArc
 50
180.0
 51
0.0
  0
ARC
  5
16CBA
330
167D3
100
AcDbEntity
  8
HIKIDASHI
100
AcDbCircle
 10
8900.838491308837
 20
2193.630314612557
 30
0.0
 40
74.66417910452284
100
AcDbArc
 50
164.8596129850915
 51
237.5045002941574
  0
ARC
  5
16CBB
330
167D3
100
AcDbEntity
  8
HIKIDASHI
100
AcDbCircle
 10
8837.414697262531
 20
2210.791338097042
 30
0.0
 40
8.959701492542745
100
AcDbArc
 50
15.14038701504827
 51
164.8596129849796
  0
LINE
  5
16CBC
330
167D3
100
AcDbEntity
  8
HIKIDASHI
100
AcDbLine
 10
13165.51708291145
 20
2924.550838861425
 30
0.0
 11
13556.96828470476
 21
2550.365723386175
 31
0.0
1001
ACAD
1000
DSTYLE
1002
{
1070
   147
1040
1.0
1070
    77
1070
     0
1002
}
  0
LINE
  5
16CBD
330
167D3
100
AcDbEntity
  8
HIKIDASHI
100
AcDbLine
 10
13174.73021530936
 20
2934.189094367291
 30
0.0
 11
13107.68754987624
 21
2979.829633248883
 31
0.0
  0
LINE
  5
16CBE
330
167D3
100
AcDbEntity
  8
HIKIDASHI
100
AcDbLine
 10
13107.68754987624
 20
2979.829633248883
 30
0.0
 11
13156.30395051354
 21
2914.912583355557
 31
0.0
  0
SOLID
  5
16CBF
330
167D3
100
AcDbEntity
  8
HIKIDASHI
100
AcDbTrace
 10
13174.73021530936
 20
2934.189094367291
 30
0.0
 11
13156.30395051354
 21
2914.912583355557
 31
0.0
 12
13107.68754987624
 22
2979.829633248883
 32
0.0
 13
13107.68754987624
 23
2979.829633248883
 33
0.0
  0
LINE
  5
16CC0
330
167D3
100
AcDbEntity
  8
HIKIDASHI
100
AcDbLine
 10
13156.30395051354
 20
2914.912583355557
 30
0.0
 11
13174.73021530936
 21
2934.189094367291
 31
0.0
  0
LINE
  5
16CC1
330
167D3
100
AcDbEntity
  8
HIKIDASHI
100
AcDbLine
 10
13218.82017466847
 20
3220.680097821055
 30
0.0
 11
13373.55951818639
 21
3372.222346834924
 31
0.0
1001
ACAD
1000
DSTYLE
1002
{
1070
   147
1040
1.0
1070
    77
1070
     0
1002
}
  0
LINE
  5
16CC2
330
167D3
100
AcDbEntity
  8
HIKIDASHI
100
AcDbLine
 10
13209.49100681882
 20
3230.2060835974
 30
0.0
 11
13161.66426001041
 21
3164.705090723239
 31
0.0
  0
LINE
  5
16CC3
330
167D3
100
AcDbEntity
  8
HIKIDASHI
100
AcDbLine
 10
13161.66426001041
 20
3164.705090723239
 30
0.0
 11
13228.14934251811
 21
3211.154112044712
 31
0.0
  0
SOLID
  5
16CC4
330
167D3
100
AcDbEntity
  8
HIKIDASHI
100
AcDbTrace
 10
13209.49100681882
 20
3230.2060835974
 30
0.0
 11
13228.14934251811
 21
3211.154112044712
 31
0.0
 12
13161.66426001041
 22
3164.705090723239
 32
0.0
 13
13161.66426001041
 23
3164.705090723239
 33
0.0
  0
LINE
  5
16CC5
330
167D3
100
AcDbEntity
  8
HIKIDASHI
100
AcDbLine
 10
13228.14934251811
 20
3211.154112044712
 30
0.0
 11
13209.49100681882
 21
3230.2060835974
 31
0.0
  0
LINE
  5
16CC6
330
167D3
100
AcDbEntity
  8
HIKIDASHI
100
AcDbLine
 10
9897.528357461297
 20
3094.849731896537
 30
0.0
 11
9100.110712020796
 21
2243.245586089694
 31
0.0
1001
ACAD
1000
DSTYLE
1002
{
1070
   147
1040
1.0
1070
    77
1070
     0
1002
}
  0
LINE
  5
16CC7
330
167D3
100
AcDbEntity
  8
HIKIDASHI
100
AcDbLine
 10
9907.260999826824
 20
3085.736365319771
 30
0.0
 11
9952.208556921901
 21
3153.245586089696
 31
0.0
  0
LINE
  5
16CC8
330
167D3
100
AcDbEntity
  8
HIKIDASHI
100
AcDbLine
 10
9952.208556921901
 20
3153.245586089696
 30
0.0
 11
9887.795715095773
 21
3103.963098473306
 31
0.0
  0
SOLID
  5
16CC9
330
167D3
100
AcDbEntity
  8
HIKIDASHI
100
AcDbTrace
 10
9907.260999826824
 20
3085.736365319771
 30
0.0
 11
9887.795715095773
 21
3103.963098473306
 31
0.0
 12
9952.208556921901
 22
3153.245586089696
 32
0.0
 13
9952.208556921901
 23
3153.245586089696
 33
0.0
  0
LINE
  5
16CCA
330
167D3
100
AcDbEntity
  8
HIKIDASHI
100
AcDbLine
 10
9887.795715095773
 20
3103.963098473306
 30
0.0
 11
9907.260999826824
 21
3085.736365319771
 31
0.0
  0
ARC
  5
16CCB
330
167D3
100
AcDbEntity
  8
HIKIDASHI
100
AcDbCircle
 10
8775.170429751966
 20
2194.810441972148
 30
0.0
 40
74.66417910452253
100
AcDbArc
 50
301.7712278330703
 51
15.14038701490934
  0
LINE
  5
16CCC
330
167D3
100
AcDbEntity
  8
HIKIDASHI
100
AcDbLine
 10
6406.410548614336
 20
3820.927618392455
 30
0.0
 11
6634.185933787673
 21
4215.446158226288
 31
0.0
1001
ACAD
1000
DSTYLE
1002
{
1070
   147
1040
1.0
1070
    77
1070
     0
1002
}
  0
LINE
  5
16CCD
330
167D3
100
AcDbEntity
  8
HIKIDASHI
100
AcDbLine
 10
6394.863543230544
 20
3827.594285059122
 30
0.0
 11
6366.410548614338
 21
3751.645586089699
 31
0.0
  0
LINE
  5
16CCE
330
167D3
100
AcDbEntity
  8
HIKIDASHI
100
AcDbLine
 10
6366.410548614338
 20
3751.645586089699
 30
0.0
 11
6417.95755399813
 21
3814.26095172579
 31
0.0
  0
SOLID
  5
16CCF
330
167D3
100
AcDbEntity
  8
HIKIDASHI
100
AcDbTrace
 10
6394.863543230544
 20
3827.594285059122
 30
0.0
 11
6417.95755399813
 21
3814.26095172579
 31
0.0
 12
6366.410548614338
 22
3751.645586089699
 32
0.0
 13
6366.410548614338
 23
3751.645586089699
 33
0.0
  0
LINE
  5
16CD0
330
167D3
100
AcDbEntity
  8
HIKIDASHI
100
AcDbLine
 10
6417.95755399813
 20
3814.26095172579
 30
0.0
 11
6394.863543230544
 21
3827.594285059122
 31
0.0
  0
LINE
  5
16CD1
330
167D3
100
AcDbEntity
  8
HIKIDASHI
100
AcDbLine
 10
6869.461953877806
 20
2786.272088213013
 30
0.0
 11
7036.663982750976
 21
2572.864985222971
 31
0.0
1001
ACAD
1000
DSTYLE
1002
{
1070
   147
1040
1.0
1070
    77
1070
     0
1002
}
  0
LINE
  5
16CD2
330
167D3
100
AcDbEntity
  8
HIKIDASHI
100
AcDbLine
 10
6879.957536857253
 20
2794.495257656685
 30
0.0
 11
6820.122937215778
 21
2849.245586089692
 31
0.0
  0
LINE
  5
16CD3
330
167D3
100
AcDbEntity
  8
HIKIDASHI
100
AcDbLine
 10
6820.122937215778
 20
2849.245586089692
 30
0.0
 11
6858.966370898361
 21
2778.048918769342
 31
0.0
  0
SOLID
  5
16CD4
330
167D3
100
AcDbEntity
  8
HIKIDASHI
100
AcDbTrace
 10
6879.957536857253
 20
2794.495257656685
 30
0.0
 11
6858.966370898361
 21
2778.048918769342
 31
0.0
 12
6820.122937215778
 22
2849.245586089692
 32
0.0
 13
6820.122937215778
 23
2849.245586089692
 33
0.0
  0
LINE
  5
16CD5
330
167D3
100
AcDbEntity
  8
HIKIDASHI
100
AcDbLine
 10
6858.966370898361
 20
2778.048918769342
 30
0.0
 11
6879.957536857253
 21
2794.495257656685
 31
0.0
  0
LINE
  5
16CD6
330
167D3
100
AcDbEntity
  8
HIKIDASHI
100
AcDbLine
 10
6747.545818300229
 20
3491.274087203999
 30
0.0
 11
6895.197548559474
 21
3208.675453690969
 31
0.0
1001
ACAD
1000
DSTYLE
1002
{
1070
    41
1040
2.0
1070
   173
1070
     0
1070
   341
1005
125B0
1002
}
  0
ARC
  5
16CD7
330
167D3
100
AcDbEntity
  8
HIKIDASHI
  6
ByBlock
100
AcDbCircle
 10
6686.629548932443
 20
3564.676048977093
 30
0.0
 40
24.0
100
AcDbArc
 50
241.1434129563093
 51
354.0287934324678
  0
ARC
  5
16CD8
330
167D3
100
AcDbEntity
  8
HIKIDASHI
  6
ByBlock
100
AcDbCircle
 10
6734.369115310328
 20
3559.682673159919
 30
0.0
 40
24.0
100
AcDbArc
 50
61.1434129563092
 51
174.0287934324676
  0
LINE
  5
16CD9
330
167D3
100
AcDbEntity
  8
HIKIDASHI
  6
ByBlock
100
AcDbLine
 10
6710.499332121385
 20
3562.179361068507
 30
0.0
 11
6747.545818300236
 21
3491.274087203983
 31
0.0
  0
LINE
  5
16CDA
330
167D3
100
AcDbEntity
  8
HATCH
100
AcDbLine
 10
9304.280033979758
 20
3495.645586089042
 30
0.0
 11
9378.180868436025
 21
3623.645586089035
 31
0.0
  0
LINE
  5
16CDB
330
167D3
100
AcDbEntity
  8
HATCH
100
AcDbLine
 10
9339.780868436028
 20
3623.645586089035
 30
0.0
 11
9358.980868436029
 21
3590.390210583716
 31
0.0
  0
LINE
  5
16CDC
330
167D3
100
AcDbEntity
  8
HATCH
100
AcDbLine
 10
9016.280033979759
 20
3495.645586089042
 30
0.0
 11
9090.180868436027
 21
3623.645586089035
 31
0.0
  0
LINE
  5
16CDD
330
167D3
100
AcDbEntity
  8
HATCH
100
AcDbLine
 10
9051.780868436026
 20
3623.645586089035
 30
0.0
 11
9070.980868436025
 21
3590.390210583716
 31
0.0
  0
LINE
  5
16CDE
330
167D3
100
AcDbEntity
  8
HATCH
100
AcDbLine
 10
9160.280033979757
 20
3495.645586089042
 30
0.0
 11
9234.180868436025
 21
3623.645586089035
 31
0.0
  0
LINE
  5
16CDF
330
167D3
100
AcDbEntity
  8
HATCH
100
AcDbLine
 10
9195.780868436029
 20
3623.645586089035
 30
0.0
 11
9214.980868436025
 21
3590.390210583716
 31
0.0
  0
LINE
  5
16CE0
330
167D3
100
AcDbEntity
  8
HATCH
100
AcDbLine
 10
9448.280033979758
 20
3495.645586089042
 30
0.0
 11
9522.180868436025
 21
3623.645586089035
 31
0.0
  0
LINE
  5
16CE1
330
167D3
100
AcDbEntity
  8
HATCH
100
AcDbLine
 10
9483.780868436028
 20
3623.645586089035
 30
0.0
 11
9502.980868436024
 21
3590.390210583716
 31
0.0
  0
LINE
  5
16CE2
330
167D3
100
AcDbEntity
  8
HATCH
100
AcDbLine
 10
9304.280033981674
 20
3495.645586089661
 30
0.0
 11
9378.180868437963
 21
3623.645586089689
 31
0.0
  0
LINE
  5
16CE3
330
167D3
100
AcDbEntity
  8
HATCH
100
AcDbLine
 10
9339.780868437953
 20
3623.645586089689
 30
0.0
 11
9358.980868437958
 21
3590.390210584363
 31
0.0
  0
LINE
  5
16CE4
330
167D3
100
AcDbEntity
  8
HATCH
100
AcDbLine
 10
9448.280033981673
 20
3495.645586089661
 30
0.0
 11
9522.180868437963
 21
3623.645586089689
 31
0.0
  0
LINE
  5
16CE5
330
167D3
100
AcDbEntity
  8
HATCH
100
AcDbLine
 10
9483.780868437952
 20
3623.645586089689
 30
0.0
 11
9502.980868437958
 21
3590.390210584363
 31
0.0
  0
LINE
  5
16CE6
330
167D3
100
AcDbEntity
  8
HATCH
100
AcDbLine
 10
9160.280033981674
 20
3495.645586089661
 30
0.0
 11
9234.180868437963
 21
3623.645586089689
 31
0.0
  0
LINE
  5
16CE7
330
167D3
100
AcDbEntity
  8
HATCH
100
AcDbLine
 10
9195.780868437955
 20
3623.645586089689
 30
0.0
 11
9214.98086843796
 21
3590.390210584363
 31
0.0
  0
LINE
  5
16CE8
330
167D3
100
AcDbEntity
  8
HATCH
100
AcDbLine
 10
9016.280033981672
 20
3495.645586089661
 30
0.0
 11
9090.180868437963
 21
3623.645586089689
 31
0.0
  0
LINE
  5
16CE9
330
167D3
100
AcDbEntity
  8
HATCH
100
AcDbLine
 10
9051.780868437955
 20
3623.645586089689
 30
0.0
 11
9070.980868437958
 21
3590.390210584363
 31
0.0
  0
LINE
  5
16CEA
330
167D3
100
AcDbEntity
  8
KISO
100
AcDbLine
 10
6820.122937215778
 20
2983.645586089688
 30
0.0
 11
5380.122937215781
 21
2983.645586089689
 31
0.0
  0
LINE
  5
16CEB
330
167D3
100
AcDbEntity
  8
KISO
100
AcDbLine
 10
5380.122937215781
 20
2983.645586089689
 30
0.0
 11
5380.122937215781
 21
2823.645586089688
 31
0.0
  0
LINE
  5
16CEC
330
167D3
100
AcDbEntity
  8
KISO
100
AcDbLine
 10
5380.122937215781
 20
2823.645586089688
 30
0.0
 11
6820.122937215778
 21
2823.645586089688
 31
0.0
  0
LINE
  5
16CED
330
167D3
100
AcDbEntity
  8
KISO
100
AcDbLine
 10
6820.122937215778
 20
2823.645586089688
 30
0.0
 11
6820.122937215778
 21
2983.645586089688
 31
0.0
  0
LINE
  5
16CEE
330
167D3
100
AcDbEntity
  8
KISO
100
AcDbLine
 10
9392.208556921904
 20
2983.645586089688
 30
0.0
 11
10832.2085569219
 21
2983.645586089688
 31
0.0
  0
LINE
  5
16CEF
330
167D3
100
AcDbEntity
  8
KISO
100
AcDbLine
 10
10832.2085569219
 20
2983.645586089688
 30
0.0
 11
10832.2085569219
 21
2823.645586089688
 31
0.0
  0
LINE
  5
16CF0
330
167D3
100
AcDbEntity
  8
KISO
100
AcDbLine
 10
10832.2085569219
 20
2823.645586089688
 30
0.0
 11
9392.208556921904
 21
2823.645586089688
 31
0.0
  0
LINE
  5
16CF1
330
167D3
100
AcDbEntity
  8
KISO
100
AcDbLine
 10
9392.208556921904
 20
2823.645586089688
 30
0.0
 11
9392.208556921904
 21
2983.645586089688
 31
0.0
  0
LINE
  5
16CF2
330
167D3
100
AcDbEntity
  8
U1
100
AcDbLine
 10
12691.66426001041
 20
2854.705090723239
 30
0.0
 11
12991.6642600104
 21
2854.705090723239
 31
0.0
  0
LINE
  5
16CF3
330
167D3
100
AcDbEntity
  8
U1
100
AcDbLine
 10
12991.6642600104
 20
2854.705090723239
 30
0.0
 11
12991.6642600104
 21
3154.705090723239
 31
0.0
  0
LINE
  5
16CF4
330
167D3
100
AcDbEntity
  8
U1
100
AcDbLine
 10
12991.6642600104
 20
3154.705090723239
 30
0.0
 11
12691.66426001041
 21
3154.705090723239
 31
0.0
  0
LINE
  5
16CF5
330
167D3
100
AcDbEntity
  8
U1
100
AcDbLine
 10
12691.66426001041
 20
3154.705090723239
 30
0.0
 11
12691.66426001041
 21
2854.705090723239
 31
0.0
  0
LINE
  5
16CF6
330
167D3
100
AcDbEntity
  8
U1
100
AcDbLine
 10
12521.6642600104
 20
2844.705090723239
 30
0.0
 11
13161.66426001041
 21
2844.705090723239
 31
0.0
  0
LINE
  5
16CF7
330
167D3
100
AcDbEntity
  8
U1
100
AcDbLine
 10
13161.66426001041
 20
2844.705090723239
 30
0.0
 11
13161.66426001041
 21
3164.705090723239
 31
0.0
  0
LINE
  5
16CF8
330
167D3
100
AcDbEntity
  8
U1
100
AcDbLine
 10
13161.66426001041
 20
3164.705090723239
 30
0.0
 11
12521.6642600104
 21
3164.705090723239
 31
0.0
  0
LINE
  5
16CF9
330
167D3
100
AcDbEntity
  8
U1
100
AcDbLine
 10
12521.6642600104
 20
3164.705090723239
 30
0.0
 11
12521.6642600104
 21
2844.705090723239
 31
0.0
  0
LINE
  5
16CFA
330
167D3
100
AcDbEntity
  8
U1
100
AcDbLine
 10
12521.6642600104
 20
3922.897783254649
 30
0.0
 11
13161.66426001041
 21
3922.897783254649
 31
0.0
  0
LINE
  5
16CFB
330
167D3
100
AcDbEntity
  8
U1
100
AcDbLine
 10
13161.66426001041
 20
3922.897783254649
 30
0.0
 11
13161.66426001041
 21
3946.89778325465
 31
0.0
  0
LINE
  5
16CFC
330
167D3
100
AcDbEntity
  8
U1
100
AcDbLine
 10
13161.66426001041
 20
3946.89778325465
 30
0.0
 11
12521.6642600104
 21
3946.89778325465
 31
0.0
  0
LINE
  5
16CFD
330
167D3
100
AcDbEntity
  8
U1
100
AcDbLine
 10
12521.6642600104
 20
3946.89778325465
 30
0.0
 11
12521.6642600104
 21
3922.897783254649
 31
0.0
  0
LINE
  5
16CFE
330
167D3
100
AcDbEntity
  8
HATCH
100
AcDbLine
 10
11048.87453883705
 20
3495.645586089044
 30
0.0
 11
11122.77537329332
 21
3623.645586089036
 31
0.0
  0
LINE
  5
16CFF
330
167D3
100
AcDbEntity
  8
HATCH
100
AcDbLine
 10
11084.37537329332
 20
3623.645586089036
 30
0.0
 11
11103.57537329332
 21
3590.390210583717
 31
0.0
  0
LINE
  5
16D00
330
167D3
100
AcDbEntity
  8
HATCH
100
AcDbLine
 10
10760.87453883705
 20
3495.645586089044
 30
0.0
 11
10834.77537329331
 21
3623.645586089036
 31
0.0
  0
LINE
  5
16D01
330
167D3
100
AcDbEntity
  8
HATCH
100
AcDbLine
 10
10796.37537329332
 20
3623.645586089036
 30
0.0
 11
10815.57537329332
 21
3590.390210583717
 31
0.0
  0
LINE
  5
16D02
330
167D3
100
AcDbEntity
  8
HATCH
100
AcDbLine
 10
10904.87453883705
 20
3495.645586089044
 30
0.0
 11
10978.77537329332
 21
3623.645586089036
 31
0.0
  0
LINE
  5
16D03
330
167D3
100
AcDbEntity
  8
HATCH
100
AcDbLine
 10
10940.37537329332
 20
3623.645586089036
 30
0.0
 11
10959.57537329332
 21
3590.390210583717
 31
0.0
  0
LINE
  5
16D04
330
167D3
100
AcDbEntity
  8
HATCH
100
AcDbLine
 10
11192.87453883705
 20
3495.645586089044
 30
0.0
 11
11266.77537329332
 21
3623.645586089036
 31
0.0
  0
LINE
  5
16D05
330
167D3
100
AcDbEntity
  8
HATCH
100
AcDbLine
 10
11228.37537329332
 20
3623.645586089036
 30
0.0
 11
11247.57537329332
 21
3590.390210583717
 31
0.0
  0
LINE
  5
16D06
330
167D3
100
AcDbEntity
  8
HATCH
100
AcDbLine
 10
11048.87453883897
 20
3495.645586089663
 30
0.0
 11
11122.77537329525
 21
3623.64558608969
 31
0.0
  0
LINE
  5
16D07
330
167D3
100
AcDbEntity
  8
HATCH
100
AcDbLine
 10
11084.37537329524
 20
3623.645586089689
 30
0.0
 11
11103.57537329525
 21
3590.390210584363
 31
0.0
  0
LINE
  5
16D08
330
167D3
100
AcDbEntity
  8
HATCH
100
AcDbLine
 10
11192.87453883897
 20
3495.645586089663
 30
0.0
 11
11266.77537329525
 21
3623.64558608969
 31
0.0
  0
LINE
  5
16D09
330
167D3
100
AcDbEntity
  8
HATCH
100
AcDbLine
 10
11228.37537329524
 20
3623.645586089689
 30
0.0
 11
11247.57537329525
 21
3590.390210584363
 31
0.0
  0
LINE
  5
16D0A
330
167D3
100
AcDbEntity
  8
HATCH
100
AcDbLine
 10
10904.87453883897
 20
3495.645586089663
 30
0.0
 11
10978.77537329526
 21
3623.64558608969
 31
0.0
  0
LINE
  5
16D0B
330
167D3
100
AcDbEntity
  8
HATCH
100
AcDbLine
 10
10940.37537329525
 20
3623.645586089689
 30
0.0
 11
10959.57537329525
 21
3590.390210584363
 31
0.0
  0
LINE
  5
16D0C
330
167D3
100
AcDbEntity
  8
HATCH
100
AcDbLine
 10
10760.87453883897
 20
3495.645586089663
 30
0.0
 11
10834.77537329526
 21
3623.64558608969
 31
0.0
  0
LINE
  5
16D0D
330
167D3
100
AcDbEntity
  8
HATCH
100
AcDbLine
 10
10796.37537329525
 20
3623.645586089689
 30
0.0
 11
10815.57537329525
 21
3590.390210584363
 31
0.0
  0
LINE
  5
16D0E
330
167D3
100
AcDbEntity
  8
TENSEN-1
100
AcDbLine
 10
10272.2085569219
 20
3174.045586089695
 30
0.0
 11
10218.60855692189
 21
3174.045586089695
 31
0.0
  0
LINE
  5
16D0F
330
167D3
100
AcDbEntity
  8
TENSEN-1
100
AcDbLine
 10
10218.60855692189
 20
3174.045586089695
 30
0.0
 11
10218.60855692189
 21
3665.245586089696
 31
0.0
  0
LINE
  5
16D10
330
167D3
100
AcDbEntity
  8
TENSEN-1
100
AcDbLine
 10
10218.60855692189
 20
3665.245586089696
 30
0.0
 11
10197.8085569219
 21
3665.245586089696
 31
0.0
  0
LINE
  5
16D11
330
167D3
100
AcDbEntity
  8
TENSEN-1
100
AcDbLine
 10
10197.8085569219
 20
3665.245586089696
 30
0.0
 11
10197.8085569219
 21
3153.245586089696
 31
0.0
  0
LINE
  5
16D12
330
167D3
100
AcDbEntity
  8
TENSEN-1
100
AcDbLine
 10
10197.8085569219
 20
3153.245586089696
 30
0.0
 11
10272.2085569219
 21
3153.245586089696
 31
0.0
  0
LINE
  5
16D13
330
167D3
100
AcDbEntity
  8
TENSEN-1
100
AcDbLine
 10
10272.2085569219
 20
3153.245586089696
 30
0.0
 11
10272.2085569219
 21
3174.045586089695
 31
0.0
  0
LINE
  5
16D14
330
167D3
100
AcDbEntity
  8
TENSEN-1
100
AcDbLine
 10
9952.208556921901
 20
3174.045586089695
 30
0.0
 11
10005.8085569219
 21
3174.045586089695
 31
0.0
  0
LINE
  5
16D15
330
167D3
100
AcDbEntity
  8
TENSEN-1
100
AcDbLine
 10
10005.8085569219
 20
3174.045586089695
 30
0.0
 11
10005.8085569219
 21
3665.245586089696
 31
0.0
  0
LINE
  5
16D16
330
167D3
100
AcDbEntity
  8
TENSEN-1
100
AcDbLine
 10
10005.8085569219
 20
3665.245586089696
 30
0.0
 11
10026.6085569219
 21
3665.245586089696
 31
0.0
  0
LINE
  5
16D17
330
167D3
100
AcDbEntity
  8
TENSEN-1
100
AcDbLine
 10
10026.6085569219
 20
3665.245586089696
 30
0.0
 11
10026.6085569219
 21
3153.245586089696
 31
0.0
  0
LINE
  5
16D18
330
167D3
100
AcDbEntity
  8
TENSEN-1
100
AcDbLine
 10
10026.6085569219
 20
3153.245586089696
 30
0.0
 11
9952.208556921901
 21
3153.245586089696
 31
0.0
  0
LINE
  5
16D19
330
167D3
100
AcDbEntity
  8
TENSEN-1
100
AcDbLine
 10
9952.208556921901
 20
3153.245586089696
 30
0.0
 11
9952.208556921901
 21
3174.045586089695
 31
0.0
  0
LINE
  5
16D1A
330
167D3
100
AcDbEntity
  8
HASHIRA
100
AcDbLine
 10
9984.208556921904
 20
3623.645586089696
 30
0.0
 11
10240.20855692189
 21
3623.645586089696
 31
0.0
  0
LINE
  5
16D1B
330
167D3
100
AcDbEntity
  8
HASHIRA
100
AcDbLine
 10
10240.20855692189
 20
3623.645586089696
 30
0.0
 11
10240.20855692189
 21
3633.245586089696
 31
0.0
  0
LINE
  5
16D1C
330
167D3
100
AcDbEntity
  8
HASHIRA
100
AcDbLine
 10
10240.20855692189
 20
3633.245586089696
 30
0.0
 11
9984.208556921904
 21
3633.245586089696
 31
0.0
  0
LINE
  5
16D1D
330
167D3
100
AcDbEntity
  8
HASHIRA
100
AcDbLine
 10
9984.208556921904
 20
3633.245586089696
 30
0.0
 11
9984.208556921904
 21
3623.645586089696
 31
0.0
  0
LINE
  5
16D1E
330
167D3
100
AcDbEntity
  8
BOLT
100
AcDbLine
 10
10125.8085569219
 20
3665.245586089696
 30
0.0
 11
10125.8085569219
 21
3673.097549750673
 31
0.0
  0
LINE
  5
16D1F
330
167D3
100
AcDbEntity
  8
BOLT
100
AcDbLine
 10
10125.8085569219
 20
3673.097549750673
 30
0.0
 11
10112.2085569219
 21
3680.949513411655
 31
0.0
  0
LINE
  5
16D20
330
167D3
100
AcDbEntity
  8
BOLT
100
AcDbLine
 10
10112.2085569219
 20
3680.949513411655
 30
0.0
 11
10098.60855692189
 21
3673.097549750673
 31
0.0
  0
LINE
  5
16D21
330
167D3
100
AcDbEntity
  8
BOLT
100
AcDbLine
 10
10098.60855692189
 20
3673.097549750673
 30
0.0
 11
10098.60855692189
 21
3665.245586089696
 31
0.0
  0
LINE
  5
16D22
330
167D3
100
AcDbEntity
  8
BOLT
100
AcDbLine
 10
10098.60855692189
 20
3665.245586089696
 30
0.0
 11
10098.60855692189
 21
3657.393622428717
 31
0.0
  0
LINE
  5
16D23
330
167D3
100
AcDbEntity
  8
BOLT
100
AcDbLine
 10
10098.60855692189
 20
3657.393622428717
 30
0.0
 11
10112.2085569219
 21
3649.541658767736
 31
0.0
  0
LINE
  5
16D24
330
167D3
100
AcDbEntity
  8
BOLT
100
AcDbLine
 10
10112.2085569219
 20
3649.541658767736
 30
0.0
 11
10125.8085569219
 21
3657.393622428717
 31
0.0
  0
LINE
  5
16D25
330
167D3
100
AcDbEntity
  8
BOLT
100
AcDbLine
 10
10125.8085569219
 20
3657.393622428717
 30
0.0
 11
10125.8085569219
 21
3665.245586089696
 31
0.0
  0
LINE
  5
16D26
330
167D3
100
AcDbEntity
  8
BOLT
100
AcDbLine
 10
10125.8085569219
 20
3729.245586089696
 30
0.0
 11
10125.8085569219
 21
3737.097549750673
 31
0.0
  0
LINE
  5
16D27
330
167D3
100
AcDbEntity
  8
BOLT
100
AcDbLine
 10
10125.8085569219
 20
3737.097549750673
 30
0.0
 11
10112.2085569219
 21
3744.949513411655
 31
0.0
  0
LINE
  5
16D28
330
167D3
100
AcDbEntity
  8
BOLT
100
AcDbLine
 10
10112.2085569219
 20
3744.949513411655
 30
0.0
 11
10098.60855692189
 21
3737.097549750673
 31
0.0
  0
LINE
  5
16D29
330
167D3
100
AcDbEntity
  8
BOLT
100
AcDbLine
 10
10098.60855692189
 20
3737.097549750673
 30
0.0
 11
10098.60855692189
 21
3729.245586089696
 31
0.0
  0
LINE
  5
16D2A
330
167D3
100
AcDbEntity
  8
BOLT
100
AcDbLine
 10
10098.60855692189
 20
3729.245586089696
 30
0.0
 11
10098.60855692189
 21
3721.393622428717
 31
0.0
  0
LINE
  5
16D2B
330
167D3
100
AcDbEntity
  8
BOLT
100
AcDbLine
 10
10098.60855692189
 20
3721.393622428717
 30
0.0
 11
10112.2085569219
 21
3713.541658767737
 31
0.0
  0
LINE
  5
16D2C
330
167D3
100
AcDbEntity
  8
BOLT
100
AcDbLine
 10
10112.2085569219
 20
3713.541658767737
 30
0.0
 11
10125.8085569219
 21
3721.393622428717
 31
0.0
  0
LINE
  5
16D2D
330
167D3
100
AcDbEntity
  8
BOLT
100
AcDbLine
 10
10125.8085569219
 20
3721.393622428717
 30
0.0
 11
10125.8085569219
 21
3729.245586089696
 31
0.0
  0
LINE
  5
16D2E
330
167D3
100
AcDbEntity
  8
HATCH
100
AcDbLine
 10
7117.764738111603
 20
3495.645586090311
 30
0.0
 11
7191.665572567872
 21
3623.645586090304
 31
0.0
  0
LINE
  5
16D2F
330
167D3
100
AcDbEntity
  8
HATCH
100
AcDbLine
 10
7153.265572567874
 20
3623.645586090304
 30
0.0
 11
7172.465572567872
 21
3590.390210584986
 31
0.0
  0
LINE
  5
16D30
330
167D3
100
AcDbEntity
  8
HATCH
100
AcDbLine
 10
6829.764738111603
 20
3495.645586090311
 30
0.0
 11
6903.665572567874
 21
3623.645586090304
 31
0.0
  0
LINE
  5
16D31
330
167D3
100
AcDbEntity
  8
HATCH
100
AcDbLine
 10
6865.265572567874
 20
3623.645586090304
 30
0.0
 11
6884.465572567873
 21
3590.390210584986
 31
0.0
  0
LINE
  5
16D32
330
167D3
100
AcDbEntity
  8
HATCH
100
AcDbLine
 10
6973.764738111603
 20
3495.645586090311
 30
0.0
 11
7047.665572567872
 21
3623.645586090304
 31
0.0
  0
LINE
  5
16D33
330
167D3
100
AcDbEntity
  8
HATCH
100
AcDbLine
 10
7009.265572567874
 20
3623.645586090304
 30
0.0
 11
7028.465572567873
 21
3590.390210584986
 31
0.0
  0
LINE
  5
16D34
330
167D3
100
AcDbEntity
  8
HASHIRA
100
AcDbLine
 10
6036.122937215782
 20
3623.645586089697
 30
0.0
 11
6164.122937215783
 21
3623.645586089697
 31
0.0
  0
LINE
  5
16D35
330
167D3
100
AcDbEntity
  8
HASHIRA
100
AcDbLine
 10
6164.122937215783
 20
3623.645586089697
 30
0.0
 11
6164.122937215783
 21
3633.245586089696
 31
0.0
  0
LINE
  5
16D36
330
167D3
100
AcDbEntity
  8
HASHIRA
100
AcDbLine
 10
6164.122937215783
 20
3633.245586089696
 30
0.0
 11
6036.122937215782
 21
3633.245586089696
 31
0.0
  0
LINE
  5
16D37
330
167D3
100
AcDbEntity
  8
HASHIRA
100
AcDbLine
 10
6036.122937215782
 20
3633.245586089696
 30
0.0
 11
6036.122937215782
 21
3623.645586089697
 31
0.0
  0
LINE
  5
16D38
330
167D3
100
AcDbEntity
  8
TENSEN-1
100
AcDbLine
 10
6036.122937215782
 20
3174.045586089697
 30
0.0
 11
6089.72293721578
 21
3174.045586089697
 31
0.0
  0
LINE
  5
16D39
330
167D3
100
AcDbEntity
  8
TENSEN-1
100
AcDbLine
 10
6089.72293721578
 20
3174.045586089697
 30
0.0
 11
6089.72293721578
 21
3665.245586089696
 31
0.0
  0
LINE
  5
16D3A
330
167D3
100
AcDbEntity
  8
TENSEN-1
100
AcDbLine
 10
6089.72293721578
 20
3665.245586089696
 30
0.0
 11
6110.522937215783
 21
3665.245586089696
 31
0.0
  0
LINE
  5
16D3B
330
167D3
100
AcDbEntity
  8
TENSEN-1
100
AcDbLine
 10
6110.522937215783
 20
3665.245586089696
 30
0.0
 11
6110.522937215783
 21
3153.245586089696
 31
0.0
  0
LINE
  5
16D3C
330
167D3
100
AcDbEntity
  8
TENSEN-1
100
AcDbLine
 10
6110.522937215783
 20
3153.245586089696
 30
0.0
 11
6036.122937215782
 21
3153.245586089696
 31
0.0
  0
LINE
  5
16D3D
330
167D3
100
AcDbEntity
  8
TENSEN-1
100
AcDbLine
 10
6036.122937215782
 20
3153.245586089696
 30
0.0
 11
6036.122937215782
 21
3174.045586089697
 31
0.0
  0
LINE
  5
16D3E
330
167D3
100
AcDbEntity
  8
HASHIRA
100
AcDbLine
 10
6920.674718195288
 20
7614.841779768402
 30
0.0
 11
6995.674718195288
 21
7614.841779768402
 31
0.0
  0
LINE
  5
16D3F
330
167D3
100
AcDbEntity
  8
HASHIRA
100
AcDbLine
 10
6995.674718195288
 20
7614.841779768402
 30
0.0
 11
6995.674718195288
 21
7689.841779768402
 31
0.0
  0
LINE
  5
16D40
330
167D3
100
AcDbEntity
  8
HASHIRA
100
AcDbLine
 10
6995.674718195288
 20
7689.841779768402
 30
0.0
 11
6920.674718195288
 21
7689.841779768402
 31
0.0
  0
LINE
  5
16D41
330
167D3
100
AcDbEntity
  8
HASHIRA
100
AcDbLine
 10
6920.674718195288
 20
7689.841779768402
 30
0.0
 11
6920.674718195288
 21
7614.841779768402
 31
0.0
  0
LINE
  5
16D42
330
167D3
100
AcDbEntity
  8
HASHIRA
100
AcDbLine
 10
6920.674718195288
 20
9049.841779768399
 30
0.0
 11
6995.674718195288
 21
9049.841779768399
 31
0.0
  0
LINE
  5
16D43
330
167D3
100
AcDbEntity
  8
HASHIRA
100
AcDbLine
 10
6995.674718195288
 20
9049.841779768399
 30
0.0
 11
6995.674718195288
 21
9124.8417797684
 31
0.0
  0
LINE
  5
16D44
330
167D3
100
AcDbEntity
  8
HASHIRA
100
AcDbLine
 10
6995.674718195288
 20
9124.8417797684
 30
0.0
 11
6920.674718195288
 21
9124.8417797684
 31
0.0
  0
LINE
  5
16D45
330
167D3
100
AcDbEntity
  8
HASHIRA
100
AcDbLine
 10
6920.674718195288
 20
9124.8417797684
 30
0.0
 11
6920.674718195288
 21
9049.841779768399
 31
0.0
  0
LINE
  5
16D46
330
167D3
100
AcDbEntity
  8
HASHIRA
100
AcDbLine
 10
9720.67471819529
 20
7614.841779768403
 30
0.0
 11
9795.674718195289
 21
7614.841779768403
 31
0.0
  0
LINE
  5
16D47
330
167D3
100
AcDbEntity
  8
HASHIRA
100
AcDbLine
 10
9795.674718195289
 20
7614.841779768403
 30
0.0
 11
9795.674718195289
 21
7689.841779768403
 31
0.0
  0
LINE
  5
16D48
330
167D3
100
AcDbEntity
  8
HASHIRA
100
AcDbLine
 10
9795.674718195289
 20
7689.841779768403
 30
0.0
 11
9720.67471819529
 21
7689.841779768403
 31
0.0
  0
LINE
  5
16D49
330
167D3
100
AcDbEntity
  8
HASHIRA
100
AcDbLine
 10
9720.67471819529
 20
7689.841779768403
 30
0.0
 11
9720.67471819529
 21
7614.841779768403
 31
0.0
  0
LINE
  5
16D4A
330
167D3
100
AcDbEntity
  8
KISO
100
AcDbLine
 10
9408.174718195288
 20
8737.341779768405
 30
0.0
 11
10108.17471819527
 21
8737.341779768405
 31
0.0
  0
LINE
  5
16D4B
330
167D3
100
AcDbEntity
  8
KISO
100
AcDbLine
 10
10108.17471819527
 20
8737.341779768405
 30
0.0
 11
10108.17471819527
 21
9437.341779768406
 31
0.0
  0
LINE
  5
16D4C
330
167D3
100
AcDbEntity
  8
KISO
100
AcDbLine
 10
10108.17471819527
 20
9437.341779768406
 30
0.0
 11
9408.174718195288
 21
9437.341779768406
 31
0.0
  0
LINE
  5
16D4D
330
167D3
100
AcDbEntity
  8
KISO
100
AcDbLine
 10
9408.174718195288
 20
9437.341779768406
 30
0.0
 11
9408.174718195288
 21
8737.341779768405
 31
0.0
  0
LINE
  5
16D4E
330
167D3
100
AcDbEntity
  8
HASHIRA
100
AcDbLine
 10
9720.67471819529
 20
9049.841779768405
 30
0.0
 11
9795.674718195289
 21
9049.841779768405
 31
0.0
  0
LINE
  5
16D4F
330
167D3
100
AcDbEntity
  8
HASHIRA
100
AcDbLine
 10
9795.674718195289
 20
9049.841779768405
 30
0.0
 11
9795.674718195289
 21
9124.841779768406
 31
0.0
  0
LINE
  5
16D50
330
167D3
100
AcDbEntity
  8
HASHIRA
100
AcDbLine
 10
9795.674718195289
 20
9124.841779768406
 30
0.0
 11
9720.67471819529
 21
9124.841779768406
 31
0.0
  0
LINE
  5
16D51
330
167D3
100
AcDbEntity
  8
HASHIRA
100
AcDbLine
 10
9720.67471819529
 20
9124.841779768406
 30
0.0
 11
9720.67471819529
 21
9049.841779768405
 31
0.0
  0
LINE
  5
16D52
330
167D3
100
AcDbEntity
  8
KISO
100
AcDbLine
 10
9408.174718195288
 20
7302.341779768403
 30
0.0
 11
10108.17471819527
 21
7302.341779768403
 31
0.0
  0
LINE
  5
16D53
330
167D3
100
AcDbEntity
  8
KISO
100
AcDbLine
 10
10108.17471819527
 20
7302.341779768403
 30
0.0
 11
10108.17471819527
 21
8002.341779768403
 31
0.0
  0
LINE
  5
16D54
330
167D3
100
AcDbEntity
  8
KISO
100
AcDbLine
 10
10108.17471819527
 20
8002.341779768403
 30
0.0
 11
9408.174718195288
 21
8002.341779768403
 31
0.0
  0
LINE
  5
16D55
330
167D3
100
AcDbEntity
  8
KISO
100
AcDbLine
 10
9408.174718195288
 20
8002.341779768403
 30
0.0
 11
9408.174718195288
 21
7302.341779768403
 31
0.0
  0
LINE
  5
16D56
330
167D3
100
AcDbEntity
  8
KISO
100
AcDbLine
 10
6608.174718195286
 20
8737.341779768401
 30
0.0
 11
7308.174718195286
 21
8737.341779768401
 31
0.0
  0
LINE
  5
16D57
330
167D3
100
AcDbEntity
  8
KISO
100
AcDbLine
 10
7308.174718195286
 20
8737.341779768401
 30
0.0
 11
7308.174718195286
 21
9437.3417797684
 31
0.0
  0
LINE
  5
16D58
330
167D3
100
AcDbEntity
  8
KISO
100
AcDbLine
 10
7308.174718195286
 20
9437.3417797684
 30
0.0
 11
6608.174718195286
 21
9437.3417797684
 31
0.0
  0
LINE
  5
16D59
330
167D3
100
AcDbEntity
  8
KISO
100
AcDbLine
 10
6608.174718195286
 20
9437.3417797684
 30
0.0
 11
6608.174718195286
 21
8737.341779768401
 31
0.0
  0
LINE
  5
16D5A
330
167D3
100
AcDbEntity
  8
KISO
100
AcDbLine
 10
6608.174718195286
 20
7302.341779768402
 30
0.0
 11
7308.174718195286
 21
7302.341779768402
 31
0.0
  0
LINE
  5
16D5B
330
167D3
100
AcDbEntity
  8
KISO
100
AcDbLine
 10
7308.174718195286
 20
7302.341779768402
 30
0.0
 11
7308.174718195286
 21
8002.341779768402
 31
0.0
  0
LINE
  5
16D5C
330
167D3
100
AcDbEntity
  8
KISO
100
AcDbLine
 10
7308.174718195286
 20
8002.341779768402
 30
0.0
 11
6608.174718195286
 21
8002.341779768402
 31
0.0
  0
LINE
  5
16D5D
330
167D3
100
AcDbEntity
  8
KISO
100
AcDbLine
 10
6608.174718195286
 20
8002.341779768402
 30
0.0
 11
6608.174718195286
 21
7302.341779768402
 31
0.0
  0
LINE
  5
16D5E
330
167D3
100
AcDbEntity
  8
HATCH
100
AcDbLine
 10
9342.680033979748
 20
3495.645586089042
 30
0.0
 11
9323.480033979754
 21
3528.900961594361
 31
0.0
  0
LINE
  5
16D5F
330
167D3
100
AcDbEntity
  8
HATCH
100
AcDbLine
 10
9054.680033979748
 20
3495.645586089042
 30
0.0
 11
9035.48003397975
 21
3528.900961594361
 31
0.0
  0
LINE
  5
16D60
330
167D3
100
AcDbEntity
  8
HATCH
100
AcDbLine
 10
9198.680033979748
 20
3495.645586089042
 30
0.0
 11
9179.480033979753
 21
3528.900961594361
 31
0.0
  0
LINE
  5
16D61
330
167D3
100
AcDbEntity
  8
HATCH
100
AcDbLine
 10
9486.680033979748
 20
3495.645586089042
 30
0.0
 11
9467.480033979752
 21
3528.900961594361
 31
0.0
  0
LINE
  5
16D62
330
167D3
100
AcDbEntity
  8
HATCH
100
AcDbLine
 10
9342.680033981677
 20
3495.645586089661
 30
0.0
 11
9323.480033981672
 21
3528.900961594989
 31
0.0
  0
LINE
  5
16D63
330
167D3
100
AcDbEntity
  8
HATCH
100
AcDbLine
 10
9486.680033981674
 20
3495.645586089661
 30
0.0
 11
9467.480033981672
 21
3528.900961594989
 31
0.0
  0
LINE
  5
16D64
330
167D3
100
AcDbEntity
  8
HATCH
100
AcDbLine
 10
9198.680033981677
 20
3495.645586089661
 30
0.0
 11
9179.480033981672
 21
3528.900961594989
 31
0.0
  0
LINE
  5
16D65
330
167D3
100
AcDbEntity
  8
HATCH
100
AcDbLine
 10
9054.680033981677
 20
3495.645586089661
 30
0.0
 11
9035.480033981672
 21
3528.900961594989
 31
0.0
  0
LINE
  5
16D66
330
167D3
100
AcDbEntity
  8
HIKIDASHI
100
AcDbLine
 10
10582.16356511443
 20
3820.927618392454
 30
0.0
 11
10809.93895028776
 21
4215.446158226288
 31
0.0
1001
ACAD
1000
DSTYLE
1002
{
1070
   147
1040
1.0
1070
    77
1070
     0
1002
}
  0
LINE
  5
16D67
330
167D3
100
AcDbEntity
  8
HIKIDASHI
100
AcDbLine
 10
10570.61655973063
 20
3827.59428505912
 30
0.0
 11
10542.16356511443
 21
3751.645586089697
 31
0.0
  0
LINE
  5
16D68
330
167D3
100
AcDbEntity
  8
HIKIDASHI
100
AcDbLine
 10
10542.16356511443
 20
3751.645586089697
 30
0.0
 11
10593.71057049822
 21
3814.260951725787
 31
0.0
  0
SOLID
  5
16D69
330
167D3
100
AcDbEntity
  8
HIKIDASHI
100
AcDbTrace
 10
10570.61655973063
 20
3827.59428505912
 30
0.0
 11
10593.71057049822
 21
3814.260951725787
 31
0.0
 12
10542.16356511443
 22
3751.645586089697
 32
0.0
 13
10542.16356511443
 23
3751.645586089697
 33
0.0
  0
LINE
  5
16D6A
330
167D3
100
AcDbEntity
  8
HIKIDASHI
100
AcDbLine
 10
10593.71057049822
 20
3814.260951725787
 30
0.0
 11
10570.61655973063
 21
3827.59428505912
 31
0.0
  0
LINE
  5
16D6B
330
167D3
100
AcDbEntity
  8
HATCH
100
AcDbLine
 10
11087.27453883704
 20
3495.645586089044
 30
0.0
 11
11068.07453883704
 21
3528.900961594362
 31
0.0
  0
LINE
  5
16D6C
330
167D3
100
AcDbEntity
  8
HATCH
100
AcDbLine
 10
10799.27453883704
 20
3495.645586089044
 30
0.0
 11
10780.07453883704
 21
3528.900961594362
 31
0.0
  0
LINE
  5
16D6D
330
167D3
100
AcDbEntity
  8
HATCH
100
AcDbLine
 10
10943.27453883703
 20
3495.645586089044
 30
0.0
 11
10924.07453883704
 21
3528.900961594362
 31
0.0
  0
LINE
  5
16D6E
330
167D3
100
AcDbEntity
  8
HATCH
100
AcDbLine
 10
11231.27453883704
 20
3495.645586089044
 30
0.0
 11
11212.07453883704
 21
3528.900961594362
 31
0.0
  0
LINE
  5
16D6F
330
167D3
100
AcDbEntity
  8
HATCH
100
AcDbLine
 10
11087.27453883897
 20
3495.645586089663
 30
0.0
 11
11068.07453883897
 21
3528.900961594989
 31
0.0
  0
LINE
  5
16D70
330
167D3
100
AcDbEntity
  8
HATCH
100
AcDbLine
 10
11231.27453883897
 20
3495.645586089663
 30
0.0
 11
11212.07453883896
 21
3528.900961594989
 31
0.0
  0
LINE
  5
16D71
330
167D3
100
AcDbEntity
  8
HATCH
100
AcDbLine
 10
10943.27453883897
 20
3495.645586089663
 30
0.0
 11
10924.07453883897
 21
3528.900961594989
 31
0.0
  0
LINE
  5
16D72
330
167D3
100
AcDbEntity
  8
HATCH
100
AcDbLine
 10
10799.27453883896
 20
3495.645586089663
 30
0.0
 11
10780.07453883897
 21
3528.900961594989
 31
0.0
  0
LINE
  5
16D73
330
167D3
100
AcDbEntity
  8
HATCH
100
AcDbLine
 10
7156.164738111596
 20
3495.645586090311
 30
0.0
 11
7136.964738111598
 21
3528.900961595631
 31
0.0
  0
LINE
  5
16D74
330
167D3
100
AcDbEntity
  8
HATCH
100
AcDbLine
 10
6868.164738111595
 20
3495.645586090311
 30
0.0
 11
6848.964738111597
 21
3528.900961595631
 31
0.0
  0
LINE
  5
16D75
330
167D3
100
AcDbEntity
  8
HATCH
100
AcDbLine
 10
7012.164738111597
 20
3495.645586090311
 30
0.0
 11
6992.964738111597
 21
3528.900961595631
 31
0.0
  0
TEXT
  5
16D97
330
167D3
100
AcDbEntity
  8
SUNPOU
100
AcDbText
 10
1571.584094864142
 20
5180.732507122923
 30
0.0
 40
89.9993750043402
  1
地耐力   　　　 以上,コンクリート設計基準強度　　　　　以上
  7
01
100
AcDbText
  0
TEXT
  5
16D98
330
167D3
100
AcDbEntity
  8
SUNPOU
100
AcDbText
 10
1571.584094864142
 20
5026.44679283721
 30
0.0
 40
89.9993750043402
  1
基準風速   　　 , 地表面粗度区分
  7
01
100
AcDbText
  0
TEXT
  5
16D99
330
167D3
100
AcDbEntity
  8
SUNPOU
100
AcDbText
 10
1880.57031775603
 20
4837.193993452689
 30
0.0
 40
90.0
  1
寒冷地の場合、凍結深度等を考慮し、実情に
  7
01
100
AcDbText
  0
TEXT
  5
16D9A
330
167D3
100
AcDbEntity
  8
SUNPOU
100
AcDbText
 10
1880.57031775603
 20
4528.622564881259
 30
0.0
 40
90.0
  1
その他現地の実情にあわせて設計して下さい。
  7
01
100
AcDbText
  0
TEXT
  5
16D9B
330
167D3
100
AcDbEntity
  8
SUNPOU
100
AcDbText
 10
1880.57031775603
 20
4682.90827916697
 30
0.0
 40
90.0
  1
あわせて設計して下さい。
  7
01
100
AcDbText
  0
TEXT
  5
16D9C
330
167D3
100
AcDbEntity
  8
SUNPOU
100
AcDbText
 10
1566.377609005053
 20
5527.48650956888
 30
0.0
 40
120.0
  1
基礎断面図
  7
01
 72
     4
 11
1906.377609005053
 21
5587.486509568879
 31
0.0
100
AcDbText
  0
TEXT
  5
16D9D
330
167D3
100
AcDbEntity
  8
SUNPOU
100
AcDbText
 10
1441.02046614791
 20
5369.986509568879
 30
0.0
 40
90.0
  1
<下記条件での参考図>
  7
01
 72
     4
 11
2029.877609005053
 21
5414.98650956888
 31
0.0
100
AcDbText
  0
TEXT
  5
16D9E
330
167D3
100
AcDbEntity
  8
SUNPOU
100
AcDbText
 10
1563.730652453895
 20
4837.193993452689
 30
0.0
 40
90.0
  1
注　）
  7
01
100
AcDbText
  0
TEXT
  5
16D9F
330
167D3
100
AcDbEntity
  8
SUNPOU
100
AcDbText
 10
1563.730652453895
 20
4528.622564881259
 30
0.0
 40
90.0
  1
注　）
  7
01
100
AcDbText
  0
TEXT
  5
16DA0
330
167D3
100
AcDbEntity
  8
SUNPOU
100
AcDbText
 10
1674.364572666636
 20
4528.622564881259
 30
0.0
 40
90.0
  1
2
 41
0.6700000000000001
  7
01
100
AcDbText
  0
ARC
  5
16DA1
330
167D3
100
AcDbEntity
  8
SUNPOU
100
AcDbCircle
 10
1724.542368771341
 20
5144.519930564755
 30
0.0
 40
225.0
100
AcDbArc
 50
148.3472725282829
 51
211.652727471717
  0
TEXT
  5
16DA2
330
167D3
100
AcDbEntity
  8
SUNPOU
100
AcDbText
 10
1674.364572666636
 20
4837.193993452689
 30
0.0
 40
90.0
  1
1
 41
0.6700000000000001
  7
01
100
AcDbText
  0
TEXT
  5
16DA3
330
167D3
100
AcDbEntity
  8
SUNPOU
100
AcDbText
 10
2055.347523529303
 20
5026.44679283721
 30
0.0
 40
89.9993750043402
  1
34 m/s
 41
0.6700000000000001
  7
01
100
AcDbText
  0
TEXT
  5
16DA4
330
167D3
100
AcDbEntity
  8
SUNPOU
100
AcDbText
 10
2283.227946368023
 20
5539.794201876572
 30
0.0
 40
92.30769230769228
  1
（ S = 　　  ）
 41
0.6700000000000001
  7
00
 11
2283.227946368023
 21
5527.48650956888
 31
0.0
100
AcDbText
 73
     1
  0
TEXT
  5
16DA5
330
167D3
100
AcDbEntity
  8
SUNPOU
100
AcDbText
 10
1945.842502289214
 20
5180.732507122923
 30
0.0
 40
89.9993750043402
  1
50  N/m
 41
0.6700000000000001
  7
01
100
AcDbText
  0
TEXT
  5
16DA6
330
167D3
100
AcDbEntity
  8
SUNPOU
100
AcDbText
 10
2081.678955075165
 20
5180.732507122923
 30
0.0
 40
71.99950000347218
  1
K
 41
0.6700000000000001
  7
01
100
AcDbText
  0
TEXT
  5
16DA7
330
167D3
100
AcDbEntity
  8
SUNPOU
100
AcDbText
 10
2349.319111803564
 20
5230.920933480409
 30
0.0
 40
46.28539285937498
  1
2
 41
0.6700000000000001
  7
00
100
AcDbText
  0
TEXT
  5
16DA8
330
167D3
100
AcDbEntity
  8
SUNPOU
100
AcDbText
 10
2651.336775536464
 20
5537.332663415034
 30
0.0
 40
73.84615384615384
  1
/
 41
0.6700000000000001
  7
00
 11
2651.336775536464
 21
5527.48650956888
 31
0.0
100
AcDbText
 73
     1
  0
TEXT
  5
16DA9
330
167D3
100
AcDbEntity
  8
SUNPOU
100
AcDbText
 10
2602.930648221093
 20
5555.794201876573
 30
0.0
 40
73.84615384615384
  1
1
 41
0.6700000000000001
  7
00
 11
2602.930648221093
 21
5545.948048030419
 31
0.0
100
AcDbText
 73
     1
  0
TEXT
  5
16DAA
330
167D3
100
AcDbEntity
  8
SUNPOU
100
AcDbText
 10
2715.286218490844
 20
5518.871124953494
 30
0.0
 40
73.84615384615384
  1
25
 41
0.6700000000000001
  7
00
 11
2715.286218490844
 21
5509.02497110734
 31
0.0
100
AcDbText
 73
     1
  0
TEXT
  5
16DAB
330
167D3
100
AcDbEntity
  8
SUNPOU
100
AcDbText
 10
4126.431025936805
 20
5180.732507122923
 30
0.0
 40
89.9993750043402
  1
N/mm
 41
0.6700000000000001
  7
01
100
AcDbText
  0
LINE
  5
16DAC
330
167D3
100
AcDbEntity
  8
SUNPOU
100
AcDbLine
 10
3363.399656430745
 20
5109.939156535991
 30
0.0
 11
3419.649656430745
 21
5109.939156535991
 31
0.0
  0
LINE
  5
16DAD
330
167D3
100
AcDbEntity
  8
SUNPOU
100
AcDbLine
 10
3363.399656430745
 20
5026.446792837209
 30
0.0
 11
3419.649656430745
 21
5026.446792837209
 31
0.0
  0
LINE
  5
16DAE
330
167D3
100
AcDbEntity
  8
SUNPOU
100
AcDbLine
 10
3374.649656430745
 20
5026.44679283721
 30
0.0
 11
3374.649656430745
 21
5109.939156535991
 31
0.0
  0
LINE
  5
16DAF
330
167D3
100
AcDbEntity
  8
SUNPOU
100
AcDbLine
 10
3391.524656430745
 20
5026.44679283721
 30
0.0
 11
3391.524656430745
 21
5109.939156535991
 31
0.0
  0
LINE
  5
16DB0
330
167D3
100
AcDbEntity
  8
SUNPOU
100
AcDbLine
 10
3408.399656430746
 20
5026.44679283721
 30
0.0
 11
3408.399656430746
 21
5109.939156535991
 31
0.0
  0
TEXT
  5
16DB1
330
167D3
100
AcDbEntity
  8
SUNPOU
100
AcDbText
 10
3990.594573150854
 20
5180.732507122923
 30
0.0
 40
89.9993750043402
  1
18
 41
0.6700000000000001
  7
01
100
AcDbText
  0
TEXT
  5
16DB2
330
167D3
100
AcDbEntity
  8
SUNPOU
100
AcDbText
 10
4430.895507968203
 20
5230.920933480409
 30
0.0
 40
46.28539285937498
  1
2
 41
0.6700000000000001
  7
00
100
AcDbText
  0
ARC
  5
16DB3
330
167D3
100
AcDbEntity
  8
SUNPOU
100
AcDbCircle
 10
4579.772772501823
 20
5167.004211350544
 30
0.0
 40
225.0
100
AcDbArc
 50
328.3472725282829
 51
31.65272747171703
  0
ENDSEC
  0
SECTION
  2
OBJECTS
  0
DICTIONARY
  5
167C1
330
0
100
AcDbDictionary
281
     1
  3
ACAD_GROUP
350
167C2
  3
ACAD_LAYOUT
350
167CE
  3
ACAD_MLINESTYLE
350
167CB
  3
ACAD_PLOTSETTINGS
350
167CD
  3
ACAD_PLOTSTYLENAME
350
167C3
  3
AcDbVariableDictionary
350
16DB4
  0
DICTIONARY
  5
167C2
102
{ACAD_REACTORS
330
167C1
102
}
330
167C1
100
AcDbDictionary
281
     1
  0
DICTIONARY
  5
167CE
102
{ACAD_REACTORS
330
167C1
102
}
330
167C1
100
AcDbDictionary
281
     1
  3
Model
350
167D6
  3
ﾚｲｱｳﾄ1
350
167D2
  0
DICTIONARY
  5
167CB
102
{ACAD_REACTORS
330
167C1
102
}
330
167C1
100
AcDbDictionary
281
     1
  3
Standard
350
167CC
  0
DICTIONARY
  5
167CD
102
{ACAD_REACTORS
330
167C1
102
}
330
167C1
100
AcDbDictionary
281
     1
  0
ACDBDICTIONARYWDFLT
  5
167C3
102
{ACAD_REACTORS
330
167C1
102
}
330
167C1
100
AcDbDictionary
281
     1
  3
Normal
350
167C4
100
AcDbDictionaryWithDefault
340
167C4
  0
DICTIONARY
  5
16DB4
102
{ACAD_REACTORS
330
167C1
102
}
330
167C1
100
AcDbDictionary
281
     1
  3
DIMASSOC
350
16DB5
  0
LAYOUT
  5
167D6
102
{ACAD_REACTORS
330
167CE
102
}
330
167CE
100
AcDbPlotSettings
  1

  2
Muratec V-1200 Is@Web Printer
  4

  6

 40
0.0
 41
0.0
 42
0.0
 43
0.0
 44
0.0
 45
0.0
 46
0.0
 47
0.0
 48
0.0
 49
0.0
140
0.0
141
0.0
142
1.0
143
1.0
 70
  1712
 72
     0
 73
     0
 74
     0
  7

 75
     0
147
1.0
148
0.0
149
0.0
100
AcDbLayout
  1
Model
 70
     1
 71
     0
 10
0.0
 20
0.0
 11
12.0
 21
9.0
 12
0.0
 22
0.0
 32
0.0
 14
0.0
 24
0.0
 34
0.0
 15
0.0
 25
0.0
 35
0.0
146
0.0
 13
0.0
 23
0.0
 33
0.0
 16
1.0
 26
0.0
 36
0.0
 17
0.0
 27
1.0
 37
0.0
 76
     0
330
167D3
  0
LAYOUT
  5
167D2
102
{ACAD_REACTORS
330
167CE
102
}
330
167CE
100
AcDbPlotSettings
  1

  2
Muratec V-1200 Is@Web Printer
  4

  6

 40
0.0
 41
0.0
 42
0.0
 43
0.0
 44
0.0
 45
0.0
 46
0.0
 47
0.0
 48
0.0
 49
0.0
140
0.0
141
0.0
142
1.0
143
1.0
 70
   688
 72
     0
 73
     0
 74
     5
  7

 75
    16
147
1.0
148
0.0
149
0.0
100
AcDbLayout
  1
ﾚｲｱｳﾄ1
 70
     0
 71
     1
 10
0.0
 20
0.0
 11
12.0
 21
9.0
 12
0.0
 22
0.0
 32
0.0
 14
1.000000000000000E+20
 24
1.000000000000000E+20
 34
1.000000000000000E+20
 15
-1.000000000000000E+20
 25
-1.000000000000000E+20
 35
-1.000000000000000E+20
146
0.0
 13
0.0
 23
0.0
 33
0.0
 16
1.0
 26
0.0
 36
0.0
 17
0.0
 27
1.0
 37
0.0
 76
     0
330
167CF
  0
MLINESTYLE
  5
167CC
102
{ACAD_REACTORS
330
167CB
102
}
330
167CB
100
AcDbMlineStyle
  2
STANDARD
 70
     0
  3

 62
   256
 51
90.0
 52
90.0
 71
     2
 49
0.5
 62
   256
  6
BYLAYER
 49
-0.5
 62
   256
  6
BYLAYER
  0
ACDBPLACEHOLDER
  5
167C4
102
{ACAD_REACTORS
330
167C3
102
}
330
167C3
  0
DICTIONARYVAR
  5
16DB5
102
{ACAD_REACTORS
330
16DB4
102
}
330
16DB4
100
DictionaryVariables
280
     0
  1
1
  0
ENDSEC
  0
EOF
