  0
SECTION
  2
HEADER
  9
$ACADVER
  1
AC1015
  9
$ACADMAINTVER
 70
    13
  9
$DWGCODEPAGE
  3
ANSI_932
  9
$INSBASE
 10
267.0
 20
194.8999999999998
 30
0.0
  9
$EXTMIN
 10
433.9966216520333
 20
163.6908237492789
 30
-0.000000000000013
  9
$EXTMAX
 10
16382.6660542547
 20
11242.27663824599
 30
0.0000000000000023
  9
$LIMMIN
 10
0.0
 20
0.0
  9
$LIMMAX
 10
16800.0
 20
11880.0
  9
$ORTHOMODE
 70
     0
  9
$REGENMODE
 70
     1
  9
$FILLMODE
 70
     1
  9
$QTEXTMODE
 70
     0
  9
$MIRRTEXT
 70
     0
  9
$LTSCALE
 40
40.0
  9
$ATTMODE
 70
     1
  9
$TEXTSIZE
 40
0.2
  9
$TRACEWID
 40
0.05
  9
$TEXTSTYLE
  7
00
  9
$CLAYER
  8
SUNPOU
  9
$CELTYPE
  6
ByLayer
  9
$CECOLOR
 62
   256
  9
$CELTSCALE
 40
1.0
  9
$DISPSILH
 70
     0
  9
$DIMSCALE
 40
40.0
  9
$DIMASZ
 40
0.5
  9
$DIMEXO
 40
1.0
  9
$DIMDLI
 40
7.0
  9
$DIMRND
 40
0.0
  9
$DIMDLE
 40
3.0
  9
$DIMEXE
 40
1.125
  9
$DIMTP
 40
0.0
  9
$DIMTM
 40
0.0
  9
$DIMTXT
 40
2.25
  9
$DIMCEN
 40
0.0
  9
$DIMTSZ
 40
0.0
  9
$DIMTOL
 70
     0
  9
$DIMLIM
 70
     0
  9
$DIMTIH
 70
     0
  9
$DIMTOH
 70
     0
  9
$DIMSE1
 70
     0
  9
$DIMSE2
 70
     0
  9
$DIMTAD
 70
     1
  9
$DIMZIN
 70
     8
  9
$DIMBLK
  1
DOT
  9
$DIMASO
 70
     1
  9
$DIMSHO
 70
     0
  9
$DIMPOST
  1

  9
$DIMAPOST
  1

  9
$DIMALT
 70
     0
  9
$DIMALTD
 70
     2
  9
$DIMALTF
 40
25.4
  9
$DIMLFAC
 40
1.0
  9
$DIMTOFL
 70
     1
  9
$DIMTVP
 40
0.0
  9
$DIMTIX
 70
     0
  9
$DIMSOXD
 70
     0
  9
$DIMSAH
 70
     1
  9
$DIMBLK1
  1
DOT
  9
$DIMBLK2
  1
DOT
  9
$DIMSTYLE
  2
SUNPOU_図面名
  9
$DIMCLRD
 70
   256
  9
$DIMCLRE
 70
   256
  9
$DIMCLRT
 70
   256
  9
$DIMTFAC
 40
1.0
  9
$DIMGAP
 40
1.125
  9
$DIMJUST
 70
     0
  9
$DIMSD1
 70
     0
  9
$DIMSD2
 70
     0
  9
$DIMTOLJ
 70
     1
  9
$DIMTZIN
 70
     0
  9
$DIMALTZ
 70
     0
  9
$DIMALTTZ
 70
     0
  9
$DIMUPT
 70
     0
  9
$DIMDEC
 70
     4
  9
$DIMTDEC
 70
     4
  9
$DIMALTU
 70
     2
  9
$DIMALTTD
 70
     2
  9
$DIMTXSTY
  7
STANDARD
  9
$DIMAUNIT
 70
     0
  9
$DIMADEC
 70
     0
  9
$DIMALTRND
 40
0.0
  9
$DIMAZIN
 70
     0
  9
$DIMDSEP
 70
    46
  9
$DIMATFIT
 70
     3
  9
$DIMFRAC
 70
     0
  9
$DIMLDRBLK
  1
DOT
  9
$DIMLUNIT
 70
     2
  9
$DIMLWD
 70
    -2
  9
$DIMLWE
 70
    -2
  9
$DIMTMOVE
 70
     0
  9
$LUNITS
 70
     2
  9
$LUPREC
 70
     2
  9
$SKETCHINC
 40
0.1
  9
$FILLETRAD
 40
0.0
  9
$AUNITS
 70
     0
  9
$AUPREC
 70
     0
  9
$MENU
  1
A:\TIGER\MENU\TIGER
  9
$ELEVATION
 40
0.0
  9
$PELEVATION
 40
0.0
  9
$THICKNESS
 40
0.0
  9
$LIMCHECK
 70
     0
  9
$CHAMFERA
 40
0.0
  9
$CHAMFERB
 40
0.0
  9
$CHAMFERC
 40
0.0
  9
$CHAMFERD
 40
0.0
  9
$SKPOLY
 70
     0
  9
$TDCREATE
 40
2450266.571064815
  9
$TDUCREATE
 40
2450266.196064815
  9
$TDUPDATE
 40
2456330.288468784
  9
$TDUUPDATE
 40
2456329.913468784
  9
$TDINDWG
 40
0.1783657755
  9
$TDUSRTIMER
 40
0.1783657755
  9
$USRTIMER
 70
     1
  9
$ANGBASE
 50
0.0
  9
$ANGDIR
 70
     0
  9
$PDMODE
 70
     0
  9
$PDSIZE
 40
0.0
  9
$PLINEWID
 40
0.0
  9
$SPLFRAME
 70
     0
  9
$SPLINETYPE
 70
     6
  9
$SPLINESEGS
 70
     8
  9
$HANDSEED
  5
17C7C
  9
$SURFTAB1
 70
     6
  9
$SURFTAB2
 70
     6
  9
$SURFTYPE
 70
     6
  9
$SURFU
 70
     6
  9
$SURFV
 70
     6
  9
$UCSBASE
  2

  9
$UCSNAME
  2

  9
$UCSORG
 10
0.0
 20
0.0
 30
0.0
  9
$UCSXDIR
 10
1.0
 20
0.0
 30
0.0
  9
$UCSYDIR
 10
0.0
 20
1.0
 30
0.0
  9
$UCSORTHOREF
  2

  9
$UCSORTHOVIEW
 70
     0
  9
$UCSORGTOP
 10
0.0
 20
0.0
 30
0.0
  9
$UCSORGBOTTOM
 10
0.0
 20
0.0
 30
0.0
  9
$UCSORGLEFT
 10
0.0
 20
0.0
 30
0.0
  9
$UCSORGRIGHT
 10
0.0
 20
0.0
 30
0.0
  9
$UCSORGFRONT
 10
0.0
 20
0.0
 30
0.0
  9
$UCSORGBACK
 10
0.0
 20
0.0
 30
0.0
  9
$PUCSBASE
  2

  9
$PUCSNAME
  2

  9
$PUCSORG
 10
0.0
 20
0.0
 30
0.0
  9
$PUCSXDIR
 10
1.0
 20
0.0
 30
0.0
  9
$PUCSYDIR
 10
0.0
 20
1.0
 30
0.0
  9
$PUCSORTHOREF
  2

  9
$PUCSORTHOVIEW
 70
     0
  9
$PUCSORGTOP
 10
0.0
 20
0.0
 30
0.0
  9
$PUCSORGBOTTOM
 10
0.0
 20
0.0
 30
0.0
  9
$PUCSORGLEFT
 10
0.0
 20
0.0
 30
0.0
  9
$PUCSORGRIGHT
 10
0.0
 20
0.0
 30
0.0
  9
$PUCSORGFRONT
 10
0.0
 20
0.0
 30
0.0
  9
$PUCSORGBACK
 10
0.0
 20
0.0
 30
0.0
  9
$USERI1
 70
     3
  9
$USERI2
 70
     0
  9
$USERI3
 70
     0
  9
$USERI4
 70
     0
  9
$USERI5
 70
  1103
  9
$USERR1
 40
0.0
  9
$USERR2
 40
1.0
  9
$USERR3
 40
0.0
  9
$USERR4
 40
0.0
  9
$USERR5
 40
0.0
  9
$WORLDVIEW
 70
     1
  9
$SHADEDGE
 70
     3
  9
$SHADEDIF
 70
    70
  9
$TILEMODE
 70
     1
  9
$MAXACTVP
 70
    16
  9
$PINSBASE
 10
0.0
 20
0.0
 30
0.0
  9
$PLIMCHECK
 70
     0
  9
$PEXTMIN
 10
1.000000000000000E+20
 20
1.000000000000000E+20
 30
1.000000000000000E+20
  9
$PEXTMAX
 10
-1.000000000000000E+20
 20
-1.000000000000000E+20
 30
-1.000000000000000E+20
  9
$PLIMMIN
 10
0.0
 20
0.0
  9
$PLIMMAX
 10
12.0
 20
9.0
  9
$UNITMODE
 70
     0
  9
$VISRETAIN
 70
     0
  9
$PLINEGEN
 70
     1
  9
$PSLTSCALE
 70
     0
  9
$TREEDEPTH
 70
  3020
  9
$CMLSTYLE
  2
Standard
  9
$CMLJUST
 70
     0
  9
$CMLSCALE
 40
1.0
  9
$PROXYGRAPHICS
 70
     1
  9
$MEASUREMENT
 70
     0
  9
$CELWEIGHT
370
    -1
  9
$ENDCAPS
280
     0
  9
$JOINSTYLE
280
     0
  9
$LWDISPLAY
290
     0
  9
$INSUNITS
 70
     0
  9
$HYPERLINKBASE
  1

  9
$STYLESHEET
  1

  9
$XEDIT
290
     1
  9
$CEPSNTYPE
380
     0
  9
$PSTYLEMODE
290
     1
  9
$FINGERPRINTGUID
  2
{E4934584-9116-4832-9C41-2CECD42798EE}
  9
$VERSIONGUID
  2
{13ACDDD0-908B-4B93-BC8B-4912C8510853}
  9
$EXTNAMES
290
     1
  9
$PSVPSCALE
 40
0.0
  9
$OLESTARTUP
290
     0
  0
ENDSEC
  0
SECTION
  2
CLASSES
  0
CLASS
  1
ACDBDICTIONARYWDFLT
  2
AcDbDictionaryWithDefault
  3
AutoCAD 2000
 90
        0
280
     0
281
     0
  0
CLASS
  1
ACDBPLACEHOLDER
  2
AcDbPlaceHolder
  3
AutoCAD 2000
 90
        0
280
     0
281
     0
  0
CLASS
  1
LAYOUT
  2
AcDbLayout
  3
AutoCAD 2000
 90
        0
280
     0
281
     0
  0
CLASS
  1
DICTIONARYVAR
  2
AcDbDictionaryVar
  3
AutoCAD 2000
 90
        0
280
     0
281
     0
  0
ENDSEC
  0
SECTION
  2
TABLES
  0
TABLE
  2
VPORT
  5
17621
330
0
100
AcDbSymbolTable
 70
     2
  0
VPORT
  5
17C7B
330
17621
100
AcDbSymbolTableRecord
100
AcDbViewportTableRecord
  2
*Active
 70
     0
 10
0.0
 20
0.0
 11
1.0
 21
1.0
 12
8408.331337953367
 22
5702.983730997637
 13
0.0
 23
0.0
 14
1.0
 24
1.0
 15
0.0
 25
0.0
 16
0.0
 26
0.0
 36
1.0
 17
0.0
 27
0.0
 37
0.0
 40
11162.83361536741
 41
1.527918781725888
 42
50.0
 43
0.0
 44
0.0
 50
0.0
 51
0.0
 71
     0
 72
 10000
 73
     1
 74
     0
 75
     0
 76
     0
 77
     0
 78
     0
281
     0
 65
     1
110
0.0
120
0.0
130
0.0
111
1.0
121
0.0
131
0.0
112
0.0
122
1.0
132
0.0
 79
     0
146
0.0
  0
ENDTAB
  0
TABLE
  2
LTYPE
  5
1761E
330
0
100
AcDbSymbolTable
 70
     6
  0
LTYPE
  5
1762C
330
1761E
100
AcDbSymbolTableRecord
100
AcDbLinetypeTableRecord
  2
ByBlock
 70
     0
  3

 72
    65
 73
     0
 40
0.0
  0
LTYPE
  5
1762D
330
1761E
100
AcDbSymbolTableRecord
100
AcDbLinetypeTableRecord
  2
ByLayer
 70
     0
  3

 72
    65
 73
     0
 40
0.0
  0
LTYPE
  5
1762E
330
1761E
100
AcDbSymbolTableRecord
100
AcDbLinetypeTableRecord
  2
CONTINUOUS
 70
     0
  3
実線
 72
    65
 73
     0
 40
0.0
  0
LTYPE
  5
1763E
330
1761E
100
AcDbSymbolTableRecord
100
AcDbLinetypeTableRecord
  2
TENSEN-
 70
     0
  3

 72
    65
 73
     2
 40
0.6000000000000001
 49
0.2
 74
     0
 49
-0.4
 74
     0
  0
LTYPE
  5
1763F
330
1761E
100
AcDbSymbolTableRecord
100
AcDbLinetypeTableRecord
  2
1PL-L
 70
     0
  3

 72
    65
 73
     4
 40
56.0
 49
50.0
 74
     0
 49
-2.0
 74
     0
 49
2.0
 74
     0
 49
-2.0
 74
     0
  0
LTYPE
  5
17640
330
1761E
100
AcDbSymbolTableRecord
100
AcDbLinetypeTableRecord
  2
1PL-M
 70
     0
  3

 72
    65
 73
     4
 40
15.0
 49
12.0
 74
     0
 49
-1.0
 74
     0
 49
1.0
 74
     0
 49
-1.0
 74
     0
  0
LTYPE
  5
17641
330
1761E
100
AcDbSymbolTableRecord
100
AcDbLinetypeTableRecord
  2
1PL-S
 70
     0
  3

 72
    65
 73
     4
 40
4.0
 49
2.5
 74
     0
 49
-0.5
 74
     0
 49
0.5
 74
     0
 49
-0.5
 74
     0
  0
LTYPE
  5
17642
330
1761E
100
AcDbSymbolTableRecord
100
AcDbLinetypeTableRecord
  2
1PL-12
 70
     0
  3

 72
    65
 73
     4
 40
15.0
 49
12.0
 74
     0
 49
-1.0
 74
     0
 49
1.0
 74
     0
 49
-1.0
 74
     0
  0
ENDTAB
  0
TABLE
  2
LAYER
  5
1761B
330
0
100
AcDbSymbolTable
 70
    22
  0
LAYER
  5
17629
330
1761B
100
AcDbSymbolTableRecord
100
AcDbLayerTableRecord
  2
0
 70
     0
 62
     7
  6
CONTINUOUS
370
    -3
390
17628
  0
LAYER
  5
1763B
330
1761B
100
AcDbSymbolTableRecord
100
AcDbLayerTableRecord
  2
SUNPOU
 70
     0
 62
     4
  6
CONTINUOUS
370
    -3
390
17628
  0
LAYER
  5
17643
330
1761B
100
AcDbSymbolTableRecord
100
AcDbLayerTableRecord
  2
U1
 70
     0
 62
     3
  6
CONTINUOUS
370
    -3
390
17628
  0
LAYER
  5
17644
330
1761B
100
AcDbSymbolTableRecord
100
AcDbLayerTableRecord
  2
U2
 70
     0
 62
     4
  6
CONTINUOUS
370
    -3
390
17628
  0
LAYER
  5
17645
330
1761B
100
AcDbSymbolTableRecord
100
AcDbLayerTableRecord
  2
U3
 70
     0
 62
     6
  6
CONTINUOUS
370
    -3
390
17628
  0
LAYER
  5
17646
330
1761B
100
AcDbSymbolTableRecord
100
AcDbLayerTableRecord
  2
HIKIDASHI
 70
     0
 62
     6
  6
CONTINUOUS
370
    -3
390
17628
  0
LAYER
  5
17647
330
1761B
100
AcDbSymbolTableRecord
100
AcDbLayerTableRecord
  2
TENSEN-1
 70
     0
 62
     6
  6
TENSEN-
370
    -3
390
17628
  0
LAYER
  5
17648
330
1761B
100
AcDbSymbolTableRecord
100
AcDbLayerTableRecord
  2
1PL-S1
 70
     0
 62
     6
  6
1PL-S
370
    -3
390
17628
  0
LAYER
  5
17649
330
1761B
100
AcDbSymbolTableRecord
100
AcDbLayerTableRecord
  2
1PL-M1
 70
     0
 62
     6
  6
1PL-M
370
    -3
390
17628
  0
LAYER
  5
1764A
330
1761B
100
AcDbSymbolTableRecord
100
AcDbLayerTableRecord
  2
1PL-L1
 70
     0
 62
     6
  6
1PL-L
370
    -3
390
17628
  0
LAYER
  5
1764B
330
1761B
100
AcDbSymbolTableRecord
100
AcDbLayerTableRecord
  2
NAME
 70
     0
 62
    20
  6
CONTINUOUS
370
    -3
390
17628
  0
LAYER
  5
1764C
330
1761B
100
AcDbSymbolTableRecord
100
AcDbLayerTableRecord
  2
FILENAME
 70
     0
 62
     7
  6
CONTINUOUS
370
    -3
390
17628
  0
LAYER
  5
1764D
330
1761B
100
AcDbSymbolTableRecord
100
AcDbLayerTableRecord
  2
KISO
 70
     0
 62
     2
  6
CONTINUOUS
370
    -3
390
17628
  0
LAYER
  5
1764E
330
1761B
100
AcDbSymbolTableRecord
100
AcDbLayerTableRecord
  2
YANE
 70
     0
 62
     1
  6
1PL-12
370
    -3
390
17628
  0
LAYER
  5
1764F
330
1761B
100
AcDbSymbolTableRecord
100
AcDbLayerTableRecord
  2
HATCH
 70
     0
 62
     1
  6
CONTINUOUS
370
    -3
390
17628
  0
LAYER
  5
17650
330
1761B
100
AcDbSymbolTableRecord
100
AcDbLayerTableRecord
  2
HASHIRA
 70
     0
 62
     3
  6
CONTINUOUS
370
    -3
390
17628
  0
LAYER
  5
17651
330
1761B
100
AcDbSymbolTableRecord
100
AcDbLayerTableRecord
  2
DOMAKON
 70
     0
 62
     2
  6
CONTINUOUS
370
    -3
390
17628
  0
LAYER
  5
17652
330
1761B
100
AcDbSymbolTableRecord
100
AcDbLayerTableRecord
  2
BOLT
 70
     0
 62
     1
  6
CONTINUOUS
370
    -3
390
17628
  0
LAYER
  5
17653
330
1761B
100
AcDbSymbolTableRecord
100
AcDbLayerTableRecord
  2
YODOROGO
 70
     0
 62
   130
  6
CONTINUOUS
370
    -3
390
17628
  0
LAYER
  5
17654
330
1761B
100
AcDbSymbolTableRecord
100
AcDbLayerTableRecord
  2
WAKUSEN-01
 70
     0
 62
    50
  6
CONTINUOUS
370
    -3
390
17628
  0
LAYER
  5
17655
330
1761B
100
AcDbSymbolTableRecord
100
AcDbLayerTableRecord
  2
WAKUSEN-02
 70
     0
 62
   130
  6
CONTINUOUS
370
    -3
390
17628
  0
LAYER
  5
17656
330
1761B
100
AcDbSymbolTableRecord
100
AcDbLayerTableRecord
  2
WAKUMOJI-01
 70
     0
 62
   130
  6
CONTINUOUS
370
    -3
390
17628
  0
ENDTAB
  0
TABLE
  2
STYLE
  5
1761C
330
0
100
AcDbSymbolTable
 70
     5
  0
STYLE
  5
1762A
330
1761C
100
AcDbSymbolTableRecord
100
AcDbTextStyleTableRecord
  2
STANDARD
 70
     0
 40
3.0
 41
1.0
 50
0.0
 71
     0
 42
0.2
  3
ROMANS
  4
EXTFONT
  0
STYLE
  5
1763C
330
1761C
100
AcDbSymbolTableRecord
100
AcDbTextStyleTableRecord
  2
00
 70
     0
 40
0.0
 41
0.6666666666666666
 50
0.0
 71
     0
 42
0.2
  3
ROMANS
  4
BIGFONT
  0
STYLE
  5
17657
330
1761C
100
AcDbSymbolTableRecord
100
AcDbTextStyleTableRecord
  2
01
 70
     0
 40
3.0
 41
1.0
 50
0.0
 71
     0
 42
0.2
  3
ROMANS
  4
BIGFONT
  0
STYLE
  5
17658
330
1761C
100
AcDbSymbolTableRecord
100
AcDbTextStyleTableRecord
  2
WAKUMOJI
 70
     0
 40
3.0
 41
1.0
 50
0.0
 71
     0
 42
3.0
  3
SIMPLEX
  4
BIGFONT
  0
STYLE
  5
17659
330
1761C
100
AcDbSymbolTableRecord
100
AcDbTextStyleTableRecord
  2
FILENAME
 70
     0
 40
75.0
 41
1.0
 50
0.0
 71
     0
 42
75.0
  3
romans
  4
bigfont
  0
ENDTAB
  0
TABLE
  2
VIEW
  5
1761F
330
0
100
AcDbSymbolTable
 70
     0
  0
ENDTAB
  0
TABLE
  2
UCS
  5
17620
330
0
100
AcDbSymbolTable
 70
     0
  0
ENDTAB
  0
TABLE
  2
APPID
  5
17622
330
0
100
AcDbSymbolTable
 70
     5
  0
APPID
  5
1762B
330
17622
100
AcDbSymbolTableRecord
100
AcDbRegAppTableRecord
  2
ACAD
 70
     0
  0
APPID
  5
1765A
330
17622
100
AcDbSymbolTableRecord
100
AcDbRegAppTableRecord
  2
AUTOCAD_POSTSCRIPT_FIGURE
 70
     0
  0
APPID
  5
1765B
330
17622
100
AcDbSymbolTableRecord
100
AcDbRegAppTableRecord
  2
ACAD_PSEXT
 70
     0
  0
APPID
  5
1765C
330
17622
100
AcDbSymbolTableRecord
100
AcDbRegAppTableRecord
  2
ACAD_MLEADERVER
 70
     0
  0
APPID
  5
1765D
330
17622
100
AcDbSymbolTableRecord
100
AcDbRegAppTableRecord
  2
ACAD_EXEMPT_FROM_CAD_STANDARDS
 70
     0
  0
ENDTAB
  0
TABLE
  2
DIMSTYLE
  5
17623
330
0
100
AcDbSymbolTable
 70
     1
100
AcDbDimStyleTable
 71
     0
  0
DIMSTYLE
105
1765E
330
17623
100
AcDbSymbolTableRecord
100
AcDbDimStyleTableRecord
  2
SUNPOU_図面名
 70
     0
 40
40.0
 41
0.5
 42
1.0
 43
7.0
 44
1.125
 46
3.0
 73
     0
 74
     0
 77
     1
 78
     8
140
2.25
141
0.0
147
1.125
172
     1
173
     1
176
   256
177
   256
178
   256
271
     2
272
     2
279
     2
284
     8
285
     8
286
     8
340
1763C
  0
ENDTAB
  0
TABLE
  2
BLOCK_RECORD
  5
1761A
330
0
100
AcDbSymbolTable
 70
     4
  0
BLOCK_RECORD
  5
17637
330
1761A
100
AcDbSymbolTableRecord
100
AcDbBlockTableRecord
  2
*Model_Space
340
1763A
  0
BLOCK_RECORD
  5
17633
330
1761A
100
AcDbSymbolTableRecord
100
AcDbBlockTableRecord
  2
*Paper_Space
340
17636
  0
BLOCK_RECORD
  5
17663
330
1761A
100
AcDbSymbolTableRecord
100
AcDbBlockTableRecord
  2
$MODEL_SPACE
340
0
  0
BLOCK_RECORD
  5
17666
330
1761A
100
AcDbSymbolTableRecord
100
AcDbBlockTableRecord
  2
$PAPER_SPACE
340
0
  0
BLOCK_RECORD
  5
17669
330
1761A
100
AcDbSymbolTableRecord
100
AcDbBlockTableRecord
  2
DOT
340
0
  0
ENDTAB
  0
ENDSEC
  0
SECTION
  2
BLOCKS
  0
BLOCK
  5
17638
330
17637
100
AcDbEntity
  8
0
100
AcDbBlockBegin
  2
*Model_Space
 70
     0
 10
0.0
 20
0.0
 30
0.0
  3
*Model_Space
  1

  0
ENDBLK
  5
17639
330
17637
100
AcDbEntity
  8
0
100
AcDbBlockEnd
  0
BLOCK
  5
17634
330
17633
100
AcDbEntity
 67
     1
  8
0
100
AcDbBlockBegin
  2
*Paper_Space
 70
     0
 10
0.0
 20
0.0
 30
0.0
  3
*Paper_Space
  1

  0
ENDBLK
  5
17635
330
17633
100
AcDbEntity
 67
     1
  8
0
100
AcDbBlockEnd
  0
BLOCK
  5
17664
330
17663
100
AcDbEntity
  8
0
100
AcDbBlockBegin
  2
$MODEL_SPACE
 70
     0
 10
0.0
 20
0.0
 30
0.0
  3
$MODEL_SPACE
  1

  0
ENDBLK
  5
17665
330
17663
100
AcDbEntity
  8
0
100
AcDbBlockEnd
  0
BLOCK
  5
17667
330
17666
100
AcDbEntity
  8
0
100
AcDbBlockBegin
  2
$PAPER_SPACE
 70
     0
 10
0.0
 20
0.0
 30
0.0
  3
$PAPER_SPACE
  1

  0
ENDBLK
  5
17668
330
17666
100
AcDbEntity
  8
0
100
AcDbBlockEnd
  0
BLOCK
  5
1766A
330
17669
100
AcDbEntity
  8
0
100
AcDbBlockBegin
  2
DOT
 70
     0
 10
0.0
 20
0.0
 30
0.0
  3
DOT
  1

  0
LWPOLYLINE
  5
1766B
330
17669
100
AcDbEntity
  8
0
  6
ByBlock
 62
     0
100
AcDbPolyline
 90
        2
 70
     1
 43
0.75
 10
-0.375
 20
0.0
 42
1.0
 10
0.375
 20
0.0
 42
1.0
  0
LINE
  5
1766F
330
17669
100
AcDbEntity
  8
0
  6
ByBlock
 62
     0
100
AcDbLine
 10
-0.75
 20
0.0
 30
0.0
 11
-1.5
 21
0.0
 31
0.0
  0
ENDBLK
  5
17670
330
17669
100
AcDbEntity
  8
0
100
AcDbBlockEnd
  0
ENDSEC
  0
SECTION
  2
ENTITIES
  0
TEXT
  5
17671
330
17637
100
AcDbEntity
  8
NAME
100
AcDbText
 10
12303.32857318295
 20
1055.0
 30
0.0
 40
120.0
  1
Y O K R
 41
0.6666666666666666
  7
00
100
AcDbText
  0
TEXT
  5
17672
330
17637
100
AcDbEntity
  8
NAME
100
AcDbText
 10
11227.73587134625
 20
1055.0
 30
0.0
 40
120.0
  1
ヨド自転車置場　　　  型
  7
01
100
AcDbText
  0
TEXT
  5
17673
330
17637
100
AcDbEntity
  8
NAME
100
AcDbText
 10
11228.07508082364
 20
875.0
 30
0.0
 40
120.0
  1
（アンカープレート方式）
  7
01
 72
     4
 11
12072.07508082364
 21
935.0
 31
0.0
100
AcDbText
  0
TEXT
  5
17674
330
17637
100
AcDbEntity
  8
NAME
100
AcDbText
 10
11816.04264730429
 20
541.0
 30
0.0
 40
160.0
  1
型（一般地用）
 41
0.8
  7
01
100
AcDbText
  0
TEXT
  5
17675
330
17637
100
AcDbEntity
  8
NAME
100
AcDbText
 10
10896.04264730428
 20
541.0
 30
0.0
 40
160.0
  1
YOKR-240
 41
0.7
  7
01
 72
     2
 11
11776.04264730429
 21
541.0
 31
0.0
100
AcDbText
  0
TEXT
  5
17676
330
17637
100
AcDbEntity
  8
FILENAME
100
AcDbText
 10
14028.66666666666
 20
174.0
 30
0.0
 40
100.0
  1
＜YOKR-240-A_3_JIS_GL.DXF＞
  7
FILENAME
 72
     2
 11
16382.0
 21
174.0
 31
0.0
100
AcDbText
  0
TEXT
  5
17677
330
17637
100
AcDbEntity
  8
NAME
100
AcDbText
 10
12854.79999999999
 20
541.0000000000001
 30
0.0
 40
160.0
  1
<3／3>
 41
0.6
  7
01
 72
     2
 11
13354.0
 21
541.0000000000001
 31
0.0
100
AcDbText
  0
TEXT
  5
17678
330
17637
100
AcDbEntity
  8
HIKIDASHI
100
AcDbText
 10
7357.378080725941
 20
5681.450674192186
 30
0.0
 40
135.0
  1
基 礎 平 面 図　縮尺
  7
01
 72
     4
 11
8149.378080725941
 21
5748.950674192186
 31
0.0
100
AcDbText
  0
TEXT
  5
17679
330
17637
100
AcDbEntity
  8
HIKIDASHI
100
AcDbText
 10
7702.502225892043
 20
5466.450674192186
 30
0.0
 40
135.0
  1
（  ：スパン数）
  7
01
 11
7702.502225892043
 21
5533.950674192186
 31
0.0
100
AcDbText
 73
     2
  0
TEXT
  5
1767A
330
17637
100
AcDbEntity
  8
HIKIDASHI
100
AcDbText
 10
7880.926138551379
 20
5466.450674192186
 30
0.0
 40
135.0
  1
N
 41
0.6666666666666666
  7
00
 72
     4
 11
7928.068995694236
 21
5533.950674192186
 31
0.0
100
AcDbText
  0
LINE
  5
1767B
330
17637
100
AcDbEntity
  8
HIKIDASHI
100
AcDbLine
 10
9283.0996148628
 20
5816.450674192189
 30
0.0
 11
9148.0996148628
 21
5681.450674192186
 31
0.0
  0
TEXT
  5
1767C
330
17637
100
AcDbEntity
  8
HIKIDASHI
100
AcDbText
 10
9003.864046589846
 20
5691.093531335043
 30
0.0
 40
135.0
  1
=
 41
0.6666666666666666
  7
00
 72
     4
 11
9059.578332304132
 21
5748.950674192186
 31
0.0
100
AcDbText
  0
TEXT
  5
1767D
330
17637
100
AcDbEntity
  8
HIKIDASHI
100
AcDbText
 10
9234.251678026312
 20
5681.450674192189
 30
0.0
 40
67.5
  1
40
 41
0.6666666666666666
  7
00
 72
     4
 11
9277.108820883455
 21
5715.200674192189
 31
0.0
100
AcDbText
  0
TEXT
  5
1767E
330
17637
100
AcDbEntity
  8
HIKIDASHI
100
AcDbText
 10
9150.509710887495
 20
5748.86453074339
 30
0.0
 40
67.5
  1
1
 41
0.6666666666666666
  7
00
 72
     4
 11
9168.723996601782
 21
5782.614530743391
 31
0.0
100
AcDbText
  0
TEXT
  5
1767F
330
17637
100
AcDbEntity
  8
HIKIDASHI
100
AcDbText
 10
7357.378080725941
 20
5681.450674192186
 30
0.0
 40
135.0
  1
基 礎 平 面 図　縮尺
  7
01
 72
     4
 11
8149.378080725941
 21
5748.950674192186
 31
0.0
100
AcDbText
  0
TEXT
  5
17680
330
17637
100
AcDbEntity
  8
HIKIDASHI
100
AcDbText
 10
7702.502225892046
 20
5466.450674192186
 30
0.0
 40
135.0
  1
（  ：スパン数）
  7
01
 11
7702.502225892046
 21
5533.950674192186
 31
0.0
100
AcDbText
 73
     2
  0
TEXT
  5
17681
330
17637
100
AcDbEntity
  8
HIKIDASHI
100
AcDbText
 10
7880.926138551379
 20
5466.450674192186
 30
0.0
 40
135.0
  1
N
 41
0.6666666666666666
  7
00
 72
     4
 11
7928.068995694236
 21
5533.950674192186
 31
0.0
100
AcDbText
  0
LINE
  5
17682
330
17637
100
AcDbEntity
  8
HIKIDASHI
100
AcDbLine
 10
9283.099614862804
 20
5816.450674192189
 30
0.0
 11
9148.099614862804
 21
5681.450674192186
 31
0.0
  0
TEXT
  5
17683
330
17637
100
AcDbEntity
  8
HIKIDASHI
100
AcDbText
 10
9003.864046589846
 20
5691.093531335043
 30
0.0
 40
135.0
  1
=
 41
0.6666666666666666
  7
00
 72
     4
 11
9059.578332304132
 21
5748.950674192186
 31
0.0
100
AcDbText
  0
TEXT
  5
17684
330
17637
100
AcDbEntity
  8
HIKIDASHI
100
AcDbText
 10
9234.251678026312
 20
5681.450674192189
 30
0.0
 40
67.5
  1
40
 41
0.6666666666666666
  7
00
 72
     4
 11
9277.108820883455
 21
5715.200674192189
 31
0.0
100
AcDbText
  0
TEXT
  5
17685
330
17637
100
AcDbEntity
  8
HIKIDASHI
100
AcDbText
 10
9150.509710887495
 20
5748.86453074339
 30
0.0
 40
67.5
  1
1
 41
0.6666666666666666
  7
00
 72
     4
 11
9168.723996601782
 21
5782.614530743391
 31
0.0
100
AcDbText
  0
TEXT
  5
17686
330
17637
100
AcDbEntity
  8
SUNPOU
100
AcDbText
 10
4233.284650756791
 20
7753.69318243233
 30
0.0
 40
90.0
  1
A
 41
0.6700000000000001
  7
00
 72
     4
 11
4259.127507899648
 21
7798.69318243233
 31
0.0
100
AcDbText
  0
LINE
  5
17687
330
17637
100
AcDbEntity
  8
SUNPOU
100
AcDbLine
 10
4259.127507899648
 20
7408.69318243233
 30
0.0
 11
4409.12750789965
 21
7408.69318243233
 31
0.0
  0
LINE
  5
17688
330
17637
100
AcDbEntity
  8
SUNPOU
100
AcDbLine
 10
4259.127507899648
 20
7618.69318243233
 30
0.0
 11
4259.127507899648
 21
7408.69318243233
 31
0.0
  0
CIRCLE
  5
17689
330
17637
100
AcDbEntity
  8
HASHIRA
100
AcDbCircle
 10
7219.127507899646
 20
7468.693182432332
 30
0.0
 40
9.0
  0
CIRCLE
  5
1768A
330
17637
100
AcDbEntity
  8
HASHIRA
100
AcDbCircle
 10
7219.127507899646
 20
7348.693182432332
 30
0.0
 40
9.0
  0
LINE
  5
1768B
330
17637
100
AcDbEntity
  8
SUNPOU
100
AcDbLine
 10
6839.12750789965
 20
9193.693182432332
 30
0.0
 11
6524.127507899649
 21
9193.693182432332
 31
0.0
  0
TEXT
  5
1768C
330
17637
100
AcDbEntity
  8
SUNPOU
100
AcDbText
 10
6524.127507899649
 20
8757.978896718045
 30
0.0
 40
90.0
  1
700
 50
90.0
 41
0.6666666666666666
  7
00
 72
     1
 11
6479.127507899649
 21
8843.69318243233
 31
0.0
100
AcDbText
 73
     2
  0
LINE
  5
1768D
330
17637
100
AcDbEntity
  8
SUNPOU
100
AcDbLine
 10
6839.12750789965
 20
8493.69318243233
 30
0.0
 11
6524.127507899649
 21
8493.69318243233
 31
0.0
  0
LINE
  5
1768E
330
17637
100
AcDbEntity
  8
SUNPOU
100
AcDbLine
 10
6569.12750789965
 20
9178.693182432327
 30
0.0
 11
6569.12750789965
 21
8508.693182432331
 31
0.0
  0
CIRCLE
  5
1768F
330
17637
100
AcDbEntity
  8
HASHIRA
100
AcDbCircle
 10
7219.127507899646
 20
8903.693182432332
 30
0.0
 40
9.0
  0
CIRCLE
  5
17690
330
17637
100
AcDbEntity
  8
HASHIRA
100
AcDbCircle
 10
7219.127507899646
 20
8783.693182432326
 30
0.0
 40
9.0
  0
LINE
  5
17691
330
17637
100
AcDbEntity
  8
SUNPOU
100
AcDbLine
 10
7569.12750789965
 20
8463.693182432331
 30
0.0
 11
7569.12750789965
 21
8148.69318243233
 31
0.0
  0
LINE
  5
17692
330
17637
100
AcDbEntity
  8
1PL-L1
100
AcDbLine
 10
7219.127507899646
 20
8353.713010934898
 30
0.0
 11
7219.127507899646
 21
8458.886856489302
 31
0.0
  0
TEXT
  5
17693
330
17637
100
AcDbEntity
  8
SUNPOU
100
AcDbText
 10
7133.413222185364
 20
8238.693182432326
 30
0.0
 40
90.0
  1
700
 41
0.6666666666666666
  7
00
 72
     1
 11
7219.127507899648
 21
8283.693182432326
 31
0.0
100
AcDbText
 73
     2
  0
LINE
  5
17694
330
17637
100
AcDbEntity
  8
SUNPOU
100
AcDbLine
 10
6869.12750789965
 20
8463.693182432331
 30
0.0
 11
6869.12750789965
 21
8148.69318243233
 31
0.0
  0
LINE
  5
17695
330
17637
100
AcDbEntity
  8
SUNPOU
100
AcDbLine
 10
7554.127507899649
 20
8193.693182432332
 30
0.0
 11
6884.127507899646
 21
8193.693182432332
 31
0.0
  0
LINE
  5
17696
330
17637
100
AcDbEntity
  8
1PL-L1
100
AcDbLine
 10
9619.127507899648
 20
6918.713010934895
 30
0.0
 11
9619.127507899648
 21
7023.886856489305
 31
0.0
  0
TEXT
  5
17697
330
17637
100
AcDbEntity
  8
SUNPOU
100
AcDbText
 10
10224.12750789964
 20
7322.978896718045
 30
0.0
 40
90.0
  1
700
 50
90.0
 41
0.6666666666666666
  7
00
 72
     1
 11
10179.12750789965
 21
7408.69318243233
 31
0.0
100
AcDbText
 73
     2
  0
LINE
  5
17698
330
17637
100
AcDbEntity
  8
SUNPOU
100
AcDbLine
 10
9969.127507899649
 20
7028.693182432331
 30
0.0
 11
9969.127507899649
 21
6713.693182432333
 31
0.0
  0
LINE
  5
17699
330
17637
100
AcDbEntity
  8
SUNPOU
100
AcDbLine
 10
9269.127507899648
 20
7028.693182432331
 30
0.0
 11
9269.127507899648
 21
6713.693182432333
 31
0.0
  0
TEXT
  5
1769A
330
17637
100
AcDbEntity
  8
SUNPOU
100
AcDbText
 10
9533.413222185364
 20
6803.693182432332
 30
0.0
 40
90.0
  1
700
 41
0.6666666666666666
  7
00
 72
     1
 11
9619.127507899651
 21
6848.693182432332
 31
0.0
100
AcDbText
 73
     2
  0
LINE
  5
1769B
330
17637
100
AcDbEntity
  8
SUNPOU
100
AcDbLine
 10
9954.127507899649
 20
6758.693182432331
 30
0.0
 11
9284.127507899647
 21
6758.693182432331
 31
0.0
  0
LINE
  5
1769C
330
17637
100
AcDbEntity
  8
SUNPOU
100
AcDbLine
 10
10269.12750789964
 20
7743.69318243233
 30
0.0
 11
10269.12750789964
 21
7073.693182432332
 31
0.0
  0
LINE
  5
1769D
330
17637
100
AcDbEntity
  8
SUNPOU
100
AcDbLine
 10
9999.127507899649
 20
7058.693182432332
 30
0.0
 11
10314.12750789965
 21
7058.693182432332
 31
0.0
  0
LINE
  5
1769E
330
17637
100
AcDbEntity
  8
SUNPOU
100
AcDbLine
 10
9999.127507899649
 20
7758.693182432331
 30
0.0
 11
10314.12750789965
 21
7758.693182432331
 31
0.0
  0
TEXT
  5
1769F
330
17637
100
AcDbEntity
  8
SUNPOU
100
AcDbText
 10
12574.12750789964
 20
6972.978896718046
 30
0.0
 40
90.0
  1
700
 50
90.0
 41
0.6666666666666666
  7
00
 72
     1
 11
12529.12750789964
 21
7058.693182432332
 31
0.0
100
AcDbText
 73
     2
  0
LINE
  5
176A0
330
17637
100
AcDbEntity
  8
SUNPOU
100
AcDbLine
 10
12619.12750789964
 20
7393.693182432333
 30
0.0
 11
12619.12750789964
 21
6723.693182432332
 31
0.0
  0
LINE
  5
176A1
330
17637
100
AcDbEntity
  8
SUNPOU
100
AcDbLine
 10
12589.12750789964
 20
6708.693182432331
 30
0.0
 11
12574.12750789964
 21
6708.693182432331
 31
0.0
  0
TEXT
  5
176A2
330
17637
100
AcDbEntity
  8
SUNPOU
100
AcDbText
 10
12574.12750789964
 20
8007.621753860901
 30
0.0
 40
90.0
  1
1435
 50
90.0
 41
0.6666666666666666
  7
00
 72
     1
 11
12529.12750789964
 21
8126.193182432329
 31
0.0
100
AcDbText
 73
     2
  0
LINE
  5
176A3
330
17637
100
AcDbEntity
  8
SUNPOU
100
AcDbLine
 10
12619.12750789964
 20
8828.693182432331
 30
0.0
 11
12619.12750789964
 21
7423.69318243233
 31
0.0
  0
TEXT
  5
176A4
330
17637
100
AcDbEntity
  8
SUNPOU
100
AcDbText
 10
12574.12750789964
 20
8857.978896718046
 30
0.0
 40
90.0
  1
200
 50
90.0
 41
0.6666666666666666
  7
00
 72
     1
 11
12529.12750789964
 21
8943.693182432332
 31
0.0
100
AcDbText
 73
     2
  0
LINE
  5
176A5
330
17637
100
AcDbEntity
  8
SUNPOU
100
AcDbLine
 10
12619.12750789964
 20
9028.693182432327
 30
0.0
 11
12619.12750789964
 21
8858.693182432331
 31
0.0
  0
LINE
  5
176A6
330
17637
100
AcDbEntity
  8
SUNPOU
100
AcDbLine
 10
12589.12750789964
 20
9043.693182432331
 30
0.0
 11
12574.12750789964
 21
9043.693182432331
 31
0.0
  0
TEXT
  5
176A7
330
17637
100
AcDbEntity
  8
SUNPOU
100
AcDbText
 10
12784.12750789964
 20
7761.907468146616
 30
0.0
 40
90.0
  1
2335
 50
90.0
 41
0.6666666666666666
  7
00
 72
     1
 11
12739.12750789964
 21
7876.19318243233
 31
0.0
100
AcDbText
 73
     2
  0
LINE
  5
176A8
330
17637
100
AcDbEntity
  8
SUNPOU
100
AcDbLine
 10
12829.12750789964
 20
9028.693182432327
 30
0.0
 11
12829.12750789964
 21
6723.693182432332
 31
0.0
  0
LINE
  5
176A9
330
17637
100
AcDbEntity
  8
SUNPOU
100
AcDbLine
 10
12249.12750789964
 20
6708.693182432331
 30
0.0
 11
12874.12750789964
 21
6708.693182432331
 31
0.0
  0
LINE
  5
176AA
330
17637
100
AcDbEntity
  8
SUNPOU
100
AcDbLine
 10
12249.12750789964
 20
9043.693182432331
 30
0.0
 11
12874.12750789964
 21
9043.693182432331
 31
0.0
  0
CIRCLE
  5
176AB
330
17637
100
AcDbEntity
  8
HASHIRA
100
AcDbCircle
 10
12019.12750789964
 20
8903.693182432332
 30
0.0
 40
9.0
  0
CIRCLE
  5
176AC
330
17637
100
AcDbEntity
  8
HASHIRA
100
AcDbCircle
 10
12019.12750789964
 20
8783.693182432326
 30
0.0
 40
9.0
  0
CIRCLE
  5
176AD
330
17637
100
AcDbEntity
  8
HASHIRA
100
AcDbCircle
 10
9619.127507899648
 20
8903.693182432332
 30
0.0
 40
9.0
  0
CIRCLE
  5
176AE
330
17637
100
AcDbEntity
  8
HASHIRA
100
AcDbCircle
 10
9619.127507899648
 20
8783.693182432326
 30
0.0
 40
9.0
  0
LINE
  5
176AF
330
17637
100
AcDbEntity
  8
1PL-M1
100
AcDbLine
 10
9619.127507899648
 20
7331.343448058619
 30
0.0
 11
9619.127507899648
 21
9273.693182432328
 31
0.0
  0
CIRCLE
  5
176B0
330
17637
100
AcDbEntity
  8
HASHIRA
100
AcDbCircle
 10
12019.12750789964
 20
7468.693182432332
 30
0.0
 40
9.0
  0
CIRCLE
  5
176B1
330
17637
100
AcDbEntity
  8
HASHIRA
100
AcDbCircle
 10
12019.12750789964
 20
7348.693182432332
 30
0.0
 40
9.0
  0
CIRCLE
  5
176B2
330
17637
100
AcDbEntity
  8
HASHIRA
100
AcDbCircle
 10
9619.127507899648
 20
7468.693182432332
 30
0.0
 40
9.0
  0
CIRCLE
  5
176B3
330
17637
100
AcDbEntity
  8
HASHIRA
100
AcDbCircle
 10
9619.127507899648
 20
7348.693182432332
 30
0.0
 40
9.0
  0
LINE
  5
176B4
330
17637
100
AcDbEntity
  8
1PL-L1
100
AcDbLine
 10
10305.85291351312
 20
7408.69318243233
 30
0.0
 11
12664.12750789964
 21
7408.69318243233
 31
0.0
  0
LINE
  5
176B5
330
17637
100
AcDbEntity
  8
1PL-L1
100
AcDbLine
 10
9619.127507899648
 20
6508.693182432331
 30
0.0
 11
9619.127507899648
 21
6730.790261580462
 31
0.0
  0
LINE
  5
176B6
330
17637
100
AcDbEntity
  8
1PL-M1
100
AcDbLine
 10
12019.12750789964
 20
6508.693182432331
 30
0.0
 11
12019.12750789964
 21
9273.693182432328
 31
0.0
  0
LINE
  5
176B7
330
17637
100
AcDbEntity
  8
1PL-M1
100
AcDbLine
 10
7219.127507899646
 20
8533.540137639372
 30
0.0
 11
7219.127507899646
 21
9273.693182432328
 31
0.0
  0
CIRCLE
  5
176B8
330
17637
100
AcDbEntity
  8
HASHIRA
100
AcDbCircle
 10
4819.127507899647
 20
8903.693182432332
 30
0.0
 40
9.0
  0
CIRCLE
  5
176B9
330
17637
100
AcDbEntity
  8
HASHIRA
100
AcDbCircle
 10
4819.127507899647
 20
8783.693182432326
 30
0.0
 40
9.0
  0
TEXT
  5
176BA
330
17637
100
AcDbEntity
  8
SUNPOU
100
AcDbText
 10
5348.647913450492
 20
7745.121753860901
 30
0.0
 40
90.0
  1
A'
 41
0.6700000000000001
  7
00
 72
     4
 11
5384.54077059335
 21
7798.69318243233
 31
0.0
100
AcDbText
  0
LINE
  5
176BB
330
17637
100
AcDbEntity
  8
SUNPOU
100
AcDbLine
 10
4819.127507899647
 20
7968.693182432332
 30
0.0
 11
4819.127507899647
 21
7818.693182432332
 31
0.0
  0
TEXT
  5
176BC
330
17637
100
AcDbEntity
  8
SUNPOU
100
AcDbText
 10
4378.537852225512
 20
7923.693182432332
 30
0.0
 40
90.0
  1
B
 41
0.6700000000000001
  7
00
 72
     4
 11
4410.123566511225
 21
7968.693182432332
 31
0.0
100
AcDbText
  0
LINE
  5
176BD
330
17637
100
AcDbEntity
  8
SUNPOU
100
AcDbLine
 10
4609.127507899649
 20
7968.693182432332
 30
0.0
 11
4819.127507899647
 21
7968.693182432332
 31
0.0
  0
LINE
  5
176BE
330
17637
100
AcDbEntity
  8
1PL-L1
100
AcDbLine
 10
4369.127507899647
 20
8843.69318243233
 30
0.0
 11
6414.46136013991
 21
8843.69318243233
 31
0.0
  0
LINE
  5
176BF
330
17637
100
AcDbEntity
  8
SUNPOU
100
AcDbLine
 10
5174.540770593345
 20
7408.69318243233
 30
0.0
 11
5024.540770593346
 21
7408.69318243233
 31
0.0
  0
LINE
  5
176C0
330
17637
100
AcDbEntity
  8
SUNPOU
100
AcDbLine
 10
5384.54077059335
 20
7618.69318243233
 30
0.0
 11
5384.54077059335
 21
7408.69318243233
 31
0.0
  0
CIRCLE
  5
176C1
330
17637
100
AcDbEntity
  8
HASHIRA
100
AcDbCircle
 10
4819.127507899647
 20
7468.693182432332
 30
0.0
 40
9.0
  0
CIRCLE
  5
176C2
330
17637
100
AcDbEntity
  8
HASHIRA
100
AcDbCircle
 10
4819.127507899647
 20
7348.693182432332
 30
0.0
 40
9.0
  0
LINE
  5
176C3
330
17637
100
AcDbEntity
  8
SUNPOU
100
AcDbLine
 10
4819.127507899647
 20
6848.693182432332
 30
0.0
 11
4819.127507899647
 21
6998.69318243233
 31
0.0
  0
TEXT
  5
176C4
330
17637
100
AcDbEntity
  8
SUNPOU
100
AcDbText
 10
4365.616423654082
 20
6795.121753860903
 30
0.0
 40
90.0
  1
B'
 41
0.6700000000000001
  7
00
 72
     4
 11
4410.123566511225
 21
6848.693182432332
 31
0.0
100
AcDbText
  0
LINE
  5
176C5
330
17637
100
AcDbEntity
  8
SUNPOU
100
AcDbLine
 10
4609.127507899649
 20
6848.693182432332
 30
0.0
 11
4819.127507899647
 21
6848.693182432332
 31
0.0
  0
LINE
  5
176C6
330
17637
100
AcDbEntity
  8
1PL-M1
100
AcDbLine
 10
7219.127507899646
 20
6508.693182432331
 30
0.0
 11
7219.127507899646
 21
8148.69318243233
 31
0.0
  0
LINE
  5
176C7
330
17637
100
AcDbEntity
  8
1PL-M1
100
AcDbLine
 10
4819.127507899647
 20
6508.693182432331
 30
0.0
 11
4819.127507899647
 21
9273.693182432328
 31
0.0
  0
LINE
  5
176C8
330
17637
100
AcDbEntity
  8
U2
100
AcDbLine
 10
8479.127507899649
 20
9163.693182432327
 30
0.0
 11
8479.127507899649
 21
6588.693182432333
 31
0.0
  0
LINE
  5
176C9
330
17637
100
AcDbEntity
  8
U2
100
AcDbLine
 10
8359.127507899648
 20
9163.693182432327
 30
0.0
 11
8359.127507899648
 21
6588.693182432333
 31
0.0
  0
LINE
  5
176CA
330
17637
100
AcDbEntity
  8
1PL-L1
100
AcDbLine
 10
6614.12561767182
 20
8843.69318243233
 30
0.0
 11
12664.12750789964
 21
8843.69318243233
 31
0.0
  0
LINE
  5
176CB
330
17637
100
AcDbEntity
  8
1PL-L1
100
AcDbLine
 10
4409.12750789965
 20
7408.69318243233
 30
0.0
 11
10100.28506683334
 21
7408.69318243233
 31
0.0
  0
TEXT
  5
176CC
330
17637
100
AcDbEntity
  8
HIKIDASHI
100
AcDbText
 10
5344.674704037417
 20
8897.136202695939
 30
0.0
 40
90.0
  1
（土間コン後面位置）
  7
01
100
AcDbText
  0
TEXT
  5
176CD
330
17637
100
AcDbEntity
  8
HIKIDASHI
100
AcDbText
 10
5428.783305953435
 20
9175.989319147296
 30
0.0
 40
90.0
  1
（屋根後面位置）
  7
01
100
AcDbText
  0
LINE
  5
176CE
330
17637
100
AcDbEntity
  8
YANE
100
AcDbLine
 10
4583.127507899646
 20
9123.693182432328
 30
0.0
 11
12255.12750789963
 21
9123.693182432328
 31
0.0
  0
LINE
  5
176CF
330
17637
100
AcDbEntity
  8
YANE
100
AcDbLine
 10
4583.127507899646
 20
6713.693182432333
 30
0.0
 11
12255.12750789963
 21
6713.693182432333
 31
0.0
  0
LINE
  5
176D0
330
17637
100
AcDbEntity
  8
YANE
100
AcDbLine
 10
12255.12750789963
 20
6713.693182432333
 30
0.0
 11
12255.12750789963
 21
9123.693182432328
 31
0.0
  0
LINE
  5
176D1
330
17637
100
AcDbEntity
  8
YANE
100
AcDbLine
 10
4583.127507899646
 20
6713.693182432333
 30
0.0
 11
4583.127507899646
 21
9123.693182432328
 31
0.0
  0
LINE
  5
176D2
330
17637
100
AcDbEntity
  8
SUNPOU
100
AcDbLine
 10
4244.127507899647
 20
7618.69318243233
 30
0.0
 11
4259.127507899648
 21
7708.693182432331
 31
0.0
  0
LINE
  5
176D3
330
17637
100
AcDbEntity
  8
SUNPOU
100
AcDbLine
 10
4259.127507899648
 20
7708.693182432331
 30
0.0
 11
4274.127507899648
 21
7618.69318243233
 31
0.0
  0
SOLID
  5
176D4
330
17637
100
AcDbEntity
  8
SUNPOU
100
AcDbTrace
 10
4244.127507899647
 20
7618.69318243233
 30
0.0
 11
4274.127507899648
 21
7618.69318243233
 31
0.0
 12
4259.127507899648
 22
7708.693182432331
 32
0.0
 13
4259.127507899648
 23
7708.693182432331
 33
0.0
  0
LINE
  5
176D5
330
17637
100
AcDbEntity
  8
SUNPOU
100
AcDbLine
 10
4274.127507899648
 20
7618.69318243233
 30
0.0
 11
4244.127507899647
 21
7618.69318243233
 31
0.0
  0
LINE
  5
176D6
330
17637
100
AcDbEntity
  8
SUNPOU
100
AcDbLine
 10
4609.127507899649
 20
6863.693182432332
 30
0.0
 11
4519.127507899646
 21
6848.693182432332
 31
0.0
  0
LINE
  5
176D7
330
17637
100
AcDbEntity
  8
SUNPOU
100
AcDbLine
 10
4519.127507899646
 20
6848.693182432332
 30
0.0
 11
4609.127507899649
 21
6833.693182432331
 31
0.0
  0
SOLID
  5
176D8
330
17637
100
AcDbEntity
  8
SUNPOU
100
AcDbTrace
 10
4609.127507899649
 20
6863.693182432332
 30
0.0
 11
4609.127507899649
 21
6833.693182432331
 31
0.0
 12
4519.127507899646
 22
6848.693182432332
 32
0.0
 13
4519.127507899646
 23
6848.693182432332
 33
0.0
  0
LINE
  5
176D9
330
17637
100
AcDbEntity
  8
SUNPOU
100
AcDbLine
 10
4609.127507899649
 20
6833.693182432331
 30
0.0
 11
4609.127507899649
 21
6863.693182432332
 31
0.0
  0
LINE
  5
176DA
330
17637
100
AcDbEntity
  8
SUNPOU
100
AcDbLine
 10
4609.127507899649
 20
7983.69318243233
 30
0.0
 11
4519.127507899646
 21
7968.693182432332
 31
0.0
  0
LINE
  5
176DB
330
17637
100
AcDbEntity
  8
SUNPOU
100
AcDbLine
 10
4519.127507899646
 20
7968.693182432332
 30
0.0
 11
4609.127507899649
 21
7953.69318243233
 31
0.0
  0
SOLID
  5
176DC
330
17637
100
AcDbEntity
  8
SUNPOU
100
AcDbTrace
 10
4609.127507899649
 20
7983.69318243233
 30
0.0
 11
4609.127507899649
 21
7953.69318243233
 31
0.0
 12
4519.127507899646
 22
7968.693182432332
 32
0.0
 13
4519.127507899646
 23
7968.693182432332
 33
0.0
  0
LINE
  5
176DD
330
17637
100
AcDbEntity
  8
SUNPOU
100
AcDbLine
 10
4609.127507899649
 20
7953.69318243233
 30
0.0
 11
4609.127507899649
 21
7983.69318243233
 31
0.0
  0
LINE
  5
176DE
330
17637
100
AcDbEntity
  8
SUNPOU
100
AcDbLine
 10
5399.540770593346
 20
7618.69318243233
 30
0.0
 11
5384.54077059335
 21
7708.693182432331
 31
0.0
  0
LINE
  5
176DF
330
17637
100
AcDbEntity
  8
SUNPOU
100
AcDbLine
 10
5384.54077059335
 20
7708.693182432331
 30
0.0
 11
5369.540770593348
 21
7618.69318243233
 31
0.0
  0
SOLID
  5
176E0
330
17637
100
AcDbEntity
  8
SUNPOU
100
AcDbTrace
 10
5399.540770593346
 20
7618.69318243233
 30
0.0
 11
5369.540770593348
 21
7618.69318243233
 31
0.0
 12
5384.54077059335
 22
7708.693182432331
 32
0.0
 13
5384.54077059335
 23
7708.693182432331
 33
0.0
  0
LINE
  5
176E1
330
17637
100
AcDbEntity
  8
SUNPOU
100
AcDbLine
 10
5369.540770593348
 20
7618.69318243233
 30
0.0
 11
5399.540770593346
 21
7618.69318243233
 31
0.0
  0
LINE
  5
176E2
330
17637
100
AcDbEntity
  8
SUNPOU
100
AcDbLine
 10
6880.377507899646
 20
8193.693182432332
 30
0.0
 11
6891.627507899646
 21
8193.693182432332
 31
0.0
  0
LINE
  5
176E3
330
17637
100
AcDbEntity
  8
SUNPOU
100
AcDbLine
 10
6569.12750789965
 20
8504.943182432331
 30
0.0
 11
6569.12750789965
 21
8516.193182432331
 31
0.0
  0
LINE
  5
176E4
330
17637
100
AcDbEntity
  8
SUNPOU
100
AcDbLine
 10
7557.87750789965
 20
8193.693182432332
 30
0.0
 11
7546.62750789965
 21
8193.693182432332
 31
0.0
  0
LINE
  5
176E5
330
17637
100
AcDbEntity
  8
SUNPOU
100
AcDbLine
 10
6569.12750789965
 20
9182.443182432331
 30
0.0
 11
6569.12750789965
 21
9171.193182432327
 31
0.0
  0
LINE
  5
176E6
330
17637
100
AcDbEntity
  8
SUNPOU
100
AcDbLine
 10
9280.377507899649
 20
6758.693182432331
 30
0.0
 11
9291.627507899647
 21
6758.693182432331
 31
0.0
  0
LINE
  5
176E7
330
17637
100
AcDbEntity
  8
SUNPOU
100
AcDbLine
 10
9957.877507899649
 20
6758.693182432331
 30
0.0
 11
9946.627507899648
 21
6758.693182432331
 31
0.0
  0
LINE
  5
176E8
330
17637
100
AcDbEntity
  8
SUNPOU
100
AcDbLine
 10
10269.12750789964
 20
7069.943182432329
 30
0.0
 11
10269.12750789964
 21
7081.193182432333
 31
0.0
  0
LINE
  5
176E9
330
17637
100
AcDbEntity
  8
SUNPOU
100
AcDbLine
 10
10269.12750789964
 20
7747.443182432331
 30
0.0
 11
10269.12750789964
 21
7736.19318243233
 31
0.0
  0
LINE
  5
176EA
330
17637
100
AcDbEntity
  8
SUNPOU
100
AcDbLine
 10
12619.12750789964
 20
6719.943182432333
 30
0.0
 11
12619.12750789964
 21
6731.193182432332
 31
0.0
  0
LINE
  5
176EB
330
17637
100
AcDbEntity
  8
SUNPOU
100
AcDbLine
 10
12829.12750789964
 20
6719.943182432333
 30
0.0
 11
12829.12750789964
 21
6731.193182432332
 31
0.0
  0
LINE
  5
176EC
330
17637
100
AcDbEntity
  8
SUNPOU
100
AcDbLine
 10
12619.12750789964
 20
7419.943182432333
 30
0.0
 11
12619.12750789964
 21
7431.19318243233
 31
0.0
  0
LINE
  5
176ED
330
17637
100
AcDbEntity
  8
SUNPOU
100
AcDbLine
 10
12619.12750789964
 20
7397.44318243233
 30
0.0
 11
12619.12750789964
 21
7386.193182432332
 31
0.0
  0
LINE
  5
176EE
330
17637
100
AcDbEntity
  8
SUNPOU
100
AcDbLine
 10
12619.12750789964
 20
8854.943182432331
 30
0.0
 11
12619.12750789964
 21
8866.193182432331
 31
0.0
  0
LINE
  5
176EF
330
17637
100
AcDbEntity
  8
SUNPOU
100
AcDbLine
 10
12619.12750789964
 20
8832.443182432331
 30
0.0
 11
12619.12750789964
 21
8821.193182432331
 31
0.0
  0
LINE
  5
176F0
330
17637
100
AcDbEntity
  8
SUNPOU
100
AcDbLine
 10
12619.12750789964
 20
9032.443182432331
 30
0.0
 11
12619.12750789964
 21
9021.193182432327
 31
0.0
  0
LINE
  5
176F1
330
17637
100
AcDbEntity
  8
SUNPOU
100
AcDbLine
 10
12829.12750789964
 20
9032.443182432331
 30
0.0
 11
12829.12750789964
 21
9021.193182432327
 31
0.0
  0
LINE
  5
176F2
330
17637
100
AcDbEntity
  8
SUNPOU
100
AcDbLine
 10
4469.127507899647
 20
6668.693182432332
 30
0.0
 11
4469.127507899647
 21
6053.693182432332
 31
0.0
  0
LINE
  5
176F3
330
17637
100
AcDbEntity
  8
SUNPOU
100
AcDbLine
 10
12369.12750789964
 20
6668.693182432332
 30
0.0
 11
12369.12750789964
 21
6053.693182432332
 31
0.0
  0
LINE
  5
176F4
330
17637
100
AcDbEntity
  8
SUNPOU
100
AcDbLine
 10
4489.127507899648
 20
6098.693182432332
 30
0.0
 11
12349.12750789964
 21
6098.693182432332
 31
0.0
  0
LINE
  5
17712
330
17637
100
AcDbEntity
  8
1PL-M1
100
AcDbLine
 10
4799.797051267463
 20
2396.172125878784
 30
0.0
 11
4799.797051267463
 21
4175.485411556191
 31
0.0
  0
LINE
  5
17713
330
17637
100
AcDbEntity
  8
KISO
100
AcDbLine
 10
6002.193774006773
 20
3447.084839419609
 30
0.0
 11
4851.797051267459
 21
3447.084839419609
 31
0.0
  0
LINE
  5
17714
330
17637
100
AcDbEntity
  8
KISO
100
AcDbLine
 10
6002.193774006773
 20
3319.084839419601
 30
0.0
 11
4239.797051267464
 21
3319.084839419601
 31
0.0
  0
LINE
  5
17715
330
17637
100
AcDbEntity
  8
HATCH
100
AcDbLine
 10
5021.555511458892
 20
3447.084839419608
 30
0.0
 11
4893.555511458892
 21
3319.084839419601
 31
0.0
  0
LINE
  5
17716
330
17637
100
AcDbEntity
  8
U3
100
AcDbLine
 10
3433.961658022965
 20
3367.084839419605
 30
0.0
 11
3601.961658022965
 21
3199.08483941961
 31
0.0
  0
LINE
  5
17717
330
17637
100
AcDbEntity
  8
U3
100
AcDbLine
 10
3383.049969777533
 20
3316.173151174174
 30
0.0
 11
3500.1382815321
 21
3199.084839419605
 31
0.0
  0
LINE
  5
17718
330
17637
100
AcDbEntity
  8
U3
100
AcDbLine
 10
3669.820095533321
 20
3367.084839419606
 30
0.0
 11
3097.961658022965
 21
3367.084839419606
 31
0.0
  0
LINE
  5
17719
330
17637
100
AcDbEntity
  8
U3
100
AcDbLine
 10
3164.1382815321
 20
3300.908215910468
 30
0.0
 11
3230.314905041233
 21
3367.084839419603
 31
0.0
  0
LINE
  5
1771A
330
17637
100
AcDbEntity
  8
U3
100
AcDbLine
 10
3097.961658022965
 20
3367.084839419603
 30
0.0
 11
3265.961658022965
 21
3199.084839419608
 31
0.0
  0
LINE
  5
1771B
330
17637
100
AcDbEntity
  8
U3
100
AcDbLine
 10
3215.049969777531
 20
3249.996527665039
 30
0.0
 11
3332.138281532099
 21
3367.084839419603
 31
0.0
  0
LINE
  5
1771C
330
17637
100
AcDbEntity
  8
U3
100
AcDbLine
 10
3265.961658022965
 20
3199.084839419608
 30
0.0
 11
3433.961658022965
 21
3367.084839419605
 31
0.0
  0
LINE
  5
1771D
330
17637
100
AcDbEntity
  8
U3
100
AcDbLine
 10
3332.138281532099
 20
3265.261462928741
 30
0.0
 11
3398.314905041238
 21
3199.084839419605
 31
0.0
  0
LINE
  5
1771E
330
17637
100
AcDbEntity
  8
U3
100
AcDbLine
 10
3601.961658022965
 20
3199.08483941961
 30
0.0
 11
3669.820095533321
 21
3266.943276929966
 31
0.0
  0
LINE
  5
1771F
330
17637
100
AcDbEntity
  8
U3
100
AcDbLine
 10
3500.1382815321
 20
3300.908215910471
 30
0.0
 11
3566.314905041235
 21
3367.084839419605
 31
0.0
  0
LINE
  5
17720
330
17637
100
AcDbEntity
  8
U3
100
AcDbLine
 10
3551.049969777531
 20
3249.99652766504
 30
0.0
 11
3668.138281532103
 21
3367.084839419605
 31
0.0
  0
LINE
  5
17721
330
17637
100
AcDbEntity
  8
HASHIRA
100
AcDbLine
 10
4851.797051267459
 20
3328.684839419607
 30
0.0
 11
4851.797051267459
 21
3718.91804462035
 31
0.0
  0
LINE
  5
17722
330
17637
100
AcDbEntity
  8
HASHIRA
100
AcDbLine
 10
4747.797051267458
 20
3718.91804462035
 30
0.0
 11
4747.797051267458
 21
3328.684839419607
 31
0.0
  0
LINE
  5
17723
330
17637
100
AcDbEntity
  8
U3
100
AcDbLine
 10
4239.797051267464
 20
3376.684839419604
 30
0.0
 11
3989.820095533321
 21
3376.684839419603
 31
0.0
  0
LINE
  5
17724
330
17637
100
AcDbEntity
  8
U3
100
AcDbLine
 10
4178.782873409587
 20
3310.508215910469
 30
0.0
 11
4239.797051267464
 21
3371.522393768344
 31
0.0
  0
LINE
  5
17725
330
17637
100
AcDbEntity
  8
U3
100
AcDbLine
 10
4112.606249900458
 20
3376.684839419603
 30
0.0
 11
4239.797051267464
 21
3249.494038052592
 31
0.0
  0
LINE
  5
17726
330
17637
100
AcDbEntity
  8
U3
100
AcDbLine
 10
4055.765342899848
 20
3331.702369929347
 30
0.0
 11
4178.782873409594
 21
3208.684839419603
 31
0.0
  0
LINE
  5
17727
330
17637
100
AcDbEntity
  8
KISO
100
AcDbLine
 10
4747.797051267458
 20
3447.084839419609
 30
0.0
 11
4239.797051267464
 21
3447.084839419609
 31
0.0
  0
LINE
  5
17728
330
17637
100
AcDbEntity
  8
HATCH
100
AcDbLine
 10
4821.714626963203
 20
3319.084839419601
 30
0.0
 11
4810.197051267465
 21
3307.567263723864
 31
0.0
  0
LINE
  5
17729
330
17637
100
AcDbEntity
  8
KISO
100
AcDbLine
 10
5359.79705126747
 20
3191.0848394196
 30
0.0
 11
6002.193774006773
 21
3191.084839419601
 31
0.0
  0
LINE
  5
1772A
330
17637
100
AcDbEntity
  8
HATCH
100
AcDbLine
 10
6002.193774006773
 20
3420.205526271753
 30
0.0
 11
5901.073087154633
 21
3319.084839419603
 31
0.0
  0
LINE
  5
1772B
330
17637
100
AcDbEntity
  8
HATCH
100
AcDbLine
 10
6002.193774006773
 20
3372.687950576013
 30
0.0
 11
5948.590662850365
 21
3319.084839419603
 31
0.0
  0
LINE
  5
1772C
330
17637
100
AcDbEntity
  8
HATCH
100
AcDbLine
 10
5501.55551145889
 20
3447.084839419609
 30
0.0
 11
5373.555511458888
 21
3319.084839419601
 31
0.0
  0
LINE
  5
1772D
330
17637
100
AcDbEntity
  8
HATCH
100
AcDbLine
 10
5549.07308715463
 20
3447.084839419609
 30
0.0
 11
5421.07308715463
 21
3319.084839419601
 31
0.0
  0
LINE
  5
1772E
330
17637
100
AcDbEntity
  8
HATCH
100
AcDbLine
 10
5116.590662850367
 20
3447.084839419609
 30
0.0
 11
4988.590662850362
 21
3319.084839419601
 31
0.0
  0
LINE
  5
1772F
330
17637
100
AcDbEntity
  8
HATCH
100
AcDbLine
 10
5069.073087154626
 20
3447.084839419609
 30
0.0
 11
4941.073087154631
 21
3319.084839419601
 31
0.0
  0
LINE
  5
17730
330
17637
100
AcDbEntity
  8
HATCH
100
AcDbLine
 10
5596.590662850367
 20
3447.084839419609
 30
0.0
 11
5468.590662850361
 21
3319.084839419601
 31
0.0
  0
LINE
  5
17731
330
17637
100
AcDbEntity
  8
HATCH
100
AcDbLine
 10
5981.555511458893
 20
3447.084839419609
 30
0.0
 11
5853.555511458888
 21
3319.084839419603
 31
0.0
  0
LINE
  5
17732
330
17637
100
AcDbEntity
  8
KISO
100
AcDbLine
 10
5359.797051267463
 20
3319.0848394196
 30
0.0
 11
5359.797051267463
 21
2679.084839419599
 31
0.0
  0
LINE
  5
17733
330
17637
100
AcDbEntity
  8
HATCH
100
AcDbLine
 10
5359.797051267463
 20
2993.167263723861
 30
0.0
 11
5045.714626963205
 21
2679.0848394196
 31
0.0
  0
LINE
  5
17734
330
17637
100
AcDbEntity
  8
HATCH
100
AcDbLine
 10
5301.232202658938
 20
3319.084839419601
 30
0.0
 11
4661.232202658946
 21
2679.0848394196
 31
0.0
  0
LINE
  5
17735
330
17637
100
AcDbEntity
  8
HATCH
100
AcDbLine
 10
5253.714626963207
 20
3319.084839419601
 30
0.0
 11
4810.197051267465
 21
2875.567263723857
 31
0.0
  0
LINE
  5
17736
330
17637
100
AcDbEntity
  8
HATCH
100
AcDbLine
 10
5206.197051267466
 20
3319.084839419601
 30
0.0
 11
4810.197051267465
 21
2923.084839419596
 31
0.0
  0
LINE
  5
17737
330
17637
100
AcDbEntity
  8
HATCH
100
AcDbLine
 10
5359.797051267463
 20
2945.649688028122
 30
0.0
 11
5093.232202658946
 21
2679.084839419599
 31
0.0
  0
LINE
  5
17738
330
17637
100
AcDbEntity
  8
HATCH
100
AcDbLine
 10
5359.797051267463
 20
2898.13211233239
 30
0.0
 11
5140.749778354678
 21
2679.084839419599
 31
0.0
  0
LINE
  5
17739
330
17637
100
AcDbEntity
  8
HATCH
100
AcDbLine
 10
4774.197051267476
 20
3319.084839419601
 30
0.0
 11
4239.797051267464
 21
2784.684839419591
 31
0.0
  0
LINE
  5
1773A
330
17637
100
AcDbEntity
  8
HATCH
100
AcDbLine
 10
4726.679475571732
 20
3319.084839419601
 30
0.0
 11
4239.797051267464
 21
2832.202415115333
 31
0.0
  0
LINE
  5
1773B
330
17637
100
AcDbEntity
  8
HATCH
100
AcDbLine
 10
4789.397051267463
 20
3286.767263723862
 30
0.0
 11
4239.797051267464
 21
2737.167263723859
 31
0.0
  0
LINE
  5
1773C
330
17637
100
AcDbEntity
  8
HATCH
100
AcDbLine
 10
4342.197051267471
 20
3319.084839419601
 30
0.0
 11
4239.797051267464
 21
3216.684839419595
 31
0.0
  0
LINE
  5
1773D
330
17637
100
AcDbEntity
  8
HATCH
100
AcDbLine
 10
4247.161899876001
 20
3319.084839419603
 30
0.0
 11
4239.797051267464
 21
3311.719990811067
 31
0.0
  0
LINE
  5
1773E
330
17637
100
AcDbEntity
  8
HATCH
100
AcDbLine
 10
4294.679475571739
 20
3319.084839419601
 30
0.0
 11
4239.797051267464
 21
3264.202415115327
 31
0.0
  0
LINE
  5
1773F
330
17637
100
AcDbEntity
  8
HATCH
100
AcDbLine
 10
4789.397051267463
 20
2902.284839419595
 30
0.0
 11
4766.19705126748
 21
2879.084839419608
 31
0.0
  0
LINE
  5
17740
330
17637
100
AcDbEntity
  8
HATCH
100
AcDbLine
 10
4745.397051267479
 20
2858.284839419607
 30
0.0
 11
4566.19705126747
 21
2679.0848394196
 31
0.0
  0
LINE
  5
17741
330
17637
100
AcDbEntity
  8
HATCH
100
AcDbLine
 10
5439.797051267464
 20
3285.236002075317
 30
0.0
 11
5459.339686619942
 21
3319.084839419601
 31
0.0
  0
LINE
  5
17742
330
17637
100
AcDbEntity
  8
U3
100
AcDbLine
 10
4004.853654654414
 20
3280.790681683919
 30
0.0
 11
4076.959496918733
 21
3208.684839419603
 31
0.0
  0
LINE
  5
17743
330
17637
100
AcDbEntity
  8
U3
100
AcDbLine
 10
3989.820095533321
 20
3265.757122562824
 30
0.0
 11
4100.7478123901
 21
3376.684839419601
 31
0.0
  0
LINE
  5
17744
330
17637
100
AcDbEntity
  8
HATCH
100
AcDbLine
 10
4792.91462696322
 20
2858.284839419607
 30
0.0
 11
4613.71462696321
 21
2679.0848394196
 31
0.0
  0
LINE
  5
17745
330
17637
100
AcDbEntity
  8
HATCH
100
AcDbLine
 10
4636.590662850368
 20
3447.084839419609
 30
0.0
 11
4508.590662850362
 21
3319.084839419601
 31
0.0
  0
LINE
  5
17746
330
17637
100
AcDbEntity
  8
HATCH
100
AcDbLine
 10
4589.07308715463
 20
3447.084839419609
 30
0.0
 11
4461.07308715463
 21
3319.084839419601
 31
0.0
  0
LINE
  5
17747
330
17637
100
AcDbEntity
  8
HATCH
100
AcDbLine
 10
4541.55551145889
 20
3447.084839419609
 30
0.0
 11
4413.55551145889
 21
3319.084839419601
 31
0.0
  0
LINE
  5
17748
330
17637
100
AcDbEntity
  8
SUNPOU
100
AcDbLine
 10
4799.797051267463
 20
4130.485411556192
 30
0.0
 11
6225.027558517715
 21
4130.485411556192
 31
0.0
  0
TEXT
  5
17749
330
17637
100
AcDbEntity
  8
SUNPOU
100
AcDbText
 10
5585.624750407928
 20
4175.485411556191
 30
0.0
 40
90.0
  1
2400
 41
0.6666666666666666
  7
00
 72
     4
 11
5699.910464693643
 21
4220.485411556191
 31
0.0
100
AcDbText
  0
LINE
  5
1774A
330
17637
100
AcDbEntity
  8
HATCH
100
AcDbLine
 10
4727.103394286158
 20
2519.084839419599
 30
0.0
 11
4819.479436952822
 21
2679.084839419599
 31
0.0
  0
LINE
  5
1774B
330
17637
100
AcDbEntity
  8
HATCH
100
AcDbLine
 10
4766.146103619488
 20
2679.084839419599
 30
0.0
 11
4792.812770286156
 21
2632.896816752936
 31
0.0
  0
LINE
  5
1774C
330
17637
100
AcDbEntity
  8
HATCH
100
AcDbLine
 10
4753.770060952825
 20
2565.272860752929
 30
0.0
 11
4780.43672761949
 21
2519.084839419599
 31
0.0
  0
LINE
  5
1774D
330
17637
100
AcDbEntity
  8
HATCH
100
AcDbLine
 10
4553.770060952825
 20
2565.272860752929
 30
0.0
 11
4580.43672761949
 21
2519.084839419599
 31
0.0
  0
LINE
  5
1774E
330
17637
100
AcDbEntity
  8
HATCH
100
AcDbLine
 10
4566.14610361949
 20
2679.084839419599
 30
0.0
 11
4592.812770286156
 21
2632.896816752936
 31
0.0
  0
LINE
  5
1774F
330
17637
100
AcDbEntity
  8
HATCH
100
AcDbLine
 10
4353.770060952824
 20
2565.272860752929
 30
0.0
 11
4380.436727619491
 21
2519.084839419599
 31
0.0
  0
LINE
  5
17750
330
17637
100
AcDbEntity
  8
HATCH
100
AcDbLine
 10
4327.103394286157
 20
2519.084839419599
 30
0.0
 11
4419.479436952822
 21
2679.084839419599
 31
0.0
  0
LINE
  5
17751
330
17637
100
AcDbEntity
  8
HATCH
100
AcDbLine
 10
4366.14610361949
 20
2679.084839419599
 30
0.0
 11
4392.812770286155
 21
2632.896816752936
 31
0.0
  0
LINE
  5
17752
330
17637
100
AcDbEntity
  8
HATCH
100
AcDbLine
 10
4153.770060952825
 20
2565.272860752929
 30
0.0
 11
4180.436727619491
 21
2519.084839419599
 31
0.0
  0
LINE
  5
17753
330
17637
100
AcDbEntity
  8
HATCH
100
AcDbLine
 10
4166.14610361949
 20
2679.084839419599
 30
0.0
 11
4192.812770286155
 21
2632.896816752936
 31
0.0
  0
LINE
  5
17754
330
17637
100
AcDbEntity
  8
HATCH
100
AcDbLine
 10
4127.103394286157
 20
2519.084839419599
 30
0.0
 11
4219.479436952823
 21
2679.084839419599
 31
0.0
  0
LINE
  5
17755
330
17637
100
AcDbEntity
  8
HATCH
100
AcDbLine
 10
4527.103394286156
 20
2519.084839419599
 30
0.0
 11
4619.479436952822
 21
2679.084839419599
 31
0.0
  0
LINE
  5
17756
330
17637
100
AcDbEntity
  8
HATCH
100
AcDbLine
 10
4966.146103619489
 20
2679.084839419599
 30
0.0
 11
4992.812770286156
 21
2632.896816752936
 31
0.0
  0
LINE
  5
17757
330
17637
100
AcDbEntity
  8
HATCH
100
AcDbLine
 10
4927.103394286158
 20
2519.084839419599
 30
0.0
 11
5019.479436952822
 21
2679.084839419599
 31
0.0
  0
LINE
  5
17758
330
17637
100
AcDbEntity
  8
HATCH
100
AcDbLine
 10
4953.770060952823
 20
2565.272860752929
 30
0.0
 11
4980.43672761949
 21
2519.084839419599
 31
0.0
  0
LINE
  5
17759
330
17637
100
AcDbEntity
  8
HATCH
100
AcDbLine
 10
5127.103394286158
 20
2519.084839419599
 30
0.0
 11
5219.479436952823
 21
2679.084839419599
 31
0.0
  0
LINE
  5
1775A
330
17637
100
AcDbEntity
  8
HATCH
100
AcDbLine
 10
5166.146103619489
 20
2679.084839419599
 30
0.0
 11
5192.812770286156
 21
2632.896816752936
 31
0.0
  0
LINE
  5
1775B
330
17637
100
AcDbEntity
  8
HATCH
100
AcDbLine
 10
5153.770060952822
 20
2565.272860752929
 30
0.0
 11
5180.43672761949
 21
2519.084839419599
 31
0.0
  0
TEXT
  5
1775C
330
17637
100
AcDbEntity
  8
SUNPOU
100
AcDbText
 10
3150.061516132468
 20
3502.084839419605
 30
0.0
 40
90.0
  1
G.L
 41
0.6700000000000001
  7
01
 72
     4
 11
3221.847230418183
 21
3547.084839419605
 31
0.0
100
AcDbText
  0
LINE
  5
1775D
330
17637
100
AcDbEntity
  8
SUNPOU
100
AcDbLine
 10
3273.80875464525
 20
3457.084839419605
 30
0.0
 11
3169.885706191117
 21
3457.084839419605
 31
0.0
  0
LINE
  5
1775E
330
17637
100
AcDbEntity
  8
SUNPOU
100
AcDbLine
 10
3169.885706191117
 20
3457.084839419605
 30
0.0
 11
3221.847230418183
 21
3367.084839419606
 31
0.0
  0
LINE
  5
1775F
330
17637
100
AcDbEntity
  8
SUNPOU
100
AcDbLine
 10
3221.847230418183
 20
3367.084839419606
 30
0.0
 11
3273.80875464525
 21
3457.084839419605
 31
0.0
  0
TEXT
  5
17760
330
17637
100
AcDbEntity
  8
HIKIDASHI
100
AcDbText
 10
4876.000654146238
 20
1664.635820576935
 30
0.0
 40
90.0
  1
断 面
  7
01
100
AcDbText
  0
LINE
  5
17761
330
17637
100
AcDbEntity
  8
HIKIDASHI
100
AcDbLine
 10
4451.983374649677
 20
1619.635820576936
 30
0.0
 11
5147.610727885247
 21
1619.635820576936
 31
0.0
  0
LINE
  5
17762
330
17637
100
AcDbEntity
  8
HIKIDASHI
100
AcDbLine
 10
4451.983374649677
 20
1589.635820576935
 30
0.0
 11
5147.610727885247
 21
1589.635820576935
 31
0.0
  0
TEXT
  5
17763
330
17637
100
AcDbEntity
  8
HIKIDASHI
100
AcDbText
 10
4481.983374649677
 20
1664.635820576935
 30
0.0
 40
90.0
  1
A  ~  A'
 41
0.6700000000000001
  7
00
100
AcDbText
  0
TEXT
  5
17764
330
17637
100
AcDbEntity
  8
HIKIDASHI
100
AcDbText
 10
5638.705531692624
 20
2949.11470702088
 30
0.0
 40
90.0
  1
敷砂利又は砕石
  7
01
 72
     2
 11
6370.705531692625
 21
2994.11470702088
 31
0.0
100
AcDbText
 73
     2
  0
LINE
  5
17765
330
17637
100
AcDbEntity
  8
HIKIDASHI
100
AcDbLine
 10
6395.935832338302
 20
2904.114707020879
 30
0.0
 11
5594.871662611158
 21
2904.114707020879
 31
0.0
  0
TEXT
  5
17766
330
17637
100
AcDbEntity
  8
HIKIDASHI
100
AcDbText
 10
5763.405704394569
 20
2313.304238552882
 30
0.0
 40
90.0
  1
砕　石
  7
01
 72
     2
 11
6063.405704394569
 21
2358.304238552882
 31
0.0
100
AcDbText
 73
     2
  0
LINE
  5
17767
330
17637
100
AcDbEntity
  8
HIKIDASHI
100
AcDbLine
 10
6105.104473630285
 20
2268.30423855288
 30
0.0
 11
5736.338096802658
 21
2268.30423855288
 31
0.0
  0
CIRCLE
  5
17768
330
17637
100
AcDbEntity
  8
BOLT
100
AcDbCircle
 10
8811.882670973586
 20
3424.684839419607
 30
0.0
 40
13.2
  0
CIRCLE
  5
17769
330
17637
100
AcDbEntity
  8
BOLT
100
AcDbCircle
 10
8811.882670973586
 20
3424.684839419607
 30
0.0
 40
16.8
  0
CIRCLE
  5
1776A
330
17637
100
AcDbEntity
  8
BOLT
100
AcDbCircle
 10
8811.882670973586
 20
3360.684839419607
 30
0.0
 40
16.8
  0
CIRCLE
  5
1776B
330
17637
100
AcDbEntity
  8
BOLT
100
AcDbCircle
 10
8811.882670973586
 20
3360.684839419607
 30
0.0
 40
13.2
  0
LINE
  5
1776C
330
17637
100
AcDbEntity
  8
KISO
100
AcDbLine
 10
10014.27939371289
 20
3447.084839419609
 30
0.0
 11
8863.882670973586
 21
3447.084839419608
 31
0.0
  0
LINE
  5
1776D
330
17637
100
AcDbEntity
  8
KISO
100
AcDbLine
 10
10014.27939371289
 20
3319.084839419601
 30
0.0
 11
7691.882670973587
 21
3319.084839419604
 31
0.0
  0
LINE
  5
1776E
330
17637
100
AcDbEntity
  8
KISO
100
AcDbLine
 10
7691.882670973587
 20
3191.084839419599
 30
0.0
 11
8251.882670973586
 21
3191.084839419599
 31
0.0
  0
LINE
  5
1776F
330
17637
100
AcDbEntity
  8
KISO
100
AcDbLine
 10
8759.882670973587
 20
3447.084839419609
 30
0.0
 11
7691.882670973587
 21
3447.084839419609
 31
0.0
  0
LINE
  5
17770
330
17637
100
AcDbEntity
  8
KISO
100
AcDbLine
 10
8251.882670973586
 20
3319.084839419601
 30
0.0
 11
8251.882670973586
 21
3191.084839419601
 31
0.0
  0
LINE
  5
17771
330
17637
100
AcDbEntity
  8
HASHIRA
100
AcDbLine
 10
8863.882670973584
 20
3328.684839419607
 30
0.0
 11
8863.882670973579
 21
3583.485411556191
 31
0.0
  0
LINE
  5
17772
330
17637
100
AcDbEntity
  8
HASHIRA
100
AcDbLine
 10
8759.882670973587
 20
3583.485411556191
 30
0.0
 11
8759.882670973587
 21
3328.684839419607
 31
0.0
  0
LINE
  5
17773
330
17637
100
AcDbEntity
  8
HATCH
100
AcDbLine
 10
8553.64113116502
 20
3447.084839419609
 30
0.0
 11
8425.641131165013
 21
3319.084839419603
 31
0.0
  0
LINE
  5
17774
330
17637
100
AcDbEntity
  8
HATCH
100
AcDbLine
 10
8648.676282556484
 20
3447.084839419608
 30
0.0
 11
8520.676282556481
 21
3319.084839419601
 31
0.0
  0
LINE
  5
17775
330
17637
100
AcDbEntity
  8
HATCH
100
AcDbLine
 10
8601.158706860756
 20
3447.084839419609
 30
0.0
 11
8473.158706860749
 21
3319.084839419603
 31
0.0
  0
LINE
  5
17776
330
17637
100
AcDbEntity
  8
1PL-S1
100
AcDbLine
 10
8715.882670973586
 20
3309.484839419607
 30
0.0
 11
8715.882670973586
 21
3338.284839419608
 31
0.0
  0
LINE
  5
17777
330
17637
100
AcDbEntity
  8
HATCH
100
AcDbLine
 10
9033.641131165012
 20
3447.084839419608
 30
0.0
 11
8915.241131165014
 21
3328.684839419607
 31
0.0
  0
LINE
  5
17778
330
17637
100
AcDbEntity
  8
HATCH
100
AcDbLine
 10
9081.158706860755
 20
3447.084839419609
 30
0.0
 11
8953.158706860749
 21
3319.084839419601
 31
0.0
  0
LINE
  5
17779
330
17637
100
AcDbEntity
  8
1PL-S1
100
AcDbLine
 10
8907.882670973583
 20
3309.484839419607
 30
0.0
 11
8907.882670973583
 21
3338.284839419606
 31
0.0
  0
LINE
  5
1777A
330
17637
100
AcDbEntity
  8
HATCH
100
AcDbLine
 10
9128.676282556488
 20
3447.084839419609
 30
0.0
 11
9000.676282556481
 21
3319.084839419601
 31
0.0
  0
LINE
  5
1777B
330
17637
100
AcDbEntity
  8
HATCH
100
AcDbLine
 10
9513.641131165012
 20
3447.084839419609
 30
0.0
 11
9385.641131165012
 21
3319.084839419601
 31
0.0
  0
LINE
  5
1777C
330
17637
100
AcDbEntity
  8
HATCH
100
AcDbLine
 10
9561.158706860755
 20
3447.084839419609
 30
0.0
 11
9433.158706860751
 21
3319.084839419601
 31
0.0
  0
LINE
  5
1777D
330
17637
100
AcDbEntity
  8
HATCH
100
AcDbLine
 10
9608.676282556487
 20
3447.084839419609
 30
0.0
 11
9480.676282556476
 21
3319.084839419601
 31
0.0
  0
LINE
  5
1777E
330
17637
100
AcDbEntity
  8
HATCH
100
AcDbLine
 10
10014.27939371289
 20
3372.687950576015
 30
0.0
 11
9960.676282556477
 21
3319.084839419601
 31
0.0
  0
LINE
  5
1777F
330
17637
100
AcDbEntity
  8
HATCH
100
AcDbLine
 10
10014.27939371289
 20
3420.205526271745
 30
0.0
 11
9913.158706860752
 21
3319.084839419601
 31
0.0
  0
LINE
  5
17780
330
17637
100
AcDbEntity
  8
HATCH
100
AcDbLine
 10
9993.641131165013
 20
3447.084839419609
 30
0.0
 11
9865.641131165013
 21
3319.084839419601
 31
0.0
  0
LINE
  5
17781
330
17637
100
AcDbEntity
  8
HATCH
100
AcDbLine
 10
9371.882670973588
 20
2993.167263723866
 30
0.0
 11
9057.800246669323
 21
2679.084839419599
 31
0.0
  0
LINE
  5
17782
330
17637
100
AcDbEntity
  8
HATCH
100
AcDbLine
 10
9371.882670973588
 20
2945.64968802813
 30
0.0
 11
9105.317822365057
 21
2679.084839419599
 31
0.0
  0
LINE
  5
17783
330
17637
100
AcDbEntity
  8
HATCH
100
AcDbLine
 10
9371.882670973581
 20
2898.132112332395
 30
0.0
 11
9152.835398060792
 21
2679.084839419599
 31
0.0
  0
LINE
  5
17784
330
17637
100
AcDbEntity
  8
HATCH
100
AcDbLine
 10
9265.80024666932
 20
3319.084839419601
 30
0.0
 11
8918.282670973587
 21
2971.567263723861
 31
0.0
  0
LINE
  5
17785
330
17637
100
AcDbEntity
  8
HATCH
100
AcDbLine
 10
9313.31782236505
 20
3319.084839419601
 30
0.0
 11
8918.282670973587
 21
2924.049688028131
 31
0.0
  0
LINE
  5
17786
330
17637
100
AcDbEntity
  8
HATCH
100
AcDbLine
 10
9218.282670973584
 20
3319.084839419601
 30
0.0
 11
8918.282670973587
 21
3019.084839419599
 31
0.0
  0
LINE
  5
17787
330
17637
100
AcDbEntity
  8
KISO
100
AcDbLine
 10
9371.882670973581
 20
3319.084839419604
 30
0.0
 11
9371.882670973588
 21
2679.084839419599
 31
0.0
  0
LINE
  5
17788
330
17637
100
AcDbEntity
  8
HATCH
100
AcDbLine
 10
8738.765095277852
 20
3319.084839419601
 30
0.0
 11
8726.282670973587
 21
3306.602415115337
 31
0.0
  0
LINE
  5
17789
330
17637
100
AcDbEntity
  8
HATCH
100
AcDbLine
 10
8801.482670973589
 20
3286.767263723867
 30
0.0
 11
8726.282670973587
 21
3211.567263723865
 31
0.0
  0
LINE
  5
1778A
330
17637
100
AcDbEntity
  8
HATCH
100
AcDbLine
 10
8786.282670973589
 20
3319.084839419601
 30
0.0
 11
8726.282670973587
 21
3259.084839419598
 31
0.0
  0
LINE
  5
1778B
330
17637
100
AcDbEntity
  8
KISO
100
AcDbLine
 10
8251.882670973586
 20
3319.084839419604
 30
0.0
 11
8251.882670973586
 21
2679.084839419599
 31
0.0
  0
LINE
  5
1778C
330
17637
100
AcDbEntity
  8
HATCH
100
AcDbLine
 10
8354.282670973587
 20
3319.084839419603
 30
0.0
 11
8251.882670973586
 21
3216.684839419603
 31
0.0
  0
LINE
  5
1778D
330
17637
100
AcDbEntity
  8
HATCH
100
AcDbLine
 10
8306.765095277857
 20
3319.084839419601
 30
0.0
 11
8251.882670973586
 21
3264.202415115331
 31
0.0
  0
LINE
  5
1778E
330
17637
100
AcDbEntity
  8
HATCH
100
AcDbLine
 10
8897.48267097358
 20
2998.284839419597
 30
0.0
 11
8578.282670973594
 21
2679.0848394196
 31
0.0
  0
LINE
  5
1778F
330
17637
100
AcDbEntity
  8
HATCH
100
AcDbLine
 10
8897.48267097358
 20
2950.767263723859
 30
0.0
 11
8625.800246669326
 21
2679.084839419599
 31
0.0
  0
LINE
  5
17790
330
17637
100
AcDbEntity
  8
HATCH
100
AcDbLine
 10
8897.48267097358
 20
2903.249688028129
 30
0.0
 11
8673.31782236506
 21
2679.084839419599
 31
0.0
  0
LINE
  5
17791
330
17637
100
AcDbEntity
  8
HATCH
100
AcDbLine
 10
8705.482670973585
 20
3285.802415115337
 30
0.0
 11
8251.882670973586
 21
2832.202415115336
 31
0.0
  0
LINE
  5
17792
330
17637
100
AcDbEntity
  8
HATCH
100
AcDbLine
 10
8705.482670973585
 20
3238.284839419597
 30
0.0
 11
8251.882670973586
 21
2784.684839419592
 31
0.0
  0
LINE
  5
17793
330
17637
100
AcDbEntity
  8
HATCH
100
AcDbLine
 10
8705.482670973585
 20
3190.767263723866
 30
0.0
 11
8251.882670973586
 21
2737.167263723863
 31
0.0
  0
LINE
  5
17794
330
17637
100
AcDbEntity
  8
HATCH
100
AcDbLine
 10
8259.247519582121
 20
3319.084839419603
 30
0.0
 11
8251.882670973586
 21
3311.71999081107
 31
0.0
  0
LINE
  5
17795
330
17637
100
AcDbEntity
  8
1PL-M1
100
AcDbLine
 10
8811.882670973586
 20
2428.172125878784
 30
0.0
 11
8811.882670973586
 21
4175.485411556194
 31
0.0
  0
LINE
  5
17796
330
17637
100
AcDbEntity
  8
SUNPOU
100
AcDbLine
 10
8811.882670973586
 20
4130.485411556196
 30
0.0
 11
10237.11317822384
 21
4130.485411556196
 31
0.0
  0
TEXT
  5
17797
330
17637
100
AcDbEntity
  8
SUNPOU
100
AcDbText
 10
9593.424655828336
 20
4175.485411556197
 30
0.0
 40
90.0
  1
1435
 41
0.6666666666666666
  7
00
 72
     4
 11
9711.996084399766
 21
4220.485411556196
 31
0.0
100
AcDbText
  0
TEXT
  5
17798
330
17637
100
AcDbEntity
  8
SUNPOU
100
AcDbText
 10
6656.359478075291
 20
3502.084839419613
 30
0.0
 40
90.0
  1
G.L
 41
0.6700000000000001
  7
01
 72
     4
 11
6728.145192361006
 21
3547.084839419613
 31
0.0
100
AcDbText
  0
LINE
  5
17799
330
17637
100
AcDbEntity
  8
SUNPOU
100
AcDbLine
 10
6780.106716588072
 20
3457.084839419613
 30
0.0
 11
6676.183668133939
 21
3457.084839419613
 31
0.0
  0
LINE
  5
1779A
330
17637
100
AcDbEntity
  8
SUNPOU
100
AcDbLine
 10
6676.183668133939
 20
3457.084839419613
 30
0.0
 11
6728.145192361006
 21
3367.084839419614
 31
0.0
  0
LINE
  5
1779B
330
17637
100
AcDbEntity
  8
SUNPOU
100
AcDbLine
 10
6728.145192361006
 20
3367.084839419614
 30
0.0
 11
6780.106716588072
 21
3457.084839419613
 31
0.0
  0
LINE
  5
1779C
330
17637
100
AcDbEntity
  8
U3
100
AcDbLine
 10
6940.259619965788
 20
3367.084839419608
 30
0.0
 11
7108.259619965787
 21
3199.084839419612
 31
0.0
  0
LINE
  5
1779D
330
17637
100
AcDbEntity
  8
U3
100
AcDbLine
 10
6889.347931720354
 20
3316.173151174178
 30
0.0
 11
7006.436243474921
 21
3199.084839419608
 31
0.0
  0
LINE
  5
1779E
330
17637
100
AcDbEntity
  8
U3
100
AcDbLine
 10
7691.882670973587
 20
3367.08483941961
 30
0.0
 11
7521.013148236701
 21
3367.084839419608
 31
0.0
  0
LINE
  5
1779F
330
17637
100
AcDbEntity
  8
U3
100
AcDbLine
 10
6670.436243474921
 20
3300.908215910471
 30
0.0
 11
6736.612866984057
 21
3367.084839419606
 31
0.0
  0
LINE
  5
177A0
330
17637
100
AcDbEntity
  8
U3
100
AcDbLine
 10
6604.259619965787
 20
3367.084839419606
 30
0.0
 11
6772.259619965787
 21
3199.084839419611
 31
0.0
  0
LINE
  5
177A1
330
17637
100
AcDbEntity
  8
U3
100
AcDbLine
 10
6721.347931720353
 20
3249.996527665041
 30
0.0
 11
6838.436243474922
 21
3367.084839419606
 31
0.0
  0
LINE
  5
177A2
330
17637
100
AcDbEntity
  8
U3
100
AcDbLine
 10
6772.259619965787
 20
3199.084839419611
 30
0.0
 11
6940.259619965788
 21
3367.084839419608
 31
0.0
  0
LINE
  5
177A3
330
17637
100
AcDbEntity
  8
U3
100
AcDbLine
 10
6838.436243474922
 20
3265.261462928744
 30
0.0
 11
6904.612866984059
 21
3199.084839419608
 31
0.0
  0
LINE
  5
177A4
330
17637
100
AcDbEntity
  8
U3
100
AcDbLine
 10
7108.259619965787
 20
3199.084839419612
 30
0.0
 11
7205.251603648955
 21
3296.076823102775
 31
0.0
  0
LINE
  5
177A5
330
17637
100
AcDbEntity
  8
U3
100
AcDbLine
 10
7006.436243474921
 20
3300.908215910474
 30
0.0
 11
7072.612866984056
 21
3367.084839419608
 31
0.0
  0
LINE
  5
177A6
330
17637
100
AcDbEntity
  8
U3
100
AcDbLine
 10
7057.347931720354
 20
3249.996527665043
 30
0.0
 11
7174.436243474926
 21
3367.084839419608
 31
0.0
  0
LINE
  5
177A7
330
17637
100
AcDbEntity
  8
HIKIDASHI
100
AcDbLine
 10
9878.379441167076
 20
3910.885411556199
 30
0.0
 11
9509.613064339452
 21
3910.885411556199
 31
0.0
  0
TEXT
  5
177A8
330
17637
100
AcDbEntity
  8
HIKIDASHI
100
AcDbText
 10
9542.680671931362
 20
3955.885411556198
 30
0.0
 40
90.0
  1
土　間
  7
01
 72
     2
 11
9836.680671931363
 21
4000.885411556199
 31
0.0
100
AcDbText
 73
     2
  0
TEXT
  5
177A9
330
17637
100
AcDbEntity
  8
SUNPOU
100
AcDbText
 10
9630.347005464871
 20
3582.084839419608
 30
0.0
 40
90.0
  1
F.L
 41
0.6666666666666666
  7
00
 72
     4
 11
9698.918434036301
 21
3627.084839419608
 31
0.0
100
AcDbText
  0
LINE
  5
177AA
330
17637
100
AcDbEntity
  8
SUNPOU
100
AcDbLine
 10
9698.918434036301
 20
3447.084839419608
 30
0.0
 11
9750.879958263364
 21
3537.084839419608
 31
0.0
  0
LINE
  5
177AB
330
17637
100
AcDbEntity
  8
SUNPOU
100
AcDbLine
 10
9646.956909809233
 20
3537.084839419608
 30
0.0
 11
9698.918434036301
 21
3447.084839419608
 31
0.0
  0
LINE
  5
177AC
330
17637
100
AcDbEntity
  8
SUNPOU
100
AcDbLine
 10
9750.879958263364
 20
3537.084839419608
 30
0.0
 11
9646.956909809233
 21
3537.084839419608
 31
0.0
  0
TEXT
  5
177AD
330
17637
100
AcDbEntity
  8
HIKIDASHI
100
AcDbText
 10
7243.186205969853
 20
1814.878869270352
 30
0.0
 40
89.55223880597014
  1
x
 41
0.6700000000000001
  7
00
100
AcDbText
  0
TEXT
  5
177AE
330
17637
100
AcDbEntity
  8
HIKIDASHI
100
AcDbText
 10
7171.351268779479
 20
1803.088394027939
 30
0.0
 40
67.16417910447761
  1
2
 41
0.6700000000000001
  7
00
100
AcDbText
  0
TEXT
  5
177AF
330
17637
100
AcDbEntity
  8
HIKIDASHI
100
AcDbText
 10
7083.459232220558
 20
1830.1144490585
 30
0.0
 40
67.16417910447761
  1
1
 41
0.6700000000000001
  7
00
100
AcDbText
  0
TEXT
  5
177B0
330
17637
100
AcDbEntity
  8
HIKIDASHI
100
AcDbText
 10
7008.858421537334
 20
1803.684839419606
 30
0.0
 40
89.55223880597014
  1
W ／
 41
0.6700000000000001
  7
00
100
AcDbText
  0
TEXT
  5
177B1
330
17637
100
AcDbEntity
  8
HIKIDASHI
100
AcDbText
 10
7324.321585122987
 20
1803.475853219515
 30
0.0
 40
89.55223880597014
  1
300
 41
0.6700000000000001
  7
00
100
AcDbText
  0
TEXT
  5
177B2
330
17637
100
AcDbEntity
  8
HIKIDASHI
100
AcDbText
 10
7008.858421537334
 20
1983.684839419604
 30
0.0
 40
90.0
  1
アンカーボルト
  7
01
100
AcDbText
  0
LINE
  5
177B3
330
17637
100
AcDbEntity
  8
HIKIDASHI
100
AcDbLine
 10
6979.778812675625
 20
1938.684839419604
 30
0.0
 11
7799.784826072478
 21
1938.684839419604
 31
0.0
  0
TEXT
  5
177B4
330
17637
100
AcDbEntity
  8
HIKIDASHI
100
AcDbText
 10
8494.068994355796
 20
1664.635820576939
 30
0.0
 40
90.0
  1
B  ~  B'
 41
0.6700000000000001
  7
00
100
AcDbText
  0
LINE
  5
177B5
330
17637
100
AcDbEntity
  8
HIKIDASHI
100
AcDbLine
 10
8464.068994355796
 20
1589.635820576939
 30
0.0
 11
9159.696347591363
 21
1589.635820576939
 31
0.0
  0
LINE
  5
177B6
330
17637
100
AcDbEntity
  8
HIKIDASHI
100
AcDbLine
 10
8464.068994355796
 20
1619.635820576939
 30
0.0
 11
9159.696347591363
 21
1619.635820576939
 31
0.0
  0
TEXT
  5
177B7
330
17637
100
AcDbEntity
  8
HIKIDASHI
100
AcDbText
 10
8888.086273852357
 20
1664.635820576939
 30
0.0
 40
90.0
  1
断 面
  7
01
100
AcDbText
  0
LINE
  5
177B8
330
17637
100
AcDbEntity
  8
1PL-S1
100
AcDbLine
 10
11225.33837406209
 20
2700.144344053149
 30
0.0
 11
11857.33837406209
 21
2700.144344053149
 31
0.0
  0
LINE
  5
177B9
330
17637
100
AcDbEntity
  8
U1
100
AcDbLine
 10
11391.3383740621
 20
3642.337036584561
 30
0.0
 11
11391.3383740621
 21
4026.401575763828
 31
0.0
  0
LINE
  5
177BA
330
17637
100
AcDbEntity
  8
U1
100
AcDbLine
 10
11691.33837406209
 20
3642.337036584561
 30
0.0
 11
11691.33837406209
 21
4026.401575763828
 31
0.0
  0
LINE
  5
177BB
330
17637
100
AcDbEntity
  8
1PL-S1
100
AcDbLine
 10
11541.33837406209
 20
3578.337036584561
 30
0.0
 11
11541.33837406209
 21
4066.401575763828
 31
0.0
  0
CIRCLE
  5
177BC
330
17637
100
AcDbEntity
  8
U1
100
AcDbCircle
 10
11541.33837406209
 20
3886.33703658456
 30
0.0
 40
24.0
  0
LINE
  5
177BD
330
17637
100
AcDbEntity
  8
1PL-S1
100
AcDbLine
 10
11301.33837406209
 20
2624.144344053149
 30
0.0
 11
11301.33837406209
 21
2776.144344053149
 31
0.0
  0
LINE
  5
177BE
330
17637
100
AcDbEntity
  8
1PL-S1
100
AcDbLine
 10
11781.33837406209
 20
2624.144344053149
 30
0.0
 11
11781.33837406209
 21
2776.144344053149
 31
0.0
  0
LINE
  5
177BF
330
17637
100
AcDbEntity
  8
1PL-S1
100
AcDbLine
 10
11541.33837406209
 20
2500.144344053149
 30
0.0
 11
11541.33837406209
 21
2900.144344053149
 31
0.0
  0
CIRCLE
  5
177C0
330
17637
100
AcDbEntity
  8
U1
100
AcDbCircle
 10
11301.33837406209
 20
2700.144344053149
 30
0.0
 40
36.0
  0
LINE
  5
177C1
330
17637
100
AcDbEntity
  8
U1
100
AcDbLine
 10
11691.33837406209
 20
2700.144344053149
 30
0.0
 11
11612.31129530375
 21
2700.144344053149
 31
0.0
  0
CIRCLE
  5
177C2
330
17637
100
AcDbEntity
  8
U1
100
AcDbCircle
 10
11781.33837406209
 20
2700.144344053149
 30
0.0
 40
36.0
  0
LINE
  5
177C3
330
17637
100
AcDbEntity
  8
1PL-S1
100
AcDbLine
 10
11477.33837406209
 20
3726.33703658456
 30
0.0
 11
11605.33837406209
 21
3726.33703658456
 31
0.0
  0
LINE
  5
177C4
330
17637
100
AcDbEntity
  8
1PL-S1
100
AcDbLine
 10
11301.33837406211
 20
3578.337036584561
 30
0.0
 11
11301.33837406209
 21
3682.337036584561
 31
0.0
  0
LINE
  5
177C5
330
17637
100
AcDbEntity
  8
1PL-S1
100
AcDbLine
 10
11781.33837406209
 20
3578.337036584561
 30
0.0
 11
11781.33837406209
 21
3682.337036584561
 31
0.0
  0
CIRCLE
  5
177C6
330
17637
100
AcDbEntity
  8
U1
100
AcDbCircle
 10
11541.33837406209
 20
3726.33703658456
 30
0.0
 40
24.0
  0
LINE
  5
177C7
330
17637
100
AcDbEntity
  8
1PL-S1
100
AcDbLine
 10
11477.33837406209
 20
3886.33703658456
 30
0.0
 11
11605.33837406209
 21
3886.33703658456
 31
0.0
  0
TEXT
  5
177C8
330
17637
100
AcDbEntity
  8
SUNPOU
100
AcDbText
 10
10750.05141017947
 20
1674.586261835072
 30
0.0
 40
120.0
  1
柱脚金具詳細図
  7
01
 72
     4
 11
11234.05141017947
 21
1734.586261835072
 31
0.0
100
AcDbText
  0
TEXT
  5
177C9
330
17637
100
AcDbEntity
  8
SUNPOU
100
AcDbText
 10
12146.16023934792
 20
1672.124723373534
 30
0.0
 40
73.84615384615384
  1
/
 41
0.6700000000000001
  7
00
 11
12146.16023934792
 21
1662.27856952738
 31
0.0
100
AcDbText
 73
     1
  0
TEXT
  5
177CA
330
17637
100
AcDbEntity
  8
SUNPOU
100
AcDbText
 10
12210.1096823023
 20
1653.663184911995
 30
0.0
 40
73.84615384615384
  1
10
 41
0.6700000000000001
  7
00
 11
12210.1096823023
 21
1643.817031065841
 31
0.0
100
AcDbText
 73
     1
  0
TEXT
  5
177CB
330
17637
100
AcDbEntity
  8
SUNPOU
100
AcDbText
 10
12097.75411203255
 20
1690.586261835072
 30
0.0
 40
73.84615384615384
  1
1
 41
0.6700000000000001
  7
00
 11
12097.75411203255
 21
1680.740107988918
 31
0.0
100
AcDbText
 73
     1
  0
TEXT
  5
177CC
330
17637
100
AcDbEntity
  8
SUNPOU
100
AcDbText
 10
11778.05141017947
 20
1674.586261835072
 30
0.0
 40
92.30769230769228
  1
（ S = 　　  ）
 41
0.6700000000000001
  7
00
 11
11778.05141017947
 21
1662.27856952738
 31
0.0
100
AcDbText
 73
     1
  0
LINE
  5
177CD
330
17637
100
AcDbEntity
  8
HIKIDASHI
100
AcDbLine
 10
12073.23363223807
 20
3067.661600164834
 30
0.0
 11
12657.27442780204
 21
3067.661600164834
 31
0.0
  0
TEXT
  5
177CE
330
17637
100
AcDbEntity
  8
HIKIDASHI
100
AcDbText
 10
12092.52363003481
 20
3112.661600164834
 30
0.0
 40
90.0
  1
プレ－ト
  7
01
 72
     2
 11
12482.5236300348
 21
3112.661600164834
 31
0.0
100
AcDbText
  0
TEXT
  5
177CF
330
17637
100
AcDbEntity
  8
HIKIDASHI
100
AcDbText
 10
12520.97881071722
 20
3112.661600164834
 30
0.0
 40
90.0
  1
6
 41
0.6666666666666666
  7
00
 72
     2
 11
12569.55023928865
 21
3112.661600164834
 31
0.0
100
AcDbText
  0
TEXT
  5
177D0
330
17637
100
AcDbEntity
  8
HIKIDASHI
100
AcDbText
 10
12606.97646118922
 20
3126.647348600799
 30
0.0
 40
89.99999909999997
  1
t
 41
0.6700000000000001
  7
00
100
AcDbText
  0
LINE
  5
177D1
330
17637
100
AcDbEntity
  8
KISO
100
AcDbLine
 10
4239.797051267464
 20
3447.084839419609
 30
0.0
 11
4239.797051267464
 21
2679.0848394196
 31
0.0
  0
LINE
  5
177D2
330
17637
100
AcDbEntity
  8
KISO
100
AcDbLine
 10
7691.882670973587
 20
3191.084839419599
 30
0.0
 11
7691.882670973587
 21
3447.084839419609
 31
0.0
  0
LINE
  5
177D3
330
17637
100
AcDbEntity
  8
KISO
100
AcDbLine
 10
9371.882670973581
 20
3191.0848394196
 30
0.0
 11
10014.27939371289
 21
3191.084839419601
 31
0.0
  0
LINE
  5
177D4
330
17637
100
AcDbEntity
  8
HATCH
100
AcDbLine
 10
8739.189013992278
 20
2519.084839419599
 30
0.0
 11
8831.565056658945
 21
2679.084839419599
 31
0.0
  0
LINE
  5
177D5
330
17637
100
AcDbEntity
  8
HATCH
100
AcDbLine
 10
8778.231723325612
 20
2679.084839419599
 30
0.0
 11
8804.898389992279
 21
2632.896816752936
 31
0.0
  0
LINE
  5
177D6
330
17637
100
AcDbEntity
  8
HATCH
100
AcDbLine
 10
8765.855680658946
 20
2565.272860752929
 30
0.0
 11
8792.522347325613
 21
2519.084839419599
 31
0.0
  0
LINE
  5
177D7
330
17637
100
AcDbEntity
  8
HATCH
100
AcDbLine
 10
8565.855680658946
 20
2565.272860752929
 30
0.0
 11
8592.522347325612
 21
2519.084839419599
 31
0.0
  0
LINE
  5
177D8
330
17637
100
AcDbEntity
  8
HATCH
100
AcDbLine
 10
8578.231723325613
 20
2679.084839419599
 30
0.0
 11
8604.898389992278
 21
2632.896816752936
 31
0.0
  0
LINE
  5
177D9
330
17637
100
AcDbEntity
  8
HATCH
100
AcDbLine
 10
8365.855680658945
 20
2565.272860752929
 30
0.0
 11
8392.522347325613
 21
2519.084839419599
 31
0.0
  0
LINE
  5
177DA
330
17637
100
AcDbEntity
  8
HATCH
100
AcDbLine
 10
8339.189013992278
 20
2519.084839419599
 30
0.0
 11
8431.565056658945
 21
2679.084839419599
 31
0.0
  0
LINE
  5
177DB
330
17637
100
AcDbEntity
  8
HATCH
100
AcDbLine
 10
8378.231723325612
 20
2679.084839419599
 30
0.0
 11
8404.898389992279
 21
2632.896816752936
 31
0.0
  0
LINE
  5
177DC
330
17637
100
AcDbEntity
  8
HATCH
100
AcDbLine
 10
8165.855680658948
 20
2565.272860752929
 30
0.0
 11
8192.522347325612
 21
2519.084839419599
 31
0.0
  0
LINE
  5
177DD
330
17637
100
AcDbEntity
  8
HATCH
100
AcDbLine
 10
8178.231723325612
 20
2679.084839419599
 30
0.0
 11
8204.898389992278
 21
2632.896816752936
 31
0.0
  0
LINE
  5
177DE
330
17637
100
AcDbEntity
  8
HATCH
100
AcDbLine
 10
8139.189013992281
 20
2519.084839419599
 30
0.0
 11
8231.565056658945
 21
2679.084839419599
 31
0.0
  0
LINE
  5
177DF
330
17637
100
AcDbEntity
  8
HATCH
100
AcDbLine
 10
8539.189013992277
 20
2519.084839419599
 30
0.0
 11
8631.565056658947
 21
2679.084839419599
 31
0.0
  0
LINE
  5
177E0
330
17637
100
AcDbEntity
  8
HATCH
100
AcDbLine
 10
8978.231723325611
 20
2679.084839419599
 30
0.0
 11
9004.898389992279
 21
2632.896816752936
 31
0.0
  0
LINE
  5
177E1
330
17637
100
AcDbEntity
  8
HATCH
100
AcDbLine
 10
8939.189013992278
 20
2519.084839419599
 30
0.0
 11
9031.565056658946
 21
2679.084839419599
 31
0.0
  0
LINE
  5
177E2
330
17637
100
AcDbEntity
  8
HATCH
100
AcDbLine
 10
8965.855680658945
 20
2565.272860752929
 30
0.0
 11
8992.522347325612
 21
2519.084839419599
 31
0.0
  0
LINE
  5
177E3
330
17637
100
AcDbEntity
  8
HATCH
100
AcDbLine
 10
9139.189013992282
 20
2519.084839419599
 30
0.0
 11
9231.565056658945
 21
2679.084839419599
 31
0.0
  0
LINE
  5
177E4
330
17637
100
AcDbEntity
  8
HATCH
100
AcDbLine
 10
9178.231723325611
 20
2679.084839419599
 30
0.0
 11
9204.898389992278
 21
2632.896816752936
 31
0.0
  0
LINE
  5
177E5
330
17637
100
AcDbEntity
  8
HATCH
100
AcDbLine
 10
9165.855680658948
 20
2565.272860752929
 30
0.0
 11
9192.522347325612
 21
2519.084839419599
 31
0.0
  0
LINE
  5
177E6
330
17637
100
AcDbEntity
  8
U3
100
AcDbLine
 10
7174.436243474922
 20
3265.261462928747
 30
0.0
 11
7205.251603648955
 21
3234.446102754716
 31
0.0
  0
LINE
  5
177E7
330
17637
100
AcDbEntity
  8
U3
100
AcDbLine
 10
7521.013148236701
 20
3275.838367690525
 30
0.0
 11
7612.259619965787
 21
3367.08483941961
 31
0.0
  0
LINE
  5
177E8
330
17637
100
AcDbEntity
  8
U3
100
AcDbLine
 10
7561.347931720354
 20
3316.17315117418
 30
0.0
 11
7678.436243474923
 21
3199.084839419611
 31
0.0
  0
LINE
  5
177E9
330
17637
100
AcDbEntity
  8
U3
100
AcDbLine
 10
7521.013148236701
 20
3254.68455816697
 30
0.0
 11
7576.61286698406
 21
3199.084839419611
 31
0.0
  0
LINE
  5
177EA
330
17637
100
AcDbEntity
  8
U3
100
AcDbLine
 10
7612.259619965787
 20
3367.08483941961
 30
0.0
 11
7691.882670973587
 21
3287.46178841181
 31
0.0
  0
LINE
  5
177EB
330
17637
100
AcDbEntity
  8
U3
100
AcDbLine
 10
7205.251603648955
 20
3367.084839419608
 30
0.0
 11
6604.259619965787
 21
3367.084839419608
 31
0.0
  0
LINE
  5
177EC
330
17637
100
AcDbEntity
  8
HATCH
100
AcDbLine
 10
8073.641131165022
 20
3447.084839419609
 30
0.0
 11
7945.641131165015
 21
3319.084839419603
 31
0.0
  0
LINE
  5
177ED
330
17637
100
AcDbEntity
  8
HATCH
100
AcDbLine
 10
8168.676282556489
 20
3447.084839419609
 30
0.0
 11
8040.676282556482
 21
3319.084839419601
 31
0.0
  0
LINE
  5
177EE
330
17637
100
AcDbEntity
  8
HATCH
100
AcDbLine
 10
8121.158706860761
 20
3447.084839419609
 30
0.0
 11
7993.15870686075
 21
3319.084839419603
 31
0.0
  0
LINE
  5
177EF
330
17637
100
AcDbEntity
  8
HATCH
100
AcDbLine
 10
5327.103394286158
 20
2519.084839419599
 30
0.0
 11
5419.479436952823
 21
2679.084839419599
 31
0.0
  0
LINE
  5
177F0
330
17637
100
AcDbEntity
  8
HATCH
100
AcDbLine
 10
5366.146103619488
 20
2679.084839419599
 30
0.0
 11
5392.812770286154
 21
2632.896816752936
 31
0.0
  0
LINE
  5
177F1
330
17637
100
AcDbEntity
  8
HATCH
100
AcDbLine
 10
5353.770060952824
 20
2565.272860752929
 30
0.0
 11
5380.43672761949
 21
2519.084839419599
 31
0.0
  0
LINE
  5
177F2
330
17637
100
AcDbEntity
  8
HATCH
100
AcDbLine
 10
9339.189013992282
 20
2519.084839419599
 30
0.0
 11
9431.565056658945
 21
2679.084839419599
 31
0.0
  0
LINE
  5
177F3
330
17637
100
AcDbEntity
  8
HATCH
100
AcDbLine
 10
9378.23172332561
 20
2679.084839419599
 30
0.0
 11
9404.898389992279
 21
2632.896816752936
 31
0.0
  0
LINE
  5
177F4
330
17637
100
AcDbEntity
  8
HATCH
100
AcDbLine
 10
9365.855680658947
 20
2565.272860752929
 30
0.0
 11
9392.522347325613
 21
2519.084839419599
 31
0.0
  0
LINE
  5
177F5
330
17637
100
AcDbEntity
  8
HATCH
100
AcDbLine
 10
8003.954148031438
 20
3191.084839418953
 30
0.0
 11
8077.854982487707
 21
3319.084839418946
 31
0.0
  0
LINE
  5
177F6
330
17637
100
AcDbEntity
  8
HATCH
100
AcDbLine
 10
8039.454982487709
 20
3319.084839418944
 30
0.0
 11
8058.654982487707
 21
3285.829463913627
 31
0.0
  0
LINE
  5
177F7
330
17637
100
AcDbEntity
  8
HATCH
100
AcDbLine
 10
7715.954148031439
 20
3191.084839418953
 30
0.0
 11
7789.854982487709
 21
3319.084839418946
 31
0.0
  0
LINE
  5
177F8
330
17637
100
AcDbEntity
  8
HATCH
100
AcDbLine
 10
7751.454982487709
 20
3319.084839418944
 30
0.0
 11
7770.654982487709
 21
3285.829463913627
 31
0.0
  0
LINE
  5
177F9
330
17637
100
AcDbEntity
  8
HATCH
100
AcDbLine
 10
7859.954148031438
 20
3191.084839418953
 30
0.0
 11
7933.854982487709
 21
3319.084839418946
 31
0.0
  0
LINE
  5
177FA
330
17637
100
AcDbEntity
  8
HATCH
100
AcDbLine
 10
7895.454982487709
 20
3319.084839418944
 30
0.0
 11
7914.654982487708
 21
3285.829463913627
 31
0.0
  0
LINE
  5
177FB
330
17637
100
AcDbEntity
  8
HATCH
100
AcDbLine
 10
8147.954148031438
 20
3191.084839418953
 30
0.0
 11
8221.854982487709
 21
3319.084839418946
 31
0.0
  0
LINE
  5
177FC
330
17637
100
AcDbEntity
  8
HATCH
100
AcDbLine
 10
8183.45498248771
 20
3319.084839418944
 30
0.0
 11
8202.654982487707
 21
3285.829463913627
 31
0.0
  0
LINE
  5
177FD
330
17637
100
AcDbEntity
  8
HATCH
100
AcDbLine
 10
8003.954148033356
 20
3191.084839419572
 30
0.0
 11
8077.854982489645
 21
3319.084839419601
 31
0.0
  0
LINE
  5
177FE
330
17637
100
AcDbEntity
  8
HATCH
100
AcDbLine
 10
8039.454982489635
 20
3319.084839419598
 30
0.0
 11
8058.65498248964
 21
3285.829463914271
 31
0.0
  0
LINE
  5
177FF
330
17637
100
AcDbEntity
  8
HATCH
100
AcDbLine
 10
8147.954148033354
 20
3191.084839419572
 30
0.0
 11
8221.854982489645
 21
3319.084839419601
 31
0.0
  0
LINE
  5
17800
330
17637
100
AcDbEntity
  8
HATCH
100
AcDbLine
 10
8183.454982489635
 20
3319.084839419598
 30
0.0
 11
8202.654982489638
 21
3285.829463914271
 31
0.0
  0
LINE
  5
17801
330
17637
100
AcDbEntity
  8
HATCH
100
AcDbLine
 10
7859.954148033357
 20
3191.084839419572
 30
0.0
 11
7933.854982489646
 21
3319.084839419601
 31
0.0
  0
LINE
  5
17802
330
17637
100
AcDbEntity
  8
HATCH
100
AcDbLine
 10
7895.454982489638
 20
3319.084839419598
 30
0.0
 11
7914.654982489641
 21
3285.829463914271
 31
0.0
  0
LINE
  5
17803
330
17637
100
AcDbEntity
  8
HATCH
100
AcDbLine
 10
7715.954148033357
 20
3191.084839419572
 30
0.0
 11
7789.854982489645
 21
3319.084839419601
 31
0.0
  0
LINE
  5
17804
330
17637
100
AcDbEntity
  8
HATCH
100
AcDbLine
 10
7751.454982489635
 20
3319.084839419598
 30
0.0
 11
7770.654982489642
 21
3285.829463914271
 31
0.0
  0
LINE
  5
17805
330
17637
100
AcDbEntity
  8
SUNPOU
100
AcDbLine
 10
7651.882670973588
 20
3319.084839419604
 30
0.0
 11
7421.741617209526
 21
3319.084839419604
 31
0.0
  0
LINE
  5
17806
330
17637
100
AcDbEntity
  8
SUNPOU
100
AcDbLine
 10
7651.882670973588
 20
3191.084839419599
 30
0.0
 11
7421.741617209526
 21
3191.084839419599
 31
0.0
  0
LINE
  5
17807
330
17637
100
AcDbEntity
  8
SUNPOU
100
AcDbLine
 10
7466.741617209527
 20
3339.084839419603
 30
0.0
 11
7466.741617209527
 21
3359.084839419603
 31
0.0
  0
LINE
  5
17808
330
17637
100
AcDbEntity
  8
SUNPOU
100
AcDbLine
 10
7466.741617209527
 20
3171.084839419599
 30
0.0
 11
7466.741617209527
 21
3151.084839419599
 31
0.0
  0
LINE
  5
17809
330
17637
100
AcDbEntity
  8
SUNPOU
100
AcDbLine
 10
7466.741617209527
 20
3319.084839419604
 30
0.0
 11
7466.741617209527
 21
3191.084839419599
 31
0.0
  0
LINE
  5
1780A
330
17637
100
AcDbEntity
  8
SUNPOU
100
AcDbLine
 10
7651.882670973588
 20
3319.084839419604
 30
0.0
 11
7421.741617209526
 21
3319.084839419604
 31
0.0
  0
LINE
  5
1780B
330
17637
100
AcDbEntity
  8
SUNPOU
100
AcDbLine
 10
7651.882670973588
 20
3447.084839419609
 30
0.0
 11
7421.741617209526
 21
3447.084839419609
 31
0.0
  0
LINE
  5
1780C
330
17637
100
AcDbEntity
  8
SUNPOU
100
AcDbLine
 10
7466.741617209526
 20
3299.084839419603
 30
0.0
 11
7466.741617209526
 21
3279.084839419604
 31
0.0
  0
LINE
  5
1780D
330
17637
100
AcDbEntity
  8
SUNPOU
100
AcDbLine
 10
7466.741617209526
 20
3467.084839419608
 30
0.0
 11
7466.741617209526
 21
3674.227696562466
 31
0.0
  0
LINE
  5
1780E
330
17637
100
AcDbEntity
  8
SUNPOU
100
AcDbLine
 10
7466.741617209526
 20
3319.084839419604
 30
0.0
 11
7466.741617209526
 21
3447.084839419609
 31
0.0
  0
LINE
  5
1780F
330
17637
100
AcDbEntity
  8
SUNPOU
100
AcDbLine
 10
8051.882670973588
 20
2679.084839419599
 30
0.0
 11
7421.741617209526
 21
2679.084839419599
 31
0.0
  0
LINE
  5
17810
330
17637
100
AcDbEntity
  8
SUNPOU
100
AcDbLine
 10
7651.882670973588
 20
3191.084839419599
 30
0.0
 11
7421.741617209526
 21
3191.084839419599
 31
0.0
  0
LINE
  5
17811
330
17637
100
AcDbEntity
  8
SUNPOU
100
AcDbLine
 10
7466.741617209526
 20
2699.0848394196
 30
0.0
 11
7466.741617209526
 21
3171.084839419599
 31
0.0
  0
LINE
  5
17812
330
17637
100
AcDbEntity
  8
SUNPOU
100
AcDbLine
 10
8051.882670973588
 20
2679.084839419599
 30
0.0
 11
7421.741617209526
 21
2679.084839419599
 31
0.0
  0
LINE
  5
17813
330
17637
100
AcDbEntity
  8
SUNPOU
100
AcDbLine
 10
4199.797051267464
 20
3319.084839419601
 30
0.0
 11
3915.443655266705
 21
3319.084839419601
 31
0.0
  0
LINE
  5
17814
330
17637
100
AcDbEntity
  8
SUNPOU
100
AcDbLine
 10
4199.797051267464
 20
3191.084839419597
 30
0.0
 11
3915.443655266705
 21
3191.084839419597
 31
0.0
  0
LINE
  5
17815
330
17637
100
AcDbEntity
  8
SUNPOU
100
AcDbLine
 10
3960.443655266705
 20
3339.0848394196
 30
0.0
 11
3960.443655266705
 21
3359.0848394196
 31
0.0
  0
LINE
  5
17816
330
17637
100
AcDbEntity
  8
SUNPOU
100
AcDbLine
 10
3960.443655266705
 20
3171.084839419596
 30
0.0
 11
3960.443655266705
 21
3151.084839419596
 31
0.0
  0
LINE
  5
17817
330
17637
100
AcDbEntity
  8
SUNPOU
100
AcDbLine
 10
3960.443655266705
 20
3319.084839419601
 30
0.0
 11
3960.443655266705
 21
3191.084839419597
 31
0.0
  0
LINE
  5
17818
330
17637
100
AcDbEntity
  8
SUNPOU
100
AcDbLine
 10
4199.797051267464
 20
3319.084839419601
 30
0.0
 11
3915.443655266705
 21
3319.084839419601
 31
0.0
  0
LINE
  5
17819
330
17637
100
AcDbEntity
  8
SUNPOU
100
AcDbLine
 10
4199.797051267464
 20
3447.084839419609
 30
0.0
 11
3915.443655266705
 21
3447.084839419609
 31
0.0
  0
LINE
  5
1781A
330
17637
100
AcDbEntity
  8
SUNPOU
100
AcDbLine
 10
3960.443655266704
 20
3299.0848394196
 30
0.0
 11
3960.443655266704
 21
3279.084839419601
 31
0.0
  0
LINE
  5
1781B
330
17637
100
AcDbEntity
  8
SUNPOU
100
AcDbLine
 10
3960.443655266704
 20
3467.084839419608
 30
0.0
 11
3960.443655266704
 21
3674.227696562466
 31
0.0
  0
LINE
  5
1781C
330
17637
100
AcDbEntity
  8
SUNPOU
100
AcDbLine
 10
3960.443655266704
 20
3319.084839419601
 30
0.0
 11
3960.443655266704
 21
3447.084839419609
 31
0.0
  0
LINE
  5
1781D
330
17637
100
AcDbEntity
  8
SUNPOU
100
AcDbLine
 10
4039.797051267462
 20
2679.0848394196
 30
0.0
 11
3915.443655266705
 21
2679.0848394196
 31
0.0
  0
LINE
  5
1781E
330
17637
100
AcDbEntity
  8
SUNPOU
100
AcDbLine
 10
4199.797051267464
 20
3191.084839419597
 30
0.0
 11
3915.443655266705
 21
3191.084839419597
 31
0.0
  0
LINE
  5
1781F
330
17637
100
AcDbEntity
  8
SUNPOU
100
AcDbLine
 10
3960.443655266704
 20
2699.0848394196
 30
0.0
 11
3960.443655266704
 21
3171.084839419596
 31
0.0
  0
LINE
  5
17820
330
17637
100
AcDbEntity
  8
SUNPOU
100
AcDbLine
 10
4039.797051267462
 20
2679.0848394196
 30
0.0
 11
3915.443655266705
 21
2679.0848394196
 31
0.0
  0
TEXT
  5
17821
330
17637
100
AcDbEntity
  8
SUNPOU
100
AcDbText
 10
7988.403867350432
 20
6135.720264244633
 30
0.0
 40
90.0
  1
L=2400 ×N+700
 41
0.6666666666666666
  7
00
100
AcDbText
  0
TEXT
  5
17822
330
17637
100
AcDbEntity
  8
HIKIDASHI
100
AcDbText
 10
12286.64239875644
 20
2290.804976716086
 30
0.0
 40
90.0
  1
2
 41
0.6666666666666666
  7
00
100
AcDbText
  0
TEXT
  5
17823
330
17637
100
AcDbEntity
  8
HIKIDASHI
100
AcDbText
 10
12365.21382732787
 20
2305.804976716085
 30
0.0
 40
90.0
  1
ｹ
  7
01
100
AcDbText
  0
TEXT
  5
17824
330
17637
100
AcDbEntity
  8
HIKIDASHI
100
AcDbText
 10
12446.21382732787
 20
2290.804976716086
 30
0.0
 40
90.0
  1
-
 41
0.6666666666666666
  7
00
100
AcDbText
  0
TEXT
  5
17825
330
17637
100
AcDbEntity
  8
HIKIDASHI
100
AcDbText
 10
12554.07097018501
 20
2290.804976716086
 30
0.0
 40
90.0
  1
18
 41
0.6666666666666666
  7
00
100
AcDbText
  0
TEXT
  5
17826
330
17637
100
AcDbEntity
  8
HIKIDASHI
100
AcDbText
 10
12689.78525589929
 20
2305.804976716085
 30
0.0
 40
90.0
  1
%%c
 41
0.6666666666666666
  7
00
100
AcDbText
  0
TEXT
  5
17827
330
17637
100
AcDbEntity
  8
HIKIDASHI
100
AcDbText
 10
12765.49954161357
 20
2290.804976716086
 30
0.0
 40
90.0
  1
孔
  7
01
100
AcDbText
  0
LINE
  5
17828
330
17637
100
AcDbEntity
  8
HIKIDASHI
100
AcDbLine
 10
12256.64239875644
 20
2245.804976716085
 30
0.0
 11
12879.49954161357
 21
2245.804976716085
 31
0.0
  0
TEXT
  5
17829
330
17637
100
AcDbEntity
  8
HIKIDASHI
100
AcDbText
 10
5494.130474104128
 20
6560.372337188868
 30
0.0
 40
90.0
  1
（土間コン前面位置）
  7
01
100
AcDbText
  0
TEXT
  5
1782A
330
17637
100
AcDbEntity
  8
HIKIDASHI
100
AcDbText
 10
5656.130474104131
 20
6766.804304422805
 30
0.0
 40
90.0
  1
（鼻隠し外面）
  7
01
100
AcDbText
  0
LINE
  5
1782B
330
17637
100
AcDbEntity
  8
HIKIDASHI
100
AcDbLine
 10
5702.626424666976
 20
3910.885411556197
 30
0.0
 11
5333.860047839355
 21
3910.885411556197
 31
0.0
  0
TEXT
  5
1782C
330
17637
100
AcDbEntity
  8
HIKIDASHI
100
AcDbText
 10
5366.927655431265
 20
3955.885411556196
 30
0.0
 40
90.0
  1
土　間
  7
01
 72
     2
 11
5660.927655431265
 21
4000.885411556196
 31
0.0
100
AcDbText
 73
     2
  0
TEXT
  5
1782D
330
17637
100
AcDbEntity
  8
SUNPOU
100
AcDbText
 10
5812.607474842028
 20
2681.884705856375
 30
0.0
 40
90.0
  1
ベース筋
  7
01
 72
     4
 11
6016.607474842029
 21
2726.884705856375
 31
0.0
100
AcDbText
  0
TEXT
  5
1782E
330
17637
100
AcDbEntity
  8
SUNPOU
100
AcDbText
 10
5677.491760556315
 20
2546.884705856375
 30
0.0
 40
90.0
  1
5-D13×5-D13
 41
0.6700000000000001
  7
01
 72
     4
 11
6020.914617699173
 21
2591.884705856375
 31
0.0
100
AcDbText
  0
LINE
  5
1782F
330
17637
100
AcDbEntity
  8
WAKUSEN-01
100
AcDbLine
 10
434.0000000000008
 20
413.9999999999997
 30
0.0
 11
16382.0
 21
413.9999999999997
 31
0.0
  0
LINE
  5
17830
330
17637
100
AcDbEntity
  8
WAKUSEN-01
100
AcDbLine
 10
434.0000000000008
 20
11242.0
 30
0.0
 11
16382.0
 21
11242.0
 31
0.0
  0
LINE
  5
17831
330
17637
100
AcDbEntity
  8
WAKUSEN-01
100
AcDbLine
 10
434.0000000000008
 20
413.9999999999997
 30
0.0
 11
434.0000000000008
 21
11242.0
 31
0.0
  0
LINE
  5
17832
330
17637
100
AcDbEntity
  8
WAKUSEN-01
100
AcDbLine
 10
16382.0
 20
413.9999999999997
 30
0.0
 11
16382.0
 21
11242.0
 31
0.0
  0
LINE
  5
17833
330
17637
100
AcDbEntity
  8
WAKUSEN-01
100
AcDbLine
 10
10280.0
 20
1242.0
 30
0.0
 11
16382.0
 21
1242.0
 31
0.0
  0
LINE
  5
17834
330
17637
100
AcDbEntity
  8
WAKUSEN-02
100
AcDbLine
 10
10280.0
 20
827.9999999999997
 30
0.0
 11
13434.0
 21
827.9999999999997
 31
0.0
  0
TEXT
  5
17835
330
17637
100
AcDbEntity
  8
WAKUMOJI-01
100
AcDbText
 10
10335.13012998137
 20
1062.951504669661
 30
0.0
 40
120.0
  1
名　称
  7
WAKUMOJI
100
AcDbText
  0
TEXT
  5
17836
330
17637
100
AcDbEntity
  8
WAKUMOJI-01
100
AcDbText
 10
10328.25274254596
 20
659.5644874899107
 30
0.0
 40
120.0
  1
図面名
  7
WAKUMOJI
100
AcDbText
  0
LINE
  5
17837
330
17637
100
AcDbEntity
  8
WAKUSEN-01
100
AcDbLine
 10
10280.0
 20
413.9999999999985
 30
0.0
 11
10280.0
 21
1242.0
 31
0.0
  0
LINE
  5
17838
330
17637
100
AcDbEntity
  8
WAKUSEN-02
100
AcDbLine
 10
13434.0
 20
413.9999999999963
 30
0.0
 11
13434.0
 21
1242.0
 31
0.0
  0
LINE
  5
17839
330
17637
100
AcDbEntity
  8
YODOROGO
100
AcDbLine
 10
15674.80217064596
 20
889.8747482146442
 30
0.0
 11
15674.80217064596
 21
917.8747482146436
 31
0.0
  0
LINE
  5
1783A
330
17637
100
AcDbEntity
  8
YODOROGO
100
AcDbLine
 10
15674.80217064596
 20
917.8747482146436
 30
0.0
 11
15618.80217064596
 21
917.8747482146436
 31
0.0
  0
LINE
  5
1783B
330
17637
100
AcDbEntity
  8
YODOROGO
100
AcDbLine
 10
15618.80217064596
 20
917.8747482146436
 30
0.0
 11
15618.80217064596
 21
889.8747482146442
 31
0.0
  0
LINE
  5
1783C
330
17637
100
AcDbEntity
  8
YODOROGO
100
AcDbLine
 10
15618.80217064596
 20
889.8747482146442
 30
0.0
 11
15674.80217064596
 21
889.8747482146442
 31
0.0
  0
LINE
  5
1783D
330
17637
100
AcDbEntity
  8
YODOROGO
100
AcDbLine
 10
15794.80217064596
 20
905.8747482146443
 30
0.0
 11
15794.80217064596
 21
713.8747482146436
 31
0.0
  0
LINE
  5
1783E
330
17637
100
AcDbEntity
  8
YODOROGO
100
AcDbLine
 10
15794.80217064596
 20
713.8747482146436
 30
0.0
 11
15826.80217064596
 21
713.8747482146436
 31
0.0
  0
LINE
  5
1783F
330
17637
100
AcDbEntity
  8
YODOROGO
100
AcDbLine
 10
15826.80217064596
 20
713.8747482146436
 30
0.0
 11
15826.80217064594
 21
905.8747482146443
 31
0.0
  0
LINE
  5
17840
330
17637
100
AcDbEntity
  8
YODOROGO
100
AcDbLine
 10
15826.80217064594
 20
905.8747482146443
 30
0.0
 11
15850.80217064596
 21
905.8747482146443
 31
0.0
  0
LINE
  5
17841
330
17637
100
AcDbEntity
  8
YODOROGO
100
AcDbLine
 10
15850.80217064596
 20
905.8747482146443
 30
0.0
 11
15850.80217064596
 21
937.8747482146435
 31
0.0
  0
LINE
  5
17842
330
17637
100
AcDbEntity
  8
YODOROGO
100
AcDbLine
 10
15850.80217064596
 20
937.8747482146435
 30
0.0
 11
15766.80217064594
 21
937.8747482146435
 31
0.0
  0
LINE
  5
17843
330
17637
100
AcDbEntity
  8
YODOROGO
100
AcDbLine
 10
15766.80217064594
 20
937.8747482146435
 30
0.0
 11
15766.80217064594
 21
957.8747482146436
 31
0.0
  0
LINE
  5
17844
330
17637
100
AcDbEntity
  8
YODOROGO
100
AcDbLine
 10
15766.80217064594
 20
957.8747482146436
 30
0.0
 11
15830.80217064596
 21
957.8747482146436
 31
0.0
  0
ARC
  5
17845
330
17637
100
AcDbEntity
  8
YODOROGO
100
AcDbCircle
 10
15830.80217064596
 20
977.8747482146435
 30
0.0
 40
20.0
100
AcDbArc
 50
270.0
 51
0.0
  0
LINE
  5
17846
330
17637
100
AcDbEntity
  8
YODOROGO
100
AcDbLine
 10
15850.80217064596
 20
977.8747482146435
 30
0.0
 11
15850.80217064596
 21
1013.874748214644
 31
0.0
  0
LINE
  5
17847
330
17637
100
AcDbEntity
  8
YODOROGO
100
AcDbLine
 10
15850.80217064596
 20
1013.874748214644
 30
0.0
 11
15818.80217064596
 21
1013.874748214644
 31
0.0
  0
LINE
  5
17848
330
17637
100
AcDbEntity
  8
YODOROGO
100
AcDbLine
 10
15818.80217064596
 20
1013.874748214644
 30
0.0
 11
15818.80217064596
 21
1001.874748214643
 31
0.0
  0
ARC
  5
17849
330
17637
100
AcDbEntity
  8
YODOROGO
100
AcDbCircle
 10
15810.80217064596
 20
1001.874748214642
 30
0.0
 40
7.999999999998181
100
AcDbArc
 50
270.000000000013
 51
0.0000000000113991
  0
LINE
  5
1784A
330
17637
100
AcDbEntity
  8
YODOROGO
100
AcDbLine
 10
15810.80217064596
 20
993.8747482146439
 30
0.0
 11
15730.80217064594
 21
993.8747482146439
 31
0.0
  0
LINE
  5
1784B
330
17637
100
AcDbEntity
  8
YODOROGO
100
AcDbLine
 10
15730.80217064594
 20
993.8747482146439
 30
0.0
 11
15730.80217064594
 21
817.8747482146436
 31
0.0
  0
ARC
  5
1784C
330
17637
100
AcDbEntity
  8
YODOROGO
100
AcDbCircle
 10
15675.75903786228
 20
818.9194785088274
 30
0.0
 40
55.05304649180789
100
AcDbArc
 50
269.0041020930613
 51
358.912644554925
  0
LINE
  5
1784D
330
17637
100
AcDbEntity
  8
YODOROGO
100
AcDbLine
 10
15674.80217064596
 20
763.8747482146435
 30
0.0
 11
15674.80217064596
 21
713.8747482146436
 31
0.0
  0
ARC
  5
1784E
330
17637
100
AcDbEntity
  8
YODOROGO
100
AcDbCircle
 10
15676.95743255803
 20
803.8951756442784
 30
0.0
 40
90.04622428799427
100
AcDbArc
 50
268.6284910216973
 51
356.1663845733032
  0
LINE
  5
1784F
330
17637
100
AcDbEntity
  8
YODOROGO
100
AcDbLine
 10
15766.80217064596
 20
797.8747482146435
 30
0.0
 11
15766.80217064594
 21
905.8747482146443
 31
0.0
  0
LINE
  5
17850
330
17637
100
AcDbEntity
  8
YODOROGO
100
AcDbLine
 10
15766.80217064594
 20
905.8747482146443
 30
0.0
 11
15794.80217064596
 21
905.8747482146443
 31
0.0
  0
LINE
  5
17851
330
17637
100
AcDbEntity
  8
YODOROGO
100
AcDbLine
 10
15449.80217064596
 20
909.8747482146439
 30
0.0
 11
15449.80217064596
 21
877.8747482146435
 31
0.0
  0
LINE
  5
17852
330
17637
100
AcDbEntity
  8
YODOROGO
100
AcDbLine
 10
15449.80217064596
 20
877.8747482146435
 30
0.0
 11
15361.80217064596
 21
877.8747482146435
 31
0.0
  0
LINE
  5
17853
330
17637
100
AcDbEntity
  8
YODOROGO
100
AcDbLine
 10
15361.80217064596
 20
877.8747482146435
 30
0.0
 11
15361.80217064596
 21
909.8747482146439
 31
0.0
  0
LINE
  5
17854
330
17637
100
AcDbEntity
  8
YODOROGO
100
AcDbLine
 10
15361.80217064596
 20
909.8747482146439
 30
0.0
 11
15374.80217064596
 21
909.8747482146439
 31
0.0
  0
LINE
  5
17855
330
17637
100
AcDbEntity
  8
YODOROGO
100
AcDbLine
 10
15374.80217064596
 20
909.8747482146439
 30
0.0
 11
15361.80217064596
 21
969.8747482146441
 31
0.0
  0
LINE
  5
17856
330
17637
100
AcDbEntity
  8
YODOROGO
100
AcDbLine
 10
15361.80217064596
 20
969.8747482146441
 30
0.0
 11
15385.80217064596
 21
969.8747482146441
 31
0.0
  0
LINE
  5
17857
330
17637
100
AcDbEntity
  8
YODOROGO
100
AcDbLine
 10
15385.80217064596
 20
969.8747482146441
 30
0.0
 11
15398.80217064596
 21
909.8747482146439
 31
0.0
  0
LINE
  5
17858
330
17637
100
AcDbEntity
  8
YODOROGO
100
AcDbLine
 10
15398.80217064596
 20
909.8747482146439
 30
0.0
 11
15412.80217064596
 21
909.8747482146439
 31
0.0
  0
LINE
  5
17859
330
17637
100
AcDbEntity
  8
YODOROGO
100
AcDbLine
 10
15412.80217064596
 20
909.8747482146439
 30
0.0
 11
15425.80217064596
 21
969.8747482146441
 31
0.0
  0
LINE
  5
1785A
330
17637
100
AcDbEntity
  8
YODOROGO
100
AcDbLine
 10
15425.80217064596
 20
969.8747482146441
 30
0.0
 11
15449.80217064596
 21
969.8747482146441
 31
0.0
  0
LINE
  5
1785B
330
17637
100
AcDbEntity
  8
YODOROGO
100
AcDbLine
 10
15449.80217064596
 20
969.8747482146441
 30
0.0
 11
15436.80217064595
 21
909.8747482146439
 31
0.0
  0
LINE
  5
1785C
330
17637
100
AcDbEntity
  8
YODOROGO
100
AcDbLine
 10
15436.80217064595
 20
909.8747482146439
 30
0.0
 11
15449.80217064596
 21
909.8747482146439
 31
0.0
  0
LINE
  5
1785D
330
17637
100
AcDbEntity
  8
YODOROGO
100
AcDbLine
 10
15010.80217064596
 20
1013.874748214644
 30
0.0
 11
15010.80217064596
 21
913.8747482146435
 31
0.0
  0
LINE
  5
1785E
330
17637
100
AcDbEntity
  8
YODOROGO
100
AcDbLine
 10
15010.80217064596
 20
913.8747482146435
 30
0.0
 11
15040.80217064596
 21
913.8747482146435
 31
0.0
  0
LINE
  5
1785F
330
17637
100
AcDbEntity
  8
YODOROGO
100
AcDbLine
 10
15040.80217064596
 20
913.8747482146435
 30
0.0
 11
15040.80217064596
 21
1013.874748214644
 31
0.0
  0
LINE
  5
17860
330
17637
100
AcDbEntity
  8
YODOROGO
100
AcDbLine
 10
15040.80217064596
 20
1013.874748214644
 30
0.0
 11
15010.80217064596
 21
1013.874748214644
 31
0.0
  0
LINE
  5
17861
330
17637
100
AcDbEntity
  8
YODOROGO
100
AcDbLine
 10
15108.80217064596
 20
1013.874748214644
 30
0.0
 11
15108.80217064596
 21
893.8747482146439
 31
0.0
  0
ARC
  5
17862
330
17637
100
AcDbEntity
  8
YODOROGO
100
AcDbCircle
 10
15068.80217064596
 20
893.8747482146439
 30
0.0
 40
40.0
100
AcDbArc
 50
270.0
 51
0.0
  0
LINE
  5
17863
330
17637
100
AcDbEntity
  8
YODOROGO
100
AcDbLine
 10
15068.80217064596
 20
853.874748214644
 30
0.0
 11
15010.80217064596
 21
853.874748214644
 31
0.0
  0
LINE
  5
17864
330
17637
100
AcDbEntity
  8
YODOROGO
100
AcDbLine
 10
15010.80217064596
 20
853.874748214644
 30
0.0
 11
15010.80217064596
 21
885.8747482146441
 31
0.0
  0
LINE
  5
17865
330
17637
100
AcDbEntity
  8
YODOROGO
100
AcDbLine
 10
15010.80217064596
 20
885.8747482146441
 30
0.0
 11
15060.80217064596
 21
885.8747482146441
 31
0.0
  0
ARC
  5
17866
330
17637
100
AcDbEntity
  8
YODOROGO
100
AcDbCircle
 10
15060.80217064596
 20
905.8747482146443
 30
0.0
 40
20.0
100
AcDbArc
 50
270.0
 51
0.0
  0
LINE
  5
17867
330
17637
100
AcDbEntity
  8
YODOROGO
100
AcDbLine
 10
15080.80217064596
 20
905.8747482146443
 30
0.0
 11
15080.80217064596
 21
1013.874748214644
 31
0.0
  0
LINE
  5
17868
330
17637
100
AcDbEntity
  8
YODOROGO
100
AcDbLine
 10
15080.80217064596
 20
1013.874748214644
 30
0.0
 11
15108.80217064596
 21
1013.874748214644
 31
0.0
  0
LINE
  5
17869
330
17637
100
AcDbEntity
  8
YODOROGO
100
AcDbLine
 10
15248.80217064596
 20
969.8747482146441
 30
0.0
 11
15190.80217064596
 21
909.8747482146439
 31
0.0
  0
LINE
  5
1786A
330
17637
100
AcDbEntity
  8
YODOROGO
100
AcDbLine
 10
15190.80217064596
 20
909.8747482146439
 30
0.0
 11
15190.80217064596
 21
953.874748214644
 31
0.0
  0
LINE
  5
1786B
330
17637
100
AcDbEntity
  8
YODOROGO
100
AcDbLine
 10
15190.80217064596
 20
953.874748214644
 30
0.0
 11
15248.80217064596
 21
1013.874748214644
 31
0.0
  0
LINE
  5
1786C
330
17637
100
AcDbEntity
  8
YODOROGO
100
AcDbLine
 10
15248.80217064596
 20
1013.874748214644
 30
0.0
 11
15308.80217064596
 21
973.8747482146434
 31
0.0
  0
LINE
  5
1786D
330
17637
100
AcDbEntity
  8
YODOROGO
100
AcDbLine
 10
15308.80217064596
 20
973.8747482146434
 30
0.0
 11
15308.80217064596
 21
929.874748214644
 31
0.0
  0
LINE
  5
1786E
330
17637
100
AcDbEntity
  8
YODOROGO
100
AcDbLine
 10
15308.80217064596
 20
929.874748214644
 30
0.0
 11
15248.80217064596
 21
969.8747482146441
 31
0.0
  0
LINE
  5
1786F
330
17637
100
AcDbEntity
  8
YODOROGO
100
AcDbLine
 10
15190.80217064596
 20
786.8747482146444
 30
0.0
 11
15190.80217064596
 21
800.8747482146432
 31
0.0
  0
LINE
  5
17870
330
17637
100
AcDbEntity
  8
YODOROGO
100
AcDbLine
 10
15190.80217064596
 20
800.8747482146432
 30
0.0
 11
15216.80217064596
 21
800.8747482146432
 31
0.0
  0
LINE
  5
17871
330
17637
100
AcDbEntity
  8
YODOROGO
100
AcDbLine
 10
15216.80217064596
 20
800.8747482146432
 30
0.0
 11
15216.80217064596
 21
786.8747482146444
 31
0.0
  0
LINE
  5
17872
330
17637
100
AcDbEntity
  8
YODOROGO
100
AcDbLine
 10
15216.80217064596
 20
786.8747482146444
 30
0.0
 11
15190.80217064596
 21
786.8747482146444
 31
0.0
  0
LINE
  5
17873
330
17637
100
AcDbEntity
  8
YODOROGO
100
AcDbLine
 10
15192.80217064595
 20
788.8747482146436
 30
0.0
 11
15192.80217064595
 21
798.874748214644
 31
0.0
  0
LINE
  5
17874
330
17637
100
AcDbEntity
  8
YODOROGO
100
AcDbLine
 10
15192.80217064595
 20
798.874748214644
 30
0.0
 11
15214.80217064596
 21
798.874748214644
 31
0.0
  0
LINE
  5
17875
330
17637
100
AcDbEntity
  8
YODOROGO
100
AcDbLine
 10
15214.80217064596
 20
798.874748214644
 30
0.0
 11
15214.80217064596
 21
788.8747482146436
 31
0.0
  0
LINE
  5
17876
330
17637
100
AcDbEntity
  8
YODOROGO
100
AcDbLine
 10
15214.80217064596
 20
788.8747482146436
 30
0.0
 11
15192.80217064595
 21
788.8747482146436
 31
0.0
  0
LINE
  5
17877
330
17637
100
AcDbEntity
  8
YODOROGO
100
AcDbLine
 10
15194.80217064596
 20
790.8747482146432
 30
0.0
 11
15194.80217064596
 21
796.8747482146445
 31
0.0
  0
LINE
  5
17878
330
17637
100
AcDbEntity
  8
YODOROGO
100
AcDbLine
 10
15194.80217064596
 20
796.8747482146445
 30
0.0
 11
15212.80217064596
 21
796.8747482146445
 31
0.0
  0
LINE
  5
17879
330
17637
100
AcDbEntity
  8
YODOROGO
100
AcDbLine
 10
15212.80217064596
 20
796.8747482146445
 30
0.0
 11
15212.80217064596
 21
790.8747482146432
 31
0.0
  0
LINE
  5
1787A
330
17637
100
AcDbEntity
  8
YODOROGO
100
AcDbLine
 10
15212.80217064596
 20
790.8747482146432
 30
0.0
 11
15194.80217064596
 21
790.8747482146432
 31
0.0
  0
LINE
  5
1787B
330
17637
100
AcDbEntity
  8
YODOROGO
100
AcDbLine
 10
15196.80217064596
 20
792.8747482146435
 30
0.0
 11
15196.80217064596
 21
794.8747482146441
 31
0.0
  0
LINE
  5
1787C
330
17637
100
AcDbEntity
  8
YODOROGO
100
AcDbLine
 10
15196.80217064596
 20
794.8747482146441
 30
0.0
 11
15210.80217064596
 21
794.8747482146441
 31
0.0
  0
LINE
  5
1787D
330
17637
100
AcDbEntity
  8
YODOROGO
100
AcDbLine
 10
15210.80217064596
 20
794.8747482146441
 30
0.0
 11
15210.80217064596
 21
792.8747482146435
 31
0.0
  0
LINE
  5
1787E
330
17637
100
AcDbEntity
  8
YODOROGO
100
AcDbLine
 10
15210.80217064596
 20
792.8747482146435
 30
0.0
 11
15196.80217064596
 21
792.8747482146435
 31
0.0
  0
LINE
  5
1787F
330
17637
100
AcDbEntity
  8
YODOROGO
100
AcDbLine
 10
15415.80217064596
 20
877.8747482146435
 30
0.0
 11
15415.80217064596
 21
781.8747482146434
 31
0.0
  0
LINE
  5
17880
330
17637
100
AcDbEntity
  8
YODOROGO
100
AcDbLine
 10
15415.80217064596
 20
781.8747482146434
 30
0.0
 11
15429.80217064596
 21
781.8747482146434
 31
0.0
  0
LINE
  5
17881
330
17637
100
AcDbEntity
  8
YODOROGO
100
AcDbLine
 10
15429.80217064596
 20
781.8747482146434
 30
0.0
 11
15429.80217064596
 21
845.8747482146444
 31
0.0
  0
LINE
  5
17882
330
17637
100
AcDbEntity
  8
YODOROGO
100
AcDbLine
 10
15429.80217064596
 20
845.8747482146444
 30
0.0
 11
15449.80217064596
 21
845.8747482146444
 31
0.0
  0
LINE
  5
17883
330
17637
100
AcDbEntity
  8
YODOROGO
100
AcDbLine
 10
15449.80217064596
 20
845.8747482146444
 30
0.0
 11
15449.80217064596
 21
745.8747482146443
 31
0.0
  0
LINE
  5
17884
330
17637
100
AcDbEntity
  8
YODOROGO
100
AcDbLine
 10
15449.80217064596
 20
745.8747482146443
 30
0.0
 11
15361.80217064596
 21
745.8747482146443
 31
0.0
  0
LINE
  5
17885
330
17637
100
AcDbEntity
  8
YODOROGO
100
AcDbLine
 10
15361.80217064596
 20
745.8747482146443
 30
0.0
 11
15361.80217064596
 21
845.8747482146444
 31
0.0
  0
LINE
  5
17886
330
17637
100
AcDbEntity
  8
YODOROGO
100
AcDbLine
 10
15361.80217064596
 20
845.8747482146444
 30
0.0
 11
15381.80217064596
 21
845.8747482146444
 31
0.0
  0
LINE
  5
17887
330
17637
100
AcDbEntity
  8
YODOROGO
100
AcDbLine
 10
15381.80217064596
 20
845.8747482146444
 30
0.0
 11
15381.80217064596
 21
781.8747482146434
 31
0.0
  0
LINE
  5
17888
330
17637
100
AcDbEntity
  8
YODOROGO
100
AcDbLine
 10
15381.80217064596
 20
781.8747482146434
 30
0.0
 11
15395.80217064596
 21
781.8747482146434
 31
0.0
  0
LINE
  5
17889
330
17637
100
AcDbEntity
  8
YODOROGO
100
AcDbLine
 10
15395.80217064596
 20
781.8747482146434
 30
0.0
 11
15395.80217064596
 21
877.8747482146435
 31
0.0
  0
LINE
  5
1788A
330
17637
100
AcDbEntity
  8
YODOROGO
100
AcDbLine
 10
15395.80217064596
 20
877.8747482146435
 30
0.0
 11
15415.80217064596
 21
877.8747482146435
 31
0.0
  0
LINE
  5
1788B
330
17637
100
AcDbEntity
  8
YODOROGO
100
AcDbLine
 10
15462.80217064596
 20
773.874748214644
 30
0.0
 11
15462.80217064596
 21
981.8747482146434
 31
0.0
  0
LINE
  5
1788C
330
17637
100
AcDbEntity
  8
YODOROGO
100
AcDbLine
 10
15462.80217064596
 20
981.8747482146434
 30
0.0
 11
15348.80217064596
 21
981.8747482146434
 31
0.0
  0
LINE
  5
1788D
330
17637
100
AcDbEntity
  8
YODOROGO
100
AcDbLine
 10
15348.80217064596
 20
981.8747482146434
 30
0.0
 11
15348.80217064596
 21
713.8747482146436
 31
0.0
  0
LINE
  5
1788E
330
17637
100
AcDbEntity
  8
YODOROGO
100
AcDbLine
 10
15348.80217064596
 20
713.8747482146436
 30
0.0
 11
15322.80217064596
 21
713.8747482146436
 31
0.0
  0
LINE
  5
1788F
330
17637
100
AcDbEntity
  8
YODOROGO
100
AcDbLine
 10
15322.80217064596
 20
713.8747482146436
 30
0.0
 11
15322.80217064596
 21
1013.874748214644
 31
0.0
  0
LINE
  5
17890
330
17637
100
AcDbEntity
  8
YODOROGO
100
AcDbLine
 10
15322.80217064596
 20
1013.874748214644
 30
0.0
 11
15486.80217064596
 21
1013.874748214644
 31
0.0
  0
LINE
  5
17891
330
17637
100
AcDbEntity
  8
YODOROGO
100
AcDbLine
 10
15486.80217064596
 20
1013.874748214644
 30
0.0
 11
15486.80217064596
 21
733.8747482146435
 31
0.0
  0
ARC
  5
17892
330
17637
100
AcDbEntity
  8
YODOROGO
100
AcDbCircle
 10
15466.80217064596
 20
733.8747482146435
 30
0.0
 40
20.0
100
AcDbArc
 50
270.0
 51
0.0
  0
LINE
  5
17893
330
17637
100
AcDbEntity
  8
YODOROGO
100
AcDbLine
 10
15466.80217064596
 20
713.8747482146436
 30
0.0
 11
15449.80217064596
 21
713.8747482146436
 31
0.0
  0
LINE
  5
17894
330
17637
100
AcDbEntity
  8
YODOROGO
100
AcDbLine
 10
15449.80217064596
 20
713.8747482146436
 30
0.0
 11
15449.80217064596
 21
773.874748214644
 31
0.0
  0
LINE
  5
17895
330
17637
100
AcDbEntity
  8
YODOROGO
100
AcDbLine
 10
15449.80217064596
 20
773.874748214644
 30
0.0
 11
15462.80217064596
 21
773.874748214644
 31
0.0
  0
LINE
  5
17896
330
17637
100
AcDbEntity
  8
YODOROGO
100
AcDbLine
 10
15232.80217064596
 20
867.8747482146436
 30
0.0
 11
15190.80217064596
 21
867.8747482146436
 31
0.0
  0
LINE
  5
17897
330
17637
100
AcDbEntity
  8
YODOROGO
100
AcDbLine
 10
15190.80217064596
 20
867.8747482146436
 30
0.0
 11
15190.80217064596
 21
897.8747482146435
 31
0.0
  0
LINE
  5
17898
330
17637
100
AcDbEntity
  8
YODOROGO
100
AcDbLine
 10
15190.80217064596
 20
897.8747482146435
 30
0.0
 11
15308.80217064596
 21
897.8747482146435
 31
0.0
  0
LINE
  5
17899
330
17637
100
AcDbEntity
  8
YODOROGO
100
AcDbLine
 10
15308.80217064596
 20
897.8747482146435
 30
0.0
 11
15308.80217064596
 21
867.8747482146436
 31
0.0
  0
LINE
  5
1789A
330
17637
100
AcDbEntity
  8
YODOROGO
100
AcDbLine
 10
15308.80217064596
 20
867.8747482146436
 30
0.0
 11
15264.80217064596
 21
867.8747482146436
 31
0.0
  0
LINE
  5
1789B
330
17637
100
AcDbEntity
  8
YODOROGO
100
AcDbLine
 10
15264.80217064596
 20
867.8747482146436
 30
0.0
 11
15264.80217064596
 21
839.8747482146442
 31
0.0
  0
LINE
  5
1789C
330
17637
100
AcDbEntity
  8
YODOROGO
100
AcDbLine
 10
15264.80217064596
 20
839.8747482146442
 30
0.0
 11
15308.80217064596
 21
839.8747482146442
 31
0.0
  0
LINE
  5
1789D
330
17637
100
AcDbEntity
  8
YODOROGO
100
AcDbLine
 10
15308.80217064596
 20
839.8747482146442
 30
0.0
 11
15308.80217064596
 21
813.8747482146435
 31
0.0
  0
LINE
  5
1789E
330
17637
100
AcDbEntity
  8
YODOROGO
100
AcDbLine
 10
15308.80217064596
 20
813.8747482146435
 30
0.0
 11
15264.80217064596
 21
813.8747482146435
 31
0.0
  0
LINE
  5
1789F
330
17637
100
AcDbEntity
  8
YODOROGO
100
AcDbLine
 10
15264.80217064596
 20
813.8747482146435
 30
0.0
 11
15264.80217064596
 21
773.874748214644
 31
0.0
  0
LINE
  5
178A0
330
17637
100
AcDbEntity
  8
YODOROGO
100
AcDbLine
 10
15264.80217064596
 20
773.874748214644
 30
0.0
 11
15272.80217064594
 21
773.874748214644
 31
0.0
  0
ARC
  5
178A1
330
17637
100
AcDbEntity
  8
YODOROGO
100
AcDbCircle
 10
15272.80217064596
 20
785.8747482146461
 30
0.0
 40
12.00000000000227
100
AcDbArc
 50
269.9999999999914
 51
359.9999999999859
  0
LINE
  5
178A2
330
17637
100
AcDbEntity
  8
YODOROGO
100
AcDbLine
 10
15284.80217064596
 20
785.8747482146432
 30
0.0
 11
15284.80217064596
 21
799.8747482146441
 31
0.0
  0
LINE
  5
178A3
330
17637
100
AcDbEntity
  8
YODOROGO
100
AcDbLine
 10
15284.80217064596
 20
799.8747482146441
 30
0.0
 11
15308.80217064596
 21
799.8747482146441
 31
0.0
  0
LINE
  5
178A4
330
17637
100
AcDbEntity
  8
YODOROGO
100
AcDbLine
 10
15308.80217064596
 20
799.8747482146441
 30
0.0
 11
15308.80217064596
 21
753.8747482146439
 31
0.0
  0
ARC
  5
178A5
330
17637
100
AcDbEntity
  8
YODOROGO
100
AcDbCircle
 10
15268.80217064596
 20
753.8747482146439
 30
0.0
 40
40.0
100
AcDbArc
 50
270.0
 51
0.0
  0
LINE
  5
178A6
330
17637
100
AcDbEntity
  8
YODOROGO
100
AcDbLine
 10
15268.80217064596
 20
713.8747482146436
 30
0.0
 11
15190.80217064596
 21
713.8747482146436
 31
0.0
  0
LINE
  5
178A7
330
17637
100
AcDbEntity
  8
YODOROGO
100
AcDbLine
 10
15190.80217064596
 20
713.8747482146436
 30
0.0
 11
15190.80217064596
 21
773.874748214644
 31
0.0
  0
LINE
  5
178A8
330
17637
100
AcDbEntity
  8
YODOROGO
100
AcDbLine
 10
15190.80217064596
 20
773.874748214644
 30
0.0
 11
15232.80217064596
 21
773.874748214644
 31
0.0
  0
LINE
  5
178A9
330
17637
100
AcDbEntity
  8
YODOROGO
100
AcDbLine
 10
15232.80217064596
 20
773.874748214644
 30
0.0
 11
15232.80217064596
 21
813.8747482146435
 31
0.0
  0
LINE
  5
178AA
330
17637
100
AcDbEntity
  8
YODOROGO
100
AcDbLine
 10
15232.80217064596
 20
813.8747482146435
 30
0.0
 11
15190.80217064596
 21
813.8747482146435
 31
0.0
  0
LINE
  5
178AB
330
17637
100
AcDbEntity
  8
YODOROGO
100
AcDbLine
 10
15190.80217064596
 20
813.8747482146435
 30
0.0
 11
15190.80217064596
 21
839.8747482146442
 31
0.0
  0
LINE
  5
178AC
330
17637
100
AcDbEntity
  8
YODOROGO
100
AcDbLine
 10
15190.80217064596
 20
839.8747482146442
 30
0.0
 11
15232.80217064596
 21
839.8747482146442
 31
0.0
  0
LINE
  5
178AD
330
17637
100
AcDbEntity
  8
YODOROGO
100
AcDbLine
 10
15232.80217064596
 20
839.8747482146442
 30
0.0
 11
15232.80217064596
 21
867.8747482146436
 31
0.0
  0
LINE
  5
178AE
330
17637
100
AcDbEntity
  8
YODOROGO
100
AcDbLine
 10
15618.80217064596
 20
797.8747482146435
 30
0.0
 11
15618.80217064596
 21
853.874748214644
 31
0.0
  0
LINE
  5
178AF
330
17637
100
AcDbEntity
  8
YODOROGO
100
AcDbLine
 10
15618.80217064596
 20
853.874748214644
 30
0.0
 11
15706.80217064596
 21
853.874748214644
 31
0.0
  0
LINE
  5
178B0
330
17637
100
AcDbEntity
  8
YODOROGO
100
AcDbLine
 10
15706.80217064596
 20
853.874748214644
 30
0.0
 11
15706.80217064596
 21
953.874748214644
 31
0.0
  0
LINE
  5
178B1
330
17637
100
AcDbEntity
  8
YODOROGO
100
AcDbLine
 10
15706.80217064596
 20
953.874748214644
 30
0.0
 11
15582.80217064596
 21
953.874748214644
 31
0.0
  0
LINE
  5
178B2
330
17637
100
AcDbEntity
  8
YODOROGO
100
AcDbLine
 10
15582.80217064596
 20
953.874748214644
 30
0.0
 11
15582.80217064596
 21
817.8747482146436
 31
0.0
  0
ARC
  5
178B3
330
17637
100
AcDbEntity
  8
YODOROGO
100
AcDbCircle
 10
15519.86069778339
 20
818.7656950548657
 30
0.0
 40
62.94777829583679
100
AcDbArc
 50
295.3405244216012
 51
359.1890230341872
  0
LINE
  5
178B4
330
17637
100
AcDbEntity
  8
YODOROGO
100
AcDbLine
 10
15546.80217064596
 20
761.8747482146434
 30
0.0
 11
15546.80217064596
 21
713.8747482146436
 31
0.0
  0
ARC
  5
178B5
330
17637
100
AcDbEntity
  8
YODOROGO
100
AcDbCircle
 10
15529.75894667896
 20
801.3403687577881
 30
0.0
 40
89.11064055536114
100
AcDbArc
 50
281.0262749542548
 51
357.771135755738
  0
LINE
  5
178B6
330
17637
100
AcDbEntity
  8
YODOROGO
100
AcDbLine
 10
15582.80217064596
 20
1013.874748214644
 30
0.0
 11
15582.80217064596
 21
981.8747482146434
 31
0.0
  0
LINE
  5
178B7
330
17637
100
AcDbEntity
  8
YODOROGO
100
AcDbLine
 10
15582.80217064596
 20
981.8747482146434
 30
0.0
 11
15706.80217064596
 21
981.8747482146434
 31
0.0
  0
LINE
  5
178B8
330
17637
100
AcDbEntity
  8
YODOROGO
100
AcDbLine
 10
15706.80217064596
 20
981.8747482146434
 30
0.0
 11
15706.80217064596
 21
1013.874748214644
 31
0.0
  0
LINE
  5
178B9
330
17637
100
AcDbEntity
  8
YODOROGO
100
AcDbLine
 10
15706.80217064596
 20
1013.874748214644
 30
0.0
 11
15582.80217064596
 21
1013.874748214644
 31
0.0
  0
ARC
  5
178BA
330
17637
100
AcDbEntity
  8
YODOROGO
100
AcDbCircle
 10
14454.5930853599
 20
796.3053643052199
 30
0.0
 40
82.46021178042751
100
AcDbArc
 50
271.5351210653781
 51
355.5272775058505
  0
LINE
  5
178BB
330
17637
100
AcDbEntity
  8
YODOROGO
100
AcDbLine
 10
14536.80217064596
 20
789.8747482146441
 30
0.0
 11
14536.80217064596
 21
1013.874748214644
 31
0.0
  0
LINE
  5
178BC
330
17637
100
AcDbEntity
  8
YODOROGO
100
AcDbLine
 10
14536.80217064596
 20
1013.874748214644
 30
0.0
 11
14500.80217064594
 21
1013.874748214644
 31
0.0
  0
LINE
  5
178BD
330
17637
100
AcDbEntity
  8
YODOROGO
100
AcDbLine
 10
14500.80217064594
 20
1013.874748214644
 30
0.0
 11
14500.80217064594
 21
809.8747482146441
 31
0.0
  0
ARC
  5
178BE
330
17637
100
AcDbEntity
  8
YODOROGO
100
AcDbCircle
 10
14453.45578809342
 20
809.1089322211363
 30
0.0
 40
47.35257558937173
100
AcDbArc
 50
274.0524416290722
 51
0.9266642149309848
  0
LINE
  5
178BF
330
17637
100
AcDbEntity
  8
YODOROGO
100
AcDbLine
 10
14456.80217064596
 20
761.8747482146434
 30
0.0
 11
14456.80217064596
 21
713.8747482146436
 31
0.0
  0
LINE
  5
178C0
330
17637
100
AcDbEntity
  8
YODOROGO
100
AcDbLine
 10
14630.80217064596
 20
1003.874748214644
 30
0.0
 11
14598.80217064596
 21
1003.874748214644
 31
0.0
  0
LINE
  5
178C1
330
17637
100
AcDbEntity
  8
YODOROGO
100
AcDbLine
 10
14598.80217064596
 20
1003.874748214644
 30
0.0
 11
14598.80217064596
 21
745.8747482146431
 31
0.0
  0
LINE
  5
178C2
330
17637
100
AcDbEntity
  8
YODOROGO
100
AcDbLine
 10
14598.80217064596
 20
745.8747482146431
 30
0.0
 11
14630.80217064596
 21
745.8747482146431
 31
0.0
  0
LINE
  5
178C3
330
17637
100
AcDbEntity
  8
YODOROGO
100
AcDbLine
 10
14630.80217064596
 20
745.8747482146431
 30
0.0
 11
14630.80217064596
 21
1003.874748214644
 31
0.0
  0
LINE
  5
178C4
330
17637
100
AcDbEntity
  8
YODOROGO
100
AcDbLine
 10
14728.80217064596
 20
713.8747482146436
 30
0.0
 11
14728.80217064596
 21
1013.874748214644
 31
0.0
  0
LINE
  5
178C5
330
17637
100
AcDbEntity
  8
YODOROGO
100
AcDbLine
 10
14728.80217064596
 20
1013.874748214644
 30
0.0
 11
14692.80217064596
 21
1013.874748214644
 31
0.0
  0
LINE
  5
178C6
330
17637
100
AcDbEntity
  8
YODOROGO
100
AcDbLine
 10
14692.80217064596
 20
1013.874748214644
 30
0.0
 11
14692.80217064596
 21
713.8747482146436
 31
0.0
  0
LINE
  5
178C7
330
17637
100
AcDbEntity
  8
YODOROGO
100
AcDbLine
 10
14692.80217064596
 20
713.8747482146436
 30
0.0
 11
14728.80217064596
 21
713.8747482146436
 31
0.0
  0
LINE
  5
178C8
330
17637
100
AcDbEntity
  8
YODOROGO
100
AcDbLine
 10
14064.80217064595
 20
873.8747482146434
 30
0.0
 11
14068.80217064596
 21
873.8747482146434
 31
0.0
1001
AUTOCAD_POSTSCRIPT_FIGURE
1002
{
1000
PSFILL
1000
Grayscale
1000
Grayscale
1070
   100
1002
}
  0
LINE
  5
178C9
330
17637
100
AcDbEntity
  8
YODOROGO
100
AcDbLine
 10
14068.80217064596
 20
873.8747482146434
 30
0.0
 11
14049.45149343671
 21
969.8747482146441
 31
0.0
1001
AUTOCAD_POSTSCRIPT_FIGURE
1002
{
1000
PSFILL
1000
Grayscale
1000
Grayscale
1070
   100
1002
}
  0
LINE
  5
178CA
330
17637
100
AcDbEntity
  8
YODOROGO
100
AcDbLine
 10
14049.45149343671
 20
969.8747482146441
 30
0.0
 11
14068.80217064596
 21
969.8747482146441
 31
0.0
1001
AUTOCAD_POSTSCRIPT_FIGURE
1002
{
1000
PSFILL
1000
Grayscale
1000
Grayscale
1070
   100
1002
}
  0
LINE
  5
178CB
330
17637
100
AcDbEntity
  8
YODOROGO
100
AcDbLine
 10
14068.80217064596
 20
969.8747482146441
 30
0.0
 11
14068.80217064596
 21
977.8747482146435
 31
0.0
1001
AUTOCAD_POSTSCRIPT_FIGURE
1002
{
1000
PSFILL
1000
Grayscale
1000
Grayscale
1070
   100
1002
}
  0
LINE
  5
178CC
330
17637
100
AcDbEntity
  8
YODOROGO
100
AcDbLine
 10
14068.80217064596
 20
977.8747482146435
 30
0.0
 11
14068.80217064596
 21
989.8747482146442
 31
0.0
1001
AUTOCAD_POSTSCRIPT_FIGURE
1002
{
1000
PSFILL
1000
Grayscale
1000
Grayscale
1070
   100
1002
}
  0
LINE
  5
178CD
330
17637
100
AcDbEntity
  8
YODOROGO
100
AcDbLine
 10
14068.80217064596
 20
989.8747482146442
 30
0.0
 11
14060.80217064596
 21
989.8747482146442
 31
0.0
1001
AUTOCAD_POSTSCRIPT_FIGURE
1002
{
1000
PSFILL
1000
Grayscale
1000
Grayscale
1070
   100
1002
}
  0
LINE
  5
178CE
330
17637
100
AcDbEntity
  8
YODOROGO
100
AcDbLine
 10
14060.80217064596
 20
989.8747482146442
 30
0.0
 11
14060.80217064596
 21
977.8747482146435
 31
0.0
1001
AUTOCAD_POSTSCRIPT_FIGURE
1002
{
1000
PSFILL
1000
Grayscale
1000
Grayscale
1070
   100
1002
}
  0
LINE
  5
178CF
330
17637
100
AcDbEntity
  8
YODOROGO
100
AcDbLine
 10
14060.80217064596
 20
977.8747482146435
 30
0.0
 11
14047.90343925997
 21
977.8747482146435
 31
0.0
1001
AUTOCAD_POSTSCRIPT_FIGURE
1002
{
1000
PSFILL
1000
Grayscale
1000
Grayscale
1070
   100
1002
}
  0
LINE
  5
178D0
330
17637
100
AcDbEntity
  8
YODOROGO
100
AcDbLine
 10
14047.90343925997
 20
977.8747482146435
 30
0.0
 11
14045.58135799485
 21
989.8747482146442
 31
0.0
1001
AUTOCAD_POSTSCRIPT_FIGURE
1002
{
1000
PSFILL
1000
Grayscale
1000
Grayscale
1070
   100
1002
}
  0
LINE
  5
178D1
330
17637
100
AcDbEntity
  8
YODOROGO
100
AcDbLine
 10
14045.58135799485
 20
989.8747482146442
 30
0.0
 11
14035.58135799485
 21
989.8747482146442
 31
0.0
1001
AUTOCAD_POSTSCRIPT_FIGURE
1002
{
1000
PSFILL
1000
Grayscale
1000
Grayscale
1070
   100
1002
}
  0
LINE
  5
178D2
330
17637
100
AcDbEntity
  8
YODOROGO
100
AcDbLine
 10
14035.58135799485
 20
989.8747482146442
 30
0.0
 11
14038.30343925995
 21
977.8747482146435
 31
0.0
1001
AUTOCAD_POSTSCRIPT_FIGURE
1002
{
1000
PSFILL
1000
Grayscale
1000
Grayscale
1070
   100
1002
}
  0
LINE
  5
178D3
330
17637
100
AcDbEntity
  8
YODOROGO
100
AcDbLine
 10
14038.30343925995
 20
977.8747482146435
 30
0.0
 11
13988.80217064596
 21
977.8747482146435
 31
0.0
1001
AUTOCAD_POSTSCRIPT_FIGURE
1002
{
1000
PSFILL
1000
Grayscale
1000
Grayscale
1070
   100
1002
}
  0
LINE
  5
178D4
330
17637
100
AcDbEntity
  8
YODOROGO
100
AcDbLine
 10
13988.80217064596
 20
977.8747482146435
 30
0.0
 11
13988.80217064596
 21
969.8747482146441
 31
0.0
1001
AUTOCAD_POSTSCRIPT_FIGURE
1002
{
1000
PSFILL
1000
Grayscale
1000
Grayscale
1070
   100
1002
}
  0
LINE
  5
178D5
330
17637
100
AcDbEntity
  8
YODOROGO
100
AcDbLine
 10
13988.80217064596
 20
969.8747482146441
 30
0.0
 11
14040.11816010337
 21
969.8747482146441
 31
0.0
1001
AUTOCAD_POSTSCRIPT_FIGURE
1002
{
1000
PSFILL
1000
Grayscale
1000
Grayscale
1070
   100
1002
}
  0
LINE
  5
178D6
330
17637
100
AcDbEntity
  8
YODOROGO
100
AcDbLine
 10
14040.11816010337
 20
969.8747482146441
 30
0.0
 11
14064.80217064595
 21
873.8747482146434
 31
0.0
1001
AUTOCAD_POSTSCRIPT_FIGURE
1002
{
1000
PSFILL
1000
Grayscale
1000
Grayscale
1070
   100
1002
}
  0
LINE
  5
178D7
330
17637
100
AcDbEntity
  8
YODOROGO
100
AcDbLine
 10
13988.80217064596
 20
873.8747482146434
 30
0.0
 11
13988.80217064596
 21
885.8747482146432
 31
0.0
  0
LINE
  5
178D8
330
17637
100
AcDbEntity
  8
YODOROGO
100
AcDbLine
 10
13988.80217064596
 20
885.8747482146432
 30
0.0
 11
14010.91839030643
 21
892.3366697971587
 31
0.0
  0
LINE
  5
178D9
330
17637
100
AcDbEntity
  8
YODOROGO
100
AcDbLine
 10
14010.91839030643
 20
892.3366697971587
 30
0.0
 11
14010.91839030643
 21
936.2841744681499
 31
0.0
  0
LINE
  5
178DA
330
17637
100
AcDbEntity
  8
YODOROGO
100
AcDbLine
 10
14010.91839030643
 20
936.2841744681499
 30
0.0
 11
13988.80217064596
 21
936.2841744681499
 31
0.0
  0
LINE
  5
178DB
330
17637
100
AcDbEntity
  8
YODOROGO
100
AcDbLine
 10
13988.80217064596
 20
936.2841744681499
 30
0.0
 11
13988.80217064596
 21
946.2841744681487
 31
0.0
  0
LINE
  5
178DC
330
17637
100
AcDbEntity
  8
YODOROGO
100
AcDbLine
 10
13988.80217064596
 20
946.2841744681487
 30
0.0
 11
14039.03460996689
 21
946.2841744681487
 31
0.0
  0
LINE
  5
178DD
330
17637
100
AcDbEntity
  8
YODOROGO
100
AcDbLine
 10
14039.03460996689
 20
946.2841744681487
 30
0.0
 11
14039.03460996689
 21
936.2841744681499
 31
0.0
  0
LINE
  5
178DE
330
17637
100
AcDbEntity
  8
YODOROGO
100
AcDbLine
 10
14039.03460996689
 20
936.2841744681499
 30
0.0
 11
14016.91839030643
 21
936.2841744681499
 31
0.0
  0
LINE
  5
178DF
330
17637
100
AcDbEntity
  8
YODOROGO
100
AcDbLine
 10
14016.91839030643
 20
936.2841744681499
 30
0.0
 11
14016.91839030643
 21
893.4084665668834
 31
0.0
  0
LINE
  5
178E0
330
17637
100
AcDbEntity
  8
YODOROGO
100
AcDbLine
 10
14016.91839030643
 20
893.4084665668834
 30
0.0
 11
14039.03460996689
 21
899.3344897645364
 31
0.0
  0
LINE
  5
178E1
330
17637
100
AcDbEntity
  8
YODOROGO
100
AcDbLine
 10
14039.03460996689
 20
899.3344897645364
 30
0.0
 11
14039.03460996689
 21
887.8703881493972
 31
0.0
  0
LINE
  5
178E2
330
17637
100
AcDbEntity
  8
YODOROGO
100
AcDbLine
 10
14039.03460996689
 20
887.8703881493972
 30
0.0
 11
13988.80217064596
 21
873.8747482146434
 31
0.0
  0
LINE
  5
178E3
330
17637
100
AcDbEntity
  8
YODOROGO
100
AcDbLine
 10
14200.80217064594
 20
912.4388128201532
 30
0.0
 11
14200.80217064594
 21
876.4388128201531
 31
0.0
1001
AUTOCAD_POSTSCRIPT_FIGURE
1002
{
1000
PSFILL
1000
Grayscale
1000
Grayscale
1070
   100
1002
}
  0
LINE
  5
178E4
330
17637
100
AcDbEntity
  8
YODOROGO
100
AcDbLine
 10
14200.80217064594
 20
876.4388128201531
 30
0.0
 11
14128.80217064596
 21
897.8747482146435
 31
0.0
1001
AUTOCAD_POSTSCRIPT_FIGURE
1002
{
1000
PSFILL
1000
Grayscale
1000
Grayscale
1070
   100
1002
}
  0
LINE
  5
178E5
330
17637
100
AcDbEntity
  8
YODOROGO
100
AcDbLine
 10
14128.80217064596
 20
897.8747482146435
 30
0.0
 11
14128.80217064596
 21
933.8747482146439
 31
0.0
1001
AUTOCAD_POSTSCRIPT_FIGURE
1002
{
1000
PSFILL
1000
Grayscale
1000
Grayscale
1070
   100
1002
}
  0
LINE
  5
178E6
330
17637
100
AcDbEntity
  8
YODOROGO
100
AcDbLine
 10
14128.80217064596
 20
933.8747482146439
 30
0.0
 11
14200.80217064594
 21
912.4388128201532
 31
0.0
1001
AUTOCAD_POSTSCRIPT_FIGURE
1002
{
1000
PSFILL
1000
Grayscale
1000
Grayscale
1070
   100
1002
}
  0
LINE
  5
178E7
330
17637
100
AcDbEntity
  8
YODOROGO
100
AcDbLine
 10
14128.80217064596
 20
1013.874748214644
 30
0.0
 11
14128.80217064596
 21
979.874748214644
 31
0.0
1001
AUTOCAD_POSTSCRIPT_FIGURE
1002
{
1000
PSFILL
1000
Grayscale
1000
Grayscale
1070
   100
1002
}
  0
LINE
  5
178E8
330
17637
100
AcDbEntity
  8
YODOROGO
100
AcDbLine
 10
14128.80217064596
 20
979.874748214644
 30
0.0
 11
14200.80217064594
 21
958.4388128201537
 31
0.0
1001
AUTOCAD_POSTSCRIPT_FIGURE
1002
{
1000
PSFILL
1000
Grayscale
1000
Grayscale
1070
   100
1002
}
  0
LINE
  5
178E9
330
17637
100
AcDbEntity
  8
YODOROGO
100
AcDbLine
 10
14200.80217064594
 20
958.4388128201537
 30
0.0
 11
14200.80217064594
 21
992.4388128201531
 31
0.0
1001
AUTOCAD_POSTSCRIPT_FIGURE
1002
{
1000
PSFILL
1000
Grayscale
1000
Grayscale
1070
   100
1002
}
  0
LINE
  5
178EA
330
17637
100
AcDbEntity
  8
YODOROGO
100
AcDbLine
 10
14200.80217064594
 20
992.4388128201531
 30
0.0
 11
14128.80217064596
 21
1013.874748214644
 31
0.0
1001
AUTOCAD_POSTSCRIPT_FIGURE
1002
{
1000
PSFILL
1000
Grayscale
1000
Grayscale
1070
   100
1002
}
  0
LINE
  5
178EB
330
17637
100
AcDbEntity
  8
YODOROGO
100
AcDbLine
 10
13888.80217064596
 20
921.8883739758362
 30
0.0
 11
13888.80217064596
 21
929.8883739758355
 31
0.0
1001
AUTOCAD_POSTSCRIPT_FIGURE
1002
{
1000
PSFILL
1000
Grayscale
1000
Grayscale
1070
   100
1002
}
  0
LINE
  5
178EC
330
17637
100
AcDbEntity
  8
YODOROGO
100
AcDbLine
 10
13888.80217064596
 20
929.8883739758355
 30
0.0
 11
13900.80217064596
 21
957.3932903968525
 31
0.0
1001
AUTOCAD_POSTSCRIPT_FIGURE
1002
{
1000
PSFILL
1000
Grayscale
1000
Grayscale
1070
   100
1002
}
  0
LINE
  5
178ED
330
17637
100
AcDbEntity
  8
YODOROGO
100
AcDbLine
 10
13900.80217064596
 20
957.3932903968525
 30
0.0
 11
13900.80217064596
 21
969.8747482146441
 31
0.0
1001
AUTOCAD_POSTSCRIPT_FIGURE
1002
{
1000
PSFILL
1000
Grayscale
1000
Grayscale
1070
   100
1002
}
  0
LINE
  5
178EE
330
17637
100
AcDbEntity
  8
YODOROGO
100
AcDbLine
 10
13900.80217064596
 20
969.8747482146441
 30
0.0
 11
13888.80217064596
 21
969.8747482146441
 31
0.0
1001
AUTOCAD_POSTSCRIPT_FIGURE
1002
{
1000
PSFILL
1000
Grayscale
1000
Grayscale
1070
   100
1002
}
  0
LINE
  5
178EF
330
17637
100
AcDbEntity
  8
YODOROGO
100
AcDbLine
 10
13888.80217064596
 20
969.8747482146441
 30
0.0
 11
13888.80217064596
 21
977.8747482146435
 31
0.0
1001
AUTOCAD_POSTSCRIPT_FIGURE
1002
{
1000
PSFILL
1000
Grayscale
1000
Grayscale
1070
   100
1002
}
  0
LINE
  5
178F0
330
17637
100
AcDbEntity
  8
YODOROGO
100
AcDbLine
 10
13888.80217064596
 20
977.8747482146435
 30
0.0
 11
13900.80217064596
 21
977.8747482146435
 31
0.0
1001
AUTOCAD_POSTSCRIPT_FIGURE
1002
{
1000
PSFILL
1000
Grayscale
1000
Grayscale
1070
   100
1002
}
  0
LINE
  5
178F1
330
17637
100
AcDbEntity
  8
YODOROGO
100
AcDbLine
 10
13900.80217064596
 20
977.8747482146435
 30
0.0
 11
13900.80217064596
 21
989.8747482146442
 31
0.0
1001
AUTOCAD_POSTSCRIPT_FIGURE
1002
{
1000
PSFILL
1000
Grayscale
1000
Grayscale
1070
   100
1002
}
  0
LINE
  5
178F2
330
17637
100
AcDbEntity
  8
YODOROGO
100
AcDbLine
 10
13900.80217064596
 20
989.8747482146442
 30
0.0
 11
13908.80217064596
 21
989.8747482146442
 31
0.0
1001
AUTOCAD_POSTSCRIPT_FIGURE
1002
{
1000
PSFILL
1000
Grayscale
1000
Grayscale
1070
   100
1002
}
  0
LINE
  5
178F3
330
17637
100
AcDbEntity
  8
YODOROGO
100
AcDbLine
 10
13908.80217064596
 20
989.8747482146442
 30
0.0
 11
13908.80217064596
 21
977.8747482146435
 31
0.0
1001
AUTOCAD_POSTSCRIPT_FIGURE
1002
{
1000
PSFILL
1000
Grayscale
1000
Grayscale
1070
   100
1002
}
  0
LINE
  5
178F4
330
17637
100
AcDbEntity
  8
YODOROGO
100
AcDbLine
 10
13908.80217064596
 20
977.8747482146435
 30
0.0
 11
13924.80217064596
 21
977.8747482146435
 31
0.0
1001
AUTOCAD_POSTSCRIPT_FIGURE
1002
{
1000
PSFILL
1000
Grayscale
1000
Grayscale
1070
   100
1002
}
  0
LINE
  5
178F5
330
17637
100
AcDbEntity
  8
YODOROGO
100
AcDbLine
 10
13924.80217064596
 20
977.8747482146435
 30
0.0
 11
13924.80217064596
 21
989.8747482146442
 31
0.0
1001
AUTOCAD_POSTSCRIPT_FIGURE
1002
{
1000
PSFILL
1000
Grayscale
1000
Grayscale
1070
   100
1002
}
  0
LINE
  5
178F6
330
17637
100
AcDbEntity
  8
YODOROGO
100
AcDbLine
 10
13924.80217064596
 20
989.8747482146442
 30
0.0
 11
13932.80217064596
 21
989.8747482146442
 31
0.0
1001
AUTOCAD_POSTSCRIPT_FIGURE
1002
{
1000
PSFILL
1000
Grayscale
1000
Grayscale
1070
   100
1002
}
  0
LINE
  5
178F7
330
17637
100
AcDbEntity
  8
YODOROGO
100
AcDbLine
 10
13932.80217064596
 20
989.8747482146442
 30
0.0
 11
13932.80217064596
 21
977.8747482146435
 31
0.0
1001
AUTOCAD_POSTSCRIPT_FIGURE
1002
{
1000
PSFILL
1000
Grayscale
1000
Grayscale
1070
   100
1002
}
  0
LINE
  5
178F8
330
17637
100
AcDbEntity
  8
YODOROGO
100
AcDbLine
 10
13932.80217064596
 20
977.8747482146435
 30
0.0
 11
13944.80217064596
 21
977.8747482146435
 31
0.0
1001
AUTOCAD_POSTSCRIPT_FIGURE
1002
{
1000
PSFILL
1000
Grayscale
1000
Grayscale
1070
   100
1002
}
  0
LINE
  5
178F9
330
17637
100
AcDbEntity
  8
YODOROGO
100
AcDbLine
 10
13944.80217064596
 20
977.8747482146435
 30
0.0
 11
13944.80217064596
 21
989.8747482146442
 31
0.0
1001
AUTOCAD_POSTSCRIPT_FIGURE
1002
{
1000
PSFILL
1000
Grayscale
1000
Grayscale
1070
   100
1002
}
  0
LINE
  5
178FA
330
17637
100
AcDbEntity
  8
YODOROGO
100
AcDbLine
 10
13944.80217064596
 20
989.8747482146442
 30
0.0
 11
13952.80217064596
 21
989.8747482146442
 31
0.0
1001
AUTOCAD_POSTSCRIPT_FIGURE
1002
{
1000
PSFILL
1000
Grayscale
1000
Grayscale
1070
   100
1002
}
  0
LINE
  5
178FB
330
17637
100
AcDbEntity
  8
YODOROGO
100
AcDbLine
 10
13952.80217064596
 20
989.8747482146442
 30
0.0
 11
13952.80217064596
 21
977.8747482146435
 31
0.0
1001
AUTOCAD_POSTSCRIPT_FIGURE
1002
{
1000
PSFILL
1000
Grayscale
1000
Grayscale
1070
   100
1002
}
  0
LINE
  5
178FC
330
17637
100
AcDbEntity
  8
YODOROGO
100
AcDbLine
 10
13952.80217064596
 20
977.8747482146435
 30
0.0
 11
13968.80217064596
 21
977.8747482146435
 31
0.0
1001
AUTOCAD_POSTSCRIPT_FIGURE
1002
{
1000
PSFILL
1000
Grayscale
1000
Grayscale
1070
   100
1002
}
  0
LINE
  5
178FD
330
17637
100
AcDbEntity
  8
YODOROGO
100
AcDbLine
 10
13968.80217064596
 20
977.8747482146435
 30
0.0
 11
13968.80217064596
 21
969.8747482146441
 31
0.0
1001
AUTOCAD_POSTSCRIPT_FIGURE
1002
{
1000
PSFILL
1000
Grayscale
1000
Grayscale
1070
   100
1002
}
  0
LINE
  5
178FE
330
17637
100
AcDbEntity
  8
YODOROGO
100
AcDbLine
 10
13968.80217064596
 20
969.8747482146441
 30
0.0
 11
13952.80217064596
 21
969.8747482146441
 31
0.0
1001
AUTOCAD_POSTSCRIPT_FIGURE
1002
{
1000
PSFILL
1000
Grayscale
1000
Grayscale
1070
   100
1002
}
  0
LINE
  5
178FF
330
17637
100
AcDbEntity
  8
YODOROGO
100
AcDbLine
 10
13952.80217064596
 20
969.8747482146441
 30
0.0
 11
13952.80217064596
 21
950.2841744681497
 31
0.0
1001
AUTOCAD_POSTSCRIPT_FIGURE
1002
{
1000
PSFILL
1000
Grayscale
1000
Grayscale
1070
   100
1002
}
  0
LINE
  5
17900
330
17637
100
AcDbEntity
  8
YODOROGO
100
AcDbLine
 10
13952.80217064596
 20
950.2841744681497
 30
0.0
 11
13968.80217064596
 21
950.2841744681497
 31
0.0
1001
AUTOCAD_POSTSCRIPT_FIGURE
1002
{
1000
PSFILL
1000
Grayscale
1000
Grayscale
1070
   100
1002
}
  0
LINE
  5
17901
330
17637
100
AcDbEntity
  8
YODOROGO
100
AcDbLine
 10
13968.80217064596
 20
950.2841744681497
 30
0.0
 11
13968.80217064596
 21
942.2841744681491
 31
0.0
1001
AUTOCAD_POSTSCRIPT_FIGURE
1002
{
1000
PSFILL
1000
Grayscale
1000
Grayscale
1070
   100
1002
}
  0
LINE
  5
17902
330
17637
100
AcDbEntity
  8
YODOROGO
100
AcDbLine
 10
13968.80217064596
 20
942.2841744681491
 30
0.0
 11
13952.80217064596
 21
942.2841744681502
 31
0.0
1001
AUTOCAD_POSTSCRIPT_FIGURE
1002
{
1000
PSFILL
1000
Grayscale
1000
Grayscale
1070
   100
1002
}
  0
LINE
  5
17903
330
17637
100
AcDbEntity
  8
YODOROGO
100
AcDbLine
 10
13952.80217064596
 20
942.2841744681502
 30
0.0
 11
13952.80217064596
 21
940.7045060794041
 31
0.0
1001
AUTOCAD_POSTSCRIPT_FIGURE
1002
{
1000
PSFILL
1000
Grayscale
1000
Grayscale
1070
   100
1002
}
  0
LINE
  5
17904
330
17637
100
AcDbEntity
  8
YODOROGO
100
AcDbLine
 10
13952.80217064596
 20
940.7045060794041
 30
0.0
 11
13968.80217064596
 21
906.4874905807087
 31
0.0
1001
AUTOCAD_POSTSCRIPT_FIGURE
1002
{
1000
PSFILL
1000
Grayscale
1000
Grayscale
1070
   100
1002
}
  0
LINE
  5
17905
330
17637
100
AcDbEntity
  8
YODOROGO
100
AcDbLine
 10
13968.80217064596
 20
906.4874905807087
 30
0.0
 11
13968.80217064596
 21
898.487490580708
 31
0.0
1001
AUTOCAD_POSTSCRIPT_FIGURE
1002
{
1000
PSFILL
1000
Grayscale
1000
Grayscale
1070
   100
1002
}
  0
LINE
  5
17906
330
17637
100
AcDbEntity
  8
YODOROGO
100
AcDbLine
 10
13968.80217064596
 20
898.487490580708
 30
0.0
 11
13952.80217064596
 21
924.7045060794032
 31
0.0
1001
AUTOCAD_POSTSCRIPT_FIGURE
1002
{
1000
PSFILL
1000
Grayscale
1000
Grayscale
1070
   100
1002
}
  0
LINE
  5
17907
330
17637
100
AcDbEntity
  8
YODOROGO
100
AcDbLine
 10
13952.80217064596
 20
924.7045060794032
 30
0.0
 11
13952.80217064596
 21
873.8747482146434
 31
0.0
1001
AUTOCAD_POSTSCRIPT_FIGURE
1002
{
1000
PSFILL
1000
Grayscale
1000
Grayscale
1070
   100
1002
}
  0
LINE
  5
17908
330
17637
100
AcDbEntity
  8
YODOROGO
100
AcDbLine
 10
13952.80217064596
 20
873.8747482146434
 30
0.0
 11
13944.80217064596
 21
873.8747482146434
 31
0.0
1001
AUTOCAD_POSTSCRIPT_FIGURE
1002
{
1000
PSFILL
1000
Grayscale
1000
Grayscale
1070
   100
1002
}
  0
LINE
  5
17909
330
17637
100
AcDbEntity
  8
YODOROGO
100
AcDbLine
 10
13944.80217064596
 20
873.8747482146434
 30
0.0
 11
13944.80217064596
 21
923.8095889822183
 31
0.0
1001
AUTOCAD_POSTSCRIPT_FIGURE
1002
{
1000
PSFILL
1000
Grayscale
1000
Grayscale
1070
   100
1002
}
  0
LINE
  5
1790A
330
17637
100
AcDbEntity
  8
YODOROGO
100
AcDbLine
 10
13944.80217064596
 20
923.8095889822183
 30
0.0
 11
13924.80217064596
 21
898.487490580708
 31
0.0
1001
AUTOCAD_POSTSCRIPT_FIGURE
1002
{
1000
PSFILL
1000
Grayscale
1000
Grayscale
1070
   100
1002
}
  0
LINE
  5
1790B
330
17637
100
AcDbEntity
  8
YODOROGO
100
AcDbLine
 10
13924.80217064596
 20
898.487490580708
 30
0.0
 11
13924.80217064596
 21
906.4874905807087
 31
0.0
1001
AUTOCAD_POSTSCRIPT_FIGURE
1002
{
1000
PSFILL
1000
Grayscale
1000
Grayscale
1070
   100
1002
}
  0
LINE
  5
1790C
330
17637
100
AcDbEntity
  8
YODOROGO
100
AcDbLine
 10
13924.80217064596
 20
906.4874905807087
 30
0.0
 11
13944.80217064596
 21
939.8095889822196
 31
0.0
1001
AUTOCAD_POSTSCRIPT_FIGURE
1002
{
1000
PSFILL
1000
Grayscale
1000
Grayscale
1070
   100
1002
}
  0
LINE
  5
1790D
330
17637
100
AcDbEntity
  8
YODOROGO
100
AcDbLine
 10
13944.80217064596
 20
939.8095889822196
 30
0.0
 11
13944.80217064596
 21
942.2841744681491
 31
0.0
1001
AUTOCAD_POSTSCRIPT_FIGURE
1002
{
1000
PSFILL
1000
Grayscale
1000
Grayscale
1070
   100
1002
}
  0
LINE
  5
1790E
330
17637
100
AcDbEntity
  8
YODOROGO
100
AcDbLine
 10
13944.80217064596
 20
942.2841744681491
 30
0.0
 11
13928.80217064596
 21
942.2841744681491
 31
0.0
1001
AUTOCAD_POSTSCRIPT_FIGURE
1002
{
1000
PSFILL
1000
Grayscale
1000
Grayscale
1070
   100
1002
}
  0
LINE
  5
1790F
330
17637
100
AcDbEntity
  8
YODOROGO
100
AcDbLine
 10
13928.80217064596
 20
942.2841744681491
 30
0.0
 11
13928.80217064596
 21
950.2841744681497
 31
0.0
1001
AUTOCAD_POSTSCRIPT_FIGURE
1002
{
1000
PSFILL
1000
Grayscale
1000
Grayscale
1070
   100
1002
}
  0
LINE
  5
17910
330
17637
100
AcDbEntity
  8
YODOROGO
100
AcDbLine
 10
13928.80217064596
 20
950.2841744681497
 30
0.0
 11
13944.80217064596
 21
950.2841744681497
 31
0.0
1001
AUTOCAD_POSTSCRIPT_FIGURE
1002
{
1000
PSFILL
1000
Grayscale
1000
Grayscale
1070
   100
1002
}
  0
LINE
  5
17911
330
17637
100
AcDbEntity
  8
YODOROGO
100
AcDbLine
 10
13944.80217064596
 20
950.2841744681497
 30
0.0
 11
13944.80217064596
 21
969.8747482146441
 31
0.0
1001
AUTOCAD_POSTSCRIPT_FIGURE
1002
{
1000
PSFILL
1000
Grayscale
1000
Grayscale
1070
   100
1002
}
  0
LINE
  5
17912
330
17637
100
AcDbEntity
  8
YODOROGO
100
AcDbLine
 10
13944.80217064596
 20
969.8747482146441
 30
0.0
 11
13908.80217064596
 21
969.8747482146441
 31
0.0
1001
AUTOCAD_POSTSCRIPT_FIGURE
1002
{
1000
PSFILL
1000
Grayscale
1000
Grayscale
1070
   100
1002
}
  0
LINE
  5
17913
330
17637
100
AcDbEntity
  8
YODOROGO
100
AcDbLine
 10
13908.80217064596
 20
969.8747482146441
 30
0.0
 11
13908.80217064596
 21
958.8856660426325
 31
0.0
1001
AUTOCAD_POSTSCRIPT_FIGURE
1002
{
1000
PSFILL
1000
Grayscale
1000
Grayscale
1070
   100
1002
}
  0
LINE
  5
17914
330
17637
100
AcDbEntity
  8
YODOROGO
100
AcDbLine
 10
13908.80217064596
 20
958.8856660426325
 30
0.0
 11
13920.80217064596
 21
941.8273791420681
 31
0.0
1001
AUTOCAD_POSTSCRIPT_FIGURE
1002
{
1000
PSFILL
1000
Grayscale
1000
Grayscale
1070
   100
1002
}
  0
LINE
  5
17915
330
17637
100
AcDbEntity
  8
YODOROGO
100
AcDbLine
 10
13920.80217064596
 20
941.8273791420681
 30
0.0
 11
13920.80217064596
 21
933.8273791420684
 31
0.0
1001
AUTOCAD_POSTSCRIPT_FIGURE
1002
{
1000
PSFILL
1000
Grayscale
1000
Grayscale
1070
   100
1002
}
  0
LINE
  5
17916
330
17637
100
AcDbEntity
  8
YODOROGO
100
AcDbLine
 10
13920.80217064596
 20
933.8273791420684
 30
0.0
 11
13908.80217064596
 21
946.8856660426332
 31
0.0
1001
AUTOCAD_POSTSCRIPT_FIGURE
1002
{
1000
PSFILL
1000
Grayscale
1000
Grayscale
1070
   100
1002
}
  0
LINE
  5
17917
330
17637
100
AcDbEntity
  8
YODOROGO
100
AcDbLine
 10
13908.80217064596
 20
946.8856660426332
 30
0.0
 11
13908.80217064596
 21
873.8747482146434
 31
0.0
1001
AUTOCAD_POSTSCRIPT_FIGURE
1002
{
1000
PSFILL
1000
Grayscale
1000
Grayscale
1070
   100
1002
}
  0
LINE
  5
17918
330
17637
100
AcDbEntity
  8
YODOROGO
100
AcDbLine
 10
13908.80217064596
 20
873.8747482146434
 30
0.0
 11
13900.80217064596
 21
873.8747482146434
 31
0.0
1001
AUTOCAD_POSTSCRIPT_FIGURE
1002
{
1000
PSFILL
1000
Grayscale
1000
Grayscale
1070
   100
1002
}
  0
LINE
  5
17919
330
17637
100
AcDbEntity
  8
YODOROGO
100
AcDbLine
 10
13900.80217064596
 20
873.8747482146434
 30
0.0
 11
13900.80217064596
 21
945.3932903968532
 31
0.0
1001
AUTOCAD_POSTSCRIPT_FIGURE
1002
{
1000
PSFILL
1000
Grayscale
1000
Grayscale
1070
   100
1002
}
  0
LINE
  5
1791A
330
17637
100
AcDbEntity
  8
YODOROGO
100
AcDbLine
 10
13900.80217064596
 20
945.3932903968532
 30
0.0
 11
13888.80217064596
 21
921.8883739758362
 31
0.0
1001
AUTOCAD_POSTSCRIPT_FIGURE
1002
{
1000
PSFILL
1000
Grayscale
1000
Grayscale
1070
   100
1002
}
  0
LINE
  5
1791B
330
17637
100
AcDbEntity
  8
YODOROGO
100
AcDbLine
 10
14172.80217064596
 20
833.8747482146439
 30
0.0
 11
14172.80217064596
 21
805.8747482146443
 31
0.0
  0
ARC
  5
1791C
330
17637
100
AcDbEntity
  8
YODOROGO
100
AcDbCircle
 10
14117.87801537965
 20
816.7989034809513
 30
0.0
 40
55.99999999999901
100
AcDbArc
 50
281.2490582504167
 51
348.7509417495839
  0
LINE
  5
1791D
330
17637
100
AcDbEntity
  8
YODOROGO
100
AcDbLine
 10
14128.80217064596
 20
761.8747482146434
 30
0.0
 11
14128.80217064596
 21
713.8747482146436
 31
0.0
  0
ARC
  5
1791E
330
17637
100
AcDbEntity
  8
YODOROGO
100
AcDbCircle
 10
14112.97022107349
 20
800.438882662663
 30
0.0
 40
87.99999999999979
100
AcDbArc
 50
280.3644312771306
 51
3.541483659218113
  0
LINE
  5
1791F
330
17637
100
AcDbEntity
  8
YODOROGO
100
AcDbLine
 10
14200.80217064594
 20
805.8747482146443
 30
0.0
 11
14200.80217064594
 21
833.8747482146439
 31
0.0
  0
LINE
  5
17920
330
17637
100
AcDbEntity
  8
YODOROGO
100
AcDbLine
 10
14200.80217064594
 20
833.8747482146439
 30
0.0
 11
14172.80217064596
 21
833.8747482146439
 31
0.0
  0
LINE
  5
17921
330
17637
100
AcDbEntity
  8
YODOROGO
100
AcDbLine
 10
13904.80217064596
 20
816.3859520216298
 30
0.0
 11
13952.80217064596
 21
816.3859520216298
 31
0.0
  0
LINE
  5
17922
330
17637
100
AcDbEntity
  8
YODOROGO
100
AcDbLine
 10
13952.80217064596
 20
816.3859520216298
 30
0.0
 11
13952.80217064596
 21
804.3859520216292
 31
0.0
  0
LINE
  5
17923
330
17637
100
AcDbEntity
  8
YODOROGO
100
AcDbLine
 10
13952.80217064596
 20
804.3859520216292
 30
0.0
 11
13904.80217064596
 21
804.3859520216292
 31
0.0
  0
LINE
  5
17924
330
17637
100
AcDbEntity
  8
YODOROGO
100
AcDbLine
 10
13904.80217064596
 20
804.3859520216292
 30
0.0
 11
13904.80217064596
 21
816.3859520216298
 31
0.0
  0
LINE
  5
17925
330
17637
100
AcDbEntity
  8
YODOROGO
100
AcDbLine
 10
13892.80217064596
 20
737.8747482146435
 30
0.0
 11
13964.80217064596
 21
737.8747482146435
 31
0.0
1001
AUTOCAD_POSTSCRIPT_FIGURE
1002
{
1000
PSFILL
1000
Grayscale
1000
Grayscale
1070
   100
1002
}
  0
LINE
  5
17926
330
17637
100
AcDbEntity
  8
YODOROGO
100
AcDbLine
 10
13964.80217064596
 20
737.8747482146435
 30
0.0
 11
13950.53250239547
 21
768.1169053488464
 31
0.0
1001
AUTOCAD_POSTSCRIPT_FIGURE
1002
{
1000
PSFILL
1000
Grayscale
1000
Grayscale
1070
   100
1002
}
  0
LINE
  5
17927
330
17637
100
AcDbEntity
  8
YODOROGO
100
AcDbLine
 10
13950.53250239547
 20
768.1169053488464
 30
0.0
 11
13942.53250239547
 21
768.1169053488464
 31
0.0
1001
AUTOCAD_POSTSCRIPT_FIGURE
1002
{
1000
PSFILL
1000
Grayscale
1000
Grayscale
1070
   100
1002
}
  0
LINE
  5
17928
330
17637
100
AcDbEntity
  8
YODOROGO
100
AcDbLine
 10
13942.53250239547
 20
768.1169053488464
 30
0.0
 11
13951.02739540432
 21
747.8747482146435
 31
0.0
1001
AUTOCAD_POSTSCRIPT_FIGURE
1002
{
1000
PSFILL
1000
Grayscale
1000
Grayscale
1070
   100
1002
}
  0
LINE
  5
17929
330
17637
100
AcDbEntity
  8
YODOROGO
100
AcDbLine
 10
13951.02739540432
 20
747.8747482146435
 30
0.0
 11
13907.77335914238
 21
747.8747482146435
 31
0.0
1001
AUTOCAD_POSTSCRIPT_FIGURE
1002
{
1000
PSFILL
1000
Grayscale
1000
Grayscale
1070
   100
1002
}
  0
LINE
  5
1792A
330
17637
100
AcDbEntity
  8
YODOROGO
100
AcDbLine
 10
13907.77335914238
 20
747.8747482146435
 30
0.0
 11
13922.25479445786
 21
784.2514286852374
 31
0.0
1001
AUTOCAD_POSTSCRIPT_FIGURE
1002
{
1000
PSFILL
1000
Grayscale
1000
Grayscale
1070
   100
1002
}
  0
LINE
  5
1792B
330
17637
100
AcDbEntity
  8
YODOROGO
100
AcDbLine
 10
13922.25479445786
 20
784.2514286852374
 30
0.0
 11
13968.80217064596
 21
784.2514286852374
 31
0.0
1001
AUTOCAD_POSTSCRIPT_FIGURE
1002
{
1000
PSFILL
1000
Grayscale
1000
Grayscale
1070
   100
1002
}
  0
LINE
  5
1792C
330
17637
100
AcDbEntity
  8
YODOROGO
100
AcDbLine
 10
13968.80217064596
 20
784.2514286852374
 30
0.0
 11
13968.80217064596
 21
794.2514286852374
 31
0.0
1001
AUTOCAD_POSTSCRIPT_FIGURE
1002
{
1000
PSFILL
1000
Grayscale
1000
Grayscale
1070
   100
1002
}
  0
LINE
  5
1792D
330
17637
100
AcDbEntity
  8
YODOROGO
100
AcDbLine
 10
13968.80217064596
 20
794.2514286852374
 30
0.0
 11
13888.80217064596
 21
794.2514286852374
 31
0.0
1001
AUTOCAD_POSTSCRIPT_FIGURE
1002
{
1000
PSFILL
1000
Grayscale
1000
Grayscale
1070
   100
1002
}
  0
LINE
  5
1792E
330
17637
100
AcDbEntity
  8
YODOROGO
100
AcDbLine
 10
13888.80217064596
 20
794.2514286852374
 30
0.0
 11
13888.80217064596
 21
784.2514286852374
 31
0.0
1001
AUTOCAD_POSTSCRIPT_FIGURE
1002
{
1000
PSFILL
1000
Grayscale
1000
Grayscale
1070
   100
1002
}
  0
LINE
  5
1792F
330
17637
100
AcDbEntity
  8
YODOROGO
100
AcDbLine
 10
13888.80217064596
 20
784.2514286852374
 30
0.0
 11
13912.25479445787
 21
784.2514286852374
 31
0.0
1001
AUTOCAD_POSTSCRIPT_FIGURE
1002
{
1000
PSFILL
1000
Grayscale
1000
Grayscale
1070
   100
1002
}
  0
LINE
  5
17930
330
17637
100
AcDbEntity
  8
YODOROGO
100
AcDbLine
 10
13912.25479445787
 20
784.2514286852374
 30
0.0
 11
13892.80217064596
 21
737.8747482146435
 31
0.0
1001
AUTOCAD_POSTSCRIPT_FIGURE
1002
{
1000
PSFILL
1000
Grayscale
1000
Grayscale
1070
   100
1002
}
  0
LINE
  5
17931
330
17637
100
AcDbEntity
  8
YODOROGO
100
AcDbLine
 10
13888.80217064596
 20
821.986207022285
 30
0.0
 11
13928.80217064596
 21
853.874748214644
 31
0.0
  0
LINE
  5
17932
330
17637
100
AcDbEntity
  8
YODOROGO
100
AcDbLine
 10
13928.80217064596
 20
853.874748214644
 30
0.0
 11
13968.80217064596
 21
821.986207022285
 31
0.0
  0
LINE
  5
17933
330
17637
100
AcDbEntity
  8
YODOROGO
100
AcDbLine
 10
13968.80217064596
 20
821.986207022285
 30
0.0
 11
13968.80217064596
 21
809.9862070222856
 31
0.0
  0
LINE
  5
17934
330
17637
100
AcDbEntity
  8
YODOROGO
100
AcDbLine
 10
13968.80217064596
 20
809.9862070222856
 30
0.0
 11
13928.80217064596
 21
841.8747482146445
 31
0.0
  0
LINE
  5
17935
330
17637
100
AcDbEntity
  8
YODOROGO
100
AcDbLine
 10
13928.80217064596
 20
841.8747482146445
 30
0.0
 11
13888.80217064596
 21
809.9862070222856
 31
0.0
  0
LINE
  5
17936
330
17637
100
AcDbEntity
  8
YODOROGO
100
AcDbLine
 10
13888.80217064596
 20
809.9862070222856
 30
0.0
 11
13888.80217064596
 21
821.986207022285
 31
0.0
  0
LINE
  5
17937
330
17637
100
AcDbEntity
  8
YODOROGO
100
AcDbLine
 10
14000.80217064596
 20
841.8747482146434
 30
0.0
 11
13988.80217064596
 21
841.8747482146434
 31
0.0
  0
LINE
  5
17938
330
17637
100
AcDbEntity
  8
YODOROGO
100
AcDbLine
 10
13988.80217064596
 20
841.8747482146434
 30
0.0
 11
13988.80217064596
 21
833.8747482146427
 31
0.0
  0
LINE
  5
17939
330
17637
100
AcDbEntity
  8
YODOROGO
100
AcDbLine
 10
13988.80217064596
 20
833.8747482146427
 30
0.0
 11
14012.91438714567
 21
833.8747482146427
 31
0.0
  0
LINE
  5
1793A
330
17637
100
AcDbEntity
  8
YODOROGO
100
AcDbLine
 10
14012.91438714567
 20
833.8747482146427
 30
0.0
 11
13988.80217064596
 21
778.3840395167149
 31
0.0
  0
LINE
  5
1793B
330
17637
100
AcDbEntity
  8
YODOROGO
100
AcDbLine
 10
13988.80217064596
 20
778.3840395167149
 30
0.0
 11
13988.80217064596
 21
766.3840395167142
 31
0.0
  0
LINE
  5
1793C
330
17637
100
AcDbEntity
  8
YODOROGO
100
AcDbLine
 10
13988.80217064596
 20
766.3840395167142
 30
0.0
 11
14000.80217064596
 21
790.0026748448738
 31
0.0
  0
LINE
  5
1793D
330
17637
100
AcDbEntity
  8
YODOROGO
100
AcDbLine
 10
14000.80217064596
 20
790.0026748448738
 30
0.0
 11
14000.80217064596
 21
737.8747482146435
 31
0.0
  0
LINE
  5
1793E
330
17637
100
AcDbEntity
  8
YODOROGO
100
AcDbLine
 10
14000.80217064596
 20
737.8747482146435
 30
0.0
 11
14008.80217064596
 21
737.8747482146435
 31
0.0
  0
LINE
  5
1793F
330
17637
100
AcDbEntity
  8
YODOROGO
100
AcDbLine
 10
14008.80217064596
 20
737.8747482146435
 30
0.0
 11
14008.80217064596
 21
792.6185318747651
 31
0.0
  0
LINE
  5
17940
330
17637
100
AcDbEntity
  8
YODOROGO
100
AcDbLine
 10
14008.80217064596
 20
792.6185318747651
 30
0.0
 11
14020.80217064596
 21
781.5602449741994
 31
0.0
  0
LINE
  5
17941
330
17637
100
AcDbEntity
  8
YODOROGO
100
AcDbLine
 10
14020.80217064596
 20
781.5602449741994
 30
0.0
 11
14020.80217064596
 21
791.5602449742006
 31
0.0
  0
LINE
  5
17942
330
17637
100
AcDbEntity
  8
YODOROGO
100
AcDbLine
 10
14020.80217064596
 20
791.5602449742006
 30
0.0
 11
14010.04445186845
 21
805.3252825309574
 31
0.0
  0
LINE
  5
17943
330
17637
100
AcDbEntity
  8
YODOROGO
100
AcDbLine
 10
14010.04445186845
 20
805.3252825309574
 30
0.0
 11
14020.45660200844
 21
829.874748214644
 31
0.0
  0
LINE
  5
17944
330
17637
100
AcDbEntity
  8
YODOROGO
100
AcDbLine
 10
14020.45660200844
 20
829.874748214644
 30
0.0
 11
14020.45660200844
 21
841.8747482146434
 31
0.0
  0
LINE
  5
17945
330
17637
100
AcDbEntity
  8
YODOROGO
100
AcDbLine
 10
14020.45660200844
 20
841.8747482146434
 30
0.0
 11
14008.80217064596
 21
841.8747482146434
 31
0.0
  0
LINE
  5
17946
330
17637
100
AcDbEntity
  8
YODOROGO
100
AcDbLine
 10
14008.80217064596
 20
841.8747482146434
 30
0.0
 11
14008.80217064596
 21
853.874748214644
 31
0.0
  0
LINE
  5
17947
330
17637
100
AcDbEntity
  8
YODOROGO
100
AcDbLine
 10
14008.80217064596
 20
853.874748214644
 30
0.0
 11
14000.80217064596
 21
853.874748214644
 31
0.0
  0
LINE
  5
17948
330
17637
100
AcDbEntity
  8
YODOROGO
100
AcDbLine
 10
14000.80217064596
 20
853.874748214644
 30
0.0
 11
14000.80217064596
 21
841.8747482146434
 31
0.0
  0
LINE
  5
17949
330
17637
100
AcDbEntity
  8
YODOROGO
100
AcDbLine
 10
14041.06776011546
 20
827.751818637328
 30
0.0
 11
14041.06776011546
 21
853.874748214644
 31
0.0
1001
AUTOCAD_POSTSCRIPT_FIGURE
1002
{
1000
PSFILL
1000
Grayscale
1000
Grayscale
1070
   100
1002
}
  0
LINE
  5
1794A
330
17637
100
AcDbEntity
  8
YODOROGO
100
AcDbLine
 10
14041.06776011546
 20
853.874748214644
 30
0.0
 11
14049.06776011545
 21
853.874748214644
 31
0.0
1001
AUTOCAD_POSTSCRIPT_FIGURE
1002
{
1000
PSFILL
1000
Grayscale
1000
Grayscale
1070
   100
1002
}
  0
LINE
  5
1794B
330
17637
100
AcDbEntity
  8
YODOROGO
100
AcDbLine
 10
14049.06776011545
 20
853.874748214644
 30
0.0
 11
14049.06776011545
 21
827.751818637328
 31
0.0
1001
AUTOCAD_POSTSCRIPT_FIGURE
1002
{
1000
PSFILL
1000
Grayscale
1000
Grayscale
1070
   100
1002
}
  0
LINE
  5
1794C
330
17637
100
AcDbEntity
  8
YODOROGO
100
AcDbLine
 10
14049.06776011545
 20
827.751818637328
 30
0.0
 11
14068.80217064596
 21
827.751818637328
 31
0.0
1001
AUTOCAD_POSTSCRIPT_FIGURE
1002
{
1000
PSFILL
1000
Grayscale
1000
Grayscale
1070
   100
1002
}
  0
LINE
  5
1794D
330
17637
100
AcDbEntity
  8
YODOROGO
100
AcDbLine
 10
14068.80217064596
 20
827.751818637328
 30
0.0
 11
14068.80217064596
 21
815.7518186373286
 31
0.0
1001
AUTOCAD_POSTSCRIPT_FIGURE
1002
{
1000
PSFILL
1000
Grayscale
1000
Grayscale
1070
   100
1002
}
  0
LINE
  5
1794E
330
17637
100
AcDbEntity
  8
YODOROGO
100
AcDbLine
 10
14068.80217064596
 20
815.7518186373286
 30
0.0
 11
14049.06776011545
 21
815.7518186373286
 31
0.0
1001
AUTOCAD_POSTSCRIPT_FIGURE
1002
{
1000
PSFILL
1000
Grayscale
1000
Grayscale
1070
   100
1002
}
  0
LINE
  5
1794F
330
17637
100
AcDbEntity
  8
YODOROGO
100
AcDbLine
 10
14049.06776011545
 20
815.7518186373286
 30
0.0
 11
14049.06776011545
 21
749.8747482146441
 31
0.0
1001
AUTOCAD_POSTSCRIPT_FIGURE
1002
{
1000
PSFILL
1000
Grayscale
1000
Grayscale
1070
   100
1002
}
  0
LINE
  5
17950
330
17637
100
AcDbEntity
  8
YODOROGO
100
AcDbLine
 10
14049.06776011545
 20
749.8747482146441
 30
0.0
 11
14068.80217064596
 21
749.8747482146441
 31
0.0
1001
AUTOCAD_POSTSCRIPT_FIGURE
1002
{
1000
PSFILL
1000
Grayscale
1000
Grayscale
1070
   100
1002
}
  0
LINE
  5
17951
330
17637
100
AcDbEntity
  8
YODOROGO
100
AcDbLine
 10
14068.80217064596
 20
749.8747482146441
 30
0.0
 11
14068.80217064596
 21
737.8747482146435
 31
0.0
1001
AUTOCAD_POSTSCRIPT_FIGURE
1002
{
1000
PSFILL
1000
Grayscale
1000
Grayscale
1070
   100
1002
}
  0
LINE
  5
17952
330
17637
100
AcDbEntity
  8
YODOROGO
100
AcDbLine
 10
14068.80217064596
 20
737.8747482146435
 30
0.0
 11
14025.06776011545
 21
737.8747482146435
 31
0.0
1001
AUTOCAD_POSTSCRIPT_FIGURE
1002
{
1000
PSFILL
1000
Grayscale
1000
Grayscale
1070
   100
1002
}
  0
LINE
  5
17953
330
17637
100
AcDbEntity
  8
YODOROGO
100
AcDbLine
 10
14025.06776011545
 20
737.8747482146435
 30
0.0
 11
14025.06776011545
 21
749.8747482146441
 31
0.0
1001
AUTOCAD_POSTSCRIPT_FIGURE
1002
{
1000
PSFILL
1000
Grayscale
1000
Grayscale
1070
   100
1002
}
  0
LINE
  5
17954
330
17637
100
AcDbEntity
  8
YODOROGO
100
AcDbLine
 10
14025.06776011545
 20
749.8747482146441
 30
0.0
 11
14041.06776011546
 21
749.8747482146441
 31
0.0
1001
AUTOCAD_POSTSCRIPT_FIGURE
1002
{
1000
PSFILL
1000
Grayscale
1000
Grayscale
1070
   100
1002
}
  0
LINE
  5
17955
330
17637
100
AcDbEntity
  8
YODOROGO
100
AcDbLine
 10
14041.06776011546
 20
749.8747482146441
 30
0.0
 11
14041.06776011546
 21
815.7518186373286
 31
0.0
1001
AUTOCAD_POSTSCRIPT_FIGURE
1002
{
1000
PSFILL
1000
Grayscale
1000
Grayscale
1070
   100
1002
}
  0
LINE
  5
17956
330
17637
100
AcDbEntity
  8
YODOROGO
100
AcDbLine
 10
14041.06776011546
 20
815.7518186373286
 30
0.0
 11
14025.06776011545
 21
815.7518186373286
 31
0.0
1001
AUTOCAD_POSTSCRIPT_FIGURE
1002
{
1000
PSFILL
1000
Grayscale
1000
Grayscale
1070
   100
1002
}
  0
LINE
  5
17957
330
17637
100
AcDbEntity
  8
YODOROGO
100
AcDbLine
 10
14025.06776011545
 20
815.7518186373286
 30
0.0
 11
14025.06776011545
 21
827.751818637328
 31
0.0
1001
AUTOCAD_POSTSCRIPT_FIGURE
1002
{
1000
PSFILL
1000
Grayscale
1000
Grayscale
1070
   100
1002
}
  0
LINE
  5
17958
330
17637
100
AcDbEntity
  8
YODOROGO
100
AcDbLine
 10
14025.06776011545
 20
827.751818637328
 30
0.0
 11
14041.06776011546
 21
827.751818637328
 31
0.0
1001
AUTOCAD_POSTSCRIPT_FIGURE
1002
{
1000
PSFILL
1000
Grayscale
1000
Grayscale
1070
   100
1002
}
  0
LINE
  5
17959
330
17637
100
AcDbEntity
  8
YODOROGO
100
AcDbLine
 10
14216.80217064594
 20
873.8747482146449
 30
0.0
 11
14292.80217064596
 21
873.8747482146449
 31
0.0
  0
LINE
  5
1795A
330
17637
100
AcDbEntity
  8
YODOROGO
100
AcDbLine
 10
14292.80217064596
 20
873.8747482146449
 30
0.0
 11
14292.80217064596
 21
773.874748214644
 31
0.0
  0
ARC
  5
1795B
330
17637
100
AcDbEntity
  8
YODOROGO
100
AcDbCircle
 10
14280.80217064596
 20
773.8747482146417
 30
0.0
 40
11.99999999999818
100
AcDbArc
 50
270.0000000000085
 51
0.0000000000097707
  0
LINE
  5
1795C
330
17637
100
AcDbEntity
  8
YODOROGO
100
AcDbLine
 10
14280.80217064596
 20
761.8747482146434
 30
0.0
 11
14268.80217064594
 21
761.8747482146434
 31
0.0
  0
ARC
  5
1795D
330
17637
100
AcDbEntity
  8
YODOROGO
100
AcDbCircle
 10
14268.80217064594
 20
781.8747482146434
 30
0.0
 40
20.0
100
AcDbArc
 50
180.0
 51
270.0
  0
LINE
  5
1795E
330
17637
100
AcDbEntity
  8
YODOROGO
100
AcDbLine
 10
14248.80217064594
 20
781.8747482146434
 30
0.0
 11
14248.80217064594
 21
853.874748214644
 31
0.0
  0
LINE
  5
1795F
330
17637
100
AcDbEntity
  8
YODOROGO
100
AcDbLine
 10
14248.80217064594
 20
853.874748214644
 30
0.0
 11
14216.80217064594
 21
853.874748214644
 31
0.0
  0
LINE
  5
17960
330
17637
100
AcDbEntity
  8
YODOROGO
100
AcDbLine
 10
14216.80217064594
 20
853.874748214644
 30
0.0
 11
14216.80217064594
 21
753.8747482146439
 31
0.0
  0
ARC
  5
17961
330
17637
100
AcDbEntity
  8
YODOROGO
100
AcDbCircle
 10
14256.80217064594
 20
753.8747482146439
 30
0.0
 40
40.0
100
AcDbArc
 50
180.0
 51
270.0
  0
LINE
  5
17962
330
17637
100
AcDbEntity
  8
YODOROGO
100
AcDbLine
 10
14256.80217064594
 20
713.8747482146436
 30
0.0
 11
14396.80217064594
 21
713.8747482146436
 31
0.0
  0
LINE
  5
17963
330
17637
100
AcDbEntity
  8
YODOROGO
100
AcDbLine
 10
14396.80217064594
 20
713.8747482146436
 30
0.0
 11
14396.80217064594
 21
761.8747482146434
 31
0.0
  0
LINE
  5
17964
330
17637
100
AcDbEntity
  8
YODOROGO
100
AcDbLine
 10
14396.80217064594
 20
761.8747482146434
 30
0.0
 11
14328.80217064594
 21
761.8747482146434
 31
0.0
  0
LINE
  5
17965
330
17637
100
AcDbEntity
  8
YODOROGO
100
AcDbLine
 10
14328.80217064594
 20
761.8747482146434
 30
0.0
 11
14328.80217064594
 21
801.8747482146444
 31
0.0
  0
LINE
  5
17966
330
17637
100
AcDbEntity
  8
YODOROGO
100
AcDbLine
 10
14328.80217064594
 20
801.8747482146444
 30
0.0
 11
14396.80217064594
 21
801.8747482146444
 31
0.0
  0
LINE
  5
17967
330
17637
100
AcDbEntity
  8
YODOROGO
100
AcDbLine
 10
14396.80217064594
 20
801.8747482146444
 30
0.0
 11
14396.80217064594
 21
833.8747482146439
 31
0.0
  0
LINE
  5
17968
330
17637
100
AcDbEntity
  8
YODOROGO
100
AcDbLine
 10
14396.80217064594
 20
833.8747482146439
 30
0.0
 11
14328.80217064594
 21
833.8747482146439
 31
0.0
  0
LINE
  5
17969
330
17637
100
AcDbEntity
  8
YODOROGO
100
AcDbLine
 10
14328.80217064594
 20
833.8747482146439
 30
0.0
 11
14328.80217064594
 21
873.8747482146449
 31
0.0
  0
LINE
  5
1796A
330
17637
100
AcDbEntity
  8
YODOROGO
100
AcDbLine
 10
14328.80217064594
 20
873.8747482146449
 30
0.0
 11
14396.80217064594
 21
873.8747482146449
 31
0.0
  0
LINE
  5
1796B
330
17637
100
AcDbEntity
  8
YODOROGO
100
AcDbLine
 10
14396.80217064594
 20
873.8747482146449
 30
0.0
 11
14396.80217064594
 21
909.8747482146439
 31
0.0
  0
LINE
  5
1796C
330
17637
100
AcDbEntity
  8
YODOROGO
100
AcDbLine
 10
14396.80217064594
 20
909.8747482146439
 30
0.0
 11
14216.80217064594
 21
909.8747482146439
 31
0.0
  0
LINE
  5
1796D
330
17637
100
AcDbEntity
  8
YODOROGO
100
AcDbLine
 10
14216.80217064594
 20
909.8747482146439
 30
0.0
 11
14216.80217064594
 21
873.8747482146449
 31
0.0
  0
LINE
  5
1796E
330
17637
100
AcDbEntity
  8
YODOROGO
100
AcDbLine
 10
14216.80217064594
 20
933.8747482146439
 30
0.0
 11
14216.80217064594
 21
993.8747482146439
 31
0.0
  0
LINE
  5
1796F
330
17637
100
AcDbEntity
  8
YODOROGO
100
AcDbLine
 10
14216.80217064594
 20
993.8747482146439
 30
0.0
 11
14292.80217064596
 21
993.8747482146439
 31
0.0
  0
LINE
  5
17970
330
17637
100
AcDbEntity
  8
YODOROGO
100
AcDbLine
 10
14292.80217064596
 20
993.8747482146439
 30
0.0
 11
14292.80217064596
 21
1013.874748214644
 31
0.0
  0
LINE
  5
17971
330
17637
100
AcDbEntity
  8
YODOROGO
100
AcDbLine
 10
14292.80217064596
 20
1013.874748214644
 30
0.0
 11
14328.80217064596
 21
1013.874748214644
 31
0.0
  0
LINE
  5
17972
330
17637
100
AcDbEntity
  8
YODOROGO
100
AcDbLine
 10
14328.80217064596
 20
1013.874748214644
 30
0.0
 11
14328.80217064596
 21
993.8747482146439
 31
0.0
  0
LINE
  5
17973
330
17637
100
AcDbEntity
  8
YODOROGO
100
AcDbLine
 10
14328.80217064596
 20
993.8747482146439
 30
0.0
 11
14376.80217064594
 21
993.8747482146439
 31
0.0
  0
ARC
  5
17974
330
17637
100
AcDbEntity
  8
YODOROGO
100
AcDbCircle
 10
14376.80217064594
 20
973.8747482146434
 30
0.0
 40
20.0
100
AcDbArc
 50
0.0
 51
90.0
  0
LINE
  5
17975
330
17637
100
AcDbEntity
  8
YODOROGO
100
AcDbLine
 10
14396.80217064594
 20
973.8747482146434
 30
0.0
 11
14396.80217064594
 21
933.8747482146439
 31
0.0
  0
LINE
  5
17976
330
17637
100
AcDbEntity
  8
YODOROGO
100
AcDbLine
 10
14396.80217064594
 20
933.8747482146439
 30
0.0
 11
14364.80217064596
 21
933.8747482146439
 31
0.0
  0
LINE
  5
17977
330
17637
100
AcDbEntity
  8
YODOROGO
100
AcDbLine
 10
14364.80217064596
 20
933.8747482146439
 30
0.0
 11
14364.80217064596
 21
961.8747482146432
 31
0.0
  0
LINE
  5
17978
330
17637
100
AcDbEntity
  8
YODOROGO
100
AcDbLine
 10
14364.80217064596
 20
961.8747482146432
 30
0.0
 11
14248.80217064594
 21
961.8747482146432
 31
0.0
  0
LINE
  5
17979
330
17637
100
AcDbEntity
  8
YODOROGO
100
AcDbLine
 10
14248.80217064594
 20
961.8747482146432
 30
0.0
 11
14248.80217064594
 21
933.8747482146439
 31
0.0
  0
LINE
  5
1797A
330
17637
100
AcDbEntity
  8
YODOROGO
100
AcDbLine
 10
14248.80217064594
 20
933.8747482146439
 30
0.0
 11
14216.80217064594
 21
933.8747482146439
 31
0.0
  0
LINE
  5
1797B
330
17637
100
AcDbEntity
  8
YODOROGO
100
AcDbLine
 10
14836.80217064596
 20
885.8747482146441
 30
0.0
 11
14882.80217064596
 21
885.8747482146441
 31
0.0
1001
AUTOCAD_POSTSCRIPT_FIGURE
1002
{
1000
PSFILL
1000
Grayscale
1000
Grayscale
1070
    25
1002
}
  0
LINE
  5
1797C
330
17637
100
AcDbEntity
  8
YODOROGO
100
AcDbLine
 10
14882.80217064596
 20
885.8747482146441
 30
0.0
 11
14882.80217064596
 21
853.874748214644
 31
0.0
1001
AUTOCAD_POSTSCRIPT_FIGURE
1002
{
1000
PSFILL
1000
Grayscale
1000
Grayscale
1070
    25
1002
}
  0
LINE
  5
1797D
330
17637
100
AcDbEntity
  8
YODOROGO
100
AcDbLine
 10
14882.80217064596
 20
853.874748214644
 30
0.0
 11
14914.80217064596
 21
853.874748214644
 31
0.0
1001
AUTOCAD_POSTSCRIPT_FIGURE
1002
{
1000
PSFILL
1000
Grayscale
1000
Grayscale
1070
    25
1002
}
  0
LINE
  5
1797E
330
17637
100
AcDbEntity
  8
YODOROGO
100
AcDbLine
 10
14914.80217064596
 20
853.874748214644
 30
0.0
 11
14914.80217064596
 21
885.8747482146441
 31
0.0
1001
AUTOCAD_POSTSCRIPT_FIGURE
1002
{
1000
PSFILL
1000
Grayscale
1000
Grayscale
1070
    25
1002
}
  0
LINE
  5
1797F
330
17637
100
AcDbEntity
  8
YODOROGO
100
AcDbLine
 10
14914.80217064596
 20
885.8747482146441
 30
0.0
 11
14960.80217064594
 21
885.8747482146441
 31
0.0
1001
AUTOCAD_POSTSCRIPT_FIGURE
1002
{
1000
PSFILL
1000
Grayscale
1000
Grayscale
1070
    25
1002
}
  0
LINE
  5
17980
330
17637
100
AcDbEntity
  8
YODOROGO
100
AcDbLine
 10
14960.80217064594
 20
885.8747482146441
 30
0.0
 11
14960.80217064594
 21
853.874748214644
 31
0.0
1001
AUTOCAD_POSTSCRIPT_FIGURE
1002
{
1000
PSFILL
1000
Grayscale
1000
Grayscale
1070
    25
1002
}
  0
LINE
  5
17981
330
17637
100
AcDbEntity
  8
YODOROGO
100
AcDbLine
 10
14960.80217064594
 20
853.874748214644
 30
0.0
 11
14988.80217064596
 21
853.874748214644
 31
0.0
1001
AUTOCAD_POSTSCRIPT_FIGURE
1002
{
1000
PSFILL
1000
Grayscale
1000
Grayscale
1070
    25
1002
}
  0
LINE
  5
17982
330
17637
100
AcDbEntity
  8
YODOROGO
100
AcDbLine
 10
14988.80217064596
 20
853.874748214644
 30
0.0
 11
14988.80217064596
 21
909.8747482146439
 31
0.0
1001
AUTOCAD_POSTSCRIPT_FIGURE
1002
{
1000
PSFILL
1000
Grayscale
1000
Grayscale
1070
    25
1002
}
  0
LINE
  5
17983
330
17637
100
AcDbEntity
  8
YODOROGO
100
AcDbLine
 10
14988.80217064596
 20
909.8747482146439
 30
0.0
 11
14914.80217064596
 21
909.8747482146439
 31
0.0
1001
AUTOCAD_POSTSCRIPT_FIGURE
1002
{
1000
PSFILL
1000
Grayscale
1000
Grayscale
1070
    25
1002
}
  0
LINE
  5
17984
330
17637
100
AcDbEntity
  8
YODOROGO
100
AcDbLine
 10
14914.80217064596
 20
909.8747482146439
 30
0.0
 11
14914.80217064596
 21
929.874748214644
 31
0.0
1001
AUTOCAD_POSTSCRIPT_FIGURE
1002
{
1000
PSFILL
1000
Grayscale
1000
Grayscale
1070
    25
1002
}
  0
LINE
  5
17985
330
17637
100
AcDbEntity
  8
YODOROGO
100
AcDbLine
 10
14914.80217064596
 20
929.874748214644
 30
0.0
 11
14988.80217064596
 21
929.874748214644
 31
0.0
1001
AUTOCAD_POSTSCRIPT_FIGURE
1002
{
1000
PSFILL
1000
Grayscale
1000
Grayscale
1070
    25
1002
}
  0
LINE
  5
17986
330
17637
100
AcDbEntity
  8
YODOROGO
100
AcDbLine
 10
14988.80217064596
 20
929.874748214644
 30
0.0
 11
14988.80217064596
 21
953.874748214644
 31
0.0
1001
AUTOCAD_POSTSCRIPT_FIGURE
1002
{
1000
PSFILL
1000
Grayscale
1000
Grayscale
1070
    25
1002
}
  0
LINE
  5
17987
330
17637
100
AcDbEntity
  8
YODOROGO
100
AcDbLine
 10
14988.80217064596
 20
953.874748214644
 30
0.0
 11
14914.80217064596
 21
953.874748214644
 31
0.0
1001
AUTOCAD_POSTSCRIPT_FIGURE
1002
{
1000
PSFILL
1000
Grayscale
1000
Grayscale
1070
    25
1002
}
  0
LINE
  5
17988
330
17637
100
AcDbEntity
  8
YODOROGO
100
AcDbLine
 10
14914.80217064596
 20
953.874748214644
 30
0.0
 11
14914.80217064596
 21
973.8747482146434
 31
0.0
1001
AUTOCAD_POSTSCRIPT_FIGURE
1002
{
1000
PSFILL
1000
Grayscale
1000
Grayscale
1070
    25
1002
}
  0
LINE
  5
17989
330
17637
100
AcDbEntity
  8
YODOROGO
100
AcDbLine
 10
14914.80217064596
 20
973.8747482146434
 30
0.0
 11
14988.80217064596
 21
973.8747482146434
 31
0.0
1001
AUTOCAD_POSTSCRIPT_FIGURE
1002
{
1000
PSFILL
1000
Grayscale
1000
Grayscale
1070
    25
1002
}
  0
LINE
  5
1798A
330
17637
100
AcDbEntity
  8
YODOROGO
100
AcDbLine
 10
14988.80217064596
 20
973.8747482146434
 30
0.0
 11
14988.80217064596
 21
997.8747482146435
 31
0.0
1001
AUTOCAD_POSTSCRIPT_FIGURE
1002
{
1000
PSFILL
1000
Grayscale
1000
Grayscale
1070
    25
1002
}
  0
LINE
  5
1798B
330
17637
100
AcDbEntity
  8
YODOROGO
100
AcDbLine
 10
14988.80217064596
 20
997.8747482146435
 30
0.0
 11
14914.80217064596
 21
997.8747482146435
 31
0.0
1001
AUTOCAD_POSTSCRIPT_FIGURE
1002
{
1000
PSFILL
1000
Grayscale
1000
Grayscale
1070
    25
1002
}
  0
LINE
  5
1798C
330
17637
100
AcDbEntity
  8
YODOROGO
100
AcDbLine
 10
14914.80217064596
 20
997.8747482146435
 30
0.0
 11
14914.80217064596
 21
1013.874748214644
 31
0.0
1001
AUTOCAD_POSTSCRIPT_FIGURE
1002
{
1000
PSFILL
1000
Grayscale
1000
Grayscale
1070
    25
1002
}
  0
LINE
  5
1798D
330
17637
100
AcDbEntity
  8
YODOROGO
100
AcDbLine
 10
14914.80217064596
 20
1013.874748214644
 30
0.0
 11
14882.80217064596
 21
1013.874748214644
 31
0.0
1001
AUTOCAD_POSTSCRIPT_FIGURE
1002
{
1000
PSFILL
1000
Grayscale
1000
Grayscale
1070
    25
1002
}
  0
LINE
  5
1798E
330
17637
100
AcDbEntity
  8
YODOROGO
100
AcDbLine
 10
14882.80217064596
 20
1013.874748214644
 30
0.0
 11
14882.80217064596
 21
997.8747482146435
 31
0.0
1001
AUTOCAD_POSTSCRIPT_FIGURE
1002
{
1000
PSFILL
1000
Grayscale
1000
Grayscale
1070
    25
1002
}
  0
LINE
  5
1798F
330
17637
100
AcDbEntity
  8
YODOROGO
100
AcDbLine
 10
14882.80217064596
 20
997.8747482146435
 30
0.0
 11
14832.80217064596
 21
997.8747482146435
 31
0.0
1001
AUTOCAD_POSTSCRIPT_FIGURE
1002
{
1000
PSFILL
1000
Grayscale
1000
Grayscale
1070
    25
1002
}
  0
LINE
  5
17990
330
17637
100
AcDbEntity
  8
YODOROGO
100
AcDbLine
 10
14832.80217064596
 20
997.8747482146435
 30
0.0
 11
14832.80217064596
 21
1013.874748214644
 31
0.0
1001
AUTOCAD_POSTSCRIPT_FIGURE
1002
{
1000
PSFILL
1000
Grayscale
1000
Grayscale
1070
    25
1002
}
  0
LINE
  5
17991
330
17637
100
AcDbEntity
  8
YODOROGO
100
AcDbLine
 10
14832.80217064596
 20
1013.874748214644
 30
0.0
 11
14808.80217064596
 21
1013.874748214644
 31
0.0
1001
AUTOCAD_POSTSCRIPT_FIGURE
1002
{
1000
PSFILL
1000
Grayscale
1000
Grayscale
1070
    25
1002
}
  0
LINE
  5
17992
330
17637
100
AcDbEntity
  8
YODOROGO
100
AcDbLine
 10
14808.80217064596
 20
1013.874748214644
 30
0.0
 11
14808.80217064596
 21
973.8747482146434
 31
0.0
1001
AUTOCAD_POSTSCRIPT_FIGURE
1002
{
1000
PSFILL
1000
Grayscale
1000
Grayscale
1070
    25
1002
}
  0
LINE
  5
17993
330
17637
100
AcDbEntity
  8
YODOROGO
100
AcDbLine
 10
14808.80217064596
 20
973.8747482146434
 30
0.0
 11
14882.80217064596
 21
973.8747482146434
 31
0.0
1001
AUTOCAD_POSTSCRIPT_FIGURE
1002
{
1000
PSFILL
1000
Grayscale
1000
Grayscale
1070
    25
1002
}
  0
LINE
  5
17994
330
17637
100
AcDbEntity
  8
YODOROGO
100
AcDbLine
 10
14882.80217064596
 20
973.8747482146434
 30
0.0
 11
14882.80217064596
 21
953.874748214644
 31
0.0
1001
AUTOCAD_POSTSCRIPT_FIGURE
1002
{
1000
PSFILL
1000
Grayscale
1000
Grayscale
1070
    25
1002
}
  0
LINE
  5
17995
330
17637
100
AcDbEntity
  8
YODOROGO
100
AcDbLine
 10
14882.80217064596
 20
953.874748214644
 30
0.0
 11
14808.80217064596
 21
953.874748214644
 31
0.0
1001
AUTOCAD_POSTSCRIPT_FIGURE
1002
{
1000
PSFILL
1000
Grayscale
1000
Grayscale
1070
    25
1002
}
  0
LINE
  5
17996
330
17637
100
AcDbEntity
  8
YODOROGO
100
AcDbLine
 10
14808.80217064596
 20
953.874748214644
 30
0.0
 11
14808.80217064596
 21
929.874748214644
 31
0.0
1001
AUTOCAD_POSTSCRIPT_FIGURE
1002
{
1000
PSFILL
1000
Grayscale
1000
Grayscale
1070
    25
1002
}
  0
LINE
  5
17997
330
17637
100
AcDbEntity
  8
YODOROGO
100
AcDbLine
 10
14808.80217064596
 20
929.874748214644
 30
0.0
 11
14882.80217064596
 21
929.874748214644
 31
0.0
1001
AUTOCAD_POSTSCRIPT_FIGURE
1002
{
1000
PSFILL
1000
Grayscale
1000
Grayscale
1070
    25
1002
}
  0
LINE
  5
17998
330
17637
100
AcDbEntity
  8
YODOROGO
100
AcDbLine
 10
14882.80217064596
 20
929.874748214644
 30
0.0
 11
14882.80217064596
 21
909.8747482146439
 31
0.0
1001
AUTOCAD_POSTSCRIPT_FIGURE
1002
{
1000
PSFILL
1000
Grayscale
1000
Grayscale
1070
    25
1002
}
  0
LINE
  5
17999
330
17637
100
AcDbEntity
  8
YODOROGO
100
AcDbLine
 10
14882.80217064596
 20
909.8747482146439
 30
0.0
 11
14808.80217064596
 21
909.8747482146439
 31
0.0
1001
AUTOCAD_POSTSCRIPT_FIGURE
1002
{
1000
PSFILL
1000
Grayscale
1000
Grayscale
1070
    25
1002
}
  0
LINE
  5
1799A
330
17637
100
AcDbEntity
  8
YODOROGO
100
AcDbLine
 10
14808.80217064596
 20
909.8747482146439
 30
0.0
 11
14808.80217064596
 21
853.874748214644
 31
0.0
1001
AUTOCAD_POSTSCRIPT_FIGURE
1002
{
1000
PSFILL
1000
Grayscale
1000
Grayscale
1070
    25
1002
}
  0
LINE
  5
1799B
330
17637
100
AcDbEntity
  8
YODOROGO
100
AcDbLine
 10
14808.80217064596
 20
853.874748214644
 30
0.0
 11
14836.80217064596
 21
853.874748214644
 31
0.0
1001
AUTOCAD_POSTSCRIPT_FIGURE
1002
{
1000
PSFILL
1000
Grayscale
1000
Grayscale
1070
    25
1002
}
  0
LINE
  5
1799C
330
17637
100
AcDbEntity
  8
YODOROGO
100
AcDbLine
 10
14836.80217064596
 20
853.874748214644
 30
0.0
 11
14836.80217064596
 21
885.8747482146441
 31
0.0
1001
AUTOCAD_POSTSCRIPT_FIGURE
1002
{
1000
PSFILL
1000
Grayscale
1000
Grayscale
1070
    25
1002
}
  0
LINE
  5
1799D
330
17637
100
AcDbEntity
  8
YODOROGO
100
AcDbLine
 10
14968.80217064596
 20
740.6696674577553
 30
0.0
 11
14968.80217064596
 21
797.2655452655705
 31
0.0
  0
ARC
  5
1799E
330
17637
100
AcDbEntity
  8
YODOROGO
100
AcDbCircle
 10
15127.17387491394
 20
903.9323046166312
 30
0.0
 40
190.9434321028236
100
AcDbArc
 50
213.9611167766784
 51
264.4787207431779
  0
LINE
  5
1799F
330
17637
100
AcDbEntity
  8
YODOROGO
100
AcDbLine
 10
15108.80217064596
 20
713.8747482146428
 30
0.0
 11
15108.80217064596
 21
773.874748214644
 31
0.0
  0
ARC
  5
179A0
330
17637
100
AcDbEntity
  8
YODOROGO
100
AcDbCircle
 10
15115.02941435022
 20
934.4428574765011
 30
0.0
 40
160.6888181426452
100
AcDbArc
 50
260.6062929797
 51
267.7790355655591
  0
LINE
  5
179A1
330
17637
100
AcDbEntity
  8
YODOROGO
100
AcDbLine
 10
15088.80217064596
 20
775.9088612367134
 30
0.0
 11
15094.80217064596
 21
801.8747482146444
 31
0.0
  0
LINE
  5
179A2
330
17637
100
AcDbEntity
  8
YODOROGO
100
AcDbLine
 10
15094.80217064596
 20
801.8747482146444
 30
0.0
 11
15052.80217064596
 21
801.8747482146444
 31
0.0
  0
LINE
  5
179A3
330
17637
100
AcDbEntity
  8
YODOROGO
100
AcDbLine
 10
15052.80217064596
 20
801.8747482146444
 30
0.0
 11
15048.80217064598
 21
788.0364079349501
 31
0.0
  0
ARC
  5
179A4
330
17637
100
AcDbEntity
  8
YODOROGO
100
AcDbCircle
 10
15115.02941435068
 20
934.442857476448
 30
0.0
 40
160.6888181426116
100
AcDbArc
 50
228.6181454618984
 51
245.6602892489051
  0
LINE
  5
179A5
330
17637
100
AcDbEntity
  8
YODOROGO
100
AcDbLine
 10
15008.80217064596
 20
813.8747482146435
 30
0.0
 11
15108.80217064596
 21
813.8747482146435
 31
0.0
  0
LINE
  5
179A6
330
17637
100
AcDbEntity
  8
YODOROGO
100
AcDbLine
 10
15108.80217064596
 20
813.8747482146435
 30
0.0
 11
15108.80217064596
 21
833.8747482146439
 31
0.0
  0
LINE
  5
179A7
330
17637
100
AcDbEntity
  8
YODOROGO
100
AcDbLine
 10
15108.80217064596
 20
833.8747482146439
 30
0.0
 11
14974.80217064595
 21
833.8747482146439
 31
0.0
  0
LINE
  5
179A8
330
17637
100
AcDbEntity
  8
YODOROGO
100
AcDbLine
 10
14974.80217064595
 20
833.8747482146439
 30
0.0
 11
14974.80217064595
 21
853.874748214644
 31
0.0
  0
LINE
  5
179A9
330
17637
100
AcDbEntity
  8
YODOROGO
100
AcDbLine
 10
14974.80217064595
 20
853.874748214644
 30
0.0
 11
14942.80217064596
 21
853.874748214644
 31
0.0
  0
LINE
  5
179AA
330
17637
100
AcDbEntity
  8
YODOROGO
100
AcDbLine
 10
14942.80217064596
 20
853.874748214644
 30
0.0
 11
14942.80217064596
 21
833.8747482146439
 31
0.0
  0
LINE
  5
179AB
330
17637
100
AcDbEntity
  8
YODOROGO
100
AcDbLine
 10
14942.80217064596
 20
833.8747482146439
 30
0.0
 11
14808.80217064596
 21
833.8747482146439
 31
0.0
  0
LINE
  5
179AC
330
17637
100
AcDbEntity
  8
YODOROGO
100
AcDbLine
 10
14808.80217064596
 20
833.8747482146439
 30
0.0
 11
14808.80217064596
 21
813.8747482146435
 31
0.0
  0
LINE
  5
179AD
330
17637
100
AcDbEntity
  8
YODOROGO
100
AcDbLine
 10
14808.80217064596
 20
813.8747482146435
 30
0.0
 11
14856.47231434973
 21
813.8747482146435
 31
0.0
  0
LINE
  5
179AE
330
17637
100
AcDbEntity
  8
YODOROGO
100
AcDbLine
 10
14856.47231434973
 20
813.8747482146435
 30
0.0
 11
14808.80217064596
 21
773.874748214644
 31
0.0
  0
LINE
  5
179AF
330
17637
100
AcDbEntity
  8
YODOROGO
100
AcDbLine
 10
14808.80217064596
 20
773.874748214644
 30
0.0
 11
14808.80217064596
 21
713.8747482146436
 31
0.0
  0
LINE
  5
179B0
330
17637
100
AcDbEntity
  8
YODOROGO
100
AcDbLine
 10
14808.80217064596
 20
713.8747482146436
 30
0.0
 11
14868.80217064596
 21
764.2207260852818
 31
0.0
  0
LINE
  5
179B1
330
17637
100
AcDbEntity
  8
YODOROGO
100
AcDbLine
 10
14868.80217064596
 20
764.2207260852818
 30
0.0
 11
14868.80217064596
 21
713.8747482146436
 31
0.0
  0
LINE
  5
179B2
330
17637
100
AcDbEntity
  8
YODOROGO
100
AcDbLine
 10
14868.80217064596
 20
713.8747482146436
 30
0.0
 11
14968.80217064596
 21
740.6696674577553
 31
0.0
  0
LINE
  5
179B3
330
17637
100
AcDbEntity
  8
YODOROGO
100
AcDbLine
 10
14888.80217064596
 20
813.8747482146435
 30
0.0
 11
14888.80217064596
 21
781.0027187088283
 31
0.0
  0
LINE
  5
179B4
330
17637
100
AcDbEntity
  8
YODOROGO
100
AcDbLine
 10
14888.80217064596
 20
781.0027187088283
 30
0.0
 11
14885.70493649264
 21
778.403830673117
 31
0.0
  0
LINE
  5
179B5
330
17637
100
AcDbEntity
  8
YODOROGO
100
AcDbLine
 10
14885.70493649264
 20
778.403830673117
 30
0.0
 11
14966.89206625426
 21
800.1578565285436
 31
0.0
  0
ARC
  5
179B6
330
17637
100
AcDbEntity
  8
YODOROGO
100
AcDbCircle
 10
15127.17387491396
 20
903.9323046166616
 30
0.0
 40
190.9434321028459
100
AcDbArc
 50
208.1411442048688
 51
212.9210361186024
  0
LINE
  5
179B7
330
17637
100
AcDbEntity
  8
YODOROGO
100
AcDbLine
 10
14958.80217064596
 20
813.8747482146435
 30
0.0
 11
14888.80217064596
 21
813.8747482146435
 31
0.0
  0
LINE
  5
179B8
330
17637
100
AcDbEntity
  8
YODOROGO
100
AcDbLine
 10
14968.80217064596
 20
740.6696674577553
 30
0.0
 11
14968.80217064596
 21
797.2655452655705
 31
0.0
  0
ARC
  5
179B9
330
17637
100
AcDbEntity
  8
YODOROGO
100
AcDbCircle
 10
15127.17387491394
 20
903.9323046166312
 30
0.0
 40
190.9434321028236
100
AcDbArc
 50
213.9611167766784
 51
264.4787207431779
  0
LINE
  5
179BA
330
17637
100
AcDbEntity
  8
YODOROGO
100
AcDbLine
 10
15108.80217064596
 20
713.8747482146428
 30
0.0
 11
15108.80217064596
 21
773.874748214644
 31
0.0
  0
ARC
  5
179BB
330
17637
100
AcDbEntity
  8
YODOROGO
100
AcDbCircle
 10
15115.02941435022
 20
934.4428574765011
 30
0.0
 40
160.6888181426452
100
AcDbArc
 50
260.6062929797
 51
267.7790355655591
  0
LINE
  5
179BC
330
17637
100
AcDbEntity
  8
YODOROGO
100
AcDbLine
 10
15088.80217064596
 20
775.9088612367134
 30
0.0
 11
15094.80217064596
 21
801.8747482146444
 31
0.0
  0
LINE
  5
179BD
330
17637
100
AcDbEntity
  8
YODOROGO
100
AcDbLine
 10
15094.80217064596
 20
801.8747482146444
 30
0.0
 11
15052.80217064596
 21
801.8747482146444
 31
0.0
  0
LINE
  5
179BE
330
17637
100
AcDbEntity
  8
YODOROGO
100
AcDbLine
 10
15052.80217064596
 20
801.8747482146444
 30
0.0
 11
15048.80217064598
 21
788.0364079349501
 31
0.0
  0
ARC
  5
179BF
330
17637
100
AcDbEntity
  8
YODOROGO
100
AcDbCircle
 10
15115.02941435068
 20
934.442857476448
 30
0.0
 40
160.6888181426116
100
AcDbArc
 50
228.6181454618984
 51
245.6602892489051
  0
LINE
  5
179C0
330
17637
100
AcDbEntity
  8
YODOROGO
100
AcDbLine
 10
15008.80217064596
 20
813.8747482146435
 30
0.0
 11
15108.80217064596
 21
813.8747482146435
 31
0.0
  0
LINE
  5
179C1
330
17637
100
AcDbEntity
  8
YODOROGO
100
AcDbLine
 10
15108.80217064596
 20
813.8747482146435
 30
0.0
 11
15108.80217064596
 21
833.8747482146439
 31
0.0
  0
LINE
  5
179C2
330
17637
100
AcDbEntity
  8
YODOROGO
100
AcDbLine
 10
15108.80217064596
 20
833.8747482146439
 30
0.0
 11
14974.80217064595
 21
833.8747482146439
 31
0.0
  0
LINE
  5
179C3
330
17637
100
AcDbEntity
  8
YODOROGO
100
AcDbLine
 10
14974.80217064595
 20
833.8747482146439
 30
0.0
 11
14974.80217064595
 21
853.874748214644
 31
0.0
  0
LINE
  5
179C4
330
17637
100
AcDbEntity
  8
YODOROGO
100
AcDbLine
 10
14974.80217064595
 20
853.874748214644
 30
0.0
 11
14942.80217064596
 21
853.874748214644
 31
0.0
  0
LINE
  5
179C5
330
17637
100
AcDbEntity
  8
YODOROGO
100
AcDbLine
 10
14942.80217064596
 20
853.874748214644
 30
0.0
 11
14942.80217064596
 21
833.8747482146439
 31
0.0
  0
LINE
  5
179C6
330
17637
100
AcDbEntity
  8
YODOROGO
100
AcDbLine
 10
14942.80217064596
 20
833.8747482146439
 30
0.0
 11
14808.80217064596
 21
833.8747482146439
 31
0.0
  0
LINE
  5
179C7
330
17637
100
AcDbEntity
  8
YODOROGO
100
AcDbLine
 10
14808.80217064596
 20
833.8747482146439
 30
0.0
 11
14808.80217064596
 21
813.8747482146435
 31
0.0
  0
LINE
  5
179C8
330
17637
100
AcDbEntity
  8
YODOROGO
100
AcDbLine
 10
14808.80217064596
 20
813.8747482146435
 30
0.0
 11
14856.47231434973
 21
813.8747482146435
 31
0.0
  0
LINE
  5
179C9
330
17637
100
AcDbEntity
  8
YODOROGO
100
AcDbLine
 10
14856.47231434973
 20
813.8747482146435
 30
0.0
 11
14808.80217064596
 21
773.874748214644
 31
0.0
  0
LINE
  5
179CA
330
17637
100
AcDbEntity
  8
YODOROGO
100
AcDbLine
 10
14808.80217064596
 20
773.874748214644
 30
0.0
 11
14808.80217064596
 21
713.8747482146436
 31
0.0
  0
LINE
  5
179CB
330
17637
100
AcDbEntity
  8
YODOROGO
100
AcDbLine
 10
14808.80217064596
 20
713.8747482146436
 30
0.0
 11
14868.80217064596
 21
764.2207260852818
 31
0.0
  0
LINE
  5
179CC
330
17637
100
AcDbEntity
  8
YODOROGO
100
AcDbLine
 10
14868.80217064596
 20
764.2207260852818
 30
0.0
 11
14868.80217064596
 21
713.8747482146436
 31
0.0
  0
LINE
  5
179CD
330
17637
100
AcDbEntity
  8
YODOROGO
100
AcDbLine
 10
14868.80217064596
 20
713.8747482146436
 30
0.0
 11
14968.80217064596
 21
740.6696674577553
 31
0.0
  0
LINE
  5
179CE
330
17637
100
AcDbEntity
  8
SUNPOU
100
AcDbLine
 10
4039.797051267462
 20
2679.0848394196
 30
0.0
 11
3915.443655266705
 21
2679.0848394196
 31
0.0
  0
LINE
  5
179CF
330
17637
100
AcDbEntity
  8
SUNPOU
100
AcDbLine
 10
4039.797051267462
 20
2519.084839419599
 30
0.0
 11
3915.443655266705
 21
2519.084839419599
 31
0.0
  0
LINE
  5
179D0
330
17637
100
AcDbEntity
  8
SUNPOU
100
AcDbLine
 10
3960.443655266704
 20
2659.0848394196
 30
0.0
 11
3960.443655266704
 21
2539.084839419599
 31
0.0
  0
LINE
  5
179D1
330
17637
100
AcDbEntity
  8
SUNPOU
100
AcDbLine
 10
3960.443655266704
 20
2519.084839419599
 30
0.0
 11
3960.443655266704
 21
2263.370553705313
 31
0.0
  0
LINE
  5
179D2
330
17637
100
AcDbEntity
  8
SUNPOU
100
AcDbLine
 10
4199.797051267464
 20
3447.084839419609
 30
0.0
 11
3689.570805027805
 21
3447.084839419609
 31
0.0
  0
LINE
  5
179D3
330
17637
100
AcDbEntity
  8
SUNPOU
100
AcDbLine
 10
4039.797051267462
 20
2519.084839419599
 30
0.0
 11
3689.570805027805
 21
2519.084839419599
 31
0.0
  0
LINE
  5
179D4
330
17637
100
AcDbEntity
  8
SUNPOU
100
AcDbLine
 10
3734.570805027805
 20
3427.084839419608
 30
0.0
 11
3734.570805027805
 21
2539.084839419599
 31
0.0
  0
LINE
  5
179D5
330
17637
100
AcDbEntity
  8
SUNPOU
100
AcDbLine
 10
3510.267049849614
 20
3367.084839419608
 30
0.0
 11
3503.943950703809
 21
3367.084839419608
 31
0.0
  0
LINE
  5
179D6
330
17637
100
AcDbEntity
  8
SUNPOU
100
AcDbLine
 10
4199.797051267464
 20
3447.084839419609
 30
0.0
 11
3503.943950703809
 21
3447.084839419609
 31
0.0
  0
LINE
  5
179D7
330
17637
100
AcDbEntity
  8
SUNPOU
100
AcDbLine
 10
3548.94395070381
 20
3347.084839419609
 30
0.0
 11
3548.94395070381
 21
3327.084839419608
 31
0.0
  0
LINE
  5
179D8
330
17637
100
AcDbEntity
  8
SUNPOU
100
AcDbLine
 10
3548.94395070381
 20
3467.084839419608
 30
0.0
 11
3548.94395070381
 21
3674.227696562466
 31
0.0
  0
LINE
  5
179D9
330
17637
100
AcDbEntity
  8
SUNPOU
100
AcDbLine
 10
3548.94395070381
 20
3367.084839419608
 30
0.0
 11
3548.94395070381
 21
3447.084839419609
 31
0.0
  0
LINE
  5
179DA
330
17637
100
AcDbEntity
  8
SUNPOU
100
AcDbLine
 10
6962.352669555738
 20
3367.084839419608
 30
0.0
 11
6956.029570409933
 21
3367.084839419608
 31
0.0
  0
LINE
  5
179DB
330
17637
100
AcDbEntity
  8
SUNPOU
100
AcDbLine
 10
7651.882670973588
 20
3447.084839419608
 30
0.0
 11
6956.029570409933
 21
3447.084839419609
 31
0.0
  0
LINE
  5
179DC
330
17637
100
AcDbEntity
  8
SUNPOU
100
AcDbLine
 10
7001.029570409933
 20
3347.084839419608
 30
0.0
 11
7001.029570409933
 21
3327.084839419608
 31
0.0
  0
LINE
  5
179DD
330
17637
100
AcDbEntity
  8
SUNPOU
100
AcDbLine
 10
7001.029570409933
 20
3467.084839419608
 30
0.0
 11
7001.029570409933
 21
3674.227696562466
 31
0.0
  0
LINE
  5
179DE
330
17637
100
AcDbEntity
  8
SUNPOU
100
AcDbLine
 10
7001.029570409933
 20
3367.084839419608
 30
0.0
 11
7001.029570409933
 21
3447.084839419609
 31
0.0
  0
LINE
  5
179DF
330
17637
100
AcDbEntity
  8
SUNPOU
100
AcDbLine
 10
8051.882670973588
 20
2679.084839419599
 30
0.0
 11
7421.741617209526
 21
2679.084839419599
 31
0.0
  0
LINE
  5
179E0
330
17637
100
AcDbEntity
  8
SUNPOU
100
AcDbLine
 10
8051.882670973588
 20
2519.084839419599
 30
0.0
 11
7421.741617209526
 21
2519.084839419599
 31
0.0
  0
LINE
  5
179E1
330
17637
100
AcDbEntity
  8
SUNPOU
100
AcDbLine
 10
7466.741617209526
 20
2659.084839419599
 30
0.0
 11
7466.741617209526
 21
2539.084839419599
 31
0.0
  0
LINE
  5
179E2
330
17637
100
AcDbEntity
  8
SUNPOU
100
AcDbLine
 10
7466.741617209526
 20
2519.084839419599
 30
0.0
 11
7466.741617209526
 21
2263.370553705313
 31
0.0
  0
LINE
  5
179E3
330
17637
100
AcDbEntity
  8
SUNPOU
100
AcDbLine
 10
7651.882670973588
 20
3447.084839419608
 30
0.0
 11
7224.149830425107
 21
3447.084839419608
 31
0.0
  0
LINE
  5
179E4
330
17637
100
AcDbEntity
  8
SUNPOU
100
AcDbLine
 10
8051.882670973588
 20
2519.084839419599
 30
0.0
 11
7224.149830425107
 21
2519.084839419599
 31
0.0
  0
LINE
  5
179E5
330
17637
100
AcDbEntity
  8
SUNPOU
100
AcDbLine
 10
7269.149830425106
 20
3427.084839419608
 30
0.0
 11
7269.149830425106
 21
2539.084839419599
 31
0.0
  0
LINE
  5
179E6
330
17637
100
AcDbEntity
  8
SUNPOU
  6
ByBlock
100
AcDbLine
 10
3960.443655266704
 20
2664.084839419599
 30
0.0
 11
3960.443655266704
 21
2649.0848394196
 31
0.0
  0
TEXT
  5
179E7
330
17637
100
AcDbEntity
  8
SUNPOU
100
AcDbText
 10
3915.443655266705
 20
2849.370553705313
 30
0.0
 40
90.0
  1
320
 50
90.0
 41
0.6666666666666666
  7
00
100
AcDbText
  0
LINE
  5
179E8
330
17637
100
AcDbEntity
  8
SUNPOU
  6
ByBlock
100
AcDbLine
 10
3960.443655266704
 20
3176.084839419596
 30
0.0
 11
3960.443655266704
 21
3161.084839419597
 31
0.0
  0
LINE
  5
179E9
330
17637
100
AcDbEntity
  8
SUNPOU
  6
ByBlock
100
AcDbLine
 10
3960.443655266704
 20
2694.0848394196
 30
0.0
 11
3960.443655266704
 21
2709.0848394196
 31
0.0
  0
TEXT
  5
179EA
330
17637
100
AcDbEntity
  8
SUNPOU
100
AcDbText
 10
3915.443655266705
 20
3523.513410848181
 30
0.0
 40
90.0
  1
80
 50
90.0
 41
0.6666666666666666
  7
00
100
AcDbText
  0
LINE
  5
179EB
330
17637
100
AcDbEntity
  8
SUNPOU
  6
ByBlock
100
AcDbLine
 10
3960.443655266704
 20
3462.084839419608
 30
0.0
 11
3960.443655266704
 21
3477.084839419608
 31
0.0
  0
LINE
  5
179EC
330
17637
100
AcDbEntity
  8
SUNPOU
  6
ByBlock
100
AcDbLine
 10
3960.443655266704
 20
3304.0848394196
 30
0.0
 11
3960.443655266704
 21
3289.084839419599
 31
0.0
  0
TEXT
  5
179ED
330
17637
100
AcDbEntity
  8
SUNPOU
100
AcDbText
 10
3915.443655266705
 20
3197.941982276741
 30
0.0
 40
90.0
  1
80
 50
90.0
 41
0.6666666666666666
  7
00
100
AcDbText
  0
LINE
  5
179EE
330
17637
100
AcDbEntity
  8
SUNPOU
  6
ByBlock
100
AcDbLine
 10
3960.443655266705
 20
3176.084839419596
 30
0.0
 11
3960.443655266705
 21
3161.084839419597
 31
0.0
  0
LINE
  5
179EF
330
17637
100
AcDbEntity
  8
SUNPOU
  6
ByBlock
100
AcDbLine
 10
3960.443655266705
 20
3334.0848394196
 30
0.0
 11
3960.443655266705
 21
3349.0848394196
 31
0.0
  0
LINE
  5
179F0
330
17637
100
AcDbEntity
  8
SUNPOU
  6
ByBlock
100
AcDbLine
 10
7466.741617209526
 20
2664.084839419599
 30
0.0
 11
7466.741617209526
 21
2649.084839419599
 31
0.0
  0
TEXT
  5
179F1
330
17637
100
AcDbEntity
  8
SUNPOU
100
AcDbText
 10
7421.741617209526
 20
2849.370553705315
 30
0.0
 40
90.0
  1
320
 50
90.0
 41
0.6666666666666666
  7
00
100
AcDbText
  0
LINE
  5
179F2
330
17637
100
AcDbEntity
  8
SUNPOU
  6
ByBlock
100
AcDbLine
 10
7466.741617209526
 20
3176.084839419599
 30
0.0
 11
7466.741617209526
 21
3161.084839419599
 31
0.0
  0
LINE
  5
179F3
330
17637
100
AcDbEntity
  8
SUNPOU
  6
ByBlock
100
AcDbLine
 10
7466.741617209526
 20
2694.084839419599
 30
0.0
 11
7466.741617209526
 21
2709.084839419599
 31
0.0
  0
TEXT
  5
179F4
330
17637
100
AcDbEntity
  8
SUNPOU
100
AcDbText
 10
7421.741617209526
 20
3523.513410848181
 30
0.0
 40
90.0
  1
80
 50
90.0
 41
0.6666666666666666
  7
00
100
AcDbText
  0
LINE
  5
179F5
330
17637
100
AcDbEntity
  8
SUNPOU
  6
ByBlock
100
AcDbLine
 10
7466.741617209526
 20
3462.084839419608
 30
0.0
 11
7466.741617209526
 21
3477.084839419608
 31
0.0
  0
LINE
  5
179F6
330
17637
100
AcDbEntity
  8
SUNPOU
  6
ByBlock
100
AcDbLine
 10
7466.741617209526
 20
3304.084839419604
 30
0.0
 11
7466.741617209526
 21
3289.084839419603
 31
0.0
  0
TEXT
  5
179F7
330
17637
100
AcDbEntity
  8
SUNPOU
100
AcDbText
 10
7421.741617209526
 20
3197.941982276745
 30
0.0
 40
90.0
  1
80
 50
90.0
 41
0.6666666666666666
  7
00
100
AcDbText
  0
LINE
  5
179F8
330
17637
100
AcDbEntity
  8
SUNPOU
  6
ByBlock
100
AcDbLine
 10
7466.741617209527
 20
3176.084839419599
 30
0.0
 11
7466.741617209527
 21
3161.084839419599
 31
0.0
  0
LINE
  5
179F9
330
17637
100
AcDbEntity
  8
SUNPOU
  6
ByBlock
100
AcDbLine
 10
7466.741617209527
 20
3334.084839419603
 30
0.0
 11
7466.741617209527
 21
3349.084839419603
 31
0.0
  0
LINE
  5
179FA
330
17637
100
AcDbEntity
  8
SUNPOU
100
AcDbLine
 10
11645.33837406209
 20
3726.33703658456
 30
0.0
 11
12318.40680314955
 21
3726.33703658456
 31
0.0
  0
LINE
  5
179FB
330
17637
100
AcDbEntity
  8
SUNPOU
100
AcDbLine
 10
11645.33837406209
 20
3886.33703658456
 30
0.0
 11
12318.40680314955
 21
3886.33703658456
 31
0.0
  0
LINE
  5
179FC
330
17637
100
AcDbEntity
  8
SUNPOU
100
AcDbLine
 10
12273.40680314955
 20
3746.337036584561
 30
0.0
 11
12273.40680314955
 21
3866.33703658456
 31
0.0
  0
LINE
  5
179FD
330
17637
100
AcDbEntity
  8
SUNPOU
100
AcDbLine
 10
12273.40680314955
 20
3886.33703658456
 30
0.0
 11
12273.40680314955
 21
4093.479893727416
 31
0.0
  0
LINE
  5
179FE
330
17637
100
AcDbEntity
  8
SUNPOU
100
AcDbLine
 10
11645.33837406209
 20
3726.33703658456
 30
0.0
 11
12318.40680314955
 21
3726.33703658456
 31
0.0
  0
LINE
  5
179FF
330
17637
100
AcDbEntity
  8
SUNPOU
100
AcDbLine
 10
11901.33837406209
 20
3618.337036584561
 30
0.0
 11
12318.40680314955
 21
3618.337036584561
 31
0.0
  0
LINE
  5
17A00
330
17637
100
AcDbEntity
  8
SUNPOU
100
AcDbLine
 10
12273.40680314955
 20
3746.337036584561
 30
0.0
 11
12273.40680314955
 21
3766.33703658456
 31
0.0
  0
LINE
  5
17A01
330
17637
100
AcDbEntity
  8
SUNPOU
100
AcDbLine
 10
12273.40680314955
 20
3598.33703658456
 30
0.0
 11
12273.40680314955
 21
3391.194179441703
 31
0.0
  0
LINE
  5
17A02
330
17637
100
AcDbEntity
  8
SUNPOU
100
AcDbLine
 10
12273.40680314955
 20
3726.33703658456
 30
0.0
 11
12273.40680314955
 21
3618.337036584561
 31
0.0
  0
LINE
  5
17A03
330
17637
100
AcDbEntity
  8
SUNPOU
100
AcDbLine
 10
11781.33837406209
 20
2460.144344053149
 30
0.0
 11
11781.33837406209
 21
2200.804976716085
 31
0.0
  0
LINE
  5
17A04
330
17637
100
AcDbEntity
  8
SUNPOU
100
AcDbLine
 10
11861.33837406209
 20
2500.144344053149
 30
0.0
 11
11861.33837406209
 21
2200.804976716085
 31
0.0
  0
LINE
  5
17A05
330
17637
100
AcDbEntity
  8
SUNPOU
100
AcDbLine
 10
11761.33837406209
 20
2245.804976716085
 30
0.0
 11
11741.33837406209
 21
2245.804976716085
 31
0.0
  0
LINE
  5
17A06
330
17637
100
AcDbEntity
  8
SUNPOU
100
AcDbLine
 10
11881.33837406209
 20
2245.804976716085
 30
0.0
 11
12088.48123120495
 21
2245.804976716085
 31
0.0
  0
LINE
  5
17A07
330
17637
100
AcDbEntity
  8
SUNPOU
100
AcDbLine
 10
11781.33837406209
 20
2245.804976716085
 30
0.0
 11
11861.33837406209
 21
2245.804976716085
 31
0.0
  0
LINE
  5
17A08
330
17637
100
AcDbEntity
  8
SUNPOU
100
AcDbLine
 10
11301.33837406211
 20
2460.144344053149
 30
0.0
 11
11301.33837406211
 21
2200.804976716085
 31
0.0
  0
LINE
  5
17A09
330
17637
100
AcDbEntity
  8
SUNPOU
100
AcDbLine
 10
11781.33837406209
 20
2460.144344053149
 30
0.0
 11
11781.33837406209
 21
2200.804976716085
 31
0.0
  0
LINE
  5
17A0A
330
17637
100
AcDbEntity
  8
SUNPOU
100
AcDbLine
 10
11321.33837406211
 20
2245.804976716085
 30
0.0
 11
11761.33837406209
 21
2245.804976716085
 31
0.0
  0
LINE
  5
17A0B
330
17637
100
AcDbEntity
  8
SUNPOU
100
AcDbLine
 10
11301.33837406211
 20
2460.144344053149
 30
0.0
 11
11301.33837406211
 21
2200.804976716085
 31
0.0
  0
LINE
  5
17A0C
330
17637
100
AcDbEntity
  8
SUNPOU
100
AcDbLine
 10
11221.33837406209
 20
2500.144344053149
 30
0.0
 11
11221.33837406209
 21
2200.804976716085
 31
0.0
  0
LINE
  5
17A0D
330
17637
100
AcDbEntity
  8
SUNPOU
100
AcDbLine
 10
11321.33837406211
 20
2245.804976716085
 30
0.0
 11
11341.33837406211
 21
2245.804976716085
 31
0.0
  0
LINE
  5
17A0E
330
17637
100
AcDbEntity
  8
SUNPOU
100
AcDbLine
 10
11201.33837406209
 20
2245.804976716085
 30
0.0
 11
10994.19551691923
 21
2245.804976716085
 31
0.0
  0
LINE
  5
17A0F
330
17637
100
AcDbEntity
  8
SUNPOU
100
AcDbLine
 10
11301.33837406211
 20
2245.804976716085
 30
0.0
 11
11221.33837406209
 21
2245.804976716085
 31
0.0
  0
LINE
  5
17A10
330
17637
100
AcDbEntity
  8
SUNPOU
100
AcDbLine
 10
11221.33837406209
 20
2500.144344053149
 30
0.0
 11
11221.33837406209
 21
1990.804976716086
 31
0.0
  0
LINE
  5
17A11
330
17637
100
AcDbEntity
  8
SUNPOU
100
AcDbLine
 10
11861.33837406209
 20
2500.144344053149
 30
0.0
 11
11861.33837406209
 21
1990.804976716086
 31
0.0
  0
LINE
  5
17A12
330
17637
100
AcDbEntity
  8
SUNPOU
100
AcDbLine
 10
11241.33837406209
 20
2035.804976716086
 30
0.0
 11
11841.33837406209
 21
2035.804976716086
 31
0.0
  0
LINE
  5
17A13
330
17637
100
AcDbEntity
  8
SUNPOU
100
AcDbLine
 10
11185.33837406209
 20
2700.144344053149
 30
0.0
 11
10873.33837406209
 21
2700.144344053149
 31
0.0
  0
LINE
  5
17A14
330
17637
100
AcDbEntity
  8
SUNPOU
100
AcDbLine
 10
11181.33837406209
 20
2540.144344053149
 30
0.0
 11
10873.33837406209
 21
2540.144344053149
 31
0.0
  0
LINE
  5
17A15
330
17637
100
AcDbEntity
  8
SUNPOU
100
AcDbLine
 10
10918.33837406209
 20
2680.144344053149
 30
0.0
 11
10918.33837406209
 21
2560.144344053149
 31
0.0
  0
LINE
  5
17A16
330
17637
100
AcDbEntity
  8
SUNPOU
100
AcDbLine
 10
10918.33837406209
 20
2540.144344053149
 30
0.0
 11
10918.33837406209
 21
2333.001486910292
 31
0.0
  0
LINE
  5
17A17
330
17637
100
AcDbEntity
  8
SUNPOU
100
AcDbLine
 10
11185.33837406209
 20
2700.144344053149
 30
0.0
 11
10873.33837406209
 21
2700.144344053149
 31
0.0
  0
LINE
  5
17A18
330
17637
100
AcDbEntity
  8
SUNPOU
100
AcDbLine
 10
11181.33837406209
 20
2860.144344053149
 30
0.0
 11
10873.33837406209
 21
2860.144344053149
 31
0.0
  0
LINE
  5
17A19
330
17637
100
AcDbEntity
  8
SUNPOU
100
AcDbLine
 10
10918.33837406209
 20
2720.144344053149
 30
0.0
 11
10918.33837406209
 21
2840.144344053149
 31
0.0
  0
LINE
  5
17A1A
330
17637
100
AcDbEntity
  8
SUNPOU
100
AcDbLine
 10
10918.33837406209
 20
2860.144344053149
 30
0.0
 11
10918.33837406209
 21
3067.287201196007
 31
0.0
  0
LINE
  5
17A1B
330
17637
100
AcDbEntity
  8
SUNPOU
100
AcDbLine
 10
11181.33837406209
 20
2540.144344053149
 30
0.0
 11
10663.33837406209
 21
2540.144344053149
 31
0.0
  0
LINE
  5
17A1C
330
17637
100
AcDbEntity
  8
SUNPOU
100
AcDbLine
 10
11181.33837406209
 20
2860.144344053149
 30
0.0
 11
10663.33837406209
 21
2860.144344053149
 31
0.0
  0
LINE
  5
17A1D
330
17637
100
AcDbEntity
  8
SUNPOU
100
AcDbLine
 10
10708.33837406208
 20
2560.144344053149
 30
0.0
 11
10708.33837406208
 21
2840.144344053149
 31
0.0
  0
LINE
  5
17A1E
330
17637
100
AcDbEntity
  8
SUNPOU
100
AcDbLine
 10
11781.33837406209
 20
3538.337036584561
 30
0.0
 11
11781.33837406209
 21
3349.170862655058
 31
0.0
  0
LINE
  5
17A1F
330
17637
100
AcDbEntity
  8
SUNPOU
100
AcDbLine
 10
11861.33837406209
 20
3578.337036584561
 30
0.0
 11
11861.33837406209
 21
3349.170862655058
 31
0.0
  0
LINE
  5
17A20
330
17637
100
AcDbEntity
  8
SUNPOU
100
AcDbLine
 10
11761.33837406209
 20
3394.170862655057
 30
0.0
 11
11741.33837406209
 21
3394.170862655057
 31
0.0
  0
LINE
  5
17A21
330
17637
100
AcDbEntity
  8
SUNPOU
100
AcDbLine
 10
11881.33837406209
 20
3394.170862655057
 30
0.0
 11
12088.48123120495
 21
3394.170862655057
 31
0.0
  0
LINE
  5
17A22
330
17637
100
AcDbEntity
  8
SUNPOU
100
AcDbLine
 10
11781.33837406209
 20
3394.170862655057
 30
0.0
 11
11861.33837406209
 21
3394.170862655057
 31
0.0
  0
LINE
  5
17A23
330
17637
100
AcDbEntity
  8
SUNPOU
100
AcDbLine
 10
11301.33837406211
 20
3538.337036584561
 30
0.0
 11
11301.33837406211
 21
3349.170862655058
 31
0.0
  0
LINE
  5
17A24
330
17637
100
AcDbEntity
  8
SUNPOU
100
AcDbLine
 10
11781.33837406209
 20
3538.337036584561
 30
0.0
 11
11781.33837406209
 21
3349.170862655058
 31
0.0
  0
LINE
  5
17A25
330
17637
100
AcDbEntity
  8
SUNPOU
100
AcDbLine
 10
11321.33837406211
 20
3394.170862655057
 30
0.0
 11
11761.33837406209
 21
3394.170862655057
 31
0.0
  0
LINE
  5
17A26
330
17637
100
AcDbEntity
  8
SUNPOU
100
AcDbLine
 10
11301.33837406211
 20
3538.337036584561
 30
0.0
 11
11301.33837406211
 21
3349.170862655058
 31
0.0
  0
LINE
  5
17A27
330
17637
100
AcDbEntity
  8
SUNPOU
100
AcDbLine
 10
11221.33837406209
 20
3578.337036584561
 30
0.0
 11
11221.33837406209
 21
3349.170862655058
 31
0.0
  0
LINE
  5
17A28
330
17637
100
AcDbEntity
  8
SUNPOU
100
AcDbLine
 10
11321.33837406211
 20
3394.170862655057
 30
0.0
 11
11341.33837406211
 21
3394.170862655057
 31
0.0
  0
LINE
  5
17A29
330
17637
100
AcDbEntity
  8
SUNPOU
100
AcDbLine
 10
11201.33837406209
 20
3394.170862655057
 30
0.0
 11
10994.19551691923
 21
3394.170862655057
 31
0.0
  0
LINE
  5
17A2A
330
17637
100
AcDbEntity
  8
SUNPOU
100
AcDbLine
 10
11301.33837406211
 20
3394.170862655057
 30
0.0
 11
11221.33837406209
 21
3394.170862655057
 31
0.0
  0
LINE
  5
17A2B
330
17637
100
AcDbEntity
  8
SUNPOU
100
AcDbLine
 10
11221.33837406209
 20
3578.337036584561
 30
0.0
 11
11221.33837406209
 21
3139.170862655058
 31
0.0
  0
LINE
  5
17A2C
330
17637
100
AcDbEntity
  8
SUNPOU
100
AcDbLine
 10
11861.33837406209
 20
3578.337036584561
 30
0.0
 11
11861.33837406209
 21
3139.170862655058
 31
0.0
  0
LINE
  5
17A2D
330
17637
100
AcDbEntity
  8
SUNPOU
100
AcDbLine
 10
11241.33837406209
 20
3184.170862655058
 30
0.0
 11
11841.33837406209
 21
3184.170862655058
 31
0.0
  0
LINE
  5
17A2E
330
17637
100
AcDbEntity
  8
SUNPOU
100
AcDbLine
 10
8251.882670973586
 20
2639.084839419599
 30
0.0
 11
8251.882670973586
 21
2071.684839419598
 31
0.0
  0
LINE
  5
17A2F
330
17637
100
AcDbEntity
  8
SUNPOU
100
AcDbLine
 10
9371.882670973588
 20
2639.084839419599
 30
0.0
 11
9371.882670973588
 21
2071.684839419598
 31
0.0
  0
LINE
  5
17A30
330
17637
100
AcDbEntity
  8
SUNPOU
100
AcDbLine
 10
8271.882670973587
 20
2116.684839419598
 30
0.0
 11
9351.882670973585
 21
2116.684839419598
 31
0.0
  0
LINE
  5
17A31
330
17637
100
AcDbEntity
  8
SUNPOU
100
AcDbLine
 10
8091.882670973587
 20
2479.084839419599
 30
0.0
 11
8091.882670973587
 21
1861.684839419597
 31
0.0
  0
LINE
  5
17A32
330
17637
100
AcDbEntity
  8
SUNPOU
100
AcDbLine
 10
9531.882670973585
 20
2479.084839419599
 30
0.0
 11
9531.882670973585
 21
1861.684839419597
 31
0.0
  0
LINE
  5
17A33
330
17637
100
AcDbEntity
  8
SUNPOU
100
AcDbLine
 10
8111.882670973587
 20
1906.684839419597
 30
0.0
 11
9511.882670973584
 21
1906.684839419597
 31
0.0
  0
LINE
  5
17A34
330
17637
100
AcDbEntity
  8
SUNPOU
  6
ByBlock
100
AcDbLine
 10
10297.11317822383
 20
4130.485411556196
 30
0.0
 11
10237.11317822382
 21
4130.485411556196
 31
0.0
  0
LINE
  5
17A35
330
17637
100
AcDbEntity
  8
SUNPOU
  6
ByBlock
100
AcDbLine
 10
10297.11317822382
 20
4130.485411556196
 30
0.0
 11
10237.11317822382
 21
4146.562363102066
 31
0.0
  0
LINE
  5
17A36
330
17637
100
AcDbEntity
  8
SUNPOU
  6
ByBlock
100
AcDbLine
 10
10297.11317822383
 20
4130.485411556196
 30
0.0
 11
10237.11317822382
 21
4114.408460010326
 31
0.0
  0
LINE
  5
17A37
330
17637
100
AcDbEntity
  8
SUNPOU
100
AcDbLine
 10
8811.882670973586
 20
4170.485411556195
 30
0.0
 11
8811.882670973586
 21
4175.485411556194
 31
0.0
  0
LINE
  5
17A38
330
17637
100
AcDbEntity
  8
SUNPOU
100
AcDbLine
 10
7691.882670973587
 20
3487.084839419608
 30
0.0
 11
7691.882670973587
 21
4175.485411556194
 31
0.0
  0
LINE
  5
17A39
330
17637
100
AcDbEntity
  8
SUNPOU
100
AcDbLine
 10
8791.882670973585
 20
4130.485411556196
 30
0.0
 11
7711.882670973587
 21
4130.485411556196
 31
0.0
  0
LINE
  5
17A3A
330
17637
100
AcDbEntity
  8
SUNPOU
100
AcDbLine
 10
4239.797051267464
 20
2639.0848394196
 30
0.0
 11
4239.797051267464
 21
2071.684839419598
 31
0.0
  0
LINE
  5
17A3B
330
17637
100
AcDbEntity
  8
SUNPOU
100
AcDbLine
 10
5359.797051267463
 20
2639.084839419599
 30
0.0
 11
5359.797051267463
 21
2071.684839419598
 31
0.0
  0
LINE
  5
17A3C
330
17637
100
AcDbEntity
  8
SUNPOU
100
AcDbLine
 10
4259.797051267462
 20
2116.684839419598
 30
0.0
 11
5339.797051267463
 21
2116.684839419598
 31
0.0
  0
LINE
  5
17A3D
330
17637
100
AcDbEntity
  8
SUNPOU
100
AcDbLine
 10
4079.797051267461
 20
2479.084839419599
 30
0.0
 11
4079.797051267461
 21
1861.684839419597
 31
0.0
  0
LINE
  5
17A3E
330
17637
100
AcDbEntity
  8
SUNPOU
100
AcDbLine
 10
5519.797051267461
 20
2479.084839419599
 30
0.0
 11
5519.797051267461
 21
1861.684839419597
 31
0.0
  0
LINE
  5
17A3F
330
17637
100
AcDbEntity
  8
SUNPOU
100
AcDbLine
 10
4099.797051267461
 20
1906.684839419597
 30
0.0
 11
5499.797051267461
 21
1906.684839419597
 31
0.0
  0
LINE
  5
17A40
330
17637
100
AcDbEntity
  8
SUNPOU
  6
ByBlock
100
AcDbLine
 10
6285.027558517714
 20
4130.485411556192
 30
0.0
 11
6225.027558517701
 21
4130.485411556192
 31
0.0
  0
LINE
  5
17A41
330
17637
100
AcDbEntity
  8
SUNPOU
  6
ByBlock
100
AcDbLine
 10
6285.027558517706
 20
4130.485411556192
 30
0.0
 11
6225.027558517706
 21
4146.562363102062
 31
0.0
  0
LINE
  5
17A42
330
17637
100
AcDbEntity
  8
SUNPOU
  6
ByBlock
100
AcDbLine
 10
6285.027558517714
 20
4130.485411556192
 30
0.0
 11
6225.027558517701
 21
4114.408460010323
 31
0.0
  0
LINE
  5
17A43
330
17637
100
AcDbEntity
  8
SUNPOU
100
AcDbLine
 10
4799.797051267463
 20
4170.485411556192
 30
0.0
 11
4799.797051267463
 21
4175.485411556191
 31
0.0
  0
LINE
  5
17A44
330
17637
100
AcDbEntity
  8
SUNPOU
100
AcDbLine
 10
4239.797051267464
 20
3487.084839419608
 30
0.0
 11
4239.797051267464
 21
4175.485411556191
 31
0.0
  0
LINE
  5
17A45
330
17637
100
AcDbEntity
  8
SUNPOU
100
AcDbLine
 10
4779.797051267464
 20
4130.485411556192
 30
0.0
 11
4259.797051267462
 21
4130.485411556192
 31
0.0
  0
LINE
  5
17A46
330
17637
100
AcDbEntity
  8
SUNPOU
100
AcDbLine
 10
12019.12750789964
 20
6468.693182432332
 30
0.0
 11
12019.12750789964
 21
6263.693182432332
 31
0.0
  0
LINE
  5
17A47
330
17637
100
AcDbEntity
  8
SUNPOU
100
AcDbLine
 10
12369.12750789964
 20
6668.693182432332
 30
0.0
 11
12369.12750789964
 21
6263.693182432332
 31
0.0
  0
LINE
  5
17A48
330
17637
100
AcDbEntity
  8
SUNPOU
100
AcDbLine
 10
12039.12750789964
 20
6308.693182432332
 30
0.0
 11
12349.12750789964
 21
6308.693182432332
 31
0.0
  0
LINE
  5
17A49
330
17637
100
AcDbEntity
  8
SUNPOU
100
AcDbLine
 10
9619.127507899648
 20
6468.693182432332
 30
0.0
 11
9619.127507899648
 21
6263.693182432332
 31
0.0
  0
LINE
  5
17A4A
330
17637
100
AcDbEntity
  8
SUNPOU
100
AcDbLine
 10
12019.12750789964
 20
6468.693182432332
 30
0.0
 11
12019.12750789964
 21
6263.693182432332
 31
0.0
  0
LINE
  5
17A4B
330
17637
100
AcDbEntity
  8
SUNPOU
100
AcDbLine
 10
9639.127507899649
 20
6308.693182432332
 30
0.0
 11
11999.12750789964
 21
6308.693182432332
 31
0.0
  0
LINE
  5
17A4C
330
17637
100
AcDbEntity
  8
SUNPOU
100
AcDbLine
 10
7219.127507899646
 20
6468.693182432332
 30
0.0
 11
7219.127507899646
 21
6263.693182432332
 31
0.0
  0
LINE
  5
17A4D
330
17637
100
AcDbEntity
  8
SUNPOU
100
AcDbLine
 10
9619.127507899648
 20
6468.693182432332
 30
0.0
 11
9619.127507899648
 21
6263.693182432332
 31
0.0
  0
LINE
  5
17A4E
330
17637
100
AcDbEntity
  8
SUNPOU
100
AcDbLine
 10
7239.127507899645
 20
6308.693182432332
 30
0.0
 11
9599.127507899648
 21
6308.693182432332
 31
0.0
  0
LINE
  5
17A4F
330
17637
100
AcDbEntity
  8
SUNPOU
100
AcDbLine
 10
4819.127507899647
 20
6468.693182432332
 30
0.0
 11
4819.127507899647
 21
6263.693182432332
 31
0.0
  0
LINE
  5
17A50
330
17637
100
AcDbEntity
  8
SUNPOU
100
AcDbLine
 10
7219.127507899646
 20
6468.693182432332
 30
0.0
 11
7219.127507899646
 21
6263.693182432332
 31
0.0
  0
LINE
  5
17A51
330
17637
100
AcDbEntity
  8
SUNPOU
100
AcDbLine
 10
4839.127507899648
 20
6308.693182432332
 30
0.0
 11
7199.127507899646
 21
6308.693182432332
 31
0.0
  0
LINE
  5
17A52
330
17637
100
AcDbEntity
  8
SUNPOU
100
AcDbLine
 10
4469.127507899647
 20
6668.693182432332
 30
0.0
 11
4469.127507899647
 21
6263.693182432332
 31
0.0
  0
LINE
  5
17A53
330
17637
100
AcDbEntity
  8
SUNPOU
100
AcDbLine
 10
4819.127507899647
 20
6468.693182432332
 30
0.0
 11
4819.127507899647
 21
6263.693182432332
 31
0.0
  0
LINE
  5
17A54
330
17637
100
AcDbEntity
  8
SUNPOU
100
AcDbLine
 10
4489.127507899648
 20
6308.693182432332
 30
0.0
 11
4799.127507899648
 21
6308.693182432332
 31
0.0
  0
LINE
  5
17A55
330
17637
100
AcDbEntity
  8
SUNPOU
  6
ByBlock
100
AcDbLine
 10
12354.12750789964
 20
6098.693182432332
 30
0.0
 11
12339.12750789964
 21
6098.693182432332
 31
0.0
  0
LINE
  5
17A56
330
17637
100
AcDbEntity
  8
SUNPOU
  6
ByBlock
100
AcDbLine
 10
4484.127507899648
 20
6098.693182432332
 30
0.0
 11
4499.127507899648
 21
6098.693182432332
 31
0.0
  0
ARC
  5
17A57
330
17637
100
AcDbEntity
  8
SUNPOU
100
AcDbCircle
 10
12829.12750789964
 20
9043.693182432328
 30
0.0
 40
5.625
100
AcDbArc
 50
270.0
 51
90.0
  0
ARC
  5
17A58
330
17637
100
AcDbEntity
  8
SUNPOU
100
AcDbCircle
 10
12829.12750789964
 20
9043.693182432328
 30
0.0
 40
5.625
100
AcDbArc
 50
90.0
 51
270.0
  0
ARC
  5
17A59
330
17637
100
AcDbEntity
  8
SUNPOU
100
AcDbCircle
 10
12619.12750789964
 20
9043.693182432328
 30
0.0
 40
5.625
100
AcDbArc
 50
270.0
 51
90.0
  0
ARC
  5
17A5A
330
17637
100
AcDbEntity
  8
SUNPOU
100
AcDbCircle
 10
12619.12750789964
 20
9043.693182432328
 30
0.0
 40
5.625
100
AcDbArc
 50
90.0
 51
270.0
  0
ARC
  5
17A5B
330
17637
100
AcDbEntity
  8
SUNPOU
100
AcDbCircle
 10
12619.12750789964
 20
8843.69318243233
 30
0.0
 40
5.624999999998181
100
AcDbArc
 50
270.0
 51
90.0
  0
ARC
  5
17A5C
330
17637
100
AcDbEntity
  8
SUNPOU
100
AcDbCircle
 10
12619.12750789964
 20
8843.69318243233
 30
0.0
 40
5.625
100
AcDbArc
 50
90.0
 51
270.0
  0
ARC
  5
17A5D
330
17637
100
AcDbEntity
  8
SUNPOU
100
AcDbCircle
 10
12619.12750789964
 20
8843.69318243233
 30
0.0
 40
5.625
100
AcDbArc
 50
90.0
 51
270.0
  0
ARC
  5
17A5E
330
17637
100
AcDbEntity
  8
SUNPOU
100
AcDbCircle
 10
12619.12750789964
 20
8843.69318243233
 30
0.0
 40
5.624999999998181
100
AcDbArc
 50
270.0
 51
90.0
  0
ARC
  5
17A5F
330
17637
100
AcDbEntity
  8
SUNPOU
100
AcDbCircle
 10
12619.12750789964
 20
7408.693182432331
 30
0.0
 40
5.625000000000908
100
AcDbArc
 50
270.0
 51
90.0
  0
ARC
  5
17A60
330
17637
100
AcDbEntity
  8
SUNPOU
100
AcDbCircle
 10
12619.12750789964
 20
7408.693182432331
 30
0.0
 40
5.625
100
AcDbArc
 50
90.0
 51
270.0
  0
ARC
  5
17A61
330
17637
100
AcDbEntity
  8
SUNPOU
100
AcDbCircle
 10
12619.12750789964
 20
7408.693182432331
 30
0.0
 40
5.625
100
AcDbArc
 50
90.0
 51
270.0
  0
ARC
  5
17A62
330
17637
100
AcDbEntity
  8
SUNPOU
100
AcDbCircle
 10
12619.12750789964
 20
7408.693182432331
 30
0.0
 40
5.625000000000908
100
AcDbArc
 50
270.0
 51
90.0
  0
ARC
  5
17A63
330
17637
100
AcDbEntity
  8
SUNPOU
100
AcDbCircle
 10
12829.12750789964
 20
6708.693182432331
 30
0.0
 40
5.625
100
AcDbArc
 50
90.0
 51
270.0
  0
ARC
  5
17A64
330
17637
100
AcDbEntity
  8
SUNPOU
100
AcDbCircle
 10
12829.12750789964
 20
6708.693182432331
 30
0.0
 40
5.625
100
AcDbArc
 50
270.0
 51
90.0
  0
ARC
  5
17A65
330
17637
100
AcDbEntity
  8
SUNPOU
100
AcDbCircle
 10
12619.12750789964
 20
6708.693182432331
 30
0.0
 40
5.625
100
AcDbArc
 50
90.0
 51
270.0
  0
ARC
  5
17A66
330
17637
100
AcDbEntity
  8
SUNPOU
100
AcDbCircle
 10
12619.12750789964
 20
6708.693182432331
 30
0.0
 40
5.625
100
AcDbArc
 50
270.0
 51
90.0
  0
ARC
  5
17A67
330
17637
100
AcDbEntity
  8
SUNPOU
100
AcDbCircle
 10
10269.12750789964
 20
7758.69318243233
 30
0.0
 40
5.625
100
AcDbArc
 50
270.0
 51
90.0
  0
ARC
  5
17A68
330
17637
100
AcDbEntity
  8
SUNPOU
100
AcDbCircle
 10
10269.12750789964
 20
7758.69318243233
 30
0.0
 40
5.625
100
AcDbArc
 50
90.0
 51
270.0
  0
ARC
  5
17A69
330
17637
100
AcDbEntity
  8
SUNPOU
100
AcDbCircle
 10
10269.12750789964
 20
7058.693182432332
 30
0.0
 40
5.625
100
AcDbArc
 50
90.0
 51
270.0
  0
ARC
  5
17A6A
330
17637
100
AcDbEntity
  8
SUNPOU
100
AcDbCircle
 10
10269.12750789964
 20
7058.693182432332
 30
0.0
 40
5.625
100
AcDbArc
 50
270.0
 51
90.0
  0
ARC
  5
17A6B
330
17637
100
AcDbEntity
  8
SUNPOU
100
AcDbCircle
 10
9969.127507899649
 20
6758.693182432331
 30
0.0
 40
5.625
100
AcDbArc
 50
0.0
 51
180.0
  0
ARC
  5
17A6C
330
17637
100
AcDbEntity
  8
SUNPOU
100
AcDbCircle
 10
9969.127507899649
 20
6758.693182432331
 30
0.0
 40
5.625
100
AcDbArc
 50
180.0
 51
0.0
  0
ARC
  5
17A6D
330
17637
100
AcDbEntity
  8
SUNPOU
100
AcDbCircle
 10
9269.127507899648
 20
6758.693182432331
 30
0.0
 40
5.625
100
AcDbArc
 50
180.0
 51
0.0
  0
ARC
  5
17A6E
330
17637
100
AcDbEntity
  8
SUNPOU
100
AcDbCircle
 10
9269.127507899648
 20
6758.693182432331
 30
0.0
 40
5.625
100
AcDbArc
 50
0.0
 51
180.0
  0
ARC
  5
17A6F
330
17637
100
AcDbEntity
  8
SUNPOU
100
AcDbCircle
 10
6569.12750789965
 20
9193.693182432328
 30
0.0
 40
5.625
100
AcDbArc
 50
90.0
 51
270.0
  0
ARC
  5
17A70
330
17637
100
AcDbEntity
  8
SUNPOU
100
AcDbCircle
 10
6569.12750789965
 20
9193.693182432328
 30
0.0
 40
5.625
100
AcDbArc
 50
270.0
 51
90.0
  0
ARC
  5
17A71
330
17637
100
AcDbEntity
  8
SUNPOU
100
AcDbCircle
 10
7569.127507899645
 20
8193.693182432332
 30
0.0
 40
5.625
100
AcDbArc
 50
0.0
 51
180.0
  0
ARC
  5
17A72
330
17637
100
AcDbEntity
  8
SUNPOU
100
AcDbCircle
 10
7569.127507899645
 20
8193.693182432332
 30
0.0
 40
5.625
100
AcDbArc
 50
180.0
 51
0.0
  0
ARC
  5
17A73
330
17637
100
AcDbEntity
  8
SUNPOU
100
AcDbCircle
 10
6569.12750789965
 20
8493.69318243233
 30
0.0
 40
5.625
100
AcDbArc
 50
270.0
 51
90.0
  0
ARC
  5
17A74
330
17637
100
AcDbEntity
  8
SUNPOU
100
AcDbCircle
 10
6569.12750789965
 20
8493.69318243233
 30
0.0
 40
5.625
100
AcDbArc
 50
90.0
 51
270.0
  0
ARC
  5
17A75
330
17637
100
AcDbEntity
  8
SUNPOU
100
AcDbCircle
 10
6869.127507899645
 20
8193.693182432332
 30
0.0
 40
5.625
100
AcDbArc
 50
180.0
 51
0.0
  0
ARC
  5
17A76
330
17637
100
AcDbEntity
  8
SUNPOU
100
AcDbCircle
 10
6869.127507899645
 20
8193.693182432332
 30
0.0
 40
5.625
100
AcDbArc
 50
0.0
 51
180.0
  0
TEXT
  5
17A77
330
17637
100
AcDbEntity
  8
SUNPOU
100
AcDbText
 10
3915.443655266705
 20
2291.227696562457
 30
0.0
 40
90.0
  1
100
 50
90.0
 41
0.6666666666666666
  7
00
100
AcDbText
  0
LINE
  5
17A78
330
17637
100
AcDbEntity
  8
SUNPOU
  6
ByBlock
100
AcDbLine
 10
3960.443655266704
 20
2534.084839419599
 30
0.0
 11
3960.443655266704
 21
2549.084839419599
 31
0.0
  0
LINE
  5
17A79
330
17637
100
AcDbEntity
  8
SUNPOU
  6
ByBlock
100
AcDbLine
 10
3960.443655266704
 20
2664.084839419599
 30
0.0
 11
3960.443655266704
 21
2649.0848394196
 31
0.0
  0
TEXT
  5
17A7A
330
17637
100
AcDbEntity
  8
SUNPOU
100
AcDbText
 10
3689.570805027804
 20
2897.370553705319
 30
0.0
 40
90.0
  1
580
 50
90.0
 41
0.6666666666666666
  7
00
100
AcDbText
  0
LINE
  5
17A7B
330
17637
100
AcDbEntity
  8
SUNPOU
  6
ByBlock
100
AcDbLine
 10
3734.570805027805
 20
2534.084839419599
 30
0.0
 11
3734.570805027805
 21
2549.084839419599
 31
0.0
  0
LINE
  5
17A7C
330
17637
100
AcDbEntity
  8
SUNPOU
  6
ByBlock
100
AcDbLine
 10
3734.570805027805
 20
3432.084839419609
 30
0.0
 11
3734.570805027805
 21
3417.084839419608
 31
0.0
  0
TEXT
  5
17A7D
330
17637
100
AcDbEntity
  8
SUNPOU
100
AcDbText
 10
3503.943950703809
 20
3523.513410848181
 30
0.0
 40
90.0
  1
50
 50
90.0
 41
0.6666666666666666
  7
00
100
AcDbText
  0
LINE
  5
17A7E
330
17637
100
AcDbEntity
  8
SUNPOU
  6
ByBlock
100
AcDbLine
 10
3548.94395070381
 20
3462.084839419608
 30
0.0
 11
3548.94395070381
 21
3477.084839419608
 31
0.0
  0
LINE
  5
17A7F
330
17637
100
AcDbEntity
  8
SUNPOU
  6
ByBlock
100
AcDbLine
 10
3548.94395070381
 20
3352.084839419608
 30
0.0
 11
3548.94395070381
 21
3337.084839419608
 31
0.0
  0
TEXT
  5
17A80
330
17637
100
AcDbEntity
  8
SUNPOU
100
AcDbText
 10
6956.029570409933
 20
3523.513410848181
 30
0.0
 40
90.0
  1
50
 50
90.0
 41
0.6666666666666666
  7
00
100
AcDbText
  0
LINE
  5
17A81
330
17637
100
AcDbEntity
  8
SUNPOU
  6
ByBlock
100
AcDbLine
 10
7001.029570409933
 20
3462.084839419608
 30
0.0
 11
7001.029570409933
 21
3477.084839419608
 31
0.0
  0
LINE
  5
17A82
330
17637
100
AcDbEntity
  8
SUNPOU
  6
ByBlock
100
AcDbLine
 10
7001.029570409933
 20
3352.084839419608
 30
0.0
 11
7001.029570409933
 21
3337.084839419608
 31
0.0
  0
TEXT
  5
17A83
330
17637
100
AcDbEntity
  8
SUNPOU
100
AcDbText
 10
7421.741617209526
 20
2291.227696562457
 30
0.0
 40
90.0
  1
100
 50
90.0
 41
0.6666666666666666
  7
00
100
AcDbText
  0
LINE
  5
17A84
330
17637
100
AcDbEntity
  8
SUNPOU
  6
ByBlock
100
AcDbLine
 10
7466.741617209526
 20
2534.084839419599
 30
0.0
 11
7466.741617209526
 21
2549.084839419599
 31
0.0
  0
LINE
  5
17A85
330
17637
100
AcDbEntity
  8
SUNPOU
  6
ByBlock
100
AcDbLine
 10
7466.741617209526
 20
2664.084839419599
 30
0.0
 11
7466.741617209526
 21
2649.084839419599
 31
0.0
  0
TEXT
  5
17A86
330
17637
100
AcDbEntity
  8
SUNPOU
100
AcDbText
 10
7224.149830425107
 20
2897.370553705319
 30
0.0
 40
90.0
  1
580
 50
90.0
 41
0.6666666666666666
  7
00
100
AcDbText
  0
LINE
  5
17A87
330
17637
100
AcDbEntity
  8
SUNPOU
  6
ByBlock
100
AcDbLine
 10
7269.149830425106
 20
2534.084839419599
 30
0.0
 11
7269.149830425106
 21
2549.084839419599
 31
0.0
  0
LINE
  5
17A88
330
17637
100
AcDbEntity
  8
SUNPOU
  6
ByBlock
100
AcDbLine
 10
7269.149830425106
 20
3432.084839419609
 30
0.0
 11
7269.149830425106
 21
3417.084839419608
 31
0.0
  0
ARC
  5
17A89
330
17637
100
AcDbEntity
  8
SUNPOU
  6
ByBlock
100
AcDbCircle
 10
3960.443655266704
 20
2679.0848394196
 30
0.0
 40
7.5
100
AcDbArc
 50
270.0
 51
90.0
  0
ARC
  5
17A8A
330
17637
100
AcDbEntity
  8
SUNPOU
  6
ByBlock
100
AcDbCircle
 10
3960.443655266704
 20
2679.0848394196
 30
0.0
 40
7.5
100
AcDbArc
 50
90.0
 51
270.0
  0
ARC
  5
17A8B
330
17637
100
AcDbEntity
  8
SUNPOU
  6
ByBlock
100
AcDbCircle
 10
3960.443655266704
 20
3191.084839419597
 30
0.0
 40
7.5
100
AcDbArc
 50
270.0
 51
90.0
  0
ARC
  5
17A8C
330
17637
100
AcDbEntity
  8
SUNPOU
  6
ByBlock
100
AcDbCircle
 10
3960.443655266704
 20
3191.084839419597
 30
0.0
 40
7.5
100
AcDbArc
 50
90.0
 51
270.0
  0
ARC
  5
17A8D
330
17637
100
AcDbEntity
  8
SUNPOU
  6
ByBlock
100
AcDbCircle
 10
3960.443655266704
 20
2679.0848394196
 30
0.0
 40
7.5
100
AcDbArc
 50
90.0
 51
270.0
  0
ARC
  5
17A8E
330
17637
100
AcDbEntity
  8
SUNPOU
  6
ByBlock
100
AcDbCircle
 10
3960.443655266704
 20
2679.0848394196
 30
0.0
 40
7.5
100
AcDbArc
 50
270.0
 51
90.0
  0
ARC
  5
17A8F
330
17637
100
AcDbEntity
  8
SUNPOU
  6
ByBlock
100
AcDbCircle
 10
3960.443655266704
 20
3447.084839419609
 30
0.0
 40
7.5
100
AcDbArc
 50
90.0
 51
270.0
  0
ARC
  5
17A90
330
17637
100
AcDbEntity
  8
SUNPOU
  6
ByBlock
100
AcDbCircle
 10
3960.443655266704
 20
3447.084839419609
 30
0.0
 40
7.5
100
AcDbArc
 50
270.0
 51
90.0
  0
ARC
  5
17A91
330
17637
100
AcDbEntity
  8
SUNPOU
  6
ByBlock
100
AcDbCircle
 10
3960.443655266704
 20
3319.084839419601
 30
0.0
 40
7.5
100
AcDbArc
 50
270.0
 51
90.0
  0
ARC
  5
17A92
330
17637
100
AcDbEntity
  8
SUNPOU
  6
ByBlock
100
AcDbCircle
 10
3960.443655266704
 20
3319.084839419601
 30
0.0
 40
7.5
100
AcDbArc
 50
90.0
 51
270.0
  0
ARC
  5
17A93
330
17637
100
AcDbEntity
  8
SUNPOU
  6
ByBlock
100
AcDbCircle
 10
3960.443655266705
 20
3191.084839419597
 30
0.0
 40
7.5
100
AcDbArc
 50
270.0
 51
90.0
  0
ARC
  5
17A94
330
17637
100
AcDbEntity
  8
SUNPOU
  6
ByBlock
100
AcDbCircle
 10
3960.443655266705
 20
3191.084839419597
 30
0.0
 40
7.5
100
AcDbArc
 50
90.0
 51
270.0
  0
ARC
  5
17A95
330
17637
100
AcDbEntity
  8
SUNPOU
  6
ByBlock
100
AcDbCircle
 10
3960.443655266705
 20
3319.084839419601
 30
0.0
 40
7.5
100
AcDbArc
 50
90.0
 51
270.0
  0
ARC
  5
17A96
330
17637
100
AcDbEntity
  8
SUNPOU
  6
ByBlock
100
AcDbCircle
 10
3960.443655266705
 20
3319.084839419601
 30
0.0
 40
7.5
100
AcDbArc
 50
270.0
 51
90.0
  0
ARC
  5
17A97
330
17637
100
AcDbEntity
  8
SUNPOU
  6
ByBlock
100
AcDbCircle
 10
7466.741617209526
 20
2679.084839419599
 30
0.0
 40
7.5
100
AcDbArc
 50
270.0
 51
90.0
  0
ARC
  5
17A98
330
17637
100
AcDbEntity
  8
SUNPOU
  6
ByBlock
100
AcDbCircle
 10
7466.741617209526
 20
2679.084839419599
 30
0.0
 40
7.5
100
AcDbArc
 50
90.0
 51
270.0
  0
ARC
  5
17A99
330
17637
100
AcDbEntity
  8
SUNPOU
  6
ByBlock
100
AcDbCircle
 10
7466.741617209526
 20
3191.084839419599
 30
0.0
 40
7.5
100
AcDbArc
 50
270.0
 51
90.0
  0
ARC
  5
17A9A
330
17637
100
AcDbEntity
  8
SUNPOU
  6
ByBlock
100
AcDbCircle
 10
7466.741617209526
 20
3191.084839419599
 30
0.0
 40
7.5
100
AcDbArc
 50
90.0
 51
270.0
  0
ARC
  5
17A9B
330
17637
100
AcDbEntity
  8
SUNPOU
  6
ByBlock
100
AcDbCircle
 10
7466.741617209526
 20
2679.084839419599
 30
0.0
 40
7.5
100
AcDbArc
 50
90.0
 51
270.0
  0
ARC
  5
17A9C
330
17637
100
AcDbEntity
  8
SUNPOU
  6
ByBlock
100
AcDbCircle
 10
7466.741617209526
 20
2679.084839419599
 30
0.0
 40
7.5
100
AcDbArc
 50
270.0
 51
90.0
  0
ARC
  5
17A9D
330
17637
100
AcDbEntity
  8
SUNPOU
  6
ByBlock
100
AcDbCircle
 10
7466.741617209526
 20
3447.084839419609
 30
0.0
 40
7.5
100
AcDbArc
 50
90.0
 51
270.0
  0
ARC
  5
17A9E
330
17637
100
AcDbEntity
  8
SUNPOU
  6
ByBlock
100
AcDbCircle
 10
7466.741617209526
 20
3447.084839419609
 30
0.0
 40
7.5
100
AcDbArc
 50
270.0
 51
90.0
  0
ARC
  5
17A9F
330
17637
100
AcDbEntity
  8
SUNPOU
  6
ByBlock
100
AcDbCircle
 10
7466.741617209526
 20
3319.084839419604
 30
0.0
 40
7.5
100
AcDbArc
 50
270.0
 51
90.0
  0
ARC
  5
17AA0
330
17637
100
AcDbEntity
  8
SUNPOU
  6
ByBlock
100
AcDbCircle
 10
7466.741617209526
 20
3319.084839419604
 30
0.0
 40
7.5
100
AcDbArc
 50
90.0
 51
270.0
  0
ARC
  5
17AA1
330
17637
100
AcDbEntity
  8
SUNPOU
  6
ByBlock
100
AcDbCircle
 10
7466.741617209527
 20
3191.084839419599
 30
0.0
 40
7.5
100
AcDbArc
 50
270.0
 51
90.0
  0
ARC
  5
17AA2
330
17637
100
AcDbEntity
  8
SUNPOU
  6
ByBlock
100
AcDbCircle
 10
7466.741617209527
 20
3191.084839419599
 30
0.0
 40
7.5
100
AcDbArc
 50
90.0
 51
270.0
  0
ARC
  5
17AA3
330
17637
100
AcDbEntity
  8
SUNPOU
  6
ByBlock
100
AcDbCircle
 10
7466.741617209527
 20
3319.084839419604
 30
0.0
 40
7.5
100
AcDbArc
 50
90.0
 51
270.0
  0
ARC
  5
17AA4
330
17637
100
AcDbEntity
  8
SUNPOU
  6
ByBlock
100
AcDbCircle
 10
7466.741617209527
 20
3319.084839419604
 30
0.0
 40
7.5
100
AcDbArc
 50
270.0
 51
90.0
  0
TEXT
  5
17AA5
330
17637
100
AcDbEntity
  8
SUNPOU
100
AcDbText
 10
12228.40680314954
 20
3942.765608013134
 30
0.0
 40
90.0
  1
40
 50
90.0
 41
0.6666666666666666
  7
00
100
AcDbText
  0
LINE
  5
17AA6
330
17637
100
AcDbEntity
  8
SUNPOU
  6
ByBlock
100
AcDbLine
 10
12273.40680314955
 20
3871.337036584561
 30
0.0
 11
12273.40680314955
 21
3856.337036584561
 31
0.0
  0
LINE
  5
17AA7
330
17637
100
AcDbEntity
  8
SUNPOU
  6
ByBlock
100
AcDbLine
 10
12273.40680314955
 20
3741.33703658456
 30
0.0
 11
12273.40680314955
 21
3756.337036584561
 31
0.0
  0
TEXT
  5
17AA8
330
17637
100
AcDbEntity
  8
SUNPOU
100
AcDbText
 10
12228.40680314954
 20
3427.622750870277
 30
0.0
 40
90.0
  1
27
 50
90.0
 41
0.6666666666666666
  7
00
100
AcDbText
  0
LINE
  5
17AA9
330
17637
100
AcDbEntity
  8
SUNPOU
  6
ByBlock
100
AcDbLine
 10
12273.40680314955
 20
3603.337036584561
 30
0.0
 11
12273.40680314955
 21
3588.337036584561
 31
0.0
  0
LINE
  5
17AAA
330
17637
100
AcDbEntity
  8
SUNPOU
  6
ByBlock
100
AcDbLine
 10
12273.40680314955
 20
3741.33703658456
 30
0.0
 11
12273.40680314955
 21
3756.337036584561
 31
0.0
  0
TEXT
  5
17AAB
330
17637
100
AcDbEntity
  8
SUNPOU
100
AcDbText
 10
11937.76694549065
 20
2290.804976716086
 30
0.0
 40
90.0
  1
20
 41
0.6666666666666666
  7
00
100
AcDbText
  0
LINE
  5
17AAC
330
17637
100
AcDbEntity
  8
SUNPOU
  6
ByBlock
100
AcDbLine
 10
11876.33837406208
 20
2245.804976716085
 30
0.0
 11
11891.33837406209
 21
2245.804976716085
 31
0.0
  0
LINE
  5
17AAD
330
17637
100
AcDbEntity
  8
SUNPOU
  6
ByBlock
100
AcDbLine
 10
11766.33837406209
 20
2245.804976716085
 30
0.0
 11
11751.33837406209
 21
2245.804976716085
 31
0.0
  0
TEXT
  5
17AAE
330
17637
100
AcDbEntity
  8
SUNPOU
100
AcDbText
 10
11451.33837406209
 20
2290.804976716086
 30
0.0
 40
90.0
  1
120
 41
0.6666666666666666
  7
00
100
AcDbText
  0
LINE
  5
17AAF
330
17637
100
AcDbEntity
  8
SUNPOU
  6
ByBlock
100
AcDbLine
 10
11766.33837406209
 20
2245.804976716085
 30
0.0
 11
11751.33837406209
 21
2245.804976716085
 31
0.0
  0
LINE
  5
17AB0
330
17637
100
AcDbEntity
  8
SUNPOU
  6
ByBlock
100
AcDbLine
 10
11316.33837406211
 20
2245.804976716085
 30
0.0
 11
11331.3383740621
 21
2245.804976716085
 31
0.0
  0
TEXT
  5
17AB1
330
17637
100
AcDbEntity
  8
SUNPOU
100
AcDbText
 10
11030.6240883478
 20
2290.804976716086
 30
0.0
 40
90.0
  1
20
 41
0.6666666666666666
  7
00
100
AcDbText
  0
LINE
  5
17AB2
330
17637
100
AcDbEntity
  8
SUNPOU
  6
ByBlock
100
AcDbLine
 10
11206.33837406209
 20
2245.804976716085
 30
0.0
 11
11191.33837406208
 21
2245.804976716085
 31
0.0
  0
LINE
  5
17AB3
330
17637
100
AcDbEntity
  8
SUNPOU
  6
ByBlock
100
AcDbLine
 10
11316.33837406211
 20
2245.804976716085
 30
0.0
 11
11331.3383740621
 21
2245.804976716085
 31
0.0
  0
TEXT
  5
17AB4
330
17637
100
AcDbEntity
  8
SUNPOU
100
AcDbText
 10
11451.33837406208
 20
2080.804976716085
 30
0.0
 40
90.0
  1
160
 41
0.6666666666666666
  7
00
100
AcDbText
  0
LINE
  5
17AB5
330
17637
100
AcDbEntity
  8
SUNPOU
  6
ByBlock
100
AcDbLine
 10
11846.33837406209
 20
2035.804976716086
 30
0.0
 11
11831.33837406209
 21
2035.804976716086
 31
0.0
  0
LINE
  5
17AB6
330
17637
100
AcDbEntity
  8
SUNPOU
  6
ByBlock
100
AcDbLine
 10
11236.33837406209
 20
2035.804976716086
 30
0.0
 11
11251.33837406208
 21
2035.804976716086
 31
0.0
  0
TEXT
  5
17AB7
330
17637
100
AcDbEntity
  8
SUNPOU
100
AcDbText
 10
10873.33837406209
 20
2369.430058338865
 30
0.0
 40
90.0
  1
40
 50
90.0
 41
0.6666666666666666
  7
00
100
AcDbText
  0
LINE
  5
17AB8
330
17637
100
AcDbEntity
  8
SUNPOU
  6
ByBlock
100
AcDbLine
 10
10918.33837406209
 20
2555.144344053149
 30
0.0
 11
10918.33837406209
 21
2570.144344053149
 31
0.0
  0
LINE
  5
17AB9
330
17637
100
AcDbEntity
  8
SUNPOU
  6
ByBlock
100
AcDbLine
 10
10918.33837406209
 20
2685.144344053149
 30
0.0
 11
10918.33837406209
 21
2670.144344053149
 31
0.0
  0
TEXT
  5
17ABA
330
17637
100
AcDbEntity
  8
SUNPOU
100
AcDbText
 10
10873.33837406209
 20
2916.572915481723
 30
0.0
 40
90.0
  1
40
 50
90.0
 41
0.6666666666666666
  7
00
100
AcDbText
  0
LINE
  5
17ABB
330
17637
100
AcDbEntity
  8
SUNPOU
  6
ByBlock
100
AcDbLine
 10
10918.33837406209
 20
2845.144344053149
 30
0.0
 11
10918.33837406209
 21
2830.144344053149
 31
0.0
  0
LINE
  5
17ABC
330
17637
100
AcDbEntity
  8
SUNPOU
  6
ByBlock
100
AcDbLine
 10
10918.33837406209
 20
2715.144344053149
 30
0.0
 11
10918.33837406209
 21
2730.144344053149
 31
0.0
  0
TEXT
  5
17ABD
330
17637
100
AcDbEntity
  8
SUNPOU
100
AcDbText
 10
10663.33837406209
 20
2643.001486910295
 30
0.0
 40
90.0
  1
80
 50
90.0
 41
0.6666666666666666
  7
00
100
AcDbText
  0
LINE
  5
17ABE
330
17637
100
AcDbEntity
  8
SUNPOU
  6
ByBlock
100
AcDbLine
 10
10708.33837406208
 20
2845.144344053149
 30
0.0
 11
10708.33837406208
 21
2830.144344053149
 31
0.0
  0
LINE
  5
17ABF
330
17637
100
AcDbEntity
  8
SUNPOU
  6
ByBlock
100
AcDbLine
 10
10708.33837406208
 20
2555.144344053149
 30
0.0
 11
10708.33837406208
 21
2570.144344053149
 31
0.0
  0
TEXT
  5
17AC0
330
17637
100
AcDbEntity
  8
SUNPOU
100
AcDbText
 10
11937.76694549065
 20
3439.170862655058
 30
0.0
 40
90.0
  1
20
 41
0.6666666666666666
  7
00
100
AcDbText
  0
LINE
  5
17AC1
330
17637
100
AcDbEntity
  8
SUNPOU
  6
ByBlock
100
AcDbLine
 10
11876.33837406208
 20
3394.170862655057
 30
0.0
 11
11891.33837406209
 21
3394.170862655057
 31
0.0
  0
LINE
  5
17AC2
330
17637
100
AcDbEntity
  8
SUNPOU
  6
ByBlock
100
AcDbLine
 10
11766.33837406209
 20
3394.170862655057
 30
0.0
 11
11751.33837406209
 21
3394.170862655057
 31
0.0
  0
TEXT
  5
17AC3
330
17637
100
AcDbEntity
  8
SUNPOU
100
AcDbText
 10
11451.33837406209
 20
3439.170862655058
 30
0.0
 40
90.0
  1
120
 41
0.6666666666666666
  7
00
100
AcDbText
  0
LINE
  5
17AC4
330
17637
100
AcDbEntity
  8
SUNPOU
  6
ByBlock
100
AcDbLine
 10
11766.33837406209
 20
3394.170862655057
 30
0.0
 11
11751.33837406209
 21
3394.170862655057
 31
0.0
  0
LINE
  5
17AC5
330
17637
100
AcDbEntity
  8
SUNPOU
  6
ByBlock
100
AcDbLine
 10
11316.33837406211
 20
3394.170862655057
 30
0.0
 11
11331.3383740621
 21
3394.170862655057
 31
0.0
  0
TEXT
  5
17AC6
330
17637
100
AcDbEntity
  8
SUNPOU
100
AcDbText
 10
11030.6240883478
 20
3439.170862655058
 30
0.0
 40
90.0
  1
20
 41
0.6666666666666666
  7
00
100
AcDbText
  0
LINE
  5
17AC7
330
17637
100
AcDbEntity
  8
SUNPOU
  6
ByBlock
100
AcDbLine
 10
11206.33837406209
 20
3394.170862655057
 30
0.0
 11
11191.33837406208
 21
3394.170862655057
 31
0.0
  0
LINE
  5
17AC8
330
17637
100
AcDbEntity
  8
SUNPOU
  6
ByBlock
100
AcDbLine
 10
11316.33837406211
 20
3394.170862655057
 30
0.0
 11
11331.3383740621
 21
3394.170862655057
 31
0.0
  0
TEXT
  5
17AC9
330
17637
100
AcDbEntity
  8
SUNPOU
100
AcDbText
 10
11451.33837406208
 20
3229.170862655058
 30
0.0
 40
90.0
  1
160
 41
0.6666666666666666
  7
00
100
AcDbText
  0
LINE
  5
17ACA
330
17637
100
AcDbEntity
  8
SUNPOU
  6
ByBlock
100
AcDbLine
 10
11846.33837406209
 20
3184.170862655058
 30
0.0
 11
11831.33837406209
 21
3184.170862655058
 31
0.0
  0
LINE
  5
17ACB
330
17637
100
AcDbEntity
  8
SUNPOU
  6
ByBlock
100
AcDbLine
 10
11236.33837406209
 20
3184.170862655058
 30
0.0
 11
11251.33837406208
 21
3184.170862655058
 31
0.0
  0
TEXT
  5
17ACC
330
17637
100
AcDbEntity
  8
SUNPOU
100
AcDbText
 10
8726.168385259301
 20
2161.684839419597
 30
0.0
 40
90.0
  1
700
 41
0.6666666666666666
  7
00
100
AcDbText
  0
LINE
  5
17ACD
330
17637
100
AcDbEntity
  8
SUNPOU
  6
ByBlock
100
AcDbLine
 10
9356.882670973584
 20
2116.684839419598
 30
0.0
 11
9341.882670973584
 21
2116.684839419598
 31
0.0
  0
LINE
  5
17ACE
330
17637
100
AcDbEntity
  8
SUNPOU
  6
ByBlock
100
AcDbLine
 10
8266.882670973584
 20
2116.684839419598
 30
0.0
 11
8281.882670973585
 21
2116.684839419598
 31
0.0
  0
TEXT
  5
17ACF
330
17637
100
AcDbEntity
  8
SUNPOU
100
AcDbText
 10
8726.168385259299
 20
1951.684839419597
 30
0.0
 40
90.0
  1
900
 41
0.6666666666666666
  7
00
100
AcDbText
  0
LINE
  5
17AD0
330
17637
100
AcDbEntity
  8
SUNPOU
  6
ByBlock
100
AcDbLine
 10
9516.882670973584
 20
1906.684839419597
 30
0.0
 11
9501.882670973584
 21
1906.684839419597
 31
0.0
  0
LINE
  5
17AD1
330
17637
100
AcDbEntity
  8
SUNPOU
  6
ByBlock
100
AcDbLine
 10
8106.882670973588
 20
1906.684839419597
 30
0.0
 11
8121.882670973587
 21
1906.684839419597
 31
0.0
  0
TEXT
  5
17AD2
330
17637
100
AcDbEntity
  8
SUNPOU
100
AcDbText
 10
8166.168385259302
 20
4175.485411556194
 30
0.0
 40
90.0
  1
700
 41
0.6666666666666666
  7
00
100
AcDbText
  0
LINE
  5
17AD3
330
17637
100
AcDbEntity
  8
SUNPOU
  6
ByBlock
100
AcDbLine
 10
7706.882670973588
 20
4130.485411556196
 30
0.0
 11
7721.882670973586
 21
4130.485411556196
 31
0.0
  0
LINE
  5
17AD4
330
17637
100
AcDbEntity
  8
SUNPOU
  6
ByBlock
100
AcDbLine
 10
8796.882670973586
 20
4130.485411556196
 30
0.0
 11
8781.882670973585
 21
4130.485411556196
 31
0.0
  0
TEXT
  5
17AD5
330
17637
100
AcDbEntity
  8
SUNPOU
100
AcDbText
 10
4714.082765553178
 20
2161.684839419597
 30
0.0
 40
90.0
  1
700
 41
0.6666666666666666
  7
00
100
AcDbText
  0
LINE
  5
17AD6
330
17637
100
AcDbEntity
  8
SUNPOU
  6
ByBlock
100
AcDbLine
 10
5344.797051267462
 20
2116.684839419598
 30
0.0
 11
5329.797051267463
 21
2116.684839419598
 31
0.0
  0
LINE
  5
17AD7
330
17637
100
AcDbEntity
  8
SUNPOU
  6
ByBlock
100
AcDbLine
 10
4254.797051267463
 20
2116.684839419598
 30
0.0
 11
4269.797051267462
 21
2116.684839419598
 31
0.0
  0
TEXT
  5
17AD8
330
17637
100
AcDbEntity
  8
SUNPOU
100
AcDbText
 10
4714.082765553176
 20
1951.684839419597
 30
0.0
 40
90.0
  1
900
 41
0.6666666666666666
  7
00
100
AcDbText
  0
LINE
  5
17AD9
330
17637
100
AcDbEntity
  8
SUNPOU
  6
ByBlock
100
AcDbLine
 10
5504.797051267461
 20
1906.684839419597
 30
0.0
 11
5489.797051267461
 21
1906.684839419597
 31
0.0
  0
LINE
  5
17ADA
330
17637
100
AcDbEntity
  8
SUNPOU
  6
ByBlock
100
AcDbLine
 10
4094.797051267462
 20
1906.684839419597
 30
0.0
 11
4109.797051267462
 21
1906.684839419597
 31
0.0
  0
TEXT
  5
17ADB
330
17637
100
AcDbEntity
  8
SUNPOU
100
AcDbText
 10
4434.082765553177
 20
4175.485411556191
 30
0.0
 40
90.0
  1
350
 41
0.6666666666666666
  7
00
100
AcDbText
  0
LINE
  5
17ADC
330
17637
100
AcDbEntity
  8
SUNPOU
  6
ByBlock
100
AcDbLine
 10
4254.797051267463
 20
4130.485411556192
 30
0.0
 11
4269.797051267462
 21
4130.485411556192
 31
0.0
  0
LINE
  5
17ADD
330
17637
100
AcDbEntity
  8
SUNPOU
  6
ByBlock
100
AcDbLine
 10
4784.797051267463
 20
4130.485411556192
 30
0.0
 11
4769.797051267462
 21
4130.485411556192
 31
0.0
  0
TEXT
  5
17ADE
330
17637
100
AcDbEntity
  8
SUNPOU
100
AcDbText
 10
12108.41322218536
 20
6353.693182432332
 30
0.0
 40
90.0
  1
350
 41
0.6666666666666666
  7
00
100
AcDbText
  0
LINE
  5
17ADF
330
17637
100
AcDbEntity
  8
SUNPOU
  6
ByBlock
100
AcDbLine
 10
12354.12750789964
 20
6308.693182432332
 30
0.0
 11
12339.12750789964
 21
6308.693182432332
 31
0.0
  0
LINE
  5
17AE0
330
17637
100
AcDbEntity
  8
SUNPOU
  6
ByBlock
100
AcDbLine
 10
12034.12750789965
 20
6308.693182432332
 30
0.0
 11
12049.12750789965
 21
6308.693182432332
 31
0.0
  0
TEXT
  5
17AE1
330
17637
100
AcDbEntity
  8
SUNPOU
100
AcDbText
 10
10704.84179361393
 20
6353.693182432332
 30
0.0
 40
90.0
  1
2400
 41
0.6666666666666666
  7
00
100
AcDbText
  0
LINE
  5
17AE2
330
17637
100
AcDbEntity
  8
SUNPOU
  6
ByBlock
100
AcDbLine
 10
12004.12750789965
 20
6308.693182432332
 30
0.0
 11
11989.12750789965
 21
6308.693182432332
 31
0.0
  0
LINE
  5
17AE3
330
17637
100
AcDbEntity
  8
SUNPOU
  6
ByBlock
100
AcDbLine
 10
9634.127507899648
 20
6308.693182432332
 30
0.0
 11
9649.127507899649
 21
6308.693182432332
 31
0.0
  0
TEXT
  5
17AE4
330
17637
100
AcDbEntity
  8
SUNPOU
100
AcDbText
 10
8029.393736471076
 20
6353.693182432332
 30
0.0
 40
90.0
  1
2400 ×（ N - 2 ）
 41
0.6667
  7
00
100
AcDbText
  0
LINE
  5
17AE5
330
17637
100
AcDbEntity
  8
SUNPOU
  6
ByBlock
100
AcDbLine
 10
9604.127507899647
 20
6308.693182432332
 30
0.0
 11
9589.127507899648
 21
6308.693182432332
 31
0.0
  0
LINE
  5
17AE6
330
17637
100
AcDbEntity
  8
SUNPOU
  6
ByBlock
100
AcDbLine
 10
7234.127507899646
 20
6308.693182432332
 30
0.0
 11
7249.127507899649
 21
6308.693182432332
 31
0.0
  0
TEXT
  5
17AE7
330
17637
100
AcDbEntity
  8
SUNPOU
100
AcDbText
 10
5904.841793613933
 20
6353.693182432332
 30
0.0
 40
90.0
  1
2400
 41
0.6666666666666666
  7
00
100
AcDbText
  0
LINE
  5
17AE8
330
17637
100
AcDbEntity
  8
SUNPOU
  6
ByBlock
100
AcDbLine
 10
7204.127507899646
 20
6308.693182432332
 30
0.0
 11
7189.127507899645
 21
6308.693182432332
 31
0.0
  0
LINE
  5
17AE9
330
17637
100
AcDbEntity
  8
SUNPOU
  6
ByBlock
100
AcDbLine
 10
4834.127507899648
 20
6308.693182432332
 30
0.0
 11
4849.127507899648
 21
6308.693182432332
 31
0.0
  0
TEXT
  5
17AEA
330
17637
100
AcDbEntity
  8
SUNPOU
100
AcDbText
 10
4558.413222185361
 20
6353.693182432332
 30
0.0
 40
90.0
  1
350
 41
0.6666666666666666
  7
00
100
AcDbText
  0
LINE
  5
17AEB
330
17637
100
AcDbEntity
  8
SUNPOU
  6
ByBlock
100
AcDbLine
 10
4804.127507899647
 20
6308.693182432332
 30
0.0
 11
4789.127507899648
 21
6308.693182432332
 31
0.0
  0
LINE
  5
17AEC
330
17637
100
AcDbEntity
  8
SUNPOU
  6
ByBlock
100
AcDbLine
 10
4484.127507899648
 20
6308.693182432332
 30
0.0
 11
4499.127507899648
 21
6308.693182432332
 31
0.0
  0
ARC
  5
17AED
330
17637
100
AcDbEntity
  8
SUNPOU
  6
ByBlock
100
AcDbCircle
 10
12369.12750789964
 20
6098.693182432332
 30
0.0
 40
7.5
100
AcDbArc
 50
180.0
 51
0.0
  0
ARC
  5
17AEE
330
17637
100
AcDbEntity
  8
SUNPOU
  6
ByBlock
100
AcDbCircle
 10
12369.12750789964
 20
6098.693182432332
 30
0.0
 40
7.5
100
AcDbArc
 50
0.0
 51
180.0
  0
ARC
  5
17AEF
330
17637
100
AcDbEntity
  8
SUNPOU
  6
ByBlock
100
AcDbCircle
 10
4469.127507899647
 20
6098.693182432332
 30
0.0
 40
7.5
100
AcDbArc
 50
0.0
 51
180.0
  0
ARC
  5
17AF0
330
17637
100
AcDbEntity
  8
SUNPOU
  6
ByBlock
100
AcDbCircle
 10
4469.127507899647
 20
6098.693182432332
 30
0.0
 40
7.5
100
AcDbArc
 50
180.0
 51
0.0
  0
ARC
  5
17AF1
330
17637
100
AcDbEntity
  8
SUNPOU
  6
ByBlock
100
AcDbCircle
 10
3960.443655266704
 20
2519.084839419599
 30
0.0
 40
7.5
100
AcDbArc
 50
90.0
 51
270.0
  0
ARC
  5
17AF2
330
17637
100
AcDbEntity
  8
SUNPOU
  6
ByBlock
100
AcDbCircle
 10
3960.443655266704
 20
2519.084839419599
 30
0.0
 40
7.5
100
AcDbArc
 50
270.0
 51
90.0
  0
ARC
  5
17AF3
330
17637
100
AcDbEntity
  8
SUNPOU
  6
ByBlock
100
AcDbCircle
 10
3960.443655266704
 20
2679.0848394196
 30
0.0
 40
7.5
100
AcDbArc
 50
270.0
 51
90.0
  0
ARC
  5
17AF4
330
17637
100
AcDbEntity
  8
SUNPOU
  6
ByBlock
100
AcDbCircle
 10
3960.443655266704
 20
2679.0848394196
 30
0.0
 40
7.5
100
AcDbArc
 50
90.0
 51
270.0
  0
ARC
  5
17AF5
330
17637
100
AcDbEntity
  8
SUNPOU
  6
ByBlock
100
AcDbCircle
 10
3734.570805027805
 20
2519.084839419599
 30
0.0
 40
7.5
100
AcDbArc
 50
90.0
 51
270.0
  0
ARC
  5
17AF6
330
17637
100
AcDbEntity
  8
SUNPOU
  6
ByBlock
100
AcDbCircle
 10
3734.570805027805
 20
2519.084839419599
 30
0.0
 40
7.5
100
AcDbArc
 50
270.0
 51
90.0
  0
ARC
  5
17AF7
330
17637
100
AcDbEntity
  8
SUNPOU
  6
ByBlock
100
AcDbCircle
 10
3734.570805027805
 20
3447.084839419609
 30
0.0
 40
7.5
100
AcDbArc
 50
270.0
 51
90.0
  0
ARC
  5
17AF8
330
17637
100
AcDbEntity
  8
SUNPOU
  6
ByBlock
100
AcDbCircle
 10
3734.570805027805
 20
3447.084839419609
 30
0.0
 40
7.5
100
AcDbArc
 50
90.0
 51
270.0
  0
ARC
  5
17AF9
330
17637
100
AcDbEntity
  8
SUNPOU
  6
ByBlock
100
AcDbCircle
 10
3548.94395070381
 20
3447.084839419609
 30
0.0
 40
7.5
100
AcDbArc
 50
90.0
 51
270.0
  0
ARC
  5
17AFA
330
17637
100
AcDbEntity
  8
SUNPOU
  6
ByBlock
100
AcDbCircle
 10
3548.94395070381
 20
3447.084839419609
 30
0.0
 40
7.5
100
AcDbArc
 50
270.0
 51
90.0
  0
ARC
  5
17AFB
330
17637
100
AcDbEntity
  8
SUNPOU
  6
ByBlock
100
AcDbCircle
 10
3548.94395070381
 20
3367.084839419608
 30
0.0
 40
7.5
100
AcDbArc
 50
270.0
 51
90.0
  0
ARC
  5
17AFC
330
17637
100
AcDbEntity
  8
SUNPOU
  6
ByBlock
100
AcDbCircle
 10
3548.94395070381
 20
3367.084839419608
 30
0.0
 40
7.5
100
AcDbArc
 50
90.0
 51
270.0
  0
ARC
  5
17AFD
330
17637
100
AcDbEntity
  8
SUNPOU
  6
ByBlock
100
AcDbCircle
 10
7001.029570409933
 20
3447.084839419609
 30
0.0
 40
7.5
100
AcDbArc
 50
90.0
 51
270.0
  0
ARC
  5
17AFE
330
17637
100
AcDbEntity
  8
SUNPOU
  6
ByBlock
100
AcDbCircle
 10
7001.029570409933
 20
3447.084839419609
 30
0.0
 40
7.5
100
AcDbArc
 50
270.0
 51
90.0
  0
ARC
  5
17AFF
330
17637
100
AcDbEntity
  8
SUNPOU
  6
ByBlock
100
AcDbCircle
 10
7001.029570409933
 20
3367.084839419608
 30
0.0
 40
7.5
100
AcDbArc
 50
270.0
 51
90.0
  0
ARC
  5
17B00
330
17637
100
AcDbEntity
  8
SUNPOU
  6
ByBlock
100
AcDbCircle
 10
7001.029570409933
 20
3367.084839419608
 30
0.0
 40
7.5
100
AcDbArc
 50
90.0
 51
270.0
  0
ARC
  5
17B01
330
17637
100
AcDbEntity
  8
SUNPOU
  6
ByBlock
100
AcDbCircle
 10
7466.741617209526
 20
2519.084839419599
 30
0.0
 40
7.5
100
AcDbArc
 50
90.0
 51
270.0
  0
ARC
  5
17B02
330
17637
100
AcDbEntity
  8
SUNPOU
  6
ByBlock
100
AcDbCircle
 10
7466.741617209526
 20
2519.084839419599
 30
0.0
 40
7.5
100
AcDbArc
 50
270.0
 51
90.0
  0
ARC
  5
17B03
330
17637
100
AcDbEntity
  8
SUNPOU
  6
ByBlock
100
AcDbCircle
 10
7466.741617209526
 20
2679.084839419599
 30
0.0
 40
7.5
100
AcDbArc
 50
270.0
 51
90.0
  0
ARC
  5
17B04
330
17637
100
AcDbEntity
  8
SUNPOU
  6
ByBlock
100
AcDbCircle
 10
7466.741617209526
 20
2679.084839419599
 30
0.0
 40
7.5
100
AcDbArc
 50
90.0
 51
270.0
  0
ARC
  5
17B05
330
17637
100
AcDbEntity
  8
SUNPOU
  6
ByBlock
100
AcDbCircle
 10
7269.149830425106
 20
2519.084839419599
 30
0.0
 40
7.5
100
AcDbArc
 50
90.0
 51
270.0
  0
ARC
  5
17B06
330
17637
100
AcDbEntity
  8
SUNPOU
  6
ByBlock
100
AcDbCircle
 10
7269.149830425106
 20
2519.084839419599
 30
0.0
 40
7.5
100
AcDbArc
 50
270.0
 51
90.0
  0
ARC
  5
17B07
330
17637
100
AcDbEntity
  8
SUNPOU
  6
ByBlock
100
AcDbCircle
 10
7269.149830425106
 20
3447.084839419608
 30
0.0
 40
7.5
100
AcDbArc
 50
270.0
 51
90.0
  0
ARC
  5
17B08
330
17637
100
AcDbEntity
  8
SUNPOU
  6
ByBlock
100
AcDbCircle
 10
7269.149830425106
 20
3447.084839419608
 30
0.0
 40
7.5
100
AcDbArc
 50
90.0
 51
270.0
  0
ARC
  5
17B09
330
17637
100
AcDbEntity
  8
SUNPOU
  6
ByBlock
100
AcDbCircle
 10
12273.40680314955
 20
3886.33703658456
 30
0.0
 40
7.5
100
AcDbArc
 50
270.0
 51
90.0
  0
ARC
  5
17B0A
330
17637
100
AcDbEntity
  8
SUNPOU
  6
ByBlock
100
AcDbCircle
 10
12273.40680314955
 20
3886.33703658456
 30
0.0
 40
7.5
100
AcDbArc
 50
90.0
 51
270.0
  0
ARC
  5
17B0B
330
17637
100
AcDbEntity
  8
SUNPOU
  6
ByBlock
100
AcDbCircle
 10
12273.40680314955
 20
3726.33703658456
 30
0.0
 40
7.5
100
AcDbArc
 50
90.0
 51
270.0
  0
ARC
  5
17B0C
330
17637
100
AcDbEntity
  8
SUNPOU
  6
ByBlock
100
AcDbCircle
 10
12273.40680314955
 20
3726.33703658456
 30
0.0
 40
7.5
100
AcDbArc
 50
270.0
 51
90.0
  0
ARC
  5
17B0D
330
17637
100
AcDbEntity
  8
SUNPOU
  6
ByBlock
100
AcDbCircle
 10
12273.40680314955
 20
3618.337036584561
 30
0.0
 40
7.5
100
AcDbArc
 50
270.0
 51
90.0
  0
ARC
  5
17B0E
330
17637
100
AcDbEntity
  8
SUNPOU
  6
ByBlock
100
AcDbCircle
 10
12273.40680314955
 20
3618.337036584561
 30
0.0
 40
7.5
100
AcDbArc
 50
90.0
 51
270.0
  0
ARC
  5
17B0F
330
17637
100
AcDbEntity
  8
SUNPOU
  6
ByBlock
100
AcDbCircle
 10
12273.40680314955
 20
3726.33703658456
 30
0.0
 40
7.5
100
AcDbArc
 50
90.0
 51
270.0
  0
ARC
  5
17B10
330
17637
100
AcDbEntity
  8
SUNPOU
  6
ByBlock
100
AcDbCircle
 10
12273.40680314955
 20
3726.33703658456
 30
0.0
 40
7.5
100
AcDbArc
 50
270.0
 51
90.0
  0
ARC
  5
17B11
330
17637
100
AcDbEntity
  8
SUNPOU
  6
ByBlock
100
AcDbCircle
 10
11861.33837406209
 20
2245.804976716085
 30
0.0
 40
7.5
100
AcDbArc
 50
0.0
 51
180.0
  0
ARC
  5
17B12
330
17637
100
AcDbEntity
  8
SUNPOU
  6
ByBlock
100
AcDbCircle
 10
11861.33837406209
 20
2245.804976716085
 30
0.0
 40
7.5
100
AcDbArc
 50
180.0
 51
0.0
  0
ARC
  5
17B13
330
17637
100
AcDbEntity
  8
SUNPOU
  6
ByBlock
100
AcDbCircle
 10
11781.33837406209
 20
2245.804976716085
 30
0.0
 40
7.5
100
AcDbArc
 50
180.0
 51
0.0
  0
ARC
  5
17B14
330
17637
100
AcDbEntity
  8
SUNPOU
  6
ByBlock
100
AcDbCircle
 10
11781.33837406209
 20
2245.804976716085
 30
0.0
 40
7.5
100
AcDbArc
 50
0.0
 51
180.0
  0
ARC
  5
17B15
330
17637
100
AcDbEntity
  8
SUNPOU
  6
ByBlock
100
AcDbCircle
 10
11781.33837406209
 20
2245.804976716085
 30
0.0
 40
7.5
100
AcDbArc
 50
180.0
 51
0.0
  0
ARC
  5
17B16
330
17637
100
AcDbEntity
  8
SUNPOU
  6
ByBlock
100
AcDbCircle
 10
11781.33837406209
 20
2245.804976716085
 30
0.0
 40
7.5
100
AcDbArc
 50
0.0
 51
180.0
  0
ARC
  5
17B17
330
17637
100
AcDbEntity
  8
SUNPOU
  6
ByBlock
100
AcDbCircle
 10
11301.33837406211
 20
2245.804976716085
 30
0.0
 40
7.5
100
AcDbArc
 50
0.0
 51
180.0
  0
ARC
  5
17B18
330
17637
100
AcDbEntity
  8
SUNPOU
  6
ByBlock
100
AcDbCircle
 10
11301.33837406211
 20
2245.804976716085
 30
0.0
 40
7.5
100
AcDbArc
 50
180.0
 51
0.0
  0
ARC
  5
17B19
330
17637
100
AcDbEntity
  8
SUNPOU
  6
ByBlock
100
AcDbCircle
 10
11221.33837406209
 20
2245.804976716085
 30
0.0
 40
7.5
100
AcDbArc
 50
180.0
 51
0.0
  0
ARC
  5
17B1A
330
17637
100
AcDbEntity
  8
SUNPOU
  6
ByBlock
100
AcDbCircle
 10
11221.33837406209
 20
2245.804976716085
 30
0.0
 40
7.5
100
AcDbArc
 50
0.0
 51
180.0
  0
ARC
  5
17B1B
330
17637
100
AcDbEntity
  8
SUNPOU
  6
ByBlock
100
AcDbCircle
 10
11301.33837406211
 20
2245.804976716085
 30
0.0
 40
7.5
100
AcDbArc
 50
0.0
 51
180.0
  0
ARC
  5
17B1C
330
17637
100
AcDbEntity
  8
SUNPOU
  6
ByBlock
100
AcDbCircle
 10
11301.33837406211
 20
2245.804976716085
 30
0.0
 40
7.5
100
AcDbArc
 50
180.0
 51
0.0
  0
ARC
  5
17B1D
330
17637
100
AcDbEntity
  8
SUNPOU
  6
ByBlock
100
AcDbCircle
 10
11861.33837406209
 20
2035.804976716086
 30
0.0
 40
7.5
100
AcDbArc
 50
180.0
 51
0.0
  0
ARC
  5
17B1E
330
17637
100
AcDbEntity
  8
SUNPOU
  6
ByBlock
100
AcDbCircle
 10
11861.33837406209
 20
2035.804976716086
 30
0.0
 40
7.5
100
AcDbArc
 50
0.0
 51
180.0
  0
ARC
  5
17B1F
330
17637
100
AcDbEntity
  8
SUNPOU
  6
ByBlock
100
AcDbCircle
 10
11221.33837406209
 20
2035.804976716086
 30
0.0
 40
7.5
100
AcDbArc
 50
0.0
 51
180.0
  0
ARC
  5
17B20
330
17637
100
AcDbEntity
  8
SUNPOU
  6
ByBlock
100
AcDbCircle
 10
11221.33837406209
 20
2035.804976716086
 30
0.0
 40
7.5
100
AcDbArc
 50
180.0
 51
0.0
  0
ARC
  5
17B21
330
17637
100
AcDbEntity
  8
SUNPOU
  6
ByBlock
100
AcDbCircle
 10
10918.33837406209
 20
2540.144344053149
 30
0.0
 40
7.5
100
AcDbArc
 50
90.0
 51
270.0
  0
ARC
  5
17B22
330
17637
100
AcDbEntity
  8
SUNPOU
  6
ByBlock
100
AcDbCircle
 10
10918.33837406209
 20
2540.144344053149
 30
0.0
 40
7.5
100
AcDbArc
 50
270.0
 51
90.0
  0
ARC
  5
17B23
330
17637
100
AcDbEntity
  8
SUNPOU
  6
ByBlock
100
AcDbCircle
 10
10918.33837406209
 20
2700.144344053149
 30
0.0
 40
7.5
100
AcDbArc
 50
270.0
 51
90.0
  0
ARC
  5
17B24
330
17637
100
AcDbEntity
  8
SUNPOU
  6
ByBlock
100
AcDbCircle
 10
10918.33837406209
 20
2700.144344053149
 30
0.0
 40
7.5
100
AcDbArc
 50
90.0
 51
270.0
  0
ARC
  5
17B25
330
17637
100
AcDbEntity
  8
SUNPOU
  6
ByBlock
100
AcDbCircle
 10
10918.33837406209
 20
2860.144344053149
 30
0.0
 40
7.5
100
AcDbArc
 50
270.0
 51
90.0
  0
ARC
  5
17B26
330
17637
100
AcDbEntity
  8
SUNPOU
  6
ByBlock
100
AcDbCircle
 10
10918.33837406209
 20
2860.144344053149
 30
0.0
 40
7.5
100
AcDbArc
 50
90.0
 51
270.0
  0
ARC
  5
17B27
330
17637
100
AcDbEntity
  8
SUNPOU
  6
ByBlock
100
AcDbCircle
 10
10918.33837406209
 20
2700.144344053149
 30
0.0
 40
7.5
100
AcDbArc
 50
90.0
 51
270.0
  0
ARC
  5
17B28
330
17637
100
AcDbEntity
  8
SUNPOU
  6
ByBlock
100
AcDbCircle
 10
10918.33837406209
 20
2700.144344053149
 30
0.0
 40
7.5
100
AcDbArc
 50
270.0
 51
90.0
  0
ARC
  5
17B29
330
17637
100
AcDbEntity
  8
SUNPOU
  6
ByBlock
100
AcDbCircle
 10
10708.33837406208
 20
2860.144344053149
 30
0.0
 40
7.5
100
AcDbArc
 50
270.0
 51
90.0
  0
ARC
  5
17B2A
330
17637
100
AcDbEntity
  8
SUNPOU
  6
ByBlock
100
AcDbCircle
 10
10708.33837406208
 20
2860.144344053149
 30
0.0
 40
7.5
100
AcDbArc
 50
90.0
 51
270.0
  0
ARC
  5
17B2B
330
17637
100
AcDbEntity
  8
SUNPOU
  6
ByBlock
100
AcDbCircle
 10
10708.33837406208
 20
2540.144344053149
 30
0.0
 40
7.5
100
AcDbArc
 50
90.0
 51
270.0
  0
ARC
  5
17B2C
330
17637
100
AcDbEntity
  8
SUNPOU
  6
ByBlock
100
AcDbCircle
 10
10708.33837406208
 20
2540.144344053149
 30
0.0
 40
7.5
100
AcDbArc
 50
270.0
 51
90.0
  0
ARC
  5
17B2D
330
17637
100
AcDbEntity
  8
SUNPOU
  6
ByBlock
100
AcDbCircle
 10
11861.33837406209
 20
3394.170862655057
 30
0.0
 40
7.5
100
AcDbArc
 50
0.0
 51
180.0
  0
ARC
  5
17B2E
330
17637
100
AcDbEntity
  8
SUNPOU
  6
ByBlock
100
AcDbCircle
 10
11861.33837406209
 20
3394.170862655057
 30
0.0
 40
7.5
100
AcDbArc
 50
180.0
 51
0.0
  0
ARC
  5
17B2F
330
17637
100
AcDbEntity
  8
SUNPOU
  6
ByBlock
100
AcDbCircle
 10
11781.33837406209
 20
3394.170862655057
 30
0.0
 40
7.5
100
AcDbArc
 50
180.0
 51
0.0
  0
ARC
  5
17B30
330
17637
100
AcDbEntity
  8
SUNPOU
  6
ByBlock
100
AcDbCircle
 10
11781.33837406209
 20
3394.170862655057
 30
0.0
 40
7.5
100
AcDbArc
 50
0.0
 51
180.0
  0
ARC
  5
17B31
330
17637
100
AcDbEntity
  8
SUNPOU
  6
ByBlock
100
AcDbCircle
 10
11781.33837406209
 20
3394.170862655057
 30
0.0
 40
7.5
100
AcDbArc
 50
180.0
 51
0.0
  0
ARC
  5
17B32
330
17637
100
AcDbEntity
  8
SUNPOU
  6
ByBlock
100
AcDbCircle
 10
11781.33837406209
 20
3394.170862655057
 30
0.0
 40
7.5
100
AcDbArc
 50
0.0
 51
180.0
  0
ARC
  5
17B33
330
17637
100
AcDbEntity
  8
SUNPOU
  6
ByBlock
100
AcDbCircle
 10
11301.33837406211
 20
3394.170862655057
 30
0.0
 40
7.5
100
AcDbArc
 50
0.0
 51
180.0
  0
ARC
  5
17B34
330
17637
100
AcDbEntity
  8
SUNPOU
  6
ByBlock
100
AcDbCircle
 10
11301.33837406211
 20
3394.170862655057
 30
0.0
 40
7.5
100
AcDbArc
 50
180.0
 51
0.0
  0
ARC
  5
17B35
330
17637
100
AcDbEntity
  8
SUNPOU
  6
ByBlock
100
AcDbCircle
 10
11221.33837406209
 20
3394.170862655057
 30
0.0
 40
7.5
100
AcDbArc
 50
180.0
 51
0.0
  0
ARC
  5
17B36
330
17637
100
AcDbEntity
  8
SUNPOU
  6
ByBlock
100
AcDbCircle
 10
11221.33837406209
 20
3394.170862655057
 30
0.0
 40
7.5
100
AcDbArc
 50
0.0
 51
180.0
  0
ARC
  5
17B37
330
17637
100
AcDbEntity
  8
SUNPOU
  6
ByBlock
100
AcDbCircle
 10
11301.33837406211
 20
3394.170862655057
 30
0.0
 40
7.5
100
AcDbArc
 50
0.0
 51
180.0
  0
ARC
  5
17B38
330
17637
100
AcDbEntity
  8
SUNPOU
  6
ByBlock
100
AcDbCircle
 10
11301.33837406211
 20
3394.170862655057
 30
0.0
 40
7.5
100
AcDbArc
 50
180.0
 51
0.0
  0
ARC
  5
17B39
330
17637
100
AcDbEntity
  8
SUNPOU
  6
ByBlock
100
AcDbCircle
 10
11861.33837406209
 20
3184.170862655058
 30
0.0
 40
7.5
100
AcDbArc
 50
180.0
 51
0.0
  0
ARC
  5
17B3A
330
17637
100
AcDbEntity
  8
SUNPOU
  6
ByBlock
100
AcDbCircle
 10
11861.33837406209
 20
3184.170862655058
 30
0.0
 40
7.5
100
AcDbArc
 50
0.0
 51
180.0
  0
ARC
  5
17B3B
330
17637
100
AcDbEntity
  8
SUNPOU
  6
ByBlock
100
AcDbCircle
 10
11221.33837406209
 20
3184.170862655058
 30
0.0
 40
7.5
100
AcDbArc
 50
0.0
 51
180.0
  0
ARC
  5
17B3C
330
17637
100
AcDbEntity
  8
SUNPOU
  6
ByBlock
100
AcDbCircle
 10
11221.33837406209
 20
3184.170862655058
 30
0.0
 40
7.5
100
AcDbArc
 50
180.0
 51
0.0
  0
ARC
  5
17B3D
330
17637
100
AcDbEntity
  8
SUNPOU
  6
ByBlock
100
AcDbCircle
 10
9371.882670973588
 20
2116.684839419598
 30
0.0
 40
7.5
100
AcDbArc
 50
180.0
 51
0.0
  0
ARC
  5
17B3E
330
17637
100
AcDbEntity
  8
SUNPOU
  6
ByBlock
100
AcDbCircle
 10
9371.882670973588
 20
2116.684839419598
 30
0.0
 40
7.5
100
AcDbArc
 50
0.0
 51
180.0
  0
ARC
  5
17B3F
330
17637
100
AcDbEntity
  8
SUNPOU
  6
ByBlock
100
AcDbCircle
 10
8251.882670973586
 20
2116.684839419598
 30
0.0
 40
7.5
100
AcDbArc
 50
0.0
 51
180.0
  0
ARC
  5
17B40
330
17637
100
AcDbEntity
  8
SUNPOU
  6
ByBlock
100
AcDbCircle
 10
8251.882670973586
 20
2116.684839419598
 30
0.0
 40
7.5
100
AcDbArc
 50
180.0
 51
0.0
  0
ARC
  5
17B41
330
17637
100
AcDbEntity
  8
SUNPOU
  6
ByBlock
100
AcDbCircle
 10
9531.882670973585
 20
1906.684839419597
 30
0.0
 40
7.5
100
AcDbArc
 50
180.0
 51
0.0
  0
ARC
  5
17B42
330
17637
100
AcDbEntity
  8
SUNPOU
  6
ByBlock
100
AcDbCircle
 10
9531.882670973585
 20
1906.684839419597
 30
0.0
 40
7.5
100
AcDbArc
 50
0.0
 51
180.0
  0
ARC
  5
17B43
330
17637
100
AcDbEntity
  8
SUNPOU
  6
ByBlock
100
AcDbCircle
 10
8091.882670973587
 20
1906.684839419597
 30
0.0
 40
7.5
100
AcDbArc
 50
0.0
 51
180.0
  0
ARC
  5
17B44
330
17637
100
AcDbEntity
  8
SUNPOU
  6
ByBlock
100
AcDbCircle
 10
8091.882670973587
 20
1906.684839419597
 30
0.0
 40
7.5
100
AcDbArc
 50
180.0
 51
0.0
  0
ARC
  5
17B45
330
17637
100
AcDbEntity
  8
SUNPOU
  6
ByBlock
100
AcDbCircle
 10
7691.882670973587
 20
4130.485411556196
 30
0.0
 40
7.5
100
AcDbArc
 50
0.0
 51
180.0
  0
ARC
  5
17B46
330
17637
100
AcDbEntity
  8
SUNPOU
  6
ByBlock
100
AcDbCircle
 10
7691.882670973587
 20
4130.485411556196
 30
0.0
 40
7.5
100
AcDbArc
 50
180.0
 51
0.0
  0
ARC
  5
17B47
330
17637
100
AcDbEntity
  8
SUNPOU
  6
ByBlock
100
AcDbCircle
 10
8811.882670973586
 20
4130.485411556196
 30
0.0
 40
7.5
100
AcDbArc
 50
180.0
 51
0.0
  0
ARC
  5
17B48
330
17637
100
AcDbEntity
  8
SUNPOU
  6
ByBlock
100
AcDbCircle
 10
8811.882670973586
 20
4130.485411556196
 30
0.0
 40
7.5
100
AcDbArc
 50
0.0
 51
180.0
  0
ARC
  5
17B49
330
17637
100
AcDbEntity
  8
SUNPOU
  6
ByBlock
100
AcDbCircle
 10
5359.797051267463
 20
2116.684839419598
 30
0.0
 40
7.5
100
AcDbArc
 50
180.0
 51
0.0
  0
ARC
  5
17B4A
330
17637
100
AcDbEntity
  8
SUNPOU
  6
ByBlock
100
AcDbCircle
 10
5359.797051267463
 20
2116.684839419598
 30
0.0
 40
7.5
100
AcDbArc
 50
0.0
 51
180.0
  0
ARC
  5
17B4B
330
17637
100
AcDbEntity
  8
SUNPOU
  6
ByBlock
100
AcDbCircle
 10
4239.797051267464
 20
2116.684839419598
 30
0.0
 40
7.5
100
AcDbArc
 50
0.0
 51
180.0
  0
ARC
  5
17B4C
330
17637
100
AcDbEntity
  8
SUNPOU
  6
ByBlock
100
AcDbCircle
 10
4239.797051267464
 20
2116.684839419598
 30
0.0
 40
7.5
100
AcDbArc
 50
180.0
 51
0.0
  0
ARC
  5
17B4D
330
17637
100
AcDbEntity
  8
SUNPOU
  6
ByBlock
100
AcDbCircle
 10
5519.797051267461
 20
1906.684839419597
 30
0.0
 40
7.5
100
AcDbArc
 50
180.0
 51
0.0
  0
ARC
  5
17B4E
330
17637
100
AcDbEntity
  8
SUNPOU
  6
ByBlock
100
AcDbCircle
 10
5519.797051267461
 20
1906.684839419597
 30
0.0
 40
7.5
100
AcDbArc
 50
0.0
 51
180.0
  0
ARC
  5
17B4F
330
17637
100
AcDbEntity
  8
SUNPOU
  6
ByBlock
100
AcDbCircle
 10
4079.797051267461
 20
1906.684839419597
 30
0.0
 40
7.5
100
AcDbArc
 50
0.0
 51
180.0
  0
ARC
  5
17B50
330
17637
100
AcDbEntity
  8
SUNPOU
  6
ByBlock
100
AcDbCircle
 10
4079.797051267461
 20
1906.684839419597
 30
0.0
 40
7.5
100
AcDbArc
 50
180.0
 51
0.0
  0
ARC
  5
17B51
330
17637
100
AcDbEntity
  8
SUNPOU
  6
ByBlock
100
AcDbCircle
 10
4239.797051267464
 20
4130.485411556192
 30
0.0
 40
7.5
100
AcDbArc
 50
0.0
 51
180.0
  0
ARC
  5
17B52
330
17637
100
AcDbEntity
  8
SUNPOU
  6
ByBlock
100
AcDbCircle
 10
4239.797051267464
 20
4130.485411556192
 30
0.0
 40
7.5
100
AcDbArc
 50
180.0
 51
0.0
  0
ARC
  5
17B53
330
17637
100
AcDbEntity
  8
SUNPOU
  6
ByBlock
100
AcDbCircle
 10
4799.797051267463
 20
4130.485411556192
 30
0.0
 40
7.5
100
AcDbArc
 50
180.0
 51
0.0
  0
ARC
  5
17B54
330
17637
100
AcDbEntity
  8
SUNPOU
  6
ByBlock
100
AcDbCircle
 10
4799.797051267463
 20
4130.485411556192
 30
0.0
 40
7.5
100
AcDbArc
 50
0.0
 51
180.0
  0
ARC
  5
17B55
330
17637
100
AcDbEntity
  8
SUNPOU
  6
ByBlock
100
AcDbCircle
 10
12369.12750789964
 20
6308.693182432332
 30
0.0
 40
7.5
100
AcDbArc
 50
180.0
 51
0.0
  0
ARC
  5
17B56
330
17637
100
AcDbEntity
  8
SUNPOU
  6
ByBlock
100
AcDbCircle
 10
12369.12750789964
 20
6308.693182432332
 30
0.0
 40
7.5
100
AcDbArc
 50
0.0
 51
180.0
  0
ARC
  5
17B57
330
17637
100
AcDbEntity
  8
SUNPOU
  6
ByBlock
100
AcDbCircle
 10
12019.12750789964
 20
6308.693182432332
 30
0.0
 40
7.5
100
AcDbArc
 50
0.0
 51
180.0
  0
ARC
  5
17B58
330
17637
100
AcDbEntity
  8
SUNPOU
  6
ByBlock
100
AcDbCircle
 10
12019.12750789964
 20
6308.693182432332
 30
0.0
 40
7.5
100
AcDbArc
 50
180.0
 51
0.0
  0
ARC
  5
17B59
330
17637
100
AcDbEntity
  8
SUNPOU
  6
ByBlock
100
AcDbCircle
 10
12019.12750789964
 20
6308.693182432332
 30
0.0
 40
7.5
100
AcDbArc
 50
180.0
 51
0.0
  0
ARC
  5
17B5A
330
17637
100
AcDbEntity
  8
SUNPOU
  6
ByBlock
100
AcDbCircle
 10
12019.12750789964
 20
6308.693182432332
 30
0.0
 40
7.5
100
AcDbArc
 50
0.0
 51
180.0
  0
ARC
  5
17B5B
330
17637
100
AcDbEntity
  8
SUNPOU
  6
ByBlock
100
AcDbCircle
 10
9619.127507899648
 20
6308.693182432332
 30
0.0
 40
7.5
100
AcDbArc
 50
0.0
 51
180.0
  0
ARC
  5
17B5C
330
17637
100
AcDbEntity
  8
SUNPOU
  6
ByBlock
100
AcDbCircle
 10
9619.127507899648
 20
6308.693182432332
 30
0.0
 40
7.5
100
AcDbArc
 50
180.0
 51
0.0
  0
ARC
  5
17B5D
330
17637
100
AcDbEntity
  8
SUNPOU
  6
ByBlock
100
AcDbCircle
 10
9619.127507899648
 20
6308.693182432332
 30
0.0
 40
7.5
100
AcDbArc
 50
180.0
 51
0.0
  0
ARC
  5
17B5E
330
17637
100
AcDbEntity
  8
SUNPOU
  6
ByBlock
100
AcDbCircle
 10
9619.127507899648
 20
6308.693182432332
 30
0.0
 40
7.5
100
AcDbArc
 50
0.0
 51
180.0
  0
ARC
  5
17B5F
330
17637
100
AcDbEntity
  8
SUNPOU
  6
ByBlock
100
AcDbCircle
 10
7219.127507899646
 20
6308.693182432332
 30
0.0
 40
7.5
100
AcDbArc
 50
0.0
 51
180.0
  0
ARC
  5
17B60
330
17637
100
AcDbEntity
  8
SUNPOU
  6
ByBlock
100
AcDbCircle
 10
7219.127507899646
 20
6308.693182432332
 30
0.0
 40
7.5
100
AcDbArc
 50
180.0
 51
0.0
  0
ARC
  5
17B61
330
17637
100
AcDbEntity
  8
SUNPOU
  6
ByBlock
100
AcDbCircle
 10
7219.127507899646
 20
6308.693182432332
 30
0.0
 40
7.5
100
AcDbArc
 50
180.0
 51
0.0
  0
ARC
  5
17B62
330
17637
100
AcDbEntity
  8
SUNPOU
  6
ByBlock
100
AcDbCircle
 10
7219.127507899646
 20
6308.693182432332
 30
0.0
 40
7.5
100
AcDbArc
 50
0.0
 51
180.0
  0
ARC
  5
17B63
330
17637
100
AcDbEntity
  8
SUNPOU
  6
ByBlock
100
AcDbCircle
 10
4819.127507899647
 20
6308.693182432332
 30
0.0
 40
7.5
100
AcDbArc
 50
0.0
 51
180.0
  0
ARC
  5
17B64
330
17637
100
AcDbEntity
  8
SUNPOU
  6
ByBlock
100
AcDbCircle
 10
4819.127507899647
 20
6308.693182432332
 30
0.0
 40
7.5
100
AcDbArc
 50
180.0
 51
0.0
  0
ARC
  5
17B65
330
17637
100
AcDbEntity
  8
SUNPOU
  6
ByBlock
100
AcDbCircle
 10
4819.127507899647
 20
6308.693182432332
 30
0.0
 40
7.5
100
AcDbArc
 50
180.0
 51
0.0
  0
ARC
  5
17B66
330
17637
100
AcDbEntity
  8
SUNPOU
  6
ByBlock
100
AcDbCircle
 10
4819.127507899647
 20
6308.693182432332
 30
0.0
 40
7.5
100
AcDbArc
 50
0.0
 51
180.0
  0
ARC
  5
17B67
330
17637
100
AcDbEntity
  8
SUNPOU
  6
ByBlock
100
AcDbCircle
 10
4469.127507899647
 20
6308.693182432332
 30
0.0
 40
7.5
100
AcDbArc
 50
0.0
 51
180.0
  0
ARC
  5
17B68
330
17637
100
AcDbEntity
  8
SUNPOU
  6
ByBlock
100
AcDbCircle
 10
4469.127507899647
 20
6308.693182432332
 30
0.0
 40
7.5
100
AcDbArc
 50
180.0
 51
0.0
  0
ARC
  5
17B69
330
17637
100
AcDbEntity
  8
HIKIDASHI
100
AcDbCircle
 10
7600.51260536052
 20
1889.069567942468
 30
0.0
 40
74.66417910452284
100
AcDbArc
 50
164.8596129850915
 51
237.504500294165
  0
ARC
  5
17B6A
330
17637
100
AcDbEntity
  8
HIKIDASHI
100
AcDbCircle
 10
7537.088811314217
 20
1906.230591426951
 30
0.0
 40
8.959701492542745
100
AcDbArc
 50
15.14038701503429
 51
164.8596129849655
  0
LINE
  5
17B6B
330
17637
100
AcDbEntity
  8
HIKIDASHI
100
AcDbLine
 10
11865.19119696312
 20
2619.990092191335
 30
0.0
 11
12256.64239875644
 21
2245.804976716085
 31
0.0
1001
ACAD
1000
DSTYLE
1002
{
1070
   147
1040
1.0
1070
    77
1070
     0
1002
}
  0
LINE
  5
17B6C
330
17637
100
AcDbEntity
  8
HIKIDASHI
100
AcDbLine
 10
11874.40432936103
 20
2629.628347697202
 30
0.0
 11
11807.36166392793
 21
2675.268886578793
 31
0.0
  0
LINE
  5
17B6D
330
17637
100
AcDbEntity
  8
HIKIDASHI
100
AcDbLine
 10
11807.36166392793
 20
2675.268886578793
 30
0.0
 11
11855.97806456522
 21
2610.351836685468
 31
0.0
  0
SOLID
  5
17B6E
330
17637
100
AcDbEntity
  8
HIKIDASHI
100
AcDbTrace
 10
11874.40432936103
 20
2629.628347697202
 30
0.0
 11
11855.97806456522
 21
2610.351836685468
 31
0.0
 12
11807.36166392793
 22
2675.268886578793
 32
0.0
 13
11807.36166392793
 23
2675.268886578793
 33
0.0
  0
LINE
  5
17B6F
330
17637
100
AcDbEntity
  8
HIKIDASHI
100
AcDbLine
 10
11855.97806456522
 20
2610.351836685468
 30
0.0
 11
11874.40432936103
 21
2629.628347697202
 31
0.0
  0
LINE
  5
17B70
330
17637
100
AcDbEntity
  8
HIKIDASHI
100
AcDbLine
 10
11918.49428872015
 20
2916.119351150967
 30
0.0
 11
12073.23363223807
 21
3067.661600164834
 31
0.0
1001
ACAD
1000
DSTYLE
1002
{
1070
   147
1040
1.0
1070
    77
1070
     0
1002
}
  0
LINE
  5
17B71
330
17637
100
AcDbEntity
  8
HIKIDASHI
100
AcDbLine
 10
11909.16512087052
 20
2925.645336927309
 30
0.0
 11
11861.33837406209
 21
2860.144344053149
 31
0.0
  0
LINE
  5
17B72
330
17637
100
AcDbEntity
  8
HIKIDASHI
100
AcDbLine
 10
11861.33837406209
 20
2860.144344053149
 30
0.0
 11
11927.82345656978
 21
2906.593365374622
 31
0.0
  0
SOLID
  5
17B73
330
17637
100
AcDbEntity
  8
HIKIDASHI
100
AcDbTrace
 10
11909.16512087052
 20
2925.645336927309
 30
0.0
 11
11927.82345656978
 21
2906.593365374622
 31
0.0
 12
11861.33837406209
 22
2860.144344053149
 32
0.0
 13
11861.33837406209
 23
2860.144344053149
 33
0.0
  0
LINE
  5
17B74
330
17637
100
AcDbEntity
  8
HIKIDASHI
100
AcDbLine
 10
11927.82345656978
 20
2906.593365374622
 30
0.0
 11
11909.16512087052
 21
2925.645336927309
 31
0.0
  0
LINE
  5
17B75
330
17637
100
AcDbEntity
  8
HIKIDASHI
100
AcDbLine
 10
8597.202471512984
 20
2790.288985226448
 30
0.0
 11
7799.784826072478
 21
1938.684839419604
 31
0.0
1001
ACAD
1000
DSTYLE
1002
{
1070
   147
1040
1.0
1070
    77
1070
     0
1002
}
  0
LINE
  5
17B76
330
17637
100
AcDbEntity
  8
HIKIDASHI
100
AcDbLine
 10
8606.93511387851
 20
2781.17561864968
 30
0.0
 11
8651.882670973586
 21
2848.684839419607
 31
0.0
  0
LINE
  5
17B77
330
17637
100
AcDbEntity
  8
HIKIDASHI
100
AcDbLine
 10
8651.882670973586
 20
2848.684839419607
 30
0.0
 11
8587.469829147456
 21
2799.402351803216
 31
0.0
  0
SOLID
  5
17B78
330
17637
100
AcDbEntity
  8
HIKIDASHI
100
AcDbTrace
 10
8606.93511387851
 20
2781.17561864968
 30
0.0
 11
8587.469829147456
 21
2799.402351803216
 31
0.0
 12
8651.882670973586
 22
2848.684839419607
 32
0.0
 13
8651.882670973586
 23
2848.684839419607
 33
0.0
  0
LINE
  5
17B79
330
17637
100
AcDbEntity
  8
HIKIDASHI
100
AcDbLine
 10
8587.469829147456
 20
2799.402351803216
 30
0.0
 11
8606.93511387851
 21
2781.17561864968
 31
0.0
  0
ARC
  5
17B7A
330
17637
100
AcDbEntity
  8
HIKIDASHI
100
AcDbCircle
 10
7474.844543803648
 20
1890.249695302057
 30
0.0
 40
74.66417910452232
100
AcDbArc
 50
301.7712278330705
 51
15.14038701490951
  0
LINE
  5
17B7B
330
17637
100
AcDbEntity
  8
HIKIDASHI
100
AcDbLine
 10
5106.084662666018
 20
3516.366871722365
 30
0.0
 11
5333.860047839355
 21
3910.885411556197
 31
0.0
1001
ACAD
1000
DSTYLE
1002
{
1070
   147
1040
1.0
1070
    77
1070
     0
1002
}
  0
LINE
  5
17B7C
330
17637
100
AcDbEntity
  8
HIKIDASHI
100
AcDbLine
 10
5094.537657282226
 20
3523.033538389032
 30
0.0
 11
5066.084662666021
 21
3447.084839419609
 31
0.0
  0
LINE
  5
17B7D
330
17637
100
AcDbEntity
  8
HIKIDASHI
100
AcDbLine
 10
5066.084662666021
 20
3447.084839419609
 30
0.0
 11
5117.631668049813
 21
3509.7002050557
 31
0.0
  0
SOLID
  5
17B7E
330
17637
100
AcDbEntity
  8
HIKIDASHI
100
AcDbTrace
 10
5094.537657282226
 20
3523.033538389032
 30
0.0
 11
5117.631668049813
 21
3509.7002050557
 31
0.0
 12
5066.084662666021
 22
3447.084839419609
 32
0.0
 13
5066.084662666021
 23
3447.084839419609
 33
0.0
  0
LINE
  5
17B7F
330
17637
100
AcDbEntity
  8
HIKIDASHI
100
AcDbLine
 10
5117.631668049813
 20
3509.7002050557
 30
0.0
 11
5094.537657282226
 21
3523.033538389032
 31
0.0
  0
LINE
  5
17B80
330
17637
100
AcDbEntity
  8
HIKIDASHI
100
AcDbLine
 10
5569.136067929489
 20
2481.711341542923
 30
0.0
 11
5736.338096802658
 21
2268.30423855288
 31
0.0
1001
ACAD
1000
DSTYLE
1002
{
1070
   147
1040
1.0
1070
    77
1070
     0
1002
}
  0
LINE
  5
17B81
330
17637
100
AcDbEntity
  8
HIKIDASHI
100
AcDbLine
 10
5579.631650908936
 20
2489.934510986595
 30
0.0
 11
5519.797051267461
 21
2544.684839419602
 31
0.0
  0
LINE
  5
17B82
330
17637
100
AcDbEntity
  8
HIKIDASHI
100
AcDbLine
 10
5519.797051267461
 20
2544.684839419602
 30
0.0
 11
5558.640484950043
 21
2473.488172099251
 31
0.0
  0
SOLID
  5
17B83
330
17637
100
AcDbEntity
  8
HIKIDASHI
100
AcDbTrace
 10
5579.631650908936
 20
2489.934510986595
 30
0.0
 11
5558.640484950043
 21
2473.488172099251
 31
0.0
 12
5519.797051267461
 22
2544.684839419602
 32
0.0
 13
5519.797051267461
 23
2544.684839419602
 33
0.0
  0
LINE
  5
17B84
330
17637
100
AcDbEntity
  8
HIKIDASHI
100
AcDbLine
 10
5558.640484950043
 20
2473.488172099251
 30
0.0
 11
5579.631650908936
 21
2489.934510986595
 31
0.0
  0
LINE
  5
17B85
330
17637
100
AcDbEntity
  8
HIKIDASHI
100
AcDbLine
 10
5447.219932351909
 20
3186.71334053391
 30
0.0
 11
5594.871662611158
 21
2904.114707020879
 31
0.0
1001
ACAD
1000
DSTYLE
1002
{
1070
    41
1040
2.0
1070
   173
1070
     0
1070
   341
1005
125B0
1002
}
  0
ARC
  5
17B86
330
17637
100
AcDbEntity
  8
HIKIDASHI
  6
ByBlock
100
AcDbCircle
 10
5386.303662984126
 20
3260.115302307004
 30
0.0
 40
24.0
100
AcDbArc
 50
241.1434129563093
 51
354.0287934324678
  0
ARC
  5
17B87
330
17637
100
AcDbEntity
  8
HIKIDASHI
  6
ByBlock
100
AcDbCircle
 10
5434.04322936201
 20
3255.121926489831
 30
0.0
 40
24.0
100
AcDbArc
 50
61.14341295630936
 51
174.0287934324676
  0
LINE
  5
17B88
330
17637
100
AcDbEntity
  8
HIKIDASHI
  6
ByBlock
100
AcDbLine
 10
5410.173446173068
 20
3257.618614398416
 30
0.0
 11
5447.219932351919
 21
3186.713340533893
 31
0.0
  0
LINE
  5
17B89
330
17637
100
AcDbEntity
  8
HATCH
100
AcDbLine
 10
7754.354148033359
 20
3191.084839419572
 30
0.0
 11
7735.154148033355
 21
3224.340214924899
 31
0.0
  0
LINE
  5
17B8A
330
17637
100
AcDbEntity
  8
HATCH
100
AcDbLine
 10
7898.354148033359
 20
3191.084839419572
 30
0.0
 11
7879.154148033355
 21
3224.340214924899
 31
0.0
  0
LINE
  5
17B8B
330
17637
100
AcDbEntity
  8
HATCH
100
AcDbLine
 10
8186.354148033361
 20
3191.084839419572
 30
0.0
 11
8167.154148033358
 21
3224.340214924899
 31
0.0
  0
LINE
  5
17B8C
330
17637
100
AcDbEntity
  8
HATCH
100
AcDbLine
 10
8042.354148033361
 20
3191.084839419572
 30
0.0
 11
8023.154148033357
 21
3224.340214924899
 31
0.0
  0
LINE
  5
17B8D
330
17637
100
AcDbEntity
  8
HATCH
100
AcDbLine
 10
8186.35414803143
 20
3191.084839418953
 30
0.0
 11
8167.154148031434
 21
3224.340214924271
 31
0.0
  0
LINE
  5
17B8E
330
17637
100
AcDbEntity
  8
HATCH
100
AcDbLine
 10
7898.35414803143
 20
3191.084839418953
 30
0.0
 11
7879.154148031429
 21
3224.340214924271
 31
0.0
  0
LINE
  5
17B8F
330
17637
100
AcDbEntity
  8
HATCH
100
AcDbLine
 10
7754.35414803143
 20
3191.084839418953
 30
0.0
 11
7735.15414803143
 21
3224.340214924271
 31
0.0
  0
LINE
  5
17B90
330
17637
100
AcDbEntity
  8
HATCH
100
AcDbLine
 10
8042.35414803143
 20
3191.084839418953
 30
0.0
 11
8023.154148031435
 21
3224.340214924271
 31
0.0
  0
LINE
  5
17B91
330
17637
100
AcDbEntity
  8
KISO
100
AcDbLine
 10
5519.797051267461
 20
2679.084839419599
 30
0.0
 11
4079.797051267461
 21
2679.0848394196
 31
0.0
  0
LINE
  5
17B92
330
17637
100
AcDbEntity
  8
KISO
100
AcDbLine
 10
4079.797051267461
 20
2679.0848394196
 30
0.0
 11
4079.797051267461
 21
2519.084839419599
 31
0.0
  0
LINE
  5
17B93
330
17637
100
AcDbEntity
  8
KISO
100
AcDbLine
 10
4079.797051267461
 20
2519.084839419599
 30
0.0
 11
5519.797051267461
 21
2519.084839419599
 31
0.0
  0
LINE
  5
17B94
330
17637
100
AcDbEntity
  8
KISO
100
AcDbLine
 10
5519.797051267461
 20
2519.084839419599
 30
0.0
 11
5519.797051267461
 21
2679.084839419599
 31
0.0
  0
LINE
  5
17B95
330
17637
100
AcDbEntity
  8
KISO
100
AcDbLine
 10
8091.882670973587
 20
2679.084839419599
 30
0.0
 11
9531.882670973585
 21
2679.084839419599
 31
0.0
  0
LINE
  5
17B96
330
17637
100
AcDbEntity
  8
KISO
100
AcDbLine
 10
9531.882670973585
 20
2679.084839419599
 30
0.0
 11
9531.882670973585
 21
2519.084839419599
 31
0.0
  0
LINE
  5
17B97
330
17637
100
AcDbEntity
  8
KISO
100
AcDbLine
 10
9531.882670973585
 20
2519.084839419599
 30
0.0
 11
8091.882670973587
 21
2519.084839419599
 31
0.0
  0
LINE
  5
17B98
330
17637
100
AcDbEntity
  8
KISO
100
AcDbLine
 10
8091.882670973587
 20
2519.084839419599
 30
0.0
 11
8091.882670973587
 21
2679.084839419599
 31
0.0
  0
LINE
  5
17B99
330
17637
100
AcDbEntity
  8
U1
100
AcDbLine
 10
11391.33837406208
 20
2550.144344053149
 30
0.0
 11
11691.33837406209
 21
2550.144344053149
 31
0.0
  0
LINE
  5
17B9A
330
17637
100
AcDbEntity
  8
U1
100
AcDbLine
 10
11691.33837406209
 20
2550.144344053149
 30
0.0
 11
11691.33837406209
 21
2850.144344053148
 31
0.0
  0
LINE
  5
17B9B
330
17637
100
AcDbEntity
  8
U1
100
AcDbLine
 10
11691.33837406209
 20
2850.144344053148
 30
0.0
 11
11391.33837406208
 21
2850.144344053148
 31
0.0
  0
LINE
  5
17B9C
330
17637
100
AcDbEntity
  8
U1
100
AcDbLine
 10
11391.33837406208
 20
2850.144344053148
 30
0.0
 11
11391.33837406208
 21
2550.144344053149
 31
0.0
  0
LINE
  5
17B9D
330
17637
100
AcDbEntity
  8
U1
100
AcDbLine
 10
11221.33837406209
 20
2540.144344053149
 30
0.0
 11
11861.33837406209
 21
2540.144344053149
 31
0.0
  0
LINE
  5
17B9E
330
17637
100
AcDbEntity
  8
U1
100
AcDbLine
 10
11861.33837406209
 20
2540.144344053149
 30
0.0
 11
11861.33837406209
 21
2860.144344053149
 31
0.0
  0
LINE
  5
17B9F
330
17637
100
AcDbEntity
  8
U1
100
AcDbLine
 10
11861.33837406209
 20
2860.144344053149
 30
0.0
 11
11221.33837406209
 21
2860.144344053149
 31
0.0
  0
LINE
  5
17BA0
330
17637
100
AcDbEntity
  8
U1
100
AcDbLine
 10
11221.33837406209
 20
2860.144344053149
 30
0.0
 11
11221.33837406209
 21
2540.144344053149
 31
0.0
  0
LINE
  5
17BA1
330
17637
100
AcDbEntity
  8
U1
100
AcDbLine
 10
11221.33837406209
 20
3618.337036584561
 30
0.0
 11
11861.33837406209
 21
3618.337036584561
 31
0.0
  0
LINE
  5
17BA2
330
17637
100
AcDbEntity
  8
U1
100
AcDbLine
 10
11861.33837406209
 20
3618.337036584561
 30
0.0
 11
11861.33837406209
 21
3642.337036584561
 31
0.0
  0
LINE
  5
17BA3
330
17637
100
AcDbEntity
  8
U1
100
AcDbLine
 10
11861.33837406209
 20
3642.337036584561
 30
0.0
 11
11221.33837406209
 21
3642.337036584561
 31
0.0
  0
LINE
  5
17BA4
330
17637
100
AcDbEntity
  8
U1
100
AcDbLine
 10
11221.33837406209
 20
3642.337036584561
 30
0.0
 11
11221.33837406209
 21
3618.337036584561
 31
0.0
  0
LINE
  5
17BA5
330
17637
100
AcDbEntity
  8
HATCH
100
AcDbLine
 10
9748.548652888738
 20
3191.084839418953
 30
0.0
 11
9822.449487345005
 21
3319.084839418947
 31
0.0
  0
LINE
  5
17BA6
330
17637
100
AcDbEntity
  8
HATCH
100
AcDbLine
 10
9784.049487345004
 20
3319.084839418946
 30
0.0
 11
9803.249487345009
 21
3285.829463913628
 31
0.0
  0
LINE
  5
17BA7
330
17637
100
AcDbEntity
  8
HATCH
100
AcDbLine
 10
9460.548652888734
 20
3191.084839418953
 30
0.0
 11
9534.449487345002
 21
3319.084839418947
 31
0.0
  0
LINE
  5
17BA8
330
17637
100
AcDbEntity
  8
HATCH
100
AcDbLine
 10
9496.049487345004
 20
3319.084839418946
 30
0.0
 11
9515.249487345004
 21
3285.829463913628
 31
0.0
  0
LINE
  5
17BA9
330
17637
100
AcDbEntity
  8
HATCH
100
AcDbLine
 10
9604.548652888734
 20
3191.084839418953
 30
0.0
 11
9678.449487345003
 21
3319.084839418947
 31
0.0
  0
LINE
  5
17BAA
330
17637
100
AcDbEntity
  8
HATCH
100
AcDbLine
 10
9640.049487345004
 20
3319.084839418946
 30
0.0
 11
9659.249487345009
 21
3285.829463913628
 31
0.0
  0
LINE
  5
17BAB
330
17637
100
AcDbEntity
  8
HATCH
100
AcDbLine
 10
9892.548652888734
 20
3191.084839418953
 30
0.0
 11
9966.449487345002
 21
3319.084839418947
 31
0.0
  0
LINE
  5
17BAC
330
17637
100
AcDbEntity
  8
HATCH
100
AcDbLine
 10
9928.049487345004
 20
3319.084839418946
 30
0.0
 11
9947.249487345004
 21
3285.829463913628
 31
0.0
  0
LINE
  5
17BAD
330
17637
100
AcDbEntity
  8
HATCH
100
AcDbLine
 10
9748.548652890653
 20
3191.084839419572
 30
0.0
 11
9822.44948734694
 21
3319.084839419601
 31
0.0
  0
LINE
  5
17BAE
330
17637
100
AcDbEntity
  8
HATCH
100
AcDbLine
 10
9784.049487346933
 20
3319.084839419601
 30
0.0
 11
9803.249487346938
 21
3285.829463914274
 31
0.0
  0
LINE
  5
17BAF
330
17637
100
AcDbEntity
  8
HATCH
100
AcDbLine
 10
9892.548652890653
 20
3191.084839419572
 30
0.0
 11
9966.44948734694
 21
3319.084839419601
 31
0.0
  0
LINE
  5
17BB0
330
17637
100
AcDbEntity
  8
HATCH
100
AcDbLine
 10
9928.049487346932
 20
3319.084839419601
 30
0.0
 11
9947.249487346939
 21
3285.829463914274
 31
0.0
  0
LINE
  5
17BB1
330
17637
100
AcDbEntity
  8
HATCH
100
AcDbLine
 10
9604.548652890651
 20
3191.084839419572
 30
0.0
 11
9678.44948734694
 21
3319.084839419601
 31
0.0
  0
LINE
  5
17BB2
330
17637
100
AcDbEntity
  8
HATCH
100
AcDbLine
 10
9640.049487346933
 20
3319.084839419601
 30
0.0
 11
9659.24948734694
 21
3285.829463914274
 31
0.0
  0
LINE
  5
17BB3
330
17637
100
AcDbEntity
  8
HATCH
100
AcDbLine
 10
9460.548652890651
 20
3191.084839419572
 30
0.0
 11
9534.44948734694
 21
3319.084839419601
 31
0.0
  0
LINE
  5
17BB4
330
17637
100
AcDbEntity
  8
HATCH
100
AcDbLine
 10
9496.049487346933
 20
3319.084839419601
 30
0.0
 11
9515.24948734694
 21
3285.829463914274
 31
0.0
  0
LINE
  5
17BB5
330
17637
100
AcDbEntity
  8
TENSEN-1
100
AcDbLine
 10
8971.882670973583
 20
2869.484839419605
 30
0.0
 11
8918.282670973587
 21
2869.484839419605
 31
0.0
  0
LINE
  5
17BB6
330
17637
100
AcDbEntity
  8
TENSEN-1
100
AcDbLine
 10
8918.282670973587
 20
2869.484839419605
 30
0.0
 11
8918.282670973587
 21
3360.684839419607
 31
0.0
  0
LINE
  5
17BB7
330
17637
100
AcDbEntity
  8
TENSEN-1
100
AcDbLine
 10
8918.282670973587
 20
3360.684839419607
 30
0.0
 11
8897.482670973586
 21
3360.684839419607
 31
0.0
  0
LINE
  5
17BB8
330
17637
100
AcDbEntity
  8
TENSEN-1
100
AcDbLine
 10
8897.482670973586
 20
3360.684839419607
 30
0.0
 11
8897.48267097358
 21
2848.684839419607
 31
0.0
  0
LINE
  5
17BB9
330
17637
100
AcDbEntity
  8
TENSEN-1
100
AcDbLine
 10
8897.48267097358
 20
2848.684839419607
 30
0.0
 11
8971.882670973583
 21
2848.684839419607
 31
0.0
  0
LINE
  5
17BBA
330
17637
100
AcDbEntity
  8
TENSEN-1
100
AcDbLine
 10
8971.882670973583
 20
2848.684839419607
 30
0.0
 11
8971.882670973583
 21
2869.484839419605
 31
0.0
  0
LINE
  5
17BBB
330
17637
100
AcDbEntity
  8
TENSEN-1
100
AcDbLine
 10
8651.882670973586
 20
2869.484839419605
 30
0.0
 11
8705.482670973585
 21
2869.484839419605
 31
0.0
  0
LINE
  5
17BBC
330
17637
100
AcDbEntity
  8
TENSEN-1
100
AcDbLine
 10
8705.482670973585
 20
2869.484839419605
 30
0.0
 11
8705.482670973585
 21
3360.684839419607
 31
0.0
  0
LINE
  5
17BBD
330
17637
100
AcDbEntity
  8
TENSEN-1
100
AcDbLine
 10
8705.482670973585
 20
3360.684839419607
 30
0.0
 11
8726.282670973587
 21
3360.684839419607
 31
0.0
  0
LINE
  5
17BBE
330
17637
100
AcDbEntity
  8
TENSEN-1
100
AcDbLine
 10
8726.282670973587
 20
3360.684839419607
 30
0.0
 11
8726.282670973587
 21
2848.684839419607
 31
0.0
  0
LINE
  5
17BBF
330
17637
100
AcDbEntity
  8
TENSEN-1
100
AcDbLine
 10
8726.282670973587
 20
2848.684839419607
 30
0.0
 11
8651.882670973586
 21
2848.684839419607
 31
0.0
  0
LINE
  5
17BC0
330
17637
100
AcDbEntity
  8
TENSEN-1
100
AcDbLine
 10
8651.882670973586
 20
2848.684839419607
 30
0.0
 11
8651.882670973586
 21
2869.484839419605
 31
0.0
  0
LINE
  5
17BC1
330
17637
100
AcDbEntity
  8
HASHIRA
100
AcDbLine
 10
8683.882670973586
 20
3319.084839419606
 30
0.0
 11
8939.882670973586
 21
3319.084839419606
 31
0.0
  0
LINE
  5
17BC2
330
17637
100
AcDbEntity
  8
HASHIRA
100
AcDbLine
 10
8939.882670973586
 20
3319.084839419606
 30
0.0
 11
8939.882670973586
 21
3328.684839419607
 31
0.0
  0
LINE
  5
17BC3
330
17637
100
AcDbEntity
  8
HASHIRA
100
AcDbLine
 10
8939.882670973586
 20
3328.684839419607
 30
0.0
 11
8683.882670973586
 21
3328.684839419607
 31
0.0
  0
LINE
  5
17BC4
330
17637
100
AcDbEntity
  8
HASHIRA
100
AcDbLine
 10
8683.882670973586
 20
3328.684839419607
 30
0.0
 11
8683.882670973586
 21
3319.084839419606
 31
0.0
  0
LINE
  5
17BC5
330
17637
100
AcDbEntity
  8
BOLT
100
AcDbLine
 10
8825.482670973585
 20
3360.684839419607
 30
0.0
 11
8825.482670973585
 21
3368.536803080584
 31
0.0
  0
LINE
  5
17BC6
330
17637
100
AcDbEntity
  8
BOLT
100
AcDbLine
 10
8825.482670973585
 20
3368.536803080584
 30
0.0
 11
8811.882670973586
 21
3376.388766741566
 31
0.0
  0
LINE
  5
17BC7
330
17637
100
AcDbEntity
  8
BOLT
100
AcDbLine
 10
8811.882670973586
 20
3376.388766741566
 30
0.0
 11
8798.282670973582
 21
3368.536803080584
 31
0.0
  0
LINE
  5
17BC8
330
17637
100
AcDbEntity
  8
BOLT
100
AcDbLine
 10
8798.282670973582
 20
3368.536803080584
 30
0.0
 11
8798.282670973582
 21
3360.684839419607
 31
0.0
  0
LINE
  5
17BC9
330
17637
100
AcDbEntity
  8
BOLT
100
AcDbLine
 10
8798.282670973582
 20
3360.684839419607
 30
0.0
 11
8798.282670973582
 21
3352.832875758626
 31
0.0
  0
LINE
  5
17BCA
330
17637
100
AcDbEntity
  8
BOLT
100
AcDbLine
 10
8798.282670973582
 20
3352.832875758626
 30
0.0
 11
8811.882670973586
 21
3344.980912097646
 31
0.0
  0
LINE
  5
17BCB
330
17637
100
AcDbEntity
  8
BOLT
100
AcDbLine
 10
8811.882670973586
 20
3344.980912097646
 30
0.0
 11
8825.482670973585
 21
3352.832875758626
 31
0.0
  0
LINE
  5
17BCC
330
17637
100
AcDbEntity
  8
BOLT
100
AcDbLine
 10
8825.482670973585
 20
3352.832875758626
 30
0.0
 11
8825.482670973585
 21
3360.684839419607
 31
0.0
  0
LINE
  5
17BCD
330
17637
100
AcDbEntity
  8
BOLT
100
AcDbLine
 10
8825.482670973585
 20
3424.684839419607
 30
0.0
 11
8825.482670973585
 21
3432.536803080584
 31
0.0
  0
LINE
  5
17BCE
330
17637
100
AcDbEntity
  8
BOLT
100
AcDbLine
 10
8825.482670973585
 20
3432.536803080584
 30
0.0
 11
8811.882670973586
 21
3440.388766741566
 31
0.0
  0
LINE
  5
17BCF
330
17637
100
AcDbEntity
  8
BOLT
100
AcDbLine
 10
8811.882670973586
 20
3440.388766741566
 30
0.0
 11
8798.282670973582
 21
3432.536803080584
 31
0.0
  0
LINE
  5
17BD0
330
17637
100
AcDbEntity
  8
BOLT
100
AcDbLine
 10
8798.282670973582
 20
3432.536803080584
 30
0.0
 11
8798.282670973582
 21
3424.684839419607
 31
0.0
  0
LINE
  5
17BD1
330
17637
100
AcDbEntity
  8
BOLT
100
AcDbLine
 10
8798.282670973582
 20
3424.684839419607
 30
0.0
 11
8798.282670973582
 21
3416.832875758626
 31
0.0
  0
LINE
  5
17BD2
330
17637
100
AcDbEntity
  8
BOLT
100
AcDbLine
 10
8798.282670973582
 20
3416.832875758626
 30
0.0
 11
8811.882670973586
 21
3408.980912097646
 31
0.0
  0
LINE
  5
17BD3
330
17637
100
AcDbEntity
  8
BOLT
100
AcDbLine
 10
8811.882670973586
 20
3408.980912097646
 30
0.0
 11
8825.482670973585
 21
3416.832875758626
 31
0.0
  0
LINE
  5
17BD4
330
17637
100
AcDbEntity
  8
BOLT
100
AcDbLine
 10
8825.482670973585
 20
3416.832875758626
 30
0.0
 11
8825.482670973585
 21
3424.684839419607
 31
0.0
  0
LINE
  5
17BD5
330
17637
100
AcDbEntity
  8
HATCH
100
AcDbLine
 10
5817.438852163284
 20
3191.084839420222
 30
0.0
 11
5891.339686619555
 21
3319.084839420216
 31
0.0
  0
LINE
  5
17BD6
330
17637
100
AcDbEntity
  8
HATCH
100
AcDbLine
 10
5852.939686619555
 20
3319.084839420213
 30
0.0
 11
5872.139686619554
 21
3285.829463914896
 31
0.0
  0
LINE
  5
17BD7
330
17637
100
AcDbEntity
  8
HATCH
100
AcDbLine
 10
5529.438852163284
 20
3191.084839420222
 30
0.0
 11
5603.339686619555
 21
3319.084839420216
 31
0.0
  0
LINE
  5
17BD8
330
17637
100
AcDbEntity
  8
HATCH
100
AcDbLine
 10
5564.939686619556
 20
3319.084839420213
 30
0.0
 11
5584.139686619558
 21
3285.829463914896
 31
0.0
  0
LINE
  5
17BD9
330
17637
100
AcDbEntity
  8
HATCH
100
AcDbLine
 10
5673.438852163286
 20
3191.084839420222
 30
0.0
 11
5747.339686619554
 21
3319.084839420216
 31
0.0
  0
LINE
  5
17BDA
330
17637
100
AcDbEntity
  8
HATCH
100
AcDbLine
 10
5708.939686619555
 20
3319.084839420213
 30
0.0
 11
5728.139686619557
 21
3285.829463914896
 31
0.0
  0
LINE
  5
17BDB
330
17637
100
AcDbEntity
  8
HASHIRA
100
AcDbLine
 10
4735.797051267462
 20
3319.084839419608
 30
0.0
 11
4863.797051267464
 21
3319.084839419608
 31
0.0
  0
LINE
  5
17BDC
330
17637
100
AcDbEntity
  8
HASHIRA
100
AcDbLine
 10
4863.797051267464
 20
3319.084839419608
 30
0.0
 11
4863.797051267464
 21
3328.684839419607
 31
0.0
  0
LINE
  5
17BDD
330
17637
100
AcDbEntity
  8
HASHIRA
100
AcDbLine
 10
4863.797051267464
 20
3328.684839419607
 30
0.0
 11
4735.797051267462
 21
3328.684839419607
 31
0.0
  0
LINE
  5
17BDE
330
17637
100
AcDbEntity
  8
HASHIRA
100
AcDbLine
 10
4735.797051267462
 20
3328.684839419607
 30
0.0
 11
4735.797051267462
 21
3319.084839419608
 31
0.0
  0
LINE
  5
17BDF
330
17637
100
AcDbEntity
  8
TENSEN-1
100
AcDbLine
 10
4735.797051267462
 20
2869.484839419607
 30
0.0
 11
4789.397051267463
 21
2869.484839419607
 31
0.0
  0
LINE
  5
17BE0
330
17637
100
AcDbEntity
  8
TENSEN-1
100
AcDbLine
 10
4789.397051267463
 20
2869.484839419607
 30
0.0
 11
4789.397051267463
 21
3360.684839419607
 31
0.0
  0
LINE
  5
17BE1
330
17637
100
AcDbEntity
  8
TENSEN-1
100
AcDbLine
 10
4789.397051267463
 20
3360.684839419607
 30
0.0
 11
4810.197051267465
 21
3360.684839419607
 31
0.0
  0
LINE
  5
17BE2
330
17637
100
AcDbEntity
  8
TENSEN-1
100
AcDbLine
 10
4810.197051267465
 20
3360.684839419607
 30
0.0
 11
4810.197051267465
 21
2848.684839419607
 31
0.0
  0
LINE
  5
17BE3
330
17637
100
AcDbEntity
  8
TENSEN-1
100
AcDbLine
 10
4810.197051267465
 20
2848.684839419607
 30
0.0
 11
4735.797051267462
 21
2848.684839419607
 31
0.0
  0
LINE
  5
17BE4
330
17637
100
AcDbEntity
  8
TENSEN-1
100
AcDbLine
 10
4735.797051267462
 20
2848.684839419607
 30
0.0
 11
4735.797051267462
 21
2869.484839419607
 31
0.0
  0
LINE
  5
17BE5
330
17637
100
AcDbEntity
  8
DOMAKON
100
AcDbLine
 10
8479.127507899649
 20
6708.693182432331
 30
0.0
 11
12369.12750789964
 21
6708.693182432331
 31
0.0
  0
LINE
  5
17BE6
330
17637
100
AcDbEntity
  8
DOMAKON
100
AcDbLine
 10
12369.12750789964
 20
6708.693182432331
 30
0.0
 11
12369.12750789964
 21
9043.693182432331
 31
0.0
  0
LINE
  5
17BE7
330
17637
100
AcDbEntity
  8
DOMAKON
100
AcDbLine
 10
12369.12750789964
 20
9043.693182432331
 30
0.0
 11
8479.127507899649
 21
9043.693182432331
 31
0.0
  0
LINE
  5
17BE8
330
17637
100
AcDbEntity
  8
DOMAKON
100
AcDbLine
 10
8359.127507899648
 20
9043.693182432331
 30
0.0
 11
4469.127507899647
 21
9043.693182432331
 31
0.0
  0
LINE
  5
17BE9
330
17637
100
AcDbEntity
  8
DOMAKON
100
AcDbLine
 10
4469.127507899647
 20
9043.693182432331
 30
0.0
 11
4469.127507899647
 21
6708.693182432331
 31
0.0
  0
LINE
  5
17BEA
330
17637
100
AcDbEntity
  8
DOMAKON
100
AcDbLine
 10
4469.127507899647
 20
6708.693182432331
 30
0.0
 11
8359.127507899648
 21
6708.693182432331
 31
0.0
  0
LINE
  5
17BEB
330
17637
100
AcDbEntity
  8
HASHIRA
100
AcDbLine
 10
4781.627507899647
 20
7371.193182432333
 30
0.0
 11
4856.627507899648
 21
7371.193182432333
 31
0.0
  0
LINE
  5
17BEC
330
17637
100
AcDbEntity
  8
HASHIRA
100
AcDbLine
 10
4856.627507899648
 20
7371.193182432333
 30
0.0
 11
4856.627507899648
 21
7446.193182432331
 31
0.0
  0
LINE
  5
17BED
330
17637
100
AcDbEntity
  8
HASHIRA
100
AcDbLine
 10
4856.627507899648
 20
7446.193182432331
 30
0.0
 11
4781.627507899647
 21
7446.193182432331
 31
0.0
  0
LINE
  5
17BEE
330
17637
100
AcDbEntity
  8
HASHIRA
100
AcDbLine
 10
4781.627507899647
 20
7446.193182432331
 30
0.0
 11
4781.627507899647
 21
7371.193182432333
 31
0.0
  0
LINE
  5
17BEF
330
17637
100
AcDbEntity
  8
HASHIRA
100
AcDbLine
 10
4781.627507899647
 20
8806.19318243233
 30
0.0
 11
4856.627507899648
 21
8806.19318243233
 31
0.0
  0
LINE
  5
17BF0
330
17637
100
AcDbEntity
  8
HASHIRA
100
AcDbLine
 10
4856.627507899648
 20
8806.19318243233
 30
0.0
 11
4856.627507899648
 21
8881.193182432332
 31
0.0
  0
LINE
  5
17BF1
330
17637
100
AcDbEntity
  8
HASHIRA
100
AcDbLine
 10
4856.627507899648
 20
8881.193182432332
 30
0.0
 11
4781.627507899647
 21
8881.193182432332
 31
0.0
  0
LINE
  5
17BF2
330
17637
100
AcDbEntity
  8
HASHIRA
100
AcDbLine
 10
4781.627507899647
 20
8881.193182432332
 30
0.0
 11
4781.627507899647
 21
8806.19318243233
 31
0.0
  0
LINE
  5
17BF3
330
17637
100
AcDbEntity
  8
HASHIRA
100
AcDbLine
 10
9581.627507899648
 20
7371.193182432333
 30
0.0
 11
9656.627507899649
 21
7371.193182432333
 31
0.0
  0
LINE
  5
17BF4
330
17637
100
AcDbEntity
  8
HASHIRA
100
AcDbLine
 10
9656.627507899649
 20
7371.193182432333
 30
0.0
 11
9656.627507899649
 21
7446.193182432331
 31
0.0
  0
LINE
  5
17BF5
330
17637
100
AcDbEntity
  8
HASHIRA
100
AcDbLine
 10
9656.627507899649
 20
7446.193182432331
 30
0.0
 11
9581.627507899648
 21
7446.193182432331
 31
0.0
  0
LINE
  5
17BF6
330
17637
100
AcDbEntity
  8
HASHIRA
100
AcDbLine
 10
9581.627507899648
 20
7446.193182432331
 30
0.0
 11
9581.627507899648
 21
7371.193182432333
 31
0.0
  0
LINE
  5
17BF7
330
17637
100
AcDbEntity
  8
HASHIRA
100
AcDbLine
 10
11981.62750789965
 20
7371.193182432333
 30
0.0
 11
12056.62750789965
 21
7371.193182432333
 31
0.0
  0
LINE
  5
17BF8
330
17637
100
AcDbEntity
  8
HASHIRA
100
AcDbLine
 10
12056.62750789965
 20
7371.193182432333
 30
0.0
 11
12056.62750789965
 21
7446.193182432331
 31
0.0
  0
LINE
  5
17BF9
330
17637
100
AcDbEntity
  8
HASHIRA
100
AcDbLine
 10
12056.62750789965
 20
7446.193182432331
 30
0.0
 11
11981.62750789965
 21
7446.193182432331
 31
0.0
  0
LINE
  5
17BFA
330
17637
100
AcDbEntity
  8
HASHIRA
100
AcDbLine
 10
11981.62750789965
 20
7446.193182432331
 30
0.0
 11
11981.62750789965
 21
7371.193182432333
 31
0.0
  0
LINE
  5
17BFB
330
17637
100
AcDbEntity
  8
HASHIRA
100
AcDbLine
 10
9581.627507899648
 20
8806.19318243233
 30
0.0
 11
9656.627507899649
 21
8806.19318243233
 31
0.0
  0
LINE
  5
17BFC
330
17637
100
AcDbEntity
  8
HASHIRA
100
AcDbLine
 10
9656.627507899649
 20
8806.19318243233
 30
0.0
 11
9656.627507899649
 21
8881.193182432332
 31
0.0
  0
LINE
  5
17BFD
330
17637
100
AcDbEntity
  8
HASHIRA
100
AcDbLine
 10
9656.627507899649
 20
8881.193182432332
 30
0.0
 11
9581.627507899648
 21
8881.193182432332
 31
0.0
  0
LINE
  5
17BFE
330
17637
100
AcDbEntity
  8
HASHIRA
100
AcDbLine
 10
9581.627507899648
 20
8881.193182432332
 30
0.0
 11
9581.627507899648
 21
8806.19318243233
 31
0.0
  0
LINE
  5
17BFF
330
17637
100
AcDbEntity
  8
KISO
100
AcDbLine
 10
11669.12750789965
 20
8493.69318243233
 30
0.0
 11
12369.12750789964
 21
8493.69318243233
 31
0.0
  0
LINE
  5
17C00
330
17637
100
AcDbEntity
  8
KISO
100
AcDbLine
 10
12369.12750789964
 20
8493.69318243233
 30
0.0
 11
12369.12750789964
 21
9193.693182432332
 31
0.0
  0
LINE
  5
17C01
330
17637
100
AcDbEntity
  8
KISO
100
AcDbLine
 10
12369.12750789964
 20
9193.693182432332
 30
0.0
 11
11669.12750789965
 21
9193.693182432332
 31
0.0
  0
LINE
  5
17C02
330
17637
100
AcDbEntity
  8
KISO
100
AcDbLine
 10
11669.12750789965
 20
9193.693182432332
 30
0.0
 11
11669.12750789965
 21
8493.69318243233
 31
0.0
  0
LINE
  5
17C03
330
17637
100
AcDbEntity
  8
HASHIRA
100
AcDbLine
 10
11981.62750789965
 20
8806.19318243233
 30
0.0
 11
12056.62750789965
 21
8806.19318243233
 31
0.0
  0
LINE
  5
17C04
330
17637
100
AcDbEntity
  8
HASHIRA
100
AcDbLine
 10
12056.62750789965
 20
8806.19318243233
 30
0.0
 11
12056.62750789965
 21
8881.193182432332
 31
0.0
  0
LINE
  5
17C05
330
17637
100
AcDbEntity
  8
HASHIRA
100
AcDbLine
 10
12056.62750789965
 20
8881.193182432332
 30
0.0
 11
11981.62750789965
 21
8881.193182432332
 31
0.0
  0
LINE
  5
17C06
330
17637
100
AcDbEntity
  8
HASHIRA
100
AcDbLine
 10
11981.62750789965
 20
8881.193182432332
 30
0.0
 11
11981.62750789965
 21
8806.19318243233
 31
0.0
  0
LINE
  5
17C07
330
17637
100
AcDbEntity
  8
KISO
100
AcDbLine
 10
11669.12750789965
 20
7058.693182432332
 30
0.0
 11
12369.12750789964
 21
7058.693182432332
 31
0.0
  0
LINE
  5
17C08
330
17637
100
AcDbEntity
  8
KISO
100
AcDbLine
 10
12369.12750789964
 20
7058.693182432332
 30
0.0
 11
12369.12750789964
 21
7758.693182432331
 31
0.0
  0
LINE
  5
17C09
330
17637
100
AcDbEntity
  8
KISO
100
AcDbLine
 10
12369.12750789964
 20
7758.693182432331
 30
0.0
 11
11669.12750789965
 21
7758.693182432331
 31
0.0
  0
LINE
  5
17C0A
330
17637
100
AcDbEntity
  8
KISO
100
AcDbLine
 10
11669.12750789965
 20
7758.693182432331
 30
0.0
 11
11669.12750789965
 21
7058.693182432332
 31
0.0
  0
LINE
  5
17C0B
330
17637
100
AcDbEntity
  8
KISO
100
AcDbLine
 10
9269.127507899648
 20
8493.69318243233
 30
0.0
 11
9969.127507899649
 21
8493.69318243233
 31
0.0
  0
LINE
  5
17C0C
330
17637
100
AcDbEntity
  8
KISO
100
AcDbLine
 10
9969.127507899649
 20
8493.69318243233
 30
0.0
 11
9969.127507899649
 21
9193.693182432332
 31
0.0
  0
LINE
  5
17C0D
330
17637
100
AcDbEntity
  8
KISO
100
AcDbLine
 10
9969.127507899649
 20
9193.693182432332
 30
0.0
 11
9269.127507899648
 21
9193.693182432332
 31
0.0
  0
LINE
  5
17C0E
330
17637
100
AcDbEntity
  8
KISO
100
AcDbLine
 10
9269.127507899648
 20
9193.693182432332
 30
0.0
 11
9269.127507899648
 21
8493.69318243233
 31
0.0
  0
LINE
  5
17C0F
330
17637
100
AcDbEntity
  8
KISO
100
AcDbLine
 10
9269.127507899648
 20
7058.693182432332
 30
0.0
 11
9969.127507899649
 21
7058.693182432332
 31
0.0
  0
LINE
  5
17C10
330
17637
100
AcDbEntity
  8
KISO
100
AcDbLine
 10
9969.127507899649
 20
7058.693182432332
 30
0.0
 11
9969.127507899649
 21
7758.693182432331
 31
0.0
  0
LINE
  5
17C11
330
17637
100
AcDbEntity
  8
KISO
100
AcDbLine
 10
9969.127507899649
 20
7758.693182432331
 30
0.0
 11
9269.127507899648
 21
7758.693182432331
 31
0.0
  0
LINE
  5
17C12
330
17637
100
AcDbEntity
  8
KISO
100
AcDbLine
 10
9269.127507899648
 20
7758.693182432331
 30
0.0
 11
9269.127507899648
 21
7058.693182432332
 31
0.0
  0
LINE
  5
17C13
330
17637
100
AcDbEntity
  8
KISO
100
AcDbLine
 10
6869.12750789965
 20
8493.69318243233
 30
0.0
 11
7569.12750789965
 21
8493.69318243233
 31
0.0
  0
LINE
  5
17C14
330
17637
100
AcDbEntity
  8
KISO
100
AcDbLine
 10
7569.12750789965
 20
8493.69318243233
 30
0.0
 11
7569.12750789965
 21
9193.693182432332
 31
0.0
  0
LINE
  5
17C15
330
17637
100
AcDbEntity
  8
KISO
100
AcDbLine
 10
7569.12750789965
 20
9193.693182432332
 30
0.0
 11
6869.12750789965
 21
9193.693182432332
 31
0.0
  0
LINE
  5
17C16
330
17637
100
AcDbEntity
  8
KISO
100
AcDbLine
 10
6869.12750789965
 20
9193.693182432332
 30
0.0
 11
6869.12750789965
 21
8493.69318243233
 31
0.0
  0
LINE
  5
17C17
330
17637
100
AcDbEntity
  8
HASHIRA
100
AcDbLine
 10
7181.62750789965
 20
8806.19318243233
 30
0.0
 11
7256.62750789965
 21
8806.19318243233
 31
0.0
  0
LINE
  5
17C18
330
17637
100
AcDbEntity
  8
HASHIRA
100
AcDbLine
 10
7256.62750789965
 20
8806.19318243233
 30
0.0
 11
7256.62750789965
 21
8881.193182432332
 31
0.0
  0
LINE
  5
17C19
330
17637
100
AcDbEntity
  8
HASHIRA
100
AcDbLine
 10
7256.62750789965
 20
8881.193182432332
 30
0.0
 11
7181.62750789965
 21
8881.193182432332
 31
0.0
  0
LINE
  5
17C1A
330
17637
100
AcDbEntity
  8
HASHIRA
100
AcDbLine
 10
7181.62750789965
 20
8881.193182432332
 30
0.0
 11
7181.62750789965
 21
8806.19318243233
 31
0.0
  0
LINE
  5
17C1B
330
17637
100
AcDbEntity
  8
KISO
100
AcDbLine
 10
6869.12750789965
 20
7058.693182432332
 30
0.0
 11
7569.12750789965
 21
7058.693182432332
 31
0.0
  0
LINE
  5
17C1C
330
17637
100
AcDbEntity
  8
KISO
100
AcDbLine
 10
7569.12750789965
 20
7058.693182432332
 30
0.0
 11
7569.12750789965
 21
7758.693182432331
 31
0.0
  0
LINE
  5
17C1D
330
17637
100
AcDbEntity
  8
KISO
100
AcDbLine
 10
7569.12750789965
 20
7758.693182432331
 30
0.0
 11
6869.12750789965
 21
7758.693182432331
 31
0.0
  0
LINE
  5
17C1E
330
17637
100
AcDbEntity
  8
KISO
100
AcDbLine
 10
6869.12750789965
 20
7758.693182432331
 30
0.0
 11
6869.12750789965
 21
7058.693182432332
 31
0.0
  0
LINE
  5
17C1F
330
17637
100
AcDbEntity
  8
HASHIRA
100
AcDbLine
 10
7181.62750789965
 20
7371.193182432333
 30
0.0
 11
7256.62750789965
 21
7371.193182432333
 31
0.0
  0
LINE
  5
17C20
330
17637
100
AcDbEntity
  8
HASHIRA
100
AcDbLine
 10
7256.62750789965
 20
7371.193182432333
 30
0.0
 11
7256.62750789965
 21
7446.193182432331
 31
0.0
  0
LINE
  5
17C21
330
17637
100
AcDbEntity
  8
HASHIRA
100
AcDbLine
 10
7256.62750789965
 20
7446.193182432331
 30
0.0
 11
7181.62750789965
 21
7446.193182432331
 31
0.0
  0
LINE
  5
17C22
330
17637
100
AcDbEntity
  8
HASHIRA
100
AcDbLine
 10
7181.62750789965
 20
7446.193182432331
 30
0.0
 11
7181.62750789965
 21
7371.193182432333
 31
0.0
  0
LINE
  5
17C23
330
17637
100
AcDbEntity
  8
KISO
100
AcDbLine
 10
4469.127507899647
 20
8493.69318243233
 30
0.0
 11
5169.127507899648
 21
8493.69318243233
 31
0.0
  0
LINE
  5
17C24
330
17637
100
AcDbEntity
  8
KISO
100
AcDbLine
 10
5169.127507899648
 20
8493.69318243233
 30
0.0
 11
5169.127507899648
 21
9193.693182432332
 31
0.0
  0
LINE
  5
17C25
330
17637
100
AcDbEntity
  8
KISO
100
AcDbLine
 10
5169.127507899648
 20
9193.693182432332
 30
0.0
 11
4469.127507899647
 21
9193.693182432332
 31
0.0
  0
LINE
  5
17C26
330
17637
100
AcDbEntity
  8
KISO
100
AcDbLine
 10
4469.127507899647
 20
9193.693182432332
 30
0.0
 11
4469.127507899647
 21
8493.69318243233
 31
0.0
  0
LINE
  5
17C27
330
17637
100
AcDbEntity
  8
KISO
100
AcDbLine
 10
4469.127507899647
 20
7058.693182432332
 30
0.0
 11
5169.127507899648
 21
7058.693182432332
 31
0.0
  0
LINE
  5
17C28
330
17637
100
AcDbEntity
  8
KISO
100
AcDbLine
 10
5169.127507899648
 20
7058.693182432332
 30
0.0
 11
5169.127507899648
 21
7758.693182432331
 31
0.0
  0
LINE
  5
17C29
330
17637
100
AcDbEntity
  8
KISO
100
AcDbLine
 10
5169.127507899648
 20
7758.693182432331
 30
0.0
 11
4469.127507899647
 21
7758.693182432331
 31
0.0
  0
LINE
  5
17C2A
330
17637
100
AcDbEntity
  8
KISO
100
AcDbLine
 10
4469.127507899647
 20
7758.693182432331
 30
0.0
 11
4469.127507899647
 21
7058.693182432332
 31
0.0
  0
LINE
  5
17C2B
330
17637
100
AcDbEntity
  8
HIKIDASHI
100
AcDbLine
 10
9281.837679166114
 20
3516.366871722364
 30
0.0
 11
9509.613064339452
 21
3910.885411556199
 31
0.0
1001
ACAD
1000
DSTYLE
1002
{
1070
   147
1040
1.0
1070
    77
1070
     0
1002
}
  0
LINE
  5
17C2C
330
17637
100
AcDbEntity
  8
HIKIDASHI
100
AcDbLine
 10
9270.290673782321
 20
3523.03353838903
 30
0.0
 11
9241.837679166115
 21
3447.084839419606
 31
0.0
  0
LINE
  5
17C2D
330
17637
100
AcDbEntity
  8
HIKIDASHI
100
AcDbLine
 10
9241.837679166115
 20
3447.084839419606
 30
0.0
 11
9293.384684549909
 21
3509.700205055697
 31
0.0
  0
SOLID
  5
17C2E
330
17637
100
AcDbEntity
  8
HIKIDASHI
100
AcDbTrace
 10
9270.290673782321
 20
3523.03353838903
 30
0.0
 11
9293.384684549909
 21
3509.700205055697
 31
0.0
 12
9241.837679166115
 22
3447.084839419606
 32
0.0
 13
9241.837679166115
 23
3447.084839419606
 33
0.0
  0
LINE
  5
17C2F
330
17637
100
AcDbEntity
  8
HIKIDASHI
100
AcDbLine
 10
9293.384684549909
 20
3509.700205055697
 30
0.0
 11
9270.290673782321
 21
3523.03353838903
 31
0.0
  0
LINE
  5
17C30
330
17637
100
AcDbEntity
  8
HATCH
100
AcDbLine
 10
9786.948652888728
 20
3191.084839418953
 30
0.0
 11
9767.748652888727
 21
3224.340214924272
 31
0.0
  0
LINE
  5
17C31
330
17637
100
AcDbEntity
  8
HATCH
100
AcDbLine
 10
9498.948652888728
 20
3191.084839418953
 30
0.0
 11
9479.748652888728
 21
3224.340214924272
 31
0.0
  0
LINE
  5
17C32
330
17637
100
AcDbEntity
  8
HATCH
100
AcDbLine
 10
9642.948652888728
 20
3191.084839418953
 30
0.0
 11
9623.748652888728
 21
3224.340214924272
 31
0.0
  0
LINE
  5
17C33
330
17637
100
AcDbEntity
  8
HATCH
100
AcDbLine
 10
9930.94865288873
 20
3191.084839418953
 30
0.0
 11
9911.748652888729
 21
3224.340214924272
 31
0.0
  0
LINE
  5
17C34
330
17637
100
AcDbEntity
  8
HATCH
100
AcDbLine
 10
9786.948652890657
 20
3191.084839419572
 30
0.0
 11
9767.748652890652
 21
3224.3402149249
 31
0.0
  0
LINE
  5
17C35
330
17637
100
AcDbEntity
  8
HATCH
100
AcDbLine
 10
9930.948652890656
 20
3191.084839419572
 30
0.0
 11
9911.748652890652
 21
3224.3402149249
 31
0.0
  0
LINE
  5
17C36
330
17637
100
AcDbEntity
  8
HATCH
100
AcDbLine
 10
9642.948652890657
 20
3191.084839419572
 30
0.0
 11
9623.748652890652
 21
3224.3402149249
 31
0.0
  0
LINE
  5
17C37
330
17637
100
AcDbEntity
  8
HATCH
100
AcDbLine
 10
9498.948652890657
 20
3191.084839419572
 30
0.0
 11
9479.748652890652
 21
3224.3402149249
 31
0.0
  0
LINE
  5
17C38
330
17637
100
AcDbEntity
  8
HATCH
100
AcDbLine
 10
5855.838852163278
 20
3191.084839420222
 30
0.0
 11
5836.63885216328
 21
3224.340214925541
 31
0.0
  0
LINE
  5
17C39
330
17637
100
AcDbEntity
  8
HATCH
100
AcDbLine
 10
5567.838852163279
 20
3191.084839420222
 30
0.0
 11
5548.638852163279
 21
3224.340214925541
 31
0.0
  0
LINE
  5
17C3A
330
17637
100
AcDbEntity
  8
HATCH
100
AcDbLine
 10
5711.838852163278
 20
3191.084839420222
 30
0.0
 11
5692.63885216328
 21
3224.340214925541
 31
0.0
  0
TEXT
  5
17C5C
330
17637
100
AcDbEntity
  8
SUNPOU
100
AcDbText
 10
887.2309956870024
 20
4913.025682311766
 30
0.0
 40
89.9993750043402
  1
地耐力   　　　 以上,コンクリート設計基準強度　　　　　以上
  7
01
100
AcDbText
  0
TEXT
  5
17C5D
330
17637
100
AcDbEntity
  8
SUNPOU
100
AcDbText
 10
887.2309956870024
 20
4758.739968026053
 30
0.0
 40
89.9993750043402
  1
基準風速   　　 , 地表面粗度区分
  7
01
100
AcDbText
  0
TEXT
  5
17C5E
330
17637
100
AcDbEntity
  8
SUNPOU
100
AcDbText
 10
1196.21721857889
 20
4569.487168641531
 30
0.0
 40
90.0
  1
寒冷地の場合、凍結深度等を考慮し、実情に
  7
01
100
AcDbText
  0
TEXT
  5
17C5F
330
17637
100
AcDbEntity
  8
SUNPOU
100
AcDbText
 10
1196.21721857889
 20
4260.915740070102
 30
0.0
 40
90.0
  1
その他現地の実情にあわせて設計して下さい。
  7
01
100
AcDbText
  0
TEXT
  5
17C60
330
17637
100
AcDbEntity
  8
SUNPOU
100
AcDbText
 10
1196.21721857889
 20
4415.201454355814
 30
0.0
 40
90.0
  1
あわせて設計して下さい。
  7
01
100
AcDbText
  0
TEXT
  5
17C61
330
17637
100
AcDbEntity
  8
SUNPOU
100
AcDbText
 10
882.0245098279134
 20
5259.779684757722
 30
0.0
 40
120.0
  1
基礎断面図
  7
01
 72
     4
 11
1222.024509827913
 21
5319.779684757723
 31
0.0
100
AcDbText
  0
TEXT
  5
17C62
330
17637
100
AcDbEntity
  8
SUNPOU
100
AcDbText
 10
756.6673669707704
 20
5102.279684757721
 30
0.0
 40
90.0
  1
<下記条件での参考図>
  7
01
 72
     4
 11
1345.524509827913
 21
5147.279684757722
 31
0.0
100
AcDbText
  0
TEXT
  5
17C63
330
17637
100
AcDbEntity
  8
SUNPOU
100
AcDbText
 10
879.3775532767554
 20
4569.487168641531
 30
0.0
 40
90.0
  1
注　）
  7
01
100
AcDbText
  0
TEXT
  5
17C64
330
17637
100
AcDbEntity
  8
SUNPOU
100
AcDbText
 10
879.3775532767554
 20
4260.915740070102
 30
0.0
 40
90.0
  1
注　）
  7
01
100
AcDbText
  0
TEXT
  5
17C65
330
17637
100
AcDbEntity
  8
SUNPOU
100
AcDbText
 10
990.0114734894962
 20
4260.915740070102
 30
0.0
 40
90.0
  1
2
 41
0.6700000000000001
  7
01
100
AcDbText
  0
ARC
  5
17C66
330
17637
100
AcDbEntity
  8
SUNPOU
100
AcDbCircle
 10
1040.1892695942
 20
4876.813105753598
 30
0.0
 40
225.0
100
AcDbArc
 50
148.3472725282829
 51
211.652727471717
  0
TEXT
  5
17C67
330
17637
100
AcDbEntity
  8
SUNPOU
100
AcDbText
 10
990.0114734894962
 20
4569.487168641531
 30
0.0
 40
90.0
  1
1
 41
0.6700000000000001
  7
01
100
AcDbText
  0
TEXT
  5
17C68
330
17637
100
AcDbEntity
  8
SUNPOU
100
AcDbText
 10
1370.994424352163
 20
4758.739968026053
 30
0.0
 40
89.9993750043402
  1
34 m/s
 41
0.6700000000000001
  7
01
100
AcDbText
  0
TEXT
  5
17C69
330
17637
100
AcDbEntity
  8
SUNPOU
100
AcDbText
 10
1598.874847190883
 20
5272.087377065414
 30
0.0
 40
92.30769230769228
  1
（ S = 　　  ）
 41
0.6700000000000001
  7
00
 11
1598.874847190883
 21
5259.779684757722
 31
0.0
100
AcDbText
 73
     1
  0
TEXT
  5
17C6A
330
17637
100
AcDbEntity
  8
SUNPOU
100
AcDbText
 10
1261.489403112074
 20
4913.025682311766
 30
0.0
 40
89.9993750043402
  1
50  N/m
 41
0.6700000000000001
  7
01
100
AcDbText
  0
TEXT
  5
17C6B
330
17637
100
AcDbEntity
  8
SUNPOU
100
AcDbText
 10
1397.325855898024
 20
4913.025682311766
 30
0.0
 40
71.99950000347218
  1
K
 41
0.6700000000000001
  7
01
100
AcDbText
  0
TEXT
  5
17C6C
330
17637
100
AcDbEntity
  8
SUNPOU
100
AcDbText
 10
1664.966012626424
 20
4963.214108669252
 30
0.0
 40
46.28539285937498
  1
2
 41
0.6700000000000001
  7
00
100
AcDbText
  0
TEXT
  5
17C6D
330
17637
100
AcDbEntity
  8
SUNPOU
100
AcDbText
 10
1966.983676359324
 20
5269.625838603876
 30
0.0
 40
73.84615384615384
  1
/
 41
0.6700000000000001
  7
00
 11
1966.983676359324
 21
5259.779684757722
 31
0.0
100
AcDbText
 73
     1
  0
TEXT
  5
17C6E
330
17637
100
AcDbEntity
  8
SUNPOU
100
AcDbText
 10
1918.577549043953
 20
5288.087377065416
 30
0.0
 40
73.84615384615384
  1
1
 41
0.6700000000000001
  7
00
 11
1918.577549043953
 21
5278.241223219262
 31
0.0
100
AcDbText
 73
     1
  0
TEXT
  5
17C6F
330
17637
100
AcDbEntity
  8
SUNPOU
100
AcDbText
 10
2030.933119313704
 20
5251.164300142336
 30
0.0
 40
73.84615384615384
  1
25
 41
0.6700000000000001
  7
00
 11
2030.933119313704
 21
5241.318146296182
 31
0.0
100
AcDbText
 73
     1
  0
TEXT
  5
17C70
330
17637
100
AcDbEntity
  8
SUNPOU
100
AcDbText
 10
3442.077926759664
 20
4913.025682311766
 30
0.0
 40
89.9993750043402
  1
N/mm
 41
0.6700000000000001
  7
01
100
AcDbText
  0
LINE
  5
17C71
330
17637
100
AcDbEntity
  8
SUNPOU
100
AcDbLine
 10
2679.046557253604
 20
4842.232331724834
 30
0.0
 11
2735.296557253604
 21
4842.232331724834
 31
0.0
  0
LINE
  5
17C72
330
17637
100
AcDbEntity
  8
SUNPOU
100
AcDbLine
 10
2679.046557253604
 20
4758.739968026051
 30
0.0
 11
2735.296557253604
 21
4758.739968026051
 31
0.0
  0
LINE
  5
17C73
330
17637
100
AcDbEntity
  8
SUNPOU
100
AcDbLine
 10
2690.296557253605
 20
4758.739968026053
 30
0.0
 11
2690.296557253605
 21
4842.232331724834
 31
0.0
  0
LINE
  5
17C74
330
17637
100
AcDbEntity
  8
SUNPOU
100
AcDbLine
 10
2707.171557253604
 20
4758.739968026053
 30
0.0
 11
2707.171557253604
 21
4842.232331724834
 31
0.0
  0
LINE
  5
17C75
330
17637
100
AcDbEntity
  8
SUNPOU
100
AcDbLine
 10
2724.046557253605
 20
4758.739968026053
 30
0.0
 11
2724.046557253605
 21
4842.232331724834
 31
0.0
  0
TEXT
  5
17C76
330
17637
100
AcDbEntity
  8
SUNPOU
100
AcDbText
 10
3306.241473973714
 20
4913.025682311766
 30
0.0
 40
89.9993750043402
  1
18
 41
0.6700000000000001
  7
01
100
AcDbText
  0
TEXT
  5
17C77
330
17637
100
AcDbEntity
  8
SUNPOU
100
AcDbText
 10
3746.542408791063
 20
4963.214108669252
 30
0.0
 40
46.28539285937498
  1
2
 41
0.6700000000000001
  7
00
100
AcDbText
  0
ARC
  5
17C78
330
17637
100
AcDbEntity
  8
SUNPOU
100
AcDbCircle
 10
3895.419673324682
 20
4899.297386539387
 30
0.0
 40
225.0
100
AcDbArc
 50
328.3472725282829
 51
31.65272747171703
  0
ENDSEC
  0
SECTION
  2
OBJECTS
  0
DICTIONARY
  5
17625
330
0
100
AcDbDictionary
281
     1
  3
ACAD_GROUP
350
17626
  3
ACAD_LAYOUT
350
17632
  3
ACAD_MLINESTYLE
350
1762F
  3
ACAD_PLOTSETTINGS
350
17631
  3
ACAD_PLOTSTYLENAME
350
17627
  3
AcDbVariableDictionary
350
17C79
  0
DICTIONARY
  5
17626
102
{ACAD_REACTORS
330
17625
102
}
330
17625
100
AcDbDictionary
281
     1
  0
DICTIONARY
  5
17632
102
{ACAD_REACTORS
330
17625
102
}
330
17625
100
AcDbDictionary
281
     1
  3
Model
350
1763A
  3
ﾚｲｱｳﾄ1
350
17636
  0
DICTIONARY
  5
1762F
102
{ACAD_REACTORS
330
17625
102
}
330
17625
100
AcDbDictionary
281
     1
  3
Standard
350
17630
  0
DICTIONARY
  5
17631
102
{ACAD_REACTORS
330
17625
102
}
330
17625
100
AcDbDictionary
281
     1
  0
ACDBDICTIONARYWDFLT
  5
17627
102
{ACAD_REACTORS
330
17625
102
}
330
17625
100
AcDbDictionary
281
     1
  3
Normal
350
17628
100
AcDbDictionaryWithDefault
340
17628
  0
DICTIONARY
  5
17C79
102
{ACAD_REACTORS
330
17625
102
}
330
17625
100
AcDbDictionary
281
     1
  3
DIMASSOC
350
17C7A
  0
LAYOUT
  5
1763A
102
{ACAD_REACTORS
330
17632
102
}
330
17632
100
AcDbPlotSettings
  1

  2
Muratec V-1200 Is@Web Printer
  4

  6

 40
0.0
 41
0.0
 42
0.0
 43
0.0
 44
0.0
 45
0.0
 46
0.0
 47
0.0
 48
0.0
 49
0.0
140
0.0
141
0.0
142
1.0
143
1.0
 70
  1712
 72
     0
 73
     0
 74
     0
  7

 75
     0
147
1.0
148
0.0
149
0.0
100
AcDbLayout
  1
Model
 70
     1
 71
     0
 10
0.0
 20
0.0
 11
12.0
 21
9.0
 12
0.0
 22
0.0
 32
0.0
 14
0.0
 24
0.0
 34
0.0
 15
0.0
 25
0.0
 35
0.0
146
0.0
 13
0.0
 23
0.0
 33
0.0
 16
1.0
 26
0.0
 36
0.0
 17
0.0
 27
1.0
 37
0.0
 76
     0
330
17637
  0
LAYOUT
  5
17636
102
{ACAD_REACTORS
330
17632
102
}
330
17632
100
AcDbPlotSettings
  1

  2
Muratec V-1200 Is@Web Printer
  4

  6

 40
0.0
 41
0.0
 42
0.0
 43
0.0
 44
0.0
 45
0.0
 46
0.0
 47
0.0
 48
0.0
 49
0.0
140
0.0
141
0.0
142
1.0
143
1.0
 70
   688
 72
     0
 73
     0
 74
     5
  7

 75
    16
147
1.0
148
0.0
149
0.0
100
AcDbLayout
  1
ﾚｲｱｳﾄ1
 70
     0
 71
     1
 10
0.0
 20
0.0
 11
12.0
 21
9.0
 12
0.0
 22
0.0
 32
0.0
 14
1.000000000000000E+20
 24
1.000000000000000E+20
 34
1.000000000000000E+20
 15
-1.000000000000000E+20
 25
-1.000000000000000E+20
 35
-1.000000000000000E+20
146
0.0
 13
0.0
 23
0.0
 33
0.0
 16
1.0
 26
0.0
 36
0.0
 17
0.0
 27
1.0
 37
0.0
 76
     0
330
17633
  0
MLINESTYLE
  5
17630
102
{ACAD_REACTORS
330
1762F
102
}
330
1762F
100
AcDbMlineStyle
  2
STANDARD
 70
     0
  3

 62
   256
 51
90.0
 52
90.0
 71
     2
 49
0.5
 62
   256
  6
BYLAYER
 49
-0.5
 62
   256
  6
BYLAYER
  0
ACDBPLACEHOLDER
  5
17628
102
{ACAD_REACTORS
330
17627
102
}
330
17627
  0
DICTIONARYVAR
  5
17C7A
102
{ACAD_REACTORS
330
17C79
102
}
330
17C79
100
DictionaryVariables
280
     0
  1
1
  0
ENDSEC
  0
EOF
