  0
SECTION
  2
HEADER
  9
$ACADVER
  1
AC1015
  9
$ACADMAINTVER
 70
    13
  9
$DWGCODEPAGE
  3
ANSI_932
  9
$INSBASE
 10
267.0
 20
194.8999999999998
 30
0.0
  9
$EXTMIN
 10
433.9966216520333
 20
163.6908237492789
 30
-0.000000000000013
  9
$EXTMAX
 10
16382.6660542547
 20
11242.27663824599
 30
0.0000000000000023
  9
$LIMMIN
 10
0.0
 20
0.0
  9
$LIMMAX
 10
16800.0
 20
11880.0
  9
$ORTHOMODE
 70
     1
  9
$REGENMODE
 70
     1
  9
$FILLMODE
 70
     1
  9
$QTEXTMODE
 70
     0
  9
$MIRRTEXT
 70
     0
  9
$LTSCALE
 40
40.0
  9
$ATTMODE
 70
     1
  9
$TEXTSIZE
 40
0.2
  9
$TRACEWID
 40
0.05
  9
$TEXTSTYLE
  7
00
  9
$CLAYER
  8
SUNPOU
  9
$CELTYPE
  6
ByLayer
  9
$CECOLOR
 62
   256
  9
$CELTSCALE
 40
1.0
  9
$DISPSILH
 70
     0
  9
$DIMSCALE
 40
30.0
  9
$DIMASZ
 40
0.5
  9
$DIMEXO
 40
1.0
  9
$DIMDLI
 40
7.0
  9
$DIMRND
 40
0.0
  9
$DIMDLE
 40
3.0
  9
$DIMEXE
 40
1.5
  9
$DIMTP
 40
0.0
  9
$DIMTM
 40
0.0
  9
$DIMTXT
 40
3.0
  9
$DIMCEN
 40
0.0
  9
$DIMTSZ
 40
0.0
  9
$DIMTOL
 70
     0
  9
$DIMLIM
 70
     0
  9
$DIMTIH
 70
     0
  9
$DIMTOH
 70
     0
  9
$DIMSE1
 70
     0
  9
$DIMSE2
 70
     0
  9
$DIMTAD
 70
     1
  9
$DIMZIN
 70
     8
  9
$DIMBLK
  1
DOT
  9
$DIMASO
 70
     1
  9
$DIMSHO
 70
     0
  9
$DIMPOST
  1

  9
$DIMAPOST
  1

  9
$DIMALT
 70
     0
  9
$DIMALTD
 70
     2
  9
$DIMALTF
 40
25.4
  9
$DIMLFAC
 40
1.0
  9
$DIMTOFL
 70
     1
  9
$DIMTVP
 40
0.0
  9
$DIMTIX
 70
     0
  9
$DIMSOXD
 70
     0
  9
$DIMSAH
 70
     1
  9
$DIMBLK1
  1
DOT
  9
$DIMBLK2
  1
DOT
  9
$DIMSTYLE
  2
SUNPOU_図面名
  9
$DIMCLRD
 70
   256
  9
$DIMCLRE
 70
   256
  9
$DIMCLRT
 70
   256
  9
$DIMTFAC
 40
1.0
  9
$DIMGAP
 40
1.5
  9
$DIMJUST
 70
     0
  9
$DIMSD1
 70
     0
  9
$DIMSD2
 70
     0
  9
$DIMTOLJ
 70
     1
  9
$DIMTZIN
 70
     0
  9
$DIMALTZ
 70
     0
  9
$DIMALTTZ
 70
     0
  9
$DIMUPT
 70
     0
  9
$DIMDEC
 70
     4
  9
$DIMTDEC
 70
     4
  9
$DIMALTU
 70
     2
  9
$DIMALTTD
 70
     2
  9
$DIMTXSTY
  7
STANDARD
  9
$DIMAUNIT
 70
     0
  9
$DIMADEC
 70
     0
  9
$DIMALTRND
 40
0.0
  9
$DIMAZIN
 70
     0
  9
$DIMDSEP
 70
    46
  9
$DIMATFIT
 70
     3
  9
$DIMFRAC
 70
     0
  9
$DIMLDRBLK
  1
DOT
  9
$DIMLUNIT
 70
     2
  9
$DIMLWD
 70
    -2
  9
$DIMLWE
 70
    -2
  9
$DIMTMOVE
 70
     0
  9
$LUNITS
 70
     2
  9
$LUPREC
 70
     2
  9
$SKETCHINC
 40
0.1
  9
$FILLETRAD
 40
0.0
  9
$AUNITS
 70
     0
  9
$AUPREC
 70
     0
  9
$MENU
  1
A:\TIGER\MENU\TIGER
  9
$ELEVATION
 40
0.0
  9
$PELEVATION
 40
0.0
  9
$THICKNESS
 40
0.0
  9
$LIMCHECK
 70
     0
  9
$CHAMFERA
 40
0.0
  9
$CHAMFERB
 40
0.0
  9
$CHAMFERC
 40
0.0
  9
$CHAMFERD
 40
0.0
  9
$SKPOLY
 70
     0
  9
$TDCREATE
 40
2450266.571064815
  9
$TDUCREATE
 40
2450266.196064815
  9
$TDUPDATE
 40
2456330.276467014
  9
$TDUUPDATE
 40
2456329.901467014
  9
$TDINDWG
 40
0.1427760185
  9
$TDUSRTIMER
 40
0.1427720370
  9
$USRTIMER
 70
     1
  9
$ANGBASE
 50
0.0
  9
$ANGDIR
 70
     0
  9
$PDMODE
 70
     0
  9
$PDSIZE
 40
0.0
  9
$PLINEWID
 40
0.0
  9
$SPLFRAME
 70
     0
  9
$SPLINETYPE
 70
     6
  9
$SPLINESEGS
 70
     8
  9
$HANDSEED
  5
1959D
  9
$SURFTAB1
 70
     6
  9
$SURFTAB2
 70
     6
  9
$SURFTYPE
 70
     6
  9
$SURFU
 70
     6
  9
$SURFV
 70
     6
  9
$UCSBASE
  2

  9
$UCSNAME
  2

  9
$UCSORG
 10
0.0
 20
0.0
 30
0.0
  9
$UCSXDIR
 10
1.0
 20
0.0
 30
0.0
  9
$UCSYDIR
 10
0.0
 20
1.0
 30
0.0
  9
$UCSORTHOREF
  2

  9
$UCSORTHOVIEW
 70
     0
  9
$UCSORGTOP
 10
0.0
 20
0.0
 30
0.0
  9
$UCSORGBOTTOM
 10
0.0
 20
0.0
 30
0.0
  9
$UCSORGLEFT
 10
0.0
 20
0.0
 30
0.0
  9
$UCSORGRIGHT
 10
0.0
 20
0.0
 30
0.0
  9
$UCSORGFRONT
 10
0.0
 20
0.0
 30
0.0
  9
$UCSORGBACK
 10
0.0
 20
0.0
 30
0.0
  9
$PUCSBASE
  2

  9
$PUCSNAME
  2

  9
$PUCSORG
 10
0.0
 20
0.0
 30
0.0
  9
$PUCSXDIR
 10
1.0
 20
0.0
 30
0.0
  9
$PUCSYDIR
 10
0.0
 20
1.0
 30
0.0
  9
$PUCSORTHOREF
  2

  9
$PUCSORTHOVIEW
 70
     0
  9
$PUCSORGTOP
 10
0.0
 20
0.0
 30
0.0
  9
$PUCSORGBOTTOM
 10
0.0
 20
0.0
 30
0.0
  9
$PUCSORGLEFT
 10
0.0
 20
0.0
 30
0.0
  9
$PUCSORGRIGHT
 10
0.0
 20
0.0
 30
0.0
  9
$PUCSORGFRONT
 10
0.0
 20
0.0
 30
0.0
  9
$PUCSORGBACK
 10
0.0
 20
0.0
 30
0.0
  9
$USERI1
 70
     3
  9
$USERI2
 70
     0
  9
$USERI3
 70
     0
  9
$USERI4
 70
     0
  9
$USERI5
 70
  1103
  9
$USERR1
 40
0.0
  9
$USERR2
 40
1.0
  9
$USERR3
 40
0.0
  9
$USERR4
 40
0.0
  9
$USERR5
 40
0.0
  9
$WORLDVIEW
 70
     1
  9
$SHADEDGE
 70
     3
  9
$SHADEDIF
 70
    70
  9
$TILEMODE
 70
     1
  9
$MAXACTVP
 70
    16
  9
$PINSBASE
 10
0.0
 20
0.0
 30
0.0
  9
$PLIMCHECK
 70
     0
  9
$PEXTMIN
 10
1.000000000000000E+20
 20
1.000000000000000E+20
 30
1.000000000000000E+20
  9
$PEXTMAX
 10
-1.000000000000000E+20
 20
-1.000000000000000E+20
 30
-1.000000000000000E+20
  9
$PLIMMIN
 10
0.0
 20
0.0
  9
$PLIMMAX
 10
12.0
 20
9.0
  9
$UNITMODE
 70
     0
  9
$VISRETAIN
 70
     0
  9
$PLINEGEN
 70
     1
  9
$PSLTSCALE
 70
     0
  9
$TREEDEPTH
 70
  3020
  9
$CMLSTYLE
  2
Standard
  9
$CMLJUST
 70
     0
  9
$CMLSCALE
 40
1.0
  9
$PROXYGRAPHICS
 70
     1
  9
$MEASUREMENT
 70
     0
  9
$CELWEIGHT
370
    -1
  9
$ENDCAPS
280
     0
  9
$JOINSTYLE
280
     0
  9
$LWDISPLAY
290
     0
  9
$INSUNITS
 70
     0
  9
$HYPERLINKBASE
  1

  9
$STYLESHEET
  1

  9
$XEDIT
290
     1
  9
$CEPSNTYPE
380
     0
  9
$PSTYLEMODE
290
     1
  9
$FINGERPRINTGUID
  2
{799FD790-D53D-42E8-947A-9448CBE6AB4C}
  9
$VERSIONGUID
  2
{7ACFA424-EA3E-4615-AB52-2FE5318038AD}
  9
$EXTNAMES
290
     1
  9
$PSVPSCALE
 40
0.0
  9
$OLESTARTUP
290
     0
  0
ENDSEC
  0
SECTION
  2
CLASSES
  0
CLASS
  1
ACDBDICTIONARYWDFLT
  2
AcDbDictionaryWithDefault
  3
AutoCAD 2000
 90
        0
280
     0
281
     0
  0
CLASS
  1
ACDBPLACEHOLDER
  2
AcDbPlaceHolder
  3
AutoCAD 2000
 90
        0
280
     0
281
     0
  0
CLASS
  1
LAYOUT
  2
AcDbLayout
  3
AutoCAD 2000
 90
        0
280
     0
281
     0
  0
CLASS
  1
DICTIONARYVAR
  2
AcDbDictionaryVar
  3
AutoCAD 2000
 90
        0
280
     0
281
     0
  0
ENDSEC
  0
SECTION
  2
TABLES
  0
TABLE
  2
VPORT
  5
18E61
330
0
100
AcDbSymbolTable
 70
     2
  0
VPORT
  5
1959C
330
18E61
100
AcDbSymbolTableRecord
100
AcDbViewportTableRecord
  2
*Active
 70
     0
 10
0.0
 20
0.0
 11
1.0
 21
1.0
 12
8408.331337953367
 22
5702.983730997637
 13
0.0
 23
0.0
 14
1.0
 24
1.0
 15
0.0
 25
0.0
 16
0.0
 26
0.0
 36
1.0
 17
0.0
 27
0.0
 37
0.0
 40
11162.83361536741
 41
1.527918781725888
 42
50.0
 43
0.0
 44
0.0
 50
0.0
 51
0.0
 71
     0
 72
 10000
 73
     1
 74
     0
 75
     0
 76
     0
 77
     0
 78
     0
281
     0
 65
     1
110
0.0
120
0.0
130
0.0
111
1.0
121
0.0
131
0.0
112
0.0
122
1.0
132
0.0
 79
     0
146
0.0
  0
ENDTAB
  0
TABLE
  2
LTYPE
  5
18E5E
330
0
100
AcDbSymbolTable
 70
     5
  0
LTYPE
  5
18E6C
330
18E5E
100
AcDbSymbolTableRecord
100
AcDbLinetypeTableRecord
  2
ByBlock
 70
     0
  3

 72
    65
 73
     0
 40
0.0
  0
LTYPE
  5
18E6D
330
18E5E
100
AcDbSymbolTableRecord
100
AcDbLinetypeTableRecord
  2
ByLayer
 70
     0
  3

 72
    65
 73
     0
 40
0.0
  0
LTYPE
  5
18E6E
330
18E5E
100
AcDbSymbolTableRecord
100
AcDbLinetypeTableRecord
  2
CONTINUOUS
 70
     0
  3
実線
 72
    65
 73
     0
 40
0.0
  0
LTYPE
  5
18E7E
330
18E5E
100
AcDbSymbolTableRecord
100
AcDbLinetypeTableRecord
  2
1PL-L
 70
     0
  3

 72
    65
 73
     4
 40
56.0
 49
50.0
 74
     0
 49
-2.0
 74
     0
 49
2.0
 74
     0
 49
-2.0
 74
     0
  0
LTYPE
  5
18E7F
330
18E5E
100
AcDbSymbolTableRecord
100
AcDbLinetypeTableRecord
  2
1PL-S
 70
     0
  3

 72
    65
 73
     4
 40
4.0
 49
2.5
 74
     0
 49
-0.5
 74
     0
 49
0.5
 74
     0
 49
-0.5
 74
     0
  0
LTYPE
  5
18E80
330
18E5E
100
AcDbSymbolTableRecord
100
AcDbLinetypeTableRecord
  2
2PL-L
 70
     0
  3

 72
    65
 73
     6
 40
60.0
 49
50.0
 74
     0
 49
-2.0
 74
     0
 49
2.0
 74
     0
 49
-2.0
 74
     0
 49
2.0
 74
     0
 49
-2.0
 74
     0
  0
LTYPE
  5
18E81
330
18E5E
100
AcDbSymbolTableRecord
100
AcDbLinetypeTableRecord
  2
KAKURE-05
 70
     0
  3

 72
    65
 73
     2
 40
1.0
 49
0.5
 74
     0
 49
-0.5
 74
     0
  0
ENDTAB
  0
TABLE
  2
LAYER
  5
18E5B
330
0
100
AcDbSymbolTable
 70
    31
  0
LAYER
  5
18E69
330
18E5B
100
AcDbSymbolTableRecord
100
AcDbLayerTableRecord
  2
0
 70
     0
 62
     7
  6
CONTINUOUS
370
    -3
390
18E68
  0
LAYER
  5
18E7B
330
18E5B
100
AcDbSymbolTableRecord
100
AcDbLayerTableRecord
  2
SUNPOU
 70
     0
 62
     4
  6
CONTINUOUS
370
    -3
390
18E68
  0
LAYER
  5
18E82
330
18E5B
100
AcDbSymbolTableRecord
100
AcDbLayerTableRecord
  2
U1
 70
     0
 62
     3
  6
CONTINUOUS
370
    -3
390
18E68
  0
LAYER
  5
18E83
330
18E5B
100
AcDbSymbolTableRecord
100
AcDbLayerTableRecord
  2
U2
 70
     0
 62
     4
  6
CONTINUOUS
370
    -3
390
18E68
  0
LAYER
  5
18E84
330
18E5B
100
AcDbSymbolTableRecord
100
AcDbLayerTableRecord
  2
U3
 70
     0
 62
     6
  6
CONTINUOUS
370
    -3
390
18E68
  0
LAYER
  5
18E85
330
18E5B
100
AcDbSymbolTableRecord
100
AcDbLayerTableRecord
  2
HIKIDASHI
 70
     0
 62
     6
  6
CONTINUOUS
370
    -3
390
18E68
  0
LAYER
  5
18E86
330
18E5B
100
AcDbSymbolTableRecord
100
AcDbLayerTableRecord
  2
1PL-S1
 70
     0
 62
     6
  6
1PL-S
370
    -3
390
18E68
  0
LAYER
  5
18E87
330
18E5B
100
AcDbSymbolTableRecord
100
AcDbLayerTableRecord
  2
1PL-S2
 70
     0
 62
     1
  6
1PL-S
370
    -3
390
18E68
  0
LAYER
  5
18E88
330
18E5B
100
AcDbSymbolTableRecord
100
AcDbLayerTableRecord
  2
1PL-L1
 70
     0
 62
     6
  6
1PL-L
370
    -3
390
18E68
  0
LAYER
  5
18E89
330
18E5B
100
AcDbSymbolTableRecord
100
AcDbLayerTableRecord
  2
2PL-L2
 70
     0
 62
     1
  6
2PL-L
370
    -3
390
18E68
  0
LAYER
  5
18E8A
330
18E5B
100
AcDbSymbolTableRecord
100
AcDbLayerTableRecord
  2
NAME
 70
     0
 62
    20
  6
CONTINUOUS
370
    -3
390
18E68
  0
LAYER
  5
18E8B
330
18E5B
100
AcDbSymbolTableRecord
100
AcDbLayerTableRecord
  2
FILENAME
 70
     0
 62
     7
  6
CONTINUOUS
370
    -3
390
18E68
  0
LAYER
  5
18E8C
330
18E5B
100
AcDbSymbolTableRecord
100
AcDbLayerTableRecord
  2
KISO
 70
     0
 62
     2
  6
CONTINUOUS
370
    -3
390
18E68
  0
LAYER
  5
18E8D
330
18E5B
100
AcDbSymbolTableRecord
100
AcDbLayerTableRecord
  2
HARI
 70
     0
 62
     7
  6
CONTINUOUS
370
    -3
390
18E68
  0
LAYER
  5
18E8E
330
18E5B
100
AcDbSymbolTableRecord
100
AcDbLayerTableRecord
  2
KERABA
 70
     0
 62
     2
  6
CONTINUOUS
370
    -3
390
18E68
  0
LAYER
  5
18E8F
330
18E5B
100
AcDbSymbolTableRecord
100
AcDbLayerTableRecord
  2
YANE
 70
     0
 62
     1
  6
CONTINUOUS
370
    -3
390
18E68
  0
LAYER
  5
18E90
330
18E5B
100
AcDbSymbolTableRecord
100
AcDbLayerTableRecord
  2
TATEDOISIJIKANAGU
 70
     0
 62
     2
  6
CONTINUOUS
370
    -3
390
18E68
  0
LAYER
  5
18E91
330
18E5B
100
AcDbSymbolTableRecord
100
AcDbLayerTableRecord
  2
HATCH
 70
     0
 62
     1
  6
CONTINUOUS
370
    -3
390
18E68
  0
LAYER
  5
18E92
330
18E5B
100
AcDbSymbolTableRecord
100
AcDbLayerTableRecord
  2
DOU_BUCHI
 70
     0
 62
     2
  6
CONTINUOUS
370
    -3
390
18E68
  0
LAYER
  5
18E93
330
18E5B
100
AcDbSymbolTableRecord
100
AcDbLayerTableRecord
  2
GAKU_FUCHI
 70
     0
 62
     4
  6
CONTINUOUS
370
    -3
390
18E68
  0
LAYER
  5
18E94
330
18E5B
100
AcDbSymbolTableRecord
100
AcDbLayerTableRecord
  2
MABASHIRA
 70
     0
 62
     4
  6
CONTINUOUS
370
    -3
390
18E68
  0
LAYER
  5
18E95
330
18E5B
100
AcDbSymbolTableRecord
100
AcDbLayerTableRecord
  2
TOI
 70
     0
 62
     3
  6
CONTINUOUS
370
    -3
390
18E68
  0
LAYER
  5
18E96
330
18E5B
100
AcDbSymbolTableRecord
100
AcDbLayerTableRecord
  2
HANAKAKUSHI
 70
     0
 62
     3
  6
CONTINUOUS
370
    -3
390
18E68
  0
LAYER
  5
18E97
330
18E5B
100
AcDbSymbolTableRecord
100
AcDbLayerTableRecord
  2
MOYA
 70
     0
 62
     4
  6
CONTINUOUS
370
    -3
390
18E68
  0
LAYER
  5
18E98
330
18E5B
100
AcDbSymbolTableRecord
100
AcDbLayerTableRecord
  2
GAKU_BUCHI
 70
     0
 62
     3
  6
CONTINUOUS
370
    -3
390
18E68
  0
LAYER
  5
18E99
330
18E5B
100
AcDbSymbolTableRecord
100
AcDbLayerTableRecord
  2
MOYA_KANAGU
 70
     0
 62
     4
  6
CONTINUOUS
370
    -3
390
18E68
  0
LAYER
  5
18E9A
330
18E5B
100
AcDbSymbolTableRecord
100
AcDbLayerTableRecord
  2
HISHIRA
 70
     0
 62
     3
  6
CONTINUOUS
370
    -3
390
18E68
  0
LAYER
  5
18E9B
330
18E5B
100
AcDbSymbolTableRecord
100
AcDbLayerTableRecord
  2
YODOROGO
 70
     0
 62
   130
  6
CONTINUOUS
370
    -3
390
18E68
  0
LAYER
  5
18E9C
330
18E5B
100
AcDbSymbolTableRecord
100
AcDbLayerTableRecord
  2
WAKUSEN-01
 70
     0
 62
    50
  6
CONTINUOUS
370
    -3
390
18E68
  0
LAYER
  5
18E9D
330
18E5B
100
AcDbSymbolTableRecord
100
AcDbLayerTableRecord
  2
WAKUSEN-02
 70
     0
 62
   130
  6
CONTINUOUS
370
    -3
390
18E68
  0
LAYER
  5
18E9E
330
18E5B
100
AcDbSymbolTableRecord
100
AcDbLayerTableRecord
  2
WAKUMOJI-01
 70
     0
 62
   130
  6
CONTINUOUS
370
    -3
390
18E68
  0
ENDTAB
  0
TABLE
  2
STYLE
  5
18E5C
330
0
100
AcDbSymbolTable
 70
     6
  0
STYLE
  5
18E6A
330
18E5C
100
AcDbSymbolTableRecord
100
AcDbTextStyleTableRecord
  2
STANDARD
 70
     0
 40
3.0
 41
1.0
 50
0.0
 71
     0
 42
0.2
  3
ROMANS
  4
EXTFONT
  0
STYLE
  5
18E7C
330
18E5C
100
AcDbSymbolTableRecord
100
AcDbTextStyleTableRecord
  2
00
 70
     0
 40
0.0
 41
0.6666666666666666
 50
0.0
 71
     0
 42
0.2
  3
ROMANS
  4
BIGFONT
  0
STYLE
  5
18E9F
330
18E5C
100
AcDbSymbolTableRecord
100
AcDbTextStyleTableRecord
  2
01
 70
     0
 40
3.0
 41
1.0
 50
0.0
 71
     0
 42
0.2
  3
ROMANS
  4
BIGFONT
  0
STYLE
  5
18EA0
330
18E5C
100
AcDbSymbolTableRecord
100
AcDbTextStyleTableRecord
  2
02
 70
     0
 40
3.0
 41
1.0
 50
0.0
 71
     0
 42
2.5
  3
ROMANS
  4
EXTFONT
  0
STYLE
  5
18EA1
330
18E5C
100
AcDbSymbolTableRecord
100
AcDbTextStyleTableRecord
  2
WAKUMOJI
 70
     0
 40
3.0
 41
1.0
 50
0.0
 71
     0
 42
3.0
  3
SIMPLEX
  4
BIGFONT
  0
STYLE
  5
18EA2
330
18E5C
100
AcDbSymbolTableRecord
100
AcDbTextStyleTableRecord
  2
FILENAME
 70
     0
 40
100.0
 41
1.0
 50
0.0
 71
     0
 42
100.0
  3
romans
  4
bigfont
  0
ENDTAB
  0
TABLE
  2
VIEW
  5
18E5F
330
0
100
AcDbSymbolTable
 70
     0
  0
ENDTAB
  0
TABLE
  2
UCS
  5
18E60
330
0
100
AcDbSymbolTable
 70
     0
  0
ENDTAB
  0
TABLE
  2
APPID
  5
18E62
330
0
100
AcDbSymbolTable
 70
     4
  0
APPID
  5
18E6B
330
18E62
100
AcDbSymbolTableRecord
100
AcDbRegAppTableRecord
  2
ACAD
 70
     0
  0
APPID
  5
18EA3
330
18E62
100
AcDbSymbolTableRecord
100
AcDbRegAppTableRecord
  2
AUTOCAD_POSTSCRIPT_FIGURE
 70
     0
  0
APPID
  5
18EA4
330
18E62
100
AcDbSymbolTableRecord
100
AcDbRegAppTableRecord
  2
ACAD_PSEXT
 70
     0
  0
APPID
  5
18EA5
330
18E62
100
AcDbSymbolTableRecord
100
AcDbRegAppTableRecord
  2
ACAD_EXEMPT_FROM_CAD_STANDARDS
 70
     0
  0
ENDTAB
  0
TABLE
  2
DIMSTYLE
  5
18E63
330
0
100
AcDbSymbolTable
 70
     1
100
AcDbDimStyleTable
 71
     0
  0
DIMSTYLE
105
18EA6
330
18E63
100
AcDbSymbolTableRecord
100
AcDbDimStyleTableRecord
  2
SUNPOU_図面名
 70
     0
 40
30.0
 41
0.5
 42
1.0
 43
7.0
 44
1.5
 46
3.0
 73
     0
 74
     0
 77
     1
 78
     8
140
3.0
141
0.0
147
1.5
172
     1
173
     1
176
   256
177
   256
178
   256
271
     2
272
     2
279
     2
284
     8
285
     8
286
     8
340
18E7C
  0
ENDTAB
  0
TABLE
  2
BLOCK_RECORD
  5
18E5A
330
0
100
AcDbSymbolTable
 70
    20
  0
BLOCK_RECORD
  5
18E77
330
18E5A
100
AcDbSymbolTableRecord
100
AcDbBlockTableRecord
  2
*Model_Space
340
18E7A
  0
BLOCK_RECORD
  5
18E73
330
18E5A
100
AcDbSymbolTableRecord
100
AcDbBlockTableRecord
  2
*Paper_Space
340
18E76
  0
BLOCK_RECORD
  5
18EAB
330
18E5A
100
AcDbSymbolTableRecord
100
AcDbBlockTableRecord
  2
$MODEL_SPACE
340
0
  0
BLOCK_RECORD
  5
18EAE
330
18E5A
100
AcDbSymbolTableRecord
100
AcDbBlockTableRecord
  2
$PAPER_SPACE
340
0
  0
BLOCK_RECORD
  5
18EB1
330
18E5A
100
AcDbSymbolTableRecord
100
AcDbBlockTableRecord
  2
DOT
340
0
  0
BLOCK_RECORD
  5
18EB9
330
18E5A
100
AcDbSymbolTableRecord
100
AcDbBlockTableRecord
  2
*U3
340
0
  0
BLOCK_RECORD
  5
18EBD
330
18E5A
100
AcDbSymbolTableRecord
100
AcDbBlockTableRecord
  2
*U4
340
0
  0
BLOCK_RECORD
  5
18EC1
330
18E5A
100
AcDbSymbolTableRecord
100
AcDbBlockTableRecord
  2
*U5
340
0
  0
BLOCK_RECORD
  5
18EC5
330
18E5A
100
AcDbSymbolTableRecord
100
AcDbBlockTableRecord
  2
*U6
340
0
  0
BLOCK_RECORD
  5
18EC9
330
18E5A
100
AcDbSymbolTableRecord
100
AcDbBlockTableRecord
  2
*U7
340
0
  0
BLOCK_RECORD
  5
18ECD
330
18E5A
100
AcDbSymbolTableRecord
100
AcDbBlockTableRecord
  2
*U8
340
0
  0
BLOCK_RECORD
  5
18ED1
330
18E5A
100
AcDbSymbolTableRecord
100
AcDbBlockTableRecord
  2
*U9
340
0
  0
BLOCK_RECORD
  5
18ED5
330
18E5A
100
AcDbSymbolTableRecord
100
AcDbBlockTableRecord
  2
*U10
340
0
  0
BLOCK_RECORD
  5
18ED9
330
18E5A
100
AcDbSymbolTableRecord
100
AcDbBlockTableRecord
  2
*U11
340
0
  0
BLOCK_RECORD
  5
18EDD
330
18E5A
100
AcDbSymbolTableRecord
100
AcDbBlockTableRecord
  2
*U12
340
0
  0
BLOCK_RECORD
  5
18EE1
330
18E5A
100
AcDbSymbolTableRecord
100
AcDbBlockTableRecord
  2
*U13
340
0
  0
BLOCK_RECORD
  5
18EE5
330
18E5A
100
AcDbSymbolTableRecord
100
AcDbBlockTableRecord
  2
*U14
340
0
  0
BLOCK_RECORD
  5
18EE9
330
18E5A
100
AcDbSymbolTableRecord
100
AcDbBlockTableRecord
  2
*U15
340
0
  0
BLOCK_RECORD
  5
18EED
330
18E5A
100
AcDbSymbolTableRecord
100
AcDbBlockTableRecord
  2
*U16
340
0
  0
BLOCK_RECORD
  5
18EF1
330
18E5A
100
AcDbSymbolTableRecord
100
AcDbBlockTableRecord
  2
*U17
340
0
  0
BLOCK_RECORD
  5
18EF5
330
18E5A
100
AcDbSymbolTableRecord
100
AcDbBlockTableRecord
  2
*U18
340
0
  0
BLOCK_RECORD
  5
18EF9
330
18E5A
100
AcDbSymbolTableRecord
100
AcDbBlockTableRecord
  2
*U19
340
0
  0
ENDTAB
  0
ENDSEC
  0
SECTION
  2
BLOCKS
  0
BLOCK
  5
18E78
330
18E77
100
AcDbEntity
  8
0
100
AcDbBlockBegin
  2
*Model_Space
 70
     0
 10
0.0
 20
0.0
 30
0.0
  3
*Model_Space
  1

  0
ENDBLK
  5
18E79
330
18E77
100
AcDbEntity
  8
0
100
AcDbBlockEnd
  0
BLOCK
  5
18E74
330
18E73
100
AcDbEntity
 67
     1
  8
0
100
AcDbBlockBegin
  2
*Paper_Space
 70
     0
 10
0.0
 20
0.0
 30
0.0
  3
*Paper_Space
  1

  0
ENDBLK
  5
18E75
330
18E73
100
AcDbEntity
 67
     1
  8
0
100
AcDbBlockEnd
  0
BLOCK
  5
18EAC
330
18EAB
100
AcDbEntity
  8
0
100
AcDbBlockBegin
  2
$MODEL_SPACE
 70
     0
 10
0.0
 20
0.0
 30
0.0
  3
$MODEL_SPACE
  1

  0
ENDBLK
  5
18EAD
330
18EAB
100
AcDbEntity
  8
0
100
AcDbBlockEnd
  0
BLOCK
  5
18EAF
330
18EAE
100
AcDbEntity
  8
0
100
AcDbBlockBegin
  2
$PAPER_SPACE
 70
     0
 10
0.0
 20
0.0
 30
0.0
  3
$PAPER_SPACE
  1

  0
ENDBLK
  5
18EB0
330
18EAE
100
AcDbEntity
  8
0
100
AcDbBlockEnd
  0
BLOCK
  5
18EB2
330
18EB1
100
AcDbEntity
  8
0
100
AcDbBlockBegin
  2
DOT
 70
     0
 10
0.0
 20
0.0
 30
0.0
  3
DOT
  1

  0
LWPOLYLINE
  5
18EB3
330
18EB1
100
AcDbEntity
  8
0
  6
ByBlock
 62
     0
100
AcDbPolyline
 90
        2
 70
     1
 43
0.75
 10
-0.375
 20
0.0
 42
1.0
 10
0.375
 20
0.0
 42
1.0
  0
LINE
  5
18EB7
330
18EB1
100
AcDbEntity
  8
0
  6
ByBlock
 62
     0
100
AcDbLine
 10
-0.75
 20
0.0
 30
0.0
 11
-1.5
 21
0.0
 31
0.0
  0
ENDBLK
  5
18EB8
330
18EB1
100
AcDbEntity
  8
0
100
AcDbBlockEnd
  0
BLOCK
  5
18EBA
330
18EB9
100
AcDbEntity
  8
0
100
AcDbBlockBegin
  2
*U3
 70
     1
 10
0.0
 20
0.0
 30
0.0
  3
*U3
  1

  0
TEXT
  5
18EBB
330
18EB9
100
AcDbEntity
  8
SUNPOU
100
AcDbText
 10
6885.903304113561
 20
5337.54679856853
 30
0.0
 40
90.0
  1
236
 41
0.6666666666666666
  7
00
100
AcDbText
  0
ENDBLK
  5
18EBC
330
18EB9
100
AcDbEntity
  8
0
100
AcDbBlockEnd
  0
BLOCK
  5
18EBE
330
18EBD
100
AcDbEntity
  8
0
100
AcDbBlockBegin
  2
*U4
 70
     1
 10
0.0
 20
0.0
 30
0.0
  3
*U4
  1

  0
TEXT
  5
18EBF
330
18EBD
100
AcDbEntity
  8
SUNPOU
100
AcDbText
 10
5539.331875542138
 20
5337.546798568531
 30
0.0
 40
90.0
  1
2400
 41
0.6666666666666666
  7
00
100
AcDbText
  0
ENDBLK
  5
18EC0
330
18EBD
100
AcDbEntity
  8
0
100
AcDbBlockEnd
  0
BLOCK
  5
18EC2
330
18EC1
100
AcDbEntity
  8
0
100
AcDbBlockBegin
  2
*U5
 70
     1
 10
0.0
 20
0.0
 30
0.0
  3
*U5
  1

  0
TEXT
  5
18EC3
330
18EC1
100
AcDbEntity
  8
SUNPOU
100
AcDbText
 10
4249.903304113565
 20
5337.546798568531
 30
0.0
 40
90.0
  1
236
 41
0.6666666666666666
  7
00
100
AcDbText
  0
ENDBLK
  5
18EC4
330
18EC1
100
AcDbEntity
  8
0
100
AcDbBlockEnd
  0
BLOCK
  5
18EC6
330
18EC5
100
AcDbEntity
  8
0
100
AcDbBlockBegin
  2
*U6
 70
     1
 10
0.0
 20
0.0
 30
0.0
  3
*U6
  1

  0
TEXT
  5
18EC7
330
18EC5
100
AcDbEntity
  8
SUNPOU
100
AcDbText
 10
5539.331875542138
 20
7052.920617280122
 30
0.0
 40
90.0
  1
2400
 41
0.6666666666666666
  7
00
100
AcDbText
  0
ENDBLK
  5
18EC8
330
18EC5
100
AcDbEntity
  8
0
100
AcDbBlockEnd
  0
BLOCK
  5
18ECA
330
18EC9
100
AcDbEntity
  8
0
100
AcDbBlockBegin
  2
*U7
 70
     1
 10
0.0
 20
0.0
 30
0.0
  3
*U7
  1

  0
TEXT
  5
18ECB
330
18EC9
100
AcDbEntity
  8
SUNPOU
100
AcDbText
 10
6885.903304113567
 20
7052.920617280122
 30
0.0
 40
90.0
  1
236
 41
0.6666666666666666
  7
00
100
AcDbText
  0
ENDBLK
  5
18ECC
330
18EC9
100
AcDbEntity
  8
0
100
AcDbBlockEnd
  0
BLOCK
  5
18ECE
330
18ECD
100
AcDbEntity
  8
0
100
AcDbBlockBegin
  2
*U8
 70
     1
 10
0.0
 20
0.0
 30
0.0
  3
*U8
  1

  0
TEXT
  5
18ECF
330
18ECD
100
AcDbEntity
  8
SUNPOU
100
AcDbText
 10
4249.903304113565
 20
7052.920617280122
 30
0.0
 40
90.0
  1
236
 41
0.6666666666666666
  7
00
100
AcDbText
  0
ENDBLK
  5
18ED0
330
18ECD
100
AcDbEntity
  8
0
100
AcDbBlockEnd
  0
BLOCK
  5
18ED2
330
18ED1
100
AcDbEntity
  8
0
100
AcDbBlockBegin
  2
*U9
 70
     1
 10
0.0
 20
0.0
 30
0.0
  3
*U9
  1

  0
TEXT
  5
18ED3
330
18ED1
100
AcDbEntity
  8
SUNPOU
100
AcDbText
 10
12656.26430788204
 20
3615.261084282822
 30
0.0
 40
90.0
  1
2020
 50
90.0
 41
0.6666666666666666
  7
00
100
AcDbText
  0
ENDBLK
  5
18ED4
330
18ED1
100
AcDbEntity
  8
0
100
AcDbBlockEnd
  0
BLOCK
  5
18ED6
330
18ED5
100
AcDbEntity
  8
0
100
AcDbBlockBegin
  2
*U10
 70
     1
 10
0.0
 20
0.0
 30
0.0
  3
*U10
  1

  0
TEXT
  5
18ED7
330
18ED5
100
AcDbEntity
  8
SUNPOU
100
AcDbText
 10
9451.569579679539
 20
2488.83251285425
 30
0.0
 40
90.0
  1
50
 50
90.0
 41
0.6666666666666666
  7
00
100
AcDbText
  0
ENDBLK
  5
18ED8
330
18ED5
100
AcDbEntity
  8
0
100
AcDbBlockEnd
  0
BLOCK
  5
18EDA
330
18ED9
100
AcDbEntity
  8
0
100
AcDbBlockBegin
  2
*U11
 70
     1
 10
0.0
 20
0.0
 30
0.0
  3
*U11
  1

  0
TEXT
  5
18EDB
330
18ED9
100
AcDbEntity
  8
SUNPOU
100
AcDbText
 10
9451.569579679539
 20
3685.261084282822
 30
0.0
 40
90.0
  1
2160
 50
90.0
 41
0.6666666666666666
  7
00
100
AcDbText
  0
ENDBLK
  5
18EDC
330
18ED9
100
AcDbEntity
  8
0
100
AcDbBlockEnd
  0
BLOCK
  5
18EDE
330
18EDD
100
AcDbEntity
  8
0
100
AcDbBlockBegin
  2
*U12
 70
     1
 10
0.0
 20
0.0
 30
0.0
  3
*U12
  1

  0
TEXT
  5
18EDF
330
18EDD
100
AcDbEntity
  8
SUNPOU
100
AcDbText
 10
12169.72486956074
 20
5337.546798568531
 30
0.0
 40
90.0
  1
280
 41
0.6666666666666666
  7
00
100
AcDbText
  0
ENDBLK
  5
18EE0
330
18EDD
100
AcDbEntity
  8
0
100
AcDbBlockEnd
  0
BLOCK
  5
18EE2
330
18EE1
100
AcDbEntity
  8
0
100
AcDbBlockBegin
  2
*U13
 70
     1
 10
0.0
 20
0.0
 30
0.0
  3
*U13
  1

  0
TEXT
  5
18EE3
330
18EE1
100
AcDbEntity
  8
SUNPOU
100
AcDbText
 10
11279.36772670361
 20
5337.546798568531
 30
0.0
 40
90.0
  1
1435
 41
0.6666666666666666
  7
00
100
AcDbText
  0
ENDBLK
  5
18EE4
330
18EE1
100
AcDbEntity
  8
0
100
AcDbBlockEnd
  0
BLOCK
  5
18EE6
330
18EE5
100
AcDbEntity
  8
0
100
AcDbBlockBegin
  2
*U14
 70
     1
 10
0.0
 20
0.0
 30
0.0
  3
*U14
  1

  0
TEXT
  5
18EE7
330
18EE5
100
AcDbEntity
  8
SUNPOU
100
AcDbText
 10
10245.79629813217
 20
5337.546798568531
 30
0.0
 40
90.0
  1
695
 41
0.6666666666666666
  7
00
100
AcDbText
  0
ENDBLK
  5
18EE8
330
18EE5
100
AcDbEntity
  8
0
100
AcDbBlockEnd
  0
BLOCK
  5
18EEA
330
18EE9
100
AcDbEntity
  8
0
100
AcDbBlockBegin
  2
*U15
 70
     1
 10
0.0
 20
0.0
 30
0.0
  3
*U15
  1

  0
TEXT
  5
18EEB
330
18EE9
100
AcDbEntity
  8
SUNPOU
100
AcDbText
 10
7554.617589827845
 20
8812.634902994405
 30
0.0
 40
90.0
  1
2410
 50
90.0
 41
0.6666666666666666
  7
00
100
AcDbText
  0
ENDBLK
  5
18EEC
330
18EE9
100
AcDbEntity
  8
0
100
AcDbBlockEnd
  0
BLOCK
  5
18EEE
330
18EED
100
AcDbEntity
  8
0
100
AcDbBlockBegin
  2
*U16
 70
     1
 10
0.0
 20
0.0
 30
0.0
  3
*U16
  1

  0
TEXT
  5
18EEF
330
18EED
100
AcDbEntity
  8
SUNPOU
100
AcDbText
 10
7344.617589827851
 20
9906.206331565838
 30
0.0
 40
90.0
  1
280
 50
90.0
 41
0.6666666666666666
  7
00
100
AcDbText
  0
ENDBLK
  5
18EF0
330
18EED
100
AcDbEntity
  8
0
100
AcDbBlockEnd
  0
BLOCK
  5
18EF2
330
18EF1
100
AcDbEntity
  8
0
100
AcDbBlockBegin
  2
*U17
 70
     1
 10
0.0
 20
0.0
 30
0.0
  3
*U17
  1

  0
TEXT
  5
18EF3
330
18EF1
100
AcDbEntity
  8
SUNPOU
100
AcDbText
 10
7344.617589827851
 20
9015.849188708697
 30
0.0
 40
90.0
  1
1435
 50
90.0
 41
0.6666666666666666
  7
00
100
AcDbText
  0
ENDBLK
  5
18EF4
330
18EF1
100
AcDbEntity
  8
0
100
AcDbBlockEnd
  0
BLOCK
  5
18EF6
330
18EF5
100
AcDbEntity
  8
0
100
AcDbBlockBegin
  2
*U18
 70
     1
 10
0.0
 20
0.0
 30
0.0
  3
*U18
  1

  0
TEXT
  5
18EF7
330
18EF5
100
AcDbEntity
  8
SUNPOU
100
AcDbText
 10
7344.617589827851
 20
7982.277760137262
 30
0.0
 40
90.0
  1
695
 50
90.0
 41
0.6666666666666666
  7
00
100
AcDbText
  0
ENDBLK
  5
18EF8
330
18EF5
100
AcDbEntity
  8
0
100
AcDbBlockEnd
  0
BLOCK
  5
18EFA
330
18EF9
100
AcDbEntity
  8
0
100
AcDbBlockBegin
  2
*U19
 70
     1
 10
0.0
 20
0.0
 30
0.0
  3
*U19
  1

  0
TEXT
  5
18EFB
330
18EF9
100
AcDbEntity
  8
SUNPOU
100
AcDbText
 10
5539.331875542138
 20
6813.859771644584
 30
0.0
 40
90.0
  1
2872
 41
0.6666666666666666
  7
00
100
AcDbText
  0
ENDBLK
  5
18EFC
330
18EF9
100
AcDbEntity
  8
0
100
AcDbBlockEnd
  0
ENDSEC
  0
SECTION
  2
ENTITIES
  0
TEXT
  5
18EFD
330
18E77
100
AcDbEntity
  8
SUNPOU
100
AcDbText
 10
4210.287574745964
 20
2854.546798568534
 30
0.0
 40
90.0
  1
FL
  7
01
 72
     4
 11
4291.716146174536
 21
2899.546798568534
 31
0.0
100
AcDbText
  0
LINE
  5
18EFE
330
18E77
100
AcDbEntity
  8
SUNPOU
100
AcDbLine
 10
4291.716146174536
 20
2719.546798568534
 30
0.0
 11
4343.677670401603
 21
2809.546798568534
 31
0.0
  0
LINE
  5
18EFF
330
18E77
100
AcDbEntity
  8
SUNPOU
100
AcDbLine
 10
4239.754621947469
 20
2809.546798568534
 30
0.0
 11
4291.716146174536
 21
2719.546798568534
 31
0.0
  0
LINE
  5
18F00
330
18E77
100
AcDbEntity
  8
SUNPOU
100
AcDbLine
 10
4343.677670401603
 20
2809.546798568534
 30
0.0
 11
4239.754621947469
 21
2809.546798568534
 31
0.0
  0
LINE
  5
18F01
330
18E77
100
AcDbEntity
  8
KISO
100
AcDbLine
 10
7053.617589827841
 20
2719.546798568533
 30
0.0
 11
4253.617589827849
 21
2719.546798568534
 31
0.0
  0
LINE
  5
18F02
330
18E77
100
AcDbEntity
  8
HANAKAKUSHI
100
AcDbLine
 10
4217.617589827851
 20
4790.464181683073
 30
0.0
 11
7083.617589827841
 21
4790.464181683073
 31
0.0
  0
LINE
  5
18F03
330
18E77
100
AcDbEntity
  8
HANAKAKUSHI
100
AcDbLine
 10
4217.617589827851
 20
4892.546798568534
 30
0.0
 11
7089.617589827842
 21
4892.54679856853
 31
0.0
  0
ARC
  5
18F04
330
18E77
100
AcDbEntity
  8
TATEDOISIJIKANAGU
100
AcDbCircle
 10
4493.596837116175
 20
4328.737218858189
 30
0.0
 40
19.50000000000022
100
AcDbArc
 50
104.1614835120391
 51
112.5538228595494
  0
ARC
  5
18F05
330
18E77
100
AcDbEntity
  8
TATEDOISIJIKANAGU
100
AcDbCircle
 10
4522.685138200846
 20
4336.076887788555
 30
0.0
 40
19.50000000000022
100
AcDbArc
 50
104.1614835120391
 51
284.1614835120391
  0
ARC
  5
18F06
330
18E77
100
AcDbEntity
  8
TATEDOISIJIKANAGU
100
AcDbCircle
 10
4493.596837116175
 20
4328.737218858189
 30
0.0
 40
19.50000000000022
100
AcDbArc
 50
247.4461771407328
 51
284.1614835120391
  0
LINE
  5
18F07
330
18E77
100
AcDbEntity
  8
TATEDOISIJIKANAGU
100
AcDbLine
 10
4547.00265448078
 20
4362.323952423963
 30
0.0
 11
4488.825960052036
 21
4347.644591283989
 31
0.0
  0
LINE
  5
18F08
330
18E77
100
AcDbEntity
  8
TATEDOISIJIKANAGU
100
AcDbLine
 10
4571.088374632596
 20
4328.178995479071
 30
0.0
 11
4498.367529558235
 21
4309.829799847857
 31
0.0
  0
ARC
  5
18F09
330
18E77
100
AcDbEntity
  8
TATEDOISIJIKANAGU
100
AcDbCircle
 10
4566.317589827856
 20
4347.086391184109
 30
0.0
 40
19.50000000000022
100
AcDbArc
 50
284.1614835120391
 51
313.5311992856336
  0
LINE
  5
18F0A
330
18E77
100
AcDbEntity
  8
TATEDOISIJIKANAGU
100
AcDbLine
 10
4566.067589827849
 20
4422.63979884087
 30
0.0
 11
4577.06758982785
 21
4422.63979884087
 31
0.0
  0
LINE
  5
18F0B
330
18E77
100
AcDbEntity
  8
TATEDOISIJIKANAGU
100
AcDbLine
 10
4571.567589827849
 20
4417.13979884087
 30
0.0
 11
4576.567589827848
 21
4417.13979884087
 31
0.0
  0
LINE
  5
18F0C
330
18E77
100
AcDbEntity
  8
TATEDOISIJIKANAGU
100
AcDbLine
 10
4571.567589827849
 20
4417.13979884087
 30
0.0
 11
4594.567589827849
 21
4417.13979884087
 31
0.0
  0
ARC
  5
18F0D
330
18E77
100
AcDbEntity
  8
TATEDOISIJIKANAGU
100
AcDbCircle
 10
4571.567589827849
 20
4369.24340889447
 30
0.0
 40
19.50000000000022
100
AcDbArc
 50
168.473866709409
 51
11.5261332905909
  0
ARC
  5
18F0E
330
18E77
100
AcDbEntity
  8
TATEDOISIJIKANAGU
100
AcDbCircle
 10
4571.567589827849
 20
4392.302308139194
 30
0.0
 40
26.95528919112273
100
AcDbArc
 50
225.6615781493755
 51
314.3384218506243
  0
ARC
  5
18F0F
330
18E77
100
AcDbEntity
  8
TATEDOISIJIKANAGU
100
AcDbCircle
 10
4571.567589827849
 20
4353.639798840869
 30
0.0
 40
19.50000000000022
100
AcDbArc
 50
180.0
 51
0.0
  0
LINE
  5
18F10
330
18E77
100
AcDbEntity
  8
TATEDOISIJIKANAGU
100
AcDbLine
 10
4594.567589827849
 20
4404.139798840868
 30
0.0
 11
4548.567589827849
 21
4404.139798840868
 31
0.0
  0
LINE
  5
18F11
330
18E77
100
AcDbEntity
  8
TATEDOISIJIKANAGU
100
AcDbLine
 10
4593.067589827849
 20
4397.492452802286
 30
0.0
 11
4550.067589827849
 21
4397.492452802286
 31
0.0
  0
LINE
  5
18F12
330
18E77
100
AcDbEntity
  8
TATEDOISIJIKANAGU
100
AcDbLine
 10
4548.567589827849
 20
4417.13979884087
 30
0.0
 11
4593.63000130076
 21
4417.13979884087
 31
0.0
  0
LINE
  5
18F13
330
18E77
100
AcDbEntity
  8
TATEDOISIJIKANAGU
100
AcDbLine
 10
4552.067589827848
 20
4369.24340889447
 30
0.0
 11
4552.067589827848
 21
4353.639798840869
 31
0.0
  0
LINE
  5
18F14
330
18E77
100
AcDbEntity
  8
TATEDOISIJIKANAGU
100
AcDbLine
 10
4548.06758982785
 20
4416.639798840868
 30
0.0
 11
4548.06758982785
 21
4404.63979884087
 31
0.0
  0
ARC
  5
18F15
330
18E77
100
AcDbEntity
  8
TATEDOISIJIKANAGU
100
AcDbCircle
 10
4548.567589827849
 20
4404.63979884087
 30
0.0
 40
0.5
100
AcDbArc
 50
180.0
 51
270.0
  0
ARC
  5
18F16
330
18E77
100
AcDbEntity
  8
TATEDOISIJIKANAGU
100
AcDbCircle
 10
4548.567589827849
 20
4416.639798840868
 30
0.0
 40
0.5
100
AcDbArc
 50
90.0
 51
180.0
  0
LINE
  5
18F17
330
18E77
100
AcDbEntity
  8
TATEDOISIJIKANAGU
100
AcDbLine
 10
4552.067589827848
 20
4393.968519135929
 30
0.0
 11
4552.067589827848
 21
4391.811078545812
 31
0.0
  0
LINE
  5
18F18
330
18E77
100
AcDbEntity
  8
TATEDOISIJIKANAGU
100
AcDbLine
 10
4550.067589827849
 20
4403.639798840869
 30
0.0
 11
4550.067589827849
 21
4397.492452802286
 31
0.0
  0
ARC
  5
18F19
330
18E77
100
AcDbEntity
  8
TATEDOISIJIKANAGU
100
AcDbCircle
 10
4552.867589827847
 20
4393.968519135929
 30
0.0
 40
0.8
100
AcDbArc
 50
100.000000000005
 51
180.0
  0
ARC
  5
18F1A
330
18E77
100
AcDbEntity
  8
TATEDOISIJIKANAGU
100
AcDbCircle
 10
4552.867589827847
 20
4387.968519135927
 30
0.0
 40
0.8
100
AcDbArc
 50
100.000000000005
 51
180.0
  0
ARC
  5
18F1B
330
18E77
100
AcDbEntity
  8
TATEDOISIJIKANAGU
100
AcDbCircle
 10
4552.867589827847
 20
4391.811078545812
 30
0.0
 40
0.8
100
AcDbArc
 50
180.0
 51
259.9999999999949
  0
ARC
  5
18F1C
330
18E77
100
AcDbEntity
  8
TATEDOISIJIKANAGU
100
AcDbCircle
 10
4549.56758982785
 20
4403.639798840869
 30
0.0
 40
0.5
100
AcDbArc
 50
0.0
 51
90.0
  0
LINE
  5
18F1D
330
18E77
100
AcDbEntity
  8
TATEDOISIJIKANAGU
100
AcDbLine
 10
4552.067589827848
 20
4373.811078545809
 30
0.0
 11
4552.067589827848
 21
4375.968519135926
 31
0.0
  0
LINE
  5
18F1E
330
18E77
100
AcDbEntity
  8
TATEDOISIJIKANAGU
100
AcDbLine
 10
4552.067589827848
 20
4381.968519135926
 30
0.0
 11
4552.067589827848
 21
4379.811078545812
 31
0.0
  0
ARC
  5
18F1F
330
18E77
100
AcDbEntity
  8
TATEDOISIJIKANAGU
100
AcDbCircle
 10
4552.867589827847
 20
4375.968519135926
 30
0.0
 40
0.8
100
AcDbArc
 50
100.000000000005
 51
180.0
  0
ARC
  5
18F20
330
18E77
100
AcDbEntity
  8
TATEDOISIJIKANAGU
100
AcDbCircle
 10
4552.867589827847
 20
4373.811078545809
 30
0.0
 40
0.8
100
AcDbArc
 50
180.0
 51
259.9999999999949
  0
ARC
  5
18F21
330
18E77
100
AcDbEntity
  8
TATEDOISIJIKANAGU
100
AcDbCircle
 10
4552.867589827847
 20
4381.968519135926
 30
0.0
 40
0.8
100
AcDbArc
 50
100.000000000005
 51
180.0
  0
ARC
  5
18F22
330
18E77
100
AcDbEntity
  8
TATEDOISIJIKANAGU
100
AcDbCircle
 10
4552.867589827847
 20
4379.811078545812
 30
0.0
 40
0.8
100
AcDbArc
 50
180.0
 51
259.9999999999949
  0
ARC
  5
18F23
330
18E77
100
AcDbEntity
  8
TATEDOISIJIKANAGU
100
AcDbCircle
 10
4552.867589827847
 20
4385.811078545812
 30
0.0
 40
0.8
100
AcDbArc
 50
180.0
 51
259.9999999999949
  0
LINE
  5
18F24
330
18E77
100
AcDbEntity
  8
TATEDOISIJIKANAGU
100
AcDbLine
 10
4552.067589827848
 20
4385.811078545812
 30
0.0
 11
4552.067589827848
 21
4387.968519135927
 31
0.0
  0
LINE
  5
18F25
330
18E77
100
AcDbEntity
  8
TATEDOISIJIKANAGU
100
AcDbLine
 10
4566.067589827849
 20
4428.63979884087
 30
0.0
 11
4566.067589827849
 21
4422.63979884087
 31
0.0
  0
ARC
  5
18F26
330
18E77
100
AcDbEntity
  8
TATEDOISIJIKANAGU
100
AcDbCircle
 10
4556.567589827849
 20
4389.88979884087
 30
0.0
 40
0.5000000000000285
100
AcDbArc
 50
305.9487523472061
 51
54.05124765279389
  0
ARC
  5
18F27
330
18E77
100
AcDbEntity
  8
TATEDOISIJIKANAGU
100
AcDbCircle
 10
4556.567589827849
 20
4395.88979884087
 30
0.0
 40
0.5000000000000285
100
AcDbArc
 50
305.9487523472061
 51
54.05124765279389
  0
ARC
  5
18F28
330
18E77
100
AcDbEntity
  8
TATEDOISIJIKANAGU
100
AcDbCircle
 10
4556.567589827849
 20
4377.88979884087
 30
0.0
 40
0.5000000000000285
100
AcDbArc
 50
305.9487523472061
 51
54.05124765279389
  0
ARC
  5
18F29
330
18E77
100
AcDbEntity
  8
TATEDOISIJIKANAGU
100
AcDbCircle
 10
4556.567589827849
 20
4383.889798840868
 30
0.0
 40
0.5000000000000285
100
AcDbArc
 50
305.9487523472061
 51
54.05124765279389
  0
LINE
  5
18F2A
330
18E77
100
AcDbEntity
  8
TATEDOISIJIKANAGU
100
AcDbLine
 10
4552.728671285716
 20
4391.023232343401
 30
0.0
 11
4556.86112052779
 21
4390.294570045615
 31
0.0
  0
LINE
  5
18F2B
330
18E77
100
AcDbEntity
  8
TATEDOISIJIKANAGU
100
AcDbLine
 10
4552.728671285716
 20
4388.756365338339
 30
0.0
 11
4556.86112052779
 21
4389.485027636124
 31
0.0
  0
LINE
  5
18F2C
330
18E77
100
AcDbEntity
  8
TATEDOISIJIKANAGU
100
AcDbLine
 10
4552.728671285716
 20
4394.756365338337
 30
0.0
 11
4556.86112052779
 21
4395.485027636124
 31
0.0
  0
LINE
  5
18F2D
330
18E77
100
AcDbEntity
  8
TATEDOISIJIKANAGU
100
AcDbLine
 10
4550.067589827849
 20
4397.492452802286
 30
0.0
 11
4556.86112052779
 21
4396.294570045617
 31
0.0
  0
LINE
  5
18F2E
330
18E77
100
AcDbEntity
  8
TATEDOISIJIKANAGU
100
AcDbLine
 10
4552.728671285716
 20
4382.756365338337
 30
0.0
 11
4556.86112052779
 21
4383.485027636123
 31
0.0
  0
LINE
  5
18F2F
330
18E77
100
AcDbEntity
  8
TATEDOISIJIKANAGU
100
AcDbLine
 10
4552.728671285716
 20
4376.756365338337
 30
0.0
 11
4556.86112052779
 21
4377.485027636124
 31
0.0
  0
LINE
  5
18F30
330
18E77
100
AcDbEntity
  8
TATEDOISIJIKANAGU
100
AcDbLine
 10
4552.728671285716
 20
4379.023232343402
 30
0.0
 11
4556.86112052779
 21
4378.294570045613
 31
0.0
  0
LINE
  5
18F31
330
18E77
100
AcDbEntity
  8
TATEDOISIJIKANAGU
100
AcDbLine
 10
4552.728671285716
 20
4385.023232343402
 30
0.0
 11
4556.86112052779
 21
4384.294570045617
 31
0.0
  0
LINE
  5
18F32
330
18E77
100
AcDbEntity
  8
TATEDOISIJIKANAGU
100
AcDbLine
 10
4591.06758982785
 20
4369.24340889447
 30
0.0
 11
4591.06758982785
 21
4353.639798840869
 31
0.0
  0
ARC
  5
18F33
330
18E77
100
AcDbEntity
  8
TATEDOISIJIKANAGU
100
AcDbCircle
 10
4571.317589827855
 20
4351.83639118411
 30
0.0
 40
19.50000000000022
100
AcDbArc
 50
313.5311992856336
 51
9.713098239813458
  0
LINE
  5
18F34
330
18E77
100
AcDbEntity
  8
TATEDOISIJIKANAGU
100
AcDbLine
 10
4584.748204335194
 20
4337.698902229016
 30
0.0
 11
4579.748204335191
 21
4332.948902229017
 31
0.0
  0
LINE
  5
18F35
330
18E77
100
AcDbEntity
  8
TATEDOISIJIKANAGU
100
AcDbLine
 10
4577.06758982785
 20
4422.63979884087
 30
0.0
 11
4577.06758982785
 21
4428.63979884087
 31
0.0
  0
LINE
  5
18F36
330
18E77
100
AcDbEntity
  8
TATEDOISIJIKANAGU
100
AcDbLine
 10
4590.406508369984
 20
4391.023232343401
 30
0.0
 11
4586.274059127907
 21
4390.294570045615
 31
0.0
  0
LINE
  5
18F37
330
18E77
100
AcDbEntity
  8
TATEDOISIJIKANAGU
100
AcDbLine
 10
4590.406508369984
 20
4388.756365338339
 30
0.0
 11
4586.274059127907
 21
4389.485027636124
 31
0.0
  0
LINE
  5
18F38
330
18E77
100
AcDbEntity
  8
TATEDOISIJIKANAGU
100
AcDbLine
 10
4593.067589827849
 20
4397.492452802286
 30
0.0
 11
4586.274059127907
 21
4396.294570045617
 31
0.0
  0
LINE
  5
18F39
330
18E77
100
AcDbEntity
  8
TATEDOISIJIKANAGU
100
AcDbLine
 10
4590.406508369984
 20
4394.756365338337
 30
0.0
 11
4586.274059127907
 21
4395.485027636124
 31
0.0
  0
LINE
  5
18F3A
330
18E77
100
AcDbEntity
  8
TATEDOISIJIKANAGU
100
AcDbLine
 10
4590.406508369984
 20
4382.756365338337
 30
0.0
 11
4586.274059127907
 21
4383.485027636123
 31
0.0
  0
LINE
  5
18F3B
330
18E77
100
AcDbEntity
  8
TATEDOISIJIKANAGU
100
AcDbLine
 10
4590.406508369984
 20
4376.756365338337
 30
0.0
 11
4586.274059127907
 21
4377.485027636124
 31
0.0
  0
LINE
  5
18F3C
330
18E77
100
AcDbEntity
  8
TATEDOISIJIKANAGU
100
AcDbLine
 10
4590.406508369984
 20
4379.023232343402
 30
0.0
 11
4586.274059127907
 21
4378.294570045613
 31
0.0
  0
LINE
  5
18F3D
330
18E77
100
AcDbEntity
  8
TATEDOISIJIKANAGU
100
AcDbLine
 10
4590.406508369984
 20
4385.023232343402
 30
0.0
 11
4586.274059127907
 21
4384.294570045617
 31
0.0
  0
LINE
  5
18F3E
330
18E77
100
AcDbEntity
  8
TATEDOISIJIKANAGU
100
AcDbLine
 10
4595.067589827849
 20
4416.639798840868
 30
0.0
 11
4595.067589827849
 21
4404.63979884087
 31
0.0
  0
ARC
  5
18F3F
330
18E77
100
AcDbEntity
  8
TATEDOISIJIKANAGU
100
AcDbCircle
 10
4594.567589827849
 20
4404.63979884087
 30
0.0
 40
0.5
100
AcDbArc
 50
270.0
 51
0.0
  0
ARC
  5
18F40
330
18E77
100
AcDbEntity
  8
TATEDOISIJIKANAGU
100
AcDbCircle
 10
4594.567589827849
 20
4416.639798840868
 30
0.0
 40
0.5
100
AcDbArc
 50
0.0
 51
90.0
  0
ARC
  5
18F41
330
18E77
100
AcDbEntity
  8
TATEDOISIJIKANAGU
100
AcDbCircle
 10
4590.267589827849
 20
4393.968519135929
 30
0.0
 40
0.8
100
AcDbArc
 50
0.0
 51
79.99999999999484
  0
ARC
  5
18F42
330
18E77
100
AcDbEntity
  8
TATEDOISIJIKANAGU
100
AcDbCircle
 10
4590.267589827849
 20
4387.968519135927
 30
0.0
 40
0.8
100
AcDbArc
 50
0.0
 51
79.99999999999484
  0
LINE
  5
18F43
330
18E77
100
AcDbEntity
  8
TATEDOISIJIKANAGU
100
AcDbLine
 10
4591.06758982785
 20
4393.968519135929
 30
0.0
 11
4591.06758982785
 21
4391.811078545812
 31
0.0
  0
ARC
  5
18F44
330
18E77
100
AcDbEntity
  8
TATEDOISIJIKANAGU
100
AcDbCircle
 10
4590.267589827849
 20
4391.811078545812
 30
0.0
 40
0.8
100
AcDbArc
 50
280.0000000000051
 51
0.0
  0
LINE
  5
18F45
330
18E77
100
AcDbEntity
  8
TATEDOISIJIKANAGU
100
AcDbLine
 10
4593.067589827849
 20
4403.639798840869
 30
0.0
 11
4593.067589827849
 21
4397.492452802286
 31
0.0
  0
ARC
  5
18F46
330
18E77
100
AcDbEntity
  8
TATEDOISIJIKANAGU
100
AcDbCircle
 10
4593.567589827848
 20
4403.639798840869
 30
0.0
 40
0.5
100
AcDbArc
 50
90.0
 51
180.0
  0
LINE
  5
18F47
330
18E77
100
AcDbEntity
  8
TATEDOISIJIKANAGU
100
AcDbLine
 10
4594.567589827849
 20
4428.63979884087
 30
0.0
 11
4594.567589827849
 21
4417.13979884087
 31
0.0
  0
ARC
  5
18F48
330
18E77
100
AcDbEntity
  8
TATEDOISIJIKANAGU
100
AcDbCircle
 10
4590.267589827849
 20
4375.968519135926
 30
0.0
 40
0.8
100
AcDbArc
 50
0.0
 51
79.99999999999484
  0
LINE
  5
18F49
330
18E77
100
AcDbEntity
  8
TATEDOISIJIKANAGU
100
AcDbLine
 10
4591.06758982785
 20
4373.811078545809
 30
0.0
 11
4591.06758982785
 21
4375.968519135926
 31
0.0
  0
ARC
  5
18F4A
330
18E77
100
AcDbEntity
  8
TATEDOISIJIKANAGU
100
AcDbCircle
 10
4590.267589827849
 20
4373.811078545809
 30
0.0
 40
0.8
100
AcDbArc
 50
280.0000000000051
 51
0.0
  0
LINE
  5
18F4B
330
18E77
100
AcDbEntity
  8
TATEDOISIJIKANAGU
100
AcDbLine
 10
4591.06758982785
 20
4381.968519135926
 30
0.0
 11
4591.06758982785
 21
4379.811078545812
 31
0.0
  0
ARC
  5
18F4C
330
18E77
100
AcDbEntity
  8
TATEDOISIJIKANAGU
100
AcDbCircle
 10
4590.267589827849
 20
4381.968519135926
 30
0.0
 40
0.8
100
AcDbArc
 50
0.0
 51
79.99999999999484
  0
ARC
  5
18F4D
330
18E77
100
AcDbEntity
  8
TATEDOISIJIKANAGU
100
AcDbCircle
 10
4590.267589827849
 20
4379.811078545812
 30
0.0
 40
0.8
100
AcDbArc
 50
280.0000000000051
 51
0.0
  0
ARC
  5
18F4E
330
18E77
100
AcDbEntity
  8
TATEDOISIJIKANAGU
100
AcDbCircle
 10
4590.267589827849
 20
4385.811078545812
 30
0.0
 40
0.8
100
AcDbArc
 50
280.0000000000051
 51
0.0
  0
LINE
  5
18F4F
330
18E77
100
AcDbEntity
  8
TATEDOISIJIKANAGU
100
AcDbLine
 10
4591.06758982785
 20
4385.811078545812
 30
0.0
 11
4591.06758982785
 21
4387.968519135927
 31
0.0
  0
ARC
  5
18F50
330
18E77
100
AcDbEntity
  8
TATEDOISIJIKANAGU
100
AcDbCircle
 10
4586.56758982785
 20
4389.88979884087
 30
0.0
 40
0.5000000000000285
100
AcDbArc
 50
125.9487523472061
 51
234.0512476527937
  0
ARC
  5
18F51
330
18E77
100
AcDbEntity
  8
TATEDOISIJIKANAGU
100
AcDbCircle
 10
4586.56758982785
 20
4395.88979884087
 30
0.0
 40
0.5000000000000285
100
AcDbArc
 50
125.9487523472061
 51
234.0512476527937
  0
ARC
  5
18F52
330
18E77
100
AcDbEntity
  8
TATEDOISIJIKANAGU
100
AcDbCircle
 10
4586.56758982785
 20
4377.88979884087
 30
0.0
 40
0.5000000000000285
100
AcDbArc
 50
125.9487523472061
 51
234.0512476527937
  0
ARC
  5
18F53
330
18E77
100
AcDbEntity
  8
TATEDOISIJIKANAGU
100
AcDbCircle
 10
4586.56758982785
 20
4383.889798840868
 30
0.0
 40
0.5000000000000285
100
AcDbArc
 50
125.9487523472061
 51
234.0512476527937
  0
LINE
  5
18F54
330
18E77
100
AcDbEntity
  8
TATEDOISIJIKANAGU
100
AcDbLine
 10
4594.567589827849
 20
4428.63979884087
 30
0.0
 11
4577.06758982785
 21
4428.63979884087
 31
0.0
  0
ARC
  5
18F55
330
18E77
100
AcDbEntity
  8
TATEDOISIJIKANAGU
100
AcDbCircle
 10
4551.77343928552
 20
4343.416556718923
 30
0.0
 40
19.50000000000022
100
AcDbArc
 50
89.13568082844051
 51
284.1614835120391
  0
LINE
  5
18F56
330
18E77
100
AcDbEntity
  8
YANE
100
AcDbLine
 10
4311.17569949668
 20
4491.046891988565
 30
0.0
 11
4311.17569949668
 21
4661.807664297206
 31
0.0
  0
LINE
  5
18F57
330
18E77
100
AcDbEntity
  8
YANE
100
AcDbLine
 10
4283.859480159014
 20
4661.807664297206
 30
0.0
 11
4283.859480159014
 21
4491.046891988565
 31
0.0
  0
LINE
  5
18F58
330
18E77
100
AcDbEntity
  8
YANE
100
AcDbLine
 10
4267.209480159012
 20
4491.046891988565
 30
0.0
 11
4267.209480159012
 21
4661.807664297206
 31
0.0
  0
LINE
  5
18F59
330
18E77
100
AcDbEntity
  8
YANE
100
AcDbLine
 10
4327.825699496681
 20
4661.807664297206
 30
0.0
 11
4327.825699496681
 21
4491.046891988565
 31
0.0
  0
LINE
  5
18F5A
330
18E77
100
AcDbEntity
  8
YANE
100
AcDbLine
 10
4417.159480159013
 20
4661.807664297206
 30
0.0
 11
4417.159480159013
 21
4491.046891988565
 31
0.0
  0
LINE
  5
18F5B
330
18E77
100
AcDbEntity
  8
YANE
100
AcDbLine
 10
4400.509480159012
 20
4491.046891988565
 30
0.0
 11
4400.509480159012
 21
4661.807664297206
 31
0.0
  0
LINE
  5
18F5C
330
18E77
100
AcDbEntity
  8
YANE
100
AcDbLine
 10
7081.959480159001
 20
4661.807664297202
 30
0.0
 11
7081.959480159001
 21
4491.046891988563
 31
0.0
  0
LINE
  5
18F5D
330
18E77
100
AcDbEntity
  8
YANE
100
AcDbLine
 10
7065.309480159003
 20
4491.046891988563
 30
0.0
 11
7065.309480159003
 21
4661.807664297202
 31
0.0
  0
LINE
  5
18F5E
330
18E77
100
AcDbEntity
  8
YANE
100
AcDbLine
 10
6975.975699496682
 20
4491.046891988563
 30
0.0
 11
6975.975699496682
 21
4661.807664297202
 31
0.0
  0
LINE
  5
18F5F
330
18E77
100
AcDbEntity
  8
YANE
100
AcDbLine
 10
6948.659480159001
 20
4661.807664297202
 30
0.0
 11
6948.659480159001
 21
4491.046891988563
 31
0.0
  0
LINE
  5
18F60
330
18E77
100
AcDbEntity
  8
YANE
100
AcDbLine
 10
6932.009480159002
 20
4491.046891988563
 30
0.0
 11
6932.009480159002
 21
4661.807664297202
 31
0.0
  0
LINE
  5
18F61
330
18E77
100
AcDbEntity
  8
YANE
100
AcDbLine
 10
6992.625699496683
 20
4661.807664297202
 30
0.0
 11
6992.625699496683
 21
4491.046891988563
 31
0.0
  0
LINE
  5
18F62
330
18E77
100
AcDbEntity
  8
KERABA
100
AcDbLine
 10
4223.617589827852
 20
4444.63979884087
 30
0.0
 11
4217.617589827852
 21
4444.63979884087
 31
0.0
  0
LINE
  5
18F63
330
18E77
100
AcDbEntity
  8
KERABA
100
AcDbLine
 10
4223.617589827852
 20
4792.546798568531
 30
0.0
 11
4217.617589827852
 21
4792.546798568531
 31
0.0
  0
LINE
  5
18F64
330
18E77
100
AcDbEntity
  8
KERABA
100
AcDbLine
 10
7083.617589827841
 20
4444.639798840869
 30
0.0
 11
7089.617589827842
 21
4444.639798840869
 31
0.0
  0
LINE
  5
18F65
330
18E77
100
AcDbEntity
  8
KERABA
100
AcDbLine
 10
7083.617589827841
 20
4792.54679856853
 30
0.0
 11
7089.617589827842
 21
4792.54679856853
 31
0.0
  0
LINE
  5
18F66
330
18E77
100
AcDbEntity
  8
MOYA
100
AcDbLine
 10
4486.117589827848
 20
4778.585475955849
 30
0.0
 11
6821.117589827855
 21
4778.585475955845
 31
0.0
  0
LINE
  5
18F67
330
18E77
100
AcDbEntity
  8
MOYA
100
AcDbLine
 10
4486.117589827848
 20
4745.815801875138
 30
0.0
 11
6821.117589827851
 21
4745.815801875145
 31
0.0
  0
LINE
  5
18F68
330
18E77
100
AcDbEntity
  8
MOYA
100
AcDbLine
 10
4488.417589827849
 20
4736.545777321465
 30
0.0
 11
6818.817589827848
 21
4736.545777321462
 31
0.0
  0
LINE
  5
18F69
330
18E77
100
AcDbEntity
  8
MOYA
100
AcDbLine
 10
4488.417589827849
 20
4703.776106225453
 30
0.0
 11
6818.817589827848
 21
4703.776106225453
 31
0.0
  0
LINE
  5
18F6A
330
18E77
100
AcDbEntity
  8
MOYA
100
AcDbLine
 10
4488.417589827849
 20
4661.807664297206
 30
0.0
 11
6818.817589827857
 21
4661.807664297202
 31
0.0
  0
LINE
  5
18F6B
330
18E77
100
AcDbEntity
  8
MOYA
100
AcDbLine
 10
6886.11758982784
 20
4778.585475955845
 30
0.0
 11
7083.617589827841
 21
4778.585475955849
 31
0.0
  0
LINE
  5
18F6C
330
18E77
100
AcDbEntity
  8
MOYA
100
AcDbLine
 10
6888.417589827842
 20
4661.807664297202
 30
0.0
 11
7083.617589827841
 21
4661.807664297202
 31
0.0
  0
LINE
  5
18F6D
330
18E77
100
AcDbEntity
  8
MOYA
100
AcDbLine
 10
6888.417589827842
 20
4703.776106225453
 30
0.0
 11
7083.617589827841
 21
4703.776106225453
 31
0.0
  0
LINE
  5
18F6E
330
18E77
100
AcDbEntity
  8
MOYA
100
AcDbLine
 10
6888.417589827842
 20
4736.545777321462
 30
0.0
 11
7083.617589827841
 21
4736.545777321462
 31
0.0
  0
LINE
  5
18F6F
330
18E77
100
AcDbEntity
  8
MOYA
100
AcDbLine
 10
6886.11758982784
 20
4745.815801875145
 30
0.0
 11
7083.617589827841
 21
4745.815801875145
 31
0.0
  0
LINE
  5
18F70
330
18E77
100
AcDbEntity
  8
MOYA
100
AcDbLine
 10
4217.617589827851
 20
4736.545777321465
 30
0.0
 11
4418.817589827852
 21
4736.545777321465
 31
0.0
  0
LINE
  5
18F71
330
18E77
100
AcDbEntity
  8
MOYA
100
AcDbLine
 10
4217.617589827851
 20
4778.585475955848
 30
0.0
 11
4421.117589827852
 21
4778.585475955849
 31
0.0
  0
LINE
  5
18F72
330
18E77
100
AcDbEntity
  8
MOYA
100
AcDbLine
 10
4217.617589827851
 20
4661.807664297206
 30
0.0
 11
4418.817589827852
 21
4661.807664297207
 31
0.0
  0
LINE
  5
18F73
330
18E77
100
AcDbEntity
  8
MOYA
100
AcDbLine
 10
4217.617589827851
 20
4703.776106225453
 30
0.0
 11
4418.817589827852
 21
4703.776106225453
 31
0.0
  0
LINE
  5
18F74
330
18E77
100
AcDbEntity
  8
MOYA
100
AcDbLine
 10
4217.617589827851
 20
4745.815801875144
 30
0.0
 11
4421.11758982785
 21
4745.815801875144
 31
0.0
  0
LINE
  5
18F75
330
18E77
100
AcDbEntity
  8
MOYA
100
AcDbLine
 10
4217.617589827851
 20
4790.464181683073
 30
0.0
 11
4217.617589827851
 21
4661.807664297206
 31
0.0
  0
LINE
  5
18F76
330
18E77
100
AcDbEntity
  8
MOYA
100
AcDbLine
 10
4486.117589827848
 20
4787.855497524842
 30
0.0
 11
6821.117589827855
 21
4787.855497524833
 31
0.0
  0
LINE
  5
18F77
330
18E77
100
AcDbEntity
  8
MOYA
100
AcDbLine
 10
6886.11758982784
 20
4787.855497524833
 30
0.0
 11
7083.617589827841
 21
4787.855497524833
 31
0.0
  0
LINE
  5
18F78
330
18E77
100
AcDbEntity
  8
MOYA
100
AcDbLine
 10
7089.617589827842
 20
4790.464181683073
 30
0.0
 11
7089.617589827842
 21
4661.807664297202
 31
0.0
  0
LINE
  5
18F79
330
18E77
100
AcDbEntity
  8
MOYA
100
AcDbLine
 10
4217.617589827851
 20
4787.855497524835
 30
0.0
 11
4421.117589827852
 21
4787.855497524835
 31
0.0
  0
LINE
  5
18F7A
330
18E77
100
AcDbEntity
  8
TOI
100
AcDbLine
 10
4217.617589827851
 20
4430.63979884087
 30
0.0
 11
4217.617589827851
 21
4491.046891988565
 31
0.0
  0
LINE
  5
18F7B
330
18E77
100
AcDbEntity
  8
TOI
100
AcDbLine
 10
4418.817589827852
 20
4491.046891988565
 30
0.0
 11
4217.617589827851
 21
4491.046891988565
 31
0.0
  0
LINE
  5
18F7C
330
18E77
100
AcDbEntity
  8
TOI
100
AcDbLine
 10
4418.817589827852
 20
4463.832095798625
 30
0.0
 11
4217.617589827851
 21
4463.832095798625
 31
0.0
  0
LINE
  5
18F7D
330
18E77
100
AcDbEntity
  8
TOI
100
AcDbLine
 10
4421.11758982785
 20
4430.63979884087
 30
0.0
 11
4217.617589827851
 21
4430.63979884087
 31
0.0
  0
LINE
  5
18F7E
330
18E77
100
AcDbEntity
  8
TOI
100
AcDbLine
 10
6888.417589827842
 20
4463.832095798625
 30
0.0
 11
7083.617589827841
 21
4463.832095798625
 31
0.0
  0
LINE
  5
18F7F
330
18E77
100
AcDbEntity
  8
TOI
100
AcDbLine
 10
4486.117589827848
 20
4463.832095798625
 30
0.0
 11
6818.817589827857
 21
4463.832095798625
 31
0.0
  0
LINE
  5
18F80
330
18E77
100
AcDbEntity
  8
U2
100
AcDbLine
 10
4421.11758982785
 20
4717.748876394193
 30
0.0
 11
4421.11758982785
 21
4675.546798568535
 31
0.0
  0
LINE
  5
18F81
330
18E77
100
AcDbEntity
  8
U2
100
AcDbLine
 10
4418.817589827852
 20
4740.546798568529
 30
0.0
 11
4418.817589827852
 21
4675.546798568537
 31
0.0
  0
LINE
  5
18F82
330
18E77
100
AcDbEntity
  8
U2
100
AcDbLine
 10
4418.817589827852
 20
4675.546798568537
 30
0.0
 11
4421.117589827854
 21
4675.546798568537
 31
0.0
  0
LINE
  5
18F83
330
18E77
100
AcDbEntity
  8
U2
100
AcDbLine
 10
4486.117589827848
 20
4717.748876394193
 30
0.0
 11
4486.117589827848
 21
4675.546798568537
 31
0.0
  0
LINE
  5
18F84
330
18E77
100
AcDbEntity
  8
U2
100
AcDbLine
 10
4488.417589827849
 20
4740.546798568529
 30
0.0
 11
4488.417589827849
 21
4675.546798568537
 31
0.0
  0
LINE
  5
18F85
330
18E77
100
AcDbEntity
  8
U2
100
AcDbLine
 10
4488.417589827849
 20
4675.546798568537
 30
0.0
 11
4486.117589827847
 21
4675.546798568537
 31
0.0
  0
LINE
  5
18F86
330
18E77
100
AcDbEntity
  8
U2
100
AcDbLine
 10
4486.117589827848
 20
4740.546798568529
 30
0.0
 11
4488.417589827849
 21
4740.546798568529
 31
0.0
  0
LINE
  5
18F87
330
18E77
100
AcDbEntity
  8
1PL-S1
100
AcDbLine
 10
4480.117589827844
 20
4711.546798568533
 30
0.0
 11
4494.417589827842
 21
4711.546798568533
 31
0.0
  0
LINE
  5
18F88
330
18E77
100
AcDbEntity
  8
U2
100
AcDbLine
 10
4421.11758982785
 20
4740.546798568529
 30
0.0
 11
4418.817589827852
 21
4740.546798568529
 31
0.0
  0
LINE
  5
18F89
330
18E77
100
AcDbEntity
  8
1PL-S1
100
AcDbLine
 10
4427.117589827857
 20
4711.546798568533
 30
0.0
 11
4412.817589827858
 21
4711.546798568533
 31
0.0
  0
LINE
  5
18F8A
330
18E77
100
AcDbEntity
  8
U2
100
AcDbLine
 10
4422.937067797177
 20
4790.464181683073
 30
0.0
 11
4486.117589827848
 21
4717.748876394193
 31
0.0
  0
LINE
  5
18F8B
330
18E77
100
AcDbEntity
  8
U2
100
AcDbLine
 10
4421.11758982785
 20
4717.748876394193
 30
0.0
 11
4484.298111858525
 21
4790.464181683073
 31
0.0
  0
LINE
  5
18F8C
330
18E77
100
AcDbEntity
  8
TOI
100
AcDbLine
 10
4486.117589827848
 20
4430.639798840869
 30
0.0
 11
6821.117589827851
 21
4430.639798840869
 31
0.0
  0
LINE
  5
18F8D
330
18E77
100
AcDbEntity
  8
TOI
100
AcDbLine
 10
4486.117589827848
 20
4491.046891988565
 30
0.0
 11
6818.817589827857
 21
4491.046891988563
 31
0.0
  0
LINE
  5
18F8E
330
18E77
100
AcDbEntity
  8
TOI
100
AcDbLine
 10
6886.11758982784
 20
4430.639798840869
 30
0.0
 11
7089.617589827842
 21
4430.639798840869
 31
0.0
  0
LINE
  5
18F8F
330
18E77
100
AcDbEntity
  8
TOI
100
AcDbLine
 10
6888.417589827842
 20
4491.046891988563
 30
0.0
 11
7083.617589827841
 21
4491.046891988563
 31
0.0
  0
LINE
  5
18F90
330
18E77
100
AcDbEntity
  8
TOI
100
AcDbLine
 10
7089.617589827842
 20
4430.639798840869
 30
0.0
 11
7089.617589827842
 21
4491.046891988563
 31
0.0
  0
LINE
  5
18F91
330
18E77
100
AcDbEntity
  8
U2
100
AcDbLine
 10
6818.81758982785
 20
4675.546798568535
 30
0.0
 11
6821.117589827855
 21
4675.546798568535
 31
0.0
  0
LINE
  5
18F92
330
18E77
100
AcDbEntity
  8
U2
100
AcDbLine
 10
6818.81758982785
 20
4740.546798568528
 30
0.0
 11
6818.81758982785
 21
4675.546798568535
 31
0.0
  0
LINE
  5
18F93
330
18E77
100
AcDbEntity
  8
1PL-S1
100
AcDbLine
 10
6827.117589827858
 20
4711.546798568533
 30
0.0
 11
6812.817589827858
 21
4711.546798568533
 31
0.0
  0
LINE
  5
18F94
330
18E77
100
AcDbEntity
  8
U2
100
AcDbLine
 10
6821.117589827851
 20
4740.546798568528
 30
0.0
 11
6818.81758982785
 21
4740.546798568528
 31
0.0
  0
LINE
  5
18F95
330
18E77
100
AcDbEntity
  8
1PL-S1
100
AcDbLine
 10
6880.11758982784
 20
4711.546798568533
 30
0.0
 11
6894.417589827833
 21
4711.546798568533
 31
0.0
  0
LINE
  5
18F96
330
18E77
100
AcDbEntity
  8
U2
100
AcDbLine
 10
6888.417589827842
 20
4675.546798568535
 30
0.0
 11
6886.11758982784
 21
4675.546798568535
 31
0.0
  0
LINE
  5
18F97
330
18E77
100
AcDbEntity
  8
U2
100
AcDbLine
 10
6888.417589827842
 20
4740.546798568528
 30
0.0
 11
6888.417589827842
 21
4675.546798568535
 31
0.0
  0
LINE
  5
18F98
330
18E77
100
AcDbEntity
  8
U2
100
AcDbLine
 10
6886.11758982784
 20
4740.546798568528
 30
0.0
 11
6888.417589827842
 21
4740.546798568528
 31
0.0
  0
LINE
  5
18F99
330
18E77
100
AcDbEntity
  8
U2
100
AcDbLine
 10
6821.117589827851
 20
4717.748876394193
 30
0.0
 11
6884.298111858524
 21
4790.464181683073
 31
0.0
  0
LINE
  5
18F9A
330
18E77
100
AcDbEntity
  8
U2
100
AcDbLine
 10
6822.937067797177
 20
4790.464181683073
 30
0.0
 11
6886.11758982784
 21
4717.748876394193
 31
0.0
  0
LINE
  5
18F9B
330
18E77
100
AcDbEntity
  8
U2
100
AcDbLine
 10
6886.11758982784
 20
4717.748876394193
 30
0.0
 11
6886.11758982784
 21
4675.546798568535
 31
0.0
  0
LINE
  5
18F9C
330
18E77
100
AcDbEntity
  8
U2
100
AcDbLine
 10
6821.117589827851
 20
4717.748876394193
 30
0.0
 11
6821.117589827851
 21
4675.546798568535
 31
0.0
  0
LINE
  5
18F9D
330
18E77
100
AcDbEntity
  8
HANAKAKUSHI
100
AcDbLine
 10
4217.617589827851
 20
4892.546798568533
 30
0.0
 11
4217.617589827851
 21
4790.464181683076
 31
0.0
  0
LINE
  5
18F9E
330
18E77
100
AcDbEntity
  8
HANAKAKUSHI
100
AcDbLine
 10
7089.617589827842
 20
4892.54679856853
 30
0.0
 11
7089.617589827842
 21
4790.464181683073
 31
0.0
  0
LINE
  5
18F9F
330
18E77
100
AcDbEntity
  8
1PL-S1
100
AcDbLine
 10
4480.11758982785
 20
4608.829178057431
 30
0.0
 11
4494.417589827848
 21
4608.829178057431
 31
0.0
  0
LINE
  5
18FA0
330
18E77
100
AcDbEntity
  8
U1
100
AcDbLine
 10
4488.417589827849
 20
4667.032788626018
 30
0.0
 11
4486.117589827848
 21
4667.032788626016
 31
0.0
  0
LINE
  5
18FA1
330
18E77
100
AcDbEntity
  8
1PL-S1
100
AcDbLine
 10
4480.117589827847
 20
4617.454564165557
 30
0.0
 11
4494.417589827846
 21
4617.454564165557
 31
0.0
  0
LINE
  5
18FA2
330
18E77
100
AcDbEntity
  8
1PL-S1
100
AcDbLine
 10
4480.117589827847
 20
4625.895488830996
 30
0.0
 11
4494.417589827846
 21
4625.895488830996
 31
0.0
  0
LINE
  5
18FA3
330
18E77
100
AcDbEntity
  8
U1
100
AcDbLine
 10
4418.817589827852
 20
4667.032788626018
 30
0.0
 11
4421.117589827852
 21
4667.032788626016
 31
0.0
  0
LINE
  5
18FA4
330
18E77
100
AcDbEntity
  8
1PL-S1
100
AcDbLine
 10
4427.117589827856
 20
4625.895488830996
 30
0.0
 11
4412.817589827856
 21
4625.895488830996
 31
0.0
  0
LINE
  5
18FA5
330
18E77
100
AcDbEntity
  8
1PL-S1
100
AcDbLine
 10
4427.117589827856
 20
4617.454564165557
 30
0.0
 11
4412.817589827856
 21
4617.454564165557
 31
0.0
  0
LINE
  5
18FA6
330
18E77
100
AcDbEntity
  8
1PL-S1
100
AcDbLine
 10
4427.117589827853
 20
4608.829178057431
 30
0.0
 11
4412.817589827853
 21
4608.829178057431
 31
0.0
  0
LINE
  5
18FA7
330
18E77
100
AcDbEntity
  8
1PL-S1
100
AcDbLine
 10
4480.11758982785
 20
4465.546798568535
 30
0.0
 11
4494.417589827848
 21
4465.546798568535
 31
0.0
  0
LINE
  5
18FA8
330
18E77
100
AcDbEntity
  8
1PL-S1
100
AcDbLine
 10
4480.11758982785
 20
4535.546798568535
 30
0.0
 11
4494.417589827848
 21
4535.546798568535
 31
0.0
  0
LINE
  5
18FA9
330
18E77
100
AcDbEntity
  8
U1
100
AcDbLine
 10
4486.117589827848
 20
4435.546798568536
 30
0.0
 11
4488.417589827849
 21
4435.546798568536
 31
0.0
  0
LINE
  5
18FAA
330
18E77
100
AcDbEntity
  8
U1
100
AcDbLine
 10
4421.117589827852
 20
4435.546798568536
 30
0.0
 11
4418.817589827852
 21
4435.546798568536
 31
0.0
  0
LINE
  5
18FAB
330
18E77
100
AcDbEntity
  8
1PL-S1
100
AcDbLine
 10
4427.117589827853
 20
4535.546798568535
 30
0.0
 11
4412.817589827853
 21
4535.546798568535
 31
0.0
  0
LINE
  5
18FAC
330
18E77
100
AcDbEntity
  8
1PL-S1
100
AcDbLine
 10
4427.117589827853
 20
4465.546798568535
 30
0.0
 11
4412.817589827853
 21
4465.546798568535
 31
0.0
  0
LINE
  5
18FAD
330
18E77
100
AcDbEntity
  8
U1
100
AcDbLine
 10
4488.417589827849
 20
4667.032788626018
 30
0.0
 11
4488.417589827849
 21
4435.546798568536
 31
0.0
  0
LINE
  5
18FAE
330
18E77
100
AcDbEntity
  8
U1
100
AcDbLine
 10
4418.817589827852
 20
4667.032788626018
 30
0.0
 11
4418.817589827852
 21
4435.546798568536
 31
0.0
  0
LINE
  5
18FAF
330
18E77
100
AcDbEntity
  8
1PL-S1
100
AcDbLine
 10
6827.117589827856
 20
4608.829178057431
 30
0.0
 11
6812.817589827853
 21
4608.829178057431
 31
0.0
  0
LINE
  5
18FB0
330
18E77
100
AcDbEntity
  8
U1
100
AcDbLine
 10
6818.817589827857
 20
4667.032788626016
 30
0.0
 11
6821.117589827855
 21
4667.032788626015
 31
0.0
  0
LINE
  5
18FB1
330
18E77
100
AcDbEntity
  8
1PL-S1
100
AcDbLine
 10
6827.117589827856
 20
4617.454564165556
 30
0.0
 11
6812.817589827854
 21
4617.454564165556
 31
0.0
  0
LINE
  5
18FB2
330
18E77
100
AcDbEntity
  8
1PL-S1
100
AcDbLine
 10
6827.117589827856
 20
4625.895488830996
 30
0.0
 11
6812.817589827854
 21
4625.895488830996
 31
0.0
  0
LINE
  5
18FB3
330
18E77
100
AcDbEntity
  8
1PL-S1
100
AcDbLine
 10
6827.117589827856
 20
4465.546798568535
 30
0.0
 11
6812.817589827853
 21
4465.546798568535
 31
0.0
  0
LINE
  5
18FB4
330
18E77
100
AcDbEntity
  8
1PL-S1
100
AcDbLine
 10
6827.117589827856
 20
4535.546798568534
 30
0.0
 11
6812.817589827853
 21
4535.546798568534
 31
0.0
  0
LINE
  5
18FB5
330
18E77
100
AcDbEntity
  8
U1
100
AcDbLine
 10
6818.817589827857
 20
4667.032788626016
 30
0.0
 11
6818.817589827857
 21
4435.546798568533
 31
0.0
  0
LINE
  5
18FB6
330
18E77
100
AcDbEntity
  8
1PL-S1
100
AcDbLine
 10
6880.11758982784
 20
4625.895488830996
 30
0.0
 11
6894.417589827842
 21
4625.895488830996
 31
0.0
  0
LINE
  5
18FB7
330
18E77
100
AcDbEntity
  8
1PL-S1
100
AcDbLine
 10
6880.11758982784
 20
4617.454564165556
 30
0.0
 11
6894.417589827842
 21
4617.454564165556
 31
0.0
  0
LINE
  5
18FB8
330
18E77
100
AcDbEntity
  8
U1
100
AcDbLine
 10
6888.417589827842
 20
4667.032788626016
 30
0.0
 11
6886.11758982784
 21
4667.032788626015
 31
0.0
  0
LINE
  5
18FB9
330
18E77
100
AcDbEntity
  8
U1
100
AcDbLine
 10
6888.417589827842
 20
4667.032788626016
 30
0.0
 11
6888.417589827842
 21
4435.546798568533
 31
0.0
  0
LINE
  5
18FBA
330
18E77
100
AcDbEntity
  8
U1
100
AcDbLine
 10
6886.11758982784
 20
4435.546798568533
 30
0.0
 11
6888.417589827842
 21
4435.546798568533
 31
0.0
  0
LINE
  5
18FBB
330
18E77
100
AcDbEntity
  8
1PL-S1
100
AcDbLine
 10
6880.11758982784
 20
4608.829178057431
 30
0.0
 11
6894.417589827842
 21
4608.829178057431
 31
0.0
  0
LINE
  5
18FBC
330
18E77
100
AcDbEntity
  8
1PL-S1
100
AcDbLine
 10
6880.11758982784
 20
4535.546798568534
 30
0.0
 11
6894.417589827842
 21
4535.546798568534
 31
0.0
  0
LINE
  5
18FBD
330
18E77
100
AcDbEntity
  8
1PL-S1
100
AcDbLine
 10
6880.11758982784
 20
4465.546798568535
 30
0.0
 11
6894.417589827842
 21
4465.546798568535
 31
0.0
  0
LINE
  5
18FBE
330
18E77
100
AcDbEntity
  8
U1
100
AcDbLine
 10
4511.11758982785
 20
3375.746798568533
 30
0.0
 11
5628.61758982785
 21
3375.746798568533
 31
0.0
  0
LINE
  5
18FBF
330
18E77
100
AcDbEntity
  8
U1
100
AcDbLine
 10
4511.11758982785
 20
3367.346798568533
 30
0.0
 11
5628.61758982785
 21
3367.346798568533
 31
0.0
  0
LINE
  5
18FC0
330
18E77
100
AcDbEntity
  8
U1
100
AcDbLine
 10
4511.11758982785
 20
3167.346798568533
 30
0.0
 11
5628.61758982785
 21
3167.346798568533
 31
0.0
  0
LINE
  5
18FC1
330
18E77
100
AcDbEntity
  8
U1
100
AcDbLine
 10
4511.11758982785
 20
3175.746798568533
 30
0.0
 11
5628.61758982785
 21
3175.746798568533
 31
0.0
  0
LINE
  5
18FC2
330
18E77
100
AcDbEntity
  8
MABASHIRA
100
AcDbLine
 10
5628.61758982785
 20
2951.546798568534
 30
0.0
 11
5628.61758982785
 21
3593.546798568534
 31
0.0
  0
LINE
  5
18FC3
330
18E77
100
AcDbEntity
  8
GAKU_FUCHI
100
AcDbLine
 10
4511.117589827852
 20
3593.546798568534
 30
0.0
 11
4511.117589827852
 21
2951.546798568534
 31
0.0
  0
LINE
  5
18FC4
330
18E77
100
AcDbEntity
  8
DOU_BUCHI
100
AcDbLine
 10
4486.117589827848
 20
3663.546798568533
 30
0.0
 11
6821.117589827851
 21
3663.546798568533
 31
0.0
  0
LINE
  5
18FC5
330
18E77
100
AcDbEntity
  8
DOU_BUCHI
100
AcDbLine
 10
4486.117589827848
 20
3593.546798568534
 30
0.0
 11
6821.117589827854
 21
3593.546798568532
 31
0.0
  0
LINE
  5
18FC6
330
18E77
100
AcDbEntity
  8
DOU_BUCHI
100
AcDbLine
 10
4486.117589827848
 20
2881.546798568534
 30
0.0
 11
6821.117589827854
 21
2881.546798568532
 31
0.0
  0
LINE
  5
18FC7
330
18E77
100
AcDbEntity
  8
DOU_BUCHI
100
AcDbLine
 10
4486.117589827848
 20
2951.546798568534
 30
0.0
 11
6821.117589827854
 21
2951.546798568532
 31
0.0
  0
LINE
  5
18FC8
330
18E77
100
AcDbEntity
  8
U1
100
AcDbLine
 10
5678.617589827847
 20
3175.746798568532
 30
0.0
 11
6796.117589827851
 21
3175.746798568532
 31
0.0
  0
LINE
  5
18FC9
330
18E77
100
AcDbEntity
  8
U1
100
AcDbLine
 10
5678.617589827847
 20
3167.346798568532
 30
0.0
 11
6796.117589827851
 21
3167.346798568532
 31
0.0
  0
LINE
  5
18FCA
330
18E77
100
AcDbEntity
  8
U1
100
AcDbLine
 10
5678.617589827847
 20
3367.346798568533
 30
0.0
 11
6796.117589827851
 21
3367.346798568532
 31
0.0
  0
LINE
  5
18FCB
330
18E77
100
AcDbEntity
  8
U1
100
AcDbLine
 10
5678.617589827847
 20
3375.746798568532
 30
0.0
 11
6796.117589827851
 21
3375.746798568532
 31
0.0
  0
LINE
  5
18FCC
330
18E77
100
AcDbEntity
  8
MABASHIRA
100
AcDbLine
 10
5678.617589827847
 20
2951.546798568532
 30
0.0
 11
5678.617589827847
 21
3593.546798568532
 31
0.0
  0
LINE
  5
18FCD
330
18E77
100
AcDbEntity
  8
U1
100
AcDbLine
 10
4421.11758982785
 20
2719.546798568534
 30
0.0
 11
4421.11758982785
 21
4675.546798568535
 31
0.0
  0
LINE
  5
18FCE
330
18E77
100
AcDbEntity
  8
U1
100
AcDbLine
 10
4486.117589827848
 20
2719.546798568534
 30
0.0
 11
4486.117589827848
 21
4675.546798568535
 31
0.0
  0
LINE
  5
18FCF
330
18E77
100
AcDbEntity
  8
U1
100
AcDbLine
 10
4421.11758982785
 20
4675.546798568535
 30
0.0
 11
4486.117589827848
 21
4675.546798568537
 31
0.0
  0
LINE
  5
18FD0
330
18E77
100
AcDbEntity
  8
GAKU_FUCHI
100
AcDbLine
 10
6796.117589827851
 20
3593.546798568532
 30
0.0
 11
6796.117589827851
 21
2951.546798568532
 31
0.0
  0
LINE
  5
18FD1
330
18E77
100
AcDbEntity
  8
U1
100
AcDbLine
 10
6821.117589827851
 20
2719.546798568533
 30
0.0
 11
6821.117589827851
 21
4675.546798568535
 31
0.0
  0
LINE
  5
18FD2
330
18E77
100
AcDbEntity
  8
U1
100
AcDbLine
 10
6886.11758982784
 20
2719.546798568533
 30
0.0
 11
6886.11758982784
 21
4675.546798568535
 31
0.0
  0
LINE
  5
18FD3
330
18E77
100
AcDbEntity
  8
U1
100
AcDbLine
 10
6821.117589827851
 20
4675.546798568535
 30
0.0
 11
6886.11758982784
 21
4675.546798568535
 31
0.0
  0
LINE
  5
18FD4
330
18E77
100
AcDbEntity
  8
1PL-L1
100
AcDbLine
 10
4453.61758982785
 20
2719.546798568534
 30
0.0
 11
4453.61758982785
 21
5314.54635628565
 31
0.0
  0
LINE
  5
18FD5
330
18E77
100
AcDbEntity
  8
1PL-L1
100
AcDbLine
 10
6853.617589827852
 20
2719.546798568533
 30
0.0
 11
6853.617589827852
 21
5314.54635628565
 31
0.0
  0
LINE
  5
18FD6
330
18E77
100
AcDbEntity
  8
KISO
100
AcDbLine
 10
3860.580545355291
 20
2669.546798568534
 30
0.0
 11
7191.243147655375
 21
2669.546798568533
 31
0.0
  0
LINE
  5
18FD7
330
18E77
100
AcDbEntity
  8
KISO
100
AcDbLine
 10
7053.617589827841
 20
2719.546798568533
 30
0.0
 11
7053.617589827841
 21
2669.546798568533
 31
0.0
  0
LINE
  5
18FD8
330
18E77
100
AcDbEntity
  8
KISO
100
AcDbLine
 10
4253.617589827849
 20
2719.546798568534
 30
0.0
 11
4253.617589827849
 21
2669.546798568534
 31
0.0
  0
TEXT
  5
18FD9
330
18E77
100
AcDbEntity
  8
SUNPOU
100
AcDbText
 10
5875.117589827851
 20
7412.920617280119
 30
0.0
 40
90.0
  1
屋根ピッチ
 41
0.7
  7
01
 72
     4
 11
6053.617589827851
 21
7457.92061728012
 31
0.0
100
AcDbText
  0
TEXT
  5
18FDA
330
18E77
100
AcDbEntity
  8
SUNPOU
100
AcDbText
 10
5567.903304113565
 20
7262.920617280122
 30
0.0
 40
90.0
  1
400
 41
0.6666666666666666
  7
00
 72
     1
 11
5653.617589827851
 21
7307.920617280122
 31
0.0
100
AcDbText
 73
     2
  0
LINE
  5
18FDB
330
18E77
100
AcDbEntity
  8
SUNPOU
100
AcDbLine
 10
5838.617589827851
 20
7217.920617280118
 30
0.0
 11
5468.617589827854
 21
7217.920617280118
 31
0.0
  0
LINE
  5
18FDC
330
18E77
100
AcDbEntity
  8
SUNPOU
100
AcDbLine
 10
5453.617589827853
 20
7697.920617280118
 30
0.0
 11
5453.61758982785
 21
7172.920617280123
 31
0.0
  0
LINE
  5
18FDD
330
18E77
100
AcDbEntity
  8
SUNPOU
100
AcDbLine
 10
5853.617589827852
 20
7697.920617280118
 30
0.0
 11
5853.617589827852
 21
7172.920617280123
 31
0.0
  0
TEXT
  5
18FDE
330
18E77
100
AcDbEntity
  8
SUNPOU
100
AcDbText
 10
5967.903304113566
 20
7262.920617280122
 30
0.0
 40
90.0
  1
400
 41
0.6666666666666666
  7
00
 72
     1
 11
6053.617589827851
 21
7307.920617280122
 31
0.0
100
AcDbText
 73
     2
  0
LINE
  5
18FDF
330
18E77
100
AcDbEntity
  8
SUNPOU
100
AcDbLine
 10
6238.617589827851
 20
7217.920617280118
 30
0.0
 11
5868.617589827852
 21
7217.920617280118
 31
0.0
  0
LINE
  5
18FE0
330
18E77
100
AcDbEntity
  8
SUNPOU
100
AcDbLine
 10
6253.61758982785
 20
7697.920617280118
 30
0.0
 11
6253.61758982785
 21
7172.920617280123
 31
0.0
  0
TEXT
  5
18FE1
330
18E77
100
AcDbEntity
  8
SUNPOU
100
AcDbText
 10
6367.903304113565
 20
7262.920617280122
 30
0.0
 40
90.0
  1
400
 41
0.6666666666666666
  7
00
 72
     1
 11
6453.617589827851
 21
7307.920617280122
 31
0.0
100
AcDbText
 73
     2
  0
LINE
  5
18FE2
330
18E77
100
AcDbEntity
  8
SUNPOU
100
AcDbLine
 10
6638.617589827848
 20
7217.920617280118
 30
0.0
 11
6268.617589827852
 21
7217.920617280118
 31
0.0
  0
LINE
  5
18FE3
330
18E77
100
AcDbEntity
  8
SUNPOU
100
AcDbLine
 10
6653.617589827845
 20
7697.920617280118
 30
0.0
 11
6653.617589827845
 21
7172.920617280123
 31
0.0
  0
LINE
  5
18FE4
330
18E77
100
AcDbEntity
  8
DOU_BUCHI
100
AcDbLine
 10
4486.117589827851
 20
9818.320617280122
 30
0.0
 11
5167.590811239482
 21
9818.320617280122
 31
0.0
  0
LINE
  5
18FE5
330
18E77
100
AcDbEntity
  8
DOU_BUCHI
100
AcDbLine
 10
4486.117589827851
 20
9868.320617280119
 30
0.0
 11
5142.848715818078
 21
9868.320617280119
 31
0.0
  0
LINE
  5
18FE6
330
18E77
100
AcDbEntity
  8
HARI
100
AcDbLine
 10
4421.11758982785
 20
9750.920575985237
 30
0.0
 11
4421.11758982785
 21
9879.520646941045
 31
0.0
  0
LINE
  5
18FE7
330
18E77
100
AcDbEntity
  8
HARI
100
AcDbLine
 10
4486.117589827851
 20
9750.920575985237
 30
0.0
 11
4486.117589827851
 21
9879.520646941045
 31
0.0
  0
LINE
  5
18FE8
330
18E77
100
AcDbEntity
  8
HARI
100
AcDbLine
 10
4421.11758982785
 20
9160.920575985242
 30
0.0
 11
4421.11758982785
 21
9714.920593959389
 31
0.0
  0
LINE
  5
18FE9
330
18E77
100
AcDbEntity
  8
HARI
100
AcDbLine
 10
4486.117589827851
 20
9160.920575985242
 30
0.0
 11
4486.117589827851
 21
9714.920593959389
 31
0.0
  0
LINE
  5
18FEA
330
18E77
100
AcDbEntity
  8
HARI
100
AcDbLine
 10
4421.11758982785
 20
8570.920575985239
 30
0.0
 11
4421.11758982785
 21
9124.920593959393
 31
0.0
  0
LINE
  5
18FEB
330
18E77
100
AcDbEntity
  8
HARI
100
AcDbLine
 10
4486.117589827847
 20
8570.920575985239
 30
0.0
 11
4486.117589827851
 21
9124.920593959393
 31
0.0
  0
LINE
  5
18FEC
330
18E77
100
AcDbEntity
  8
MOYA
100
AcDbLine
 10
4218.617589827849
 20
9750.920575985237
 30
0.0
 11
4218.617589827849
 21
9714.920593959389
 31
0.0
  0
LINE
  5
18FED
330
18E77
100
AcDbEntity
  8
MOYA
100
AcDbLine
 10
4218.617589827849
 20
9160.920575985235
 30
0.0
 11
4218.617589827849
 21
9124.920593959393
 31
0.0
  0
LINE
  5
18FEE
330
18E77
100
AcDbEntity
  8
MOYA
100
AcDbLine
 10
4218.617589827849
 20
8570.920575985239
 30
0.0
 11
4218.617589827849
 21
8534.920593959389
 31
0.0
  0
LINE
  5
18FEF
330
18E77
100
AcDbEntity
  8
HARI
100
AcDbLine
 10
4421.11758982785
 20
7980.920575985236
 30
0.0
 11
4421.11758982785
 21
8534.920593959393
 31
0.0
  0
LINE
  5
18FF0
330
18E77
100
AcDbEntity
  8
HARI
100
AcDbLine
 10
4486.117589827847
 20
7980.920575985236
 30
0.0
 11
4486.117589827851
 21
8534.920593959393
 31
0.0
  0
LINE
  5
18FF1
330
18E77
100
AcDbEntity
  8
MOYA_KANAGU
100
AcDbLine
 10
4483.61758982785
 20
9801.520646941042
 30
0.0
 11
4483.61758982785
 21
9750.920575985237
 31
0.0
  0
ARC
  5
18FF2
330
18E77
100
AcDbEntity
  8
MOYA_KANAGU
100
AcDbCircle
 10
4478.61758982785
 20
9801.520646941042
 30
0.0
 40
5.0
100
AcDbArc
 50
0.0
 51
90.0
  0
CIRCLE
  5
18FF3
330
18E77
100
AcDbEntity
  8
MOYA_KANAGU
100
AcDbCircle
 10
4453.61758982785
 20
9791.520646941044
 30
0.0
 40
9.0
  0
LINE
  5
18FF4
330
18E77
100
AcDbEntity
  8
MOYA_KANAGU
100
AcDbLine
 10
4423.617589827851
 20
9750.920575985237
 30
0.0
 11
4423.617589827851
 21
9801.520646941042
 31
0.0
  0
ARC
  5
18FF5
330
18E77
100
AcDbEntity
  8
MOYA_KANAGU
100
AcDbCircle
 10
4428.61758982785
 20
9801.520646941042
 30
0.0
 40
5.0
100
AcDbArc
 50
90.0
 51
180.0
  0
LINE
  5
18FF6
330
18E77
100
AcDbEntity
  8
MOYA_KANAGU
100
AcDbLine
 10
4428.61758982785
 20
9806.520646941043
 30
0.0
 11
4478.61758982785
 21
9806.520646941043
 31
0.0
  0
LINE
  5
18FF7
330
18E77
100
AcDbEntity
  8
MOYA_KANAGU
100
AcDbLine
 10
4483.61758982785
 20
9211.520646941044
 30
0.0
 11
4483.61758982785
 21
9160.920575985235
 31
0.0
  0
ARC
  5
18FF8
330
18E77
100
AcDbEntity
  8
MOYA_KANAGU
100
AcDbCircle
 10
4478.61758982785
 20
9211.520646941044
 30
0.0
 40
5.0
100
AcDbArc
 50
0.0
 51
90.0
  0
CIRCLE
  5
18FF9
330
18E77
100
AcDbEntity
  8
MOYA_KANAGU
100
AcDbCircle
 10
4453.61758982785
 20
9201.520646941045
 30
0.0
 40
9.0
  0
LINE
  5
18FFA
330
18E77
100
AcDbEntity
  8
MOYA_KANAGU
100
AcDbLine
 10
4423.617589827851
 20
9160.920575985235
 30
0.0
 11
4423.617589827851
 21
9211.520646941044
 31
0.0
  0
ARC
  5
18FFB
330
18E77
100
AcDbEntity
  8
MOYA_KANAGU
100
AcDbCircle
 10
4428.61758982785
 20
9211.520646941044
 30
0.0
 40
5.0
100
AcDbArc
 50
90.0
 51
180.0
  0
LINE
  5
18FFC
330
18E77
100
AcDbEntity
  8
MOYA_KANAGU
100
AcDbLine
 10
4428.61758982785
 20
9216.520646941047
 30
0.0
 11
4478.61758982785
 21
9216.520646941047
 31
0.0
  0
LINE
  5
18FFD
330
18E77
100
AcDbEntity
  8
MOYA_KANAGU
100
AcDbLine
 10
4483.61758982785
 20
8621.520646941041
 30
0.0
 11
4483.61758982785
 21
8570.920575985239
 31
0.0
  0
ARC
  5
18FFE
330
18E77
100
AcDbEntity
  8
MOYA_KANAGU
100
AcDbCircle
 10
4478.61758982785
 20
8621.520646941041
 30
0.0
 40
5.0
100
AcDbArc
 50
0.0
 51
90.0
  0
CIRCLE
  5
18FFF
330
18E77
100
AcDbEntity
  8
MOYA_KANAGU
100
AcDbCircle
 10
4453.61758982785
 20
8611.520646941047
 30
0.0
 40
9.0
  0
LINE
  5
19000
330
18E77
100
AcDbEntity
  8
MOYA_KANAGU
100
AcDbLine
 10
4423.617589827851
 20
8570.920575985239
 30
0.0
 11
4423.617589827851
 21
8621.520646941041
 31
0.0
  0
ARC
  5
19001
330
18E77
100
AcDbEntity
  8
MOYA_KANAGU
100
AcDbCircle
 10
4428.61758982785
 20
8621.520646941041
 30
0.0
 40
5.0
100
AcDbArc
 50
90.0
 51
180.0
  0
LINE
  5
19002
330
18E77
100
AcDbEntity
  8
MOYA_KANAGU
100
AcDbLine
 10
4428.61758982785
 20
8626.520646941044
 30
0.0
 11
4478.61758982785
 21
8626.520646941044
 31
0.0
  0
CIRCLE
  5
19003
330
18E77
100
AcDbEntity
  8
MOYA_KANAGU
100
AcDbCircle
 10
4453.61758982785
 20
8021.520646941047
 30
0.0
 40
9.0
  0
ARC
  5
19004
330
18E77
100
AcDbEntity
  8
MOYA_KANAGU
100
AcDbCircle
 10
4478.61758982785
 20
8031.520646941043
 30
0.0
 40
5.0
100
AcDbArc
 50
0.0
 51
90.0
  0
ARC
  5
19005
330
18E77
100
AcDbEntity
  8
MOYA_KANAGU
100
AcDbCircle
 10
4428.61758982785
 20
8031.520646941043
 30
0.0
 40
5.0
100
AcDbArc
 50
90.0
 51
180.0
  0
LINE
  5
19006
330
18E77
100
AcDbEntity
  8
MOYA_KANAGU
100
AcDbLine
 10
4483.61758982785
 20
8031.520646941043
 30
0.0
 11
4483.61758982785
 21
7980.920575985236
 31
0.0
  0
LINE
  5
19007
330
18E77
100
AcDbEntity
  8
MOYA_KANAGU
100
AcDbLine
 10
4423.617589827851
 20
7980.920575985236
 30
0.0
 11
4423.617589827851
 21
8031.520646941043
 31
0.0
  0
LINE
  5
19008
330
18E77
100
AcDbEntity
  8
U1
100
AcDbLine
 10
4421.117589827852
 20
7879.520646941045
 30
0.0
 11
4486.117589827851
 21
7879.520646941045
 31
0.0
  0
ARC
  5
19009
330
18E77
100
AcDbEntity
  8
U1
100
AcDbCircle
 10
4453.61758982785
 20
7890.520646941046
 30
0.0
 40
36.0
100
AcDbArc
 50
205.4743694512155
 51
334.5256305487843
  0
LINE
  5
1900A
330
18E77
100
AcDbEntity
  8
U1
100
AcDbLine
 10
4421.117589827852
 20
7875.036784373843
 30
0.0
 11
4421.117589827852
 21
7879.520646941045
 31
0.0
  0
LINE
  5
1900B
330
18E77
100
AcDbEntity
  8
U1
100
AcDbLine
 10
4486.117589827851
 20
7879.520646941045
 30
0.0
 11
4486.117589827851
 21
7875.03678437384
 31
0.0
  0
LINE
  5
1900C
330
18E77
100
AcDbEntity
  8
HARI
100
AcDbLine
 10
4421.11758982785
 20
7879.520646941045
 30
0.0
 11
4421.11758982785
 21
7944.920593959388
 31
0.0
  0
LINE
  5
1900D
330
18E77
100
AcDbEntity
  8
HARI
100
AcDbLine
 10
4486.117589827847
 20
7879.520646941045
 30
0.0
 11
4486.117589827847
 21
7944.920593959388
 31
0.0
  0
LINE
  5
1900E
330
18E77
100
AcDbEntity
  8
MOYA
100
AcDbLine
 10
4218.617589827849
 20
7980.920575985236
 30
0.0
 11
4218.617589827849
 21
7944.920593959388
 31
0.0
  0
LINE
  5
1900F
330
18E77
100
AcDbEntity
  8
MOYA_KANAGU
100
AcDbLine
 10
4428.61758982785
 20
8036.520646941042
 30
0.0
 11
4478.61758982785
 21
8036.520646941042
 31
0.0
  0
LINE
  5
19010
330
18E77
100
AcDbEntity
  8
MOYA
100
AcDbLine
 10
4217.61758982785
 20
9750.920575985237
 30
0.0
 11
5200.943176301973
 21
9750.920575985237
 31
0.0
  0
LINE
  5
19011
330
18E77
100
AcDbEntity
  8
MOYA
100
AcDbLine
 10
4217.61758982785
 20
9714.920593959389
 30
0.0
 11
5218.757476111021
 21
9714.920593959389
 31
0.0
  0
LINE
  5
19012
330
18E77
100
AcDbEntity
  8
MOYA
100
AcDbLine
 10
4217.61758982785
 20
9160.920575985242
 30
0.0
 11
5492.899902274541
 21
9160.920575985242
 31
0.0
  0
LINE
  5
19013
330
18E77
100
AcDbEntity
  8
MOYA
100
AcDbLine
 10
4217.61758982785
 20
9124.920593959393
 30
0.0
 11
5510.714202083587
 21
9124.920593959393
 31
0.0
  0
LINE
  5
19014
330
18E77
100
AcDbEntity
  8
MOYA
100
AcDbLine
 10
4217.61758982785
 20
8570.920575985239
 30
0.0
 11
5784.85662824711
 21
8570.920575985239
 31
0.0
  0
LINE
  5
19015
330
18E77
100
AcDbEntity
  8
MOYA
100
AcDbLine
 10
4217.61758982785
 20
8534.920593959389
 30
0.0
 11
5802.670928056159
 21
8534.920593959389
 31
0.0
  0
LINE
  5
19016
330
18E77
100
AcDbEntity
  8
MOYA
100
AcDbLine
 10
4218.617589827849
 20
7944.920593959388
 30
0.0
 11
6094.627654028727
 21
7944.920593959388
 31
0.0
  0
LINE
  5
19017
330
18E77
100
AcDbEntity
  8
MOYA
100
AcDbLine
 10
4218.617589827849
 20
7980.920575985236
 30
0.0
 11
6076.813354219679
 21
7980.920575985239
 31
0.0
  0
LINE
  5
19018
330
18E77
100
AcDbEntity
  8
2PL-L2
100
AcDbLine
 10
4217.61758982785
 20
10136.92061728012
 30
0.0
 11
5009.934179214295
 21
10136.92061728012
 31
0.0
  0
LINE
  5
19019
330
18E77
100
AcDbEntity
  8
2PL-L2
100
AcDbLine
 10
4217.61758982785
 20
7727.920617280123
 30
0.0
 11
6201.844636715035
 21
7728.251429807762
 31
0.0
  0
LINE
  5
1901A
330
18E77
100
AcDbEntity
  8
2PL-L2
100
AcDbLine
 10
4217.61758982785
 20
7727.920617280123
 30
0.0
 11
4217.61758982785
 21
10136.92061728012
 31
0.0
  0
LINE
  5
1901B
330
18E77
100
AcDbEntity
  8
1PL-L1
100
AcDbLine
 10
4453.61758982785
 20
7217.83055528985
 30
0.0
 11
4453.61758982785
 21
9967.200257251249
 31
0.0
  0
LINE
  5
1901C
330
18E77
100
AcDbEntity
  8
TOI
100
AcDbLine
 10
7089.617589827851
 20
10115.43040521319
 30
0.0
 11
7089.617589827851
 21
10136.92061728012
 31
0.0
  0
CIRCLE
  5
1901D
330
18E77
100
AcDbEntity
  8
TOI
100
AcDbCircle
 10
5453.61758982785
 20
10118.78541358609
 30
0.0
 40
2.5
  0
CIRCLE
  5
1901E
330
18E77
100
AcDbEntity
  8
TOI
100
AcDbCircle
 10
5053.61758982785
 20
10118.78541358609
 30
0.0
 40
2.5
  0
CIRCLE
  5
1901F
330
18E77
100
AcDbEntity
  8
YANE
100
AcDbCircle
 10
5453.61758982785
 20
9732.920617280122
 30
0.0
 40
2.5
  0
CIRCLE
  5
19020
330
18E77
100
AcDbEntity
  8
TOI
100
AcDbCircle
 10
6653.617589827845
 20
10118.78541358609
 30
0.0
 40
2.5
  0
CIRCLE
  5
19021
330
18E77
100
AcDbEntity
  8
TOI
100
AcDbCircle
 10
6253.61758982785
 20
10118.78541358609
 30
0.0
 40
2.5
  0
CIRCLE
  5
19022
330
18E77
100
AcDbEntity
  8
TOI
100
AcDbCircle
 10
5853.617589827852
 20
10118.78541358609
 30
0.0
 40
2.5
  0
CIRCLE
  5
19023
330
18E77
100
AcDbEntity
  8
YANE
100
AcDbCircle
 10
6653.617589827845
 20
9732.920617280122
 30
0.0
 40
2.5
  0
CIRCLE
  5
19024
330
18E77
100
AcDbEntity
  8
YANE
100
AcDbCircle
 10
6253.61758982785
 20
9732.920617280122
 30
0.0
 40
2.5
  0
CIRCLE
  5
19025
330
18E77
100
AcDbEntity
  8
YANE
100
AcDbCircle
 10
5853.617589827852
 20
9732.920617280122
 30
0.0
 40
2.5
  0
CIRCLE
  5
19026
330
18E77
100
AcDbEntity
  8
YANE
100
AcDbCircle
 10
6653.617589827845
 20
9142.92061728012
 30
0.0
 40
2.5
  0
CIRCLE
  5
19027
330
18E77
100
AcDbEntity
  8
YANE
100
AcDbCircle
 10
6253.61758982785
 20
9142.92061728012
 30
0.0
 40
2.5
  0
CIRCLE
  5
19028
330
18E77
100
AcDbEntity
  8
YANE
100
AcDbCircle
 10
5853.617589827852
 20
9142.92061728012
 30
0.0
 40
2.5
  0
CIRCLE
  5
19029
330
18E77
100
AcDbEntity
  8
YANE
100
AcDbCircle
 10
6653.617589827845
 20
8552.920617280118
 30
0.0
 40
2.5
  0
CIRCLE
  5
1902A
330
18E77
100
AcDbEntity
  8
YANE
100
AcDbCircle
 10
6253.61758982785
 20
8552.920617280118
 30
0.0
 40
2.5
  0
CIRCLE
  5
1902B
330
18E77
100
AcDbEntity
  8
YANE
100
AcDbCircle
 10
5853.617589827852
 20
8552.920617280118
 30
0.0
 40
2.5
  0
CIRCLE
  5
1902C
330
18E77
100
AcDbEntity
  8
YANE
100
AcDbCircle
 10
6653.617589827845
 20
7962.920617280119
 30
0.0
 40
2.5
  0
CIRCLE
  5
1902D
330
18E77
100
AcDbEntity
  8
YANE
100
AcDbCircle
 10
6253.61758982785
 20
7962.920617280119
 30
0.0
 40
2.5
  0
CIRCLE
  5
1902E
330
18E77
100
AcDbEntity
  8
KERABA
100
AcDbCircle
 10
6253.617589827847
 20
7788.920617280123
 30
0.0
 40
2.5
  0
CIRCLE
  5
1902F
330
18E77
100
AcDbEntity
  8
KERABA
100
AcDbCircle
 10
6653.617589827845
 20
7788.920617280123
 30
0.0
 40
2.5
  0
LINE
  5
19030
330
18E77
100
AcDbEntity
  8
YANE
100
AcDbLine
 10
6223.309480159013
 20
7818.920617280119
 30
0.0
 11
6223.309480159013
 21
10099.4304052132
 31
0.0
  0
LINE
  5
19031
330
18E77
100
AcDbEntity
  8
YANE
100
AcDbLine
 10
6239.959480159019
 20
7818.920617280119
 30
0.0
 11
6239.959480159019
 21
10115.4304052132
 31
0.0
  0
LINE
  5
19032
330
18E77
100
AcDbEntity
  8
YANE
100
AcDbLine
 10
6267.275699496686
 20
7818.920617280119
 30
0.0
 11
6267.275699496686
 21
10115.43040521319
 31
0.0
  0
LINE
  5
19033
330
18E77
100
AcDbEntity
  8
YANE
100
AcDbLine
 10
6283.925699496681
 20
7818.920617280119
 30
0.0
 11
6283.925699496684
 21
10099.4304052132
 31
0.0
  0
LINE
  5
19034
330
18E77
100
AcDbEntity
  8
YANE
100
AcDbLine
 10
6090.20948015901
 20
7953.849049279091
 30
0.0
 11
6090.209480159013
 21
10099.4304052132
 31
0.0
  0
LINE
  5
19035
330
18E77
100
AcDbEntity
  8
YANE
100
AcDbLine
 10
6106.85948015902
 20
7920.201939532669
 30
0.0
 11
6106.85948015902
 21
10115.4304052132
 31
0.0
  0
LINE
  5
19036
330
18E77
100
AcDbEntity
  8
YANE
100
AcDbLine
 10
6134.175699496688
 20
7865.000027826278
 30
0.0
 11
6134.175699496684
 21
10115.43040521319
 31
0.0
  0
LINE
  5
19037
330
18E77
100
AcDbEntity
  8
YANE
100
AcDbLine
 10
6150.825699496682
 20
7831.352918079886
 30
0.0
 11
6150.825699496686
 21
10099.4304052132
 31
0.0
  0
LINE
  5
19038
330
18E77
100
AcDbEntity
  8
YANE
100
AcDbLine
 10
5956.909480159017
 20
8223.228011993537
 30
0.0
 11
5956.909480159014
 21
10099.4304052132
 31
0.0
  0
LINE
  5
19039
330
18E77
100
AcDbEntity
  8
YANE
100
AcDbLine
 10
5973.559480159019
 20
8189.580902247131
 30
0.0
 11
5973.559480159019
 21
10115.4304052132
 31
0.0
  0
LINE
  5
1903A
330
18E77
100
AcDbEntity
  8
YANE
100
AcDbLine
 10
6000.875699496692
 20
8134.378990540731
 30
0.0
 11
6000.87569949669
 21
10115.43040521319
 31
0.0
  0
LINE
  5
1903B
330
18E77
100
AcDbEntity
  8
YANE
100
AcDbLine
 10
6017.525699496692
 20
8100.731880794326
 30
0.0
 11
6017.525699496689
 21
10099.4304052132
 31
0.0
  0
LINE
  5
1903C
330
18E77
100
AcDbEntity
  8
YANE
100
AcDbLine
 10
5823.609480159019
 20
8492.606974707998
 30
0.0
 11
5823.609480159016
 21
10099.4304052132
 31
0.0
  0
LINE
  5
1903D
330
18E77
100
AcDbEntity
  8
YANE
100
AcDbLine
 10
5840.259480159018
 20
8458.95986496159
 30
0.0
 11
5840.259480159018
 21
10115.4304052132
 31
0.0
  0
LINE
  5
1903E
330
18E77
100
AcDbEntity
  8
YANE
100
AcDbLine
 10
5867.575699496686
 20
8403.757953255201
 30
0.0
 11
5867.575699496686
 21
10115.43040521319
 31
0.0
  0
LINE
  5
1903F
330
18E77
100
AcDbEntity
  8
YANE
100
AcDbLine
 10
5884.225699496691
 20
8370.110843508784
 30
0.0
 11
5884.225699496691
 21
10099.4304052132
 31
0.0
  0
LINE
  5
19040
330
18E77
100
AcDbEntity
  8
YANE
100
AcDbLine
 10
5690.309480159019
 20
8761.98593742245
 30
0.0
 11
5690.309480159019
 21
10099.4304052132
 31
0.0
  0
LINE
  5
19041
330
18E77
100
AcDbEntity
  8
YANE
100
AcDbLine
 10
5706.959480159018
 20
8728.338827676047
 30
0.0
 11
5706.95948015902
 21
10115.4304052132
 31
0.0
  0
LINE
  5
19042
330
18E77
100
AcDbEntity
  8
YANE
100
AcDbLine
 10
5734.275699496683
 20
8673.136915969662
 30
0.0
 11
5734.275699496684
 21
10115.43040521319
 31
0.0
  0
LINE
  5
19043
330
18E77
100
AcDbEntity
  8
YANE
100
AcDbLine
 10
5750.925699496688
 20
8639.489806223251
 30
0.0
 11
5750.925699496688
 21
10099.4304052132
 31
0.0
  0
LINE
  5
19044
330
18E77
100
AcDbEntity
  8
YANE
100
AcDbLine
 10
5557.009480159012
 20
9031.364900136916
 30
0.0
 11
5557.009480159012
 21
10099.4304052132
 31
0.0
  0
LINE
  5
19045
330
18E77
100
AcDbEntity
  8
YANE
100
AcDbLine
 10
5573.659480159018
 20
8997.717790390501
 30
0.0
 11
5573.659480159018
 21
10115.4304052132
 31
0.0
  0
LINE
  5
19046
330
18E77
100
AcDbEntity
  8
YANE
100
AcDbLine
 10
5600.975699496682
 20
8942.515878684121
 30
0.0
 11
5600.975699496686
 21
10115.43040521319
 31
0.0
  0
LINE
  5
19047
330
18E77
100
AcDbEntity
  8
YANE
100
AcDbLine
 10
5617.625699496687
 20
8908.868768937713
 30
0.0
 11
5617.625699496684
 21
10099.4304052132
 31
0.0
  0
LINE
  5
19048
330
18E77
100
AcDbEntity
  8
YANE
100
AcDbLine
 10
5423.709480159015
 20
9300.743862851373
 30
0.0
 11
5423.709480159015
 21
10099.4304052132
 31
0.0
  0
LINE
  5
19049
330
18E77
100
AcDbEntity
  8
YANE
100
AcDbLine
 10
5440.35948015902
 20
9267.09675310496
 30
0.0
 11
5440.35948015902
 21
10115.4304052132
 31
0.0
  0
LINE
  5
1904A
330
18E77
100
AcDbEntity
  8
YANE
100
AcDbLine
 10
5467.675699496687
 20
9211.894841398573
 30
0.0
 11
5467.675699496687
 21
10115.43040521319
 31
0.0
  0
LINE
  5
1904B
330
18E77
100
AcDbEntity
  8
YANE
100
AcDbLine
 10
5484.325699496689
 20
9178.247731652168
 30
0.0
 11
5484.325699496689
 21
10099.4304052132
 31
0.0
  0
LINE
  5
1904C
330
18E77
100
AcDbEntity
  8
YANE
100
AcDbLine
 10
5290.409480159021
 20
9570.122825565828
 30
0.0
 11
5290.409480159019
 21
10099.4304052132
 31
0.0
  0
LINE
  5
1904D
330
18E77
100
AcDbEntity
  8
YANE
100
AcDbLine
 10
5307.059480159019
 20
9536.475715819426
 30
0.0
 11
5307.059480159019
 21
10115.4304052132
 31
0.0
  0
LINE
  5
1904E
330
18E77
100
AcDbEntity
  8
YANE
100
AcDbLine
 10
5334.375699496687
 20
9481.273804113028
 30
0.0
 11
5334.375699496687
 21
10115.43040521319
 31
0.0
  0
LINE
  5
1904F
330
18E77
100
AcDbEntity
  8
YANE
100
AcDbLine
 10
5351.02569949669
 20
9447.626694366624
 30
0.0
 11
5351.02569949669
 21
10099.4304052132
 31
0.0
  0
LINE
  5
19050
330
18E77
100
AcDbEntity
  8
YANE
100
AcDbLine
 10
5157.109480159018
 20
9839.501788280287
 30
0.0
 11
5157.109480159018
 21
10099.4304052132
 31
0.0
  0
LINE
  5
19051
330
18E77
100
AcDbEntity
  8
YANE
100
AcDbLine
 10
5173.75948015902
 20
9805.854678533876
 30
0.0
 11
5173.75948015902
 21
10115.4304052132
 31
0.0
  0
LINE
  5
19052
330
18E77
100
AcDbEntity
  8
YANE
100
AcDbLine
 10
5201.075699496684
 20
9750.652766827499
 30
0.0
 11
5201.075699496684
 21
10115.43040521319
 31
0.0
  0
LINE
  5
19053
330
18E77
100
AcDbEntity
  8
YANE
100
AcDbLine
 10
5217.725699496689
 20
9717.005657081086
 30
0.0
 11
5217.725699496689
 21
10099.4304052132
 31
0.0
  0
LINE
  5
19054
330
18E77
100
AcDbEntity
  8
YANE
100
AcDbLine
 10
5040.459480159023
 20
10075.23364124832
 30
0.0
 11
5040.459480159022
 21
10115.4304052132
 31
0.0
  0
LINE
  5
19055
330
18E77
100
AcDbEntity
  8
YANE
100
AcDbLine
 10
5067.77569949669
 20
10020.03172954194
 30
0.0
 11
5067.77569949669
 21
10115.43040521319
 31
0.0
  0
LINE
  5
19056
330
18E77
100
AcDbEntity
  8
YANE
100
AcDbLine
 10
5084.42569949669
 20
9986.384619795543
 30
0.0
 11
5084.42569949669
 21
10099.4304052132
 31
0.0
  0
LINE
  5
19057
330
18E77
100
AcDbEntity
  8
YANE
100
AcDbLine
 10
5040.459480159022
 20
10115.4304052132
 30
0.0
 11
5026.978813843624
 21
10102.47601115637
 31
0.0
  0
LINE
  5
19058
330
18E77
100
AcDbEntity
  8
YANE
100
AcDbLine
 10
5067.77569949669
 20
10115.4304052132
 30
0.0
 11
5040.459480159022
 21
10115.4304052132
 31
0.0
  0
LINE
  5
19059
330
18E77
100
AcDbEntity
  8
YANE
100
AcDbLine
 10
5084.42569949669
 20
10099.4304052132
 30
0.0
 11
5067.77569949669
 21
10115.4304052132
 31
0.0
  0
LINE
  5
1905A
330
18E77
100
AcDbEntity
  8
YANE
100
AcDbLine
 10
5157.10948015902
 20
10099.4304052132
 30
0.0
 11
5084.42569949669
 21
10099.4304052132
 31
0.0
  0
LINE
  5
1905B
330
18E77
100
AcDbEntity
  8
YANE
100
AcDbLine
 10
5173.75948015902
 20
10115.4304052132
 30
0.0
 11
5157.10948015902
 21
10099.4304052132
 31
0.0
  0
LINE
  5
1905C
330
18E77
100
AcDbEntity
  8
YANE
100
AcDbLine
 10
5201.075699496684
 20
10115.4304052132
 30
0.0
 11
5173.75948015902
 21
10115.4304052132
 31
0.0
  0
LINE
  5
1905D
330
18E77
100
AcDbEntity
  8
YANE
100
AcDbLine
 10
5217.725699496689
 20
10099.4304052132
 30
0.0
 11
5201.075699496684
 21
10115.4304052132
 31
0.0
  0
LINE
  5
1905E
330
18E77
100
AcDbEntity
  8
YANE
100
AcDbLine
 10
5290.409480159019
 20
10099.4304052132
 30
0.0
 11
5217.725699496689
 21
10099.4304052132
 31
0.0
  0
LINE
  5
1905F
330
18E77
100
AcDbEntity
  8
YANE
100
AcDbLine
 10
5307.059480159019
 20
10115.4304052132
 30
0.0
 11
5290.409480159019
 21
10099.4304052132
 31
0.0
  0
LINE
  5
19060
330
18E77
100
AcDbEntity
  8
YANE
100
AcDbLine
 10
5334.375699496689
 20
10115.4304052132
 30
0.0
 11
5307.059480159019
 21
10115.4304052132
 31
0.0
  0
LINE
  5
19061
330
18E77
100
AcDbEntity
  8
YANE
100
AcDbLine
 10
5351.025699496692
 20
10099.4304052132
 30
0.0
 11
5334.375699496689
 21
10115.4304052132
 31
0.0
  0
LINE
  5
19062
330
18E77
100
AcDbEntity
  8
YANE
100
AcDbLine
 10
5423.709480159015
 20
10099.4304052132
 30
0.0
 11
5351.025699496692
 21
10099.4304052132
 31
0.0
  0
LINE
  5
19063
330
18E77
100
AcDbEntity
  8
YANE
100
AcDbLine
 10
5440.359480159018
 20
10115.4304052132
 30
0.0
 11
5423.709480159015
 21
10099.4304052132
 31
0.0
  0
LINE
  5
19064
330
18E77
100
AcDbEntity
  8
YANE
100
AcDbLine
 10
5467.675699496687
 20
10115.4304052132
 30
0.0
 11
5440.359480159018
 21
10115.4304052132
 31
0.0
  0
LINE
  5
19065
330
18E77
100
AcDbEntity
  8
YANE
100
AcDbLine
 10
5484.325699496691
 20
10099.4304052132
 30
0.0
 11
5467.675699496687
 21
10115.4304052132
 31
0.0
  0
LINE
  5
19066
330
18E77
100
AcDbEntity
  8
YANE
100
AcDbLine
 10
5557.009480159019
 20
10099.4304052132
 30
0.0
 11
5484.325699496691
 21
10099.4304052132
 31
0.0
  0
LINE
  5
19067
330
18E77
100
AcDbEntity
  8
YANE
100
AcDbLine
 10
5573.659480159016
 20
10115.4304052132
 30
0.0
 11
5557.009480159019
 21
10099.4304052132
 31
0.0
  0
LINE
  5
19068
330
18E77
100
AcDbEntity
  8
YANE
100
AcDbLine
 10
5600.975699496686
 20
10115.4304052132
 30
0.0
 11
5573.659480159016
 21
10115.4304052132
 31
0.0
  0
LINE
  5
19069
330
18E77
100
AcDbEntity
  8
YANE
100
AcDbLine
 10
5617.62569949669
 20
10099.4304052132
 30
0.0
 11
5600.975699496686
 21
10115.4304052132
 31
0.0
  0
LINE
  5
1906A
330
18E77
100
AcDbEntity
  8
YANE
100
AcDbLine
 10
5690.309480159012
 20
10099.4304052132
 30
0.0
 11
5617.62569949669
 21
10099.4304052132
 31
0.0
  0
LINE
  5
1906B
330
18E77
100
AcDbEntity
  8
YANE
100
AcDbLine
 10
5706.95948015902
 20
10115.4304052132
 30
0.0
 11
5690.309480159012
 21
10099.4304052132
 31
0.0
  0
LINE
  5
1906C
330
18E77
100
AcDbEntity
  8
YANE
100
AcDbLine
 10
5734.275699496684
 20
10115.4304052132
 30
0.0
 11
5706.95948015902
 21
10115.4304052132
 31
0.0
  0
LINE
  5
1906D
330
18E77
100
AcDbEntity
  8
YANE
100
AcDbLine
 10
5750.925699496688
 20
10099.4304052132
 30
0.0
 11
5734.275699496684
 21
10115.4304052132
 31
0.0
  0
LINE
  5
1906E
330
18E77
100
AcDbEntity
  8
YANE
100
AcDbLine
 10
5823.609480159019
 20
10099.4304052132
 30
0.0
 11
5750.925699496688
 21
10099.4304052132
 31
0.0
  0
LINE
  5
1906F
330
18E77
100
AcDbEntity
  8
YANE
100
AcDbLine
 10
5840.259480159018
 20
10115.4304052132
 30
0.0
 11
5823.609480159019
 21
10099.4304052132
 31
0.0
  0
LINE
  5
19070
330
18E77
100
AcDbEntity
  8
YANE
100
AcDbLine
 10
5867.575699496686
 20
10115.4304052132
 30
0.0
 11
5840.259480159018
 21
10115.4304052132
 31
0.0
  0
LINE
  5
19071
330
18E77
100
AcDbEntity
  8
YANE
100
AcDbLine
 10
5884.225699496691
 20
10099.4304052132
 30
0.0
 11
5867.575699496686
 21
10115.4304052132
 31
0.0
  0
LINE
  5
19072
330
18E77
100
AcDbEntity
  8
YANE
100
AcDbLine
 10
5956.909480159017
 20
10099.4304052132
 30
0.0
 11
5884.225699496691
 21
10099.4304052132
 31
0.0
  0
LINE
  5
19073
330
18E77
100
AcDbEntity
  8
YANE
100
AcDbLine
 10
5973.559480159019
 20
10115.4304052132
 30
0.0
 11
5956.909480159017
 21
10099.4304052132
 31
0.0
  0
LINE
  5
19074
330
18E77
100
AcDbEntity
  8
YANE
100
AcDbLine
 10
6000.87569949669
 20
10115.4304052132
 30
0.0
 11
5973.559480159019
 21
10115.4304052132
 31
0.0
  0
LINE
  5
19075
330
18E77
100
AcDbEntity
  8
YANE
100
AcDbLine
 10
6017.525699496689
 20
10099.4304052132
 30
0.0
 11
6000.87569949669
 21
10115.4304052132
 31
0.0
  0
LINE
  5
19076
330
18E77
100
AcDbEntity
  8
YANE
100
AcDbLine
 10
6090.209480159018
 20
10099.4304052132
 30
0.0
 11
6017.525699496689
 21
10099.4304052132
 31
0.0
  0
LINE
  5
19077
330
18E77
100
AcDbEntity
  8
YANE
100
AcDbLine
 10
6106.859480159019
 20
10115.4304052132
 30
0.0
 11
6090.209480159018
 21
10099.4304052132
 31
0.0
  0
LINE
  5
19078
330
18E77
100
AcDbEntity
  8
YANE
100
AcDbLine
 10
6134.175699496688
 20
10115.4304052132
 30
0.0
 11
6106.859480159019
 21
10115.4304052132
 31
0.0
  0
LINE
  5
19079
330
18E77
100
AcDbEntity
  8
YANE
100
AcDbLine
 10
6150.82569949669
 20
10099.4304052132
 30
0.0
 11
6134.175699496688
 21
10115.4304052132
 31
0.0
  0
LINE
  5
1907A
330
18E77
100
AcDbEntity
  8
YANE
100
AcDbLine
 10
6223.509480159016
 20
10099.4304052132
 30
0.0
 11
6150.82569949669
 21
10099.4304052132
 31
0.0
  0
LINE
  5
1907B
330
18E77
100
AcDbEntity
  8
YANE
100
AcDbLine
 10
6240.159480159017
 20
10115.4304052132
 30
0.0
 11
6223.509480159016
 21
10099.4304052132
 31
0.0
  0
LINE
  5
1907C
330
18E77
100
AcDbEntity
  8
YANE
100
AcDbLine
 10
6267.475699496685
 20
10115.4304052132
 30
0.0
 11
6240.159480159017
 21
10115.4304052132
 31
0.0
  0
LINE
  5
1907D
330
18E77
100
AcDbEntity
  8
YANE
100
AcDbLine
 10
6284.12569949669
 20
10099.4304052132
 30
0.0
 11
6267.475699496685
 21
10115.4304052132
 31
0.0
  0
LINE
  5
1907E
330
18E77
100
AcDbEntity
  8
YANE
100
AcDbLine
 10
6356.809480159014
 20
10099.4304052132
 30
0.0
 11
6284.12569949669
 21
10099.4304052132
 31
0.0
  0
LINE
  5
1907F
330
18E77
100
AcDbEntity
  8
YANE
100
AcDbLine
 10
6373.45948015902
 20
10115.4304052132
 30
0.0
 11
6356.809480159014
 21
10099.4304052132
 31
0.0
  0
LINE
  5
19080
330
18E77
100
AcDbEntity
  8
YANE
100
AcDbLine
 10
6400.775699496687
 20
10115.4304052132
 30
0.0
 11
6373.45948015902
 21
10115.4304052132
 31
0.0
  0
LINE
  5
19081
330
18E77
100
AcDbEntity
  8
YANE
100
AcDbLine
 10
6417.425699496688
 20
10099.4304052132
 30
0.0
 11
6400.775699496687
 21
10115.4304052132
 31
0.0
  0
LINE
  5
19082
330
18E77
100
AcDbEntity
  8
YANE
100
AcDbLine
 10
6490.109480159017
 20
10099.4304052132
 30
0.0
 11
6417.425699496688
 21
10099.4304052132
 31
0.0
  0
LINE
  5
19083
330
18E77
100
AcDbEntity
  8
YANE
100
AcDbLine
 10
6506.759480159018
 20
10115.4304052132
 30
0.0
 11
6490.109480159017
 21
10099.4304052132
 31
0.0
  0
LINE
  5
19084
330
18E77
100
AcDbEntity
  8
YANE
100
AcDbLine
 10
6534.075699496686
 20
10115.4304052132
 30
0.0
 11
6506.759480159018
 21
10115.4304052132
 31
0.0
  0
LINE
  5
19085
330
18E77
100
AcDbEntity
  8
YANE
100
AcDbLine
 10
6550.725699496688
 20
10099.4304052132
 30
0.0
 11
6534.075699496686
 21
10115.4304052132
 31
0.0
  0
LINE
  5
19086
330
18E77
100
AcDbEntity
  8
YANE
100
AcDbLine
 10
6623.409480159018
 20
10099.4304052132
 30
0.0
 11
6550.725699496688
 21
10099.4304052132
 31
0.0
  0
LINE
  5
19087
330
18E77
100
AcDbEntity
  8
YANE
100
AcDbLine
 10
6640.059480159019
 20
10115.4304052132
 30
0.0
 11
6623.409480159018
 21
10099.4304052132
 31
0.0
  0
LINE
  5
19088
330
18E77
100
AcDbEntity
  8
YANE
100
AcDbLine
 10
6667.375699496687
 20
10115.4304052132
 30
0.0
 11
6640.059480159019
 21
10115.4304052132
 31
0.0
  0
LINE
  5
19089
330
18E77
100
AcDbEntity
  8
YANE
100
AcDbLine
 10
6684.025699496692
 20
10099.4304052132
 30
0.0
 11
6667.375699496687
 21
10115.4304052132
 31
0.0
  0
LINE
  5
1908A
330
18E77
100
AcDbEntity
  8
YANE
100
AcDbLine
 10
6756.709480159019
 20
10099.4304052132
 30
0.0
 11
6684.025699496692
 21
10099.4304052132
 31
0.0
  0
LINE
  5
1908B
330
18E77
100
AcDbEntity
  8
YANE
100
AcDbLine
 10
6773.359480159015
 20
10115.4304052132
 30
0.0
 11
6756.709480159019
 21
10099.4304052132
 31
0.0
  0
LINE
  5
1908C
330
18E77
100
AcDbEntity
  8
YANE
100
AcDbLine
 10
6800.675699496688
 20
10115.4304052132
 30
0.0
 11
6773.359480159015
 21
10115.4304052132
 31
0.0
  0
LINE
  5
1908D
330
18E77
100
AcDbEntity
  8
YANE
100
AcDbLine
 10
6817.325699496689
 20
10099.4304052132
 30
0.0
 11
6800.675699496688
 21
10115.4304052132
 31
0.0
  0
LINE
  5
1908E
330
18E77
100
AcDbEntity
  8
YANE
100
AcDbLine
 10
6890.009480159015
 20
10099.4304052132
 30
0.0
 11
6817.325699496689
 21
10099.4304052132
 31
0.0
  0
LINE
  5
1908F
330
18E77
100
AcDbEntity
  8
YANE
100
AcDbLine
 10
6906.659480159017
 20
10115.4304052132
 30
0.0
 11
6890.009480159015
 21
10099.4304052132
 31
0.0
  0
LINE
  5
19090
330
18E77
100
AcDbEntity
  8
YANE
100
AcDbLine
 10
6933.975699496689
 20
10115.4304052132
 30
0.0
 11
6906.659480159017
 21
10115.4304052132
 31
0.0
  0
LINE
  5
19091
330
18E77
100
AcDbEntity
  8
YANE
100
AcDbLine
 10
6950.625699496687
 20
10099.4304052132
 30
0.0
 11
6933.975699496689
 21
10115.4304052132
 31
0.0
  0
LINE
  5
19092
330
18E77
100
AcDbEntity
  8
YANE
100
AcDbLine
 10
7023.309480159011
 20
10099.4304052132
 30
0.0
 11
6950.625699496687
 21
10099.4304052132
 31
0.0
  0
LINE
  5
19093
330
18E77
100
AcDbEntity
  8
YANE
100
AcDbLine
 10
7039.959480159018
 20
10115.4304052132
 30
0.0
 11
7023.309480159011
 21
10099.4304052132
 31
0.0
  0
LINE
  5
19094
330
18E77
100
AcDbEntity
  8
YANE
100
AcDbLine
 10
6356.809480159014
 20
7818.920617280119
 30
0.0
 11
6356.809480159014
 21
10099.4304052132
 31
0.0
  0
LINE
  5
19095
330
18E77
100
AcDbEntity
  8
YANE
100
AcDbLine
 10
6373.459480159016
 20
10115.4304052132
 30
0.0
 11
6373.459480159016
 21
7818.920617280119
 31
0.0
  0
LINE
  5
19096
330
18E77
100
AcDbEntity
  8
YANE
100
AcDbLine
 10
6400.775699496687
 20
7818.920617280119
 30
0.0
 11
6400.775699496687
 21
10115.4304052132
 31
0.0
  0
LINE
  5
19097
330
18E77
100
AcDbEntity
  8
YANE
100
AcDbLine
 10
6417.425699496688
 20
10099.4304052132
 30
0.0
 11
6417.425699496688
 21
7818.920617280119
 31
0.0
  0
LINE
  5
19098
330
18E77
100
AcDbEntity
  8
YANE
100
AcDbLine
 10
6490.109480159016
 20
7818.920617280119
 30
0.0
 11
6490.109480159017
 21
10099.4304052132
 31
0.0
  0
LINE
  5
19099
330
18E77
100
AcDbEntity
  8
YANE
100
AcDbLine
 10
6506.759480159018
 20
10115.4304052132
 30
0.0
 11
6506.759480159018
 21
7818.920617280119
 31
0.0
  0
LINE
  5
1909A
330
18E77
100
AcDbEntity
  8
YANE
100
AcDbLine
 10
6534.075699496684
 20
7818.920617280119
 30
0.0
 11
6534.075699496686
 21
10115.4304052132
 31
0.0
  0
LINE
  5
1909B
330
18E77
100
AcDbEntity
  8
YANE
100
AcDbLine
 10
6550.725699496688
 20
10099.4304052132
 30
0.0
 11
6550.725699496688
 21
7818.920617280119
 31
0.0
  0
LINE
  5
1909C
330
18E77
100
AcDbEntity
  8
YANE
100
AcDbLine
 10
6623.409480159016
 20
7818.920617280119
 30
0.0
 11
6623.409480159018
 21
10099.4304052132
 31
0.0
  0
LINE
  5
1909D
330
18E77
100
AcDbEntity
  8
YANE
100
AcDbLine
 10
6640.059480159019
 20
10115.4304052132
 30
0.0
 11
6640.059480159019
 21
7818.920617280119
 31
0.0
  0
LINE
  5
1909E
330
18E77
100
AcDbEntity
  8
YANE
100
AcDbLine
 10
6667.375699496682
 20
7818.920617280119
 30
0.0
 11
6667.375699496685
 21
10115.4304052132
 31
0.0
  0
LINE
  5
1909F
330
18E77
100
AcDbEntity
  8
YANE
100
AcDbLine
 10
6684.025699496685
 20
10099.4304052132
 30
0.0
 11
6684.025699496685
 21
7818.920617280119
 31
0.0
  0
LINE
  5
190A0
330
18E77
100
AcDbEntity
  8
YANE
100
AcDbLine
 10
6756.709480159019
 20
7818.920617280119
 30
0.0
 11
6756.709480159019
 21
10099.4304052132
 31
0.0
  0
LINE
  5
190A1
330
18E77
100
AcDbEntity
  8
YANE
100
AcDbLine
 10
6773.359480159015
 20
10115.4304052132
 30
0.0
 11
6773.359480159015
 21
7818.920617280119
 31
0.0
  0
LINE
  5
190A2
330
18E77
100
AcDbEntity
  8
YANE
100
AcDbLine
 10
6800.675699496685
 20
7818.920617280119
 30
0.0
 11
6800.675699496688
 21
10115.4304052132
 31
0.0
  0
LINE
  5
190A3
330
18E77
100
AcDbEntity
  8
YANE
100
AcDbLine
 10
6950.625699496687
 20
10099.4304052132
 30
0.0
 11
6950.625699496687
 21
7818.920617280119
 31
0.0
  0
LINE
  5
190A4
330
18E77
100
AcDbEntity
  8
YANE
100
AcDbLine
 10
6933.975699496689
 20
7818.920617280119
 30
0.0
 11
6933.975699496689
 21
10115.4304052132
 31
0.0
  0
LINE
  5
190A5
330
18E77
100
AcDbEntity
  8
YANE
100
AcDbLine
 10
6906.659480159017
 20
10115.4304052132
 30
0.0
 11
6906.659480159017
 21
7818.920617280119
 31
0.0
  0
LINE
  5
190A6
330
18E77
100
AcDbEntity
  8
YANE
100
AcDbLine
 10
6890.009480159015
 20
7818.920617280119
 30
0.0
 11
6890.009480159015
 21
10099.4304052132
 31
0.0
  0
LINE
  5
190A7
330
18E77
100
AcDbEntity
  8
YANE
100
AcDbLine
 10
6817.325699496689
 20
10099.4304052132
 30
0.0
 11
6817.325699496689
 21
7818.920617280119
 31
0.0
  0
LINE
  5
190A8
330
18E77
100
AcDbEntity
  8
YANE
100
AcDbLine
 10
7023.309480159011
 20
7818.920617280119
 30
0.0
 11
7023.309480159011
 21
10099.4304052132
 31
0.0
  0
CIRCLE
  5
190A9
330
18E77
100
AcDbEntity
  8
KERABA
100
AcDbCircle
 10
7053.617589827851
 20
10118.78541358609
 30
0.0
 40
2.5
  0
CIRCLE
  5
190AA
330
18E77
100
AcDbEntity
  8
KERABA
100
AcDbCircle
 10
7053.617589827851
 20
9732.920617280122
 30
0.0
 40
2.5
  0
CIRCLE
  5
190AB
330
18E77
100
AcDbEntity
  8
KERABA
100
AcDbCircle
 10
7053.617589827851
 20
9142.92061728012
 30
0.0
 40
2.5
  0
CIRCLE
  5
190AC
330
18E77
100
AcDbEntity
  8
KERABA
100
AcDbCircle
 10
7053.617589827851
 20
8552.920617280118
 30
0.0
 40
2.5
  0
CIRCLE
  5
190AD
330
18E77
100
AcDbEntity
  8
KERABA
100
AcDbCircle
 10
7053.617589827851
 20
7962.920617280119
 30
0.0
 40
2.5
  0
CIRCLE
  5
190AE
330
18E77
100
AcDbEntity
  8
KERABA
100
AcDbCircle
 10
7053.617589827851
 20
7788.920617280123
 30
0.0
 40
2.5
  0
LINE
  5
190AF
330
18E77
100
AcDbEntity
  8
HANAKAKUSHI
100
AcDbLine
 10
7089.617589827851
 20
7728.920617280119
 30
0.0
 11
7089.617589827851
 21
7772.920617280118
 31
0.0
  0
LINE
  5
190B0
330
18E77
100
AcDbEntity
  8
KERABA
100
AcDbLine
 10
7039.617589827852
 20
7772.920617280118
 30
0.0
 11
7089.617589827851
 21
7772.920617280118
 31
0.0
  0
LINE
  5
190B1
330
18E77
100
AcDbEntity
  8
KERABA
100
AcDbLine
 10
7039.617589827852
 20
7772.920617280118
 30
0.0
 11
7039.617589827852
 21
10115.4304052132
 31
0.0
  0
LINE
  5
190B2
330
18E77
100
AcDbEntity
  8
HANAKAKUSHI
100
AcDbLine
 10
6156.977722950592
 20
7818.920617280119
 30
0.0
 11
7039.617589827852
 21
7818.920617280119
 31
0.0
  0
LINE
  5
190B3
330
18E77
100
AcDbEntity
  8
KERABA
100
AcDbLine
 10
7089.617589827851
 20
7772.920617280118
 30
0.0
 11
7089.617589827851
 21
10115.4304052132
 31
0.0
  0
LINE
  5
190B4
330
18E77
100
AcDbEntity
  8
TOI
100
AcDbLine
 10
5020.568436766009
 20
10115.4304052132
 30
0.0
 11
7089.617589827851
 21
10115.4304052132
 31
0.0
  0
LINE
  5
190B5
330
18E77
100
AcDbEntity
  8
TOI
100
AcDbLine
 10
5009.934179214296
 20
10136.92061728012
 30
0.0
 11
7089.617589827851
 21
10136.92061728012
 31
0.0
  0
LINE
  5
190B6
330
18E77
100
AcDbEntity
  8
HANAKAKUSHI
100
AcDbLine
 10
6201.513494709118
 20
7728.920617280119
 30
0.0
 11
7089.617589827851
 21
7728.920617280119
 31
0.0
  0
LINE
  5
190B7
330
18E77
100
AcDbEntity
  8
SUNPOU
100
AcDbLine
 10
5464.86758982785
 20
7217.920617280118
 30
0.0
 11
5476.117589827854
 21
7217.920617280118
 31
0.0
  0
LINE
  5
190B8
330
18E77
100
AcDbEntity
  8
SUNPOU
100
AcDbLine
 10
5864.867589827852
 20
7217.920617280118
 30
0.0
 11
5876.117589827852
 21
7217.920617280118
 31
0.0
  0
LINE
  5
190B9
330
18E77
100
AcDbEntity
  8
SUNPOU
100
AcDbLine
 10
5842.367589827851
 20
7217.920617280118
 30
0.0
 11
5831.117589827852
 21
7217.920617280118
 31
0.0
  0
LINE
  5
190BA
330
18E77
100
AcDbEntity
  8
SUNPOU
100
AcDbLine
 10
6264.867589827852
 20
7217.920617280118
 30
0.0
 11
6276.117589827851
 21
7217.920617280118
 31
0.0
  0
LINE
  5
190BB
330
18E77
100
AcDbEntity
  8
SUNPOU
100
AcDbLine
 10
6242.367589827852
 20
7217.920617280118
 30
0.0
 11
6231.117589827852
 21
7217.920617280118
 31
0.0
  0
LINE
  5
190BC
330
18E77
100
AcDbEntity
  8
SUNPOU
100
AcDbLine
 10
6642.367589827848
 20
7217.920617280118
 30
0.0
 11
6631.117589827848
 21
7217.920617280118
 31
0.0
  0
TEXT
  5
190BD
330
18E77
100
AcDbEntity
  8
HIKIDASHI
100
AcDbText
 10
10684.1160767752
 20
2201.225016856949
 30
0.0
 40
120.0
  1
側 面 立 面 図
  7
01
 72
     2
 11
11652.1160767752
 21
2201.225016856949
 31
0.0
100
AcDbText
  0
TEXT
  5
190BE
330
18E77
100
AcDbEntity
  8
HIKIDASHI
100
AcDbText
 10
11922.82399271288
 20
2240.602936436113
 30
0.0
 40
80.0
  1
1
 41
0.6700000000000001
  7
00
100
AcDbText
  0
TEXT
  5
190BF
330
18E77
100
AcDbEntity
  8
HIKIDASHI
100
AcDbText
 10
11955.96113057719
 20
2225.041458687917
 30
0.0
 40
80.0
  1
/
 41
0.6700000000000001
  7
00
100
AcDbText
  0
TEXT
  5
190C0
330
18E77
100
AcDbEntity
  8
HIKIDASHI
100
AcDbText
 10
12123.68274140226
 20
2225.041458687917
 30
0.0
 40
80.0
  1
)
 41
0.6700000000000001
  7
00
100
AcDbText
  0
TEXT
  5
190C1
330
18E77
100
AcDbEntity
  8
HIKIDASHI
100
AcDbText
 10
11742.1160767752
 20
2225.041458687917
 30
0.0
 40
80.0
  1
(S=
 41
0.6700000000000001
  7
00
100
AcDbText
  0
TEXT
  5
190C2
330
18E77
100
AcDbEntity
  8
HIKIDASHI
100
AcDbText
 10
12002.25628533982
 20
2198.87362748764
 30
0.0
 40
80.0
  1
40
 41
0.6700000000000001
  7
00
100
AcDbText
  0
TEXT
  5
190C3
330
18E77
100
AcDbEntity
  8
HIKIDASHI
100
AcDbText
 10
5048.2737673718
 20
6505.411354821261
 30
0.0
 40
120.0
  1
小 屋 伏 図
  7
01
 72
     2
 11
5800.2737673718
 21
6505.411354821261
 31
0.0
100
AcDbText
  0
TEXT
  5
190C4
330
18E77
100
AcDbEntity
  8
HIKIDASHI
100
AcDbText
 10
5890.273767371802
 20
6529.227796652229
 30
0.0
 40
80.0
  1
(S=
 41
0.6700000000000001
  7
00
100
AcDbText
  0
TEXT
  5
190C5
330
18E77
100
AcDbEntity
  8
HIKIDASHI
100
AcDbText
 10
6150.413975936424
 20
6503.059965451952
 30
0.0
 40
80.0
  1
40
 41
0.6700000000000001
  7
00
100
AcDbText
  0
TEXT
  5
190C6
330
18E77
100
AcDbEntity
  8
HIKIDASHI
100
AcDbText
 10
6271.840431998856
 20
6529.227796652229
 30
0.0
 40
80.0
  1
)
 41
0.6700000000000001
  7
00
100
AcDbText
  0
TEXT
  5
190C7
330
18E77
100
AcDbEntity
  8
HIKIDASHI
100
AcDbText
 10
6104.118821173785
 20
6529.227796652229
 30
0.0
 40
80.0
  1
/
 41
0.6700000000000001
  7
00
100
AcDbText
  0
TEXT
  5
190C8
330
18E77
100
AcDbEntity
  8
HIKIDASHI
100
AcDbText
 10
6070.981683309474
 20
6544.789274400426
 30
0.0
 40
80.0
  1
1
 41
0.6700000000000001
  7
00
100
AcDbText
  0
TEXT
  5
190C9
330
18E77
100
AcDbEntity
  8
HIKIDASHI
100
AcDbText
 10
4905.174172753104
 20
2241.357796427654
 30
0.0
 40
120.0
  1
正 面 立 面 図
  7
01
 72
     2
 11
5873.174172753104
 21
2241.357796427654
 31
0.0
100
AcDbText
  0
TEXT
  5
190CA
330
18E77
100
AcDbEntity
  8
HIKIDASHI
100
AcDbText
 10
6223.314381317725
 20
2239.006407058347
 30
0.0
 40
80.0
  1
40
 41
0.6700000000000001
  7
00
100
AcDbText
  0
TEXT
  5
190CB
330
18E77
100
AcDbEntity
  8
HIKIDASHI
100
AcDbText
 10
6177.019226555086
 20
2265.174238258623
 30
0.0
 40
80.0
  1
/
 41
0.6700000000000001
  7
00
100
AcDbText
  0
TEXT
  5
190CC
330
18E77
100
AcDbEntity
  8
HIKIDASHI
100
AcDbText
 10
5963.174172753104
 20
2265.174238258623
 30
0.0
 40
80.0
  1
(S=
 41
0.6700000000000001
  7
00
100
AcDbText
  0
TEXT
  5
190CD
330
18E77
100
AcDbEntity
  8
HIKIDASHI
100
AcDbText
 10
6143.882088690777
 20
2280.735716006818
 30
0.0
 40
80.0
  1
1
 41
0.6700000000000001
  7
00
100
AcDbText
  0
TEXT
  5
190CE
330
18E77
100
AcDbEntity
  8
HIKIDASHI
100
AcDbText
 10
6344.740837380157
 20
2265.174238258623
 30
0.0
 40
80.0
  1
)
 41
0.6700000000000001
  7
00
100
AcDbText
  0
LINE
  5
190CF
330
18E77
100
AcDbEntity
  8
YANE
100
AcDbLine
 10
6209.391799667311
 20
7712.999764935138
 30
0.0
 11
4945.879102426393
 21
10266.36615472737
 31
0.0
  0
LINE
  5
190D0
330
18E77
100
AcDbEntity
  8
YANE
100
AcDbLine
 10
4577.775699496681
 20
4491.046891988563
 30
0.0
 11
4577.775699496681
 21
4661.807664297202
 31
0.0
  0
LINE
  5
190D1
330
18E77
100
AcDbEntity
  8
YANE
100
AcDbLine
 10
4550.459480159013
 20
4661.807664297202
 30
0.0
 11
4550.459480159013
 21
4491.046891988563
 31
0.0
  0
LINE
  5
190D2
330
18E77
100
AcDbEntity
  8
YANE
100
AcDbLine
 10
4533.809480159013
 20
4491.046891988563
 30
0.0
 11
4533.809480159013
 21
4661.807664297202
 31
0.0
  0
LINE
  5
190D3
330
18E77
100
AcDbEntity
  8
YANE
100
AcDbLine
 10
4594.425699496682
 20
4661.807664297202
 30
0.0
 11
4594.425699496682
 21
4491.046891988563
 31
0.0
  0
LINE
  5
190D4
330
18E77
100
AcDbEntity
  8
YANE
100
AcDbLine
 10
4711.075699496682
 20
4491.046891988563
 30
0.0
 11
4711.075699496682
 21
4661.807664297202
 31
0.0
  0
LINE
  5
190D5
330
18E77
100
AcDbEntity
  8
YANE
100
AcDbLine
 10
4683.759480159014
 20
4661.807664297202
 30
0.0
 11
4683.759480159014
 21
4491.046891988563
 31
0.0
  0
LINE
  5
190D6
330
18E77
100
AcDbEntity
  8
YANE
100
AcDbLine
 10
4667.109480159013
 20
4491.046891988563
 30
0.0
 11
4667.109480159013
 21
4661.807664297202
 31
0.0
  0
LINE
  5
190D7
330
18E77
100
AcDbEntity
  8
YANE
100
AcDbLine
 10
4727.725699496682
 20
4661.807664297202
 30
0.0
 11
4727.725699496682
 21
4491.046891988563
 31
0.0
  0
LINE
  5
190D8
330
18E77
100
AcDbEntity
  8
YANE
100
AcDbLine
 10
4844.37569949668
 20
4491.046891988563
 30
0.0
 11
4844.37569949668
 21
4661.807664297202
 31
0.0
  0
LINE
  5
190D9
330
18E77
100
AcDbEntity
  8
YANE
100
AcDbLine
 10
4817.059480159014
 20
4661.807664297202
 30
0.0
 11
4817.059480159014
 21
4491.046891988563
 31
0.0
  0
LINE
  5
190DA
330
18E77
100
AcDbEntity
  8
YANE
100
AcDbLine
 10
4800.409480159013
 20
4491.046891988563
 30
0.0
 11
4800.409480159013
 21
4661.807664297202
 31
0.0
  0
LINE
  5
190DB
330
18E77
100
AcDbEntity
  8
YANE
100
AcDbLine
 10
4861.025699496682
 20
4661.807664297202
 30
0.0
 11
4861.025699496682
 21
4491.046891988563
 31
0.0
  0
LINE
  5
190DC
330
18E77
100
AcDbEntity
  8
YANE
100
AcDbLine
 10
4977.675699496682
 20
4491.046891988563
 30
0.0
 11
4977.675699496682
 21
4661.807664297202
 31
0.0
  0
LINE
  5
190DD
330
18E77
100
AcDbEntity
  8
YANE
100
AcDbLine
 10
4950.359480159013
 20
4661.807664297202
 30
0.0
 11
4950.359480159013
 21
4491.046891988563
 31
0.0
  0
LINE
  5
190DE
330
18E77
100
AcDbEntity
  8
YANE
100
AcDbLine
 10
4933.709480159012
 20
4491.046891988563
 30
0.0
 11
4933.709480159012
 21
4661.807664297202
 31
0.0
  0
LINE
  5
190DF
330
18E77
100
AcDbEntity
  8
YANE
100
AcDbLine
 10
4994.325699496682
 20
4661.807664297202
 30
0.0
 11
4994.325699496682
 21
4491.046891988563
 31
0.0
  0
LINE
  5
190E0
330
18E77
100
AcDbEntity
  8
YANE
100
AcDbLine
 10
5110.97569949668
 20
4491.046891988563
 30
0.0
 11
5110.97569949668
 21
4661.807664297202
 31
0.0
  0
LINE
  5
190E1
330
18E77
100
AcDbEntity
  8
YANE
100
AcDbLine
 10
5083.659480159014
 20
4661.807664297202
 30
0.0
 11
5083.659480159014
 21
4491.046891988563
 31
0.0
  0
LINE
  5
190E2
330
18E77
100
AcDbEntity
  8
YANE
100
AcDbLine
 10
5067.009480159013
 20
4491.046891988563
 30
0.0
 11
5067.009480159013
 21
4661.807664297202
 31
0.0
  0
LINE
  5
190E3
330
18E77
100
AcDbEntity
  8
YANE
100
AcDbLine
 10
5127.625699496682
 20
4661.807664297202
 30
0.0
 11
5127.625699496682
 21
4491.046891988563
 31
0.0
  0
LINE
  5
190E4
330
18E77
100
AcDbEntity
  8
YANE
100
AcDbLine
 10
5244.275699496681
 20
4491.046891988563
 30
0.0
 11
5244.275699496681
 21
4661.807664297202
 31
0.0
  0
LINE
  5
190E5
330
18E77
100
AcDbEntity
  8
YANE
100
AcDbLine
 10
5216.959480159015
 20
4661.807664297202
 30
0.0
 11
5216.959480159015
 21
4491.046891988563
 31
0.0
  0
LINE
  5
190E6
330
18E77
100
AcDbEntity
  8
YANE
100
AcDbLine
 10
5200.309480159011
 20
4491.046891988563
 30
0.0
 11
5200.309480159011
 21
4661.807664297202
 31
0.0
  0
LINE
  5
190E7
330
18E77
100
AcDbEntity
  8
YANE
100
AcDbLine
 10
5260.925699496682
 20
4661.807664297202
 30
0.0
 11
5260.925699496682
 21
4491.046891988563
 31
0.0
  0
LINE
  5
190E8
330
18E77
100
AcDbEntity
  8
YANE
100
AcDbLine
 10
5377.575699496683
 20
4491.046891988563
 30
0.0
 11
5377.575699496683
 21
4661.807664297202
 31
0.0
  0
LINE
  5
190E9
330
18E77
100
AcDbEntity
  8
YANE
100
AcDbLine
 10
5350.259480159015
 20
4661.807664297202
 30
0.0
 11
5350.259480159015
 21
4491.046891988563
 31
0.0
  0
LINE
  5
190EA
330
18E77
100
AcDbEntity
  8
YANE
100
AcDbLine
 10
5333.609480159013
 20
4491.046891988563
 30
0.0
 11
5333.609480159013
 21
4661.807664297202
 31
0.0
  0
LINE
  5
190EB
330
18E77
100
AcDbEntity
  8
YANE
100
AcDbLine
 10
5394.225699496682
 20
4661.807664297202
 30
0.0
 11
5394.225699496682
 21
4491.046891988563
 31
0.0
  0
LINE
  5
190EC
330
18E77
100
AcDbEntity
  8
YANE
100
AcDbLine
 10
5527.525699496681
 20
4661.807664297202
 30
0.0
 11
5527.525699496681
 21
4491.046891988563
 31
0.0
  0
LINE
  5
190ED
330
18E77
100
AcDbEntity
  8
YANE
100
AcDbLine
 10
5466.909480159013
 20
4491.046891988563
 30
0.0
 11
5466.909480159013
 21
4661.807664297202
 31
0.0
  0
LINE
  5
190EE
330
18E77
100
AcDbEntity
  8
YANE
100
AcDbLine
 10
5483.559480159014
 20
4661.807664297202
 30
0.0
 11
5483.559480159014
 21
4491.046891988563
 31
0.0
  0
LINE
  5
190EF
330
18E77
100
AcDbEntity
  8
YANE
100
AcDbLine
 10
5510.875699496679
 20
4491.046891988563
 30
0.0
 11
5510.875699496679
 21
4661.807664297202
 31
0.0
  0
LINE
  5
190F0
330
18E77
100
AcDbEntity
  8
YANE
100
AcDbLine
 10
5660.825699496682
 20
4661.807664297202
 30
0.0
 11
5660.825699496682
 21
4491.046891988563
 31
0.0
  0
LINE
  5
190F1
330
18E77
100
AcDbEntity
  8
YANE
100
AcDbLine
 10
5600.209480159014
 20
4491.046891988563
 30
0.0
 11
5600.209480159014
 21
4661.807664297202
 31
0.0
  0
LINE
  5
190F2
330
18E77
100
AcDbEntity
  8
YANE
100
AcDbLine
 10
5616.859480159015
 20
4661.807664297202
 30
0.0
 11
5616.859480159015
 21
4491.046891988563
 31
0.0
  0
LINE
  5
190F3
330
18E77
100
AcDbEntity
  8
YANE
100
AcDbLine
 10
5644.175699496681
 20
4491.046891988563
 30
0.0
 11
5644.175699496681
 21
4661.807664297202
 31
0.0
  0
LINE
  5
190F4
330
18E77
100
AcDbEntity
  8
YANE
100
AcDbLine
 10
5794.125699496682
 20
4661.807664297202
 30
0.0
 11
5794.125699496682
 21
4491.046891988563
 31
0.0
  0
LINE
  5
190F5
330
18E77
100
AcDbEntity
  8
YANE
100
AcDbLine
 10
5733.509480159012
 20
4491.046891988563
 30
0.0
 11
5733.509480159012
 21
4661.807664297202
 31
0.0
  0
LINE
  5
190F6
330
18E77
100
AcDbEntity
  8
YANE
100
AcDbLine
 10
5750.159480159013
 20
4661.807664297202
 30
0.0
 11
5750.159480159013
 21
4491.046891988563
 31
0.0
  0
LINE
  5
190F7
330
18E77
100
AcDbEntity
  8
YANE
100
AcDbLine
 10
5777.47569949668
 20
4491.046891988563
 30
0.0
 11
5777.47569949668
 21
4661.807664297202
 31
0.0
  0
LINE
  5
190F8
330
18E77
100
AcDbEntity
  8
YANE
100
AcDbLine
 10
5927.425699496682
 20
4661.807664297202
 30
0.0
 11
5927.425699496682
 21
4491.046891988563
 31
0.0
  0
LINE
  5
190F9
330
18E77
100
AcDbEntity
  8
YANE
100
AcDbLine
 10
5866.809480159012
 20
4491.046891988563
 30
0.0
 11
5866.809480159012
 21
4661.807664297202
 31
0.0
  0
LINE
  5
190FA
330
18E77
100
AcDbEntity
  8
YANE
100
AcDbLine
 10
5883.459480159014
 20
4661.807664297202
 30
0.0
 11
5883.459480159014
 21
4491.046891988563
 31
0.0
  0
LINE
  5
190FB
330
18E77
100
AcDbEntity
  8
YANE
100
AcDbLine
 10
5910.775699496682
 20
4491.046891988563
 30
0.0
 11
5910.775699496682
 21
4661.807664297202
 31
0.0
  0
LINE
  5
190FC
330
18E77
100
AcDbEntity
  8
YANE
100
AcDbLine
 10
6060.725699496682
 20
4661.807664297202
 30
0.0
 11
6060.725699496682
 21
4491.046891988563
 31
0.0
  0
LINE
  5
190FD
330
18E77
100
AcDbEntity
  8
YANE
100
AcDbLine
 10
6000.109480159014
 20
4491.046891988563
 30
0.0
 11
6000.109480159014
 21
4661.807664297202
 31
0.0
  0
LINE
  5
190FE
330
18E77
100
AcDbEntity
  8
YANE
100
AcDbLine
 10
6016.759480159015
 20
4661.807664297202
 30
0.0
 11
6016.759480159015
 21
4491.046891988563
 31
0.0
  0
LINE
  5
190FF
330
18E77
100
AcDbEntity
  8
YANE
100
AcDbLine
 10
6044.075699496683
 20
4491.046891988563
 30
0.0
 11
6044.075699496683
 21
4661.807664297202
 31
0.0
  0
LINE
  5
19100
330
18E77
100
AcDbEntity
  8
YANE
100
AcDbLine
 10
6194.025699496683
 20
4661.807664297202
 30
0.0
 11
6194.025699496683
 21
4491.046891988563
 31
0.0
  0
LINE
  5
19101
330
18E77
100
AcDbEntity
  8
YANE
100
AcDbLine
 10
6133.409480159013
 20
4491.046891988563
 30
0.0
 11
6133.409480159013
 21
4661.807664297202
 31
0.0
  0
LINE
  5
19102
330
18E77
100
AcDbEntity
  8
YANE
100
AcDbLine
 10
6150.059480159013
 20
4661.807664297202
 30
0.0
 11
6150.059480159013
 21
4491.046891988563
 31
0.0
  0
LINE
  5
19103
330
18E77
100
AcDbEntity
  8
YANE
100
AcDbLine
 10
6177.375699496681
 20
4491.046891988563
 30
0.0
 11
6177.375699496681
 21
4661.807664297202
 31
0.0
  0
LINE
  5
19104
330
18E77
100
AcDbEntity
  8
YANE
100
AcDbLine
 10
6327.325699496682
 20
4661.807664297202
 30
0.0
 11
6327.325699496682
 21
4491.046891988563
 31
0.0
  0
LINE
  5
19105
330
18E77
100
AcDbEntity
  8
YANE
100
AcDbLine
 10
6266.709480159013
 20
4491.046891988563
 30
0.0
 11
6266.709480159013
 21
4661.807664297202
 31
0.0
  0
LINE
  5
19106
330
18E77
100
AcDbEntity
  8
YANE
100
AcDbLine
 10
6283.359480159015
 20
4661.807664297202
 30
0.0
 11
6283.359480159015
 21
4491.046891988563
 31
0.0
  0
LINE
  5
19107
330
18E77
100
AcDbEntity
  8
YANE
100
AcDbLine
 10
6310.67569949668
 20
4491.046891988563
 30
0.0
 11
6310.67569949668
 21
4661.807664297202
 31
0.0
  0
LINE
  5
19108
330
18E77
100
AcDbEntity
  8
YANE
100
AcDbLine
 10
6460.625699496684
 20
4661.807664297202
 30
0.0
 11
6460.625699496684
 21
4491.046891988563
 31
0.0
  0
LINE
  5
19109
330
18E77
100
AcDbEntity
  8
YANE
100
AcDbLine
 10
6400.009480159012
 20
4491.046891988563
 30
0.0
 11
6400.009480159012
 21
4661.807664297202
 31
0.0
  0
LINE
  5
1910A
330
18E77
100
AcDbEntity
  8
YANE
100
AcDbLine
 10
6416.659480159012
 20
4661.807664297202
 30
0.0
 11
6416.659480159012
 21
4491.046891988563
 31
0.0
  0
LINE
  5
1910B
330
18E77
100
AcDbEntity
  8
YANE
100
AcDbLine
 10
6443.975699496681
 20
4491.046891988563
 30
0.0
 11
6443.975699496681
 21
4661.807664297202
 31
0.0
  0
LINE
  5
1910C
330
18E77
100
AcDbEntity
  8
YANE
100
AcDbLine
 10
6593.925699496683
 20
4661.807664297202
 30
0.0
 11
6593.925699496683
 21
4491.046891988563
 31
0.0
  0
LINE
  5
1910D
330
18E77
100
AcDbEntity
  8
YANE
100
AcDbLine
 10
6533.309480159012
 20
4491.046891988563
 30
0.0
 11
6533.309480159012
 21
4661.807664297202
 31
0.0
  0
LINE
  5
1910E
330
18E77
100
AcDbEntity
  8
YANE
100
AcDbLine
 10
6549.959480159016
 20
4661.807664297202
 30
0.0
 11
6549.959480159016
 21
4491.046891988563
 31
0.0
  0
LINE
  5
1910F
330
18E77
100
AcDbEntity
  8
YANE
100
AcDbLine
 10
6577.275699496681
 20
4491.046891988563
 30
0.0
 11
6577.275699496681
 21
4661.807664297202
 31
0.0
  0
LINE
  5
19110
330
18E77
100
AcDbEntity
  8
YANE
100
AcDbLine
 10
6727.225699496682
 20
4661.807664297202
 30
0.0
 11
6727.225699496682
 21
4491.046891988563
 31
0.0
  0
LINE
  5
19111
330
18E77
100
AcDbEntity
  8
YANE
100
AcDbLine
 10
6666.609480159014
 20
4491.046891988563
 30
0.0
 11
6666.609480159014
 21
4661.807664297202
 31
0.0
  0
LINE
  5
19112
330
18E77
100
AcDbEntity
  8
YANE
100
AcDbLine
 10
6683.259480159015
 20
4661.807664297202
 30
0.0
 11
6683.259480159015
 21
4491.046891988563
 31
0.0
  0
LINE
  5
19113
330
18E77
100
AcDbEntity
  8
YANE
100
AcDbLine
 10
6710.575699496683
 20
4491.046891988563
 30
0.0
 11
6710.575699496683
 21
4661.807664297202
 31
0.0
  0
LINE
  5
19114
330
18E77
100
AcDbEntity
  8
YANE
100
AcDbLine
 10
6799.909480159013
 20
4491.046891988563
 30
0.0
 11
6799.909480159013
 21
4661.807664297202
 31
0.0
  0
LINE
  5
19115
330
18E77
100
AcDbEntity
  8
YANE
100
AcDbLine
 10
6816.559480159013
 20
4661.807664297202
 30
0.0
 11
6816.559480159013
 21
4491.046891988563
 31
0.0
  0
LINE
  5
19116
330
18E77
100
AcDbEntity
  8
HIKIDASHI
100
AcDbLine
 10
4498.617589827864
 20
9123.578360600458
 30
0.0
 11
4628.513392662862
 21
8898.592230400382
 31
0.0
  0
TEXT
  5
19117
330
18E77
100
AcDbEntity
  8
HIKIDASHI
100
AcDbText
 10
4658.513392662864
 20
8943.592230400376
 30
0.0
 40
90.0
  1
母屋金具
  7
02
100
AcDbText
  0
LINE
  5
19118
330
18E77
100
AcDbEntity
  8
HIKIDASHI
100
AcDbLine
 10
4628.513392662862
 20
8898.592230400382
 30
0.0
 11
5081.85872494478
 21
8898.592230400382
 31
0.0
  0
LINE
  5
19119
330
18E77
100
AcDbEntity
  8
HIKIDASHI
100
AcDbLine
 10
4762.513452407102
 20
8686.105932498515
 30
0.0
 11
5224.337560525396
 21
8686.105932498515
 31
0.0
  0
TEXT
  5
1911A
330
18E77
100
AcDbEntity
  8
HIKIDASHI
100
AcDbText
 10
4792.513452407104
 20
8731.105932498515
 30
0.0
 40
90.0
  1
屋根受け
  7
02
100
AcDbText
  0
TEXT
  5
1911B
330
18E77
100
AcDbEntity
  8
HIKIDASHI
100
AcDbText
 10
4744.688460497583
 20
9397.319911932852
 30
0.0
 40
90.0
  1
母屋
  7
01
100
AcDbText
  0
CIRCLE
  5
1911C
330
18E77
100
AcDbEntity
  8
HIKIDASHI
100
AcDbCircle
 10
5047.32305906481
 20
9442.319911932854
 30
0.0
 40
60.0
  0
TEXT
  5
1911D
330
18E77
100
AcDbEntity
  8
HIKIDASHI
100
AcDbText
 10
5014.823059064809
 20
9404.819911932854
 30
0.0
 40
75.0
  1
ア
  7
01
 72
     1
 11
5047.32305906481
 21
9442.319911932854
 31
0.0
100
AcDbText
 73
     2
  0
TEXT
  5
1911E
330
18E77
100
AcDbEntity
  8
HIKIDASHI
100
AcDbText
 10
4059.417618742705
 20
10330.857893998
 30
0.0
 40
90.0
  1
胴縁
  7
01
100
AcDbText
  0
CIRCLE
  5
1911F
330
18E77
100
AcDbEntity
  8
HIKIDASHI
100
AcDbCircle
 10
4362.052217309934
 20
10375.85789399799
 30
0.0
 40
60.0
  0
TEXT
  5
19120
330
18E77
100
AcDbEntity
  8
HIKIDASHI
100
AcDbText
 10
4329.552217309934
 20
10338.357893998
 30
0.0
 40
75.0
  1
ア
  7
01
 72
     1
 11
4362.052217309934
 21
10375.85789399799
 31
0.0
100
AcDbText
 73
     2
  0
LINE
  5
19121
330
18E77
100
AcDbEntity
  8
HIKIDASHI
100
AcDbLine
 10
3581.939236851841
 20
8686.105932498513
 30
0.0
 11
4042.267714789629
 21
8686.105932498515
 31
0.0
  0
TEXT
  5
19122
330
18E77
100
AcDbEntity
  8
HIKIDASHI
100
AcDbText
 10
3893.096850611309
 20
8731.105932498513
 30
0.0
 40
90.0
  1
1.6
 41
0.6700000000000001
  7
00
100
AcDbText
  0
TEXT
  5
19123
330
18E77
100
AcDbEntity
  8
HIKIDASHI
100
AcDbText
 10
3611.93923685184
 20
8731.105932498513
 30
0.0
 40
90.0
  1
梁
  7
01
100
AcDbText
  0
CIRCLE
  5
19124
330
18E77
100
AcDbEntity
  8
HIKIDASHI
100
AcDbCircle
 10
3801.248237922526
 20
8776.105932498513
 30
0.0
 40
60.0
  0
TEXT
  5
19125
330
18E77
100
AcDbEntity
  8
HIKIDASHI
100
AcDbText
 10
3768.748237922526
 20
8738.605932498513
 30
0.0
 40
75.0
  1
ア
  7
01
 72
     1
 11
3801.248237922526
 21
8776.105932498513
 31
0.0
100
AcDbText
 73
     2
  0
LINE
  5
19126
330
18E77
100
AcDbEntity
  8
HIKIDASHI
100
AcDbLine
 10
4029.417618742705
 20
10285.857893998
 30
0.0
 11
4603.071694177038
 21
10285.857893998
 31
0.0
  0
TEXT
  5
19127
330
18E77
100
AcDbEntity
  8
HIKIDASHI
100
AcDbText
 10
4453.900829998718
 20
10330.857893998
 30
0.0
 40
90.0
  1
1.6
 41
0.6700000000000001
  7
00
100
AcDbText
  0
LINE
  5
19128
330
18E77
100
AcDbEntity
  8
HIKIDASHI
100
AcDbLine
 10
4714.688460497582
 20
9352.31991193285
 30
0.0
 11
5288.342535931915
 21
9352.319911932855
 31
0.0
  0
TEXT
  5
19129
330
18E77
100
AcDbEntity
  8
HIKIDASHI
100
AcDbText
 10
5139.171671753594
 20
9397.319911932852
 30
0.0
 40
90.0
  1
1.6
 41
0.6700000000000001
  7
00
100
AcDbText
  0
LINE
  5
1912A
330
18E77
100
AcDbEntity
  8
HIKIDASHI
100
AcDbLine
 10
4661.013392662864
 20
8109.992200739453
 30
0.0
 11
5121.341870600653
 21
8109.992200739453
 31
0.0
  0
TEXT
  5
1912B
330
18E77
100
AcDbEntity
  8
HIKIDASHI
100
AcDbText
 10
4972.171006422332
 20
8154.992200739455
 30
0.0
 40
90.0
  1
2.3
 41
0.6700000000000001
  7
00
100
AcDbText
  0
TEXT
  5
1912C
330
18E77
100
AcDbEntity
  8
HIKIDASHI
100
AcDbText
 10
4691.013392662862
 20
8154.992200739455
 30
0.0
 40
90.0
  1
柱
  7
01
100
AcDbText
  0
CIRCLE
  5
1912D
330
18E77
100
AcDbEntity
  8
HIKIDASHI
100
AcDbCircle
 10
4880.322393733549
 20
8199.992200739453
 30
0.0
 40
60.0
  0
TEXT
  5
1912E
330
18E77
100
AcDbEntity
  8
HIKIDASHI
100
AcDbText
 10
4847.822393733548
 20
8162.492200739453
 30
0.0
 40
75.0
  1
ア
  7
01
 72
     1
 11
4880.322393733549
 21
8199.992200739453
 31
0.0
100
AcDbText
 73
     2
  0
TEXT
  5
1912F
330
18E77
100
AcDbEntity
  8
NAME
100
AcDbText
 10
12303.32857318295
 20
1055.0
 30
0.0
 40
120.0
  1
Y O K R
 41
0.6666666666666666
  7
00
100
AcDbText
  0
TEXT
  5
19130
330
18E77
100
AcDbEntity
  8
NAME
100
AcDbText
 10
11227.73587134625
 20
1055.0
 30
0.0
 40
120.0
  1
ヨド自転車置場　　　  型
  7
01
100
AcDbText
  0
TEXT
  5
19131
330
18E77
100
AcDbEntity
  8
NAME
100
AcDbText
 10
11228.07508082364
 20
875.0
 30
0.0
 40
120.0
  1
（アンカープレート方式）
  7
01
 72
     4
 11
12072.07508082364
 21
935.0
 31
0.0
100
AcDbText
  0
TEXT
  5
19132
330
18E77
100
AcDbEntity
  8
NAME
100
AcDbText
 10
11816.04264730429
 20
541.0
 30
0.0
 40
160.0
  1
型（一般地用）
 41
0.8
  7
01
100
AcDbText
  0
TEXT
  5
19133
330
18E77
100
AcDbEntity
  8
NAME
100
AcDbText
 10
10896.04264730428
 20
541.0
 30
0.0
 40
160.0
  1
YOKR-240
 41
0.7
  7
01
 72
     2
 11
11776.04264730429
 21
541.0
 31
0.0
100
AcDbText
  0
TEXT
  5
19134
330
18E77
100
AcDbEntity
  8
NAME
100
AcDbText
 10
12854.79999999999
 20
541.0000000000001
 30
0.0
 40
160.0
  1
<1／3>
 41
0.6
  7
01
 72
     2
 11
13354.0
 21
541.0000000000001
 31
0.0
100
AcDbText
  0
LINE
  5
19135
330
18E77
100
AcDbEntity
  8
SUNPOU
100
AcDbLine
 10
10202.60250538512
 20
2809.546798568534
 30
0.0
 11
10098.679456931
 21
2809.546798568534
 31
0.0
  0
LINE
  5
19136
330
18E77
100
AcDbEntity
  8
SUNPOU
100
AcDbLine
 10
10150.64098115807
 20
2719.546798568534
 30
0.0
 11
10202.60250538512
 21
2809.546798568534
 31
0.0
  0
LINE
  5
19137
330
18E77
100
AcDbEntity
  8
SUNPOU
100
AcDbLine
 10
10098.679456931
 20
2809.546798568534
 30
0.0
 11
10150.64098115807
 21
2719.546798568534
 31
0.0
  0
TEXT
  5
19138
330
18E77
100
AcDbEntity
  8
SUNPOU
100
AcDbText
 10
10069.2124097295
 20
2854.546798568534
 30
0.0
 40
90.0
  1
FL
  7
01
 72
     4
 11
10150.64098115807
 21
2899.546798568534
 31
0.0
100
AcDbText
  0
LINE
  5
19139
330
18E77
100
AcDbEntity
  8
1PL-L1
100
AcDbLine
 10
12115.43915527502
 20
2595.043625656026
 30
0.0
 11
12115.43915527502
 21
5337.546798568531
 31
0.0
  0
LINE
  5
1913A
330
18E77
100
AcDbEntity
  8
1PL-L1
100
AcDbLine
 10
10680.43915527504
 20
2595.043625656026
 30
0.0
 11
10680.43915527504
 21
5337.546798568531
 31
0.0
  0
LINE
  5
1913B
330
18E77
100
AcDbEntity
  8
U1
100
AcDbLine
 10
10708.43915527504
 20
4671.823721645458
 30
0.0
 11
10712.93915527504
 21
4671.546798568535
 31
0.0
  0
LINE
  5
1913C
330
18E77
100
AcDbEntity
  8
U2
100
AcDbLine
 10
10652.43915527504
 20
4681.465442678631
 30
0.0
 11
10149.50617785267
 21
4717.392607786982
 31
0.0
  0
ARC
  5
1913D
330
18E77
100
AcDbEntity
  8
U1
100
AcDbCircle
 10
10657.43915527504
 20
4735.176916837242
 30
0.0
 40
5.0
100
AcDbArc
 50
85.91438322004837
 51
180.0
  0
CIRCLE
  5
1913E
330
18E77
100
AcDbEntity
  8
U1
100
AcDbCircle
 10
10680.43915527504
 20
4711.546798568535
 30
0.0
 40
6.0
  0
CIRCLE
  5
1913F
330
18E77
100
AcDbEntity
  8
U1
100
AcDbCircle
 10
10680.43915527504
 20
4651.546798568535
 30
0.0
 40
5.0
  0
LINE
  5
19140
330
18E77
100
AcDbEntity
  8
U1
100
AcDbLine
 10
10652.43915527504
 20
4621.546798568536
 30
0.0
 11
10652.43915527504
 21
4735.176916837242
 31
0.0
  0
ARC
  5
19141
330
18E77
100
AcDbEntity
  8
U1
100
AcDbCircle
 10
10703.43915527504
 20
4731.891202551529
 30
0.0
 40
5.0
100
AcDbArc
 50
0.0
 51
85.91438322004837
  0
LINE
  5
19142
330
18E77
100
AcDbEntity
  8
U1
100
AcDbLine
 10
10708.43915527504
 20
4621.546798568536
 30
0.0
 11
10708.43915527504
 21
4731.891202551529
 31
0.0
  0
LINE
  5
19143
330
18E77
100
AcDbEntity
  8
U1
100
AcDbLine
 10
10708.43915527504
 20
4621.546798568536
 30
0.0
 11
10652.43915527504
 21
4621.546798568536
 31
0.0
  0
LINE
  5
19144
330
18E77
100
AcDbEntity
  8
U1
100
AcDbLine
 10
10652.43915527504
 20
4675.546798568535
 30
0.0
 11
10708.43915527504
 21
4671.546798568535
 31
0.0
  0
LINE
  5
19145
330
18E77
100
AcDbEntity
  8
U1
100
AcDbLine
 10
10703.79539052497
 20
4736.878496050682
 30
0.0
 11
10657.79539052498
 21
4740.164210336398
 31
0.0
  0
CIRCLE
  5
19146
330
18E77
100
AcDbEntity
  8
U1
100
AcDbCircle
 10
10167.14006575581
 20
4753.728485338231
 30
0.0
 40
1.5
  0
LINE
  5
19147
330
18E77
100
AcDbEntity
  8
U1
100
AcDbLine
 10
10144.30551290185
 20
4787.240712806246
 30
0.0
 11
10139.48639794538
 21
4782.629603943415
 31
0.0
  0
LINE
  5
19148
330
18E77
100
AcDbEntity
  8
U1
100
AcDbLine
 10
10149.50617785267
 20
4717.392607786982
 30
0.0
 11
10146.73011690357
 21
4717.590916517065
 31
0.0
  0
ARC
  5
19149
330
18E77
100
AcDbEntity
  8
U1
100
AcDbCircle
 10
10147.08638551076
 20
4722.578207633445
 30
0.0
 40
5.0
100
AcDbArc
 50
218.0915902685029
 51
265.9139999999874
  0
LINE
  5
1914A
330
18E77
100
AcDbEntity
  8
U1
100
AcDbLine
 10
10143.15125760842
 20
4719.493605812764
 30
0.0
 11
10135.65904253701
 21
4729.051670772775
 31
0.0
  0
ARC
  5
1914B
330
18E77
100
AcDbEntity
  8
U1
100
AcDbCircle
 10
10167.14006575581
 20
4753.728485338231
 30
0.0
 40
40.0
100
AcDbArc
 50
133.7364097315297
 51
218.0915902685029
  0
LINE
  5
1914C
330
18E77
100
AcDbEntity
  8
U1
100
AcDbLine
 10
10154.44406074847
 20
4786.516462660009
 30
0.0
 11
10149.50617785267
 21
4717.392607786982
 31
0.0
  0
LINE
  5
1914D
330
18E77
100
AcDbEntity
  8
U1
100
AcDbLine
 10
12111.93898694008
 20
4739.072079675048
 30
0.0
 11
12111.74572004199
 21
4738.295775671388
 31
0.0
  0
CIRCLE
  5
1914E
330
18E77
100
AcDbEntity
  8
U1
100
AcDbCircle
 10
12379.44474912509
 20
4445.947402537725
 30
0.0
 40
2.5
  0
LINE
  5
1914F
330
18E77
100
AcDbEntity
  8
1PL-S2
100
AcDbLine
 10
12371.64709620671
 20
4444.159496230241
 30
0.0
 11
12387.24240204347
 21
4447.735308845213
 31
0.0
  0
LINE
  5
19150
330
18E77
100
AcDbEntity
  8
1PL-S2
100
AcDbLine
 10
12381.23265543258
 20
4438.149749619337
 30
0.0
 11
12377.65684281761
 21
4453.745055456115
 31
0.0
  0
LINE
  5
19151
330
18E77
100
AcDbEntity
  8
U1
100
AcDbLine
 10
12397.82249407648
 20
4445.031445651881
 30
0.0
 11
12397.82249407648
 21
4445.031445651881
 31
0.0
  0
ARC
  5
19152
330
18E77
100
AcDbEntity
  8
U1
100
AcDbCircle
 10
12396.15749640404
 20
4444.649682078709
 30
0.0
 40
4.0
100
AcDbArc
 50
282.9139999999605
 51
12.91400000000346
  0
ARC
  5
19153
330
18E77
100
AcDbEntity
  8
U1
100
AcDbCircle
 10
12315.78832350116
 20
4436.481512524735
 30
0.0
 40
10.0
100
AcDbArc
 50
202.5080682268598
 51
283.8413995282598
  0
LINE
  5
19154
330
18E77
100
AcDbEntity
  8
U1
100
AcDbLine
 10
12302.13493973143
 20
4433.350958854819
 30
0.0
 11
12304.25543930462
 21
4433.837163434788
 31
0.0
  0
ARC
  5
19155
330
18E77
100
AcDbEntity
  8
U1
100
AcDbCircle
 10
12304.70241588149
 20
4431.88775020519
 30
0.0
 40
2.0
100
AcDbArc
 50
22.50806822685992
 51
102.9139999999604
  0
LINE
  5
19156
330
18E77
100
AcDbEntity
  8
1PL-S2
100
AcDbLine
 10
12324.69967177426
 20
4425.187428890076
 30
0.0
 11
12321.12385915929
 21
4440.782734726854
 31
0.0
  0
CIRCLE
  5
19157
330
18E77
100
AcDbEntity
  8
U1
100
AcDbCircle
 10
12322.91176546677
 20
4432.985081808465
 30
0.0
 40
2.5
  0
ARC
  5
19158
330
18E77
100
AcDbEntity
  8
U1
100
AcDbCircle
 10
12315.9460843358
 20
4436.517685151843
 30
0.0
 40
10.0
100
AcDbArc
 50
198.1299085704709
 51
282.9139999999605
  0
ARC
  5
19159
330
18E77
100
AcDbEntity
  8
U1
100
AcDbCircle
 10
12315.9460843358
 20
4436.517685151843
 30
0.0
 40
14.0
100
AcDbArc
 50
192.9140000000034
 51
282.9139999999605
  0
ARC
  5
1915A
330
18E77
100
AcDbEntity
  8
U1
100
AcDbCircle
 10
12305.49219662675
 20
4433.094786998757
 30
0.0
 40
1.0
100
AcDbArc
 50
18.12990857047088
 51
102.9139999999604
  0
LINE
  5
1915B
330
18E77
100
AcDbEntity
  8
U1
100
AcDbLine
 10
12302.30019172862
 20
4433.388849113744
 30
0.0
 11
12302.30019172862
 21
4433.388849113744
 31
0.0
  0
LINE
  5
1915C
330
18E77
100
AcDbEntity
  8
U1
100
AcDbLine
 10
12302.30019172862
 20
4433.388849113744
 30
0.0
 11
12305.26870833831
 21
4434.069493613555
 31
0.0
  0
LINE
  5
1915D
330
18E77
100
AcDbEntity
  8
U1
100
AcDbLine
 10
12318.02320638551
 20
4426.734446376751
 30
0.0
 11
12400.05632286323
 21
4445.543635232449
 31
0.0
  0
LINE
  5
1915E
330
18E77
100
AcDbEntity
  8
1PL-S2
100
AcDbLine
 10
12315.11411254839
 20
4431.19717550098
 30
0.0
 11
12330.70941838515
 21
4434.772988115947
 31
0.0
  0
LINE
  5
1915F
330
18E77
100
AcDbEntity
  8
U1
100
AcDbLine
 10
12400.05632286323
 20
4445.543635232453
 30
0.0
 11
12318.18096722015
 21
4426.770619003859
 31
0.0
  0
LINE
  5
19160
330
18E77
100
AcDbEntity
  8
U1
100
AcDbLine
 10
12397.05144955778
 20
4440.750855619515
 30
0.0
 11
12319.0749203739
 21
4422.871792544664
 31
0.0
  0
ARC
  5
19161
330
18E77
100
AcDbEntity
  8
U1
100
AcDbCircle
 10
12016.9966232474
 20
4357.712737877256
 30
0.0
 40
393.0
100
AcDbArc
 50
12.91400000000346
 51
85.9139999999874
  0
ARC
  5
19162
330
18E77
100
AcDbEntity
  8
U1
100
AcDbCircle
 10
12016.9966232474
 20
4357.712737877256
 30
0.0
 40
295.0
100
AcDbArc
 50
14.85660197425786
 51
85.9139999999874
  0
LINE
  5
19163
330
18E77
100
AcDbEntity
  8
U1
100
AcDbLine
 10
10049.7543191248
 20
4887.231992737401
 30
0.0
 11
10064.71619247394
 21
4886.163186915799
 31
0.0
  0
ARC
  5
19164
330
18E77
100
AcDbEntity
  8
U1
100
AcDbCircle
 10
10064.85869991682
 20
4888.15810336235
 30
0.0
 40
2.0
100
AcDbArc
 50
265.9139999999874
 51
355.9140000000102
  0
LINE
  5
19165
330
18E77
100
AcDbEntity
  8
U1
100
AcDbLine
 10
10066.85361636337
 20
4888.015595919469
 30
0.0
 11
10067.0673775277
 21
4891.007970589297
 31
0.0
  0
ARC
  5
19166
330
18E77
100
AcDbEntity
  8
U1
100
AcDbCircle
 10
10064.85869991682
 20
4888.15810336235
 30
0.0
 40
2.0
100
AcDbArc
 50
265.9139999999874
 51
355.9140000000102
  0
LINE
  5
19167
330
18E77
100
AcDbEntity
  8
U1
100
AcDbLine
 10
10066.85361636337
 20
4888.015595919469
 30
0.0
 11
10067.13863124913
 21
4892.005428812574
 31
0.0
  0
LINE
  5
19168
330
18E77
100
AcDbEntity
  8
U1
100
AcDbLine
 10
10050.18184145344
 20
4893.216742077057
 30
0.0
 11
10067.13863124913
 21
4892.005428812574
 31
0.0
  0
LINE
  5
19169
330
18E77
100
AcDbEntity
  8
U1
100
AcDbLine
 10
10049.7543191248
 20
4887.231992737401
 30
0.0
 11
10064.71619247394
 21
4886.163186915799
 31
0.0
  0
LINE
  5
1916A
330
18E77
100
AcDbEntity
  8
U1
100
AcDbLine
 10
10043.48399163806
 20
4799.455669089112
 30
0.0
 11
10058.44586498721
 21
4798.386863267509
 31
0.0
  0
ARC
  5
1916B
330
18E77
100
AcDbEntity
  8
U1
100
AcDbCircle
 10
10058.30335754432
 20
4796.391946820956
 30
0.0
 40
2.0
100
AcDbArc
 50
355.9140000000102
 51
85.9139999999874
  0
LINE
  5
1916C
330
18E77
100
AcDbEntity
  8
U1
100
AcDbLine
 10
10060.29827399087
 20
4796.249439378078
 30
0.0
 11
10060.08451282656
 21
4793.257064708249
 31
0.0
  0
ARC
  5
1916D
330
18E77
100
AcDbEntity
  8
U1
100
AcDbCircle
 10
10058.30335754432
 20
4796.391946820956
 30
0.0
 40
2.0
100
AcDbArc
 50
355.9140000000102
 51
85.9139999999874
  0
LINE
  5
1916E
330
18E77
100
AcDbEntity
  8
U1
100
AcDbLine
 10
10060.29827399087
 20
4796.249439378078
 30
0.0
 11
10060.01325910511
 21
4792.259606484973
 31
0.0
  0
LINE
  5
1916F
330
18E77
100
AcDbEntity
  8
U1
100
AcDbLine
 10
10060.01325910511
 20
4792.259606484973
 30
0.0
 11
10043.05646930942
 21
4793.470919749455
 31
0.0
  0
LINE
  5
19170
330
18E77
100
AcDbEntity
  8
U1
100
AcDbLine
 10
10043.48399163806
 20
4799.455669089112
 30
0.0
 11
10058.44586498721
 21
4798.386863267509
 31
0.0
  0
ARC
  5
19171
330
18E77
100
AcDbEntity
  8
U1
100
AcDbCircle
 10
10046.61915538144
 20
4843.343830913256
 30
0.0
 40
44.0
100
AcDbArc
 50
85.9139999999874
 51
265.9139999999874
  0
ARC
  5
19172
330
18E77
100
AcDbEntity
  8
U1
100
AcDbCircle
 10
10046.61915538144
 20
4843.343830913256
 30
0.0
 40
50.0
100
AcDbArc
 50
85.9139999999874
 51
265.9139999999874
  0
ARC
  5
19173
330
18E77
100
AcDbEntity
  8
U1
100
AcDbCircle
 10
10046.61915538144
 20
4843.343830913256
 30
0.0
 40
44.0
100
AcDbArc
 50
85.9139999999874
 51
265.9139999999874
  0
LINE
  5
19174
330
18E77
100
AcDbEntity
  8
U1
100
AcDbLine
 10
10067.0673775277
 20
4891.007970589297
 30
0.0
 11
12044.99933577337
 21
4749.713819624727
 31
0.0
  0
LINE
  5
19175
330
18E77
100
AcDbEntity
  8
U1
100
AcDbLine
 10
10060.08451282656
 20
4793.257064708249
 30
0.0
 11
12038.01647107224
 21
4651.962913743679
 31
0.0
  0
CIRCLE
  5
19176
330
18E77
100
AcDbEntity
  8
U1
100
AcDbCircle
 10
12115.43915527502
 20
4608.829178057431
 30
0.0
 40
6.0
  0
CIRCLE
  5
19177
330
18E77
100
AcDbEntity
  8
U1
100
AcDbCircle
 10
12115.43915527502
 20
4535.546798568535
 30
0.0
 40
6.0
  0
CIRCLE
  5
19178
330
18E77
100
AcDbEntity
  8
U1
100
AcDbCircle
 10
11992.09613392916
 20
4617.454564165558
 30
0.0
 40
6.0
  0
LINE
  5
19179
330
18E77
100
AcDbEntity
  8
U1
100
AcDbLine
 10
11842.18949745383
 20
4656.309066673196
 30
0.0
 11
11842.18949745383
 21
4594.364197753668
 31
0.0
  0
CIRCLE
  5
1917A
330
18E77
100
AcDbEntity
  8
U1
100
AcDbCircle
 10
11871.39091121369
 20
4625.895488830996
 30
0.0
 40
6.0
  0
ARC
  5
1917B
330
18E77
100
AcDbEntity
  8
U1
100
AcDbCircle
 10
11852.18949745383
 20
4656.309066673196
 30
0.0
 40
10.0
100
AcDbArc
 50
112.96831606799
 51
180.0
  0
LINE
  5
1917C
330
18E77
100
AcDbEntity
  8
U1
100
AcDbLine
 10
12139.43915527504
 20
4435.546798568536
 30
0.0
 11
12079.43915527504
 21
4435.546798568536
 31
0.0
  0
CIRCLE
  5
1917D
330
18E77
100
AcDbEntity
  8
U1
100
AcDbCircle
 10
12115.43915527502
 20
4465.546798568535
 30
0.0
 40
6.0
  0
ARC
  5
1917E
330
18E77
100
AcDbEntity
  8
U1
100
AcDbCircle
 10
12139.43915527504
 20
4445.546798568535
 30
0.0
 40
10.0
100
AcDbArc
 50
270.0
 51
0.0
  0
ARC
  5
1917F
330
18E77
100
AcDbEntity
  8
U1
100
AcDbCircle
 10
11814.03456470383
 20
4295.688286837097
 30
0.0
 40
300.0
100
AcDbArc
 50
27.78759037810582
 51
84.61487895838995
  0
LINE
  5
19180
330
18E77
100
AcDbEntity
  8
U1
100
AcDbLine
 10
12149.43915527502
 20
4445.546798568535
 30
0.0
 11
12149.43915527502
 21
4621.310870856432
 31
0.0
  0
CIRCLE
  5
19181
330
18E77
100
AcDbEntity
  8
U2
100
AcDbCircle
 10
10680.43915527504
 20
4711.546798568535
 30
0.0
 40
6.0
  0
LINE
  5
19182
330
18E77
100
AcDbEntity
  8
U2
100
AcDbLine
 10
11842.18949745383
 20
4596.475277189289
 30
0.0
 11
10708.43915527504
 21
4677.465066214199
 31
0.0
  0
LINE
  5
19183
330
18E77
100
AcDbEntity
  8
KISO
100
AcDbLine
 10
12315.43915527504
 20
2719.546798568535
 30
0.0
 11
12315.43915527504
 21
2669.546798568534
 31
0.0
  0
LINE
  5
19184
330
18E77
100
AcDbEntity
  8
KISO
100
AcDbLine
 10
9587.402110802475
 20
2669.546798568534
 30
0.0
 11
12453.06471310255
 21
2669.546798568534
 31
0.0
  0
CIRCLE
  5
19185
330
18E77
100
AcDbEntity
  8
U1
100
AcDbCircle
 10
12115.43915527502
 20
4535.546798568535
 30
0.0
 40
6.0
  0
CIRCLE
  5
19186
330
18E77
100
AcDbEntity
  8
U1
100
AcDbCircle
 10
12115.43915527502
 20
4465.546798568535
 30
0.0
 40
6.0
  0
LINE
  5
19187
330
18E77
100
AcDbEntity
  8
GAKU_BUCHI
100
AcDbLine
 10
12082.93915527504
 20
3663.546798568535
 30
0.0
 11
12082.93915527504
 21
2881.546798568535
 31
0.0
  0
LINE
  5
19188
330
18E77
100
AcDbEntity
  8
U1
100
AcDbLine
 10
12082.93915527504
 20
2719.546798568534
 30
0.0
 11
12082.93915527504
 21
4435.546798568536
 31
0.0
  0
LINE
  5
19189
330
18E77
100
AcDbEntity
  8
U1
100
AcDbLine
 10
12147.93915527504
 20
4440.27897169211
 30
0.0
 11
12147.93915527504
 21
2719.546798568534
 31
0.0
  0
CIRCLE
  5
1918A
330
18E77
100
AcDbEntity
  8
U1
100
AcDbCircle
 10
10680.43915527504
 20
4651.546798568535
 30
0.0
 40
6.0
  0
LINE
  5
1918B
330
18E77
100
AcDbEntity
  8
U1
100
AcDbLine
 10
10647.93915527504
 20
4675.546798568535
 30
0.0
 11
10652.43915527504
 21
4675.269875491613
 31
0.0
  0
LINE
  5
1918C
330
18E77
100
AcDbEntity
  8
U1
100
AcDbLine
 10
10712.93915527504
 20
4671.546798568535
 30
0.0
 11
10712.93915527504
 21
2719.546798568534
 31
0.0
  0
LINE
  5
1918D
330
18E77
100
AcDbEntity
  8
U1
100
AcDbLine
 10
10647.93915527504
 20
2719.546798568534
 30
0.0
 11
10647.93915527504
 21
4675.546798568535
 31
0.0
  0
LINE
  5
1918E
330
18E77
100
AcDbEntity
  8
DOU_BUCHI
100
AcDbLine
 10
10712.93915527504
 20
3626.546798568535
 30
0.0
 11
12082.93915527504
 21
3626.546798568535
 31
0.0
  0
LINE
  5
1918F
330
18E77
100
AcDbEntity
  8
DOU_BUCHI
100
AcDbLine
 10
10712.93915527502
 20
2918.546798568534
 30
0.0
 11
12082.93915527504
 21
2918.546798568534
 31
0.0
  0
LINE
  5
19190
330
18E77
100
AcDbEntity
  8
U1
100
AcDbLine
 10
10712.93915527502
 20
3167.346798568533
 30
0.0
 11
12082.93915527504
 21
3167.346798568533
 31
0.0
  0
LINE
  5
19191
330
18E77
100
AcDbEntity
  8
U1
100
AcDbLine
 10
10712.93915527502
 20
3175.746798568532
 30
0.0
 11
12082.93915527504
 21
3175.746798568532
 31
0.0
  0
LINE
  5
19192
330
18E77
100
AcDbEntity
  8
U1
100
AcDbLine
 10
10712.93915527502
 20
3367.346798568533
 30
0.0
 11
12082.93915527504
 21
3367.346798568533
 31
0.0
  0
LINE
  5
19193
330
18E77
100
AcDbEntity
  8
U1
100
AcDbLine
 10
10712.93915527502
 20
3375.746798568533
 30
0.0
 11
12082.93915527504
 21
3375.746798568533
 31
0.0
  0
LINE
  5
19194
330
18E77
100
AcDbEntity
  8
DOU_BUCHI
100
AcDbLine
 10
10712.93915527502
 20
2881.546798568535
 30
0.0
 11
12082.93915527504
 21
2881.546798568535
 31
0.0
  0
LINE
  5
19195
330
18E77
100
AcDbEntity
  8
DOU_BUCHI
100
AcDbLine
 10
10712.93915527504
 20
3663.546798568535
 30
0.0
 11
12082.93915527504
 21
3663.546798568535
 31
0.0
  0
LINE
  5
19196
330
18E77
100
AcDbEntity
  8
KISO
100
AcDbLine
 10
9980.439155275036
 20
2719.546798568535
 30
0.0
 11
9980.439155275036
 21
2669.546798568534
 31
0.0
  0
LINE
  5
19197
330
18E77
100
AcDbEntity
  8
KISO
100
AcDbLine
 10
12315.43915527504
 20
2719.546798568534
 30
0.0
 11
9980.439155275036
 21
2719.546798568534
 31
0.0
  0
TEXT
  5
19198
330
18E77
100
AcDbEntity
  8
HIKIDASHI
100
AcDbText
 10
10684.1160767752
 20
2201.225016856949
 30
0.0
 40
120.0
  1
側 面 立 面 図
  7
01
 72
     2
 11
11652.1160767752
 21
2201.225016856949
 31
0.0
100
AcDbText
  0
TEXT
  5
19199
330
18E77
100
AcDbEntity
  8
HIKIDASHI
100
AcDbText
 10
11922.82399271288
 20
2240.602936436113
 30
0.0
 40
80.0
  1
1
 41
0.6700000000000001
  7
00
100
AcDbText
  0
TEXT
  5
1919A
330
18E77
100
AcDbEntity
  8
HIKIDASHI
100
AcDbText
 10
11955.96113057719
 20
2225.041458687917
 30
0.0
 40
80.0
  1
/
 41
0.6700000000000001
  7
00
100
AcDbText
  0
TEXT
  5
1919B
330
18E77
100
AcDbEntity
  8
HIKIDASHI
100
AcDbText
 10
12123.68274140226
 20
2225.041458687917
 30
0.0
 40
80.0
  1
)
 41
0.6700000000000001
  7
00
100
AcDbText
  0
TEXT
  5
1919C
330
18E77
100
AcDbEntity
  8
HIKIDASHI
100
AcDbText
 10
11742.1160767752
 20
2225.041458687917
 30
0.0
 40
80.0
  1
(S=
 41
0.6700000000000001
  7
00
100
AcDbText
  0
TEXT
  5
1919D
330
18E77
100
AcDbEntity
  8
HIKIDASHI
100
AcDbText
 10
12002.25628533982
 20
2198.87362748764
 30
0.0
 40
80.0
  1
40
 41
0.6700000000000001
  7
00
100
AcDbText
  0
ARC
  5
1919E
330
18E77
100
AcDbEntity
  8
TATEDOISIJIKANAGU
100
AcDbCircle
 10
12382.51829743194
 20
4427.598538537855
 30
0.0
 40
37.48693551244478
100
AcDbArc
 50
233.986849994455
 51
298.36861296114
  0
ARC
  5
1919F
330
18E77
100
AcDbEntity
  8
TATEDOISIJIKANAGU
100
AcDbCircle
 10
12431.54369525042
 20
4493.422962213357
 30
0.0
 40
125.8540927673333
100
AcDbArc
 50
233.6306292876397
 51
251.7011184430006
  0
ARC
  5
191A0
330
18E77
100
AcDbEntity
  8
TATEDOISIJIKANAGU
100
AcDbCircle
 10
12400.42360527429
 20
4406.706125535711
 30
0.0
 40
51.53019484641196
100
AcDbArc
 50
200.7635473240841
 51
245.6964523327459
  0
ARC
  5
191A1
330
18E77
100
AcDbEntity
  8
TATEDOISIJIKANAGU
100
AcDbCircle
 10
12353.31295663001
 20
4370.094224594397
 30
0.0
 40
24.69435515795272
100
AcDbArc
 50
152.0466699325089
 51
257.0784084064013
  0
ARC
  5
191A2
330
18E77
100
AcDbEntity
  8
TATEDOISIJIKANAGU
100
AcDbCircle
 10
12342.41097709791
 20
4405.856022695856
 30
0.0
 40
59.0
100
AcDbArc
 50
285.818044494717
 51
14.83133728738006
  0
ARC
  5
191A3
330
18E77
100
AcDbEntity
  8
TATEDOISIJIKANAGU
100
AcDbCircle
 10
12342.41097709791
 20
4405.856022695856
 30
0.0
 40
20.0
100
AcDbArc
 50
285.818044494717
 51
6.800108217162827
  0
LINE
  5
191A4
330
18E77
100
AcDbEntity
  8
TATEDOISIJIKANAGU
100
AcDbLine
 10
12358.69275689732
 20
4413.869436434868
 30
0.0
 11
12360.79918605945
 21
4407.720212403744
 31
0.0
  0
LINE
  5
191A5
330
18E77
100
AcDbEntity
  8
TATEDOISIJIKANAGU
100
AcDbLine
 10
12360.79918605945
 20
4407.720212403744
 30
0.0
 11
12401.4786681115
 21
4421.655051476251
 31
0.0
  0
LINE
  5
191A6
330
18E77
100
AcDbEntity
  8
TATEDOISIJIKANAGU
100
AcDbLine
 10
12401.4786681115
 20
4421.655051476251
 30
0.0
 11
12399.37223894937
 21
4427.804275507375
 31
0.0
  0
LINE
  5
191A7
330
18E77
100
AcDbEntity
  8
TATEDOISIJIKANAGU
100
AcDbLine
 10
12354.47989857308
 20
4426.167884497116
 30
0.0
 11
12352.85956844837
 21
4430.898056828751
 31
0.0
  0
ARC
  5
191A8
330
18E77
100
AcDbEntity
  8
TATEDOISIJIKANAGU
100
AcDbCircle
 10
12376.29120123937
 20
4428.839426268125
 30
0.0
 40
24.57689420135563
100
AcDbArc
 50
236.401957297133
 51
341.4160427029102
  0
ARC
  5
191A9
330
18E77
100
AcDbEntity
  8
TATEDOISIJIKANAGU
100
AcDbCircle
 10
12294.02538126647
 20
4350.785361652522
 30
0.0
 40
19.5
100
AcDbArc
 50
105.8180444947169
 51
285.818044494717
  0
ARC
  5
191AA
330
18E77
100
AcDbEntity
  8
TATEDOISIJIKANAGU
100
AcDbCircle
 10
12312.78695906902
 20
4356.100735426678
 30
0.0
 40
19.5
100
AcDbArc
 50
105.8180444947169
 51
285.818044494717
  0
ARC
  5
191AB
330
18E77
100
AcDbEntity
  8
TATEDOISIJIKANAGU
100
AcDbCircle
 10
12275.26380346392
 20
4345.469987878368
 30
0.0
 40
19.5
100
AcDbArc
 50
105.8180444947169
 51
285.818044494717
  0
ARC
  5
191AC
330
18E77
100
AcDbEntity
  8
TATEDOISIJIKANAGU
100
AcDbCircle
 10
12331.54853687157
 20
4361.416109200834
 30
0.0
 40
19.5
100
AcDbArc
 50
105.8180444947169
 51
285.818044494717
  0
LINE
  5
191AD
330
18E77
100
AcDbEntity
  8
TATEDOISIJIKANAGU
100
AcDbLine
 10
12209.35695047282
 20
4347.065293048805
 30
0.0
 11
12331.8628506628
 21
4381.772643139625
 31
0.0
  0
LINE
  5
191AE
330
18E77
100
AcDbEntity
  8
TATEDOISIJIKANAGU
100
AcDbLine
 10
12166.43936343052
 20
4295.660602010568
 30
0.0
 11
12166.68744797385
 21
4295.704346009055
 31
0.0
  0
ARC
  5
191AF
330
18E77
100
AcDbEntity
  8
TATEDOISIJIKANAGU
100
AcDbCircle
 10
12200.60283373525
 20
4392.24215755506
 30
0.0
 40
94.24556903357999
100
AcDbArc
 50
249.7661134063864
 51
273.8377011136847
  0
LINE
  5
191B0
330
18E77
100
AcDbEntity
  8
TATEDOISIJIKANAGU
100
AcDbLine
 10
12208.1208379383
 20
4300.302926693101
 30
0.0
 11
12205.43936343052
 21
4295.660602010568
 31
0.0
  0
ARC
  5
191B1
330
18E77
100
AcDbEntity
  8
TATEDOISIJIKANAGU
100
AcDbCircle
 10
12186.10361132979
 20
4331.299818928544
 30
0.0
 40
40.54657928638376
100
AcDbArc
 50
241.3889810304677
 51
298.4816655995945
  0
LINE
  5
191B2
330
18E77
100
AcDbEntity
  8
TATEDOISIJIKANAGU
100
AcDbLine
 10
12205.43936343052
 20
4295.660602010568
 30
0.0
 11
12205.43936343052
 21
4292.160602010568
 31
0.0
  0
LINE
  5
191B3
330
18E77
100
AcDbEntity
  8
TATEDOISIJIKANAGU
100
AcDbLine
 10
12166.43936343052
 20
4295.660602010568
 30
0.0
 11
12166.43936343052
 21
4292.160602010568
 31
0.0
  0
LINE
  5
191B4
330
18E77
100
AcDbEntity
  8
TATEDOISIJIKANAGU
100
AcDbLine
 10
12166.43936343052
 20
4286.160602010568
 30
0.0
 11
12171.23289413045
 21
4285.315373215315
 31
0.0
  0
LINE
  5
191B5
330
18E77
100
AcDbEntity
  8
TATEDOISIJIKANAGU
100
AcDbLine
 10
12166.43936343052
 20
4283.660602010568
 30
0.0
 11
12171.23289413045
 21
4284.505830805822
 31
0.0
  0
LINE
  5
191B6
330
18E77
100
AcDbEntity
  8
TATEDOISIJIKANAGU
100
AcDbLine
 10
12166.43936343052
 20
4292.160602010568
 30
0.0
 11
12171.23289413163
 21
4291.315373215108
 31
0.0
  0
LINE
  5
191B7
330
18E77
100
AcDbEntity
  8
TATEDOISIJIKANAGU
100
AcDbLine
 10
12166.43936343052
 20
4289.660602010568
 30
0.0
 11
12171.23289413045
 21
4290.505830805822
 31
0.0
  0
ARC
  5
191B8
330
18E77
100
AcDbEntity
  8
TATEDOISIJIKANAGU
100
AcDbCircle
 10
12170.93936343051
 20
4284.910602010568
 30
0.0
 40
0.5000000000000285
100
AcDbArc
 50
305.9487523472109
 51
54.05124765278903
  0
ARC
  5
191B9
330
18E77
100
AcDbEntity
  8
TATEDOISIJIKANAGU
100
AcDbCircle
 10
12170.93936343051
 20
4290.910602010568
 30
0.0
 40
0.5000000000000285
100
AcDbArc
 50
305.9487523472109
 51
320.1187958722151
  0
LINE
  5
191BA
330
18E77
100
AcDbEntity
  8
TATEDOISIJIKANAGU
100
AcDbLine
 10
12166.43936343052
 20
4289.660602010568
 30
0.0
 11
12166.43936343052
 21
4286.160602010568
 31
0.0
  0
LINE
  5
191BB
330
18E77
100
AcDbEntity
  8
TATEDOISIJIKANAGU
100
AcDbLine
 10
12166.43936343052
 20
4280.160602010568
 30
0.0
 11
12166.43936343052
 21
4283.660602010568
 31
0.0
  0
ARC
  5
191BC
330
18E77
100
AcDbEntity
  8
TATEDOISIJIKANAGU
100
AcDbCircle
 10
12170.93936343051
 20
4290.910602010568
 30
0.0
 40
0.5000000000000285
100
AcDbArc
 50
305.9487523472109
 51
54.05124765278903
  0
LINE
  5
191BD
330
18E77
100
AcDbEntity
  8
TATEDOISIJIKANAGU
100
AcDbLine
 10
12205.43936343052
 20
4289.660602010568
 30
0.0
 11
12205.43936343052
 21
4286.160602010568
 31
0.0
  0
LINE
  5
191BE
330
18E77
100
AcDbEntity
  8
TATEDOISIJIKANAGU
100
AcDbLine
 10
12205.43936343052
 20
4286.160602010568
 30
0.0
 11
12200.64583273058
 21
4285.315373215315
 31
0.0
  0
LINE
  5
191BF
330
18E77
100
AcDbEntity
  8
TATEDOISIJIKANAGU
100
AcDbLine
 10
12205.43936343052
 20
4283.660602010568
 30
0.0
 11
12200.64583273058
 21
4284.505830805822
 31
0.0
  0
LINE
  5
191C0
330
18E77
100
AcDbEntity
  8
TATEDOISIJIKANAGU
100
AcDbLine
 10
12205.43936343052
 20
4280.160602010568
 30
0.0
 11
12205.43936343052
 21
4283.660602010568
 31
0.0
  0
ARC
  5
191C1
330
18E77
100
AcDbEntity
  8
TATEDOISIJIKANAGU
100
AcDbCircle
 10
12200.93936343052
 20
4284.910602010568
 30
0.0
 40
0.5000000000000285
100
AcDbArc
 50
125.948752347211
 51
234.0512476527889
  0
LINE
  5
191C2
330
18E77
100
AcDbEntity
  8
TATEDOISIJIKANAGU
100
AcDbLine
 10
12205.43936343052
 20
4289.660602010568
 30
0.0
 11
12200.64583273058
 21
4290.505830805822
 31
0.0
  0
LINE
  5
191C3
330
18E77
100
AcDbEntity
  8
TATEDOISIJIKANAGU
100
AcDbLine
 10
12205.43936343052
 20
4292.160602010568
 30
0.0
 11
12200.64583273031
 21
4291.315373215269
 31
0.0
  0
ARC
  5
191C4
330
18E77
100
AcDbEntity
  8
TATEDOISIJIKANAGU
100
AcDbCircle
 10
12200.93936343052
 20
4290.910602010568
 30
0.0
 40
0.5000000000000285
100
AcDbArc
 50
211.8394178467926
 51
234.0512476527889
  0
ARC
  5
191C5
330
18E77
100
AcDbEntity
  8
TATEDOISIJIKANAGU
100
AcDbCircle
 10
12200.93936343052
 20
4290.910602010568
 30
0.0
 40
0.5000000000000285
100
AcDbArc
 50
125.948752347211
 51
234.0512476527889
  0
ARC
  5
191C6
330
18E77
100
AcDbEntity
  8
TATEDOISIJIKANAGU
100
AcDbCircle
 10
12224.91384592325
 20
4387.261382420611
 30
0.0
 40
86.57336202712778
100
AcDbArc
 50
233.3538502380036
 51
259.6080082394931
  0
LINE
  5
191C7
330
18E77
100
AcDbEntity
  8
TATEDOISIJIKANAGU
100
AcDbLine
 10
12205.43936343052
 20
4280.160602010568
 30
0.0
 11
12202.25482658769
 21
4277.909003368109
 31
0.0
  0
LINE
  5
191C8
330
18E77
100
AcDbEntity
  8
TATEDOISIJIKANAGU
100
AcDbLine
 10
12207.93936343051
 20
4273.148371630661
 30
0.0
 11
12202.23986472525
 21
4276.438978742389
 31
0.0
  0
ARC
  5
191C9
330
18E77
100
AcDbEntity
  8
TATEDOISIJIKANAGU
100
AcDbCircle
 10
12202.97060155671
 20
4277.166629780412
 30
0.0
 40
1.031238260528155
100
AcDbArc
 50
133.9549627273179
 51
224.878768412723
  0
ARC
  5
191CA
330
18E77
100
AcDbEntity
  8
TATEDOISIJIKANAGU
100
AcDbCircle
 10
12168.90812530432
 20
4277.166629780412
 30
0.0
 40
1.031238260528155
100
AcDbArc
 50
315.1212315872768
 51
46.04503727268203
  0
LINE
  5
191CB
330
18E77
100
AcDbEntity
  8
TATEDOISIJIKANAGU
100
AcDbLine
 10
12166.43936343052
 20
4280.160602010568
 30
0.0
 11
12169.62390027334
 21
4277.909003368109
 31
0.0
  0
LINE
  5
191CC
330
18E77
100
AcDbEntity
  8
TATEDOISIJIKANAGU
100
AcDbLine
 10
12163.93936343052
 20
4273.148371630661
 30
0.0
 11
12169.63886213577
 21
4276.438978742389
 31
0.0
  0
LINE
  5
191CD
330
18E77
100
AcDbEntity
  8
TATEDOISIJIKANAGU
100
AcDbLine
 10
12163.93936343052
 20
4273.148371630661
 30
0.0
 11
12207.93936343051
 21
4273.148371630661
 31
0.0
  0
LINE
  5
191CE
330
18E77
100
AcDbEntity
  8
TATEDOISIJIKANAGU
100
AcDbLine
 10
12201.93898533376
 20
4277.175523121959
 30
0.0
 11
12169.9393252163
 21
4277.175523121959
 31
0.0
  0
LINE
  5
191CF
330
18E77
100
AcDbEntity
  8
TATEDOISIJIKANAGU
100
AcDbLine
 10
12207.93894711954
 20
4273.148371630661
 30
0.0
 11
12207.93894711954
 21
4047.796798568533
 31
0.0
  0
LINE
  5
191D0
330
18E77
100
AcDbEntity
  8
TATEDOISIJIKANAGU
100
AcDbLine
 10
12207.93894711954
 20
4035.296798568532
 30
0.0
 11
12207.93894711954
 21
3049.796798568532
 31
0.0
  0
LINE
  5
191D1
330
18E77
100
AcDbEntity
  8
TATEDOISIJIKANAGU
100
AcDbLine
 10
12207.93894711954
 20
3037.296798568533
 30
0.0
 11
12207.93894711954
 21
2871.62824703047
 31
0.0
  0
LINE
  5
191D2
330
18E77
100
AcDbEntity
  8
TATEDOISIJIKANAGU
100
AcDbLine
 10
12163.93936343052
 20
4273.148371630661
 30
0.0
 11
12163.93936343052
 21
4047.796798568533
 31
0.0
  0
LINE
  5
191D3
330
18E77
100
AcDbEntity
  8
TATEDOISIJIKANAGU
100
AcDbLine
 10
12163.93936343052
 20
4035.296798568532
 30
0.0
 11
12163.93936343053
 21
3049.796798568532
 31
0.0
  0
LINE
  5
191D4
330
18E77
100
AcDbEntity
  8
TATEDOISIJIKANAGU
100
AcDbLine
 10
12163.93936343053
 20
3037.296798568533
 30
0.0
 11
12163.93936343053
 21
2871.62824703047
 31
0.0
  0
ARC
  5
191D5
330
18E77
100
AcDbEntity
  8
TATEDOISIJIKANAGU
100
AcDbCircle
 10
12225.43936343052
 20
4290.299493543662
 30
0.0
 40
20.0
100
AcDbArc
 50
105.8180444947169
 51
146.8976870777835
  0
ARC
  5
191D6
330
18E77
100
AcDbEntity
  8
TATEDOISIJIKANAGU
100
AcDbCircle
 10
12268.85093168938
 20
4344.480821668127
 30
0.0
 40
27.04028979015884
100
AcDbArc
 50
152.0535121616845
 51
244.4600747008874
  0
ARC
  5
191D7
330
18E77
100
AcDbEntity
  8
TATEDOISIJIKANAGU
100
AcDbCircle
 10
12271.90263762675
 20
4346.796173378844
 30
0.0
 40
43.6732808751661
100
AcDbArc
 50
172.4708031053644
 51
225.5994203506985
  0
ARC
  5
191D8
330
18E77
100
AcDbEntity
  8
TATEDOISIJIKANAGU
100
AcDbCircle
 10
12278.24623542613
 20
4350.437277741208
 30
0.0
 40
60.09538943116075
100
AcDbArc
 50
180.8378434869276
 51
218.8026014089185
  0
ARC
  5
191D9
330
18E77
100
AcDbEntity
  8
TATEDOISIJIKANAGU
100
AcDbCircle
 10
12235.9296783153
 20
4339.13738603608
 30
0.0
 40
31.45567389646946
100
AcDbArc
 50
167.9436180962648
 51
245.9104562623242
  0
ARC
  5
191DA
330
18E77
100
AcDbEntity
  8
TATEDOISIJIKANAGU
100
AcDbCircle
 10
12312.48672294384
 20
4427.748381290927
 30
0.0
 40
157.1885788544904
100
AcDbArc
 50
216.4870253948012
 51
230.7606818469909
  0
ARC
  5
191DB
330
18E77
100
AcDbEntity
  8
TATEDOISIJIKANAGU
100
AcDbCircle
 10
12225.43936343052
 20
4290.299493543662
 30
0.0
 40
59.0
100
AcDbArc
 50
105.8180444947169
 51
171.6529426359942
  0
LINE
  5
191DC
330
18E77
100
AcDbEntity
  8
TATEDOISIJIKANAGU
100
AcDbLine
 10
12219.98769802113
 20
4309.54213744371
 30
0.0
 11
12342.49359821111
 21
4344.249487534531
 31
0.0
  0
LINE
  5
191DD
330
18E77
100
AcDbEntity
  8
TATEDOISIJIKANAGU
100
AcDbLine
 10
12257.97055934116
 20
2809.520592785123
 30
0.0
 11
12240.86955217487
 21
2762.535961745829
 31
0.0
  0
LINE
  5
191DE
330
18E77
100
AcDbEntity
  8
TATEDOISIJIKANAGU
100
AcDbLine
 10
12163.93936343052
 20
2871.62824703047
 30
0.0
 11
12207.93894711954
 21
2871.62824703047
 31
0.0
  0
LINE
  5
191DF
330
18E77
100
AcDbEntity
  8
TATEDOISIJIKANAGU
100
AcDbLine
 10
12160.93915527502
 20
2871.62824703047
 30
0.0
 11
12210.93915527504
 21
2871.62824703047
 31
0.0
  0
LINE
  5
191E0
330
18E77
100
AcDbEntity
  8
TATEDOISIJIKANAGU
100
AcDbLine
 10
12160.93915527502
 20
2871.62824703047
 30
0.0
 11
12160.93915527502
 21
2833.640699323044
 31
0.0
  0
LINE
  5
191E1
330
18E77
100
AcDbEntity
  8
TATEDOISIJIKANAGU
100
AcDbLine
 10
12210.93915527504
 20
2871.62824703047
 30
0.0
 11
12210.93915527504
 21
2833.640699323044
 31
0.0
  0
ARC
  5
191E2
330
18E77
100
AcDbEntity
  8
TATEDOISIJIKANAGU
100
AcDbCircle
 10
12220.93915527502
 20
2833.640699323044
 30
0.0
 40
60.0
100
AcDbArc
 50
180.0
 51
250.0000000000103
  0
ARC
  5
191E3
330
18E77
100
AcDbEntity
  8
TATEDOISIJIKANAGU
100
AcDbCircle
 10
12220.93915527502
 20
2833.640699323044
 30
0.0
 40
10.0
100
AcDbArc
 50
180.0
 51
250.0000000000103
  0
LINE
  5
191E4
330
18E77
100
AcDbEntity
  8
TATEDOISIJIKANAGU
100
AcDbLine
 10
12217.51895384177
 20
2824.243773115187
 30
0.0
 11
12257.97055934116
 21
2809.520592785123
 31
0.0
  0
LINE
  5
191E5
330
18E77
100
AcDbEntity
  8
TATEDOISIJIKANAGU
100
AcDbLine
 10
12200.41794667548
 20
2777.259142075891
 30
0.0
 11
12240.86955217487
 21
2762.535961745829
 31
0.0
  0
LINE
  5
191E6
330
18E77
100
AcDbEntity
  8
TATEDOISIJIKANAGU
100
AcDbLine
 10
12331.8628506628
 20
4381.772643139625
 30
0.0
 11
12347.86264250731
 21
4386.613378795806
 31
0.0
  0
LINE
  5
191E7
330
18E77
100
AcDbEntity
  8
TATEDOISIJIKANAGU
100
AcDbLine
 10
12342.49359821111
 20
4344.249487534531
 30
0.0
 11
12358.4933900556
 21
4349.090223190708
 31
0.0
  0
ARC
  5
191E8
330
18E77
100
AcDbEntity
  8
TATEDOISIJIKANAGU
100
AcDbCircle
 10
12388.8924671514
 20
4380.93629589079
 30
0.0
 40
43.4668895488749
100
AcDbArc
 50
173.3574443550421
 51
226.761452927747
  0
LINE
  5
191E9
330
18E77
100
AcDbEntity
  8
TATEDOISIJIKANAGU
100
AcDbLine
 10
12150.53915527503
 20
4079.796798568533
 30
0.0
 11
12150.53915527503
 21
4053.896798568536
 31
0.0
  0
LINE
  5
191EA
330
18E77
100
AcDbEntity
  8
TATEDOISIJIKANAGU
100
AcDbLine
 10
12152.03915527502
 20
4052.396798568536
 30
0.0
 11
12158.23936343052
 21
4052.396798568535
 31
0.0
  0
ARC
  5
191EB
330
18E77
100
AcDbEntity
  8
TATEDOISIJIKANAGU
100
AcDbCircle
 10
12152.03915527502
 20
4053.896798568536
 30
0.0
 40
1.5
100
AcDbArc
 50
180.0
 51
270.0
  0
ARC
  5
191EC
330
18E77
100
AcDbEntity
  8
TATEDOISIJIKANAGU
100
AcDbCircle
 10
12152.03915527502
 20
4053.896798568536
 30
0.0
 40
4.099999999999998
100
AcDbArc
 50
180.0
 51
270.0
  0
LINE
  5
191ED
330
18E77
100
AcDbEntity
  8
TATEDOISIJIKANAGU
100
AcDbLine
 10
12162.33936343052
 20
4048.296798568532
 30
0.0
 11
12162.33936343052
 21
4033.296798568533
 31
0.0
  0
LINE
  5
191EE
330
18E77
100
AcDbEntity
  8
TATEDOISIJIKANAGU
100
AcDbLine
 10
12162.33936343052
 20
4033.296798568533
 30
0.0
 11
12159.73936343052
 21
4033.296798568533
 31
0.0
  0
LINE
  5
191EF
330
18E77
100
AcDbEntity
  8
TATEDOISIJIKANAGU
100
AcDbLine
 10
12159.73936343052
 20
4033.296798568533
 30
0.0
 11
12159.73936343052
 21
4048.296798568532
 31
0.0
  0
LINE
  5
191F0
330
18E77
100
AcDbEntity
  8
TATEDOISIJIKANAGU
100
AcDbLine
 10
12158.23936343052
 20
4049.796798568532
 30
0.0
 11
12152.03915527502
 21
4049.796798568535
 31
0.0
  0
ARC
  5
191F1
330
18E77
100
AcDbEntity
  8
TATEDOISIJIKANAGU
100
AcDbCircle
 10
12158.23936343052
 20
4048.296798568532
 30
0.0
 40
1.5
100
AcDbArc
 50
0.0
 51
90.0
  0
ARC
  5
191F2
330
18E77
100
AcDbEntity
  8
TATEDOISIJIKANAGU
100
AcDbCircle
 10
12158.23936343052
 20
4048.296798568532
 30
0.0
 40
4.099999999999998
100
AcDbArc
 50
0.0
 51
90.0
  0
LINE
  5
191F3
330
18E77
100
AcDbEntity
  8
TATEDOISIJIKANAGU
100
AcDbLine
 10
12147.93915527504
 20
4053.896798568536
 30
0.0
 11
12147.93915527504
 21
4079.796798568533
 31
0.0
  0
LINE
  5
191F4
330
18E77
100
AcDbEntity
  8
TATEDOISIJIKANAGU
100
AcDbLine
 10
12147.93915527504
 20
4079.796798568533
 30
0.0
 11
12150.53915527503
 21
4079.796798568533
 31
0.0
  0
LINE
  5
191F5
330
18E77
100
AcDbEntity
  8
TATEDOISIJIKANAGU
  6
1PL-S
 62
     6
100
AcDbLine
 10
12141.32915527504
 20
4064.796798568532
 30
0.0
 11
12157.14915527502
 21
4064.796798568532
 31
0.0
  0
LINE
  5
191F6
330
18E77
100
AcDbEntity
  8
TATEDOISIJIKANAGU
100
AcDbLine
 10
12185.93915527504
 20
4047.796798568533
 30
0.0
 11
12185.93915527504
 21
4035.296798568532
 31
0.0
  0
ARC
  5
191F7
330
18E77
100
AcDbEntity
  8
TATEDOISIJIKANAGU
100
AcDbCircle
 10
12190.64211537042
 20
4041.546798568535
 30
0.0
 40
12.84038832877559
100
AcDbArc
 50
150.8731100751012
 51
209.1268899248985
  0
LINE
  5
191F8
330
18E77
100
AcDbEntity
  8
TATEDOISIJIKANAGU
100
AcDbLine
 10
12150.53915527503
 20
3081.796798568532
 30
0.0
 11
12150.53915527503
 21
3055.896798568535
 31
0.0
  0
LINE
  5
191F9
330
18E77
100
AcDbEntity
  8
TATEDOISIJIKANAGU
100
AcDbLine
 10
12152.03915527503
 20
3054.396798568535
 30
0.0
 11
12158.23936343052
 21
3054.396798568534
 31
0.0
  0
ARC
  5
191FA
330
18E77
100
AcDbEntity
  8
TATEDOISIJIKANAGU
100
AcDbCircle
 10
12152.03915527503
 20
3055.896798568535
 30
0.0
 40
1.5
100
AcDbArc
 50
180.0
 51
270.0
  0
ARC
  5
191FB
330
18E77
100
AcDbEntity
  8
TATEDOISIJIKANAGU
100
AcDbCircle
 10
12152.03915527503
 20
3055.896798568535
 30
0.0
 40
4.099999999999998
100
AcDbArc
 50
180.0
 51
270.0
  0
LINE
  5
191FC
330
18E77
100
AcDbEntity
  8
TATEDOISIJIKANAGU
100
AcDbLine
 10
12162.33936343052
 20
3050.296798568532
 30
0.0
 11
12162.33936343052
 21
3035.296798568532
 31
0.0
  0
LINE
  5
191FD
330
18E77
100
AcDbEntity
  8
TATEDOISIJIKANAGU
100
AcDbLine
 10
12162.33936343052
 20
3035.296798568532
 30
0.0
 11
12159.73936343052
 21
3035.296798568532
 31
0.0
  0
LINE
  5
191FE
330
18E77
100
AcDbEntity
  8
TATEDOISIJIKANAGU
100
AcDbLine
 10
12159.73936343052
 20
3035.296798568532
 30
0.0
 11
12159.73936343052
 21
3050.296798568532
 31
0.0
  0
LINE
  5
191FF
330
18E77
100
AcDbEntity
  8
TATEDOISIJIKANAGU
100
AcDbLine
 10
12158.23936343052
 20
3051.796798568533
 30
0.0
 11
12152.03915527503
 21
3051.796798568533
 31
0.0
  0
ARC
  5
19200
330
18E77
100
AcDbEntity
  8
TATEDOISIJIKANAGU
100
AcDbCircle
 10
12158.23936343052
 20
3050.296798568532
 30
0.0
 40
1.5
100
AcDbArc
 50
0.0
 51
90.0
  0
ARC
  5
19201
330
18E77
100
AcDbEntity
  8
TATEDOISIJIKANAGU
100
AcDbCircle
 10
12158.23936343052
 20
3050.296798568532
 30
0.0
 40
4.099999999999998
100
AcDbArc
 50
0.0
 51
90.0
  0
LINE
  5
19202
330
18E77
100
AcDbEntity
  8
TATEDOISIJIKANAGU
100
AcDbLine
 10
12147.93915527504
 20
3055.896798568535
 30
0.0
 11
12147.93915527504
 21
3081.796798568532
 31
0.0
  0
LINE
  5
19203
330
18E77
100
AcDbEntity
  8
TATEDOISIJIKANAGU
100
AcDbLine
 10
12147.93915527504
 20
3081.796798568532
 30
0.0
 11
12150.53915527503
 21
3081.796798568532
 31
0.0
  0
LINE
  5
19204
330
18E77
100
AcDbEntity
  8
TATEDOISIJIKANAGU
  6
1PL-S
 62
     6
100
AcDbLine
 10
12141.32915527504
 20
3066.796798568532
 30
0.0
 11
12157.14915527503
 21
3066.796798568532
 31
0.0
  0
LINE
  5
19205
330
18E77
100
AcDbEntity
  8
TATEDOISIJIKANAGU
100
AcDbLine
 10
12185.93915527504
 20
3049.796798568532
 30
0.0
 11
12185.93915527504
 21
3037.296798568533
 31
0.0
  0
ARC
  5
19206
330
18E77
100
AcDbEntity
  8
TATEDOISIJIKANAGU
100
AcDbCircle
 10
12190.64211537042
 20
3043.546798568533
 30
0.0
 40
12.84038832877559
100
AcDbArc
 50
150.8731100751012
 51
209.1268899248985
  0
LINE
  5
19207
330
18E77
100
AcDbEntity
  8
GAKU_BUCHI
100
AcDbLine
 10
10712.93915527504
 20
3663.546798568535
 30
0.0
 11
10712.93915527502
 21
2881.546798568535
 31
0.0
  0
TEXT
  5
19208
330
18E77
100
AcDbEntity
  8
FILENAME
100
AcDbText
 10
13873.42857142857
 20
174.0
 30
0.0
 40
100.0
  1
＜YOKR-240-A1_1_JIS_GL.DXF ＞
  7
FILENAME
 72
     2
 11
16382.0
 21
174.0
 31
0.0
100
AcDbText
  0
LINE
  5
19209
330
18E77
100
AcDbEntity
  8
WAKUSEN-01
100
AcDbLine
 10
434.0000000000008
 20
413.9999999999997
 30
0.0
 11
16382.0
 21
413.9999999999997
 31
0.0
  0
LINE
  5
1920A
330
18E77
100
AcDbEntity
  8
WAKUSEN-01
100
AcDbLine
 10
434.0000000000008
 20
11242.0
 30
0.0
 11
16382.0
 21
11242.0
 31
0.0
  0
LINE
  5
1920B
330
18E77
100
AcDbEntity
  8
WAKUSEN-01
100
AcDbLine
 10
434.0000000000008
 20
413.9999999999997
 30
0.0
 11
434.0000000000008
 21
11242.0
 31
0.0
  0
LINE
  5
1920C
330
18E77
100
AcDbEntity
  8
WAKUSEN-01
100
AcDbLine
 10
16382.0
 20
413.9999999999997
 30
0.0
 11
16382.0
 21
11242.0
 31
0.0
  0
LINE
  5
1920D
330
18E77
100
AcDbEntity
  8
WAKUSEN-01
100
AcDbLine
 10
10280.0
 20
1242.0
 30
0.0
 11
16382.0
 21
1242.0
 31
0.0
  0
LINE
  5
1920E
330
18E77
100
AcDbEntity
  8
WAKUSEN-02
100
AcDbLine
 10
10280.0
 20
827.9999999999997
 30
0.0
 11
13434.0
 21
827.9999999999997
 31
0.0
  0
TEXT
  5
1920F
330
18E77
100
AcDbEntity
  8
WAKUMOJI-01
100
AcDbText
 10
10335.13012998137
 20
1062.951504669661
 30
0.0
 40
120.0
  1
名　称
  7
WAKUMOJI
100
AcDbText
  0
TEXT
  5
19210
330
18E77
100
AcDbEntity
  8
WAKUMOJI-01
100
AcDbText
 10
10328.25274254596
 20
659.5644874899107
 30
0.0
 40
120.0
  1
機種名
  7
WAKUMOJI
100
AcDbText
  0
LINE
  5
19211
330
18E77
100
AcDbEntity
  8
WAKUSEN-01
100
AcDbLine
 10
10280.0
 20
413.9999999999985
 30
0.0
 11
10280.0
 21
1242.0
 31
0.0
  0
LINE
  5
19212
330
18E77
100
AcDbEntity
  8
WAKUSEN-02
100
AcDbLine
 10
13434.0
 20
413.9999999999963
 30
0.0
 11
13434.0
 21
1242.0
 31
0.0
  0
LINE
  5
19213
330
18E77
100
AcDbEntity
  8
YODOROGO
100
AcDbLine
 10
14988.80217064596
 20
997.8747482146435
 30
0.0
 11
14914.80217064596
 21
997.8747482146435
 31
0.0
1001
AUTOCAD_POSTSCRIPT_FIGURE
1002
{
1000
PSFILL
1000
Grayscale
1000
Grayscale
1070
    25
1002
}
  0
LINE
  5
19214
330
18E77
100
AcDbEntity
  8
YODOROGO
100
AcDbLine
 10
14914.80217064596
 20
973.8747482146434
 30
0.0
 11
14988.80217064596
 21
973.8747482146434
 31
0.0
1001
AUTOCAD_POSTSCRIPT_FIGURE
1002
{
1000
PSFILL
1000
Grayscale
1000
Grayscale
1070
    25
1002
}
  0
LINE
  5
19215
330
18E77
100
AcDbEntity
  8
YODOROGO
100
AcDbLine
 10
14988.80217064596
 20
953.874748214644
 30
0.0
 11
14914.80217064596
 21
953.874748214644
 31
0.0
1001
AUTOCAD_POSTSCRIPT_FIGURE
1002
{
1000
PSFILL
1000
Grayscale
1000
Grayscale
1070
    25
1002
}
  0
LINE
  5
19216
330
18E77
100
AcDbEntity
  8
YODOROGO
100
AcDbLine
 10
14914.80217064596
 20
929.874748214644
 30
0.0
 11
14988.80217064596
 21
929.874748214644
 31
0.0
1001
AUTOCAD_POSTSCRIPT_FIGURE
1002
{
1000
PSFILL
1000
Grayscale
1000
Grayscale
1070
    25
1002
}
  0
LINE
  5
19217
330
18E77
100
AcDbEntity
  8
YODOROGO
100
AcDbLine
 10
14988.80217064596
 20
909.8747482146439
 30
0.0
 11
14914.80217064596
 21
909.8747482146439
 31
0.0
1001
AUTOCAD_POSTSCRIPT_FIGURE
1002
{
1000
PSFILL
1000
Grayscale
1000
Grayscale
1070
    25
1002
}
  0
LINE
  5
19218
330
18E77
100
AcDbEntity
  8
YODOROGO
100
AcDbLine
 10
14960.80217064594
 20
853.874748214644
 30
0.0
 11
14988.80217064596
 21
853.874748214644
 31
0.0
1001
AUTOCAD_POSTSCRIPT_FIGURE
1002
{
1000
PSFILL
1000
Grayscale
1000
Grayscale
1070
    25
1002
}
  0
LINE
  5
19219
330
18E77
100
AcDbEntity
  8
YODOROGO
100
AcDbLine
 10
14868.80217064596
 20
713.8747482146436
 30
0.0
 11
14968.80217064596
 21
740.6696674577553
 31
0.0
  0
LINE
  5
1921A
330
18E77
100
AcDbEntity
  8
YODOROGO
100
AcDbLine
 10
14974.80217064595
 20
853.874748214644
 30
0.0
 11
14942.80217064596
 21
853.874748214644
 31
0.0
  0
ARC
  5
1921B
330
18E77
100
AcDbEntity
  8
YODOROGO
100
AcDbCircle
 10
15127.17387491394
 20
903.9323046166312
 30
0.0
 40
190.9434321028236
100
AcDbArc
 50
213.9611167766784
 51
264.4787207431779
  0
ARC
  5
1921C
330
18E77
100
AcDbEntity
  8
YODOROGO
100
AcDbCircle
 10
15127.17387491396
 20
903.9323046166513
 30
0.0
 40
190.9434321028408
100
AcDbArc
 50
208.141144204866
 51
212.9210361185994
  0
LINE
  5
1921D
330
18E77
100
AcDbEntity
  8
YODOROGO
100
AcDbLine
 10
14885.70493649264
 20
778.403830673117
 30
0.0
 11
14966.89206625426
 21
800.1578565285436
 31
0.0
  0
LINE
  5
1921E
330
18E77
100
AcDbEntity
  8
YODOROGO
100
AcDbLine
 10
14868.80217064596
 20
713.8747482146436
 30
0.0
 11
14968.80217064596
 21
740.6696674577553
 31
0.0
  0
LINE
  5
1921F
330
18E77
100
AcDbEntity
  8
YODOROGO
100
AcDbLine
 10
14974.80217064595
 20
853.874748214644
 30
0.0
 11
14942.80217064596
 21
853.874748214644
 31
0.0
  0
ARC
  5
19220
330
18E77
100
AcDbEntity
  8
YODOROGO
100
AcDbCircle
 10
15127.17387491394
 20
903.9323046166312
 30
0.0
 40
190.9434321028236
100
AcDbArc
 50
213.9611167766784
 51
264.4787207431779
  0
LINE
  5
19221
330
18E77
100
AcDbEntity
  8
YODOROGO
100
AcDbLine
 10
14396.80217064594
 20
909.8747482146439
 30
0.0
 11
14216.80217064594
 21
909.8747482146439
 31
0.0
  0
LINE
  5
19222
330
18E77
100
AcDbEntity
  8
YODOROGO
100
AcDbLine
 10
14256.80217064594
 20
713.8747482146436
 30
0.0
 11
14396.80217064594
 21
713.8747482146436
 31
0.0
  0
LINE
  5
19223
330
18E77
100
AcDbEntity
  8
YODOROGO
100
AcDbLine
 10
14364.80217064596
 20
961.8747482146432
 30
0.0
 11
14248.80217064594
 21
961.8747482146432
 31
0.0
  0
LINE
  5
19224
330
18E77
100
AcDbEntity
  8
YODOROGO
100
AcDbLine
 10
14292.80217064596
 20
1013.874748214644
 30
0.0
 11
14328.80217064596
 21
1013.874748214644
 31
0.0
  0
LINE
  5
19225
330
18E77
100
AcDbEntity
  8
YODOROGO
100
AcDbLine
 10
14216.80217064594
 20
853.874748214644
 30
0.0
 11
14216.80217064594
 21
753.8747482146439
 31
0.0
  0
LINE
  5
19226
330
18E77
100
AcDbEntity
  8
YODOROGO
100
AcDbLine
 10
14248.80217064594
 20
781.8747482146434
 30
0.0
 11
14248.80217064594
 21
853.874748214644
 31
0.0
  0
LINE
  5
19227
330
18E77
100
AcDbEntity
  8
YODOROGO
100
AcDbLine
 10
14292.80217064596
 20
873.8747482146449
 30
0.0
 11
14292.80217064596
 21
773.874748214644
 31
0.0
  0
LINE
  5
19228
330
18E77
100
AcDbEntity
  8
YODOROGO
100
AcDbLine
 10
13928.80217064596
 20
841.8747482146445
 30
0.0
 11
13888.80217064596
 21
809.9862070222856
 31
0.0
  0
LINE
  5
19229
330
18E77
100
AcDbEntity
  8
YODOROGO
100
AcDbLine
 10
13968.80217064596
 20
809.9862070222856
 30
0.0
 11
13928.80217064596
 21
841.8747482146445
 31
0.0
  0
LINE
  5
1922A
330
18E77
100
AcDbEntity
  8
YODOROGO
100
AcDbLine
 10
13928.80217064596
 20
853.874748214644
 30
0.0
 11
13968.80217064596
 21
821.986207022285
 31
0.0
  0
LINE
  5
1922B
330
18E77
100
AcDbEntity
  8
YODOROGO
100
AcDbLine
 10
13888.80217064596
 20
821.986207022285
 30
0.0
 11
13928.80217064596
 21
853.874748214644
 31
0.0
  0
LINE
  5
1922C
330
18E77
100
AcDbEntity
  8
YODOROGO
100
AcDbLine
 10
14020.45660200844
 20
829.874748214644
 30
0.0
 11
14020.45660200844
 21
841.8747482146434
 31
0.0
  0
LINE
  5
1922D
330
18E77
100
AcDbEntity
  8
YODOROGO
100
AcDbLine
 10
13988.80217064596
 20
841.8747482146434
 30
0.0
 11
13988.80217064596
 21
833.8747482146427
 31
0.0
  0
LINE
  5
1922E
330
18E77
100
AcDbEntity
  8
YODOROGO
100
AcDbLine
 10
14049.06776011545
 20
853.874748214644
 30
0.0
 11
14049.06776011545
 21
827.751818637328
 31
0.0
1001
AUTOCAD_POSTSCRIPT_FIGURE
1002
{
1000
PSFILL
1000
Grayscale
1000
Grayscale
1070
   100
1002
}
  0
LINE
  5
1922F
330
18E77
100
AcDbEntity
  8
YODOROGO
100
AcDbLine
 10
14041.06776011546
 20
827.751818637328
 30
0.0
 11
14041.06776011546
 21
853.874748214644
 31
0.0
1001
AUTOCAD_POSTSCRIPT_FIGURE
1002
{
1000
PSFILL
1000
Grayscale
1000
Grayscale
1070
   100
1002
}
  0
LINE
  5
19230
330
18E77
100
AcDbEntity
  8
YODOROGO
100
AcDbLine
 10
13904.80217064596
 20
804.3859520216292
 30
0.0
 11
13904.80217064596
 21
816.3859520216298
 31
0.0
  0
LINE
  5
19231
330
18E77
100
AcDbEntity
  8
YODOROGO
100
AcDbLine
 10
13952.80217064596
 20
804.3859520216292
 30
0.0
 11
13904.80217064596
 21
804.3859520216292
 31
0.0
  0
LINE
  5
19232
330
18E77
100
AcDbEntity
  8
YODOROGO
100
AcDbLine
 10
13952.80217064596
 20
816.3859520216298
 30
0.0
 11
13952.80217064596
 21
804.3859520216292
 31
0.0
  0
LINE
  5
19233
330
18E77
100
AcDbEntity
  8
YODOROGO
100
AcDbLine
 10
13904.80217064596
 20
816.3859520216298
 30
0.0
 11
13952.80217064596
 21
816.3859520216298
 31
0.0
  0
LINE
  5
19234
330
18E77
100
AcDbEntity
  8
YODOROGO
100
AcDbLine
 10
13912.25479445787
 20
784.2514286852374
 30
0.0
 11
13892.80217064596
 21
737.8747482146435
 31
0.0
1001
AUTOCAD_POSTSCRIPT_FIGURE
1002
{
1000
PSFILL
1000
Grayscale
1000
Grayscale
1070
   100
1002
}
  0
LINE
  5
19235
330
18E77
100
AcDbEntity
  8
YODOROGO
100
AcDbLine
 10
13888.80217064596
 20
784.2514286852374
 30
0.0
 11
13912.25479445787
 21
784.2514286852374
 31
0.0
1001
AUTOCAD_POSTSCRIPT_FIGURE
1002
{
1000
PSFILL
1000
Grayscale
1000
Grayscale
1070
   100
1002
}
  0
LINE
  5
19236
330
18E77
100
AcDbEntity
  8
YODOROGO
100
AcDbLine
 10
13888.80217064596
 20
794.2514286852374
 30
0.0
 11
13888.80217064596
 21
784.2514286852374
 31
0.0
1001
AUTOCAD_POSTSCRIPT_FIGURE
1002
{
1000
PSFILL
1000
Grayscale
1000
Grayscale
1070
   100
1002
}
  0
LINE
  5
19237
330
18E77
100
AcDbEntity
  8
YODOROGO
100
AcDbLine
 10
13968.80217064596
 20
794.2514286852374
 30
0.0
 11
13888.80217064596
 21
794.2514286852374
 31
0.0
1001
AUTOCAD_POSTSCRIPT_FIGURE
1002
{
1000
PSFILL
1000
Grayscale
1000
Grayscale
1070
   100
1002
}
  0
LINE
  5
19238
330
18E77
100
AcDbEntity
  8
YODOROGO
100
AcDbLine
 10
13968.80217064596
 20
784.2514286852374
 30
0.0
 11
13968.80217064596
 21
794.2514286852374
 31
0.0
1001
AUTOCAD_POSTSCRIPT_FIGURE
1002
{
1000
PSFILL
1000
Grayscale
1000
Grayscale
1070
   100
1002
}
  0
LINE
  5
19239
330
18E77
100
AcDbEntity
  8
YODOROGO
100
AcDbLine
 10
13922.25479445786
 20
784.2514286852374
 30
0.0
 11
13968.80217064596
 21
784.2514286852374
 31
0.0
1001
AUTOCAD_POSTSCRIPT_FIGURE
1002
{
1000
PSFILL
1000
Grayscale
1000
Grayscale
1070
   100
1002
}
  0
LINE
  5
1923A
330
18E77
100
AcDbEntity
  8
YODOROGO
100
AcDbLine
 10
13907.77335914238
 20
747.8747482146435
 30
0.0
 11
13922.25479445786
 21
784.2514286852374
 31
0.0
1001
AUTOCAD_POSTSCRIPT_FIGURE
1002
{
1000
PSFILL
1000
Grayscale
1000
Grayscale
1070
   100
1002
}
  0
LINE
  5
1923B
330
18E77
100
AcDbEntity
  8
YODOROGO
100
AcDbLine
 10
13951.02739540432
 20
747.8747482146435
 30
0.0
 11
13907.77335914238
 21
747.8747482146435
 31
0.0
1001
AUTOCAD_POSTSCRIPT_FIGURE
1002
{
1000
PSFILL
1000
Grayscale
1000
Grayscale
1070
   100
1002
}
  0
LINE
  5
1923C
330
18E77
100
AcDbEntity
  8
YODOROGO
100
AcDbLine
 10
13942.53250239547
 20
768.1169053488464
 30
0.0
 11
13951.02739540432
 21
747.8747482146435
 31
0.0
1001
AUTOCAD_POSTSCRIPT_FIGURE
1002
{
1000
PSFILL
1000
Grayscale
1000
Grayscale
1070
   100
1002
}
  0
LINE
  5
1923D
330
18E77
100
AcDbEntity
  8
YODOROGO
100
AcDbLine
 10
13950.53250239547
 20
768.1169053488464
 30
0.0
 11
13942.53250239547
 21
768.1169053488464
 31
0.0
1001
AUTOCAD_POSTSCRIPT_FIGURE
1002
{
1000
PSFILL
1000
Grayscale
1000
Grayscale
1070
   100
1002
}
  0
LINE
  5
1923E
330
18E77
100
AcDbEntity
  8
YODOROGO
100
AcDbLine
 10
13964.80217064596
 20
737.8747482146435
 30
0.0
 11
13950.53250239547
 21
768.1169053488464
 31
0.0
1001
AUTOCAD_POSTSCRIPT_FIGURE
1002
{
1000
PSFILL
1000
Grayscale
1000
Grayscale
1070
   100
1002
}
  0
LINE
  5
1923F
330
18E77
100
AcDbEntity
  8
YODOROGO
100
AcDbLine
 10
13892.80217064596
 20
737.8747482146435
 30
0.0
 11
13964.80217064596
 21
737.8747482146435
 31
0.0
1001
AUTOCAD_POSTSCRIPT_FIGURE
1002
{
1000
PSFILL
1000
Grayscale
1000
Grayscale
1070
   100
1002
}
  0
LINE
  5
19240
330
18E77
100
AcDbEntity
  8
YODOROGO
100
AcDbLine
 10
13888.80217064596
 20
809.9862070222856
 30
0.0
 11
13888.80217064596
 21
821.986207022285
 31
0.0
  0
LINE
  5
19241
330
18E77
100
AcDbEntity
  8
YODOROGO
100
AcDbLine
 10
13968.80217064596
 20
821.986207022285
 30
0.0
 11
13968.80217064596
 21
809.9862070222856
 31
0.0
  0
ARC
  5
19242
330
18E77
100
AcDbEntity
  8
YODOROGO
100
AcDbCircle
 10
14112.97022107348
 20
800.438882662663
 30
0.0
 40
87.99999999999995
100
AcDbArc
 50
280.3644312771313
 51
3.541483659218056
  0
ARC
  5
19243
330
18E77
100
AcDbEntity
  8
YODOROGO
100
AcDbCircle
 10
14117.87801537965
 20
816.798903480952
 30
0.0
 40
55.99999999999914
100
AcDbArc
 50
281.2490582504155
 51
348.7509417495832
  0
LINE
  5
19244
330
18E77
100
AcDbEntity
  8
YODOROGO
100
AcDbLine
 10
14128.80217064596
 20
761.8747482146434
 30
0.0
 11
14128.80217064596
 21
713.8747482146436
 31
0.0
  0
LINE
  5
19245
330
18E77
100
AcDbEntity
  8
YODOROGO
100
AcDbLine
 10
14010.04445186845
 20
805.3252825309574
 30
0.0
 11
14020.45660200844
 21
829.874748214644
 31
0.0
  0
LINE
  5
19246
330
18E77
100
AcDbEntity
  8
YODOROGO
100
AcDbLine
 10
14020.80217064596
 20
791.5602449742006
 30
0.0
 11
14010.04445186845
 21
805.3252825309574
 31
0.0
  0
LINE
  5
19247
330
18E77
100
AcDbEntity
  8
YODOROGO
100
AcDbLine
 10
14020.80217064596
 20
781.5602449741994
 30
0.0
 11
14020.80217064596
 21
791.5602449742006
 31
0.0
  0
LINE
  5
19248
330
18E77
100
AcDbEntity
  8
YODOROGO
100
AcDbLine
 10
14008.80217064596
 20
792.6185318747651
 30
0.0
 11
14020.80217064596
 21
781.5602449741994
 31
0.0
  0
LINE
  5
19249
330
18E77
100
AcDbEntity
  8
YODOROGO
100
AcDbLine
 10
14008.80217064596
 20
737.8747482146435
 30
0.0
 11
14008.80217064596
 21
792.6185318747651
 31
0.0
  0
LINE
  5
1924A
330
18E77
100
AcDbEntity
  8
YODOROGO
100
AcDbLine
 10
14000.80217064596
 20
737.8747482146435
 30
0.0
 11
14008.80217064596
 21
737.8747482146435
 31
0.0
  0
LINE
  5
1924B
330
18E77
100
AcDbEntity
  8
YODOROGO
100
AcDbLine
 10
14000.80217064596
 20
790.0026748448738
 30
0.0
 11
14000.80217064596
 21
737.8747482146435
 31
0.0
  0
LINE
  5
1924C
330
18E77
100
AcDbEntity
  8
YODOROGO
100
AcDbLine
 10
13988.80217064596
 20
766.3840395167142
 30
0.0
 11
14000.80217064596
 21
790.0026748448738
 31
0.0
  0
LINE
  5
1924D
330
18E77
100
AcDbEntity
  8
YODOROGO
100
AcDbLine
 10
13988.80217064596
 20
778.3840395167149
 30
0.0
 11
13988.80217064596
 21
766.3840395167142
 31
0.0
  0
LINE
  5
1924E
330
18E77
100
AcDbEntity
  8
YODOROGO
100
AcDbLine
 10
14012.91438714567
 20
833.8747482146427
 30
0.0
 11
13988.80217064596
 21
778.3840395167149
 31
0.0
  0
LINE
  5
1924F
330
18E77
100
AcDbEntity
  8
YODOROGO
100
AcDbLine
 10
13988.80217064596
 20
833.8747482146427
 30
0.0
 11
14012.91438714567
 21
833.8747482146427
 31
0.0
  0
LINE
  5
19250
330
18E77
100
AcDbEntity
  8
YODOROGO
100
AcDbLine
 10
14025.06776011545
 20
827.751818637328
 30
0.0
 11
14041.06776011546
 21
827.751818637328
 31
0.0
1001
AUTOCAD_POSTSCRIPT_FIGURE
1002
{
1000
PSFILL
1000
Grayscale
1000
Grayscale
1070
   100
1002
}
  0
LINE
  5
19251
330
18E77
100
AcDbEntity
  8
YODOROGO
100
AcDbLine
 10
14025.06776011545
 20
815.7518186373286
 30
0.0
 11
14025.06776011545
 21
827.751818637328
 31
0.0
1001
AUTOCAD_POSTSCRIPT_FIGURE
1002
{
1000
PSFILL
1000
Grayscale
1000
Grayscale
1070
   100
1002
}
  0
LINE
  5
19252
330
18E77
100
AcDbEntity
  8
YODOROGO
100
AcDbLine
 10
14041.06776011546
 20
815.7518186373286
 30
0.0
 11
14025.06776011545
 21
815.7518186373286
 31
0.0
1001
AUTOCAD_POSTSCRIPT_FIGURE
1002
{
1000
PSFILL
1000
Grayscale
1000
Grayscale
1070
   100
1002
}
  0
LINE
  5
19253
330
18E77
100
AcDbEntity
  8
YODOROGO
100
AcDbLine
 10
14041.06776011546
 20
749.8747482146441
 30
0.0
 11
14041.06776011546
 21
815.7518186373286
 31
0.0
1001
AUTOCAD_POSTSCRIPT_FIGURE
1002
{
1000
PSFILL
1000
Grayscale
1000
Grayscale
1070
   100
1002
}
  0
LINE
  5
19254
330
18E77
100
AcDbEntity
  8
YODOROGO
100
AcDbLine
 10
14025.06776011545
 20
749.8747482146441
 30
0.0
 11
14041.06776011546
 21
749.8747482146441
 31
0.0
1001
AUTOCAD_POSTSCRIPT_FIGURE
1002
{
1000
PSFILL
1000
Grayscale
1000
Grayscale
1070
   100
1002
}
  0
LINE
  5
19255
330
18E77
100
AcDbEntity
  8
YODOROGO
100
AcDbLine
 10
14025.06776011545
 20
737.8747482146435
 30
0.0
 11
14025.06776011545
 21
749.8747482146441
 31
0.0
1001
AUTOCAD_POSTSCRIPT_FIGURE
1002
{
1000
PSFILL
1000
Grayscale
1000
Grayscale
1070
   100
1002
}
  0
LINE
  5
19256
330
18E77
100
AcDbEntity
  8
YODOROGO
100
AcDbLine
 10
14068.80217064596
 20
737.8747482146435
 30
0.0
 11
14025.06776011545
 21
737.8747482146435
 31
0.0
1001
AUTOCAD_POSTSCRIPT_FIGURE
1002
{
1000
PSFILL
1000
Grayscale
1000
Grayscale
1070
   100
1002
}
  0
LINE
  5
19257
330
18E77
100
AcDbEntity
  8
YODOROGO
100
AcDbLine
 10
14068.80217064596
 20
749.8747482146441
 30
0.0
 11
14068.80217064596
 21
737.8747482146435
 31
0.0
1001
AUTOCAD_POSTSCRIPT_FIGURE
1002
{
1000
PSFILL
1000
Grayscale
1000
Grayscale
1070
   100
1002
}
  0
LINE
  5
19258
330
18E77
100
AcDbEntity
  8
YODOROGO
100
AcDbLine
 10
14049.06776011545
 20
749.8747482146441
 30
0.0
 11
14068.80217064596
 21
749.8747482146441
 31
0.0
1001
AUTOCAD_POSTSCRIPT_FIGURE
1002
{
1000
PSFILL
1000
Grayscale
1000
Grayscale
1070
   100
1002
}
  0
LINE
  5
19259
330
18E77
100
AcDbEntity
  8
YODOROGO
100
AcDbLine
 10
14049.06776011545
 20
815.7518186373286
 30
0.0
 11
14049.06776011545
 21
749.8747482146441
 31
0.0
1001
AUTOCAD_POSTSCRIPT_FIGURE
1002
{
1000
PSFILL
1000
Grayscale
1000
Grayscale
1070
   100
1002
}
  0
LINE
  5
1925A
330
18E77
100
AcDbEntity
  8
YODOROGO
100
AcDbLine
 10
14068.80217064596
 20
815.7518186373286
 30
0.0
 11
14049.06776011545
 21
815.7518186373286
 31
0.0
1001
AUTOCAD_POSTSCRIPT_FIGURE
1002
{
1000
PSFILL
1000
Grayscale
1000
Grayscale
1070
   100
1002
}
  0
LINE
  5
1925B
330
18E77
100
AcDbEntity
  8
YODOROGO
100
AcDbLine
 10
14068.80217064596
 20
827.751818637328
 30
0.0
 11
14068.80217064596
 21
815.7518186373286
 31
0.0
1001
AUTOCAD_POSTSCRIPT_FIGURE
1002
{
1000
PSFILL
1000
Grayscale
1000
Grayscale
1070
   100
1002
}
  0
LINE
  5
1925C
330
18E77
100
AcDbEntity
  8
YODOROGO
100
AcDbLine
 10
14049.06776011545
 20
827.751818637328
 30
0.0
 11
14068.80217064596
 21
827.751818637328
 31
0.0
1001
AUTOCAD_POSTSCRIPT_FIGURE
1002
{
1000
PSFILL
1000
Grayscale
1000
Grayscale
1070
   100
1002
}
  0
LINE
  5
1925D
330
18E77
100
AcDbEntity
  8
YODOROGO
100
AcDbLine
 10
14200.80217064594
 20
833.8747482146439
 30
0.0
 11
14172.80217064596
 21
833.8747482146439
 31
0.0
  0
LINE
  5
1925E
330
18E77
100
AcDbEntity
  8
YODOROGO
100
AcDbLine
 10
14200.80217064594
 20
805.8747482146443
 30
0.0
 11
14200.80217064594
 21
833.8747482146439
 31
0.0
  0
LINE
  5
1925F
330
18E77
100
AcDbEntity
  8
YODOROGO
100
AcDbLine
 10
14172.80217064596
 20
833.8747482146439
 30
0.0
 11
14172.80217064596
 21
805.8747482146443
 31
0.0
  0
ARC
  5
19260
330
18E77
100
AcDbEntity
  8
YODOROGO
100
AcDbCircle
 10
14256.80217064594
 20
753.8747482146439
 30
0.0
 40
40.0
100
AcDbArc
 50
180.0
 51
270.0
  0
ARC
  5
19261
330
18E77
100
AcDbEntity
  8
YODOROGO
100
AcDbCircle
 10
14268.80217064594
 20
781.8747482146434
 30
0.0
 40
20.0
100
AcDbArc
 50
180.0
 51
270.0
  0
LINE
  5
19262
330
18E77
100
AcDbEntity
  8
YODOROGO
100
AcDbLine
 10
14280.80217064596
 20
761.8747482146434
 30
0.0
 11
14268.80217064594
 21
761.8747482146434
 31
0.0
  0
ARC
  5
19263
330
18E77
100
AcDbEntity
  8
YODOROGO
100
AcDbCircle
 10
14280.80217064596
 20
773.8747482146427
 30
0.0
 40
11.99999999999818
100
AcDbArc
 50
270.0
 51
0.0000000000054281
  0
LINE
  5
19264
330
18E77
100
AcDbEntity
  8
YODOROGO
100
AcDbLine
 10
13900.80217064596
 20
945.3932903968532
 30
0.0
 11
13888.80217064596
 21
921.8883739758362
 31
0.0
1001
AUTOCAD_POSTSCRIPT_FIGURE
1002
{
1000
PSFILL
1000
Grayscale
1000
Grayscale
1070
   100
1002
}
  0
LINE
  5
19265
330
18E77
100
AcDbEntity
  8
YODOROGO
100
AcDbLine
 10
13900.80217064596
 20
873.8747482146434
 30
0.0
 11
13900.80217064596
 21
945.3932903968532
 31
0.0
1001
AUTOCAD_POSTSCRIPT_FIGURE
1002
{
1000
PSFILL
1000
Grayscale
1000
Grayscale
1070
   100
1002
}
  0
LINE
  5
19266
330
18E77
100
AcDbEntity
  8
YODOROGO
100
AcDbLine
 10
13908.80217064596
 20
873.8747482146434
 30
0.0
 11
13900.80217064596
 21
873.8747482146434
 31
0.0
1001
AUTOCAD_POSTSCRIPT_FIGURE
1002
{
1000
PSFILL
1000
Grayscale
1000
Grayscale
1070
   100
1002
}
  0
LINE
  5
19267
330
18E77
100
AcDbEntity
  8
YODOROGO
100
AcDbLine
 10
13908.80217064596
 20
946.8856660426332
 30
0.0
 11
13908.80217064596
 21
873.8747482146434
 31
0.0
1001
AUTOCAD_POSTSCRIPT_FIGURE
1002
{
1000
PSFILL
1000
Grayscale
1000
Grayscale
1070
   100
1002
}
  0
LINE
  5
19268
330
18E77
100
AcDbEntity
  8
YODOROGO
100
AcDbLine
 10
13920.80217064596
 20
933.8273791420684
 30
0.0
 11
13908.80217064596
 21
946.8856660426332
 31
0.0
1001
AUTOCAD_POSTSCRIPT_FIGURE
1002
{
1000
PSFILL
1000
Grayscale
1000
Grayscale
1070
   100
1002
}
  0
LINE
  5
19269
330
18E77
100
AcDbEntity
  8
YODOROGO
100
AcDbLine
 10
13920.80217064596
 20
941.8273791420681
 30
0.0
 11
13920.80217064596
 21
933.8273791420684
 31
0.0
1001
AUTOCAD_POSTSCRIPT_FIGURE
1002
{
1000
PSFILL
1000
Grayscale
1000
Grayscale
1070
   100
1002
}
  0
LINE
  5
1926A
330
18E77
100
AcDbEntity
  8
YODOROGO
100
AcDbLine
 10
13908.80217064596
 20
958.8856660426325
 30
0.0
 11
13920.80217064596
 21
941.8273791420681
 31
0.0
1001
AUTOCAD_POSTSCRIPT_FIGURE
1002
{
1000
PSFILL
1000
Grayscale
1000
Grayscale
1070
   100
1002
}
  0
LINE
  5
1926B
330
18E77
100
AcDbEntity
  8
YODOROGO
100
AcDbLine
 10
13908.80217064596
 20
969.8747482146441
 30
0.0
 11
13908.80217064596
 21
958.8856660426325
 31
0.0
1001
AUTOCAD_POSTSCRIPT_FIGURE
1002
{
1000
PSFILL
1000
Grayscale
1000
Grayscale
1070
   100
1002
}
  0
LINE
  5
1926C
330
18E77
100
AcDbEntity
  8
YODOROGO
100
AcDbLine
 10
13944.80217064596
 20
969.8747482146441
 30
0.0
 11
13908.80217064596
 21
969.8747482146441
 31
0.0
1001
AUTOCAD_POSTSCRIPT_FIGURE
1002
{
1000
PSFILL
1000
Grayscale
1000
Grayscale
1070
   100
1002
}
  0
LINE
  5
1926D
330
18E77
100
AcDbEntity
  8
YODOROGO
100
AcDbLine
 10
13944.80217064596
 20
950.2841744681497
 30
0.0
 11
13944.80217064596
 21
969.8747482146441
 31
0.0
1001
AUTOCAD_POSTSCRIPT_FIGURE
1002
{
1000
PSFILL
1000
Grayscale
1000
Grayscale
1070
   100
1002
}
  0
LINE
  5
1926E
330
18E77
100
AcDbEntity
  8
YODOROGO
100
AcDbLine
 10
13928.80217064596
 20
950.2841744681497
 30
0.0
 11
13944.80217064596
 21
950.2841744681497
 31
0.0
1001
AUTOCAD_POSTSCRIPT_FIGURE
1002
{
1000
PSFILL
1000
Grayscale
1000
Grayscale
1070
   100
1002
}
  0
LINE
  5
1926F
330
18E77
100
AcDbEntity
  8
YODOROGO
100
AcDbLine
 10
13928.80217064596
 20
942.2841744681491
 30
0.0
 11
13928.80217064596
 21
950.2841744681497
 31
0.0
1001
AUTOCAD_POSTSCRIPT_FIGURE
1002
{
1000
PSFILL
1000
Grayscale
1000
Grayscale
1070
   100
1002
}
  0
LINE
  5
19270
330
18E77
100
AcDbEntity
  8
YODOROGO
100
AcDbLine
 10
13944.80217064596
 20
942.2841744681491
 30
0.0
 11
13928.80217064596
 21
942.2841744681491
 31
0.0
1001
AUTOCAD_POSTSCRIPT_FIGURE
1002
{
1000
PSFILL
1000
Grayscale
1000
Grayscale
1070
   100
1002
}
  0
LINE
  5
19271
330
18E77
100
AcDbEntity
  8
YODOROGO
100
AcDbLine
 10
13944.80217064596
 20
939.8095889822196
 30
0.0
 11
13944.80217064596
 21
942.2841744681491
 31
0.0
1001
AUTOCAD_POSTSCRIPT_FIGURE
1002
{
1000
PSFILL
1000
Grayscale
1000
Grayscale
1070
   100
1002
}
  0
LINE
  5
19272
330
18E77
100
AcDbEntity
  8
YODOROGO
100
AcDbLine
 10
13924.80217064596
 20
906.4874905807087
 30
0.0
 11
13944.80217064596
 21
939.8095889822196
 31
0.0
1001
AUTOCAD_POSTSCRIPT_FIGURE
1002
{
1000
PSFILL
1000
Grayscale
1000
Grayscale
1070
   100
1002
}
  0
LINE
  5
19273
330
18E77
100
AcDbEntity
  8
YODOROGO
100
AcDbLine
 10
13924.80217064596
 20
898.487490580708
 30
0.0
 11
13924.80217064596
 21
906.4874905807087
 31
0.0
1001
AUTOCAD_POSTSCRIPT_FIGURE
1002
{
1000
PSFILL
1000
Grayscale
1000
Grayscale
1070
   100
1002
}
  0
LINE
  5
19274
330
18E77
100
AcDbEntity
  8
YODOROGO
100
AcDbLine
 10
13944.80217064596
 20
923.8095889822183
 30
0.0
 11
13924.80217064596
 21
898.487490580708
 31
0.0
1001
AUTOCAD_POSTSCRIPT_FIGURE
1002
{
1000
PSFILL
1000
Grayscale
1000
Grayscale
1070
   100
1002
}
  0
LINE
  5
19275
330
18E77
100
AcDbEntity
  8
YODOROGO
100
AcDbLine
 10
13944.80217064596
 20
873.8747482146434
 30
0.0
 11
13944.80217064596
 21
923.8095889822183
 31
0.0
1001
AUTOCAD_POSTSCRIPT_FIGURE
1002
{
1000
PSFILL
1000
Grayscale
1000
Grayscale
1070
   100
1002
}
  0
LINE
  5
19276
330
18E77
100
AcDbEntity
  8
YODOROGO
100
AcDbLine
 10
13952.80217064596
 20
873.8747482146434
 30
0.0
 11
13944.80217064596
 21
873.8747482146434
 31
0.0
1001
AUTOCAD_POSTSCRIPT_FIGURE
1002
{
1000
PSFILL
1000
Grayscale
1000
Grayscale
1070
   100
1002
}
  0
LINE
  5
19277
330
18E77
100
AcDbEntity
  8
YODOROGO
100
AcDbLine
 10
13952.80217064596
 20
924.7045060794032
 30
0.0
 11
13952.80217064596
 21
873.8747482146434
 31
0.0
1001
AUTOCAD_POSTSCRIPT_FIGURE
1002
{
1000
PSFILL
1000
Grayscale
1000
Grayscale
1070
   100
1002
}
  0
LINE
  5
19278
330
18E77
100
AcDbEntity
  8
YODOROGO
100
AcDbLine
 10
13968.80217064596
 20
898.487490580708
 30
0.0
 11
13952.80217064596
 21
924.7045060794032
 31
0.0
1001
AUTOCAD_POSTSCRIPT_FIGURE
1002
{
1000
PSFILL
1000
Grayscale
1000
Grayscale
1070
   100
1002
}
  0
LINE
  5
19279
330
18E77
100
AcDbEntity
  8
YODOROGO
100
AcDbLine
 10
13968.80217064596
 20
906.4874905807087
 30
0.0
 11
13968.80217064596
 21
898.487490580708
 31
0.0
1001
AUTOCAD_POSTSCRIPT_FIGURE
1002
{
1000
PSFILL
1000
Grayscale
1000
Grayscale
1070
   100
1002
}
  0
LINE
  5
1927A
330
18E77
100
AcDbEntity
  8
YODOROGO
100
AcDbLine
 10
13952.80217064596
 20
940.7045060794041
 30
0.0
 11
13968.80217064596
 21
906.4874905807087
 31
0.0
1001
AUTOCAD_POSTSCRIPT_FIGURE
1002
{
1000
PSFILL
1000
Grayscale
1000
Grayscale
1070
   100
1002
}
  0
LINE
  5
1927B
330
18E77
100
AcDbEntity
  8
YODOROGO
100
AcDbLine
 10
13952.80217064596
 20
942.2841744681502
 30
0.0
 11
13952.80217064596
 21
940.7045060794041
 31
0.0
1001
AUTOCAD_POSTSCRIPT_FIGURE
1002
{
1000
PSFILL
1000
Grayscale
1000
Grayscale
1070
   100
1002
}
  0
LINE
  5
1927C
330
18E77
100
AcDbEntity
  8
YODOROGO
100
AcDbLine
 10
13968.80217064596
 20
942.2841744681491
 30
0.0
 11
13952.80217064596
 21
942.2841744681502
 31
0.0
1001
AUTOCAD_POSTSCRIPT_FIGURE
1002
{
1000
PSFILL
1000
Grayscale
1000
Grayscale
1070
   100
1002
}
  0
LINE
  5
1927D
330
18E77
100
AcDbEntity
  8
YODOROGO
100
AcDbLine
 10
13968.80217064596
 20
950.2841744681497
 30
0.0
 11
13968.80217064596
 21
942.2841744681491
 31
0.0
1001
AUTOCAD_POSTSCRIPT_FIGURE
1002
{
1000
PSFILL
1000
Grayscale
1000
Grayscale
1070
   100
1002
}
  0
LINE
  5
1927E
330
18E77
100
AcDbEntity
  8
YODOROGO
100
AcDbLine
 10
13952.80217064596
 20
950.2841744681497
 30
0.0
 11
13968.80217064596
 21
950.2841744681497
 31
0.0
1001
AUTOCAD_POSTSCRIPT_FIGURE
1002
{
1000
PSFILL
1000
Grayscale
1000
Grayscale
1070
   100
1002
}
  0
LINE
  5
1927F
330
18E77
100
AcDbEntity
  8
YODOROGO
100
AcDbLine
 10
13952.80217064596
 20
969.8747482146441
 30
0.0
 11
13952.80217064596
 21
950.2841744681497
 31
0.0
1001
AUTOCAD_POSTSCRIPT_FIGURE
1002
{
1000
PSFILL
1000
Grayscale
1000
Grayscale
1070
   100
1002
}
  0
LINE
  5
19280
330
18E77
100
AcDbEntity
  8
YODOROGO
100
AcDbLine
 10
13968.80217064596
 20
969.8747482146441
 30
0.0
 11
13952.80217064596
 21
969.8747482146441
 31
0.0
1001
AUTOCAD_POSTSCRIPT_FIGURE
1002
{
1000
PSFILL
1000
Grayscale
1000
Grayscale
1070
   100
1002
}
  0
LINE
  5
19281
330
18E77
100
AcDbEntity
  8
YODOROGO
100
AcDbLine
 10
13968.80217064596
 20
977.8747482146435
 30
0.0
 11
13968.80217064596
 21
969.8747482146441
 31
0.0
1001
AUTOCAD_POSTSCRIPT_FIGURE
1002
{
1000
PSFILL
1000
Grayscale
1000
Grayscale
1070
   100
1002
}
  0
LINE
  5
19282
330
18E77
100
AcDbEntity
  8
YODOROGO
100
AcDbLine
 10
13952.80217064596
 20
977.8747482146435
 30
0.0
 11
13968.80217064596
 21
977.8747482146435
 31
0.0
1001
AUTOCAD_POSTSCRIPT_FIGURE
1002
{
1000
PSFILL
1000
Grayscale
1000
Grayscale
1070
   100
1002
}
  0
LINE
  5
19283
330
18E77
100
AcDbEntity
  8
YODOROGO
100
AcDbLine
 10
13952.80217064596
 20
989.8747482146442
 30
0.0
 11
13952.80217064596
 21
977.8747482146435
 31
0.0
1001
AUTOCAD_POSTSCRIPT_FIGURE
1002
{
1000
PSFILL
1000
Grayscale
1000
Grayscale
1070
   100
1002
}
  0
LINE
  5
19284
330
18E77
100
AcDbEntity
  8
YODOROGO
100
AcDbLine
 10
13944.80217064596
 20
989.8747482146442
 30
0.0
 11
13952.80217064596
 21
989.8747482146442
 31
0.0
1001
AUTOCAD_POSTSCRIPT_FIGURE
1002
{
1000
PSFILL
1000
Grayscale
1000
Grayscale
1070
   100
1002
}
  0
LINE
  5
19285
330
18E77
100
AcDbEntity
  8
YODOROGO
100
AcDbLine
 10
13944.80217064596
 20
977.8747482146435
 30
0.0
 11
13944.80217064596
 21
989.8747482146442
 31
0.0
1001
AUTOCAD_POSTSCRIPT_FIGURE
1002
{
1000
PSFILL
1000
Grayscale
1000
Grayscale
1070
   100
1002
}
  0
LINE
  5
19286
330
18E77
100
AcDbEntity
  8
YODOROGO
100
AcDbLine
 10
13932.80217064596
 20
977.8747482146435
 30
0.0
 11
13944.80217064596
 21
977.8747482146435
 31
0.0
1001
AUTOCAD_POSTSCRIPT_FIGURE
1002
{
1000
PSFILL
1000
Grayscale
1000
Grayscale
1070
   100
1002
}
  0
LINE
  5
19287
330
18E77
100
AcDbEntity
  8
YODOROGO
100
AcDbLine
 10
13932.80217064596
 20
989.8747482146442
 30
0.0
 11
13932.80217064596
 21
977.8747482146435
 31
0.0
1001
AUTOCAD_POSTSCRIPT_FIGURE
1002
{
1000
PSFILL
1000
Grayscale
1000
Grayscale
1070
   100
1002
}
  0
LINE
  5
19288
330
18E77
100
AcDbEntity
  8
YODOROGO
100
AcDbLine
 10
13924.80217064596
 20
989.8747482146442
 30
0.0
 11
13932.80217064596
 21
989.8747482146442
 31
0.0
1001
AUTOCAD_POSTSCRIPT_FIGURE
1002
{
1000
PSFILL
1000
Grayscale
1000
Grayscale
1070
   100
1002
}
  0
LINE
  5
19289
330
18E77
100
AcDbEntity
  8
YODOROGO
100
AcDbLine
 10
13924.80217064596
 20
977.8747482146435
 30
0.0
 11
13924.80217064596
 21
989.8747482146442
 31
0.0
1001
AUTOCAD_POSTSCRIPT_FIGURE
1002
{
1000
PSFILL
1000
Grayscale
1000
Grayscale
1070
   100
1002
}
  0
LINE
  5
1928A
330
18E77
100
AcDbEntity
  8
YODOROGO
100
AcDbLine
 10
13908.80217064596
 20
977.8747482146435
 30
0.0
 11
13924.80217064596
 21
977.8747482146435
 31
0.0
1001
AUTOCAD_POSTSCRIPT_FIGURE
1002
{
1000
PSFILL
1000
Grayscale
1000
Grayscale
1070
   100
1002
}
  0
LINE
  5
1928B
330
18E77
100
AcDbEntity
  8
YODOROGO
100
AcDbLine
 10
13908.80217064596
 20
989.8747482146442
 30
0.0
 11
13908.80217064596
 21
977.8747482146435
 31
0.0
1001
AUTOCAD_POSTSCRIPT_FIGURE
1002
{
1000
PSFILL
1000
Grayscale
1000
Grayscale
1070
   100
1002
}
  0
LINE
  5
1928C
330
18E77
100
AcDbEntity
  8
YODOROGO
100
AcDbLine
 10
13900.80217064596
 20
989.8747482146442
 30
0.0
 11
13908.80217064596
 21
989.8747482146442
 31
0.0
1001
AUTOCAD_POSTSCRIPT_FIGURE
1002
{
1000
PSFILL
1000
Grayscale
1000
Grayscale
1070
   100
1002
}
  0
LINE
  5
1928D
330
18E77
100
AcDbEntity
  8
YODOROGO
100
AcDbLine
 10
13900.80217064596
 20
977.8747482146435
 30
0.0
 11
13900.80217064596
 21
989.8747482146442
 31
0.0
1001
AUTOCAD_POSTSCRIPT_FIGURE
1002
{
1000
PSFILL
1000
Grayscale
1000
Grayscale
1070
   100
1002
}
  0
LINE
  5
1928E
330
18E77
100
AcDbEntity
  8
YODOROGO
100
AcDbLine
 10
13888.80217064596
 20
977.8747482146435
 30
0.0
 11
13900.80217064596
 21
977.8747482146435
 31
0.0
1001
AUTOCAD_POSTSCRIPT_FIGURE
1002
{
1000
PSFILL
1000
Grayscale
1000
Grayscale
1070
   100
1002
}
  0
LINE
  5
1928F
330
18E77
100
AcDbEntity
  8
YODOROGO
100
AcDbLine
 10
13888.80217064596
 20
969.8747482146441
 30
0.0
 11
13888.80217064596
 21
977.8747482146435
 31
0.0
1001
AUTOCAD_POSTSCRIPT_FIGURE
1002
{
1000
PSFILL
1000
Grayscale
1000
Grayscale
1070
   100
1002
}
  0
LINE
  5
19290
330
18E77
100
AcDbEntity
  8
YODOROGO
100
AcDbLine
 10
13900.80217064596
 20
969.8747482146441
 30
0.0
 11
13888.80217064596
 21
969.8747482146441
 31
0.0
1001
AUTOCAD_POSTSCRIPT_FIGURE
1002
{
1000
PSFILL
1000
Grayscale
1000
Grayscale
1070
   100
1002
}
  0
LINE
  5
19291
330
18E77
100
AcDbEntity
  8
YODOROGO
100
AcDbLine
 10
13900.80217064596
 20
957.3932903968525
 30
0.0
 11
13900.80217064596
 21
969.8747482146441
 31
0.0
1001
AUTOCAD_POSTSCRIPT_FIGURE
1002
{
1000
PSFILL
1000
Grayscale
1000
Grayscale
1070
   100
1002
}
  0
LINE
  5
19292
330
18E77
100
AcDbEntity
  8
YODOROGO
100
AcDbLine
 10
13888.80217064596
 20
929.8883739758355
 30
0.0
 11
13900.80217064596
 21
957.3932903968525
 31
0.0
1001
AUTOCAD_POSTSCRIPT_FIGURE
1002
{
1000
PSFILL
1000
Grayscale
1000
Grayscale
1070
   100
1002
}
  0
LINE
  5
19293
330
18E77
100
AcDbEntity
  8
YODOROGO
100
AcDbLine
 10
13888.80217064596
 20
921.8883739758362
 30
0.0
 11
13888.80217064596
 21
929.8883739758355
 31
0.0
1001
AUTOCAD_POSTSCRIPT_FIGURE
1002
{
1000
PSFILL
1000
Grayscale
1000
Grayscale
1070
   100
1002
}
  0
LINE
  5
19294
330
18E77
100
AcDbEntity
  8
YODOROGO
100
AcDbLine
 10
14128.80217064596
 20
933.8747482146439
 30
0.0
 11
14200.80217064594
 21
912.4388128201532
 31
0.0
1001
AUTOCAD_POSTSCRIPT_FIGURE
1002
{
1000
PSFILL
1000
Grayscale
1000
Grayscale
1070
   100
1002
}
  0
LINE
  5
19295
330
18E77
100
AcDbEntity
  8
YODOROGO
100
AcDbLine
 10
14200.80217064594
 20
876.4388128201531
 30
0.0
 11
14128.80217064596
 21
897.8747482146435
 31
0.0
1001
AUTOCAD_POSTSCRIPT_FIGURE
1002
{
1000
PSFILL
1000
Grayscale
1000
Grayscale
1070
   100
1002
}
  0
LINE
  5
19296
330
18E77
100
AcDbEntity
  8
YODOROGO
100
AcDbLine
 10
14200.80217064594
 20
992.4388128201531
 30
0.0
 11
14128.80217064596
 21
1013.874748214644
 31
0.0
1001
AUTOCAD_POSTSCRIPT_FIGURE
1002
{
1000
PSFILL
1000
Grayscale
1000
Grayscale
1070
   100
1002
}
  0
LINE
  5
19297
330
18E77
100
AcDbEntity
  8
YODOROGO
100
AcDbLine
 10
14128.80217064596
 20
979.874748214644
 30
0.0
 11
14200.80217064594
 21
958.4388128201537
 31
0.0
1001
AUTOCAD_POSTSCRIPT_FIGURE
1002
{
1000
PSFILL
1000
Grayscale
1000
Grayscale
1070
   100
1002
}
  0
LINE
  5
19298
330
18E77
100
AcDbEntity
  8
YODOROGO
100
AcDbLine
 10
14128.80217064596
 20
897.8747482146435
 30
0.0
 11
14128.80217064596
 21
933.8747482146439
 31
0.0
1001
AUTOCAD_POSTSCRIPT_FIGURE
1002
{
1000
PSFILL
1000
Grayscale
1000
Grayscale
1070
   100
1002
}
  0
LINE
  5
19299
330
18E77
100
AcDbEntity
  8
YODOROGO
100
AcDbLine
 10
14128.80217064596
 20
1013.874748214644
 30
0.0
 11
14128.80217064596
 21
979.874748214644
 31
0.0
1001
AUTOCAD_POSTSCRIPT_FIGURE
1002
{
1000
PSFILL
1000
Grayscale
1000
Grayscale
1070
   100
1002
}
  0
LINE
  5
1929A
330
18E77
100
AcDbEntity
  8
YODOROGO
100
AcDbLine
 10
14040.11816010337
 20
969.8747482146441
 30
0.0
 11
14064.80217064595
 21
873.8747482146434
 31
0.0
1001
AUTOCAD_POSTSCRIPT_FIGURE
1002
{
1000
PSFILL
1000
Grayscale
1000
Grayscale
1070
   100
1002
}
  0
LINE
  5
1929B
330
18E77
100
AcDbEntity
  8
YODOROGO
100
AcDbLine
 10
13988.80217064596
 20
969.8747482146441
 30
0.0
 11
14040.11816010337
 21
969.8747482146441
 31
0.0
1001
AUTOCAD_POSTSCRIPT_FIGURE
1002
{
1000
PSFILL
1000
Grayscale
1000
Grayscale
1070
   100
1002
}
  0
LINE
  5
1929C
330
18E77
100
AcDbEntity
  8
YODOROGO
100
AcDbLine
 10
13988.80217064596
 20
977.8747482146435
 30
0.0
 11
13988.80217064596
 21
969.8747482146441
 31
0.0
1001
AUTOCAD_POSTSCRIPT_FIGURE
1002
{
1000
PSFILL
1000
Grayscale
1000
Grayscale
1070
   100
1002
}
  0
LINE
  5
1929D
330
18E77
100
AcDbEntity
  8
YODOROGO
100
AcDbLine
 10
14038.30343925995
 20
977.8747482146435
 30
0.0
 11
13988.80217064596
 21
977.8747482146435
 31
0.0
1001
AUTOCAD_POSTSCRIPT_FIGURE
1002
{
1000
PSFILL
1000
Grayscale
1000
Grayscale
1070
   100
1002
}
  0
LINE
  5
1929E
330
18E77
100
AcDbEntity
  8
YODOROGO
100
AcDbLine
 10
14035.58135799485
 20
989.8747482146442
 30
0.0
 11
14038.30343925995
 21
977.8747482146435
 31
0.0
1001
AUTOCAD_POSTSCRIPT_FIGURE
1002
{
1000
PSFILL
1000
Grayscale
1000
Grayscale
1070
   100
1002
}
  0
LINE
  5
1929F
330
18E77
100
AcDbEntity
  8
YODOROGO
100
AcDbLine
 10
14045.58135799485
 20
989.8747482146442
 30
0.0
 11
14035.58135799485
 21
989.8747482146442
 31
0.0
1001
AUTOCAD_POSTSCRIPT_FIGURE
1002
{
1000
PSFILL
1000
Grayscale
1000
Grayscale
1070
   100
1002
}
  0
LINE
  5
192A0
330
18E77
100
AcDbEntity
  8
YODOROGO
100
AcDbLine
 10
14047.90343925997
 20
977.8747482146435
 30
0.0
 11
14045.58135799485
 21
989.8747482146442
 31
0.0
1001
AUTOCAD_POSTSCRIPT_FIGURE
1002
{
1000
PSFILL
1000
Grayscale
1000
Grayscale
1070
   100
1002
}
  0
LINE
  5
192A1
330
18E77
100
AcDbEntity
  8
YODOROGO
100
AcDbLine
 10
14060.80217064596
 20
977.8747482146435
 30
0.0
 11
14047.90343925997
 21
977.8747482146435
 31
0.0
1001
AUTOCAD_POSTSCRIPT_FIGURE
1002
{
1000
PSFILL
1000
Grayscale
1000
Grayscale
1070
   100
1002
}
  0
LINE
  5
192A2
330
18E77
100
AcDbEntity
  8
YODOROGO
100
AcDbLine
 10
14060.80217064596
 20
989.8747482146442
 30
0.0
 11
14060.80217064596
 21
977.8747482146435
 31
0.0
1001
AUTOCAD_POSTSCRIPT_FIGURE
1002
{
1000
PSFILL
1000
Grayscale
1000
Grayscale
1070
   100
1002
}
  0
LINE
  5
192A3
330
18E77
100
AcDbEntity
  8
YODOROGO
100
AcDbLine
 10
14068.80217064596
 20
989.8747482146442
 30
0.0
 11
14060.80217064596
 21
989.8747482146442
 31
0.0
1001
AUTOCAD_POSTSCRIPT_FIGURE
1002
{
1000
PSFILL
1000
Grayscale
1000
Grayscale
1070
   100
1002
}
  0
LINE
  5
192A4
330
18E77
100
AcDbEntity
  8
YODOROGO
100
AcDbLine
 10
14068.80217064596
 20
977.8747482146435
 30
0.0
 11
14068.80217064596
 21
989.8747482146442
 31
0.0
1001
AUTOCAD_POSTSCRIPT_FIGURE
1002
{
1000
PSFILL
1000
Grayscale
1000
Grayscale
1070
   100
1002
}
  0
LINE
  5
192A5
330
18E77
100
AcDbEntity
  8
YODOROGO
100
AcDbLine
 10
14068.80217064596
 20
969.8747482146441
 30
0.0
 11
14068.80217064596
 21
977.8747482146435
 31
0.0
1001
AUTOCAD_POSTSCRIPT_FIGURE
1002
{
1000
PSFILL
1000
Grayscale
1000
Grayscale
1070
   100
1002
}
  0
LINE
  5
192A6
330
18E77
100
AcDbEntity
  8
YODOROGO
100
AcDbLine
 10
14049.45149343671
 20
969.8747482146441
 30
0.0
 11
14068.80217064596
 21
969.8747482146441
 31
0.0
1001
AUTOCAD_POSTSCRIPT_FIGURE
1002
{
1000
PSFILL
1000
Grayscale
1000
Grayscale
1070
   100
1002
}
  0
LINE
  5
192A7
330
18E77
100
AcDbEntity
  8
YODOROGO
100
AcDbLine
 10
14068.80217064596
 20
873.8747482146434
 30
0.0
 11
14049.45149343671
 21
969.8747482146441
 31
0.0
1001
AUTOCAD_POSTSCRIPT_FIGURE
1002
{
1000
PSFILL
1000
Grayscale
1000
Grayscale
1070
   100
1002
}
  0
LINE
  5
192A8
330
18E77
100
AcDbEntity
  8
YODOROGO
100
AcDbLine
 10
14064.80217064595
 20
873.8747482146434
 30
0.0
 11
14068.80217064596
 21
873.8747482146434
 31
0.0
1001
AUTOCAD_POSTSCRIPT_FIGURE
1002
{
1000
PSFILL
1000
Grayscale
1000
Grayscale
1070
   100
1002
}
  0
LINE
  5
192A9
330
18E77
100
AcDbEntity
  8
YODOROGO
100
AcDbLine
 10
14039.03460996689
 20
887.8703881493972
 30
0.0
 11
13988.80217064596
 21
873.8747482146434
 31
0.0
  0
LINE
  5
192AA
330
18E77
100
AcDbEntity
  8
YODOROGO
100
AcDbLine
 10
14039.03460996689
 20
899.3344897645364
 30
0.0
 11
14039.03460996689
 21
887.8703881493972
 31
0.0
  0
LINE
  5
192AB
330
18E77
100
AcDbEntity
  8
YODOROGO
100
AcDbLine
 10
14016.91839030643
 20
893.4084665668834
 30
0.0
 11
14039.03460996689
 21
899.3344897645364
 31
0.0
  0
LINE
  5
192AC
330
18E77
100
AcDbEntity
  8
YODOROGO
100
AcDbLine
 10
14016.91839030643
 20
936.2841744681499
 30
0.0
 11
14016.91839030643
 21
893.4084665668834
 31
0.0
  0
LINE
  5
192AD
330
18E77
100
AcDbEntity
  8
YODOROGO
100
AcDbLine
 10
14039.03460996689
 20
936.2841744681499
 30
0.0
 11
14016.91839030643
 21
936.2841744681499
 31
0.0
  0
LINE
  5
192AE
330
18E77
100
AcDbEntity
  8
YODOROGO
100
AcDbLine
 10
14039.03460996689
 20
946.2841744681487
 30
0.0
 11
14039.03460996689
 21
936.2841744681499
 31
0.0
  0
LINE
  5
192AF
330
18E77
100
AcDbEntity
  8
YODOROGO
100
AcDbLine
 10
13988.80217064596
 20
946.2841744681487
 30
0.0
 11
14039.03460996689
 21
946.2841744681487
 31
0.0
  0
LINE
  5
192B0
330
18E77
100
AcDbEntity
  8
YODOROGO
100
AcDbLine
 10
13988.80217064596
 20
936.2841744681499
 30
0.0
 11
13988.80217064596
 21
946.2841744681487
 31
0.0
  0
LINE
  5
192B1
330
18E77
100
AcDbEntity
  8
YODOROGO
100
AcDbLine
 10
14010.91839030643
 20
936.2841744681499
 30
0.0
 11
13988.80217064596
 21
936.2841744681499
 31
0.0
  0
LINE
  5
192B2
330
18E77
100
AcDbEntity
  8
YODOROGO
100
AcDbLine
 10
14010.91839030643
 20
892.3366697971587
 30
0.0
 11
14010.91839030643
 21
936.2841744681499
 31
0.0
  0
LINE
  5
192B3
330
18E77
100
AcDbEntity
  8
YODOROGO
100
AcDbLine
 10
13988.80217064596
 20
885.8747482146432
 30
0.0
 11
14010.91839030643
 21
892.3366697971587
 31
0.0
  0
LINE
  5
192B4
330
18E77
100
AcDbEntity
  8
YODOROGO
100
AcDbLine
 10
13988.80217064596
 20
873.8747482146434
 30
0.0
 11
13988.80217064596
 21
885.8747482146432
 31
0.0
  0
LINE
  5
192B5
330
18E77
100
AcDbEntity
  8
YODOROGO
100
AcDbLine
 10
14000.80217064596
 20
853.874748214644
 30
0.0
 11
14000.80217064596
 21
841.8747482146434
 31
0.0
  0
LINE
  5
192B6
330
18E77
100
AcDbEntity
  8
YODOROGO
100
AcDbLine
 10
14000.80217064596
 20
853.874748214644
 30
0.0
 11
14000.80217064596
 21
853.874748214644
 31
0.0
  0
LINE
  5
192B7
330
18E77
100
AcDbEntity
  8
YODOROGO
100
AcDbLine
 10
14008.80217064596
 20
853.874748214644
 30
0.0
 11
14000.80217064596
 21
853.874748214644
 31
0.0
  0
LINE
  5
192B8
330
18E77
100
AcDbEntity
  8
YODOROGO
100
AcDbLine
 10
14008.80217064596
 20
841.8747482146434
 30
0.0
 11
14008.80217064596
 21
853.874748214644
 31
0.0
  0
LINE
  5
192B9
330
18E77
100
AcDbEntity
  8
YODOROGO
100
AcDbLine
 10
14020.45660200844
 20
841.8747482146434
 30
0.0
 11
14008.80217064596
 21
841.8747482146434
 31
0.0
  0
LINE
  5
192BA
330
18E77
100
AcDbEntity
  8
YODOROGO
100
AcDbLine
 10
14000.80217064596
 20
841.8747482146434
 30
0.0
 11
13988.80217064596
 21
841.8747482146434
 31
0.0
  0
LINE
  5
192BB
330
18E77
100
AcDbEntity
  8
YODOROGO
100
AcDbLine
 10
14041.06776011546
 20
853.874748214644
 30
0.0
 11
14049.06776011545
 21
853.874748214644
 31
0.0
1001
AUTOCAD_POSTSCRIPT_FIGURE
1002
{
1000
PSFILL
1000
Grayscale
1000
Grayscale
1070
   100
1002
}
  0
LINE
  5
192BC
330
18E77
100
AcDbEntity
  8
YODOROGO
100
AcDbLine
 10
14200.80217064594
 20
912.4388128201532
 30
0.0
 11
14200.80217064594
 21
876.4388128201531
 31
0.0
1001
AUTOCAD_POSTSCRIPT_FIGURE
1002
{
1000
PSFILL
1000
Grayscale
1000
Grayscale
1070
   100
1002
}
  0
LINE
  5
192BD
330
18E77
100
AcDbEntity
  8
YODOROGO
100
AcDbLine
 10
14200.80217064594
 20
958.4388128201537
 30
0.0
 11
14200.80217064594
 21
992.4388128201531
 31
0.0
1001
AUTOCAD_POSTSCRIPT_FIGURE
1002
{
1000
PSFILL
1000
Grayscale
1000
Grayscale
1070
   100
1002
}
  0
LINE
  5
192BE
330
18E77
100
AcDbEntity
  8
YODOROGO
100
AcDbLine
 10
14216.80217064594
 20
909.8747482146439
 30
0.0
 11
14216.80217064594
 21
873.8747482146449
 31
0.0
  0
LINE
  5
192BF
330
18E77
100
AcDbEntity
  8
YODOROGO
100
AcDbLine
 10
14248.80217064594
 20
853.874748214644
 30
0.0
 11
14216.80217064594
 21
853.874748214644
 31
0.0
  0
LINE
  5
192C0
330
18E77
100
AcDbEntity
  8
YODOROGO
100
AcDbLine
 10
14216.80217064594
 20
873.8747482146449
 30
0.0
 11
14292.80217064596
 21
873.8747482146449
 31
0.0
  0
LINE
  5
192C1
330
18E77
100
AcDbEntity
  8
YODOROGO
100
AcDbLine
 10
14248.80217064594
 20
933.8747482146439
 30
0.0
 11
14216.80217064594
 21
933.8747482146439
 31
0.0
  0
LINE
  5
192C2
330
18E77
100
AcDbEntity
  8
YODOROGO
100
AcDbLine
 10
14248.80217064594
 20
961.8747482146432
 30
0.0
 11
14248.80217064594
 21
933.8747482146439
 31
0.0
  0
LINE
  5
192C3
330
18E77
100
AcDbEntity
  8
YODOROGO
100
AcDbLine
 10
14292.80217064596
 20
993.8747482146439
 30
0.0
 11
14292.80217064596
 21
1013.874748214644
 31
0.0
  0
LINE
  5
192C4
330
18E77
100
AcDbEntity
  8
YODOROGO
100
AcDbLine
 10
14216.80217064594
 20
993.8747482146439
 30
0.0
 11
14292.80217064596
 21
993.8747482146439
 31
0.0
  0
LINE
  5
192C5
330
18E77
100
AcDbEntity
  8
YODOROGO
100
AcDbLine
 10
14216.80217064594
 20
933.8747482146439
 30
0.0
 11
14216.80217064594
 21
993.8747482146439
 31
0.0
  0
LINE
  5
192C6
330
18E77
100
AcDbEntity
  8
YODOROGO
100
AcDbLine
 10
14500.80217064594
 20
1013.874748214644
 30
0.0
 11
14500.80217064594
 21
809.8747482146441
 31
0.0
  0
LINE
  5
192C7
330
18E77
100
AcDbEntity
  8
YODOROGO
100
AcDbLine
 10
14536.80217064596
 20
789.8747482146441
 30
0.0
 11
14536.80217064596
 21
1013.874748214644
 31
0.0
  0
LINE
  5
192C8
330
18E77
100
AcDbEntity
  8
YODOROGO
100
AcDbLine
 10
14630.80217064596
 20
745.8747482146431
 30
0.0
 11
14630.80217064596
 21
1003.874748214644
 31
0.0
  0
LINE
  5
192C9
330
18E77
100
AcDbEntity
  8
YODOROGO
100
AcDbLine
 10
14598.80217064596
 20
1003.874748214644
 30
0.0
 11
14598.80217064596
 21
745.8747482146431
 31
0.0
  0
LINE
  5
192CA
330
18E77
100
AcDbEntity
  8
YODOROGO
100
AcDbLine
 10
14692.80217064596
 20
1013.874748214644
 30
0.0
 11
14692.80217064596
 21
713.8747482146436
 31
0.0
  0
LINE
  5
192CB
330
18E77
100
AcDbEntity
  8
YODOROGO
100
AcDbLine
 10
14728.80217064596
 20
713.8747482146436
 30
0.0
 11
14728.80217064596
 21
1013.874748214644
 31
0.0
  0
LINE
  5
192CC
330
18E77
100
AcDbEntity
  8
YODOROGO
100
AcDbLine
 10
14328.80217064594
 20
833.8747482146439
 30
0.0
 11
14328.80217064594
 21
873.8747482146449
 31
0.0
  0
LINE
  5
192CD
330
18E77
100
AcDbEntity
  8
YODOROGO
100
AcDbLine
 10
14942.80217064596
 20
853.874748214644
 30
0.0
 11
14942.80217064596
 21
833.8747482146439
 31
0.0
  0
LINE
  5
192CE
330
18E77
100
AcDbEntity
  8
YODOROGO
100
AcDbLine
 10
14942.80217064596
 20
853.874748214644
 30
0.0
 11
14942.80217064596
 21
833.8747482146439
 31
0.0
  0
ARC
  5
192CF
330
18E77
100
AcDbEntity
  8
YODOROGO
100
AcDbCircle
 10
14453.45578809342
 20
809.1089322211363
 30
0.0
 40
47.35257558937082
100
AcDbArc
 50
274.052441629071
 51
0.9266642149310712
  0
ARC
  5
192D0
330
18E77
100
AcDbEntity
  8
YODOROGO
100
AcDbCircle
 10
14454.5930853599
 20
796.30536430522
 30
0.0
 40
82.46021178042756
100
AcDbArc
 50
271.5351210653777
 51
355.5272775058505
  0
LINE
  5
192D1
330
18E77
100
AcDbEntity
  8
YODOROGO
100
AcDbLine
 10
14456.80217064596
 20
761.8747482146434
 30
0.0
 11
14456.80217064596
 21
713.8747482146436
 31
0.0
  0
LINE
  5
192D2
330
18E77
100
AcDbEntity
  8
YODOROGO
100
AcDbLine
 10
14396.80217064594
 20
833.8747482146439
 30
0.0
 11
14328.80217064594
 21
833.8747482146439
 31
0.0
  0
LINE
  5
192D3
330
18E77
100
AcDbEntity
  8
YODOROGO
100
AcDbLine
 10
14396.80217064594
 20
801.8747482146444
 30
0.0
 11
14396.80217064594
 21
833.8747482146439
 31
0.0
  0
LINE
  5
192D4
330
18E77
100
AcDbEntity
  8
YODOROGO
100
AcDbLine
 10
14328.80217064594
 20
801.8747482146444
 30
0.0
 11
14396.80217064594
 21
801.8747482146444
 31
0.0
  0
LINE
  5
192D5
330
18E77
100
AcDbEntity
  8
YODOROGO
100
AcDbLine
 10
14328.80217064594
 20
761.8747482146434
 30
0.0
 11
14328.80217064594
 21
801.8747482146444
 31
0.0
  0
LINE
  5
192D6
330
18E77
100
AcDbEntity
  8
YODOROGO
100
AcDbLine
 10
14396.80217064594
 20
761.8747482146434
 30
0.0
 11
14328.80217064594
 21
761.8747482146434
 31
0.0
  0
LINE
  5
192D7
330
18E77
100
AcDbEntity
  8
YODOROGO
100
AcDbLine
 10
14396.80217064594
 20
713.8747482146436
 30
0.0
 11
14396.80217064594
 21
761.8747482146434
 31
0.0
  0
LINE
  5
192D8
330
18E77
100
AcDbEntity
  8
YODOROGO
100
AcDbLine
 10
14598.80217064596
 20
745.8747482146431
 30
0.0
 11
14630.80217064596
 21
745.8747482146431
 31
0.0
  0
LINE
  5
192D9
330
18E77
100
AcDbEntity
  8
YODOROGO
100
AcDbLine
 10
14692.80217064596
 20
713.8747482146436
 30
0.0
 11
14728.80217064596
 21
713.8747482146436
 31
0.0
  0
LINE
  5
192DA
330
18E77
100
AcDbEntity
  8
YODOROGO
100
AcDbLine
 10
14868.80217064596
 20
764.2207260852818
 30
0.0
 11
14868.80217064596
 21
713.8747482146436
 31
0.0
  0
LINE
  5
192DB
330
18E77
100
AcDbEntity
  8
YODOROGO
100
AcDbLine
 10
14808.80217064596
 20
713.8747482146436
 30
0.0
 11
14868.80217064596
 21
764.2207260852818
 31
0.0
  0
LINE
  5
192DC
330
18E77
100
AcDbEntity
  8
YODOROGO
100
AcDbLine
 10
14808.80217064596
 20
773.874748214644
 30
0.0
 11
14808.80217064596
 21
713.8747482146436
 31
0.0
  0
LINE
  5
192DD
330
18E77
100
AcDbEntity
  8
YODOROGO
100
AcDbLine
 10
14856.47231434973
 20
813.8747482146435
 30
0.0
 11
14808.80217064596
 21
773.874748214644
 31
0.0
  0
LINE
  5
192DE
330
18E77
100
AcDbEntity
  8
YODOROGO
100
AcDbLine
 10
14808.80217064596
 20
813.8747482146435
 30
0.0
 11
14856.47231434973
 21
813.8747482146435
 31
0.0
  0
LINE
  5
192DF
330
18E77
100
AcDbEntity
  8
YODOROGO
100
AcDbLine
 10
14808.80217064596
 20
833.8747482146439
 30
0.0
 11
14808.80217064596
 21
813.8747482146435
 31
0.0
  0
LINE
  5
192E0
330
18E77
100
AcDbEntity
  8
YODOROGO
100
AcDbLine
 10
14942.80217064596
 20
833.8747482146439
 30
0.0
 11
14808.80217064596
 21
833.8747482146439
 31
0.0
  0
LINE
  5
192E1
330
18E77
100
AcDbEntity
  8
YODOROGO
100
AcDbLine
 10
14958.80217064596
 20
813.8747482146435
 30
0.0
 11
14888.80217064596
 21
813.8747482146435
 31
0.0
  0
LINE
  5
192E2
330
18E77
100
AcDbEntity
  8
YODOROGO
100
AcDbLine
 10
14888.80217064596
 20
781.0027187088283
 30
0.0
 11
14885.70493649264
 21
778.403830673117
 31
0.0
  0
LINE
  5
192E3
330
18E77
100
AcDbEntity
  8
YODOROGO
100
AcDbLine
 10
14888.80217064596
 20
813.8747482146435
 30
0.0
 11
14888.80217064596
 21
781.0027187088283
 31
0.0
  0
LINE
  5
192E4
330
18E77
100
AcDbEntity
  8
YODOROGO
100
AcDbLine
 10
14868.80217064596
 20
764.2207260852818
 30
0.0
 11
14868.80217064596
 21
713.8747482146436
 31
0.0
  0
LINE
  5
192E5
330
18E77
100
AcDbEntity
  8
YODOROGO
100
AcDbLine
 10
14808.80217064596
 20
713.8747482146436
 30
0.0
 11
14868.80217064596
 21
764.2207260852818
 31
0.0
  0
LINE
  5
192E6
330
18E77
100
AcDbEntity
  8
YODOROGO
100
AcDbLine
 10
14808.80217064596
 20
773.874748214644
 30
0.0
 11
14808.80217064596
 21
713.8747482146436
 31
0.0
  0
LINE
  5
192E7
330
18E77
100
AcDbEntity
  8
YODOROGO
100
AcDbLine
 10
14856.47231434973
 20
813.8747482146435
 30
0.0
 11
14808.80217064596
 21
773.874748214644
 31
0.0
  0
LINE
  5
192E8
330
18E77
100
AcDbEntity
  8
YODOROGO
100
AcDbLine
 10
14808.80217064596
 20
813.8747482146435
 30
0.0
 11
14856.47231434973
 21
813.8747482146435
 31
0.0
  0
LINE
  5
192E9
330
18E77
100
AcDbEntity
  8
YODOROGO
100
AcDbLine
 10
14808.80217064596
 20
833.8747482146439
 30
0.0
 11
14808.80217064596
 21
813.8747482146435
 31
0.0
  0
LINE
  5
192EA
330
18E77
100
AcDbEntity
  8
YODOROGO
100
AcDbLine
 10
14942.80217064596
 20
833.8747482146439
 30
0.0
 11
14808.80217064596
 21
833.8747482146439
 31
0.0
  0
LINE
  5
192EB
330
18E77
100
AcDbEntity
  8
YODOROGO
100
AcDbLine
 10
14396.80217064594
 20
873.8747482146449
 30
0.0
 11
14396.80217064594
 21
909.8747482146439
 31
0.0
  0
LINE
  5
192EC
330
18E77
100
AcDbEntity
  8
YODOROGO
100
AcDbLine
 10
14328.80217064594
 20
873.8747482146449
 30
0.0
 11
14396.80217064594
 21
873.8747482146449
 31
0.0
  0
LINE
  5
192ED
330
18E77
100
AcDbEntity
  8
YODOROGO
100
AcDbLine
 10
14364.80217064596
 20
933.8747482146439
 30
0.0
 11
14364.80217064596
 21
961.8747482146432
 31
0.0
  0
LINE
  5
192EE
330
18E77
100
AcDbEntity
  8
YODOROGO
100
AcDbLine
 10
14396.80217064594
 20
933.8747482146439
 30
0.0
 11
14364.80217064596
 21
933.8747482146439
 31
0.0
  0
LINE
  5
192EF
330
18E77
100
AcDbEntity
  8
YODOROGO
100
AcDbLine
 10
14396.80217064594
 20
973.8747482146434
 30
0.0
 11
14396.80217064594
 21
933.8747482146439
 31
0.0
  0
ARC
  5
192F0
330
18E77
100
AcDbEntity
  8
YODOROGO
100
AcDbCircle
 10
14376.80217064594
 20
973.8747482146434
 30
0.0
 40
20.0
100
AcDbArc
 50
0.0
 51
90.0
  0
LINE
  5
192F1
330
18E77
100
AcDbEntity
  8
YODOROGO
100
AcDbLine
 10
14328.80217064596
 20
993.8747482146439
 30
0.0
 11
14376.80217064594
 21
993.8747482146439
 31
0.0
  0
LINE
  5
192F2
330
18E77
100
AcDbEntity
  8
YODOROGO
100
AcDbLine
 10
14328.80217064596
 20
1013.874748214644
 30
0.0
 11
14328.80217064596
 21
993.8747482146439
 31
0.0
  0
LINE
  5
192F3
330
18E77
100
AcDbEntity
  8
YODOROGO
100
AcDbLine
 10
14536.80217064596
 20
1013.874748214644
 30
0.0
 11
14500.80217064594
 21
1013.874748214644
 31
0.0
  0
LINE
  5
192F4
330
18E77
100
AcDbEntity
  8
YODOROGO
100
AcDbLine
 10
14630.80217064596
 20
1003.874748214644
 30
0.0
 11
14598.80217064596
 21
1003.874748214644
 31
0.0
  0
LINE
  5
192F5
330
18E77
100
AcDbEntity
  8
YODOROGO
100
AcDbLine
 10
14728.80217064596
 20
1013.874748214644
 30
0.0
 11
14692.80217064596
 21
1013.874748214644
 31
0.0
  0
LINE
  5
192F6
330
18E77
100
AcDbEntity
  8
YODOROGO
100
AcDbLine
 10
14836.80217064596
 20
853.874748214644
 30
0.0
 11
14836.80217064596
 21
885.8747482146441
 31
0.0
1001
AUTOCAD_POSTSCRIPT_FIGURE
1002
{
1000
PSFILL
1000
Grayscale
1000
Grayscale
1070
    25
1002
}
  0
LINE
  5
192F7
330
18E77
100
AcDbEntity
  8
YODOROGO
100
AcDbLine
 10
14808.80217064596
 20
853.874748214644
 30
0.0
 11
14836.80217064596
 21
853.874748214644
 31
0.0
1001
AUTOCAD_POSTSCRIPT_FIGURE
1002
{
1000
PSFILL
1000
Grayscale
1000
Grayscale
1070
    25
1002
}
  0
LINE
  5
192F8
330
18E77
100
AcDbEntity
  8
YODOROGO
100
AcDbLine
 10
14808.80217064596
 20
909.8747482146439
 30
0.0
 11
14808.80217064596
 21
853.874748214644
 31
0.0
1001
AUTOCAD_POSTSCRIPT_FIGURE
1002
{
1000
PSFILL
1000
Grayscale
1000
Grayscale
1070
    25
1002
}
  0
LINE
  5
192F9
330
18E77
100
AcDbEntity
  8
YODOROGO
100
AcDbLine
 10
14882.80217064596
 20
909.8747482146439
 30
0.0
 11
14808.80217064596
 21
909.8747482146439
 31
0.0
1001
AUTOCAD_POSTSCRIPT_FIGURE
1002
{
1000
PSFILL
1000
Grayscale
1000
Grayscale
1070
    25
1002
}
  0
LINE
  5
192FA
330
18E77
100
AcDbEntity
  8
YODOROGO
100
AcDbLine
 10
14882.80217064596
 20
929.874748214644
 30
0.0
 11
14882.80217064596
 21
909.8747482146439
 31
0.0
1001
AUTOCAD_POSTSCRIPT_FIGURE
1002
{
1000
PSFILL
1000
Grayscale
1000
Grayscale
1070
    25
1002
}
  0
LINE
  5
192FB
330
18E77
100
AcDbEntity
  8
YODOROGO
100
AcDbLine
 10
14808.80217064596
 20
929.874748214644
 30
0.0
 11
14882.80217064596
 21
929.874748214644
 31
0.0
1001
AUTOCAD_POSTSCRIPT_FIGURE
1002
{
1000
PSFILL
1000
Grayscale
1000
Grayscale
1070
    25
1002
}
  0
LINE
  5
192FC
330
18E77
100
AcDbEntity
  8
YODOROGO
100
AcDbLine
 10
14808.80217064596
 20
953.874748214644
 30
0.0
 11
14808.80217064596
 21
929.874748214644
 31
0.0
1001
AUTOCAD_POSTSCRIPT_FIGURE
1002
{
1000
PSFILL
1000
Grayscale
1000
Grayscale
1070
    25
1002
}
  0
LINE
  5
192FD
330
18E77
100
AcDbEntity
  8
YODOROGO
100
AcDbLine
 10
14882.80217064596
 20
953.874748214644
 30
0.0
 11
14808.80217064596
 21
953.874748214644
 31
0.0
1001
AUTOCAD_POSTSCRIPT_FIGURE
1002
{
1000
PSFILL
1000
Grayscale
1000
Grayscale
1070
    25
1002
}
  0
LINE
  5
192FE
330
18E77
100
AcDbEntity
  8
YODOROGO
100
AcDbLine
 10
14882.80217064596
 20
973.8747482146434
 30
0.0
 11
14882.80217064596
 21
953.874748214644
 31
0.0
1001
AUTOCAD_POSTSCRIPT_FIGURE
1002
{
1000
PSFILL
1000
Grayscale
1000
Grayscale
1070
    25
1002
}
  0
LINE
  5
192FF
330
18E77
100
AcDbEntity
  8
YODOROGO
100
AcDbLine
 10
14808.80217064596
 20
973.8747482146434
 30
0.0
 11
14882.80217064596
 21
973.8747482146434
 31
0.0
1001
AUTOCAD_POSTSCRIPT_FIGURE
1002
{
1000
PSFILL
1000
Grayscale
1000
Grayscale
1070
    25
1002
}
  0
LINE
  5
19300
330
18E77
100
AcDbEntity
  8
YODOROGO
100
AcDbLine
 10
14808.80217064596
 20
1013.874748214644
 30
0.0
 11
14808.80217064596
 21
973.8747482146434
 31
0.0
1001
AUTOCAD_POSTSCRIPT_FIGURE
1002
{
1000
PSFILL
1000
Grayscale
1000
Grayscale
1070
    25
1002
}
  0
LINE
  5
19301
330
18E77
100
AcDbEntity
  8
YODOROGO
100
AcDbLine
 10
14832.80217064596
 20
1013.874748214644
 30
0.0
 11
14808.80217064596
 21
1013.874748214644
 31
0.0
1001
AUTOCAD_POSTSCRIPT_FIGURE
1002
{
1000
PSFILL
1000
Grayscale
1000
Grayscale
1070
    25
1002
}
  0
LINE
  5
19302
330
18E77
100
AcDbEntity
  8
YODOROGO
100
AcDbLine
 10
14832.80217064596
 20
997.8747482146435
 30
0.0
 11
14832.80217064596
 21
1013.874748214644
 31
0.0
1001
AUTOCAD_POSTSCRIPT_FIGURE
1002
{
1000
PSFILL
1000
Grayscale
1000
Grayscale
1070
    25
1002
}
  0
LINE
  5
19303
330
18E77
100
AcDbEntity
  8
YODOROGO
100
AcDbLine
 10
14882.80217064596
 20
997.8747482146435
 30
0.0
 11
14832.80217064596
 21
997.8747482146435
 31
0.0
1001
AUTOCAD_POSTSCRIPT_FIGURE
1002
{
1000
PSFILL
1000
Grayscale
1000
Grayscale
1070
    25
1002
}
  0
LINE
  5
19304
330
18E77
100
AcDbEntity
  8
YODOROGO
100
AcDbLine
 10
14882.80217064596
 20
1013.874748214644
 30
0.0
 11
14882.80217064596
 21
997.8747482146435
 31
0.0
1001
AUTOCAD_POSTSCRIPT_FIGURE
1002
{
1000
PSFILL
1000
Grayscale
1000
Grayscale
1070
    25
1002
}
  0
LINE
  5
19305
330
18E77
100
AcDbEntity
  8
YODOROGO
100
AcDbLine
 10
14914.80217064596
 20
1013.874748214644
 30
0.0
 11
14882.80217064596
 21
1013.874748214644
 31
0.0
1001
AUTOCAD_POSTSCRIPT_FIGURE
1002
{
1000
PSFILL
1000
Grayscale
1000
Grayscale
1070
    25
1002
}
  0
LINE
  5
19306
330
18E77
100
AcDbEntity
  8
YODOROGO
100
AcDbLine
 10
14914.80217064596
 20
997.8747482146435
 30
0.0
 11
14914.80217064596
 21
1013.874748214644
 31
0.0
1001
AUTOCAD_POSTSCRIPT_FIGURE
1002
{
1000
PSFILL
1000
Grayscale
1000
Grayscale
1070
    25
1002
}
  0
LINE
  5
19307
330
18E77
100
AcDbEntity
  8
YODOROGO
100
AcDbLine
 10
14914.80217064596
 20
953.874748214644
 30
0.0
 11
14914.80217064596
 21
973.8747482146434
 31
0.0
1001
AUTOCAD_POSTSCRIPT_FIGURE
1002
{
1000
PSFILL
1000
Grayscale
1000
Grayscale
1070
    25
1002
}
  0
LINE
  5
19308
330
18E77
100
AcDbEntity
  8
YODOROGO
100
AcDbLine
 10
14914.80217064596
 20
909.8747482146439
 30
0.0
 11
14914.80217064596
 21
929.874748214644
 31
0.0
1001
AUTOCAD_POSTSCRIPT_FIGURE
1002
{
1000
PSFILL
1000
Grayscale
1000
Grayscale
1070
    25
1002
}
  0
LINE
  5
19309
330
18E77
100
AcDbEntity
  8
YODOROGO
100
AcDbLine
 10
14960.80217064594
 20
885.8747482146441
 30
0.0
 11
14960.80217064594
 21
853.874748214644
 31
0.0
1001
AUTOCAD_POSTSCRIPT_FIGURE
1002
{
1000
PSFILL
1000
Grayscale
1000
Grayscale
1070
    25
1002
}
  0
LINE
  5
1930A
330
18E77
100
AcDbEntity
  8
YODOROGO
100
AcDbLine
 10
14914.80217064596
 20
885.8747482146441
 30
0.0
 11
14960.80217064594
 21
885.8747482146441
 31
0.0
1001
AUTOCAD_POSTSCRIPT_FIGURE
1002
{
1000
PSFILL
1000
Grayscale
1000
Grayscale
1070
    25
1002
}
  0
LINE
  5
1930B
330
18E77
100
AcDbEntity
  8
YODOROGO
100
AcDbLine
 10
14914.80217064596
 20
853.874748214644
 30
0.0
 11
14914.80217064596
 21
885.8747482146441
 31
0.0
1001
AUTOCAD_POSTSCRIPT_FIGURE
1002
{
1000
PSFILL
1000
Grayscale
1000
Grayscale
1070
    25
1002
}
  0
LINE
  5
1930C
330
18E77
100
AcDbEntity
  8
YODOROGO
100
AcDbLine
 10
14882.80217064596
 20
853.874748214644
 30
0.0
 11
14914.80217064596
 21
853.874748214644
 31
0.0
1001
AUTOCAD_POSTSCRIPT_FIGURE
1002
{
1000
PSFILL
1000
Grayscale
1000
Grayscale
1070
    25
1002
}
  0
LINE
  5
1930D
330
18E77
100
AcDbEntity
  8
YODOROGO
100
AcDbLine
 10
14882.80217064596
 20
885.8747482146441
 30
0.0
 11
14882.80217064596
 21
853.874748214644
 31
0.0
1001
AUTOCAD_POSTSCRIPT_FIGURE
1002
{
1000
PSFILL
1000
Grayscale
1000
Grayscale
1070
    25
1002
}
  0
LINE
  5
1930E
330
18E77
100
AcDbEntity
  8
YODOROGO
100
AcDbLine
 10
14836.80217064596
 20
885.8747482146441
 30
0.0
 11
14882.80217064596
 21
885.8747482146441
 31
0.0
1001
AUTOCAD_POSTSCRIPT_FIGURE
1002
{
1000
PSFILL
1000
Grayscale
1000
Grayscale
1070
    25
1002
}
  0
ARC
  5
1930F
330
18E77
100
AcDbEntity
  8
YODOROGO
100
AcDbCircle
 10
15529.75894667896
 20
801.3403687577881
 30
0.0
 40
89.11064055536078
100
AcDbArc
 50
281.0262749542535
 51
357.771135755738
  0
LINE
  5
19310
330
18E77
100
AcDbEntity
  8
YODOROGO
100
AcDbLine
 10
15706.80217064596
 20
953.874748214644
 30
0.0
 11
15582.80217064596
 21
953.874748214644
 31
0.0
  0
LINE
  5
19311
330
18E77
100
AcDbEntity
  8
YODOROGO
100
AcDbLine
 10
15706.80217064596
 20
1013.874748214644
 30
0.0
 11
15582.80217064596
 21
1013.874748214644
 31
0.0
  0
LINE
  5
19312
330
18E77
100
AcDbEntity
  8
YODOROGO
100
AcDbLine
 10
15582.80217064596
 20
981.8747482146434
 30
0.0
 11
15706.80217064596
 21
981.8747482146434
 31
0.0
  0
LINE
  5
19313
330
18E77
100
AcDbEntity
  8
YODOROGO
100
AcDbLine
 10
15395.80217064596
 20
781.8747482146434
 30
0.0
 11
15395.80217064596
 21
877.8747482146435
 31
0.0
  0
LINE
  5
19314
330
18E77
100
AcDbEntity
  8
YODOROGO
100
AcDbLine
 10
15381.80217064596
 20
845.8747482146444
 30
0.0
 11
15381.80217064596
 21
781.8747482146434
 31
0.0
  0
LINE
  5
19315
330
18E77
100
AcDbEntity
  8
YODOROGO
100
AcDbLine
 10
15361.80217064596
 20
745.8747482146443
 30
0.0
 11
15361.80217064596
 21
845.8747482146444
 31
0.0
  0
LINE
  5
19316
330
18E77
100
AcDbEntity
  8
YODOROGO
100
AcDbLine
 10
15449.80217064596
 20
845.8747482146444
 30
0.0
 11
15449.80217064596
 21
745.8747482146443
 31
0.0
  0
LINE
  5
19317
330
18E77
100
AcDbEntity
  8
YODOROGO
100
AcDbLine
 10
15429.80217064596
 20
781.8747482146434
 30
0.0
 11
15429.80217064596
 21
845.8747482146444
 31
0.0
  0
LINE
  5
19318
330
18E77
100
AcDbEntity
  8
YODOROGO
100
AcDbLine
 10
15415.80217064596
 20
877.8747482146435
 30
0.0
 11
15415.80217064596
 21
781.8747482146434
 31
0.0
  0
LINE
  5
19319
330
18E77
100
AcDbEntity
  8
YODOROGO
100
AcDbLine
 10
15486.80217064596
 20
1013.874748214644
 30
0.0
 11
15486.80217064596
 21
733.8747482146435
 31
0.0
  0
LINE
  5
1931A
330
18E77
100
AcDbEntity
  8
YODOROGO
100
AcDbLine
 10
15322.80217064596
 20
713.8747482146436
 30
0.0
 11
15322.80217064596
 21
1013.874748214644
 31
0.0
  0
LINE
  5
1931B
330
18E77
100
AcDbEntity
  8
YODOROGO
100
AcDbLine
 10
15348.80217064596
 20
981.8747482146434
 30
0.0
 11
15348.80217064596
 21
713.8747482146436
 31
0.0
  0
LINE
  5
1931C
330
18E77
100
AcDbEntity
  8
YODOROGO
100
AcDbLine
 10
15462.80217064596
 20
773.874748214644
 30
0.0
 11
15462.80217064596
 21
981.8747482146434
 31
0.0
  0
LINE
  5
1931D
330
18E77
100
AcDbEntity
  8
YODOROGO
100
AcDbLine
 10
15190.80217064596
 20
813.8747482146435
 30
0.0
 11
15190.80217064596
 21
839.8747482146442
 31
0.0
  0
LINE
  5
1931E
330
18E77
100
AcDbEntity
  8
YODOROGO
100
AcDbLine
 10
15308.80217064596
 20
839.8747482146442
 30
0.0
 11
15308.80217064596
 21
813.8747482146435
 31
0.0
  0
LINE
  5
1931F
330
18E77
100
AcDbEntity
  8
YODOROGO
100
AcDbLine
 10
15582.80217064596
 20
953.874748214644
 30
0.0
 11
15582.80217064596
 21
817.8747482146436
 31
0.0
  0
LINE
  5
19320
330
18E77
100
AcDbEntity
  8
YODOROGO
100
AcDbLine
 10
14974.80217064595
 20
833.8747482146439
 30
0.0
 11
14974.80217064595
 21
853.874748214644
 31
0.0
  0
LINE
  5
19321
330
18E77
100
AcDbEntity
  8
YODOROGO
100
AcDbLine
 10
14974.80217064595
 20
833.8747482146439
 30
0.0
 11
14974.80217064595
 21
853.874748214644
 31
0.0
  0
ARC
  5
19322
330
18E77
100
AcDbEntity
  8
YODOROGO
100
AcDbCircle
 10
15268.80217064596
 20
753.8747482146439
 30
0.0
 40
40.0
100
AcDbArc
 50
270.0
 51
0.0
  0
LINE
  5
19323
330
18E77
100
AcDbEntity
  8
YODOROGO
100
AcDbLine
 10
15284.80217064596
 20
799.8747482146441
 30
0.0
 11
15308.80217064596
 21
799.8747482146441
 31
0.0
  0
LINE
  5
19324
330
18E77
100
AcDbEntity
  8
YODOROGO
100
AcDbLine
 10
15308.80217064596
 20
813.8747482146435
 30
0.0
 11
15264.80217064596
 21
813.8747482146435
 31
0.0
  0
LINE
  5
19325
330
18E77
100
AcDbEntity
  8
YODOROGO
100
AcDbLine
 10
15108.80217064596
 20
833.8747482146439
 30
0.0
 11
14974.80217064595
 21
833.8747482146439
 31
0.0
  0
LINE
  5
19326
330
18E77
100
AcDbEntity
  8
YODOROGO
100
AcDbLine
 10
15108.80217064596
 20
813.8747482146435
 30
0.0
 11
15108.80217064596
 21
833.8747482146439
 31
0.0
  0
LINE
  5
19327
330
18E77
100
AcDbEntity
  8
YODOROGO
100
AcDbLine
 10
15008.80217064596
 20
813.8747482146435
 30
0.0
 11
15108.80217064596
 21
813.8747482146435
 31
0.0
  0
ARC
  5
19328
330
18E77
100
AcDbEntity
  8
YODOROGO
100
AcDbCircle
 10
15115.02941435068
 20
934.4428574764513
 30
0.0
 40
160.6888181426141
100
AcDbArc
 50
228.6181454618993
 51
245.660289248906
  0
LINE
  5
19329
330
18E77
100
AcDbEntity
  8
YODOROGO
100
AcDbLine
 10
15052.80217064596
 20
801.8747482146444
 30
0.0
 11
15048.80217064598
 21
788.0364079349501
 31
0.0
  0
LINE
  5
1932A
330
18E77
100
AcDbEntity
  8
YODOROGO
100
AcDbLine
 10
15094.80217064596
 20
801.8747482146444
 30
0.0
 11
15052.80217064596
 21
801.8747482146444
 31
0.0
  0
LINE
  5
1932B
330
18E77
100
AcDbEntity
  8
YODOROGO
100
AcDbLine
 10
15088.80217064596
 20
775.9088612367134
 30
0.0
 11
15094.80217064596
 21
801.8747482146444
 31
0.0
  0
ARC
  5
1932C
330
18E77
100
AcDbEntity
  8
YODOROGO
100
AcDbCircle
 10
15115.02941435023
 20
934.4428574765014
 30
0.0
 40
160.6888181426453
100
AcDbArc
 50
260.6062929796992
 51
267.7790355655586
  0
LINE
  5
1932D
330
18E77
100
AcDbEntity
  8
YODOROGO
100
AcDbLine
 10
15108.80217064596
 20
713.8747482146428
 30
0.0
 11
15108.80217064596
 21
773.874748214644
 31
0.0
  0
LINE
  5
1932E
330
18E77
100
AcDbEntity
  8
YODOROGO
100
AcDbLine
 10
14968.80217064596
 20
740.6696674577553
 30
0.0
 11
14968.80217064596
 21
797.2655452655705
 31
0.0
  0
LINE
  5
1932F
330
18E77
100
AcDbEntity
  8
YODOROGO
100
AcDbLine
 10
15108.80217064596
 20
833.8747482146439
 30
0.0
 11
14974.80217064595
 21
833.8747482146439
 31
0.0
  0
LINE
  5
19330
330
18E77
100
AcDbEntity
  8
YODOROGO
100
AcDbLine
 10
15108.80217064596
 20
813.8747482146435
 30
0.0
 11
15108.80217064596
 21
833.8747482146439
 31
0.0
  0
LINE
  5
19331
330
18E77
100
AcDbEntity
  8
YODOROGO
100
AcDbLine
 10
15008.80217064596
 20
813.8747482146435
 30
0.0
 11
15108.80217064596
 21
813.8747482146435
 31
0.0
  0
ARC
  5
19332
330
18E77
100
AcDbEntity
  8
YODOROGO
100
AcDbCircle
 10
15115.02941435068
 20
934.4428574764513
 30
0.0
 40
160.6888181426141
100
AcDbArc
 50
228.6181454618993
 51
245.660289248906
  0
LINE
  5
19333
330
18E77
100
AcDbEntity
  8
YODOROGO
100
AcDbLine
 10
15052.80217064596
 20
801.8747482146444
 30
0.0
 11
15048.80217064598
 21
788.0364079349501
 31
0.0
  0
LINE
  5
19334
330
18E77
100
AcDbEntity
  8
YODOROGO
100
AcDbLine
 10
15094.80217064596
 20
801.8747482146444
 30
0.0
 11
15052.80217064596
 21
801.8747482146444
 31
0.0
  0
LINE
  5
19335
330
18E77
100
AcDbEntity
  8
YODOROGO
100
AcDbLine
 10
15088.80217064596
 20
775.9088612367134
 30
0.0
 11
15094.80217064596
 21
801.8747482146444
 31
0.0
  0
ARC
  5
19336
330
18E77
100
AcDbEntity
  8
YODOROGO
100
AcDbCircle
 10
15115.02941435023
 20
934.4428574765014
 30
0.0
 40
160.6888181426453
100
AcDbArc
 50
260.6062929796992
 51
267.7790355655586
  0
LINE
  5
19337
330
18E77
100
AcDbEntity
  8
YODOROGO
100
AcDbLine
 10
15108.80217064596
 20
713.8747482146428
 30
0.0
 11
15108.80217064596
 21
773.874748214644
 31
0.0
  0
LINE
  5
19338
330
18E77
100
AcDbEntity
  8
YODOROGO
100
AcDbLine
 10
14968.80217064596
 20
740.6696674577553
 30
0.0
 11
14968.80217064596
 21
797.2655452655705
 31
0.0
  0
LINE
  5
19339
330
18E77
100
AcDbEntity
  8
YODOROGO
100
AcDbLine
 10
15216.80217064596
 20
786.8747482146444
 30
0.0
 11
15190.80217064596
 21
786.8747482146444
 31
0.0
  0
LINE
  5
1933A
330
18E77
100
AcDbEntity
  8
YODOROGO
100
AcDbLine
 10
15216.80217064596
 20
800.8747482146432
 30
0.0
 11
15216.80217064596
 21
786.8747482146444
 31
0.0
  0
LINE
  5
1933B
330
18E77
100
AcDbEntity
  8
YODOROGO
100
AcDbLine
 10
15190.80217064596
 20
800.8747482146432
 30
0.0
 11
15216.80217064596
 21
800.8747482146432
 31
0.0
  0
LINE
  5
1933C
330
18E77
100
AcDbEntity
  8
YODOROGO
100
AcDbLine
 10
15190.80217064596
 20
786.8747482146444
 30
0.0
 11
15190.80217064596
 21
800.8747482146432
 31
0.0
  0
LINE
  5
1933D
330
18E77
100
AcDbEntity
  8
YODOROGO
100
AcDbLine
 10
15214.80217064596
 20
788.8747482146436
 30
0.0
 11
15192.80217064595
 21
788.8747482146436
 31
0.0
  0
LINE
  5
1933E
330
18E77
100
AcDbEntity
  8
YODOROGO
100
AcDbLine
 10
15214.80217064596
 20
798.874748214644
 30
0.0
 11
15214.80217064596
 21
788.8747482146436
 31
0.0
  0
LINE
  5
1933F
330
18E77
100
AcDbEntity
  8
YODOROGO
100
AcDbLine
 10
15192.80217064595
 20
798.874748214644
 30
0.0
 11
15214.80217064596
 21
798.874748214644
 31
0.0
  0
LINE
  5
19340
330
18E77
100
AcDbEntity
  8
YODOROGO
100
AcDbLine
 10
15192.80217064595
 20
788.8747482146436
 30
0.0
 11
15192.80217064595
 21
798.874748214644
 31
0.0
  0
LINE
  5
19341
330
18E77
100
AcDbEntity
  8
YODOROGO
100
AcDbLine
 10
15212.80217064596
 20
790.8747482146432
 30
0.0
 11
15194.80217064596
 21
790.8747482146432
 31
0.0
  0
LINE
  5
19342
330
18E77
100
AcDbEntity
  8
YODOROGO
100
AcDbLine
 10
15212.80217064596
 20
796.8747482146445
 30
0.0
 11
15212.80217064596
 21
790.8747482146432
 31
0.0
  0
LINE
  5
19343
330
18E77
100
AcDbEntity
  8
YODOROGO
100
AcDbLine
 10
15194.80217064596
 20
796.8747482146445
 30
0.0
 11
15212.80217064596
 21
796.8747482146445
 31
0.0
  0
LINE
  5
19344
330
18E77
100
AcDbEntity
  8
YODOROGO
100
AcDbLine
 10
15194.80217064596
 20
790.8747482146432
 30
0.0
 11
15194.80217064596
 21
796.8747482146445
 31
0.0
  0
LINE
  5
19345
330
18E77
100
AcDbEntity
  8
YODOROGO
100
AcDbLine
 10
15210.80217064596
 20
792.8747482146435
 30
0.0
 11
15196.80217064596
 21
792.8747482146435
 31
0.0
  0
LINE
  5
19346
330
18E77
100
AcDbEntity
  8
YODOROGO
100
AcDbLine
 10
15210.80217064596
 20
794.8747482146441
 30
0.0
 11
15210.80217064596
 21
792.8747482146435
 31
0.0
  0
LINE
  5
19347
330
18E77
100
AcDbEntity
  8
YODOROGO
100
AcDbLine
 10
15196.80217064596
 20
794.8747482146441
 30
0.0
 11
15210.80217064596
 21
794.8747482146441
 31
0.0
  0
LINE
  5
19348
330
18E77
100
AcDbEntity
  8
YODOROGO
100
AcDbLine
 10
15196.80217064596
 20
792.8747482146435
 30
0.0
 11
15196.80217064596
 21
794.8747482146441
 31
0.0
  0
LINE
  5
19349
330
18E77
100
AcDbEntity
  8
YODOROGO
100
AcDbLine
 10
15232.80217064596
 20
813.8747482146435
 30
0.0
 11
15190.80217064596
 21
813.8747482146435
 31
0.0
  0
LINE
  5
1934A
330
18E77
100
AcDbEntity
  8
YODOROGO
100
AcDbLine
 10
15232.80217064596
 20
773.874748214644
 30
0.0
 11
15232.80217064596
 21
813.8747482146435
 31
0.0
  0
LINE
  5
1934B
330
18E77
100
AcDbEntity
  8
YODOROGO
100
AcDbLine
 10
15190.80217064596
 20
773.874748214644
 30
0.0
 11
15232.80217064596
 21
773.874748214644
 31
0.0
  0
LINE
  5
1934C
330
18E77
100
AcDbEntity
  8
YODOROGO
100
AcDbLine
 10
15190.80217064596
 20
713.8747482146436
 30
0.0
 11
15190.80217064596
 21
773.874748214644
 31
0.0
  0
LINE
  5
1934D
330
18E77
100
AcDbEntity
  8
YODOROGO
100
AcDbLine
 10
15268.80217064596
 20
713.8747482146436
 30
0.0
 11
15190.80217064596
 21
713.8747482146436
 31
0.0
  0
LINE
  5
1934E
330
18E77
100
AcDbEntity
  8
YODOROGO
100
AcDbLine
 10
15284.80217064596
 20
785.8747482146432
 30
0.0
 11
15284.80217064596
 21
799.8747482146441
 31
0.0
  0
ARC
  5
1934F
330
18E77
100
AcDbEntity
  8
YODOROGO
100
AcDbCircle
 10
15272.80217064594
 20
785.8747482146457
 30
0.0
 40
12.00000000000187
100
AcDbArc
 50
270.0
 51
359.9999999999877
  0
LINE
  5
19350
330
18E77
100
AcDbEntity
  8
YODOROGO
100
AcDbLine
 10
15264.80217064596
 20
773.874748214644
 30
0.0
 11
15272.80217064594
 21
773.874748214644
 31
0.0
  0
LINE
  5
19351
330
18E77
100
AcDbEntity
  8
YODOROGO
100
AcDbLine
 10
15264.80217064596
 20
813.8747482146435
 30
0.0
 11
15264.80217064596
 21
773.874748214644
 31
0.0
  0
LINE
  5
19352
330
18E77
100
AcDbEntity
  8
YODOROGO
100
AcDbLine
 10
15449.80217064596
 20
773.874748214644
 30
0.0
 11
15462.80217064596
 21
773.874748214644
 31
0.0
  0
LINE
  5
19353
330
18E77
100
AcDbEntity
  8
YODOROGO
100
AcDbLine
 10
15466.80217064596
 20
713.8747482146436
 30
0.0
 11
15449.80217064596
 21
713.8747482146436
 31
0.0
  0
LINE
  5
19354
330
18E77
100
AcDbEntity
  8
YODOROGO
100
AcDbLine
 10
15381.80217064596
 20
781.8747482146434
 30
0.0
 11
15395.80217064596
 21
781.8747482146434
 31
0.0
  0
LINE
  5
19355
330
18E77
100
AcDbEntity
  8
YODOROGO
100
AcDbLine
 10
15449.80217064596
 20
745.8747482146443
 30
0.0
 11
15361.80217064596
 21
745.8747482146443
 31
0.0
  0
LINE
  5
19356
330
18E77
100
AcDbEntity
  8
YODOROGO
100
AcDbLine
 10
15415.80217064596
 20
781.8747482146434
 30
0.0
 11
15429.80217064596
 21
781.8747482146434
 31
0.0
  0
LINE
  5
19357
330
18E77
100
AcDbEntity
  8
YODOROGO
100
AcDbLine
 10
15449.80217064596
 20
713.8747482146436
 30
0.0
 11
15449.80217064596
 21
773.874748214644
 31
0.0
  0
LINE
  5
19358
330
18E77
100
AcDbEntity
  8
YODOROGO
100
AcDbLine
 10
15348.80217064596
 20
713.8747482146436
 30
0.0
 11
15322.80217064596
 21
713.8747482146436
 31
0.0
  0
LINE
  5
19359
330
18E77
100
AcDbEntity
  8
YODOROGO
100
AcDbLine
 10
15308.80217064596
 20
799.8747482146441
 30
0.0
 11
15308.80217064596
 21
753.8747482146439
 31
0.0
  0
ARC
  5
1935A
330
18E77
100
AcDbEntity
  8
YODOROGO
100
AcDbCircle
 10
15466.80217064596
 20
733.8747482146435
 30
0.0
 40
20.0
100
AcDbArc
 50
270.0
 51
0.0
  0
LINE
  5
1935B
330
18E77
100
AcDbEntity
  8
YODOROGO
100
AcDbLine
 10
15546.80217064596
 20
761.8747482146434
 30
0.0
 11
15546.80217064596
 21
713.8747482146436
 31
0.0
  0
ARC
  5
1935C
330
18E77
100
AcDbEntity
  8
YODOROGO
100
AcDbCircle
 10
15519.86069778339
 20
818.7656950548664
 30
0.0
 40
62.94777829583771
100
AcDbArc
 50
295.3405244216011
 51
359.1890230341867
  0
LINE
  5
1935D
330
18E77
100
AcDbEntity
  8
YODOROGO
100
AcDbLine
 10
15308.80217064596
 20
929.874748214644
 30
0.0
 11
15248.80217064596
 21
969.8747482146441
 31
0.0
  0
LINE
  5
1935E
330
18E77
100
AcDbEntity
  8
YODOROGO
100
AcDbLine
 10
15248.80217064596
 20
1013.874748214644
 30
0.0
 11
15308.80217064596
 21
973.8747482146434
 31
0.0
  0
LINE
  5
1935F
330
18E77
100
AcDbEntity
  8
YODOROGO
100
AcDbLine
 10
15264.80217064596
 20
839.8747482146442
 30
0.0
 11
15308.80217064596
 21
839.8747482146442
 31
0.0
  0
LINE
  5
19360
330
18E77
100
AcDbEntity
  8
YODOROGO
100
AcDbLine
 10
15308.80217064596
 20
867.8747482146436
 30
0.0
 11
15264.80217064596
 21
867.8747482146436
 31
0.0
  0
LINE
  5
19361
330
18E77
100
AcDbEntity
  8
YODOROGO
100
AcDbLine
 10
15190.80217064596
 20
897.8747482146435
 30
0.0
 11
15308.80217064596
 21
897.8747482146435
 31
0.0
  0
LINE
  5
19362
330
18E77
100
AcDbEntity
  8
YODOROGO
100
AcDbLine
 10
15040.80217064596
 20
1013.874748214644
 30
0.0
 11
15010.80217064596
 21
1013.874748214644
 31
0.0
  0
LINE
  5
19363
330
18E77
100
AcDbEntity
  8
YODOROGO
100
AcDbLine
 10
15040.80217064596
 20
913.8747482146435
 30
0.0
 11
15040.80217064596
 21
1013.874748214644
 31
0.0
  0
LINE
  5
19364
330
18E77
100
AcDbEntity
  8
YODOROGO
100
AcDbLine
 10
15010.80217064596
 20
913.8747482146435
 30
0.0
 11
15040.80217064596
 21
913.8747482146435
 31
0.0
  0
LINE
  5
19365
330
18E77
100
AcDbEntity
  8
YODOROGO
100
AcDbLine
 10
15010.80217064596
 20
1013.874748214644
 30
0.0
 11
15010.80217064596
 21
913.8747482146435
 31
0.0
  0
LINE
  5
19366
330
18E77
100
AcDbEntity
  8
YODOROGO
100
AcDbLine
 10
15080.80217064596
 20
1013.874748214644
 30
0.0
 11
15108.80217064596
 21
1013.874748214644
 31
0.0
  0
LINE
  5
19367
330
18E77
100
AcDbEntity
  8
YODOROGO
100
AcDbLine
 10
15080.80217064596
 20
905.8747482146443
 30
0.0
 11
15080.80217064596
 21
1013.874748214644
 31
0.0
  0
ARC
  5
19368
330
18E77
100
AcDbEntity
  8
YODOROGO
100
AcDbCircle
 10
15060.80217064596
 20
905.8747482146443
 30
0.0
 40
20.0
100
AcDbArc
 50
270.0
 51
0.0
  0
LINE
  5
19369
330
18E77
100
AcDbEntity
  8
YODOROGO
100
AcDbLine
 10
15010.80217064596
 20
885.8747482146441
 30
0.0
 11
15060.80217064596
 21
885.8747482146441
 31
0.0
  0
LINE
  5
1936A
330
18E77
100
AcDbEntity
  8
YODOROGO
100
AcDbLine
 10
15010.80217064596
 20
853.874748214644
 30
0.0
 11
15010.80217064596
 21
885.8747482146441
 31
0.0
  0
LINE
  5
1936B
330
18E77
100
AcDbEntity
  8
YODOROGO
100
AcDbLine
 10
15068.80217064596
 20
853.874748214644
 30
0.0
 11
15010.80217064596
 21
853.874748214644
 31
0.0
  0
ARC
  5
1936C
330
18E77
100
AcDbEntity
  8
YODOROGO
100
AcDbCircle
 10
15068.80217064596
 20
893.8747482146439
 30
0.0
 40
40.0
100
AcDbArc
 50
270.0
 51
0.0
  0
LINE
  5
1936D
330
18E77
100
AcDbEntity
  8
YODOROGO
100
AcDbLine
 10
15108.80217064596
 20
1013.874748214644
 30
0.0
 11
15108.80217064596
 21
893.8747482146439
 31
0.0
  0
LINE
  5
1936E
330
18E77
100
AcDbEntity
  8
YODOROGO
100
AcDbLine
 10
14988.80217064596
 20
973.8747482146434
 30
0.0
 11
14988.80217064596
 21
997.8747482146435
 31
0.0
1001
AUTOCAD_POSTSCRIPT_FIGURE
1002
{
1000
PSFILL
1000
Grayscale
1000
Grayscale
1070
    25
1002
}
  0
LINE
  5
1936F
330
18E77
100
AcDbEntity
  8
YODOROGO
100
AcDbLine
 10
14988.80217064596
 20
929.874748214644
 30
0.0
 11
14988.80217064596
 21
953.874748214644
 31
0.0
1001
AUTOCAD_POSTSCRIPT_FIGURE
1002
{
1000
PSFILL
1000
Grayscale
1000
Grayscale
1070
    25
1002
}
  0
LINE
  5
19370
330
18E77
100
AcDbEntity
  8
YODOROGO
100
AcDbLine
 10
14988.80217064596
 20
853.874748214644
 30
0.0
 11
14988.80217064596
 21
909.8747482146439
 31
0.0
1001
AUTOCAD_POSTSCRIPT_FIGURE
1002
{
1000
PSFILL
1000
Grayscale
1000
Grayscale
1070
    25
1002
}
  0
LINE
  5
19371
330
18E77
100
AcDbEntity
  8
YODOROGO
100
AcDbLine
 10
15190.80217064596
 20
953.874748214644
 30
0.0
 11
15248.80217064596
 21
1013.874748214644
 31
0.0
  0
LINE
  5
19372
330
18E77
100
AcDbEntity
  8
YODOROGO
100
AcDbLine
 10
15190.80217064596
 20
909.8747482146439
 30
0.0
 11
15190.80217064596
 21
953.874748214644
 31
0.0
  0
LINE
  5
19373
330
18E77
100
AcDbEntity
  8
YODOROGO
100
AcDbLine
 10
15248.80217064596
 20
969.8747482146441
 30
0.0
 11
15190.80217064596
 21
909.8747482146439
 31
0.0
  0
LINE
  5
19374
330
18E77
100
AcDbEntity
  8
YODOROGO
100
AcDbLine
 10
15232.80217064596
 20
839.8747482146442
 30
0.0
 11
15232.80217064596
 21
867.8747482146436
 31
0.0
  0
LINE
  5
19375
330
18E77
100
AcDbEntity
  8
YODOROGO
100
AcDbLine
 10
15190.80217064596
 20
839.8747482146442
 30
0.0
 11
15232.80217064596
 21
839.8747482146442
 31
0.0
  0
LINE
  5
19376
330
18E77
100
AcDbEntity
  8
YODOROGO
100
AcDbLine
 10
15264.80217064596
 20
867.8747482146436
 30
0.0
 11
15264.80217064596
 21
839.8747482146442
 31
0.0
  0
LINE
  5
19377
330
18E77
100
AcDbEntity
  8
YODOROGO
100
AcDbLine
 10
15190.80217064596
 20
867.8747482146436
 30
0.0
 11
15190.80217064596
 21
897.8747482146435
 31
0.0
  0
LINE
  5
19378
330
18E77
100
AcDbEntity
  8
YODOROGO
100
AcDbLine
 10
15232.80217064596
 20
867.8747482146436
 30
0.0
 11
15190.80217064596
 21
867.8747482146436
 31
0.0
  0
LINE
  5
19379
330
18E77
100
AcDbEntity
  8
YODOROGO
100
AcDbLine
 10
15322.80217064596
 20
1013.874748214644
 30
0.0
 11
15486.80217064596
 21
1013.874748214644
 31
0.0
  0
LINE
  5
1937A
330
18E77
100
AcDbEntity
  8
YODOROGO
100
AcDbLine
 10
15462.80217064596
 20
981.8747482146434
 30
0.0
 11
15348.80217064596
 21
981.8747482146434
 31
0.0
  0
LINE
  5
1937B
330
18E77
100
AcDbEntity
  8
YODOROGO
100
AcDbLine
 10
15436.80217064595
 20
909.8747482146439
 30
0.0
 11
15449.80217064596
 21
909.8747482146439
 31
0.0
  0
LINE
  5
1937C
330
18E77
100
AcDbEntity
  8
YODOROGO
100
AcDbLine
 10
15449.80217064596
 20
969.8747482146441
 30
0.0
 11
15436.80217064595
 21
909.8747482146439
 31
0.0
  0
LINE
  5
1937D
330
18E77
100
AcDbEntity
  8
YODOROGO
100
AcDbLine
 10
15425.80217064596
 20
969.8747482146441
 30
0.0
 11
15449.80217064596
 21
969.8747482146441
 31
0.0
  0
LINE
  5
1937E
330
18E77
100
AcDbEntity
  8
YODOROGO
100
AcDbLine
 10
15412.80217064596
 20
909.8747482146439
 30
0.0
 11
15425.80217064596
 21
969.8747482146441
 31
0.0
  0
LINE
  5
1937F
330
18E77
100
AcDbEntity
  8
YODOROGO
100
AcDbLine
 10
15398.80217064596
 20
909.8747482146439
 30
0.0
 11
15412.80217064596
 21
909.8747482146439
 31
0.0
  0
LINE
  5
19380
330
18E77
100
AcDbEntity
  8
YODOROGO
100
AcDbLine
 10
15385.80217064596
 20
969.8747482146441
 30
0.0
 11
15398.80217064596
 21
909.8747482146439
 31
0.0
  0
LINE
  5
19381
330
18E77
100
AcDbEntity
  8
YODOROGO
100
AcDbLine
 10
15361.80217064596
 20
969.8747482146441
 30
0.0
 11
15385.80217064596
 21
969.8747482146441
 31
0.0
  0
LINE
  5
19382
330
18E77
100
AcDbEntity
  8
YODOROGO
100
AcDbLine
 10
15374.80217064596
 20
909.8747482146439
 30
0.0
 11
15361.80217064596
 21
969.8747482146441
 31
0.0
  0
LINE
  5
19383
330
18E77
100
AcDbEntity
  8
YODOROGO
100
AcDbLine
 10
15361.80217064596
 20
909.8747482146439
 30
0.0
 11
15374.80217064596
 21
909.8747482146439
 31
0.0
  0
LINE
  5
19384
330
18E77
100
AcDbEntity
  8
YODOROGO
100
AcDbLine
 10
15361.80217064596
 20
877.8747482146435
 30
0.0
 11
15361.80217064596
 21
909.8747482146439
 31
0.0
  0
LINE
  5
19385
330
18E77
100
AcDbEntity
  8
YODOROGO
100
AcDbLine
 10
15449.80217064596
 20
877.8747482146435
 30
0.0
 11
15361.80217064596
 21
877.8747482146435
 31
0.0
  0
LINE
  5
19386
330
18E77
100
AcDbEntity
  8
YODOROGO
100
AcDbLine
 10
15449.80217064596
 20
909.8747482146439
 30
0.0
 11
15449.80217064596
 21
877.8747482146435
 31
0.0
  0
LINE
  5
19387
330
18E77
100
AcDbEntity
  8
YODOROGO
100
AcDbLine
 10
15308.80217064596
 20
973.8747482146434
 30
0.0
 11
15308.80217064596
 21
929.874748214644
 31
0.0
  0
LINE
  5
19388
330
18E77
100
AcDbEntity
  8
YODOROGO
100
AcDbLine
 10
15395.80217064596
 20
877.8747482146435
 30
0.0
 11
15415.80217064596
 21
877.8747482146435
 31
0.0
  0
LINE
  5
19389
330
18E77
100
AcDbEntity
  8
YODOROGO
100
AcDbLine
 10
15361.80217064596
 20
845.8747482146444
 30
0.0
 11
15381.80217064596
 21
845.8747482146444
 31
0.0
  0
LINE
  5
1938A
330
18E77
100
AcDbEntity
  8
YODOROGO
100
AcDbLine
 10
15429.80217064596
 20
845.8747482146444
 30
0.0
 11
15449.80217064596
 21
845.8747482146444
 31
0.0
  0
LINE
  5
1938B
330
18E77
100
AcDbEntity
  8
YODOROGO
100
AcDbLine
 10
15308.80217064596
 20
897.8747482146435
 30
0.0
 11
15308.80217064596
 21
867.8747482146436
 31
0.0
  0
LINE
  5
1938C
330
18E77
100
AcDbEntity
  8
YODOROGO
100
AcDbLine
 10
15582.80217064596
 20
1013.874748214644
 30
0.0
 11
15582.80217064596
 21
981.8747482146434
 31
0.0
  0
LINE
  5
1938D
330
18E77
100
AcDbEntity
  8
YODOROGO
100
AcDbLine
 10
15766.80217064596
 20
797.8747482146435
 30
0.0
 11
15766.80217064594
 21
905.8747482146443
 31
0.0
  0
LINE
  5
1938E
330
18E77
100
AcDbEntity
  8
YODOROGO
100
AcDbLine
 10
15730.80217064594
 20
993.8747482146439
 30
0.0
 11
15730.80217064594
 21
817.8747482146436
 31
0.0
  0
LINE
  5
1938F
330
18E77
100
AcDbEntity
  8
YODOROGO
100
AcDbLine
 10
15826.80217064596
 20
713.8747482146436
 30
0.0
 11
15826.80217064594
 21
905.8747482146443
 31
0.0
  0
LINE
  5
19390
330
18E77
100
AcDbEntity
  8
YODOROGO
100
AcDbLine
 10
15794.80217064596
 20
905.8747482146443
 30
0.0
 11
15794.80217064596
 21
713.8747482146436
 31
0.0
  0
LINE
  5
19391
330
18E77
100
AcDbEntity
  8
YODOROGO
100
AcDbLine
 10
15618.80217064596
 20
797.8747482146435
 30
0.0
 11
15618.80217064596
 21
853.874748214644
 31
0.0
  0
ARC
  5
19392
330
18E77
100
AcDbEntity
  8
YODOROGO
100
AcDbCircle
 10
15676.95743255803
 20
803.8951756442788
 30
0.0
 40
90.04622428799429
100
AcDbArc
 50
268.6284910216979
 51
356.1663845733032
  0
LINE
  5
19393
330
18E77
100
AcDbEntity
  8
YODOROGO
100
AcDbLine
 10
15674.80217064596
 20
763.8747482146435
 30
0.0
 11
15674.80217064596
 21
713.8747482146436
 31
0.0
  0
ARC
  5
19394
330
18E77
100
AcDbEntity
  8
YODOROGO
100
AcDbCircle
 10
15675.75903786228
 20
818.9194785088275
 30
0.0
 40
55.05304649180608
100
AcDbArc
 50
269.0041020930593
 51
358.9126445549248
  0
LINE
  5
19395
330
18E77
100
AcDbEntity
  8
YODOROGO
100
AcDbLine
 10
15794.80217064596
 20
713.8747482146436
 30
0.0
 11
15826.80217064596
 21
713.8747482146436
 31
0.0
  0
LINE
  5
19396
330
18E77
100
AcDbEntity
  8
YODOROGO
100
AcDbLine
 10
15766.80217064594
 20
905.8747482146443
 30
0.0
 11
15794.80217064596
 21
905.8747482146443
 31
0.0
  0
LINE
  5
19397
330
18E77
100
AcDbEntity
  8
YODOROGO
100
AcDbLine
 10
15810.80217064596
 20
993.8747482146439
 30
0.0
 11
15730.80217064594
 21
993.8747482146439
 31
0.0
  0
LINE
  5
19398
330
18E77
100
AcDbEntity
  8
YODOROGO
100
AcDbLine
 10
15766.80217064594
 20
957.8747482146436
 30
0.0
 11
15830.80217064596
 21
957.8747482146436
 31
0.0
  0
LINE
  5
19399
330
18E77
100
AcDbEntity
  8
YODOROGO
100
AcDbLine
 10
15850.80217064596
 20
937.8747482146435
 30
0.0
 11
15766.80217064594
 21
937.8747482146435
 31
0.0
  0
LINE
  5
1939A
330
18E77
100
AcDbEntity
  8
YODOROGO
100
AcDbLine
 10
15618.80217064596
 20
889.8747482146442
 30
0.0
 11
15674.80217064596
 21
889.8747482146442
 31
0.0
  0
LINE
  5
1939B
330
18E77
100
AcDbEntity
  8
YODOROGO
100
AcDbLine
 10
15618.80217064596
 20
917.8747482146436
 30
0.0
 11
15618.80217064596
 21
889.8747482146442
 31
0.0
  0
LINE
  5
1939C
330
18E77
100
AcDbEntity
  8
YODOROGO
100
AcDbLine
 10
15674.80217064596
 20
917.8747482146436
 30
0.0
 11
15618.80217064596
 21
917.8747482146436
 31
0.0
  0
LINE
  5
1939D
330
18E77
100
AcDbEntity
  8
YODOROGO
100
AcDbLine
 10
15674.80217064596
 20
889.8747482146442
 30
0.0
 11
15674.80217064596
 21
917.8747482146436
 31
0.0
  0
LINE
  5
1939E
330
18E77
100
AcDbEntity
  8
YODOROGO
100
AcDbLine
 10
15766.80217064594
 20
937.8747482146435
 30
0.0
 11
15766.80217064594
 21
957.8747482146436
 31
0.0
  0
LINE
  5
1939F
330
18E77
100
AcDbEntity
  8
YODOROGO
100
AcDbLine
 10
15706.80217064596
 20
853.874748214644
 30
0.0
 11
15706.80217064596
 21
953.874748214644
 31
0.0
  0
LINE
  5
193A0
330
18E77
100
AcDbEntity
  8
YODOROGO
100
AcDbLine
 10
15618.80217064596
 20
853.874748214644
 30
0.0
 11
15706.80217064596
 21
853.874748214644
 31
0.0
  0
LINE
  5
193A1
330
18E77
100
AcDbEntity
  8
YODOROGO
100
AcDbLine
 10
15706.80217064596
 20
981.8747482146434
 30
0.0
 11
15706.80217064596
 21
1013.874748214644
 31
0.0
  0
ARC
  5
193A2
330
18E77
100
AcDbEntity
  8
YODOROGO
100
AcDbCircle
 10
15810.80217064596
 20
1001.874748214642
 30
0.0
 40
7.99999999999727
100
AcDbArc
 50
270.0
 51
0.0000000000081422
  0
LINE
  5
193A3
330
18E77
100
AcDbEntity
  8
YODOROGO
100
AcDbLine
 10
15818.80217064596
 20
1013.874748214644
 30
0.0
 11
15818.80217064596
 21
1001.874748214643
 31
0.0
  0
LINE
  5
193A4
330
18E77
100
AcDbEntity
  8
YODOROGO
100
AcDbLine
 10
15850.80217064596
 20
1013.874748214644
 30
0.0
 11
15818.80217064596
 21
1013.874748214644
 31
0.0
  0
LINE
  5
193A5
330
18E77
100
AcDbEntity
  8
YODOROGO
100
AcDbLine
 10
15850.80217064596
 20
977.8747482146435
 30
0.0
 11
15850.80217064596
 21
1013.874748214644
 31
0.0
  0
ARC
  5
193A6
330
18E77
100
AcDbEntity
  8
YODOROGO
100
AcDbCircle
 10
15830.80217064596
 20
977.8747482146435
 30
0.0
 40
20.0
100
AcDbArc
 50
270.0
 51
0.0
  0
LINE
  5
193A7
330
18E77
100
AcDbEntity
  8
YODOROGO
100
AcDbLine
 10
15850.80217064596
 20
905.8747482146443
 30
0.0
 11
15850.80217064596
 21
937.8747482146435
 31
0.0
  0
LINE
  5
193A8
330
18E77
100
AcDbEntity
  8
YODOROGO
100
AcDbLine
 10
15826.80217064594
 20
905.8747482146443
 30
0.0
 11
15850.80217064596
 21
905.8747482146443
 31
0.0
  0
LINE
  5
193A9
330
18E77
100
AcDbEntity
  8
SUNPOU
100
AcDbLine
 10
4217.61758982785
 20
7697.920617280122
 30
0.0
 11
4217.61758982785
 21
6723.859771644582
 31
0.0
  0
LINE
  5
193AA
330
18E77
100
AcDbEntity
  8
SUNPOU
100
AcDbLine
 10
7089.617589827851
 20
7697.920617280122
 30
0.0
 11
7089.617589827851
 21
6723.859771644582
 31
0.0
  0
LINE
  5
193AB
330
18E77
100
AcDbEntity
  8
SUNPOU
100
AcDbLine
 10
4232.617589827849
 20
6768.859771644584
 30
0.0
 11
7074.617589827852
 21
6768.859771644584
 31
0.0
  0
LINE
  5
193AC
330
18E77
100
AcDbEntity
  8
SUNPOU
100
AcDbLine
 10
10680.43915527504
 20
5322.546798568533
 30
0.0
 11
10680.43915527504
 21
5337.546798568531
 31
0.0
  0
LINE
  5
193AD
330
18E77
100
AcDbEntity
  8
SUNPOU
100
AcDbLine
 10
9985.439155275038
 20
4917.546798568533
 30
0.0
 11
9985.439155275038
 21
5337.546798568531
 31
0.0
  0
LINE
  5
193AE
330
18E77
100
AcDbEntity
  8
SUNPOU
100
AcDbLine
 10
10665.43915527504
 20
5292.546798568533
 30
0.0
 11
10000.43915527504
 21
5292.546798568533
 31
0.0
  0
LINE
  5
193AF
330
18E77
100
AcDbEntity
  8
SUNPOU
100
AcDbLine
 10
12115.43915527502
 20
5322.546798568533
 30
0.0
 11
12115.43915527502
 21
5337.546798568531
 31
0.0
  0
LINE
  5
193B0
330
18E77
100
AcDbEntity
  8
SUNPOU
100
AcDbLine
 10
10680.43915527504
 20
5322.546798568533
 30
0.0
 11
10680.43915527504
 21
5337.546798568531
 31
0.0
  0
LINE
  5
193B1
330
18E77
100
AcDbEntity
  8
SUNPOU
100
AcDbLine
 10
12100.43915527504
 20
5292.546798568533
 30
0.0
 11
10695.43915527504
 21
5292.546798568533
 31
0.0
  0
LINE
  5
193B2
330
18E77
100
AcDbEntity
  8
SUNPOU
100
AcDbLine
 10
12395.43915527502
 20
4574.417642013975
 30
0.0
 11
12395.43915527502
 21
5337.546798568531
 31
0.0
  0
LINE
  5
193B3
330
18E77
100
AcDbEntity
  8
SUNPOU
100
AcDbLine
 10
12115.43915527502
 20
5322.546798568533
 30
0.0
 11
12115.43915527502
 21
5337.546798568531
 31
0.0
  0
LINE
  5
193B4
330
18E77
100
AcDbEntity
  8
SUNPOU
100
AcDbLine
 10
12380.43915527504
 20
5292.546798568533
 30
0.0
 11
12130.43915527502
 21
5292.546798568533
 31
0.0
  0
LINE
  5
193B5
330
18E77
100
AcDbEntity
  8
SUNPOU
100
AcDbLine
 10
9950.439155275034
 20
2719.546798568535
 30
0.0
 11
9451.569579679539
 21
2719.546798568535
 31
0.0
  0
LINE
  5
193B6
330
18E77
100
AcDbEntity
  8
SUNPOU
100
AcDbLine
 10
9965.439155275038
 20
4879.546798568533
 30
0.0
 11
9451.569579679539
 21
4879.546798568533
 31
0.0
  0
LINE
  5
193B7
330
18E77
100
AcDbEntity
  8
SUNPOU
100
AcDbLine
 10
9496.569579679539
 20
2734.546798568536
 30
0.0
 11
9496.569579679542
 21
4864.546798568532
 31
0.0
  0
LINE
  5
193B8
330
18E77
100
AcDbEntity
  8
SUNPOU
100
AcDbLine
 10
9950.439155275034
 20
2719.546798568534
 30
0.0
 11
9451.569579679539
 21
2719.546798568534
 31
0.0
  0
LINE
  5
193B9
330
18E77
100
AcDbEntity
  8
SUNPOU
100
AcDbLine
 10
9557.402110802476
 20
2669.546798568534
 30
0.0
 11
9451.569579679539
 21
2669.546798568534
 31
0.0
  0
LINE
  5
193BA
330
18E77
100
AcDbEntity
  8
SUNPOU
100
AcDbLine
 10
9496.569579679539
 20
2734.546798568534
 30
0.0
 11
9496.569579679539
 21
2749.546798568534
 31
0.0
  0
LINE
  5
193BB
330
18E77
100
AcDbEntity
  8
SUNPOU
100
AcDbLine
 10
9496.569579679539
 20
2654.546798568534
 30
0.0
 11
9496.569579679539
 21
2452.403941425675
 31
0.0
  0
LINE
  5
193BC
330
18E77
100
AcDbEntity
  8
SUNPOU
100
AcDbLine
 10
9496.569579679539
 20
2719.546798568534
 30
0.0
 11
9496.569579679539
 21
2669.546798568534
 31
0.0
  0
LINE
  5
193BD
330
18E77
100
AcDbEntity
  8
SUNPOU
100
AcDbLine
 10
12345.43915527504
 20
2719.546798568535
 30
0.0
 11
12746.26430788204
 21
2719.546798568535
 31
0.0
  0
LINE
  5
193BE
330
18E77
100
AcDbEntity
  8
SUNPOU
100
AcDbLine
 10
12345.43915527504
 20
4739.546798568532
 30
0.0
 11
12746.26430788204
 21
4739.546798568532
 31
0.0
  0
LINE
  5
193BF
330
18E77
100
AcDbEntity
  8
SUNPOU
100
AcDbLine
 10
12701.26430788204
 20
2734.546798568535
 30
0.0
 11
12701.26430788204
 21
4724.546798568534
 31
0.0
  0
LINE
  5
193C0
330
18E77
100
AcDbEntity
  8
SUNPOU
100
AcDbLine
 10
4453.61758982785
 20
7187.830555289848
 30
0.0
 11
4453.61758982785
 21
6962.92061728012
 31
0.0
  0
LINE
  5
193C1
330
18E77
100
AcDbEntity
  8
SUNPOU
100
AcDbLine
 10
4217.61758982785
 20
7697.920617280122
 30
0.0
 11
4217.61758982785
 21
6962.92061728012
 31
0.0
  0
LINE
  5
193C2
330
18E77
100
AcDbEntity
  8
SUNPOU
100
AcDbLine
 10
4438.61758982785
 20
7007.920617280119
 30
0.0
 11
4232.617589827849
 21
7007.920617280119
 31
0.0
  0
LINE
  5
193C3
330
18E77
100
AcDbEntity
  8
SUNPOU
100
AcDbLine
 10
6853.617589827853
 20
7698.920617280122
 30
0.0
 11
6853.617589827853
 21
6962.92061728012
 31
0.0
  0
LINE
  5
193C4
330
18E77
100
AcDbEntity
  8
SUNPOU
100
AcDbLine
 10
7089.617589827851
 20
7698.920617280122
 30
0.0
 11
7089.617589827851
 21
6962.92061728012
 31
0.0
  0
LINE
  5
193C5
330
18E77
100
AcDbEntity
  8
SUNPOU
100
AcDbLine
 10
6868.617589827852
 20
7007.920617280119
 30
0.0
 11
7074.617589827852
 21
7007.920617280119
 31
0.0
  0
LINE
  5
193C6
330
18E77
100
AcDbEntity
  8
SUNPOU
100
AcDbLine
 10
4453.61758982785
 20
7187.830555289848
 30
0.0
 11
4453.61758982785
 21
6962.92061728012
 31
0.0
  0
LINE
  5
193C7
330
18E77
100
AcDbEntity
  8
SUNPOU
100
AcDbLine
 10
6853.617589827853
 20
7698.920617280122
 30
0.0
 11
6853.617589827853
 21
6962.92061728012
 31
0.0
  0
LINE
  5
193C8
330
18E77
100
AcDbEntity
  8
SUNPOU
100
AcDbLine
 10
4468.617589827849
 20
7007.920617280119
 30
0.0
 11
6838.617589827852
 21
7007.920617280119
 31
0.0
  0
LINE
  5
193C9
330
18E77
100
AcDbEntity
  8
SUNPOU
100
AcDbLine
 10
7119.617589827851
 20
10131.92061728012
 30
0.0
 11
7644.617589827847
 21
10131.92061728012
 31
0.0
  0
LINE
  5
193CA
330
18E77
100
AcDbEntity
  8
SUNPOU
100
AcDbLine
 10
7119.617589827851
 20
7721.920617280119
 30
0.0
 11
7644.617589827847
 21
7721.920617280119
 31
0.0
  0
LINE
  5
193CB
330
18E77
100
AcDbEntity
  8
SUNPOU
100
AcDbLine
 10
7599.617589827847
 20
10116.92061728012
 30
0.0
 11
7599.617589827847
 21
7736.920617280119
 31
0.0
  0
LINE
  5
193CC
330
18E77
100
AcDbEntity
  8
SUNPOU
100
AcDbLine
 10
7119.617589827851
 20
9851.920617280121
 30
0.0
 11
7434.61758982785
 21
9851.920617280121
 31
0.0
  0
LINE
  5
193CD
330
18E77
100
AcDbEntity
  8
SUNPOU
100
AcDbLine
 10
7119.617589827851
 20
10131.92061728012
 30
0.0
 11
7434.61758982785
 21
10131.92061728012
 31
0.0
  0
LINE
  5
193CE
330
18E77
100
AcDbEntity
  8
SUNPOU
100
AcDbLine
 10
7389.617589827851
 20
9866.920617280122
 30
0.0
 11
7389.617589827851
 21
10116.92061728012
 31
0.0
  0
LINE
  5
193CF
330
18E77
100
AcDbEntity
  8
SUNPOU
100
AcDbLine
 10
7119.617589827851
 20
8416.920617280121
 30
0.0
 11
7434.61758982785
 21
8416.920617280121
 31
0.0
  0
LINE
  5
193D0
330
18E77
100
AcDbEntity
  8
SUNPOU
100
AcDbLine
 10
7119.617589827851
 20
9851.920617280121
 30
0.0
 11
7434.61758982785
 21
9851.920617280121
 31
0.0
  0
LINE
  5
193D1
330
18E77
100
AcDbEntity
  8
SUNPOU
100
AcDbLine
 10
7389.617589827851
 20
8431.92061728012
 30
0.0
 11
7389.617589827851
 21
9836.920617280121
 31
0.0
  0
LINE
  5
193D2
330
18E77
100
AcDbEntity
  8
SUNPOU
100
AcDbLine
 10
7119.617589827851
 20
7721.920617280119
 30
0.0
 11
7434.61758982785
 21
7721.920617280119
 31
0.0
  0
LINE
  5
193D3
330
18E77
100
AcDbEntity
  8
SUNPOU
100
AcDbLine
 10
7119.617589827851
 20
8416.920617280121
 30
0.0
 11
7434.61758982785
 21
8416.920617280121
 31
0.0
  0
LINE
  5
193D4
330
18E77
100
AcDbEntity
  8
SUNPOU
100
AcDbLine
 10
7389.617589827851
 20
7736.920617280119
 30
0.0
 11
7389.617589827851
 21
8401.92061728012
 31
0.0
  0
ARC
  5
193D5
330
18E77
100
AcDbEntity
  8
SUNPOU
100
AcDbCircle
 10
6653.617589827849
 20
7217.920617280118
 30
0.0
 40
5.625
100
AcDbArc
 50
180.0
 51
0.0
  0
ARC
  5
193D6
330
18E77
100
AcDbEntity
  8
SUNPOU
100
AcDbCircle
 10
6653.617589827849
 20
7217.920617280118
 30
0.0
 40
5.625
100
AcDbArc
 50
0.0
 51
180.0
  0
ARC
  5
193D7
330
18E77
100
AcDbEntity
  8
SUNPOU
100
AcDbCircle
 10
6253.61758982785
 20
7217.920617280118
 30
0.0
 40
5.625
100
AcDbArc
 50
180.0
 51
0.0
  0
ARC
  5
193D8
330
18E77
100
AcDbEntity
  8
SUNPOU
100
AcDbCircle
 10
6253.61758982785
 20
7217.920617280118
 30
0.0
 40
5.625
100
AcDbArc
 50
0.0
 51
180.0
  0
ARC
  5
193D9
330
18E77
100
AcDbEntity
  8
SUNPOU
100
AcDbCircle
 10
6253.61758982785
 20
7217.920617280118
 30
0.0
 40
5.625
100
AcDbArc
 50
0.0
 51
180.0
  0
ARC
  5
193DA
330
18E77
100
AcDbEntity
  8
SUNPOU
100
AcDbCircle
 10
6253.61758982785
 20
7217.920617280118
 30
0.0
 40
5.625
100
AcDbArc
 50
180.0
 51
0.0
  0
ARC
  5
193DB
330
18E77
100
AcDbEntity
  8
SUNPOU
100
AcDbCircle
 10
5853.617589827852
 20
7217.920617280118
 30
0.0
 40
5.625
100
AcDbArc
 50
180.0
 51
0.0
  0
ARC
  5
193DC
330
18E77
100
AcDbEntity
  8
SUNPOU
100
AcDbCircle
 10
5853.617589827852
 20
7217.920617280118
 30
0.0
 40
5.625
100
AcDbArc
 50
0.0
 51
180.0
  0
ARC
  5
193DD
330
18E77
100
AcDbEntity
  8
SUNPOU
100
AcDbCircle
 10
5853.617589827852
 20
7217.920617280118
 30
0.0
 40
5.625
100
AcDbArc
 50
0.0
 51
180.0
  0
ARC
  5
193DE
330
18E77
100
AcDbEntity
  8
SUNPOU
100
AcDbCircle
 10
5853.617589827852
 20
7217.920617280118
 30
0.0
 40
5.625
100
AcDbArc
 50
180.0
 51
0.0
  0
ARC
  5
193DF
330
18E77
100
AcDbEntity
  8
SUNPOU
100
AcDbCircle
 10
5453.617589827853
 20
7217.920617280118
 30
0.0
 40
5.625
100
AcDbArc
 50
0.0
 51
180.0
  0
ARC
  5
193E0
330
18E77
100
AcDbEntity
  8
SUNPOU
100
AcDbCircle
 10
5453.617589827853
 20
7217.920617280118
 30
0.0
 40
5.625
100
AcDbArc
 50
180.0
 51
0.0
  0
LINE
  5
193E1
330
18E77
100
AcDbEntity
  8
SUNPOU
100
AcDbLine
 10
6853.617589827852
 20
5322.546798568533
 30
0.0
 11
6853.617589827852
 21
5337.546798568531
 31
0.0
  0
LINE
  5
193E2
330
18E77
100
AcDbEntity
  8
SUNPOU
100
AcDbLine
 10
4453.61758982785
 20
5322.546798568533
 30
0.0
 11
4453.61758982785
 21
5337.546798568531
 31
0.0
  0
LINE
  5
193E3
330
18E77
100
AcDbEntity
  8
SUNPOU
100
AcDbLine
 10
6838.617589827852
 20
5292.546798568533
 30
0.0
 11
4468.617589827849
 21
5292.546798568533
 31
0.0
  0
LINE
  5
193E4
330
18E77
100
AcDbEntity
  8
SUNPOU
100
AcDbLine
 10
6853.617589827848
 20
5322.546798568532
 30
0.0
 11
6853.617589827848
 21
5337.54679856853
 31
0.0
  0
LINE
  5
193E5
330
18E77
100
AcDbEntity
  8
SUNPOU
100
AcDbLine
 10
7089.617589827849
 20
4922.546798568532
 30
0.0
 11
7089.617589827849
 21
5337.54679856853
 31
0.0
  0
LINE
  5
193E6
330
18E77
100
AcDbEntity
  8
SUNPOU
100
AcDbLine
 10
6868.617589827848
 20
5292.54679856853
 30
0.0
 11
7074.617589827848
 21
5292.54679856853
 31
0.0
  0
LINE
  5
193E7
330
18E77
100
AcDbEntity
  8
SUNPOU
100
AcDbLine
 10
4453.61758982785
 20
5322.546798568533
 30
0.0
 11
4453.61758982785
 21
5337.546798568531
 31
0.0
  0
LINE
  5
193E8
330
18E77
100
AcDbEntity
  8
SUNPOU
100
AcDbLine
 10
4217.617589827851
 20
4922.546798568532
 30
0.0
 11
4217.617589827851
 21
5337.546798568531
 31
0.0
  0
LINE
  5
193E9
330
18E77
100
AcDbEntity
  8
SUNPOU
100
AcDbLine
 10
4438.61758982785
 20
5292.546798568533
 30
0.0
 11
4232.617589827849
 21
5292.546798568533
 31
0.0
  0
TEXT
  5
193EA
330
18E77
100
AcDbEntity
  8
SUNPOU
100
AcDbText
 10
5539.331875542138
 20
6813.859771644584
 30
0.0
 40
90.0
  1
2872
 41
0.6666666666666666
  7
00
100
AcDbText
  0
LINE
  5
193EB
330
18E77
100
AcDbEntity
  8
SUNPOU
100
AcDbLine
 10
7078.367589827852
 20
6768.859771644584
 30
0.0
 11
7067.117589827851
 21
6768.859771644584
 31
0.0
  0
LINE
  5
193EC
330
18E77
100
AcDbEntity
  8
SUNPOU
100
AcDbLine
 10
4228.867589827848
 20
6768.859771644584
 30
0.0
 11
4240.117589827849
 21
6768.859771644584
 31
0.0
  0
TEXT
  5
193ED
330
18E77
100
AcDbEntity
  8
SUNPOU
100
AcDbText
 10
10245.79629813217
 20
5337.546798568531
 30
0.0
 40
90.0
  1
695
 41
0.6666666666666666
  7
00
100
AcDbText
  0
LINE
  5
193EE
330
18E77
100
AcDbEntity
  8
SUNPOU
100
AcDbLine
 10
9996.689155275038
 20
5292.546798568533
 30
0.0
 11
10007.93915527504
 21
5292.546798568533
 31
0.0
  0
LINE
  5
193EF
330
18E77
100
AcDbEntity
  8
SUNPOU
100
AcDbLine
 10
10669.18915527504
 20
5292.546798568533
 30
0.0
 11
10657.93915527504
 21
5292.546798568533
 31
0.0
  0
TEXT
  5
193F0
330
18E77
100
AcDbEntity
  8
SUNPOU
100
AcDbText
 10
11279.36772670361
 20
5337.546798568531
 30
0.0
 40
90.0
  1
1435
 41
0.6666666666666666
  7
00
100
AcDbText
  0
LINE
  5
193F1
330
18E77
100
AcDbEntity
  8
SUNPOU
100
AcDbLine
 10
10691.68915527504
 20
5292.546798568533
 30
0.0
 11
10702.93915527504
 21
5292.546798568533
 31
0.0
  0
LINE
  5
193F2
330
18E77
100
AcDbEntity
  8
SUNPOU
100
AcDbLine
 10
12104.18915527504
 20
5292.546798568533
 30
0.0
 11
12092.93915527502
 21
5292.546798568533
 31
0.0
  0
TEXT
  5
193F3
330
18E77
100
AcDbEntity
  8
SUNPOU
100
AcDbText
 10
12169.72486956074
 20
5337.546798568531
 30
0.0
 40
90.0
  1
280
 41
0.6666666666666666
  7
00
100
AcDbText
  0
LINE
  5
193F4
330
18E77
100
AcDbEntity
  8
SUNPOU
100
AcDbLine
 10
12126.68915527502
 20
5292.546798568533
 30
0.0
 11
12137.93915527502
 21
5292.546798568533
 31
0.0
  0
LINE
  5
193F5
330
18E77
100
AcDbEntity
  8
SUNPOU
100
AcDbLine
 10
12384.18915527504
 20
5292.546798568533
 30
0.0
 11
12372.93915527504
 21
5292.546798568533
 31
0.0
  0
TEXT
  5
193F6
330
18E77
100
AcDbEntity
  8
SUNPOU
100
AcDbText
 10
9451.569579679539
 20
3685.261084282822
 30
0.0
 40
90.0
  1
2160
 50
90.0
 41
0.6666666666666666
  7
00
100
AcDbText
  0
LINE
  5
193F7
330
18E77
100
AcDbEntity
  8
SUNPOU
100
AcDbLine
 10
9496.569579679542
 20
4868.296798568533
 30
0.0
 11
9496.569579679542
 21
4857.046798568534
 31
0.0
  0
LINE
  5
193F8
330
18E77
100
AcDbEntity
  8
SUNPOU
100
AcDbLine
 10
9496.569579679539
 20
2730.796798568535
 30
0.0
 11
9496.569579679539
 21
2742.046798568535
 31
0.0
  0
TEXT
  5
193F9
330
18E77
100
AcDbEntity
  8
SUNPOU
100
AcDbText
 10
9451.569579679539
 20
2488.83251285425
 30
0.0
 40
90.0
  1
50
 50
90.0
 41
0.6666666666666666
  7
00
100
AcDbText
  0
LINE
  5
193FA
330
18E77
100
AcDbEntity
  8
SUNPOU
100
AcDbLine
 10
9496.569579679539
 20
2658.296798568534
 30
0.0
 11
9496.569579679539
 21
2647.046798568533
 31
0.0
  0
LINE
  5
193FB
330
18E77
100
AcDbEntity
  8
SUNPOU
100
AcDbLine
 10
9496.569579679539
 20
2730.796798568534
 30
0.0
 11
9496.569579679539
 21
2742.046798568534
 31
0.0
  0
TEXT
  5
193FC
330
18E77
100
AcDbEntity
  8
SUNPOU
100
AcDbText
 10
12656.26430788204
 20
3615.261084282822
 30
0.0
 40
90.0
  1
2020
 50
90.0
 41
0.6666666666666666
  7
00
100
AcDbText
  0
LINE
  5
193FD
330
18E77
100
AcDbEntity
  8
SUNPOU
100
AcDbLine
 10
12701.26430788204
 20
4728.296798568534
 30
0.0
 11
12701.26430788204
 21
4717.046798568532
 31
0.0
  0
LINE
  5
193FE
330
18E77
100
AcDbEntity
  8
SUNPOU
100
AcDbLine
 10
12701.26430788204
 20
2730.796798568535
 30
0.0
 11
12701.26430788204
 21
2742.046798568535
 31
0.0
  0
TEXT
  5
193FF
330
18E77
100
AcDbEntity
  8
SUNPOU
100
AcDbText
 10
4249.903304113565
 20
7052.920617280122
 30
0.0
 40
90.0
  1
236
 41
0.6666666666666666
  7
00
100
AcDbText
  0
LINE
  5
19400
330
18E77
100
AcDbEntity
  8
SUNPOU
100
AcDbLine
 10
4228.867589827848
 20
7007.920617280119
 30
0.0
 11
4240.117589827849
 21
7007.920617280119
 31
0.0
  0
LINE
  5
19401
330
18E77
100
AcDbEntity
  8
SUNPOU
100
AcDbLine
 10
4442.367589827848
 20
7007.920617280119
 30
0.0
 11
4431.11758982785
 21
7007.920617280119
 31
0.0
  0
TEXT
  5
19402
330
18E77
100
AcDbEntity
  8
SUNPOU
100
AcDbText
 10
6885.903304113567
 20
7052.920617280122
 30
0.0
 40
90.0
  1
236
 41
0.6666666666666666
  7
00
100
AcDbText
  0
LINE
  5
19403
330
18E77
100
AcDbEntity
  8
SUNPOU
100
AcDbLine
 10
7078.367589827853
 20
7007.920617280119
 30
0.0
 11
7067.117589827851
 21
7007.920617280119
 31
0.0
  0
LINE
  5
19404
330
18E77
100
AcDbEntity
  8
SUNPOU
100
AcDbLine
 10
6864.867589827851
 20
7007.920617280119
 30
0.0
 11
6876.117589827853
 21
7007.920617280119
 31
0.0
  0
TEXT
  5
19405
330
18E77
100
AcDbEntity
  8
SUNPOU
100
AcDbText
 10
5539.331875542138
 20
7052.920617280122
 30
0.0
 40
90.0
  1
2400
 41
0.6666666666666666
  7
00
100
AcDbText
  0
LINE
  5
19406
330
18E77
100
AcDbEntity
  8
SUNPOU
100
AcDbLine
 10
6842.367589827853
 20
7007.920617280119
 30
0.0
 11
6831.117589827852
 21
7007.920617280119
 31
0.0
  0
LINE
  5
19407
330
18E77
100
AcDbEntity
  8
SUNPOU
100
AcDbLine
 10
4464.867589827849
 20
7007.920617280119
 30
0.0
 11
4476.11758982785
 21
7007.920617280119
 31
0.0
  0
TEXT
  5
19408
330
18E77
100
AcDbEntity
  8
SUNPOU
100
AcDbText
 10
7554.617589827845
 20
8812.634902994405
 30
0.0
 40
90.0
  1
2410
 50
90.0
 41
0.6666666666666666
  7
00
100
AcDbText
  0
LINE
  5
19409
330
18E77
100
AcDbEntity
  8
SUNPOU
100
AcDbLine
 10
7599.617589827847
 20
7733.170617280119
 30
0.0
 11
7599.617589827847
 21
7744.420617280119
 31
0.0
  0
LINE
  5
1940A
330
18E77
100
AcDbEntity
  8
SUNPOU
100
AcDbLine
 10
7599.617589827847
 20
10120.67061728012
 30
0.0
 11
7599.617589827847
 21
10109.42061728012
 31
0.0
  0
TEXT
  5
1940B
330
18E77
100
AcDbEntity
  8
SUNPOU
100
AcDbText
 10
7344.617589827851
 20
9906.206331565838
 30
0.0
 40
90.0
  1
280
 50
90.0
 41
0.6666666666666666
  7
00
100
AcDbText
  0
LINE
  5
1940C
330
18E77
100
AcDbEntity
  8
SUNPOU
100
AcDbLine
 10
7389.617589827851
 20
10120.67061728012
 30
0.0
 11
7389.617589827851
 21
10109.42061728012
 31
0.0
  0
LINE
  5
1940D
330
18E77
100
AcDbEntity
  8
SUNPOU
100
AcDbLine
 10
7389.617589827851
 20
9863.17061728012
 30
0.0
 11
7389.617589827851
 21
9874.420617280122
 31
0.0
  0
TEXT
  5
1940E
330
18E77
100
AcDbEntity
  8
SUNPOU
100
AcDbText
 10
7344.617589827851
 20
9015.849188708697
 30
0.0
 40
90.0
  1
1435
 50
90.0
 41
0.6666666666666666
  7
00
100
AcDbText
  0
LINE
  5
1940F
330
18E77
100
AcDbEntity
  8
SUNPOU
100
AcDbLine
 10
7389.617589827851
 20
9840.670617280121
 30
0.0
 11
7389.617589827851
 21
9829.420617280121
 31
0.0
  0
LINE
  5
19410
330
18E77
100
AcDbEntity
  8
SUNPOU
100
AcDbLine
 10
7389.617589827851
 20
8428.170617280121
 30
0.0
 11
7389.617589827851
 21
8439.42061728012
 31
0.0
  0
TEXT
  5
19411
330
18E77
100
AcDbEntity
  8
SUNPOU
100
AcDbText
 10
7344.617589827851
 20
7982.277760137262
 30
0.0
 40
90.0
  1
695
 50
90.0
 41
0.6666666666666666
  7
00
100
AcDbText
  0
LINE
  5
19412
330
18E77
100
AcDbEntity
  8
SUNPOU
100
AcDbLine
 10
7389.617589827851
 20
8405.67061728012
 30
0.0
 11
7389.617589827851
 21
8394.42061728012
 31
0.0
  0
LINE
  5
19413
330
18E77
100
AcDbEntity
  8
SUNPOU
100
AcDbLine
 10
7389.617589827851
 20
7733.170617280119
 30
0.0
 11
7389.617589827851
 21
7744.420617280119
 31
0.0
  0
TEXT
  5
19414
330
18E77
100
AcDbEntity
  8
SUNPOU
100
AcDbText
 10
5539.331875542138
 20
5337.546798568531
 30
0.0
 40
90.0
  1
2400
 41
0.6666666666666666
  7
00
100
AcDbText
  0
LINE
  5
19415
330
18E77
100
AcDbEntity
  8
SUNPOU
100
AcDbLine
 10
4464.867589827849
 20
5292.546798568533
 30
0.0
 11
4476.11758982785
 21
5292.546798568533
 31
0.0
  0
LINE
  5
19416
330
18E77
100
AcDbEntity
  8
SUNPOU
100
AcDbLine
 10
6842.36758982785
 20
5292.546798568533
 30
0.0
 11
6831.117589827852
 21
5292.546798568533
 31
0.0
  0
TEXT
  5
19417
330
18E77
100
AcDbEntity
  8
SUNPOU
100
AcDbText
 10
6885.903304113561
 20
5337.54679856853
 30
0.0
 40
90.0
  1
236
 41
0.6666666666666666
  7
00
100
AcDbText
  0
LINE
  5
19418
330
18E77
100
AcDbEntity
  8
SUNPOU
100
AcDbLine
 10
7078.367589827847
 20
5292.54679856853
 30
0.0
 11
7067.117589827848
 21
5292.54679856853
 31
0.0
  0
LINE
  5
19419
330
18E77
100
AcDbEntity
  8
SUNPOU
100
AcDbLine
 10
6864.867589827849
 20
5292.54679856853
 30
0.0
 11
6876.117589827848
 21
5292.54679856853
 31
0.0
  0
TEXT
  5
1941A
330
18E77
100
AcDbEntity
  8
SUNPOU
100
AcDbText
 10
4249.903304113565
 20
5337.546798568531
 30
0.0
 40
90.0
  1
236
 41
0.6666666666666666
  7
00
100
AcDbText
  0
LINE
  5
1941B
330
18E77
100
AcDbEntity
  8
SUNPOU
100
AcDbLine
 10
4228.867589827849
 20
5292.546798568533
 30
0.0
 11
4240.117589827851
 21
5292.546798568533
 31
0.0
  0
LINE
  5
1941C
330
18E77
100
AcDbEntity
  8
SUNPOU
100
AcDbLine
 10
4442.367589827848
 20
5292.546798568533
 30
0.0
 11
4431.11758982785
 21
5292.546798568533
 31
0.0
  0
ARC
  5
1941D
330
18E77
100
AcDbEntity
  8
SUNPOU
100
AcDbCircle
 10
7089.617589827851
 20
6768.859771644584
 30
0.0
 40
5.625
100
AcDbArc
 50
180.0
 51
0.0
  0
ARC
  5
1941E
330
18E77
100
AcDbEntity
  8
SUNPOU
100
AcDbCircle
 10
7089.617589827851
 20
6768.859771644584
 30
0.0
 40
5.625
100
AcDbArc
 50
0.0
 51
180.0
  0
ARC
  5
1941F
330
18E77
100
AcDbEntity
  8
SUNPOU
100
AcDbCircle
 10
4217.61758982785
 20
6768.859771644584
 30
0.0
 40
5.625
100
AcDbArc
 50
0.0
 51
180.0
  0
ARC
  5
19420
330
18E77
100
AcDbEntity
  8
SUNPOU
100
AcDbCircle
 10
4217.61758982785
 20
6768.859771644584
 30
0.0
 40
5.625
100
AcDbArc
 50
180.0
 51
0.0
  0
ARC
  5
19421
330
18E77
100
AcDbEntity
  8
SUNPOU
100
AcDbCircle
 10
9985.439155275038
 20
5292.546798568533
 30
0.0
 40
5.625
100
AcDbArc
 50
0.0
 51
180.0
  0
ARC
  5
19422
330
18E77
100
AcDbEntity
  8
SUNPOU
100
AcDbCircle
 10
9985.439155275038
 20
5292.546798568533
 30
0.0
 40
5.625
100
AcDbArc
 50
180.0
 51
0.0
  0
ARC
  5
19423
330
18E77
100
AcDbEntity
  8
SUNPOU
100
AcDbCircle
 10
10680.43915527504
 20
5292.546798568533
 30
0.0
 40
5.625
100
AcDbArc
 50
180.0
 51
0.0
  0
ARC
  5
19424
330
18E77
100
AcDbEntity
  8
SUNPOU
100
AcDbCircle
 10
10680.43915527504
 20
5292.546798568533
 30
0.0
 40
5.625
100
AcDbArc
 50
0.0
 51
180.0
  0
ARC
  5
19425
330
18E77
100
AcDbEntity
  8
SUNPOU
100
AcDbCircle
 10
10680.43915527504
 20
5292.546798568533
 30
0.0
 40
5.625
100
AcDbArc
 50
0.0
 51
180.0
  0
ARC
  5
19426
330
18E77
100
AcDbEntity
  8
SUNPOU
100
AcDbCircle
 10
10680.43915527504
 20
5292.546798568533
 30
0.0
 40
5.625
100
AcDbArc
 50
180.0
 51
0.0
  0
ARC
  5
19427
330
18E77
100
AcDbEntity
  8
SUNPOU
100
AcDbCircle
 10
12115.43915527502
 20
5292.546798568533
 30
0.0
 40
5.625
100
AcDbArc
 50
180.0
 51
0.0
  0
ARC
  5
19428
330
18E77
100
AcDbEntity
  8
SUNPOU
100
AcDbCircle
 10
12115.43915527502
 20
5292.546798568533
 30
0.0
 40
5.625
100
AcDbArc
 50
0.0
 51
180.0
  0
ARC
  5
19429
330
18E77
100
AcDbEntity
  8
SUNPOU
100
AcDbCircle
 10
12115.43915527502
 20
5292.546798568533
 30
0.0
 40
5.625
100
AcDbArc
 50
0.0
 51
180.0
  0
ARC
  5
1942A
330
18E77
100
AcDbEntity
  8
SUNPOU
100
AcDbCircle
 10
12115.43915527502
 20
5292.546798568533
 30
0.0
 40
5.625
100
AcDbArc
 50
180.0
 51
0.0
  0
ARC
  5
1942B
330
18E77
100
AcDbEntity
  8
SUNPOU
100
AcDbCircle
 10
12395.43915527502
 20
5292.546798568533
 30
0.0
 40
5.625
100
AcDbArc
 50
180.0
 51
0.0
  0
ARC
  5
1942C
330
18E77
100
AcDbEntity
  8
SUNPOU
100
AcDbCircle
 10
12395.43915527502
 20
5292.546798568533
 30
0.0
 40
5.625
100
AcDbArc
 50
0.0
 51
180.0
  0
ARC
  5
1942D
330
18E77
100
AcDbEntity
  8
SUNPOU
100
AcDbCircle
 10
9496.569579679542
 20
4879.546798568533
 30
0.0
 40
5.625
100
AcDbArc
 50
270.0
 51
90.0
  0
ARC
  5
1942E
330
18E77
100
AcDbEntity
  8
SUNPOU
100
AcDbCircle
 10
9496.569579679542
 20
4879.546798568533
 30
0.0
 40
5.625
100
AcDbArc
 50
90.0
 51
270.0
  0
ARC
  5
1942F
330
18E77
100
AcDbEntity
  8
SUNPOU
100
AcDbCircle
 10
9496.569579679539
 20
2719.546798568535
 30
0.0
 40
5.625
100
AcDbArc
 50
90.0
 51
270.0
  0
ARC
  5
19430
330
18E77
100
AcDbEntity
  8
SUNPOU
100
AcDbCircle
 10
9496.569579679539
 20
2719.546798568535
 30
0.0
 40
5.625
100
AcDbArc
 50
270.0
 51
90.0
  0
ARC
  5
19431
330
18E77
100
AcDbEntity
  8
SUNPOU
100
AcDbCircle
 10
9496.569579679539
 20
2669.546798568534
 30
0.0
 40
5.625
100
AcDbArc
 50
270.0
 51
90.0
  0
ARC
  5
19432
330
18E77
100
AcDbEntity
  8
SUNPOU
100
AcDbCircle
 10
9496.569579679539
 20
2669.546798568534
 30
0.0
 40
5.625
100
AcDbArc
 50
90.0
 51
270.0
  0
ARC
  5
19433
330
18E77
100
AcDbEntity
  8
SUNPOU
100
AcDbCircle
 10
9496.569579679539
 20
2719.546798568534
 30
0.0
 40
5.625
100
AcDbArc
 50
90.0
 51
270.0
  0
ARC
  5
19434
330
18E77
100
AcDbEntity
  8
SUNPOU
100
AcDbCircle
 10
9496.569579679539
 20
2719.546798568534
 30
0.0
 40
5.625
100
AcDbArc
 50
270.0
 51
90.0
  0
ARC
  5
19435
330
18E77
100
AcDbEntity
  8
SUNPOU
100
AcDbCircle
 10
12701.26430788204
 20
4739.546798568532
 30
0.0
 40
5.625
100
AcDbArc
 50
270.0
 51
90.0
  0
ARC
  5
19436
330
18E77
100
AcDbEntity
  8
SUNPOU
100
AcDbCircle
 10
12701.26430788204
 20
4739.546798568532
 30
0.0
 40
5.625
100
AcDbArc
 50
90.0
 51
270.0
  0
ARC
  5
19437
330
18E77
100
AcDbEntity
  8
SUNPOU
100
AcDbCircle
 10
12701.26430788204
 20
2719.546798568535
 30
0.0
 40
5.625
100
AcDbArc
 50
90.0
 51
270.0
  0
ARC
  5
19438
330
18E77
100
AcDbEntity
  8
SUNPOU
100
AcDbCircle
 10
12701.26430788204
 20
2719.546798568535
 30
0.0
 40
5.625
100
AcDbArc
 50
270.0
 51
90.0
  0
ARC
  5
19439
330
18E77
100
AcDbEntity
  8
SUNPOU
100
AcDbCircle
 10
4217.61758982785
 20
7007.920617280119
 30
0.0
 40
5.625
100
AcDbArc
 50
0.0
 51
180.0
  0
ARC
  5
1943A
330
18E77
100
AcDbEntity
  8
SUNPOU
100
AcDbCircle
 10
4217.61758982785
 20
7007.920617280119
 30
0.0
 40
5.625
100
AcDbArc
 50
180.0
 51
0.0
  0
ARC
  5
1943B
330
18E77
100
AcDbEntity
  8
SUNPOU
100
AcDbCircle
 10
4453.61758982785
 20
7007.920617280119
 30
0.0
 40
5.625
100
AcDbArc
 50
180.0
 51
0.0
  0
ARC
  5
1943C
330
18E77
100
AcDbEntity
  8
SUNPOU
100
AcDbCircle
 10
4453.61758982785
 20
7007.920617280119
 30
0.0
 40
5.625
100
AcDbArc
 50
0.0
 51
180.0
  0
ARC
  5
1943D
330
18E77
100
AcDbEntity
  8
SUNPOU
100
AcDbCircle
 10
7089.617589827851
 20
7007.920617280119
 30
0.0
 40
5.625
100
AcDbArc
 50
180.0
 51
0.0
  0
ARC
  5
1943E
330
18E77
100
AcDbEntity
  8
SUNPOU
100
AcDbCircle
 10
7089.617589827851
 20
7007.920617280119
 30
0.0
 40
5.625
100
AcDbArc
 50
0.0
 51
180.0
  0
ARC
  5
1943F
330
18E77
100
AcDbEntity
  8
SUNPOU
100
AcDbCircle
 10
6853.617589827853
 20
7007.920617280119
 30
0.0
 40
5.625
100
AcDbArc
 50
0.0
 51
180.0
  0
ARC
  5
19440
330
18E77
100
AcDbEntity
  8
SUNPOU
100
AcDbCircle
 10
6853.617589827853
 20
7007.920617280119
 30
0.0
 40
5.625
100
AcDbArc
 50
180.0
 51
0.0
  0
ARC
  5
19441
330
18E77
100
AcDbEntity
  8
SUNPOU
100
AcDbCircle
 10
6853.617589827853
 20
7007.920617280119
 30
0.0
 40
5.625
100
AcDbArc
 50
180.0
 51
0.0
  0
ARC
  5
19442
330
18E77
100
AcDbEntity
  8
SUNPOU
100
AcDbCircle
 10
6853.617589827853
 20
7007.920617280119
 30
0.0
 40
5.625
100
AcDbArc
 50
0.0
 51
180.0
  0
ARC
  5
19443
330
18E77
100
AcDbEntity
  8
SUNPOU
100
AcDbCircle
 10
4453.61758982785
 20
7007.920617280119
 30
0.0
 40
5.625
100
AcDbArc
 50
0.0
 51
180.0
  0
ARC
  5
19444
330
18E77
100
AcDbEntity
  8
SUNPOU
100
AcDbCircle
 10
4453.61758982785
 20
7007.920617280119
 30
0.0
 40
5.625
100
AcDbArc
 50
180.0
 51
0.0
  0
ARC
  5
19445
330
18E77
100
AcDbEntity
  8
SUNPOU
100
AcDbCircle
 10
7599.617589827847
 20
7721.920617280119
 30
0.0
 40
5.625
100
AcDbArc
 50
90.0
 51
270.0
  0
ARC
  5
19446
330
18E77
100
AcDbEntity
  8
SUNPOU
100
AcDbCircle
 10
7599.617589827847
 20
7721.920617280119
 30
0.0
 40
5.625
100
AcDbArc
 50
270.0
 51
90.0
  0
ARC
  5
19447
330
18E77
100
AcDbEntity
  8
SUNPOU
100
AcDbCircle
 10
7599.617589827847
 20
10131.92061728012
 30
0.0
 40
5.625
100
AcDbArc
 50
270.0
 51
90.0
  0
ARC
  5
19448
330
18E77
100
AcDbEntity
  8
SUNPOU
100
AcDbCircle
 10
7599.617589827847
 20
10131.92061728012
 30
0.0
 40
5.625
100
AcDbArc
 50
90.0
 51
270.0
  0
ARC
  5
19449
330
18E77
100
AcDbEntity
  8
SUNPOU
100
AcDbCircle
 10
7389.617589827851
 20
10131.92061728012
 30
0.0
 40
5.625
100
AcDbArc
 50
270.0
 51
90.0
  0
ARC
  5
1944A
330
18E77
100
AcDbEntity
  8
SUNPOU
100
AcDbCircle
 10
7389.617589827851
 20
10131.92061728012
 30
0.0
 40
5.625
100
AcDbArc
 50
90.0
 51
270.0
  0
ARC
  5
1944B
330
18E77
100
AcDbEntity
  8
SUNPOU
100
AcDbCircle
 10
7389.617589827851
 20
9851.920617280121
 30
0.0
 40
5.625
100
AcDbArc
 50
90.0
 51
270.0
  0
ARC
  5
1944C
330
18E77
100
AcDbEntity
  8
SUNPOU
100
AcDbCircle
 10
7389.617589827851
 20
9851.920617280121
 30
0.0
 40
5.625
100
AcDbArc
 50
270.0
 51
90.0
  0
ARC
  5
1944D
330
18E77
100
AcDbEntity
  8
SUNPOU
100
AcDbCircle
 10
7389.617589827851
 20
9851.920617280121
 30
0.0
 40
5.625
100
AcDbArc
 50
270.0
 51
90.0
  0
ARC
  5
1944E
330
18E77
100
AcDbEntity
  8
SUNPOU
100
AcDbCircle
 10
7389.617589827851
 20
9851.920617280121
 30
0.0
 40
5.625
100
AcDbArc
 50
90.0
 51
270.0
  0
ARC
  5
1944F
330
18E77
100
AcDbEntity
  8
SUNPOU
100
AcDbCircle
 10
7389.617589827851
 20
8416.920617280121
 30
0.0
 40
5.625
100
AcDbArc
 50
90.0
 51
270.0
  0
ARC
  5
19450
330
18E77
100
AcDbEntity
  8
SUNPOU
100
AcDbCircle
 10
7389.617589827851
 20
8416.920617280121
 30
0.0
 40
5.625
100
AcDbArc
 50
270.0
 51
90.0
  0
ARC
  5
19451
330
18E77
100
AcDbEntity
  8
SUNPOU
100
AcDbCircle
 10
7389.617589827851
 20
8416.920617280121
 30
0.0
 40
5.625
100
AcDbArc
 50
270.0
 51
90.0
  0
ARC
  5
19452
330
18E77
100
AcDbEntity
  8
SUNPOU
100
AcDbCircle
 10
7389.617589827851
 20
8416.920617280121
 30
0.0
 40
5.625
100
AcDbArc
 50
90.0
 51
270.0
  0
ARC
  5
19453
330
18E77
100
AcDbEntity
  8
SUNPOU
100
AcDbCircle
 10
7389.617589827851
 20
7721.920617280119
 30
0.0
 40
5.625
100
AcDbArc
 50
90.0
 51
270.0
  0
ARC
  5
19454
330
18E77
100
AcDbEntity
  8
SUNPOU
100
AcDbCircle
 10
7389.617589827851
 20
7721.920617280119
 30
0.0
 40
5.625
100
AcDbArc
 50
270.0
 51
90.0
  0
ARC
  5
19455
330
18E77
100
AcDbEntity
  8
SUNPOU
100
AcDbCircle
 10
4453.61758982785
 20
5292.546798568533
 30
0.0
 40
5.625
100
AcDbArc
 50
0.0
 51
180.0
  0
ARC
  5
19456
330
18E77
100
AcDbEntity
  8
SUNPOU
100
AcDbCircle
 10
4453.61758982785
 20
5292.546798568533
 30
0.0
 40
5.625
100
AcDbArc
 50
180.0
 51
0.0
  0
ARC
  5
19457
330
18E77
100
AcDbEntity
  8
SUNPOU
100
AcDbCircle
 10
6853.617589827852
 20
5292.546798568533
 30
0.0
 40
5.625
100
AcDbArc
 50
180.0
 51
0.0
  0
ARC
  5
19458
330
18E77
100
AcDbEntity
  8
SUNPOU
100
AcDbCircle
 10
6853.617589827852
 20
5292.546798568533
 30
0.0
 40
5.625
100
AcDbArc
 50
0.0
 51
180.0
  0
ARC
  5
19459
330
18E77
100
AcDbEntity
  8
SUNPOU
100
AcDbCircle
 10
7089.617589827849
 20
5292.54679856853
 30
0.0
 40
5.625
100
AcDbArc
 50
180.0
 51
0.0
  0
ARC
  5
1945A
330
18E77
100
AcDbEntity
  8
SUNPOU
100
AcDbCircle
 10
7089.617589827849
 20
5292.54679856853
 30
0.0
 40
5.625
100
AcDbArc
 50
0.0
 51
180.0
  0
ARC
  5
1945B
330
18E77
100
AcDbEntity
  8
SUNPOU
100
AcDbCircle
 10
6853.617589827848
 20
5292.54679856853
 30
0.0
 40
5.625
100
AcDbArc
 50
0.0
 51
180.0
  0
ARC
  5
1945C
330
18E77
100
AcDbEntity
  8
SUNPOU
100
AcDbCircle
 10
6853.617589827848
 20
5292.54679856853
 30
0.0
 40
5.625
100
AcDbArc
 50
180.0
 51
0.0
  0
ARC
  5
1945D
330
18E77
100
AcDbEntity
  8
SUNPOU
100
AcDbCircle
 10
4217.617589827851
 20
5292.546798568533
 30
0.0
 40
5.625
100
AcDbArc
 50
0.0
 51
180.0
  0
ARC
  5
1945E
330
18E77
100
AcDbEntity
  8
SUNPOU
100
AcDbCircle
 10
4217.617589827851
 20
5292.546798568533
 30
0.0
 40
5.625
100
AcDbArc
 50
180.0
 51
0.0
  0
ARC
  5
1945F
330
18E77
100
AcDbEntity
  8
SUNPOU
100
AcDbCircle
 10
4453.61758982785
 20
5292.546798568533
 30
0.0
 40
5.625
100
AcDbArc
 50
180.0
 51
0.0
  0
ARC
  5
19460
330
18E77
100
AcDbEntity
  8
SUNPOU
100
AcDbCircle
 10
4453.61758982785
 20
5292.546798568533
 30
0.0
 40
5.625
100
AcDbArc
 50
0.0
 51
180.0
  0
LINE
  5
19461
330
18E77
100
AcDbEntity
  8
HIKIDASHI
100
AcDbLine
 10
4511.607970884629
 20
9131.078360600458
 30
0.0
 11
4453.61758982785
 21
9201.520646941045
 31
0.0
  0
LINE
  5
19462
330
18E77
100
AcDbEntity
  8
HIKIDASHI
100
AcDbLine
 10
4453.61758982785
 20
9201.520646941045
 30
0.0
 11
4485.627208771098
 21
9116.078360600452
 31
0.0
  0
SOLID
  5
19463
330
18E77
100
AcDbEntity
  8
HIKIDASHI
100
AcDbTrace
 10
4511.607970884629
 20
9131.078360600458
 30
0.0
 11
4485.627208771098
 21
9116.078360600452
 31
0.0
 12
4453.61758982785
 22
9201.520646941045
 32
0.0
 13
4453.61758982785
 23
9201.520646941045
 33
0.0
  0
LINE
  5
19464
330
18E77
100
AcDbEntity
  8
HIKIDASHI
100
AcDbLine
 10
4485.627208771098
 20
9116.078360600452
 30
0.0
 11
4511.607970884629
 21
9131.078360600458
 31
0.0
  0
LINE
  5
19465
330
18E77
100
AcDbEntity
  8
HIKIDASHI
100
AcDbLine
 10
4365.572950492512
 20
8818.170684573964
 30
0.0
 11
4042.267714789629
 21
8686.105932498515
 31
0.0
1001
ACAD
1000
DSTYLE
1002
{
1070
   147
1040
1.5
1070
    77
1070
     0
1002
}
  0
LINE
  5
19466
330
18E77
100
AcDbEntity
  8
HIKIDASHI
100
AcDbLine
 10
4369.354459013911
 20
8808.913244684742
 30
0.0
 11
4421.11758982785
 21
8840.859735702364
 31
0.0
  0
LINE
  5
19467
330
18E77
100
AcDbEntity
  8
HIKIDASHI
100
AcDbLine
 10
4421.11758982785
 20
8840.859735702364
 30
0.0
 11
4361.791441971113
 21
8827.428124463189
 31
0.0
  0
SOLID
  5
19468
330
18E77
100
AcDbEntity
  8
HIKIDASHI
100
AcDbTrace
 10
4369.354459013911
 20
8808.913244684742
 30
0.0
 11
4361.791441971113
 21
8827.428124463189
 31
0.0
 12
4421.11758982785
 22
8840.859735702364
 32
0.0
 13
4421.11758982785
 23
8840.859735702364
 33
0.0
  0
LINE
  5
19469
330
18E77
100
AcDbEntity
  8
HIKIDASHI
100
AcDbLine
 10
4361.791441971113
 20
8827.428124463189
 30
0.0
 11
4369.354459013911
 21
8808.913244684742
 31
0.0
  0
LINE
  5
1946A
330
18E77
100
AcDbEntity
  8
HIKIDASHI
100
AcDbLine
 10
4814.136953286904
 20
9920.282141507179
 30
0.0
 11
4603.071694177038
 21
10285.857893998
 31
0.0
1001
ACAD
1000
DSTYLE
1002
{
1070
   147
1040
1.5
1070
    77
1070
     0
1002
}
  0
LINE
  5
1946B
330
18E77
100
AcDbEntity
  8
HIKIDASHI
100
AcDbLine
 10
4805.476699249061
 20
9915.282141507177
 30
0.0
 11
4844.136953286914
 21
9868.320617280119
 31
0.0
  0
LINE
  5
1946C
330
18E77
100
AcDbEntity
  8
HIKIDASHI
100
AcDbLine
 10
4844.136953286914
 20
9868.320617280119
 30
0.0
 11
4822.797207324748
 21
9925.28214150718
 31
0.0
  0
SOLID
  5
1946D
330
18E77
100
AcDbEntity
  8
HIKIDASHI
100
AcDbTrace
 10
4805.476699249061
 20
9915.282141507177
 30
0.0
 11
4822.797207324748
 21
9925.28214150718
 31
0.0
 12
4844.136953286914
 22
9868.320617280119
 32
0.0
 13
4844.136953286914
 23
9868.320617280119
 33
0.0
  0
LINE
  5
1946E
330
18E77
100
AcDbEntity
  8
HIKIDASHI
100
AcDbLine
 10
4822.797207324748
 20
9925.28214150718
 30
0.0
 11
4805.476699249061
 21
9915.282141507177
 31
0.0
  0
LINE
  5
1946F
330
18E77
100
AcDbEntity
  8
HIKIDASHI
100
AcDbLine
 10
4516.117589827858
 20
8360.959093053057
 30
0.0
 11
4661.013392662864
 21
8109.992200739453
 31
0.0
1001
ACAD
1000
DSTYLE
1002
{
1070
   147
1040
1.5
1070
    77
1070
     0
1002
}
  0
LINE
  5
19470
330
18E77
100
AcDbEntity
  8
HIKIDASHI
100
AcDbLine
 10
4524.777843865702
 20
8365.95909305306
 30
0.0
 11
4486.117589827848
 21
8412.92061728012
 31
0.0
  0
LINE
  5
19471
330
18E77
100
AcDbEntity
  8
HIKIDASHI
100
AcDbLine
 10
4486.117589827848
 20
8412.92061728012
 30
0.0
 11
4507.457335790014
 21
8355.959093053057
 31
0.0
  0
SOLID
  5
19472
330
18E77
100
AcDbEntity
  8
HIKIDASHI
100
AcDbTrace
 10
4524.777843865702
 20
8365.95909305306
 30
0.0
 11
4507.457335790014
 21
8355.959093053057
 31
0.0
 12
4486.117589827848
 22
8412.92061728012
 32
0.0
 13
4486.117589827848
 23
8412.92061728012
 33
0.0
  0
LINE
  5
19473
330
18E77
100
AcDbEntity
  8
HIKIDASHI
100
AcDbLine
 10
4507.457335790014
 20
8355.959093053057
 30
0.0
 11
4524.777843865702
 21
8365.95909305306
 31
0.0
  0
LINE
  5
19474
330
18E77
100
AcDbEntity
  8
HIKIDASHI
100
AcDbLine
 10
4565.859130808648
 20
9660.878582729933
 30
0.0
 11
4714.688460497582
 21
9352.31991193285
 31
0.0
1001
ACAD
1000
DSTYLE
1002
{
1070
   147
1040
1.5
1070
    77
1070
     0
1002
}
  0
LINE
  5
19475
330
18E77
100
AcDbEntity
  8
HIKIDASHI
100
AcDbLine
 10
4574.866132680224
 20
9665.222994920943
 30
0.0
 11
4539.792657662569
 21
9714.920593959389
 31
0.0
  0
LINE
  5
19476
330
18E77
100
AcDbEntity
  8
HIKIDASHI
100
AcDbLine
 10
4539.792657662569
 20
9714.920593959389
 30
0.0
 11
4556.852128937072
 21
9656.534170538918
 31
0.0
  0
SOLID
  5
19477
330
18E77
100
AcDbEntity
  8
HIKIDASHI
100
AcDbTrace
 10
4574.866132680224
 20
9665.222994920943
 30
0.0
 11
4556.852128937072
 21
9656.534170538918
 31
0.0
 12
4539.792657662569
 22
9714.920593959389
 32
0.0
 13
4539.792657662569
 23
9714.920593959389
 33
0.0
  0
LINE
  5
19478
330
18E77
100
AcDbEntity
  8
HIKIDASHI
100
AcDbLine
 10
4556.852128937072
 20
9656.534170538918
 30
0.0
 11
4574.866132680224
 21
9665.222994920943
 31
0.0
  0
LINE
  5
19479
330
18E77
100
AcDbEntity
  8
HIKIDASHI
100
AcDbLine
 10
5426.103156462374
 20
9077.101295516779
 30
0.0
 11
5224.337560525396
 21
8686.105932498515
 31
0.0
1001
ACAD
1000
DSTYLE
1002
{
1070
   147
1040
1.5
1070
    77
1070
     0
1002
}
  0
LINE
  5
1947A
330
18E77
100
AcDbEntity
  8
HIKIDASHI
100
AcDbLine
 10
5434.989719284624
 20
9072.515556622532
 30
0.0
 11
5453.61758982785
 21
9130.420672450281
 31
0.0
  0
LINE
  5
1947B
330
18E77
100
AcDbEntity
  8
HIKIDASHI
100
AcDbLine
 10
5453.61758982785
 20
9130.420672450281
 30
0.0
 11
5417.216593640123
 21
9081.687034411025
 31
0.0
  0
SOLID
  5
1947C
330
18E77
100
AcDbEntity
  8
HIKIDASHI
100
AcDbTrace
 10
5434.989719284624
 20
9072.515556622532
 30
0.0
 11
5417.216593640123
 21
9081.687034411025
 31
0.0
 12
5453.61758982785
 22
9130.420672450281
 32
0.0
 13
5453.61758982785
 23
9130.420672450281
 33
0.0
  0
LINE
  5
1947D
330
18E77
100
AcDbEntity
  8
HIKIDASHI
100
AcDbLine
 10
5417.216593640123
 20
9081.687034411025
 30
0.0
 11
5434.989719284624
 21
9072.515556622532
 31
0.0
  0
CIRCLE
  5
1947E
330
18E77
100
AcDbEntity
  8
HATCH
100
AcDbCircle
 10
10004.59833791486
 20
2694.546798568534
 30
0.0
 40
3.75
  0
CIRCLE
  5
1947F
330
18E77
100
AcDbEntity
  8
HATCH
100
AcDbCircle
 10
10154.59833791485
 20
2694.546798568534
 30
0.0
 40
3.75
  0
CIRCLE
  5
19480
330
18E77
100
AcDbEntity
  8
HATCH
100
AcDbCircle
 10
10304.59833791486
 20
2694.546798568534
 30
0.0
 40
3.75
  0
CIRCLE
  5
19481
330
18E77
100
AcDbEntity
  8
HATCH
100
AcDbCircle
 10
10454.59833791486
 20
2694.546798568534
 30
0.0
 40
3.75
  0
CIRCLE
  5
19482
330
18E77
100
AcDbEntity
  8
HATCH
100
AcDbCircle
 10
10604.59833791486
 20
2694.546798568534
 30
0.0
 40
3.75
  0
CIRCLE
  5
19483
330
18E77
100
AcDbEntity
  8
HATCH
100
AcDbCircle
 10
10754.59833791486
 20
2694.546798568534
 30
0.0
 40
3.75
  0
CIRCLE
  5
19484
330
18E77
100
AcDbEntity
  8
HATCH
100
AcDbCircle
 10
10904.59833791486
 20
2694.546798568534
 30
0.0
 40
3.75
  0
CIRCLE
  5
19485
330
18E77
100
AcDbEntity
  8
HATCH
100
AcDbCircle
 10
11054.59833791485
 20
2694.546798568534
 30
0.0
 40
3.75
  0
CIRCLE
  5
19486
330
18E77
100
AcDbEntity
  8
HATCH
100
AcDbCircle
 10
11204.59833791486
 20
2694.546798568534
 30
0.0
 40
3.75
  0
CIRCLE
  5
19487
330
18E77
100
AcDbEntity
  8
HATCH
100
AcDbCircle
 10
11354.59833791485
 20
2694.546798568534
 30
0.0
 40
3.75
  0
CIRCLE
  5
19488
330
18E77
100
AcDbEntity
  8
HATCH
100
AcDbCircle
 10
11504.59833791485
 20
2694.546798568534
 30
0.0
 40
3.75
  0
CIRCLE
  5
19489
330
18E77
100
AcDbEntity
  8
HATCH
100
AcDbCircle
 10
11654.59833791485
 20
2694.546798568534
 30
0.0
 40
3.75
  0
CIRCLE
  5
1948A
330
18E77
100
AcDbEntity
  8
HATCH
100
AcDbCircle
 10
11804.59833791486
 20
2694.546798568534
 30
0.0
 40
3.75
  0
CIRCLE
  5
1948B
330
18E77
100
AcDbEntity
  8
HATCH
100
AcDbCircle
 10
11954.59833791486
 20
2694.546798568534
 30
0.0
 40
3.75
  0
CIRCLE
  5
1948C
330
18E77
100
AcDbEntity
  8
HATCH
100
AcDbCircle
 10
12104.59833791485
 20
2694.546798568534
 30
0.0
 40
3.75
  0
CIRCLE
  5
1948D
330
18E77
100
AcDbEntity
  8
HATCH
100
AcDbCircle
 10
12254.59833791485
 20
2694.546798568534
 30
0.0
 40
3.75
  0
CIRCLE
  5
1948E
330
18E77
100
AcDbEntity
  8
HATCH
100
AcDbCircle
 10
7042.776772467679
 20
2694.546798568534
 30
0.0
 40
3.75
  0
CIRCLE
  5
1948F
330
18E77
100
AcDbEntity
  8
HATCH
100
AcDbCircle
 10
4342.776772467678
 20
2694.546798568534
 30
0.0
 40
3.75
  0
CIRCLE
  5
19490
330
18E77
100
AcDbEntity
  8
HATCH
100
AcDbCircle
 10
6892.776772467676
 20
2694.546798568534
 30
0.0
 40
3.75
  0
CIRCLE
  5
19491
330
18E77
100
AcDbEntity
  8
HATCH
100
AcDbCircle
 10
6742.776772467677
 20
2694.546798568534
 30
0.0
 40
3.75
  0
CIRCLE
  5
19492
330
18E77
100
AcDbEntity
  8
HATCH
100
AcDbCircle
 10
6592.776772467676
 20
2694.546798568534
 30
0.0
 40
3.75
  0
CIRCLE
  5
19493
330
18E77
100
AcDbEntity
  8
HATCH
100
AcDbCircle
 10
6442.776772467677
 20
2694.546798568534
 30
0.0
 40
3.75
  0
CIRCLE
  5
19494
330
18E77
100
AcDbEntity
  8
HATCH
100
AcDbCircle
 10
6292.776772467677
 20
2694.546798568534
 30
0.0
 40
3.75
  0
CIRCLE
  5
19495
330
18E77
100
AcDbEntity
  8
HATCH
100
AcDbCircle
 10
6142.776772467676
 20
2694.546798568534
 30
0.0
 40
3.75
  0
CIRCLE
  5
19496
330
18E77
100
AcDbEntity
  8
HATCH
100
AcDbCircle
 10
5992.776772467677
 20
2694.546798568534
 30
0.0
 40
3.75
  0
CIRCLE
  5
19497
330
18E77
100
AcDbEntity
  8
HATCH
100
AcDbCircle
 10
5842.776772467676
 20
2694.546798568534
 30
0.0
 40
3.75
  0
CIRCLE
  5
19498
330
18E77
100
AcDbEntity
  8
HATCH
100
AcDbCircle
 10
5692.776772467676
 20
2694.546798568534
 30
0.0
 40
3.75
  0
CIRCLE
  5
19499
330
18E77
100
AcDbEntity
  8
HATCH
100
AcDbCircle
 10
5542.776772467676
 20
2694.546798568534
 30
0.0
 40
3.75
  0
CIRCLE
  5
1949A
330
18E77
100
AcDbEntity
  8
HATCH
100
AcDbCircle
 10
5392.776772467676
 20
2694.546798568534
 30
0.0
 40
3.75
  0
CIRCLE
  5
1949B
330
18E77
100
AcDbEntity
  8
HATCH
100
AcDbCircle
 10
5242.776772467678
 20
2694.546798568534
 30
0.0
 40
3.75
  0
CIRCLE
  5
1949C
330
18E77
100
AcDbEntity
  8
HATCH
100
AcDbCircle
 10
5092.776772467676
 20
2694.546798568534
 30
0.0
 40
3.75
  0
CIRCLE
  5
1949D
330
18E77
100
AcDbEntity
  8
HATCH
100
AcDbCircle
 10
4942.776772467677
 20
2694.546798568534
 30
0.0
 40
3.75
  0
CIRCLE
  5
1949E
330
18E77
100
AcDbEntity
  8
HATCH
100
AcDbCircle
 10
4792.776772467678
 20
2694.546798568534
 30
0.0
 40
3.75
  0
CIRCLE
  5
1949F
330
18E77
100
AcDbEntity
  8
HATCH
100
AcDbCircle
 10
4642.776772467676
 20
2694.546798568534
 30
0.0
 40
3.75
  0
CIRCLE
  5
194A0
330
18E77
100
AcDbEntity
  8
HATCH
100
AcDbCircle
 10
4492.776772467677
 20
2694.546798568534
 30
0.0
 40
3.75
  0
LINE
  5
194A1
330
18E77
100
AcDbEntity
  8
TATEDOISIJIKANAGU
100
AcDbLine
 10
12209.53894711955
 20
3049.796798568532
 30
0.0
 11
12162.33936343052
 21
3049.796798568532
 31
0.0
  0
LINE
  5
194A2
330
18E77
100
AcDbEntity
  8
TATEDOISIJIKANAGU
100
AcDbLine
 10
12162.33936343052
 20
3049.796798568532
 30
0.0
 11
12162.33936343052
 21
3037.296798568533
 31
0.0
  0
LINE
  5
194A3
330
18E77
100
AcDbEntity
  8
TATEDOISIJIKANAGU
100
AcDbLine
 10
12162.33936343052
 20
3037.296798568533
 30
0.0
 11
12209.53894711955
 21
3037.296798568533
 31
0.0
  0
LINE
  5
194A4
330
18E77
100
AcDbEntity
  8
TATEDOISIJIKANAGU
100
AcDbLine
 10
12209.53894711955
 20
3037.296798568533
 30
0.0
 11
12209.53894711955
 21
3049.796798568532
 31
0.0
  0
LINE
  5
194A5
330
18E77
100
AcDbEntity
  8
TATEDOISIJIKANAGU
100
AcDbLine
 10
12209.53894711955
 20
4047.796798568533
 30
0.0
 11
12162.33936343052
 21
4047.796798568533
 31
0.0
  0
LINE
  5
194A6
330
18E77
100
AcDbEntity
  8
TATEDOISIJIKANAGU
100
AcDbLine
 10
12162.33936343052
 20
4047.796798568533
 30
0.0
 11
12162.33936343052
 21
4035.296798568532
 31
0.0
  0
LINE
  5
194A7
330
18E77
100
AcDbEntity
  8
TATEDOISIJIKANAGU
100
AcDbLine
 10
12162.33936343052
 20
4035.296798568532
 30
0.0
 11
12209.53894711955
 21
4035.296798568532
 31
0.0
  0
LINE
  5
194A8
330
18E77
100
AcDbEntity
  8
TATEDOISIJIKANAGU
100
AcDbLine
 10
12209.53894711955
 20
4035.296798568532
 30
0.0
 11
12209.53894711955
 21
4047.796798568533
 31
0.0
  0
LINE
  5
194A9
330
18E77
100
AcDbEntity
  8
TATEDOISIJIKANAGU
100
AcDbLine
 10
12356.80068796467
 20
4413.221304384985
 30
0.0
 11
12401.26430788204
 21
4428.452407557259
 31
0.0
  0
LINE
  5
194AA
330
18E77
100
AcDbEntity
  8
TATEDOISIJIKANAGU
100
AcDbLine
 10
12401.26430788204
 20
4428.452407557259
 30
0.0
 11
12397.05144955778
 21
4440.750855619508
 31
0.0
  0
LINE
  5
194AB
330
18E77
100
AcDbEntity
  8
TATEDOISIJIKANAGU
100
AcDbLine
 10
12397.05144955778
 20
4440.750855619508
 30
0.0
 11
12352.58782964043
 21
4425.519752447235
 31
0.0
  0
LINE
  5
194AC
330
18E77
100
AcDbEntity
  8
TATEDOISIJIKANAGU
100
AcDbLine
 10
12352.58782964043
 20
4425.519752447235
 30
0.0
 11
12356.80068796467
 21
4413.221304384985
 31
0.0
  0
ARC
  5
194AD
330
18E77
100
AcDbEntity
  8
U2
100
AcDbCircle
 10
10046.61915538143
 20
4843.343830913256
 30
0.0
 40
44.00000000000056
100
AcDbArc
 50
85.91399999999934
 51
265.9139999999992
  0
LINE
  5
194AE
330
18E77
100
AcDbEntity
  8
U2
100
AcDbLine
 10
10049.7543191248
 20
4887.231992737401
 30
0.0
 11
10064.71619247394
 21
4886.163186915799
 31
0.0
  0
ARC
  5
194AF
330
18E77
100
AcDbEntity
  8
U2
100
AcDbCircle
 10
10064.85869991682
 20
4888.15810336235
 30
0.0
 40
1.999999999999559
100
AcDbArc
 50
265.9139999999864
 51
355.9139999999624
  0
LINE
  5
194B0
330
18E77
100
AcDbEntity
  8
U2
100
AcDbLine
 10
10066.85361636337
 20
4888.015595919469
 30
0.0
 11
10067.13863124913
 21
4892.005428812574
 31
0.0
  0
LINE
  5
194B1
330
18E77
100
AcDbEntity
  8
U2
100
AcDbLine
 10
10067.13863124913
 20
4892.005428812574
 30
0.0
 11
10050.18184145344
 21
4893.216742077057
 31
0.0
  0
ARC
  5
194B2
330
18E77
100
AcDbEntity
  8
U2
100
AcDbCircle
 10
10046.61915538143
 20
4843.343830913256
 30
0.0
 40
50.00000000000002
100
AcDbArc
 50
85.91399999999994
 51
265.9139999999998
  0
LINE
  5
194B3
330
18E77
100
AcDbEntity
  8
U2
100
AcDbLine
 10
10043.05646930942
 20
4793.470919749455
 30
0.0
 11
10060.01325910511
 21
4792.259606484973
 31
0.0
  0
LINE
  5
194B4
330
18E77
100
AcDbEntity
  8
U2
100
AcDbLine
 10
10060.01325910511
 20
4792.259606484973
 30
0.0
 11
10060.29827399087
 21
4796.249439378078
 31
0.0
  0
ARC
  5
194B5
330
18E77
100
AcDbEntity
  8
U2
100
AcDbCircle
 10
10058.30335754432
 20
4796.391946820958
 30
0.0
 40
1.999999999998588
100
AcDbArc
 50
355.9140000000106
 51
85.91400000003849
  0
LINE
  5
194B6
330
18E77
100
AcDbEntity
  8
U2
100
AcDbLine
 10
10058.44586498721
 20
4798.386863267509
 30
0.0
 11
10043.48399163806
 21
4799.455669089112
 31
0.0
  0
ARC
  5
194B7
330
18E77
100
AcDbEntity
  8
HATCH
100
AcDbCircle
 10
10004.59833791486
 20
2694.546798568534
 30
0.0
 40
1.875
100
AcDbArc
 50
180.0
 51
0.0
  0
ARC
  5
194B8
330
18E77
100
AcDbEntity
  8
HATCH
100
AcDbCircle
 10
10004.59833791486
 20
2694.546798568534
 30
0.0
 40
1.875
100
AcDbArc
 50
0.0
 51
180.0
  0
LINE
  5
194B9
330
18E77
100
AcDbEntity
  8
U1
100
AcDbLine
 10
12397.05144955774
 20
4440.750855619473
 30
0.0
 11
12319.0749203739
 21
4422.871792544667
 31
0.0
  0
LINE
  5
194BA
330
18E77
100
AcDbEntity
  8
U1
100
AcDbLine
 10
12302.15745690125
 20
4438.485870476172
 30
0.0
 11
12390.85575884788
 21
4458.823304723767
 31
0.0
  0
LINE
  5
194BB
330
18E77
100
AcDbEntity
  8
U1
100
AcDbLine
 10
12400.05632286319
 20
4445.543635232406
 30
0.0
 11
12318.18096722015
 21
4426.770619003859
 31
0.0
  0
ARC
  5
194BC
330
18E77
100
AcDbEntity
  8
U1
100
AcDbCircle
 10
12315.94608433581
 20
4436.517685151839
 30
0.0
 40
13.99999999999136
100
AcDbArc
 50
192.9139999999767
 51
282.9140000000783
  0
ARC
  5
194BD
330
18E77
100
AcDbEntity
  8
U1
100
AcDbCircle
 10
12315.94608433581
 20
4436.517685151839
 30
0.0
 40
9.999999999993827
100
AcDbArc
 50
198.1299085704712
 51
282.9140000000783
  0
CIRCLE
  5
194BE
330
18E77
100
AcDbEntity
  8
U1
100
AcDbCircle
 10
12322.91176546677
 20
4432.985081808458
 30
0.0
 40
1.719999999998936
  0
LINE
  5
194BF
330
18E77
100
AcDbEntity
  8
U1
100
AcDbLine
 10
12303.27489834343
 20
4433.612337402183
 30
0.0
 11
12302.15745690125
 21
4438.485870476172
 31
0.0
  0
LINE
  5
194C0
330
18E77
100
AcDbEntity
  8
U1
100
AcDbLine
 10
12302.30019172864
 20
4433.388849113748
 30
0.0
 11
12305.26870833832
 21
4434.069493613557
 31
0.0
  0
LINE
  5
194C1
330
18E77
100
AcDbEntity
  8
U1
100
AcDbLine
 10
12302.30019172864
 20
4433.388849113748
 30
0.0
 11
12302.30019172864
 21
4433.388849113748
 31
0.0
  0
ARC
  5
194C2
330
18E77
100
AcDbEntity
  8
U1
100
AcDbCircle
 10
12305.49219662676
 20
4433.09478699876
 30
0.0
 40
0.9999999999993828
100
AcDbArc
 50
18.12990857047132
 51
102.9140000000783
  0
LINE
  5
194C3
330
18E77
100
AcDbEntity
  8
U1
100
AcDbLine
 10
12393.25214865435
 20
4457.320868071041
 30
0.0
 11
12396.157496404
 21
4444.649682078667
 31
0.0
  0
CIRCLE
  5
194C4
330
18E77
100
AcDbEntity
  8
U1
100
AcDbCircle
 10
12379.44474912506
 20
4445.947402537695
 30
0.0
 40
1.719999999998936
  0
ARC
  5
194C5
330
18E77
100
AcDbEntity
  8
U1
100
AcDbCircle
 10
12396.157496404
 20
4444.649682078667
 30
0.0
 40
3.99999999999753
100
AcDbArc
 50
282.9140000000783
 51
12.91399999997674
  0
LINE
  5
194C6
330
18E77
100
AcDbEntity
  8
U1
100
AcDbLine
 10
12397.82249407644
 20
4445.031445651839
 30
0.0
 11
12397.82249407644
 21
4445.031445651839
 31
0.0
  0
ARC
  5
194C7
330
18E77
100
AcDbEntity
  8
U1
100
AcDbCircle
 10
12391.30273542476
 20
4456.873891494171
 30
0.0
 40
1.999999999998765
100
AcDbArc
 50
12.91399999997674
 51
102.9140000000783
  0
ARC
  5
194C8
330
18E77
100
AcDbEntity
  8
HATCH
100
AcDbCircle
 10
10154.59833791485
 20
2694.546798568534
 30
0.0
 40
1.875
100
AcDbArc
 50
180.0
 51
0.0
  0
ARC
  5
194C9
330
18E77
100
AcDbEntity
  8
HATCH
100
AcDbCircle
 10
10154.59833791485
 20
2694.546798568534
 30
0.0
 40
1.875
100
AcDbArc
 50
0.0
 51
180.0
  0
ARC
  5
194CA
330
18E77
100
AcDbEntity
  8
HATCH
100
AcDbCircle
 10
10304.59833791486
 20
2694.546798568534
 30
0.0
 40
1.875
100
AcDbArc
 50
180.0
 51
0.0
  0
ARC
  5
194CB
330
18E77
100
AcDbEntity
  8
HATCH
100
AcDbCircle
 10
10304.59833791486
 20
2694.546798568534
 30
0.0
 40
1.875
100
AcDbArc
 50
0.0
 51
180.0
  0
ARC
  5
194CC
330
18E77
100
AcDbEntity
  8
HATCH
100
AcDbCircle
 10
10454.59833791486
 20
2694.546798568534
 30
0.0
 40
1.875
100
AcDbArc
 50
180.0
 51
0.0
  0
ARC
  5
194CD
330
18E77
100
AcDbEntity
  8
HATCH
100
AcDbCircle
 10
10454.59833791486
 20
2694.546798568534
 30
0.0
 40
1.875
100
AcDbArc
 50
0.0
 51
180.0
  0
ARC
  5
194CE
330
18E77
100
AcDbEntity
  8
HATCH
100
AcDbCircle
 10
10604.59833791486
 20
2694.546798568534
 30
0.0
 40
1.875
100
AcDbArc
 50
180.0
 51
0.0
  0
ARC
  5
194CF
330
18E77
100
AcDbEntity
  8
HATCH
100
AcDbCircle
 10
10604.59833791486
 20
2694.546798568534
 30
0.0
 40
1.875
100
AcDbArc
 50
0.0
 51
180.0
  0
ARC
  5
194D0
330
18E77
100
AcDbEntity
  8
HATCH
100
AcDbCircle
 10
10754.59833791486
 20
2694.546798568534
 30
0.0
 40
1.875
100
AcDbArc
 50
180.0
 51
0.0
  0
ARC
  5
194D1
330
18E77
100
AcDbEntity
  8
HATCH
100
AcDbCircle
 10
10754.59833791486
 20
2694.546798568534
 30
0.0
 40
1.875
100
AcDbArc
 50
0.0
 51
180.0
  0
ARC
  5
194D2
330
18E77
100
AcDbEntity
  8
HATCH
100
AcDbCircle
 10
10904.59833791486
 20
2694.546798568534
 30
0.0
 40
1.875
100
AcDbArc
 50
180.0
 51
0.0
  0
ARC
  5
194D3
330
18E77
100
AcDbEntity
  8
HATCH
100
AcDbCircle
 10
10904.59833791486
 20
2694.546798568534
 30
0.0
 40
1.875
100
AcDbArc
 50
0.0
 51
180.0
  0
ARC
  5
194D4
330
18E77
100
AcDbEntity
  8
HATCH
100
AcDbCircle
 10
11054.59833791485
 20
2694.546798568534
 30
0.0
 40
1.875
100
AcDbArc
 50
180.0
 51
0.0
  0
ARC
  5
194D5
330
18E77
100
AcDbEntity
  8
HATCH
100
AcDbCircle
 10
11054.59833791485
 20
2694.546798568534
 30
0.0
 40
1.875
100
AcDbArc
 50
0.0
 51
180.0
  0
ARC
  5
194D6
330
18E77
100
AcDbEntity
  8
HATCH
100
AcDbCircle
 10
11204.59833791486
 20
2694.546798568534
 30
0.0
 40
1.875
100
AcDbArc
 50
180.0
 51
0.0
  0
ARC
  5
194D7
330
18E77
100
AcDbEntity
  8
HATCH
100
AcDbCircle
 10
11204.59833791486
 20
2694.546798568534
 30
0.0
 40
1.875
100
AcDbArc
 50
0.0
 51
180.0
  0
ARC
  5
194D8
330
18E77
100
AcDbEntity
  8
HATCH
100
AcDbCircle
 10
11354.59833791485
 20
2694.546798568534
 30
0.0
 40
1.875
100
AcDbArc
 50
180.0
 51
0.0
  0
ARC
  5
194D9
330
18E77
100
AcDbEntity
  8
HATCH
100
AcDbCircle
 10
11354.59833791485
 20
2694.546798568534
 30
0.0
 40
1.875
100
AcDbArc
 50
0.0
 51
180.0
  0
ARC
  5
194DA
330
18E77
100
AcDbEntity
  8
HATCH
100
AcDbCircle
 10
11504.59833791485
 20
2694.546798568534
 30
0.0
 40
1.875
100
AcDbArc
 50
180.0
 51
0.0
  0
ARC
  5
194DB
330
18E77
100
AcDbEntity
  8
HATCH
100
AcDbCircle
 10
11504.59833791485
 20
2694.546798568534
 30
0.0
 40
1.875
100
AcDbArc
 50
0.0
 51
180.0
  0
ARC
  5
194DC
330
18E77
100
AcDbEntity
  8
HATCH
100
AcDbCircle
 10
11654.59833791485
 20
2694.546798568534
 30
0.0
 40
1.875
100
AcDbArc
 50
180.0
 51
0.0
  0
ARC
  5
194DD
330
18E77
100
AcDbEntity
  8
HATCH
100
AcDbCircle
 10
11654.59833791485
 20
2694.546798568534
 30
0.0
 40
1.875
100
AcDbArc
 50
0.0
 51
180.0
  0
ARC
  5
194DE
330
18E77
100
AcDbEntity
  8
HATCH
100
AcDbCircle
 10
11804.59833791486
 20
2694.546798568534
 30
0.0
 40
1.875
100
AcDbArc
 50
180.0
 51
0.0
  0
ARC
  5
194DF
330
18E77
100
AcDbEntity
  8
HATCH
100
AcDbCircle
 10
11804.59833791486
 20
2694.546798568534
 30
0.0
 40
1.875
100
AcDbArc
 50
0.0
 51
180.0
  0
ARC
  5
194E0
330
18E77
100
AcDbEntity
  8
HATCH
100
AcDbCircle
 10
11954.59833791486
 20
2694.546798568534
 30
0.0
 40
1.875
100
AcDbArc
 50
180.0
 51
0.0
  0
ARC
  5
194E1
330
18E77
100
AcDbEntity
  8
HATCH
100
AcDbCircle
 10
11954.59833791486
 20
2694.546798568534
 30
0.0
 40
1.875
100
AcDbArc
 50
0.0
 51
180.0
  0
ARC
  5
194E2
330
18E77
100
AcDbEntity
  8
HATCH
100
AcDbCircle
 10
12104.59833791485
 20
2694.546798568534
 30
0.0
 40
1.875
100
AcDbArc
 50
180.0
 51
0.0
  0
ARC
  5
194E3
330
18E77
100
AcDbEntity
  8
HATCH
100
AcDbCircle
 10
12104.59833791485
 20
2694.546798568534
 30
0.0
 40
1.875
100
AcDbArc
 50
0.0
 51
180.0
  0
ARC
  5
194E4
330
18E77
100
AcDbEntity
  8
HATCH
100
AcDbCircle
 10
12254.59833791485
 20
2694.546798568534
 30
0.0
 40
1.875
100
AcDbArc
 50
180.0
 51
0.0
  0
ARC
  5
194E5
330
18E77
100
AcDbEntity
  8
HATCH
100
AcDbCircle
 10
12254.59833791485
 20
2694.546798568534
 30
0.0
 40
1.875
100
AcDbArc
 50
0.0
 51
180.0
  0
ARC
  5
194E6
330
18E77
100
AcDbEntity
  8
HATCH
100
AcDbCircle
 10
7042.776772467679
 20
2694.546798568534
 30
0.0
 40
1.875
100
AcDbArc
 50
180.0
 51
0.0
  0
ARC
  5
194E7
330
18E77
100
AcDbEntity
  8
HATCH
100
AcDbCircle
 10
7042.776772467679
 20
2694.546798568534
 30
0.0
 40
1.875
100
AcDbArc
 50
0.0
 51
180.0
  0
LINE
  5
194E8
330
18E77
100
AcDbEntity
  8
U3
100
AcDbLine
 10
5024.36758982785
 20
7975.42067245028
 30
0.0
 11
5082.867589827849
 21
7975.42067245028
 31
0.0
  0
LINE
  5
194E9
330
18E77
100
AcDbEntity
  8
U3
100
AcDbLine
 10
5082.867589827849
 20
7950.420672450281
 30
0.0
 11
5024.36758982785
 21
7950.420672450281
 31
0.0
  0
LINE
  5
194EA
330
18E77
100
AcDbEntity
  8
U3
100
AcDbLine
 10
5024.36758982785
 20
7950.420672450281
 30
0.0
 11
5024.36758982785
 21
7975.42067245028
 31
0.0
  0
CIRCLE
  5
194EB
330
18E77
100
AcDbEntity
  8
U3
100
AcDbCircle
 10
5053.61758982785
 20
7962.920672450279
 30
0.0
 40
8.0
  0
LINE
  5
194EC
330
18E77
100
AcDbEntity
  8
U3
100
AcDbLine
 10
5040.86758982785
 20
7975.42067245028
 30
0.0
 11
5040.86758982785
 21
7950.420672450281
 31
0.0
  0
LINE
  5
194ED
330
18E77
100
AcDbEntity
  8
U3
100
AcDbLine
 10
5066.36758982785
 20
7975.42067245028
 30
0.0
 11
5066.36758982785
 21
7950.420672450281
 31
0.0
  0
LINE
  5
194EE
330
18E77
100
AcDbEntity
  8
U3
100
AcDbLine
 10
5082.867589827849
 20
7975.42067245028
 30
0.0
 11
5082.867589827849
 21
7950.420672450281
 31
0.0
  0
LINE
  5
194EF
330
18E77
100
AcDbEntity
  8
U3
100
AcDbLine
 10
5024.36758982785
 20
8565.420672450278
 30
0.0
 11
5082.867589827849
 21
8565.420672450278
 31
0.0
  0
LINE
  5
194F0
330
18E77
100
AcDbEntity
  8
U3
100
AcDbLine
 10
5082.867589827849
 20
8540.420672450279
 30
0.0
 11
5024.36758982785
 21
8540.420672450279
 31
0.0
  0
LINE
  5
194F1
330
18E77
100
AcDbEntity
  8
U3
100
AcDbLine
 10
5024.36758982785
 20
8540.420672450279
 30
0.0
 11
5024.36758982785
 21
8565.420672450278
 31
0.0
  0
CIRCLE
  5
194F2
330
18E77
100
AcDbEntity
  8
U3
100
AcDbCircle
 10
5053.61758982785
 20
8552.92067245028
 30
0.0
 40
8.0
  0
LINE
  5
194F3
330
18E77
100
AcDbEntity
  8
U3
100
AcDbLine
 10
5040.86758982785
 20
8565.420672450278
 30
0.0
 11
5040.86758982785
 21
8540.420672450279
 31
0.0
  0
LINE
  5
194F4
330
18E77
100
AcDbEntity
  8
U3
100
AcDbLine
 10
5066.36758982785
 20
8565.420672450278
 30
0.0
 11
5066.36758982785
 21
8540.420672450279
 31
0.0
  0
LINE
  5
194F5
330
18E77
100
AcDbEntity
  8
U3
100
AcDbLine
 10
5082.867589827849
 20
8565.420672450278
 30
0.0
 11
5082.867589827849
 21
8540.420672450279
 31
0.0
  0
LINE
  5
194F6
330
18E77
100
AcDbEntity
  8
U3
100
AcDbLine
 10
5024.36758982785
 20
9155.420672450281
 30
0.0
 11
5082.867589827849
 21
9155.420672450281
 31
0.0
  0
LINE
  5
194F7
330
18E77
100
AcDbEntity
  8
U3
100
AcDbLine
 10
5082.867589827849
 20
9130.420672450281
 30
0.0
 11
5024.36758982785
 21
9130.420672450281
 31
0.0
  0
LINE
  5
194F8
330
18E77
100
AcDbEntity
  8
U3
100
AcDbLine
 10
5024.36758982785
 20
9130.420672450281
 30
0.0
 11
5024.36758982785
 21
9155.420672450281
 31
0.0
  0
CIRCLE
  5
194F9
330
18E77
100
AcDbEntity
  8
U3
100
AcDbCircle
 10
5053.61758982785
 20
9142.92067245028
 30
0.0
 40
8.0
  0
LINE
  5
194FA
330
18E77
100
AcDbEntity
  8
U3
100
AcDbLine
 10
5040.86758982785
 20
9155.420672450281
 30
0.0
 11
5040.86758982785
 21
9130.420672450281
 31
0.0
  0
LINE
  5
194FB
330
18E77
100
AcDbEntity
  8
U3
100
AcDbLine
 10
5066.36758982785
 20
9155.420672450281
 30
0.0
 11
5066.36758982785
 21
9130.420672450281
 31
0.0
  0
LINE
  5
194FC
330
18E77
100
AcDbEntity
  8
U3
100
AcDbLine
 10
5082.867589827849
 20
9155.420672450281
 30
0.0
 11
5082.867589827849
 21
9130.420672450281
 31
0.0
  0
ARC
  5
194FD
330
18E77
100
AcDbEntity
  8
HATCH
100
AcDbCircle
 10
4342.776772467678
 20
2694.546798568534
 30
0.0
 40
1.875
100
AcDbArc
 50
180.0
 51
0.0
  0
ARC
  5
194FE
330
18E77
100
AcDbEntity
  8
HATCH
100
AcDbCircle
 10
4342.776772467678
 20
2694.546798568534
 30
0.0
 40
1.875
100
AcDbArc
 50
0.0
 51
180.0
  0
LINE
  5
194FF
330
18E77
100
AcDbEntity
  8
HISHIRA
  6
KAKURE-05
100
AcDbLine
 10
4421.11758982785
 20
8380.420617280121
 30
0.0
 11
4486.117589827851
 21
8380.420617280121
 31
0.0
  0
LINE
  5
19500
330
18E77
100
AcDbEntity
  8
HISHIRA
  6
KAKURE-05
100
AcDbLine
 10
4486.117589827851
 20
8380.420617280121
 30
0.0
 11
4486.117589827851
 21
8445.42061728012
 31
0.0
  0
LINE
  5
19501
330
18E77
100
AcDbEntity
  8
HISHIRA
  6
KAKURE-05
100
AcDbLine
 10
4486.117589827851
 20
8445.42061728012
 30
0.0
 11
4421.11758982785
 21
8445.42061728012
 31
0.0
  0
LINE
  5
19502
330
18E77
100
AcDbEntity
  8
HISHIRA
  6
KAKURE-05
100
AcDbLine
 10
4421.11758982785
 20
8445.42061728012
 30
0.0
 11
4421.11758982785
 21
8380.420617280121
 31
0.0
  0
LINE
  5
19503
330
18E77
100
AcDbEntity
  8
HISHIRA
  6
KAKURE-05
100
AcDbLine
 10
4421.11758982785
 20
9815.420617280119
 30
0.0
 11
4486.117589827851
 21
9815.420617280119
 31
0.0
  0
LINE
  5
19504
330
18E77
100
AcDbEntity
  8
HISHIRA
  6
KAKURE-05
100
AcDbLine
 10
4486.117589827851
 20
9815.420617280119
 30
0.0
 11
4486.117589827851
 21
9880.420617280121
 31
0.0
  0
LINE
  5
19505
330
18E77
100
AcDbEntity
  8
HISHIRA
  6
KAKURE-05
100
AcDbLine
 10
4486.117589827851
 20
9880.420617280121
 30
0.0
 11
4421.11758982785
 21
9880.420617280121
 31
0.0
  0
LINE
  5
19506
330
18E77
100
AcDbEntity
  8
HISHIRA
  6
KAKURE-05
100
AcDbLine
 10
4421.11758982785
 20
9880.420617280121
 30
0.0
 11
4421.11758982785
 21
9815.420617280119
 31
0.0
  0
LINE
  5
19507
330
18E77
100
AcDbEntity
  8
U3
100
AcDbLine
 10
4224.367589827848
 20
7975.42067245028
 30
0.0
 11
4282.86758982785
 21
7975.42067245028
 31
0.0
  0
LINE
  5
19508
330
18E77
100
AcDbEntity
  8
U3
100
AcDbLine
 10
4282.86758982785
 20
7950.420672450281
 30
0.0
 11
4224.367589827848
 21
7950.420672450281
 31
0.0
  0
LINE
  5
19509
330
18E77
100
AcDbEntity
  8
U3
100
AcDbLine
 10
4224.367589827848
 20
7950.420672450281
 30
0.0
 11
4224.367589827848
 21
7975.42067245028
 31
0.0
  0
CIRCLE
  5
1950A
330
18E77
100
AcDbEntity
  8
U3
100
AcDbCircle
 10
4253.617589827848
 20
7962.920672450279
 30
0.0
 40
8.0
  0
LINE
  5
1950B
330
18E77
100
AcDbEntity
  8
U3
100
AcDbLine
 10
4240.867589827849
 20
7975.42067245028
 30
0.0
 11
4240.867589827849
 21
7950.420672450281
 31
0.0
  0
LINE
  5
1950C
330
18E77
100
AcDbEntity
  8
U3
100
AcDbLine
 10
4266.36758982785
 20
7975.42067245028
 30
0.0
 11
4266.36758982785
 21
7950.420672450281
 31
0.0
  0
LINE
  5
1950D
330
18E77
100
AcDbEntity
  8
U3
100
AcDbLine
 10
4282.86758982785
 20
7975.42067245028
 30
0.0
 11
4282.86758982785
 21
7950.420672450281
 31
0.0
  0
LINE
  5
1950E
330
18E77
100
AcDbEntity
  8
U3
100
AcDbLine
 10
4624.36758982785
 20
7975.42067245028
 30
0.0
 11
4682.867589827849
 21
7975.42067245028
 31
0.0
  0
LINE
  5
1950F
330
18E77
100
AcDbEntity
  8
U3
100
AcDbLine
 10
4682.867589827849
 20
7950.420672450281
 30
0.0
 11
4624.36758982785
 21
7950.420672450281
 31
0.0
  0
LINE
  5
19510
330
18E77
100
AcDbEntity
  8
U3
100
AcDbLine
 10
4624.36758982785
 20
7950.420672450281
 30
0.0
 11
4624.36758982785
 21
7975.42067245028
 31
0.0
  0
CIRCLE
  5
19511
330
18E77
100
AcDbEntity
  8
U3
100
AcDbCircle
 10
4653.61758982785
 20
7962.920672450279
 30
0.0
 40
8.0
  0
LINE
  5
19512
330
18E77
100
AcDbEntity
  8
U3
100
AcDbLine
 10
4640.867589827849
 20
7975.42067245028
 30
0.0
 11
4640.867589827849
 21
7950.420672450281
 31
0.0
  0
LINE
  5
19513
330
18E77
100
AcDbEntity
  8
U3
100
AcDbLine
 10
4666.367589827849
 20
7975.42067245028
 30
0.0
 11
4666.367589827849
 21
7950.420672450281
 31
0.0
  0
LINE
  5
19514
330
18E77
100
AcDbEntity
  8
U3
100
AcDbLine
 10
4682.867589827849
 20
7975.42067245028
 30
0.0
 11
4682.867589827849
 21
7950.420672450281
 31
0.0
  0
LINE
  5
19515
330
18E77
100
AcDbEntity
  8
U3
100
AcDbLine
 10
5424.367589827848
 20
7975.42067245028
 30
0.0
 11
5482.86758982785
 21
7975.42067245028
 31
0.0
  0
LINE
  5
19516
330
18E77
100
AcDbEntity
  8
U3
100
AcDbLine
 10
5482.86758982785
 20
7950.420672450281
 30
0.0
 11
5424.367589827848
 21
7950.420672450281
 31
0.0
  0
LINE
  5
19517
330
18E77
100
AcDbEntity
  8
U3
100
AcDbLine
 10
5424.367589827848
 20
7950.420672450281
 30
0.0
 11
5424.367589827848
 21
7975.42067245028
 31
0.0
  0
CIRCLE
  5
19518
330
18E77
100
AcDbEntity
  8
U3
100
AcDbCircle
 10
5453.61758982785
 20
7962.920672450279
 30
0.0
 40
8.0
  0
LINE
  5
19519
330
18E77
100
AcDbEntity
  8
U3
100
AcDbLine
 10
5440.867589827849
 20
7975.42067245028
 30
0.0
 11
5440.867589827849
 21
7950.420672450281
 31
0.0
  0
LINE
  5
1951A
330
18E77
100
AcDbEntity
  8
U3
100
AcDbLine
 10
5466.36758982785
 20
7975.42067245028
 30
0.0
 11
5466.36758982785
 21
7950.420672450281
 31
0.0
  0
LINE
  5
1951B
330
18E77
100
AcDbEntity
  8
U3
100
AcDbLine
 10
5482.86758982785
 20
7975.42067245028
 30
0.0
 11
5482.86758982785
 21
7950.420672450281
 31
0.0
  0
LINE
  5
1951C
330
18E77
100
AcDbEntity
  8
U3
100
AcDbLine
 10
5824.367589827851
 20
7975.42067245028
 30
0.0
 11
5882.86758982785
 21
7975.42067245028
 31
0.0
  0
LINE
  5
1951D
330
18E77
100
AcDbEntity
  8
U3
100
AcDbLine
 10
5882.86758982785
 20
7950.420672450281
 30
0.0
 11
5824.367589827851
 21
7950.420672450281
 31
0.0
  0
LINE
  5
1951E
330
18E77
100
AcDbEntity
  8
U3
100
AcDbLine
 10
5824.367589827851
 20
7950.420672450281
 30
0.0
 11
5824.367589827851
 21
7975.42067245028
 31
0.0
  0
CIRCLE
  5
1951F
330
18E77
100
AcDbEntity
  8
U3
100
AcDbCircle
 10
5853.617589827851
 20
7962.920672450279
 30
0.0
 40
8.0
  0
LINE
  5
19520
330
18E77
100
AcDbEntity
  8
U3
100
AcDbLine
 10
5840.867589827851
 20
7975.42067245028
 30
0.0
 11
5840.867589827851
 21
7950.420672450281
 31
0.0
  0
LINE
  5
19521
330
18E77
100
AcDbEntity
  8
U3
100
AcDbLine
 10
5866.36758982785
 20
7975.42067245028
 30
0.0
 11
5866.36758982785
 21
7950.420672450281
 31
0.0
  0
LINE
  5
19522
330
18E77
100
AcDbEntity
  8
U3
100
AcDbLine
 10
5882.86758982785
 20
7975.42067245028
 30
0.0
 11
5882.86758982785
 21
7950.420672450281
 31
0.0
  0
LINE
  5
19523
330
18E77
100
AcDbEntity
  8
U3
100
AcDbLine
 10
4224.367589827848
 20
8565.420672450278
 30
0.0
 11
4282.86758982785
 21
8565.420672450278
 31
0.0
  0
LINE
  5
19524
330
18E77
100
AcDbEntity
  8
U3
100
AcDbLine
 10
4282.86758982785
 20
8540.420672450279
 30
0.0
 11
4224.367589827848
 21
8540.420672450279
 31
0.0
  0
LINE
  5
19525
330
18E77
100
AcDbEntity
  8
U3
100
AcDbLine
 10
4224.367589827848
 20
8540.420672450279
 30
0.0
 11
4224.367589827848
 21
8565.420672450278
 31
0.0
  0
CIRCLE
  5
19526
330
18E77
100
AcDbEntity
  8
U3
100
AcDbCircle
 10
4253.617589827848
 20
8552.92067245028
 30
0.0
 40
8.0
  0
LINE
  5
19527
330
18E77
100
AcDbEntity
  8
U3
100
AcDbLine
 10
4240.867589827849
 20
8565.420672450278
 30
0.0
 11
4240.867589827849
 21
8540.420672450279
 31
0.0
  0
LINE
  5
19528
330
18E77
100
AcDbEntity
  8
U3
100
AcDbLine
 10
4266.36758982785
 20
8565.420672450278
 30
0.0
 11
4266.36758982785
 21
8540.420672450279
 31
0.0
  0
LINE
  5
19529
330
18E77
100
AcDbEntity
  8
U3
100
AcDbLine
 10
4282.86758982785
 20
8565.420672450278
 30
0.0
 11
4282.86758982785
 21
8540.420672450279
 31
0.0
  0
LINE
  5
1952A
330
18E77
100
AcDbEntity
  8
U3
100
AcDbLine
 10
4624.36758982785
 20
8565.420672450278
 30
0.0
 11
4682.867589827849
 21
8565.420672450278
 31
0.0
  0
LINE
  5
1952B
330
18E77
100
AcDbEntity
  8
U3
100
AcDbLine
 10
4682.867589827849
 20
8540.420672450279
 30
0.0
 11
4624.36758982785
 21
8540.420672450279
 31
0.0
  0
LINE
  5
1952C
330
18E77
100
AcDbEntity
  8
U3
100
AcDbLine
 10
4624.36758982785
 20
8540.420672450279
 30
0.0
 11
4624.36758982785
 21
8565.420672450278
 31
0.0
  0
CIRCLE
  5
1952D
330
18E77
100
AcDbEntity
  8
U3
100
AcDbCircle
 10
4653.61758982785
 20
8552.92067245028
 30
0.0
 40
8.0
  0
LINE
  5
1952E
330
18E77
100
AcDbEntity
  8
U3
100
AcDbLine
 10
4640.867589827849
 20
8565.420672450278
 30
0.0
 11
4640.867589827849
 21
8540.420672450279
 31
0.0
  0
LINE
  5
1952F
330
18E77
100
AcDbEntity
  8
U3
100
AcDbLine
 10
4666.367589827849
 20
8565.420672450278
 30
0.0
 11
4666.367589827849
 21
8540.420672450279
 31
0.0
  0
LINE
  5
19530
330
18E77
100
AcDbEntity
  8
U3
100
AcDbLine
 10
4682.867589827849
 20
8565.420672450278
 30
0.0
 11
4682.867589827849
 21
8540.420672450279
 31
0.0
  0
LINE
  5
19531
330
18E77
100
AcDbEntity
  8
U3
100
AcDbLine
 10
5424.367589827848
 20
8565.420672450278
 30
0.0
 11
5482.86758982785
 21
8565.420672450278
 31
0.0
  0
LINE
  5
19532
330
18E77
100
AcDbEntity
  8
U3
100
AcDbLine
 10
5482.86758982785
 20
8540.420672450279
 30
0.0
 11
5424.367589827848
 21
8540.420672450279
 31
0.0
  0
LINE
  5
19533
330
18E77
100
AcDbEntity
  8
U3
100
AcDbLine
 10
5424.367589827848
 20
8540.420672450279
 30
0.0
 11
5424.367589827848
 21
8565.420672450278
 31
0.0
  0
CIRCLE
  5
19534
330
18E77
100
AcDbEntity
  8
U3
100
AcDbCircle
 10
5453.61758982785
 20
8552.92067245028
 30
0.0
 40
8.0
  0
LINE
  5
19535
330
18E77
100
AcDbEntity
  8
U3
100
AcDbLine
 10
5440.867589827849
 20
8565.420672450278
 30
0.0
 11
5440.867589827849
 21
8540.420672450279
 31
0.0
  0
LINE
  5
19536
330
18E77
100
AcDbEntity
  8
U3
100
AcDbLine
 10
5466.36758982785
 20
8565.420672450278
 30
0.0
 11
5466.36758982785
 21
8540.420672450279
 31
0.0
  0
LINE
  5
19537
330
18E77
100
AcDbEntity
  8
U3
100
AcDbLine
 10
5482.86758982785
 20
8565.420672450278
 30
0.0
 11
5482.86758982785
 21
8540.420672450279
 31
0.0
  0
LINE
  5
19538
330
18E77
100
AcDbEntity
  8
U3
100
AcDbLine
 10
4224.367589827848
 20
9155.420672450281
 30
0.0
 11
4282.86758982785
 21
9155.420672450281
 31
0.0
  0
LINE
  5
19539
330
18E77
100
AcDbEntity
  8
U3
100
AcDbLine
 10
4282.86758982785
 20
9130.420672450281
 30
0.0
 11
4224.367589827848
 21
9130.420672450281
 31
0.0
  0
LINE
  5
1953A
330
18E77
100
AcDbEntity
  8
U3
100
AcDbLine
 10
4224.367589827848
 20
9130.420672450281
 30
0.0
 11
4224.367589827848
 21
9155.420672450281
 31
0.0
  0
CIRCLE
  5
1953B
330
18E77
100
AcDbEntity
  8
U3
100
AcDbCircle
 10
4253.617589827848
 20
9142.92067245028
 30
0.0
 40
8.0
  0
LINE
  5
1953C
330
18E77
100
AcDbEntity
  8
U3
100
AcDbLine
 10
4240.867589827849
 20
9155.420672450281
 30
0.0
 11
4240.867589827849
 21
9130.420672450281
 31
0.0
  0
LINE
  5
1953D
330
18E77
100
AcDbEntity
  8
U3
100
AcDbLine
 10
4266.36758982785
 20
9155.420672450281
 30
0.0
 11
4266.36758982785
 21
9130.420672450281
 31
0.0
  0
LINE
  5
1953E
330
18E77
100
AcDbEntity
  8
U3
100
AcDbLine
 10
4282.86758982785
 20
9155.420672450281
 30
0.0
 11
4282.86758982785
 21
9130.420672450281
 31
0.0
  0
LINE
  5
1953F
330
18E77
100
AcDbEntity
  8
U3
100
AcDbLine
 10
4624.36758982785
 20
9155.420672450281
 30
0.0
 11
4682.867589827849
 21
9155.420672450281
 31
0.0
  0
LINE
  5
19540
330
18E77
100
AcDbEntity
  8
U3
100
AcDbLine
 10
4682.867589827849
 20
9130.420672450281
 30
0.0
 11
4624.36758982785
 21
9130.420672450281
 31
0.0
  0
LINE
  5
19541
330
18E77
100
AcDbEntity
  8
U3
100
AcDbLine
 10
4624.36758982785
 20
9130.420672450281
 30
0.0
 11
4624.36758982785
 21
9155.420672450281
 31
0.0
  0
CIRCLE
  5
19542
330
18E77
100
AcDbEntity
  8
U3
100
AcDbCircle
 10
4653.61758982785
 20
9142.92067245028
 30
0.0
 40
8.0
  0
LINE
  5
19543
330
18E77
100
AcDbEntity
  8
U3
100
AcDbLine
 10
4640.867589827849
 20
9155.420672450281
 30
0.0
 11
4640.867589827849
 21
9130.420672450281
 31
0.0
  0
LINE
  5
19544
330
18E77
100
AcDbEntity
  8
U3
100
AcDbLine
 10
4666.367589827849
 20
9155.420672450281
 30
0.0
 11
4666.367589827849
 21
9130.420672450281
 31
0.0
  0
LINE
  5
19545
330
18E77
100
AcDbEntity
  8
U3
100
AcDbLine
 10
4682.867589827849
 20
9155.420672450281
 30
0.0
 11
4682.867589827849
 21
9130.420672450281
 31
0.0
  0
LINE
  5
19546
330
18E77
100
AcDbEntity
  8
U3
100
AcDbLine
 10
5424.367589827848
 20
9155.420672450281
 30
0.0
 11
5482.86758982785
 21
9155.420672450281
 31
0.0
  0
LINE
  5
19547
330
18E77
100
AcDbEntity
  8
U3
100
AcDbLine
 10
5482.86758982785
 20
9130.420672450281
 30
0.0
 11
5424.367589827848
 21
9130.420672450281
 31
0.0
  0
LINE
  5
19548
330
18E77
100
AcDbEntity
  8
U3
100
AcDbLine
 10
5424.367589827848
 20
9130.420672450281
 30
0.0
 11
5424.367589827848
 21
9155.420672450281
 31
0.0
  0
CIRCLE
  5
19549
330
18E77
100
AcDbEntity
  8
U3
100
AcDbCircle
 10
5453.61758982785
 20
9142.92067245028
 30
0.0
 40
8.0
  0
LINE
  5
1954A
330
18E77
100
AcDbEntity
  8
U3
100
AcDbLine
 10
5440.867589827849
 20
9155.420672450281
 30
0.0
 11
5440.867589827849
 21
9130.420672450281
 31
0.0
  0
LINE
  5
1954B
330
18E77
100
AcDbEntity
  8
U3
100
AcDbLine
 10
5466.36758982785
 20
9155.420672450281
 30
0.0
 11
5466.36758982785
 21
9130.420672450281
 31
0.0
  0
LINE
  5
1954C
330
18E77
100
AcDbEntity
  8
U3
100
AcDbLine
 10
5482.86758982785
 20
9155.420672450281
 30
0.0
 11
5482.86758982785
 21
9130.420672450281
 31
0.0
  0
LINE
  5
1954D
330
18E77
100
AcDbEntity
  8
U3
100
AcDbLine
 10
4224.367589827848
 20
9745.420672450279
 30
0.0
 11
4282.86758982785
 21
9745.420672450279
 31
0.0
  0
LINE
  5
1954E
330
18E77
100
AcDbEntity
  8
U3
100
AcDbLine
 10
4282.86758982785
 20
9720.420672450279
 30
0.0
 11
4224.367589827848
 21
9720.420672450279
 31
0.0
  0
LINE
  5
1954F
330
18E77
100
AcDbEntity
  8
U3
100
AcDbLine
 10
4224.367589827848
 20
9720.420672450279
 30
0.0
 11
4224.367589827848
 21
9745.420672450279
 31
0.0
  0
CIRCLE
  5
19550
330
18E77
100
AcDbEntity
  8
U3
100
AcDbCircle
 10
4253.617589827848
 20
9732.920672450278
 30
0.0
 40
8.0
  0
LINE
  5
19551
330
18E77
100
AcDbEntity
  8
U3
100
AcDbLine
 10
4240.867589827849
 20
9745.420672450279
 30
0.0
 11
4240.867589827849
 21
9720.420672450279
 31
0.0
  0
LINE
  5
19552
330
18E77
100
AcDbEntity
  8
U3
100
AcDbLine
 10
4266.36758982785
 20
9745.420672450279
 30
0.0
 11
4266.36758982785
 21
9720.420672450279
 31
0.0
  0
LINE
  5
19553
330
18E77
100
AcDbEntity
  8
U3
100
AcDbLine
 10
4282.86758982785
 20
9745.420672450279
 30
0.0
 11
4282.86758982785
 21
9720.420672450279
 31
0.0
  0
LINE
  5
19554
330
18E77
100
AcDbEntity
  8
U3
100
AcDbLine
 10
4624.36758982785
 20
9745.420672450279
 30
0.0
 11
4682.867589827849
 21
9745.420672450279
 31
0.0
  0
LINE
  5
19555
330
18E77
100
AcDbEntity
  8
U3
100
AcDbLine
 10
4682.867589827849
 20
9720.420672450279
 30
0.0
 11
4624.36758982785
 21
9720.420672450279
 31
0.0
  0
LINE
  5
19556
330
18E77
100
AcDbEntity
  8
U3
100
AcDbLine
 10
4624.36758982785
 20
9720.420672450279
 30
0.0
 11
4624.36758982785
 21
9745.420672450279
 31
0.0
  0
CIRCLE
  5
19557
330
18E77
100
AcDbEntity
  8
U3
100
AcDbCircle
 10
4653.61758982785
 20
9732.920672450278
 30
0.0
 40
8.0
  0
LINE
  5
19558
330
18E77
100
AcDbEntity
  8
U3
100
AcDbLine
 10
4640.867589827849
 20
9745.420672450279
 30
0.0
 11
4640.867589827849
 21
9720.420672450279
 31
0.0
  0
LINE
  5
19559
330
18E77
100
AcDbEntity
  8
U3
100
AcDbLine
 10
4666.367589827849
 20
9745.420672450279
 30
0.0
 11
4666.367589827849
 21
9720.420672450279
 31
0.0
  0
LINE
  5
1955A
330
18E77
100
AcDbEntity
  8
U3
100
AcDbLine
 10
4682.867589827849
 20
9745.420672450279
 30
0.0
 11
4682.867589827849
 21
9720.420672450279
 31
0.0
  0
LINE
  5
1955B
330
18E77
100
AcDbEntity
  8
U3
100
AcDbLine
 10
5024.36758982785
 20
9745.420672450279
 30
0.0
 11
5082.867589827849
 21
9745.420672450279
 31
0.0
  0
LINE
  5
1955C
330
18E77
100
AcDbEntity
  8
U3
100
AcDbLine
 10
5082.867589827849
 20
9720.420672450279
 30
0.0
 11
5024.36758982785
 21
9720.420672450279
 31
0.0
  0
LINE
  5
1955D
330
18E77
100
AcDbEntity
  8
U3
100
AcDbLine
 10
5024.36758982785
 20
9720.420672450279
 30
0.0
 11
5024.36758982785
 21
9745.420672450279
 31
0.0
  0
CIRCLE
  5
1955E
330
18E77
100
AcDbEntity
  8
U3
100
AcDbCircle
 10
5053.61758982785
 20
9732.920672450278
 30
0.0
 40
8.0
  0
LINE
  5
1955F
330
18E77
100
AcDbEntity
  8
U3
100
AcDbLine
 10
5040.86758982785
 20
9745.420672450279
 30
0.0
 11
5040.86758982785
 21
9720.420672450279
 31
0.0
  0
LINE
  5
19560
330
18E77
100
AcDbEntity
  8
U3
100
AcDbLine
 10
5066.36758982785
 20
9745.420672450279
 30
0.0
 11
5066.36758982785
 21
9720.420672450279
 31
0.0
  0
LINE
  5
19561
330
18E77
100
AcDbEntity
  8
U3
100
AcDbLine
 10
5082.867589827849
 20
9745.420672450279
 30
0.0
 11
5082.867589827849
 21
9720.420672450279
 31
0.0
  0
ARC
  5
19562
330
18E77
100
AcDbEntity
  8
HATCH
100
AcDbCircle
 10
6892.776772467676
 20
2694.546798568534
 30
0.0
 40
1.875
100
AcDbArc
 50
180.0
 51
0.0
  0
ARC
  5
19563
330
18E77
100
AcDbEntity
  8
HATCH
100
AcDbCircle
 10
6892.776772467676
 20
2694.546798568534
 30
0.0
 40
1.875
100
AcDbArc
 50
0.0
 51
180.0
  0
ARC
  5
19564
330
18E77
100
AcDbEntity
  8
HATCH
100
AcDbCircle
 10
6742.776772467677
 20
2694.546798568534
 30
0.0
 40
1.875
100
AcDbArc
 50
180.0
 51
0.0
  0
ARC
  5
19565
330
18E77
100
AcDbEntity
  8
HATCH
100
AcDbCircle
 10
6742.776772467677
 20
2694.546798568534
 30
0.0
 40
1.875
100
AcDbArc
 50
0.0
 51
180.0
  0
ARC
  5
19566
330
18E77
100
AcDbEntity
  8
HATCH
100
AcDbCircle
 10
6592.776772467676
 20
2694.546798568534
 30
0.0
 40
1.875
100
AcDbArc
 50
180.0
 51
0.0
  0
ARC
  5
19567
330
18E77
100
AcDbEntity
  8
HATCH
100
AcDbCircle
 10
6592.776772467676
 20
2694.546798568534
 30
0.0
 40
1.875
100
AcDbArc
 50
0.0
 51
180.0
  0
ARC
  5
19568
330
18E77
100
AcDbEntity
  8
HATCH
100
AcDbCircle
 10
6442.776772467677
 20
2694.546798568534
 30
0.0
 40
1.875
100
AcDbArc
 50
180.0
 51
0.0
  0
ARC
  5
19569
330
18E77
100
AcDbEntity
  8
HATCH
100
AcDbCircle
 10
6442.776772467677
 20
2694.546798568534
 30
0.0
 40
1.875
100
AcDbArc
 50
0.0
 51
180.0
  0
ARC
  5
1956A
330
18E77
100
AcDbEntity
  8
HATCH
100
AcDbCircle
 10
6292.776772467677
 20
2694.546798568534
 30
0.0
 40
1.875
100
AcDbArc
 50
180.0
 51
0.0
  0
ARC
  5
1956B
330
18E77
100
AcDbEntity
  8
HATCH
100
AcDbCircle
 10
6292.776772467677
 20
2694.546798568534
 30
0.0
 40
1.875
100
AcDbArc
 50
0.0
 51
180.0
  0
ARC
  5
1956C
330
18E77
100
AcDbEntity
  8
HATCH
100
AcDbCircle
 10
6142.776772467676
 20
2694.546798568534
 30
0.0
 40
1.875
100
AcDbArc
 50
180.0
 51
0.0
  0
ARC
  5
1956D
330
18E77
100
AcDbEntity
  8
HATCH
100
AcDbCircle
 10
6142.776772467676
 20
2694.546798568534
 30
0.0
 40
1.875
100
AcDbArc
 50
0.0
 51
180.0
  0
ARC
  5
1956E
330
18E77
100
AcDbEntity
  8
HATCH
100
AcDbCircle
 10
5992.776772467677
 20
2694.546798568534
 30
0.0
 40
1.875
100
AcDbArc
 50
180.0
 51
0.0
  0
ARC
  5
1956F
330
18E77
100
AcDbEntity
  8
HATCH
100
AcDbCircle
 10
5992.776772467677
 20
2694.546798568534
 30
0.0
 40
1.875
100
AcDbArc
 50
0.0
 51
180.0
  0
ARC
  5
19570
330
18E77
100
AcDbEntity
  8
HATCH
100
AcDbCircle
 10
5842.776772467676
 20
2694.546798568534
 30
0.0
 40
1.875
100
AcDbArc
 50
180.0
 51
0.0
  0
ARC
  5
19571
330
18E77
100
AcDbEntity
  8
HATCH
100
AcDbCircle
 10
5842.776772467676
 20
2694.546798568534
 30
0.0
 40
1.875
100
AcDbArc
 50
0.0
 51
180.0
  0
ARC
  5
19572
330
18E77
100
AcDbEntity
  8
HATCH
100
AcDbCircle
 10
5692.776772467676
 20
2694.546798568534
 30
0.0
 40
1.875
100
AcDbArc
 50
180.0
 51
0.0
  0
ARC
  5
19573
330
18E77
100
AcDbEntity
  8
HATCH
100
AcDbCircle
 10
5692.776772467676
 20
2694.546798568534
 30
0.0
 40
1.875
100
AcDbArc
 50
0.0
 51
180.0
  0
ARC
  5
19574
330
18E77
100
AcDbEntity
  8
HATCH
100
AcDbCircle
 10
5542.776772467676
 20
2694.546798568534
 30
0.0
 40
1.875
100
AcDbArc
 50
180.0
 51
0.0
  0
ARC
  5
19575
330
18E77
100
AcDbEntity
  8
HATCH
100
AcDbCircle
 10
5542.776772467676
 20
2694.546798568534
 30
0.0
 40
1.875
100
AcDbArc
 50
0.0
 51
180.0
  0
ARC
  5
19576
330
18E77
100
AcDbEntity
  8
HATCH
100
AcDbCircle
 10
5392.776772467676
 20
2694.546798568534
 30
0.0
 40
1.875
100
AcDbArc
 50
180.0
 51
0.0
  0
ARC
  5
19577
330
18E77
100
AcDbEntity
  8
HATCH
100
AcDbCircle
 10
5392.776772467676
 20
2694.546798568534
 30
0.0
 40
1.875
100
AcDbArc
 50
0.0
 51
180.0
  0
ARC
  5
19578
330
18E77
100
AcDbEntity
  8
HATCH
100
AcDbCircle
 10
5242.776772467678
 20
2694.546798568534
 30
0.0
 40
1.875
100
AcDbArc
 50
180.0
 51
0.0
  0
ARC
  5
19579
330
18E77
100
AcDbEntity
  8
HATCH
100
AcDbCircle
 10
5242.776772467678
 20
2694.546798568534
 30
0.0
 40
1.875
100
AcDbArc
 50
0.0
 51
180.0
  0
ARC
  5
1957A
330
18E77
100
AcDbEntity
  8
HATCH
100
AcDbCircle
 10
5092.776772467676
 20
2694.546798568534
 30
0.0
 40
1.875
100
AcDbArc
 50
180.0
 51
0.0
  0
ARC
  5
1957B
330
18E77
100
AcDbEntity
  8
HATCH
100
AcDbCircle
 10
5092.776772467676
 20
2694.546798568534
 30
0.0
 40
1.875
100
AcDbArc
 50
0.0
 51
180.0
  0
ARC
  5
1957C
330
18E77
100
AcDbEntity
  8
HATCH
100
AcDbCircle
 10
4942.776772467677
 20
2694.546798568534
 30
0.0
 40
1.875
100
AcDbArc
 50
180.0
 51
0.0
  0
ARC
  5
1957D
330
18E77
100
AcDbEntity
  8
HATCH
100
AcDbCircle
 10
4942.776772467677
 20
2694.546798568534
 30
0.0
 40
1.875
100
AcDbArc
 50
0.0
 51
180.0
  0
ARC
  5
1957E
330
18E77
100
AcDbEntity
  8
HATCH
100
AcDbCircle
 10
4792.776772467678
 20
2694.546798568534
 30
0.0
 40
1.875
100
AcDbArc
 50
180.0
 51
0.0
  0
ARC
  5
1957F
330
18E77
100
AcDbEntity
  8
HATCH
100
AcDbCircle
 10
4792.776772467678
 20
2694.546798568534
 30
0.0
 40
1.875
100
AcDbArc
 50
0.0
 51
180.0
  0
ARC
  5
19580
330
18E77
100
AcDbEntity
  8
HATCH
100
AcDbCircle
 10
4642.776772467676
 20
2694.546798568534
 30
0.0
 40
1.875
100
AcDbArc
 50
180.0
 51
0.0
  0
ARC
  5
19581
330
18E77
100
AcDbEntity
  8
HATCH
100
AcDbCircle
 10
4642.776772467676
 20
2694.546798568534
 30
0.0
 40
1.875
100
AcDbArc
 50
0.0
 51
180.0
  0
ARC
  5
19582
330
18E77
100
AcDbEntity
  8
HATCH
100
AcDbCircle
 10
4492.776772467677
 20
2694.546798568534
 30
0.0
 40
1.875
100
AcDbArc
 50
180.0
 51
0.0
  0
ARC
  5
19583
330
18E77
100
AcDbEntity
  8
HATCH
100
AcDbCircle
 10
4492.776772467677
 20
2694.546798568534
 30
0.0
 40
1.875
100
AcDbArc
 50
0.0
 51
180.0
  0
LINE
  5
19584
330
18E77
100
AcDbEntity
  8
U2
100
AcDbLine
 10
6821.117589827851
 20
4717.748876394193
 30
0.0
 11
6886.11758982784
 21
4717.748876394193
 31
0.0
  0
LINE
  5
19585
330
18E77
100
AcDbEntity
  8
U2
100
AcDbLine
 10
6886.11758982784
 20
4717.748876394193
 30
0.0
 11
6886.11758982784
 21
4790.464181683073
 31
0.0
  0
LINE
  5
19586
330
18E77
100
AcDbEntity
  8
U2
100
AcDbLine
 10
6821.117589827855
 20
4790.464181683073
 30
0.0
 11
6821.117589827851
 21
4717.748876394193
 31
0.0
  0
LINE
  5
19587
330
18E77
100
AcDbEntity
  8
U2
100
AcDbLine
 10
4421.117589827852
 20
4790.464181683073
 30
0.0
 11
4421.11758982785
 21
4717.748876394193
 31
0.0
  0
LINE
  5
19588
330
18E77
100
AcDbEntity
  8
U2
100
AcDbLine
 10
4421.11758982785
 20
4717.748876394193
 30
0.0
 11
4486.117589827848
 21
4717.748876394193
 31
0.0
  0
LINE
  5
19589
330
18E77
100
AcDbEntity
  8
U2
100
AcDbLine
 10
4486.117589827848
 20
4717.748876394193
 30
0.0
 11
4486.117589827848
 21
4790.464181683073
 31
0.0
  0
LINE
  5
1958A
330
18E77
100
AcDbEntity
  8
KERABA
100
AcDbLine
 10
7083.617589827841
 20
4892.54679856853
 30
0.0
 11
7089.617589827842
 21
4892.54679856853
 31
0.0
  0
LINE
  5
1958B
330
18E77
100
AcDbEntity
  8
KERABA
100
AcDbLine
 10
7089.617589827842
 20
4892.54679856853
 30
0.0
 11
7089.617589827842
 21
4430.639798840869
 31
0.0
  0
LINE
  5
1958C
330
18E77
100
AcDbEntity
  8
KERABA
100
AcDbLine
 10
7089.617589827842
 20
4430.639798840869
 30
0.0
 11
7083.617589827841
 21
4430.639798840869
 31
0.0
  0
LINE
  5
1958D
330
18E77
100
AcDbEntity
  8
KERABA
100
AcDbLine
 10
7083.617589827841
 20
4430.639798840869
 30
0.0
 11
7083.617589827841
 21
4892.54679856853
 31
0.0
  0
LINE
  5
1958E
330
18E77
100
AcDbEntity
  8
KERABA
100
AcDbLine
 10
4223.617589827852
 20
4892.546798568533
 30
0.0
 11
4217.617589827852
 21
4892.546798568533
 31
0.0
  0
LINE
  5
1958F
330
18E77
100
AcDbEntity
  8
KERABA
100
AcDbLine
 10
4217.617589827852
 20
4892.546798568533
 30
0.0
 11
4217.617589827852
 21
4430.63979884087
 31
0.0
  0
LINE
  5
19590
330
18E77
100
AcDbEntity
  8
KERABA
100
AcDbLine
 10
4217.617589827852
 20
4430.63979884087
 30
0.0
 11
4223.617589827852
 21
4430.63979884087
 31
0.0
  0
LINE
  5
19591
330
18E77
100
AcDbEntity
  8
KERABA
100
AcDbLine
 10
4223.617589827852
 20
4430.63979884087
 30
0.0
 11
4223.617589827852
 21
4892.546798568533
 31
0.0
  0
LINE
  5
19592
330
18E77
100
AcDbEntity
  8
TATEDOISIJIKANAGU
100
AcDbLine
 10
4566.067589827849
 20
4428.63979884087
 30
0.0
 11
4548.567589827849
 21
4428.63979884087
 31
0.0
  0
LINE
  5
19593
330
18E77
100
AcDbEntity
  8
TATEDOISIJIKANAGU
100
AcDbLine
 10
4548.567589827849
 20
4428.63979884087
 30
0.0
 11
4548.567589827849
 21
4417.13979884087
 31
0.0
  0
LINE
  5
19594
330
18E77
100
AcDbEntity
  8
TATEDOISIJIKANAGU
100
AcDbLine
 10
4549.067589827848
 20
4430.63979884087
 30
0.0
 11
4549.067589827848
 21
4428.63979884087
 31
0.0
  0
LINE
  5
19595
330
18E77
100
AcDbEntity
  8
TATEDOISIJIKANAGU
100
AcDbLine
 10
4549.067589827848
 20
4428.63979884087
 30
0.0
 11
4550.267589827849
 21
4428.63979884087
 31
0.0
  0
LINE
  5
19596
330
18E77
100
AcDbEntity
  8
TATEDOISIJIKANAGU
100
AcDbLine
 10
4592.867589827847
 20
4428.63979884087
 30
0.0
 11
4594.06758982785
 21
4428.63979884087
 31
0.0
  0
LINE
  5
19597
330
18E77
100
AcDbEntity
  8
TATEDOISIJIKANAGU
100
AcDbLine
 10
4594.06758982785
 20
4428.63979884087
 30
0.0
 11
4594.06758982785
 21
4430.63979884087
 31
0.0
  0
LINE
  5
19598
330
18E77
100
AcDbEntity
  8
TATEDOISIJIKANAGU
100
AcDbLine
 10
4594.06758982785
 20
4430.63979884087
 30
0.0
 11
4549.067589827848
 21
4430.63979884087
 31
0.0
  0
LINE
  5
19599
330
18E77
100
AcDbEntity
  8
TATEDOISIJIKANAGU
100
AcDbLine
 10
4552.56758982785
 20
4428.63979884087
 30
0.0
 11
4590.567589827848
 21
4428.63979884087
 31
0.0
  0
ENDSEC
  0
SECTION
  2
OBJECTS
  0
DICTIONARY
  5
18E65
330
0
100
AcDbDictionary
281
     1
  3
ACAD_GROUP
350
18E66
  3
ACAD_LAYOUT
350
18E72
  3
ACAD_MLINESTYLE
350
18E6F
  3
ACAD_PLOTSETTINGS
350
18E71
  3
ACAD_PLOTSTYLENAME
350
18E67
  3
AcDbVariableDictionary
350
1959A
  0
DICTIONARY
  5
18E66
102
{ACAD_REACTORS
330
18E65
102
}
330
18E65
100
AcDbDictionary
281
     1
  0
DICTIONARY
  5
18E72
102
{ACAD_REACTORS
330
18E65
102
}
330
18E65
100
AcDbDictionary
281
     1
  3
Model
350
18E7A
  3
ﾚｲｱｳﾄ1
350
18E76
  0
DICTIONARY
  5
18E6F
102
{ACAD_REACTORS
330
18E65
102
}
330
18E65
100
AcDbDictionary
281
     1
  3
Standard
350
18E70
  0
DICTIONARY
  5
18E71
102
{ACAD_REACTORS
330
18E65
102
}
330
18E65
100
AcDbDictionary
281
     1
  0
ACDBDICTIONARYWDFLT
  5
18E67
102
{ACAD_REACTORS
330
18E65
102
}
330
18E65
100
AcDbDictionary
281
     1
  3
Normal
350
18E68
100
AcDbDictionaryWithDefault
340
18E68
  0
DICTIONARY
  5
1959A
102
{ACAD_REACTORS
330
18E65
102
}
330
18E65
100
AcDbDictionary
281
     1
  3
DIMASSOC
350
1959B
  0
LAYOUT
  5
18E7A
102
{ACAD_REACTORS
330
18E72
102
}
330
18E72
100
AcDbPlotSettings
  1

  2
Muratec V-1200 Is@Web Printer
  4

  6

 40
0.0
 41
0.0
 42
0.0
 43
0.0
 44
0.0
 45
0.0
 46
0.0
 47
0.0
 48
0.0
 49
0.0
140
0.0
141
0.0
142
1.0
143
1.0
 70
  1712
 72
     0
 73
     0
 74
     0
  7

 75
     0
147
1.0
148
0.0
149
0.0
100
AcDbLayout
  1
Model
 70
     1
 71
     0
 10
0.0
 20
0.0
 11
12.0
 21
9.0
 12
0.0
 22
0.0
 32
0.0
 14
0.0
 24
0.0
 34
0.0
 15
0.0
 25
0.0
 35
0.0
146
0.0
 13
0.0
 23
0.0
 33
0.0
 16
1.0
 26
0.0
 36
0.0
 17
0.0
 27
1.0
 37
0.0
 76
     0
330
18E77
  0
LAYOUT
  5
18E76
102
{ACAD_REACTORS
330
18E72
102
}
330
18E72
100
AcDbPlotSettings
  1

  2
Muratec V-1200 Is@Web Printer
  4

  6

 40
0.0
 41
0.0
 42
0.0
 43
0.0
 44
0.0
 45
0.0
 46
0.0
 47
0.0
 48
0.0
 49
0.0
140
0.0
141
0.0
142
1.0
143
1.0
 70
   688
 72
     0
 73
     0
 74
     5
  7

 75
    16
147
1.0
148
0.0
149
0.0
100
AcDbLayout
  1
ﾚｲｱｳﾄ1
 70
     0
 71
     1
 10
0.0
 20
0.0
 11
12.0
 21
9.0
 12
0.0
 22
0.0
 32
0.0
 14
1.000000000000000E+20
 24
1.000000000000000E+20
 34
1.000000000000000E+20
 15
-1.000000000000000E+20
 25
-1.000000000000000E+20
 35
-1.000000000000000E+20
146
0.0
 13
0.0
 23
0.0
 33
0.0
 16
1.0
 26
0.0
 36
0.0
 17
0.0
 27
1.0
 37
0.0
 76
     0
330
18E73
  0
MLINESTYLE
  5
18E70
102
{ACAD_REACTORS
330
18E6F
102
}
330
18E6F
100
AcDbMlineStyle
  2
STANDARD
 70
     0
  3

 62
   256
 51
90.0
 52
90.0
 71
     2
 49
0.5
 62
   256
  6
BYLAYER
 49
-0.5
 62
   256
  6
BYLAYER
  0
ACDBPLACEHOLDER
  5
18E68
102
{ACAD_REACTORS
330
18E67
102
}
330
18E67
  0
DICTIONARYVAR
  5
1959B
102
{ACAD_REACTORS
330
1959A
102
}
330
1959A
100
DictionaryVariables
280
     0
  1
1
  0
ENDSEC
  0
EOF
