  0
SECTION
  2
HEADER
  9
$ACADVER
  1
AC1009
  9
$INSBASE
 10
267.0
 20
194.89999999999981
 30
0.0
  9
$EXTMIN
 10
433.9966216520333
 20
163.69082374927891
 30
-0.0000000000000058
  9
$EXTMAX
 10
16382.6660542547
 20
11242.27663824599
 30
0.0000000000000104
  9
$LIMMIN
 10
0.0
 20
0.0
  9
$LIMMAX
 10
16800.0
 20
11880.0
  9
$ORTHOMODE
 70
     0
  9
$REGENMODE
 70
     1
  9
$FILLMODE
 70
     1
  9
$QTEXTMODE
 70
     0
  9
$MIRRTEXT
 70
     0
  9
$DRAGMODE
 70
     2
  9
$LTSCALE
 40
40.0
  9
$OSMODE
 70
  3071
  9
$ATTMODE
 70
     1
  9
$TEXTSIZE
 40
0.2
  9
$TRACEWID
 40
0.05
  9
$TEXTSTYLE
  7
00
  9
$CLAYER
  8
SUNPOU
  9
$CELTYPE
  6
BYLAYER
  9
$CECOLOR
 62
   256
  9
$DIMSCALE
 40
40.0
  9
$DIMASZ
 40
0.5
  9
$DIMEXO
 40
1.0
  9
$DIMDLI
 40
7.0
  9
$DIMRND
 40
0.0
  9
$DIMDLE
 40
3.0
  9
$DIMEXE
 40
1.5
  9
$DIMTP
 40
0.0
  9
$DIMTM
 40
0.0
  9
$DIMTXT
 40
3.0
  9
$DIMCEN
 40
0.0
  9
$DIMTSZ
 40
0.0
  9
$DIMTOL
 70
     0
  9
$DIMLIM
 70
     0
  9
$DIMTIH
 70
     0
  9
$DIMTOH
 70
     0
  9
$DIMSE1
 70
     0
  9
$DIMSE2
 70
     0
  9
$DIMTAD
 70
     1
  9
$DIMZIN
 70
     8
  9
$DIMBLK
  1
DOT
  9
$DIMASO
 70
     1
  9
$DIMSHO
 70
     0
  9
$DIMPOST
  1

  9
$DIMAPOST
  1

  9
$DIMALT
 70
     0
  9
$DIMALTD
 70
     2
  9
$DIMALTF
 40
25.399999999999999
  9
$DIMLFAC
 40
1.0
  9
$DIMTOFL
 70
     1
  9
$DIMTVP
 40
0.0
  9
$DIMTIX
 70
     0
  9
$DIMSOXD
 70
     0
  9
$DIMSAH
 70
     1
  9
$DIMBLK1
  1
DOT
  9
$DIMBLK2
  1
DOT
  9
$DIMSTYLE
  2
SUNPOU_図面名
  9
$DIMCLRD
 70
   256
  9
$DIMCLRE
 70
   256
  9
$DIMCLRT
 70
   256
  9
$DIMTFAC
 40
1.0
  9
$DIMGAP
 40
1.5
  9
$LUNITS
 70
     2
  9
$LUPREC
 70
     2
  9
$SKETCHINC
 40
0.1
  9
$FILLETRAD
 40
0.0
  9
$AUNITS
 70
     0
  9
$AUPREC
 70
     0
  9
$MENU
  1
A:\TIGER\MENU\TIGER
  9
$ELEVATION
 40
0.0
  9
$PELEVATION
 40
0.0
  9
$THICKNESS
 40
0.0
  9
$LIMCHECK
 70
     0
  9
$BLIPMODE
 70
     1
  9
$CHAMFERA
 40
0.0
  9
$CHAMFERB
 40
0.0
  9
$SKPOLY
 70
     0
  9
$TDCREATE
 40
2450266.5710648149
  9
$TDUPDATE
 40
2456455.9515388431
  9
$TDINDWG
 40
0.2351767245
  9
$TDUSRTIMER
 40
0.2351767245
  9
$USRTIMER
 70
     1
  9
$ANGBASE
 50
0.0
  9
$ANGDIR
 70
     0
  9
$PDMODE
 70
     0
  9
$PDSIZE
 40
0.0
  9
$PLINEWID
 40
0.0
  9
$COORDS
 70
     1
  9
$SPLFRAME
 70
     0
  9
$SPLINETYPE
 70
     6
  9
$SPLINESEGS
 70
     8
  9
$ATTDIA
 70
     0
  9
$ATTREQ
 70
     1
  9
$HANDLING
 70
     1
  9
$HANDSEED
  5
1D4D0
  9
$SURFTAB1
 70
     6
  9
$SURFTAB2
 70
     6
  9
$SURFTYPE
 70
     6
  9
$SURFU
 70
     6
  9
$SURFV
 70
     6
  9
$UCSNAME
  2

  9
$UCSORG
 10
0.0
 20
0.0
 30
0.0
  9
$UCSXDIR
 10
1.0
 20
0.0
 30
0.0
  9
$UCSYDIR
 10
0.0
 20
1.0
 30
0.0
  9
$PUCSNAME
  2

  9
$PUCSORG
 10
0.0
 20
0.0
 30
0.0
  9
$PUCSXDIR
 10
1.0
 20
0.0
 30
0.0
  9
$PUCSYDIR
 10
0.0
 20
1.0
 30
0.0
  9
$USERI1
 70
     3
  9
$USERI2
 70
     0
  9
$USERI3
 70
     0
  9
$USERI4
 70
     0
  9
$USERI5
 70
  1103
  9
$USERR1
 40
0.0
  9
$USERR2
 40
1.0
  9
$USERR3
 40
0.0
  9
$USERR4
 40
0.0
  9
$USERR5
 40
0.0
  9
$WORLDVIEW
 70
     1
  9
$SHADEDGE
 70
     3
  9
$SHADEDIF
 70
    70
  9
$TILEMODE
 70
     1
  9
$MAXACTVP
 70
    16
  9
$PLIMCHECK
 70
     0
  9
$PEXTMIN
 10
1.0000000000000000E+020
 20
1.0000000000000000E+020
 30
1.0000000000000000E+020
  9
$PEXTMAX
 10
-1.0000000000000000E+020
 20
-1.0000000000000000E+020
 30
-1.0000000000000000E+020
  9
$PLIMMIN
 10
0.0
 20
0.0
  9
$PLIMMAX
 10
12.0
 20
9.0
  9
$UNITMODE
 70
     0
  9
$VISRETAIN
 70
     0
  9
$PLINEGEN
 70
     1
  9
$PSLTSCALE
 70
     0
  0
ENDSEC
  0
SECTION
  2
TABLES
  0
TABLE
  2
VPORT
 70
     1
  0
VPORT
  2
*ACTIVE
 70
     0
 10
0.0
 20
0.0
 11
1.0
 21
1.0
 12
8400.0
 22
5940.0
 13
0.0
 23
0.0
 14
1.0
 24
1.0
 15
0.0
 25
0.0
 16
0.0
 26
0.0
 36
1.0
 17
0.0
 27
0.0
 37
0.0
 40
11982.120343839541
 41
1.6944045911047341
 42
50.0
 43
0.0
 44
0.0
 50
0.0
 51
0.0
 71
     0
 72
 10000
 73
     1
 74
     0
 75
     0
 76
     0
 77
     0
 78
     0
  0
ENDTAB
  0
TABLE
  2
LTYPE
 70
     6
  0
LTYPE
  2
CONTINUOUS
 70
     0
  3
実線
 72
    65
 73
     0
 40
0.0
  0
LTYPE
  2
1PL-L
 70
     0
  3

 72
    65
 73
     4
 40
56.0
 49
50.0
 49
-2.0
 49
2.0
 49
-2.0
  0
LTYPE
  2
1PL-S
 70
     0
  3

 72
    65
 73
     4
 40
4.0
 49
2.5
 49
-0.5
 49
0.5
 49
-0.5
  0
LTYPE
  2
2PL-L
 70
     0
  3

 72
    65
 73
     6
 40
60.0
 49
50.0
 49
-2.0
 49
2.0
 49
-2.0
 49
2.0
 49
-2.0
  0
LTYPE
  2
KAKURE-05
 70
     0
  3

 72
    65
 73
     2
 40
1.0
 49
0.5
 49
-0.5
  0
LTYPE
  2
PHANTOM2
 70
     0
  3
Phantom (.5x) ___ _ _ ___ _ _ ___ _ _ ___ _ _
 72
    65
 73
     6
 40
1.25
 49
0.625
 49
-0.125
 49
0.125
 49
-0.125
 49
0.125
 49
-0.125
  0
ENDTAB
  0
TABLE
  2
LAYER
 70
    30
  0
LAYER
  2
0
 70
     0
 62
     7
  6
CONTINUOUS
  0
LAYER
  2
SUNPOU
 70
     0
 62
     4
  6
CONTINUOUS
  0
LAYER
  2
U1
 70
     0
 62
     3
  6
CONTINUOUS
  0
LAYER
  2
U2
 70
     0
 62
     4
  6
CONTINUOUS
  0
LAYER
  2
U3
 70
     0
 62
     6
  6
CONTINUOUS
  0
LAYER
  2
HIKIDASHI
 70
     0
 62
     6
  6
CONTINUOUS
  0
LAYER
  2
1PL-S1
 70
     0
 62
     6
  6
1PL-S
  0
LAYER
  2
1PL-S2
 70
     0
 62
     1
  6
1PL-S
  0
LAYER
  2
1PL-L1
 70
     0
 62
     6
  6
1PL-L
  0
LAYER
  2
2PL-L2
 70
     0
 62
     1
  6
2PL-L
  0
LAYER
  2
NAME
 70
     0
 62
    20
  6
CONTINUOUS
  0
LAYER
  2
FILENAME
 70
     0
 62
     7
  6
CONTINUOUS
  0
LAYER
  2
KISO
 70
     0
 62
     2
  6
CONTINUOUS
  0
LAYER
  2
HARI
 70
     0
 62
     7
  6
CONTINUOUS
  0
LAYER
  2
KERABA
 70
     0
 62
     2
  6
CONTINUOUS
  0
LAYER
  2
YANE
 70
     0
 62
     1
  6
CONTINUOUS
  0
LAYER
  2
TATEDOISIJIKANAGU
 70
     0
 62
     2
  6
CONTINUOUS
  0
LAYER
  2
HATCH
 70
     0
 62
     1
  6
CONTINUOUS
  0
LAYER
  2
DOU_BUCHI
 70
     0
 62
     2
  6
CONTINUOUS
  0
LAYER
  2
GAKU_FUCHI
 70
     0
 62
     4
  6
CONTINUOUS
  0
LAYER
  2
MABASHIRA
 70
     0
 62
     4
  6
CONTINUOUS
  0
LAYER
  2
TOI
 70
     0
 62
     3
  6
CONTINUOUS
  0
LAYER
  2
HANAKAKUSHI
 70
     0
 62
     3
  6
CONTINUOUS
  0
LAYER
  2
MOYA
 70
     0
 62
     4
  6
CONTINUOUS
  0
LAYER
  2
GAKU_BUCHI
 70
     0
 62
     3
  6
CONTINUOUS
  0
LAYER
  2
HISHIRA
 70
     0
 62
     3
  6
CONTINUOUS
  0
LAYER
  2
YODOROGO
 70
     0
 62
   130
  6
CONTINUOUS
  0
LAYER
  2
WAKUSEN-01
 70
     0
 62
    50
  6
CONTINUOUS
  0
LAYER
  2
WAKUSEN-02
 70
     0
 62
   130
  6
CONTINUOUS
  0
LAYER
  2
WAKUMOJI-01
 70
     0
 62
   130
  6
CONTINUOUS
  0
ENDTAB
  0
TABLE
  2
STYLE
 70
     6
  0
STYLE
  2
STANDARD
 70
     0
 40
3.0
 41
1.0
 50
0.0
 71
     0
 42
0.2
  3
ROMANS
  4
EXTFONT
  0
STYLE
  2
00
 70
     0
 40
0.0
 41
0.6666666666666666
 50
0.0
 71
     0
 42
0.2
  3
ROMANS
  4
BIGFONT
  0
STYLE
  2
01
 70
     0
 40
3.0
 41
1.0
 50
0.0
 71
     0
 42
0.2
  3
ROMANS
  4
BIGFONT
  0
STYLE
  2
02
 70
     0
 40
3.0
 41
1.0
 50
0.0
 71
     0
 42
2.5
  3
ROMANS
  4
EXTFONT
  0
STYLE
  2
WAKUMOJI
 70
     0
 40
3.0
 41
1.0
 50
0.0
 71
     0
 42
3.0
  3
SIMPLEX
  4
BIGFONT
  0
STYLE
  2
FILENAME
 70
     0
 40
100.0
 41
1.0
 50
0.0
 71
     0
 42
100.0
  3
romans
  4
bigfont
  0
ENDTAB
  0
TABLE
  2
VIEW
 70
     0
  0
ENDTAB
  0
TABLE
  2
UCS
 70
     0
  0
ENDTAB
  0
TABLE
  2
APPID
 70
     7
  0
APPID
  2
ACAD
 70
     0
  0
APPID
  2
AUTOCAD_POSTSCRIPT_FIGURE
 70
     0
  0
APPID
  2
ACAD_PSEXT
 70
     0
  0
APPID
  2
ACAD_EXEMPT_FROM_CAD_STANDARDS
 70
     0
  0
APPID
  2
AEC_XDATA_BOUND_SPACE
 70
     0
  0
APPID
  2
ACAD_MLEADERVER
 70
     0
  0
APPID
  2
ACAD_NAV_VCDISPLAY
 70
     0
  0
ENDTAB
  0
TABLE
  2
DIMSTYLE
 70
     1
  0
DIMSTYLE
  2
SUNPOU_図面名
 70
     0
  3

  4

  5

  6

  7

 40
30.0
 41
0.5
 42
1.0
 43
7.0
 44
1.5
 45
0.0
 46
3.0
 47
0.0
 48
0.0
140
3.0
141
0.0
142
0.0
143
25.399999999999999
144
1.0
145
0.0
146
1.0
147
1.5
 71
     0
 72
     0
 73
     0
 74
     0
 75
     0
 76
     0
 77
     1
 78
     8
170
     0
171
     2
172
     1
173
     1
174
     0
175
     0
176
   256
177
   256
178
   256
  0
ENDTAB
  0
ENDSEC
  0
SECTION
  2
BLOCKS
  0
BLOCK
  8
0
  2
$MODEL_SPACE
 70
     0
 10
0.0
 20
0.0
 30
0.0
  3
$MODEL_SPACE
  1

  0
ENDBLK
  5
1CB7B
  8
0
  0
BLOCK
 67
     1
  8
0
  2
$PAPER_SPACE
 70
     0
 10
0.0
 20
0.0
 30
0.0
  3
$PAPER_SPACE
  1

  0
ENDBLK
  5
1CB77
 67
     1
  8
0
  0
BLOCK
  8
0
  2
DOT
 70
     0
 10
0.0
 20
0.0
 30
0.0
  3
DOT
  1

  0
POLYLINE
  5
1CBB6
  8
0
  6
BYBLOCK
 62
     0
 66
     1
 10
0.0
 20
0.0
 30
0.0
 70
     1
 40
0.75
 41
0.75
  0
VERTEX
  5
1D499
  8
0
  6
BYBLOCK
 62
     0
 10
-0.375
 20
0.0
 30
0.0
 42
1.0
  0
VERTEX
  5
1D49A
  8
0
  6
BYBLOCK
 62
     0
 10
0.375
 20
0.0
 30
0.0
 42
1.0
  0
SEQEND
  5
1D49B
  8
0
  6
BYBLOCK
 62
     0
  0
LINE
  5
1CBBA
  8
0
  6
BYBLOCK
 62
     0
 10
-0.75
 20
0.0
 30
0.0
 11
-1.5
 21
0.0
 31
0.0
  0
ENDBLK
  5
1CBBB
  8
0
  0
ENDSEC
  0
SECTION
  2
ENTITIES
  0
TEXT
  5
1CCEC
  8
NAME
 10
12303.328573182949
 20
1055.0
 30
0.0
 40
120.0
  1
Y O K R
 41
0.6666666666666666
  7
00
  0
TEXT
  5
1CCED
  8
NAME
 10
11227.735871346251
 20
1055.0
 30
0.0
 40
120.0
  1
ヨド自転車置場　　　  型
  7
01
  0
TEXT
  5
1CCEE
  8
NAME
 10
11228.075080823641
 20
875.0
 30
0.0
 40
120.0
  1
（アンカープレート方式）
  7
01
 72
     4
 11
12072.075080823641
 21
935.0
 31
0.0
  0
TEXT
  5
1CCEF
  8
NAME
 10
11816.04264730429
 20
541.0
 30
0.0
 40
160.0
  1
型（積雪地用）
 41
0.8
  7
01
  0
TEXT
  5
1CCF0
  8
NAME
 10
10789.37598063762
 20
541.0
 30
0.0
 40
160.0
  1
YOKRS-280
 41
0.7
  7
01
 72
     2
 11
11776.04264730429
 21
541.0
 31
0.0
  0
TEXT
  5
1CCF1
  8
NAME
 10
12854.799999999999
 20
541.00000000000011
 30
0.0
 40
160.0
  1
<1／3>
 41
0.6
  7
01
 72
     2
 11
13354.0
 21
541.00000000000011
 31
0.0
  0
TEXT
  5
1CCF2
  8
HIKIDASHI
 10
5280.4304423062767
 20
2241.3577964276542
 30
0.0
 40
120.0
  1
正 面 立 面 図
  7
01
 72
     2
 11
6248.4304423062777
 21
2241.3577964276542
 31
0.0
  0
TEXT
  5
1CCF3
  8
HIKIDASHI
 10
6598.570650870899
 20
2239.0064070583471
 30
0.0
 40
80.0
  1
40
 41
0.6700000000000002
  7
00
  0
TEXT
  5
1CCF4
  8
HIKIDASHI
 10
6552.2754961082601
 20
2265.1742382586231
 30
0.0
 40
80.0
  1
/
 41
0.6700000000000002
  7
00
  0
TEXT
  5
1CCF5
  8
HIKIDASHI
 10
6338.4304423062777
 20
2265.1742382586231
 30
0.0
 40
80.0
  1
(S=
 41
0.6700000000000002
  7
00
  0
TEXT
  5
1CCF6
  8
HIKIDASHI
 10
6519.1383582439512
 20
2280.7357160068182
 30
0.0
 40
80.0
  1
1
 41
0.6700000000000002
  7
00
  0
TEXT
  5
1CCF7
  8
HIKIDASHI
 10
6719.9971069333333
 20
2265.1742382586231
 30
0.0
 40
80.0
  1
)
 41
0.6700000000000002
  7
00
  0
TEXT
  5
1CCF8
  8
SUNPOU
 10
4385.5438442991399
 20
2854.5467985685332
 30
0.0
 40
90.0
  1
FL
  7
01
 72
     4
 11
4466.9724157277115
 21
2899.5467985685332
 31
0.0
  0
LINE
  5
1CCF9
  8
SUNPOU
 10
4466.9724157277115
 20
2719.5467985685318
 30
0.0
 11
4518.9339399547762
 21
2809.5467985685332
 31
0.0
  0
LINE
  5
1CCFA
  8
SUNPOU
 10
4415.010891500644
 20
2809.5467985685332
 30
0.0
 11
4466.9724157277115
 21
2719.5467985685318
 31
0.0
  0
LINE
  5
1CCFB
  8
SUNPOU
 10
4518.9339399547762
 20
2809.5467985685332
 30
0.0
 11
4415.010891500644
 21
2809.5467985685332
 31
0.0
  0
LINE
  5
1CCFC
  8
KISO
 10
7828.8738593810258
 20
2719.5467985685318
 30
0.0
 11
4228.873859381024
 21
2719.5467985685318
 31
0.0
  0
ARC
  5
1CCFD
  8
TATEDOISIJIKANAGU
 10
4668.8531066693477
 20
4328.7372188581858
 30
0.0
 40
19.50000000000022
 50
104.161483512011
 51
112.55382285957801
  0
ARC
  5
1CCFE
  8
TATEDOISIJIKANAGU
 10
4697.9414077540196
 20
4336.0768877885539
 30
0.0
 40
19.50000000000022
 50
104.161483512011
 51
284.1614835120111
  0
ARC
  5
1CCFF
  8
TATEDOISIJIKANAGU
 10
4668.8531066693477
 20
4328.7372188581858
 30
0.0
 40
19.50000000000022
 50
247.4461771406994
 51
284.1614835120111
  0
LINE
  5
1CD00
  8
TATEDOISIJIKANAGU
 10
4722.2589240339539
 20
4362.3239524239598
 30
0.0
 11
4664.0822296052102
 21
4347.6445912839863
 31
0.0
  0
LINE
  5
1CD01
  8
TATEDOISIJIKANAGU
 10
4746.3446441857714
 20
4328.1789954790702
 30
0.0
 11
4673.6237991114103
 21
4309.8297998478556
 31
0.0
  0
ARC
  5
1CD02
  8
TATEDOISIJIKANAGU
 10
4741.5738593810311
 20
4347.086391184107
 30
0.0
 40
19.50000000000022
 50
284.1614835120111
 51
313.53119928561972
  0
LINE
  5
1CD03
  8
TATEDOISIJIKANAGU
 10
4741.3238593810238
 20
4422.6397988408671
 30
0.0
 11
4752.3238593810238
 21
4422.6397988408671
 31
0.0
  0
LINE
  5
1CD04
  8
TATEDOISIJIKANAGU
 10
4746.8238593810238
 20
4417.1397988408662
 30
0.0
 11
4751.8238593810238
 21
4417.1397988408662
 31
0.0
  0
LINE
  5
1CD05
  8
TATEDOISIJIKANAGU
 10
4746.8238593810238
 20
4417.1397988408662
 30
0.0
 11
4769.823859381022
 21
4417.1397988408662
 31
0.0
  0
ARC
  5
1CD06
  8
TATEDOISIJIKANAGU
 10
4746.8238593810238
 20
4369.2434088944674
 30
0.0
 40
19.50000000000022
 50
168.47386670946511
 51
11.52613329053489
  0
ARC
  5
1CD07
  8
TATEDOISIJIKANAGU
 10
4746.8238593810238
 20
4392.3023081391912
 30
0.0
 40
26.955289191122731
 50
225.6615781494053
 51
314.3384218505945
  0
ARC
  5
1CD08
  8
TATEDOISIJIKANAGU
 10
4746.8238593810238
 20
4353.6397988408653
 30
0.0
 40
19.50000000000022
 50
180.0
 51
0.0
  0
LINE
  5
1CD09
  8
TATEDOISIJIKANAGU
 10
4769.823859381022
 20
4404.1397988408671
 30
0.0
 11
4723.8238593810229
 21
4404.1397988408671
 31
0.0
  0
LINE
  5
1CD0A
  8
TATEDOISIJIKANAGU
 10
4768.323859381022
 20
4397.4924528022839
 30
0.0
 11
4725.3238593810229
 21
4397.4924528022839
 31
0.0
  0
LINE
  5
1CD0B
  8
TATEDOISIJIKANAGU
 10
4723.8238593810229
 20
4417.1397988408662
 30
0.0
 11
4768.8862708539345
 21
4417.1397988408662
 31
0.0
  0
LINE
  5
1CD0C
  8
TATEDOISIJIKANAGU
 10
4727.3238593810238
 20
4369.2434088944674
 30
0.0
 11
4727.3238593810238
 21
4353.6397988408653
 31
0.0
  0
LINE
  5
1CD0D
  8
TATEDOISIJIKANAGU
 10
4723.3238593810238
 20
4416.6397988408671
 30
0.0
 11
4723.3238593810238
 21
4404.6397988408671
 31
0.0
  0
ARC
  5
1CD0E
  8
TATEDOISIJIKANAGU
 10
4723.8238593810229
 20
4404.6397988408671
 30
0.0
 40
0.5
 50
180.0
 51
270.0
  0
ARC
  5
1CD0F
  8
TATEDOISIJIKANAGU
 10
4723.8238593810229
 20
4416.6397988408671
 30
0.0
 40
0.5
 50
90.0
 51
180.0
  0
LINE
  5
1CD10
  8
TATEDOISIJIKANAGU
 10
4727.3238593810238
 20
4393.9685191359249
 30
0.0
 11
4727.3238593810238
 21
4391.8110785458084
 31
0.0
  0
LINE
  5
1CD11
  8
TATEDOISIJIKANAGU
 10
4725.3238593810229
 20
4403.6397988408671
 30
0.0
 11
4725.3238593810229
 21
4397.4924528022839
 31
0.0
  0
ARC
  5
1CD12
  8
TATEDOISIJIKANAGU
 10
4728.1238593810222
 20
4393.9685191359249
 30
0.0
 40
0.8
 50
100.0000000000193
 51
180.0
  0
ARC
  5
1CD13
  8
TATEDOISIJIKANAGU
 10
4728.1238593810222
 20
4387.9685191359249
 30
0.0
 40
0.8
 50
100.0000000000193
 51
180.0
  0
ARC
  5
1CD14
  8
TATEDOISIJIKANAGU
 10
4728.1238593810222
 20
4391.8110785458084
 30
0.0
 40
0.8
 50
180.0
 51
259.99999999998062
  0
ARC
  5
1CD15
  8
TATEDOISIJIKANAGU
 10
4724.8238593810229
 20
4403.6397988408671
 30
0.0
 40
0.5
 50
0.0
 51
90.0
  0
LINE
  5
1CD16
  8
TATEDOISIJIKANAGU
 10
4727.3238593810238
 20
4373.8110785458066
 30
0.0
 11
4727.3238593810238
 21
4375.9685191359249
 31
0.0
  0
LINE
  5
1CD17
  8
TATEDOISIJIKANAGU
 10
4727.3238593810238
 20
4381.968519135924
 30
0.0
 11
4727.3238593810238
 21
4379.8110785458093
 31
0.0
  0
ARC
  5
1CD18
  8
TATEDOISIJIKANAGU
 10
4728.1238593810222
 20
4375.9685191359249
 30
0.0
 40
0.8
 50
100.0000000000193
 51
180.0
  0
ARC
  5
1CD19
  8
TATEDOISIJIKANAGU
 10
4728.1238593810222
 20
4373.8110785458066
 30
0.0
 40
0.8
 50
180.0
 51
259.99999999998062
  0
ARC
  5
1CD1A
  8
TATEDOISIJIKANAGU
 10
4728.1238593810222
 20
4381.968519135924
 30
0.0
 40
0.8
 50
100.0000000000193
 51
180.0
  0
ARC
  5
1CD1B
  8
TATEDOISIJIKANAGU
 10
4728.1238593810222
 20
4379.8110785458093
 30
0.0
 40
0.8
 50
180.0
 51
259.99999999998062
  0
ARC
  5
1CD1C
  8
TATEDOISIJIKANAGU
 10
4728.1238593810222
 20
4385.8110785458093
 30
0.0
 40
0.8
 50
180.0
 51
259.99999999998062
  0
LINE
  5
1CD1D
  8
TATEDOISIJIKANAGU
 10
4727.3238593810238
 20
4385.8110785458093
 30
0.0
 11
4727.3238593810238
 21
4387.9685191359249
 31
0.0
  0
LINE
  5
1CD1E
  8
TATEDOISIJIKANAGU
 10
4741.3238593810238
 20
4428.6397988408671
 30
0.0
 11
4741.3238593810238
 21
4422.6397988408671
 31
0.0
  0
ARC
  5
1CD1F
  8
TATEDOISIJIKANAGU
 10
4731.823859381022
 20
4389.8897988408671
 30
0.0
 40
0.5000000000000285
 50
305.94875234717301
 51
54.051247652827008
  0
ARC
  5
1CD20
  8
TATEDOISIJIKANAGU
 10
4731.823859381022
 20
4395.8897988408671
 30
0.0
 40
0.5000000000000285
 50
305.94875234717301
 51
54.051247652827008
  0
ARC
  5
1CD21
  8
TATEDOISIJIKANAGU
 10
4731.823859381022
 20
4377.8897988408671
 30
0.0
 40
0.5000000000000285
 50
305.94875234717301
 51
54.051247652827008
  0
ARC
  5
1CD22
  8
TATEDOISIJIKANAGU
 10
4731.823859381022
 20
4383.889798840868
 30
0.0
 40
0.5000000000000285
 50
305.94875234717301
 51
54.051247652827008
  0
LINE
  5
1CD23
  8
TATEDOISIJIKANAGU
 10
4727.9849408388891
 20
4391.0232323433993
 30
0.0
 11
4732.1173900809654
 21
4390.294570045613
 31
0.0
  0
LINE
  5
1CD24
  8
TATEDOISIJIKANAGU
 10
4727.9849408388891
 20
4388.7563653383359
 30
0.0
 11
4732.1173900809654
 21
4389.4850276361212
 31
0.0
  0
LINE
  5
1CD25
  8
TATEDOISIJIKANAGU
 10
4727.9849408388891
 20
4394.7563653383359
 30
0.0
 11
4732.1173900809654
 21
4395.4850276361212
 31
0.0
  0
LINE
  5
1CD26
  8
TATEDOISIJIKANAGU
 10
4725.3238593810229
 20
4397.4924528022839
 30
0.0
 11
4732.1173900809654
 21
4396.294570045613
 31
0.0
  0
LINE
  5
1CD27
  8
TATEDOISIJIKANAGU
 10
4727.9849408388891
 20
4382.7563653383359
 30
0.0
 11
4732.1173900809654
 21
4383.4850276361221
 31
0.0
  0
LINE
  5
1CD28
  8
TATEDOISIJIKANAGU
 10
4727.9849408388891
 20
4376.7563653383359
 30
0.0
 11
4732.1173900809654
 21
4377.4850276361212
 31
0.0
  0
LINE
  5
1CD29
  8
TATEDOISIJIKANAGU
 10
4727.9849408388891
 20
4379.0232323433966
 30
0.0
 11
4732.1173900809654
 21
4378.2945700456112
 31
0.0
  0
LINE
  5
1CD2A
  8
TATEDOISIJIKANAGU
 10
4727.9849408388891
 20
4385.0232323433993
 30
0.0
 11
4732.1173900809654
 21
4384.294570045613
 31
0.0
  0
LINE
  5
1CD2B
  8
TATEDOISIJIKANAGU
 10
4766.3238593810229
 20
4369.2434088944674
 30
0.0
 11
4766.3238593810229
 21
4353.6397988408653
 31
0.0
  0
ARC
  5
1CD2C
  8
TATEDOISIJIKANAGU
 10
4746.5738593810293
 20
4351.8363911841052
 30
0.0
 40
19.50000000000022
 50
313.53119928561972
 51
9.7130982398165333
  0
LINE
  5
1CD2D
  8
TATEDOISIJIKANAGU
 10
4760.004473888368
 20
4337.6989022290118
 30
0.0
 11
4755.0044738883662
 21
4332.9489022290154
 31
0.0
  0
LINE
  5
1CD2E
  8
TATEDOISIJIKANAGU
 10
4752.3238593810238
 20
4422.6397988408671
 30
0.0
 11
4752.3238593810238
 21
4428.6397988408671
 31
0.0
  0
LINE
  5
1CD2F
  8
TATEDOISIJIKANAGU
 10
4765.6627779231549
 20
4391.0232323433993
 30
0.0
 11
4761.5303286810813
 21
4390.294570045613
 31
0.0
  0
LINE
  5
1CD30
  8
TATEDOISIJIKANAGU
 10
4765.6627779231549
 20
4388.7563653383359
 30
0.0
 11
4761.5303286810813
 21
4389.4850276361212
 31
0.0
  0
LINE
  5
1CD31
  8
TATEDOISIJIKANAGU
 10
4768.323859381022
 20
4397.4924528022839
 30
0.0
 11
4761.5303286810813
 21
4396.294570045613
 31
0.0
  0
LINE
  5
1CD32
  8
TATEDOISIJIKANAGU
 10
4765.6627779231549
 20
4394.7563653383359
 30
0.0
 11
4761.5303286810813
 21
4395.4850276361212
 31
0.0
  0
LINE
  5
1CD33
  8
TATEDOISIJIKANAGU
 10
4765.6627779231549
 20
4382.7563653383359
 30
0.0
 11
4761.5303286810813
 21
4383.4850276361221
 31
0.0
  0
LINE
  5
1CD34
  8
TATEDOISIJIKANAGU
 10
4765.6627779231549
 20
4376.7563653383359
 30
0.0
 11
4761.5303286810813
 21
4377.4850276361212
 31
0.0
  0
LINE
  5
1CD35
  8
TATEDOISIJIKANAGU
 10
4765.6627779231549
 20
4379.0232323433966
 30
0.0
 11
4761.5303286810813
 21
4378.2945700456112
 31
0.0
  0
LINE
  5
1CD36
  8
TATEDOISIJIKANAGU
 10
4765.6627779231549
 20
4385.0232323433993
 30
0.0
 11
4761.5303286810813
 21
4384.294570045613
 31
0.0
  0
LINE
  5
1CD37
  8
TATEDOISIJIKANAGU
 10
4770.3238593810238
 20
4416.6397988408671
 30
0.0
 11
4770.3238593810238
 21
4404.6397988408671
 31
0.0
  0
ARC
  5
1CD38
  8
TATEDOISIJIKANAGU
 10
4769.823859381022
 20
4404.6397988408671
 30
0.0
 40
0.5
 50
270.0
 51
0.0
  0
ARC
  5
1CD39
  8
TATEDOISIJIKANAGU
 10
4769.823859381022
 20
4416.6397988408671
 30
0.0
 40
0.5
 50
0.0
 51
90.0
  0
ARC
  5
1CD3A
  8
TATEDOISIJIKANAGU
 10
4765.5238593810236
 20
4393.9685191359249
 30
0.0
 40
0.8
 50
0.0
 51
79.999999999980645
  0
ARC
  5
1CD3B
  8
TATEDOISIJIKANAGU
 10
4765.5238593810236
 20
4387.9685191359249
 30
0.0
 40
0.8
 50
0.0
 51
79.999999999980645
  0
LINE
  5
1CD3C
  8
TATEDOISIJIKANAGU
 10
4766.3238593810229
 20
4393.9685191359249
 30
0.0
 11
4766.3238593810229
 21
4391.8110785458084
 31
0.0
  0
ARC
  5
1CD3D
  8
TATEDOISIJIKANAGU
 10
4765.5238593810236
 20
4391.8110785458084
 30
0.0
 40
0.8
 50
280.0000000000162
 51
0.0
  0
LINE
  5
1CD3E
  8
TATEDOISIJIKANAGU
 10
4768.323859381022
 20
4403.6397988408671
 30
0.0
 11
4768.323859381022
 21
4397.4924528022839
 31
0.0
  0
ARC
  5
1CD3F
  8
TATEDOISIJIKANAGU
 10
4768.8238593810238
 20
4403.6397988408671
 30
0.0
 40
0.5
 50
90.0
 51
180.0
  0
LINE
  5
1CD40
  8
TATEDOISIJIKANAGU
 10
4769.823859381022
 20
4428.6397988408671
 30
0.0
 11
4769.823859381022
 21
4417.1397988408662
 31
0.0
  0
ARC
  5
1CD41
  8
TATEDOISIJIKANAGU
 10
4765.5238593810236
 20
4375.9685191359249
 30
0.0
 40
0.8
 50
0.0
 51
79.999999999980645
  0
LINE
  5
1CD42
  8
TATEDOISIJIKANAGU
 10
4766.3238593810229
 20
4373.8110785458066
 30
0.0
 11
4766.3238593810229
 21
4375.9685191359249
 31
0.0
  0
ARC
  5
1CD43
  8
TATEDOISIJIKANAGU
 10
4765.5238593810236
 20
4373.8110785458066
 30
0.0
 40
0.8
 50
280.0000000000162
 51
0.0
  0
LINE
  5
1CD44
  8
TATEDOISIJIKANAGU
 10
4766.3238593810229
 20
4381.968519135924
 30
0.0
 11
4766.3238593810229
 21
4379.8110785458093
 31
0.0
  0
ARC
  5
1CD45
  8
TATEDOISIJIKANAGU
 10
4765.5238593810236
 20
4381.968519135924
 30
0.0
 40
0.8
 50
0.0
 51
79.999999999980645
  0
ARC
  5
1CD46
  8
TATEDOISIJIKANAGU
 10
4765.5238593810236
 20
4379.8110785458093
 30
0.0
 40
0.8
 50
280.0000000000162
 51
0.0
  0
ARC
  5
1CD47
  8
TATEDOISIJIKANAGU
 10
4765.5238593810236
 20
4385.8110785458093
 30
0.0
 40
0.8
 50
280.0000000000162
 51
0.0
  0
LINE
  5
1CD48
  8
TATEDOISIJIKANAGU
 10
4766.3238593810229
 20
4385.8110785458093
 30
0.0
 11
4766.3238593810229
 21
4387.9685191359249
 31
0.0
  0
ARC
  5
1CD49
  8
TATEDOISIJIKANAGU
 10
4761.8238593810229
 20
4389.8897988408671
 30
0.0
 40
0.5000000000000285
 50
125.9487523471782
 51
234.0512476528217
  0
ARC
  5
1CD4A
  8
TATEDOISIJIKANAGU
 10
4761.8238593810229
 20
4395.8897988408671
 30
0.0
 40
0.5000000000000285
 50
125.9487523471782
 51
234.0512476528217
  0
ARC
  5
1CD4B
  8
TATEDOISIJIKANAGU
 10
4761.8238593810229
 20
4377.8897988408671
 30
0.0
 40
0.5000000000000285
 50
125.9487523471782
 51
234.0512476528217
  0
ARC
  5
1CD4C
  8
TATEDOISIJIKANAGU
 10
4761.8238593810229
 20
4383.889798840868
 30
0.0
 40
0.5000000000000285
 50
125.9487523471782
 51
234.0512476528217
  0
LINE
  5
1CD4D
  8
TATEDOISIJIKANAGU
 10
4769.823859381022
 20
4428.6397988408671
 30
0.0
 11
4752.3238593810238
 21
4428.6397988408671
 31
0.0
  0
ARC
  5
1CD4E
  8
TATEDOISIJIKANAGU
 10
4727.0297088386942
 20
4343.416556718922
 30
0.0
 40
19.50000000000022
 50
89.135680828440954
 51
284.1614835120111
  0
LINE
  5
1CD4F
  8
YANE
 10
4486.4319690498551
 20
4491.0468919885607
 30
0.0
 11
4486.4319690498551
 21
4661.8076642972019
 31
0.0
  0
LINE
  5
1CD50
  8
YANE
 10
4459.1157497121876
 20
4661.8076642972019
 30
0.0
 11
4459.1157497121876
 21
4491.0468919885607
 31
0.0
  0
LINE
  5
1CD51
  8
YANE
 10
4442.4657497121852
 20
4491.0468919885607
 30
0.0
 11
4442.4657497121852
 21
4661.8076642972019
 31
0.0
  0
LINE
  5
1CD52
  8
YANE
 10
4503.0819690498538
 20
4661.8076642972019
 30
0.0
 11
4503.0819690498538
 21
4491.0468919885607
 31
0.0
  0
LINE
  5
1CD53
  8
YANE
 10
4592.4157497121887
 20
4661.8076642972019
 30
0.0
 11
4592.4157497121887
 21
4491.0468919885607
 31
0.0
  0
LINE
  5
1CD54
  8
YANE
 10
4575.7657497121863
 20
4491.0468919885607
 30
0.0
 11
4575.7657497121863
 21
4661.8076642972019
 31
0.0
  0
LINE
  5
1CD55
  8
YANE
 10
4753.0319690498563
 20
4491.0468919885607
 30
0.0
 11
4753.0319690498563
 21
4661.8076642972019
 31
0.0
  0
LINE
  5
1CD56
  8
YANE
 10
4725.715749712188
 20
4661.8076642972019
 30
0.0
 11
4725.715749712188
 21
4491.0468919885607
 31
0.0
  0
LINE
  5
1CD57
  8
YANE
 10
4709.0657497121874
 20
4491.0468919885607
 30
0.0
 11
4709.0657497121874
 21
4661.8076642972019
 31
0.0
  0
LINE
  5
1CD58
  8
YANE
 10
4769.6819690498542
 20
4661.8076642972019
 30
0.0
 11
4769.6819690498542
 21
4491.0468919885607
 31
0.0
  0
LINE
  5
1CD59
  8
YANE
 10
4886.3319690498547
 20
4491.0468919885607
 30
0.0
 11
4886.3319690498547
 21
4661.8076642972019
 31
0.0
  0
LINE
  5
1CD5A
  8
YANE
 10
4859.0157497121882
 20
4661.8076642972019
 30
0.0
 11
4859.0157497121882
 21
4491.0468919885607
 31
0.0
  0
LINE
  5
1CD5B
  8
YANE
 10
4842.3657497121894
 20
4491.0468919885607
 30
0.0
 11
4842.3657497121894
 21
4661.8076642972019
 31
0.0
  0
LINE
  5
1CD5C
  8
YANE
 10
4902.9819690498571
 20
4661.8076642972019
 30
0.0
 11
4902.9819690498571
 21
4491.0468919885607
 31
0.0
  0
LINE
  5
1CD5D
  8
YANE
 10
5019.631969049854
 20
4491.0468919885607
 30
0.0
 11
5019.631969049854
 21
4661.8076642972019
 31
0.0
  0
LINE
  5
1CD5E
  8
YANE
 10
4992.3157497121883
 20
4661.8076642972019
 30
0.0
 11
4992.3157497121883
 21
4491.0468919885607
 31
0.0
  0
LINE
  5
1CD5F
  8
YANE
 10
4975.665749712186
 20
4491.0468919885607
 30
0.0
 11
4975.665749712186
 21
4661.8076642972019
 31
0.0
  0
LINE
  5
1CD60
  8
YANE
 10
5036.2819690498563
 20
4661.8076642972019
 30
0.0
 11
5036.2819690498563
 21
4491.0468919885607
 31
0.0
  0
LINE
  5
1CD61
  8
YANE
 10
5152.931969049856
 20
4491.0468919885607
 30
0.0
 11
5152.931969049856
 21
4661.8076642972019
 31
0.0
  0
LINE
  5
1CD62
  8
YANE
 10
5125.6157497121894
 20
4661.8076642972019
 30
0.0
 11
5125.6157497121894
 21
4491.0468919885607
 31
0.0
  0
LINE
  5
1CD63
  8
YANE
 10
5108.9657497121862
 20
4491.0468919885607
 30
0.0
 11
5108.9657497121862
 21
4661.8076642972019
 31
0.0
  0
LINE
  5
1CD64
  8
YANE
 10
5169.5819690498583
 20
4661.8076642972019
 30
0.0
 11
5169.5819690498583
 21
4491.0468919885607
 31
0.0
  0
LINE
  5
1CD65
  8
YANE
 10
5286.2319690498543
 20
4491.0468919885607
 30
0.0
 11
5286.2319690498543
 21
4661.8076642972019
 31
0.0
  0
LINE
  5
1CD66
  8
YANE
 10
5258.9157497121887
 20
4661.8076642972019
 30
0.0
 11
5258.9157497121887
 21
4491.0468919885607
 31
0.0
  0
LINE
  5
1CD67
  8
YANE
 10
5242.2657497121882
 20
4491.0468919885607
 30
0.0
 11
5242.2657497121882
 21
4661.8076642972019
 31
0.0
  0
LINE
  5
1CD68
  8
YANE
 10
5302.8819690498558
 20
4661.8076642972019
 30
0.0
 11
5302.8819690498558
 21
4491.0468919885607
 31
0.0
  0
LINE
  5
1CD69
  8
YANE
 10
5419.5319690498563
 20
4491.0468919885607
 30
0.0
 11
5419.5319690498563
 21
4661.8076642972019
 31
0.0
  0
LINE
  5
1CD6A
  8
YANE
 10
5392.215749712188
 20
4661.8076642972019
 30
0.0
 11
5392.215749712188
 21
4491.0468919885607
 31
0.0
  0
LINE
  5
1CD6B
  8
YANE
 10
5375.5657497121874
 20
4491.0468919885607
 30
0.0
 11
5375.5657497121874
 21
4661.8076642972019
 31
0.0
  0
LINE
  5
1CD6C
  8
YANE
 10
5436.1819690498578
 20
4661.8076642972019
 30
0.0
 11
5436.1819690498578
 21
4491.0468919885607
 31
0.0
  0
LINE
  5
1CD6D
  8
YANE
 10
5552.8319690498538
 20
4491.0468919885607
 30
0.0
 11
5552.8319690498538
 21
4661.8076642972019
 31
0.0
  0
LINE
  5
1CD6E
  8
YANE
 10
5525.5157497121891
 20
4661.8076642972019
 30
0.0
 11
5525.5157497121891
 21
4491.0468919885607
 31
0.0
  0
LINE
  5
1CD6F
  8
YANE
 10
5508.8657497121858
 20
4491.0468919885607
 30
0.0
 11
5508.8657497121858
 21
4661.8076642972019
 31
0.0
  0
LINE
  5
1CD70
  8
YANE
 10
5569.4819690498562
 20
4661.8076642972019
 30
0.0
 11
5569.4819690498562
 21
4491.0468919885607
 31
0.0
  0
LINE
  5
1CD71
  8
YANE
 10
5702.7819690498582
 20
4661.8076642972019
 30
0.0
 11
5702.7819690498582
 21
4491.0468919885607
 31
0.0
  0
LINE
  5
1CD72
  8
YANE
 10
5642.165749712186
 20
4491.0468919885607
 30
0.0
 11
5642.165749712186
 21
4661.8076642972019
 31
0.0
  0
LINE
  5
1CD73
  8
YANE
 10
5658.8157497121883
 20
4661.8076642972019
 30
0.0
 11
5658.8157497121883
 21
4491.0468919885607
 31
0.0
  0
LINE
  5
1CD74
  8
YANE
 10
5686.1319690498531
 20
4491.0468919885607
 30
0.0
 11
5686.1319690498531
 21
4661.8076642972019
 31
0.0
  0
LINE
  5
1CD75
  8
YANE
 10
5836.0819690498593
 20
4661.8076642972019
 30
0.0
 11
5836.0819690498593
 21
4491.0468919885607
 31
0.0
  0
LINE
  5
1CD76
  8
YANE
 10
5775.4657497121871
 20
4491.0468919885607
 30
0.0
 11
5775.4657497121871
 21
4661.8076642972019
 31
0.0
  0
LINE
  5
1CD77
  8
YANE
 10
5792.1157497121903
 20
4661.8076642972019
 30
0.0
 11
5792.1157497121903
 21
4491.0468919885607
 31
0.0
  0
LINE
  5
1CD78
  8
YANE
 10
5819.431969049856
 20
4491.0468919885607
 30
0.0
 11
5819.431969049856
 21
4661.8076642972019
 31
0.0
  0
LINE
  5
1CD79
  8
YANE
 10
5969.3819690498594
 20
4661.8076642972019
 30
0.0
 11
5969.3819690498594
 21
4491.0468919885607
 31
0.0
  0
LINE
  5
1CD7A
  8
YANE
 10
5908.7657497121882
 20
4491.0468919885607
 30
0.0
 11
5908.7657497121882
 21
4661.8076642972019
 31
0.0
  0
LINE
  5
1CD7B
  8
YANE
 10
5925.4157497121887
 20
4661.8076642972019
 30
0.0
 11
5925.4157497121887
 21
4491.0468919885607
 31
0.0
  0
LINE
  5
1CD7C
  8
YANE
 10
5952.7319690498534
 20
4491.0468919885607
 30
0.0
 11
5952.7319690498534
 21
4661.8076642972019
 31
0.0
  0
LINE
  5
1CD7D
  8
YANE
 10
6102.6819690498569
 20
4661.8076642972019
 30
0.0
 11
6102.6819690498569
 21
4491.0468919885607
 31
0.0
  0
LINE
  5
1CD7E
  8
YANE
 10
6042.0657497121856
 20
4491.0468919885607
 30
0.0
 11
6042.0657497121856
 21
4661.8076642972019
 31
0.0
  0
LINE
  5
1CD7F
  8
YANE
 10
6058.7157497121871
 20
4661.8076642972019
 30
0.0
 11
6058.7157497121871
 21
4491.0468919885607
 31
0.0
  0
LINE
  5
1CD80
  8
YANE
 10
6086.0319690498563
 20
4491.0468919885607
 30
0.0
 11
6086.0319690498563
 21
4661.8076642972019
 31
0.0
  0
LINE
  5
1CD81
  8
YANE
 10
6235.9819690498562
 20
4661.8076642972019
 30
0.0
 11
6235.9819690498562
 21
4491.0468919885607
 31
0.0
  0
LINE
  5
1CD82
  8
YANE
 10
6175.3657497121876
 20
4491.0468919885607
 30
0.0
 11
6175.3657497121876
 21
4661.8076642972019
 31
0.0
  0
LINE
  5
1CD83
  8
YANE
 10
6192.0157497121891
 20
4661.8076642972019
 30
0.0
 11
6192.0157497121891
 21
4491.0468919885607
 31
0.0
  0
LINE
  5
1CD84
  8
YANE
 10
6219.3319690498538
 20
4491.0468919885607
 30
0.0
 11
6219.3319690498538
 21
4661.8076642972019
 31
0.0
  0
LINE
  5
1CD85
  8
YANE
 10
6369.2819690498582
 20
4661.8076642972019
 30
0.0
 11
6369.2819690498582
 21
4491.0468919885607
 31
0.0
  0
LINE
  5
1CD86
  8
YANE
 10
6308.665749712186
 20
4491.0468919885607
 30
0.0
 11
6308.665749712186
 21
4661.8076642972019
 31
0.0
  0
LINE
  5
1CD87
  8
YANE
 10
6325.3157497121892
 20
4661.8076642972019
 30
0.0
 11
6325.3157497121892
 21
4491.0468919885607
 31
0.0
  0
LINE
  5
1CD88
  8
YANE
 10
6352.6319690498558
 20
4491.0468919885607
 30
0.0
 11
6352.6319690498558
 21
4661.8076642972019
 31
0.0
  0
LINE
  5
1CD89
  8
YANE
 10
6502.5819690498547
 20
4661.8076642972019
 30
0.0
 11
6502.5819690498547
 21
4491.0468919885607
 31
0.0
  0
LINE
  5
1CD8A
  8
YANE
 10
6441.965749712188
 20
4491.0468919885607
 30
0.0
 11
6441.965749712188
 21
4661.8076642972019
 31
0.0
  0
LINE
  5
1CD8B
  8
YANE
 10
6458.6157497121894
 20
4661.8076642972019
 30
0.0
 11
6458.6157497121894
 21
4491.0468919885607
 31
0.0
  0
LINE
  5
1CD8C
  8
YANE
 10
6485.9319690498551
 20
4491.0468919885607
 30
0.0
 11
6485.9319690498551
 21
4661.8076642972019
 31
0.0
  0
LINE
  5
1CD8D
  8
YANE
 10
6635.8819690498594
 20
4661.8076642972019
 30
0.0
 11
6635.8819690498594
 21
4491.0468919885607
 31
0.0
  0
LINE
  5
1CD8E
  8
YANE
 10
6575.2657497121863
 20
4491.0468919885607
 30
0.0
 11
6575.2657497121863
 21
4661.8076642972019
 31
0.0
  0
LINE
  5
1CD8F
  8
YANE
 10
6591.9157497121851
 20
4661.8076642972019
 30
0.0
 11
6591.9157497121851
 21
4491.0468919885607
 31
0.0
  0
LINE
  5
1CD90
  8
YANE
 10
6619.2319690498553
 20
4491.0468919885607
 30
0.0
 11
6619.2319690498553
 21
4661.8076642972019
 31
0.0
  0
LINE
  5
1CD91
  8
YANE
 10
6769.1819690498569
 20
4661.8076642972019
 30
0.0
 11
6769.1819690498569
 21
4491.0468919885607
 31
0.0
  0
LINE
  5
1CD92
  8
YANE
 10
6708.5657497121874
 20
4491.0468919885607
 30
0.0
 11
6708.5657497121874
 21
4661.8076642972019
 31
0.0
  0
LINE
  5
1CD93
  8
YANE
 10
6725.2157497121907
 20
4661.8076642972019
 30
0.0
 11
6725.2157497121907
 21
4491.0468919885607
 31
0.0
  0
LINE
  5
1CD94
  8
YANE
 10
6752.5319690498527
 20
4491.0468919885607
 30
0.0
 11
6752.5319690498527
 21
4661.8076642972019
 31
0.0
  0
LINE
  5
1CD95
  8
YANE
 10
7657.2157497121761
 20
4661.8076642972019
 30
0.0
 11
7657.2157497121761
 21
4491.0468919885607
 31
0.0
  0
LINE
  5
1CD96
  8
YANE
 10
7640.5657497121783
 20
4491.0468919885607
 30
0.0
 11
7640.5657497121783
 21
4661.8076642972019
 31
0.0
  0
LINE
  5
1CD97
  8
YANE
 10
7551.2319690498534
 20
4491.0468919885607
 30
0.0
 11
7551.2319690498534
 21
4661.8076642972019
 31
0.0
  0
LINE
  5
1CD98
  8
YANE
 10
7523.9157497121778
 20
4661.8076642972019
 30
0.0
 11
7523.9157497121778
 21
4491.0468919885607
 31
0.0
  0
LINE
  5
1CD99
  8
YANE
 10
7507.2657497121754
 20
4491.0468919885607
 30
0.0
 11
7507.2657497121754
 21
4661.8076642972019
 31
0.0
  0
LINE
  5
1CD9A
  8
YANE
 10
7567.8819690498558
 20
4661.8076642972019
 30
0.0
 11
7567.8819690498558
 21
4491.0468919885607
 31
0.0
  0
LINE
  5
1CD9B
  8
KERABA
 10
4398.8738593810249
 20
4444.6397988408653
 30
0.0
 11
4392.8738593810249
 21
4444.6397988408653
 31
0.0
  0
LINE
  5
1CD9C
  8
KERABA
 10
4398.8738593810249
 20
4792.54679856853
 30
0.0
 11
4392.8738593810249
 21
4792.54679856853
 31
0.0
  0
LINE
  5
1CD9D
  8
KERABA
 10
7658.8738593810158
 20
4444.6397988408653
 30
0.0
 11
7664.8738593810167
 21
4444.6397988408653
 31
0.0
  0
LINE
  5
1CD9E
  8
KERABA
 10
7658.8738593810158
 20
4792.54679856853
 30
0.0
 11
7664.8738593810167
 21
4792.54679856853
 31
0.0
  0
LINE
  5
1CD9F
  8
MOYA
 10
4663.6738593810242
 20
4661.8076642972064
 30
0.0
 11
7394.0738593810274
 21
4661.8076642972019
 31
0.0
  0
LINE
  5
1CDA0
  8
MOYA
 10
4663.6738593810242
 20
4703.7761062254513
 30
0.0
 11
7394.073859381022
 21
4703.7761062254513
 31
0.0
  0
LINE
  5
1CDA1
  8
MOYA
 10
4663.6738593810242
 20
4736.5457773214612
 30
0.0
 11
7394.073859381022
 21
4736.5457773214612
 31
0.0
  0
LINE
  5
1CDA2
  8
MOYA
 10
4661.373859381024
 20
4745.815801875141
 30
0.0
 11
7396.3738593810258
 21
4745.815801875141
 31
0.0
  0
LINE
  5
1CDA3
  8
MOYA
 10
4661.373859381024
 20
4778.5854759558451
 30
0.0
 11
7396.3738593810258
 21
4778.5854759558451
 31
0.0
  0
LINE
  5
1CDA4
  8
MOYA
 10
7461.373859381014
 20
4778.5854759558451
 30
0.0
 11
7658.8738593810158
 21
4778.5854759558451
 31
0.0
  0
LINE
  5
1CDA5
  8
MOYA
 10
7463.6738593810169
 20
4661.8076642972019
 30
0.0
 11
7658.8738593810158
 21
4661.8076642972019
 31
0.0
  0
LINE
  5
1CDA6
  8
MOYA
 10
7463.6738593810169
 20
4703.7761062254513
 30
0.0
 11
7658.8738593810158
 21
4703.7761062254513
 31
0.0
  0
LINE
  5
1CDA7
  8
MOYA
 10
7463.6738593810169
 20
4736.5457773214621
 30
0.0
 11
7658.8738593810158
 21
4736.5457773214612
 31
0.0
  0
LINE
  5
1CDA8
  8
MOYA
 10
7461.373859381014
 20
4745.8158018751437
 30
0.0
 11
7658.8738593810158
 21
4745.8158018751437
 31
0.0
  0
LINE
  5
1CDA9
  8
MOYA
 10
4392.8738593810249
 20
4736.5457773214621
 30
0.0
 11
4594.0738593810229
 21
4736.5457773214621
 31
0.0
  0
LINE
  5
1CDAA
  8
MOYA
 10
4392.8738593810249
 20
4778.5854759558451
 30
0.0
 11
4596.373859381024
 21
4778.5854759558451
 31
0.0
  0
LINE
  5
1CDAB
  8
MOYA
 10
4392.8738593810249
 20
4661.8076642972019
 30
0.0
 11
4594.0738593810238
 21
4661.8076642972064
 31
0.0
  0
LINE
  5
1CDAC
  8
MOYA
 10
4392.8738593810249
 20
4703.7761062254513
 30
0.0
 11
4594.0738593810229
 21
4703.7761062254513
 31
0.0
  0
LINE
  5
1CDAD
  8
MOYA
 10
4392.8738593810249
 20
4745.815801875141
 30
0.0
 11
4596.3738593810231
 21
4745.815801875141
 31
0.0
  0
LINE
  5
1CDAE
  8
MOYA
 10
4661.373859381024
 20
4787.8554975248326
 30
0.0
 11
7396.3738593810258
 21
4787.8554975248326
 31
0.0
  0
LINE
  5
1CDAF
  8
MOYA
 10
4392.8738593810249
 20
4790.4641816830717
 30
0.0
 11
4392.8738593810249
 21
4661.8076642972019
 31
0.0
  0
LINE
  5
1CDB0
  8
MOYA
 10
7461.373859381014
 20
4787.8554975248289
 30
0.0
 11
7658.8738593810158
 21
4787.8554975248289
 31
0.0
  0
LINE
  5
1CDB1
  8
MOYA
 10
7664.8738593810167
 20
4790.4641816830717
 30
0.0
 11
7664.8738593810167
 21
4661.8076642972019
 31
0.0
  0
LINE
  5
1CDB2
  8
MOYA
 10
4392.8738593810249
 20
4787.8554975248326
 30
0.0
 11
4596.373859381024
 21
4787.8554975248326
 31
0.0
  0
LINE
  5
1CDB3
  8
TOI
 10
4392.8738593810249
 20
4430.6397988408671
 30
0.0
 11
4392.8738593810249
 21
4491.0468919885607
 31
0.0
  0
LINE
  5
1CDB4
  8
TOI
 10
4594.0738593810229
 20
4491.0468919885607
 30
0.0
 11
4392.8738593810249
 21
4491.0468919885607
 31
0.0
  0
LINE
  5
1CDB5
  8
TOI
 10
4594.0738593810229
 20
4463.8320957986207
 30
0.0
 11
4392.8738593810249
 21
4463.8320957986207
 31
0.0
  0
LINE
  5
1CDB6
  8
TOI
 10
4596.3738593810231
 20
4430.6397988408671
 30
0.0
 11
4392.8738593810249
 21
4430.6397988408671
 31
0.0
  0
LINE
  5
1CDB7
  8
TOI
 10
4663.6738593810242
 20
4491.0468919885607
 30
0.0
 11
7394.0738593810274
 21
4491.0468919885607
 31
0.0
  0
LINE
  5
1CDB8
  8
TOI
 10
4663.6738593810242
 20
4463.8320957986207
 30
0.0
 11
7394.0738593810274
 21
4463.8320957986207
 31
0.0
  0
LINE
  5
1CDB9
  8
TOI
 10
4661.373859381024
 20
4430.6397988408671
 30
0.0
 11
7396.3738593810258
 21
4430.6397988408671
 31
0.0
  0
LINE
  5
1CDBA
  8
TOI
 10
7463.6738593810169
 20
4463.8320957986207
 30
0.0
 11
7658.8738593810158
 21
4463.8320957986207
 31
0.0
  0
LINE
  5
1CDBB
  8
U2
 10
4596.3738593810231
 20
4717.748876394191
 30
0.0
 11
4596.3738593810231
 21
4675.5467985685309
 31
0.0
  0
LINE
  5
1CDBC
  8
U2
 10
4594.0738593810229
 20
4740.5467985685264
 30
0.0
 11
4594.0738593810229
 21
4675.5467985685355
 31
0.0
  0
LINE
  5
1CDBD
  8
U2
 10
4594.0738593810229
 20
4675.5467985685355
 30
0.0
 11
4596.3738593810267
 21
4675.5467985685355
 31
0.0
  0
LINE
  5
1CDBE
  8
U2
 10
4661.373859381024
 20
4717.748876394191
 30
0.0
 11
4661.373859381024
 21
4675.5467985685355
 31
0.0
  0
LINE
  5
1CDBF
  8
U2
 10
4663.6738593810242
 20
4740.5467985685264
 30
0.0
 11
4663.6738593810242
 21
4675.5467985685355
 31
0.0
  0
LINE
  5
1CDC0
  8
U2
 10
4663.6738593810242
 20
4675.5467985685355
 30
0.0
 11
4661.3738593810212
 21
4675.5467985685355
 31
0.0
  0
LINE
  5
1CDC1
  8
U2
 10
4661.373859381024
 20
4740.5467985685264
 30
0.0
 11
4663.6738593810242
 21
4740.5467985685264
 31
0.0
  0
LINE
  5
1CDC2
  8
1PL-S1
 10
4655.3738593810158
 20
4711.5467985685291
 30
0.0
 11
4669.673859381016
 21
4711.5467985685291
 31
0.0
  0
LINE
  5
1CDC3
  8
U2
 10
4596.3738593810231
 20
4740.5467985685264
 30
0.0
 11
4594.0738593810229
 21
4740.5467985685264
 31
0.0
  0
LINE
  5
1CDC4
  8
1PL-S1
 10
4602.3738593810322
 20
4711.5467985685291
 30
0.0
 11
4588.073859381032
 21
4711.5467985685291
 31
0.0
  0
LINE
  5
1CDC5
  8
U2
 10
4598.1933373503516
 20
4790.4641816830717
 30
0.0
 11
4661.373859381024
 21
4717.748876394191
 31
0.0
  0
LINE
  5
1CDC6
  8
U2
 10
4596.3738593810231
 20
4717.748876394191
 30
0.0
 11
4659.5543814116991
 21
4790.4641816830717
 31
0.0
  0
LINE
  5
1CDC7
  8
U2
 10
7396.3738593810258
 20
4717.748876394191
 30
0.0
 11
7396.3738593810258
 21
4675.5467985685309
 31
0.0
  0
LINE
  5
1CDC8
  8
U2
 10
7394.073859381022
 20
4740.5467985685264
 30
0.0
 11
7394.073859381022
 21
4675.5467985685355
 31
0.0
  0
LINE
  5
1CDC9
  8
U2
 10
7394.073859381022
 20
4675.5467985685355
 30
0.0
 11
7396.3738593810294
 21
4675.5467985685355
 31
0.0
  0
LINE
  5
1CDCA
  8
U2
 10
7461.3738593810249
 20
4717.748876394191
 30
0.0
 11
7461.3738593810249
 21
4675.5467985685355
 31
0.0
  0
LINE
  5
1CDCB
  8
U2
 10
7463.6738593810251
 20
4740.5467985685264
 30
0.0
 11
7463.6738593810251
 21
4675.5467985685355
 31
0.0
  0
LINE
  5
1CDCC
  8
U2
 10
7463.6738593810251
 20
4675.5467985685355
 30
0.0
 11
7461.3738593810212
 21
4675.5467985685355
 31
0.0
  0
LINE
  5
1CDCD
  8
U2
 10
7461.3738593810249
 20
4740.5467985685264
 30
0.0
 11
7463.6738593810251
 21
4740.5467985685264
 31
0.0
  0
LINE
  5
1CDCE
  8
1PL-S1
 10
7455.3738593810176
 20
4711.5467985685291
 30
0.0
 11
7469.6738593810178
 21
4711.5467985685291
 31
0.0
  0
LINE
  5
1CDCF
  8
U2
 10
7396.3738593810258
 20
4740.5467985685264
 30
0.0
 11
7394.073859381022
 21
4740.5467985685264
 31
0.0
  0
LINE
  5
1CDD0
  8
1PL-S1
 10
7402.3738593810313
 20
4711.5467985685291
 30
0.0
 11
7388.0738593810302
 21
4711.5467985685291
 31
0.0
  0
LINE
  5
1CDD1
  8
U2
 10
7398.1933373503553
 20
4790.4641816830717
 30
0.0
 11
7461.3738593810249
 21
4717.748876394191
 31
0.0
  0
LINE
  5
1CDD2
  8
U2
 10
7396.3738593810258
 20
4717.748876394191
 30
0.0
 11
7459.5543814116991
 21
4790.4641816830717
 31
0.0
  0
LINE
  5
1CDD3
  8
TOI
 10
7461.373859381014
 20
4430.6397988408671
 30
0.0
 11
7664.8738593810167
 21
4430.6397988408671
 31
0.0
  0
LINE
  5
1CDD4
  8
TOI
 10
7463.6738593810169
 20
4491.0468919885607
 30
0.0
 11
7658.8738593810158
 21
4491.0468919885607
 31
0.0
  0
LINE
  5
1CDD5
  8
TOI
 10
7664.8738593810167
 20
4430.6397988408671
 30
0.0
 11
7664.8738593810167
 21
4491.0468919885607
 31
0.0
  0
LINE
  5
1CDD6
  8
HANAKAKUSHI
 10
4392.8738593810249
 20
4892.54679856853
 30
0.0
 11
4392.8738593810249
 21
4790.4641816830726
 31
0.0
  0
LINE
  5
1CDD7
  8
HANAKAKUSHI
 10
7664.8738593810167
 20
4892.54679856853
 30
0.0
 11
7664.8738593810167
 21
4790.4641816830717
 31
0.0
  0
LINE
  5
1CDD8
  8
HANAKAKUSHI
 10
4392.8738593810249
 20
4790.4641816830717
 30
0.0
 11
7664.873859381014
 21
4790.4641816830717
 31
0.0
  0
LINE
  5
1CDD9
  8
HANAKAKUSHI
 10
4392.8738593810249
 20
4892.54679856853
 30
0.0
 11
7664.873859381014
 21
4892.54679856853
 31
0.0
  0
LINE
  5
1CDDA
  8
1PL-S1
 10
4655.373859381024
 20
4608.8291780574291
 30
0.0
 11
4669.6738593810214
 21
4608.8291780574291
 31
0.0
  0
LINE
  5
1CDDB
  8
U1
 10
4663.6738593810242
 20
4667.0327886260147
 30
0.0
 11
4661.373859381024
 21
4667.0327886260138
 31
0.0
  0
LINE
  5
1CDDC
  8
1PL-S1
 10
4655.3738593810203
 20
4617.4545641655541
 30
0.0
 11
4669.6738593810196
 21
4617.4545641655541
 31
0.0
  0
LINE
  5
1CDDD
  8
1PL-S1
 10
4655.3738593810203
 20
4625.8954888309936
 30
0.0
 11
4669.6738593810196
 21
4625.8954888309936
 31
0.0
  0
LINE
  5
1CDDE
  8
U1
 10
4594.0738593810238
 20
4667.0327886260147
 30
0.0
 11
4596.373859381024
 21
4667.0327886260138
 31
0.0
  0
LINE
  5
1CDDF
  8
1PL-S1
 10
4602.3738593810313
 20
4625.8954888309936
 30
0.0
 11
4588.0738593810293
 21
4625.8954888309936
 31
0.0
  0
LINE
  5
1CDE0
  8
1PL-S1
 10
4602.3738593810313
 20
4617.4545641655541
 30
0.0
 11
4588.0738593810293
 21
4617.4545641655541
 31
0.0
  0
LINE
  5
1CDE1
  8
1PL-S1
 10
4602.3738593810249
 20
4608.8291780574291
 30
0.0
 11
4588.0738593810283
 21
4608.8291780574291
 31
0.0
  0
LINE
  5
1CDE2
  8
1PL-S1
 10
4655.373859381024
 20
4465.5467985685309
 30
0.0
 11
4669.6738593810214
 21
4465.5467985685309
 31
0.0
  0
LINE
  5
1CDE3
  8
1PL-S1
 10
4655.373859381024
 20
4535.5467985685327
 30
0.0
 11
4669.6738593810214
 21
4535.5467985685327
 31
0.0
  0
LINE
  5
1CDE4
  8
U1
 10
4661.373859381024
 20
4435.5467985685327
 30
0.0
 11
4663.6738593810242
 21
4435.5467985685327
 31
0.0
  0
LINE
  5
1CDE5
  8
U1
 10
4596.373859381024
 20
4435.5467985685327
 30
0.0
 11
4594.0738593810238
 21
4435.5467985685327
 31
0.0
  0
LINE
  5
1CDE6
  8
1PL-S1
 10
4602.3738593810249
 20
4535.5467985685327
 30
0.0
 11
4588.0738593810283
 21
4535.5467985685327
 31
0.0
  0
LINE
  5
1CDE7
  8
1PL-S1
 10
4602.3738593810249
 20
4465.5467985685309
 30
0.0
 11
4588.0738593810283
 21
4465.5467985685309
 31
0.0
  0
LINE
  5
1CDE8
  8
U1
 10
4663.6738593810242
 20
4667.0327886260147
 30
0.0
 11
4663.6738593810242
 21
4435.5467985685327
 31
0.0
  0
LINE
  5
1CDE9
  8
U1
 10
4594.0738593810238
 20
4667.0327886260147
 30
0.0
 11
4594.0738593810238
 21
4435.5467985685327
 31
0.0
  0
LINE
  5
1CDEA
  8
U1
 10
7394.0738593810274
 20
4667.0327886260147
 30
0.0
 11
7396.3738593810258
 21
4667.0327886260138
 31
0.0
  0
LINE
  5
1CDEB
  8
1PL-S1
 10
7402.3738593810313
 20
4625.8954888309936
 30
0.0
 11
7388.0738593810302
 21
4625.8954888309936
 31
0.0
  0
LINE
  5
1CDEC
  8
1PL-S1
 10
7402.3738593810313
 20
4617.4545641655541
 30
0.0
 11
7388.0738593810302
 21
4617.4545641655541
 31
0.0
  0
LINE
  5
1CDED
  8
1PL-S1
 10
7402.3738593810258
 20
4608.8291780574291
 30
0.0
 11
7388.0738593810274
 21
4608.8291780574291
 31
0.0
  0
LINE
  5
1CDEE
  8
U1
 10
7396.3738593810258
 20
4435.5467985685327
 30
0.0
 11
7394.0738593810274
 21
4435.5467985685327
 31
0.0
  0
LINE
  5
1CDEF
  8
1PL-S1
 10
7402.3738593810258
 20
4535.5467985685327
 30
0.0
 11
7388.0738593810274
 21
4535.5467985685327
 31
0.0
  0
LINE
  5
1CDF0
  8
1PL-S1
 10
7402.3738593810258
 20
4465.5467985685309
 30
0.0
 11
7388.0738593810274
 21
4465.5467985685309
 31
0.0
  0
LINE
  5
1CDF1
  8
U1
 10
7394.0738593810274
 20
4667.0327886260147
 30
0.0
 11
7394.0738593810274
 21
4435.5467985685327
 31
0.0
  0
LINE
  5
1CDF2
  8
U1
 10
7396.3738593810258
 20
4435.5467985685327
 30
0.0
 11
7394.0738593810274
 21
4435.5467985685327
 31
0.0
  0
LINE
  5
1CDF3
  8
1PL-S1
 10
7455.3738593810158
 20
4625.8954888309936
 30
0.0
 11
7469.6738593810178
 21
4625.8954888309936
 31
0.0
  0
LINE
  5
1CDF4
  8
1PL-S1
 10
7455.3738593810158
 20
4617.4545641655541
 30
0.0
 11
7469.6738593810178
 21
4617.4545641655541
 31
0.0
  0
LINE
  5
1CDF5
  8
U1
 10
7463.6738593810169
 20
4667.0327886260147
 30
0.0
 11
7461.373859381014
 21
4667.0327886260138
 31
0.0
  0
LINE
  5
1CDF6
  8
U1
 10
7463.6738593810169
 20
4667.0327886260147
 30
0.0
 11
7463.6738593810169
 21
4435.5467985685327
 31
0.0
  0
LINE
  5
1CDF7
  8
U1
 10
7461.373859381014
 20
4435.5467985685327
 30
0.0
 11
7463.6738593810169
 21
4435.5467985685327
 31
0.0
  0
LINE
  5
1CDF8
  8
1PL-S1
 10
7455.3738593810158
 20
4608.8291780574291
 30
0.0
 11
7469.6738593810178
 21
4608.8291780574291
 31
0.0
  0
LINE
  5
1CDF9
  8
1PL-S1
 10
7455.3738593810158
 20
4535.5467985685327
 30
0.0
 11
7469.6738593810178
 21
4535.5467985685327
 31
0.0
  0
LINE
  5
1CDFA
  8
1PL-S1
 10
7455.3738593810158
 20
4465.5467985685309
 30
0.0
 11
7469.6738593810178
 21
4465.5467985685309
 31
0.0
  0
LINE
  5
1CDFB
  8
GAKU_FUCHI
 10
7371.3738593810258
 20
3594.5467985685309
 30
0.0
 11
7371.3738593810258
 21
2952.5467985685318
 31
0.0
  0
LINE
  5
1CDFC
  8
U1
 10
4686.3738593810231
 20
3376.7467985685312
 30
0.0
 11
6003.873859381024
 21
3376.7467985685312
 31
0.0
  0
LINE
  5
1CDFD
  8
U1
 10
4686.3738593810231
 20
3368.3467985685311
 30
0.0
 11
6003.873859381024
 21
3368.3467985685311
 31
0.0
  0
LINE
  5
1CDFE
  8
U1
 10
4686.3738593810231
 20
3168.3467985685302
 30
0.0
 11
6003.873859381024
 21
3168.3467985685302
 31
0.0
  0
LINE
  5
1CDFF
  8
U1
 10
4686.3738593810231
 20
3176.7467985685298
 30
0.0
 11
6003.873859381024
 21
3176.7467985685298
 31
0.0
  0
LINE
  5
1CE00
  8
MABASHIRA
 10
6003.873859381024
 20
2952.5467985685318
 30
0.0
 11
6003.873859381024
 21
3594.5467985685309
 31
0.0
  0
LINE
  5
1CE01
  8
MABASHIRA
 10
6053.873859381024
 20
2952.5467985685318
 30
0.0
 11
6053.873859381024
 21
3594.5467985685309
 31
0.0
  0
LINE
  5
1CE02
  8
GAKU_FUCHI
 10
4686.3738593810258
 20
3594.5467985685309
 30
0.0
 11
4686.3738593810258
 21
2952.5467985685318
 31
0.0
  0
LINE
  5
1CE03
  8
DOU_BUCHI
 10
4661.373859381024
 20
3664.54679856853
 30
0.0
 11
7396.3738593810258
 21
3664.54679856853
 31
0.0
  0
LINE
  5
1CE04
  8
DOU_BUCHI
 10
4661.3738593810231
 20
3594.5467985685309
 30
0.0
 11
7396.3738593810258
 21
3594.5467985685309
 31
0.0
  0
LINE
  5
1CE05
  8
DOU_BUCHI
 10
4661.3738593810231
 20
2882.5467985685318
 30
0.0
 11
7396.3738593810258
 21
2882.5467985685318
 31
0.0
  0
LINE
  5
1CE06
  8
DOU_BUCHI
 10
4661.3738593810231
 20
2952.5467985685318
 30
0.0
 11
7396.3738593810258
 21
2952.5467985685318
 31
0.0
  0
LINE
  5
1CE07
  8
U1
 10
6053.873859381024
 20
3376.7467985685312
 30
0.0
 11
7371.3738593810258
 21
3376.7467985685312
 31
0.0
  0
LINE
  5
1CE08
  8
U1
 10
6053.873859381024
 20
3368.3467985685311
 30
0.0
 11
7371.3738593810258
 21
3368.3467985685311
 31
0.0
  0
LINE
  5
1CE09
  8
U1
 10
6053.873859381024
 20
3168.3467985685302
 30
0.0
 11
7371.3738593810258
 21
3168.3467985685302
 31
0.0
  0
LINE
  5
1CE0A
  8
U1
 10
6053.873859381024
 20
3176.7467985685298
 30
0.0
 11
7371.3738593810258
 21
3176.7467985685298
 31
0.0
  0
LINE
  5
1CE0B
  8
U1
 10
4596.3738593810231
 20
2719.5467985685318
 30
0.0
 11
4596.3738593810231
 21
4675.5467985685309
 31
0.0
  0
LINE
  5
1CE0C
  8
U1
 10
4661.3738593810222
 20
2719.5467985685318
 30
0.0
 11
4661.373859381024
 21
4675.5467985685309
 31
0.0
  0
LINE
  5
1CE0D
  8
U1
 10
4596.3738593810231
 20
4675.5467985685309
 30
0.0
 11
4661.373859381024
 21
4675.5467985685355
 31
0.0
  0
LINE
  5
1CE0E
  8
U1
 10
7396.3738593810258
 20
2719.5467985685318
 30
0.0
 11
7396.3738593810258
 21
4675.5467985685309
 31
0.0
  0
LINE
  5
1CE0F
  8
U1
 10
7461.373859381024
 20
2719.5467985685318
 30
0.0
 11
7461.3738593810249
 21
4675.5467985685309
 31
0.0
  0
LINE
  5
1CE10
  8
U1
 10
7396.3738593810258
 20
4675.5467985685309
 30
0.0
 11
7461.3738593810249
 21
4675.5467985685355
 31
0.0
  0
LINE
  5
1CE11
  8
1PL-L1
 10
4628.873859381024
 20
2719.5467985685318
 30
0.0
 11
4628.873859381024
 21
5314.5463562856476
 31
0.0
  0
LINE
  5
1CE12
  8
1PL-L1
 10
7428.8738593810267
 20
2719.5467985685318
 30
0.0
 11
7428.8738593810267
 21
5314.5463562856476
 31
0.0
  0
LINE
  5
1CE13
  8
KISO
 10
4035.8368149084631
 20
2669.5467985685332
 30
0.0
 11
7966.499417208559
 21
2669.5467985685332
 31
0.0
  0
LINE
  5
1CE14
  8
KISO
 10
4228.873859381024
 20
2719.5467985685318
 30
0.0
 11
4228.873859381024
 21
2669.5467985685332
 31
0.0
  0
LINE
  5
1CE15
  8
KISO
 10
7828.8738593810258
 20
2719.5467985685318
 30
0.0
 11
7828.8738593810258
 21
2669.5467985685332
 31
0.0
  0
LINE
  5
1CE16
  8
YANE
 10
6902.4819690498562
 20
4661.8076642972019
 30
0.0
 11
6902.4819690498562
 21
4491.0468919885607
 31
0.0
  0
LINE
  5
1CE17
  8
YANE
 10
6841.8657497121876
 20
4491.0468919885607
 30
0.0
 11
6841.8657497121876
 21
4661.8076642972019
 31
0.0
  0
LINE
  5
1CE18
  8
YANE
 10
6858.5157497121891
 20
4661.8076642972019
 30
0.0
 11
6858.5157497121891
 21
4491.0468919885607
 31
0.0
  0
LINE
  5
1CE19
  8
YANE
 10
6885.8319690498547
 20
4491.0468919885607
 30
0.0
 11
6885.8319690498547
 21
4661.8076642972019
 31
0.0
  0
LINE
  5
1CE1A
  8
YANE
 10
7035.7819690498573
 20
4661.8076642972019
 30
0.0
 11
7035.7819690498573
 21
4491.0468919885607
 31
0.0
  0
LINE
  5
1CE1B
  8
YANE
 10
6975.165749712186
 20
4491.0468919885607
 30
0.0
 11
6975.165749712186
 21
4661.8076642972019
 31
0.0
  0
LINE
  5
1CE1C
  8
YANE
 10
6991.8157497121883
 20
4661.8076642972019
 30
0.0
 11
6991.8157497121883
 21
4491.0468919885607
 31
0.0
  0
LINE
  5
1CE1D
  8
YANE
 10
7019.1319690498549
 20
4491.0468919885607
 30
0.0
 11
7019.1319690498549
 21
4661.8076642972019
 31
0.0
  0
LINE
  5
1CE1E
  8
YANE
 10
7169.0819690498593
 20
4661.8076642972019
 30
0.0
 11
7169.0819690498593
 21
4491.0468919885607
 31
0.0
  0
LINE
  5
1CE1F
  8
YANE
 10
7108.4657497121871
 20
4491.0468919885607
 30
0.0
 11
7108.4657497121871
 21
4661.8076642972019
 31
0.0
  0
LINE
  5
1CE20
  8
YANE
 10
7125.1157497121912
 20
4661.8076642972019
 30
0.0
 11
7125.1157497121912
 21
4491.0468919885607
 31
0.0
  0
LINE
  5
1CE21
  8
YANE
 10
7152.431969049856
 20
4491.0468919885607
 30
0.0
 11
7152.431969049856
 21
4661.8076642972019
 31
0.0
  0
LINE
  5
1CE22
  8
YANE
 10
7302.3819690498549
 20
4661.8076642972019
 30
0.0
 11
7302.3819690498549
 21
4491.0468919885607
 31
0.0
  0
LINE
  5
1CE23
  8
YANE
 10
7241.7657497121863
 20
4491.0468919885607
 30
0.0
 11
7241.7657497121863
 21
4661.8076642972019
 31
0.0
  0
LINE
  5
1CE24
  8
YANE
 10
7258.4157497121887
 20
4661.8076642972019
 30
0.0
 11
7258.4157497121887
 21
4491.0468919885607
 31
0.0
  0
LINE
  5
1CE25
  8
YANE
 10
7285.7319690498543
 20
4491.0468919885607
 30
0.0
 11
7285.7319690498543
 21
4661.8076642972019
 31
0.0
  0
LINE
  5
1CE26
  8
YANE
 10
7375.0657497121811
 20
4491.0468919885607
 30
0.0
 11
7375.0657497121811
 21
4661.8076642972019
 31
0.0
  0
LINE
  5
1CE27
  8
YANE
 10
7391.7157497121916
 20
4661.8076642972019
 30
0.0
 11
7391.7157497121916
 21
4491.0468919885607
 31
0.0
  0
LINE
  5
1CE28
  8
1PL-L1
 10
12926.08862012218
 20
2595.0436256560261
 30
0.0
 11
12926.08862012218
 21
5337.5467985685309
 31
0.0
  0
LINE
  5
1CE29
  8
1PL-L1
 10
11491.08862012218
 20
2595.0436256560261
 30
0.0
 11
11491.08862012218
 21
5337.5467985685309
 31
0.0
  0
LINE
  5
1CE2A
  8
U1
 10
11519.08862012218
 20
4671.8237216454581
 30
0.0
 11
11523.58862012218
 21
4671.5467985685355
 31
0.0
  0
LINE
  5
1CE2B
  8
U2
 10
11463.08862012218
 20
4681.465442678631
 30
0.0
 11
10960.15564269982
 21
4717.3926077869819
 31
0.0
  0
ARC
  5
1CE2C
  8
U1
 10
11468.08862012218
 20
4735.1769168372421
 30
0.0
 40
5.0
 50
85.914383220047384
 51
180.0
  0
CIRCLE
  5
1CE2D
  8
U1
 10
11491.08862012218
 20
4711.5467985685355
 30
0.0
 40
6.0
  0
CIRCLE
  5
1CE2E
  8
U1
 10
11491.08862012218
 20
4651.5467985685355
 30
0.0
 40
5.0
  0
LINE
  5
1CE2F
  8
U1
 10
11463.08862012218
 20
4621.5467985685364
 30
0.0
 11
11463.08862012218
 21
4735.1769168372421
 31
0.0
  0
ARC
  5
1CE30
  8
U1
 10
11514.08862012218
 20
4731.8912025515292
 30
0.0
 40
5.0
 50
0.0
 51
85.914383220047384
  0
LINE
  5
1CE31
  8
U1
 10
11519.08862012218
 20
4621.5467985685364
 30
0.0
 11
11519.08862012218
 21
4731.8912025515292
 31
0.0
  0
LINE
  5
1CE32
  8
U1
 10
11519.08862012218
 20
4621.5467985685364
 30
0.0
 11
11463.08862012218
 21
4621.5467985685364
 31
0.0
  0
LINE
  5
1CE33
  8
U1
 10
11463.08862012218
 20
4675.5467985685355
 30
0.0
 11
11519.08862012218
 21
4671.5467985685355
 31
0.0
  0
LINE
  5
1CE34
  8
U1
 10
11514.44485537213
 20
4736.8784960506819
 30
0.0
 11
11468.44485537211
 21
4740.1642103363984
 31
0.0
  0
CIRCLE
  5
1CE35
  8
U1
 10
10977.78953060295
 20
4753.7284853382307
 30
0.0
 40
1.5
  0
LINE
  5
1CE36
  8
U1
 10
10954.954977748999
 20
4787.2407128062459
 30
0.0
 11
10950.13586279254
 21
4782.6296039434146
 31
0.0
  0
LINE
  5
1CE37
  8
U1
 10
10960.15564269982
 20
4717.3926077869819
 30
0.0
 11
10957.379581750711
 21
4717.5909165170651
 31
0.0
  0
ARC
  5
1CE38
  8
U1
 10
10957.735850357911
 20
4722.5782076334453
 30
0.0
 40
5.0
 50
218.09159026851489
 51
265.9139999999814
  0
LINE
  5
1CE39
  8
U1
 10
10953.800722455549
 20
4719.4936058127641
 30
0.0
 11
10946.30850738417
 21
4729.0516707727747
 31
0.0
  0
ARC
  5
1CE3A
  8
U1
 10
10977.78953060295
 20
4753.7284853382307
 30
0.0
 40
40.0
 50
133.73640973157811
 51
218.09159026851489
  0
LINE
  5
1CE3B
  8
U1
 10
10965.09352559561
 20
4786.516462660009
 30
0.0
 11
10960.15564269982
 21
4717.3926077869819
 31
0.0
  0
LINE
  5
1CE3C
  8
U1
 10
12922.58845178724
 20
4739.0720796750484
 30
0.0
 11
12922.39518488913
 21
4738.2957756713877
 31
0.0
  0
CIRCLE
  5
1CE3D
  8
U1
 10
13190.094213972239
 20
4445.9474025377249
 30
0.0
 40
2.5
  0
LINE
  5
1CE3E
  8
1PL-S2
 10
13182.29656105385
 20
4444.1594962302406
 30
0.0
 11
13197.891866890621
 21
4447.7353088452128
 31
0.0
  0
LINE
  5
1CE3F
  8
1PL-S2
 10
13191.882120279721
 20
4438.1497496193369
 30
0.0
 11
13188.30630766475
 21
4453.7450554561146
 31
0.0
  0
ARC
  5
1CE40
  8
U1
 10
13206.806961251201
 20
4444.6496820787088
 30
0.0
 40
4.0
 50
282.91399999994712
 51
12.91399999996073
  0
ARC
  5
1CE41
  8
U1
 10
13126.43778834831
 20
4436.4815125247351
 30
0.0
 40
10.0
 50
202.5080682268495
 51
283.84139952823512
  0
LINE
  5
1CE42
  8
U1
 10
13112.78440457857
 20
4433.3509588548186
 30
0.0
 11
13114.904904151779
 21
4433.8371634347877
 31
0.0
  0
ARC
  5
1CE43
  8
U1
 10
13115.35188072864
 20
4431.8877502051901
 30
0.0
 40
2.0
 50
22.508068226849598
 51
102.91399999994699
  0
LINE
  5
1CE44
  8
1PL-S2
 10
13135.349136621409
 20
4425.1874288900763
 30
0.0
 11
13131.773324006441
 21
4440.782734726854
 31
0.0
  0
CIRCLE
  5
1CE45
  8
U1
 10
13133.561230313921
 20
4432.9850818084651
 30
0.0
 40
2.5
  0
ARC
  5
1CE46
  8
U1
 10
13126.59554918295
 20
4436.5176851518427
 30
0.0
 40
10.0
 50
198.12990857046319
 51
282.91399999994712
  0
ARC
  5
1CE47
  8
U1
 10
13126.59554918295
 20
4436.5176851518427
 30
0.0
 40
14.0
 50
192.91399999996059
 51
282.91399999994712
  0
ARC
  5
1CE48
  8
U1
 10
13116.14166147389
 20
4433.0947869987567
 30
0.0
 40
1.0
 50
18.129908570463211
 51
102.91399999994699
  0
LINE
  5
1CE49
  8
U1
 10
13112.949656575771
 20
4433.3888491137441
 30
0.0
 11
13115.91817318545
 21
4434.0694936135551
 31
0.0
  0
LINE
  5
1CE4A
  8
U1
 10
13128.672671232671
 20
4426.7344463767513
 30
0.0
 11
13210.705787710391
 21
4445.5436352324487
 31
0.0
  0
LINE
  5
1CE4B
  8
1PL-S2
 10
13125.76357739553
 20
4431.1971755009799
 30
0.0
 11
13141.3588832323
 21
4434.7729881159466
 31
0.0
  0
LINE
  5
1CE4C
  8
U1
 10
13210.705787710391
 20
4445.5436352324532
 30
0.0
 11
13128.830432067311
 21
4426.7706190038589
 31
0.0
  0
LINE
  5
1CE4D
  8
U1
 10
13207.70091440493
 20
4440.7508556195153
 30
0.0
 11
13129.72438522105
 21
4422.8717925446635
 31
0.0
  0
ARC
  5
1CE4E
  8
U1
 10
12827.64608809454
 20
4357.7127378772557
 30
0.0
 40
393.0
 50
12.91399999996073
 51
85.913999999981399
  0
ARC
  5
1CE4F
  8
U1
 10
12827.64608809454
 20
4357.7127378772557
 30
0.0
 40
295.0
 50
14.85660197426097
 51
85.913999999981399
  0
LINE
  5
1CE50
  8
U1
 10
10860.40378397194
 20
4887.231992737401
 30
0.0
 11
10875.36565732109
 21
4886.1631869157991
 31
0.0
  0
ARC
  5
1CE51
  8
U1
 10
10875.508164763971
 20
4888.1581033623497
 30
0.0
 40
2.0
 50
265.9139999999814
 51
355.91399999998742
  0
LINE
  5
1CE52
  8
U1
 10
10877.50308121052
 20
4888.015595919469
 30
0.0
 11
10877.716842374841
 21
4891.0079705892967
 31
0.0
  0
ARC
  5
1CE53
  8
U1
 10
10875.508164763971
 20
4888.1581033623497
 30
0.0
 40
2.0
 50
265.9139999999814
 51
355.91399999998742
  0
LINE
  5
1CE54
  8
U1
 10
10877.50308121052
 20
4888.015595919469
 30
0.0
 11
10877.78809609629
 21
4892.0054288125739
 31
0.0
  0
LINE
  5
1CE55
  8
U1
 10
10860.83130630059
 20
4893.2167420770566
 30
0.0
 11
10877.78809609629
 21
4892.0054288125739
 31
0.0
  0
LINE
  5
1CE56
  8
U1
 10
10860.40378397194
 20
4887.231992737401
 30
0.0
 11
10875.36565732109
 21
4886.1631869157991
 31
0.0
  0
LINE
  5
1CE57
  8
U1
 10
10854.13345648521
 20
4799.4556690891122
 30
0.0
 11
10869.095329834359
 21
4798.3868632675094
 31
0.0
  0
ARC
  5
1CE58
  8
U1
 10
10868.952822391469
 20
4796.391946820956
 30
0.0
 40
2.0
 50
355.91399999998742
 51
85.913999999981399
  0
LINE
  5
1CE59
  8
U1
 10
10870.947738838029
 20
4796.249439378078
 30
0.0
 11
10870.73397767371
 21
4793.2570647082493
 31
0.0
  0
ARC
  5
1CE5A
  8
U1
 10
10868.952822391469
 20
4796.391946820956
 30
0.0
 40
2.0
 50
355.91399999998742
 51
85.913999999981399
  0
LINE
  5
1CE5B
  8
U1
 10
10870.947738838029
 20
4796.249439378078
 30
0.0
 11
10870.66272395227
 21
4792.2596064849731
 31
0.0
  0
LINE
  5
1CE5C
  8
U1
 10
10870.66272395227
 20
4792.2596064849731
 30
0.0
 11
10853.70593415658
 21
4793.4709197494549
 31
0.0
  0
LINE
  5
1CE5D
  8
U1
 10
10854.13345648521
 20
4799.4556690891122
 30
0.0
 11
10869.095329834359
 21
4798.3868632675094
 31
0.0
  0
ARC
  5
1CE5E
  8
U1
 10
10857.26862022858
 20
4843.3438309132562
 30
0.0
 40
44.0
 50
85.913999999981399
 51
265.9139999999814
  0
ARC
  5
1CE5F
  8
U1
 10
10857.26862022858
 20
4843.3438309132562
 30
0.0
 40
50.0
 50
85.913999999981399
 51
265.9139999999814
  0
ARC
  5
1CE60
  8
U1
 10
10857.26862022858
 20
4843.3438309132562
 30
0.0
 40
44.0
 50
85.913999999981399
 51
265.9139999999814
  0
LINE
  5
1CE61
  8
U1
 10
10877.716842374841
 20
4891.0079705892967
 30
0.0
 11
12855.64880062052
 21
4749.713819624727
 31
0.0
  0
LINE
  5
1CE62
  8
U1
 10
10870.73397767371
 20
4793.2570647082493
 30
0.0
 11
12848.665935919391
 21
4651.9629137436787
 31
0.0
  0
CIRCLE
  5
1CE63
  8
U1
 10
12926.08862012218
 20
4608.8291780574309
 30
0.0
 40
6.0
  0
CIRCLE
  5
1CE64
  8
U1
 10
12926.08862012218
 20
4535.5467985685355
 30
0.0
 40
6.0
  0
CIRCLE
  5
1CE65
  8
U1
 10
12802.745598776301
 20
4617.4545641655577
 30
0.0
 40
6.0
  0
LINE
  5
1CE66
  8
U1
 10
12652.83896230097
 20
4656.309066673196
 30
0.0
 11
12652.83896230097
 21
4594.3641977536681
 31
0.0
  0
CIRCLE
  5
1CE67
  8
U1
 10
12682.040376060841
 20
4625.8954888309963
 30
0.0
 40
6.0
  0
ARC
  5
1CE68
  8
U1
 10
12662.83896230097
 20
4656.309066673196
 30
0.0
 40
10.0
 50
112.9683160680015
 51
180.0
  0
LINE
  5
1CE69
  8
U1
 10
12950.088620122169
 20
4435.5467985685364
 30
0.0
 11
12890.088620122169
 21
4435.5467985685364
 31
0.0
  0
CIRCLE
  5
1CE6A
  8
U1
 10
12926.08862012218
 20
4465.5467985685355
 30
0.0
 40
6.0
  0
ARC
  5
1CE6B
  8
U1
 10
12950.088620122169
 20
4445.5467985685355
 30
0.0
 40
10.0
 50
270.0
 51
0.0
  0
ARC
  5
1CE6C
  8
U1
 10
12624.68402955097
 20
4295.6882868370967
 30
0.0
 40
300.0
 50
27.78759037804042
 51
84.614878958384622
  0
LINE
  5
1CE6D
  8
U1
 10
12960.08862012218
 20
4445.5467985685355
 30
0.0
 11
12960.08862012218
 21
4621.3108708564323
 31
0.0
  0
CIRCLE
  5
1CE6E
  8
U2
 10
11491.08862012218
 20
4711.5467985685355
 30
0.0
 40
6.0
  0
LINE
  5
1CE6F
  8
U2
 10
12652.83896230097
 20
4596.475277189289
 30
0.0
 11
11519.08862012218
 21
4677.4650662141994
 31
0.0
  0
LINE
  5
1CE70
  8
KISO
 10
13126.08862012218
 20
2719.546798568535
 30
0.0
 11
13126.08862012218
 21
2669.5467985685341
 31
0.0
  0
LINE
  5
1CE71
  8
KISO
 10
10398.051575649621
 20
2669.5467985685341
 30
0.0
 11
13263.714177949711
 21
2669.5467985685341
 31
0.0
  0
CIRCLE
  5
1CE72
  8
U1
 10
12926.08862012218
 20
4535.5467985685355
 30
0.0
 40
6.0
  0
CIRCLE
  5
1CE73
  8
U1
 10
12926.08862012218
 20
4465.5467985685355
 30
0.0
 40
6.0
  0
LINE
  5
1CE74
  8
U1
 10
12893.58862012218
 20
2719.5467985685341
 30
0.0
 11
12893.58862012218
 21
4435.5467985685364
 31
0.0
  0
LINE
  5
1CE75
  8
U1
 10
12958.58862012218
 20
4440.2789716921097
 30
0.0
 11
12958.58862012218
 21
2719.5467985685341
 31
0.0
  0
CIRCLE
  5
1CE76
  8
U1
 10
11491.08862012218
 20
4651.5467985685355
 30
0.0
 40
6.0
  0
LINE
  5
1CE77
  8
U1
 10
11458.58862012218
 20
4675.5467985685355
 30
0.0
 11
11463.08862012218
 21
4675.2698754916128
 31
0.0
  0
LINE
  5
1CE78
  8
U1
 10
11523.58862012218
 20
4671.5467985685355
 30
0.0
 11
11523.58862012218
 21
2719.5467985685341
 31
0.0
  0
LINE
  5
1CE79
  8
U1
 10
11458.58862012218
 20
2719.5467985685341
 30
0.0
 11
11458.58862012218
 21
4675.5467985685355
 31
0.0
  0
LINE
  5
1CE7A
  8
KISO
 10
10791.08862012218
 20
2719.546798568535
 30
0.0
 11
10791.08862012218
 21
2669.5467985685341
 31
0.0
  0
LINE
  5
1CE7B
  8
KISO
 10
13126.08862012218
 20
2719.5467985685341
 30
0.0
 11
10791.08862012218
 21
2719.5467985685341
 31
0.0
  0
TEXT
  5
1CE7C
  8
HIKIDASHI
 10
11494.76554162235
 20
2201.2250168569481
 30
0.0
 40
120.0
  1
側 面 立 面 図
  7
01
 72
     2
 11
12462.76554162235
 21
2201.2250168569481
 31
0.0
  0
TEXT
  5
1CE7D
  8
HIKIDASHI
 10
12733.47345756002
 20
2240.602936436112
 30
0.0
 40
80.0
  1
1
 41
0.6700000000000002
  7
00
  0
TEXT
  5
1CE7E
  8
HIKIDASHI
 10
12766.610595424319
 20
2225.041458687916
 30
0.0
 40
80.0
  1
/
 41
0.6700000000000002
  7
00
  0
TEXT
  5
1CE7F
  8
HIKIDASHI
 10
12934.33220624941
 20
2225.041458687916
 30
0.0
 40
80.0
  1
)
 41
0.6700000000000002
  7
00
  0
TEXT
  5
1CE80
  8
HIKIDASHI
 10
12552.76554162235
 20
2225.041458687916
 30
0.0
 40
80.0
  1
(S=
 41
0.6700000000000002
  7
00
  0
TEXT
  5
1CE81
  8
HIKIDASHI
 10
12812.90575018697
 20
2198.8736274876401
 30
0.0
 40
80.0
  1
40
 41
0.6700000000000002
  7
00
  0
LINE
  5
1CE82
  8
SUNPOU
 10
11013.251970232281
 20
2809.5467985685359
 30
0.0
 11
10909.32892177814
 21
2809.5467985685359
 31
0.0
  0
LINE
  5
1CE83
  8
SUNPOU
 10
10961.29044600522
 20
2719.546798568535
 30
0.0
 11
11013.251970232281
 21
2809.5467985685359
 31
0.0
  0
LINE
  5
1CE84
  8
SUNPOU
 10
10909.32892177814
 20
2809.5467985685359
 30
0.0
 11
10961.29044600522
 21
2719.546798568535
 31
0.0
  0
TEXT
  5
1CE85
  8
SUNPOU
 10
10879.861874576651
 20
2854.5467985685359
 30
0.0
 40
90.0
  1
FL
  7
01
 72
     4
 11
10961.29044600522
 21
2899.5467985685359
 31
0.0
  0
ARC
  5
1CE86
  8
TATEDOISIJIKANAGU
 10
13193.16776227909
 20
4427.5985385378563
 30
0.0
 40
37.486935512444781
 50
233.98684999446789
 51
298.3686129611653
  0
ARC
  5
1CE87
  8
TATEDOISIJIKANAGU
 10
13242.19316009756
 20
4493.4229622133571
 30
0.0
 40
125.8540927673333
 50
233.6306292876705
 51
251.70111844297281
  0
ARC
  5
1CE88
  8
TATEDOISIJIKANAGU
 10
13211.073070121431
 20
4406.7061255357121
 30
0.0
 40
51.530194846411959
 50
200.7635473240997
 51
245.6964523327737
  0
ARC
  5
1CE89
  8
TATEDOISIJIKANAGU
 10
13163.962421477159
 20
4370.0942245943979
 30
0.0
 40
24.694355157952721
 50
152.0466699324954
 51
257.07840840638841
  0
ARC
  5
1CE8A
  8
TATEDOISIJIKANAGU
 10
13153.06044194507
 20
4405.8560226958562
 30
0.0
 40
59.0
 50
285.81804449474248
 51
14.83133728734097
  0
ARC
  5
1CE8B
  8
TATEDOISIJIKANAGU
 10
13153.06044194507
 20
4405.8560226958562
 30
0.0
 40
20.0
 50
285.81804449474248
 51
6.8001082172131788
  0
LINE
  5
1CE8C
  8
TATEDOISIJIKANAGU
 10
13169.342221744469
 20
4413.8694364348676
 30
0.0
 11
13171.44865090659
 21
4407.720212403744
 31
0.0
  0
LINE
  5
1CE8D
  8
TATEDOISIJIKANAGU
 10
13171.44865090659
 20
4407.720212403744
 30
0.0
 11
13212.12813295866
 21
4421.6550514762521
 31
0.0
  0
LINE
  5
1CE8E
  8
TATEDOISIJIKANAGU
 10
13212.12813295866
 20
4421.6550514762521
 30
0.0
 11
13210.02170379653
 21
4427.8042755073757
 31
0.0
  0
LINE
  5
1CE8F
  8
TATEDOISIJIKANAGU
 10
13165.12936342023
 20
4426.1678844971166
 30
0.0
 11
13163.509033295521
 21
4430.8980568287507
 31
0.0
  0
ARC
  5
1CE90
  8
TATEDOISIJIKANAGU
 10
13186.94066608653
 20
4428.839426268125
 30
0.0
 40
24.576894201355628
 50
236.40195729717391
 51
341.41604270295392
  0
ARC
  5
1CE91
  8
TATEDOISIJIKANAGU
 10
13104.674846113619
 20
4350.7853616525254
 30
0.0
 40
19.5
 50
105.81804449474249
 51
285.81804449474248
  0
ARC
  5
1CE92
  8
TATEDOISIJIKANAGU
 10
13123.43642391616
 20
4356.1007354266776
 30
0.0
 40
19.5
 50
105.81804449474249
 51
285.81804449474248
  0
ARC
  5
1CE93
  8
TATEDOISIJIKANAGU
 10
13085.91326831106
 20
4345.4699878783686
 30
0.0
 40
19.5
 50
105.81804449474249
 51
285.81804449474248
  0
ARC
  5
1CE94
  8
TATEDOISIJIKANAGU
 10
13142.198001718711
 20
4361.4161092008353
 30
0.0
 40
19.5
 50
105.81804449474249
 51
285.81804449474248
  0
LINE
  5
1CE95
  8
TATEDOISIJIKANAGU
 10
13020.00641531996
 20
4347.0652930488059
 30
0.0
 11
13142.51231550995
 21
4381.772643139625
 31
0.0
  0
LINE
  5
1CE96
  8
TATEDOISIJIKANAGU
 10
12977.08882827767
 20
4295.6606020105701
 30
0.0
 11
12977.336912821
 21
4295.7043460090554
 31
0.0
  0
ARC
  5
1CE97
  8
TATEDOISIJIKANAGU
 10
13011.2522985824
 20
4392.2421575550597
 30
0.0
 40
94.245569033579997
 50
249.76611340637601
 51
273.83770111369131
  0
LINE
  5
1CE98
  8
TATEDOISIJIKANAGU
 10
13018.77030278544
 20
4300.3029266931026
 30
0.0
 11
13016.08882827767
 21
4295.6606020105701
 31
0.0
  0
ARC
  5
1CE99
  8
TATEDOISIJIKANAGU
 10
12996.75307617695
 20
4331.2998189285436
 30
0.0
 40
40.546579286383761
 50
241.3889810305015
 51
298.4816655995578
  0
LINE
  5
1CE9A
  8
TATEDOISIJIKANAGU
 10
13016.08882827767
 20
4295.6606020105701
 30
0.0
 11
13016.08882827767
 21
4292.1606020105692
 31
0.0
  0
LINE
  5
1CE9B
  8
TATEDOISIJIKANAGU
 10
12977.08882827767
 20
4295.6606020105701
 30
0.0
 11
12977.08882827767
 21
4292.1606020105692
 31
0.0
  0
LINE
  5
1CE9C
  8
TATEDOISIJIKANAGU
 10
12977.08882827767
 20
4286.1606020105692
 30
0.0
 11
12981.8823589776
 21
4285.315373215316
 31
0.0
  0
LINE
  5
1CE9D
  8
TATEDOISIJIKANAGU
 10
12977.08882827767
 20
4283.6606020105692
 30
0.0
 11
12981.8823589776
 21
4284.5058308058242
 31
0.0
  0
LINE
  5
1CE9E
  8
TATEDOISIJIKANAGU
 10
12977.08882827767
 20
4292.1606020105692
 30
0.0
 11
12981.882358978781
 21
4291.3153732151077
 31
0.0
  0
LINE
  5
1CE9F
  8
TATEDOISIJIKANAGU
 10
12977.08882827767
 20
4289.6606020105692
 30
0.0
 11
12981.8823589776
 21
4290.5058308058242
 31
0.0
  0
ARC
  5
1CEA0
  8
TATEDOISIJIKANAGU
 10
12981.58882827767
 20
4284.9106020105692
 30
0.0
 40
0.5000000000000285
 50
305.94875234718882
 51
54.051247652811192
  0
ARC
  5
1CEA1
  8
TATEDOISIJIKANAGU
 10
12981.58882827767
 20
4290.9106020105683
 30
0.0
 40
0.5000000000000285
 50
305.94875234718882
 51
320.11879587224081
  0
LINE
  5
1CEA2
  8
TATEDOISIJIKANAGU
 10
12977.08882827767
 20
4289.6606020105692
 30
0.0
 11
12977.08882827767
 21
4286.1606020105692
 31
0.0
  0
LINE
  5
1CEA3
  8
TATEDOISIJIKANAGU
 10
12977.08882827767
 20
4280.1606020105692
 30
0.0
 11
12977.08882827767
 21
4283.6606020105692
 31
0.0
  0
ARC
  5
1CEA4
  8
TATEDOISIJIKANAGU
 10
12981.58882827767
 20
4290.9106020105683
 30
0.0
 40
0.5000000000000285
 50
305.94875234718882
 51
54.051247652811192
  0
LINE
  5
1CEA5
  8
TATEDOISIJIKANAGU
 10
13016.08882827767
 20
4289.6606020105692
 30
0.0
 11
13016.08882827767
 21
4286.1606020105692
 31
0.0
  0
LINE
  5
1CEA6
  8
TATEDOISIJIKANAGU
 10
13016.08882827767
 20
4286.1606020105692
 30
0.0
 11
13011.29529757771
 21
4285.315373215316
 31
0.0
  0
LINE
  5
1CEA7
  8
TATEDOISIJIKANAGU
 10
13016.08882827767
 20
4283.6606020105692
 30
0.0
 11
13011.29529757771
 21
4284.5058308058242
 31
0.0
  0
LINE
  5
1CEA8
  8
TATEDOISIJIKANAGU
 10
13016.08882827767
 20
4280.1606020105692
 30
0.0
 11
13016.08882827767
 21
4283.6606020105692
 31
0.0
  0
ARC
  5
1CEA9
  8
TATEDOISIJIKANAGU
 10
13011.58882827767
 20
4284.9106020105692
 30
0.0
 40
0.5000000000000285
 50
125.9487523471887
 51
234.05124765281121
  0
LINE
  5
1CEAA
  8
TATEDOISIJIKANAGU
 10
13016.08882827767
 20
4289.6606020105692
 30
0.0
 11
13011.29529757771
 21
4290.5058308058242
 31
0.0
  0
LINE
  5
1CEAB
  8
TATEDOISIJIKANAGU
 10
13016.08882827767
 20
4292.1606020105692
 30
0.0
 11
13011.29529757747
 21
4291.3153732152723
 31
0.0
  0
ARC
  5
1CEAC
  8
TATEDOISIJIKANAGU
 10
13011.58882827767
 20
4290.9106020105683
 30
0.0
 40
0.5000000000000285
 50
211.8394178467783
 51
234.05124765281121
  0
ARC
  5
1CEAD
  8
TATEDOISIJIKANAGU
 10
13011.58882827767
 20
4290.9106020105683
 30
0.0
 40
0.5000000000000285
 50
125.9487523471887
 51
234.05124765281121
  0
ARC
  5
1CEAE
  8
TATEDOISIJIKANAGU
 10
13035.563310770391
 20
4387.2613824206119
 30
0.0
 40
86.573362027127786
 50
233.35385023800799
 51
259.60800823948591
  0
LINE
  5
1CEAF
  8
TATEDOISIJIKANAGU
 10
13016.08882827767
 20
4280.1606020105692
 30
0.0
 11
13012.90429143485
 21
4277.9090033681123
 31
0.0
  0
LINE
  5
1CEB0
  8
TATEDOISIJIKANAGU
 10
13018.58882827767
 20
4273.148371630662
 30
0.0
 11
13012.88932957241
 21
4276.4389787423888
 31
0.0
  0
ARC
  5
1CEB1
  8
TATEDOISIJIKANAGU
 10
13013.620066403861
 20
4277.1666297804122
 30
0.0
 40
1.031238260528154
 50
133.95496272727411
 51
224.87876841269471
  0
ARC
  5
1CEB2
  8
TATEDOISIJIKANAGU
 10
12979.55759015148
 20
4277.1666297804122
 30
0.0
 40
1.031238260528154
 50
315.12123158730532
 51
46.045037272725892
  0
LINE
  5
1CEB3
  8
TATEDOISIJIKANAGU
 10
12977.08882827767
 20
4280.1606020105692
 30
0.0
 11
12980.273365120491
 21
4277.9090033681123
 31
0.0
  0
LINE
  5
1CEB4
  8
TATEDOISIJIKANAGU
 10
12974.58882827767
 20
4273.148371630662
 30
0.0
 11
12980.288326982931
 21
4276.4389787423888
 31
0.0
  0
LINE
  5
1CEB5
  8
TATEDOISIJIKANAGU
 10
12974.58882827767
 20
4273.148371630662
 30
0.0
 11
13018.58882827767
 21
4273.148371630662
 31
0.0
  0
LINE
  5
1CEB6
  8
TATEDOISIJIKANAGU
 10
13012.588450180911
 20
4277.1755231219586
 30
0.0
 11
12980.588790063441
 21
4277.1755231219586
 31
0.0
  0
LINE
  5
1CEB7
  8
TATEDOISIJIKANAGU
 10
13018.588411966701
 20
4273.148371630662
 30
0.0
 11
13018.588411966701
 21
4047.7967985685332
 31
0.0
  0
LINE
  5
1CEB8
  8
TATEDOISIJIKANAGU
 10
13018.588411966701
 20
4035.2967985685332
 30
0.0
 11
13018.588411966701
 21
3049.796798568535
 31
0.0
  0
LINE
  5
1CEB9
  8
TATEDOISIJIKANAGU
 10
13018.588411966701
 20
3037.2967985685332
 30
0.0
 11
13018.588411966701
 21
2871.6282470304718
 31
0.0
  0
LINE
  5
1CEBA
  8
TATEDOISIJIKANAGU
 10
12974.58882827767
 20
4273.148371630662
 30
0.0
 11
12974.58882827767
 21
4047.7967985685332
 31
0.0
  0
LINE
  5
1CEBB
  8
TATEDOISIJIKANAGU
 10
12974.58882827767
 20
4035.2967985685332
 30
0.0
 11
12974.58882827768
 21
3049.796798568535
 31
0.0
  0
LINE
  5
1CEBC
  8
TATEDOISIJIKANAGU
 10
12974.58882827768
 20
3037.2967985685332
 30
0.0
 11
12974.58882827768
 21
2871.6282470304718
 31
0.0
  0
ARC
  5
1CEBD
  8
TATEDOISIJIKANAGU
 10
13036.08882827767
 20
4290.2994935436618
 30
0.0
 40
20.0
 50
105.81804449474249
 51
146.89768707776321
  0
ARC
  5
1CEBE
  8
TATEDOISIJIKANAGU
 10
13079.50039653653
 20
4344.4808216681267
 30
0.0
 40
27.040289790158841
 50
152.0535121616571
 51
244.46007470091851
  0
ARC
  5
1CEBF
  8
TATEDOISIJIKANAGU
 10
13082.55210247389
 20
4346.7961733788443
 30
0.0
 40
43.6732808751661
 50
172.4708031053402
 51
225.5994203506807
  0
ARC
  5
1CEC0
  8
TATEDOISIJIKANAGU
 10
13088.89570027327
 20
4350.4372777412091
 30
0.0
 40
60.095389431160747
 50
180.8378434868761
 51
218.8026014089092
  0
ARC
  5
1CEC1
  8
TATEDOISIJIKANAGU
 10
13046.57914316246
 20
4339.1373860360809
 30
0.0
 40
31.45567389646946
 50
167.94361809630681
 51
245.91045626234381
  0
ARC
  5
1CEC2
  8
TATEDOISIJIKANAGU
 10
13123.136187791
 20
4427.7483812909268
 30
0.0
 40
157.1885788544904
 50
216.48702539475249
 51
230.7606818470027
  0
ARC
  5
1CEC3
  8
TATEDOISIJIKANAGU
 10
13036.08882827767
 20
4290.2994935436618
 30
0.0
 40
59.0
 50
105.81804449474249
 51
171.65294263599509
  0
LINE
  5
1CEC4
  8
TATEDOISIJIKANAGU
 10
13030.63716286827
 20
4309.542137443711
 30
0.0
 11
13153.14306305826
 21
4344.2494875345319
 31
0.0
  0
LINE
  5
1CEC5
  8
TATEDOISIJIKANAGU
 10
13068.620024188311
 20
2809.5205927851239
 30
0.0
 11
13051.51901702201
 21
2762.5359617458289
 31
0.0
  0
LINE
  5
1CEC6
  8
TATEDOISIJIKANAGU
 10
12974.58882827767
 20
2871.6282470304718
 30
0.0
 11
13018.588411966701
 21
2871.6282470304718
 31
0.0
  0
LINE
  5
1CEC7
  8
TATEDOISIJIKANAGU
 10
12971.58862012218
 20
2871.6282470304718
 30
0.0
 11
13021.588620122169
 21
2871.6282470304718
 31
0.0
  0
LINE
  5
1CEC8
  8
TATEDOISIJIKANAGU
 10
12971.58862012218
 20
2871.6282470304718
 30
0.0
 11
12971.58862012218
 21
2833.6406993230439
 31
0.0
  0
LINE
  5
1CEC9
  8
TATEDOISIJIKANAGU
 10
13021.588620122169
 20
2871.6282470304718
 30
0.0
 11
13021.588620122169
 21
2833.6406993230439
 31
0.0
  0
ARC
  5
1CECA
  8
TATEDOISIJIKANAGU
 10
13031.58862012218
 20
2833.6406993230439
 30
0.0
 40
60.0
 50
180.0
 51
250.00000000002871
  0
ARC
  5
1CECB
  8
TATEDOISIJIKANAGU
 10
13031.58862012218
 20
2833.6406993230439
 30
0.0
 40
10.0
 50
180.0
 51
250.00000000002871
  0
LINE
  5
1CECC
  8
TATEDOISIJIKANAGU
 10
13028.16841868892
 20
2824.2437731151881
 30
0.0
 11
13068.620024188311
 21
2809.5205927851239
 31
0.0
  0
LINE
  5
1CECD
  8
TATEDOISIJIKANAGU
 10
13011.067411522619
 20
2777.2591420758931
 30
0.0
 11
13051.51901702201
 21
2762.5359617458289
 31
0.0
  0
LINE
  5
1CECE
  8
TATEDOISIJIKANAGU
 10
13142.51231550995
 20
4381.772643139625
 30
0.0
 11
13158.51210735446
 21
4386.6133787958061
 31
0.0
  0
LINE
  5
1CECF
  8
TATEDOISIJIKANAGU
 10
13153.14306305826
 20
4344.2494875345319
 30
0.0
 11
13169.14285490275
 21
4349.0902231907075
 31
0.0
  0
ARC
  5
1CED0
  8
TATEDOISIJIKANAGU
 10
13199.54193199853
 20
4380.9362958907923
 30
0.0
 40
43.466889548874903
 50
173.35744435499171
 51
226.76145292773651
  0
LINE
  5
1CED1
  8
TATEDOISIJIKANAGU
 10
12961.188620122181
 20
4079.7967985685332
 30
0.0
 11
12961.188620122181
 21
4053.8967985685358
 31
0.0
  0
LINE
  5
1CED2
  8
TATEDOISIJIKANAGU
 10
12962.688620122181
 20
4052.3967985685358
 30
0.0
 11
12968.88882827767
 21
4052.3967985685358
 31
0.0
  0
ARC
  5
1CED3
  8
TATEDOISIJIKANAGU
 10
12962.688620122181
 20
4053.8967985685358
 30
0.0
 40
1.5
 50
180.0
 51
270.0
  0
ARC
  5
1CED4
  8
TATEDOISIJIKANAGU
 10
12962.688620122181
 20
4053.8967985685358
 30
0.0
 40
4.099999999999997
 50
180.0
 51
270.0
  0
LINE
  5
1CED5
  8
TATEDOISIJIKANAGU
 10
12972.98882827767
 20
4048.296798568535
 30
0.0
 11
12972.98882827767
 21
4033.2967985685341
 31
0.0
  0
LINE
  5
1CED6
  8
TATEDOISIJIKANAGU
 10
12972.98882827767
 20
4033.2967985685341
 30
0.0
 11
12970.38882827767
 21
4033.2967985685341
 31
0.0
  0
LINE
  5
1CED7
  8
TATEDOISIJIKANAGU
 10
12970.38882827767
 20
4033.2967985685341
 30
0.0
 11
12970.38882827767
 21
4048.296798568535
 31
0.0
  0
LINE
  5
1CED8
  8
TATEDOISIJIKANAGU
 10
12968.88882827767
 20
4049.796798568535
 30
0.0
 11
12962.688620122181
 21
4049.796798568535
 31
0.0
  0
ARC
  5
1CED9
  8
TATEDOISIJIKANAGU
 10
12968.88882827767
 20
4048.296798568535
 30
0.0
 40
1.5
 50
0.0
 51
90.0
  0
ARC
  5
1CEDA
  8
TATEDOISIJIKANAGU
 10
12968.88882827767
 20
4048.296798568535
 30
0.0
 40
4.099999999999997
 50
0.0
 51
90.0
  0
LINE
  5
1CEDB
  8
TATEDOISIJIKANAGU
 10
12958.58862012218
 20
4053.8967985685358
 30
0.0
 11
12958.58862012218
 21
4079.7967985685332
 31
0.0
  0
LINE
  5
1CEDC
  8
TATEDOISIJIKANAGU
 10
12958.58862012218
 20
4079.7967985685332
 30
0.0
 11
12961.188620122181
 21
4079.7967985685332
 31
0.0
  0
LINE
  5
1CEDD
  8
TATEDOISIJIKANAGU
  6
1PL-S
 62
     6
 10
12951.97862012217
 20
4064.796798568535
 30
0.0
 11
12967.79862012217
 21
4064.796798568535
 31
0.0
  0
LINE
  5
1CEDE
  8
TATEDOISIJIKANAGU
 10
12996.58862012218
 20
4047.7967985685332
 30
0.0
 11
12996.58862012218
 21
4035.2967985685332
 31
0.0
  0
ARC
  5
1CEDF
  8
TATEDOISIJIKANAGU
 10
13001.29158021757
 20
4041.546798568535
 30
0.0
 40
12.840388328775591
 50
150.8731100751736
 51
209.1268899248262
  0
LINE
  5
1CEE0
  8
TATEDOISIJIKANAGU
 10
12961.188620122181
 20
3081.796798568535
 30
0.0
 11
12961.188620122181
 21
3055.8967985685358
 31
0.0
  0
LINE
  5
1CEE1
  8
TATEDOISIJIKANAGU
 10
12962.688620122181
 20
3054.3967985685358
 30
0.0
 11
12968.88882827767
 21
3054.3967985685358
 31
0.0
  0
ARC
  5
1CEE2
  8
TATEDOISIJIKANAGU
 10
12962.688620122181
 20
3055.8967985685358
 30
0.0
 40
1.5
 50
180.0
 51
270.0
  0
ARC
  5
1CEE3
  8
TATEDOISIJIKANAGU
 10
12962.688620122181
 20
3055.8967985685358
 30
0.0
 40
4.099999999999997
 50
180.0
 51
270.0
  0
LINE
  5
1CEE4
  8
TATEDOISIJIKANAGU
 10
12972.98882827767
 20
3050.2967985685341
 30
0.0
 11
12972.98882827767
 21
3035.296798568535
 31
0.0
  0
LINE
  5
1CEE5
  8
TATEDOISIJIKANAGU
 10
12972.98882827767
 20
3035.296798568535
 30
0.0
 11
12970.38882827767
 21
3035.296798568535
 31
0.0
  0
LINE
  5
1CEE6
  8
TATEDOISIJIKANAGU
 10
12970.38882827767
 20
3035.296798568535
 30
0.0
 11
12970.38882827767
 21
3050.2967985685341
 31
0.0
  0
LINE
  5
1CEE7
  8
TATEDOISIJIKANAGU
 10
12968.88882827767
 20
3051.7967985685341
 30
0.0
 11
12962.688620122181
 21
3051.7967985685341
 31
0.0
  0
ARC
  5
1CEE8
  8
TATEDOISIJIKANAGU
 10
12968.88882827767
 20
3050.2967985685341
 30
0.0
 40
1.5
 50
0.0
 51
90.0
  0
ARC
  5
1CEE9
  8
TATEDOISIJIKANAGU
 10
12968.88882827767
 20
3050.2967985685341
 30
0.0
 40
4.099999999999997
 50
0.0
 51
90.0
  0
LINE
  5
1CEEA
  8
TATEDOISIJIKANAGU
 10
12958.58862012218
 20
3055.8967985685358
 30
0.0
 11
12958.58862012218
 21
3081.796798568535
 31
0.0
  0
LINE
  5
1CEEB
  8
TATEDOISIJIKANAGU
 10
12958.58862012218
 20
3081.796798568535
 30
0.0
 11
12961.188620122181
 21
3081.796798568535
 31
0.0
  0
LINE
  5
1CEEC
  8
TATEDOISIJIKANAGU
  6
1PL-S
 62
     6
 10
12951.97862012217
 20
3066.7967985685341
 30
0.0
 11
12967.79862012217
 21
3066.7967985685341
 31
0.0
  0
LINE
  5
1CEED
  8
TATEDOISIJIKANAGU
 10
12996.58862012218
 20
3049.796798568535
 30
0.0
 11
12996.58862012218
 21
3037.2967985685332
 31
0.0
  0
ARC
  5
1CEEE
  8
TATEDOISIJIKANAGU
 10
13001.29158021757
 20
3043.5467985685341
 30
0.0
 40
12.840388328775591
 50
150.8731100751736
 51
209.1268899248262
  0
LINE
  5
1CEEF
  8
GAKU_BUCHI
 10
12893.58862012218
 20
3663.546798568535
 30
0.0
 11
12893.58862012218
 21
2881.546798568535
 31
0.0
  0
LINE
  5
1CEF0
  8
DOU_BUCHI
 10
11523.58862012218
 20
3626.546798568535
 30
0.0
 11
12893.58862012218
 21
3626.546798568535
 31
0.0
  0
LINE
  5
1CEF1
  8
DOU_BUCHI
 10
11523.58862012218
 20
2918.5467985685341
 30
0.0
 11
12893.58862012218
 21
2918.5467985685341
 31
0.0
  0
LINE
  5
1CEF2
  8
U1
 10
11523.58862012218
 20
3167.3467985685352
 30
0.0
 11
12893.58862012218
 21
3167.3467985685329
 31
0.0
  0
LINE
  5
1CEF3
  8
U1
 10
11523.58862012218
 20
3175.7467985685321
 30
0.0
 11
12893.58862012218
 21
3175.7467985685321
 31
0.0
  0
LINE
  5
1CEF4
  8
U1
 10
11523.58862012218
 20
3367.3467985685329
 30
0.0
 11
12893.58862012218
 21
3367.3467985685329
 31
0.0
  0
LINE
  5
1CEF5
  8
U1
 10
11523.58862012218
 20
3375.7467985685321
 30
0.0
 11
12893.58862012218
 21
3375.7467985685321
 31
0.0
  0
LINE
  5
1CEF6
  8
DOU_BUCHI
 10
11523.58862012218
 20
2881.546798568535
 30
0.0
 11
12893.58862012218
 21
2881.546798568535
 31
0.0
  0
LINE
  5
1CEF7
  8
DOU_BUCHI
 10
11523.58862012218
 20
3663.546798568535
 30
0.0
 11
12893.58862012218
 21
3663.546798568535
 31
0.0
  0
LINE
  5
1CEF8
  8
GAKU_BUCHI
 10
11523.58862012218
 20
3663.546798568535
 30
0.0
 11
11523.58862012218
 21
2881.546798568535
 31
0.0
  0
TEXT
  5
1CEF9
  8
HIKIDASHI
 10
4887.8460672583469
 20
9312.6929561227498
 30
0.0
 40
90.0
  1
母屋金具
  7
02
  0
LINE
  5
1CEFA
  8
HIKIDASHI
 10
4857.8460672583487
 20
9267.6929561227516
 30
0.0
 11
5311.1913995402638
 21
9267.6929561227516
 31
0.0
  0
LINE
  5
1CEFB
  8
HIKIDASHI
 10
4986.7922875560098
 20
8717.8076453950325
 30
0.0
 11
5448.6163956743057
 21
8717.8076453950325
 31
0.0
  0
TEXT
  5
1CEFC
  8
HIKIDASHI
 10
5016.7922875560098
 20
8762.8076453950325
 30
0.0
 40
90.0
  1
屋根受け
  7
02
  0
TEXT
  5
1CEFD
  8
SUNPOU
 10
6450.3738593810203
 20
7816.757813420958
 30
0.0
 40
90.0
  1
屋根ピッチ
 41
0.7
  7
01
 72
     4
 11
6628.8738593810212
 21
7861.7578134209571
 31
0.0
  0
TEXT
  5
1CEFE
  8
SUNPOU
 10
6143.1595736667332
 20
7666.7578134209562
 30
0.0
 40
90.0
  1
400
 41
0.6666666666666666
  7
00
 72
     1
 11
6228.8738593810176
 21
7711.7578134209562
 31
0.0
 73
     2
  0
LINE
  5
1CEFF
  8
SUNPOU
 10
6413.8738593810194
 20
7621.7578134209571
 30
0.0
 11
6043.8738593810212
 21
7621.7578134209571
 31
0.0
  0
LINE
  5
1CF00
  8
SUNPOU
 10
6028.8738593810222
 20
8101.757813420958
 30
0.0
 11
6028.8738593810176
 21
7576.7578134209571
 31
0.0
  0
LINE
  5
1CF01
  8
SUNPOU
 10
6428.8738593810194
 20
8101.757813420958
 30
0.0
 11
6428.8738593810194
 21
7576.7578134209571
 31
0.0
  0
TEXT
  5
1CF02
  8
SUNPOU
 10
6543.1595736667341
 20
7666.7578134209562
 30
0.0
 40
90.0
  1
400
 41
0.6666666666666666
  7
00
 72
     1
 11
6628.8738593810212
 21
7711.7578134209562
 31
0.0
 73
     2
  0
LINE
  5
1CF03
  8
SUNPOU
 10
6813.8738593810176
 20
7621.7578134209571
 30
0.0
 11
6443.8738593810203
 21
7621.7578134209571
 31
0.0
  0
LINE
  5
1CF04
  8
SUNPOU
 10
6828.8738593810194
 20
8101.757813420958
 30
0.0
 11
6828.8738593810194
 21
7576.7578134209571
 31
0.0
  0
TEXT
  5
1CF05
  8
SUNPOU
 10
6943.1595736667332
 20
7666.7578134209562
 30
0.0
 40
90.0
  1
400
 41
0.6666666666666666
  7
00
 72
     1
 11
7028.8738593810176
 21
7711.7578134209562
 31
0.0
 73
     2
  0
LINE
  5
1CF06
  8
SUNPOU
 10
7213.873859381014
 20
7621.7578134209571
 30
0.0
 11
6843.8738593810194
 21
7621.7578134209571
 31
0.0
  0
LINE
  5
1CF07
  8
SUNPOU
 10
7228.873859381014
 20
8101.757813420958
 30
0.0
 11
7228.873859381014
 21
7576.7578134209571
 31
0.0
  0
LINE
  5
1CF08
  8
DOU_BUCHI
 10
4661.3738593810176
 20
10222.15781342095
 30
0.0
 11
5475.7507976909719
 21
10222.15781342095
 31
0.0
  0
LINE
  5
1CF09
  8
DOU_BUCHI
 10
4661.3738593810176
 20
10272.15781342095
 30
0.0
 11
5451.0077001236823
 21
10272.15781342095
 31
0.0
  0
LINE
  5
1CF0A
  8
HARI
 10
4596.3738593810149
 20
10169.059250591121
 30
0.0
 11
4596.3738593810149
 21
10283.357843081871
 31
0.0
  0
LINE
  5
1CF0B
  8
HARI
 10
4661.3738593810176
 20
10169.059250591121
 30
0.0
 11
4661.3738593810176
 21
10283.357843081871
 31
0.0
  0
LINE
  5
1CF0C
  8
HARI
 10
4596.3738593810149
 20
9580.5592505911154
 30
0.0
 11
4596.3738593810176
 21
10098.458815591121
 31
0.0
  0
LINE
  5
1CF0D
  8
HARI
 10
4661.3738593810167
 20
9580.5592505911154
 30
0.0
 11
4661.3738593810176
 21
10098.458815591121
 31
0.0
  0
LINE
  5
1CF0E
  8
HARI
 10
4596.3738593810149
 20
8992.0592505911136
 30
0.0
 11
4596.3738593810176
 21
9509.958815591126
 31
0.0
  0
LINE
  5
1CF0F
  8
HARI
 10
4661.3738593810158
 20
8992.0592505911136
 30
0.0
 11
4661.3738593810176
 21
9509.958815591126
 31
0.0
  0
LINE
  5
1CF10
  8
HARI
 10
4596.3738593810176
 20
8403.5592505911172
 30
0.0
 11
4596.3738593810149
 21
8921.4588155911279
 31
0.0
  0
LINE
  5
1CF11
  8
HARI
 10
4661.3738593810158
 20
8403.5592505911172
 30
0.0
 11
4661.3738593810194
 21
8921.4588155911279
 31
0.0
  0
LINE
  5
1CF12
  8
U1
 10
4596.3738593810203
 20
8283.3578430818816
 30
0.0
 11
4661.3738593810176
 21
8283.3578430818816
 31
0.0
  0
ARC
  5
1CF13
  8
U1
 10
4628.8738593810194
 20
8294.3578430818816
 30
0.0
 40
36.0
 50
205.47436945125779
 51
334.52563054874201
  0
LINE
  5
1CF14
  8
U1
 10
4596.3738593810203
 20
8278.8739805146779
 30
0.0
 11
4596.3738593810203
 21
8283.3578430818816
 31
0.0
  0
LINE
  5
1CF15
  8
U1
 10
4661.3738593810176
 20
8283.3578430818816
 30
0.0
 11
4661.3738593810176
 21
8278.8739805146761
 31
0.0
  0
LINE
  5
1CF16
  8
HARI
 10
4596.3738593810149
 20
8283.3578430818816
 30
0.0
 11
4596.3738593810176
 21
8332.9588155911279
 31
0.0
  0
LINE
  5
1CF17
  8
HARI
 10
4661.3738593810158
 20
8283.3578430818816
 30
0.0
 11
4661.3738593810167
 21
8332.9588155911279
 31
0.0
  0
LINE
  5
1CF18
  8
2PL-L2
 10
4392.8738593810149
 20
10540.75781342096
 30
0.0
 11
5318.0877799921909
 21
10540.757813420951
 31
0.0
  0
LINE
  5
1CF19
  8
2PL-L2
 10
4392.8738593810149
 20
8131.7578134209571
 30
0.0
 11
4392.8738593810149
 21
10540.75781342096
 31
0.0
  0
LINE
  5
1CF1A
  8
1PL-L1
 10
4628.8738593810194
 20
7621.6677514306848
 30
0.0
 11
4628.8738593810194
 21
10371.03745339208
 31
0.0
  0
LINE
  5
1CF1B
  8
TOI
 10
7664.8738593810194
 20
10519.26760135404
 30
0.0
 11
7664.8738593810194
 21
10540.75781342096
 31
0.0
  0
CIRCLE
  5
1CF1C
  8
TOI
 10
6028.8738593810176
 20
10522.62260972693
 30
0.0
 40
2.5
  0
CIRCLE
  5
1CF1D
  8
TOI
 10
5628.8738593810203
 20
10522.62260972693
 30
0.0
 40
2.5
  0
CIRCLE
  5
1CF1E
  8
YANE
 10
6028.8738593810176
 20
10136.75781342096
 30
0.0
 40
2.5
  0
CIRCLE
  5
1CF1F
  8
TOI
 10
7228.873859381014
 20
10522.62260972693
 30
0.0
 40
2.5
  0
CIRCLE
  5
1CF20
  8
TOI
 10
6828.8738593810194
 20
10522.62260972693
 30
0.0
 40
2.5
  0
CIRCLE
  5
1CF21
  8
TOI
 10
6428.8738593810194
 20
10522.62260972693
 30
0.0
 40
2.5
  0
CIRCLE
  5
1CF22
  8
YANE
 10
7228.873859381014
 20
10136.75781342096
 30
0.0
 40
2.5
  0
CIRCLE
  5
1CF23
  8
YANE
 10
6828.8738593810194
 20
10136.75781342096
 30
0.0
 40
2.5
  0
CIRCLE
  5
1CF24
  8
YANE
 10
6428.8738593810194
 20
10136.75781342096
 30
0.0
 40
2.5
  0
CIRCLE
  5
1CF25
  8
YANE
 10
7228.873859381014
 20
9546.757813420958
 30
0.0
 40
2.5
  0
CIRCLE
  5
1CF26
  8
YANE
 10
6828.8738593810194
 20
9546.757813420958
 30
0.0
 40
2.5
  0
CIRCLE
  5
1CF27
  8
YANE
 10
6428.8738593810194
 20
9546.757813420958
 30
0.0
 40
2.5
  0
CIRCLE
  5
1CF28
  8
YANE
 10
7228.873859381014
 20
8956.7578134209543
 30
0.0
 40
2.5
  0
CIRCLE
  5
1CF29
  8
YANE
 10
6828.8738593810194
 20
8956.7578134209543
 30
0.0
 40
2.5
  0
CIRCLE
  5
1CF2A
  8
YANE
 10
6428.8738593810194
 20
8956.7578134209543
 30
0.0
 40
2.5
  0
CIRCLE
  5
1CF2B
  8
YANE
 10
7228.873859381014
 20
8366.757813420958
 30
0.0
 40
2.5
  0
CIRCLE
  5
1CF2C
  8
YANE
 10
6828.8738593810194
 20
8366.757813420958
 30
0.0
 40
2.5
  0
CIRCLE
  5
1CF2D
  8
KERABA
 10
6828.873859381014
 20
8192.7578134209598
 30
0.0
 40
2.5
  0
CIRCLE
  5
1CF2E
  8
KERABA
 10
7228.873859381014
 20
8192.7578134209598
 30
0.0
 40
2.5
  0
LINE
  5
1CF2F
  8
YANE
 10
6798.5657497121811
 20
8222.757813420958
 30
0.0
 11
6798.5657497121811
 21
10503.26760135404
 31
0.0
  0
LINE
  5
1CF30
  8
YANE
 10
6815.2157497121862
 20
8222.757813420958
 30
0.0
 11
6815.2157497121862
 21
10519.26760135404
 31
0.0
  0
LINE
  5
1CF31
  8
YANE
 10
6842.5319690498518
 20
8222.757813420958
 30
0.0
 11
6842.5319690498518
 21
10519.26760135404
 31
0.0
  0
LINE
  5
1CF32
  8
YANE
 10
6859.1819690498514
 20
8222.757813420958
 30
0.0
 11
6859.1819690498542
 21
10503.26760135404
 31
0.0
  0
LINE
  5
1CF33
  8
YANE
 10
6665.4657497121798
 20
8222.757813420958
 30
0.0
 11
6665.4657497121798
 21
10503.26760135404
 31
0.0
  0
LINE
  5
1CF34
  8
YANE
 10
6682.1157497121867
 20
8222.757813420958
 30
0.0
 11
6682.1157497121867
 21
10519.26760135404
 31
0.0
  0
LINE
  5
1CF35
  8
YANE
 10
6709.431969049856
 20
8222.757813420958
 30
0.0
 11
6709.4319690498523
 21
10519.26760135404
 31
0.0
  0
LINE
  5
1CF36
  8
YANE
 10
6726.0819690498502
 20
8222.757813420958
 30
0.0
 11
6726.0819690498538
 21
10503.26760135404
 31
0.0
  0
LINE
  5
1CF37
  8
YANE
 10
6532.1657497121842
 20
8222.757813420958
 30
0.0
 11
6532.1657497121823
 21
10503.26760135404
 31
0.0
  0
LINE
  5
1CF38
  8
YANE
 10
6548.8157497121856
 20
8222.757813420958
 30
0.0
 11
6548.8157497121856
 21
10519.26760135404
 31
0.0
  0
LINE
  5
1CF39
  8
YANE
 10
6576.1319690498576
 20
8222.757813420958
 30
0.0
 11
6576.1319690498576
 21
10519.26760135404
 31
0.0
  0
LINE
  5
1CF3A
  8
YANE
 10
6592.7819690498582
 20
8222.757813420958
 30
0.0
 11
6592.7819690498582
 21
10503.26760135404
 31
0.0
  0
LINE
  5
1CF3B
  8
YANE
 10
6398.865749712184
 20
8356.7588885071782
 30
0.0
 11
6398.865749712184
 21
10503.26760135404
 31
0.0
  0
LINE
  5
1CF3C
  8
YANE
 10
6415.5157497121882
 20
8323.1131415372911
 30
0.0
 11
6415.5157497121882
 21
10519.26760135404
 31
0.0
  0
LINE
  5
1CF3D
  8
YANE
 10
6442.8319690498538
 20
8267.9134656208553
 30
0.0
 11
6442.8319690498538
 21
10519.26760135404
 31
0.0
  0
LINE
  5
1CF3E
  8
YANE
 10
6459.4819690498598
 20
8234.2677186509682
 30
0.0
 11
6459.4819690498598
 21
10503.26760135404
 31
0.0
  0
LINE
  5
1CF3F
  8
YANE
 10
6265.5657497121847
 20
8626.1269408245553
 30
0.0
 11
6265.5657497121874
 21
10503.26760135404
 31
0.0
  0
LINE
  5
1CF40
  8
YANE
 10
6282.2157497121862
 20
8592.4811938546809
 30
0.0
 11
6282.2157497121871
 21
10519.26760135404
 31
0.0
  0
LINE
  5
1CF41
  8
YANE
 10
6309.5319690498527
 20
8537.2815179382342
 30
0.0
 11
6309.5319690498527
 21
10519.26760135404
 31
0.0
  0
LINE
  5
1CF42
  8
YANE
 10
6326.181969049856
 20
8503.6357709683543
 30
0.0
 11
6326.181969049856
 21
10503.26760135404
 31
0.0
  0
LINE
  5
1CF43
  8
YANE
 10
6132.26574971218
 20
8895.494993141936
 30
0.0
 11
6132.2657497121818
 21
10503.26760135404
 31
0.0
  0
LINE
  5
1CF44
  8
YANE
 10
6148.9157497121878
 20
8861.8492461720616
 30
0.0
 11
6148.9157497121878
 21
10519.26760135404
 31
0.0
  0
LINE
  5
1CF45
  8
YANE
 10
6176.2319690498543
 20
8806.6495702556167
 30
0.0
 11
6176.2319690498543
 21
10519.26760135404
 31
0.0
  0
LINE
  5
1CF46
  8
YANE
 10
6192.8819690498531
 20
8773.0038232857387
 30
0.0
 11
6192.8819690498531
 21
10503.26760135404
 31
0.0
  0
LINE
  5
1CF47
  8
YANE
 10
5998.9657497121834
 20
9164.8630454593258
 30
0.0
 11
5998.9657497121834
 21
10503.26760135404
 31
0.0
  0
LINE
  5
1CF48
  8
YANE
 10
6015.6157497121858
 20
9131.2172984894387
 30
0.0
 11
6015.6157497121858
 21
10519.26760135404
 31
0.0
  0
LINE
  5
1CF49
  8
YANE
 10
6042.9319690498587
 20
9076.017622572992
 30
0.0
 11
6042.931969049856
 21
10519.26760135404
 31
0.0
  0
LINE
  5
1CF4A
  8
YANE
 10
6059.5819690498556
 20
9042.3718756031194
 30
0.0
 11
6059.5819690498556
 21
10503.26760135404
 31
0.0
  0
LINE
  5
1CF4B
  8
YANE
 10
5865.665749712186
 20
9434.2310977766938
 30
0.0
 11
5865.665749712186
 21
10503.26760135404
 31
0.0
  0
LINE
  5
1CF4C
  8
YANE
 10
5882.3157497121874
 20
9400.5853508068139
 30
0.0
 11
5882.3157497121874
 21
10519.26760135404
 31
0.0
  0
LINE
  5
1CF4D
  8
YANE
 10
5909.6319690498594
 20
9345.3856748903727
 30
0.0
 11
5909.6319690498558
 21
10519.26760135404
 31
0.0
  0
LINE
  5
1CF4E
  8
YANE
 10
5926.2819690498582
 20
9311.7399279204928
 30
0.0
 11
5926.2819690498582
 21
10503.26760135404
 31
0.0
  0
LINE
  5
1CF4F
  8
YANE
 10
5732.3657497121876
 20
9703.5991500940781
 30
0.0
 11
5732.3657497121876
 21
10503.26760135404
 31
0.0
  0
LINE
  5
1CF50
  8
YANE
 10
5749.0157497121872
 20
9669.9534031242038
 30
0.0
 11
5749.0157497121872
 21
10519.26760135404
 31
0.0
  0
LINE
  5
1CF51
  8
YANE
 10
5776.3319690498538
 20
9614.7537272077625
 30
0.0
 11
5776.331969049852
 21
10519.26760135404
 31
0.0
  0
LINE
  5
1CF52
  8
YANE
 10
5792.981969049858
 20
9581.1079802378754
 30
0.0
 11
5792.981969049858
 21
10503.26760135404
 31
0.0
  0
LINE
  5
1CF53
  8
YANE
 10
5599.0657497121856
 20
9972.9672024114589
 30
0.0
 11
5599.0657497121856
 21
10503.26760135404
 31
0.0
  0
LINE
  5
1CF54
  8
YANE
 10
5615.7157497121871
 20
9939.3214554415717
 30
0.0
 11
5615.7157497121898
 21
10519.26760135404
 31
0.0
  0
LINE
  5
1CF55
  8
YANE
 10
5643.0319690498582
 20
9884.121779525125
 30
0.0
 11
5643.0319690498582
 21
10519.26760135404
 31
0.0
  0
LINE
  5
1CF56
  8
YANE
 10
5659.6819690498587
 20
9850.4760325552506
 30
0.0
 11
5659.6819690498587
 21
10503.26760135404
 31
0.0
  0
LINE
  5
1CF57
  8
YANE
 10
5465.7657497121836
 20
10242.33525472884
 30
0.0
 11
5465.7657497121836
 21
10503.26760135404
 31
0.0
  0
LINE
  5
1CF58
  8
YANE
 10
5482.4157497121923
 20
10208.689507758951
 30
0.0
 11
5482.4157497121878
 21
10519.26760135404
 31
0.0
  0
LINE
  5
1CF59
  8
YANE
 10
5509.7319690498543
 20
10153.489831842509
 30
0.0
 11
5509.7319690498543
 21
10519.26760135404
 31
0.0
  0
LINE
  5
1CF5A
  8
YANE
 10
5526.3819690498576
 20
10119.84408487264
 30
0.0
 11
5526.3819690498567
 21
10503.26760135404
 31
0.0
  0
LINE
  5
1CF5B
  8
YANE
 10
5393.0819690498593
 20
10389.21213719001
 30
0.0
 11
5393.0819690498593
 21
10503.26760135404
 31
0.0
  0
LINE
  5
1CF5C
  8
YANE
 10
5376.4319690498569
 20
10422.857884159879
 30
0.0
 11
5376.4319690498578
 21
10519.26760135404
 31
0.0
  0
LINE
  5
1CF5D
  8
YANE
 10
5349.1157497121903
 20
10478.05756007633
 30
0.0
 11
5349.1157497121903
 21
10519.26760135404
 31
0.0
  0
LINE
  5
1CF5E
  8
YANE
 10
5349.1157497121903
 20
10519.26760135404
 30
0.0
 11
5335.2948842976693
 21
10505.986289244
 31
0.0
  0
LINE
  5
1CF5F
  8
YANE
 10
5376.4319690498578
 20
10519.26760135404
 30
0.0
 11
5349.1157497121903
 21
10519.26760135404
 31
0.0
  0
LINE
  5
1CF60
  8
YANE
 10
5393.0819690498593
 20
10503.26760135404
 30
0.0
 11
5376.4319690498578
 21
10519.26760135404
 31
0.0
  0
LINE
  5
1CF61
  8
YANE
 10
5465.7657497121872
 20
10503.26760135404
 30
0.0
 11
5393.0819690498593
 21
10503.26760135404
 31
0.0
  0
LINE
  5
1CF62
  8
YANE
 10
5482.4157497121878
 20
10519.26760135404
 30
0.0
 11
5465.7657497121872
 21
10503.26760135404
 31
0.0
  0
LINE
  5
1CF63
  8
YANE
 10
5509.7319690498543
 20
10519.26760135404
 30
0.0
 11
5482.4157497121878
 21
10519.26760135404
 31
0.0
  0
LINE
  5
1CF64
  8
YANE
 10
5526.3819690498567
 20
10503.26760135404
 30
0.0
 11
5509.7319690498543
 21
10519.26760135404
 31
0.0
  0
LINE
  5
1CF65
  8
YANE
 10
5599.0657497121856
 20
10503.26760135404
 30
0.0
 11
5526.3819690498567
 21
10503.26760135404
 31
0.0
  0
LINE
  5
1CF66
  8
YANE
 10
5615.7157497121898
 20
10519.26760135404
 30
0.0
 11
5599.0657497121856
 21
10503.26760135404
 31
0.0
  0
LINE
  5
1CF67
  8
YANE
 10
5643.0319690498582
 20
10519.26760135404
 30
0.0
 11
5615.7157497121898
 21
10519.26760135404
 31
0.0
  0
LINE
  5
1CF68
  8
YANE
 10
5659.6819690498587
 20
10503.26760135404
 30
0.0
 11
5643.0319690498582
 21
10519.26760135404
 31
0.0
  0
LINE
  5
1CF69
  8
YANE
 10
5732.3657497121876
 20
10503.26760135404
 30
0.0
 11
5659.6819690498587
 21
10503.26760135404
 31
0.0
  0
LINE
  5
1CF6A
  8
YANE
 10
5749.0157497121872
 20
10519.26760135404
 30
0.0
 11
5732.3657497121876
 21
10503.26760135404
 31
0.0
  0
LINE
  5
1CF6B
  8
YANE
 10
5776.331969049852
 20
10519.26760135404
 30
0.0
 11
5749.0157497121872
 21
10519.26760135404
 31
0.0
  0
LINE
  5
1CF6C
  8
YANE
 10
5792.981969049858
 20
10503.26760135404
 30
0.0
 11
5776.331969049852
 21
10519.26760135404
 31
0.0
  0
LINE
  5
1CF6D
  8
YANE
 10
5865.665749712186
 20
10503.26760135404
 30
0.0
 11
5792.981969049858
 21
10503.26760135404
 31
0.0
  0
LINE
  5
1CF6E
  8
YANE
 10
5882.3157497121874
 20
10519.26760135404
 30
0.0
 11
5865.665749712186
 21
10503.26760135404
 31
0.0
  0
LINE
  5
1CF6F
  8
YANE
 10
5909.6319690498594
 20
10519.26760135404
 30
0.0
 11
5882.3157497121874
 21
10519.26760135404
 31
0.0
  0
LINE
  5
1CF70
  8
YANE
 10
5926.2819690498609
 20
10503.26760135404
 30
0.0
 11
5909.6319690498594
 21
10519.26760135404
 31
0.0
  0
LINE
  5
1CF71
  8
YANE
 10
5998.9657497121834
 20
10503.26760135404
 30
0.0
 11
5926.2819690498609
 21
10503.26760135404
 31
0.0
  0
LINE
  5
1CF72
  8
YANE
 10
6015.6157497121858
 20
10519.26760135404
 30
0.0
 11
5998.9657497121834
 21
10503.26760135404
 31
0.0
  0
LINE
  5
1CF73
  8
YANE
 10
6042.931969049856
 20
10519.26760135404
 30
0.0
 11
6015.6157497121858
 21
10519.26760135404
 31
0.0
  0
LINE
  5
1CF74
  8
YANE
 10
6059.5819690498583
 20
10503.26760135404
 30
0.0
 11
6042.931969049856
 21
10519.26760135404
 31
0.0
  0
LINE
  5
1CF75
  8
YANE
 10
6132.2657497121863
 20
10503.26760135404
 30
0.0
 11
6059.5819690498583
 21
10503.26760135404
 31
0.0
  0
LINE
  5
1CF76
  8
YANE
 10
6148.9157497121814
 20
10519.26760135404
 30
0.0
 11
6132.2657497121863
 21
10503.26760135404
 31
0.0
  0
LINE
  5
1CF77
  8
YANE
 10
6176.2319690498543
 20
10519.26760135404
 30
0.0
 11
6148.9157497121814
 21
10519.26760135404
 31
0.0
  0
LINE
  5
1CF78
  8
YANE
 10
6192.8819690498576
 20
10503.26760135404
 30
0.0
 11
6176.2319690498543
 21
10519.26760135404
 31
0.0
  0
LINE
  5
1CF79
  8
YANE
 10
6265.5657497121811
 20
10503.26760135404
 30
0.0
 11
6192.8819690498576
 21
10503.26760135404
 31
0.0
  0
LINE
  5
1CF7A
  8
YANE
 10
6282.2157497121871
 20
10519.26760135404
 30
0.0
 11
6265.5657497121811
 21
10503.26760135404
 31
0.0
  0
LINE
  5
1CF7B
  8
YANE
 10
6309.5319690498527
 20
10519.26760135404
 30
0.0
 11
6282.2157497121871
 21
10519.26760135404
 31
0.0
  0
LINE
  5
1CF7C
  8
YANE
 10
6326.181969049856
 20
10503.26760135404
 30
0.0
 11
6309.5319690498527
 21
10519.26760135404
 31
0.0
  0
LINE
  5
1CF7D
  8
YANE
 10
6398.8657497121876
 20
10503.26760135404
 30
0.0
 11
6326.181969049856
 21
10503.26760135404
 31
0.0
  0
LINE
  5
1CF7E
  8
YANE
 10
6415.5157497121882
 20
10519.26760135404
 30
0.0
 11
6398.8657497121876
 21
10503.26760135404
 31
0.0
  0
LINE
  5
1CF7F
  8
YANE
 10
6442.8319690498538
 20
10519.26760135404
 30
0.0
 11
6415.5157497121882
 21
10519.26760135404
 31
0.0
  0
LINE
  5
1CF80
  8
YANE
 10
6459.4819690498598
 20
10503.26760135404
 30
0.0
 11
6442.8319690498538
 21
10519.26760135404
 31
0.0
  0
LINE
  5
1CF81
  8
YANE
 10
6532.1657497121842
 20
10503.26760135404
 30
0.0
 11
6459.4819690498598
 21
10503.26760135404
 31
0.0
  0
LINE
  5
1CF82
  8
YANE
 10
6548.8157497121856
 20
10519.26760135404
 30
0.0
 11
6532.1657497121842
 21
10503.26760135404
 31
0.0
  0
LINE
  5
1CF83
  8
YANE
 10
6576.1319690498576
 20
10519.26760135404
 30
0.0
 11
6548.8157497121856
 21
10519.26760135404
 31
0.0
  0
LINE
  5
1CF84
  8
YANE
 10
6592.7819690498582
 20
10503.26760135404
 30
0.0
 11
6576.1319690498576
 21
10519.26760135404
 31
0.0
  0
LINE
  5
1CF85
  8
YANE
 10
6665.4657497121862
 20
10503.26760135404
 30
0.0
 11
6592.7819690498582
 21
10503.26760135404
 31
0.0
  0
LINE
  5
1CF86
  8
YANE
 10
6682.1157497121867
 20
10519.26760135404
 30
0.0
 11
6665.4657497121862
 21
10503.26760135404
 31
0.0
  0
LINE
  5
1CF87
  8
YANE
 10
6709.431969049856
 20
10519.26760135404
 30
0.0
 11
6682.1157497121867
 21
10519.26760135404
 31
0.0
  0
LINE
  5
1CF88
  8
YANE
 10
6726.0819690498574
 20
10503.26760135404
 30
0.0
 11
6709.431969049856
 21
10519.26760135404
 31
0.0
  0
LINE
  5
1CF89
  8
YANE
 10
6798.7657497121827
 20
10503.26760135404
 30
0.0
 11
6726.0819690498574
 21
10503.26760135404
 31
0.0
  0
LINE
  5
1CF8A
  8
YANE
 10
6815.415749712186
 20
10519.26760135404
 30
0.0
 11
6798.7657497121827
 21
10503.26760135404
 31
0.0
  0
LINE
  5
1CF8B
  8
YANE
 10
6842.7319690498543
 20
10519.26760135404
 30
0.0
 11
6815.415749712186
 21
10519.26760135404
 31
0.0
  0
LINE
  5
1CF8C
  8
YANE
 10
6859.3819690498594
 20
10503.26760135404
 30
0.0
 11
6842.7319690498543
 21
10519.26760135404
 31
0.0
  0
LINE
  5
1CF8D
  8
YANE
 10
6932.0657497121811
 20
10503.26760135404
 30
0.0
 11
6859.3819690498594
 21
10503.26760135404
 31
0.0
  0
LINE
  5
1CF8E
  8
YANE
 10
6948.7157497121889
 20
10519.26760135404
 30
0.0
 11
6932.0657497121811
 21
10503.26760135404
 31
0.0
  0
LINE
  5
1CF8F
  8
YANE
 10
6976.0319690498563
 20
10519.26760135404
 30
0.0
 11
6948.7157497121889
 21
10519.26760135404
 31
0.0
  0
LINE
  5
1CF90
  8
YANE
 10
6992.681969049856
 20
10503.26760135404
 30
0.0
 11
6976.0319690498563
 21
10519.26760135404
 31
0.0
  0
LINE
  5
1CF91
  8
YANE
 10
7065.3657497121849
 20
10503.26760135404
 30
0.0
 11
6992.681969049856
 21
10503.26760135404
 31
0.0
  0
LINE
  5
1CF92
  8
YANE
 10
7082.0157497121872
 20
10519.26760135404
 30
0.0
 11
7065.3657497121849
 21
10503.26760135404
 31
0.0
  0
LINE
  5
1CF93
  8
YANE
 10
7109.3319690498538
 20
10519.26760135404
 30
0.0
 11
7082.0157497121872
 21
10519.26760135404
 31
0.0
  0
LINE
  5
1CF94
  8
YANE
 10
7125.9819690498562
 20
10503.26760135404
 30
0.0
 11
7109.3319690498538
 21
10519.26760135404
 31
0.0
  0
LINE
  5
1CF95
  8
YANE
 10
7198.6657497121878
 20
10503.26760135404
 30
0.0
 11
7125.9819690498562
 21
10503.26760135404
 31
0.0
  0
LINE
  5
1CF96
  8
YANE
 10
7215.3157497121856
 20
10519.26760135404
 30
0.0
 11
7198.6657497121878
 21
10503.26760135404
 31
0.0
  0
LINE
  5
1CF97
  8
YANE
 10
7242.6319690498531
 20
10519.26760135404
 30
0.0
 11
7215.3157497121856
 21
10519.26760135404
 31
0.0
  0
LINE
  5
1CF98
  8
YANE
 10
7259.28196904986
 20
10503.26760135404
 30
0.0
 11
7242.6319690498531
 21
10519.26760135404
 31
0.0
  0
LINE
  5
1CF99
  8
YANE
 10
7331.9657497121843
 20
10503.26760135404
 30
0.0
 11
7259.28196904986
 21
10503.26760135404
 31
0.0
  0
LINE
  5
1CF9A
  8
YANE
 10
7348.615749712184
 20
10519.26760135404
 30
0.0
 11
7331.9657497121843
 21
10503.26760135404
 31
0.0
  0
LINE
  5
1CF9B
  8
YANE
 10
7375.9319690498533
 20
10519.26760135404
 30
0.0
 11
7348.615749712184
 21
10519.26760135404
 31
0.0
  0
LINE
  5
1CF9C
  8
YANE
 10
7392.5819690498583
 20
10503.26760135404
 30
0.0
 11
7375.9319690498533
 21
10519.26760135404
 31
0.0
  0
LINE
  5
1CF9D
  8
YANE
 10
7465.2657497121818
 20
10503.26760135404
 30
0.0
 11
7392.5819690498583
 21
10503.26760135404
 31
0.0
  0
LINE
  5
1CF9E
  8
YANE
 10
7481.9157497121823
 20
10519.26760135404
 30
0.0
 11
7465.2657497121818
 21
10503.26760135404
 31
0.0
  0
LINE
  5
1CF9F
  8
YANE
 10
7509.2319690498571
 20
10519.26760135404
 30
0.0
 11
7481.9157497121823
 21
10519.26760135404
 31
0.0
  0
LINE
  5
1CFA0
  8
YANE
 10
7525.8819690498549
 20
10503.26760135404
 30
0.0
 11
7509.2319690498571
 21
10519.26760135404
 31
0.0
  0
LINE
  5
1CFA1
  8
YANE
 10
7598.5657497121792
 20
10503.26760135404
 30
0.0
 11
7525.8819690498549
 21
10503.26760135404
 31
0.0
  0
LINE
  5
1CFA2
  8
YANE
 10
7615.2157497121862
 20
10519.26760135404
 30
0.0
 11
7598.5657497121792
 21
10503.26760135404
 31
0.0
  0
LINE
  5
1CFA3
  8
YANE
 10
6932.0657497121811
 20
8222.757813420958
 30
0.0
 11
6932.0657497121811
 21
10503.26760135404
 31
0.0
  0
LINE
  5
1CFA4
  8
YANE
 10
6948.7157497121843
 20
10519.26760135404
 30
0.0
 11
6948.7157497121843
 21
8222.757813420958
 31
0.0
  0
LINE
  5
1CFA5
  8
YANE
 10
6976.0319690498563
 20
8222.757813420958
 30
0.0
 11
6976.0319690498563
 21
10519.26760135404
 31
0.0
  0
LINE
  5
1CFA6
  8
YANE
 10
6992.681969049856
 20
10503.26760135404
 30
0.0
 11
6992.681969049856
 21
8222.757813420958
 31
0.0
  0
LINE
  5
1CFA7
  8
YANE
 10
7065.365749712184
 20
8222.757813420958
 30
0.0
 11
7065.3657497121849
 21
10503.26760135404
 31
0.0
  0
LINE
  5
1CFA8
  8
YANE
 10
7082.0157497121872
 20
10519.26760135404
 30
0.0
 11
7082.0157497121872
 21
8222.757813420958
 31
0.0
  0
LINE
  5
1CFA9
  8
YANE
 10
7109.3319690498511
 20
8222.757813420958
 30
0.0
 11
7109.3319690498538
 21
10519.26760135404
 31
0.0
  0
LINE
  5
1CFAA
  8
YANE
 10
7125.9819690498562
 20
10503.26760135404
 30
0.0
 11
7125.9819690498562
 21
8222.757813420958
 31
0.0
  0
LINE
  5
1CFAB
  8
YANE
 10
7198.6657497121832
 20
8222.757813420958
 30
0.0
 11
7198.6657497121878
 21
10503.26760135404
 31
0.0
  0
LINE
  5
1CFAC
  8
YANE
 10
7215.3157497121856
 20
10519.26760135404
 30
0.0
 11
7215.3157497121856
 21
8222.757813420958
 31
0.0
  0
LINE
  5
1CFAD
  8
YANE
 10
7242.6319690498503
 20
8222.757813420958
 30
0.0
 11
7242.6319690498531
 21
10519.26760135404
 31
0.0
  0
LINE
  5
1CFAE
  8
YANE
 10
7259.2819690498554
 20
10503.26760135404
 30
0.0
 11
7259.2819690498554
 21
8222.757813420958
 31
0.0
  0
LINE
  5
1CFAF
  8
YANE
 10
7331.9657497121843
 20
8222.757813420958
 30
0.0
 11
7331.9657497121843
 21
10503.26760135404
 31
0.0
  0
LINE
  5
1CFB0
  8
YANE
 10
7348.615749712184
 20
10519.26760135404
 30
0.0
 11
7348.615749712184
 21
8222.757813420958
 31
0.0
  0
LINE
  5
1CFB1
  8
YANE
 10
7375.9319690498533
 20
8222.757813420958
 30
0.0
 11
7375.9319690498533
 21
10519.26760135404
 31
0.0
  0
LINE
  5
1CFB2
  8
YANE
 10
7525.8819690498549
 20
10503.26760135404
 30
0.0
 11
7525.8819690498549
 21
8222.757813420958
 31
0.0
  0
LINE
  5
1CFB3
  8
YANE
 10
7509.2319690498571
 20
8222.757813420958
 30
0.0
 11
7509.2319690498571
 21
10519.26760135404
 31
0.0
  0
LINE
  5
1CFB4
  8
YANE
 10
7481.9157497121823
 20
10519.26760135404
 30
0.0
 11
7481.9157497121823
 21
8222.757813420958
 31
0.0
  0
LINE
  5
1CFB5
  8
YANE
 10
7465.2657497121818
 20
8222.757813420958
 30
0.0
 11
7465.2657497121818
 21
10503.26760135404
 31
0.0
  0
LINE
  5
1CFB6
  8
YANE
 10
7392.5819690498583
 20
10503.26760135404
 30
0.0
 11
7392.5819690498583
 21
8222.757813420958
 31
0.0
  0
LINE
  5
1CFB7
  8
YANE
 10
7598.5657497121792
 20
8222.757813420958
 30
0.0
 11
7598.5657497121792
 21
10503.26760135404
 31
0.0
  0
CIRCLE
  5
1CFB8
  8
KERABA
 10
7628.8738593810212
 20
10522.62260972693
 30
0.0
 40
2.5
  0
CIRCLE
  5
1CFB9
  8
KERABA
 10
7628.8738593810212
 20
10136.75781342096
 30
0.0
 40
2.5
  0
CIRCLE
  5
1CFBA
  8
KERABA
 10
7628.8738593810212
 20
9546.757813420958
 30
0.0
 40
2.5
  0
CIRCLE
  5
1CFBB
  8
KERABA
 10
7628.8738593810212
 20
8956.7578134209543
 30
0.0
 40
2.5
  0
CIRCLE
  5
1CFBC
  8
KERABA
 10
7628.8738593810212
 20
8366.757813420958
 30
0.0
 40
2.5
  0
CIRCLE
  5
1CFBD
  8
KERABA
 10
7628.8738593810212
 20
8192.7578134209598
 30
0.0
 40
2.5
  0
LINE
  5
1CFBE
  8
HANAKAKUSHI
 10
7664.8738593810194
 20
8132.7578134209571
 30
0.0
 11
7664.8738593810194
 21
8176.7578134209571
 31
0.0
  0
LINE
  5
1CFBF
  8
KERABA
 10
7614.8738593810194
 20
8176.7578134209571
 30
0.0
 11
7664.8738593810194
 21
8176.7578134209571
 31
0.0
  0
LINE
  5
1CFC0
  8
KERABA
 10
7614.8738593810194
 20
8176.7578134209571
 30
0.0
 11
7614.8738593810194
 21
10519.26760135404
 31
0.0
  0
LINE
  5
1CFC1
  8
HANAKAKUSHI
 10
6465.177783211785
 20
8222.757813420958
 30
0.0
 11
7614.8738593810194
 21
8222.757813420958
 31
0.0
  0
LINE
  5
1CFC2
  8
KERABA
 10
7664.8738593810194
 20
8176.7578134209571
 30
0.0
 11
7664.8738593810194
 21
10519.26760135404
 31
0.0
  0
LINE
  5
1CFC3
  8
TOI
 10
5328.72246827046
 20
10519.26760135404
 30
0.0
 11
7664.8738593810194
 21
10519.26760135404
 31
0.0
  0
LINE
  5
1CFC4
  8
TOI
 10
5318.0877799921909
 20
10540.75781342096
 30
0.0
 11
7664.8738593810194
 21
10540.75781342096
 31
0.0
  0
LINE
  5
1CFC5
  8
HANAKAKUSHI
 10
6509.7153588329102
 20
8132.7578134209571
 30
0.0
 11
7664.8738593810194
 21
8132.7578134209571
 31
0.0
  0
LINE
  5
1CFC6
  8
SUNPOU
 10
6040.1238593810203
 20
7621.7578134209571
 30
0.0
 11
6051.3738593810231
 21
7621.7578134209571
 31
0.0
  0
LINE
  5
1CFC7
  8
SUNPOU
 10
6440.1238593810194
 20
7621.7578134209571
 30
0.0
 11
6451.3738593810194
 21
7621.7578134209571
 31
0.0
  0
LINE
  5
1CFC8
  8
SUNPOU
 10
6417.6238593810212
 20
7621.7578134209571
 30
0.0
 11
6406.3738593810194
 21
7621.7578134209571
 31
0.0
  0
LINE
  5
1CFC9
  8
SUNPOU
 10
6840.1238593810194
 20
7621.7578134209571
 30
0.0
 11
6851.3738593810203
 21
7621.7578134209571
 31
0.0
  0
LINE
  5
1CFCA
  8
SUNPOU
 10
6817.6238593810194
 20
7621.7578134209571
 30
0.0
 11
6806.3738593810203
 21
7621.7578134209571
 31
0.0
  0
LINE
  5
1CFCB
  8
SUNPOU
 10
7217.623859381014
 20
7621.7578134209571
 30
0.0
 11
7206.373859381014
 21
7621.7578134209571
 31
0.0
  0
TEXT
  5
1CFCC
  8
HIKIDASHI
 10
3736.2267430357879
 20
9860.8293735595616
 30
0.0
 40
90.0
  1
母屋
  7
01
  0
CIRCLE
  5
1CFCD
  8
HIKIDASHI
 10
4038.8613416030148
 20
9905.8293735595616
 30
0.0
 40
60.0
  0
TEXT
  5
1CFCE
  8
HIKIDASHI
 10
4006.3613416030148
 20
9868.3293735595616
 30
0.0
 40
75.0
  1
ア
  7
01
 72
     1
 11
4038.8613416030148
 21
9905.8293735595616
 31
0.0
 73
     2
  0
TEXT
  5
1CFCF
  8
HIKIDASHI
 10
3736.2267430357879
 20
10747.989712302069
 30
0.0
 40
90.0
  1
胴縁
  7
01
  0
CIRCLE
  5
1CFD0
  8
HIKIDASHI
 10
4038.8613416030148
 20
10792.98971230208
 30
0.0
 40
60.0
  0
TEXT
  5
1CFD1
  8
HIKIDASHI
 10
4006.3613416030148
 20
10755.48971230208
 30
0.0
 40
75.0
  1
ア
  7
01
 72
     1
 11
4038.8613416030148
 21
10792.98971230208
 31
0.0
 73
     2
  0
LINE
  5
1CFD2
  8
HIKIDASHI
 10
3819.5523405323311
 20
9125.3008998335445
 30
0.0
 11
4279.8808184701211
 21
9125.3008998335445
 31
0.0
  0
TEXT
  5
1CFD3
  8
HIKIDASHI
 10
4130.7099542917967
 20
9170.3008998335463
 30
0.0
 40
90.0
  1
2.3
 41
0.6700000000000002
  7
00
  0
TEXT
  5
1CFD4
  8
HIKIDASHI
 10
3849.5523405323311
 20
9170.3008998335463
 30
0.0
 40
90.0
  1
梁
  7
01
  0
CIRCLE
  5
1CFD5
  8
HIKIDASHI
 10
4038.8613416030148
 20
9215.3008998335481
 30
0.0
 40
60.0
  0
TEXT
  5
1CFD6
  8
HIKIDASHI
 10
4006.3613416030148
 20
9177.8008998335463
 30
0.0
 40
75.0
  1
ア
  7
01
 72
     1
 11
4038.8613416030148
 21
9215.3008998335481
 31
0.0
 73
     2
  0
LINE
  5
1CFD7
  8
HIKIDASHI
 10
3706.2267430357879
 20
10702.98971230208
 30
0.0
 11
4279.8808184701211
 21
10702.98971230208
 31
0.0
  0
TEXT
  5
1CFD8
  8
HIKIDASHI
 10
4130.7099542917967
 20
10747.989712302069
 30
0.0
 40
90.0
  1
1.6
 41
0.6700000000000002
  7
00
  0
LINE
  5
1CFD9
  8
HIKIDASHI
 10
3706.2267430357879
 20
9815.8293735595616
 30
0.0
 11
4279.8808184701211
 21
9815.8293735595616
 31
0.0
  0
TEXT
  5
1CFDA
  8
HIKIDASHI
 10
4130.7099542917967
 20
9860.8293735595616
 30
0.0
 40
90.0
  1
1.6
 41
0.6700000000000002
  7
00
  0
LINE
  5
1CFDB
  8
HIKIDASHI
 10
4836.269662216032
 20
8513.8293968802882
 30
0.0
 11
5296.598140153822
 21
8513.8293968802882
 31
0.0
  0
TEXT
  5
1CFDC
  8
HIKIDASHI
 10
5147.4272759755022
 20
8558.8293968802882
 30
0.0
 40
90.0
  1
2.3
 41
0.6700000000000002
  7
00
  0
TEXT
  5
1CFDD
  8
HIKIDASHI
 10
4866.269662216032
 20
8558.8293968802882
 30
0.0
 40
90.0
  1
柱
  7
01
  0
CIRCLE
  5
1CFDE
  8
HIKIDASHI
 10
5055.5786632867157
 20
8603.8293968802918
 30
0.0
 40
60.0
  0
TEXT
  5
1CFDF
  8
HIKIDASHI
 10
5023.0786632867157
 20
8566.32939688029
 30
0.0
 40
75.0
  1
ア
  7
01
 72
     1
 11
5055.5786632867157
 21
8603.8293968802918
 31
0.0
 73
     2
  0
LINE
  5
1CFE0
  8
2PL-L2
 10
4392.8738593810149
 20
8131.7578134209571
 30
0.0
 11
6510.210220784259
 21
8131.7578134209571
 31
0.0
  0
LINE
  5
1CFE1
  8
YANE
 10
6576.2442248330972
 20
7998.3185706801223
 30
0.0
 11
5251.5589139920112
 21
10675.197056161791
 31
0.0
  0
TEXT
  5
1CFE2
  8
HIKIDASHI
 10
5423.5300369249771
 20
6909.2485509620983
 30
0.0
 40
120.0
  1
小 屋 伏 図
  7
01
 72
     2
 11
6175.5300369249771
 21
6909.2485509620983
 31
0.0
  0
TEXT
  5
1CFE3
  8
HIKIDASHI
 10
6265.5300369249753
 20
6933.0649927930672
 30
0.0
 40
80.0
  1
(S=
 41
0.6700000000000002
  7
00
  0
TEXT
  5
1CFE4
  8
HIKIDASHI
 10
6525.6702454895967
 20
6906.8971615927894
 30
0.0
 40
80.0
  1
40
 41
0.6700000000000002
  7
00
  0
TEXT
  5
1CFE5
  8
HIKIDASHI
 10
6647.09670155203
 20
6933.0649927930672
 30
0.0
 40
80.0
  1
)
 41
0.6700000000000002
  7
00
  0
TEXT
  5
1CFE6
  8
HIKIDASHI
 10
6479.3750907269578
 20
6933.0649927930672
 30
0.0
 40
80.0
  1
/
 41
0.6700000000000002
  7
00
  0
TEXT
  5
1CFE7
  8
HIKIDASHI
 10
6446.2379528626498
 20
6948.6264705412623
 30
0.0
 40
80.0
  1
1
 41
0.6700000000000002
  7
00
  0
CIRCLE
  5
1CFE8
  8
YANE
 10
5628.8738593810203
 20
10136.75781342096
 30
0.0
 40
2.5
  0
CIRCLE
  5
1CFE9
  8
YANE
 10
6028.8738593810194
 20
9546.757813420958
 30
0.0
 40
2.5
  0
LINE
  5
1CFEA
  8
MOYA
 10
4393.8736283810176
 20
8969.2578685911176
 30
0.0
 11
4573.8707223810179
 21
8969.2578685911176
 31
0.0
  0
LINE
  5
1CFEB
  8
MOYA
 10
4603.8726883810168
 20
9029.7629285911153
 30
0.0
 11
4653.874330381017
 21
9029.7629285911153
 31
0.0
  0
LINE
  5
1CFEC
  8
MOYA
 10
4598.8697943810157
 20
8992.0592505911136
 30
0.0
 11
4598.8697943810157
 21
9024.7586345911277
 31
0.0
  0
LINE
  5
1CFED
  8
MOYA
 10
4658.8744243810061
 20
9024.7586345911277
 30
0.0
 11
4658.8744243810061
 21
8992.0592505911136
 31
0.0
  0
LINE
  5
1CFEE
  8
MOYA
 10
4573.8707223810179
 20
8992.0592505911136
 30
0.0
 11
4683.8720963810183
 21
8992.0592505911136
 31
0.0
  0
LINE
  5
1CFEF
  8
MOYA
 10
4598.8697943810157
 20
8921.4588155911279
 30
0.0
 11
4598.8697943810157
 21
8888.7636295911307
 31
0.0
  0
LINE
  5
1CFF0
  8
MOYA
 10
4658.8744243810061
 20
8888.7636295911307
 30
0.0
 11
4658.8744243810061
 21
8921.4588155911279
 31
0.0
  0
LINE
  5
1CFF1
  8
MOYA
 10
4603.8726883810168
 20
8883.7579365911297
 30
0.0
 11
4653.874330381017
 21
8883.7579365911297
 31
0.0
  0
LINE
  5
1CFF2
  8
MOYA
 10
4683.8720963810183
 20
8921.4588155911279
 30
0.0
 11
4573.8707223810179
 21
8921.4588155911279
 31
0.0
  0
LINE
  5
1CFF3
  8
MOYA
 10
4573.8707223810179
 20
8921.4588155911279
 30
0.0
 11
4573.8707223810179
 21
8992.0592505911136
 31
0.0
  0
LINE
  5
1CFF4
  8
MOYA
 10
4683.8720963810183
 20
8992.0592505911136
 30
0.0
 11
4683.8720963810183
 21
8921.4588155911279
 31
0.0
  0
LINE
  5
1CFF5
  8
MOYA
 10
4393.8736283810176
 20
8989.2596455911262
 30
0.0
 11
4393.8736283810176
 21
8924.2598195911196
 31
0.0
  0
LINE
  5
1CFF6
  8
MOYA
 10
4393.8736283810176
 20
8924.2598195911196
 30
0.0
 11
4573.8707223810179
 21
8924.2598195911196
 31
0.0
  0
LINE
  5
1CFF7
  8
MOYA
 10
4393.8736283810176
 20
8989.2596455911262
 30
0.0
 11
4573.8707223810179
 21
8989.2596455911262
 31
0.0
  0
CIRCLE
  5
1CFF8
  8
MOYA
 10
4628.8738593810194
 20
9006.7613755911261
 30
0.0
 40
9.0
  0
ARC
  5
1CFF9
  8
MOYA
 10
4603.8726883810168
 20
9024.7586345911277
 30
0.0
 40
5.0
 50
90.0
 51
180.0
  0
ARC
  5
1CFFA
  8
MOYA
 10
4653.874330381017
 20
9024.7586345911277
 30
0.0
 40
5.0
 50
0.0
 51
90.0
  0
ARC
  5
1CFFB
  8
MOYA
 10
4603.8726883810168
 20
8888.7636295911307
 30
0.0
 40
5.0
 50
180.0
 51
270.0
  0
ARC
  5
1CFFC
  8
MOYA
 10
4653.874330381017
 20
8888.7636295911307
 30
0.0
 40
5.0
 50
270.0
 51
0.0
  0
CIRCLE
  5
1CFFD
  8
MOYA
 10
4628.8738593810194
 20
8906.759489591117
 30
0.0
 40
9.0
  0
LINE
  5
1CFFE
  8
MOYA
 10
4683.8720963810183
 20
8969.2578685911176
 30
0.0
 11
6095.7633092305286
 21
8969.2578685911176
 31
0.0
  0
LINE
  5
1CFFF
  8
MOYA
 10
4683.8720963810183
 20
8924.259819591116
 30
0.0
 11
6118.0311315654226
 21
8924.2598195911196
 31
0.0
  0
LINE
  5
1D000
  8
MOYA
 10
4683.8720963810183
 20
8989.2596455911316
 30
0.0
 11
6085.8651908339207
 21
8989.2596455911262
 31
0.0
  0
LINE
  5
1D001
  8
MOYA
 10
4393.8736283810176
 20
8380.7578685911176
 30
0.0
 11
4573.8707223810179
 21
8380.7578685911176
 31
0.0
  0
LINE
  5
1D002
  8
MOYA
 10
4603.8726883810168
 20
8441.2629285911153
 30
0.0
 11
4653.874330381017
 21
8441.2629285911153
 31
0.0
  0
LINE
  5
1D003
  8
MOYA
 10
4598.8697943810157
 20
8403.5592505911172
 30
0.0
 11
4598.8697943810157
 21
8436.2586345911259
 31
0.0
  0
LINE
  5
1D004
  8
MOYA
 10
4658.8744243810061
 20
8436.2586345911259
 30
0.0
 11
4658.8744243810061
 21
8403.5592505911172
 31
0.0
  0
LINE
  5
1D005
  8
MOYA
 10
4573.8707223810179
 20
8403.5592505911172
 30
0.0
 11
4683.8720963810183
 21
8403.5592505911172
 31
0.0
  0
LINE
  5
1D006
  8
MOYA
 10
4598.8697943810157
 20
8332.9588155911279
 30
0.0
 11
4598.8697943810157
 21
8300.2636295911252
 31
0.0
  0
LINE
  5
1D007
  8
MOYA
 10
4658.8744243810061
 20
8300.2636295911252
 30
0.0
 11
4658.8744243810061
 21
8332.9588155911279
 31
0.0
  0
LINE
  5
1D008
  8
MOYA
 10
4603.8726883810168
 20
8295.2579365911224
 30
0.0
 11
4653.874330381017
 21
8295.2579365911224
 31
0.0
  0
LINE
  5
1D009
  8
MOYA
 10
4683.8720963810183
 20
8332.9588155911279
 30
0.0
 11
4573.8707223810179
 21
8332.9588155911279
 31
0.0
  0
LINE
  5
1D00A
  8
MOYA
 10
4573.8707223810179
 20
8332.9588155911279
 30
0.0
 11
4573.8707223810179
 21
8403.5592505911172
 31
0.0
  0
LINE
  5
1D00B
  8
MOYA
 10
4683.8720963810183
 20
8403.5592505911172
 30
0.0
 11
4683.8720963810183
 21
8332.9588155911279
 31
0.0
  0
LINE
  5
1D00C
  8
MOYA
 10
4393.8736283810176
 20
8400.7596455911262
 30
0.0
 11
4393.8736283810176
 21
8335.7598195911178
 31
0.0
  0
LINE
  5
1D00D
  8
MOYA
 10
4393.8736283810176
 20
8335.7598195911178
 30
0.0
 11
4573.8707223810179
 21
8335.7598195911178
 31
0.0
  0
LINE
  5
1D00E
  8
MOYA
 10
4393.8736283810176
 20
8400.7596455911262
 30
0.0
 11
4573.8707223810179
 21
8400.7596455911262
 31
0.0
  0
CIRCLE
  5
1D00F
  8
MOYA
 10
4628.8738593810194
 20
8418.2613755911261
 30
0.0
 40
9.0
  0
ARC
  5
1D010
  8
MOYA
 10
4603.8726883810168
 20
8436.2586345911259
 30
0.0
 40
5.0
 50
90.0
 51
180.0
  0
ARC
  5
1D011
  8
MOYA
 10
4653.874330381017
 20
8436.2586345911259
 30
0.0
 40
5.0
 50
0.0
 51
90.0
  0
ARC
  5
1D012
  8
MOYA
 10
4603.8726883810168
 20
8300.2636295911252
 30
0.0
 40
5.0
 50
180.0
 51
270.0
  0
ARC
  5
1D013
  8
MOYA
 10
4653.874330381017
 20
8300.2636295911252
 30
0.0
 40
5.0
 50
270.0
 51
0.0
  0
CIRCLE
  5
1D014
  8
MOYA
 10
4628.8738593810194
 20
8318.259489591117
 30
0.0
 40
9.0
  0
LINE
  5
1D015
  8
MOYA
 10
4683.8720963810183
 20
8380.7578685911176
 30
0.0
 11
6386.9895675975376
 21
8380.7578685911176
 31
0.0
  0
LINE
  5
1D016
  8
MOYA
 10
4683.8720963810183
 20
8335.759819591116
 30
0.0
 11
6409.2573899324316
 21
8335.7598195911232
 31
0.0
  0
LINE
  5
1D017
  8
MOYA
 10
4683.8720963810183
 20
8400.7596455911262
 30
0.0
 11
6377.0914492009297
 21
8400.7596455911262
 31
0.0
  0
LINE
  5
1D018
  8
MOYA
 10
4393.8736283810176
 20
9557.7578685911158
 30
0.0
 11
4573.8707223810179
 21
9557.7578685911158
 31
0.0
  0
LINE
  5
1D019
  8
MOYA
 10
4603.8726883810168
 20
9618.2629285911207
 30
0.0
 11
4653.874330381017
 21
9618.2629285911207
 31
0.0
  0
LINE
  5
1D01A
  8
MOYA
 10
4598.8697943810157
 20
9580.5592505911154
 30
0.0
 11
4598.8697943810157
 21
9613.2586345911277
 31
0.0
  0
LINE
  5
1D01B
  8
MOYA
 10
4658.8744243810061
 20
9613.2586345911277
 30
0.0
 11
4658.8744243810061
 21
9580.5592505911154
 31
0.0
  0
LINE
  5
1D01C
  8
MOYA
 10
4573.8707223810179
 20
9580.5592505911154
 30
0.0
 11
4683.8720963810183
 21
9580.5592505911154
 31
0.0
  0
LINE
  5
1D01D
  8
MOYA
 10
4598.8697943810157
 20
9509.9588155911279
 30
0.0
 11
4598.8697943810157
 21
9477.2636295911234
 31
0.0
  0
LINE
  5
1D01E
  8
MOYA
 10
4658.8744243810061
 20
9477.2636295911234
 30
0.0
 11
4658.8744243810061
 21
9509.9588155911279
 31
0.0
  0
LINE
  5
1D01F
  8
MOYA
 10
4603.8726883810168
 20
9472.2579365911242
 30
0.0
 11
4653.874330381017
 21
9472.2579365911242
 31
0.0
  0
LINE
  5
1D020
  8
MOYA
 10
4683.8720963810183
 20
9509.9588155911279
 30
0.0
 11
4573.8707223810179
 21
9509.9588155911279
 31
0.0
  0
LINE
  5
1D021
  8
MOYA
 10
4573.8707223810179
 20
9509.9588155911279
 30
0.0
 11
4573.8707223810179
 21
9580.5592505911154
 31
0.0
  0
LINE
  5
1D022
  8
MOYA
 10
4683.8720963810183
 20
9580.5592505911154
 30
0.0
 11
4683.8720963810183
 21
9509.9588155911279
 31
0.0
  0
LINE
  5
1D023
  8
MOYA
 10
4393.8736283810176
 20
9577.7596455911262
 30
0.0
 11
4393.8736283810176
 21
9512.7598195911141
 31
0.0
  0
LINE
  5
1D024
  8
MOYA
 10
4393.8736283810176
 20
9512.7598195911141
 30
0.0
 11
4573.8707223810179
 21
9512.7598195911141
 31
0.0
  0
LINE
  5
1D025
  8
MOYA
 10
4393.8736283810176
 20
9577.7596455911262
 30
0.0
 11
4573.8707223810179
 21
9577.7596455911262
 31
0.0
  0
CIRCLE
  5
1D026
  8
MOYA
 10
4628.8738593810194
 20
9595.2613755911261
 30
0.0
 40
9.0
  0
ARC
  5
1D027
  8
MOYA
 10
4603.8726883810168
 20
9613.2586345911277
 30
0.0
 40
5.0
 50
90.0
 51
180.0
  0
ARC
  5
1D028
  8
MOYA
 10
4653.874330381017
 20
9613.2586345911277
 30
0.0
 40
5.0
 50
0.0
 51
90.0
  0
ARC
  5
1D029
  8
MOYA
 10
4603.8726883810168
 20
9477.2636295911234
 30
0.0
 40
5.0
 50
180.0
 51
270.0
  0
ARC
  5
1D02A
  8
MOYA
 10
4653.874330381017
 20
9477.2636295911234
 30
0.0
 40
5.0
 50
270.0
 51
0.0
  0
CIRCLE
  5
1D02B
  8
MOYA
 10
4628.8738593810194
 20
9495.2594895911207
 30
0.0
 40
9.0
  0
LINE
  5
1D02C
  8
MOYA
 10
4683.8720963810183
 20
9557.7578685911158
 30
0.0
 11
5804.5370508635178
 21
9557.7578685911158
 31
0.0
  0
LINE
  5
1D02D
  8
MOYA
 10
4683.8720963810183
 20
9512.7598195911141
 30
0.0
 11
5826.804873198409
 21
9512.7598195911214
 31
0.0
  0
LINE
  5
1D02E
  8
MOYA
 10
4683.8720963810183
 20
9577.7596455911262
 30
0.0
 11
5794.638932466909
 21
9577.7596455911244
 31
0.0
  0
LINE
  5
1D02F
  8
MOYA
 10
4393.8736283810176
 20
10146.25786859111
 30
0.0
 11
4573.8707223810179
 21
10146.25786859111
 31
0.0
  0
LINE
  5
1D030
  8
MOYA
 10
4603.8726883810168
 20
10206.76292859111
 30
0.0
 11
4653.874330381017
 21
10206.76292859111
 31
0.0
  0
LINE
  5
1D031
  8
MOYA
 10
4598.8697943810157
 20
10169.05925059111
 30
0.0
 11
4598.8697943810157
 21
10201.75863459112
 31
0.0
  0
LINE
  5
1D032
  8
MOYA
 10
4658.8744243810061
 20
10201.75863459112
 30
0.0
 11
4658.8744243810061
 21
10169.05925059111
 31
0.0
  0
LINE
  5
1D033
  8
MOYA
 10
4573.8707223810179
 20
10169.05925059111
 30
0.0
 11
4683.8720963810183
 21
10169.05925059111
 31
0.0
  0
LINE
  5
1D034
  8
MOYA
 10
4598.8697943810157
 20
10098.458815591121
 30
0.0
 11
4598.8697943810157
 21
10065.76362959112
 31
0.0
  0
LINE
  5
1D035
  8
MOYA
 10
4658.8744243810061
 20
10065.76362959112
 30
0.0
 11
4658.8744243810061
 21
10098.458815591121
 31
0.0
  0
LINE
  5
1D036
  8
MOYA
 10
4603.8726883810168
 20
10060.757936591121
 30
0.0
 11
4653.874330381017
 21
10060.757936591121
 31
0.0
  0
LINE
  5
1D037
  8
MOYA
 10
4683.8720963810183
 20
10098.458815591121
 30
0.0
 11
4573.8707223810179
 21
10098.458815591121
 31
0.0
  0
LINE
  5
1D038
  8
MOYA
 10
4573.8707223810179
 20
10098.458815591121
 30
0.0
 11
4573.8707223810179
 21
10169.05925059111
 31
0.0
  0
LINE
  5
1D039
  8
MOYA
 10
4683.8720963810183
 20
10169.05925059111
 30
0.0
 11
4683.8720963810183
 21
10098.458815591121
 31
0.0
  0
LINE
  5
1D03A
  8
MOYA
 10
4393.8736283810176
 20
10166.259645591121
 30
0.0
 11
4393.8736283810176
 21
10101.25981959111
 31
0.0
  0
LINE
  5
1D03B
  8
MOYA
 10
4393.8736283810176
 20
10101.25981959111
 30
0.0
 11
4573.8707223810179
 21
10101.25981959111
 31
0.0
  0
LINE
  5
1D03C
  8
MOYA
 10
4393.8736283810176
 20
10166.259645591121
 30
0.0
 11
4573.8707223810179
 21
10166.259645591121
 31
0.0
  0
CIRCLE
  5
1D03D
  8
MOYA
 10
4628.8738593810194
 20
10183.761375591121
 30
0.0
 40
9.0
  0
ARC
  5
1D03E
  8
MOYA
 10
4603.8726883810168
 20
10201.75863459112
 30
0.0
 40
5.0
 50
90.0
 51
180.0
  0
ARC
  5
1D03F
  8
MOYA
 10
4653.874330381017
 20
10201.75863459112
 30
0.0
 40
5.0
 50
0.0
 51
90.0
  0
ARC
  5
1D040
  8
MOYA
 10
4603.8726883810168
 20
10065.76362959112
 30
0.0
 40
5.0
 50
180.0
 51
270.0
  0
ARC
  5
1D041
  8
MOYA
 10
4653.874330381017
 20
10065.76362959112
 30
0.0
 40
5.0
 50
270.0
 51
0.0
  0
CIRCLE
  5
1D042
  8
MOYA
 10
4628.8738593810194
 20
10083.75948959111
 30
0.0
 40
9.0
  0
LINE
  5
1D043
  8
MOYA
 10
4683.8720963810183
 20
10146.25786859111
 30
0.0
 11
5513.3107924965079
 21
10146.25786859111
 31
0.0
  0
LINE
  5
1D044
  8
MOYA
 10
4683.8720963810183
 20
10101.25981959111
 30
0.0
 11
5535.578614831401
 21
10101.25981959111
 31
0.0
  0
LINE
  5
1D045
  8
MOYA
 10
4683.8720963810183
 20
10166.25964559113
 30
0.0
 11
5503.4126740998972
 21
10166.259645591121
 31
0.0
  0
TEXT
  5
1D046
  8
FILENAME
 10
13778.19047619047
 20
174.0
 30
0.0
 40
100.0
  1
＜YOKRS-280-A1_1_JIS_GL.DXF ＞
  7
FILENAME
 72
     2
 11
16382.0
 21
174.0
 31
0.0
  0
LINE
  5
1D047
  8
WAKUSEN-01
 10
434.0000000000008
 20
413.99999999999972
 30
0.0
 11
16382.0
 21
413.99999999999972
 31
0.0
  0
LINE
  5
1D048
  8
WAKUSEN-01
 10
434.0000000000008
 20
11242.0
 30
0.0
 11
16382.0
 21
11242.0
 31
0.0
  0
LINE
  5
1D049
  8
WAKUSEN-01
 10
434.0000000000008
 20
413.99999999999972
 30
0.0
 11
434.0000000000008
 21
11242.0
 31
0.0
  0
LINE
  5
1D04A
  8
WAKUSEN-01
 10
16382.0
 20
413.99999999999972
 30
0.0
 11
16382.0
 21
11242.0
 31
0.0
  0
LINE
  5
1D04B
  8
WAKUSEN-01
 10
10280.0
 20
1242.0
 30
0.0
 11
16382.0
 21
1242.0
 31
0.0
  0
LINE
  5
1D04C
  8
WAKUSEN-02
 10
10280.0
 20
827.99999999999966
 30
0.0
 11
13434.0
 21
827.99999999999966
 31
0.0
  0
TEXT
  5
1D04D
  8
WAKUMOJI-01
 10
10335.130129981369
 20
1062.9515046696611
 30
0.0
 40
120.0
  1
名　称
  7
WAKUMOJI
  0
TEXT
  5
1D04E
  8
WAKUMOJI-01
 10
10328.252742545959
 20
659.56448748991068
 30
0.0
 40
120.0
  1
図面名
  7
WAKUMOJI
  0
LINE
  5
1D04F
  8
WAKUSEN-01
 10
10280.0
 20
413.99999999999841
 30
0.0
 11
10280.0
 21
1242.0
 31
0.0
  0
LINE
  5
1D050
  8
WAKUSEN-02
 10
13434.0
 20
413.99999999999631
 30
0.0
 11
13434.0
 21
1242.0
 31
0.0
  0
LINE
  5
1D051
  8
YODOROGO
 10
14988.80217064596
 20
997.87474821464355
 30
0.0
 11
14914.80217064596
 21
997.87474821464355
 31
0.0
1001
AUTOCAD_POSTSCRIPT_FIGURE
1002
{
1000
PSFILL
1000
Grayscale
1000
Grayscale
1070
    25
1002
}
  0
LINE
  5
1D052
  8
YODOROGO
 10
14914.80217064596
 20
973.87474821464343
 30
0.0
 11
14988.80217064596
 21
973.87474821464343
 31
0.0
1001
AUTOCAD_POSTSCRIPT_FIGURE
1002
{
1000
PSFILL
1000
Grayscale
1000
Grayscale
1070
    25
1002
}
  0
LINE
  5
1D053
  8
YODOROGO
 10
14988.80217064596
 20
953.874748214644
 30
0.0
 11
14914.80217064596
 21
953.874748214644
 31
0.0
1001
AUTOCAD_POSTSCRIPT_FIGURE
1002
{
1000
PSFILL
1000
Grayscale
1000
Grayscale
1070
    25
1002
}
  0
LINE
  5
1D054
  8
YODOROGO
 10
14914.80217064596
 20
929.874748214644
 30
0.0
 11
14988.80217064596
 21
929.874748214644
 31
0.0
1001
AUTOCAD_POSTSCRIPT_FIGURE
1002
{
1000
PSFILL
1000
Grayscale
1000
Grayscale
1070
    25
1002
}
  0
LINE
  5
1D055
  8
YODOROGO
 10
14988.80217064596
 20
909.87474821464389
 30
0.0
 11
14914.80217064596
 21
909.87474821464389
 31
0.0
1001
AUTOCAD_POSTSCRIPT_FIGURE
1002
{
1000
PSFILL
1000
Grayscale
1000
Grayscale
1070
    25
1002
}
  0
LINE
  5
1D056
  8
YODOROGO
 10
14960.80217064594
 20
853.874748214644
 30
0.0
 11
14988.80217064596
 21
853.874748214644
 31
0.0
1001
AUTOCAD_POSTSCRIPT_FIGURE
1002
{
1000
PSFILL
1000
Grayscale
1000
Grayscale
1070
    25
1002
}
  0
LINE
  5
1D057
  8
YODOROGO
 10
14868.80217064596
 20
713.87474821464355
 30
0.0
 11
14968.80217064596
 21
740.66966745775528
 31
0.0
  0
LINE
  5
1D058
  8
YODOROGO
 10
14974.802170645949
 20
853.874748214644
 30
0.0
 11
14942.80217064596
 21
853.874748214644
 31
0.0
  0
ARC
  5
1D059
  8
YODOROGO
 10
15127.17387491394
 20
903.9323046166312
 30
0.0
 40
190.94343210282361
 50
213.96111677667841
 51
264.47872074317792
  0
ARC
  5
1D05A
  8
YODOROGO
 10
15127.17387491396
 20
903.93230461665132
 30
0.0
 40
190.9434321028408
 50
208.14114420486601
 51
212.9210361185994
  0
LINE
  5
1D05B
  8
YODOROGO
 10
14885.704936492641
 20
778.403830673117
 30
0.0
 11
14966.89206625426
 21
800.15785652854356
 31
0.0
  0
LINE
  5
1D05C
  8
YODOROGO
 10
14868.80217064596
 20
713.87474821464355
 30
0.0
 11
14968.80217064596
 21
740.66966745775528
 31
0.0
  0
LINE
  5
1D05D
  8
YODOROGO
 10
14974.802170645949
 20
853.874748214644
 30
0.0
 11
14942.80217064596
 21
853.874748214644
 31
0.0
  0
ARC
  5
1D05E
  8
YODOROGO
 10
15127.17387491394
 20
903.9323046166312
 30
0.0
 40
190.94343210282361
 50
213.96111677667841
 51
264.47872074317792
  0
LINE
  5
1D05F
  8
YODOROGO
 10
14396.80217064594
 20
909.87474821464389
 30
0.0
 11
14216.80217064594
 21
909.87474821464389
 31
0.0
  0
LINE
  5
1D060
  8
YODOROGO
 10
14256.80217064594
 20
713.87474821464355
 30
0.0
 11
14396.80217064594
 21
713.87474821464355
 31
0.0
  0
LINE
  5
1D061
  8
YODOROGO
 10
14364.80217064596
 20
961.8747482146432
 30
0.0
 11
14248.80217064594
 21
961.8747482146432
 31
0.0
  0
LINE
  5
1D062
  8
YODOROGO
 10
14292.80217064596
 20
1013.874748214644
 30
0.0
 11
14328.80217064596
 21
1013.874748214644
 31
0.0
  0
LINE
  5
1D063
  8
YODOROGO
 10
14216.80217064594
 20
853.874748214644
 30
0.0
 11
14216.80217064594
 21
753.87474821464389
 31
0.0
  0
LINE
  5
1D064
  8
YODOROGO
 10
14248.80217064594
 20
781.87474821464343
 30
0.0
 11
14248.80217064594
 21
853.874748214644
 31
0.0
  0
LINE
  5
1D065
  8
YODOROGO
 10
14292.80217064596
 20
873.87474821464491
 30
0.0
 11
14292.80217064596
 21
773.874748214644
 31
0.0
  0
LINE
  5
1D066
  8
YODOROGO
 10
13928.80217064596
 20
841.87474821464446
 30
0.0
 11
13888.80217064596
 21
809.98620702228561
 31
0.0
  0
LINE
  5
1D067
  8
YODOROGO
 10
13968.80217064596
 20
809.98620702228561
 30
0.0
 11
13928.80217064596
 21
841.87474821464446
 31
0.0
  0
LINE
  5
1D068
  8
YODOROGO
 10
13928.80217064596
 20
853.874748214644
 30
0.0
 11
13968.80217064596
 21
821.98620702228504
 31
0.0
  0
LINE
  5
1D069
  8
YODOROGO
 10
13888.80217064596
 20
821.98620702228504
 30
0.0
 11
13928.80217064596
 21
853.874748214644
 31
0.0
  0
LINE
  5
1D06A
  8
YODOROGO
 10
14020.45660200844
 20
829.874748214644
 30
0.0
 11
14020.45660200844
 21
841.87474821464343
 31
0.0
  0
LINE
  5
1D06B
  8
YODOROGO
 10
13988.80217064596
 20
841.87474821464343
 30
0.0
 11
13988.80217064596
 21
833.87474821464275
 31
0.0
  0
LINE
  5
1D06C
  8
YODOROGO
 10
14049.067760115449
 20
853.874748214644
 30
0.0
 11
14049.067760115449
 21
827.75181863732803
 31
0.0
1001
AUTOCAD_POSTSCRIPT_FIGURE
1002
{
1000
PSFILL
1000
Grayscale
1000
Grayscale
1070
   100
1002
}
  0
LINE
  5
1D06D
  8
YODOROGO
 10
14041.06776011546
 20
827.75181863732803
 30
0.0
 11
14041.06776011546
 21
853.874748214644
 31
0.0
1001
AUTOCAD_POSTSCRIPT_FIGURE
1002
{
1000
PSFILL
1000
Grayscale
1000
Grayscale
1070
   100
1002
}
  0
LINE
  5
1D06E
  8
YODOROGO
 10
13904.80217064596
 20
804.38595202162924
 30
0.0
 11
13904.80217064596
 21
816.38595202162981
 31
0.0
  0
LINE
  5
1D06F
  8
YODOROGO
 10
13952.80217064596
 20
804.38595202162924
 30
0.0
 11
13904.80217064596
 21
804.38595202162924
 31
0.0
  0
LINE
  5
1D070
  8
YODOROGO
 10
13952.80217064596
 20
816.38595202162981
 30
0.0
 11
13952.80217064596
 21
804.38595202162924
 31
0.0
  0
LINE
  5
1D071
  8
YODOROGO
 10
13904.80217064596
 20
816.38595202162981
 30
0.0
 11
13952.80217064596
 21
816.38595202162981
 31
0.0
  0
LINE
  5
1D072
  8
YODOROGO
 10
13912.254794457869
 20
784.25142868523744
 30
0.0
 11
13892.80217064596
 21
737.87474821464355
 31
0.0
1001
AUTOCAD_POSTSCRIPT_FIGURE
1002
{
1000
PSFILL
1000
Grayscale
1000
Grayscale
1070
   100
1002
}
  0
LINE
  5
1D073
  8
YODOROGO
 10
13888.80217064596
 20
784.25142868523744
 30
0.0
 11
13912.254794457869
 21
784.25142868523744
 31
0.0
1001
AUTOCAD_POSTSCRIPT_FIGURE
1002
{
1000
PSFILL
1000
Grayscale
1000
Grayscale
1070
   100
1002
}
  0
LINE
  5
1D074
  8
YODOROGO
 10
13888.80217064596
 20
794.25142868523744
 30
0.0
 11
13888.80217064596
 21
784.25142868523744
 31
0.0
1001
AUTOCAD_POSTSCRIPT_FIGURE
1002
{
1000
PSFILL
1000
Grayscale
1000
Grayscale
1070
   100
1002
}
  0
LINE
  5
1D075
  8
YODOROGO
 10
13968.80217064596
 20
794.25142868523744
 30
0.0
 11
13888.80217064596
 21
794.25142868523744
 31
0.0
1001
AUTOCAD_POSTSCRIPT_FIGURE
1002
{
1000
PSFILL
1000
Grayscale
1000
Grayscale
1070
   100
1002
}
  0
LINE
  5
1D076
  8
YODOROGO
 10
13968.80217064596
 20
784.25142868523744
 30
0.0
 11
13968.80217064596
 21
794.25142868523744
 31
0.0
1001
AUTOCAD_POSTSCRIPT_FIGURE
1002
{
1000
PSFILL
1000
Grayscale
1000
Grayscale
1070
   100
1002
}
  0
LINE
  5
1D077
  8
YODOROGO
 10
13922.25479445786
 20
784.25142868523744
 30
0.0
 11
13968.80217064596
 21
784.25142868523744
 31
0.0
1001
AUTOCAD_POSTSCRIPT_FIGURE
1002
{
1000
PSFILL
1000
Grayscale
1000
Grayscale
1070
   100
1002
}
  0
LINE
  5
1D078
  8
YODOROGO
 10
13907.77335914238
 20
747.87474821464355
 30
0.0
 11
13922.25479445786
 21
784.25142868523744
 31
0.0
1001
AUTOCAD_POSTSCRIPT_FIGURE
1002
{
1000
PSFILL
1000
Grayscale
1000
Grayscale
1070
   100
1002
}
  0
LINE
  5
1D079
  8
YODOROGO
 10
13951.02739540432
 20
747.87474821464355
 30
0.0
 11
13907.77335914238
 21
747.87474821464355
 31
0.0
1001
AUTOCAD_POSTSCRIPT_FIGURE
1002
{
1000
PSFILL
1000
Grayscale
1000
Grayscale
1070
   100
1002
}
  0
LINE
  5
1D07A
  8
YODOROGO
 10
13942.53250239547
 20
768.11690534884644
 30
0.0
 11
13951.02739540432
 21
747.87474821464355
 31
0.0
1001
AUTOCAD_POSTSCRIPT_FIGURE
1002
{
1000
PSFILL
1000
Grayscale
1000
Grayscale
1070
   100
1002
}
  0
LINE
  5
1D07B
  8
YODOROGO
 10
13950.53250239547
 20
768.11690534884644
 30
0.0
 11
13942.53250239547
 21
768.11690534884644
 31
0.0
1001
AUTOCAD_POSTSCRIPT_FIGURE
1002
{
1000
PSFILL
1000
Grayscale
1000
Grayscale
1070
   100
1002
}
  0
LINE
  5
1D07C
  8
YODOROGO
 10
13964.80217064596
 20
737.87474821464355
 30
0.0
 11
13950.53250239547
 21
768.11690534884644
 31
0.0
1001
AUTOCAD_POSTSCRIPT_FIGURE
1002
{
1000
PSFILL
1000
Grayscale
1000
Grayscale
1070
   100
1002
}
  0
LINE
  5
1D07D
  8
YODOROGO
 10
13892.80217064596
 20
737.87474821464355
 30
0.0
 11
13964.80217064596
 21
737.87474821464355
 31
0.0
1001
AUTOCAD_POSTSCRIPT_FIGURE
1002
{
1000
PSFILL
1000
Grayscale
1000
Grayscale
1070
   100
1002
}
  0
LINE
  5
1D07E
  8
YODOROGO
 10
13888.80217064596
 20
809.98620702228561
 30
0.0
 11
13888.80217064596
 21
821.98620702228504
 31
0.0
  0
LINE
  5
1D07F
  8
YODOROGO
 10
13968.80217064596
 20
821.98620702228504
 30
0.0
 11
13968.80217064596
 21
809.98620702228561
 31
0.0
  0
ARC
  5
1D080
  8
YODOROGO
 10
14112.970221073479
 20
800.43888266266299
 30
0.0
 40
87.999999999999943
 50
280.3644312771313
 51
3.5414836592180561
  0
ARC
  5
1D081
  8
YODOROGO
 10
14117.878015379651
 20
816.79890348095205
 30
0.0
 40
55.99999999999914
 50
281.24905825041549
 51
348.75094174958321
  0
LINE
  5
1D082
  8
YODOROGO
 10
14128.80217064596
 20
761.87474821464343
 30
0.0
 11
14128.80217064596
 21
713.87474821464355
 31
0.0
  0
LINE
  5
1D083
  8
YODOROGO
 10
14010.044451868451
 20
805.32528253095745
 30
0.0
 11
14020.45660200844
 21
829.874748214644
 31
0.0
  0
LINE
  5
1D084
  8
YODOROGO
 10
14020.80217064596
 20
791.5602449742006
 30
0.0
 11
14010.044451868451
 21
805.32528253095745
 31
0.0
  0
LINE
  5
1D085
  8
YODOROGO
 10
14020.80217064596
 20
781.56024497419935
 30
0.0
 11
14020.80217064596
 21
791.5602449742006
 31
0.0
  0
LINE
  5
1D086
  8
YODOROGO
 10
14008.80217064596
 20
792.61853187476515
 30
0.0
 11
14020.80217064596
 21
781.56024497419935
 31
0.0
  0
LINE
  5
1D087
  8
YODOROGO
 10
14008.80217064596
 20
737.87474821464355
 30
0.0
 11
14008.80217064596
 21
792.61853187476515
 31
0.0
  0
LINE
  5
1D088
  8
YODOROGO
 10
14000.80217064596
 20
737.87474821464355
 30
0.0
 11
14008.80217064596
 21
737.87474821464355
 31
0.0
  0
LINE
  5
1D089
  8
YODOROGO
 10
14000.80217064596
 20
790.00267484487381
 30
0.0
 11
14000.80217064596
 21
737.87474821464355
 31
0.0
  0
LINE
  5
1D08A
  8
YODOROGO
 10
13988.80217064596
 20
766.38403951671421
 30
0.0
 11
14000.80217064596
 21
790.00267484487381
 31
0.0
  0
LINE
  5
1D08B
  8
YODOROGO
 10
13988.80217064596
 20
778.38403951671489
 30
0.0
 11
13988.80217064596
 21
766.38403951671421
 31
0.0
  0
LINE
  5
1D08C
  8
YODOROGO
 10
14012.914387145671
 20
833.87474821464275
 30
0.0
 11
13988.80217064596
 21
778.38403951671489
 31
0.0
  0
LINE
  5
1D08D
  8
YODOROGO
 10
13988.80217064596
 20
833.87474821464275
 30
0.0
 11
14012.914387145671
 21
833.87474821464275
 31
0.0
  0
LINE
  5
1D08E
  8
YODOROGO
 10
14025.067760115449
 20
827.75181863732803
 30
0.0
 11
14041.06776011546
 21
827.75181863732803
 31
0.0
1001
AUTOCAD_POSTSCRIPT_FIGURE
1002
{
1000
PSFILL
1000
Grayscale
1000
Grayscale
1070
   100
1002
}
  0
LINE
  5
1D08F
  8
YODOROGO
 10
14025.067760115449
 20
815.7518186373286
 30
0.0
 11
14025.067760115449
 21
827.75181863732803
 31
0.0
1001
AUTOCAD_POSTSCRIPT_FIGURE
1002
{
1000
PSFILL
1000
Grayscale
1000
Grayscale
1070
   100
1002
}
  0
LINE
  5
1D090
  8
YODOROGO
 10
14041.06776011546
 20
815.7518186373286
 30
0.0
 11
14025.067760115449
 21
815.7518186373286
 31
0.0
1001
AUTOCAD_POSTSCRIPT_FIGURE
1002
{
1000
PSFILL
1000
Grayscale
1000
Grayscale
1070
   100
1002
}
  0
LINE
  5
1D091
  8
YODOROGO
 10
14041.06776011546
 20
749.87474821464411
 30
0.0
 11
14041.06776011546
 21
815.7518186373286
 31
0.0
1001
AUTOCAD_POSTSCRIPT_FIGURE
1002
{
1000
PSFILL
1000
Grayscale
1000
Grayscale
1070
   100
1002
}
  0
LINE
  5
1D092
  8
YODOROGO
 10
14025.067760115449
 20
749.87474821464411
 30
0.0
 11
14041.06776011546
 21
749.87474821464411
 31
0.0
1001
AUTOCAD_POSTSCRIPT_FIGURE
1002
{
1000
PSFILL
1000
Grayscale
1000
Grayscale
1070
   100
1002
}
  0
LINE
  5
1D093
  8
YODOROGO
 10
14025.067760115449
 20
737.87474821464355
 30
0.0
 11
14025.067760115449
 21
749.87474821464411
 31
0.0
1001
AUTOCAD_POSTSCRIPT_FIGURE
1002
{
1000
PSFILL
1000
Grayscale
1000
Grayscale
1070
   100
1002
}
  0
LINE
  5
1D094
  8
YODOROGO
 10
14068.80217064596
 20
737.87474821464355
 30
0.0
 11
14025.067760115449
 21
737.87474821464355
 31
0.0
1001
AUTOCAD_POSTSCRIPT_FIGURE
1002
{
1000
PSFILL
1000
Grayscale
1000
Grayscale
1070
   100
1002
}
  0
LINE
  5
1D095
  8
YODOROGO
 10
14068.80217064596
 20
749.87474821464411
 30
0.0
 11
14068.80217064596
 21
737.87474821464355
 31
0.0
1001
AUTOCAD_POSTSCRIPT_FIGURE
1002
{
1000
PSFILL
1000
Grayscale
1000
Grayscale
1070
   100
1002
}
  0
LINE
  5
1D096
  8
YODOROGO
 10
14049.067760115449
 20
749.87474821464411
 30
0.0
 11
14068.80217064596
 21
749.87474821464411
 31
0.0
1001
AUTOCAD_POSTSCRIPT_FIGURE
1002
{
1000
PSFILL
1000
Grayscale
1000
Grayscale
1070
   100
1002
}
  0
LINE
  5
1D097
  8
YODOROGO
 10
14049.067760115449
 20
815.7518186373286
 30
0.0
 11
14049.067760115449
 21
749.87474821464411
 31
0.0
1001
AUTOCAD_POSTSCRIPT_FIGURE
1002
{
1000
PSFILL
1000
Grayscale
1000
Grayscale
1070
   100
1002
}
  0
LINE
  5
1D098
  8
YODOROGO
 10
14068.80217064596
 20
815.7518186373286
 30
0.0
 11
14049.067760115449
 21
815.7518186373286
 31
0.0
1001
AUTOCAD_POSTSCRIPT_FIGURE
1002
{
1000
PSFILL
1000
Grayscale
1000
Grayscale
1070
   100
1002
}
  0
LINE
  5
1D099
  8
YODOROGO
 10
14068.80217064596
 20
827.75181863732803
 30
0.0
 11
14068.80217064596
 21
815.7518186373286
 31
0.0
1001
AUTOCAD_POSTSCRIPT_FIGURE
1002
{
1000
PSFILL
1000
Grayscale
1000
Grayscale
1070
   100
1002
}
  0
LINE
  5
1D09A
  8
YODOROGO
 10
14049.067760115449
 20
827.75181863732803
 30
0.0
 11
14068.80217064596
 21
827.75181863732803
 31
0.0
1001
AUTOCAD_POSTSCRIPT_FIGURE
1002
{
1000
PSFILL
1000
Grayscale
1000
Grayscale
1070
   100
1002
}
  0
LINE
  5
1D09B
  8
YODOROGO
 10
14200.80217064594
 20
833.87474821464389
 30
0.0
 11
14172.80217064596
 21
833.87474821464389
 31
0.0
  0
LINE
  5
1D09C
  8
YODOROGO
 10
14200.80217064594
 20
805.87474821464434
 30
0.0
 11
14200.80217064594
 21
833.87474821464389
 31
0.0
  0
LINE
  5
1D09D
  8
YODOROGO
 10
14172.80217064596
 20
833.87474821464389
 30
0.0
 11
14172.80217064596
 21
805.87474821464434
 31
0.0
  0
ARC
  5
1D09E
  8
YODOROGO
 10
14256.80217064594
 20
753.87474821464389
 30
0.0
 40
40.0
 50
180.0
 51
270.0
  0
ARC
  5
1D09F
  8
YODOROGO
 10
14268.80217064594
 20
781.87474821464343
 30
0.0
 40
20.0
 50
180.0
 51
270.0
  0
LINE
  5
1D0A0
  8
YODOROGO
 10
14280.80217064596
 20
761.87474821464343
 30
0.0
 11
14268.80217064594
 21
761.87474821464343
 31
0.0
  0
ARC
  5
1D0A1
  8
YODOROGO
 10
14280.80217064596
 20
773.87474821464275
 30
0.0
 40
11.999999999998179
 50
270.0
 51
0.0000000000054281
  0
LINE
  5
1D0A2
  8
YODOROGO
 10
13900.80217064596
 20
945.39329039685322
 30
0.0
 11
13888.80217064596
 21
921.8883739758362
 31
0.0
1001
AUTOCAD_POSTSCRIPT_FIGURE
1002
{
1000
PSFILL
1000
Grayscale
1000
Grayscale
1070
   100
1002
}
  0
LINE
  5
1D0A3
  8
YODOROGO
 10
13900.80217064596
 20
873.87474821464343
 30
0.0
 11
13900.80217064596
 21
945.39329039685322
 31
0.0
1001
AUTOCAD_POSTSCRIPT_FIGURE
1002
{
1000
PSFILL
1000
Grayscale
1000
Grayscale
1070
   100
1002
}
  0
LINE
  5
1D0A4
  8
YODOROGO
 10
13908.80217064596
 20
873.87474821464343
 30
0.0
 11
13900.80217064596
 21
873.87474821464343
 31
0.0
1001
AUTOCAD_POSTSCRIPT_FIGURE
1002
{
1000
PSFILL
1000
Grayscale
1000
Grayscale
1070
   100
1002
}
  0
LINE
  5
1D0A5
  8
YODOROGO
 10
13908.80217064596
 20
946.88566604263315
 30
0.0
 11
13908.80217064596
 21
873.87474821464343
 31
0.0
1001
AUTOCAD_POSTSCRIPT_FIGURE
1002
{
1000
PSFILL
1000
Grayscale
1000
Grayscale
1070
   100
1002
}
  0
LINE
  5
1D0A6
  8
YODOROGO
 10
13920.80217064596
 20
933.82737914206837
 30
0.0
 11
13908.80217064596
 21
946.88566604263315
 31
0.0
1001
AUTOCAD_POSTSCRIPT_FIGURE
1002
{
1000
PSFILL
1000
Grayscale
1000
Grayscale
1070
   100
1002
}
  0
LINE
  5
1D0A7
  8
YODOROGO
 10
13920.80217064596
 20
941.82737914206814
 30
0.0
 11
13920.80217064596
 21
933.82737914206837
 31
0.0
1001
AUTOCAD_POSTSCRIPT_FIGURE
1002
{
1000
PSFILL
1000
Grayscale
1000
Grayscale
1070
   100
1002
}
  0
LINE
  5
1D0A8
  8
YODOROGO
 10
13908.80217064596
 20
958.88566604263247
 30
0.0
 11
13920.80217064596
 21
941.82737914206814
 31
0.0
1001
AUTOCAD_POSTSCRIPT_FIGURE
1002
{
1000
PSFILL
1000
Grayscale
1000
Grayscale
1070
   100
1002
}
  0
LINE
  5
1D0A9
  8
YODOROGO
 10
13908.80217064596
 20
969.87474821464411
 30
0.0
 11
13908.80217064596
 21
958.88566604263247
 31
0.0
1001
AUTOCAD_POSTSCRIPT_FIGURE
1002
{
1000
PSFILL
1000
Grayscale
1000
Grayscale
1070
   100
1002
}
  0
LINE
  5
1D0AA
  8
YODOROGO
 10
13944.80217064596
 20
969.87474821464411
 30
0.0
 11
13908.80217064596
 21
969.87474821464411
 31
0.0
1001
AUTOCAD_POSTSCRIPT_FIGURE
1002
{
1000
PSFILL
1000
Grayscale
1000
Grayscale
1070
   100
1002
}
  0
LINE
  5
1D0AB
  8
YODOROGO
 10
13944.80217064596
 20
950.28417446814944
 30
0.0
 11
13944.80217064596
 21
969.87474821464411
 31
0.0
1001
AUTOCAD_POSTSCRIPT_FIGURE
1002
{
1000
PSFILL
1000
Grayscale
1000
Grayscale
1070
   100
1002
}
  0
LINE
  5
1D0AC
  8
YODOROGO
 10
13928.80217064596
 20
950.28417446814944
 30
0.0
 11
13944.80217064596
 21
950.28417446814944
 31
0.0
1001
AUTOCAD_POSTSCRIPT_FIGURE
1002
{
1000
PSFILL
1000
Grayscale
1000
Grayscale
1070
   100
1002
}
  0
LINE
  5
1D0AD
  8
YODOROGO
 10
13928.80217064596
 20
942.2841744681491
 30
0.0
 11
13928.80217064596
 21
950.28417446814944
 31
0.0
1001
AUTOCAD_POSTSCRIPT_FIGURE
1002
{
1000
PSFILL
1000
Grayscale
1000
Grayscale
1070
   100
1002
}
  0
LINE
  5
1D0AE
  8
YODOROGO
 10
13944.80217064596
 20
942.2841744681491
 30
0.0
 11
13928.80217064596
 21
942.2841744681491
 31
0.0
1001
AUTOCAD_POSTSCRIPT_FIGURE
1002
{
1000
PSFILL
1000
Grayscale
1000
Grayscale
1070
   100
1002
}
  0
LINE
  5
1D0AF
  8
YODOROGO
 10
13944.80217064596
 20
939.80958898221968
 30
0.0
 11
13944.80217064596
 21
942.2841744681491
 31
0.0
1001
AUTOCAD_POSTSCRIPT_FIGURE
1002
{
1000
PSFILL
1000
Grayscale
1000
Grayscale
1070
   100
1002
}
  0
LINE
  5
1D0B0
  8
YODOROGO
 10
13924.80217064596
 20
906.48749058070871
 30
0.0
 11
13944.80217064596
 21
939.80958898221968
 31
0.0
1001
AUTOCAD_POSTSCRIPT_FIGURE
1002
{
1000
PSFILL
1000
Grayscale
1000
Grayscale
1070
   100
1002
}
  0
LINE
  5
1D0B1
  8
YODOROGO
 10
13924.80217064596
 20
898.48749058070803
 30
0.0
 11
13924.80217064596
 21
906.48749058070871
 31
0.0
1001
AUTOCAD_POSTSCRIPT_FIGURE
1002
{
1000
PSFILL
1000
Grayscale
1000
Grayscale
1070
   100
1002
}
  0
LINE
  5
1D0B2
  8
YODOROGO
 10
13944.80217064596
 20
923.80958898221832
 30
0.0
 11
13924.80217064596
 21
898.48749058070803
 31
0.0
1001
AUTOCAD_POSTSCRIPT_FIGURE
1002
{
1000
PSFILL
1000
Grayscale
1000
Grayscale
1070
   100
1002
}
  0
LINE
  5
1D0B3
  8
YODOROGO
 10
13944.80217064596
 20
873.87474821464343
 30
0.0
 11
13944.80217064596
 21
923.80958898221832
 31
0.0
1001
AUTOCAD_POSTSCRIPT_FIGURE
1002
{
1000
PSFILL
1000
Grayscale
1000
Grayscale
1070
   100
1002
}
  0
LINE
  5
1D0B4
  8
YODOROGO
 10
13952.80217064596
 20
873.87474821464343
 30
0.0
 11
13944.80217064596
 21
873.87474821464343
 31
0.0
1001
AUTOCAD_POSTSCRIPT_FIGURE
1002
{
1000
PSFILL
1000
Grayscale
1000
Grayscale
1070
   100
1002
}
  0
LINE
  5
1D0B5
  8
YODOROGO
 10
13952.80217064596
 20
924.70450607940325
 30
0.0
 11
13952.80217064596
 21
873.87474821464343
 31
0.0
1001
AUTOCAD_POSTSCRIPT_FIGURE
1002
{
1000
PSFILL
1000
Grayscale
1000
Grayscale
1070
   100
1002
}
  0
LINE
  5
1D0B6
  8
YODOROGO
 10
13968.80217064596
 20
898.48749058070803
 30
0.0
 11
13952.80217064596
 21
924.70450607940325
 31
0.0
1001
AUTOCAD_POSTSCRIPT_FIGURE
1002
{
1000
PSFILL
1000
Grayscale
1000
Grayscale
1070
   100
1002
}
  0
LINE
  5
1D0B7
  8
YODOROGO
 10
13968.80217064596
 20
906.48749058070871
 30
0.0
 11
13968.80217064596
 21
898.48749058070803
 31
0.0
1001
AUTOCAD_POSTSCRIPT_FIGURE
1002
{
1000
PSFILL
1000
Grayscale
1000
Grayscale
1070
   100
1002
}
  0
LINE
  5
1D0B8
  8
YODOROGO
 10
13952.80217064596
 20
940.70450607940404
 30
0.0
 11
13968.80217064596
 21
906.48749058070871
 31
0.0
1001
AUTOCAD_POSTSCRIPT_FIGURE
1002
{
1000
PSFILL
1000
Grayscale
1000
Grayscale
1070
   100
1002
}
  0
LINE
  5
1D0B9
  8
YODOROGO
 10
13952.80217064596
 20
942.28417446815024
 30
0.0
 11
13952.80217064596
 21
940.70450607940404
 31
0.0
1001
AUTOCAD_POSTSCRIPT_FIGURE
1002
{
1000
PSFILL
1000
Grayscale
1000
Grayscale
1070
   100
1002
}
  0
LINE
  5
1D0BA
  8
YODOROGO
 10
13968.80217064596
 20
942.2841744681491
 30
0.0
 11
13952.80217064596
 21
942.28417446815024
 31
0.0
1001
AUTOCAD_POSTSCRIPT_FIGURE
1002
{
1000
PSFILL
1000
Grayscale
1000
Grayscale
1070
   100
1002
}
  0
LINE
  5
1D0BB
  8
YODOROGO
 10
13968.80217064596
 20
950.28417446814944
 30
0.0
 11
13968.80217064596
 21
942.2841744681491
 31
0.0
1001
AUTOCAD_POSTSCRIPT_FIGURE
1002
{
1000
PSFILL
1000
Grayscale
1000
Grayscale
1070
   100
1002
}
  0
LINE
  5
1D0BC
  8
YODOROGO
 10
13952.80217064596
 20
950.28417446814944
 30
0.0
 11
13968.80217064596
 21
950.28417446814944
 31
0.0
1001
AUTOCAD_POSTSCRIPT_FIGURE
1002
{
1000
PSFILL
1000
Grayscale
1000
Grayscale
1070
   100
1002
}
  0
LINE
  5
1D0BD
  8
YODOROGO
 10
13952.80217064596
 20
969.87474821464411
 30
0.0
 11
13952.80217064596
 21
950.28417446814944
 31
0.0
1001
AUTOCAD_POSTSCRIPT_FIGURE
1002
{
1000
PSFILL
1000
Grayscale
1000
Grayscale
1070
   100
1002
}
  0
LINE
  5
1D0BE
  8
YODOROGO
 10
13968.80217064596
 20
969.87474821464411
 30
0.0
 11
13952.80217064596
 21
969.87474821464411
 31
0.0
1001
AUTOCAD_POSTSCRIPT_FIGURE
1002
{
1000
PSFILL
1000
Grayscale
1000
Grayscale
1070
   100
1002
}
  0
LINE
  5
1D0BF
  8
YODOROGO
 10
13968.80217064596
 20
977.87474821464355
 30
0.0
 11
13968.80217064596
 21
969.87474821464411
 31
0.0
1001
AUTOCAD_POSTSCRIPT_FIGURE
1002
{
1000
PSFILL
1000
Grayscale
1000
Grayscale
1070
   100
1002
}
  0
LINE
  5
1D0C0
  8
YODOROGO
 10
13952.80217064596
 20
977.87474821464355
 30
0.0
 11
13968.80217064596
 21
977.87474821464355
 31
0.0
1001
AUTOCAD_POSTSCRIPT_FIGURE
1002
{
1000
PSFILL
1000
Grayscale
1000
Grayscale
1070
   100
1002
}
  0
LINE
  5
1D0C1
  8
YODOROGO
 10
13952.80217064596
 20
989.87474821464434
 30
0.0
 11
13952.80217064596
 21
977.87474821464355
 31
0.0
1001
AUTOCAD_POSTSCRIPT_FIGURE
1002
{
1000
PSFILL
1000
Grayscale
1000
Grayscale
1070
   100
1002
}
  0
LINE
  5
1D0C2
  8
YODOROGO
 10
13944.80217064596
 20
989.87474821464434
 30
0.0
 11
13952.80217064596
 21
989.87474821464434
 31
0.0
1001
AUTOCAD_POSTSCRIPT_FIGURE
1002
{
1000
PSFILL
1000
Grayscale
1000
Grayscale
1070
   100
1002
}
  0
LINE
  5
1D0C3
  8
YODOROGO
 10
13944.80217064596
 20
977.87474821464355
 30
0.0
 11
13944.80217064596
 21
989.87474821464434
 31
0.0
1001
AUTOCAD_POSTSCRIPT_FIGURE
1002
{
1000
PSFILL
1000
Grayscale
1000
Grayscale
1070
   100
1002
}
  0
LINE
  5
1D0C4
  8
YODOROGO
 10
13932.80217064596
 20
977.87474821464355
 30
0.0
 11
13944.80217064596
 21
977.87474821464355
 31
0.0
1001
AUTOCAD_POSTSCRIPT_FIGURE
1002
{
1000
PSFILL
1000
Grayscale
1000
Grayscale
1070
   100
1002
}
  0
LINE
  5
1D0C5
  8
YODOROGO
 10
13932.80217064596
 20
989.87474821464434
 30
0.0
 11
13932.80217064596
 21
977.87474821464355
 31
0.0
1001
AUTOCAD_POSTSCRIPT_FIGURE
1002
{
1000
PSFILL
1000
Grayscale
1000
Grayscale
1070
   100
1002
}
  0
LINE
  5
1D0C6
  8
YODOROGO
 10
13924.80217064596
 20
989.87474821464434
 30
0.0
 11
13932.80217064596
 21
989.87474821464434
 31
0.0
1001
AUTOCAD_POSTSCRIPT_FIGURE
1002
{
1000
PSFILL
1000
Grayscale
1000
Grayscale
1070
   100
1002
}
  0
LINE
  5
1D0C7
  8
YODOROGO
 10
13924.80217064596
 20
977.87474821464355
 30
0.0
 11
13924.80217064596
 21
989.87474821464434
 31
0.0
1001
AUTOCAD_POSTSCRIPT_FIGURE
1002
{
1000
PSFILL
1000
Grayscale
1000
Grayscale
1070
   100
1002
}
  0
LINE
  5
1D0C8
  8
YODOROGO
 10
13908.80217064596
 20
977.87474821464355
 30
0.0
 11
13924.80217064596
 21
977.87474821464355
 31
0.0
1001
AUTOCAD_POSTSCRIPT_FIGURE
1002
{
1000
PSFILL
1000
Grayscale
1000
Grayscale
1070
   100
1002
}
  0
LINE
  5
1D0C9
  8
YODOROGO
 10
13908.80217064596
 20
989.87474821464434
 30
0.0
 11
13908.80217064596
 21
977.87474821464355
 31
0.0
1001
AUTOCAD_POSTSCRIPT_FIGURE
1002
{
1000
PSFILL
1000
Grayscale
1000
Grayscale
1070
   100
1002
}
  0
LINE
  5
1D0CA
  8
YODOROGO
 10
13900.80217064596
 20
989.87474821464434
 30
0.0
 11
13908.80217064596
 21
989.87474821464434
 31
0.0
1001
AUTOCAD_POSTSCRIPT_FIGURE
1002
{
1000
PSFILL
1000
Grayscale
1000
Grayscale
1070
   100
1002
}
  0
LINE
  5
1D0CB
  8
YODOROGO
 10
13900.80217064596
 20
977.87474821464355
 30
0.0
 11
13900.80217064596
 21
989.87474821464434
 31
0.0
1001
AUTOCAD_POSTSCRIPT_FIGURE
1002
{
1000
PSFILL
1000
Grayscale
1000
Grayscale
1070
   100
1002
}
  0
LINE
  5
1D0CC
  8
YODOROGO
 10
13888.80217064596
 20
977.87474821464355
 30
0.0
 11
13900.80217064596
 21
977.87474821464355
 31
0.0
1001
AUTOCAD_POSTSCRIPT_FIGURE
1002
{
1000
PSFILL
1000
Grayscale
1000
Grayscale
1070
   100
1002
}
  0
LINE
  5
1D0CD
  8
YODOROGO
 10
13888.80217064596
 20
969.87474821464411
 30
0.0
 11
13888.80217064596
 21
977.87474821464355
 31
0.0
1001
AUTOCAD_POSTSCRIPT_FIGURE
1002
{
1000
PSFILL
1000
Grayscale
1000
Grayscale
1070
   100
1002
}
  0
LINE
  5
1D0CE
  8
YODOROGO
 10
13900.80217064596
 20
969.87474821464411
 30
0.0
 11
13888.80217064596
 21
969.87474821464411
 31
0.0
1001
AUTOCAD_POSTSCRIPT_FIGURE
1002
{
1000
PSFILL
1000
Grayscale
1000
Grayscale
1070
   100
1002
}
  0
LINE
  5
1D0CF
  8
YODOROGO
 10
13900.80217064596
 20
957.39329039685242
 30
0.0
 11
13900.80217064596
 21
969.87474821464411
 31
0.0
1001
AUTOCAD_POSTSCRIPT_FIGURE
1002
{
1000
PSFILL
1000
Grayscale
1000
Grayscale
1070
   100
1002
}
  0
LINE
  5
1D0D0
  8
YODOROGO
 10
13888.80217064596
 20
929.88837397583552
 30
0.0
 11
13900.80217064596
 21
957.39329039685242
 31
0.0
1001
AUTOCAD_POSTSCRIPT_FIGURE
1002
{
1000
PSFILL
1000
Grayscale
1000
Grayscale
1070
   100
1002
}
  0
LINE
  5
1D0D1
  8
YODOROGO
 10
13888.80217064596
 20
921.8883739758362
 30
0.0
 11
13888.80217064596
 21
929.88837397583552
 31
0.0
1001
AUTOCAD_POSTSCRIPT_FIGURE
1002
{
1000
PSFILL
1000
Grayscale
1000
Grayscale
1070
   100
1002
}
  0
LINE
  5
1D0D2
  8
YODOROGO
 10
14128.80217064596
 20
933.87474821464389
 30
0.0
 11
14200.80217064594
 21
912.4388128201532
 31
0.0
1001
AUTOCAD_POSTSCRIPT_FIGURE
1002
{
1000
PSFILL
1000
Grayscale
1000
Grayscale
1070
   100
1002
}
  0
LINE
  5
1D0D3
  8
YODOROGO
 10
14200.80217064594
 20
876.43881282015309
 30
0.0
 11
14128.80217064596
 21
897.87474821464355
 31
0.0
1001
AUTOCAD_POSTSCRIPT_FIGURE
1002
{
1000
PSFILL
1000
Grayscale
1000
Grayscale
1070
   100
1002
}
  0
LINE
  5
1D0D4
  8
YODOROGO
 10
14200.80217064594
 20
992.43881282015309
 30
0.0
 11
14128.80217064596
 21
1013.874748214644
 31
0.0
1001
AUTOCAD_POSTSCRIPT_FIGURE
1002
{
1000
PSFILL
1000
Grayscale
1000
Grayscale
1070
   100
1002
}
  0
LINE
  5
1D0D5
  8
YODOROGO
 10
14128.80217064596
 20
979.874748214644
 30
0.0
 11
14200.80217064594
 21
958.43881282015366
 31
0.0
1001
AUTOCAD_POSTSCRIPT_FIGURE
1002
{
1000
PSFILL
1000
Grayscale
1000
Grayscale
1070
   100
1002
}
  0
LINE
  5
1D0D6
  8
YODOROGO
 10
14128.80217064596
 20
897.87474821464355
 30
0.0
 11
14128.80217064596
 21
933.87474821464389
 31
0.0
1001
AUTOCAD_POSTSCRIPT_FIGURE
1002
{
1000
PSFILL
1000
Grayscale
1000
Grayscale
1070
   100
1002
}
  0
LINE
  5
1D0D7
  8
YODOROGO
 10
14128.80217064596
 20
1013.874748214644
 30
0.0
 11
14128.80217064596
 21
979.874748214644
 31
0.0
1001
AUTOCAD_POSTSCRIPT_FIGURE
1002
{
1000
PSFILL
1000
Grayscale
1000
Grayscale
1070
   100
1002
}
  0
LINE
  5
1D0D8
  8
YODOROGO
 10
14040.11816010337
 20
969.87474821464411
 30
0.0
 11
14064.802170645949
 21
873.87474821464343
 31
0.0
1001
AUTOCAD_POSTSCRIPT_FIGURE
1002
{
1000
PSFILL
1000
Grayscale
1000
Grayscale
1070
   100
1002
}
  0
LINE
  5
1D0D9
  8
YODOROGO
 10
13988.80217064596
 20
969.87474821464411
 30
0.0
 11
14040.11816010337
 21
969.87474821464411
 31
0.0
1001
AUTOCAD_POSTSCRIPT_FIGURE
1002
{
1000
PSFILL
1000
Grayscale
1000
Grayscale
1070
   100
1002
}
  0
LINE
  5
1D0DA
  8
YODOROGO
 10
13988.80217064596
 20
977.87474821464355
 30
0.0
 11
13988.80217064596
 21
969.87474821464411
 31
0.0
1001
AUTOCAD_POSTSCRIPT_FIGURE
1002
{
1000
PSFILL
1000
Grayscale
1000
Grayscale
1070
   100
1002
}
  0
LINE
  5
1D0DB
  8
YODOROGO
 10
14038.303439259949
 20
977.87474821464355
 30
0.0
 11
13988.80217064596
 21
977.87474821464355
 31
0.0
1001
AUTOCAD_POSTSCRIPT_FIGURE
1002
{
1000
PSFILL
1000
Grayscale
1000
Grayscale
1070
   100
1002
}
  0
LINE
  5
1D0DC
  8
YODOROGO
 10
14035.58135799485
 20
989.87474821464434
 30
0.0
 11
14038.303439259949
 21
977.87474821464355
 31
0.0
1001
AUTOCAD_POSTSCRIPT_FIGURE
1002
{
1000
PSFILL
1000
Grayscale
1000
Grayscale
1070
   100
1002
}
  0
LINE
  5
1D0DD
  8
YODOROGO
 10
14045.58135799485
 20
989.87474821464434
 30
0.0
 11
14035.58135799485
 21
989.87474821464434
 31
0.0
1001
AUTOCAD_POSTSCRIPT_FIGURE
1002
{
1000
PSFILL
1000
Grayscale
1000
Grayscale
1070
   100
1002
}
  0
LINE
  5
1D0DE
  8
YODOROGO
 10
14047.90343925997
 20
977.87474821464355
 30
0.0
 11
14045.58135799485
 21
989.87474821464434
 31
0.0
1001
AUTOCAD_POSTSCRIPT_FIGURE
1002
{
1000
PSFILL
1000
Grayscale
1000
Grayscale
1070
   100
1002
}
  0
LINE
  5
1D0DF
  8
YODOROGO
 10
14060.80217064596
 20
977.87474821464355
 30
0.0
 11
14047.90343925997
 21
977.87474821464355
 31
0.0
1001
AUTOCAD_POSTSCRIPT_FIGURE
1002
{
1000
PSFILL
1000
Grayscale
1000
Grayscale
1070
   100
1002
}
  0
LINE
  5
1D0E0
  8
YODOROGO
 10
14060.80217064596
 20
989.87474821464434
 30
0.0
 11
14060.80217064596
 21
977.87474821464355
 31
0.0
1001
AUTOCAD_POSTSCRIPT_FIGURE
1002
{
1000
PSFILL
1000
Grayscale
1000
Grayscale
1070
   100
1002
}
  0
LINE
  5
1D0E1
  8
YODOROGO
 10
14068.80217064596
 20
989.87474821464434
 30
0.0
 11
14060.80217064596
 21
989.87474821464434
 31
0.0
1001
AUTOCAD_POSTSCRIPT_FIGURE
1002
{
1000
PSFILL
1000
Grayscale
1000
Grayscale
1070
   100
1002
}
  0
LINE
  5
1D0E2
  8
YODOROGO
 10
14068.80217064596
 20
977.87474821464355
 30
0.0
 11
14068.80217064596
 21
989.87474821464434
 31
0.0
1001
AUTOCAD_POSTSCRIPT_FIGURE
1002
{
1000
PSFILL
1000
Grayscale
1000
Grayscale
1070
   100
1002
}
  0
LINE
  5
1D0E3
  8
YODOROGO
 10
14068.80217064596
 20
969.87474821464411
 30
0.0
 11
14068.80217064596
 21
977.87474821464355
 31
0.0
1001
AUTOCAD_POSTSCRIPT_FIGURE
1002
{
1000
PSFILL
1000
Grayscale
1000
Grayscale
1070
   100
1002
}
  0
LINE
  5
1D0E4
  8
YODOROGO
 10
14049.451493436711
 20
969.87474821464411
 30
0.0
 11
14068.80217064596
 21
969.87474821464411
 31
0.0
1001
AUTOCAD_POSTSCRIPT_FIGURE
1002
{
1000
PSFILL
1000
Grayscale
1000
Grayscale
1070
   100
1002
}
  0
LINE
  5
1D0E5
  8
YODOROGO
 10
14068.80217064596
 20
873.87474821464343
 30
0.0
 11
14049.451493436711
 21
969.87474821464411
 31
0.0
1001
AUTOCAD_POSTSCRIPT_FIGURE
1002
{
1000
PSFILL
1000
Grayscale
1000
Grayscale
1070
   100
1002
}
  0
LINE
  5
1D0E6
  8
YODOROGO
 10
14064.802170645949
 20
873.87474821464343
 30
0.0
 11
14068.80217064596
 21
873.87474821464343
 31
0.0
1001
AUTOCAD_POSTSCRIPT_FIGURE
1002
{
1000
PSFILL
1000
Grayscale
1000
Grayscale
1070
   100
1002
}
  0
LINE
  5
1D0E7
  8
YODOROGO
 10
14039.03460996689
 20
887.87038814939717
 30
0.0
 11
13988.80217064596
 21
873.87474821464343
 31
0.0
  0
LINE
  5
1D0E8
  8
YODOROGO
 10
14039.03460996689
 20
899.33448976453644
 30
0.0
 11
14039.03460996689
 21
887.87038814939717
 31
0.0
  0
LINE
  5
1D0E9
  8
YODOROGO
 10
14016.91839030643
 20
893.40846656688336
 30
0.0
 11
14039.03460996689
 21
899.33448976453644
 31
0.0
  0
LINE
  5
1D0EA
  8
YODOROGO
 10
14016.91839030643
 20
936.2841744681499
 30
0.0
 11
14016.91839030643
 21
893.40846656688336
 31
0.0
  0
LINE
  5
1D0EB
  8
YODOROGO
 10
14039.03460996689
 20
936.2841744681499
 30
0.0
 11
14016.91839030643
 21
936.2841744681499
 31
0.0
  0
LINE
  5
1D0EC
  8
YODOROGO
 10
14039.03460996689
 20
946.28417446814865
 30
0.0
 11
14039.03460996689
 21
936.2841744681499
 31
0.0
  0
LINE
  5
1D0ED
  8
YODOROGO
 10
13988.80217064596
 20
946.28417446814865
 30
0.0
 11
14039.03460996689
 21
946.28417446814865
 31
0.0
  0
LINE
  5
1D0EE
  8
YODOROGO
 10
13988.80217064596
 20
936.2841744681499
 30
0.0
 11
13988.80217064596
 21
946.28417446814865
 31
0.0
  0
LINE
  5
1D0EF
  8
YODOROGO
 10
14010.91839030643
 20
936.2841744681499
 30
0.0
 11
13988.80217064596
 21
936.2841744681499
 31
0.0
  0
LINE
  5
1D0F0
  8
YODOROGO
 10
14010.91839030643
 20
892.33666979715872
 30
0.0
 11
14010.91839030643
 21
936.2841744681499
 31
0.0
  0
LINE
  5
1D0F1
  8
YODOROGO
 10
13988.80217064596
 20
885.8747482146432
 30
0.0
 11
14010.91839030643
 21
892.33666979715872
 31
0.0
  0
LINE
  5
1D0F2
  8
YODOROGO
 10
13988.80217064596
 20
873.87474821464343
 30
0.0
 11
13988.80217064596
 21
885.8747482146432
 31
0.0
  0
LINE
  5
1D0F3
  8
YODOROGO
 10
14000.80217064596
 20
853.874748214644
 30
0.0
 11
14000.80217064596
 21
841.87474821464343
 31
0.0
  0
LINE
  5
1D0F4
  8
YODOROGO
 10
14008.80217064596
 20
853.874748214644
 30
0.0
 11
14000.80217064596
 21
853.874748214644
 31
0.0
  0
LINE
  5
1D0F5
  8
YODOROGO
 10
14008.80217064596
 20
841.87474821464343
 30
0.0
 11
14008.80217064596
 21
853.874748214644
 31
0.0
  0
LINE
  5
1D0F6
  8
YODOROGO
 10
14020.45660200844
 20
841.87474821464343
 30
0.0
 11
14008.80217064596
 21
841.87474821464343
 31
0.0
  0
LINE
  5
1D0F7
  8
YODOROGO
 10
14000.80217064596
 20
841.87474821464343
 30
0.0
 11
13988.80217064596
 21
841.87474821464343
 31
0.0
  0
LINE
  5
1D0F8
  8
YODOROGO
 10
14041.06776011546
 20
853.874748214644
 30
0.0
 11
14049.067760115449
 21
853.874748214644
 31
0.0
1001
AUTOCAD_POSTSCRIPT_FIGURE
1002
{
1000
PSFILL
1000
Grayscale
1000
Grayscale
1070
   100
1002
}
  0
LINE
  5
1D0F9
  8
YODOROGO
 10
14200.80217064594
 20
912.4388128201532
 30
0.0
 11
14200.80217064594
 21
876.43881282015309
 31
0.0
1001
AUTOCAD_POSTSCRIPT_FIGURE
1002
{
1000
PSFILL
1000
Grayscale
1000
Grayscale
1070
   100
1002
}
  0
LINE
  5
1D0FA
  8
YODOROGO
 10
14200.80217064594
 20
958.43881282015366
 30
0.0
 11
14200.80217064594
 21
992.43881282015309
 31
0.0
1001
AUTOCAD_POSTSCRIPT_FIGURE
1002
{
1000
PSFILL
1000
Grayscale
1000
Grayscale
1070
   100
1002
}
  0
LINE
  5
1D0FB
  8
YODOROGO
 10
14216.80217064594
 20
909.87474821464389
 30
0.0
 11
14216.80217064594
 21
873.87474821464491
 31
0.0
  0
LINE
  5
1D0FC
  8
YODOROGO
 10
14248.80217064594
 20
853.874748214644
 30
0.0
 11
14216.80217064594
 21
853.874748214644
 31
0.0
  0
LINE
  5
1D0FD
  8
YODOROGO
 10
14216.80217064594
 20
873.87474821464491
 30
0.0
 11
14292.80217064596
 21
873.87474821464491
 31
0.0
  0
LINE
  5
1D0FE
  8
YODOROGO
 10
14248.80217064594
 20
933.87474821464389
 30
0.0
 11
14216.80217064594
 21
933.87474821464389
 31
0.0
  0
LINE
  5
1D0FF
  8
YODOROGO
 10
14248.80217064594
 20
961.8747482146432
 30
0.0
 11
14248.80217064594
 21
933.87474821464389
 31
0.0
  0
LINE
  5
1D100
  8
YODOROGO
 10
14292.80217064596
 20
993.87474821464389
 30
0.0
 11
14292.80217064596
 21
1013.874748214644
 31
0.0
  0
LINE
  5
1D101
  8
YODOROGO
 10
14216.80217064594
 20
993.87474821464389
 30
0.0
 11
14292.80217064596
 21
993.87474821464389
 31
0.0
  0
LINE
  5
1D102
  8
YODOROGO
 10
14216.80217064594
 20
933.87474821464389
 30
0.0
 11
14216.80217064594
 21
993.87474821464389
 31
0.0
  0
LINE
  5
1D103
  8
YODOROGO
 10
14500.80217064594
 20
1013.874748214644
 30
0.0
 11
14500.80217064594
 21
809.87474821464411
 31
0.0
  0
LINE
  5
1D104
  8
YODOROGO
 10
14536.80217064596
 20
789.87474821464411
 30
0.0
 11
14536.80217064596
 21
1013.874748214644
 31
0.0
  0
LINE
  5
1D105
  8
YODOROGO
 10
14630.80217064596
 20
745.87474821464309
 30
0.0
 11
14630.80217064596
 21
1003.874748214644
 31
0.0
  0
LINE
  5
1D106
  8
YODOROGO
 10
14598.80217064596
 20
1003.874748214644
 30
0.0
 11
14598.80217064596
 21
745.87474821464309
 31
0.0
  0
LINE
  5
1D107
  8
YODOROGO
 10
14692.80217064596
 20
1013.874748214644
 30
0.0
 11
14692.80217064596
 21
713.87474821464355
 31
0.0
  0
LINE
  5
1D108
  8
YODOROGO
 10
14728.80217064596
 20
713.87474821464355
 30
0.0
 11
14728.80217064596
 21
1013.874748214644
 31
0.0
  0
LINE
  5
1D109
  8
YODOROGO
 10
14328.80217064594
 20
833.87474821464389
 30
0.0
 11
14328.80217064594
 21
873.87474821464491
 31
0.0
  0
LINE
  5
1D10A
  8
YODOROGO
 10
14942.80217064596
 20
853.874748214644
 30
0.0
 11
14942.80217064596
 21
833.87474821464389
 31
0.0
  0
LINE
  5
1D10B
  8
YODOROGO
 10
14942.80217064596
 20
853.874748214644
 30
0.0
 11
14942.80217064596
 21
833.87474821464389
 31
0.0
  0
ARC
  5
1D10C
  8
YODOROGO
 10
14453.455788093421
 20
809.10893222113634
 30
0.0
 40
47.352575589370822
 50
274.05244162907098
 51
0.9266642149310712
  0
ARC
  5
1D10D
  8
YODOROGO
 10
14454.5930853599
 20
796.30536430522
 30
0.0
 40
82.460211780427557
 50
271.53512106537772
 51
355.52727750585052
  0
LINE
  5
1D10E
  8
YODOROGO
 10
14456.80217064596
 20
761.87474821464343
 30
0.0
 11
14456.80217064596
 21
713.87474821464355
 31
0.0
  0
LINE
  5
1D10F
  8
YODOROGO
 10
14396.80217064594
 20
833.87474821464389
 30
0.0
 11
14328.80217064594
 21
833.87474821464389
 31
0.0
  0
LINE
  5
1D110
  8
YODOROGO
 10
14396.80217064594
 20
801.87474821464434
 30
0.0
 11
14396.80217064594
 21
833.87474821464389
 31
0.0
  0
LINE
  5
1D111
  8
YODOROGO
 10
14328.80217064594
 20
801.87474821464434
 30
0.0
 11
14396.80217064594
 21
801.87474821464434
 31
0.0
  0
LINE
  5
1D112
  8
YODOROGO
 10
14328.80217064594
 20
761.87474821464343
 30
0.0
 11
14328.80217064594
 21
801.87474821464434
 31
0.0
  0
LINE
  5
1D113
  8
YODOROGO
 10
14396.80217064594
 20
761.87474821464343
 30
0.0
 11
14328.80217064594
 21
761.87474821464343
 31
0.0
  0
LINE
  5
1D114
  8
YODOROGO
 10
14396.80217064594
 20
713.87474821464355
 30
0.0
 11
14396.80217064594
 21
761.87474821464343
 31
0.0
  0
LINE
  5
1D115
  8
YODOROGO
 10
14598.80217064596
 20
745.87474821464309
 30
0.0
 11
14630.80217064596
 21
745.87474821464309
 31
0.0
  0
LINE
  5
1D116
  8
YODOROGO
 10
14692.80217064596
 20
713.87474821464355
 30
0.0
 11
14728.80217064596
 21
713.87474821464355
 31
0.0
  0
LINE
  5
1D117
  8
YODOROGO
 10
14868.80217064596
 20
764.22072608528163
 30
0.0
 11
14868.80217064596
 21
713.87474821464355
 31
0.0
  0
LINE
  5
1D118
  8
YODOROGO
 10
14808.80217064596
 20
713.87474821464355
 30
0.0
 11
14868.80217064596
 21
764.22072608528163
 31
0.0
  0
LINE
  5
1D119
  8
YODOROGO
 10
14808.80217064596
 20
773.874748214644
 30
0.0
 11
14808.80217064596
 21
713.87474821464355
 31
0.0
  0
LINE
  5
1D11A
  8
YODOROGO
 10
14856.47231434973
 20
813.87474821464355
 30
0.0
 11
14808.80217064596
 21
773.874748214644
 31
0.0
  0
LINE
  5
1D11B
  8
YODOROGO
 10
14808.80217064596
 20
813.87474821464355
 30
0.0
 11
14856.47231434973
 21
813.87474821464355
 31
0.0
  0
LINE
  5
1D11C
  8
YODOROGO
 10
14808.80217064596
 20
833.87474821464389
 30
0.0
 11
14808.80217064596
 21
813.87474821464355
 31
0.0
  0
LINE
  5
1D11D
  8
YODOROGO
 10
14942.80217064596
 20
833.87474821464389
 30
0.0
 11
14808.80217064596
 21
833.87474821464389
 31
0.0
  0
LINE
  5
1D11E
  8
YODOROGO
 10
14958.80217064596
 20
813.87474821464355
 30
0.0
 11
14888.80217064596
 21
813.87474821464355
 31
0.0
  0
LINE
  5
1D11F
  8
YODOROGO
 10
14888.80217064596
 20
781.0027187088283
 30
0.0
 11
14885.704936492641
 21
778.403830673117
 31
0.0
  0
LINE
  5
1D120
  8
YODOROGO
 10
14888.80217064596
 20
813.87474821464355
 30
0.0
 11
14888.80217064596
 21
781.0027187088283
 31
0.0
  0
LINE
  5
1D121
  8
YODOROGO
 10
14868.80217064596
 20
764.22072608528163
 30
0.0
 11
14868.80217064596
 21
713.87474821464355
 31
0.0
  0
LINE
  5
1D122
  8
YODOROGO
 10
14808.80217064596
 20
713.87474821464355
 30
0.0
 11
14868.80217064596
 21
764.22072608528163
 31
0.0
  0
LINE
  5
1D123
  8
YODOROGO
 10
14808.80217064596
 20
773.874748214644
 30
0.0
 11
14808.80217064596
 21
713.87474821464355
 31
0.0
  0
LINE
  5
1D124
  8
YODOROGO
 10
14856.47231434973
 20
813.87474821464355
 30
0.0
 11
14808.80217064596
 21
773.874748214644
 31
0.0
  0
LINE
  5
1D125
  8
YODOROGO
 10
14808.80217064596
 20
813.87474821464355
 30
0.0
 11
14856.47231434973
 21
813.87474821464355
 31
0.0
  0
LINE
  5
1D126
  8
YODOROGO
 10
14808.80217064596
 20
833.87474821464389
 30
0.0
 11
14808.80217064596
 21
813.87474821464355
 31
0.0
  0
LINE
  5
1D127
  8
YODOROGO
 10
14942.80217064596
 20
833.87474821464389
 30
0.0
 11
14808.80217064596
 21
833.87474821464389
 31
0.0
  0
LINE
  5
1D128
  8
YODOROGO
 10
14396.80217064594
 20
873.87474821464491
 30
0.0
 11
14396.80217064594
 21
909.87474821464389
 31
0.0
  0
LINE
  5
1D129
  8
YODOROGO
 10
14328.80217064594
 20
873.87474821464491
 30
0.0
 11
14396.80217064594
 21
873.87474821464491
 31
0.0
  0
LINE
  5
1D12A
  8
YODOROGO
 10
14364.80217064596
 20
933.87474821464389
 30
0.0
 11
14364.80217064596
 21
961.8747482146432
 31
0.0
  0
LINE
  5
1D12B
  8
YODOROGO
 10
14396.80217064594
 20
933.87474821464389
 30
0.0
 11
14364.80217064596
 21
933.87474821464389
 31
0.0
  0
LINE
  5
1D12C
  8
YODOROGO
 10
14396.80217064594
 20
973.87474821464343
 30
0.0
 11
14396.80217064594
 21
933.87474821464389
 31
0.0
  0
ARC
  5
1D12D
  8
YODOROGO
 10
14376.80217064594
 20
973.87474821464343
 30
0.0
 40
20.0
 50
0.0
 51
90.0
  0
LINE
  5
1D12E
  8
YODOROGO
 10
14328.80217064596
 20
993.87474821464389
 30
0.0
 11
14376.80217064594
 21
993.87474821464389
 31
0.0
  0
LINE
  5
1D12F
  8
YODOROGO
 10
14328.80217064596
 20
1013.874748214644
 30
0.0
 11
14328.80217064596
 21
993.87474821464389
 31
0.0
  0
LINE
  5
1D130
  8
YODOROGO
 10
14536.80217064596
 20
1013.874748214644
 30
0.0
 11
14500.80217064594
 21
1013.874748214644
 31
0.0
  0
LINE
  5
1D131
  8
YODOROGO
 10
14630.80217064596
 20
1003.874748214644
 30
0.0
 11
14598.80217064596
 21
1003.874748214644
 31
0.0
  0
LINE
  5
1D132
  8
YODOROGO
 10
14728.80217064596
 20
1013.874748214644
 30
0.0
 11
14692.80217064596
 21
1013.874748214644
 31
0.0
  0
LINE
  5
1D133
  8
YODOROGO
 10
14836.80217064596
 20
853.874748214644
 30
0.0
 11
14836.80217064596
 21
885.87474821464411
 31
0.0
1001
AUTOCAD_POSTSCRIPT_FIGURE
1002
{
1000
PSFILL
1000
Grayscale
1000
Grayscale
1070
    25
1002
}
  0
LINE
  5
1D134
  8
YODOROGO
 10
14808.80217064596
 20
853.874748214644
 30
0.0
 11
14836.80217064596
 21
853.874748214644
 31
0.0
1001
AUTOCAD_POSTSCRIPT_FIGURE
1002
{
1000
PSFILL
1000
Grayscale
1000
Grayscale
1070
    25
1002
}
  0
LINE
  5
1D135
  8
YODOROGO
 10
14808.80217064596
 20
909.87474821464389
 30
0.0
 11
14808.80217064596
 21
853.874748214644
 31
0.0
1001
AUTOCAD_POSTSCRIPT_FIGURE
1002
{
1000
PSFILL
1000
Grayscale
1000
Grayscale
1070
    25
1002
}
  0
LINE
  5
1D136
  8
YODOROGO
 10
14882.80217064596
 20
909.87474821464389
 30
0.0
 11
14808.80217064596
 21
909.87474821464389
 31
0.0
1001
AUTOCAD_POSTSCRIPT_FIGURE
1002
{
1000
PSFILL
1000
Grayscale
1000
Grayscale
1070
    25
1002
}
  0
LINE
  5
1D137
  8
YODOROGO
 10
14882.80217064596
 20
929.874748214644
 30
0.0
 11
14882.80217064596
 21
909.87474821464389
 31
0.0
1001
AUTOCAD_POSTSCRIPT_FIGURE
1002
{
1000
PSFILL
1000
Grayscale
1000
Grayscale
1070
    25
1002
}
  0
LINE
  5
1D138
  8
YODOROGO
 10
14808.80217064596
 20
929.874748214644
 30
0.0
 11
14882.80217064596
 21
929.874748214644
 31
0.0
1001
AUTOCAD_POSTSCRIPT_FIGURE
1002
{
1000
PSFILL
1000
Grayscale
1000
Grayscale
1070
    25
1002
}
  0
LINE
  5
1D139
  8
YODOROGO
 10
14808.80217064596
 20
953.874748214644
 30
0.0
 11
14808.80217064596
 21
929.874748214644
 31
0.0
1001
AUTOCAD_POSTSCRIPT_FIGURE
1002
{
1000
PSFILL
1000
Grayscale
1000
Grayscale
1070
    25
1002
}
  0
LINE
  5
1D13A
  8
YODOROGO
 10
14882.80217064596
 20
953.874748214644
 30
0.0
 11
14808.80217064596
 21
953.874748214644
 31
0.0
1001
AUTOCAD_POSTSCRIPT_FIGURE
1002
{
1000
PSFILL
1000
Grayscale
1000
Grayscale
1070
    25
1002
}
  0
LINE
  5
1D13B
  8
YODOROGO
 10
14882.80217064596
 20
973.87474821464343
 30
0.0
 11
14882.80217064596
 21
953.874748214644
 31
0.0
1001
AUTOCAD_POSTSCRIPT_FIGURE
1002
{
1000
PSFILL
1000
Grayscale
1000
Grayscale
1070
    25
1002
}
  0
LINE
  5
1D13C
  8
YODOROGO
 10
14808.80217064596
 20
973.87474821464343
 30
0.0
 11
14882.80217064596
 21
973.87474821464343
 31
0.0
1001
AUTOCAD_POSTSCRIPT_FIGURE
1002
{
1000
PSFILL
1000
Grayscale
1000
Grayscale
1070
    25
1002
}
  0
LINE
  5
1D13D
  8
YODOROGO
 10
14808.80217064596
 20
1013.874748214644
 30
0.0
 11
14808.80217064596
 21
973.87474821464343
 31
0.0
1001
AUTOCAD_POSTSCRIPT_FIGURE
1002
{
1000
PSFILL
1000
Grayscale
1000
Grayscale
1070
    25
1002
}
  0
LINE
  5
1D13E
  8
YODOROGO
 10
14832.80217064596
 20
1013.874748214644
 30
0.0
 11
14808.80217064596
 21
1013.874748214644
 31
0.0
1001
AUTOCAD_POSTSCRIPT_FIGURE
1002
{
1000
PSFILL
1000
Grayscale
1000
Grayscale
1070
    25
1002
}
  0
LINE
  5
1D13F
  8
YODOROGO
 10
14832.80217064596
 20
997.87474821464355
 30
0.0
 11
14832.80217064596
 21
1013.874748214644
 31
0.0
1001
AUTOCAD_POSTSCRIPT_FIGURE
1002
{
1000
PSFILL
1000
Grayscale
1000
Grayscale
1070
    25
1002
}
  0
LINE
  5
1D140
  8
YODOROGO
 10
14882.80217064596
 20
997.87474821464355
 30
0.0
 11
14832.80217064596
 21
997.87474821464355
 31
0.0
1001
AUTOCAD_POSTSCRIPT_FIGURE
1002
{
1000
PSFILL
1000
Grayscale
1000
Grayscale
1070
    25
1002
}
  0
LINE
  5
1D141
  8
YODOROGO
 10
14882.80217064596
 20
1013.874748214644
 30
0.0
 11
14882.80217064596
 21
997.87474821464355
 31
0.0
1001
AUTOCAD_POSTSCRIPT_FIGURE
1002
{
1000
PSFILL
1000
Grayscale
1000
Grayscale
1070
    25
1002
}
  0
LINE
  5
1D142
  8
YODOROGO
 10
14914.80217064596
 20
1013.874748214644
 30
0.0
 11
14882.80217064596
 21
1013.874748214644
 31
0.0
1001
AUTOCAD_POSTSCRIPT_FIGURE
1002
{
1000
PSFILL
1000
Grayscale
1000
Grayscale
1070
    25
1002
}
  0
LINE
  5
1D143
  8
YODOROGO
 10
14914.80217064596
 20
997.87474821464355
 30
0.0
 11
14914.80217064596
 21
1013.874748214644
 31
0.0
1001
AUTOCAD_POSTSCRIPT_FIGURE
1002
{
1000
PSFILL
1000
Grayscale
1000
Grayscale
1070
    25
1002
}
  0
LINE
  5
1D144
  8
YODOROGO
 10
14914.80217064596
 20
953.874748214644
 30
0.0
 11
14914.80217064596
 21
973.87474821464343
 31
0.0
1001
AUTOCAD_POSTSCRIPT_FIGURE
1002
{
1000
PSFILL
1000
Grayscale
1000
Grayscale
1070
    25
1002
}
  0
LINE
  5
1D145
  8
YODOROGO
 10
14914.80217064596
 20
909.87474821464389
 30
0.0
 11
14914.80217064596
 21
929.874748214644
 31
0.0
1001
AUTOCAD_POSTSCRIPT_FIGURE
1002
{
1000
PSFILL
1000
Grayscale
1000
Grayscale
1070
    25
1002
}
  0
LINE
  5
1D146
  8
YODOROGO
 10
14960.80217064594
 20
885.87474821464411
 30
0.0
 11
14960.80217064594
 21
853.874748214644
 31
0.0
1001
AUTOCAD_POSTSCRIPT_FIGURE
1002
{
1000
PSFILL
1000
Grayscale
1000
Grayscale
1070
    25
1002
}
  0
LINE
  5
1D147
  8
YODOROGO
 10
14914.80217064596
 20
885.87474821464411
 30
0.0
 11
14960.80217064594
 21
885.87474821464411
 31
0.0
1001
AUTOCAD_POSTSCRIPT_FIGURE
1002
{
1000
PSFILL
1000
Grayscale
1000
Grayscale
1070
    25
1002
}
  0
LINE
  5
1D148
  8
YODOROGO
 10
14914.80217064596
 20
853.874748214644
 30
0.0
 11
14914.80217064596
 21
885.87474821464411
 31
0.0
1001
AUTOCAD_POSTSCRIPT_FIGURE
1002
{
1000
PSFILL
1000
Grayscale
1000
Grayscale
1070
    25
1002
}
  0
LINE
  5
1D149
  8
YODOROGO
 10
14882.80217064596
 20
853.874748214644
 30
0.0
 11
14914.80217064596
 21
853.874748214644
 31
0.0
1001
AUTOCAD_POSTSCRIPT_FIGURE
1002
{
1000
PSFILL
1000
Grayscale
1000
Grayscale
1070
    25
1002
}
  0
LINE
  5
1D14A
  8
YODOROGO
 10
14882.80217064596
 20
885.87474821464411
 30
0.0
 11
14882.80217064596
 21
853.874748214644
 31
0.0
1001
AUTOCAD_POSTSCRIPT_FIGURE
1002
{
1000
PSFILL
1000
Grayscale
1000
Grayscale
1070
    25
1002
}
  0
LINE
  5
1D14B
  8
YODOROGO
 10
14836.80217064596
 20
885.87474821464411
 30
0.0
 11
14882.80217064596
 21
885.87474821464411
 31
0.0
1001
AUTOCAD_POSTSCRIPT_FIGURE
1002
{
1000
PSFILL
1000
Grayscale
1000
Grayscale
1070
    25
1002
}
  0
ARC
  5
1D14C
  8
YODOROGO
 10
15529.75894667896
 20
801.34036875778816
 30
0.0
 40
89.110640555360774
 50
281.02627495425349
 51
357.77113575573799
  0
LINE
  5
1D14D
  8
YODOROGO
 10
15706.80217064596
 20
953.874748214644
 30
0.0
 11
15582.80217064596
 21
953.874748214644
 31
0.0
  0
LINE
  5
1D14E
  8
YODOROGO
 10
15706.80217064596
 20
1013.874748214644
 30
0.0
 11
15582.80217064596
 21
1013.874748214644
 31
0.0
  0
LINE
  5
1D14F
  8
YODOROGO
 10
15582.80217064596
 20
981.87474821464343
 30
0.0
 11
15706.80217064596
 21
981.87474821464343
 31
0.0
  0
LINE
  5
1D150
  8
YODOROGO
 10
15395.80217064596
 20
781.87474821464343
 30
0.0
 11
15395.80217064596
 21
877.87474821464355
 31
0.0
  0
LINE
  5
1D151
  8
YODOROGO
 10
15381.80217064596
 20
845.87474821464446
 30
0.0
 11
15381.80217064596
 21
781.87474821464343
 31
0.0
  0
LINE
  5
1D152
  8
YODOROGO
 10
15361.80217064596
 20
745.87474821464434
 30
0.0
 11
15361.80217064596
 21
845.87474821464446
 31
0.0
  0
LINE
  5
1D153
  8
YODOROGO
 10
15449.80217064596
 20
845.87474821464446
 30
0.0
 11
15449.80217064596
 21
745.87474821464434
 31
0.0
  0
LINE
  5
1D154
  8
YODOROGO
 10
15429.80217064596
 20
781.87474821464343
 30
0.0
 11
15429.80217064596
 21
845.87474821464446
 31
0.0
  0
LINE
  5
1D155
  8
YODOROGO
 10
15415.80217064596
 20
877.87474821464355
 30
0.0
 11
15415.80217064596
 21
781.87474821464343
 31
0.0
  0
LINE
  5
1D156
  8
YODOROGO
 10
15486.80217064596
 20
1013.874748214644
 30
0.0
 11
15486.80217064596
 21
733.87474821464355
 31
0.0
  0
LINE
  5
1D157
  8
YODOROGO
 10
15322.80217064596
 20
713.87474821464355
 30
0.0
 11
15322.80217064596
 21
1013.874748214644
 31
0.0
  0
LINE
  5
1D158
  8
YODOROGO
 10
15348.80217064596
 20
981.87474821464343
 30
0.0
 11
15348.80217064596
 21
713.87474821464355
 31
0.0
  0
LINE
  5
1D159
  8
YODOROGO
 10
15462.80217064596
 20
773.874748214644
 30
0.0
 11
15462.80217064596
 21
981.87474821464343
 31
0.0
  0
LINE
  5
1D15A
  8
YODOROGO
 10
15190.80217064596
 20
813.87474821464355
 30
0.0
 11
15190.80217064596
 21
839.87474821464434
 31
0.0
  0
LINE
  5
1D15B
  8
YODOROGO
 10
15308.80217064596
 20
839.87474821464434
 30
0.0
 11
15308.80217064596
 21
813.87474821464355
 31
0.0
  0
LINE
  5
1D15C
  8
YODOROGO
 10
15582.80217064596
 20
953.874748214644
 30
0.0
 11
15582.80217064596
 21
817.87474821464355
 31
0.0
  0
LINE
  5
1D15D
  8
YODOROGO
 10
14974.802170645949
 20
833.87474821464389
 30
0.0
 11
14974.802170645949
 21
853.874748214644
 31
0.0
  0
LINE
  5
1D15E
  8
YODOROGO
 10
14974.802170645949
 20
833.87474821464389
 30
0.0
 11
14974.802170645949
 21
853.874748214644
 31
0.0
  0
ARC
  5
1D15F
  8
YODOROGO
 10
15268.80217064596
 20
753.87474821464389
 30
0.0
 40
40.0
 50
270.0
 51
0.0
  0
LINE
  5
1D160
  8
YODOROGO
 10
15284.80217064596
 20
799.87474821464411
 30
0.0
 11
15308.80217064596
 21
799.87474821464411
 31
0.0
  0
LINE
  5
1D161
  8
YODOROGO
 10
15308.80217064596
 20
813.87474821464355
 30
0.0
 11
15264.80217064596
 21
813.87474821464355
 31
0.0
  0
LINE
  5
1D162
  8
YODOROGO
 10
15108.80217064596
 20
833.87474821464389
 30
0.0
 11
14974.802170645949
 21
833.87474821464389
 31
0.0
  0
LINE
  5
1D163
  8
YODOROGO
 10
15108.80217064596
 20
813.87474821464355
 30
0.0
 11
15108.80217064596
 21
833.87474821464389
 31
0.0
  0
LINE
  5
1D164
  8
YODOROGO
 10
15008.80217064596
 20
813.87474821464355
 30
0.0
 11
15108.80217064596
 21
813.87474821464355
 31
0.0
  0
ARC
  5
1D165
  8
YODOROGO
 10
15115.02941435068
 20
934.44285747645131
 30
0.0
 40
160.68881814261411
 50
228.6181454618993
 51
245.660289248906
  0
LINE
  5
1D166
  8
YODOROGO
 10
15052.80217064596
 20
801.87474821464434
 30
0.0
 11
15048.80217064598
 21
788.03640793495015
 31
0.0
  0
LINE
  5
1D167
  8
YODOROGO
 10
15094.80217064596
 20
801.87474821464434
 30
0.0
 11
15052.80217064596
 21
801.87474821464434
 31
0.0
  0
LINE
  5
1D168
  8
YODOROGO
 10
15088.80217064596
 20
775.90886123671339
 30
0.0
 11
15094.80217064596
 21
801.87474821464434
 31
0.0
  0
ARC
  5
1D169
  8
YODOROGO
 10
15115.029414350231
 20
934.44285747650133
 30
0.0
 40
160.68881814264529
 50
260.60629297969911
 51
267.77903556555862
  0
LINE
  5
1D16A
  8
YODOROGO
 10
15108.80217064596
 20
713.87474821464275
 30
0.0
 11
15108.80217064596
 21
773.874748214644
 31
0.0
  0
LINE
  5
1D16B
  8
YODOROGO
 10
14968.80217064596
 20
740.66966745775528
 30
0.0
 11
14968.80217064596
 21
797.26554526557049
 31
0.0
  0
LINE
  5
1D16C
  8
YODOROGO
 10
15108.80217064596
 20
833.87474821464389
 30
0.0
 11
14974.802170645949
 21
833.87474821464389
 31
0.0
  0
LINE
  5
1D16D
  8
YODOROGO
 10
15108.80217064596
 20
813.87474821464355
 30
0.0
 11
15108.80217064596
 21
833.87474821464389
 31
0.0
  0
LINE
  5
1D16E
  8
YODOROGO
 10
15008.80217064596
 20
813.87474821464355
 30
0.0
 11
15108.80217064596
 21
813.87474821464355
 31
0.0
  0
ARC
  5
1D16F
  8
YODOROGO
 10
15115.02941435068
 20
934.44285747645131
 30
0.0
 40
160.68881814261411
 50
228.6181454618993
 51
245.660289248906
  0
LINE
  5
1D170
  8
YODOROGO
 10
15052.80217064596
 20
801.87474821464434
 30
0.0
 11
15048.80217064598
 21
788.03640793495015
 31
0.0
  0
LINE
  5
1D171
  8
YODOROGO
 10
15094.80217064596
 20
801.87474821464434
 30
0.0
 11
15052.80217064596
 21
801.87474821464434
 31
0.0
  0
LINE
  5
1D172
  8
YODOROGO
 10
15088.80217064596
 20
775.90886123671339
 30
0.0
 11
15094.80217064596
 21
801.87474821464434
 31
0.0
  0
ARC
  5
1D173
  8
YODOROGO
 10
15115.029414350231
 20
934.44285747650133
 30
0.0
 40
160.68881814264529
 50
260.60629297969911
 51
267.77903556555862
  0
LINE
  5
1D174
  8
YODOROGO
 10
15108.80217064596
 20
713.87474821464275
 30
0.0
 11
15108.80217064596
 21
773.874748214644
 31
0.0
  0
LINE
  5
1D175
  8
YODOROGO
 10
14968.80217064596
 20
740.66966745775528
 30
0.0
 11
14968.80217064596
 21
797.26554526557049
 31
0.0
  0
LINE
  5
1D176
  8
YODOROGO
 10
15216.80217064596
 20
786.87474821464434
 30
0.0
 11
15190.80217064596
 21
786.87474821464434
 31
0.0
  0
LINE
  5
1D177
  8
YODOROGO
 10
15216.80217064596
 20
800.8747482146432
 30
0.0
 11
15216.80217064596
 21
786.87474821464434
 31
0.0
  0
LINE
  5
1D178
  8
YODOROGO
 10
15190.80217064596
 20
800.8747482146432
 30
0.0
 11
15216.80217064596
 21
800.8747482146432
 31
0.0
  0
LINE
  5
1D179
  8
YODOROGO
 10
15190.80217064596
 20
786.87474821464434
 30
0.0
 11
15190.80217064596
 21
800.8747482146432
 31
0.0
  0
LINE
  5
1D17A
  8
YODOROGO
 10
15214.80217064596
 20
788.87474821464355
 30
0.0
 11
15192.802170645949
 21
788.87474821464355
 31
0.0
  0
LINE
  5
1D17B
  8
YODOROGO
 10
15214.80217064596
 20
798.874748214644
 30
0.0
 11
15214.80217064596
 21
788.87474821464355
 31
0.0
  0
LINE
  5
1D17C
  8
YODOROGO
 10
15192.802170645949
 20
798.874748214644
 30
0.0
 11
15214.80217064596
 21
798.874748214644
 31
0.0
  0
LINE
  5
1D17D
  8
YODOROGO
 10
15192.802170645949
 20
788.87474821464355
 30
0.0
 11
15192.802170645949
 21
798.874748214644
 31
0.0
  0
LINE
  5
1D17E
  8
YODOROGO
 10
15212.80217064596
 20
790.8747482146432
 30
0.0
 11
15194.80217064596
 21
790.8747482146432
 31
0.0
  0
LINE
  5
1D17F
  8
YODOROGO
 10
15212.80217064596
 20
796.87474821464446
 30
0.0
 11
15212.80217064596
 21
790.8747482146432
 31
0.0
  0
LINE
  5
1D180
  8
YODOROGO
 10
15194.80217064596
 20
796.87474821464446
 30
0.0
 11
15212.80217064596
 21
796.87474821464446
 31
0.0
  0
LINE
  5
1D181
  8
YODOROGO
 10
15194.80217064596
 20
790.8747482146432
 30
0.0
 11
15194.80217064596
 21
796.87474821464446
 31
0.0
  0
LINE
  5
1D182
  8
YODOROGO
 10
15210.80217064596
 20
792.87474821464355
 30
0.0
 11
15196.80217064596
 21
792.87474821464355
 31
0.0
  0
LINE
  5
1D183
  8
YODOROGO
 10
15210.80217064596
 20
794.87474821464411
 30
0.0
 11
15210.80217064596
 21
792.87474821464355
 31
0.0
  0
LINE
  5
1D184
  8
YODOROGO
 10
15196.80217064596
 20
794.87474821464411
 30
0.0
 11
15210.80217064596
 21
794.87474821464411
 31
0.0
  0
LINE
  5
1D185
  8
YODOROGO
 10
15196.80217064596
 20
792.87474821464355
 30
0.0
 11
15196.80217064596
 21
794.87474821464411
 31
0.0
  0
LINE
  5
1D186
  8
YODOROGO
 10
15232.80217064596
 20
813.87474821464355
 30
0.0
 11
15190.80217064596
 21
813.87474821464355
 31
0.0
  0
LINE
  5
1D187
  8
YODOROGO
 10
15232.80217064596
 20
773.874748214644
 30
0.0
 11
15232.80217064596
 21
813.87474821464355
 31
0.0
  0
LINE
  5
1D188
  8
YODOROGO
 10
15190.80217064596
 20
773.874748214644
 30
0.0
 11
15232.80217064596
 21
773.874748214644
 31
0.0
  0
LINE
  5
1D189
  8
YODOROGO
 10
15190.80217064596
 20
713.87474821464355
 30
0.0
 11
15190.80217064596
 21
773.874748214644
 31
0.0
  0
LINE
  5
1D18A
  8
YODOROGO
 10
15268.80217064596
 20
713.87474821464355
 30
0.0
 11
15190.80217064596
 21
713.87474821464355
 31
0.0
  0
LINE
  5
1D18B
  8
YODOROGO
 10
15284.80217064596
 20
785.8747482146432
 30
0.0
 11
15284.80217064596
 21
799.87474821464411
 31
0.0
  0
ARC
  5
1D18C
  8
YODOROGO
 10
15272.80217064594
 20
785.87474821464571
 30
0.0
 40
12.000000000001871
 50
270.0
 51
359.99999999998772
  0
LINE
  5
1D18D
  8
YODOROGO
 10
15264.80217064596
 20
773.874748214644
 30
0.0
 11
15272.80217064594
 21
773.874748214644
 31
0.0
  0
LINE
  5
1D18E
  8
YODOROGO
 10
15264.80217064596
 20
813.87474821464355
 30
0.0
 11
15264.80217064596
 21
773.874748214644
 31
0.0
  0
LINE
  5
1D18F
  8
YODOROGO
 10
15449.80217064596
 20
773.874748214644
 30
0.0
 11
15462.80217064596
 21
773.874748214644
 31
0.0
  0
LINE
  5
1D190
  8
YODOROGO
 10
15466.80217064596
 20
713.87474821464355
 30
0.0
 11
15449.80217064596
 21
713.87474821464355
 31
0.0
  0
LINE
  5
1D191
  8
YODOROGO
 10
15381.80217064596
 20
781.87474821464343
 30
0.0
 11
15395.80217064596
 21
781.87474821464343
 31
0.0
  0
LINE
  5
1D192
  8
YODOROGO
 10
15449.80217064596
 20
745.87474821464434
 30
0.0
 11
15361.80217064596
 21
745.87474821464434
 31
0.0
  0
LINE
  5
1D193
  8
YODOROGO
 10
15415.80217064596
 20
781.87474821464343
 30
0.0
 11
15429.80217064596
 21
781.87474821464343
 31
0.0
  0
LINE
  5
1D194
  8
YODOROGO
 10
15449.80217064596
 20
713.87474821464355
 30
0.0
 11
15449.80217064596
 21
773.874748214644
 31
0.0
  0
LINE
  5
1D195
  8
YODOROGO
 10
15348.80217064596
 20
713.87474821464355
 30
0.0
 11
15322.80217064596
 21
713.87474821464355
 31
0.0
  0
LINE
  5
1D196
  8
YODOROGO
 10
15308.80217064596
 20
799.87474821464411
 30
0.0
 11
15308.80217064596
 21
753.87474821464389
 31
0.0
  0
ARC
  5
1D197
  8
YODOROGO
 10
15466.80217064596
 20
733.87474821464355
 30
0.0
 40
20.0
 50
270.0
 51
0.0
  0
LINE
  5
1D198
  8
YODOROGO
 10
15546.80217064596
 20
761.87474821464343
 30
0.0
 11
15546.80217064596
 21
713.87474821464355
 31
0.0
  0
ARC
  5
1D199
  8
YODOROGO
 10
15519.86069778339
 20
818.76569505486646
 30
0.0
 40
62.947778295837708
 50
295.34052442160112
 51
359.18902303418679
  0
LINE
  5
1D19A
  8
YODOROGO
 10
15308.80217064596
 20
929.874748214644
 30
0.0
 11
15248.80217064596
 21
969.87474821464411
 31
0.0
  0
LINE
  5
1D19B
  8
YODOROGO
 10
15248.80217064596
 20
1013.874748214644
 30
0.0
 11
15308.80217064596
 21
973.87474821464343
 31
0.0
  0
LINE
  5
1D19C
  8
YODOROGO
 10
15264.80217064596
 20
839.87474821464434
 30
0.0
 11
15308.80217064596
 21
839.87474821464434
 31
0.0
  0
LINE
  5
1D19D
  8
YODOROGO
 10
15308.80217064596
 20
867.87474821464355
 30
0.0
 11
15264.80217064596
 21
867.87474821464355
 31
0.0
  0
LINE
  5
1D19E
  8
YODOROGO
 10
15190.80217064596
 20
897.87474821464355
 30
0.0
 11
15308.80217064596
 21
897.87474821464355
 31
0.0
  0
LINE
  5
1D19F
  8
YODOROGO
 10
15040.80217064596
 20
1013.874748214644
 30
0.0
 11
15010.80217064596
 21
1013.874748214644
 31
0.0
  0
LINE
  5
1D1A0
  8
YODOROGO
 10
15040.80217064596
 20
913.87474821464355
 30
0.0
 11
15040.80217064596
 21
1013.874748214644
 31
0.0
  0
LINE
  5
1D1A1
  8
YODOROGO
 10
15010.80217064596
 20
913.87474821464355
 30
0.0
 11
15040.80217064596
 21
913.87474821464355
 31
0.0
  0
LINE
  5
1D1A2
  8
YODOROGO
 10
15010.80217064596
 20
1013.874748214644
 30
0.0
 11
15010.80217064596
 21
913.87474821464355
 31
0.0
  0
LINE
  5
1D1A3
  8
YODOROGO
 10
15080.80217064596
 20
1013.874748214644
 30
0.0
 11
15108.80217064596
 21
1013.874748214644
 31
0.0
  0
LINE
  5
1D1A4
  8
YODOROGO
 10
15080.80217064596
 20
905.87474821464434
 30
0.0
 11
15080.80217064596
 21
1013.874748214644
 31
0.0
  0
ARC
  5
1D1A5
  8
YODOROGO
 10
15060.80217064596
 20
905.87474821464434
 30
0.0
 40
20.0
 50
270.0
 51
0.0
  0
LINE
  5
1D1A6
  8
YODOROGO
 10
15010.80217064596
 20
885.87474821464411
 30
0.0
 11
15060.80217064596
 21
885.87474821464411
 31
0.0
  0
LINE
  5
1D1A7
  8
YODOROGO
 10
15010.80217064596
 20
853.874748214644
 30
0.0
 11
15010.80217064596
 21
885.87474821464411
 31
0.0
  0
LINE
  5
1D1A8
  8
YODOROGO
 10
15068.80217064596
 20
853.874748214644
 30
0.0
 11
15010.80217064596
 21
853.874748214644
 31
0.0
  0
ARC
  5
1D1A9
  8
YODOROGO
 10
15068.80217064596
 20
893.87474821464389
 30
0.0
 40
40.0
 50
270.0
 51
0.0
  0
LINE
  5
1D1AA
  8
YODOROGO
 10
15108.80217064596
 20
1013.874748214644
 30
0.0
 11
15108.80217064596
 21
893.87474821464389
 31
0.0
  0
LINE
  5
1D1AB
  8
YODOROGO
 10
14988.80217064596
 20
973.87474821464343
 30
0.0
 11
14988.80217064596
 21
997.87474821464355
 31
0.0
1001
AUTOCAD_POSTSCRIPT_FIGURE
1002
{
1000
PSFILL
1000
Grayscale
1000
Grayscale
1070
    25
1002
}
  0
LINE
  5
1D1AC
  8
YODOROGO
 10
14988.80217064596
 20
929.874748214644
 30
0.0
 11
14988.80217064596
 21
953.874748214644
 31
0.0
1001
AUTOCAD_POSTSCRIPT_FIGURE
1002
{
1000
PSFILL
1000
Grayscale
1000
Grayscale
1070
    25
1002
}
  0
LINE
  5
1D1AD
  8
YODOROGO
 10
14988.80217064596
 20
853.874748214644
 30
0.0
 11
14988.80217064596
 21
909.87474821464389
 31
0.0
1001
AUTOCAD_POSTSCRIPT_FIGURE
1002
{
1000
PSFILL
1000
Grayscale
1000
Grayscale
1070
    25
1002
}
  0
LINE
  5
1D1AE
  8
YODOROGO
 10
15190.80217064596
 20
953.874748214644
 30
0.0
 11
15248.80217064596
 21
1013.874748214644
 31
0.0
  0
LINE
  5
1D1AF
  8
YODOROGO
 10
15190.80217064596
 20
909.87474821464389
 30
0.0
 11
15190.80217064596
 21
953.874748214644
 31
0.0
  0
LINE
  5
1D1B0
  8
YODOROGO
 10
15248.80217064596
 20
969.87474821464411
 30
0.0
 11
15190.80217064596
 21
909.87474821464389
 31
0.0
  0
LINE
  5
1D1B1
  8
YODOROGO
 10
15232.80217064596
 20
839.87474821464434
 30
0.0
 11
15232.80217064596
 21
867.87474821464355
 31
0.0
  0
LINE
  5
1D1B2
  8
YODOROGO
 10
15190.80217064596
 20
839.87474821464434
 30
0.0
 11
15232.80217064596
 21
839.87474821464434
 31
0.0
  0
LINE
  5
1D1B3
  8
YODOROGO
 10
15264.80217064596
 20
867.87474821464355
 30
0.0
 11
15264.80217064596
 21
839.87474821464434
 31
0.0
  0
LINE
  5
1D1B4
  8
YODOROGO
 10
15190.80217064596
 20
867.87474821464355
 30
0.0
 11
15190.80217064596
 21
897.87474821464355
 31
0.0
  0
LINE
  5
1D1B5
  8
YODOROGO
 10
15232.80217064596
 20
867.87474821464355
 30
0.0
 11
15190.80217064596
 21
867.87474821464355
 31
0.0
  0
LINE
  5
1D1B6
  8
YODOROGO
 10
15322.80217064596
 20
1013.874748214644
 30
0.0
 11
15486.80217064596
 21
1013.874748214644
 31
0.0
  0
LINE
  5
1D1B7
  8
YODOROGO
 10
15462.80217064596
 20
981.87474821464343
 30
0.0
 11
15348.80217064596
 21
981.87474821464343
 31
0.0
  0
LINE
  5
1D1B8
  8
YODOROGO
 10
15436.802170645949
 20
909.87474821464389
 30
0.0
 11
15449.80217064596
 21
909.87474821464389
 31
0.0
  0
LINE
  5
1D1B9
  8
YODOROGO
 10
15449.80217064596
 20
969.87474821464411
 30
0.0
 11
15436.802170645949
 21
909.87474821464389
 31
0.0
  0
LINE
  5
1D1BA
  8
YODOROGO
 10
15425.80217064596
 20
969.87474821464411
 30
0.0
 11
15449.80217064596
 21
969.87474821464411
 31
0.0
  0
LINE
  5
1D1BB
  8
YODOROGO
 10
15412.80217064596
 20
909.87474821464389
 30
0.0
 11
15425.80217064596
 21
969.87474821464411
 31
0.0
  0
LINE
  5
1D1BC
  8
YODOROGO
 10
15398.80217064596
 20
909.87474821464389
 30
0.0
 11
15412.80217064596
 21
909.87474821464389
 31
0.0
  0
LINE
  5
1D1BD
  8
YODOROGO
 10
15385.80217064596
 20
969.87474821464411
 30
0.0
 11
15398.80217064596
 21
909.87474821464389
 31
0.0
  0
LINE
  5
1D1BE
  8
YODOROGO
 10
15361.80217064596
 20
969.87474821464411
 30
0.0
 11
15385.80217064596
 21
969.87474821464411
 31
0.0
  0
LINE
  5
1D1BF
  8
YODOROGO
 10
15374.80217064596
 20
909.87474821464389
 30
0.0
 11
15361.80217064596
 21
969.87474821464411
 31
0.0
  0
LINE
  5
1D1C0
  8
YODOROGO
 10
15361.80217064596
 20
909.87474821464389
 30
0.0
 11
15374.80217064596
 21
909.87474821464389
 31
0.0
  0
LINE
  5
1D1C1
  8
YODOROGO
 10
15361.80217064596
 20
877.87474821464355
 30
0.0
 11
15361.80217064596
 21
909.87474821464389
 31
0.0
  0
LINE
  5
1D1C2
  8
YODOROGO
 10
15449.80217064596
 20
877.87474821464355
 30
0.0
 11
15361.80217064596
 21
877.87474821464355
 31
0.0
  0
LINE
  5
1D1C3
  8
YODOROGO
 10
15449.80217064596
 20
909.87474821464389
 30
0.0
 11
15449.80217064596
 21
877.87474821464355
 31
0.0
  0
LINE
  5
1D1C4
  8
YODOROGO
 10
15308.80217064596
 20
973.87474821464343
 30
0.0
 11
15308.80217064596
 21
929.874748214644
 31
0.0
  0
LINE
  5
1D1C5
  8
YODOROGO
 10
15395.80217064596
 20
877.87474821464355
 30
0.0
 11
15415.80217064596
 21
877.87474821464355
 31
0.0
  0
LINE
  5
1D1C6
  8
YODOROGO
 10
15361.80217064596
 20
845.87474821464446
 30
0.0
 11
15381.80217064596
 21
845.87474821464446
 31
0.0
  0
LINE
  5
1D1C7
  8
YODOROGO
 10
15429.80217064596
 20
845.87474821464446
 30
0.0
 11
15449.80217064596
 21
845.87474821464446
 31
0.0
  0
LINE
  5
1D1C8
  8
YODOROGO
 10
15308.80217064596
 20
897.87474821464355
 30
0.0
 11
15308.80217064596
 21
867.87474821464355
 31
0.0
  0
LINE
  5
1D1C9
  8
YODOROGO
 10
15582.80217064596
 20
1013.874748214644
 30
0.0
 11
15582.80217064596
 21
981.87474821464343
 31
0.0
  0
LINE
  5
1D1CA
  8
YODOROGO
 10
15766.80217064596
 20
797.87474821464355
 30
0.0
 11
15766.80217064594
 21
905.87474821464434
 31
0.0
  0
LINE
  5
1D1CB
  8
YODOROGO
 10
15730.80217064594
 20
993.87474821464389
 30
0.0
 11
15730.80217064594
 21
817.87474821464355
 31
0.0
  0
LINE
  5
1D1CC
  8
YODOROGO
 10
15826.80217064596
 20
713.87474821464355
 30
0.0
 11
15826.80217064594
 21
905.87474821464434
 31
0.0
  0
LINE
  5
1D1CD
  8
YODOROGO
 10
15794.80217064596
 20
905.87474821464434
 30
0.0
 11
15794.80217064596
 21
713.87474821464355
 31
0.0
  0
LINE
  5
1D1CE
  8
YODOROGO
 10
15618.80217064596
 20
797.87474821464355
 30
0.0
 11
15618.80217064596
 21
853.874748214644
 31
0.0
  0
ARC
  5
1D1CF
  8
YODOROGO
 10
15676.957432558031
 20
803.89517564427877
 30
0.0
 40
90.046224287994292
 50
268.62849102169793
 51
356.16638457330322
  0
LINE
  5
1D1D0
  8
YODOROGO
 10
15674.80217064596
 20
763.87474821464355
 30
0.0
 11
15674.80217064596
 21
713.87474821464355
 31
0.0
  0
ARC
  5
1D1D1
  8
YODOROGO
 10
15675.759037862281
 20
818.91947850882752
 30
0.0
 40
55.053046491806079
 50
269.00410209305932
 51
358.91264455492478
  0
LINE
  5
1D1D2
  8
YODOROGO
 10
15794.80217064596
 20
713.87474821464355
 30
0.0
 11
15826.80217064596
 21
713.87474821464355
 31
0.0
  0
LINE
  5
1D1D3
  8
YODOROGO
 10
15766.80217064594
 20
905.87474821464434
 30
0.0
 11
15794.80217064596
 21
905.87474821464434
 31
0.0
  0
LINE
  5
1D1D4
  8
YODOROGO
 10
15810.80217064596
 20
993.87474821464389
 30
0.0
 11
15730.80217064594
 21
993.87474821464389
 31
0.0
  0
LINE
  5
1D1D5
  8
YODOROGO
 10
15766.80217064594
 20
957.87474821464355
 30
0.0
 11
15830.80217064596
 21
957.87474821464355
 31
0.0
  0
LINE
  5
1D1D6
  8
YODOROGO
 10
15850.80217064596
 20
937.87474821464355
 30
0.0
 11
15766.80217064594
 21
937.87474821464355
 31
0.0
  0
LINE
  5
1D1D7
  8
YODOROGO
 10
15618.80217064596
 20
889.87474821464434
 30
0.0
 11
15674.80217064596
 21
889.87474821464434
 31
0.0
  0
LINE
  5
1D1D8
  8
YODOROGO
 10
15618.80217064596
 20
917.87474821464355
 30
0.0
 11
15618.80217064596
 21
889.87474821464434
 31
0.0
  0
LINE
  5
1D1D9
  8
YODOROGO
 10
15674.80217064596
 20
917.87474821464355
 30
0.0
 11
15618.80217064596
 21
917.87474821464355
 31
0.0
  0
LINE
  5
1D1DA
  8
YODOROGO
 10
15674.80217064596
 20
889.87474821464434
 30
0.0
 11
15674.80217064596
 21
917.87474821464355
 31
0.0
  0
LINE
  5
1D1DB
  8
YODOROGO
 10
15766.80217064594
 20
937.87474821464355
 30
0.0
 11
15766.80217064594
 21
957.87474821464355
 31
0.0
  0
LINE
  5
1D1DC
  8
YODOROGO
 10
15706.80217064596
 20
853.874748214644
 30
0.0
 11
15706.80217064596
 21
953.874748214644
 31
0.0
  0
LINE
  5
1D1DD
  8
YODOROGO
 10
15618.80217064596
 20
853.874748214644
 30
0.0
 11
15706.80217064596
 21
853.874748214644
 31
0.0
  0
LINE
  5
1D1DE
  8
YODOROGO
 10
15706.80217064596
 20
981.87474821464343
 30
0.0
 11
15706.80217064596
 21
1013.874748214644
 31
0.0
  0
ARC
  5
1D1DF
  8
YODOROGO
 10
15810.80217064596
 20
1001.874748214642
 30
0.0
 40
7.9999999999972689
 50
270.0
 51
0.0000000000081422
  0
LINE
  5
1D1E0
  8
YODOROGO
 10
15818.80217064596
 20
1013.874748214644
 30
0.0
 11
15818.80217064596
 21
1001.874748214643
 31
0.0
  0
LINE
  5
1D1E1
  8
YODOROGO
 10
15850.80217064596
 20
1013.874748214644
 30
0.0
 11
15818.80217064596
 21
1013.874748214644
 31
0.0
  0
LINE
  5
1D1E2
  8
YODOROGO
 10
15850.80217064596
 20
977.87474821464355
 30
0.0
 11
15850.80217064596
 21
1013.874748214644
 31
0.0
  0
ARC
  5
1D1E3
  8
YODOROGO
 10
15830.80217064596
 20
977.87474821464355
 30
0.0
 40
20.0
 50
270.0
 51
0.0
  0
LINE
  5
1D1E4
  8
YODOROGO
 10
15850.80217064596
 20
905.87474821464434
 30
0.0
 11
15850.80217064596
 21
937.87474821464355
 31
0.0
  0
LINE
  5
1D1E5
  8
YODOROGO
 10
15826.80217064594
 20
905.87474821464434
 30
0.0
 11
15850.80217064596
 21
905.87474821464434
 31
0.0
  0
LINE
  5
1D1E6
  8
SUNPOU
 10
4392.8738593810149
 20
8101.757813420958
 30
0.0
 11
4392.8738593810149
 21
7156.7578134209571
 31
0.0
  0
LINE
  5
1D1E7
  8
SUNPOU
 10
7664.8738593810194
 20
8102.7578134209571
 30
0.0
 11
7664.8738593810194
 21
7156.7578134209571
 31
0.0
  0
LINE
  5
1D1E8
  8
SUNPOU
 10
4407.8738593810194
 20
7201.7578134209571
 30
0.0
 11
7649.8738593810203
 21
7201.7578134209571
 31
0.0
  0
LINE
  5
1D1E9
  8
SUNPOU
 10
7428.8738593810176
 20
8102.7578134209571
 30
0.0
 11
7428.8738593810176
 21
7366.7578134209571
 31
0.0
  0
LINE
  5
1D1EA
  8
SUNPOU
 10
7664.8738593810194
 20
8102.7578134209571
 30
0.0
 11
7664.8738593810194
 21
7366.7578134209571
 31
0.0
  0
LINE
  5
1D1EB
  8
SUNPOU
 10
7443.8738593810176
 20
7411.7578134209562
 30
0.0
 11
7649.8738593810203
 21
7411.7578134209562
 31
0.0
  0
LINE
  5
1D1EC
  8
SUNPOU
 10
7664.8738593810194
 20
7411.7578134209562
 30
0.0
 11
7924.1595736667341
 21
7411.7578134209562
 31
0.0
  0
LINE
  5
1D1ED
  8
SUNPOU
 10
4628.8738593810194
 20
7591.6677514306848
 30
0.0
 11
4628.8738593810194
 21
7366.7578134209571
 31
0.0
  0
LINE
  5
1D1EE
  8
SUNPOU
 10
7428.8738593810176
 20
8102.7578134209571
 30
0.0
 11
7428.8738593810176
 21
7366.7578134209571
 31
0.0
  0
LINE
  5
1D1EF
  8
SUNPOU
 10
4643.8738593810176
 20
7411.7578134209562
 30
0.0
 11
7413.8738593810203
 21
7411.7578134209562
 31
0.0
  0
LINE
  5
1D1F0
  8
SUNPOU
 10
4628.8738593810194
 20
7591.6677514306848
 30
0.0
 11
4628.8738593810194
 21
7366.7578134209571
 31
0.0
  0
LINE
  5
1D1F1
  8
SUNPOU
 10
4392.8738593810149
 20
8101.757813420958
 30
0.0
 11
4392.8738593810149
 21
7366.7578134209571
 31
0.0
  0
LINE
  5
1D1F2
  8
SUNPOU
 10
4613.8738593810158
 20
7411.7578134209562
 30
0.0
 11
4407.8738593810194
 21
7411.7578134209562
 31
0.0
  0
LINE
  5
1D1F3
  8
SUNPOU
 10
4392.8738593810149
 20
7411.7578134209562
 30
0.0
 11
4133.5881450953029
 21
7411.7578134209562
 31
0.0
  0
LINE
  5
1D1F4
  8
SUNPOU
 10
7694.8738593810194
 20
10256.75781342096
 30
0.0
 11
8009.8738593810222
 21
10256.75781342096
 31
0.0
  0
LINE
  5
1D1F5
  8
SUNPOU
 10
7694.8738593810194
 20
10536.75781342096
 30
0.0
 11
8009.8738593810222
 21
10536.75781342096
 31
0.0
  0
LINE
  5
1D1F6
  8
SUNPOU
 10
7964.8738593810194
 20
10271.75781342096
 30
0.0
 11
7964.8738593810194
 21
10521.757813420951
 31
0.0
  0
LINE
  5
1D1F7
  8
SUNPOU
 10
7694.8738593810194
 20
8821.7578134209562
 30
0.0
 11
8009.8738593810176
 21
8821.7578134209562
 31
0.0
  0
LINE
  5
1D1F8
  8
SUNPOU
 10
7694.8738593810194
 20
10256.75781342096
 30
0.0
 11
8009.8738593810222
 21
10256.75781342096
 31
0.0
  0
LINE
  5
1D1F9
  8
SUNPOU
 10
7964.8738593810194
 20
8836.7578134209562
 30
0.0
 11
7964.8738593810194
 21
10241.757813420951
 31
0.0
  0
LINE
  5
1D1FA
  8
SUNPOU
 10
7694.8738593810194
 20
8132.7578134209571
 30
0.0
 11
8009.8738593810222
 21
8132.7578134209571
 31
0.0
  0
LINE
  5
1D1FB
  8
SUNPOU
 10
7694.8738593810194
 20
8821.7578134209562
 30
0.0
 11
8009.8738593810222
 21
8821.7578134209562
 31
0.0
  0
LINE
  5
1D1FC
  8
SUNPOU
 10
7964.8738593810194
 20
8147.7578134209571
 30
0.0
 11
7964.8738593810194
 21
8806.757813420958
 31
0.0
  0
LINE
  5
1D1FD
  8
SUNPOU
 10
7694.8738593810194
 20
8132.7578134209571
 30
0.0
 11
8219.8738593810158
 21
8132.7578134209571
 31
0.0
  0
LINE
  5
1D1FE
  8
SUNPOU
 10
7694.8738593810194
 20
10536.75781342096
 30
0.0
 11
8219.8738593810158
 21
10536.75781342096
 31
0.0
  0
LINE
  5
1D1FF
  8
SUNPOU
 10
8174.873859381014
 20
8147.7578134209571
 30
0.0
 11
8174.873859381014
 21
10521.757813420951
 31
0.0
  0
ARC
  5
1D200
  8
SUNPOU
 10
7228.8738593810167
 20
7621.7578134209571
 30
0.0
 40
5.625
 50
180.0
 51
0.0
  0
ARC
  5
1D201
  8
SUNPOU
 10
7228.8738593810167
 20
7621.7578134209571
 30
0.0
 40
5.625
 50
0.0
 51
180.0
  0
ARC
  5
1D202
  8
SUNPOU
 10
6828.8738593810194
 20
7621.7578134209571
 30
0.0
 40
5.625
 50
180.0
 51
0.0
  0
ARC
  5
1D203
  8
SUNPOU
 10
6828.8738593810194
 20
7621.7578134209571
 30
0.0
 40
5.625
 50
0.0
 51
180.0
  0
ARC
  5
1D204
  8
SUNPOU
 10
6828.8738593810194
 20
7621.7578134209571
 30
0.0
 40
5.625
 50
0.0
 51
180.0
  0
ARC
  5
1D205
  8
SUNPOU
 10
6828.8738593810194
 20
7621.7578134209571
 30
0.0
 40
5.625
 50
180.0
 51
0.0
  0
ARC
  5
1D206
  8
SUNPOU
 10
6428.8738593810194
 20
7621.7578134209571
 30
0.0
 40
5.625
 50
180.0
 51
0.0
  0
ARC
  5
1D207
  8
SUNPOU
 10
6428.8738593810194
 20
7621.7578134209571
 30
0.0
 40
5.625
 50
0.0
 51
180.0
  0
ARC
  5
1D208
  8
SUNPOU
 10
6428.8738593810194
 20
7621.7578134209571
 30
0.0
 40
5.625
 50
0.0
 51
180.0
  0
ARC
  5
1D209
  8
SUNPOU
 10
6428.8738593810194
 20
7621.7578134209571
 30
0.0
 40
5.625
 50
180.0
 51
0.0
  0
ARC
  5
1D20A
  8
SUNPOU
 10
6028.8738593810222
 20
7621.7578134209571
 30
0.0
 40
5.625
 50
0.0
 51
180.0
  0
ARC
  5
1D20B
  8
SUNPOU
 10
6028.8738593810222
 20
7621.7578134209571
 30
0.0
 40
5.625
 50
180.0
 51
0.0
  0
LINE
  5
1D20C
  8
SUNPOU
 10
10761.08862012218
 20
2719.546798568535
 30
0.0
 11
10262.219044526681
 21
2719.546798568535
 31
0.0
  0
LINE
  5
1D20D
  8
SUNPOU
 10
10368.051575649621
 20
2669.5467985685359
 30
0.0
 11
10262.219044526681
 21
2669.5467985685359
 31
0.0
  0
LINE
  5
1D20E
  8
SUNPOU
 10
10307.219044526681
 20
2734.5467985685359
 30
0.0
 11
10307.219044526681
 21
2749.5467985685359
 31
0.0
  0
LINE
  5
1D20F
  8
SUNPOU
 10
10307.219044526681
 20
2654.5467985685359
 30
0.0
 11
10307.219044526681
 21
2452.4039414256781
 31
0.0
  0
LINE
  5
1D210
  8
SUNPOU
 10
10307.219044526681
 20
2719.546798568535
 30
0.0
 11
10307.219044526681
 21
2669.5467985685359
 31
0.0
  0
LINE
  5
1D211
  8
SUNPOU
 10
11491.08862012218
 20
5322.5467985685318
 30
0.0
 11
11491.08862012218
 21
5337.54679856853
 31
0.0
  0
LINE
  5
1D212
  8
SUNPOU
 10
10802.08862012218
 20
4917.5467985685327
 30
0.0
 11
10802.08862012218
 21
5337.54679856853
 31
0.0
  0
LINE
  5
1D213
  8
SUNPOU
 10
11476.08862012218
 20
5292.54679856853
 30
0.0
 11
10817.08862012218
 21
5292.54679856853
 31
0.0
  0
LINE
  5
1D214
  8
SUNPOU
 10
12926.08862012218
 20
5322.5467985685318
 30
0.0
 11
12926.08862012218
 21
5337.54679856853
 31
0.0
  0
LINE
  5
1D215
  8
SUNPOU
 10
11491.08862012218
 20
5322.5467985685318
 30
0.0
 11
11491.08862012218
 21
5337.54679856853
 31
0.0
  0
LINE
  5
1D216
  8
SUNPOU
 10
12911.08862012218
 20
5292.54679856853
 30
0.0
 11
11506.08862012218
 21
5292.54679856853
 31
0.0
  0
LINE
  5
1D217
  8
SUNPOU
 10
13206.08862012218
 20
4574.4176420139729
 30
0.0
 11
13206.08862012218
 21
5337.54679856853
 31
0.0
  0
LINE
  5
1D218
  8
SUNPOU
 10
12926.08862012218
 20
5322.5467985685318
 30
0.0
 11
12926.08862012218
 21
5337.54679856853
 31
0.0
  0
LINE
  5
1D219
  8
SUNPOU
 10
13191.088620122169
 20
5292.54679856853
 30
0.0
 11
12941.08862012218
 21
5292.54679856853
 31
0.0
  0
LINE
  5
1D21A
  8
SUNPOU
 10
10761.08862012218
 20
2719.546798568535
 30
0.0
 11
10262.21904452669
 21
2719.546798568535
 31
0.0
  0
LINE
  5
1D21B
  8
SUNPOU
 10
10772.08862012218
 20
4887.5467985685318
 30
0.0
 11
10262.21904452669
 21
4887.5467985685318
 31
0.0
  0
LINE
  5
1D21C
  8
SUNPOU
 10
10307.219044526681
 20
2734.5467985685359
 30
0.0
 11
10307.21904452669
 21
4872.5467985685318
 31
0.0
  0
LINE
  5
1D21D
  8
SUNPOU
 10
13156.08862012218
 20
2719.5467985685341
 30
0.0
 11
13556.913772729191
 21
2719.5467985685332
 31
0.0
  0
LINE
  5
1D21E
  8
SUNPOU
 10
13156.08862012218
 20
4746.5467985685327
 30
0.0
 11
13556.913772729191
 21
4746.5467985685327
 31
0.0
  0
LINE
  5
1D21F
  8
SUNPOU
 10
13511.91377272918
 20
2734.5467985685332
 30
0.0
 11
13511.913772729191
 21
4731.5467985685309
 31
0.0
  0
LINE
  5
1D220
  8
SUNPOU
 10
7428.8738593810267
 20
5322.54679856853
 30
0.0
 11
7428.8738593810267
 21
5337.54679856853
 31
0.0
  0
LINE
  5
1D221
  8
SUNPOU
 10
7664.8738593810258
 20
4922.54679856853
 30
0.0
 11
7664.8738593810258
 21
5337.54679856853
 31
0.0
  0
LINE
  5
1D222
  8
SUNPOU
 10
7443.8738593810249
 20
5292.54679856853
 30
0.0
 11
7649.873859381024
 21
5292.54679856853
 31
0.0
  0
LINE
  5
1D223
  8
SUNPOU
 10
7428.8738593810267
 20
5322.54679856853
 30
0.0
 11
7428.8738593810267
 21
5337.54679856853
 31
0.0
  0
LINE
  5
1D224
  8
SUNPOU
 10
4628.873859381024
 20
5322.54679856853
 30
0.0
 11
4628.873859381024
 21
5337.54679856853
 31
0.0
  0
LINE
  5
1D225
  8
SUNPOU
 10
7413.8738593810267
 20
5292.54679856853
 30
0.0
 11
4643.873859381024
 21
5292.54679856853
 31
0.0
  0
LINE
  5
1D226
  8
SUNPOU
 10
4628.873859381024
 20
5322.54679856853
 30
0.0
 11
4628.873859381024
 21
5337.54679856853
 31
0.0
  0
LINE
  5
1D227
  8
SUNPOU
 10
4392.8738593810249
 20
4922.54679856853
 30
0.0
 11
4392.8738593810249
 21
5337.54679856853
 31
0.0
  0
LINE
  5
1D228
  8
SUNPOU
 10
4613.873859381024
 20
5292.54679856853
 30
0.0
 11
4407.8738593810249
 21
5292.54679856853
 31
0.0
  0
TEXT
  5
1D229
  8
SUNPOU
 10
5914.5881450953038
 20
7246.7578134209571
 30
0.0
 40
90.0
  1
3272
 41
0.6666666666666666
  7
00
  0
LINE
  5
1D22A
  8
SUNPOU
 10
7653.6238593810176
 20
7201.7578134209571
 30
0.0
 11
7642.3738593810176
 21
7201.7578134209571
 31
0.0
  0
LINE
  5
1D22B
  8
SUNPOU
 10
4404.1238593810194
 20
7201.7578134209571
 30
0.0
 11
4415.3738593810149
 21
7201.7578134209571
 31
0.0
  0
TEXT
  5
1D22C
  8
SUNPOU
 10
7716.302430809591
 20
7456.7578134209562
 30
0.0
 40
90.0
  1
236
 41
0.6666666666666666
  7
00
  0
LINE
  5
1D22D
  8
SUNPOU
 10
7653.6238593810176
 20
7411.7578134209562
 30
0.0
 11
7642.3738593810176
 21
7411.7578134209562
 31
0.0
  0
LINE
  5
1D22E
  8
SUNPOU
 10
7440.1238593810194
 20
7411.7578134209562
 30
0.0
 11
7451.3738593810203
 21
7411.7578134209562
 31
0.0
  0
TEXT
  5
1D22F
  8
SUNPOU
 10
5914.5881450953038
 20
7456.7578134209562
 30
0.0
 40
90.0
  1
2800
 41
0.6666666666666666
  7
00
  0
LINE
  5
1D230
  8
SUNPOU
 10
7417.6238593810176
 20
7411.7578134209562
 30
0.0
 11
7406.3738593810194
 21
7411.7578134209562
 31
0.0
  0
LINE
  5
1D231
  8
SUNPOU
 10
4640.1238593810167
 20
7411.7578134209562
 30
0.0
 11
4651.3738593810158
 21
7411.7578134209562
 31
0.0
  0
TEXT
  5
1D232
  8
SUNPOU
 10
4170.0167165238754
 20
7456.7578134209562
 30
0.0
 40
90.0
  1
236
 41
0.6666666666666666
  7
00
  0
LINE
  5
1D233
  8
SUNPOU
 10
4404.1238593810194
 20
7411.7578134209562
 30
0.0
 11
4415.3738593810149
 21
7411.7578134209562
 31
0.0
  0
LINE
  5
1D234
  8
SUNPOU
 10
4617.6238593810167
 20
7411.7578134209562
 30
0.0
 11
4606.3738593810176
 21
7411.7578134209562
 31
0.0
  0
TEXT
  5
1D235
  8
SUNPOU
 10
7919.8738593810158
 20
10311.04352770667
 30
0.0
 40
90.0
  1
280
 50
90.0
 41
0.6666666666666666
  7
00
  0
LINE
  5
1D236
  8
SUNPOU
 10
7964.8738593810194
 20
10525.50781342096
 30
0.0
 11
7964.8738593810194
 21
10514.257813420951
 31
0.0
  0
LINE
  5
1D237
  8
SUNPOU
 10
7964.8738593810194
 20
10268.00781342096
 30
0.0
 11
7964.8738593810194
 21
10279.25781342096
 31
0.0
  0
TEXT
  5
1D238
  8
SUNPOU
 10
7919.8738593810158
 20
9420.6863848495323
 30
0.0
 40
90.0
  1
1435
 50
90.0
 41
0.6666666666666666
  7
00
  0
LINE
  5
1D239
  8
SUNPOU
 10
7964.8738593810194
 20
10245.507813420951
 30
0.0
 11
7964.8738593810194
 21
10234.257813420951
 31
0.0
  0
LINE
  5
1D23A
  8
SUNPOU
 10
7964.8738593810194
 20
8833.0078134209616
 30
0.0
 11
7964.8738593810194
 21
8844.2578134209562
 31
0.0
  0
TEXT
  5
1D23B
  8
SUNPOU
 10
7919.8738593810194
 20
8391.5435277066754
 30
0.0
 40
90.0
  1
695
 50
90.0
 41
0.6666666666666666
  7
00
  0
LINE
  5
1D23C
  8
SUNPOU
 10
7964.8738593810194
 20
8810.507813420958
 30
0.0
 11
7964.8738593810194
 21
8799.257813420958
 31
0.0
  0
LINE
  5
1D23D
  8
SUNPOU
 10
7964.8738593810194
 20
8144.0078134209571
 30
0.0
 11
7964.8738593810194
 21
8155.2578134209571
 31
0.0
  0
TEXT
  5
1D23E
  8
SUNPOU
 10
8129.8738593810103
 20
9219.0435277066717
 30
0.0
 40
90.0
  1
2410
 50
90.0
 41
0.6666666666666666
  7
00
  0
LINE
  5
1D23F
  8
SUNPOU
 10
8174.873859381014
 20
10525.50781342096
 30
0.0
 11
8174.873859381014
 21
10514.257813420951
 31
0.0
  0
LINE
  5
1D240
  8
SUNPOU
 10
8174.873859381014
 20
8144.0078134209571
 30
0.0
 11
8174.873859381014
 21
8155.2578134209571
 31
0.0
  0
TEXT
  5
1D241
  8
SUNPOU
 10
10262.219044526681
 20
2488.832512854251
 30
0.0
 40
90.0
  1
50
 50
90.0
 41
0.6666666666666666
  7
00
  0
LINE
  5
1D242
  8
SUNPOU
 10
10307.219044526681
 20
2658.2967985685359
 30
0.0
 11
10307.219044526681
 21
2647.0467985685359
 31
0.0
  0
LINE
  5
1D243
  8
SUNPOU
 10
10307.219044526681
 20
2730.796798568535
 30
0.0
 11
10307.219044526681
 21
2742.046798568535
 31
0.0
  0
TEXT
  5
1D244
  8
SUNPOU
 10
11060.874334407899
 20
5337.54679856853
 30
0.0
 40
90.0
  1
695
 41
0.6666666666666666
  7
00
  0
LINE
  5
1D245
  8
SUNPOU
 10
10813.33862012218
 20
5292.54679856853
 30
0.0
 11
10824.58862012218
 21
5292.54679856853
 31
0.0
  0
LINE
  5
1D246
  8
SUNPOU
 10
11479.83862012218
 20
5292.54679856853
 30
0.0
 11
11468.58862012218
 21
5292.54679856853
 31
0.0
  0
TEXT
  5
1D247
  8
SUNPOU
 10
12090.01719155076
 20
5337.54679856853
 30
0.0
 40
90.0
  1
1435
 41
0.6666666666666666
  7
00
  0
LINE
  5
1D248
  8
SUNPOU
 10
11502.33862012218
 20
5292.54679856853
 30
0.0
 11
11513.58862012218
 21
5292.54679856853
 31
0.0
  0
LINE
  5
1D249
  8
SUNPOU
 10
12914.83862012218
 20
5292.54679856853
 30
0.0
 11
12903.58862012218
 21
5292.54679856853
 31
0.0
  0
TEXT
  5
1D24A
  8
SUNPOU
 10
12980.374334407899
 20
5337.54679856853
 30
0.0
 40
90.0
  1
280
 41
0.6666666666666666
  7
00
  0
LINE
  5
1D24B
  8
SUNPOU
 10
12937.33862012218
 20
5292.54679856853
 30
0.0
 11
12948.58862012218
 21
5292.54679856853
 31
0.0
  0
LINE
  5
1D24C
  8
SUNPOU
 10
13194.83862012218
 20
5292.54679856853
 30
0.0
 11
13183.588620122169
 21
5292.54679856853
 31
0.0
  0
TEXT
  5
1D24D
  8
SUNPOU
 10
10262.21904452669
 20
3689.2610842828221
 30
0.0
 40
90.0
  1
2168
 50
90.0
 41
0.6666666666666666
  7
00
  0
LINE
  5
1D24E
  8
SUNPOU
 10
10307.21904452669
 20
4876.2967985685327
 30
0.0
 11
10307.21904452669
 21
4865.0467985685327
 31
0.0
  0
LINE
  5
1D24F
  8
SUNPOU
 10
10307.219044526681
 20
2730.796798568535
 30
0.0
 11
10307.219044526681
 21
2742.046798568535
 31
0.0
  0
TEXT
  5
1D250
  8
SUNPOU
 10
13466.91377272918
 20
3618.7610842828221
 30
0.0
 40
90.0
  1
2027
 50
90.0
 41
0.6666666666666666
  7
00
  0
LINE
  5
1D251
  8
SUNPOU
 10
13511.913772729191
 20
4735.2967985685327
 30
0.0
 11
13511.913772729191
 21
4724.0467985685318
 31
0.0
  0
LINE
  5
1D252
  8
SUNPOU
 10
13511.91377272918
 20
2730.7967985685341
 30
0.0
 11
13511.91377272918
 21
2742.0467985685332
 31
0.0
  0
TEXT
  5
1D253
  8
SUNPOU
 10
7461.1595736667414
 20
5337.54679856853
 30
0.0
 40
90.0
  1
236
 41
0.6666666666666666
  7
00
  0
LINE
  5
1D254
  8
SUNPOU
 10
7653.6238593810249
 20
5292.54679856853
 30
0.0
 11
7642.3738593810249
 21
5292.54679856853
 31
0.0
  0
LINE
  5
1D255
  8
SUNPOU
 10
7440.1238593810258
 20
5292.54679856853
 30
0.0
 11
7451.3738593810267
 21
5292.54679856853
 31
0.0
  0
TEXT
  5
1D256
  8
SUNPOU
 10
5914.5881450953111
 20
5337.54679856853
 30
0.0
 40
90.0
  1
2800
 41
0.6666666666666666
  7
00
  0
LINE
  5
1D257
  8
SUNPOU
 10
4640.123859381024
 20
5292.54679856853
 30
0.0
 11
4651.3738593810231
 21
5292.54679856853
 31
0.0
  0
LINE
  5
1D258
  8
SUNPOU
 10
7417.6238593810249
 20
5292.54679856853
 30
0.0
 11
7406.3738593810267
 21
5292.54679856853
 31
0.0
  0
TEXT
  5
1D259
  8
SUNPOU
 10
4425.1595736667377
 20
5337.54679856853
 30
0.0
 40
90.0
  1
236
 41
0.6666666666666666
  7
00
  0
LINE
  5
1D25A
  8
SUNPOU
 10
4404.1238593810249
 20
5292.54679856853
 30
0.0
 11
4415.3738593810249
 21
5292.54679856853
 31
0.0
  0
LINE
  5
1D25B
  8
SUNPOU
 10
4617.623859381024
 20
5292.54679856853
 30
0.0
 11
4606.373859381024
 21
5292.54679856853
 31
0.0
  0
ARC
  5
1D25C
  8
SUNPOU
 10
7664.8738593810194
 20
7201.7578134209571
 30
0.0
 40
5.625
 50
180.0
 51
0.0
  0
ARC
  5
1D25D
  8
SUNPOU
 10
7664.8738593810194
 20
7201.7578134209571
 30
0.0
 40
5.625
 50
0.0
 51
180.0
  0
ARC
  5
1D25E
  8
SUNPOU
 10
4392.8738593810149
 20
7201.7578134209571
 30
0.0
 40
5.625
 50
0.0
 51
180.0
  0
ARC
  5
1D25F
  8
SUNPOU
 10
4392.8738593810149
 20
7201.7578134209571
 30
0.0
 40
5.625
 50
180.0
 51
0.0
  0
ARC
  5
1D260
  8
SUNPOU
 10
7664.8738593810194
 20
7411.7578134209562
 30
0.0
 40
5.625
 50
180.0
 51
0.0
  0
ARC
  5
1D261
  8
SUNPOU
 10
7664.8738593810194
 20
7411.7578134209562
 30
0.0
 40
5.625
 50
0.0
 51
180.0
  0
ARC
  5
1D262
  8
SUNPOU
 10
7428.8738593810176
 20
7411.7578134209562
 30
0.0
 40
5.625
 50
0.0
 51
180.0
  0
ARC
  5
1D263
  8
SUNPOU
 10
7428.8738593810176
 20
7411.7578134209562
 30
0.0
 40
5.625
 50
180.0
 51
0.0
  0
ARC
  5
1D264
  8
SUNPOU
 10
7428.8738593810176
 20
7411.7578134209562
 30
0.0
 40
5.625
 50
180.0
 51
0.0
  0
ARC
  5
1D265
  8
SUNPOU
 10
7428.8738593810176
 20
7411.7578134209562
 30
0.0
 40
5.625
 50
0.0
 51
180.0
  0
ARC
  5
1D266
  8
SUNPOU
 10
4628.8738593810194
 20
7411.7578134209562
 30
0.0
 40
5.625
 50
0.0
 51
180.0
  0
ARC
  5
1D267
  8
SUNPOU
 10
4628.8738593810194
 20
7411.7578134209562
 30
0.0
 40
5.625
 50
180.0
 51
0.0
  0
ARC
  5
1D268
  8
SUNPOU
 10
4392.8738593810149
 20
7411.7578134209562
 30
0.0
 40
5.625
 50
0.0
 51
180.0
  0
ARC
  5
1D269
  8
SUNPOU
 10
4392.8738593810149
 20
7411.7578134209562
 30
0.0
 40
5.625
 50
180.0
 51
0.0
  0
ARC
  5
1D26A
  8
SUNPOU
 10
4628.8738593810194
 20
7411.7578134209562
 30
0.0
 40
5.625
 50
180.0
 51
0.0
  0
ARC
  5
1D26B
  8
SUNPOU
 10
4628.8738593810194
 20
7411.7578134209562
 30
0.0
 40
5.625
 50
0.0
 51
180.0
  0
ARC
  5
1D26C
  8
SUNPOU
 10
7964.8738593810194
 20
10536.75781342096
 30
0.0
 40
5.625
 50
270.0
 51
90.0
  0
ARC
  5
1D26D
  8
SUNPOU
 10
7964.8738593810194
 20
10536.75781342096
 30
0.0
 40
5.625
 50
90.0
 51
270.0
  0
ARC
  5
1D26E
  8
SUNPOU
 10
7964.8738593810194
 20
10256.75781342096
 30
0.0
 40
5.625
 50
90.0
 51
270.0
  0
ARC
  5
1D26F
  8
SUNPOU
 10
7964.8738593810194
 20
10256.75781342096
 30
0.0
 40
5.625
 50
270.0
 51
90.0
  0
ARC
  5
1D270
  8
SUNPOU
 10
7964.8738593810194
 20
10256.75781342096
 30
0.0
 40
5.625
 50
270.0
 51
90.0
  0
ARC
  5
1D271
  8
SUNPOU
 10
7964.8738593810194
 20
10256.75781342096
 30
0.0
 40
5.625
 50
90.0
 51
270.0
  0
ARC
  5
1D272
  8
SUNPOU
 10
7964.8738593810194
 20
8821.7578134209562
 30
0.0
 40
5.625
 50
90.0
 51
270.0
  0
ARC
  5
1D273
  8
SUNPOU
 10
7964.8738593810194
 20
8821.7578134209562
 30
0.0
 40
5.625
 50
270.0
 51
90.0
  0
ARC
  5
1D274
  8
SUNPOU
 10
7964.8738593810194
 20
8821.7578134209562
 30
0.0
 40
5.625
 50
270.0
 51
90.0
  0
ARC
  5
1D275
  8
SUNPOU
 10
7964.8738593810194
 20
8821.7578134209562
 30
0.0
 40
5.625
 50
90.0
 51
270.0
  0
ARC
  5
1D276
  8
SUNPOU
 10
7964.8738593810194
 20
8132.7578134209571
 30
0.0
 40
5.625
 50
90.0
 51
270.0
  0
ARC
  5
1D277
  8
SUNPOU
 10
7964.8738593810194
 20
8132.7578134209571
 30
0.0
 40
5.625
 50
270.0
 51
90.0
  0
ARC
  5
1D278
  8
SUNPOU
 10
8174.873859381014
 20
10536.75781342096
 30
0.0
 40
5.625
 50
270.0
 51
90.0
  0
ARC
  5
1D279
  8
SUNPOU
 10
8174.873859381014
 20
10536.75781342096
 30
0.0
 40
5.625
 50
90.0
 51
270.0
  0
ARC
  5
1D27A
  8
SUNPOU
 10
8174.873859381014
 20
8132.7578134209571
 30
0.0
 40
5.625
 50
90.0
 51
270.0
  0
ARC
  5
1D27B
  8
SUNPOU
 10
8174.873859381014
 20
8132.7578134209571
 30
0.0
 40
5.625
 50
270.0
 51
90.0
  0
ARC
  5
1D27C
  8
SUNPOU
 10
10307.219044526681
 20
2669.5467985685359
 30
0.0
 40
5.625
 50
270.0
 51
90.0
  0
ARC
  5
1D27D
  8
SUNPOU
 10
10307.219044526681
 20
2669.5467985685359
 30
0.0
 40
5.625
 50
90.0
 51
270.0
  0
ARC
  5
1D27E
  8
SUNPOU
 10
10307.219044526681
 20
2719.546798568535
 30
0.0
 40
5.625
 50
90.0
 51
270.0
  0
ARC
  5
1D27F
  8
SUNPOU
 10
10307.219044526681
 20
2719.546798568535
 30
0.0
 40
5.625
 50
270.0
 51
90.0
  0
ARC
  5
1D280
  8
SUNPOU
 10
10802.08862012218
 20
5292.54679856853
 30
0.0
 40
5.625
 50
0.0
 51
180.0
  0
ARC
  5
1D281
  8
SUNPOU
 10
10802.08862012218
 20
5292.54679856853
 30
0.0
 40
5.625
 50
180.0
 51
0.0
  0
ARC
  5
1D282
  8
SUNPOU
 10
11491.08862012218
 20
5292.54679856853
 30
0.0
 40
5.625
 50
180.0
 51
0.0
  0
ARC
  5
1D283
  8
SUNPOU
 10
11491.08862012218
 20
5292.54679856853
 30
0.0
 40
5.625
 50
0.0
 51
180.0
  0
ARC
  5
1D284
  8
SUNPOU
 10
11491.08862012218
 20
5292.54679856853
 30
0.0
 40
5.625
 50
0.0
 51
180.0
  0
ARC
  5
1D285
  8
SUNPOU
 10
11491.08862012218
 20
5292.54679856853
 30
0.0
 40
5.625
 50
180.0
 51
0.0
  0
ARC
  5
1D286
  8
SUNPOU
 10
12926.08862012218
 20
5292.54679856853
 30
0.0
 40
5.625
 50
180.0
 51
0.0
  0
ARC
  5
1D287
  8
SUNPOU
 10
12926.08862012218
 20
5292.54679856853
 30
0.0
 40
5.625
 50
0.0
 51
180.0
  0
ARC
  5
1D288
  8
SUNPOU
 10
12926.08862012218
 20
5292.54679856853
 30
0.0
 40
5.625
 50
0.0
 51
180.0
  0
ARC
  5
1D289
  8
SUNPOU
 10
12926.08862012218
 20
5292.54679856853
 30
0.0
 40
5.625
 50
180.0
 51
0.0
  0
ARC
  5
1D28A
  8
SUNPOU
 10
13206.08862012218
 20
5292.54679856853
 30
0.0
 40
5.625
 50
180.0
 51
0.0
  0
ARC
  5
1D28B
  8
SUNPOU
 10
13206.08862012218
 20
5292.54679856853
 30
0.0
 40
5.625
 50
0.0
 51
180.0
  0
ARC
  5
1D28C
  8
SUNPOU
 10
10307.21904452669
 20
4887.5467985685318
 30
0.0
 40
5.625
 50
270.0
 51
90.0
  0
ARC
  5
1D28D
  8
SUNPOU
 10
10307.21904452669
 20
4887.5467985685318
 30
0.0
 40
5.625
 50
90.0
 51
270.0
  0
ARC
  5
1D28E
  8
SUNPOU
 10
10307.219044526681
 20
2719.546798568535
 30
0.0
 40
5.625
 50
90.0
 51
270.0
  0
ARC
  5
1D28F
  8
SUNPOU
 10
10307.219044526681
 20
2719.546798568535
 30
0.0
 40
5.625
 50
270.0
 51
90.0
  0
ARC
  5
1D290
  8
SUNPOU
 10
13511.913772729191
 20
4746.5467985685327
 30
0.0
 40
5.625
 50
270.0
 51
90.0
  0
ARC
  5
1D291
  8
SUNPOU
 10
13511.913772729191
 20
4746.5467985685327
 30
0.0
 40
5.625
 50
90.0
 51
270.0
  0
ARC
  5
1D292
  8
SUNPOU
 10
13511.91377272918
 20
2719.5467985685332
 30
0.0
 40
5.625
 50
90.0
 51
270.0
  0
ARC
  5
1D293
  8
SUNPOU
 10
13511.91377272918
 20
2719.5467985685332
 30
0.0
 40
5.625
 50
270.0
 51
90.0
  0
ARC
  5
1D294
  8
SUNPOU
 10
7664.8738593810258
 20
5292.54679856853
 30
0.0
 40
5.625
 50
180.0
 51
0.0
  0
ARC
  5
1D295
  8
SUNPOU
 10
7664.8738593810258
 20
5292.54679856853
 30
0.0
 40
5.625
 50
0.0
 51
180.0
  0
ARC
  5
1D296
  8
SUNPOU
 10
7428.8738593810267
 20
5292.54679856853
 30
0.0
 40
5.625
 50
0.0
 51
180.0
  0
ARC
  5
1D297
  8
SUNPOU
 10
7428.8738593810267
 20
5292.54679856853
 30
0.0
 40
5.625
 50
180.0
 51
0.0
  0
ARC
  5
1D298
  8
SUNPOU
 10
4628.873859381024
 20
5292.54679856853
 30
0.0
 40
5.625
 50
0.0
 51
180.0
  0
ARC
  5
1D299
  8
SUNPOU
 10
4628.873859381024
 20
5292.54679856853
 30
0.0
 40
5.625
 50
180.0
 51
0.0
  0
ARC
  5
1D29A
  8
SUNPOU
 10
7428.8738593810267
 20
5292.54679856853
 30
0.0
 40
5.625
 50
180.0
 51
0.0
  0
ARC
  5
1D29B
  8
SUNPOU
 10
7428.8738593810267
 20
5292.54679856853
 30
0.0
 40
5.625
 50
0.0
 51
180.0
  0
ARC
  5
1D29C
  8
SUNPOU
 10
4392.8738593810249
 20
5292.54679856853
 30
0.0
 40
5.625
 50
0.0
 51
180.0
  0
ARC
  5
1D29D
  8
SUNPOU
 10
4392.8738593810249
 20
5292.54679856853
 30
0.0
 40
5.625
 50
180.0
 51
0.0
  0
ARC
  5
1D29E
  8
SUNPOU
 10
4628.873859381024
 20
5292.54679856853
 30
0.0
 40
5.625
 50
180.0
 51
0.0
  0
ARC
  5
1D29F
  8
SUNPOU
 10
4628.873859381024
 20
5292.54679856853
 30
0.0
 40
5.625
 50
0.0
 51
180.0
  0
LINE
  5
1D2A0
  8
HIKIDASHI
 10
4720.1669178639659
 20
9409.2180016972652
 30
0.0
 11
4857.8460672583487
 21
9267.6929561227516
 31
0.0
1001
ACAD
1000
DSTYLE
1002
{
1070
    77
1070
     0
1002
}
  0
LINE
  5
1D2A1
  8
HIKIDASHI
 10
4730.9186001952876
 20
9419.6775106267669
 30
0.0
 11
4657.4098642869494
 21
9473.7280956851919
 31
0.0
  0
LINE
  5
1D2A2
  8
HIKIDASHI
 10
4657.4098642869494
 20
9473.7280956851919
 30
0.0
 11
4709.4152355326441
 21
9398.7584927677599
 31
0.0
  0
SOLID
  5
1D2A3
  8
HIKIDASHI
 10
4730.9186001952876
 20
9419.6775106267669
 30
0.0
 11
4709.4152355326441
 21
9398.7584927677599
 31
0.0
 12
4657.4098642869494
 22
9473.7280956851919
 32
0.0
 13
4657.4098642869494
 23
9473.7280956851919
 33
0.0
  0
LINE
  5
1D2A4
  8
HIKIDASHI
 10
4709.4152355326441
 20
9398.7584927677599
 30
0.0
 11
4730.9186001952876
 21
9419.6775106267669
 31
0.0
  0
LINE
  5
1D2A5
  8
HIKIDASHI
 10
4520.0771146232373
 20
9275.5853493642335
 30
0.0
 11
4279.8808184701211
 21
9125.3008998335445
 31
0.0
1001
ACAD
1000
DSTYLE
1002
{
1070
   147
1040
1.5
1070
    77
1070
     0
1002
}
  0
LINE
  5
1D2A6
  8
HIKIDASHI
 10
4528.0332561003988
 20
9262.8692252379406
 30
0.0
 11
4596.3738593810149
 21
9323.322198227208
 31
0.0
  0
LINE
  5
1D2A7
  8
HIKIDASHI
 10
4596.3738593810149
 20
9323.322198227208
 30
0.0
 11
4512.120973146074
 21
9288.3014734905319
 31
0.0
  0
SOLID
  5
1D2A8
  8
HIKIDASHI
 10
4528.0332561003988
 20
9262.8692252379406
 30
0.0
 11
4512.120973146074
 21
9288.3014734905319
 31
0.0
 12
4596.3738593810149
 22
9323.322198227208
 32
0.0
 13
4596.3738593810149
 23
9323.322198227208
 33
0.0
  0
LINE
  5
1D2A9
  8
HIKIDASHI
 10
4512.120973146074
 20
9288.3014734905319
 30
0.0
 11
4528.0332561003988
 21
9262.8692252379406
 31
0.0
  0
LINE
  5
1D2AA
  8
HIKIDASHI
 10
4706.3738593810322
 20
8738.8155270803618
 30
0.0
 11
4836.269662216032
 21
8513.8293968802882
 31
0.0
1001
ACAD
1000
DSTYLE
1002
{
1070
   147
1040
1.5
1070
    77
1070
     0
1002
}
  0
LINE
  5
1D2AB
  8
HIKIDASHI
 10
4719.3642404377979
 20
8746.3155270803654
 30
0.0
 11
4661.3738593810176
 21
8816.7578134209543
 31
0.0
  0
LINE
  5
1D2AC
  8
HIKIDASHI
 10
4661.3738593810176
 20
8816.7578134209543
 30
0.0
 11
4693.3834783242673
 21
8731.3155270803582
 31
0.0
  0
SOLID
  5
1D2AD
  8
HIKIDASHI
 10
4719.3642404377979
 20
8746.3155270803654
 30
0.0
 11
4693.3834783242673
 21
8731.3155270803582
 31
0.0
 12
4661.3738593810176
 22
8816.7578134209543
 32
0.0
 13
4661.3738593810176
 23
8816.7578134209543
 33
0.0
  0
LINE
  5
1D2AE
  8
HIKIDASHI
 10
4693.3834783242673
 20
8731.3155270803582
 30
0.0
 11
4719.3642404377979
 21
8746.3155270803654
 31
0.0
  0
LINE
  5
1D2AF
  8
HIKIDASHI
 10
4781.8216763882374
 20
10326.18943630869
 30
0.0
 11
4279.8808184701211
 21
10702.98971230208
 31
0.0
1001
ACAD
1000
DSTYLE
1002
{
1070
   147
1040
1.5
1070
    77
1070
     0
1002
}
  0
LINE
  5
1D2B0
  8
HIKIDASHI
 10
4772.8164059069459
 20
10314.19339097872
 30
0.0
 11
4853.797948368082
 21
10272.15781342095
 31
0.0
  0
LINE
  5
1D2B1
  8
HIKIDASHI
 10
4853.797948368082
 20
10272.15781342095
 30
0.0
 11
4790.826946869528
 21
10338.18548163866
 31
0.0
  0
SOLID
  5
1D2B2
  8
HIKIDASHI
 10
4772.8164059069459
 20
10314.19339097872
 30
0.0
 11
4790.826946869528
 21
10338.18548163866
 31
0.0
 12
4853.797948368082
 22
10272.15781342095
 32
0.0
 13
4853.797948368082
 23
10272.15781342095
 33
0.0
  0
LINE
  5
1D2B3
  8
HIKIDASHI
 10
4790.826946869528
 20
10338.18548163866
 30
0.0
 11
4772.8164059069459
 21
10314.19339097872
 31
0.0
  0
LINE
  5
1D2B4
  8
HIKIDASHI
 10
4686.5144960803736
 20
10055.55329005434
 30
0.0
 11
4279.8808184701211
 21
9815.8293735595616
 31
0.0
1001
ACAD
1000
DSTYLE
1002
{
1070
   147
1040
1.5
1070
    77
1070
     0
1002
}
  0
LINE
  5
1D2B5
  8
HIKIDASHI
 10
4694.1322510031687
 20
10042.63161021246
 30
0.0
 11
4764.0445751317029
 21
10101.25981959111
 31
0.0
  0
LINE
  5
1D2B6
  8
HIKIDASHI
 10
4764.0445751317029
 20
10101.25981959111
 30
0.0
 11
4678.8967411575813
 21
10068.474969896241
 31
0.0
  0
SOLID
  5
1D2B7
  8
HIKIDASHI
 10
4694.1322510031687
 20
10042.63161021246
 30
0.0
 11
4678.8967411575813
 21
10068.474969896241
 31
0.0
 12
4764.0445751317029
 22
10101.25981959111
 32
0.0
 13
4764.0445751317029
 23
10101.25981959111
 33
0.0
  0
LINE
  5
1D2B8
  8
HIKIDASHI
 10
4678.8967411575813
 20
10068.474969896241
 30
0.0
 11
4694.1322510031687
 21
10042.63161021246
 31
0.0
  0
LINE
  5
1D2B9
  8
HIKIDASHI
 10
5562.6015547456263
 20
8871.902060900813
 30
0.0
 11
5448.6163956743057
 21
8717.8076453950325
 31
0.0
1001
ACAD
1000
DSTYLE
1002
{
1070
   147
1040
1.5
1070
    77
1070
     0
1002
}
  0
LINE
  5
1D2BA
  8
HIKIDASHI
 10
5574.6608560273417
 20
8862.9816767949142
 30
0.0
 11
5616.1238593810158
 21
8944.2578685911176
 31
0.0
  0
LINE
  5
1D2BB
  8
HIKIDASHI
 10
5616.1238593810158
 20
8944.2578685911176
 30
0.0
 11
5550.5422534639074
 21
8880.8224450067119
 31
0.0
  0
SOLID
  5
1D2BC
  8
HIKIDASHI
 10
5574.6608560273417
 20
8862.9816767949142
 30
0.0
 11
5550.5422534639074
 21
8880.8224450067119
 31
0.0
 12
5616.1238593810158
 22
8944.2578685911176
 32
0.0
 13
5616.1238593810158
 23
8944.2578685911176
 33
0.0
  0
LINE
  5
1D2BD
  8
HIKIDASHI
 10
5550.5422534639074
 20
8880.8224450067119
 30
0.0
 11
5574.6608560273417
 21
8862.9816767949142
 31
0.0
  0
CIRCLE
  5
1D2BE
  8
HATCH
 10
10815.247802762011
 20
2694.5467985685341
 30
0.0
 40
3.75
  0
CIRCLE
  5
1D2BF
  8
HATCH
 10
10965.247802762011
 20
2694.5467985685341
 30
0.0
 40
3.75
  0
CIRCLE
  5
1D2C0
  8
HATCH
 10
11115.247802762011
 20
2694.5467985685341
 30
0.0
 40
3.75
  0
CIRCLE
  5
1D2C1
  8
HATCH
 10
11265.247802762011
 20
2694.5467985685341
 30
0.0
 40
3.75
  0
CIRCLE
  5
1D2C2
  8
HATCH
 10
11415.247802762011
 20
2694.5467985685341
 30
0.0
 40
3.75
  0
CIRCLE
  5
1D2C3
  8
HATCH
 10
11565.247802762011
 20
2694.5467985685341
 30
0.0
 40
3.75
  0
CIRCLE
  5
1D2C4
  8
HATCH
 10
11715.247802762011
 20
2694.5467985685341
 30
0.0
 40
3.75
  0
CIRCLE
  5
1D2C5
  8
HATCH
 10
11865.247802762011
 20
2694.5467985685341
 30
0.0
 40
3.75
  0
CIRCLE
  5
1D2C6
  8
HATCH
 10
12015.247802762011
 20
2694.5467985685341
 30
0.0
 40
3.75
  0
CIRCLE
  5
1D2C7
  8
HATCH
 10
12165.247802762011
 20
2694.5467985685341
 30
0.0
 40
3.75
  0
CIRCLE
  5
1D2C8
  8
HATCH
 10
12315.247802762011
 20
2694.5467985685341
 30
0.0
 40
3.75
  0
CIRCLE
  5
1D2C9
  8
HATCH
 10
12465.247802762011
 20
2694.5467985685341
 30
0.0
 40
3.75
  0
CIRCLE
  5
1D2CA
  8
HATCH
 10
12615.247802762011
 20
2694.5467985685341
 30
0.0
 40
3.75
  0
CIRCLE
  5
1D2CB
  8
HATCH
 10
12765.247802762011
 20
2694.5467985685341
 30
0.0
 40
3.75
  0
CIRCLE
  5
1D2CC
  8
HATCH
 10
12915.247802762011
 20
2694.5467985685341
 30
0.0
 40
3.75
  0
CIRCLE
  5
1D2CD
  8
HATCH
 10
13065.247802762011
 20
2694.5467985685341
 30
0.0
 40
3.75
  0
CIRCLE
  5
1D2CE
  8
HATCH
 10
7768.033042020852
 20
2694.5467985685318
 30
0.0
 40
3.75
  0
CIRCLE
  5
1D2CF
  8
HATCH
 10
7618.033042020852
 20
2694.5467985685318
 30
0.0
 40
3.75
  0
CIRCLE
  5
1D2D0
  8
HATCH
 10
4318.033042020852
 20
2694.5467985685318
 30
0.0
 40
3.75
  0
CIRCLE
  5
1D2D1
  8
HATCH
 10
7468.033042020852
 20
2694.5467985685318
 30
0.0
 40
3.75
  0
CIRCLE
  5
1D2D2
  8
HATCH
 10
7318.033042020852
 20
2694.5467985685318
 30
0.0
 40
3.75
  0
CIRCLE
  5
1D2D3
  8
HATCH
 10
7168.0330420208511
 20
2694.5467985685318
 30
0.0
 40
3.75
  0
CIRCLE
  5
1D2D4
  8
HATCH
 10
7018.0330420208493
 20
2694.5467985685318
 30
0.0
 40
3.75
  0
CIRCLE
  5
1D2D5
  8
HATCH
 10
6868.0330420208511
 20
2694.5467985685318
 30
0.0
 40
3.75
  0
CIRCLE
  5
1D2D6
  8
HATCH
 10
6718.0330420208493
 20
2694.5467985685318
 30
0.0
 40
3.75
  0
CIRCLE
  5
1D2D7
  8
HATCH
 10
6568.0330420208493
 20
2694.5467985685318
 30
0.0
 40
3.75
  0
CIRCLE
  5
1D2D8
  8
HATCH
 10
6418.0330420208511
 20
2694.5467985685318
 30
0.0
 40
3.75
  0
CIRCLE
  5
1D2D9
  8
HATCH
 10
6268.0330420208511
 20
2694.5467985685318
 30
0.0
 40
3.75
  0
CIRCLE
  5
1D2DA
  8
HATCH
 10
6118.0330420208511
 20
2694.5467985685318
 30
0.0
 40
3.75
  0
CIRCLE
  5
1D2DB
  8
HATCH
 10
5968.0330420208511
 20
2694.5467985685318
 30
0.0
 40
3.75
  0
CIRCLE
  5
1D2DC
  8
HATCH
 10
5818.0330420208493
 20
2694.5467985685318
 30
0.0
 40
3.75
  0
CIRCLE
  5
1D2DD
  8
HATCH
 10
5668.033042020852
 20
2694.5467985685318
 30
0.0
 40
3.75
  0
CIRCLE
  5
1D2DE
  8
HATCH
 10
5518.0330420208493
 20
2694.5467985685318
 30
0.0
 40
3.75
  0
CIRCLE
  5
1D2DF
  8
HATCH
 10
5368.033042020852
 20
2694.5467985685318
 30
0.0
 40
3.75
  0
CIRCLE
  5
1D2E0
  8
HATCH
 10
5218.033042020852
 20
2694.5467985685318
 30
0.0
 40
3.75
  0
CIRCLE
  5
1D2E1
  8
HATCH
 10
5068.0330420208502
 20
2694.5467985685318
 30
0.0
 40
3.75
  0
CIRCLE
  5
1D2E2
  8
HATCH
 10
4918.033042020852
 20
2694.5467985685318
 30
0.0
 40
3.75
  0
CIRCLE
  5
1D2E3
  8
HATCH
 10
4768.033042020852
 20
2694.5467985685318
 30
0.0
 40
3.75
  0
CIRCLE
  5
1D2E4
  8
HATCH
 10
4618.033042020852
 20
2694.5467985685318
 30
0.0
 40
3.75
  0
CIRCLE
  5
1D2E5
  8
HATCH
 10
4468.0330420208511
 20
2694.5467985685318
 30
0.0
 40
3.75
  0
ARC
  5
1D2E6
  8
HATCH
 10
10815.247802762011
 20
2694.5467985685341
 30
0.0
 40
1.875
 50
180.0
 51
0.0
  0
ARC
  5
1D2E7
  8
HATCH
 10
10815.247802762011
 20
2694.5467985685341
 30
0.0
 40
1.875
 50
0.0
 51
180.0
  0
ARC
  5
1D2E8
  8
HATCH
 10
10965.247802762011
 20
2694.5467985685341
 30
0.0
 40
1.875
 50
180.0
 51
0.0
  0
ARC
  5
1D2E9
  8
HATCH
 10
10965.247802762011
 20
2694.5467985685341
 30
0.0
 40
1.875
 50
0.0
 51
180.0
  0
ARC
  5
1D2EA
  8
HATCH
 10
11115.247802762011
 20
2694.5467985685341
 30
0.0
 40
1.875
 50
180.0
 51
0.0
  0
ARC
  5
1D2EB
  8
HATCH
 10
11115.247802762011
 20
2694.5467985685341
 30
0.0
 40
1.875
 50
0.0
 51
180.0
  0
ARC
  5
1D2EC
  8
HATCH
 10
11265.247802762011
 20
2694.5467985685341
 30
0.0
 40
1.875
 50
180.0
 51
0.0
  0
ARC
  5
1D2ED
  8
HATCH
 10
11265.247802762011
 20
2694.5467985685341
 30
0.0
 40
1.875
 50
0.0
 51
180.0
  0
ARC
  5
1D2EE
  8
HATCH
 10
11415.247802762011
 20
2694.5467985685341
 30
0.0
 40
1.875
 50
180.0
 51
0.0
  0
ARC
  5
1D2EF
  8
HATCH
 10
11415.247802762011
 20
2694.5467985685341
 30
0.0
 40
1.875
 50
0.0
 51
180.0
  0
ARC
  5
1D2F0
  8
HATCH
 10
11565.247802762011
 20
2694.5467985685341
 30
0.0
 40
1.875
 50
180.0
 51
0.0
  0
ARC
  5
1D2F1
  8
HATCH
 10
11565.247802762011
 20
2694.5467985685341
 30
0.0
 40
1.875
 50
0.0
 51
180.0
  0
ARC
  5
1D2F2
  8
HATCH
 10
11715.247802762011
 20
2694.5467985685341
 30
0.0
 40
1.875
 50
180.0
 51
0.0
  0
ARC
  5
1D2F3
  8
HATCH
 10
11715.247802762011
 20
2694.5467985685341
 30
0.0
 40
1.875
 50
0.0
 51
180.0
  0
ARC
  5
1D2F4
  8
HATCH
 10
11865.247802762011
 20
2694.5467985685341
 30
0.0
 40
1.875
 50
180.0
 51
0.0
  0
ARC
  5
1D2F5
  8
HATCH
 10
11865.247802762011
 20
2694.5467985685341
 30
0.0
 40
1.875
 50
0.0
 51
180.0
  0
ARC
  5
1D2F6
  8
HATCH
 10
12015.247802762011
 20
2694.5467985685341
 30
0.0
 40
1.875
 50
180.0
 51
0.0
  0
ARC
  5
1D2F7
  8
HATCH
 10
12015.247802762011
 20
2694.5467985685341
 30
0.0
 40
1.875
 50
0.0
 51
180.0
  0
ARC
  5
1D2F8
  8
HATCH
 10
12165.247802762011
 20
2694.5467985685341
 30
0.0
 40
1.875
 50
180.0
 51
0.0
  0
ARC
  5
1D2F9
  8
HATCH
 10
12165.247802762011
 20
2694.5467985685341
 30
0.0
 40
1.875
 50
0.0
 51
180.0
  0
ARC
  5
1D2FA
  8
HATCH
 10
12315.247802762011
 20
2694.5467985685341
 30
0.0
 40
1.875
 50
180.0
 51
0.0
  0
ARC
  5
1D2FB
  8
HATCH
 10
12315.247802762011
 20
2694.5467985685341
 30
0.0
 40
1.875
 50
0.0
 51
180.0
  0
ARC
  5
1D2FC
  8
HATCH
 10
12465.247802762011
 20
2694.5467985685341
 30
0.0
 40
1.875
 50
180.0
 51
0.0
  0
ARC
  5
1D2FD
  8
HATCH
 10
12465.247802762011
 20
2694.5467985685341
 30
0.0
 40
1.875
 50
0.0
 51
180.0
  0
ARC
  5
1D2FE
  8
HATCH
 10
12615.247802762011
 20
2694.5467985685341
 30
0.0
 40
1.875
 50
180.0
 51
0.0
  0
ARC
  5
1D2FF
  8
HATCH
 10
12615.247802762011
 20
2694.5467985685341
 30
0.0
 40
1.875
 50
0.0
 51
180.0
  0
ARC
  5
1D300
  8
HATCH
 10
12765.247802762011
 20
2694.5467985685341
 30
0.0
 40
1.875
 50
180.0
 51
0.0
  0
ARC
  5
1D301
  8
HATCH
 10
12765.247802762011
 20
2694.5467985685341
 30
0.0
 40
1.875
 50
0.0
 51
180.0
  0
ARC
  5
1D302
  8
HATCH
 10
12915.247802762011
 20
2694.5467985685341
 30
0.0
 40
1.875
 50
180.0
 51
0.0
  0
ARC
  5
1D303
  8
HATCH
 10
12915.247802762011
 20
2694.5467985685341
 30
0.0
 40
1.875
 50
0.0
 51
180.0
  0
ARC
  5
1D304
  8
HATCH
 10
13065.247802762011
 20
2694.5467985685341
 30
0.0
 40
1.875
 50
180.0
 51
0.0
  0
ARC
  5
1D305
  8
HATCH
 10
13065.247802762011
 20
2694.5467985685341
 30
0.0
 40
1.875
 50
0.0
 51
180.0
  0
ARC
  5
1D306
  8
HATCH
 10
7768.033042020852
 20
2694.5467985685318
 30
0.0
 40
1.875
 50
180.0
 51
0.0
  0
ARC
  5
1D307
  8
HATCH
 10
7768.033042020852
 20
2694.5467985685318
 30
0.0
 40
1.875
 50
0.0
 51
180.0
  0
ARC
  5
1D308
  8
HATCH
 10
7618.033042020852
 20
2694.5467985685318
 30
0.0
 40
1.875
 50
180.0
 51
0.0
  0
ARC
  5
1D309
  8
HATCH
 10
7618.033042020852
 20
2694.5467985685318
 30
0.0
 40
1.875
 50
0.0
 51
180.0
  0
ARC
  5
1D30A
  8
HATCH
 10
4318.033042020852
 20
2694.5467985685318
 30
0.0
 40
1.875
 50
180.0
 51
0.0
  0
ARC
  5
1D30B
  8
HATCH
 10
4318.033042020852
 20
2694.5467985685318
 30
0.0
 40
1.875
 50
0.0
 51
180.0
  0
ARC
  5
1D30C
  8
HATCH
 10
7468.033042020852
 20
2694.5467985685318
 30
0.0
 40
1.875
 50
180.0
 51
0.0
  0
ARC
  5
1D30D
  8
HATCH
 10
7468.033042020852
 20
2694.5467985685318
 30
0.0
 40
1.875
 50
0.0
 51
180.0
  0
ARC
  5
1D30E
  8
HATCH
 10
7318.033042020852
 20
2694.5467985685318
 30
0.0
 40
1.875
 50
180.0
 51
0.0
  0
ARC
  5
1D30F
  8
HATCH
 10
7318.033042020852
 20
2694.5467985685318
 30
0.0
 40
1.875
 50
0.0
 51
180.0
  0
ARC
  5
1D310
  8
HATCH
 10
7168.0330420208511
 20
2694.5467985685318
 30
0.0
 40
1.875
 50
180.0
 51
0.0
  0
ARC
  5
1D311
  8
HATCH
 10
7168.0330420208511
 20
2694.5467985685318
 30
0.0
 40
1.875
 50
0.0
 51
180.0
  0
ARC
  5
1D312
  8
HATCH
 10
7018.0330420208493
 20
2694.5467985685318
 30
0.0
 40
1.875
 50
180.0
 51
0.0
  0
ARC
  5
1D313
  8
HATCH
 10
7018.0330420208493
 20
2694.5467985685318
 30
0.0
 40
1.875
 50
0.0
 51
180.0
  0
ARC
  5
1D314
  8
HATCH
 10
6868.0330420208511
 20
2694.5467985685318
 30
0.0
 40
1.875
 50
180.0
 51
0.0
  0
ARC
  5
1D315
  8
HATCH
 10
6868.0330420208511
 20
2694.5467985685318
 30
0.0
 40
1.875
 50
0.0
 51
180.0
  0
ARC
  5
1D316
  8
HATCH
 10
6718.0330420208493
 20
2694.5467985685318
 30
0.0
 40
1.875
 50
180.0
 51
0.0
  0
ARC
  5
1D317
  8
HATCH
 10
6718.0330420208493
 20
2694.5467985685318
 30
0.0
 40
1.875
 50
0.0
 51
180.0
  0
ARC
  5
1D318
  8
HATCH
 10
6568.0330420208493
 20
2694.5467985685318
 30
0.0
 40
1.875
 50
180.0
 51
0.0
  0
ARC
  5
1D319
  8
HATCH
 10
6568.0330420208493
 20
2694.5467985685318
 30
0.0
 40
1.875
 50
0.0
 51
180.0
  0
ARC
  5
1D31A
  8
HATCH
 10
6418.0330420208511
 20
2694.5467985685318
 30
0.0
 40
1.875
 50
180.0
 51
0.0
  0
ARC
  5
1D31B
  8
HATCH
 10
6418.0330420208511
 20
2694.5467985685318
 30
0.0
 40
1.875
 50
0.0
 51
180.0
  0
ARC
  5
1D31C
  8
HATCH
 10
6268.0330420208511
 20
2694.5467985685318
 30
0.0
 40
1.875
 50
180.0
 51
0.0
  0
ARC
  5
1D31D
  8
HATCH
 10
6268.0330420208511
 20
2694.5467985685318
 30
0.0
 40
1.875
 50
0.0
 51
180.0
  0
ARC
  5
1D31E
  8
HATCH
 10
6118.0330420208511
 20
2694.5467985685318
 30
0.0
 40
1.875
 50
180.0
 51
0.0
  0
ARC
  5
1D31F
  8
HATCH
 10
6118.0330420208511
 20
2694.5467985685318
 30
0.0
 40
1.875
 50
0.0
 51
180.0
  0
ARC
  5
1D320
  8
HATCH
 10
5968.0330420208511
 20
2694.5467985685318
 30
0.0
 40
1.875
 50
180.0
 51
0.0
  0
ARC
  5
1D321
  8
HATCH
 10
5968.0330420208511
 20
2694.5467985685318
 30
0.0
 40
1.875
 50
0.0
 51
180.0
  0
ARC
  5
1D322
  8
HATCH
 10
5818.0330420208493
 20
2694.5467985685318
 30
0.0
 40
1.875
 50
180.0
 51
0.0
  0
ARC
  5
1D323
  8
HATCH
 10
5818.0330420208493
 20
2694.5467985685318
 30
0.0
 40
1.875
 50
0.0
 51
180.0
  0
ARC
  5
1D324
  8
HATCH
 10
5668.033042020852
 20
2694.5467985685318
 30
0.0
 40
1.875
 50
180.0
 51
0.0
  0
ARC
  5
1D325
  8
HATCH
 10
5668.033042020852
 20
2694.5467985685318
 30
0.0
 40
1.875
 50
0.0
 51
180.0
  0
ARC
  5
1D326
  8
HATCH
 10
5518.0330420208493
 20
2694.5467985685318
 30
0.0
 40
1.875
 50
180.0
 51
0.0
  0
ARC
  5
1D327
  8
HATCH
 10
5518.0330420208493
 20
2694.5467985685318
 30
0.0
 40
1.875
 50
0.0
 51
180.0
  0
ARC
  5
1D328
  8
HATCH
 10
5368.033042020852
 20
2694.5467985685318
 30
0.0
 40
1.875
 50
180.0
 51
0.0
  0
ARC
  5
1D329
  8
HATCH
 10
5368.033042020852
 20
2694.5467985685318
 30
0.0
 40
1.875
 50
0.0
 51
180.0
  0
ARC
  5
1D32A
  8
HATCH
 10
5218.033042020852
 20
2694.5467985685318
 30
0.0
 40
1.875
 50
180.0
 51
0.0
  0
ARC
  5
1D32B
  8
HATCH
 10
5218.033042020852
 20
2694.5467985685318
 30
0.0
 40
1.875
 50
0.0
 51
180.0
  0
ARC
  5
1D32C
  8
HATCH
 10
5068.0330420208502
 20
2694.5467985685318
 30
0.0
 40
1.875
 50
180.0
 51
0.0
  0
ARC
  5
1D32D
  8
HATCH
 10
5068.0330420208502
 20
2694.5467985685318
 30
0.0
 40
1.875
 50
0.0
 51
180.0
  0
ARC
  5
1D32E
  8
HATCH
 10
4918.033042020852
 20
2694.5467985685318
 30
0.0
 40
1.875
 50
180.0
 51
0.0
  0
ARC
  5
1D32F
  8
HATCH
 10
4918.033042020852
 20
2694.5467985685318
 30
0.0
 40
1.875
 50
0.0
 51
180.0
  0
ARC
  5
1D330
  8
HATCH
 10
4768.033042020852
 20
2694.5467985685318
 30
0.0
 40
1.875
 50
180.0
 51
0.0
  0
ARC
  5
1D331
  8
HATCH
 10
4768.033042020852
 20
2694.5467985685318
 30
0.0
 40
1.875
 50
0.0
 51
180.0
  0
ARC
  5
1D332
  8
HATCH
 10
4618.033042020852
 20
2694.5467985685318
 30
0.0
 40
1.875
 50
180.0
 51
0.0
  0
ARC
  5
1D333
  8
HATCH
 10
4618.033042020852
 20
2694.5467985685318
 30
0.0
 40
1.875
 50
0.0
 51
180.0
  0
ARC
  5
1D334
  8
HATCH
 10
4468.0330420208511
 20
2694.5467985685318
 30
0.0
 40
1.875
 50
180.0
 51
0.0
  0
ARC
  5
1D335
  8
HATCH
 10
4468.0330420208511
 20
2694.5467985685318
 30
0.0
 40
1.875
 50
0.0
 51
180.0
  0
LINE
  5
1D336
  8
U3
 10
4799.6238593810167
 20
10146.25786859111
 30
0.0
 11
4858.1238593810158
 21
10146.25786859111
 31
0.0
  0
LINE
  5
1D337
  8
U3
 10
4858.1238593810158
 20
10121.257868591119
 30
0.0
 11
4799.6238593810167
 21
10121.257868591119
 31
0.0
  0
LINE
  5
1D338
  8
U3
 10
4799.6238593810167
 20
10121.257868591119
 30
0.0
 11
4799.6238593810167
 21
10146.25786859111
 31
0.0
  0
CIRCLE
  5
1D339
  8
U3
 10
4828.8738593810194
 20
10133.757868591119
 30
0.0
 40
8.0
  0
LINE
  5
1D33A
  8
U3
 10
4816.1238593810176
 20
10146.25786859111
 30
0.0
 11
4816.1238593810176
 21
10121.257868591119
 31
0.0
  0
LINE
  5
1D33B
  8
U3
 10
4841.6238593810194
 20
10146.25786859111
 30
0.0
 11
4841.6238593810194
 21
10121.257868591119
 31
0.0
  0
LINE
  5
1D33C
  8
U3
 10
4858.1238593810158
 20
10146.25786859111
 30
0.0
 11
4858.1238593810158
 21
10121.257868591119
 31
0.0
  0
LINE
  5
1D33D
  8
U3
 10
4799.6238593810167
 20
9557.7578685911158
 30
0.0
 11
4858.1238593810158
 21
9557.7578685911158
 31
0.0
  0
LINE
  5
1D33E
  8
U3
 10
4858.1238593810158
 20
9532.7578685911176
 30
0.0
 11
4799.6238593810167
 21
9532.7578685911176
 31
0.0
  0
LINE
  5
1D33F
  8
U3
 10
4799.6238593810167
 20
9532.7578685911176
 30
0.0
 11
4799.6238593810167
 21
9557.7578685911158
 31
0.0
  0
CIRCLE
  5
1D340
  8
U3
 10
4828.8738593810194
 20
9545.2578685911158
 30
0.0
 40
8.0
  0
LINE
  5
1D341
  8
U3
 10
4816.1238593810176
 20
9557.7578685911158
 30
0.0
 11
4816.1238593810176
 21
9532.7578685911176
 31
0.0
  0
LINE
  5
1D342
  8
U3
 10
4841.6238593810194
 20
9557.7578685911158
 30
0.0
 11
4841.6238593810194
 21
9532.7578685911176
 31
0.0
  0
LINE
  5
1D343
  8
U3
 10
4858.1238593810158
 20
9557.7578685911158
 30
0.0
 11
4858.1238593810158
 21
9532.7578685911176
 31
0.0
  0
LINE
  5
1D344
  8
U3
 10
4799.6238593810167
 20
8380.7578685911176
 30
0.0
 11
4858.1238593810158
 21
8380.7578685911176
 31
0.0
  0
LINE
  5
1D345
  8
U3
 10
4858.1238593810158
 20
8355.7578685911176
 30
0.0
 11
4799.6238593810167
 21
8355.7578685911176
 31
0.0
  0
LINE
  5
1D346
  8
U3
 10
4799.6238593810167
 20
8355.7578685911176
 30
0.0
 11
4799.6238593810167
 21
8380.7578685911176
 31
0.0
  0
CIRCLE
  5
1D347
  8
U3
 10
4828.8738593810194
 20
8368.2578685911176
 30
0.0
 40
8.0
  0
LINE
  5
1D348
  8
U3
 10
4816.1238593810176
 20
8380.7578685911176
 30
0.0
 11
4816.1238593810176
 21
8355.7578685911176
 31
0.0
  0
LINE
  5
1D349
  8
U3
 10
4841.6238593810194
 20
8380.7578685911176
 30
0.0
 11
4841.6238593810194
 21
8355.7578685911176
 31
0.0
  0
LINE
  5
1D34A
  8
U3
 10
4858.1238593810158
 20
8380.7578685911176
 30
0.0
 11
4858.1238593810158
 21
8355.7578685911176
 31
0.0
  0
LINE
  5
1D34B
  8
U3
 10
4799.6238593810167
 20
8969.2578685911176
 30
0.0
 11
4858.1238593810158
 21
8969.2578685911176
 31
0.0
  0
LINE
  5
1D34C
  8
U3
 10
4858.1238593810158
 20
8944.2578685911176
 30
0.0
 11
4799.6238593810167
 21
8944.2578685911176
 31
0.0
  0
LINE
  5
1D34D
  8
U3
 10
4799.6238593810167
 20
8944.2578685911176
 30
0.0
 11
4799.6238593810167
 21
8969.2578685911176
 31
0.0
  0
CIRCLE
  5
1D34E
  8
U3
 10
4828.8738593810194
 20
8956.7578685911158
 30
0.0
 40
8.0
  0
LINE
  5
1D34F
  8
U3
 10
4816.1238593810176
 20
8969.2578685911176
 30
0.0
 11
4816.1238593810176
 21
8944.2578685911176
 31
0.0
  0
LINE
  5
1D350
  8
U3
 10
4841.6238593810194
 20
8969.2578685911176
 30
0.0
 11
4841.6238593810194
 21
8944.2578685911176
 31
0.0
  0
LINE
  5
1D351
  8
U3
 10
4858.1238593810158
 20
8969.2578685911176
 30
0.0
 11
4858.1238593810158
 21
8944.2578685911176
 31
0.0
  0
LINE
  5
1D352
  8
U3
 10
4399.6233163810157
 20
10146.25786859111
 30
0.0
 11
4458.1233163810157
 21
10146.25786859111
 31
0.0
  0
LINE
  5
1D353
  8
U3
 10
4458.1233163810157
 20
10121.257868591119
 30
0.0
 11
4399.6233163810157
 21
10121.257868591119
 31
0.0
  0
LINE
  5
1D354
  8
U3
 10
4399.6233163810157
 20
10121.257868591119
 30
0.0
 11
4399.6233163810157
 21
10146.25786859111
 31
0.0
  0
CIRCLE
  5
1D355
  8
U3
 10
4428.8733163810157
 20
10133.757868591119
 30
0.0
 40
8.0
  0
LINE
  5
1D356
  8
U3
 10
4416.1233163810166
 20
10146.25786859111
 30
0.0
 11
4416.1233163810166
 21
10121.257868591119
 31
0.0
  0
LINE
  5
1D357
  8
U3
 10
4441.6233163810184
 20
10146.25786859111
 30
0.0
 11
4441.6233163810184
 21
10121.257868591119
 31
0.0
  0
LINE
  5
1D358
  8
U3
 10
4458.1233163810157
 20
10146.25786859111
 30
0.0
 11
4458.1233163810157
 21
10121.257868591119
 31
0.0
  0
LINE
  5
1D359
  8
U3
 10
5199.6238593810158
 20
10146.25786859111
 30
0.0
 11
5258.1238593810203
 21
10146.25786859111
 31
0.0
  0
LINE
  5
1D35A
  8
U3
 10
5258.1238593810203
 20
10121.257868591119
 30
0.0
 11
5199.6238593810158
 21
10121.257868591119
 31
0.0
  0
LINE
  5
1D35B
  8
U3
 10
5199.6238593810158
 20
10121.257868591119
 30
0.0
 11
5199.6238593810158
 21
10146.25786859111
 31
0.0
  0
CIRCLE
  5
1D35C
  8
U3
 10
5228.8738593810176
 20
10133.757868591119
 30
0.0
 40
8.0
  0
LINE
  5
1D35D
  8
U3
 10
5216.1238593810167
 20
10146.25786859111
 30
0.0
 11
5216.1238593810167
 21
10121.257868591119
 31
0.0
  0
LINE
  5
1D35E
  8
U3
 10
5241.6238593810176
 20
10146.25786859111
 30
0.0
 11
5241.6238593810176
 21
10121.257868591119
 31
0.0
  0
LINE
  5
1D35F
  8
U3
 10
5258.1238593810203
 20
10146.25786859111
 30
0.0
 11
5258.1238593810203
 21
10121.257868591119
 31
0.0
  0
LINE
  5
1D360
  8
U3
 10
4399.6233163810157
 20
9557.7578685911158
 30
0.0
 11
4458.1233163810157
 21
9557.7578685911158
 31
0.0
  0
LINE
  5
1D361
  8
U3
 10
4458.1233163810157
 20
9532.7578685911176
 30
0.0
 11
4399.6233163810157
 21
9532.7578685911176
 31
0.0
  0
LINE
  5
1D362
  8
U3
 10
4399.6233163810157
 20
9532.7578685911176
 30
0.0
 11
4399.6233163810157
 21
9557.7578685911158
 31
0.0
  0
CIRCLE
  5
1D363
  8
U3
 10
4428.8733163810157
 20
9545.2578685911158
 30
0.0
 40
8.0
  0
LINE
  5
1D364
  8
U3
 10
4416.1233163810166
 20
9557.7578685911158
 30
0.0
 11
4416.1233163810166
 21
9532.7578685911176
 31
0.0
  0
LINE
  5
1D365
  8
U3
 10
4441.6233163810184
 20
9557.7578685911158
 30
0.0
 11
4441.6233163810184
 21
9532.7578685911176
 31
0.0
  0
LINE
  5
1D366
  8
U3
 10
4458.1233163810157
 20
9557.7578685911158
 30
0.0
 11
4458.1233163810157
 21
9532.7578685911176
 31
0.0
  0
LINE
  5
1D367
  8
U3
 10
5199.6238593810158
 20
9557.7578685911158
 30
0.0
 11
5258.1238593810203
 21
9557.7578685911158
 31
0.0
  0
LINE
  5
1D368
  8
U3
 10
5258.1238593810203
 20
9532.7578685911176
 30
0.0
 11
5199.6238593810158
 21
9532.7578685911176
 31
0.0
  0
LINE
  5
1D369
  8
U3
 10
5199.6238593810158
 20
9532.7578685911176
 30
0.0
 11
5199.6238593810158
 21
9557.7578685911158
 31
0.0
  0
CIRCLE
  5
1D36A
  8
U3
 10
5228.8738593810176
 20
9545.2578685911158
 30
0.0
 40
8.0
  0
LINE
  5
1D36B
  8
U3
 10
5216.1238593810167
 20
9557.7578685911158
 30
0.0
 11
5216.1238593810167
 21
9532.7578685911176
 31
0.0
  0
LINE
  5
1D36C
  8
U3
 10
5241.6238593810176
 20
9557.7578685911158
 30
0.0
 11
5241.6238593810176
 21
9532.7578685911176
 31
0.0
  0
LINE
  5
1D36D
  8
U3
 10
5258.1238593810203
 20
9557.7578685911158
 30
0.0
 11
5258.1238593810203
 21
9532.7578685911176
 31
0.0
  0
LINE
  5
1D36E
  8
U3
 10
5599.6238593810194
 20
9557.7578685911158
 30
0.0
 11
5658.1238593810167
 21
9557.7578685911158
 31
0.0
  0
LINE
  5
1D36F
  8
U3
 10
5658.1238593810167
 20
9532.7578685911176
 30
0.0
 11
5599.6238593810194
 21
9532.7578685911176
 31
0.0
  0
LINE
  5
1D370
  8
U3
 10
5599.6238593810194
 20
9532.7578685911176
 30
0.0
 11
5599.6238593810194
 21
9557.7578685911158
 31
0.0
  0
CIRCLE
  5
1D371
  8
U3
 10
5628.8738593810203
 20
9545.2578685911158
 30
0.0
 40
8.0
  0
LINE
  5
1D372
  8
U3
 10
5616.1238593810158
 20
9557.7578685911158
 30
0.0
 11
5616.1238593810158
 21
9532.7578685911176
 31
0.0
  0
LINE
  5
1D373
  8
U3
 10
5641.6238593810167
 20
9557.7578685911158
 30
0.0
 11
5641.6238593810167
 21
9532.7578685911176
 31
0.0
  0
LINE
  5
1D374
  8
U3
 10
5658.1238593810167
 20
9557.7578685911158
 30
0.0
 11
5658.1238593810167
 21
9532.7578685911176
 31
0.0
  0
LINE
  5
1D375
  8
U3
 10
4399.6233163810157
 20
8380.7578685911176
 30
0.0
 11
4458.1233163810157
 21
8380.7578685911176
 31
0.0
  0
LINE
  5
1D376
  8
U3
 10
4458.1233163810157
 20
8355.7578685911176
 30
0.0
 11
4399.6233163810157
 21
8355.7578685911176
 31
0.0
  0
LINE
  5
1D377
  8
U3
 10
4399.6233163810157
 20
8355.7578685911176
 30
0.0
 11
4399.6233163810157
 21
8380.7578685911176
 31
0.0
  0
CIRCLE
  5
1D378
  8
U3
 10
4428.8733163810157
 20
8368.2578685911176
 30
0.0
 40
8.0
  0
LINE
  5
1D379
  8
U3
 10
4416.1233163810166
 20
8380.7578685911176
 30
0.0
 11
4416.1233163810166
 21
8355.7578685911176
 31
0.0
  0
LINE
  5
1D37A
  8
U3
 10
4441.6233163810184
 20
8380.7578685911176
 30
0.0
 11
4441.6233163810184
 21
8355.7578685911176
 31
0.0
  0
LINE
  5
1D37B
  8
U3
 10
4458.1233163810157
 20
8380.7578685911176
 30
0.0
 11
4458.1233163810157
 21
8355.7578685911176
 31
0.0
  0
LINE
  5
1D37C
  8
U3
 10
5999.6238593810167
 20
8380.7578685911176
 30
0.0
 11
6058.1238593810176
 21
8380.7578685911176
 31
0.0
  0
LINE
  5
1D37D
  8
U3
 10
6058.1238593810176
 20
8355.7578685911176
 30
0.0
 11
5999.6238593810167
 21
8355.7578685911176
 31
0.0
  0
LINE
  5
1D37E
  8
U3
 10
5999.6238593810167
 20
8355.7578685911176
 30
0.0
 11
5999.6238593810167
 21
8380.7578685911176
 31
0.0
  0
CIRCLE
  5
1D37F
  8
U3
 10
6028.8738593810176
 20
8368.2578685911176
 30
0.0
 40
8.0
  0
LINE
  5
1D380
  8
U3
 10
6016.1238593810203
 20
8380.7578685911176
 30
0.0
 11
6016.1238593810203
 21
8355.7578685911176
 31
0.0
  0
LINE
  5
1D381
  8
U3
 10
6041.6238593810194
 20
8380.7578685911176
 30
0.0
 11
6041.6238593810194
 21
8355.7578685911176
 31
0.0
  0
LINE
  5
1D382
  8
U3
 10
6058.1238593810176
 20
8380.7578685911176
 30
0.0
 11
6058.1238593810176
 21
8355.7578685911176
 31
0.0
  0
LINE
  5
1D383
  8
U3
 10
5199.6238593810158
 20
8380.7578685911176
 30
0.0
 11
5258.1238593810203
 21
8380.7578685911176
 31
0.0
  0
LINE
  5
1D384
  8
U3
 10
5258.1238593810203
 20
8355.7578685911176
 30
0.0
 11
5199.6238593810158
 21
8355.7578685911176
 31
0.0
  0
LINE
  5
1D385
  8
U3
 10
5199.6238593810158
 20
8355.7578685911176
 30
0.0
 11
5199.6238593810158
 21
8380.7578685911176
 31
0.0
  0
CIRCLE
  5
1D386
  8
U3
 10
5228.8738593810176
 20
8368.2578685911176
 30
0.0
 40
8.0
  0
LINE
  5
1D387
  8
U3
 10
5216.1238593810167
 20
8380.7578685911176
 30
0.0
 11
5216.1238593810167
 21
8355.7578685911176
 31
0.0
  0
LINE
  5
1D388
  8
U3
 10
5241.6238593810176
 20
8380.7578685911176
 30
0.0
 11
5241.6238593810176
 21
8355.7578685911176
 31
0.0
  0
LINE
  5
1D389
  8
U3
 10
5258.1238593810203
 20
8380.7578685911176
 30
0.0
 11
5258.1238593810203
 21
8355.7578685911176
 31
0.0
  0
LINE
  5
1D38A
  8
U3
 10
5599.6238593810194
 20
8380.7578685911176
 30
0.0
 11
5658.1238593810167
 21
8380.7578685911176
 31
0.0
  0
LINE
  5
1D38B
  8
U3
 10
5658.1238593810167
 20
8355.7578685911176
 30
0.0
 11
5599.6238593810194
 21
8355.7578685911176
 31
0.0
  0
LINE
  5
1D38C
  8
U3
 10
5599.6238593810194
 20
8355.7578685911176
 30
0.0
 11
5599.6238593810194
 21
8380.7578685911176
 31
0.0
  0
CIRCLE
  5
1D38D
  8
U3
 10
5628.8738593810203
 20
8368.2578685911176
 30
0.0
 40
8.0
  0
LINE
  5
1D38E
  8
U3
 10
5616.1238593810158
 20
8380.7578685911176
 30
0.0
 11
5616.1238593810158
 21
8355.7578685911176
 31
0.0
  0
LINE
  5
1D38F
  8
U3
 10
5641.6238593810167
 20
8380.7578685911176
 30
0.0
 11
5641.6238593810167
 21
8355.7578685911176
 31
0.0
  0
LINE
  5
1D390
  8
U3
 10
5658.1238593810167
 20
8380.7578685911176
 30
0.0
 11
5658.1238593810167
 21
8355.7578685911176
 31
0.0
  0
LINE
  5
1D391
  8
U3
 10
4399.6233163810157
 20
8969.2578685911176
 30
0.0
 11
4458.1233163810157
 21
8969.2578685911176
 31
0.0
  0
LINE
  5
1D392
  8
U3
 10
4458.1233163810157
 20
8944.2578685911176
 30
0.0
 11
4399.6233163810157
 21
8944.2578685911176
 31
0.0
  0
LINE
  5
1D393
  8
U3
 10
4399.6233163810157
 20
8944.2578685911176
 30
0.0
 11
4399.6233163810157
 21
8969.2578685911176
 31
0.0
  0
CIRCLE
  5
1D394
  8
U3
 10
4428.8733163810157
 20
8956.7578685911158
 30
0.0
 40
8.0
  0
LINE
  5
1D395
  8
U3
 10
4416.1233163810166
 20
8969.2578685911176
 30
0.0
 11
4416.1233163810166
 21
8944.2578685911176
 31
0.0
  0
LINE
  5
1D396
  8
U3
 10
4441.6233163810184
 20
8969.2578685911176
 30
0.0
 11
4441.6233163810184
 21
8944.2578685911176
 31
0.0
  0
LINE
  5
1D397
  8
U3
 10
4458.1233163810157
 20
8969.2578685911176
 30
0.0
 11
4458.1233163810157
 21
8944.2578685911176
 31
0.0
  0
LINE
  5
1D398
  8
U3
 10
5999.6238593810167
 20
8969.2578685911176
 30
0.0
 11
6058.1238593810176
 21
8969.2578685911176
 31
0.0
  0
LINE
  5
1D399
  8
U3
 10
6058.1238593810176
 20
8944.2578685911176
 30
0.0
 11
5999.6238593810167
 21
8944.2578685911176
 31
0.0
  0
LINE
  5
1D39A
  8
U3
 10
5999.6238593810167
 20
8944.2578685911176
 30
0.0
 11
5999.6238593810167
 21
8969.2578685911176
 31
0.0
  0
CIRCLE
  5
1D39B
  8
U3
 10
6028.8738593810176
 20
8956.7578685911158
 30
0.0
 40
8.0
  0
LINE
  5
1D39C
  8
U3
 10
6016.1238593810203
 20
8969.2578685911176
 30
0.0
 11
6016.1238593810203
 21
8944.2578685911176
 31
0.0
  0
LINE
  5
1D39D
  8
U3
 10
6041.6238593810194
 20
8969.2578685911176
 30
0.0
 11
6041.6238593810194
 21
8944.2578685911176
 31
0.0
  0
LINE
  5
1D39E
  8
U3
 10
6058.1238593810176
 20
8969.2578685911176
 30
0.0
 11
6058.1238593810176
 21
8944.2578685911176
 31
0.0
  0
LINE
  5
1D39F
  8
HISHIRA
  6
KAKURE-05
 10
4596.3738593810149
 20
8784.2578134209543
 30
0.0
 11
4661.3738593810176
 21
8784.2578134209543
 31
0.0
  0
LINE
  5
1D3A0
  8
HISHIRA
  6
KAKURE-05
 10
4661.3738593810176
 20
8784.2578134209543
 30
0.0
 11
4661.3738593810176
 21
8849.257813420958
 31
0.0
  0
LINE
  5
1D3A1
  8
HISHIRA
  6
KAKURE-05
 10
4661.3738593810176
 20
8849.257813420958
 30
0.0
 11
4596.3738593810149
 21
8849.257813420958
 31
0.0
  0
LINE
  5
1D3A2
  8
HISHIRA
  6
KAKURE-05
 10
4596.3738593810149
 20
8849.257813420958
 30
0.0
 11
4596.3738593810149
 21
8784.2578134209543
 31
0.0
  0
LINE
  5
1D3A3
  8
HISHIRA
  6
KAKURE-05
 10
4596.3738593810149
 20
10219.257813420951
 30
0.0
 11
4661.3738593810176
 21
10219.257813420951
 31
0.0
  0
LINE
  5
1D3A4
  8
HISHIRA
  6
KAKURE-05
 10
4661.3738593810176
 20
10219.257813420951
 30
0.0
 11
4661.3738593810176
 21
10284.25781342096
 31
0.0
  0
LINE
  5
1D3A5
  8
HISHIRA
  6
KAKURE-05
 10
4661.3738593810176
 20
10284.25781342096
 30
0.0
 11
4596.3738593810149
 21
10284.25781342096
 31
0.0
  0
LINE
  5
1D3A6
  8
HISHIRA
  6
KAKURE-05
 10
4596.3738593810149
 20
10284.25781342096
 30
0.0
 11
4596.3738593810149
 21
10219.257813420951
 31
0.0
  0
LINE
  5
1D3A7
  8
U3
 10
5199.6238593810158
 20
8969.2578685911176
 30
0.0
 11
5258.1238593810203
 21
8969.2578685911176
 31
0.0
  0
LINE
  5
1D3A8
  8
U3
 10
5258.1238593810203
 20
8944.2578685911176
 30
0.0
 11
5199.6238593810158
 21
8944.2578685911176
 31
0.0
  0
LINE
  5
1D3A9
  8
U3
 10
5199.6238593810158
 20
8944.2578685911176
 30
0.0
 11
5199.6238593810158
 21
8969.2578685911176
 31
0.0
  0
CIRCLE
  5
1D3AA
  8
U3
 10
5228.8738593810176
 20
8956.7578685911158
 30
0.0
 40
8.0
  0
LINE
  5
1D3AB
  8
U3
 10
5216.1238593810167
 20
8969.2578685911176
 30
0.0
 11
5216.1238593810167
 21
8944.2578685911176
 31
0.0
  0
LINE
  5
1D3AC
  8
U3
 10
5241.6238593810176
 20
8969.2578685911176
 30
0.0
 11
5241.6238593810176
 21
8944.2578685911176
 31
0.0
  0
LINE
  5
1D3AD
  8
U3
 10
5258.1238593810203
 20
8969.2578685911176
 30
0.0
 11
5258.1238593810203
 21
8944.2578685911176
 31
0.0
  0
LINE
  5
1D3AE
  8
U3
 10
5599.6238593810194
 20
8969.2578685911176
 30
0.0
 11
5658.1238593810167
 21
8969.2578685911176
 31
0.0
  0
LINE
  5
1D3AF
  8
U3
 10
5658.1238593810167
 20
8944.2578685911176
 30
0.0
 11
5599.6238593810194
 21
8944.2578685911176
 31
0.0
  0
LINE
  5
1D3B0
  8
U3
 10
5599.6238593810194
 20
8944.2578685911176
 30
0.0
 11
5599.6238593810194
 21
8969.2578685911176
 31
0.0
  0
CIRCLE
  5
1D3B1
  8
U3
 10
5628.8738593810203
 20
8956.7578685911158
 30
0.0
 40
8.0
  0
LINE
  5
1D3B2
  8
U3
 10
5616.1238593810158
 20
8969.2578685911176
 30
0.0
 11
5616.1238593810158
 21
8944.2578685911176
 31
0.0
  0
LINE
  5
1D3B3
  8
U3
 10
5641.6238593810167
 20
8969.2578685911176
 30
0.0
 11
5641.6238593810167
 21
8944.2578685911176
 31
0.0
  0
LINE
  5
1D3B4
  8
U3
 10
5658.1238593810167
 20
8969.2578685911176
 30
0.0
 11
5658.1238593810167
 21
8944.2578685911176
 31
0.0
  0
LINE
  5
1D3B5
  8
TATEDOISIJIKANAGU
 10
13020.18841196669
 20
3049.796798568535
 30
0.0
 11
12972.98882827767
 21
3049.796798568535
 31
0.0
  0
LINE
  5
1D3B6
  8
TATEDOISIJIKANAGU
 10
12972.98882827767
 20
3049.796798568535
 30
0.0
 11
12972.98882827767
 21
3037.2967985685332
 31
0.0
  0
LINE
  5
1D3B7
  8
TATEDOISIJIKANAGU
 10
12972.98882827767
 20
3037.2967985685332
 30
0.0
 11
13020.18841196669
 21
3037.2967985685332
 31
0.0
  0
LINE
  5
1D3B8
  8
TATEDOISIJIKANAGU
 10
13020.18841196669
 20
3037.2967985685332
 30
0.0
 11
13020.18841196669
 21
3049.796798568535
 31
0.0
  0
LINE
  5
1D3B9
  8
TATEDOISIJIKANAGU
 10
13020.18841196669
 20
4047.7967985685332
 30
0.0
 11
12972.98882827767
 21
4047.7967985685332
 31
0.0
  0
LINE
  5
1D3BA
  8
TATEDOISIJIKANAGU
 10
12972.98882827767
 20
4047.7967985685332
 30
0.0
 11
12972.98882827767
 21
4035.2967985685332
 31
0.0
  0
LINE
  5
1D3BB
  8
TATEDOISIJIKANAGU
 10
12972.98882827767
 20
4035.2967985685332
 30
0.0
 11
13020.18841196669
 21
4035.2967985685332
 31
0.0
  0
LINE
  5
1D3BC
  8
TATEDOISIJIKANAGU
 10
13020.18841196669
 20
4035.2967985685332
 30
0.0
 11
13020.18841196669
 21
4047.7967985685332
 31
0.0
  0
LINE
  5
1D3BD
  8
TATEDOISIJIKANAGU
 10
13167.450152811831
 20
4413.221304384987
 30
0.0
 11
13211.913772729191
 21
4428.452407557259
 31
0.0
  0
LINE
  5
1D3BE
  8
TATEDOISIJIKANAGU
 10
13211.913772729191
 20
4428.452407557259
 30
0.0
 11
13207.70091440493
 21
4440.7508556195107
 31
0.0
  0
LINE
  5
1D3BF
  8
TATEDOISIJIKANAGU
 10
13207.70091440493
 20
4440.7508556195107
 30
0.0
 11
13163.237294487581
 21
4425.5197524472351
 31
0.0
  0
LINE
  5
1D3C0
  8
TATEDOISIJIKANAGU
 10
13163.237294487581
 20
4425.5197524472351
 30
0.0
 11
13167.450152811831
 21
4413.221304384987
 31
0.0
  0
ARC
  5
1D3C1
  8
U2
 10
10857.268620228569
 20
4843.3438309132562
 30
0.0
 40
44.000000000000561
 50
85.913999999999334
 51
265.91399999999919
  0
LINE
  5
1D3C2
  8
U2
 10
10860.40378397194
 20
4887.231992737401
 30
0.0
 11
10875.36565732109
 21
4886.1631869157991
 31
0.0
  0
ARC
  5
1D3C3
  8
U2
 10
10875.508164763971
 20
4888.1581033623543
 30
0.0
 40
2.0000000000005942
 50
265.91399999993638
 51
355.91399999993632
  0
LINE
  5
1D3C4
  8
U2
 10
10877.50308121052
 20
4888.015595919469
 30
0.0
 11
10877.78809609629
 21
4892.0054288125739
 31
0.0
  0
LINE
  5
1D3C5
  8
U2
 10
10877.78809609629
 20
4892.0054288125739
 30
0.0
 11
10860.83130630059
 21
4893.2167420770566
 31
0.0
  0
ARC
  5
1D3C6
  8
U2
 10
10857.268620228569
 20
4843.3438309132562
 30
0.0
 40
50.000000000000021
 50
85.913999999999945
 51
265.91399999999982
  0
LINE
  5
1D3C7
  8
U2
 10
10853.705934156569
 20
4793.4709197494549
 30
0.0
 11
10870.66272395227
 21
4792.2596064849731
 31
0.0
  0
LINE
  5
1D3C8
  8
U2
 10
10870.66272395227
 20
4792.2596064849731
 30
0.0
 11
10870.947738838029
 21
4796.249439378078
 31
0.0
  0
ARC
  5
1D3C9
  8
U2
 10
10868.952822391469
 20
4796.3919468209588
 30
0.0
 40
1.99999999999865
 50
355.91399999998458
 51
85.913999999984668
  0
LINE
  5
1D3CA
  8
U2
 10
10869.095329834359
 20
4798.3868632675094
 30
0.0
 11
10854.13345648521
 21
4799.4556690891122
 31
0.0
  0
LINE
  5
1D3CB
  8
U1
 10
13207.70091440485
 20
4440.7508556194689
 30
0.0
 11
13129.72438522105
 21
4422.8717925446726
 31
0.0
  0
LINE
  5
1D3CC
  8
U1
 10
13112.806921748421
 20
4438.48587047617
 30
0.0
 11
13201.50522369499
 21
4458.8233047237491
 31
0.0
  0
LINE
  5
1D3CD
  8
U1
 10
13210.705787710291
 20
4445.5436352323986
 30
0.0
 11
13128.830432067311
 21
4426.7706190038598
 31
0.0
  0
ARC
  5
1D3CE
  8
U1
 10
13126.595549182961
 20
4436.5176851518363
 30
0.0
 40
13.99999999998272
 50
192.91399999997671
 51
282.91399999987499
  0
ARC
  5
1D3CF
  8
U1
 10
13126.595549182961
 20
4436.5176851518363
 30
0.0
 40
9.9999999999876614
 50
198.12990857037221
 51
282.91400000007832
  0
CIRCLE
  5
1D3D0
  8
U1
 10
13133.561230313921
 20
4432.9850818084578
 30
0.0
 40
1.719999999997875
  0
LINE
  5
1D3D1
  8
U1
 10
13113.924363190599
 20
4433.6123374021827
 30
0.0
 11
13112.806921748421
 21
4438.48587047617
 31
0.0
  0
LINE
  5
1D3D2
  8
U1
 10
13112.9496565758
 20
4433.3888491137477
 30
0.0
 11
13115.918173185481
 21
4434.069493613556
 31
0.0
  0
ARC
  5
1D3D3
  8
U1
 10
13116.141661473919
 20
4433.0947869987604
 30
0.0
 40
0.9999999999987659
 50
18.129908570372269
 51
102.913999999875
  0
LINE
  5
1D3D4
  8
U1
 10
13203.901613501461
 20
4457.320868071025
 30
0.0
 11
13206.806961251101
 21
4444.6496820786606
 31
0.0
  0
CIRCLE
  5
1D3D5
  8
U1
 10
13190.094213972179
 20
4445.9474025376867
 30
0.0
 40
1.719999999997875
  0
ARC
  5
1D3D6
  8
U1
 10
13206.806961251101
 20
4444.6496820786606
 30
0.0
 40
3.9999999999950631
 50
282.91399999987499
 51
12.91399999997674
  0
ARC
  5
1D3D7
  8
U1
 10
13201.95220027186
 20
4456.8738914941569
 30
0.0
 40
1.99999999999753
 50
12.91399999997674
 51
102.913999999875
  0
LINE
  5
1D3D8
  8
U2
 10
7396.3738593810258
 20
4790.4641816830717
 30
0.0
 11
7396.3738593810258
 21
4717.748876394191
 31
0.0
  0
LINE
  5
1D3D9
  8
U2
 10
7396.3738593810258
 20
4717.748876394191
 30
0.0
 11
7461.3738593810249
 21
4717.748876394191
 31
0.0
  0
LINE
  5
1D3DA
  8
U2
 10
7461.3738593810249
 20
4717.748876394191
 30
0.0
 11
7461.3738593810249
 21
4790.4641816830717
 31
0.0
  0
LINE
  5
1D3DB
  8
U2
 10
4596.373859381024
 20
4790.4641816830717
 30
0.0
 11
4596.3738593810231
 21
4717.748876394191
 31
0.0
  0
LINE
  5
1D3DC
  8
U2
 10
4596.3738593810231
 20
4717.748876394191
 30
0.0
 11
4661.373859381024
 21
4717.748876394191
 31
0.0
  0
LINE
  5
1D3DD
  8
U2
 10
4661.373859381024
 20
4717.748876394191
 30
0.0
 11
4661.373859381024
 21
4790.4641816830717
 31
0.0
  0
LINE
  5
1D3DE
  8
KERABA
 10
7658.8738593810158
 20
4892.54679856853
 30
0.0
 11
7664.8738593810167
 21
4892.54679856853
 31
0.0
  0
LINE
  5
1D3DF
  8
KERABA
 10
7664.8738593810167
 20
4892.54679856853
 30
0.0
 11
7664.8738593810167
 21
4430.6397988408671
 31
0.0
  0
LINE
  5
1D3E0
  8
KERABA
 10
7664.8738593810167
 20
4430.6397988408671
 30
0.0
 11
7658.8738593810158
 21
4430.6397988408671
 31
0.0
  0
LINE
  5
1D3E1
  8
KERABA
 10
7658.8738593810158
 20
4430.6397988408671
 30
0.0
 11
7658.8738593810158
 21
4892.54679856853
 31
0.0
  0
LINE
  5
1D3E2
  8
KERABA
 10
4398.8738593810249
 20
4892.54679856853
 30
0.0
 11
4392.8738593810249
 21
4892.54679856853
 31
0.0
  0
LINE
  5
1D3E3
  8
KERABA
 10
4392.8738593810249
 20
4892.54679856853
 30
0.0
 11
4392.8738593810249
 21
4430.6397988408671
 31
0.0
  0
LINE
  5
1D3E4
  8
KERABA
 10
4392.8738593810249
 20
4430.6397988408671
 30
0.0
 11
4398.8738593810249
 21
4430.6397988408671
 31
0.0
  0
LINE
  5
1D3E5
  8
KERABA
 10
4398.8738593810249
 20
4430.6397988408671
 30
0.0
 11
4398.8738593810249
 21
4892.54679856853
 31
0.0
  0
LINE
  5
1D3E6
  8
TATEDOISIJIKANAGU
 10
4741.3238593810238
 20
4428.6397988408671
 30
0.0
 11
4723.8238593810229
 21
4428.6397988408671
 31
0.0
  0
LINE
  5
1D3E7
  8
TATEDOISIJIKANAGU
 10
4723.8238593810229
 20
4428.6397988408671
 30
0.0
 11
4723.8238593810229
 21
4417.1397988408662
 31
0.0
  0
LINE
  5
1D3E8
  8
TATEDOISIJIKANAGU
 10
4724.3238593810238
 20
4430.6397988408671
 30
0.0
 11
4724.3238593810238
 21
4428.6397988408671
 31
0.0
  0
LINE
  5
1D3E9
  8
TATEDOISIJIKANAGU
 10
4724.3238593810238
 20
4428.6397988408671
 30
0.0
 11
4725.5238593810236
 21
4428.6397988408671
 31
0.0
  0
LINE
  5
1D3EA
  8
TATEDOISIJIKANAGU
 10
4768.1238593810222
 20
4428.6397988408671
 30
0.0
 11
4769.3238593810238
 21
4428.6397988408671
 31
0.0
  0
LINE
  5
1D3EB
  8
TATEDOISIJIKANAGU
 10
4769.3238593810238
 20
4428.6397988408671
 30
0.0
 11
4769.3238593810238
 21
4430.6397988408671
 31
0.0
  0
LINE
  5
1D3EC
  8
TATEDOISIJIKANAGU
 10
4769.3238593810238
 20
4430.6397988408671
 30
0.0
 11
4724.3238593810238
 21
4430.6397988408671
 31
0.0
  0
LINE
  5
1D3ED
  8
TATEDOISIJIKANAGU
 10
4727.8238593810238
 20
4428.6397988408671
 30
0.0
 11
4765.8238593810238
 21
4428.6397988408671
 31
0.0
  0
ENDSEC
  0
EOF
