  0
SECTION
  2
HEADER
  9
$ACADVER
  1
AC1015
  9
$ACADMAINTVER
 70
    13
  9
$DWGCODEPAGE
  3
ANSI_932
  9
$INSBASE
 10
267.0
 20
194.8999999999998
 30
0.0
  9
$EXTMIN
 10
433.9966216520333
 20
163.6908237492789
 30
-0.0000000000000053
  9
$EXTMAX
 10
16382.6660542547
 20
11242.27663824599
 30
0.00000000000001
  9
$LIMMIN
 10
0.0
 20
0.0
  9
$LIMMAX
 10
16800.0
 20
11880.0
  9
$ORTHOMODE
 70
     0
  9
$REGENMODE
 70
     1
  9
$FILLMODE
 70
     1
  9
$QTEXTMODE
 70
     0
  9
$MIRRTEXT
 70
     0
  9
$LTSCALE
 40
40.0
  9
$ATTMODE
 70
     1
  9
$TEXTSIZE
 40
120.0
  9
$TRACEWID
 40
0.05
  9
$TEXTSTYLE
  7
00
  9
$CLAYER
  8
SUNPOU
  9
$CELTYPE
  6
ByLayer
  9
$CECOLOR
 62
   256
  9
$CELTSCALE
 40
1.0
  9
$DISPSILH
 70
     0
  9
$DIMSCALE
 40
40.0
  9
$DIMASZ
 40
0.5
  9
$DIMEXO
 40
1.0
  9
$DIMDLI
 40
7.0
  9
$DIMRND
 40
0.0
  9
$DIMDLE
 40
3.0
  9
$DIMEXE
 40
1.125
  9
$DIMTP
 40
0.0
  9
$DIMTM
 40
0.0
  9
$DIMTXT
 40
2.25
  9
$DIMCEN
 40
0.0
  9
$DIMTSZ
 40
0.0
  9
$DIMTOL
 70
     0
  9
$DIMLIM
 70
     0
  9
$DIMTIH
 70
     0
  9
$DIMTOH
 70
     0
  9
$DIMSE1
 70
     0
  9
$DIMSE2
 70
     0
  9
$DIMTAD
 70
     1
  9
$DIMZIN
 70
     8
  9
$DIMBLK
  1
DOT
  9
$DIMASO
 70
     1
  9
$DIMSHO
 70
     0
  9
$DIMPOST
  1

  9
$DIMAPOST
  1

  9
$DIMALT
 70
     0
  9
$DIMALTD
 70
     2
  9
$DIMALTF
 40
25.4
  9
$DIMLFAC
 40
1.0
  9
$DIMTOFL
 70
     1
  9
$DIMTVP
 40
0.0
  9
$DIMTIX
 70
     0
  9
$DIMSOXD
 70
     0
  9
$DIMSAH
 70
     1
  9
$DIMBLK1
  1
DOT
  9
$DIMBLK2
  1
DOT
  9
$DIMSTYLE
  2
SUNPOU_図面名
  9
$DIMCLRD
 70
   256
  9
$DIMCLRE
 70
   256
  9
$DIMCLRT
 70
   256
  9
$DIMTFAC
 40
1.0
  9
$DIMGAP
 40
1.125
  9
$DIMJUST
 70
     0
  9
$DIMSD1
 70
     0
  9
$DIMSD2
 70
     0
  9
$DIMTOLJ
 70
     1
  9
$DIMTZIN
 70
     0
  9
$DIMALTZ
 70
     0
  9
$DIMALTTZ
 70
     0
  9
$DIMUPT
 70
     0
  9
$DIMDEC
 70
     4
  9
$DIMTDEC
 70
     4
  9
$DIMALTU
 70
     2
  9
$DIMALTTD
 70
     2
  9
$DIMTXSTY
  7
STANDARD
  9
$DIMAUNIT
 70
     0
  9
$DIMADEC
 70
     0
  9
$DIMALTRND
 40
0.0
  9
$DIMAZIN
 70
     0
  9
$DIMDSEP
 70
    46
  9
$DIMATFIT
 70
     3
  9
$DIMFRAC
 70
     0
  9
$DIMLDRBLK
  1
DOT
  9
$DIMLUNIT
 70
     2
  9
$DIMLWD
 70
    -2
  9
$DIMLWE
 70
    -2
  9
$DIMTMOVE
 70
     0
  9
$LUNITS
 70
     2
  9
$LUPREC
 70
     2
  9
$SKETCHINC
 40
0.1
  9
$FILLETRAD
 40
0.0
  9
$AUNITS
 70
     0
  9
$AUPREC
 70
     0
  9
$MENU
  1
A:\TIGER\MENU\TIGER
  9
$ELEVATION
 40
0.0
  9
$PELEVATION
 40
0.0
  9
$THICKNESS
 40
0.0
  9
$LIMCHECK
 70
     0
  9
$CHAMFERA
 40
0.0
  9
$CHAMFERB
 40
0.0
  9
$CHAMFERC
 40
0.0
  9
$CHAMFERD
 40
0.0
  9
$SKPOLY
 70
     0
  9
$TDCREATE
 40
2450266.571064815
  9
$TDUCREATE
 40
2450266.196064815
  9
$TDUPDATE
 40
2456331.420128391
  9
$TDUUPDATE
 40
2456331.045128391
  9
$TDINDWG
 40
0.2065703704
  9
$TDUSRTIMER
 40
0.2065701852
  9
$USRTIMER
 70
     1
  9
$ANGBASE
 50
0.0
  9
$ANGDIR
 70
     0
  9
$PDMODE
 70
     0
  9
$PDSIZE
 40
0.0
  9
$PLINEWID
 40
0.0
  9
$SPLFRAME
 70
     0
  9
$SPLINETYPE
 70
     6
  9
$SPLINESEGS
 70
     8
  9
$HANDSEED
  5
184CA
  9
$SURFTAB1
 70
     6
  9
$SURFTAB2
 70
     6
  9
$SURFTYPE
 70
     6
  9
$SURFU
 70
     6
  9
$SURFV
 70
     6
  9
$UCSBASE
  2

  9
$UCSNAME
  2

  9
$UCSORG
 10
0.0
 20
0.0
 30
0.0
  9
$UCSXDIR
 10
1.0
 20
0.0
 30
0.0
  9
$UCSYDIR
 10
0.0
 20
1.0
 30
0.0
  9
$UCSORTHOREF
  2

  9
$UCSORTHOVIEW
 70
     0
  9
$UCSORGTOP
 10
0.0
 20
0.0
 30
0.0
  9
$UCSORGBOTTOM
 10
0.0
 20
0.0
 30
0.0
  9
$UCSORGLEFT
 10
0.0
 20
0.0
 30
0.0
  9
$UCSORGRIGHT
 10
0.0
 20
0.0
 30
0.0
  9
$UCSORGFRONT
 10
0.0
 20
0.0
 30
0.0
  9
$UCSORGBACK
 10
0.0
 20
0.0
 30
0.0
  9
$PUCSBASE
  2

  9
$PUCSNAME
  2

  9
$PUCSORG
 10
0.0
 20
0.0
 30
0.0
  9
$PUCSXDIR
 10
1.0
 20
0.0
 30
0.0
  9
$PUCSYDIR
 10
0.0
 20
1.0
 30
0.0
  9
$PUCSORTHOREF
  2

  9
$PUCSORTHOVIEW
 70
     0
  9
$PUCSORGTOP
 10
0.0
 20
0.0
 30
0.0
  9
$PUCSORGBOTTOM
 10
0.0
 20
0.0
 30
0.0
  9
$PUCSORGLEFT
 10
0.0
 20
0.0
 30
0.0
  9
$PUCSORGRIGHT
 10
0.0
 20
0.0
 30
0.0
  9
$PUCSORGFRONT
 10
0.0
 20
0.0
 30
0.0
  9
$PUCSORGBACK
 10
0.0
 20
0.0
 30
0.0
  9
$USERI1
 70
     3
  9
$USERI2
 70
     0
  9
$USERI3
 70
     0
  9
$USERI4
 70
     0
  9
$USERI5
 70
  1103
  9
$USERR1
 40
0.0
  9
$USERR2
 40
1.0
  9
$USERR3
 40
0.0
  9
$USERR4
 40
0.0
  9
$USERR5
 40
0.0
  9
$WORLDVIEW
 70
     1
  9
$SHADEDGE
 70
     3
  9
$SHADEDIF
 70
    70
  9
$TILEMODE
 70
     1
  9
$MAXACTVP
 70
    16
  9
$PINSBASE
 10
0.0
 20
0.0
 30
0.0
  9
$PLIMCHECK
 70
     0
  9
$PEXTMIN
 10
1.000000000000000E+20
 20
1.000000000000000E+20
 30
1.000000000000000E+20
  9
$PEXTMAX
 10
-1.000000000000000E+20
 20
-1.000000000000000E+20
 30
-1.000000000000000E+20
  9
$PLIMMIN
 10
0.0
 20
0.0
  9
$PLIMMAX
 10
12.0
 20
9.0
  9
$UNITMODE
 70
     0
  9
$VISRETAIN
 70
     0
  9
$PLINEGEN
 70
     1
  9
$PSLTSCALE
 70
     0
  9
$TREEDEPTH
 70
  3020
  9
$CMLSTYLE
  2
Standard
  9
$CMLJUST
 70
     0
  9
$CMLSCALE
 40
1.0
  9
$PROXYGRAPHICS
 70
     1
  9
$MEASUREMENT
 70
     0
  9
$CELWEIGHT
370
    -1
  9
$ENDCAPS
280
     0
  9
$JOINSTYLE
280
     0
  9
$LWDISPLAY
290
     0
  9
$INSUNITS
 70
     0
  9
$HYPERLINKBASE
  1

  9
$STYLESHEET
  1

  9
$XEDIT
290
     1
  9
$CEPSNTYPE
380
     0
  9
$PSTYLEMODE
290
     1
  9
$FINGERPRINTGUID
  2
{A26D93F9-0472-4B9A-A921-D591DE384C1D}
  9
$VERSIONGUID
  2
{173B8228-4621-47DD-8646-75F8865F512A}
  9
$EXTNAMES
290
     1
  9
$PSVPSCALE
 40
0.0
  9
$OLESTARTUP
290
     0
  0
ENDSEC
  0
SECTION
  2
CLASSES
  0
CLASS
  1
ACDBDICTIONARYWDFLT
  2
AcDbDictionaryWithDefault
  3
AutoCAD 2000
 90
        0
280
     0
281
     0
  0
CLASS
  1
ACDBPLACEHOLDER
  2
AcDbPlaceHolder
  3
AutoCAD 2000
 90
        0
280
     0
281
     0
  0
CLASS
  1
LAYOUT
  2
AcDbLayout
  3
AutoCAD 2000
 90
        0
280
     0
281
     0
  0
CLASS
  1
DICTIONARYVAR
  2
AcDbDictionaryVar
  3
AutoCAD 2000
 90
        0
280
     0
281
     0
  0
ENDSEC
  0
SECTION
  2
TABLES
  0
TABLE
  2
VPORT
  5
17EAF
330
0
100
AcDbSymbolTable
 70
     2
  0
VPORT
  5
184C9
330
17EAF
100
AcDbSymbolTableRecord
100
AcDbViewportTableRecord
  2
*Active
 70
     0
 10
0.0
 20
0.0
 11
1.0
 21
1.0
 12
8408.331337953368
 22
5702.983730997637
 13
0.0
 23
0.0
 14
1.0
 24
1.0
 15
0.0
 25
0.0
 16
0.0
 26
0.0
 36
1.0
 17
0.0
 27
0.0
 37
0.0
 40
12982.41434578206
 41
1.236040609137055
 42
50.0
 43
0.0
 44
0.0
 50
0.0
 51
0.0
 71
     0
 72
 10000
 73
     1
 74
     0
 75
     0
 76
     0
 77
     0
 78
     0
281
     0
 65
     1
110
0.0
120
0.0
130
0.0
111
1.0
121
0.0
131
0.0
112
0.0
122
1.0
132
0.0
 79
     0
146
0.0
  0
ENDTAB
  0
TABLE
  2
LTYPE
  5
17EAC
330
0
100
AcDbSymbolTable
 70
     6
  0
LTYPE
  5
17EBA
330
17EAC
100
AcDbSymbolTableRecord
100
AcDbLinetypeTableRecord
  2
ByBlock
 70
     0
  3

 72
    65
 73
     0
 40
0.0
  0
LTYPE
  5
17EBB
330
17EAC
100
AcDbSymbolTableRecord
100
AcDbLinetypeTableRecord
  2
ByLayer
 70
     0
  3

 72
    65
 73
     0
 40
0.0
  0
LTYPE
  5
17EBC
330
17EAC
100
AcDbSymbolTableRecord
100
AcDbLinetypeTableRecord
  2
CONTINUOUS
 70
     0
  3
実線
 72
    65
 73
     0
 40
0.0
  0
LTYPE
  5
17ECC
330
17EAC
100
AcDbSymbolTableRecord
100
AcDbLinetypeTableRecord
  2
TENSEN-
 70
     0
  3

 72
    65
 73
     2
 40
0.6000000000000001
 49
0.2
 74
     0
 49
-0.4
 74
     0
  0
LTYPE
  5
17ECD
330
17EAC
100
AcDbSymbolTableRecord
100
AcDbLinetypeTableRecord
  2
1PL-L
 70
     0
  3

 72
    65
 73
     4
 40
56.0
 49
50.0
 74
     0
 49
-2.0
 74
     0
 49
2.0
 74
     0
 49
-2.0
 74
     0
  0
LTYPE
  5
17ECE
330
17EAC
100
AcDbSymbolTableRecord
100
AcDbLinetypeTableRecord
  2
1PL-M
 70
     0
  3

 72
    65
 73
     4
 40
15.0
 49
12.0
 74
     0
 49
-1.0
 74
     0
 49
1.0
 74
     0
 49
-1.0
 74
     0
  0
LTYPE
  5
17ECF
330
17EAC
100
AcDbSymbolTableRecord
100
AcDbLinetypeTableRecord
  2
1PL-S
 70
     0
  3

 72
    65
 73
     4
 40
4.0
 49
2.5
 74
     0
 49
-0.5
 74
     0
 49
0.5
 74
     0
 49
-0.5
 74
     0
  0
LTYPE
  5
17ED0
330
17EAC
100
AcDbSymbolTableRecord
100
AcDbLinetypeTableRecord
  2
1PL-12
 70
     0
  3

 72
    65
 73
     4
 40
15.0
 49
12.0
 74
     0
 49
-1.0
 74
     0
 49
1.0
 74
     0
 49
-1.0
 74
     0
  0
ENDTAB
  0
TABLE
  2
LAYER
  5
17EA9
330
0
100
AcDbSymbolTable
 70
    22
  0
LAYER
  5
17EB7
330
17EA9
100
AcDbSymbolTableRecord
100
AcDbLayerTableRecord
  2
0
 70
     0
 62
     7
  6
CONTINUOUS
370
    -3
390
17EB6
  0
LAYER
  5
17EC9
330
17EA9
100
AcDbSymbolTableRecord
100
AcDbLayerTableRecord
  2
SUNPOU
 70
     0
 62
     4
  6
CONTINUOUS
370
    -3
390
17EB6
  0
LAYER
  5
17ED1
330
17EA9
100
AcDbSymbolTableRecord
100
AcDbLayerTableRecord
  2
U1
 70
     0
 62
     3
  6
CONTINUOUS
370
    -3
390
17EB6
  0
LAYER
  5
17ED2
330
17EA9
100
AcDbSymbolTableRecord
100
AcDbLayerTableRecord
  2
U2
 70
     0
 62
     4
  6
CONTINUOUS
370
    -3
390
17EB6
  0
LAYER
  5
17ED3
330
17EA9
100
AcDbSymbolTableRecord
100
AcDbLayerTableRecord
  2
U3
 70
     0
 62
     6
  6
CONTINUOUS
370
    -3
390
17EB6
  0
LAYER
  5
17ED4
330
17EA9
100
AcDbSymbolTableRecord
100
AcDbLayerTableRecord
  2
HIKIDASHI
 70
     0
 62
     6
  6
CONTINUOUS
370
    -3
390
17EB6
  0
LAYER
  5
17ED5
330
17EA9
100
AcDbSymbolTableRecord
100
AcDbLayerTableRecord
  2
TENSEN-1
 70
     0
 62
     6
  6
TENSEN-
370
    -3
390
17EB6
  0
LAYER
  5
17ED6
330
17EA9
100
AcDbSymbolTableRecord
100
AcDbLayerTableRecord
  2
1PL-S1
 70
     0
 62
     6
  6
1PL-S
370
    -3
390
17EB6
  0
LAYER
  5
17ED7
330
17EA9
100
AcDbSymbolTableRecord
100
AcDbLayerTableRecord
  2
1PL-M1
 70
     0
 62
     6
  6
1PL-M
370
    -3
390
17EB6
  0
LAYER
  5
17ED8
330
17EA9
100
AcDbSymbolTableRecord
100
AcDbLayerTableRecord
  2
1PL-L1
 70
     0
 62
     6
  6
1PL-L
370
    -3
390
17EB6
  0
LAYER
  5
17ED9
330
17EA9
100
AcDbSymbolTableRecord
100
AcDbLayerTableRecord
  2
NAME
 70
     0
 62
    20
  6
CONTINUOUS
370
    -3
390
17EB6
  0
LAYER
  5
17EDA
330
17EA9
100
AcDbSymbolTableRecord
100
AcDbLayerTableRecord
  2
FILENAME
 70
     0
 62
     7
  6
CONTINUOUS
370
    -3
390
17EB6
  0
LAYER
  5
17EDB
330
17EA9
100
AcDbSymbolTableRecord
100
AcDbLayerTableRecord
  2
KISO
 70
     0
 62
     2
  6
CONTINUOUS
370
    -3
390
17EB6
  0
LAYER
  5
17EDC
330
17EA9
100
AcDbSymbolTableRecord
100
AcDbLayerTableRecord
  2
YANE
 70
     0
 62
     1
  6
1PL-12
370
    -3
390
17EB6
  0
LAYER
  5
17EDD
330
17EA9
100
AcDbSymbolTableRecord
100
AcDbLayerTableRecord
  2
HATCH
 70
     0
 62
     1
  6
CONTINUOUS
370
    -3
390
17EB6
  0
LAYER
  5
17EDE
330
17EA9
100
AcDbSymbolTableRecord
100
AcDbLayerTableRecord
  2
HASHIRA
 70
     0
 62
     3
  6
CONTINUOUS
370
    -3
390
17EB6
  0
LAYER
  5
17EDF
330
17EA9
100
AcDbSymbolTableRecord
100
AcDbLayerTableRecord
  2
DOMAKON
 70
     0
 62
     2
  6
CONTINUOUS
370
    -3
390
17EB6
  0
LAYER
  5
17EE0
330
17EA9
100
AcDbSymbolTableRecord
100
AcDbLayerTableRecord
  2
BOLT
 70
     0
 62
     1
  6
CONTINUOUS
370
    -3
390
17EB6
  0
LAYER
  5
17EE1
330
17EA9
100
AcDbSymbolTableRecord
100
AcDbLayerTableRecord
  2
YODOROGO
 70
     0
 62
   130
  6
CONTINUOUS
370
    -3
390
17EB6
  0
LAYER
  5
17EE2
330
17EA9
100
AcDbSymbolTableRecord
100
AcDbLayerTableRecord
  2
WAKUSEN-01
 70
     0
 62
    50
  6
CONTINUOUS
370
    -3
390
17EB6
  0
LAYER
  5
17EE3
330
17EA9
100
AcDbSymbolTableRecord
100
AcDbLayerTableRecord
  2
WAKUSEN-02
 70
     0
 62
   130
  6
CONTINUOUS
370
    -3
390
17EB6
  0
LAYER
  5
17EE4
330
17EA9
100
AcDbSymbolTableRecord
100
AcDbLayerTableRecord
  2
WAKUMOJI-01
 70
     0
 62
   130
  6
CONTINUOUS
370
    -3
390
17EB6
  0
ENDTAB
  0
TABLE
  2
STYLE
  5
17EAA
330
0
100
AcDbSymbolTable
 70
     5
  0
STYLE
  5
17EB8
330
17EAA
100
AcDbSymbolTableRecord
100
AcDbTextStyleTableRecord
  2
STANDARD
 70
     0
 40
3.0
 41
1.0
 50
0.0
 71
     0
 42
0.2
  3
ROMANS
  4
EXTFONT
  0
STYLE
  5
17ECA
330
17EAA
100
AcDbSymbolTableRecord
100
AcDbTextStyleTableRecord
  2
00
 70
     0
 40
0.0
 41
0.6666666666666666
 50
0.0
 71
     0
 42
120.0
  3
ROMANS
  4
BIGFONT
  0
STYLE
  5
17EE5
330
17EAA
100
AcDbSymbolTableRecord
100
AcDbTextStyleTableRecord
  2
01
 70
     0
 40
3.0
 41
1.0
 50
0.0
 71
     0
 42
120.0
  3
ROMANS
  4
BIGFONT
  0
STYLE
  5
17EE6
330
17EAA
100
AcDbSymbolTableRecord
100
AcDbTextStyleTableRecord
  2
WAKUMOJI
 70
     0
 40
3.0
 41
1.0
 50
0.0
 71
     0
 42
3.0
  3
SIMPLEX
  4
BIGFONT
  0
STYLE
  5
17EE7
330
17EAA
100
AcDbSymbolTableRecord
100
AcDbTextStyleTableRecord
  2
FILENAME
 70
     0
 40
100.0
 41
1.0
 50
0.0
 71
     0
 42
100.0
  3
romans
  4
bigfont
  0
ENDTAB
  0
TABLE
  2
VIEW
  5
17EAD
330
0
100
AcDbSymbolTable
 70
     0
  0
ENDTAB
  0
TABLE
  2
UCS
  5
17EAE
330
0
100
AcDbSymbolTable
 70
     0
  0
ENDTAB
  0
TABLE
  2
APPID
  5
17EB0
330
0
100
AcDbSymbolTable
 70
     6
  0
APPID
  5
17EB9
330
17EB0
100
AcDbSymbolTableRecord
100
AcDbRegAppTableRecord
  2
ACAD
 70
     0
  0
APPID
  5
17EE8
330
17EB0
100
AcDbSymbolTableRecord
100
AcDbRegAppTableRecord
  2
AUTOCAD_POSTSCRIPT_FIGURE
 70
     0
  0
APPID
  5
17EE9
330
17EB0
100
AcDbSymbolTableRecord
100
AcDbRegAppTableRecord
  2
ACAD_PSEXT
 70
     0
  0
APPID
  5
17EEA
330
17EB0
100
AcDbSymbolTableRecord
100
AcDbRegAppTableRecord
  2
ACAD_EXEMPT_FROM_CAD_STANDARDS
 70
     0
  0
APPID
  5
17EEB
330
17EB0
100
AcDbSymbolTableRecord
100
AcDbRegAppTableRecord
  2
ACAD_MLEADERVER
 70
     0
  0
APPID
  5
17EEC
330
17EB0
100
AcDbSymbolTableRecord
100
AcDbRegAppTableRecord
  2
AEC_XDATA_BOUND_SPACE
 70
     0
  0
ENDTAB
  0
TABLE
  2
DIMSTYLE
  5
17EB1
330
0
100
AcDbSymbolTable
 70
     1
100
AcDbDimStyleTable
 71
     0
  0
DIMSTYLE
105
17EED
330
17EB1
100
AcDbSymbolTableRecord
100
AcDbDimStyleTableRecord
  2
SUNPOU_図面名
 70
     0
 40
40.0
 41
0.5
 42
1.0
 43
7.0
 44
1.125
 46
3.0
 73
     0
 74
     0
 77
     1
 78
     8
140
2.25
141
0.0
147
1.125
172
     1
173
     1
176
   256
177
   256
178
   256
271
     2
272
     2
279
     2
284
     8
285
     8
286
     8
340
17ECA
  0
ENDTAB
  0
TABLE
  2
BLOCK_RECORD
  5
17EA8
330
0
100
AcDbSymbolTable
 70
     3
  0
BLOCK_RECORD
  5
17EC5
330
17EA8
100
AcDbSymbolTableRecord
100
AcDbBlockTableRecord
  2
*Model_Space
340
17EC8
  0
BLOCK_RECORD
  5
17EC1
330
17EA8
100
AcDbSymbolTableRecord
100
AcDbBlockTableRecord
  2
*Paper_Space
340
17EC4
  0
BLOCK_RECORD
  5
17EF2
330
17EA8
100
AcDbSymbolTableRecord
100
AcDbBlockTableRecord
  2
$MODEL_SPACE
340
0
  0
BLOCK_RECORD
  5
17EF5
330
17EA8
100
AcDbSymbolTableRecord
100
AcDbBlockTableRecord
  2
$PAPER_SPACE
340
0
  0
BLOCK_RECORD
  5
17EF8
330
17EA8
100
AcDbSymbolTableRecord
100
AcDbBlockTableRecord
  2
DOT
340
0
  0
ENDTAB
  0
ENDSEC
  0
SECTION
  2
BLOCKS
  0
BLOCK
  5
17EC6
330
17EC5
100
AcDbEntity
  8
0
100
AcDbBlockBegin
  2
*Model_Space
 70
     0
 10
0.0
 20
0.0
 30
0.0
  3
*Model_Space
  1

  0
ENDBLK
  5
17EC7
330
17EC5
100
AcDbEntity
  8
0
100
AcDbBlockEnd
  0
BLOCK
  5
17EC2
330
17EC1
100
AcDbEntity
 67
     1
  8
0
100
AcDbBlockBegin
  2
*Paper_Space
 70
     0
 10
0.0
 20
0.0
 30
0.0
  3
*Paper_Space
  1

  0
ENDBLK
  5
17EC3
330
17EC1
100
AcDbEntity
 67
     1
  8
0
100
AcDbBlockEnd
  0
BLOCK
  5
17EF3
330
17EF2
100
AcDbEntity
  8
0
100
AcDbBlockBegin
  2
$MODEL_SPACE
 70
     0
 10
0.0
 20
0.0
 30
0.0
  3
$MODEL_SPACE
  1

  0
ENDBLK
  5
17EF4
330
17EF2
100
AcDbEntity
  8
0
100
AcDbBlockEnd
  0
BLOCK
  5
17EF6
330
17EF5
100
AcDbEntity
  8
0
100
AcDbBlockBegin
  2
$PAPER_SPACE
 70
     0
 10
0.0
 20
0.0
 30
0.0
  3
$PAPER_SPACE
  1

  0
ENDBLK
  5
17EF7
330
17EF5
100
AcDbEntity
  8
0
100
AcDbBlockEnd
  0
BLOCK
  5
17EF9
330
17EF8
100
AcDbEntity
  8
0
100
AcDbBlockBegin
  2
DOT
 70
     0
 10
0.0
 20
0.0
 30
0.0
  3
DOT
  1

  0
LWPOLYLINE
  5
17EFA
330
17EF8
100
AcDbEntity
  8
0
  6
ByBlock
 62
     0
100
AcDbPolyline
 90
        2
 70
     1
 43
0.75
 10
-0.375
 20
0.0
 42
1.0
 10
0.375
 20
0.0
 42
1.0
  0
LINE
  5
17EFE
330
17EF8
100
AcDbEntity
  8
0
  6
ByBlock
 62
     0
100
AcDbLine
 10
-0.75
 20
0.0
 30
0.0
 11
-1.5
 21
0.0
 31
0.0
  0
ENDBLK
  5
17EFF
330
17EF8
100
AcDbEntity
  8
0
100
AcDbBlockEnd
  0
ENDSEC
  0
SECTION
  2
ENTITIES
  0
TEXT
  5
17F00
330
17EC5
100
AcDbEntity
  8
NAME
100
AcDbText
 10
12303.32857318295
 20
1055.0
 30
0.0
 40
120.0
  1
Y O K R
 41
0.6666666666666666
  7
00
100
AcDbText
  0
TEXT
  5
17F01
330
17EC5
100
AcDbEntity
  8
NAME
100
AcDbText
 10
11227.73587134625
 20
1055.0
 30
0.0
 40
120.0
  1
ヨド自転車置場　　　  型
  7
01
100
AcDbText
  0
TEXT
  5
17F02
330
17EC5
100
AcDbEntity
  8
NAME
100
AcDbText
 10
11228.07508082364
 20
875.0
 30
0.0
 40
120.0
  1
（アンカープレート方式）
  7
01
 72
     4
 11
12072.07508082364
 21
935.0
 31
0.0
100
AcDbText
  0
TEXT
  5
17F03
330
17EC5
100
AcDbEntity
  8
NAME
100
AcDbText
 10
11816.04264730429
 20
541.0
 30
0.0
 40
160.0
  1
型（積雪地用）
 41
0.8
  7
01
100
AcDbText
  0
TEXT
  5
17F04
330
17EC5
100
AcDbEntity
  8
NAME
100
AcDbText
 10
10789.37598063762
 20
541.0
 30
0.0
 40
160.0
  1
YOKRS-240
 41
0.7
  7
01
 72
     2
 11
11776.04264730429
 21
541.0
 31
0.0
100
AcDbText
  0
TEXT
  5
17F05
330
17EC5
100
AcDbEntity
  8
NAME
100
AcDbText
 10
12854.79999999999
 20
541.0000000000001
 30
0.0
 40
160.0
  1
<3／3>
 41
0.6
  7
01
 72
     2
 11
13354.0
 21
541.0000000000001
 31
0.0
100
AcDbText
  0
TEXT
  5
17F06
330
17EC5
100
AcDbEntity
  8
SUNPOU
100
AcDbText
 10
1179.10490162256
 20
4150.522154091421
 30
0.0
 40
90.0
  1
2
 41
0.6700000000000001
  7
01
100
AcDbText
  0
TEXT
  5
17F07
330
17EC5
100
AcDbEntity
  8
SUNPOU
100
AcDbText
 10
1068.470981409818
 20
4150.522154091421
 30
0.0
 40
90.0
  1
注　）
  7
01
100
AcDbText
  0
TEXT
  5
17F08
330
17EC5
100
AcDbEntity
  8
SUNPOU
100
AcDbText
 10
1068.470981409818
 20
4459.093582662851
 30
0.0
 40
90.0
  1
注　）
  7
01
100
AcDbText
  0
TEXT
  5
17F09
330
17EC5
100
AcDbEntity
  8
SUNPOU
100
AcDbText
 10
1179.10490162256
 20
4459.093582662851
 30
0.0
 40
90.0
  1
1
 41
0.6700000000000001
  7
01
100
AcDbText
  0
TEXT
  5
17F0A
330
17EC5
100
AcDbEntity
  8
SUNPOU
100
AcDbText
 10
1385.310646711954
 20
4304.807868377134
 30
0.0
 40
90.0
  1
あわせて設計して下さい。
  7
01
100
AcDbText
  0
TEXT
  5
17F0B
330
17EC5
100
AcDbEntity
  8
SUNPOU
100
AcDbText
 10
1385.310646711954
 20
4150.522154091421
 30
0.0
 40
90.0
  1
その他現地の実情にあわせて設計して下さい。
  7
01
100
AcDbText
  0
TEXT
  5
17F0C
330
17EC5
100
AcDbEntity
  8
SUNPOU
100
AcDbText
 10
1385.310646711954
 20
4459.093582662851
 30
0.0
 40
90.0
  1
寒冷地の場合、凍結深度等を考慮し、実情に
  7
01
100
AcDbText
  0
TEXT
  5
17F0D
330
17EC5
100
AcDbEntity
  8
SUNPOU
100
AcDbText
 10
879.79127290633
 20
5027.633299394521
 30
0.0
 40
90.0
  1
<下記条件での参考図>
  7
01
 72
     4
 11
1468.648415763473
 21
5072.633299394521
 31
0.0
100
AcDbText
  0
TEXT
  5
17F0E
330
17EC5
100
AcDbEntity
  8
SUNPOU
100
AcDbText
 10
2090.107582294899
 20
5194.979453240675
 30
0.0
 40
73.84615384615384
  1
/
 41
0.6700000000000001
  7
00
 11
2090.107582294899
 21
5185.133299394521
 31
0.0
100
AcDbText
 73
     1
  0
TEXT
  5
17F0F
330
17EC5
100
AcDbEntity
  8
SUNPOU
100
AcDbText
 10
2154.057025249268
 20
5176.517914779135
 30
0.0
 40
73.84615384615384
  1
25
 41
0.6700000000000001
  7
00
 11
2154.057025249268
 21
5166.671760932981
 31
0.0
100
AcDbText
 73
     1
  0
TEXT
  5
17F10
330
17EC5
100
AcDbEntity
  8
SUNPOU
100
AcDbText
 10
2041.701454979528
 20
5213.440991702213
 30
0.0
 40
73.84615384615384
  1
1
 41
0.6700000000000001
  7
00
 11
2041.701454979528
 21
5203.594837856059
 31
0.0
100
AcDbText
 73
     1
  0
TEXT
  5
17F11
330
17EC5
100
AcDbEntity
  8
SUNPOU
100
AcDbText
 10
1721.998753126443
 20
5197.440991702213
 30
0.0
 40
92.30769230769228
  1
（ S = 　　  ）
 41
0.6700000000000001
  7
00
 11
1721.998753126443
 21
5185.133299394521
 31
0.0
100
AcDbText
 73
     1
  0
TEXT
  5
17F12
330
17EC5
100
AcDbEntity
  8
SUNPOU
100
AcDbText
 10
1005.148415763472
 20
5185.133299394521
 30
0.0
 40
120.0
  1
基礎断面図
  7
01
 72
     4
 11
1345.148415763472
 21
5245.13329939452
 31
0.0
100
AcDbText
  0
LINE
  5
17F13
330
17EC5
100
AcDbEntity
  8
1PL-S1
100
AcDbLine
 10
11225.33837406209
 20
2700.144344053149
 30
0.0
 11
11857.33837406209
 21
2700.144344053149
 31
0.0
  0
LINE
  5
17F14
330
17EC5
100
AcDbEntity
  8
U1
100
AcDbLine
 10
11391.3383740621
 20
3642.337036584561
 30
0.0
 11
11391.3383740621
 21
4026.401575763828
 31
0.0
  0
LINE
  5
17F15
330
17EC5
100
AcDbEntity
  8
U1
100
AcDbLine
 10
11691.33837406209
 20
3642.337036584561
 30
0.0
 11
11691.33837406209
 21
4026.401575763828
 31
0.0
  0
LINE
  5
17F16
330
17EC5
100
AcDbEntity
  8
1PL-S1
100
AcDbLine
 10
11541.33837406209
 20
3578.337036584561
 30
0.0
 11
11541.33837406209
 21
4066.401575763828
 31
0.0
  0
CIRCLE
  5
17F17
330
17EC5
100
AcDbEntity
  8
U1
100
AcDbCircle
 10
11541.33837406209
 20
3886.33703658456
 30
0.0
 40
24.0
  0
LINE
  5
17F18
330
17EC5
100
AcDbEntity
  8
1PL-S1
100
AcDbLine
 10
11301.33837406209
 20
2624.144344053149
 30
0.0
 11
11301.33837406209
 21
2776.144344053149
 31
0.0
  0
LINE
  5
17F19
330
17EC5
100
AcDbEntity
  8
1PL-S1
100
AcDbLine
 10
11781.33837406209
 20
2624.144344053149
 30
0.0
 11
11781.33837406209
 21
2776.144344053149
 31
0.0
  0
LINE
  5
17F1A
330
17EC5
100
AcDbEntity
  8
1PL-S1
100
AcDbLine
 10
11541.33837406209
 20
2500.144344053149
 30
0.0
 11
11541.33837406209
 21
2900.144344053149
 31
0.0
  0
CIRCLE
  5
17F1B
330
17EC5
100
AcDbEntity
  8
U1
100
AcDbCircle
 10
11301.33837406209
 20
2700.144344053149
 30
0.0
 40
36.0
  0
LINE
  5
17F1C
330
17EC5
100
AcDbEntity
  8
U1
100
AcDbLine
 10
11691.33837406209
 20
2700.144344053149
 30
0.0
 11
11612.31129530375
 21
2700.144344053149
 31
0.0
  0
CIRCLE
  5
17F1D
330
17EC5
100
AcDbEntity
  8
U1
100
AcDbCircle
 10
11781.33837406209
 20
2700.144344053149
 30
0.0
 40
36.0
  0
LINE
  5
17F1E
330
17EC5
100
AcDbEntity
  8
1PL-S1
100
AcDbLine
 10
11477.33837406209
 20
3726.33703658456
 30
0.0
 11
11605.33837406209
 21
3726.33703658456
 31
0.0
  0
LINE
  5
17F1F
330
17EC5
100
AcDbEntity
  8
1PL-S1
100
AcDbLine
 10
11301.33837406211
 20
3578.337036584561
 30
0.0
 11
11301.33837406209
 21
3682.337036584561
 31
0.0
  0
LINE
  5
17F20
330
17EC5
100
AcDbEntity
  8
1PL-S1
100
AcDbLine
 10
11781.33837406209
 20
3578.337036584561
 30
0.0
 11
11781.33837406209
 21
3682.337036584561
 31
0.0
  0
CIRCLE
  5
17F21
330
17EC5
100
AcDbEntity
  8
U1
100
AcDbCircle
 10
11541.33837406209
 20
3726.33703658456
 30
0.0
 40
24.0
  0
LINE
  5
17F22
330
17EC5
100
AcDbEntity
  8
1PL-S1
100
AcDbLine
 10
11477.33837406209
 20
3886.33703658456
 30
0.0
 11
11605.33837406209
 21
3886.33703658456
 31
0.0
  0
TEXT
  5
17F23
330
17EC5
100
AcDbEntity
  8
SUNPOU
100
AcDbText
 10
10750.05141017947
 20
1674.586261835072
 30
0.0
 40
120.0
  1
柱脚金具詳細図
  7
01
 72
     4
 11
11234.05141017947
 21
1734.586261835072
 31
0.0
100
AcDbText
  0
TEXT
  5
17F24
330
17EC5
100
AcDbEntity
  8
SUNPOU
100
AcDbText
 10
12146.16023934792
 20
1672.124723373534
 30
0.0
 40
73.84615384615384
  1
/
 41
0.6700000000000001
  7
00
 11
12146.16023934792
 21
1662.27856952738
 31
0.0
100
AcDbText
 73
     1
  0
TEXT
  5
17F25
330
17EC5
100
AcDbEntity
  8
SUNPOU
100
AcDbText
 10
12210.1096823023
 20
1653.663184911995
 30
0.0
 40
73.84615384615384
  1
10
 41
0.6700000000000001
  7
00
 11
12210.1096823023
 21
1643.817031065841
 31
0.0
100
AcDbText
 73
     1
  0
TEXT
  5
17F26
330
17EC5
100
AcDbEntity
  8
SUNPOU
100
AcDbText
 10
12097.75411203255
 20
1690.586261835072
 30
0.0
 40
73.84615384615384
  1
1
 41
0.6700000000000001
  7
00
 11
12097.75411203255
 21
1680.740107988918
 31
0.0
100
AcDbText
 73
     1
  0
TEXT
  5
17F27
330
17EC5
100
AcDbEntity
  8
SUNPOU
100
AcDbText
 10
11778.05141017947
 20
1674.586261835072
 30
0.0
 40
92.30769230769228
  1
（ S = 　　  ）
 41
0.6700000000000001
  7
00
 11
11778.05141017947
 21
1662.27856952738
 31
0.0
100
AcDbText
 73
     1
  0
LINE
  5
17F28
330
17EC5
100
AcDbEntity
  8
HIKIDASHI
100
AcDbLine
 10
12073.23363223807
 20
3067.661600164834
 30
0.0
 11
12657.27442780204
 21
3067.661600164834
 31
0.0
  0
TEXT
  5
17F29
330
17EC5
100
AcDbEntity
  8
HIKIDASHI
100
AcDbText
 10
12092.52363003481
 20
3112.661600164834
 30
0.0
 40
90.0
  1
プレ－ト
  7
01
 72
     2
 11
12482.5236300348
 21
3112.661600164834
 31
0.0
100
AcDbText
  0
TEXT
  5
17F2A
330
17EC5
100
AcDbEntity
  8
HIKIDASHI
100
AcDbText
 10
12520.97881071722
 20
3112.661600164834
 30
0.0
 40
90.0
  1
6
 41
0.6666666666666666
  7
00
 72
     2
 11
12569.55023928865
 21
3112.661600164834
 31
0.0
100
AcDbText
  0
TEXT
  5
17F2B
330
17EC5
100
AcDbEntity
  8
HIKIDASHI
100
AcDbText
 10
12606.97646118922
 20
3126.647348600799
 30
0.0
 40
89.99999909999997
  1
t
 41
0.6700000000000001
  7
00
100
AcDbText
  0
TEXT
  5
17F2C
330
17EC5
100
AcDbEntity
  8
SUNPOU
100
AcDbText
 10
4233.284650756791
 20
7753.69318243233
 30
0.0
 40
90.0
  1
A
 41
0.6700000000000001
  7
00
 72
     4
 11
4259.127507899648
 21
7798.69318243233
 31
0.0
100
AcDbText
  0
LINE
  5
17F2D
330
17EC5
100
AcDbEntity
  8
SUNPOU
100
AcDbLine
 10
4259.127507899648
 20
7408.69318243233
 30
0.0
 11
4409.12750789965
 21
7408.69318243233
 31
0.0
  0
LINE
  5
17F2E
330
17EC5
100
AcDbEntity
  8
SUNPOU
100
AcDbLine
 10
4259.127507899648
 20
7618.69318243233
 30
0.0
 11
4259.127507899648
 21
7408.69318243233
 31
0.0
  0
CIRCLE
  5
17F2F
330
17EC5
100
AcDbEntity
  8
HASHIRA
100
AcDbCircle
 10
7219.127507899646
 20
7468.693182432332
 30
0.0
 40
9.0
  0
CIRCLE
  5
17F30
330
17EC5
100
AcDbEntity
  8
HASHIRA
100
AcDbCircle
 10
7219.127507899646
 20
7348.693182432332
 30
0.0
 40
9.0
  0
LINE
  5
17F31
330
17EC5
100
AcDbEntity
  8
SUNPOU
100
AcDbLine
 10
6789.127507899646
 20
9243.693182432329
 30
0.0
 11
6474.127507899649
 21
9243.693182432329
 31
0.0
  0
TEXT
  5
17F32
330
17EC5
100
AcDbEntity
  8
SUNPOU
100
AcDbText
 10
6474.127507899649
 20
8757.978896718045
 30
0.0
 40
90.0
  1
800
 50
90.0
 41
0.6666666666666666
  7
00
 72
     1
 11
6429.127507899649
 21
8843.69318243233
 31
0.0
100
AcDbText
 73
     2
  0
LINE
  5
17F33
330
17EC5
100
AcDbEntity
  8
SUNPOU
100
AcDbLine
 10
6789.127507899646
 20
8443.693182432332
 30
0.0
 11
6474.127507899649
 21
8443.693182432332
 31
0.0
  0
LINE
  5
17F34
330
17EC5
100
AcDbEntity
  8
SUNPOU
100
AcDbLine
 10
6519.12750789965
 20
9228.693182432332
 30
0.0
 11
6519.12750789965
 21
8458.693182432332
 31
0.0
  0
CIRCLE
  5
17F35
330
17EC5
100
AcDbEntity
  8
HASHIRA
100
AcDbCircle
 10
7219.127507899646
 20
8903.693182432332
 30
0.0
 40
9.0
  0
CIRCLE
  5
17F36
330
17EC5
100
AcDbEntity
  8
HASHIRA
100
AcDbCircle
 10
7219.127507899646
 20
8783.693182432326
 30
0.0
 40
9.0
  0
LINE
  5
17F37
330
17EC5
100
AcDbEntity
  8
SUNPOU
100
AcDbLine
 10
7619.12750789965
 20
8413.69318243233
 30
0.0
 11
7619.12750789965
 21
8098.693182432333
 31
0.0
  0
LINE
  5
17F38
330
17EC5
100
AcDbEntity
  8
1PL-L1
100
AcDbLine
 10
7219.127507899646
 20
8303.713010934897
 30
0.0
 11
7219.127507899646
 21
8408.886856489306
 31
0.0
  0
TEXT
  5
17F39
330
17EC5
100
AcDbEntity
  8
SUNPOU
100
AcDbText
 10
7133.413222185364
 20
8188.693182432331
 30
0.0
 40
90.0
  1
800
 41
0.6666666666666666
  7
00
 72
     1
 11
7219.127507899648
 21
8233.693182432331
 31
0.0
100
AcDbText
 73
     2
  0
LINE
  5
17F3A
330
17EC5
100
AcDbEntity
  8
SUNPOU
100
AcDbLine
 10
6819.12750789965
 20
8413.69318243233
 30
0.0
 11
6819.12750789965
 21
8098.693182432333
 31
0.0
  0
LINE
  5
17F3B
330
17EC5
100
AcDbEntity
  8
SUNPOU
100
AcDbLine
 10
7604.127507899646
 20
8143.693182432333
 30
0.0
 11
6834.12750789965
 21
8143.693182432333
 31
0.0
  0
LINE
  5
17F3C
330
17EC5
100
AcDbEntity
  8
1PL-L1
100
AcDbLine
 10
9619.127507899648
 20
6918.713010934895
 30
0.0
 11
9619.127507899648
 21
6973.886856489305
 31
0.0
  0
TEXT
  5
17F3D
330
17EC5
100
AcDbEntity
  8
SUNPOU
100
AcDbText
 10
10274.12750789965
 20
7322.978896718045
 30
0.0
 40
90.0
  1
800
 50
90.0
 41
0.6666666666666666
  7
00
 72
     1
 11
10229.12750789964
 21
7408.69318243233
 31
0.0
100
AcDbText
 73
     2
  0
LINE
  5
17F3E
330
17EC5
100
AcDbEntity
  8
SUNPOU
100
AcDbLine
 10
10019.12750789965
 20
6978.693182432332
 30
0.0
 11
10019.12750789965
 21
6713.693182432333
 31
0.0
  0
LINE
  5
17F3F
330
17EC5
100
AcDbEntity
  8
SUNPOU
100
AcDbLine
 10
9219.127507899647
 20
6978.693182432332
 30
0.0
 11
9219.127507899647
 21
6713.693182432333
 31
0.0
  0
TEXT
  5
17F40
330
17EC5
100
AcDbEntity
  8
SUNPOU
100
AcDbText
 10
9533.413222185364
 20
6803.693182432332
 30
0.0
 40
90.0
  1
800
 41
0.6666666666666666
  7
00
 72
     1
 11
9619.127507899651
 21
6848.693182432332
 31
0.0
100
AcDbText
 73
     2
  0
LINE
  5
17F41
330
17EC5
100
AcDbEntity
  8
SUNPOU
100
AcDbLine
 10
10004.12750789964
 20
6758.693182432331
 30
0.0
 11
9234.127507899648
 21
6758.693182432331
 31
0.0
  0
LINE
  5
17F42
330
17EC5
100
AcDbEntity
  8
SUNPOU
100
AcDbLine
 10
10319.12750789965
 20
7793.693182432332
 30
0.0
 11
10319.12750789965
 21
7023.693182432332
 31
0.0
  0
LINE
  5
17F43
330
17EC5
100
AcDbEntity
  8
SUNPOU
100
AcDbLine
 10
10049.12750789965
 20
7008.693182432331
 30
0.0
 11
10364.12750789964
 21
7008.693182432331
 31
0.0
  0
LINE
  5
17F44
330
17EC5
100
AcDbEntity
  8
SUNPOU
100
AcDbLine
 10
10049.12750789965
 20
7808.693182432333
 30
0.0
 11
10364.12750789964
 21
7808.693182432333
 31
0.0
  0
TEXT
  5
17F45
330
17EC5
100
AcDbEntity
  8
SUNPOU
100
AcDbText
 10
12624.12750789964
 20
6972.978896718046
 30
0.0
 40
90.0
  1
700
 50
90.0
 41
0.6666666666666666
  7
00
 72
     1
 11
12579.12750789964
 21
7058.693182432332
 31
0.0
100
AcDbText
 73
     2
  0
LINE
  5
17F46
330
17EC5
100
AcDbEntity
  8
SUNPOU
100
AcDbLine
 10
12669.12750789964
 20
7393.693182432333
 30
0.0
 11
12669.12750789964
 21
6723.693182432332
 31
0.0
  0
LINE
  5
17F47
330
17EC5
100
AcDbEntity
  8
SUNPOU
100
AcDbLine
 10
12639.12750789964
 20
6708.693182432331
 30
0.0
 11
12624.12750789964
 21
6708.693182432331
 31
0.0
  0
TEXT
  5
17F48
330
17EC5
100
AcDbEntity
  8
SUNPOU
100
AcDbText
 10
12624.12750789964
 20
8007.621753860901
 30
0.0
 40
90.0
  1
1435
 50
90.0
 41
0.6666666666666666
  7
00
 72
     1
 11
12579.12750789964
 21
8126.193182432329
 31
0.0
100
AcDbText
 73
     2
  0
LINE
  5
17F49
330
17EC5
100
AcDbEntity
  8
SUNPOU
100
AcDbLine
 10
12669.12750789964
 20
8828.693182432331
 30
0.0
 11
12669.12750789964
 21
7423.69318243233
 31
0.0
  0
TEXT
  5
17F4A
330
17EC5
100
AcDbEntity
  8
SUNPOU
100
AcDbText
 10
12624.12750789964
 20
8857.978896718046
 30
0.0
 40
90.0
  1
200
 50
90.0
 41
0.6666666666666666
  7
00
 72
     1
 11
12579.12750789964
 21
8943.693182432332
 31
0.0
100
AcDbText
 73
     2
  0
LINE
  5
17F4B
330
17EC5
100
AcDbEntity
  8
SUNPOU
100
AcDbLine
 10
12669.12750789964
 20
9028.693182432327
 30
0.0
 11
12669.12750789964
 21
8858.693182432331
 31
0.0
  0
LINE
  5
17F4C
330
17EC5
100
AcDbEntity
  8
SUNPOU
100
AcDbLine
 10
12639.12750789964
 20
9043.693182432331
 30
0.0
 11
12624.12750789964
 21
9043.693182432331
 31
0.0
  0
TEXT
  5
17F4D
330
17EC5
100
AcDbEntity
  8
SUNPOU
100
AcDbText
 10
12834.12750789964
 20
7761.907468146616
 30
0.0
 40
90.0
  1
2335
 50
90.0
 41
0.6666666666666666
  7
00
 72
     1
 11
12789.12750789964
 21
7876.19318243233
 31
0.0
100
AcDbText
 73
     2
  0
LINE
  5
17F4E
330
17EC5
100
AcDbEntity
  8
SUNPOU
100
AcDbLine
 10
12879.12750789964
 20
9028.693182432327
 30
0.0
 11
12879.12750789964
 21
6723.693182432332
 31
0.0
  0
LINE
  5
17F4F
330
17EC5
100
AcDbEntity
  8
SUNPOU
100
AcDbLine
 10
12449.12750789964
 20
6708.693182432331
 30
0.0
 11
12924.12750789964
 21
6708.693182432331
 31
0.0
  0
LINE
  5
17F50
330
17EC5
100
AcDbEntity
  8
SUNPOU
100
AcDbLine
 10
12249.12750789964
 20
9043.693182432331
 30
0.0
 11
12924.12750789964
 21
9043.693182432331
 31
0.0
  0
CIRCLE
  5
17F51
330
17EC5
100
AcDbEntity
  8
HASHIRA
100
AcDbCircle
 10
12019.12750789964
 20
8903.693182432332
 30
0.0
 40
9.0
  0
CIRCLE
  5
17F52
330
17EC5
100
AcDbEntity
  8
HASHIRA
100
AcDbCircle
 10
12019.12750789964
 20
8783.693182432326
 30
0.0
 40
9.0
  0
CIRCLE
  5
17F53
330
17EC5
100
AcDbEntity
  8
HASHIRA
100
AcDbCircle
 10
9619.127507899648
 20
8903.693182432332
 30
0.0
 40
9.0
  0
CIRCLE
  5
17F54
330
17EC5
100
AcDbEntity
  8
HASHIRA
100
AcDbCircle
 10
9619.127507899648
 20
8783.693182432326
 30
0.0
 40
9.0
  0
LINE
  5
17F55
330
17EC5
100
AcDbEntity
  8
1PL-M1
100
AcDbLine
 10
9619.127507899648
 20
7331.343448058619
 30
0.0
 11
9619.127507899648
 21
9323.693182432327
 31
0.0
  0
CIRCLE
  5
17F56
330
17EC5
100
AcDbEntity
  8
HASHIRA
100
AcDbCircle
 10
12019.12750789964
 20
7468.693182432332
 30
0.0
 40
9.0
  0
CIRCLE
  5
17F57
330
17EC5
100
AcDbEntity
  8
HASHIRA
100
AcDbCircle
 10
12019.12750789964
 20
7348.693182432332
 30
0.0
 40
9.0
  0
CIRCLE
  5
17F58
330
17EC5
100
AcDbEntity
  8
HASHIRA
100
AcDbCircle
 10
9619.127507899648
 20
7468.693182432332
 30
0.0
 40
9.0
  0
CIRCLE
  5
17F59
330
17EC5
100
AcDbEntity
  8
HASHIRA
100
AcDbCircle
 10
9619.127507899648
 20
7348.693182432332
 30
0.0
 40
9.0
  0
LINE
  5
17F5A
330
17EC5
100
AcDbEntity
  8
1PL-L1
100
AcDbLine
 10
10355.85291351311
 20
7408.69318243233
 30
0.0
 11
12714.12750789964
 21
7408.69318243233
 31
0.0
  0
LINE
  5
17F5B
330
17EC5
100
AcDbEntity
  8
1PL-L1
100
AcDbLine
 10
9619.127507899648
 20
6508.693182432331
 30
0.0
 11
9619.127507899648
 21
6730.790261580462
 31
0.0
  0
LINE
  5
17F5C
330
17EC5
100
AcDbEntity
  8
1PL-M1
100
AcDbLine
 10
12019.12750789964
 20
6508.693182432331
 30
0.0
 11
12019.12750789964
 21
9323.693182432327
 31
0.0
  0
LINE
  5
17F5D
330
17EC5
100
AcDbEntity
  8
1PL-M1
100
AcDbLine
 10
7219.127507899646
 20
8483.540137639371
 30
0.0
 11
7219.127507899646
 21
9323.693182432327
 31
0.0
  0
CIRCLE
  5
17F5E
330
17EC5
100
AcDbEntity
  8
HASHIRA
100
AcDbCircle
 10
4819.127507899647
 20
8903.693182432332
 30
0.0
 40
9.0
  0
CIRCLE
  5
17F5F
330
17EC5
100
AcDbEntity
  8
HASHIRA
100
AcDbCircle
 10
4819.127507899647
 20
8783.693182432326
 30
0.0
 40
9.0
  0
TEXT
  5
17F60
330
17EC5
100
AcDbEntity
  8
SUNPOU
100
AcDbText
 10
5348.647913450492
 20
7745.121753860901
 30
0.0
 40
90.0
  1
A'
 41
0.6700000000000001
  7
00
 72
     4
 11
5384.54077059335
 21
7798.69318243233
 31
0.0
100
AcDbText
  0
LINE
  5
17F61
330
17EC5
100
AcDbEntity
  8
SUNPOU
100
AcDbLine
 10
4819.127507899647
 20
7968.693182432332
 30
0.0
 11
4819.127507899647
 21
7818.693182432332
 31
0.0
  0
TEXT
  5
17F62
330
17EC5
100
AcDbEntity
  8
SUNPOU
100
AcDbText
 10
4323.778313710244
 20
7923.693182432332
 30
0.0
 40
90.0
  1
B
 41
0.6700000000000001
  7
00
 72
     4
 11
4355.364027995958
 21
7968.693182432332
 31
0.0
100
AcDbText
  0
LINE
  5
17F63
330
17EC5
100
AcDbEntity
  8
SUNPOU
100
AcDbLine
 10
4609.127507899649
 20
7968.693182432332
 30
0.0
 11
4819.127507899647
 21
7968.693182432332
 31
0.0
  0
LINE
  5
17F64
330
17EC5
100
AcDbEntity
  8
1PL-L1
100
AcDbLine
 10
4339.127507899648
 20
8843.69318243233
 30
0.0
 11
6364.461360139912
 21
8843.69318243233
 31
0.0
  0
LINE
  5
17F65
330
17EC5
100
AcDbEntity
  8
SUNPOU
100
AcDbLine
 10
5174.540770593345
 20
7408.69318243233
 30
0.0
 11
5024.540770593346
 21
7408.69318243233
 31
0.0
  0
LINE
  5
17F66
330
17EC5
100
AcDbEntity
  8
SUNPOU
100
AcDbLine
 10
5384.54077059335
 20
7618.69318243233
 30
0.0
 11
5384.54077059335
 21
7408.69318243233
 31
0.0
  0
CIRCLE
  5
17F67
330
17EC5
100
AcDbEntity
  8
HASHIRA
100
AcDbCircle
 10
4819.127507899647
 20
7468.693182432332
 30
0.0
 40
9.0
  0
CIRCLE
  5
17F68
330
17EC5
100
AcDbEntity
  8
HASHIRA
100
AcDbCircle
 10
4819.127507899647
 20
7348.693182432332
 30
0.0
 40
9.0
  0
LINE
  5
17F69
330
17EC5
100
AcDbEntity
  8
SUNPOU
100
AcDbLine
 10
4819.127507899647
 20
6848.693182432332
 30
0.0
 11
4819.127507899647
 21
6998.69318243233
 31
0.0
  0
TEXT
  5
17F6A
330
17EC5
100
AcDbEntity
  8
SUNPOU
100
AcDbText
 10
4310.856885138815
 20
6795.121753860903
 30
0.0
 40
90.0
  1
B'
 41
0.6700000000000001
  7
00
 72
     4
 11
4355.364027995958
 21
6848.693182432332
 31
0.0
100
AcDbText
  0
LINE
  5
17F6B
330
17EC5
100
AcDbEntity
  8
SUNPOU
100
AcDbLine
 10
4609.127507899649
 20
6848.693182432332
 30
0.0
 11
4819.127507899647
 21
6848.693182432332
 31
0.0
  0
LINE
  5
17F6C
330
17EC5
100
AcDbEntity
  8
1PL-M1
100
AcDbLine
 10
7219.127507899646
 20
6508.693182432331
 30
0.0
 11
7219.127507899646
 21
8098.693182432333
 31
0.0
  0
LINE
  5
17F6D
330
17EC5
100
AcDbEntity
  8
1PL-M1
100
AcDbLine
 10
4819.127507899647
 20
6508.693182432331
 30
0.0
 11
4819.127507899647
 21
9323.693182432327
 31
0.0
  0
LINE
  5
17F6E
330
17EC5
100
AcDbEntity
  8
U2
100
AcDbLine
 10
8479.127507899649
 20
9163.693182432327
 30
0.0
 11
8479.127507899649
 21
6588.693182432333
 31
0.0
  0
LINE
  5
17F6F
330
17EC5
100
AcDbEntity
  8
U2
100
AcDbLine
 10
8359.127507899648
 20
9163.693182432327
 30
0.0
 11
8359.127507899648
 21
6588.693182432333
 31
0.0
  0
LINE
  5
17F70
330
17EC5
100
AcDbEntity
  8
1PL-L1
100
AcDbLine
 10
6564.12561767182
 20
8843.69318243233
 30
0.0
 11
12714.12750789964
 21
8843.69318243233
 31
0.0
  0
LINE
  5
17F71
330
17EC5
100
AcDbEntity
  8
1PL-L1
100
AcDbLine
 10
4409.12750789965
 20
7408.69318243233
 30
0.0
 11
10150.28506683335
 21
7408.69318243233
 31
0.0
  0
TEXT
  5
17F72
330
17EC5
100
AcDbEntity
  8
HIKIDASHI
100
AcDbText
 10
5344.674704037417
 20
8897.136202695939
 30
0.0
 40
90.0
  1
（土間コン後面位置）
  7
01
100
AcDbText
  0
TEXT
  5
17F73
330
17EC5
100
AcDbEntity
  8
HIKIDASHI
100
AcDbText
 10
5428.783305953435
 20
9175.989319147296
 30
0.0
 40
90.0
  1
（屋根後面位置）
  7
01
100
AcDbText
  0
LINE
  5
17F74
330
17EC5
100
AcDbEntity
  8
YANE
100
AcDbLine
 10
4583.127507899646
 20
9123.693182432328
 30
0.0
 11
12255.12750789963
 21
9123.693182432328
 31
0.0
  0
LINE
  5
17F75
330
17EC5
100
AcDbEntity
  8
YANE
100
AcDbLine
 10
4583.127507899646
 20
6713.693182432333
 30
0.0
 11
12255.12750789963
 21
6713.693182432333
 31
0.0
  0
LINE
  5
17F76
330
17EC5
100
AcDbEntity
  8
YANE
100
AcDbLine
 10
12255.12750789963
 20
6713.693182432333
 30
0.0
 11
12255.12750789963
 21
9123.693182432328
 31
0.0
  0
LINE
  5
17F77
330
17EC5
100
AcDbEntity
  8
YANE
100
AcDbLine
 10
4583.127507899646
 20
6713.693182432333
 30
0.0
 11
4583.127507899646
 21
9123.693182432328
 31
0.0
  0
LINE
  5
17F78
330
17EC5
100
AcDbEntity
  8
SUNPOU
100
AcDbLine
 10
4244.127507899647
 20
7618.69318243233
 30
0.0
 11
4259.127507899648
 21
7708.693182432331
 31
0.0
  0
LINE
  5
17F79
330
17EC5
100
AcDbEntity
  8
SUNPOU
100
AcDbLine
 10
4259.127507899648
 20
7708.693182432331
 30
0.0
 11
4274.127507899648
 21
7618.69318243233
 31
0.0
  0
SOLID
  5
17F7A
330
17EC5
100
AcDbEntity
  8
SUNPOU
100
AcDbTrace
 10
4244.127507899647
 20
7618.69318243233
 30
0.0
 11
4274.127507899648
 21
7618.69318243233
 31
0.0
 12
4259.127507899648
 22
7708.693182432331
 32
0.0
 13
4259.127507899648
 23
7708.693182432331
 33
0.0
  0
LINE
  5
17F7B
330
17EC5
100
AcDbEntity
  8
SUNPOU
100
AcDbLine
 10
4274.127507899648
 20
7618.69318243233
 30
0.0
 11
4244.127507899647
 21
7618.69318243233
 31
0.0
  0
LINE
  5
17F7C
330
17EC5
100
AcDbEntity
  8
SUNPOU
100
AcDbLine
 10
4609.127507899649
 20
6863.693182432332
 30
0.0
 11
4519.127507899646
 21
6848.693182432332
 31
0.0
  0
LINE
  5
17F7D
330
17EC5
100
AcDbEntity
  8
SUNPOU
100
AcDbLine
 10
4519.127507899646
 20
6848.693182432332
 30
0.0
 11
4609.127507899649
 21
6833.693182432331
 31
0.0
  0
SOLID
  5
17F7E
330
17EC5
100
AcDbEntity
  8
SUNPOU
100
AcDbTrace
 10
4609.127507899649
 20
6863.693182432332
 30
0.0
 11
4609.127507899649
 21
6833.693182432331
 31
0.0
 12
4519.127507899646
 22
6848.693182432332
 32
0.0
 13
4519.127507899646
 23
6848.693182432332
 33
0.0
  0
LINE
  5
17F7F
330
17EC5
100
AcDbEntity
  8
SUNPOU
100
AcDbLine
 10
4609.127507899649
 20
6833.693182432331
 30
0.0
 11
4609.127507899649
 21
6863.693182432332
 31
0.0
  0
LINE
  5
17F80
330
17EC5
100
AcDbEntity
  8
SUNPOU
100
AcDbLine
 10
4609.127507899649
 20
7983.69318243233
 30
0.0
 11
4519.127507899646
 21
7968.693182432332
 31
0.0
  0
LINE
  5
17F81
330
17EC5
100
AcDbEntity
  8
SUNPOU
100
AcDbLine
 10
4519.127507899646
 20
7968.693182432332
 30
0.0
 11
4609.127507899649
 21
7953.69318243233
 31
0.0
  0
SOLID
  5
17F82
330
17EC5
100
AcDbEntity
  8
SUNPOU
100
AcDbTrace
 10
4609.127507899649
 20
7983.69318243233
 30
0.0
 11
4609.127507899649
 21
7953.69318243233
 31
0.0
 12
4519.127507899646
 22
7968.693182432332
 32
0.0
 13
4519.127507899646
 23
7968.693182432332
 33
0.0
  0
LINE
  5
17F83
330
17EC5
100
AcDbEntity
  8
SUNPOU
100
AcDbLine
 10
4609.127507899649
 20
7953.69318243233
 30
0.0
 11
4609.127507899649
 21
7983.69318243233
 31
0.0
  0
LINE
  5
17F84
330
17EC5
100
AcDbEntity
  8
SUNPOU
100
AcDbLine
 10
5399.540770593346
 20
7618.69318243233
 30
0.0
 11
5384.54077059335
 21
7708.693182432331
 31
0.0
  0
LINE
  5
17F85
330
17EC5
100
AcDbEntity
  8
SUNPOU
100
AcDbLine
 10
5384.54077059335
 20
7708.693182432331
 30
0.0
 11
5369.540770593348
 21
7618.69318243233
 31
0.0
  0
SOLID
  5
17F86
330
17EC5
100
AcDbEntity
  8
SUNPOU
100
AcDbTrace
 10
5399.540770593346
 20
7618.69318243233
 30
0.0
 11
5369.540770593348
 21
7618.69318243233
 31
0.0
 12
5384.54077059335
 22
7708.693182432331
 32
0.0
 13
5384.54077059335
 23
7708.693182432331
 33
0.0
  0
LINE
  5
17F87
330
17EC5
100
AcDbEntity
  8
SUNPOU
100
AcDbLine
 10
5369.540770593348
 20
7618.69318243233
 30
0.0
 11
5399.540770593346
 21
7618.69318243233
 31
0.0
  0
LINE
  5
17F88
330
17EC5
100
AcDbEntity
  8
SUNPOU
100
AcDbLine
 10
6830.377507899647
 20
8143.693182432333
 30
0.0
 11
6841.627507899646
 21
8143.693182432333
 31
0.0
  0
LINE
  5
17F89
330
17EC5
100
AcDbEntity
  8
SUNPOU
100
AcDbLine
 10
6519.12750789965
 20
8454.94318243233
 30
0.0
 11
6519.12750789965
 21
8466.193182432332
 31
0.0
  0
LINE
  5
17F8A
330
17EC5
100
AcDbEntity
  8
SUNPOU
100
AcDbLine
 10
7607.877507899646
 20
8143.693182432333
 30
0.0
 11
7596.627507899651
 21
8143.693182432333
 31
0.0
  0
LINE
  5
17F8B
330
17EC5
100
AcDbEntity
  8
SUNPOU
100
AcDbLine
 10
6519.12750789965
 20
9232.443182432332
 30
0.0
 11
6519.12750789965
 21
9221.193182432328
 31
0.0
  0
LINE
  5
17F8C
330
17EC5
100
AcDbEntity
  8
SUNPOU
100
AcDbLine
 10
9230.377507899648
 20
6758.693182432331
 30
0.0
 11
9241.627507899648
 21
6758.693182432331
 31
0.0
  0
LINE
  5
17F8D
330
17EC5
100
AcDbEntity
  8
SUNPOU
100
AcDbLine
 10
10007.87750789964
 20
6758.693182432331
 30
0.0
 11
9996.627507899647
 21
6758.693182432331
 31
0.0
  0
LINE
  5
17F8E
330
17EC5
100
AcDbEntity
  8
SUNPOU
100
AcDbLine
 10
10319.12750789965
 20
7019.94318243233
 30
0.0
 11
10319.12750789965
 21
7031.193182432332
 31
0.0
  0
LINE
  5
17F8F
330
17EC5
100
AcDbEntity
  8
SUNPOU
100
AcDbLine
 10
10319.12750789965
 20
7797.44318243233
 30
0.0
 11
10319.12750789965
 21
7786.193182432332
 31
0.0
  0
LINE
  5
17F90
330
17EC5
100
AcDbEntity
  8
SUNPOU
100
AcDbLine
 10
12879.12750789964
 20
6719.943182432333
 30
0.0
 11
12879.12750789964
 21
6731.193182432332
 31
0.0
  0
LINE
  5
17F91
330
17EC5
100
AcDbEntity
  8
SUNPOU
100
AcDbLine
 10
12669.12750789964
 20
6719.943182432333
 30
0.0
 11
12669.12750789964
 21
6731.193182432332
 31
0.0
  0
LINE
  5
17F92
330
17EC5
100
AcDbEntity
  8
SUNPOU
100
AcDbLine
 10
12669.12750789964
 20
7419.943182432333
 30
0.0
 11
12669.12750789964
 21
7431.19318243233
 31
0.0
  0
LINE
  5
17F93
330
17EC5
100
AcDbEntity
  8
SUNPOU
100
AcDbLine
 10
12669.12750789964
 20
7397.44318243233
 30
0.0
 11
12669.12750789964
 21
7386.193182432332
 31
0.0
  0
LINE
  5
17F94
330
17EC5
100
AcDbEntity
  8
SUNPOU
100
AcDbLine
 10
12879.12750789964
 20
9032.443182432331
 30
0.0
 11
12879.12750789964
 21
9021.193182432327
 31
0.0
  0
LINE
  5
17F95
330
17EC5
100
AcDbEntity
  8
SUNPOU
100
AcDbLine
 10
12669.12750789964
 20
8832.443182432331
 30
0.0
 11
12669.12750789964
 21
8821.193182432331
 31
0.0
  0
LINE
  5
17F96
330
17EC5
100
AcDbEntity
  8
SUNPOU
100
AcDbLine
 10
12669.12750789964
 20
8854.943182432331
 30
0.0
 11
12669.12750789964
 21
8866.193182432331
 31
0.0
  0
LINE
  5
17F97
330
17EC5
100
AcDbEntity
  8
SUNPOU
100
AcDbLine
 10
12669.12750789964
 20
9032.443182432331
 30
0.0
 11
12669.12750789964
 21
9021.193182432327
 31
0.0
  0
TEXT
  5
17F98
330
17EC5
100
AcDbEntity
  8
HIKIDASHI
100
AcDbText
 10
7357.378080725941
 20
5681.450674192186
 30
0.0
 40
135.0
  1
基 礎 平 面 図　縮尺
  7
01
 72
     4
 11
8149.378080725941
 21
5748.950674192186
 31
0.0
100
AcDbText
  0
TEXT
  5
17F99
330
17EC5
100
AcDbEntity
  8
HIKIDASHI
100
AcDbText
 10
7702.502225892043
 20
5466.450674192186
 30
0.0
 40
135.0
  1
（  ：スパン数）
  7
01
 11
7702.502225892043
 21
5533.950674192186
 31
0.0
100
AcDbText
 73
     2
  0
TEXT
  5
17F9A
330
17EC5
100
AcDbEntity
  8
HIKIDASHI
100
AcDbText
 10
7880.926138551379
 20
5466.450674192186
 30
0.0
 40
135.0
  1
N
 41
0.6666666666666666
  7
00
 72
     4
 11
7928.068995694236
 21
5533.950674192186
 31
0.0
100
AcDbText
  0
LINE
  5
17F9B
330
17EC5
100
AcDbEntity
  8
HIKIDASHI
100
AcDbLine
 10
9283.0996148628
 20
5816.450674192189
 30
0.0
 11
9148.0996148628
 21
5681.450674192186
 31
0.0
  0
TEXT
  5
17F9C
330
17EC5
100
AcDbEntity
  8
HIKIDASHI
100
AcDbText
 10
9003.864046589846
 20
5691.093531335043
 30
0.0
 40
135.0
  1
=
 41
0.6666666666666666
  7
00
 72
     4
 11
9059.578332304132
 21
5748.950674192186
 31
0.0
100
AcDbText
  0
TEXT
  5
17F9D
330
17EC5
100
AcDbEntity
  8
HIKIDASHI
100
AcDbText
 10
9234.251678026312
 20
5681.450674192189
 30
0.0
 40
67.5
  1
40
 41
0.6666666666666666
  7
00
 72
     4
 11
9277.108820883455
 21
5715.200674192189
 31
0.0
100
AcDbText
  0
TEXT
  5
17F9E
330
17EC5
100
AcDbEntity
  8
HIKIDASHI
100
AcDbText
 10
9150.509710887495
 20
5748.864530743389
 30
0.0
 40
67.5
  1
1
 41
0.6666666666666666
  7
00
 72
     4
 11
9168.723996601782
 21
5782.61453074339
 31
0.0
100
AcDbText
  0
TEXT
  5
17F9F
330
17EC5
100
AcDbEntity
  8
HIKIDASHI
100
AcDbText
 10
7357.378080725941
 20
5681.450674192186
 30
0.0
 40
135.0
  1
基 礎 平 面 図　縮尺
  7
01
 72
     4
 11
8149.378080725941
 21
5748.950674192186
 31
0.0
100
AcDbText
  0
TEXT
  5
17FA0
330
17EC5
100
AcDbEntity
  8
HIKIDASHI
100
AcDbText
 10
7702.502225892046
 20
5466.450674192186
 30
0.0
 40
135.0
  1
（  ：スパン数）
  7
01
 11
7702.502225892046
 21
5533.950674192186
 31
0.0
100
AcDbText
 73
     2
  0
TEXT
  5
17FA1
330
17EC5
100
AcDbEntity
  8
HIKIDASHI
100
AcDbText
 10
7880.926138551379
 20
5466.450674192186
 30
0.0
 40
135.0
  1
N
 41
0.6666666666666666
  7
00
 72
     4
 11
7928.068995694236
 21
5533.950674192186
 31
0.0
100
AcDbText
  0
LINE
  5
17FA2
330
17EC5
100
AcDbEntity
  8
HIKIDASHI
100
AcDbLine
 10
9283.099614862804
 20
5816.450674192189
 30
0.0
 11
9148.099614862804
 21
5681.450674192186
 31
0.0
  0
TEXT
  5
17FA3
330
17EC5
100
AcDbEntity
  8
HIKIDASHI
100
AcDbText
 10
9003.864046589846
 20
5691.093531335043
 30
0.0
 40
135.0
  1
=
 41
0.6666666666666666
  7
00
 72
     4
 11
9059.578332304132
 21
5748.950674192186
 31
0.0
100
AcDbText
  0
TEXT
  5
17FA4
330
17EC5
100
AcDbEntity
  8
HIKIDASHI
100
AcDbText
 10
9234.251678026312
 20
5681.450674192189
 30
0.0
 40
67.5
  1
40
 41
0.6666666666666666
  7
00
 72
     4
 11
9277.108820883455
 21
5715.200674192189
 31
0.0
100
AcDbText
  0
TEXT
  5
17FA5
330
17EC5
100
AcDbEntity
  8
HIKIDASHI
100
AcDbText
 10
9150.509710887495
 20
5748.864530743389
 30
0.0
 40
67.5
  1
1
 41
0.6666666666666666
  7
00
 72
     4
 11
9168.723996601782
 21
5782.61453074339
 31
0.0
100
AcDbText
  0
LINE
  5
17FA6
330
17EC5
100
AcDbEntity
  8
SUNPOU
100
AcDbLine
 10
4419.127507899648
 20
6668.693182432332
 30
0.0
 11
4419.127507899648
 21
6053.693182432332
 31
0.0
  0
LINE
  5
17FA7
330
17EC5
100
AcDbEntity
  8
SUNPOU
100
AcDbLine
 10
12419.12750789964
 20
6668.693182432332
 30
0.0
 11
12419.12750789964
 21
6053.693182432332
 31
0.0
  0
LINE
  5
17FA8
330
17EC5
100
AcDbEntity
  8
SUNPOU
100
AcDbLine
 10
4439.127507899647
 20
6098.693182432332
 30
0.0
 11
12399.12750789964
 21
6098.693182432332
 31
0.0
  0
LINE
  5
17FA9
330
17EC5
100
AcDbEntity
  8
1PL-M1
100
AcDbLine
 10
4799.797051267467
 20
2396.172125878782
 30
0.0
 11
4799.797051267467
 21
4175.485411556191
 31
0.0
  0
LINE
  5
17FAA
330
17EC5
100
AcDbEntity
  8
KISO
100
AcDbLine
 10
6082.193774006777
 20
3447.084839419609
 30
0.0
 11
4851.797051267459
 21
3447.084839419609
 31
0.0
  0
LINE
  5
17FAB
330
17EC5
100
AcDbEntity
  8
KISO
100
AcDbLine
 10
6082.193774006777
 20
3319.084839419601
 30
0.0
 11
4159.797051267466
 21
3319.0848394196
 31
0.0
  0
LINE
  5
17FAC
330
17EC5
100
AcDbEntity
  8
HATCH
100
AcDbLine
 10
5021.555511458895
 20
3447.084839419608
 30
0.0
 11
4893.555511458894
 21
3319.084839419601
 31
0.0
  0
LINE
  5
17FAD
330
17EC5
100
AcDbEntity
  8
U3
100
AcDbLine
 10
3353.961658022968
 20
3367.084839419605
 30
0.0
 11
3521.961658022968
 21
3199.08483941961
 31
0.0
  0
LINE
  5
17FAE
330
17EC5
100
AcDbEntity
  8
U3
100
AcDbLine
 10
3303.049969777534
 20
3316.173151174174
 30
0.0
 11
3420.138281532103
 21
3199.084839419605
 31
0.0
  0
LINE
  5
17FAF
330
17EC5
100
AcDbEntity
  8
U3
100
AcDbLine
 10
3589.820095533325
 20
3367.084839419606
 30
0.0
 11
3017.961658022968
 21
3367.084839419606
 31
0.0
  0
LINE
  5
17FB0
330
17EC5
100
AcDbEntity
  8
U3
100
AcDbLine
 10
3084.138281532102
 20
3300.908215910468
 30
0.0
 11
3150.314905041237
 21
3367.084839419603
 31
0.0
  0
LINE
  5
17FB1
330
17EC5
100
AcDbEntity
  8
U3
100
AcDbLine
 10
3017.961658022968
 20
3367.084839419603
 30
0.0
 11
3185.961658022968
 21
3199.084839419608
 31
0.0
  0
LINE
  5
17FB2
330
17EC5
100
AcDbEntity
  8
U3
100
AcDbLine
 10
3135.049969777535
 20
3249.996527665039
 30
0.0
 11
3252.138281532102
 21
3367.084839419603
 31
0.0
  0
LINE
  5
17FB3
330
17EC5
100
AcDbEntity
  8
U3
100
AcDbLine
 10
3185.961658022968
 20
3199.084839419608
 30
0.0
 11
3353.961658022968
 21
3367.084839419605
 31
0.0
  0
LINE
  5
17FB4
330
17EC5
100
AcDbEntity
  8
U3
100
AcDbLine
 10
3252.138281532102
 20
3265.261462928741
 30
0.0
 11
3318.314905041241
 21
3199.084839419605
 31
0.0
  0
LINE
  5
17FB5
330
17EC5
100
AcDbEntity
  8
U3
100
AcDbLine
 10
3521.961658022968
 20
3199.08483941961
 30
0.0
 11
3589.820095533325
 21
3266.943276929966
 31
0.0
  0
LINE
  5
17FB6
330
17EC5
100
AcDbEntity
  8
U3
100
AcDbLine
 10
3420.138281532103
 20
3300.908215910471
 30
0.0
 11
3486.314905041237
 21
3367.084839419605
 31
0.0
  0
LINE
  5
17FB7
330
17EC5
100
AcDbEntity
  8
U3
100
AcDbLine
 10
3471.049969777534
 20
3249.99652766504
 30
0.0
 11
3588.138281532106
 21
3367.084839419605
 31
0.0
  0
LINE
  5
17FB8
330
17EC5
100
AcDbEntity
  8
HASHIRA
100
AcDbLine
 10
4851.797051267459
 20
3328.684839419607
 30
0.0
 11
4851.797051267459
 21
3718.91804462035
 31
0.0
  0
LINE
  5
17FB9
330
17EC5
100
AcDbEntity
  8
HASHIRA
100
AcDbLine
 10
4747.797051267459
 20
3718.91804462035
 30
0.0
 11
4747.797051267459
 21
3328.684839419607
 31
0.0
  0
LINE
  5
17FBA
330
17EC5
100
AcDbEntity
  8
U3
100
AcDbLine
 10
4159.797051267466
 20
3376.684839419604
 30
0.0
 11
3909.820095533324
 21
3376.684839419603
 31
0.0
  0
LINE
  5
17FBB
330
17EC5
100
AcDbEntity
  8
U3
100
AcDbLine
 10
4098.782873409589
 20
3310.508215910469
 30
0.0
 11
4159.797051267466
 21
3371.522393768342
 31
0.0
  0
LINE
  5
17FBC
330
17EC5
100
AcDbEntity
  8
U3
100
AcDbLine
 10
4032.606249900458
 20
3376.684839419603
 30
0.0
 11
4159.797051267466
 21
3249.494038052592
 31
0.0
  0
LINE
  5
17FBD
330
17EC5
100
AcDbEntity
  8
U3
100
AcDbLine
 10
3975.765342899849
 20
3331.702369929347
 30
0.0
 11
4098.782873409597
 21
3208.684839419603
 31
0.0
  0
LINE
  5
17FBE
330
17EC5
100
AcDbEntity
  8
KISO
100
AcDbLine
 10
4747.797051267459
 20
3447.084839419609
 30
0.0
 11
4159.797051267466
 21
3447.084839419609
 31
0.0
  0
LINE
  5
17FBF
330
17EC5
100
AcDbEntity
  8
HATCH
100
AcDbLine
 10
4821.714626963205
 20
3319.084839419601
 30
0.0
 11
4810.197051267468
 21
3307.567263723864
 31
0.0
  0
LINE
  5
17FC0
330
17EC5
100
AcDbEntity
  8
KISO
100
AcDbLine
 10
5439.797051267473
 20
3191.0848394196
 30
0.0
 11
6082.193774006777
 21
3191.084839419601
 31
0.0
  0
LINE
  5
17FC1
330
17EC5
100
AcDbEntity
  8
HATCH
100
AcDbLine
 10
6002.193774006777
 20
3420.205526271753
 30
0.0
 11
5901.073087154634
 21
3319.084839419601
 31
0.0
  0
LINE
  5
17FC2
330
17EC5
100
AcDbEntity
  8
HATCH
100
AcDbLine
 10
6002.193774006777
 20
3372.687950576013
 30
0.0
 11
5948.590662850367
 21
3319.084839419601
 31
0.0
  0
LINE
  5
17FC3
330
17EC5
100
AcDbEntity
  8
HATCH
100
AcDbLine
 10
5501.555511458894
 20
3447.084839419609
 30
0.0
 11
5373.555511458889
 21
3319.084839419601
 31
0.0
  0
LINE
  5
17FC4
330
17EC5
100
AcDbEntity
  8
HATCH
100
AcDbLine
 10
5549.07308715463
 20
3447.084839419609
 30
0.0
 11
5421.073087154633
 21
3319.084839419601
 31
0.0
  0
LINE
  5
17FC5
330
17EC5
100
AcDbEntity
  8
HATCH
100
AcDbLine
 10
5116.59066285037
 20
3447.084839419609
 30
0.0
 11
4988.590662850366
 21
3319.084839419601
 31
0.0
  0
LINE
  5
17FC6
330
17EC5
100
AcDbEntity
  8
HATCH
100
AcDbLine
 10
5069.07308715463
 20
3447.084839419609
 30
0.0
 11
4941.073087154633
 21
3319.084839419601
 31
0.0
  0
LINE
  5
17FC7
330
17EC5
100
AcDbEntity
  8
HATCH
100
AcDbLine
 10
5596.59066285037
 20
3447.084839419609
 30
0.0
 11
5468.590662850365
 21
3319.084839419601
 31
0.0
  0
LINE
  5
17FC8
330
17EC5
100
AcDbEntity
  8
HATCH
100
AcDbLine
 10
5981.555511458894
 20
3447.084839419609
 30
0.0
 11
5853.555511458891
 21
3319.084839419601
 31
0.0
  0
LINE
  5
17FC9
330
17EC5
100
AcDbEntity
  8
KISO
100
AcDbLine
 10
5439.797051267465
 20
3319.0848394196
 30
0.0
 11
5439.797051267465
 21
2679.0848394196
 31
0.0
  0
LINE
  5
17FCA
330
17EC5
100
AcDbEntity
  8
HATCH
100
AcDbLine
 10
5439.797051267465
 20
3073.167263723862
 30
0.0
 11
5045.714626963206
 21
2679.0848394196
 31
0.0
  0
LINE
  5
17FCB
330
17EC5
100
AcDbEntity
  8
HATCH
100
AcDbLine
 10
5301.23220265894
 20
3319.084839419601
 30
0.0
 11
4661.232202658948
 21
2679.0848394196
 31
0.0
  0
LINE
  5
17FCC
330
17EC5
100
AcDbEntity
  8
HATCH
100
AcDbLine
 10
5253.714626963209
 20
3319.084839419601
 30
0.0
 11
4810.197051267468
 21
2875.567263723857
 31
0.0
  0
LINE
  5
17FCD
330
17EC5
100
AcDbEntity
  8
HATCH
100
AcDbLine
 10
5206.197051267469
 20
3319.084839419601
 30
0.0
 11
4810.197051267468
 21
2923.084839419594
 31
0.0
  0
LINE
  5
17FCE
330
17EC5
100
AcDbEntity
  8
HATCH
100
AcDbLine
 10
5439.797051267465
 20
3025.649688028123
 30
0.0
 11
5093.232202658948
 21
2679.084839419599
 31
0.0
  0
LINE
  5
17FCF
330
17EC5
100
AcDbEntity
  8
HATCH
100
AcDbLine
 10
5439.797051267468
 20
2978.13211233239
 30
0.0
 11
5140.749778354682
 21
2679.084839419599
 31
0.0
  0
LINE
  5
17FD0
330
17EC5
100
AcDbEntity
  8
HATCH
100
AcDbLine
 10
4774.197051267479
 20
3319.084839419601
 30
0.0
 11
4159.797051267466
 21
2704.684839419591
 31
0.0
  0
LINE
  5
17FD1
330
17EC5
100
AcDbEntity
  8
HATCH
100
AcDbLine
 10
4726.679475571733
 20
3319.084839419601
 30
0.0
 11
4159.797051267466
 21
2752.202415115331
 31
0.0
  0
LINE
  5
17FD2
330
17EC5
100
AcDbEntity
  8
HATCH
100
AcDbLine
 10
4789.397051267465
 20
3286.767263723862
 30
0.0
 11
4181.714626963207
 21
2679.0848394196
 31
0.0
  0
LINE
  5
17FD3
330
17EC5
100
AcDbEntity
  8
HATCH
100
AcDbLine
 10
4342.197051267475
 20
3319.084839419601
 30
0.0
 11
4159.797051267466
 21
3136.684839419595
 31
0.0
  0
LINE
  5
17FD4
330
17EC5
100
AcDbEntity
  8
HATCH
100
AcDbLine
 10
4247.161899876004
 20
3319.084839419601
 30
0.0
 11
4159.797051267466
 21
3231.719990811074
 31
0.0
  0
LINE
  5
17FD5
330
17EC5
100
AcDbEntity
  8
HATCH
100
AcDbLine
 10
4294.679475571743
 20
3319.084839419601
 30
0.0
 11
4159.797051267466
 21
3184.202415115327
 31
0.0
  0
LINE
  5
17FD6
330
17EC5
100
AcDbEntity
  8
HATCH
100
AcDbLine
 10
4789.397051267465
 20
2902.284839419593
 30
0.0
 11
4766.197051267482
 21
2879.084839419606
 31
0.0
  0
LINE
  5
17FD7
330
17EC5
100
AcDbEntity
  8
HATCH
100
AcDbLine
 10
4745.397051267484
 20
2858.284839419607
 30
0.0
 11
4566.197051267473
 21
2679.0848394196
 31
0.0
  0
LINE
  5
17FD8
330
17EC5
100
AcDbEntity
  8
HATCH
100
AcDbLine
 10
5439.797051267468
 20
3285.236002075316
 30
0.0
 11
5459.339686619944
 21
3319.084839419601
 31
0.0
  0
LINE
  5
17FD9
330
17EC5
100
AcDbEntity
  8
U3
100
AcDbLine
 10
3924.853654654418
 20
3280.790681683917
 30
0.0
 11
3996.959496918736
 21
3208.684839419603
 31
0.0
  0
LINE
  5
17FDA
330
17EC5
100
AcDbEntity
  8
U3
100
AcDbLine
 10
3909.820095533324
 20
3265.757122562823
 30
0.0
 11
4020.747812390101
 21
3376.684839419601
 31
0.0
  0
LINE
  5
17FDB
330
17EC5
100
AcDbEntity
  8
HATCH
100
AcDbLine
 10
4792.914626963223
 20
2858.284839419607
 30
0.0
 11
4613.714626963214
 21
2679.0848394196
 31
0.0
  0
LINE
  5
17FDC
330
17EC5
100
AcDbEntity
  8
HATCH
100
AcDbLine
 10
4636.59066285037
 20
3447.084839419609
 30
0.0
 11
4508.590662850365
 21
3319.084839419601
 31
0.0
  0
LINE
  5
17FDD
330
17EC5
100
AcDbEntity
  8
HATCH
100
AcDbLine
 10
4589.073087154632
 20
3447.084839419609
 30
0.0
 11
4461.073087154633
 21
3319.084839419601
 31
0.0
  0
LINE
  5
17FDE
330
17EC5
100
AcDbEntity
  8
HATCH
100
AcDbLine
 10
4541.555511458894
 20
3447.084839419609
 30
0.0
 11
4413.555511458894
 21
3319.084839419601
 31
0.0
  0
LINE
  5
17FDF
330
17EC5
100
AcDbEntity
  8
SUNPOU
100
AcDbLine
 10
4799.797051267467
 20
4130.485411556192
 30
0.0
 11
6225.027558517719
 21
4130.485411556192
 31
0.0
  0
TEXT
  5
17FE0
330
17EC5
100
AcDbEntity
  8
SUNPOU
100
AcDbText
 10
5585.624750407932
 20
4175.485411556191
 30
0.0
 40
90.0
  1
2400
 41
0.6666666666666666
  7
00
 72
     4
 11
5699.910464693647
 21
4220.485411556191
 31
0.0
100
AcDbText
  0
TEXT
  5
17FE1
330
17EC5
100
AcDbEntity
  8
SUNPOU
100
AcDbText
 10
3070.061516132472
 20
3502.084839419605
 30
0.0
 40
90.0
  1
G.L
 41
0.6700000000000001
  7
01
 72
     4
 11
3141.847230418186
 21
3547.084839419605
 31
0.0
100
AcDbText
  0
LINE
  5
17FE2
330
17EC5
100
AcDbEntity
  8
SUNPOU
100
AcDbLine
 10
3193.808754645253
 20
3457.084839419605
 30
0.0
 11
3089.88570619112
 21
3457.084839419605
 31
0.0
  0
LINE
  5
17FE3
330
17EC5
100
AcDbEntity
  8
SUNPOU
100
AcDbLine
 10
3089.88570619112
 20
3457.084839419605
 30
0.0
 11
3141.847230418186
 21
3367.084839419606
 31
0.0
  0
LINE
  5
17FE4
330
17EC5
100
AcDbEntity
  8
SUNPOU
100
AcDbLine
 10
3141.847230418186
 20
3367.084839419606
 30
0.0
 11
3193.808754645253
 21
3457.084839419605
 31
0.0
  0
TEXT
  5
17FE5
330
17EC5
100
AcDbEntity
  8
HIKIDASHI
100
AcDbText
 10
4876.000654146242
 20
1664.635820576935
 30
0.0
 40
90.0
  1
断 面
  7
01
100
AcDbText
  0
LINE
  5
17FE6
330
17EC5
100
AcDbEntity
  8
HIKIDASHI
100
AcDbLine
 10
4451.983374649681
 20
1619.635820576935
 30
0.0
 11
5147.61072788525
 21
1619.635820576935
 31
0.0
  0
LINE
  5
17FE7
330
17EC5
100
AcDbEntity
  8
HIKIDASHI
100
AcDbLine
 10
4451.983374649681
 20
1589.635820576935
 30
0.0
 11
5147.61072788525
 21
1589.635820576935
 31
0.0
  0
TEXT
  5
17FE8
330
17EC5
100
AcDbEntity
  8
HIKIDASHI
100
AcDbText
 10
4481.983374649678
 20
1664.635820576935
 30
0.0
 40
90.0
  1
A  ~  A'
 41
0.6700000000000001
  7
00
100
AcDbText
  0
TEXT
  5
17FE9
330
17EC5
100
AcDbEntity
  8
HIKIDASHI
100
AcDbText
 10
5718.705531692625
 20
2949.11470702088
 30
0.0
 40
90.0
  1
敷砂利又は砕石
  7
01
 72
     2
 11
6450.705531692626
 21
2994.11470702088
 31
0.0
100
AcDbText
 73
     2
  0
LINE
  5
17FEA
330
17EC5
100
AcDbEntity
  8
HIKIDASHI
100
AcDbLine
 10
6475.935832338305
 20
2904.114707020879
 30
0.0
 11
5674.87166261116
 21
2904.114707020879
 31
0.0
  0
TEXT
  5
17FEB
330
17EC5
100
AcDbEntity
  8
HIKIDASHI
100
AcDbText
 10
5843.405704394571
 20
2313.304238552882
 30
0.0
 40
90.0
  1
砕　石
  7
01
 72
     2
 11
6143.405704394571
 21
2358.304238552882
 31
0.0
100
AcDbText
 73
     2
  0
LINE
  5
17FEC
330
17EC5
100
AcDbEntity
  8
HIKIDASHI
100
AcDbLine
 10
6185.104473630286
 20
2268.30423855288
 30
0.0
 11
5816.338096802661
 21
2268.30423855288
 31
0.0
  0
CIRCLE
  5
17FED
330
17EC5
100
AcDbEntity
  8
BOLT
100
AcDbCircle
 10
8811.882670973586
 20
3424.684839419607
 30
0.0
 40
13.2
  0
CIRCLE
  5
17FEE
330
17EC5
100
AcDbEntity
  8
BOLT
100
AcDbCircle
 10
8811.882670973586
 20
3424.684839419607
 30
0.0
 40
16.8
  0
CIRCLE
  5
17FEF
330
17EC5
100
AcDbEntity
  8
BOLT
100
AcDbCircle
 10
8811.882670973586
 20
3360.684839419607
 30
0.0
 40
16.8
  0
CIRCLE
  5
17FF0
330
17EC5
100
AcDbEntity
  8
BOLT
100
AcDbCircle
 10
8811.882670973586
 20
3360.684839419607
 30
0.0
 40
13.2
  0
LINE
  5
17FF1
330
17EC5
100
AcDbEntity
  8
KISO
100
AcDbLine
 10
10014.27939371289
 20
3447.084839419609
 30
0.0
 11
8863.882670973586
 21
3447.084839419606
 31
0.0
  0
LINE
  5
17FF2
330
17EC5
100
AcDbEntity
  8
KISO
100
AcDbLine
 10
10014.27939371289
 20
3319.084839419601
 30
0.0
 11
7691.882670973591
 21
3319.084839419603
 31
0.0
  0
LINE
  5
17FF3
330
17EC5
100
AcDbEntity
  8
KISO
100
AcDbLine
 10
7691.882670973591
 20
3191.084839419599
 30
0.0
 11
8171.882670973591
 21
3191.0848394196
 31
0.0
  0
LINE
  5
17FF4
330
17EC5
100
AcDbEntity
  8
KISO
100
AcDbLine
 10
9451.882670973594
 20
3191.0848394196
 30
0.0
 11
10014.27939371289
 21
3191.084839419601
 31
0.0
  0
LINE
  5
17FF5
330
17EC5
100
AcDbEntity
  8
KISO
100
AcDbLine
 10
8759.882670973587
 20
3447.084839419609
 30
0.0
 11
7691.882670973591
 21
3447.084839419609
 31
0.0
  0
LINE
  5
17FF6
330
17EC5
100
AcDbEntity
  8
HASHIRA
100
AcDbLine
 10
8863.882670973586
 20
3328.684839419607
 30
0.0
 11
8863.882670973582
 21
3583.485411556191
 31
0.0
  0
LINE
  5
17FF7
330
17EC5
100
AcDbEntity
  8
HASHIRA
100
AcDbLine
 10
8759.882670973587
 20
3583.485411556191
 30
0.0
 11
8759.882670973587
 21
3328.684839419607
 31
0.0
  0
LINE
  5
17FF8
330
17EC5
100
AcDbEntity
  8
HATCH
100
AcDbLine
 10
8553.641131165022
 20
3447.084839419609
 30
0.0
 11
8425.641131165013
 21
3319.084839419601
 31
0.0
  0
LINE
  5
17FF9
330
17EC5
100
AcDbEntity
  8
HATCH
100
AcDbLine
 10
8648.676282556495
 20
3447.084839419608
 30
0.0
 11
8520.676282556484
 21
3319.084839419601
 31
0.0
  0
LINE
  5
17FFA
330
17EC5
100
AcDbEntity
  8
HATCH
100
AcDbLine
 10
8601.158706860758
 20
3447.084839419609
 30
0.0
 11
8473.158706860749
 21
3319.084839419601
 31
0.0
  0
LINE
  5
17FFB
330
17EC5
100
AcDbEntity
  8
1PL-S1
100
AcDbLine
 10
8715.882670973586
 20
3309.484839419605
 30
0.0
 11
8715.882670973586
 21
3338.284839419607
 31
0.0
  0
LINE
  5
17FFC
330
17EC5
100
AcDbEntity
  8
HATCH
100
AcDbLine
 10
9033.641131165015
 20
3447.084839419608
 30
0.0
 11
8915.241131165018
 21
3328.684839419607
 31
0.0
  0
LINE
  5
17FFD
330
17EC5
100
AcDbEntity
  8
HATCH
100
AcDbLine
 10
9081.15870686076
 20
3447.084839419609
 30
0.0
 11
8953.158706860754
 21
3319.084839419601
 31
0.0
  0
LINE
  5
17FFE
330
17EC5
100
AcDbEntity
  8
1PL-S1
100
AcDbLine
 10
8907.882670973586
 20
3309.484839419605
 30
0.0
 11
8907.882670973586
 21
3338.284839419606
 31
0.0
  0
LINE
  5
17FFF
330
17EC5
100
AcDbEntity
  8
HATCH
100
AcDbLine
 10
9128.676282556488
 20
3447.084839419609
 30
0.0
 11
9000.676282556483
 21
3319.084839419601
 31
0.0
  0
LINE
  5
18000
330
17EC5
100
AcDbEntity
  8
HATCH
100
AcDbLine
 10
9513.641131165019
 20
3447.084839419609
 30
0.0
 11
9385.641131165012
 21
3319.084839419601
 31
0.0
  0
LINE
  5
18001
330
17EC5
100
AcDbEntity
  8
HATCH
100
AcDbLine
 10
9561.158706860759
 20
3447.084839419609
 30
0.0
 11
9433.158706860755
 21
3319.084839419601
 31
0.0
  0
LINE
  5
18002
330
17EC5
100
AcDbEntity
  8
HATCH
100
AcDbLine
 10
9608.676282556494
 20
3447.084839419609
 30
0.0
 11
9480.67628255648
 21
3319.084839419601
 31
0.0
  0
LINE
  5
18003
330
17EC5
100
AcDbEntity
  8
HATCH
100
AcDbLine
 10
10014.27939371289
 20
3372.687950576013
 30
0.0
 11
9960.67628255648
 21
3319.084839419601
 31
0.0
  0
LINE
  5
18004
330
17EC5
100
AcDbEntity
  8
HATCH
100
AcDbLine
 10
10014.27939371289
 20
3420.205526271743
 30
0.0
 11
9913.158706860755
 21
3319.084839419601
 31
0.0
  0
LINE
  5
18005
330
17EC5
100
AcDbEntity
  8
HATCH
100
AcDbLine
 10
9993.641131165016
 20
3447.084839419609
 30
0.0
 11
9865.641131165016
 21
3319.084839419601
 31
0.0
  0
LINE
  5
18006
330
17EC5
100
AcDbEntity
  8
HATCH
100
AcDbLine
 10
9451.882670973587
 20
3073.16726372387
 30
0.0
 11
9057.800246669328
 21
2679.084839419599
 31
0.0
  0
LINE
  5
18007
330
17EC5
100
AcDbEntity
  8
HATCH
100
AcDbLine
 10
9451.882670973594
 20
3025.649688028133
 30
0.0
 11
9105.317822365059
 21
2679.084839419599
 31
0.0
  0
LINE
  5
18008
330
17EC5
100
AcDbEntity
  8
HATCH
100
AcDbLine
 10
9451.882670973594
 20
2978.132112332401
 30
0.0
 11
9152.835398060796
 21
2679.084839419599
 31
0.0
  0
LINE
  5
18009
330
17EC5
100
AcDbEntity
  8
HATCH
100
AcDbLine
 10
9265.800246669323
 20
3319.084839419601
 30
0.0
 11
8918.282670973589
 21
2971.567263723861
 31
0.0
  0
LINE
  5
1800A
330
17EC5
100
AcDbEntity
  8
HATCH
100
AcDbLine
 10
9313.317822365055
 20
3319.084839419601
 30
0.0
 11
8918.282670973589
 21
2924.049688028129
 31
0.0
  0
LINE
  5
1800B
330
17EC5
100
AcDbEntity
  8
HATCH
100
AcDbLine
 10
9218.282670973588
 20
3319.084839419601
 30
0.0
 11
8918.282670973589
 21
3019.084839419599
 31
0.0
  0
LINE
  5
1800C
330
17EC5
100
AcDbEntity
  8
KISO
100
AcDbLine
 10
9451.882670973594
 20
3319.084839419604
 30
0.0
 11
9451.882670973594
 21
2679.084839419599
 31
0.0
  0
LINE
  5
1800D
330
17EC5
100
AcDbEntity
  8
HATCH
100
AcDbLine
 10
8738.765095277853
 20
3319.084839419601
 30
0.0
 11
8726.282670973589
 21
3306.602415115337
 31
0.0
  0
LINE
  5
1800E
330
17EC5
100
AcDbEntity
  8
HATCH
100
AcDbLine
 10
8801.482670973589
 20
3286.767263723866
 30
0.0
 11
8726.282670973589
 21
3211.567263723865
 31
0.0
  0
LINE
  5
1800F
330
17EC5
100
AcDbEntity
  8
HATCH
100
AcDbLine
 10
8786.282670973594
 20
3319.084839419601
 30
0.0
 11
8726.282670973589
 21
3259.084839419598
 31
0.0
  0
LINE
  5
18010
330
17EC5
100
AcDbEntity
  8
KISO
100
AcDbLine
 10
8171.882670973591
 20
3319.084839419605
 30
0.0
 11
8171.882670973593
 21
2679.0848394196
 31
0.0
  0
LINE
  5
18011
330
17EC5
100
AcDbEntity
  8
HATCH
100
AcDbLine
 10
8354.282670973589
 20
3319.084839419601
 30
0.0
 11
8171.882670973591
 21
3136.684839419603
 31
0.0
  0
LINE
  5
18012
330
17EC5
100
AcDbEntity
  8
HATCH
100
AcDbLine
 10
8306.765095277858
 20
3319.084839419601
 30
0.0
 11
8171.882670973586
 21
3184.202415115333
 31
0.0
  0
LINE
  5
18013
330
17EC5
100
AcDbEntity
  8
HATCH
100
AcDbLine
 10
8897.482670973586
 20
2998.284839419597
 30
0.0
 11
8578.282670973598
 21
2679.0848394196
 31
0.0
  0
LINE
  5
18014
330
17EC5
100
AcDbEntity
  8
HATCH
100
AcDbLine
 10
8897.482670973586
 20
2950.767263723859
 30
0.0
 11
8625.800246669331
 21
2679.084839419599
 31
0.0
  0
LINE
  5
18015
330
17EC5
100
AcDbEntity
  8
HATCH
100
AcDbLine
 10
8897.482670973586
 20
2903.249688028128
 30
0.0
 11
8673.317822365062
 21
2679.084839419599
 31
0.0
  0
LINE
  5
18016
330
17EC5
100
AcDbEntity
  8
HATCH
100
AcDbLine
 10
8705.482670973591
 20
3285.802415115336
 30
0.0
 11
8171.882670973593
 21
2752.202415115339
 31
0.0
  0
LINE
  5
18017
330
17EC5
100
AcDbEntity
  8
HATCH
100
AcDbLine
 10
8705.482670973591
 20
3238.284839419597
 30
0.0
 11
8171.882670973593
 21
2704.684839419594
 31
0.0
  0
LINE
  5
18018
330
17EC5
100
AcDbEntity
  8
HATCH
100
AcDbLine
 10
8705.482670973591
 20
3190.767263723865
 30
0.0
 11
8193.800246669324
 21
2679.0848394196
 31
0.0
  0
LINE
  5
18019
330
17EC5
100
AcDbEntity
  8
HATCH
100
AcDbLine
 10
8259.247519582121
 20
3319.084839419601
 30
0.0
 11
8171.882670973586
 21
3231.719990811075
 31
0.0
  0
LINE
  5
1801A
330
17EC5
100
AcDbEntity
  8
1PL-M1
100
AcDbLine
 10
8811.88267097359
 20
2396.172125878782
 30
0.0
 11
8811.882670973586
 21
4175.485411556194
 31
0.0
  0
LINE
  5
1801B
330
17EC5
100
AcDbEntity
  8
SUNPOU
100
AcDbLine
 10
8811.882670973586
 20
4130.485411556196
 30
0.0
 11
10237.11317822384
 21
4130.485411556196
 31
0.0
  0
TEXT
  5
1801C
330
17EC5
100
AcDbEntity
  8
SUNPOU
100
AcDbText
 10
9593.424655828339
 20
4175.485411556197
 30
0.0
 40
90.0
  1
1435
 41
0.6666666666666666
  7
00
 72
     4
 11
9711.996084399769
 21
4220.485411556196
 31
0.0
100
AcDbText
  0
TEXT
  5
1801D
330
17EC5
100
AcDbEntity
  8
SUNPOU
100
AcDbText
 10
6656.359478075295
 20
3502.084839419613
 30
0.0
 40
90.0
  1
G.L
 41
0.6700000000000001
  7
01
 72
     4
 11
6728.145192361009
 21
3547.084839419613
 31
0.0
100
AcDbText
  0
LINE
  5
1801E
330
17EC5
100
AcDbEntity
  8
SUNPOU
100
AcDbLine
 10
6780.106716588075
 20
3457.084839419613
 30
0.0
 11
6676.183668133941
 21
3457.084839419613
 31
0.0
  0
LINE
  5
1801F
330
17EC5
100
AcDbEntity
  8
SUNPOU
100
AcDbLine
 10
6676.183668133941
 20
3457.084839419613
 30
0.0
 11
6728.145192361009
 21
3367.084839419614
 31
0.0
  0
LINE
  5
18020
330
17EC5
100
AcDbEntity
  8
SUNPOU
100
AcDbLine
 10
6728.145192361009
 20
3367.084839419614
 30
0.0
 11
6780.106716588075
 21
3457.084839419613
 31
0.0
  0
LINE
  5
18021
330
17EC5
100
AcDbEntity
  8
U3
100
AcDbLine
 10
6940.25961996579
 20
3367.084839419608
 30
0.0
 11
7108.25961996579
 21
3199.084839419612
 31
0.0
  0
LINE
  5
18022
330
17EC5
100
AcDbEntity
  8
U3
100
AcDbLine
 10
6889.347931720357
 20
3316.173151174178
 30
0.0
 11
7006.436243474924
 21
3199.084839419608
 31
0.0
  0
LINE
  5
18023
330
17EC5
100
AcDbEntity
  8
U3
100
AcDbLine
 10
7691.882670973591
 20
3367.084839419608
 30
0.0
 11
7521.013148236701
 21
3367.084839419608
 31
0.0
  0
LINE
  5
18024
330
17EC5
100
AcDbEntity
  8
U3
100
AcDbLine
 10
7205.251603648958
 20
3367.084839419608
 30
0.0
 11
6604.259619965791
 21
3367.084839419608
 31
0.0
  0
LINE
  5
18025
330
17EC5
100
AcDbEntity
  8
U3
100
AcDbLine
 10
6670.436243474924
 20
3300.908215910471
 30
0.0
 11
6736.612866984059
 21
3367.084839419606
 31
0.0
  0
LINE
  5
18026
330
17EC5
100
AcDbEntity
  8
U3
100
AcDbLine
 10
6604.259619965791
 20
3367.084839419606
 30
0.0
 11
6772.25961996579
 21
3199.084839419611
 31
0.0
  0
LINE
  5
18027
330
17EC5
100
AcDbEntity
  8
U3
100
AcDbLine
 10
6721.347931720358
 20
3249.996527665041
 30
0.0
 11
6838.436243474927
 21
3367.084839419606
 31
0.0
  0
LINE
  5
18028
330
17EC5
100
AcDbEntity
  8
U3
100
AcDbLine
 10
6772.25961996579
 20
3199.084839419611
 30
0.0
 11
6940.25961996579
 21
3367.084839419608
 31
0.0
  0
LINE
  5
18029
330
17EC5
100
AcDbEntity
  8
U3
100
AcDbLine
 10
6838.436243474927
 20
3265.261462928744
 30
0.0
 11
6904.612866984063
 21
3199.084839419608
 31
0.0
  0
LINE
  5
1802A
330
17EC5
100
AcDbEntity
  8
U3
100
AcDbLine
 10
7108.25961996579
 20
3199.084839419612
 30
0.0
 11
7205.251603648958
 21
3296.076823102775
 31
0.0
  0
LINE
  5
1802B
330
17EC5
100
AcDbEntity
  8
U3
100
AcDbLine
 10
7006.436243474924
 20
3300.908215910474
 30
0.0
 11
7072.612866984059
 21
3367.084839419608
 31
0.0
  0
LINE
  5
1802C
330
17EC5
100
AcDbEntity
  8
U3
100
AcDbLine
 10
7057.347931720356
 20
3249.996527665043
 30
0.0
 11
7174.436243474928
 21
3367.084839419608
 31
0.0
  0
LINE
  5
1802D
330
17EC5
100
AcDbEntity
  8
HIKIDASHI
100
AcDbLine
 10
9878.379441167076
 20
3910.885411556199
 30
0.0
 11
9509.613064339456
 21
3910.885411556199
 31
0.0
  0
TEXT
  5
1802E
330
17EC5
100
AcDbEntity
  8
HIKIDASHI
100
AcDbText
 10
9542.680671931369
 20
3955.885411556198
 30
0.0
 40
90.0
  1
土　間
  7
01
 72
     2
 11
9836.680671931368
 21
4000.885411556199
 31
0.0
100
AcDbText
 73
     2
  0
TEXT
  5
1802F
330
17EC5
100
AcDbEntity
  8
SUNPOU
100
AcDbText
 10
9630.347005464875
 20
3582.084839419608
 30
0.0
 40
90.0
  1
F.L
 41
0.6666666666666666
  7
00
 72
     4
 11
9698.918434036302
 21
3627.084839419608
 31
0.0
100
AcDbText
  0
LINE
  5
18030
330
17EC5
100
AcDbEntity
  8
SUNPOU
100
AcDbLine
 10
9698.918434036302
 20
3447.084839419608
 30
0.0
 11
9750.879958263368
 21
3537.084839419608
 31
0.0
  0
LINE
  5
18031
330
17EC5
100
AcDbEntity
  8
SUNPOU
100
AcDbLine
 10
9646.956909809237
 20
3537.084839419608
 30
0.0
 11
9698.918434036302
 21
3447.084839419608
 31
0.0
  0
LINE
  5
18032
330
17EC5
100
AcDbEntity
  8
SUNPOU
100
AcDbLine
 10
9750.879958263368
 20
3537.084839419608
 30
0.0
 11
9646.956909809237
 21
3537.084839419608
 31
0.0
  0
TEXT
  5
18033
330
17EC5
100
AcDbEntity
  8
HIKIDASHI
100
AcDbText
 10
7243.186205969859
 20
1814.878869270351
 30
0.0
 40
89.55223880597014
  1
x
 41
0.6700000000000001
  7
00
100
AcDbText
  0
TEXT
  5
18034
330
17EC5
100
AcDbEntity
  8
HIKIDASHI
100
AcDbText
 10
7171.351268779481
 20
1803.088394027939
 30
0.0
 40
67.16417910447761
  1
2
 41
0.6700000000000001
  7
00
100
AcDbText
  0
TEXT
  5
18035
330
17EC5
100
AcDbEntity
  8
HIKIDASHI
100
AcDbText
 10
7083.459232220559
 20
1830.114449058499
 30
0.0
 40
67.16417910447761
  1
1
 41
0.6700000000000001
  7
00
100
AcDbText
  0
TEXT
  5
18036
330
17EC5
100
AcDbEntity
  8
HIKIDASHI
100
AcDbText
 10
7008.858421537337
 20
1803.684839419604
 30
0.0
 40
89.55223880597014
  1
W ／
 41
0.6700000000000001
  7
00
100
AcDbText
  0
TEXT
  5
18037
330
17EC5
100
AcDbEntity
  8
HIKIDASHI
100
AcDbText
 10
7324.321585122991
 20
1803.475853219515
 30
0.0
 40
89.55223880597014
  1
300
 41
0.6700000000000001
  7
00
100
AcDbText
  0
TEXT
  5
18038
330
17EC5
100
AcDbEntity
  8
HIKIDASHI
100
AcDbText
 10
7008.858421537337
 20
1983.684839419604
 30
0.0
 40
90.0
  1
アンカーボルト
  7
01
100
AcDbText
  0
LINE
  5
18039
330
17EC5
100
AcDbEntity
  8
HIKIDASHI
100
AcDbLine
 10
6979.77881267563
 20
1938.684839419604
 30
0.0
 11
7799.784826072481
 21
1938.684839419604
 31
0.0
  0
TEXT
  5
1803A
330
17EC5
100
AcDbEntity
  8
HIKIDASHI
100
AcDbText
 10
8494.068994355799
 20
1664.635820576939
 30
0.0
 40
90.0
  1
B  ~  B'
 41
0.6700000000000001
  7
00
100
AcDbText
  0
LINE
  5
1803B
330
17EC5
100
AcDbEntity
  8
HIKIDASHI
100
AcDbLine
 10
8464.068994355796
 20
1589.635820576939
 30
0.0
 11
9159.696347591369
 21
1589.635820576939
 31
0.0
  0
LINE
  5
1803C
330
17EC5
100
AcDbEntity
  8
HIKIDASHI
100
AcDbLine
 10
8464.068994355796
 20
1619.635820576939
 30
0.0
 11
9159.696347591369
 21
1619.635820576939
 31
0.0
  0
TEXT
  5
1803D
330
17EC5
100
AcDbEntity
  8
HIKIDASHI
100
AcDbText
 10
8888.086273852364
 20
1664.635820576939
 30
0.0
 40
90.0
  1
断 面
  7
01
100
AcDbText
  0
LINE
  5
1803E
330
17EC5
100
AcDbEntity
  8
KISO
100
AcDbLine
 10
4159.797051267466
 20
3447.084839419609
 30
0.0
 11
4159.797051267466
 21
2679.0848394196
 31
0.0
  0
LINE
  5
1803F
330
17EC5
100
AcDbEntity
  8
KISO
100
AcDbLine
 10
7691.882670973591
 20
3191.084839419599
 30
0.0
 11
7691.882670973591
 21
3447.084839419609
 31
0.0
  0
LINE
  5
18040
330
17EC5
100
AcDbEntity
  8
U3
100
AcDbLine
 10
7174.436243474926
 20
3265.261462928747
 30
0.0
 11
7205.251603648958
 21
3234.446102754716
 31
0.0
  0
LINE
  5
18041
330
17EC5
100
AcDbEntity
  8
U3
100
AcDbLine
 10
7521.013148236701
 20
3275.838367690525
 30
0.0
 11
7612.25961996579
 21
3367.08483941961
 31
0.0
  0
LINE
  5
18042
330
17EC5
100
AcDbEntity
  8
U3
100
AcDbLine
 10
7561.347931720357
 20
3316.17315117418
 30
0.0
 11
7678.436243474923
 21
3199.084839419611
 31
0.0
  0
LINE
  5
18043
330
17EC5
100
AcDbEntity
  8
U3
100
AcDbLine
 10
7521.013148236701
 20
3254.68455816697
 30
0.0
 11
7576.612866984063
 21
3199.084839419611
 31
0.0
  0
LINE
  5
18044
330
17EC5
100
AcDbEntity
  8
U3
100
AcDbLine
 10
7612.259619965787
 20
3367.08483941961
 30
0.0
 11
7691.882670973591
 21
3287.46178841181
 31
0.0
  0
LINE
  5
18045
330
17EC5
100
AcDbEntity
  8
HATCH
100
AcDbLine
 10
8073.641131165022
 20
3447.084839419609
 30
0.0
 11
7945.641131165018
 21
3319.084839419603
 31
0.0
  0
LINE
  5
18046
330
17EC5
100
AcDbEntity
  8
HATCH
100
AcDbLine
 10
8168.676282556495
 20
3447.084839419609
 30
0.0
 11
8040.676282556486
 21
3319.084839419601
 31
0.0
  0
LINE
  5
18047
330
17EC5
100
AcDbEntity
  8
HATCH
100
AcDbLine
 10
8121.158706860763
 20
3447.084839419609
 30
0.0
 11
7993.158706860754
 21
3319.084839419603
 31
0.0
  0
LINE
  5
18048
330
17EC5
100
AcDbEntity
  8
HATCH
100
AcDbLine
 10
4638.795147173563
 20
2519.084839419599
 30
0.0
 11
4731.171189840227
 21
2679.0848394196
 31
0.0
  0
LINE
  5
18049
330
17EC5
100
AcDbEntity
  8
HATCH
100
AcDbLine
 10
4677.837856506894
 20
2679.0848394196
 30
0.0
 11
4704.50452317356
 21
2632.896816752936
 31
0.0
  0
LINE
  5
1804A
330
17EC5
100
AcDbEntity
  8
HATCH
100
AcDbLine
 10
4665.461813840229
 20
2565.272860752929
 30
0.0
 11
4692.128480506895
 21
2519.084839419599
 31
0.0
  0
LINE
  5
1804B
330
17EC5
100
AcDbEntity
  8
HATCH
100
AcDbLine
 10
4465.461813840229
 20
2565.272860752929
 30
0.0
 11
4492.128480506895
 21
2519.084839419599
 31
0.0
  0
LINE
  5
1804C
330
17EC5
100
AcDbEntity
  8
HATCH
100
AcDbLine
 10
4477.837856506893
 20
2679.0848394196
 30
0.0
 11
4504.504523173561
 21
2632.896816752936
 31
0.0
  0
LINE
  5
1804D
330
17EC5
100
AcDbEntity
  8
HATCH
100
AcDbLine
 10
4265.461813840229
 20
2565.272860752929
 30
0.0
 11
4292.128480506895
 21
2519.084839419599
 31
0.0
  0
LINE
  5
1804E
330
17EC5
100
AcDbEntity
  8
HATCH
100
AcDbLine
 10
4238.79514717356
 20
2519.084839419599
 30
0.0
 11
4331.171189840227
 21
2679.0848394196
 31
0.0
  0
LINE
  5
1804F
330
17EC5
100
AcDbEntity
  8
HATCH
100
AcDbLine
 10
4277.837856506894
 20
2679.0848394196
 30
0.0
 11
4304.504523173561
 21
2632.896816752936
 31
0.0
  0
LINE
  5
18050
330
17EC5
100
AcDbEntity
  8
HATCH
100
AcDbLine
 10
4065.461813840228
 20
2565.272860752929
 30
0.0
 11
4092.128480506896
 21
2519.084839419599
 31
0.0
  0
LINE
  5
18051
330
17EC5
100
AcDbEntity
  8
HATCH
100
AcDbLine
 10
4077.837856506892
 20
2679.0848394196
 30
0.0
 11
4104.504523173561
 21
2632.896816752936
 31
0.0
  0
LINE
  5
18052
330
17EC5
100
AcDbEntity
  8
HATCH
100
AcDbLine
 10
4038.795147173561
 20
2519.084839419599
 30
0.0
 11
4131.171189840227
 21
2679.0848394196
 31
0.0
  0
LINE
  5
18053
330
17EC5
100
AcDbEntity
  8
HATCH
100
AcDbLine
 10
4438.795147173561
 20
2519.084839419599
 30
0.0
 11
4531.171189840227
 21
2679.0848394196
 31
0.0
  0
LINE
  5
18054
330
17EC5
100
AcDbEntity
  8
HATCH
100
AcDbLine
 10
4877.837856506894
 20
2679.0848394196
 30
0.0
 11
4904.50452317356
 21
2632.896816752936
 31
0.0
  0
LINE
  5
18055
330
17EC5
100
AcDbEntity
  8
HATCH
100
AcDbLine
 10
4838.795147173563
 20
2519.084839419599
 30
0.0
 11
4931.171189840227
 21
2679.0848394196
 31
0.0
  0
LINE
  5
18056
330
17EC5
100
AcDbEntity
  8
HATCH
100
AcDbLine
 10
4865.461813840229
 20
2565.272860752929
 30
0.0
 11
4892.128480506896
 21
2519.084839419599
 31
0.0
  0
LINE
  5
18057
330
17EC5
100
AcDbEntity
  8
HATCH
100
AcDbLine
 10
5038.795147173562
 20
2519.084839419599
 30
0.0
 11
5131.171189840227
 21
2679.0848394196
 31
0.0
  0
LINE
  5
18058
330
17EC5
100
AcDbEntity
  8
HATCH
100
AcDbLine
 10
5077.837856506894
 20
2679.0848394196
 30
0.0
 11
5104.504523173561
 21
2632.896816752936
 31
0.0
  0
LINE
  5
18059
330
17EC5
100
AcDbEntity
  8
HATCH
100
AcDbLine
 10
5065.461813840229
 20
2565.272860752929
 30
0.0
 11
5092.128480506897
 21
2519.084839419599
 31
0.0
  0
LINE
  5
1805A
330
17EC5
100
AcDbEntity
  8
HATCH
100
AcDbLine
 10
5238.795147173562
 20
2519.084839419601
 30
0.0
 11
5331.171189840227
 21
2679.0848394196
 31
0.0
  0
LINE
  5
1805B
330
17EC5
100
AcDbEntity
  8
HATCH
100
AcDbLine
 10
5277.837856506894
 20
2679.0848394196
 30
0.0
 11
5304.504523173561
 21
2632.896816752936
 31
0.0
  0
LINE
  5
1805C
330
17EC5
100
AcDbEntity
  8
HATCH
100
AcDbLine
 10
5265.461813840229
 20
2565.272860752929
 30
0.0
 11
5292.128480506896
 21
2519.084839419601
 31
0.0
  0
LINE
  5
1805D
330
17EC5
100
AcDbEntity
  8
HATCH
100
AcDbLine
 10
5238.795147173563
 20
2519.084839419599
 30
0.0
 11
5331.171189840228
 21
2679.0848394196
 31
0.0
  0
LINE
  5
1805E
330
17EC5
100
AcDbEntity
  8
HATCH
100
AcDbLine
 10
5277.837856506895
 20
2679.0848394196
 30
0.0
 11
5304.504523173562
 21
2632.896816752936
 31
0.0
  0
LINE
  5
1805F
330
17EC5
100
AcDbEntity
  8
HATCH
100
AcDbLine
 10
5265.46181384023
 20
2565.272860752929
 30
0.0
 11
5292.128480506897
 21
2519.084839419599
 31
0.0
  0
LINE
  5
18060
330
17EC5
100
AcDbEntity
  8
HATCH
100
AcDbLine
 10
5438.795147173563
 20
2519.084839419601
 30
0.0
 11
5531.171189840228
 21
2679.0848394196
 31
0.0
  0
LINE
  5
18061
330
17EC5
100
AcDbEntity
  8
HATCH
100
AcDbLine
 10
5477.837856506895
 20
2679.0848394196
 30
0.0
 11
5504.504523173562
 21
2632.896816752936
 31
0.0
  0
LINE
  5
18062
330
17EC5
100
AcDbEntity
  8
HATCH
100
AcDbLine
 10
5465.461813840231
 20
2565.272860752929
 30
0.0
 11
5492.128480506897
 21
2519.084839419601
 31
0.0
  0
LINE
  5
18063
330
17EC5
100
AcDbEntity
  8
HATCH
100
AcDbLine
 10
8650.880766879687
 20
2519.084839419601
 30
0.0
 11
8743.256809546357
 21
2679.0848394196
 31
0.0
  0
LINE
  5
18064
330
17EC5
100
AcDbEntity
  8
HATCH
100
AcDbLine
 10
8689.923476213023
 20
2679.0848394196
 30
0.0
 11
8716.590142879686
 21
2632.896816752937
 31
0.0
  0
LINE
  5
18065
330
17EC5
100
AcDbEntity
  8
HATCH
100
AcDbLine
 10
8677.547433546356
 20
2565.27286075293
 30
0.0
 11
8704.214100213023
 21
2519.084839419601
 31
0.0
  0
LINE
  5
18066
330
17EC5
100
AcDbEntity
  8
HATCH
100
AcDbLine
 10
8477.547433546355
 20
2565.27286075293
 30
0.0
 11
8504.214100213024
 21
2519.084839419601
 31
0.0
  0
LINE
  5
18067
330
17EC5
100
AcDbEntity
  8
HATCH
100
AcDbLine
 10
8489.923476213022
 20
2679.0848394196
 30
0.0
 11
8516.590142879683
 21
2632.896816752937
 31
0.0
  0
LINE
  5
18068
330
17EC5
100
AcDbEntity
  8
HATCH
100
AcDbLine
 10
8277.547433546356
 20
2565.27286075293
 30
0.0
 11
8304.214100213023
 21
2519.084839419601
 31
0.0
  0
LINE
  5
18069
330
17EC5
100
AcDbEntity
  8
HATCH
100
AcDbLine
 10
8250.880766879687
 20
2519.084839419601
 30
0.0
 11
8343.256809546357
 21
2679.0848394196
 31
0.0
  0
LINE
  5
1806A
330
17EC5
100
AcDbEntity
  8
HATCH
100
AcDbLine
 10
8289.923476213022
 20
2679.0848394196
 30
0.0
 11
8316.590142879686
 21
2632.896816752937
 31
0.0
  0
LINE
  5
1806B
330
17EC5
100
AcDbEntity
  8
HATCH
100
AcDbLine
 10
8077.547433546355
 20
2565.27286075293
 30
0.0
 11
8104.214100213024
 21
2519.084839419601
 31
0.0
  0
LINE
  5
1806C
330
17EC5
100
AcDbEntity
  8
HATCH
100
AcDbLine
 10
8089.923476213019
 20
2679.0848394196
 30
0.0
 11
8116.590142879688
 21
2632.896816752937
 31
0.0
  0
LINE
  5
1806D
330
17EC5
100
AcDbEntity
  8
HATCH
100
AcDbLine
 10
8050.880766879688
 20
2519.084839419601
 30
0.0
 11
8143.256809546356
 21
2679.0848394196
 31
0.0
  0
LINE
  5
1806E
330
17EC5
100
AcDbEntity
  8
HATCH
100
AcDbLine
 10
8450.880766879688
 20
2519.084839419601
 30
0.0
 11
8543.256809546356
 21
2679.0848394196
 31
0.0
  0
LINE
  5
1806F
330
17EC5
100
AcDbEntity
  8
HATCH
100
AcDbLine
 10
8889.923476213022
 20
2679.0848394196
 30
0.0
 11
8916.590142879686
 21
2632.896816752937
 31
0.0
  0
LINE
  5
18070
330
17EC5
100
AcDbEntity
  8
HATCH
100
AcDbLine
 10
8850.880766879688
 20
2519.084839419601
 30
0.0
 11
8943.256809546356
 21
2679.0848394196
 31
0.0
  0
LINE
  5
18071
330
17EC5
100
AcDbEntity
  8
HATCH
100
AcDbLine
 10
8877.547433546356
 20
2565.27286075293
 30
0.0
 11
8904.214100213023
 21
2519.084839419601
 31
0.0
  0
LINE
  5
18072
330
17EC5
100
AcDbEntity
  8
HATCH
100
AcDbLine
 10
9050.880766879688
 20
2519.084839419601
 30
0.0
 11
9143.256809546354
 21
2679.0848394196
 31
0.0
  0
LINE
  5
18073
330
17EC5
100
AcDbEntity
  8
HATCH
100
AcDbLine
 10
9089.923476213021
 20
2679.0848394196
 30
0.0
 11
9116.590142879685
 21
2632.896816752937
 31
0.0
  0
LINE
  5
18074
330
17EC5
100
AcDbEntity
  8
HATCH
100
AcDbLine
 10
9077.547433546357
 20
2565.27286075293
 30
0.0
 11
9104.214100213024
 21
2519.084839419601
 31
0.0
  0
LINE
  5
18075
330
17EC5
100
AcDbEntity
  8
HATCH
100
AcDbLine
 10
9250.880766879687
 20
2519.084839419601
 30
0.0
 11
9343.256809546353
 21
2679.084839419601
 31
0.0
  0
LINE
  5
18076
330
17EC5
100
AcDbEntity
  8
HATCH
100
AcDbLine
 10
9289.92347621302
 20
2679.084839419601
 30
0.0
 11
9316.590142879686
 21
2632.896816752937
 31
0.0
  0
LINE
  5
18077
330
17EC5
100
AcDbEntity
  8
HATCH
100
AcDbLine
 10
9277.547433546358
 20
2565.27286075293
 30
0.0
 11
9304.214100213023
 21
2519.084839419601
 31
0.0
  0
LINE
  5
18078
330
17EC5
100
AcDbEntity
  8
HATCH
100
AcDbLine
 10
9250.88076687969
 20
2519.084839419601
 30
0.0
 11
9343.256809546353
 21
2679.0848394196
 31
0.0
  0
LINE
  5
18079
330
17EC5
100
AcDbEntity
  8
HATCH
100
AcDbLine
 10
9289.92347621302
 20
2679.0848394196
 30
0.0
 11
9316.590142879688
 21
2632.896816752937
 31
0.0
  0
LINE
  5
1807A
330
17EC5
100
AcDbEntity
  8
HATCH
100
AcDbLine
 10
9277.547433546358
 20
2565.27286075293
 30
0.0
 11
9304.214100213023
 21
2519.084839419601
 31
0.0
  0
LINE
  5
1807B
330
17EC5
100
AcDbEntity
  8
HATCH
100
AcDbLine
 10
9450.88076687969
 20
2519.084839419601
 30
0.0
 11
9543.256809546354
 21
2679.084839419601
 31
0.0
  0
LINE
  5
1807C
330
17EC5
100
AcDbEntity
  8
HATCH
100
AcDbLine
 10
9489.92347621302
 20
2679.084839419601
 30
0.0
 11
9516.590142879691
 21
2632.896816752937
 31
0.0
  0
LINE
  5
1807D
330
17EC5
100
AcDbEntity
  8
HATCH
100
AcDbLine
 10
9477.547433546357
 20
2565.27286075293
 30
0.0
 11
9504.214100213024
 21
2519.084839419601
 31
0.0
  0
TEXT
  5
1807E
330
17EC5
100
AcDbEntity
  8
HIKIDASHI
100
AcDbText
 10
12296.64239875644
 20
2305.804976716085
 30
0.0
 40
120.0
  1
2
 41
0.6666666666666666
  7
00
100
AcDbText
  0
TEXT
  5
1807F
330
17EC5
100
AcDbEntity
  8
HIKIDASHI
100
AcDbText
 10
12401.40430351834
 20
2325.804976716085
 30
0.0
 40
120.0
  1
ｹ
  7
01
100
AcDbText
  0
TEXT
  5
18080
330
17EC5
100
AcDbEntity
  8
HIKIDASHI
100
AcDbText
 10
12509.40430351834
 20
2305.804976716085
 30
0.0
 40
120.0
  1
-
 41
0.6666666666666666
  7
00
100
AcDbText
  0
TEXT
  5
18081
330
17EC5
100
AcDbEntity
  8
HIKIDASHI
100
AcDbText
 10
12653.21382732787
 20
2305.804976716085
 30
0.0
 40
120.0
  1
18
 41
0.6666666666666666
  7
00
100
AcDbText
  0
TEXT
  5
18082
330
17EC5
100
AcDbEntity
  8
HIKIDASHI
100
AcDbText
 10
12834.16620828024
 20
2325.804976716085
 30
0.0
 40
120.0
  1
%%c
 41
0.6666666666666666
  7
00
100
AcDbText
  0
TEXT
  5
18083
330
17EC5
100
AcDbEntity
  8
HIKIDASHI
100
AcDbText
 10
12935.11858923263
 20
2305.804976716085
 30
0.0
 40
120.0
  1
孔
  7
01
100
AcDbText
  0
LINE
  5
18084
330
17EC5
100
AcDbEntity
  8
HIKIDASHI
100
AcDbLine
 10
12256.64239875644
 20
2245.804976716085
 30
0.0
 11
13087.11858923263
 21
2245.804976716085
 31
0.0
  0
LINE
  5
18085
330
17EC5
100
AcDbEntity
  8
HIKIDASHI
100
AcDbLine
 10
5702.626424666978
 20
3910.885411556197
 30
0.0
 11
5333.860047839357
 21
3910.885411556197
 31
0.0
  0
TEXT
  5
18086
330
17EC5
100
AcDbEntity
  8
HIKIDASHI
100
AcDbText
 10
5366.927655431269
 20
3955.885411556196
 30
0.0
 40
90.0
  1
土　間
  7
01
 72
     2
 11
5660.927655431269
 21
4000.885411556196
 31
0.0
100
AcDbText
 73
     2
  0
TEXT
  5
18087
330
17EC5
100
AcDbEntity
  8
HIKIDASHI
100
AcDbText
 10
5494.130474104128
 20
6560.372337188868
 30
0.0
 40
90.0
  1
（土間コン前面位置）
  7
01
100
AcDbText
  0
TEXT
  5
18088
330
17EC5
100
AcDbEntity
  8
HIKIDASHI
100
AcDbText
 10
5656.130474104131
 20
6766.804304422805
 30
0.0
 40
90.0
  1
（鼻隠し外面）
  7
01
100
AcDbText
  0
TEXT
  5
18089
330
17EC5
100
AcDbEntity
  8
SUNPOU
100
AcDbText
 10
5892.607474842033
 20
2681.884705856376
 30
0.0
 40
90.0
  1
ベース筋
  7
01
 72
     4
 11
6096.607474842032
 21
2726.884705856376
 31
0.0
100
AcDbText
  0
TEXT
  5
1808A
330
17EC5
100
AcDbEntity
  8
SUNPOU
100
AcDbText
 10
5757.491760556316
 20
2546.884705856376
 30
0.0
 40
90.0
  1
5-D13×5-D13
 41
0.6700000000000001
  7
01
 72
     4
 11
6100.914617699173
 21
2591.884705856376
 31
0.0
100
AcDbText
  0
TEXT
  5
1808B
330
17EC5
100
AcDbEntity
  8
SUNPOU
100
AcDbText
 10
3620.160520285828
 20
4888.567723306028
 30
0.0
 40
46.28539285937498
  1
2
 41
0.6700000000000001
  7
00
100
AcDbText
  0
TEXT
  5
1808C
330
17EC5
100
AcDbEntity
  8
SUNPOU
100
AcDbText
 10
3315.696038254451
 20
4838.379296948566
 30
0.0
 40
89.9993750043402
  1
N/mm
 41
0.6700000000000001
  7
01
100
AcDbText
  0
TEXT
  5
1808D
330
17EC5
100
AcDbEntity
  8
SUNPOU
100
AcDbText
 10
3179.859585468499
 20
4838.379296948566
 30
0.0
 40
89.9993750043402
  1
18
 41
0.6700000000000001
  7
01
100
AcDbText
  0
LINE
  5
1808E
330
17EC5
100
AcDbEntity
  8
SUNPOU
100
AcDbLine
 10
2847.170463189193
 20
4684.093582662859
 30
0.0
 11
2847.170463189193
 21
4767.585946361638
 31
0.0
  0
LINE
  5
1808F
330
17EC5
100
AcDbEntity
  8
SUNPOU
100
AcDbLine
 10
2830.295463189194
 20
4684.093582662859
 30
0.0
 11
2830.295463189194
 21
4767.585946361638
 31
0.0
  0
LINE
  5
18090
330
17EC5
100
AcDbEntity
  8
SUNPOU
100
AcDbLine
 10
2813.420463189194
 20
4684.093582662859
 30
0.0
 11
2813.420463189194
 21
4767.585946361638
 31
0.0
  0
LINE
  5
18091
330
17EC5
100
AcDbEntity
  8
SUNPOU
100
AcDbLine
 10
2802.170463189193
 20
4684.093582662859
 30
0.0
 11
2858.420463189194
 21
4684.093582662859
 31
0.0
  0
LINE
  5
18092
330
17EC5
100
AcDbEntity
  8
SUNPOU
100
AcDbLine
 10
2802.170463189193
 20
4767.585946361638
 30
0.0
 11
2858.420463189194
 21
4767.585946361638
 31
0.0
  0
ARC
  5
18093
330
17EC5
100
AcDbEntity
  8
SUNPOU
100
AcDbCircle
 10
3727.73102696863
 20
4802.166720390395
 30
0.0
 40
225.0
100
AcDbArc
 50
328.3472725285902
 51
31.65272747140977
  0
TEXT
  5
18094
330
17EC5
100
AcDbEntity
  8
SUNPOU
100
AcDbText
 10
1717.78735496475
 20
4888.567723306028
 30
0.0
 40
46.28539285937498
  1
2
 41
0.6700000000000001
  7
00
100
AcDbText
  0
TEXT
  5
18095
330
17EC5
100
AcDbEntity
  8
SUNPOU
100
AcDbText
 10
1450.14719823636
 20
4838.379296948566
 30
0.0
 40
71.99950000347218
  1
K
 41
0.6700000000000001
  7
01
100
AcDbText
  0
TEXT
  5
18096
330
17EC5
100
AcDbEntity
  8
SUNPOU
100
AcDbText
 10
1314.310745450407
 20
4838.379296948566
 30
0.0
 40
89.9993750043402
  1
50  N/m
 41
0.6700000000000001
  7
01
100
AcDbText
  0
ARC
  5
18097
330
17EC5
100
AcDbEntity
  8
SUNPOU
100
AcDbCircle
 10
1163.313175529766
 20
4802.166720390395
 30
0.0
 40
225.0
100
AcDbArc
 50
148.3472725285901
 51
211.6527274714097
  0
TEXT
  5
18098
330
17EC5
100
AcDbEntity
  8
SUNPOU
100
AcDbText
 10
1494.118330287748
 20
4684.093582662859
 30
0.0
 40
89.9993750043402
  1
34 m/s
 41
0.6700000000000001
  7
01
100
AcDbText
  0
TEXT
  5
18099
330
17EC5
100
AcDbEntity
  8
SUNPOU
100
AcDbText
 10
1010.354901622561
 20
4684.093582662859
 30
0.0
 40
89.9993750043402
  1
基準風速   　　 , 地表面粗度区分
  7
01
100
AcDbText
  0
TEXT
  5
1809A
330
17EC5
100
AcDbEntity
  8
SUNPOU
100
AcDbText
 10
1010.354901622561
 20
4838.379296948566
 30
0.0
 40
89.9993750043402
  1
地耐力   　　　 以上,コンクリート設計基準強度   　　　 以上
 41
0.9
  7
01
100
AcDbText
  0
TEXT
  5
1809B
330
17EC5
100
AcDbEntity
  8
FILENAME
100
AcDbText
 10
13873.42857142857
 20
174.0
 30
0.0
 40
100.0
  1
＜YOKRS-240-A_3_JIS_GL.DXF ＞
  7
FILENAME
 72
     2
 11
16382.0
 21
174.0
 31
0.0
100
AcDbText
  0
LINE
  5
1809C
330
17EC5
100
AcDbEntity
  8
WAKUSEN-01
100
AcDbLine
 10
434.0000000000008
 20
413.9999999999997
 30
0.0
 11
16382.0
 21
413.9999999999997
 31
0.0
  0
LINE
  5
1809D
330
17EC5
100
AcDbEntity
  8
WAKUSEN-01
100
AcDbLine
 10
434.0000000000008
 20
11242.0
 30
0.0
 11
16382.0
 21
11242.0
 31
0.0
  0
LINE
  5
1809E
330
17EC5
100
AcDbEntity
  8
WAKUSEN-01
100
AcDbLine
 10
434.0000000000008
 20
413.9999999999997
 30
0.0
 11
434.0000000000008
 21
11242.0
 31
0.0
  0
LINE
  5
1809F
330
17EC5
100
AcDbEntity
  8
WAKUSEN-01
100
AcDbLine
 10
16382.0
 20
413.9999999999997
 30
0.0
 11
16382.0
 21
11242.0
 31
0.0
  0
LINE
  5
180A0
330
17EC5
100
AcDbEntity
  8
WAKUSEN-01
100
AcDbLine
 10
10280.0
 20
1242.0
 30
0.0
 11
16382.0
 21
1242.0
 31
0.0
  0
LINE
  5
180A1
330
17EC5
100
AcDbEntity
  8
WAKUSEN-02
100
AcDbLine
 10
10280.0
 20
827.9999999999997
 30
0.0
 11
13434.0
 21
827.9999999999997
 31
0.0
  0
TEXT
  5
180A2
330
17EC5
100
AcDbEntity
  8
WAKUMOJI-01
100
AcDbText
 10
10335.13012998137
 20
1062.951504669661
 30
0.0
 40
120.0
  1
名　称
  7
WAKUMOJI
100
AcDbText
  0
TEXT
  5
180A3
330
17EC5
100
AcDbEntity
  8
WAKUMOJI-01
100
AcDbText
 10
10328.25274254596
 20
659.5644874899107
 30
0.0
 40
120.0
  1
図面名
  7
WAKUMOJI
100
AcDbText
  0
LINE
  5
180A4
330
17EC5
100
AcDbEntity
  8
WAKUSEN-01
100
AcDbLine
 10
10280.0
 20
413.9999999999985
 30
0.0
 11
10280.0
 21
1242.0
 31
0.0
  0
LINE
  5
180A5
330
17EC5
100
AcDbEntity
  8
WAKUSEN-02
100
AcDbLine
 10
13434.0
 20
413.9999999999963
 30
0.0
 11
13434.0
 21
1242.0
 31
0.0
  0
LINE
  5
180A6
330
17EC5
100
AcDbEntity
  8
YODOROGO
100
AcDbLine
 10
14988.80217064596
 20
997.8747482146435
 30
0.0
 11
14914.80217064596
 21
997.8747482146435
 31
0.0
1001
AUTOCAD_POSTSCRIPT_FIGURE
1002
{
1000
PSFILL
1000
Grayscale
1000
Grayscale
1070
    25
1002
}
  0
LINE
  5
180A7
330
17EC5
100
AcDbEntity
  8
YODOROGO
100
AcDbLine
 10
14914.80217064596
 20
973.8747482146434
 30
0.0
 11
14988.80217064596
 21
973.8747482146434
 31
0.0
1001
AUTOCAD_POSTSCRIPT_FIGURE
1002
{
1000
PSFILL
1000
Grayscale
1000
Grayscale
1070
    25
1002
}
  0
LINE
  5
180A8
330
17EC5
100
AcDbEntity
  8
YODOROGO
100
AcDbLine
 10
14988.80217064596
 20
953.874748214644
 30
0.0
 11
14914.80217064596
 21
953.874748214644
 31
0.0
1001
AUTOCAD_POSTSCRIPT_FIGURE
1002
{
1000
PSFILL
1000
Grayscale
1000
Grayscale
1070
    25
1002
}
  0
LINE
  5
180A9
330
17EC5
100
AcDbEntity
  8
YODOROGO
100
AcDbLine
 10
14914.80217064596
 20
929.874748214644
 30
0.0
 11
14988.80217064596
 21
929.874748214644
 31
0.0
1001
AUTOCAD_POSTSCRIPT_FIGURE
1002
{
1000
PSFILL
1000
Grayscale
1000
Grayscale
1070
    25
1002
}
  0
LINE
  5
180AA
330
17EC5
100
AcDbEntity
  8
YODOROGO
100
AcDbLine
 10
14988.80217064596
 20
909.8747482146439
 30
0.0
 11
14914.80217064596
 21
909.8747482146439
 31
0.0
1001
AUTOCAD_POSTSCRIPT_FIGURE
1002
{
1000
PSFILL
1000
Grayscale
1000
Grayscale
1070
    25
1002
}
  0
LINE
  5
180AB
330
17EC5
100
AcDbEntity
  8
YODOROGO
100
AcDbLine
 10
14960.80217064594
 20
853.874748214644
 30
0.0
 11
14988.80217064596
 21
853.874748214644
 31
0.0
1001
AUTOCAD_POSTSCRIPT_FIGURE
1002
{
1000
PSFILL
1000
Grayscale
1000
Grayscale
1070
    25
1002
}
  0
LINE
  5
180AC
330
17EC5
100
AcDbEntity
  8
YODOROGO
100
AcDbLine
 10
14868.80217064596
 20
713.8747482146436
 30
0.0
 11
14968.80217064596
 21
740.6696674577553
 31
0.0
  0
LINE
  5
180AD
330
17EC5
100
AcDbEntity
  8
YODOROGO
100
AcDbLine
 10
14974.80217064595
 20
853.874748214644
 30
0.0
 11
14942.80217064596
 21
853.874748214644
 31
0.0
  0
ARC
  5
180AE
330
17EC5
100
AcDbEntity
  8
YODOROGO
100
AcDbCircle
 10
15127.17387491394
 20
903.9323046166312
 30
0.0
 40
190.9434321028236
100
AcDbArc
 50
213.9611167766784
 51
264.4787207431779
  0
ARC
  5
180AF
330
17EC5
100
AcDbEntity
  8
YODOROGO
100
AcDbCircle
 10
15127.17387491396
 20
903.9323046166513
 30
0.0
 40
190.9434321028408
100
AcDbArc
 50
208.141144204866
 51
212.9210361185994
  0
LINE
  5
180B0
330
17EC5
100
AcDbEntity
  8
YODOROGO
100
AcDbLine
 10
14885.70493649264
 20
778.403830673117
 30
0.0
 11
14966.89206625426
 21
800.1578565285436
 31
0.0
  0
LINE
  5
180B1
330
17EC5
100
AcDbEntity
  8
YODOROGO
100
AcDbLine
 10
14868.80217064596
 20
713.8747482146436
 30
0.0
 11
14968.80217064596
 21
740.6696674577553
 31
0.0
  0
LINE
  5
180B2
330
17EC5
100
AcDbEntity
  8
YODOROGO
100
AcDbLine
 10
14974.80217064595
 20
853.874748214644
 30
0.0
 11
14942.80217064596
 21
853.874748214644
 31
0.0
  0
ARC
  5
180B3
330
17EC5
100
AcDbEntity
  8
YODOROGO
100
AcDbCircle
 10
15127.17387491394
 20
903.9323046166312
 30
0.0
 40
190.9434321028236
100
AcDbArc
 50
213.9611167766784
 51
264.4787207431779
  0
LINE
  5
180B4
330
17EC5
100
AcDbEntity
  8
YODOROGO
100
AcDbLine
 10
14396.80217064594
 20
909.8747482146439
 30
0.0
 11
14216.80217064594
 21
909.8747482146439
 31
0.0
  0
LINE
  5
180B5
330
17EC5
100
AcDbEntity
  8
YODOROGO
100
AcDbLine
 10
14256.80217064594
 20
713.8747482146436
 30
0.0
 11
14396.80217064594
 21
713.8747482146436
 31
0.0
  0
LINE
  5
180B6
330
17EC5
100
AcDbEntity
  8
YODOROGO
100
AcDbLine
 10
14364.80217064596
 20
961.8747482146432
 30
0.0
 11
14248.80217064594
 21
961.8747482146432
 31
0.0
  0
LINE
  5
180B7
330
17EC5
100
AcDbEntity
  8
YODOROGO
100
AcDbLine
 10
14292.80217064596
 20
1013.874748214644
 30
0.0
 11
14328.80217064596
 21
1013.874748214644
 31
0.0
  0
LINE
  5
180B8
330
17EC5
100
AcDbEntity
  8
YODOROGO
100
AcDbLine
 10
14216.80217064594
 20
853.874748214644
 30
0.0
 11
14216.80217064594
 21
753.8747482146439
 31
0.0
  0
LINE
  5
180B9
330
17EC5
100
AcDbEntity
  8
YODOROGO
100
AcDbLine
 10
14248.80217064594
 20
781.8747482146434
 30
0.0
 11
14248.80217064594
 21
853.874748214644
 31
0.0
  0
LINE
  5
180BA
330
17EC5
100
AcDbEntity
  8
YODOROGO
100
AcDbLine
 10
14292.80217064596
 20
873.8747482146449
 30
0.0
 11
14292.80217064596
 21
773.874748214644
 31
0.0
  0
LINE
  5
180BB
330
17EC5
100
AcDbEntity
  8
YODOROGO
100
AcDbLine
 10
13928.80217064596
 20
841.8747482146445
 30
0.0
 11
13888.80217064596
 21
809.9862070222856
 31
0.0
  0
LINE
  5
180BC
330
17EC5
100
AcDbEntity
  8
YODOROGO
100
AcDbLine
 10
13968.80217064596
 20
809.9862070222856
 30
0.0
 11
13928.80217064596
 21
841.8747482146445
 31
0.0
  0
LINE
  5
180BD
330
17EC5
100
AcDbEntity
  8
YODOROGO
100
AcDbLine
 10
13928.80217064596
 20
853.874748214644
 30
0.0
 11
13968.80217064596
 21
821.986207022285
 31
0.0
  0
LINE
  5
180BE
330
17EC5
100
AcDbEntity
  8
YODOROGO
100
AcDbLine
 10
13888.80217064596
 20
821.986207022285
 30
0.0
 11
13928.80217064596
 21
853.874748214644
 31
0.0
  0
LINE
  5
180BF
330
17EC5
100
AcDbEntity
  8
YODOROGO
100
AcDbLine
 10
14020.45660200844
 20
829.874748214644
 30
0.0
 11
14020.45660200844
 21
841.8747482146434
 31
0.0
  0
LINE
  5
180C0
330
17EC5
100
AcDbEntity
  8
YODOROGO
100
AcDbLine
 10
13988.80217064596
 20
841.8747482146434
 30
0.0
 11
13988.80217064596
 21
833.8747482146427
 31
0.0
  0
LINE
  5
180C1
330
17EC5
100
AcDbEntity
  8
YODOROGO
100
AcDbLine
 10
14049.06776011545
 20
853.874748214644
 30
0.0
 11
14049.06776011545
 21
827.751818637328
 31
0.0
1001
AUTOCAD_POSTSCRIPT_FIGURE
1002
{
1000
PSFILL
1000
Grayscale
1000
Grayscale
1070
   100
1002
}
  0
LINE
  5
180C2
330
17EC5
100
AcDbEntity
  8
YODOROGO
100
AcDbLine
 10
14041.06776011546
 20
827.751818637328
 30
0.0
 11
14041.06776011546
 21
853.874748214644
 31
0.0
1001
AUTOCAD_POSTSCRIPT_FIGURE
1002
{
1000
PSFILL
1000
Grayscale
1000
Grayscale
1070
   100
1002
}
  0
LINE
  5
180C3
330
17EC5
100
AcDbEntity
  8
YODOROGO
100
AcDbLine
 10
13904.80217064596
 20
804.3859520216292
 30
0.0
 11
13904.80217064596
 21
816.3859520216298
 31
0.0
  0
LINE
  5
180C4
330
17EC5
100
AcDbEntity
  8
YODOROGO
100
AcDbLine
 10
13952.80217064596
 20
804.3859520216292
 30
0.0
 11
13904.80217064596
 21
804.3859520216292
 31
0.0
  0
LINE
  5
180C5
330
17EC5
100
AcDbEntity
  8
YODOROGO
100
AcDbLine
 10
13952.80217064596
 20
816.3859520216298
 30
0.0
 11
13952.80217064596
 21
804.3859520216292
 31
0.0
  0
LINE
  5
180C6
330
17EC5
100
AcDbEntity
  8
YODOROGO
100
AcDbLine
 10
13904.80217064596
 20
816.3859520216298
 30
0.0
 11
13952.80217064596
 21
816.3859520216298
 31
0.0
  0
LINE
  5
180C7
330
17EC5
100
AcDbEntity
  8
YODOROGO
100
AcDbLine
 10
13912.25479445787
 20
784.2514286852374
 30
0.0
 11
13892.80217064596
 21
737.8747482146435
 31
0.0
1001
AUTOCAD_POSTSCRIPT_FIGURE
1002
{
1000
PSFILL
1000
Grayscale
1000
Grayscale
1070
   100
1002
}
  0
LINE
  5
180C8
330
17EC5
100
AcDbEntity
  8
YODOROGO
100
AcDbLine
 10
13888.80217064596
 20
784.2514286852374
 30
0.0
 11
13912.25479445787
 21
784.2514286852374
 31
0.0
1001
AUTOCAD_POSTSCRIPT_FIGURE
1002
{
1000
PSFILL
1000
Grayscale
1000
Grayscale
1070
   100
1002
}
  0
LINE
  5
180C9
330
17EC5
100
AcDbEntity
  8
YODOROGO
100
AcDbLine
 10
13888.80217064596
 20
794.2514286852374
 30
0.0
 11
13888.80217064596
 21
784.2514286852374
 31
0.0
1001
AUTOCAD_POSTSCRIPT_FIGURE
1002
{
1000
PSFILL
1000
Grayscale
1000
Grayscale
1070
   100
1002
}
  0
LINE
  5
180CA
330
17EC5
100
AcDbEntity
  8
YODOROGO
100
AcDbLine
 10
13968.80217064596
 20
794.2514286852374
 30
0.0
 11
13888.80217064596
 21
794.2514286852374
 31
0.0
1001
AUTOCAD_POSTSCRIPT_FIGURE
1002
{
1000
PSFILL
1000
Grayscale
1000
Grayscale
1070
   100
1002
}
  0
LINE
  5
180CB
330
17EC5
100
AcDbEntity
  8
YODOROGO
100
AcDbLine
 10
13968.80217064596
 20
784.2514286852374
 30
0.0
 11
13968.80217064596
 21
794.2514286852374
 31
0.0
1001
AUTOCAD_POSTSCRIPT_FIGURE
1002
{
1000
PSFILL
1000
Grayscale
1000
Grayscale
1070
   100
1002
}
  0
LINE
  5
180CC
330
17EC5
100
AcDbEntity
  8
YODOROGO
100
AcDbLine
 10
13922.25479445786
 20
784.2514286852374
 30
0.0
 11
13968.80217064596
 21
784.2514286852374
 31
0.0
1001
AUTOCAD_POSTSCRIPT_FIGURE
1002
{
1000
PSFILL
1000
Grayscale
1000
Grayscale
1070
   100
1002
}
  0
LINE
  5
180CD
330
17EC5
100
AcDbEntity
  8
YODOROGO
100
AcDbLine
 10
13907.77335914238
 20
747.8747482146435
 30
0.0
 11
13922.25479445786
 21
784.2514286852374
 31
0.0
1001
AUTOCAD_POSTSCRIPT_FIGURE
1002
{
1000
PSFILL
1000
Grayscale
1000
Grayscale
1070
   100
1002
}
  0
LINE
  5
180CE
330
17EC5
100
AcDbEntity
  8
YODOROGO
100
AcDbLine
 10
13951.02739540432
 20
747.8747482146435
 30
0.0
 11
13907.77335914238
 21
747.8747482146435
 31
0.0
1001
AUTOCAD_POSTSCRIPT_FIGURE
1002
{
1000
PSFILL
1000
Grayscale
1000
Grayscale
1070
   100
1002
}
  0
LINE
  5
180CF
330
17EC5
100
AcDbEntity
  8
YODOROGO
100
AcDbLine
 10
13942.53250239547
 20
768.1169053488464
 30
0.0
 11
13951.02739540432
 21
747.8747482146435
 31
0.0
1001
AUTOCAD_POSTSCRIPT_FIGURE
1002
{
1000
PSFILL
1000
Grayscale
1000
Grayscale
1070
   100
1002
}
  0
LINE
  5
180D0
330
17EC5
100
AcDbEntity
  8
YODOROGO
100
AcDbLine
 10
13950.53250239547
 20
768.1169053488464
 30
0.0
 11
13942.53250239547
 21
768.1169053488464
 31
0.0
1001
AUTOCAD_POSTSCRIPT_FIGURE
1002
{
1000
PSFILL
1000
Grayscale
1000
Grayscale
1070
   100
1002
}
  0
LINE
  5
180D1
330
17EC5
100
AcDbEntity
  8
YODOROGO
100
AcDbLine
 10
13964.80217064596
 20
737.8747482146435
 30
0.0
 11
13950.53250239547
 21
768.1169053488464
 31
0.0
1001
AUTOCAD_POSTSCRIPT_FIGURE
1002
{
1000
PSFILL
1000
Grayscale
1000
Grayscale
1070
   100
1002
}
  0
LINE
  5
180D2
330
17EC5
100
AcDbEntity
  8
YODOROGO
100
AcDbLine
 10
13892.80217064596
 20
737.8747482146435
 30
0.0
 11
13964.80217064596
 21
737.8747482146435
 31
0.0
1001
AUTOCAD_POSTSCRIPT_FIGURE
1002
{
1000
PSFILL
1000
Grayscale
1000
Grayscale
1070
   100
1002
}
  0
LINE
  5
180D3
330
17EC5
100
AcDbEntity
  8
YODOROGO
100
AcDbLine
 10
13888.80217064596
 20
809.9862070222856
 30
0.0
 11
13888.80217064596
 21
821.986207022285
 31
0.0
  0
LINE
  5
180D4
330
17EC5
100
AcDbEntity
  8
YODOROGO
100
AcDbLine
 10
13968.80217064596
 20
821.986207022285
 30
0.0
 11
13968.80217064596
 21
809.9862070222856
 31
0.0
  0
ARC
  5
180D5
330
17EC5
100
AcDbEntity
  8
YODOROGO
100
AcDbCircle
 10
14112.97022107348
 20
800.438882662663
 30
0.0
 40
87.99999999999995
100
AcDbArc
 50
280.3644312771313
 51
3.541483659218056
  0
ARC
  5
180D6
330
17EC5
100
AcDbEntity
  8
YODOROGO
100
AcDbCircle
 10
14117.87801537965
 20
816.798903480952
 30
0.0
 40
55.99999999999914
100
AcDbArc
 50
281.2490582504155
 51
348.7509417495832
  0
LINE
  5
180D7
330
17EC5
100
AcDbEntity
  8
YODOROGO
100
AcDbLine
 10
14128.80217064596
 20
761.8747482146434
 30
0.0
 11
14128.80217064596
 21
713.8747482146436
 31
0.0
  0
LINE
  5
180D8
330
17EC5
100
AcDbEntity
  8
YODOROGO
100
AcDbLine
 10
14010.04445186845
 20
805.3252825309574
 30
0.0
 11
14020.45660200844
 21
829.874748214644
 31
0.0
  0
LINE
  5
180D9
330
17EC5
100
AcDbEntity
  8
YODOROGO
100
AcDbLine
 10
14020.80217064596
 20
791.5602449742006
 30
0.0
 11
14010.04445186845
 21
805.3252825309574
 31
0.0
  0
LINE
  5
180DA
330
17EC5
100
AcDbEntity
  8
YODOROGO
100
AcDbLine
 10
14020.80217064596
 20
781.5602449741994
 30
0.0
 11
14020.80217064596
 21
791.5602449742006
 31
0.0
  0
LINE
  5
180DB
330
17EC5
100
AcDbEntity
  8
YODOROGO
100
AcDbLine
 10
14008.80217064596
 20
792.6185318747651
 30
0.0
 11
14020.80217064596
 21
781.5602449741994
 31
0.0
  0
LINE
  5
180DC
330
17EC5
100
AcDbEntity
  8
YODOROGO
100
AcDbLine
 10
14008.80217064596
 20
737.8747482146435
 30
0.0
 11
14008.80217064596
 21
792.6185318747651
 31
0.0
  0
LINE
  5
180DD
330
17EC5
100
AcDbEntity
  8
YODOROGO
100
AcDbLine
 10
14000.80217064596
 20
737.8747482146435
 30
0.0
 11
14008.80217064596
 21
737.8747482146435
 31
0.0
  0
LINE
  5
180DE
330
17EC5
100
AcDbEntity
  8
YODOROGO
100
AcDbLine
 10
14000.80217064596
 20
790.0026748448738
 30
0.0
 11
14000.80217064596
 21
737.8747482146435
 31
0.0
  0
LINE
  5
180DF
330
17EC5
100
AcDbEntity
  8
YODOROGO
100
AcDbLine
 10
13988.80217064596
 20
766.3840395167142
 30
0.0
 11
14000.80217064596
 21
790.0026748448738
 31
0.0
  0
LINE
  5
180E0
330
17EC5
100
AcDbEntity
  8
YODOROGO
100
AcDbLine
 10
13988.80217064596
 20
778.3840395167149
 30
0.0
 11
13988.80217064596
 21
766.3840395167142
 31
0.0
  0
LINE
  5
180E1
330
17EC5
100
AcDbEntity
  8
YODOROGO
100
AcDbLine
 10
14012.91438714567
 20
833.8747482146427
 30
0.0
 11
13988.80217064596
 21
778.3840395167149
 31
0.0
  0
LINE
  5
180E2
330
17EC5
100
AcDbEntity
  8
YODOROGO
100
AcDbLine
 10
13988.80217064596
 20
833.8747482146427
 30
0.0
 11
14012.91438714567
 21
833.8747482146427
 31
0.0
  0
LINE
  5
180E3
330
17EC5
100
AcDbEntity
  8
YODOROGO
100
AcDbLine
 10
14025.06776011545
 20
827.751818637328
 30
0.0
 11
14041.06776011546
 21
827.751818637328
 31
0.0
1001
AUTOCAD_POSTSCRIPT_FIGURE
1002
{
1000
PSFILL
1000
Grayscale
1000
Grayscale
1070
   100
1002
}
  0
LINE
  5
180E4
330
17EC5
100
AcDbEntity
  8
YODOROGO
100
AcDbLine
 10
14025.06776011545
 20
815.7518186373286
 30
0.0
 11
14025.06776011545
 21
827.751818637328
 31
0.0
1001
AUTOCAD_POSTSCRIPT_FIGURE
1002
{
1000
PSFILL
1000
Grayscale
1000
Grayscale
1070
   100
1002
}
  0
LINE
  5
180E5
330
17EC5
100
AcDbEntity
  8
YODOROGO
100
AcDbLine
 10
14041.06776011546
 20
815.7518186373286
 30
0.0
 11
14025.06776011545
 21
815.7518186373286
 31
0.0
1001
AUTOCAD_POSTSCRIPT_FIGURE
1002
{
1000
PSFILL
1000
Grayscale
1000
Grayscale
1070
   100
1002
}
  0
LINE
  5
180E6
330
17EC5
100
AcDbEntity
  8
YODOROGO
100
AcDbLine
 10
14041.06776011546
 20
749.8747482146441
 30
0.0
 11
14041.06776011546
 21
815.7518186373286
 31
0.0
1001
AUTOCAD_POSTSCRIPT_FIGURE
1002
{
1000
PSFILL
1000
Grayscale
1000
Grayscale
1070
   100
1002
}
  0
LINE
  5
180E7
330
17EC5
100
AcDbEntity
  8
YODOROGO
100
AcDbLine
 10
14025.06776011545
 20
749.8747482146441
 30
0.0
 11
14041.06776011546
 21
749.8747482146441
 31
0.0
1001
AUTOCAD_POSTSCRIPT_FIGURE
1002
{
1000
PSFILL
1000
Grayscale
1000
Grayscale
1070
   100
1002
}
  0
LINE
  5
180E8
330
17EC5
100
AcDbEntity
  8
YODOROGO
100
AcDbLine
 10
14025.06776011545
 20
737.8747482146435
 30
0.0
 11
14025.06776011545
 21
749.8747482146441
 31
0.0
1001
AUTOCAD_POSTSCRIPT_FIGURE
1002
{
1000
PSFILL
1000
Grayscale
1000
Grayscale
1070
   100
1002
}
  0
LINE
  5
180E9
330
17EC5
100
AcDbEntity
  8
YODOROGO
100
AcDbLine
 10
14068.80217064596
 20
737.8747482146435
 30
0.0
 11
14025.06776011545
 21
737.8747482146435
 31
0.0
1001
AUTOCAD_POSTSCRIPT_FIGURE
1002
{
1000
PSFILL
1000
Grayscale
1000
Grayscale
1070
   100
1002
}
  0
LINE
  5
180EA
330
17EC5
100
AcDbEntity
  8
YODOROGO
100
AcDbLine
 10
14068.80217064596
 20
749.8747482146441
 30
0.0
 11
14068.80217064596
 21
737.8747482146435
 31
0.0
1001
AUTOCAD_POSTSCRIPT_FIGURE
1002
{
1000
PSFILL
1000
Grayscale
1000
Grayscale
1070
   100
1002
}
  0
LINE
  5
180EB
330
17EC5
100
AcDbEntity
  8
YODOROGO
100
AcDbLine
 10
14049.06776011545
 20
749.8747482146441
 30
0.0
 11
14068.80217064596
 21
749.8747482146441
 31
0.0
1001
AUTOCAD_POSTSCRIPT_FIGURE
1002
{
1000
PSFILL
1000
Grayscale
1000
Grayscale
1070
   100
1002
}
  0
LINE
  5
180EC
330
17EC5
100
AcDbEntity
  8
YODOROGO
100
AcDbLine
 10
14049.06776011545
 20
815.7518186373286
 30
0.0
 11
14049.06776011545
 21
749.8747482146441
 31
0.0
1001
AUTOCAD_POSTSCRIPT_FIGURE
1002
{
1000
PSFILL
1000
Grayscale
1000
Grayscale
1070
   100
1002
}
  0
LINE
  5
180ED
330
17EC5
100
AcDbEntity
  8
YODOROGO
100
AcDbLine
 10
14068.80217064596
 20
815.7518186373286
 30
0.0
 11
14049.06776011545
 21
815.7518186373286
 31
0.0
1001
AUTOCAD_POSTSCRIPT_FIGURE
1002
{
1000
PSFILL
1000
Grayscale
1000
Grayscale
1070
   100
1002
}
  0
LINE
  5
180EE
330
17EC5
100
AcDbEntity
  8
YODOROGO
100
AcDbLine
 10
14068.80217064596
 20
827.751818637328
 30
0.0
 11
14068.80217064596
 21
815.7518186373286
 31
0.0
1001
AUTOCAD_POSTSCRIPT_FIGURE
1002
{
1000
PSFILL
1000
Grayscale
1000
Grayscale
1070
   100
1002
}
  0
LINE
  5
180EF
330
17EC5
100
AcDbEntity
  8
YODOROGO
100
AcDbLine
 10
14049.06776011545
 20
827.751818637328
 30
0.0
 11
14068.80217064596
 21
827.751818637328
 31
0.0
1001
AUTOCAD_POSTSCRIPT_FIGURE
1002
{
1000
PSFILL
1000
Grayscale
1000
Grayscale
1070
   100
1002
}
  0
LINE
  5
180F0
330
17EC5
100
AcDbEntity
  8
YODOROGO
100
AcDbLine
 10
14200.80217064594
 20
833.8747482146439
 30
0.0
 11
14172.80217064596
 21
833.8747482146439
 31
0.0
  0
LINE
  5
180F1
330
17EC5
100
AcDbEntity
  8
YODOROGO
100
AcDbLine
 10
14200.80217064594
 20
805.8747482146443
 30
0.0
 11
14200.80217064594
 21
833.8747482146439
 31
0.0
  0
LINE
  5
180F2
330
17EC5
100
AcDbEntity
  8
YODOROGO
100
AcDbLine
 10
14172.80217064596
 20
833.8747482146439
 30
0.0
 11
14172.80217064596
 21
805.8747482146443
 31
0.0
  0
ARC
  5
180F3
330
17EC5
100
AcDbEntity
  8
YODOROGO
100
AcDbCircle
 10
14256.80217064594
 20
753.8747482146439
 30
0.0
 40
40.0
100
AcDbArc
 50
180.0
 51
270.0
  0
ARC
  5
180F4
330
17EC5
100
AcDbEntity
  8
YODOROGO
100
AcDbCircle
 10
14268.80217064594
 20
781.8747482146434
 30
0.0
 40
20.0
100
AcDbArc
 50
180.0
 51
270.0
  0
LINE
  5
180F5
330
17EC5
100
AcDbEntity
  8
YODOROGO
100
AcDbLine
 10
14280.80217064596
 20
761.8747482146434
 30
0.0
 11
14268.80217064594
 21
761.8747482146434
 31
0.0
  0
ARC
  5
180F6
330
17EC5
100
AcDbEntity
  8
YODOROGO
100
AcDbCircle
 10
14280.80217064596
 20
773.8747482146427
 30
0.0
 40
11.99999999999818
100
AcDbArc
 50
270.0
 51
0.0000000000054281
  0
LINE
  5
180F7
330
17EC5
100
AcDbEntity
  8
YODOROGO
100
AcDbLine
 10
13900.80217064596
 20
945.3932903968532
 30
0.0
 11
13888.80217064596
 21
921.8883739758362
 31
0.0
1001
AUTOCAD_POSTSCRIPT_FIGURE
1002
{
1000
PSFILL
1000
Grayscale
1000
Grayscale
1070
   100
1002
}
  0
LINE
  5
180F8
330
17EC5
100
AcDbEntity
  8
YODOROGO
100
AcDbLine
 10
13900.80217064596
 20
873.8747482146434
 30
0.0
 11
13900.80217064596
 21
945.3932903968532
 31
0.0
1001
AUTOCAD_POSTSCRIPT_FIGURE
1002
{
1000
PSFILL
1000
Grayscale
1000
Grayscale
1070
   100
1002
}
  0
LINE
  5
180F9
330
17EC5
100
AcDbEntity
  8
YODOROGO
100
AcDbLine
 10
13908.80217064596
 20
873.8747482146434
 30
0.0
 11
13900.80217064596
 21
873.8747482146434
 31
0.0
1001
AUTOCAD_POSTSCRIPT_FIGURE
1002
{
1000
PSFILL
1000
Grayscale
1000
Grayscale
1070
   100
1002
}
  0
LINE
  5
180FA
330
17EC5
100
AcDbEntity
  8
YODOROGO
100
AcDbLine
 10
13908.80217064596
 20
946.8856660426332
 30
0.0
 11
13908.80217064596
 21
873.8747482146434
 31
0.0
1001
AUTOCAD_POSTSCRIPT_FIGURE
1002
{
1000
PSFILL
1000
Grayscale
1000
Grayscale
1070
   100
1002
}
  0
LINE
  5
180FB
330
17EC5
100
AcDbEntity
  8
YODOROGO
100
AcDbLine
 10
13920.80217064596
 20
933.8273791420684
 30
0.0
 11
13908.80217064596
 21
946.8856660426332
 31
0.0
1001
AUTOCAD_POSTSCRIPT_FIGURE
1002
{
1000
PSFILL
1000
Grayscale
1000
Grayscale
1070
   100
1002
}
  0
LINE
  5
180FC
330
17EC5
100
AcDbEntity
  8
YODOROGO
100
AcDbLine
 10
13920.80217064596
 20
941.8273791420681
 30
0.0
 11
13920.80217064596
 21
933.8273791420684
 31
0.0
1001
AUTOCAD_POSTSCRIPT_FIGURE
1002
{
1000
PSFILL
1000
Grayscale
1000
Grayscale
1070
   100
1002
}
  0
LINE
  5
180FD
330
17EC5
100
AcDbEntity
  8
YODOROGO
100
AcDbLine
 10
13908.80217064596
 20
958.8856660426325
 30
0.0
 11
13920.80217064596
 21
941.8273791420681
 31
0.0
1001
AUTOCAD_POSTSCRIPT_FIGURE
1002
{
1000
PSFILL
1000
Grayscale
1000
Grayscale
1070
   100
1002
}
  0
LINE
  5
180FE
330
17EC5
100
AcDbEntity
  8
YODOROGO
100
AcDbLine
 10
13908.80217064596
 20
969.8747482146441
 30
0.0
 11
13908.80217064596
 21
958.8856660426325
 31
0.0
1001
AUTOCAD_POSTSCRIPT_FIGURE
1002
{
1000
PSFILL
1000
Grayscale
1000
Grayscale
1070
   100
1002
}
  0
LINE
  5
180FF
330
17EC5
100
AcDbEntity
  8
YODOROGO
100
AcDbLine
 10
13944.80217064596
 20
969.8747482146441
 30
0.0
 11
13908.80217064596
 21
969.8747482146441
 31
0.0
1001
AUTOCAD_POSTSCRIPT_FIGURE
1002
{
1000
PSFILL
1000
Grayscale
1000
Grayscale
1070
   100
1002
}
  0
LINE
  5
18100
330
17EC5
100
AcDbEntity
  8
YODOROGO
100
AcDbLine
 10
13944.80217064596
 20
950.2841744681497
 30
0.0
 11
13944.80217064596
 21
969.8747482146441
 31
0.0
1001
AUTOCAD_POSTSCRIPT_FIGURE
1002
{
1000
PSFILL
1000
Grayscale
1000
Grayscale
1070
   100
1002
}
  0
LINE
  5
18101
330
17EC5
100
AcDbEntity
  8
YODOROGO
100
AcDbLine
 10
13928.80217064596
 20
950.2841744681497
 30
0.0
 11
13944.80217064596
 21
950.2841744681497
 31
0.0
1001
AUTOCAD_POSTSCRIPT_FIGURE
1002
{
1000
PSFILL
1000
Grayscale
1000
Grayscale
1070
   100
1002
}
  0
LINE
  5
18102
330
17EC5
100
AcDbEntity
  8
YODOROGO
100
AcDbLine
 10
13928.80217064596
 20
942.2841744681491
 30
0.0
 11
13928.80217064596
 21
950.2841744681497
 31
0.0
1001
AUTOCAD_POSTSCRIPT_FIGURE
1002
{
1000
PSFILL
1000
Grayscale
1000
Grayscale
1070
   100
1002
}
  0
LINE
  5
18103
330
17EC5
100
AcDbEntity
  8
YODOROGO
100
AcDbLine
 10
13944.80217064596
 20
942.2841744681491
 30
0.0
 11
13928.80217064596
 21
942.2841744681491
 31
0.0
1001
AUTOCAD_POSTSCRIPT_FIGURE
1002
{
1000
PSFILL
1000
Grayscale
1000
Grayscale
1070
   100
1002
}
  0
LINE
  5
18104
330
17EC5
100
AcDbEntity
  8
YODOROGO
100
AcDbLine
 10
13944.80217064596
 20
939.8095889822196
 30
0.0
 11
13944.80217064596
 21
942.2841744681491
 31
0.0
1001
AUTOCAD_POSTSCRIPT_FIGURE
1002
{
1000
PSFILL
1000
Grayscale
1000
Grayscale
1070
   100
1002
}
  0
LINE
  5
18105
330
17EC5
100
AcDbEntity
  8
YODOROGO
100
AcDbLine
 10
13924.80217064596
 20
906.4874905807087
 30
0.0
 11
13944.80217064596
 21
939.8095889822196
 31
0.0
1001
AUTOCAD_POSTSCRIPT_FIGURE
1002
{
1000
PSFILL
1000
Grayscale
1000
Grayscale
1070
   100
1002
}
  0
LINE
  5
18106
330
17EC5
100
AcDbEntity
  8
YODOROGO
100
AcDbLine
 10
13924.80217064596
 20
898.487490580708
 30
0.0
 11
13924.80217064596
 21
906.4874905807087
 31
0.0
1001
AUTOCAD_POSTSCRIPT_FIGURE
1002
{
1000
PSFILL
1000
Grayscale
1000
Grayscale
1070
   100
1002
}
  0
LINE
  5
18107
330
17EC5
100
AcDbEntity
  8
YODOROGO
100
AcDbLine
 10
13944.80217064596
 20
923.8095889822183
 30
0.0
 11
13924.80217064596
 21
898.487490580708
 31
0.0
1001
AUTOCAD_POSTSCRIPT_FIGURE
1002
{
1000
PSFILL
1000
Grayscale
1000
Grayscale
1070
   100
1002
}
  0
LINE
  5
18108
330
17EC5
100
AcDbEntity
  8
YODOROGO
100
AcDbLine
 10
13944.80217064596
 20
873.8747482146434
 30
0.0
 11
13944.80217064596
 21
923.8095889822183
 31
0.0
1001
AUTOCAD_POSTSCRIPT_FIGURE
1002
{
1000
PSFILL
1000
Grayscale
1000
Grayscale
1070
   100
1002
}
  0
LINE
  5
18109
330
17EC5
100
AcDbEntity
  8
YODOROGO
100
AcDbLine
 10
13952.80217064596
 20
873.8747482146434
 30
0.0
 11
13944.80217064596
 21
873.8747482146434
 31
0.0
1001
AUTOCAD_POSTSCRIPT_FIGURE
1002
{
1000
PSFILL
1000
Grayscale
1000
Grayscale
1070
   100
1002
}
  0
LINE
  5
1810A
330
17EC5
100
AcDbEntity
  8
YODOROGO
100
AcDbLine
 10
13952.80217064596
 20
924.7045060794032
 30
0.0
 11
13952.80217064596
 21
873.8747482146434
 31
0.0
1001
AUTOCAD_POSTSCRIPT_FIGURE
1002
{
1000
PSFILL
1000
Grayscale
1000
Grayscale
1070
   100
1002
}
  0
LINE
  5
1810B
330
17EC5
100
AcDbEntity
  8
YODOROGO
100
AcDbLine
 10
13968.80217064596
 20
898.487490580708
 30
0.0
 11
13952.80217064596
 21
924.7045060794032
 31
0.0
1001
AUTOCAD_POSTSCRIPT_FIGURE
1002
{
1000
PSFILL
1000
Grayscale
1000
Grayscale
1070
   100
1002
}
  0
LINE
  5
1810C
330
17EC5
100
AcDbEntity
  8
YODOROGO
100
AcDbLine
 10
13968.80217064596
 20
906.4874905807087
 30
0.0
 11
13968.80217064596
 21
898.487490580708
 31
0.0
1001
AUTOCAD_POSTSCRIPT_FIGURE
1002
{
1000
PSFILL
1000
Grayscale
1000
Grayscale
1070
   100
1002
}
  0
LINE
  5
1810D
330
17EC5
100
AcDbEntity
  8
YODOROGO
100
AcDbLine
 10
13952.80217064596
 20
940.7045060794041
 30
0.0
 11
13968.80217064596
 21
906.4874905807087
 31
0.0
1001
AUTOCAD_POSTSCRIPT_FIGURE
1002
{
1000
PSFILL
1000
Grayscale
1000
Grayscale
1070
   100
1002
}
  0
LINE
  5
1810E
330
17EC5
100
AcDbEntity
  8
YODOROGO
100
AcDbLine
 10
13952.80217064596
 20
942.2841744681502
 30
0.0
 11
13952.80217064596
 21
940.7045060794041
 31
0.0
1001
AUTOCAD_POSTSCRIPT_FIGURE
1002
{
1000
PSFILL
1000
Grayscale
1000
Grayscale
1070
   100
1002
}
  0
LINE
  5
1810F
330
17EC5
100
AcDbEntity
  8
YODOROGO
100
AcDbLine
 10
13968.80217064596
 20
942.2841744681491
 30
0.0
 11
13952.80217064596
 21
942.2841744681502
 31
0.0
1001
AUTOCAD_POSTSCRIPT_FIGURE
1002
{
1000
PSFILL
1000
Grayscale
1000
Grayscale
1070
   100
1002
}
  0
LINE
  5
18110
330
17EC5
100
AcDbEntity
  8
YODOROGO
100
AcDbLine
 10
13968.80217064596
 20
950.2841744681497
 30
0.0
 11
13968.80217064596
 21
942.2841744681491
 31
0.0
1001
AUTOCAD_POSTSCRIPT_FIGURE
1002
{
1000
PSFILL
1000
Grayscale
1000
Grayscale
1070
   100
1002
}
  0
LINE
  5
18111
330
17EC5
100
AcDbEntity
  8
YODOROGO
100
AcDbLine
 10
13952.80217064596
 20
950.2841744681497
 30
0.0
 11
13968.80217064596
 21
950.2841744681497
 31
0.0
1001
AUTOCAD_POSTSCRIPT_FIGURE
1002
{
1000
PSFILL
1000
Grayscale
1000
Grayscale
1070
   100
1002
}
  0
LINE
  5
18112
330
17EC5
100
AcDbEntity
  8
YODOROGO
100
AcDbLine
 10
13952.80217064596
 20
969.8747482146441
 30
0.0
 11
13952.80217064596
 21
950.2841744681497
 31
0.0
1001
AUTOCAD_POSTSCRIPT_FIGURE
1002
{
1000
PSFILL
1000
Grayscale
1000
Grayscale
1070
   100
1002
}
  0
LINE
  5
18113
330
17EC5
100
AcDbEntity
  8
YODOROGO
100
AcDbLine
 10
13968.80217064596
 20
969.8747482146441
 30
0.0
 11
13952.80217064596
 21
969.8747482146441
 31
0.0
1001
AUTOCAD_POSTSCRIPT_FIGURE
1002
{
1000
PSFILL
1000
Grayscale
1000
Grayscale
1070
   100
1002
}
  0
LINE
  5
18114
330
17EC5
100
AcDbEntity
  8
YODOROGO
100
AcDbLine
 10
13968.80217064596
 20
977.8747482146435
 30
0.0
 11
13968.80217064596
 21
969.8747482146441
 31
0.0
1001
AUTOCAD_POSTSCRIPT_FIGURE
1002
{
1000
PSFILL
1000
Grayscale
1000
Grayscale
1070
   100
1002
}
  0
LINE
  5
18115
330
17EC5
100
AcDbEntity
  8
YODOROGO
100
AcDbLine
 10
13952.80217064596
 20
977.8747482146435
 30
0.0
 11
13968.80217064596
 21
977.8747482146435
 31
0.0
1001
AUTOCAD_POSTSCRIPT_FIGURE
1002
{
1000
PSFILL
1000
Grayscale
1000
Grayscale
1070
   100
1002
}
  0
LINE
  5
18116
330
17EC5
100
AcDbEntity
  8
YODOROGO
100
AcDbLine
 10
13952.80217064596
 20
989.8747482146442
 30
0.0
 11
13952.80217064596
 21
977.8747482146435
 31
0.0
1001
AUTOCAD_POSTSCRIPT_FIGURE
1002
{
1000
PSFILL
1000
Grayscale
1000
Grayscale
1070
   100
1002
}
  0
LINE
  5
18117
330
17EC5
100
AcDbEntity
  8
YODOROGO
100
AcDbLine
 10
13944.80217064596
 20
989.8747482146442
 30
0.0
 11
13952.80217064596
 21
989.8747482146442
 31
0.0
1001
AUTOCAD_POSTSCRIPT_FIGURE
1002
{
1000
PSFILL
1000
Grayscale
1000
Grayscale
1070
   100
1002
}
  0
LINE
  5
18118
330
17EC5
100
AcDbEntity
  8
YODOROGO
100
AcDbLine
 10
13944.80217064596
 20
977.8747482146435
 30
0.0
 11
13944.80217064596
 21
989.8747482146442
 31
0.0
1001
AUTOCAD_POSTSCRIPT_FIGURE
1002
{
1000
PSFILL
1000
Grayscale
1000
Grayscale
1070
   100
1002
}
  0
LINE
  5
18119
330
17EC5
100
AcDbEntity
  8
YODOROGO
100
AcDbLine
 10
13932.80217064596
 20
977.8747482146435
 30
0.0
 11
13944.80217064596
 21
977.8747482146435
 31
0.0
1001
AUTOCAD_POSTSCRIPT_FIGURE
1002
{
1000
PSFILL
1000
Grayscale
1000
Grayscale
1070
   100
1002
}
  0
LINE
  5
1811A
330
17EC5
100
AcDbEntity
  8
YODOROGO
100
AcDbLine
 10
13932.80217064596
 20
989.8747482146442
 30
0.0
 11
13932.80217064596
 21
977.8747482146435
 31
0.0
1001
AUTOCAD_POSTSCRIPT_FIGURE
1002
{
1000
PSFILL
1000
Grayscale
1000
Grayscale
1070
   100
1002
}
  0
LINE
  5
1811B
330
17EC5
100
AcDbEntity
  8
YODOROGO
100
AcDbLine
 10
13924.80217064596
 20
989.8747482146442
 30
0.0
 11
13932.80217064596
 21
989.8747482146442
 31
0.0
1001
AUTOCAD_POSTSCRIPT_FIGURE
1002
{
1000
PSFILL
1000
Grayscale
1000
Grayscale
1070
   100
1002
}
  0
LINE
  5
1811C
330
17EC5
100
AcDbEntity
  8
YODOROGO
100
AcDbLine
 10
13924.80217064596
 20
977.8747482146435
 30
0.0
 11
13924.80217064596
 21
989.8747482146442
 31
0.0
1001
AUTOCAD_POSTSCRIPT_FIGURE
1002
{
1000
PSFILL
1000
Grayscale
1000
Grayscale
1070
   100
1002
}
  0
LINE
  5
1811D
330
17EC5
100
AcDbEntity
  8
YODOROGO
100
AcDbLine
 10
13908.80217064596
 20
977.8747482146435
 30
0.0
 11
13924.80217064596
 21
977.8747482146435
 31
0.0
1001
AUTOCAD_POSTSCRIPT_FIGURE
1002
{
1000
PSFILL
1000
Grayscale
1000
Grayscale
1070
   100
1002
}
  0
LINE
  5
1811E
330
17EC5
100
AcDbEntity
  8
YODOROGO
100
AcDbLine
 10
13908.80217064596
 20
989.8747482146442
 30
0.0
 11
13908.80217064596
 21
977.8747482146435
 31
0.0
1001
AUTOCAD_POSTSCRIPT_FIGURE
1002
{
1000
PSFILL
1000
Grayscale
1000
Grayscale
1070
   100
1002
}
  0
LINE
  5
1811F
330
17EC5
100
AcDbEntity
  8
YODOROGO
100
AcDbLine
 10
13900.80217064596
 20
989.8747482146442
 30
0.0
 11
13908.80217064596
 21
989.8747482146442
 31
0.0
1001
AUTOCAD_POSTSCRIPT_FIGURE
1002
{
1000
PSFILL
1000
Grayscale
1000
Grayscale
1070
   100
1002
}
  0
LINE
  5
18120
330
17EC5
100
AcDbEntity
  8
YODOROGO
100
AcDbLine
 10
13900.80217064596
 20
977.8747482146435
 30
0.0
 11
13900.80217064596
 21
989.8747482146442
 31
0.0
1001
AUTOCAD_POSTSCRIPT_FIGURE
1002
{
1000
PSFILL
1000
Grayscale
1000
Grayscale
1070
   100
1002
}
  0
LINE
  5
18121
330
17EC5
100
AcDbEntity
  8
YODOROGO
100
AcDbLine
 10
13888.80217064596
 20
977.8747482146435
 30
0.0
 11
13900.80217064596
 21
977.8747482146435
 31
0.0
1001
AUTOCAD_POSTSCRIPT_FIGURE
1002
{
1000
PSFILL
1000
Grayscale
1000
Grayscale
1070
   100
1002
}
  0
LINE
  5
18122
330
17EC5
100
AcDbEntity
  8
YODOROGO
100
AcDbLine
 10
13888.80217064596
 20
969.8747482146441
 30
0.0
 11
13888.80217064596
 21
977.8747482146435
 31
0.0
1001
AUTOCAD_POSTSCRIPT_FIGURE
1002
{
1000
PSFILL
1000
Grayscale
1000
Grayscale
1070
   100
1002
}
  0
LINE
  5
18123
330
17EC5
100
AcDbEntity
  8
YODOROGO
100
AcDbLine
 10
13900.80217064596
 20
969.8747482146441
 30
0.0
 11
13888.80217064596
 21
969.8747482146441
 31
0.0
1001
AUTOCAD_POSTSCRIPT_FIGURE
1002
{
1000
PSFILL
1000
Grayscale
1000
Grayscale
1070
   100
1002
}
  0
LINE
  5
18124
330
17EC5
100
AcDbEntity
  8
YODOROGO
100
AcDbLine
 10
13900.80217064596
 20
957.3932903968525
 30
0.0
 11
13900.80217064596
 21
969.8747482146441
 31
0.0
1001
AUTOCAD_POSTSCRIPT_FIGURE
1002
{
1000
PSFILL
1000
Grayscale
1000
Grayscale
1070
   100
1002
}
  0
LINE
  5
18125
330
17EC5
100
AcDbEntity
  8
YODOROGO
100
AcDbLine
 10
13888.80217064596
 20
929.8883739758355
 30
0.0
 11
13900.80217064596
 21
957.3932903968525
 31
0.0
1001
AUTOCAD_POSTSCRIPT_FIGURE
1002
{
1000
PSFILL
1000
Grayscale
1000
Grayscale
1070
   100
1002
}
  0
LINE
  5
18126
330
17EC5
100
AcDbEntity
  8
YODOROGO
100
AcDbLine
 10
13888.80217064596
 20
921.8883739758362
 30
0.0
 11
13888.80217064596
 21
929.8883739758355
 31
0.0
1001
AUTOCAD_POSTSCRIPT_FIGURE
1002
{
1000
PSFILL
1000
Grayscale
1000
Grayscale
1070
   100
1002
}
  0
LINE
  5
18127
330
17EC5
100
AcDbEntity
  8
YODOROGO
100
AcDbLine
 10
14128.80217064596
 20
933.8747482146439
 30
0.0
 11
14200.80217064594
 21
912.4388128201532
 31
0.0
1001
AUTOCAD_POSTSCRIPT_FIGURE
1002
{
1000
PSFILL
1000
Grayscale
1000
Grayscale
1070
   100
1002
}
  0
LINE
  5
18128
330
17EC5
100
AcDbEntity
  8
YODOROGO
100
AcDbLine
 10
14200.80217064594
 20
876.4388128201531
 30
0.0
 11
14128.80217064596
 21
897.8747482146435
 31
0.0
1001
AUTOCAD_POSTSCRIPT_FIGURE
1002
{
1000
PSFILL
1000
Grayscale
1000
Grayscale
1070
   100
1002
}
  0
LINE
  5
18129
330
17EC5
100
AcDbEntity
  8
YODOROGO
100
AcDbLine
 10
14200.80217064594
 20
992.4388128201531
 30
0.0
 11
14128.80217064596
 21
1013.874748214644
 31
0.0
1001
AUTOCAD_POSTSCRIPT_FIGURE
1002
{
1000
PSFILL
1000
Grayscale
1000
Grayscale
1070
   100
1002
}
  0
LINE
  5
1812A
330
17EC5
100
AcDbEntity
  8
YODOROGO
100
AcDbLine
 10
14128.80217064596
 20
979.874748214644
 30
0.0
 11
14200.80217064594
 21
958.4388128201537
 31
0.0
1001
AUTOCAD_POSTSCRIPT_FIGURE
1002
{
1000
PSFILL
1000
Grayscale
1000
Grayscale
1070
   100
1002
}
  0
LINE
  5
1812B
330
17EC5
100
AcDbEntity
  8
YODOROGO
100
AcDbLine
 10
14128.80217064596
 20
897.8747482146435
 30
0.0
 11
14128.80217064596
 21
933.8747482146439
 31
0.0
1001
AUTOCAD_POSTSCRIPT_FIGURE
1002
{
1000
PSFILL
1000
Grayscale
1000
Grayscale
1070
   100
1002
}
  0
LINE
  5
1812C
330
17EC5
100
AcDbEntity
  8
YODOROGO
100
AcDbLine
 10
14128.80217064596
 20
1013.874748214644
 30
0.0
 11
14128.80217064596
 21
979.874748214644
 31
0.0
1001
AUTOCAD_POSTSCRIPT_FIGURE
1002
{
1000
PSFILL
1000
Grayscale
1000
Grayscale
1070
   100
1002
}
  0
LINE
  5
1812D
330
17EC5
100
AcDbEntity
  8
YODOROGO
100
AcDbLine
 10
14040.11816010337
 20
969.8747482146441
 30
0.0
 11
14064.80217064595
 21
873.8747482146434
 31
0.0
1001
AUTOCAD_POSTSCRIPT_FIGURE
1002
{
1000
PSFILL
1000
Grayscale
1000
Grayscale
1070
   100
1002
}
  0
LINE
  5
1812E
330
17EC5
100
AcDbEntity
  8
YODOROGO
100
AcDbLine
 10
13988.80217064596
 20
969.8747482146441
 30
0.0
 11
14040.11816010337
 21
969.8747482146441
 31
0.0
1001
AUTOCAD_POSTSCRIPT_FIGURE
1002
{
1000
PSFILL
1000
Grayscale
1000
Grayscale
1070
   100
1002
}
  0
LINE
  5
1812F
330
17EC5
100
AcDbEntity
  8
YODOROGO
100
AcDbLine
 10
13988.80217064596
 20
977.8747482146435
 30
0.0
 11
13988.80217064596
 21
969.8747482146441
 31
0.0
1001
AUTOCAD_POSTSCRIPT_FIGURE
1002
{
1000
PSFILL
1000
Grayscale
1000
Grayscale
1070
   100
1002
}
  0
LINE
  5
18130
330
17EC5
100
AcDbEntity
  8
YODOROGO
100
AcDbLine
 10
14038.30343925995
 20
977.8747482146435
 30
0.0
 11
13988.80217064596
 21
977.8747482146435
 31
0.0
1001
AUTOCAD_POSTSCRIPT_FIGURE
1002
{
1000
PSFILL
1000
Grayscale
1000
Grayscale
1070
   100
1002
}
  0
LINE
  5
18131
330
17EC5
100
AcDbEntity
  8
YODOROGO
100
AcDbLine
 10
14035.58135799485
 20
989.8747482146442
 30
0.0
 11
14038.30343925995
 21
977.8747482146435
 31
0.0
1001
AUTOCAD_POSTSCRIPT_FIGURE
1002
{
1000
PSFILL
1000
Grayscale
1000
Grayscale
1070
   100
1002
}
  0
LINE
  5
18132
330
17EC5
100
AcDbEntity
  8
YODOROGO
100
AcDbLine
 10
14045.58135799485
 20
989.8747482146442
 30
0.0
 11
14035.58135799485
 21
989.8747482146442
 31
0.0
1001
AUTOCAD_POSTSCRIPT_FIGURE
1002
{
1000
PSFILL
1000
Grayscale
1000
Grayscale
1070
   100
1002
}
  0
LINE
  5
18133
330
17EC5
100
AcDbEntity
  8
YODOROGO
100
AcDbLine
 10
14047.90343925997
 20
977.8747482146435
 30
0.0
 11
14045.58135799485
 21
989.8747482146442
 31
0.0
1001
AUTOCAD_POSTSCRIPT_FIGURE
1002
{
1000
PSFILL
1000
Grayscale
1000
Grayscale
1070
   100
1002
}
  0
LINE
  5
18134
330
17EC5
100
AcDbEntity
  8
YODOROGO
100
AcDbLine
 10
14060.80217064596
 20
977.8747482146435
 30
0.0
 11
14047.90343925997
 21
977.8747482146435
 31
0.0
1001
AUTOCAD_POSTSCRIPT_FIGURE
1002
{
1000
PSFILL
1000
Grayscale
1000
Grayscale
1070
   100
1002
}
  0
LINE
  5
18135
330
17EC5
100
AcDbEntity
  8
YODOROGO
100
AcDbLine
 10
14060.80217064596
 20
989.8747482146442
 30
0.0
 11
14060.80217064596
 21
977.8747482146435
 31
0.0
1001
AUTOCAD_POSTSCRIPT_FIGURE
1002
{
1000
PSFILL
1000
Grayscale
1000
Grayscale
1070
   100
1002
}
  0
LINE
  5
18136
330
17EC5
100
AcDbEntity
  8
YODOROGO
100
AcDbLine
 10
14068.80217064596
 20
989.8747482146442
 30
0.0
 11
14060.80217064596
 21
989.8747482146442
 31
0.0
1001
AUTOCAD_POSTSCRIPT_FIGURE
1002
{
1000
PSFILL
1000
Grayscale
1000
Grayscale
1070
   100
1002
}
  0
LINE
  5
18137
330
17EC5
100
AcDbEntity
  8
YODOROGO
100
AcDbLine
 10
14068.80217064596
 20
977.8747482146435
 30
0.0
 11
14068.80217064596
 21
989.8747482146442
 31
0.0
1001
AUTOCAD_POSTSCRIPT_FIGURE
1002
{
1000
PSFILL
1000
Grayscale
1000
Grayscale
1070
   100
1002
}
  0
LINE
  5
18138
330
17EC5
100
AcDbEntity
  8
YODOROGO
100
AcDbLine
 10
14068.80217064596
 20
969.8747482146441
 30
0.0
 11
14068.80217064596
 21
977.8747482146435
 31
0.0
1001
AUTOCAD_POSTSCRIPT_FIGURE
1002
{
1000
PSFILL
1000
Grayscale
1000
Grayscale
1070
   100
1002
}
  0
LINE
  5
18139
330
17EC5
100
AcDbEntity
  8
YODOROGO
100
AcDbLine
 10
14049.45149343671
 20
969.8747482146441
 30
0.0
 11
14068.80217064596
 21
969.8747482146441
 31
0.0
1001
AUTOCAD_POSTSCRIPT_FIGURE
1002
{
1000
PSFILL
1000
Grayscale
1000
Grayscale
1070
   100
1002
}
  0
LINE
  5
1813A
330
17EC5
100
AcDbEntity
  8
YODOROGO
100
AcDbLine
 10
14068.80217064596
 20
873.8747482146434
 30
0.0
 11
14049.45149343671
 21
969.8747482146441
 31
0.0
1001
AUTOCAD_POSTSCRIPT_FIGURE
1002
{
1000
PSFILL
1000
Grayscale
1000
Grayscale
1070
   100
1002
}
  0
LINE
  5
1813B
330
17EC5
100
AcDbEntity
  8
YODOROGO
100
AcDbLine
 10
14064.80217064595
 20
873.8747482146434
 30
0.0
 11
14068.80217064596
 21
873.8747482146434
 31
0.0
1001
AUTOCAD_POSTSCRIPT_FIGURE
1002
{
1000
PSFILL
1000
Grayscale
1000
Grayscale
1070
   100
1002
}
  0
LINE
  5
1813C
330
17EC5
100
AcDbEntity
  8
YODOROGO
100
AcDbLine
 10
14039.03460996689
 20
887.8703881493972
 30
0.0
 11
13988.80217064596
 21
873.8747482146434
 31
0.0
  0
LINE
  5
1813D
330
17EC5
100
AcDbEntity
  8
YODOROGO
100
AcDbLine
 10
14039.03460996689
 20
899.3344897645364
 30
0.0
 11
14039.03460996689
 21
887.8703881493972
 31
0.0
  0
LINE
  5
1813E
330
17EC5
100
AcDbEntity
  8
YODOROGO
100
AcDbLine
 10
14016.91839030643
 20
893.4084665668834
 30
0.0
 11
14039.03460996689
 21
899.3344897645364
 31
0.0
  0
LINE
  5
1813F
330
17EC5
100
AcDbEntity
  8
YODOROGO
100
AcDbLine
 10
14016.91839030643
 20
936.2841744681499
 30
0.0
 11
14016.91839030643
 21
893.4084665668834
 31
0.0
  0
LINE
  5
18140
330
17EC5
100
AcDbEntity
  8
YODOROGO
100
AcDbLine
 10
14039.03460996689
 20
936.2841744681499
 30
0.0
 11
14016.91839030643
 21
936.2841744681499
 31
0.0
  0
LINE
  5
18141
330
17EC5
100
AcDbEntity
  8
YODOROGO
100
AcDbLine
 10
14039.03460996689
 20
946.2841744681487
 30
0.0
 11
14039.03460996689
 21
936.2841744681499
 31
0.0
  0
LINE
  5
18142
330
17EC5
100
AcDbEntity
  8
YODOROGO
100
AcDbLine
 10
13988.80217064596
 20
946.2841744681487
 30
0.0
 11
14039.03460996689
 21
946.2841744681487
 31
0.0
  0
LINE
  5
18143
330
17EC5
100
AcDbEntity
  8
YODOROGO
100
AcDbLine
 10
13988.80217064596
 20
936.2841744681499
 30
0.0
 11
13988.80217064596
 21
946.2841744681487
 31
0.0
  0
LINE
  5
18144
330
17EC5
100
AcDbEntity
  8
YODOROGO
100
AcDbLine
 10
14010.91839030643
 20
936.2841744681499
 30
0.0
 11
13988.80217064596
 21
936.2841744681499
 31
0.0
  0
LINE
  5
18145
330
17EC5
100
AcDbEntity
  8
YODOROGO
100
AcDbLine
 10
14010.91839030643
 20
892.3366697971587
 30
0.0
 11
14010.91839030643
 21
936.2841744681499
 31
0.0
  0
LINE
  5
18146
330
17EC5
100
AcDbEntity
  8
YODOROGO
100
AcDbLine
 10
13988.80217064596
 20
885.8747482146432
 30
0.0
 11
14010.91839030643
 21
892.3366697971587
 31
0.0
  0
LINE
  5
18147
330
17EC5
100
AcDbEntity
  8
YODOROGO
100
AcDbLine
 10
13988.80217064596
 20
873.8747482146434
 30
0.0
 11
13988.80217064596
 21
885.8747482146432
 31
0.0
  0
LINE
  5
18148
330
17EC5
100
AcDbEntity
  8
YODOROGO
100
AcDbLine
 10
14000.80217064596
 20
853.874748214644
 30
0.0
 11
14000.80217064596
 21
841.8747482146434
 31
0.0
  0
LINE
  5
18149
330
17EC5
100
AcDbEntity
  8
YODOROGO
100
AcDbLine
 10
14008.80217064596
 20
853.874748214644
 30
0.0
 11
14000.80217064596
 21
853.874748214644
 31
0.0
  0
LINE
  5
1814A
330
17EC5
100
AcDbEntity
  8
YODOROGO
100
AcDbLine
 10
14008.80217064596
 20
841.8747482146434
 30
0.0
 11
14008.80217064596
 21
853.874748214644
 31
0.0
  0
LINE
  5
1814B
330
17EC5
100
AcDbEntity
  8
YODOROGO
100
AcDbLine
 10
14020.45660200844
 20
841.8747482146434
 30
0.0
 11
14008.80217064596
 21
841.8747482146434
 31
0.0
  0
LINE
  5
1814C
330
17EC5
100
AcDbEntity
  8
YODOROGO
100
AcDbLine
 10
14000.80217064596
 20
841.8747482146434
 30
0.0
 11
13988.80217064596
 21
841.8747482146434
 31
0.0
  0
LINE
  5
1814D
330
17EC5
100
AcDbEntity
  8
YODOROGO
100
AcDbLine
 10
14041.06776011546
 20
853.874748214644
 30
0.0
 11
14049.06776011545
 21
853.874748214644
 31
0.0
1001
AUTOCAD_POSTSCRIPT_FIGURE
1002
{
1000
PSFILL
1000
Grayscale
1000
Grayscale
1070
   100
1002
}
  0
LINE
  5
1814E
330
17EC5
100
AcDbEntity
  8
YODOROGO
100
AcDbLine
 10
14200.80217064594
 20
912.4388128201532
 30
0.0
 11
14200.80217064594
 21
876.4388128201531
 31
0.0
1001
AUTOCAD_POSTSCRIPT_FIGURE
1002
{
1000
PSFILL
1000
Grayscale
1000
Grayscale
1070
   100
1002
}
  0
LINE
  5
1814F
330
17EC5
100
AcDbEntity
  8
YODOROGO
100
AcDbLine
 10
14200.80217064594
 20
958.4388128201537
 30
0.0
 11
14200.80217064594
 21
992.4388128201531
 31
0.0
1001
AUTOCAD_POSTSCRIPT_FIGURE
1002
{
1000
PSFILL
1000
Grayscale
1000
Grayscale
1070
   100
1002
}
  0
LINE
  5
18150
330
17EC5
100
AcDbEntity
  8
YODOROGO
100
AcDbLine
 10
14216.80217064594
 20
909.8747482146439
 30
0.0
 11
14216.80217064594
 21
873.8747482146449
 31
0.0
  0
LINE
  5
18151
330
17EC5
100
AcDbEntity
  8
YODOROGO
100
AcDbLine
 10
14248.80217064594
 20
853.874748214644
 30
0.0
 11
14216.80217064594
 21
853.874748214644
 31
0.0
  0
LINE
  5
18152
330
17EC5
100
AcDbEntity
  8
YODOROGO
100
AcDbLine
 10
14216.80217064594
 20
873.8747482146449
 30
0.0
 11
14292.80217064596
 21
873.8747482146449
 31
0.0
  0
LINE
  5
18153
330
17EC5
100
AcDbEntity
  8
YODOROGO
100
AcDbLine
 10
14248.80217064594
 20
933.8747482146439
 30
0.0
 11
14216.80217064594
 21
933.8747482146439
 31
0.0
  0
LINE
  5
18154
330
17EC5
100
AcDbEntity
  8
YODOROGO
100
AcDbLine
 10
14248.80217064594
 20
961.8747482146432
 30
0.0
 11
14248.80217064594
 21
933.8747482146439
 31
0.0
  0
LINE
  5
18155
330
17EC5
100
AcDbEntity
  8
YODOROGO
100
AcDbLine
 10
14292.80217064596
 20
993.8747482146439
 30
0.0
 11
14292.80217064596
 21
1013.874748214644
 31
0.0
  0
LINE
  5
18156
330
17EC5
100
AcDbEntity
  8
YODOROGO
100
AcDbLine
 10
14216.80217064594
 20
993.8747482146439
 30
0.0
 11
14292.80217064596
 21
993.8747482146439
 31
0.0
  0
LINE
  5
18157
330
17EC5
100
AcDbEntity
  8
YODOROGO
100
AcDbLine
 10
14216.80217064594
 20
933.8747482146439
 30
0.0
 11
14216.80217064594
 21
993.8747482146439
 31
0.0
  0
LINE
  5
18158
330
17EC5
100
AcDbEntity
  8
YODOROGO
100
AcDbLine
 10
14500.80217064594
 20
1013.874748214644
 30
0.0
 11
14500.80217064594
 21
809.8747482146441
 31
0.0
  0
LINE
  5
18159
330
17EC5
100
AcDbEntity
  8
YODOROGO
100
AcDbLine
 10
14536.80217064596
 20
789.8747482146441
 30
0.0
 11
14536.80217064596
 21
1013.874748214644
 31
0.0
  0
LINE
  5
1815A
330
17EC5
100
AcDbEntity
  8
YODOROGO
100
AcDbLine
 10
14630.80217064596
 20
745.8747482146431
 30
0.0
 11
14630.80217064596
 21
1003.874748214644
 31
0.0
  0
LINE
  5
1815B
330
17EC5
100
AcDbEntity
  8
YODOROGO
100
AcDbLine
 10
14598.80217064596
 20
1003.874748214644
 30
0.0
 11
14598.80217064596
 21
745.8747482146431
 31
0.0
  0
LINE
  5
1815C
330
17EC5
100
AcDbEntity
  8
YODOROGO
100
AcDbLine
 10
14692.80217064596
 20
1013.874748214644
 30
0.0
 11
14692.80217064596
 21
713.8747482146436
 31
0.0
  0
LINE
  5
1815D
330
17EC5
100
AcDbEntity
  8
YODOROGO
100
AcDbLine
 10
14728.80217064596
 20
713.8747482146436
 30
0.0
 11
14728.80217064596
 21
1013.874748214644
 31
0.0
  0
LINE
  5
1815E
330
17EC5
100
AcDbEntity
  8
YODOROGO
100
AcDbLine
 10
14328.80217064594
 20
833.8747482146439
 30
0.0
 11
14328.80217064594
 21
873.8747482146449
 31
0.0
  0
LINE
  5
1815F
330
17EC5
100
AcDbEntity
  8
YODOROGO
100
AcDbLine
 10
14942.80217064596
 20
853.874748214644
 30
0.0
 11
14942.80217064596
 21
833.8747482146439
 31
0.0
  0
LINE
  5
18160
330
17EC5
100
AcDbEntity
  8
YODOROGO
100
AcDbLine
 10
14942.80217064596
 20
853.874748214644
 30
0.0
 11
14942.80217064596
 21
833.8747482146439
 31
0.0
  0
ARC
  5
18161
330
17EC5
100
AcDbEntity
  8
YODOROGO
100
AcDbCircle
 10
14453.45578809342
 20
809.1089322211363
 30
0.0
 40
47.35257558937082
100
AcDbArc
 50
274.052441629071
 51
0.9266642149310712
  0
ARC
  5
18162
330
17EC5
100
AcDbEntity
  8
YODOROGO
100
AcDbCircle
 10
14454.5930853599
 20
796.30536430522
 30
0.0
 40
82.46021178042756
100
AcDbArc
 50
271.5351210653777
 51
355.5272775058505
  0
LINE
  5
18163
330
17EC5
100
AcDbEntity
  8
YODOROGO
100
AcDbLine
 10
14456.80217064596
 20
761.8747482146434
 30
0.0
 11
14456.80217064596
 21
713.8747482146436
 31
0.0
  0
LINE
  5
18164
330
17EC5
100
AcDbEntity
  8
YODOROGO
100
AcDbLine
 10
14396.80217064594
 20
833.8747482146439
 30
0.0
 11
14328.80217064594
 21
833.8747482146439
 31
0.0
  0
LINE
  5
18165
330
17EC5
100
AcDbEntity
  8
YODOROGO
100
AcDbLine
 10
14396.80217064594
 20
801.8747482146444
 30
0.0
 11
14396.80217064594
 21
833.8747482146439
 31
0.0
  0
LINE
  5
18166
330
17EC5
100
AcDbEntity
  8
YODOROGO
100
AcDbLine
 10
14328.80217064594
 20
801.8747482146444
 30
0.0
 11
14396.80217064594
 21
801.8747482146444
 31
0.0
  0
LINE
  5
18167
330
17EC5
100
AcDbEntity
  8
YODOROGO
100
AcDbLine
 10
14328.80217064594
 20
761.8747482146434
 30
0.0
 11
14328.80217064594
 21
801.8747482146444
 31
0.0
  0
LINE
  5
18168
330
17EC5
100
AcDbEntity
  8
YODOROGO
100
AcDbLine
 10
14396.80217064594
 20
761.8747482146434
 30
0.0
 11
14328.80217064594
 21
761.8747482146434
 31
0.0
  0
LINE
  5
18169
330
17EC5
100
AcDbEntity
  8
YODOROGO
100
AcDbLine
 10
14396.80217064594
 20
713.8747482146436
 30
0.0
 11
14396.80217064594
 21
761.8747482146434
 31
0.0
  0
LINE
  5
1816A
330
17EC5
100
AcDbEntity
  8
YODOROGO
100
AcDbLine
 10
14598.80217064596
 20
745.8747482146431
 30
0.0
 11
14630.80217064596
 21
745.8747482146431
 31
0.0
  0
LINE
  5
1816B
330
17EC5
100
AcDbEntity
  8
YODOROGO
100
AcDbLine
 10
14692.80217064596
 20
713.8747482146436
 30
0.0
 11
14728.80217064596
 21
713.8747482146436
 31
0.0
  0
LINE
  5
1816C
330
17EC5
100
AcDbEntity
  8
YODOROGO
100
AcDbLine
 10
14868.80217064596
 20
764.2207260852818
 30
0.0
 11
14868.80217064596
 21
713.8747482146436
 31
0.0
  0
LINE
  5
1816D
330
17EC5
100
AcDbEntity
  8
YODOROGO
100
AcDbLine
 10
14808.80217064596
 20
713.8747482146436
 30
0.0
 11
14868.80217064596
 21
764.2207260852818
 31
0.0
  0
LINE
  5
1816E
330
17EC5
100
AcDbEntity
  8
YODOROGO
100
AcDbLine
 10
14808.80217064596
 20
773.874748214644
 30
0.0
 11
14808.80217064596
 21
713.8747482146436
 31
0.0
  0
LINE
  5
1816F
330
17EC5
100
AcDbEntity
  8
YODOROGO
100
AcDbLine
 10
14856.47231434973
 20
813.8747482146435
 30
0.0
 11
14808.80217064596
 21
773.874748214644
 31
0.0
  0
LINE
  5
18170
330
17EC5
100
AcDbEntity
  8
YODOROGO
100
AcDbLine
 10
14808.80217064596
 20
813.8747482146435
 30
0.0
 11
14856.47231434973
 21
813.8747482146435
 31
0.0
  0
LINE
  5
18171
330
17EC5
100
AcDbEntity
  8
YODOROGO
100
AcDbLine
 10
14808.80217064596
 20
833.8747482146439
 30
0.0
 11
14808.80217064596
 21
813.8747482146435
 31
0.0
  0
LINE
  5
18172
330
17EC5
100
AcDbEntity
  8
YODOROGO
100
AcDbLine
 10
14942.80217064596
 20
833.8747482146439
 30
0.0
 11
14808.80217064596
 21
833.8747482146439
 31
0.0
  0
LINE
  5
18173
330
17EC5
100
AcDbEntity
  8
YODOROGO
100
AcDbLine
 10
14958.80217064596
 20
813.8747482146435
 30
0.0
 11
14888.80217064596
 21
813.8747482146435
 31
0.0
  0
LINE
  5
18174
330
17EC5
100
AcDbEntity
  8
YODOROGO
100
AcDbLine
 10
14888.80217064596
 20
781.0027187088283
 30
0.0
 11
14885.70493649264
 21
778.403830673117
 31
0.0
  0
LINE
  5
18175
330
17EC5
100
AcDbEntity
  8
YODOROGO
100
AcDbLine
 10
14888.80217064596
 20
813.8747482146435
 30
0.0
 11
14888.80217064596
 21
781.0027187088283
 31
0.0
  0
LINE
  5
18176
330
17EC5
100
AcDbEntity
  8
YODOROGO
100
AcDbLine
 10
14868.80217064596
 20
764.2207260852818
 30
0.0
 11
14868.80217064596
 21
713.8747482146436
 31
0.0
  0
LINE
  5
18177
330
17EC5
100
AcDbEntity
  8
YODOROGO
100
AcDbLine
 10
14808.80217064596
 20
713.8747482146436
 30
0.0
 11
14868.80217064596
 21
764.2207260852818
 31
0.0
  0
LINE
  5
18178
330
17EC5
100
AcDbEntity
  8
YODOROGO
100
AcDbLine
 10
14808.80217064596
 20
773.874748214644
 30
0.0
 11
14808.80217064596
 21
713.8747482146436
 31
0.0
  0
LINE
  5
18179
330
17EC5
100
AcDbEntity
  8
YODOROGO
100
AcDbLine
 10
14856.47231434973
 20
813.8747482146435
 30
0.0
 11
14808.80217064596
 21
773.874748214644
 31
0.0
  0
LINE
  5
1817A
330
17EC5
100
AcDbEntity
  8
YODOROGO
100
AcDbLine
 10
14808.80217064596
 20
813.8747482146435
 30
0.0
 11
14856.47231434973
 21
813.8747482146435
 31
0.0
  0
LINE
  5
1817B
330
17EC5
100
AcDbEntity
  8
YODOROGO
100
AcDbLine
 10
14808.80217064596
 20
833.8747482146439
 30
0.0
 11
14808.80217064596
 21
813.8747482146435
 31
0.0
  0
LINE
  5
1817C
330
17EC5
100
AcDbEntity
  8
YODOROGO
100
AcDbLine
 10
14942.80217064596
 20
833.8747482146439
 30
0.0
 11
14808.80217064596
 21
833.8747482146439
 31
0.0
  0
LINE
  5
1817D
330
17EC5
100
AcDbEntity
  8
YODOROGO
100
AcDbLine
 10
14396.80217064594
 20
873.8747482146449
 30
0.0
 11
14396.80217064594
 21
909.8747482146439
 31
0.0
  0
LINE
  5
1817E
330
17EC5
100
AcDbEntity
  8
YODOROGO
100
AcDbLine
 10
14328.80217064594
 20
873.8747482146449
 30
0.0
 11
14396.80217064594
 21
873.8747482146449
 31
0.0
  0
LINE
  5
1817F
330
17EC5
100
AcDbEntity
  8
YODOROGO
100
AcDbLine
 10
14364.80217064596
 20
933.8747482146439
 30
0.0
 11
14364.80217064596
 21
961.8747482146432
 31
0.0
  0
LINE
  5
18180
330
17EC5
100
AcDbEntity
  8
YODOROGO
100
AcDbLine
 10
14396.80217064594
 20
933.8747482146439
 30
0.0
 11
14364.80217064596
 21
933.8747482146439
 31
0.0
  0
LINE
  5
18181
330
17EC5
100
AcDbEntity
  8
YODOROGO
100
AcDbLine
 10
14396.80217064594
 20
973.8747482146434
 30
0.0
 11
14396.80217064594
 21
933.8747482146439
 31
0.0
  0
ARC
  5
18182
330
17EC5
100
AcDbEntity
  8
YODOROGO
100
AcDbCircle
 10
14376.80217064594
 20
973.8747482146434
 30
0.0
 40
20.0
100
AcDbArc
 50
0.0
 51
90.0
  0
LINE
  5
18183
330
17EC5
100
AcDbEntity
  8
YODOROGO
100
AcDbLine
 10
14328.80217064596
 20
993.8747482146439
 30
0.0
 11
14376.80217064594
 21
993.8747482146439
 31
0.0
  0
LINE
  5
18184
330
17EC5
100
AcDbEntity
  8
YODOROGO
100
AcDbLine
 10
14328.80217064596
 20
1013.874748214644
 30
0.0
 11
14328.80217064596
 21
993.8747482146439
 31
0.0
  0
LINE
  5
18185
330
17EC5
100
AcDbEntity
  8
YODOROGO
100
AcDbLine
 10
14536.80217064596
 20
1013.874748214644
 30
0.0
 11
14500.80217064594
 21
1013.874748214644
 31
0.0
  0
LINE
  5
18186
330
17EC5
100
AcDbEntity
  8
YODOROGO
100
AcDbLine
 10
14630.80217064596
 20
1003.874748214644
 30
0.0
 11
14598.80217064596
 21
1003.874748214644
 31
0.0
  0
LINE
  5
18187
330
17EC5
100
AcDbEntity
  8
YODOROGO
100
AcDbLine
 10
14728.80217064596
 20
1013.874748214644
 30
0.0
 11
14692.80217064596
 21
1013.874748214644
 31
0.0
  0
LINE
  5
18188
330
17EC5
100
AcDbEntity
  8
YODOROGO
100
AcDbLine
 10
14836.80217064596
 20
853.874748214644
 30
0.0
 11
14836.80217064596
 21
885.8747482146441
 31
0.0
1001
AUTOCAD_POSTSCRIPT_FIGURE
1002
{
1000
PSFILL
1000
Grayscale
1000
Grayscale
1070
    25
1002
}
  0
LINE
  5
18189
330
17EC5
100
AcDbEntity
  8
YODOROGO
100
AcDbLine
 10
14808.80217064596
 20
853.874748214644
 30
0.0
 11
14836.80217064596
 21
853.874748214644
 31
0.0
1001
AUTOCAD_POSTSCRIPT_FIGURE
1002
{
1000
PSFILL
1000
Grayscale
1000
Grayscale
1070
    25
1002
}
  0
LINE
  5
1818A
330
17EC5
100
AcDbEntity
  8
YODOROGO
100
AcDbLine
 10
14808.80217064596
 20
909.8747482146439
 30
0.0
 11
14808.80217064596
 21
853.874748214644
 31
0.0
1001
AUTOCAD_POSTSCRIPT_FIGURE
1002
{
1000
PSFILL
1000
Grayscale
1000
Grayscale
1070
    25
1002
}
  0
LINE
  5
1818B
330
17EC5
100
AcDbEntity
  8
YODOROGO
100
AcDbLine
 10
14882.80217064596
 20
909.8747482146439
 30
0.0
 11
14808.80217064596
 21
909.8747482146439
 31
0.0
1001
AUTOCAD_POSTSCRIPT_FIGURE
1002
{
1000
PSFILL
1000
Grayscale
1000
Grayscale
1070
    25
1002
}
  0
LINE
  5
1818C
330
17EC5
100
AcDbEntity
  8
YODOROGO
100
AcDbLine
 10
14882.80217064596
 20
929.874748214644
 30
0.0
 11
14882.80217064596
 21
909.8747482146439
 31
0.0
1001
AUTOCAD_POSTSCRIPT_FIGURE
1002
{
1000
PSFILL
1000
Grayscale
1000
Grayscale
1070
    25
1002
}
  0
LINE
  5
1818D
330
17EC5
100
AcDbEntity
  8
YODOROGO
100
AcDbLine
 10
14808.80217064596
 20
929.874748214644
 30
0.0
 11
14882.80217064596
 21
929.874748214644
 31
0.0
1001
AUTOCAD_POSTSCRIPT_FIGURE
1002
{
1000
PSFILL
1000
Grayscale
1000
Grayscale
1070
    25
1002
}
  0
LINE
  5
1818E
330
17EC5
100
AcDbEntity
  8
YODOROGO
100
AcDbLine
 10
14808.80217064596
 20
953.874748214644
 30
0.0
 11
14808.80217064596
 21
929.874748214644
 31
0.0
1001
AUTOCAD_POSTSCRIPT_FIGURE
1002
{
1000
PSFILL
1000
Grayscale
1000
Grayscale
1070
    25
1002
}
  0
LINE
  5
1818F
330
17EC5
100
AcDbEntity
  8
YODOROGO
100
AcDbLine
 10
14882.80217064596
 20
953.874748214644
 30
0.0
 11
14808.80217064596
 21
953.874748214644
 31
0.0
1001
AUTOCAD_POSTSCRIPT_FIGURE
1002
{
1000
PSFILL
1000
Grayscale
1000
Grayscale
1070
    25
1002
}
  0
LINE
  5
18190
330
17EC5
100
AcDbEntity
  8
YODOROGO
100
AcDbLine
 10
14882.80217064596
 20
973.8747482146434
 30
0.0
 11
14882.80217064596
 21
953.874748214644
 31
0.0
1001
AUTOCAD_POSTSCRIPT_FIGURE
1002
{
1000
PSFILL
1000
Grayscale
1000
Grayscale
1070
    25
1002
}
  0
LINE
  5
18191
330
17EC5
100
AcDbEntity
  8
YODOROGO
100
AcDbLine
 10
14808.80217064596
 20
973.8747482146434
 30
0.0
 11
14882.80217064596
 21
973.8747482146434
 31
0.0
1001
AUTOCAD_POSTSCRIPT_FIGURE
1002
{
1000
PSFILL
1000
Grayscale
1000
Grayscale
1070
    25
1002
}
  0
LINE
  5
18192
330
17EC5
100
AcDbEntity
  8
YODOROGO
100
AcDbLine
 10
14808.80217064596
 20
1013.874748214644
 30
0.0
 11
14808.80217064596
 21
973.8747482146434
 31
0.0
1001
AUTOCAD_POSTSCRIPT_FIGURE
1002
{
1000
PSFILL
1000
Grayscale
1000
Grayscale
1070
    25
1002
}
  0
LINE
  5
18193
330
17EC5
100
AcDbEntity
  8
YODOROGO
100
AcDbLine
 10
14832.80217064596
 20
1013.874748214644
 30
0.0
 11
14808.80217064596
 21
1013.874748214644
 31
0.0
1001
AUTOCAD_POSTSCRIPT_FIGURE
1002
{
1000
PSFILL
1000
Grayscale
1000
Grayscale
1070
    25
1002
}
  0
LINE
  5
18194
330
17EC5
100
AcDbEntity
  8
YODOROGO
100
AcDbLine
 10
14832.80217064596
 20
997.8747482146435
 30
0.0
 11
14832.80217064596
 21
1013.874748214644
 31
0.0
1001
AUTOCAD_POSTSCRIPT_FIGURE
1002
{
1000
PSFILL
1000
Grayscale
1000
Grayscale
1070
    25
1002
}
  0
LINE
  5
18195
330
17EC5
100
AcDbEntity
  8
YODOROGO
100
AcDbLine
 10
14882.80217064596
 20
997.8747482146435
 30
0.0
 11
14832.80217064596
 21
997.8747482146435
 31
0.0
1001
AUTOCAD_POSTSCRIPT_FIGURE
1002
{
1000
PSFILL
1000
Grayscale
1000
Grayscale
1070
    25
1002
}
  0
LINE
  5
18196
330
17EC5
100
AcDbEntity
  8
YODOROGO
100
AcDbLine
 10
14882.80217064596
 20
1013.874748214644
 30
0.0
 11
14882.80217064596
 21
997.8747482146435
 31
0.0
1001
AUTOCAD_POSTSCRIPT_FIGURE
1002
{
1000
PSFILL
1000
Grayscale
1000
Grayscale
1070
    25
1002
}
  0
LINE
  5
18197
330
17EC5
100
AcDbEntity
  8
YODOROGO
100
AcDbLine
 10
14914.80217064596
 20
1013.874748214644
 30
0.0
 11
14882.80217064596
 21
1013.874748214644
 31
0.0
1001
AUTOCAD_POSTSCRIPT_FIGURE
1002
{
1000
PSFILL
1000
Grayscale
1000
Grayscale
1070
    25
1002
}
  0
LINE
  5
18198
330
17EC5
100
AcDbEntity
  8
YODOROGO
100
AcDbLine
 10
14914.80217064596
 20
997.8747482146435
 30
0.0
 11
14914.80217064596
 21
1013.874748214644
 31
0.0
1001
AUTOCAD_POSTSCRIPT_FIGURE
1002
{
1000
PSFILL
1000
Grayscale
1000
Grayscale
1070
    25
1002
}
  0
LINE
  5
18199
330
17EC5
100
AcDbEntity
  8
YODOROGO
100
AcDbLine
 10
14914.80217064596
 20
953.874748214644
 30
0.0
 11
14914.80217064596
 21
973.8747482146434
 31
0.0
1001
AUTOCAD_POSTSCRIPT_FIGURE
1002
{
1000
PSFILL
1000
Grayscale
1000
Grayscale
1070
    25
1002
}
  0
LINE
  5
1819A
330
17EC5
100
AcDbEntity
  8
YODOROGO
100
AcDbLine
 10
14914.80217064596
 20
909.8747482146439
 30
0.0
 11
14914.80217064596
 21
929.874748214644
 31
0.0
1001
AUTOCAD_POSTSCRIPT_FIGURE
1002
{
1000
PSFILL
1000
Grayscale
1000
Grayscale
1070
    25
1002
}
  0
LINE
  5
1819B
330
17EC5
100
AcDbEntity
  8
YODOROGO
100
AcDbLine
 10
14960.80217064594
 20
885.8747482146441
 30
0.0
 11
14960.80217064594
 21
853.874748214644
 31
0.0
1001
AUTOCAD_POSTSCRIPT_FIGURE
1002
{
1000
PSFILL
1000
Grayscale
1000
Grayscale
1070
    25
1002
}
  0
LINE
  5
1819C
330
17EC5
100
AcDbEntity
  8
YODOROGO
100
AcDbLine
 10
14914.80217064596
 20
885.8747482146441
 30
0.0
 11
14960.80217064594
 21
885.8747482146441
 31
0.0
1001
AUTOCAD_POSTSCRIPT_FIGURE
1002
{
1000
PSFILL
1000
Grayscale
1000
Grayscale
1070
    25
1002
}
  0
LINE
  5
1819D
330
17EC5
100
AcDbEntity
  8
YODOROGO
100
AcDbLine
 10
14914.80217064596
 20
853.874748214644
 30
0.0
 11
14914.80217064596
 21
885.8747482146441
 31
0.0
1001
AUTOCAD_POSTSCRIPT_FIGURE
1002
{
1000
PSFILL
1000
Grayscale
1000
Grayscale
1070
    25
1002
}
  0
LINE
  5
1819E
330
17EC5
100
AcDbEntity
  8
YODOROGO
100
AcDbLine
 10
14882.80217064596
 20
853.874748214644
 30
0.0
 11
14914.80217064596
 21
853.874748214644
 31
0.0
1001
AUTOCAD_POSTSCRIPT_FIGURE
1002
{
1000
PSFILL
1000
Grayscale
1000
Grayscale
1070
    25
1002
}
  0
LINE
  5
1819F
330
17EC5
100
AcDbEntity
  8
YODOROGO
100
AcDbLine
 10
14882.80217064596
 20
885.8747482146441
 30
0.0
 11
14882.80217064596
 21
853.874748214644
 31
0.0
1001
AUTOCAD_POSTSCRIPT_FIGURE
1002
{
1000
PSFILL
1000
Grayscale
1000
Grayscale
1070
    25
1002
}
  0
LINE
  5
181A0
330
17EC5
100
AcDbEntity
  8
YODOROGO
100
AcDbLine
 10
14836.80217064596
 20
885.8747482146441
 30
0.0
 11
14882.80217064596
 21
885.8747482146441
 31
0.0
1001
AUTOCAD_POSTSCRIPT_FIGURE
1002
{
1000
PSFILL
1000
Grayscale
1000
Grayscale
1070
    25
1002
}
  0
ARC
  5
181A1
330
17EC5
100
AcDbEntity
  8
YODOROGO
100
AcDbCircle
 10
15529.75894667896
 20
801.3403687577881
 30
0.0
 40
89.11064055536078
100
AcDbArc
 50
281.0262749542535
 51
357.771135755738
  0
LINE
  5
181A2
330
17EC5
100
AcDbEntity
  8
YODOROGO
100
AcDbLine
 10
15706.80217064596
 20
953.874748214644
 30
0.0
 11
15582.80217064596
 21
953.874748214644
 31
0.0
  0
LINE
  5
181A3
330
17EC5
100
AcDbEntity
  8
YODOROGO
100
AcDbLine
 10
15706.80217064596
 20
1013.874748214644
 30
0.0
 11
15582.80217064596
 21
1013.874748214644
 31
0.0
  0
LINE
  5
181A4
330
17EC5
100
AcDbEntity
  8
YODOROGO
100
AcDbLine
 10
15582.80217064596
 20
981.8747482146434
 30
0.0
 11
15706.80217064596
 21
981.8747482146434
 31
0.0
  0
LINE
  5
181A5
330
17EC5
100
AcDbEntity
  8
YODOROGO
100
AcDbLine
 10
15395.80217064596
 20
781.8747482146434
 30
0.0
 11
15395.80217064596
 21
877.8747482146435
 31
0.0
  0
LINE
  5
181A6
330
17EC5
100
AcDbEntity
  8
YODOROGO
100
AcDbLine
 10
15381.80217064596
 20
845.8747482146444
 30
0.0
 11
15381.80217064596
 21
781.8747482146434
 31
0.0
  0
LINE
  5
181A7
330
17EC5
100
AcDbEntity
  8
YODOROGO
100
AcDbLine
 10
15361.80217064596
 20
745.8747482146443
 30
0.0
 11
15361.80217064596
 21
845.8747482146444
 31
0.0
  0
LINE
  5
181A8
330
17EC5
100
AcDbEntity
  8
YODOROGO
100
AcDbLine
 10
15449.80217064596
 20
845.8747482146444
 30
0.0
 11
15449.80217064596
 21
745.8747482146443
 31
0.0
  0
LINE
  5
181A9
330
17EC5
100
AcDbEntity
  8
YODOROGO
100
AcDbLine
 10
15429.80217064596
 20
781.8747482146434
 30
0.0
 11
15429.80217064596
 21
845.8747482146444
 31
0.0
  0
LINE
  5
181AA
330
17EC5
100
AcDbEntity
  8
YODOROGO
100
AcDbLine
 10
15415.80217064596
 20
877.8747482146435
 30
0.0
 11
15415.80217064596
 21
781.8747482146434
 31
0.0
  0
LINE
  5
181AB
330
17EC5
100
AcDbEntity
  8
YODOROGO
100
AcDbLine
 10
15486.80217064596
 20
1013.874748214644
 30
0.0
 11
15486.80217064596
 21
733.8747482146435
 31
0.0
  0
LINE
  5
181AC
330
17EC5
100
AcDbEntity
  8
YODOROGO
100
AcDbLine
 10
15322.80217064596
 20
713.8747482146436
 30
0.0
 11
15322.80217064596
 21
1013.874748214644
 31
0.0
  0
LINE
  5
181AD
330
17EC5
100
AcDbEntity
  8
YODOROGO
100
AcDbLine
 10
15348.80217064596
 20
981.8747482146434
 30
0.0
 11
15348.80217064596
 21
713.8747482146436
 31
0.0
  0
LINE
  5
181AE
330
17EC5
100
AcDbEntity
  8
YODOROGO
100
AcDbLine
 10
15462.80217064596
 20
773.874748214644
 30
0.0
 11
15462.80217064596
 21
981.8747482146434
 31
0.0
  0
LINE
  5
181AF
330
17EC5
100
AcDbEntity
  8
YODOROGO
100
AcDbLine
 10
15190.80217064596
 20
813.8747482146435
 30
0.0
 11
15190.80217064596
 21
839.8747482146442
 31
0.0
  0
LINE
  5
181B0
330
17EC5
100
AcDbEntity
  8
YODOROGO
100
AcDbLine
 10
15308.80217064596
 20
839.8747482146442
 30
0.0
 11
15308.80217064596
 21
813.8747482146435
 31
0.0
  0
LINE
  5
181B1
330
17EC5
100
AcDbEntity
  8
YODOROGO
100
AcDbLine
 10
15582.80217064596
 20
953.874748214644
 30
0.0
 11
15582.80217064596
 21
817.8747482146436
 31
0.0
  0
LINE
  5
181B2
330
17EC5
100
AcDbEntity
  8
YODOROGO
100
AcDbLine
 10
14974.80217064595
 20
833.8747482146439
 30
0.0
 11
14974.80217064595
 21
853.874748214644
 31
0.0
  0
LINE
  5
181B3
330
17EC5
100
AcDbEntity
  8
YODOROGO
100
AcDbLine
 10
14974.80217064595
 20
833.8747482146439
 30
0.0
 11
14974.80217064595
 21
853.874748214644
 31
0.0
  0
ARC
  5
181B4
330
17EC5
100
AcDbEntity
  8
YODOROGO
100
AcDbCircle
 10
15268.80217064596
 20
753.8747482146439
 30
0.0
 40
40.0
100
AcDbArc
 50
270.0
 51
0.0
  0
LINE
  5
181B5
330
17EC5
100
AcDbEntity
  8
YODOROGO
100
AcDbLine
 10
15284.80217064596
 20
799.8747482146441
 30
0.0
 11
15308.80217064596
 21
799.8747482146441
 31
0.0
  0
LINE
  5
181B6
330
17EC5
100
AcDbEntity
  8
YODOROGO
100
AcDbLine
 10
15308.80217064596
 20
813.8747482146435
 30
0.0
 11
15264.80217064596
 21
813.8747482146435
 31
0.0
  0
LINE
  5
181B7
330
17EC5
100
AcDbEntity
  8
YODOROGO
100
AcDbLine
 10
15108.80217064596
 20
833.8747482146439
 30
0.0
 11
14974.80217064595
 21
833.8747482146439
 31
0.0
  0
LINE
  5
181B8
330
17EC5
100
AcDbEntity
  8
YODOROGO
100
AcDbLine
 10
15108.80217064596
 20
813.8747482146435
 30
0.0
 11
15108.80217064596
 21
833.8747482146439
 31
0.0
  0
LINE
  5
181B9
330
17EC5
100
AcDbEntity
  8
YODOROGO
100
AcDbLine
 10
15008.80217064596
 20
813.8747482146435
 30
0.0
 11
15108.80217064596
 21
813.8747482146435
 31
0.0
  0
ARC
  5
181BA
330
17EC5
100
AcDbEntity
  8
YODOROGO
100
AcDbCircle
 10
15115.02941435068
 20
934.4428574764513
 30
0.0
 40
160.6888181426141
100
AcDbArc
 50
228.6181454618993
 51
245.660289248906
  0
LINE
  5
181BB
330
17EC5
100
AcDbEntity
  8
YODOROGO
100
AcDbLine
 10
15052.80217064596
 20
801.8747482146444
 30
0.0
 11
15048.80217064598
 21
788.0364079349501
 31
0.0
  0
LINE
  5
181BC
330
17EC5
100
AcDbEntity
  8
YODOROGO
100
AcDbLine
 10
15094.80217064596
 20
801.8747482146444
 30
0.0
 11
15052.80217064596
 21
801.8747482146444
 31
0.0
  0
LINE
  5
181BD
330
17EC5
100
AcDbEntity
  8
YODOROGO
100
AcDbLine
 10
15088.80217064596
 20
775.9088612367134
 30
0.0
 11
15094.80217064596
 21
801.8747482146444
 31
0.0
  0
ARC
  5
181BE
330
17EC5
100
AcDbEntity
  8
YODOROGO
100
AcDbCircle
 10
15115.02941435023
 20
934.4428574765014
 30
0.0
 40
160.6888181426453
100
AcDbArc
 50
260.6062929796992
 51
267.7790355655586
  0
LINE
  5
181BF
330
17EC5
100
AcDbEntity
  8
YODOROGO
100
AcDbLine
 10
15108.80217064596
 20
713.8747482146428
 30
0.0
 11
15108.80217064596
 21
773.874748214644
 31
0.0
  0
LINE
  5
181C0
330
17EC5
100
AcDbEntity
  8
YODOROGO
100
AcDbLine
 10
14968.80217064596
 20
740.6696674577553
 30
0.0
 11
14968.80217064596
 21
797.2655452655705
 31
0.0
  0
LINE
  5
181C1
330
17EC5
100
AcDbEntity
  8
YODOROGO
100
AcDbLine
 10
15108.80217064596
 20
833.8747482146439
 30
0.0
 11
14974.80217064595
 21
833.8747482146439
 31
0.0
  0
LINE
  5
181C2
330
17EC5
100
AcDbEntity
  8
YODOROGO
100
AcDbLine
 10
15108.80217064596
 20
813.8747482146435
 30
0.0
 11
15108.80217064596
 21
833.8747482146439
 31
0.0
  0
LINE
  5
181C3
330
17EC5
100
AcDbEntity
  8
YODOROGO
100
AcDbLine
 10
15008.80217064596
 20
813.8747482146435
 30
0.0
 11
15108.80217064596
 21
813.8747482146435
 31
0.0
  0
ARC
  5
181C4
330
17EC5
100
AcDbEntity
  8
YODOROGO
100
AcDbCircle
 10
15115.02941435068
 20
934.4428574764513
 30
0.0
 40
160.6888181426141
100
AcDbArc
 50
228.6181454618993
 51
245.660289248906
  0
LINE
  5
181C5
330
17EC5
100
AcDbEntity
  8
YODOROGO
100
AcDbLine
 10
15052.80217064596
 20
801.8747482146444
 30
0.0
 11
15048.80217064598
 21
788.0364079349501
 31
0.0
  0
LINE
  5
181C6
330
17EC5
100
AcDbEntity
  8
YODOROGO
100
AcDbLine
 10
15094.80217064596
 20
801.8747482146444
 30
0.0
 11
15052.80217064596
 21
801.8747482146444
 31
0.0
  0
LINE
  5
181C7
330
17EC5
100
AcDbEntity
  8
YODOROGO
100
AcDbLine
 10
15088.80217064596
 20
775.9088612367134
 30
0.0
 11
15094.80217064596
 21
801.8747482146444
 31
0.0
  0
ARC
  5
181C8
330
17EC5
100
AcDbEntity
  8
YODOROGO
100
AcDbCircle
 10
15115.02941435023
 20
934.4428574765014
 30
0.0
 40
160.6888181426453
100
AcDbArc
 50
260.6062929796992
 51
267.7790355655586
  0
LINE
  5
181C9
330
17EC5
100
AcDbEntity
  8
YODOROGO
100
AcDbLine
 10
15108.80217064596
 20
713.8747482146428
 30
0.0
 11
15108.80217064596
 21
773.874748214644
 31
0.0
  0
LINE
  5
181CA
330
17EC5
100
AcDbEntity
  8
YODOROGO
100
AcDbLine
 10
14968.80217064596
 20
740.6696674577553
 30
0.0
 11
14968.80217064596
 21
797.2655452655705
 31
0.0
  0
LINE
  5
181CB
330
17EC5
100
AcDbEntity
  8
YODOROGO
100
AcDbLine
 10
15216.80217064596
 20
786.8747482146444
 30
0.0
 11
15190.80217064596
 21
786.8747482146444
 31
0.0
  0
LINE
  5
181CC
330
17EC5
100
AcDbEntity
  8
YODOROGO
100
AcDbLine
 10
15216.80217064596
 20
800.8747482146432
 30
0.0
 11
15216.80217064596
 21
786.8747482146444
 31
0.0
  0
LINE
  5
181CD
330
17EC5
100
AcDbEntity
  8
YODOROGO
100
AcDbLine
 10
15190.80217064596
 20
800.8747482146432
 30
0.0
 11
15216.80217064596
 21
800.8747482146432
 31
0.0
  0
LINE
  5
181CE
330
17EC5
100
AcDbEntity
  8
YODOROGO
100
AcDbLine
 10
15190.80217064596
 20
786.8747482146444
 30
0.0
 11
15190.80217064596
 21
800.8747482146432
 31
0.0
  0
LINE
  5
181CF
330
17EC5
100
AcDbEntity
  8
YODOROGO
100
AcDbLine
 10
15214.80217064596
 20
788.8747482146436
 30
0.0
 11
15192.80217064595
 21
788.8747482146436
 31
0.0
  0
LINE
  5
181D0
330
17EC5
100
AcDbEntity
  8
YODOROGO
100
AcDbLine
 10
15214.80217064596
 20
798.874748214644
 30
0.0
 11
15214.80217064596
 21
788.8747482146436
 31
0.0
  0
LINE
  5
181D1
330
17EC5
100
AcDbEntity
  8
YODOROGO
100
AcDbLine
 10
15192.80217064595
 20
798.874748214644
 30
0.0
 11
15214.80217064596
 21
798.874748214644
 31
0.0
  0
LINE
  5
181D2
330
17EC5
100
AcDbEntity
  8
YODOROGO
100
AcDbLine
 10
15192.80217064595
 20
788.8747482146436
 30
0.0
 11
15192.80217064595
 21
798.874748214644
 31
0.0
  0
LINE
  5
181D3
330
17EC5
100
AcDbEntity
  8
YODOROGO
100
AcDbLine
 10
15212.80217064596
 20
790.8747482146432
 30
0.0
 11
15194.80217064596
 21
790.8747482146432
 31
0.0
  0
LINE
  5
181D4
330
17EC5
100
AcDbEntity
  8
YODOROGO
100
AcDbLine
 10
15212.80217064596
 20
796.8747482146445
 30
0.0
 11
15212.80217064596
 21
790.8747482146432
 31
0.0
  0
LINE
  5
181D5
330
17EC5
100
AcDbEntity
  8
YODOROGO
100
AcDbLine
 10
15194.80217064596
 20
796.8747482146445
 30
0.0
 11
15212.80217064596
 21
796.8747482146445
 31
0.0
  0
LINE
  5
181D6
330
17EC5
100
AcDbEntity
  8
YODOROGO
100
AcDbLine
 10
15194.80217064596
 20
790.8747482146432
 30
0.0
 11
15194.80217064596
 21
796.8747482146445
 31
0.0
  0
LINE
  5
181D7
330
17EC5
100
AcDbEntity
  8
YODOROGO
100
AcDbLine
 10
15210.80217064596
 20
792.8747482146435
 30
0.0
 11
15196.80217064596
 21
792.8747482146435
 31
0.0
  0
LINE
  5
181D8
330
17EC5
100
AcDbEntity
  8
YODOROGO
100
AcDbLine
 10
15210.80217064596
 20
794.8747482146441
 30
0.0
 11
15210.80217064596
 21
792.8747482146435
 31
0.0
  0
LINE
  5
181D9
330
17EC5
100
AcDbEntity
  8
YODOROGO
100
AcDbLine
 10
15196.80217064596
 20
794.8747482146441
 30
0.0
 11
15210.80217064596
 21
794.8747482146441
 31
0.0
  0
LINE
  5
181DA
330
17EC5
100
AcDbEntity
  8
YODOROGO
100
AcDbLine
 10
15196.80217064596
 20
792.8747482146435
 30
0.0
 11
15196.80217064596
 21
794.8747482146441
 31
0.0
  0
LINE
  5
181DB
330
17EC5
100
AcDbEntity
  8
YODOROGO
100
AcDbLine
 10
15232.80217064596
 20
813.8747482146435
 30
0.0
 11
15190.80217064596
 21
813.8747482146435
 31
0.0
  0
LINE
  5
181DC
330
17EC5
100
AcDbEntity
  8
YODOROGO
100
AcDbLine
 10
15232.80217064596
 20
773.874748214644
 30
0.0
 11
15232.80217064596
 21
813.8747482146435
 31
0.0
  0
LINE
  5
181DD
330
17EC5
100
AcDbEntity
  8
YODOROGO
100
AcDbLine
 10
15190.80217064596
 20
773.874748214644
 30
0.0
 11
15232.80217064596
 21
773.874748214644
 31
0.0
  0
LINE
  5
181DE
330
17EC5
100
AcDbEntity
  8
YODOROGO
100
AcDbLine
 10
15190.80217064596
 20
713.8747482146436
 30
0.0
 11
15190.80217064596
 21
773.874748214644
 31
0.0
  0
LINE
  5
181DF
330
17EC5
100
AcDbEntity
  8
YODOROGO
100
AcDbLine
 10
15268.80217064596
 20
713.8747482146436
 30
0.0
 11
15190.80217064596
 21
713.8747482146436
 31
0.0
  0
LINE
  5
181E0
330
17EC5
100
AcDbEntity
  8
YODOROGO
100
AcDbLine
 10
15284.80217064596
 20
785.8747482146432
 30
0.0
 11
15284.80217064596
 21
799.8747482146441
 31
0.0
  0
ARC
  5
181E1
330
17EC5
100
AcDbEntity
  8
YODOROGO
100
AcDbCircle
 10
15272.80217064594
 20
785.8747482146457
 30
0.0
 40
12.00000000000187
100
AcDbArc
 50
270.0
 51
359.9999999999877
  0
LINE
  5
181E2
330
17EC5
100
AcDbEntity
  8
YODOROGO
100
AcDbLine
 10
15264.80217064596
 20
773.874748214644
 30
0.0
 11
15272.80217064594
 21
773.874748214644
 31
0.0
  0
LINE
  5
181E3
330
17EC5
100
AcDbEntity
  8
YODOROGO
100
AcDbLine
 10
15264.80217064596
 20
813.8747482146435
 30
0.0
 11
15264.80217064596
 21
773.874748214644
 31
0.0
  0
LINE
  5
181E4
330
17EC5
100
AcDbEntity
  8
YODOROGO
100
AcDbLine
 10
15449.80217064596
 20
773.874748214644
 30
0.0
 11
15462.80217064596
 21
773.874748214644
 31
0.0
  0
LINE
  5
181E5
330
17EC5
100
AcDbEntity
  8
YODOROGO
100
AcDbLine
 10
15466.80217064596
 20
713.8747482146436
 30
0.0
 11
15449.80217064596
 21
713.8747482146436
 31
0.0
  0
LINE
  5
181E6
330
17EC5
100
AcDbEntity
  8
YODOROGO
100
AcDbLine
 10
15381.80217064596
 20
781.8747482146434
 30
0.0
 11
15395.80217064596
 21
781.8747482146434
 31
0.0
  0
LINE
  5
181E7
330
17EC5
100
AcDbEntity
  8
YODOROGO
100
AcDbLine
 10
15449.80217064596
 20
745.8747482146443
 30
0.0
 11
15361.80217064596
 21
745.8747482146443
 31
0.0
  0
LINE
  5
181E8
330
17EC5
100
AcDbEntity
  8
YODOROGO
100
AcDbLine
 10
15415.80217064596
 20
781.8747482146434
 30
0.0
 11
15429.80217064596
 21
781.8747482146434
 31
0.0
  0
LINE
  5
181E9
330
17EC5
100
AcDbEntity
  8
YODOROGO
100
AcDbLine
 10
15449.80217064596
 20
713.8747482146436
 30
0.0
 11
15449.80217064596
 21
773.874748214644
 31
0.0
  0
LINE
  5
181EA
330
17EC5
100
AcDbEntity
  8
YODOROGO
100
AcDbLine
 10
15348.80217064596
 20
713.8747482146436
 30
0.0
 11
15322.80217064596
 21
713.8747482146436
 31
0.0
  0
LINE
  5
181EB
330
17EC5
100
AcDbEntity
  8
YODOROGO
100
AcDbLine
 10
15308.80217064596
 20
799.8747482146441
 30
0.0
 11
15308.80217064596
 21
753.8747482146439
 31
0.0
  0
ARC
  5
181EC
330
17EC5
100
AcDbEntity
  8
YODOROGO
100
AcDbCircle
 10
15466.80217064596
 20
733.8747482146435
 30
0.0
 40
20.0
100
AcDbArc
 50
270.0
 51
0.0
  0
LINE
  5
181ED
330
17EC5
100
AcDbEntity
  8
YODOROGO
100
AcDbLine
 10
15546.80217064596
 20
761.8747482146434
 30
0.0
 11
15546.80217064596
 21
713.8747482146436
 31
0.0
  0
ARC
  5
181EE
330
17EC5
100
AcDbEntity
  8
YODOROGO
100
AcDbCircle
 10
15519.86069778339
 20
818.7656950548664
 30
0.0
 40
62.94777829583771
100
AcDbArc
 50
295.3405244216011
 51
359.1890230341867
  0
LINE
  5
181EF
330
17EC5
100
AcDbEntity
  8
YODOROGO
100
AcDbLine
 10
15308.80217064596
 20
929.874748214644
 30
0.0
 11
15248.80217064596
 21
969.8747482146441
 31
0.0
  0
LINE
  5
181F0
330
17EC5
100
AcDbEntity
  8
YODOROGO
100
AcDbLine
 10
15248.80217064596
 20
1013.874748214644
 30
0.0
 11
15308.80217064596
 21
973.8747482146434
 31
0.0
  0
LINE
  5
181F1
330
17EC5
100
AcDbEntity
  8
YODOROGO
100
AcDbLine
 10
15264.80217064596
 20
839.8747482146442
 30
0.0
 11
15308.80217064596
 21
839.8747482146442
 31
0.0
  0
LINE
  5
181F2
330
17EC5
100
AcDbEntity
  8
YODOROGO
100
AcDbLine
 10
15308.80217064596
 20
867.8747482146436
 30
0.0
 11
15264.80217064596
 21
867.8747482146436
 31
0.0
  0
LINE
  5
181F3
330
17EC5
100
AcDbEntity
  8
YODOROGO
100
AcDbLine
 10
15190.80217064596
 20
897.8747482146435
 30
0.0
 11
15308.80217064596
 21
897.8747482146435
 31
0.0
  0
LINE
  5
181F4
330
17EC5
100
AcDbEntity
  8
YODOROGO
100
AcDbLine
 10
15040.80217064596
 20
1013.874748214644
 30
0.0
 11
15010.80217064596
 21
1013.874748214644
 31
0.0
  0
LINE
  5
181F5
330
17EC5
100
AcDbEntity
  8
YODOROGO
100
AcDbLine
 10
15040.80217064596
 20
913.8747482146435
 30
0.0
 11
15040.80217064596
 21
1013.874748214644
 31
0.0
  0
LINE
  5
181F6
330
17EC5
100
AcDbEntity
  8
YODOROGO
100
AcDbLine
 10
15010.80217064596
 20
913.8747482146435
 30
0.0
 11
15040.80217064596
 21
913.8747482146435
 31
0.0
  0
LINE
  5
181F7
330
17EC5
100
AcDbEntity
  8
YODOROGO
100
AcDbLine
 10
15010.80217064596
 20
1013.874748214644
 30
0.0
 11
15010.80217064596
 21
913.8747482146435
 31
0.0
  0
LINE
  5
181F8
330
17EC5
100
AcDbEntity
  8
YODOROGO
100
AcDbLine
 10
15080.80217064596
 20
1013.874748214644
 30
0.0
 11
15108.80217064596
 21
1013.874748214644
 31
0.0
  0
LINE
  5
181F9
330
17EC5
100
AcDbEntity
  8
YODOROGO
100
AcDbLine
 10
15080.80217064596
 20
905.8747482146443
 30
0.0
 11
15080.80217064596
 21
1013.874748214644
 31
0.0
  0
ARC
  5
181FA
330
17EC5
100
AcDbEntity
  8
YODOROGO
100
AcDbCircle
 10
15060.80217064596
 20
905.8747482146443
 30
0.0
 40
20.0
100
AcDbArc
 50
270.0
 51
0.0
  0
LINE
  5
181FB
330
17EC5
100
AcDbEntity
  8
YODOROGO
100
AcDbLine
 10
15010.80217064596
 20
885.8747482146441
 30
0.0
 11
15060.80217064596
 21
885.8747482146441
 31
0.0
  0
LINE
  5
181FC
330
17EC5
100
AcDbEntity
  8
YODOROGO
100
AcDbLine
 10
15010.80217064596
 20
853.874748214644
 30
0.0
 11
15010.80217064596
 21
885.8747482146441
 31
0.0
  0
LINE
  5
181FD
330
17EC5
100
AcDbEntity
  8
YODOROGO
100
AcDbLine
 10
15068.80217064596
 20
853.874748214644
 30
0.0
 11
15010.80217064596
 21
853.874748214644
 31
0.0
  0
ARC
  5
181FE
330
17EC5
100
AcDbEntity
  8
YODOROGO
100
AcDbCircle
 10
15068.80217064596
 20
893.8747482146439
 30
0.0
 40
40.0
100
AcDbArc
 50
270.0
 51
0.0
  0
LINE
  5
181FF
330
17EC5
100
AcDbEntity
  8
YODOROGO
100
AcDbLine
 10
15108.80217064596
 20
1013.874748214644
 30
0.0
 11
15108.80217064596
 21
893.8747482146439
 31
0.0
  0
LINE
  5
18200
330
17EC5
100
AcDbEntity
  8
YODOROGO
100
AcDbLine
 10
14988.80217064596
 20
973.8747482146434
 30
0.0
 11
14988.80217064596
 21
997.8747482146435
 31
0.0
1001
AUTOCAD_POSTSCRIPT_FIGURE
1002
{
1000
PSFILL
1000
Grayscale
1000
Grayscale
1070
    25
1002
}
  0
LINE
  5
18201
330
17EC5
100
AcDbEntity
  8
YODOROGO
100
AcDbLine
 10
14988.80217064596
 20
929.874748214644
 30
0.0
 11
14988.80217064596
 21
953.874748214644
 31
0.0
1001
AUTOCAD_POSTSCRIPT_FIGURE
1002
{
1000
PSFILL
1000
Grayscale
1000
Grayscale
1070
    25
1002
}
  0
LINE
  5
18202
330
17EC5
100
AcDbEntity
  8
YODOROGO
100
AcDbLine
 10
14988.80217064596
 20
853.874748214644
 30
0.0
 11
14988.80217064596
 21
909.8747482146439
 31
0.0
1001
AUTOCAD_POSTSCRIPT_FIGURE
1002
{
1000
PSFILL
1000
Grayscale
1000
Grayscale
1070
    25
1002
}
  0
LINE
  5
18203
330
17EC5
100
AcDbEntity
  8
YODOROGO
100
AcDbLine
 10
15190.80217064596
 20
953.874748214644
 30
0.0
 11
15248.80217064596
 21
1013.874748214644
 31
0.0
  0
LINE
  5
18204
330
17EC5
100
AcDbEntity
  8
YODOROGO
100
AcDbLine
 10
15190.80217064596
 20
909.8747482146439
 30
0.0
 11
15190.80217064596
 21
953.874748214644
 31
0.0
  0
LINE
  5
18205
330
17EC5
100
AcDbEntity
  8
YODOROGO
100
AcDbLine
 10
15248.80217064596
 20
969.8747482146441
 30
0.0
 11
15190.80217064596
 21
909.8747482146439
 31
0.0
  0
LINE
  5
18206
330
17EC5
100
AcDbEntity
  8
YODOROGO
100
AcDbLine
 10
15232.80217064596
 20
839.8747482146442
 30
0.0
 11
15232.80217064596
 21
867.8747482146436
 31
0.0
  0
LINE
  5
18207
330
17EC5
100
AcDbEntity
  8
YODOROGO
100
AcDbLine
 10
15190.80217064596
 20
839.8747482146442
 30
0.0
 11
15232.80217064596
 21
839.8747482146442
 31
0.0
  0
LINE
  5
18208
330
17EC5
100
AcDbEntity
  8
YODOROGO
100
AcDbLine
 10
15264.80217064596
 20
867.8747482146436
 30
0.0
 11
15264.80217064596
 21
839.8747482146442
 31
0.0
  0
LINE
  5
18209
330
17EC5
100
AcDbEntity
  8
YODOROGO
100
AcDbLine
 10
15190.80217064596
 20
867.8747482146436
 30
0.0
 11
15190.80217064596
 21
897.8747482146435
 31
0.0
  0
LINE
  5
1820A
330
17EC5
100
AcDbEntity
  8
YODOROGO
100
AcDbLine
 10
15232.80217064596
 20
867.8747482146436
 30
0.0
 11
15190.80217064596
 21
867.8747482146436
 31
0.0
  0
LINE
  5
1820B
330
17EC5
100
AcDbEntity
  8
YODOROGO
100
AcDbLine
 10
15322.80217064596
 20
1013.874748214644
 30
0.0
 11
15486.80217064596
 21
1013.874748214644
 31
0.0
  0
LINE
  5
1820C
330
17EC5
100
AcDbEntity
  8
YODOROGO
100
AcDbLine
 10
15462.80217064596
 20
981.8747482146434
 30
0.0
 11
15348.80217064596
 21
981.8747482146434
 31
0.0
  0
LINE
  5
1820D
330
17EC5
100
AcDbEntity
  8
YODOROGO
100
AcDbLine
 10
15436.80217064595
 20
909.8747482146439
 30
0.0
 11
15449.80217064596
 21
909.8747482146439
 31
0.0
  0
LINE
  5
1820E
330
17EC5
100
AcDbEntity
  8
YODOROGO
100
AcDbLine
 10
15449.80217064596
 20
969.8747482146441
 30
0.0
 11
15436.80217064595
 21
909.8747482146439
 31
0.0
  0
LINE
  5
1820F
330
17EC5
100
AcDbEntity
  8
YODOROGO
100
AcDbLine
 10
15425.80217064596
 20
969.8747482146441
 30
0.0
 11
15449.80217064596
 21
969.8747482146441
 31
0.0
  0
LINE
  5
18210
330
17EC5
100
AcDbEntity
  8
YODOROGO
100
AcDbLine
 10
15412.80217064596
 20
909.8747482146439
 30
0.0
 11
15425.80217064596
 21
969.8747482146441
 31
0.0
  0
LINE
  5
18211
330
17EC5
100
AcDbEntity
  8
YODOROGO
100
AcDbLine
 10
15398.80217064596
 20
909.8747482146439
 30
0.0
 11
15412.80217064596
 21
909.8747482146439
 31
0.0
  0
LINE
  5
18212
330
17EC5
100
AcDbEntity
  8
YODOROGO
100
AcDbLine
 10
15385.80217064596
 20
969.8747482146441
 30
0.0
 11
15398.80217064596
 21
909.8747482146439
 31
0.0
  0
LINE
  5
18213
330
17EC5
100
AcDbEntity
  8
YODOROGO
100
AcDbLine
 10
15361.80217064596
 20
969.8747482146441
 30
0.0
 11
15385.80217064596
 21
969.8747482146441
 31
0.0
  0
LINE
  5
18214
330
17EC5
100
AcDbEntity
  8
YODOROGO
100
AcDbLine
 10
15374.80217064596
 20
909.8747482146439
 30
0.0
 11
15361.80217064596
 21
969.8747482146441
 31
0.0
  0
LINE
  5
18215
330
17EC5
100
AcDbEntity
  8
YODOROGO
100
AcDbLine
 10
15361.80217064596
 20
909.8747482146439
 30
0.0
 11
15374.80217064596
 21
909.8747482146439
 31
0.0
  0
LINE
  5
18216
330
17EC5
100
AcDbEntity
  8
YODOROGO
100
AcDbLine
 10
15361.80217064596
 20
877.8747482146435
 30
0.0
 11
15361.80217064596
 21
909.8747482146439
 31
0.0
  0
LINE
  5
18217
330
17EC5
100
AcDbEntity
  8
YODOROGO
100
AcDbLine
 10
15449.80217064596
 20
877.8747482146435
 30
0.0
 11
15361.80217064596
 21
877.8747482146435
 31
0.0
  0
LINE
  5
18218
330
17EC5
100
AcDbEntity
  8
YODOROGO
100
AcDbLine
 10
15449.80217064596
 20
909.8747482146439
 30
0.0
 11
15449.80217064596
 21
877.8747482146435
 31
0.0
  0
LINE
  5
18219
330
17EC5
100
AcDbEntity
  8
YODOROGO
100
AcDbLine
 10
15308.80217064596
 20
973.8747482146434
 30
0.0
 11
15308.80217064596
 21
929.874748214644
 31
0.0
  0
LINE
  5
1821A
330
17EC5
100
AcDbEntity
  8
YODOROGO
100
AcDbLine
 10
15395.80217064596
 20
877.8747482146435
 30
0.0
 11
15415.80217064596
 21
877.8747482146435
 31
0.0
  0
LINE
  5
1821B
330
17EC5
100
AcDbEntity
  8
YODOROGO
100
AcDbLine
 10
15361.80217064596
 20
845.8747482146444
 30
0.0
 11
15381.80217064596
 21
845.8747482146444
 31
0.0
  0
LINE
  5
1821C
330
17EC5
100
AcDbEntity
  8
YODOROGO
100
AcDbLine
 10
15429.80217064596
 20
845.8747482146444
 30
0.0
 11
15449.80217064596
 21
845.8747482146444
 31
0.0
  0
LINE
  5
1821D
330
17EC5
100
AcDbEntity
  8
YODOROGO
100
AcDbLine
 10
15308.80217064596
 20
897.8747482146435
 30
0.0
 11
15308.80217064596
 21
867.8747482146436
 31
0.0
  0
LINE
  5
1821E
330
17EC5
100
AcDbEntity
  8
YODOROGO
100
AcDbLine
 10
15582.80217064596
 20
1013.874748214644
 30
0.0
 11
15582.80217064596
 21
981.8747482146434
 31
0.0
  0
LINE
  5
1821F
330
17EC5
100
AcDbEntity
  8
YODOROGO
100
AcDbLine
 10
15766.80217064596
 20
797.8747482146435
 30
0.0
 11
15766.80217064594
 21
905.8747482146443
 31
0.0
  0
LINE
  5
18220
330
17EC5
100
AcDbEntity
  8
YODOROGO
100
AcDbLine
 10
15730.80217064594
 20
993.8747482146439
 30
0.0
 11
15730.80217064594
 21
817.8747482146436
 31
0.0
  0
LINE
  5
18221
330
17EC5
100
AcDbEntity
  8
YODOROGO
100
AcDbLine
 10
15826.80217064596
 20
713.8747482146436
 30
0.0
 11
15826.80217064594
 21
905.8747482146443
 31
0.0
  0
LINE
  5
18222
330
17EC5
100
AcDbEntity
  8
YODOROGO
100
AcDbLine
 10
15794.80217064596
 20
905.8747482146443
 30
0.0
 11
15794.80217064596
 21
713.8747482146436
 31
0.0
  0
LINE
  5
18223
330
17EC5
100
AcDbEntity
  8
YODOROGO
100
AcDbLine
 10
15618.80217064596
 20
797.8747482146435
 30
0.0
 11
15618.80217064596
 21
853.874748214644
 31
0.0
  0
ARC
  5
18224
330
17EC5
100
AcDbEntity
  8
YODOROGO
100
AcDbCircle
 10
15676.95743255803
 20
803.8951756442788
 30
0.0
 40
90.04622428799429
100
AcDbArc
 50
268.6284910216979
 51
356.1663845733032
  0
LINE
  5
18225
330
17EC5
100
AcDbEntity
  8
YODOROGO
100
AcDbLine
 10
15674.80217064596
 20
763.8747482146435
 30
0.0
 11
15674.80217064596
 21
713.8747482146436
 31
0.0
  0
ARC
  5
18226
330
17EC5
100
AcDbEntity
  8
YODOROGO
100
AcDbCircle
 10
15675.75903786228
 20
818.9194785088275
 30
0.0
 40
55.05304649180608
100
AcDbArc
 50
269.0041020930593
 51
358.9126445549248
  0
LINE
  5
18227
330
17EC5
100
AcDbEntity
  8
YODOROGO
100
AcDbLine
 10
15794.80217064596
 20
713.8747482146436
 30
0.0
 11
15826.80217064596
 21
713.8747482146436
 31
0.0
  0
LINE
  5
18228
330
17EC5
100
AcDbEntity
  8
YODOROGO
100
AcDbLine
 10
15766.80217064594
 20
905.8747482146443
 30
0.0
 11
15794.80217064596
 21
905.8747482146443
 31
0.0
  0
LINE
  5
18229
330
17EC5
100
AcDbEntity
  8
YODOROGO
100
AcDbLine
 10
15810.80217064596
 20
993.8747482146439
 30
0.0
 11
15730.80217064594
 21
993.8747482146439
 31
0.0
  0
LINE
  5
1822A
330
17EC5
100
AcDbEntity
  8
YODOROGO
100
AcDbLine
 10
15766.80217064594
 20
957.8747482146436
 30
0.0
 11
15830.80217064596
 21
957.8747482146436
 31
0.0
  0
LINE
  5
1822B
330
17EC5
100
AcDbEntity
  8
YODOROGO
100
AcDbLine
 10
15850.80217064596
 20
937.8747482146435
 30
0.0
 11
15766.80217064594
 21
937.8747482146435
 31
0.0
  0
LINE
  5
1822C
330
17EC5
100
AcDbEntity
  8
YODOROGO
100
AcDbLine
 10
15618.80217064596
 20
889.8747482146442
 30
0.0
 11
15674.80217064596
 21
889.8747482146442
 31
0.0
  0
LINE
  5
1822D
330
17EC5
100
AcDbEntity
  8
YODOROGO
100
AcDbLine
 10
15618.80217064596
 20
917.8747482146436
 30
0.0
 11
15618.80217064596
 21
889.8747482146442
 31
0.0
  0
LINE
  5
1822E
330
17EC5
100
AcDbEntity
  8
YODOROGO
100
AcDbLine
 10
15674.80217064596
 20
917.8747482146436
 30
0.0
 11
15618.80217064596
 21
917.8747482146436
 31
0.0
  0
LINE
  5
1822F
330
17EC5
100
AcDbEntity
  8
YODOROGO
100
AcDbLine
 10
15674.80217064596
 20
889.8747482146442
 30
0.0
 11
15674.80217064596
 21
917.8747482146436
 31
0.0
  0
LINE
  5
18230
330
17EC5
100
AcDbEntity
  8
YODOROGO
100
AcDbLine
 10
15766.80217064594
 20
937.8747482146435
 30
0.0
 11
15766.80217064594
 21
957.8747482146436
 31
0.0
  0
LINE
  5
18231
330
17EC5
100
AcDbEntity
  8
YODOROGO
100
AcDbLine
 10
15706.80217064596
 20
853.874748214644
 30
0.0
 11
15706.80217064596
 21
953.874748214644
 31
0.0
  0
LINE
  5
18232
330
17EC5
100
AcDbEntity
  8
YODOROGO
100
AcDbLine
 10
15618.80217064596
 20
853.874748214644
 30
0.0
 11
15706.80217064596
 21
853.874748214644
 31
0.0
  0
LINE
  5
18233
330
17EC5
100
AcDbEntity
  8
YODOROGO
100
AcDbLine
 10
15706.80217064596
 20
981.8747482146434
 30
0.0
 11
15706.80217064596
 21
1013.874748214644
 31
0.0
  0
ARC
  5
18234
330
17EC5
100
AcDbEntity
  8
YODOROGO
100
AcDbCircle
 10
15810.80217064596
 20
1001.874748214642
 30
0.0
 40
7.99999999999727
100
AcDbArc
 50
270.0
 51
0.0000000000081422
  0
LINE
  5
18235
330
17EC5
100
AcDbEntity
  8
YODOROGO
100
AcDbLine
 10
15818.80217064596
 20
1013.874748214644
 30
0.0
 11
15818.80217064596
 21
1001.874748214643
 31
0.0
  0
LINE
  5
18236
330
17EC5
100
AcDbEntity
  8
YODOROGO
100
AcDbLine
 10
15850.80217064596
 20
1013.874748214644
 30
0.0
 11
15818.80217064596
 21
1013.874748214644
 31
0.0
  0
LINE
  5
18237
330
17EC5
100
AcDbEntity
  8
YODOROGO
100
AcDbLine
 10
15850.80217064596
 20
977.8747482146435
 30
0.0
 11
15850.80217064596
 21
1013.874748214644
 31
0.0
  0
ARC
  5
18238
330
17EC5
100
AcDbEntity
  8
YODOROGO
100
AcDbCircle
 10
15830.80217064596
 20
977.8747482146435
 30
0.0
 40
20.0
100
AcDbArc
 50
270.0
 51
0.0
  0
LINE
  5
18239
330
17EC5
100
AcDbEntity
  8
YODOROGO
100
AcDbLine
 10
15850.80217064596
 20
905.8747482146443
 30
0.0
 11
15850.80217064596
 21
937.8747482146435
 31
0.0
  0
LINE
  5
1823A
330
17EC5
100
AcDbEntity
  8
YODOROGO
100
AcDbLine
 10
15826.80217064594
 20
905.8747482146443
 30
0.0
 11
15850.80217064596
 21
905.8747482146443
 31
0.0
  0
LINE
  5
1823B
330
17EC5
100
AcDbEntity
  8
SUNPOU
100
AcDbLine
 10
7971.882670973591
 20
2679.0848394196
 30
0.0
 11
7421.74161720953
 21
2679.0848394196
 31
0.0
  0
LINE
  5
1823C
330
17EC5
100
AcDbEntity
  8
SUNPOU
100
AcDbLine
 10
7971.882670973591
 20
2519.084839419601
 30
0.0
 11
7421.74161720953
 21
2519.084839419601
 31
0.0
  0
LINE
  5
1823D
330
17EC5
100
AcDbEntity
  8
SUNPOU
100
AcDbLine
 10
7466.74161720953
 20
2659.0848394196
 30
0.0
 11
7466.74161720953
 21
2539.084839419601
 31
0.0
  0
LINE
  5
1823E
330
17EC5
100
AcDbEntity
  8
SUNPOU
100
AcDbLine
 10
7466.74161720953
 20
2519.084839419601
 30
0.0
 11
7466.74161720953
 21
2263.370553705315
 31
0.0
  0
LINE
  5
1823F
330
17EC5
100
AcDbEntity
  8
SUNPOU
100
AcDbLine
 10
7651.88267097359
 20
3447.084839419608
 30
0.0
 11
7195.493193372985
 21
3447.084839419608
 31
0.0
  0
LINE
  5
18240
330
17EC5
100
AcDbEntity
  8
SUNPOU
100
AcDbLine
 10
7971.882670973591
 20
2519.084839419601
 30
0.0
 11
7195.493193372985
 21
2519.084839419601
 31
0.0
  0
LINE
  5
18241
330
17EC5
100
AcDbEntity
  8
SUNPOU
100
AcDbLine
 10
7240.493193372985
 20
3427.084839419608
 30
0.0
 11
7240.493193372985
 21
2539.084839419601
 31
0.0
  0
LINE
  5
18242
330
17EC5
100
AcDbEntity
  8
SUNPOU
100
AcDbLine
 10
7651.88267097359
 20
3319.084839419603
 30
0.0
 11
7421.741617209531
 21
3319.084839419603
 31
0.0
  0
LINE
  5
18243
330
17EC5
100
AcDbEntity
  8
SUNPOU
100
AcDbLine
 10
7651.88267097359
 20
3191.084839419599
 30
0.0
 11
7421.741617209531
 21
3191.084839419599
 31
0.0
  0
LINE
  5
18244
330
17EC5
100
AcDbEntity
  8
SUNPOU
100
AcDbLine
 10
7466.741617209533
 20
3339.084839419603
 30
0.0
 11
7466.741617209533
 21
3359.084839419603
 31
0.0
  0
LINE
  5
18245
330
17EC5
100
AcDbEntity
  8
SUNPOU
100
AcDbLine
 10
7466.741617209533
 20
3171.084839419599
 30
0.0
 11
7466.741617209533
 21
3151.084839419599
 31
0.0
  0
LINE
  5
18246
330
17EC5
100
AcDbEntity
  8
SUNPOU
100
AcDbLine
 10
7466.741617209533
 20
3319.084839419603
 30
0.0
 11
7466.741617209533
 21
3191.084839419599
 31
0.0
  0
LINE
  5
18247
330
17EC5
100
AcDbEntity
  8
SUNPOU
100
AcDbLine
 10
7651.88267097359
 20
3319.084839419603
 30
0.0
 11
7421.74161720953
 21
3319.084839419603
 31
0.0
  0
LINE
  5
18248
330
17EC5
100
AcDbEntity
  8
SUNPOU
100
AcDbLine
 10
7651.88267097359
 20
3447.084839419609
 30
0.0
 11
7421.74161720953
 21
3447.084839419609
 31
0.0
  0
LINE
  5
18249
330
17EC5
100
AcDbEntity
  8
SUNPOU
100
AcDbLine
 10
7466.74161720953
 20
3299.084839419603
 30
0.0
 11
7466.74161720953
 21
3279.084839419603
 31
0.0
  0
LINE
  5
1824A
330
17EC5
100
AcDbEntity
  8
SUNPOU
100
AcDbLine
 10
7466.74161720953
 20
3467.084839419608
 30
0.0
 11
7466.74161720953
 21
3674.227696562466
 31
0.0
  0
LINE
  5
1824B
330
17EC5
100
AcDbEntity
  8
SUNPOU
100
AcDbLine
 10
7466.74161720953
 20
3319.084839419603
 30
0.0
 11
7466.74161720953
 21
3447.084839419609
 31
0.0
  0
LINE
  5
1824C
330
17EC5
100
AcDbEntity
  8
SUNPOU
100
AcDbLine
 10
7971.882670973591
 20
2679.0848394196
 30
0.0
 11
7421.74161720953
 21
2679.0848394196
 31
0.0
  0
LINE
  5
1824D
330
17EC5
100
AcDbEntity
  8
SUNPOU
100
AcDbLine
 10
7651.88267097359
 20
3191.084839419599
 30
0.0
 11
7421.74161720953
 21
3191.084839419599
 31
0.0
  0
LINE
  5
1824E
330
17EC5
100
AcDbEntity
  8
SUNPOU
100
AcDbLine
 10
7466.74161720953
 20
2699.084839419601
 30
0.0
 11
7466.74161720953
 21
3171.084839419599
 31
0.0
  0
LINE
  5
1824F
330
17EC5
100
AcDbEntity
  8
SUNPOU
100
AcDbLine
 10
8171.882670973593
 20
2639.0848394196
 30
0.0
 11
8171.882670973593
 21
2103.684839419598
 31
0.0
  0
LINE
  5
18250
330
17EC5
100
AcDbEntity
  8
SUNPOU
100
AcDbLine
 10
9451.882670973594
 20
2639.084839419599
 30
0.0
 11
9451.882670973594
 21
2103.684839419598
 31
0.0
  0
LINE
  5
18251
330
17EC5
100
AcDbEntity
  8
SUNPOU
100
AcDbLine
 10
8191.882670973592
 20
2148.684839419598
 30
0.0
 11
9431.882670973593
 21
2148.684839419598
 31
0.0
  0
LINE
  5
18252
330
17EC5
100
AcDbEntity
  8
SUNPOU
100
AcDbLine
 10
8011.882670973587
 20
2479.084839419601
 30
0.0
 11
8011.882670973587
 21
1861.684839419599
 31
0.0
  0
LINE
  5
18253
330
17EC5
100
AcDbEntity
  8
SUNPOU
100
AcDbLine
 10
9611.882670973592
 20
2479.084839419599
 30
0.0
 11
9611.882670973592
 21
1861.684839419599
 31
0.0
  0
LINE
  5
18254
330
17EC5
100
AcDbEntity
  8
SUNPOU
100
AcDbLine
 10
8031.88267097359
 20
1906.684839419598
 30
0.0
 11
9591.882670973594
 21
1906.684839419598
 31
0.0
  0
LINE
  5
18255
330
17EC5
100
AcDbEntity
  8
SUNPOU
100
AcDbLine
 10
7086.741617209529
 20
3367.084839419608
 30
0.0
 11
7091.74161720953
 21
3367.084839419608
 31
0.0
  0
LINE
  5
18256
330
17EC5
100
AcDbEntity
  8
SUNPOU
100
AcDbLine
 10
7651.88267097359
 20
3447.084839419609
 30
0.0
 11
7001.741617209529
 21
3447.084839419609
 31
0.0
  0
LINE
  5
18257
330
17EC5
100
AcDbEntity
  8
SUNPOU
100
AcDbLine
 10
7046.74161720953
 20
3347.084839419609
 30
0.0
 11
7046.74161720953
 21
3327.084839419608
 31
0.0
  0
LINE
  5
18258
330
17EC5
100
AcDbEntity
  8
SUNPOU
100
AcDbLine
 10
7046.74161720953
 20
3467.084839419608
 30
0.0
 11
7046.74161720953
 21
3674.227696562466
 31
0.0
  0
LINE
  5
18259
330
17EC5
100
AcDbEntity
  8
SUNPOU
100
AcDbLine
 10
7046.74161720953
 20
3367.084839419608
 30
0.0
 11
7046.74161720953
 21
3447.084839419609
 31
0.0
  0
LINE
  5
1825A
330
17EC5
100
AcDbEntity
  8
SUNPOU
100
AcDbLine
 10
10297.11317822384
 20
4130.485411556196
 30
0.0
 11
10237.11317822382
 21
4130.485411556196
 31
0.0
  0
LINE
  5
1825B
330
17EC5
100
AcDbEntity
  8
SUNPOU
100
AcDbLine
 10
10297.11317822383
 20
4130.485411556196
 30
0.0
 11
10237.11317822383
 21
4146.562363102066
 31
0.0
  0
LINE
  5
1825C
330
17EC5
100
AcDbEntity
  8
SUNPOU
100
AcDbLine
 10
10297.11317822384
 20
4130.485411556196
 30
0.0
 11
10237.11317822382
 21
4114.408460010326
 31
0.0
  0
LINE
  5
1825D
330
17EC5
100
AcDbEntity
  8
SUNPOU
100
AcDbLine
 10
8811.882670973586
 20
4170.485411556195
 30
0.0
 11
8811.882670973586
 21
4175.485411556194
 31
0.0
  0
LINE
  5
1825E
330
17EC5
100
AcDbEntity
  8
SUNPOU
100
AcDbLine
 10
7691.882670973591
 20
3487.084839419608
 30
0.0
 11
7691.882670973591
 21
4175.485411556194
 31
0.0
  0
LINE
  5
1825F
330
17EC5
100
AcDbEntity
  8
SUNPOU
100
AcDbLine
 10
8791.882670973585
 20
4130.485411556196
 30
0.0
 11
7711.88267097359
 21
4130.485411556196
 31
0.0
  0
LINE
  5
18260
330
17EC5
100
AcDbEntity
  8
SUNPOU
100
AcDbLine
 10
4159.797051267466
 20
2639.0848394196
 30
0.0
 11
4159.797051267466
 21
2103.684839419598
 31
0.0
  0
LINE
  5
18261
330
17EC5
100
AcDbEntity
  8
SUNPOU
100
AcDbLine
 10
5439.797051267465
 20
2639.0848394196
 30
0.0
 11
5439.797051267465
 21
2103.684839419598
 31
0.0
  0
LINE
  5
18262
330
17EC5
100
AcDbEntity
  8
SUNPOU
100
AcDbLine
 10
4179.797051267466
 20
2148.684839419598
 30
0.0
 11
5419.797051267465
 21
2148.684839419598
 31
0.0
  0
LINE
  5
18263
330
17EC5
100
AcDbEntity
  8
SUNPOU
100
AcDbLine
 10
3999.797051267465
 20
2479.0848394196
 30
0.0
 11
3999.797051267465
 21
1861.684839419597
 31
0.0
  0
LINE
  5
18264
330
17EC5
100
AcDbEntity
  8
SUNPOU
100
AcDbLine
 10
5599.797051267465
 20
2479.0848394196
 30
0.0
 11
5599.797051267465
 21
1861.684839419597
 31
0.0
  0
LINE
  5
18265
330
17EC5
100
AcDbEntity
  8
SUNPOU
100
AcDbLine
 10
4019.797051267465
 20
1906.684839419597
 30
0.0
 11
5579.797051267465
 21
1906.684839419597
 31
0.0
  0
LINE
  5
18266
330
17EC5
100
AcDbEntity
  8
SUNPOU
100
AcDbLine
 10
3500.443655266705
 20
3367.084839419606
 30
0.0
 11
3505.443655266707
 21
3367.084839419606
 31
0.0
  0
LINE
  5
18267
330
17EC5
100
AcDbEntity
  8
SUNPOU
100
AcDbLine
 10
4119.797051267465
 20
3447.084839419609
 30
0.0
 11
3415.443655266707
 21
3447.084839419609
 31
0.0
  0
LINE
  5
18268
330
17EC5
100
AcDbEntity
  8
SUNPOU
100
AcDbLine
 10
3460.443655266707
 20
3347.084839419605
 30
0.0
 11
3460.443655266707
 21
3327.084839419605
 31
0.0
  0
LINE
  5
18269
330
17EC5
100
AcDbEntity
  8
SUNPOU
100
AcDbLine
 10
3460.443655266707
 20
3467.084839419608
 30
0.0
 11
3460.443655266707
 21
3674.227696562466
 31
0.0
  0
LINE
  5
1826A
330
17EC5
100
AcDbEntity
  8
SUNPOU
100
AcDbLine
 10
3460.443655266707
 20
3367.084839419606
 30
0.0
 11
3460.443655266707
 21
3447.084839419609
 31
0.0
  0
LINE
  5
1826B
330
17EC5
100
AcDbEntity
  8
SUNPOU
100
AcDbLine
 10
4119.797051267465
 20
3319.0848394196
 30
0.0
 11
3835.443655266709
 21
3319.0848394196
 31
0.0
  0
LINE
  5
1826C
330
17EC5
100
AcDbEntity
  8
SUNPOU
100
AcDbLine
 10
4119.797051267465
 20
3191.084839419596
 30
0.0
 11
3835.443655266709
 21
3191.084839419596
 31
0.0
  0
LINE
  5
1826D
330
17EC5
100
AcDbEntity
  8
SUNPOU
100
AcDbLine
 10
3880.443655266708
 20
3339.0848394196
 30
0.0
 11
3880.443655266708
 21
3359.0848394196
 31
0.0
  0
LINE
  5
1826E
330
17EC5
100
AcDbEntity
  8
SUNPOU
100
AcDbLine
 10
3880.443655266708
 20
3171.084839419596
 30
0.0
 11
3880.443655266708
 21
3151.084839419596
 31
0.0
  0
LINE
  5
1826F
330
17EC5
100
AcDbEntity
  8
SUNPOU
100
AcDbLine
 10
3880.443655266708
 20
3319.0848394196
 30
0.0
 11
3880.443655266708
 21
3191.084839419596
 31
0.0
  0
LINE
  5
18270
330
17EC5
100
AcDbEntity
  8
SUNPOU
100
AcDbLine
 10
4119.797051267465
 20
3319.0848394196
 30
0.0
 11
3835.443655266707
 21
3319.0848394196
 31
0.0
  0
LINE
  5
18271
330
17EC5
100
AcDbEntity
  8
SUNPOU
100
AcDbLine
 10
4119.797051267465
 20
3447.084839419609
 30
0.0
 11
3835.443655266707
 21
3447.084839419609
 31
0.0
  0
LINE
  5
18272
330
17EC5
100
AcDbEntity
  8
SUNPOU
100
AcDbLine
 10
3880.443655266708
 20
3299.084839419599
 30
0.0
 11
3880.443655266708
 21
3279.0848394196
 31
0.0
  0
LINE
  5
18273
330
17EC5
100
AcDbEntity
  8
SUNPOU
100
AcDbLine
 10
3880.443655266708
 20
3467.084839419608
 30
0.0
 11
3880.443655266708
 21
3674.227696562466
 31
0.0
  0
LINE
  5
18274
330
17EC5
100
AcDbEntity
  8
SUNPOU
100
AcDbLine
 10
3880.443655266708
 20
3319.0848394196
 30
0.0
 11
3880.443655266708
 21
3447.084839419609
 31
0.0
  0
LINE
  5
18275
330
17EC5
100
AcDbEntity
  8
SUNPOU
100
AcDbLine
 10
3959.797051267464
 20
2679.0848394196
 30
0.0
 11
3835.443655266707
 21
2679.0848394196
 31
0.0
  0
LINE
  5
18276
330
17EC5
100
AcDbEntity
  8
SUNPOU
100
AcDbLine
 10
4119.797051267465
 20
3191.084839419596
 30
0.0
 11
3835.443655266707
 21
3191.084839419596
 31
0.0
  0
LINE
  5
18277
330
17EC5
100
AcDbEntity
  8
SUNPOU
100
AcDbLine
 10
3880.443655266707
 20
2699.0848394196
 30
0.0
 11
3880.443655266708
 21
3171.084839419596
 31
0.0
  0
LINE
  5
18278
330
17EC5
100
AcDbEntity
  8
SUNPOU
100
AcDbLine
 10
3959.797051267464
 20
2679.0848394196
 30
0.0
 11
3835.443655266707
 21
2679.0848394196
 31
0.0
  0
LINE
  5
18279
330
17EC5
100
AcDbEntity
  8
SUNPOU
100
AcDbLine
 10
3959.797051267464
 20
2519.084839419599
 30
0.0
 11
3835.443655266707
 21
2519.084839419599
 31
0.0
  0
LINE
  5
1827A
330
17EC5
100
AcDbEntity
  8
SUNPOU
100
AcDbLine
 10
3880.443655266708
 20
2659.0848394196
 30
0.0
 11
3880.443655266708
 21
2539.084839419599
 31
0.0
  0
LINE
  5
1827B
330
17EC5
100
AcDbEntity
  8
SUNPOU
100
AcDbLine
 10
3880.443655266708
 20
2519.084839419599
 30
0.0
 11
3880.443655266708
 21
2263.370553705313
 31
0.0
  0
LINE
  5
1827C
330
17EC5
100
AcDbEntity
  8
SUNPOU
100
AcDbLine
 10
4119.797051267465
 20
3447.084839419609
 30
0.0
 11
3625.443655266707
 21
3447.084839419609
 31
0.0
  0
LINE
  5
1827D
330
17EC5
100
AcDbEntity
  8
SUNPOU
100
AcDbLine
 10
3959.797051267464
 20
2519.084839419599
 30
0.0
 11
3625.443655266707
 21
2519.084839419599
 31
0.0
  0
LINE
  5
1827E
330
17EC5
100
AcDbEntity
  8
SUNPOU
100
AcDbLine
 10
3670.443655266709
 20
3427.084839419608
 30
0.0
 11
3670.443655266707
 21
2539.084839419599
 31
0.0
  0
LINE
  5
1827F
330
17EC5
100
AcDbEntity
  8
SUNPOU
100
AcDbLine
 10
6285.027558517715
 20
4130.485411556192
 30
0.0
 11
6225.027558517702
 21
4130.485411556192
 31
0.0
  0
LINE
  5
18280
330
17EC5
100
AcDbEntity
  8
SUNPOU
100
AcDbLine
 10
6285.027558517708
 20
4130.485411556192
 30
0.0
 11
6225.02755851771
 21
4146.562363102062
 31
0.0
  0
LINE
  5
18281
330
17EC5
100
AcDbEntity
  8
SUNPOU
100
AcDbLine
 10
6285.027558517715
 20
4130.485411556192
 30
0.0
 11
6225.027558517702
 21
4114.408460010323
 31
0.0
  0
LINE
  5
18282
330
17EC5
100
AcDbEntity
  8
SUNPOU
100
AcDbLine
 10
4799.797051267467
 20
4170.485411556192
 30
0.0
 11
4799.797051267467
 21
4175.485411556191
 31
0.0
  0
LINE
  5
18283
330
17EC5
100
AcDbEntity
  8
SUNPOU
100
AcDbLine
 10
4159.797051267466
 20
3487.084839419608
 30
0.0
 11
4159.797051267466
 21
4175.485411556191
 31
0.0
  0
LINE
  5
18284
330
17EC5
100
AcDbEntity
  8
SUNPOU
100
AcDbLine
 10
4779.797051267467
 20
4130.485411556192
 30
0.0
 11
4179.797051267466
 21
4130.485411556192
 31
0.0
  0
TEXT
  5
18285
330
17EC5
100
AcDbEntity
  8
SUNPOU
100
AcDbText
 10
8011.613067273968
 20
6143.052979947711
 30
0.0
 40
90.0
  1
L=2400 ×N+800
 41
0.6666666666666666
  7
00
100
AcDbText
  0
LINE
  5
18286
330
17EC5
100
AcDbEntity
  8
SUNPOU
100
AcDbLine
 10
12019.12750789964
 20
6468.693182432332
 30
0.0
 11
12019.12750789964
 21
6263.693182432332
 31
0.0
  0
LINE
  5
18287
330
17EC5
100
AcDbEntity
  8
SUNPOU
100
AcDbLine
 10
12419.12750789964
 20
6668.693182432332
 30
0.0
 11
12419.12750789964
 21
6263.693182432332
 31
0.0
  0
LINE
  5
18288
330
17EC5
100
AcDbEntity
  8
SUNPOU
100
AcDbLine
 10
12039.12750789964
 20
6308.693182432332
 30
0.0
 11
12399.12750789964
 21
6308.693182432332
 31
0.0
  0
LINE
  5
18289
330
17EC5
100
AcDbEntity
  8
SUNPOU
100
AcDbLine
 10
9619.127507899648
 20
6468.693182432332
 30
0.0
 11
9619.127507899648
 21
6263.693182432332
 31
0.0
  0
LINE
  5
1828A
330
17EC5
100
AcDbEntity
  8
SUNPOU
100
AcDbLine
 10
12019.12750789964
 20
6468.693182432332
 30
0.0
 11
12019.12750789964
 21
6263.693182432332
 31
0.0
  0
LINE
  5
1828B
330
17EC5
100
AcDbEntity
  8
SUNPOU
100
AcDbLine
 10
9639.127507899649
 20
6308.693182432332
 30
0.0
 11
11999.12750789964
 21
6308.693182432332
 31
0.0
  0
LINE
  5
1828C
330
17EC5
100
AcDbEntity
  8
SUNPOU
100
AcDbLine
 10
7219.127507899646
 20
6468.693182432332
 30
0.0
 11
7219.127507899646
 21
6263.693182432332
 31
0.0
  0
LINE
  5
1828D
330
17EC5
100
AcDbEntity
  8
SUNPOU
100
AcDbLine
 10
9619.127507899648
 20
6468.693182432332
 30
0.0
 11
9619.127507899648
 21
6263.693182432332
 31
0.0
  0
LINE
  5
1828E
330
17EC5
100
AcDbEntity
  8
SUNPOU
100
AcDbLine
 10
7239.127507899645
 20
6308.693182432332
 30
0.0
 11
9599.127507899648
 21
6308.693182432332
 31
0.0
  0
LINE
  5
1828F
330
17EC5
100
AcDbEntity
  8
SUNPOU
100
AcDbLine
 10
4819.127507899647
 20
6468.693182432332
 30
0.0
 11
4819.127507899647
 21
6263.693182432332
 31
0.0
  0
LINE
  5
18290
330
17EC5
100
AcDbEntity
  8
SUNPOU
100
AcDbLine
 10
7219.127507899646
 20
6468.693182432332
 30
0.0
 11
7219.127507899646
 21
6263.693182432332
 31
0.0
  0
LINE
  5
18291
330
17EC5
100
AcDbEntity
  8
SUNPOU
100
AcDbLine
 10
4839.127507899648
 20
6308.693182432332
 30
0.0
 11
7199.127507899646
 21
6308.693182432332
 31
0.0
  0
LINE
  5
18292
330
17EC5
100
AcDbEntity
  8
SUNPOU
100
AcDbLine
 10
4419.127507899648
 20
6668.693182432332
 30
0.0
 11
4419.127507899648
 21
6263.693182432332
 31
0.0
  0
LINE
  5
18293
330
17EC5
100
AcDbEntity
  8
SUNPOU
100
AcDbLine
 10
4819.127507899647
 20
6468.693182432332
 30
0.0
 11
4819.127507899647
 21
6263.693182432332
 31
0.0
  0
LINE
  5
18294
330
17EC5
100
AcDbEntity
  8
SUNPOU
100
AcDbLine
 10
4439.127507899647
 20
6308.693182432332
 30
0.0
 11
4799.127507899648
 21
6308.693182432332
 31
0.0
  0
LINE
  5
18295
330
17EC5
100
AcDbEntity
  8
SUNPOU
100
AcDbLine
 10
12404.12750789964
 20
6098.693182432332
 30
0.0
 11
12389.12750789964
 21
6098.693182432332
 31
0.0
  0
LINE
  5
18296
330
17EC5
100
AcDbEntity
  8
SUNPOU
100
AcDbLine
 10
4434.127507899648
 20
6098.693182432332
 30
0.0
 11
4449.127507899648
 21
6098.693182432332
 31
0.0
  0
ARC
  5
18297
330
17EC5
100
AcDbEntity
  8
SUNPOU
100
AcDbCircle
 10
12669.12750789964
 20
9043.693182432328
 30
0.0
 40
5.625
100
AcDbArc
 50
270.0
 51
90.0
  0
ARC
  5
18298
330
17EC5
100
AcDbEntity
  8
SUNPOU
100
AcDbCircle
 10
12669.12750789964
 20
9043.693182432328
 30
0.0
 40
5.625
100
AcDbArc
 50
90.0
 51
270.0
  0
ARC
  5
18299
330
17EC5
100
AcDbEntity
  8
SUNPOU
100
AcDbCircle
 10
12669.12750789964
 20
8843.69318243233
 30
0.0
 40
5.625
100
AcDbArc
 50
90.0
 51
270.0
  0
ARC
  5
1829A
330
17EC5
100
AcDbEntity
  8
SUNPOU
100
AcDbCircle
 10
12669.12750789964
 20
8843.69318243233
 30
0.0
 40
5.624999999998181
100
AcDbArc
 50
270.0
 51
90.0
  0
ARC
  5
1829B
330
17EC5
100
AcDbEntity
  8
SUNPOU
100
AcDbCircle
 10
12669.12750789964
 20
8843.69318243233
 30
0.0
 40
5.624999999998181
100
AcDbArc
 50
270.0
 51
90.0
  0
ARC
  5
1829C
330
17EC5
100
AcDbEntity
  8
SUNPOU
100
AcDbCircle
 10
12669.12750789964
 20
8843.69318243233
 30
0.0
 40
5.625
100
AcDbArc
 50
90.0
 51
270.0
  0
ARC
  5
1829D
330
17EC5
100
AcDbEntity
  8
SUNPOU
100
AcDbCircle
 10
12879.12750789964
 20
9043.693182432328
 30
0.0
 40
5.625
100
AcDbArc
 50
270.0
 51
90.0
  0
ARC
  5
1829E
330
17EC5
100
AcDbEntity
  8
SUNPOU
100
AcDbCircle
 10
12879.12750789964
 20
9043.693182432328
 30
0.0
 40
5.625
100
AcDbArc
 50
90.0
 51
270.0
  0
ARC
  5
1829F
330
17EC5
100
AcDbEntity
  8
SUNPOU
100
AcDbCircle
 10
12669.12750789964
 20
7408.693182432331
 30
0.0
 40
5.625000000000908
100
AcDbArc
 50
270.0
 51
90.0
  0
ARC
  5
182A0
330
17EC5
100
AcDbEntity
  8
SUNPOU
100
AcDbCircle
 10
12669.12750789964
 20
7408.693182432331
 30
0.0
 40
5.625
100
AcDbArc
 50
90.0
 51
270.0
  0
ARC
  5
182A1
330
17EC5
100
AcDbEntity
  8
SUNPOU
100
AcDbCircle
 10
12669.12750789964
 20
7408.693182432331
 30
0.0
 40
5.625
100
AcDbArc
 50
90.0
 51
270.0
  0
ARC
  5
182A2
330
17EC5
100
AcDbEntity
  8
SUNPOU
100
AcDbCircle
 10
12669.12750789964
 20
7408.693182432331
 30
0.0
 40
5.625000000000908
100
AcDbArc
 50
270.0
 51
90.0
  0
ARC
  5
182A3
330
17EC5
100
AcDbEntity
  8
SUNPOU
100
AcDbCircle
 10
12669.12750789964
 20
6708.693182432331
 30
0.0
 40
5.625
100
AcDbArc
 50
90.0
 51
270.0
  0
ARC
  5
182A4
330
17EC5
100
AcDbEntity
  8
SUNPOU
100
AcDbCircle
 10
12669.12750789964
 20
6708.693182432331
 30
0.0
 40
5.625
100
AcDbArc
 50
270.0
 51
90.0
  0
ARC
  5
182A5
330
17EC5
100
AcDbEntity
  8
SUNPOU
100
AcDbCircle
 10
12879.12750789964
 20
6708.693182432331
 30
0.0
 40
5.625
100
AcDbArc
 50
90.0
 51
270.0
  0
ARC
  5
182A6
330
17EC5
100
AcDbEntity
  8
SUNPOU
100
AcDbCircle
 10
12879.12750789964
 20
6708.693182432331
 30
0.0
 40
5.625
100
AcDbArc
 50
270.0
 51
90.0
  0
ARC
  5
182A7
330
17EC5
100
AcDbEntity
  8
SUNPOU
100
AcDbCircle
 10
10319.12750789965
 20
7808.693182432333
 30
0.0
 40
5.625
100
AcDbArc
 50
270.0
 51
90.0
  0
ARC
  5
182A8
330
17EC5
100
AcDbEntity
  8
SUNPOU
100
AcDbCircle
 10
10319.12750789965
 20
7808.693182432333
 30
0.0
 40
5.625
100
AcDbArc
 50
90.0
 51
270.0
  0
ARC
  5
182A9
330
17EC5
100
AcDbEntity
  8
SUNPOU
100
AcDbCircle
 10
10319.12750789965
 20
7008.69318243233
 30
0.0
 40
5.625
100
AcDbArc
 50
90.0
 51
270.0
  0
ARC
  5
182AA
330
17EC5
100
AcDbEntity
  8
SUNPOU
100
AcDbCircle
 10
10319.12750789965
 20
7008.69318243233
 30
0.0
 40
5.625
100
AcDbArc
 50
270.0
 51
90.0
  0
ARC
  5
182AB
330
17EC5
100
AcDbEntity
  8
SUNPOU
100
AcDbCircle
 10
10019.12750789965
 20
6758.693182432331
 30
0.0
 40
5.625
100
AcDbArc
 50
0.0
 51
180.0
  0
ARC
  5
182AC
330
17EC5
100
AcDbEntity
  8
SUNPOU
100
AcDbCircle
 10
10019.12750789965
 20
6758.693182432331
 30
0.0
 40
5.625
100
AcDbArc
 50
180.0
 51
0.0
  0
ARC
  5
182AD
330
17EC5
100
AcDbEntity
  8
SUNPOU
100
AcDbCircle
 10
9219.127507899647
 20
6758.693182432331
 30
0.0
 40
5.625
100
AcDbArc
 50
180.0
 51
0.0
  0
ARC
  5
182AE
330
17EC5
100
AcDbEntity
  8
SUNPOU
100
AcDbCircle
 10
9219.127507899647
 20
6758.693182432331
 30
0.0
 40
5.625
100
AcDbArc
 50
0.0
 51
180.0
  0
ARC
  5
182AF
330
17EC5
100
AcDbEntity
  8
SUNPOU
100
AcDbCircle
 10
6519.12750789965
 20
9243.693182432329
 30
0.0
 40
5.625
100
AcDbArc
 50
90.0
 51
270.0
  0
ARC
  5
182B0
330
17EC5
100
AcDbEntity
  8
SUNPOU
100
AcDbCircle
 10
6519.12750789965
 20
9243.693182432329
 30
0.0
 40
5.625
100
AcDbArc
 50
270.0
 51
90.0
  0
ARC
  5
182B1
330
17EC5
100
AcDbEntity
  8
SUNPOU
100
AcDbCircle
 10
7619.12750789965
 20
8143.693182432333
 30
0.0
 40
5.625
100
AcDbArc
 50
0.0
 51
180.0
  0
ARC
  5
182B2
330
17EC5
100
AcDbEntity
  8
SUNPOU
100
AcDbCircle
 10
7619.12750789965
 20
8143.693182432333
 30
0.0
 40
5.625
100
AcDbArc
 50
180.0
 51
0.0
  0
ARC
  5
182B3
330
17EC5
100
AcDbEntity
  8
SUNPOU
100
AcDbCircle
 10
6519.12750789965
 20
8443.693182432332
 30
0.0
 40
5.625
100
AcDbArc
 50
270.0
 51
90.0
  0
ARC
  5
182B4
330
17EC5
100
AcDbEntity
  8
SUNPOU
100
AcDbCircle
 10
6519.12750789965
 20
8443.693182432332
 30
0.0
 40
5.625
100
AcDbArc
 50
90.0
 51
270.0
  0
ARC
  5
182B5
330
17EC5
100
AcDbEntity
  8
SUNPOU
100
AcDbCircle
 10
6819.127507899645
 20
8143.693182432333
 30
0.0
 40
5.625
100
AcDbArc
 50
180.0
 51
0.0
  0
ARC
  5
182B6
330
17EC5
100
AcDbEntity
  8
SUNPOU
100
AcDbCircle
 10
6819.127507899645
 20
8143.693182432333
 30
0.0
 40
5.625
100
AcDbArc
 50
0.0
 51
180.0
  0
LINE
  5
182B7
330
17EC5
100
AcDbEntity
  8
SUNPOU
100
AcDbLine
 10
11645.33837406209
 20
3726.33703658456
 30
0.0
 11
12318.40680314955
 21
3726.33703658456
 31
0.0
  0
LINE
  5
182B8
330
17EC5
100
AcDbEntity
  8
SUNPOU
100
AcDbLine
 10
11645.33837406209
 20
3886.33703658456
 30
0.0
 11
12318.40680314955
 21
3886.33703658456
 31
0.0
  0
LINE
  5
182B9
330
17EC5
100
AcDbEntity
  8
SUNPOU
100
AcDbLine
 10
12273.40680314955
 20
3746.337036584561
 30
0.0
 11
12273.40680314955
 21
3866.33703658456
 31
0.0
  0
LINE
  5
182BA
330
17EC5
100
AcDbEntity
  8
SUNPOU
100
AcDbLine
 10
12273.40680314955
 20
3886.33703658456
 30
0.0
 11
12273.40680314955
 21
4093.479893727416
 31
0.0
  0
LINE
  5
182BB
330
17EC5
100
AcDbEntity
  8
SUNPOU
100
AcDbLine
 10
11645.33837406209
 20
3726.33703658456
 30
0.0
 11
12318.40680314955
 21
3726.33703658456
 31
0.0
  0
LINE
  5
182BC
330
17EC5
100
AcDbEntity
  8
SUNPOU
100
AcDbLine
 10
11901.33837406209
 20
3618.337036584561
 30
0.0
 11
12318.40680314955
 21
3618.337036584561
 31
0.0
  0
LINE
  5
182BD
330
17EC5
100
AcDbEntity
  8
SUNPOU
100
AcDbLine
 10
12273.40680314955
 20
3746.337036584561
 30
0.0
 11
12273.40680314955
 21
3766.33703658456
 31
0.0
  0
LINE
  5
182BE
330
17EC5
100
AcDbEntity
  8
SUNPOU
100
AcDbLine
 10
12273.40680314955
 20
3598.33703658456
 30
0.0
 11
12273.40680314955
 21
3391.194179441703
 31
0.0
  0
LINE
  5
182BF
330
17EC5
100
AcDbEntity
  8
SUNPOU
100
AcDbLine
 10
12273.40680314955
 20
3726.33703658456
 30
0.0
 11
12273.40680314955
 21
3618.337036584561
 31
0.0
  0
LINE
  5
182C0
330
17EC5
100
AcDbEntity
  8
SUNPOU
100
AcDbLine
 10
11781.33837406209
 20
2460.144344053149
 30
0.0
 11
11781.33837406209
 21
2200.804976716085
 31
0.0
  0
LINE
  5
182C1
330
17EC5
100
AcDbEntity
  8
SUNPOU
100
AcDbLine
 10
11861.33837406209
 20
2500.144344053149
 30
0.0
 11
11861.33837406209
 21
2200.804976716085
 31
0.0
  0
LINE
  5
182C2
330
17EC5
100
AcDbEntity
  8
SUNPOU
100
AcDbLine
 10
11761.33837406209
 20
2245.804976716085
 30
0.0
 11
11741.33837406209
 21
2245.804976716085
 31
0.0
  0
LINE
  5
182C3
330
17EC5
100
AcDbEntity
  8
SUNPOU
100
AcDbLine
 10
11881.33837406209
 20
2245.804976716085
 30
0.0
 11
12088.48123120495
 21
2245.804976716085
 31
0.0
  0
LINE
  5
182C4
330
17EC5
100
AcDbEntity
  8
SUNPOU
100
AcDbLine
 10
11781.33837406209
 20
2245.804976716085
 30
0.0
 11
11861.33837406209
 21
2245.804976716085
 31
0.0
  0
LINE
  5
182C5
330
17EC5
100
AcDbEntity
  8
SUNPOU
100
AcDbLine
 10
11301.33837406211
 20
2460.144344053149
 30
0.0
 11
11301.33837406211
 21
2200.804976716085
 31
0.0
  0
LINE
  5
182C6
330
17EC5
100
AcDbEntity
  8
SUNPOU
100
AcDbLine
 10
11781.33837406209
 20
2460.144344053149
 30
0.0
 11
11781.33837406209
 21
2200.804976716085
 31
0.0
  0
LINE
  5
182C7
330
17EC5
100
AcDbEntity
  8
SUNPOU
100
AcDbLine
 10
11321.33837406211
 20
2245.804976716085
 30
0.0
 11
11761.33837406209
 21
2245.804976716085
 31
0.0
  0
LINE
  5
182C8
330
17EC5
100
AcDbEntity
  8
SUNPOU
100
AcDbLine
 10
11301.33837406211
 20
2460.144344053149
 30
0.0
 11
11301.33837406211
 21
2200.804976716085
 31
0.0
  0
LINE
  5
182C9
330
17EC5
100
AcDbEntity
  8
SUNPOU
100
AcDbLine
 10
11221.33837406209
 20
2500.144344053149
 30
0.0
 11
11221.33837406209
 21
2200.804976716085
 31
0.0
  0
LINE
  5
182CA
330
17EC5
100
AcDbEntity
  8
SUNPOU
100
AcDbLine
 10
11321.33837406211
 20
2245.804976716085
 30
0.0
 11
11341.33837406211
 21
2245.804976716085
 31
0.0
  0
LINE
  5
182CB
330
17EC5
100
AcDbEntity
  8
SUNPOU
100
AcDbLine
 10
11201.33837406209
 20
2245.804976716085
 30
0.0
 11
10994.19551691923
 21
2245.804976716085
 31
0.0
  0
LINE
  5
182CC
330
17EC5
100
AcDbEntity
  8
SUNPOU
100
AcDbLine
 10
11301.33837406211
 20
2245.804976716085
 30
0.0
 11
11221.33837406209
 21
2245.804976716085
 31
0.0
  0
LINE
  5
182CD
330
17EC5
100
AcDbEntity
  8
SUNPOU
100
AcDbLine
 10
11221.33837406209
 20
2500.144344053149
 30
0.0
 11
11221.33837406209
 21
1990.804976716086
 31
0.0
  0
LINE
  5
182CE
330
17EC5
100
AcDbEntity
  8
SUNPOU
100
AcDbLine
 10
11861.33837406209
 20
2500.144344053149
 30
0.0
 11
11861.33837406209
 21
1990.804976716086
 31
0.0
  0
LINE
  5
182CF
330
17EC5
100
AcDbEntity
  8
SUNPOU
100
AcDbLine
 10
11241.33837406209
 20
2035.804976716086
 30
0.0
 11
11841.33837406209
 21
2035.804976716086
 31
0.0
  0
LINE
  5
182D0
330
17EC5
100
AcDbEntity
  8
SUNPOU
100
AcDbLine
 10
11185.33837406209
 20
2700.144344053149
 30
0.0
 11
10873.33837406209
 21
2700.144344053149
 31
0.0
  0
LINE
  5
182D1
330
17EC5
100
AcDbEntity
  8
SUNPOU
100
AcDbLine
 10
11181.33837406209
 20
2540.144344053149
 30
0.0
 11
10873.33837406209
 21
2540.144344053149
 31
0.0
  0
LINE
  5
182D2
330
17EC5
100
AcDbEntity
  8
SUNPOU
100
AcDbLine
 10
10918.33837406209
 20
2680.144344053149
 30
0.0
 11
10918.33837406209
 21
2560.144344053149
 31
0.0
  0
LINE
  5
182D3
330
17EC5
100
AcDbEntity
  8
SUNPOU
100
AcDbLine
 10
10918.33837406209
 20
2540.144344053149
 30
0.0
 11
10918.33837406209
 21
2333.001486910292
 31
0.0
  0
LINE
  5
182D4
330
17EC5
100
AcDbEntity
  8
SUNPOU
100
AcDbLine
 10
11185.33837406209
 20
2700.144344053149
 30
0.0
 11
10873.33837406209
 21
2700.144344053149
 31
0.0
  0
LINE
  5
182D5
330
17EC5
100
AcDbEntity
  8
SUNPOU
100
AcDbLine
 10
11181.33837406209
 20
2860.144344053149
 30
0.0
 11
10873.33837406209
 21
2860.144344053149
 31
0.0
  0
LINE
  5
182D6
330
17EC5
100
AcDbEntity
  8
SUNPOU
100
AcDbLine
 10
10918.33837406209
 20
2720.144344053149
 30
0.0
 11
10918.33837406209
 21
2840.144344053149
 31
0.0
  0
LINE
  5
182D7
330
17EC5
100
AcDbEntity
  8
SUNPOU
100
AcDbLine
 10
10918.33837406209
 20
2860.144344053149
 30
0.0
 11
10918.33837406209
 21
3067.287201196007
 31
0.0
  0
LINE
  5
182D8
330
17EC5
100
AcDbEntity
  8
SUNPOU
100
AcDbLine
 10
11181.33837406209
 20
2540.144344053149
 30
0.0
 11
10663.33837406209
 21
2540.144344053149
 31
0.0
  0
LINE
  5
182D9
330
17EC5
100
AcDbEntity
  8
SUNPOU
100
AcDbLine
 10
11181.33837406209
 20
2860.144344053149
 30
0.0
 11
10663.33837406209
 21
2860.144344053149
 31
0.0
  0
LINE
  5
182DA
330
17EC5
100
AcDbEntity
  8
SUNPOU
100
AcDbLine
 10
10708.33837406208
 20
2560.144344053149
 30
0.0
 11
10708.33837406208
 21
2840.144344053149
 31
0.0
  0
LINE
  5
182DB
330
17EC5
100
AcDbEntity
  8
SUNPOU
100
AcDbLine
 10
11781.33837406209
 20
3538.337036584561
 30
0.0
 11
11781.33837406209
 21
3349.170862655058
 31
0.0
  0
LINE
  5
182DC
330
17EC5
100
AcDbEntity
  8
SUNPOU
100
AcDbLine
 10
11861.33837406209
 20
3578.337036584561
 30
0.0
 11
11861.33837406209
 21
3349.170862655058
 31
0.0
  0
LINE
  5
182DD
330
17EC5
100
AcDbEntity
  8
SUNPOU
100
AcDbLine
 10
11761.33837406209
 20
3394.170862655057
 30
0.0
 11
11741.33837406209
 21
3394.170862655057
 31
0.0
  0
LINE
  5
182DE
330
17EC5
100
AcDbEntity
  8
SUNPOU
100
AcDbLine
 10
11881.33837406209
 20
3394.170862655057
 30
0.0
 11
12088.48123120495
 21
3394.170862655057
 31
0.0
  0
LINE
  5
182DF
330
17EC5
100
AcDbEntity
  8
SUNPOU
100
AcDbLine
 10
11781.33837406209
 20
3394.170862655057
 30
0.0
 11
11861.33837406209
 21
3394.170862655057
 31
0.0
  0
LINE
  5
182E0
330
17EC5
100
AcDbEntity
  8
SUNPOU
100
AcDbLine
 10
11301.33837406211
 20
3538.337036584561
 30
0.0
 11
11301.33837406211
 21
3349.170862655058
 31
0.0
  0
LINE
  5
182E1
330
17EC5
100
AcDbEntity
  8
SUNPOU
100
AcDbLine
 10
11781.33837406209
 20
3538.337036584561
 30
0.0
 11
11781.33837406209
 21
3349.170862655058
 31
0.0
  0
LINE
  5
182E2
330
17EC5
100
AcDbEntity
  8
SUNPOU
100
AcDbLine
 10
11321.33837406211
 20
3394.170862655057
 30
0.0
 11
11761.33837406209
 21
3394.170862655057
 31
0.0
  0
LINE
  5
182E3
330
17EC5
100
AcDbEntity
  8
SUNPOU
100
AcDbLine
 10
11301.33837406211
 20
3538.337036584561
 30
0.0
 11
11301.33837406211
 21
3349.170862655058
 31
0.0
  0
LINE
  5
182E4
330
17EC5
100
AcDbEntity
  8
SUNPOU
100
AcDbLine
 10
11221.33837406209
 20
3578.337036584561
 30
0.0
 11
11221.33837406209
 21
3349.170862655058
 31
0.0
  0
LINE
  5
182E5
330
17EC5
100
AcDbEntity
  8
SUNPOU
100
AcDbLine
 10
11321.33837406211
 20
3394.170862655057
 30
0.0
 11
11341.33837406211
 21
3394.170862655057
 31
0.0
  0
LINE
  5
182E6
330
17EC5
100
AcDbEntity
  8
SUNPOU
100
AcDbLine
 10
11201.33837406209
 20
3394.170862655057
 30
0.0
 11
10994.19551691923
 21
3394.170862655057
 31
0.0
  0
LINE
  5
182E7
330
17EC5
100
AcDbEntity
  8
SUNPOU
100
AcDbLine
 10
11301.33837406211
 20
3394.170862655057
 30
0.0
 11
11221.33837406209
 21
3394.170862655057
 31
0.0
  0
LINE
  5
182E8
330
17EC5
100
AcDbEntity
  8
SUNPOU
100
AcDbLine
 10
11221.33837406209
 20
3578.337036584561
 30
0.0
 11
11221.33837406209
 21
3139.170862655058
 31
0.0
  0
LINE
  5
182E9
330
17EC5
100
AcDbEntity
  8
SUNPOU
100
AcDbLine
 10
11861.33837406209
 20
3578.337036584561
 30
0.0
 11
11861.33837406209
 21
3139.170862655058
 31
0.0
  0
LINE
  5
182EA
330
17EC5
100
AcDbEntity
  8
SUNPOU
100
AcDbLine
 10
11241.33837406209
 20
3184.170862655058
 30
0.0
 11
11841.33837406209
 21
3184.170862655058
 31
0.0
  0
TEXT
  5
182EB
330
17EC5
100
AcDbEntity
  8
SUNPOU
100
AcDbText
 10
7421.74161720953
 20
2291.227696562459
 30
0.0
 40
90.0
  1
100
 50
90.0
 41
0.6666666666666666
  7
00
100
AcDbText
  0
LINE
  5
182EC
330
17EC5
100
AcDbEntity
  8
SUNPOU
100
AcDbLine
 10
7466.74161720953
 20
2534.0848394196
 30
0.0
 11
7466.74161720953
 21
2549.084839419601
 31
0.0
  0
LINE
  5
182ED
330
17EC5
100
AcDbEntity
  8
SUNPOU
100
AcDbLine
 10
7466.74161720953
 20
2664.084839419601
 30
0.0
 11
7466.74161720953
 21
2649.084839419601
 31
0.0
  0
TEXT
  5
182EE
330
17EC5
100
AcDbEntity
  8
SUNPOU
100
AcDbText
 10
7195.493193372984
 20
2897.37055370532
 30
0.0
 40
90.0
  1
580
 50
90.0
 41
0.6666666666666666
  7
00
100
AcDbText
  0
LINE
  5
182EF
330
17EC5
100
AcDbEntity
  8
SUNPOU
100
AcDbLine
 10
7240.493193372985
 20
2534.0848394196
 30
0.0
 11
7240.493193372985
 21
2549.084839419601
 31
0.0
  0
LINE
  5
182F0
330
17EC5
100
AcDbEntity
  8
SUNPOU
100
AcDbLine
 10
7240.493193372985
 20
3432.084839419608
 30
0.0
 11
7240.493193372985
 21
3417.084839419608
 31
0.0
  0
TEXT
  5
182F1
330
17EC5
100
AcDbEntity
  8
SUNPOU
100
AcDbText
 10
7421.74161720953
 20
3197.941982276745
 30
0.0
 40
90.0
  1
80
 50
90.0
 41
0.6666666666666666
  7
00
100
AcDbText
  0
LINE
  5
182F2
330
17EC5
100
AcDbEntity
  8
SUNPOU
100
AcDbLine
 10
7466.741617209533
 20
3176.084839419599
 30
0.0
 11
7466.741617209533
 21
3161.084839419599
 31
0.0
  0
LINE
  5
182F3
330
17EC5
100
AcDbEntity
  8
SUNPOU
100
AcDbLine
 10
7466.741617209533
 20
3334.084839419602
 30
0.0
 11
7466.741617209533
 21
3349.084839419603
 31
0.0
  0
TEXT
  5
182F4
330
17EC5
100
AcDbEntity
  8
SUNPOU
100
AcDbText
 10
7421.74161720953
 20
3523.513410848181
 30
0.0
 40
90.0
  1
80
 50
90.0
 41
0.6666666666666666
  7
00
100
AcDbText
  0
LINE
  5
182F5
330
17EC5
100
AcDbEntity
  8
SUNPOU
100
AcDbLine
 10
7466.74161720953
 20
3462.084839419608
 30
0.0
 11
7466.74161720953
 21
3477.084839419608
 31
0.0
  0
LINE
  5
182F6
330
17EC5
100
AcDbEntity
  8
SUNPOU
100
AcDbLine
 10
7466.74161720953
 20
3304.084839419604
 30
0.0
 11
7466.74161720953
 21
3289.084839419603
 31
0.0
  0
TEXT
  5
182F7
330
17EC5
100
AcDbEntity
  8
SUNPOU
100
AcDbText
 10
7421.74161720953
 20
2849.370553705315
 30
0.0
 40
90.0
  1
320
 50
90.0
 41
0.6666666666666666
  7
00
100
AcDbText
  0
LINE
  5
182F8
330
17EC5
100
AcDbEntity
  8
SUNPOU
100
AcDbLine
 10
7466.74161720953
 20
3176.084839419599
 30
0.0
 11
7466.74161720953
 21
3161.084839419599
 31
0.0
  0
LINE
  5
182F9
330
17EC5
100
AcDbEntity
  8
SUNPOU
100
AcDbLine
 10
7466.74161720953
 20
2694.084839419601
 30
0.0
 11
7466.74161720953
 21
2709.084839419601
 31
0.0
  0
TEXT
  5
182FA
330
17EC5
100
AcDbEntity
  8
SUNPOU
100
AcDbText
 10
8726.168385259301
 20
2193.684839419598
 30
0.0
 40
90.0
  1
800
 41
0.6666666666666666
  7
00
100
AcDbText
  0
LINE
  5
182FB
330
17EC5
100
AcDbEntity
  8
SUNPOU
100
AcDbLine
 10
9436.882670973593
 20
2148.684839419598
 30
0.0
 11
9421.882670973593
 21
2148.684839419598
 31
0.0
  0
LINE
  5
182FC
330
17EC5
100
AcDbEntity
  8
SUNPOU
100
AcDbLine
 10
8186.882670973593
 20
2148.684839419598
 30
0.0
 11
8201.882670973589
 21
2148.684839419598
 31
0.0
  0
TEXT
  5
182FD
330
17EC5
100
AcDbEntity
  8
SUNPOU
100
AcDbText
 10
8693.311242402165
 20
1951.684839419598
 30
0.0
 40
90.0
  1
1000
 41
0.6666666666666666
  7
00
100
AcDbText
  0
LINE
  5
182FE
330
17EC5
100
AcDbEntity
  8
SUNPOU
100
AcDbLine
 10
9596.882670973593
 20
1906.684839419598
 30
0.0
 11
9581.882670973593
 21
1906.684839419598
 31
0.0
  0
LINE
  5
182FF
330
17EC5
100
AcDbEntity
  8
SUNPOU
100
AcDbLine
 10
8026.88267097359
 20
1906.684839419598
 30
0.0
 11
8041.88267097359
 21
1906.684839419598
 31
0.0
  0
TEXT
  5
18300
330
17EC5
100
AcDbEntity
  8
SUNPOU
100
AcDbText
 10
7001.741617209529
 20
3523.513410848181
 30
0.0
 40
90.0
  1
50
 50
90.0
 41
0.6666666666666666
  7
00
100
AcDbText
  0
LINE
  5
18301
330
17EC5
100
AcDbEntity
  8
SUNPOU
100
AcDbLine
 10
7046.74161720953
 20
3462.08483941961
 30
0.0
 11
7046.74161720953
 21
3477.084839419608
 31
0.0
  0
LINE
  5
18302
330
17EC5
100
AcDbEntity
  8
SUNPOU
100
AcDbLine
 10
7046.74161720953
 20
3352.084839419608
 30
0.0
 11
7046.74161720953
 21
3337.084839419608
 31
0.0
  0
TEXT
  5
18303
330
17EC5
100
AcDbEntity
  8
SUNPOU
100
AcDbText
 10
8166.168385259304
 20
4175.485411556194
 30
0.0
 40
90.0
  1
700
 41
0.6666666666666666
  7
00
100
AcDbText
  0
LINE
  5
18304
330
17EC5
100
AcDbEntity
  8
SUNPOU
100
AcDbLine
 10
7706.88267097359
 20
4130.485411556196
 30
0.0
 11
7721.882670973591
 21
4130.485411556196
 31
0.0
  0
LINE
  5
18305
330
17EC5
100
AcDbEntity
  8
SUNPOU
100
AcDbLine
 10
8796.882670973586
 20
4130.485411556196
 30
0.0
 11
8781.882670973585
 21
4130.485411556196
 31
0.0
  0
TEXT
  5
18306
330
17EC5
100
AcDbEntity
  8
SUNPOU
100
AcDbText
 10
4714.08276555318
 20
2193.684839419598
 30
0.0
 40
90.0
  1
800
 41
0.6666666666666666
  7
00
100
AcDbText
  0
LINE
  5
18307
330
17EC5
100
AcDbEntity
  8
SUNPOU
100
AcDbLine
 10
5424.797051267465
 20
2148.684839419598
 30
0.0
 11
5409.797051267466
 21
2148.684839419598
 31
0.0
  0
LINE
  5
18308
330
17EC5
100
AcDbEntity
  8
SUNPOU
100
AcDbLine
 10
4174.797051267465
 20
2148.684839419598
 30
0.0
 11
4189.797051267468
 21
2148.684839419598
 31
0.0
  0
TEXT
  5
18309
330
17EC5
100
AcDbEntity
  8
SUNPOU
100
AcDbText
 10
4681.225622696035
 20
1951.684839419597
 30
0.0
 40
90.0
  1
1000
 41
0.6666666666666666
  7
00
100
AcDbText
  0
LINE
  5
1830A
330
17EC5
100
AcDbEntity
  8
SUNPOU
100
AcDbLine
 10
5584.797051267464
 20
1906.684839419597
 30
0.0
 11
5569.797051267465
 21
1906.684839419597
 31
0.0
  0
LINE
  5
1830B
330
17EC5
100
AcDbEntity
  8
SUNPOU
100
AcDbLine
 10
4014.797051267463
 20
1906.684839419597
 30
0.0
 11
4029.797051267464
 21
1906.684839419597
 31
0.0
  0
TEXT
  5
1830C
330
17EC5
100
AcDbEntity
  8
SUNPOU
100
AcDbText
 10
3415.443655266706
 20
3523.513410848181
 30
0.0
 40
90.0
  1
50
 50
90.0
 41
0.6666666666666666
  7
00
100
AcDbText
  0
LINE
  5
1830D
330
17EC5
100
AcDbEntity
  8
SUNPOU
100
AcDbLine
 10
3460.443655266707
 20
3462.084839419608
 30
0.0
 11
3460.443655266707
 21
3477.084839419608
 31
0.0
  0
LINE
  5
1830E
330
17EC5
100
AcDbEntity
  8
SUNPOU
100
AcDbLine
 10
3460.443655266707
 20
3352.084839419605
 30
0.0
 11
3460.443655266707
 21
3337.084839419605
 31
0.0
  0
TEXT
  5
1830F
330
17EC5
100
AcDbEntity
  8
SUNPOU
100
AcDbText
 10
3835.443655266707
 20
3197.941982276741
 30
0.0
 40
90.0
  1
80
 50
90.0
 41
0.6666666666666666
  7
00
100
AcDbText
  0
LINE
  5
18310
330
17EC5
100
AcDbEntity
  8
SUNPOU
100
AcDbLine
 10
3880.443655266708
 20
3176.084839419596
 30
0.0
 11
3880.443655266708
 21
3161.084839419595
 31
0.0
  0
LINE
  5
18311
330
17EC5
100
AcDbEntity
  8
SUNPOU
100
AcDbLine
 10
3880.443655266708
 20
3334.084839419599
 30
0.0
 11
3880.443655266708
 21
3349.0848394196
 31
0.0
  0
TEXT
  5
18312
330
17EC5
100
AcDbEntity
  8
SUNPOU
100
AcDbText
 10
3835.443655266707
 20
3523.513410848181
 30
0.0
 40
90.0
  1
80
 50
90.0
 41
0.6666666666666666
  7
00
100
AcDbText
  0
LINE
  5
18313
330
17EC5
100
AcDbEntity
  8
SUNPOU
100
AcDbLine
 10
3880.443655266708
 20
3462.084839419608
 30
0.0
 11
3880.443655266708
 21
3477.084839419608
 31
0.0
  0
LINE
  5
18314
330
17EC5
100
AcDbEntity
  8
SUNPOU
100
AcDbLine
 10
3880.443655266708
 20
3304.0848394196
 30
0.0
 11
3880.443655266708
 21
3289.084839419599
 31
0.0
  0
TEXT
  5
18315
330
17EC5
100
AcDbEntity
  8
SUNPOU
100
AcDbText
 10
3835.443655266707
 20
2849.370553705313
 30
0.0
 40
90.0
  1
320
 50
90.0
 41
0.6666666666666666
  7
00
100
AcDbText
  0
LINE
  5
18316
330
17EC5
100
AcDbEntity
  8
SUNPOU
100
AcDbLine
 10
3880.443655266708
 20
3176.084839419596
 30
0.0
 11
3880.443655266708
 21
3161.084839419595
 31
0.0
  0
LINE
  5
18317
330
17EC5
100
AcDbEntity
  8
SUNPOU
100
AcDbLine
 10
3880.443655266707
 20
2694.0848394196
 30
0.0
 11
3880.443655266707
 21
2709.0848394196
 31
0.0
  0
TEXT
  5
18318
330
17EC5
100
AcDbEntity
  8
SUNPOU
100
AcDbText
 10
3835.443655266707
 20
2291.227696562457
 30
0.0
 40
90.0
  1
100
 50
90.0
 41
0.6666666666666666
  7
00
100
AcDbText
  0
LINE
  5
18319
330
17EC5
100
AcDbEntity
  8
SUNPOU
100
AcDbLine
 10
3880.443655266708
 20
2534.0848394196
 30
0.0
 11
3880.443655266708
 21
2549.0848394196
 31
0.0
  0
LINE
  5
1831A
330
17EC5
100
AcDbEntity
  8
SUNPOU
100
AcDbLine
 10
3880.443655266708
 20
2664.084839419599
 30
0.0
 11
3880.443655266708
 21
2649.0848394196
 31
0.0
  0
TEXT
  5
1831B
330
17EC5
100
AcDbEntity
  8
SUNPOU
100
AcDbText
 10
3625.443655266707
 20
2897.370553705319
 30
0.0
 40
90.0
  1
580
 50
90.0
 41
0.6666666666666666
  7
00
100
AcDbText
  0
LINE
  5
1831C
330
17EC5
100
AcDbEntity
  8
SUNPOU
100
AcDbLine
 10
3670.443655266707
 20
2534.0848394196
 30
0.0
 11
3670.443655266707
 21
2549.0848394196
 31
0.0
  0
LINE
  5
1831D
330
17EC5
100
AcDbEntity
  8
SUNPOU
100
AcDbLine
 10
3670.443655266709
 20
3432.084839419609
 30
0.0
 11
3670.443655266709
 21
3417.084839419608
 31
0.0
  0
TEXT
  5
1831E
330
17EC5
100
AcDbEntity
  8
SUNPOU
100
AcDbText
 10
4394.082765553181
 20
4175.485411556191
 30
0.0
 40
90.0
  1
400
 41
0.6666666666666666
  7
00
100
AcDbText
  0
LINE
  5
1831F
330
17EC5
100
AcDbEntity
  8
SUNPOU
100
AcDbLine
 10
4174.797051267465
 20
4130.485411556192
 30
0.0
 11
4189.797051267468
 21
4130.485411556192
 31
0.0
  0
LINE
  5
18320
330
17EC5
100
AcDbEntity
  8
SUNPOU
100
AcDbLine
 10
4784.797051267466
 20
4130.485411556192
 30
0.0
 11
4769.797051267466
 21
4130.485411556192
 31
0.0
  0
TEXT
  5
18321
330
17EC5
100
AcDbEntity
  8
SUNPOU
100
AcDbText
 10
12133.41322218536
 20
6353.693182432332
 30
0.0
 40
90.0
  1
400
 41
0.6666666666666666
  7
00
100
AcDbText
  0
LINE
  5
18322
330
17EC5
100
AcDbEntity
  8
SUNPOU
100
AcDbLine
 10
12404.12750789964
 20
6308.693182432332
 30
0.0
 11
12389.12750789964
 21
6308.693182432332
 31
0.0
  0
LINE
  5
18323
330
17EC5
100
AcDbEntity
  8
SUNPOU
100
AcDbLine
 10
12034.12750789965
 20
6308.693182432332
 30
0.0
 11
12049.12750789965
 21
6308.693182432332
 31
0.0
  0
TEXT
  5
18324
330
17EC5
100
AcDbEntity
  8
SUNPOU
100
AcDbText
 10
10704.84179361393
 20
6353.693182432332
 30
0.0
 40
90.0
  1
2400
 41
0.6666666666666666
  7
00
100
AcDbText
  0
LINE
  5
18325
330
17EC5
100
AcDbEntity
  8
SUNPOU
100
AcDbLine
 10
12004.12750789965
 20
6308.693182432332
 30
0.0
 11
11989.12750789965
 21
6308.693182432332
 31
0.0
  0
LINE
  5
18326
330
17EC5
100
AcDbEntity
  8
SUNPOU
100
AcDbLine
 10
9634.127507899648
 20
6308.693182432332
 30
0.0
 11
9649.127507899649
 21
6308.693182432332
 31
0.0
  0
TEXT
  5
18327
330
17EC5
100
AcDbEntity
  8
SUNPOU
100
AcDbText
 10
8029.393736471076
 20
6353.693182432332
 30
0.0
 40
90.0
  1
2400 ×（ N - 2 ）
 41
0.6667
  7
00
100
AcDbText
  0
LINE
  5
18328
330
17EC5
100
AcDbEntity
  8
SUNPOU
100
AcDbLine
 10
9604.127507899647
 20
6308.693182432332
 30
0.0
 11
9589.127507899648
 21
6308.693182432332
 31
0.0
  0
LINE
  5
18329
330
17EC5
100
AcDbEntity
  8
SUNPOU
100
AcDbLine
 10
7234.127507899646
 20
6308.693182432332
 30
0.0
 11
7249.127507899649
 21
6308.693182432332
 31
0.0
  0
TEXT
  5
1832A
330
17EC5
100
AcDbEntity
  8
SUNPOU
100
AcDbText
 10
5904.841793613933
 20
6353.693182432332
 30
0.0
 40
90.0
  1
2400
 41
0.6666666666666666
  7
00
100
AcDbText
  0
LINE
  5
1832B
330
17EC5
100
AcDbEntity
  8
SUNPOU
100
AcDbLine
 10
7204.127507899646
 20
6308.693182432332
 30
0.0
 11
7189.127507899645
 21
6308.693182432332
 31
0.0
  0
LINE
  5
1832C
330
17EC5
100
AcDbEntity
  8
SUNPOU
100
AcDbLine
 10
4834.127507899648
 20
6308.693182432332
 30
0.0
 11
4849.127507899648
 21
6308.693182432332
 31
0.0
  0
TEXT
  5
1832D
330
17EC5
100
AcDbEntity
  8
SUNPOU
100
AcDbText
 10
4533.413222185362
 20
6353.693182432332
 30
0.0
 40
90.0
  1
400
 41
0.6666666666666666
  7
00
100
AcDbText
  0
LINE
  5
1832E
330
17EC5
100
AcDbEntity
  8
SUNPOU
100
AcDbLine
 10
4804.127507899647
 20
6308.693182432332
 30
0.0
 11
4789.127507899648
 21
6308.693182432332
 31
0.0
  0
LINE
  5
1832F
330
17EC5
100
AcDbEntity
  8
SUNPOU
100
AcDbLine
 10
4434.127507899648
 20
6308.693182432332
 30
0.0
 11
4449.127507899648
 21
6308.693182432332
 31
0.0
  0
ARC
  5
18330
330
17EC5
100
AcDbEntity
  8
SUNPOU
100
AcDbCircle
 10
12419.12750789964
 20
6098.693182432332
 30
0.0
 40
7.5
100
AcDbArc
 50
180.0
 51
0.0
  0
ARC
  5
18331
330
17EC5
100
AcDbEntity
  8
SUNPOU
100
AcDbCircle
 10
12419.12750789964
 20
6098.693182432332
 30
0.0
 40
7.5
100
AcDbArc
 50
0.0
 51
180.0
  0
ARC
  5
18332
330
17EC5
100
AcDbEntity
  8
SUNPOU
100
AcDbCircle
 10
4419.127507899648
 20
6098.693182432332
 30
0.0
 40
7.5
100
AcDbArc
 50
0.0
 51
180.0
  0
ARC
  5
18333
330
17EC5
100
AcDbEntity
  8
SUNPOU
100
AcDbCircle
 10
4419.127507899648
 20
6098.693182432332
 30
0.0
 40
7.5
100
AcDbArc
 50
180.0
 51
0.0
  0
TEXT
  5
18334
330
17EC5
100
AcDbEntity
  8
SUNPOU
100
AcDbText
 10
12228.40680314954
 20
3942.765608013134
 30
0.0
 40
90.0
  1
40
 50
90.0
 41
0.6666666666666666
  7
00
100
AcDbText
  0
LINE
  5
18335
330
17EC5
100
AcDbEntity
  8
SUNPOU
100
AcDbLine
 10
12273.40680314955
 20
3871.337036584561
 30
0.0
 11
12273.40680314955
 21
3856.337036584561
 31
0.0
  0
LINE
  5
18336
330
17EC5
100
AcDbEntity
  8
SUNPOU
100
AcDbLine
 10
12273.40680314955
 20
3741.33703658456
 30
0.0
 11
12273.40680314955
 21
3756.337036584561
 31
0.0
  0
TEXT
  5
18337
330
17EC5
100
AcDbEntity
  8
SUNPOU
100
AcDbText
 10
12228.40680314954
 20
3427.622750870277
 30
0.0
 40
90.0
  1
27
 50
90.0
 41
0.6666666666666666
  7
00
100
AcDbText
  0
LINE
  5
18338
330
17EC5
100
AcDbEntity
  8
SUNPOU
100
AcDbLine
 10
12273.40680314955
 20
3603.337036584561
 30
0.0
 11
12273.40680314955
 21
3588.337036584561
 31
0.0
  0
LINE
  5
18339
330
17EC5
100
AcDbEntity
  8
SUNPOU
100
AcDbLine
 10
12273.40680314955
 20
3741.33703658456
 30
0.0
 11
12273.40680314955
 21
3756.337036584561
 31
0.0
  0
TEXT
  5
1833A
330
17EC5
100
AcDbEntity
  8
SUNPOU
100
AcDbText
 10
11937.76694549065
 20
2290.804976716086
 30
0.0
 40
90.0
  1
20
 41
0.6666666666666666
  7
00
100
AcDbText
  0
LINE
  5
1833B
330
17EC5
100
AcDbEntity
  8
SUNPOU
100
AcDbLine
 10
11876.33837406208
 20
2245.804976716085
 30
0.0
 11
11891.33837406209
 21
2245.804976716085
 31
0.0
  0
LINE
  5
1833C
330
17EC5
100
AcDbEntity
  8
SUNPOU
100
AcDbLine
 10
11766.33837406209
 20
2245.804976716085
 30
0.0
 11
11751.33837406209
 21
2245.804976716085
 31
0.0
  0
TEXT
  5
1833D
330
17EC5
100
AcDbEntity
  8
SUNPOU
100
AcDbText
 10
11451.33837406209
 20
2290.804976716086
 30
0.0
 40
90.0
  1
120
 41
0.6666666666666666
  7
00
100
AcDbText
  0
LINE
  5
1833E
330
17EC5
100
AcDbEntity
  8
SUNPOU
100
AcDbLine
 10
11766.33837406209
 20
2245.804976716085
 30
0.0
 11
11751.33837406209
 21
2245.804976716085
 31
0.0
  0
LINE
  5
1833F
330
17EC5
100
AcDbEntity
  8
SUNPOU
100
AcDbLine
 10
11316.33837406211
 20
2245.804976716085
 30
0.0
 11
11331.3383740621
 21
2245.804976716085
 31
0.0
  0
TEXT
  5
18340
330
17EC5
100
AcDbEntity
  8
SUNPOU
100
AcDbText
 10
11030.6240883478
 20
2290.804976716086
 30
0.0
 40
90.0
  1
20
 41
0.6666666666666666
  7
00
100
AcDbText
  0
LINE
  5
18341
330
17EC5
100
AcDbEntity
  8
SUNPOU
100
AcDbLine
 10
11206.33837406209
 20
2245.804976716085
 30
0.0
 11
11191.33837406208
 21
2245.804976716085
 31
0.0
  0
LINE
  5
18342
330
17EC5
100
AcDbEntity
  8
SUNPOU
100
AcDbLine
 10
11316.33837406211
 20
2245.804976716085
 30
0.0
 11
11331.3383740621
 21
2245.804976716085
 31
0.0
  0
TEXT
  5
18343
330
17EC5
100
AcDbEntity
  8
SUNPOU
100
AcDbText
 10
11451.33837406208
 20
2080.804976716085
 30
0.0
 40
90.0
  1
160
 41
0.6666666666666666
  7
00
100
AcDbText
  0
LINE
  5
18344
330
17EC5
100
AcDbEntity
  8
SUNPOU
100
AcDbLine
 10
11846.33837406209
 20
2035.804976716086
 30
0.0
 11
11831.33837406209
 21
2035.804976716086
 31
0.0
  0
LINE
  5
18345
330
17EC5
100
AcDbEntity
  8
SUNPOU
100
AcDbLine
 10
11236.33837406209
 20
2035.804976716086
 30
0.0
 11
11251.33837406208
 21
2035.804976716086
 31
0.0
  0
TEXT
  5
18346
330
17EC5
100
AcDbEntity
  8
SUNPOU
100
AcDbText
 10
10873.33837406209
 20
2369.430058338865
 30
0.0
 40
90.0
  1
40
 50
90.0
 41
0.6666666666666666
  7
00
100
AcDbText
  0
LINE
  5
18347
330
17EC5
100
AcDbEntity
  8
SUNPOU
100
AcDbLine
 10
10918.33837406209
 20
2555.144344053149
 30
0.0
 11
10918.33837406209
 21
2570.144344053149
 31
0.0
  0
LINE
  5
18348
330
17EC5
100
AcDbEntity
  8
SUNPOU
100
AcDbLine
 10
10918.33837406209
 20
2685.144344053149
 30
0.0
 11
10918.33837406209
 21
2670.144344053149
 31
0.0
  0
TEXT
  5
18349
330
17EC5
100
AcDbEntity
  8
SUNPOU
100
AcDbText
 10
10873.33837406209
 20
2916.572915481723
 30
0.0
 40
90.0
  1
40
 50
90.0
 41
0.6666666666666666
  7
00
100
AcDbText
  0
LINE
  5
1834A
330
17EC5
100
AcDbEntity
  8
SUNPOU
100
AcDbLine
 10
10918.33837406209
 20
2845.144344053149
 30
0.0
 11
10918.33837406209
 21
2830.144344053149
 31
0.0
  0
LINE
  5
1834B
330
17EC5
100
AcDbEntity
  8
SUNPOU
100
AcDbLine
 10
10918.33837406209
 20
2715.144344053149
 30
0.0
 11
10918.33837406209
 21
2730.144344053149
 31
0.0
  0
TEXT
  5
1834C
330
17EC5
100
AcDbEntity
  8
SUNPOU
100
AcDbText
 10
10663.33837406209
 20
2643.001486910295
 30
0.0
 40
90.0
  1
80
 50
90.0
 41
0.6666666666666666
  7
00
100
AcDbText
  0
LINE
  5
1834D
330
17EC5
100
AcDbEntity
  8
SUNPOU
100
AcDbLine
 10
10708.33837406208
 20
2845.144344053149
 30
0.0
 11
10708.33837406208
 21
2830.144344053149
 31
0.0
  0
LINE
  5
1834E
330
17EC5
100
AcDbEntity
  8
SUNPOU
100
AcDbLine
 10
10708.33837406208
 20
2555.144344053149
 30
0.0
 11
10708.33837406208
 21
2570.144344053149
 31
0.0
  0
TEXT
  5
1834F
330
17EC5
100
AcDbEntity
  8
SUNPOU
100
AcDbText
 10
11937.76694549065
 20
3439.170862655058
 30
0.0
 40
90.0
  1
20
 41
0.6666666666666666
  7
00
100
AcDbText
  0
LINE
  5
18350
330
17EC5
100
AcDbEntity
  8
SUNPOU
100
AcDbLine
 10
11876.33837406208
 20
3394.170862655057
 30
0.0
 11
11891.33837406209
 21
3394.170862655057
 31
0.0
  0
LINE
  5
18351
330
17EC5
100
AcDbEntity
  8
SUNPOU
100
AcDbLine
 10
11766.33837406209
 20
3394.170862655057
 30
0.0
 11
11751.33837406209
 21
3394.170862655057
 31
0.0
  0
TEXT
  5
18352
330
17EC5
100
AcDbEntity
  8
SUNPOU
100
AcDbText
 10
11451.33837406209
 20
3439.170862655058
 30
0.0
 40
90.0
  1
120
 41
0.6666666666666666
  7
00
100
AcDbText
  0
LINE
  5
18353
330
17EC5
100
AcDbEntity
  8
SUNPOU
100
AcDbLine
 10
11766.33837406209
 20
3394.170862655057
 30
0.0
 11
11751.33837406209
 21
3394.170862655057
 31
0.0
  0
LINE
  5
18354
330
17EC5
100
AcDbEntity
  8
SUNPOU
100
AcDbLine
 10
11316.33837406211
 20
3394.170862655057
 30
0.0
 11
11331.3383740621
 21
3394.170862655057
 31
0.0
  0
TEXT
  5
18355
330
17EC5
100
AcDbEntity
  8
SUNPOU
100
AcDbText
 10
11030.6240883478
 20
3439.170862655058
 30
0.0
 40
90.0
  1
20
 41
0.6666666666666666
  7
00
100
AcDbText
  0
LINE
  5
18356
330
17EC5
100
AcDbEntity
  8
SUNPOU
100
AcDbLine
 10
11206.33837406209
 20
3394.170862655057
 30
0.0
 11
11191.33837406208
 21
3394.170862655057
 31
0.0
  0
LINE
  5
18357
330
17EC5
100
AcDbEntity
  8
SUNPOU
100
AcDbLine
 10
11316.33837406211
 20
3394.170862655057
 30
0.0
 11
11331.3383740621
 21
3394.170862655057
 31
0.0
  0
TEXT
  5
18358
330
17EC5
100
AcDbEntity
  8
SUNPOU
100
AcDbText
 10
11451.33837406208
 20
3229.170862655058
 30
0.0
 40
90.0
  1
160
 41
0.6666666666666666
  7
00
100
AcDbText
  0
LINE
  5
18359
330
17EC5
100
AcDbEntity
  8
SUNPOU
100
AcDbLine
 10
11846.33837406209
 20
3184.170862655058
 30
0.0
 11
11831.33837406209
 21
3184.170862655058
 31
0.0
  0
LINE
  5
1835A
330
17EC5
100
AcDbEntity
  8
SUNPOU
100
AcDbLine
 10
11236.33837406209
 20
3184.170862655058
 30
0.0
 11
11251.33837406208
 21
3184.170862655058
 31
0.0
  0
ARC
  5
1835B
330
17EC5
100
AcDbEntity
  8
SUNPOU
100
AcDbCircle
 10
7466.74161720953
 20
2519.084839419601
 30
0.0
 40
7.5
100
AcDbArc
 50
90.0
 51
270.0
  0
ARC
  5
1835C
330
17EC5
100
AcDbEntity
  8
SUNPOU
100
AcDbCircle
 10
7466.74161720953
 20
2519.084839419601
 30
0.0
 40
7.5
100
AcDbArc
 50
270.0
 51
90.0
  0
ARC
  5
1835D
330
17EC5
100
AcDbEntity
  8
SUNPOU
100
AcDbCircle
 10
7466.74161720953
 20
2679.0848394196
 30
0.0
 40
7.5
100
AcDbArc
 50
270.0
 51
90.0
  0
ARC
  5
1835E
330
17EC5
100
AcDbEntity
  8
SUNPOU
100
AcDbCircle
 10
7466.74161720953
 20
2679.0848394196
 30
0.0
 40
7.5
100
AcDbArc
 50
90.0
 51
270.0
  0
ARC
  5
1835F
330
17EC5
100
AcDbEntity
  8
SUNPOU
100
AcDbCircle
 10
7240.493193372985
 20
2519.084839419601
 30
0.0
 40
7.5
100
AcDbArc
 50
90.0
 51
270.0
  0
ARC
  5
18360
330
17EC5
100
AcDbEntity
  8
SUNPOU
100
AcDbCircle
 10
7240.493193372985
 20
2519.084839419601
 30
0.0
 40
7.5
100
AcDbArc
 50
270.0
 51
90.0
  0
ARC
  5
18361
330
17EC5
100
AcDbEntity
  8
SUNPOU
100
AcDbCircle
 10
7240.493193372985
 20
3447.084839419608
 30
0.0
 40
7.5
100
AcDbArc
 50
270.0
 51
90.0
  0
ARC
  5
18362
330
17EC5
100
AcDbEntity
  8
SUNPOU
100
AcDbCircle
 10
7240.493193372985
 20
3447.084839419608
 30
0.0
 40
7.5
100
AcDbArc
 50
90.0
 51
270.0
  0
ARC
  5
18363
330
17EC5
100
AcDbEntity
  8
SUNPOU
100
AcDbCircle
 10
7466.741617209533
 20
3191.084839419599
 30
0.0
 40
7.5
100
AcDbArc
 50
270.0
 51
90.0
  0
ARC
  5
18364
330
17EC5
100
AcDbEntity
  8
SUNPOU
100
AcDbCircle
 10
7466.741617209533
 20
3191.084839419599
 30
0.0
 40
7.5
100
AcDbArc
 50
90.0
 51
270.0
  0
ARC
  5
18365
330
17EC5
100
AcDbEntity
  8
SUNPOU
100
AcDbCircle
 10
7466.741617209533
 20
3319.084839419603
 30
0.0
 40
7.5
100
AcDbArc
 50
90.0
 51
270.0
  0
ARC
  5
18366
330
17EC5
100
AcDbEntity
  8
SUNPOU
100
AcDbCircle
 10
7466.741617209533
 20
3319.084839419603
 30
0.0
 40
7.5
100
AcDbArc
 50
270.0
 51
90.0
  0
ARC
  5
18367
330
17EC5
100
AcDbEntity
  8
SUNPOU
100
AcDbCircle
 10
7466.74161720953
 20
3447.084839419609
 30
0.0
 40
7.5
100
AcDbArc
 50
90.0
 51
270.0
  0
ARC
  5
18368
330
17EC5
100
AcDbEntity
  8
SUNPOU
100
AcDbCircle
 10
7466.74161720953
 20
3447.084839419609
 30
0.0
 40
7.5
100
AcDbArc
 50
270.0
 51
90.0
  0
ARC
  5
18369
330
17EC5
100
AcDbEntity
  8
SUNPOU
100
AcDbCircle
 10
7466.74161720953
 20
3319.084839419603
 30
0.0
 40
7.5
100
AcDbArc
 50
270.0
 51
90.0
  0
ARC
  5
1836A
330
17EC5
100
AcDbEntity
  8
SUNPOU
100
AcDbCircle
 10
7466.74161720953
 20
3319.084839419603
 30
0.0
 40
7.5
100
AcDbArc
 50
90.0
 51
270.0
  0
ARC
  5
1836B
330
17EC5
100
AcDbEntity
  8
SUNPOU
100
AcDbCircle
 10
7466.74161720953
 20
3191.084839419599
 30
0.0
 40
7.5
100
AcDbArc
 50
270.0
 51
90.0
  0
ARC
  5
1836C
330
17EC5
100
AcDbEntity
  8
SUNPOU
100
AcDbCircle
 10
7466.74161720953
 20
3191.084839419599
 30
0.0
 40
7.5
100
AcDbArc
 50
90.0
 51
270.0
  0
ARC
  5
1836D
330
17EC5
100
AcDbEntity
  8
SUNPOU
100
AcDbCircle
 10
7466.74161720953
 20
2679.0848394196
 30
0.0
 40
7.5
100
AcDbArc
 50
90.0
 51
270.0
  0
ARC
  5
1836E
330
17EC5
100
AcDbEntity
  8
SUNPOU
100
AcDbCircle
 10
7466.74161720953
 20
2679.0848394196
 30
0.0
 40
7.5
100
AcDbArc
 50
270.0
 51
90.0
  0
ARC
  5
1836F
330
17EC5
100
AcDbEntity
  8
SUNPOU
100
AcDbCircle
 10
9451.882670973594
 20
2148.684839419598
 30
0.0
 40
7.5
100
AcDbArc
 50
180.0
 51
0.0
  0
ARC
  5
18370
330
17EC5
100
AcDbEntity
  8
SUNPOU
100
AcDbCircle
 10
9451.882670973594
 20
2148.684839419598
 30
0.0
 40
7.5
100
AcDbArc
 50
0.0
 51
180.0
  0
ARC
  5
18371
330
17EC5
100
AcDbEntity
  8
SUNPOU
100
AcDbCircle
 10
8171.882670973593
 20
2148.684839419598
 30
0.0
 40
7.5
100
AcDbArc
 50
0.0
 51
180.0
  0
ARC
  5
18372
330
17EC5
100
AcDbEntity
  8
SUNPOU
100
AcDbCircle
 10
8171.882670973593
 20
2148.684839419598
 30
0.0
 40
7.5
100
AcDbArc
 50
180.0
 51
0.0
  0
ARC
  5
18373
330
17EC5
100
AcDbEntity
  8
SUNPOU
100
AcDbCircle
 10
9611.882670973592
 20
1906.684839419598
 30
0.0
 40
7.5
100
AcDbArc
 50
180.0
 51
0.0
  0
ARC
  5
18374
330
17EC5
100
AcDbEntity
  8
SUNPOU
100
AcDbCircle
 10
9611.882670973592
 20
1906.684839419598
 30
0.0
 40
7.5
100
AcDbArc
 50
0.0
 51
180.0
  0
ARC
  5
18375
330
17EC5
100
AcDbEntity
  8
SUNPOU
100
AcDbCircle
 10
8011.882670973587
 20
1906.684839419598
 30
0.0
 40
7.5
100
AcDbArc
 50
0.0
 51
180.0
  0
ARC
  5
18376
330
17EC5
100
AcDbEntity
  8
SUNPOU
100
AcDbCircle
 10
8011.882670973587
 20
1906.684839419598
 30
0.0
 40
7.5
100
AcDbArc
 50
180.0
 51
0.0
  0
ARC
  5
18377
330
17EC5
100
AcDbEntity
  8
SUNPOU
100
AcDbCircle
 10
7046.74161720953
 20
3447.084839419609
 30
0.0
 40
7.5
100
AcDbArc
 50
90.0
 51
270.0
  0
ARC
  5
18378
330
17EC5
100
AcDbEntity
  8
SUNPOU
100
AcDbCircle
 10
7046.74161720953
 20
3447.084839419609
 30
0.0
 40
7.5
100
AcDbArc
 50
270.0
 51
90.0
  0
ARC
  5
18379
330
17EC5
100
AcDbEntity
  8
SUNPOU
100
AcDbCircle
 10
7046.74161720953
 20
3367.084839419608
 30
0.0
 40
7.5
100
AcDbArc
 50
270.0
 51
90.0
  0
ARC
  5
1837A
330
17EC5
100
AcDbEntity
  8
SUNPOU
100
AcDbCircle
 10
7046.74161720953
 20
3367.084839419608
 30
0.0
 40
7.5
100
AcDbArc
 50
90.0
 51
270.0
  0
ARC
  5
1837B
330
17EC5
100
AcDbEntity
  8
SUNPOU
100
AcDbCircle
 10
7691.882670973591
 20
4130.485411556196
 30
0.0
 40
7.5
100
AcDbArc
 50
0.0
 51
180.0
  0
ARC
  5
1837C
330
17EC5
100
AcDbEntity
  8
SUNPOU
100
AcDbCircle
 10
7691.882670973591
 20
4130.485411556196
 30
0.0
 40
7.5
100
AcDbArc
 50
180.0
 51
0.0
  0
ARC
  5
1837D
330
17EC5
100
AcDbEntity
  8
SUNPOU
100
AcDbCircle
 10
8811.882670973586
 20
4130.485411556196
 30
0.0
 40
7.5
100
AcDbArc
 50
180.0
 51
0.0
  0
ARC
  5
1837E
330
17EC5
100
AcDbEntity
  8
SUNPOU
100
AcDbCircle
 10
8811.882670973586
 20
4130.485411556196
 30
0.0
 40
7.5
100
AcDbArc
 50
0.0
 51
180.0
  0
ARC
  5
1837F
330
17EC5
100
AcDbEntity
  8
SUNPOU
100
AcDbCircle
 10
5439.797051267465
 20
2148.684839419598
 30
0.0
 40
7.5
100
AcDbArc
 50
180.0
 51
0.0
  0
ARC
  5
18380
330
17EC5
100
AcDbEntity
  8
SUNPOU
100
AcDbCircle
 10
5439.797051267465
 20
2148.684839419598
 30
0.0
 40
7.5
100
AcDbArc
 50
0.0
 51
180.0
  0
ARC
  5
18381
330
17EC5
100
AcDbEntity
  8
SUNPOU
100
AcDbCircle
 10
4159.797051267466
 20
2148.684839419598
 30
0.0
 40
7.5
100
AcDbArc
 50
0.0
 51
180.0
  0
ARC
  5
18382
330
17EC5
100
AcDbEntity
  8
SUNPOU
100
AcDbCircle
 10
4159.797051267466
 20
2148.684839419598
 30
0.0
 40
7.5
100
AcDbArc
 50
180.0
 51
0.0
  0
ARC
  5
18383
330
17EC5
100
AcDbEntity
  8
SUNPOU
100
AcDbCircle
 10
5599.797051267465
 20
1906.684839419597
 30
0.0
 40
7.5
100
AcDbArc
 50
180.0
 51
0.0
  0
ARC
  5
18384
330
17EC5
100
AcDbEntity
  8
SUNPOU
100
AcDbCircle
 10
5599.797051267465
 20
1906.684839419597
 30
0.0
 40
7.5
100
AcDbArc
 50
0.0
 51
180.0
  0
ARC
  5
18385
330
17EC5
100
AcDbEntity
  8
SUNPOU
100
AcDbCircle
 10
3999.797051267465
 20
1906.684839419597
 30
0.0
 40
7.5
100
AcDbArc
 50
0.0
 51
180.0
  0
ARC
  5
18386
330
17EC5
100
AcDbEntity
  8
SUNPOU
100
AcDbCircle
 10
3999.797051267465
 20
1906.684839419597
 30
0.0
 40
7.5
100
AcDbArc
 50
180.0
 51
0.0
  0
ARC
  5
18387
330
17EC5
100
AcDbEntity
  8
SUNPOU
100
AcDbCircle
 10
3460.443655266707
 20
3447.084839419609
 30
0.0
 40
7.5
100
AcDbArc
 50
90.0
 51
270.0
  0
ARC
  5
18388
330
17EC5
100
AcDbEntity
  8
SUNPOU
100
AcDbCircle
 10
3460.443655266707
 20
3447.084839419609
 30
0.0
 40
7.5
100
AcDbArc
 50
270.0
 51
90.0
  0
ARC
  5
18389
330
17EC5
100
AcDbEntity
  8
SUNPOU
100
AcDbCircle
 10
3460.443655266707
 20
3367.084839419606
 30
0.0
 40
7.5
100
AcDbArc
 50
270.0
 51
90.0
  0
ARC
  5
1838A
330
17EC5
100
AcDbEntity
  8
SUNPOU
100
AcDbCircle
 10
3460.443655266707
 20
3367.084839419606
 30
0.0
 40
7.5
100
AcDbArc
 50
90.0
 51
270.0
  0
ARC
  5
1838B
330
17EC5
100
AcDbEntity
  8
SUNPOU
100
AcDbCircle
 10
3880.443655266708
 20
3191.084839419596
 30
0.0
 40
7.5
100
AcDbArc
 50
270.0
 51
90.0
  0
ARC
  5
1838C
330
17EC5
100
AcDbEntity
  8
SUNPOU
100
AcDbCircle
 10
3880.443655266708
 20
3191.084839419596
 30
0.0
 40
7.5
100
AcDbArc
 50
90.0
 51
270.0
  0
ARC
  5
1838D
330
17EC5
100
AcDbEntity
  8
SUNPOU
100
AcDbCircle
 10
3880.443655266708
 20
3319.0848394196
 30
0.0
 40
7.5
100
AcDbArc
 50
90.0
 51
270.0
  0
ARC
  5
1838E
330
17EC5
100
AcDbEntity
  8
SUNPOU
100
AcDbCircle
 10
3880.443655266708
 20
3319.0848394196
 30
0.0
 40
7.5
100
AcDbArc
 50
270.0
 51
90.0
  0
ARC
  5
1838F
330
17EC5
100
AcDbEntity
  8
SUNPOU
100
AcDbCircle
 10
3880.443655266708
 20
3447.084839419609
 30
0.0
 40
7.5
100
AcDbArc
 50
90.0
 51
270.0
  0
ARC
  5
18390
330
17EC5
100
AcDbEntity
  8
SUNPOU
100
AcDbCircle
 10
3880.443655266708
 20
3447.084839419609
 30
0.0
 40
7.5
100
AcDbArc
 50
270.0
 51
90.0
  0
ARC
  5
18391
330
17EC5
100
AcDbEntity
  8
SUNPOU
100
AcDbCircle
 10
3880.443655266708
 20
3319.0848394196
 30
0.0
 40
7.5
100
AcDbArc
 50
270.0
 51
90.0
  0
ARC
  5
18392
330
17EC5
100
AcDbEntity
  8
SUNPOU
100
AcDbCircle
 10
3880.443655266708
 20
3319.0848394196
 30
0.0
 40
7.5
100
AcDbArc
 50
90.0
 51
270.0
  0
ARC
  5
18393
330
17EC5
100
AcDbEntity
  8
SUNPOU
100
AcDbCircle
 10
3880.443655266708
 20
3191.084839419596
 30
0.0
 40
7.5
100
AcDbArc
 50
270.0
 51
90.0
  0
ARC
  5
18394
330
17EC5
100
AcDbEntity
  8
SUNPOU
100
AcDbCircle
 10
3880.443655266708
 20
3191.084839419596
 30
0.0
 40
7.5
100
AcDbArc
 50
90.0
 51
270.0
  0
ARC
  5
18395
330
17EC5
100
AcDbEntity
  8
SUNPOU
100
AcDbCircle
 10
3880.443655266707
 20
2679.0848394196
 30
0.0
 40
7.5
100
AcDbArc
 50
90.0
 51
270.0
  0
ARC
  5
18396
330
17EC5
100
AcDbEntity
  8
SUNPOU
100
AcDbCircle
 10
3880.443655266707
 20
2679.0848394196
 30
0.0
 40
7.5
100
AcDbArc
 50
270.0
 51
90.0
  0
ARC
  5
18397
330
17EC5
100
AcDbEntity
  8
SUNPOU
100
AcDbCircle
 10
3880.443655266708
 20
2519.084839419599
 30
0.0
 40
7.5
100
AcDbArc
 50
90.0
 51
270.0
  0
ARC
  5
18398
330
17EC5
100
AcDbEntity
  8
SUNPOU
100
AcDbCircle
 10
3880.443655266708
 20
2519.084839419599
 30
0.0
 40
7.5
100
AcDbArc
 50
270.0
 51
90.0
  0
ARC
  5
18399
330
17EC5
100
AcDbEntity
  8
SUNPOU
100
AcDbCircle
 10
3880.443655266708
 20
2679.0848394196
 30
0.0
 40
7.5
100
AcDbArc
 50
270.0
 51
90.0
  0
ARC
  5
1839A
330
17EC5
100
AcDbEntity
  8
SUNPOU
100
AcDbCircle
 10
3880.443655266708
 20
2679.0848394196
 30
0.0
 40
7.5
100
AcDbArc
 50
90.0
 51
270.0
  0
ARC
  5
1839B
330
17EC5
100
AcDbEntity
  8
SUNPOU
100
AcDbCircle
 10
3670.443655266707
 20
2519.084839419599
 30
0.0
 40
7.5
100
AcDbArc
 50
90.0
 51
270.0
  0
ARC
  5
1839C
330
17EC5
100
AcDbEntity
  8
SUNPOU
100
AcDbCircle
 10
3670.443655266707
 20
2519.084839419599
 30
0.0
 40
7.5
100
AcDbArc
 50
270.0
 51
90.0
  0
ARC
  5
1839D
330
17EC5
100
AcDbEntity
  8
SUNPOU
100
AcDbCircle
 10
3670.443655266709
 20
3447.084839419609
 30
0.0
 40
7.5
100
AcDbArc
 50
270.0
 51
90.0
  0
ARC
  5
1839E
330
17EC5
100
AcDbEntity
  8
SUNPOU
100
AcDbCircle
 10
3670.443655266709
 20
3447.084839419609
 30
0.0
 40
7.5
100
AcDbArc
 50
90.0
 51
270.0
  0
ARC
  5
1839F
330
17EC5
100
AcDbEntity
  8
SUNPOU
100
AcDbCircle
 10
4159.797051267466
 20
4130.485411556192
 30
0.0
 40
7.5
100
AcDbArc
 50
0.0
 51
180.0
  0
ARC
  5
183A0
330
17EC5
100
AcDbEntity
  8
SUNPOU
100
AcDbCircle
 10
4159.797051267466
 20
4130.485411556192
 30
0.0
 40
7.5
100
AcDbArc
 50
180.0
 51
0.0
  0
ARC
  5
183A1
330
17EC5
100
AcDbEntity
  8
SUNPOU
100
AcDbCircle
 10
4799.797051267467
 20
4130.485411556192
 30
0.0
 40
7.5
100
AcDbArc
 50
180.0
 51
0.0
  0
ARC
  5
183A2
330
17EC5
100
AcDbEntity
  8
SUNPOU
100
AcDbCircle
 10
4799.797051267467
 20
4130.485411556192
 30
0.0
 40
7.5
100
AcDbArc
 50
0.0
 51
180.0
  0
ARC
  5
183A3
330
17EC5
100
AcDbEntity
  8
SUNPOU
100
AcDbCircle
 10
12419.12750789964
 20
6308.693182432332
 30
0.0
 40
7.5
100
AcDbArc
 50
180.0
 51
0.0
  0
ARC
  5
183A4
330
17EC5
100
AcDbEntity
  8
SUNPOU
100
AcDbCircle
 10
12419.12750789964
 20
6308.693182432332
 30
0.0
 40
7.5
100
AcDbArc
 50
0.0
 51
180.0
  0
ARC
  5
183A5
330
17EC5
100
AcDbEntity
  8
SUNPOU
100
AcDbCircle
 10
12019.12750789964
 20
6308.693182432332
 30
0.0
 40
7.5
100
AcDbArc
 50
0.0
 51
180.0
  0
ARC
  5
183A6
330
17EC5
100
AcDbEntity
  8
SUNPOU
100
AcDbCircle
 10
12019.12750789964
 20
6308.693182432332
 30
0.0
 40
7.5
100
AcDbArc
 50
180.0
 51
0.0
  0
ARC
  5
183A7
330
17EC5
100
AcDbEntity
  8
SUNPOU
100
AcDbCircle
 10
12019.12750789964
 20
6308.693182432332
 30
0.0
 40
7.5
100
AcDbArc
 50
180.0
 51
0.0
  0
ARC
  5
183A8
330
17EC5
100
AcDbEntity
  8
SUNPOU
100
AcDbCircle
 10
12019.12750789964
 20
6308.693182432332
 30
0.0
 40
7.5
100
AcDbArc
 50
0.0
 51
180.0
  0
ARC
  5
183A9
330
17EC5
100
AcDbEntity
  8
SUNPOU
100
AcDbCircle
 10
9619.127507899648
 20
6308.693182432332
 30
0.0
 40
7.5
100
AcDbArc
 50
0.0
 51
180.0
  0
ARC
  5
183AA
330
17EC5
100
AcDbEntity
  8
SUNPOU
100
AcDbCircle
 10
9619.127507899648
 20
6308.693182432332
 30
0.0
 40
7.5
100
AcDbArc
 50
180.0
 51
0.0
  0
ARC
  5
183AB
330
17EC5
100
AcDbEntity
  8
SUNPOU
100
AcDbCircle
 10
9619.127507899648
 20
6308.693182432332
 30
0.0
 40
7.5
100
AcDbArc
 50
180.0
 51
0.0
  0
ARC
  5
183AC
330
17EC5
100
AcDbEntity
  8
SUNPOU
100
AcDbCircle
 10
9619.127507899648
 20
6308.693182432332
 30
0.0
 40
7.5
100
AcDbArc
 50
0.0
 51
180.0
  0
ARC
  5
183AD
330
17EC5
100
AcDbEntity
  8
SUNPOU
100
AcDbCircle
 10
7219.127507899646
 20
6308.693182432332
 30
0.0
 40
7.5
100
AcDbArc
 50
0.0
 51
180.0
  0
ARC
  5
183AE
330
17EC5
100
AcDbEntity
  8
SUNPOU
100
AcDbCircle
 10
7219.127507899646
 20
6308.693182432332
 30
0.0
 40
7.5
100
AcDbArc
 50
180.0
 51
0.0
  0
ARC
  5
183AF
330
17EC5
100
AcDbEntity
  8
SUNPOU
100
AcDbCircle
 10
7219.127507899646
 20
6308.693182432332
 30
0.0
 40
7.5
100
AcDbArc
 50
180.0
 51
0.0
  0
ARC
  5
183B0
330
17EC5
100
AcDbEntity
  8
SUNPOU
100
AcDbCircle
 10
7219.127507899646
 20
6308.693182432332
 30
0.0
 40
7.5
100
AcDbArc
 50
0.0
 51
180.0
  0
ARC
  5
183B1
330
17EC5
100
AcDbEntity
  8
SUNPOU
100
AcDbCircle
 10
4819.127507899647
 20
6308.693182432332
 30
0.0
 40
7.5
100
AcDbArc
 50
0.0
 51
180.0
  0
ARC
  5
183B2
330
17EC5
100
AcDbEntity
  8
SUNPOU
100
AcDbCircle
 10
4819.127507899647
 20
6308.693182432332
 30
0.0
 40
7.5
100
AcDbArc
 50
180.0
 51
0.0
  0
ARC
  5
183B3
330
17EC5
100
AcDbEntity
  8
SUNPOU
100
AcDbCircle
 10
4819.127507899647
 20
6308.693182432332
 30
0.0
 40
7.5
100
AcDbArc
 50
180.0
 51
0.0
  0
ARC
  5
183B4
330
17EC5
100
AcDbEntity
  8
SUNPOU
100
AcDbCircle
 10
4819.127507899647
 20
6308.693182432332
 30
0.0
 40
7.5
100
AcDbArc
 50
0.0
 51
180.0
  0
ARC
  5
183B5
330
17EC5
100
AcDbEntity
  8
SUNPOU
100
AcDbCircle
 10
4419.127507899648
 20
6308.693182432332
 30
0.0
 40
7.5
100
AcDbArc
 50
0.0
 51
180.0
  0
ARC
  5
183B6
330
17EC5
100
AcDbEntity
  8
SUNPOU
100
AcDbCircle
 10
4419.127507899648
 20
6308.693182432332
 30
0.0
 40
7.5
100
AcDbArc
 50
180.0
 51
0.0
  0
ARC
  5
183B7
330
17EC5
100
AcDbEntity
  8
SUNPOU
100
AcDbCircle
 10
12273.40680314955
 20
3886.33703658456
 30
0.0
 40
7.5
100
AcDbArc
 50
270.0
 51
90.0
  0
ARC
  5
183B8
330
17EC5
100
AcDbEntity
  8
SUNPOU
100
AcDbCircle
 10
12273.40680314955
 20
3886.33703658456
 30
0.0
 40
7.5
100
AcDbArc
 50
90.0
 51
270.0
  0
ARC
  5
183B9
330
17EC5
100
AcDbEntity
  8
SUNPOU
100
AcDbCircle
 10
12273.40680314955
 20
3726.33703658456
 30
0.0
 40
7.5
100
AcDbArc
 50
90.0
 51
270.0
  0
ARC
  5
183BA
330
17EC5
100
AcDbEntity
  8
SUNPOU
100
AcDbCircle
 10
12273.40680314955
 20
3726.33703658456
 30
0.0
 40
7.5
100
AcDbArc
 50
270.0
 51
90.0
  0
ARC
  5
183BB
330
17EC5
100
AcDbEntity
  8
SUNPOU
100
AcDbCircle
 10
12273.40680314955
 20
3618.337036584561
 30
0.0
 40
7.5
100
AcDbArc
 50
270.0
 51
90.0
  0
ARC
  5
183BC
330
17EC5
100
AcDbEntity
  8
SUNPOU
100
AcDbCircle
 10
12273.40680314955
 20
3618.337036584561
 30
0.0
 40
7.5
100
AcDbArc
 50
90.0
 51
270.0
  0
ARC
  5
183BD
330
17EC5
100
AcDbEntity
  8
SUNPOU
100
AcDbCircle
 10
12273.40680314955
 20
3726.33703658456
 30
0.0
 40
7.5
100
AcDbArc
 50
90.0
 51
270.0
  0
ARC
  5
183BE
330
17EC5
100
AcDbEntity
  8
SUNPOU
100
AcDbCircle
 10
12273.40680314955
 20
3726.33703658456
 30
0.0
 40
7.5
100
AcDbArc
 50
270.0
 51
90.0
  0
ARC
  5
183BF
330
17EC5
100
AcDbEntity
  8
SUNPOU
100
AcDbCircle
 10
11861.33837406209
 20
2245.804976716085
 30
0.0
 40
7.5
100
AcDbArc
 50
0.0
 51
180.0
  0
ARC
  5
183C0
330
17EC5
100
AcDbEntity
  8
SUNPOU
100
AcDbCircle
 10
11861.33837406209
 20
2245.804976716085
 30
0.0
 40
7.5
100
AcDbArc
 50
180.0
 51
0.0
  0
ARC
  5
183C1
330
17EC5
100
AcDbEntity
  8
SUNPOU
100
AcDbCircle
 10
11781.33837406209
 20
2245.804976716085
 30
0.0
 40
7.5
100
AcDbArc
 50
180.0
 51
0.0
  0
ARC
  5
183C2
330
17EC5
100
AcDbEntity
  8
SUNPOU
100
AcDbCircle
 10
11781.33837406209
 20
2245.804976716085
 30
0.0
 40
7.5
100
AcDbArc
 50
0.0
 51
180.0
  0
ARC
  5
183C3
330
17EC5
100
AcDbEntity
  8
SUNPOU
100
AcDbCircle
 10
11781.33837406209
 20
2245.804976716085
 30
0.0
 40
7.5
100
AcDbArc
 50
180.0
 51
0.0
  0
ARC
  5
183C4
330
17EC5
100
AcDbEntity
  8
SUNPOU
100
AcDbCircle
 10
11781.33837406209
 20
2245.804976716085
 30
0.0
 40
7.5
100
AcDbArc
 50
0.0
 51
180.0
  0
ARC
  5
183C5
330
17EC5
100
AcDbEntity
  8
SUNPOU
100
AcDbCircle
 10
11301.33837406211
 20
2245.804976716085
 30
0.0
 40
7.5
100
AcDbArc
 50
0.0
 51
180.0
  0
ARC
  5
183C6
330
17EC5
100
AcDbEntity
  8
SUNPOU
100
AcDbCircle
 10
11301.33837406211
 20
2245.804976716085
 30
0.0
 40
7.5
100
AcDbArc
 50
180.0
 51
0.0
  0
ARC
  5
183C7
330
17EC5
100
AcDbEntity
  8
SUNPOU
100
AcDbCircle
 10
11221.33837406209
 20
2245.804976716085
 30
0.0
 40
7.5
100
AcDbArc
 50
180.0
 51
0.0
  0
ARC
  5
183C8
330
17EC5
100
AcDbEntity
  8
SUNPOU
100
AcDbCircle
 10
11221.33837406209
 20
2245.804976716085
 30
0.0
 40
7.5
100
AcDbArc
 50
0.0
 51
180.0
  0
ARC
  5
183C9
330
17EC5
100
AcDbEntity
  8
SUNPOU
100
AcDbCircle
 10
11301.33837406211
 20
2245.804976716085
 30
0.0
 40
7.5
100
AcDbArc
 50
0.0
 51
180.0
  0
ARC
  5
183CA
330
17EC5
100
AcDbEntity
  8
SUNPOU
100
AcDbCircle
 10
11301.33837406211
 20
2245.804976716085
 30
0.0
 40
7.5
100
AcDbArc
 50
180.0
 51
0.0
  0
ARC
  5
183CB
330
17EC5
100
AcDbEntity
  8
SUNPOU
100
AcDbCircle
 10
11861.33837406209
 20
2035.804976716086
 30
0.0
 40
7.5
100
AcDbArc
 50
180.0
 51
0.0
  0
ARC
  5
183CC
330
17EC5
100
AcDbEntity
  8
SUNPOU
100
AcDbCircle
 10
11861.33837406209
 20
2035.804976716086
 30
0.0
 40
7.5
100
AcDbArc
 50
0.0
 51
180.0
  0
ARC
  5
183CD
330
17EC5
100
AcDbEntity
  8
SUNPOU
100
AcDbCircle
 10
11221.33837406209
 20
2035.804976716086
 30
0.0
 40
7.5
100
AcDbArc
 50
0.0
 51
180.0
  0
ARC
  5
183CE
330
17EC5
100
AcDbEntity
  8
SUNPOU
100
AcDbCircle
 10
11221.33837406209
 20
2035.804976716086
 30
0.0
 40
7.5
100
AcDbArc
 50
180.0
 51
0.0
  0
ARC
  5
183CF
330
17EC5
100
AcDbEntity
  8
SUNPOU
100
AcDbCircle
 10
10918.33837406209
 20
2540.144344053149
 30
0.0
 40
7.5
100
AcDbArc
 50
90.0
 51
270.0
  0
ARC
  5
183D0
330
17EC5
100
AcDbEntity
  8
SUNPOU
100
AcDbCircle
 10
10918.33837406209
 20
2540.144344053149
 30
0.0
 40
7.5
100
AcDbArc
 50
270.0
 51
90.0
  0
ARC
  5
183D1
330
17EC5
100
AcDbEntity
  8
SUNPOU
100
AcDbCircle
 10
10918.33837406209
 20
2700.144344053149
 30
0.0
 40
7.5
100
AcDbArc
 50
270.0
 51
90.0
  0
ARC
  5
183D2
330
17EC5
100
AcDbEntity
  8
SUNPOU
100
AcDbCircle
 10
10918.33837406209
 20
2700.144344053149
 30
0.0
 40
7.5
100
AcDbArc
 50
90.0
 51
270.0
  0
ARC
  5
183D3
330
17EC5
100
AcDbEntity
  8
SUNPOU
100
AcDbCircle
 10
10918.33837406209
 20
2860.144344053149
 30
0.0
 40
7.5
100
AcDbArc
 50
270.0
 51
90.0
  0
ARC
  5
183D4
330
17EC5
100
AcDbEntity
  8
SUNPOU
100
AcDbCircle
 10
10918.33837406209
 20
2860.144344053149
 30
0.0
 40
7.5
100
AcDbArc
 50
90.0
 51
270.0
  0
ARC
  5
183D5
330
17EC5
100
AcDbEntity
  8
SUNPOU
100
AcDbCircle
 10
10918.33837406209
 20
2700.144344053149
 30
0.0
 40
7.5
100
AcDbArc
 50
90.0
 51
270.0
  0
ARC
  5
183D6
330
17EC5
100
AcDbEntity
  8
SUNPOU
100
AcDbCircle
 10
10918.33837406209
 20
2700.144344053149
 30
0.0
 40
7.5
100
AcDbArc
 50
270.0
 51
90.0
  0
ARC
  5
183D7
330
17EC5
100
AcDbEntity
  8
SUNPOU
100
AcDbCircle
 10
10708.33837406208
 20
2860.144344053149
 30
0.0
 40
7.5
100
AcDbArc
 50
270.0
 51
90.0
  0
ARC
  5
183D8
330
17EC5
100
AcDbEntity
  8
SUNPOU
100
AcDbCircle
 10
10708.33837406208
 20
2860.144344053149
 30
0.0
 40
7.5
100
AcDbArc
 50
90.0
 51
270.0
  0
ARC
  5
183D9
330
17EC5
100
AcDbEntity
  8
SUNPOU
100
AcDbCircle
 10
10708.33837406208
 20
2540.144344053149
 30
0.0
 40
7.5
100
AcDbArc
 50
90.0
 51
270.0
  0
ARC
  5
183DA
330
17EC5
100
AcDbEntity
  8
SUNPOU
100
AcDbCircle
 10
10708.33837406208
 20
2540.144344053149
 30
0.0
 40
7.5
100
AcDbArc
 50
270.0
 51
90.0
  0
ARC
  5
183DB
330
17EC5
100
AcDbEntity
  8
SUNPOU
100
AcDbCircle
 10
11861.33837406209
 20
3394.170862655057
 30
0.0
 40
7.5
100
AcDbArc
 50
0.0
 51
180.0
  0
ARC
  5
183DC
330
17EC5
100
AcDbEntity
  8
SUNPOU
100
AcDbCircle
 10
11861.33837406209
 20
3394.170862655057
 30
0.0
 40
7.5
100
AcDbArc
 50
180.0
 51
0.0
  0
ARC
  5
183DD
330
17EC5
100
AcDbEntity
  8
SUNPOU
100
AcDbCircle
 10
11781.33837406209
 20
3394.170862655057
 30
0.0
 40
7.5
100
AcDbArc
 50
180.0
 51
0.0
  0
ARC
  5
183DE
330
17EC5
100
AcDbEntity
  8
SUNPOU
100
AcDbCircle
 10
11781.33837406209
 20
3394.170862655057
 30
0.0
 40
7.5
100
AcDbArc
 50
0.0
 51
180.0
  0
ARC
  5
183DF
330
17EC5
100
AcDbEntity
  8
SUNPOU
100
AcDbCircle
 10
11781.33837406209
 20
3394.170862655057
 30
0.0
 40
7.5
100
AcDbArc
 50
180.0
 51
0.0
  0
ARC
  5
183E0
330
17EC5
100
AcDbEntity
  8
SUNPOU
100
AcDbCircle
 10
11781.33837406209
 20
3394.170862655057
 30
0.0
 40
7.5
100
AcDbArc
 50
0.0
 51
180.0
  0
ARC
  5
183E1
330
17EC5
100
AcDbEntity
  8
SUNPOU
100
AcDbCircle
 10
11301.33837406211
 20
3394.170862655057
 30
0.0
 40
7.5
100
AcDbArc
 50
0.0
 51
180.0
  0
ARC
  5
183E2
330
17EC5
100
AcDbEntity
  8
SUNPOU
100
AcDbCircle
 10
11301.33837406211
 20
3394.170862655057
 30
0.0
 40
7.5
100
AcDbArc
 50
180.0
 51
0.0
  0
ARC
  5
183E3
330
17EC5
100
AcDbEntity
  8
SUNPOU
100
AcDbCircle
 10
11221.33837406209
 20
3394.170862655057
 30
0.0
 40
7.5
100
AcDbArc
 50
180.0
 51
0.0
  0
ARC
  5
183E4
330
17EC5
100
AcDbEntity
  8
SUNPOU
100
AcDbCircle
 10
11221.33837406209
 20
3394.170862655057
 30
0.0
 40
7.5
100
AcDbArc
 50
0.0
 51
180.0
  0
ARC
  5
183E5
330
17EC5
100
AcDbEntity
  8
SUNPOU
100
AcDbCircle
 10
11301.33837406211
 20
3394.170862655057
 30
0.0
 40
7.5
100
AcDbArc
 50
0.0
 51
180.0
  0
ARC
  5
183E6
330
17EC5
100
AcDbEntity
  8
SUNPOU
100
AcDbCircle
 10
11301.33837406211
 20
3394.170862655057
 30
0.0
 40
7.5
100
AcDbArc
 50
180.0
 51
0.0
  0
ARC
  5
183E7
330
17EC5
100
AcDbEntity
  8
SUNPOU
100
AcDbCircle
 10
11861.33837406209
 20
3184.170862655058
 30
0.0
 40
7.5
100
AcDbArc
 50
180.0
 51
0.0
  0
ARC
  5
183E8
330
17EC5
100
AcDbEntity
  8
SUNPOU
100
AcDbCircle
 10
11861.33837406209
 20
3184.170862655058
 30
0.0
 40
7.5
100
AcDbArc
 50
0.0
 51
180.0
  0
ARC
  5
183E9
330
17EC5
100
AcDbEntity
  8
SUNPOU
100
AcDbCircle
 10
11221.33837406209
 20
3184.170862655058
 30
0.0
 40
7.5
100
AcDbArc
 50
0.0
 51
180.0
  0
ARC
  5
183EA
330
17EC5
100
AcDbEntity
  8
SUNPOU
100
AcDbCircle
 10
11221.33837406209
 20
3184.170862655058
 30
0.0
 40
7.5
100
AcDbArc
 50
180.0
 51
0.0
  0
ARC
  5
183EB
330
17EC5
100
AcDbEntity
  8
HIKIDASHI
100
AcDbCircle
 10
7600.512605360802
 20
1889.069567942553
 30
0.0
 40
74.66417910459829
100
AcDbArc
 50
164.8596129850786
 51
237.5045002941396
  0
ARC
  5
183EC
330
17EC5
100
AcDbEntity
  8
HIKIDASHI
100
AcDbCircle
 10
7537.088811314434
 20
1906.230591427055
 30
0.0
 40
8.959701492551799
100
AcDbArc
 50
15.14038701503315
 51
164.8596129849669
  0
LINE
  5
183ED
330
17EC5
100
AcDbEntity
  8
HIKIDASHI
100
AcDbLine
 10
8597.202471512984
 20
2790.288985226448
 30
0.0
 11
7799.784826072481
 21
1938.684839419604
 31
0.0
1001
ACAD
1000
DSTYLE
1002
{
1070
   147
1040
1.0
1070
    77
1070
     0
1002
}
  0
LINE
  5
183EE
330
17EC5
100
AcDbEntity
  8
HIKIDASHI
100
AcDbLine
 10
8606.93511387851
 20
2781.17561864968
 30
0.0
 11
8651.882670973586
 21
2848.684839419606
 31
0.0
  0
LINE
  5
183EF
330
17EC5
100
AcDbEntity
  8
HIKIDASHI
100
AcDbLine
 10
8651.882670973586
 20
2848.684839419606
 30
0.0
 11
8587.469829147458
 21
2799.402351803216
 31
0.0
  0
SOLID
  5
183F0
330
17EC5
100
AcDbEntity
  8
HIKIDASHI
100
AcDbTrace
 10
8606.93511387851
 20
2781.17561864968
 30
0.0
 11
8587.469829147458
 21
2799.402351803216
 31
0.0
 12
8651.882670973586
 22
2848.684839419606
 32
0.0
 13
8651.882670973586
 23
2848.684839419606
 33
0.0
  0
LINE
  5
183F1
330
17EC5
100
AcDbEntity
  8
HIKIDASHI
100
AcDbLine
 10
8587.469829147458
 20
2799.402351803216
 30
0.0
 11
8606.93511387851
 21
2781.17561864968
 31
0.0
  0
ARC
  5
183F2
330
17EC5
100
AcDbEntity
  8
HIKIDASHI
100
AcDbCircle
 10
7474.844543803803
 20
1890.249695302145
 30
0.0
 40
74.66417910459771
100
AcDbArc
 50
301.7712278330707
 51
15.14038701490958
  0
LINE
  5
183F3
330
17EC5
100
AcDbEntity
  8
HIKIDASHI
100
AcDbLine
 10
5106.084662666021
 20
3516.366871722365
 30
0.0
 11
5333.860047839357
 21
3910.885411556197
 31
0.0
1001
ACAD
1000
DSTYLE
1002
{
1070
   147
1040
1.0
1070
    77
1070
     0
1002
}
  0
LINE
  5
183F4
330
17EC5
100
AcDbEntity
  8
HIKIDASHI
100
AcDbLine
 10
5094.537657282229
 20
3523.033538389032
 30
0.0
 11
5066.084662666025
 21
3447.084839419609
 31
0.0
  0
LINE
  5
183F5
330
17EC5
100
AcDbEntity
  8
HIKIDASHI
100
AcDbLine
 10
5066.084662666025
 20
3447.084839419609
 30
0.0
 11
5117.631668049813
 21
3509.7002050557
 31
0.0
  0
SOLID
  5
183F6
330
17EC5
100
AcDbEntity
  8
HIKIDASHI
100
AcDbTrace
 10
5094.537657282229
 20
3523.033538389032
 30
0.0
 11
5117.631668049813
 21
3509.7002050557
 31
0.0
 12
5066.084662666025
 22
3447.084839419609
 32
0.0
 13
5066.084662666025
 23
3447.084839419609
 33
0.0
  0
LINE
  5
183F7
330
17EC5
100
AcDbEntity
  8
HIKIDASHI
100
AcDbLine
 10
5117.631668049813
 20
3509.7002050557
 30
0.0
 11
5094.537657282229
 21
3523.033538389032
 31
0.0
  0
LINE
  5
183F8
330
17EC5
100
AcDbEntity
  8
HIKIDASHI
100
AcDbLine
 10
5649.136067929492
 20
2481.711341542923
 30
0.0
 11
5816.338096802661
 21
2268.30423855288
 31
0.0
1001
ACAD
1000
DSTYLE
1002
{
1070
   147
1040
1.0
1070
    77
1070
     0
1002
}
  0
LINE
  5
183F9
330
17EC5
100
AcDbEntity
  8
HIKIDASHI
100
AcDbLine
 10
5659.631650908939
 20
2489.934510986595
 30
0.0
 11
5599.797051267465
 21
2544.684839419602
 31
0.0
  0
LINE
  5
183FA
330
17EC5
100
AcDbEntity
  8
HIKIDASHI
100
AcDbLine
 10
5599.797051267465
 20
2544.684839419602
 30
0.0
 11
5638.640484950045
 21
2473.488172099251
 31
0.0
  0
SOLID
  5
183FB
330
17EC5
100
AcDbEntity
  8
HIKIDASHI
100
AcDbTrace
 10
5659.631650908939
 20
2489.934510986595
 30
0.0
 11
5638.640484950045
 21
2473.488172099251
 31
0.0
 12
5599.797051267465
 22
2544.684839419602
 32
0.0
 13
5599.797051267465
 23
2544.684839419602
 33
0.0
  0
LINE
  5
183FC
330
17EC5
100
AcDbEntity
  8
HIKIDASHI
100
AcDbLine
 10
5638.640484950045
 20
2473.488172099251
 30
0.0
 11
5659.631650908939
 21
2489.934510986595
 31
0.0
  0
LINE
  5
183FD
330
17EC5
100
AcDbEntity
  8
HIKIDASHI
100
AcDbLine
 10
5527.219932351911
 20
3186.71334053391
 30
0.0
 11
5674.87166261116
 21
2904.114707020879
 31
0.0
1001
ACAD
1000
DSTYLE
1002
{
1070
    41
1040
2.0
1070
   173
1070
     0
1070
   341
1005
125B0
1002
}
  0
ARC
  5
183FE
330
17EC5
100
AcDbEntity
  8
HIKIDASHI
100
AcDbCircle
 10
5466.303662984127
 20
3260.115302307004
 30
0.0
 40
24.0
100
AcDbArc
 50
241.1434129563093
 51
354.0287934324678
  0
ARC
  5
183FF
330
17EC5
100
AcDbEntity
  8
HIKIDASHI
100
AcDbCircle
 10
5514.043229362013
 20
3255.121926489831
 30
0.0
 40
24.0
100
AcDbArc
 50
61.14341295630936
 51
174.0287934324676
  0
LINE
  5
18400
330
17EC5
100
AcDbEntity
  8
HIKIDASHI
100
AcDbLine
 10
5490.17344617307
 20
3257.618614398416
 30
0.0
 11
5527.219932351922
 21
3186.713340533893
 31
0.0
  0
LINE
  5
18401
330
17EC5
100
AcDbEntity
  8
HIKIDASHI
100
AcDbLine
 10
11865.19119696312
 20
2619.990092191335
 30
0.0
 11
12256.64239875644
 21
2245.804976716085
 31
0.0
1001
ACAD
1000
DSTYLE
1002
{
1070
   147
1040
1.0
1070
    77
1070
     0
1002
}
  0
LINE
  5
18402
330
17EC5
100
AcDbEntity
  8
HIKIDASHI
100
AcDbLine
 10
11874.40432936103
 20
2629.628347697202
 30
0.0
 11
11807.36166392793
 21
2675.268886578793
 31
0.0
  0
LINE
  5
18403
330
17EC5
100
AcDbEntity
  8
HIKIDASHI
100
AcDbLine
 10
11807.36166392793
 20
2675.268886578793
 30
0.0
 11
11855.97806456522
 21
2610.351836685468
 31
0.0
  0
SOLID
  5
18404
330
17EC5
100
AcDbEntity
  8
HIKIDASHI
100
AcDbTrace
 10
11874.40432936103
 20
2629.628347697202
 30
0.0
 11
11855.97806456522
 21
2610.351836685468
 31
0.0
 12
11807.36166392793
 22
2675.268886578793
 32
0.0
 13
11807.36166392793
 23
2675.268886578793
 33
0.0
  0
LINE
  5
18405
330
17EC5
100
AcDbEntity
  8
HIKIDASHI
100
AcDbLine
 10
11855.97806456522
 20
2610.351836685468
 30
0.0
 11
11874.40432936103
 21
2629.628347697202
 31
0.0
  0
LINE
  5
18406
330
17EC5
100
AcDbEntity
  8
HIKIDASHI
100
AcDbLine
 10
11918.49428872015
 20
2916.119351150967
 30
0.0
 11
12073.23363223807
 21
3067.661600164834
 31
0.0
1001
ACAD
1000
DSTYLE
1002
{
1070
   147
1040
1.0
1070
    77
1070
     0
1002
}
  0
LINE
  5
18407
330
17EC5
100
AcDbEntity
  8
HIKIDASHI
100
AcDbLine
 10
11909.16512087052
 20
2925.645336927309
 30
0.0
 11
11861.33837406209
 21
2860.144344053149
 31
0.0
  0
LINE
  5
18408
330
17EC5
100
AcDbEntity
  8
HIKIDASHI
100
AcDbLine
 10
11861.33837406209
 20
2860.144344053149
 30
0.0
 11
11927.82345656978
 21
2906.593365374622
 31
0.0
  0
SOLID
  5
18409
330
17EC5
100
AcDbEntity
  8
HIKIDASHI
100
AcDbTrace
 10
11909.16512087052
 20
2925.645336927309
 30
0.0
 11
11927.82345656978
 21
2906.593365374622
 31
0.0
 12
11861.33837406209
 22
2860.144344053149
 32
0.0
 13
11861.33837406209
 23
2860.144344053149
 33
0.0
  0
LINE
  5
1840A
330
17EC5
100
AcDbEntity
  8
HIKIDASHI
100
AcDbLine
 10
11927.82345656978
 20
2906.593365374622
 30
0.0
 11
11909.16512087052
 21
2925.645336927309
 31
0.0
  0
LINE
  5
1840B
330
17EC5
100
AcDbEntity
  8
HATCH
100
AcDbLine
 10
8003.954148033356
 20
3191.084839419575
 30
0.0
 11
8077.854982489645
 21
3319.084839419604
 31
0.0
  0
LINE
  5
1840C
330
17EC5
100
AcDbEntity
  8
HATCH
100
AcDbLine
 10
8039.454982489637
 20
3319.084839419601
 30
0.0
 11
8058.654982489645
 21
3285.829463914275
 31
0.0
  0
LINE
  5
1840D
330
17EC5
100
AcDbEntity
  8
HATCH
100
AcDbLine
 10
7715.954148033357
 20
3191.084839419575
 30
0.0
 11
7789.854982489647
 21
3319.084839419604
 31
0.0
  0
LINE
  5
1840E
330
17EC5
100
AcDbEntity
  8
HATCH
100
AcDbLine
 10
7751.454982489637
 20
3319.084839419601
 30
0.0
 11
7770.654982489642
 21
3285.829463914275
 31
0.0
  0
LINE
  5
1840F
330
17EC5
100
AcDbEntity
  8
HATCH
100
AcDbLine
 10
7859.954148033357
 20
3191.084839419575
 30
0.0
 11
7933.854982489648
 21
3319.084839419604
 31
0.0
  0
LINE
  5
18410
330
17EC5
100
AcDbEntity
  8
HATCH
100
AcDbLine
 10
7895.454982489638
 20
3319.084839419601
 30
0.0
 11
7914.654982489643
 21
3285.829463914275
 31
0.0
  0
LINE
  5
18411
330
17EC5
100
AcDbEntity
  8
HATCH
100
AcDbLine
 10
8003.954148033358
 20
3191.084839419571
 30
0.0
 11
8077.854982489649
 21
3319.084839419601
 31
0.0
  0
LINE
  5
18412
330
17EC5
100
AcDbEntity
  8
HATCH
100
AcDbLine
 10
8039.45498248964
 20
3319.084839419598
 30
0.0
 11
8058.654982489645
 21
3285.829463914271
 31
0.0
  0
LINE
  5
18413
330
17EC5
100
AcDbEntity
  8
HATCH
100
AcDbLine
 10
7859.954148033359
 20
3191.084839419571
 30
0.0
 11
7933.854982489648
 21
3319.084839419601
 31
0.0
  0
LINE
  5
18414
330
17EC5
100
AcDbEntity
  8
HATCH
100
AcDbLine
 10
7895.454982489638
 20
3319.084839419598
 30
0.0
 11
7914.654982489643
 21
3285.829463914271
 31
0.0
  0
LINE
  5
18415
330
17EC5
100
AcDbEntity
  8
HATCH
100
AcDbLine
 10
7715.954148033358
 20
3191.084839419571
 30
0.0
 11
7789.854982489647
 21
3319.084839419601
 31
0.0
  0
LINE
  5
18416
330
17EC5
100
AcDbEntity
  8
HATCH
100
AcDbLine
 10
7751.454982489637
 20
3319.084839419598
 30
0.0
 11
7770.654982489644
 21
3285.829463914271
 31
0.0
  0
LINE
  5
18417
330
17EC5
100
AcDbEntity
  8
KISO
100
AcDbLine
 10
5599.797051267465
 20
2679.0848394196
 30
0.0
 11
3999.797051267465
 21
2679.0848394196
 31
0.0
  0
LINE
  5
18418
330
17EC5
100
AcDbEntity
  8
KISO
100
AcDbLine
 10
3999.797051267465
 20
2679.0848394196
 30
0.0
 11
3999.797051267465
 21
2519.084839419599
 31
0.0
  0
LINE
  5
18419
330
17EC5
100
AcDbEntity
  8
KISO
100
AcDbLine
 10
3999.797051267465
 20
2519.084839419599
 30
0.0
 11
5599.797051267465
 21
2519.084839419599
 31
0.0
  0
LINE
  5
1841A
330
17EC5
100
AcDbEntity
  8
KISO
100
AcDbLine
 10
5599.797051267465
 20
2519.084839419599
 30
0.0
 11
5599.797051267465
 21
2679.0848394196
 31
0.0
  0
LINE
  5
1841B
330
17EC5
100
AcDbEntity
  8
KISO
100
AcDbLine
 10
8011.882670973587
 20
2679.0848394196
 30
0.0
 11
9611.882670973592
 21
2679.084839419599
 31
0.0
  0
LINE
  5
1841C
330
17EC5
100
AcDbEntity
  8
KISO
100
AcDbLine
 10
9611.882670973592
 20
2679.084839419599
 30
0.0
 11
9611.882670973592
 21
2519.084839419599
 31
0.0
  0
LINE
  5
1841D
330
17EC5
100
AcDbEntity
  8
KISO
100
AcDbLine
 10
9611.882670973592
 20
2519.084839419599
 30
0.0
 11
8011.882670973587
 21
2519.084839419601
 31
0.0
  0
LINE
  5
1841E
330
17EC5
100
AcDbEntity
  8
KISO
100
AcDbLine
 10
8011.882670973587
 20
2519.084839419601
 30
0.0
 11
8011.882670973587
 21
2679.0848394196
 31
0.0
  0
LINE
  5
1841F
330
17EC5
100
AcDbEntity
  8
HATCH
100
AcDbLine
 10
9748.548652890653
 20
3191.084839419576
 30
0.0
 11
9822.449487346945
 21
3319.084839419605
 31
0.0
  0
LINE
  5
18420
330
17EC5
100
AcDbEntity
  8
HATCH
100
AcDbLine
 10
9784.049487346933
 20
3319.084839419604
 30
0.0
 11
9803.249487346938
 21
3285.829463914276
 31
0.0
  0
LINE
  5
18421
330
17EC5
100
AcDbEntity
  8
HATCH
100
AcDbLine
 10
9460.548652890651
 20
3191.084839419576
 30
0.0
 11
9534.449487346945
 21
3319.084839419605
 31
0.0
  0
LINE
  5
18422
330
17EC5
100
AcDbEntity
  8
HATCH
100
AcDbLine
 10
9496.049487346935
 20
3319.084839419604
 30
0.0
 11
9515.24948734694
 21
3285.829463914276
 31
0.0
  0
LINE
  5
18423
330
17EC5
100
AcDbEntity
  8
HATCH
100
AcDbLine
 10
9604.548652890651
 20
3191.084839419576
 30
0.0
 11
9678.449487346945
 21
3319.084839419605
 31
0.0
  0
LINE
  5
18424
330
17EC5
100
AcDbEntity
  8
HATCH
100
AcDbLine
 10
9640.049487346935
 20
3319.084839419604
 30
0.0
 11
9659.24948734694
 21
3285.829463914276
 31
0.0
  0
LINE
  5
18425
330
17EC5
100
AcDbEntity
  8
HATCH
100
AcDbLine
 10
9892.548652890653
 20
3191.084839419576
 30
0.0
 11
9966.449487346945
 21
3319.084839419605
 31
0.0
  0
LINE
  5
18426
330
17EC5
100
AcDbEntity
  8
HATCH
100
AcDbLine
 10
9928.049487346935
 20
3319.084839419604
 30
0.0
 11
9947.249487346939
 21
3285.829463914276
 31
0.0
  0
LINE
  5
18427
330
17EC5
100
AcDbEntity
  8
HATCH
100
AcDbLine
 10
9748.548652890653
 20
3191.084839419572
 30
0.0
 11
9822.449487346945
 21
3319.084839419601
 31
0.0
  0
LINE
  5
18428
330
17EC5
100
AcDbEntity
  8
HATCH
100
AcDbLine
 10
9784.049487346939
 20
3319.084839419601
 30
0.0
 11
9803.24948734694
 21
3285.829463914273
 31
0.0
  0
LINE
  5
18429
330
17EC5
100
AcDbEntity
  8
HATCH
100
AcDbLine
 10
9892.548652890653
 20
3191.084839419572
 30
0.0
 11
9966.449487346945
 21
3319.084839419601
 31
0.0
  0
LINE
  5
1842A
330
17EC5
100
AcDbEntity
  8
HATCH
100
AcDbLine
 10
9928.049487346939
 20
3319.084839419601
 30
0.0
 11
9947.24948734694
 21
3285.829463914273
 31
0.0
  0
LINE
  5
1842B
330
17EC5
100
AcDbEntity
  8
HATCH
100
AcDbLine
 10
9604.548652890656
 20
3191.084839419572
 30
0.0
 11
9678.449487346945
 21
3319.084839419601
 31
0.0
  0
LINE
  5
1842C
330
17EC5
100
AcDbEntity
  8
HATCH
100
AcDbLine
 10
9640.049487346939
 20
3319.084839419601
 30
0.0
 11
9659.24948734694
 21
3285.829463914273
 31
0.0
  0
LINE
  5
1842D
330
17EC5
100
AcDbEntity
  8
HATCH
100
AcDbLine
 10
9460.548652890656
 20
3191.084839419572
 30
0.0
 11
9534.449487346945
 21
3319.084839419601
 31
0.0
  0
LINE
  5
1842E
330
17EC5
100
AcDbEntity
  8
HATCH
100
AcDbLine
 10
9496.049487346935
 20
3319.084839419601
 30
0.0
 11
9515.24948734694
 21
3285.829463914273
 31
0.0
  0
LINE
  5
1842F
330
17EC5
100
AcDbEntity
  8
TENSEN-1
100
AcDbLine
 10
8971.882670973586
 20
2869.484839419605
 30
0.0
 11
8918.282670973589
 21
2869.484839419605
 31
0.0
  0
LINE
  5
18430
330
17EC5
100
AcDbEntity
  8
TENSEN-1
100
AcDbLine
 10
8918.282670973589
 20
2869.484839419605
 30
0.0
 11
8918.282670973589
 21
3360.684839419607
 31
0.0
  0
LINE
  5
18431
330
17EC5
100
AcDbEntity
  8
TENSEN-1
100
AcDbLine
 10
8918.282670973589
 20
3360.684839419607
 30
0.0
 11
8897.482670973589
 21
3360.684839419607
 31
0.0
  0
LINE
  5
18432
330
17EC5
100
AcDbEntity
  8
TENSEN-1
100
AcDbLine
 10
8897.482670973589
 20
3360.684839419607
 30
0.0
 11
8897.482670973586
 21
2848.684839419606
 31
0.0
  0
LINE
  5
18433
330
17EC5
100
AcDbEntity
  8
TENSEN-1
100
AcDbLine
 10
8897.482670973586
 20
2848.684839419606
 30
0.0
 11
8971.882670973586
 21
2848.684839419606
 31
0.0
  0
LINE
  5
18434
330
17EC5
100
AcDbEntity
  8
TENSEN-1
100
AcDbLine
 10
8971.882670973586
 20
2848.684839419606
 30
0.0
 11
8971.882670973586
 21
2869.484839419605
 31
0.0
  0
LINE
  5
18435
330
17EC5
100
AcDbEntity
  8
TENSEN-1
100
AcDbLine
 10
8651.882670973586
 20
2869.484839419605
 30
0.0
 11
8705.482670973591
 21
2869.484839419605
 31
0.0
  0
LINE
  5
18436
330
17EC5
100
AcDbEntity
  8
TENSEN-1
100
AcDbLine
 10
8705.482670973591
 20
2869.484839419605
 30
0.0
 11
8705.482670973591
 21
3360.684839419607
 31
0.0
  0
LINE
  5
18437
330
17EC5
100
AcDbEntity
  8
TENSEN-1
100
AcDbLine
 10
8705.482670973591
 20
3360.684839419607
 30
0.0
 11
8726.282670973589
 21
3360.684839419607
 31
0.0
  0
LINE
  5
18438
330
17EC5
100
AcDbEntity
  8
TENSEN-1
100
AcDbLine
 10
8726.282670973589
 20
3360.684839419607
 30
0.0
 11
8726.282670973589
 21
2848.684839419606
 31
0.0
  0
LINE
  5
18439
330
17EC5
100
AcDbEntity
  8
TENSEN-1
100
AcDbLine
 10
8726.282670973589
 20
2848.684839419606
 30
0.0
 11
8651.882670973586
 21
2848.684839419606
 31
0.0
  0
LINE
  5
1843A
330
17EC5
100
AcDbEntity
  8
TENSEN-1
100
AcDbLine
 10
8651.882670973586
 20
2848.684839419606
 30
0.0
 11
8651.882670973586
 21
2869.484839419605
 31
0.0
  0
LINE
  5
1843B
330
17EC5
100
AcDbEntity
  8
HASHIRA
100
AcDbLine
 10
8683.882670973586
 20
3319.084839419605
 30
0.0
 11
8939.882670973586
 21
3319.084839419605
 31
0.0
  0
LINE
  5
1843C
330
17EC5
100
AcDbEntity
  8
HASHIRA
100
AcDbLine
 10
8939.882670973586
 20
3319.084839419605
 30
0.0
 11
8939.882670973586
 21
3328.684839419607
 31
0.0
  0
LINE
  5
1843D
330
17EC5
100
AcDbEntity
  8
HASHIRA
100
AcDbLine
 10
8939.882670973586
 20
3328.684839419607
 30
0.0
 11
8683.882670973586
 21
3328.684839419607
 31
0.0
  0
LINE
  5
1843E
330
17EC5
100
AcDbEntity
  8
HASHIRA
100
AcDbLine
 10
8683.882670973586
 20
3328.684839419607
 30
0.0
 11
8683.882670973586
 21
3319.084839419605
 31
0.0
  0
LINE
  5
1843F
330
17EC5
100
AcDbEntity
  8
BOLT
100
AcDbLine
 10
8825.482670973586
 20
3360.684839419607
 30
0.0
 11
8825.482670973586
 21
3368.536803080583
 31
0.0
  0
LINE
  5
18440
330
17EC5
100
AcDbEntity
  8
BOLT
100
AcDbLine
 10
8825.482670973586
 20
3368.536803080583
 30
0.0
 11
8811.882670973586
 21
3376.388766741564
 31
0.0
  0
LINE
  5
18441
330
17EC5
100
AcDbEntity
  8
BOLT
100
AcDbLine
 10
8811.882670973586
 20
3376.388766741564
 30
0.0
 11
8798.282670973588
 21
3368.536803080583
 31
0.0
  0
LINE
  5
18442
330
17EC5
100
AcDbEntity
  8
BOLT
100
AcDbLine
 10
8798.282670973588
 20
3368.536803080583
 30
0.0
 11
8798.282670973588
 21
3360.684839419607
 31
0.0
  0
LINE
  5
18443
330
17EC5
100
AcDbEntity
  8
BOLT
100
AcDbLine
 10
8798.282670973588
 20
3360.684839419607
 30
0.0
 11
8798.282670973588
 21
3352.832875758626
 31
0.0
  0
LINE
  5
18444
330
17EC5
100
AcDbEntity
  8
BOLT
100
AcDbLine
 10
8798.282670973588
 20
3352.832875758626
 30
0.0
 11
8811.882670973586
 21
3344.980912097646
 31
0.0
  0
LINE
  5
18445
330
17EC5
100
AcDbEntity
  8
BOLT
100
AcDbLine
 10
8811.882670973586
 20
3344.980912097646
 30
0.0
 11
8825.482670973586
 21
3352.832875758626
 31
0.0
  0
LINE
  5
18446
330
17EC5
100
AcDbEntity
  8
BOLT
100
AcDbLine
 10
8825.482670973586
 20
3352.832875758626
 30
0.0
 11
8825.482670973586
 21
3360.684839419607
 31
0.0
  0
LINE
  5
18447
330
17EC5
100
AcDbEntity
  8
BOLT
100
AcDbLine
 10
8825.482670973586
 20
3424.684839419607
 30
0.0
 11
8825.482670973586
 21
3432.536803080583
 31
0.0
  0
LINE
  5
18448
330
17EC5
100
AcDbEntity
  8
BOLT
100
AcDbLine
 10
8825.482670973586
 20
3432.536803080583
 30
0.0
 11
8811.882670973586
 21
3440.388766741564
 31
0.0
  0
LINE
  5
18449
330
17EC5
100
AcDbEntity
  8
BOLT
100
AcDbLine
 10
8811.882670973586
 20
3440.388766741564
 30
0.0
 11
8798.282670973588
 21
3432.536803080583
 31
0.0
  0
LINE
  5
1844A
330
17EC5
100
AcDbEntity
  8
BOLT
100
AcDbLine
 10
8798.282670973588
 20
3432.536803080583
 30
0.0
 11
8798.282670973588
 21
3424.684839419607
 31
0.0
  0
LINE
  5
1844B
330
17EC5
100
AcDbEntity
  8
BOLT
100
AcDbLine
 10
8798.282670973588
 20
3424.684839419607
 30
0.0
 11
8798.282670973588
 21
3416.832875758626
 31
0.0
  0
LINE
  5
1844C
330
17EC5
100
AcDbEntity
  8
BOLT
100
AcDbLine
 10
8798.282670973588
 20
3416.832875758626
 30
0.0
 11
8811.882670973586
 21
3408.980912097646
 31
0.0
  0
LINE
  5
1844D
330
17EC5
100
AcDbEntity
  8
BOLT
100
AcDbLine
 10
8811.882670973586
 20
3408.980912097646
 30
0.0
 11
8825.482670973586
 21
3416.832875758626
 31
0.0
  0
LINE
  5
1844E
330
17EC5
100
AcDbEntity
  8
BOLT
100
AcDbLine
 10
8825.482670973586
 20
3416.832875758626
 30
0.0
 11
8825.482670973586
 21
3424.684839419607
 31
0.0
  0
LINE
  5
1844F
330
17EC5
100
AcDbEntity
  8
HATCH
100
AcDbLine
 10
5817.438852165206
 20
3191.084839420844
 30
0.0
 11
5891.339686621495
 21
3319.084839420873
 31
0.0
  0
LINE
  5
18450
330
17EC5
100
AcDbEntity
  8
HATCH
100
AcDbLine
 10
5852.939686621486
 20
3319.084839420872
 30
0.0
 11
5872.139686621489
 21
3285.829463915545
 31
0.0
  0
LINE
  5
18451
330
17EC5
100
AcDbEntity
  8
HATCH
100
AcDbLine
 10
5529.438852165204
 20
3191.084839420844
 30
0.0
 11
5603.339686621494
 21
3319.084839420873
 31
0.0
  0
LINE
  5
18452
330
17EC5
100
AcDbEntity
  8
HATCH
100
AcDbLine
 10
5564.939686621485
 20
3319.084839420872
 30
0.0
 11
5584.139686621489
 21
3285.829463915545
 31
0.0
  0
LINE
  5
18453
330
17EC5
100
AcDbEntity
  8
HATCH
100
AcDbLine
 10
5673.438852165205
 20
3191.084839420844
 30
0.0
 11
5747.339686621494
 21
3319.084839420873
 31
0.0
  0
LINE
  5
18454
330
17EC5
100
AcDbEntity
  8
HATCH
100
AcDbLine
 10
5708.939686621485
 20
3319.084839420872
 30
0.0
 11
5728.139686621489
 21
3285.829463915545
 31
0.0
  0
LINE
  5
18455
330
17EC5
100
AcDbEntity
  8
HASHIRA
100
AcDbLine
 10
4735.797051267467
 20
3319.084839419606
 30
0.0
 11
4863.797051267465
 21
3319.084839419606
 31
0.0
  0
LINE
  5
18456
330
17EC5
100
AcDbEntity
  8
HASHIRA
100
AcDbLine
 10
4863.797051267465
 20
3319.084839419606
 30
0.0
 11
4863.797051267465
 21
3328.684839419607
 31
0.0
  0
LINE
  5
18457
330
17EC5
100
AcDbEntity
  8
HASHIRA
100
AcDbLine
 10
4863.797051267465
 20
3328.684839419607
 30
0.0
 11
4735.797051267467
 21
3328.684839419607
 31
0.0
  0
LINE
  5
18458
330
17EC5
100
AcDbEntity
  8
HASHIRA
100
AcDbLine
 10
4735.797051267467
 20
3328.684839419607
 30
0.0
 11
4735.797051267467
 21
3319.084839419606
 31
0.0
  0
LINE
  5
18459
330
17EC5
100
AcDbEntity
  8
TENSEN-1
100
AcDbLine
 10
4735.797051267467
 20
2869.484839419607
 30
0.0
 11
4789.397051267465
 21
2869.484839419607
 31
0.0
  0
LINE
  5
1845A
330
17EC5
100
AcDbEntity
  8
TENSEN-1
100
AcDbLine
 10
4789.397051267465
 20
2869.484839419607
 30
0.0
 11
4789.397051267465
 21
3360.684839419607
 31
0.0
  0
LINE
  5
1845B
330
17EC5
100
AcDbEntity
  8
TENSEN-1
100
AcDbLine
 10
4789.397051267465
 20
3360.684839419607
 30
0.0
 11
4810.197051267468
 21
3360.684839419607
 31
0.0
  0
LINE
  5
1845C
330
17EC5
100
AcDbEntity
  8
TENSEN-1
100
AcDbLine
 10
4810.197051267468
 20
3360.684839419607
 30
0.0
 11
4810.197051267468
 21
2848.684839419606
 31
0.0
  0
LINE
  5
1845D
330
17EC5
100
AcDbEntity
  8
TENSEN-1
100
AcDbLine
 10
4810.197051267468
 20
2848.684839419606
 30
0.0
 11
4735.797051267467
 21
2848.684839419606
 31
0.0
  0
LINE
  5
1845E
330
17EC5
100
AcDbEntity
  8
TENSEN-1
100
AcDbLine
 10
4735.797051267467
 20
2848.684839419606
 30
0.0
 11
4735.797051267467
 21
2869.484839419607
 31
0.0
  0
LINE
  5
1845F
330
17EC5
100
AcDbEntity
  8
KISO
100
AcDbLine
 10
6819.12750789965
 20
7008.693182432331
 30
0.0
 11
7619.12750789965
 21
7008.693182432331
 31
0.0
  0
LINE
  5
18460
330
17EC5
100
AcDbEntity
  8
KISO
100
AcDbLine
 10
7619.12750789965
 20
7008.693182432331
 30
0.0
 11
7619.12750789965
 21
7808.693182432333
 31
0.0
  0
LINE
  5
18461
330
17EC5
100
AcDbEntity
  8
KISO
100
AcDbLine
 10
7619.12750789965
 20
7808.693182432333
 30
0.0
 11
6819.12750789965
 21
7808.693182432333
 31
0.0
  0
LINE
  5
18462
330
17EC5
100
AcDbEntity
  8
KISO
100
AcDbLine
 10
6819.12750789965
 20
7808.693182432333
 30
0.0
 11
6819.12750789965
 21
7008.693182432331
 31
0.0
  0
LINE
  5
18463
330
17EC5
100
AcDbEntity
  8
KISO
100
AcDbLine
 10
4419.127507899648
 20
8443.693182432332
 30
0.0
 11
5219.127507899647
 21
8443.693182432332
 31
0.0
  0
LINE
  5
18464
330
17EC5
100
AcDbEntity
  8
KISO
100
AcDbLine
 10
5219.127507899647
 20
8443.693182432332
 30
0.0
 11
5219.127507899647
 21
9243.693182432329
 31
0.0
  0
LINE
  5
18465
330
17EC5
100
AcDbEntity
  8
KISO
100
AcDbLine
 10
5219.127507899647
 20
9243.693182432329
 30
0.0
 11
4419.127507899648
 21
9243.693182432329
 31
0.0
  0
LINE
  5
18466
330
17EC5
100
AcDbEntity
  8
KISO
100
AcDbLine
 10
4419.127507899648
 20
9243.693182432329
 30
0.0
 11
4419.127507899648
 21
8443.693182432332
 31
0.0
  0
LINE
  5
18467
330
17EC5
100
AcDbEntity
  8
KISO
100
AcDbLine
 10
4419.127507899648
 20
7008.693182432331
 30
0.0
 11
5219.127507899647
 21
7008.693182432331
 31
0.0
  0
LINE
  5
18468
330
17EC5
100
AcDbEntity
  8
KISO
100
AcDbLine
 10
5219.127507899647
 20
7008.693182432331
 30
0.0
 11
5219.127507899647
 21
7808.693182432333
 31
0.0
  0
LINE
  5
18469
330
17EC5
100
AcDbEntity
  8
KISO
100
AcDbLine
 10
5219.127507899647
 20
7808.693182432333
 30
0.0
 11
4419.127507899648
 21
7808.693182432333
 31
0.0
  0
LINE
  5
1846A
330
17EC5
100
AcDbEntity
  8
KISO
100
AcDbLine
 10
4419.127507899648
 20
7808.693182432333
 30
0.0
 11
4419.127507899648
 21
7008.693182432331
 31
0.0
  0
LINE
  5
1846B
330
17EC5
100
AcDbEntity
  8
KISO
100
AcDbLine
 10
9219.127507899647
 20
8443.693182432332
 30
0.0
 11
10019.12750789965
 21
8443.693182432332
 31
0.0
  0
LINE
  5
1846C
330
17EC5
100
AcDbEntity
  8
KISO
100
AcDbLine
 10
10019.12750789965
 20
8443.693182432332
 30
0.0
 11
10019.12750789965
 21
9243.693182432329
 31
0.0
  0
LINE
  5
1846D
330
17EC5
100
AcDbEntity
  8
KISO
100
AcDbLine
 10
10019.12750789965
 20
9243.693182432329
 30
0.0
 11
9219.127507899647
 21
9243.693182432329
 31
0.0
  0
LINE
  5
1846E
330
17EC5
100
AcDbEntity
  8
KISO
100
AcDbLine
 10
9219.127507899647
 20
9243.693182432329
 30
0.0
 11
9219.127507899647
 21
8443.693182432332
 31
0.0
  0
LINE
  5
1846F
330
17EC5
100
AcDbEntity
  8
KISO
100
AcDbLine
 10
11619.12750789965
 20
7008.693182432331
 30
0.0
 11
12419.12750789964
 21
7008.693182432331
 31
0.0
  0
LINE
  5
18470
330
17EC5
100
AcDbEntity
  8
KISO
100
AcDbLine
 10
12419.12750789964
 20
7008.693182432331
 30
0.0
 11
12419.12750789964
 21
7808.693182432333
 31
0.0
  0
LINE
  5
18471
330
17EC5
100
AcDbEntity
  8
KISO
100
AcDbLine
 10
12419.12750789964
 20
7808.693182432333
 30
0.0
 11
11619.12750789965
 21
7808.693182432333
 31
0.0
  0
LINE
  5
18472
330
17EC5
100
AcDbEntity
  8
KISO
100
AcDbLine
 10
11619.12750789965
 20
7808.693182432333
 30
0.0
 11
11619.12750789965
 21
7008.693182432331
 31
0.0
  0
LINE
  5
18473
330
17EC5
100
AcDbEntity
  8
KISO
100
AcDbLine
 10
11619.12750789965
 20
8443.693182432332
 30
0.0
 11
12419.12750789964
 21
8443.693182432332
 31
0.0
  0
LINE
  5
18474
330
17EC5
100
AcDbEntity
  8
KISO
100
AcDbLine
 10
12419.12750789964
 20
8443.693182432332
 30
0.0
 11
12419.12750789964
 21
9243.693182432329
 31
0.0
  0
LINE
  5
18475
330
17EC5
100
AcDbEntity
  8
KISO
100
AcDbLine
 10
12419.12750789964
 20
9243.693182432329
 30
0.0
 11
11619.12750789965
 21
9243.693182432329
 31
0.0
  0
LINE
  5
18476
330
17EC5
100
AcDbEntity
  8
KISO
100
AcDbLine
 10
11619.12750789965
 20
9243.693182432329
 30
0.0
 11
11619.12750789965
 21
8443.693182432332
 31
0.0
  0
LINE
  5
18477
330
17EC5
100
AcDbEntity
  8
DOMAKON
100
AcDbLine
 10
8479.127507899649
 20
6708.693182432331
 30
0.0
 11
12419.12750789964
 21
6708.693182432331
 31
0.0
  0
LINE
  5
18478
330
17EC5
100
AcDbEntity
  8
DOMAKON
100
AcDbLine
 10
12419.12750789964
 20
6708.693182432331
 30
0.0
 11
12419.12750789964
 21
9043.693182432331
 31
0.0
  0
LINE
  5
18479
330
17EC5
100
AcDbEntity
  8
DOMAKON
100
AcDbLine
 10
12419.12750789964
 20
9043.693182432331
 30
0.0
 11
8479.127507899649
 21
9043.693182432331
 31
0.0
  0
LINE
  5
1847A
330
17EC5
100
AcDbEntity
  8
DOMAKON
100
AcDbLine
 10
8359.127507899648
 20
9043.693182432331
 30
0.0
 11
4419.127507899648
 21
9043.693182432331
 31
0.0
  0
LINE
  5
1847B
330
17EC5
100
AcDbEntity
  8
DOMAKON
100
AcDbLine
 10
4419.127507899648
 20
9043.693182432331
 30
0.0
 11
4419.127507899648
 21
6708.693182432331
 31
0.0
  0
LINE
  5
1847C
330
17EC5
100
AcDbEntity
  8
DOMAKON
100
AcDbLine
 10
4419.127507899648
 20
6708.693182432331
 30
0.0
 11
8359.127507899648
 21
6708.693182432331
 31
0.0
  0
LINE
  5
1847D
330
17EC5
100
AcDbEntity
  8
HASHIRA
100
AcDbLine
 10
4781.627507899647
 20
7371.193182432333
 30
0.0
 11
4856.627507899648
 21
7371.193182432333
 31
0.0
  0
LINE
  5
1847E
330
17EC5
100
AcDbEntity
  8
HASHIRA
100
AcDbLine
 10
4856.627507899648
 20
7371.193182432333
 30
0.0
 11
4856.627507899648
 21
7446.193182432331
 31
0.0
  0
LINE
  5
1847F
330
17EC5
100
AcDbEntity
  8
HASHIRA
100
AcDbLine
 10
4856.627507899648
 20
7446.193182432331
 30
0.0
 11
4781.627507899647
 21
7446.193182432331
 31
0.0
  0
LINE
  5
18480
330
17EC5
100
AcDbEntity
  8
HASHIRA
100
AcDbLine
 10
4781.627507899647
 20
7446.193182432331
 30
0.0
 11
4781.627507899647
 21
7371.193182432333
 31
0.0
  0
LINE
  5
18481
330
17EC5
100
AcDbEntity
  8
HASHIRA
100
AcDbLine
 10
4781.627507899647
 20
8806.19318243233
 30
0.0
 11
4856.627507899648
 21
8806.19318243233
 31
0.0
  0
LINE
  5
18482
330
17EC5
100
AcDbEntity
  8
HASHIRA
100
AcDbLine
 10
4856.627507899648
 20
8806.19318243233
 30
0.0
 11
4856.627507899648
 21
8881.193182432332
 31
0.0
  0
LINE
  5
18483
330
17EC5
100
AcDbEntity
  8
HASHIRA
100
AcDbLine
 10
4856.627507899648
 20
8881.193182432332
 30
0.0
 11
4781.627507899647
 21
8881.193182432332
 31
0.0
  0
LINE
  5
18484
330
17EC5
100
AcDbEntity
  8
HASHIRA
100
AcDbLine
 10
4781.627507899647
 20
8881.193182432332
 30
0.0
 11
4781.627507899647
 21
8806.19318243233
 31
0.0
  0
LINE
  5
18485
330
17EC5
100
AcDbEntity
  8
HASHIRA
100
AcDbLine
 10
9581.627507899648
 20
7371.193182432333
 30
0.0
 11
9656.627507899649
 21
7371.193182432333
 31
0.0
  0
LINE
  5
18486
330
17EC5
100
AcDbEntity
  8
HASHIRA
100
AcDbLine
 10
9656.627507899649
 20
7371.193182432333
 30
0.0
 11
9656.627507899649
 21
7446.193182432331
 31
0.0
  0
LINE
  5
18487
330
17EC5
100
AcDbEntity
  8
HASHIRA
100
AcDbLine
 10
9656.627507899649
 20
7446.193182432331
 30
0.0
 11
9581.627507899648
 21
7446.193182432331
 31
0.0
  0
LINE
  5
18488
330
17EC5
100
AcDbEntity
  8
HASHIRA
100
AcDbLine
 10
9581.627507899648
 20
7446.193182432331
 30
0.0
 11
9581.627507899648
 21
7371.193182432333
 31
0.0
  0
LINE
  5
18489
330
17EC5
100
AcDbEntity
  8
HASHIRA
100
AcDbLine
 10
11981.62750789965
 20
7371.193182432333
 30
0.0
 11
12056.62750789965
 21
7371.193182432333
 31
0.0
  0
LINE
  5
1848A
330
17EC5
100
AcDbEntity
  8
HASHIRA
100
AcDbLine
 10
12056.62750789965
 20
7371.193182432333
 30
0.0
 11
12056.62750789965
 21
7446.193182432331
 31
0.0
  0
LINE
  5
1848B
330
17EC5
100
AcDbEntity
  8
HASHIRA
100
AcDbLine
 10
12056.62750789965
 20
7446.193182432331
 30
0.0
 11
11981.62750789965
 21
7446.193182432331
 31
0.0
  0
LINE
  5
1848C
330
17EC5
100
AcDbEntity
  8
HASHIRA
100
AcDbLine
 10
11981.62750789965
 20
7446.193182432331
 30
0.0
 11
11981.62750789965
 21
7371.193182432333
 31
0.0
  0
LINE
  5
1848D
330
17EC5
100
AcDbEntity
  8
HASHIRA
100
AcDbLine
 10
9581.627507899648
 20
8806.19318243233
 30
0.0
 11
9656.627507899649
 21
8806.19318243233
 31
0.0
  0
LINE
  5
1848E
330
17EC5
100
AcDbEntity
  8
HASHIRA
100
AcDbLine
 10
9656.627507899649
 20
8806.19318243233
 30
0.0
 11
9656.627507899649
 21
8881.193182432332
 31
0.0
  0
LINE
  5
1848F
330
17EC5
100
AcDbEntity
  8
HASHIRA
100
AcDbLine
 10
9656.627507899649
 20
8881.193182432332
 30
0.0
 11
9581.627507899648
 21
8881.193182432332
 31
0.0
  0
LINE
  5
18490
330
17EC5
100
AcDbEntity
  8
HASHIRA
100
AcDbLine
 10
9581.627507899648
 20
8881.193182432332
 30
0.0
 11
9581.627507899648
 21
8806.19318243233
 31
0.0
  0
LINE
  5
18491
330
17EC5
100
AcDbEntity
  8
HASHIRA
100
AcDbLine
 10
11981.62750789965
 20
8806.19318243233
 30
0.0
 11
12056.62750789965
 21
8806.19318243233
 31
0.0
  0
LINE
  5
18492
330
17EC5
100
AcDbEntity
  8
HASHIRA
100
AcDbLine
 10
12056.62750789965
 20
8806.19318243233
 30
0.0
 11
12056.62750789965
 21
8881.193182432332
 31
0.0
  0
LINE
  5
18493
330
17EC5
100
AcDbEntity
  8
HASHIRA
100
AcDbLine
 10
12056.62750789965
 20
8881.193182432332
 30
0.0
 11
11981.62750789965
 21
8881.193182432332
 31
0.0
  0
LINE
  5
18494
330
17EC5
100
AcDbEntity
  8
HASHIRA
100
AcDbLine
 10
11981.62750789965
 20
8881.193182432332
 30
0.0
 11
11981.62750789965
 21
8806.19318243233
 31
0.0
  0
LINE
  5
18495
330
17EC5
100
AcDbEntity
  8
KISO
100
AcDbLine
 10
9219.127507899647
 20
7008.693182432331
 30
0.0
 11
10019.12750789965
 21
7008.693182432331
 31
0.0
  0
LINE
  5
18496
330
17EC5
100
AcDbEntity
  8
KISO
100
AcDbLine
 10
10019.12750789965
 20
7008.693182432331
 30
0.0
 11
10019.12750789965
 21
7808.693182432333
 31
0.0
  0
LINE
  5
18497
330
17EC5
100
AcDbEntity
  8
KISO
100
AcDbLine
 10
10019.12750789965
 20
7808.693182432333
 30
0.0
 11
9219.127507899647
 21
7808.693182432333
 31
0.0
  0
LINE
  5
18498
330
17EC5
100
AcDbEntity
  8
KISO
100
AcDbLine
 10
9219.127507899647
 20
7808.693182432333
 30
0.0
 11
9219.127507899647
 21
7008.693182432331
 31
0.0
  0
LINE
  5
18499
330
17EC5
100
AcDbEntity
  8
KISO
100
AcDbLine
 10
6819.12750789965
 20
8443.693182432332
 30
0.0
 11
7619.12750789965
 21
8443.693182432332
 31
0.0
  0
LINE
  5
1849A
330
17EC5
100
AcDbEntity
  8
KISO
100
AcDbLine
 10
7619.12750789965
 20
8443.693182432332
 30
0.0
 11
7619.12750789965
 21
9243.693182432329
 31
0.0
  0
LINE
  5
1849B
330
17EC5
100
AcDbEntity
  8
KISO
100
AcDbLine
 10
7619.12750789965
 20
9243.693182432329
 30
0.0
 11
6819.12750789965
 21
9243.693182432329
 31
0.0
  0
LINE
  5
1849C
330
17EC5
100
AcDbEntity
  8
KISO
100
AcDbLine
 10
6819.12750789965
 20
9243.693182432329
 30
0.0
 11
6819.12750789965
 21
8443.693182432332
 31
0.0
  0
LINE
  5
1849D
330
17EC5
100
AcDbEntity
  8
HASHIRA
100
AcDbLine
 10
7181.62750789965
 20
8806.19318243233
 30
0.0
 11
7256.62750789965
 21
8806.19318243233
 31
0.0
  0
LINE
  5
1849E
330
17EC5
100
AcDbEntity
  8
HASHIRA
100
AcDbLine
 10
7256.62750789965
 20
8806.19318243233
 30
0.0
 11
7256.62750789965
 21
8881.193182432332
 31
0.0
  0
LINE
  5
1849F
330
17EC5
100
AcDbEntity
  8
HASHIRA
100
AcDbLine
 10
7256.62750789965
 20
8881.193182432332
 30
0.0
 11
7181.62750789965
 21
8881.193182432332
 31
0.0
  0
LINE
  5
184A0
330
17EC5
100
AcDbEntity
  8
HASHIRA
100
AcDbLine
 10
7181.62750789965
 20
8881.193182432332
 30
0.0
 11
7181.62750789965
 21
8806.19318243233
 31
0.0
  0
LINE
  5
184A1
330
17EC5
100
AcDbEntity
  8
HASHIRA
100
AcDbLine
 10
7181.62750789965
 20
7371.193182432333
 30
0.0
 11
7256.62750789965
 21
7371.193182432333
 31
0.0
  0
LINE
  5
184A2
330
17EC5
100
AcDbEntity
  8
HASHIRA
100
AcDbLine
 10
7256.62750789965
 20
7371.193182432333
 30
0.0
 11
7256.62750789965
 21
7446.193182432331
 31
0.0
  0
LINE
  5
184A3
330
17EC5
100
AcDbEntity
  8
HASHIRA
100
AcDbLine
 10
7256.62750789965
 20
7446.193182432331
 30
0.0
 11
7181.62750789965
 21
7446.193182432331
 31
0.0
  0
LINE
  5
184A4
330
17EC5
100
AcDbEntity
  8
HASHIRA
100
AcDbLine
 10
7181.62750789965
 20
7446.193182432331
 30
0.0
 11
7181.62750789965
 21
7371.193182432333
 31
0.0
  0
LINE
  5
184A5
330
17EC5
100
AcDbEntity
  8
U1
100
AcDbLine
 10
11391.33837406208
 20
2550.144344053149
 30
0.0
 11
11691.33837406209
 21
2550.144344053149
 31
0.0
  0
LINE
  5
184A6
330
17EC5
100
AcDbEntity
  8
U1
100
AcDbLine
 10
11691.33837406209
 20
2550.144344053149
 30
0.0
 11
11691.33837406209
 21
2850.144344053148
 31
0.0
  0
LINE
  5
184A7
330
17EC5
100
AcDbEntity
  8
U1
100
AcDbLine
 10
11691.33837406209
 20
2850.144344053148
 30
0.0
 11
11391.33837406208
 21
2850.144344053148
 31
0.0
  0
LINE
  5
184A8
330
17EC5
100
AcDbEntity
  8
U1
100
AcDbLine
 10
11391.33837406208
 20
2850.144344053148
 30
0.0
 11
11391.33837406208
 21
2550.144344053149
 31
0.0
  0
LINE
  5
184A9
330
17EC5
100
AcDbEntity
  8
U1
100
AcDbLine
 10
11221.33837406209
 20
2540.144344053149
 30
0.0
 11
11861.33837406209
 21
2540.144344053149
 31
0.0
  0
LINE
  5
184AA
330
17EC5
100
AcDbEntity
  8
U1
100
AcDbLine
 10
11861.33837406209
 20
2540.144344053149
 30
0.0
 11
11861.33837406209
 21
2860.144344053149
 31
0.0
  0
LINE
  5
184AB
330
17EC5
100
AcDbEntity
  8
U1
100
AcDbLine
 10
11861.33837406209
 20
2860.144344053149
 30
0.0
 11
11221.33837406209
 21
2860.144344053149
 31
0.0
  0
LINE
  5
184AC
330
17EC5
100
AcDbEntity
  8
U1
100
AcDbLine
 10
11221.33837406209
 20
2860.144344053149
 30
0.0
 11
11221.33837406209
 21
2540.144344053149
 31
0.0
  0
LINE
  5
184AD
330
17EC5
100
AcDbEntity
  8
U1
100
AcDbLine
 10
11221.33837406209
 20
3618.337036584561
 30
0.0
 11
11861.33837406209
 21
3618.337036584561
 31
0.0
  0
LINE
  5
184AE
330
17EC5
100
AcDbEntity
  8
U1
100
AcDbLine
 10
11861.33837406209
 20
3618.337036584561
 30
0.0
 11
11861.33837406209
 21
3642.337036584561
 31
0.0
  0
LINE
  5
184AF
330
17EC5
100
AcDbEntity
  8
U1
100
AcDbLine
 10
11861.33837406209
 20
3642.337036584561
 30
0.0
 11
11221.33837406209
 21
3642.337036584561
 31
0.0
  0
LINE
  5
184B0
330
17EC5
100
AcDbEntity
  8
U1
100
AcDbLine
 10
11221.33837406209
 20
3642.337036584561
 30
0.0
 11
11221.33837406209
 21
3618.337036584561
 31
0.0
  0
LINE
  5
184B1
330
17EC5
100
AcDbEntity
  8
HATCH
100
AcDbLine
 10
8042.354148033361
 20
3191.084839419575
 30
0.0
 11
8023.154148033357
 21
3224.340214924902
 31
0.0
  0
LINE
  5
184B2
330
17EC5
100
AcDbEntity
  8
HATCH
100
AcDbLine
 10
7754.35414803336
 20
3191.084839419575
 30
0.0
 11
7735.154148033358
 21
3224.340214924902
 31
0.0
  0
LINE
  5
184B3
330
17EC5
100
AcDbEntity
  8
HATCH
100
AcDbLine
 10
7898.354148033361
 20
3191.084839419575
 30
0.0
 11
7879.154148033357
 21
3224.340214924902
 31
0.0
  0
LINE
  5
184B4
330
17EC5
100
AcDbEntity
  8
HATCH
100
AcDbLine
 10
8042.354148033361
 20
3191.084839419571
 30
0.0
 11
8023.154148033357
 21
3224.340214924899
 31
0.0
  0
LINE
  5
184B5
330
17EC5
100
AcDbEntity
  8
HATCH
100
AcDbLine
 10
7898.354148033361
 20
3191.084839419571
 30
0.0
 11
7879.154148033357
 21
3224.340214924899
 31
0.0
  0
LINE
  5
184B6
330
17EC5
100
AcDbEntity
  8
HATCH
100
AcDbLine
 10
7754.354148033363
 20
3191.084839419571
 30
0.0
 11
7735.154148033358
 21
3224.340214924899
 31
0.0
  0
LINE
  5
184B7
330
17EC5
100
AcDbEntity
  8
HIKIDASHI
100
AcDbLine
 10
9281.837679166116
 20
3516.366871722364
 30
0.0
 11
9509.613064339456
 21
3910.885411556199
 31
0.0
1001
ACAD
1000
DSTYLE
1002
{
1070
   147
1040
1.0
1070
    77
1070
     0
1002
}
  0
LINE
  5
184B8
330
17EC5
100
AcDbEntity
  8
HIKIDASHI
100
AcDbLine
 10
9270.290673782325
 20
3523.03353838903
 30
0.0
 11
9241.837679166122
 21
3447.084839419606
 31
0.0
  0
LINE
  5
184B9
330
17EC5
100
AcDbEntity
  8
HIKIDASHI
100
AcDbLine
 10
9241.837679166122
 20
3447.084839419606
 30
0.0
 11
9293.384684549911
 21
3509.700205055697
 31
0.0
  0
SOLID
  5
184BA
330
17EC5
100
AcDbEntity
  8
HIKIDASHI
100
AcDbTrace
 10
9270.290673782325
 20
3523.03353838903
 30
0.0
 11
9293.384684549911
 21
3509.700205055697
 31
0.0
 12
9241.837679166122
 22
3447.084839419606
 32
0.0
 13
9241.837679166122
 23
3447.084839419606
 33
0.0
  0
LINE
  5
184BB
330
17EC5
100
AcDbEntity
  8
HIKIDASHI
100
AcDbLine
 10
9293.384684549911
 20
3509.700205055697
 30
0.0
 11
9270.290673782325
 21
3523.03353838903
 31
0.0
  0
LINE
  5
184BC
330
17EC5
100
AcDbEntity
  8
HATCH
100
AcDbLine
 10
9786.948652890657
 20
3191.084839419576
 30
0.0
 11
9767.748652890652
 21
3224.340214924904
 31
0.0
  0
LINE
  5
184BD
330
17EC5
100
AcDbEntity
  8
HATCH
100
AcDbLine
 10
9498.948652890657
 20
3191.084839419576
 30
0.0
 11
9479.748652890652
 21
3224.340214924904
 31
0.0
  0
LINE
  5
184BE
330
17EC5
100
AcDbEntity
  8
HATCH
100
AcDbLine
 10
9642.948652890657
 20
3191.084839419576
 30
0.0
 11
9623.748652890652
 21
3224.340214924904
 31
0.0
  0
LINE
  5
184BF
330
17EC5
100
AcDbEntity
  8
HATCH
100
AcDbLine
 10
9930.948652890656
 20
3191.084839419576
 30
0.0
 11
9911.748652890652
 21
3224.340214924904
 31
0.0
  0
LINE
  5
184C0
330
17EC5
100
AcDbEntity
  8
HATCH
100
AcDbLine
 10
9786.948652890657
 20
3191.084839419572
 30
0.0
 11
9767.748652890652
 21
3224.3402149249
 31
0.0
  0
LINE
  5
184C1
330
17EC5
100
AcDbEntity
  8
HATCH
100
AcDbLine
 10
9930.948652890659
 20
3191.084839419572
 30
0.0
 11
9911.748652890652
 21
3224.3402149249
 31
0.0
  0
LINE
  5
184C2
330
17EC5
100
AcDbEntity
  8
HATCH
100
AcDbLine
 10
9642.948652890659
 20
3191.084839419572
 30
0.0
 11
9623.748652890652
 21
3224.3402149249
 31
0.0
  0
LINE
  5
184C3
330
17EC5
100
AcDbEntity
  8
HATCH
100
AcDbLine
 10
9498.948652890659
 20
3191.084839419572
 30
0.0
 11
9479.748652890652
 21
3224.3402149249
 31
0.0
  0
LINE
  5
184C4
330
17EC5
100
AcDbEntity
  8
HATCH
100
AcDbLine
 10
5855.838852165209
 20
3191.084839420844
 30
0.0
 11
5836.638852165204
 21
3224.340214926173
 31
0.0
  0
LINE
  5
184C5
330
17EC5
100
AcDbEntity
  8
HATCH
100
AcDbLine
 10
5567.838852165209
 20
3191.084839420844
 30
0.0
 11
5548.638852165204
 21
3224.340214926173
 31
0.0
  0
LINE
  5
184C6
330
17EC5
100
AcDbEntity
  8
HATCH
100
AcDbLine
 10
5711.838852165207
 20
3191.084839420844
 30
0.0
 11
5692.638852165204
 21
3224.340214926173
 31
0.0
  0
ENDSEC
  0
SECTION
  2
OBJECTS
  0
DICTIONARY
  5
17EB3
330
0
100
AcDbDictionary
281
     1
  3
ACAD_GROUP
350
17EB4
  3
ACAD_LAYOUT
350
17EC0
  3
ACAD_MLINESTYLE
350
17EBD
  3
ACAD_PLOTSETTINGS
350
17EBF
  3
ACAD_PLOTSTYLENAME
350
17EB5
  3
AcDbVariableDictionary
350
184C7
  0
DICTIONARY
  5
17EB4
102
{ACAD_REACTORS
330
17EB3
102
}
330
17EB3
100
AcDbDictionary
281
     1
  0
DICTIONARY
  5
17EC0
102
{ACAD_REACTORS
330
17EB3
102
}
330
17EB3
100
AcDbDictionary
281
     1
  3
Model
350
17EC8
  3
ﾚｲｱｳﾄ1
350
17EC4
  0
DICTIONARY
  5
17EBD
102
{ACAD_REACTORS
330
17EB3
102
}
330
17EB3
100
AcDbDictionary
281
     1
  3
Standard
350
17EBE
  0
DICTIONARY
  5
17EBF
102
{ACAD_REACTORS
330
17EB3
102
}
330
17EB3
100
AcDbDictionary
281
     1
  0
ACDBDICTIONARYWDFLT
  5
17EB5
102
{ACAD_REACTORS
330
17EB3
102
}
330
17EB3
100
AcDbDictionary
281
     1
  3
Normal
350
17EB6
100
AcDbDictionaryWithDefault
340
17EB6
  0
DICTIONARY
  5
184C7
102
{ACAD_REACTORS
330
17EB3
102
}
330
17EB3
100
AcDbDictionary
281
     1
  3
DIMASSOC
350
184C8
  0
LAYOUT
  5
17EC8
102
{ACAD_REACTORS
330
17EC0
102
}
330
17EC0
100
AcDbPlotSettings
  1

  2
Muratec V-1200 Is@Web Printer
  4

  6

 40
0.0
 41
0.0
 42
0.0
 43
0.0
 44
0.0
 45
0.0
 46
0.0
 47
0.0
 48
0.0
 49
0.0
140
0.0
141
0.0
142
1.0
143
1.0
 70
  1712
 72
     0
 73
     0
 74
     0
  7

 75
     0
147
1.0
148
0.0
149
0.0
100
AcDbLayout
  1
Model
 70
     1
 71
     0
 10
0.0
 20
0.0
 11
12.0
 21
9.0
 12
0.0
 22
0.0
 32
0.0
 14
0.0
 24
0.0
 34
0.0
 15
0.0
 25
0.0
 35
0.0
146
0.0
 13
0.0
 23
0.0
 33
0.0
 16
1.0
 26
0.0
 36
0.0
 17
0.0
 27
1.0
 37
0.0
 76
     0
330
17EC5
  0
LAYOUT
  5
17EC4
102
{ACAD_REACTORS
330
17EC0
102
}
330
17EC0
100
AcDbPlotSettings
  1

  2
Muratec V-1200 Is@Web Printer
  4

  6

 40
0.0
 41
0.0
 42
0.0
 43
0.0
 44
0.0
 45
0.0
 46
0.0
 47
0.0
 48
0.0
 49
0.0
140
0.0
141
0.0
142
1.0
143
1.0
 70
   688
 72
     0
 73
     0
 74
     5
  7

 75
    16
147
1.0
148
0.0
149
0.0
100
AcDbLayout
  1
ﾚｲｱｳﾄ1
 70
     0
 71
     1
 10
0.0
 20
0.0
 11
12.0
 21
9.0
 12
0.0
 22
0.0
 32
0.0
 14
1.000000000000000E+20
 24
1.000000000000000E+20
 34
1.000000000000000E+20
 15
-1.000000000000000E+20
 25
-1.000000000000000E+20
 35
-1.000000000000000E+20
146
0.0
 13
0.0
 23
0.0
 33
0.0
 16
1.0
 26
0.0
 36
0.0
 17
0.0
 27
1.0
 37
0.0
 76
     0
330
17EC1
  0
MLINESTYLE
  5
17EBE
102
{ACAD_REACTORS
330
17EBD
102
}
330
17EBD
100
AcDbMlineStyle
  2
STANDARD
 70
     0
  3

 62
   256
 51
90.0
 52
90.0
 71
     2
 49
0.5
 62
   256
  6
BYLAYER
 49
-0.5
 62
   256
  6
BYLAYER
  0
ACDBPLACEHOLDER
  5
17EB6
102
{ACAD_REACTORS
330
17EB5
102
}
330
17EB5
  0
DICTIONARYVAR
  5
184C8
102
{ACAD_REACTORS
330
184C7
102
}
330
184C7
100
DictionaryVariables
280
     0
  1
1
  0
ENDSEC
  0
EOF
