  0
SECTION
  2
HEADER
  9
$ACADVER
  1
AC1015
  9
$ACADMAINTVER
 70
    13
  9
$DWGCODEPAGE
  3
ANSI_932
  9
$INSBASE
 10
267.0
 20
194.8999999999998
 30
0.0
  9
$EXTMIN
 10
433.9966216520333
 20
163.6908237492789
 30
-0.0000000000000053
  9
$EXTMAX
 10
16382.6660542547
 20
11242.27663824599
 30
0.0000000000000099
  9
$LIMMIN
 10
0.0
 20
0.0
  9
$LIMMAX
 10
16800.0
 20
11880.0
  9
$ORTHOMODE
 70
     0
  9
$REGENMODE
 70
     1
  9
$FILLMODE
 70
     1
  9
$QTEXTMODE
 70
     0
  9
$MIRRTEXT
 70
     0
  9
$LTSCALE
 40
40.0
  9
$ATTMODE
 70
     1
  9
$TEXTSIZE
 40
0.2
  9
$TRACEWID
 40
0.05
  9
$TEXTSTYLE
  7
00
  9
$CLAYER
  8
SUNPOU
  9
$CELTYPE
  6
ByLayer
  9
$CECOLOR
 62
   256
  9
$CELTSCALE
 40
1.0
  9
$DISPSILH
 70
     0
  9
$DIMSCALE
 40
40.0
  9
$DIMASZ
 40
0.5
  9
$DIMEXO
 40
1.0
  9
$DIMDLI
 40
7.0
  9
$DIMRND
 40
0.0
  9
$DIMDLE
 40
3.0
  9
$DIMEXE
 40
1.125
  9
$DIMTP
 40
0.0
  9
$DIMTM
 40
0.0
  9
$DIMTXT
 40
2.25
  9
$DIMCEN
 40
0.0
  9
$DIMTSZ
 40
0.0
  9
$DIMTOL
 70
     0
  9
$DIMLIM
 70
     0
  9
$DIMTIH
 70
     0
  9
$DIMTOH
 70
     0
  9
$DIMSE1
 70
     0
  9
$DIMSE2
 70
     0
  9
$DIMTAD
 70
     1
  9
$DIMZIN
 70
     8
  9
$DIMBLK
  1
DOT
  9
$DIMASO
 70
     1
  9
$DIMSHO
 70
     0
  9
$DIMPOST
  1

  9
$DIMAPOST
  1

  9
$DIMALT
 70
     0
  9
$DIMALTD
 70
     2
  9
$DIMALTF
 40
25.4
  9
$DIMLFAC
 40
1.0
  9
$DIMTOFL
 70
     1
  9
$DIMTVP
 40
0.0
  9
$DIMTIX
 70
     0
  9
$DIMSOXD
 70
     0
  9
$DIMSAH
 70
     1
  9
$DIMBLK1
  1
DOT
  9
$DIMBLK2
  1
DOT
  9
$DIMSTYLE
  2
SUNPOU_図面名
  9
$DIMCLRD
 70
   256
  9
$DIMCLRE
 70
   256
  9
$DIMCLRT
 70
   256
  9
$DIMTFAC
 40
1.0
  9
$DIMGAP
 40
1.125
  9
$DIMJUST
 70
     0
  9
$DIMSD1
 70
     0
  9
$DIMSD2
 70
     0
  9
$DIMTOLJ
 70
     1
  9
$DIMTZIN
 70
     0
  9
$DIMALTZ
 70
     0
  9
$DIMALTTZ
 70
     0
  9
$DIMUPT
 70
     0
  9
$DIMDEC
 70
     4
  9
$DIMTDEC
 70
     4
  9
$DIMALTU
 70
     2
  9
$DIMALTTD
 70
     2
  9
$DIMTXSTY
  7
STANDARD
  9
$DIMAUNIT
 70
     0
  9
$DIMADEC
 70
     0
  9
$DIMALTRND
 40
0.0
  9
$DIMAZIN
 70
     0
  9
$DIMDSEP
 70
    46
  9
$DIMATFIT
 70
     3
  9
$DIMFRAC
 70
     0
  9
$DIMLDRBLK
  1
DOT
  9
$DIMLUNIT
 70
     2
  9
$DIMLWD
 70
    -2
  9
$DIMLWE
 70
    -2
  9
$DIMTMOVE
 70
     0
  9
$LUNITS
 70
     2
  9
$LUPREC
 70
     2
  9
$SKETCHINC
 40
0.1
  9
$FILLETRAD
 40
0.0
  9
$AUNITS
 70
     0
  9
$AUPREC
 70
     0
  9
$MENU
  1
A:\TIGER\MENU\TIGER
  9
$ELEVATION
 40
0.0
  9
$PELEVATION
 40
0.0
  9
$THICKNESS
 40
0.0
  9
$LIMCHECK
 70
     0
  9
$CHAMFERA
 40
0.0
  9
$CHAMFERB
 40
0.0
  9
$CHAMFERC
 40
0.0
  9
$CHAMFERD
 40
0.0
  9
$SKPOLY
 70
     0
  9
$TDCREATE
 40
2450266.571064815
  9
$TDUCREATE
 40
2450266.196064815
  9
$TDUPDATE
 40
2456331.414544629
  9
$TDUUPDATE
 40
2456331.039544629
  9
$TDINDWG
 40
0.2052648148
  9
$TDUSRTIMER
 40
0.2052646296
  9
$USRTIMER
 70
     1
  9
$ANGBASE
 50
0.0
  9
$ANGDIR
 70
     0
  9
$PDMODE
 70
     0
  9
$PDSIZE
 40
0.0
  9
$PLINEWID
 40
0.0
  9
$SPLFRAME
 70
     0
  9
$SPLINETYPE
 70
     6
  9
$SPLINESEGS
 70
     8
  9
$HANDSEED
  5
186AF
  9
$SURFTAB1
 70
     6
  9
$SURFTAB2
 70
     6
  9
$SURFTYPE
 70
     6
  9
$SURFU
 70
     6
  9
$SURFV
 70
     6
  9
$UCSBASE
  2

  9
$UCSNAME
  2

  9
$UCSORG
 10
0.0
 20
0.0
 30
0.0
  9
$UCSXDIR
 10
1.0
 20
0.0
 30
0.0
  9
$UCSYDIR
 10
0.0
 20
1.0
 30
0.0
  9
$UCSORTHOREF
  2

  9
$UCSORTHOVIEW
 70
     0
  9
$UCSORGTOP
 10
0.0
 20
0.0
 30
0.0
  9
$UCSORGBOTTOM
 10
0.0
 20
0.0
 30
0.0
  9
$UCSORGLEFT
 10
0.0
 20
0.0
 30
0.0
  9
$UCSORGRIGHT
 10
0.0
 20
0.0
 30
0.0
  9
$UCSORGFRONT
 10
0.0
 20
0.0
 30
0.0
  9
$UCSORGBACK
 10
0.0
 20
0.0
 30
0.0
  9
$PUCSBASE
  2

  9
$PUCSNAME
  2

  9
$PUCSORG
 10
0.0
 20
0.0
 30
0.0
  9
$PUCSXDIR
 10
1.0
 20
0.0
 30
0.0
  9
$PUCSYDIR
 10
0.0
 20
1.0
 30
0.0
  9
$PUCSORTHOREF
  2

  9
$PUCSORTHOVIEW
 70
     0
  9
$PUCSORGTOP
 10
0.0
 20
0.0
 30
0.0
  9
$PUCSORGBOTTOM
 10
0.0
 20
0.0
 30
0.0
  9
$PUCSORGLEFT
 10
0.0
 20
0.0
 30
0.0
  9
$PUCSORGRIGHT
 10
0.0
 20
0.0
 30
0.0
  9
$PUCSORGFRONT
 10
0.0
 20
0.0
 30
0.0
  9
$PUCSORGBACK
 10
0.0
 20
0.0
 30
0.0
  9
$USERI1
 70
     3
  9
$USERI2
 70
     0
  9
$USERI3
 70
     0
  9
$USERI4
 70
     0
  9
$USERI5
 70
  1103
  9
$USERR1
 40
0.0
  9
$USERR2
 40
1.0
  9
$USERR3
 40
0.0
  9
$USERR4
 40
0.0
  9
$USERR5
 40
0.0
  9
$WORLDVIEW
 70
     1
  9
$SHADEDGE
 70
     3
  9
$SHADEDIF
 70
    70
  9
$TILEMODE
 70
     1
  9
$MAXACTVP
 70
    16
  9
$PINSBASE
 10
0.0
 20
0.0
 30
0.0
  9
$PLIMCHECK
 70
     0
  9
$PEXTMIN
 10
1.000000000000000E+20
 20
1.000000000000000E+20
 30
1.000000000000000E+20
  9
$PEXTMAX
 10
-1.000000000000000E+20
 20
-1.000000000000000E+20
 30
-1.000000000000000E+20
  9
$PLIMMIN
 10
0.0
 20
0.0
  9
$PLIMMAX
 10
12.0
 20
9.0
  9
$UNITMODE
 70
     0
  9
$VISRETAIN
 70
     0
  9
$PLINEGEN
 70
     1
  9
$PSLTSCALE
 70
     0
  9
$TREEDEPTH
 70
  3020
  9
$CMLSTYLE
  2
Standard
  9
$CMLJUST
 70
     0
  9
$CMLSCALE
 40
1.0
  9
$PROXYGRAPHICS
 70
     1
  9
$MEASUREMENT
 70
     0
  9
$CELWEIGHT
370
    -1
  9
$ENDCAPS
280
     0
  9
$JOINSTYLE
280
     0
  9
$LWDISPLAY
290
     0
  9
$INSUNITS
 70
     0
  9
$HYPERLINKBASE
  1

  9
$STYLESHEET
  1

  9
$XEDIT
290
     1
  9
$CEPSNTYPE
380
     0
  9
$PSTYLEMODE
290
     1
  9
$FINGERPRINTGUID
  2
{CFD92B6B-EA42-4A8D-8FDD-6C93DC9F104C}
  9
$VERSIONGUID
  2
{516A4E1E-D7A7-4F4B-96B1-D6BD9C45E397}
  9
$EXTNAMES
290
     1
  9
$PSVPSCALE
 40
0.0
  9
$OLESTARTUP
290
     0
  0
ENDSEC
  0
SECTION
  2
CLASSES
  0
CLASS
  1
ACDBDICTIONARYWDFLT
  2
AcDbDictionaryWithDefault
  3
AutoCAD 2000
 90
        0
280
     0
281
     0
  0
CLASS
  1
ACDBPLACEHOLDER
  2
AcDbPlaceHolder
  3
AutoCAD 2000
 90
        0
280
     0
281
     0
  0
CLASS
  1
LAYOUT
  2
AcDbLayout
  3
AutoCAD 2000
 90
        0
280
     0
281
     0
  0
CLASS
  1
DICTIONARYVAR
  2
AcDbDictionaryVar
  3
AutoCAD 2000
 90
        0
280
     0
281
     0
  0
ENDSEC
  0
SECTION
  2
TABLES
  0
TABLE
  2
VPORT
  5
180E2
330
0
100
AcDbSymbolTable
 70
     2
  0
VPORT
  5
186AE
330
180E2
100
AcDbSymbolTableRecord
100
AcDbViewportTableRecord
  2
*Active
 70
     0
 10
0.0
 20
0.0
 11
1.0
 21
1.0
 12
8408.331337953368
 22
5702.983730997637
 13
0.0
 23
0.0
 14
1.0
 24
1.0
 15
0.0
 25
0.0
 16
0.0
 26
0.0
 36
1.0
 17
0.0
 27
0.0
 37
0.0
 40
12982.41434578206
 41
1.236040609137055
 42
50.0
 43
0.0
 44
0.0
 50
0.0
 51
0.0
 71
     0
 72
 10000
 73
     1
 74
     0
 75
     0
 76
     0
 77
     0
 78
     0
281
     0
 65
     1
110
0.0
120
0.0
130
0.0
111
1.0
121
0.0
131
0.0
112
0.0
122
1.0
132
0.0
 79
     0
146
0.0
  0
ENDTAB
  0
TABLE
  2
LTYPE
  5
180DF
330
0
100
AcDbSymbolTable
 70
     6
  0
LTYPE
  5
180ED
330
180DF
100
AcDbSymbolTableRecord
100
AcDbLinetypeTableRecord
  2
ByBlock
 70
     0
  3

 72
    65
 73
     0
 40
0.0
  0
LTYPE
  5
180EE
330
180DF
100
AcDbSymbolTableRecord
100
AcDbLinetypeTableRecord
  2
ByLayer
 70
     0
  3

 72
    65
 73
     0
 40
0.0
  0
LTYPE
  5
180EF
330
180DF
100
AcDbSymbolTableRecord
100
AcDbLinetypeTableRecord
  2
CONTINUOUS
 70
     0
  3
実線
 72
    65
 73
     0
 40
0.0
  0
LTYPE
  5
180FF
330
180DF
100
AcDbSymbolTableRecord
100
AcDbLinetypeTableRecord
  2
TENSEN-
 70
     0
  3

 72
    65
 73
     2
 40
0.6000000000000001
 49
0.2
 74
     0
 49
-0.4
 74
     0
  0
LTYPE
  5
18100
330
180DF
100
AcDbSymbolTableRecord
100
AcDbLinetypeTableRecord
  2
1PL-L
 70
     0
  3

 72
    65
 73
     4
 40
56.0
 49
50.0
 74
     0
 49
-2.0
 74
     0
 49
2.0
 74
     0
 49
-2.0
 74
     0
  0
LTYPE
  5
18101
330
180DF
100
AcDbSymbolTableRecord
100
AcDbLinetypeTableRecord
  2
1PL-M
 70
     0
  3

 72
    65
 73
     4
 40
15.0
 49
12.0
 74
     0
 49
-1.0
 74
     0
 49
1.0
 74
     0
 49
-1.0
 74
     0
  0
LTYPE
  5
18102
330
180DF
100
AcDbSymbolTableRecord
100
AcDbLinetypeTableRecord
  2
1PL-S
 70
     0
  3

 72
    65
 73
     4
 40
4.0
 49
2.5
 74
     0
 49
-0.5
 74
     0
 49
0.5
 74
     0
 49
-0.5
 74
     0
  0
LTYPE
  5
18103
330
180DF
100
AcDbSymbolTableRecord
100
AcDbLinetypeTableRecord
  2
1PL-12
 70
     0
  3

 72
    65
 73
     4
 40
15.0
 49
12.0
 74
     0
 49
-1.0
 74
     0
 49
1.0
 74
     0
 49
-1.0
 74
     0
  0
ENDTAB
  0
TABLE
  2
LAYER
  5
180DC
330
0
100
AcDbSymbolTable
 70
    21
  0
LAYER
  5
180EA
330
180DC
100
AcDbSymbolTableRecord
100
AcDbLayerTableRecord
  2
0
 70
     0
 62
     7
  6
CONTINUOUS
370
    -3
390
180E9
  0
LAYER
  5
180FC
330
180DC
100
AcDbSymbolTableRecord
100
AcDbLayerTableRecord
  2
SUNPOU
 70
     0
 62
     4
  6
CONTINUOUS
370
    -3
390
180E9
  0
LAYER
  5
18104
330
180DC
100
AcDbSymbolTableRecord
100
AcDbLayerTableRecord
  2
U1
 70
     0
 62
     3
  6
CONTINUOUS
370
    -3
390
180E9
  0
LAYER
  5
18105
330
180DC
100
AcDbSymbolTableRecord
100
AcDbLayerTableRecord
  2
U3
 70
     0
 62
     6
  6
CONTINUOUS
370
    -3
390
180E9
  0
LAYER
  5
18106
330
180DC
100
AcDbSymbolTableRecord
100
AcDbLayerTableRecord
  2
HIKIDASHI
 70
     0
 62
     6
  6
CONTINUOUS
370
    -3
390
180E9
  0
LAYER
  5
18107
330
180DC
100
AcDbSymbolTableRecord
100
AcDbLayerTableRecord
  2
TENSEN-1
 70
     0
 62
     6
  6
TENSEN-
370
    -3
390
180E9
  0
LAYER
  5
18108
330
180DC
100
AcDbSymbolTableRecord
100
AcDbLayerTableRecord
  2
1PL-S1
 70
     0
 62
     6
  6
1PL-S
370
    -3
390
180E9
  0
LAYER
  5
18109
330
180DC
100
AcDbSymbolTableRecord
100
AcDbLayerTableRecord
  2
1PL-M1
 70
     0
 62
     6
  6
1PL-M
370
    -3
390
180E9
  0
LAYER
  5
1810A
330
180DC
100
AcDbSymbolTableRecord
100
AcDbLayerTableRecord
  2
1PL-L1
 70
     0
 62
     6
  6
1PL-L
370
    -3
390
180E9
  0
LAYER
  5
1810B
330
180DC
100
AcDbSymbolTableRecord
100
AcDbLayerTableRecord
  2
NAME
 70
     0
 62
    20
  6
CONTINUOUS
370
    -3
390
180E9
  0
LAYER
  5
1810C
330
180DC
100
AcDbSymbolTableRecord
100
AcDbLayerTableRecord
  2
FILENAME
 70
     0
 62
     7
  6
CONTINUOUS
370
    -3
390
180E9
  0
LAYER
  5
1810D
330
180DC
100
AcDbSymbolTableRecord
100
AcDbLayerTableRecord
  2
KISO
 70
     0
 62
     2
  6
CONTINUOUS
370
    -3
390
180E9
  0
LAYER
  5
1810E
330
180DC
100
AcDbSymbolTableRecord
100
AcDbLayerTableRecord
  2
YANE
 70
     0
 62
     1
  6
1PL-12
370
    -3
390
180E9
  0
LAYER
  5
1810F
330
180DC
100
AcDbSymbolTableRecord
100
AcDbLayerTableRecord
  2
HATCH
 70
     0
 62
     1
  6
CONTINUOUS
370
    -3
390
180E9
  0
LAYER
  5
18110
330
180DC
100
AcDbSymbolTableRecord
100
AcDbLayerTableRecord
  2
HASHIRA
 70
     0
 62
     3
  6
CONTINUOUS
370
    -3
390
180E9
  0
LAYER
  5
18111
330
180DC
100
AcDbSymbolTableRecord
100
AcDbLayerTableRecord
  2
DOMAKON
 70
     0
 62
     2
  6
CONTINUOUS
370
    -3
390
180E9
  0
LAYER
  5
18112
330
180DC
100
AcDbSymbolTableRecord
100
AcDbLayerTableRecord
  2
BOLT
 70
     0
 62
     1
  6
CONTINUOUS
370
    -3
390
180E9
  0
LAYER
  5
18113
330
180DC
100
AcDbSymbolTableRecord
100
AcDbLayerTableRecord
  2
YODOROGO
 70
     0
 62
   130
  6
CONTINUOUS
370
    -3
390
180E9
  0
LAYER
  5
18114
330
180DC
100
AcDbSymbolTableRecord
100
AcDbLayerTableRecord
  2
WAKUSEN-01
 70
     0
 62
    50
  6
CONTINUOUS
370
    -3
390
180E9
  0
LAYER
  5
18115
330
180DC
100
AcDbSymbolTableRecord
100
AcDbLayerTableRecord
  2
WAKUSEN-02
 70
     0
 62
   130
  6
CONTINUOUS
370
    -3
390
180E9
  0
LAYER
  5
18116
330
180DC
100
AcDbSymbolTableRecord
100
AcDbLayerTableRecord
  2
WAKUMOJI-01
 70
     0
 62
   130
  6
CONTINUOUS
370
    -3
390
180E9
  0
ENDTAB
  0
TABLE
  2
STYLE
  5
180DD
330
0
100
AcDbSymbolTable
 70
     5
  0
STYLE
  5
180EB
330
180DD
100
AcDbSymbolTableRecord
100
AcDbTextStyleTableRecord
  2
STANDARD
 70
     0
 40
3.0
 41
1.0
 50
0.0
 71
     0
 42
0.2
  3
ROMANS
  4
EXTFONT
  0
STYLE
  5
180FD
330
180DD
100
AcDbSymbolTableRecord
100
AcDbTextStyleTableRecord
  2
00
 70
     0
 40
0.0
 41
0.6666666666666666
 50
0.0
 71
     0
 42
0.2
  3
ROMANS
  4
BIGFONT
  0
STYLE
  5
18117
330
180DD
100
AcDbSymbolTableRecord
100
AcDbTextStyleTableRecord
  2
01
 70
     0
 40
3.0
 41
1.0
 50
0.0
 71
     0
 42
0.2
  3
ROMANS
  4
BIGFONT
  0
STYLE
  5
18118
330
180DD
100
AcDbSymbolTableRecord
100
AcDbTextStyleTableRecord
  2
WAKUMOJI
 70
     0
 40
3.0
 41
1.0
 50
0.0
 71
     0
 42
3.0
  3
SIMPLEX
  4
BIGFONT
  0
STYLE
  5
18119
330
180DD
100
AcDbSymbolTableRecord
100
AcDbTextStyleTableRecord
  2
FILENAME
 70
     0
 40
75.0
 41
1.0
 50
0.0
 71
     0
 42
75.0
  3
romans
  4
bigfont
  0
ENDTAB
  0
TABLE
  2
VIEW
  5
180E0
330
0
100
AcDbSymbolTable
 70
     0
  0
ENDTAB
  0
TABLE
  2
UCS
  5
180E1
330
0
100
AcDbSymbolTable
 70
     0
  0
ENDTAB
  0
TABLE
  2
APPID
  5
180E3
330
0
100
AcDbSymbolTable
 70
     8
  0
APPID
  5
180EC
330
180E3
100
AcDbSymbolTableRecord
100
AcDbRegAppTableRecord
  2
ACAD
 70
     0
  0
APPID
  5
1811A
330
180E3
100
AcDbSymbolTableRecord
100
AcDbRegAppTableRecord
  2
ACADANNOTATIVE
 70
     0
  0
APPID
  5
1811B
330
180E3
100
AcDbSymbolTableRecord
100
AcDbRegAppTableRecord
  2
AUTOCAD_POSTSCRIPT_FIGURE
 70
     0
  0
APPID
  5
1811C
330
180E3
100
AcDbSymbolTableRecord
100
AcDbRegAppTableRecord
  2
ACAD_PSEXT
 70
     0
  0
APPID
  5
1811D
330
180E3
100
AcDbSymbolTableRecord
100
AcDbRegAppTableRecord
  2
ACAD_EXEMPT_FROM_CAD_STANDARDS
 70
     0
  0
APPID
  5
1811E
330
180E3
100
AcDbSymbolTableRecord
100
AcDbRegAppTableRecord
  2
ACAD_MLEADERVER
 70
     0
  0
APPID
  5
1811F
330
180E3
100
AcDbSymbolTableRecord
100
AcDbRegAppTableRecord
  2
ACAD_DSTYLE_DIMJAG
 70
     0
  0
APPID
  5
18120
330
180E3
100
AcDbSymbolTableRecord
100
AcDbRegAppTableRecord
  2
ACAD_DSTYLE_DIMTALN
 70
     0
  0
ENDTAB
  0
TABLE
  2
DIMSTYLE
  5
180E4
330
0
100
AcDbSymbolTable
 70
     1
100
AcDbDimStyleTable
 71
     0
  0
DIMSTYLE
105
18121
330
180E4
100
AcDbSymbolTableRecord
100
AcDbDimStyleTableRecord
  2
SUNPOU_図面名
 70
     0
 40
40.0
 41
0.5
 42
1.0
 43
7.0
 44
1.125
 46
3.0
 73
     0
 74
     0
 77
     1
 78
     8
140
2.25
141
0.0
147
1.125
172
     1
173
     1
176
   256
177
   256
178
   256
271
     2
272
     2
279
     2
284
     8
285
     8
286
     8
340
180FD
  0
ENDTAB
  0
TABLE
  2
BLOCK_RECORD
  5
180DB
330
0
100
AcDbSymbolTable
 70
     3
  0
BLOCK_RECORD
  5
180F8
330
180DB
100
AcDbSymbolTableRecord
100
AcDbBlockTableRecord
  2
*Model_Space
340
180FB
  0
BLOCK_RECORD
  5
180F4
330
180DB
100
AcDbSymbolTableRecord
100
AcDbBlockTableRecord
  2
*Paper_Space
340
180F7
  0
BLOCK_RECORD
  5
18126
330
180DB
100
AcDbSymbolTableRecord
100
AcDbBlockTableRecord
  2
$MODEL_SPACE
340
0
  0
BLOCK_RECORD
  5
18129
330
180DB
100
AcDbSymbolTableRecord
100
AcDbBlockTableRecord
  2
$PAPER_SPACE
340
0
  0
BLOCK_RECORD
  5
1812C
330
180DB
100
AcDbSymbolTableRecord
100
AcDbBlockTableRecord
  2
DOT
340
0
  0
ENDTAB
  0
ENDSEC
  0
SECTION
  2
BLOCKS
  0
BLOCK
  5
180F9
330
180F8
100
AcDbEntity
  8
0
100
AcDbBlockBegin
  2
*Model_Space
 70
     0
 10
0.0
 20
0.0
 30
0.0
  3
*Model_Space
  1

  0
ENDBLK
  5
180FA
330
180F8
100
AcDbEntity
  8
0
100
AcDbBlockEnd
  0
BLOCK
  5
180F5
330
180F4
100
AcDbEntity
 67
     1
  8
0
100
AcDbBlockBegin
  2
*Paper_Space
 70
     0
 10
0.0
 20
0.0
 30
0.0
  3
*Paper_Space
  1

  0
ENDBLK
  5
180F6
330
180F4
100
AcDbEntity
 67
     1
  8
0
100
AcDbBlockEnd
  0
BLOCK
  5
18127
330
18126
100
AcDbEntity
  8
0
100
AcDbBlockBegin
  2
$MODEL_SPACE
 70
     0
 10
0.0
 20
0.0
 30
0.0
  3
$MODEL_SPACE
  1

  0
ENDBLK
  5
18128
330
18126
100
AcDbEntity
  8
0
100
AcDbBlockEnd
  0
BLOCK
  5
1812A
330
18129
100
AcDbEntity
  8
0
100
AcDbBlockBegin
  2
$PAPER_SPACE
 70
     0
 10
0.0
 20
0.0
 30
0.0
  3
$PAPER_SPACE
  1

  0
ENDBLK
  5
1812B
330
18129
100
AcDbEntity
  8
0
100
AcDbBlockEnd
  0
BLOCK
  5
1812D
330
1812C
100
AcDbEntity
  8
0
100
AcDbBlockBegin
  2
DOT
 70
     0
 10
0.0
 20
0.0
 30
0.0
  3
DOT
  1

  0
LWPOLYLINE
  5
1812E
330
1812C
100
AcDbEntity
  8
0
  6
ByBlock
 62
     0
100
AcDbPolyline
 90
        2
 70
     1
 43
0.75
 10
-0.375
 20
0.0
 42
1.0
 10
0.375
 20
0.0
 42
1.0
  0
LINE
  5
18132
330
1812C
100
AcDbEntity
  8
0
  6
ByBlock
 62
     0
100
AcDbLine
 10
-0.75
 20
0.0
 30
0.0
 11
-1.5
 21
0.0
 31
0.0
  0
ENDBLK
  5
18133
330
1812C
100
AcDbEntity
  8
0
100
AcDbBlockEnd
  0
ENDSEC
  0
SECTION
  2
ENTITIES
  0
TEXT
  5
18134
330
180F8
100
AcDbEntity
  8
NAME
100
AcDbText
 10
12303.32857318295
 20
1055.0
 30
0.0
 40
120.0
  1
Y O K R
 41
0.6666666666666666
  7
00
100
AcDbText
  0
TEXT
  5
18135
330
180F8
100
AcDbEntity
  8
NAME
100
AcDbText
 10
11227.73587134625
 20
1055.0
 30
0.0
 40
120.0
  1
ヨド自転車置場　　　  型
  7
01
100
AcDbText
  0
TEXT
  5
18136
330
180F8
100
AcDbEntity
  8
NAME
100
AcDbText
 10
11228.07508082364
 20
875.0
 30
0.0
 40
120.0
  1
（アンカープレート方式）
  7
01
 72
     4
 11
12072.07508082364
 21
935.0
 31
0.0
100
AcDbText
  0
TEXT
  5
18137
330
180F8
100
AcDbEntity
  8
NAME
100
AcDbText
 10
11816.04264730429
 20
541.0
 30
0.0
 40
160.0
  1
型（積雪地用）
 41
0.8
  7
01
100
AcDbText
  0
TEXT
  5
18138
330
180F8
100
AcDbEntity
  8
NAME
100
AcDbText
 10
10789.37598063762
 20
541.0
 30
0.0
 40
160.0
  1
YOKRS-240
 41
0.7
  7
01
 72
     2
 11
11776.04264730429
 21
541.0
 31
0.0
100
AcDbText
  0
TEXT
  5
18139
330
180F8
100
AcDbEntity
  8
FILENAME
100
AcDbText
 10
13838.19047619047
 20
174.0
 30
0.0
 40
100.0
  1
＜YOKRS-240-A1_3_JIS_GL.DXF＞
  7
FILENAME
 72
     2
 11
16382.0
 21
174.0
 31
0.0
100
AcDbText
  0
TEXT
  5
1813A
330
180F8
100
AcDbEntity
  8
NAME
100
AcDbText
 10
12854.79999999999
 20
541.0000000000001
 30
0.0
 40
160.0
  1
<3／3>
 41
0.6
  7
01
 72
     2
 11
13354.0
 21
541.0000000000001
 31
0.0
100
AcDbText
  0
TEXT
  5
1813B
330
180F8
100
AcDbEntity
  8
SUNPOU
100
AcDbText
 10
1179.10490162256
 20
4150.522154091421
 30
0.0
 40
90.0
  1
2
 41
0.6700000000000001
  7
01
100
AcDbText
  0
TEXT
  5
1813C
330
180F8
100
AcDbEntity
  8
SUNPOU
100
AcDbText
 10
1068.470981409818
 20
4150.522154091421
 30
0.0
 40
90.0
  1
注　）
  7
01
100
AcDbText
  0
TEXT
  5
1813D
330
180F8
100
AcDbEntity
  8
SUNPOU
100
AcDbText
 10
1068.470981409818
 20
4459.093582662851
 30
0.0
 40
90.0
  1
注　）
  7
01
100
AcDbText
  0
TEXT
  5
1813E
330
180F8
100
AcDbEntity
  8
SUNPOU
100
AcDbText
 10
1179.10490162256
 20
4459.093582662851
 30
0.0
 40
90.0
  1
1
 41
0.6700000000000001
  7
01
100
AcDbText
  0
TEXT
  5
1813F
330
180F8
100
AcDbEntity
  8
SUNPOU
100
AcDbText
 10
1385.310646711954
 20
4304.807868377134
 30
0.0
 40
90.0
  1
あわせて設計して下さい。
  7
01
100
AcDbText
  0
TEXT
  5
18140
330
180F8
100
AcDbEntity
  8
SUNPOU
100
AcDbText
 10
1385.310646711954
 20
4150.522154091421
 30
0.0
 40
90.0
  1
その他現地の実情にあわせて設計して下さい。
  7
01
100
AcDbText
  0
TEXT
  5
18141
330
180F8
100
AcDbEntity
  8
SUNPOU
100
AcDbText
 10
1385.310646711954
 20
4459.093582662851
 30
0.0
 40
90.0
  1
寒冷地の場合、凍結深度等を考慮し、実情に
  7
01
100
AcDbText
  0
TEXT
  5
18142
330
180F8
100
AcDbEntity
  8
SUNPOU
100
AcDbText
 10
879.79127290633
 20
5027.633299394521
 30
0.0
 40
90.0
  1
<下記条件での参考図>
  7
01
 72
     4
 11
1468.648415763473
 21
5072.633299394521
 31
0.0
100
AcDbText
  0
TEXT
  5
18143
330
180F8
100
AcDbEntity
  8
SUNPOU
100
AcDbText
 10
2090.1075822949
 20
5194.979453240675
 30
0.0
 40
73.84615384615384
  1
/
 41
0.6700000000000001
  7
00
 11
2090.1075822949
 21
5185.133299394521
 31
0.0
100
AcDbText
 73
     1
  0
TEXT
  5
18144
330
180F8
100
AcDbEntity
  8
SUNPOU
100
AcDbText
 10
2154.057025249268
 20
5176.517914779135
 30
0.0
 40
73.84615384615384
  1
25
 41
0.6700000000000001
  7
00
 11
2154.057025249268
 21
5166.671760932981
 31
0.0
100
AcDbText
 73
     1
  0
TEXT
  5
18145
330
180F8
100
AcDbEntity
  8
SUNPOU
100
AcDbText
 10
2041.701454979528
 20
5213.440991702213
 30
0.0
 40
73.84615384615384
  1
1
 41
0.6700000000000001
  7
00
 11
2041.701454979528
 21
5203.594837856059
 31
0.0
100
AcDbText
 73
     1
  0
TEXT
  5
18146
330
180F8
100
AcDbEntity
  8
SUNPOU
100
AcDbText
 10
1721.998753126443
 20
5197.440991702213
 30
0.0
 40
92.30769230769228
  1
（ S = 　　  ）
 41
0.6700000000000001
  7
00
 11
1721.998753126443
 21
5185.133299394521
 31
0.0
100
AcDbText
 73
     1
  0
TEXT
  5
18147
330
180F8
100
AcDbEntity
  8
SUNPOU
100
AcDbText
 10
1005.148415763472
 20
5185.133299394521
 30
0.0
 40
120.0
  1
基礎断面図
  7
01
 72
     4
 11
1345.148415763472
 21
5245.13329939452
 31
0.0
100
AcDbText
  0
LINE
  5
18148
330
180F8
100
AcDbEntity
  8
1PL-M1
100
AcDbLine
 10
4799.797051267463
 20
2396.172125878784
 30
0.0
 11
4799.797051267463
 21
4175.485411556191
 31
0.0
  0
LINE
  5
18149
330
180F8
100
AcDbEntity
  8
KISO
100
AcDbLine
 10
6082.193774006775
 20
3447.084839419609
 30
0.0
 11
4851.797051267459
 21
3447.084839419609
 31
0.0
  0
LINE
  5
1814A
330
180F8
100
AcDbEntity
  8
KISO
100
AcDbLine
 10
6082.193774006775
 20
3319.084839419603
 30
0.0
 11
4159.797051267463
 21
3319.084839419601
 31
0.0
  0
LINE
  5
1814B
330
180F8
100
AcDbEntity
  8
HATCH
100
AcDbLine
 10
5021.555511458892
 20
3447.084839419608
 30
0.0
 11
4893.555511458892
 21
3319.084839419601
 31
0.0
  0
LINE
  5
1814C
330
180F8
100
AcDbEntity
  8
U3
100
AcDbLine
 10
3353.961658022964
 20
3367.084839419605
 30
0.0
 11
3521.961658022965
 21
3199.08483941961
 31
0.0
  0
LINE
  5
1814D
330
180F8
100
AcDbEntity
  8
U3
100
AcDbLine
 10
3303.049969777532
 20
3316.173151174174
 30
0.0
 11
3420.1382815321
 21
3199.084839419605
 31
0.0
  0
LINE
  5
1814E
330
180F8
100
AcDbEntity
  8
U3
100
AcDbLine
 10
3589.820095533321
 20
3367.084839419606
 30
0.0
 11
3017.961658022965
 21
3367.084839419606
 31
0.0
  0
LINE
  5
1814F
330
180F8
100
AcDbEntity
  8
U3
100
AcDbLine
 10
3084.138281532101
 20
3300.908215910468
 30
0.0
 11
3150.314905041233
 21
3367.084839419603
 31
0.0
  0
LINE
  5
18150
330
180F8
100
AcDbEntity
  8
U3
100
AcDbLine
 10
3017.961658022965
 20
3367.084839419603
 30
0.0
 11
3185.961658022964
 21
3199.084839419608
 31
0.0
  0
LINE
  5
18151
330
180F8
100
AcDbEntity
  8
U3
100
AcDbLine
 10
3135.049969777532
 20
3249.996527665039
 30
0.0
 11
3252.138281532101
 21
3367.084839419603
 31
0.0
  0
LINE
  5
18152
330
180F8
100
AcDbEntity
  8
U3
100
AcDbLine
 10
3185.961658022964
 20
3199.084839419608
 30
0.0
 11
3353.961658022964
 21
3367.084839419605
 31
0.0
  0
LINE
  5
18153
330
180F8
100
AcDbEntity
  8
U3
100
AcDbLine
 10
3252.138281532101
 20
3265.261462928741
 30
0.0
 11
3318.314905041237
 21
3199.084839419605
 31
0.0
  0
LINE
  5
18154
330
180F8
100
AcDbEntity
  8
U3
100
AcDbLine
 10
3521.961658022965
 20
3199.08483941961
 30
0.0
 11
3589.820095533321
 21
3266.943276929966
 31
0.0
  0
LINE
  5
18155
330
180F8
100
AcDbEntity
  8
U3
100
AcDbLine
 10
3420.1382815321
 20
3300.908215910471
 30
0.0
 11
3486.314905041234
 21
3367.084839419605
 31
0.0
  0
LINE
  5
18156
330
180F8
100
AcDbEntity
  8
U3
100
AcDbLine
 10
3471.049969777534
 20
3249.99652766504
 30
0.0
 11
3588.138281532103
 21
3367.084839419605
 31
0.0
  0
LINE
  5
18157
330
180F8
100
AcDbEntity
  8
HASHIRA
100
AcDbLine
 10
4851.797051267459
 20
3328.684839419607
 30
0.0
 11
4851.797051267459
 21
3718.91804462035
 31
0.0
  0
LINE
  5
18158
330
180F8
100
AcDbEntity
  8
HASHIRA
100
AcDbLine
 10
4747.797051267458
 20
3718.91804462035
 30
0.0
 11
4747.797051267458
 21
3328.684839419607
 31
0.0
  0
LINE
  5
18159
330
180F8
100
AcDbEntity
  8
U3
100
AcDbLine
 10
4159.797051267463
 20
3376.684839419604
 30
0.0
 11
3909.820095533321
 21
3376.684839419603
 31
0.0
  0
LINE
  5
1815A
330
180F8
100
AcDbEntity
  8
U3
100
AcDbLine
 10
4098.782873409589
 20
3310.508215910469
 30
0.0
 11
4159.797051267463
 21
3371.522393768344
 31
0.0
  0
LINE
  5
1815B
330
180F8
100
AcDbEntity
  8
U3
100
AcDbLine
 10
4032.606249900456
 20
3376.684839419603
 30
0.0
 11
4159.797051267463
 21
3249.494038052592
 31
0.0
  0
LINE
  5
1815C
330
180F8
100
AcDbEntity
  8
U3
100
AcDbLine
 10
3975.765342899848
 20
3331.702369929347
 30
0.0
 11
4098.782873409595
 21
3208.684839419603
 31
0.0
  0
LINE
  5
1815D
330
180F8
100
AcDbEntity
  8
KISO
100
AcDbLine
 10
4747.797051267458
 20
3447.084839419609
 30
0.0
 11
4159.797051267463
 21
3447.084839419609
 31
0.0
  0
LINE
  5
1815E
330
180F8
100
AcDbEntity
  8
HATCH
100
AcDbLine
 10
4821.714626963203
 20
3319.084839419601
 30
0.0
 11
4810.197051267465
 21
3307.567263723864
 31
0.0
  0
LINE
  5
1815F
330
180F8
100
AcDbEntity
  8
KISO
100
AcDbLine
 10
5439.79705126747
 20
3191.0848394196
 30
0.0
 11
6082.193774006775
 21
3191.084839419601
 31
0.0
  0
LINE
  5
18160
330
180F8
100
AcDbEntity
  8
HATCH
100
AcDbLine
 10
6002.193774006773
 20
3420.205526271753
 30
0.0
 11
5901.073087154633
 21
3319.084839419603
 31
0.0
  0
LINE
  5
18161
330
180F8
100
AcDbEntity
  8
HATCH
100
AcDbLine
 10
6002.193774006773
 20
3372.687950576013
 30
0.0
 11
5948.590662850365
 21
3319.084839419603
 31
0.0
  0
LINE
  5
18162
330
180F8
100
AcDbEntity
  8
HATCH
100
AcDbLine
 10
5501.55551145889
 20
3447.084839419609
 30
0.0
 11
5373.555511458888
 21
3319.084839419601
 31
0.0
  0
LINE
  5
18163
330
180F8
100
AcDbEntity
  8
HATCH
100
AcDbLine
 10
5549.07308715463
 20
3447.084839419609
 30
0.0
 11
5421.07308715463
 21
3319.084839419601
 31
0.0
  0
LINE
  5
18164
330
180F8
100
AcDbEntity
  8
HATCH
100
AcDbLine
 10
5116.590662850367
 20
3447.084839419609
 30
0.0
 11
4988.590662850362
 21
3319.084839419601
 31
0.0
  0
LINE
  5
18165
330
180F8
100
AcDbEntity
  8
HATCH
100
AcDbLine
 10
5069.073087154626
 20
3447.084839419609
 30
0.0
 11
4941.073087154631
 21
3319.084839419601
 31
0.0
  0
LINE
  5
18166
330
180F8
100
AcDbEntity
  8
HATCH
100
AcDbLine
 10
5596.590662850367
 20
3447.084839419609
 30
0.0
 11
5468.590662850361
 21
3319.084839419601
 31
0.0
  0
LINE
  5
18167
330
180F8
100
AcDbEntity
  8
HATCH
100
AcDbLine
 10
5981.555511458893
 20
3447.084839419609
 30
0.0
 11
5853.555511458888
 21
3319.084839419603
 31
0.0
  0
LINE
  5
18168
330
180F8
100
AcDbEntity
  8
KISO
100
AcDbLine
 10
5439.797051267463
 20
3319.084839419601
 30
0.0
 11
5439.797051267463
 21
2679.0848394196
 31
0.0
  0
LINE
  5
18169
330
180F8
100
AcDbEntity
  8
HATCH
100
AcDbLine
 10
5439.797051267463
 20
3073.167263723862
 30
0.0
 11
5045.714626963205
 21
2679.0848394196
 31
0.0
  0
LINE
  5
1816A
330
180F8
100
AcDbEntity
  8
HATCH
100
AcDbLine
 10
5301.232202658938
 20
3319.084839419601
 30
0.0
 11
4661.232202658946
 21
2679.0848394196
 31
0.0
  0
LINE
  5
1816B
330
180F8
100
AcDbEntity
  8
HATCH
100
AcDbLine
 10
5253.714626963207
 20
3319.084839419601
 30
0.0
 11
4810.197051267465
 21
2875.567263723857
 31
0.0
  0
LINE
  5
1816C
330
180F8
100
AcDbEntity
  8
HATCH
100
AcDbLine
 10
5206.197051267466
 20
3319.084839419601
 30
0.0
 11
4810.197051267465
 21
2923.084839419596
 31
0.0
  0
LINE
  5
1816D
330
180F8
100
AcDbEntity
  8
HATCH
100
AcDbLine
 10
5439.797051267463
 20
3025.649688028124
 30
0.0
 11
5093.232202658946
 21
2679.084839419599
 31
0.0
  0
LINE
  5
1816E
330
180F8
100
AcDbEntity
  8
HATCH
100
AcDbLine
 10
5439.797051267464
 20
2978.13211233239
 30
0.0
 11
5140.749778354678
 21
2679.084839419599
 31
0.0
  0
LINE
  5
1816F
330
180F8
100
AcDbEntity
  8
HATCH
100
AcDbLine
 10
4774.197051267476
 20
3319.084839419601
 30
0.0
 11
4159.797051267463
 21
2704.684839419591
 31
0.0
  0
LINE
  5
18170
330
180F8
100
AcDbEntity
  8
HATCH
100
AcDbLine
 10
4726.679475571732
 20
3319.084839419601
 30
0.0
 11
4159.797051267463
 21
2752.202415115331
 31
0.0
  0
LINE
  5
18171
330
180F8
100
AcDbEntity
  8
HATCH
100
AcDbLine
 10
4789.397051267463
 20
3286.767263723862
 30
0.0
 11
4181.714626963205
 21
2679.0848394196
 31
0.0
  0
LINE
  5
18172
330
180F8
100
AcDbEntity
  8
HATCH
100
AcDbLine
 10
4342.19705126747
 20
3319.084839419601
 30
0.0
 11
4159.797051267463
 21
3136.684839419597
 31
0.0
  0
LINE
  5
18173
330
180F8
100
AcDbEntity
  8
HATCH
100
AcDbLine
 10
4247.161899876001
 20
3319.084839419603
 30
0.0
 11
4159.797051267463
 21
3231.719990811074
 31
0.0
  0
LINE
  5
18174
330
180F8
100
AcDbEntity
  8
HATCH
100
AcDbLine
 10
4294.679475571739
 20
3319.084839419601
 30
0.0
 11
4159.797051267463
 21
3184.202415115327
 31
0.0
  0
LINE
  5
18175
330
180F8
100
AcDbEntity
  8
HATCH
100
AcDbLine
 10
4789.397051267463
 20
2902.284839419595
 30
0.0
 11
4766.19705126748
 21
2879.084839419608
 31
0.0
  0
LINE
  5
18176
330
180F8
100
AcDbEntity
  8
HATCH
100
AcDbLine
 10
4745.397051267479
 20
2858.284839419607
 30
0.0
 11
4566.19705126747
 21
2679.0848394196
 31
0.0
  0
LINE
  5
18177
330
180F8
100
AcDbEntity
  8
HATCH
100
AcDbLine
 10
5439.797051267464
 20
3285.236002075317
 30
0.0
 11
5459.339686619942
 21
3319.084839419601
 31
0.0
  0
LINE
  5
18178
330
180F8
100
AcDbEntity
  8
U3
100
AcDbLine
 10
3924.853654654415
 20
3280.790681683919
 30
0.0
 11
3996.959496918732
 21
3208.684839419603
 31
0.0
  0
LINE
  5
18179
330
180F8
100
AcDbEntity
  8
U3
100
AcDbLine
 10
3909.820095533321
 20
3265.757122562824
 30
0.0
 11
4020.747812390101
 21
3376.684839419601
 31
0.0
  0
LINE
  5
1817A
330
180F8
100
AcDbEntity
  8
HATCH
100
AcDbLine
 10
4792.91462696322
 20
2858.284839419607
 30
0.0
 11
4613.71462696321
 21
2679.0848394196
 31
0.0
  0
LINE
  5
1817B
330
180F8
100
AcDbEntity
  8
HATCH
100
AcDbLine
 10
4636.590662850368
 20
3447.084839419609
 30
0.0
 11
4508.590662850362
 21
3319.084839419601
 31
0.0
  0
LINE
  5
1817C
330
180F8
100
AcDbEntity
  8
HATCH
100
AcDbLine
 10
4589.07308715463
 20
3447.084839419609
 30
0.0
 11
4461.07308715463
 21
3319.084839419601
 31
0.0
  0
LINE
  5
1817D
330
180F8
100
AcDbEntity
  8
HATCH
100
AcDbLine
 10
4541.55551145889
 20
3447.084839419609
 30
0.0
 11
4413.55551145889
 21
3319.084839419601
 31
0.0
  0
LINE
  5
1817E
330
180F8
100
AcDbEntity
  8
SUNPOU
100
AcDbLine
 10
4799.797051267463
 20
4130.485411556192
 30
0.0
 11
6225.027558517715
 21
4130.485411556192
 31
0.0
  0
TEXT
  5
1817F
330
180F8
100
AcDbEntity
  8
SUNPOU
100
AcDbText
 10
5585.624750407928
 20
4175.485411556191
 30
0.0
 40
90.0
  1
2400
 41
0.6666666666666666
  7
00
 72
     4
 11
5699.910464693643
 21
4220.485411556191
 31
0.0
100
AcDbText
  0
TEXT
  5
18180
330
180F8
100
AcDbEntity
  8
SUNPOU
100
AcDbText
 10
3070.061516132469
 20
3502.084839419605
 30
0.0
 40
90.0
  1
G.L
 41
0.6700000000000001
  7
01
 72
     4
 11
3141.847230418183
 21
3547.084839419605
 31
0.0
100
AcDbText
  0
LINE
  5
18181
330
180F8
100
AcDbEntity
  8
SUNPOU
100
AcDbLine
 10
3193.80875464525
 20
3457.084839419605
 30
0.0
 11
3089.885706191117
 21
3457.084839419605
 31
0.0
  0
LINE
  5
18182
330
180F8
100
AcDbEntity
  8
SUNPOU
100
AcDbLine
 10
3089.885706191117
 20
3457.084839419605
 30
0.0
 11
3141.847230418183
 21
3367.084839419606
 31
0.0
  0
LINE
  5
18183
330
180F8
100
AcDbEntity
  8
SUNPOU
100
AcDbLine
 10
3141.847230418183
 20
3367.084839419606
 30
0.0
 11
3193.80875464525
 21
3457.084839419605
 31
0.0
  0
TEXT
  5
18184
330
180F8
100
AcDbEntity
  8
HIKIDASHI
100
AcDbText
 10
4876.000654146238
 20
1664.635820576935
 30
0.0
 40
90.0
  1
断 面
  7
01
100
AcDbText
  0
LINE
  5
18185
330
180F8
100
AcDbEntity
  8
HIKIDASHI
100
AcDbLine
 10
4451.983374649677
 20
1619.635820576936
 30
0.0
 11
5147.610727885247
 21
1619.635820576936
 31
0.0
  0
LINE
  5
18186
330
180F8
100
AcDbEntity
  8
HIKIDASHI
100
AcDbLine
 10
4451.983374649677
 20
1589.635820576935
 30
0.0
 11
5147.610727885247
 21
1589.635820576935
 31
0.0
  0
TEXT
  5
18187
330
180F8
100
AcDbEntity
  8
HIKIDASHI
100
AcDbText
 10
4481.983374649677
 20
1664.635820576935
 30
0.0
 40
90.0
  1
A  ~  A'
 41
0.6700000000000001
  7
00
100
AcDbText
  0
TEXT
  5
18188
330
180F8
100
AcDbEntity
  8
HIKIDASHI
100
AcDbText
 10
5718.705531692624
 20
2949.11470702088
 30
0.0
 40
90.0
  1
敷砂利又は砕石
  7
01
 72
     2
 11
6450.705531692624
 21
2994.11470702088
 31
0.0
100
AcDbText
 73
     2
  0
LINE
  5
18189
330
180F8
100
AcDbEntity
  8
HIKIDASHI
100
AcDbLine
 10
6475.935832338302
 20
2904.11470702088
 30
0.0
 11
5674.871662611157
 21
2904.11470702088
 31
0.0
  0
TEXT
  5
1818A
330
180F8
100
AcDbEntity
  8
HIKIDASHI
100
AcDbText
 10
5843.40570439457
 20
2313.304238552882
 30
0.0
 40
90.0
  1
砕　石
  7
01
 72
     2
 11
6143.40570439457
 21
2358.304238552882
 31
0.0
100
AcDbText
 73
     2
  0
LINE
  5
1818B
330
180F8
100
AcDbEntity
  8
HIKIDASHI
100
AcDbLine
 10
6185.104473630285
 20
2268.304238552882
 30
0.0
 11
5816.338096802658
 21
2268.304238552882
 31
0.0
  0
CIRCLE
  5
1818C
330
180F8
100
AcDbEntity
  8
BOLT
100
AcDbCircle
 10
8811.882670973586
 20
3424.684839419607
 30
0.0
 40
13.2
  0
CIRCLE
  5
1818D
330
180F8
100
AcDbEntity
  8
BOLT
100
AcDbCircle
 10
8811.882670973586
 20
3424.684839419607
 30
0.0
 40
16.8
  0
CIRCLE
  5
1818E
330
180F8
100
AcDbEntity
  8
BOLT
100
AcDbCircle
 10
8811.882670973586
 20
3360.684839419607
 30
0.0
 40
16.8
  0
CIRCLE
  5
1818F
330
180F8
100
AcDbEntity
  8
BOLT
100
AcDbCircle
 10
8811.882670973586
 20
3360.684839419607
 30
0.0
 40
13.2
  0
LINE
  5
18190
330
180F8
100
AcDbEntity
  8
KISO
100
AcDbLine
 10
10014.27939371289
 20
3447.084839419609
 30
0.0
 11
8863.882670973586
 21
3447.084839419608
 31
0.0
  0
LINE
  5
18191
330
180F8
100
AcDbEntity
  8
KISO
100
AcDbLine
 10
10014.27939371289
 20
3319.084839419601
 30
0.0
 11
7691.882670973587
 21
3319.084839419604
 31
0.0
  0
LINE
  5
18192
330
180F8
100
AcDbEntity
  8
KISO
100
AcDbLine
 10
7691.882670973587
 20
3191.084839419599
 30
0.0
 11
8171.882670973586
 21
3191.0848394196
 31
0.0
  0
LINE
  5
18193
330
180F8
100
AcDbEntity
  8
KISO
100
AcDbLine
 10
8759.882670973587
 20
3447.084839419609
 30
0.0
 11
7691.882670973587
 21
3447.084839419609
 31
0.0
  0
LINE
  5
18194
330
180F8
100
AcDbEntity
  8
HASHIRA
100
AcDbLine
 10
8863.882670973584
 20
3328.684839419607
 30
0.0
 11
8863.882670973579
 21
3583.485411556191
 31
0.0
  0
LINE
  5
18195
330
180F8
100
AcDbEntity
  8
HASHIRA
100
AcDbLine
 10
8759.882670973587
 20
3583.485411556191
 30
0.0
 11
8759.882670973587
 21
3328.684839419607
 31
0.0
  0
LINE
  5
18196
330
180F8
100
AcDbEntity
  8
HATCH
100
AcDbLine
 10
8553.641131165022
 20
3447.084839419609
 30
0.0
 11
8425.641131165013
 21
3319.084839419603
 31
0.0
  0
LINE
  5
18197
330
180F8
100
AcDbEntity
  8
HATCH
100
AcDbLine
 10
8648.676282556484
 20
3447.084839419608
 30
0.0
 11
8520.676282556481
 21
3319.084839419601
 31
0.0
  0
LINE
  5
18198
330
180F8
100
AcDbEntity
  8
HATCH
100
AcDbLine
 10
8601.158706860756
 20
3447.084839419609
 30
0.0
 11
8473.158706860749
 21
3319.084839419603
 31
0.0
  0
LINE
  5
18199
330
180F8
100
AcDbEntity
  8
1PL-S1
100
AcDbLine
 10
8715.882670973586
 20
3309.484839419607
 30
0.0
 11
8715.882670973586
 21
3338.284839419608
 31
0.0
  0
LINE
  5
1819A
330
180F8
100
AcDbEntity
  8
HATCH
100
AcDbLine
 10
9033.641131165012
 20
3447.084839419608
 30
0.0
 11
8915.241131165014
 21
3328.684839419607
 31
0.0
  0
LINE
  5
1819B
330
180F8
100
AcDbEntity
  8
HATCH
100
AcDbLine
 10
9081.158706860755
 20
3447.084839419609
 30
0.0
 11
8953.158706860749
 21
3319.084839419601
 31
0.0
  0
LINE
  5
1819C
330
180F8
100
AcDbEntity
  8
1PL-S1
100
AcDbLine
 10
8907.882670973583
 20
3309.484839419607
 30
0.0
 11
8907.882670973583
 21
3338.284839419606
 31
0.0
  0
LINE
  5
1819D
330
180F8
100
AcDbEntity
  8
HATCH
100
AcDbLine
 10
9128.676282556488
 20
3447.084839419609
 30
0.0
 11
9000.676282556481
 21
3319.084839419601
 31
0.0
  0
LINE
  5
1819E
330
180F8
100
AcDbEntity
  8
HATCH
100
AcDbLine
 10
9513.641131165012
 20
3447.084839419609
 30
0.0
 11
9385.641131165012
 21
3319.084839419601
 31
0.0
  0
LINE
  5
1819F
330
180F8
100
AcDbEntity
  8
HATCH
100
AcDbLine
 10
9561.158706860755
 20
3447.084839419609
 30
0.0
 11
9433.158706860751
 21
3319.084839419601
 31
0.0
  0
LINE
  5
181A0
330
180F8
100
AcDbEntity
  8
HATCH
100
AcDbLine
 10
9608.676282556487
 20
3447.084839419609
 30
0.0
 11
9480.676282556476
 21
3319.084839419601
 31
0.0
  0
LINE
  5
181A1
330
180F8
100
AcDbEntity
  8
HATCH
100
AcDbLine
 10
10014.27939371289
 20
3372.687950576015
 30
0.0
 11
9960.676282556477
 21
3319.084839419601
 31
0.0
  0
LINE
  5
181A2
330
180F8
100
AcDbEntity
  8
HATCH
100
AcDbLine
 10
10014.27939371289
 20
3420.205526271745
 30
0.0
 11
9913.158706860752
 21
3319.084839419601
 31
0.0
  0
LINE
  5
181A3
330
180F8
100
AcDbEntity
  8
HATCH
100
AcDbLine
 10
9993.641131165013
 20
3447.084839419609
 30
0.0
 11
9865.641131165013
 21
3319.084839419601
 31
0.0
  0
LINE
  5
181A4
330
180F8
100
AcDbEntity
  8
HATCH
100
AcDbLine
 10
9451.882670973587
 20
3073.16726372387
 30
0.0
 11
9057.800246669323
 21
2679.084839419599
 31
0.0
  0
LINE
  5
181A5
330
180F8
100
AcDbEntity
  8
HATCH
100
AcDbLine
 10
9451.882670973587
 20
3025.649688028133
 30
0.0
 11
9105.317822365057
 21
2679.084839419599
 31
0.0
  0
LINE
  5
181A6
330
180F8
100
AcDbEntity
  8
HATCH
100
AcDbLine
 10
9451.882670973587
 20
2978.132112332401
 30
0.0
 11
9152.835398060792
 21
2679.084839419599
 31
0.0
  0
LINE
  5
181A7
330
180F8
100
AcDbEntity
  8
HATCH
100
AcDbLine
 10
9265.80024666932
 20
3319.084839419601
 30
0.0
 11
8918.282670973587
 21
2971.567263723861
 31
0.0
  0
LINE
  5
181A8
330
180F8
100
AcDbEntity
  8
HATCH
100
AcDbLine
 10
9313.31782236505
 20
3319.084839419601
 30
0.0
 11
8918.282670973587
 21
2924.049688028132
 31
0.0
  0
LINE
  5
181A9
330
180F8
100
AcDbEntity
  8
HATCH
100
AcDbLine
 10
9218.282670973584
 20
3319.084839419601
 30
0.0
 11
8918.282670973587
 21
3019.084839419599
 31
0.0
  0
LINE
  5
181AA
330
180F8
100
AcDbEntity
  8
KISO
100
AcDbLine
 10
9451.882670973587
 20
3319.084839419604
 30
0.0
 11
9451.882670973587
 21
2679.084839419599
 31
0.0
  0
LINE
  5
181AB
330
180F8
100
AcDbEntity
  8
HATCH
100
AcDbLine
 10
8738.765095277852
 20
3319.084839419601
 30
0.0
 11
8726.282670973587
 21
3306.602415115337
 31
0.0
  0
LINE
  5
181AC
330
180F8
100
AcDbEntity
  8
HATCH
100
AcDbLine
 10
8801.482670973589
 20
3286.767263723867
 30
0.0
 11
8726.282670973587
 21
3211.567263723865
 31
0.0
  0
LINE
  5
181AD
330
180F8
100
AcDbEntity
  8
HATCH
100
AcDbLine
 10
8786.282670973589
 20
3319.084839419601
 30
0.0
 11
8726.282670973587
 21
3259.084839419598
 31
0.0
  0
LINE
  5
181AE
330
180F8
100
AcDbEntity
  8
KISO
100
AcDbLine
 10
8171.882670973586
 20
3319.084839419605
 30
0.0
 11
8171.882670973586
 21
2679.0848394196
 31
0.0
  0
LINE
  5
181AF
330
180F8
100
AcDbEntity
  8
HATCH
100
AcDbLine
 10
8354.282670973587
 20
3319.084839419603
 30
0.0
 11
8171.882670973586
 21
3136.684839419603
 31
0.0
  0
LINE
  5
181B0
330
180F8
100
AcDbEntity
  8
HATCH
100
AcDbLine
 10
8306.765095277857
 20
3319.084839419601
 30
0.0
 11
8171.882670973586
 21
3184.202415115334
 31
0.0
  0
LINE
  5
181B1
330
180F8
100
AcDbEntity
  8
HATCH
100
AcDbLine
 10
8897.48267097358
 20
2998.284839419597
 30
0.0
 11
8578.282670973594
 21
2679.0848394196
 31
0.0
  0
LINE
  5
181B2
330
180F8
100
AcDbEntity
  8
HATCH
100
AcDbLine
 10
8897.48267097358
 20
2950.767263723859
 30
0.0
 11
8625.800246669326
 21
2679.084839419599
 31
0.0
  0
LINE
  5
181B3
330
180F8
100
AcDbEntity
  8
HATCH
100
AcDbLine
 10
8897.48267097358
 20
2903.249688028129
 30
0.0
 11
8673.31782236506
 21
2679.084839419599
 31
0.0
  0
LINE
  5
181B4
330
180F8
100
AcDbEntity
  8
HATCH
100
AcDbLine
 10
8705.482670973585
 20
3285.802415115337
 30
0.0
 11
8171.882670973586
 21
2752.202415115339
 31
0.0
  0
LINE
  5
181B5
330
180F8
100
AcDbEntity
  8
HATCH
100
AcDbLine
 10
8705.482670973585
 20
3238.284839419597
 30
0.0
 11
8171.882670973586
 21
2704.684839419594
 31
0.0
  0
LINE
  5
181B6
330
180F8
100
AcDbEntity
  8
HATCH
100
AcDbLine
 10
8705.482670973585
 20
3190.767263723866
 30
0.0
 11
8193.800246669324
 21
2679.0848394196
 31
0.0
  0
LINE
  5
181B7
330
180F8
100
AcDbEntity
  8
HATCH
100
AcDbLine
 10
8259.247519582121
 20
3319.084839419603
 30
0.0
 11
8171.882670973586
 21
3231.719990811075
 31
0.0
  0
LINE
  5
181B8
330
180F8
100
AcDbEntity
  8
1PL-M1
100
AcDbLine
 10
8811.882670973586
 20
2396.172125878784
 30
0.0
 11
8811.882670973586
 21
4175.485411556193
 31
0.0
  0
LINE
  5
181B9
330
180F8
100
AcDbEntity
  8
SUNPOU
100
AcDbLine
 10
8811.882670973586
 20
4130.485411556196
 30
0.0
 11
10237.11317822384
 21
4130.485411556196
 31
0.0
  0
TEXT
  5
181BA
330
180F8
100
AcDbEntity
  8
SUNPOU
100
AcDbText
 10
9593.424655828336
 20
4175.485411556197
 30
0.0
 40
90.0
  1
1435
 41
0.6666666666666666
  7
00
 72
     4
 11
9711.996084399766
 21
4220.485411556196
 31
0.0
100
AcDbText
  0
TEXT
  5
181BB
330
180F8
100
AcDbEntity
  8
SUNPOU
100
AcDbText
 10
6656.359478075291
 20
3502.084839419613
 30
0.0
 40
90.0
  1
G.L
 41
0.6700000000000001
  7
01
 72
     4
 11
6728.145192361006
 21
3547.084839419613
 31
0.0
100
AcDbText
  0
LINE
  5
181BC
330
180F8
100
AcDbEntity
  8
SUNPOU
100
AcDbLine
 10
6780.106716588072
 20
3457.084839419613
 30
0.0
 11
6676.183668133939
 21
3457.084839419613
 31
0.0
  0
LINE
  5
181BD
330
180F8
100
AcDbEntity
  8
SUNPOU
100
AcDbLine
 10
6676.183668133939
 20
3457.084839419613
 30
0.0
 11
6728.145192361006
 21
3367.084839419614
 31
0.0
  0
LINE
  5
181BE
330
180F8
100
AcDbEntity
  8
SUNPOU
100
AcDbLine
 10
6728.145192361006
 20
3367.084839419614
 30
0.0
 11
6780.106716588072
 21
3457.084839419613
 31
0.0
  0
LINE
  5
181BF
330
180F8
100
AcDbEntity
  8
U3
100
AcDbLine
 10
6940.259619965788
 20
3367.084839419608
 30
0.0
 11
7108.259619965787
 21
3199.084839419612
 31
0.0
  0
LINE
  5
181C0
330
180F8
100
AcDbEntity
  8
U3
100
AcDbLine
 10
6889.347931720354
 20
3316.173151174178
 30
0.0
 11
7006.436243474921
 21
3199.084839419608
 31
0.0
  0
LINE
  5
181C1
330
180F8
100
AcDbEntity
  8
U3
100
AcDbLine
 10
7691.882670973587
 20
3367.08483941961
 30
0.0
 11
7521.013148236701
 21
3367.084839419608
 31
0.0
  0
LINE
  5
181C2
330
180F8
100
AcDbEntity
  8
U3
100
AcDbLine
 10
6670.436243474921
 20
3300.908215910471
 30
0.0
 11
6736.612866984057
 21
3367.084839419606
 31
0.0
  0
LINE
  5
181C3
330
180F8
100
AcDbEntity
  8
U3
100
AcDbLine
 10
6604.259619965787
 20
3367.084839419606
 30
0.0
 11
6772.259619965787
 21
3199.084839419612
 31
0.0
  0
LINE
  5
181C4
330
180F8
100
AcDbEntity
  8
U3
100
AcDbLine
 10
6721.347931720353
 20
3249.996527665041
 30
0.0
 11
6838.436243474922
 21
3367.084839419606
 31
0.0
  0
LINE
  5
181C5
330
180F8
100
AcDbEntity
  8
U3
100
AcDbLine
 10
6772.259619965787
 20
3199.084839419612
 30
0.0
 11
6940.259619965788
 21
3367.084839419608
 31
0.0
  0
LINE
  5
181C6
330
180F8
100
AcDbEntity
  8
U3
100
AcDbLine
 10
6838.436243474922
 20
3265.261462928744
 30
0.0
 11
6904.612866984059
 21
3199.084839419608
 31
0.0
  0
LINE
  5
181C7
330
180F8
100
AcDbEntity
  8
U3
100
AcDbLine
 10
7108.259619965787
 20
3199.084839419612
 30
0.0
 11
7205.251603648955
 21
3296.076823102775
 31
0.0
  0
LINE
  5
181C8
330
180F8
100
AcDbEntity
  8
U3
100
AcDbLine
 10
7006.436243474921
 20
3300.908215910475
 30
0.0
 11
7072.612866984056
 21
3367.084839419608
 31
0.0
  0
LINE
  5
181C9
330
180F8
100
AcDbEntity
  8
U3
100
AcDbLine
 10
7057.347931720354
 20
3249.996527665043
 30
0.0
 11
7174.436243474926
 21
3367.084839419608
 31
0.0
  0
LINE
  5
181CA
330
180F8
100
AcDbEntity
  8
HIKIDASHI
100
AcDbLine
 10
9878.379441167076
 20
3910.885411556199
 30
0.0
 11
9509.613064339452
 21
3910.885411556199
 31
0.0
  0
TEXT
  5
181CB
330
180F8
100
AcDbEntity
  8
HIKIDASHI
100
AcDbText
 10
9542.680671931362
 20
3955.885411556198
 30
0.0
 40
90.0
  1
土　間
  7
01
 72
     2
 11
9836.680671931363
 21
4000.885411556199
 31
0.0
100
AcDbText
 73
     2
  0
TEXT
  5
181CC
330
180F8
100
AcDbEntity
  8
SUNPOU
100
AcDbText
 10
9630.347005464871
 20
3582.084839419609
 30
0.0
 40
90.0
  1
F.L
 41
0.6666666666666666
  7
00
 72
     4
 11
9698.918434036301
 21
3627.084839419608
 31
0.0
100
AcDbText
  0
LINE
  5
181CD
330
180F8
100
AcDbEntity
  8
SUNPOU
100
AcDbLine
 10
9698.918434036301
 20
3447.084839419608
 30
0.0
 11
9750.879958263364
 21
3537.084839419608
 31
0.0
  0
LINE
  5
181CE
330
180F8
100
AcDbEntity
  8
SUNPOU
100
AcDbLine
 10
9646.956909809233
 20
3537.084839419608
 30
0.0
 11
9698.918434036301
 21
3447.084839419608
 31
0.0
  0
LINE
  5
181CF
330
180F8
100
AcDbEntity
  8
SUNPOU
100
AcDbLine
 10
9750.879958263364
 20
3537.084839419608
 30
0.0
 11
9646.956909809233
 21
3537.084839419608
 31
0.0
  0
TEXT
  5
181D0
330
180F8
100
AcDbEntity
  8
HIKIDASHI
100
AcDbText
 10
7243.186205969853
 20
1814.878869270352
 30
0.0
 40
89.55223880597012
  1
x
 41
0.6700000000000001
  7
00
100
AcDbText
  0
TEXT
  5
181D1
330
180F8
100
AcDbEntity
  8
HIKIDASHI
100
AcDbText
 10
7171.351268779479
 20
1803.088394027939
 30
0.0
 40
67.16417910447761
  1
2
 41
0.6700000000000001
  7
00
100
AcDbText
  0
TEXT
  5
181D2
330
180F8
100
AcDbEntity
  8
HIKIDASHI
100
AcDbText
 10
7083.459232220558
 20
1830.114449058499
 30
0.0
 40
67.16417910447761
  1
1
 41
0.6700000000000001
  7
00
100
AcDbText
  0
TEXT
  5
181D3
330
180F8
100
AcDbEntity
  8
HIKIDASHI
100
AcDbText
 10
7008.858421537334
 20
1803.684839419606
 30
0.0
 40
89.55223880597012
  1
W ／
 41
0.6700000000000001
  7
00
100
AcDbText
  0
TEXT
  5
181D4
330
180F8
100
AcDbEntity
  8
HIKIDASHI
100
AcDbText
 10
7324.321585122987
 20
1803.475853219515
 30
0.0
 40
89.55223880597012
  1
300
 41
0.6700000000000001
  7
00
100
AcDbText
  0
TEXT
  5
181D5
330
180F8
100
AcDbEntity
  8
HIKIDASHI
100
AcDbText
 10
7008.858421537334
 20
1983.684839419604
 30
0.0
 40
90.0
  1
アンカーボルト
  7
01
100
AcDbText
  0
LINE
  5
181D6
330
180F8
100
AcDbEntity
  8
HIKIDASHI
100
AcDbLine
 10
6979.778812675625
 20
1938.684839419604
 30
0.0
 11
7799.784826072476
 21
1938.684839419604
 31
0.0
  0
TEXT
  5
181D7
330
180F8
100
AcDbEntity
  8
HIKIDASHI
100
AcDbText
 10
8494.068994355796
 20
1664.635820576939
 30
0.0
 40
90.0
  1
B  ~  B'
 41
0.6700000000000001
  7
00
100
AcDbText
  0
LINE
  5
181D8
330
180F8
100
AcDbEntity
  8
HIKIDASHI
100
AcDbLine
 10
8464.068994355796
 20
1589.635820576939
 30
0.0
 11
9159.696347591363
 21
1589.635820576939
 31
0.0
  0
LINE
  5
181D9
330
180F8
100
AcDbEntity
  8
HIKIDASHI
100
AcDbLine
 10
8464.068994355796
 20
1619.635820576939
 30
0.0
 11
9159.696347591363
 21
1619.635820576939
 31
0.0
  0
TEXT
  5
181DA
330
180F8
100
AcDbEntity
  8
HIKIDASHI
100
AcDbText
 10
8888.086273852357
 20
1664.635820576939
 30
0.0
 40
90.0
  1
断 面
  7
01
100
AcDbText
  0
LINE
  5
181DB
330
180F8
100
AcDbEntity
  8
1PL-S1
100
AcDbLine
 10
11225.33837406209
 20
2700.144344053149
 30
0.0
 11
11857.33837406209
 21
2700.144344053149
 31
0.0
  0
LINE
  5
181DC
330
180F8
100
AcDbEntity
  8
U1
100
AcDbLine
 10
11391.3383740621
 20
3642.337036584561
 30
0.0
 11
11391.3383740621
 21
4026.401575763828
 31
0.0
  0
LINE
  5
181DD
330
180F8
100
AcDbEntity
  8
U1
100
AcDbLine
 10
11691.33837406209
 20
3642.337036584561
 30
0.0
 11
11691.33837406209
 21
4026.401575763828
 31
0.0
  0
LINE
  5
181DE
330
180F8
100
AcDbEntity
  8
1PL-S1
100
AcDbLine
 10
11541.33837406209
 20
3578.337036584561
 30
0.0
 11
11541.33837406209
 21
4066.401575763828
 31
0.0
  0
CIRCLE
  5
181DF
330
180F8
100
AcDbEntity
  8
U1
100
AcDbCircle
 10
11541.33837406209
 20
3886.33703658456
 30
0.0
 40
24.0
  0
LINE
  5
181E0
330
180F8
100
AcDbEntity
  8
1PL-S1
100
AcDbLine
 10
11301.33837406209
 20
2624.144344053149
 30
0.0
 11
11301.33837406209
 21
2776.144344053149
 31
0.0
  0
LINE
  5
181E1
330
180F8
100
AcDbEntity
  8
1PL-S1
100
AcDbLine
 10
11781.33837406209
 20
2624.144344053149
 30
0.0
 11
11781.33837406209
 21
2776.144344053149
 31
0.0
  0
LINE
  5
181E2
330
180F8
100
AcDbEntity
  8
1PL-S1
100
AcDbLine
 10
11541.33837406209
 20
2500.144344053149
 30
0.0
 11
11541.33837406209
 21
2900.144344053149
 31
0.0
  0
CIRCLE
  5
181E3
330
180F8
100
AcDbEntity
  8
U1
100
AcDbCircle
 10
11301.33837406209
 20
2700.144344053149
 30
0.0
 40
36.0
  0
LINE
  5
181E4
330
180F8
100
AcDbEntity
  8
U1
100
AcDbLine
 10
11691.33837406209
 20
2700.144344053149
 30
0.0
 11
11612.31129530375
 21
2700.144344053149
 31
0.0
  0
CIRCLE
  5
181E5
330
180F8
100
AcDbEntity
  8
U1
100
AcDbCircle
 10
11781.33837406209
 20
2700.144344053149
 30
0.0
 40
36.0
  0
LINE
  5
181E6
330
180F8
100
AcDbEntity
  8
1PL-S1
100
AcDbLine
 10
11477.33837406209
 20
3726.33703658456
 30
0.0
 11
11605.33837406209
 21
3726.33703658456
 31
0.0
  0
LINE
  5
181E7
330
180F8
100
AcDbEntity
  8
1PL-S1
100
AcDbLine
 10
11301.33837406211
 20
3578.337036584561
 30
0.0
 11
11301.33837406209
 21
3682.337036584562
 31
0.0
  0
LINE
  5
181E8
330
180F8
100
AcDbEntity
  8
1PL-S1
100
AcDbLine
 10
11781.33837406209
 20
3578.337036584561
 30
0.0
 11
11781.33837406209
 21
3682.337036584562
 31
0.0
  0
CIRCLE
  5
181E9
330
180F8
100
AcDbEntity
  8
U1
100
AcDbCircle
 10
11541.33837406209
 20
3726.33703658456
 30
0.0
 40
24.0
  0
LINE
  5
181EA
330
180F8
100
AcDbEntity
  8
1PL-S1
100
AcDbLine
 10
11477.33837406209
 20
3886.33703658456
 30
0.0
 11
11605.33837406209
 21
3886.33703658456
 31
0.0
  0
TEXT
  5
181EB
330
180F8
100
AcDbEntity
  8
SUNPOU
100
AcDbText
 10
10750.05141017947
 20
1674.586261835072
 30
0.0
 40
120.0
  1
柱脚金具詳細図
  7
01
 72
     4
 11
11234.05141017947
 21
1734.586261835072
 31
0.0
100
AcDbText
  0
TEXT
  5
181EC
330
180F8
100
AcDbEntity
  8
SUNPOU
100
AcDbText
 10
12146.16023934792
 20
1672.124723373534
 30
0.0
 40
73.84615384615384
  1
/
 41
0.6700000000000001
  7
00
 11
12146.16023934792
 21
1662.27856952738
 31
0.0
100
AcDbText
 73
     1
  0
TEXT
  5
181ED
330
180F8
100
AcDbEntity
  8
SUNPOU
100
AcDbText
 10
12210.1096823023
 20
1653.663184911995
 30
0.0
 40
73.84615384615384
  1
10
 41
0.6700000000000001
  7
00
 11
12210.1096823023
 21
1643.817031065841
 31
0.0
100
AcDbText
 73
     1
  0
TEXT
  5
181EE
330
180F8
100
AcDbEntity
  8
SUNPOU
100
AcDbText
 10
12097.75411203255
 20
1690.586261835072
 30
0.0
 40
73.84615384615384
  1
1
 41
0.6700000000000001
  7
00
 11
12097.75411203255
 21
1680.740107988918
 31
0.0
100
AcDbText
 73
     1
  0
TEXT
  5
181EF
330
180F8
100
AcDbEntity
  8
SUNPOU
100
AcDbText
 10
11778.05141017947
 20
1674.586261835072
 30
0.0
 40
92.30769230769228
  1
（ S = 　　  ）
 41
0.6700000000000001
  7
00
 11
11778.05141017947
 21
1662.27856952738
 31
0.0
100
AcDbText
 73
     1
  0
LINE
  5
181F0
330
180F8
100
AcDbEntity
  8
HIKIDASHI
100
AcDbLine
 10
12073.23363223807
 20
3067.661600164834
 30
0.0
 11
12657.27442780204
 21
3067.661600164834
 31
0.0
  0
TEXT
  5
181F1
330
180F8
100
AcDbEntity
  8
HIKIDASHI
100
AcDbText
 10
12092.52363003481
 20
3112.661600164834
 30
0.0
 40
90.0
  1
プレ－ト
  7
01
 72
     2
 11
12482.5236300348
 21
3112.661600164834
 31
0.0
100
AcDbText
  0
TEXT
  5
181F2
330
180F8
100
AcDbEntity
  8
HIKIDASHI
100
AcDbText
 10
12520.97881071722
 20
3112.661600164834
 30
0.0
 40
90.0
  1
6
 41
0.6666666666666666
  7
00
 72
     2
 11
12569.55023928865
 21
3112.661600164834
 31
0.0
100
AcDbText
  0
TEXT
  5
181F3
330
180F8
100
AcDbEntity
  8
HIKIDASHI
100
AcDbText
 10
12606.97646118922
 20
3126.647348600799
 30
0.0
 40
89.99999909999997
  1
t
 41
0.6700000000000001
  7
00
100
AcDbText
  0
LINE
  5
181F4
330
180F8
100
AcDbEntity
  8
KISO
100
AcDbLine
 10
4159.797051267463
 20
3447.084839419609
 30
0.0
 11
4159.797051267463
 21
2679.0848394196
 31
0.0
  0
LINE
  5
181F5
330
180F8
100
AcDbEntity
  8
KISO
100
AcDbLine
 10
7691.882670973587
 20
3191.084839419599
 30
0.0
 11
7691.882670973587
 21
3447.084839419609
 31
0.0
  0
LINE
  5
181F6
330
180F8
100
AcDbEntity
  8
KISO
100
AcDbLine
 10
9451.882670973587
 20
3191.0848394196
 30
0.0
 11
10014.27939371289
 21
3191.084839419601
 31
0.0
  0
LINE
  5
181F7
330
180F8
100
AcDbEntity
  8
U3
100
AcDbLine
 10
7174.436243474922
 20
3265.261462928747
 30
0.0
 11
7205.251603648955
 21
3234.446102754716
 31
0.0
  0
LINE
  5
181F8
330
180F8
100
AcDbEntity
  8
U3
100
AcDbLine
 10
7521.013148236701
 20
3275.838367690525
 30
0.0
 11
7612.259619965787
 21
3367.08483941961
 31
0.0
  0
LINE
  5
181F9
330
180F8
100
AcDbEntity
  8
U3
100
AcDbLine
 10
7561.347931720354
 20
3316.173151174181
 30
0.0
 11
7678.436243474923
 21
3199.084839419612
 31
0.0
  0
LINE
  5
181FA
330
180F8
100
AcDbEntity
  8
U3
100
AcDbLine
 10
7521.013148236701
 20
3254.68455816697
 30
0.0
 11
7576.61286698406
 21
3199.084839419612
 31
0.0
  0
LINE
  5
181FB
330
180F8
100
AcDbEntity
  8
U3
100
AcDbLine
 10
7612.259619965787
 20
3367.08483941961
 30
0.0
 11
7691.882670973587
 21
3287.46178841181
 31
0.0
  0
LINE
  5
181FC
330
180F8
100
AcDbEntity
  8
U3
100
AcDbLine
 10
7205.251603648955
 20
3367.084839419608
 30
0.0
 11
6604.259619965787
 21
3367.084839419608
 31
0.0
  0
LINE
  5
181FD
330
180F8
100
AcDbEntity
  8
HATCH
100
AcDbLine
 10
8073.641131165022
 20
3447.084839419609
 30
0.0
 11
7945.641131165015
 21
3319.084839419603
 31
0.0
  0
LINE
  5
181FE
330
180F8
100
AcDbEntity
  8
HATCH
100
AcDbLine
 10
8168.676282556489
 20
3447.084839419609
 30
0.0
 11
8040.676282556482
 21
3319.084839419601
 31
0.0
  0
LINE
  5
181FF
330
180F8
100
AcDbEntity
  8
HATCH
100
AcDbLine
 10
8121.158706860761
 20
3447.084839419609
 30
0.0
 11
7993.15870686075
 21
3319.084839419603
 31
0.0
  0
TEXT
  5
18200
330
180F8
100
AcDbEntity
  8
SUNPOU
100
AcDbText
 10
6633.284650756791
 20
7753.69318243233
 30
0.0
 40
90.0
  1
A
 41
0.6700000000000001
  7
00
 72
     4
 11
6659.127507899647
 21
7798.69318243233
 31
0.0
100
AcDbText
  0
LINE
  5
18201
330
180F8
100
AcDbEntity
  8
SUNPOU
100
AcDbLine
 10
6659.127507899651
 20
7408.69318243233
 30
0.0
 11
6809.12750789965
 21
7408.69318243233
 31
0.0
  0
LINE
  5
18202
330
180F8
100
AcDbEntity
  8
SUNPOU
100
AcDbLine
 10
6659.127507899647
 20
7618.69318243233
 30
0.0
 11
6659.127507899647
 21
7408.69318243233
 31
0.0
  0
TEXT
  5
18203
330
180F8
100
AcDbEntity
  8
SUNPOU
100
AcDbText
 10
10224.12750789964
 20
6972.978896718046
 30
0.0
 40
90.0
  1
700
 50
90.0
 41
0.6666666666666666
  7
00
 72
     1
 11
10179.12750789964
 21
7058.693182432332
 31
0.0
100
AcDbText
 73
     2
  0
LINE
  5
18204
330
180F8
100
AcDbEntity
  8
SUNPOU
100
AcDbLine
 10
10269.12750789964
 20
7393.693182432333
 30
0.0
 11
10269.12750789964
 21
6723.693182432332
 31
0.0
  0
LINE
  5
18205
330
180F8
100
AcDbEntity
  8
SUNPOU
100
AcDbLine
 10
10239.12750789964
 20
6708.693182432331
 30
0.0
 11
10224.12750789964
 21
6708.693182432331
 31
0.0
  0
TEXT
  5
18206
330
180F8
100
AcDbEntity
  8
SUNPOU
100
AcDbText
 10
10224.12750789964
 20
8007.621753860901
 30
0.0
 40
90.0
  1
1435
 50
90.0
 41
0.6666666666666666
  7
00
 72
     1
 11
10179.12750789964
 21
8126.193182432329
 31
0.0
100
AcDbText
 73
     2
  0
LINE
  5
18207
330
180F8
100
AcDbEntity
  8
SUNPOU
100
AcDbLine
 10
10269.12750789964
 20
8828.693182432331
 30
0.0
 11
10269.12750789964
 21
7423.69318243233
 31
0.0
  0
TEXT
  5
18208
330
180F8
100
AcDbEntity
  8
SUNPOU
100
AcDbText
 10
10224.12750789964
 20
8857.978896718046
 30
0.0
 40
90.0
  1
200
 50
90.0
 41
0.6666666666666666
  7
00
 72
     1
 11
10179.12750789964
 21
8943.693182432332
 31
0.0
100
AcDbText
 73
     2
  0
LINE
  5
18209
330
180F8
100
AcDbEntity
  8
SUNPOU
100
AcDbLine
 10
10269.12750789964
 20
9028.693182432327
 30
0.0
 11
10269.12750789964
 21
8858.693182432331
 31
0.0
  0
LINE
  5
1820A
330
180F8
100
AcDbEntity
  8
SUNPOU
100
AcDbLine
 10
10239.12750789964
 20
9043.693182432331
 30
0.0
 11
10224.12750789964
 21
9043.693182432331
 31
0.0
  0
TEXT
  5
1820B
330
180F8
100
AcDbEntity
  8
SUNPOU
100
AcDbText
 10
10434.12750789964
 20
7761.907468146616
 30
0.0
 40
90.0
  1
2335
 50
90.0
 41
0.6666666666666666
  7
00
 72
     1
 11
10389.12750789964
 21
7876.19318243233
 31
0.0
100
AcDbText
 73
     2
  0
LINE
  5
1820C
330
180F8
100
AcDbEntity
  8
SUNPOU
100
AcDbLine
 10
10479.12750789964
 20
9028.693182432327
 30
0.0
 11
10479.12750789964
 21
6723.693182432332
 31
0.0
  0
LINE
  5
1820D
330
180F8
100
AcDbEntity
  8
SUNPOU
100
AcDbLine
 10
10049.12750789964
 20
6708.693182432331
 30
0.0
 11
10524.12750789964
 21
6708.693182432331
 31
0.0
  0
LINE
  5
1820E
330
180F8
100
AcDbEntity
  8
SUNPOU
100
AcDbLine
 10
9849.127507899646
 20
9043.693182432331
 30
0.0
 11
10524.12750789964
 21
9043.693182432331
 31
0.0
  0
CIRCLE
  5
1820F
330
180F8
100
AcDbEntity
  8
HASHIRA
100
AcDbCircle
 10
9619.127507899648
 20
8903.693182432332
 30
0.0
 40
9.0
  0
CIRCLE
  5
18210
330
180F8
100
AcDbEntity
  8
HASHIRA
100
AcDbCircle
 10
9619.127507899648
 20
8783.693182432326
 30
0.0
 40
9.0
  0
CIRCLE
  5
18211
330
180F8
100
AcDbEntity
  8
HASHIRA
100
AcDbCircle
 10
9619.127507899648
 20
7468.693182432332
 30
0.0
 40
9.0
  0
CIRCLE
  5
18212
330
180F8
100
AcDbEntity
  8
HASHIRA
100
AcDbCircle
 10
9619.127507899648
 20
7348.693182432334
 30
0.0
 40
9.0
  0
LINE
  5
18213
330
180F8
100
AcDbEntity
  8
1PL-M1
100
AcDbLine
 10
9619.127507899648
 20
6508.693182432331
 30
0.0
 11
9619.127507899648
 21
8103.693182432333
 31
0.0
  0
CIRCLE
  5
18214
330
180F8
100
AcDbEntity
  8
HASHIRA
100
AcDbCircle
 10
7219.127507899648
 20
8903.693182432332
 30
0.0
 40
9.0
  0
CIRCLE
  5
18215
330
180F8
100
AcDbEntity
  8
HASHIRA
100
AcDbCircle
 10
7219.127507899648
 20
8783.693182432326
 30
0.0
 40
9.0
  0
TEXT
  5
18216
330
180F8
100
AcDbEntity
  8
SUNPOU
100
AcDbText
 10
7748.64791345049
 20
7745.121753860901
 30
0.0
 40
90.0
  1
A'
 41
0.6700000000000001
  7
00
 72
     4
 11
7784.540770593348
 21
7798.69318243233
 31
0.0
100
AcDbText
  0
LINE
  5
18217
330
180F8
100
AcDbEntity
  8
SUNPOU
100
AcDbLine
 10
7219.127507899648
 20
7968.693182432332
 30
0.0
 11
7219.127507899648
 21
7818.693182432332
 31
0.0
  0
TEXT
  5
18218
330
180F8
100
AcDbEntity
  8
SUNPOU
100
AcDbText
 10
6723.778313710244
 20
7923.693182432334
 30
0.0
 40
90.0
  1
B
 41
0.6700000000000001
  7
00
 72
     4
 11
6755.364027995958
 21
7968.693182432332
 31
0.0
100
AcDbText
  0
LINE
  5
18219
330
180F8
100
AcDbEntity
  8
SUNPOU
100
AcDbLine
 10
7009.127507899648
 20
7968.693182432332
 30
0.0
 11
7219.127507899648
 21
7968.693182432332
 31
0.0
  0
LINE
  5
1821A
330
180F8
100
AcDbEntity
  8
1PL-L1
100
AcDbLine
 10
6739.127507899647
 20
8843.69318243233
 30
0.0
 11
8749.127507899649
 21
8843.69318243233
 31
0.0
  0
LINE
  5
1821B
330
180F8
100
AcDbEntity
  8
SUNPOU
100
AcDbLine
 10
7574.540770593348
 20
7408.69318243233
 30
0.0
 11
7424.540770593345
 21
7408.69318243233
 31
0.0
  0
LINE
  5
1821C
330
180F8
100
AcDbEntity
  8
SUNPOU
100
AcDbLine
 10
7784.540770593348
 20
7618.69318243233
 30
0.0
 11
7784.540770593348
 21
7408.69318243233
 31
0.0
  0
CIRCLE
  5
1821D
330
180F8
100
AcDbEntity
  8
HASHIRA
100
AcDbCircle
 10
7219.127507899648
 20
7468.693182432332
 30
0.0
 40
9.0
  0
CIRCLE
  5
1821E
330
180F8
100
AcDbEntity
  8
HASHIRA
100
AcDbCircle
 10
7219.127507899648
 20
7348.693182432334
 30
0.0
 40
9.0
  0
LINE
  5
1821F
330
180F8
100
AcDbEntity
  8
SUNPOU
100
AcDbLine
 10
7219.127507899648
 20
6848.693182432332
 30
0.0
 11
7219.127507899648
 21
6998.693182432329
 31
0.0
  0
TEXT
  5
18220
330
180F8
100
AcDbEntity
  8
SUNPOU
100
AcDbText
 10
6710.856885138816
 20
6795.121753860903
 30
0.0
 40
90.0
  1
B'
 41
0.6700000000000001
  7
00
 72
     4
 11
6755.364027995958
 21
6848.693182432332
 31
0.0
100
AcDbText
  0
LINE
  5
18221
330
180F8
100
AcDbEntity
  8
SUNPOU
100
AcDbLine
 10
7009.127507899648
 20
6848.693182432332
 30
0.0
 11
7219.127507899648
 21
6848.693182432332
 31
0.0
  0
LINE
  5
18222
330
180F8
100
AcDbEntity
  8
1PL-M1
100
AcDbLine
 10
7219.127507899648
 20
6508.693182432331
 30
0.0
 11
7219.127507899648
 21
9323.693182432327
 31
0.0
  0
LINE
  5
18223
330
180F8
100
AcDbEntity
  8
1PL-L1
100
AcDbLine
 10
8959.127507899649
 20
8843.69318243233
 30
0.0
 11
10314.12750789964
 21
8843.69318243233
 31
0.0
  0
LINE
  5
18224
330
180F8
100
AcDbEntity
  8
1PL-L1
100
AcDbLine
 10
6809.12750789965
 20
7408.69318243233
 30
0.0
 11
10314.12750789964
 21
7408.69318243233
 31
0.0
  0
TEXT
  5
18225
330
180F8
100
AcDbEntity
  8
HIKIDASHI
100
AcDbText
 10
7744.674704037414
 20
8897.136202695939
 30
0.0
 40
90.0
  1
（土間コン後面位置）
  7
01
100
AcDbText
  0
TEXT
  5
18226
330
180F8
100
AcDbEntity
  8
HIKIDASHI
100
AcDbText
 10
7828.783305953435
 20
9175.989319147296
 30
0.0
 40
90.0
  1
（屋根後面位置）
  7
01
100
AcDbText
  0
LINE
  5
18227
330
180F8
100
AcDbEntity
  8
YANE
100
AcDbLine
 10
6983.127507899649
 20
9123.693182432328
 30
0.0
 11
9855.127507899638
 21
9123.693182432328
 31
0.0
  0
LINE
  5
18228
330
180F8
100
AcDbEntity
  8
YANE
100
AcDbLine
 10
6983.127507899649
 20
6713.693182432333
 30
0.0
 11
9855.127507899638
 21
6713.693182432333
 31
0.0
  0
LINE
  5
18229
330
180F8
100
AcDbEntity
  8
YANE
100
AcDbLine
 10
9855.127507899638
 20
6713.693182432333
 30
0.0
 11
9855.127507899638
 21
9123.693182432328
 31
0.0
  0
LINE
  5
1822A
330
180F8
100
AcDbEntity
  8
YANE
100
AcDbLine
 10
6983.127507899649
 20
6713.693182432333
 30
0.0
 11
6983.127507899649
 21
9123.693182432328
 31
0.0
  0
LINE
  5
1822B
330
180F8
100
AcDbEntity
  8
SUNPOU
100
AcDbLine
 10
6644.127507899648
 20
7618.69318243233
 30
0.0
 11
6659.127507899647
 21
7708.69318243233
 31
0.0
  0
LINE
  5
1822C
330
180F8
100
AcDbEntity
  8
SUNPOU
100
AcDbLine
 10
6659.127507899647
 20
7708.69318243233
 30
0.0
 11
6674.127507899649
 21
7618.69318243233
 31
0.0
  0
SOLID
  5
1822D
330
180F8
100
AcDbEntity
  8
SUNPOU
100
AcDbTrace
 10
6644.127507899648
 20
7618.69318243233
 30
0.0
 11
6674.127507899649
 21
7618.69318243233
 31
0.0
 12
6659.127507899647
 22
7708.69318243233
 32
0.0
 13
6659.127507899647
 23
7708.69318243233
 33
0.0
  0
LINE
  5
1822E
330
180F8
100
AcDbEntity
  8
SUNPOU
100
AcDbLine
 10
6674.127507899649
 20
7618.69318243233
 30
0.0
 11
6644.127507899648
 21
7618.69318243233
 31
0.0
  0
LINE
  5
1822F
330
180F8
100
AcDbEntity
  8
SUNPOU
100
AcDbLine
 10
7009.127507899648
 20
6863.69318243233
 30
0.0
 11
6919.127507899649
 21
6848.693182432332
 31
0.0
  0
LINE
  5
18230
330
180F8
100
AcDbEntity
  8
SUNPOU
100
AcDbLine
 10
6919.127507899649
 20
6848.693182432332
 30
0.0
 11
7009.127507899648
 21
6833.693182432331
 31
0.0
  0
SOLID
  5
18231
330
180F8
100
AcDbEntity
  8
SUNPOU
100
AcDbTrace
 10
7009.127507899648
 20
6863.69318243233
 30
0.0
 11
7009.127507899648
 21
6833.693182432331
 31
0.0
 12
6919.127507899649
 22
6848.693182432332
 32
0.0
 13
6919.127507899649
 23
6848.693182432332
 33
0.0
  0
LINE
  5
18232
330
180F8
100
AcDbEntity
  8
SUNPOU
100
AcDbLine
 10
7009.127507899648
 20
6833.693182432331
 30
0.0
 11
7009.127507899648
 21
6863.69318243233
 31
0.0
  0
LINE
  5
18233
330
180F8
100
AcDbEntity
  8
SUNPOU
100
AcDbLine
 10
7009.127507899648
 20
7983.69318243233
 30
0.0
 11
6919.127507899649
 21
7968.693182432332
 31
0.0
  0
LINE
  5
18234
330
180F8
100
AcDbEntity
  8
SUNPOU
100
AcDbLine
 10
6919.127507899649
 20
7968.693182432332
 30
0.0
 11
7009.127507899648
 21
7953.69318243233
 31
0.0
  0
SOLID
  5
18235
330
180F8
100
AcDbEntity
  8
SUNPOU
100
AcDbTrace
 10
7009.127507899648
 20
7983.69318243233
 30
0.0
 11
7009.127507899648
 21
7953.69318243233
 31
0.0
 12
6919.127507899649
 22
7968.693182432332
 32
0.0
 13
6919.127507899649
 23
7968.693182432332
 33
0.0
  0
LINE
  5
18236
330
180F8
100
AcDbEntity
  8
SUNPOU
100
AcDbLine
 10
7009.127507899648
 20
7953.69318243233
 30
0.0
 11
7009.127507899648
 21
7983.69318243233
 31
0.0
  0
LINE
  5
18237
330
180F8
100
AcDbEntity
  8
SUNPOU
100
AcDbLine
 10
7799.540770593345
 20
7618.69318243233
 30
0.0
 11
7784.540770593348
 21
7708.69318243233
 31
0.0
  0
LINE
  5
18238
330
180F8
100
AcDbEntity
  8
SUNPOU
100
AcDbLine
 10
7784.540770593348
 20
7708.69318243233
 30
0.0
 11
7769.540770593348
 21
7618.69318243233
 31
0.0
  0
SOLID
  5
18239
330
180F8
100
AcDbEntity
  8
SUNPOU
100
AcDbTrace
 10
7799.540770593345
 20
7618.69318243233
 30
0.0
 11
7769.540770593348
 21
7618.69318243233
 31
0.0
 12
7784.540770593348
 22
7708.69318243233
 32
0.0
 13
7784.540770593348
 23
7708.69318243233
 33
0.0
  0
LINE
  5
1823A
330
180F8
100
AcDbEntity
  8
SUNPOU
100
AcDbLine
 10
7769.540770593348
 20
7618.69318243233
 30
0.0
 11
7799.540770593345
 21
7618.69318243233
 31
0.0
  0
LINE
  5
1823B
330
180F8
100
AcDbEntity
  8
SUNPOU
100
AcDbLine
 10
10479.12750789964
 20
6719.943182432333
 30
0.0
 11
10479.12750789964
 21
6731.193182432332
 31
0.0
  0
LINE
  5
1823C
330
180F8
100
AcDbEntity
  8
SUNPOU
100
AcDbLine
 10
10269.12750789964
 20
6719.943182432333
 30
0.0
 11
10269.12750789964
 21
6731.193182432332
 31
0.0
  0
LINE
  5
1823D
330
180F8
100
AcDbEntity
  8
SUNPOU
100
AcDbLine
 10
10269.12750789964
 20
7419.943182432333
 30
0.0
 11
10269.12750789964
 21
7431.19318243233
 31
0.0
  0
LINE
  5
1823E
330
180F8
100
AcDbEntity
  8
SUNPOU
100
AcDbLine
 10
10269.12750789964
 20
7397.44318243233
 30
0.0
 11
10269.12750789964
 21
7386.193182432333
 31
0.0
  0
LINE
  5
1823F
330
180F8
100
AcDbEntity
  8
SUNPOU
100
AcDbLine
 10
10479.12750789964
 20
9032.443182432331
 30
0.0
 11
10479.12750789964
 21
9021.193182432327
 31
0.0
  0
LINE
  5
18240
330
180F8
100
AcDbEntity
  8
SUNPOU
100
AcDbLine
 10
10269.12750789964
 20
8832.443182432331
 30
0.0
 11
10269.12750789964
 21
8821.193182432331
 31
0.0
  0
LINE
  5
18241
330
180F8
100
AcDbEntity
  8
SUNPOU
100
AcDbLine
 10
10269.12750789964
 20
8854.943182432331
 30
0.0
 11
10269.12750789964
 21
8866.193182432331
 31
0.0
  0
LINE
  5
18242
330
180F8
100
AcDbEntity
  8
SUNPOU
100
AcDbLine
 10
10269.12750789964
 20
9032.443182432331
 30
0.0
 11
10269.12750789964
 21
9021.193182432327
 31
0.0
  0
TEXT
  5
18243
330
180F8
100
AcDbEntity
  8
HIKIDASHI
100
AcDbText
 10
7357.378080725941
 20
5681.450674192186
 30
0.0
 40
135.0
  1
基 礎 平 面 図　縮尺
  7
01
 72
     4
 11
8149.378080725941
 21
5748.950674192186
 31
0.0
100
AcDbText
  0
LINE
  5
18244
330
180F8
100
AcDbEntity
  8
HIKIDASHI
100
AcDbLine
 10
9283.0996148628
 20
5816.450674192189
 30
0.0
 11
9148.0996148628
 21
5681.450674192186
 31
0.0
  0
TEXT
  5
18245
330
180F8
100
AcDbEntity
  8
HIKIDASHI
100
AcDbText
 10
9003.864046589846
 20
5691.093531335043
 30
0.0
 40
135.0
  1
=
 41
0.6666666666666666
  7
00
 72
     4
 11
9059.578332304132
 21
5748.950674192186
 31
0.0
100
AcDbText
  0
TEXT
  5
18246
330
180F8
100
AcDbEntity
  8
HIKIDASHI
100
AcDbText
 10
9234.251678026312
 20
5681.450674192189
 30
0.0
 40
67.5
  1
40
 41
0.6666666666666666
  7
00
 72
     4
 11
9277.108820883455
 21
5715.200674192189
 31
0.0
100
AcDbText
  0
TEXT
  5
18247
330
180F8
100
AcDbEntity
  8
HIKIDASHI
100
AcDbText
 10
9150.509710887495
 20
5748.864530743389
 30
0.0
 40
67.5
  1
1
 41
0.6666666666666666
  7
00
 72
     4
 11
9168.723996601782
 21
5782.61453074339
 31
0.0
100
AcDbText
  0
TEXT
  5
18248
330
180F8
100
AcDbEntity
  8
HIKIDASHI
100
AcDbText
 10
7357.378080725941
 20
5681.450674192186
 30
0.0
 40
135.0
  1
基 礎 平 面 図　縮尺
  7
01
 72
     4
 11
8149.378080725941
 21
5748.950674192186
 31
0.0
100
AcDbText
  0
LINE
  5
18249
330
180F8
100
AcDbEntity
  8
HIKIDASHI
100
AcDbLine
 10
9283.099614862804
 20
5816.450674192189
 30
0.0
 11
9148.099614862804
 21
5681.450674192186
 31
0.0
  0
TEXT
  5
1824A
330
180F8
100
AcDbEntity
  8
HIKIDASHI
100
AcDbText
 10
9003.864046589846
 20
5691.093531335043
 30
0.0
 40
135.0
  1
=
 41
0.6666666666666666
  7
00
 72
     4
 11
9059.578332304132
 21
5748.950674192186
 31
0.0
100
AcDbText
  0
TEXT
  5
1824B
330
180F8
100
AcDbEntity
  8
HIKIDASHI
100
AcDbText
 10
9234.251678026312
 20
5681.450674192189
 30
0.0
 40
67.5
  1
40
 41
0.6666666666666666
  7
00
 72
     4
 11
9277.108820883455
 21
5715.200674192189
 31
0.0
100
AcDbText
  0
TEXT
  5
1824C
330
180F8
100
AcDbEntity
  8
HIKIDASHI
100
AcDbText
 10
9150.509710887495
 20
5748.864530743389
 30
0.0
 40
67.5
  1
1
 41
0.6666666666666666
  7
00
 72
     4
 11
9168.723996601782
 21
5782.61453074339
 31
0.0
100
AcDbText
  0
LINE
  5
1824D
330
180F8
100
AcDbEntity
  8
HATCH
100
AcDbLine
 10
4848.344325457505
 20
2519.084839419598
 30
0.0
 11
4940.72036812417
 21
2679.084839419598
 31
0.0
  0
LINE
  5
1824E
330
180F8
100
AcDbEntity
  8
HATCH
100
AcDbLine
 10
4887.387034790836
 20
2679.084839419598
 30
0.0
 11
4914.053701457503
 21
2632.896816752934
 31
0.0
  0
LINE
  5
1824F
330
180F8
100
AcDbEntity
  8
HATCH
100
AcDbLine
 10
4875.01099212417
 20
2565.272860752928
 30
0.0
 11
4901.677658790838
 21
2519.084839419598
 31
0.0
  0
LINE
  5
18250
330
180F8
100
AcDbEntity
  8
HATCH
100
AcDbLine
 10
4675.01099212417
 20
2565.272860752928
 30
0.0
 11
4701.677658790837
 21
2519.084839419598
 31
0.0
  0
LINE
  5
18251
330
180F8
100
AcDbEntity
  8
HATCH
100
AcDbLine
 10
4687.387034790836
 20
2679.084839419598
 30
0.0
 11
4714.053701457503
 21
2632.896816752934
 31
0.0
  0
LINE
  5
18252
330
180F8
100
AcDbEntity
  8
HATCH
100
AcDbLine
 10
4475.010992124167
 20
2565.272860752928
 30
0.0
 11
4501.677658790837
 21
2519.084839419598
 31
0.0
  0
LINE
  5
18253
330
180F8
100
AcDbEntity
  8
HATCH
100
AcDbLine
 10
4448.344325457503
 20
2519.084839419598
 30
0.0
 11
4540.720368124168
 21
2679.084839419598
 31
0.0
  0
LINE
  5
18254
330
180F8
100
AcDbEntity
  8
HATCH
100
AcDbLine
 10
4487.387034790835
 20
2679.084839419598
 30
0.0
 11
4514.053701457502
 21
2632.896816752934
 31
0.0
  0
LINE
  5
18255
330
180F8
100
AcDbEntity
  8
HATCH
100
AcDbLine
 10
4275.010992124168
 20
2565.272860752928
 30
0.0
 11
4301.677658790835
 21
2519.084839419598
 31
0.0
  0
LINE
  5
18256
330
180F8
100
AcDbEntity
  8
HATCH
100
AcDbLine
 10
4287.387034790834
 20
2679.084839419598
 30
0.0
 11
4314.053701457501
 21
2632.896816752934
 31
0.0
  0
LINE
  5
18257
330
180F8
100
AcDbEntity
  8
HATCH
100
AcDbLine
 10
4248.344325457503
 20
2519.084839419598
 30
0.0
 11
4340.720368124168
 21
2679.084839419598
 31
0.0
  0
LINE
  5
18258
330
180F8
100
AcDbEntity
  8
HATCH
100
AcDbLine
 10
4648.344325457504
 20
2519.084839419598
 30
0.0
 11
4740.720368124168
 21
2679.084839419598
 31
0.0
  0
LINE
  5
18259
330
180F8
100
AcDbEntity
  8
HATCH
100
AcDbLine
 10
5087.387034790837
 20
2679.084839419598
 30
0.0
 11
5114.053701457503
 21
2632.896816752934
 31
0.0
  0
LINE
  5
1825A
330
180F8
100
AcDbEntity
  8
HATCH
100
AcDbLine
 10
5048.344325457505
 20
2519.084839419598
 30
0.0
 11
5140.72036812417
 21
2679.084839419598
 31
0.0
  0
LINE
  5
1825B
330
180F8
100
AcDbEntity
  8
HATCH
100
AcDbLine
 10
5075.010992124172
 20
2565.272860752928
 30
0.0
 11
5101.677658790838
 21
2519.084839419598
 31
0.0
  0
LINE
  5
1825C
330
180F8
100
AcDbEntity
  8
HATCH
100
AcDbLine
 10
5248.344325457505
 20
2519.084839419598
 30
0.0
 11
5340.72036812417
 21
2679.084839419598
 31
0.0
  0
LINE
  5
1825D
330
180F8
100
AcDbEntity
  8
HATCH
100
AcDbLine
 10
5287.387034790837
 20
2679.084839419598
 30
0.0
 11
5314.053701457503
 21
2632.896816752934
 31
0.0
  0
LINE
  5
1825E
330
180F8
100
AcDbEntity
  8
HATCH
100
AcDbLine
 10
5275.010992124173
 20
2565.272860752928
 30
0.0
 11
5301.677658790839
 21
2519.084839419598
 31
0.0
  0
LINE
  5
1825F
330
180F8
100
AcDbEntity
  8
HATCH
100
AcDbLine
 10
5448.344325457505
 20
2519.084839419598
 30
0.0
 11
5540.720368124174
 21
2679.084839419599
 31
0.0
  0
LINE
  5
18260
330
180F8
100
AcDbEntity
  8
HATCH
100
AcDbLine
 10
5487.387034790838
 20
2679.084839419599
 30
0.0
 11
5514.053701457505
 21
2632.896816752934
 31
0.0
  0
LINE
  5
18261
330
180F8
100
AcDbEntity
  8
HATCH
100
AcDbLine
 10
5475.010992124173
 20
2565.272860752929
 30
0.0
 11
5501.677658790839
 21
2519.084839419598
 31
0.0
  0
LINE
  5
18262
330
180F8
100
AcDbEntity
  8
1PL-M1
100
AcDbLine
 10
9619.127507899648
 20
8313.693182432331
 30
0.0
 11
9619.127507899648
 21
9323.693182432327
 31
0.0
  0
LINE
  5
18263
330
180F8
100
AcDbEntity
  8
HATCH
100
AcDbLine
 10
4075.010992124169
 20
2565.272860752928
 30
0.0
 11
4101.677658790836
 21
2519.084839419598
 31
0.0
  0
LINE
  5
18264
330
180F8
100
AcDbEntity
  8
HATCH
100
AcDbLine
 10
4087.387034790835
 20
2679.084839419598
 30
0.0
 11
4114.053701457501
 21
2632.896816752934
 31
0.0
  0
LINE
  5
18265
330
180F8
100
AcDbEntity
  8
HATCH
100
AcDbLine
 10
4048.344325457502
 20
2519.084839419598
 30
0.0
 11
4140.720368124168
 21
2679.084839419598
 31
0.0
  0
TEXT
  5
18266
330
180F8
100
AcDbEntity
  8
HIKIDASHI
100
AcDbText
 10
9855.491324100693
 20
2313.304238552882
 30
0.0
 40
90.0
  1
砕　石
  7
01
 72
     2
 11
10155.49132410069
 21
2358.304238552882
 31
0.0
100
AcDbText
 73
     2
  0
LINE
  5
18267
330
180F8
100
AcDbEntity
  8
HIKIDASHI
100
AcDbLine
 10
10197.19009333641
 20
2268.304238552882
 30
0.0
 11
9828.423716508787
 21
2268.304238552882
 31
0.0
  0
LINE
  5
18268
330
180F8
100
AcDbEntity
  8
HATCH
100
AcDbLine
 10
8860.42994516363
 20
2519.084839419598
 30
0.0
 11
8952.805987830293
 21
2679.084839419598
 31
0.0
  0
LINE
  5
18269
330
180F8
100
AcDbEntity
  8
HATCH
100
AcDbLine
 10
8899.472654496964
 20
2679.084839419598
 30
0.0
 11
8926.139321163629
 21
2632.896816752934
 31
0.0
  0
LINE
  5
1826A
330
180F8
100
AcDbEntity
  8
HATCH
100
AcDbLine
 10
8887.096611830299
 20
2565.272860752928
 30
0.0
 11
8913.763278496963
 21
2519.084839419598
 31
0.0
  0
LINE
  5
1826B
330
180F8
100
AcDbEntity
  8
HATCH
100
AcDbLine
 10
8687.096611830298
 20
2565.272860752928
 30
0.0
 11
8713.763278496967
 21
2519.084839419598
 31
0.0
  0
LINE
  5
1826C
330
180F8
100
AcDbEntity
  8
HATCH
100
AcDbLine
 10
8699.472654496963
 20
2679.084839419598
 30
0.0
 11
8726.13932116363
 21
2632.896816752934
 31
0.0
  0
LINE
  5
1826D
330
180F8
100
AcDbEntity
  8
HATCH
100
AcDbLine
 10
8487.096611830299
 20
2565.272860752928
 30
0.0
 11
8513.763278496963
 21
2519.084839419598
 31
0.0
  0
LINE
  5
1826E
330
180F8
100
AcDbEntity
  8
HATCH
100
AcDbLine
 10
8460.42994516363
 20
2519.084839419598
 30
0.0
 11
8552.805987830295
 21
2679.084839419598
 31
0.0
  0
LINE
  5
1826F
330
180F8
100
AcDbEntity
  8
HATCH
100
AcDbLine
 10
8499.472654496962
 20
2679.084839419598
 30
0.0
 11
8526.139321163631
 21
2632.896816752934
 31
0.0
  0
LINE
  5
18270
330
180F8
100
AcDbEntity
  8
HATCH
100
AcDbLine
 10
8287.096611830298
 20
2565.272860752928
 30
0.0
 11
8313.763278496962
 21
2519.084839419598
 31
0.0
  0
LINE
  5
18271
330
180F8
100
AcDbEntity
  8
HATCH
100
AcDbLine
 10
8299.472654496964
 20
2679.084839419598
 30
0.0
 11
8326.13932116363
 21
2632.896816752934
 31
0.0
  0
LINE
  5
18272
330
180F8
100
AcDbEntity
  8
HATCH
100
AcDbLine
 10
8260.429945163631
 20
2519.084839419598
 30
0.0
 11
8352.805987830294
 21
2679.084839419598
 31
0.0
  0
LINE
  5
18273
330
180F8
100
AcDbEntity
  8
HATCH
100
AcDbLine
 10
8660.429945163631
 20
2519.084839419598
 30
0.0
 11
8752.805987830294
 21
2679.084839419598
 31
0.0
  0
LINE
  5
18274
330
180F8
100
AcDbEntity
  8
HATCH
100
AcDbLine
 10
9099.472654496963
 20
2679.084839419598
 30
0.0
 11
9126.139321163632
 21
2632.896816752934
 31
0.0
  0
LINE
  5
18275
330
180F8
100
AcDbEntity
  8
HATCH
100
AcDbLine
 10
9060.429945163631
 20
2519.084839419598
 30
0.0
 11
9152.805987830296
 21
2679.084839419598
 31
0.0
  0
LINE
  5
18276
330
180F8
100
AcDbEntity
  8
HATCH
100
AcDbLine
 10
9087.096611830299
 20
2565.272860752928
 30
0.0
 11
9113.763278496966
 21
2519.084839419598
 31
0.0
  0
LINE
  5
18277
330
180F8
100
AcDbEntity
  8
HATCH
100
AcDbLine
 10
9260.429945163631
 20
2519.084839419598
 30
0.0
 11
9352.805987830301
 21
2679.084839419598
 31
0.0
  0
LINE
  5
18278
330
180F8
100
AcDbEntity
  8
HATCH
100
AcDbLine
 10
9299.472654496964
 20
2679.084839419598
 30
0.0
 11
9326.139321163632
 21
2632.896816752934
 31
0.0
  0
LINE
  5
18279
330
180F8
100
AcDbEntity
  8
HATCH
100
AcDbLine
 10
9287.096611830298
 20
2565.272860752928
 30
0.0
 11
9313.763278496965
 21
2519.084839419598
 31
0.0
  0
LINE
  5
1827A
330
180F8
100
AcDbEntity
  8
HATCH
100
AcDbLine
 10
9460.42994516363
 20
2519.084839419598
 30
0.0
 11
9552.805987830302
 21
2679.084839419599
 31
0.0
  0
LINE
  5
1827B
330
180F8
100
AcDbEntity
  8
HATCH
100
AcDbLine
 10
9499.472654496964
 20
2679.084839419599
 30
0.0
 11
9526.139321163631
 21
2632.896816752934
 31
0.0
  0
LINE
  5
1827C
330
180F8
100
AcDbEntity
  8
HATCH
100
AcDbLine
 10
9487.096611830301
 20
2565.272860752929
 30
0.0
 11
9513.763278496966
 21
2519.084839419598
 31
0.0
  0
LINE
  5
1827D
330
180F8
100
AcDbEntity
  8
HATCH
100
AcDbLine
 10
8087.096611830295
 20
2565.272860752928
 30
0.0
 11
8113.763278496962
 21
2519.084839419598
 31
0.0
  0
LINE
  5
1827E
330
180F8
100
AcDbEntity
  8
HATCH
100
AcDbLine
 10
8099.472654496961
 20
2679.084839419598
 30
0.0
 11
8126.139321163625
 21
2632.896816752934
 31
0.0
  0
LINE
  5
1827F
330
180F8
100
AcDbEntity
  8
HATCH
100
AcDbLine
 10
8060.42994516363
 20
2519.084839419598
 30
0.0
 11
8152.805987830294
 21
2679.084839419598
 31
0.0
  0
LINE
  5
18280
330
180F8
100
AcDbEntity
  8
HATCH
100
AcDbLine
 10
8003.954148031438
 20
3191.084839418953
 30
0.0
 11
8077.854982487707
 21
3319.084839418946
 31
0.0
  0
LINE
  5
18281
330
180F8
100
AcDbEntity
  8
HATCH
100
AcDbLine
 10
8039.454982487709
 20
3319.084839418944
 30
0.0
 11
8058.654982487707
 21
3285.829463913627
 31
0.0
  0
LINE
  5
18282
330
180F8
100
AcDbEntity
  8
HATCH
100
AcDbLine
 10
7715.954148031439
 20
3191.084839418953
 30
0.0
 11
7789.854982487709
 21
3319.084839418946
 31
0.0
  0
LINE
  5
18283
330
180F8
100
AcDbEntity
  8
HATCH
100
AcDbLine
 10
7751.454982487709
 20
3319.084839418944
 30
0.0
 11
7770.654982487709
 21
3285.829463913627
 31
0.0
  0
LINE
  5
18284
330
180F8
100
AcDbEntity
  8
HATCH
100
AcDbLine
 10
7859.954148031438
 20
3191.084839418953
 30
0.0
 11
7933.854982487709
 21
3319.084839418946
 31
0.0
  0
LINE
  5
18285
330
180F8
100
AcDbEntity
  8
HATCH
100
AcDbLine
 10
7895.454982487709
 20
3319.084839418944
 30
0.0
 11
7914.654982487708
 21
3285.829463913627
 31
0.0
  0
LINE
  5
18286
330
180F8
100
AcDbEntity
  8
HATCH
100
AcDbLine
 10
8003.954148033356
 20
3191.084839419572
 30
0.0
 11
8077.854982489645
 21
3319.084839419601
 31
0.0
  0
LINE
  5
18287
330
180F8
100
AcDbEntity
  8
HATCH
100
AcDbLine
 10
8039.454982489635
 20
3319.084839419598
 30
0.0
 11
8058.65498248964
 21
3285.829463914271
 31
0.0
  0
LINE
  5
18288
330
180F8
100
AcDbEntity
  8
HATCH
100
AcDbLine
 10
7859.954148033357
 20
3191.084839419572
 30
0.0
 11
7933.854982489646
 21
3319.084839419601
 31
0.0
  0
LINE
  5
18289
330
180F8
100
AcDbEntity
  8
HATCH
100
AcDbLine
 10
7895.454982489638
 20
3319.084839419598
 30
0.0
 11
7914.654982489641
 21
3285.829463914271
 31
0.0
  0
LINE
  5
1828A
330
180F8
100
AcDbEntity
  8
HATCH
100
AcDbLine
 10
7715.954148033357
 20
3191.084839419572
 30
0.0
 11
7789.854982489645
 21
3319.084839419601
 31
0.0
  0
LINE
  5
1828B
330
180F8
100
AcDbEntity
  8
HATCH
100
AcDbLine
 10
7751.454982489635
 20
3319.084839419598
 30
0.0
 11
7770.654982489642
 21
3285.829463914271
 31
0.0
  0
LINE
  5
1828C
330
180F8
100
AcDbEntity
  8
SUNPOU
100
AcDbLine
 10
7651.882670973588
 20
3319.084839419604
 30
0.0
 11
7421.741617209526
 21
3319.084839419604
 31
0.0
  0
LINE
  5
1828D
330
180F8
100
AcDbEntity
  8
SUNPOU
100
AcDbLine
 10
7651.882670973588
 20
3191.084839419599
 30
0.0
 11
7421.741617209526
 21
3191.084839419599
 31
0.0
  0
LINE
  5
1828E
330
180F8
100
AcDbEntity
  8
SUNPOU
100
AcDbLine
 10
7466.741617209526
 20
3339.084839419603
 30
0.0
 11
7466.741617209526
 21
3359.084839419603
 31
0.0
  0
LINE
  5
1828F
330
180F8
100
AcDbEntity
  8
SUNPOU
100
AcDbLine
 10
7466.741617209526
 20
3171.084839419599
 30
0.0
 11
7466.741617209526
 21
3151.0848394196
 31
0.0
  0
LINE
  5
18290
330
180F8
100
AcDbEntity
  8
SUNPOU
100
AcDbLine
 10
7466.741617209526
 20
3319.084839419604
 30
0.0
 11
7466.741617209526
 21
3191.084839419599
 31
0.0
  0
LINE
  5
18291
330
180F8
100
AcDbEntity
  8
SUNPOU
100
AcDbLine
 10
7651.882670973588
 20
3319.084839419604
 30
0.0
 11
7421.741617209526
 21
3319.084839419604
 31
0.0
  0
LINE
  5
18292
330
180F8
100
AcDbEntity
  8
SUNPOU
100
AcDbLine
 10
7651.882670973588
 20
3447.084839419609
 30
0.0
 11
7421.741617209526
 21
3447.084839419609
 31
0.0
  0
LINE
  5
18293
330
180F8
100
AcDbEntity
  8
SUNPOU
100
AcDbLine
 10
7466.741617209526
 20
3299.084839419603
 30
0.0
 11
7466.741617209526
 21
3279.084839419604
 31
0.0
  0
LINE
  5
18294
330
180F8
100
AcDbEntity
  8
SUNPOU
100
AcDbLine
 10
7466.741617209526
 20
3467.084839419608
 30
0.0
 11
7466.741617209526
 21
3674.227696562466
 31
0.0
  0
LINE
  5
18295
330
180F8
100
AcDbEntity
  8
SUNPOU
100
AcDbLine
 10
7466.741617209526
 20
3319.084839419604
 30
0.0
 11
7466.741617209526
 21
3447.084839419609
 31
0.0
  0
LINE
  5
18296
330
180F8
100
AcDbEntity
  8
SUNPOU
100
AcDbLine
 10
7971.882670973586
 20
2679.0848394196
 30
0.0
 11
7421.741617209526
 21
2679.0848394196
 31
0.0
  0
LINE
  5
18297
330
180F8
100
AcDbEntity
  8
SUNPOU
100
AcDbLine
 10
7651.882670973588
 20
3191.084839419599
 30
0.0
 11
7421.741617209526
 21
3191.084839419599
 31
0.0
  0
LINE
  5
18298
330
180F8
100
AcDbEntity
  8
SUNPOU
100
AcDbLine
 10
7466.741617209526
 20
2699.084839419601
 30
0.0
 11
7466.741617209526
 21
3171.084839419599
 31
0.0
  0
LINE
  5
18299
330
180F8
100
AcDbEntity
  8
SUNPOU
100
AcDbLine
 10
7971.882670973586
 20
2679.0848394196
 30
0.0
 11
7421.741617209526
 21
2679.0848394196
 31
0.0
  0
ARC
  5
1829A
330
180F8
100
AcDbEntity
  8
HIKIDASHI
100
AcDbCircle
 10
7600.51260536052
 20
1889.069567942468
 30
0.0
 40
74.66417910452284
100
AcDbArc
 50
164.8596129850915
 51
237.504500294165
  0
ARC
  5
1829B
330
180F8
100
AcDbEntity
  8
HIKIDASHI
100
AcDbCircle
 10
7537.088811314217
 20
1906.230591426951
 30
0.0
 40
8.959701492542745
100
AcDbArc
 50
15.14038701503429
 51
164.8596129849655
  0
LINE
  5
1829C
330
180F8
100
AcDbEntity
  8
SUNPOU
100
AcDbLine
 10
4119.797051267464
 20
3319.084839419601
 30
0.0
 11
3835.443655266705
 21
3319.084839419601
 31
0.0
  0
LINE
  5
1829D
330
180F8
100
AcDbEntity
  8
SUNPOU
100
AcDbLine
 10
4119.797051267464
 20
3191.084839419597
 30
0.0
 11
3835.443655266705
 21
3191.084839419597
 31
0.0
  0
LINE
  5
1829E
330
180F8
100
AcDbEntity
  8
SUNPOU
100
AcDbLine
 10
3880.443655266705
 20
3339.0848394196
 30
0.0
 11
3880.443655266705
 21
3359.0848394196
 31
0.0
  0
LINE
  5
1829F
330
180F8
100
AcDbEntity
  8
SUNPOU
100
AcDbLine
 10
3880.443655266705
 20
3171.084839419596
 30
0.0
 11
3880.443655266705
 21
3151.084839419596
 31
0.0
  0
LINE
  5
182A0
330
180F8
100
AcDbEntity
  8
SUNPOU
100
AcDbLine
 10
3880.443655266705
 20
3319.084839419601
 30
0.0
 11
3880.443655266705
 21
3191.084839419597
 31
0.0
  0
LINE
  5
182A1
330
180F8
100
AcDbEntity
  8
SUNPOU
100
AcDbLine
 10
4119.797051267464
 20
3319.084839419601
 30
0.0
 11
3835.443655266704
 21
3319.084839419601
 31
0.0
  0
LINE
  5
182A2
330
180F8
100
AcDbEntity
  8
SUNPOU
100
AcDbLine
 10
4119.797051267464
 20
3447.084839419609
 30
0.0
 11
3835.443655266704
 21
3447.084839419609
 31
0.0
  0
LINE
  5
182A3
330
180F8
100
AcDbEntity
  8
SUNPOU
100
AcDbLine
 10
3880.443655266704
 20
3299.0848394196
 30
0.0
 11
3880.443655266704
 21
3279.084839419601
 31
0.0
  0
LINE
  5
182A4
330
180F8
100
AcDbEntity
  8
SUNPOU
100
AcDbLine
 10
3880.443655266704
 20
3467.084839419608
 30
0.0
 11
3880.443655266704
 21
3674.227696562466
 31
0.0
  0
LINE
  5
182A5
330
180F8
100
AcDbEntity
  8
SUNPOU
100
AcDbLine
 10
3880.443655266704
 20
3319.084839419601
 30
0.0
 11
3880.443655266704
 21
3447.084839419609
 31
0.0
  0
LINE
  5
182A6
330
180F8
100
AcDbEntity
  8
SUNPOU
100
AcDbLine
 10
3959.797051267461
 20
2679.0848394196
 30
0.0
 11
3835.443655266704
 21
2679.0848394196
 31
0.0
  0
LINE
  5
182A7
330
180F8
100
AcDbEntity
  8
SUNPOU
100
AcDbLine
 10
4119.797051267464
 20
3191.084839419597
 30
0.0
 11
3835.443655266704
 21
3191.084839419597
 31
0.0
  0
LINE
  5
182A8
330
180F8
100
AcDbEntity
  8
SUNPOU
100
AcDbLine
 10
3880.443655266704
 20
2699.0848394196
 30
0.0
 11
3880.443655266704
 21
3171.084839419596
 31
0.0
  0
LINE
  5
182A9
330
180F8
100
AcDbEntity
  8
SUNPOU
100
AcDbLine
 10
3959.797051267461
 20
2679.0848394196
 30
0.0
 11
3835.443655266704
 21
2679.0848394196
 31
0.0
  0
LINE
  5
182AA
330
180F8
100
AcDbEntity
  8
HASHIRA
100
AcDbLine
 10
4735.797051267462
 20
3319.084839419608
 30
0.0
 11
4863.797051267464
 21
3319.084839419608
 31
0.0
  0
LINE
  5
182AB
330
180F8
100
AcDbEntity
  8
HASHIRA
100
AcDbLine
 10
4863.797051267464
 20
3319.084839419608
 30
0.0
 11
4863.797051267464
 21
3328.684839419607
 31
0.0
  0
LINE
  5
182AC
330
180F8
100
AcDbEntity
  8
HASHIRA
100
AcDbLine
 10
4863.797051267464
 20
3328.684839419607
 30
0.0
 11
4735.797051267462
 21
3328.684839419607
 31
0.0
  0
LINE
  5
182AD
330
180F8
100
AcDbEntity
  8
HASHIRA
100
AcDbLine
 10
4735.797051267462
 20
3328.684839419607
 30
0.0
 11
4735.797051267462
 21
3319.084839419608
 31
0.0
  0
LINE
  5
182AE
330
180F8
100
AcDbEntity
  8
TENSEN-1
100
AcDbLine
 10
4735.797051267462
 20
2869.484839419607
 30
0.0
 11
4789.397051267463
 21
2869.484839419607
 31
0.0
  0
LINE
  5
182AF
330
180F8
100
AcDbEntity
  8
TENSEN-1
100
AcDbLine
 10
4789.397051267463
 20
2869.484839419607
 30
0.0
 11
4789.397051267463
 21
3360.684839419607
 31
0.0
  0
LINE
  5
182B0
330
180F8
100
AcDbEntity
  8
TENSEN-1
100
AcDbLine
 10
4789.397051267463
 20
3360.684839419607
 30
0.0
 11
4810.197051267465
 21
3360.684839419607
 31
0.0
  0
LINE
  5
182B1
330
180F8
100
AcDbEntity
  8
TENSEN-1
100
AcDbLine
 10
4810.197051267465
 20
3360.684839419607
 30
0.0
 11
4810.197051267465
 21
2848.684839419607
 31
0.0
  0
LINE
  5
182B2
330
180F8
100
AcDbEntity
  8
TENSEN-1
100
AcDbLine
 10
4810.197051267465
 20
2848.684839419607
 30
0.0
 11
4735.797051267462
 21
2848.684839419607
 31
0.0
  0
LINE
  5
182B3
330
180F8
100
AcDbEntity
  8
TENSEN-1
100
AcDbLine
 10
4735.797051267462
 20
2848.684839419607
 30
0.0
 11
4735.797051267462
 21
2869.484839419607
 31
0.0
  0
LINE
  5
182B4
330
180F8
100
AcDbEntity
  8
SUNPOU
  6
ByBlock
100
AcDbLine
 10
3880.443655266704
 20
2664.084839419599
 30
0.0
 11
3880.443655266704
 21
2649.0848394196
 31
0.0
  0
TEXT
  5
182B5
330
180F8
100
AcDbEntity
  8
SUNPOU
100
AcDbText
 10
3835.443655266704
 20
2849.370553705313
 30
0.0
 40
90.0
  1
320
 50
90.0
 41
0.6666666666666666
  7
00
100
AcDbText
  0
LINE
  5
182B6
330
180F8
100
AcDbEntity
  8
SUNPOU
  6
ByBlock
100
AcDbLine
 10
3880.443655266704
 20
2694.0848394196
 30
0.0
 11
3880.443655266704
 21
2709.0848394196
 31
0.0
  0
LINE
  5
182B7
330
180F8
100
AcDbEntity
  8
SUNPOU
  6
ByBlock
100
AcDbLine
 10
7466.741617209526
 20
2664.084839419601
 30
0.0
 11
7466.741617209526
 21
2649.084839419601
 31
0.0
  0
TEXT
  5
182B8
330
180F8
100
AcDbEntity
  8
SUNPOU
100
AcDbText
 10
7421.741617209526
 20
2849.370553705316
 30
0.0
 40
90.0
  1
320
 50
90.0
 41
0.6666666666666666
  7
00
100
AcDbText
  0
LINE
  5
182B9
330
180F8
100
AcDbEntity
  8
SUNPOU
  6
ByBlock
100
AcDbLine
 10
7466.741617209526
 20
2694.084839419601
 30
0.0
 11
7466.741617209526
 21
2709.084839419601
 31
0.0
  0
TEXT
  5
182BA
330
180F8
100
AcDbEntity
  8
HIKIDASHI
100
AcDbText
 10
12286.64239875644
 20
2290.804976716086
 30
0.0
 40
90.0
  1
2
 41
0.6666666666666666
  7
00
100
AcDbText
  0
TEXT
  5
182BB
330
180F8
100
AcDbEntity
  8
HIKIDASHI
100
AcDbText
 10
12365.21382732787
 20
2305.804976716085
 30
0.0
 40
90.0
  1
ｹ
  7
01
100
AcDbText
  0
TEXT
  5
182BC
330
180F8
100
AcDbEntity
  8
HIKIDASHI
100
AcDbText
 10
12446.21382732787
 20
2290.804976716086
 30
0.0
 40
90.0
  1
-
 41
0.6666666666666666
  7
00
100
AcDbText
  0
TEXT
  5
182BD
330
180F8
100
AcDbEntity
  8
HIKIDASHI
100
AcDbText
 10
12554.07097018501
 20
2290.804976716086
 30
0.0
 40
90.0
  1
18
 41
0.6666666666666666
  7
00
100
AcDbText
  0
TEXT
  5
182BE
330
180F8
100
AcDbEntity
  8
HIKIDASHI
100
AcDbText
 10
12689.78525589929
 20
2305.804976716085
 30
0.0
 40
90.0
  1
%%c
 41
0.6666666666666666
  7
00
100
AcDbText
  0
TEXT
  5
182BF
330
180F8
100
AcDbEntity
  8
HIKIDASHI
100
AcDbText
 10
12765.49954161357
 20
2290.804976716086
 30
0.0
 40
90.0
  1
孔
  7
01
100
AcDbText
  0
LINE
  5
182C0
330
180F8
100
AcDbEntity
  8
HIKIDASHI
100
AcDbLine
 10
12256.64239875644
 20
2245.804976716085
 30
0.0
 11
12879.49954161357
 21
2245.804976716085
 31
0.0
  0
TEXT
  5
182C1
330
180F8
100
AcDbEntity
  8
HIKIDASHI
100
AcDbText
 10
7894.130474104129
 20
6560.372337188868
 30
0.0
 40
90.0
  1
（土間コン前面位置）
  7
01
100
AcDbText
  0
TEXT
  5
182C2
330
180F8
100
AcDbEntity
  8
HIKIDASHI
100
AcDbText
 10
8056.130474104131
 20
6766.804304422805
 30
0.0
 40
90.0
  1
（鼻隠し外面）
  7
01
100
AcDbText
  0
LINE
  5
182C3
330
180F8
100
AcDbEntity
  8
HIKIDASHI
100
AcDbLine
 10
5702.626424666976
 20
3910.885411556197
 30
0.0
 11
5333.860047839355
 21
3910.885411556197
 31
0.0
  0
TEXT
  5
182C4
330
180F8
100
AcDbEntity
  8
HIKIDASHI
100
AcDbText
 10
5366.927655431265
 20
3955.885411556196
 30
0.0
 40
90.0
  1
土　間
  7
01
 72
     2
 11
5660.927655431265
 21
4000.885411556196
 31
0.0
100
AcDbText
 73
     2
  0
TEXT
  5
182C5
330
180F8
100
AcDbEntity
  8
SUNPOU
100
AcDbText
 10
5892.607474842029
 20
2681.884705856375
 30
0.0
 40
90.0
  1
ベース筋
  7
01
 72
     4
 11
6096.607474842029
 21
2726.884705856375
 31
0.0
100
AcDbText
  0
TEXT
  5
182C6
330
180F8
100
AcDbEntity
  8
SUNPOU
100
AcDbText
 10
5757.491760556316
 20
2546.884705856375
 30
0.0
 40
90.0
  1
5-D13×5-D13
 41
0.6700000000000001
  7
01
 72
     4
 11
6100.914617699173
 21
2591.884705856375
 31
0.0
100
AcDbText
  0
LINE
  5
182C7
330
180F8
100
AcDbEntity
  8
WAKUSEN-01
100
AcDbLine
 10
434.0000000000008
 20
413.9999999999997
 30
0.0
 11
16382.0
 21
413.9999999999997
 31
0.0
  0
LINE
  5
182C8
330
180F8
100
AcDbEntity
  8
WAKUSEN-01
100
AcDbLine
 10
434.0000000000008
 20
11242.0
 30
0.0
 11
16382.0
 21
11242.0
 31
0.0
  0
LINE
  5
182C9
330
180F8
100
AcDbEntity
  8
WAKUSEN-01
100
AcDbLine
 10
434.0000000000008
 20
413.9999999999997
 30
0.0
 11
434.0000000000008
 21
11242.0
 31
0.0
  0
LINE
  5
182CA
330
180F8
100
AcDbEntity
  8
WAKUSEN-01
100
AcDbLine
 10
16382.0
 20
413.9999999999997
 30
0.0
 11
16382.0
 21
11242.0
 31
0.0
  0
LINE
  5
182CB
330
180F8
100
AcDbEntity
  8
WAKUSEN-01
100
AcDbLine
 10
10280.0
 20
1242.0
 30
0.0
 11
16382.0
 21
1242.0
 31
0.0
  0
LINE
  5
182CC
330
180F8
100
AcDbEntity
  8
WAKUSEN-02
100
AcDbLine
 10
10280.0
 20
827.9999999999997
 30
0.0
 11
13434.0
 21
827.9999999999997
 31
0.0
  0
TEXT
  5
182CD
330
180F8
100
AcDbEntity
  8
WAKUMOJI-01
100
AcDbText
 10
10335.13012998137
 20
1062.951504669661
 30
0.0
 40
120.0
  1
名　称
  7
WAKUMOJI
100
AcDbText
  0
TEXT
  5
182CE
330
180F8
100
AcDbEntity
  8
WAKUMOJI-01
100
AcDbText
 10
10328.25274254596
 20
659.5644874899107
 30
0.0
 40
120.0
  1
図面名
  7
WAKUMOJI
100
AcDbText
  0
LINE
  5
182CF
330
180F8
100
AcDbEntity
  8
WAKUSEN-01
100
AcDbLine
 10
10280.0
 20
413.9999999999984
 30
0.0
 11
10280.0
 21
1242.0
 31
0.0
  0
LINE
  5
182D0
330
180F8
100
AcDbEntity
  8
WAKUSEN-02
100
AcDbLine
 10
13434.0
 20
413.9999999999963
 30
0.0
 11
13434.0
 21
1242.0
 31
0.0
  0
LINE
  5
182D1
330
180F8
100
AcDbEntity
  8
YODOROGO
100
AcDbLine
 10
15674.80217064596
 20
889.8747482146442
 30
0.0
 11
15674.80217064596
 21
917.8747482146436
 31
0.0
  0
LINE
  5
182D2
330
180F8
100
AcDbEntity
  8
YODOROGO
100
AcDbLine
 10
15674.80217064596
 20
917.8747482146436
 30
0.0
 11
15618.80217064596
 21
917.8747482146436
 31
0.0
  0
LINE
  5
182D3
330
180F8
100
AcDbEntity
  8
YODOROGO
100
AcDbLine
 10
15618.80217064596
 20
917.8747482146436
 30
0.0
 11
15618.80217064596
 21
889.8747482146442
 31
0.0
  0
LINE
  5
182D4
330
180F8
100
AcDbEntity
  8
YODOROGO
100
AcDbLine
 10
15618.80217064596
 20
889.8747482146442
 30
0.0
 11
15674.80217064596
 21
889.8747482146442
 31
0.0
  0
LINE
  5
182D5
330
180F8
100
AcDbEntity
  8
YODOROGO
100
AcDbLine
 10
15794.80217064596
 20
905.8747482146443
 30
0.0
 11
15794.80217064596
 21
713.8747482146435
 31
0.0
  0
LINE
  5
182D6
330
180F8
100
AcDbEntity
  8
YODOROGO
100
AcDbLine
 10
15794.80217064596
 20
713.8747482146435
 30
0.0
 11
15826.80217064596
 21
713.8747482146435
 31
0.0
  0
LINE
  5
182D7
330
180F8
100
AcDbEntity
  8
YODOROGO
100
AcDbLine
 10
15826.80217064596
 20
713.8747482146435
 30
0.0
 11
15826.80217064594
 21
905.8747482146443
 31
0.0
  0
LINE
  5
182D8
330
180F8
100
AcDbEntity
  8
YODOROGO
100
AcDbLine
 10
15826.80217064594
 20
905.8747482146443
 30
0.0
 11
15850.80217064596
 21
905.8747482146443
 31
0.0
  0
LINE
  5
182D9
330
180F8
100
AcDbEntity
  8
YODOROGO
100
AcDbLine
 10
15850.80217064596
 20
905.8747482146443
 30
0.0
 11
15850.80217064596
 21
937.8747482146435
 31
0.0
  0
LINE
  5
182DA
330
180F8
100
AcDbEntity
  8
YODOROGO
100
AcDbLine
 10
15850.80217064596
 20
937.8747482146435
 30
0.0
 11
15766.80217064594
 21
937.8747482146435
 31
0.0
  0
LINE
  5
182DB
330
180F8
100
AcDbEntity
  8
YODOROGO
100
AcDbLine
 10
15766.80217064594
 20
937.8747482146435
 30
0.0
 11
15766.80217064594
 21
957.8747482146436
 31
0.0
  0
LINE
  5
182DC
330
180F8
100
AcDbEntity
  8
YODOROGO
100
AcDbLine
 10
15766.80217064594
 20
957.8747482146436
 30
0.0
 11
15830.80217064596
 21
957.8747482146436
 31
0.0
  0
ARC
  5
182DD
330
180F8
100
AcDbEntity
  8
YODOROGO
100
AcDbCircle
 10
15830.80217064596
 20
977.8747482146435
 30
0.0
 40
20.0
100
AcDbArc
 50
270.0
 51
0.0
  0
LINE
  5
182DE
330
180F8
100
AcDbEntity
  8
YODOROGO
100
AcDbLine
 10
15850.80217064596
 20
977.8747482146435
 30
0.0
 11
15850.80217064596
 21
1013.874748214644
 31
0.0
  0
LINE
  5
182DF
330
180F8
100
AcDbEntity
  8
YODOROGO
100
AcDbLine
 10
15850.80217064596
 20
1013.874748214644
 30
0.0
 11
15818.80217064596
 21
1013.874748214644
 31
0.0
  0
LINE
  5
182E0
330
180F8
100
AcDbEntity
  8
YODOROGO
100
AcDbLine
 10
15818.80217064596
 20
1013.874748214644
 30
0.0
 11
15818.80217064596
 21
1001.874748214643
 31
0.0
  0
ARC
  5
182E1
330
180F8
100
AcDbEntity
  8
YODOROGO
100
AcDbCircle
 10
15810.80217064596
 20
1001.874748214642
 30
0.0
 40
7.999999999998181
100
AcDbArc
 50
270.000000000013
 51
0.0000000000113991
  0
LINE
  5
182E2
330
180F8
100
AcDbEntity
  8
YODOROGO
100
AcDbLine
 10
15810.80217064596
 20
993.8747482146439
 30
0.0
 11
15730.80217064594
 21
993.8747482146439
 31
0.0
  0
LINE
  5
182E3
330
180F8
100
AcDbEntity
  8
YODOROGO
100
AcDbLine
 10
15730.80217064594
 20
993.8747482146439
 30
0.0
 11
15730.80217064594
 21
817.8747482146436
 31
0.0
  0
ARC
  5
182E4
330
180F8
100
AcDbEntity
  8
YODOROGO
100
AcDbCircle
 10
15675.75903786228
 20
818.9194785088274
 30
0.0
 40
55.05304649180789
100
AcDbArc
 50
269.0041020930613
 51
358.912644554925
  0
LINE
  5
182E5
330
180F8
100
AcDbEntity
  8
YODOROGO
100
AcDbLine
 10
15674.80217064596
 20
763.8747482146435
 30
0.0
 11
15674.80217064596
 21
713.8747482146435
 31
0.0
  0
ARC
  5
182E6
330
180F8
100
AcDbEntity
  8
YODOROGO
100
AcDbCircle
 10
15676.95743255803
 20
803.8951756442784
 30
0.0
 40
90.04622428799427
100
AcDbArc
 50
268.6284910216973
 51
356.1663845733032
  0
LINE
  5
182E7
330
180F8
100
AcDbEntity
  8
YODOROGO
100
AcDbLine
 10
15766.80217064596
 20
797.8747482146435
 30
0.0
 11
15766.80217064594
 21
905.8747482146443
 31
0.0
  0
LINE
  5
182E8
330
180F8
100
AcDbEntity
  8
YODOROGO
100
AcDbLine
 10
15766.80217064594
 20
905.8747482146443
 30
0.0
 11
15794.80217064596
 21
905.8747482146443
 31
0.0
  0
LINE
  5
182E9
330
180F8
100
AcDbEntity
  8
YODOROGO
100
AcDbLine
 10
15449.80217064596
 20
909.8747482146439
 30
0.0
 11
15449.80217064596
 21
877.8747482146435
 31
0.0
  0
LINE
  5
182EA
330
180F8
100
AcDbEntity
  8
YODOROGO
100
AcDbLine
 10
15449.80217064596
 20
877.8747482146435
 30
0.0
 11
15361.80217064596
 21
877.8747482146435
 31
0.0
  0
LINE
  5
182EB
330
180F8
100
AcDbEntity
  8
YODOROGO
100
AcDbLine
 10
15361.80217064596
 20
877.8747482146435
 30
0.0
 11
15361.80217064596
 21
909.8747482146439
 31
0.0
  0
LINE
  5
182EC
330
180F8
100
AcDbEntity
  8
YODOROGO
100
AcDbLine
 10
15361.80217064596
 20
909.8747482146439
 30
0.0
 11
15374.80217064596
 21
909.8747482146439
 31
0.0
  0
LINE
  5
182ED
330
180F8
100
AcDbEntity
  8
YODOROGO
100
AcDbLine
 10
15374.80217064596
 20
909.8747482146439
 30
0.0
 11
15361.80217064596
 21
969.8747482146441
 31
0.0
  0
LINE
  5
182EE
330
180F8
100
AcDbEntity
  8
YODOROGO
100
AcDbLine
 10
15361.80217064596
 20
969.8747482146441
 30
0.0
 11
15385.80217064596
 21
969.8747482146441
 31
0.0
  0
LINE
  5
182EF
330
180F8
100
AcDbEntity
  8
YODOROGO
100
AcDbLine
 10
15385.80217064596
 20
969.8747482146441
 30
0.0
 11
15398.80217064596
 21
909.8747482146439
 31
0.0
  0
LINE
  5
182F0
330
180F8
100
AcDbEntity
  8
YODOROGO
100
AcDbLine
 10
15398.80217064596
 20
909.8747482146439
 30
0.0
 11
15412.80217064596
 21
909.8747482146439
 31
0.0
  0
LINE
  5
182F1
330
180F8
100
AcDbEntity
  8
YODOROGO
100
AcDbLine
 10
15412.80217064596
 20
909.8747482146439
 30
0.0
 11
15425.80217064596
 21
969.8747482146441
 31
0.0
  0
LINE
  5
182F2
330
180F8
100
AcDbEntity
  8
YODOROGO
100
AcDbLine
 10
15425.80217064596
 20
969.8747482146441
 30
0.0
 11
15449.80217064596
 21
969.8747482146441
 31
0.0
  0
LINE
  5
182F3
330
180F8
100
AcDbEntity
  8
YODOROGO
100
AcDbLine
 10
15449.80217064596
 20
969.8747482146441
 30
0.0
 11
15436.80217064595
 21
909.8747482146439
 31
0.0
  0
LINE
  5
182F4
330
180F8
100
AcDbEntity
  8
YODOROGO
100
AcDbLine
 10
15436.80217064595
 20
909.8747482146439
 30
0.0
 11
15449.80217064596
 21
909.8747482146439
 31
0.0
  0
LINE
  5
182F5
330
180F8
100
AcDbEntity
  8
YODOROGO
100
AcDbLine
 10
15010.80217064596
 20
1013.874748214644
 30
0.0
 11
15010.80217064596
 21
913.8747482146435
 31
0.0
  0
LINE
  5
182F6
330
180F8
100
AcDbEntity
  8
YODOROGO
100
AcDbLine
 10
15010.80217064596
 20
913.8747482146435
 30
0.0
 11
15040.80217064596
 21
913.8747482146435
 31
0.0
  0
LINE
  5
182F7
330
180F8
100
AcDbEntity
  8
YODOROGO
100
AcDbLine
 10
15040.80217064596
 20
913.8747482146435
 30
0.0
 11
15040.80217064596
 21
1013.874748214644
 31
0.0
  0
LINE
  5
182F8
330
180F8
100
AcDbEntity
  8
YODOROGO
100
AcDbLine
 10
15040.80217064596
 20
1013.874748214644
 30
0.0
 11
15010.80217064596
 21
1013.874748214644
 31
0.0
  0
LINE
  5
182F9
330
180F8
100
AcDbEntity
  8
YODOROGO
100
AcDbLine
 10
15108.80217064596
 20
1013.874748214644
 30
0.0
 11
15108.80217064596
 21
893.8747482146439
 31
0.0
  0
ARC
  5
182FA
330
180F8
100
AcDbEntity
  8
YODOROGO
100
AcDbCircle
 10
15068.80217064596
 20
893.8747482146439
 30
0.0
 40
40.0
100
AcDbArc
 50
270.0
 51
0.0
  0
LINE
  5
182FB
330
180F8
100
AcDbEntity
  8
YODOROGO
100
AcDbLine
 10
15068.80217064596
 20
853.874748214644
 30
0.0
 11
15010.80217064596
 21
853.874748214644
 31
0.0
  0
LINE
  5
182FC
330
180F8
100
AcDbEntity
  8
YODOROGO
100
AcDbLine
 10
15010.80217064596
 20
853.874748214644
 30
0.0
 11
15010.80217064596
 21
885.8747482146441
 31
0.0
  0
LINE
  5
182FD
330
180F8
100
AcDbEntity
  8
YODOROGO
100
AcDbLine
 10
15010.80217064596
 20
885.8747482146441
 30
0.0
 11
15060.80217064596
 21
885.8747482146441
 31
0.0
  0
ARC
  5
182FE
330
180F8
100
AcDbEntity
  8
YODOROGO
100
AcDbCircle
 10
15060.80217064596
 20
905.8747482146443
 30
0.0
 40
20.0
100
AcDbArc
 50
270.0
 51
0.0
  0
LINE
  5
182FF
330
180F8
100
AcDbEntity
  8
YODOROGO
100
AcDbLine
 10
15080.80217064596
 20
905.8747482146443
 30
0.0
 11
15080.80217064596
 21
1013.874748214644
 31
0.0
  0
LINE
  5
18300
330
180F8
100
AcDbEntity
  8
YODOROGO
100
AcDbLine
 10
15080.80217064596
 20
1013.874748214644
 30
0.0
 11
15108.80217064596
 21
1013.874748214644
 31
0.0
  0
LINE
  5
18301
330
180F8
100
AcDbEntity
  8
YODOROGO
100
AcDbLine
 10
15248.80217064596
 20
969.8747482146441
 30
0.0
 11
15190.80217064596
 21
909.8747482146439
 31
0.0
  0
LINE
  5
18302
330
180F8
100
AcDbEntity
  8
YODOROGO
100
AcDbLine
 10
15190.80217064596
 20
909.8747482146439
 30
0.0
 11
15190.80217064596
 21
953.874748214644
 31
0.0
  0
LINE
  5
18303
330
180F8
100
AcDbEntity
  8
YODOROGO
100
AcDbLine
 10
15190.80217064596
 20
953.874748214644
 30
0.0
 11
15248.80217064596
 21
1013.874748214644
 31
0.0
  0
LINE
  5
18304
330
180F8
100
AcDbEntity
  8
YODOROGO
100
AcDbLine
 10
15248.80217064596
 20
1013.874748214644
 30
0.0
 11
15308.80217064596
 21
973.8747482146434
 31
0.0
  0
LINE
  5
18305
330
180F8
100
AcDbEntity
  8
YODOROGO
100
AcDbLine
 10
15308.80217064596
 20
973.8747482146434
 30
0.0
 11
15308.80217064596
 21
929.874748214644
 31
0.0
  0
LINE
  5
18306
330
180F8
100
AcDbEntity
  8
YODOROGO
100
AcDbLine
 10
15308.80217064596
 20
929.874748214644
 30
0.0
 11
15248.80217064596
 21
969.8747482146441
 31
0.0
  0
LINE
  5
18307
330
180F8
100
AcDbEntity
  8
YODOROGO
100
AcDbLine
 10
15190.80217064596
 20
786.8747482146444
 30
0.0
 11
15190.80217064596
 21
800.8747482146432
 31
0.0
  0
LINE
  5
18308
330
180F8
100
AcDbEntity
  8
YODOROGO
100
AcDbLine
 10
15190.80217064596
 20
800.8747482146432
 30
0.0
 11
15216.80217064596
 21
800.8747482146432
 31
0.0
  0
LINE
  5
18309
330
180F8
100
AcDbEntity
  8
YODOROGO
100
AcDbLine
 10
15216.80217064596
 20
800.8747482146432
 30
0.0
 11
15216.80217064596
 21
786.8747482146444
 31
0.0
  0
LINE
  5
1830A
330
180F8
100
AcDbEntity
  8
YODOROGO
100
AcDbLine
 10
15216.80217064596
 20
786.8747482146444
 30
0.0
 11
15190.80217064596
 21
786.8747482146444
 31
0.0
  0
LINE
  5
1830B
330
180F8
100
AcDbEntity
  8
YODOROGO
100
AcDbLine
 10
15192.80217064595
 20
788.8747482146436
 30
0.0
 11
15192.80217064595
 21
798.874748214644
 31
0.0
  0
LINE
  5
1830C
330
180F8
100
AcDbEntity
  8
YODOROGO
100
AcDbLine
 10
15192.80217064595
 20
798.874748214644
 30
0.0
 11
15214.80217064596
 21
798.874748214644
 31
0.0
  0
LINE
  5
1830D
330
180F8
100
AcDbEntity
  8
YODOROGO
100
AcDbLine
 10
15214.80217064596
 20
798.874748214644
 30
0.0
 11
15214.80217064596
 21
788.8747482146436
 31
0.0
  0
LINE
  5
1830E
330
180F8
100
AcDbEntity
  8
YODOROGO
100
AcDbLine
 10
15214.80217064596
 20
788.8747482146436
 30
0.0
 11
15192.80217064595
 21
788.8747482146436
 31
0.0
  0
LINE
  5
1830F
330
180F8
100
AcDbEntity
  8
YODOROGO
100
AcDbLine
 10
15194.80217064596
 20
790.8747482146432
 30
0.0
 11
15194.80217064596
 21
796.8747482146445
 31
0.0
  0
LINE
  5
18310
330
180F8
100
AcDbEntity
  8
YODOROGO
100
AcDbLine
 10
15194.80217064596
 20
796.8747482146445
 30
0.0
 11
15212.80217064596
 21
796.8747482146445
 31
0.0
  0
LINE
  5
18311
330
180F8
100
AcDbEntity
  8
YODOROGO
100
AcDbLine
 10
15212.80217064596
 20
796.8747482146445
 30
0.0
 11
15212.80217064596
 21
790.8747482146432
 31
0.0
  0
LINE
  5
18312
330
180F8
100
AcDbEntity
  8
YODOROGO
100
AcDbLine
 10
15212.80217064596
 20
790.8747482146432
 30
0.0
 11
15194.80217064596
 21
790.8747482146432
 31
0.0
  0
LINE
  5
18313
330
180F8
100
AcDbEntity
  8
YODOROGO
100
AcDbLine
 10
15196.80217064596
 20
792.8747482146435
 30
0.0
 11
15196.80217064596
 21
794.8747482146441
 31
0.0
  0
LINE
  5
18314
330
180F8
100
AcDbEntity
  8
YODOROGO
100
AcDbLine
 10
15196.80217064596
 20
794.8747482146441
 30
0.0
 11
15210.80217064596
 21
794.8747482146441
 31
0.0
  0
LINE
  5
18315
330
180F8
100
AcDbEntity
  8
YODOROGO
100
AcDbLine
 10
15210.80217064596
 20
794.8747482146441
 30
0.0
 11
15210.80217064596
 21
792.8747482146435
 31
0.0
  0
LINE
  5
18316
330
180F8
100
AcDbEntity
  8
YODOROGO
100
AcDbLine
 10
15210.80217064596
 20
792.8747482146435
 30
0.0
 11
15196.80217064596
 21
792.8747482146435
 31
0.0
  0
LINE
  5
18317
330
180F8
100
AcDbEntity
  8
YODOROGO
100
AcDbLine
 10
15415.80217064596
 20
877.8747482146435
 30
0.0
 11
15415.80217064596
 21
781.8747482146434
 31
0.0
  0
LINE
  5
18318
330
180F8
100
AcDbEntity
  8
YODOROGO
100
AcDbLine
 10
15415.80217064596
 20
781.8747482146434
 30
0.0
 11
15429.80217064596
 21
781.8747482146434
 31
0.0
  0
LINE
  5
18319
330
180F8
100
AcDbEntity
  8
YODOROGO
100
AcDbLine
 10
15429.80217064596
 20
781.8747482146434
 30
0.0
 11
15429.80217064596
 21
845.8747482146444
 31
0.0
  0
LINE
  5
1831A
330
180F8
100
AcDbEntity
  8
YODOROGO
100
AcDbLine
 10
15429.80217064596
 20
845.8747482146444
 30
0.0
 11
15449.80217064596
 21
845.8747482146444
 31
0.0
  0
LINE
  5
1831B
330
180F8
100
AcDbEntity
  8
YODOROGO
100
AcDbLine
 10
15449.80217064596
 20
845.8747482146444
 30
0.0
 11
15449.80217064596
 21
745.8747482146443
 31
0.0
  0
LINE
  5
1831C
330
180F8
100
AcDbEntity
  8
YODOROGO
100
AcDbLine
 10
15449.80217064596
 20
745.8747482146443
 30
0.0
 11
15361.80217064596
 21
745.8747482146443
 31
0.0
  0
LINE
  5
1831D
330
180F8
100
AcDbEntity
  8
YODOROGO
100
AcDbLine
 10
15361.80217064596
 20
745.8747482146443
 30
0.0
 11
15361.80217064596
 21
845.8747482146444
 31
0.0
  0
LINE
  5
1831E
330
180F8
100
AcDbEntity
  8
YODOROGO
100
AcDbLine
 10
15361.80217064596
 20
845.8747482146444
 30
0.0
 11
15381.80217064596
 21
845.8747482146444
 31
0.0
  0
LINE
  5
1831F
330
180F8
100
AcDbEntity
  8
YODOROGO
100
AcDbLine
 10
15381.80217064596
 20
845.8747482146444
 30
0.0
 11
15381.80217064596
 21
781.8747482146434
 31
0.0
  0
LINE
  5
18320
330
180F8
100
AcDbEntity
  8
YODOROGO
100
AcDbLine
 10
15381.80217064596
 20
781.8747482146434
 30
0.0
 11
15395.80217064596
 21
781.8747482146434
 31
0.0
  0
LINE
  5
18321
330
180F8
100
AcDbEntity
  8
YODOROGO
100
AcDbLine
 10
15395.80217064596
 20
781.8747482146434
 30
0.0
 11
15395.80217064596
 21
877.8747482146435
 31
0.0
  0
LINE
  5
18322
330
180F8
100
AcDbEntity
  8
YODOROGO
100
AcDbLine
 10
15395.80217064596
 20
877.8747482146435
 30
0.0
 11
15415.80217064596
 21
877.8747482146435
 31
0.0
  0
LINE
  5
18323
330
180F8
100
AcDbEntity
  8
YODOROGO
100
AcDbLine
 10
15462.80217064596
 20
773.874748214644
 30
0.0
 11
15462.80217064596
 21
981.8747482146434
 31
0.0
  0
LINE
  5
18324
330
180F8
100
AcDbEntity
  8
YODOROGO
100
AcDbLine
 10
15462.80217064596
 20
981.8747482146434
 30
0.0
 11
15348.80217064596
 21
981.8747482146434
 31
0.0
  0
LINE
  5
18325
330
180F8
100
AcDbEntity
  8
YODOROGO
100
AcDbLine
 10
15348.80217064596
 20
981.8747482146434
 30
0.0
 11
15348.80217064596
 21
713.8747482146435
 31
0.0
  0
LINE
  5
18326
330
180F8
100
AcDbEntity
  8
YODOROGO
100
AcDbLine
 10
15348.80217064596
 20
713.8747482146435
 30
0.0
 11
15322.80217064596
 21
713.8747482146435
 31
0.0
  0
LINE
  5
18327
330
180F8
100
AcDbEntity
  8
YODOROGO
100
AcDbLine
 10
15322.80217064596
 20
713.8747482146435
 30
0.0
 11
15322.80217064596
 21
1013.874748214644
 31
0.0
  0
LINE
  5
18328
330
180F8
100
AcDbEntity
  8
YODOROGO
100
AcDbLine
 10
15322.80217064596
 20
1013.874748214644
 30
0.0
 11
15486.80217064596
 21
1013.874748214644
 31
0.0
  0
LINE
  5
18329
330
180F8
100
AcDbEntity
  8
YODOROGO
100
AcDbLine
 10
15486.80217064596
 20
1013.874748214644
 30
0.0
 11
15486.80217064596
 21
733.8747482146435
 31
0.0
  0
ARC
  5
1832A
330
180F8
100
AcDbEntity
  8
YODOROGO
100
AcDbCircle
 10
15466.80217064596
 20
733.8747482146435
 30
0.0
 40
20.0
100
AcDbArc
 50
270.0
 51
0.0
  0
LINE
  5
1832B
330
180F8
100
AcDbEntity
  8
YODOROGO
100
AcDbLine
 10
15466.80217064596
 20
713.8747482146435
 30
0.0
 11
15449.80217064596
 21
713.8747482146435
 31
0.0
  0
LINE
  5
1832C
330
180F8
100
AcDbEntity
  8
YODOROGO
100
AcDbLine
 10
15449.80217064596
 20
713.8747482146435
 30
0.0
 11
15449.80217064596
 21
773.874748214644
 31
0.0
  0
LINE
  5
1832D
330
180F8
100
AcDbEntity
  8
YODOROGO
100
AcDbLine
 10
15449.80217064596
 20
773.874748214644
 30
0.0
 11
15462.80217064596
 21
773.874748214644
 31
0.0
  0
LINE
  5
1832E
330
180F8
100
AcDbEntity
  8
YODOROGO
100
AcDbLine
 10
15232.80217064596
 20
867.8747482146436
 30
0.0
 11
15190.80217064596
 21
867.8747482146436
 31
0.0
  0
LINE
  5
1832F
330
180F8
100
AcDbEntity
  8
YODOROGO
100
AcDbLine
 10
15190.80217064596
 20
867.8747482146436
 30
0.0
 11
15190.80217064596
 21
897.8747482146435
 31
0.0
  0
LINE
  5
18330
330
180F8
100
AcDbEntity
  8
YODOROGO
100
AcDbLine
 10
15190.80217064596
 20
897.8747482146435
 30
0.0
 11
15308.80217064596
 21
897.8747482146435
 31
0.0
  0
LINE
  5
18331
330
180F8
100
AcDbEntity
  8
YODOROGO
100
AcDbLine
 10
15308.80217064596
 20
897.8747482146435
 30
0.0
 11
15308.80217064596
 21
867.8747482146436
 31
0.0
  0
LINE
  5
18332
330
180F8
100
AcDbEntity
  8
YODOROGO
100
AcDbLine
 10
15308.80217064596
 20
867.8747482146436
 30
0.0
 11
15264.80217064596
 21
867.8747482146436
 31
0.0
  0
LINE
  5
18333
330
180F8
100
AcDbEntity
  8
YODOROGO
100
AcDbLine
 10
15264.80217064596
 20
867.8747482146436
 30
0.0
 11
15264.80217064596
 21
839.8747482146442
 31
0.0
  0
LINE
  5
18334
330
180F8
100
AcDbEntity
  8
YODOROGO
100
AcDbLine
 10
15264.80217064596
 20
839.8747482146442
 30
0.0
 11
15308.80217064596
 21
839.8747482146442
 31
0.0
  0
LINE
  5
18335
330
180F8
100
AcDbEntity
  8
YODOROGO
100
AcDbLine
 10
15308.80217064596
 20
839.8747482146442
 30
0.0
 11
15308.80217064596
 21
813.8747482146435
 31
0.0
  0
LINE
  5
18336
330
180F8
100
AcDbEntity
  8
YODOROGO
100
AcDbLine
 10
15308.80217064596
 20
813.8747482146435
 30
0.0
 11
15264.80217064596
 21
813.8747482146435
 31
0.0
  0
LINE
  5
18337
330
180F8
100
AcDbEntity
  8
YODOROGO
100
AcDbLine
 10
15264.80217064596
 20
813.8747482146435
 30
0.0
 11
15264.80217064596
 21
773.874748214644
 31
0.0
  0
LINE
  5
18338
330
180F8
100
AcDbEntity
  8
YODOROGO
100
AcDbLine
 10
15264.80217064596
 20
773.874748214644
 30
0.0
 11
15272.80217064594
 21
773.874748214644
 31
0.0
  0
ARC
  5
18339
330
180F8
100
AcDbEntity
  8
YODOROGO
100
AcDbCircle
 10
15272.80217064596
 20
785.8747482146461
 30
0.0
 40
12.00000000000227
100
AcDbArc
 50
269.9999999999914
 51
359.9999999999859
  0
LINE
  5
1833A
330
180F8
100
AcDbEntity
  8
YODOROGO
100
AcDbLine
 10
15284.80217064596
 20
785.8747482146432
 30
0.0
 11
15284.80217064596
 21
799.8747482146441
 31
0.0
  0
LINE
  5
1833B
330
180F8
100
AcDbEntity
  8
YODOROGO
100
AcDbLine
 10
15284.80217064596
 20
799.8747482146441
 30
0.0
 11
15308.80217064596
 21
799.8747482146441
 31
0.0
  0
LINE
  5
1833C
330
180F8
100
AcDbEntity
  8
YODOROGO
100
AcDbLine
 10
15308.80217064596
 20
799.8747482146441
 30
0.0
 11
15308.80217064596
 21
753.8747482146439
 31
0.0
  0
ARC
  5
1833D
330
180F8
100
AcDbEntity
  8
YODOROGO
100
AcDbCircle
 10
15268.80217064596
 20
753.8747482146439
 30
0.0
 40
40.0
100
AcDbArc
 50
270.0
 51
0.0
  0
LINE
  5
1833E
330
180F8
100
AcDbEntity
  8
YODOROGO
100
AcDbLine
 10
15268.80217064596
 20
713.8747482146435
 30
0.0
 11
15190.80217064596
 21
713.8747482146435
 31
0.0
  0
LINE
  5
1833F
330
180F8
100
AcDbEntity
  8
YODOROGO
100
AcDbLine
 10
15190.80217064596
 20
713.8747482146435
 30
0.0
 11
15190.80217064596
 21
773.874748214644
 31
0.0
  0
LINE
  5
18340
330
180F8
100
AcDbEntity
  8
YODOROGO
100
AcDbLine
 10
15190.80217064596
 20
773.874748214644
 30
0.0
 11
15232.80217064596
 21
773.874748214644
 31
0.0
  0
LINE
  5
18341
330
180F8
100
AcDbEntity
  8
YODOROGO
100
AcDbLine
 10
15232.80217064596
 20
773.874748214644
 30
0.0
 11
15232.80217064596
 21
813.8747482146435
 31
0.0
  0
LINE
  5
18342
330
180F8
100
AcDbEntity
  8
YODOROGO
100
AcDbLine
 10
15232.80217064596
 20
813.8747482146435
 30
0.0
 11
15190.80217064596
 21
813.8747482146435
 31
0.0
  0
LINE
  5
18343
330
180F8
100
AcDbEntity
  8
YODOROGO
100
AcDbLine
 10
15190.80217064596
 20
813.8747482146435
 30
0.0
 11
15190.80217064596
 21
839.8747482146442
 31
0.0
  0
LINE
  5
18344
330
180F8
100
AcDbEntity
  8
YODOROGO
100
AcDbLine
 10
15190.80217064596
 20
839.8747482146442
 30
0.0
 11
15232.80217064596
 21
839.8747482146442
 31
0.0
  0
LINE
  5
18345
330
180F8
100
AcDbEntity
  8
YODOROGO
100
AcDbLine
 10
15232.80217064596
 20
839.8747482146442
 30
0.0
 11
15232.80217064596
 21
867.8747482146436
 31
0.0
  0
LINE
  5
18346
330
180F8
100
AcDbEntity
  8
YODOROGO
100
AcDbLine
 10
15618.80217064596
 20
797.8747482146435
 30
0.0
 11
15618.80217064596
 21
853.874748214644
 31
0.0
  0
LINE
  5
18347
330
180F8
100
AcDbEntity
  8
YODOROGO
100
AcDbLine
 10
15618.80217064596
 20
853.874748214644
 30
0.0
 11
15706.80217064596
 21
853.874748214644
 31
0.0
  0
LINE
  5
18348
330
180F8
100
AcDbEntity
  8
YODOROGO
100
AcDbLine
 10
15706.80217064596
 20
853.874748214644
 30
0.0
 11
15706.80217064596
 21
953.874748214644
 31
0.0
  0
LINE
  5
18349
330
180F8
100
AcDbEntity
  8
YODOROGO
100
AcDbLine
 10
15706.80217064596
 20
953.874748214644
 30
0.0
 11
15582.80217064596
 21
953.874748214644
 31
0.0
  0
LINE
  5
1834A
330
180F8
100
AcDbEntity
  8
YODOROGO
100
AcDbLine
 10
15582.80217064596
 20
953.874748214644
 30
0.0
 11
15582.80217064596
 21
817.8747482146436
 31
0.0
  0
ARC
  5
1834B
330
180F8
100
AcDbEntity
  8
YODOROGO
100
AcDbCircle
 10
15519.86069778339
 20
818.7656950548655
 30
0.0
 40
62.94777829583679
100
AcDbArc
 50
295.3405244216011
 51
359.1890230341872
  0
LINE
  5
1834C
330
180F8
100
AcDbEntity
  8
YODOROGO
100
AcDbLine
 10
15546.80217064596
 20
761.8747482146434
 30
0.0
 11
15546.80217064596
 21
713.8747482146435
 31
0.0
  0
ARC
  5
1834D
330
180F8
100
AcDbEntity
  8
YODOROGO
100
AcDbCircle
 10
15529.75894667896
 20
801.3403687577881
 30
0.0
 40
89.11064055536114
100
AcDbArc
 50
281.0262749542548
 51
357.771135755738
  0
LINE
  5
1834E
330
180F8
100
AcDbEntity
  8
YODOROGO
100
AcDbLine
 10
15582.80217064596
 20
1013.874748214644
 30
0.0
 11
15582.80217064596
 21
981.8747482146434
 31
0.0
  0
LINE
  5
1834F
330
180F8
100
AcDbEntity
  8
YODOROGO
100
AcDbLine
 10
15582.80217064596
 20
981.8747482146434
 30
0.0
 11
15706.80217064596
 21
981.8747482146434
 31
0.0
  0
LINE
  5
18350
330
180F8
100
AcDbEntity
  8
YODOROGO
100
AcDbLine
 10
15706.80217064596
 20
981.8747482146434
 30
0.0
 11
15706.80217064596
 21
1013.874748214644
 31
0.0
  0
LINE
  5
18351
330
180F8
100
AcDbEntity
  8
YODOROGO
100
AcDbLine
 10
15706.80217064596
 20
1013.874748214644
 30
0.0
 11
15582.80217064596
 21
1013.874748214644
 31
0.0
  0
ARC
  5
18352
330
180F8
100
AcDbEntity
  8
YODOROGO
100
AcDbCircle
 10
14454.5930853599
 20
796.3053643052199
 30
0.0
 40
82.46021178042751
100
AcDbArc
 50
271.5351210653781
 51
355.5272775058505
  0
LINE
  5
18353
330
180F8
100
AcDbEntity
  8
YODOROGO
100
AcDbLine
 10
14536.80217064596
 20
789.8747482146441
 30
0.0
 11
14536.80217064596
 21
1013.874748214644
 31
0.0
  0
LINE
  5
18354
330
180F8
100
AcDbEntity
  8
YODOROGO
100
AcDbLine
 10
14536.80217064596
 20
1013.874748214644
 30
0.0
 11
14500.80217064594
 21
1013.874748214644
 31
0.0
  0
LINE
  5
18355
330
180F8
100
AcDbEntity
  8
YODOROGO
100
AcDbLine
 10
14500.80217064594
 20
1013.874748214644
 30
0.0
 11
14500.80217064594
 21
809.8747482146441
 31
0.0
  0
ARC
  5
18356
330
180F8
100
AcDbEntity
  8
YODOROGO
100
AcDbCircle
 10
14453.45578809342
 20
809.1089322211363
 30
0.0
 40
47.35257558937173
100
AcDbArc
 50
274.0524416290722
 51
0.9266642149309848
  0
LINE
  5
18357
330
180F8
100
AcDbEntity
  8
YODOROGO
100
AcDbLine
 10
14456.80217064596
 20
761.8747482146434
 30
0.0
 11
14456.80217064596
 21
713.8747482146435
 31
0.0
  0
LINE
  5
18358
330
180F8
100
AcDbEntity
  8
YODOROGO
100
AcDbLine
 10
14630.80217064596
 20
1003.874748214644
 30
0.0
 11
14598.80217064596
 21
1003.874748214644
 31
0.0
  0
LINE
  5
18359
330
180F8
100
AcDbEntity
  8
YODOROGO
100
AcDbLine
 10
14598.80217064596
 20
1003.874748214644
 30
0.0
 11
14598.80217064596
 21
745.8747482146431
 31
0.0
  0
LINE
  5
1835A
330
180F8
100
AcDbEntity
  8
YODOROGO
100
AcDbLine
 10
14598.80217064596
 20
745.8747482146431
 30
0.0
 11
14630.80217064596
 21
745.8747482146431
 31
0.0
  0
LINE
  5
1835B
330
180F8
100
AcDbEntity
  8
YODOROGO
100
AcDbLine
 10
14630.80217064596
 20
745.8747482146431
 30
0.0
 11
14630.80217064596
 21
1003.874748214644
 31
0.0
  0
LINE
  5
1835C
330
180F8
100
AcDbEntity
  8
YODOROGO
100
AcDbLine
 10
14728.80217064596
 20
713.8747482146435
 30
0.0
 11
14728.80217064596
 21
1013.874748214644
 31
0.0
  0
LINE
  5
1835D
330
180F8
100
AcDbEntity
  8
YODOROGO
100
AcDbLine
 10
14728.80217064596
 20
1013.874748214644
 30
0.0
 11
14692.80217064596
 21
1013.874748214644
 31
0.0
  0
LINE
  5
1835E
330
180F8
100
AcDbEntity
  8
YODOROGO
100
AcDbLine
 10
14692.80217064596
 20
1013.874748214644
 30
0.0
 11
14692.80217064596
 21
713.8747482146435
 31
0.0
  0
LINE
  5
1835F
330
180F8
100
AcDbEntity
  8
YODOROGO
100
AcDbLine
 10
14692.80217064596
 20
713.8747482146435
 30
0.0
 11
14728.80217064596
 21
713.8747482146435
 31
0.0
  0
LINE
  5
18360
330
180F8
100
AcDbEntity
  8
YODOROGO
100
AcDbLine
 10
14064.80217064595
 20
873.8747482146434
 30
0.0
 11
14068.80217064596
 21
873.8747482146434
 31
0.0
1001
AUTOCAD_POSTSCRIPT_FIGURE
1002
{
1000
PSFILL
1000
Grayscale
1000
Grayscale
1070
   100
1002
}
  0
LINE
  5
18361
330
180F8
100
AcDbEntity
  8
YODOROGO
100
AcDbLine
 10
14068.80217064596
 20
873.8747482146434
 30
0.0
 11
14049.45149343671
 21
969.8747482146441
 31
0.0
1001
AUTOCAD_POSTSCRIPT_FIGURE
1002
{
1000
PSFILL
1000
Grayscale
1000
Grayscale
1070
   100
1002
}
  0
LINE
  5
18362
330
180F8
100
AcDbEntity
  8
YODOROGO
100
AcDbLine
 10
14049.45149343671
 20
969.8747482146441
 30
0.0
 11
14068.80217064596
 21
969.8747482146441
 31
0.0
1001
AUTOCAD_POSTSCRIPT_FIGURE
1002
{
1000
PSFILL
1000
Grayscale
1000
Grayscale
1070
   100
1002
}
  0
LINE
  5
18363
330
180F8
100
AcDbEntity
  8
YODOROGO
100
AcDbLine
 10
14068.80217064596
 20
969.8747482146441
 30
0.0
 11
14068.80217064596
 21
977.8747482146435
 31
0.0
1001
AUTOCAD_POSTSCRIPT_FIGURE
1002
{
1000
PSFILL
1000
Grayscale
1000
Grayscale
1070
   100
1002
}
  0
LINE
  5
18364
330
180F8
100
AcDbEntity
  8
YODOROGO
100
AcDbLine
 10
14068.80217064596
 20
977.8747482146435
 30
0.0
 11
14068.80217064596
 21
989.8747482146442
 31
0.0
1001
AUTOCAD_POSTSCRIPT_FIGURE
1002
{
1000
PSFILL
1000
Grayscale
1000
Grayscale
1070
   100
1002
}
  0
LINE
  5
18365
330
180F8
100
AcDbEntity
  8
YODOROGO
100
AcDbLine
 10
14068.80217064596
 20
989.8747482146442
 30
0.0
 11
14060.80217064596
 21
989.8747482146442
 31
0.0
1001
AUTOCAD_POSTSCRIPT_FIGURE
1002
{
1000
PSFILL
1000
Grayscale
1000
Grayscale
1070
   100
1002
}
  0
LINE
  5
18366
330
180F8
100
AcDbEntity
  8
YODOROGO
100
AcDbLine
 10
14060.80217064596
 20
989.8747482146442
 30
0.0
 11
14060.80217064596
 21
977.8747482146435
 31
0.0
1001
AUTOCAD_POSTSCRIPT_FIGURE
1002
{
1000
PSFILL
1000
Grayscale
1000
Grayscale
1070
   100
1002
}
  0
LINE
  5
18367
330
180F8
100
AcDbEntity
  8
YODOROGO
100
AcDbLine
 10
14060.80217064596
 20
977.8747482146435
 30
0.0
 11
14047.90343925997
 21
977.8747482146435
 31
0.0
1001
AUTOCAD_POSTSCRIPT_FIGURE
1002
{
1000
PSFILL
1000
Grayscale
1000
Grayscale
1070
   100
1002
}
  0
LINE
  5
18368
330
180F8
100
AcDbEntity
  8
YODOROGO
100
AcDbLine
 10
14047.90343925997
 20
977.8747482146435
 30
0.0
 11
14045.58135799485
 21
989.8747482146442
 31
0.0
1001
AUTOCAD_POSTSCRIPT_FIGURE
1002
{
1000
PSFILL
1000
Grayscale
1000
Grayscale
1070
   100
1002
}
  0
LINE
  5
18369
330
180F8
100
AcDbEntity
  8
YODOROGO
100
AcDbLine
 10
14045.58135799485
 20
989.8747482146442
 30
0.0
 11
14035.58135799485
 21
989.8747482146442
 31
0.0
1001
AUTOCAD_POSTSCRIPT_FIGURE
1002
{
1000
PSFILL
1000
Grayscale
1000
Grayscale
1070
   100
1002
}
  0
LINE
  5
1836A
330
180F8
100
AcDbEntity
  8
YODOROGO
100
AcDbLine
 10
14035.58135799485
 20
989.8747482146442
 30
0.0
 11
14038.30343925995
 21
977.8747482146435
 31
0.0
1001
AUTOCAD_POSTSCRIPT_FIGURE
1002
{
1000
PSFILL
1000
Grayscale
1000
Grayscale
1070
   100
1002
}
  0
LINE
  5
1836B
330
180F8
100
AcDbEntity
  8
YODOROGO
100
AcDbLine
 10
14038.30343925995
 20
977.8747482146435
 30
0.0
 11
13988.80217064596
 21
977.8747482146435
 31
0.0
1001
AUTOCAD_POSTSCRIPT_FIGURE
1002
{
1000
PSFILL
1000
Grayscale
1000
Grayscale
1070
   100
1002
}
  0
LINE
  5
1836C
330
180F8
100
AcDbEntity
  8
YODOROGO
100
AcDbLine
 10
13988.80217064596
 20
977.8747482146435
 30
0.0
 11
13988.80217064596
 21
969.8747482146441
 31
0.0
1001
AUTOCAD_POSTSCRIPT_FIGURE
1002
{
1000
PSFILL
1000
Grayscale
1000
Grayscale
1070
   100
1002
}
  0
LINE
  5
1836D
330
180F8
100
AcDbEntity
  8
YODOROGO
100
AcDbLine
 10
13988.80217064596
 20
969.8747482146441
 30
0.0
 11
14040.11816010337
 21
969.8747482146441
 31
0.0
1001
AUTOCAD_POSTSCRIPT_FIGURE
1002
{
1000
PSFILL
1000
Grayscale
1000
Grayscale
1070
   100
1002
}
  0
LINE
  5
1836E
330
180F8
100
AcDbEntity
  8
YODOROGO
100
AcDbLine
 10
14040.11816010337
 20
969.8747482146441
 30
0.0
 11
14064.80217064595
 21
873.8747482146434
 31
0.0
1001
AUTOCAD_POSTSCRIPT_FIGURE
1002
{
1000
PSFILL
1000
Grayscale
1000
Grayscale
1070
   100
1002
}
  0
LINE
  5
1836F
330
180F8
100
AcDbEntity
  8
YODOROGO
100
AcDbLine
 10
13988.80217064596
 20
873.8747482146434
 30
0.0
 11
13988.80217064596
 21
885.8747482146432
 31
0.0
  0
LINE
  5
18370
330
180F8
100
AcDbEntity
  8
YODOROGO
100
AcDbLine
 10
13988.80217064596
 20
885.8747482146432
 30
0.0
 11
14010.91839030643
 21
892.3366697971587
 31
0.0
  0
LINE
  5
18371
330
180F8
100
AcDbEntity
  8
YODOROGO
100
AcDbLine
 10
14010.91839030643
 20
892.3366697971587
 30
0.0
 11
14010.91839030643
 21
936.2841744681499
 31
0.0
  0
LINE
  5
18372
330
180F8
100
AcDbEntity
  8
YODOROGO
100
AcDbLine
 10
14010.91839030643
 20
936.2841744681499
 30
0.0
 11
13988.80217064596
 21
936.2841744681499
 31
0.0
  0
LINE
  5
18373
330
180F8
100
AcDbEntity
  8
YODOROGO
100
AcDbLine
 10
13988.80217064596
 20
936.2841744681499
 30
0.0
 11
13988.80217064596
 21
946.2841744681487
 31
0.0
  0
LINE
  5
18374
330
180F8
100
AcDbEntity
  8
YODOROGO
100
AcDbLine
 10
13988.80217064596
 20
946.2841744681487
 30
0.0
 11
14039.03460996689
 21
946.2841744681487
 31
0.0
  0
LINE
  5
18375
330
180F8
100
AcDbEntity
  8
YODOROGO
100
AcDbLine
 10
14039.03460996689
 20
946.2841744681487
 30
0.0
 11
14039.03460996689
 21
936.2841744681499
 31
0.0
  0
LINE
  5
18376
330
180F8
100
AcDbEntity
  8
YODOROGO
100
AcDbLine
 10
14039.03460996689
 20
936.2841744681499
 30
0.0
 11
14016.91839030643
 21
936.2841744681499
 31
0.0
  0
LINE
  5
18377
330
180F8
100
AcDbEntity
  8
YODOROGO
100
AcDbLine
 10
14016.91839030643
 20
936.2841744681499
 30
0.0
 11
14016.91839030643
 21
893.4084665668834
 31
0.0
  0
LINE
  5
18378
330
180F8
100
AcDbEntity
  8
YODOROGO
100
AcDbLine
 10
14016.91839030643
 20
893.4084665668834
 30
0.0
 11
14039.03460996689
 21
899.3344897645364
 31
0.0
  0
LINE
  5
18379
330
180F8
100
AcDbEntity
  8
YODOROGO
100
AcDbLine
 10
14039.03460996689
 20
899.3344897645364
 30
0.0
 11
14039.03460996689
 21
887.8703881493972
 31
0.0
  0
LINE
  5
1837A
330
180F8
100
AcDbEntity
  8
YODOROGO
100
AcDbLine
 10
14039.03460996689
 20
887.8703881493972
 30
0.0
 11
13988.80217064596
 21
873.8747482146434
 31
0.0
  0
LINE
  5
1837B
330
180F8
100
AcDbEntity
  8
YODOROGO
100
AcDbLine
 10
14200.80217064594
 20
912.4388128201532
 30
0.0
 11
14200.80217064594
 21
876.4388128201531
 31
0.0
1001
AUTOCAD_POSTSCRIPT_FIGURE
1002
{
1000
PSFILL
1000
Grayscale
1000
Grayscale
1070
   100
1002
}
  0
LINE
  5
1837C
330
180F8
100
AcDbEntity
  8
YODOROGO
100
AcDbLine
 10
14200.80217064594
 20
876.4388128201531
 30
0.0
 11
14128.80217064596
 21
897.8747482146435
 31
0.0
1001
AUTOCAD_POSTSCRIPT_FIGURE
1002
{
1000
PSFILL
1000
Grayscale
1000
Grayscale
1070
   100
1002
}
  0
LINE
  5
1837D
330
180F8
100
AcDbEntity
  8
YODOROGO
100
AcDbLine
 10
14128.80217064596
 20
897.8747482146435
 30
0.0
 11
14128.80217064596
 21
933.8747482146439
 31
0.0
1001
AUTOCAD_POSTSCRIPT_FIGURE
1002
{
1000
PSFILL
1000
Grayscale
1000
Grayscale
1070
   100
1002
}
  0
LINE
  5
1837E
330
180F8
100
AcDbEntity
  8
YODOROGO
100
AcDbLine
 10
14128.80217064596
 20
933.8747482146439
 30
0.0
 11
14200.80217064594
 21
912.4388128201532
 31
0.0
1001
AUTOCAD_POSTSCRIPT_FIGURE
1002
{
1000
PSFILL
1000
Grayscale
1000
Grayscale
1070
   100
1002
}
  0
LINE
  5
1837F
330
180F8
100
AcDbEntity
  8
YODOROGO
100
AcDbLine
 10
14128.80217064596
 20
1013.874748214644
 30
0.0
 11
14128.80217064596
 21
979.874748214644
 31
0.0
1001
AUTOCAD_POSTSCRIPT_FIGURE
1002
{
1000
PSFILL
1000
Grayscale
1000
Grayscale
1070
   100
1002
}
  0
LINE
  5
18380
330
180F8
100
AcDbEntity
  8
YODOROGO
100
AcDbLine
 10
14128.80217064596
 20
979.874748214644
 30
0.0
 11
14200.80217064594
 21
958.4388128201537
 31
0.0
1001
AUTOCAD_POSTSCRIPT_FIGURE
1002
{
1000
PSFILL
1000
Grayscale
1000
Grayscale
1070
   100
1002
}
  0
LINE
  5
18381
330
180F8
100
AcDbEntity
  8
YODOROGO
100
AcDbLine
 10
14200.80217064594
 20
958.4388128201537
 30
0.0
 11
14200.80217064594
 21
992.4388128201531
 31
0.0
1001
AUTOCAD_POSTSCRIPT_FIGURE
1002
{
1000
PSFILL
1000
Grayscale
1000
Grayscale
1070
   100
1002
}
  0
LINE
  5
18382
330
180F8
100
AcDbEntity
  8
YODOROGO
100
AcDbLine
 10
14200.80217064594
 20
992.4388128201531
 30
0.0
 11
14128.80217064596
 21
1013.874748214644
 31
0.0
1001
AUTOCAD_POSTSCRIPT_FIGURE
1002
{
1000
PSFILL
1000
Grayscale
1000
Grayscale
1070
   100
1002
}
  0
LINE
  5
18383
330
180F8
100
AcDbEntity
  8
YODOROGO
100
AcDbLine
 10
13888.80217064596
 20
921.8883739758362
 30
0.0
 11
13888.80217064596
 21
929.8883739758355
 31
0.0
1001
AUTOCAD_POSTSCRIPT_FIGURE
1002
{
1000
PSFILL
1000
Grayscale
1000
Grayscale
1070
   100
1002
}
  0
LINE
  5
18384
330
180F8
100
AcDbEntity
  8
YODOROGO
100
AcDbLine
 10
13888.80217064596
 20
929.8883739758355
 30
0.0
 11
13900.80217064596
 21
957.3932903968525
 31
0.0
1001
AUTOCAD_POSTSCRIPT_FIGURE
1002
{
1000
PSFILL
1000
Grayscale
1000
Grayscale
1070
   100
1002
}
  0
LINE
  5
18385
330
180F8
100
AcDbEntity
  8
YODOROGO
100
AcDbLine
 10
13900.80217064596
 20
957.3932903968525
 30
0.0
 11
13900.80217064596
 21
969.8747482146441
 31
0.0
1001
AUTOCAD_POSTSCRIPT_FIGURE
1002
{
1000
PSFILL
1000
Grayscale
1000
Grayscale
1070
   100
1002
}
  0
LINE
  5
18386
330
180F8
100
AcDbEntity
  8
YODOROGO
100
AcDbLine
 10
13900.80217064596
 20
969.8747482146441
 30
0.0
 11
13888.80217064596
 21
969.8747482146441
 31
0.0
1001
AUTOCAD_POSTSCRIPT_FIGURE
1002
{
1000
PSFILL
1000
Grayscale
1000
Grayscale
1070
   100
1002
}
  0
LINE
  5
18387
330
180F8
100
AcDbEntity
  8
YODOROGO
100
AcDbLine
 10
13888.80217064596
 20
969.8747482146441
 30
0.0
 11
13888.80217064596
 21
977.8747482146435
 31
0.0
1001
AUTOCAD_POSTSCRIPT_FIGURE
1002
{
1000
PSFILL
1000
Grayscale
1000
Grayscale
1070
   100
1002
}
  0
LINE
  5
18388
330
180F8
100
AcDbEntity
  8
YODOROGO
100
AcDbLine
 10
13888.80217064596
 20
977.8747482146435
 30
0.0
 11
13900.80217064596
 21
977.8747482146435
 31
0.0
1001
AUTOCAD_POSTSCRIPT_FIGURE
1002
{
1000
PSFILL
1000
Grayscale
1000
Grayscale
1070
   100
1002
}
  0
LINE
  5
18389
330
180F8
100
AcDbEntity
  8
YODOROGO
100
AcDbLine
 10
13900.80217064596
 20
977.8747482146435
 30
0.0
 11
13900.80217064596
 21
989.8747482146442
 31
0.0
1001
AUTOCAD_POSTSCRIPT_FIGURE
1002
{
1000
PSFILL
1000
Grayscale
1000
Grayscale
1070
   100
1002
}
  0
LINE
  5
1838A
330
180F8
100
AcDbEntity
  8
YODOROGO
100
AcDbLine
 10
13900.80217064596
 20
989.8747482146442
 30
0.0
 11
13908.80217064596
 21
989.8747482146442
 31
0.0
1001
AUTOCAD_POSTSCRIPT_FIGURE
1002
{
1000
PSFILL
1000
Grayscale
1000
Grayscale
1070
   100
1002
}
  0
LINE
  5
1838B
330
180F8
100
AcDbEntity
  8
YODOROGO
100
AcDbLine
 10
13908.80217064596
 20
989.8747482146442
 30
0.0
 11
13908.80217064596
 21
977.8747482146435
 31
0.0
1001
AUTOCAD_POSTSCRIPT_FIGURE
1002
{
1000
PSFILL
1000
Grayscale
1000
Grayscale
1070
   100
1002
}
  0
LINE
  5
1838C
330
180F8
100
AcDbEntity
  8
YODOROGO
100
AcDbLine
 10
13908.80217064596
 20
977.8747482146435
 30
0.0
 11
13924.80217064596
 21
977.8747482146435
 31
0.0
1001
AUTOCAD_POSTSCRIPT_FIGURE
1002
{
1000
PSFILL
1000
Grayscale
1000
Grayscale
1070
   100
1002
}
  0
LINE
  5
1838D
330
180F8
100
AcDbEntity
  8
YODOROGO
100
AcDbLine
 10
13924.80217064596
 20
977.8747482146435
 30
0.0
 11
13924.80217064596
 21
989.8747482146442
 31
0.0
1001
AUTOCAD_POSTSCRIPT_FIGURE
1002
{
1000
PSFILL
1000
Grayscale
1000
Grayscale
1070
   100
1002
}
  0
LINE
  5
1838E
330
180F8
100
AcDbEntity
  8
YODOROGO
100
AcDbLine
 10
13924.80217064596
 20
989.8747482146442
 30
0.0
 11
13932.80217064596
 21
989.8747482146442
 31
0.0
1001
AUTOCAD_POSTSCRIPT_FIGURE
1002
{
1000
PSFILL
1000
Grayscale
1000
Grayscale
1070
   100
1002
}
  0
LINE
  5
1838F
330
180F8
100
AcDbEntity
  8
YODOROGO
100
AcDbLine
 10
13932.80217064596
 20
989.8747482146442
 30
0.0
 11
13932.80217064596
 21
977.8747482146435
 31
0.0
1001
AUTOCAD_POSTSCRIPT_FIGURE
1002
{
1000
PSFILL
1000
Grayscale
1000
Grayscale
1070
   100
1002
}
  0
LINE
  5
18390
330
180F8
100
AcDbEntity
  8
YODOROGO
100
AcDbLine
 10
13932.80217064596
 20
977.8747482146435
 30
0.0
 11
13944.80217064596
 21
977.8747482146435
 31
0.0
1001
AUTOCAD_POSTSCRIPT_FIGURE
1002
{
1000
PSFILL
1000
Grayscale
1000
Grayscale
1070
   100
1002
}
  0
LINE
  5
18391
330
180F8
100
AcDbEntity
  8
YODOROGO
100
AcDbLine
 10
13944.80217064596
 20
977.8747482146435
 30
0.0
 11
13944.80217064596
 21
989.8747482146442
 31
0.0
1001
AUTOCAD_POSTSCRIPT_FIGURE
1002
{
1000
PSFILL
1000
Grayscale
1000
Grayscale
1070
   100
1002
}
  0
LINE
  5
18392
330
180F8
100
AcDbEntity
  8
YODOROGO
100
AcDbLine
 10
13944.80217064596
 20
989.8747482146442
 30
0.0
 11
13952.80217064596
 21
989.8747482146442
 31
0.0
1001
AUTOCAD_POSTSCRIPT_FIGURE
1002
{
1000
PSFILL
1000
Grayscale
1000
Grayscale
1070
   100
1002
}
  0
LINE
  5
18393
330
180F8
100
AcDbEntity
  8
YODOROGO
100
AcDbLine
 10
13952.80217064596
 20
989.8747482146442
 30
0.0
 11
13952.80217064596
 21
977.8747482146435
 31
0.0
1001
AUTOCAD_POSTSCRIPT_FIGURE
1002
{
1000
PSFILL
1000
Grayscale
1000
Grayscale
1070
   100
1002
}
  0
LINE
  5
18394
330
180F8
100
AcDbEntity
  8
YODOROGO
100
AcDbLine
 10
13952.80217064596
 20
977.8747482146435
 30
0.0
 11
13968.80217064596
 21
977.8747482146435
 31
0.0
1001
AUTOCAD_POSTSCRIPT_FIGURE
1002
{
1000
PSFILL
1000
Grayscale
1000
Grayscale
1070
   100
1002
}
  0
LINE
  5
18395
330
180F8
100
AcDbEntity
  8
YODOROGO
100
AcDbLine
 10
13968.80217064596
 20
977.8747482146435
 30
0.0
 11
13968.80217064596
 21
969.8747482146441
 31
0.0
1001
AUTOCAD_POSTSCRIPT_FIGURE
1002
{
1000
PSFILL
1000
Grayscale
1000
Grayscale
1070
   100
1002
}
  0
LINE
  5
18396
330
180F8
100
AcDbEntity
  8
YODOROGO
100
AcDbLine
 10
13968.80217064596
 20
969.8747482146441
 30
0.0
 11
13952.80217064596
 21
969.8747482146441
 31
0.0
1001
AUTOCAD_POSTSCRIPT_FIGURE
1002
{
1000
PSFILL
1000
Grayscale
1000
Grayscale
1070
   100
1002
}
  0
LINE
  5
18397
330
180F8
100
AcDbEntity
  8
YODOROGO
100
AcDbLine
 10
13952.80217064596
 20
969.8747482146441
 30
0.0
 11
13952.80217064596
 21
950.2841744681495
 31
0.0
1001
AUTOCAD_POSTSCRIPT_FIGURE
1002
{
1000
PSFILL
1000
Grayscale
1000
Grayscale
1070
   100
1002
}
  0
LINE
  5
18398
330
180F8
100
AcDbEntity
  8
YODOROGO
100
AcDbLine
 10
13952.80217064596
 20
950.2841744681495
 30
0.0
 11
13968.80217064596
 21
950.2841744681495
 31
0.0
1001
AUTOCAD_POSTSCRIPT_FIGURE
1002
{
1000
PSFILL
1000
Grayscale
1000
Grayscale
1070
   100
1002
}
  0
LINE
  5
18399
330
180F8
100
AcDbEntity
  8
YODOROGO
100
AcDbLine
 10
13968.80217064596
 20
950.2841744681495
 30
0.0
 11
13968.80217064596
 21
942.2841744681491
 31
0.0
1001
AUTOCAD_POSTSCRIPT_FIGURE
1002
{
1000
PSFILL
1000
Grayscale
1000
Grayscale
1070
   100
1002
}
  0
LINE
  5
1839A
330
180F8
100
AcDbEntity
  8
YODOROGO
100
AcDbLine
 10
13968.80217064596
 20
942.2841744681491
 30
0.0
 11
13952.80217064596
 21
942.2841744681502
 31
0.0
1001
AUTOCAD_POSTSCRIPT_FIGURE
1002
{
1000
PSFILL
1000
Grayscale
1000
Grayscale
1070
   100
1002
}
  0
LINE
  5
1839B
330
180F8
100
AcDbEntity
  8
YODOROGO
100
AcDbLine
 10
13952.80217064596
 20
942.2841744681502
 30
0.0
 11
13952.80217064596
 21
940.704506079404
 31
0.0
1001
AUTOCAD_POSTSCRIPT_FIGURE
1002
{
1000
PSFILL
1000
Grayscale
1000
Grayscale
1070
   100
1002
}
  0
LINE
  5
1839C
330
180F8
100
AcDbEntity
  8
YODOROGO
100
AcDbLine
 10
13952.80217064596
 20
940.704506079404
 30
0.0
 11
13968.80217064596
 21
906.4874905807087
 31
0.0
1001
AUTOCAD_POSTSCRIPT_FIGURE
1002
{
1000
PSFILL
1000
Grayscale
1000
Grayscale
1070
   100
1002
}
  0
LINE
  5
1839D
330
180F8
100
AcDbEntity
  8
YODOROGO
100
AcDbLine
 10
13968.80217064596
 20
906.4874905807087
 30
0.0
 11
13968.80217064596
 21
898.487490580708
 31
0.0
1001
AUTOCAD_POSTSCRIPT_FIGURE
1002
{
1000
PSFILL
1000
Grayscale
1000
Grayscale
1070
   100
1002
}
  0
LINE
  5
1839E
330
180F8
100
AcDbEntity
  8
YODOROGO
100
AcDbLine
 10
13968.80217064596
 20
898.487490580708
 30
0.0
 11
13952.80217064596
 21
924.7045060794032
 31
0.0
1001
AUTOCAD_POSTSCRIPT_FIGURE
1002
{
1000
PSFILL
1000
Grayscale
1000
Grayscale
1070
   100
1002
}
  0
LINE
  5
1839F
330
180F8
100
AcDbEntity
  8
YODOROGO
100
AcDbLine
 10
13952.80217064596
 20
924.7045060794032
 30
0.0
 11
13952.80217064596
 21
873.8747482146434
 31
0.0
1001
AUTOCAD_POSTSCRIPT_FIGURE
1002
{
1000
PSFILL
1000
Grayscale
1000
Grayscale
1070
   100
1002
}
  0
LINE
  5
183A0
330
180F8
100
AcDbEntity
  8
YODOROGO
100
AcDbLine
 10
13952.80217064596
 20
873.8747482146434
 30
0.0
 11
13944.80217064596
 21
873.8747482146434
 31
0.0
1001
AUTOCAD_POSTSCRIPT_FIGURE
1002
{
1000
PSFILL
1000
Grayscale
1000
Grayscale
1070
   100
1002
}
  0
LINE
  5
183A1
330
180F8
100
AcDbEntity
  8
YODOROGO
100
AcDbLine
 10
13944.80217064596
 20
873.8747482146434
 30
0.0
 11
13944.80217064596
 21
923.8095889822183
 31
0.0
1001
AUTOCAD_POSTSCRIPT_FIGURE
1002
{
1000
PSFILL
1000
Grayscale
1000
Grayscale
1070
   100
1002
}
  0
LINE
  5
183A2
330
180F8
100
AcDbEntity
  8
YODOROGO
100
AcDbLine
 10
13944.80217064596
 20
923.8095889822183
 30
0.0
 11
13924.80217064596
 21
898.487490580708
 31
0.0
1001
AUTOCAD_POSTSCRIPT_FIGURE
1002
{
1000
PSFILL
1000
Grayscale
1000
Grayscale
1070
   100
1002
}
  0
LINE
  5
183A3
330
180F8
100
AcDbEntity
  8
YODOROGO
100
AcDbLine
 10
13924.80217064596
 20
898.487490580708
 30
0.0
 11
13924.80217064596
 21
906.4874905807087
 31
0.0
1001
AUTOCAD_POSTSCRIPT_FIGURE
1002
{
1000
PSFILL
1000
Grayscale
1000
Grayscale
1070
   100
1002
}
  0
LINE
  5
183A4
330
180F8
100
AcDbEntity
  8
YODOROGO
100
AcDbLine
 10
13924.80217064596
 20
906.4874905807087
 30
0.0
 11
13944.80217064596
 21
939.8095889822196
 31
0.0
1001
AUTOCAD_POSTSCRIPT_FIGURE
1002
{
1000
PSFILL
1000
Grayscale
1000
Grayscale
1070
   100
1002
}
  0
LINE
  5
183A5
330
180F8
100
AcDbEntity
  8
YODOROGO
100
AcDbLine
 10
13944.80217064596
 20
939.8095889822196
 30
0.0
 11
13944.80217064596
 21
942.2841744681491
 31
0.0
1001
AUTOCAD_POSTSCRIPT_FIGURE
1002
{
1000
PSFILL
1000
Grayscale
1000
Grayscale
1070
   100
1002
}
  0
LINE
  5
183A6
330
180F8
100
AcDbEntity
  8
YODOROGO
100
AcDbLine
 10
13944.80217064596
 20
942.2841744681491
 30
0.0
 11
13928.80217064596
 21
942.2841744681491
 31
0.0
1001
AUTOCAD_POSTSCRIPT_FIGURE
1002
{
1000
PSFILL
1000
Grayscale
1000
Grayscale
1070
   100
1002
}
  0
LINE
  5
183A7
330
180F8
100
AcDbEntity
  8
YODOROGO
100
AcDbLine
 10
13928.80217064596
 20
942.2841744681491
 30
0.0
 11
13928.80217064596
 21
950.2841744681495
 31
0.0
1001
AUTOCAD_POSTSCRIPT_FIGURE
1002
{
1000
PSFILL
1000
Grayscale
1000
Grayscale
1070
   100
1002
}
  0
LINE
  5
183A8
330
180F8
100
AcDbEntity
  8
YODOROGO
100
AcDbLine
 10
13928.80217064596
 20
950.2841744681495
 30
0.0
 11
13944.80217064596
 21
950.2841744681495
 31
0.0
1001
AUTOCAD_POSTSCRIPT_FIGURE
1002
{
1000
PSFILL
1000
Grayscale
1000
Grayscale
1070
   100
1002
}
  0
LINE
  5
183A9
330
180F8
100
AcDbEntity
  8
YODOROGO
100
AcDbLine
 10
13944.80217064596
 20
950.2841744681495
 30
0.0
 11
13944.80217064596
 21
969.8747482146441
 31
0.0
1001
AUTOCAD_POSTSCRIPT_FIGURE
1002
{
1000
PSFILL
1000
Grayscale
1000
Grayscale
1070
   100
1002
}
  0
LINE
  5
183AA
330
180F8
100
AcDbEntity
  8
YODOROGO
100
AcDbLine
 10
13944.80217064596
 20
969.8747482146441
 30
0.0
 11
13908.80217064596
 21
969.8747482146441
 31
0.0
1001
AUTOCAD_POSTSCRIPT_FIGURE
1002
{
1000
PSFILL
1000
Grayscale
1000
Grayscale
1070
   100
1002
}
  0
LINE
  5
183AB
330
180F8
100
AcDbEntity
  8
YODOROGO
100
AcDbLine
 10
13908.80217064596
 20
969.8747482146441
 30
0.0
 11
13908.80217064596
 21
958.8856660426325
 31
0.0
1001
AUTOCAD_POSTSCRIPT_FIGURE
1002
{
1000
PSFILL
1000
Grayscale
1000
Grayscale
1070
   100
1002
}
  0
LINE
  5
183AC
330
180F8
100
AcDbEntity
  8
YODOROGO
100
AcDbLine
 10
13908.80217064596
 20
958.8856660426325
 30
0.0
 11
13920.80217064596
 21
941.8273791420681
 31
0.0
1001
AUTOCAD_POSTSCRIPT_FIGURE
1002
{
1000
PSFILL
1000
Grayscale
1000
Grayscale
1070
   100
1002
}
  0
LINE
  5
183AD
330
180F8
100
AcDbEntity
  8
YODOROGO
100
AcDbLine
 10
13920.80217064596
 20
941.8273791420681
 30
0.0
 11
13920.80217064596
 21
933.8273791420684
 31
0.0
1001
AUTOCAD_POSTSCRIPT_FIGURE
1002
{
1000
PSFILL
1000
Grayscale
1000
Grayscale
1070
   100
1002
}
  0
LINE
  5
183AE
330
180F8
100
AcDbEntity
  8
YODOROGO
100
AcDbLine
 10
13920.80217064596
 20
933.8273791420684
 30
0.0
 11
13908.80217064596
 21
946.8856660426332
 31
0.0
1001
AUTOCAD_POSTSCRIPT_FIGURE
1002
{
1000
PSFILL
1000
Grayscale
1000
Grayscale
1070
   100
1002
}
  0
LINE
  5
183AF
330
180F8
100
AcDbEntity
  8
YODOROGO
100
AcDbLine
 10
13908.80217064596
 20
946.8856660426332
 30
0.0
 11
13908.80217064596
 21
873.8747482146434
 31
0.0
1001
AUTOCAD_POSTSCRIPT_FIGURE
1002
{
1000
PSFILL
1000
Grayscale
1000
Grayscale
1070
   100
1002
}
  0
LINE
  5
183B0
330
180F8
100
AcDbEntity
  8
YODOROGO
100
AcDbLine
 10
13908.80217064596
 20
873.8747482146434
 30
0.0
 11
13900.80217064596
 21
873.8747482146434
 31
0.0
1001
AUTOCAD_POSTSCRIPT_FIGURE
1002
{
1000
PSFILL
1000
Grayscale
1000
Grayscale
1070
   100
1002
}
  0
LINE
  5
183B1
330
180F8
100
AcDbEntity
  8
YODOROGO
100
AcDbLine
 10
13900.80217064596
 20
873.8747482146434
 30
0.0
 11
13900.80217064596
 21
945.3932903968532
 31
0.0
1001
AUTOCAD_POSTSCRIPT_FIGURE
1002
{
1000
PSFILL
1000
Grayscale
1000
Grayscale
1070
   100
1002
}
  0
LINE
  5
183B2
330
180F8
100
AcDbEntity
  8
YODOROGO
100
AcDbLine
 10
13900.80217064596
 20
945.3932903968532
 30
0.0
 11
13888.80217064596
 21
921.8883739758362
 31
0.0
1001
AUTOCAD_POSTSCRIPT_FIGURE
1002
{
1000
PSFILL
1000
Grayscale
1000
Grayscale
1070
   100
1002
}
  0
LINE
  5
183B3
330
180F8
100
AcDbEntity
  8
YODOROGO
100
AcDbLine
 10
14172.80217064596
 20
833.8747482146439
 30
0.0
 11
14172.80217064596
 21
805.8747482146443
 31
0.0
  0
ARC
  5
183B4
330
180F8
100
AcDbEntity
  8
YODOROGO
100
AcDbCircle
 10
14117.87801537965
 20
816.7989034809512
 30
0.0
 40
55.99999999999901
100
AcDbArc
 50
281.2490582504167
 51
348.7509417495838
  0
LINE
  5
183B5
330
180F8
100
AcDbEntity
  8
YODOROGO
100
AcDbLine
 10
14128.80217064596
 20
761.8747482146434
 30
0.0
 11
14128.80217064596
 21
713.8747482146435
 31
0.0
  0
ARC
  5
183B6
330
180F8
100
AcDbEntity
  8
YODOROGO
100
AcDbCircle
 10
14112.97022107349
 20
800.438882662663
 30
0.0
 40
87.99999999999979
100
AcDbArc
 50
280.3644312771306
 51
3.541483659218113
  0
LINE
  5
183B7
330
180F8
100
AcDbEntity
  8
YODOROGO
100
AcDbLine
 10
14200.80217064594
 20
805.8747482146443
 30
0.0
 11
14200.80217064594
 21
833.8747482146439
 31
0.0
  0
LINE
  5
183B8
330
180F8
100
AcDbEntity
  8
YODOROGO
100
AcDbLine
 10
14200.80217064594
 20
833.8747482146439
 30
0.0
 11
14172.80217064596
 21
833.8747482146439
 31
0.0
  0
LINE
  5
183B9
330
180F8
100
AcDbEntity
  8
YODOROGO
100
AcDbLine
 10
13904.80217064596
 20
816.3859520216298
 30
0.0
 11
13952.80217064596
 21
816.3859520216298
 31
0.0
  0
LINE
  5
183BA
330
180F8
100
AcDbEntity
  8
YODOROGO
100
AcDbLine
 10
13952.80217064596
 20
816.3859520216298
 30
0.0
 11
13952.80217064596
 21
804.3859520216292
 31
0.0
  0
LINE
  5
183BB
330
180F8
100
AcDbEntity
  8
YODOROGO
100
AcDbLine
 10
13952.80217064596
 20
804.3859520216292
 30
0.0
 11
13904.80217064596
 21
804.3859520216292
 31
0.0
  0
LINE
  5
183BC
330
180F8
100
AcDbEntity
  8
YODOROGO
100
AcDbLine
 10
13904.80217064596
 20
804.3859520216292
 30
0.0
 11
13904.80217064596
 21
816.3859520216298
 31
0.0
  0
LINE
  5
183BD
330
180F8
100
AcDbEntity
  8
YODOROGO
100
AcDbLine
 10
13892.80217064596
 20
737.8747482146435
 30
0.0
 11
13964.80217064596
 21
737.8747482146435
 31
0.0
1001
AUTOCAD_POSTSCRIPT_FIGURE
1002
{
1000
PSFILL
1000
Grayscale
1000
Grayscale
1070
   100
1002
}
  0
LINE
  5
183BE
330
180F8
100
AcDbEntity
  8
YODOROGO
100
AcDbLine
 10
13964.80217064596
 20
737.8747482146435
 30
0.0
 11
13950.53250239547
 21
768.1169053488464
 31
0.0
1001
AUTOCAD_POSTSCRIPT_FIGURE
1002
{
1000
PSFILL
1000
Grayscale
1000
Grayscale
1070
   100
1002
}
  0
LINE
  5
183BF
330
180F8
100
AcDbEntity
  8
YODOROGO
100
AcDbLine
 10
13950.53250239547
 20
768.1169053488464
 30
0.0
 11
13942.53250239547
 21
768.1169053488464
 31
0.0
1001
AUTOCAD_POSTSCRIPT_FIGURE
1002
{
1000
PSFILL
1000
Grayscale
1000
Grayscale
1070
   100
1002
}
  0
LINE
  5
183C0
330
180F8
100
AcDbEntity
  8
YODOROGO
100
AcDbLine
 10
13942.53250239547
 20
768.1169053488464
 30
0.0
 11
13951.02739540432
 21
747.8747482146435
 31
0.0
1001
AUTOCAD_POSTSCRIPT_FIGURE
1002
{
1000
PSFILL
1000
Grayscale
1000
Grayscale
1070
   100
1002
}
  0
LINE
  5
183C1
330
180F8
100
AcDbEntity
  8
YODOROGO
100
AcDbLine
 10
13951.02739540432
 20
747.8747482146435
 30
0.0
 11
13907.77335914238
 21
747.8747482146435
 31
0.0
1001
AUTOCAD_POSTSCRIPT_FIGURE
1002
{
1000
PSFILL
1000
Grayscale
1000
Grayscale
1070
   100
1002
}
  0
LINE
  5
183C2
330
180F8
100
AcDbEntity
  8
YODOROGO
100
AcDbLine
 10
13907.77335914238
 20
747.8747482146435
 30
0.0
 11
13922.25479445786
 21
784.2514286852374
 31
0.0
1001
AUTOCAD_POSTSCRIPT_FIGURE
1002
{
1000
PSFILL
1000
Grayscale
1000
Grayscale
1070
   100
1002
}
  0
LINE
  5
183C3
330
180F8
100
AcDbEntity
  8
YODOROGO
100
AcDbLine
 10
13922.25479445786
 20
784.2514286852374
 30
0.0
 11
13968.80217064596
 21
784.2514286852374
 31
0.0
1001
AUTOCAD_POSTSCRIPT_FIGURE
1002
{
1000
PSFILL
1000
Grayscale
1000
Grayscale
1070
   100
1002
}
  0
LINE
  5
183C4
330
180F8
100
AcDbEntity
  8
YODOROGO
100
AcDbLine
 10
13968.80217064596
 20
784.2514286852374
 30
0.0
 11
13968.80217064596
 21
794.2514286852374
 31
0.0
1001
AUTOCAD_POSTSCRIPT_FIGURE
1002
{
1000
PSFILL
1000
Grayscale
1000
Grayscale
1070
   100
1002
}
  0
LINE
  5
183C5
330
180F8
100
AcDbEntity
  8
YODOROGO
100
AcDbLine
 10
13968.80217064596
 20
794.2514286852374
 30
0.0
 11
13888.80217064596
 21
794.2514286852374
 31
0.0
1001
AUTOCAD_POSTSCRIPT_FIGURE
1002
{
1000
PSFILL
1000
Grayscale
1000
Grayscale
1070
   100
1002
}
  0
LINE
  5
183C6
330
180F8
100
AcDbEntity
  8
YODOROGO
100
AcDbLine
 10
13888.80217064596
 20
794.2514286852374
 30
0.0
 11
13888.80217064596
 21
784.2514286852374
 31
0.0
1001
AUTOCAD_POSTSCRIPT_FIGURE
1002
{
1000
PSFILL
1000
Grayscale
1000
Grayscale
1070
   100
1002
}
  0
LINE
  5
183C7
330
180F8
100
AcDbEntity
  8
YODOROGO
100
AcDbLine
 10
13888.80217064596
 20
784.2514286852374
 30
0.0
 11
13912.25479445787
 21
784.2514286852374
 31
0.0
1001
AUTOCAD_POSTSCRIPT_FIGURE
1002
{
1000
PSFILL
1000
Grayscale
1000
Grayscale
1070
   100
1002
}
  0
LINE
  5
183C8
330
180F8
100
AcDbEntity
  8
YODOROGO
100
AcDbLine
 10
13912.25479445787
 20
784.2514286852374
 30
0.0
 11
13892.80217064596
 21
737.8747482146435
 31
0.0
1001
AUTOCAD_POSTSCRIPT_FIGURE
1002
{
1000
PSFILL
1000
Grayscale
1000
Grayscale
1070
   100
1002
}
  0
LINE
  5
183C9
330
180F8
100
AcDbEntity
  8
YODOROGO
100
AcDbLine
 10
13888.80217064596
 20
821.986207022285
 30
0.0
 11
13928.80217064596
 21
853.874748214644
 31
0.0
  0
LINE
  5
183CA
330
180F8
100
AcDbEntity
  8
YODOROGO
100
AcDbLine
 10
13928.80217064596
 20
853.874748214644
 30
0.0
 11
13968.80217064596
 21
821.986207022285
 31
0.0
  0
LINE
  5
183CB
330
180F8
100
AcDbEntity
  8
YODOROGO
100
AcDbLine
 10
13968.80217064596
 20
821.986207022285
 30
0.0
 11
13968.80217064596
 21
809.9862070222856
 31
0.0
  0
LINE
  5
183CC
330
180F8
100
AcDbEntity
  8
YODOROGO
100
AcDbLine
 10
13968.80217064596
 20
809.9862070222856
 30
0.0
 11
13928.80217064596
 21
841.8747482146445
 31
0.0
  0
LINE
  5
183CD
330
180F8
100
AcDbEntity
  8
YODOROGO
100
AcDbLine
 10
13928.80217064596
 20
841.8747482146445
 30
0.0
 11
13888.80217064596
 21
809.9862070222856
 31
0.0
  0
LINE
  5
183CE
330
180F8
100
AcDbEntity
  8
YODOROGO
100
AcDbLine
 10
13888.80217064596
 20
809.9862070222856
 30
0.0
 11
13888.80217064596
 21
821.986207022285
 31
0.0
  0
LINE
  5
183CF
330
180F8
100
AcDbEntity
  8
YODOROGO
100
AcDbLine
 10
14000.80217064596
 20
841.8747482146434
 30
0.0
 11
13988.80217064596
 21
841.8747482146434
 31
0.0
  0
LINE
  5
183D0
330
180F8
100
AcDbEntity
  8
YODOROGO
100
AcDbLine
 10
13988.80217064596
 20
841.8747482146434
 30
0.0
 11
13988.80217064596
 21
833.8747482146427
 31
0.0
  0
LINE
  5
183D1
330
180F8
100
AcDbEntity
  8
YODOROGO
100
AcDbLine
 10
13988.80217064596
 20
833.8747482146427
 30
0.0
 11
14012.91438714567
 21
833.8747482146427
 31
0.0
  0
LINE
  5
183D2
330
180F8
100
AcDbEntity
  8
YODOROGO
100
AcDbLine
 10
14012.91438714567
 20
833.8747482146427
 30
0.0
 11
13988.80217064596
 21
778.3840395167149
 31
0.0
  0
LINE
  5
183D3
330
180F8
100
AcDbEntity
  8
YODOROGO
100
AcDbLine
 10
13988.80217064596
 20
778.3840395167149
 30
0.0
 11
13988.80217064596
 21
766.3840395167142
 31
0.0
  0
LINE
  5
183D4
330
180F8
100
AcDbEntity
  8
YODOROGO
100
AcDbLine
 10
13988.80217064596
 20
766.3840395167142
 30
0.0
 11
14000.80217064596
 21
790.0026748448738
 31
0.0
  0
LINE
  5
183D5
330
180F8
100
AcDbEntity
  8
YODOROGO
100
AcDbLine
 10
14000.80217064596
 20
790.0026748448738
 30
0.0
 11
14000.80217064596
 21
737.8747482146435
 31
0.0
  0
LINE
  5
183D6
330
180F8
100
AcDbEntity
  8
YODOROGO
100
AcDbLine
 10
14000.80217064596
 20
737.8747482146435
 30
0.0
 11
14008.80217064596
 21
737.8747482146435
 31
0.0
  0
LINE
  5
183D7
330
180F8
100
AcDbEntity
  8
YODOROGO
100
AcDbLine
 10
14008.80217064596
 20
737.8747482146435
 30
0.0
 11
14008.80217064596
 21
792.6185318747651
 31
0.0
  0
LINE
  5
183D8
330
180F8
100
AcDbEntity
  8
YODOROGO
100
AcDbLine
 10
14008.80217064596
 20
792.6185318747651
 30
0.0
 11
14020.80217064596
 21
781.5602449741994
 31
0.0
  0
LINE
  5
183D9
330
180F8
100
AcDbEntity
  8
YODOROGO
100
AcDbLine
 10
14020.80217064596
 20
781.5602449741994
 30
0.0
 11
14020.80217064596
 21
791.5602449742006
 31
0.0
  0
LINE
  5
183DA
330
180F8
100
AcDbEntity
  8
YODOROGO
100
AcDbLine
 10
14020.80217064596
 20
791.5602449742006
 30
0.0
 11
14010.04445186845
 21
805.3252825309574
 31
0.0
  0
LINE
  5
183DB
330
180F8
100
AcDbEntity
  8
YODOROGO
100
AcDbLine
 10
14010.04445186845
 20
805.3252825309574
 30
0.0
 11
14020.45660200844
 21
829.874748214644
 31
0.0
  0
LINE
  5
183DC
330
180F8
100
AcDbEntity
  8
YODOROGO
100
AcDbLine
 10
14020.45660200844
 20
829.874748214644
 30
0.0
 11
14020.45660200844
 21
841.8747482146434
 31
0.0
  0
LINE
  5
183DD
330
180F8
100
AcDbEntity
  8
YODOROGO
100
AcDbLine
 10
14020.45660200844
 20
841.8747482146434
 30
0.0
 11
14008.80217064596
 21
841.8747482146434
 31
0.0
  0
LINE
  5
183DE
330
180F8
100
AcDbEntity
  8
YODOROGO
100
AcDbLine
 10
14008.80217064596
 20
841.8747482146434
 30
0.0
 11
14008.80217064596
 21
853.874748214644
 31
0.0
  0
LINE
  5
183DF
330
180F8
100
AcDbEntity
  8
YODOROGO
100
AcDbLine
 10
14008.80217064596
 20
853.874748214644
 30
0.0
 11
14000.80217064596
 21
853.874748214644
 31
0.0
  0
LINE
  5
183E0
330
180F8
100
AcDbEntity
  8
YODOROGO
100
AcDbLine
 10
14000.80217064596
 20
853.874748214644
 30
0.0
 11
14000.80217064596
 21
841.8747482146434
 31
0.0
  0
LINE
  5
183E1
330
180F8
100
AcDbEntity
  8
YODOROGO
100
AcDbLine
 10
14041.06776011546
 20
827.751818637328
 30
0.0
 11
14041.06776011546
 21
853.874748214644
 31
0.0
1001
AUTOCAD_POSTSCRIPT_FIGURE
1002
{
1000
PSFILL
1000
Grayscale
1000
Grayscale
1070
   100
1002
}
  0
LINE
  5
183E2
330
180F8
100
AcDbEntity
  8
YODOROGO
100
AcDbLine
 10
14041.06776011546
 20
853.874748214644
 30
0.0
 11
14049.06776011545
 21
853.874748214644
 31
0.0
1001
AUTOCAD_POSTSCRIPT_FIGURE
1002
{
1000
PSFILL
1000
Grayscale
1000
Grayscale
1070
   100
1002
}
  0
LINE
  5
183E3
330
180F8
100
AcDbEntity
  8
YODOROGO
100
AcDbLine
 10
14049.06776011545
 20
853.874748214644
 30
0.0
 11
14049.06776011545
 21
827.751818637328
 31
0.0
1001
AUTOCAD_POSTSCRIPT_FIGURE
1002
{
1000
PSFILL
1000
Grayscale
1000
Grayscale
1070
   100
1002
}
  0
LINE
  5
183E4
330
180F8
100
AcDbEntity
  8
YODOROGO
100
AcDbLine
 10
14049.06776011545
 20
827.751818637328
 30
0.0
 11
14068.80217064596
 21
827.751818637328
 31
0.0
1001
AUTOCAD_POSTSCRIPT_FIGURE
1002
{
1000
PSFILL
1000
Grayscale
1000
Grayscale
1070
   100
1002
}
  0
LINE
  5
183E5
330
180F8
100
AcDbEntity
  8
YODOROGO
100
AcDbLine
 10
14068.80217064596
 20
827.751818637328
 30
0.0
 11
14068.80217064596
 21
815.7518186373286
 31
0.0
1001
AUTOCAD_POSTSCRIPT_FIGURE
1002
{
1000
PSFILL
1000
Grayscale
1000
Grayscale
1070
   100
1002
}
  0
LINE
  5
183E6
330
180F8
100
AcDbEntity
  8
YODOROGO
100
AcDbLine
 10
14068.80217064596
 20
815.7518186373286
 30
0.0
 11
14049.06776011545
 21
815.7518186373286
 31
0.0
1001
AUTOCAD_POSTSCRIPT_FIGURE
1002
{
1000
PSFILL
1000
Grayscale
1000
Grayscale
1070
   100
1002
}
  0
LINE
  5
183E7
330
180F8
100
AcDbEntity
  8
YODOROGO
100
AcDbLine
 10
14049.06776011545
 20
815.7518186373286
 30
0.0
 11
14049.06776011545
 21
749.8747482146441
 31
0.0
1001
AUTOCAD_POSTSCRIPT_FIGURE
1002
{
1000
PSFILL
1000
Grayscale
1000
Grayscale
1070
   100
1002
}
  0
LINE
  5
183E8
330
180F8
100
AcDbEntity
  8
YODOROGO
100
AcDbLine
 10
14049.06776011545
 20
749.8747482146441
 30
0.0
 11
14068.80217064596
 21
749.8747482146441
 31
0.0
1001
AUTOCAD_POSTSCRIPT_FIGURE
1002
{
1000
PSFILL
1000
Grayscale
1000
Grayscale
1070
   100
1002
}
  0
LINE
  5
183E9
330
180F8
100
AcDbEntity
  8
YODOROGO
100
AcDbLine
 10
14068.80217064596
 20
749.8747482146441
 30
0.0
 11
14068.80217064596
 21
737.8747482146435
 31
0.0
1001
AUTOCAD_POSTSCRIPT_FIGURE
1002
{
1000
PSFILL
1000
Grayscale
1000
Grayscale
1070
   100
1002
}
  0
LINE
  5
183EA
330
180F8
100
AcDbEntity
  8
YODOROGO
100
AcDbLine
 10
14068.80217064596
 20
737.8747482146435
 30
0.0
 11
14025.06776011545
 21
737.8747482146435
 31
0.0
1001
AUTOCAD_POSTSCRIPT_FIGURE
1002
{
1000
PSFILL
1000
Grayscale
1000
Grayscale
1070
   100
1002
}
  0
LINE
  5
183EB
330
180F8
100
AcDbEntity
  8
YODOROGO
100
AcDbLine
 10
14025.06776011545
 20
737.8747482146435
 30
0.0
 11
14025.06776011545
 21
749.8747482146441
 31
0.0
1001
AUTOCAD_POSTSCRIPT_FIGURE
1002
{
1000
PSFILL
1000
Grayscale
1000
Grayscale
1070
   100
1002
}
  0
LINE
  5
183EC
330
180F8
100
AcDbEntity
  8
YODOROGO
100
AcDbLine
 10
14025.06776011545
 20
749.8747482146441
 30
0.0
 11
14041.06776011546
 21
749.8747482146441
 31
0.0
1001
AUTOCAD_POSTSCRIPT_FIGURE
1002
{
1000
PSFILL
1000
Grayscale
1000
Grayscale
1070
   100
1002
}
  0
LINE
  5
183ED
330
180F8
100
AcDbEntity
  8
YODOROGO
100
AcDbLine
 10
14041.06776011546
 20
749.8747482146441
 30
0.0
 11
14041.06776011546
 21
815.7518186373286
 31
0.0
1001
AUTOCAD_POSTSCRIPT_FIGURE
1002
{
1000
PSFILL
1000
Grayscale
1000
Grayscale
1070
   100
1002
}
  0
LINE
  5
183EE
330
180F8
100
AcDbEntity
  8
YODOROGO
100
AcDbLine
 10
14041.06776011546
 20
815.7518186373286
 30
0.0
 11
14025.06776011545
 21
815.7518186373286
 31
0.0
1001
AUTOCAD_POSTSCRIPT_FIGURE
1002
{
1000
PSFILL
1000
Grayscale
1000
Grayscale
1070
   100
1002
}
  0
LINE
  5
183EF
330
180F8
100
AcDbEntity
  8
YODOROGO
100
AcDbLine
 10
14025.06776011545
 20
815.7518186373286
 30
0.0
 11
14025.06776011545
 21
827.751818637328
 31
0.0
1001
AUTOCAD_POSTSCRIPT_FIGURE
1002
{
1000
PSFILL
1000
Grayscale
1000
Grayscale
1070
   100
1002
}
  0
LINE
  5
183F0
330
180F8
100
AcDbEntity
  8
YODOROGO
100
AcDbLine
 10
14025.06776011545
 20
827.751818637328
 30
0.0
 11
14041.06776011546
 21
827.751818637328
 31
0.0
1001
AUTOCAD_POSTSCRIPT_FIGURE
1002
{
1000
PSFILL
1000
Grayscale
1000
Grayscale
1070
   100
1002
}
  0
LINE
  5
183F1
330
180F8
100
AcDbEntity
  8
YODOROGO
100
AcDbLine
 10
14216.80217064594
 20
873.8747482146449
 30
0.0
 11
14292.80217064596
 21
873.8747482146449
 31
0.0
  0
LINE
  5
183F2
330
180F8
100
AcDbEntity
  8
YODOROGO
100
AcDbLine
 10
14292.80217064596
 20
873.8747482146449
 30
0.0
 11
14292.80217064596
 21
773.874748214644
 31
0.0
  0
ARC
  5
183F3
330
180F8
100
AcDbEntity
  8
YODOROGO
100
AcDbCircle
 10
14280.80217064596
 20
773.8747482146417
 30
0.0
 40
11.99999999999818
100
AcDbArc
 50
270.0000000000085
 51
0.0000000000097707
  0
LINE
  5
183F4
330
180F8
100
AcDbEntity
  8
YODOROGO
100
AcDbLine
 10
14280.80217064596
 20
761.8747482146434
 30
0.0
 11
14268.80217064594
 21
761.8747482146434
 31
0.0
  0
ARC
  5
183F5
330
180F8
100
AcDbEntity
  8
YODOROGO
100
AcDbCircle
 10
14268.80217064594
 20
781.8747482146434
 30
0.0
 40
20.0
100
AcDbArc
 50
180.0
 51
270.0
  0
LINE
  5
183F6
330
180F8
100
AcDbEntity
  8
YODOROGO
100
AcDbLine
 10
14248.80217064594
 20
781.8747482146434
 30
0.0
 11
14248.80217064594
 21
853.874748214644
 31
0.0
  0
LINE
  5
183F7
330
180F8
100
AcDbEntity
  8
YODOROGO
100
AcDbLine
 10
14248.80217064594
 20
853.874748214644
 30
0.0
 11
14216.80217064594
 21
853.874748214644
 31
0.0
  0
LINE
  5
183F8
330
180F8
100
AcDbEntity
  8
YODOROGO
100
AcDbLine
 10
14216.80217064594
 20
853.874748214644
 30
0.0
 11
14216.80217064594
 21
753.8747482146439
 31
0.0
  0
ARC
  5
183F9
330
180F8
100
AcDbEntity
  8
YODOROGO
100
AcDbCircle
 10
14256.80217064594
 20
753.8747482146439
 30
0.0
 40
40.0
100
AcDbArc
 50
180.0
 51
270.0
  0
LINE
  5
183FA
330
180F8
100
AcDbEntity
  8
YODOROGO
100
AcDbLine
 10
14256.80217064594
 20
713.8747482146435
 30
0.0
 11
14396.80217064594
 21
713.8747482146435
 31
0.0
  0
LINE
  5
183FB
330
180F8
100
AcDbEntity
  8
YODOROGO
100
AcDbLine
 10
14396.80217064594
 20
713.8747482146435
 30
0.0
 11
14396.80217064594
 21
761.8747482146434
 31
0.0
  0
LINE
  5
183FC
330
180F8
100
AcDbEntity
  8
YODOROGO
100
AcDbLine
 10
14396.80217064594
 20
761.8747482146434
 30
0.0
 11
14328.80217064594
 21
761.8747482146434
 31
0.0
  0
LINE
  5
183FD
330
180F8
100
AcDbEntity
  8
YODOROGO
100
AcDbLine
 10
14328.80217064594
 20
761.8747482146434
 30
0.0
 11
14328.80217064594
 21
801.8747482146444
 31
0.0
  0
LINE
  5
183FE
330
180F8
100
AcDbEntity
  8
YODOROGO
100
AcDbLine
 10
14328.80217064594
 20
801.8747482146444
 30
0.0
 11
14396.80217064594
 21
801.8747482146444
 31
0.0
  0
LINE
  5
183FF
330
180F8
100
AcDbEntity
  8
YODOROGO
100
AcDbLine
 10
14396.80217064594
 20
801.8747482146444
 30
0.0
 11
14396.80217064594
 21
833.8747482146439
 31
0.0
  0
LINE
  5
18400
330
180F8
100
AcDbEntity
  8
YODOROGO
100
AcDbLine
 10
14396.80217064594
 20
833.8747482146439
 30
0.0
 11
14328.80217064594
 21
833.8747482146439
 31
0.0
  0
LINE
  5
18401
330
180F8
100
AcDbEntity
  8
YODOROGO
100
AcDbLine
 10
14328.80217064594
 20
833.8747482146439
 30
0.0
 11
14328.80217064594
 21
873.8747482146449
 31
0.0
  0
LINE
  5
18402
330
180F8
100
AcDbEntity
  8
YODOROGO
100
AcDbLine
 10
14328.80217064594
 20
873.8747482146449
 30
0.0
 11
14396.80217064594
 21
873.8747482146449
 31
0.0
  0
LINE
  5
18403
330
180F8
100
AcDbEntity
  8
YODOROGO
100
AcDbLine
 10
14396.80217064594
 20
873.8747482146449
 30
0.0
 11
14396.80217064594
 21
909.8747482146439
 31
0.0
  0
LINE
  5
18404
330
180F8
100
AcDbEntity
  8
YODOROGO
100
AcDbLine
 10
14396.80217064594
 20
909.8747482146439
 30
0.0
 11
14216.80217064594
 21
909.8747482146439
 31
0.0
  0
LINE
  5
18405
330
180F8
100
AcDbEntity
  8
YODOROGO
100
AcDbLine
 10
14216.80217064594
 20
909.8747482146439
 30
0.0
 11
14216.80217064594
 21
873.8747482146449
 31
0.0
  0
LINE
  5
18406
330
180F8
100
AcDbEntity
  8
YODOROGO
100
AcDbLine
 10
14216.80217064594
 20
933.8747482146439
 30
0.0
 11
14216.80217064594
 21
993.8747482146439
 31
0.0
  0
LINE
  5
18407
330
180F8
100
AcDbEntity
  8
YODOROGO
100
AcDbLine
 10
14216.80217064594
 20
993.8747482146439
 30
0.0
 11
14292.80217064596
 21
993.8747482146439
 31
0.0
  0
LINE
  5
18408
330
180F8
100
AcDbEntity
  8
YODOROGO
100
AcDbLine
 10
14292.80217064596
 20
993.8747482146439
 30
0.0
 11
14292.80217064596
 21
1013.874748214644
 31
0.0
  0
LINE
  5
18409
330
180F8
100
AcDbEntity
  8
YODOROGO
100
AcDbLine
 10
14292.80217064596
 20
1013.874748214644
 30
0.0
 11
14328.80217064596
 21
1013.874748214644
 31
0.0
  0
LINE
  5
1840A
330
180F8
100
AcDbEntity
  8
YODOROGO
100
AcDbLine
 10
14328.80217064596
 20
1013.874748214644
 30
0.0
 11
14328.80217064596
 21
993.8747482146439
 31
0.0
  0
LINE
  5
1840B
330
180F8
100
AcDbEntity
  8
YODOROGO
100
AcDbLine
 10
14328.80217064596
 20
993.8747482146439
 30
0.0
 11
14376.80217064594
 21
993.8747482146439
 31
0.0
  0
ARC
  5
1840C
330
180F8
100
AcDbEntity
  8
YODOROGO
100
AcDbCircle
 10
14376.80217064594
 20
973.8747482146434
 30
0.0
 40
20.0
100
AcDbArc
 50
0.0
 51
90.0
  0
LINE
  5
1840D
330
180F8
100
AcDbEntity
  8
YODOROGO
100
AcDbLine
 10
14396.80217064594
 20
973.8747482146434
 30
0.0
 11
14396.80217064594
 21
933.8747482146439
 31
0.0
  0
LINE
  5
1840E
330
180F8
100
AcDbEntity
  8
YODOROGO
100
AcDbLine
 10
14396.80217064594
 20
933.8747482146439
 30
0.0
 11
14364.80217064596
 21
933.8747482146439
 31
0.0
  0
LINE
  5
1840F
330
180F8
100
AcDbEntity
  8
YODOROGO
100
AcDbLine
 10
14364.80217064596
 20
933.8747482146439
 30
0.0
 11
14364.80217064596
 21
961.8747482146432
 31
0.0
  0
LINE
  5
18410
330
180F8
100
AcDbEntity
  8
YODOROGO
100
AcDbLine
 10
14364.80217064596
 20
961.8747482146432
 30
0.0
 11
14248.80217064594
 21
961.8747482146432
 31
0.0
  0
LINE
  5
18411
330
180F8
100
AcDbEntity
  8
YODOROGO
100
AcDbLine
 10
14248.80217064594
 20
961.8747482146432
 30
0.0
 11
14248.80217064594
 21
933.8747482146439
 31
0.0
  0
LINE
  5
18412
330
180F8
100
AcDbEntity
  8
YODOROGO
100
AcDbLine
 10
14248.80217064594
 20
933.8747482146439
 30
0.0
 11
14216.80217064594
 21
933.8747482146439
 31
0.0
  0
LINE
  5
18413
330
180F8
100
AcDbEntity
  8
YODOROGO
100
AcDbLine
 10
14836.80217064596
 20
885.8747482146441
 30
0.0
 11
14882.80217064596
 21
885.8747482146441
 31
0.0
1001
AUTOCAD_POSTSCRIPT_FIGURE
1002
{
1000
PSFILL
1000
Grayscale
1000
Grayscale
1070
    25
1002
}
  0
LINE
  5
18414
330
180F8
100
AcDbEntity
  8
YODOROGO
100
AcDbLine
 10
14882.80217064596
 20
885.8747482146441
 30
0.0
 11
14882.80217064596
 21
853.874748214644
 31
0.0
1001
AUTOCAD_POSTSCRIPT_FIGURE
1002
{
1000
PSFILL
1000
Grayscale
1000
Grayscale
1070
    25
1002
}
  0
LINE
  5
18415
330
180F8
100
AcDbEntity
  8
YODOROGO
100
AcDbLine
 10
14882.80217064596
 20
853.874748214644
 30
0.0
 11
14914.80217064596
 21
853.874748214644
 31
0.0
1001
AUTOCAD_POSTSCRIPT_FIGURE
1002
{
1000
PSFILL
1000
Grayscale
1000
Grayscale
1070
    25
1002
}
  0
LINE
  5
18416
330
180F8
100
AcDbEntity
  8
YODOROGO
100
AcDbLine
 10
14914.80217064596
 20
853.874748214644
 30
0.0
 11
14914.80217064596
 21
885.8747482146441
 31
0.0
1001
AUTOCAD_POSTSCRIPT_FIGURE
1002
{
1000
PSFILL
1000
Grayscale
1000
Grayscale
1070
    25
1002
}
  0
LINE
  5
18417
330
180F8
100
AcDbEntity
  8
YODOROGO
100
AcDbLine
 10
14914.80217064596
 20
885.8747482146441
 30
0.0
 11
14960.80217064594
 21
885.8747482146441
 31
0.0
1001
AUTOCAD_POSTSCRIPT_FIGURE
1002
{
1000
PSFILL
1000
Grayscale
1000
Grayscale
1070
    25
1002
}
  0
LINE
  5
18418
330
180F8
100
AcDbEntity
  8
YODOROGO
100
AcDbLine
 10
14960.80217064594
 20
885.8747482146441
 30
0.0
 11
14960.80217064594
 21
853.874748214644
 31
0.0
1001
AUTOCAD_POSTSCRIPT_FIGURE
1002
{
1000
PSFILL
1000
Grayscale
1000
Grayscale
1070
    25
1002
}
  0
LINE
  5
18419
330
180F8
100
AcDbEntity
  8
YODOROGO
100
AcDbLine
 10
14960.80217064594
 20
853.874748214644
 30
0.0
 11
14988.80217064596
 21
853.874748214644
 31
0.0
1001
AUTOCAD_POSTSCRIPT_FIGURE
1002
{
1000
PSFILL
1000
Grayscale
1000
Grayscale
1070
    25
1002
}
  0
LINE
  5
1841A
330
180F8
100
AcDbEntity
  8
YODOROGO
100
AcDbLine
 10
14988.80217064596
 20
853.874748214644
 30
0.0
 11
14988.80217064596
 21
909.8747482146439
 31
0.0
1001
AUTOCAD_POSTSCRIPT_FIGURE
1002
{
1000
PSFILL
1000
Grayscale
1000
Grayscale
1070
    25
1002
}
  0
LINE
  5
1841B
330
180F8
100
AcDbEntity
  8
YODOROGO
100
AcDbLine
 10
14988.80217064596
 20
909.8747482146439
 30
0.0
 11
14914.80217064596
 21
909.8747482146439
 31
0.0
1001
AUTOCAD_POSTSCRIPT_FIGURE
1002
{
1000
PSFILL
1000
Grayscale
1000
Grayscale
1070
    25
1002
}
  0
LINE
  5
1841C
330
180F8
100
AcDbEntity
  8
YODOROGO
100
AcDbLine
 10
14914.80217064596
 20
909.8747482146439
 30
0.0
 11
14914.80217064596
 21
929.874748214644
 31
0.0
1001
AUTOCAD_POSTSCRIPT_FIGURE
1002
{
1000
PSFILL
1000
Grayscale
1000
Grayscale
1070
    25
1002
}
  0
LINE
  5
1841D
330
180F8
100
AcDbEntity
  8
YODOROGO
100
AcDbLine
 10
14914.80217064596
 20
929.874748214644
 30
0.0
 11
14988.80217064596
 21
929.874748214644
 31
0.0
1001
AUTOCAD_POSTSCRIPT_FIGURE
1002
{
1000
PSFILL
1000
Grayscale
1000
Grayscale
1070
    25
1002
}
  0
LINE
  5
1841E
330
180F8
100
AcDbEntity
  8
YODOROGO
100
AcDbLine
 10
14988.80217064596
 20
929.874748214644
 30
0.0
 11
14988.80217064596
 21
953.874748214644
 31
0.0
1001
AUTOCAD_POSTSCRIPT_FIGURE
1002
{
1000
PSFILL
1000
Grayscale
1000
Grayscale
1070
    25
1002
}
  0
LINE
  5
1841F
330
180F8
100
AcDbEntity
  8
YODOROGO
100
AcDbLine
 10
14988.80217064596
 20
953.874748214644
 30
0.0
 11
14914.80217064596
 21
953.874748214644
 31
0.0
1001
AUTOCAD_POSTSCRIPT_FIGURE
1002
{
1000
PSFILL
1000
Grayscale
1000
Grayscale
1070
    25
1002
}
  0
LINE
  5
18420
330
180F8
100
AcDbEntity
  8
YODOROGO
100
AcDbLine
 10
14914.80217064596
 20
953.874748214644
 30
0.0
 11
14914.80217064596
 21
973.8747482146434
 31
0.0
1001
AUTOCAD_POSTSCRIPT_FIGURE
1002
{
1000
PSFILL
1000
Grayscale
1000
Grayscale
1070
    25
1002
}
  0
LINE
  5
18421
330
180F8
100
AcDbEntity
  8
YODOROGO
100
AcDbLine
 10
14914.80217064596
 20
973.8747482146434
 30
0.0
 11
14988.80217064596
 21
973.8747482146434
 31
0.0
1001
AUTOCAD_POSTSCRIPT_FIGURE
1002
{
1000
PSFILL
1000
Grayscale
1000
Grayscale
1070
    25
1002
}
  0
LINE
  5
18422
330
180F8
100
AcDbEntity
  8
YODOROGO
100
AcDbLine
 10
14988.80217064596
 20
973.8747482146434
 30
0.0
 11
14988.80217064596
 21
997.8747482146435
 31
0.0
1001
AUTOCAD_POSTSCRIPT_FIGURE
1002
{
1000
PSFILL
1000
Grayscale
1000
Grayscale
1070
    25
1002
}
  0
LINE
  5
18423
330
180F8
100
AcDbEntity
  8
YODOROGO
100
AcDbLine
 10
14988.80217064596
 20
997.8747482146435
 30
0.0
 11
14914.80217064596
 21
997.8747482146435
 31
0.0
1001
AUTOCAD_POSTSCRIPT_FIGURE
1002
{
1000
PSFILL
1000
Grayscale
1000
Grayscale
1070
    25
1002
}
  0
LINE
  5
18424
330
180F8
100
AcDbEntity
  8
YODOROGO
100
AcDbLine
 10
14914.80217064596
 20
997.8747482146435
 30
0.0
 11
14914.80217064596
 21
1013.874748214644
 31
0.0
1001
AUTOCAD_POSTSCRIPT_FIGURE
1002
{
1000
PSFILL
1000
Grayscale
1000
Grayscale
1070
    25
1002
}
  0
LINE
  5
18425
330
180F8
100
AcDbEntity
  8
YODOROGO
100
AcDbLine
 10
14914.80217064596
 20
1013.874748214644
 30
0.0
 11
14882.80217064596
 21
1013.874748214644
 31
0.0
1001
AUTOCAD_POSTSCRIPT_FIGURE
1002
{
1000
PSFILL
1000
Grayscale
1000
Grayscale
1070
    25
1002
}
  0
LINE
  5
18426
330
180F8
100
AcDbEntity
  8
YODOROGO
100
AcDbLine
 10
14882.80217064596
 20
1013.874748214644
 30
0.0
 11
14882.80217064596
 21
997.8747482146435
 31
0.0
1001
AUTOCAD_POSTSCRIPT_FIGURE
1002
{
1000
PSFILL
1000
Grayscale
1000
Grayscale
1070
    25
1002
}
  0
LINE
  5
18427
330
180F8
100
AcDbEntity
  8
YODOROGO
100
AcDbLine
 10
14882.80217064596
 20
997.8747482146435
 30
0.0
 11
14832.80217064596
 21
997.8747482146435
 31
0.0
1001
AUTOCAD_POSTSCRIPT_FIGURE
1002
{
1000
PSFILL
1000
Grayscale
1000
Grayscale
1070
    25
1002
}
  0
LINE
  5
18428
330
180F8
100
AcDbEntity
  8
YODOROGO
100
AcDbLine
 10
14832.80217064596
 20
997.8747482146435
 30
0.0
 11
14832.80217064596
 21
1013.874748214644
 31
0.0
1001
AUTOCAD_POSTSCRIPT_FIGURE
1002
{
1000
PSFILL
1000
Grayscale
1000
Grayscale
1070
    25
1002
}
  0
LINE
  5
18429
330
180F8
100
AcDbEntity
  8
YODOROGO
100
AcDbLine
 10
14832.80217064596
 20
1013.874748214644
 30
0.0
 11
14808.80217064596
 21
1013.874748214644
 31
0.0
1001
AUTOCAD_POSTSCRIPT_FIGURE
1002
{
1000
PSFILL
1000
Grayscale
1000
Grayscale
1070
    25
1002
}
  0
LINE
  5
1842A
330
180F8
100
AcDbEntity
  8
YODOROGO
100
AcDbLine
 10
14808.80217064596
 20
1013.874748214644
 30
0.0
 11
14808.80217064596
 21
973.8747482146434
 31
0.0
1001
AUTOCAD_POSTSCRIPT_FIGURE
1002
{
1000
PSFILL
1000
Grayscale
1000
Grayscale
1070
    25
1002
}
  0
LINE
  5
1842B
330
180F8
100
AcDbEntity
  8
YODOROGO
100
AcDbLine
 10
14808.80217064596
 20
973.8747482146434
 30
0.0
 11
14882.80217064596
 21
973.8747482146434
 31
0.0
1001
AUTOCAD_POSTSCRIPT_FIGURE
1002
{
1000
PSFILL
1000
Grayscale
1000
Grayscale
1070
    25
1002
}
  0
LINE
  5
1842C
330
180F8
100
AcDbEntity
  8
YODOROGO
100
AcDbLine
 10
14882.80217064596
 20
973.8747482146434
 30
0.0
 11
14882.80217064596
 21
953.874748214644
 31
0.0
1001
AUTOCAD_POSTSCRIPT_FIGURE
1002
{
1000
PSFILL
1000
Grayscale
1000
Grayscale
1070
    25
1002
}
  0
LINE
  5
1842D
330
180F8
100
AcDbEntity
  8
YODOROGO
100
AcDbLine
 10
14882.80217064596
 20
953.874748214644
 30
0.0
 11
14808.80217064596
 21
953.874748214644
 31
0.0
1001
AUTOCAD_POSTSCRIPT_FIGURE
1002
{
1000
PSFILL
1000
Grayscale
1000
Grayscale
1070
    25
1002
}
  0
LINE
  5
1842E
330
180F8
100
AcDbEntity
  8
YODOROGO
100
AcDbLine
 10
14808.80217064596
 20
953.874748214644
 30
0.0
 11
14808.80217064596
 21
929.874748214644
 31
0.0
1001
AUTOCAD_POSTSCRIPT_FIGURE
1002
{
1000
PSFILL
1000
Grayscale
1000
Grayscale
1070
    25
1002
}
  0
LINE
  5
1842F
330
180F8
100
AcDbEntity
  8
YODOROGO
100
AcDbLine
 10
14808.80217064596
 20
929.874748214644
 30
0.0
 11
14882.80217064596
 21
929.874748214644
 31
0.0
1001
AUTOCAD_POSTSCRIPT_FIGURE
1002
{
1000
PSFILL
1000
Grayscale
1000
Grayscale
1070
    25
1002
}
  0
LINE
  5
18430
330
180F8
100
AcDbEntity
  8
YODOROGO
100
AcDbLine
 10
14882.80217064596
 20
929.874748214644
 30
0.0
 11
14882.80217064596
 21
909.8747482146439
 31
0.0
1001
AUTOCAD_POSTSCRIPT_FIGURE
1002
{
1000
PSFILL
1000
Grayscale
1000
Grayscale
1070
    25
1002
}
  0
LINE
  5
18431
330
180F8
100
AcDbEntity
  8
YODOROGO
100
AcDbLine
 10
14882.80217064596
 20
909.8747482146439
 30
0.0
 11
14808.80217064596
 21
909.8747482146439
 31
0.0
1001
AUTOCAD_POSTSCRIPT_FIGURE
1002
{
1000
PSFILL
1000
Grayscale
1000
Grayscale
1070
    25
1002
}
  0
LINE
  5
18432
330
180F8
100
AcDbEntity
  8
YODOROGO
100
AcDbLine
 10
14808.80217064596
 20
909.8747482146439
 30
0.0
 11
14808.80217064596
 21
853.874748214644
 31
0.0
1001
AUTOCAD_POSTSCRIPT_FIGURE
1002
{
1000
PSFILL
1000
Grayscale
1000
Grayscale
1070
    25
1002
}
  0
LINE
  5
18433
330
180F8
100
AcDbEntity
  8
YODOROGO
100
AcDbLine
 10
14808.80217064596
 20
853.874748214644
 30
0.0
 11
14836.80217064596
 21
853.874748214644
 31
0.0
1001
AUTOCAD_POSTSCRIPT_FIGURE
1002
{
1000
PSFILL
1000
Grayscale
1000
Grayscale
1070
    25
1002
}
  0
LINE
  5
18434
330
180F8
100
AcDbEntity
  8
YODOROGO
100
AcDbLine
 10
14836.80217064596
 20
853.874748214644
 30
0.0
 11
14836.80217064596
 21
885.8747482146441
 31
0.0
1001
AUTOCAD_POSTSCRIPT_FIGURE
1002
{
1000
PSFILL
1000
Grayscale
1000
Grayscale
1070
    25
1002
}
  0
LINE
  5
18435
330
180F8
100
AcDbEntity
  8
YODOROGO
100
AcDbLine
 10
14968.80217064596
 20
740.6696674577553
 30
0.0
 11
14968.80217064596
 21
797.2655452655705
 31
0.0
  0
ARC
  5
18436
330
180F8
100
AcDbEntity
  8
YODOROGO
100
AcDbCircle
 10
15127.17387491394
 20
903.9323046166312
 30
0.0
 40
190.9434321028236
100
AcDbArc
 50
213.9611167766784
 51
264.4787207431779
  0
LINE
  5
18437
330
180F8
100
AcDbEntity
  8
YODOROGO
100
AcDbLine
 10
15108.80217064596
 20
713.8747482146428
 30
0.0
 11
15108.80217064596
 21
773.874748214644
 31
0.0
  0
ARC
  5
18438
330
180F8
100
AcDbEntity
  8
YODOROGO
100
AcDbCircle
 10
15115.02941435022
 20
934.4428574765013
 30
0.0
 40
160.6888181426452
100
AcDbArc
 50
260.6062929797
 51
267.7790355655591
  0
LINE
  5
18439
330
180F8
100
AcDbEntity
  8
YODOROGO
100
AcDbLine
 10
15088.80217064596
 20
775.9088612367134
 30
0.0
 11
15094.80217064596
 21
801.8747482146444
 31
0.0
  0
LINE
  5
1843A
330
180F8
100
AcDbEntity
  8
YODOROGO
100
AcDbLine
 10
15094.80217064596
 20
801.8747482146444
 30
0.0
 11
15052.80217064596
 21
801.8747482146444
 31
0.0
  0
LINE
  5
1843B
330
180F8
100
AcDbEntity
  8
YODOROGO
100
AcDbLine
 10
15052.80217064596
 20
801.8747482146444
 30
0.0
 11
15048.80217064598
 21
788.0364079349501
 31
0.0
  0
ARC
  5
1843C
330
180F8
100
AcDbEntity
  8
YODOROGO
100
AcDbCircle
 10
15115.02941435068
 20
934.442857476448
 30
0.0
 40
160.6888181426116
100
AcDbArc
 50
228.6181454618984
 51
245.6602892489051
  0
LINE
  5
1843D
330
180F8
100
AcDbEntity
  8
YODOROGO
100
AcDbLine
 10
15008.80217064596
 20
813.8747482146435
 30
0.0
 11
15108.80217064596
 21
813.8747482146435
 31
0.0
  0
LINE
  5
1843E
330
180F8
100
AcDbEntity
  8
YODOROGO
100
AcDbLine
 10
15108.80217064596
 20
813.8747482146435
 30
0.0
 11
15108.80217064596
 21
833.8747482146439
 31
0.0
  0
LINE
  5
1843F
330
180F8
100
AcDbEntity
  8
YODOROGO
100
AcDbLine
 10
15108.80217064596
 20
833.8747482146439
 30
0.0
 11
14974.80217064595
 21
833.8747482146439
 31
0.0
  0
LINE
  5
18440
330
180F8
100
AcDbEntity
  8
YODOROGO
100
AcDbLine
 10
14974.80217064595
 20
833.8747482146439
 30
0.0
 11
14974.80217064595
 21
853.874748214644
 31
0.0
  0
LINE
  5
18441
330
180F8
100
AcDbEntity
  8
YODOROGO
100
AcDbLine
 10
14974.80217064595
 20
853.874748214644
 30
0.0
 11
14942.80217064596
 21
853.874748214644
 31
0.0
  0
LINE
  5
18442
330
180F8
100
AcDbEntity
  8
YODOROGO
100
AcDbLine
 10
14942.80217064596
 20
853.874748214644
 30
0.0
 11
14942.80217064596
 21
833.8747482146439
 31
0.0
  0
LINE
  5
18443
330
180F8
100
AcDbEntity
  8
YODOROGO
100
AcDbLine
 10
14942.80217064596
 20
833.8747482146439
 30
0.0
 11
14808.80217064596
 21
833.8747482146439
 31
0.0
  0
LINE
  5
18444
330
180F8
100
AcDbEntity
  8
YODOROGO
100
AcDbLine
 10
14808.80217064596
 20
833.8747482146439
 30
0.0
 11
14808.80217064596
 21
813.8747482146435
 31
0.0
  0
LINE
  5
18445
330
180F8
100
AcDbEntity
  8
YODOROGO
100
AcDbLine
 10
14808.80217064596
 20
813.8747482146435
 30
0.0
 11
14856.47231434973
 21
813.8747482146435
 31
0.0
  0
LINE
  5
18446
330
180F8
100
AcDbEntity
  8
YODOROGO
100
AcDbLine
 10
14856.47231434973
 20
813.8747482146435
 30
0.0
 11
14808.80217064596
 21
773.874748214644
 31
0.0
  0
LINE
  5
18447
330
180F8
100
AcDbEntity
  8
YODOROGO
100
AcDbLine
 10
14808.80217064596
 20
773.874748214644
 30
0.0
 11
14808.80217064596
 21
713.8747482146435
 31
0.0
  0
LINE
  5
18448
330
180F8
100
AcDbEntity
  8
YODOROGO
100
AcDbLine
 10
14808.80217064596
 20
713.8747482146435
 30
0.0
 11
14868.80217064596
 21
764.2207260852816
 31
0.0
  0
LINE
  5
18449
330
180F8
100
AcDbEntity
  8
YODOROGO
100
AcDbLine
 10
14868.80217064596
 20
764.2207260852816
 30
0.0
 11
14868.80217064596
 21
713.8747482146435
 31
0.0
  0
LINE
  5
1844A
330
180F8
100
AcDbEntity
  8
YODOROGO
100
AcDbLine
 10
14868.80217064596
 20
713.8747482146435
 30
0.0
 11
14968.80217064596
 21
740.6696674577553
 31
0.0
  0
LINE
  5
1844B
330
180F8
100
AcDbEntity
  8
YODOROGO
100
AcDbLine
 10
14888.80217064596
 20
813.8747482146435
 30
0.0
 11
14888.80217064596
 21
781.0027187088283
 31
0.0
  0
LINE
  5
1844C
330
180F8
100
AcDbEntity
  8
YODOROGO
100
AcDbLine
 10
14888.80217064596
 20
781.0027187088283
 30
0.0
 11
14885.70493649264
 21
778.403830673117
 31
0.0
  0
LINE
  5
1844D
330
180F8
100
AcDbEntity
  8
YODOROGO
100
AcDbLine
 10
14885.70493649264
 20
778.403830673117
 30
0.0
 11
14966.89206625426
 21
800.1578565285436
 31
0.0
  0
ARC
  5
1844E
330
180F8
100
AcDbEntity
  8
YODOROGO
100
AcDbCircle
 10
15127.17387491396
 20
903.9323046166616
 30
0.0
 40
190.9434321028459
100
AcDbArc
 50
208.1411442048688
 51
212.9210361186024
  0
LINE
  5
1844F
330
180F8
100
AcDbEntity
  8
YODOROGO
100
AcDbLine
 10
14958.80217064596
 20
813.8747482146435
 30
0.0
 11
14888.80217064596
 21
813.8747482146435
 31
0.0
  0
LINE
  5
18450
330
180F8
100
AcDbEntity
  8
YODOROGO
100
AcDbLine
 10
14968.80217064596
 20
740.6696674577553
 30
0.0
 11
14968.80217064596
 21
797.2655452655705
 31
0.0
  0
ARC
  5
18451
330
180F8
100
AcDbEntity
  8
YODOROGO
100
AcDbCircle
 10
15127.17387491394
 20
903.9323046166312
 30
0.0
 40
190.9434321028236
100
AcDbArc
 50
213.9611167766784
 51
264.4787207431779
  0
LINE
  5
18452
330
180F8
100
AcDbEntity
  8
YODOROGO
100
AcDbLine
 10
15108.80217064596
 20
713.8747482146428
 30
0.0
 11
15108.80217064596
 21
773.874748214644
 31
0.0
  0
ARC
  5
18453
330
180F8
100
AcDbEntity
  8
YODOROGO
100
AcDbCircle
 10
15115.02941435022
 20
934.4428574765013
 30
0.0
 40
160.6888181426452
100
AcDbArc
 50
260.6062929797
 51
267.7790355655591
  0
LINE
  5
18454
330
180F8
100
AcDbEntity
  8
YODOROGO
100
AcDbLine
 10
15088.80217064596
 20
775.9088612367134
 30
0.0
 11
15094.80217064596
 21
801.8747482146444
 31
0.0
  0
LINE
  5
18455
330
180F8
100
AcDbEntity
  8
YODOROGO
100
AcDbLine
 10
15094.80217064596
 20
801.8747482146444
 30
0.0
 11
15052.80217064596
 21
801.8747482146444
 31
0.0
  0
LINE
  5
18456
330
180F8
100
AcDbEntity
  8
YODOROGO
100
AcDbLine
 10
15052.80217064596
 20
801.8747482146444
 30
0.0
 11
15048.80217064598
 21
788.0364079349501
 31
0.0
  0
ARC
  5
18457
330
180F8
100
AcDbEntity
  8
YODOROGO
100
AcDbCircle
 10
15115.02941435068
 20
934.442857476448
 30
0.0
 40
160.6888181426116
100
AcDbArc
 50
228.6181454618984
 51
245.6602892489051
  0
LINE
  5
18458
330
180F8
100
AcDbEntity
  8
YODOROGO
100
AcDbLine
 10
15008.80217064596
 20
813.8747482146435
 30
0.0
 11
15108.80217064596
 21
813.8747482146435
 31
0.0
  0
LINE
  5
18459
330
180F8
100
AcDbEntity
  8
YODOROGO
100
AcDbLine
 10
15108.80217064596
 20
813.8747482146435
 30
0.0
 11
15108.80217064596
 21
833.8747482146439
 31
0.0
  0
LINE
  5
1845A
330
180F8
100
AcDbEntity
  8
YODOROGO
100
AcDbLine
 10
15108.80217064596
 20
833.8747482146439
 30
0.0
 11
14974.80217064595
 21
833.8747482146439
 31
0.0
  0
LINE
  5
1845B
330
180F8
100
AcDbEntity
  8
YODOROGO
100
AcDbLine
 10
14974.80217064595
 20
833.8747482146439
 30
0.0
 11
14974.80217064595
 21
853.874748214644
 31
0.0
  0
LINE
  5
1845C
330
180F8
100
AcDbEntity
  8
YODOROGO
100
AcDbLine
 10
14974.80217064595
 20
853.874748214644
 30
0.0
 11
14942.80217064596
 21
853.874748214644
 31
0.0
  0
LINE
  5
1845D
330
180F8
100
AcDbEntity
  8
YODOROGO
100
AcDbLine
 10
14942.80217064596
 20
853.874748214644
 30
0.0
 11
14942.80217064596
 21
833.8747482146439
 31
0.0
  0
LINE
  5
1845E
330
180F8
100
AcDbEntity
  8
YODOROGO
100
AcDbLine
 10
14942.80217064596
 20
833.8747482146439
 30
0.0
 11
14808.80217064596
 21
833.8747482146439
 31
0.0
  0
LINE
  5
1845F
330
180F8
100
AcDbEntity
  8
YODOROGO
100
AcDbLine
 10
14808.80217064596
 20
833.8747482146439
 30
0.0
 11
14808.80217064596
 21
813.8747482146435
 31
0.0
  0
LINE
  5
18460
330
180F8
100
AcDbEntity
  8
YODOROGO
100
AcDbLine
 10
14808.80217064596
 20
813.8747482146435
 30
0.0
 11
14856.47231434973
 21
813.8747482146435
 31
0.0
  0
LINE
  5
18461
330
180F8
100
AcDbEntity
  8
YODOROGO
100
AcDbLine
 10
14856.47231434973
 20
813.8747482146435
 30
0.0
 11
14808.80217064596
 21
773.874748214644
 31
0.0
  0
LINE
  5
18462
330
180F8
100
AcDbEntity
  8
YODOROGO
100
AcDbLine
 10
14808.80217064596
 20
773.874748214644
 30
0.0
 11
14808.80217064596
 21
713.8747482146435
 31
0.0
  0
LINE
  5
18463
330
180F8
100
AcDbEntity
  8
YODOROGO
100
AcDbLine
 10
14808.80217064596
 20
713.8747482146435
 30
0.0
 11
14868.80217064596
 21
764.2207260852816
 31
0.0
  0
LINE
  5
18464
330
180F8
100
AcDbEntity
  8
YODOROGO
100
AcDbLine
 10
14868.80217064596
 20
764.2207260852816
 30
0.0
 11
14868.80217064596
 21
713.8747482146435
 31
0.0
  0
LINE
  5
18465
330
180F8
100
AcDbEntity
  8
YODOROGO
100
AcDbLine
 10
14868.80217064596
 20
713.8747482146435
 30
0.0
 11
14968.80217064596
 21
740.6696674577553
 31
0.0
  0
LINE
  5
18466
330
180F8
100
AcDbEntity
  8
SUNPOU
100
AcDbLine
 10
3383.355455014498
 20
3367.084839419606
 30
0.0
 11
3377.453899250453
 21
3367.084839419606
 31
0.0
  0
LINE
  5
18467
330
180F8
100
AcDbEntity
  8
SUNPOU
100
AcDbLine
 10
4119.797051267464
 20
3447.084839419609
 30
0.0
 11
3377.453899250453
 21
3447.084839419609
 31
0.0
  0
LINE
  5
18468
330
180F8
100
AcDbEntity
  8
SUNPOU
100
AcDbLine
 10
3422.453899250454
 20
3347.084839419605
 30
0.0
 11
3422.453899250454
 21
3327.084839419605
 31
0.0
  0
LINE
  5
18469
330
180F8
100
AcDbEntity
  8
SUNPOU
100
AcDbLine
 10
3422.453899250454
 20
3467.084839419608
 30
0.0
 11
3422.453899250454
 21
3674.227696562466
 31
0.0
  0
LINE
  5
1846A
330
180F8
100
AcDbEntity
  8
SUNPOU
100
AcDbLine
 10
3422.453899250454
 20
3367.084839419606
 30
0.0
 11
3422.453899250454
 21
3447.084839419609
 31
0.0
  0
LINE
  5
1846B
330
180F8
100
AcDbEntity
  8
SUNPOU
100
AcDbLine
 10
3959.797051267461
 20
2679.084839419599
 30
0.0
 11
3835.443655266704
 21
2679.084839419599
 31
0.0
  0
LINE
  5
1846C
330
180F8
100
AcDbEntity
  8
SUNPOU
100
AcDbLine
 10
3959.797051267461
 20
2519.084839419599
 30
0.0
 11
3835.443655266704
 21
2519.084839419599
 31
0.0
  0
LINE
  5
1846D
330
180F8
100
AcDbEntity
  8
SUNPOU
100
AcDbLine
 10
3880.443655266704
 20
2659.084839419599
 30
0.0
 11
3880.443655266704
 21
2539.084839419599
 31
0.0
  0
LINE
  5
1846E
330
180F8
100
AcDbEntity
  8
SUNPOU
100
AcDbLine
 10
3880.443655266704
 20
2519.084839419599
 30
0.0
 11
3880.443655266704
 21
2263.370553705313
 31
0.0
  0
LINE
  5
1846F
330
180F8
100
AcDbEntity
  8
SUNPOU
100
AcDbLine
 10
4119.797051267464
 20
3447.084839419609
 30
0.0
 11
3600.10738270107
 21
3447.084839419609
 31
0.0
  0
LINE
  5
18470
330
180F8
100
AcDbEntity
  8
SUNPOU
100
AcDbLine
 10
3959.797051267461
 20
2519.084839419599
 30
0.0
 11
3600.10738270107
 21
2519.084839419599
 31
0.0
  0
LINE
  5
18471
330
180F8
100
AcDbEntity
  8
SUNPOU
100
AcDbLine
 10
3645.10738270107
 20
3427.084839419608
 30
0.0
 11
3645.10738270107
 21
2539.084839419599
 31
0.0
  0
LINE
  5
18472
330
180F8
100
AcDbEntity
  8
SUNPOU
100
AcDbLine
 10
7971.882670973586
 20
2679.084839419599
 30
0.0
 11
7421.741617209526
 21
2679.084839419599
 31
0.0
  0
LINE
  5
18473
330
180F8
100
AcDbEntity
  8
SUNPOU
100
AcDbLine
 10
7971.882670973586
 20
2519.084839419599
 30
0.0
 11
7421.741617209526
 21
2519.084839419599
 31
0.0
  0
LINE
  5
18474
330
180F8
100
AcDbEntity
  8
SUNPOU
100
AcDbLine
 10
7466.741617209526
 20
2659.084839419599
 30
0.0
 11
7466.741617209526
 21
2539.084839419599
 31
0.0
  0
LINE
  5
18475
330
180F8
100
AcDbEntity
  8
SUNPOU
100
AcDbLine
 10
7466.741617209526
 20
2519.084839419599
 30
0.0
 11
7466.741617209526
 21
2263.370553705313
 31
0.0
  0
LINE
  5
18476
330
180F8
100
AcDbEntity
  8
SUNPOU
100
AcDbLine
 10
7651.882670973588
 20
3447.084839419608
 30
0.0
 11
7192.333777508166
 21
3447.084839419608
 31
0.0
  0
LINE
  5
18477
330
180F8
100
AcDbEntity
  8
SUNPOU
100
AcDbLine
 10
7971.882670973586
 20
2519.084839419599
 30
0.0
 11
7192.333777508166
 21
2519.084839419599
 31
0.0
  0
LINE
  5
18478
330
180F8
100
AcDbEntity
  8
SUNPOU
100
AcDbLine
 10
7237.333777508168
 20
3427.084839419608
 30
0.0
 11
7237.333777508168
 21
2539.084839419599
 31
0.0
  0
ARC
  5
18479
330
180F8
100
AcDbEntity
  8
SUNPOU
  6
ByBlock
100
AcDbCircle
 10
7466.741617209526
 20
2679.0848394196
 30
0.0
 40
7.5
100
AcDbArc
 50
90.0
 51
270.0
  0
ARC
  5
1847A
330
180F8
100
AcDbEntity
  8
SUNPOU
  6
ByBlock
100
AcDbCircle
 10
7466.741617209526
 20
2679.0848394196
 30
0.0
 40
7.5
100
AcDbArc
 50
270.0
 51
90.0
  0
ARC
  5
1847B
330
180F8
100
AcDbEntity
  8
SUNPOU
  6
ByBlock
100
AcDbCircle
 10
7466.741617209526
 20
2679.0848394196
 30
0.0
 40
7.5
100
AcDbArc
 50
270.0
 51
90.0
  0
ARC
  5
1847C
330
180F8
100
AcDbEntity
  8
SUNPOU
  6
ByBlock
100
AcDbCircle
 10
7466.741617209526
 20
2679.0848394196
 30
0.0
 40
7.5
100
AcDbArc
 50
90.0
 51
270.0
  0
ARC
  5
1847D
330
180F8
100
AcDbEntity
  8
SUNPOU
  6
ByBlock
100
AcDbCircle
 10
3880.443655266704
 20
2679.0848394196
 30
0.0
 40
7.5
100
AcDbArc
 50
90.0
 51
270.0
  0
ARC
  5
1847E
330
180F8
100
AcDbEntity
  8
SUNPOU
  6
ByBlock
100
AcDbCircle
 10
3880.443655266704
 20
2679.0848394196
 30
0.0
 40
7.5
100
AcDbArc
 50
270.0
 51
90.0
  0
ARC
  5
1847F
330
180F8
100
AcDbEntity
  8
SUNPOU
  6
ByBlock
100
AcDbCircle
 10
3880.443655266704
 20
2679.0848394196
 30
0.0
 40
7.5
100
AcDbArc
 50
270.0
 51
90.0
  0
ARC
  5
18480
330
180F8
100
AcDbEntity
  8
SUNPOU
  6
ByBlock
100
AcDbCircle
 10
3880.443655266704
 20
2679.0848394196
 30
0.0
 40
7.5
100
AcDbArc
 50
90.0
 51
270.0
  0
LINE
  5
18481
330
180F8
100
AcDbEntity
  8
SUNPOU
  6
ByBlock
100
AcDbLine
 10
3880.443655266704
 20
3176.084839419596
 30
0.0
 11
3880.443655266704
 21
3161.084839419598
 31
0.0
  0
TEXT
  5
18482
330
180F8
100
AcDbEntity
  8
SUNPOU
100
AcDbText
 10
3835.443655266704
 20
3523.513410848181
 30
0.0
 40
90.0
  1
80
 50
90.0
 41
0.6666666666666666
  7
00
100
AcDbText
  0
LINE
  5
18483
330
180F8
100
AcDbEntity
  8
SUNPOU
  6
ByBlock
100
AcDbLine
 10
3880.443655266704
 20
3462.084839419608
 30
0.0
 11
3880.443655266704
 21
3477.084839419608
 31
0.0
  0
LINE
  5
18484
330
180F8
100
AcDbEntity
  8
SUNPOU
  6
ByBlock
100
AcDbLine
 10
3880.443655266704
 20
3304.0848394196
 30
0.0
 11
3880.443655266704
 21
3289.084839419599
 31
0.0
  0
TEXT
  5
18485
330
180F8
100
AcDbEntity
  8
SUNPOU
100
AcDbText
 10
3835.443655266704
 20
3197.941982276741
 30
0.0
 40
90.0
  1
80
 50
90.0
 41
0.6666666666666666
  7
00
100
AcDbText
  0
LINE
  5
18486
330
180F8
100
AcDbEntity
  8
SUNPOU
  6
ByBlock
100
AcDbLine
 10
3880.443655266705
 20
3176.084839419596
 30
0.0
 11
3880.443655266705
 21
3161.084839419598
 31
0.0
  0
LINE
  5
18487
330
180F8
100
AcDbEntity
  8
SUNPOU
  6
ByBlock
100
AcDbLine
 10
3880.443655266705
 20
3334.0848394196
 30
0.0
 11
3880.443655266705
 21
3349.0848394196
 31
0.0
  0
LINE
  5
18488
330
180F8
100
AcDbEntity
  8
SUNPOU
  6
ByBlock
100
AcDbLine
 10
7466.741617209526
 20
3176.084839419599
 30
0.0
 11
7466.741617209526
 21
3161.084839419599
 31
0.0
  0
TEXT
  5
18489
330
180F8
100
AcDbEntity
  8
SUNPOU
100
AcDbText
 10
7421.741617209526
 20
3523.513410848181
 30
0.0
 40
90.0
  1
80
 50
90.0
 41
0.6666666666666666
  7
00
100
AcDbText
  0
LINE
  5
1848A
330
180F8
100
AcDbEntity
  8
SUNPOU
  6
ByBlock
100
AcDbLine
 10
7466.741617209526
 20
3462.084839419608
 30
0.0
 11
7466.741617209526
 21
3477.084839419608
 31
0.0
  0
LINE
  5
1848B
330
180F8
100
AcDbEntity
  8
SUNPOU
  6
ByBlock
100
AcDbLine
 10
7466.741617209526
 20
3304.084839419604
 30
0.0
 11
7466.741617209526
 21
3289.084839419603
 31
0.0
  0
TEXT
  5
1848C
330
180F8
100
AcDbEntity
  8
SUNPOU
100
AcDbText
 10
7421.741617209526
 20
3197.941982276745
 30
0.0
 40
90.0
  1
80
 50
90.0
 41
0.6666666666666666
  7
00
100
AcDbText
  0
LINE
  5
1848D
330
180F8
100
AcDbEntity
  8
SUNPOU
  6
ByBlock
100
AcDbLine
 10
7466.741617209526
 20
3176.084839419599
 30
0.0
 11
7466.741617209526
 21
3161.084839419599
 31
0.0
  0
LINE
  5
1848E
330
180F8
100
AcDbEntity
  8
SUNPOU
  6
ByBlock
100
AcDbLine
 10
7466.741617209526
 20
3334.084839419603
 30
0.0
 11
7466.741617209526
 21
3349.084839419603
 31
0.0
  0
LINE
  5
1848F
330
180F8
100
AcDbEntity
  8
SUNPOU
100
AcDbLine
 10
6819.127507899648
 20
6668.693182432332
 30
0.0
 11
6819.127507899648
 21
6053.693182432332
 31
0.0
  0
LINE
  5
18490
330
180F8
100
AcDbEntity
  8
SUNPOU
100
AcDbLine
 10
10019.12750789964
 20
6668.693182432332
 30
0.0
 11
10019.12750789964
 21
6053.693182432332
 31
0.0
  0
LINE
  5
18491
330
180F8
100
AcDbEntity
  8
SUNPOU
100
AcDbLine
 10
6839.127507899648
 20
6098.693182432332
 30
0.0
 11
9999.127507899649
 21
6098.693182432332
 31
0.0
  0
LINE
  5
18492
330
180F8
100
AcDbEntity
  8
SUNPOU
100
AcDbLine
 10
9219.127507899647
 20
8403.693182432332
 30
0.0
 11
9219.127507899647
 21
8098.693182432333
 31
0.0
  0
LINE
  5
18493
330
180F8
100
AcDbEntity
  8
SUNPOU
100
AcDbLine
 10
10019.12750789965
 20
8403.693182432332
 30
0.0
 11
10019.12750789965
 21
8098.693182432333
 31
0.0
  0
LINE
  5
18494
330
180F8
100
AcDbEntity
  8
SUNPOU
100
AcDbLine
 10
9239.127507899649
 20
8143.693182432333
 30
0.0
 11
9999.127507899649
 21
8143.693182432333
 31
0.0
  0
LINE
  5
18495
330
180F8
100
AcDbEntity
  8
SUNPOU
100
AcDbLine
 10
9179.127507899648
 20
8443.693182432332
 30
0.0
 11
8874.127507899649
 21
8443.693182432332
 31
0.0
  0
LINE
  5
18496
330
180F8
100
AcDbEntity
  8
SUNPOU
100
AcDbLine
 10
9179.127507899648
 20
9243.693182432329
 30
0.0
 11
8874.127507899649
 21
9243.693182432329
 31
0.0
  0
LINE
  5
18497
330
180F8
100
AcDbEntity
  8
SUNPOU
100
AcDbLine
 10
8919.12750789965
 20
8463.693182432331
 30
0.0
 11
8919.12750789965
 21
9223.693182432331
 31
0.0
  0
LINE
  5
18498
330
180F8
100
AcDbEntity
  8
SUNPOU
100
AcDbLine
 10
9619.127507899648
 20
6468.693182432332
 30
0.0
 11
9619.127507899648
 21
6263.693182432332
 31
0.0
  0
LINE
  5
18499
330
180F8
100
AcDbEntity
  8
SUNPOU
100
AcDbLine
 10
10019.12750789964
 20
6668.693182432332
 30
0.0
 11
10019.12750789964
 21
6263.693182432332
 31
0.0
  0
LINE
  5
1849A
330
180F8
100
AcDbEntity
  8
SUNPOU
100
AcDbLine
 10
9639.127507899649
 20
6308.693182432332
 30
0.0
 11
9999.127507899649
 21
6308.693182432332
 31
0.0
  0
LINE
  5
1849B
330
180F8
100
AcDbEntity
  8
SUNPOU
100
AcDbLine
 10
7219.127507899648
 20
6468.693182432332
 30
0.0
 11
7219.127507899648
 21
6263.693182432332
 31
0.0
  0
LINE
  5
1849C
330
180F8
100
AcDbEntity
  8
SUNPOU
100
AcDbLine
 10
9619.127507899648
 20
6468.693182432332
 30
0.0
 11
9619.127507899648
 21
6263.693182432332
 31
0.0
  0
LINE
  5
1849D
330
180F8
100
AcDbEntity
  8
SUNPOU
100
AcDbLine
 10
7239.127507899649
 20
6308.693182432332
 30
0.0
 11
9599.127507899648
 21
6308.693182432332
 31
0.0
  0
LINE
  5
1849E
330
180F8
100
AcDbEntity
  8
SUNPOU
100
AcDbLine
 10
6819.127507899648
 20
6668.693182432332
 30
0.0
 11
6819.127507899648
 21
6263.693182432332
 31
0.0
  0
LINE
  5
1849F
330
180F8
100
AcDbEntity
  8
SUNPOU
100
AcDbLine
 10
7219.127507899648
 20
6468.693182432332
 30
0.0
 11
7219.127507899648
 21
6263.693182432332
 31
0.0
  0
LINE
  5
184A0
330
180F8
100
AcDbEntity
  8
SUNPOU
100
AcDbLine
 10
6839.127507899648
 20
6308.693182432332
 30
0.0
 11
7199.12750789965
 21
6308.693182432332
 31
0.0
  0
ARC
  5
184A1
330
180F8
100
AcDbEntity
  8
SUNPOU
100
AcDbCircle
 10
10269.12750789964
 20
9043.693182432328
 30
0.0
 40
5.625
100
AcDbArc
 50
270.0
 51
90.0
  0
ARC
  5
184A2
330
180F8
100
AcDbEntity
  8
SUNPOU
100
AcDbCircle
 10
10269.12750789964
 20
9043.693182432328
 30
0.0
 40
5.625
100
AcDbArc
 50
90.0
 51
270.0
  0
ARC
  5
184A3
330
180F8
100
AcDbEntity
  8
SUNPOU
100
AcDbCircle
 10
10269.12750789964
 20
8843.69318243233
 30
0.0
 40
5.625
100
AcDbArc
 50
90.0
 51
270.0
  0
ARC
  5
184A4
330
180F8
100
AcDbEntity
  8
SUNPOU
100
AcDbCircle
 10
10269.12750789964
 20
8843.69318243233
 30
0.0
 40
5.624999999998181
100
AcDbArc
 50
270.0
 51
90.0
  0
ARC
  5
184A5
330
180F8
100
AcDbEntity
  8
SUNPOU
100
AcDbCircle
 10
10269.12750789964
 20
8843.69318243233
 30
0.0
 40
5.624999999998181
100
AcDbArc
 50
270.0
 51
90.0
  0
ARC
  5
184A6
330
180F8
100
AcDbEntity
  8
SUNPOU
100
AcDbCircle
 10
10269.12750789964
 20
8843.69318243233
 30
0.0
 40
5.625
100
AcDbArc
 50
90.0
 51
270.0
  0
ARC
  5
184A7
330
180F8
100
AcDbEntity
  8
SUNPOU
100
AcDbCircle
 10
10479.12750789964
 20
9043.693182432328
 30
0.0
 40
5.625
100
AcDbArc
 50
270.0
 51
90.0
  0
ARC
  5
184A8
330
180F8
100
AcDbEntity
  8
SUNPOU
100
AcDbCircle
 10
10479.12750789964
 20
9043.693182432328
 30
0.0
 40
5.625
100
AcDbArc
 50
90.0
 51
270.0
  0
ARC
  5
184A9
330
180F8
100
AcDbEntity
  8
SUNPOU
100
AcDbCircle
 10
10269.12750789964
 20
7408.693182432331
 30
0.0
 40
5.625000000000907
100
AcDbArc
 50
270.0
 51
90.0
  0
ARC
  5
184AA
330
180F8
100
AcDbEntity
  8
SUNPOU
100
AcDbCircle
 10
10269.12750789964
 20
7408.693182432331
 30
0.0
 40
5.625
100
AcDbArc
 50
90.0
 51
270.0
  0
ARC
  5
184AB
330
180F8
100
AcDbEntity
  8
SUNPOU
100
AcDbCircle
 10
10269.12750789964
 20
7408.693182432331
 30
0.0
 40
5.625
100
AcDbArc
 50
90.0
 51
270.0
  0
ARC
  5
184AC
330
180F8
100
AcDbEntity
  8
SUNPOU
100
AcDbCircle
 10
10269.12750789964
 20
7408.693182432331
 30
0.0
 40
5.625000000000907
100
AcDbArc
 50
270.0
 51
90.0
  0
ARC
  5
184AD
330
180F8
100
AcDbEntity
  8
SUNPOU
100
AcDbCircle
 10
10269.12750789964
 20
6708.693182432331
 30
0.0
 40
5.625
100
AcDbArc
 50
90.0
 51
270.0
  0
ARC
  5
184AE
330
180F8
100
AcDbEntity
  8
SUNPOU
100
AcDbCircle
 10
10269.12750789964
 20
6708.693182432331
 30
0.0
 40
5.625
100
AcDbArc
 50
270.0
 51
90.0
  0
ARC
  5
184AF
330
180F8
100
AcDbEntity
  8
SUNPOU
100
AcDbCircle
 10
10479.12750789964
 20
6708.693182432331
 30
0.0
 40
5.625
100
AcDbArc
 50
90.0
 51
270.0
  0
ARC
  5
184B0
330
180F8
100
AcDbEntity
  8
SUNPOU
100
AcDbCircle
 10
10479.12750789964
 20
6708.693182432331
 30
0.0
 40
5.625
100
AcDbArc
 50
270.0
 51
90.0
  0
LINE
  5
184B1
330
180F8
100
AcDbEntity
  8
SUNPOU
100
AcDbLine
 10
11645.33837406209
 20
3726.33703658456
 30
0.0
 11
12318.40680314955
 21
3726.33703658456
 31
0.0
  0
LINE
  5
184B2
330
180F8
100
AcDbEntity
  8
SUNPOU
100
AcDbLine
 10
11645.33837406209
 20
3886.33703658456
 30
0.0
 11
12318.40680314955
 21
3886.33703658456
 31
0.0
  0
LINE
  5
184B3
330
180F8
100
AcDbEntity
  8
SUNPOU
100
AcDbLine
 10
12273.40680314955
 20
3746.337036584562
 30
0.0
 11
12273.40680314955
 21
3866.33703658456
 31
0.0
  0
LINE
  5
184B4
330
180F8
100
AcDbEntity
  8
SUNPOU
100
AcDbLine
 10
12273.40680314955
 20
3886.33703658456
 30
0.0
 11
12273.40680314955
 21
4093.479893727415
 31
0.0
  0
LINE
  5
184B5
330
180F8
100
AcDbEntity
  8
SUNPOU
100
AcDbLine
 10
11645.33837406209
 20
3726.33703658456
 30
0.0
 11
12318.40680314955
 21
3726.33703658456
 31
0.0
  0
LINE
  5
184B6
330
180F8
100
AcDbEntity
  8
SUNPOU
100
AcDbLine
 10
11901.33837406209
 20
3618.337036584561
 30
0.0
 11
12318.40680314955
 21
3618.337036584561
 31
0.0
  0
LINE
  5
184B7
330
180F8
100
AcDbEntity
  8
SUNPOU
100
AcDbLine
 10
12273.40680314955
 20
3746.337036584562
 30
0.0
 11
12273.40680314955
 21
3766.33703658456
 31
0.0
  0
LINE
  5
184B8
330
180F8
100
AcDbEntity
  8
SUNPOU
100
AcDbLine
 10
12273.40680314955
 20
3598.33703658456
 30
0.0
 11
12273.40680314955
 21
3391.194179441703
 31
0.0
  0
LINE
  5
184B9
330
180F8
100
AcDbEntity
  8
SUNPOU
100
AcDbLine
 10
12273.40680314955
 20
3726.33703658456
 30
0.0
 11
12273.40680314955
 21
3618.337036584561
 31
0.0
  0
LINE
  5
184BA
330
180F8
100
AcDbEntity
  8
SUNPOU
100
AcDbLine
 10
11781.33837406209
 20
2460.144344053149
 30
0.0
 11
11781.33837406209
 21
2200.804976716085
 31
0.0
  0
LINE
  5
184BB
330
180F8
100
AcDbEntity
  8
SUNPOU
100
AcDbLine
 10
11861.33837406209
 20
2500.144344053149
 30
0.0
 11
11861.33837406209
 21
2200.804976716085
 31
0.0
  0
LINE
  5
184BC
330
180F8
100
AcDbEntity
  8
SUNPOU
100
AcDbLine
 10
11761.33837406209
 20
2245.804976716085
 30
0.0
 11
11741.33837406209
 21
2245.804976716085
 31
0.0
  0
LINE
  5
184BD
330
180F8
100
AcDbEntity
  8
SUNPOU
100
AcDbLine
 10
11881.33837406209
 20
2245.804976716085
 30
0.0
 11
12088.48123120495
 21
2245.804976716085
 31
0.0
  0
LINE
  5
184BE
330
180F8
100
AcDbEntity
  8
SUNPOU
100
AcDbLine
 10
11781.33837406209
 20
2245.804976716085
 30
0.0
 11
11861.33837406209
 21
2245.804976716085
 31
0.0
  0
LINE
  5
184BF
330
180F8
100
AcDbEntity
  8
SUNPOU
100
AcDbLine
 10
11301.33837406211
 20
2460.144344053149
 30
0.0
 11
11301.33837406211
 21
2200.804976716085
 31
0.0
  0
LINE
  5
184C0
330
180F8
100
AcDbEntity
  8
SUNPOU
100
AcDbLine
 10
11781.33837406209
 20
2460.144344053149
 30
0.0
 11
11781.33837406209
 21
2200.804976716085
 31
0.0
  0
LINE
  5
184C1
330
180F8
100
AcDbEntity
  8
SUNPOU
100
AcDbLine
 10
11321.33837406211
 20
2245.804976716085
 30
0.0
 11
11761.33837406209
 21
2245.804976716085
 31
0.0
  0
LINE
  5
184C2
330
180F8
100
AcDbEntity
  8
SUNPOU
100
AcDbLine
 10
11301.33837406211
 20
2460.144344053149
 30
0.0
 11
11301.33837406211
 21
2200.804976716085
 31
0.0
  0
LINE
  5
184C3
330
180F8
100
AcDbEntity
  8
SUNPOU
100
AcDbLine
 10
11221.33837406209
 20
2500.144344053149
 30
0.0
 11
11221.33837406209
 21
2200.804976716085
 31
0.0
  0
LINE
  5
184C4
330
180F8
100
AcDbEntity
  8
SUNPOU
100
AcDbLine
 10
11321.33837406211
 20
2245.804976716085
 30
0.0
 11
11341.33837406211
 21
2245.804976716085
 31
0.0
  0
LINE
  5
184C5
330
180F8
100
AcDbEntity
  8
SUNPOU
100
AcDbLine
 10
11201.33837406209
 20
2245.804976716085
 30
0.0
 11
10994.19551691923
 21
2245.804976716085
 31
0.0
  0
LINE
  5
184C6
330
180F8
100
AcDbEntity
  8
SUNPOU
100
AcDbLine
 10
11301.33837406211
 20
2245.804976716085
 30
0.0
 11
11221.33837406209
 21
2245.804976716085
 31
0.0
  0
LINE
  5
184C7
330
180F8
100
AcDbEntity
  8
SUNPOU
100
AcDbLine
 10
11221.33837406209
 20
2500.144344053149
 30
0.0
 11
11221.33837406209
 21
1990.804976716086
 31
0.0
  0
LINE
  5
184C8
330
180F8
100
AcDbEntity
  8
SUNPOU
100
AcDbLine
 10
11861.33837406209
 20
2500.144344053149
 30
0.0
 11
11861.33837406209
 21
1990.804976716086
 31
0.0
  0
LINE
  5
184C9
330
180F8
100
AcDbEntity
  8
SUNPOU
100
AcDbLine
 10
11241.33837406209
 20
2035.804976716086
 30
0.0
 11
11841.33837406209
 21
2035.804976716086
 31
0.0
  0
LINE
  5
184CA
330
180F8
100
AcDbEntity
  8
SUNPOU
100
AcDbLine
 10
11185.33837406209
 20
2700.144344053149
 30
0.0
 11
10873.33837406209
 21
2700.144344053149
 31
0.0
  0
LINE
  5
184CB
330
180F8
100
AcDbEntity
  8
SUNPOU
100
AcDbLine
 10
11181.33837406209
 20
2540.144344053149
 30
0.0
 11
10873.33837406209
 21
2540.144344053149
 31
0.0
  0
LINE
  5
184CC
330
180F8
100
AcDbEntity
  8
SUNPOU
100
AcDbLine
 10
10918.33837406209
 20
2680.144344053149
 30
0.0
 11
10918.33837406209
 21
2560.144344053149
 31
0.0
  0
LINE
  5
184CD
330
180F8
100
AcDbEntity
  8
SUNPOU
100
AcDbLine
 10
10918.33837406209
 20
2540.144344053149
 30
0.0
 11
10918.33837406209
 21
2333.001486910292
 31
0.0
  0
LINE
  5
184CE
330
180F8
100
AcDbEntity
  8
SUNPOU
100
AcDbLine
 10
11185.33837406209
 20
2700.144344053149
 30
0.0
 11
10873.33837406209
 21
2700.144344053149
 31
0.0
  0
LINE
  5
184CF
330
180F8
100
AcDbEntity
  8
SUNPOU
100
AcDbLine
 10
11181.33837406209
 20
2860.144344053149
 30
0.0
 11
10873.33837406209
 21
2860.144344053149
 31
0.0
  0
LINE
  5
184D0
330
180F8
100
AcDbEntity
  8
SUNPOU
100
AcDbLine
 10
10918.33837406209
 20
2720.144344053149
 30
0.0
 11
10918.33837406209
 21
2840.144344053149
 31
0.0
  0
LINE
  5
184D1
330
180F8
100
AcDbEntity
  8
SUNPOU
100
AcDbLine
 10
10918.33837406209
 20
2860.144344053149
 30
0.0
 11
10918.33837406209
 21
3067.287201196007
 31
0.0
  0
LINE
  5
184D2
330
180F8
100
AcDbEntity
  8
SUNPOU
100
AcDbLine
 10
11181.33837406209
 20
2540.144344053149
 30
0.0
 11
10663.33837406209
 21
2540.144344053149
 31
0.0
  0
LINE
  5
184D3
330
180F8
100
AcDbEntity
  8
SUNPOU
100
AcDbLine
 10
11181.33837406209
 20
2860.144344053149
 30
0.0
 11
10663.33837406209
 21
2860.144344053149
 31
0.0
  0
LINE
  5
184D4
330
180F8
100
AcDbEntity
  8
SUNPOU
100
AcDbLine
 10
10708.33837406208
 20
2560.144344053149
 30
0.0
 11
10708.33837406208
 21
2840.144344053149
 31
0.0
  0
LINE
  5
184D5
330
180F8
100
AcDbEntity
  8
SUNPOU
100
AcDbLine
 10
11781.33837406209
 20
3538.337036584561
 30
0.0
 11
11781.33837406209
 21
3349.170862655058
 31
0.0
  0
LINE
  5
184D6
330
180F8
100
AcDbEntity
  8
SUNPOU
100
AcDbLine
 10
11861.33837406209
 20
3578.337036584561
 30
0.0
 11
11861.33837406209
 21
3349.170862655058
 31
0.0
  0
LINE
  5
184D7
330
180F8
100
AcDbEntity
  8
SUNPOU
100
AcDbLine
 10
11761.33837406209
 20
3394.170862655057
 30
0.0
 11
11741.33837406209
 21
3394.170862655057
 31
0.0
  0
LINE
  5
184D8
330
180F8
100
AcDbEntity
  8
SUNPOU
100
AcDbLine
 10
11881.33837406209
 20
3394.170862655057
 30
0.0
 11
12088.48123120495
 21
3394.170862655057
 31
0.0
  0
LINE
  5
184D9
330
180F8
100
AcDbEntity
  8
SUNPOU
100
AcDbLine
 10
11781.33837406209
 20
3394.170862655057
 30
0.0
 11
11861.33837406209
 21
3394.170862655057
 31
0.0
  0
LINE
  5
184DA
330
180F8
100
AcDbEntity
  8
SUNPOU
100
AcDbLine
 10
11301.33837406211
 20
3538.337036584561
 30
0.0
 11
11301.33837406211
 21
3349.170862655058
 31
0.0
  0
LINE
  5
184DB
330
180F8
100
AcDbEntity
  8
SUNPOU
100
AcDbLine
 10
11781.33837406209
 20
3538.337036584561
 30
0.0
 11
11781.33837406209
 21
3349.170862655058
 31
0.0
  0
LINE
  5
184DC
330
180F8
100
AcDbEntity
  8
SUNPOU
100
AcDbLine
 10
11321.33837406211
 20
3394.170862655057
 30
0.0
 11
11761.33837406209
 21
3394.170862655057
 31
0.0
  0
LINE
  5
184DD
330
180F8
100
AcDbEntity
  8
SUNPOU
100
AcDbLine
 10
11301.33837406211
 20
3538.337036584561
 30
0.0
 11
11301.33837406211
 21
3349.170862655058
 31
0.0
  0
LINE
  5
184DE
330
180F8
100
AcDbEntity
  8
SUNPOU
100
AcDbLine
 10
11221.33837406209
 20
3578.337036584561
 30
0.0
 11
11221.33837406209
 21
3349.170862655058
 31
0.0
  0
LINE
  5
184DF
330
180F8
100
AcDbEntity
  8
SUNPOU
100
AcDbLine
 10
11321.33837406211
 20
3394.170862655057
 30
0.0
 11
11341.33837406211
 21
3394.170862655057
 31
0.0
  0
LINE
  5
184E0
330
180F8
100
AcDbEntity
  8
SUNPOU
100
AcDbLine
 10
11201.33837406209
 20
3394.170862655057
 30
0.0
 11
10994.19551691923
 21
3394.170862655057
 31
0.0
  0
LINE
  5
184E1
330
180F8
100
AcDbEntity
  8
SUNPOU
100
AcDbLine
 10
11301.33837406211
 20
3394.170862655057
 30
0.0
 11
11221.33837406209
 21
3394.170862655057
 31
0.0
  0
LINE
  5
184E2
330
180F8
100
AcDbEntity
  8
SUNPOU
100
AcDbLine
 10
11221.33837406209
 20
3578.337036584561
 30
0.0
 11
11221.33837406209
 21
3139.170862655058
 31
0.0
  0
LINE
  5
184E3
330
180F8
100
AcDbEntity
  8
SUNPOU
100
AcDbLine
 10
11861.33837406209
 20
3578.337036584561
 30
0.0
 11
11861.33837406209
 21
3139.170862655058
 31
0.0
  0
LINE
  5
184E4
330
180F8
100
AcDbEntity
  8
SUNPOU
100
AcDbLine
 10
11241.33837406209
 20
3184.170862655058
 30
0.0
 11
11841.33837406209
 21
3184.170862655058
 31
0.0
  0
LINE
  5
184E5
330
180F8
100
AcDbEntity
  8
SUNPOU
100
AcDbLine
 10
8171.882670973586
 20
2639.0848394196
 30
0.0
 11
8171.882670973586
 21
2071.684839419599
 31
0.0
  0
LINE
  5
184E6
330
180F8
100
AcDbEntity
  8
SUNPOU
100
AcDbLine
 10
9451.882670973587
 20
2639.084839419599
 30
0.0
 11
9451.882670973587
 21
2071.684839419599
 31
0.0
  0
LINE
  5
184E7
330
180F8
100
AcDbEntity
  8
SUNPOU
100
AcDbLine
 10
8191.882670973587
 20
2116.684839419599
 30
0.0
 11
9431.882670973593
 21
2116.684839419599
 31
0.0
  0
LINE
  5
184E8
330
180F8
100
AcDbEntity
  8
SUNPOU
100
AcDbLine
 10
8011.882670973587
 20
2479.084839419599
 30
0.0
 11
8011.882670973587
 21
1861.684839419599
 31
0.0
  0
LINE
  5
184E9
330
180F8
100
AcDbEntity
  8
SUNPOU
100
AcDbLine
 10
9611.882670973589
 20
2479.084839419599
 30
0.0
 11
9611.882670973589
 21
1861.684839419599
 31
0.0
  0
LINE
  5
184EA
330
180F8
100
AcDbEntity
  8
SUNPOU
100
AcDbLine
 10
8031.882670973587
 20
1906.6848394196
 30
0.0
 11
9591.882670973587
 21
1906.6848394196
 31
0.0
  0
LINE
  5
184EB
330
180F8
100
AcDbEntity
  8
SUNPOU
100
AcDbLine
 10
7086.741617209526
 20
3367.084839419608
 30
0.0
 11
7091.741617209527
 21
3367.084839419608
 31
0.0
  0
LINE
  5
184EC
330
180F8
100
AcDbEntity
  8
SUNPOU
100
AcDbLine
 10
7651.882670973588
 20
3447.084839419609
 30
0.0
 11
7001.741617209528
 21
3447.084839419609
 31
0.0
  0
LINE
  5
184ED
330
180F8
100
AcDbEntity
  8
SUNPOU
100
AcDbLine
 10
7046.741617209526
 20
3347.084839419609
 30
0.0
 11
7046.741617209526
 21
3327.084839419608
 31
0.0
  0
LINE
  5
184EE
330
180F8
100
AcDbEntity
  8
SUNPOU
100
AcDbLine
 10
7046.741617209526
 20
3467.084839419608
 30
0.0
 11
7046.741617209526
 21
3674.227696562466
 31
0.0
  0
LINE
  5
184EF
330
180F8
100
AcDbEntity
  8
SUNPOU
100
AcDbLine
 10
7046.741617209526
 20
3367.084839419608
 30
0.0
 11
7046.741617209526
 21
3447.084839419609
 31
0.0
  0
LINE
  5
184F0
330
180F8
100
AcDbEntity
  8
SUNPOU
  6
ByBlock
100
AcDbLine
 10
10357.11317822383
 20
4130.485411556196
 30
0.0
 11
10297.11317822382
 21
4130.485411556196
 31
0.0
  0
LINE
  5
184F1
330
180F8
100
AcDbEntity
  8
SUNPOU
  6
ByBlock
100
AcDbLine
 10
10357.11317822382
 20
4130.485411556196
 30
0.0
 11
10297.11317822382
 21
4146.562363102066
 31
0.0
  0
LINE
  5
184F2
330
180F8
100
AcDbEntity
  8
SUNPOU
  6
ByBlock
100
AcDbLine
 10
10357.11317822383
 20
4130.485411556196
 30
0.0
 11
10297.11317822382
 21
4114.408460010326
 31
0.0
  0
LINE
  5
184F3
330
180F8
100
AcDbEntity
  8
SUNPOU
  6
ByBlock
100
AcDbLine
 10
10297.11317822383
 20
4130.485411556196
 30
0.0
 11
10237.11317822382
 21
4130.485411556196
 31
0.0
  0
LINE
  5
184F4
330
180F8
100
AcDbEntity
  8
SUNPOU
  6
ByBlock
100
AcDbLine
 10
10297.11317822382
 20
4130.485411556196
 30
0.0
 11
10237.11317822382
 21
4146.562363102066
 31
0.0
  0
LINE
  5
184F5
330
180F8
100
AcDbEntity
  8
SUNPOU
  6
ByBlock
100
AcDbLine
 10
10297.11317822383
 20
4130.485411556196
 30
0.0
 11
10237.11317822382
 21
4114.408460010326
 31
0.0
  0
LINE
  5
184F6
330
180F8
100
AcDbEntity
  8
SUNPOU
100
AcDbLine
 10
8811.882670973586
 20
4170.485411556195
 30
0.0
 11
8811.882670973586
 21
4175.485411556193
 31
0.0
  0
LINE
  5
184F7
330
180F8
100
AcDbEntity
  8
SUNPOU
100
AcDbLine
 10
7691.882670973587
 20
3487.084839419608
 30
0.0
 11
7691.882670973587
 21
4175.485411556193
 31
0.0
  0
LINE
  5
184F8
330
180F8
100
AcDbEntity
  8
SUNPOU
100
AcDbLine
 10
8791.882670973585
 20
4130.485411556196
 30
0.0
 11
7711.882670973587
 21
4130.485411556196
 31
0.0
  0
LINE
  5
184F9
330
180F8
100
AcDbEntity
  8
SUNPOU
100
AcDbLine
 10
4159.797051267463
 20
2639.0848394196
 30
0.0
 11
4159.797051267463
 21
2071.684839419598
 31
0.0
  0
LINE
  5
184FA
330
180F8
100
AcDbEntity
  8
SUNPOU
100
AcDbLine
 10
5439.797051267463
 20
2639.0848394196
 30
0.0
 11
5439.797051267463
 21
2071.684839419598
 31
0.0
  0
LINE
  5
184FB
330
180F8
100
AcDbEntity
  8
SUNPOU
100
AcDbLine
 10
4179.797051267462
 20
2116.684839419598
 30
0.0
 11
5419.797051267463
 21
2116.684839419598
 31
0.0
  0
LINE
  5
184FC
330
180F8
100
AcDbEntity
  8
SUNPOU
100
AcDbLine
 10
3999.797051267461
 20
2479.084839419599
 30
0.0
 11
3999.797051267461
 21
1861.684839419599
 31
0.0
  0
LINE
  5
184FD
330
180F8
100
AcDbEntity
  8
SUNPOU
100
AcDbLine
 10
5599.797051267461
 20
2479.084839419599
 30
0.0
 11
5599.797051267461
 21
1861.684839419599
 31
0.0
  0
LINE
  5
184FE
330
180F8
100
AcDbEntity
  8
SUNPOU
100
AcDbLine
 10
4019.797051267461
 20
1906.684839419597
 30
0.0
 11
5579.797051267461
 21
1906.684839419597
 31
0.0
  0
LINE
  5
184FF
330
180F8
100
AcDbEntity
  8
SUNPOU
  6
ByBlock
100
AcDbLine
 10
6345.027558517712
 20
4130.485411556192
 30
0.0
 11
6285.0275585177
 21
4130.485411556192
 31
0.0
  0
LINE
  5
18500
330
180F8
100
AcDbEntity
  8
SUNPOU
  6
ByBlock
100
AcDbLine
 10
6345.027558517706
 20
4130.485411556192
 30
0.0
 11
6285.027558517706
 21
4146.562363102062
 31
0.0
  0
LINE
  5
18501
330
180F8
100
AcDbEntity
  8
SUNPOU
  6
ByBlock
100
AcDbLine
 10
6345.027558517712
 20
4130.485411556192
 30
0.0
 11
6285.0275585177
 21
4114.408460010323
 31
0.0
  0
LINE
  5
18502
330
180F8
100
AcDbEntity
  8
SUNPOU
  6
ByBlock
100
AcDbLine
 10
6285.027558517714
 20
4130.485411556192
 30
0.0
 11
6225.027558517702
 21
4130.485411556192
 31
0.0
  0
LINE
  5
18503
330
180F8
100
AcDbEntity
  8
SUNPOU
  6
ByBlock
100
AcDbLine
 10
6285.027558517706
 20
4130.485411556192
 30
0.0
 11
6225.027558517706
 21
4146.562363102062
 31
0.0
  0
LINE
  5
18504
330
180F8
100
AcDbEntity
  8
SUNPOU
  6
ByBlock
100
AcDbLine
 10
6285.027558517714
 20
4130.485411556192
 30
0.0
 11
6225.027558517702
 21
4114.408460010323
 31
0.0
  0
LINE
  5
18505
330
180F8
100
AcDbEntity
  8
SUNPOU
100
AcDbLine
 10
4799.797051267463
 20
4170.485411556192
 30
0.0
 11
4799.797051267463
 21
4175.485411556191
 31
0.0
  0
LINE
  5
18506
330
180F8
100
AcDbEntity
  8
SUNPOU
100
AcDbLine
 10
4159.797051267463
 20
3487.084839419608
 30
0.0
 11
4159.797051267463
 21
4175.485411556191
 31
0.0
  0
LINE
  5
18507
330
180F8
100
AcDbEntity
  8
SUNPOU
100
AcDbLine
 10
4779.797051267464
 20
4130.485411556192
 30
0.0
 11
4179.797051267462
 21
4130.485411556192
 31
0.0
  0
TEXT
  5
18508
330
180F8
100
AcDbEntity
  8
SUNPOU
100
AcDbText
 10
3377.453899250453
 20
3523.513410848181
 30
0.0
 40
90.0
  1
50
 50
90.0
 41
0.6666666666666666
  7
00
100
AcDbText
  0
LINE
  5
18509
330
180F8
100
AcDbEntity
  8
SUNPOU
  6
ByBlock
100
AcDbLine
 10
3422.453899250454
 20
3462.084839419608
 30
0.0
 11
3422.453899250454
 21
3477.084839419608
 31
0.0
  0
LINE
  5
1850A
330
180F8
100
AcDbEntity
  8
SUNPOU
  6
ByBlock
100
AcDbLine
 10
3422.453899250454
 20
3352.084839419605
 30
0.0
 11
3422.453899250454
 21
3337.084839419605
 31
0.0
  0
TEXT
  5
1850B
330
180F8
100
AcDbEntity
  8
SUNPOU
100
AcDbText
 10
3835.443655266704
 20
2291.227696562457
 30
0.0
 40
90.0
  1
100
 50
90.0
 41
0.6666666666666666
  7
00
100
AcDbText
  0
LINE
  5
1850C
330
180F8
100
AcDbEntity
  8
SUNPOU
  6
ByBlock
100
AcDbLine
 10
3880.443655266704
 20
2534.084839419599
 30
0.0
 11
3880.443655266704
 21
2549.084839419599
 31
0.0
  0
LINE
  5
1850D
330
180F8
100
AcDbEntity
  8
SUNPOU
  6
ByBlock
100
AcDbLine
 10
3880.443655266704
 20
2664.084839419599
 30
0.0
 11
3880.443655266704
 21
2649.084839419599
 31
0.0
  0
TEXT
  5
1850E
330
180F8
100
AcDbEntity
  8
SUNPOU
100
AcDbText
 10
3600.107382701068
 20
2897.370553705319
 30
0.0
 40
90.0
  1
580
 50
90.0
 41
0.6666666666666666
  7
00
100
AcDbText
  0
LINE
  5
1850F
330
180F8
100
AcDbEntity
  8
SUNPOU
  6
ByBlock
100
AcDbLine
 10
3645.10738270107
 20
2534.084839419599
 30
0.0
 11
3645.10738270107
 21
2549.084839419599
 31
0.0
  0
LINE
  5
18510
330
180F8
100
AcDbEntity
  8
SUNPOU
  6
ByBlock
100
AcDbLine
 10
3645.10738270107
 20
3432.084839419609
 30
0.0
 11
3645.10738270107
 21
3417.084839419608
 31
0.0
  0
TEXT
  5
18511
330
180F8
100
AcDbEntity
  8
SUNPOU
100
AcDbText
 10
7421.741617209526
 20
2291.227696562457
 30
0.0
 40
90.0
  1
100
 50
90.0
 41
0.6666666666666666
  7
00
100
AcDbText
  0
LINE
  5
18512
330
180F8
100
AcDbEntity
  8
SUNPOU
  6
ByBlock
100
AcDbLine
 10
7466.741617209526
 20
2534.084839419599
 30
0.0
 11
7466.741617209526
 21
2549.084839419599
 31
0.0
  0
LINE
  5
18513
330
180F8
100
AcDbEntity
  8
SUNPOU
  6
ByBlock
100
AcDbLine
 10
7466.741617209526
 20
2664.084839419599
 30
0.0
 11
7466.741617209526
 21
2649.084839419599
 31
0.0
  0
TEXT
  5
18514
330
180F8
100
AcDbEntity
  8
SUNPOU
100
AcDbText
 10
7192.333777508166
 20
2897.370553705319
 30
0.0
 40
90.0
  1
580
 50
90.0
 41
0.6666666666666666
  7
00
100
AcDbText
  0
LINE
  5
18515
330
180F8
100
AcDbEntity
  8
SUNPOU
  6
ByBlock
100
AcDbLine
 10
7237.333777508168
 20
2534.084839419599
 30
0.0
 11
7237.333777508168
 21
2549.084839419599
 31
0.0
  0
LINE
  5
18516
330
180F8
100
AcDbEntity
  8
SUNPOU
  6
ByBlock
100
AcDbLine
 10
7237.333777508168
 20
3432.084839419609
 30
0.0
 11
7237.333777508168
 21
3417.084839419608
 31
0.0
  0
ARC
  5
18517
330
180F8
100
AcDbEntity
  8
SUNPOU
  6
ByBlock
100
AcDbCircle
 10
3880.443655266704
 20
3191.084839419597
 30
0.0
 40
7.5
100
AcDbArc
 50
270.0
 51
90.0
  0
ARC
  5
18518
330
180F8
100
AcDbEntity
  8
SUNPOU
  6
ByBlock
100
AcDbCircle
 10
3880.443655266704
 20
3191.084839419597
 30
0.0
 40
7.5
100
AcDbArc
 50
90.0
 51
270.0
  0
ARC
  5
18519
330
180F8
100
AcDbEntity
  8
SUNPOU
  6
ByBlock
100
AcDbCircle
 10
3880.443655266704
 20
3447.084839419609
 30
0.0
 40
7.5
100
AcDbArc
 50
90.0
 51
270.0
  0
ARC
  5
1851A
330
180F8
100
AcDbEntity
  8
SUNPOU
  6
ByBlock
100
AcDbCircle
 10
3880.443655266704
 20
3447.084839419609
 30
0.0
 40
7.5
100
AcDbArc
 50
270.0
 51
90.0
  0
ARC
  5
1851B
330
180F8
100
AcDbEntity
  8
SUNPOU
  6
ByBlock
100
AcDbCircle
 10
3880.443655266704
 20
3319.084839419601
 30
0.0
 40
7.5
100
AcDbArc
 50
270.0
 51
90.0
  0
ARC
  5
1851C
330
180F8
100
AcDbEntity
  8
SUNPOU
  6
ByBlock
100
AcDbCircle
 10
3880.443655266704
 20
3319.084839419601
 30
0.0
 40
7.5
100
AcDbArc
 50
90.0
 51
270.0
  0
ARC
  5
1851D
330
180F8
100
AcDbEntity
  8
SUNPOU
  6
ByBlock
100
AcDbCircle
 10
3880.443655266705
 20
3191.084839419597
 30
0.0
 40
7.5
100
AcDbArc
 50
270.0
 51
90.0
  0
ARC
  5
1851E
330
180F8
100
AcDbEntity
  8
SUNPOU
  6
ByBlock
100
AcDbCircle
 10
3880.443655266705
 20
3191.084839419597
 30
0.0
 40
7.5
100
AcDbArc
 50
90.0
 51
270.0
  0
ARC
  5
1851F
330
180F8
100
AcDbEntity
  8
SUNPOU
  6
ByBlock
100
AcDbCircle
 10
3880.443655266705
 20
3319.084839419601
 30
0.0
 40
7.5
100
AcDbArc
 50
90.0
 51
270.0
  0
ARC
  5
18520
330
180F8
100
AcDbEntity
  8
SUNPOU
  6
ByBlock
100
AcDbCircle
 10
3880.443655266705
 20
3319.084839419601
 30
0.0
 40
7.5
100
AcDbArc
 50
270.0
 51
90.0
  0
ARC
  5
18521
330
180F8
100
AcDbEntity
  8
SUNPOU
  6
ByBlock
100
AcDbCircle
 10
7466.741617209526
 20
3191.084839419599
 30
0.0
 40
7.5
100
AcDbArc
 50
270.0
 51
90.0
  0
ARC
  5
18522
330
180F8
100
AcDbEntity
  8
SUNPOU
  6
ByBlock
100
AcDbCircle
 10
7466.741617209526
 20
3191.084839419599
 30
0.0
 40
7.5
100
AcDbArc
 50
90.0
 51
270.0
  0
ARC
  5
18523
330
180F8
100
AcDbEntity
  8
SUNPOU
  6
ByBlock
100
AcDbCircle
 10
7466.741617209526
 20
3447.084839419609
 30
0.0
 40
7.5
100
AcDbArc
 50
90.0
 51
270.0
  0
ARC
  5
18524
330
180F8
100
AcDbEntity
  8
SUNPOU
  6
ByBlock
100
AcDbCircle
 10
7466.741617209526
 20
3447.084839419609
 30
0.0
 40
7.5
100
AcDbArc
 50
270.0
 51
90.0
  0
ARC
  5
18525
330
180F8
100
AcDbEntity
  8
SUNPOU
  6
ByBlock
100
AcDbCircle
 10
7466.741617209526
 20
3319.084839419604
 30
0.0
 40
7.5
100
AcDbArc
 50
270.0
 51
90.0
  0
ARC
  5
18526
330
180F8
100
AcDbEntity
  8
SUNPOU
  6
ByBlock
100
AcDbCircle
 10
7466.741617209526
 20
3319.084839419604
 30
0.0
 40
7.5
100
AcDbArc
 50
90.0
 51
270.0
  0
ARC
  5
18527
330
180F8
100
AcDbEntity
  8
SUNPOU
  6
ByBlock
100
AcDbCircle
 10
7466.741617209526
 20
3191.084839419599
 30
0.0
 40
7.5
100
AcDbArc
 50
270.0
 51
90.0
  0
ARC
  5
18528
330
180F8
100
AcDbEntity
  8
SUNPOU
  6
ByBlock
100
AcDbCircle
 10
7466.741617209526
 20
3191.084839419599
 30
0.0
 40
7.5
100
AcDbArc
 50
90.0
 51
270.0
  0
ARC
  5
18529
330
180F8
100
AcDbEntity
  8
SUNPOU
  6
ByBlock
100
AcDbCircle
 10
7466.741617209526
 20
3319.084839419604
 30
0.0
 40
7.5
100
AcDbArc
 50
90.0
 51
270.0
  0
ARC
  5
1852A
330
180F8
100
AcDbEntity
  8
SUNPOU
  6
ByBlock
100
AcDbCircle
 10
7466.741617209526
 20
3319.084839419604
 30
0.0
 40
7.5
100
AcDbArc
 50
270.0
 51
90.0
  0
TEXT
  5
1852B
330
180F8
100
AcDbEntity
  8
SUNPOU
100
AcDbText
 10
8304.841793613936
 20
6143.693182432333
 30
0.0
 40
90.0
  1
3200
 41
0.6666666666666666
  7
00
100
AcDbText
  0
LINE
  5
1852C
330
180F8
100
AcDbEntity
  8
SUNPOU
  6
ByBlock
100
AcDbLine
 10
10004.12750789964
 20
6098.693182432332
 30
0.0
 11
9989.127507899645
 21
6098.693182432332
 31
0.0
  0
LINE
  5
1852D
330
180F8
100
AcDbEntity
  8
SUNPOU
  6
ByBlock
100
AcDbLine
 10
6834.127507899649
 20
6098.693182432332
 30
0.0
 11
6849.127507899649
 21
6098.693182432332
 31
0.0
  0
TEXT
  5
1852E
330
180F8
100
AcDbEntity
  8
SUNPOU
100
AcDbText
 10
9533.413222185359
 20
8188.693182432333
 30
0.0
 40
90.0
  1
800
 41
0.6666666666666666
  7
00
100
AcDbText
  0
LINE
  5
1852F
330
180F8
100
AcDbEntity
  8
SUNPOU
  6
ByBlock
100
AcDbLine
 10
10004.12750789964
 20
8143.693182432333
 30
0.0
 11
9989.127507899649
 21
8143.693182432333
 31
0.0
  0
LINE
  5
18530
330
180F8
100
AcDbEntity
  8
SUNPOU
  6
ByBlock
100
AcDbLine
 10
9234.127507899648
 20
8143.693182432333
 30
0.0
 11
9249.127507899649
 21
8143.693182432333
 31
0.0
  0
TEXT
  5
18531
330
180F8
100
AcDbEntity
  8
SUNPOU
100
AcDbText
 10
8874.127507899649
 20
8757.978896718045
 30
0.0
 40
90.0
  1
800
 50
90.0
 41
0.6666666666666666
  7
00
100
AcDbText
  0
LINE
  5
18532
330
180F8
100
AcDbEntity
  8
SUNPOU
  6
ByBlock
100
AcDbLine
 10
8919.12750789965
 20
9228.693182432332
 30
0.0
 11
8919.12750789965
 21
9213.693182432331
 31
0.0
  0
LINE
  5
18533
330
180F8
100
AcDbEntity
  8
SUNPOU
  6
ByBlock
100
AcDbLine
 10
8919.12750789965
 20
8458.693182432332
 30
0.0
 11
8919.12750789965
 21
8473.693182432331
 31
0.0
  0
TEXT
  5
18534
330
180F8
100
AcDbEntity
  8
SUNPOU
100
AcDbText
 10
9733.41322218536
 20
6353.693182432332
 30
0.0
 40
90.0
  1
400
 41
0.6666666666666666
  7
00
100
AcDbText
  0
LINE
  5
18535
330
180F8
100
AcDbEntity
  8
SUNPOU
  6
ByBlock
100
AcDbLine
 10
10004.12750789964
 20
6308.693182432332
 30
0.0
 11
9989.127507899645
 21
6308.693182432332
 31
0.0
  0
LINE
  5
18536
330
180F8
100
AcDbEntity
  8
SUNPOU
  6
ByBlock
100
AcDbLine
 10
9634.127507899648
 20
6308.693182432332
 30
0.0
 11
9649.127507899649
 21
6308.693182432332
 31
0.0
  0
TEXT
  5
18537
330
180F8
100
AcDbEntity
  8
SUNPOU
100
AcDbText
 10
8304.841793613936
 20
6353.693182432332
 30
0.0
 40
90.0
  1
2400
 41
0.6666666666666666
  7
00
100
AcDbText
  0
LINE
  5
18538
330
180F8
100
AcDbEntity
  8
SUNPOU
  6
ByBlock
100
AcDbLine
 10
9604.127507899647
 20
6308.693182432332
 30
0.0
 11
9589.127507899648
 21
6308.693182432332
 31
0.0
  0
LINE
  5
18539
330
180F8
100
AcDbEntity
  8
SUNPOU
  6
ByBlock
100
AcDbLine
 10
7234.127507899649
 20
6308.693182432332
 30
0.0
 11
7249.127507899649
 21
6308.693182432332
 31
0.0
  0
TEXT
  5
1853A
330
180F8
100
AcDbEntity
  8
SUNPOU
100
AcDbText
 10
6933.413222185362
 20
6353.693182432332
 30
0.0
 40
90.0
  1
400
 41
0.6666666666666666
  7
00
100
AcDbText
  0
LINE
  5
1853B
330
180F8
100
AcDbEntity
  8
SUNPOU
  6
ByBlock
100
AcDbLine
 10
7204.127507899649
 20
6308.693182432332
 30
0.0
 11
7189.127507899648
 21
6308.693182432332
 31
0.0
  0
LINE
  5
1853C
330
180F8
100
AcDbEntity
  8
SUNPOU
  6
ByBlock
100
AcDbLine
 10
6834.127507899649
 20
6308.693182432332
 30
0.0
 11
6849.127507899649
 21
6308.693182432332
 31
0.0
  0
TEXT
  5
1853D
330
180F8
100
AcDbEntity
  8
SUNPOU
100
AcDbText
 10
12228.40680314954
 20
3942.765608013134
 30
0.0
 40
90.0
  1
40
 50
90.0
 41
0.6666666666666666
  7
00
100
AcDbText
  0
LINE
  5
1853E
330
180F8
100
AcDbEntity
  8
SUNPOU
  6
ByBlock
100
AcDbLine
 10
12273.40680314955
 20
3871.337036584561
 30
0.0
 11
12273.40680314955
 21
3856.337036584561
 31
0.0
  0
LINE
  5
1853F
330
180F8
100
AcDbEntity
  8
SUNPOU
  6
ByBlock
100
AcDbLine
 10
12273.40680314955
 20
3741.33703658456
 30
0.0
 11
12273.40680314955
 21
3756.337036584561
 31
0.0
  0
TEXT
  5
18540
330
180F8
100
AcDbEntity
  8
SUNPOU
100
AcDbText
 10
12228.40680314954
 20
3427.622750870277
 30
0.0
 40
90.0
  1
27
 50
90.0
 41
0.6666666666666666
  7
00
100
AcDbText
  0
LINE
  5
18541
330
180F8
100
AcDbEntity
  8
SUNPOU
  6
ByBlock
100
AcDbLine
 10
12273.40680314955
 20
3603.337036584561
 30
0.0
 11
12273.40680314955
 21
3588.337036584562
 31
0.0
  0
LINE
  5
18542
330
180F8
100
AcDbEntity
  8
SUNPOU
  6
ByBlock
100
AcDbLine
 10
12273.40680314955
 20
3741.33703658456
 30
0.0
 11
12273.40680314955
 21
3756.337036584561
 31
0.0
  0
TEXT
  5
18543
330
180F8
100
AcDbEntity
  8
SUNPOU
100
AcDbText
 10
11937.76694549065
 20
2290.804976716086
 30
0.0
 40
90.0
  1
20
 41
0.6666666666666666
  7
00
100
AcDbText
  0
LINE
  5
18544
330
180F8
100
AcDbEntity
  8
SUNPOU
  6
ByBlock
100
AcDbLine
 10
11876.33837406208
 20
2245.804976716085
 30
0.0
 11
11891.33837406209
 21
2245.804976716085
 31
0.0
  0
LINE
  5
18545
330
180F8
100
AcDbEntity
  8
SUNPOU
  6
ByBlock
100
AcDbLine
 10
11766.33837406209
 20
2245.804976716085
 30
0.0
 11
11751.33837406209
 21
2245.804976716085
 31
0.0
  0
TEXT
  5
18546
330
180F8
100
AcDbEntity
  8
SUNPOU
100
AcDbText
 10
11451.33837406209
 20
2290.804976716086
 30
0.0
 40
90.0
  1
120
 41
0.6666666666666666
  7
00
100
AcDbText
  0
LINE
  5
18547
330
180F8
100
AcDbEntity
  8
SUNPOU
  6
ByBlock
100
AcDbLine
 10
11766.33837406209
 20
2245.804976716085
 30
0.0
 11
11751.33837406209
 21
2245.804976716085
 31
0.0
  0
LINE
  5
18548
330
180F8
100
AcDbEntity
  8
SUNPOU
  6
ByBlock
100
AcDbLine
 10
11316.33837406211
 20
2245.804976716085
 30
0.0
 11
11331.3383740621
 21
2245.804976716085
 31
0.0
  0
TEXT
  5
18549
330
180F8
100
AcDbEntity
  8
SUNPOU
100
AcDbText
 10
11030.6240883478
 20
2290.804976716086
 30
0.0
 40
90.0
  1
20
 41
0.6666666666666666
  7
00
100
AcDbText
  0
LINE
  5
1854A
330
180F8
100
AcDbEntity
  8
SUNPOU
  6
ByBlock
100
AcDbLine
 10
11206.33837406209
 20
2245.804976716085
 30
0.0
 11
11191.33837406208
 21
2245.804976716085
 31
0.0
  0
LINE
  5
1854B
330
180F8
100
AcDbEntity
  8
SUNPOU
  6
ByBlock
100
AcDbLine
 10
11316.33837406211
 20
2245.804976716085
 30
0.0
 11
11331.3383740621
 21
2245.804976716085
 31
0.0
  0
TEXT
  5
1854C
330
180F8
100
AcDbEntity
  8
SUNPOU
100
AcDbText
 10
11451.33837406208
 20
2080.804976716085
 30
0.0
 40
90.0
  1
160
 41
0.6666666666666666
  7
00
100
AcDbText
  0
LINE
  5
1854D
330
180F8
100
AcDbEntity
  8
SUNPOU
  6
ByBlock
100
AcDbLine
 10
11846.33837406209
 20
2035.804976716086
 30
0.0
 11
11831.33837406209
 21
2035.804976716086
 31
0.0
  0
LINE
  5
1854E
330
180F8
100
AcDbEntity
  8
SUNPOU
  6
ByBlock
100
AcDbLine
 10
11236.33837406209
 20
2035.804976716086
 30
0.0
 11
11251.33837406208
 21
2035.804976716086
 31
0.0
  0
TEXT
  5
1854F
330
180F8
100
AcDbEntity
  8
SUNPOU
100
AcDbText
 10
10873.33837406209
 20
2369.430058338865
 30
0.0
 40
90.0
  1
40
 50
90.0
 41
0.6666666666666666
  7
00
100
AcDbText
  0
LINE
  5
18550
330
180F8
100
AcDbEntity
  8
SUNPOU
  6
ByBlock
100
AcDbLine
 10
10918.33837406209
 20
2555.144344053149
 30
0.0
 11
10918.33837406209
 21
2570.144344053149
 31
0.0
  0
LINE
  5
18551
330
180F8
100
AcDbEntity
  8
SUNPOU
  6
ByBlock
100
AcDbLine
 10
10918.33837406209
 20
2685.144344053149
 30
0.0
 11
10918.33837406209
 21
2670.144344053149
 31
0.0
  0
TEXT
  5
18552
330
180F8
100
AcDbEntity
  8
SUNPOU
100
AcDbText
 10
10873.33837406209
 20
2916.572915481723
 30
0.0
 40
90.0
  1
40
 50
90.0
 41
0.6666666666666666
  7
00
100
AcDbText
  0
LINE
  5
18553
330
180F8
100
AcDbEntity
  8
SUNPOU
  6
ByBlock
100
AcDbLine
 10
10918.33837406209
 20
2845.144344053149
 30
0.0
 11
10918.33837406209
 21
2830.144344053149
 31
0.0
  0
LINE
  5
18554
330
180F8
100
AcDbEntity
  8
SUNPOU
  6
ByBlock
100
AcDbLine
 10
10918.33837406209
 20
2715.144344053149
 30
0.0
 11
10918.33837406209
 21
2730.144344053149
 31
0.0
  0
TEXT
  5
18555
330
180F8
100
AcDbEntity
  8
SUNPOU
100
AcDbText
 10
10663.33837406209
 20
2643.001486910295
 30
0.0
 40
90.0
  1
80
 50
90.0
 41
0.6666666666666666
  7
00
100
AcDbText
  0
LINE
  5
18556
330
180F8
100
AcDbEntity
  8
SUNPOU
  6
ByBlock
100
AcDbLine
 10
10708.33837406208
 20
2845.144344053149
 30
0.0
 11
10708.33837406208
 21
2830.144344053149
 31
0.0
  0
LINE
  5
18557
330
180F8
100
AcDbEntity
  8
SUNPOU
  6
ByBlock
100
AcDbLine
 10
10708.33837406208
 20
2555.144344053149
 30
0.0
 11
10708.33837406208
 21
2570.144344053149
 31
0.0
  0
TEXT
  5
18558
330
180F8
100
AcDbEntity
  8
SUNPOU
100
AcDbText
 10
11937.76694549065
 20
3439.170862655058
 30
0.0
 40
90.0
  1
20
 41
0.6666666666666666
  7
00
100
AcDbText
  0
LINE
  5
18559
330
180F8
100
AcDbEntity
  8
SUNPOU
  6
ByBlock
100
AcDbLine
 10
11876.33837406208
 20
3394.170862655057
 30
0.0
 11
11891.33837406209
 21
3394.170862655057
 31
0.0
  0
LINE
  5
1855A
330
180F8
100
AcDbEntity
  8
SUNPOU
  6
ByBlock
100
AcDbLine
 10
11766.33837406209
 20
3394.170862655057
 30
0.0
 11
11751.33837406209
 21
3394.170862655057
 31
0.0
  0
TEXT
  5
1855B
330
180F8
100
AcDbEntity
  8
SUNPOU
100
AcDbText
 10
11451.33837406209
 20
3439.170862655058
 30
0.0
 40
90.0
  1
120
 41
0.6666666666666666
  7
00
100
AcDbText
  0
LINE
  5
1855C
330
180F8
100
AcDbEntity
  8
SUNPOU
  6
ByBlock
100
AcDbLine
 10
11766.33837406209
 20
3394.170862655057
 30
0.0
 11
11751.33837406209
 21
3394.170862655057
 31
0.0
  0
LINE
  5
1855D
330
180F8
100
AcDbEntity
  8
SUNPOU
  6
ByBlock
100
AcDbLine
 10
11316.33837406211
 20
3394.170862655057
 30
0.0
 11
11331.3383740621
 21
3394.170862655057
 31
0.0
  0
TEXT
  5
1855E
330
180F8
100
AcDbEntity
  8
SUNPOU
100
AcDbText
 10
11030.6240883478
 20
3439.170862655058
 30
0.0
 40
90.0
  1
20
 41
0.6666666666666666
  7
00
100
AcDbText
  0
LINE
  5
1855F
330
180F8
100
AcDbEntity
  8
SUNPOU
  6
ByBlock
100
AcDbLine
 10
11206.33837406209
 20
3394.170862655057
 30
0.0
 11
11191.33837406208
 21
3394.170862655057
 31
0.0
  0
LINE
  5
18560
330
180F8
100
AcDbEntity
  8
SUNPOU
  6
ByBlock
100
AcDbLine
 10
11316.33837406211
 20
3394.170862655057
 30
0.0
 11
11331.3383740621
 21
3394.170862655057
 31
0.0
  0
TEXT
  5
18561
330
180F8
100
AcDbEntity
  8
SUNPOU
100
AcDbText
 10
11451.33837406208
 20
3229.170862655058
 30
0.0
 40
90.0
  1
160
 41
0.6666666666666666
  7
00
100
AcDbText
  0
LINE
  5
18562
330
180F8
100
AcDbEntity
  8
SUNPOU
  6
ByBlock
100
AcDbLine
 10
11846.33837406209
 20
3184.170862655058
 30
0.0
 11
11831.33837406209
 21
3184.170862655058
 31
0.0
  0
LINE
  5
18563
330
180F8
100
AcDbEntity
  8
SUNPOU
  6
ByBlock
100
AcDbLine
 10
11236.33837406209
 20
3184.170862655058
 30
0.0
 11
11251.33837406208
 21
3184.170862655058
 31
0.0
  0
TEXT
  5
18564
330
180F8
100
AcDbEntity
  8
SUNPOU
100
AcDbText
 10
8726.168385259301
 20
2161.684839419599
 30
0.0
 40
90.0
  1
800
 41
0.6666666666666666
  7
00
100
AcDbText
  0
LINE
  5
18565
330
180F8
100
AcDbEntity
  8
SUNPOU
  6
ByBlock
100
AcDbLine
 10
9436.882670973588
 20
2116.684839419599
 30
0.0
 11
9421.882670973587
 21
2116.684839419599
 31
0.0
  0
LINE
  5
18566
330
180F8
100
AcDbEntity
  8
SUNPOU
  6
ByBlock
100
AcDbLine
 10
8186.88267097359
 20
2116.684839419599
 30
0.0
 11
8201.882670973589
 21
2116.684839419599
 31
0.0
  0
TEXT
  5
18567
330
180F8
100
AcDbEntity
  8
SUNPOU
100
AcDbText
 10
8693.31124240216
 20
1951.684839419598
 30
0.0
 40
90.0
  1
1000
 41
0.6666666666666666
  7
00
100
AcDbText
  0
LINE
  5
18568
330
180F8
100
AcDbEntity
  8
SUNPOU
  6
ByBlock
100
AcDbLine
 10
9596.882670973588
 20
1906.6848394196
 30
0.0
 11
9581.882670973588
 21
1906.6848394196
 31
0.0
  0
LINE
  5
18569
330
180F8
100
AcDbEntity
  8
SUNPOU
  6
ByBlock
100
AcDbLine
 10
8026.88267097359
 20
1906.6848394196
 30
0.0
 11
8041.882670973587
 21
1906.6848394196
 31
0.0
  0
TEXT
  5
1856A
330
180F8
100
AcDbEntity
  8
SUNPOU
100
AcDbText
 10
7001.741617209528
 20
3523.513410848181
 30
0.0
 40
90.0
  1
50
 50
90.0
 41
0.6666666666666666
  7
00
100
AcDbText
  0
LINE
  5
1856B
330
180F8
100
AcDbEntity
  8
SUNPOU
  6
ByBlock
100
AcDbLine
 10
7046.741617209526
 20
3462.08483941961
 30
0.0
 11
7046.741617209526
 21
3477.084839419608
 31
0.0
  0
LINE
  5
1856C
330
180F8
100
AcDbEntity
  8
SUNPOU
  6
ByBlock
100
AcDbLine
 10
7046.741617209526
 20
3352.084839419608
 30
0.0
 11
7046.741617209526
 21
3337.084839419608
 31
0.0
  0
TEXT
  5
1856D
330
180F8
100
AcDbEntity
  8
SUNPOU
100
AcDbText
 10
8166.168385259302
 20
4175.485411556193
 30
0.0
 40
90.0
  1
700
 41
0.6666666666666666
  7
00
100
AcDbText
  0
LINE
  5
1856E
330
180F8
100
AcDbEntity
  8
SUNPOU
  6
ByBlock
100
AcDbLine
 10
7706.882670973588
 20
4130.485411556196
 30
0.0
 11
7721.882670973586
 21
4130.485411556196
 31
0.0
  0
LINE
  5
1856F
330
180F8
100
AcDbEntity
  8
SUNPOU
  6
ByBlock
100
AcDbLine
 10
8796.882670973586
 20
4130.485411556196
 30
0.0
 11
8781.882670973585
 21
4130.485411556196
 31
0.0
  0
TEXT
  5
18570
330
180F8
100
AcDbEntity
  8
SUNPOU
100
AcDbText
 10
4714.082765553178
 20
2161.684839419597
 30
0.0
 40
90.0
  1
800
 41
0.6666666666666666
  7
00
100
AcDbText
  0
LINE
  5
18571
330
180F8
100
AcDbEntity
  8
SUNPOU
  6
ByBlock
100
AcDbLine
 10
5424.797051267463
 20
2116.684839419598
 30
0.0
 11
5409.797051267463
 21
2116.684839419598
 31
0.0
  0
LINE
  5
18572
330
180F8
100
AcDbEntity
  8
SUNPOU
  6
ByBlock
100
AcDbLine
 10
4174.797051267463
 20
2116.684839419598
 30
0.0
 11
4189.797051267464
 21
2116.684839419598
 31
0.0
  0
TEXT
  5
18573
330
180F8
100
AcDbEntity
  8
SUNPOU
100
AcDbText
 10
4681.225622696032
 20
1951.684839419596
 30
0.0
 40
90.0
  1
1000
 41
0.6666666666666666
  7
00
100
AcDbText
  0
LINE
  5
18574
330
180F8
100
AcDbEntity
  8
SUNPOU
  6
ByBlock
100
AcDbLine
 10
5584.797051267461
 20
1906.684839419597
 30
0.0
 11
5569.79705126746
 21
1906.684839419597
 31
0.0
  0
LINE
  5
18575
330
180F8
100
AcDbEntity
  8
SUNPOU
  6
ByBlock
100
AcDbLine
 10
4014.797051267462
 20
1906.684839419597
 30
0.0
 11
4029.797051267459
 21
1906.684839419597
 31
0.0
  0
TEXT
  5
18576
330
180F8
100
AcDbEntity
  8
SUNPOU
100
AcDbText
 10
4394.082765553178
 20
4175.485411556191
 30
0.0
 40
90.0
  1
400
 41
0.6666666666666666
  7
00
100
AcDbText
  0
LINE
  5
18577
330
180F8
100
AcDbEntity
  8
SUNPOU
  6
ByBlock
100
AcDbLine
 10
4174.797051267463
 20
4130.485411556192
 30
0.0
 11
4189.797051267464
 21
4130.485411556192
 31
0.0
  0
LINE
  5
18578
330
180F8
100
AcDbEntity
  8
SUNPOU
  6
ByBlock
100
AcDbLine
 10
4784.797051267463
 20
4130.485411556192
 30
0.0
 11
4769.797051267462
 21
4130.485411556192
 31
0.0
  0
ARC
  5
18579
330
180F8
100
AcDbEntity
  8
SUNPOU
  6
ByBlock
100
AcDbCircle
 10
3422.453899250454
 20
3447.084839419609
 30
0.0
 40
7.5
100
AcDbArc
 50
90.0
 51
270.0
  0
ARC
  5
1857A
330
180F8
100
AcDbEntity
  8
SUNPOU
  6
ByBlock
100
AcDbCircle
 10
3422.453899250454
 20
3447.084839419609
 30
0.0
 40
7.5
100
AcDbArc
 50
270.0
 51
90.0
  0
ARC
  5
1857B
330
180F8
100
AcDbEntity
  8
SUNPOU
  6
ByBlock
100
AcDbCircle
 10
3422.453899250454
 20
3367.084839419606
 30
0.0
 40
7.5
100
AcDbArc
 50
270.0
 51
90.0
  0
ARC
  5
1857C
330
180F8
100
AcDbEntity
  8
SUNPOU
  6
ByBlock
100
AcDbCircle
 10
3422.453899250454
 20
3367.084839419606
 30
0.0
 40
7.5
100
AcDbArc
 50
90.0
 51
270.0
  0
ARC
  5
1857D
330
180F8
100
AcDbEntity
  8
SUNPOU
  6
ByBlock
100
AcDbCircle
 10
3880.443655266704
 20
2519.084839419599
 30
0.0
 40
7.5
100
AcDbArc
 50
90.0
 51
270.0
  0
ARC
  5
1857E
330
180F8
100
AcDbEntity
  8
SUNPOU
  6
ByBlock
100
AcDbCircle
 10
3880.443655266704
 20
2519.084839419599
 30
0.0
 40
7.5
100
AcDbArc
 50
270.0
 51
90.0
  0
ARC
  5
1857F
330
180F8
100
AcDbEntity
  8
SUNPOU
  6
ByBlock
100
AcDbCircle
 10
3880.443655266704
 20
2679.084839419599
 30
0.0
 40
7.5
100
AcDbArc
 50
270.0
 51
90.0
  0
ARC
  5
18580
330
180F8
100
AcDbEntity
  8
SUNPOU
  6
ByBlock
100
AcDbCircle
 10
3880.443655266704
 20
2679.084839419599
 30
0.0
 40
7.5
100
AcDbArc
 50
90.0
 51
270.0
  0
ARC
  5
18581
330
180F8
100
AcDbEntity
  8
SUNPOU
  6
ByBlock
100
AcDbCircle
 10
3645.10738270107
 20
2519.084839419599
 30
0.0
 40
7.5
100
AcDbArc
 50
90.0
 51
270.0
  0
ARC
  5
18582
330
180F8
100
AcDbEntity
  8
SUNPOU
  6
ByBlock
100
AcDbCircle
 10
3645.10738270107
 20
2519.084839419599
 30
0.0
 40
7.5
100
AcDbArc
 50
270.0
 51
90.0
  0
ARC
  5
18583
330
180F8
100
AcDbEntity
  8
SUNPOU
  6
ByBlock
100
AcDbCircle
 10
3645.10738270107
 20
3447.084839419609
 30
0.0
 40
7.5
100
AcDbArc
 50
270.0
 51
90.0
  0
ARC
  5
18584
330
180F8
100
AcDbEntity
  8
SUNPOU
  6
ByBlock
100
AcDbCircle
 10
3645.10738270107
 20
3447.084839419609
 30
0.0
 40
7.5
100
AcDbArc
 50
90.0
 51
270.0
  0
ARC
  5
18585
330
180F8
100
AcDbEntity
  8
SUNPOU
  6
ByBlock
100
AcDbCircle
 10
7466.741617209526
 20
2519.084839419599
 30
0.0
 40
7.5
100
AcDbArc
 50
90.0
 51
270.0
  0
ARC
  5
18586
330
180F8
100
AcDbEntity
  8
SUNPOU
  6
ByBlock
100
AcDbCircle
 10
7466.741617209526
 20
2519.084839419599
 30
0.0
 40
7.5
100
AcDbArc
 50
270.0
 51
90.0
  0
ARC
  5
18587
330
180F8
100
AcDbEntity
  8
SUNPOU
  6
ByBlock
100
AcDbCircle
 10
7466.741617209526
 20
2679.084839419599
 30
0.0
 40
7.5
100
AcDbArc
 50
270.0
 51
90.0
  0
ARC
  5
18588
330
180F8
100
AcDbEntity
  8
SUNPOU
  6
ByBlock
100
AcDbCircle
 10
7466.741617209526
 20
2679.084839419599
 30
0.0
 40
7.5
100
AcDbArc
 50
90.0
 51
270.0
  0
ARC
  5
18589
330
180F8
100
AcDbEntity
  8
SUNPOU
  6
ByBlock
100
AcDbCircle
 10
7237.333777508168
 20
2519.084839419599
 30
0.0
 40
7.5
100
AcDbArc
 50
90.0
 51
270.0
  0
ARC
  5
1858A
330
180F8
100
AcDbEntity
  8
SUNPOU
  6
ByBlock
100
AcDbCircle
 10
7237.333777508168
 20
2519.084839419599
 30
0.0
 40
7.5
100
AcDbArc
 50
270.0
 51
90.0
  0
ARC
  5
1858B
330
180F8
100
AcDbEntity
  8
SUNPOU
  6
ByBlock
100
AcDbCircle
 10
7237.333777508168
 20
3447.084839419608
 30
0.0
 40
7.5
100
AcDbArc
 50
270.0
 51
90.0
  0
ARC
  5
1858C
330
180F8
100
AcDbEntity
  8
SUNPOU
  6
ByBlock
100
AcDbCircle
 10
7237.333777508168
 20
3447.084839419608
 30
0.0
 40
7.5
100
AcDbArc
 50
90.0
 51
270.0
  0
ARC
  5
1858D
330
180F8
100
AcDbEntity
  8
SUNPOU
  6
ByBlock
100
AcDbCircle
 10
10019.12750789964
 20
6098.693182432332
 30
0.0
 40
7.5
100
AcDbArc
 50
180.0
 51
0.0
  0
ARC
  5
1858E
330
180F8
100
AcDbEntity
  8
SUNPOU
  6
ByBlock
100
AcDbCircle
 10
10019.12750789964
 20
6098.693182432332
 30
0.0
 40
7.5
100
AcDbArc
 50
0.0
 51
180.0
  0
ARC
  5
1858F
330
180F8
100
AcDbEntity
  8
SUNPOU
  6
ByBlock
100
AcDbCircle
 10
6819.127507899648
 20
6098.693182432332
 30
0.0
 40
7.5
100
AcDbArc
 50
0.0
 51
180.0
  0
ARC
  5
18590
330
180F8
100
AcDbEntity
  8
SUNPOU
  6
ByBlock
100
AcDbCircle
 10
6819.127507899648
 20
6098.693182432332
 30
0.0
 40
7.5
100
AcDbArc
 50
180.0
 51
0.0
  0
ARC
  5
18591
330
180F8
100
AcDbEntity
  8
SUNPOU
  6
ByBlock
100
AcDbCircle
 10
10019.12750789965
 20
8143.693182432333
 30
0.0
 40
7.5
100
AcDbArc
 50
180.0
 51
0.0
  0
ARC
  5
18592
330
180F8
100
AcDbEntity
  8
SUNPOU
  6
ByBlock
100
AcDbCircle
 10
10019.12750789965
 20
8143.693182432333
 30
0.0
 40
7.5
100
AcDbArc
 50
0.0
 51
180.0
  0
ARC
  5
18593
330
180F8
100
AcDbEntity
  8
SUNPOU
  6
ByBlock
100
AcDbCircle
 10
9219.127507899647
 20
8143.693182432333
 30
0.0
 40
7.5
100
AcDbArc
 50
0.0
 51
180.0
  0
ARC
  5
18594
330
180F8
100
AcDbEntity
  8
SUNPOU
  6
ByBlock
100
AcDbCircle
 10
9219.127507899647
 20
8143.693182432333
 30
0.0
 40
7.5
100
AcDbArc
 50
180.0
 51
0.0
  0
ARC
  5
18595
330
180F8
100
AcDbEntity
  8
SUNPOU
  6
ByBlock
100
AcDbCircle
 10
8919.12750789965
 20
9243.693182432329
 30
0.0
 40
7.5
100
AcDbArc
 50
270.0
 51
90.0
  0
ARC
  5
18596
330
180F8
100
AcDbEntity
  8
SUNPOU
  6
ByBlock
100
AcDbCircle
 10
8919.12750789965
 20
9243.693182432329
 30
0.0
 40
7.5
100
AcDbArc
 50
90.0
 51
270.0
  0
ARC
  5
18597
330
180F8
100
AcDbEntity
  8
SUNPOU
  6
ByBlock
100
AcDbCircle
 10
8919.12750789965
 20
8443.693182432332
 30
0.0
 40
7.5
100
AcDbArc
 50
90.0
 51
270.0
  0
ARC
  5
18598
330
180F8
100
AcDbEntity
  8
SUNPOU
  6
ByBlock
100
AcDbCircle
 10
8919.12750789965
 20
8443.693182432332
 30
0.0
 40
7.5
100
AcDbArc
 50
270.0
 51
90.0
  0
ARC
  5
18599
330
180F8
100
AcDbEntity
  8
SUNPOU
  6
ByBlock
100
AcDbCircle
 10
10019.12750789964
 20
6308.693182432332
 30
0.0
 40
7.5
100
AcDbArc
 50
180.0
 51
0.0
  0
ARC
  5
1859A
330
180F8
100
AcDbEntity
  8
SUNPOU
  6
ByBlock
100
AcDbCircle
 10
10019.12750789964
 20
6308.693182432332
 30
0.0
 40
7.5
100
AcDbArc
 50
0.0
 51
180.0
  0
ARC
  5
1859B
330
180F8
100
AcDbEntity
  8
SUNPOU
  6
ByBlock
100
AcDbCircle
 10
9619.127507899648
 20
6308.693182432332
 30
0.0
 40
7.5
100
AcDbArc
 50
0.0
 51
180.0
  0
ARC
  5
1859C
330
180F8
100
AcDbEntity
  8
SUNPOU
  6
ByBlock
100
AcDbCircle
 10
9619.127507899648
 20
6308.693182432332
 30
0.0
 40
7.5
100
AcDbArc
 50
180.0
 51
0.0
  0
ARC
  5
1859D
330
180F8
100
AcDbEntity
  8
SUNPOU
  6
ByBlock
100
AcDbCircle
 10
9619.127507899648
 20
6308.693182432332
 30
0.0
 40
7.5
100
AcDbArc
 50
180.0
 51
0.0
  0
ARC
  5
1859E
330
180F8
100
AcDbEntity
  8
SUNPOU
  6
ByBlock
100
AcDbCircle
 10
9619.127507899648
 20
6308.693182432332
 30
0.0
 40
7.5
100
AcDbArc
 50
0.0
 51
180.0
  0
ARC
  5
1859F
330
180F8
100
AcDbEntity
  8
SUNPOU
  6
ByBlock
100
AcDbCircle
 10
7219.127507899648
 20
6308.693182432332
 30
0.0
 40
7.5
100
AcDbArc
 50
0.0
 51
180.0
  0
ARC
  5
185A0
330
180F8
100
AcDbEntity
  8
SUNPOU
  6
ByBlock
100
AcDbCircle
 10
7219.127507899648
 20
6308.693182432332
 30
0.0
 40
7.5
100
AcDbArc
 50
180.0
 51
0.0
  0
ARC
  5
185A1
330
180F8
100
AcDbEntity
  8
SUNPOU
  6
ByBlock
100
AcDbCircle
 10
7219.127507899648
 20
6308.693182432332
 30
0.0
 40
7.5
100
AcDbArc
 50
180.0
 51
0.0
  0
ARC
  5
185A2
330
180F8
100
AcDbEntity
  8
SUNPOU
  6
ByBlock
100
AcDbCircle
 10
7219.127507899648
 20
6308.693182432332
 30
0.0
 40
7.5
100
AcDbArc
 50
0.0
 51
180.0
  0
ARC
  5
185A3
330
180F8
100
AcDbEntity
  8
SUNPOU
  6
ByBlock
100
AcDbCircle
 10
6819.127507899648
 20
6308.693182432332
 30
0.0
 40
7.5
100
AcDbArc
 50
0.0
 51
180.0
  0
ARC
  5
185A4
330
180F8
100
AcDbEntity
  8
SUNPOU
  6
ByBlock
100
AcDbCircle
 10
6819.127507899648
 20
6308.693182432332
 30
0.0
 40
7.5
100
AcDbArc
 50
180.0
 51
0.0
  0
ARC
  5
185A5
330
180F8
100
AcDbEntity
  8
SUNPOU
  6
ByBlock
100
AcDbCircle
 10
12273.40680314955
 20
3886.33703658456
 30
0.0
 40
7.5
100
AcDbArc
 50
270.0
 51
90.0
  0
ARC
  5
185A6
330
180F8
100
AcDbEntity
  8
SUNPOU
  6
ByBlock
100
AcDbCircle
 10
12273.40680314955
 20
3886.33703658456
 30
0.0
 40
7.5
100
AcDbArc
 50
90.0
 51
270.0
  0
ARC
  5
185A7
330
180F8
100
AcDbEntity
  8
SUNPOU
  6
ByBlock
100
AcDbCircle
 10
12273.40680314955
 20
3726.33703658456
 30
0.0
 40
7.5
100
AcDbArc
 50
90.0
 51
270.0
  0
ARC
  5
185A8
330
180F8
100
AcDbEntity
  8
SUNPOU
  6
ByBlock
100
AcDbCircle
 10
12273.40680314955
 20
3726.33703658456
 30
0.0
 40
7.5
100
AcDbArc
 50
270.0
 51
90.0
  0
ARC
  5
185A9
330
180F8
100
AcDbEntity
  8
SUNPOU
  6
ByBlock
100
AcDbCircle
 10
12273.40680314955
 20
3618.337036584561
 30
0.0
 40
7.5
100
AcDbArc
 50
270.0
 51
90.0
  0
ARC
  5
185AA
330
180F8
100
AcDbEntity
  8
SUNPOU
  6
ByBlock
100
AcDbCircle
 10
12273.40680314955
 20
3618.337036584561
 30
0.0
 40
7.5
100
AcDbArc
 50
90.0
 51
270.0
  0
ARC
  5
185AB
330
180F8
100
AcDbEntity
  8
SUNPOU
  6
ByBlock
100
AcDbCircle
 10
12273.40680314955
 20
3726.33703658456
 30
0.0
 40
7.5
100
AcDbArc
 50
90.0
 51
270.0
  0
ARC
  5
185AC
330
180F8
100
AcDbEntity
  8
SUNPOU
  6
ByBlock
100
AcDbCircle
 10
12273.40680314955
 20
3726.33703658456
 30
0.0
 40
7.5
100
AcDbArc
 50
270.0
 51
90.0
  0
ARC
  5
185AD
330
180F8
100
AcDbEntity
  8
SUNPOU
  6
ByBlock
100
AcDbCircle
 10
11861.33837406209
 20
2245.804976716085
 30
0.0
 40
7.5
100
AcDbArc
 50
0.0
 51
180.0
  0
ARC
  5
185AE
330
180F8
100
AcDbEntity
  8
SUNPOU
  6
ByBlock
100
AcDbCircle
 10
11861.33837406209
 20
2245.804976716085
 30
0.0
 40
7.5
100
AcDbArc
 50
180.0
 51
0.0
  0
ARC
  5
185AF
330
180F8
100
AcDbEntity
  8
SUNPOU
  6
ByBlock
100
AcDbCircle
 10
11781.33837406209
 20
2245.804976716085
 30
0.0
 40
7.5
100
AcDbArc
 50
180.0
 51
0.0
  0
ARC
  5
185B0
330
180F8
100
AcDbEntity
  8
SUNPOU
  6
ByBlock
100
AcDbCircle
 10
11781.33837406209
 20
2245.804976716085
 30
0.0
 40
7.5
100
AcDbArc
 50
0.0
 51
180.0
  0
ARC
  5
185B1
330
180F8
100
AcDbEntity
  8
SUNPOU
  6
ByBlock
100
AcDbCircle
 10
11781.33837406209
 20
2245.804976716085
 30
0.0
 40
7.5
100
AcDbArc
 50
180.0
 51
0.0
  0
ARC
  5
185B2
330
180F8
100
AcDbEntity
  8
SUNPOU
  6
ByBlock
100
AcDbCircle
 10
11781.33837406209
 20
2245.804976716085
 30
0.0
 40
7.5
100
AcDbArc
 50
0.0
 51
180.0
  0
ARC
  5
185B3
330
180F8
100
AcDbEntity
  8
SUNPOU
  6
ByBlock
100
AcDbCircle
 10
11301.33837406211
 20
2245.804976716085
 30
0.0
 40
7.5
100
AcDbArc
 50
0.0
 51
180.0
  0
ARC
  5
185B4
330
180F8
100
AcDbEntity
  8
SUNPOU
  6
ByBlock
100
AcDbCircle
 10
11301.33837406211
 20
2245.804976716085
 30
0.0
 40
7.5
100
AcDbArc
 50
180.0
 51
0.0
  0
ARC
  5
185B5
330
180F8
100
AcDbEntity
  8
SUNPOU
  6
ByBlock
100
AcDbCircle
 10
11221.33837406209
 20
2245.804976716085
 30
0.0
 40
7.5
100
AcDbArc
 50
180.0
 51
0.0
  0
ARC
  5
185B6
330
180F8
100
AcDbEntity
  8
SUNPOU
  6
ByBlock
100
AcDbCircle
 10
11221.33837406209
 20
2245.804976716085
 30
0.0
 40
7.5
100
AcDbArc
 50
0.0
 51
180.0
  0
ARC
  5
185B7
330
180F8
100
AcDbEntity
  8
SUNPOU
  6
ByBlock
100
AcDbCircle
 10
11301.33837406211
 20
2245.804976716085
 30
0.0
 40
7.5
100
AcDbArc
 50
0.0
 51
180.0
  0
ARC
  5
185B8
330
180F8
100
AcDbEntity
  8
SUNPOU
  6
ByBlock
100
AcDbCircle
 10
11301.33837406211
 20
2245.804976716085
 30
0.0
 40
7.5
100
AcDbArc
 50
180.0
 51
0.0
  0
ARC
  5
185B9
330
180F8
100
AcDbEntity
  8
SUNPOU
  6
ByBlock
100
AcDbCircle
 10
11861.33837406209
 20
2035.804976716086
 30
0.0
 40
7.5
100
AcDbArc
 50
180.0
 51
0.0
  0
ARC
  5
185BA
330
180F8
100
AcDbEntity
  8
SUNPOU
  6
ByBlock
100
AcDbCircle
 10
11861.33837406209
 20
2035.804976716086
 30
0.0
 40
7.5
100
AcDbArc
 50
0.0
 51
180.0
  0
ARC
  5
185BB
330
180F8
100
AcDbEntity
  8
SUNPOU
  6
ByBlock
100
AcDbCircle
 10
11221.33837406209
 20
2035.804976716086
 30
0.0
 40
7.5
100
AcDbArc
 50
0.0
 51
180.0
  0
ARC
  5
185BC
330
180F8
100
AcDbEntity
  8
SUNPOU
  6
ByBlock
100
AcDbCircle
 10
11221.33837406209
 20
2035.804976716086
 30
0.0
 40
7.5
100
AcDbArc
 50
180.0
 51
0.0
  0
ARC
  5
185BD
330
180F8
100
AcDbEntity
  8
SUNPOU
  6
ByBlock
100
AcDbCircle
 10
10918.33837406209
 20
2540.144344053149
 30
0.0
 40
7.5
100
AcDbArc
 50
90.0
 51
270.0
  0
ARC
  5
185BE
330
180F8
100
AcDbEntity
  8
SUNPOU
  6
ByBlock
100
AcDbCircle
 10
10918.33837406209
 20
2540.144344053149
 30
0.0
 40
7.5
100
AcDbArc
 50
270.0
 51
90.0
  0
ARC
  5
185BF
330
180F8
100
AcDbEntity
  8
SUNPOU
  6
ByBlock
100
AcDbCircle
 10
10918.33837406209
 20
2700.144344053149
 30
0.0
 40
7.5
100
AcDbArc
 50
270.0
 51
90.0
  0
ARC
  5
185C0
330
180F8
100
AcDbEntity
  8
SUNPOU
  6
ByBlock
100
AcDbCircle
 10
10918.33837406209
 20
2700.144344053149
 30
0.0
 40
7.5
100
AcDbArc
 50
90.0
 51
270.0
  0
ARC
  5
185C1
330
180F8
100
AcDbEntity
  8
SUNPOU
  6
ByBlock
100
AcDbCircle
 10
10918.33837406209
 20
2860.144344053149
 30
0.0
 40
7.5
100
AcDbArc
 50
270.0
 51
90.0
  0
ARC
  5
185C2
330
180F8
100
AcDbEntity
  8
SUNPOU
  6
ByBlock
100
AcDbCircle
 10
10918.33837406209
 20
2860.144344053149
 30
0.0
 40
7.5
100
AcDbArc
 50
90.0
 51
270.0
  0
ARC
  5
185C3
330
180F8
100
AcDbEntity
  8
SUNPOU
  6
ByBlock
100
AcDbCircle
 10
10918.33837406209
 20
2700.144344053149
 30
0.0
 40
7.5
100
AcDbArc
 50
90.0
 51
270.0
  0
ARC
  5
185C4
330
180F8
100
AcDbEntity
  8
SUNPOU
  6
ByBlock
100
AcDbCircle
 10
10918.33837406209
 20
2700.144344053149
 30
0.0
 40
7.5
100
AcDbArc
 50
270.0
 51
90.0
  0
ARC
  5
185C5
330
180F8
100
AcDbEntity
  8
SUNPOU
  6
ByBlock
100
AcDbCircle
 10
10708.33837406208
 20
2860.144344053149
 30
0.0
 40
7.5
100
AcDbArc
 50
270.0
 51
90.0
  0
ARC
  5
185C6
330
180F8
100
AcDbEntity
  8
SUNPOU
  6
ByBlock
100
AcDbCircle
 10
10708.33837406208
 20
2860.144344053149
 30
0.0
 40
7.5
100
AcDbArc
 50
90.0
 51
270.0
  0
ARC
  5
185C7
330
180F8
100
AcDbEntity
  8
SUNPOU
  6
ByBlock
100
AcDbCircle
 10
10708.33837406208
 20
2540.144344053149
 30
0.0
 40
7.5
100
AcDbArc
 50
90.0
 51
270.0
  0
ARC
  5
185C8
330
180F8
100
AcDbEntity
  8
SUNPOU
  6
ByBlock
100
AcDbCircle
 10
10708.33837406208
 20
2540.144344053149
 30
0.0
 40
7.5
100
AcDbArc
 50
270.0
 51
90.0
  0
ARC
  5
185C9
330
180F8
100
AcDbEntity
  8
SUNPOU
  6
ByBlock
100
AcDbCircle
 10
11861.33837406209
 20
3394.170862655057
 30
0.0
 40
7.5
100
AcDbArc
 50
0.0
 51
180.0
  0
ARC
  5
185CA
330
180F8
100
AcDbEntity
  8
SUNPOU
  6
ByBlock
100
AcDbCircle
 10
11861.33837406209
 20
3394.170862655057
 30
0.0
 40
7.5
100
AcDbArc
 50
180.0
 51
0.0
  0
ARC
  5
185CB
330
180F8
100
AcDbEntity
  8
SUNPOU
  6
ByBlock
100
AcDbCircle
 10
11781.33837406209
 20
3394.170862655057
 30
0.0
 40
7.5
100
AcDbArc
 50
180.0
 51
0.0
  0
ARC
  5
185CC
330
180F8
100
AcDbEntity
  8
SUNPOU
  6
ByBlock
100
AcDbCircle
 10
11781.33837406209
 20
3394.170862655057
 30
0.0
 40
7.5
100
AcDbArc
 50
0.0
 51
180.0
  0
ARC
  5
185CD
330
180F8
100
AcDbEntity
  8
SUNPOU
  6
ByBlock
100
AcDbCircle
 10
11781.33837406209
 20
3394.170862655057
 30
0.0
 40
7.5
100
AcDbArc
 50
180.0
 51
0.0
  0
ARC
  5
185CE
330
180F8
100
AcDbEntity
  8
SUNPOU
  6
ByBlock
100
AcDbCircle
 10
11781.33837406209
 20
3394.170862655057
 30
0.0
 40
7.5
100
AcDbArc
 50
0.0
 51
180.0
  0
ARC
  5
185CF
330
180F8
100
AcDbEntity
  8
SUNPOU
  6
ByBlock
100
AcDbCircle
 10
11301.33837406211
 20
3394.170862655057
 30
0.0
 40
7.5
100
AcDbArc
 50
0.0
 51
180.0
  0
ARC
  5
185D0
330
180F8
100
AcDbEntity
  8
SUNPOU
  6
ByBlock
100
AcDbCircle
 10
11301.33837406211
 20
3394.170862655057
 30
0.0
 40
7.5
100
AcDbArc
 50
180.0
 51
0.0
  0
ARC
  5
185D1
330
180F8
100
AcDbEntity
  8
SUNPOU
  6
ByBlock
100
AcDbCircle
 10
11221.33837406209
 20
3394.170862655057
 30
0.0
 40
7.5
100
AcDbArc
 50
180.0
 51
0.0
  0
ARC
  5
185D2
330
180F8
100
AcDbEntity
  8
SUNPOU
  6
ByBlock
100
AcDbCircle
 10
11221.33837406209
 20
3394.170862655057
 30
0.0
 40
7.5
100
AcDbArc
 50
0.0
 51
180.0
  0
ARC
  5
185D3
330
180F8
100
AcDbEntity
  8
SUNPOU
  6
ByBlock
100
AcDbCircle
 10
11301.33837406211
 20
3394.170862655057
 30
0.0
 40
7.5
100
AcDbArc
 50
0.0
 51
180.0
  0
ARC
  5
185D4
330
180F8
100
AcDbEntity
  8
SUNPOU
  6
ByBlock
100
AcDbCircle
 10
11301.33837406211
 20
3394.170862655057
 30
0.0
 40
7.5
100
AcDbArc
 50
180.0
 51
0.0
  0
ARC
  5
185D5
330
180F8
100
AcDbEntity
  8
SUNPOU
  6
ByBlock
100
AcDbCircle
 10
11861.33837406209
 20
3184.170862655058
 30
0.0
 40
7.5
100
AcDbArc
 50
180.0
 51
0.0
  0
ARC
  5
185D6
330
180F8
100
AcDbEntity
  8
SUNPOU
  6
ByBlock
100
AcDbCircle
 10
11861.33837406209
 20
3184.170862655058
 30
0.0
 40
7.5
100
AcDbArc
 50
0.0
 51
180.0
  0
ARC
  5
185D7
330
180F8
100
AcDbEntity
  8
SUNPOU
  6
ByBlock
100
AcDbCircle
 10
11221.33837406209
 20
3184.170862655058
 30
0.0
 40
7.5
100
AcDbArc
 50
0.0
 51
180.0
  0
ARC
  5
185D8
330
180F8
100
AcDbEntity
  8
SUNPOU
  6
ByBlock
100
AcDbCircle
 10
11221.33837406209
 20
3184.170862655058
 30
0.0
 40
7.5
100
AcDbArc
 50
180.0
 51
0.0
  0
ARC
  5
185D9
330
180F8
100
AcDbEntity
  8
SUNPOU
  6
ByBlock
100
AcDbCircle
 10
9451.882670973587
 20
2116.684839419599
 30
0.0
 40
7.5
100
AcDbArc
 50
180.0
 51
0.0
  0
ARC
  5
185DA
330
180F8
100
AcDbEntity
  8
SUNPOU
  6
ByBlock
100
AcDbCircle
 10
9451.882670973587
 20
2116.684839419599
 30
0.0
 40
7.5
100
AcDbArc
 50
0.0
 51
180.0
  0
ARC
  5
185DB
330
180F8
100
AcDbEntity
  8
SUNPOU
  6
ByBlock
100
AcDbCircle
 10
8171.882670973586
 20
2116.684839419599
 30
0.0
 40
7.5
100
AcDbArc
 50
0.0
 51
180.0
  0
ARC
  5
185DC
330
180F8
100
AcDbEntity
  8
SUNPOU
  6
ByBlock
100
AcDbCircle
 10
8171.882670973586
 20
2116.684839419599
 30
0.0
 40
7.5
100
AcDbArc
 50
180.0
 51
0.0
  0
ARC
  5
185DD
330
180F8
100
AcDbEntity
  8
SUNPOU
  6
ByBlock
100
AcDbCircle
 10
9611.882670973589
 20
1906.6848394196
 30
0.0
 40
7.5
100
AcDbArc
 50
180.0
 51
0.0
  0
ARC
  5
185DE
330
180F8
100
AcDbEntity
  8
SUNPOU
  6
ByBlock
100
AcDbCircle
 10
9611.882670973589
 20
1906.6848394196
 30
0.0
 40
7.5
100
AcDbArc
 50
0.0
 51
180.0
  0
ARC
  5
185DF
330
180F8
100
AcDbEntity
  8
SUNPOU
  6
ByBlock
100
AcDbCircle
 10
8011.882670973587
 20
1906.6848394196
 30
0.0
 40
7.5
100
AcDbArc
 50
0.0
 51
180.0
  0
ARC
  5
185E0
330
180F8
100
AcDbEntity
  8
SUNPOU
  6
ByBlock
100
AcDbCircle
 10
8011.882670973587
 20
1906.6848394196
 30
0.0
 40
7.5
100
AcDbArc
 50
180.0
 51
0.0
  0
ARC
  5
185E1
330
180F8
100
AcDbEntity
  8
SUNPOU
  6
ByBlock
100
AcDbCircle
 10
7046.741617209526
 20
3447.084839419609
 30
0.0
 40
7.5
100
AcDbArc
 50
90.0
 51
270.0
  0
ARC
  5
185E2
330
180F8
100
AcDbEntity
  8
SUNPOU
  6
ByBlock
100
AcDbCircle
 10
7046.741617209526
 20
3447.084839419609
 30
0.0
 40
7.5
100
AcDbArc
 50
270.0
 51
90.0
  0
ARC
  5
185E3
330
180F8
100
AcDbEntity
  8
SUNPOU
  6
ByBlock
100
AcDbCircle
 10
7046.741617209526
 20
3367.084839419608
 30
0.0
 40
7.5
100
AcDbArc
 50
270.0
 51
90.0
  0
ARC
  5
185E4
330
180F8
100
AcDbEntity
  8
SUNPOU
  6
ByBlock
100
AcDbCircle
 10
7046.741617209526
 20
3367.084839419608
 30
0.0
 40
7.5
100
AcDbArc
 50
90.0
 51
270.0
  0
ARC
  5
185E5
330
180F8
100
AcDbEntity
  8
SUNPOU
  6
ByBlock
100
AcDbCircle
 10
7691.882670973587
 20
4130.485411556196
 30
0.0
 40
7.5
100
AcDbArc
 50
0.0
 51
180.0
  0
ARC
  5
185E6
330
180F8
100
AcDbEntity
  8
SUNPOU
  6
ByBlock
100
AcDbCircle
 10
7691.882670973587
 20
4130.485411556196
 30
0.0
 40
7.5
100
AcDbArc
 50
180.0
 51
0.0
  0
ARC
  5
185E7
330
180F8
100
AcDbEntity
  8
SUNPOU
  6
ByBlock
100
AcDbCircle
 10
8811.882670973586
 20
4130.485411556196
 30
0.0
 40
7.5
100
AcDbArc
 50
180.0
 51
0.0
  0
ARC
  5
185E8
330
180F8
100
AcDbEntity
  8
SUNPOU
  6
ByBlock
100
AcDbCircle
 10
8811.882670973586
 20
4130.485411556196
 30
0.0
 40
7.5
100
AcDbArc
 50
0.0
 51
180.0
  0
ARC
  5
185E9
330
180F8
100
AcDbEntity
  8
SUNPOU
  6
ByBlock
100
AcDbCircle
 10
5439.797051267463
 20
2116.684839419598
 30
0.0
 40
7.5
100
AcDbArc
 50
180.0
 51
0.0
  0
ARC
  5
185EA
330
180F8
100
AcDbEntity
  8
SUNPOU
  6
ByBlock
100
AcDbCircle
 10
5439.797051267463
 20
2116.684839419598
 30
0.0
 40
7.5
100
AcDbArc
 50
0.0
 51
180.0
  0
ARC
  5
185EB
330
180F8
100
AcDbEntity
  8
SUNPOU
  6
ByBlock
100
AcDbCircle
 10
4159.797051267463
 20
2116.684839419598
 30
0.0
 40
7.5
100
AcDbArc
 50
0.0
 51
180.0
  0
ARC
  5
185EC
330
180F8
100
AcDbEntity
  8
SUNPOU
  6
ByBlock
100
AcDbCircle
 10
4159.797051267463
 20
2116.684839419598
 30
0.0
 40
7.5
100
AcDbArc
 50
180.0
 51
0.0
  0
ARC
  5
185ED
330
180F8
100
AcDbEntity
  8
SUNPOU
  6
ByBlock
100
AcDbCircle
 10
5599.797051267461
 20
1906.684839419597
 30
0.0
 40
7.5
100
AcDbArc
 50
180.0
 51
0.0
  0
ARC
  5
185EE
330
180F8
100
AcDbEntity
  8
SUNPOU
  6
ByBlock
100
AcDbCircle
 10
5599.797051267461
 20
1906.684839419597
 30
0.0
 40
7.5
100
AcDbArc
 50
0.0
 51
180.0
  0
ARC
  5
185EF
330
180F8
100
AcDbEntity
  8
SUNPOU
  6
ByBlock
100
AcDbCircle
 10
3999.797051267461
 20
1906.684839419597
 30
0.0
 40
7.5
100
AcDbArc
 50
0.0
 51
180.0
  0
ARC
  5
185F0
330
180F8
100
AcDbEntity
  8
SUNPOU
  6
ByBlock
100
AcDbCircle
 10
3999.797051267461
 20
1906.684839419597
 30
0.0
 40
7.5
100
AcDbArc
 50
180.0
 51
0.0
  0
ARC
  5
185F1
330
180F8
100
AcDbEntity
  8
SUNPOU
  6
ByBlock
100
AcDbCircle
 10
4159.797051267463
 20
4130.485411556192
 30
0.0
 40
7.5
100
AcDbArc
 50
0.0
 51
180.0
  0
ARC
  5
185F2
330
180F8
100
AcDbEntity
  8
SUNPOU
  6
ByBlock
100
AcDbCircle
 10
4159.797051267463
 20
4130.485411556192
 30
0.0
 40
7.5
100
AcDbArc
 50
180.0
 51
0.0
  0
ARC
  5
185F3
330
180F8
100
AcDbEntity
  8
SUNPOU
  6
ByBlock
100
AcDbCircle
 10
4799.797051267463
 20
4130.485411556192
 30
0.0
 40
7.5
100
AcDbArc
 50
180.0
 51
0.0
  0
ARC
  5
185F4
330
180F8
100
AcDbEntity
  8
SUNPOU
  6
ByBlock
100
AcDbCircle
 10
4799.797051267463
 20
4130.485411556192
 30
0.0
 40
7.5
100
AcDbArc
 50
0.0
 51
180.0
  0
ARC
  5
185F5
330
180F8
100
AcDbEntity
  8
HIKIDASHI
100
AcDbCircle
 10
7474.844543803648
 20
1890.249695302057
 30
0.0
 40
74.66417910452232
100
AcDbArc
 50
301.7712278330705
 51
15.14038701490951
  0
LINE
  5
185F6
330
180F8
100
AcDbEntity
  8
HIKIDASHI
100
AcDbLine
 10
9664.166424100065
 20
2458.533958674481
 30
0.0
 11
9828.423716508787
 21
2268.304238552882
 31
0.0
1001
ACAD
1000
DSTYLE
1002
{
1070
   147
1040
1.0
1070
    77
1070
     0
1002
}
  0
LINE
  5
185F7
330
180F8
100
AcDbEntity
  8
HIKIDASHI
100
AcDbLine
 10
9674.258237557587
 20
2467.247917528894
 30
0.0
 11
9611.882670973589
 21
2519.084839419599
 31
0.0
  0
LINE
  5
185F8
330
180F8
100
AcDbEntity
  8
HIKIDASHI
100
AcDbLine
 10
9611.882670973589
 20
2519.084839419599
 30
0.0
 11
9654.074610642547
 21
2449.819999820067
 31
0.0
  0
SOLID
  5
185F9
330
180F8
100
AcDbEntity
  8
HIKIDASHI
100
AcDbTrace
 10
9674.258237557587
 20
2467.247917528894
 30
0.0
 11
9654.074610642547
 21
2449.819999820067
 31
0.0
 12
9611.882670973589
 22
2519.084839419599
 32
0.0
 13
9611.882670973589
 23
2519.084839419599
 33
0.0
  0
LINE
  5
185FA
330
180F8
100
AcDbEntity
  8
HIKIDASHI
100
AcDbLine
 10
9654.074610642547
 20
2449.819999820067
 30
0.0
 11
9674.258237557587
 21
2467.247917528894
 31
0.0
  0
LINE
  5
185FB
330
180F8
100
AcDbEntity
  8
HIKIDASHI
100
AcDbLine
 10
11865.19119696312
 20
2619.990092191335
 30
0.0
 11
12256.64239875644
 21
2245.804976716085
 31
0.0
1001
ACAD
1000
DSTYLE
1002
{
1070
   147
1040
1.0
1070
    77
1070
     0
1002
}
  0
LINE
  5
185FC
330
180F8
100
AcDbEntity
  8
HIKIDASHI
100
AcDbLine
 10
11874.40432936103
 20
2629.628347697202
 30
0.0
 11
11807.36166392793
 21
2675.268886578793
 31
0.0
  0
LINE
  5
185FD
330
180F8
100
AcDbEntity
  8
HIKIDASHI
100
AcDbLine
 10
11807.36166392793
 20
2675.268886578793
 30
0.0
 11
11855.97806456522
 21
2610.351836685468
 31
0.0
  0
SOLID
  5
185FE
330
180F8
100
AcDbEntity
  8
HIKIDASHI
100
AcDbTrace
 10
11874.40432936103
 20
2629.628347697202
 30
0.0
 11
11855.97806456522
 21
2610.351836685468
 31
0.0
 12
11807.36166392793
 22
2675.268886578793
 32
0.0
 13
11807.36166392793
 23
2675.268886578793
 33
0.0
  0
LINE
  5
185FF
330
180F8
100
AcDbEntity
  8
HIKIDASHI
100
AcDbLine
 10
11855.97806456522
 20
2610.351836685468
 30
0.0
 11
11874.40432936103
 21
2629.628347697202
 31
0.0
  0
LINE
  5
18600
330
180F8
100
AcDbEntity
  8
HIKIDASHI
100
AcDbLine
 10
11918.49428872015
 20
2916.119351150967
 30
0.0
 11
12073.23363223807
 21
3067.661600164834
 31
0.0
1001
ACAD
1000
DSTYLE
1002
{
1070
   147
1040
1.0
1070
    77
1070
     0
1002
}
  0
LINE
  5
18601
330
180F8
100
AcDbEntity
  8
HIKIDASHI
100
AcDbLine
 10
11909.16512087052
 20
2925.645336927309
 30
0.0
 11
11861.33837406209
 21
2860.144344053149
 31
0.0
  0
LINE
  5
18602
330
180F8
100
AcDbEntity
  8
HIKIDASHI
100
AcDbLine
 10
11861.33837406209
 20
2860.144344053149
 30
0.0
 11
11927.82345656978
 21
2906.593365374622
 31
0.0
  0
SOLID
  5
18603
330
180F8
100
AcDbEntity
  8
HIKIDASHI
100
AcDbTrace
 10
11909.16512087052
 20
2925.645336927309
 30
0.0
 11
11927.82345656978
 21
2906.593365374622
 31
0.0
 12
11861.33837406209
 22
2860.144344053149
 32
0.0
 13
11861.33837406209
 23
2860.144344053149
 33
0.0
  0
LINE
  5
18604
330
180F8
100
AcDbEntity
  8
HIKIDASHI
100
AcDbLine
 10
11927.82345656978
 20
2906.593365374622
 30
0.0
 11
11909.16512087052
 21
2925.645336927309
 31
0.0
  0
LINE
  5
18605
330
180F8
100
AcDbEntity
  8
HIKIDASHI
100
AcDbLine
 10
8597.202471512984
 20
2790.288985226448
 30
0.0
 11
7799.784826072476
 21
1938.684839419604
 31
0.0
1001
ACAD
1000
DSTYLE
1002
{
1070
   147
1040
1.0
1070
    77
1070
     0
1002
}
  0
LINE
  5
18606
330
180F8
100
AcDbEntity
  8
HIKIDASHI
100
AcDbLine
 10
8606.93511387851
 20
2781.17561864968
 30
0.0
 11
8651.882670973586
 21
2848.684839419607
 31
0.0
  0
LINE
  5
18607
330
180F8
100
AcDbEntity
  8
HIKIDASHI
100
AcDbLine
 10
8651.882670973586
 20
2848.684839419607
 30
0.0
 11
8587.469829147456
 21
2799.402351803216
 31
0.0
  0
SOLID
  5
18608
330
180F8
100
AcDbEntity
  8
HIKIDASHI
100
AcDbTrace
 10
8606.93511387851
 20
2781.17561864968
 30
0.0
 11
8587.469829147456
 21
2799.402351803216
 31
0.0
 12
8651.882670973586
 22
2848.684839419607
 32
0.0
 13
8651.882670973586
 23
2848.684839419607
 33
0.0
  0
LINE
  5
18609
330
180F8
100
AcDbEntity
  8
HIKIDASHI
100
AcDbLine
 10
8587.469829147456
 20
2799.402351803216
 30
0.0
 11
8606.93511387851
 21
2781.17561864968
 31
0.0
  0
LINE
  5
1860A
330
180F8
100
AcDbEntity
  8
HIKIDASHI
100
AcDbLine
 10
9281.837679166114
 20
3516.366871722365
 30
0.0
 11
9509.613064339452
 21
3910.885411556199
 31
0.0
1001
ACAD
1000
DSTYLE
1002
{
1070
   147
1040
1.0
1070
    77
1070
     0
1002
}
  0
LINE
  5
1860B
330
180F8
100
AcDbEntity
  8
HIKIDASHI
100
AcDbLine
 10
9270.290673782321
 20
3523.03353838903
 30
0.0
 11
9241.837679166115
 21
3447.084839419606
 31
0.0
  0
LINE
  5
1860C
330
180F8
100
AcDbEntity
  8
HIKIDASHI
100
AcDbLine
 10
9241.837679166115
 20
3447.084839419606
 30
0.0
 11
9293.384684549909
 21
3509.700205055697
 31
0.0
  0
SOLID
  5
1860D
330
180F8
100
AcDbEntity
  8
HIKIDASHI
100
AcDbTrace
 10
9270.290673782321
 20
3523.03353838903
 30
0.0
 11
9293.384684549909
 21
3509.700205055697
 31
0.0
 12
9241.837679166115
 22
3447.084839419606
 32
0.0
 13
9241.837679166115
 23
3447.084839419606
 33
0.0
  0
LINE
  5
1860E
330
180F8
100
AcDbEntity
  8
HIKIDASHI
100
AcDbLine
 10
9293.384684549909
 20
3509.700205055697
 30
0.0
 11
9270.290673782321
 21
3523.03353838903
 31
0.0
  0
LINE
  5
1860F
330
180F8
100
AcDbEntity
  8
HIKIDASHI
100
AcDbLine
 10
5106.084662666018
 20
3516.366871722365
 30
0.0
 11
5333.860047839355
 21
3910.885411556197
 31
0.0
1001
ACAD
1000
DSTYLE
1002
{
1070
   147
1040
1.0
1070
    77
1070
     0
1002
}
  0
LINE
  5
18610
330
180F8
100
AcDbEntity
  8
HIKIDASHI
100
AcDbLine
 10
5094.537657282226
 20
3523.033538389032
 30
0.0
 11
5066.084662666021
 21
3447.084839419609
 31
0.0
  0
LINE
  5
18611
330
180F8
100
AcDbEntity
  8
HIKIDASHI
100
AcDbLine
 10
5066.084662666021
 20
3447.084839419609
 30
0.0
 11
5117.631668049813
 21
3509.7002050557
 31
0.0
  0
SOLID
  5
18612
330
180F8
100
AcDbEntity
  8
HIKIDASHI
100
AcDbTrace
 10
5094.537657282226
 20
3523.033538389032
 30
0.0
 11
5117.631668049813
 21
3509.7002050557
 31
0.0
 12
5066.084662666021
 22
3447.084839419609
 32
0.0
 13
5066.084662666021
 23
3447.084839419609
 33
0.0
  0
LINE
  5
18613
330
180F8
100
AcDbEntity
  8
HIKIDASHI
100
AcDbLine
 10
5117.631668049813
 20
3509.7002050557
 30
0.0
 11
5094.537657282226
 21
3523.033538389032
 31
0.0
  0
LINE
  5
18614
330
180F8
100
AcDbEntity
  8
HIKIDASHI
100
AcDbLine
 10
5652.080804393938
 20
2458.533958674481
 30
0.0
 11
5816.338096802658
 21
2268.304238552882
 31
0.0
1001
ACAD
1000
DSTYLE
1002
{
1070
   147
1040
1.0
1070
    77
1070
     0
1002
}
  0
LINE
  5
18615
330
180F8
100
AcDbEntity
  8
HIKIDASHI
100
AcDbLine
 10
5662.172617851457
 20
2467.247917528894
 30
0.0
 11
5599.797051267461
 21
2519.084839419599
 31
0.0
  0
LINE
  5
18616
330
180F8
100
AcDbEntity
  8
HIKIDASHI
100
AcDbLine
 10
5599.797051267461
 20
2519.084839419599
 30
0.0
 11
5641.988990936418
 21
2449.819999820067
 31
0.0
  0
SOLID
  5
18617
330
180F8
100
AcDbEntity
  8
HIKIDASHI
100
AcDbTrace
 10
5662.172617851457
 20
2467.247917528894
 30
0.0
 11
5641.988990936418
 21
2449.819999820067
 31
0.0
 12
5599.797051267461
 22
2519.084839419599
 32
0.0
 13
5599.797051267461
 23
2519.084839419599
 33
0.0
  0
LINE
  5
18618
330
180F8
100
AcDbEntity
  8
HIKIDASHI
100
AcDbLine
 10
5641.988990936418
 20
2449.819999820067
 30
0.0
 11
5662.172617851457
 21
2467.247917528894
 31
0.0
  0
LINE
  5
18619
330
180F8
100
AcDbEntity
  8
HIKIDASHI
100
AcDbLine
 10
5527.219932351911
 20
3186.71334053391
 30
0.0
 11
5674.871662611157
 21
2904.11470702088
 31
0.0
1001
ACAD
1000
DSTYLE
1002
{
1070
    41
1040
2.0
1070
   173
1070
     0
1070
   341
1005
125B0
1002
}
  0
ARC
  5
1861A
330
180F8
100
AcDbEntity
  8
HIKIDASHI
  6
ByBlock
100
AcDbCircle
 10
5466.303662984127
 20
3260.115302307004
 30
0.0
 40
24.0
100
AcDbArc
 50
241.1434129563093
 51
354.0287934324678
  0
ARC
  5
1861B
330
180F8
100
AcDbEntity
  8
HIKIDASHI
  6
ByBlock
100
AcDbCircle
 10
5514.043229362011
 20
3255.121926489831
 30
0.0
 40
24.0
100
AcDbArc
 50
61.1434129563092
 51
174.0287934324676
  0
LINE
  5
1861C
330
180F8
100
AcDbEntity
  8
HIKIDASHI
  6
ByBlock
100
AcDbLine
 10
5490.173446173066
 20
3257.618614398416
 30
0.0
 11
5527.219932351918
 21
3186.713340533894
 31
0.0
  0
LINE
  5
1861D
330
180F8
100
AcDbEntity
  8
HATCH
100
AcDbLine
 10
7754.35414803336
 20
3191.084839419572
 30
0.0
 11
7735.154148033355
 21
3224.340214924899
 31
0.0
  0
LINE
  5
1861E
330
180F8
100
AcDbEntity
  8
HATCH
100
AcDbLine
 10
7898.354148033361
 20
3191.084839419572
 30
0.0
 11
7879.154148033355
 21
3224.340214924899
 31
0.0
  0
LINE
  5
1861F
330
180F8
100
AcDbEntity
  8
HATCH
100
AcDbLine
 10
8042.354148033361
 20
3191.084839419572
 30
0.0
 11
8023.154148033357
 21
3224.340214924899
 31
0.0
  0
LINE
  5
18620
330
180F8
100
AcDbEntity
  8
HATCH
100
AcDbLine
 10
7898.35414803143
 20
3191.084839418953
 30
0.0
 11
7879.154148031429
 21
3224.340214924271
 31
0.0
  0
LINE
  5
18621
330
180F8
100
AcDbEntity
  8
HATCH
100
AcDbLine
 10
7754.35414803143
 20
3191.084839418953
 30
0.0
 11
7735.15414803143
 21
3224.340214924271
 31
0.0
  0
LINE
  5
18622
330
180F8
100
AcDbEntity
  8
HATCH
100
AcDbLine
 10
8042.35414803143
 20
3191.084839418953
 30
0.0
 11
8023.154148031435
 21
3224.340214924271
 31
0.0
  0
LINE
  5
18623
330
180F8
100
AcDbEntity
  8
KISO
100
AcDbLine
 10
9611.882670973589
 20
2679.084839419599
 30
0.0
 11
8011.882670973587
 21
2679.084839419599
 31
0.0
  0
LINE
  5
18624
330
180F8
100
AcDbEntity
  8
KISO
100
AcDbLine
 10
8011.882670973587
 20
2679.084839419599
 30
0.0
 11
8011.882670973587
 21
2519.084839419599
 31
0.0
  0
LINE
  5
18625
330
180F8
100
AcDbEntity
  8
KISO
100
AcDbLine
 10
8011.882670973587
 20
2519.084839419599
 30
0.0
 11
9611.882670973589
 21
2519.084839419599
 31
0.0
  0
LINE
  5
18626
330
180F8
100
AcDbEntity
  8
KISO
100
AcDbLine
 10
9611.882670973589
 20
2519.084839419599
 30
0.0
 11
9611.882670973589
 21
2679.084839419599
 31
0.0
  0
LINE
  5
18627
330
180F8
100
AcDbEntity
  8
DOMAKON
100
AcDbLine
 10
10019.12750789964
 20
6708.693182432331
 30
0.0
 11
6819.127507899648
 21
6708.693182432331
 31
0.0
  0
LINE
  5
18628
330
180F8
100
AcDbEntity
  8
DOMAKON
100
AcDbLine
 10
6819.127507899648
 20
6708.693182432331
 30
0.0
 11
6819.127507899648
 21
9043.693182432328
 31
0.0
  0
LINE
  5
18629
330
180F8
100
AcDbEntity
  8
DOMAKON
100
AcDbLine
 10
6819.127507899648
 20
9043.693182432328
 30
0.0
 11
10019.12750789964
 21
9043.693182432331
 31
0.0
  0
LINE
  5
1862A
330
180F8
100
AcDbEntity
  8
DOMAKON
100
AcDbLine
 10
10019.12750789964
 20
9043.693182432331
 30
0.0
 11
10019.12750789964
 21
6708.693182432331
 31
0.0
  0
LINE
  5
1862B
330
180F8
100
AcDbEntity
  8
KISO
100
AcDbLine
 10
6819.127507899648
 20
8443.693182432332
 30
0.0
 11
7619.127507899648
 21
8443.693182432332
 31
0.0
  0
LINE
  5
1862C
330
180F8
100
AcDbEntity
  8
KISO
100
AcDbLine
 10
7619.127507899648
 20
8443.693182432332
 30
0.0
 11
7619.127507899648
 21
9243.693182432329
 31
0.0
  0
LINE
  5
1862D
330
180F8
100
AcDbEntity
  8
KISO
100
AcDbLine
 10
7619.127507899648
 20
9243.693182432329
 30
0.0
 11
6819.127507899648
 21
9243.693182432329
 31
0.0
  0
LINE
  5
1862E
330
180F8
100
AcDbEntity
  8
KISO
100
AcDbLine
 10
6819.127507899648
 20
9243.693182432329
 30
0.0
 11
6819.127507899648
 21
8443.693182432332
 31
0.0
  0
LINE
  5
1862F
330
180F8
100
AcDbEntity
  8
KISO
100
AcDbLine
 10
6819.127507899648
 20
7008.69318243233
 30
0.0
 11
7619.127507899648
 21
7008.69318243233
 31
0.0
  0
LINE
  5
18630
330
180F8
100
AcDbEntity
  8
KISO
100
AcDbLine
 10
7619.127507899648
 20
7008.69318243233
 30
0.0
 11
7619.127507899648
 21
7808.69318243233
 31
0.0
  0
LINE
  5
18631
330
180F8
100
AcDbEntity
  8
KISO
100
AcDbLine
 10
7619.127507899648
 20
7808.69318243233
 30
0.0
 11
6819.127507899648
 21
7808.69318243233
 31
0.0
  0
LINE
  5
18632
330
180F8
100
AcDbEntity
  8
KISO
100
AcDbLine
 10
6819.127507899648
 20
7808.69318243233
 30
0.0
 11
6819.127507899648
 21
7008.69318243233
 31
0.0
  0
LINE
  5
18633
330
180F8
100
AcDbEntity
  8
KISO
100
AcDbLine
 10
9219.127507899647
 20
7008.693182432331
 30
0.0
 11
10019.12750789964
 21
7008.693182432331
 31
0.0
  0
LINE
  5
18634
330
180F8
100
AcDbEntity
  8
KISO
100
AcDbLine
 10
10019.12750789964
 20
7008.693182432331
 30
0.0
 11
10019.12750789964
 21
7808.693182432333
 31
0.0
  0
LINE
  5
18635
330
180F8
100
AcDbEntity
  8
KISO
100
AcDbLine
 10
10019.12750789964
 20
7808.693182432333
 30
0.0
 11
9219.127507899647
 21
7808.693182432333
 31
0.0
  0
LINE
  5
18636
330
180F8
100
AcDbEntity
  8
KISO
100
AcDbLine
 10
9219.127507899647
 20
7808.693182432333
 30
0.0
 11
9219.127507899647
 21
7008.693182432331
 31
0.0
  0
LINE
  5
18637
330
180F8
100
AcDbEntity
  8
KISO
100
AcDbLine
 10
9219.127507899647
 20
8443.693182432332
 30
0.0
 11
10019.12750789964
 21
8443.693182432332
 31
0.0
  0
LINE
  5
18638
330
180F8
100
AcDbEntity
  8
KISO
100
AcDbLine
 10
10019.12750789964
 20
8443.693182432332
 30
0.0
 11
10019.12750789964
 21
9243.693182432329
 31
0.0
  0
LINE
  5
18639
330
180F8
100
AcDbEntity
  8
KISO
100
AcDbLine
 10
10019.12750789964
 20
9243.693182432329
 30
0.0
 11
9219.127507899647
 21
9243.693182432329
 31
0.0
  0
LINE
  5
1863A
330
180F8
100
AcDbEntity
  8
KISO
100
AcDbLine
 10
9219.127507899647
 20
9243.693182432329
 30
0.0
 11
9219.127507899647
 21
8443.693182432332
 31
0.0
  0
LINE
  5
1863B
330
180F8
100
AcDbEntity
  8
HASHIRA
100
AcDbLine
 10
7181.627507899648
 20
7371.19318243233
 30
0.0
 11
7256.627507899648
 21
7371.19318243233
 31
0.0
  0
LINE
  5
1863C
330
180F8
100
AcDbEntity
  8
HASHIRA
100
AcDbLine
 10
7256.627507899648
 20
7371.19318243233
 30
0.0
 11
7256.627507899648
 21
7446.19318243233
 31
0.0
  0
LINE
  5
1863D
330
180F8
100
AcDbEntity
  8
HASHIRA
100
AcDbLine
 10
7256.627507899648
 20
7446.19318243233
 30
0.0
 11
7181.627507899648
 21
7446.19318243233
 31
0.0
  0
LINE
  5
1863E
330
180F8
100
AcDbEntity
  8
HASHIRA
100
AcDbLine
 10
7181.627507899648
 20
7446.19318243233
 30
0.0
 11
7181.627507899648
 21
7371.19318243233
 31
0.0
  0
LINE
  5
1863F
330
180F8
100
AcDbEntity
  8
HASHIRA
100
AcDbLine
 10
7181.627507899648
 20
8806.19318243233
 30
0.0
 11
7256.627507899648
 21
8806.19318243233
 31
0.0
  0
LINE
  5
18640
330
180F8
100
AcDbEntity
  8
HASHIRA
100
AcDbLine
 10
7256.627507899648
 20
8806.19318243233
 30
0.0
 11
7256.627507899648
 21
8881.193182432332
 31
0.0
  0
LINE
  5
18641
330
180F8
100
AcDbEntity
  8
HASHIRA
100
AcDbLine
 10
7256.627507899648
 20
8881.193182432332
 30
0.0
 11
7181.627507899648
 21
8881.193182432332
 31
0.0
  0
LINE
  5
18642
330
180F8
100
AcDbEntity
  8
HASHIRA
100
AcDbLine
 10
7181.627507899648
 20
8881.193182432332
 30
0.0
 11
7181.627507899648
 21
8806.19318243233
 31
0.0
  0
LINE
  5
18643
330
180F8
100
AcDbEntity
  8
HASHIRA
100
AcDbLine
 10
9581.627507899648
 20
7371.193182432333
 30
0.0
 11
9656.627507899649
 21
7371.193182432333
 31
0.0
  0
LINE
  5
18644
330
180F8
100
AcDbEntity
  8
HASHIRA
100
AcDbLine
 10
9656.627507899649
 20
7371.193182432333
 30
0.0
 11
9656.627507899649
 21
7446.193182432331
 31
0.0
  0
LINE
  5
18645
330
180F8
100
AcDbEntity
  8
HASHIRA
100
AcDbLine
 10
9656.627507899649
 20
7446.193182432331
 30
0.0
 11
9581.627507899648
 21
7446.193182432331
 31
0.0
  0
LINE
  5
18646
330
180F8
100
AcDbEntity
  8
HASHIRA
100
AcDbLine
 10
9581.627507899648
 20
7446.193182432331
 30
0.0
 11
9581.627507899648
 21
7371.193182432333
 31
0.0
  0
LINE
  5
18647
330
180F8
100
AcDbEntity
  8
HASHIRA
100
AcDbLine
 10
9581.627507899648
 20
8806.19318243233
 30
0.0
 11
9656.627507899649
 21
8806.19318243233
 31
0.0
  0
LINE
  5
18648
330
180F8
100
AcDbEntity
  8
HASHIRA
100
AcDbLine
 10
9656.627507899649
 20
8806.19318243233
 30
0.0
 11
9656.627507899649
 21
8881.193182432332
 31
0.0
  0
LINE
  5
18649
330
180F8
100
AcDbEntity
  8
HASHIRA
100
AcDbLine
 10
9656.627507899649
 20
8881.193182432332
 30
0.0
 11
9581.627507899648
 21
8881.193182432332
 31
0.0
  0
LINE
  5
1864A
330
180F8
100
AcDbEntity
  8
HASHIRA
100
AcDbLine
 10
9581.627507899648
 20
8881.193182432332
 30
0.0
 11
9581.627507899648
 21
8806.19318243233
 31
0.0
  0
LINE
  5
1864B
330
180F8
100
AcDbEntity
  8
KISO
100
AcDbLine
 10
5599.797051267461
 20
2679.084839419599
 30
0.0
 11
3999.797051267461
 21
2679.084839419599
 31
0.0
  0
LINE
  5
1864C
330
180F8
100
AcDbEntity
  8
KISO
100
AcDbLine
 10
3999.797051267461
 20
2679.084839419599
 30
0.0
 11
3999.797051267461
 21
2519.084839419599
 31
0.0
  0
LINE
  5
1864D
330
180F8
100
AcDbEntity
  8
KISO
100
AcDbLine
 10
3999.797051267461
 20
2519.084839419599
 30
0.0
 11
5599.797051267461
 21
2519.084839419599
 31
0.0
  0
LINE
  5
1864E
330
180F8
100
AcDbEntity
  8
KISO
100
AcDbLine
 10
5599.797051267461
 20
2519.084839419599
 30
0.0
 11
5599.797051267461
 21
2679.084839419599
 31
0.0
  0
LINE
  5
1864F
330
180F8
100
AcDbEntity
  8
U1
100
AcDbLine
 10
11391.33837406208
 20
2550.144344053149
 30
0.0
 11
11691.33837406209
 21
2550.144344053149
 31
0.0
  0
LINE
  5
18650
330
180F8
100
AcDbEntity
  8
U1
100
AcDbLine
 10
11691.33837406209
 20
2550.144344053149
 30
0.0
 11
11691.33837406209
 21
2850.144344053148
 31
0.0
  0
LINE
  5
18651
330
180F8
100
AcDbEntity
  8
U1
100
AcDbLine
 10
11691.33837406209
 20
2850.144344053148
 30
0.0
 11
11391.33837406208
 21
2850.144344053148
 31
0.0
  0
LINE
  5
18652
330
180F8
100
AcDbEntity
  8
U1
100
AcDbLine
 10
11391.33837406208
 20
2850.144344053148
 30
0.0
 11
11391.33837406208
 21
2550.144344053149
 31
0.0
  0
LINE
  5
18653
330
180F8
100
AcDbEntity
  8
U1
100
AcDbLine
 10
11221.33837406209
 20
2540.144344053149
 30
0.0
 11
11861.33837406209
 21
2540.144344053149
 31
0.0
  0
LINE
  5
18654
330
180F8
100
AcDbEntity
  8
U1
100
AcDbLine
 10
11861.33837406209
 20
2540.144344053149
 30
0.0
 11
11861.33837406209
 21
2860.144344053149
 31
0.0
  0
LINE
  5
18655
330
180F8
100
AcDbEntity
  8
U1
100
AcDbLine
 10
11861.33837406209
 20
2860.144344053149
 30
0.0
 11
11221.33837406209
 21
2860.144344053149
 31
0.0
  0
LINE
  5
18656
330
180F8
100
AcDbEntity
  8
U1
100
AcDbLine
 10
11221.33837406209
 20
2860.144344053149
 30
0.0
 11
11221.33837406209
 21
2540.144344053149
 31
0.0
  0
LINE
  5
18657
330
180F8
100
AcDbEntity
  8
U1
100
AcDbLine
 10
11221.33837406209
 20
3618.337036584561
 30
0.0
 11
11861.33837406209
 21
3618.337036584561
 31
0.0
  0
LINE
  5
18658
330
180F8
100
AcDbEntity
  8
U1
100
AcDbLine
 10
11861.33837406209
 20
3618.337036584561
 30
0.0
 11
11861.33837406209
 21
3642.337036584561
 31
0.0
  0
LINE
  5
18659
330
180F8
100
AcDbEntity
  8
U1
100
AcDbLine
 10
11861.33837406209
 20
3642.337036584561
 30
0.0
 11
11221.33837406209
 21
3642.337036584561
 31
0.0
  0
LINE
  5
1865A
330
180F8
100
AcDbEntity
  8
U1
100
AcDbLine
 10
11221.33837406209
 20
3642.337036584561
 30
0.0
 11
11221.33837406209
 21
3618.337036584561
 31
0.0
  0
LINE
  5
1865B
330
180F8
100
AcDbEntity
  8
HATCH
100
AcDbLine
 10
9748.548652888736
 20
3191.084839418953
 30
0.0
 11
9822.449487345004
 21
3319.084839418947
 31
0.0
  0
LINE
  5
1865C
330
180F8
100
AcDbEntity
  8
HATCH
100
AcDbLine
 10
9784.049487345004
 20
3319.084839418946
 30
0.0
 11
9803.249487345009
 21
3285.829463913628
 31
0.0
  0
LINE
  5
1865D
330
180F8
100
AcDbEntity
  8
HATCH
100
AcDbLine
 10
9460.548652888734
 20
3191.084839418953
 30
0.0
 11
9534.449487345002
 21
3319.084839418947
 31
0.0
  0
LINE
  5
1865E
330
180F8
100
AcDbEntity
  8
HATCH
100
AcDbLine
 10
9496.049487345004
 20
3319.084839418946
 30
0.0
 11
9515.249487345004
 21
3285.829463913628
 31
0.0
  0
LINE
  5
1865F
330
180F8
100
AcDbEntity
  8
HATCH
100
AcDbLine
 10
9604.548652888734
 20
3191.084839418953
 30
0.0
 11
9678.449487345003
 21
3319.084839418947
 31
0.0
  0
LINE
  5
18660
330
180F8
100
AcDbEntity
  8
HATCH
100
AcDbLine
 10
9640.049487345004
 20
3319.084839418946
 30
0.0
 11
9659.249487345009
 21
3285.829463913628
 31
0.0
  0
LINE
  5
18661
330
180F8
100
AcDbEntity
  8
HATCH
100
AcDbLine
 10
9892.548652888734
 20
3191.084839418953
 30
0.0
 11
9966.449487345002
 21
3319.084839418947
 31
0.0
  0
LINE
  5
18662
330
180F8
100
AcDbEntity
  8
HATCH
100
AcDbLine
 10
9928.049487345004
 20
3319.084839418946
 30
0.0
 11
9947.249487345004
 21
3285.829463913628
 31
0.0
  0
LINE
  5
18663
330
180F8
100
AcDbEntity
  8
HATCH
100
AcDbLine
 10
9748.548652890653
 20
3191.084839419572
 30
0.0
 11
9822.44948734694
 21
3319.084839419601
 31
0.0
  0
LINE
  5
18664
330
180F8
100
AcDbEntity
  8
HATCH
100
AcDbLine
 10
9784.049487346933
 20
3319.084839419601
 30
0.0
 11
9803.249487346938
 21
3285.829463914274
 31
0.0
  0
LINE
  5
18665
330
180F8
100
AcDbEntity
  8
HATCH
100
AcDbLine
 10
9892.548652890653
 20
3191.084839419572
 30
0.0
 11
9966.44948734694
 21
3319.084839419601
 31
0.0
  0
LINE
  5
18666
330
180F8
100
AcDbEntity
  8
HATCH
100
AcDbLine
 10
9928.049487346932
 20
3319.084839419601
 30
0.0
 11
9947.249487346939
 21
3285.829463914274
 31
0.0
  0
LINE
  5
18667
330
180F8
100
AcDbEntity
  8
HATCH
100
AcDbLine
 10
9604.548652890651
 20
3191.084839419572
 30
0.0
 11
9678.44948734694
 21
3319.084839419601
 31
0.0
  0
LINE
  5
18668
330
180F8
100
AcDbEntity
  8
HATCH
100
AcDbLine
 10
9640.049487346933
 20
3319.084839419601
 30
0.0
 11
9659.24948734694
 21
3285.829463914274
 31
0.0
  0
LINE
  5
18669
330
180F8
100
AcDbEntity
  8
HATCH
100
AcDbLine
 10
9460.548652890651
 20
3191.084839419572
 30
0.0
 11
9534.44948734694
 21
3319.084839419601
 31
0.0
  0
LINE
  5
1866A
330
180F8
100
AcDbEntity
  8
HATCH
100
AcDbLine
 10
9496.049487346933
 20
3319.084839419601
 30
0.0
 11
9515.24948734694
 21
3285.829463914274
 31
0.0
  0
LINE
  5
1866B
330
180F8
100
AcDbEntity
  8
TENSEN-1
100
AcDbLine
 10
8971.882670973583
 20
2869.484839419605
 30
0.0
 11
8918.282670973587
 21
2869.484839419605
 31
0.0
  0
LINE
  5
1866C
330
180F8
100
AcDbEntity
  8
TENSEN-1
100
AcDbLine
 10
8918.282670973587
 20
2869.484839419605
 30
0.0
 11
8918.282670973587
 21
3360.684839419607
 31
0.0
  0
LINE
  5
1866D
330
180F8
100
AcDbEntity
  8
TENSEN-1
100
AcDbLine
 10
8918.282670973587
 20
3360.684839419607
 30
0.0
 11
8897.482670973586
 21
3360.684839419607
 31
0.0
  0
LINE
  5
1866E
330
180F8
100
AcDbEntity
  8
TENSEN-1
100
AcDbLine
 10
8897.482670973586
 20
3360.684839419607
 30
0.0
 11
8897.48267097358
 21
2848.684839419607
 31
0.0
  0
LINE
  5
1866F
330
180F8
100
AcDbEntity
  8
TENSEN-1
100
AcDbLine
 10
8897.48267097358
 20
2848.684839419607
 30
0.0
 11
8971.882670973583
 21
2848.684839419607
 31
0.0
  0
LINE
  5
18670
330
180F8
100
AcDbEntity
  8
TENSEN-1
100
AcDbLine
 10
8971.882670973583
 20
2848.684839419607
 30
0.0
 11
8971.882670973583
 21
2869.484839419605
 31
0.0
  0
LINE
  5
18671
330
180F8
100
AcDbEntity
  8
TENSEN-1
100
AcDbLine
 10
8651.882670973586
 20
2869.484839419605
 30
0.0
 11
8705.482670973585
 21
2869.484839419605
 31
0.0
  0
LINE
  5
18672
330
180F8
100
AcDbEntity
  8
TENSEN-1
100
AcDbLine
 10
8705.482670973585
 20
2869.484839419605
 30
0.0
 11
8705.482670973585
 21
3360.684839419607
 31
0.0
  0
LINE
  5
18673
330
180F8
100
AcDbEntity
  8
TENSEN-1
100
AcDbLine
 10
8705.482670973585
 20
3360.684839419607
 30
0.0
 11
8726.282670973587
 21
3360.684839419607
 31
0.0
  0
LINE
  5
18674
330
180F8
100
AcDbEntity
  8
TENSEN-1
100
AcDbLine
 10
8726.282670973587
 20
3360.684839419607
 30
0.0
 11
8726.282670973587
 21
2848.684839419607
 31
0.0
  0
LINE
  5
18675
330
180F8
100
AcDbEntity
  8
TENSEN-1
100
AcDbLine
 10
8726.282670973587
 20
2848.684839419607
 30
0.0
 11
8651.882670973586
 21
2848.684839419607
 31
0.0
  0
LINE
  5
18676
330
180F8
100
AcDbEntity
  8
TENSEN-1
100
AcDbLine
 10
8651.882670973586
 20
2848.684839419607
 30
0.0
 11
8651.882670973586
 21
2869.484839419605
 31
0.0
  0
LINE
  5
18677
330
180F8
100
AcDbEntity
  8
HASHIRA
100
AcDbLine
 10
8683.882670973586
 20
3319.084839419606
 30
0.0
 11
8939.882670973586
 21
3319.084839419606
 31
0.0
  0
LINE
  5
18678
330
180F8
100
AcDbEntity
  8
HASHIRA
100
AcDbLine
 10
8939.882670973586
 20
3319.084839419606
 30
0.0
 11
8939.882670973586
 21
3328.684839419607
 31
0.0
  0
LINE
  5
18679
330
180F8
100
AcDbEntity
  8
HASHIRA
100
AcDbLine
 10
8939.882670973586
 20
3328.684839419607
 30
0.0
 11
8683.882670973586
 21
3328.684839419607
 31
0.0
  0
LINE
  5
1867A
330
180F8
100
AcDbEntity
  8
HASHIRA
100
AcDbLine
 10
8683.882670973586
 20
3328.684839419607
 30
0.0
 11
8683.882670973586
 21
3319.084839419606
 31
0.0
  0
LINE
  5
1867B
330
180F8
100
AcDbEntity
  8
BOLT
100
AcDbLine
 10
8825.482670973585
 20
3360.684839419607
 30
0.0
 11
8825.482670973585
 21
3368.536803080584
 31
0.0
  0
LINE
  5
1867C
330
180F8
100
AcDbEntity
  8
BOLT
100
AcDbLine
 10
8825.482670973585
 20
3368.536803080584
 30
0.0
 11
8811.882670973586
 21
3376.388766741566
 31
0.0
  0
LINE
  5
1867D
330
180F8
100
AcDbEntity
  8
BOLT
100
AcDbLine
 10
8811.882670973586
 20
3376.388766741566
 30
0.0
 11
8798.282670973582
 21
3368.536803080584
 31
0.0
  0
LINE
  5
1867E
330
180F8
100
AcDbEntity
  8
BOLT
100
AcDbLine
 10
8798.282670973582
 20
3368.536803080584
 30
0.0
 11
8798.282670973582
 21
3360.684839419607
 31
0.0
  0
LINE
  5
1867F
330
180F8
100
AcDbEntity
  8
BOLT
100
AcDbLine
 10
8798.282670973582
 20
3360.684839419607
 30
0.0
 11
8798.282670973582
 21
3352.832875758626
 31
0.0
  0
LINE
  5
18680
330
180F8
100
AcDbEntity
  8
BOLT
100
AcDbLine
 10
8798.282670973582
 20
3352.832875758626
 30
0.0
 11
8811.882670973586
 21
3344.980912097646
 31
0.0
  0
LINE
  5
18681
330
180F8
100
AcDbEntity
  8
BOLT
100
AcDbLine
 10
8811.882670973586
 20
3344.980912097646
 30
0.0
 11
8825.482670973585
 21
3352.832875758626
 31
0.0
  0
LINE
  5
18682
330
180F8
100
AcDbEntity
  8
BOLT
100
AcDbLine
 10
8825.482670973585
 20
3352.832875758626
 30
0.0
 11
8825.482670973585
 21
3360.684839419607
 31
0.0
  0
LINE
  5
18683
330
180F8
100
AcDbEntity
  8
BOLT
100
AcDbLine
 10
8825.482670973585
 20
3424.684839419607
 30
0.0
 11
8825.482670973585
 21
3432.536803080584
 31
0.0
  0
LINE
  5
18684
330
180F8
100
AcDbEntity
  8
BOLT
100
AcDbLine
 10
8825.482670973585
 20
3432.536803080584
 30
0.0
 11
8811.882670973586
 21
3440.388766741566
 31
0.0
  0
LINE
  5
18685
330
180F8
100
AcDbEntity
  8
BOLT
100
AcDbLine
 10
8811.882670973586
 20
3440.388766741566
 30
0.0
 11
8798.282670973582
 21
3432.536803080584
 31
0.0
  0
LINE
  5
18686
330
180F8
100
AcDbEntity
  8
BOLT
100
AcDbLine
 10
8798.282670973582
 20
3432.536803080584
 30
0.0
 11
8798.282670973582
 21
3424.684839419607
 31
0.0
  0
LINE
  5
18687
330
180F8
100
AcDbEntity
  8
BOLT
100
AcDbLine
 10
8798.282670973582
 20
3424.684839419607
 30
0.0
 11
8798.282670973582
 21
3416.832875758626
 31
0.0
  0
LINE
  5
18688
330
180F8
100
AcDbEntity
  8
BOLT
100
AcDbLine
 10
8798.282670973582
 20
3416.832875758626
 30
0.0
 11
8811.882670973586
 21
3408.980912097646
 31
0.0
  0
LINE
  5
18689
330
180F8
100
AcDbEntity
  8
BOLT
100
AcDbLine
 10
8811.882670973586
 20
3408.980912097646
 30
0.0
 11
8825.482670973585
 21
3416.832875758626
 31
0.0
  0
LINE
  5
1868A
330
180F8
100
AcDbEntity
  8
BOLT
100
AcDbLine
 10
8825.482670973585
 20
3416.832875758626
 30
0.0
 11
8825.482670973585
 21
3424.684839419607
 31
0.0
  0
LINE
  5
1868B
330
180F8
100
AcDbEntity
  8
HATCH
100
AcDbLine
 10
5817.438852163284
 20
3191.084839420222
 30
0.0
 11
5891.339686619555
 21
3319.084839420217
 31
0.0
  0
LINE
  5
1868C
330
180F8
100
AcDbEntity
  8
HATCH
100
AcDbLine
 10
5852.939686619555
 20
3319.084839420213
 30
0.0
 11
5872.139686619554
 21
3285.829463914896
 31
0.0
  0
LINE
  5
1868D
330
180F8
100
AcDbEntity
  8
HATCH
100
AcDbLine
 10
5529.438852163284
 20
3191.084839420222
 30
0.0
 11
5603.339686619555
 21
3319.084839420217
 31
0.0
  0
LINE
  5
1868E
330
180F8
100
AcDbEntity
  8
HATCH
100
AcDbLine
 10
5564.939686619556
 20
3319.084839420213
 30
0.0
 11
5584.139686619558
 21
3285.829463914896
 31
0.0
  0
LINE
  5
1868F
330
180F8
100
AcDbEntity
  8
HATCH
100
AcDbLine
 10
5673.438852163286
 20
3191.084839420222
 30
0.0
 11
5747.339686619554
 21
3319.084839420217
 31
0.0
  0
LINE
  5
18690
330
180F8
100
AcDbEntity
  8
HATCH
100
AcDbLine
 10
5708.939686619554
 20
3319.084839420213
 30
0.0
 11
5728.139686619557
 21
3285.829463914896
 31
0.0
  0
LINE
  5
18691
330
180F8
100
AcDbEntity
  8
HATCH
100
AcDbLine
 10
9786.948652888728
 20
3191.084839418953
 30
0.0
 11
9767.748652888727
 21
3224.340214924272
 31
0.0
  0
LINE
  5
18692
330
180F8
100
AcDbEntity
  8
HATCH
100
AcDbLine
 10
9498.948652888728
 20
3191.084839418953
 30
0.0
 11
9479.748652888728
 21
3224.340214924272
 31
0.0
  0
LINE
  5
18693
330
180F8
100
AcDbEntity
  8
HATCH
100
AcDbLine
 10
9642.948652888728
 20
3191.084839418953
 30
0.0
 11
9623.748652888728
 21
3224.340214924272
 31
0.0
  0
LINE
  5
18694
330
180F8
100
AcDbEntity
  8
HATCH
100
AcDbLine
 10
9930.94865288873
 20
3191.084839418953
 30
0.0
 11
9911.748652888729
 21
3224.340214924272
 31
0.0
  0
LINE
  5
18695
330
180F8
100
AcDbEntity
  8
HATCH
100
AcDbLine
 10
9786.948652890657
 20
3191.084839419572
 30
0.0
 11
9767.748652890652
 21
3224.3402149249
 31
0.0
  0
LINE
  5
18696
330
180F8
100
AcDbEntity
  8
HATCH
100
AcDbLine
 10
9930.948652890656
 20
3191.084839419572
 30
0.0
 11
9911.748652890652
 21
3224.3402149249
 31
0.0
  0
LINE
  5
18697
330
180F8
100
AcDbEntity
  8
HATCH
100
AcDbLine
 10
9642.948652890657
 20
3191.084839419572
 30
0.0
 11
9623.748652890652
 21
3224.3402149249
 31
0.0
  0
LINE
  5
18698
330
180F8
100
AcDbEntity
  8
HATCH
100
AcDbLine
 10
9498.948652890657
 20
3191.084839419572
 30
0.0
 11
9479.748652890652
 21
3224.3402149249
 31
0.0
  0
LINE
  5
18699
330
180F8
100
AcDbEntity
  8
HATCH
100
AcDbLine
 10
5855.838852163278
 20
3191.084839420222
 30
0.0
 11
5836.63885216328
 21
3224.340214925541
 31
0.0
  0
LINE
  5
1869A
330
180F8
100
AcDbEntity
  8
HATCH
100
AcDbLine
 10
5567.838852163279
 20
3191.084839420222
 30
0.0
 11
5548.638852163279
 21
3224.340214925541
 31
0.0
  0
LINE
  5
1869B
330
180F8
100
AcDbEntity
  8
HATCH
100
AcDbLine
 10
5711.838852163278
 20
3191.084839420222
 30
0.0
 11
5692.63885216328
 21
3224.340214925541
 31
0.0
  0
TEXT
  5
1869C
330
180F8
100
AcDbEntity
  8
SUNPOU
100
AcDbText
 10
3620.160520285821
 20
4888.567723306051
 30
0.0
 40
46.28539285937498
  1
2
 41
0.6700000000000001
  7
00
100
AcDbText
  0
TEXT
  5
1869D
330
180F8
100
AcDbEntity
  8
SUNPOU
100
AcDbText
 10
3315.696038254444
 20
4838.379296948561
 30
0.0
 40
89.9993750043402
  1
N/mm
 41
0.6700000000000001
  7
01
100
AcDbText
  0
TEXT
  5
1869E
330
180F8
100
AcDbEntity
  8
SUNPOU
100
AcDbText
 10
3179.859585468491
 20
4838.379296948561
 30
0.0
 40
89.9993750043402
  1
18
 41
0.6700000000000001
  7
01
100
AcDbText
  0
LINE
  5
1869F
330
180F8
100
AcDbEntity
  8
SUNPOU
100
AcDbLine
 10
2847.170463189193
 20
4684.093582662851
 30
0.0
 11
2847.170463189193
 21
4767.585946361633
 31
0.0
  0
LINE
  5
186A0
330
180F8
100
AcDbEntity
  8
SUNPOU
100
AcDbLine
 10
2830.295463189194
 20
4684.093582662851
 30
0.0
 11
2830.295463189194
 21
4767.585946361633
 31
0.0
  0
LINE
  5
186A1
330
180F8
100
AcDbEntity
  8
SUNPOU
100
AcDbLine
 10
2813.420463189194
 20
4684.093582662851
 30
0.0
 11
2813.420463189194
 21
4767.585946361633
 31
0.0
  0
LINE
  5
186A2
330
180F8
100
AcDbEntity
  8
SUNPOU
100
AcDbLine
 10
2802.170463189193
 20
4684.093582662851
 30
0.0
 11
2858.420463189194
 21
4684.093582662851
 31
0.0
  0
LINE
  5
186A3
330
180F8
100
AcDbEntity
  8
SUNPOU
100
AcDbLine
 10
2802.170463189193
 20
4767.585946361633
 30
0.0
 11
2858.420463189194
 21
4767.585946361633
 31
0.0
  0
ARC
  5
186A4
330
180F8
100
AcDbEntity
  8
SUNPOU
100
AcDbCircle
 10
3727.73102696863
 20
4802.166720390395
 30
0.0
 40
225.0
100
AcDbArc
 50
328.3472725285902
 51
31.65272747140977
  0
TEXT
  5
186A5
330
180F8
100
AcDbEntity
  8
SUNPOU
100
AcDbText
 10
1717.78735496475
 20
4888.567723306051
 30
0.0
 40
46.28539285937498
  1
2
 41
0.6700000000000001
  7
00
100
AcDbText
  0
TEXT
  5
186A6
330
180F8
100
AcDbEntity
  8
SUNPOU
100
AcDbText
 10
1450.147198236352
 20
4838.379296948561
 30
0.0
 40
71.99950000347218
  1
K
 41
0.6700000000000001
  7
01
100
AcDbText
  0
TEXT
  5
186A7
330
180F8
100
AcDbEntity
  8
SUNPOU
100
AcDbText
 10
1314.310745450399
 20
4838.379296948561
 30
0.0
 40
89.9993750043402
  1
50  N/m
 41
0.6700000000000001
  7
01
100
AcDbText
  0
ARC
  5
186A8
330
180F8
100
AcDbEntity
  8
SUNPOU
100
AcDbCircle
 10
1163.313175529766
 20
4802.166720390395
 30
0.0
 40
225.0
100
AcDbArc
 50
148.3472725285901
 51
211.6527274714097
  0
TEXT
  5
186A9
330
180F8
100
AcDbEntity
  8
SUNPOU
100
AcDbText
 10
1494.118330287748
 20
4684.093582662851
 30
0.0
 40
89.9993750043402
  1
34 m/s
 41
0.6700000000000001
  7
01
100
AcDbText
  0
TEXT
  5
186AA
330
180F8
100
AcDbEntity
  8
SUNPOU
100
AcDbText
 10
1010.354901622559
 20
4684.093582662851
 30
0.0
 40
89.9993750043402
  1
基準風速   　　 , 地表面粗度区分
  7
01
100
AcDbText
  0
TEXT
  5
186AB
330
180F8
100
AcDbEntity
  8
SUNPOU
100
AcDbText
 10
1010.354901622559
 20
4838.379296948561
 30
0.0
 40
89.9993750043402
  1
地耐力   　　　 以上,コンクリート設計基準強度   　　　 以上
 41
0.9
  7
01
100
AcDbText
  0
ENDSEC
  0
SECTION
  2
OBJECTS
  0
DICTIONARY
  5
180E6
330
0
100
AcDbDictionary
281
     1
  3
ACAD_GROUP
350
180E7
  3
ACAD_LAYOUT
350
180F3
  3
ACAD_MLINESTYLE
350
180F0
  3
ACAD_PLOTSETTINGS
350
180F2
  3
ACAD_PLOTSTYLENAME
350
180E8
  3
AcDbVariableDictionary
350
186AC
  0
DICTIONARY
  5
180E7
102
{ACAD_REACTORS
330
180E6
102
}
330
180E6
100
AcDbDictionary
281
     1
  0
DICTIONARY
  5
180F3
102
{ACAD_REACTORS
330
180E6
102
}
330
180E6
100
AcDbDictionary
281
     1
  3
Model
350
180FB
  3
ﾚｲｱｳﾄ1
350
180F7
  0
DICTIONARY
  5
180F0
102
{ACAD_REACTORS
330
180E6
102
}
330
180E6
100
AcDbDictionary
281
     1
  3
Standard
350
180F1
  0
DICTIONARY
  5
180F2
102
{ACAD_REACTORS
330
180E6
102
}
330
180E6
100
AcDbDictionary
281
     1
  0
ACDBDICTIONARYWDFLT
  5
180E8
102
{ACAD_REACTORS
330
180E6
102
}
330
180E6
100
AcDbDictionary
281
     1
  3
Normal
350
180E9
100
AcDbDictionaryWithDefault
340
180E9
  0
DICTIONARY
  5
186AC
102
{ACAD_REACTORS
330
180E6
102
}
330
180E6
100
AcDbDictionary
281
     1
  3
DIMASSOC
350
186AD
  0
LAYOUT
  5
180FB
102
{ACAD_REACTORS
330
180F3
102
}
330
180F3
100
AcDbPlotSettings
  1

  2
Muratec V-1200 Is@Web Printer
  4

  6

 40
0.0
 41
0.0
 42
0.0
 43
0.0
 44
0.0
 45
0.0
 46
0.0
 47
0.0
 48
0.0
 49
0.0
140
0.0
141
0.0
142
1.0
143
1.0
 70
  1712
 72
     0
 73
     0
 74
     0
  7

 75
     0
147
1.0
148
0.0
149
0.0
100
AcDbLayout
  1
Model
 70
     1
 71
     0
 10
0.0
 20
0.0
 11
12.0
 21
9.0
 12
0.0
 22
0.0
 32
0.0
 14
0.0
 24
0.0
 34
0.0
 15
0.0
 25
0.0
 35
0.0
146
0.0
 13
0.0
 23
0.0
 33
0.0
 16
1.0
 26
0.0
 36
0.0
 17
0.0
 27
1.0
 37
0.0
 76
     0
330
180F8
  0
LAYOUT
  5
180F7
102
{ACAD_REACTORS
330
180F3
102
}
330
180F3
100
AcDbPlotSettings
  1

  2
Muratec V-1200 Is@Web Printer
  4

  6

 40
0.0
 41
0.0
 42
0.0
 43
0.0
 44
0.0
 45
0.0
 46
0.0
 47
0.0
 48
0.0
 49
0.0
140
0.0
141
0.0
142
1.0
143
1.0
 70
   688
 72
     0
 73
     0
 74
     5
  7

 75
    16
147
1.0
148
0.0
149
0.0
100
AcDbLayout
  1
ﾚｲｱｳﾄ1
 70
     0
 71
     1
 10
0.0
 20
0.0
 11
12.0
 21
9.0
 12
0.0
 22
0.0
 32
0.0
 14
1.000000000000000E+20
 24
1.000000000000000E+20
 34
1.000000000000000E+20
 15
-1.000000000000000E+20
 25
-1.000000000000000E+20
 35
-1.000000000000000E+20
146
0.0
 13
0.0
 23
0.0
 33
0.0
 16
1.0
 26
0.0
 36
0.0
 17
0.0
 27
1.0
 37
0.0
 76
     0
330
180F4
  0
MLINESTYLE
  5
180F1
102
{ACAD_REACTORS
330
180F0
102
}
330
180F0
100
AcDbMlineStyle
  2
STANDARD
 70
     0
  3

 62
   256
 51
90.0
 52
90.0
 71
     2
 49
0.5
 62
   256
  6
BYLAYER
 49
-0.5
 62
   256
  6
BYLAYER
  0
ACDBPLACEHOLDER
  5
180E9
102
{ACAD_REACTORS
330
180E8
102
}
330
180E8
  0
DICTIONARYVAR
  5
186AD
102
{ACAD_REACTORS
330
186AC
102
}
330
186AC
100
DictionaryVariables
280
     0
  1
1
  0
ENDSEC
  0
EOF
