  0
SECTION
  2
HEADER
  9
$ACADVER
  1
AC1015
  9
$ACADMAINTVER
 70
    13
  9
$DWGCODEPAGE
  3
ANSI_932
  9
$INSBASE
 10
267.0
 20
194.8999999999998
 30
0.0
  9
$EXTMIN
 10
433.9966216520333
 20
163.6908237492789
 30
-0.0000000000000053
  9
$EXTMAX
 10
16382.6660542547
 20
11242.27663824599
 30
0.00000000000001
  9
$LIMMIN
 10
0.0
 20
0.0
  9
$LIMMAX
 10
16800.0
 20
11880.0
  9
$ORTHOMODE
 70
     0
  9
$REGENMODE
 70
     1
  9
$FILLMODE
 70
     1
  9
$QTEXTMODE
 70
     0
  9
$MIRRTEXT
 70
     0
  9
$LTSCALE
 40
40.0
  9
$ATTMODE
 70
     1
  9
$TEXTSIZE
 40
0.2
  9
$TRACEWID
 40
0.05
  9
$TEXTSTYLE
  7
00
  9
$CLAYER
  8
SUNPOU
  9
$CELTYPE
  6
ByLayer
  9
$CECOLOR
 62
   256
  9
$CELTSCALE
 40
1.0
  9
$DISPSILH
 70
     0
  9
$DIMSCALE
 40
30.0
  9
$DIMASZ
 40
0.5
  9
$DIMEXO
 40
1.0
  9
$DIMDLI
 40
7.0
  9
$DIMRND
 40
0.0
  9
$DIMDLE
 40
3.0
  9
$DIMEXE
 40
1.5
  9
$DIMTP
 40
0.0
  9
$DIMTM
 40
0.0
  9
$DIMTXT
 40
3.0
  9
$DIMCEN
 40
0.0
  9
$DIMTSZ
 40
0.0
  9
$DIMTOL
 70
     0
  9
$DIMLIM
 70
     0
  9
$DIMTIH
 70
     0
  9
$DIMTOH
 70
     0
  9
$DIMSE1
 70
     0
  9
$DIMSE2
 70
     0
  9
$DIMTAD
 70
     1
  9
$DIMZIN
 70
     8
  9
$DIMBLK
  1

  9
$DIMASO
 70
     1
  9
$DIMSHO
 70
     0
  9
$DIMPOST
  1

  9
$DIMAPOST
  1

  9
$DIMALT
 70
     0
  9
$DIMALTD
 70
     2
  9
$DIMALTF
 40
25.4
  9
$DIMLFAC
 40
1.0
  9
$DIMTOFL
 70
     1
  9
$DIMTVP
 40
0.0
  9
$DIMTIX
 70
     0
  9
$DIMSOXD
 70
     0
  9
$DIMSAH
 70
     1
  9
$DIMBLK1
  1
DOT
  9
$DIMBLK2
  1
DOT
  9
$DIMSTYLE
  2
SUNPOU_図面名
  9
$DIMCLRD
 70
   256
  9
$DIMCLRE
 70
   256
  9
$DIMCLRT
 70
   256
  9
$DIMTFAC
 40
1.0
  9
$DIMGAP
 40
1.5
  9
$DIMJUST
 70
     0
  9
$DIMSD1
 70
     0
  9
$DIMSD2
 70
     0
  9
$DIMTOLJ
 70
     1
  9
$DIMTZIN
 70
     0
  9
$DIMALTZ
 70
     0
  9
$DIMALTTZ
 70
     0
  9
$DIMUPT
 70
     0
  9
$DIMDEC
 70
     2
  9
$DIMTDEC
 70
     2
  9
$DIMALTU
 70
     2
  9
$DIMALTTD
 70
     2
  9
$DIMTXSTY
  7
STANDARD
  9
$DIMAUNIT
 70
     0
  9
$DIMADEC
 70
     0
  9
$DIMALTRND
 40
0.0
  9
$DIMAZIN
 70
     0
  9
$DIMDSEP
 70
    46
  9
$DIMATFIT
 70
     3
  9
$DIMFRAC
 70
     0
  9
$DIMLDRBLK
  1

  9
$DIMLUNIT
 70
     2
  9
$DIMLWD
 70
    -2
  9
$DIMLWE
 70
    -2
  9
$DIMTMOVE
 70
     2
  9
$LUNITS
 70
     2
  9
$LUPREC
 70
     2
  9
$SKETCHINC
 40
0.1
  9
$FILLETRAD
 40
0.0
  9
$AUNITS
 70
     0
  9
$AUPREC
 70
     0
  9
$MENU
  1
A:\TIGER\MENU\TIGER
  9
$ELEVATION
 40
0.0
  9
$PELEVATION
 40
0.0
  9
$THICKNESS
 40
0.0
  9
$LIMCHECK
 70
     0
  9
$CHAMFERA
 40
0.0
  9
$CHAMFERB
 40
0.0
  9
$CHAMFERC
 40
1.0
  9
$CHAMFERD
 40
0.0
  9
$SKPOLY
 70
     0
  9
$TDCREATE
 40
2450266.571064815
  9
$TDUCREATE
 40
2450266.196064815
  9
$TDUPDATE
 40
2456332.396031539
  9
$TDUUPDATE
 40
2456332.021031539
  9
$TDINDWG
 40
0.1797710185
  9
$TDUSRTIMER
 40
0.1797708333
  9
$USRTIMER
 70
     1
  9
$ANGBASE
 50
0.0
  9
$ANGDIR
 70
     0
  9
$PDMODE
 70
     0
  9
$PDSIZE
 40
0.0
  9
$PLINEWID
 40
0.0
  9
$SPLFRAME
 70
     0
  9
$SPLINETYPE
 70
     6
  9
$SPLINESEGS
 70
     8
  9
$HANDSEED
  5
197E2
  9
$SURFTAB1
 70
     6
  9
$SURFTAB2
 70
     6
  9
$SURFTYPE
 70
     6
  9
$SURFU
 70
     6
  9
$SURFV
 70
     6
  9
$UCSBASE
  2

  9
$UCSNAME
  2

  9
$UCSORG
 10
0.0
 20
0.0
 30
0.0
  9
$UCSXDIR
 10
1.0
 20
0.0
 30
0.0
  9
$UCSYDIR
 10
0.0
 20
1.0
 30
0.0
  9
$UCSORTHOREF
  2

  9
$UCSORTHOVIEW
 70
     0
  9
$UCSORGTOP
 10
0.0
 20
0.0
 30
0.0
  9
$UCSORGBOTTOM
 10
0.0
 20
0.0
 30
0.0
  9
$UCSORGLEFT
 10
0.0
 20
0.0
 30
0.0
  9
$UCSORGRIGHT
 10
0.0
 20
0.0
 30
0.0
  9
$UCSORGFRONT
 10
0.0
 20
0.0
 30
0.0
  9
$UCSORGBACK
 10
0.0
 20
0.0
 30
0.0
  9
$PUCSBASE
  2

  9
$PUCSNAME
  2

  9
$PUCSORG
 10
0.0
 20
0.0
 30
0.0
  9
$PUCSXDIR
 10
1.0
 20
0.0
 30
0.0
  9
$PUCSYDIR
 10
0.0
 20
1.0
 30
0.0
  9
$PUCSORTHOREF
  2

  9
$PUCSORTHOVIEW
 70
     0
  9
$PUCSORGTOP
 10
0.0
 20
0.0
 30
0.0
  9
$PUCSORGBOTTOM
 10
0.0
 20
0.0
 30
0.0
  9
$PUCSORGLEFT
 10
0.0
 20
0.0
 30
0.0
  9
$PUCSORGRIGHT
 10
0.0
 20
0.0
 30
0.0
  9
$PUCSORGFRONT
 10
0.0
 20
0.0
 30
0.0
  9
$PUCSORGBACK
 10
0.0
 20
0.0
 30
0.0
  9
$USERI1
 70
     3
  9
$USERI2
 70
     0
  9
$USERI3
 70
     0
  9
$USERI4
 70
     0
  9
$USERI5
 70
  1103
  9
$USERR1
 40
0.0
  9
$USERR2
 40
1.0
  9
$USERR3
 40
0.0
  9
$USERR4
 40
0.0
  9
$USERR5
 40
0.0
  9
$WORLDVIEW
 70
     1
  9
$SHADEDGE
 70
     3
  9
$SHADEDIF
 70
    70
  9
$TILEMODE
 70
     1
  9
$MAXACTVP
 70
    16
  9
$PINSBASE
 10
0.0
 20
0.0
 30
0.0
  9
$PLIMCHECK
 70
     0
  9
$PEXTMIN
 10
1.000000000000000E+20
 20
1.000000000000000E+20
 30
1.000000000000000E+20
  9
$PEXTMAX
 10
-1.000000000000000E+20
 20
-1.000000000000000E+20
 30
-1.000000000000000E+20
  9
$PLIMMIN
 10
0.0
 20
0.0
  9
$PLIMMAX
 10
12.0
 20
9.0
  9
$UNITMODE
 70
     0
  9
$VISRETAIN
 70
     0
  9
$PLINEGEN
 70
     1
  9
$PSLTSCALE
 70
     0
  9
$TREEDEPTH
 70
  3020
  9
$CMLSTYLE
  2
Standard
  9
$CMLJUST
 70
     0
  9
$CMLSCALE
 40
1.0
  9
$PROXYGRAPHICS
 70
     1
  9
$MEASUREMENT
 70
     0
  9
$CELWEIGHT
370
    -1
  9
$ENDCAPS
280
     0
  9
$JOINSTYLE
280
     0
  9
$LWDISPLAY
290
     0
  9
$INSUNITS
 70
     0
  9
$HYPERLINKBASE
  1

  9
$STYLESHEET
  1

  9
$XEDIT
290
     1
  9
$CEPSNTYPE
380
     0
  9
$PSTYLEMODE
290
     1
  9
$FINGERPRINTGUID
  2
{A3A63631-C6C3-4593-96AE-344A0BCFE66D}
  9
$VERSIONGUID
  2
{26BD7C0F-7DBE-43BD-9262-DC02F3D5961B}
  9
$EXTNAMES
290
     1
  9
$PSVPSCALE
 40
0.0
  9
$OLESTARTUP
290
     0
  0
ENDSEC
  0
SECTION
  2
CLASSES
  0
CLASS
  1
ACDBDICTIONARYWDFLT
  2
AcDbDictionaryWithDefault
  3
AutoCAD 2000
 90
        0
280
     0
281
     0
  0
CLASS
  1
ACDBPLACEHOLDER
  2
AcDbPlaceHolder
  3
AutoCAD 2000
 90
        0
280
     0
281
     0
  0
CLASS
  1
LAYOUT
  2
AcDbLayout
  3
AutoCAD 2000
 90
        0
280
     0
281
     0
  0
CLASS
  1
DICTIONARYVAR
  2
AcDbDictionaryVar
  3
AutoCAD 2000
 90
        0
280
     0
281
     0
  0
ENDSEC
  0
SECTION
  2
TABLES
  0
TABLE
  2
VPORT
  5
19702
330
0
100
AcDbSymbolTable
 70
     2
  0
VPORT
  5
197E1
330
19702
100
AcDbSymbolTableRecord
100
AcDbViewportTableRecord
  2
*Active
 70
     0
 10
0.0
 20
0.0
 11
1.0
 21
1.0
 12
8408.331337953367
 22
5702.983730997637
 13
0.0
 23
0.0
 14
1.0
 24
1.0
 15
0.0
 25
0.0
 16
0.0
 26
0.0
 36
1.0
 17
0.0
 27
0.0
 37
0.0
 40
11163.50538397298
 41
1.527918781725888
 42
50.0
 43
0.0
 44
0.0
 50
0.0
 51
0.0
 71
     0
 72
 10000
 73
     1
 74
     0
 75
     0
 76
     0
 77
     0
 78
     0
281
     0
 65
     0
110
0.0
120
0.0
130
0.0
111
1.0
121
0.0
131
0.0
112
0.0
122
1.0
132
0.0
 79
     0
146
0.0
  0
ENDTAB
  0
TABLE
  2
LTYPE
  5
196FF
330
0
100
AcDbSymbolTable
 70
     7
  0
LTYPE
  5
1970D
330
196FF
100
AcDbSymbolTableRecord
100
AcDbLinetypeTableRecord
  2
ByBlock
 70
     0
  3

 72
    65
 73
     0
 40
0.0
  0
LTYPE
  5
1970E
330
196FF
100
AcDbSymbolTableRecord
100
AcDbLinetypeTableRecord
  2
ByLayer
 70
     0
  3

 72
    65
 73
     0
 40
0.0
  0
LTYPE
  5
1970F
330
196FF
100
AcDbSymbolTableRecord
100
AcDbLinetypeTableRecord
  2
CONTINUOUS
 70
     0
  3
実線
 72
    65
 73
     0
 40
0.0
  0
LTYPE
  5
1971B
330
196FF
100
AcDbSymbolTableRecord
100
AcDbLinetypeTableRecord
  2
TENSEN-
 70
     0
  3

 72
    65
 73
     2
 40
0.6000000000000001
 49
0.2
 74
     0
 49
-0.4
 74
     0
  0
LTYPE
  5
1971C
330
196FF
100
AcDbSymbolTableRecord
100
AcDbLinetypeTableRecord
  2
1PL-LL
 70
     0
  3

 72
    65
 73
     4
 40
106.0
 49
100.0
 74
     0
 49
-2.0
 74
     0
 49
2.0
 74
     0
 49
-2.0
 74
     0
  0
LTYPE
  5
1971D
330
196FF
100
AcDbSymbolTableRecord
100
AcDbLinetypeTableRecord
  2
1PL-M
 70
     0
  3

 72
    65
 73
     4
 40
15.0
 49
12.0
 74
     0
 49
-1.0
 74
     0
 49
1.0
 74
     0
 49
-1.0
 74
     0
  0
LTYPE
  5
1971E
330
196FF
100
AcDbSymbolTableRecord
100
AcDbLinetypeTableRecord
  2
1PL-S
 70
     0
  3

 72
    65
 73
     4
 40
4.0
 49
2.5
 74
     0
 49
-0.5
 74
     0
 49
0.5
 74
     0
 49
-0.5
 74
     0
  0
LTYPE
  5
1971F
330
196FF
100
AcDbSymbolTableRecord
100
AcDbLinetypeTableRecord
  2
2PL-L
 70
     0
  3

 72
    65
 73
     6
 40
60.0
 49
50.0
 74
     0
 49
-2.0
 74
     0
 49
2.0
 74
     0
 49
-2.0
 74
     0
 49
2.0
 74
     0
 49
-2.0
 74
     0
  0
LTYPE
  5
19720
330
196FF
100
AcDbSymbolTableRecord
100
AcDbLinetypeTableRecord
  2
1PL-12
 70
     0
  3

 72
    65
 73
     4
 40
15.0
 49
12.0
 74
     0
 49
-1.0
 74
     0
 49
1.0
 74
     0
 49
-1.0
 74
     0
  0
ENDTAB
  0
TABLE
  2
LAYER
  5
196FC
330
0
100
AcDbSymbolTable
 70
    21
  0
LAYER
  5
1970A
330
196FC
100
AcDbSymbolTableRecord
100
AcDbLayerTableRecord
  2
0
 70
     0
 62
     7
  6
CONTINUOUS
370
    -3
390
19709
  0
LAYER
  5
19722
330
196FC
100
AcDbSymbolTableRecord
100
AcDbLayerTableRecord
  2
U1
 70
     0
 62
     3
  6
CONTINUOUS
370
    -3
390
19709
  0
LAYER
  5
19723
330
196FC
100
AcDbSymbolTableRecord
100
AcDbLayerTableRecord
  2
U3
 70
     0
 62
     6
  6
CONTINUOUS
370
    -3
390
19709
  0
LAYER
  5
19724
330
196FC
100
AcDbSymbolTableRecord
100
AcDbLayerTableRecord
  2
SUNPOU
 70
     0
 62
     4
  6
CONTINUOUS
370
    -3
390
19709
  0
LAYER
  5
19725
330
196FC
100
AcDbSymbolTableRecord
100
AcDbLayerTableRecord
  2
HIKIDASHI
 70
     0
 62
     6
  6
CONTINUOUS
370
    -3
390
19709
  0
LAYER
  5
19726
330
196FC
100
AcDbSymbolTableRecord
100
AcDbLayerTableRecord
  2
TENSEN-1
 70
     0
 62
     6
  6
TENSEN-
370
    -3
390
19709
  0
LAYER
  5
19727
330
196FC
100
AcDbSymbolTableRecord
100
AcDbLayerTableRecord
  2
1PL-S1
 70
     0
 62
     6
  6
1PL-S
370
    -3
390
19709
  0
LAYER
  5
19728
330
196FC
100
AcDbSymbolTableRecord
100
AcDbLayerTableRecord
  2
1PL-M1
 70
     0
 62
     6
  6
1PL-M
370
    -3
390
19709
  0
LAYER
  5
19729
330
196FC
100
AcDbSymbolTableRecord
100
AcDbLayerTableRecord
  2
NAME
 70
     0
 62
    20
  6
CONTINUOUS
370
    -3
390
19709
  0
LAYER
  5
1972A
330
196FC
100
AcDbSymbolTableRecord
100
AcDbLayerTableRecord
  2
FILENAME
 70
     0
 62
     7
  6
CONTINUOUS
370
    -3
390
19709
  0
LAYER
  5
1972B
330
196FC
100
AcDbSymbolTableRecord
100
AcDbLayerTableRecord
  2
CENTER
 70
     0
 62
     6
  6
1PL-LL
370
    -3
390
19709
  0
LAYER
  5
1972C
330
196FC
100
AcDbSymbolTableRecord
100
AcDbLayerTableRecord
  2
KISO
 70
     0
 62
     2
  6
CONTINUOUS
370
    -3
390
19709
  0
LAYER
  5
1972D
330
196FC
100
AcDbSymbolTableRecord
100
AcDbLayerTableRecord
  2
BOLT
 70
     0
 62
     4
  6
CONTINUOUS
370
    -3
390
19709
  0
LAYER
  5
1972E
330
196FC
100
AcDbSymbolTableRecord
100
AcDbLayerTableRecord
  2
YANE
 70
     0
 62
     1
  6
1PL-12
370
    -3
390
19709
  0
LAYER
  5
1972F
330
196FC
100
AcDbSymbolTableRecord
100
AcDbLayerTableRecord
  2
HATCH
 70
     0
 62
     1
  6
CONTINUOUS
370
    -3
390
19709
  0
LAYER
  5
19730
330
196FC
100
AcDbSymbolTableRecord
100
AcDbLayerTableRecord
  2
HASHIRA
 70
     0
 62
     3
  6
CONTINUOUS
370
    -3
390
19709
  0
LAYER
  5
19731
330
196FC
100
AcDbSymbolTableRecord
100
AcDbLayerTableRecord
  2
DOMAKON
 70
     0
 62
     2
  6
CONTINUOUS
370
    -3
390
19709
  0
LAYER
  5
19732
330
196FC
100
AcDbSymbolTableRecord
100
AcDbLayerTableRecord
  2
YODOROGO
 70
     0
 62
   130
  6
CONTINUOUS
370
    -3
390
19709
  0
LAYER
  5
19733
330
196FC
100
AcDbSymbolTableRecord
100
AcDbLayerTableRecord
  2
WAKUSEN-01
 70
     0
 62
    50
  6
CONTINUOUS
370
    -3
390
19709
  0
LAYER
  5
19734
330
196FC
100
AcDbSymbolTableRecord
100
AcDbLayerTableRecord
  2
WAKUSEN-02
 70
     0
 62
   130
  6
CONTINUOUS
370
    -3
390
19709
  0
LAYER
  5
19735
330
196FC
100
AcDbSymbolTableRecord
100
AcDbLayerTableRecord
  2
WAKUMOJI-01
 70
     0
 62
   130
  6
CONTINUOUS
370
    -3
390
19709
  0
ENDTAB
  0
TABLE
  2
STYLE
  5
196FD
330
0
100
AcDbSymbolTable
 70
     5
  0
STYLE
  5
1970B
330
196FD
100
AcDbSymbolTableRecord
100
AcDbTextStyleTableRecord
  2
STANDARD
 70
     0
 40
3.0
 41
1.0
 50
0.0
 71
     0
 42
0.2
  3
ROMANS
  4
EXTFONT
  0
STYLE
  5
19737
330
196FD
100
AcDbSymbolTableRecord
100
AcDbTextStyleTableRecord
  2
01
 70
     0
 40
3.0
 41
1.0
 50
0.0
 71
     0
 42
0.2
  3
ROMANS
  4
BIGFONT
  0
STYLE
  5
19738
330
196FD
100
AcDbSymbolTableRecord
100
AcDbTextStyleTableRecord
  2
00
 70
     0
 40
0.0
 41
0.6666666666666666
 50
0.0
 71
     0
 42
0.2
  3
ROMANS
  4
BIGFONT
  0
STYLE
  5
19739
330
196FD
100
AcDbSymbolTableRecord
100
AcDbTextStyleTableRecord
  2
WAKUMOJI
 70
     0
 40
3.0
 41
1.0
 50
0.0
 71
     0
 42
3.0
  3
SIMPLEX
  4
BIGFONT
  0
STYLE
  5
1973A
330
196FD
100
AcDbSymbolTableRecord
100
AcDbTextStyleTableRecord
  2
FILENAME
 70
     0
 40
100.0
 41
1.0
 50
0.0
 71
     0
 42
100.0
  3
romans
  4
bigfont
  0
ENDTAB
  0
TABLE
  2
VIEW
  5
19700
330
0
100
AcDbSymbolTable
 70
     0
  0
ENDTAB
  0
TABLE
  2
UCS
  5
19701
330
0
100
AcDbSymbolTable
 70
     0
  0
ENDTAB
  0
TABLE
  2
APPID
  5
19703
330
0
100
AcDbSymbolTable
 70
     5
  0
APPID
  5
1970C
330
19703
100
AcDbSymbolTableRecord
100
AcDbRegAppTableRecord
  2
ACAD
 70
     0
  0
APPID
  5
1973C
330
19703
100
AcDbSymbolTableRecord
100
AcDbRegAppTableRecord
  2
AUTOCAD_POSTSCRIPT_FIGURE
 70
     0
  0
APPID
  5
1973D
330
19703
100
AcDbSymbolTableRecord
100
AcDbRegAppTableRecord
  2
ACAD_EXEMPT_FROM_CAD_STANDARDS
 70
     0
  0
APPID
  5
1973E
330
19703
100
AcDbSymbolTableRecord
100
AcDbRegAppTableRecord
  2
ACAD_PSEXT
 70
     0
  0
APPID
  5
1973F
330
19703
100
AcDbSymbolTableRecord
100
AcDbRegAppTableRecord
  2
ACAD_MLEADERVER
 70
     0
  0
ENDTAB
  0
TABLE
  2
DIMSTYLE
  5
19704
330
0
100
AcDbSymbolTable
 70
     1
100
AcDbDimStyleTable
 71
     0
  0
DIMSTYLE
105
19740
330
19704
100
AcDbSymbolTableRecord
100
AcDbDimStyleTableRecord
  2
SUNPOU_図面名
 70
     0
 40
30.0
 41
0.5
 42
1.0
 43
7.0
 44
1.5
 46
3.0
 73
     0
 74
     0
 77
     1
 78
     8
140
3.0
141
0.0
147
1.5
172
     1
173
     1
176
   256
177
   256
178
   256
340
19738
341
19744
343
19744
344
19744
  0
ENDTAB
  0
TABLE
  2
BLOCK_RECORD
  5
196FB
330
0
100
AcDbSymbolTable
 70
    44
  0
BLOCK_RECORD
  5
19716
330
196FB
100
AcDbSymbolTableRecord
100
AcDbBlockTableRecord
  2
*Model_Space
340
19717
  0
BLOCK_RECORD
  5
19714
330
196FB
100
AcDbSymbolTableRecord
100
AcDbBlockTableRecord
  2
*Paper_Space
340
19715
  0
BLOCK_RECORD
  5
19744
330
196FB
100
AcDbSymbolTableRecord
100
AcDbBlockTableRecord
  2
DOT
340
0
  0
BLOCK_RECORD
  5
19746
330
196FB
100
AcDbSymbolTableRecord
100
AcDbBlockTableRecord
  2
*U1
340
0
  0
BLOCK_RECORD
  5
19748
330
196FB
100
AcDbSymbolTableRecord
100
AcDbBlockTableRecord
  2
*U2
340
0
  0
BLOCK_RECORD
  5
1974A
330
196FB
100
AcDbSymbolTableRecord
100
AcDbBlockTableRecord
  2
*U3
340
0
  0
BLOCK_RECORD
  5
1974C
330
196FB
100
AcDbSymbolTableRecord
100
AcDbBlockTableRecord
  2
*U4
340
0
  0
BLOCK_RECORD
  5
1974E
330
196FB
100
AcDbSymbolTableRecord
100
AcDbBlockTableRecord
  2
*U5
340
0
  0
BLOCK_RECORD
  5
19750
330
196FB
100
AcDbSymbolTableRecord
100
AcDbBlockTableRecord
  2
*U6
340
0
  0
BLOCK_RECORD
  5
19752
330
196FB
100
AcDbSymbolTableRecord
100
AcDbBlockTableRecord
  2
*U7
340
0
  0
BLOCK_RECORD
  5
19754
330
196FB
100
AcDbSymbolTableRecord
100
AcDbBlockTableRecord
  2
*U8
340
0
  0
BLOCK_RECORD
  5
19756
330
196FB
100
AcDbSymbolTableRecord
100
AcDbBlockTableRecord
  2
*U9
340
0
  0
BLOCK_RECORD
  5
19758
330
196FB
100
AcDbSymbolTableRecord
100
AcDbBlockTableRecord
  2
*U10
340
0
  0
BLOCK_RECORD
  5
1975A
330
196FB
100
AcDbSymbolTableRecord
100
AcDbBlockTableRecord
  2
*U11
340
0
  0
BLOCK_RECORD
  5
1975C
330
196FB
100
AcDbSymbolTableRecord
100
AcDbBlockTableRecord
  2
*U12
340
0
  0
BLOCK_RECORD
  5
1975E
330
196FB
100
AcDbSymbolTableRecord
100
AcDbBlockTableRecord
  2
*U13
340
0
  0
BLOCK_RECORD
  5
19760
330
196FB
100
AcDbSymbolTableRecord
100
AcDbBlockTableRecord
  2
*U14
340
0
  0
BLOCK_RECORD
  5
19762
330
196FB
100
AcDbSymbolTableRecord
100
AcDbBlockTableRecord
  2
*U15
340
0
  0
BLOCK_RECORD
  5
19764
330
196FB
100
AcDbSymbolTableRecord
100
AcDbBlockTableRecord
  2
*U16
340
0
  0
BLOCK_RECORD
  5
19766
330
196FB
100
AcDbSymbolTableRecord
100
AcDbBlockTableRecord
  2
*U17
340
0
  0
BLOCK_RECORD
  5
19768
330
196FB
100
AcDbSymbolTableRecord
100
AcDbBlockTableRecord
  2
*U18
340
0
  0
BLOCK_RECORD
  5
1976A
330
196FB
100
AcDbSymbolTableRecord
100
AcDbBlockTableRecord
  2
*U19
340
0
  0
BLOCK_RECORD
  5
1976C
330
196FB
100
AcDbSymbolTableRecord
100
AcDbBlockTableRecord
  2
*U20
340
0
  0
BLOCK_RECORD
  5
1976E
330
196FB
100
AcDbSymbolTableRecord
100
AcDbBlockTableRecord
  2
*U21
340
0
  0
BLOCK_RECORD
  5
19770
330
196FB
100
AcDbSymbolTableRecord
100
AcDbBlockTableRecord
  2
*U22
340
0
  0
BLOCK_RECORD
  5
19772
330
196FB
100
AcDbSymbolTableRecord
100
AcDbBlockTableRecord
  2
*U23
340
0
  0
BLOCK_RECORD
  5
19774
330
196FB
100
AcDbSymbolTableRecord
100
AcDbBlockTableRecord
  2
*U24
340
0
  0
BLOCK_RECORD
  5
19776
330
196FB
100
AcDbSymbolTableRecord
100
AcDbBlockTableRecord
  2
*U25
340
0
  0
BLOCK_RECORD
  5
19778
330
196FB
100
AcDbSymbolTableRecord
100
AcDbBlockTableRecord
  2
*U26
340
0
  0
BLOCK_RECORD
  5
1977A
330
196FB
100
AcDbSymbolTableRecord
100
AcDbBlockTableRecord
  2
*U27
340
0
  0
BLOCK_RECORD
  5
1977C
330
196FB
100
AcDbSymbolTableRecord
100
AcDbBlockTableRecord
  2
*U28
340
0
  0
BLOCK_RECORD
  5
1977E
330
196FB
100
AcDbSymbolTableRecord
100
AcDbBlockTableRecord
  2
*U29
340
0
  0
BLOCK_RECORD
  5
19780
330
196FB
100
AcDbSymbolTableRecord
100
AcDbBlockTableRecord
  2
*U30
340
0
  0
BLOCK_RECORD
  5
19782
330
196FB
100
AcDbSymbolTableRecord
100
AcDbBlockTableRecord
  2
*U31
340
0
  0
BLOCK_RECORD
  5
19784
330
196FB
100
AcDbSymbolTableRecord
100
AcDbBlockTableRecord
  2
*U32
340
0
  0
BLOCK_RECORD
  5
19786
330
196FB
100
AcDbSymbolTableRecord
100
AcDbBlockTableRecord
  2
*U33
340
0
  0
BLOCK_RECORD
  5
19788
330
196FB
100
AcDbSymbolTableRecord
100
AcDbBlockTableRecord
  2
*U34
340
0
  0
BLOCK_RECORD
  5
1978A
330
196FB
100
AcDbSymbolTableRecord
100
AcDbBlockTableRecord
  2
*U35
340
0
  0
BLOCK_RECORD
  5
1978C
330
196FB
100
AcDbSymbolTableRecord
100
AcDbBlockTableRecord
  2
*U36
340
0
  0
BLOCK_RECORD
  5
1978E
330
196FB
100
AcDbSymbolTableRecord
100
AcDbBlockTableRecord
  2
*U37
340
0
  0
BLOCK_RECORD
  5
19790
330
196FB
100
AcDbSymbolTableRecord
100
AcDbBlockTableRecord
  2
*U38
340
0
  0
BLOCK_RECORD
  5
19792
330
196FB
100
AcDbSymbolTableRecord
100
AcDbBlockTableRecord
  2
*U39
340
0
  0
BLOCK_RECORD
  5
19794
330
196FB
100
AcDbSymbolTableRecord
100
AcDbBlockTableRecord
  2
*U40
340
0
  0
BLOCK_RECORD
  5
19796
330
196FB
100
AcDbSymbolTableRecord
100
AcDbBlockTableRecord
  2
*U41
340
0
  0
BLOCK_RECORD
  5
19798
330
196FB
100
AcDbSymbolTableRecord
100
AcDbBlockTableRecord
  2
*U42
340
0
  0
ENDTAB
  0
ENDSEC
  0
SECTION
  2
BLOCKS
  0
BLOCK
  5
19741
330
19716
100
AcDbEntity
  8
0
100
AcDbBlockBegin
  2
*Model_Space
 70
     0
 10
0.0
 20
0.0
 30
0.0
  3
*Model_Space
  1

  0
ENDBLK
  5
125F7
330
19716
100
AcDbEntity
  8
0
100
AcDbBlockEnd
  0
BLOCK
  5
19742
330
19714
100
AcDbEntity
 67
     1
  8
0
100
AcDbBlockBegin
  2
*Paper_Space
 70
     0
 10
0.0
 20
0.0
 30
0.0
  3
*Paper_Space
  1

  0
ENDBLK
  5
125F5
330
19714
100
AcDbEntity
 67
     1
  8
0
100
AcDbBlockEnd
  0
BLOCK
  5
19743
330
19744
100
AcDbEntity
  8
0
100
AcDbBlockBegin
  2
DOT
 70
     0
 10
0.0
 20
0.0
 30
0.0
  3
DOT
  1

  0
LWPOLYLINE
  5
12987
330
19744
100
AcDbEntity
  8
0
  6
ByBlock
 62
     0
100
AcDbPolyline
 90
        2
 70
     1
 43
0.75
 10
-0.375
 20
0.0
 42
1.0
 10
0.375
 20
0.0
 42
1.0
  0
LINE
  5
12988
330
19744
100
AcDbEntity
  8
0
  6
ByBlock
 62
     0
100
AcDbLine
 10
-0.75
 20
0.0
 30
0.0
 11
-1.5
 21
0.0
 31
0.0
  0
ENDBLK
  5
12989
330
19744
100
AcDbEntity
  8
0
100
AcDbBlockEnd
  0
BLOCK
  5
19745
330
19746
100
AcDbEntity
  8
0
100
AcDbBlockBegin
  2
*U1
 70
     1
 10
0.0
 20
0.0
 30
0.0
  3
*U1
  1

  0
TEXT
  5
19654
330
19746
100
AcDbEntity
  8
SUNPOU
100
AcDbText
 10
8540.646040311191
 20
8234.512702941778
 30
0.0
 40
90.0
  1
800
 41
0.6666666666666666
  7
00
100
AcDbText
  0
ENDBLK
  5
19656
330
19746
100
AcDbEntity
  8
0
100
AcDbBlockEnd
  0
BLOCK
  5
19747
330
19748
100
AcDbEntity
  8
0
100
AcDbBlockBegin
  2
*U2
 70
     1
 10
0.0
 20
0.0
 30
0.0
  3
*U2
  1

  0
TEXT
  5
19658
330
19748
100
AcDbEntity
  8
SUNPOU
100
AcDbText
 10
6481.360326025478
 20
9203.798417227494
 30
0.0
 40
90.0
  1
800
 50
90.0
 41
0.6666666666666666
  7
00
100
AcDbText
  0
ENDBLK
  5
1965A
330
19748
100
AcDbEntity
  8
0
100
AcDbBlockEnd
  0
BLOCK
  5
19749
330
1974A
100
AcDbEntity
  8
0
100
AcDbBlockBegin
  2
*U3
 70
     1
 10
0.0
 20
0.0
 30
0.0
  3
*U3
  1

  0
TEXT
  5
1965C
330
1974A
100
AcDbEntity
  8
SUNPOU
100
AcDbText
 10
7140.646040311192
 20
8634.512702941778
 30
0.0
 40
90.0
  1
800
 41
0.6666666666666666
  7
00
100
AcDbText
  0
ENDBLK
  5
1965E
330
1974A
100
AcDbEntity
  8
0
100
AcDbBlockEnd
  0
BLOCK
  5
1974B
330
1974C
100
AcDbEntity
  8
0
100
AcDbBlockBegin
  2
*U4
 70
     1
 10
0.0
 20
0.0
 30
0.0
  3
*U4
  1

  0
TEXT
  5
19660
330
1974C
100
AcDbEntity
  8
SUNPOU
100
AcDbText
 10
9281.360326025481
 20
7403.798417227493
 30
0.0
 40
90.0
  1
800
 50
90.0
 41
0.6666666666666666
  7
00
100
AcDbText
  0
ENDBLK
  5
19662
330
1974C
100
AcDbEntity
  8
0
100
AcDbBlockEnd
  0
BLOCK
  5
1974D
330
1974E
100
AcDbEntity
  8
0
100
AcDbBlockBegin
  2
*U5
 70
     1
 10
0.0
 20
0.0
 30
0.0
  3
*U5
  1

  0
TEXT
  5
19664
330
1974E
100
AcDbEntity
  8
SUNPOU
100
AcDbText
 10
11540.64604031119
 20
10034.51270294178
 30
0.0
 40
90.0
  1
400
 41
0.6666666666666666
  7
00
100
AcDbText
  0
ENDBLK
  5
19666
330
1974E
100
AcDbEntity
  8
0
100
AcDbBlockEnd
  0
BLOCK
  5
1974F
330
19750
100
AcDbEntity
  8
0
100
AcDbBlockBegin
  2
*U6
 70
     1
 10
0.0
 20
0.0
 30
0.0
  3
*U6
  1

  0
TEXT
  5
19668
330
19750
100
AcDbEntity
  8
SUNPOU
100
AcDbText
 10
9912.074611739765
 20
10034.51270294178
 30
0.0
 40
90.0
  1
2800
 41
0.6666666666666666
  7
00
100
AcDbText
  0
ENDBLK
  5
1966A
330
19750
100
AcDbEntity
  8
0
100
AcDbBlockEnd
  0
BLOCK
  5
19751
330
19752
100
AcDbEntity
  8
0
100
AcDbBlockBegin
  2
*U7
 70
     1
 10
0.0
 20
0.0
 30
0.0
  3
*U7
  1

  0
TEXT
  5
1966C
330
19752
100
AcDbEntity
  8
SUNPOU
100
AcDbText
 10
5712.074611739765
 20
10034.51270294178
 30
0.0
 40
90.0
  1
2800
 41
0.6666666666666666
  7
00
100
AcDbText
  0
ENDBLK
  5
1966E
330
19752
100
AcDbEntity
  8
0
100
AcDbBlockEnd
  0
BLOCK
  5
19753
330
19754
100
AcDbEntity
  8
0
100
AcDbBlockBegin
  2
*U8
 70
     1
 10
0.0
 20
0.0
 30
0.0
  3
*U8
  1

  0
TEXT
  5
19670
330
19754
100
AcDbEntity
  8
SUNPOU
100
AcDbText
 10
4140.646040311193
 20
10034.51270294178
 30
0.0
 40
90.0
  1
400
 41
0.6666666666666666
  7
00
100
AcDbText
  0
ENDBLK
  5
19672
330
19754
100
AcDbEntity
  8
0
100
AcDbBlockEnd
  0
BLOCK
  5
19755
330
19756
100
AcDbEntity
  8
0
100
AcDbBlockBegin
  2
*U9
 70
     1
 10
0.0
 20
0.0
 30
0.0
  3
*U9
  1

  0
TEXT
  5
19674
330
19756
100
AcDbEntity
  8
SUNPOU
100
AcDbText
 10
12181.36032602547
 20
9740.941274370351
 30
0.0
 40
90.0
  1
200
 50
90.0
 41
0.6666666666666666
  7
00
100
AcDbText
  0
ENDBLK
  5
19676
330
19756
100
AcDbEntity
  8
0
100
AcDbBlockEnd
  0
BLOCK
  5
19757
330
19758
100
AcDbEntity
  8
0
100
AcDbBlockBegin
  2
*U10
 70
     1
 10
0.0
 20
0.0
 30
0.0
  3
*U10
  1

  0
TEXT
  5
19678
330
19758
100
AcDbEntity
  8
SUNPOU
100
AcDbText
 10
12181.36032602547
 20
9066.655560084637
 30
0.0
 40
90.0
  1
200
 50
90.0
 41
0.6666666666666666
  7
00
100
AcDbText
  0
ENDBLK
  5
1967A
330
19758
100
AcDbEntity
  8
0
100
AcDbBlockEnd
  0
BLOCK
  5
19759
330
1975A
100
AcDbEntity
  8
0
100
AcDbBlockBegin
  2
*U11
 70
     1
 10
0.0
 20
0.0
 30
0.0
  3
*U11
  1

  0
TEXT
  5
1967C
330
1975A
100
AcDbEntity
  8
SUNPOU
100
AcDbText
 10
4394.082765553178
 20
4175.485411556191
 30
0.0
 40
90.0
  1
400
 41
0.6666666666666666
  7
00
100
AcDbText
  0
ENDBLK
  5
1967E
330
1975A
100
AcDbEntity
  8
0
100
AcDbBlockEnd
  0
BLOCK
  5
1975B
330
1975C
100
AcDbEntity
  8
0
100
AcDbBlockBegin
  2
*U12
 70
     1
 10
0.0
 20
0.0
 30
0.0
  3
*U12
  1

  0
TEXT
  5
19680
330
1975C
100
AcDbEntity
  8
SUNPOU
100
AcDbText
 10
3835.443655266704
 20
2865.370553705314
 30
0.0
 40
90.0
  1
300
 50
90.0
 41
0.6666666666666666
  7
00
100
AcDbText
  0
ENDBLK
  5
19682
330
1975C
100
AcDbEntity
  8
0
100
AcDbBlockEnd
  0
BLOCK
  5
1975D
330
1975E
100
AcDbEntity
  8
0
100
AcDbBlockBegin
  2
*U13
 70
     1
 10
0.0
 20
0.0
 30
0.0
  3
*U13
  1

  0
TEXT
  5
19684
330
1975E
100
AcDbEntity
  8
SUNPOU
100
AcDbText
 10
3835.443655266704
 20
3197.941982276741
 30
0.0
 40
90.0
  1
80
 50
90.0
 41
0.6666666666666666
  7
00
100
AcDbText
  0
ENDBLK
  5
19686
330
1975E
100
AcDbEntity
  8
0
100
AcDbBlockEnd
  0
BLOCK
  5
1975F
330
19760
100
AcDbEntity
  8
0
100
AcDbBlockBegin
  2
*U14
 70
     1
 10
0.0
 20
0.0
 30
0.0
  3
*U14
  1

  0
TEXT
  5
19688
330
19760
100
AcDbEntity
  8
SUNPOU
100
AcDbText
 10
3415.443655266705
 20
3523.113410848178
 30
0.0
 40
90.0
  1
50
 50
90.0
 41
0.6666666666666666
  7
00
100
AcDbText
  0
ENDBLK
  5
1968A
330
19760
100
AcDbEntity
  8
0
100
AcDbBlockEnd
  0
BLOCK
  5
19761
330
19762
100
AcDbEntity
  8
0
100
AcDbBlockBegin
  2
*U15
 70
     1
 10
0.0
 20
0.0
 30
0.0
  3
*U15
  1

  0
TEXT
  5
1968C
330
19762
100
AcDbEntity
  8
SUNPOU
100
AcDbText
 10
4714.082765553178
 20
2193.684839419601
 30
0.0
 40
90.0
  1
800
 41
0.6666666666666666
  7
00
100
AcDbText
  0
ENDBLK
  5
1968E
330
19762
100
AcDbEntity
  8
0
100
AcDbBlockEnd
  0
BLOCK
  5
19763
330
19764
100
AcDbEntity
  8
0
100
AcDbBlockBegin
  2
*U16
 70
     1
 10
0.0
 20
0.0
 30
0.0
  3
*U16
  1

  0
TEXT
  5
19690
330
19764
100
AcDbEntity
  8
SUNPOU
100
AcDbText
 10
8334.408966076827
 20
4175.485411556194
 30
0.0
 40
90.0
  1
200
 41
0.6666666666666666
  7
00
100
AcDbText
  0
ENDBLK
  5
19692
330
19764
100
AcDbEntity
  8
0
100
AcDbBlockEnd
  0
BLOCK
  5
19765
330
19766
100
AcDbEntity
  8
0
100
AcDbBlockBegin
  2
*U17
 70
     1
 10
0.0
 20
0.0
 30
0.0
  3
*U17
  1

  0
TEXT
  5
19694
330
19766
100
AcDbEntity
  8
SUNPOU
100
AcDbText
 10
7195.769855790351
 20
3523.113410848177
 30
0.0
 40
90.0
  1
50
 50
90.0
 41
0.6666666666666666
  7
00
100
AcDbText
  0
ENDBLK
  5
19696
330
19766
100
AcDbEntity
  8
0
100
AcDbBlockEnd
  0
BLOCK
  5
19767
330
19768
100
AcDbEntity
  8
0
100
AcDbBlockBegin
  2
*U18
 70
     1
 10
0.0
 20
0.0
 30
0.0
  3
*U18
  1

  0
TEXT
  5
19698
330
19768
100
AcDbEntity
  8
SUNPOU
100
AcDbText
 10
8494.408966076823
 20
2193.684839419605
 30
0.0
 40
90.0
  1
800
 41
0.6666666666666666
  7
00
100
AcDbText
  0
ENDBLK
  5
1969A
330
19768
100
AcDbEntity
  8
0
100
AcDbBlockEnd
  0
BLOCK
  5
19769
330
1976A
100
AcDbEntity
  8
0
100
AcDbBlockBegin
  2
*U19
 70
     1
 10
0.0
 20
0.0
 30
0.0
  3
*U19
  1

  0
TEXT
  5
1969C
330
1976A
100
AcDbEntity
  8
SUNPOU
100
AcDbText
 10
11451.33837406208
 20
3229.170862655058
 30
0.0
 40
90.0
  1
160
 41
0.6666666666666666
  7
00
100
AcDbText
  0
ENDBLK
  5
1969E
330
1976A
100
AcDbEntity
  8
0
100
AcDbBlockEnd
  0
BLOCK
  5
1976B
330
1976C
100
AcDbEntity
  8
0
100
AcDbBlockBegin
  2
*U20
 70
     1
 10
0.0
 20
0.0
 30
0.0
  3
*U20
  1

  0
TEXT
  5
196A0
330
1976C
100
AcDbEntity
  8
SUNPOU
100
AcDbText
 10
11040.62408834781
 20
3439.170862655058
 30
0.0
 40
90.0
  1
20
 41
0.6666666666666666
  7
00
100
AcDbText
  0
ENDBLK
  5
196A2
330
1976C
100
AcDbEntity
  8
0
100
AcDbBlockEnd
  0
BLOCK
  5
1976D
330
1976E
100
AcDbEntity
  8
0
100
AcDbBlockBegin
  2
*U21
 70
     1
 10
0.0
 20
0.0
 30
0.0
  3
*U21
  1

  0
TEXT
  5
196A4
330
1976E
100
AcDbEntity
  8
SUNPOU
100
AcDbText
 10
11451.33837406209
 20
3439.170862655058
 30
0.0
 40
90.0
  1
120
 41
0.6666666666666666
  7
00
100
AcDbText
  0
ENDBLK
  5
196A6
330
1976E
100
AcDbEntity
  8
0
100
AcDbBlockEnd
  0
BLOCK
  5
1976F
330
19770
100
AcDbEntity
  8
0
100
AcDbBlockBegin
  2
*U22
 70
     1
 10
0.0
 20
0.0
 30
0.0
  3
*U22
  1

  0
TEXT
  5
196A8
330
19770
100
AcDbEntity
  8
SUNPOU
100
AcDbText
 10
11927.76694549065
 20
3439.170862655058
 30
0.0
 40
90.0
  1
20
 41
0.6666666666666666
  7
00
100
AcDbText
  0
ENDBLK
  5
196AA
330
19770
100
AcDbEntity
  8
0
100
AcDbBlockEnd
  0
BLOCK
  5
19771
330
19772
100
AcDbEntity
  8
0
100
AcDbBlockBegin
  2
*U23
 70
     1
 10
0.0
 20
0.0
 30
0.0
  3
*U23
  1

  0
TEXT
  5
196AC
330
19772
100
AcDbEntity
  8
SUNPOU
100
AcDbText
 10
10663.33837406209
 20
2643.001486910295
 30
0.0
 40
90.0
  1
80
 50
90.0
 41
0.6666666666666666
  7
00
100
AcDbText
  0
ENDBLK
  5
196AE
330
19772
100
AcDbEntity
  8
0
100
AcDbBlockEnd
  0
BLOCK
  5
19773
330
19774
100
AcDbEntity
  8
0
100
AcDbBlockBegin
  2
*U24
 70
     1
 10
0.0
 20
0.0
 30
0.0
  3
*U24
  1

  0
TEXT
  5
196B0
330
19774
100
AcDbEntity
  8
SUNPOU
100
AcDbText
 10
10873.33837406209
 20
2911.572915481723
 30
0.0
 40
90.0
  1
40
 50
90.0
 41
0.6666666666666666
  7
00
100
AcDbText
  0
ENDBLK
  5
196B2
330
19774
100
AcDbEntity
  8
0
100
AcDbBlockEnd
  0
BLOCK
  5
19775
330
19776
100
AcDbEntity
  8
0
100
AcDbBlockBegin
  2
*U25
 70
     1
 10
0.0
 20
0.0
 30
0.0
  3
*U25
  1

  0
TEXT
  5
196B4
330
19776
100
AcDbEntity
  8
SUNPOU
100
AcDbText
 10
10873.33837406209
 20
2374.430058338866
 30
0.0
 40
90.0
  1
40
 50
90.0
 41
0.6666666666666666
  7
00
100
AcDbText
  0
ENDBLK
  5
196B6
330
19776
100
AcDbEntity
  8
0
100
AcDbBlockEnd
  0
BLOCK
  5
19777
330
19778
100
AcDbEntity
  8
0
100
AcDbBlockBegin
  2
*U26
 70
     1
 10
0.0
 20
0.0
 30
0.0
  3
*U26
  1

  0
TEXT
  5
196B8
330
19778
100
AcDbEntity
  8
SUNPOU
100
AcDbText
 10
11451.33837406208
 20
2080.804976716085
 30
0.0
 40
90.0
  1
160
 41
0.6666666666666666
  7
00
100
AcDbText
  0
ENDBLK
  5
196BA
330
19778
100
AcDbEntity
  8
0
100
AcDbBlockEnd
  0
BLOCK
  5
19779
330
1977A
100
AcDbEntity
  8
0
100
AcDbBlockBegin
  2
*U27
 70
     1
 10
0.0
 20
0.0
 30
0.0
  3
*U27
  1

  0
TEXT
  5
196BC
330
1977A
100
AcDbEntity
  8
SUNPOU
100
AcDbText
 10
11040.62408834781
 20
2290.804976716086
 30
0.0
 40
90.0
  1
20
 41
0.6666666666666666
  7
00
100
AcDbText
  0
ENDBLK
  5
196BE
330
1977A
100
AcDbEntity
  8
0
100
AcDbBlockEnd
  0
BLOCK
  5
1977B
330
1977C
100
AcDbEntity
  8
0
100
AcDbBlockBegin
  2
*U28
 70
     1
 10
0.0
 20
0.0
 30
0.0
  3
*U28
  1

  0
TEXT
  5
196C0
330
1977C
100
AcDbEntity
  8
SUNPOU
100
AcDbText
 10
11451.33837406209
 20
2290.804976716086
 30
0.0
 40
90.0
  1
120
 41
0.6666666666666666
  7
00
100
AcDbText
  0
ENDBLK
  5
196C2
330
1977C
100
AcDbEntity
  8
0
100
AcDbBlockEnd
  0
BLOCK
  5
1977D
330
1977E
100
AcDbEntity
  8
0
100
AcDbBlockBegin
  2
*U29
 70
     1
 10
0.0
 20
0.0
 30
0.0
  3
*U29
  1

  0
TEXT
  5
196C4
330
1977E
100
AcDbEntity
  8
SUNPOU
100
AcDbText
 10
11927.76694549065
 20
2290.804976716086
 30
0.0
 40
90.0
  1
20
 41
0.6666666666666666
  7
00
100
AcDbText
  0
ENDBLK
  5
196C6
330
1977E
100
AcDbEntity
  8
0
100
AcDbBlockEnd
  0
BLOCK
  5
1977F
330
19780
100
AcDbEntity
  8
0
100
AcDbBlockBegin
  2
*U30
 70
     1
 10
0.0
 20
0.0
 30
0.0
  3
*U30
  1

  0
TEXT
  5
196C8
330
19780
100
AcDbEntity
  8
SUNPOU
100
AcDbText
 10
7615.76985579035
 20
2865.370553705315
 30
0.0
 40
90.0
  1
300
 50
90.0
 41
0.6666666666666666
  7
00
100
AcDbText
  0
ENDBLK
  5
196CA
330
19780
100
AcDbEntity
  8
0
100
AcDbBlockEnd
  0
BLOCK
  5
19781
330
19782
100
AcDbEntity
  8
0
100
AcDbBlockBegin
  2
*U31
 70
     1
 10
0.0
 20
0.0
 30
0.0
  3
*U31
  1

  0
TEXT
  5
196CC
330
19782
100
AcDbEntity
  8
SUNPOU
100
AcDbText
 10
7615.769855790351
 20
3197.941982276743
 30
0.0
 40
90.0
  1
80
 50
90.0
 41
0.6666666666666666
  7
00
100
AcDbText
  0
ENDBLK
  5
196CE
330
19782
100
AcDbEntity
  8
0
100
AcDbBlockEnd
  0
BLOCK
  5
19783
330
19784
100
AcDbEntity
  8
0
100
AcDbBlockBegin
  2
*U32
 70
     1
 10
0.0
 20
0.0
 30
0.0
  3
*U32
  1

  0
TEXT
  5
196D0
330
19784
100
AcDbEntity
  8
SUNPOU
100
AcDbText
 10
12228.40680314954
 20
3437.622750870277
 30
0.0
 40
90.0
  1
27
 50
90.0
 41
0.6666666666666666
  7
00
100
AcDbText
  0
ENDBLK
  5
196D2
330
19784
100
AcDbEntity
  8
0
100
AcDbBlockEnd
  0
BLOCK
  5
19785
330
19786
100
AcDbEntity
  8
0
100
AcDbBlockBegin
  2
*U33
 70
     1
 10
0.0
 20
0.0
 30
0.0
  3
*U33
  1

  0
TEXT
  5
196D4
330
19786
100
AcDbEntity
  8
SUNPOU
100
AcDbText
 10
12228.40680314954
 20
3937.765608013134
 30
0.0
 40
90.0
  1
40
 50
90.0
 41
0.6666666666666666
  7
00
100
AcDbText
  0
ENDBLK
  5
196D6
330
19786
100
AcDbEntity
  8
0
100
AcDbBlockEnd
  0
BLOCK
  5
19787
330
19788
100
AcDbEntity
  8
0
100
AcDbBlockBegin
  2
*U34
 70
     1
 10
0.0
 20
0.0
 30
0.0
  3
*U34
  1

  0
TEXT
  5
196D8
330
19788
100
AcDbEntity
  8
SUNPOU
100
AcDbText
 10
4681.225622696032
 20
1983.6848394196
 30
0.0
 40
90.0
  1
1000
 41
0.6666666666666666
  7
00
100
AcDbText
  0
ENDBLK
  5
196DA
330
19788
100
AcDbEntity
  8
0
100
AcDbBlockEnd
  0
BLOCK
  5
19789
330
1978A
100
AcDbEntity
  8
0
100
AcDbBlockBegin
  2
*U35
 70
     1
 10
0.0
 20
0.0
 30
0.0
  3
*U35
  1

  0
TEXT
  5
196DC
330
1978A
100
AcDbEntity
  8
SUNPOU
100
AcDbText
 10
8461.55182321968
 20
1983.684839419605
 30
0.0
 40
90.0
  1
1000
 41
0.6666666666666666
  7
00
100
AcDbText
  0
ENDBLK
  5
196DE
330
1978A
100
AcDbEntity
  8
0
100
AcDbBlockEnd
  0
BLOCK
  5
1978B
330
1978C
100
AcDbEntity
  8
0
100
AcDbBlockBegin
  2
*U36
 70
     1
 10
0.0
 20
0.0
 30
0.0
  3
*U36
  1

  0
TEXT
  5
196E0
330
1978C
100
AcDbEntity
  8
SUNPOU
100
AcDbText
 10
3835.443655266704
 20
3508.113410848177
 30
0.0
 40
90.0
  1
80
 50
90.0
 41
0.6666666666666666
  7
00
100
AcDbText
  0
ENDBLK
  5
196E2
330
1978C
100
AcDbEntity
  8
0
100
AcDbBlockEnd
  0
BLOCK
  5
1978D
330
1978E
100
AcDbEntity
  8
0
100
AcDbBlockBegin
  2
*U37
 70
     1
 10
0.0
 20
0.0
 30
0.0
  3
*U37
  1

  0
TEXT
  5
196E4
330
1978E
100
AcDbEntity
  8
SUNPOU
100
AcDbText
 10
7615.76985579035
 20
3508.113410848178
 30
0.0
 40
90.0
  1
80
 50
90.0
 41
0.6666666666666666
  7
00
100
AcDbText
  0
ENDBLK
  5
196E6
330
1978E
100
AcDbEntity
  8
0
100
AcDbBlockEnd
  0
BLOCK
  5
1978F
330
19790
100
AcDbEntity
  8
0
100
AcDbBlockBegin
  2
*U38
 70
     1
 10
0.0
 20
0.0
 30
0.0
  3
*U38
  1

  0
TEXT
  5
196E8
330
19790
100
AcDbEntity
  8
SUNPOU
100
AcDbText
 10
7462.646040311195
 20
10244.51270294178
 30
0.0
 40
90.0
  1
L = 2800 x N + 800
 41
0.6666666666666666
  7
00
100
AcDbText
  0
ENDBLK
  5
196EA
330
19790
100
AcDbEntity
  8
0
100
AcDbBlockEnd
  0
BLOCK
  5
19791
330
19792
100
AcDbEntity
  8
0
100
AcDbBlockBegin
  2
*U39
 70
     1
 10
0.0
 20
0.0
 30
0.0
  3
*U39
  1

  0
TEXT
  5
196EC
330
19792
100
AcDbEntity
  8
SUNPOU
100
AcDbText
 10
3835.443655266704
 20
2328.22769656246
 30
0.0
 40
90.0
  1
100
 50
90.0
 41
0.6666666666666666
  7
00
100
AcDbText
  0
ENDBLK
  5
196EE
330
19792
100
AcDbEntity
  8
0
100
AcDbBlockEnd
  0
BLOCK
  5
19793
330
19794
100
AcDbEntity
  8
0
100
AcDbBlockBegin
  2
*U40
 70
     1
 10
0.0
 20
0.0
 30
0.0
  3
*U40
  1

  0
TEXT
  5
196F0
330
19794
100
AcDbEntity
  8
SUNPOU
100
AcDbText
 10
3609.949120020981
 20
2918.170553705319
 30
0.0
 40
90.0
  1
560
 50
90.0
 41
0.6666666666666666
  7
00
100
AcDbText
  0
ENDBLK
  5
196F2
330
19794
100
AcDbEntity
  8
0
100
AcDbBlockEnd
  0
BLOCK
  5
19795
330
19796
100
AcDbEntity
  8
0
100
AcDbBlockBegin
  2
*U41
 70
     1
 10
0.0
 20
0.0
 30
0.0
  3
*U41
  1

  0
TEXT
  5
196F4
330
19796
100
AcDbEntity
  8
SUNPOU
100
AcDbText
 10
7615.76985579035
 20
2328.227696562461
 30
0.0
 40
90.0
  1
100
 50
90.0
 41
0.6666666666666666
  7
00
100
AcDbText
  0
ENDBLK
  5
196F6
330
19796
100
AcDbEntity
  8
0
100
AcDbBlockEnd
  0
BLOCK
  5
19797
330
19798
100
AcDbEntity
  8
0
100
AcDbBlockBegin
  2
*U42
 70
     1
 10
0.0
 20
0.0
 30
0.0
  3
*U42
  1

  0
TEXT
  5
196F8
330
19798
100
AcDbEntity
  8
SUNPOU
100
AcDbText
 10
7386.785610007507
 20
2918.170553705319
 30
0.0
 40
90.0
  1
560
 50
90.0
 41
0.6666666666666666
  7
00
100
AcDbText
  0
ENDBLK
  5
196FA
330
19798
100
AcDbEntity
  8
0
100
AcDbBlockEnd
  0
ENDSEC
  0
SECTION
  2
ENTITIES
  0
TEXT
  5
12ADB
330
19716
100
AcDbEntity
  8
NAME
100
AcDbText
 10
12303.32857318295
 20
1055.0
 30
0.0
 40
120.0
  1
Y O K C
 41
0.6666666666666666
  7
00
100
AcDbText
  0
TEXT
  5
12ADC
330
19716
100
AcDbEntity
  8
NAME
100
AcDbText
 10
11227.73587134625
 20
1055.0
 30
0.0
 40
120.0
  1
ヨド自転車置場　　　  型
  7
01
100
AcDbText
  0
TEXT
  5
12ADD
330
19716
100
AcDbEntity
  8
NAME
100
AcDbText
 10
11228.07508082364
 20
875.0
 30
0.0
 40
120.0
  1
（アンカープレート方式）
  7
01
 72
     4
 11
12072.07508082364
 21
935.0
 31
0.0
100
AcDbText
  0
TEXT
  5
159C6
330
19716
100
AcDbEntity
  8
NAME
100
AcDbText
 10
12854.79999999999
 20
541.0000000000001
 30
0.0
 40
160.0
  1
<3／3>
 41
0.6
  7
01
 72
     2
 11
13354.0
 21
541.0000000000001
 31
0.0
100
AcDbText
  0
TEXT
  5
159C7
330
19716
100
AcDbEntity
  8
NAME
100
AcDbText
 10
10896.04264730428
 20
541.0
 30
0.0
 40
160.0
  1
YOKC-280
 41
0.7
  7
01
 72
     2
 11
11776.04264730429
 21
541.0
 31
0.0
100
AcDbText
  0
TEXT
  5
159C8
330
19716
100
AcDbEntity
  8
NAME
100
AcDbText
 10
11816.04264730429
 20
541.0
 30
0.0
 40
160.0
  1
型（一般地用）
 41
0.8
  7
01
100
AcDbText
  0
LINE
  5
16AF5
330
19716
100
AcDbEntity
  8
SUNPOU
100
AcDbLine
 10
8611.360326025479
 20
9989.512702941778
 30
0.0
 11
7241.360326025478
 21
9989.512702941778
 31
0.0
  0
LINE
  5
16AF9
330
19716
100
AcDbEntity
  8
CENTER
  6
1PL-M
100
AcDbLine
 10
7986.360326025482
 20
9289.512702941776
 30
0.0
 11
11971.36032602547
 21
9289.512702941776
 31
0.0
  0
LINE
  5
16AFA
330
19716
100
AcDbEntity
  8
CENTER
  6
1PL-M
100
AcDbLine
 10
7986.360326025482
 20
7489.512702941778
 30
0.0
 11
9176.360326025482
 21
7489.512702941778
 31
0.0
  0
TEXT
  5
16AFB
330
19716
100
AcDbEntity
  8
HIKIDASHI
100
AcDbText
 10
5227.288247455323
 20
7147.833548185239
 30
0.0
 40
90.0
  1
（土間コン前面位置）
  7
01
100
AcDbText
  0
LINE
  5
16B00
330
19716
100
AcDbEntity
  8
CENTER
  6
1PL-M
100
AcDbLine
 10
3881.360326025479
 20
9289.512702941776
 30
0.0
 11
6376.360326025483
 21
9289.512702941776
 31
0.0
  0
LINE
  5
16B01
330
19716
100
AcDbEntity
  8
CENTER
  6
1PL-M
100
AcDbLine
 10
3881.360326025479
 20
7489.512702941778
 30
0.0
 11
7866.360326025482
 21
7489.512702941778
 31
0.0
  0
LINE
  5
16B02
330
19716
100
AcDbEntity
  8
SUNPOU
100
AcDbLine
 10
3816.360326025479
 20
7699.512702941778
 30
0.0
 11
3816.360326025479
 21
7489.512702941778
 31
0.0
  0
LINE
  5
16B03
330
19716
100
AcDbEntity
  8
SUNPOU
100
AcDbLine
 10
3816.360326025479
 20
7489.512702941778
 30
0.0
 11
3966.360326025478
 21
7489.512702941778
 31
0.0
  0
TEXT
  5
16B04
330
19716
100
AcDbEntity
  8
SUNPOU
100
AcDbText
 10
3790.517468882622
 20
7834.512702941778
 30
0.0
 40
90.0
  1
A
 41
0.6700000000000001
  7
00
 72
     4
 11
3816.360326025479
 21
7879.512702941778
 31
0.0
100
AcDbText
  0
LINE
  5
16B07
330
19716
100
AcDbEntity
  8
SUNPOU
100
AcDbLine
 10
7986.360326025482
 20
9779.512702941779
 30
0.0
 11
7986.360326025482
 21
6969.512702941777
 31
0.0
  0
LINE
  5
16B08
330
19716
100
AcDbEntity
  8
CENTER
  6
1PL-M
100
AcDbLine
 10
7226.360326025478
 20
8739.512702941778
 30
0.0
 11
7226.360326025478
 21
9889.512702941779
 31
0.0
  0
LINE
  5
16B09
330
19716
100
AcDbEntity
  8
CENTER
  6
1PL-M
100
AcDbLine
 10
4426.36032602548
 20
6889.512702941778
 30
0.0
 11
4426.36032602548
 21
9889.512702941779
 31
0.0
  0
LINE
  5
16B0A
330
19716
100
AcDbEntity
  8
SUNPOU
100
AcDbLine
 10
7866.360326025482
 20
9779.512702941779
 30
0.0
 11
7866.360326025482
 21
6969.512702941777
 31
0.0
  0
LINE
  5
16B0C
330
19716
100
AcDbEntity
  8
SUNPOU
100
AcDbLine
 10
5036.360326025477
 20
7699.512702941778
 30
0.0
 11
5036.360326025477
 21
7489.512702941778
 31
0.0
  0
LINE
  5
16B0D
330
19716
100
AcDbEntity
  8
SUNPOU
100
AcDbLine
 10
5036.360326025477
 20
7489.512702941778
 30
0.0
 11
4886.360326025478
 21
7489.512702941778
 31
0.0
  0
TEXT
  5
16B0E
330
19716
100
AcDbEntity
  8
SUNPOU
100
AcDbText
 10
5000.467468882621
 20
7825.941274370349
 30
0.0
 40
90.0
  1
A'
 41
0.6700000000000001
  7
00
 72
     4
 11
5036.360326025477
 21
7879.512702941778
 31
0.0
100
AcDbText
  0
TEXT
  5
16B10
330
19716
100
AcDbEntity
  8
HIKIDASHI
100
AcDbText
 10
5311.39684937134
 20
6846.401580951305
 30
0.0
 40
90.0
  1
（鼻隠し外面）
  7
01
100
AcDbText
  0
TEXT
  5
16B11
330
19716
100
AcDbEntity
  8
HIKIDASHI
100
AcDbText
 10
5237.548082051719
 20
9598.061975323123
 30
0.0
 40
90.0
  1
（屋根後面位置）
  7
01
100
AcDbText
  0
LINE
  5
16B12
330
19716
100
AcDbEntity
  8
CENTER
  6
1PL-M
100
AcDbLine
 10
7226.360326025478
 20
6889.512702941778
 30
0.0
 11
7226.360326025478
 21
8544.512702941778
 31
0.0
  0
LINE
  5
16B14
330
19716
100
AcDbEntity
  8
CENTER
  6
1PL-M
100
AcDbLine
 10
6575.110326025478
 20
9289.512702941776
 30
0.0
 11
7866.360326025482
 21
9289.512702941776
 31
0.0
  0
TEXT
  5
16B17
330
19716
100
AcDbEntity
  8
HIKIDASHI
100
AcDbText
 10
5153.439480135701
 20
9334.512702941784
 30
0.0
 40
90.0
  1
（土間コン後面位置）
  7
01
100
AcDbText
  0
LINE
  5
16B19
330
19716
100
AcDbEntity
  8
SUNPOU
100
AcDbLine
 10
7226.360326025478
 20
9919.51270294178
 30
0.0
 11
7226.360326025478
 21
10034.51270294178
 31
0.0
  0
LINE
  5
16B20
330
19716
100
AcDbEntity
  8
CENTER
  6
1PL-M
100
AcDbLine
 10
8626.360326025478
 20
8339.512702941778
 30
0.0
 11
8626.360326025478
 21
9889.512702941779
 31
0.0
  0
LINE
  5
16B21
330
19716
100
AcDbEntity
  8
CENTER
  6
1PL-M
100
AcDbLine
 10
11426.36032602547
 20
6889.512702941778
 30
0.0
 11
11426.36032602547
 21
9889.512702941779
 31
0.0
  0
LINE
  5
16B22
330
19716
100
AcDbEntity
  8
CENTER
  6
1PL-M
100
AcDbLine
 10
9371.360326025479
 20
7489.512702941778
 30
0.0
 11
11971.36032602547
 21
7489.512702941778
 31
0.0
  0
LINE
  5
16B24
330
19716
100
AcDbEntity
  8
CENTER
  6
1PL-M
100
AcDbLine
 10
8626.360326025478
 20
6889.512702941778
 30
0.0
 11
8626.360326025478
 21
8144.512702941778
 31
0.0
  0
LINE
  5
16B28
330
19716
100
AcDbEntity
  8
SUNPOU
100
AcDbLine
 10
8626.360326025478
 20
9919.51270294178
 30
0.0
 11
8626.360326025478
 21
10034.51270294178
 31
0.0
  0
TEXT
  5
16BDA
330
19716
100
AcDbEntity
  8
SUNPOU
100
AcDbText
 10
11145.91129182688
 20
6676.4467044522
 30
0.0
 40
90.0
  1

 41
0.6666666666666666
  7
00
 72
     4
 11
11145.91129182688
 21
6676.4467044522
 31
0.0
100
AcDbText
  0
TEXT
  5
16BDB
330
19716
100
AcDbEntity
  8
SUNPOU
100
AcDbText
 10
10823.49236563967
 20
6496.446704452196
 30
0.0
 40
90.0
  1
（  ：スパン数）
  7
01
 11
10823.49236563967
 21
6541.446704452197
 31
0.0
100
AcDbText
 73
     2
  0
TEXT
  5
16BDC
330
19716
100
AcDbEntity
  8
SUNPOU
100
AcDbText
 10
10953.95357669118
 20
6496.446704452196
 30
0.0
 40
90.0
  1
N
 41
0.6666666666666666
  7
00
 72
     4
 11
10985.38214811975
 21
6541.446704452197
 31
0.0
100
AcDbText
  0
LINE
  5
16BDD
330
19716
100
AcDbEntity
  8
SUNPOU
100
AcDbLine
 10
4636.360326025477
 20
8739.512702941777
 30
0.0
 11
4426.36032602548
 21
8739.512702941777
 31
0.0
  0
LINE
  5
16BDE
330
19716
100
AcDbEntity
  8
SUNPOU
100
AcDbLine
 10
4426.36032602548
 20
8739.512702941778
 30
0.0
 11
4426.36032602548
 21
8889.512702941777
 31
0.0
  0
TEXT
  5
16BDF
330
19716
100
AcDbEntity
  8
SUNPOU
100
AcDbText
 10
4778.236361574529
 20
8694.512702941777
 30
0.0
 40
90.0
  1
B
 41
0.6700000000000001
  7
00
 72
     4
 11
4809.822075860243
 21
8739.512702941778
 31
0.0
100
AcDbText
  0
CIRCLE
  5
16BE2
330
19716
100
AcDbEntity
  8
HASHIRA
100
AcDbCircle
 10
11426.36032602547
 20
7429.512702941778
 30
0.0
 40
9.0
  0
CIRCLE
  5
16BE3
330
19716
100
AcDbEntity
  8
HASHIRA
100
AcDbCircle
 10
11426.36032602547
 20
7549.512702941779
 30
0.0
 40
9.0
  0
CIRCLE
  5
16BE5
330
19716
100
AcDbEntity
  8
HASHIRA
100
AcDbCircle
 10
11426.36032602547
 20
9229.512702941779
 30
0.0
 40
9.0
  0
CIRCLE
  5
16BE6
330
19716
100
AcDbEntity
  8
HASHIRA
100
AcDbCircle
 10
11426.36032602547
 20
9349.512702941778
 30
0.0
 40
9.0
  0
CIRCLE
  5
16BE8
330
19716
100
AcDbEntity
  8
HASHIRA
100
AcDbCircle
 10
8626.360326025478
 20
7549.512702941779
 30
0.0
 40
9.0
  0
CIRCLE
  5
16BE9
330
19716
100
AcDbEntity
  8
HASHIRA
100
AcDbCircle
 10
8626.360326025478
 20
7429.512702941778
 30
0.0
 40
9.0
  0
CIRCLE
  5
16BEB
330
19716
100
AcDbEntity
  8
HASHIRA
100
AcDbCircle
 10
8626.360326025478
 20
9229.512702941779
 30
0.0
 40
9.0
  0
CIRCLE
  5
16BEC
330
19716
100
AcDbEntity
  8
HASHIRA
100
AcDbCircle
 10
8626.360326025478
 20
9349.512702941778
 30
0.0
 40
9.0
  0
CIRCLE
  5
16BEE
330
19716
100
AcDbEntity
  8
HASHIRA
100
AcDbCircle
 10
7226.360326025478
 20
9229.512702941779
 30
0.0
 40
9.0
  0
CIRCLE
  5
16BEF
330
19716
100
AcDbEntity
  8
HASHIRA
100
AcDbCircle
 10
7226.360326025478
 20
9349.512702941778
 30
0.0
 40
9.0
  0
CIRCLE
  5
16BF0
330
19716
100
AcDbEntity
  8
HASHIRA
100
AcDbCircle
 10
7226.360326025478
 20
7429.512702941778
 30
0.0
 40
9.0
  0
CIRCLE
  5
16BF1
330
19716
100
AcDbEntity
  8
HASHIRA
100
AcDbCircle
 10
7226.360326025478
 20
7549.512702941779
 30
0.0
 40
9.0
  0
CIRCLE
  5
16BF4
330
19716
100
AcDbEntity
  8
HASHIRA
100
AcDbCircle
 10
4426.36032602548
 20
9229.512702941779
 30
0.0
 40
9.0
  0
CIRCLE
  5
16BF5
330
19716
100
AcDbEntity
  8
HASHIRA
100
AcDbCircle
 10
4426.36032602548
 20
9349.512702941778
 30
0.0
 40
9.0
  0
CIRCLE
  5
16BF7
330
19716
100
AcDbEntity
  8
HASHIRA
100
AcDbCircle
 10
4426.36032602548
 20
7549.512702941779
 30
0.0
 40
9.0
  0
CIRCLE
  5
16BF8
330
19716
100
AcDbEntity
  8
HASHIRA
100
AcDbCircle
 10
4426.36032602548
 20
7429.512702941778
 30
0.0
 40
9.0
  0
LINE
  5
16C29
330
19716
100
AcDbEntity
  8
SUNPOU
100
AcDbLine
 10
4636.360326025477
 20
9839.512702941782
 30
0.0
 11
4426.36032602548
 21
9839.512702941782
 31
0.0
  0
LINE
  5
16C2A
330
19716
100
AcDbEntity
  8
SUNPOU
100
AcDbLine
 10
4426.36032602548
 20
9839.512702941778
 30
0.0
 11
4426.36032602548
 21
9689.512702941778
 31
0.0
  0
TEXT
  5
16C2B
330
19716
100
AcDbEntity
  8
SUNPOU
100
AcDbText
 10
4765.314933003099
 20
9785.941274370349
 30
0.0
 40
90.0
  1
B'
 41
0.6700000000000001
  7
00
 72
     4
 11
4809.822075860243
 21
9839.512702941778
 31
0.0
100
AcDbText
  0
LINE
  5
16C2D
330
19716
100
AcDbEntity
  8
SUNPOU
100
AcDbLine
 10
12001.36032602547
 20
7489.512702941778
 30
0.0
 11
12481.36032602547
 21
7489.512702941778
 31
0.0
  0
LINE
  5
16C2E
330
19716
100
AcDbEntity
  8
SUNPOU
100
AcDbLine
 10
12001.36032602547
 20
9289.512702941776
 30
0.0
 11
12481.36032602547
 21
9289.512702941776
 31
0.0
  0
TEXT
  5
16C2F
330
19716
100
AcDbEntity
  8
SUNPOU
100
AcDbText
 10
12391.36032602548
 20
9403.798417227491
 30
0.0
 40
90.0
  1
400
 50
90.0
 41
0.6666666666666666
  7
00
 72
     1
 11
12346.36032602547
 21
9489.512702941778
 31
0.0
100
AcDbText
 73
     2
  0
TEXT
  5
16C30
330
19716
100
AcDbEntity
  8
SUNPOU
100
AcDbText
 10
12391.36032602548
 20
8270.941274370347
 30
0.0
 40
90.0
  1
1800
 50
90.0
 41
0.6666666666666666
  7
00
 72
     4
 11
12346.36032602547
 21
8389.512702941777
 31
0.0
100
AcDbText
  0
TEXT
  5
16C31
330
19716
100
AcDbEntity
  8
SUNPOU
100
AcDbText
 10
12391.36032602548
 20
7203.798417227492
 30
0.0
 40
90.0
  1
400
 50
90.0
 41
0.6666666666666666
  7
00
 72
     4
 11
12346.36032602547
 21
7289.512702941777
 31
0.0
100
AcDbText
  0
LINE
  5
16C32
330
19716
100
AcDbEntity
  8
SUNPOU
100
AcDbLine
 10
11856.36032602547
 20
7089.512702941778
 30
0.0
 11
12691.36032602547
 21
7089.512702941778
 31
0.0
  0
LINE
  5
16C33
330
19716
100
AcDbEntity
  8
SUNPOU
100
AcDbLine
 10
11856.36032602547
 20
9689.512702941778
 30
0.0
 11
12691.36032602547
 21
9689.512702941778
 31
0.0
  0
LINE
  5
16C36
330
19716
100
AcDbEntity
  8
SUNPOU
100
AcDbLine
 10
12436.36032602547
 20
9674.512702941779
 30
0.0
 11
12436.36032602547
 21
9304.512702941778
 31
0.0
  0
LINE
  5
16C37
330
19716
100
AcDbEntity
  8
SUNPOU
100
AcDbLine
 10
12646.36032602547
 20
9674.512702941779
 30
0.0
 11
12646.36032602547
 21
7104.512702941779
 31
0.0
  0
LINE
  5
16C38
330
19716
100
AcDbEntity
  8
SUNPOU
100
AcDbLine
 10
12436.36032602547
 20
9274.512702941779
 30
0.0
 11
12436.36032602547
 21
7504.512702941778
 31
0.0
  0
LINE
  5
16C39
330
19716
100
AcDbEntity
  8
SUNPOU
100
AcDbLine
 10
12436.36032602547
 20
7474.512702941779
 30
0.0
 11
12436.36032602547
 21
7104.512702941779
 31
0.0
  0
LINE
  5
16C3B
330
19716
100
AcDbEntity
  8
SUNPOU
100
AcDbLine
 10
12406.36032602547
 20
7089.512702941778
 30
0.0
 11
12391.36032602548
 21
7089.512702941778
 31
0.0
  0
TEXT
  5
16C3F
330
19716
100
AcDbEntity
  8
SUNPOU
100
AcDbText
 10
12601.36032602547
 20
8275.226988656063
 30
0.0
 40
90.0
  1
2600
 50
90.0
 41
0.6666666666666666
  7
00
 72
     4
 11
12556.36032602547
 21
8389.512702941777
 31
0.0
100
AcDbText
  0
LINE
  5
16C43
330
19716
100
AcDbEntity
  8
SUNPOU
100
AcDbLine
 10
12406.36032602547
 20
9689.512702941778
 30
0.0
 11
12391.36032602548
 21
9689.512702941778
 31
0.0
  0
TEXT
  5
16D8F
330
19716
100
AcDbEntity
  8
HIKIDASHI
100
AcDbText
 10
8514.659097568866
 20
6573.329144772748
 30
0.0
 40
80.0
  1
)
 41
0.6700000000000001
  7
00
100
AcDbText
  0
TEXT
  5
16D90
330
19716
100
AcDbEntity
  8
HIKIDASHI
100
AcDbText
 10
8313.800348879489
 20
6588.890622520946
 30
0.0
 40
80.0
  1
1
 41
0.6700000000000001
  7
00
100
AcDbText
  0
TEXT
  5
16D91
330
19716
100
AcDbEntity
  8
HIKIDASHI
100
AcDbText
 10
8346.937486743795
 20
6573.329144772748
 30
0.0
 40
80.0
  1
/
 41
0.6700000000000001
  7
00
100
AcDbText
  0
TEXT
  5
16D92
330
19716
100
AcDbEntity
  8
HIKIDASHI
100
AcDbText
 10
8393.232641506438
 20
6547.161313572471
 30
0.0
 40
80.0
  1
40
 41
0.6700000000000001
  7
00
100
AcDbText
  0
TEXT
  5
16D93
330
19716
100
AcDbEntity
  8
HIKIDASHI
100
AcDbText
 10
8133.092432941813
 20
6573.329144772748
 30
0.0
 40
80.0
  1
(S=
 41
0.6700000000000001
  7
00
100
AcDbText
  0
TEXT
  5
16D94
330
19716
100
AcDbEntity
  8
HIKIDASHI
100
AcDbText
 10
7291.092432941811
 20
6549.51270294178
 30
0.0
 40
120.0
  1
基 礎 伏 図
  7
01
 72
     2
 11
8043.092432941811
 21
6549.51270294178
 31
0.0
100
AcDbText
  0
LINE
  5
18462
330
19716
100
AcDbEntity
  8
1PL-M1
100
AcDbLine
 10
4799.797051267463
 20
2428.172125878786
 30
0.0
 11
4799.797051267463
 21
4175.485411556191
 31
0.0
  0
LINE
  5
18463
330
19716
100
AcDbEntity
  8
KISO
100
AcDbLine
 10
6082.193774006775
 20
3456.684839419605
 30
0.0
 11
4851.797051267457
 21
3456.684839419605
 31
0.0
  0
LINE
  5
18464
330
19716
100
AcDbEntity
  8
KISO
100
AcDbLine
 10
6082.193774006775
 20
3319.084839419603
 30
0.0
 11
4159.797051267463
 21
3319.084839419601
 31
0.0
  0
LINE
  5
18465
330
19716
100
AcDbEntity
  8
HATCH
100
AcDbLine
 10
5031.155511458886
 20
3456.684839419605
 30
0.0
 11
4893.555511458892
 21
3319.084839419601
 31
0.0
  0
LINE
  5
18466
330
19716
100
AcDbEntity
  8
U3
100
AcDbLine
 10
3353.961658022964
 20
3376.684839419603
 30
0.0
 11
3521.961658022965
 21
3208.684839419607
 31
0.0
  0
LINE
  5
18467
330
19716
100
AcDbEntity
  8
U3
100
AcDbLine
 10
3303.049969777532
 20
3325.773151174173
 30
0.0
 11
3420.1382815321
 21
3208.684839419603
 31
0.0
  0
LINE
  5
18468
330
19716
100
AcDbEntity
  8
U3
100
AcDbLine
 10
3589.820095533322
 20
3376.684839419604
 30
0.0
 11
3017.961658022965
 21
3376.684839419604
 31
0.0
  0
LINE
  5
18469
330
19716
100
AcDbEntity
  8
U3
100
AcDbLine
 10
3084.1382815321
 20
3310.508215910466
 30
0.0
 11
3150.314905041234
 21
3376.684839419601
 31
0.0
  0
LINE
  5
1846A
330
19716
100
AcDbEntity
  8
U3
100
AcDbLine
 10
3017.961658022965
 20
3376.684839419601
 30
0.0
 11
3185.961658022964
 21
3208.684839419606
 31
0.0
  0
LINE
  5
1846B
330
19716
100
AcDbEntity
  8
U3
100
AcDbLine
 10
3135.049969777532
 20
3259.596527665037
 30
0.0
 11
3252.1382815321
 21
3376.684839419601
 31
0.0
  0
LINE
  5
1846C
330
19716
100
AcDbEntity
  8
U3
100
AcDbLine
 10
3185.961658022964
 20
3208.684839419606
 30
0.0
 11
3353.961658022964
 21
3376.684839419603
 31
0.0
  0
LINE
  5
1846D
330
19716
100
AcDbEntity
  8
U3
100
AcDbLine
 10
3252.1382815321
 20
3274.861462928739
 30
0.0
 11
3318.314905041237
 21
3208.684839419603
 31
0.0
  0
LINE
  5
1846E
330
19716
100
AcDbEntity
  8
U3
100
AcDbLine
 10
3521.961658022965
 20
3208.684839419607
 30
0.0
 11
3589.820095533322
 21
3276.543276929964
 31
0.0
  0
LINE
  5
1846F
330
19716
100
AcDbEntity
  8
U3
100
AcDbLine
 10
3420.1382815321
 20
3310.508215910469
 30
0.0
 11
3486.314905041234
 21
3376.684839419603
 31
0.0
  0
LINE
  5
18470
330
19716
100
AcDbEntity
  8
U3
100
AcDbLine
 10
3471.049969777533
 20
3259.596527665038
 30
0.0
 11
3588.138281532103
 21
3376.684839419603
 31
0.0
  0
LINE
  5
18471
330
19716
100
AcDbEntity
  8
HASHIRA
100
AcDbLine
 10
4851.797051267457
 20
3328.684839419607
 30
0.0
 11
4851.797051267457
 21
3718.91804462035
 31
0.0
  0
LINE
  5
18472
330
19716
100
AcDbEntity
  8
HASHIRA
100
AcDbLine
 10
4747.797051267457
 20
3718.91804462035
 30
0.0
 11
4747.797051267457
 21
3328.684839419607
 31
0.0
  0
LINE
  5
18473
330
19716
100
AcDbEntity
  8
U3
100
AcDbLine
 10
4159.797051267463
 20
3376.684839419604
 30
0.0
 11
3909.820095533321
 21
3376.684839419603
 31
0.0
  0
LINE
  5
18474
330
19716
100
AcDbEntity
  8
U3
100
AcDbLine
 10
4098.782873409589
 20
3310.508215910469
 30
0.0
 11
4159.797051267463
 21
3371.522393768344
 31
0.0
  0
LINE
  5
18475
330
19716
100
AcDbEntity
  8
U3
100
AcDbLine
 10
4032.606249900456
 20
3376.684839419603
 30
0.0
 11
4159.797051267463
 21
3249.494038052592
 31
0.0
  0
LINE
  5
18476
330
19716
100
AcDbEntity
  8
U3
100
AcDbLine
 10
3975.765342899848
 20
3331.702369929347
 30
0.0
 11
4098.782873409595
 21
3208.684839419603
 31
0.0
  0
LINE
  5
18478
330
19716
100
AcDbEntity
  8
KISO
100
AcDbLine
 10
4747.797051267457
 20
3456.684839419605
 30
0.0
 11
4159.797051267463
 21
3456.684839419605
 31
0.0
  0
LINE
  5
1847A
330
19716
100
AcDbEntity
  8
HATCH
100
AcDbLine
 10
4821.714626963203
 20
3319.084839419601
 30
0.0
 11
4810.197051267465
 21
3307.567263723864
 31
0.0
  0
LINE
  5
1847B
330
19716
100
AcDbEntity
  8
KISO
100
AcDbLine
 10
5439.797051267471
 20
3191.0848394196
 30
0.0
 11
6082.193774006775
 21
3191.084839419602
 31
0.0
  0
LINE
  5
1847C
330
19716
100
AcDbEntity
  8
HATCH
100
AcDbLine
 10
6038.673087154623
 20
3456.684839419603
 30
0.0
 11
5901.073087154633
 21
3319.084839419603
 31
0.0
  0
LINE
  5
1847D
330
19716
100
AcDbEntity
  8
HATCH
100
AcDbLine
 10
6086.190662850363
 20
3456.684839419603
 30
0.0
 11
5948.590662850364
 21
3319.084839419603
 31
0.0
  0
LINE
  5
1847F
330
19716
100
AcDbEntity
  8
HATCH
100
AcDbLine
 10
5511.155511458887
 20
3456.684839419605
 30
0.0
 11
5373.555511458888
 21
3319.084839419601
 31
0.0
  0
LINE
  5
18480
330
19716
100
AcDbEntity
  8
HATCH
100
AcDbLine
 10
5558.673087154621
 20
3456.684839419603
 30
0.0
 11
5421.073087154629
 21
3319.084839419601
 31
0.0
  0
LINE
  5
18481
330
19716
100
AcDbEntity
  8
HATCH
100
AcDbLine
 10
5126.190662850362
 20
3456.684839419603
 30
0.0
 11
4988.590662850362
 21
3319.084839419601
 31
0.0
  0
LINE
  5
18482
330
19716
100
AcDbEntity
  8
HATCH
100
AcDbLine
 10
5078.673087154623
 20
3456.684839419603
 30
0.0
 11
4941.073087154631
 21
3319.084839419601
 31
0.0
  0
LINE
  5
18484
330
19716
100
AcDbEntity
  8
HATCH
100
AcDbLine
 10
5606.190662850362
 20
3456.684839419603
 30
0.0
 11
5468.590662850363
 21
3319.084839419601
 31
0.0
  0
LINE
  5
18486
330
19716
100
AcDbEntity
  8
HATCH
100
AcDbLine
 10
5991.155511458885
 20
3456.684839419605
 30
0.0
 11
5853.555511458888
 21
3319.084839419603
 31
0.0
  0
LINE
  5
18488
330
19716
100
AcDbEntity
  8
KISO
100
AcDbLine
 10
5439.797051267464
 20
3319.084839419601
 30
0.0
 11
5439.797051267464
 21
2711.084839419601
 31
0.0
  0
LINE
  5
18489
330
19716
100
AcDbEntity
  8
HATCH
100
AcDbLine
 10
5439.797051267464
 20
3073.167263723862
 30
0.0
 11
5077.714626963206
 21
2711.084839419601
 31
0.0
  0
LINE
  5
1848A
330
19716
100
AcDbEntity
  8
HATCH
100
AcDbLine
 10
5301.232202658938
 20
3319.084839419601
 30
0.0
 11
4693.232202658947
 21
2711.084839419601
 31
0.0
  0
LINE
  5
1848B
330
19716
100
AcDbEntity
  8
HATCH
100
AcDbLine
 10
5253.714626963207
 20
3319.084839419601
 30
0.0
 11
4810.197051267465
 21
2875.567263723857
 31
0.0
  0
LINE
  5
1848C
330
19716
100
AcDbEntity
  8
HATCH
100
AcDbLine
 10
5206.197051267466
 20
3319.084839419601
 30
0.0
 11
4810.197051267465
 21
2923.084839419596
 31
0.0
  0
LINE
  5
1848D
330
19716
100
AcDbEntity
  8
HATCH
100
AcDbLine
 10
5439.797051267464
 20
3025.649688028125
 30
0.0
 11
5125.232202658947
 21
2711.084839419601
 31
0.0
  0
LINE
  5
1848E
330
19716
100
AcDbEntity
  8
HATCH
100
AcDbLine
 10
5439.797051267464
 20
2978.132112332392
 30
0.0
 11
5172.749778354678
 21
2711.084839419601
 31
0.0
  0
LINE
  5
1848F
330
19716
100
AcDbEntity
  8
HATCH
100
AcDbLine
 10
4774.197051267476
 20
3319.084839419601
 30
0.0
 11
4166.197051267473
 21
2711.084839419601
 31
0.0
  0
LINE
  5
18490
330
19716
100
AcDbEntity
  8
HATCH
100
AcDbLine
 10
4726.679475571732
 20
3319.084839419601
 30
0.0
 11
4159.797051267463
 21
2752.202415115331
 31
0.0
  0
LINE
  5
18491
330
19716
100
AcDbEntity
  8
HATCH
100
AcDbLine
 10
4789.397051267463
 20
3286.767263723862
 30
0.0
 11
4213.714626963207
 21
2711.084839419601
 31
0.0
  0
LINE
  5
18492
330
19716
100
AcDbEntity
  8
HATCH
100
AcDbLine
 10
4342.197051267471
 20
3319.084839419601
 30
0.0
 11
4159.797051267463
 21
3136.684839419597
 31
0.0
  0
LINE
  5
18493
330
19716
100
AcDbEntity
  8
HATCH
100
AcDbLine
 10
4247.161899876001
 20
3319.084839419603
 30
0.0
 11
4159.797051267463
 21
3231.719990811068
 31
0.0
  0
LINE
  5
18494
330
19716
100
AcDbEntity
  8
HATCH
100
AcDbLine
 10
4294.679475571739
 20
3319.084839419601
 30
0.0
 11
4159.797051267463
 21
3184.202415115327
 31
0.0
  0
LINE
  5
18495
330
19716
100
AcDbEntity
  8
HATCH
100
AcDbLine
 10
4789.397051267463
 20
2902.284839419595
 30
0.0
 11
4766.19705126748
 21
2879.084839419608
 31
0.0
  0
LINE
  5
18496
330
19716
100
AcDbEntity
  8
HATCH
100
AcDbLine
 10
4745.397051267479
 20
2858.284839419607
 30
0.0
 11
4598.197051267473
 21
2711.084839419601
 31
0.0
  0
LINE
  5
18497
330
19716
100
AcDbEntity
  8
HATCH
100
AcDbLine
 10
5439.797051267464
 20
3285.236002075317
 30
0.0
 11
5459.339686619942
 21
3319.084839419601
 31
0.0
  0
LINE
  5
18498
330
19716
100
AcDbEntity
  8
U3
100
AcDbLine
 10
3924.853654654415
 20
3280.790681683919
 30
0.0
 11
3996.959496918732
 21
3208.684839419603
 31
0.0
  0
LINE
  5
18499
330
19716
100
AcDbEntity
  8
U3
100
AcDbLine
 10
3909.820095533321
 20
3265.757122562824
 30
0.0
 11
4020.747812390101
 21
3376.684839419601
 31
0.0
  0
LINE
  5
1849A
330
19716
100
AcDbEntity
  8
HATCH
100
AcDbLine
 10
4792.91462696322
 20
2858.284839419607
 30
0.0
 11
4645.714626963214
 21
2711.084839419601
 31
0.0
  0
LINE
  5
1849B
330
19716
100
AcDbEntity
  8
HATCH
100
AcDbLine
 10
4646.190662850361
 20
3456.684839419603
 30
0.0
 11
4508.590662850362
 21
3319.084839419601
 31
0.0
  0
LINE
  5
1849C
330
19716
100
AcDbEntity
  8
HATCH
100
AcDbLine
 10
4598.673087154621
 20
3456.684839419603
 30
0.0
 11
4461.07308715463
 21
3319.084839419601
 31
0.0
  0
LINE
  5
1849D
330
19716
100
AcDbEntity
  8
HATCH
100
AcDbLine
 10
4551.155511458886
 20
3456.684839419605
 30
0.0
 11
4413.55551145889
 21
3319.084839419601
 31
0.0
  0
LINE
  5
1849E
330
19716
100
AcDbEntity
  8
SUNPOU
100
AcDbLine
 10
4799.797051267463
 20
4130.485411556192
 30
0.0
 11
6225.027558517715
 21
4130.485411556192
 31
0.0
  0
TEXT
  5
184A0
330
19716
100
AcDbEntity
  8
SUNPOU
100
AcDbText
 10
5585.624750407928
 20
4175.485411556191
 30
0.0
 40
90.0
  1
2800
 41
0.6666666666666666
  7
00
 72
     4
 11
5699.910464693643
 21
4220.485411556191
 31
0.0
100
AcDbText
  0
LINE
  5
184A3
330
19716
100
AcDbEntity
  8
HATCH
100
AcDbLine
 10
4827.726846493639
 20
2551.084839419601
 30
0.0
 11
4920.102889160304
 21
2711.084839419601
 31
0.0
  0
LINE
  5
184A4
330
19716
100
AcDbEntity
  8
HATCH
100
AcDbLine
 10
4866.769555826969
 20
2711.084839419601
 30
0.0
 11
4893.436222493637
 21
2664.896816752937
 31
0.0
  0
LINE
  5
184A5
330
19716
100
AcDbEntity
  8
HATCH
100
AcDbLine
 10
4854.393513160305
 20
2597.272860752932
 30
0.0
 11
4881.06017982697
 21
2551.084839419601
 31
0.0
  0
LINE
  5
184A6
330
19716
100
AcDbEntity
  8
HATCH
100
AcDbLine
 10
4654.393513160305
 20
2597.272860752932
 30
0.0
 11
4681.06017982697
 21
2551.084839419601
 31
0.0
  0
LINE
  5
184A7
330
19716
100
AcDbEntity
  8
HATCH
100
AcDbLine
 10
4666.769555826969
 20
2711.084839419601
 30
0.0
 11
4693.436222493637
 21
2664.896816752937
 31
0.0
  0
LINE
  5
184A8
330
19716
100
AcDbEntity
  8
HATCH
100
AcDbLine
 10
4454.393513160304
 20
2597.272860752932
 30
0.0
 11
4481.060179826971
 21
2551.084839419601
 31
0.0
  0
LINE
  5
184A9
330
19716
100
AcDbEntity
  8
HATCH
100
AcDbLine
 10
4427.726846493636
 20
2551.084839419601
 30
0.0
 11
4520.102889160303
 21
2711.084839419601
 31
0.0
  0
LINE
  5
184AA
330
19716
100
AcDbEntity
  8
HATCH
100
AcDbLine
 10
4466.76955582697
 20
2711.084839419601
 30
0.0
 11
4493.436222493635
 21
2664.896816752937
 31
0.0
  0
LINE
  5
184AB
330
19716
100
AcDbEntity
  8
HATCH
100
AcDbLine
 10
4254.393513160304
 20
2597.272860752932
 30
0.0
 11
4281.060179826972
 21
2551.084839419601
 31
0.0
  0
LINE
  5
184AC
330
19716
100
AcDbEntity
  8
HATCH
100
AcDbLine
 10
4266.769555826971
 20
2711.084839419601
 30
0.0
 11
4293.436222493635
 21
2664.896816752937
 31
0.0
  0
LINE
  5
184AD
330
19716
100
AcDbEntity
  8
HATCH
100
AcDbLine
 10
4227.726846493637
 20
2551.084839419601
 30
0.0
 11
4320.102889160303
 21
2711.084839419601
 31
0.0
  0
LINE
  5
184AE
330
19716
100
AcDbEntity
  8
HATCH
100
AcDbLine
 10
4627.726846493636
 20
2551.084839419601
 30
0.0
 11
4720.102889160303
 21
2711.084839419601
 31
0.0
  0
LINE
  5
184AF
330
19716
100
AcDbEntity
  8
HATCH
100
AcDbLine
 10
5066.76955582697
 20
2711.084839419601
 30
0.0
 11
5093.436222493636
 21
2664.896816752937
 31
0.0
  0
LINE
  5
184B0
330
19716
100
AcDbEntity
  8
HATCH
100
AcDbLine
 10
5027.726846493639
 20
2551.084839419601
 30
0.0
 11
5120.102889160303
 21
2711.084839419601
 31
0.0
  0
LINE
  5
184B1
330
19716
100
AcDbEntity
  8
HATCH
100
AcDbLine
 10
5054.393513160305
 20
2597.272860752932
 30
0.0
 11
5081.060179826971
 21
2551.084839419601
 31
0.0
  0
LINE
  5
184B2
330
19716
100
AcDbEntity
  8
HATCH
100
AcDbLine
 10
5227.726846493639
 20
2551.084839419601
 30
0.0
 11
5320.102889160303
 21
2711.084839419601
 31
0.0
  0
LINE
  5
184B3
330
19716
100
AcDbEntity
  8
HATCH
100
AcDbLine
 10
5266.769555826971
 20
2711.084839419601
 30
0.0
 11
5293.436222493635
 21
2664.896816752937
 31
0.0
  0
LINE
  5
184B4
330
19716
100
AcDbEntity
  8
HATCH
100
AcDbLine
 10
5254.393513160305
 20
2597.272860752932
 30
0.0
 11
5281.060179826972
 21
2551.084839419601
 31
0.0
  0
LINE
  5
184B5
330
19716
100
AcDbEntity
  8
HATCH
100
AcDbLine
 10
4066.76955582697
 20
2711.084839419601
 30
0.0
 11
4093.436222493635
 21
2664.896816752937
 31
0.0
  0
LINE
  5
184B6
330
19716
100
AcDbEntity
  8
HATCH
100
AcDbLine
 10
4027.726846493638
 20
2551.084839419601
 30
0.0
 11
4120.102889160301
 21
2711.084839419601
 31
0.0
  0
LINE
  5
184B7
330
19716
100
AcDbEntity
  8
HATCH
100
AcDbLine
 10
4054.393513160305
 20
2597.272860752932
 30
0.0
 11
4081.060179826971
 21
2551.084839419601
 31
0.0
  0
TEXT
  5
184BE
330
19716
100
AcDbEntity
  8
SUNPOU
100
AcDbText
 10
3070.061516132469
 20
3511.684839419604
 30
0.0
 40
90.0
  1
G.L
 41
0.6700000000000001
  7
01
 72
     4
 11
3141.847230418183
 21
3556.684839419605
 31
0.0
100
AcDbText
  0
LINE
  5
184BF
330
19716
100
AcDbEntity
  8
SUNPOU
100
AcDbLine
 10
3193.80875464525
 20
3466.684839419605
 30
0.0
 11
3089.885706191117
 21
3466.684839419605
 31
0.0
  0
LINE
  5
184C0
330
19716
100
AcDbEntity
  8
SUNPOU
100
AcDbLine
 10
3089.885706191117
 20
3466.684839419605
 30
0.0
 11
3141.847230418183
 21
3376.684839419604
 31
0.0
  0
LINE
  5
184C1
330
19716
100
AcDbEntity
  8
SUNPOU
100
AcDbLine
 10
3141.847230418183
 20
3376.684839419604
 30
0.0
 11
3193.80875464525
 21
3466.684839419605
 31
0.0
  0
TEXT
  5
184C2
330
19716
100
AcDbEntity
  8
HIKIDASHI
100
AcDbText
 10
4876.000654146238
 20
1664.635820576935
 30
0.0
 40
90.0
  1
断 面
  7
01
100
AcDbText
  0
LINE
  5
184C3
330
19716
100
AcDbEntity
  8
HIKIDASHI
100
AcDbLine
 10
4451.983374649677
 20
1619.635820576936
 30
0.0
 11
5147.610727885247
 21
1619.635820576936
 31
0.0
  0
LINE
  5
184C4
330
19716
100
AcDbEntity
  8
HIKIDASHI
100
AcDbLine
 10
4451.983374649677
 20
1589.635820576935
 30
0.0
 11
5147.610727885247
 21
1589.635820576935
 31
0.0
  0
TEXT
  5
184C5
330
19716
100
AcDbEntity
  8
HIKIDASHI
100
AcDbText
 10
4481.983374649677
 20
1664.635820576935
 30
0.0
 40
90.0
  1
A  ~  A'
 41
0.6700000000000001
  7
00
100
AcDbText
  0
TEXT
  5
184C8
330
19716
100
AcDbEntity
  8
HIKIDASHI
100
AcDbText
 10
5718.705531692625
 20
2949.11470702088
 30
0.0
 40
90.0
  1
敷砂利又は砕石
  7
01
 72
     2
 11
6450.705531692626
 21
2994.11470702088
 31
0.0
100
AcDbText
 73
     2
  0
LINE
  5
184C9
330
19716
100
AcDbEntity
  8
HIKIDASHI
100
AcDbLine
 10
6475.935832338305
 20
2904.11470702088
 30
0.0
 11
5674.871662611158
 21
2904.11470702088
 31
0.0
  0
TEXT
  5
184CA
330
19716
100
AcDbEntity
  8
HIKIDASHI
100
AcDbText
 10
5843.40570439457
 20
2313.304238552882
 30
0.0
 40
90.0
  1
砕　石
  7
01
 72
     2
 11
6143.40570439457
 21
2358.304238552882
 31
0.0
100
AcDbText
 73
     2
  0
LINE
  5
184CB
330
19716
100
AcDbEntity
  8
HIKIDASHI
100
AcDbLine
 10
6185.104473630285
 20
2268.304238552882
 30
0.0
 11
5816.33809680266
 21
2268.304238552882
 31
0.0
  0
CIRCLE
  5
184D2
330
19716
100
AcDbEntity
  8
BOLT
100
AcDbCircle
 10
8580.123251791111
 20
3424.684839419607
 30
0.0
 40
13.2
  0
CIRCLE
  5
184D3
330
19716
100
AcDbEntity
  8
BOLT
100
AcDbCircle
 10
8580.123251791111
 20
3424.684839419607
 30
0.0
 40
16.8
  0
CIRCLE
  5
184D4
330
19716
100
AcDbEntity
  8
BOLT
100
AcDbCircle
 10
8580.123251791111
 20
3360.684839419607
 30
0.0
 40
16.8
  0
CIRCLE
  5
184D5
330
19716
100
AcDbEntity
  8
BOLT
100
AcDbCircle
 10
8580.123251791111
 20
3360.684839419607
 30
0.0
 40
13.2
  0
LINE
  5
184D7
330
19716
100
AcDbEntity
  8
KISO
100
AcDbLine
 10
9862.519974530416
 20
3456.684839419605
 30
0.0
 11
8632.123251791108
 21
3456.684839419605
 31
0.0
  0
LINE
  5
184D8
330
19716
100
AcDbEntity
  8
KISO
100
AcDbLine
 10
9862.519974530416
 20
3319.084839419601
 30
0.0
 11
7940.12325179111
 21
3319.084839419601
 31
0.0
  0
LINE
  5
184D9
330
19716
100
AcDbEntity
  8
KISO
100
AcDbLine
 10
9220.123251791108
 20
3191.0848394196
 30
0.0
 11
9862.519974530416
 21
3191.084839419602
 31
0.0
  0
LINE
  5
184DA
330
19716
100
AcDbEntity
  8
KISO
100
AcDbLine
 10
8528.123251791111
 20
3456.684839419605
 30
0.0
 11
8260.12325179111
 21
3456.684839419605
 31
0.0
  0
LINE
  5
184DB
330
19716
100
AcDbEntity
  8
KISO
100
AcDbLine
 10
8260.12325179111
 20
3456.684839419607
 30
0.0
 11
8260.12325179111
 21
3319.084839419601
 31
0.0
  0
LINE
  5
184DC
330
19716
100
AcDbEntity
  8
KISO
100
AcDbLine
 10
7940.123251791111
 20
3319.084839419601
 30
0.0
 11
7940.123251791111
 21
3191.084839419602
 31
0.0
  0
LINE
  5
184DD
330
19716
100
AcDbEntity
  8
HASHIRA
100
AcDbLine
 10
8632.123251791108
 20
3328.684839419607
 30
0.0
 11
8632.123251791101
 21
3583.485411556191
 31
0.0
  0
LINE
  5
184DE
330
19716
100
AcDbEntity
  8
HASHIRA
100
AcDbLine
 10
8528.123251791111
 20
3583.485411556191
 30
0.0
 11
8528.123251791111
 21
3328.684839419607
 31
0.0
  0
LINE
  5
184E1
330
19716
100
AcDbEntity
  8
HATCH
100
AcDbLine
 10
8331.481711982537
 20
3456.684839419605
 30
0.0
 11
8260.12325179111
 21
3385.326379228178
 31
0.0
  0
LINE
  5
184E2
330
19716
100
AcDbEntity
  8
HATCH
100
AcDbLine
 10
8426.516863374009
 20
3456.684839419605
 30
0.0
 11
8288.916863374003
 21
3319.084839419601
 31
0.0
  0
LINE
  5
184E3
330
19716
100
AcDbEntity
  8
HATCH
100
AcDbLine
 10
8378.999287678276
 20
3456.684839419605
 30
0.0
 11
8260.12325179111
 21
3337.808803532439
 31
0.0
  0
LINE
  5
184E4
330
19716
100
AcDbEntity
  8
1PL-S1
100
AcDbLine
 10
8484.12325179111
 20
3309.484839419607
 30
0.0
 11
8484.12325179111
 21
3338.284839419608
 31
0.0
  0
LINE
  5
184E6
330
19716
100
AcDbEntity
  8
HATCH
100
AcDbLine
 10
8811.481711982535
 20
3456.684839419605
 30
0.0
 11
8683.481711982539
 21
3328.684839419607
 31
0.0
  0
LINE
  5
184E7
330
19716
100
AcDbEntity
  8
HATCH
100
AcDbLine
 10
8858.999287678274
 20
3456.684839419605
 30
0.0
 11
8721.399287678272
 21
3319.084839419601
 31
0.0
  0
LINE
  5
184E8
330
19716
100
AcDbEntity
  8
1PL-S1
100
AcDbLine
 10
8676.123251791109
 20
3309.484839419607
 30
0.0
 11
8676.123251791109
 21
3338.284839419606
 31
0.0
  0
LINE
  5
184E9
330
19716
100
AcDbEntity
  8
HATCH
100
AcDbLine
 10
8906.516863374006
 20
3456.684839419605
 30
0.0
 11
8768.916863374005
 21
3319.084839419601
 31
0.0
  0
LINE
  5
184EA
330
19716
100
AcDbEntity
  8
HATCH
100
AcDbLine
 10
9291.481711982534
 20
3456.684839419605
 30
0.0
 11
9153.881711982537
 21
3319.084839419601
 31
0.0
  0
LINE
  5
184EB
330
19716
100
AcDbEntity
  8
HATCH
100
AcDbLine
 10
9338.999287678275
 20
3456.684839419605
 30
0.0
 11
9201.399287678276
 21
3319.084839419601
 31
0.0
  0
LINE
  5
184EC
330
19716
100
AcDbEntity
  8
HATCH
100
AcDbLine
 10
9386.516863374007
 20
3456.684839419605
 30
0.0
 11
9248.916863374001
 21
3319.084839419601
 31
0.0
  0
LINE
  5
184F0
330
19716
100
AcDbEntity
  8
HATCH
100
AcDbLine
 10
9866.516863374007
 20
3456.684839419605
 30
0.0
 11
9728.916863374005
 21
3319.084839419601
 31
0.0
  0
LINE
  5
184F1
330
19716
100
AcDbEntity
  8
HATCH
100
AcDbLine
 10
9818.999287678275
 20
3456.684839419605
 30
0.0
 11
9681.399287678276
 21
3319.084839419601
 31
0.0
  0
LINE
  5
184F2
330
19716
100
AcDbEntity
  8
HATCH
100
AcDbLine
 10
9771.481711982536
 20
3456.684839419605
 30
0.0
 11
9633.881711982537
 21
3319.084839419601
 31
0.0
  0
LINE
  5
184F4
330
19716
100
AcDbEntity
  8
HATCH
100
AcDbLine
 10
9220.123251791108
 20
3285.23600207479
 30
0.0
 11
9239.665887143591
 21
3319.084839419076
 31
0.0
  0
LINE
  5
184F5
330
19716
100
AcDbEntity
  8
HATCH
100
AcDbLine
 10
9220.123251791108
 20
3073.167263723867
 30
0.0
 11
8858.040827486858
 21
2711.084839419607
 31
0.0
  0
LINE
  5
184F6
330
19716
100
AcDbEntity
  8
HATCH
100
AcDbLine
 10
9220.123251791108
 20
3025.64968802813
 30
0.0
 11
8905.558403182586
 21
2711.084839419607
 31
0.0
  0
LINE
  5
184F7
330
19716
100
AcDbEntity
  8
HATCH
100
AcDbLine
 10
9220.123251791108
 20
2978.132112332395
 30
0.0
 11
8953.075978878326
 21
2711.084839419607
 31
0.0
  0
LINE
  5
184F8
330
19716
100
AcDbEntity
  8
HATCH
100
AcDbLine
 10
9034.040827486846
 20
3319.084839419601
 30
0.0
 11
8686.523251791108
 21
2971.567263723861
 31
0.0
  0
LINE
  5
184F9
330
19716
100
AcDbEntity
  8
HATCH
100
AcDbLine
 10
9081.558403182576
 20
3319.084839419601
 30
0.0
 11
8686.523251791108
 21
2924.049688028131
 31
0.0
  0
LINE
  5
184FA
330
19716
100
AcDbEntity
  8
HATCH
100
AcDbLine
 10
8986.52325179111
 20
3319.084839419601
 30
0.0
 11
8686.523251791108
 21
3019.084839419599
 31
0.0
  0
LINE
  5
184FB
330
19716
100
AcDbEntity
  8
KISO
100
AcDbLine
 10
9220.123251791108
 20
3319.084839419605
 30
0.0
 11
9220.123251791108
 21
2711.084839419607
 31
0.0
  0
LINE
  5
184FC
330
19716
100
AcDbEntity
  8
HATCH
100
AcDbLine
 10
8507.005676095376
 20
3319.084839419601
 30
0.0
 11
8494.523251791115
 21
3306.602415115338
 31
0.0
  0
LINE
  5
184FD
330
19716
100
AcDbEntity
  8
HATCH
100
AcDbLine
 10
8569.723251791113
 20
3286.767263723867
 30
0.0
 11
8494.523251791115
 21
3211.567263723866
 31
0.0
  0
LINE
  5
184FE
330
19716
100
AcDbEntity
  8
HATCH
100
AcDbLine
 10
8554.523251791115
 20
3319.084839419601
 30
0.0
 11
8494.523251791115
 21
3259.084839419598
 31
0.0
  0
LINE
  5
184FF
330
19716
100
AcDbEntity
  8
KISO
100
AcDbLine
 10
7940.123251791111
 20
3319.084839419605
 30
0.0
 11
7940.123251791111
 21
2711.084839419607
 31
0.0
  0
LINE
  5
18500
330
19716
100
AcDbEntity
  8
HATCH
100
AcDbLine
 10
8122.523251791111
 20
3319.084839419603
 30
0.0
 11
7940.123251791111
 21
3136.684839419602
 31
0.0
  0
LINE
  5
18501
330
19716
100
AcDbEntity
  8
HATCH
100
AcDbLine
 10
8075.005676095383
 20
3319.084839419601
 30
0.0
 11
7940.123251791111
 21
3184.202415115334
 31
0.0
  0
LINE
  5
18502
330
19716
100
AcDbEntity
  8
HATCH
100
AcDbLine
 10
8665.723251791105
 20
2998.284839419597
 30
0.0
 11
8378.523251791124
 21
2711.084839419607
 31
0.0
  0
LINE
  5
18503
330
19716
100
AcDbEntity
  8
HATCH
100
AcDbLine
 10
8665.723251791105
 20
2950.767263723859
 30
0.0
 11
8426.040827486859
 21
2711.084839419607
 31
0.0
  0
LINE
  5
18504
330
19716
100
AcDbEntity
  8
HATCH
100
AcDbLine
 10
8665.723251791105
 20
2903.249688028129
 30
0.0
 11
8473.558403182591
 21
2711.084839419607
 31
0.0
  0
LINE
  5
18505
330
19716
100
AcDbEntity
  8
HATCH
100
AcDbLine
 10
8473.723251791112
 20
3285.802415115337
 30
0.0
 11
7940.123251791111
 21
2752.202415115336
 31
0.0
  0
LINE
  5
18506
330
19716
100
AcDbEntity
  8
HATCH
100
AcDbLine
 10
8473.723251791112
 20
3238.284839419597
 30
0.0
 11
7946.523251791126
 21
2711.084839419607
 31
0.0
  0
LINE
  5
18507
330
19716
100
AcDbEntity
  8
HATCH
100
AcDbLine
 10
8473.723251791112
 20
3190.767263723866
 30
0.0
 11
7994.040827486853
 21
2711.084839419607
 31
0.0
  0
LINE
  5
18508
330
19716
100
AcDbEntity
  8
HATCH
100
AcDbLine
 10
8027.488100399644
 20
3319.084839419603
 30
0.0
 11
7940.123251791111
 21
3231.719990811074
 31
0.0
  0
LINE
  5
18509
330
19716
100
AcDbEntity
  8
U3
100
AcDbLine
 10
8015.109073933235
 20
3328.684839419602
 30
0.0
 11
8063.109073933231
 21
3376.684839419604
 31
0.0
  0
LINE
  5
1850A
330
19716
100
AcDbEntity
  8
U3
100
AcDbLine
 10
8116.932450424092
 20
3328.684839419602
 30
0.0
 11
8164.932450424101
 21
3376.684839419605
 31
0.0
  0
LINE
  5
1850B
330
19716
100
AcDbEntity
  8
U3
100
AcDbLine
 10
8164.932450424096
 20
3376.684839419604
 30
0.0
 11
8212.9324504241
 21
3328.684839419602
 31
0.0
  0
LINE
  5
1850C
330
19716
100
AcDbEntity
  8
1PL-M1
100
AcDbLine
 10
8580.123251791111
 20
2428.17212587879
 30
0.0
 11
8580.123251791111
 21
4175.485411556194
 31
0.0
  0
LINE
  5
1850D
330
19716
100
AcDbEntity
  8
HATCH
100
AcDbLine
 10
8608.053047017286
 20
2551.084839419607
 30
0.0
 11
8700.42908968395
 21
2711.084839419607
 31
0.0
  0
LINE
  5
1850E
330
19716
100
AcDbEntity
  8
HATCH
100
AcDbLine
 10
8647.095756350616
 20
2711.084839419607
 30
0.0
 11
8673.762423017283
 21
2664.896816752943
 31
0.0
  0
LINE
  5
1850F
330
19716
100
AcDbEntity
  8
HATCH
100
AcDbLine
 10
8634.719713683951
 20
2597.272860752938
 30
0.0
 11
8661.386380350617
 21
2551.084839419607
 31
0.0
  0
LINE
  5
18510
330
19716
100
AcDbEntity
  8
HATCH
100
AcDbLine
 10
8434.719713683952
 20
2597.272860752938
 30
0.0
 11
8461.386380350615
 21
2551.084839419607
 31
0.0
  0
LINE
  5
18511
330
19716
100
AcDbEntity
  8
HATCH
100
AcDbLine
 10
8447.095756350616
 20
2711.084839419607
 30
0.0
 11
8473.762423017282
 21
2664.896816752943
 31
0.0
  0
LINE
  5
18512
330
19716
100
AcDbEntity
  8
HATCH
100
AcDbLine
 10
8234.719713683951
 20
2597.272860752938
 30
0.0
 11
8261.386380350616
 21
2551.084839419607
 31
0.0
  0
LINE
  5
18513
330
19716
100
AcDbEntity
  8
HATCH
100
AcDbLine
 10
8208.053047017285
 20
2551.084839419607
 30
0.0
 11
8300.42908968395
 21
2711.084839419607
 31
0.0
  0
LINE
  5
18514
330
19716
100
AcDbEntity
  8
HATCH
100
AcDbLine
 10
8247.095756350615
 20
2711.084839419607
 30
0.0
 11
8273.762423017283
 21
2664.896816752943
 31
0.0
  0
LINE
  5
18515
330
19716
100
AcDbEntity
  8
HATCH
100
AcDbLine
 10
8034.719713683951
 20
2597.272860752938
 30
0.0
 11
8061.386380350617
 21
2551.084839419607
 31
0.0
  0
LINE
  5
18516
330
19716
100
AcDbEntity
  8
HATCH
100
AcDbLine
 10
8047.095756350616
 20
2711.084839419607
 30
0.0
 11
8073.762423017283
 21
2664.896816752943
 31
0.0
  0
LINE
  5
18517
330
19716
100
AcDbEntity
  8
HATCH
100
AcDbLine
 10
8008.053047017284
 20
2551.084839419607
 30
0.0
 11
8100.429089683949
 21
2711.084839419607
 31
0.0
  0
LINE
  5
18518
330
19716
100
AcDbEntity
  8
HATCH
100
AcDbLine
 10
8408.053047017286
 20
2551.084839419607
 30
0.0
 11
8500.429089683951
 21
2711.084839419607
 31
0.0
  0
LINE
  5
18519
330
19716
100
AcDbEntity
  8
HATCH
100
AcDbLine
 10
8847.095756350617
 20
2711.084839419607
 30
0.0
 11
8873.762423017282
 21
2664.896816752943
 31
0.0
  0
LINE
  5
1851A
330
19716
100
AcDbEntity
  8
HATCH
100
AcDbLine
 10
8808.053047017287
 20
2551.084839419607
 30
0.0
 11
8900.429089683951
 21
2711.084839419607
 31
0.0
  0
LINE
  5
1851B
330
19716
100
AcDbEntity
  8
HATCH
100
AcDbLine
 10
8834.71971368395
 20
2597.272860752938
 30
0.0
 11
8861.386380350616
 21
2551.084839419607
 31
0.0
  0
LINE
  5
1851C
330
19716
100
AcDbEntity
  8
HATCH
100
AcDbLine
 10
9008.053047017282
 20
2551.084839419607
 30
0.0
 11
9100.429089683951
 21
2711.084839419607
 31
0.0
  0
LINE
  5
1851D
330
19716
100
AcDbEntity
  8
HATCH
100
AcDbLine
 10
9047.095756350616
 20
2711.084839419607
 30
0.0
 11
9073.762423017283
 21
2664.896816752943
 31
0.0
  0
LINE
  5
1851E
330
19716
100
AcDbEntity
  8
HATCH
100
AcDbLine
 10
9034.719713683951
 20
2597.272860752938
 30
0.0
 11
9061.386380350617
 21
2551.084839419607
 31
0.0
  0
LINE
  5
1851F
330
19716
100
AcDbEntity
  8
HATCH
100
AcDbLine
 10
7847.095756350616
 20
2711.084839419607
 30
0.0
 11
7873.762423017281
 21
2664.896816752943
 31
0.0
  0
LINE
  5
18520
330
19716
100
AcDbEntity
  8
HATCH
100
AcDbLine
 10
7808.053047017286
 20
2551.084839419607
 30
0.0
 11
7900.429089683949
 21
2711.084839419607
 31
0.0
  0
LINE
  5
18521
330
19716
100
AcDbEntity
  8
HATCH
100
AcDbLine
 10
7834.719713683951
 20
2597.272860752938
 30
0.0
 11
7861.386380350618
 21
2551.084839419607
 31
0.0
  0
LINE
  5
18526
330
19716
100
AcDbEntity
  8
SUNPOU
100
AcDbLine
 10
8580.123251791111
 20
4130.485411556196
 30
0.0
 11
10005.35375904135
 21
4130.485411556196
 31
0.0
  0
TEXT
  5
18528
330
19716
100
AcDbEntity
  8
SUNPOU
100
AcDbText
 10
9361.665236645858
 20
4175.485411556197
 30
0.0
 40
90.0
  1
1800
 41
0.6666666666666666
  7
00
 72
     4
 11
9480.236665217288
 21
4220.485411556196
 31
0.0
100
AcDbText
  0
TEXT
  5
1852C
330
19716
100
AcDbEntity
  8
SUNPOU
100
AcDbText
 10
6850.387716656114
 20
3511.684839419609
 30
0.0
 40
90.0
  1
G.L
 41
0.6700000000000001
  7
01
 72
     4
 11
6922.173430941829
 21
3556.684839419608
 31
0.0
100
AcDbText
  0
LINE
  5
1852D
330
19716
100
AcDbEntity
  8
SUNPOU
100
AcDbLine
 10
6974.134955168897
 20
3466.684839419608
 30
0.0
 11
6870.211906714764
 21
3466.684839419608
 31
0.0
  0
LINE
  5
1852E
330
19716
100
AcDbEntity
  8
SUNPOU
100
AcDbLine
 10
6870.211906714764
 20
3466.684839419608
 30
0.0
 11
6922.173430941829
 21
3376.684839419608
 31
0.0
  0
LINE
  5
1852F
330
19716
100
AcDbEntity
  8
SUNPOU
100
AcDbLine
 10
6922.173430941829
 20
3376.684839419608
 30
0.0
 11
6974.134955168897
 21
3466.684839419608
 31
0.0
  0
LINE
  5
18532
330
19716
100
AcDbEntity
  8
U3
100
AcDbLine
 10
7134.287858546611
 20
3376.684839419603
 30
0.0
 11
7302.287858546613
 21
3208.684839419607
 31
0.0
  0
LINE
  5
18533
330
19716
100
AcDbEntity
  8
U3
100
AcDbLine
 10
7083.376170301177
 20
3325.773151174173
 30
0.0
 11
7200.464482055746
 21
3208.684839419603
 31
0.0
  0
LINE
  5
18534
330
19716
100
AcDbEntity
  8
U3
100
AcDbLine
 10
7370.146296056969
 20
3376.684839419604
 30
0.0
 11
6798.287858546611
 21
3376.684839419604
 31
0.0
  0
LINE
  5
18535
330
19716
100
AcDbEntity
  8
U3
100
AcDbLine
 10
6864.464482055746
 20
3310.508215910466
 30
0.0
 11
6930.64110556488
 21
3376.684839419601
 31
0.0
  0
LINE
  5
18536
330
19716
100
AcDbEntity
  8
U3
100
AcDbLine
 10
6798.287858546611
 20
3376.684839419601
 30
0.0
 11
6966.287858546611
 21
3208.684839419606
 31
0.0
  0
LINE
  5
18537
330
19716
100
AcDbEntity
  8
U3
100
AcDbLine
 10
6915.376170301179
 20
3259.596527665037
 30
0.0
 11
7032.464482055747
 21
3376.684839419601
 31
0.0
  0
LINE
  5
18538
330
19716
100
AcDbEntity
  8
U3
100
AcDbLine
 10
6966.287858546611
 20
3208.684839419606
 30
0.0
 11
7134.287858546611
 21
3376.684839419603
 31
0.0
  0
LINE
  5
18539
330
19716
100
AcDbEntity
  8
U3
100
AcDbLine
 10
7032.464482055747
 20
3274.861462928739
 30
0.0
 11
7098.641105564884
 21
3208.684839419603
 31
0.0
  0
LINE
  5
1853A
330
19716
100
AcDbEntity
  8
U3
100
AcDbLine
 10
7302.287858546613
 20
3208.684839419607
 30
0.0
 11
7370.146296056969
 21
3276.543276929964
 31
0.0
  0
LINE
  5
1853B
330
19716
100
AcDbEntity
  8
U3
100
AcDbLine
 10
7200.464482055746
 20
3310.508215910469
 30
0.0
 11
7266.641105564882
 21
3376.684839419603
 31
0.0
  0
LINE
  5
1853C
330
19716
100
AcDbEntity
  8
U3
100
AcDbLine
 10
7251.376170301179
 20
3259.596527665038
 30
0.0
 11
7368.464482055749
 21
3376.684839419603
 31
0.0
  0
LINE
  5
1853D
330
19716
100
AcDbEntity
  8
U3
100
AcDbLine
 10
8260.12325179111
 20
3376.684839419604
 30
0.0
 11
7690.146296056967
 21
3376.684839419603
 31
0.0
  0
LINE
  5
1853E
330
19716
100
AcDbEntity
  8
U3
100
AcDbLine
 10
7879.109073933235
 20
3310.508215910469
 30
0.0
 11
7940.123251791111
 21
3371.522393768344
 31
0.0
  0
LINE
  5
1853F
330
19716
100
AcDbEntity
  8
U3
100
AcDbLine
 10
7812.932450424103
 20
3376.684839419603
 30
0.0
 11
7940.123251791111
 21
3249.494038052592
 31
0.0
  0
LINE
  5
18540
330
19716
100
AcDbEntity
  8
U3
100
AcDbLine
 10
7756.091543423494
 20
3331.702369929347
 30
0.0
 11
7879.109073933242
 21
3208.684839419603
 31
0.0
  0
LINE
  5
18541
330
19716
100
AcDbEntity
  8
U3
100
AcDbLine
 10
7705.179855178061
 20
3280.790681683919
 30
0.0
 11
7777.285697442379
 21
3208.684839419603
 31
0.0
  0
LINE
  5
18542
330
19716
100
AcDbEntity
  8
U3
100
AcDbLine
 10
7690.146296056967
 20
3265.757122562824
 30
0.0
 11
7801.074012913748
 21
3376.684839419601
 31
0.0
  0
LINE
  5
18543
330
19716
100
AcDbEntity
  8
HIKIDASHI
100
AcDbLine
 10
9726.620021984601
 20
3920.485411556196
 30
0.0
 11
9357.853645156977
 21
3920.485411556196
 31
0.0
  0
TEXT
  5
18544
330
19716
100
AcDbEntity
  8
HIKIDASHI
100
AcDbText
 10
9390.921252748887
 20
3965.485411556195
 30
0.0
 40
90.0
  1
土　間
  7
01
 72
     2
 11
9684.921252748887
 21
4010.485411556195
 31
0.0
100
AcDbText
 73
     2
  0
TEXT
  5
18546
330
19716
100
AcDbEntity
  8
SUNPOU
100
AcDbText
 10
9478.587586282396
 20
3591.684839419605
 30
0.0
 40
90.0
  1
F.L
 41
0.6666666666666666
  7
00
 72
     4
 11
9547.159014853825
 21
3636.684839419604
 31
0.0
100
AcDbText
  0
LINE
  5
18547
330
19716
100
AcDbEntity
  8
SUNPOU
100
AcDbLine
 10
9547.159014853825
 20
3456.684839419605
 30
0.0
 11
9599.120539080891
 21
3546.684839419604
 31
0.0
  0
LINE
  5
18548
330
19716
100
AcDbEntity
  8
SUNPOU
100
AcDbLine
 10
9495.197490626756
 20
3546.684839419604
 30
0.0
 11
9547.159014853825
 21
3456.684839419605
 31
0.0
  0
LINE
  5
18549
330
19716
100
AcDbEntity
  8
SUNPOU
100
AcDbLine
 10
9599.120539080891
 20
3546.684839419604
 30
0.0
 11
9495.197490626756
 21
3546.684839419604
 31
0.0
  0
TEXT
  5
1854B
330
19716
100
AcDbEntity
  8
HIKIDASHI
100
AcDbText
 10
7011.426786787379
 20
1814.878869270352
 30
0.0
 40
89.55223880597015
  1
x
 41
0.6700000000000001
  7
00
100
AcDbText
  0
TEXT
  5
1854C
330
19716
100
AcDbEntity
  8
HIKIDASHI
100
AcDbText
 10
6939.591849597005
 20
1803.088394027939
 30
0.0
 40
67.16417910447761
  1
2
 41
0.6700000000000001
  7
00
100
AcDbText
  0
TEXT
  5
1854D
330
19716
100
AcDbEntity
  8
HIKIDASHI
100
AcDbText
 10
6851.699813038081
 20
1830.1144490585
 30
0.0
 40
67.16417910447761
  1
1
 41
0.6700000000000001
  7
00
100
AcDbText
  0
TEXT
  5
1854E
330
19716
100
AcDbEntity
  8
HIKIDASHI
100
AcDbText
 10
6777.099002354859
 20
1803.684839419606
 30
0.0
 40
89.55223880597015
  1
W ／
 41
0.6700000000000001
  7
00
100
AcDbText
  0
TEXT
  5
1854F
330
19716
100
AcDbEntity
  8
HIKIDASHI
100
AcDbText
 10
7092.562165940511
 20
1803.475853219515
 30
0.0
 40
89.55223880597015
  1
300
 41
0.6700000000000001
  7
00
100
AcDbText
  0
TEXT
  5
18550
330
19716
100
AcDbEntity
  8
HIKIDASHI
100
AcDbText
 10
6777.099002354859
 20
1983.684839419605
 30
0.0
 40
90.0
  1
アンカーボルト
  7
01
100
AcDbText
  0
LINE
  5
18551
330
19716
100
AcDbEntity
  8
HIKIDASHI
100
AcDbLine
 10
6748.019393493152
 20
1938.684839419605
 30
0.0
 11
7568.025406890003
 21
1938.684839419605
 31
0.0
  0
TEXT
  5
18553
330
19716
100
AcDbEntity
  8
HIKIDASHI
100
AcDbText
 10
8262.30957517332
 20
1664.635820576939
 30
0.0
 40
90.0
  1
B  ~  B'
 41
0.6700000000000001
  7
00
100
AcDbText
  0
LINE
  5
18554
330
19716
100
AcDbEntity
  8
HIKIDASHI
100
AcDbLine
 10
8232.309575173323
 20
1589.635820576939
 30
0.0
 11
8927.93692840889
 21
1589.635820576939
 31
0.0
  0
LINE
  5
18555
330
19716
100
AcDbEntity
  8
HIKIDASHI
100
AcDbLine
 10
8232.309575173323
 20
1619.635820576939
 30
0.0
 11
8927.93692840889
 21
1619.635820576939
 31
0.0
  0
TEXT
  5
18556
330
19716
100
AcDbEntity
  8
HIKIDASHI
100
AcDbText
 10
8656.326854669883
 20
1664.635820576939
 30
0.0
 40
90.0
  1
断 面
  7
01
100
AcDbText
  0
LINE
  5
18559
330
19716
100
AcDbEntity
  8
1PL-S1
100
AcDbLine
 10
11225.33837406209
 20
2700.144344053149
 30
0.0
 11
11857.33837406209
 21
2700.144344053149
 31
0.0
  0
LINE
  5
1855A
330
19716
100
AcDbEntity
  8
U1
100
AcDbLine
 10
11391.3383740621
 20
3642.337036584561
 30
0.0
 11
11391.3383740621
 21
4026.401575763828
 31
0.0
  0
LINE
  5
1855B
330
19716
100
AcDbEntity
  8
U1
100
AcDbLine
 10
11691.33837406209
 20
3642.337036584561
 30
0.0
 11
11691.33837406209
 21
4026.401575763828
 31
0.0
  0
LINE
  5
1855C
330
19716
100
AcDbEntity
  8
1PL-S1
100
AcDbLine
 10
11541.33837406209
 20
3578.337036584561
 30
0.0
 11
11541.33837406209
 21
4066.401575763828
 31
0.0
  0
CIRCLE
  5
1855D
330
19716
100
AcDbEntity
  8
U1
100
AcDbCircle
 10
11541.33837406209
 20
3886.33703658456
 30
0.0
 40
24.0
  0
LINE
  5
1855F
330
19716
100
AcDbEntity
  8
1PL-S1
100
AcDbLine
 10
11301.33837406209
 20
2624.14434405315
 30
0.0
 11
11301.33837406209
 21
2776.144344053149
 31
0.0
  0
LINE
  5
18560
330
19716
100
AcDbEntity
  8
1PL-S1
100
AcDbLine
 10
11781.33837406209
 20
2624.14434405315
 30
0.0
 11
11781.33837406209
 21
2776.144344053149
 31
0.0
  0
LINE
  5
18561
330
19716
100
AcDbEntity
  8
1PL-S1
100
AcDbLine
 10
11541.33837406209
 20
2500.144344053149
 30
0.0
 11
11541.33837406209
 21
2900.144344053149
 31
0.0
  0
CIRCLE
  5
18562
330
19716
100
AcDbEntity
  8
U1
100
AcDbCircle
 10
11301.33837406209
 20
2700.144344053149
 30
0.0
 40
36.0
  0
LINE
  5
18563
330
19716
100
AcDbEntity
  8
U1
100
AcDbLine
 10
11691.33837406209
 20
2700.144344053149
 30
0.0
 11
11612.31129530375
 21
2700.144344053149
 31
0.0
  0
CIRCLE
  5
18564
330
19716
100
AcDbEntity
  8
U1
100
AcDbCircle
 10
11781.33837406209
 20
2700.144344053149
 30
0.0
 40
36.0
  0
LINE
  5
18565
330
19716
100
AcDbEntity
  8
1PL-S1
100
AcDbLine
 10
11477.33837406209
 20
3726.33703658456
 30
0.0
 11
11605.33837406209
 21
3726.33703658456
 31
0.0
  0
LINE
  5
18566
330
19716
100
AcDbEntity
  8
1PL-S1
100
AcDbLine
 10
11301.33837406211
 20
3578.337036584561
 30
0.0
 11
11301.33837406209
 21
3682.337036584561
 31
0.0
  0
LINE
  5
18567
330
19716
100
AcDbEntity
  8
1PL-S1
100
AcDbLine
 10
11781.33837406209
 20
3578.337036584561
 30
0.0
 11
11781.33837406209
 21
3682.337036584561
 31
0.0
  0
CIRCLE
  5
18568
330
19716
100
AcDbEntity
  8
U1
100
AcDbCircle
 10
11541.33837406209
 20
3726.33703658456
 30
0.0
 40
24.0
  0
LINE
  5
18569
330
19716
100
AcDbEntity
  8
1PL-S1
100
AcDbLine
 10
11477.33837406209
 20
3886.33703658456
 30
0.0
 11
11605.33837406209
 21
3886.33703658456
 31
0.0
  0
TEXT
  5
18575
330
19716
100
AcDbEntity
  8
SUNPOU
100
AcDbText
 10
10750.05141017947
 20
1674.586261835072
 30
0.0
 40
120.0
  1
柱脚金具詳細図
  7
01
 72
     4
 11
11234.05141017947
 21
1734.586261835072
 31
0.0
100
AcDbText
  0
TEXT
  5
18576
330
19716
100
AcDbEntity
  8
SUNPOU
100
AcDbText
 10
12146.16023934792
 20
1672.124723373534
 30
0.0
 40
73.84615384615384
  1
/
 41
0.6700000000000001
  7
00
 11
12146.16023934792
 21
1662.27856952738
 31
0.0
100
AcDbText
 73
     1
  0
TEXT
  5
18577
330
19716
100
AcDbEntity
  8
SUNPOU
100
AcDbText
 10
12210.1096823023
 20
1653.663184911994
 30
0.0
 40
73.84615384615384
  1
10
 41
0.6700000000000001
  7
00
 11
12210.1096823023
 21
1643.817031065841
 31
0.0
100
AcDbText
 73
     1
  0
TEXT
  5
18578
330
19716
100
AcDbEntity
  8
SUNPOU
100
AcDbText
 10
12097.75411203255
 20
1690.586261835072
 30
0.0
 40
73.84615384615384
  1
1
 41
0.6700000000000001
  7
00
 11
12097.75411203255
 21
1680.740107988918
 31
0.0
100
AcDbText
 73
     1
  0
TEXT
  5
18579
330
19716
100
AcDbEntity
  8
SUNPOU
100
AcDbText
 10
11778.05141017947
 20
1674.586261835072
 30
0.0
 40
92.30769230769228
  1
（ S = 　　  ）
 41
0.6700000000000001
  7
00
 11
11778.05141017947
 21
1662.27856952738
 31
0.0
100
AcDbText
 73
     1
  0
LINE
  5
18581
330
19716
100
AcDbEntity
  8
HIKIDASHI
100
AcDbLine
 10
12073.23363223807
 20
3067.661600164834
 30
0.0
 11
12657.27442780204
 21
3067.661600164834
 31
0.0
  0
TEXT
  5
18582
330
19716
100
AcDbEntity
  8
HIKIDASHI
100
AcDbText
 10
12092.52363003481
 20
3112.661600164834
 30
0.0
 40
90.0
  1
プレ－ト
  7
01
 72
     2
 11
12482.5236300348
 21
3112.661600164834
 31
0.0
100
AcDbText
  0
TEXT
  5
18583
330
19716
100
AcDbEntity
  8
HIKIDASHI
100
AcDbText
 10
12520.97881071722
 20
3112.661600164834
 30
0.0
 40
90.0
  1
6
 41
0.6666666666666666
  7
00
 72
     2
 11
12569.55023928865
 21
3112.661600164834
 31
0.0
100
AcDbText
  0
TEXT
  5
18584
330
19716
100
AcDbEntity
  8
HIKIDASHI
100
AcDbText
 10
12606.97646118922
 20
3126.647348600799
 30
0.0
 40
89.99999909999999
  1
t
 41
0.6700000000000001
  7
00
100
AcDbText
  0
TEXT
  5
18587
330
19716
100
AcDbEntity
  8
SUNPOU
100
AcDbText
 10
5757.491760556316
 20
2578.884705856378
 30
0.0
 40
90.0
  1
5-D13×5-D13
 41
0.6700000000000001
  7
01
 72
     4
 11
6100.914617699173
 21
2623.884705856378
 31
0.0
100
AcDbText
  0
TEXT
  5
18588
330
19716
100
AcDbEntity
  8
SUNPOU
100
AcDbText
 10
5892.60747484203
 20
2713.884705856378
 30
0.0
 40
90.0
  1
ベース筋
  7
01
 72
     4
 11
6096.60747484203
 21
2758.884705856378
 31
0.0
100
AcDbText
  0
TEXT
  5
18589
330
19716
100
AcDbEntity
  8
SUNPOU
100
AcDbText
 10
9537.817961079962
 20
2578.884705856383
 30
0.0
 40
90.0
  1
5-D13×5-D13
 41
0.6700000000000001
  7
01
 72
     4
 11
9881.240818222821
 21
2623.884705856383
 31
0.0
100
AcDbText
  0
TEXT
  5
1858A
330
19716
100
AcDbEntity
  8
SUNPOU
100
AcDbText
 10
9672.933675365676
 20
2713.884705856383
 30
0.0
 40
90.0
  1
ベース筋
  7
01
 72
     4
 11
9876.933675365677
 21
2758.884705856383
 31
0.0
100
AcDbText
  0
LINE
  5
1858D
330
19716
100
AcDbEntity
  8
KISO
100
AcDbLine
 10
4159.797051267463
 20
3456.684839419605
 30
0.0
 11
4159.797051267463
 21
2711.084839419601
 31
0.0
  0
LINE
  5
18918
330
19716
100
AcDbEntity
  8
HATCH
100
AcDbLine
 10
5427.726846493639
 20
2551.084839419601
 30
0.0
 11
5520.102889160304
 21
2711.084839419601
 31
0.0
  0
LINE
  5
18919
330
19716
100
AcDbEntity
  8
HATCH
100
AcDbLine
 10
5466.769555826971
 20
2711.084839419601
 30
0.0
 11
5493.436222493635
 21
2664.896816752937
 31
0.0
  0
LINE
  5
1891A
330
19716
100
AcDbEntity
  8
HATCH
100
AcDbLine
 10
5454.393513160304
 20
2597.272860752932
 30
0.0
 11
5481.060179826972
 21
2551.084839419601
 31
0.0
  0
LINE
  5
18939
330
19716
100
AcDbEntity
  8
HATCH
100
AcDbLine
 10
9208.053047017283
 20
2551.084839419611
 30
0.0
 11
9300.42908968395
 21
2711.084839419611
 31
0.0
  0
LINE
  5
1893A
330
19716
100
AcDbEntity
  8
HATCH
100
AcDbLine
 10
9247.095756350615
 20
2711.084839419611
 30
0.0
 11
9273.762423017281
 21
2664.896816752948
 31
0.0
  0
LINE
  5
1893B
330
19716
100
AcDbEntity
  8
HATCH
100
AcDbLine
 10
9234.719713683949
 20
2597.272860752942
 30
0.0
 11
9261.386380350616
 21
2551.084839419611
 31
0.0
  0
TEXT
  5
18B69
330
19716
100
AcDbEntity
  8
HIKIDASHI
100
AcDbText
 10
12286.64239875644
 20
2290.804976716086
 30
0.0
 40
90.0
  1
2
 41
0.6666666666666666
  7
00
100
AcDbText
  0
TEXT
  5
18B6A
330
19716
100
AcDbEntity
  8
HIKIDASHI
100
AcDbText
 10
12365.21382732787
 20
2305.804976716085
 30
0.0
 40
90.0
  1
ｹ
  7
01
100
AcDbText
  0
TEXT
  5
18B6B
330
19716
100
AcDbEntity
  8
HIKIDASHI
100
AcDbText
 10
12446.21382732787
 20
2290.804976716086
 30
0.0
 40
90.0
  1
-
 41
0.6666666666666666
  7
00
100
AcDbText
  0
TEXT
  5
18B6C
330
19716
100
AcDbEntity
  8
HIKIDASHI
100
AcDbText
 10
12554.07097018501
 20
2290.804976716086
 30
0.0
 40
90.0
  1
18
 41
0.6666666666666666
  7
00
100
AcDbText
  0
TEXT
  5
18B6D
330
19716
100
AcDbEntity
  8
HIKIDASHI
100
AcDbText
 10
12689.78525589929
 20
2305.804976716085
 30
0.0
 40
90.0
  1
%%c
 41
0.6666666666666666
  7
00
100
AcDbText
  0
TEXT
  5
18B6E
330
19716
100
AcDbEntity
  8
HIKIDASHI
100
AcDbText
 10
12765.49954161357
 20
2290.804976716086
 30
0.0
 40
90.0
  1
孔
  7
01
100
AcDbText
  0
LINE
  5
18B6F
330
19716
100
AcDbEntity
  8
HIKIDASHI
100
AcDbLine
 10
12256.64239875644
 20
2245.804976716085
 30
0.0
 11
12879.49954161357
 21
2245.804976716085
 31
0.0
  0
LINE
  5
18C6D
330
19716
100
AcDbEntity
  8
HIKIDASHI
100
AcDbLine
 10
5702.626424666976
 20
3920.485411556192
 30
0.0
 11
5333.860047839355
 21
3920.485411556192
 31
0.0
  0
TEXT
  5
18C6E
330
19716
100
AcDbEntity
  8
HIKIDASHI
100
AcDbText
 10
5366.927655431265
 20
3965.485411556191
 30
0.0
 40
90.0
  1
土　間
  7
01
 72
     2
 11
5660.927655431265
 21
4010.48541155619
 31
0.0
100
AcDbText
 73
     2
  0
TEXT
  5
18FC1
330
19716
100
AcDbEntity
  8
FILENAME
100
AcDbText
 10
13968.66666666666
 20
174.0
 30
0.0
 40
100.0
  1
＜YOKC-280-A_3_JIS_GL.DXF ＞
  7
FILENAME
 72
     2
 11
16382.0
 21
174.0
 31
0.0
100
AcDbText
  0
LINE
  5
18FC8
330
19716
100
AcDbEntity
  8
WAKUSEN-01
100
AcDbLine
 10
434.0000000000008
 20
413.9999999999997
 30
0.0
 11
16382.0
 21
413.9999999999997
 31
0.0
  0
LINE
  5
18FC9
330
19716
100
AcDbEntity
  8
WAKUSEN-01
100
AcDbLine
 10
434.0000000000008
 20
11242.0
 30
0.0
 11
16382.0
 21
11242.0
 31
0.0
  0
LINE
  5
18FCA
330
19716
100
AcDbEntity
  8
WAKUSEN-01
100
AcDbLine
 10
434.0000000000008
 20
413.9999999999997
 30
0.0
 11
434.0000000000008
 21
11242.0
 31
0.0
  0
LINE
  5
18FCB
330
19716
100
AcDbEntity
  8
WAKUSEN-01
100
AcDbLine
 10
16382.0
 20
413.9999999999997
 30
0.0
 11
16382.0
 21
11242.0
 31
0.0
  0
LINE
  5
18FCC
330
19716
100
AcDbEntity
  8
WAKUSEN-01
100
AcDbLine
 10
10280.0
 20
1242.0
 30
0.0
 11
16382.0
 21
1242.0
 31
0.0
  0
LINE
  5
18FCD
330
19716
100
AcDbEntity
  8
WAKUSEN-02
100
AcDbLine
 10
10280.0
 20
827.9999999999997
 30
0.0
 11
13434.0
 21
827.9999999999997
 31
0.0
  0
TEXT
  5
18FCE
330
19716
100
AcDbEntity
  8
WAKUMOJI-01
100
AcDbText
 10
10335.13012998137
 20
1062.951504669661
 30
0.0
 40
120.0
  1
名　称
  7
WAKUMOJI
100
AcDbText
  0
TEXT
  5
18FCF
330
19716
100
AcDbEntity
  8
WAKUMOJI-01
100
AcDbText
 10
10328.25274254596
 20
659.5644874899107
 30
0.0
 40
120.0
  1
機種名
  7
WAKUMOJI
100
AcDbText
  0
LINE
  5
18FD0
330
19716
100
AcDbEntity
  8
WAKUSEN-01
100
AcDbLine
 10
10280.0
 20
413.9999999999986
 30
0.0
 11
10280.0
 21
1242.0
 31
0.0
  0
LINE
  5
18FD1
330
19716
100
AcDbEntity
  8
WAKUSEN-02
100
AcDbLine
 10
13434.0
 20
413.9999999999963
 30
0.0
 11
13434.0
 21
1242.0
 31
0.0
  0
LINE
  5
18FD2
330
19716
100
AcDbEntity
  8
YODOROGO
100
AcDbLine
 10
14988.80217064596
 20
997.8747482146435
 30
0.0
 11
14914.80217064596
 21
997.8747482146435
 31
0.0
1001
AUTOCAD_POSTSCRIPT_FIGURE
1002
{
1000
PSFILL
1000
Grayscale
1000
Grayscale
1070
    25
1002
}
  0
LINE
  5
18FD3
330
19716
100
AcDbEntity
  8
YODOROGO
100
AcDbLine
 10
14914.80217064596
 20
973.8747482146436
 30
0.0
 11
14988.80217064596
 21
973.8747482146436
 31
0.0
1001
AUTOCAD_POSTSCRIPT_FIGURE
1002
{
1000
PSFILL
1000
Grayscale
1000
Grayscale
1070
    25
1002
}
  0
LINE
  5
18FD4
330
19716
100
AcDbEntity
  8
YODOROGO
100
AcDbLine
 10
14988.80217064596
 20
953.874748214644
 30
0.0
 11
14914.80217064596
 21
953.874748214644
 31
0.0
1001
AUTOCAD_POSTSCRIPT_FIGURE
1002
{
1000
PSFILL
1000
Grayscale
1000
Grayscale
1070
    25
1002
}
  0
LINE
  5
18FD5
330
19716
100
AcDbEntity
  8
YODOROGO
100
AcDbLine
 10
14914.80217064596
 20
929.874748214644
 30
0.0
 11
14988.80217064596
 21
929.874748214644
 31
0.0
1001
AUTOCAD_POSTSCRIPT_FIGURE
1002
{
1000
PSFILL
1000
Grayscale
1000
Grayscale
1070
    25
1002
}
  0
LINE
  5
18FD6
330
19716
100
AcDbEntity
  8
YODOROGO
100
AcDbLine
 10
14988.80217064596
 20
909.8747482146439
 30
0.0
 11
14914.80217064596
 21
909.8747482146439
 31
0.0
1001
AUTOCAD_POSTSCRIPT_FIGURE
1002
{
1000
PSFILL
1000
Grayscale
1000
Grayscale
1070
    25
1002
}
  0
LINE
  5
18FD7
330
19716
100
AcDbEntity
  8
YODOROGO
100
AcDbLine
 10
14960.80217064594
 20
853.8747482146439
 30
0.0
 11
14988.80217064596
 21
853.8747482146439
 31
0.0
1001
AUTOCAD_POSTSCRIPT_FIGURE
1002
{
1000
PSFILL
1000
Grayscale
1000
Grayscale
1070
    25
1002
}
  0
LINE
  5
18FD8
330
19716
100
AcDbEntity
  8
YODOROGO
100
AcDbLine
 10
14868.80217064596
 20
713.8747482146436
 30
0.0
 11
14968.80217064596
 21
740.6696674577553
 31
0.0
  0
LINE
  5
18FD9
330
19716
100
AcDbEntity
  8
YODOROGO
100
AcDbLine
 10
14974.80217064595
 20
853.8747482146439
 30
0.0
 11
14942.80217064596
 21
853.8747482146439
 31
0.0
  0
ARC
  5
18FDA
330
19716
100
AcDbEntity
  8
YODOROGO
100
AcDbCircle
 10
15127.17387491395
 20
903.9323046166312
 30
0.0
 40
190.9434321028236
100
AcDbArc
 50
213.9611167766784
 51
264.4787207431779
  0
ARC
  5
18FDB
330
19716
100
AcDbEntity
  8
YODOROGO
100
AcDbCircle
 10
15127.17387491396
 20
903.9323046166513
 30
0.0
 40
190.9434321028408
100
AcDbArc
 50
208.141144204866
 51
212.9210361185995
  0
LINE
  5
18FDC
330
19716
100
AcDbEntity
  8
YODOROGO
100
AcDbLine
 10
14885.70493649264
 20
778.403830673117
 30
0.0
 11
14966.89206625426
 21
800.1578565285436
 31
0.0
  0
LINE
  5
18FDD
330
19716
100
AcDbEntity
  8
YODOROGO
100
AcDbLine
 10
14868.80217064596
 20
713.8747482146436
 30
0.0
 11
14968.80217064596
 21
740.6696674577553
 31
0.0
  0
LINE
  5
18FDE
330
19716
100
AcDbEntity
  8
YODOROGO
100
AcDbLine
 10
14974.80217064595
 20
853.8747482146439
 30
0.0
 11
14942.80217064596
 21
853.8747482146439
 31
0.0
  0
ARC
  5
18FDF
330
19716
100
AcDbEntity
  8
YODOROGO
100
AcDbCircle
 10
15127.17387491395
 20
903.9323046166312
 30
0.0
 40
190.9434321028236
100
AcDbArc
 50
213.9611167766784
 51
264.4787207431779
  0
LINE
  5
18FE0
330
19716
100
AcDbEntity
  8
YODOROGO
100
AcDbLine
 10
14396.80217064594
 20
909.8747482146439
 30
0.0
 11
14216.80217064595
 21
909.8747482146439
 31
0.0
  0
LINE
  5
18FE1
330
19716
100
AcDbEntity
  8
YODOROGO
100
AcDbLine
 10
14256.80217064595
 20
713.8747482146436
 30
0.0
 11
14396.80217064594
 21
713.8747482146436
 31
0.0
  0
LINE
  5
18FE2
330
19716
100
AcDbEntity
  8
YODOROGO
100
AcDbLine
 10
14364.80217064596
 20
961.8747482146432
 30
0.0
 11
14248.80217064595
 21
961.8747482146432
 31
0.0
  0
LINE
  5
18FE3
330
19716
100
AcDbEntity
  8
YODOROGO
100
AcDbLine
 10
14292.80217064596
 20
1013.874748214644
 30
0.0
 11
14328.80217064596
 21
1013.874748214644
 31
0.0
  0
LINE
  5
18FE4
330
19716
100
AcDbEntity
  8
YODOROGO
100
AcDbLine
 10
14216.80217064595
 20
853.8747482146439
 30
0.0
 11
14216.80217064595
 21
753.8747482146439
 31
0.0
  0
LINE
  5
18FE5
330
19716
100
AcDbEntity
  8
YODOROGO
100
AcDbLine
 10
14248.80217064595
 20
781.8747482146434
 30
0.0
 11
14248.80217064595
 21
853.8747482146439
 31
0.0
  0
LINE
  5
18FE6
330
19716
100
AcDbEntity
  8
YODOROGO
100
AcDbLine
 10
14292.80217064596
 20
873.8747482146449
 30
0.0
 11
14292.80217064596
 21
773.8747482146439
 31
0.0
  0
LINE
  5
18FE7
330
19716
100
AcDbEntity
  8
YODOROGO
100
AcDbLine
 10
13928.80217064596
 20
841.8747482146445
 30
0.0
 11
13888.80217064596
 21
809.9862070222856
 31
0.0
  0
LINE
  5
18FE8
330
19716
100
AcDbEntity
  8
YODOROGO
100
AcDbLine
 10
13968.80217064596
 20
809.9862070222856
 30
0.0
 11
13928.80217064596
 21
841.8747482146445
 31
0.0
  0
LINE
  5
18FE9
330
19716
100
AcDbEntity
  8
YODOROGO
100
AcDbLine
 10
13928.80217064596
 20
853.8747482146439
 30
0.0
 11
13968.80217064596
 21
821.986207022285
 31
0.0
  0
LINE
  5
18FEA
330
19716
100
AcDbEntity
  8
YODOROGO
100
AcDbLine
 10
13888.80217064596
 20
821.986207022285
 30
0.0
 11
13928.80217064596
 21
853.8747482146439
 31
0.0
  0
LINE
  5
18FEB
330
19716
100
AcDbEntity
  8
YODOROGO
100
AcDbLine
 10
14020.45660200845
 20
829.874748214644
 30
0.0
 11
14020.45660200845
 21
841.8747482146434
 31
0.0
  0
LINE
  5
18FEC
330
19716
100
AcDbEntity
  8
YODOROGO
100
AcDbLine
 10
13988.80217064596
 20
841.8747482146434
 30
0.0
 11
13988.80217064596
 21
833.8747482146427
 31
0.0
  0
LINE
  5
18FED
330
19716
100
AcDbEntity
  8
YODOROGO
100
AcDbLine
 10
14049.06776011545
 20
853.8747482146439
 30
0.0
 11
14049.06776011545
 21
827.751818637328
 31
0.0
1001
AUTOCAD_POSTSCRIPT_FIGURE
1002
{
1000
PSFILL
1000
Grayscale
1000
Grayscale
1070
   100
1002
}
  0
LINE
  5
18FEE
330
19716
100
AcDbEntity
  8
YODOROGO
100
AcDbLine
 10
14041.06776011546
 20
827.751818637328
 30
0.0
 11
14041.06776011546
 21
853.8747482146439
 31
0.0
1001
AUTOCAD_POSTSCRIPT_FIGURE
1002
{
1000
PSFILL
1000
Grayscale
1000
Grayscale
1070
   100
1002
}
  0
LINE
  5
18FEF
330
19716
100
AcDbEntity
  8
YODOROGO
100
AcDbLine
 10
13904.80217064596
 20
804.3859520216292
 30
0.0
 11
13904.80217064596
 21
816.3859520216298
 31
0.0
  0
LINE
  5
18FF0
330
19716
100
AcDbEntity
  8
YODOROGO
100
AcDbLine
 10
13952.80217064596
 20
804.3859520216292
 30
0.0
 11
13904.80217064596
 21
804.3859520216292
 31
0.0
  0
LINE
  5
18FF1
330
19716
100
AcDbEntity
  8
YODOROGO
100
AcDbLine
 10
13952.80217064596
 20
816.3859520216298
 30
0.0
 11
13952.80217064596
 21
804.3859520216292
 31
0.0
  0
LINE
  5
18FF2
330
19716
100
AcDbEntity
  8
YODOROGO
100
AcDbLine
 10
13904.80217064596
 20
816.3859520216298
 30
0.0
 11
13952.80217064596
 21
816.3859520216298
 31
0.0
  0
LINE
  5
18FF3
330
19716
100
AcDbEntity
  8
YODOROGO
100
AcDbLine
 10
13912.25479445787
 20
784.2514286852374
 30
0.0
 11
13892.80217064596
 21
737.8747482146437
 31
0.0
1001
AUTOCAD_POSTSCRIPT_FIGURE
1002
{
1000
PSFILL
1000
Grayscale
1000
Grayscale
1070
   100
1002
}
  0
LINE
  5
18FF4
330
19716
100
AcDbEntity
  8
YODOROGO
100
AcDbLine
 10
13888.80217064596
 20
784.2514286852374
 30
0.0
 11
13912.25479445787
 21
784.2514286852374
 31
0.0
1001
AUTOCAD_POSTSCRIPT_FIGURE
1002
{
1000
PSFILL
1000
Grayscale
1000
Grayscale
1070
   100
1002
}
  0
LINE
  5
18FF5
330
19716
100
AcDbEntity
  8
YODOROGO
100
AcDbLine
 10
13888.80217064596
 20
794.2514286852374
 30
0.0
 11
13888.80217064596
 21
784.2514286852374
 31
0.0
1001
AUTOCAD_POSTSCRIPT_FIGURE
1002
{
1000
PSFILL
1000
Grayscale
1000
Grayscale
1070
   100
1002
}
  0
LINE
  5
18FF6
330
19716
100
AcDbEntity
  8
YODOROGO
100
AcDbLine
 10
13968.80217064596
 20
794.2514286852374
 30
0.0
 11
13888.80217064596
 21
794.2514286852374
 31
0.0
1001
AUTOCAD_POSTSCRIPT_FIGURE
1002
{
1000
PSFILL
1000
Grayscale
1000
Grayscale
1070
   100
1002
}
  0
LINE
  5
18FF7
330
19716
100
AcDbEntity
  8
YODOROGO
100
AcDbLine
 10
13968.80217064596
 20
784.2514286852374
 30
0.0
 11
13968.80217064596
 21
794.2514286852374
 31
0.0
1001
AUTOCAD_POSTSCRIPT_FIGURE
1002
{
1000
PSFILL
1000
Grayscale
1000
Grayscale
1070
   100
1002
}
  0
LINE
  5
18FF8
330
19716
100
AcDbEntity
  8
YODOROGO
100
AcDbLine
 10
13922.25479445787
 20
784.2514286852374
 30
0.0
 11
13968.80217064596
 21
784.2514286852374
 31
0.0
1001
AUTOCAD_POSTSCRIPT_FIGURE
1002
{
1000
PSFILL
1000
Grayscale
1000
Grayscale
1070
   100
1002
}
  0
LINE
  5
18FF9
330
19716
100
AcDbEntity
  8
YODOROGO
100
AcDbLine
 10
13907.77335914239
 20
747.8747482146435
 30
0.0
 11
13922.25479445787
 21
784.2514286852374
 31
0.0
1001
AUTOCAD_POSTSCRIPT_FIGURE
1002
{
1000
PSFILL
1000
Grayscale
1000
Grayscale
1070
   100
1002
}
  0
LINE
  5
18FFA
330
19716
100
AcDbEntity
  8
YODOROGO
100
AcDbLine
 10
13951.02739540432
 20
747.8747482146435
 30
0.0
 11
13907.77335914239
 21
747.8747482146435
 31
0.0
1001
AUTOCAD_POSTSCRIPT_FIGURE
1002
{
1000
PSFILL
1000
Grayscale
1000
Grayscale
1070
   100
1002
}
  0
LINE
  5
18FFB
330
19716
100
AcDbEntity
  8
YODOROGO
100
AcDbLine
 10
13942.53250239547
 20
768.1169053488464
 30
0.0
 11
13951.02739540432
 21
747.8747482146435
 31
0.0
1001
AUTOCAD_POSTSCRIPT_FIGURE
1002
{
1000
PSFILL
1000
Grayscale
1000
Grayscale
1070
   100
1002
}
  0
LINE
  5
18FFC
330
19716
100
AcDbEntity
  8
YODOROGO
100
AcDbLine
 10
13950.53250239547
 20
768.1169053488464
 30
0.0
 11
13942.53250239547
 21
768.1169053488464
 31
0.0
1001
AUTOCAD_POSTSCRIPT_FIGURE
1002
{
1000
PSFILL
1000
Grayscale
1000
Grayscale
1070
   100
1002
}
  0
LINE
  5
18FFD
330
19716
100
AcDbEntity
  8
YODOROGO
100
AcDbLine
 10
13964.80217064596
 20
737.8747482146437
 30
0.0
 11
13950.53250239547
 21
768.1169053488464
 31
0.0
1001
AUTOCAD_POSTSCRIPT_FIGURE
1002
{
1000
PSFILL
1000
Grayscale
1000
Grayscale
1070
   100
1002
}
  0
LINE
  5
18FFE
330
19716
100
AcDbEntity
  8
YODOROGO
100
AcDbLine
 10
13892.80217064596
 20
737.8747482146437
 30
0.0
 11
13964.80217064596
 21
737.8747482146437
 31
0.0
1001
AUTOCAD_POSTSCRIPT_FIGURE
1002
{
1000
PSFILL
1000
Grayscale
1000
Grayscale
1070
   100
1002
}
  0
LINE
  5
18FFF
330
19716
100
AcDbEntity
  8
YODOROGO
100
AcDbLine
 10
13888.80217064596
 20
809.9862070222856
 30
0.0
 11
13888.80217064596
 21
821.986207022285
 31
0.0
  0
LINE
  5
19000
330
19716
100
AcDbEntity
  8
YODOROGO
100
AcDbLine
 10
13968.80217064596
 20
821.986207022285
 30
0.0
 11
13968.80217064596
 21
809.9862070222856
 31
0.0
  0
ARC
  5
19001
330
19716
100
AcDbEntity
  8
YODOROGO
100
AcDbCircle
 10
14112.97022107348
 20
800.438882662663
 30
0.0
 40
87.99999999999995
100
AcDbArc
 50
280.3644312771313
 51
3.541483659218056
  0
ARC
  5
19002
330
19716
100
AcDbEntity
  8
YODOROGO
100
AcDbCircle
 10
14117.87801537965
 20
816.7989034809522
 30
0.0
 40
55.99999999999916
100
AcDbArc
 50
281.2490582504155
 51
348.7509417495832
  0
LINE
  5
19003
330
19716
100
AcDbEntity
  8
YODOROGO
100
AcDbLine
 10
14128.80217064596
 20
761.8747482146434
 30
0.0
 11
14128.80217064596
 21
713.8747482146436
 31
0.0
  0
LINE
  5
19004
330
19716
100
AcDbEntity
  8
YODOROGO
100
AcDbLine
 10
14010.04445186844
 20
805.3252825309574
 30
0.0
 11
14020.45660200845
 21
829.874748214644
 31
0.0
  0
LINE
  5
19005
330
19716
100
AcDbEntity
  8
YODOROGO
100
AcDbLine
 10
14020.80217064596
 20
791.5602449742006
 30
0.0
 11
14010.04445186844
 21
805.3252825309574
 31
0.0
  0
LINE
  5
19006
330
19716
100
AcDbEntity
  8
YODOROGO
100
AcDbLine
 10
14020.80217064596
 20
781.5602449741995
 30
0.0
 11
14020.80217064596
 21
791.5602449742006
 31
0.0
  0
LINE
  5
19007
330
19716
100
AcDbEntity
  8
YODOROGO
100
AcDbLine
 10
14008.80217064596
 20
792.6185318747652
 30
0.0
 11
14020.80217064596
 21
781.5602449741995
 31
0.0
  0
LINE
  5
19008
330
19716
100
AcDbEntity
  8
YODOROGO
100
AcDbLine
 10
14008.80217064596
 20
737.8747482146437
 30
0.0
 11
14008.80217064596
 21
792.6185318747652
 31
0.0
  0
LINE
  5
19009
330
19716
100
AcDbEntity
  8
YODOROGO
100
AcDbLine
 10
14000.80217064596
 20
737.8747482146437
 30
0.0
 11
14008.80217064596
 21
737.8747482146437
 31
0.0
  0
LINE
  5
1900A
330
19716
100
AcDbEntity
  8
YODOROGO
100
AcDbLine
 10
14000.80217064596
 20
790.0026748448738
 30
0.0
 11
14000.80217064596
 21
737.8747482146437
 31
0.0
  0
LINE
  5
1900B
330
19716
100
AcDbEntity
  8
YODOROGO
100
AcDbLine
 10
13988.80217064596
 20
766.3840395167142
 30
0.0
 11
14000.80217064596
 21
790.0026748448738
 31
0.0
  0
LINE
  5
1900C
330
19716
100
AcDbEntity
  8
YODOROGO
100
AcDbLine
 10
13988.80217064596
 20
778.3840395167149
 30
0.0
 11
13988.80217064596
 21
766.3840395167142
 31
0.0
  0
LINE
  5
1900D
330
19716
100
AcDbEntity
  8
YODOROGO
100
AcDbLine
 10
14012.91438714567
 20
833.8747482146427
 30
0.0
 11
13988.80217064596
 21
778.3840395167149
 31
0.0
  0
LINE
  5
1900E
330
19716
100
AcDbEntity
  8
YODOROGO
100
AcDbLine
 10
13988.80217064596
 20
833.8747482146427
 30
0.0
 11
14012.91438714567
 21
833.8747482146427
 31
0.0
  0
LINE
  5
1900F
330
19716
100
AcDbEntity
  8
YODOROGO
100
AcDbLine
 10
14025.06776011545
 20
827.751818637328
 30
0.0
 11
14041.06776011546
 21
827.751818637328
 31
0.0
1001
AUTOCAD_POSTSCRIPT_FIGURE
1002
{
1000
PSFILL
1000
Grayscale
1000
Grayscale
1070
   100
1002
}
  0
LINE
  5
19010
330
19716
100
AcDbEntity
  8
YODOROGO
100
AcDbLine
 10
14025.06776011545
 20
815.7518186373286
 30
0.0
 11
14025.06776011545
 21
827.751818637328
 31
0.0
1001
AUTOCAD_POSTSCRIPT_FIGURE
1002
{
1000
PSFILL
1000
Grayscale
1000
Grayscale
1070
   100
1002
}
  0
LINE
  5
19011
330
19716
100
AcDbEntity
  8
YODOROGO
100
AcDbLine
 10
14041.06776011546
 20
815.7518186373286
 30
0.0
 11
14025.06776011545
 21
815.7518186373286
 31
0.0
1001
AUTOCAD_POSTSCRIPT_FIGURE
1002
{
1000
PSFILL
1000
Grayscale
1000
Grayscale
1070
   100
1002
}
  0
LINE
  5
19012
330
19716
100
AcDbEntity
  8
YODOROGO
100
AcDbLine
 10
14041.06776011546
 20
749.8747482146441
 30
0.0
 11
14041.06776011546
 21
815.7518186373286
 31
0.0
1001
AUTOCAD_POSTSCRIPT_FIGURE
1002
{
1000
PSFILL
1000
Grayscale
1000
Grayscale
1070
   100
1002
}
  0
LINE
  5
19013
330
19716
100
AcDbEntity
  8
YODOROGO
100
AcDbLine
 10
14025.06776011545
 20
749.8747482146441
 30
0.0
 11
14041.06776011546
 21
749.8747482146441
 31
0.0
1001
AUTOCAD_POSTSCRIPT_FIGURE
1002
{
1000
PSFILL
1000
Grayscale
1000
Grayscale
1070
   100
1002
}
  0
LINE
  5
19014
330
19716
100
AcDbEntity
  8
YODOROGO
100
AcDbLine
 10
14025.06776011545
 20
737.8747482146437
 30
0.0
 11
14025.06776011545
 21
749.8747482146441
 31
0.0
1001
AUTOCAD_POSTSCRIPT_FIGURE
1002
{
1000
PSFILL
1000
Grayscale
1000
Grayscale
1070
   100
1002
}
  0
LINE
  5
19015
330
19716
100
AcDbEntity
  8
YODOROGO
100
AcDbLine
 10
14068.80217064596
 20
737.8747482146437
 30
0.0
 11
14025.06776011545
 21
737.8747482146437
 31
0.0
1001
AUTOCAD_POSTSCRIPT_FIGURE
1002
{
1000
PSFILL
1000
Grayscale
1000
Grayscale
1070
   100
1002
}
  0
LINE
  5
19016
330
19716
100
AcDbEntity
  8
YODOROGO
100
AcDbLine
 10
14068.80217064596
 20
749.8747482146441
 30
0.0
 11
14068.80217064596
 21
737.8747482146437
 31
0.0
1001
AUTOCAD_POSTSCRIPT_FIGURE
1002
{
1000
PSFILL
1000
Grayscale
1000
Grayscale
1070
   100
1002
}
  0
LINE
  5
19017
330
19716
100
AcDbEntity
  8
YODOROGO
100
AcDbLine
 10
14049.06776011545
 20
749.8747482146441
 30
0.0
 11
14068.80217064596
 21
749.8747482146441
 31
0.0
1001
AUTOCAD_POSTSCRIPT_FIGURE
1002
{
1000
PSFILL
1000
Grayscale
1000
Grayscale
1070
   100
1002
}
  0
LINE
  5
19018
330
19716
100
AcDbEntity
  8
YODOROGO
100
AcDbLine
 10
14049.06776011545
 20
815.7518186373286
 30
0.0
 11
14049.06776011545
 21
749.8747482146441
 31
0.0
1001
AUTOCAD_POSTSCRIPT_FIGURE
1002
{
1000
PSFILL
1000
Grayscale
1000
Grayscale
1070
   100
1002
}
  0
LINE
  5
19019
330
19716
100
AcDbEntity
  8
YODOROGO
100
AcDbLine
 10
14068.80217064596
 20
815.7518186373286
 30
0.0
 11
14049.06776011545
 21
815.7518186373286
 31
0.0
1001
AUTOCAD_POSTSCRIPT_FIGURE
1002
{
1000
PSFILL
1000
Grayscale
1000
Grayscale
1070
   100
1002
}
  0
LINE
  5
1901A
330
19716
100
AcDbEntity
  8
YODOROGO
100
AcDbLine
 10
14068.80217064596
 20
827.751818637328
 30
0.0
 11
14068.80217064596
 21
815.7518186373286
 31
0.0
1001
AUTOCAD_POSTSCRIPT_FIGURE
1002
{
1000
PSFILL
1000
Grayscale
1000
Grayscale
1070
   100
1002
}
  0
LINE
  5
1901B
330
19716
100
AcDbEntity
  8
YODOROGO
100
AcDbLine
 10
14049.06776011545
 20
827.751818637328
 30
0.0
 11
14068.80217064596
 21
827.751818637328
 31
0.0
1001
AUTOCAD_POSTSCRIPT_FIGURE
1002
{
1000
PSFILL
1000
Grayscale
1000
Grayscale
1070
   100
1002
}
  0
LINE
  5
1901C
330
19716
100
AcDbEntity
  8
YODOROGO
100
AcDbLine
 10
14200.80217064595
 20
833.8747482146439
 30
0.0
 11
14172.80217064596
 21
833.8747482146439
 31
0.0
  0
LINE
  5
1901D
330
19716
100
AcDbEntity
  8
YODOROGO
100
AcDbLine
 10
14200.80217064595
 20
805.8747482146443
 30
0.0
 11
14200.80217064595
 21
833.8747482146439
 31
0.0
  0
LINE
  5
1901E
330
19716
100
AcDbEntity
  8
YODOROGO
100
AcDbLine
 10
14172.80217064596
 20
833.8747482146439
 30
0.0
 11
14172.80217064596
 21
805.8747482146443
 31
0.0
  0
ARC
  5
1901F
330
19716
100
AcDbEntity
  8
YODOROGO
100
AcDbCircle
 10
14256.80217064595
 20
753.8747482146439
 30
0.0
 40
40.0
100
AcDbArc
 50
180.0
 51
270.0
  0
ARC
  5
19020
330
19716
100
AcDbEntity
  8
YODOROGO
100
AcDbCircle
 10
14268.80217064595
 20
781.8747482146434
 30
0.0
 40
20.0
100
AcDbArc
 50
180.0
 51
270.0
  0
LINE
  5
19021
330
19716
100
AcDbEntity
  8
YODOROGO
100
AcDbLine
 10
14280.80217064596
 20
761.8747482146434
 30
0.0
 11
14268.80217064595
 21
761.8747482146434
 31
0.0
  0
ARC
  5
19022
330
19716
100
AcDbEntity
  8
YODOROGO
100
AcDbCircle
 10
14280.80217064596
 20
773.8747482146427
 30
0.0
 40
11.99999999999818
100
AcDbArc
 50
270.0
 51
0.0000000000054281
  0
LINE
  5
19023
330
19716
100
AcDbEntity
  8
YODOROGO
100
AcDbLine
 10
13900.80217064596
 20
945.3932903968532
 30
0.0
 11
13888.80217064596
 21
921.8883739758362
 31
0.0
1001
AUTOCAD_POSTSCRIPT_FIGURE
1002
{
1000
PSFILL
1000
Grayscale
1000
Grayscale
1070
   100
1002
}
  0
LINE
  5
19024
330
19716
100
AcDbEntity
  8
YODOROGO
100
AcDbLine
 10
13900.80217064596
 20
873.8747482146436
 30
0.0
 11
13900.80217064596
 21
945.3932903968532
 31
0.0
1001
AUTOCAD_POSTSCRIPT_FIGURE
1002
{
1000
PSFILL
1000
Grayscale
1000
Grayscale
1070
   100
1002
}
  0
LINE
  5
19025
330
19716
100
AcDbEntity
  8
YODOROGO
100
AcDbLine
 10
13908.80217064596
 20
873.8747482146436
 30
0.0
 11
13900.80217064596
 21
873.8747482146436
 31
0.0
1001
AUTOCAD_POSTSCRIPT_FIGURE
1002
{
1000
PSFILL
1000
Grayscale
1000
Grayscale
1070
   100
1002
}
  0
LINE
  5
19026
330
19716
100
AcDbEntity
  8
YODOROGO
100
AcDbLine
 10
13908.80217064596
 20
946.8856660426334
 30
0.0
 11
13908.80217064596
 21
873.8747482146436
 31
0.0
1001
AUTOCAD_POSTSCRIPT_FIGURE
1002
{
1000
PSFILL
1000
Grayscale
1000
Grayscale
1070
   100
1002
}
  0
LINE
  5
19027
330
19716
100
AcDbEntity
  8
YODOROGO
100
AcDbLine
 10
13920.80217064596
 20
933.8273791420684
 30
0.0
 11
13908.80217064596
 21
946.8856660426334
 31
0.0
1001
AUTOCAD_POSTSCRIPT_FIGURE
1002
{
1000
PSFILL
1000
Grayscale
1000
Grayscale
1070
   100
1002
}
  0
LINE
  5
19028
330
19716
100
AcDbEntity
  8
YODOROGO
100
AcDbLine
 10
13920.80217064596
 20
941.8273791420681
 30
0.0
 11
13920.80217064596
 21
933.8273791420684
 31
0.0
1001
AUTOCAD_POSTSCRIPT_FIGURE
1002
{
1000
PSFILL
1000
Grayscale
1000
Grayscale
1070
   100
1002
}
  0
LINE
  5
19029
330
19716
100
AcDbEntity
  8
YODOROGO
100
AcDbLine
 10
13908.80217064596
 20
958.8856660426326
 30
0.0
 11
13920.80217064596
 21
941.8273791420681
 31
0.0
1001
AUTOCAD_POSTSCRIPT_FIGURE
1002
{
1000
PSFILL
1000
Grayscale
1000
Grayscale
1070
   100
1002
}
  0
LINE
  5
1902A
330
19716
100
AcDbEntity
  8
YODOROGO
100
AcDbLine
 10
13908.80217064596
 20
969.8747482146441
 30
0.0
 11
13908.80217064596
 21
958.8856660426326
 31
0.0
1001
AUTOCAD_POSTSCRIPT_FIGURE
1002
{
1000
PSFILL
1000
Grayscale
1000
Grayscale
1070
   100
1002
}
  0
LINE
  5
1902B
330
19716
100
AcDbEntity
  8
YODOROGO
100
AcDbLine
 10
13944.80217064596
 20
969.8747482146441
 30
0.0
 11
13908.80217064596
 21
969.8747482146441
 31
0.0
1001
AUTOCAD_POSTSCRIPT_FIGURE
1002
{
1000
PSFILL
1000
Grayscale
1000
Grayscale
1070
   100
1002
}
  0
LINE
  5
1902C
330
19716
100
AcDbEntity
  8
YODOROGO
100
AcDbLine
 10
13944.80217064596
 20
950.2841744681497
 30
0.0
 11
13944.80217064596
 21
969.8747482146441
 31
0.0
1001
AUTOCAD_POSTSCRIPT_FIGURE
1002
{
1000
PSFILL
1000
Grayscale
1000
Grayscale
1070
   100
1002
}
  0
LINE
  5
1902D
330
19716
100
AcDbEntity
  8
YODOROGO
100
AcDbLine
 10
13928.80217064596
 20
950.2841744681497
 30
0.0
 11
13944.80217064596
 21
950.2841744681497
 31
0.0
1001
AUTOCAD_POSTSCRIPT_FIGURE
1002
{
1000
PSFILL
1000
Grayscale
1000
Grayscale
1070
   100
1002
}
  0
LINE
  5
1902E
330
19716
100
AcDbEntity
  8
YODOROGO
100
AcDbLine
 10
13928.80217064596
 20
942.2841744681491
 30
0.0
 11
13928.80217064596
 21
950.2841744681497
 31
0.0
1001
AUTOCAD_POSTSCRIPT_FIGURE
1002
{
1000
PSFILL
1000
Grayscale
1000
Grayscale
1070
   100
1002
}
  0
LINE
  5
1902F
330
19716
100
AcDbEntity
  8
YODOROGO
100
AcDbLine
 10
13944.80217064596
 20
942.2841744681491
 30
0.0
 11
13928.80217064596
 21
942.2841744681491
 31
0.0
1001
AUTOCAD_POSTSCRIPT_FIGURE
1002
{
1000
PSFILL
1000
Grayscale
1000
Grayscale
1070
   100
1002
}
  0
LINE
  5
19030
330
19716
100
AcDbEntity
  8
YODOROGO
100
AcDbLine
 10
13944.80217064596
 20
939.8095889822197
 30
0.0
 11
13944.80217064596
 21
942.2841744681491
 31
0.0
1001
AUTOCAD_POSTSCRIPT_FIGURE
1002
{
1000
PSFILL
1000
Grayscale
1000
Grayscale
1070
   100
1002
}
  0
LINE
  5
19031
330
19716
100
AcDbEntity
  8
YODOROGO
100
AcDbLine
 10
13924.80217064596
 20
906.4874905807087
 30
0.0
 11
13944.80217064596
 21
939.8095889822197
 31
0.0
1001
AUTOCAD_POSTSCRIPT_FIGURE
1002
{
1000
PSFILL
1000
Grayscale
1000
Grayscale
1070
   100
1002
}
  0
LINE
  5
19032
330
19716
100
AcDbEntity
  8
YODOROGO
100
AcDbLine
 10
13924.80217064596
 20
898.487490580708
 30
0.0
 11
13924.80217064596
 21
906.4874905807087
 31
0.0
1001
AUTOCAD_POSTSCRIPT_FIGURE
1002
{
1000
PSFILL
1000
Grayscale
1000
Grayscale
1070
   100
1002
}
  0
LINE
  5
19033
330
19716
100
AcDbEntity
  8
YODOROGO
100
AcDbLine
 10
13944.80217064596
 20
923.8095889822183
 30
0.0
 11
13924.80217064596
 21
898.487490580708
 31
0.0
1001
AUTOCAD_POSTSCRIPT_FIGURE
1002
{
1000
PSFILL
1000
Grayscale
1000
Grayscale
1070
   100
1002
}
  0
LINE
  5
19034
330
19716
100
AcDbEntity
  8
YODOROGO
100
AcDbLine
 10
13944.80217064596
 20
873.8747482146436
 30
0.0
 11
13944.80217064596
 21
923.8095889822183
 31
0.0
1001
AUTOCAD_POSTSCRIPT_FIGURE
1002
{
1000
PSFILL
1000
Grayscale
1000
Grayscale
1070
   100
1002
}
  0
LINE
  5
19035
330
19716
100
AcDbEntity
  8
YODOROGO
100
AcDbLine
 10
13952.80217064596
 20
873.8747482146436
 30
0.0
 11
13944.80217064596
 21
873.8747482146436
 31
0.0
1001
AUTOCAD_POSTSCRIPT_FIGURE
1002
{
1000
PSFILL
1000
Grayscale
1000
Grayscale
1070
   100
1002
}
  0
LINE
  5
19036
330
19716
100
AcDbEntity
  8
YODOROGO
100
AcDbLine
 10
13952.80217064596
 20
924.7045060794032
 30
0.0
 11
13952.80217064596
 21
873.8747482146436
 31
0.0
1001
AUTOCAD_POSTSCRIPT_FIGURE
1002
{
1000
PSFILL
1000
Grayscale
1000
Grayscale
1070
   100
1002
}
  0
LINE
  5
19037
330
19716
100
AcDbEntity
  8
YODOROGO
100
AcDbLine
 10
13968.80217064596
 20
898.487490580708
 30
0.0
 11
13952.80217064596
 21
924.7045060794032
 31
0.0
1001
AUTOCAD_POSTSCRIPT_FIGURE
1002
{
1000
PSFILL
1000
Grayscale
1000
Grayscale
1070
   100
1002
}
  0
LINE
  5
19038
330
19716
100
AcDbEntity
  8
YODOROGO
100
AcDbLine
 10
13968.80217064596
 20
906.4874905807087
 30
0.0
 11
13968.80217064596
 21
898.487490580708
 31
0.0
1001
AUTOCAD_POSTSCRIPT_FIGURE
1002
{
1000
PSFILL
1000
Grayscale
1000
Grayscale
1070
   100
1002
}
  0
LINE
  5
19039
330
19716
100
AcDbEntity
  8
YODOROGO
100
AcDbLine
 10
13952.80217064596
 20
940.7045060794045
 30
0.0
 11
13968.80217064596
 21
906.4874905807087
 31
0.0
1001
AUTOCAD_POSTSCRIPT_FIGURE
1002
{
1000
PSFILL
1000
Grayscale
1000
Grayscale
1070
   100
1002
}
  0
LINE
  5
1903A
330
19716
100
AcDbEntity
  8
YODOROGO
100
AcDbLine
 10
13952.80217064596
 20
942.2841744681502
 30
0.0
 11
13952.80217064596
 21
940.7045060794045
 31
0.0
1001
AUTOCAD_POSTSCRIPT_FIGURE
1002
{
1000
PSFILL
1000
Grayscale
1000
Grayscale
1070
   100
1002
}
  0
LINE
  5
1903B
330
19716
100
AcDbEntity
  8
YODOROGO
100
AcDbLine
 10
13968.80217064596
 20
942.2841744681491
 30
0.0
 11
13952.80217064596
 21
942.2841744681502
 31
0.0
1001
AUTOCAD_POSTSCRIPT_FIGURE
1002
{
1000
PSFILL
1000
Grayscale
1000
Grayscale
1070
   100
1002
}
  0
LINE
  5
1903C
330
19716
100
AcDbEntity
  8
YODOROGO
100
AcDbLine
 10
13968.80217064596
 20
950.2841744681497
 30
0.0
 11
13968.80217064596
 21
942.2841744681491
 31
0.0
1001
AUTOCAD_POSTSCRIPT_FIGURE
1002
{
1000
PSFILL
1000
Grayscale
1000
Grayscale
1070
   100
1002
}
  0
LINE
  5
1903D
330
19716
100
AcDbEntity
  8
YODOROGO
100
AcDbLine
 10
13952.80217064596
 20
950.2841744681497
 30
0.0
 11
13968.80217064596
 21
950.2841744681497
 31
0.0
1001
AUTOCAD_POSTSCRIPT_FIGURE
1002
{
1000
PSFILL
1000
Grayscale
1000
Grayscale
1070
   100
1002
}
  0
LINE
  5
1903E
330
19716
100
AcDbEntity
  8
YODOROGO
100
AcDbLine
 10
13952.80217064596
 20
969.8747482146441
 30
0.0
 11
13952.80217064596
 21
950.2841744681497
 31
0.0
1001
AUTOCAD_POSTSCRIPT_FIGURE
1002
{
1000
PSFILL
1000
Grayscale
1000
Grayscale
1070
   100
1002
}
  0
LINE
  5
1903F
330
19716
100
AcDbEntity
  8
YODOROGO
100
AcDbLine
 10
13968.80217064596
 20
969.8747482146441
 30
0.0
 11
13952.80217064596
 21
969.8747482146441
 31
0.0
1001
AUTOCAD_POSTSCRIPT_FIGURE
1002
{
1000
PSFILL
1000
Grayscale
1000
Grayscale
1070
   100
1002
}
  0
LINE
  5
19040
330
19716
100
AcDbEntity
  8
YODOROGO
100
AcDbLine
 10
13968.80217064596
 20
977.8747482146435
 30
0.0
 11
13968.80217064596
 21
969.8747482146441
 31
0.0
1001
AUTOCAD_POSTSCRIPT_FIGURE
1002
{
1000
PSFILL
1000
Grayscale
1000
Grayscale
1070
   100
1002
}
  0
LINE
  5
19041
330
19716
100
AcDbEntity
  8
YODOROGO
100
AcDbLine
 10
13952.80217064596
 20
977.8747482146435
 30
0.0
 11
13968.80217064596
 21
977.8747482146435
 31
0.0
1001
AUTOCAD_POSTSCRIPT_FIGURE
1002
{
1000
PSFILL
1000
Grayscale
1000
Grayscale
1070
   100
1002
}
  0
LINE
  5
19042
330
19716
100
AcDbEntity
  8
YODOROGO
100
AcDbLine
 10
13952.80217064596
 20
989.8747482146443
 30
0.0
 11
13952.80217064596
 21
977.8747482146435
 31
0.0
1001
AUTOCAD_POSTSCRIPT_FIGURE
1002
{
1000
PSFILL
1000
Grayscale
1000
Grayscale
1070
   100
1002
}
  0
LINE
  5
19043
330
19716
100
AcDbEntity
  8
YODOROGO
100
AcDbLine
 10
13944.80217064596
 20
989.8747482146443
 30
0.0
 11
13952.80217064596
 21
989.8747482146443
 31
0.0
1001
AUTOCAD_POSTSCRIPT_FIGURE
1002
{
1000
PSFILL
1000
Grayscale
1000
Grayscale
1070
   100
1002
}
  0
LINE
  5
19044
330
19716
100
AcDbEntity
  8
YODOROGO
100
AcDbLine
 10
13944.80217064596
 20
977.8747482146435
 30
0.0
 11
13944.80217064596
 21
989.8747482146443
 31
0.0
1001
AUTOCAD_POSTSCRIPT_FIGURE
1002
{
1000
PSFILL
1000
Grayscale
1000
Grayscale
1070
   100
1002
}
  0
LINE
  5
19045
330
19716
100
AcDbEntity
  8
YODOROGO
100
AcDbLine
 10
13932.80217064596
 20
977.8747482146435
 30
0.0
 11
13944.80217064596
 21
977.8747482146435
 31
0.0
1001
AUTOCAD_POSTSCRIPT_FIGURE
1002
{
1000
PSFILL
1000
Grayscale
1000
Grayscale
1070
   100
1002
}
  0
LINE
  5
19046
330
19716
100
AcDbEntity
  8
YODOROGO
100
AcDbLine
 10
13932.80217064596
 20
989.8747482146443
 30
0.0
 11
13932.80217064596
 21
977.8747482146435
 31
0.0
1001
AUTOCAD_POSTSCRIPT_FIGURE
1002
{
1000
PSFILL
1000
Grayscale
1000
Grayscale
1070
   100
1002
}
  0
LINE
  5
19047
330
19716
100
AcDbEntity
  8
YODOROGO
100
AcDbLine
 10
13924.80217064596
 20
989.8747482146443
 30
0.0
 11
13932.80217064596
 21
989.8747482146443
 31
0.0
1001
AUTOCAD_POSTSCRIPT_FIGURE
1002
{
1000
PSFILL
1000
Grayscale
1000
Grayscale
1070
   100
1002
}
  0
LINE
  5
19048
330
19716
100
AcDbEntity
  8
YODOROGO
100
AcDbLine
 10
13924.80217064596
 20
977.8747482146435
 30
0.0
 11
13924.80217064596
 21
989.8747482146443
 31
0.0
1001
AUTOCAD_POSTSCRIPT_FIGURE
1002
{
1000
PSFILL
1000
Grayscale
1000
Grayscale
1070
   100
1002
}
  0
LINE
  5
19049
330
19716
100
AcDbEntity
  8
YODOROGO
100
AcDbLine
 10
13908.80217064596
 20
977.8747482146435
 30
0.0
 11
13924.80217064596
 21
977.8747482146435
 31
0.0
1001
AUTOCAD_POSTSCRIPT_FIGURE
1002
{
1000
PSFILL
1000
Grayscale
1000
Grayscale
1070
   100
1002
}
  0
LINE
  5
1904A
330
19716
100
AcDbEntity
  8
YODOROGO
100
AcDbLine
 10
13908.80217064596
 20
989.8747482146443
 30
0.0
 11
13908.80217064596
 21
977.8747482146435
 31
0.0
1001
AUTOCAD_POSTSCRIPT_FIGURE
1002
{
1000
PSFILL
1000
Grayscale
1000
Grayscale
1070
   100
1002
}
  0
LINE
  5
1904B
330
19716
100
AcDbEntity
  8
YODOROGO
100
AcDbLine
 10
13900.80217064596
 20
989.8747482146443
 30
0.0
 11
13908.80217064596
 21
989.8747482146443
 31
0.0
1001
AUTOCAD_POSTSCRIPT_FIGURE
1002
{
1000
PSFILL
1000
Grayscale
1000
Grayscale
1070
   100
1002
}
  0
LINE
  5
1904C
330
19716
100
AcDbEntity
  8
YODOROGO
100
AcDbLine
 10
13900.80217064596
 20
977.8747482146435
 30
0.0
 11
13900.80217064596
 21
989.8747482146443
 31
0.0
1001
AUTOCAD_POSTSCRIPT_FIGURE
1002
{
1000
PSFILL
1000
Grayscale
1000
Grayscale
1070
   100
1002
}
  0
LINE
  5
1904D
330
19716
100
AcDbEntity
  8
YODOROGO
100
AcDbLine
 10
13888.80217064596
 20
977.8747482146435
 30
0.0
 11
13900.80217064596
 21
977.8747482146435
 31
0.0
1001
AUTOCAD_POSTSCRIPT_FIGURE
1002
{
1000
PSFILL
1000
Grayscale
1000
Grayscale
1070
   100
1002
}
  0
LINE
  5
1904E
330
19716
100
AcDbEntity
  8
YODOROGO
100
AcDbLine
 10
13888.80217064596
 20
969.8747482146441
 30
0.0
 11
13888.80217064596
 21
977.8747482146435
 31
0.0
1001
AUTOCAD_POSTSCRIPT_FIGURE
1002
{
1000
PSFILL
1000
Grayscale
1000
Grayscale
1070
   100
1002
}
  0
LINE
  5
1904F
330
19716
100
AcDbEntity
  8
YODOROGO
100
AcDbLine
 10
13900.80217064596
 20
969.8747482146441
 30
0.0
 11
13888.80217064596
 21
969.8747482146441
 31
0.0
1001
AUTOCAD_POSTSCRIPT_FIGURE
1002
{
1000
PSFILL
1000
Grayscale
1000
Grayscale
1070
   100
1002
}
  0
LINE
  5
19050
330
19716
100
AcDbEntity
  8
YODOROGO
100
AcDbLine
 10
13900.80217064596
 20
957.3932903968524
 30
0.0
 11
13900.80217064596
 21
969.8747482146441
 31
0.0
1001
AUTOCAD_POSTSCRIPT_FIGURE
1002
{
1000
PSFILL
1000
Grayscale
1000
Grayscale
1070
   100
1002
}
  0
LINE
  5
19051
330
19716
100
AcDbEntity
  8
YODOROGO
100
AcDbLine
 10
13888.80217064596
 20
929.8883739758355
 30
0.0
 11
13900.80217064596
 21
957.3932903968524
 31
0.0
1001
AUTOCAD_POSTSCRIPT_FIGURE
1002
{
1000
PSFILL
1000
Grayscale
1000
Grayscale
1070
   100
1002
}
  0
LINE
  5
19052
330
19716
100
AcDbEntity
  8
YODOROGO
100
AcDbLine
 10
13888.80217064596
 20
921.8883739758362
 30
0.0
 11
13888.80217064596
 21
929.8883739758355
 31
0.0
1001
AUTOCAD_POSTSCRIPT_FIGURE
1002
{
1000
PSFILL
1000
Grayscale
1000
Grayscale
1070
   100
1002
}
  0
LINE
  5
19053
330
19716
100
AcDbEntity
  8
YODOROGO
100
AcDbLine
 10
14128.80217064596
 20
933.8747482146439
 30
0.0
 11
14200.80217064595
 21
912.4388128201532
 31
0.0
1001
AUTOCAD_POSTSCRIPT_FIGURE
1002
{
1000
PSFILL
1000
Grayscale
1000
Grayscale
1070
   100
1002
}
  0
LINE
  5
19054
330
19716
100
AcDbEntity
  8
YODOROGO
100
AcDbLine
 10
14200.80217064595
 20
876.4388128201531
 30
0.0
 11
14128.80217064596
 21
897.8747482146435
 31
0.0
1001
AUTOCAD_POSTSCRIPT_FIGURE
1002
{
1000
PSFILL
1000
Grayscale
1000
Grayscale
1070
   100
1002
}
  0
LINE
  5
19055
330
19716
100
AcDbEntity
  8
YODOROGO
100
AcDbLine
 10
14200.80217064595
 20
992.4388128201531
 30
0.0
 11
14128.80217064596
 21
1013.874748214644
 31
0.0
1001
AUTOCAD_POSTSCRIPT_FIGURE
1002
{
1000
PSFILL
1000
Grayscale
1000
Grayscale
1070
   100
1002
}
  0
LINE
  5
19056
330
19716
100
AcDbEntity
  8
YODOROGO
100
AcDbLine
 10
14128.80217064596
 20
979.874748214644
 30
0.0
 11
14200.80217064595
 21
958.4388128201537
 31
0.0
1001
AUTOCAD_POSTSCRIPT_FIGURE
1002
{
1000
PSFILL
1000
Grayscale
1000
Grayscale
1070
   100
1002
}
  0
LINE
  5
19057
330
19716
100
AcDbEntity
  8
YODOROGO
100
AcDbLine
 10
14128.80217064596
 20
897.8747482146435
 30
0.0
 11
14128.80217064596
 21
933.8747482146439
 31
0.0
1001
AUTOCAD_POSTSCRIPT_FIGURE
1002
{
1000
PSFILL
1000
Grayscale
1000
Grayscale
1070
   100
1002
}
  0
LINE
  5
19058
330
19716
100
AcDbEntity
  8
YODOROGO
100
AcDbLine
 10
14128.80217064596
 20
1013.874748214644
 30
0.0
 11
14128.80217064596
 21
979.874748214644
 31
0.0
1001
AUTOCAD_POSTSCRIPT_FIGURE
1002
{
1000
PSFILL
1000
Grayscale
1000
Grayscale
1070
   100
1002
}
  0
LINE
  5
19059
330
19716
100
AcDbEntity
  8
YODOROGO
100
AcDbLine
 10
14040.11816010337
 20
969.8747482146441
 30
0.0
 11
14064.80217064595
 21
873.8747482146436
 31
0.0
1001
AUTOCAD_POSTSCRIPT_FIGURE
1002
{
1000
PSFILL
1000
Grayscale
1000
Grayscale
1070
   100
1002
}
  0
LINE
  5
1905A
330
19716
100
AcDbEntity
  8
YODOROGO
100
AcDbLine
 10
13988.80217064596
 20
969.8747482146441
 30
0.0
 11
14040.11816010337
 21
969.8747482146441
 31
0.0
1001
AUTOCAD_POSTSCRIPT_FIGURE
1002
{
1000
PSFILL
1000
Grayscale
1000
Grayscale
1070
   100
1002
}
  0
LINE
  5
1905B
330
19716
100
AcDbEntity
  8
YODOROGO
100
AcDbLine
 10
13988.80217064596
 20
977.8747482146435
 30
0.0
 11
13988.80217064596
 21
969.8747482146441
 31
0.0
1001
AUTOCAD_POSTSCRIPT_FIGURE
1002
{
1000
PSFILL
1000
Grayscale
1000
Grayscale
1070
   100
1002
}
  0
LINE
  5
1905C
330
19716
100
AcDbEntity
  8
YODOROGO
100
AcDbLine
 10
14038.30343925995
 20
977.8747482146435
 30
0.0
 11
13988.80217064596
 21
977.8747482146435
 31
0.0
1001
AUTOCAD_POSTSCRIPT_FIGURE
1002
{
1000
PSFILL
1000
Grayscale
1000
Grayscale
1070
   100
1002
}
  0
LINE
  5
1905D
330
19716
100
AcDbEntity
  8
YODOROGO
100
AcDbLine
 10
14035.58135799485
 20
989.8747482146443
 30
0.0
 11
14038.30343925995
 21
977.8747482146435
 31
0.0
1001
AUTOCAD_POSTSCRIPT_FIGURE
1002
{
1000
PSFILL
1000
Grayscale
1000
Grayscale
1070
   100
1002
}
  0
LINE
  5
1905E
330
19716
100
AcDbEntity
  8
YODOROGO
100
AcDbLine
 10
14045.58135799485
 20
989.8747482146443
 30
0.0
 11
14035.58135799485
 21
989.8747482146443
 31
0.0
1001
AUTOCAD_POSTSCRIPT_FIGURE
1002
{
1000
PSFILL
1000
Grayscale
1000
Grayscale
1070
   100
1002
}
  0
LINE
  5
1905F
330
19716
100
AcDbEntity
  8
YODOROGO
100
AcDbLine
 10
14047.90343925997
 20
977.8747482146435
 30
0.0
 11
14045.58135799485
 21
989.8747482146443
 31
0.0
1001
AUTOCAD_POSTSCRIPT_FIGURE
1002
{
1000
PSFILL
1000
Grayscale
1000
Grayscale
1070
   100
1002
}
  0
LINE
  5
19060
330
19716
100
AcDbEntity
  8
YODOROGO
100
AcDbLine
 10
14060.80217064596
 20
977.8747482146435
 30
0.0
 11
14047.90343925997
 21
977.8747482146435
 31
0.0
1001
AUTOCAD_POSTSCRIPT_FIGURE
1002
{
1000
PSFILL
1000
Grayscale
1000
Grayscale
1070
   100
1002
}
  0
LINE
  5
19061
330
19716
100
AcDbEntity
  8
YODOROGO
100
AcDbLine
 10
14060.80217064596
 20
989.8747482146443
 30
0.0
 11
14060.80217064596
 21
977.8747482146435
 31
0.0
1001
AUTOCAD_POSTSCRIPT_FIGURE
1002
{
1000
PSFILL
1000
Grayscale
1000
Grayscale
1070
   100
1002
}
  0
LINE
  5
19062
330
19716
100
AcDbEntity
  8
YODOROGO
100
AcDbLine
 10
14068.80217064596
 20
989.8747482146443
 30
0.0
 11
14060.80217064596
 21
989.8747482146443
 31
0.0
1001
AUTOCAD_POSTSCRIPT_FIGURE
1002
{
1000
PSFILL
1000
Grayscale
1000
Grayscale
1070
   100
1002
}
  0
LINE
  5
19063
330
19716
100
AcDbEntity
  8
YODOROGO
100
AcDbLine
 10
14068.80217064596
 20
977.8747482146435
 30
0.0
 11
14068.80217064596
 21
989.8747482146443
 31
0.0
1001
AUTOCAD_POSTSCRIPT_FIGURE
1002
{
1000
PSFILL
1000
Grayscale
1000
Grayscale
1070
   100
1002
}
  0
LINE
  5
19064
330
19716
100
AcDbEntity
  8
YODOROGO
100
AcDbLine
 10
14068.80217064596
 20
969.8747482146441
 30
0.0
 11
14068.80217064596
 21
977.8747482146435
 31
0.0
1001
AUTOCAD_POSTSCRIPT_FIGURE
1002
{
1000
PSFILL
1000
Grayscale
1000
Grayscale
1070
   100
1002
}
  0
LINE
  5
19065
330
19716
100
AcDbEntity
  8
YODOROGO
100
AcDbLine
 10
14049.4514934367
 20
969.8747482146441
 30
0.0
 11
14068.80217064596
 21
969.8747482146441
 31
0.0
1001
AUTOCAD_POSTSCRIPT_FIGURE
1002
{
1000
PSFILL
1000
Grayscale
1000
Grayscale
1070
   100
1002
}
  0
LINE
  5
19066
330
19716
100
AcDbEntity
  8
YODOROGO
100
AcDbLine
 10
14068.80217064596
 20
873.8747482146436
 30
0.0
 11
14049.4514934367
 21
969.8747482146441
 31
0.0
1001
AUTOCAD_POSTSCRIPT_FIGURE
1002
{
1000
PSFILL
1000
Grayscale
1000
Grayscale
1070
   100
1002
}
  0
LINE
  5
19067
330
19716
100
AcDbEntity
  8
YODOROGO
100
AcDbLine
 10
14064.80217064595
 20
873.8747482146436
 30
0.0
 11
14068.80217064596
 21
873.8747482146436
 31
0.0
1001
AUTOCAD_POSTSCRIPT_FIGURE
1002
{
1000
PSFILL
1000
Grayscale
1000
Grayscale
1070
   100
1002
}
  0
LINE
  5
19068
330
19716
100
AcDbEntity
  8
YODOROGO
100
AcDbLine
 10
14039.03460996689
 20
887.8703881493972
 30
0.0
 11
13988.80217064596
 21
873.8747482146436
 31
0.0
  0
LINE
  5
19069
330
19716
100
AcDbEntity
  8
YODOROGO
100
AcDbLine
 10
14039.03460996689
 20
899.3344897645366
 30
0.0
 11
14039.03460996689
 21
887.8703881493972
 31
0.0
  0
LINE
  5
1906A
330
19716
100
AcDbEntity
  8
YODOROGO
100
AcDbLine
 10
14016.91839030643
 20
893.4084665668834
 30
0.0
 11
14039.03460996689
 21
899.3344897645366
 31
0.0
  0
LINE
  5
1906B
330
19716
100
AcDbEntity
  8
YODOROGO
100
AcDbLine
 10
14016.91839030643
 20
936.2841744681499
 30
0.0
 11
14016.91839030643
 21
893.4084665668834
 31
0.0
  0
LINE
  5
1906C
330
19716
100
AcDbEntity
  8
YODOROGO
100
AcDbLine
 10
14039.03460996689
 20
936.2841744681499
 30
0.0
 11
14016.91839030643
 21
936.2841744681499
 31
0.0
  0
LINE
  5
1906D
330
19716
100
AcDbEntity
  8
YODOROGO
100
AcDbLine
 10
14039.03460996689
 20
946.2841744681487
 30
0.0
 11
14039.03460996689
 21
936.2841744681499
 31
0.0
  0
LINE
  5
1906E
330
19716
100
AcDbEntity
  8
YODOROGO
100
AcDbLine
 10
13988.80217064596
 20
946.2841744681487
 30
0.0
 11
14039.03460996689
 21
946.2841744681487
 31
0.0
  0
LINE
  5
1906F
330
19716
100
AcDbEntity
  8
YODOROGO
100
AcDbLine
 10
13988.80217064596
 20
936.2841744681499
 30
0.0
 11
13988.80217064596
 21
946.2841744681487
 31
0.0
  0
LINE
  5
19070
330
19716
100
AcDbEntity
  8
YODOROGO
100
AcDbLine
 10
14010.91839030643
 20
936.2841744681499
 30
0.0
 11
13988.80217064596
 21
936.2841744681499
 31
0.0
  0
LINE
  5
19071
330
19716
100
AcDbEntity
  8
YODOROGO
100
AcDbLine
 10
14010.91839030643
 20
892.3366697971587
 30
0.0
 11
14010.91839030643
 21
936.2841744681499
 31
0.0
  0
LINE
  5
19072
330
19716
100
AcDbEntity
  8
YODOROGO
100
AcDbLine
 10
13988.80217064596
 20
885.8747482146432
 30
0.0
 11
14010.91839030643
 21
892.3366697971587
 31
0.0
  0
LINE
  5
19073
330
19716
100
AcDbEntity
  8
YODOROGO
100
AcDbLine
 10
13988.80217064596
 20
873.8747482146436
 30
0.0
 11
13988.80217064596
 21
885.8747482146432
 31
0.0
  0
LINE
  5
19074
330
19716
100
AcDbEntity
  8
YODOROGO
100
AcDbLine
 10
14000.80217064596
 20
853.8747482146439
 30
0.0
 11
14000.80217064596
 21
841.8747482146434
 31
0.0
  0
LINE
  5
19075
330
19716
100
AcDbEntity
  8
YODOROGO
100
AcDbLine
 10
14000.80217064596
 20
853.8747482146439
 30
0.0
 11
14000.80217064596
 21
853.8747482146439
 31
0.0
  0
LINE
  5
19076
330
19716
100
AcDbEntity
  8
YODOROGO
100
AcDbLine
 10
14008.80217064596
 20
853.8747482146439
 30
0.0
 11
14000.80217064596
 21
853.8747482146439
 31
0.0
  0
LINE
  5
19077
330
19716
100
AcDbEntity
  8
YODOROGO
100
AcDbLine
 10
14008.80217064596
 20
841.8747482146434
 30
0.0
 11
14008.80217064596
 21
853.8747482146439
 31
0.0
  0
LINE
  5
19078
330
19716
100
AcDbEntity
  8
YODOROGO
100
AcDbLine
 10
14020.45660200845
 20
841.8747482146434
 30
0.0
 11
14008.80217064596
 21
841.8747482146434
 31
0.0
  0
LINE
  5
19079
330
19716
100
AcDbEntity
  8
YODOROGO
100
AcDbLine
 10
14000.80217064596
 20
841.8747482146434
 30
0.0
 11
13988.80217064596
 21
841.8747482146434
 31
0.0
  0
LINE
  5
1907A
330
19716
100
AcDbEntity
  8
YODOROGO
100
AcDbLine
 10
14041.06776011546
 20
853.8747482146439
 30
0.0
 11
14049.06776011545
 21
853.8747482146439
 31
0.0
1001
AUTOCAD_POSTSCRIPT_FIGURE
1002
{
1000
PSFILL
1000
Grayscale
1000
Grayscale
1070
   100
1002
}
  0
LINE
  5
1907B
330
19716
100
AcDbEntity
  8
YODOROGO
100
AcDbLine
 10
14200.80217064595
 20
912.4388128201532
 30
0.0
 11
14200.80217064595
 21
876.4388128201531
 31
0.0
1001
AUTOCAD_POSTSCRIPT_FIGURE
1002
{
1000
PSFILL
1000
Grayscale
1000
Grayscale
1070
   100
1002
}
  0
LINE
  5
1907C
330
19716
100
AcDbEntity
  8
YODOROGO
100
AcDbLine
 10
14200.80217064595
 20
958.4388128201537
 30
0.0
 11
14200.80217064595
 21
992.4388128201531
 31
0.0
1001
AUTOCAD_POSTSCRIPT_FIGURE
1002
{
1000
PSFILL
1000
Grayscale
1000
Grayscale
1070
   100
1002
}
  0
LINE
  5
1907D
330
19716
100
AcDbEntity
  8
YODOROGO
100
AcDbLine
 10
14216.80217064595
 20
909.8747482146439
 30
0.0
 11
14216.80217064595
 21
873.8747482146449
 31
0.0
  0
LINE
  5
1907E
330
19716
100
AcDbEntity
  8
YODOROGO
100
AcDbLine
 10
14248.80217064595
 20
853.8747482146439
 30
0.0
 11
14216.80217064595
 21
853.8747482146439
 31
0.0
  0
LINE
  5
1907F
330
19716
100
AcDbEntity
  8
YODOROGO
100
AcDbLine
 10
14216.80217064595
 20
873.8747482146449
 30
0.0
 11
14292.80217064596
 21
873.8747482146449
 31
0.0
  0
LINE
  5
19080
330
19716
100
AcDbEntity
  8
YODOROGO
100
AcDbLine
 10
14248.80217064595
 20
933.8747482146439
 30
0.0
 11
14216.80217064595
 21
933.8747482146439
 31
0.0
  0
LINE
  5
19081
330
19716
100
AcDbEntity
  8
YODOROGO
100
AcDbLine
 10
14248.80217064595
 20
961.8747482146432
 30
0.0
 11
14248.80217064595
 21
933.8747482146439
 31
0.0
  0
LINE
  5
19082
330
19716
100
AcDbEntity
  8
YODOROGO
100
AcDbLine
 10
14292.80217064596
 20
993.8747482146439
 30
0.0
 11
14292.80217064596
 21
1013.874748214644
 31
0.0
  0
LINE
  5
19083
330
19716
100
AcDbEntity
  8
YODOROGO
100
AcDbLine
 10
14216.80217064595
 20
993.8747482146439
 30
0.0
 11
14292.80217064596
 21
993.8747482146439
 31
0.0
  0
LINE
  5
19084
330
19716
100
AcDbEntity
  8
YODOROGO
100
AcDbLine
 10
14216.80217064595
 20
933.8747482146439
 30
0.0
 11
14216.80217064595
 21
993.8747482146439
 31
0.0
  0
LINE
  5
19085
330
19716
100
AcDbEntity
  8
YODOROGO
100
AcDbLine
 10
14500.80217064595
 20
1013.874748214644
 30
0.0
 11
14500.80217064595
 21
809.8747482146441
 31
0.0
  0
LINE
  5
19086
330
19716
100
AcDbEntity
  8
YODOROGO
100
AcDbLine
 10
14536.80217064596
 20
789.8747482146441
 30
0.0
 11
14536.80217064596
 21
1013.874748214644
 31
0.0
  0
LINE
  5
19087
330
19716
100
AcDbEntity
  8
YODOROGO
100
AcDbLine
 10
14630.80217064596
 20
745.8747482146431
 30
0.0
 11
14630.80217064596
 21
1003.874748214644
 31
0.0
  0
LINE
  5
19088
330
19716
100
AcDbEntity
  8
YODOROGO
100
AcDbLine
 10
14598.80217064596
 20
1003.874748214644
 30
0.0
 11
14598.80217064596
 21
745.8747482146431
 31
0.0
  0
LINE
  5
19089
330
19716
100
AcDbEntity
  8
YODOROGO
100
AcDbLine
 10
14692.80217064596
 20
1013.874748214644
 30
0.0
 11
14692.80217064596
 21
713.8747482146436
 31
0.0
  0
LINE
  5
1908A
330
19716
100
AcDbEntity
  8
YODOROGO
100
AcDbLine
 10
14728.80217064596
 20
713.8747482146436
 30
0.0
 11
14728.80217064596
 21
1013.874748214644
 31
0.0
  0
LINE
  5
1908B
330
19716
100
AcDbEntity
  8
YODOROGO
100
AcDbLine
 10
14328.80217064595
 20
833.8747482146439
 30
0.0
 11
14328.80217064595
 21
873.8747482146449
 31
0.0
  0
LINE
  5
1908C
330
19716
100
AcDbEntity
  8
YODOROGO
100
AcDbLine
 10
14942.80217064596
 20
853.8747482146439
 30
0.0
 11
14942.80217064596
 21
833.8747482146439
 31
0.0
  0
LINE
  5
1908D
330
19716
100
AcDbEntity
  8
YODOROGO
100
AcDbLine
 10
14942.80217064596
 20
853.8747482146439
 30
0.0
 11
14942.80217064596
 21
833.8747482146439
 31
0.0
  0
ARC
  5
1908E
330
19716
100
AcDbEntity
  8
YODOROGO
100
AcDbCircle
 10
14453.45578809341
 20
809.1089322211365
 30
0.0
 40
47.35257558937083
100
AcDbArc
 50
274.052441629071
 51
0.9266642149310712
  0
ARC
  5
1908F
330
19716
100
AcDbEntity
  8
YODOROGO
100
AcDbCircle
 10
14454.59308535991
 20
796.30536430522
 30
0.0
 40
82.46021178042756
100
AcDbArc
 50
271.5351210653778
 51
355.5272775058505
  0
LINE
  5
19090
330
19716
100
AcDbEntity
  8
YODOROGO
100
AcDbLine
 10
14456.80217064596
 20
761.8747482146434
 30
0.0
 11
14456.80217064596
 21
713.8747482146436
 31
0.0
  0
LINE
  5
19091
330
19716
100
AcDbEntity
  8
YODOROGO
100
AcDbLine
 10
14396.80217064594
 20
833.8747482146439
 30
0.0
 11
14328.80217064595
 21
833.8747482146439
 31
0.0
  0
LINE
  5
19092
330
19716
100
AcDbEntity
  8
YODOROGO
100
AcDbLine
 10
14396.80217064594
 20
801.8747482146446
 30
0.0
 11
14396.80217064594
 21
833.8747482146439
 31
0.0
  0
LINE
  5
19093
330
19716
100
AcDbEntity
  8
YODOROGO
100
AcDbLine
 10
14328.80217064595
 20
801.8747482146446
 30
0.0
 11
14396.80217064594
 21
801.8747482146446
 31
0.0
  0
LINE
  5
19094
330
19716
100
AcDbEntity
  8
YODOROGO
100
AcDbLine
 10
14328.80217064595
 20
761.8747482146434
 30
0.0
 11
14328.80217064595
 21
801.8747482146446
 31
0.0
  0
LINE
  5
19095
330
19716
100
AcDbEntity
  8
YODOROGO
100
AcDbLine
 10
14396.80217064594
 20
761.8747482146434
 30
0.0
 11
14328.80217064595
 21
761.8747482146434
 31
0.0
  0
LINE
  5
19096
330
19716
100
AcDbEntity
  8
YODOROGO
100
AcDbLine
 10
14396.80217064594
 20
713.8747482146436
 30
0.0
 11
14396.80217064594
 21
761.8747482146434
 31
0.0
  0
LINE
  5
19097
330
19716
100
AcDbEntity
  8
YODOROGO
100
AcDbLine
 10
14598.80217064596
 20
745.8747482146431
 30
0.0
 11
14630.80217064596
 21
745.8747482146431
 31
0.0
  0
LINE
  5
19098
330
19716
100
AcDbEntity
  8
YODOROGO
100
AcDbLine
 10
14692.80217064596
 20
713.8747482146436
 30
0.0
 11
14728.80217064596
 21
713.8747482146436
 31
0.0
  0
LINE
  5
19099
330
19716
100
AcDbEntity
  8
YODOROGO
100
AcDbLine
 10
14868.80217064596
 20
764.2207260852821
 30
0.0
 11
14868.80217064596
 21
713.8747482146436
 31
0.0
  0
LINE
  5
1909A
330
19716
100
AcDbEntity
  8
YODOROGO
100
AcDbLine
 10
14808.80217064596
 20
713.8747482146436
 30
0.0
 11
14868.80217064596
 21
764.2207260852821
 31
0.0
  0
LINE
  5
1909B
330
19716
100
AcDbEntity
  8
YODOROGO
100
AcDbLine
 10
14808.80217064596
 20
773.8747482146439
 30
0.0
 11
14808.80217064596
 21
713.8747482146436
 31
0.0
  0
LINE
  5
1909C
330
19716
100
AcDbEntity
  8
YODOROGO
100
AcDbLine
 10
14856.47231434973
 20
813.8747482146436
 30
0.0
 11
14808.80217064596
 21
773.8747482146439
 31
0.0
  0
LINE
  5
1909D
330
19716
100
AcDbEntity
  8
YODOROGO
100
AcDbLine
 10
14808.80217064596
 20
813.8747482146436
 30
0.0
 11
14856.47231434973
 21
813.8747482146436
 31
0.0
  0
LINE
  5
1909E
330
19716
100
AcDbEntity
  8
YODOROGO
100
AcDbLine
 10
14808.80217064596
 20
833.8747482146439
 30
0.0
 11
14808.80217064596
 21
813.8747482146436
 31
0.0
  0
LINE
  5
1909F
330
19716
100
AcDbEntity
  8
YODOROGO
100
AcDbLine
 10
14942.80217064596
 20
833.8747482146439
 30
0.0
 11
14808.80217064596
 21
833.8747482146439
 31
0.0
  0
LINE
  5
190A0
330
19716
100
AcDbEntity
  8
YODOROGO
100
AcDbLine
 10
14958.80217064596
 20
813.8747482146436
 30
0.0
 11
14888.80217064596
 21
813.8747482146436
 31
0.0
  0
LINE
  5
190A1
330
19716
100
AcDbEntity
  8
YODOROGO
100
AcDbLine
 10
14888.80217064596
 20
781.0027187088283
 30
0.0
 11
14885.70493649264
 21
778.403830673117
 31
0.0
  0
LINE
  5
190A2
330
19716
100
AcDbEntity
  8
YODOROGO
100
AcDbLine
 10
14888.80217064596
 20
813.8747482146436
 30
0.0
 11
14888.80217064596
 21
781.0027187088283
 31
0.0
  0
LINE
  5
190A3
330
19716
100
AcDbEntity
  8
YODOROGO
100
AcDbLine
 10
14868.80217064596
 20
764.2207260852821
 30
0.0
 11
14868.80217064596
 21
713.8747482146436
 31
0.0
  0
LINE
  5
190A4
330
19716
100
AcDbEntity
  8
YODOROGO
100
AcDbLine
 10
14808.80217064596
 20
713.8747482146436
 30
0.0
 11
14868.80217064596
 21
764.2207260852821
 31
0.0
  0
LINE
  5
190A5
330
19716
100
AcDbEntity
  8
YODOROGO
100
AcDbLine
 10
14808.80217064596
 20
773.8747482146439
 30
0.0
 11
14808.80217064596
 21
713.8747482146436
 31
0.0
  0
LINE
  5
190A6
330
19716
100
AcDbEntity
  8
YODOROGO
100
AcDbLine
 10
14856.47231434973
 20
813.8747482146436
 30
0.0
 11
14808.80217064596
 21
773.8747482146439
 31
0.0
  0
LINE
  5
190A7
330
19716
100
AcDbEntity
  8
YODOROGO
100
AcDbLine
 10
14808.80217064596
 20
813.8747482146436
 30
0.0
 11
14856.47231434973
 21
813.8747482146436
 31
0.0
  0
LINE
  5
190A8
330
19716
100
AcDbEntity
  8
YODOROGO
100
AcDbLine
 10
14808.80217064596
 20
833.8747482146439
 30
0.0
 11
14808.80217064596
 21
813.8747482146436
 31
0.0
  0
LINE
  5
190A9
330
19716
100
AcDbEntity
  8
YODOROGO
100
AcDbLine
 10
14942.80217064596
 20
833.8747482146439
 30
0.0
 11
14808.80217064596
 21
833.8747482146439
 31
0.0
  0
LINE
  5
190AA
330
19716
100
AcDbEntity
  8
YODOROGO
100
AcDbLine
 10
14396.80217064594
 20
873.8747482146449
 30
0.0
 11
14396.80217064594
 21
909.8747482146439
 31
0.0
  0
LINE
  5
190AB
330
19716
100
AcDbEntity
  8
YODOROGO
100
AcDbLine
 10
14328.80217064595
 20
873.8747482146449
 30
0.0
 11
14396.80217064594
 21
873.8747482146449
 31
0.0
  0
LINE
  5
190AC
330
19716
100
AcDbEntity
  8
YODOROGO
100
AcDbLine
 10
14364.80217064596
 20
933.8747482146439
 30
0.0
 11
14364.80217064596
 21
961.8747482146432
 31
0.0
  0
LINE
  5
190AD
330
19716
100
AcDbEntity
  8
YODOROGO
100
AcDbLine
 10
14396.80217064594
 20
933.8747482146439
 30
0.0
 11
14364.80217064596
 21
933.8747482146439
 31
0.0
  0
LINE
  5
190AE
330
19716
100
AcDbEntity
  8
YODOROGO
100
AcDbLine
 10
14396.80217064594
 20
973.8747482146436
 30
0.0
 11
14396.80217064594
 21
933.8747482146439
 31
0.0
  0
ARC
  5
190AF
330
19716
100
AcDbEntity
  8
YODOROGO
100
AcDbCircle
 10
14376.80217064595
 20
973.8747482146436
 30
0.0
 40
20.0
100
AcDbArc
 50
0.0
 51
90.0
  0
LINE
  5
190B0
330
19716
100
AcDbEntity
  8
YODOROGO
100
AcDbLine
 10
14328.80217064596
 20
993.8747482146439
 30
0.0
 11
14376.80217064595
 21
993.8747482146439
 31
0.0
  0
LINE
  5
190B1
330
19716
100
AcDbEntity
  8
YODOROGO
100
AcDbLine
 10
14328.80217064596
 20
1013.874748214644
 30
0.0
 11
14328.80217064596
 21
993.8747482146439
 31
0.0
  0
LINE
  5
190B2
330
19716
100
AcDbEntity
  8
YODOROGO
100
AcDbLine
 10
14536.80217064596
 20
1013.874748214644
 30
0.0
 11
14500.80217064595
 21
1013.874748214644
 31
0.0
  0
LINE
  5
190B3
330
19716
100
AcDbEntity
  8
YODOROGO
100
AcDbLine
 10
14630.80217064596
 20
1003.874748214644
 30
0.0
 11
14598.80217064596
 21
1003.874748214644
 31
0.0
  0
LINE
  5
190B4
330
19716
100
AcDbEntity
  8
YODOROGO
100
AcDbLine
 10
14728.80217064596
 20
1013.874748214644
 30
0.0
 11
14692.80217064596
 21
1013.874748214644
 31
0.0
  0
LINE
  5
190B5
330
19716
100
AcDbEntity
  8
YODOROGO
100
AcDbLine
 10
14836.80217064596
 20
853.8747482146439
 30
0.0
 11
14836.80217064596
 21
885.8747482146442
 31
0.0
1001
AUTOCAD_POSTSCRIPT_FIGURE
1002
{
1000
PSFILL
1000
Grayscale
1000
Grayscale
1070
    25
1002
}
  0
LINE
  5
190B6
330
19716
100
AcDbEntity
  8
YODOROGO
100
AcDbLine
 10
14808.80217064596
 20
853.8747482146439
 30
0.0
 11
14836.80217064596
 21
853.8747482146439
 31
0.0
1001
AUTOCAD_POSTSCRIPT_FIGURE
1002
{
1000
PSFILL
1000
Grayscale
1000
Grayscale
1070
    25
1002
}
  0
LINE
  5
190B7
330
19716
100
AcDbEntity
  8
YODOROGO
100
AcDbLine
 10
14808.80217064596
 20
909.8747482146439
 30
0.0
 11
14808.80217064596
 21
853.8747482146439
 31
0.0
1001
AUTOCAD_POSTSCRIPT_FIGURE
1002
{
1000
PSFILL
1000
Grayscale
1000
Grayscale
1070
    25
1002
}
  0
LINE
  5
190B8
330
19716
100
AcDbEntity
  8
YODOROGO
100
AcDbLine
 10
14882.80217064596
 20
909.8747482146439
 30
0.0
 11
14808.80217064596
 21
909.8747482146439
 31
0.0
1001
AUTOCAD_POSTSCRIPT_FIGURE
1002
{
1000
PSFILL
1000
Grayscale
1000
Grayscale
1070
    25
1002
}
  0
LINE
  5
190B9
330
19716
100
AcDbEntity
  8
YODOROGO
100
AcDbLine
 10
14882.80217064596
 20
929.874748214644
 30
0.0
 11
14882.80217064596
 21
909.8747482146439
 31
0.0
1001
AUTOCAD_POSTSCRIPT_FIGURE
1002
{
1000
PSFILL
1000
Grayscale
1000
Grayscale
1070
    25
1002
}
  0
LINE
  5
190BA
330
19716
100
AcDbEntity
  8
YODOROGO
100
AcDbLine
 10
14808.80217064596
 20
929.874748214644
 30
0.0
 11
14882.80217064596
 21
929.874748214644
 31
0.0
1001
AUTOCAD_POSTSCRIPT_FIGURE
1002
{
1000
PSFILL
1000
Grayscale
1000
Grayscale
1070
    25
1002
}
  0
LINE
  5
190BB
330
19716
100
AcDbEntity
  8
YODOROGO
100
AcDbLine
 10
14808.80217064596
 20
953.874748214644
 30
0.0
 11
14808.80217064596
 21
929.874748214644
 31
0.0
1001
AUTOCAD_POSTSCRIPT_FIGURE
1002
{
1000
PSFILL
1000
Grayscale
1000
Grayscale
1070
    25
1002
}
  0
LINE
  5
190BC
330
19716
100
AcDbEntity
  8
YODOROGO
100
AcDbLine
 10
14882.80217064596
 20
953.874748214644
 30
0.0
 11
14808.80217064596
 21
953.874748214644
 31
0.0
1001
AUTOCAD_POSTSCRIPT_FIGURE
1002
{
1000
PSFILL
1000
Grayscale
1000
Grayscale
1070
    25
1002
}
  0
LINE
  5
190BD
330
19716
100
AcDbEntity
  8
YODOROGO
100
AcDbLine
 10
14882.80217064596
 20
973.8747482146436
 30
0.0
 11
14882.80217064596
 21
953.874748214644
 31
0.0
1001
AUTOCAD_POSTSCRIPT_FIGURE
1002
{
1000
PSFILL
1000
Grayscale
1000
Grayscale
1070
    25
1002
}
  0
LINE
  5
190BE
330
19716
100
AcDbEntity
  8
YODOROGO
100
AcDbLine
 10
14808.80217064596
 20
973.8747482146436
 30
0.0
 11
14882.80217064596
 21
973.8747482146436
 31
0.0
1001
AUTOCAD_POSTSCRIPT_FIGURE
1002
{
1000
PSFILL
1000
Grayscale
1000
Grayscale
1070
    25
1002
}
  0
LINE
  5
190BF
330
19716
100
AcDbEntity
  8
YODOROGO
100
AcDbLine
 10
14808.80217064596
 20
1013.874748214644
 30
0.0
 11
14808.80217064596
 21
973.8747482146436
 31
0.0
1001
AUTOCAD_POSTSCRIPT_FIGURE
1002
{
1000
PSFILL
1000
Grayscale
1000
Grayscale
1070
    25
1002
}
  0
LINE
  5
190C0
330
19716
100
AcDbEntity
  8
YODOROGO
100
AcDbLine
 10
14832.80217064596
 20
1013.874748214644
 30
0.0
 11
14808.80217064596
 21
1013.874748214644
 31
0.0
1001
AUTOCAD_POSTSCRIPT_FIGURE
1002
{
1000
PSFILL
1000
Grayscale
1000
Grayscale
1070
    25
1002
}
  0
LINE
  5
190C1
330
19716
100
AcDbEntity
  8
YODOROGO
100
AcDbLine
 10
14832.80217064596
 20
997.8747482146435
 30
0.0
 11
14832.80217064596
 21
1013.874748214644
 31
0.0
1001
AUTOCAD_POSTSCRIPT_FIGURE
1002
{
1000
PSFILL
1000
Grayscale
1000
Grayscale
1070
    25
1002
}
  0
LINE
  5
190C2
330
19716
100
AcDbEntity
  8
YODOROGO
100
AcDbLine
 10
14882.80217064596
 20
997.8747482146435
 30
0.0
 11
14832.80217064596
 21
997.8747482146435
 31
0.0
1001
AUTOCAD_POSTSCRIPT_FIGURE
1002
{
1000
PSFILL
1000
Grayscale
1000
Grayscale
1070
    25
1002
}
  0
LINE
  5
190C3
330
19716
100
AcDbEntity
  8
YODOROGO
100
AcDbLine
 10
14882.80217064596
 20
1013.874748214644
 30
0.0
 11
14882.80217064596
 21
997.8747482146435
 31
0.0
1001
AUTOCAD_POSTSCRIPT_FIGURE
1002
{
1000
PSFILL
1000
Grayscale
1000
Grayscale
1070
    25
1002
}
  0
LINE
  5
190C4
330
19716
100
AcDbEntity
  8
YODOROGO
100
AcDbLine
 10
14914.80217064596
 20
1013.874748214644
 30
0.0
 11
14882.80217064596
 21
1013.874748214644
 31
0.0
1001
AUTOCAD_POSTSCRIPT_FIGURE
1002
{
1000
PSFILL
1000
Grayscale
1000
Grayscale
1070
    25
1002
}
  0
LINE
  5
190C5
330
19716
100
AcDbEntity
  8
YODOROGO
100
AcDbLine
 10
14914.80217064596
 20
997.8747482146435
 30
0.0
 11
14914.80217064596
 21
1013.874748214644
 31
0.0
1001
AUTOCAD_POSTSCRIPT_FIGURE
1002
{
1000
PSFILL
1000
Grayscale
1000
Grayscale
1070
    25
1002
}
  0
LINE
  5
190C6
330
19716
100
AcDbEntity
  8
YODOROGO
100
AcDbLine
 10
14914.80217064596
 20
953.874748214644
 30
0.0
 11
14914.80217064596
 21
973.8747482146436
 31
0.0
1001
AUTOCAD_POSTSCRIPT_FIGURE
1002
{
1000
PSFILL
1000
Grayscale
1000
Grayscale
1070
    25
1002
}
  0
LINE
  5
190C7
330
19716
100
AcDbEntity
  8
YODOROGO
100
AcDbLine
 10
14914.80217064596
 20
909.8747482146439
 30
0.0
 11
14914.80217064596
 21
929.874748214644
 31
0.0
1001
AUTOCAD_POSTSCRIPT_FIGURE
1002
{
1000
PSFILL
1000
Grayscale
1000
Grayscale
1070
    25
1002
}
  0
LINE
  5
190C8
330
19716
100
AcDbEntity
  8
YODOROGO
100
AcDbLine
 10
14960.80217064594
 20
885.8747482146442
 30
0.0
 11
14960.80217064594
 21
853.8747482146439
 31
0.0
1001
AUTOCAD_POSTSCRIPT_FIGURE
1002
{
1000
PSFILL
1000
Grayscale
1000
Grayscale
1070
    25
1002
}
  0
LINE
  5
190C9
330
19716
100
AcDbEntity
  8
YODOROGO
100
AcDbLine
 10
14914.80217064596
 20
885.8747482146442
 30
0.0
 11
14960.80217064594
 21
885.8747482146442
 31
0.0
1001
AUTOCAD_POSTSCRIPT_FIGURE
1002
{
1000
PSFILL
1000
Grayscale
1000
Grayscale
1070
    25
1002
}
  0
LINE
  5
190CA
330
19716
100
AcDbEntity
  8
YODOROGO
100
AcDbLine
 10
14914.80217064596
 20
853.8747482146439
 30
0.0
 11
14914.80217064596
 21
885.8747482146442
 31
0.0
1001
AUTOCAD_POSTSCRIPT_FIGURE
1002
{
1000
PSFILL
1000
Grayscale
1000
Grayscale
1070
    25
1002
}
  0
LINE
  5
190CB
330
19716
100
AcDbEntity
  8
YODOROGO
100
AcDbLine
 10
14882.80217064596
 20
853.8747482146439
 30
0.0
 11
14914.80217064596
 21
853.8747482146439
 31
0.0
1001
AUTOCAD_POSTSCRIPT_FIGURE
1002
{
1000
PSFILL
1000
Grayscale
1000
Grayscale
1070
    25
1002
}
  0
LINE
  5
190CC
330
19716
100
AcDbEntity
  8
YODOROGO
100
AcDbLine
 10
14882.80217064596
 20
885.8747482146442
 30
0.0
 11
14882.80217064596
 21
853.8747482146439
 31
0.0
1001
AUTOCAD_POSTSCRIPT_FIGURE
1002
{
1000
PSFILL
1000
Grayscale
1000
Grayscale
1070
    25
1002
}
  0
LINE
  5
190CD
330
19716
100
AcDbEntity
  8
YODOROGO
100
AcDbLine
 10
14836.80217064596
 20
885.8747482146442
 30
0.0
 11
14882.80217064596
 21
885.8747482146442
 31
0.0
1001
AUTOCAD_POSTSCRIPT_FIGURE
1002
{
1000
PSFILL
1000
Grayscale
1000
Grayscale
1070
    25
1002
}
  0
ARC
  5
190CE
330
19716
100
AcDbEntity
  8
YODOROGO
100
AcDbCircle
 10
15529.75894667896
 20
801.3403687577882
 30
0.0
 40
89.11064055536078
100
AcDbArc
 50
281.0262749542535
 51
357.771135755738
  0
LINE
  5
190CF
330
19716
100
AcDbEntity
  8
YODOROGO
100
AcDbLine
 10
15706.80217064596
 20
953.874748214644
 30
0.0
 11
15582.80217064596
 21
953.874748214644
 31
0.0
  0
LINE
  5
190D0
330
19716
100
AcDbEntity
  8
YODOROGO
100
AcDbLine
 10
15706.80217064596
 20
1013.874748214644
 30
0.0
 11
15582.80217064596
 21
1013.874748214644
 31
0.0
  0
LINE
  5
190D1
330
19716
100
AcDbEntity
  8
YODOROGO
100
AcDbLine
 10
15582.80217064596
 20
981.8747482146434
 30
0.0
 11
15706.80217064596
 21
981.8747482146434
 31
0.0
  0
LINE
  5
190D2
330
19716
100
AcDbEntity
  8
YODOROGO
100
AcDbLine
 10
15395.80217064596
 20
781.8747482146434
 30
0.0
 11
15395.80217064596
 21
877.8747482146437
 31
0.0
  0
LINE
  5
190D3
330
19716
100
AcDbEntity
  8
YODOROGO
100
AcDbLine
 10
15381.80217064596
 20
845.8747482146444
 30
0.0
 11
15381.80217064596
 21
781.8747482146434
 31
0.0
  0
LINE
  5
190D4
330
19716
100
AcDbEntity
  8
YODOROGO
100
AcDbLine
 10
15361.80217064596
 20
745.8747482146443
 30
0.0
 11
15361.80217064596
 21
845.8747482146444
 31
0.0
  0
LINE
  5
190D5
330
19716
100
AcDbEntity
  8
YODOROGO
100
AcDbLine
 10
15449.80217064596
 20
845.8747482146444
 30
0.0
 11
15449.80217064596
 21
745.8747482146443
 31
0.0
  0
LINE
  5
190D6
330
19716
100
AcDbEntity
  8
YODOROGO
100
AcDbLine
 10
15429.80217064596
 20
781.8747482146434
 30
0.0
 11
15429.80217064596
 21
845.8747482146444
 31
0.0
  0
LINE
  5
190D7
330
19716
100
AcDbEntity
  8
YODOROGO
100
AcDbLine
 10
15415.80217064596
 20
877.8747482146437
 30
0.0
 11
15415.80217064596
 21
781.8747482146434
 31
0.0
  0
LINE
  5
190D8
330
19716
100
AcDbEntity
  8
YODOROGO
100
AcDbLine
 10
15486.80217064596
 20
1013.874748214644
 30
0.0
 11
15486.80217064596
 21
733.8747482146437
 31
0.0
  0
LINE
  5
190D9
330
19716
100
AcDbEntity
  8
YODOROGO
100
AcDbLine
 10
15322.80217064596
 20
713.8747482146436
 30
0.0
 11
15322.80217064596
 21
1013.874748214644
 31
0.0
  0
LINE
  5
190DA
330
19716
100
AcDbEntity
  8
YODOROGO
100
AcDbLine
 10
15348.80217064596
 20
981.8747482146434
 30
0.0
 11
15348.80217064596
 21
713.8747482146436
 31
0.0
  0
LINE
  5
190DB
330
19716
100
AcDbEntity
  8
YODOROGO
100
AcDbLine
 10
15462.80217064596
 20
773.8747482146439
 30
0.0
 11
15462.80217064596
 21
981.8747482146434
 31
0.0
  0
LINE
  5
190DC
330
19716
100
AcDbEntity
  8
YODOROGO
100
AcDbLine
 10
15190.80217064596
 20
813.8747482146436
 30
0.0
 11
15190.80217064596
 21
839.8747482146443
 31
0.0
  0
LINE
  5
190DD
330
19716
100
AcDbEntity
  8
YODOROGO
100
AcDbLine
 10
15308.80217064596
 20
839.8747482146443
 30
0.0
 11
15308.80217064596
 21
813.8747482146436
 31
0.0
  0
LINE
  5
190DE
330
19716
100
AcDbEntity
  8
YODOROGO
100
AcDbLine
 10
15582.80217064596
 20
953.874748214644
 30
0.0
 11
15582.80217064596
 21
817.8747482146436
 31
0.0
  0
LINE
  5
190DF
330
19716
100
AcDbEntity
  8
YODOROGO
100
AcDbLine
 10
14974.80217064595
 20
833.8747482146439
 30
0.0
 11
14974.80217064595
 21
853.8747482146439
 31
0.0
  0
LINE
  5
190E0
330
19716
100
AcDbEntity
  8
YODOROGO
100
AcDbLine
 10
14974.80217064595
 20
833.8747482146439
 30
0.0
 11
14974.80217064595
 21
853.8747482146439
 31
0.0
  0
ARC
  5
190E1
330
19716
100
AcDbEntity
  8
YODOROGO
100
AcDbCircle
 10
15268.80217064596
 20
753.8747482146439
 30
0.0
 40
40.0
100
AcDbArc
 50
270.0
 51
0.0
  0
LINE
  5
190E2
330
19716
100
AcDbEntity
  8
YODOROGO
100
AcDbLine
 10
15284.80217064596
 20
799.8747482146441
 30
0.0
 11
15308.80217064596
 21
799.8747482146441
 31
0.0
  0
LINE
  5
190E3
330
19716
100
AcDbEntity
  8
YODOROGO
100
AcDbLine
 10
15308.80217064596
 20
813.8747482146436
 30
0.0
 11
15264.80217064596
 21
813.8747482146436
 31
0.0
  0
LINE
  5
190E4
330
19716
100
AcDbEntity
  8
YODOROGO
100
AcDbLine
 10
15108.80217064596
 20
833.8747482146439
 30
0.0
 11
14974.80217064595
 21
833.8747482146439
 31
0.0
  0
LINE
  5
190E5
330
19716
100
AcDbEntity
  8
YODOROGO
100
AcDbLine
 10
15108.80217064596
 20
813.8747482146436
 30
0.0
 11
15108.80217064596
 21
833.8747482146439
 31
0.0
  0
LINE
  5
190E6
330
19716
100
AcDbEntity
  8
YODOROGO
100
AcDbLine
 10
15008.80217064596
 20
813.8747482146436
 30
0.0
 11
15108.80217064596
 21
813.8747482146436
 31
0.0
  0
ARC
  5
190E7
330
19716
100
AcDbEntity
  8
YODOROGO
100
AcDbCircle
 10
15115.02941435068
 20
934.4428574764513
 30
0.0
 40
160.6888181426141
100
AcDbArc
 50
228.6181454618993
 51
245.660289248906
  0
LINE
  5
190E8
330
19716
100
AcDbEntity
  8
YODOROGO
100
AcDbLine
 10
15052.80217064596
 20
801.8747482146446
 30
0.0
 11
15048.80217064598
 21
788.0364079349501
 31
0.0
  0
LINE
  5
190E9
330
19716
100
AcDbEntity
  8
YODOROGO
100
AcDbLine
 10
15094.80217064596
 20
801.8747482146446
 30
0.0
 11
15052.80217064596
 21
801.8747482146446
 31
0.0
  0
LINE
  5
190EA
330
19716
100
AcDbEntity
  8
YODOROGO
100
AcDbLine
 10
15088.80217064596
 20
775.9088612367134
 30
0.0
 11
15094.80217064596
 21
801.8747482146446
 31
0.0
  0
ARC
  5
190EB
330
19716
100
AcDbEntity
  8
YODOROGO
100
AcDbCircle
 10
15115.02941435023
 20
934.4428574765013
 30
0.0
 40
160.6888181426453
100
AcDbArc
 50
260.6062929796993
 51
267.7790355655585
  0
LINE
  5
190EC
330
19716
100
AcDbEntity
  8
YODOROGO
100
AcDbLine
 10
15108.80217064596
 20
713.8747482146428
 30
0.0
 11
15108.80217064596
 21
773.8747482146439
 31
0.0
  0
LINE
  5
190ED
330
19716
100
AcDbEntity
  8
YODOROGO
100
AcDbLine
 10
14968.80217064596
 20
740.6696674577553
 30
0.0
 11
14968.80217064596
 21
797.2655452655707
 31
0.0
  0
LINE
  5
190EE
330
19716
100
AcDbEntity
  8
YODOROGO
100
AcDbLine
 10
15108.80217064596
 20
833.8747482146439
 30
0.0
 11
14974.80217064595
 21
833.8747482146439
 31
0.0
  0
LINE
  5
190EF
330
19716
100
AcDbEntity
  8
YODOROGO
100
AcDbLine
 10
15108.80217064596
 20
813.8747482146436
 30
0.0
 11
15108.80217064596
 21
833.8747482146439
 31
0.0
  0
LINE
  5
190F0
330
19716
100
AcDbEntity
  8
YODOROGO
100
AcDbLine
 10
15008.80217064596
 20
813.8747482146436
 30
0.0
 11
15108.80217064596
 21
813.8747482146436
 31
0.0
  0
ARC
  5
190F1
330
19716
100
AcDbEntity
  8
YODOROGO
100
AcDbCircle
 10
15115.02941435068
 20
934.4428574764513
 30
0.0
 40
160.6888181426141
100
AcDbArc
 50
228.6181454618993
 51
245.660289248906
  0
LINE
  5
190F2
330
19716
100
AcDbEntity
  8
YODOROGO
100
AcDbLine
 10
15052.80217064596
 20
801.8747482146446
 30
0.0
 11
15048.80217064598
 21
788.0364079349501
 31
0.0
  0
LINE
  5
190F3
330
19716
100
AcDbEntity
  8
YODOROGO
100
AcDbLine
 10
15094.80217064596
 20
801.8747482146446
 30
0.0
 11
15052.80217064596
 21
801.8747482146446
 31
0.0
  0
LINE
  5
190F4
330
19716
100
AcDbEntity
  8
YODOROGO
100
AcDbLine
 10
15088.80217064596
 20
775.9088612367134
 30
0.0
 11
15094.80217064596
 21
801.8747482146446
 31
0.0
  0
ARC
  5
190F5
330
19716
100
AcDbEntity
  8
YODOROGO
100
AcDbCircle
 10
15115.02941435023
 20
934.4428574765013
 30
0.0
 40
160.6888181426453
100
AcDbArc
 50
260.6062929796993
 51
267.7790355655585
  0
LINE
  5
190F6
330
19716
100
AcDbEntity
  8
YODOROGO
100
AcDbLine
 10
15108.80217064596
 20
713.8747482146428
 30
0.0
 11
15108.80217064596
 21
773.8747482146439
 31
0.0
  0
LINE
  5
190F7
330
19716
100
AcDbEntity
  8
YODOROGO
100
AcDbLine
 10
14968.80217064596
 20
740.6696674577553
 30
0.0
 11
14968.80217064596
 21
797.2655452655707
 31
0.0
  0
LINE
  5
190F8
330
19716
100
AcDbEntity
  8
YODOROGO
100
AcDbLine
 10
15216.80217064596
 20
786.8747482146446
 30
0.0
 11
15190.80217064596
 21
786.8747482146446
 31
0.0
  0
LINE
  5
190F9
330
19716
100
AcDbEntity
  8
YODOROGO
100
AcDbLine
 10
15216.80217064596
 20
800.8747482146432
 30
0.0
 11
15216.80217064596
 21
786.8747482146446
 31
0.0
  0
LINE
  5
190FA
330
19716
100
AcDbEntity
  8
YODOROGO
100
AcDbLine
 10
15190.80217064596
 20
800.8747482146432
 30
0.0
 11
15216.80217064596
 21
800.8747482146432
 31
0.0
  0
LINE
  5
190FB
330
19716
100
AcDbEntity
  8
YODOROGO
100
AcDbLine
 10
15190.80217064596
 20
786.8747482146446
 30
0.0
 11
15190.80217064596
 21
800.8747482146432
 31
0.0
  0
LINE
  5
190FC
330
19716
100
AcDbEntity
  8
YODOROGO
100
AcDbLine
 10
15214.80217064596
 20
788.8747482146436
 30
0.0
 11
15192.80217064595
 21
788.8747482146436
 31
0.0
  0
LINE
  5
190FD
330
19716
100
AcDbEntity
  8
YODOROGO
100
AcDbLine
 10
15214.80217064596
 20
798.8747482146439
 30
0.0
 11
15214.80217064596
 21
788.8747482146436
 31
0.0
  0
LINE
  5
190FE
330
19716
100
AcDbEntity
  8
YODOROGO
100
AcDbLine
 10
15192.80217064595
 20
798.8747482146439
 30
0.0
 11
15214.80217064596
 21
798.8747482146439
 31
0.0
  0
LINE
  5
190FF
330
19716
100
AcDbEntity
  8
YODOROGO
100
AcDbLine
 10
15192.80217064595
 20
788.8747482146436
 30
0.0
 11
15192.80217064595
 21
798.8747482146439
 31
0.0
  0
LINE
  5
19100
330
19716
100
AcDbEntity
  8
YODOROGO
100
AcDbLine
 10
15212.80217064596
 20
790.8747482146432
 30
0.0
 11
15194.80217064596
 21
790.8747482146432
 31
0.0
  0
LINE
  5
19101
330
19716
100
AcDbEntity
  8
YODOROGO
100
AcDbLine
 10
15212.80217064596
 20
796.8747482146445
 30
0.0
 11
15212.80217064596
 21
790.8747482146432
 31
0.0
  0
LINE
  5
19102
330
19716
100
AcDbEntity
  8
YODOROGO
100
AcDbLine
 10
15194.80217064596
 20
796.8747482146445
 30
0.0
 11
15212.80217064596
 21
796.8747482146445
 31
0.0
  0
LINE
  5
19103
330
19716
100
AcDbEntity
  8
YODOROGO
100
AcDbLine
 10
15194.80217064596
 20
790.8747482146432
 30
0.0
 11
15194.80217064596
 21
796.8747482146445
 31
0.0
  0
LINE
  5
19104
330
19716
100
AcDbEntity
  8
YODOROGO
100
AcDbLine
 10
15210.80217064596
 20
792.8747482146435
 30
0.0
 11
15196.80217064596
 21
792.8747482146435
 31
0.0
  0
LINE
  5
19105
330
19716
100
AcDbEntity
  8
YODOROGO
100
AcDbLine
 10
15210.80217064596
 20
794.8747482146441
 30
0.0
 11
15210.80217064596
 21
792.8747482146435
 31
0.0
  0
LINE
  5
19106
330
19716
100
AcDbEntity
  8
YODOROGO
100
AcDbLine
 10
15196.80217064596
 20
794.8747482146441
 30
0.0
 11
15210.80217064596
 21
794.8747482146441
 31
0.0
  0
LINE
  5
19107
330
19716
100
AcDbEntity
  8
YODOROGO
100
AcDbLine
 10
15196.80217064596
 20
792.8747482146435
 30
0.0
 11
15196.80217064596
 21
794.8747482146441
 31
0.0
  0
LINE
  5
19108
330
19716
100
AcDbEntity
  8
YODOROGO
100
AcDbLine
 10
15232.80217064596
 20
813.8747482146436
 30
0.0
 11
15190.80217064596
 21
813.8747482146436
 31
0.0
  0
LINE
  5
19109
330
19716
100
AcDbEntity
  8
YODOROGO
100
AcDbLine
 10
15232.80217064596
 20
773.8747482146439
 30
0.0
 11
15232.80217064596
 21
813.8747482146436
 31
0.0
  0
LINE
  5
1910A
330
19716
100
AcDbEntity
  8
YODOROGO
100
AcDbLine
 10
15190.80217064596
 20
773.8747482146439
 30
0.0
 11
15232.80217064596
 21
773.8747482146439
 31
0.0
  0
LINE
  5
1910B
330
19716
100
AcDbEntity
  8
YODOROGO
100
AcDbLine
 10
15190.80217064596
 20
713.8747482146436
 30
0.0
 11
15190.80217064596
 21
773.8747482146439
 31
0.0
  0
LINE
  5
1910C
330
19716
100
AcDbEntity
  8
YODOROGO
100
AcDbLine
 10
15268.80217064596
 20
713.8747482146436
 30
0.0
 11
15190.80217064596
 21
713.8747482146436
 31
0.0
  0
LINE
  5
1910D
330
19716
100
AcDbEntity
  8
YODOROGO
100
AcDbLine
 10
15284.80217064596
 20
785.8747482146432
 30
0.0
 11
15284.80217064596
 21
799.8747482146441
 31
0.0
  0
ARC
  5
1910E
330
19716
100
AcDbEntity
  8
YODOROGO
100
AcDbCircle
 10
15272.80217064594
 20
785.8747482146457
 30
0.0
 40
12.00000000000186
100
AcDbArc
 50
270.0
 51
359.9999999999877
  0
LINE
  5
1910F
330
19716
100
AcDbEntity
  8
YODOROGO
100
AcDbLine
 10
15264.80217064596
 20
773.8747482146439
 30
0.0
 11
15272.80217064594
 21
773.8747482146439
 31
0.0
  0
LINE
  5
19110
330
19716
100
AcDbEntity
  8
YODOROGO
100
AcDbLine
 10
15264.80217064596
 20
813.8747482146436
 30
0.0
 11
15264.80217064596
 21
773.8747482146439
 31
0.0
  0
LINE
  5
19111
330
19716
100
AcDbEntity
  8
YODOROGO
100
AcDbLine
 10
15449.80217064597
 20
773.8747482146439
 30
0.0
 11
15462.80217064596
 21
773.8747482146439
 31
0.0
  0
LINE
  5
19112
330
19716
100
AcDbEntity
  8
YODOROGO
100
AcDbLine
 10
15466.80217064596
 20
713.8747482146436
 30
0.0
 11
15449.80217064596
 21
713.8747482146436
 31
0.0
  0
LINE
  5
19113
330
19716
100
AcDbEntity
  8
YODOROGO
100
AcDbLine
 10
15381.80217064596
 20
781.8747482146434
 30
0.0
 11
15395.80217064596
 21
781.8747482146434
 31
0.0
  0
LINE
  5
19114
330
19716
100
AcDbEntity
  8
YODOROGO
100
AcDbLine
 10
15449.80217064596
 20
745.8747482146443
 30
0.0
 11
15361.80217064596
 21
745.8747482146443
 31
0.0
  0
LINE
  5
19115
330
19716
100
AcDbEntity
  8
YODOROGO
100
AcDbLine
 10
15415.80217064596
 20
781.8747482146434
 30
0.0
 11
15429.80217064596
 21
781.8747482146434
 31
0.0
  0
LINE
  5
19116
330
19716
100
AcDbEntity
  8
YODOROGO
100
AcDbLine
 10
15449.80217064596
 20
713.8747482146436
 30
0.0
 11
15449.80217064597
 21
773.8747482146439
 31
0.0
  0
LINE
  5
19117
330
19716
100
AcDbEntity
  8
YODOROGO
100
AcDbLine
 10
15348.80217064596
 20
713.8747482146436
 30
0.0
 11
15322.80217064596
 21
713.8747482146436
 31
0.0
  0
LINE
  5
19118
330
19716
100
AcDbEntity
  8
YODOROGO
100
AcDbLine
 10
15308.80217064596
 20
799.8747482146441
 30
0.0
 11
15308.80217064596
 21
753.8747482146439
 31
0.0
  0
ARC
  5
19119
330
19716
100
AcDbEntity
  8
YODOROGO
100
AcDbCircle
 10
15466.80217064596
 20
733.8747482146437
 30
0.0
 40
20.0
100
AcDbArc
 50
270.0
 51
0.0
  0
LINE
  5
1911A
330
19716
100
AcDbEntity
  8
YODOROGO
100
AcDbLine
 10
15546.80217064596
 20
761.8747482146434
 30
0.0
 11
15546.80217064596
 21
713.8747482146436
 31
0.0
  0
ARC
  5
1911B
330
19716
100
AcDbEntity
  8
YODOROGO
100
AcDbCircle
 10
15519.86069778339
 20
818.7656950548667
 30
0.0
 40
62.94777829583771
100
AcDbArc
 50
295.3405244216011
 51
359.1890230341867
  0
LINE
  5
1911C
330
19716
100
AcDbEntity
  8
YODOROGO
100
AcDbLine
 10
15308.80217064596
 20
929.874748214644
 30
0.0
 11
15248.80217064596
 21
969.8747482146441
 31
0.0
  0
LINE
  5
1911D
330
19716
100
AcDbEntity
  8
YODOROGO
100
AcDbLine
 10
15248.80217064596
 20
1013.874748214644
 30
0.0
 11
15308.80217064596
 21
973.8747482146436
 31
0.0
  0
LINE
  5
1911E
330
19716
100
AcDbEntity
  8
YODOROGO
100
AcDbLine
 10
15264.80217064596
 20
839.8747482146443
 30
0.0
 11
15308.80217064596
 21
839.8747482146443
 31
0.0
  0
LINE
  5
1911F
330
19716
100
AcDbEntity
  8
YODOROGO
100
AcDbLine
 10
15308.80217064596
 20
867.8747482146436
 30
0.0
 11
15264.80217064596
 21
867.8747482146436
 31
0.0
  0
LINE
  5
19120
330
19716
100
AcDbEntity
  8
YODOROGO
100
AcDbLine
 10
15190.80217064596
 20
897.8747482146435
 30
0.0
 11
15308.80217064596
 21
897.8747482146435
 31
0.0
  0
LINE
  5
19121
330
19716
100
AcDbEntity
  8
YODOROGO
100
AcDbLine
 10
15040.80217064596
 20
1013.874748214644
 30
0.0
 11
15010.80217064596
 21
1013.874748214644
 31
0.0
  0
LINE
  5
19122
330
19716
100
AcDbEntity
  8
YODOROGO
100
AcDbLine
 10
15040.80217064596
 20
913.8747482146436
 30
0.0
 11
15040.80217064596
 21
1013.874748214644
 31
0.0
  0
LINE
  5
19123
330
19716
100
AcDbEntity
  8
YODOROGO
100
AcDbLine
 10
15010.80217064596
 20
913.8747482146436
 30
0.0
 11
15040.80217064596
 21
913.8747482146436
 31
0.0
  0
LINE
  5
19124
330
19716
100
AcDbEntity
  8
YODOROGO
100
AcDbLine
 10
15010.80217064596
 20
1013.874748214644
 30
0.0
 11
15010.80217064596
 21
913.8747482146436
 31
0.0
  0
LINE
  5
19125
330
19716
100
AcDbEntity
  8
YODOROGO
100
AcDbLine
 10
15080.80217064596
 20
1013.874748214644
 30
0.0
 11
15108.80217064596
 21
1013.874748214644
 31
0.0
  0
LINE
  5
19126
330
19716
100
AcDbEntity
  8
YODOROGO
100
AcDbLine
 10
15080.80217064596
 20
905.8747482146443
 30
0.0
 11
15080.80217064596
 21
1013.874748214644
 31
0.0
  0
ARC
  5
19127
330
19716
100
AcDbEntity
  8
YODOROGO
100
AcDbCircle
 10
15060.80217064596
 20
905.8747482146443
 30
0.0
 40
20.0
100
AcDbArc
 50
270.0
 51
0.0
  0
LINE
  5
19128
330
19716
100
AcDbEntity
  8
YODOROGO
100
AcDbLine
 10
15010.80217064596
 20
885.8747482146442
 30
0.0
 11
15060.80217064596
 21
885.8747482146442
 31
0.0
  0
LINE
  5
19129
330
19716
100
AcDbEntity
  8
YODOROGO
100
AcDbLine
 10
15010.80217064596
 20
853.8747482146439
 30
0.0
 11
15010.80217064596
 21
885.8747482146442
 31
0.0
  0
LINE
  5
1912A
330
19716
100
AcDbEntity
  8
YODOROGO
100
AcDbLine
 10
15068.80217064596
 20
853.8747482146439
 30
0.0
 11
15010.80217064596
 21
853.8747482146439
 31
0.0
  0
ARC
  5
1912B
330
19716
100
AcDbEntity
  8
YODOROGO
100
AcDbCircle
 10
15068.80217064596
 20
893.8747482146439
 30
0.0
 40
40.0
100
AcDbArc
 50
270.0
 51
0.0
  0
LINE
  5
1912C
330
19716
100
AcDbEntity
  8
YODOROGO
100
AcDbLine
 10
15108.80217064596
 20
1013.874748214644
 30
0.0
 11
15108.80217064596
 21
893.8747482146439
 31
0.0
  0
LINE
  5
1912D
330
19716
100
AcDbEntity
  8
YODOROGO
100
AcDbLine
 10
14988.80217064596
 20
973.8747482146436
 30
0.0
 11
14988.80217064596
 21
997.8747482146435
 31
0.0
1001
AUTOCAD_POSTSCRIPT_FIGURE
1002
{
1000
PSFILL
1000
Grayscale
1000
Grayscale
1070
    25
1002
}
  0
LINE
  5
1912E
330
19716
100
AcDbEntity
  8
YODOROGO
100
AcDbLine
 10
14988.80217064596
 20
929.874748214644
 30
0.0
 11
14988.80217064596
 21
953.874748214644
 31
0.0
1001
AUTOCAD_POSTSCRIPT_FIGURE
1002
{
1000
PSFILL
1000
Grayscale
1000
Grayscale
1070
    25
1002
}
  0
LINE
  5
1912F
330
19716
100
AcDbEntity
  8
YODOROGO
100
AcDbLine
 10
14988.80217064596
 20
853.8747482146439
 30
0.0
 11
14988.80217064596
 21
909.8747482146439
 31
0.0
1001
AUTOCAD_POSTSCRIPT_FIGURE
1002
{
1000
PSFILL
1000
Grayscale
1000
Grayscale
1070
    25
1002
}
  0
LINE
  5
19130
330
19716
100
AcDbEntity
  8
YODOROGO
100
AcDbLine
 10
15190.80217064596
 20
953.874748214644
 30
0.0
 11
15248.80217064596
 21
1013.874748214644
 31
0.0
  0
LINE
  5
19131
330
19716
100
AcDbEntity
  8
YODOROGO
100
AcDbLine
 10
15190.80217064596
 20
909.8747482146439
 30
0.0
 11
15190.80217064596
 21
953.874748214644
 31
0.0
  0
LINE
  5
19132
330
19716
100
AcDbEntity
  8
YODOROGO
100
AcDbLine
 10
15248.80217064596
 20
969.8747482146441
 30
0.0
 11
15190.80217064596
 21
909.8747482146439
 31
0.0
  0
LINE
  5
19133
330
19716
100
AcDbEntity
  8
YODOROGO
100
AcDbLine
 10
15232.80217064596
 20
839.8747482146443
 30
0.0
 11
15232.80217064596
 21
867.8747482146436
 31
0.0
  0
LINE
  5
19134
330
19716
100
AcDbEntity
  8
YODOROGO
100
AcDbLine
 10
15190.80217064596
 20
839.8747482146443
 30
0.0
 11
15232.80217064596
 21
839.8747482146443
 31
0.0
  0
LINE
  5
19135
330
19716
100
AcDbEntity
  8
YODOROGO
100
AcDbLine
 10
15264.80217064596
 20
867.8747482146436
 30
0.0
 11
15264.80217064596
 21
839.8747482146443
 31
0.0
  0
LINE
  5
19136
330
19716
100
AcDbEntity
  8
YODOROGO
100
AcDbLine
 10
15190.80217064596
 20
867.8747482146436
 30
0.0
 11
15190.80217064596
 21
897.8747482146435
 31
0.0
  0
LINE
  5
19137
330
19716
100
AcDbEntity
  8
YODOROGO
100
AcDbLine
 10
15232.80217064596
 20
867.8747482146436
 30
0.0
 11
15190.80217064596
 21
867.8747482146436
 31
0.0
  0
LINE
  5
19138
330
19716
100
AcDbEntity
  8
YODOROGO
100
AcDbLine
 10
15322.80217064596
 20
1013.874748214644
 30
0.0
 11
15486.80217064596
 21
1013.874748214644
 31
0.0
  0
LINE
  5
19139
330
19716
100
AcDbEntity
  8
YODOROGO
100
AcDbLine
 10
15462.80217064596
 20
981.8747482146434
 30
0.0
 11
15348.80217064596
 21
981.8747482146434
 31
0.0
  0
LINE
  5
1913A
330
19716
100
AcDbEntity
  8
YODOROGO
100
AcDbLine
 10
15436.80217064595
 20
909.8747482146439
 30
0.0
 11
15449.80217064596
 21
909.8747482146439
 31
0.0
  0
LINE
  5
1913B
330
19716
100
AcDbEntity
  8
YODOROGO
100
AcDbLine
 10
15449.80217064596
 20
969.8747482146441
 30
0.0
 11
15436.80217064595
 21
909.8747482146439
 31
0.0
  0
LINE
  5
1913C
330
19716
100
AcDbEntity
  8
YODOROGO
100
AcDbLine
 10
15425.80217064596
 20
969.8747482146441
 30
0.0
 11
15449.80217064596
 21
969.8747482146441
 31
0.0
  0
LINE
  5
1913D
330
19716
100
AcDbEntity
  8
YODOROGO
100
AcDbLine
 10
15412.80217064596
 20
909.8747482146439
 30
0.0
 11
15425.80217064596
 21
969.8747482146441
 31
0.0
  0
LINE
  5
1913E
330
19716
100
AcDbEntity
  8
YODOROGO
100
AcDbLine
 10
15398.80217064596
 20
909.8747482146439
 30
0.0
 11
15412.80217064596
 21
909.8747482146439
 31
0.0
  0
LINE
  5
1913F
330
19716
100
AcDbEntity
  8
YODOROGO
100
AcDbLine
 10
15385.80217064596
 20
969.8747482146441
 30
0.0
 11
15398.80217064596
 21
909.8747482146439
 31
0.0
  0
LINE
  5
19140
330
19716
100
AcDbEntity
  8
YODOROGO
100
AcDbLine
 10
15361.80217064596
 20
969.8747482146441
 30
0.0
 11
15385.80217064596
 21
969.8747482146441
 31
0.0
  0
LINE
  5
19141
330
19716
100
AcDbEntity
  8
YODOROGO
100
AcDbLine
 10
15374.80217064596
 20
909.8747482146439
 30
0.0
 11
15361.80217064596
 21
969.8747482146441
 31
0.0
  0
LINE
  5
19142
330
19716
100
AcDbEntity
  8
YODOROGO
100
AcDbLine
 10
15361.80217064596
 20
909.8747482146439
 30
0.0
 11
15374.80217064596
 21
909.8747482146439
 31
0.0
  0
LINE
  5
19143
330
19716
100
AcDbEntity
  8
YODOROGO
100
AcDbLine
 10
15361.80217064596
 20
877.8747482146437
 30
0.0
 11
15361.80217064596
 21
909.8747482146439
 31
0.0
  0
LINE
  5
19144
330
19716
100
AcDbEntity
  8
YODOROGO
100
AcDbLine
 10
15449.80217064596
 20
877.8747482146437
 30
0.0
 11
15361.80217064596
 21
877.8747482146437
 31
0.0
  0
LINE
  5
19145
330
19716
100
AcDbEntity
  8
YODOROGO
100
AcDbLine
 10
15449.80217064596
 20
909.8747482146439
 30
0.0
 11
15449.80217064596
 21
877.8747482146437
 31
0.0
  0
LINE
  5
19146
330
19716
100
AcDbEntity
  8
YODOROGO
100
AcDbLine
 10
15308.80217064596
 20
973.8747482146436
 30
0.0
 11
15308.80217064596
 21
929.874748214644
 31
0.0
  0
LINE
  5
19147
330
19716
100
AcDbEntity
  8
YODOROGO
100
AcDbLine
 10
15395.80217064596
 20
877.8747482146437
 30
0.0
 11
15415.80217064596
 21
877.8747482146437
 31
0.0
  0
LINE
  5
19148
330
19716
100
AcDbEntity
  8
YODOROGO
100
AcDbLine
 10
15361.80217064596
 20
845.8747482146444
 30
0.0
 11
15381.80217064596
 21
845.8747482146444
 31
0.0
  0
LINE
  5
19149
330
19716
100
AcDbEntity
  8
YODOROGO
100
AcDbLine
 10
15429.80217064596
 20
845.8747482146444
 30
0.0
 11
15449.80217064596
 21
845.8747482146444
 31
0.0
  0
LINE
  5
1914A
330
19716
100
AcDbEntity
  8
YODOROGO
100
AcDbLine
 10
15308.80217064596
 20
897.8747482146435
 30
0.0
 11
15308.80217064596
 21
867.8747482146436
 31
0.0
  0
LINE
  5
1914B
330
19716
100
AcDbEntity
  8
YODOROGO
100
AcDbLine
 10
15582.80217064596
 20
1013.874748214644
 30
0.0
 11
15582.80217064596
 21
981.8747482146434
 31
0.0
  0
LINE
  5
1914C
330
19716
100
AcDbEntity
  8
YODOROGO
100
AcDbLine
 10
15766.80217064596
 20
797.8747482146435
 30
0.0
 11
15766.80217064595
 21
905.8747482146443
 31
0.0
  0
LINE
  5
1914D
330
19716
100
AcDbEntity
  8
YODOROGO
100
AcDbLine
 10
15730.80217064594
 20
993.8747482146439
 30
0.0
 11
15730.80217064594
 21
817.8747482146436
 31
0.0
  0
LINE
  5
1914E
330
19716
100
AcDbEntity
  8
YODOROGO
100
AcDbLine
 10
15826.80217064596
 20
713.8747482146436
 30
0.0
 11
15826.80217064595
 21
905.8747482146443
 31
0.0
  0
LINE
  5
1914F
330
19716
100
AcDbEntity
  8
YODOROGO
100
AcDbLine
 10
15794.80217064596
 20
905.8747482146443
 30
0.0
 11
15794.80217064596
 21
713.8747482146436
 31
0.0
  0
LINE
  5
19150
330
19716
100
AcDbEntity
  8
YODOROGO
100
AcDbLine
 10
15618.80217064596
 20
797.8747482146435
 30
0.0
 11
15618.80217064596
 21
853.8747482146439
 31
0.0
  0
ARC
  5
19151
330
19716
100
AcDbEntity
  8
YODOROGO
100
AcDbCircle
 10
15676.95743255803
 20
803.8951756442788
 30
0.0
 40
90.04622428799429
100
AcDbArc
 50
268.6284910216979
 51
356.1663845733032
  0
LINE
  5
19152
330
19716
100
AcDbEntity
  8
YODOROGO
100
AcDbLine
 10
15674.80217064596
 20
763.8747482146436
 30
0.0
 11
15674.80217064596
 21
713.8747482146436
 31
0.0
  0
ARC
  5
19153
330
19716
100
AcDbEntity
  8
YODOROGO
100
AcDbCircle
 10
15675.75903786228
 20
818.9194785088275
 30
0.0
 40
55.05304649180608
100
AcDbArc
 50
269.0041020930593
 51
358.9126445549248
  0
LINE
  5
19154
330
19716
100
AcDbEntity
  8
YODOROGO
100
AcDbLine
 10
15794.80217064596
 20
713.8747482146436
 30
0.0
 11
15826.80217064596
 21
713.8747482146436
 31
0.0
  0
LINE
  5
19155
330
19716
100
AcDbEntity
  8
YODOROGO
100
AcDbLine
 10
15766.80217064595
 20
905.8747482146443
 30
0.0
 11
15794.80217064596
 21
905.8747482146443
 31
0.0
  0
LINE
  5
19156
330
19716
100
AcDbEntity
  8
YODOROGO
100
AcDbLine
 10
15810.80217064596
 20
993.8747482146439
 30
0.0
 11
15730.80217064594
 21
993.8747482146439
 31
0.0
  0
LINE
  5
19157
330
19716
100
AcDbEntity
  8
YODOROGO
100
AcDbLine
 10
15766.80217064595
 20
957.8747482146436
 30
0.0
 11
15830.80217064596
 21
957.8747482146436
 31
0.0
  0
LINE
  5
19158
330
19716
100
AcDbEntity
  8
YODOROGO
100
AcDbLine
 10
15850.80217064596
 20
937.8747482146435
 30
0.0
 11
15766.80217064595
 21
937.8747482146435
 31
0.0
  0
LINE
  5
19159
330
19716
100
AcDbEntity
  8
YODOROGO
100
AcDbLine
 10
15618.80217064596
 20
889.8747482146443
 30
0.0
 11
15674.80217064596
 21
889.8747482146443
 31
0.0
  0
LINE
  5
1915A
330
19716
100
AcDbEntity
  8
YODOROGO
100
AcDbLine
 10
15618.80217064596
 20
917.8747482146436
 30
0.0
 11
15618.80217064596
 21
889.8747482146443
 31
0.0
  0
LINE
  5
1915B
330
19716
100
AcDbEntity
  8
YODOROGO
100
AcDbLine
 10
15674.80217064596
 20
917.8747482146436
 30
0.0
 11
15618.80217064596
 21
917.8747482146436
 31
0.0
  0
LINE
  5
1915C
330
19716
100
AcDbEntity
  8
YODOROGO
100
AcDbLine
 10
15674.80217064596
 20
889.8747482146443
 30
0.0
 11
15674.80217064596
 21
917.8747482146436
 31
0.0
  0
LINE
  5
1915D
330
19716
100
AcDbEntity
  8
YODOROGO
100
AcDbLine
 10
15766.80217064595
 20
937.8747482146435
 30
0.0
 11
15766.80217064595
 21
957.8747482146436
 31
0.0
  0
LINE
  5
1915E
330
19716
100
AcDbEntity
  8
YODOROGO
100
AcDbLine
 10
15706.80217064596
 20
853.8747482146439
 30
0.0
 11
15706.80217064596
 21
953.874748214644
 31
0.0
  0
LINE
  5
1915F
330
19716
100
AcDbEntity
  8
YODOROGO
100
AcDbLine
 10
15618.80217064596
 20
853.8747482146439
 30
0.0
 11
15706.80217064596
 21
853.8747482146439
 31
0.0
  0
LINE
  5
19160
330
19716
100
AcDbEntity
  8
YODOROGO
100
AcDbLine
 10
15706.80217064596
 20
981.8747482146434
 30
0.0
 11
15706.80217064596
 21
1013.874748214644
 31
0.0
  0
ARC
  5
19161
330
19716
100
AcDbEntity
  8
YODOROGO
100
AcDbCircle
 10
15810.80217064596
 20
1001.874748214642
 30
0.0
 40
7.999999999997271
100
AcDbArc
 50
270.0
 51
0.0000000000081422
  0
LINE
  5
19162
330
19716
100
AcDbEntity
  8
YODOROGO
100
AcDbLine
 10
15818.80217064596
 20
1013.874748214644
 30
0.0
 11
15818.80217064596
 21
1001.874748214643
 31
0.0
  0
LINE
  5
19163
330
19716
100
AcDbEntity
  8
YODOROGO
100
AcDbLine
 10
15850.80217064596
 20
1013.874748214644
 30
0.0
 11
15818.80217064596
 21
1013.874748214644
 31
0.0
  0
LINE
  5
19164
330
19716
100
AcDbEntity
  8
YODOROGO
100
AcDbLine
 10
15850.80217064596
 20
977.8747482146435
 30
0.0
 11
15850.80217064596
 21
1013.874748214644
 31
0.0
  0
ARC
  5
19165
330
19716
100
AcDbEntity
  8
YODOROGO
100
AcDbCircle
 10
15830.80217064596
 20
977.8747482146435
 30
0.0
 40
20.0
100
AcDbArc
 50
270.0
 51
0.0
  0
LINE
  5
19166
330
19716
100
AcDbEntity
  8
YODOROGO
100
AcDbLine
 10
15850.80217064596
 20
905.8747482146443
 30
0.0
 11
15850.80217064596
 21
937.8747482146435
 31
0.0
  0
LINE
  5
19167
330
19716
100
AcDbEntity
  8
YODOROGO
100
AcDbLine
 10
15826.80217064595
 20
905.8747482146443
 30
0.0
 11
15850.80217064596
 21
905.8747482146443
 31
0.0
  0
LINE
  5
19168
330
19716
100
AcDbEntity
  8
SUNPOU
100
AcDbLine
 10
7750.123251791109
 20
2711.084839419601
 30
0.0
 11
7615.769855790351
 21
2711.084839419601
 31
0.0
  0
LINE
  5
19169
330
19716
100
AcDbEntity
  8
SUNPOU
100
AcDbLine
 10
7750.123251791109
 20
2551.084839419601
 30
0.0
 11
7615.769855790351
 21
2551.084839419601
 31
0.0
  0
LINE
  5
1916A
330
19716
100
AcDbEntity
  8
SUNPOU
100
AcDbLine
 10
7660.769855790352
 20
2696.084839419602
 30
0.0
 11
7660.769855790352
 21
2566.084839419602
 31
0.0
  0
LINE
  5
1916B
330
19716
100
AcDbEntity
  8
SUNPOU
100
AcDbLine
 10
7660.769855790352
 20
2551.084839419601
 30
0.0
 11
7660.769855790352
 21
2300.370553705316
 31
0.0
  0
LINE
  5
19170
330
19716
100
AcDbEntity
  8
SUNPOU
100
AcDbLine
 10
8230.123251791111
 20
3456.684839419605
 30
0.0
 11
7386.785610007507
 21
3456.684839419605
 31
0.0
  0
LINE
  5
19171
330
19716
100
AcDbEntity
  8
SUNPOU
100
AcDbLine
 10
7750.123251791109
 20
2551.084839419601
 30
0.0
 11
7386.785610007507
 21
2551.084839419601
 31
0.0
  0
LINE
  5
19172
330
19716
100
AcDbEntity
  8
SUNPOU
100
AcDbLine
 10
7431.785610007509
 20
3441.684839419604
 30
0.0
 11
7431.785610007509
 21
2566.084839419602
 31
0.0
  0
LINE
  5
19176
330
19716
100
AcDbEntity
  8
SUNPOU
100
AcDbLine
 10
3969.797051267462
 20
2711.084839419601
 30
0.0
 11
3835.443655266704
 21
2711.084839419601
 31
0.0
  0
LINE
  5
19177
330
19716
100
AcDbEntity
  8
SUNPOU
100
AcDbLine
 10
3969.797051267462
 20
2551.084839419601
 30
0.0
 11
3835.443655266704
 21
2551.084839419601
 31
0.0
  0
LINE
  5
19178
330
19716
100
AcDbEntity
  8
SUNPOU
100
AcDbLine
 10
3880.443655266704
 20
2696.084839419602
 30
0.0
 11
3880.443655266704
 21
2566.084839419602
 31
0.0
  0
LINE
  5
19179
330
19716
100
AcDbEntity
  8
SUNPOU
100
AcDbLine
 10
3880.443655266704
 20
2551.084839419601
 30
0.0
 11
3880.443655266704
 21
2300.370553705316
 31
0.0
  0
LINE
  5
1917D
330
19716
100
AcDbEntity
  8
SUNPOU
100
AcDbLine
 10
4129.797051267463
 20
3456.684839419605
 30
0.0
 11
3609.949120020982
 21
3456.684839419605
 31
0.0
  0
LINE
  5
1917E
330
19716
100
AcDbEntity
  8
SUNPOU
100
AcDbLine
 10
3969.797051267462
 20
2551.084839419601
 30
0.0
 11
3609.949120020981
 21
2551.084839419601
 31
0.0
  0
LINE
  5
1917F
330
19716
100
AcDbEntity
  8
SUNPOU
100
AcDbLine
 10
3654.949120020982
 20
3441.684839419605
 30
0.0
 11
3654.949120020982
 21
2566.084839419602
 31
0.0
  0
LINE
  5
19183
330
19716
100
AcDbEntity
  8
SUNPOU
100
AcDbLine
 10
11635.33837406208
 20
3726.33703658456
 30
0.0
 11
12318.40680314955
 21
3726.33703658456
 31
0.0
  0
LINE
  5
19184
330
19716
100
AcDbEntity
  8
SUNPOU
100
AcDbLine
 10
11635.33837406208
 20
3886.33703658456
 30
0.0
 11
12318.40680314955
 21
3886.33703658456
 31
0.0
  0
LINE
  5
19185
330
19716
100
AcDbEntity
  8
SUNPOU
100
AcDbLine
 10
12273.40680314955
 20
3741.33703658456
 30
0.0
 11
12273.40680314955
 21
3871.337036584561
 31
0.0
  0
LINE
  5
19186
330
19716
100
AcDbEntity
  8
SUNPOU
100
AcDbLine
 10
12273.40680314955
 20
3886.33703658456
 30
0.0
 11
12273.40680314955
 21
4088.479893727416
 31
0.0
  0
LINE
  5
1918A
330
19716
100
AcDbEntity
  8
SUNPOU
100
AcDbLine
 10
11635.33837406208
 20
3726.33703658456
 30
0.0
 11
12318.40680314955
 21
3726.33703658456
 31
0.0
  0
LINE
  5
1918B
330
19716
100
AcDbEntity
  8
SUNPOU
100
AcDbLine
 10
11891.33837406209
 20
3618.337036584561
 30
0.0
 11
12318.40680314955
 21
3618.337036584561
 31
0.0
  0
LINE
  5
1918C
330
19716
100
AcDbEntity
  8
SUNPOU
100
AcDbLine
 10
12273.40680314955
 20
3741.33703658456
 30
0.0
 11
12273.40680314955
 21
3756.337036584561
 31
0.0
  0
LINE
  5
1918D
330
19716
100
AcDbEntity
  8
SUNPOU
100
AcDbLine
 10
12273.40680314955
 20
3603.337036584561
 30
0.0
 11
12273.40680314955
 21
3401.194179441703
 31
0.0
  0
LINE
  5
1918E
330
19716
100
AcDbEntity
  8
SUNPOU
100
AcDbLine
 10
12273.40680314955
 20
3726.33703658456
 30
0.0
 11
12273.40680314955
 21
3618.337036584561
 31
0.0
  0
LINE
  5
19192
330
19716
100
AcDbEntity
  8
SUNPOU
100
AcDbLine
 10
7910.12325179111
 20
3319.084839419601
 30
0.0
 11
7615.769855790353
 21
3319.084839419601
 31
0.0
  0
LINE
  5
19193
330
19716
100
AcDbEntity
  8
SUNPOU
100
AcDbLine
 10
7910.12325179111
 20
3191.084839419597
 30
0.0
 11
7615.769855790353
 21
3191.084839419597
 31
0.0
  0
LINE
  5
19194
330
19716
100
AcDbEntity
  8
SUNPOU
100
AcDbLine
 10
7660.769855790352
 20
3304.0848394196
 30
0.0
 11
7660.769855790352
 21
3206.084839419597
 31
0.0
  0
LINE
  5
19198
330
19716
100
AcDbEntity
  8
SUNPOU
100
AcDbLine
 10
7910.12325179111
 20
3319.084839419601
 30
0.0
 11
7615.769855790351
 21
3319.084839419601
 31
0.0
  0
LINE
  5
19199
330
19716
100
AcDbEntity
  8
SUNPOU
100
AcDbLine
 10
7910.12325179111
 20
3456.684839419605
 30
0.0
 11
7615.769855790351
 21
3456.684839419605
 31
0.0
  0
LINE
  5
1919A
330
19716
100
AcDbEntity
  8
SUNPOU
100
AcDbLine
 10
7660.769855790352
 20
3334.0848394196
 30
0.0
 11
7660.769855790352
 21
3441.684839419605
 31
0.0
  0
LINE
  5
1919B
330
19716
100
AcDbEntity
  8
SUNPOU
100
AcDbLine
 10
7660.769855790352
 20
3456.684839419605
 30
0.0
 11
7660.769855790352
 21
3658.827696562462
 31
0.0
  0
LINE
  5
1919F
330
19716
100
AcDbEntity
  8
SUNPOU
100
AcDbLine
 10
7750.123251791109
 20
2711.084839419601
 30
0.0
 11
7615.769855790351
 21
2711.084839419601
 31
0.0
  0
LINE
  5
191A0
330
19716
100
AcDbEntity
  8
SUNPOU
100
AcDbLine
 10
7910.12325179111
 20
3191.084839419597
 30
0.0
 11
7615.769855790351
 21
3191.084839419597
 31
0.0
  0
LINE
  5
191A1
330
19716
100
AcDbEntity
  8
SUNPOU
100
AcDbLine
 10
7660.769855790352
 20
2726.084839419602
 30
0.0
 11
7660.769855790352
 21
3176.084839419596
 31
0.0
  0
LINE
  5
191A5
330
19716
100
AcDbEntity
  8
SUNPOU
100
AcDbLine
 10
11781.33837406209
 20
2470.14434405315
 30
0.0
 11
11781.33837406209
 21
2200.804976716085
 31
0.0
  0
LINE
  5
191A6
330
19716
100
AcDbEntity
  8
SUNPOU
100
AcDbLine
 10
11861.33837406209
 20
2510.144344053149
 30
0.0
 11
11861.33837406209
 21
2200.804976716085
 31
0.0
  0
LINE
  5
191A7
330
19716
100
AcDbEntity
  8
SUNPOU
100
AcDbLine
 10
11766.33837406209
 20
2245.804976716085
 30
0.0
 11
11751.33837406209
 21
2245.804976716085
 31
0.0
  0
LINE
  5
191A8
330
19716
100
AcDbEntity
  8
SUNPOU
100
AcDbLine
 10
11876.33837406208
 20
2245.804976716085
 30
0.0
 11
12078.48123120495
 21
2245.804976716085
 31
0.0
  0
LINE
  5
191A9
330
19716
100
AcDbEntity
  8
SUNPOU
100
AcDbLine
 10
11781.33837406209
 20
2245.804976716085
 30
0.0
 11
11861.33837406209
 21
2245.804976716085
 31
0.0
  0
LINE
  5
191AD
330
19716
100
AcDbEntity
  8
SUNPOU
100
AcDbLine
 10
11301.33837406211
 20
2470.14434405315
 30
0.0
 11
11301.33837406211
 21
2200.804976716085
 31
0.0
  0
LINE
  5
191AE
330
19716
100
AcDbEntity
  8
SUNPOU
100
AcDbLine
 10
11781.33837406209
 20
2470.14434405315
 30
0.0
 11
11781.33837406209
 21
2200.804976716085
 31
0.0
  0
LINE
  5
191AF
330
19716
100
AcDbEntity
  8
SUNPOU
100
AcDbLine
 10
11316.33837406211
 20
2245.804976716085
 30
0.0
 11
11766.33837406209
 21
2245.804976716085
 31
0.0
  0
LINE
  5
191B3
330
19716
100
AcDbEntity
  8
SUNPOU
100
AcDbLine
 10
11301.33837406211
 20
2470.14434405315
 30
0.0
 11
11301.33837406211
 21
2200.804976716085
 31
0.0
  0
LINE
  5
191B4
330
19716
100
AcDbEntity
  8
SUNPOU
100
AcDbLine
 10
11221.33837406209
 20
2510.144344053149
 30
0.0
 11
11221.33837406209
 21
2200.804976716085
 31
0.0
  0
LINE
  5
191B5
330
19716
100
AcDbEntity
  8
SUNPOU
100
AcDbLine
 10
11316.33837406211
 20
2245.804976716085
 30
0.0
 11
11331.3383740621
 21
2245.804976716085
 31
0.0
  0
LINE
  5
191B6
330
19716
100
AcDbEntity
  8
SUNPOU
100
AcDbLine
 10
11206.33837406209
 20
2245.804976716085
 30
0.0
 11
11004.19551691924
 21
2245.804976716085
 31
0.0
  0
LINE
  5
191B7
330
19716
100
AcDbEntity
  8
SUNPOU
100
AcDbLine
 10
11301.33837406211
 20
2245.804976716085
 30
0.0
 11
11221.33837406209
 21
2245.804976716085
 31
0.0
  0
LINE
  5
191BB
330
19716
100
AcDbEntity
  8
SUNPOU
100
AcDbLine
 10
11221.33837406209
 20
2510.144344053149
 30
0.0
 11
11221.33837406209
 21
1990.804976716086
 31
0.0
  0
LINE
  5
191BC
330
19716
100
AcDbEntity
  8
SUNPOU
100
AcDbLine
 10
11861.33837406209
 20
2510.144344053149
 30
0.0
 11
11861.33837406209
 21
1990.804976716086
 31
0.0
  0
LINE
  5
191BD
330
19716
100
AcDbEntity
  8
SUNPOU
100
AcDbLine
 10
11236.33837406209
 20
2035.804976716086
 30
0.0
 11
11846.33837406209
 21
2035.804976716086
 31
0.0
  0
LINE
  5
191C1
330
19716
100
AcDbEntity
  8
SUNPOU
100
AcDbLine
 10
11195.33837406209
 20
2700.144344053149
 30
0.0
 11
10873.33837406209
 21
2700.144344053149
 31
0.0
  0
LINE
  5
191C2
330
19716
100
AcDbEntity
  8
SUNPOU
100
AcDbLine
 10
11191.33837406208
 20
2540.14434405315
 30
0.0
 11
10873.33837406209
 21
2540.14434405315
 31
0.0
  0
LINE
  5
191C3
330
19716
100
AcDbEntity
  8
SUNPOU
100
AcDbLine
 10
10918.33837406209
 20
2685.14434405315
 30
0.0
 11
10918.33837406209
 21
2555.144344053149
 31
0.0
  0
LINE
  5
191C4
330
19716
100
AcDbEntity
  8
SUNPOU
100
AcDbLine
 10
10918.33837406209
 20
2540.14434405315
 30
0.0
 11
10918.33837406209
 21
2338.001486910291
 31
0.0
  0
LINE
  5
191C8
330
19716
100
AcDbEntity
  8
SUNPOU
100
AcDbLine
 10
11195.33837406209
 20
2700.144344053149
 30
0.0
 11
10873.33837406209
 21
2700.144344053149
 31
0.0
  0
LINE
  5
191C9
330
19716
100
AcDbEntity
  8
SUNPOU
100
AcDbLine
 10
11191.33837406208
 20
2860.14434405315
 30
0.0
 11
10873.33837406209
 21
2860.14434405315
 31
0.0
  0
LINE
  5
191CA
330
19716
100
AcDbEntity
  8
SUNPOU
100
AcDbLine
 10
10918.33837406209
 20
2715.144344053149
 30
0.0
 11
10918.33837406209
 21
2845.14434405315
 31
0.0
  0
LINE
  5
191CB
330
19716
100
AcDbEntity
  8
SUNPOU
100
AcDbLine
 10
10918.33837406209
 20
2860.14434405315
 30
0.0
 11
10918.33837406209
 21
3062.287201196007
 31
0.0
  0
LINE
  5
191CF
330
19716
100
AcDbEntity
  8
SUNPOU
100
AcDbLine
 10
11191.33837406208
 20
2540.14434405315
 30
0.0
 11
10663.33837406209
 21
2540.14434405315
 31
0.0
  0
LINE
  5
191D0
330
19716
100
AcDbEntity
  8
SUNPOU
100
AcDbLine
 10
11191.33837406208
 20
2860.14434405315
 30
0.0
 11
10663.33837406209
 21
2860.14434405315
 31
0.0
  0
LINE
  5
191D1
330
19716
100
AcDbEntity
  8
SUNPOU
100
AcDbLine
 10
10708.33837406208
 20
2555.144344053149
 30
0.0
 11
10708.33837406208
 21
2845.14434405315
 31
0.0
  0
LINE
  5
191D5
330
19716
100
AcDbEntity
  8
SUNPOU
100
AcDbLine
 10
11781.33837406209
 20
3548.33703658456
 30
0.0
 11
11781.33837406209
 21
3349.170862655058
 31
0.0
  0
LINE
  5
191D6
330
19716
100
AcDbEntity
  8
SUNPOU
100
AcDbLine
 10
11861.33837406209
 20
3588.337036584561
 30
0.0
 11
11861.33837406209
 21
3349.170862655058
 31
0.0
  0
LINE
  5
191D7
330
19716
100
AcDbEntity
  8
SUNPOU
100
AcDbLine
 10
11766.33837406209
 20
3394.170862655057
 30
0.0
 11
11751.33837406209
 21
3394.170862655057
 31
0.0
  0
LINE
  5
191D8
330
19716
100
AcDbEntity
  8
SUNPOU
100
AcDbLine
 10
11876.33837406208
 20
3394.170862655057
 30
0.0
 11
12078.48123120495
 21
3394.170862655057
 31
0.0
  0
LINE
  5
191D9
330
19716
100
AcDbEntity
  8
SUNPOU
100
AcDbLine
 10
11781.33837406209
 20
3394.170862655057
 30
0.0
 11
11861.33837406209
 21
3394.170862655057
 31
0.0
  0
LINE
  5
191DD
330
19716
100
AcDbEntity
  8
SUNPOU
100
AcDbLine
 10
11301.33837406211
 20
3548.33703658456
 30
0.0
 11
11301.33837406211
 21
3349.170862655058
 31
0.0
  0
LINE
  5
191DE
330
19716
100
AcDbEntity
  8
SUNPOU
100
AcDbLine
 10
11781.33837406209
 20
3548.33703658456
 30
0.0
 11
11781.33837406209
 21
3349.170862655058
 31
0.0
  0
LINE
  5
191DF
330
19716
100
AcDbEntity
  8
SUNPOU
100
AcDbLine
 10
11316.33837406211
 20
3394.170862655057
 30
0.0
 11
11766.33837406209
 21
3394.170862655057
 31
0.0
  0
LINE
  5
191E3
330
19716
100
AcDbEntity
  8
SUNPOU
100
AcDbLine
 10
11301.33837406211
 20
3548.33703658456
 30
0.0
 11
11301.33837406211
 21
3349.170862655058
 31
0.0
  0
LINE
  5
191E4
330
19716
100
AcDbEntity
  8
SUNPOU
100
AcDbLine
 10
11221.33837406209
 20
3588.337036584561
 30
0.0
 11
11221.33837406209
 21
3349.170862655058
 31
0.0
  0
LINE
  5
191E5
330
19716
100
AcDbEntity
  8
SUNPOU
100
AcDbLine
 10
11316.33837406211
 20
3394.170862655057
 30
0.0
 11
11331.3383740621
 21
3394.170862655057
 31
0.0
  0
LINE
  5
191E6
330
19716
100
AcDbEntity
  8
SUNPOU
100
AcDbLine
 10
11206.33837406209
 20
3394.170862655057
 30
0.0
 11
11004.19551691924
 21
3394.170862655057
 31
0.0
  0
LINE
  5
191E7
330
19716
100
AcDbEntity
  8
SUNPOU
100
AcDbLine
 10
11301.33837406211
 20
3394.170862655057
 30
0.0
 11
11221.33837406209
 21
3394.170862655057
 31
0.0
  0
LINE
  5
191EB
330
19716
100
AcDbEntity
  8
SUNPOU
100
AcDbLine
 10
11221.33837406209
 20
3588.337036584561
 30
0.0
 11
11221.33837406209
 21
3139.170862655058
 31
0.0
  0
LINE
  5
191EC
330
19716
100
AcDbEntity
  8
SUNPOU
100
AcDbLine
 10
11861.33837406209
 20
3588.337036584561
 30
0.0
 11
11861.33837406209
 21
3139.170862655058
 31
0.0
  0
LINE
  5
191ED
330
19716
100
AcDbEntity
  8
SUNPOU
100
AcDbLine
 10
11236.33837406209
 20
3184.170862655058
 30
0.0
 11
11846.33837406209
 21
3184.170862655058
 31
0.0
  0
LINE
  5
191F1
330
19716
100
AcDbEntity
  8
SUNPOU
100
AcDbLine
 10
7940.123251791111
 20
2681.084839419606
 30
0.0
 11
7940.123251791111
 21
2103.684839419604
 31
0.0
  0
LINE
  5
191F2
330
19716
100
AcDbEntity
  8
SUNPOU
100
AcDbLine
 10
9220.123251791108
 20
2681.084839419606
 30
0.0
 11
9220.123251791108
 21
2103.684839419604
 31
0.0
  0
LINE
  5
191F3
330
19716
100
AcDbEntity
  8
SUNPOU
100
AcDbLine
 10
7955.123251791111
 20
2148.684839419604
 30
0.0
 11
9205.123251791109
 21
2148.684839419604
 31
0.0
  0
LINE
  5
191F7
330
19716
100
AcDbEntity
  8
SUNPOU
100
AcDbLine
 10
7780.123251791109
 20
2521.084839419602
 30
0.0
 11
7780.123251791109
 21
1893.684839419605
 31
0.0
  0
LINE
  5
191F8
330
19716
100
AcDbEntity
  8
SUNPOU
100
AcDbLine
 10
9380.123251791109
 20
2521.084839419602
 30
0.0
 11
9380.123251791109
 21
1893.684839419605
 31
0.0
  0
LINE
  5
191F9
330
19716
100
AcDbEntity
  8
SUNPOU
100
AcDbLine
 10
7795.123251791108
 20
1938.684839419605
 30
0.0
 11
9365.123251791109
 21
1938.684839419605
 31
0.0
  0
LINE
  5
191FD
330
19716
100
AcDbEntity
  8
SUNPOU
100
AcDbLine
 10
7270.769855790351
 20
3376.684839419608
 30
0.0
 11
7285.769855790352
 21
3376.684839419608
 31
0.0
  0
LINE
  5
191FE
330
19716
100
AcDbEntity
  8
SUNPOU
100
AcDbLine
 10
8230.123251791111
 20
3456.684839419605
 30
0.0
 11
7195.769855790351
 21
3456.684839419605
 31
0.0
  0
LINE
  5
191FF
330
19716
100
AcDbEntity
  8
SUNPOU
100
AcDbLine
 10
7240.769855790351
 20
3361.684839419608
 30
0.0
 11
7240.769855790351
 21
3346.684839419608
 31
0.0
  0
LINE
  5
19200
330
19716
100
AcDbEntity
  8
SUNPOU
100
AcDbLine
 10
7240.769855790351
 20
3471.684839419604
 30
0.0
 11
7240.769855790351
 21
3673.827696562462
 31
0.0
  0
LINE
  5
19201
330
19716
100
AcDbEntity
  8
SUNPOU
100
AcDbLine
 10
7240.769855790351
 20
3376.684839419608
 30
0.0
 11
7240.769855790351
 21
3456.684839419605
 31
0.0
  0
LINE
  5
19205
330
19716
100
AcDbEntity
  8
SUNPOU
100
AcDbLine
 10
10125.35375904136
 20
4130.485411556196
 30
0.0
 11
10065.35375904133
 21
4130.485411556196
 31
0.0
  0
LINE
  5
19206
330
19716
100
AcDbEntity
  8
SUNPOU
100
AcDbLine
 10
10125.35375904135
 20
4130.485411556196
 30
0.0
 11
10065.35375904135
 21
4146.562363102066
 31
0.0
  0
LINE
  5
19207
330
19716
100
AcDbEntity
  8
SUNPOU
100
AcDbLine
 10
10125.35375904136
 20
4130.485411556196
 30
0.0
 11
10065.35375904133
 21
4114.408460010326
 31
0.0
  0
LINE
  5
19208
330
19716
100
AcDbEntity
  8
SUNPOU
100
AcDbLine
 10
10065.35375904135
 20
4130.485411556196
 30
0.0
 11
10005.35375904133
 21
4130.485411556196
 31
0.0
  0
LINE
  5
19209
330
19716
100
AcDbEntity
  8
SUNPOU
100
AcDbLine
 10
10065.35375904135
 20
4130.485411556196
 30
0.0
 11
10005.35375904135
 21
4146.562363102066
 31
0.0
  0
LINE
  5
1920A
330
19716
100
AcDbEntity
  8
SUNPOU
100
AcDbLine
 10
10065.35375904135
 20
4130.485411556196
 30
0.0
 11
10005.35375904133
 21
4114.408460010326
 31
0.0
  0
LINE
  5
1920B
330
19716
100
AcDbEntity
  8
SUNPOU
100
AcDbLine
 10
8580.123251791111
 20
4160.485411556194
 30
0.0
 11
8580.123251791111
 21
4175.485411556194
 31
0.0
  0
LINE
  5
1920C
330
19716
100
AcDbEntity
  8
SUNPOU
100
AcDbLine
 10
8260.12325179111
 20
3486.684839419604
 30
0.0
 11
8260.12325179111
 21
4175.485411556194
 31
0.0
  0
LINE
  5
1920D
330
19716
100
AcDbEntity
  8
SUNPOU
100
AcDbLine
 10
8565.123251791112
 20
4130.485411556196
 30
0.0
 11
8275.123251791111
 21
4130.485411556196
 31
0.0
  0
LINE
  5
19211
330
19716
100
AcDbEntity
  8
SUNPOU
100
AcDbLine
 10
4159.797051267463
 20
2681.084839419602
 30
0.0
 11
4159.797051267463
 21
2103.684839419599
 31
0.0
  0
LINE
  5
19212
330
19716
100
AcDbEntity
  8
SUNPOU
100
AcDbLine
 10
5439.797051267464
 20
2681.084839419602
 30
0.0
 11
5439.797051267464
 21
2103.684839419599
 31
0.0
  0
LINE
  5
19213
330
19716
100
AcDbEntity
  8
SUNPOU
100
AcDbLine
 10
4174.797051267463
 20
2148.684839419601
 30
0.0
 11
5424.797051267464
 21
2148.684839419601
 31
0.0
  0
LINE
  5
19217
330
19716
100
AcDbEntity
  8
SUNPOU
100
AcDbLine
 10
3999.797051267462
 20
2521.084839419602
 30
0.0
 11
3999.797051267462
 21
1893.684839419601
 31
0.0
  0
LINE
  5
19218
330
19716
100
AcDbEntity
  8
SUNPOU
100
AcDbLine
 10
5599.797051267461
 20
2521.084839419602
 30
0.0
 11
5599.797051267461
 21
1893.684839419601
 31
0.0
  0
LINE
  5
19219
330
19716
100
AcDbEntity
  8
SUNPOU
100
AcDbLine
 10
4014.797051267462
 20
1938.6848394196
 30
0.0
 11
5584.797051267462
 21
1938.6848394196
 31
0.0
  0
LINE
  5
1921D
330
19716
100
AcDbEntity
  8
SUNPOU
100
AcDbLine
 10
3490.443655266703
 20
3376.684839419604
 30
0.0
 11
3505.443655266704
 21
3376.684839419604
 31
0.0
  0
LINE
  5
1921E
330
19716
100
AcDbEntity
  8
SUNPOU
100
AcDbLine
 10
4129.797051267463
 20
3456.684839419605
 30
0.0
 11
3415.443655266705
 21
3456.684839419605
 31
0.0
  0
LINE
  5
1921F
330
19716
100
AcDbEntity
  8
SUNPOU
100
AcDbLine
 10
3460.443655266704
 20
3361.684839419604
 30
0.0
 11
3460.443655266704
 21
3346.684839419604
 31
0.0
  0
LINE
  5
19220
330
19716
100
AcDbEntity
  8
SUNPOU
100
AcDbLine
 10
3460.443655266704
 20
3471.684839419605
 30
0.0
 11
3460.443655266704
 21
3673.827696562462
 31
0.0
  0
LINE
  5
19221
330
19716
100
AcDbEntity
  8
SUNPOU
100
AcDbLine
 10
3460.443655266704
 20
3376.684839419604
 30
0.0
 11
3460.443655266704
 21
3456.684839419605
 31
0.0
  0
LINE
  5
19225
330
19716
100
AcDbEntity
  8
SUNPOU
100
AcDbLine
 10
4129.797051267463
 20
3319.084839419601
 30
0.0
 11
3835.443655266706
 21
3319.084839419601
 31
0.0
  0
LINE
  5
19226
330
19716
100
AcDbEntity
  8
SUNPOU
100
AcDbLine
 10
4129.797051267463
 20
3191.084839419597
 30
0.0
 11
3835.443655266706
 21
3191.084839419597
 31
0.0
  0
LINE
  5
19227
330
19716
100
AcDbEntity
  8
SUNPOU
100
AcDbLine
 10
3880.443655266705
 20
3304.0848394196
 30
0.0
 11
3880.443655266705
 21
3206.084839419597
 31
0.0
  0
LINE
  5
1922B
330
19716
100
AcDbEntity
  8
SUNPOU
100
AcDbLine
 10
4129.797051267463
 20
3319.084839419601
 30
0.0
 11
3835.443655266704
 21
3319.084839419601
 31
0.0
  0
LINE
  5
1922C
330
19716
100
AcDbEntity
  8
SUNPOU
100
AcDbLine
 10
4129.797051267463
 20
3456.684839419605
 30
0.0
 11
3835.443655266704
 21
3456.684839419605
 31
0.0
  0
LINE
  5
1922D
330
19716
100
AcDbEntity
  8
SUNPOU
100
AcDbLine
 10
3880.443655266704
 20
3334.0848394196
 30
0.0
 11
3880.443655266704
 21
3441.684839419605
 31
0.0
  0
LINE
  5
1922E
330
19716
100
AcDbEntity
  8
SUNPOU
100
AcDbLine
 10
3880.443655266704
 20
3456.684839419605
 30
0.0
 11
3880.443655266704
 21
3658.827696562462
 31
0.0
  0
LINE
  5
19232
330
19716
100
AcDbEntity
  8
SUNPOU
100
AcDbLine
 10
3969.797051267462
 20
2711.084839419601
 30
0.0
 11
3835.443655266704
 21
2711.084839419601
 31
0.0
  0
LINE
  5
19233
330
19716
100
AcDbEntity
  8
SUNPOU
100
AcDbLine
 10
4129.797051267463
 20
3191.084839419597
 30
0.0
 11
3835.443655266704
 21
3191.084839419597
 31
0.0
  0
LINE
  5
19234
330
19716
100
AcDbEntity
  8
SUNPOU
100
AcDbLine
 10
3880.443655266704
 20
2726.084839419602
 30
0.0
 11
3880.443655266704
 21
3176.084839419596
 31
0.0
  0
LINE
  5
19238
330
19716
100
AcDbEntity
  8
SUNPOU
100
AcDbLine
 10
6345.027558517712
 20
4130.485411556192
 30
0.0
 11
6285.0275585177
 21
4130.485411556192
 31
0.0
  0
LINE
  5
19239
330
19716
100
AcDbEntity
  8
SUNPOU
100
AcDbLine
 10
6345.027558517706
 20
4130.485411556192
 30
0.0
 11
6285.027558517706
 21
4146.562363102062
 31
0.0
  0
LINE
  5
1923A
330
19716
100
AcDbEntity
  8
SUNPOU
100
AcDbLine
 10
6345.027558517712
 20
4130.485411556192
 30
0.0
 11
6285.0275585177
 21
4114.408460010323
 31
0.0
  0
LINE
  5
1923B
330
19716
100
AcDbEntity
  8
SUNPOU
100
AcDbLine
 10
6285.027558517714
 20
4130.485411556192
 30
0.0
 11
6225.027558517701
 21
4130.485411556192
 31
0.0
  0
LINE
  5
1923C
330
19716
100
AcDbEntity
  8
SUNPOU
100
AcDbLine
 10
6285.027558517706
 20
4130.485411556192
 30
0.0
 11
6225.027558517706
 21
4146.562363102062
 31
0.0
  0
LINE
  5
1923D
330
19716
100
AcDbEntity
  8
SUNPOU
100
AcDbLine
 10
6285.027558517714
 20
4130.485411556192
 30
0.0
 11
6225.027558517701
 21
4114.408460010323
 31
0.0
  0
LINE
  5
1923E
330
19716
100
AcDbEntity
  8
SUNPOU
100
AcDbLine
 10
4799.797051267463
 20
4160.485411556192
 30
0.0
 11
4799.797051267463
 21
4175.485411556191
 31
0.0
  0
LINE
  5
1923F
330
19716
100
AcDbEntity
  8
SUNPOU
100
AcDbLine
 10
4159.797051267463
 20
3486.684839419604
 30
0.0
 11
4159.797051267463
 21
4175.485411556191
 31
0.0
  0
LINE
  5
19240
330
19716
100
AcDbEntity
  8
SUNPOU
100
AcDbLine
 10
4784.797051267463
 20
4130.485411556192
 30
0.0
 11
4174.797051267463
 21
4130.485411556192
 31
0.0
  0
LINE
  5
19244
330
19716
100
AcDbEntity
  8
SUNPOU
100
AcDbLine
 10
11856.36032602547
 20
9489.512702941778
 30
0.0
 11
12271.36032602547
 21
9489.512702941778
 31
0.0
  0
LINE
  5
19245
330
19716
100
AcDbEntity
  8
SUNPOU
100
AcDbLine
 10
12001.36032602547
 20
9289.512702941776
 30
0.0
 11
12271.36032602547
 21
9289.512702941776
 31
0.0
  0
LINE
  5
19246
330
19716
100
AcDbEntity
  8
SUNPOU
100
AcDbLine
 10
12226.36032602547
 20
9474.512702941778
 30
0.0
 11
12226.36032602547
 21
9304.512702941778
 31
0.0
  0
LINE
  5
19247
330
19716
100
AcDbEntity
  8
SUNPOU
100
AcDbLine
 10
12226.36032602547
 20
9289.512702941776
 30
0.0
 11
12226.36032602547
 21
9030.226988656066
 31
0.0
  0
LINE
  5
1924B
330
19716
100
AcDbEntity
  8
SUNPOU
100
AcDbLine
 10
11856.36032602547
 20
9489.512702941778
 30
0.0
 11
12271.36032602547
 21
9489.512702941778
 31
0.0
  0
LINE
  5
1924C
330
19716
100
AcDbEntity
  8
SUNPOU
100
AcDbLine
 10
11856.36032602547
 20
9689.512702941778
 30
0.0
 11
12271.36032602547
 21
9689.512702941778
 31
0.0
  0
LINE
  5
1924D
330
19716
100
AcDbEntity
  8
SUNPOU
100
AcDbLine
 10
12226.36032602547
 20
9504.512702941779
 30
0.0
 11
12226.36032602547
 21
9674.512702941779
 31
0.0
  0
LINE
  5
1924E
330
19716
100
AcDbEntity
  8
SUNPOU
100
AcDbLine
 10
12226.36032602547
 20
9689.512702941778
 30
0.0
 11
12226.36032602547
 21
9948.798417227493
 31
0.0
  0
LINE
  5
19253
330
19716
100
AcDbEntity
  8
SUNPOU
100
AcDbLine
 10
12646.36032602547
 20
9678.262702941779
 30
0.0
 11
12646.36032602547
 21
9667.012702941779
 31
0.0
  0
LINE
  5
19255
330
19716
100
AcDbEntity
  8
SUNPOU
100
AcDbLine
 10
12436.36032602547
 20
9678.262702941779
 30
0.0
 11
12436.36032602547
 21
9667.012702941779
 31
0.0
  0
LINE
  5
19257
330
19716
100
AcDbEntity
  8
SUNPOU
100
AcDbLine
 10
12436.36032602547
 20
9278.262702941779
 30
0.0
 11
12436.36032602547
 21
9267.012702941778
 31
0.0
  0
LINE
  5
19259
330
19716
100
AcDbEntity
  8
SUNPOU
100
AcDbLine
 10
12436.36032602547
 20
9300.762702941778
 30
0.0
 11
12436.36032602547
 21
9312.012702941778
 31
0.0
  0
LINE
  5
1925B
330
19716
100
AcDbEntity
  8
SUNPOU
100
AcDbLine
 10
12436.36032602547
 20
7500.762702941777
 30
0.0
 11
12436.36032602547
 21
7512.012702941778
 31
0.0
  0
LINE
  5
1925D
330
19716
100
AcDbEntity
  8
SUNPOU
100
AcDbLine
 10
12436.36032602547
 20
7478.262702941778
 30
0.0
 11
12436.36032602547
 21
7467.012702941778
 31
0.0
  0
LINE
  5
1925F
330
19716
100
AcDbEntity
  8
SUNPOU
100
AcDbLine
 10
12646.36032602547
 20
7100.762702941778
 30
0.0
 11
12646.36032602547
 21
7112.012702941779
 31
0.0
  0
LINE
  5
19261
330
19716
100
AcDbEntity
  8
SUNPOU
100
AcDbLine
 10
12436.36032602547
 20
7100.762702941778
 30
0.0
 11
12436.36032602547
 21
7112.012702941779
 31
0.0
  0
LINE
  5
19262
330
19716
100
AcDbEntity
  8
SUNPOU
100
AcDbLine
 10
4636.360326025477
 20
9854.512702941782
 30
0.0
 11
4726.36032602548
 21
9839.512702941782
 31
0.0
  0
LINE
  5
19263
330
19716
100
AcDbEntity
  8
SUNPOU
100
AcDbLine
 10
4726.36032602548
 20
9839.512702941782
 30
0.0
 11
4636.360326025477
 21
9824.512702941781
 31
0.0
  0
SOLID
  5
19264
330
19716
100
AcDbEntity
  8
SUNPOU
100
AcDbTrace
 10
4636.360326025477
 20
9854.512702941782
 30
0.0
 11
4636.360326025477
 21
9824.512702941781
 31
0.0
 12
4726.36032602548
 22
9839.512702941782
 32
0.0
 13
4726.36032602548
 23
9839.512702941782
 33
0.0
  0
LINE
  5
19265
330
19716
100
AcDbEntity
  8
SUNPOU
100
AcDbLine
 10
4636.360326025477
 20
9824.512702941781
 30
0.0
 11
4636.360326025477
 21
9854.512702941782
 31
0.0
  0
LINE
  5
19266
330
19716
100
AcDbEntity
  8
SUNPOU
100
AcDbLine
 10
4636.360326025477
 20
8724.512702941776
 30
0.0
 11
4726.36032602548
 21
8739.512702941777
 31
0.0
  0
LINE
  5
19267
330
19716
100
AcDbEntity
  8
SUNPOU
100
AcDbLine
 10
4726.36032602548
 20
8739.512702941777
 30
0.0
 11
4636.360326025477
 21
8754.512702941777
 31
0.0
  0
SOLID
  5
19268
330
19716
100
AcDbEntity
  8
SUNPOU
100
AcDbTrace
 10
4636.360326025477
 20
8724.512702941776
 30
0.0
 11
4636.360326025477
 21
8754.512702941777
 31
0.0
 12
4726.36032602548
 22
8739.512702941777
 32
0.0
 13
4726.36032602548
 23
8739.512702941777
 33
0.0
  0
LINE
  5
19269
330
19716
100
AcDbEntity
  8
SUNPOU
100
AcDbLine
 10
4636.360326025477
 20
8754.512702941777
 30
0.0
 11
4636.360326025477
 21
8724.512702941776
 31
0.0
  0
LINE
  5
1926A
330
19716
100
AcDbEntity
  8
SUNPOU
100
AcDbLine
 10
11426.36032602547
 20
9919.51270294178
 30
0.0
 11
11426.36032602547
 21
10034.51270294178
 31
0.0
  0
LINE
  5
1926B
330
19716
100
AcDbEntity
  8
SUNPOU
100
AcDbLine
 10
11826.36032602548
 20
9719.512702941779
 30
0.0
 11
11826.36032602548
 21
10034.51270294178
 31
0.0
  0
LINE
  5
1926C
330
19716
100
AcDbEntity
  8
SUNPOU
100
AcDbLine
 10
11441.36032602547
 20
9989.512702941778
 30
0.0
 11
11811.36032602547
 21
9989.512702941778
 31
0.0
  0
LINE
  5
19271
330
19716
100
AcDbEntity
  8
SUNPOU
100
AcDbLine
 10
8615.110326025478
 20
9989.512702941778
 30
0.0
 11
8603.860326025479
 21
9989.512702941778
 31
0.0
  0
LINE
  5
19272
330
19716
100
AcDbEntity
  8
SUNPOU
100
AcDbLine
 10
11426.36032602547
 20
9919.51270294178
 30
0.0
 11
11426.36032602547
 21
10034.51270294178
 31
0.0
  0
LINE
  5
19273
330
19716
100
AcDbEntity
  8
SUNPOU
100
AcDbLine
 10
8626.360326025478
 20
9919.51270294178
 30
0.0
 11
8626.360326025478
 21
10034.51270294178
 31
0.0
  0
LINE
  5
19274
330
19716
100
AcDbEntity
  8
SUNPOU
100
AcDbLine
 10
11411.36032602547
 20
9989.512702941778
 30
0.0
 11
8641.360326025479
 21
9989.512702941778
 31
0.0
  0
LINE
  5
19278
330
19716
100
AcDbEntity
  8
SUNPOU
100
AcDbLine
 10
9056.360326025481
 20
7889.512702941778
 30
0.0
 11
9371.360326025483
 21
7889.512702941778
 31
0.0
  0
LINE
  5
19279
330
19716
100
AcDbEntity
  8
SUNPOU
100
AcDbLine
 10
9056.360326025481
 20
7089.512702941778
 30
0.0
 11
9371.360326025483
 21
7089.512702941778
 31
0.0
  0
LINE
  5
1927A
330
19716
100
AcDbEntity
  8
SUNPOU
100
AcDbLine
 10
9326.360326025483
 20
7874.512702941778
 30
0.0
 11
9326.360326025483
 21
7104.512702941779
 31
0.0
  0
TEXT
  5
1927E
330
19716
100
AcDbEntity
  8
SUNPOU
100
AcDbText
 10
7518.646040311192
 20
10034.51270294178
 30
0.0
 40
90.0
  1
2800 × （ N - 2 ）
 41
0.6666666666666666
  7
00
100
AcDbText
  0
LINE
  5
19280
330
19716
100
AcDbEntity
  8
SUNPOU
100
AcDbLine
 10
7237.610326025479
 20
9989.512702941778
 30
0.0
 11
7248.860326025479
 21
9989.512702941778
 31
0.0
  0
LINE
  5
19281
330
19716
100
AcDbEntity
  8
SUNPOU
100
AcDbLine
 10
7226.360326025478
 20
9919.51270294178
 30
0.0
 11
7226.360326025478
 21
10034.51270294178
 31
0.0
  0
LINE
  5
19282
330
19716
100
AcDbEntity
  8
SUNPOU
100
AcDbLine
 10
4426.36032602548
 20
9919.51270294178
 30
0.0
 11
4426.36032602548
 21
10034.51270294178
 31
0.0
  0
LINE
  5
19283
330
19716
100
AcDbEntity
  8
SUNPOU
100
AcDbLine
 10
7211.360326025479
 20
9989.512702941778
 30
0.0
 11
4441.360326025479
 21
9989.512702941778
 31
0.0
  0
LINE
  5
19287
330
19716
100
AcDbEntity
  8
SUNPOU
100
AcDbLine
 10
6826.360326025478
 20
8859.512702941778
 30
0.0
 11
6826.360326025478
 21
8544.512702941778
 31
0.0
  0
LINE
  5
19288
330
19716
100
AcDbEntity
  8
SUNPOU
100
AcDbLine
 10
7626.360326025478
 20
8859.512702941778
 30
0.0
 11
7626.360326025478
 21
8544.512702941778
 31
0.0
  0
LINE
  5
19289
330
19716
100
AcDbEntity
  8
SUNPOU
100
AcDbLine
 10
6841.360326025479
 20
8589.512702941778
 30
0.0
 11
7611.360326025479
 21
8589.512702941778
 31
0.0
  0
LINE
  5
1928D
330
19716
100
AcDbEntity
  8
SUNPOU
100
AcDbLine
 10
5051.36032602548
 20
7699.512702941778
 30
0.0
 11
5036.360326025477
 21
7789.512702941777
 31
0.0
  0
LINE
  5
1928E
330
19716
100
AcDbEntity
  8
SUNPOU
100
AcDbLine
 10
5036.360326025477
 20
7789.512702941777
 30
0.0
 11
5021.360326025479
 21
7699.512702941778
 31
0.0
  0
SOLID
  5
1928F
330
19716
100
AcDbEntity
  8
SUNPOU
100
AcDbTrace
 10
5051.36032602548
 20
7699.512702941778
 30
0.0
 11
5021.360326025479
 21
7699.512702941778
 31
0.0
 12
5036.360326025477
 22
7789.512702941777
 32
0.0
 13
5036.360326025477
 23
7789.512702941777
 33
0.0
  0
LINE
  5
19290
330
19716
100
AcDbEntity
  8
SUNPOU
100
AcDbLine
 10
5021.360326025479
 20
7699.512702941778
 30
0.0
 11
5051.36032602548
 21
7699.512702941778
 31
0.0
  0
LINE
  5
19291
330
19716
100
AcDbEntity
  8
SUNPOU
100
AcDbLine
 10
6796.360326025478
 20
9689.512702941778
 30
0.0
 11
6481.360326025478
 21
9689.512702941778
 31
0.0
  0
LINE
  5
19292
330
19716
100
AcDbEntity
  8
SUNPOU
100
AcDbLine
 10
6796.360326025478
 20
8889.512702941777
 30
0.0
 11
6481.360326025478
 21
8889.512702941777
 31
0.0
  0
LINE
  5
19293
330
19716
100
AcDbEntity
  8
SUNPOU
100
AcDbLine
 10
6526.360326025478
 20
9674.512702941779
 30
0.0
 11
6526.360326025478
 21
8904.512702941778
 31
0.0
  0
LINE
  5
19297
330
19716
100
AcDbEntity
  8
SUNPOU
100
AcDbLine
 10
3801.360326025478
 20
7699.512702941778
 30
0.0
 11
3816.360326025479
 21
7789.512702941777
 31
0.0
  0
LINE
  5
19298
330
19716
100
AcDbEntity
  8
SUNPOU
100
AcDbLine
 10
3816.360326025479
 20
7789.512702941777
 30
0.0
 11
3831.36032602548
 21
7699.512702941778
 31
0.0
  0
SOLID
  5
19299
330
19716
100
AcDbEntity
  8
SUNPOU
100
AcDbTrace
 10
3801.360326025478
 20
7699.512702941778
 30
0.0
 11
3831.36032602548
 21
7699.512702941778
 31
0.0
 12
3816.360326025479
 22
7789.512702941777
 32
0.0
 13
3816.360326025479
 23
7789.512702941777
 33
0.0
  0
LINE
  5
1929A
330
19716
100
AcDbEntity
  8
SUNPOU
100
AcDbLine
 10
3831.36032602548
 20
7699.512702941778
 30
0.0
 11
3801.360326025478
 21
7699.512702941778
 31
0.0
  0
LINE
  5
1929B
330
19716
100
AcDbEntity
  8
SUNPOU
100
AcDbLine
 10
4426.36032602548
 20
9919.51270294178
 30
0.0
 11
4426.36032602548
 21
10034.51270294178
 31
0.0
  0
LINE
  5
1929C
330
19716
100
AcDbEntity
  8
SUNPOU
100
AcDbLine
 10
4026.360326025478
 20
9719.512702941779
 30
0.0
 11
4026.360326025478
 21
10034.51270294178
 31
0.0
  0
LINE
  5
1929D
330
19716
100
AcDbEntity
  8
SUNPOU
100
AcDbLine
 10
4411.360326025477
 20
9989.512702941778
 30
0.0
 11
4041.360326025478
 21
9989.512702941778
 31
0.0
  0
LINE
  5
192A1
330
19716
100
AcDbEntity
  8
SUNPOU
100
AcDbLine
 10
8226.360326025478
 20
7919.512702941777
 30
0.0
 11
8226.360326025478
 21
8234.512702941778
 31
0.0
  0
LINE
  5
192A2
330
19716
100
AcDbEntity
  8
SUNPOU
100
AcDbLine
 10
9026.36032602548
 20
7919.512702941777
 30
0.0
 11
9026.36032602548
 21
8234.512702941778
 31
0.0
  0
LINE
  5
192A3
330
19716
100
AcDbEntity
  8
SUNPOU
100
AcDbLine
 10
8241.360326025478
 20
8189.512702941778
 30
0.0
 11
9011.36032602548
 21
8189.512702941778
 31
0.0
  0
LINE
  5
192A7
330
19716
100
AcDbEntity
  8
SUNPOU
100
AcDbLine
 10
4026.360326025478
 20
9719.512702941779
 30
0.0
 11
4026.360326025478
 21
10244.51270294178
 31
0.0
  0
LINE
  5
192A8
330
19716
100
AcDbEntity
  8
SUNPOU
100
AcDbLine
 10
11826.36032602548
 20
9719.512702941779
 30
0.0
 11
11826.36032602548
 21
10244.51270294178
 31
0.0
  0
LINE
  5
192A9
330
19716
100
AcDbEntity
  8
SUNPOU
100
AcDbLine
 10
4041.360326025478
 20
10199.51270294177
 30
0.0
 11
11811.36032602547
 21
10199.51270294177
 31
0.0
  0
TEXT
  5
192AD
330
19716
100
AcDbEntity
  8
SUNPOU
100
AcDbText
 10
7615.76985579035
 20
2328.227696562461
 30
0.0
 40
90.0
  1
100
 50
90.0
 41
0.6666666666666666
  7
00
100
AcDbText
  0
LINE
  5
192AF
330
19716
100
AcDbEntity
  8
SUNPOU
100
AcDbLine
 10
7660.769855790352
 20
2562.334839419602
 30
0.0
 11
7660.769855790352
 21
2573.584839419602
 31
0.0
  0
LINE
  5
192B1
330
19716
100
AcDbEntity
  8
SUNPOU
100
AcDbLine
 10
7660.769855790352
 20
2699.834839419601
 30
0.0
 11
7660.769855790352
 21
2688.584839419601
 31
0.0
  0
TEXT
  5
192B2
330
19716
100
AcDbEntity
  8
SUNPOU
100
AcDbText
 10
7386.785610007507
 20
2918.170553705319
 30
0.0
 40
90.0
  1
560
 50
90.0
 41
0.6666666666666666
  7
00
100
AcDbText
  0
LINE
  5
192B4
330
19716
100
AcDbEntity
  8
SUNPOU
100
AcDbLine
 10
7431.785610007509
 20
2562.334839419602
 30
0.0
 11
7431.785610007509
 21
2573.584839419602
 31
0.0
  0
LINE
  5
192B6
330
19716
100
AcDbEntity
  8
SUNPOU
100
AcDbLine
 10
7431.785610007509
 20
3445.434839419604
 30
0.0
 11
7431.785610007509
 21
3434.184839419604
 31
0.0
  0
TEXT
  5
192B7
330
19716
100
AcDbEntity
  8
SUNPOU
100
AcDbText
 10
3835.443655266704
 20
2328.22769656246
 30
0.0
 40
90.0
  1
100
 50
90.0
 41
0.6666666666666666
  7
00
100
AcDbText
  0
LINE
  5
192B9
330
19716
100
AcDbEntity
  8
SUNPOU
100
AcDbLine
 10
3880.443655266704
 20
2562.334839419602
 30
0.0
 11
3880.443655266704
 21
2573.584839419602
 31
0.0
  0
LINE
  5
192BB
330
19716
100
AcDbEntity
  8
SUNPOU
100
AcDbLine
 10
3880.443655266704
 20
2699.834839419601
 30
0.0
 11
3880.443655266704
 21
2688.584839419601
 31
0.0
  0
TEXT
  5
192BC
330
19716
100
AcDbEntity
  8
SUNPOU
100
AcDbText
 10
3609.949120020981
 20
2918.170553705319
 30
0.0
 40
90.0
  1
560
 50
90.0
 41
0.6666666666666666
  7
00
100
AcDbText
  0
LINE
  5
192BE
330
19716
100
AcDbEntity
  8
SUNPOU
100
AcDbLine
 10
3654.949120020982
 20
2562.334839419602
 30
0.0
 11
3654.949120020982
 21
2573.584839419602
 31
0.0
  0
LINE
  5
192C0
330
19716
100
AcDbEntity
  8
SUNPOU
100
AcDbLine
 10
3654.949120020982
 20
3445.434839419605
 30
0.0
 11
3654.949120020982
 21
3434.184839419605
 31
0.0
  0
TEXT
  5
192C1
330
19716
100
AcDbEntity
  8
SUNPOU
100
AcDbText
 10
12228.40680314954
 20
3937.765608013134
 30
0.0
 40
90.0
  1
40
 50
90.0
 41
0.6666666666666666
  7
00
100
AcDbText
  0
LINE
  5
192C3
330
19716
100
AcDbEntity
  8
SUNPOU
100
AcDbLine
 10
12273.40680314955
 20
3875.087036584561
 30
0.0
 11
12273.40680314955
 21
3863.83703658456
 31
0.0
  0
LINE
  5
192C5
330
19716
100
AcDbEntity
  8
SUNPOU
100
AcDbLine
 10
12273.40680314955
 20
3737.587036584561
 30
0.0
 11
12273.40680314955
 21
3748.837036584561
 31
0.0
  0
TEXT
  5
192C6
330
19716
100
AcDbEntity
  8
SUNPOU
100
AcDbText
 10
12228.40680314954
 20
3437.622750870277
 30
0.0
 40
90.0
  1
27
 50
90.0
 41
0.6666666666666666
  7
00
100
AcDbText
  0
LINE
  5
192C8
330
19716
100
AcDbEntity
  8
SUNPOU
100
AcDbLine
 10
12273.40680314955
 20
3607.087036584561
 30
0.0
 11
12273.40680314955
 21
3595.837036584561
 31
0.0
  0
LINE
  5
192CA
330
19716
100
AcDbEntity
  8
SUNPOU
100
AcDbLine
 10
12273.40680314955
 20
3737.587036584561
 30
0.0
 11
12273.40680314955
 21
3748.837036584561
 31
0.0
  0
TEXT
  5
192CB
330
19716
100
AcDbEntity
  8
SUNPOU
100
AcDbText
 10
7615.769855790351
 20
3197.941982276743
 30
0.0
 40
90.0
  1
80
 50
90.0
 41
0.6666666666666666
  7
00
100
AcDbText
  0
LINE
  5
192CD
330
19716
100
AcDbEntity
  8
SUNPOU
100
AcDbLine
 10
7660.769855790352
 20
3202.334839419596
 30
0.0
 11
7660.769855790352
 21
3213.584839419597
 31
0.0
  0
LINE
  5
192CF
330
19716
100
AcDbEntity
  8
SUNPOU
100
AcDbLine
 10
7660.769855790352
 20
3307.8348394196
 30
0.0
 11
7660.769855790352
 21
3296.5848394196
 31
0.0
  0
TEXT
  5
192D0
330
19716
100
AcDbEntity
  8
SUNPOU
100
AcDbText
 10
7615.76985579035
 20
3508.113410848178
 30
0.0
 40
90.0
  1
80
 50
90.0
 41
0.6666666666666666
  7
00
100
AcDbText
  0
LINE
  5
192D2
330
19716
100
AcDbEntity
  8
SUNPOU
100
AcDbLine
 10
7660.769855790352
 20
3445.434839419605
 30
0.0
 11
7660.769855790352
 21
3434.184839419605
 31
0.0
  0
LINE
  5
192D4
330
19716
100
AcDbEntity
  8
SUNPOU
100
AcDbLine
 10
7660.769855790352
 20
3330.3348394196
 30
0.0
 11
7660.769855790352
 21
3341.584839419601
 31
0.0
  0
TEXT
  5
192D5
330
19716
100
AcDbEntity
  8
SUNPOU
100
AcDbText
 10
7615.76985579035
 20
2865.370553705315
 30
0.0
 40
90.0
  1
300
 50
90.0
 41
0.6666666666666666
  7
00
100
AcDbText
  0
LINE
  5
192D7
330
19716
100
AcDbEntity
  8
SUNPOU
100
AcDbLine
 10
7660.769855790352
 20
3179.834839419596
 30
0.0
 11
7660.769855790352
 21
3168.584839419597
 31
0.0
  0
LINE
  5
192D9
330
19716
100
AcDbEntity
  8
SUNPOU
100
AcDbLine
 10
7660.769855790352
 20
2722.334839419602
 30
0.0
 11
7660.769855790352
 21
2733.584839419602
 31
0.0
  0
TEXT
  5
192DA
330
19716
100
AcDbEntity
  8
SUNPOU
100
AcDbText
 10
11927.76694549065
 20
2290.804976716086
 30
0.0
 40
90.0
  1
20
 41
0.6666666666666666
  7
00
100
AcDbText
  0
LINE
  5
192DC
330
19716
100
AcDbEntity
  8
SUNPOU
100
AcDbLine
 10
11872.58837406209
 20
2245.804976716085
 30
0.0
 11
11883.83837406209
 21
2245.804976716085
 31
0.0
  0
LINE
  5
192DE
330
19716
100
AcDbEntity
  8
SUNPOU
100
AcDbLine
 10
11770.08837406209
 20
2245.804976716085
 30
0.0
 11
11758.83837406209
 21
2245.804976716085
 31
0.0
  0
TEXT
  5
192DF
330
19716
100
AcDbEntity
  8
SUNPOU
100
AcDbText
 10
11451.33837406209
 20
2290.804976716086
 30
0.0
 40
90.0
  1
120
 41
0.6666666666666666
  7
00
100
AcDbText
  0
LINE
  5
192E1
330
19716
100
AcDbEntity
  8
SUNPOU
100
AcDbLine
 10
11770.08837406209
 20
2245.804976716085
 30
0.0
 11
11758.83837406209
 21
2245.804976716085
 31
0.0
  0
LINE
  5
192E3
330
19716
100
AcDbEntity
  8
SUNPOU
100
AcDbLine
 10
11312.58837406211
 20
2245.804976716085
 30
0.0
 11
11323.83837406211
 21
2245.804976716085
 31
0.0
  0
TEXT
  5
192E4
330
19716
100
AcDbEntity
  8
SUNPOU
100
AcDbText
 10
11040.62408834781
 20
2290.804976716086
 30
0.0
 40
90.0
  1
20
 41
0.6666666666666666
  7
00
100
AcDbText
  0
LINE
  5
192E6
330
19716
100
AcDbEntity
  8
SUNPOU
100
AcDbLine
 10
11210.08837406209
 20
2245.804976716085
 30
0.0
 11
11198.83837406209
 21
2245.804976716085
 31
0.0
  0
LINE
  5
192E8
330
19716
100
AcDbEntity
  8
SUNPOU
100
AcDbLine
 10
11312.58837406211
 20
2245.804976716085
 30
0.0
 11
11323.83837406211
 21
2245.804976716085
 31
0.0
  0
TEXT
  5
192E9
330
19716
100
AcDbEntity
  8
SUNPOU
100
AcDbText
 10
11451.33837406208
 20
2080.804976716085
 30
0.0
 40
90.0
  1
160
 41
0.6666666666666666
  7
00
100
AcDbText
  0
LINE
  5
192EB
330
19716
100
AcDbEntity
  8
SUNPOU
100
AcDbLine
 10
11850.08837406209
 20
2035.804976716086
 30
0.0
 11
11838.83837406209
 21
2035.804976716086
 31
0.0
  0
LINE
  5
192ED
330
19716
100
AcDbEntity
  8
SUNPOU
100
AcDbLine
 10
11232.58837406209
 20
2035.804976716086
 30
0.0
 11
11243.83837406209
 21
2035.804976716086
 31
0.0
  0
TEXT
  5
192EE
330
19716
100
AcDbEntity
  8
SUNPOU
100
AcDbText
 10
10873.33837406209
 20
2374.430058338866
 30
0.0
 40
90.0
  1
40
 50
90.0
 41
0.6666666666666666
  7
00
100
AcDbText
  0
LINE
  5
192F0
330
19716
100
AcDbEntity
  8
SUNPOU
100
AcDbLine
 10
10918.33837406209
 20
2551.39434405315
 30
0.0
 11
10918.33837406209
 21
2562.644344053149
 31
0.0
  0
LINE
  5
192F2
330
19716
100
AcDbEntity
  8
SUNPOU
100
AcDbLine
 10
10918.33837406209
 20
2688.89434405315
 30
0.0
 11
10918.33837406209
 21
2677.644344053149
 31
0.0
  0
TEXT
  5
192F3
330
19716
100
AcDbEntity
  8
SUNPOU
100
AcDbText
 10
10873.33837406209
 20
2911.572915481723
 30
0.0
 40
90.0
  1
40
 50
90.0
 41
0.6666666666666666
  7
00
100
AcDbText
  0
LINE
  5
192F5
330
19716
100
AcDbEntity
  8
SUNPOU
100
AcDbLine
 10
10918.33837406209
 20
2848.89434405315
 30
0.0
 11
10918.33837406209
 21
2837.644344053149
 31
0.0
  0
LINE
  5
192F7
330
19716
100
AcDbEntity
  8
SUNPOU
100
AcDbLine
 10
10918.33837406209
 20
2711.394344053149
 30
0.0
 11
10918.33837406209
 21
2722.644344053149
 31
0.0
  0
TEXT
  5
192F8
330
19716
100
AcDbEntity
  8
SUNPOU
100
AcDbText
 10
10663.33837406209
 20
2643.001486910295
 30
0.0
 40
90.0
  1
80
 50
90.0
 41
0.6666666666666666
  7
00
100
AcDbText
  0
LINE
  5
192FA
330
19716
100
AcDbEntity
  8
SUNPOU
100
AcDbLine
 10
10708.33837406208
 20
2848.89434405315
 30
0.0
 11
10708.33837406208
 21
2837.644344053149
 31
0.0
  0
LINE
  5
192FC
330
19716
100
AcDbEntity
  8
SUNPOU
100
AcDbLine
 10
10708.33837406208
 20
2551.39434405315
 30
0.0
 11
10708.33837406208
 21
2562.644344053149
 31
0.0
  0
TEXT
  5
192FD
330
19716
100
AcDbEntity
  8
SUNPOU
100
AcDbText
 10
11927.76694549065
 20
3439.170862655058
 30
0.0
 40
90.0
  1
20
 41
0.6666666666666666
  7
00
100
AcDbText
  0
LINE
  5
192FF
330
19716
100
AcDbEntity
  8
SUNPOU
100
AcDbLine
 10
11872.58837406209
 20
3394.170862655057
 30
0.0
 11
11883.83837406209
 21
3394.170862655057
 31
0.0
  0
LINE
  5
19301
330
19716
100
AcDbEntity
  8
SUNPOU
100
AcDbLine
 10
11770.08837406209
 20
3394.170862655057
 30
0.0
 11
11758.83837406209
 21
3394.170862655057
 31
0.0
  0
TEXT
  5
19302
330
19716
100
AcDbEntity
  8
SUNPOU
100
AcDbText
 10
11451.33837406209
 20
3439.170862655058
 30
0.0
 40
90.0
  1
120
 41
0.6666666666666666
  7
00
100
AcDbText
  0
LINE
  5
19304
330
19716
100
AcDbEntity
  8
SUNPOU
100
AcDbLine
 10
11770.08837406209
 20
3394.170862655057
 30
0.0
 11
11758.83837406209
 21
3394.170862655057
 31
0.0
  0
LINE
  5
19306
330
19716
100
AcDbEntity
  8
SUNPOU
100
AcDbLine
 10
11312.58837406211
 20
3394.170862655057
 30
0.0
 11
11323.83837406211
 21
3394.170862655057
 31
0.0
  0
TEXT
  5
19307
330
19716
100
AcDbEntity
  8
SUNPOU
100
AcDbText
 10
11040.62408834781
 20
3439.170862655058
 30
0.0
 40
90.0
  1
20
 41
0.6666666666666666
  7
00
100
AcDbText
  0
LINE
  5
19309
330
19716
100
AcDbEntity
  8
SUNPOU
100
AcDbLine
 10
11210.08837406209
 20
3394.170862655057
 30
0.0
 11
11198.83837406209
 21
3394.170862655057
 31
0.0
  0
LINE
  5
1930B
330
19716
100
AcDbEntity
  8
SUNPOU
100
AcDbLine
 10
11312.58837406211
 20
3394.170862655057
 30
0.0
 11
11323.83837406211
 21
3394.170862655057
 31
0.0
  0
TEXT
  5
1930C
330
19716
100
AcDbEntity
  8
SUNPOU
100
AcDbText
 10
11451.33837406208
 20
3229.170862655058
 30
0.0
 40
90.0
  1
160
 41
0.6666666666666666
  7
00
100
AcDbText
  0
LINE
  5
1930E
330
19716
100
AcDbEntity
  8
SUNPOU
100
AcDbLine
 10
11850.08837406209
 20
3184.170862655058
 30
0.0
 11
11838.83837406209
 21
3184.170862655058
 31
0.0
  0
LINE
  5
19310
330
19716
100
AcDbEntity
  8
SUNPOU
100
AcDbLine
 10
11232.58837406209
 20
3184.170862655058
 30
0.0
 11
11243.83837406209
 21
3184.170862655058
 31
0.0
  0
TEXT
  5
19311
330
19716
100
AcDbEntity
  8
SUNPOU
100
AcDbText
 10
8494.408966076823
 20
2193.684839419605
 30
0.0
 40
90.0
  1
800
 41
0.6666666666666666
  7
00
100
AcDbText
  0
LINE
  5
19313
330
19716
100
AcDbEntity
  8
SUNPOU
100
AcDbLine
 10
9208.873251791109
 20
2148.684839419604
 30
0.0
 11
9197.623251791108
 21
2148.684839419604
 31
0.0
  0
LINE
  5
19315
330
19716
100
AcDbEntity
  8
SUNPOU
100
AcDbLine
 10
7951.373251791109
 20
2148.684839419604
 30
0.0
 11
7962.623251791112
 21
2148.684839419604
 31
0.0
  0
TEXT
  5
19316
330
19716
100
AcDbEntity
  8
SUNPOU
100
AcDbText
 10
8461.55182321968
 20
1983.684839419605
 30
0.0
 40
90.0
  1
1000
 41
0.6666666666666666
  7
00
100
AcDbText
  0
LINE
  5
19318
330
19716
100
AcDbEntity
  8
SUNPOU
100
AcDbLine
 10
9368.873251791109
 20
1938.684839419605
 30
0.0
 11
9357.623251791109
 21
1938.684839419605
 31
0.0
  0
LINE
  5
1931A
330
19716
100
AcDbEntity
  8
SUNPOU
100
AcDbLine
 10
7791.373251791108
 20
1938.684839419605
 30
0.0
 11
7802.623251791108
 21
1938.684839419605
 31
0.0
  0
TEXT
  5
1931B
330
19716
100
AcDbEntity
  8
SUNPOU
100
AcDbText
 10
7195.769855790351
 20
3523.113410848177
 30
0.0
 40
90.0
  1
50
 50
90.0
 41
0.6666666666666666
  7
00
100
AcDbText
  0
LINE
  5
1931D
330
19716
100
AcDbEntity
  8
SUNPOU
100
AcDbLine
 10
7240.769855790351
 20
3467.934839419604
 30
0.0
 11
7240.769855790351
 21
3479.184839419604
 31
0.0
  0
LINE
  5
1931F
330
19716
100
AcDbEntity
  8
SUNPOU
100
AcDbLine
 10
7240.769855790351
 20
3365.434839419608
 30
0.0
 11
7240.769855790351
 21
3354.184839419608
 31
0.0
  0
TEXT
  5
19320
330
19716
100
AcDbEntity
  8
SUNPOU
100
AcDbText
 10
8334.408966076827
 20
4175.485411556194
 30
0.0
 40
90.0
  1
200
 41
0.6666666666666666
  7
00
100
AcDbText
  0
LINE
  5
19322
330
19716
100
AcDbEntity
  8
SUNPOU
100
AcDbLine
 10
8271.373251791111
 20
4130.485411556196
 30
0.0
 11
8282.623251791111
 21
4130.485411556196
 31
0.0
  0
LINE
  5
19324
330
19716
100
AcDbEntity
  8
SUNPOU
100
AcDbLine
 10
8568.87325179111
 20
4130.485411556196
 30
0.0
 11
8557.623251791111
 21
4130.485411556196
 31
0.0
  0
TEXT
  5
19325
330
19716
100
AcDbEntity
  8
SUNPOU
100
AcDbText
 10
4714.082765553178
 20
2193.684839419601
 30
0.0
 40
90.0
  1
800
 41
0.6666666666666666
  7
00
100
AcDbText
  0
LINE
  5
19327
330
19716
100
AcDbEntity
  8
SUNPOU
100
AcDbLine
 10
5428.547051267464
 20
2148.684839419601
 30
0.0
 11
5417.297051267464
 21
2148.684839419601
 31
0.0
  0
LINE
  5
19329
330
19716
100
AcDbEntity
  8
SUNPOU
100
AcDbLine
 10
4171.047051267463
 20
2148.684839419601
 30
0.0
 11
4182.297051267464
 21
2148.684839419601
 31
0.0
  0
TEXT
  5
1932A
330
19716
100
AcDbEntity
  8
SUNPOU
100
AcDbText
 10
4681.225622696032
 20
1983.6848394196
 30
0.0
 40
90.0
  1
1000
 41
0.6666666666666666
  7
00
100
AcDbText
  0
LINE
  5
1932C
330
19716
100
AcDbEntity
  8
SUNPOU
100
AcDbLine
 10
5588.547051267462
 20
1938.6848394196
 30
0.0
 11
5577.297051267462
 21
1938.6848394196
 31
0.0
  0
LINE
  5
1932E
330
19716
100
AcDbEntity
  8
SUNPOU
100
AcDbLine
 10
4011.04705126746
 20
1938.6848394196
 30
0.0
 11
4022.297051267462
 21
1938.6848394196
 31
0.0
  0
TEXT
  5
1932F
330
19716
100
AcDbEntity
  8
SUNPOU
100
AcDbText
 10
3415.443655266705
 20
3523.113410848178
 30
0.0
 40
90.0
  1
50
 50
90.0
 41
0.6666666666666666
  7
00
100
AcDbText
  0
LINE
  5
19331
330
19716
100
AcDbEntity
  8
SUNPOU
100
AcDbLine
 10
3460.443655266704
 20
3467.934839419605
 30
0.0
 11
3460.443655266704
 21
3479.184839419605
 31
0.0
  0
LINE
  5
19333
330
19716
100
AcDbEntity
  8
SUNPOU
100
AcDbLine
 10
3460.443655266704
 20
3365.434839419604
 30
0.0
 11
3460.443655266704
 21
3354.184839419604
 31
0.0
  0
TEXT
  5
19334
330
19716
100
AcDbEntity
  8
SUNPOU
100
AcDbText
 10
3835.443655266704
 20
3197.941982276741
 30
0.0
 40
90.0
  1
80
 50
90.0
 41
0.6666666666666666
  7
00
100
AcDbText
  0
LINE
  5
19336
330
19716
100
AcDbEntity
  8
SUNPOU
100
AcDbLine
 10
3880.443655266705
 20
3202.334839419596
 30
0.0
 11
3880.443655266705
 21
3213.584839419597
 31
0.0
  0
LINE
  5
19338
330
19716
100
AcDbEntity
  8
SUNPOU
100
AcDbLine
 10
3880.443655266705
 20
3307.8348394196
 30
0.0
 11
3880.443655266705
 21
3296.5848394196
 31
0.0
  0
TEXT
  5
19339
330
19716
100
AcDbEntity
  8
SUNPOU
100
AcDbText
 10
3835.443655266704
 20
3508.113410848177
 30
0.0
 40
90.0
  1
80
 50
90.0
 41
0.6666666666666666
  7
00
100
AcDbText
  0
LINE
  5
1933B
330
19716
100
AcDbEntity
  8
SUNPOU
100
AcDbLine
 10
3880.443655266704
 20
3445.434839419605
 30
0.0
 11
3880.443655266704
 21
3434.184839419605
 31
0.0
  0
LINE
  5
1933D
330
19716
100
AcDbEntity
  8
SUNPOU
100
AcDbLine
 10
3880.443655266704
 20
3330.3348394196
 30
0.0
 11
3880.443655266704
 21
3341.584839419601
 31
0.0
  0
TEXT
  5
1933E
330
19716
100
AcDbEntity
  8
SUNPOU
100
AcDbText
 10
3835.443655266704
 20
2865.370553705314
 30
0.0
 40
90.0
  1
300
 50
90.0
 41
0.6666666666666666
  7
00
100
AcDbText
  0
LINE
  5
19340
330
19716
100
AcDbEntity
  8
SUNPOU
100
AcDbLine
 10
3880.443655266704
 20
3179.834839419596
 30
0.0
 11
3880.443655266704
 21
3168.584839419597
 31
0.0
  0
LINE
  5
19342
330
19716
100
AcDbEntity
  8
SUNPOU
100
AcDbLine
 10
3880.443655266704
 20
2722.334839419602
 30
0.0
 11
3880.443655266704
 21
2733.584839419602
 31
0.0
  0
TEXT
  5
19343
330
19716
100
AcDbEntity
  8
SUNPOU
100
AcDbText
 10
4394.082765553178
 20
4175.485411556191
 30
0.0
 40
90.0
  1
400
 41
0.6666666666666666
  7
00
100
AcDbText
  0
LINE
  5
19345
330
19716
100
AcDbEntity
  8
SUNPOU
100
AcDbLine
 10
4171.047051267463
 20
4130.485411556192
 30
0.0
 11
4182.297051267464
 21
4130.485411556192
 31
0.0
  0
LINE
  5
19347
330
19716
100
AcDbEntity
  8
SUNPOU
100
AcDbLine
 10
4788.547051267463
 20
4130.485411556192
 30
0.0
 11
4777.297051267463
 21
4130.485411556192
 31
0.0
  0
TEXT
  5
19348
330
19716
100
AcDbEntity
  8
SUNPOU
100
AcDbText
 10
12181.36032602547
 20
9066.655560084637
 30
0.0
 40
90.0
  1
200
 50
90.0
 41
0.6666666666666666
  7
00
100
AcDbText
  0
LINE
  5
1934A
330
19716
100
AcDbEntity
  8
SUNPOU
100
AcDbLine
 10
12226.36032602547
 20
9300.762702941778
 30
0.0
 11
12226.36032602547
 21
9312.012702941778
 31
0.0
  0
LINE
  5
1934C
330
19716
100
AcDbEntity
  8
SUNPOU
100
AcDbLine
 10
12226.36032602547
 20
9478.262702941778
 30
0.0
 11
12226.36032602547
 21
9467.012702941778
 31
0.0
  0
TEXT
  5
1934D
330
19716
100
AcDbEntity
  8
SUNPOU
100
AcDbText
 10
12181.36032602547
 20
9740.941274370351
 30
0.0
 40
90.0
  1
200
 50
90.0
 41
0.6666666666666666
  7
00
100
AcDbText
  0
LINE
  5
1934F
330
19716
100
AcDbEntity
  8
SUNPOU
100
AcDbLine
 10
12226.36032602547
 20
9678.262702941779
 30
0.0
 11
12226.36032602547
 21
9667.012702941779
 31
0.0
  0
LINE
  5
19351
330
19716
100
AcDbEntity
  8
SUNPOU
100
AcDbLine
 10
12226.36032602547
 20
9500.762702941775
 30
0.0
 11
12226.36032602547
 21
9512.012702941779
 31
0.0
  0
ARC
  5
19352
330
19716
100
AcDbEntity
  8
SUNPOU
100
AcDbCircle
 10
12646.36032602547
 20
9689.512702941778
 30
0.0
 40
5.625
100
AcDbArc
 50
270.0
 51
90.0
  0
ARC
  5
19353
330
19716
100
AcDbEntity
  8
SUNPOU
100
AcDbCircle
 10
12646.36032602547
 20
9689.512702941778
 30
0.0
 40
5.625
100
AcDbArc
 50
90.0
 51
270.0
  0
ARC
  5
19354
330
19716
100
AcDbEntity
  8
SUNPOU
100
AcDbCircle
 10
12436.36032602547
 20
9689.512702941778
 30
0.0
 40
5.625
100
AcDbArc
 50
270.0
 51
90.0
  0
ARC
  5
19355
330
19716
100
AcDbEntity
  8
SUNPOU
100
AcDbCircle
 10
12436.36032602547
 20
9689.512702941778
 30
0.0
 40
5.625
100
AcDbArc
 50
90.0
 51
270.0
  0
ARC
  5
19356
330
19716
100
AcDbEntity
  8
SUNPOU
100
AcDbCircle
 10
12436.36032602547
 20
9289.512702941776
 30
0.0
 40
5.625
100
AcDbArc
 50
270.0
 51
90.0
  0
ARC
  5
19357
330
19716
100
AcDbEntity
  8
SUNPOU
100
AcDbCircle
 10
12436.36032602547
 20
9289.512702941776
 30
0.0
 40
5.625
100
AcDbArc
 50
90.0
 51
270.0
  0
ARC
  5
19358
330
19716
100
AcDbEntity
  8
SUNPOU
100
AcDbCircle
 10
12436.36032602547
 20
9289.512702941776
 30
0.0
 40
5.625
100
AcDbArc
 50
90.0
 51
270.0
  0
ARC
  5
19359
330
19716
100
AcDbEntity
  8
SUNPOU
100
AcDbCircle
 10
12436.36032602547
 20
9289.512702941776
 30
0.0
 40
5.625
100
AcDbArc
 50
270.0
 51
90.0
  0
ARC
  5
1935A
330
19716
100
AcDbEntity
  8
SUNPOU
100
AcDbCircle
 10
12436.36032602547
 20
7489.512702941778
 30
0.0
 40
5.625
100
AcDbArc
 50
90.0
 51
270.0
  0
ARC
  5
1935B
330
19716
100
AcDbEntity
  8
SUNPOU
100
AcDbCircle
 10
12436.36032602547
 20
7489.512702941778
 30
0.0
 40
5.625
100
AcDbArc
 50
270.0
 51
90.0
  0
ARC
  5
1935C
330
19716
100
AcDbEntity
  8
SUNPOU
100
AcDbCircle
 10
12436.36032602547
 20
7489.512702941778
 30
0.0
 40
5.625
100
AcDbArc
 50
270.0
 51
90.0
  0
ARC
  5
1935D
330
19716
100
AcDbEntity
  8
SUNPOU
100
AcDbCircle
 10
12436.36032602547
 20
7489.512702941778
 30
0.0
 40
5.625
100
AcDbArc
 50
90.0
 51
270.0
  0
ARC
  5
1935E
330
19716
100
AcDbEntity
  8
SUNPOU
100
AcDbCircle
 10
12646.36032602547
 20
7089.512702941778
 30
0.0
 40
5.625
100
AcDbArc
 50
90.0
 51
270.0
  0
ARC
  5
1935F
330
19716
100
AcDbEntity
  8
SUNPOU
100
AcDbCircle
 10
12646.36032602547
 20
7089.512702941778
 30
0.0
 40
5.625
100
AcDbArc
 50
270.0
 51
90.0
  0
ARC
  5
19360
330
19716
100
AcDbEntity
  8
SUNPOU
100
AcDbCircle
 10
12436.36032602547
 20
7089.512702941778
 30
0.0
 40
5.625
100
AcDbArc
 50
90.0
 51
270.0
  0
ARC
  5
19361
330
19716
100
AcDbEntity
  8
SUNPOU
100
AcDbCircle
 10
12436.36032602547
 20
7089.512702941778
 30
0.0
 40
5.625
100
AcDbArc
 50
270.0
 51
90.0
  0
TEXT
  5
19362
330
19716
100
AcDbEntity
  8
SUNPOU
100
AcDbText
 10
11540.64604031119
 20
10034.51270294178
 30
0.0
 40
90.0
  1
400
 41
0.6666666666666666
  7
00
100
AcDbText
  0
LINE
  5
19364
330
19716
100
AcDbEntity
  8
SUNPOU
100
AcDbLine
 10
11815.11032602547
 20
9989.512702941778
 30
0.0
 11
11803.86032602547
 21
9989.512702941778
 31
0.0
  0
LINE
  5
19366
330
19716
100
AcDbEntity
  8
SUNPOU
100
AcDbLine
 10
11437.61032602548
 20
9989.512702941778
 30
0.0
 11
11448.86032602547
 21
9989.512702941778
 31
0.0
  0
ARC
  5
19367
330
19716
100
AcDbEntity
  8
SUNPOU
100
AcDbCircle
 10
8626.360326025478
 20
9989.512702941778
 30
0.0
 40
5.625
100
AcDbArc
 50
180.0
 51
0.0
  0
ARC
  5
19368
330
19716
100
AcDbEntity
  8
SUNPOU
100
AcDbCircle
 10
8626.360326025478
 20
9989.512702941778
 30
0.0
 40
5.625
100
AcDbArc
 50
0.0
 51
180.0
  0
TEXT
  5
19369
330
19716
100
AcDbEntity
  8
SUNPOU
100
AcDbText
 10
9912.074611739765
 20
10034.51270294178
 30
0.0
 40
90.0
  1
2800
 41
0.6666666666666666
  7
00
100
AcDbText
  0
LINE
  5
1936B
330
19716
100
AcDbEntity
  8
SUNPOU
100
AcDbLine
 10
8637.610326025479
 20
9989.512702941778
 30
0.0
 11
8648.860326025479
 21
9989.512702941778
 31
0.0
  0
LINE
  5
1936D
330
19716
100
AcDbEntity
  8
SUNPOU
100
AcDbLine
 10
11415.11032602547
 20
9989.512702941778
 30
0.0
 11
11403.86032602547
 21
9989.512702941778
 31
0.0
  0
TEXT
  5
1936E
330
19716
100
AcDbEntity
  8
SUNPOU
100
AcDbText
 10
9281.360326025481
 20
7403.798417227493
 30
0.0
 40
90.0
  1
800
 50
90.0
 41
0.6666666666666666
  7
00
100
AcDbText
  0
LINE
  5
19370
330
19716
100
AcDbEntity
  8
SUNPOU
100
AcDbLine
 10
9326.360326025483
 20
7100.762702941778
 30
0.0
 11
9326.360326025483
 21
7112.012702941779
 31
0.0
  0
LINE
  5
19372
330
19716
100
AcDbEntity
  8
SUNPOU
100
AcDbLine
 10
9326.360326025483
 20
7878.262702941778
 30
0.0
 11
9326.360326025483
 21
7867.012702941778
 31
0.0
  0
ARC
  5
19373
330
19716
100
AcDbEntity
  8
SUNPOU
100
AcDbCircle
 10
7226.360326025478
 20
9989.512702941778
 30
0.0
 40
5.625
100
AcDbArc
 50
0.0
 51
180.0
  0
ARC
  5
19374
330
19716
100
AcDbEntity
  8
SUNPOU
100
AcDbCircle
 10
7226.360326025478
 20
9989.512702941778
 30
0.0
 40
5.625
100
AcDbArc
 50
180.0
 51
0.0
  0
TEXT
  5
19375
330
19716
100
AcDbEntity
  8
SUNPOU
100
AcDbText
 10
5712.074611739765
 20
10034.51270294178
 30
0.0
 40
90.0
  1
2800
 41
0.6666666666666666
  7
00
100
AcDbText
  0
LINE
  5
19377
330
19716
100
AcDbEntity
  8
SUNPOU
100
AcDbLine
 10
4437.610326025478
 20
9989.512702941778
 30
0.0
 11
4448.860326025477
 21
9989.512702941778
 31
0.0
  0
LINE
  5
19379
330
19716
100
AcDbEntity
  8
SUNPOU
100
AcDbLine
 10
7215.110326025478
 20
9989.512702941778
 30
0.0
 11
7203.860326025479
 21
9989.512702941778
 31
0.0
  0
TEXT
  5
1937A
330
19716
100
AcDbEntity
  8
SUNPOU
100
AcDbText
 10
7140.646040311192
 20
8634.512702941778
 30
0.0
 40
90.0
  1
800
 41
0.6666666666666666
  7
00
100
AcDbText
  0
LINE
  5
1937C
330
19716
100
AcDbEntity
  8
SUNPOU
100
AcDbLine
 10
7615.110326025479
 20
8589.512702941778
 30
0.0
 11
7603.860326025479
 21
8589.512702941778
 31
0.0
  0
LINE
  5
1937E
330
19716
100
AcDbEntity
  8
SUNPOU
100
AcDbLine
 10
6837.61032602548
 20
8589.512702941778
 30
0.0
 11
6848.860326025479
 21
8589.512702941778
 31
0.0
  0
TEXT
  5
1937F
330
19716
100
AcDbEntity
  8
SUNPOU
100
AcDbText
 10
6481.360326025478
 20
9203.798417227494
 30
0.0
 40
90.0
  1
800
 50
90.0
 41
0.6666666666666666
  7
00
100
AcDbText
  0
LINE
  5
19381
330
19716
100
AcDbEntity
  8
SUNPOU
100
AcDbLine
 10
6526.360326025478
 20
8900.762702941776
 30
0.0
 11
6526.360326025478
 21
8912.012702941778
 31
0.0
  0
LINE
  5
19383
330
19716
100
AcDbEntity
  8
SUNPOU
100
AcDbLine
 10
6526.360326025478
 20
9678.262702941779
 30
0.0
 11
6526.360326025478
 21
9667.012702941779
 31
0.0
  0
TEXT
  5
19384
330
19716
100
AcDbEntity
  8
SUNPOU
100
AcDbText
 10
4140.646040311193
 20
10034.51270294178
 30
0.0
 40
90.0
  1
400
 41
0.6666666666666666
  7
00
100
AcDbText
  0
LINE
  5
19386
330
19716
100
AcDbEntity
  8
SUNPOU
100
AcDbLine
 10
4037.610326025478
 20
9989.512702941778
 30
0.0
 11
4048.860326025478
 21
9989.512702941778
 31
0.0
  0
LINE
  5
19388
330
19716
100
AcDbEntity
  8
SUNPOU
100
AcDbLine
 10
4415.110326025478
 20
9989.512702941778
 30
0.0
 11
4403.860326025479
 21
9989.512702941778
 31
0.0
  0
TEXT
  5
19389
330
19716
100
AcDbEntity
  8
SUNPOU
100
AcDbText
 10
8540.646040311191
 20
8234.512702941778
 30
0.0
 40
90.0
  1
800
 41
0.6666666666666666
  7
00
100
AcDbText
  0
LINE
  5
1938B
330
19716
100
AcDbEntity
  8
SUNPOU
100
AcDbLine
 10
9015.11032602548
 20
8189.512702941778
 30
0.0
 11
9003.860326025479
 21
8189.512702941778
 31
0.0
  0
LINE
  5
1938D
330
19716
100
AcDbEntity
  8
SUNPOU
100
AcDbLine
 10
8237.61032602548
 20
8189.512702941778
 30
0.0
 11
8248.860326025479
 21
8189.512702941778
 31
0.0
  0
TEXT
  5
1938E
330
19716
100
AcDbEntity
  8
SUNPOU
100
AcDbText
 10
7462.646040311195
 20
10244.51270294178
 30
0.0
 40
90.0
  1
L = 2800 x N + 800
 41
0.6666666666666666
  7
00
100
AcDbText
  0
LINE
  5
19390
330
19716
100
AcDbEntity
  8
SUNPOU
100
AcDbLine
 10
11815.11032602547
 20
10199.51270294177
 30
0.0
 11
11803.86032602547
 21
10199.51270294177
 31
0.0
  0
LINE
  5
19392
330
19716
100
AcDbEntity
  8
SUNPOU
100
AcDbLine
 10
4037.610326025478
 20
10199.51270294177
 30
0.0
 11
4048.860326025478
 21
10199.51270294177
 31
0.0
  0
ARC
  5
19393
330
19716
100
AcDbEntity
  8
SUNPOU
100
AcDbCircle
 10
7660.769855790352
 20
2551.084839419601
 30
0.0
 40
5.625
100
AcDbArc
 50
90.0
 51
270.0
  0
ARC
  5
19394
330
19716
100
AcDbEntity
  8
SUNPOU
100
AcDbCircle
 10
7660.769855790352
 20
2551.084839419601
 30
0.0
 40
5.625
100
AcDbArc
 50
270.0
 51
90.0
  0
ARC
  5
19395
330
19716
100
AcDbEntity
  8
SUNPOU
100
AcDbCircle
 10
7660.769855790352
 20
2711.084839419601
 30
0.0
 40
5.625
100
AcDbArc
 50
270.0
 51
90.0
  0
ARC
  5
19396
330
19716
100
AcDbEntity
  8
SUNPOU
100
AcDbCircle
 10
7660.769855790352
 20
2711.084839419601
 30
0.0
 40
5.625
100
AcDbArc
 50
90.0
 51
270.0
  0
ARC
  5
19397
330
19716
100
AcDbEntity
  8
SUNPOU
100
AcDbCircle
 10
7431.785610007509
 20
2551.084839419601
 30
0.0
 40
5.625
100
AcDbArc
 50
90.0
 51
270.0
  0
ARC
  5
19398
330
19716
100
AcDbEntity
  8
SUNPOU
100
AcDbCircle
 10
7431.785610007509
 20
2551.084839419601
 30
0.0
 40
5.625
100
AcDbArc
 50
270.0
 51
90.0
  0
ARC
  5
19399
330
19716
100
AcDbEntity
  8
SUNPOU
100
AcDbCircle
 10
7431.785610007509
 20
3456.684839419605
 30
0.0
 40
5.625
100
AcDbArc
 50
270.0
 51
90.0
  0
ARC
  5
1939A
330
19716
100
AcDbEntity
  8
SUNPOU
100
AcDbCircle
 10
7431.785610007509
 20
3456.684839419605
 30
0.0
 40
5.625
100
AcDbArc
 50
90.0
 51
270.0
  0
ARC
  5
1939B
330
19716
100
AcDbEntity
  8
SUNPOU
100
AcDbCircle
 10
3880.443655266704
 20
2551.084839419601
 30
0.0
 40
5.625
100
AcDbArc
 50
90.0
 51
270.0
  0
ARC
  5
1939C
330
19716
100
AcDbEntity
  8
SUNPOU
100
AcDbCircle
 10
3880.443655266704
 20
2551.084839419601
 30
0.0
 40
5.625
100
AcDbArc
 50
270.0
 51
90.0
  0
ARC
  5
1939D
330
19716
100
AcDbEntity
  8
SUNPOU
100
AcDbCircle
 10
3880.443655266704
 20
2711.084839419601
 30
0.0
 40
5.625
100
AcDbArc
 50
270.0
 51
90.0
  0
ARC
  5
1939E
330
19716
100
AcDbEntity
  8
SUNPOU
100
AcDbCircle
 10
3880.443655266704
 20
2711.084839419601
 30
0.0
 40
5.625
100
AcDbArc
 50
90.0
 51
270.0
  0
ARC
  5
1939F
330
19716
100
AcDbEntity
  8
SUNPOU
100
AcDbCircle
 10
3654.949120020982
 20
2551.084839419601
 30
0.0
 40
5.625
100
AcDbArc
 50
90.0
 51
270.0
  0
ARC
  5
193A0
330
19716
100
AcDbEntity
  8
SUNPOU
100
AcDbCircle
 10
3654.949120020982
 20
2551.084839419601
 30
0.0
 40
5.625
100
AcDbArc
 50
270.0
 51
90.0
  0
ARC
  5
193A1
330
19716
100
AcDbEntity
  8
SUNPOU
100
AcDbCircle
 10
3654.949120020982
 20
3456.684839419605
 30
0.0
 40
5.625
100
AcDbArc
 50
270.0
 51
90.0
  0
ARC
  5
193A2
330
19716
100
AcDbEntity
  8
SUNPOU
100
AcDbCircle
 10
3654.949120020982
 20
3456.684839419605
 30
0.0
 40
5.625
100
AcDbArc
 50
90.0
 51
270.0
  0
ARC
  5
193A3
330
19716
100
AcDbEntity
  8
SUNPOU
100
AcDbCircle
 10
12273.40680314955
 20
3886.33703658456
 30
0.0
 40
5.625
100
AcDbArc
 50
270.0
 51
90.0
  0
ARC
  5
193A4
330
19716
100
AcDbEntity
  8
SUNPOU
100
AcDbCircle
 10
12273.40680314955
 20
3886.33703658456
 30
0.0
 40
5.625
100
AcDbArc
 50
90.0
 51
270.0
  0
ARC
  5
193A5
330
19716
100
AcDbEntity
  8
SUNPOU
100
AcDbCircle
 10
12273.40680314955
 20
3726.33703658456
 30
0.0
 40
5.625
100
AcDbArc
 50
90.0
 51
270.0
  0
ARC
  5
193A6
330
19716
100
AcDbEntity
  8
SUNPOU
100
AcDbCircle
 10
12273.40680314955
 20
3726.33703658456
 30
0.0
 40
5.625
100
AcDbArc
 50
270.0
 51
90.0
  0
ARC
  5
193A7
330
19716
100
AcDbEntity
  8
SUNPOU
100
AcDbCircle
 10
12273.40680314955
 20
3618.337036584561
 30
0.0
 40
5.625
100
AcDbArc
 50
270.0
 51
90.0
  0
ARC
  5
193A8
330
19716
100
AcDbEntity
  8
SUNPOU
100
AcDbCircle
 10
12273.40680314955
 20
3618.337036584561
 30
0.0
 40
5.625
100
AcDbArc
 50
90.0
 51
270.0
  0
ARC
  5
193A9
330
19716
100
AcDbEntity
  8
SUNPOU
100
AcDbCircle
 10
12273.40680314955
 20
3726.33703658456
 30
0.0
 40
5.625
100
AcDbArc
 50
90.0
 51
270.0
  0
ARC
  5
193AA
330
19716
100
AcDbEntity
  8
SUNPOU
100
AcDbCircle
 10
12273.40680314955
 20
3726.33703658456
 30
0.0
 40
5.625
100
AcDbArc
 50
270.0
 51
90.0
  0
ARC
  5
193AB
330
19716
100
AcDbEntity
  8
SUNPOU
100
AcDbCircle
 10
7660.769855790352
 20
3191.084839419597
 30
0.0
 40
5.625
100
AcDbArc
 50
90.0
 51
270.0
  0
ARC
  5
193AC
330
19716
100
AcDbEntity
  8
SUNPOU
100
AcDbCircle
 10
7660.769855790352
 20
3191.084839419597
 30
0.0
 40
5.625
100
AcDbArc
 50
270.0
 51
90.0
  0
ARC
  5
193AD
330
19716
100
AcDbEntity
  8
SUNPOU
100
AcDbCircle
 10
7660.769855790352
 20
3319.084839419601
 30
0.0
 40
5.625
100
AcDbArc
 50
270.0
 51
90.0
  0
ARC
  5
193AE
330
19716
100
AcDbEntity
  8
SUNPOU
100
AcDbCircle
 10
7660.769855790352
 20
3319.084839419601
 30
0.0
 40
5.625
100
AcDbArc
 50
90.0
 51
270.0
  0
ARC
  5
193AF
330
19716
100
AcDbEntity
  8
SUNPOU
100
AcDbCircle
 10
7660.769855790352
 20
3456.684839419605
 30
0.0
 40
5.625
100
AcDbArc
 50
270.0
 51
90.0
  0
ARC
  5
193B0
330
19716
100
AcDbEntity
  8
SUNPOU
100
AcDbCircle
 10
7660.769855790352
 20
3456.684839419605
 30
0.0
 40
5.625
100
AcDbArc
 50
90.0
 51
270.0
  0
ARC
  5
193B1
330
19716
100
AcDbEntity
  8
SUNPOU
100
AcDbCircle
 10
7660.769855790352
 20
3319.084839419601
 30
0.0
 40
5.625
100
AcDbArc
 50
90.0
 51
270.0
  0
ARC
  5
193B2
330
19716
100
AcDbEntity
  8
SUNPOU
100
AcDbCircle
 10
7660.769855790352
 20
3319.084839419601
 30
0.0
 40
5.625
100
AcDbArc
 50
270.0
 51
90.0
  0
ARC
  5
193B3
330
19716
100
AcDbEntity
  8
SUNPOU
100
AcDbCircle
 10
7660.769855790352
 20
3191.084839419597
 30
0.0
 40
5.625
100
AcDbArc
 50
270.0
 51
90.0
  0
ARC
  5
193B4
330
19716
100
AcDbEntity
  8
SUNPOU
100
AcDbCircle
 10
7660.769855790352
 20
3191.084839419597
 30
0.0
 40
5.625
100
AcDbArc
 50
90.0
 51
270.0
  0
ARC
  5
193B5
330
19716
100
AcDbEntity
  8
SUNPOU
100
AcDbCircle
 10
7660.769855790352
 20
2711.084839419601
 30
0.0
 40
5.625
100
AcDbArc
 50
90.0
 51
270.0
  0
ARC
  5
193B6
330
19716
100
AcDbEntity
  8
SUNPOU
100
AcDbCircle
 10
7660.769855790352
 20
2711.084839419601
 30
0.0
 40
5.625
100
AcDbArc
 50
270.0
 51
90.0
  0
ARC
  5
193B7
330
19716
100
AcDbEntity
  8
SUNPOU
100
AcDbCircle
 10
11861.33837406209
 20
2245.804976716085
 30
0.0
 40
5.625
100
AcDbArc
 50
0.0
 51
180.0
  0
ARC
  5
193B8
330
19716
100
AcDbEntity
  8
SUNPOU
100
AcDbCircle
 10
11861.33837406209
 20
2245.804976716085
 30
0.0
 40
5.625
100
AcDbArc
 50
180.0
 51
0.0
  0
ARC
  5
193B9
330
19716
100
AcDbEntity
  8
SUNPOU
100
AcDbCircle
 10
11781.33837406209
 20
2245.804976716085
 30
0.0
 40
5.625
100
AcDbArc
 50
180.0
 51
0.0
  0
ARC
  5
193BA
330
19716
100
AcDbEntity
  8
SUNPOU
100
AcDbCircle
 10
11781.33837406209
 20
2245.804976716085
 30
0.0
 40
5.625
100
AcDbArc
 50
0.0
 51
180.0
  0
ARC
  5
193BB
330
19716
100
AcDbEntity
  8
SUNPOU
100
AcDbCircle
 10
11781.33837406209
 20
2245.804976716085
 30
0.0
 40
5.625
100
AcDbArc
 50
180.0
 51
0.0
  0
ARC
  5
193BC
330
19716
100
AcDbEntity
  8
SUNPOU
100
AcDbCircle
 10
11781.33837406209
 20
2245.804976716085
 30
0.0
 40
5.625
100
AcDbArc
 50
0.0
 51
180.0
  0
ARC
  5
193BD
330
19716
100
AcDbEntity
  8
SUNPOU
100
AcDbCircle
 10
11301.33837406211
 20
2245.804976716085
 30
0.0
 40
5.625
100
AcDbArc
 50
0.0
 51
180.0
  0
ARC
  5
193BE
330
19716
100
AcDbEntity
  8
SUNPOU
100
AcDbCircle
 10
11301.33837406211
 20
2245.804976716085
 30
0.0
 40
5.625
100
AcDbArc
 50
180.0
 51
0.0
  0
ARC
  5
193BF
330
19716
100
AcDbEntity
  8
SUNPOU
100
AcDbCircle
 10
11221.33837406209
 20
2245.804976716085
 30
0.0
 40
5.625
100
AcDbArc
 50
180.0
 51
0.0
  0
ARC
  5
193C0
330
19716
100
AcDbEntity
  8
SUNPOU
100
AcDbCircle
 10
11221.33837406209
 20
2245.804976716085
 30
0.0
 40
5.625
100
AcDbArc
 50
0.0
 51
180.0
  0
ARC
  5
193C1
330
19716
100
AcDbEntity
  8
SUNPOU
100
AcDbCircle
 10
11301.33837406211
 20
2245.804976716085
 30
0.0
 40
5.625
100
AcDbArc
 50
0.0
 51
180.0
  0
ARC
  5
193C2
330
19716
100
AcDbEntity
  8
SUNPOU
100
AcDbCircle
 10
11301.33837406211
 20
2245.804976716085
 30
0.0
 40
5.625
100
AcDbArc
 50
180.0
 51
0.0
  0
ARC
  5
193C3
330
19716
100
AcDbEntity
  8
SUNPOU
100
AcDbCircle
 10
11861.33837406209
 20
2035.804976716086
 30
0.0
 40
5.625
100
AcDbArc
 50
180.0
 51
0.0
  0
ARC
  5
193C4
330
19716
100
AcDbEntity
  8
SUNPOU
100
AcDbCircle
 10
11861.33837406209
 20
2035.804976716086
 30
0.0
 40
5.625
100
AcDbArc
 50
0.0
 51
180.0
  0
ARC
  5
193C5
330
19716
100
AcDbEntity
  8
SUNPOU
100
AcDbCircle
 10
11221.33837406209
 20
2035.804976716086
 30
0.0
 40
5.625
100
AcDbArc
 50
0.0
 51
180.0
  0
ARC
  5
193C6
330
19716
100
AcDbEntity
  8
SUNPOU
100
AcDbCircle
 10
11221.33837406209
 20
2035.804976716086
 30
0.0
 40
5.625
100
AcDbArc
 50
180.0
 51
0.0
  0
ARC
  5
193C7
330
19716
100
AcDbEntity
  8
SUNPOU
100
AcDbCircle
 10
10918.33837406209
 20
2540.14434405315
 30
0.0
 40
5.625
100
AcDbArc
 50
90.0
 51
270.0
  0
ARC
  5
193C8
330
19716
100
AcDbEntity
  8
SUNPOU
100
AcDbCircle
 10
10918.33837406209
 20
2540.14434405315
 30
0.0
 40
5.625
100
AcDbArc
 50
270.0
 51
90.0
  0
ARC
  5
193C9
330
19716
100
AcDbEntity
  8
SUNPOU
100
AcDbCircle
 10
10918.33837406209
 20
2700.144344053149
 30
0.0
 40
5.625
100
AcDbArc
 50
270.0
 51
90.0
  0
ARC
  5
193CA
330
19716
100
AcDbEntity
  8
SUNPOU
100
AcDbCircle
 10
10918.33837406209
 20
2700.144344053149
 30
0.0
 40
5.625
100
AcDbArc
 50
90.0
 51
270.0
  0
ARC
  5
193CB
330
19716
100
AcDbEntity
  8
SUNPOU
100
AcDbCircle
 10
10918.33837406209
 20
2860.14434405315
 30
0.0
 40
5.625
100
AcDbArc
 50
270.0
 51
90.0
  0
ARC
  5
193CC
330
19716
100
AcDbEntity
  8
SUNPOU
100
AcDbCircle
 10
10918.33837406209
 20
2860.14434405315
 30
0.0
 40
5.625
100
AcDbArc
 50
90.0
 51
270.0
  0
ARC
  5
193CD
330
19716
100
AcDbEntity
  8
SUNPOU
100
AcDbCircle
 10
10918.33837406209
 20
2700.144344053149
 30
0.0
 40
5.625
100
AcDbArc
 50
90.0
 51
270.0
  0
ARC
  5
193CE
330
19716
100
AcDbEntity
  8
SUNPOU
100
AcDbCircle
 10
10918.33837406209
 20
2700.144344053149
 30
0.0
 40
5.625
100
AcDbArc
 50
270.0
 51
90.0
  0
ARC
  5
193CF
330
19716
100
AcDbEntity
  8
SUNPOU
100
AcDbCircle
 10
10708.33837406208
 20
2860.14434405315
 30
0.0
 40
5.625
100
AcDbArc
 50
270.0
 51
90.0
  0
ARC
  5
193D0
330
19716
100
AcDbEntity
  8
SUNPOU
100
AcDbCircle
 10
10708.33837406208
 20
2860.14434405315
 30
0.0
 40
5.625
100
AcDbArc
 50
90.0
 51
270.0
  0
ARC
  5
193D1
330
19716
100
AcDbEntity
  8
SUNPOU
100
AcDbCircle
 10
10708.33837406208
 20
2540.14434405315
 30
0.0
 40
5.625
100
AcDbArc
 50
90.0
 51
270.0
  0
ARC
  5
193D2
330
19716
100
AcDbEntity
  8
SUNPOU
100
AcDbCircle
 10
10708.33837406208
 20
2540.14434405315
 30
0.0
 40
5.625
100
AcDbArc
 50
270.0
 51
90.0
  0
ARC
  5
193D3
330
19716
100
AcDbEntity
  8
SUNPOU
100
AcDbCircle
 10
11861.33837406209
 20
3394.170862655057
 30
0.0
 40
5.625
100
AcDbArc
 50
0.0
 51
180.0
  0
ARC
  5
193D4
330
19716
100
AcDbEntity
  8
SUNPOU
100
AcDbCircle
 10
11861.33837406209
 20
3394.170862655057
 30
0.0
 40
5.625
100
AcDbArc
 50
180.0
 51
0.0
  0
ARC
  5
193D5
330
19716
100
AcDbEntity
  8
SUNPOU
100
AcDbCircle
 10
11781.33837406209
 20
3394.170862655057
 30
0.0
 40
5.625
100
AcDbArc
 50
180.0
 51
0.0
  0
ARC
  5
193D6
330
19716
100
AcDbEntity
  8
SUNPOU
100
AcDbCircle
 10
11781.33837406209
 20
3394.170862655057
 30
0.0
 40
5.625
100
AcDbArc
 50
0.0
 51
180.0
  0
ARC
  5
193D7
330
19716
100
AcDbEntity
  8
SUNPOU
100
AcDbCircle
 10
11781.33837406209
 20
3394.170862655057
 30
0.0
 40
5.625
100
AcDbArc
 50
180.0
 51
0.0
  0
ARC
  5
193D8
330
19716
100
AcDbEntity
  8
SUNPOU
100
AcDbCircle
 10
11781.33837406209
 20
3394.170862655057
 30
0.0
 40
5.625
100
AcDbArc
 50
0.0
 51
180.0
  0
ARC
  5
193D9
330
19716
100
AcDbEntity
  8
SUNPOU
100
AcDbCircle
 10
11301.33837406211
 20
3394.170862655057
 30
0.0
 40
5.625
100
AcDbArc
 50
0.0
 51
180.0
  0
ARC
  5
193DA
330
19716
100
AcDbEntity
  8
SUNPOU
100
AcDbCircle
 10
11301.33837406211
 20
3394.170862655057
 30
0.0
 40
5.625
100
AcDbArc
 50
180.0
 51
0.0
  0
ARC
  5
193DB
330
19716
100
AcDbEntity
  8
SUNPOU
100
AcDbCircle
 10
11221.33837406209
 20
3394.170862655057
 30
0.0
 40
5.625
100
AcDbArc
 50
180.0
 51
0.0
  0
ARC
  5
193DC
330
19716
100
AcDbEntity
  8
SUNPOU
100
AcDbCircle
 10
11221.33837406209
 20
3394.170862655057
 30
0.0
 40
5.625
100
AcDbArc
 50
0.0
 51
180.0
  0
ARC
  5
193DD
330
19716
100
AcDbEntity
  8
SUNPOU
100
AcDbCircle
 10
11301.33837406211
 20
3394.170862655057
 30
0.0
 40
5.625
100
AcDbArc
 50
0.0
 51
180.0
  0
ARC
  5
193DE
330
19716
100
AcDbEntity
  8
SUNPOU
100
AcDbCircle
 10
11301.33837406211
 20
3394.170862655057
 30
0.0
 40
5.625
100
AcDbArc
 50
180.0
 51
0.0
  0
ARC
  5
193DF
330
19716
100
AcDbEntity
  8
SUNPOU
100
AcDbCircle
 10
11861.33837406209
 20
3184.170862655058
 30
0.0
 40
5.625
100
AcDbArc
 50
180.0
 51
0.0
  0
ARC
  5
193E0
330
19716
100
AcDbEntity
  8
SUNPOU
100
AcDbCircle
 10
11861.33837406209
 20
3184.170862655058
 30
0.0
 40
5.625
100
AcDbArc
 50
0.0
 51
180.0
  0
ARC
  5
193E1
330
19716
100
AcDbEntity
  8
SUNPOU
100
AcDbCircle
 10
11221.33837406209
 20
3184.170862655058
 30
0.0
 40
5.625
100
AcDbArc
 50
0.0
 51
180.0
  0
ARC
  5
193E2
330
19716
100
AcDbEntity
  8
SUNPOU
100
AcDbCircle
 10
11221.33837406209
 20
3184.170862655058
 30
0.0
 40
5.625
100
AcDbArc
 50
180.0
 51
0.0
  0
ARC
  5
193E3
330
19716
100
AcDbEntity
  8
SUNPOU
100
AcDbCircle
 10
9220.123251791108
 20
2148.684839419604
 30
0.0
 40
5.625
100
AcDbArc
 50
180.0
 51
0.0
  0
ARC
  5
193E4
330
19716
100
AcDbEntity
  8
SUNPOU
100
AcDbCircle
 10
9220.123251791108
 20
2148.684839419604
 30
0.0
 40
5.625
100
AcDbArc
 50
0.0
 51
180.0
  0
ARC
  5
193E5
330
19716
100
AcDbEntity
  8
SUNPOU
100
AcDbCircle
 10
7940.123251791111
 20
2148.684839419604
 30
0.0
 40
5.625
100
AcDbArc
 50
0.0
 51
180.0
  0
ARC
  5
193E6
330
19716
100
AcDbEntity
  8
SUNPOU
100
AcDbCircle
 10
7940.123251791111
 20
2148.684839419604
 30
0.0
 40
5.625
100
AcDbArc
 50
180.0
 51
0.0
  0
ARC
  5
193E7
330
19716
100
AcDbEntity
  8
SUNPOU
100
AcDbCircle
 10
9380.123251791109
 20
1938.684839419605
 30
0.0
 40
5.625
100
AcDbArc
 50
180.0
 51
0.0
  0
ARC
  5
193E8
330
19716
100
AcDbEntity
  8
SUNPOU
100
AcDbCircle
 10
9380.123251791109
 20
1938.684839419605
 30
0.0
 40
5.625
100
AcDbArc
 50
0.0
 51
180.0
  0
ARC
  5
193E9
330
19716
100
AcDbEntity
  8
SUNPOU
100
AcDbCircle
 10
7780.123251791109
 20
1938.684839419605
 30
0.0
 40
5.625
100
AcDbArc
 50
0.0
 51
180.0
  0
ARC
  5
193EA
330
19716
100
AcDbEntity
  8
SUNPOU
100
AcDbCircle
 10
7780.123251791109
 20
1938.684839419605
 30
0.0
 40
5.625
100
AcDbArc
 50
180.0
 51
0.0
  0
ARC
  5
193EB
330
19716
100
AcDbEntity
  8
SUNPOU
100
AcDbCircle
 10
7240.769855790351
 20
3456.684839419605
 30
0.0
 40
5.625
100
AcDbArc
 50
90.0
 51
270.0
  0
ARC
  5
193EC
330
19716
100
AcDbEntity
  8
SUNPOU
100
AcDbCircle
 10
7240.769855790351
 20
3456.684839419605
 30
0.0
 40
5.625
100
AcDbArc
 50
270.0
 51
90.0
  0
ARC
  5
193ED
330
19716
100
AcDbEntity
  8
SUNPOU
100
AcDbCircle
 10
7240.769855790351
 20
3376.684839419608
 30
0.0
 40
5.625
100
AcDbArc
 50
270.0
 51
90.0
  0
ARC
  5
193EE
330
19716
100
AcDbEntity
  8
SUNPOU
100
AcDbCircle
 10
7240.769855790351
 20
3376.684839419608
 30
0.0
 40
5.625
100
AcDbArc
 50
90.0
 51
270.0
  0
ARC
  5
193EF
330
19716
100
AcDbEntity
  8
SUNPOU
100
AcDbCircle
 10
8260.12325179111
 20
4130.485411556196
 30
0.0
 40
5.625
100
AcDbArc
 50
0.0
 51
180.0
  0
ARC
  5
193F0
330
19716
100
AcDbEntity
  8
SUNPOU
100
AcDbCircle
 10
8260.12325179111
 20
4130.485411556196
 30
0.0
 40
5.625
100
AcDbArc
 50
180.0
 51
0.0
  0
ARC
  5
193F1
330
19716
100
AcDbEntity
  8
SUNPOU
100
AcDbCircle
 10
8580.123251791111
 20
4130.485411556196
 30
0.0
 40
5.625
100
AcDbArc
 50
180.0
 51
0.0
  0
ARC
  5
193F2
330
19716
100
AcDbEntity
  8
SUNPOU
100
AcDbCircle
 10
8580.123251791111
 20
4130.485411556196
 30
0.0
 40
5.625
100
AcDbArc
 50
0.0
 51
180.0
  0
ARC
  5
193F3
330
19716
100
AcDbEntity
  8
SUNPOU
100
AcDbCircle
 10
5439.797051267464
 20
2148.684839419601
 30
0.0
 40
5.625
100
AcDbArc
 50
180.0
 51
0.0
  0
ARC
  5
193F4
330
19716
100
AcDbEntity
  8
SUNPOU
100
AcDbCircle
 10
5439.797051267464
 20
2148.684839419601
 30
0.0
 40
5.625
100
AcDbArc
 50
0.0
 51
180.0
  0
ARC
  5
193F5
330
19716
100
AcDbEntity
  8
SUNPOU
100
AcDbCircle
 10
4159.797051267463
 20
2148.684839419601
 30
0.0
 40
5.625
100
AcDbArc
 50
0.0
 51
180.0
  0
ARC
  5
193F6
330
19716
100
AcDbEntity
  8
SUNPOU
100
AcDbCircle
 10
4159.797051267463
 20
2148.684839419601
 30
0.0
 40
5.625
100
AcDbArc
 50
180.0
 51
0.0
  0
ARC
  5
193F7
330
19716
100
AcDbEntity
  8
SUNPOU
100
AcDbCircle
 10
5599.797051267461
 20
1938.6848394196
 30
0.0
 40
5.625
100
AcDbArc
 50
180.0
 51
0.0
  0
ARC
  5
193F8
330
19716
100
AcDbEntity
  8
SUNPOU
100
AcDbCircle
 10
5599.797051267461
 20
1938.6848394196
 30
0.0
 40
5.625
100
AcDbArc
 50
0.0
 51
180.0
  0
ARC
  5
193F9
330
19716
100
AcDbEntity
  8
SUNPOU
100
AcDbCircle
 10
3999.797051267462
 20
1938.6848394196
 30
0.0
 40
5.625
100
AcDbArc
 50
0.0
 51
180.0
  0
ARC
  5
193FA
330
19716
100
AcDbEntity
  8
SUNPOU
100
AcDbCircle
 10
3999.797051267462
 20
1938.6848394196
 30
0.0
 40
5.625
100
AcDbArc
 50
180.0
 51
0.0
  0
ARC
  5
193FB
330
19716
100
AcDbEntity
  8
SUNPOU
100
AcDbCircle
 10
3460.443655266704
 20
3456.684839419605
 30
0.0
 40
5.625
100
AcDbArc
 50
90.0
 51
270.0
  0
ARC
  5
193FC
330
19716
100
AcDbEntity
  8
SUNPOU
100
AcDbCircle
 10
3460.443655266704
 20
3456.684839419605
 30
0.0
 40
5.625
100
AcDbArc
 50
270.0
 51
90.0
  0
ARC
  5
193FD
330
19716
100
AcDbEntity
  8
SUNPOU
100
AcDbCircle
 10
3460.443655266704
 20
3376.684839419604
 30
0.0
 40
5.625
100
AcDbArc
 50
270.0
 51
90.0
  0
ARC
  5
193FE
330
19716
100
AcDbEntity
  8
SUNPOU
100
AcDbCircle
 10
3460.443655266704
 20
3376.684839419604
 30
0.0
 40
5.625
100
AcDbArc
 50
90.0
 51
270.0
  0
ARC
  5
193FF
330
19716
100
AcDbEntity
  8
SUNPOU
100
AcDbCircle
 10
3880.443655266705
 20
3191.084839419597
 30
0.0
 40
5.625
100
AcDbArc
 50
90.0
 51
270.0
  0
ARC
  5
19400
330
19716
100
AcDbEntity
  8
SUNPOU
100
AcDbCircle
 10
3880.443655266705
 20
3191.084839419597
 30
0.0
 40
5.625
100
AcDbArc
 50
270.0
 51
90.0
  0
ARC
  5
19401
330
19716
100
AcDbEntity
  8
SUNPOU
100
AcDbCircle
 10
3880.443655266705
 20
3319.084839419601
 30
0.0
 40
5.625
100
AcDbArc
 50
270.0
 51
90.0
  0
ARC
  5
19402
330
19716
100
AcDbEntity
  8
SUNPOU
100
AcDbCircle
 10
3880.443655266705
 20
3319.084839419601
 30
0.0
 40
5.625
100
AcDbArc
 50
90.0
 51
270.0
  0
ARC
  5
19403
330
19716
100
AcDbEntity
  8
SUNPOU
100
AcDbCircle
 10
3880.443655266704
 20
3456.684839419605
 30
0.0
 40
5.625
100
AcDbArc
 50
270.0
 51
90.0
  0
ARC
  5
19404
330
19716
100
AcDbEntity
  8
SUNPOU
100
AcDbCircle
 10
3880.443655266704
 20
3456.684839419605
 30
0.0
 40
5.625
100
AcDbArc
 50
90.0
 51
270.0
  0
ARC
  5
19405
330
19716
100
AcDbEntity
  8
SUNPOU
100
AcDbCircle
 10
3880.443655266704
 20
3319.084839419601
 30
0.0
 40
5.625
100
AcDbArc
 50
90.0
 51
270.0
  0
ARC
  5
19406
330
19716
100
AcDbEntity
  8
SUNPOU
100
AcDbCircle
 10
3880.443655266704
 20
3319.084839419601
 30
0.0
 40
5.625
100
AcDbArc
 50
270.0
 51
90.0
  0
ARC
  5
19407
330
19716
100
AcDbEntity
  8
SUNPOU
100
AcDbCircle
 10
3880.443655266704
 20
3191.084839419597
 30
0.0
 40
5.625
100
AcDbArc
 50
270.0
 51
90.0
  0
ARC
  5
19408
330
19716
100
AcDbEntity
  8
SUNPOU
100
AcDbCircle
 10
3880.443655266704
 20
3191.084839419597
 30
0.0
 40
5.625
100
AcDbArc
 50
90.0
 51
270.0
  0
ARC
  5
19409
330
19716
100
AcDbEntity
  8
SUNPOU
100
AcDbCircle
 10
3880.443655266704
 20
2711.084839419601
 30
0.0
 40
5.625
100
AcDbArc
 50
90.0
 51
270.0
  0
ARC
  5
1940A
330
19716
100
AcDbEntity
  8
SUNPOU
100
AcDbCircle
 10
3880.443655266704
 20
2711.084839419601
 30
0.0
 40
5.625
100
AcDbArc
 50
270.0
 51
90.0
  0
ARC
  5
1940B
330
19716
100
AcDbEntity
  8
SUNPOU
100
AcDbCircle
 10
4159.797051267463
 20
4130.485411556192
 30
0.0
 40
5.625
100
AcDbArc
 50
0.0
 51
180.0
  0
ARC
  5
1940C
330
19716
100
AcDbEntity
  8
SUNPOU
100
AcDbCircle
 10
4159.797051267463
 20
4130.485411556192
 30
0.0
 40
5.625
100
AcDbArc
 50
180.0
 51
0.0
  0
ARC
  5
1940D
330
19716
100
AcDbEntity
  8
SUNPOU
100
AcDbCircle
 10
4799.797051267463
 20
4130.485411556192
 30
0.0
 40
5.625
100
AcDbArc
 50
180.0
 51
0.0
  0
ARC
  5
1940E
330
19716
100
AcDbEntity
  8
SUNPOU
100
AcDbCircle
 10
4799.797051267463
 20
4130.485411556192
 30
0.0
 40
5.625
100
AcDbArc
 50
0.0
 51
180.0
  0
ARC
  5
1940F
330
19716
100
AcDbEntity
  8
SUNPOU
100
AcDbCircle
 10
12226.36032602547
 20
9289.512702941776
 30
0.0
 40
5.625
100
AcDbArc
 50
90.0
 51
270.0
  0
ARC
  5
19410
330
19716
100
AcDbEntity
  8
SUNPOU
100
AcDbCircle
 10
12226.36032602547
 20
9289.512702941776
 30
0.0
 40
5.625
100
AcDbArc
 50
270.0
 51
90.0
  0
ARC
  5
19411
330
19716
100
AcDbEntity
  8
SUNPOU
100
AcDbCircle
 10
12226.36032602547
 20
9489.512702941778
 30
0.0
 40
5.625
100
AcDbArc
 50
270.0
 51
90.0
  0
ARC
  5
19412
330
19716
100
AcDbEntity
  8
SUNPOU
100
AcDbCircle
 10
12226.36032602547
 20
9489.512702941778
 30
0.0
 40
5.625
100
AcDbArc
 50
90.0
 51
270.0
  0
ARC
  5
19413
330
19716
100
AcDbEntity
  8
SUNPOU
100
AcDbCircle
 10
12226.36032602547
 20
9689.512702941778
 30
0.0
 40
5.625
100
AcDbArc
 50
270.0
 51
90.0
  0
ARC
  5
19414
330
19716
100
AcDbEntity
  8
SUNPOU
100
AcDbCircle
 10
12226.36032602547
 20
9689.512702941778
 30
0.0
 40
5.625
100
AcDbArc
 50
90.0
 51
270.0
  0
ARC
  5
19415
330
19716
100
AcDbEntity
  8
SUNPOU
100
AcDbCircle
 10
12226.36032602547
 20
9489.512702941778
 30
0.0
 40
5.625
100
AcDbArc
 50
90.0
 51
270.0
  0
ARC
  5
19416
330
19716
100
AcDbEntity
  8
SUNPOU
100
AcDbCircle
 10
12226.36032602547
 20
9489.512702941778
 30
0.0
 40
5.625
100
AcDbArc
 50
270.0
 51
90.0
  0
ARC
  5
19417
330
19716
100
AcDbEntity
  8
SUNPOU
100
AcDbCircle
 10
11826.36032602548
 20
9989.512702941778
 30
0.0
 40
5.625
100
AcDbArc
 50
180.0
 51
0.0
  0
ARC
  5
19418
330
19716
100
AcDbEntity
  8
SUNPOU
100
AcDbCircle
 10
11826.36032602548
 20
9989.512702941778
 30
0.0
 40
5.625
100
AcDbArc
 50
0.0
 51
180.0
  0
ARC
  5
19419
330
19716
100
AcDbEntity
  8
SUNPOU
100
AcDbCircle
 10
11426.36032602547
 20
9989.512702941778
 30
0.0
 40
5.625
100
AcDbArc
 50
0.0
 51
180.0
  0
ARC
  5
1941A
330
19716
100
AcDbEntity
  8
SUNPOU
100
AcDbCircle
 10
11426.36032602547
 20
9989.512702941778
 30
0.0
 40
5.625
100
AcDbArc
 50
180.0
 51
0.0
  0
ARC
  5
1941B
330
19716
100
AcDbEntity
  8
SUNPOU
100
AcDbCircle
 10
8626.360326025478
 20
9989.512702941778
 30
0.0
 40
5.625
100
AcDbArc
 50
0.0
 51
180.0
  0
ARC
  5
1941C
330
19716
100
AcDbEntity
  8
SUNPOU
100
AcDbCircle
 10
8626.360326025478
 20
9989.512702941778
 30
0.0
 40
5.625
100
AcDbArc
 50
180.0
 51
0.0
  0
ARC
  5
1941D
330
19716
100
AcDbEntity
  8
SUNPOU
100
AcDbCircle
 10
11426.36032602547
 20
9989.512702941778
 30
0.0
 40
5.625
100
AcDbArc
 50
180.0
 51
0.0
  0
ARC
  5
1941E
330
19716
100
AcDbEntity
  8
SUNPOU
100
AcDbCircle
 10
11426.36032602547
 20
9989.512702941778
 30
0.0
 40
5.625
100
AcDbArc
 50
0.0
 51
180.0
  0
ARC
  5
1941F
330
19716
100
AcDbEntity
  8
SUNPOU
100
AcDbCircle
 10
9326.360326025483
 20
7089.512702941778
 30
0.0
 40
5.625
100
AcDbArc
 50
90.0
 51
270.0
  0
ARC
  5
19420
330
19716
100
AcDbEntity
  8
SUNPOU
100
AcDbCircle
 10
9326.360326025483
 20
7089.512702941778
 30
0.0
 40
5.625
100
AcDbArc
 50
270.0
 51
90.0
  0
ARC
  5
19421
330
19716
100
AcDbEntity
  8
SUNPOU
100
AcDbCircle
 10
9326.360326025483
 20
7889.512702941778
 30
0.0
 40
5.625
100
AcDbArc
 50
270.0
 51
90.0
  0
ARC
  5
19422
330
19716
100
AcDbEntity
  8
SUNPOU
100
AcDbCircle
 10
9326.360326025483
 20
7889.512702941778
 30
0.0
 40
5.625
100
AcDbArc
 50
90.0
 51
270.0
  0
ARC
  5
19423
330
19716
100
AcDbEntity
  8
SUNPOU
100
AcDbCircle
 10
4426.36032602548
 20
9989.512702941778
 30
0.0
 40
5.625
100
AcDbArc
 50
0.0
 51
180.0
  0
ARC
  5
19424
330
19716
100
AcDbEntity
  8
SUNPOU
100
AcDbCircle
 10
4426.36032602548
 20
9989.512702941778
 30
0.0
 40
5.625
100
AcDbArc
 50
180.0
 51
0.0
  0
ARC
  5
19425
330
19716
100
AcDbEntity
  8
SUNPOU
100
AcDbCircle
 10
7226.360326025478
 20
9989.512702941778
 30
0.0
 40
5.625
100
AcDbArc
 50
180.0
 51
0.0
  0
ARC
  5
19426
330
19716
100
AcDbEntity
  8
SUNPOU
100
AcDbCircle
 10
7226.360326025478
 20
9989.512702941778
 30
0.0
 40
5.625
100
AcDbArc
 50
0.0
 51
180.0
  0
ARC
  5
19427
330
19716
100
AcDbEntity
  8
SUNPOU
100
AcDbCircle
 10
7626.360326025478
 20
8589.512702941778
 30
0.0
 40
5.625
100
AcDbArc
 50
180.0
 51
0.0
  0
ARC
  5
19428
330
19716
100
AcDbEntity
  8
SUNPOU
100
AcDbCircle
 10
7626.360326025478
 20
8589.512702941778
 30
0.0
 40
5.625
100
AcDbArc
 50
0.0
 51
180.0
  0
ARC
  5
19429
330
19716
100
AcDbEntity
  8
SUNPOU
100
AcDbCircle
 10
6826.360326025478
 20
8589.512702941778
 30
0.0
 40
5.625
100
AcDbArc
 50
0.0
 51
180.0
  0
ARC
  5
1942A
330
19716
100
AcDbEntity
  8
SUNPOU
100
AcDbCircle
 10
6826.360326025478
 20
8589.512702941778
 30
0.0
 40
5.625
100
AcDbArc
 50
180.0
 51
0.0
  0
ARC
  5
1942B
330
19716
100
AcDbEntity
  8
SUNPOU
100
AcDbCircle
 10
6526.360326025478
 20
8889.512702941777
 30
0.0
 40
5.625
100
AcDbArc
 50
90.0
 51
270.0
  0
ARC
  5
1942C
330
19716
100
AcDbEntity
  8
SUNPOU
100
AcDbCircle
 10
6526.360326025478
 20
8889.512702941777
 30
0.0
 40
5.625
100
AcDbArc
 50
270.0
 51
90.0
  0
ARC
  5
1942D
330
19716
100
AcDbEntity
  8
SUNPOU
100
AcDbCircle
 10
6526.360326025478
 20
9689.512702941778
 30
0.0
 40
5.625
100
AcDbArc
 50
270.0
 51
90.0
  0
ARC
  5
1942E
330
19716
100
AcDbEntity
  8
SUNPOU
100
AcDbCircle
 10
6526.360326025478
 20
9689.512702941778
 30
0.0
 40
5.625
100
AcDbArc
 50
90.0
 51
270.0
  0
ARC
  5
1942F
330
19716
100
AcDbEntity
  8
SUNPOU
100
AcDbCircle
 10
4026.360326025478
 20
9989.512702941778
 30
0.0
 40
5.625
100
AcDbArc
 50
0.0
 51
180.0
  0
ARC
  5
19430
330
19716
100
AcDbEntity
  8
SUNPOU
100
AcDbCircle
 10
4026.360326025478
 20
9989.512702941778
 30
0.0
 40
5.625
100
AcDbArc
 50
180.0
 51
0.0
  0
ARC
  5
19431
330
19716
100
AcDbEntity
  8
SUNPOU
100
AcDbCircle
 10
4426.36032602548
 20
9989.512702941778
 30
0.0
 40
5.625
100
AcDbArc
 50
180.0
 51
0.0
  0
ARC
  5
19432
330
19716
100
AcDbEntity
  8
SUNPOU
100
AcDbCircle
 10
4426.36032602548
 20
9989.512702941778
 30
0.0
 40
5.625
100
AcDbArc
 50
0.0
 51
180.0
  0
ARC
  5
19433
330
19716
100
AcDbEntity
  8
SUNPOU
100
AcDbCircle
 10
9026.36032602548
 20
8189.512702941778
 30
0.0
 40
5.625
100
AcDbArc
 50
180.0
 51
0.0
  0
ARC
  5
19434
330
19716
100
AcDbEntity
  8
SUNPOU
100
AcDbCircle
 10
9026.36032602548
 20
8189.512702941778
 30
0.0
 40
5.625
100
AcDbArc
 50
0.0
 51
180.0
  0
ARC
  5
19435
330
19716
100
AcDbEntity
  8
SUNPOU
100
AcDbCircle
 10
8226.360326025478
 20
8189.512702941778
 30
0.0
 40
5.625
100
AcDbArc
 50
0.0
 51
180.0
  0
ARC
  5
19436
330
19716
100
AcDbEntity
  8
SUNPOU
100
AcDbCircle
 10
8226.360326025478
 20
8189.512702941778
 30
0.0
 40
5.625
100
AcDbArc
 50
180.0
 51
0.0
  0
ARC
  5
19437
330
19716
100
AcDbEntity
  8
SUNPOU
100
AcDbCircle
 10
11826.36032602548
 20
10199.51270294177
 30
0.0
 40
5.625
100
AcDbArc
 50
180.0
 51
0.0
  0
ARC
  5
19438
330
19716
100
AcDbEntity
  8
SUNPOU
100
AcDbCircle
 10
11826.36032602548
 20
10199.51270294177
 30
0.0
 40
5.625
100
AcDbArc
 50
0.0
 51
180.0
  0
ARC
  5
19439
330
19716
100
AcDbEntity
  8
SUNPOU
100
AcDbCircle
 10
4026.360326025478
 20
10199.51270294177
 30
0.0
 40
5.625
100
AcDbArc
 50
0.0
 51
180.0
  0
ARC
  5
1943A
330
19716
100
AcDbEntity
  8
SUNPOU
100
AcDbCircle
 10
4026.360326025478
 20
10199.51270294177
 30
0.0
 40
5.625
100
AcDbArc
 50
180.0
 51
0.0
  0
ARC
  5
19442
330
19716
100
AcDbEntity
  8
HIKIDASHI
100
AcDbCircle
 10
7368.753186178046
 20
1889.069567942468
 30
0.0
 40
74.66417910452284
100
AcDbArc
 50
164.8596129850915
 51
237.504500294165
  0
ARC
  5
19443
330
19716
100
AcDbEntity
  8
HIKIDASHI
100
AcDbCircle
 10
7305.32939213174
 20
1906.230591426951
 30
0.0
 40
8.959701492542743
100
AcDbArc
 50
15.14038701503428
 51
164.8596129849655
  0
LINE
  5
1944A
330
19716
100
AcDbEntity
  8
HIKIDASHI
100
AcDbLine
 10
11865.19119696312
 20
2619.990092191335
 30
0.0
 11
12256.64239875644
 21
2245.804976716085
 31
0.0
1001
ACAD
1000
DSTYLE
1002
{
1070
   147
1040
1.0
1070
    77
1070
     0
1002
}
  0
LINE
  5
1944B
330
19716
100
AcDbEntity
  8
HIKIDASHI
100
AcDbLine
 10
11874.40432936103
 20
2629.628347697202
 30
0.0
 11
11807.36166392793
 21
2675.268886578793
 31
0.0
  0
LINE
  5
1944C
330
19716
100
AcDbEntity
  8
HIKIDASHI
100
AcDbLine
 10
11807.36166392793
 20
2675.268886578793
 30
0.0
 11
11855.97806456522
 21
2610.351836685468
 31
0.0
  0
SOLID
  5
1944D
330
19716
100
AcDbEntity
  8
HIKIDASHI
100
AcDbTrace
 10
11874.40432936103
 20
2629.628347697202
 30
0.0
 11
11855.97806456522
 21
2610.351836685468
 31
0.0
 12
11807.36166392793
 22
2675.268886578793
 32
0.0
 13
11807.36166392793
 23
2675.268886578793
 33
0.0
  0
LINE
  5
1944E
330
19716
100
AcDbEntity
  8
HIKIDASHI
100
AcDbLine
 10
11855.97806456522
 20
2610.351836685468
 30
0.0
 11
11874.40432936103
 21
2629.628347697202
 31
0.0
  0
LINE
  5
1944F
330
19716
100
AcDbEntity
  8
HIKIDASHI
100
AcDbLine
 10
11918.49428872014
 20
2916.119351150967
 30
0.0
 11
12073.23363223807
 21
3067.661600164834
 31
0.0
1001
ACAD
1000
DSTYLE
1002
{
1070
   147
1040
1.0
1070
    77
1070
     0
1002
}
  0
LINE
  5
19450
330
19716
100
AcDbEntity
  8
HIKIDASHI
100
AcDbLine
 10
11909.16512087052
 20
2925.64533692731
 30
0.0
 11
11861.33837406209
 21
2860.14434405315
 31
0.0
  0
LINE
  5
19451
330
19716
100
AcDbEntity
  8
HIKIDASHI
100
AcDbLine
 10
11861.33837406209
 20
2860.14434405315
 30
0.0
 11
11927.82345656979
 21
2906.593365374622
 31
0.0
  0
SOLID
  5
19452
330
19716
100
AcDbEntity
  8
HIKIDASHI
100
AcDbTrace
 10
11909.16512087052
 20
2925.64533692731
 30
0.0
 11
11927.82345656979
 21
2906.593365374622
 31
0.0
 12
11861.33837406209
 22
2860.14434405315
 32
0.0
 13
11861.33837406209
 23
2860.14434405315
 33
0.0
  0
LINE
  5
19453
330
19716
100
AcDbEntity
  8
HIKIDASHI
100
AcDbLine
 10
11927.82345656979
 20
2906.593365374622
 30
0.0
 11
11909.16512087052
 21
2925.64533692731
 31
0.0
  0
LINE
  5
19454
330
19716
100
AcDbEntity
  8
HIKIDASHI
100
AcDbLine
 10
8365.443052330508
 20
2790.288985226448
 30
0.0
 11
7568.025406890003
 21
1938.684839419605
 31
0.0
1001
ACAD
1000
DSTYLE
1002
{
1070
   147
1040
1.0
1070
    77
1070
     0
1002
}
  0
LINE
  5
19455
330
19716
100
AcDbEntity
  8
HIKIDASHI
100
AcDbLine
 10
8375.175694696034
 20
2781.17561864968
 30
0.0
 11
8420.12325179111
 21
2848.684839419607
 31
0.0
  0
LINE
  5
19456
330
19716
100
AcDbEntity
  8
HIKIDASHI
100
AcDbLine
 10
8420.12325179111
 20
2848.684839419607
 30
0.0
 11
8355.710409964979
 21
2799.402351803216
 31
0.0
  0
SOLID
  5
19457
330
19716
100
AcDbEntity
  8
HIKIDASHI
100
AcDbTrace
 10
8375.175694696034
 20
2781.17561864968
 30
0.0
 11
8355.710409964979
 21
2799.402351803216
 31
0.0
 12
8420.12325179111
 22
2848.684839419607
 32
0.0
 13
8420.12325179111
 23
2848.684839419607
 33
0.0
  0
LINE
  5
19458
330
19716
100
AcDbEntity
  8
HIKIDASHI
100
AcDbLine
 10
8355.710409964979
 20
2799.402351803216
 30
0.0
 11
8375.175694696034
 21
2781.17561864968
 31
0.0
  0
ARC
  5
19459
330
19716
100
AcDbEntity
  8
HIKIDASHI
100
AcDbCircle
 10
7243.085124621173
 20
1890.249695302058
 30
0.0
 40
74.66417910452232
100
AcDbArc
 50
301.7712278330705
 51
15.14038701490951
  0
LINE
  5
1945A
330
19716
100
AcDbEntity
  8
HIKIDASHI
100
AcDbLine
 10
5106.084662666019
 20
3525.966871722361
 30
0.0
 11
5333.860047839355
 21
3920.485411556192
 31
0.0
1001
ACAD
1000
DSTYLE
1002
{
1070
   147
1040
1.0
1070
    77
1070
     0
1002
}
  0
LINE
  5
1945B
330
19716
100
AcDbEntity
  8
HIKIDASHI
100
AcDbLine
 10
5094.537657282226
 20
3532.633538389028
 30
0.0
 11
5066.084662666021
 21
3456.684839419605
 31
0.0
  0
LINE
  5
1945C
330
19716
100
AcDbEntity
  8
HIKIDASHI
100
AcDbLine
 10
5066.084662666021
 20
3456.684839419605
 30
0.0
 11
5117.631668049813
 21
3519.300205055695
 31
0.0
  0
SOLID
  5
1945D
330
19716
100
AcDbEntity
  8
HIKIDASHI
100
AcDbTrace
 10
5094.537657282226
 20
3532.633538389028
 30
0.0
 11
5117.631668049813
 21
3519.300205055695
 31
0.0
 12
5066.084662666021
 22
3456.684839419605
 32
0.0
 13
5066.084662666021
 23
3456.684839419605
 33
0.0
  0
LINE
  5
1945E
330
19716
100
AcDbEntity
  8
HIKIDASHI
100
AcDbLine
 10
5117.631668049813
 20
3519.300205055695
 30
0.0
 11
5094.537657282226
 21
3532.633538389028
 31
0.0
  0
LINE
  5
1945F
330
19716
100
AcDbEntity
  8
HIKIDASHI
100
AcDbLine
 10
5648.43515171908
 20
2487.56842276644
 30
0.0
 11
5816.33809680266
 21
2268.304238552882
 31
0.0
1001
ACAD
1000
DSTYLE
1002
{
1070
   147
1040
1.0
1070
    77
1070
     0
1002
}
  0
LINE
  5
19460
330
19716
100
AcDbEntity
  8
HIKIDASHI
100
AcDbLine
 10
5659.021221161275
 20
2495.67477284171
 30
0.0
 11
5599.797051267461
 21
2551.084839419601
 31
0.0
  0
LINE
  5
19461
330
19716
100
AcDbEntity
  8
HIKIDASHI
100
AcDbLine
 10
5599.797051267461
 20
2551.084839419601
 30
0.0
 11
5637.849082276888
 21
2479.46207269117
 31
0.0
  0
SOLID
  5
19462
330
19716
100
AcDbEntity
  8
HIKIDASHI
100
AcDbTrace
 10
5659.021221161275
 20
2495.67477284171
 30
0.0
 11
5637.849082276888
 21
2479.46207269117
 31
0.0
 12
5599.797051267461
 22
2551.084839419601
 32
0.0
 13
5599.797051267461
 23
2551.084839419601
 33
0.0
  0
LINE
  5
19463
330
19716
100
AcDbEntity
  8
HIKIDASHI
100
AcDbLine
 10
5637.849082276888
 20
2479.46207269117
 30
0.0
 11
5659.021221161275
 21
2495.67477284171
 31
0.0
  0
LINE
  5
19464
330
19716
100
AcDbEntity
  8
HIKIDASHI
100
AcDbLine
 10
5517.958310807199
 20
3204.439659000036
 30
0.0
 11
5674.871662611158
 21
2904.11470702088
 31
0.0
1001
ACAD
1000
DSTYLE
1002
{
1070
    41
1040
2.0
1070
   173
1070
     0
1070
   341
1005
125B0
1002
}
  0
ARC
  5
19465
330
19716
100
AcDbEntity
  8
HIKIDASHI
100
AcDbCircle
 10
5472.271108781361
 20
3259.491130329858
 30
0.0
 40
18.0
100
AcDbArc
 50
241.1434129563095
 51
354.0287934324676
  0
ARC
  5
19466
330
19716
100
AcDbEntity
  8
HIKIDASHI
100
AcDbCircle
 10
5508.075783564776
 20
3255.746098466976
 30
0.0
 40
18.0
100
AcDbArc
 50
61.1434129563095
 51
174.0287934324675
  0
LINE
  5
19467
330
19716
100
AcDbEntity
  8
HIKIDASHI
100
AcDbLine
 10
5490.173446173068
 20
3257.618614398416
 30
0.0
 11
5517.958310807205
 21
3204.439659000024
 31
0.0
  0
LINE
  5
19469
330
19716
100
AcDbEntity
  8
HATCH
100
AcDbLine
 10
9597.765052686932
 20
3191.084839418955
 30
0.0
 11
9671.665887143205
 21
3319.084839418948
 31
0.0
  0
LINE
  5
1946A
330
19716
100
AcDbEntity
  8
HATCH
100
AcDbLine
 10
9633.265887143204
 20
3319.084839418947
 30
0.0
 11
9652.465887143202
 21
3285.829463913629
 31
0.0
  0
LINE
  5
1946C
330
19716
100
AcDbEntity
  8
HATCH
100
AcDbLine
 10
9309.765052686932
 20
3191.084839418955
 30
0.0
 11
9383.6658871432
 21
3319.084839418948
 31
0.0
  0
LINE
  5
1946D
330
19716
100
AcDbEntity
  8
HATCH
100
AcDbLine
 10
9345.265887143204
 20
3319.084839418947
 30
0.0
 11
9364.465887143202
 21
3285.829463913629
 31
0.0
  0
LINE
  5
1946F
330
19716
100
AcDbEntity
  8
HATCH
100
AcDbLine
 10
9453.765052686932
 20
3191.084839418955
 30
0.0
 11
9527.665887143198
 21
3319.084839418948
 31
0.0
  0
LINE
  5
19470
330
19716
100
AcDbEntity
  8
HATCH
100
AcDbLine
 10
9489.265887143199
 20
3319.084839418947
 30
0.0
 11
9508.465887143202
 21
3285.829463913629
 31
0.0
  0
LINE
  5
19472
330
19716
100
AcDbEntity
  8
HATCH
100
AcDbLine
 10
9741.765052686936
 20
3191.084839418955
 30
0.0
 11
9815.665887143204
 21
3319.084839418948
 31
0.0
  0
LINE
  5
19473
330
19716
100
AcDbEntity
  8
HATCH
100
AcDbLine
 10
9777.265887143206
 20
3319.084839418947
 30
0.0
 11
9796.465887143202
 21
3285.829463913629
 31
0.0
  0
LINE
  5
19475
330
19716
100
AcDbEntity
  8
HATCH
100
AcDbLine
 10
9597.765052688851
 20
3191.084839419572
 30
0.0
 11
9671.66588714514
 21
3319.084839419601
 31
0.0
  0
LINE
  5
19476
330
19716
100
AcDbEntity
  8
HATCH
100
AcDbLine
 10
9633.265887145132
 20
3319.084839419601
 30
0.0
 11
9652.465887145137
 21
3285.829463914274
 31
0.0
  0
LINE
  5
19478
330
19716
100
AcDbEntity
  8
HATCH
100
AcDbLine
 10
9741.765052688851
 20
3191.084839419572
 30
0.0
 11
9815.66588714514
 21
3319.084839419601
 31
0.0
  0
LINE
  5
19479
330
19716
100
AcDbEntity
  8
HATCH
100
AcDbLine
 10
9777.265887145132
 20
3319.084839419601
 30
0.0
 11
9796.465887145137
 21
3285.829463914274
 31
0.0
  0
LINE
  5
1947B
330
19716
100
AcDbEntity
  8
HATCH
100
AcDbLine
 10
9453.765052688849
 20
3191.084839419572
 30
0.0
 11
9527.66588714514
 21
3319.084839419601
 31
0.0
  0
LINE
  5
1947C
330
19716
100
AcDbEntity
  8
HATCH
100
AcDbLine
 10
9489.265887145132
 20
3319.084839419601
 30
0.0
 11
9508.465887145135
 21
3285.829463914274
 31
0.0
  0
LINE
  5
1947E
330
19716
100
AcDbEntity
  8
HATCH
100
AcDbLine
 10
9309.765052688851
 20
3191.084839419572
 30
0.0
 11
9383.66588714514
 21
3319.084839419601
 31
0.0
  0
LINE
  5
1947F
330
19716
100
AcDbEntity
  8
HATCH
100
AcDbLine
 10
9345.265887145131
 20
3319.084839419601
 30
0.0
 11
9364.465887145135
 21
3285.829463914274
 31
0.0
  0
LINE
  5
19481
330
19716
100
AcDbEntity
  8
HATCH
100
AcDbLine
 10
5817.438852163284
 20
3191.084839420222
 30
0.0
 11
5891.339686619553
 21
3319.084839420217
 31
0.0
  0
LINE
  5
19482
330
19716
100
AcDbEntity
  8
HATCH
100
AcDbLine
 10
5852.939686619555
 20
3319.084839420215
 30
0.0
 11
5872.139686619554
 21
3285.829463914896
 31
0.0
  0
LINE
  5
19484
330
19716
100
AcDbEntity
  8
HATCH
100
AcDbLine
 10
5529.438852163284
 20
3191.084839420222
 30
0.0
 11
5603.339686619555
 21
3319.084839420217
 31
0.0
  0
LINE
  5
19485
330
19716
100
AcDbEntity
  8
HATCH
100
AcDbLine
 10
5564.939686619556
 20
3319.084839420215
 30
0.0
 11
5584.139686619554
 21
3285.829463914896
 31
0.0
  0
LINE
  5
19487
330
19716
100
AcDbEntity
  8
HATCH
100
AcDbLine
 10
5673.438852163286
 20
3191.084839420222
 30
0.0
 11
5747.339686619554
 21
3319.084839420217
 31
0.0
  0
LINE
  5
19488
330
19716
100
AcDbEntity
  8
HATCH
100
AcDbLine
 10
5708.939686619554
 20
3319.084839420215
 30
0.0
 11
5728.139686619555
 21
3285.829463914896
 31
0.0
  0
LINE
  5
1948A
330
19716
100
AcDbEntity
  8
HATCH
100
AcDbLine
 10
5961.438852163285
 20
3191.084839420222
 30
0.0
 11
6035.339686619554
 21
3319.084839420217
 31
0.0
  0
LINE
  5
1948B
330
19716
100
AcDbEntity
  8
HATCH
100
AcDbLine
 10
5996.939686619556
 20
3319.084839420215
 30
0.0
 11
6016.139686619554
 21
3285.829463914896
 31
0.0
  0
LINE
  5
1948C
330
19716
100
AcDbEntity
  8
HATCH
100
AcDbLine
 10
9636.165052686925
 20
3191.084839418956
 30
0.0
 11
9616.965052686927
 21
3224.340214924272
 31
0.0
  0
LINE
  5
1948D
330
19716
100
AcDbEntity
  8
HATCH
100
AcDbLine
 10
9348.165052686928
 20
3191.084839418956
 30
0.0
 11
9328.965052686926
 21
3224.340214924272
 31
0.0
  0
LINE
  5
1948E
330
19716
100
AcDbEntity
  8
HATCH
100
AcDbLine
 10
9492.165052686925
 20
3191.084839418956
 30
0.0
 11
9472.965052686927
 21
3224.340214924272
 31
0.0
  0
LINE
  5
1948F
330
19716
100
AcDbEntity
  8
HATCH
100
AcDbLine
 10
9780.165052686927
 20
3191.084839418956
 30
0.0
 11
9760.965052686927
 21
3224.340214924272
 31
0.0
  0
LINE
  5
19490
330
19716
100
AcDbEntity
  8
HATCH
100
AcDbLine
 10
9636.165052688857
 20
3191.084839419572
 30
0.0
 11
9616.965052688854
 21
3224.3402149249
 31
0.0
  0
LINE
  5
19491
330
19716
100
AcDbEntity
  8
HATCH
100
AcDbLine
 10
9780.165052688857
 20
3191.084839419572
 30
0.0
 11
9760.965052688852
 21
3224.3402149249
 31
0.0
  0
LINE
  5
19492
330
19716
100
AcDbEntity
  8
HATCH
100
AcDbLine
 10
9492.165052688857
 20
3191.084839419572
 30
0.0
 11
9472.96505268885
 21
3224.3402149249
 31
0.0
  0
LINE
  5
19493
330
19716
100
AcDbEntity
  8
HATCH
100
AcDbLine
 10
9348.165052688857
 20
3191.084839419572
 30
0.0
 11
9328.96505268885
 21
3224.3402149249
 31
0.0
  0
LINE
  5
19494
330
19716
100
AcDbEntity
  8
HATCH
100
AcDbLine
 10
5855.838852163278
 20
3191.084839420224
 30
0.0
 11
5836.63885216328
 21
3224.340214925541
 31
0.0
  0
LINE
  5
19495
330
19716
100
AcDbEntity
  8
HATCH
100
AcDbLine
 10
5567.838852163279
 20
3191.084839420224
 30
0.0
 11
5548.638852163279
 21
3224.340214925541
 31
0.0
  0
LINE
  5
19496
330
19716
100
AcDbEntity
  8
HATCH
100
AcDbLine
 10
5711.838852163278
 20
3191.084839420224
 30
0.0
 11
5692.63885216328
 21
3224.340214925541
 31
0.0
  0
LINE
  5
19497
330
19716
100
AcDbEntity
  8
HATCH
100
AcDbLine
 10
5999.838852163279
 20
3191.084839420224
 30
0.0
 11
5980.63885216328
 21
3224.340214925541
 31
0.0
  0
LINE
  5
19498
330
19716
100
AcDbEntity
  8
KISO
100
AcDbLine
 10
5599.797051267461
 20
2711.084839419601
 30
0.0
 11
3999.797051267462
 21
2711.084839419601
 31
0.0
  0
LINE
  5
19499
330
19716
100
AcDbEntity
  8
KISO
100
AcDbLine
 10
3999.797051267462
 20
2711.084839419601
 30
0.0
 11
3999.797051267462
 21
2551.084839419601
 31
0.0
  0
LINE
  5
1949A
330
19716
100
AcDbEntity
  8
KISO
100
AcDbLine
 10
3999.797051267462
 20
2551.084839419601
 30
0.0
 11
5599.797051267461
 21
2551.084839419601
 31
0.0
  0
LINE
  5
1949B
330
19716
100
AcDbEntity
  8
KISO
100
AcDbLine
 10
5599.797051267461
 20
2551.084839419601
 30
0.0
 11
5599.797051267461
 21
2711.084839419601
 31
0.0
  0
LINE
  5
1949C
330
19716
100
AcDbEntity
  8
KISO
100
AcDbLine
 10
7780.123251791109
 20
2711.084839419607
 30
0.0
 11
9380.123251791109
 21
2711.084839419607
 31
0.0
  0
LINE
  5
1949D
330
19716
100
AcDbEntity
  8
KISO
100
AcDbLine
 10
9380.123251791109
 20
2711.084839419607
 30
0.0
 11
9380.123251791109
 21
2551.084839419601
 31
0.0
  0
LINE
  5
1949E
330
19716
100
AcDbEntity
  8
KISO
100
AcDbLine
 10
9380.123251791109
 20
2551.084839419601
 30
0.0
 11
7780.123251791109
 21
2551.084839419601
 31
0.0
  0
LINE
  5
1949F
330
19716
100
AcDbEntity
  8
KISO
100
AcDbLine
 10
7780.123251791109
 20
2551.084839419601
 30
0.0
 11
7780.123251791109
 21
2711.084839419607
 31
0.0
  0
LINE
  5
194A0
330
19716
100
AcDbEntity
  8
U1
100
AcDbLine
 10
11391.33837406208
 20
2550.144344053149
 30
0.0
 11
11691.33837406209
 21
2550.144344053149
 31
0.0
  0
LINE
  5
194A1
330
19716
100
AcDbEntity
  8
U1
100
AcDbLine
 10
11691.33837406209
 20
2550.144344053149
 30
0.0
 11
11691.33837406209
 21
2850.144344053148
 31
0.0
  0
LINE
  5
194A2
330
19716
100
AcDbEntity
  8
U1
100
AcDbLine
 10
11691.33837406209
 20
2850.144344053148
 30
0.0
 11
11391.33837406208
 21
2850.144344053148
 31
0.0
  0
LINE
  5
194A3
330
19716
100
AcDbEntity
  8
U1
100
AcDbLine
 10
11391.33837406208
 20
2850.144344053148
 30
0.0
 11
11391.33837406208
 21
2550.144344053149
 31
0.0
  0
LINE
  5
194A4
330
19716
100
AcDbEntity
  8
U1
100
AcDbLine
 10
11221.33837406209
 20
2540.14434405315
 30
0.0
 11
11861.33837406209
 21
2540.14434405315
 31
0.0
  0
LINE
  5
194A5
330
19716
100
AcDbEntity
  8
U1
100
AcDbLine
 10
11861.33837406209
 20
2540.14434405315
 30
0.0
 11
11861.33837406209
 21
2860.14434405315
 31
0.0
  0
LINE
  5
194A6
330
19716
100
AcDbEntity
  8
U1
100
AcDbLine
 10
11861.33837406209
 20
2860.14434405315
 30
0.0
 11
11221.33837406209
 21
2860.14434405315
 31
0.0
  0
LINE
  5
194A7
330
19716
100
AcDbEntity
  8
U1
100
AcDbLine
 10
11221.33837406209
 20
2860.14434405315
 30
0.0
 11
11221.33837406209
 21
2540.14434405315
 31
0.0
  0
LINE
  5
194A8
330
19716
100
AcDbEntity
  8
U1
100
AcDbLine
 10
11221.33837406209
 20
3618.337036584561
 30
0.0
 11
11861.33837406209
 21
3618.337036584561
 31
0.0
  0
LINE
  5
194A9
330
19716
100
AcDbEntity
  8
U1
100
AcDbLine
 10
11861.33837406209
 20
3618.337036584561
 30
0.0
 11
11861.33837406209
 21
3642.337036584561
 31
0.0
  0
LINE
  5
194AA
330
19716
100
AcDbEntity
  8
U1
100
AcDbLine
 10
11861.33837406209
 20
3642.337036584561
 30
0.0
 11
11221.33837406209
 21
3642.337036584561
 31
0.0
  0
LINE
  5
194AB
330
19716
100
AcDbEntity
  8
U1
100
AcDbLine
 10
11221.33837406209
 20
3642.337036584561
 30
0.0
 11
11221.33837406209
 21
3618.337036584561
 31
0.0
  0
LINE
  5
194AE
330
19716
100
AcDbEntity
  8
TENSEN-1
100
AcDbLine
 10
8740.123251791109
 20
2869.484839419605
 30
0.0
 11
8686.523251791108
 21
2869.484839419605
 31
0.0
  0
LINE
  5
194AF
330
19716
100
AcDbEntity
  8
TENSEN-1
100
AcDbLine
 10
8686.523251791108
 20
2869.484839419605
 30
0.0
 11
8686.523251791108
 21
3360.684839419607
 31
0.0
  0
LINE
  5
194B0
330
19716
100
AcDbEntity
  8
TENSEN-1
100
AcDbLine
 10
8686.523251791108
 20
3360.684839419607
 30
0.0
 11
8665.723251791112
 21
3360.684839419607
 31
0.0
  0
LINE
  5
194B1
330
19716
100
AcDbEntity
  8
TENSEN-1
100
AcDbLine
 10
8665.723251791112
 20
3360.684839419607
 30
0.0
 11
8665.723251791105
 21
2848.684839419607
 31
0.0
  0
LINE
  5
194B2
330
19716
100
AcDbEntity
  8
TENSEN-1
100
AcDbLine
 10
8665.723251791105
 20
2848.684839419607
 30
0.0
 11
8740.123251791109
 21
2848.684839419607
 31
0.0
  0
LINE
  5
194B3
330
19716
100
AcDbEntity
  8
TENSEN-1
100
AcDbLine
 10
8740.123251791109
 20
2848.684839419607
 30
0.0
 11
8740.123251791109
 21
2869.484839419605
 31
0.0
  0
LINE
  5
194B4
330
19716
100
AcDbEntity
  8
TENSEN-1
100
AcDbLine
 10
8420.12325179111
 20
2869.484839419605
 30
0.0
 11
8473.723251791112
 21
2869.484839419605
 31
0.0
  0
LINE
  5
194B5
330
19716
100
AcDbEntity
  8
TENSEN-1
100
AcDbLine
 10
8473.723251791112
 20
2869.484839419605
 30
0.0
 11
8473.723251791112
 21
3360.684839419607
 31
0.0
  0
LINE
  5
194B6
330
19716
100
AcDbEntity
  8
TENSEN-1
100
AcDbLine
 10
8473.723251791112
 20
3360.684839419607
 30
0.0
 11
8494.523251791115
 21
3360.684839419607
 31
0.0
  0
LINE
  5
194B7
330
19716
100
AcDbEntity
  8
TENSEN-1
100
AcDbLine
 10
8494.523251791115
 20
3360.684839419607
 30
0.0
 11
8494.523251791115
 21
2848.684839419607
 31
0.0
  0
LINE
  5
194B8
330
19716
100
AcDbEntity
  8
TENSEN-1
100
AcDbLine
 10
8494.523251791115
 20
2848.684839419607
 30
0.0
 11
8420.12325179111
 21
2848.684839419607
 31
0.0
  0
LINE
  5
194B9
330
19716
100
AcDbEntity
  8
TENSEN-1
100
AcDbLine
 10
8420.12325179111
 20
2848.684839419607
 30
0.0
 11
8420.12325179111
 21
2869.484839419605
 31
0.0
  0
LINE
  5
194BA
330
19716
100
AcDbEntity
  8
HASHIRA
100
AcDbLine
 10
8452.12325179111
 20
3319.084839419606
 30
0.0
 11
8708.123251791109
 21
3319.084839419606
 31
0.0
  0
LINE
  5
194BB
330
19716
100
AcDbEntity
  8
HASHIRA
100
AcDbLine
 10
8708.123251791109
 20
3319.084839419606
 30
0.0
 11
8708.123251791109
 21
3328.684839419607
 31
0.0
  0
LINE
  5
194BC
330
19716
100
AcDbEntity
  8
HASHIRA
100
AcDbLine
 10
8708.123251791109
 20
3328.684839419607
 30
0.0
 11
8452.12325179111
 21
3328.684839419607
 31
0.0
  0
LINE
  5
194BD
330
19716
100
AcDbEntity
  8
HASHIRA
100
AcDbLine
 10
8452.12325179111
 20
3328.684839419607
 30
0.0
 11
8452.12325179111
 21
3319.084839419606
 31
0.0
  0
LINE
  5
194BE
330
19716
100
AcDbEntity
  8
BOLT
100
AcDbLine
 10
8593.723251791109
 20
3360.684839419607
 30
0.0
 11
8593.723251791109
 21
3368.536803080584
 31
0.0
  0
LINE
  5
194BF
330
19716
100
AcDbEntity
  8
BOLT
100
AcDbLine
 10
8593.723251791109
 20
3368.536803080584
 30
0.0
 11
8580.123251791111
 21
3376.388766741566
 31
0.0
  0
LINE
  5
194C0
330
19716
100
AcDbEntity
  8
BOLT
100
AcDbLine
 10
8580.123251791111
 20
3376.388766741566
 30
0.0
 11
8566.523251791108
 21
3368.536803080584
 31
0.0
  0
LINE
  5
194C1
330
19716
100
AcDbEntity
  8
BOLT
100
AcDbLine
 10
8566.523251791108
 20
3368.536803080584
 30
0.0
 11
8566.523251791108
 21
3360.684839419607
 31
0.0
  0
LINE
  5
194C2
330
19716
100
AcDbEntity
  8
BOLT
100
AcDbLine
 10
8566.523251791108
 20
3360.684839419607
 30
0.0
 11
8566.523251791108
 21
3352.832875758626
 31
0.0
  0
LINE
  5
194C3
330
19716
100
AcDbEntity
  8
BOLT
100
AcDbLine
 10
8566.523251791108
 20
3352.832875758626
 30
0.0
 11
8580.123251791111
 21
3344.980912097646
 31
0.0
  0
LINE
  5
194C4
330
19716
100
AcDbEntity
  8
BOLT
100
AcDbLine
 10
8580.123251791111
 20
3344.980912097646
 30
0.0
 11
8593.723251791109
 21
3352.832875758626
 31
0.0
  0
LINE
  5
194C5
330
19716
100
AcDbEntity
  8
BOLT
100
AcDbLine
 10
8593.723251791109
 20
3352.832875758626
 30
0.0
 11
8593.723251791109
 21
3360.684839419607
 31
0.0
  0
LINE
  5
194C6
330
19716
100
AcDbEntity
  8
BOLT
100
AcDbLine
 10
8593.723251791109
 20
3424.684839419607
 30
0.0
 11
8593.723251791109
 21
3432.536803080584
 31
0.0
  0
LINE
  5
194C7
330
19716
100
AcDbEntity
  8
BOLT
100
AcDbLine
 10
8593.723251791109
 20
3432.536803080584
 30
0.0
 11
8580.123251791111
 21
3440.388766741566
 31
0.0
  0
LINE
  5
194C8
330
19716
100
AcDbEntity
  8
BOLT
100
AcDbLine
 10
8580.123251791111
 20
3440.388766741566
 30
0.0
 11
8566.523251791108
 21
3432.536803080584
 31
0.0
  0
LINE
  5
194C9
330
19716
100
AcDbEntity
  8
BOLT
100
AcDbLine
 10
8566.523251791108
 20
3432.536803080584
 30
0.0
 11
8566.523251791108
 21
3424.684839419607
 31
0.0
  0
LINE
  5
194CA
330
19716
100
AcDbEntity
  8
BOLT
100
AcDbLine
 10
8566.523251791108
 20
3424.684839419607
 30
0.0
 11
8566.523251791108
 21
3416.832875758626
 31
0.0
  0
LINE
  5
194CB
330
19716
100
AcDbEntity
  8
BOLT
100
AcDbLine
 10
8566.523251791108
 20
3416.832875758626
 30
0.0
 11
8580.123251791111
 21
3408.980912097646
 31
0.0
  0
LINE
  5
194CC
330
19716
100
AcDbEntity
  8
BOLT
100
AcDbLine
 10
8580.123251791111
 20
3408.980912097646
 30
0.0
 11
8593.723251791109
 21
3416.832875758626
 31
0.0
  0
LINE
  5
194CD
330
19716
100
AcDbEntity
  8
BOLT
100
AcDbLine
 10
8593.723251791109
 20
3416.832875758626
 30
0.0
 11
8593.723251791109
 21
3424.684839419607
 31
0.0
  0
LINE
  5
194CE
330
19716
100
AcDbEntity
  8
HASHIRA
100
AcDbLine
 10
4735.797051267462
 20
3319.084839419608
 30
0.0
 11
4863.797051267464
 21
3319.084839419608
 31
0.0
  0
LINE
  5
194CF
330
19716
100
AcDbEntity
  8
HASHIRA
100
AcDbLine
 10
4863.797051267464
 20
3319.084839419608
 30
0.0
 11
4863.797051267464
 21
3328.684839419607
 31
0.0
  0
LINE
  5
194D0
330
19716
100
AcDbEntity
  8
HASHIRA
100
AcDbLine
 10
4863.797051267464
 20
3328.684839419607
 30
0.0
 11
4735.797051267462
 21
3328.684839419607
 31
0.0
  0
LINE
  5
194D1
330
19716
100
AcDbEntity
  8
HASHIRA
100
AcDbLine
 10
4735.797051267462
 20
3328.684839419607
 30
0.0
 11
4735.797051267462
 21
3319.084839419608
 31
0.0
  0
LINE
  5
194D2
330
19716
100
AcDbEntity
  8
TENSEN-1
100
AcDbLine
 10
4735.797051267462
 20
2869.484839419607
 30
0.0
 11
4789.397051267463
 21
2869.484839419607
 31
0.0
  0
LINE
  5
194D3
330
19716
100
AcDbEntity
  8
TENSEN-1
100
AcDbLine
 10
4789.397051267463
 20
2869.484839419607
 30
0.0
 11
4789.397051267463
 21
3360.684839419607
 31
0.0
  0
LINE
  5
194D4
330
19716
100
AcDbEntity
  8
TENSEN-1
100
AcDbLine
 10
4789.397051267463
 20
3360.684839419607
 30
0.0
 11
4810.197051267465
 21
3360.684839419607
 31
0.0
  0
LINE
  5
194D5
330
19716
100
AcDbEntity
  8
TENSEN-1
100
AcDbLine
 10
4810.197051267465
 20
3360.684839419607
 30
0.0
 11
4810.197051267465
 21
2848.684839419607
 31
0.0
  0
LINE
  5
194D6
330
19716
100
AcDbEntity
  8
TENSEN-1
100
AcDbLine
 10
4810.197051267465
 20
2848.684839419607
 30
0.0
 11
4735.797051267462
 21
2848.684839419607
 31
0.0
  0
LINE
  5
194D7
330
19716
100
AcDbEntity
  8
TENSEN-1
100
AcDbLine
 10
4735.797051267462
 20
2848.684839419607
 30
0.0
 11
4735.797051267462
 21
2869.484839419607
 31
0.0
  0
LINE
  5
194D8
330
19716
100
AcDbEntity
  8
U1
100
AcDbLine
 10
4432.56032602548
 20
7519.712702941778
 30
0.0
 11
4400.160326025479
 21
7519.712702941778
 31
0.0
  0
LINE
  5
194D9
330
19716
100
AcDbEntity
  8
U1
100
AcDbLine
 10
4400.160326025479
 20
7459.312702941777
 30
0.0
 11
4452.560326025479
 21
7459.312702941777
 31
0.0
  0
ARC
  5
194DB
330
19716
100
AcDbEntity
  8
U1
100
AcDbCircle
 10
4400.160326025479
 20
7463.312702941777
 30
0.0
 40
4.0
100
AcDbArc
 50
180.0
 51
270.0
  0
ARC
  5
194DC
330
19716
100
AcDbEntity
  8
U1
100
AcDbCircle
 10
4400.160326025479
 20
7515.71270294178
 30
0.0
 40
4.0
100
AcDbArc
 50
90.0
 51
180.0
  0
LINE
  5
194DD
330
19716
100
AcDbEntity
  8
U1
100
AcDbLine
 10
4396.160326025479
 20
7515.71270294178
 30
0.0
 11
4396.160326025479
 21
7463.312702941777
 31
0.0
  0
ARC
  5
194DE
330
19716
100
AcDbEntity
  8
U1
100
AcDbCircle
 10
4452.560326025479
 20
7463.312702941777
 30
0.0
 40
4.0
100
AcDbArc
 50
270.0
 51
0.0
  0
ARC
  5
194DF
330
19716
100
AcDbEntity
  8
U1
100
AcDbCircle
 10
4432.56032602548
 20
7515.71270294178
 30
0.0
 40
4.0
100
AcDbArc
 50
0.0
 51
90.0
  0
ARC
  5
194E0
330
19716
100
AcDbEntity
  8
U1
100
AcDbCircle
 10
4440.010326025479
 20
7506.462702941779
 30
0.0
 40
1.149999999999977
100
AcDbArc
 50
180.0
 51
0.0
  0
LINE
  5
194E1
330
19716
100
AcDbEntity
  8
U1
100
AcDbLine
 10
4443.460326025479
 20
7514.012702941778
 30
0.0
 11
4443.460326025479
 21
7506.462702941779
 31
0.0
  0
LINE
  5
194E2
330
19716
100
AcDbEntity
  8
U1
100
AcDbLine
 10
4441.160326025477
 20
7514.012702941778
 30
0.0
 11
4443.460326025479
 21
7514.012702941778
 31
0.0
  0
LINE
  5
194E3
330
19716
100
AcDbEntity
  8
U1
100
AcDbLine
 10
4438.860326025479
 20
7507.012702941778
 30
0.0
 11
4441.160326025477
 21
7507.012702941778
 31
0.0
  0
ARC
  5
194E4
330
19716
100
AcDbEntity
  8
U1
100
AcDbCircle
 10
4440.010326025479
 20
7506.462702941779
 30
0.0
 40
3.450000000000044
100
AcDbArc
 50
180.0
 51
0.0
  0
LINE
  5
194E5
330
19716
100
AcDbEntity
  8
U1
100
AcDbLine
 10
4438.860326025479
 20
7506.462702941779
 30
0.0
 11
4438.860326025479
 21
7515.712702941776
 31
0.0
  0
LINE
  5
194E6
330
19716
100
AcDbEntity
  8
U1
100
AcDbLine
 10
4441.160326025477
 20
7515.71270294178
 30
0.0
 11
4441.160326025477
 21
7506.462702941779
 31
0.0
  0
LINE
  5
194E7
330
19716
100
AcDbEntity
  8
U1
100
AcDbLine
 10
4436.560326025479
 20
7506.462702941779
 30
0.0
 11
4436.560326025479
 21
7515.71270294178
 31
0.0
  0
ARC
  5
194E8
330
19716
100
AcDbEntity
  8
U1
100
AcDbCircle
 10
4452.560326025477
 20
7515.71270294178
 30
0.0
 40
4.0
100
AcDbArc
 50
0.0
 51
90.0
  0
LINE
  5
194E9
330
19716
100
AcDbEntity
  8
U1
100
AcDbLine
 10
4452.560326025477
 20
7519.712702941778
 30
0.0
 11
4445.160326025479
 21
7519.712702941778
 31
0.0
  0
ARC
  5
194EA
330
19716
100
AcDbEntity
  8
U1
100
AcDbCircle
 10
4445.160326025479
 20
7515.71270294178
 30
0.0
 40
4.0
100
AcDbArc
 50
90.0
 51
180.0
  0
LINE
  5
194EB
330
19716
100
AcDbEntity
  8
U1
100
AcDbLine
 10
4456.56032602548
 20
7463.312702941777
 30
0.0
 11
4456.560326025477
 21
7515.71270294178
 31
0.0
  0
LINE
  5
194EC
330
19716
100
AcDbEntity
  8
U1
100
AcDbLine
 10
4432.56032602548
 20
9319.712702941782
 30
0.0
 11
4400.160326025479
 21
9319.712702941782
 31
0.0
  0
LINE
  5
194ED
330
19716
100
AcDbEntity
  8
U1
100
AcDbLine
 10
4400.160326025479
 20
9259.312702941775
 30
0.0
 11
4452.560326025479
 21
9259.312702941775
 31
0.0
  0
ARC
  5
194EF
330
19716
100
AcDbEntity
  8
U1
100
AcDbCircle
 10
4400.160326025479
 20
9263.312702941776
 30
0.0
 40
4.0
100
AcDbArc
 50
180.0
 51
270.0
  0
ARC
  5
194F0
330
19716
100
AcDbEntity
  8
U1
100
AcDbCircle
 10
4400.160326025479
 20
9315.71270294178
 30
0.0
 40
4.0
100
AcDbArc
 50
90.0
 51
180.0
  0
LINE
  5
194F1
330
19716
100
AcDbEntity
  8
U1
100
AcDbLine
 10
4396.160326025479
 20
9315.71270294178
 30
0.0
 11
4396.160326025479
 21
9263.312702941776
 31
0.0
  0
ARC
  5
194F2
330
19716
100
AcDbEntity
  8
U1
100
AcDbCircle
 10
4452.560326025479
 20
9263.312702941776
 30
0.0
 40
4.0
100
AcDbArc
 50
270.0
 51
0.0
  0
ARC
  5
194F3
330
19716
100
AcDbEntity
  8
U1
100
AcDbCircle
 10
4432.56032602548
 20
9315.71270294178
 30
0.0
 40
4.0
100
AcDbArc
 50
0.0
 51
90.0
  0
ARC
  5
194F4
330
19716
100
AcDbEntity
  8
U1
100
AcDbCircle
 10
4440.010326025479
 20
9306.462702941781
 30
0.0
 40
1.149999999999977
100
AcDbArc
 50
180.0
 51
0.0
  0
LINE
  5
194F5
330
19716
100
AcDbEntity
  8
U1
100
AcDbLine
 10
4443.460326025479
 20
9314.012702941779
 30
0.0
 11
4443.460326025479
 21
9306.462702941781
 31
0.0
  0
LINE
  5
194F6
330
19716
100
AcDbEntity
  8
U1
100
AcDbLine
 10
4441.160326025477
 20
9314.012702941779
 30
0.0
 11
4443.460326025479
 21
9314.012702941779
 31
0.0
  0
LINE
  5
194F7
330
19716
100
AcDbEntity
  8
U1
100
AcDbLine
 10
4438.860326025479
 20
9307.012702941776
 30
0.0
 11
4441.160326025477
 21
9307.012702941776
 31
0.0
  0
ARC
  5
194F8
330
19716
100
AcDbEntity
  8
U1
100
AcDbCircle
 10
4440.010326025479
 20
9306.462702941781
 30
0.0
 40
3.450000000000044
100
AcDbArc
 50
180.0
 51
0.0
  0
LINE
  5
194F9
330
19716
100
AcDbEntity
  8
U1
100
AcDbLine
 10
4438.860326025479
 20
9306.462702941781
 30
0.0
 11
4438.860326025479
 21
9315.712702941777
 31
0.0
  0
LINE
  5
194FA
330
19716
100
AcDbEntity
  8
U1
100
AcDbLine
 10
4441.160326025477
 20
9315.71270294178
 30
0.0
 11
4441.160326025477
 21
9306.462702941781
 31
0.0
  0
LINE
  5
194FB
330
19716
100
AcDbEntity
  8
U1
100
AcDbLine
 10
4436.560326025479
 20
9306.462702941781
 30
0.0
 11
4436.560326025479
 21
9315.71270294178
 31
0.0
  0
ARC
  5
194FC
330
19716
100
AcDbEntity
  8
U1
100
AcDbCircle
 10
4452.560326025477
 20
9315.71270294178
 30
0.0
 40
4.0
100
AcDbArc
 50
0.0
 51
90.0
  0
LINE
  5
194FD
330
19716
100
AcDbEntity
  8
U1
100
AcDbLine
 10
4452.560326025477
 20
9319.712702941782
 30
0.0
 11
4445.160326025479
 21
9319.712702941782
 31
0.0
  0
ARC
  5
194FE
330
19716
100
AcDbEntity
  8
U1
100
AcDbCircle
 10
4445.160326025479
 20
9315.71270294178
 30
0.0
 40
4.0
100
AcDbArc
 50
90.0
 51
180.0
  0
LINE
  5
194FF
330
19716
100
AcDbEntity
  8
U1
100
AcDbLine
 10
4456.56032602548
 20
9263.312702941776
 30
0.0
 11
4456.560326025477
 21
9315.71270294178
 31
0.0
  0
LINE
  5
19500
330
19716
100
AcDbEntity
  8
U1
100
AcDbLine
 10
7232.560326025478
 20
7519.712702941778
 30
0.0
 11
7200.160326025478
 21
7519.712702941778
 31
0.0
  0
LINE
  5
19501
330
19716
100
AcDbEntity
  8
U1
100
AcDbLine
 10
7200.160326025478
 20
7459.312702941777
 30
0.0
 11
7252.56032602548
 21
7459.312702941777
 31
0.0
  0
ARC
  5
19503
330
19716
100
AcDbEntity
  8
U1
100
AcDbCircle
 10
7200.160326025478
 20
7463.312702941777
 30
0.0
 40
4.0
100
AcDbArc
 50
180.0
 51
270.0
  0
ARC
  5
19504
330
19716
100
AcDbEntity
  8
U1
100
AcDbCircle
 10
7200.160326025478
 20
7515.71270294178
 30
0.0
 40
4.0
100
AcDbArc
 50
90.0
 51
180.0
  0
LINE
  5
19505
330
19716
100
AcDbEntity
  8
U1
100
AcDbLine
 10
7196.160326025479
 20
7515.71270294178
 30
0.0
 11
7196.160326025479
 21
7463.312702941777
 31
0.0
  0
ARC
  5
19506
330
19716
100
AcDbEntity
  8
U1
100
AcDbCircle
 10
7252.56032602548
 20
7463.312702941777
 30
0.0
 40
4.0
100
AcDbArc
 50
270.0
 51
0.0
  0
ARC
  5
19507
330
19716
100
AcDbEntity
  8
U1
100
AcDbCircle
 10
7232.560326025478
 20
7515.71270294178
 30
0.0
 40
4.0
100
AcDbArc
 50
0.0
 51
90.0
  0
ARC
  5
19508
330
19716
100
AcDbEntity
  8
U1
100
AcDbCircle
 10
7240.01032602548
 20
7506.462702941779
 30
0.0
 40
1.149999999999977
100
AcDbArc
 50
180.0
 51
0.0
  0
LINE
  5
19509
330
19716
100
AcDbEntity
  8
U1
100
AcDbLine
 10
7243.460326025479
 20
7514.012702941778
 30
0.0
 11
7243.460326025479
 21
7506.462702941779
 31
0.0
  0
LINE
  5
1950A
330
19716
100
AcDbEntity
  8
U1
100
AcDbLine
 10
7241.160326025479
 20
7514.012702941778
 30
0.0
 11
7243.460326025479
 21
7514.012702941778
 31
0.0
  0
LINE
  5
1950B
330
19716
100
AcDbEntity
  8
U1
100
AcDbLine
 10
7238.86032602548
 20
7507.012702941778
 30
0.0
 11
7241.160326025479
 21
7507.012702941778
 31
0.0
  0
ARC
  5
1950C
330
19716
100
AcDbEntity
  8
U1
100
AcDbCircle
 10
7240.01032602548
 20
7506.462702941779
 30
0.0
 40
3.450000000000044
100
AcDbArc
 50
180.0
 51
0.0
  0
LINE
  5
1950D
330
19716
100
AcDbEntity
  8
U1
100
AcDbLine
 10
7238.86032602548
 20
7506.462702941779
 30
0.0
 11
7238.860326025478
 21
7515.712702941776
 31
0.0
  0
LINE
  5
1950E
330
19716
100
AcDbEntity
  8
U1
100
AcDbLine
 10
7241.160326025479
 20
7515.71270294178
 30
0.0
 11
7241.160326025479
 21
7506.462702941779
 31
0.0
  0
LINE
  5
1950F
330
19716
100
AcDbEntity
  8
U1
100
AcDbLine
 10
7236.56032602548
 20
7506.462702941779
 30
0.0
 11
7236.56032602548
 21
7515.71270294178
 31
0.0
  0
ARC
  5
19510
330
19716
100
AcDbEntity
  8
U1
100
AcDbCircle
 10
7252.560326025478
 20
7515.71270294178
 30
0.0
 40
4.0
100
AcDbArc
 50
0.0
 51
90.0
  0
LINE
  5
19511
330
19716
100
AcDbEntity
  8
U1
100
AcDbLine
 10
7252.560326025478
 20
7519.712702941778
 30
0.0
 11
7245.160326025478
 21
7519.712702941778
 31
0.0
  0
ARC
  5
19512
330
19716
100
AcDbEntity
  8
U1
100
AcDbCircle
 10
7245.160326025478
 20
7515.71270294178
 30
0.0
 40
4.0
100
AcDbArc
 50
90.0
 51
180.0
  0
LINE
  5
19513
330
19716
100
AcDbEntity
  8
U1
100
AcDbLine
 10
7256.560326025478
 20
7463.312702941777
 30
0.0
 11
7256.560326025478
 21
7515.71270294178
 31
0.0
  0
LINE
  5
19514
330
19716
100
AcDbEntity
  8
U1
100
AcDbLine
 10
7232.560326025478
 20
9319.712702941782
 30
0.0
 11
7200.160326025478
 21
9319.712702941782
 31
0.0
  0
LINE
  5
19515
330
19716
100
AcDbEntity
  8
U1
100
AcDbLine
 10
7200.160326025478
 20
9259.312702941775
 30
0.0
 11
7252.56032602548
 21
9259.312702941775
 31
0.0
  0
ARC
  5
19517
330
19716
100
AcDbEntity
  8
U1
100
AcDbCircle
 10
7200.160326025478
 20
9263.312702941776
 30
0.0
 40
4.0
100
AcDbArc
 50
180.0
 51
270.0
  0
ARC
  5
19518
330
19716
100
AcDbEntity
  8
U1
100
AcDbCircle
 10
7200.160326025478
 20
9315.71270294178
 30
0.0
 40
4.0
100
AcDbArc
 50
90.0
 51
180.0
  0
LINE
  5
19519
330
19716
100
AcDbEntity
  8
U1
100
AcDbLine
 10
7196.160326025479
 20
9315.71270294178
 30
0.0
 11
7196.160326025479
 21
9263.312702941776
 31
0.0
  0
ARC
  5
1951A
330
19716
100
AcDbEntity
  8
U1
100
AcDbCircle
 10
7252.56032602548
 20
9263.312702941776
 30
0.0
 40
4.0
100
AcDbArc
 50
270.0
 51
0.0
  0
ARC
  5
1951B
330
19716
100
AcDbEntity
  8
U1
100
AcDbCircle
 10
7232.560326025478
 20
9315.71270294178
 30
0.0
 40
4.0
100
AcDbArc
 50
0.0
 51
90.0
  0
ARC
  5
1951C
330
19716
100
AcDbEntity
  8
U1
100
AcDbCircle
 10
7240.01032602548
 20
9306.462702941781
 30
0.0
 40
1.149999999999977
100
AcDbArc
 50
180.0
 51
0.0
  0
LINE
  5
1951D
330
19716
100
AcDbEntity
  8
U1
100
AcDbLine
 10
7243.460326025479
 20
9314.012702941779
 30
0.0
 11
7243.460326025479
 21
9306.462702941781
 31
0.0
  0
LINE
  5
1951E
330
19716
100
AcDbEntity
  8
U1
100
AcDbLine
 10
7241.160326025479
 20
9314.012702941779
 30
0.0
 11
7243.460326025479
 21
9314.012702941779
 31
0.0
  0
LINE
  5
1951F
330
19716
100
AcDbEntity
  8
U1
100
AcDbLine
 10
7238.86032602548
 20
9307.012702941776
 30
0.0
 11
7241.160326025479
 21
9307.012702941776
 31
0.0
  0
ARC
  5
19520
330
19716
100
AcDbEntity
  8
U1
100
AcDbCircle
 10
7240.01032602548
 20
9306.462702941781
 30
0.0
 40
3.450000000000044
100
AcDbArc
 50
180.0
 51
0.0
  0
LINE
  5
19521
330
19716
100
AcDbEntity
  8
U1
100
AcDbLine
 10
7238.86032602548
 20
9306.462702941781
 30
0.0
 11
7238.860326025478
 21
9315.712702941777
 31
0.0
  0
LINE
  5
19522
330
19716
100
AcDbEntity
  8
U1
100
AcDbLine
 10
7241.160326025479
 20
9315.71270294178
 30
0.0
 11
7241.160326025479
 21
9306.462702941781
 31
0.0
  0
LINE
  5
19523
330
19716
100
AcDbEntity
  8
U1
100
AcDbLine
 10
7236.56032602548
 20
9306.462702941781
 30
0.0
 11
7236.56032602548
 21
9315.71270294178
 31
0.0
  0
ARC
  5
19524
330
19716
100
AcDbEntity
  8
U1
100
AcDbCircle
 10
7252.560326025478
 20
9315.71270294178
 30
0.0
 40
4.0
100
AcDbArc
 50
0.0
 51
90.0
  0
LINE
  5
19525
330
19716
100
AcDbEntity
  8
U1
100
AcDbLine
 10
7252.560326025478
 20
9319.712702941782
 30
0.0
 11
7245.160326025478
 21
9319.712702941782
 31
0.0
  0
ARC
  5
19526
330
19716
100
AcDbEntity
  8
U1
100
AcDbCircle
 10
7245.160326025478
 20
9315.71270294178
 30
0.0
 40
4.0
100
AcDbArc
 50
90.0
 51
180.0
  0
LINE
  5
19527
330
19716
100
AcDbEntity
  8
U1
100
AcDbLine
 10
7256.560326025478
 20
9263.312702941776
 30
0.0
 11
7256.560326025478
 21
9315.71270294178
 31
0.0
  0
LINE
  5
19528
330
19716
100
AcDbEntity
  8
U1
100
AcDbLine
 10
8632.56032602548
 20
9319.712702941782
 30
0.0
 11
8600.160326025479
 21
9319.712702941782
 31
0.0
  0
LINE
  5
19529
330
19716
100
AcDbEntity
  8
U1
100
AcDbLine
 10
8600.160326025479
 20
9259.312702941775
 30
0.0
 11
8652.560326025479
 21
9259.312702941775
 31
0.0
  0
ARC
  5
1952B
330
19716
100
AcDbEntity
  8
U1
100
AcDbCircle
 10
8600.160326025479
 20
9263.312702941776
 30
0.0
 40
4.0
100
AcDbArc
 50
180.0
 51
270.0
  0
ARC
  5
1952C
330
19716
100
AcDbEntity
  8
U1
100
AcDbCircle
 10
8600.160326025479
 20
9315.71270294178
 30
0.0
 40
4.0
100
AcDbArc
 50
90.0
 51
180.0
  0
LINE
  5
1952D
330
19716
100
AcDbEntity
  8
U1
100
AcDbLine
 10
8596.160326025477
 20
9315.71270294178
 30
0.0
 11
8596.160326025477
 21
9263.312702941776
 31
0.0
  0
ARC
  5
1952E
330
19716
100
AcDbEntity
  8
U1
100
AcDbCircle
 10
8652.560326025479
 20
9263.312702941776
 30
0.0
 40
4.0
100
AcDbArc
 50
270.0
 51
0.0
  0
ARC
  5
1952F
330
19716
100
AcDbEntity
  8
U1
100
AcDbCircle
 10
8632.56032602548
 20
9315.71270294178
 30
0.0
 40
4.0
100
AcDbArc
 50
0.0
 51
90.0
  0
ARC
  5
19530
330
19716
100
AcDbEntity
  8
U1
100
AcDbCircle
 10
8640.01032602548
 20
9306.462702941781
 30
0.0
 40
1.149999999999977
100
AcDbArc
 50
180.0
 51
0.0
  0
LINE
  5
19531
330
19716
100
AcDbEntity
  8
U1
100
AcDbLine
 10
8643.460326025479
 20
9314.012702941779
 30
0.0
 11
8643.460326025479
 21
9306.462702941781
 31
0.0
  0
LINE
  5
19532
330
19716
100
AcDbEntity
  8
U1
100
AcDbLine
 10
8641.160326025477
 20
9314.012702941779
 30
0.0
 11
8643.460326025479
 21
9314.012702941779
 31
0.0
  0
LINE
  5
19533
330
19716
100
AcDbEntity
  8
U1
100
AcDbLine
 10
8638.860326025477
 20
9307.012702941776
 30
0.0
 11
8641.160326025477
 21
9307.012702941776
 31
0.0
  0
ARC
  5
19534
330
19716
100
AcDbEntity
  8
U1
100
AcDbCircle
 10
8640.01032602548
 20
9306.462702941781
 30
0.0
 40
3.450000000000044
100
AcDbArc
 50
180.0
 51
0.0
  0
LINE
  5
19535
330
19716
100
AcDbEntity
  8
U1
100
AcDbLine
 10
8638.860326025477
 20
9306.462702941781
 30
0.0
 11
8638.860326025477
 21
9315.712702941777
 31
0.0
  0
LINE
  5
19536
330
19716
100
AcDbEntity
  8
U1
100
AcDbLine
 10
8641.160326025477
 20
9315.71270294178
 30
0.0
 11
8641.160326025477
 21
9306.462702941781
 31
0.0
  0
LINE
  5
19537
330
19716
100
AcDbEntity
  8
U1
100
AcDbLine
 10
8636.560326025479
 20
9306.462702941781
 30
0.0
 11
8636.560326025479
 21
9315.71270294178
 31
0.0
  0
ARC
  5
19538
330
19716
100
AcDbEntity
  8
U1
100
AcDbCircle
 10
8652.560326025479
 20
9315.71270294178
 30
0.0
 40
4.0
100
AcDbArc
 50
0.0
 51
90.0
  0
LINE
  5
19539
330
19716
100
AcDbEntity
  8
U1
100
AcDbLine
 10
8652.560326025479
 20
9319.712702941782
 30
0.0
 11
8645.160326025481
 21
9319.712702941782
 31
0.0
  0
ARC
  5
1953A
330
19716
100
AcDbEntity
  8
U1
100
AcDbCircle
 10
8645.160326025481
 20
9315.71270294178
 30
0.0
 40
4.0
100
AcDbArc
 50
90.0
 51
180.0
  0
LINE
  5
1953B
330
19716
100
AcDbEntity
  8
U1
100
AcDbLine
 10
8656.560326025479
 20
9263.312702941776
 30
0.0
 11
8656.560326025479
 21
9315.71270294178
 31
0.0
  0
LINE
  5
1953C
330
19716
100
AcDbEntity
  8
U1
100
AcDbLine
 10
8632.56032602548
 20
7519.712702941778
 30
0.0
 11
8600.160326025479
 21
7519.712702941778
 31
0.0
  0
LINE
  5
1953D
330
19716
100
AcDbEntity
  8
U1
100
AcDbLine
 10
8600.160326025479
 20
7459.312702941777
 30
0.0
 11
8652.560326025479
 21
7459.312702941777
 31
0.0
  0
ARC
  5
1953F
330
19716
100
AcDbEntity
  8
U1
100
AcDbCircle
 10
8600.160326025479
 20
7463.312702941777
 30
0.0
 40
4.0
100
AcDbArc
 50
180.0
 51
270.0
  0
ARC
  5
19540
330
19716
100
AcDbEntity
  8
U1
100
AcDbCircle
 10
8600.160326025479
 20
7515.71270294178
 30
0.0
 40
4.0
100
AcDbArc
 50
90.0
 51
180.0
  0
LINE
  5
19541
330
19716
100
AcDbEntity
  8
U1
100
AcDbLine
 10
8596.160326025477
 20
7515.71270294178
 30
0.0
 11
8596.160326025477
 21
7463.312702941777
 31
0.0
  0
ARC
  5
19542
330
19716
100
AcDbEntity
  8
U1
100
AcDbCircle
 10
8652.560326025479
 20
7463.312702941777
 30
0.0
 40
4.0
100
AcDbArc
 50
270.0
 51
0.0
  0
ARC
  5
19543
330
19716
100
AcDbEntity
  8
U1
100
AcDbCircle
 10
8632.56032602548
 20
7515.71270294178
 30
0.0
 40
4.0
100
AcDbArc
 50
0.0
 51
90.0
  0
ARC
  5
19544
330
19716
100
AcDbEntity
  8
U1
100
AcDbCircle
 10
8640.01032602548
 20
7506.462702941779
 30
0.0
 40
1.149999999999977
100
AcDbArc
 50
180.0
 51
0.0
  0
LINE
  5
19545
330
19716
100
AcDbEntity
  8
U1
100
AcDbLine
 10
8643.460326025479
 20
7514.012702941778
 30
0.0
 11
8643.460326025479
 21
7506.462702941779
 31
0.0
  0
LINE
  5
19546
330
19716
100
AcDbEntity
  8
U1
100
AcDbLine
 10
8641.160326025477
 20
7514.012702941778
 30
0.0
 11
8643.460326025479
 21
7514.012702941778
 31
0.0
  0
LINE
  5
19547
330
19716
100
AcDbEntity
  8
U1
100
AcDbLine
 10
8638.860326025477
 20
7507.012702941778
 30
0.0
 11
8641.160326025477
 21
7507.012702941778
 31
0.0
  0
ARC
  5
19548
330
19716
100
AcDbEntity
  8
U1
100
AcDbCircle
 10
8640.01032602548
 20
7506.462702941779
 30
0.0
 40
3.450000000000044
100
AcDbArc
 50
180.0
 51
0.0
  0
LINE
  5
19549
330
19716
100
AcDbEntity
  8
U1
100
AcDbLine
 10
8638.860326025477
 20
7506.462702941779
 30
0.0
 11
8638.860326025477
 21
7515.712702941776
 31
0.0
  0
LINE
  5
1954A
330
19716
100
AcDbEntity
  8
U1
100
AcDbLine
 10
8641.160326025477
 20
7515.71270294178
 30
0.0
 11
8641.160326025477
 21
7506.462702941779
 31
0.0
  0
LINE
  5
1954B
330
19716
100
AcDbEntity
  8
U1
100
AcDbLine
 10
8636.560326025479
 20
7506.462702941779
 30
0.0
 11
8636.560326025479
 21
7515.71270294178
 31
0.0
  0
ARC
  5
1954C
330
19716
100
AcDbEntity
  8
U1
100
AcDbCircle
 10
8652.560326025479
 20
7515.71270294178
 30
0.0
 40
4.0
100
AcDbArc
 50
0.0
 51
90.0
  0
LINE
  5
1954D
330
19716
100
AcDbEntity
  8
U1
100
AcDbLine
 10
8652.560326025479
 20
7519.712702941778
 30
0.0
 11
8645.160326025481
 21
7519.712702941778
 31
0.0
  0
ARC
  5
1954E
330
19716
100
AcDbEntity
  8
U1
100
AcDbCircle
 10
8645.160326025481
 20
7515.71270294178
 30
0.0
 40
4.0
100
AcDbArc
 50
90.0
 51
180.0
  0
LINE
  5
1954F
330
19716
100
AcDbEntity
  8
U1
100
AcDbLine
 10
8656.560326025479
 20
7463.312702941777
 30
0.0
 11
8656.560326025479
 21
7515.71270294178
 31
0.0
  0
LINE
  5
19550
330
19716
100
AcDbEntity
  8
U1
100
AcDbLine
 10
11432.56032602548
 20
9319.712702941782
 30
0.0
 11
11400.16032602547
 21
9319.712702941782
 31
0.0
  0
LINE
  5
19551
330
19716
100
AcDbEntity
  8
U1
100
AcDbLine
 10
11400.16032602547
 20
9259.312702941775
 30
0.0
 11
11452.56032602548
 21
9259.312702941775
 31
0.0
  0
ARC
  5
19553
330
19716
100
AcDbEntity
  8
U1
100
AcDbCircle
 10
11400.16032602547
 20
9263.312702941776
 30
0.0
 40
4.0
100
AcDbArc
 50
180.0
 51
270.0
  0
ARC
  5
19554
330
19716
100
AcDbEntity
  8
U1
100
AcDbCircle
 10
11400.16032602547
 20
9315.71270294178
 30
0.0
 40
4.0
100
AcDbArc
 50
90.0
 51
180.0
  0
LINE
  5
19555
330
19716
100
AcDbEntity
  8
U1
100
AcDbLine
 10
11396.16032602547
 20
9315.71270294178
 30
0.0
 11
11396.16032602547
 21
9263.312702941776
 31
0.0
  0
ARC
  5
19556
330
19716
100
AcDbEntity
  8
U1
100
AcDbCircle
 10
11452.56032602548
 20
9263.312702941776
 30
0.0
 40
4.0
100
AcDbArc
 50
270.0
 51
0.0
  0
ARC
  5
19557
330
19716
100
AcDbEntity
  8
U1
100
AcDbCircle
 10
11432.56032602548
 20
9315.71270294178
 30
0.0
 40
4.0
100
AcDbArc
 50
0.0
 51
90.0
  0
ARC
  5
19558
330
19716
100
AcDbEntity
  8
U1
100
AcDbCircle
 10
11440.01032602547
 20
9306.462702941781
 30
0.0
 40
1.149999999999977
100
AcDbArc
 50
180.0
 51
0.0
  0
LINE
  5
19559
330
19716
100
AcDbEntity
  8
U1
100
AcDbLine
 10
11443.46032602547
 20
9314.012702941779
 30
0.0
 11
11443.46032602547
 21
9306.462702941781
 31
0.0
  0
LINE
  5
1955A
330
19716
100
AcDbEntity
  8
U1
100
AcDbLine
 10
11441.16032602547
 20
9314.012702941779
 30
0.0
 11
11443.46032602547
 21
9314.012702941779
 31
0.0
  0
LINE
  5
1955B
330
19716
100
AcDbEntity
  8
U1
100
AcDbLine
 10
11438.86032602547
 20
9307.012702941776
 30
0.0
 11
11441.16032602547
 21
9307.012702941776
 31
0.0
  0
ARC
  5
1955C
330
19716
100
AcDbEntity
  8
U1
100
AcDbCircle
 10
11440.01032602547
 20
9306.462702941781
 30
0.0
 40
3.450000000000044
100
AcDbArc
 50
180.0
 51
0.0
  0
LINE
  5
1955D
330
19716
100
AcDbEntity
  8
U1
100
AcDbLine
 10
11438.86032602547
 20
9306.462702941781
 30
0.0
 11
11438.86032602547
 21
9315.712702941777
 31
0.0
  0
LINE
  5
1955E
330
19716
100
AcDbEntity
  8
U1
100
AcDbLine
 10
11441.16032602547
 20
9315.71270294178
 30
0.0
 11
11441.16032602547
 21
9306.462702941781
 31
0.0
  0
LINE
  5
1955F
330
19716
100
AcDbEntity
  8
U1
100
AcDbLine
 10
11436.56032602548
 20
9306.462702941781
 30
0.0
 11
11436.56032602548
 21
9315.71270294178
 31
0.0
  0
ARC
  5
19560
330
19716
100
AcDbEntity
  8
U1
100
AcDbCircle
 10
11452.56032602548
 20
9315.71270294178
 30
0.0
 40
4.0
100
AcDbArc
 50
0.0
 51
90.0
  0
LINE
  5
19561
330
19716
100
AcDbEntity
  8
U1
100
AcDbLine
 10
11452.56032602548
 20
9319.712702941782
 30
0.0
 11
11445.16032602547
 21
9319.712702941782
 31
0.0
  0
ARC
  5
19562
330
19716
100
AcDbEntity
  8
U1
100
AcDbCircle
 10
11445.16032602547
 20
9315.71270294178
 30
0.0
 40
4.0
100
AcDbArc
 50
90.0
 51
180.0
  0
LINE
  5
19563
330
19716
100
AcDbEntity
  8
U1
100
AcDbLine
 10
11456.56032602548
 20
9263.312702941776
 30
0.0
 11
11456.56032602548
 21
9315.71270294178
 31
0.0
  0
LINE
  5
19564
330
19716
100
AcDbEntity
  8
U1
100
AcDbLine
 10
11432.56032602548
 20
7519.712702941778
 30
0.0
 11
11400.16032602547
 21
7519.712702941778
 31
0.0
  0
LINE
  5
19565
330
19716
100
AcDbEntity
  8
U1
100
AcDbLine
 10
11400.16032602547
 20
7459.312702941777
 30
0.0
 11
11452.56032602548
 21
7459.312702941777
 31
0.0
  0
ARC
  5
19567
330
19716
100
AcDbEntity
  8
U1
100
AcDbCircle
 10
11400.16032602547
 20
7463.312702941777
 30
0.0
 40
4.0
100
AcDbArc
 50
180.0
 51
270.0
  0
ARC
  5
19568
330
19716
100
AcDbEntity
  8
U1
100
AcDbCircle
 10
11400.16032602547
 20
7515.71270294178
 30
0.0
 40
4.0
100
AcDbArc
 50
90.0
 51
180.0
  0
LINE
  5
19569
330
19716
100
AcDbEntity
  8
U1
100
AcDbLine
 10
11396.16032602547
 20
7515.71270294178
 30
0.0
 11
11396.16032602547
 21
7463.312702941777
 31
0.0
  0
ARC
  5
1956A
330
19716
100
AcDbEntity
  8
U1
100
AcDbCircle
 10
11452.56032602548
 20
7463.312702941777
 30
0.0
 40
4.0
100
AcDbArc
 50
270.0
 51
0.0
  0
ARC
  5
1956B
330
19716
100
AcDbEntity
  8
U1
100
AcDbCircle
 10
11432.56032602548
 20
7515.71270294178
 30
0.0
 40
4.0
100
AcDbArc
 50
0.0
 51
90.0
  0
ARC
  5
1956C
330
19716
100
AcDbEntity
  8
U1
100
AcDbCircle
 10
11440.01032602547
 20
7506.462702941779
 30
0.0
 40
1.149999999999977
100
AcDbArc
 50
180.0
 51
0.0
  0
LINE
  5
1956D
330
19716
100
AcDbEntity
  8
U1
100
AcDbLine
 10
11443.46032602547
 20
7514.012702941778
 30
0.0
 11
11443.46032602547
 21
7506.462702941779
 31
0.0
  0
LINE
  5
1956E
330
19716
100
AcDbEntity
  8
U1
100
AcDbLine
 10
11441.16032602547
 20
7514.012702941778
 30
0.0
 11
11443.46032602547
 21
7514.012702941778
 31
0.0
  0
LINE
  5
1956F
330
19716
100
AcDbEntity
  8
U1
100
AcDbLine
 10
11438.86032602547
 20
7507.012702941778
 30
0.0
 11
11441.16032602547
 21
7507.012702941778
 31
0.0
  0
ARC
  5
19570
330
19716
100
AcDbEntity
  8
U1
100
AcDbCircle
 10
11440.01032602547
 20
7506.462702941779
 30
0.0
 40
3.450000000000044
100
AcDbArc
 50
180.0
 51
0.0
  0
LINE
  5
19571
330
19716
100
AcDbEntity
  8
U1
100
AcDbLine
 10
11438.86032602547
 20
7506.462702941779
 30
0.0
 11
11438.86032602547
 21
7515.712702941776
 31
0.0
  0
LINE
  5
19572
330
19716
100
AcDbEntity
  8
U1
100
AcDbLine
 10
11441.16032602547
 20
7515.71270294178
 30
0.0
 11
11441.16032602547
 21
7506.462702941779
 31
0.0
  0
LINE
  5
19573
330
19716
100
AcDbEntity
  8
U1
100
AcDbLine
 10
11436.56032602548
 20
7506.462702941779
 30
0.0
 11
11436.56032602548
 21
7515.71270294178
 31
0.0
  0
ARC
  5
19574
330
19716
100
AcDbEntity
  8
U1
100
AcDbCircle
 10
11452.56032602548
 20
7515.71270294178
 30
0.0
 40
4.0
100
AcDbArc
 50
0.0
 51
90.0
  0
LINE
  5
19575
330
19716
100
AcDbEntity
  8
U1
100
AcDbLine
 10
11452.56032602548
 20
7519.712702941778
 30
0.0
 11
11445.16032602547
 21
7519.712702941778
 31
0.0
  0
ARC
  5
19576
330
19716
100
AcDbEntity
  8
U1
100
AcDbCircle
 10
11445.16032602547
 20
7515.71270294178
 30
0.0
 40
4.0
100
AcDbArc
 50
90.0
 51
180.0
  0
LINE
  5
19577
330
19716
100
AcDbEntity
  8
U1
100
AcDbLine
 10
11456.56032602548
 20
7463.312702941777
 30
0.0
 11
11456.56032602548
 21
7515.71270294178
 31
0.0
  0
LINE
  5
19578
330
19716
100
AcDbEntity
  8
KISO
100
AcDbLine
 10
11826.36032602548
 20
7089.512702941778
 30
0.0
 11
11026.36032602547
 21
7089.512702941778
 31
0.0
  0
LINE
  5
19579
330
19716
100
AcDbEntity
  8
KISO
100
AcDbLine
 10
11026.36032602547
 20
7089.512702941778
 30
0.0
 11
11026.36032602547
 21
7889.512702941778
 31
0.0
  0
LINE
  5
1957A
330
19716
100
AcDbEntity
  8
KISO
100
AcDbLine
 10
11026.36032602547
 20
7889.512702941778
 30
0.0
 11
11826.36032602548
 21
7889.512702941778
 31
0.0
  0
LINE
  5
1957B
330
19716
100
AcDbEntity
  8
KISO
100
AcDbLine
 10
11826.36032602548
 20
7889.512702941778
 30
0.0
 11
11826.36032602548
 21
7089.512702941778
 31
0.0
  0
LINE
  5
1957C
330
19716
100
AcDbEntity
  8
KISO
100
AcDbLine
 10
11826.36032602548
 20
8889.512702941777
 30
0.0
 11
11026.36032602547
 21
8889.512702941777
 31
0.0
  0
LINE
  5
1957D
330
19716
100
AcDbEntity
  8
KISO
100
AcDbLine
 10
11026.36032602547
 20
8889.512702941777
 30
0.0
 11
11026.36032602547
 21
9689.512702941778
 31
0.0
  0
LINE
  5
1957E
330
19716
100
AcDbEntity
  8
KISO
100
AcDbLine
 10
11026.36032602547
 20
9689.512702941778
 30
0.0
 11
11826.36032602548
 21
9689.512702941778
 31
0.0
  0
LINE
  5
1957F
330
19716
100
AcDbEntity
  8
KISO
100
AcDbLine
 10
11826.36032602548
 20
9689.512702941778
 30
0.0
 11
11826.36032602548
 21
8889.512702941777
 31
0.0
  0
LINE
  5
19580
330
19716
100
AcDbEntity
  8
KISO
100
AcDbLine
 10
7626.360326025478
 20
7089.512702941778
 30
0.0
 11
6826.360326025478
 21
7089.512702941778
 31
0.0
  0
LINE
  5
19581
330
19716
100
AcDbEntity
  8
KISO
100
AcDbLine
 10
6826.360326025478
 20
7089.512702941778
 30
0.0
 11
6826.360326025478
 21
7889.512702941778
 31
0.0
  0
LINE
  5
19582
330
19716
100
AcDbEntity
  8
KISO
100
AcDbLine
 10
6826.360326025478
 20
7889.512702941778
 30
0.0
 11
7626.360326025478
 21
7889.512702941778
 31
0.0
  0
LINE
  5
19583
330
19716
100
AcDbEntity
  8
KISO
100
AcDbLine
 10
7626.360326025478
 20
7889.512702941778
 30
0.0
 11
7626.360326025478
 21
7089.512702941778
 31
0.0
  0
LINE
  5
19584
330
19716
100
AcDbEntity
  8
KISO
100
AcDbLine
 10
7626.360326025478
 20
8889.512702941777
 30
0.0
 11
6826.360326025478
 21
8889.512702941777
 31
0.0
  0
LINE
  5
19585
330
19716
100
AcDbEntity
  8
KISO
100
AcDbLine
 10
6826.360326025478
 20
8889.512702941777
 30
0.0
 11
6826.360326025478
 21
9689.512702941778
 31
0.0
  0
LINE
  5
19586
330
19716
100
AcDbEntity
  8
KISO
100
AcDbLine
 10
6826.360326025478
 20
9689.512702941778
 30
0.0
 11
7626.360326025478
 21
9689.512702941778
 31
0.0
  0
LINE
  5
19587
330
19716
100
AcDbEntity
  8
KISO
100
AcDbLine
 10
7626.360326025478
 20
9689.512702941778
 30
0.0
 11
7626.360326025478
 21
8889.512702941777
 31
0.0
  0
LINE
  5
19588
330
19716
100
AcDbEntity
  8
KISO
100
AcDbLine
 10
4826.360326025479
 20
8889.512702941777
 30
0.0
 11
4026.360326025478
 21
8889.512702941777
 31
0.0
  0
LINE
  5
19589
330
19716
100
AcDbEntity
  8
KISO
100
AcDbLine
 10
4026.360326025478
 20
8889.512702941777
 30
0.0
 11
4026.360326025478
 21
9689.512702941778
 31
0.0
  0
LINE
  5
1958A
330
19716
100
AcDbEntity
  8
KISO
100
AcDbLine
 10
4026.360326025478
 20
9689.512702941778
 30
0.0
 11
4826.360326025479
 21
9689.512702941778
 31
0.0
  0
LINE
  5
1958B
330
19716
100
AcDbEntity
  8
KISO
100
AcDbLine
 10
4826.360326025479
 20
9689.512702941778
 30
0.0
 11
4826.360326025479
 21
8889.512702941777
 31
0.0
  0
LINE
  5
1958C
330
19716
100
AcDbEntity
  8
KISO
100
AcDbLine
 10
4826.360326025479
 20
7089.512702941778
 30
0.0
 11
4026.360326025478
 21
7089.512702941778
 31
0.0
  0
LINE
  5
1958D
330
19716
100
AcDbEntity
  8
KISO
100
AcDbLine
 10
4026.360326025478
 20
7089.512702941778
 30
0.0
 11
4026.360326025478
 21
7889.512702941778
 31
0.0
  0
LINE
  5
1958E
330
19716
100
AcDbEntity
  8
KISO
100
AcDbLine
 10
4026.360326025478
 20
7889.512702941778
 30
0.0
 11
4826.360326025479
 21
7889.512702941778
 31
0.0
  0
LINE
  5
1958F
330
19716
100
AcDbEntity
  8
KISO
100
AcDbLine
 10
4826.360326025479
 20
7889.512702941778
 30
0.0
 11
4826.360326025479
 21
7089.512702941778
 31
0.0
  0
LINE
  5
19590
330
19716
100
AcDbEntity
  8
DOMAKON
100
AcDbLine
 10
7866.360326025482
 20
9489.512702941778
 30
0.0
 11
4026.360326025478
 21
9489.512702941778
 31
0.0
  0
LINE
  5
19591
330
19716
100
AcDbEntity
  8
DOMAKON
100
AcDbLine
 10
4026.360326025478
 20
9489.512702941778
 30
0.0
 11
4026.360326025478
 21
7089.512702941778
 31
0.0
  0
LINE
  5
19592
330
19716
100
AcDbEntity
  8
DOMAKON
100
AcDbLine
 10
4026.360326025478
 20
7089.512702941778
 30
0.0
 11
7866.360326025482
 21
7089.512702941778
 31
0.0
  0
LINE
  5
19593
330
19716
100
AcDbEntity
  8
KISO
100
AcDbLine
 10
9026.36032602548
 20
8889.512702941777
 30
0.0
 11
8226.360326025478
 21
8889.512702941777
 31
0.0
  0
LINE
  5
19594
330
19716
100
AcDbEntity
  8
KISO
100
AcDbLine
 10
8226.360326025478
 20
8889.512702941777
 30
0.0
 11
8226.360326025478
 21
9689.512702941778
 31
0.0
  0
LINE
  5
19595
330
19716
100
AcDbEntity
  8
KISO
100
AcDbLine
 10
8226.360326025478
 20
9689.512702941778
 30
0.0
 11
9026.36032602548
 21
9689.512702941778
 31
0.0
  0
LINE
  5
19596
330
19716
100
AcDbEntity
  8
KISO
100
AcDbLine
 10
9026.36032602548
 20
9689.512702941778
 30
0.0
 11
9026.36032602548
 21
8889.512702941777
 31
0.0
  0
LINE
  5
19597
330
19716
100
AcDbEntity
  8
KISO
100
AcDbLine
 10
9026.36032602548
 20
7089.512702941778
 30
0.0
 11
8226.360326025478
 21
7089.512702941778
 31
0.0
  0
LINE
  5
19598
330
19716
100
AcDbEntity
  8
KISO
100
AcDbLine
 10
8226.360326025478
 20
7089.512702941778
 30
0.0
 11
8226.360326025478
 21
7889.512702941778
 31
0.0
  0
LINE
  5
19599
330
19716
100
AcDbEntity
  8
KISO
100
AcDbLine
 10
8226.360326025478
 20
7889.512702941778
 30
0.0
 11
9026.36032602548
 21
7889.512702941778
 31
0.0
  0
LINE
  5
1959A
330
19716
100
AcDbEntity
  8
KISO
100
AcDbLine
 10
9026.36032602548
 20
7889.512702941778
 30
0.0
 11
9026.36032602548
 21
7089.512702941778
 31
0.0
  0
LINE
  5
1959B
330
19716
100
AcDbEntity
  8
DOMAKON
100
AcDbLine
 10
7986.360326025482
 20
7089.512702941778
 30
0.0
 11
11826.36032602548
 21
7089.512702941778
 31
0.0
  0
LINE
  5
1959C
330
19716
100
AcDbEntity
  8
DOMAKON
100
AcDbLine
 10
11826.36032602548
 20
7089.512702941778
 30
0.0
 11
11826.36032602548
 21
9489.512702941778
 31
0.0
  0
LINE
  5
1959D
330
19716
100
AcDbEntity
  8
DOMAKON
100
AcDbLine
 10
11826.36032602548
 20
9489.512702941778
 30
0.0
 11
7986.360326025482
 21
9489.512702941778
 31
0.0
  0
LINE
  5
1959E
330
19716
100
AcDbEntity
  8
YANE
  6
2PL-L
 62
     6
100
AcDbLine
 10
11822.36032602547
 20
6989.512702941778
 30
0.0
 11
4030.360326025479
 21
6989.512702941778
 31
0.0
  0
LINE
  5
1959F
330
19716
100
AcDbEntity
  8
YANE
  6
2PL-L
 62
     6
100
AcDbLine
 10
4030.360326025479
 20
6989.512702941778
 30
0.0
 11
4030.360326025479
 21
9539.512702941776
 31
0.0
  0
LINE
  5
195A0
330
19716
100
AcDbEntity
  8
YANE
  6
2PL-L
 62
     6
100
AcDbLine
 10
4030.360326025479
 20
9539.512702941776
 30
0.0
 11
11822.36032602547
 21
9539.512702941776
 31
0.0
  0
LINE
  5
195A1
330
19716
100
AcDbEntity
  8
YANE
  6
2PL-L
 62
     6
100
AcDbLine
 10
11822.36032602547
 20
9539.512702941776
 30
0.0
 11
11822.36032602547
 21
6989.512702941778
 31
0.0
  0
LINE
  5
195A2
330
19716
100
AcDbEntity
  8
U3
100
AcDbLine
 10
9130.078259983639
 20
3525.966871722361
 30
0.0
 11
9357.853645156977
 21
3920.485411556196
 31
0.0
1001
ACAD
1000
DSTYLE
1002
{
1070
   147
1040
1.0
1070
    77
1070
     0
1002
}
  0
LINE
  5
195A3
330
19716
100
AcDbEntity
  8
0
100
AcDbLine
 10
9118.531254599846
 20
3532.633538389028
 30
0.0
 11
9090.07825998364
 21
3456.684839419605
 31
0.0
  0
LINE
  5
195A4
330
19716
100
AcDbEntity
  8
0
100
AcDbLine
 10
9090.07825998364
 20
3456.684839419605
 30
0.0
 11
9141.625265367435
 21
3519.300205055695
 31
0.0
  0
SOLID
  5
195A5
330
19716
100
AcDbEntity
  8
0
100
AcDbTrace
 10
9118.531254599846
 20
3532.633538389028
 30
0.0
 11
9141.625265367435
 21
3519.300205055695
 31
0.0
 12
9090.07825998364
 22
3456.684839419605
 32
0.0
 13
9090.07825998364
 23
3456.684839419605
 33
0.0
  0
LINE
  5
195A6
330
19716
100
AcDbEntity
  8
0
100
AcDbLine
 10
9141.625265367435
 20
3519.300205055695
 30
0.0
 11
9118.531254599846
 21
3532.633538389028
 31
0.0
  0
ARC
  5
195A7
330
19716
100
AcDbEntity
  8
U1
100
AcDbCircle
 10
4452.560326025479
 20
7515.71270294178
 30
0.0
 40
6.299999999999272
100
AcDbArc
 50
359.9999999999917
 51
90.00000000000826
  0
LINE
  5
195A8
330
19716
100
AcDbEntity
  8
U1
100
AcDbLine
 10
4452.560326025477
 20
7522.012702941778
 30
0.0
 11
4445.160326025479
 21
7522.012702941778
 31
0.0
  0
ARC
  5
195A9
330
19716
100
AcDbEntity
  8
U1
100
AcDbCircle
 10
4445.160326025478
 20
7515.71270294178
 30
0.0
 40
6.299999999999272
100
AcDbArc
 50
89.99999999999173
 51
180.0000000000082
  0
ARC
  5
195AA
330
19716
100
AcDbEntity
  8
U1
100
AcDbCircle
 10
4432.56032602548
 20
7515.71270294178
 30
0.0
 40
6.300000000000181
100
AcDbArc
 50
0.0
 51
90.0
  0
LINE
  5
195AB
330
19716
100
AcDbEntity
  8
U1
100
AcDbLine
 10
4432.56032602548
 20
7522.012702941778
 30
0.0
 11
4400.160326025479
 21
7522.012702941778
 31
0.0
  0
ARC
  5
195AC
330
19716
100
AcDbEntity
  8
U1
100
AcDbCircle
 10
4400.160326025478
 20
7515.71270294178
 30
0.0
 40
6.299999999999272
100
AcDbArc
 50
89.99999999999173
 51
180.0000000000082
  0
LINE
  5
195AD
330
19716
100
AcDbEntity
  8
U1
100
AcDbLine
 10
4393.860326025477
 20
7515.71270294178
 30
0.0
 11
4393.860326025477
 21
7463.312702941777
 31
0.0
  0
ARC
  5
195AE
330
19716
100
AcDbEntity
  8
U1
100
AcDbCircle
 10
4400.160326025478
 20
7463.312702941777
 30
0.0
 40
6.299999999999272
100
AcDbArc
 50
180.0
 51
270.0000000000081
  0
LINE
  5
195AF
330
19716
100
AcDbEntity
  8
U1
100
AcDbLine
 10
4400.160326025479
 20
7457.012702941778
 30
0.0
 11
4452.560326025477
 21
7457.012702941778
 31
0.0
  0
ARC
  5
195B0
330
19716
100
AcDbEntity
  8
U1
100
AcDbCircle
 10
4452.560326025479
 20
7463.312702941777
 30
0.0
 40
6.299999999999272
100
AcDbArc
 50
269.9999999999918
 51
0.0
  0
LINE
  5
195B1
330
19716
100
AcDbEntity
  8
U1
100
AcDbLine
 10
4458.860326025479
 20
7463.312702941777
 30
0.0
 11
4458.860326025479
 21
7515.71270294178
 31
0.0
  0
ARC
  5
195B2
330
19716
100
AcDbEntity
  8
U1
100
AcDbCircle
 10
4452.560326025479
 20
9315.71270294178
 30
0.0
 40
6.299999999999272
100
AcDbArc
 50
0.0
 51
90.00000000000826
  0
LINE
  5
195B3
330
19716
100
AcDbEntity
  8
U1
100
AcDbLine
 10
4452.560326025477
 20
9322.012702941778
 30
0.0
 11
4445.160326025479
 21
9322.012702941778
 31
0.0
  0
ARC
  5
195B4
330
19716
100
AcDbEntity
  8
U1
100
AcDbCircle
 10
4445.160326025478
 20
9315.71270294178
 30
0.0
 40
6.299999999999272
100
AcDbArc
 50
89.99999999999173
 51
180.0
  0
ARC
  5
195B5
330
19716
100
AcDbEntity
  8
U1
100
AcDbCircle
 10
4432.56032602548
 20
9315.71270294178
 30
0.0
 40
6.299999999999272
100
AcDbArc
 50
0.0
 51
90.00000000000826
  0
LINE
  5
195B6
330
19716
100
AcDbEntity
  8
U1
100
AcDbLine
 10
4432.56032602548
 20
9322.012702941778
 30
0.0
 11
4400.160326025479
 21
9322.012702941778
 31
0.0
  0
ARC
  5
195B7
330
19716
100
AcDbEntity
  8
U1
100
AcDbCircle
 10
4400.160326025478
 20
9315.71270294178
 30
0.0
 40
6.299999999999272
100
AcDbArc
 50
89.99999999999173
 51
180.0
  0
LINE
  5
195B8
330
19716
100
AcDbEntity
  8
U1
100
AcDbLine
 10
4393.860326025477
 20
9315.71270294178
 30
0.0
 11
4393.860326025477
 21
9263.312702941776
 31
0.0
  0
ARC
  5
195B9
330
19716
100
AcDbEntity
  8
U1
100
AcDbCircle
 10
4400.160326025478
 20
9263.312702941776
 30
0.0
 40
6.299999999999272
100
AcDbArc
 50
180.0
 51
270.0000000000081
  0
LINE
  5
195BA
330
19716
100
AcDbEntity
  8
U1
100
AcDbLine
 10
4400.160326025479
 20
9257.012702941777
 30
0.0
 11
4452.560326025477
 21
9257.012702941777
 31
0.0
  0
ARC
  5
195BB
330
19716
100
AcDbEntity
  8
U1
100
AcDbCircle
 10
4452.560326025479
 20
9263.312702941776
 30
0.0
 40
6.299999999999272
100
AcDbArc
 50
269.9999999999918
 51
0.0
  0
LINE
  5
195BC
330
19716
100
AcDbEntity
  8
U1
100
AcDbLine
 10
4458.860326025479
 20
9263.312702941776
 30
0.0
 11
4458.860326025479
 21
9315.71270294178
 31
0.0
  0
ARC
  5
195BD
330
19716
100
AcDbEntity
  8
U1
100
AcDbCircle
 10
7252.56032602548
 20
7515.71270294178
 30
0.0
 40
6.299999999999272
100
AcDbArc
 50
359.9999999999917
 51
90.00000000000826
  0
LINE
  5
195BE
330
19716
100
AcDbEntity
  8
U1
100
AcDbLine
 10
7252.560326025478
 20
7522.012702941778
 30
0.0
 11
7245.160326025478
 21
7522.012702941778
 31
0.0
  0
ARC
  5
195BF
330
19716
100
AcDbEntity
  8
U1
100
AcDbCircle
 10
7245.160326025478
 20
7515.71270294178
 30
0.0
 40
6.299999999999272
100
AcDbArc
 50
89.99999999999173
 51
180.0000000000082
  0
ARC
  5
195C0
330
19716
100
AcDbEntity
  8
U1
100
AcDbCircle
 10
7232.560326025478
 20
7515.71270294178
 30
0.0
 40
6.300000000000181
100
AcDbArc
 50
0.0
 51
90.0
  0
LINE
  5
195C1
330
19716
100
AcDbEntity
  8
U1
100
AcDbLine
 10
7232.560326025478
 20
7522.012702941778
 30
0.0
 11
7200.160326025478
 21
7522.012702941778
 31
0.0
  0
ARC
  5
195C2
330
19716
100
AcDbEntity
  8
U1
100
AcDbCircle
 10
7200.160326025478
 20
7515.71270294178
 30
0.0
 40
6.299999999999272
100
AcDbArc
 50
89.99999999999173
 51
180.0000000000082
  0
LINE
  5
195C3
330
19716
100
AcDbEntity
  8
U1
100
AcDbLine
 10
7193.860326025479
 20
7515.71270294178
 30
0.0
 11
7193.860326025479
 21
7463.312702941777
 31
0.0
  0
ARC
  5
195C4
330
19716
100
AcDbEntity
  8
U1
100
AcDbCircle
 10
7200.160326025478
 20
7463.312702941777
 30
0.0
 40
6.299999999999272
100
AcDbArc
 50
180.0
 51
270.0000000000081
  0
LINE
  5
195C5
330
19716
100
AcDbEntity
  8
U1
100
AcDbLine
 10
7200.160326025478
 20
7457.012702941778
 30
0.0
 11
7252.560326025478
 21
7457.012702941778
 31
0.0
  0
ARC
  5
195C6
330
19716
100
AcDbEntity
  8
U1
100
AcDbCircle
 10
7252.56032602548
 20
7463.312702941777
 30
0.0
 40
6.299999999999272
100
AcDbArc
 50
269.9999999999918
 51
0.0
  0
LINE
  5
195C7
330
19716
100
AcDbEntity
  8
U1
100
AcDbLine
 10
7258.860326025478
 20
7463.312702941777
 30
0.0
 11
7258.860326025478
 21
7515.71270294178
 31
0.0
  0
ARC
  5
195C8
330
19716
100
AcDbEntity
  8
U1
100
AcDbCircle
 10
7252.56032602548
 20
9315.71270294178
 30
0.0
 40
6.299999999999272
100
AcDbArc
 50
0.0
 51
90.00000000000826
  0
LINE
  5
195C9
330
19716
100
AcDbEntity
  8
U1
100
AcDbLine
 10
7252.560326025478
 20
9322.012702941778
 30
0.0
 11
7245.160326025478
 21
9322.012702941778
 31
0.0
  0
ARC
  5
195CA
330
19716
100
AcDbEntity
  8
U1
100
AcDbCircle
 10
7245.160326025478
 20
9315.71270294178
 30
0.0
 40
6.299999999999272
100
AcDbArc
 50
89.99999999999173
 51
180.0
  0
ARC
  5
195CB
330
19716
100
AcDbEntity
  8
U1
100
AcDbCircle
 10
7232.560326025478
 20
9315.71270294178
 30
0.0
 40
6.299999999999272
100
AcDbArc
 50
0.0
 51
90.00000000000826
  0
LINE
  5
195CC
330
19716
100
AcDbEntity
  8
U1
100
AcDbLine
 10
7232.560326025478
 20
9322.012702941778
 30
0.0
 11
7200.160326025478
 21
9322.012702941778
 31
0.0
  0
ARC
  5
195CD
330
19716
100
AcDbEntity
  8
U1
100
AcDbCircle
 10
7200.160326025478
 20
9315.71270294178
 30
0.0
 40
6.299999999999272
100
AcDbArc
 50
89.99999999999173
 51
180.0
  0
LINE
  5
195CE
330
19716
100
AcDbEntity
  8
U1
100
AcDbLine
 10
7193.860326025479
 20
9315.71270294178
 30
0.0
 11
7193.860326025479
 21
9263.312702941776
 31
0.0
  0
ARC
  5
195CF
330
19716
100
AcDbEntity
  8
U1
100
AcDbCircle
 10
7200.160326025478
 20
9263.312702941776
 30
0.0
 40
6.299999999999272
100
AcDbArc
 50
180.0
 51
270.0000000000081
  0
LINE
  5
195D0
330
19716
100
AcDbEntity
  8
U1
100
AcDbLine
 10
7200.160326025478
 20
9257.012702941777
 30
0.0
 11
7252.560326025478
 21
9257.012702941777
 31
0.0
  0
ARC
  5
195D1
330
19716
100
AcDbEntity
  8
U1
100
AcDbCircle
 10
7252.56032602548
 20
9263.312702941776
 30
0.0
 40
6.299999999999272
100
AcDbArc
 50
269.9999999999918
 51
0.0
  0
LINE
  5
195D2
330
19716
100
AcDbEntity
  8
U1
100
AcDbLine
 10
7258.860326025478
 20
9263.312702941776
 30
0.0
 11
7258.860326025478
 21
9315.71270294178
 31
0.0
  0
ARC
  5
195D3
330
19716
100
AcDbEntity
  8
U1
100
AcDbCircle
 10
8652.560326025479
 20
9315.71270294178
 30
0.0
 40
6.299999999999272
100
AcDbArc
 50
0.0
 51
90.0
  0
LINE
  5
195D4
330
19716
100
AcDbEntity
  8
U1
100
AcDbLine
 10
8652.560326025479
 20
9322.012702941778
 30
0.0
 11
8645.160326025481
 21
9322.012702941778
 31
0.0
  0
ARC
  5
195D5
330
19716
100
AcDbEntity
  8
U1
100
AcDbCircle
 10
8645.160326025481
 20
9315.71270294178
 30
0.0
 40
6.299999999999272
100
AcDbArc
 50
90.0
 51
180.0
  0
ARC
  5
195D6
330
19716
100
AcDbEntity
  8
U1
100
AcDbCircle
 10
8632.56032602548
 20
9315.71270294178
 30
0.0
 40
6.299999999999272
100
AcDbArc
 50
0.0
 51
90.0
  0
LINE
  5
195D7
330
19716
100
AcDbEntity
  8
U1
100
AcDbLine
 10
8632.56032602548
 20
9322.012702941778
 30
0.0
 11
8600.160326025479
 21
9322.012702941778
 31
0.0
  0
ARC
  5
195D8
330
19716
100
AcDbEntity
  8
U1
100
AcDbCircle
 10
8600.160326025479
 20
9315.71270294178
 30
0.0
 40
6.299999999999272
100
AcDbArc
 50
90.0
 51
180.0
  0
LINE
  5
195D9
330
19716
100
AcDbEntity
  8
U1
100
AcDbLine
 10
8593.860326025479
 20
9315.71270294178
 30
0.0
 11
8593.860326025479
 21
9263.312702941776
 31
0.0
  0
ARC
  5
195DA
330
19716
100
AcDbEntity
  8
U1
100
AcDbCircle
 10
8600.160326025479
 20
9263.312702941776
 30
0.0
 40
6.299999999999272
100
AcDbArc
 50
180.0
 51
270.0
  0
LINE
  5
195DB
330
19716
100
AcDbEntity
  8
U1
100
AcDbLine
 10
8600.160326025479
 20
9257.012702941777
 30
0.0
 11
8652.560326025479
 21
9257.012702941777
 31
0.0
  0
ARC
  5
195DC
330
19716
100
AcDbEntity
  8
U1
100
AcDbCircle
 10
8652.560326025479
 20
9263.312702941776
 30
0.0
 40
6.299999999999272
100
AcDbArc
 50
270.0
 51
0.0
  0
LINE
  5
195DD
330
19716
100
AcDbEntity
  8
U1
100
AcDbLine
 10
8658.860326025479
 20
9263.312702941776
 30
0.0
 11
8658.860326025479
 21
9315.71270294178
 31
0.0
  0
ARC
  5
195DE
330
19716
100
AcDbEntity
  8
U1
100
AcDbCircle
 10
8652.560326025479
 20
7515.71270294178
 30
0.0
 40
6.299999999999272
100
AcDbArc
 50
359.9999999999917
 51
90.0
  0
LINE
  5
195DF
330
19716
100
AcDbEntity
  8
U1
100
AcDbLine
 10
8652.560326025479
 20
7522.012702941778
 30
0.0
 11
8645.160326025481
 21
7522.012702941778
 31
0.0
  0
ARC
  5
195E0
330
19716
100
AcDbEntity
  8
U1
100
AcDbCircle
 10
8645.160326025481
 20
7515.71270294178
 30
0.0
 40
6.299999999999272
100
AcDbArc
 50
90.0
 51
180.0000000000082
  0
ARC
  5
195E1
330
19716
100
AcDbEntity
  8
U1
100
AcDbCircle
 10
8632.56032602548
 20
7515.71270294178
 30
0.0
 40
6.299999999999272
100
AcDbArc
 50
359.9999999999917
 51
90.0
  0
LINE
  5
195E2
330
19716
100
AcDbEntity
  8
U1
100
AcDbLine
 10
8632.56032602548
 20
7522.012702941778
 30
0.0
 11
8600.160326025479
 21
7522.012702941778
 31
0.0
  0
ARC
  5
195E3
330
19716
100
AcDbEntity
  8
U1
100
AcDbCircle
 10
8600.160326025479
 20
7515.71270294178
 30
0.0
 40
6.299999999999272
100
AcDbArc
 50
90.0
 51
180.0000000000082
  0
LINE
  5
195E4
330
19716
100
AcDbEntity
  8
U1
100
AcDbLine
 10
8593.860326025479
 20
7515.71270294178
 30
0.0
 11
8593.860326025479
 21
7463.312702941777
 31
0.0
  0
ARC
  5
195E5
330
19716
100
AcDbEntity
  8
U1
100
AcDbCircle
 10
8600.160326025479
 20
7463.312702941777
 30
0.0
 40
6.299999999999272
100
AcDbArc
 50
180.0
 51
270.0
  0
LINE
  5
195E6
330
19716
100
AcDbEntity
  8
U1
100
AcDbLine
 10
8600.160326025479
 20
7457.012702941778
 30
0.0
 11
8652.560326025479
 21
7457.012702941778
 31
0.0
  0
ARC
  5
195E7
330
19716
100
AcDbEntity
  8
U1
100
AcDbCircle
 10
8652.560326025479
 20
7463.312702941777
 30
0.0
 40
6.299999999999272
100
AcDbArc
 50
270.0
 51
0.0
  0
LINE
  5
195E8
330
19716
100
AcDbEntity
  8
U1
100
AcDbLine
 10
8658.860326025479
 20
7463.312702941777
 30
0.0
 11
8658.860326025479
 21
7515.71270294178
 31
0.0
  0
ARC
  5
195E9
330
19716
100
AcDbEntity
  8
U1
100
AcDbCircle
 10
11452.56032602548
 20
9315.71270294178
 30
0.0
 40
6.299999999999272
100
AcDbArc
 50
0.0
 51
90.0
  0
LINE
  5
195EA
330
19716
100
AcDbEntity
  8
U1
100
AcDbLine
 10
11452.56032602548
 20
9322.012702941778
 30
0.0
 11
11445.16032602547
 21
9322.012702941778
 31
0.0
  0
ARC
  5
195EB
330
19716
100
AcDbEntity
  8
U1
100
AcDbCircle
 10
11445.16032602547
 20
9315.71270294178
 30
0.0
 40
6.299999999999272
100
AcDbArc
 50
90.0
 51
180.0
  0
ARC
  5
195EC
330
19716
100
AcDbEntity
  8
U1
100
AcDbCircle
 10
11432.56032602548
 20
9315.71270294178
 30
0.0
 40
6.299999999999272
100
AcDbArc
 50
0.0
 51
90.0
  0
LINE
  5
195ED
330
19716
100
AcDbEntity
  8
U1
100
AcDbLine
 10
11432.56032602548
 20
9322.012702941778
 30
0.0
 11
11400.16032602547
 21
9322.012702941778
 31
0.0
  0
ARC
  5
195EE
330
19716
100
AcDbEntity
  8
U1
100
AcDbCircle
 10
11400.16032602547
 20
9315.71270294178
 30
0.0
 40
6.299999999999272
100
AcDbArc
 50
90.0
 51
180.0
  0
LINE
  5
195EF
330
19716
100
AcDbEntity
  8
U1
100
AcDbLine
 10
11393.86032602548
 20
9315.71270294178
 30
0.0
 11
11393.86032602548
 21
9263.312702941776
 31
0.0
  0
ARC
  5
195F0
330
19716
100
AcDbEntity
  8
U1
100
AcDbCircle
 10
11400.16032602547
 20
9263.312702941776
 30
0.0
 40
6.299999999999272
100
AcDbArc
 50
180.0
 51
270.0
  0
LINE
  5
195F1
330
19716
100
AcDbEntity
  8
U1
100
AcDbLine
 10
11400.16032602547
 20
9257.012702941777
 30
0.0
 11
11452.56032602548
 21
9257.012702941777
 31
0.0
  0
ARC
  5
195F2
330
19716
100
AcDbEntity
  8
U1
100
AcDbCircle
 10
11452.56032602548
 20
9263.312702941776
 30
0.0
 40
6.299999999999272
100
AcDbArc
 50
270.0
 51
0.0
  0
LINE
  5
195F3
330
19716
100
AcDbEntity
  8
U1
100
AcDbLine
 10
11458.86032602547
 20
9263.312702941776
 30
0.0
 11
11458.86032602547
 21
9315.71270294178
 31
0.0
  0
ARC
  5
195F4
330
19716
100
AcDbEntity
  8
U1
100
AcDbCircle
 10
11452.56032602548
 20
7515.71270294178
 30
0.0
 40
6.299999999999272
100
AcDbArc
 50
359.9999999999917
 51
90.0
  0
LINE
  5
195F5
330
19716
100
AcDbEntity
  8
U1
100
AcDbLine
 10
11452.56032602548
 20
7522.012702941778
 30
0.0
 11
11445.16032602547
 21
7522.012702941778
 31
0.0
  0
ARC
  5
195F6
330
19716
100
AcDbEntity
  8
U1
100
AcDbCircle
 10
11445.16032602547
 20
7515.71270294178
 30
0.0
 40
6.299999999999272
100
AcDbArc
 50
90.0
 51
180.0000000000082
  0
ARC
  5
195F7
330
19716
100
AcDbEntity
  8
U1
100
AcDbCircle
 10
11432.56032602548
 20
7515.71270294178
 30
0.0
 40
6.299999999999272
100
AcDbArc
 50
359.9999999999917
 51
90.0
  0
LINE
  5
195F8
330
19716
100
AcDbEntity
  8
U1
100
AcDbLine
 10
11432.56032602548
 20
7522.012702941778
 30
0.0
 11
11400.16032602547
 21
7522.012702941778
 31
0.0
  0
ARC
  5
195F9
330
19716
100
AcDbEntity
  8
U1
100
AcDbCircle
 10
11400.16032602547
 20
7515.71270294178
 30
0.0
 40
6.299999999999272
100
AcDbArc
 50
90.0
 51
180.0000000000082
  0
LINE
  5
195FA
330
19716
100
AcDbEntity
  8
U1
100
AcDbLine
 10
11393.86032602548
 20
7515.71270294178
 30
0.0
 11
11393.86032602548
 21
7463.312702941777
 31
0.0
  0
ARC
  5
195FB
330
19716
100
AcDbEntity
  8
U1
100
AcDbCircle
 10
11400.16032602547
 20
7463.312702941777
 30
0.0
 40
6.299999999999272
100
AcDbArc
 50
180.0
 51
270.0
  0
LINE
  5
195FC
330
19716
100
AcDbEntity
  8
U1
100
AcDbLine
 10
11400.16032602547
 20
7457.012702941778
 30
0.0
 11
11452.56032602548
 21
7457.012702941778
 31
0.0
  0
ARC
  5
195FD
330
19716
100
AcDbEntity
  8
U1
100
AcDbCircle
 10
11452.56032602548
 20
7463.312702941777
 30
0.0
 40
6.299999999999272
100
AcDbArc
 50
270.0
 51
0.0
  0
LINE
  5
195FE
330
19716
100
AcDbEntity
  8
U1
100
AcDbLine
 10
11458.86032602547
 20
7463.312702941777
 30
0.0
 11
11458.86032602547
 21
7515.71270294178
 31
0.0
  0
TEXT
  5
197C2
330
19716
100
AcDbEntity
  8
SUNPOU
100
AcDbText
 10
2127.597079591578
 20
5601.377728794338
 30
0.0
 40
73.84615384615384
  1
/
 41
0.6700000000000001
  7
00
 11
2127.597079591578
 21
5591.531574948184
 31
0.0
100
AcDbText
 73
     1
  0
TEXT
  5
197C3
330
19716
100
AcDbEntity
  8
SUNPOU
100
AcDbText
 10
2191.546522545947
 20
5582.916190332799
 30
0.0
 40
73.84615384615384
  1
25
 41
0.6700000000000001
  7
00
 11
2191.546522545947
 21
5573.070036486644
 31
0.0
100
AcDbText
 73
     1
  0
TEXT
  5
197C4
330
19716
100
AcDbEntity
  8
SUNPOU
100
AcDbText
 10
1042.637913060151
 20
5591.531574948184
 30
0.0
 40
120.0
  1
基礎断面図
  7
01
 72
     4
 11
1382.637913060151
 21
5651.531574948184
 31
0.0
100
AcDbText
  0
TEXT
  5
197C5
330
19716
100
AcDbEntity
  8
SUNPOU
100
AcDbText
 10
1759.488250423122
 20
5603.839267255876
 30
0.0
 40
92.30769230769228
  1
（ S = 　　  ）
 41
0.6700000000000001
  7
00
 11
1759.488250423122
 21
5591.531574948184
 31
0.0
100
AcDbText
 73
     1
  0
TEXT
  5
197C6
330
19716
100
AcDbEntity
  8
SUNPOU
100
AcDbText
 10
1047.84439891924
 20
5244.777572502227
 30
0.0
 40
89.9993750043402
  1
地耐力   　　　 以上,コンクリート設計基準強度　　　　　以上
  7
01
100
AcDbText
  0
TEXT
  5
197C7
330
19716
100
AcDbEntity
  8
SUNPOU
100
AcDbText
 10
1422.800144008633
 20
4556.920429645083
 30
0.0
 40
90.0
  1
その他現地の実情にあわせて設計して下さい。
  7
01
100
AcDbText
  0
TEXT
  5
197C8
330
19716
100
AcDbEntity
  8
SUNPOU
100
AcDbText
 10
1422.800144008633
 20
4865.491858216514
 30
0.0
 40
90.0
  1
寒冷地の場合、凍結深度等を考慮し、実情に
  7
01
100
AcDbText
  0
TEXT
  5
197C9
330
19716
100
AcDbEntity
  8
SUNPOU
100
AcDbText
 10
1422.102806344322
 20
5244.777572502227
 30
0.0
 40
89.9993750043402
  1
50  N/m
 41
0.6700000000000001
  7
01
100
AcDbText
  0
TEXT
  5
197CA
330
19716
100
AcDbEntity
  8
SUNPOU
100
AcDbText
 10
1531.607827584408
 20
5090.491858216516
 30
0.0
 40
89.9993750043402
  1
34 m/s
 41
0.6700000000000001
  7
01
100
AcDbText
  0
TEXT
  5
197CB
330
19716
100
AcDbEntity
  8
SUNPOU
100
AcDbText
 10
1047.84439891924
 20
5090.491858216516
 30
0.0
 40
89.9993750043402
  1
基準風速   　　 , 地表面粗度区分
  7
01
100
AcDbText
  0
TEXT
  5
197CC
330
19716
100
AcDbEntity
  8
SUNPOU
100
AcDbText
 10
1422.800144008633
 20
4711.206143930797
 30
0.0
 40
90.0
  1
あわせて設計して下さい。
  7
01
100
AcDbText
  0
TEXT
  5
197CD
330
19716
100
AcDbEntity
  8
SUNPOU
100
AcDbText
 10
917.2807702030093
 20
5434.031574948185
 30
0.0
 40
90.0
  1
<下記条件での参考図>
  7
01
 72
     4
 11
1506.137913060152
 21
5479.031574948184
 31
0.0
100
AcDbText
  0
TEXT
  5
197CE
330
19716
100
AcDbEntity
  8
SUNPOU
100
AcDbText
 10
1216.594398919239
 20
4556.920429645083
 30
0.0
 40
90.0
  1
2
 41
0.6700000000000001
  7
01
100
AcDbText
  0
TEXT
  5
197CF
330
19716
100
AcDbEntity
  8
SUNPOU
100
AcDbText
 10
1105.960478706496
 20
4556.920429645083
 30
0.0
 40
90.0
  1
注　）
  7
01
100
AcDbText
  0
ARC
  5
197D0
330
19716
100
AcDbEntity
  8
SUNPOU
100
AcDbCircle
 10
1200.802672826445
 20
5208.564995944058
 30
0.0
 40
225.0
100
AcDbArc
 50
148.3472725282829
 51
211.652727471717
  0
TEXT
  5
197D1
330
19716
100
AcDbEntity
  8
SUNPOU
100
AcDbText
 10
1216.594398919239
 20
4865.491858216514
 30
0.0
 40
90.0
  1
1
 41
0.6700000000000001
  7
01
100
AcDbText
  0
TEXT
  5
197D2
330
19716
100
AcDbEntity
  8
SUNPOU
100
AcDbText
 10
1105.960478706496
 20
4865.491858216514
 30
0.0
 40
90.0
  1
注　）
  7
01
100
AcDbText
  0
TEXT
  5
197D3
330
19716
100
AcDbEntity
  8
SUNPOU
100
AcDbText
 10
1557.939259130276
 20
5244.777572502227
 30
0.0
 40
71.99950000347218
  1
K
 41
0.6700000000000001
  7
01
100
AcDbText
  0
TEXT
  5
197D4
330
19716
100
AcDbEntity
  8
SUNPOU
100
AcDbText
 10
1825.579415858659
 20
5294.965998859713
 30
0.0
 40
46.28539285937498
  1
2
 41
0.6700000000000001
  7
00
100
AcDbText
  0
LINE
  5
197D5
330
19716
100
AcDbEntity
  8
SUNPOU
100
AcDbLine
 10
2884.659960485848
 20
5090.491858216516
 30
0.0
 11
2884.659960485848
 21
5173.984221915294
 31
0.0
  0
LINE
  5
197D6
330
19716
100
AcDbEntity
  8
SUNPOU
100
AcDbLine
 10
2867.784960485847
 20
5090.491858216516
 30
0.0
 11
2867.784960485847
 21
5173.984221915294
 31
0.0
  0
LINE
  5
197D7
330
19716
100
AcDbEntity
  8
SUNPOU
100
AcDbLine
 10
2850.909960485848
 20
5090.491858216516
 30
0.0
 11
2850.909960485848
 21
5173.984221915294
 31
0.0
  0
LINE
  5
197D8
330
19716
100
AcDbEntity
  8
SUNPOU
100
AcDbLine
 10
2839.659960485848
 20
5090.491858216513
 30
0.0
 11
2895.909960485848
 21
5090.491858216513
 31
0.0
  0
LINE
  5
197D9
330
19716
100
AcDbEntity
  8
SUNPOU
100
AcDbLine
 10
2839.659960485848
 20
5173.984221915294
 30
0.0
 11
2895.909960485848
 21
5173.984221915294
 31
0.0
  0
TEXT
  5
197DA
330
19716
100
AcDbEntity
  8
SUNPOU
100
AcDbText
 10
3628.028076595886
 20
5244.777572502227
 30
0.0
 40
89.9993750043402
  1
N/mm
 41
0.6700000000000001
  7
01
100
AcDbText
  0
TEXT
  5
197DB
330
19716
100
AcDbEntity
  8
SUNPOU
100
AcDbText
 10
3492.191623809936
 20
5244.777572502227
 30
0.0
 40
89.9993750043402
  1
18
 41
0.6700000000000001
  7
01
100
AcDbText
  0
ARC
  5
197DC
330
19716
100
AcDbEntity
  8
SUNPOU
100
AcDbCircle
 10
4102.242956078007
 20
5208.564995944058
 30
0.0
 40
225.0
100
AcDbArc
 50
328.3472725282829
 51
31.65272747171703
  0
TEXT
  5
197DD
330
19716
100
AcDbEntity
  8
SUNPOU
100
AcDbText
 10
3932.492558627291
 20
5294.965998859713
 30
0.0
 40
46.28539285937498
  1
2
 41
0.6700000000000001
  7
00
100
AcDbText
  0
TEXT
  5
197DE
330
19716
100
AcDbEntity
  8
SUNPOU
100
AcDbText
 10
2079.190952276207
 20
5619.839267255876
 30
0.0
 40
73.84615384615384
  1
1
 41
0.6700000000000001
  7
00
 11
2079.190952276207
 21
5609.993113409722
 31
0.0
100
AcDbText
 73
     1
  0
ENDSEC
  0
SECTION
  2
OBJECTS
  0
DICTIONARY
  5
19706
330
0
100
AcDbDictionary
281
     1
  3
ACAD_GROUP
350
19707
  3
ACAD_LAYOUT
350
19713
  3
ACAD_MLEADERSTYLE
350
1979A
  3
ACAD_MLINESTYLE
350
19710
  3
ACAD_PLOTSETTINGS
350
19712
  3
ACAD_PLOTSTYLENAME
350
19708
  3
ACAD_TABLESTYLE
350
19799
  3
AcDbVariableDictionary
350
197DF
  0
DICTIONARY
  5
19707
102
{ACAD_REACTORS
330
19706
102
}
330
19706
100
AcDbDictionary
281
     1
  0
DICTIONARY
  5
19713
102
{ACAD_REACTORS
330
19706
102
}
330
19706
100
AcDbDictionary
281
     1
  3
Layout1
350
19715
  3
Model
350
19717
  0
DICTIONARY
  5
1979A
102
{ACAD_REACTORS
330
19706
102
}
330
19706
100
AcDbDictionary
281
     1
  0
DICTIONARY
  5
19710
102
{ACAD_REACTORS
330
19706
102
}
330
19706
100
AcDbDictionary
281
     1
  3
Standard
350
19711
  0
DICTIONARY
  5
19712
102
{ACAD_REACTORS
330
19706
102
}
330
19706
100
AcDbDictionary
281
     1
  0
ACDBDICTIONARYWDFLT
  5
19708
102
{ACAD_REACTORS
330
19706
102
}
330
19706
100
AcDbDictionary
281
     1
  3
Normal
350
19709
100
AcDbDictionaryWithDefault
340
19709
  0
DICTIONARY
  5
19799
102
{ACAD_REACTORS
330
19706
102
}
330
19706
100
AcDbDictionary
281
     1
  0
DICTIONARY
  5
197DF
102
{ACAD_REACTORS
330
19706
102
}
330
19706
100
AcDbDictionary
281
     1
  3
DIMASSOC
350
197E0
  0
LAYOUT
  5
19715
102
{ACAD_REACTORS
330
19713
102
}
330
19713
100
AcDbPlotSettings
  1

  2
none_device
  4

  6

 40
0.0
 41
0.0
 42
0.0
 43
0.0
 44
0.0
 45
0.0
 46
0.0
 47
0.0
 48
0.0
 49
0.0
140
0.0
141
0.0
142
1.0
143
1.0
 70
   688
 72
     0
 73
     0
 74
     5
  7

 75
    16
147
1.0
148
0.0
149
0.0
100
AcDbLayout
  1
Layout1
 70
     0
 71
     1
 10
0.0
 20
0.0
 11
12.0
 21
9.0
 12
0.0
 22
0.0
 32
0.0
 14
1.000000000000000E+20
 24
1.000000000000000E+20
 34
1.000000000000000E+20
 15
-1.000000000000000E+20
 25
-1.000000000000000E+20
 35
-1.000000000000000E+20
146
0.0
 13
0.0
 23
0.0
 33
0.0
 16
1.0
 26
0.0
 36
0.0
 17
0.0
 27
1.0
 37
0.0
 76
     0
330
19714
  0
LAYOUT
  5
19717
102
{ACAD_REACTORS
330
19713
102
}
330
19713
100
AcDbPlotSettings
  1

  2
none_device
  4

  6

 40
0.0
 41
0.0
 42
0.0
 43
0.0
 44
0.0
 45
0.0
 46
0.0
 47
0.0
 48
0.0
 49
0.0
140
0.0
141
0.0
142
1.0
143
1.0
 70
  1712
 72
     0
 73
     0
 74
     0
  7

 75
     0
147
1.0
148
0.0
149
0.0
100
AcDbLayout
  1
Model
 70
     1
 71
     0
 10
0.0
 20
0.0
 11
12.0
 21
9.0
 12
267.0
 22
194.8999999999998
 32
0.0
 14
433.9966216520332
 24
163.6908237492789
 34
-0.0000000000000129
 15
16382.66605425469
 25
11242.27663824599
 35
0.0000000000000023
146
0.0
 13
0.0
 23
0.0
 33
0.0
 16
1.0
 26
0.0
 36
0.0
 17
0.0
 27
1.0
 37
0.0
 76
     0
330
19716
331
19719
  0
MLINESTYLE
  5
19711
102
{ACAD_REACTORS
330
19710
102
}
330
19710
100
AcDbMlineStyle
  2
STANDARD
 70
     0
  3

 62
   256
 51
90.0
 52
90.0
 71
     2
 49
0.5
 62
   256
  6
BYLAYER
 49
-0.5
 62
   256
  6
BYLAYER
  0
ACDBPLACEHOLDER
  5
19709
102
{ACAD_REACTORS
330
19708
102
}
330
19708
  0
DICTIONARYVAR
  5
197E0
102
{ACAD_REACTORS
330
197DF
102
}
330
197DF
100
DictionaryVariables
280
     0
  1
1
  0
ENDSEC
  0
EOF
