  0
SECTION
  2
HEADER
  9
$ACADVER
  1
AC1015
  9
$ACADMAINTVER
 70
    13
  9
$DWGCODEPAGE
  3
ANSI_932
  9
$INSBASE
 10
267.0
 20
194.8999999999998
 30
0.0
  9
$EXTMIN
 10
433.9966216520333
 20
163.6908237492789
 30
-0.0000000000000053
  9
$EXTMAX
 10
16382.6660542547
 20
11242.27663824599
 30
0.00000000000001
  9
$LIMMIN
 10
0.0
 20
0.0
  9
$LIMMAX
 10
16800.0
 20
11880.0
  9
$ORTHOMODE
 70
     0
  9
$REGENMODE
 70
     1
  9
$FILLMODE
 70
     1
  9
$QTEXTMODE
 70
     0
  9
$MIRRTEXT
 70
     0
  9
$LTSCALE
 40
40.0
  9
$ATTMODE
 70
     1
  9
$TEXTSIZE
 40
90.0
  9
$TRACEWID
 40
0.05
  9
$TEXTSTYLE
  7
00
  9
$CLAYER
  8
SUNPOU
  9
$CELTYPE
  6
ByLayer
  9
$CECOLOR
 62
   256
  9
$CELTSCALE
 40
1.0
  9
$DISPSILH
 70
     0
  9
$DIMSCALE
 40
30.0
  9
$DIMASZ
 40
0.5
  9
$DIMEXO
 40
1.0
  9
$DIMDLI
 40
7.0
  9
$DIMRND
 40
0.0
  9
$DIMDLE
 40
3.0
  9
$DIMEXE
 40
1.5
  9
$DIMTP
 40
0.0
  9
$DIMTM
 40
0.0
  9
$DIMTXT
 40
3.0
  9
$DIMCEN
 40
0.0
  9
$DIMTSZ
 40
0.0
  9
$DIMTOL
 70
     0
  9
$DIMLIM
 70
     0
  9
$DIMTIH
 70
     0
  9
$DIMTOH
 70
     0
  9
$DIMSE1
 70
     0
  9
$DIMSE2
 70
     0
  9
$DIMTAD
 70
     1
  9
$DIMZIN
 70
     8
  9
$DIMBLK
  1

  9
$DIMASO
 70
     1
  9
$DIMSHO
 70
     0
  9
$DIMPOST
  1

  9
$DIMAPOST
  1

  9
$DIMALT
 70
     0
  9
$DIMALTD
 70
     2
  9
$DIMALTF
 40
25.4
  9
$DIMLFAC
 40
1.0
  9
$DIMTOFL
 70
     1
  9
$DIMTVP
 40
0.0
  9
$DIMTIX
 70
     0
  9
$DIMSOXD
 70
     0
  9
$DIMSAH
 70
     1
  9
$DIMBLK1
  1
DOT
  9
$DIMBLK2
  1
DOT
  9
$DIMSTYLE
  2
SUNPOU_図面名
  9
$DIMCLRD
 70
   256
  9
$DIMCLRE
 70
   256
  9
$DIMCLRT
 70
   256
  9
$DIMTFAC
 40
1.0
  9
$DIMGAP
 40
1.5
  9
$DIMJUST
 70
     0
  9
$DIMSD1
 70
     0
  9
$DIMSD2
 70
     0
  9
$DIMTOLJ
 70
     1
  9
$DIMTZIN
 70
     0
  9
$DIMALTZ
 70
     0
  9
$DIMALTTZ
 70
     0
  9
$DIMUPT
 70
     0
  9
$DIMDEC
 70
     4
  9
$DIMTDEC
 70
     4
  9
$DIMALTU
 70
     2
  9
$DIMALTTD
 70
     2
  9
$DIMTXSTY
  7
STANDARD
  9
$DIMAUNIT
 70
     0
  9
$DIMADEC
 70
     0
  9
$DIMALTRND
 40
0.0
  9
$DIMAZIN
 70
     0
  9
$DIMDSEP
 70
    46
  9
$DIMATFIT
 70
     3
  9
$DIMFRAC
 70
     0
  9
$DIMLDRBLK
  1
DOT
  9
$DIMLUNIT
 70
     2
  9
$DIMLWD
 70
    -2
  9
$DIMLWE
 70
    -2
  9
$DIMTMOVE
 70
     0
  9
$LUNITS
 70
     2
  9
$LUPREC
 70
     2
  9
$SKETCHINC
 40
0.1
  9
$FILLETRAD
 40
0.0
  9
$AUNITS
 70
     0
  9
$AUPREC
 70
     0
  9
$MENU
  1
A:\TIGER\MENU\TIGER
  9
$ELEVATION
 40
0.0
  9
$PELEVATION
 40
0.0
  9
$THICKNESS
 40
0.0
  9
$LIMCHECK
 70
     0
  9
$CHAMFERA
 40
0.0
  9
$CHAMFERB
 40
0.0
  9
$CHAMFERC
 40
0.0
  9
$CHAMFERD
 40
0.0
  9
$SKPOLY
 70
     0
  9
$TDCREATE
 40
2450266.571064815
  9
$TDUCREATE
 40
2450266.196064815
  9
$TDUPDATE
 40
2456332.389308449
  9
$TDUUPDATE
 40
2456332.014308449
  9
$TDINDWG
 40
0.1619254630
  9
$TDUSRTIMER
 40
0.1619254630
  9
$USRTIMER
 70
     1
  9
$ANGBASE
 50
0.0
  9
$ANGDIR
 70
     0
  9
$PDMODE
 70
     0
  9
$PDSIZE
 40
0.0
  9
$PLINEWID
 40
0.0
  9
$SPLFRAME
 70
     0
  9
$SPLINETYPE
 70
     6
  9
$SPLINESEGS
 70
     8
  9
$HANDSEED
  5
183B9
  9
$SURFTAB1
 70
     6
  9
$SURFTAB2
 70
     6
  9
$SURFTYPE
 70
     6
  9
$SURFU
 70
     6
  9
$SURFV
 70
     6
  9
$UCSBASE
  2

  9
$UCSNAME
  2

  9
$UCSORG
 10
0.0
 20
0.0
 30
0.0
  9
$UCSXDIR
 10
1.0
 20
0.0
 30
0.0
  9
$UCSYDIR
 10
0.0
 20
1.0
 30
0.0
  9
$UCSORTHOREF
  2

  9
$UCSORTHOVIEW
 70
     0
  9
$UCSORGTOP
 10
0.0
 20
0.0
 30
0.0
  9
$UCSORGBOTTOM
 10
0.0
 20
0.0
 30
0.0
  9
$UCSORGLEFT
 10
0.0
 20
0.0
 30
0.0
  9
$UCSORGRIGHT
 10
0.0
 20
0.0
 30
0.0
  9
$UCSORGFRONT
 10
0.0
 20
0.0
 30
0.0
  9
$UCSORGBACK
 10
0.0
 20
0.0
 30
0.0
  9
$PUCSBASE
  2

  9
$PUCSNAME
  2

  9
$PUCSORG
 10
0.0
 20
0.0
 30
0.0
  9
$PUCSXDIR
 10
1.0
 20
0.0
 30
0.0
  9
$PUCSYDIR
 10
0.0
 20
1.0
 30
0.0
  9
$PUCSORTHOREF
  2

  9
$PUCSORTHOVIEW
 70
     0
  9
$PUCSORGTOP
 10
0.0
 20
0.0
 30
0.0
  9
$PUCSORGBOTTOM
 10
0.0
 20
0.0
 30
0.0
  9
$PUCSORGLEFT
 10
0.0
 20
0.0
 30
0.0
  9
$PUCSORGRIGHT
 10
0.0
 20
0.0
 30
0.0
  9
$PUCSORGFRONT
 10
0.0
 20
0.0
 30
0.0
  9
$PUCSORGBACK
 10
0.0
 20
0.0
 30
0.0
  9
$USERI1
 70
     3
  9
$USERI2
 70
     0
  9
$USERI3
 70
     0
  9
$USERI4
 70
     0
  9
$USERI5
 70
  1103
  9
$USERR1
 40
0.0
  9
$USERR2
 40
1.0
  9
$USERR3
 40
0.0
  9
$USERR4
 40
0.0
  9
$USERR5
 40
0.0
  9
$WORLDVIEW
 70
     1
  9
$SHADEDGE
 70
     3
  9
$SHADEDIF
 70
    70
  9
$TILEMODE
 70
     1
  9
$MAXACTVP
 70
    16
  9
$PINSBASE
 10
0.0
 20
0.0
 30
0.0
  9
$PLIMCHECK
 70
     0
  9
$PEXTMIN
 10
1.000000000000000E+20
 20
1.000000000000000E+20
 30
1.000000000000000E+20
  9
$PEXTMAX
 10
-1.000000000000000E+20
 20
-1.000000000000000E+20
 30
-1.000000000000000E+20
  9
$PLIMMIN
 10
0.0
 20
0.0
  9
$PLIMMAX
 10
12.0
 20
9.0
  9
$UNITMODE
 70
     0
  9
$VISRETAIN
 70
     0
  9
$PLINEGEN
 70
     1
  9
$PSLTSCALE
 70
     0
  9
$TREEDEPTH
 70
  3020
  9
$CMLSTYLE
  2
Standard
  9
$CMLJUST
 70
     0
  9
$CMLSCALE
 40
1.0
  9
$PROXYGRAPHICS
 70
     1
  9
$MEASUREMENT
 70
     0
  9
$CELWEIGHT
370
    -1
  9
$ENDCAPS
280
     0
  9
$JOINSTYLE
280
     0
  9
$LWDISPLAY
290
     0
  9
$INSUNITS
 70
     0
  9
$HYPERLINKBASE
  1

  9
$STYLESHEET
  1

  9
$XEDIT
290
     1
  9
$CEPSNTYPE
380
     0
  9
$PSTYLEMODE
290
     1
  9
$FINGERPRINTGUID
  2
{22614E7C-BDAE-484A-8805-4C4461E43E14}
  9
$VERSIONGUID
  2
{23EEFADC-23B2-4436-8FAA-4D84F17E3A45}
  9
$EXTNAMES
290
     1
  9
$PSVPSCALE
 40
0.0
  9
$OLESTARTUP
290
     0
  0
ENDSEC
  0
SECTION
  2
CLASSES
  0
CLASS
  1
ACDBDICTIONARYWDFLT
  2
AcDbDictionaryWithDefault
  3
AutoCAD 2000
 90
        0
280
     0
281
     0
  0
CLASS
  1
ACDBPLACEHOLDER
  2
AcDbPlaceHolder
  3
AutoCAD 2000
 90
        0
280
     0
281
     0
  0
CLASS
  1
LAYOUT
  2
AcDbLayout
  3
AutoCAD 2000
 90
        0
280
     0
281
     0
  0
CLASS
  1
DICTIONARYVAR
  2
AcDbDictionaryVar
  3
AutoCAD 2000
 90
        0
280
     0
281
     0
  0
ENDSEC
  0
SECTION
  2
TABLES
  0
TABLE
  2
VPORT
  5
17CC2
330
0
100
AcDbSymbolTable
 70
     2
  0
VPORT
  5
183B8
330
17CC2
100
AcDbSymbolTableRecord
100
AcDbViewportTableRecord
  2
*Active
 70
     0
 10
0.0
 20
0.0
 11
1.0
 21
1.0
 12
8408.331337953367
 22
5702.983730997637
 13
0.0
 23
0.0
 14
1.0
 24
1.0
 15
0.0
 25
0.0
 16
0.0
 26
0.0
 36
1.0
 17
0.0
 27
0.0
 37
0.0
 40
11163.50538397298
 41
1.527918781725888
 42
50.0
 43
0.0
 44
0.0
 50
0.0
 51
0.0
 71
     0
 72
 10000
 73
     1
 74
     0
 75
     0
 76
     0
 77
     0
 78
     0
281
     0
 65
     1
110
0.0
120
0.0
130
0.0
111
1.0
121
0.0
131
0.0
112
0.0
122
1.0
132
0.0
 79
     0
146
0.0
  0
ENDTAB
  0
TABLE
  2
LTYPE
  5
17CBF
330
0
100
AcDbSymbolTable
 70
     7
  0
LTYPE
  5
17CCD
330
17CBF
100
AcDbSymbolTableRecord
100
AcDbLinetypeTableRecord
  2
ByBlock
 70
     0
  3

 72
    65
 73
     0
 40
0.0
  0
LTYPE
  5
17CCE
330
17CBF
100
AcDbSymbolTableRecord
100
AcDbLinetypeTableRecord
  2
ByLayer
 70
     0
  3

 72
    65
 73
     0
 40
0.0
  0
LTYPE
  5
17CCF
330
17CBF
100
AcDbSymbolTableRecord
100
AcDbLinetypeTableRecord
  2
CONTINUOUS
 70
     0
  3
実線
 72
    65
 73
     0
 40
0.0
  0
LTYPE
  5
17CDF
330
17CBF
100
AcDbSymbolTableRecord
100
AcDbLinetypeTableRecord
  2
TENSEN-
 70
     0
  3

 72
    65
 73
     2
 40
0.6000000000000001
 49
0.2
 74
     0
 49
-0.4
 74
     0
  0
LTYPE
  5
17CE0
330
17CBF
100
AcDbSymbolTableRecord
100
AcDbLinetypeTableRecord
  2
1PL-LL
 70
     0
  3

 72
    65
 73
     4
 40
106.0
 49
100.0
 74
     0
 49
-2.0
 74
     0
 49
2.0
 74
     0
 49
-2.0
 74
     0
  0
LTYPE
  5
17CE1
330
17CBF
100
AcDbSymbolTableRecord
100
AcDbLinetypeTableRecord
  2
1PL-M
 70
     0
  3

 72
    65
 73
     4
 40
15.0
 49
12.0
 74
     0
 49
-1.0
 74
     0
 49
1.0
 74
     0
 49
-1.0
 74
     0
  0
LTYPE
  5
17CE2
330
17CBF
100
AcDbSymbolTableRecord
100
AcDbLinetypeTableRecord
  2
1PL-S
 70
     0
  3

 72
    65
 73
     4
 40
4.0
 49
2.5
 74
     0
 49
-0.5
 74
     0
 49
0.5
 74
     0
 49
-0.5
 74
     0
  0
LTYPE
  5
17CE3
330
17CBF
100
AcDbSymbolTableRecord
100
AcDbLinetypeTableRecord
  2
2PL-L
 70
     0
  3

 72
    65
 73
     6
 40
60.0
 49
50.0
 74
     0
 49
-2.0
 74
     0
 49
2.0
 74
     0
 49
-2.0
 74
     0
 49
2.0
 74
     0
 49
-2.0
 74
     0
  0
LTYPE
  5
17CE4
330
17CBF
100
AcDbSymbolTableRecord
100
AcDbLinetypeTableRecord
  2
1PL-12
 70
     0
  3

 72
    65
 73
     4
 40
15.0
 49
12.0
 74
     0
 49
-1.0
 74
     0
 49
1.0
 74
     0
 49
-1.0
 74
     0
  0
ENDTAB
  0
TABLE
  2
LAYER
  5
17CBC
330
0
100
AcDbSymbolTable
 70
    21
  0
LAYER
  5
17CCA
330
17CBC
100
AcDbSymbolTableRecord
100
AcDbLayerTableRecord
  2
0
 70
     0
 62
     7
  6
CONTINUOUS
370
    -3
390
17CC9
  0
LAYER
  5
17CDC
330
17CBC
100
AcDbSymbolTableRecord
100
AcDbLayerTableRecord
  2
SUNPOU
 70
     0
 62
     4
  6
CONTINUOUS
370
    -3
390
17CC9
  0
LAYER
  5
17CE5
330
17CBC
100
AcDbSymbolTableRecord
100
AcDbLayerTableRecord
  2
U1
 70
     0
 62
     3
  6
CONTINUOUS
370
    -3
390
17CC9
  0
LAYER
  5
17CE6
330
17CBC
100
AcDbSymbolTableRecord
100
AcDbLayerTableRecord
  2
U3
 70
     0
 62
     6
  6
CONTINUOUS
370
    -3
390
17CC9
  0
LAYER
  5
17CE7
330
17CBC
100
AcDbSymbolTableRecord
100
AcDbLayerTableRecord
  2
HIKIDASHI
 70
     0
 62
     6
  6
CONTINUOUS
370
    -3
390
17CC9
  0
LAYER
  5
17CE8
330
17CBC
100
AcDbSymbolTableRecord
100
AcDbLayerTableRecord
  2
TENSEN-1
 70
     0
 62
     6
  6
TENSEN-
370
    -3
390
17CC9
  0
LAYER
  5
17CE9
330
17CBC
100
AcDbSymbolTableRecord
100
AcDbLayerTableRecord
  2
1PL-S1
 70
     0
 62
     6
  6
1PL-S
370
    -3
390
17CC9
  0
LAYER
  5
17CEA
330
17CBC
100
AcDbSymbolTableRecord
100
AcDbLayerTableRecord
  2
1PL-M1
 70
     0
 62
     6
  6
1PL-M
370
    -3
390
17CC9
  0
LAYER
  5
17CEB
330
17CBC
100
AcDbSymbolTableRecord
100
AcDbLayerTableRecord
  2
NAME
 70
     0
 62
    20
  6
CONTINUOUS
370
    -3
390
17CC9
  0
LAYER
  5
17CEC
330
17CBC
100
AcDbSymbolTableRecord
100
AcDbLayerTableRecord
  2
FILENAME
 70
     0
 62
     7
  6
CONTINUOUS
370
    -3
390
17CC9
  0
LAYER
  5
17CED
330
17CBC
100
AcDbSymbolTableRecord
100
AcDbLayerTableRecord
  2
CENTER
 70
     0
 62
     6
  6
1PL-LL
370
    -3
390
17CC9
  0
LAYER
  5
17CEE
330
17CBC
100
AcDbSymbolTableRecord
100
AcDbLayerTableRecord
  2
KISO
 70
     0
 62
     2
  6
CONTINUOUS
370
    -3
390
17CC9
  0
LAYER
  5
17CEF
330
17CBC
100
AcDbSymbolTableRecord
100
AcDbLayerTableRecord
  2
BOLT
 70
     0
 62
     4
  6
CONTINUOUS
370
    -3
390
17CC9
  0
LAYER
  5
17CF0
330
17CBC
100
AcDbSymbolTableRecord
100
AcDbLayerTableRecord
  2
YANE
 70
     0
 62
     1
  6
1PL-12
370
    -3
390
17CC9
  0
LAYER
  5
17CF1
330
17CBC
100
AcDbSymbolTableRecord
100
AcDbLayerTableRecord
  2
HATCH
 70
     0
 62
     1
  6
CONTINUOUS
370
    -3
390
17CC9
  0
LAYER
  5
17CF2
330
17CBC
100
AcDbSymbolTableRecord
100
AcDbLayerTableRecord
  2
HASHIRA
 70
     0
 62
     3
  6
CONTINUOUS
370
    -3
390
17CC9
  0
LAYER
  5
17CF3
330
17CBC
100
AcDbSymbolTableRecord
100
AcDbLayerTableRecord
  2
DOMAKON
 70
     0
 62
     2
  6
CONTINUOUS
370
    -3
390
17CC9
  0
LAYER
  5
17CF4
330
17CBC
100
AcDbSymbolTableRecord
100
AcDbLayerTableRecord
  2
YODOROGO
 70
     0
 62
   130
  6
CONTINUOUS
370
    -3
390
17CC9
  0
LAYER
  5
17CF5
330
17CBC
100
AcDbSymbolTableRecord
100
AcDbLayerTableRecord
  2
WAKUSEN-01
 70
     0
 62
    50
  6
CONTINUOUS
370
    -3
390
17CC9
  0
LAYER
  5
17CF6
330
17CBC
100
AcDbSymbolTableRecord
100
AcDbLayerTableRecord
  2
WAKUSEN-02
 70
     0
 62
   130
  6
CONTINUOUS
370
    -3
390
17CC9
  0
LAYER
  5
17CF7
330
17CBC
100
AcDbSymbolTableRecord
100
AcDbLayerTableRecord
  2
WAKUMOJI-01
 70
     0
 62
   130
  6
CONTINUOUS
370
    -3
390
17CC9
  0
ENDTAB
  0
TABLE
  2
STYLE
  5
17CBD
330
0
100
AcDbSymbolTable
 70
     5
  0
STYLE
  5
17CCB
330
17CBD
100
AcDbSymbolTableRecord
100
AcDbTextStyleTableRecord
  2
STANDARD
 70
     0
 40
3.0
 41
1.0
 50
0.0
 71
     0
 42
0.2
  3
ROMANS
  4
EXTFONT
  0
STYLE
  5
17CDD
330
17CBD
100
AcDbSymbolTableRecord
100
AcDbTextStyleTableRecord
  2
00
 70
     0
 40
0.0
 41
0.6666666666666666
 50
0.0
 71
     0
 42
90.0
  3
ROMANS
  4
BIGFONT
  0
STYLE
  5
17CF8
330
17CBD
100
AcDbSymbolTableRecord
100
AcDbTextStyleTableRecord
  2
01
 70
     0
 40
3.0
 41
1.0
 50
0.0
 71
     0
 42
90.0
  3
ROMANS
  4
BIGFONT
  0
STYLE
  5
17CF9
330
17CBD
100
AcDbSymbolTableRecord
100
AcDbTextStyleTableRecord
  2
WAKUMOJI
 70
     0
 40
3.0
 41
1.0
 50
0.0
 71
     0
 42
3.0
  3
SIMPLEX
  4
BIGFONT
  0
STYLE
  5
17CFA
330
17CBD
100
AcDbSymbolTableRecord
100
AcDbTextStyleTableRecord
  2
FILENAME
 70
     0
 40
100.0
 41
1.0
 50
0.0
 71
     0
 42
100.0
  3
romans
  4
bigfont
  0
ENDTAB
  0
TABLE
  2
VIEW
  5
17CC0
330
0
100
AcDbSymbolTable
 70
     0
  0
ENDTAB
  0
TABLE
  2
UCS
  5
17CC1
330
0
100
AcDbSymbolTable
 70
     0
  0
ENDTAB
  0
TABLE
  2
APPID
  5
17CC3
330
0
100
AcDbSymbolTable
 70
     3
  0
APPID
  5
17CCC
330
17CC3
100
AcDbSymbolTableRecord
100
AcDbRegAppTableRecord
  2
ACAD
 70
     0
  0
APPID
  5
17CFB
330
17CC3
100
AcDbSymbolTableRecord
100
AcDbRegAppTableRecord
  2
AUTOCAD_POSTSCRIPT_FIGURE
 70
     0
  0
APPID
  5
17CFC
330
17CC3
100
AcDbSymbolTableRecord
100
AcDbRegAppTableRecord
  2
ACAD_PSEXT
 70
     0
  0
ENDTAB
  0
TABLE
  2
DIMSTYLE
  5
17CC4
330
0
100
AcDbSymbolTable
 70
     1
100
AcDbDimStyleTable
 71
     0
  0
DIMSTYLE
105
17CFD
330
17CC4
100
AcDbSymbolTableRecord
100
AcDbDimStyleTableRecord
  2
SUNPOU_図面名
 70
     0
 40
30.0
 41
0.5
 42
1.0
 43
7.0
 44
1.5
 46
3.0
 73
     0
 74
     0
 77
     1
 78
     8
140
3.0
141
0.0
147
1.5
172
     1
173
     1
176
   256
177
   256
178
   256
271
     2
272
     2
279
     2
284
     8
285
     8
286
     8
340
17CDD
  0
ENDTAB
  0
TABLE
  2
BLOCK_RECORD
  5
17CBB
330
0
100
AcDbSymbolTable
 70
    43
  0
BLOCK_RECORD
  5
17CD8
330
17CBB
100
AcDbSymbolTableRecord
100
AcDbBlockTableRecord
  2
*Model_Space
340
17CDB
  0
BLOCK_RECORD
  5
17CD4
330
17CBB
100
AcDbSymbolTableRecord
100
AcDbBlockTableRecord
  2
*Paper_Space
340
17CD7
  0
BLOCK_RECORD
  5
17D02
330
17CBB
100
AcDbSymbolTableRecord
100
AcDbBlockTableRecord
  2
$MODEL_SPACE
340
0
  0
BLOCK_RECORD
  5
17D05
330
17CBB
100
AcDbSymbolTableRecord
100
AcDbBlockTableRecord
  2
$PAPER_SPACE
340
0
  0
BLOCK_RECORD
  5
17D08
330
17CBB
100
AcDbSymbolTableRecord
100
AcDbBlockTableRecord
  2
DOT
340
0
  0
BLOCK_RECORD
  5
17D10
330
17CBB
100
AcDbSymbolTableRecord
100
AcDbBlockTableRecord
  2
*U3
340
0
  0
BLOCK_RECORD
  5
17D14
330
17CBB
100
AcDbSymbolTableRecord
100
AcDbBlockTableRecord
  2
*U4
340
0
  0
BLOCK_RECORD
  5
17D18
330
17CBB
100
AcDbSymbolTableRecord
100
AcDbBlockTableRecord
  2
*U5
340
0
  0
BLOCK_RECORD
  5
17D1C
330
17CBB
100
AcDbSymbolTableRecord
100
AcDbBlockTableRecord
  2
*U6
340
0
  0
BLOCK_RECORD
  5
17D20
330
17CBB
100
AcDbSymbolTableRecord
100
AcDbBlockTableRecord
  2
*U7
340
0
  0
BLOCK_RECORD
  5
17D24
330
17CBB
100
AcDbSymbolTableRecord
100
AcDbBlockTableRecord
  2
*U8
340
0
  0
BLOCK_RECORD
  5
17D28
330
17CBB
100
AcDbSymbolTableRecord
100
AcDbBlockTableRecord
  2
*U9
340
0
  0
BLOCK_RECORD
  5
17D2C
330
17CBB
100
AcDbSymbolTableRecord
100
AcDbBlockTableRecord
  2
*U10
340
0
  0
BLOCK_RECORD
  5
17D30
330
17CBB
100
AcDbSymbolTableRecord
100
AcDbBlockTableRecord
  2
*U11
340
0
  0
BLOCK_RECORD
  5
17D34
330
17CBB
100
AcDbSymbolTableRecord
100
AcDbBlockTableRecord
  2
*U12
340
0
  0
BLOCK_RECORD
  5
17D38
330
17CBB
100
AcDbSymbolTableRecord
100
AcDbBlockTableRecord
  2
*U13
340
0
  0
BLOCK_RECORD
  5
17D3C
330
17CBB
100
AcDbSymbolTableRecord
100
AcDbBlockTableRecord
  2
*U14
340
0
  0
BLOCK_RECORD
  5
17D40
330
17CBB
100
AcDbSymbolTableRecord
100
AcDbBlockTableRecord
  2
*U15
340
0
  0
BLOCK_RECORD
  5
17D44
330
17CBB
100
AcDbSymbolTableRecord
100
AcDbBlockTableRecord
  2
*U16
340
0
  0
BLOCK_RECORD
  5
17D48
330
17CBB
100
AcDbSymbolTableRecord
100
AcDbBlockTableRecord
  2
*U17
340
0
  0
BLOCK_RECORD
  5
17D4C
330
17CBB
100
AcDbSymbolTableRecord
100
AcDbBlockTableRecord
  2
*U18
340
0
  0
BLOCK_RECORD
  5
17D50
330
17CBB
100
AcDbSymbolTableRecord
100
AcDbBlockTableRecord
  2
*U19
340
0
  0
BLOCK_RECORD
  5
17D54
330
17CBB
100
AcDbSymbolTableRecord
100
AcDbBlockTableRecord
  2
*U20
340
0
  0
BLOCK_RECORD
  5
17D58
330
17CBB
100
AcDbSymbolTableRecord
100
AcDbBlockTableRecord
  2
*U21
340
0
  0
BLOCK_RECORD
  5
17D5C
330
17CBB
100
AcDbSymbolTableRecord
100
AcDbBlockTableRecord
  2
*U22
340
0
  0
BLOCK_RECORD
  5
17D60
330
17CBB
100
AcDbSymbolTableRecord
100
AcDbBlockTableRecord
  2
*U23
340
0
  0
BLOCK_RECORD
  5
17D64
330
17CBB
100
AcDbSymbolTableRecord
100
AcDbBlockTableRecord
  2
*U24
340
0
  0
BLOCK_RECORD
  5
17D68
330
17CBB
100
AcDbSymbolTableRecord
100
AcDbBlockTableRecord
  2
*U25
340
0
  0
BLOCK_RECORD
  5
17D6C
330
17CBB
100
AcDbSymbolTableRecord
100
AcDbBlockTableRecord
  2
*U26
340
0
  0
BLOCK_RECORD
  5
17D70
330
17CBB
100
AcDbSymbolTableRecord
100
AcDbBlockTableRecord
  2
*U27
340
0
  0
BLOCK_RECORD
  5
17D74
330
17CBB
100
AcDbSymbolTableRecord
100
AcDbBlockTableRecord
  2
*U28
340
0
  0
BLOCK_RECORD
  5
17D78
330
17CBB
100
AcDbSymbolTableRecord
100
AcDbBlockTableRecord
  2
*U29
340
0
  0
BLOCK_RECORD
  5
17D7C
330
17CBB
100
AcDbSymbolTableRecord
100
AcDbBlockTableRecord
  2
*U30
340
0
  0
BLOCK_RECORD
  5
17D80
330
17CBB
100
AcDbSymbolTableRecord
100
AcDbBlockTableRecord
  2
*U31
340
0
  0
BLOCK_RECORD
  5
17D84
330
17CBB
100
AcDbSymbolTableRecord
100
AcDbBlockTableRecord
  2
*U32
340
0
  0
BLOCK_RECORD
  5
17D88
330
17CBB
100
AcDbSymbolTableRecord
100
AcDbBlockTableRecord
  2
*U33
340
0
  0
BLOCK_RECORD
  5
17D8C
330
17CBB
100
AcDbSymbolTableRecord
100
AcDbBlockTableRecord
  2
*U34
340
0
  0
BLOCK_RECORD
  5
17D90
330
17CBB
100
AcDbSymbolTableRecord
100
AcDbBlockTableRecord
  2
*U35
340
0
  0
BLOCK_RECORD
  5
17D94
330
17CBB
100
AcDbSymbolTableRecord
100
AcDbBlockTableRecord
  2
*U36
340
0
  0
BLOCK_RECORD
  5
17D98
330
17CBB
100
AcDbSymbolTableRecord
100
AcDbBlockTableRecord
  2
*U37
340
0
  0
BLOCK_RECORD
  5
17D9C
330
17CBB
100
AcDbSymbolTableRecord
100
AcDbBlockTableRecord
  2
*U38
340
0
  0
BLOCK_RECORD
  5
17DA0
330
17CBB
100
AcDbSymbolTableRecord
100
AcDbBlockTableRecord
  2
*U39
340
0
  0
BLOCK_RECORD
  5
17DA4
330
17CBB
100
AcDbSymbolTableRecord
100
AcDbBlockTableRecord
  2
*U40
340
0
  0
BLOCK_RECORD
  5
17DA8
330
17CBB
100
AcDbSymbolTableRecord
100
AcDbBlockTableRecord
  2
*U41
340
0
  0
ENDTAB
  0
ENDSEC
  0
SECTION
  2
BLOCKS
  0
BLOCK
  5
17CD9
330
17CD8
100
AcDbEntity
  8
0
100
AcDbBlockBegin
  2
*Model_Space
 70
     0
 10
0.0
 20
0.0
 30
0.0
  3
*Model_Space
  1

  0
ENDBLK
  5
17CDA
330
17CD8
100
AcDbEntity
  8
0
100
AcDbBlockEnd
  0
BLOCK
  5
17CD5
330
17CD4
100
AcDbEntity
 67
     1
  8
0
100
AcDbBlockBegin
  2
*Paper_Space
 70
     0
 10
0.0
 20
0.0
 30
0.0
  3
*Paper_Space
  1

  0
ENDBLK
  5
17CD6
330
17CD4
100
AcDbEntity
 67
     1
  8
0
100
AcDbBlockEnd
  0
BLOCK
  5
17D03
330
17D02
100
AcDbEntity
  8
0
100
AcDbBlockBegin
  2
$MODEL_SPACE
 70
     0
 10
0.0
 20
0.0
 30
0.0
  3
$MODEL_SPACE
  1

  0
ENDBLK
  5
17D04
330
17D02
100
AcDbEntity
  8
0
100
AcDbBlockEnd
  0
BLOCK
  5
17D06
330
17D05
100
AcDbEntity
  8
0
100
AcDbBlockBegin
  2
$PAPER_SPACE
 70
     0
 10
0.0
 20
0.0
 30
0.0
  3
$PAPER_SPACE
  1

  0
ENDBLK
  5
17D07
330
17D05
100
AcDbEntity
  8
0
100
AcDbBlockEnd
  0
BLOCK
  5
17D09
330
17D08
100
AcDbEntity
  8
0
100
AcDbBlockBegin
  2
DOT
 70
     0
 10
0.0
 20
0.0
 30
0.0
  3
DOT
  1

  0
LWPOLYLINE
  5
17D0A
330
17D08
100
AcDbEntity
  8
0
  6
ByBlock
 62
     0
100
AcDbPolyline
 90
        2
 70
     1
 43
0.75
 10
-0.375
 20
0.0
 42
1.0
 10
0.375
 20
0.0
 42
1.0
  0
LINE
  5
17D0E
330
17D08
100
AcDbEntity
  8
0
  6
ByBlock
 62
     0
100
AcDbLine
 10
-0.75
 20
0.0
 30
0.0
 11
-1.5
 21
0.0
 31
0.0
  0
ENDBLK
  5
17D0F
330
17D08
100
AcDbEntity
  8
0
100
AcDbBlockEnd
  0
BLOCK
  5
17D11
330
17D10
100
AcDbEntity
  8
0
100
AcDbBlockBegin
  2
*U3
 70
     1
 10
0.0
 20
0.0
 30
0.0
  3
*U3
  1

  0
TEXT
  5
17D12
330
17D10
100
AcDbEntity
  8
SUNPOU
100
AcDbText
 10
4394.082765553178
 20
4175.485411556191
 30
0.0
 40
90.0
  1
400
 41
0.6666666666666666
  7
00
100
AcDbText
  0
ENDBLK
  5
17D13
330
17D10
100
AcDbEntity
  8
0
100
AcDbBlockEnd
  0
BLOCK
  5
17D15
330
17D14
100
AcDbEntity
  8
0
100
AcDbBlockBegin
  2
*U4
 70
     1
 10
0.0
 20
0.0
 30
0.0
  3
*U4
  1

  0
TEXT
  5
17D16
330
17D14
100
AcDbEntity
  8
SUNPOU
100
AcDbText
 10
3835.443655266704
 20
2865.370553705314
 30
0.0
 40
90.0
  1
300
 50
90.0
 41
0.6666666666666666
  7
00
100
AcDbText
  0
ENDBLK
  5
17D17
330
17D14
100
AcDbEntity
  8
0
100
AcDbBlockEnd
  0
BLOCK
  5
17D19
330
17D18
100
AcDbEntity
  8
0
100
AcDbBlockBegin
  2
*U5
 70
     1
 10
0.0
 20
0.0
 30
0.0
  3
*U5
  1

  0
TEXT
  5
17D1A
330
17D18
100
AcDbEntity
  8
SUNPOU
100
AcDbText
 10
3835.443655266704
 20
3508.113410848177
 30
0.0
 40
90.0
  1
80
 50
90.0
 41
0.6666666666666666
  7
00
100
AcDbText
  0
ENDBLK
  5
17D1B
330
17D18
100
AcDbEntity
  8
0
100
AcDbBlockEnd
  0
BLOCK
  5
17D1D
330
17D1C
100
AcDbEntity
  8
0
100
AcDbBlockBegin
  2
*U6
 70
     1
 10
0.0
 20
0.0
 30
0.0
  3
*U6
  1

  0
TEXT
  5
17D1E
330
17D1C
100
AcDbEntity
  8
SUNPOU
100
AcDbText
 10
3835.443655266704
 20
3197.941982276741
 30
0.0
 40
90.0
  1
80
 50
90.0
 41
0.6666666666666666
  7
00
100
AcDbText
  0
ENDBLK
  5
17D1F
330
17D1C
100
AcDbEntity
  8
0
100
AcDbBlockEnd
  0
BLOCK
  5
17D21
330
17D20
100
AcDbEntity
  8
0
100
AcDbBlockBegin
  2
*U7
 70
     1
 10
0.0
 20
0.0
 30
0.0
  3
*U7
  1

  0
TEXT
  5
17D22
330
17D20
100
AcDbEntity
  8
SUNPOU
100
AcDbText
 10
3415.443655266705
 20
3523.113410848177
 30
0.0
 40
90.0
  1
50
 50
90.0
 41
0.6666666666666666
  7
00
100
AcDbText
  0
ENDBLK
  5
17D23
330
17D20
100
AcDbEntity
  8
0
100
AcDbBlockEnd
  0
BLOCK
  5
17D25
330
17D24
100
AcDbEntity
  8
0
100
AcDbBlockBegin
  2
*U8
 70
     1
 10
0.0
 20
0.0
 30
0.0
  3
*U8
  1

  0
TEXT
  5
17D26
330
17D24
100
AcDbEntity
  8
SUNPOU
100
AcDbText
 10
4681.225622696032
 20
1983.6848394196
 30
0.0
 40
90.0
  1
1000
 41
0.6666666666666666
  7
00
100
AcDbText
  0
ENDBLK
  5
17D27
330
17D24
100
AcDbEntity
  8
0
100
AcDbBlockEnd
  0
BLOCK
  5
17D29
330
17D28
100
AcDbEntity
  8
0
100
AcDbBlockBegin
  2
*U9
 70
     1
 10
0.0
 20
0.0
 30
0.0
  3
*U9
  1

  0
TEXT
  5
17D2A
330
17D28
100
AcDbEntity
  8
SUNPOU
100
AcDbText
 10
4714.082765553178
 20
2193.684839419601
 30
0.0
 40
90.0
  1
800
 41
0.6666666666666666
  7
00
100
AcDbText
  0
ENDBLK
  5
17D2B
330
17D28
100
AcDbEntity
  8
0
100
AcDbBlockEnd
  0
BLOCK
  5
17D2D
330
17D2C
100
AcDbEntity
  8
0
100
AcDbBlockBegin
  2
*U10
 70
     1
 10
0.0
 20
0.0
 30
0.0
  3
*U10
  1

  0
TEXT
  5
17D2E
330
17D2C
100
AcDbEntity
  8
SUNPOU
100
AcDbText
 10
8334.408966076827
 20
4175.485411556194
 30
0.0
 40
90.0
  1
200
 41
0.6666666666666666
  7
00
100
AcDbText
  0
ENDBLK
  5
17D2F
330
17D2C
100
AcDbEntity
  8
0
100
AcDbBlockEnd
  0
BLOCK
  5
17D31
330
17D30
100
AcDbEntity
  8
0
100
AcDbBlockBegin
  2
*U11
 70
     1
 10
0.0
 20
0.0
 30
0.0
  3
*U11
  1

  0
TEXT
  5
17D32
330
17D30
100
AcDbEntity
  8
SUNPOU
100
AcDbText
 10
7195.769855790351
 20
3523.113410848177
 30
0.0
 40
90.0
  1
50
 50
90.0
 41
0.6666666666666666
  7
00
100
AcDbText
  0
ENDBLK
  5
17D33
330
17D30
100
AcDbEntity
  8
0
100
AcDbBlockEnd
  0
BLOCK
  5
17D35
330
17D34
100
AcDbEntity
  8
0
100
AcDbBlockBegin
  2
*U12
 70
     1
 10
0.0
 20
0.0
 30
0.0
  3
*U12
  1

  0
TEXT
  5
17D36
330
17D34
100
AcDbEntity
  8
SUNPOU
100
AcDbText
 10
8461.551823219677
 20
1983.684839419604
 30
0.0
 40
90.0
  1
1000
 41
0.6666666666666666
  7
00
100
AcDbText
  0
ENDBLK
  5
17D37
330
17D34
100
AcDbEntity
  8
0
100
AcDbBlockEnd
  0
BLOCK
  5
17D39
330
17D38
100
AcDbEntity
  8
0
100
AcDbBlockBegin
  2
*U13
 70
     1
 10
0.0
 20
0.0
 30
0.0
  3
*U13
  1

  0
TEXT
  5
17D3A
330
17D38
100
AcDbEntity
  8
SUNPOU
100
AcDbText
 10
8494.408966076823
 20
2193.684839419605
 30
0.0
 40
90.0
  1
800
 41
0.6666666666666666
  7
00
100
AcDbText
  0
ENDBLK
  5
17D3B
330
17D38
100
AcDbEntity
  8
0
100
AcDbBlockEnd
  0
BLOCK
  5
17D3D
330
17D3C
100
AcDbEntity
  8
0
100
AcDbBlockBegin
  2
*U14
 70
     1
 10
0.0
 20
0.0
 30
0.0
  3
*U14
  1

  0
TEXT
  5
17D3E
330
17D3C
100
AcDbEntity
  8
SUNPOU
100
AcDbText
 10
11451.33837406208
 20
3229.170862655058
 30
0.0
 40
90.0
  1
160
 41
0.6666666666666666
  7
00
100
AcDbText
  0
ENDBLK
  5
17D3F
330
17D3C
100
AcDbEntity
  8
0
100
AcDbBlockEnd
  0
BLOCK
  5
17D41
330
17D40
100
AcDbEntity
  8
0
100
AcDbBlockBegin
  2
*U15
 70
     1
 10
0.0
 20
0.0
 30
0.0
  3
*U15
  1

  0
TEXT
  5
17D42
330
17D40
100
AcDbEntity
  8
SUNPOU
100
AcDbText
 10
11040.6240883478
 20
3439.170862655058
 30
0.0
 40
90.0
  1
20
 41
0.6666666666666666
  7
00
100
AcDbText
  0
ENDBLK
  5
17D43
330
17D40
100
AcDbEntity
  8
0
100
AcDbBlockEnd
  0
BLOCK
  5
17D45
330
17D44
100
AcDbEntity
  8
0
100
AcDbBlockBegin
  2
*U16
 70
     1
 10
0.0
 20
0.0
 30
0.0
  3
*U16
  1

  0
TEXT
  5
17D46
330
17D44
100
AcDbEntity
  8
SUNPOU
100
AcDbText
 10
11451.33837406209
 20
3439.170862655058
 30
0.0
 40
90.0
  1
120
 41
0.6666666666666666
  7
00
100
AcDbText
  0
ENDBLK
  5
17D47
330
17D44
100
AcDbEntity
  8
0
100
AcDbBlockEnd
  0
BLOCK
  5
17D49
330
17D48
100
AcDbEntity
  8
0
100
AcDbBlockBegin
  2
*U17
 70
     1
 10
0.0
 20
0.0
 30
0.0
  3
*U17
  1

  0
TEXT
  5
17D4A
330
17D48
100
AcDbEntity
  8
SUNPOU
100
AcDbText
 10
11927.76694549065
 20
3439.170862655058
 30
0.0
 40
90.0
  1
20
 41
0.6666666666666666
  7
00
100
AcDbText
  0
ENDBLK
  5
17D4B
330
17D48
100
AcDbEntity
  8
0
100
AcDbBlockEnd
  0
BLOCK
  5
17D4D
330
17D4C
100
AcDbEntity
  8
0
100
AcDbBlockBegin
  2
*U18
 70
     1
 10
0.0
 20
0.0
 30
0.0
  3
*U18
  1

  0
TEXT
  5
17D4E
330
17D4C
100
AcDbEntity
  8
SUNPOU
100
AcDbText
 10
10663.33837406209
 20
2643.001486910295
 30
0.0
 40
90.0
  1
80
 50
90.0
 41
0.6666666666666666
  7
00
100
AcDbText
  0
ENDBLK
  5
17D4F
330
17D4C
100
AcDbEntity
  8
0
100
AcDbBlockEnd
  0
BLOCK
  5
17D51
330
17D50
100
AcDbEntity
  8
0
100
AcDbBlockBegin
  2
*U19
 70
     1
 10
0.0
 20
0.0
 30
0.0
  3
*U19
  1

  0
TEXT
  5
17D52
330
17D50
100
AcDbEntity
  8
SUNPOU
100
AcDbText
 10
10873.33837406209
 20
2911.572915481723
 30
0.0
 40
90.0
  1
40
 50
90.0
 41
0.6666666666666666
  7
00
100
AcDbText
  0
ENDBLK
  5
17D53
330
17D50
100
AcDbEntity
  8
0
100
AcDbBlockEnd
  0
BLOCK
  5
17D55
330
17D54
100
AcDbEntity
  8
0
100
AcDbBlockBegin
  2
*U20
 70
     1
 10
0.0
 20
0.0
 30
0.0
  3
*U20
  1

  0
TEXT
  5
17D56
330
17D54
100
AcDbEntity
  8
SUNPOU
100
AcDbText
 10
10873.33837406209
 20
2374.430058338865
 30
0.0
 40
90.0
  1
40
 50
90.0
 41
0.6666666666666666
  7
00
100
AcDbText
  0
ENDBLK
  5
17D57
330
17D54
100
AcDbEntity
  8
0
100
AcDbBlockEnd
  0
BLOCK
  5
17D59
330
17D58
100
AcDbEntity
  8
0
100
AcDbBlockBegin
  2
*U21
 70
     1
 10
0.0
 20
0.0
 30
0.0
  3
*U21
  1

  0
TEXT
  5
17D5A
330
17D58
100
AcDbEntity
  8
SUNPOU
100
AcDbText
 10
11451.33837406208
 20
2080.804976716085
 30
0.0
 40
90.0
  1
160
 41
0.6666666666666666
  7
00
100
AcDbText
  0
ENDBLK
  5
17D5B
330
17D58
100
AcDbEntity
  8
0
100
AcDbBlockEnd
  0
BLOCK
  5
17D5D
330
17D5C
100
AcDbEntity
  8
0
100
AcDbBlockBegin
  2
*U22
 70
     1
 10
0.0
 20
0.0
 30
0.0
  3
*U22
  1

  0
TEXT
  5
17D5E
330
17D5C
100
AcDbEntity
  8
SUNPOU
100
AcDbText
 10
11040.6240883478
 20
2290.804976716086
 30
0.0
 40
90.0
  1
20
 41
0.6666666666666666
  7
00
100
AcDbText
  0
ENDBLK
  5
17D5F
330
17D5C
100
AcDbEntity
  8
0
100
AcDbBlockEnd
  0
BLOCK
  5
17D61
330
17D60
100
AcDbEntity
  8
0
100
AcDbBlockBegin
  2
*U23
 70
     1
 10
0.0
 20
0.0
 30
0.0
  3
*U23
  1

  0
TEXT
  5
17D62
330
17D60
100
AcDbEntity
  8
SUNPOU
100
AcDbText
 10
11451.33837406209
 20
2290.804976716086
 30
0.0
 40
90.0
  1
120
 41
0.6666666666666666
  7
00
100
AcDbText
  0
ENDBLK
  5
17D63
330
17D60
100
AcDbEntity
  8
0
100
AcDbBlockEnd
  0
BLOCK
  5
17D65
330
17D64
100
AcDbEntity
  8
0
100
AcDbBlockBegin
  2
*U24
 70
     1
 10
0.0
 20
0.0
 30
0.0
  3
*U24
  1

  0
TEXT
  5
17D66
330
17D64
100
AcDbEntity
  8
SUNPOU
100
AcDbText
 10
11927.76694549065
 20
2290.804976716086
 30
0.0
 40
90.0
  1
20
 41
0.6666666666666666
  7
00
100
AcDbText
  0
ENDBLK
  5
17D67
330
17D64
100
AcDbEntity
  8
0
100
AcDbBlockEnd
  0
BLOCK
  5
17D69
330
17D68
100
AcDbEntity
  8
0
100
AcDbBlockBegin
  2
*U25
 70
     1
 10
0.0
 20
0.0
 30
0.0
  3
*U25
  1

  0
TEXT
  5
17D6A
330
17D68
100
AcDbEntity
  8
SUNPOU
100
AcDbText
 10
7615.76985579035
 20
2865.370553705315
 30
0.0
 40
90.0
  1
300
 50
90.0
 41
0.6666666666666666
  7
00
100
AcDbText
  0
ENDBLK
  5
17D6B
330
17D68
100
AcDbEntity
  8
0
100
AcDbBlockEnd
  0
BLOCK
  5
17D6D
330
17D6C
100
AcDbEntity
  8
0
100
AcDbBlockBegin
  2
*U26
 70
     1
 10
0.0
 20
0.0
 30
0.0
  3
*U26
  1

  0
TEXT
  5
17D6E
330
17D6C
100
AcDbEntity
  8
SUNPOU
100
AcDbText
 10
7615.76985579035
 20
3508.113410848177
 30
0.0
 40
90.0
  1
80
 50
90.0
 41
0.6666666666666666
  7
00
100
AcDbText
  0
ENDBLK
  5
17D6F
330
17D6C
100
AcDbEntity
  8
0
100
AcDbBlockEnd
  0
BLOCK
  5
17D71
330
17D70
100
AcDbEntity
  8
0
100
AcDbBlockBegin
  2
*U27
 70
     1
 10
0.0
 20
0.0
 30
0.0
  3
*U27
  1

  0
TEXT
  5
17D72
330
17D70
100
AcDbEntity
  8
SUNPOU
100
AcDbText
 10
7615.76985579035
 20
3197.941982276743
 30
0.0
 40
90.0
  1
80
 50
90.0
 41
0.6666666666666666
  7
00
100
AcDbText
  0
ENDBLK
  5
17D73
330
17D70
100
AcDbEntity
  8
0
100
AcDbBlockEnd
  0
BLOCK
  5
17D75
330
17D74
100
AcDbEntity
  8
0
100
AcDbBlockBegin
  2
*U28
 70
     1
 10
0.0
 20
0.0
 30
0.0
  3
*U28
  1

  0
TEXT
  5
17D76
330
17D74
100
AcDbEntity
  8
SUNPOU
100
AcDbText
 10
12228.40680314954
 20
3437.622750870277
 30
0.0
 40
90.0
  1
27
 50
90.0
 41
0.6666666666666666
  7
00
100
AcDbText
  0
ENDBLK
  5
17D77
330
17D74
100
AcDbEntity
  8
0
100
AcDbBlockEnd
  0
BLOCK
  5
17D79
330
17D78
100
AcDbEntity
  8
0
100
AcDbBlockBegin
  2
*U29
 70
     1
 10
0.0
 20
0.0
 30
0.0
  3
*U29
  1

  0
TEXT
  5
17D7A
330
17D78
100
AcDbEntity
  8
SUNPOU
100
AcDbText
 10
12228.40680314954
 20
3937.765608013134
 30
0.0
 40
90.0
  1
40
 50
90.0
 41
0.6666666666666666
  7
00
100
AcDbText
  0
ENDBLK
  5
17D7B
330
17D78
100
AcDbEntity
  8
0
100
AcDbBlockEnd
  0
BLOCK
  5
17D7D
330
17D7C
100
AcDbEntity
  8
0
100
AcDbBlockBegin
  2
*U30
 70
     1
 10
0.0
 20
0.0
 30
0.0
  3
*U30
  1

  0
TEXT
  5
17D7E
330
17D7C
100
AcDbEntity
  8
SUNPOU
100
AcDbText
 10
9733.413222185355
 20
8053.243182432323
 30
0.0
 40
90.0
  1
800
 41
0.6666666666666666
  7
00
100
AcDbText
  0
ENDBLK
  5
17D7F
330
17D7C
100
AcDbEntity
  8
0
100
AcDbBlockEnd
  0
BLOCK
  5
17D81
330
17D80
100
AcDbEntity
  8
0
100
AcDbBlockBegin
  2
*U31
 70
     1
 10
0.0
 20
0.0
 30
0.0
  3
*U31
  1

  0
TEXT
  5
17D82
330
17D80
100
AcDbEntity
  8
SUNPOU
100
AcDbText
 10
9074.127507899637
 20
8622.528896718041
 30
0.0
 40
90.0
  1
800
 50
90.0
 41
0.6666666666666666
  7
00
100
AcDbText
  0
ENDBLK
  5
17D83
330
17D80
100
AcDbEntity
  8
0
100
AcDbBlockEnd
  0
BLOCK
  5
17D85
330
17D84
100
AcDbEntity
  8
0
100
AcDbBlockBegin
  2
*U32
 70
     1
 10
0.0
 20
0.0
 30
0.0
  3
*U32
  1

  0
TEXT
  5
17D86
330
17D84
100
AcDbEntity
  8
SUNPOU
100
AcDbText
 10
9933.413222185357
 20
9453.243182432325
 30
0.0
 40
90.0
  1
400
 41
0.6666666666666666
  7
00
100
AcDbText
  0
ENDBLK
  5
17D87
330
17D84
100
AcDbEntity
  8
0
100
AcDbBlockEnd
  0
BLOCK
  5
17D89
330
17D88
100
AcDbEntity
  8
0
100
AcDbBlockBegin
  2
*U33
 70
     1
 10
0.0
 20
0.0
 30
0.0
  3
*U33
  1

  0
TEXT
  5
17D8A
330
17D88
100
AcDbEntity
  8
SUNPOU
100
AcDbText
 10
6733.413222185355
 20
9453.243182432325
 30
0.0
 40
90.0
  1
400
 41
0.6666666666666666
  7
00
100
AcDbText
  0
ENDBLK
  5
17D8B
330
17D88
100
AcDbEntity
  8
0
100
AcDbBlockEnd
  0
BLOCK
  5
17D8D
330
17D8C
100
AcDbEntity
  8
0
100
AcDbBlockBegin
  2
*U34
 70
     1
 10
0.0
 20
0.0
 30
0.0
  3
*U34
  1

  0
TEXT
  5
17D8E
330
17D8C
100
AcDbEntity
  8
SUNPOU
100
AcDbText
 10
8304.841793613924
 20
9453.243182432325
 30
0.0
 40
90.0
  1
2800
 41
0.6666666666666666
  7
00
100
AcDbText
  0
ENDBLK
  5
17D8F
330
17D8C
100
AcDbEntity
  8
0
100
AcDbBlockEnd
  0
BLOCK
  5
17D91
330
17D90
100
AcDbEntity
  8
0
100
AcDbBlockBegin
  2
*U35
 70
     1
 10
0.0
 20
0.0
 30
0.0
  3
*U35
  1

  0
TEXT
  5
17D92
330
17D90
100
AcDbEntity
  8
SUNPOU
100
AcDbText
 10
8304.841793613924
 20
9663.243182432324
 30
0.0
 40
90.0
  1
3600
 41
0.6666666666666666
  7
00
100
AcDbText
  0
ENDBLK
  5
17D93
330
17D90
100
AcDbEntity
  8
0
100
AcDbBlockEnd
  0
BLOCK
  5
17D95
330
17D94
100
AcDbEntity
  8
0
100
AcDbBlockBegin
  2
*U36
 70
     1
 10
0.0
 20
0.0
 30
0.0
  3
*U36
  1

  0
TEXT
  5
17D96
330
17D94
100
AcDbEntity
  8
SUNPOU
100
AcDbText
 10
10574.12750789963
 20
9159.671753860896
 30
0.0
 40
90.0
  1
200
 50
90.0
 41
0.6666666666666666
  7
00
100
AcDbText
  0
ENDBLK
  5
17D97
330
17D94
100
AcDbEntity
  8
0
100
AcDbBlockEnd
  0
BLOCK
  5
17D99
330
17D98
100
AcDbEntity
  8
0
100
AcDbBlockBegin
  2
*U37
 70
     1
 10
0.0
 20
0.0
 30
0.0
  3
*U37
  1

  0
TEXT
  5
17D9A
330
17D98
100
AcDbEntity
  8
SUNPOU
100
AcDbText
 10
10574.12750789963
 20
8485.386039575182
 30
0.0
 40
90.0
  1
200
 50
90.0
 41
0.6666666666666666
  7
00
100
AcDbText
  0
ENDBLK
  5
17D9B
330
17D98
100
AcDbEntity
  8
0
100
AcDbBlockEnd
  0
BLOCK
  5
17D9D
330
17D9C
100
AcDbEntity
  8
0
100
AcDbBlockBegin
  2
*U38
 70
     1
 10
0.0
 20
0.0
 30
0.0
  3
*U38
  1

  0
TEXT
  5
17D9E
330
17D9C
100
AcDbEntity
  8
SUNPOU
100
AcDbText
 10
7615.76985579035
 20
2328.227696562456
 30
0.0
 40
90.0
  1
100
 50
90.0
 41
0.6666666666666666
  7
00
100
AcDbText
  0
ENDBLK
  5
17D9F
330
17D9C
100
AcDbEntity
  8
0
100
AcDbBlockEnd
  0
BLOCK
  5
17DA1
330
17DA0
100
AcDbEntity
  8
0
100
AcDbBlockBegin
  2
*U39
 70
     1
 10
0.0
 20
0.0
 30
0.0
  3
*U39
  1

  0
TEXT
  5
17DA2
330
17DA0
100
AcDbEntity
  8
SUNPOU
100
AcDbText
 10
7400.498936476577
 20
2918.170553705316
 30
0.0
 40
90.0
  1
560
 50
90.0
 41
0.6666666666666666
  7
00
100
AcDbText
  0
ENDBLK
  5
17DA3
330
17DA0
100
AcDbEntity
  8
0
100
AcDbBlockEnd
  0
BLOCK
  5
17DA5
330
17DA4
100
AcDbEntity
  8
0
100
AcDbBlockBegin
  2
*U40
 70
     1
 10
0.0
 20
0.0
 30
0.0
  3
*U40
  1

  0
TEXT
  5
17DA6
330
17DA4
100
AcDbEntity
  8
SUNPOU
100
AcDbText
 10
3835.993474569397
 20
2326.927273218552
 30
0.0
 40
90.0
  1
100
 50
90.0
 41
0.6666666666666666
  7
00
100
AcDbText
  0
ENDBLK
  5
17DA7
330
17DA4
100
AcDbEntity
  8
0
100
AcDbBlockEnd
  0
BLOCK
  5
17DA9
330
17DA8
100
AcDbEntity
  8
0
100
AcDbBlockBegin
  2
*U41
 70
     1
 10
0.0
 20
0.0
 30
0.0
  3
*U41
  1

  0
TEXT
  5
17DAA
330
17DA8
100
AcDbEntity
  8
SUNPOU
100
AcDbText
 10
3619.240902195488
 20
2918.170553705319
 30
0.0
 40
90.0
  1
560
 50
90.0
 41
0.6666666666666666
  7
00
100
AcDbText
  0
ENDBLK
  5
17DAB
330
17DA8
100
AcDbEntity
  8
0
100
AcDbBlockEnd
  0
ENDSEC
  0
SECTION
  2
ENTITIES
  0
TEXT
  5
17DAC
330
17CD8
100
AcDbEntity
  8
HIKIDASHI
100
AcDbText
 10
9007.426279443023
 20
5992.059624263298
 30
0.0
 40
80.0
  1
)
 41
0.6700000000000001
  7
00
100
AcDbText
  0
TEXT
  5
17DAD
330
17CD8
100
AcDbEntity
  8
HIKIDASHI
100
AcDbText
 10
8806.567530753644
 20
6007.621102011493
 30
0.0
 40
80.0
  1
1
 41
0.6700000000000001
  7
00
100
AcDbText
  0
TEXT
  5
17DAE
330
17CD8
100
AcDbEntity
  8
HIKIDASHI
100
AcDbText
 10
8839.704668617951
 20
5992.059624263298
 30
0.0
 40
80.0
  1
/
 41
0.6700000000000001
  7
00
100
AcDbText
  0
TEXT
  5
17DAF
330
17CD8
100
AcDbEntity
  8
HIKIDASHI
100
AcDbText
 10
8885.999823380595
 20
5965.891793063018
 30
0.0
 40
80.0
  1
40
 41
0.6700000000000001
  7
00
100
AcDbText
  0
TEXT
  5
17DB0
330
17CD8
100
AcDbEntity
  8
HIKIDASHI
100
AcDbText
 10
8625.85961481597
 20
5992.059624263298
 30
0.0
 40
80.0
  1
(S=
 41
0.6700000000000001
  7
00
100
AcDbText
  0
TEXT
  5
17DB1
330
17CD8
100
AcDbEntity
  8
HIKIDASHI
100
AcDbText
 10
7783.859614815971
 20
5968.243182432328
 30
0.0
 40
120.0
  1
基 礎 伏 図
  7
01
 72
     2
 11
8535.85961481597
 21
5968.243182432328
 31
0.0
100
AcDbText
  0
TEXT
  5
17DB2
330
17CD8
100
AcDbEntity
  8
NAME
100
AcDbText
 10
12854.79999999999
 20
541.0000000000001
 30
0.0
 40
160.0
  1
<3／3>
 41
0.6
  7
01
 72
     2
 11
13354.0
 21
541.0000000000001
 31
0.0
100
AcDbText
  0
TEXT
  5
17DB3
330
17CD8
100
AcDbEntity
  8
NAME
100
AcDbText
 10
10896.04264730428
 20
541.0
 30
0.0
 40
160.0
  1
YOKC-280
 41
0.7
  7
01
 72
     2
 11
11776.04264730429
 21
541.0
 31
0.0
100
AcDbText
  0
TEXT
  5
17DB4
330
17CD8
100
AcDbEntity
  8
NAME
100
AcDbText
 10
11816.04264730429
 20
541.0
 30
0.0
 40
160.0
  1
型（一般地用）
 41
0.8
  7
01
100
AcDbText
  0
LINE
  5
17DB5
330
17CD8
100
AcDbEntity
  8
CENTER
  6
1PL-M
100
AcDbLine
 10
9167.877507899641
 20
8708.243182432324
 30
0.0
 11
10364.12750789964
 21
8708.243182432324
 31
0.0
  0
LINE
  5
17DB6
330
17CD8
100
AcDbEntity
  8
CENTER
  6
1PL-M
100
AcDbLine
 10
7019.127507899643
 20
6308.243182432326
 30
0.0
 11
7019.127507899643
 21
9308.243182432326
 31
0.0
  0
LINE
  5
17DB7
330
17CD8
100
AcDbEntity
  8
CENTER
  6
1PL-M
100
AcDbLine
 10
6474.127507899642
 20
8708.243182432324
 30
0.0
 11
8969.127507899642
 21
8708.243182432328
 31
0.0
  0
LINE
  5
17DB8
330
17CD8
100
AcDbEntity
  8
CENTER
  6
1PL-M
100
AcDbLine
 10
6596.977929614671
 20
6908.243182432326
 30
0.0
 11
10364.12750789964
 21
6908.243182432326
 31
0.0
  0
LINE
  5
17DB9
330
17CD8
100
AcDbEntity
  8
SUNPOU
100
AcDbLine
 10
10249.12750789964
 20
9108.243182432325
 30
0.0
 11
11084.12750789964
 21
9108.243182432325
 31
0.0
  0
LINE
  5
17DBA
330
17CD8
100
AcDbEntity
  8
SUNPOU
100
AcDbLine
 10
10249.12750789964
 20
6508.243182432327
 30
0.0
 11
11084.12750789964
 21
6508.243182432327
 31
0.0
  0
LINE
  5
17DBB
330
17CD8
100
AcDbEntity
  8
CENTER
  6
1PL-M
100
AcDbLine
 10
9819.127507899644
 20
6308.243182432326
 30
0.0
 11
9819.127507899644
 21
7963.243182432326
 31
0.0
  0
LINE
  5
17DBC
330
17CD8
100
AcDbEntity
  8
CENTER
  6
1PL-M
100
AcDbLine
 10
9819.127507899644
 20
8158.243182432327
 30
0.0
 11
9819.127507899644
 21
9308.243182432326
 31
0.0
  0
LINE
  5
17DBD
330
17CD8
100
AcDbEntity
  8
SUNPOU
100
AcDbLine
 10
11039.12750789964
 20
9093.243182432324
 30
0.0
 11
11039.12750789964
 21
6523.243182432326
 31
0.0
  0
LINE
  5
17DBE
330
17CD8
100
AcDbEntity
  8
SUNPOU
100
AcDbLine
 10
10829.12750789964
 20
8693.243182432324
 30
0.0
 11
10829.12750789964
 21
6923.243182432326
 31
0.0
  0
LINE
  5
17DBF
330
17CD8
100
AcDbEntity
  8
SUNPOU
100
AcDbLine
 10
10829.12750789964
 20
6893.243182432326
 30
0.0
 11
10829.12750789964
 21
6523.243182432326
 31
0.0
  0
LINE
  5
17DC0
330
17CD8
100
AcDbEntity
  8
SUNPOU
100
AcDbLine
 10
10799.12750789964
 20
6508.243182432327
 30
0.0
 11
10784.12750789964
 21
6508.243182432327
 31
0.0
  0
TEXT
  5
17DC1
330
17CD8
100
AcDbEntity
  8
SUNPOU
100
AcDbText
 10
10784.12750789964
 20
6622.528896718041
 30
0.0
 40
90.0
  1
400
 50
90.0
 41
0.6666666666666666
  7
00
 72
     4
 11
10739.12750789964
 21
6708.243182432326
 31
0.0
100
AcDbText
  0
TEXT
  5
17DC2
330
17CD8
100
AcDbEntity
  8
SUNPOU
100
AcDbText
 10
10994.12750789964
 20
7693.957468146611
 30
0.0
 40
90.0
  1
2600
 50
90.0
 41
0.6666666666666666
  7
00
 72
     4
 11
10949.12750789964
 21
7808.243182432327
 31
0.0
100
AcDbText
  0
TEXT
  5
17DC3
330
17CD8
100
AcDbEntity
  8
SUNPOU
100
AcDbText
 10
10784.12750789964
 20
7689.671753860896
 30
0.0
 40
90.0
  1
1800
 50
90.0
 41
0.6666666666666666
  7
00
 72
     4
 11
10739.12750789964
 21
7808.243182432327
 31
0.0
100
AcDbText
  0
LINE
  5
17DC4
330
17CD8
100
AcDbEntity
  8
SUNPOU
100
AcDbLine
 10
10829.12750789964
 20
9093.243182432324
 30
0.0
 11
10829.12750789964
 21
8723.243182432323
 31
0.0
  0
TEXT
  5
17DC5
330
17CD8
100
AcDbEntity
  8
SUNPOU
100
AcDbText
 10
10784.12750789964
 20
8822.528896718038
 30
0.0
 40
90.0
  1
400
 50
90.0
 41
0.6666666666666666
  7
00
 72
     1
 11
10739.12750789964
 21
8908.243182432324
 31
0.0
100
AcDbText
 73
     2
  0
LINE
  5
17DC6
330
17CD8
100
AcDbEntity
  8
SUNPOU
100
AcDbLine
 10
10799.12750789964
 20
9108.243182432325
 30
0.0
 11
10784.12750789964
 21
9108.243182432325
 31
0.0
  0
LINE
  5
17DC7
330
17CD8
100
AcDbEntity
  8
SUNPOU
100
AcDbLine
 10
6409.127507899639
 20
7118.243182432326
 30
0.0
 11
6409.127507899639
 21
6908.243182432326
 31
0.0
  0
LINE
  5
17DC8
330
17CD8
100
AcDbEntity
  8
SUNPOU
100
AcDbLine
 10
6409.12750789964
 20
6908.243182432326
 30
0.0
 11
6559.12750789964
 21
6908.243182432326
 31
0.0
  0
TEXT
  5
17DC9
330
17CD8
100
AcDbEntity
  8
SUNPOU
100
AcDbText
 10
6383.284650756782
 20
7253.243182432325
 30
0.0
 40
90.0
  1
A
 41
0.6700000000000001
  7
00
 72
     4
 11
6409.127507899639
 21
7298.243182432326
 31
0.0
100
AcDbText
  0
LINE
  5
17DCA
330
17CD8
100
AcDbEntity
  8
SUNPOU
100
AcDbLine
 10
7629.127507899642
 20
7118.243182432326
 30
0.0
 11
7629.127507899642
 21
6908.243182432326
 31
0.0
  0
LINE
  5
17DCB
330
17CD8
100
AcDbEntity
  8
SUNPOU
100
AcDbLine
 10
7629.127507899642
 20
6908.243182432326
 30
0.0
 11
7479.127507899637
 21
6908.243182432326
 31
0.0
  0
TEXT
  5
17DCC
330
17CD8
100
AcDbEntity
  8
SUNPOU
100
AcDbText
 10
7593.234650756786
 20
7244.671753860898
 30
0.0
 40
90.0
  1
A'
 41
0.6700000000000001
  7
00
 72
     4
 11
7629.127507899642
 21
7298.243182432326
 31
0.0
100
AcDbText
  0
TEXT
  5
17DCD
330
17CD8
100
AcDbEntity
  8
HIKIDASHI
100
AcDbText
 10
7649.886391523253
 20
6545.457570974097
 30
0.0
 40
90.0
  1
（土間コン後面位置）
  7
01
100
AcDbText
  0
TEXT
  5
17DCE
330
17CD8
100
AcDbEntity
  8
HIKIDASHI
100
AcDbText
 10
7607.824073304896
 20
9005.961209410227
 30
0.0
 40
90.0
  1
（屋根後面位置）
  7
01
100
AcDbText
  0
LINE
  5
17DCF
330
17CD8
100
AcDbEntity
  8
SUNPOU
100
AcDbLine
 10
10394.12750789964
 20
8708.243182432324
 30
0.0
 11
10874.12750789964
 21
8708.243182432324
 31
0.0
  0
LINE
  5
17DD0
330
17CD8
100
AcDbEntity
  8
SUNPOU
100
AcDbLine
 10
10394.12750789964
 20
6908.243182432326
 30
0.0
 11
10874.12750789964
 21
6908.243182432326
 31
0.0
  0
TEXT
  5
17DD1
330
17CD8
100
AcDbEntity
  8
HIKIDASHI
100
AcDbText
 10
7724.659057818335
 20
6270.575351767093
 30
0.0
 40
90.0
  1
（鼻隠し外面）
  7
01
100
AcDbText
  0
TEXT
  5
17DD2
330
17CD8
100
AcDbEntity
  8
HIKIDASHI
100
AcDbText
 10
7523.285198871461
 20
8748.29898100082
 30
0.0
 40
90.0
  1
（土間コン前面位置）
  7
01
100
AcDbText
  0
TEXT
  5
17DD3
330
17CD8
100
AcDbEntity
  8
NAME
100
AcDbText
 10
12303.32857318295
 20
1055.0
 30
0.0
 40
120.0
  1
Y O K C
 41
0.6666666666666666
  7
00
100
AcDbText
  0
TEXT
  5
17DD4
330
17CD8
100
AcDbEntity
  8
NAME
100
AcDbText
 10
11227.73587134625
 20
1055.0
 30
0.0
 40
120.0
  1
ヨド自転車置場　　　  型
  7
01
100
AcDbText
  0
TEXT
  5
17DD5
330
17CD8
100
AcDbEntity
  8
NAME
100
AcDbText
 10
11228.07508082364
 20
875.0
 30
0.0
 40
120.0
  1
（アンカープレート方式）
  7
01
 72
     4
 11
12072.07508082364
 21
935.0
 31
0.0
100
AcDbText
  0
LINE
  5
17DF3
330
17CD8
100
AcDbEntity
  8
1PL-M1
100
AcDbLine
 10
4799.797051267463
 20
2428.172125878786
 30
0.0
 11
4799.797051267463
 21
4175.485411556191
 31
0.0
  0
LINE
  5
17DF4
330
17CD8
100
AcDbEntity
  8
KISO
100
AcDbLine
 10
6082.193774006775
 20
3456.684839419605
 30
0.0
 11
4851.797051267459
 21
3456.684839419605
 31
0.0
  0
LINE
  5
17DF5
330
17CD8
100
AcDbEntity
  8
KISO
100
AcDbLine
 10
6082.193774006775
 20
3319.084839419603
 30
0.0
 11
4159.797051267463
 21
3319.084839419601
 31
0.0
  0
LINE
  5
17DF6
330
17CD8
100
AcDbEntity
  8
HATCH
100
AcDbLine
 10
5031.155511458886
 20
3456.684839419605
 30
0.0
 11
4893.555511458892
 21
3319.084839419601
 31
0.0
  0
LINE
  5
17DF7
330
17CD8
100
AcDbEntity
  8
U3
100
AcDbLine
 10
3353.961658022964
 20
3376.684839419603
 30
0.0
 11
3521.961658022965
 21
3208.684839419607
 31
0.0
  0
LINE
  5
17DF8
330
17CD8
100
AcDbEntity
  8
U3
100
AcDbLine
 10
3303.049969777532
 20
3325.773151174173
 30
0.0
 11
3420.1382815321
 21
3208.684839419603
 31
0.0
  0
LINE
  5
17DF9
330
17CD8
100
AcDbEntity
  8
U3
100
AcDbLine
 10
3589.820095533321
 20
3376.684839419604
 30
0.0
 11
3017.961658022965
 21
3376.684839419604
 31
0.0
  0
LINE
  5
17DFA
330
17CD8
100
AcDbEntity
  8
U3
100
AcDbLine
 10
3084.1382815321
 20
3310.508215910466
 30
0.0
 11
3150.314905041233
 21
3376.684839419601
 31
0.0
  0
LINE
  5
17DFB
330
17CD8
100
AcDbEntity
  8
U3
100
AcDbLine
 10
3017.961658022965
 20
3376.684839419601
 30
0.0
 11
3185.961658022964
 21
3208.684839419606
 31
0.0
  0
LINE
  5
17DFC
330
17CD8
100
AcDbEntity
  8
U3
100
AcDbLine
 10
3135.049969777532
 20
3259.596527665037
 30
0.0
 11
3252.1382815321
 21
3376.684839419601
 31
0.0
  0
LINE
  5
17DFD
330
17CD8
100
AcDbEntity
  8
U3
100
AcDbLine
 10
3185.961658022964
 20
3208.684839419606
 30
0.0
 11
3353.961658022964
 21
3376.684839419603
 31
0.0
  0
LINE
  5
17DFE
330
17CD8
100
AcDbEntity
  8
U3
100
AcDbLine
 10
3252.1382815321
 20
3274.86146292874
 30
0.0
 11
3318.314905041237
 21
3208.684839419603
 31
0.0
  0
LINE
  5
17DFF
330
17CD8
100
AcDbEntity
  8
U3
100
AcDbLine
 10
3521.961658022965
 20
3208.684839419607
 30
0.0
 11
3589.820095533321
 21
3276.543276929964
 31
0.0
  0
LINE
  5
17E00
330
17CD8
100
AcDbEntity
  8
U3
100
AcDbLine
 10
3420.1382815321
 20
3310.508215910469
 30
0.0
 11
3486.314905041234
 21
3376.684839419603
 31
0.0
  0
LINE
  5
17E01
330
17CD8
100
AcDbEntity
  8
U3
100
AcDbLine
 10
3471.049969777533
 20
3259.596527665038
 30
0.0
 11
3588.138281532103
 21
3376.684839419603
 31
0.0
  0
LINE
  5
17E02
330
17CD8
100
AcDbEntity
  8
HASHIRA
100
AcDbLine
 10
4851.797051267459
 20
3328.684839419607
 30
0.0
 11
4851.797051267459
 21
3718.91804462035
 31
0.0
  0
LINE
  5
17E03
330
17CD8
100
AcDbEntity
  8
HASHIRA
100
AcDbLine
 10
4747.797051267458
 20
3718.91804462035
 30
0.0
 11
4747.797051267458
 21
3328.684839419607
 31
0.0
  0
LINE
  5
17E04
330
17CD8
100
AcDbEntity
  8
U3
100
AcDbLine
 10
4159.797051267463
 20
3376.684839419604
 30
0.0
 11
3909.820095533321
 21
3376.684839419603
 31
0.0
  0
LINE
  5
17E05
330
17CD8
100
AcDbEntity
  8
U3
100
AcDbLine
 10
4098.782873409589
 20
3310.508215910469
 30
0.0
 11
4159.797051267463
 21
3371.522393768344
 31
0.0
  0
LINE
  5
17E06
330
17CD8
100
AcDbEntity
  8
U3
100
AcDbLine
 10
4032.606249900456
 20
3376.684839419603
 30
0.0
 11
4159.797051267463
 21
3249.494038052592
 31
0.0
  0
LINE
  5
17E07
330
17CD8
100
AcDbEntity
  8
U3
100
AcDbLine
 10
3975.765342899848
 20
3331.702369929347
 30
0.0
 11
4098.782873409595
 21
3208.684839419603
 31
0.0
  0
LINE
  5
17E08
330
17CD8
100
AcDbEntity
  8
KISO
100
AcDbLine
 10
4747.797051267458
 20
3456.684839419605
 30
0.0
 11
4159.797051267463
 21
3456.684839419605
 31
0.0
  0
LINE
  5
17E09
330
17CD8
100
AcDbEntity
  8
HATCH
100
AcDbLine
 10
4821.714626963203
 20
3319.084839419601
 30
0.0
 11
4810.197051267465
 21
3307.567263723864
 31
0.0
  0
LINE
  5
17E0A
330
17CD8
100
AcDbEntity
  8
KISO
100
AcDbLine
 10
5439.797051267471
 20
3191.0848394196
 30
0.0
 11
6082.193774006775
 21
3191.084839419601
 31
0.0
  0
LINE
  5
17E0B
330
17CD8
100
AcDbEntity
  8
HATCH
100
AcDbLine
 10
6038.673087154623
 20
3456.684839419603
 30
0.0
 11
5901.073087154633
 21
3319.084839419603
 31
0.0
  0
LINE
  5
17E0C
330
17CD8
100
AcDbEntity
  8
HATCH
100
AcDbLine
 10
6086.190662850363
 20
3456.684839419603
 30
0.0
 11
5948.590662850365
 21
3319.084839419603
 31
0.0
  0
LINE
  5
17E0D
330
17CD8
100
AcDbEntity
  8
HATCH
100
AcDbLine
 10
5511.155511458887
 20
3456.684839419605
 30
0.0
 11
5373.555511458888
 21
3319.084839419601
 31
0.0
  0
LINE
  5
17E0E
330
17CD8
100
AcDbEntity
  8
HATCH
100
AcDbLine
 10
5558.673087154621
 20
3456.684839419603
 30
0.0
 11
5421.07308715463
 21
3319.084839419601
 31
0.0
  0
LINE
  5
17E0F
330
17CD8
100
AcDbEntity
  8
HATCH
100
AcDbLine
 10
5126.190662850362
 20
3456.684839419603
 30
0.0
 11
4988.590662850362
 21
3319.084839419601
 31
0.0
  0
LINE
  5
17E10
330
17CD8
100
AcDbEntity
  8
HATCH
100
AcDbLine
 10
5078.673087154623
 20
3456.684839419603
 30
0.0
 11
4941.073087154631
 21
3319.084839419601
 31
0.0
  0
LINE
  5
17E11
330
17CD8
100
AcDbEntity
  8
HATCH
100
AcDbLine
 10
5606.190662850362
 20
3456.684839419603
 30
0.0
 11
5468.590662850361
 21
3319.084839419601
 31
0.0
  0
LINE
  5
17E12
330
17CD8
100
AcDbEntity
  8
HATCH
100
AcDbLine
 10
5991.155511458885
 20
3456.684839419605
 30
0.0
 11
5853.555511458888
 21
3319.084839419603
 31
0.0
  0
LINE
  5
17E13
330
17CD8
100
AcDbEntity
  8
KISO
100
AcDbLine
 10
5439.797051267464
 20
3319.084839419601
 30
0.0
 11
5439.797051267464
 21
2711.084839419601
 31
0.0
  0
LINE
  5
17E14
330
17CD8
100
AcDbEntity
  8
HATCH
100
AcDbLine
 10
5439.797051267464
 20
3073.167263723862
 30
0.0
 11
5077.714626963206
 21
2711.084839419601
 31
0.0
  0
LINE
  5
17E15
330
17CD8
100
AcDbEntity
  8
HATCH
100
AcDbLine
 10
5301.232202658938
 20
3319.084839419601
 30
0.0
 11
4693.232202658947
 21
2711.084839419601
 31
0.0
  0
LINE
  5
17E16
330
17CD8
100
AcDbEntity
  8
HATCH
100
AcDbLine
 10
5253.714626963207
 20
3319.084839419601
 30
0.0
 11
4810.197051267465
 21
2875.567263723857
 31
0.0
  0
LINE
  5
17E17
330
17CD8
100
AcDbEntity
  8
HATCH
100
AcDbLine
 10
5206.197051267466
 20
3319.084839419601
 30
0.0
 11
4810.197051267465
 21
2923.084839419596
 31
0.0
  0
LINE
  5
17E18
330
17CD8
100
AcDbEntity
  8
HATCH
100
AcDbLine
 10
5439.797051267464
 20
3025.649688028125
 30
0.0
 11
5125.232202658947
 21
2711.084839419601
 31
0.0
  0
LINE
  5
17E19
330
17CD8
100
AcDbEntity
  8
HATCH
100
AcDbLine
 10
5439.797051267464
 20
2978.132112332392
 30
0.0
 11
5172.749778354678
 21
2711.084839419601
 31
0.0
  0
LINE
  5
17E1A
330
17CD8
100
AcDbEntity
  8
HATCH
100
AcDbLine
 10
4774.197051267476
 20
3319.084839419601
 30
0.0
 11
4166.197051267473
 21
2711.084839419601
 31
0.0
  0
LINE
  5
17E1B
330
17CD8
100
AcDbEntity
  8
HATCH
100
AcDbLine
 10
4726.679475571732
 20
3319.084839419601
 30
0.0
 11
4159.797051267463
 21
2752.202415115331
 31
0.0
  0
LINE
  5
17E1C
330
17CD8
100
AcDbEntity
  8
HATCH
100
AcDbLine
 10
4789.397051267463
 20
3286.767263723862
 30
0.0
 11
4213.714626963207
 21
2711.084839419601
 31
0.0
  0
LINE
  5
17E1D
330
17CD8
100
AcDbEntity
  8
HATCH
100
AcDbLine
 10
4342.197051267471
 20
3319.084839419601
 30
0.0
 11
4159.797051267463
 21
3136.684839419597
 31
0.0
  0
LINE
  5
17E1E
330
17CD8
100
AcDbEntity
  8
HATCH
100
AcDbLine
 10
4247.161899876001
 20
3319.084839419603
 30
0.0
 11
4159.797051267463
 21
3231.719990811068
 31
0.0
  0
LINE
  5
17E1F
330
17CD8
100
AcDbEntity
  8
HATCH
100
AcDbLine
 10
4294.679475571739
 20
3319.084839419601
 30
0.0
 11
4159.797051267463
 21
3184.202415115327
 31
0.0
  0
LINE
  5
17E20
330
17CD8
100
AcDbEntity
  8
HATCH
100
AcDbLine
 10
4789.397051267463
 20
2902.284839419595
 30
0.0
 11
4766.19705126748
 21
2879.084839419608
 31
0.0
  0
LINE
  5
17E21
330
17CD8
100
AcDbEntity
  8
HATCH
100
AcDbLine
 10
4745.397051267479
 20
2858.284839419607
 30
0.0
 11
4598.197051267473
 21
2711.084839419601
 31
0.0
  0
LINE
  5
17E22
330
17CD8
100
AcDbEntity
  8
HATCH
100
AcDbLine
 10
5439.797051267464
 20
3285.236002075317
 30
0.0
 11
5459.339686619942
 21
3319.084839419601
 31
0.0
  0
LINE
  5
17E23
330
17CD8
100
AcDbEntity
  8
U3
100
AcDbLine
 10
3924.853654654415
 20
3280.790681683919
 30
0.0
 11
3996.959496918732
 21
3208.684839419603
 31
0.0
  0
LINE
  5
17E24
330
17CD8
100
AcDbEntity
  8
U3
100
AcDbLine
 10
3909.820095533321
 20
3265.757122562824
 30
0.0
 11
4020.747812390101
 21
3376.684839419601
 31
0.0
  0
LINE
  5
17E25
330
17CD8
100
AcDbEntity
  8
HATCH
100
AcDbLine
 10
4792.91462696322
 20
2858.284839419607
 30
0.0
 11
4645.714626963214
 21
2711.084839419601
 31
0.0
  0
LINE
  5
17E26
330
17CD8
100
AcDbEntity
  8
HATCH
100
AcDbLine
 10
4646.190662850361
 20
3456.684839419603
 30
0.0
 11
4508.590662850362
 21
3319.084839419601
 31
0.0
  0
LINE
  5
17E27
330
17CD8
100
AcDbEntity
  8
HATCH
100
AcDbLine
 10
4598.673087154621
 20
3456.684839419603
 30
0.0
 11
4461.07308715463
 21
3319.084839419601
 31
0.0
  0
LINE
  5
17E28
330
17CD8
100
AcDbEntity
  8
HATCH
100
AcDbLine
 10
4551.155511458886
 20
3456.684839419605
 30
0.0
 11
4413.55551145889
 21
3319.084839419601
 31
0.0
  0
LINE
  5
17E29
330
17CD8
100
AcDbEntity
  8
SUNPOU
100
AcDbLine
 10
4799.797051267463
 20
4130.485411556192
 30
0.0
 11
6225.027558517715
 21
4130.485411556192
 31
0.0
  0
TEXT
  5
17E2A
330
17CD8
100
AcDbEntity
  8
SUNPOU
100
AcDbText
 10
5585.624750407928
 20
4175.485411556191
 30
0.0
 40
90.0
  1
2800
 41
0.6666666666666666
  7
00
 72
     4
 11
5699.910464693643
 21
4220.485411556191
 31
0.0
100
AcDbText
  0
LINE
  5
17E2B
330
17CD8
100
AcDbEntity
  8
HATCH
100
AcDbLine
 10
4827.726846493639
 20
2551.084839419601
 30
0.0
 11
4920.102889160304
 21
2711.084839419601
 31
0.0
  0
LINE
  5
17E2C
330
17CD8
100
AcDbEntity
  8
HATCH
100
AcDbLine
 10
4866.769555826969
 20
2711.084839419601
 30
0.0
 11
4893.436222493637
 21
2664.896816752937
 31
0.0
  0
LINE
  5
17E2D
330
17CD8
100
AcDbEntity
  8
HATCH
100
AcDbLine
 10
4854.393513160305
 20
2597.272860752933
 30
0.0
 11
4881.06017982697
 21
2551.084839419601
 31
0.0
  0
LINE
  5
17E2E
330
17CD8
100
AcDbEntity
  8
HATCH
100
AcDbLine
 10
4654.393513160305
 20
2597.272860752933
 30
0.0
 11
4681.06017982697
 21
2551.084839419601
 31
0.0
  0
LINE
  5
17E2F
330
17CD8
100
AcDbEntity
  8
HATCH
100
AcDbLine
 10
4666.769555826969
 20
2711.084839419601
 30
0.0
 11
4693.436222493637
 21
2664.896816752937
 31
0.0
  0
LINE
  5
17E30
330
17CD8
100
AcDbEntity
  8
HATCH
100
AcDbLine
 10
4454.393513160304
 20
2597.272860752933
 30
0.0
 11
4481.06017982697
 21
2551.084839419601
 31
0.0
  0
LINE
  5
17E31
330
17CD8
100
AcDbEntity
  8
HATCH
100
AcDbLine
 10
4427.726846493636
 20
2551.084839419601
 30
0.0
 11
4520.102889160303
 21
2711.084839419601
 31
0.0
  0
LINE
  5
17E32
330
17CD8
100
AcDbEntity
  8
HATCH
100
AcDbLine
 10
4466.76955582697
 20
2711.084839419601
 30
0.0
 11
4493.436222493635
 21
2664.896816752937
 31
0.0
  0
LINE
  5
17E33
330
17CD8
100
AcDbEntity
  8
HATCH
100
AcDbLine
 10
4254.393513160304
 20
2597.272860752933
 30
0.0
 11
4281.060179826972
 21
2551.084839419601
 31
0.0
  0
LINE
  5
17E34
330
17CD8
100
AcDbEntity
  8
HATCH
100
AcDbLine
 10
4266.76955582697
 20
2711.084839419601
 30
0.0
 11
4293.436222493635
 21
2664.896816752937
 31
0.0
  0
LINE
  5
17E35
330
17CD8
100
AcDbEntity
  8
HATCH
100
AcDbLine
 10
4227.726846493637
 20
2551.084839419601
 30
0.0
 11
4320.102889160303
 21
2711.084839419601
 31
0.0
  0
LINE
  5
17E36
330
17CD8
100
AcDbEntity
  8
HATCH
100
AcDbLine
 10
4627.726846493636
 20
2551.084839419601
 30
0.0
 11
4720.102889160303
 21
2711.084839419601
 31
0.0
  0
LINE
  5
17E37
330
17CD8
100
AcDbEntity
  8
HATCH
100
AcDbLine
 10
5066.76955582697
 20
2711.084839419601
 30
0.0
 11
5093.436222493636
 21
2664.896816752937
 31
0.0
  0
LINE
  5
17E38
330
17CD8
100
AcDbEntity
  8
HATCH
100
AcDbLine
 10
5027.726846493639
 20
2551.084839419601
 30
0.0
 11
5120.102889160303
 21
2711.084839419601
 31
0.0
  0
LINE
  5
17E39
330
17CD8
100
AcDbEntity
  8
HATCH
100
AcDbLine
 10
5054.393513160305
 20
2597.272860752933
 30
0.0
 11
5081.06017982697
 21
2551.084839419601
 31
0.0
  0
LINE
  5
17E3A
330
17CD8
100
AcDbEntity
  8
HATCH
100
AcDbLine
 10
5227.726846493639
 20
2551.084839419601
 30
0.0
 11
5320.102889160303
 21
2711.084839419601
 31
0.0
  0
LINE
  5
17E3B
330
17CD8
100
AcDbEntity
  8
HATCH
100
AcDbLine
 10
5266.769555826971
 20
2711.084839419601
 30
0.0
 11
5293.436222493635
 21
2664.896816752937
 31
0.0
  0
LINE
  5
17E3C
330
17CD8
100
AcDbEntity
  8
HATCH
100
AcDbLine
 10
5254.393513160305
 20
2597.272860752933
 30
0.0
 11
5281.060179826972
 21
2551.084839419601
 31
0.0
  0
LINE
  5
17E3D
330
17CD8
100
AcDbEntity
  8
HATCH
100
AcDbLine
 10
4066.76955582697
 20
2711.084839419601
 30
0.0
 11
4093.436222493635
 21
2664.896816752937
 31
0.0
  0
LINE
  5
17E3E
330
17CD8
100
AcDbEntity
  8
HATCH
100
AcDbLine
 10
4027.726846493638
 20
2551.084839419601
 30
0.0
 11
4120.102889160301
 21
2711.084839419601
 31
0.0
  0
LINE
  5
17E3F
330
17CD8
100
AcDbEntity
  8
HATCH
100
AcDbLine
 10
4054.393513160305
 20
2597.272860752933
 30
0.0
 11
4081.060179826971
 21
2551.084839419601
 31
0.0
  0
TEXT
  5
17E40
330
17CD8
100
AcDbEntity
  8
SUNPOU
100
AcDbText
 10
3070.061516132469
 20
3511.684839419604
 30
0.0
 40
90.0
  1
G.L
 41
0.6700000000000001
  7
01
 72
     4
 11
3141.847230418183
 21
3556.684839419605
 31
0.0
100
AcDbText
  0
LINE
  5
17E41
330
17CD8
100
AcDbEntity
  8
SUNPOU
100
AcDbLine
 10
3193.80875464525
 20
3466.684839419605
 30
0.0
 11
3089.885706191117
 21
3466.684839419605
 31
0.0
  0
LINE
  5
17E42
330
17CD8
100
AcDbEntity
  8
SUNPOU
100
AcDbLine
 10
3089.885706191117
 20
3466.684839419605
 30
0.0
 11
3141.847230418183
 21
3376.684839419604
 31
0.0
  0
LINE
  5
17E43
330
17CD8
100
AcDbEntity
  8
SUNPOU
100
AcDbLine
 10
3141.847230418183
 20
3376.684839419604
 30
0.0
 11
3193.80875464525
 21
3466.684839419605
 31
0.0
  0
TEXT
  5
17E44
330
17CD8
100
AcDbEntity
  8
HIKIDASHI
100
AcDbText
 10
4876.000654146238
 20
1664.635820576935
 30
0.0
 40
90.0
  1
断 面
  7
01
100
AcDbText
  0
LINE
  5
17E45
330
17CD8
100
AcDbEntity
  8
HIKIDASHI
100
AcDbLine
 10
4451.983374649677
 20
1619.635820576936
 30
0.0
 11
5147.610727885247
 21
1619.635820576936
 31
0.0
  0
LINE
  5
17E46
330
17CD8
100
AcDbEntity
  8
HIKIDASHI
100
AcDbLine
 10
4451.983374649677
 20
1589.635820576935
 30
0.0
 11
5147.610727885247
 21
1589.635820576935
 31
0.0
  0
TEXT
  5
17E47
330
17CD8
100
AcDbEntity
  8
HIKIDASHI
100
AcDbText
 10
4481.983374649677
 20
1664.635820576935
 30
0.0
 40
90.0
  1
A  ~  A'
 41
0.6700000000000001
  7
00
100
AcDbText
  0
TEXT
  5
17E48
330
17CD8
100
AcDbEntity
  8
HIKIDASHI
100
AcDbText
 10
5718.705531692625
 20
2949.11470702088
 30
0.0
 40
90.0
  1
敷砂利又は砕石
  7
01
 72
     2
 11
6450.705531692626
 21
2994.11470702088
 31
0.0
100
AcDbText
 73
     2
  0
LINE
  5
17E49
330
17CD8
100
AcDbEntity
  8
HIKIDASHI
100
AcDbLine
 10
6475.935832338305
 20
2904.11470702088
 30
0.0
 11
5674.871662611158
 21
2904.11470702088
 31
0.0
  0
TEXT
  5
17E4A
330
17CD8
100
AcDbEntity
  8
HIKIDASHI
100
AcDbText
 10
5843.40570439457
 20
2313.304238552882
 30
0.0
 40
90.0
  1
砕　石
  7
01
 72
     2
 11
6143.40570439457
 21
2358.304238552882
 31
0.0
100
AcDbText
 73
     2
  0
LINE
  5
17E4B
330
17CD8
100
AcDbEntity
  8
HIKIDASHI
100
AcDbLine
 10
6185.104473630285
 20
2268.304238552882
 30
0.0
 11
5816.338096802661
 21
2268.304238552882
 31
0.0
  0
LINE
  5
17E4C
330
17CD8
100
AcDbEntity
  8
HIKIDASHI
100
AcDbLine
 10
6961.513680660954
 20
3920.485411556192
 30
0.0
 11
5333.860047839355
 21
3920.485411556192
 31
0.0
  0
TEXT
  5
17E4D
330
17CD8
100
AcDbEntity
  8
HIKIDASHI
100
AcDbText
 10
5358.925780378814
 20
3965.485411556191
 30
0.0
 40
90.0
  1
土間：コンクリ－ト天端コテ押え
  7
01
 72
     2
 11
6948.925780378814
 21
4010.48541155619
 31
0.0
100
AcDbText
 73
     2
  0
CIRCLE
  5
17E4E
330
17CD8
100
AcDbEntity
  8
BOLT
100
AcDbCircle
 10
8580.123251791111
 20
3424.684839419607
 30
0.0
 40
13.2
  0
CIRCLE
  5
17E4F
330
17CD8
100
AcDbEntity
  8
BOLT
100
AcDbCircle
 10
8580.123251791111
 20
3424.684839419607
 30
0.0
 40
16.8
  0
CIRCLE
  5
17E50
330
17CD8
100
AcDbEntity
  8
BOLT
100
AcDbCircle
 10
8580.123251791111
 20
3360.684839419607
 30
0.0
 40
16.8
  0
CIRCLE
  5
17E51
330
17CD8
100
AcDbEntity
  8
BOLT
100
AcDbCircle
 10
8580.123251791111
 20
3360.684839419607
 30
0.0
 40
13.2
  0
LINE
  5
17E52
330
17CD8
100
AcDbEntity
  8
KISO
100
AcDbLine
 10
9862.519974530416
 20
3456.684839419605
 30
0.0
 11
8632.123251791107
 21
3456.684839419605
 31
0.0
  0
LINE
  5
17E53
330
17CD8
100
AcDbEntity
  8
KISO
100
AcDbLine
 10
9862.519974530416
 20
3319.084839419601
 30
0.0
 11
7940.12325179111
 21
3319.084839419601
 31
0.0
  0
LINE
  5
17E54
330
17CD8
100
AcDbEntity
  8
KISO
100
AcDbLine
 10
9220.123251791108
 20
3191.0848394196
 30
0.0
 11
9862.519974530416
 21
3191.084839419601
 31
0.0
  0
LINE
  5
17E55
330
17CD8
100
AcDbEntity
  8
KISO
100
AcDbLine
 10
8528.123251791111
 20
3456.684839419605
 30
0.0
 11
8260.12325179111
 21
3456.684839419605
 31
0.0
  0
LINE
  5
17E56
330
17CD8
100
AcDbEntity
  8
KISO
100
AcDbLine
 10
8260.12325179111
 20
3456.684839419607
 30
0.0
 11
8260.12325179111
 21
3319.084839419601
 31
0.0
  0
LINE
  5
17E57
330
17CD8
100
AcDbEntity
  8
KISO
100
AcDbLine
 10
7940.12325179111
 20
3319.084839419601
 30
0.0
 11
7940.12325179111
 21
3191.084839419601
 31
0.0
  0
LINE
  5
17E58
330
17CD8
100
AcDbEntity
  8
HASHIRA
100
AcDbLine
 10
8632.123251791107
 20
3328.684839419607
 30
0.0
 11
8632.123251791101
 21
3583.485411556191
 31
0.0
  0
LINE
  5
17E59
330
17CD8
100
AcDbEntity
  8
HASHIRA
100
AcDbLine
 10
8528.123251791111
 20
3583.485411556191
 30
0.0
 11
8528.123251791111
 21
3328.684839419607
 31
0.0
  0
LINE
  5
17E5A
330
17CD8
100
AcDbEntity
  8
HATCH
100
AcDbLine
 10
8331.481711982535
 20
3456.684839419605
 30
0.0
 11
8260.12325179111
 21
3385.326379228178
 31
0.0
  0
LINE
  5
17E5B
330
17CD8
100
AcDbEntity
  8
HATCH
100
AcDbLine
 10
8426.516863374008
 20
3456.684839419605
 30
0.0
 11
8288.916863374003
 21
3319.084839419601
 31
0.0
  0
LINE
  5
17E5C
330
17CD8
100
AcDbEntity
  8
HATCH
100
AcDbLine
 10
8378.999287678274
 20
3456.684839419605
 30
0.0
 11
8260.12325179111
 21
3337.808803532439
 31
0.0
  0
LINE
  5
17E5D
330
17CD8
100
AcDbEntity
  8
1PL-S1
100
AcDbLine
 10
8484.12325179111
 20
3309.484839419607
 30
0.0
 11
8484.12325179111
 21
3338.284839419608
 31
0.0
  0
LINE
  5
17E5E
330
17CD8
100
AcDbEntity
  8
HATCH
100
AcDbLine
 10
8811.481711982535
 20
3456.684839419605
 30
0.0
 11
8683.481711982539
 21
3328.684839419607
 31
0.0
  0
LINE
  5
17E5F
330
17CD8
100
AcDbEntity
  8
HATCH
100
AcDbLine
 10
8858.999287678274
 20
3456.684839419605
 30
0.0
 11
8721.399287678272
 21
3319.084839419601
 31
0.0
  0
LINE
  5
17E60
330
17CD8
100
AcDbEntity
  8
1PL-S1
100
AcDbLine
 10
8676.123251791107
 20
3309.484839419607
 30
0.0
 11
8676.123251791107
 21
3338.284839419606
 31
0.0
  0
LINE
  5
17E61
330
17CD8
100
AcDbEntity
  8
HATCH
100
AcDbLine
 10
8906.516863374006
 20
3456.684839419605
 30
0.0
 11
8768.916863374002
 21
3319.084839419601
 31
0.0
  0
LINE
  5
17E62
330
17CD8
100
AcDbEntity
  8
HATCH
100
AcDbLine
 10
9291.481711982534
 20
3456.684839419605
 30
0.0
 11
9153.881711982537
 21
3319.084839419601
 31
0.0
  0
LINE
  5
17E63
330
17CD8
100
AcDbEntity
  8
HATCH
100
AcDbLine
 10
9338.999287678275
 20
3456.684839419605
 30
0.0
 11
9201.399287678276
 21
3319.084839419601
 31
0.0
  0
LINE
  5
17E64
330
17CD8
100
AcDbEntity
  8
HATCH
100
AcDbLine
 10
9386.516863374007
 20
3456.684839419605
 30
0.0
 11
9248.916863374001
 21
3319.084839419601
 31
0.0
  0
LINE
  5
17E65
330
17CD8
100
AcDbEntity
  8
HATCH
100
AcDbLine
 10
9866.516863374007
 20
3456.684839419605
 30
0.0
 11
9728.916863374005
 21
3319.084839419601
 31
0.0
  0
LINE
  5
17E66
330
17CD8
100
AcDbEntity
  8
HATCH
100
AcDbLine
 10
9818.999287678275
 20
3456.684839419605
 30
0.0
 11
9681.399287678276
 21
3319.084839419601
 31
0.0
  0
LINE
  5
17E67
330
17CD8
100
AcDbEntity
  8
HATCH
100
AcDbLine
 10
9771.481711982536
 20
3456.684839419605
 30
0.0
 11
9633.881711982537
 21
3319.084839419601
 31
0.0
  0
LINE
  5
17E68
330
17CD8
100
AcDbEntity
  8
HATCH
100
AcDbLine
 10
9220.123251791108
 20
3285.23600207479
 30
0.0
 11
9239.665887143591
 21
3319.084839419076
 31
0.0
  0
LINE
  5
17E69
330
17CD8
100
AcDbEntity
  8
HATCH
100
AcDbLine
 10
9220.123251791108
 20
3073.167263723867
 30
0.0
 11
8858.040827486858
 21
2711.084839419607
 31
0.0
  0
LINE
  5
17E6A
330
17CD8
100
AcDbEntity
  8
HATCH
100
AcDbLine
 10
9220.123251791108
 20
3025.64968802813
 30
0.0
 11
8905.558403182586
 21
2711.084839419607
 31
0.0
  0
LINE
  5
17E6B
330
17CD8
100
AcDbEntity
  8
HATCH
100
AcDbLine
 10
9220.123251791108
 20
2978.132112332395
 30
0.0
 11
8953.075978878326
 21
2711.084839419607
 31
0.0
  0
LINE
  5
17E6C
330
17CD8
100
AcDbEntity
  8
HATCH
100
AcDbLine
 10
9034.040827486846
 20
3319.084839419601
 30
0.0
 11
8686.523251791106
 21
2971.567263723861
 31
0.0
  0
LINE
  5
17E6D
330
17CD8
100
AcDbEntity
  8
HATCH
100
AcDbLine
 10
9081.558403182574
 20
3319.084839419601
 30
0.0
 11
8686.523251791106
 21
2924.049688028131
 31
0.0
  0
LINE
  5
17E6E
330
17CD8
100
AcDbEntity
  8
HATCH
100
AcDbLine
 10
8986.52325179111
 20
3319.084839419601
 30
0.0
 11
8686.523251791106
 21
3019.084839419599
 31
0.0
  0
LINE
  5
17E6F
330
17CD8
100
AcDbEntity
  8
KISO
100
AcDbLine
 10
9220.123251791108
 20
3319.084839419605
 30
0.0
 11
9220.123251791108
 21
2711.084839419607
 31
0.0
  0
LINE
  5
17E70
330
17CD8
100
AcDbEntity
  8
HATCH
100
AcDbLine
 10
8507.005676095374
 20
3319.084839419601
 30
0.0
 11
8494.523251791115
 21
3306.602415115337
 31
0.0
  0
LINE
  5
17E71
330
17CD8
100
AcDbEntity
  8
HATCH
100
AcDbLine
 10
8569.723251791113
 20
3286.767263723867
 30
0.0
 11
8494.523251791115
 21
3211.567263723865
 31
0.0
  0
LINE
  5
17E72
330
17CD8
100
AcDbEntity
  8
HATCH
100
AcDbLine
 10
8554.523251791115
 20
3319.084839419601
 30
0.0
 11
8494.523251791115
 21
3259.084839419598
 31
0.0
  0
LINE
  5
17E73
330
17CD8
100
AcDbEntity
  8
KISO
100
AcDbLine
 10
7940.12325179111
 20
3319.084839419605
 30
0.0
 11
7940.12325179111
 21
2711.084839419607
 31
0.0
  0
LINE
  5
17E74
330
17CD8
100
AcDbEntity
  8
HATCH
100
AcDbLine
 10
8122.523251791113
 20
3319.084839419603
 30
0.0
 11
7940.12325179111
 21
3136.684839419602
 31
0.0
  0
LINE
  5
17E75
330
17CD8
100
AcDbEntity
  8
HATCH
100
AcDbLine
 10
8075.005676095383
 20
3319.084839419601
 30
0.0
 11
7940.12325179111
 21
3184.202415115334
 31
0.0
  0
LINE
  5
17E76
330
17CD8
100
AcDbEntity
  8
HATCH
100
AcDbLine
 10
8665.723251791105
 20
2998.284839419597
 30
0.0
 11
8378.523251791122
 21
2711.084839419607
 31
0.0
  0
LINE
  5
17E77
330
17CD8
100
AcDbEntity
  8
HATCH
100
AcDbLine
 10
8665.723251791105
 20
2950.767263723859
 30
0.0
 11
8426.040827486863
 21
2711.084839419607
 31
0.0
  0
LINE
  5
17E78
330
17CD8
100
AcDbEntity
  8
HATCH
100
AcDbLine
 10
8665.723251791105
 20
2903.249688028129
 30
0.0
 11
8473.55840318259
 21
2711.084839419607
 31
0.0
  0
LINE
  5
17E79
330
17CD8
100
AcDbEntity
  8
HATCH
100
AcDbLine
 10
8473.723251791112
 20
3285.802415115337
 30
0.0
 11
7940.12325179111
 21
2752.202415115336
 31
0.0
  0
LINE
  5
17E7A
330
17CD8
100
AcDbEntity
  8
HATCH
100
AcDbLine
 10
8473.723251791112
 20
3238.284839419597
 30
0.0
 11
7946.523251791126
 21
2711.084839419607
 31
0.0
  0
LINE
  5
17E7B
330
17CD8
100
AcDbEntity
  8
HATCH
100
AcDbLine
 10
8473.723251791112
 20
3190.767263723866
 30
0.0
 11
7994.040827486853
 21
2711.084839419607
 31
0.0
  0
LINE
  5
17E7C
330
17CD8
100
AcDbEntity
  8
HATCH
100
AcDbLine
 10
8027.488100399645
 20
3319.084839419603
 30
0.0
 11
7940.12325179111
 21
3231.719990811074
 31
0.0
  0
LINE
  5
17E7D
330
17CD8
100
AcDbEntity
  8
U3
100
AcDbLine
 10
8015.109073933235
 20
3328.684839419603
 30
0.0
 11
8063.109073933231
 21
3376.684839419604
 31
0.0
  0
LINE
  5
17E7E
330
17CD8
100
AcDbEntity
  8
U3
100
AcDbLine
 10
8116.932450424092
 20
3328.684839419603
 30
0.0
 11
8164.9324504241
 21
3376.684839419605
 31
0.0
  0
LINE
  5
17E7F
330
17CD8
100
AcDbEntity
  8
U3
100
AcDbLine
 10
8164.932450424096
 20
3376.684839419604
 30
0.0
 11
8212.9324504241
 21
3328.684839419603
 31
0.0
  0
LINE
  5
17E80
330
17CD8
100
AcDbEntity
  8
1PL-M1
100
AcDbLine
 10
8580.123251791111
 20
2428.17212587879
 30
0.0
 11
8580.123251791111
 21
4175.485411556194
 31
0.0
  0
LINE
  5
17E81
330
17CD8
100
AcDbEntity
  8
HATCH
100
AcDbLine
 10
8608.053047017286
 20
2551.084839419607
 30
0.0
 11
8700.429089683948
 21
2711.084839419607
 31
0.0
  0
LINE
  5
17E82
330
17CD8
100
AcDbEntity
  8
HATCH
100
AcDbLine
 10
8647.095756350616
 20
2711.084839419607
 30
0.0
 11
8673.762423017281
 21
2664.896816752943
 31
0.0
  0
LINE
  5
17E83
330
17CD8
100
AcDbEntity
  8
HATCH
100
AcDbLine
 10
8634.719713683949
 20
2597.272860752938
 30
0.0
 11
8661.386380350618
 21
2551.084839419607
 31
0.0
  0
LINE
  5
17E84
330
17CD8
100
AcDbEntity
  8
HATCH
100
AcDbLine
 10
8434.71971368395
 20
2597.272860752938
 30
0.0
 11
8461.386380350617
 21
2551.084839419607
 31
0.0
  0
LINE
  5
17E85
330
17CD8
100
AcDbEntity
  8
HATCH
100
AcDbLine
 10
8447.095756350616
 20
2711.084839419607
 30
0.0
 11
8473.762423017282
 21
2664.896816752943
 31
0.0
  0
LINE
  5
17E86
330
17CD8
100
AcDbEntity
  8
HATCH
100
AcDbLine
 10
8234.719713683949
 20
2597.272860752938
 30
0.0
 11
8261.386380350618
 21
2551.084839419607
 31
0.0
  0
LINE
  5
17E87
330
17CD8
100
AcDbEntity
  8
HATCH
100
AcDbLine
 10
8208.053047017285
 20
2551.084839419607
 30
0.0
 11
8300.42908968395
 21
2711.084839419607
 31
0.0
  0
LINE
  5
17E88
330
17CD8
100
AcDbEntity
  8
HATCH
100
AcDbLine
 10
8247.095756350615
 20
2711.084839419607
 30
0.0
 11
8273.762423017283
 21
2664.896816752943
 31
0.0
  0
LINE
  5
17E89
330
17CD8
100
AcDbEntity
  8
HATCH
100
AcDbLine
 10
8034.719713683951
 20
2597.272860752938
 30
0.0
 11
8061.386380350617
 21
2551.084839419607
 31
0.0
  0
LINE
  5
17E8A
330
17CD8
100
AcDbEntity
  8
HATCH
100
AcDbLine
 10
8047.095756350616
 20
2711.084839419607
 30
0.0
 11
8073.762423017283
 21
2664.896816752943
 31
0.0
  0
LINE
  5
17E8B
330
17CD8
100
AcDbEntity
  8
HATCH
100
AcDbLine
 10
8008.053047017282
 20
2551.084839419607
 30
0.0
 11
8100.429089683949
 21
2711.084839419607
 31
0.0
  0
LINE
  5
17E8C
330
17CD8
100
AcDbEntity
  8
HATCH
100
AcDbLine
 10
8408.053047017286
 20
2551.084839419607
 30
0.0
 11
8500.429089683951
 21
2711.084839419607
 31
0.0
  0
LINE
  5
17E8D
330
17CD8
100
AcDbEntity
  8
HATCH
100
AcDbLine
 10
8847.095756350617
 20
2711.084839419607
 30
0.0
 11
8873.76242301728
 21
2664.896816752943
 31
0.0
  0
LINE
  5
17E8E
330
17CD8
100
AcDbEntity
  8
HATCH
100
AcDbLine
 10
8808.053047017287
 20
2551.084839419607
 30
0.0
 11
8900.429089683949
 21
2711.084839419607
 31
0.0
  0
LINE
  5
17E8F
330
17CD8
100
AcDbEntity
  8
HATCH
100
AcDbLine
 10
8834.71971368395
 20
2597.272860752938
 30
0.0
 11
8861.386380350618
 21
2551.084839419607
 31
0.0
  0
LINE
  5
17E90
330
17CD8
100
AcDbEntity
  8
HATCH
100
AcDbLine
 10
9008.053047017282
 20
2551.084839419607
 30
0.0
 11
9100.429089683949
 21
2711.084839419607
 31
0.0
  0
LINE
  5
17E91
330
17CD8
100
AcDbEntity
  8
HATCH
100
AcDbLine
 10
9047.095756350616
 20
2711.084839419607
 30
0.0
 11
9073.762423017281
 21
2664.896816752943
 31
0.0
  0
LINE
  5
17E92
330
17CD8
100
AcDbEntity
  8
HATCH
100
AcDbLine
 10
9034.719713683948
 20
2597.272860752938
 30
0.0
 11
9061.386380350617
 21
2551.084839419607
 31
0.0
  0
LINE
  5
17E93
330
17CD8
100
AcDbEntity
  8
HATCH
100
AcDbLine
 10
7847.095756350616
 20
2711.084839419607
 30
0.0
 11
7873.762423017281
 21
2664.896816752943
 31
0.0
  0
LINE
  5
17E94
330
17CD8
100
AcDbEntity
  8
HATCH
100
AcDbLine
 10
7808.053047017286
 20
2551.084839419607
 30
0.0
 11
7900.429089683949
 21
2711.084839419607
 31
0.0
  0
LINE
  5
17E95
330
17CD8
100
AcDbEntity
  8
HATCH
100
AcDbLine
 10
7834.719713683951
 20
2597.272860752938
 30
0.0
 11
7861.386380350618
 21
2551.084839419607
 31
0.0
  0
LINE
  5
17E96
330
17CD8
100
AcDbEntity
  8
SUNPOU
100
AcDbLine
 10
8580.123251791111
 20
4130.485411556196
 30
0.0
 11
10005.35375904135
 21
4130.485411556196
 31
0.0
  0
TEXT
  5
17E97
330
17CD8
100
AcDbEntity
  8
SUNPOU
100
AcDbText
 10
9361.665236645858
 20
4175.485411556197
 30
0.0
 40
90.0
  1
1800
 41
0.6666666666666666
  7
00
 72
     4
 11
9480.236665217288
 21
4220.485411556196
 31
0.0
100
AcDbText
  0
TEXT
  5
17E98
330
17CD8
100
AcDbEntity
  8
SUNPOU
100
AcDbText
 10
6850.387716656114
 20
3511.684839419609
 30
0.0
 40
90.0
  1
G.L
 41
0.6700000000000001
  7
01
 72
     4
 11
6922.173430941829
 21
3556.684839419608
 31
0.0
100
AcDbText
  0
LINE
  5
17E99
330
17CD8
100
AcDbEntity
  8
SUNPOU
100
AcDbLine
 10
6974.134955168897
 20
3466.684839419608
 30
0.0
 11
6870.211906714764
 21
3466.684839419608
 31
0.0
  0
LINE
  5
17E9A
330
17CD8
100
AcDbEntity
  8
SUNPOU
100
AcDbLine
 10
6870.211906714764
 20
3466.684839419608
 30
0.0
 11
6922.173430941829
 21
3376.684839419608
 31
0.0
  0
LINE
  5
17E9B
330
17CD8
100
AcDbEntity
  8
SUNPOU
100
AcDbLine
 10
6922.173430941829
 20
3376.684839419608
 30
0.0
 11
6974.134955168897
 21
3466.684839419608
 31
0.0
  0
LINE
  5
17E9C
330
17CD8
100
AcDbEntity
  8
U3
100
AcDbLine
 10
7134.287858546611
 20
3376.684839419603
 30
0.0
 11
7302.287858546612
 21
3208.684839419607
 31
0.0
  0
LINE
  5
17E9D
330
17CD8
100
AcDbEntity
  8
U3
100
AcDbLine
 10
7083.376170301177
 20
3325.773151174173
 30
0.0
 11
7200.464482055746
 21
3208.684839419603
 31
0.0
  0
LINE
  5
17E9E
330
17CD8
100
AcDbEntity
  8
U3
100
AcDbLine
 10
7370.146296056971
 20
3376.684839419604
 30
0.0
 11
6798.287858546611
 21
3376.684839419604
 31
0.0
  0
LINE
  5
17E9F
330
17CD8
100
AcDbEntity
  8
U3
100
AcDbLine
 10
6864.464482055746
 20
3310.508215910466
 30
0.0
 11
6930.64110556488
 21
3376.684839419601
 31
0.0
  0
LINE
  5
17EA0
330
17CD8
100
AcDbEntity
  8
U3
100
AcDbLine
 10
6798.287858546611
 20
3376.684839419601
 30
0.0
 11
6966.287858546611
 21
3208.684839419606
 31
0.0
  0
LINE
  5
17EA1
330
17CD8
100
AcDbEntity
  8
U3
100
AcDbLine
 10
6915.376170301178
 20
3259.596527665037
 30
0.0
 11
7032.464482055747
 21
3376.684839419601
 31
0.0
  0
LINE
  5
17EA2
330
17CD8
100
AcDbEntity
  8
U3
100
AcDbLine
 10
6966.287858546611
 20
3208.684839419606
 30
0.0
 11
7134.287858546611
 21
3376.684839419603
 31
0.0
  0
LINE
  5
17EA3
330
17CD8
100
AcDbEntity
  8
U3
100
AcDbLine
 10
7032.464482055747
 20
3274.86146292874
 30
0.0
 11
7098.641105564884
 21
3208.684839419603
 31
0.0
  0
LINE
  5
17EA4
330
17CD8
100
AcDbEntity
  8
U3
100
AcDbLine
 10
7302.287858546612
 20
3208.684839419607
 30
0.0
 11
7370.146296056971
 21
3276.543276929964
 31
0.0
  0
LINE
  5
17EA5
330
17CD8
100
AcDbEntity
  8
U3
100
AcDbLine
 10
7200.464482055746
 20
3310.508215910469
 30
0.0
 11
7266.641105564882
 21
3376.684839419603
 31
0.0
  0
LINE
  5
17EA6
330
17CD8
100
AcDbEntity
  8
U3
100
AcDbLine
 10
7251.376170301178
 20
3259.596527665038
 30
0.0
 11
7368.464482055746
 21
3376.684839419603
 31
0.0
  0
LINE
  5
17EA7
330
17CD8
100
AcDbEntity
  8
U3
100
AcDbLine
 10
8260.12325179111
 20
3376.684839419604
 30
0.0
 11
7690.146296056967
 21
3376.684839419603
 31
0.0
  0
LINE
  5
17EA8
330
17CD8
100
AcDbEntity
  8
U3
100
AcDbLine
 10
7879.109073933235
 20
3310.508215910469
 30
0.0
 11
7940.12325179111
 21
3371.522393768344
 31
0.0
  0
LINE
  5
17EA9
330
17CD8
100
AcDbEntity
  8
U3
100
AcDbLine
 10
7812.932450424101
 20
3376.684839419603
 30
0.0
 11
7940.12325179111
 21
3249.494038052592
 31
0.0
  0
LINE
  5
17EAA
330
17CD8
100
AcDbEntity
  8
U3
100
AcDbLine
 10
7756.091543423494
 20
3331.702369929347
 30
0.0
 11
7879.109073933242
 21
3208.684839419603
 31
0.0
  0
LINE
  5
17EAB
330
17CD8
100
AcDbEntity
  8
U3
100
AcDbLine
 10
7705.179855178061
 20
3280.790681683919
 30
0.0
 11
7777.285697442379
 21
3208.684839419603
 31
0.0
  0
LINE
  5
17EAC
330
17CD8
100
AcDbEntity
  8
U3
100
AcDbLine
 10
7690.146296056967
 20
3265.757122562824
 30
0.0
 11
7801.074012913748
 21
3376.684839419601
 31
0.0
  0
LINE
  5
17EAD
330
17CD8
100
AcDbEntity
  8
HIKIDASHI
100
AcDbLine
 10
9726.620021984601
 20
3920.485411556196
 30
0.0
 11
9357.853645156977
 21
3920.485411556196
 31
0.0
  0
TEXT
  5
17EAE
330
17CD8
100
AcDbEntity
  8
HIKIDASHI
100
AcDbText
 10
9390.92125274889
 20
3965.485411556194
 30
0.0
 40
90.0
  1
土　間
  7
01
 72
     2
 11
9684.921252748893
 21
4010.485411556194
 31
0.0
100
AcDbText
 73
     2
  0
TEXT
  5
17EAF
330
17CD8
100
AcDbEntity
  8
SUNPOU
100
AcDbText
 10
9478.587586282396
 20
3591.684839419605
 30
0.0
 40
90.0
  1
F.L
 41
0.6666666666666666
  7
00
 72
     4
 11
9547.159014853825
 21
3636.684839419604
 31
0.0
100
AcDbText
  0
LINE
  5
17EB0
330
17CD8
100
AcDbEntity
  8
SUNPOU
100
AcDbLine
 10
9547.159014853825
 20
3456.684839419605
 30
0.0
 11
9599.120539080891
 21
3546.684839419604
 31
0.0
  0
LINE
  5
17EB1
330
17CD8
100
AcDbEntity
  8
SUNPOU
100
AcDbLine
 10
9495.197490626756
 20
3546.684839419604
 30
0.0
 11
9547.159014853825
 21
3456.684839419605
 31
0.0
  0
LINE
  5
17EB2
330
17CD8
100
AcDbEntity
  8
SUNPOU
100
AcDbLine
 10
9599.120539080891
 20
3546.684839419604
 30
0.0
 11
9495.197490626756
 21
3546.684839419604
 31
0.0
  0
TEXT
  5
17EB3
330
17CD8
100
AcDbEntity
  8
HIKIDASHI
100
AcDbText
 10
7011.426786787378
 20
1814.878869270352
 30
0.0
 40
89.55223880597014
  1
x
 41
0.6700000000000001
  7
00
100
AcDbText
  0
TEXT
  5
17EB4
330
17CD8
100
AcDbEntity
  8
HIKIDASHI
100
AcDbText
 10
6939.591849597005
 20
1803.088394027939
 30
0.0
 40
67.16417910447761
  1
2
 41
0.6700000000000001
  7
00
100
AcDbText
  0
TEXT
  5
17EB5
330
17CD8
100
AcDbEntity
  8
HIKIDASHI
100
AcDbText
 10
6851.699813038081
 20
1830.1144490585
 30
0.0
 40
67.16417910447761
  1
1
 41
0.6700000000000001
  7
00
100
AcDbText
  0
TEXT
  5
17EB6
330
17CD8
100
AcDbEntity
  8
HIKIDASHI
100
AcDbText
 10
6777.099002354859
 20
1803.684839419606
 30
0.0
 40
89.55223880597014
  1
W ／
 41
0.6700000000000001
  7
00
100
AcDbText
  0
TEXT
  5
17EB7
330
17CD8
100
AcDbEntity
  8
HIKIDASHI
100
AcDbText
 10
7092.562165940511
 20
1803.475853219515
 30
0.0
 40
89.55223880597014
  1
300
 41
0.6700000000000001
  7
00
100
AcDbText
  0
TEXT
  5
17EB8
330
17CD8
100
AcDbEntity
  8
HIKIDASHI
100
AcDbText
 10
6777.099002354859
 20
1983.684839419604
 30
0.0
 40
90.0
  1
アンカーボルト
  7
01
100
AcDbText
  0
LINE
  5
17EB9
330
17CD8
100
AcDbEntity
  8
HIKIDASHI
100
AcDbLine
 10
6748.019393493152
 20
1938.684839419604
 30
0.0
 11
7568.025406890003
 21
1938.684839419604
 31
0.0
  0
TEXT
  5
17EBA
330
17CD8
100
AcDbEntity
  8
HIKIDASHI
100
AcDbText
 10
8262.30957517332
 20
1664.635820576939
 30
0.0
 40
90.0
  1
B  ~  B'
 41
0.6700000000000001
  7
00
100
AcDbText
  0
LINE
  5
17EBB
330
17CD8
100
AcDbEntity
  8
HIKIDASHI
100
AcDbLine
 10
8232.309575173323
 20
1589.635820576939
 30
0.0
 11
8927.93692840889
 21
1589.635820576939
 31
0.0
  0
LINE
  5
17EBC
330
17CD8
100
AcDbEntity
  8
HIKIDASHI
100
AcDbLine
 10
8232.309575173323
 20
1619.635820576939
 30
0.0
 11
8927.93692840889
 21
1619.635820576939
 31
0.0
  0
TEXT
  5
17EBD
330
17CD8
100
AcDbEntity
  8
HIKIDASHI
100
AcDbText
 10
8656.326854669883
 20
1664.635820576939
 30
0.0
 40
90.0
  1
断 面
  7
01
100
AcDbText
  0
LINE
  5
17EBE
330
17CD8
100
AcDbEntity
  8
1PL-S1
100
AcDbLine
 10
11225.33837406209
 20
2700.144344053149
 30
0.0
 11
11857.33837406209
 21
2700.144344053149
 31
0.0
  0
LINE
  5
17EBF
330
17CD8
100
AcDbEntity
  8
U1
100
AcDbLine
 10
11391.3383740621
 20
3642.337036584561
 30
0.0
 11
11391.3383740621
 21
4026.401575763828
 31
0.0
  0
LINE
  5
17EC0
330
17CD8
100
AcDbEntity
  8
U1
100
AcDbLine
 10
11691.33837406209
 20
3642.337036584561
 30
0.0
 11
11691.33837406209
 21
4026.401575763828
 31
0.0
  0
LINE
  5
17EC1
330
17CD8
100
AcDbEntity
  8
1PL-S1
100
AcDbLine
 10
11541.33837406209
 20
3578.337036584561
 30
0.0
 11
11541.33837406209
 21
4066.401575763828
 31
0.0
  0
CIRCLE
  5
17EC2
330
17CD8
100
AcDbEntity
  8
U1
100
AcDbCircle
 10
11541.33837406209
 20
3886.33703658456
 30
0.0
 40
24.0
  0
LINE
  5
17EC3
330
17CD8
100
AcDbEntity
  8
1PL-S1
100
AcDbLine
 10
11301.33837406209
 20
2624.144344053149
 30
0.0
 11
11301.33837406209
 21
2776.144344053149
 31
0.0
  0
LINE
  5
17EC4
330
17CD8
100
AcDbEntity
  8
1PL-S1
100
AcDbLine
 10
11781.33837406209
 20
2624.144344053149
 30
0.0
 11
11781.33837406209
 21
2776.144344053149
 31
0.0
  0
LINE
  5
17EC5
330
17CD8
100
AcDbEntity
  8
1PL-S1
100
AcDbLine
 10
11541.33837406209
 20
2500.144344053149
 30
0.0
 11
11541.33837406209
 21
2900.144344053149
 31
0.0
  0
CIRCLE
  5
17EC6
330
17CD8
100
AcDbEntity
  8
U1
100
AcDbCircle
 10
11301.33837406209
 20
2700.144344053149
 30
0.0
 40
36.0
  0
LINE
  5
17EC7
330
17CD8
100
AcDbEntity
  8
U1
100
AcDbLine
 10
11691.33837406209
 20
2700.144344053149
 30
0.0
 11
11612.31129530375
 21
2700.144344053149
 31
0.0
  0
CIRCLE
  5
17EC8
330
17CD8
100
AcDbEntity
  8
U1
100
AcDbCircle
 10
11781.33837406209
 20
2700.144344053149
 30
0.0
 40
36.0
  0
LINE
  5
17EC9
330
17CD8
100
AcDbEntity
  8
1PL-S1
100
AcDbLine
 10
11477.33837406209
 20
3726.33703658456
 30
0.0
 11
11605.33837406209
 21
3726.33703658456
 31
0.0
  0
LINE
  5
17ECA
330
17CD8
100
AcDbEntity
  8
1PL-S1
100
AcDbLine
 10
11301.33837406211
 20
3578.337036584561
 30
0.0
 11
11301.33837406209
 21
3682.337036584561
 31
0.0
  0
LINE
  5
17ECB
330
17CD8
100
AcDbEntity
  8
1PL-S1
100
AcDbLine
 10
11781.33837406209
 20
3578.337036584561
 30
0.0
 11
11781.33837406209
 21
3682.337036584561
 31
0.0
  0
CIRCLE
  5
17ECC
330
17CD8
100
AcDbEntity
  8
U1
100
AcDbCircle
 10
11541.33837406209
 20
3726.33703658456
 30
0.0
 40
24.0
  0
LINE
  5
17ECD
330
17CD8
100
AcDbEntity
  8
1PL-S1
100
AcDbLine
 10
11477.33837406209
 20
3886.33703658456
 30
0.0
 11
11605.33837406209
 21
3886.33703658456
 31
0.0
  0
TEXT
  5
17ECE
330
17CD8
100
AcDbEntity
  8
SUNPOU
100
AcDbText
 10
10750.05141017947
 20
1674.586261835072
 30
0.0
 40
120.0
  1
柱脚金具詳細図
  7
01
 72
     4
 11
11234.05141017947
 21
1734.586261835072
 31
0.0
100
AcDbText
  0
TEXT
  5
17ECF
330
17CD8
100
AcDbEntity
  8
SUNPOU
100
AcDbText
 10
12146.16023934792
 20
1672.124723373534
 30
0.0
 40
73.84615384615384
  1
/
 41
0.6700000000000001
  7
00
 11
12146.16023934792
 21
1662.27856952738
 31
0.0
100
AcDbText
 73
     1
  0
TEXT
  5
17ED0
330
17CD8
100
AcDbEntity
  8
SUNPOU
100
AcDbText
 10
12210.1096823023
 20
1653.663184911995
 30
0.0
 40
73.84615384615384
  1
10
 41
0.6700000000000001
  7
00
 11
12210.1096823023
 21
1643.817031065841
 31
0.0
100
AcDbText
 73
     1
  0
TEXT
  5
17ED1
330
17CD8
100
AcDbEntity
  8
SUNPOU
100
AcDbText
 10
12097.75411203255
 20
1690.586261835072
 30
0.0
 40
73.84615384615384
  1
1
 41
0.6700000000000001
  7
00
 11
12097.75411203255
 21
1680.740107988918
 31
0.0
100
AcDbText
 73
     1
  0
TEXT
  5
17ED2
330
17CD8
100
AcDbEntity
  8
SUNPOU
100
AcDbText
 10
11778.05141017947
 20
1674.586261835072
 30
0.0
 40
92.30769230769228
  1
（ S = 　　  ）
 41
0.6700000000000001
  7
00
 11
11778.05141017947
 21
1662.27856952738
 31
0.0
100
AcDbText
 73
     1
  0
LINE
  5
17ED3
330
17CD8
100
AcDbEntity
  8
HIKIDASHI
100
AcDbLine
 10
12073.23363223807
 20
3067.661600164834
 30
0.0
 11
12657.27442780204
 21
3067.661600164834
 31
0.0
  0
TEXT
  5
17ED4
330
17CD8
100
AcDbEntity
  8
HIKIDASHI
100
AcDbText
 10
12092.52363003481
 20
3112.661600164834
 30
0.0
 40
90.0
  1
プレ－ト
  7
01
 72
     2
 11
12482.5236300348
 21
3112.661600164834
 31
0.0
100
AcDbText
  0
TEXT
  5
17ED5
330
17CD8
100
AcDbEntity
  8
HIKIDASHI
100
AcDbText
 10
12520.97881071722
 20
3112.661600164834
 30
0.0
 40
90.0
  1
6
 41
0.6666666666666666
  7
00
 72
     2
 11
12569.55023928865
 21
3112.661600164834
 31
0.0
100
AcDbText
  0
TEXT
  5
17ED6
330
17CD8
100
AcDbEntity
  8
HIKIDASHI
100
AcDbText
 10
12606.97646118922
 20
3126.647348600799
 30
0.0
 40
89.99999909999997
  1
t
 41
0.6700000000000001
  7
00
100
AcDbText
  0
TEXT
  5
17ED7
330
17CD8
100
AcDbEntity
  8
SUNPOU
100
AcDbText
 10
5757.491760556316
 20
2578.884705856377
 30
0.0
 40
90.0
  1
5-D13×5-D13
 41
0.6700000000000001
  7
01
 72
     4
 11
6100.914617699173
 21
2623.884705856377
 31
0.0
100
AcDbText
  0
TEXT
  5
17ED8
330
17CD8
100
AcDbEntity
  8
SUNPOU
100
AcDbText
 10
5892.60747484203
 20
2713.884705856377
 30
0.0
 40
90.0
  1
ベース筋
  7
01
 72
     4
 11
6096.60747484203
 21
2758.884705856377
 31
0.0
100
AcDbText
  0
TEXT
  5
17ED9
330
17CD8
100
AcDbEntity
  8
SUNPOU
100
AcDbText
 10
9537.817961079962
 20
2578.884705856383
 30
0.0
 40
90.0
  1
5-D13×5-D13
 41
0.6700000000000001
  7
01
 72
     4
 11
9881.240818222821
 21
2623.884705856383
 31
0.0
100
AcDbText
  0
TEXT
  5
17EDA
330
17CD8
100
AcDbEntity
  8
SUNPOU
100
AcDbText
 10
9672.933675365676
 20
2713.884705856383
 30
0.0
 40
90.0
  1
ベース筋
  7
01
 72
     4
 11
9876.933675365677
 21
2758.884705856383
 31
0.0
100
AcDbText
  0
LINE
  5
17EDB
330
17CD8
100
AcDbEntity
  8
KISO
100
AcDbLine
 10
4159.797051267463
 20
3456.684839419605
 30
0.0
 11
4159.797051267463
 21
2711.084839419601
 31
0.0
  0
LINE
  5
17EDC
330
17CD8
100
AcDbEntity
  8
HATCH
100
AcDbLine
 10
5427.726846493639
 20
2551.084839419601
 30
0.0
 11
5520.102889160304
 21
2711.084839419601
 31
0.0
  0
LINE
  5
17EDD
330
17CD8
100
AcDbEntity
  8
HATCH
100
AcDbLine
 10
5466.769555826971
 20
2711.084839419601
 30
0.0
 11
5493.436222493635
 21
2664.896816752937
 31
0.0
  0
LINE
  5
17EDE
330
17CD8
100
AcDbEntity
  8
HATCH
100
AcDbLine
 10
5454.393513160304
 20
2597.272860752933
 30
0.0
 11
5481.060179826972
 21
2551.084839419601
 31
0.0
  0
LINE
  5
17EDF
330
17CD8
100
AcDbEntity
  8
HATCH
100
AcDbLine
 10
9208.05304701728
 20
2551.084839419611
 30
0.0
 11
9300.42908968395
 21
2711.084839419611
 31
0.0
  0
LINE
  5
17EE0
330
17CD8
100
AcDbEntity
  8
HATCH
100
AcDbLine
 10
9247.09575635061
 20
2711.084839419611
 30
0.0
 11
9273.762423017281
 21
2664.896816752948
 31
0.0
  0
LINE
  5
17EE1
330
17CD8
100
AcDbEntity
  8
HATCH
100
AcDbLine
 10
9234.719713683949
 20
2597.272860752942
 30
0.0
 11
9261.386380350613
 21
2551.084839419611
 31
0.0
  0
LINE
  5
17EE2
330
17CD8
100
AcDbEntity
  8
SUNPOU
100
AcDbLine
 10
7229.127507899637
 20
9258.243182432329
 30
0.0
 11
7019.127507899643
 21
9258.243182432329
 31
0.0
  0
LINE
  5
17EE3
330
17CD8
100
AcDbEntity
  8
SUNPOU
100
AcDbLine
 10
7019.127507899643
 20
9258.243182432325
 30
0.0
 11
7019.127507899643
 21
9108.243182432325
 31
0.0
  0
TEXT
  5
17EE4
330
17CD8
100
AcDbEntity
  8
SUNPOU
100
AcDbText
 10
7358.08211487726
 20
9204.671753860896
 30
0.0
 40
90.0
  1
B'
 41
0.6700000000000001
  7
00
 72
     4
 11
7402.589257734404
 21
9258.243182432325
 31
0.0
100
AcDbText
  0
LINE
  5
17EE5
330
17CD8
100
AcDbEntity
  8
SUNPOU
100
AcDbLine
 10
7229.127507899637
 20
8158.243182432327
 30
0.0
 11
7019.127507899643
 21
8158.243182432327
 31
0.0
  0
LINE
  5
17EE6
330
17CD8
100
AcDbEntity
  8
SUNPOU
100
AcDbLine
 10
7019.127507899643
 20
8158.243182432324
 30
0.0
 11
7019.127507899643
 21
8308.243182432326
 31
0.0
  0
TEXT
  5
17EE7
330
17CD8
100
AcDbEntity
  8
SUNPOU
100
AcDbText
 10
7371.00354344869
 20
8113.243182432324
 30
0.0
 40
90.0
  1
B
 41
0.6700000000000001
  7
00
 72
     4
 11
7402.589257734404
 21
8158.243182432324
 31
0.0
100
AcDbText
  0
TEXT
  5
17EE8
330
17CD8
100
AcDbEntity
  8
HIKIDASHI
100
AcDbText
 10
12286.64239875644
 20
2290.804976716086
 30
0.0
 40
90.0
  1
2
 41
0.6666666666666666
  7
00
100
AcDbText
  0
TEXT
  5
17EE9
330
17CD8
100
AcDbEntity
  8
HIKIDASHI
100
AcDbText
 10
12365.21382732787
 20
2305.804976716085
 30
0.0
 40
90.0
  1
ｹ
  7
01
100
AcDbText
  0
TEXT
  5
17EEA
330
17CD8
100
AcDbEntity
  8
HIKIDASHI
100
AcDbText
 10
12446.21382732787
 20
2290.804976716086
 30
0.0
 40
90.0
  1
-
 41
0.6666666666666666
  7
00
100
AcDbText
  0
TEXT
  5
17EEB
330
17CD8
100
AcDbEntity
  8
HIKIDASHI
100
AcDbText
 10
12554.07097018501
 20
2290.804976716086
 30
0.0
 40
90.0
  1
18
 41
0.6666666666666666
  7
00
100
AcDbText
  0
TEXT
  5
17EEC
330
17CD8
100
AcDbEntity
  8
HIKIDASHI
100
AcDbText
 10
12689.78525589929
 20
2305.804976716085
 30
0.0
 40
90.0
  1
%%c
 41
0.6666666666666666
  7
00
100
AcDbText
  0
TEXT
  5
17EED
330
17CD8
100
AcDbEntity
  8
HIKIDASHI
100
AcDbText
 10
12765.49954161357
 20
2290.804976716086
 30
0.0
 40
90.0
  1
孔
  7
01
100
AcDbText
  0
LINE
  5
17EEE
330
17CD8
100
AcDbEntity
  8
HIKIDASHI
100
AcDbLine
 10
12256.64239875644
 20
2245.804976716085
 30
0.0
 11
12879.49954161357
 21
2245.804976716085
 31
0.0
  0
TEXT
  5
17EEF
330
17CD8
100
AcDbEntity
  8
FILENAME
100
AcDbText
 10
13873.42857142857
 20
174.0
 30
0.0
 40
100.0
  1
＜YOKC-280-A1_3_JIS_GL.DXF ＞
  7
FILENAME
 72
     2
 11
16382.0
 21
174.0
 31
0.0
100
AcDbText
  0
LINE
  5
17EF0
330
17CD8
100
AcDbEntity
  8
WAKUSEN-01
100
AcDbLine
 10
434.0000000000008
 20
413.9999999999997
 30
0.0
 11
16382.0
 21
413.9999999999997
 31
0.0
  0
LINE
  5
17EF1
330
17CD8
100
AcDbEntity
  8
WAKUSEN-01
100
AcDbLine
 10
434.0000000000008
 20
11242.0
 30
0.0
 11
16382.0
 21
11242.0
 31
0.0
  0
LINE
  5
17EF2
330
17CD8
100
AcDbEntity
  8
WAKUSEN-01
100
AcDbLine
 10
434.0000000000008
 20
413.9999999999997
 30
0.0
 11
434.0000000000008
 21
11242.0
 31
0.0
  0
LINE
  5
17EF3
330
17CD8
100
AcDbEntity
  8
WAKUSEN-01
100
AcDbLine
 10
16382.0
 20
413.9999999999997
 30
0.0
 11
16382.0
 21
11242.0
 31
0.0
  0
LINE
  5
17EF4
330
17CD8
100
AcDbEntity
  8
WAKUSEN-01
100
AcDbLine
 10
10280.0
 20
1242.0
 30
0.0
 11
16382.0
 21
1242.0
 31
0.0
  0
LINE
  5
17EF5
330
17CD8
100
AcDbEntity
  8
WAKUSEN-02
100
AcDbLine
 10
10280.0
 20
827.9999999999997
 30
0.0
 11
13434.0
 21
827.9999999999997
 31
0.0
  0
TEXT
  5
17EF6
330
17CD8
100
AcDbEntity
  8
WAKUMOJI-01
100
AcDbText
 10
10335.13012998137
 20
1062.951504669661
 30
0.0
 40
120.0
  1
名　称
  7
WAKUMOJI
100
AcDbText
  0
TEXT
  5
17EF7
330
17CD8
100
AcDbEntity
  8
WAKUMOJI-01
100
AcDbText
 10
10328.25274254596
 20
659.5644874899107
 30
0.0
 40
120.0
  1
機種名
  7
WAKUMOJI
100
AcDbText
  0
LINE
  5
17EF8
330
17CD8
100
AcDbEntity
  8
WAKUSEN-01
100
AcDbLine
 10
10280.0
 20
413.9999999999985
 30
0.0
 11
10280.0
 21
1242.0
 31
0.0
  0
LINE
  5
17EF9
330
17CD8
100
AcDbEntity
  8
WAKUSEN-02
100
AcDbLine
 10
13434.0
 20
413.9999999999963
 30
0.0
 11
13434.0
 21
1242.0
 31
0.0
  0
LINE
  5
17EFA
330
17CD8
100
AcDbEntity
  8
YODOROGO
100
AcDbLine
 10
14988.80217064596
 20
997.8747482146435
 30
0.0
 11
14914.80217064596
 21
997.8747482146435
 31
0.0
1001
AUTOCAD_POSTSCRIPT_FIGURE
1002
{
1000
PSFILL
1000
Grayscale
1000
Grayscale
1070
    25
1002
}
  0
LINE
  5
17EFB
330
17CD8
100
AcDbEntity
  8
YODOROGO
100
AcDbLine
 10
14914.80217064596
 20
973.8747482146434
 30
0.0
 11
14988.80217064596
 21
973.8747482146434
 31
0.0
1001
AUTOCAD_POSTSCRIPT_FIGURE
1002
{
1000
PSFILL
1000
Grayscale
1000
Grayscale
1070
    25
1002
}
  0
LINE
  5
17EFC
330
17CD8
100
AcDbEntity
  8
YODOROGO
100
AcDbLine
 10
14988.80217064596
 20
953.874748214644
 30
0.0
 11
14914.80217064596
 21
953.874748214644
 31
0.0
1001
AUTOCAD_POSTSCRIPT_FIGURE
1002
{
1000
PSFILL
1000
Grayscale
1000
Grayscale
1070
    25
1002
}
  0
LINE
  5
17EFD
330
17CD8
100
AcDbEntity
  8
YODOROGO
100
AcDbLine
 10
14914.80217064596
 20
929.874748214644
 30
0.0
 11
14988.80217064596
 21
929.874748214644
 31
0.0
1001
AUTOCAD_POSTSCRIPT_FIGURE
1002
{
1000
PSFILL
1000
Grayscale
1000
Grayscale
1070
    25
1002
}
  0
LINE
  5
17EFE
330
17CD8
100
AcDbEntity
  8
YODOROGO
100
AcDbLine
 10
14988.80217064596
 20
909.8747482146439
 30
0.0
 11
14914.80217064596
 21
909.8747482146439
 31
0.0
1001
AUTOCAD_POSTSCRIPT_FIGURE
1002
{
1000
PSFILL
1000
Grayscale
1000
Grayscale
1070
    25
1002
}
  0
LINE
  5
17EFF
330
17CD8
100
AcDbEntity
  8
YODOROGO
100
AcDbLine
 10
14960.80217064594
 20
853.874748214644
 30
0.0
 11
14988.80217064596
 21
853.874748214644
 31
0.0
1001
AUTOCAD_POSTSCRIPT_FIGURE
1002
{
1000
PSFILL
1000
Grayscale
1000
Grayscale
1070
    25
1002
}
  0
LINE
  5
17F00
330
17CD8
100
AcDbEntity
  8
YODOROGO
100
AcDbLine
 10
14868.80217064596
 20
713.8747482146436
 30
0.0
 11
14968.80217064596
 21
740.6696674577553
 31
0.0
  0
LINE
  5
17F01
330
17CD8
100
AcDbEntity
  8
YODOROGO
100
AcDbLine
 10
14974.80217064595
 20
853.874748214644
 30
0.0
 11
14942.80217064596
 21
853.874748214644
 31
0.0
  0
ARC
  5
17F02
330
17CD8
100
AcDbEntity
  8
YODOROGO
100
AcDbCircle
 10
15127.17387491394
 20
903.9323046166312
 30
0.0
 40
190.9434321028236
100
AcDbArc
 50
213.9611167766784
 51
264.4787207431779
  0
ARC
  5
17F03
330
17CD8
100
AcDbEntity
  8
YODOROGO
100
AcDbCircle
 10
15127.17387491396
 20
903.9323046166513
 30
0.0
 40
190.9434321028408
100
AcDbArc
 50
208.141144204866
 51
212.9210361185994
  0
LINE
  5
17F04
330
17CD8
100
AcDbEntity
  8
YODOROGO
100
AcDbLine
 10
14885.70493649264
 20
778.403830673117
 30
0.0
 11
14966.89206625426
 21
800.1578565285436
 31
0.0
  0
LINE
  5
17F05
330
17CD8
100
AcDbEntity
  8
YODOROGO
100
AcDbLine
 10
14868.80217064596
 20
713.8747482146436
 30
0.0
 11
14968.80217064596
 21
740.6696674577553
 31
0.0
  0
LINE
  5
17F06
330
17CD8
100
AcDbEntity
  8
YODOROGO
100
AcDbLine
 10
14974.80217064595
 20
853.874748214644
 30
0.0
 11
14942.80217064596
 21
853.874748214644
 31
0.0
  0
ARC
  5
17F07
330
17CD8
100
AcDbEntity
  8
YODOROGO
100
AcDbCircle
 10
15127.17387491394
 20
903.9323046166312
 30
0.0
 40
190.9434321028236
100
AcDbArc
 50
213.9611167766784
 51
264.4787207431779
  0
LINE
  5
17F08
330
17CD8
100
AcDbEntity
  8
YODOROGO
100
AcDbLine
 10
14396.80217064594
 20
909.8747482146439
 30
0.0
 11
14216.80217064594
 21
909.8747482146439
 31
0.0
  0
LINE
  5
17F09
330
17CD8
100
AcDbEntity
  8
YODOROGO
100
AcDbLine
 10
14256.80217064594
 20
713.8747482146436
 30
0.0
 11
14396.80217064594
 21
713.8747482146436
 31
0.0
  0
LINE
  5
17F0A
330
17CD8
100
AcDbEntity
  8
YODOROGO
100
AcDbLine
 10
14364.80217064596
 20
961.8747482146432
 30
0.0
 11
14248.80217064594
 21
961.8747482146432
 31
0.0
  0
LINE
  5
17F0B
330
17CD8
100
AcDbEntity
  8
YODOROGO
100
AcDbLine
 10
14292.80217064596
 20
1013.874748214644
 30
0.0
 11
14328.80217064596
 21
1013.874748214644
 31
0.0
  0
LINE
  5
17F0C
330
17CD8
100
AcDbEntity
  8
YODOROGO
100
AcDbLine
 10
14216.80217064594
 20
853.874748214644
 30
0.0
 11
14216.80217064594
 21
753.8747482146439
 31
0.0
  0
LINE
  5
17F0D
330
17CD8
100
AcDbEntity
  8
YODOROGO
100
AcDbLine
 10
14248.80217064594
 20
781.8747482146434
 30
0.0
 11
14248.80217064594
 21
853.874748214644
 31
0.0
  0
LINE
  5
17F0E
330
17CD8
100
AcDbEntity
  8
YODOROGO
100
AcDbLine
 10
14292.80217064596
 20
873.8747482146449
 30
0.0
 11
14292.80217064596
 21
773.874748214644
 31
0.0
  0
LINE
  5
17F0F
330
17CD8
100
AcDbEntity
  8
YODOROGO
100
AcDbLine
 10
13928.80217064596
 20
841.8747482146445
 30
0.0
 11
13888.80217064596
 21
809.9862070222856
 31
0.0
  0
LINE
  5
17F10
330
17CD8
100
AcDbEntity
  8
YODOROGO
100
AcDbLine
 10
13968.80217064596
 20
809.9862070222856
 30
0.0
 11
13928.80217064596
 21
841.8747482146445
 31
0.0
  0
LINE
  5
17F11
330
17CD8
100
AcDbEntity
  8
YODOROGO
100
AcDbLine
 10
13928.80217064596
 20
853.874748214644
 30
0.0
 11
13968.80217064596
 21
821.986207022285
 31
0.0
  0
LINE
  5
17F12
330
17CD8
100
AcDbEntity
  8
YODOROGO
100
AcDbLine
 10
13888.80217064596
 20
821.986207022285
 30
0.0
 11
13928.80217064596
 21
853.874748214644
 31
0.0
  0
LINE
  5
17F13
330
17CD8
100
AcDbEntity
  8
YODOROGO
100
AcDbLine
 10
14020.45660200844
 20
829.874748214644
 30
0.0
 11
14020.45660200844
 21
841.8747482146434
 31
0.0
  0
LINE
  5
17F14
330
17CD8
100
AcDbEntity
  8
YODOROGO
100
AcDbLine
 10
13988.80217064596
 20
841.8747482146434
 30
0.0
 11
13988.80217064596
 21
833.8747482146427
 31
0.0
  0
LINE
  5
17F15
330
17CD8
100
AcDbEntity
  8
YODOROGO
100
AcDbLine
 10
14049.06776011545
 20
853.874748214644
 30
0.0
 11
14049.06776011545
 21
827.751818637328
 31
0.0
1001
AUTOCAD_POSTSCRIPT_FIGURE
1002
{
1000
PSFILL
1000
Grayscale
1000
Grayscale
1070
   100
1002
}
  0
LINE
  5
17F16
330
17CD8
100
AcDbEntity
  8
YODOROGO
100
AcDbLine
 10
14041.06776011546
 20
827.751818637328
 30
0.0
 11
14041.06776011546
 21
853.874748214644
 31
0.0
1001
AUTOCAD_POSTSCRIPT_FIGURE
1002
{
1000
PSFILL
1000
Grayscale
1000
Grayscale
1070
   100
1002
}
  0
LINE
  5
17F17
330
17CD8
100
AcDbEntity
  8
YODOROGO
100
AcDbLine
 10
13904.80217064596
 20
804.3859520216292
 30
0.0
 11
13904.80217064596
 21
816.3859520216298
 31
0.0
  0
LINE
  5
17F18
330
17CD8
100
AcDbEntity
  8
YODOROGO
100
AcDbLine
 10
13952.80217064596
 20
804.3859520216292
 30
0.0
 11
13904.80217064596
 21
804.3859520216292
 31
0.0
  0
LINE
  5
17F19
330
17CD8
100
AcDbEntity
  8
YODOROGO
100
AcDbLine
 10
13952.80217064596
 20
816.3859520216298
 30
0.0
 11
13952.80217064596
 21
804.3859520216292
 31
0.0
  0
LINE
  5
17F1A
330
17CD8
100
AcDbEntity
  8
YODOROGO
100
AcDbLine
 10
13904.80217064596
 20
816.3859520216298
 30
0.0
 11
13952.80217064596
 21
816.3859520216298
 31
0.0
  0
LINE
  5
17F1B
330
17CD8
100
AcDbEntity
  8
YODOROGO
100
AcDbLine
 10
13912.25479445787
 20
784.2514286852374
 30
0.0
 11
13892.80217064596
 21
737.8747482146435
 31
0.0
1001
AUTOCAD_POSTSCRIPT_FIGURE
1002
{
1000
PSFILL
1000
Grayscale
1000
Grayscale
1070
   100
1002
}
  0
LINE
  5
17F1C
330
17CD8
100
AcDbEntity
  8
YODOROGO
100
AcDbLine
 10
13888.80217064596
 20
784.2514286852374
 30
0.0
 11
13912.25479445787
 21
784.2514286852374
 31
0.0
1001
AUTOCAD_POSTSCRIPT_FIGURE
1002
{
1000
PSFILL
1000
Grayscale
1000
Grayscale
1070
   100
1002
}
  0
LINE
  5
17F1D
330
17CD8
100
AcDbEntity
  8
YODOROGO
100
AcDbLine
 10
13888.80217064596
 20
794.2514286852374
 30
0.0
 11
13888.80217064596
 21
784.2514286852374
 31
0.0
1001
AUTOCAD_POSTSCRIPT_FIGURE
1002
{
1000
PSFILL
1000
Grayscale
1000
Grayscale
1070
   100
1002
}
  0
LINE
  5
17F1E
330
17CD8
100
AcDbEntity
  8
YODOROGO
100
AcDbLine
 10
13968.80217064596
 20
794.2514286852374
 30
0.0
 11
13888.80217064596
 21
794.2514286852374
 31
0.0
1001
AUTOCAD_POSTSCRIPT_FIGURE
1002
{
1000
PSFILL
1000
Grayscale
1000
Grayscale
1070
   100
1002
}
  0
LINE
  5
17F1F
330
17CD8
100
AcDbEntity
  8
YODOROGO
100
AcDbLine
 10
13968.80217064596
 20
784.2514286852374
 30
0.0
 11
13968.80217064596
 21
794.2514286852374
 31
0.0
1001
AUTOCAD_POSTSCRIPT_FIGURE
1002
{
1000
PSFILL
1000
Grayscale
1000
Grayscale
1070
   100
1002
}
  0
LINE
  5
17F20
330
17CD8
100
AcDbEntity
  8
YODOROGO
100
AcDbLine
 10
13922.25479445786
 20
784.2514286852374
 30
0.0
 11
13968.80217064596
 21
784.2514286852374
 31
0.0
1001
AUTOCAD_POSTSCRIPT_FIGURE
1002
{
1000
PSFILL
1000
Grayscale
1000
Grayscale
1070
   100
1002
}
  0
LINE
  5
17F21
330
17CD8
100
AcDbEntity
  8
YODOROGO
100
AcDbLine
 10
13907.77335914238
 20
747.8747482146435
 30
0.0
 11
13922.25479445786
 21
784.2514286852374
 31
0.0
1001
AUTOCAD_POSTSCRIPT_FIGURE
1002
{
1000
PSFILL
1000
Grayscale
1000
Grayscale
1070
   100
1002
}
  0
LINE
  5
17F22
330
17CD8
100
AcDbEntity
  8
YODOROGO
100
AcDbLine
 10
13951.02739540432
 20
747.8747482146435
 30
0.0
 11
13907.77335914238
 21
747.8747482146435
 31
0.0
1001
AUTOCAD_POSTSCRIPT_FIGURE
1002
{
1000
PSFILL
1000
Grayscale
1000
Grayscale
1070
   100
1002
}
  0
LINE
  5
17F23
330
17CD8
100
AcDbEntity
  8
YODOROGO
100
AcDbLine
 10
13942.53250239547
 20
768.1169053488464
 30
0.0
 11
13951.02739540432
 21
747.8747482146435
 31
0.0
1001
AUTOCAD_POSTSCRIPT_FIGURE
1002
{
1000
PSFILL
1000
Grayscale
1000
Grayscale
1070
   100
1002
}
  0
LINE
  5
17F24
330
17CD8
100
AcDbEntity
  8
YODOROGO
100
AcDbLine
 10
13950.53250239547
 20
768.1169053488464
 30
0.0
 11
13942.53250239547
 21
768.1169053488464
 31
0.0
1001
AUTOCAD_POSTSCRIPT_FIGURE
1002
{
1000
PSFILL
1000
Grayscale
1000
Grayscale
1070
   100
1002
}
  0
LINE
  5
17F25
330
17CD8
100
AcDbEntity
  8
YODOROGO
100
AcDbLine
 10
13964.80217064596
 20
737.8747482146435
 30
0.0
 11
13950.53250239547
 21
768.1169053488464
 31
0.0
1001
AUTOCAD_POSTSCRIPT_FIGURE
1002
{
1000
PSFILL
1000
Grayscale
1000
Grayscale
1070
   100
1002
}
  0
LINE
  5
17F26
330
17CD8
100
AcDbEntity
  8
YODOROGO
100
AcDbLine
 10
13892.80217064596
 20
737.8747482146435
 30
0.0
 11
13964.80217064596
 21
737.8747482146435
 31
0.0
1001
AUTOCAD_POSTSCRIPT_FIGURE
1002
{
1000
PSFILL
1000
Grayscale
1000
Grayscale
1070
   100
1002
}
  0
LINE
  5
17F27
330
17CD8
100
AcDbEntity
  8
YODOROGO
100
AcDbLine
 10
13888.80217064596
 20
809.9862070222856
 30
0.0
 11
13888.80217064596
 21
821.986207022285
 31
0.0
  0
LINE
  5
17F28
330
17CD8
100
AcDbEntity
  8
YODOROGO
100
AcDbLine
 10
13968.80217064596
 20
821.986207022285
 30
0.0
 11
13968.80217064596
 21
809.9862070222856
 31
0.0
  0
ARC
  5
17F29
330
17CD8
100
AcDbEntity
  8
YODOROGO
100
AcDbCircle
 10
14112.97022107348
 20
800.438882662663
 30
0.0
 40
87.99999999999995
100
AcDbArc
 50
280.3644312771313
 51
3.541483659218056
  0
ARC
  5
17F2A
330
17CD8
100
AcDbEntity
  8
YODOROGO
100
AcDbCircle
 10
14117.87801537965
 20
816.798903480952
 30
0.0
 40
55.99999999999914
100
AcDbArc
 50
281.2490582504155
 51
348.7509417495832
  0
LINE
  5
17F2B
330
17CD8
100
AcDbEntity
  8
YODOROGO
100
AcDbLine
 10
14128.80217064596
 20
761.8747482146434
 30
0.0
 11
14128.80217064596
 21
713.8747482146436
 31
0.0
  0
LINE
  5
17F2C
330
17CD8
100
AcDbEntity
  8
YODOROGO
100
AcDbLine
 10
14010.04445186845
 20
805.3252825309574
 30
0.0
 11
14020.45660200844
 21
829.874748214644
 31
0.0
  0
LINE
  5
17F2D
330
17CD8
100
AcDbEntity
  8
YODOROGO
100
AcDbLine
 10
14020.80217064596
 20
791.5602449742006
 30
0.0
 11
14010.04445186845
 21
805.3252825309574
 31
0.0
  0
LINE
  5
17F2E
330
17CD8
100
AcDbEntity
  8
YODOROGO
100
AcDbLine
 10
14020.80217064596
 20
781.5602449741994
 30
0.0
 11
14020.80217064596
 21
791.5602449742006
 31
0.0
  0
LINE
  5
17F2F
330
17CD8
100
AcDbEntity
  8
YODOROGO
100
AcDbLine
 10
14008.80217064596
 20
792.6185318747651
 30
0.0
 11
14020.80217064596
 21
781.5602449741994
 31
0.0
  0
LINE
  5
17F30
330
17CD8
100
AcDbEntity
  8
YODOROGO
100
AcDbLine
 10
14008.80217064596
 20
737.8747482146435
 30
0.0
 11
14008.80217064596
 21
792.6185318747651
 31
0.0
  0
LINE
  5
17F31
330
17CD8
100
AcDbEntity
  8
YODOROGO
100
AcDbLine
 10
14000.80217064596
 20
737.8747482146435
 30
0.0
 11
14008.80217064596
 21
737.8747482146435
 31
0.0
  0
LINE
  5
17F32
330
17CD8
100
AcDbEntity
  8
YODOROGO
100
AcDbLine
 10
14000.80217064596
 20
790.0026748448738
 30
0.0
 11
14000.80217064596
 21
737.8747482146435
 31
0.0
  0
LINE
  5
17F33
330
17CD8
100
AcDbEntity
  8
YODOROGO
100
AcDbLine
 10
13988.80217064596
 20
766.3840395167142
 30
0.0
 11
14000.80217064596
 21
790.0026748448738
 31
0.0
  0
LINE
  5
17F34
330
17CD8
100
AcDbEntity
  8
YODOROGO
100
AcDbLine
 10
13988.80217064596
 20
778.3840395167149
 30
0.0
 11
13988.80217064596
 21
766.3840395167142
 31
0.0
  0
LINE
  5
17F35
330
17CD8
100
AcDbEntity
  8
YODOROGO
100
AcDbLine
 10
14012.91438714567
 20
833.8747482146427
 30
0.0
 11
13988.80217064596
 21
778.3840395167149
 31
0.0
  0
LINE
  5
17F36
330
17CD8
100
AcDbEntity
  8
YODOROGO
100
AcDbLine
 10
13988.80217064596
 20
833.8747482146427
 30
0.0
 11
14012.91438714567
 21
833.8747482146427
 31
0.0
  0
LINE
  5
17F37
330
17CD8
100
AcDbEntity
  8
YODOROGO
100
AcDbLine
 10
14025.06776011545
 20
827.751818637328
 30
0.0
 11
14041.06776011546
 21
827.751818637328
 31
0.0
1001
AUTOCAD_POSTSCRIPT_FIGURE
1002
{
1000
PSFILL
1000
Grayscale
1000
Grayscale
1070
   100
1002
}
  0
LINE
  5
17F38
330
17CD8
100
AcDbEntity
  8
YODOROGO
100
AcDbLine
 10
14025.06776011545
 20
815.7518186373286
 30
0.0
 11
14025.06776011545
 21
827.751818637328
 31
0.0
1001
AUTOCAD_POSTSCRIPT_FIGURE
1002
{
1000
PSFILL
1000
Grayscale
1000
Grayscale
1070
   100
1002
}
  0
LINE
  5
17F39
330
17CD8
100
AcDbEntity
  8
YODOROGO
100
AcDbLine
 10
14041.06776011546
 20
815.7518186373286
 30
0.0
 11
14025.06776011545
 21
815.7518186373286
 31
0.0
1001
AUTOCAD_POSTSCRIPT_FIGURE
1002
{
1000
PSFILL
1000
Grayscale
1000
Grayscale
1070
   100
1002
}
  0
LINE
  5
17F3A
330
17CD8
100
AcDbEntity
  8
YODOROGO
100
AcDbLine
 10
14041.06776011546
 20
749.8747482146441
 30
0.0
 11
14041.06776011546
 21
815.7518186373286
 31
0.0
1001
AUTOCAD_POSTSCRIPT_FIGURE
1002
{
1000
PSFILL
1000
Grayscale
1000
Grayscale
1070
   100
1002
}
  0
LINE
  5
17F3B
330
17CD8
100
AcDbEntity
  8
YODOROGO
100
AcDbLine
 10
14025.06776011545
 20
749.8747482146441
 30
0.0
 11
14041.06776011546
 21
749.8747482146441
 31
0.0
1001
AUTOCAD_POSTSCRIPT_FIGURE
1002
{
1000
PSFILL
1000
Grayscale
1000
Grayscale
1070
   100
1002
}
  0
LINE
  5
17F3C
330
17CD8
100
AcDbEntity
  8
YODOROGO
100
AcDbLine
 10
14025.06776011545
 20
737.8747482146435
 30
0.0
 11
14025.06776011545
 21
749.8747482146441
 31
0.0
1001
AUTOCAD_POSTSCRIPT_FIGURE
1002
{
1000
PSFILL
1000
Grayscale
1000
Grayscale
1070
   100
1002
}
  0
LINE
  5
17F3D
330
17CD8
100
AcDbEntity
  8
YODOROGO
100
AcDbLine
 10
14068.80217064596
 20
737.8747482146435
 30
0.0
 11
14025.06776011545
 21
737.8747482146435
 31
0.0
1001
AUTOCAD_POSTSCRIPT_FIGURE
1002
{
1000
PSFILL
1000
Grayscale
1000
Grayscale
1070
   100
1002
}
  0
LINE
  5
17F3E
330
17CD8
100
AcDbEntity
  8
YODOROGO
100
AcDbLine
 10
14068.80217064596
 20
749.8747482146441
 30
0.0
 11
14068.80217064596
 21
737.8747482146435
 31
0.0
1001
AUTOCAD_POSTSCRIPT_FIGURE
1002
{
1000
PSFILL
1000
Grayscale
1000
Grayscale
1070
   100
1002
}
  0
LINE
  5
17F3F
330
17CD8
100
AcDbEntity
  8
YODOROGO
100
AcDbLine
 10
14049.06776011545
 20
749.8747482146441
 30
0.0
 11
14068.80217064596
 21
749.8747482146441
 31
0.0
1001
AUTOCAD_POSTSCRIPT_FIGURE
1002
{
1000
PSFILL
1000
Grayscale
1000
Grayscale
1070
   100
1002
}
  0
LINE
  5
17F40
330
17CD8
100
AcDbEntity
  8
YODOROGO
100
AcDbLine
 10
14049.06776011545
 20
815.7518186373286
 30
0.0
 11
14049.06776011545
 21
749.8747482146441
 31
0.0
1001
AUTOCAD_POSTSCRIPT_FIGURE
1002
{
1000
PSFILL
1000
Grayscale
1000
Grayscale
1070
   100
1002
}
  0
LINE
  5
17F41
330
17CD8
100
AcDbEntity
  8
YODOROGO
100
AcDbLine
 10
14068.80217064596
 20
815.7518186373286
 30
0.0
 11
14049.06776011545
 21
815.7518186373286
 31
0.0
1001
AUTOCAD_POSTSCRIPT_FIGURE
1002
{
1000
PSFILL
1000
Grayscale
1000
Grayscale
1070
   100
1002
}
  0
LINE
  5
17F42
330
17CD8
100
AcDbEntity
  8
YODOROGO
100
AcDbLine
 10
14068.80217064596
 20
827.751818637328
 30
0.0
 11
14068.80217064596
 21
815.7518186373286
 31
0.0
1001
AUTOCAD_POSTSCRIPT_FIGURE
1002
{
1000
PSFILL
1000
Grayscale
1000
Grayscale
1070
   100
1002
}
  0
LINE
  5
17F43
330
17CD8
100
AcDbEntity
  8
YODOROGO
100
AcDbLine
 10
14049.06776011545
 20
827.751818637328
 30
0.0
 11
14068.80217064596
 21
827.751818637328
 31
0.0
1001
AUTOCAD_POSTSCRIPT_FIGURE
1002
{
1000
PSFILL
1000
Grayscale
1000
Grayscale
1070
   100
1002
}
  0
LINE
  5
17F44
330
17CD8
100
AcDbEntity
  8
YODOROGO
100
AcDbLine
 10
14200.80217064594
 20
833.8747482146439
 30
0.0
 11
14172.80217064596
 21
833.8747482146439
 31
0.0
  0
LINE
  5
17F45
330
17CD8
100
AcDbEntity
  8
YODOROGO
100
AcDbLine
 10
14200.80217064594
 20
805.8747482146443
 30
0.0
 11
14200.80217064594
 21
833.8747482146439
 31
0.0
  0
LINE
  5
17F46
330
17CD8
100
AcDbEntity
  8
YODOROGO
100
AcDbLine
 10
14172.80217064596
 20
833.8747482146439
 30
0.0
 11
14172.80217064596
 21
805.8747482146443
 31
0.0
  0
ARC
  5
17F47
330
17CD8
100
AcDbEntity
  8
YODOROGO
100
AcDbCircle
 10
14256.80217064594
 20
753.8747482146439
 30
0.0
 40
40.0
100
AcDbArc
 50
180.0
 51
270.0
  0
ARC
  5
17F48
330
17CD8
100
AcDbEntity
  8
YODOROGO
100
AcDbCircle
 10
14268.80217064594
 20
781.8747482146434
 30
0.0
 40
20.0
100
AcDbArc
 50
180.0
 51
270.0
  0
LINE
  5
17F49
330
17CD8
100
AcDbEntity
  8
YODOROGO
100
AcDbLine
 10
14280.80217064596
 20
761.8747482146434
 30
0.0
 11
14268.80217064594
 21
761.8747482146434
 31
0.0
  0
ARC
  5
17F4A
330
17CD8
100
AcDbEntity
  8
YODOROGO
100
AcDbCircle
 10
14280.80217064596
 20
773.8747482146427
 30
0.0
 40
11.99999999999818
100
AcDbArc
 50
270.0
 51
0.0000000000054281
  0
LINE
  5
17F4B
330
17CD8
100
AcDbEntity
  8
YODOROGO
100
AcDbLine
 10
13900.80217064596
 20
945.3932903968532
 30
0.0
 11
13888.80217064596
 21
921.8883739758362
 31
0.0
1001
AUTOCAD_POSTSCRIPT_FIGURE
1002
{
1000
PSFILL
1000
Grayscale
1000
Grayscale
1070
   100
1002
}
  0
LINE
  5
17F4C
330
17CD8
100
AcDbEntity
  8
YODOROGO
100
AcDbLine
 10
13900.80217064596
 20
873.8747482146434
 30
0.0
 11
13900.80217064596
 21
945.3932903968532
 31
0.0
1001
AUTOCAD_POSTSCRIPT_FIGURE
1002
{
1000
PSFILL
1000
Grayscale
1000
Grayscale
1070
   100
1002
}
  0
LINE
  5
17F4D
330
17CD8
100
AcDbEntity
  8
YODOROGO
100
AcDbLine
 10
13908.80217064596
 20
873.8747482146434
 30
0.0
 11
13900.80217064596
 21
873.8747482146434
 31
0.0
1001
AUTOCAD_POSTSCRIPT_FIGURE
1002
{
1000
PSFILL
1000
Grayscale
1000
Grayscale
1070
   100
1002
}
  0
LINE
  5
17F4E
330
17CD8
100
AcDbEntity
  8
YODOROGO
100
AcDbLine
 10
13908.80217064596
 20
946.8856660426332
 30
0.0
 11
13908.80217064596
 21
873.8747482146434
 31
0.0
1001
AUTOCAD_POSTSCRIPT_FIGURE
1002
{
1000
PSFILL
1000
Grayscale
1000
Grayscale
1070
   100
1002
}
  0
LINE
  5
17F4F
330
17CD8
100
AcDbEntity
  8
YODOROGO
100
AcDbLine
 10
13920.80217064596
 20
933.8273791420684
 30
0.0
 11
13908.80217064596
 21
946.8856660426332
 31
0.0
1001
AUTOCAD_POSTSCRIPT_FIGURE
1002
{
1000
PSFILL
1000
Grayscale
1000
Grayscale
1070
   100
1002
}
  0
LINE
  5
17F50
330
17CD8
100
AcDbEntity
  8
YODOROGO
100
AcDbLine
 10
13920.80217064596
 20
941.8273791420681
 30
0.0
 11
13920.80217064596
 21
933.8273791420684
 31
0.0
1001
AUTOCAD_POSTSCRIPT_FIGURE
1002
{
1000
PSFILL
1000
Grayscale
1000
Grayscale
1070
   100
1002
}
  0
LINE
  5
17F51
330
17CD8
100
AcDbEntity
  8
YODOROGO
100
AcDbLine
 10
13908.80217064596
 20
958.8856660426325
 30
0.0
 11
13920.80217064596
 21
941.8273791420681
 31
0.0
1001
AUTOCAD_POSTSCRIPT_FIGURE
1002
{
1000
PSFILL
1000
Grayscale
1000
Grayscale
1070
   100
1002
}
  0
LINE
  5
17F52
330
17CD8
100
AcDbEntity
  8
YODOROGO
100
AcDbLine
 10
13908.80217064596
 20
969.8747482146441
 30
0.0
 11
13908.80217064596
 21
958.8856660426325
 31
0.0
1001
AUTOCAD_POSTSCRIPT_FIGURE
1002
{
1000
PSFILL
1000
Grayscale
1000
Grayscale
1070
   100
1002
}
  0
LINE
  5
17F53
330
17CD8
100
AcDbEntity
  8
YODOROGO
100
AcDbLine
 10
13944.80217064596
 20
969.8747482146441
 30
0.0
 11
13908.80217064596
 21
969.8747482146441
 31
0.0
1001
AUTOCAD_POSTSCRIPT_FIGURE
1002
{
1000
PSFILL
1000
Grayscale
1000
Grayscale
1070
   100
1002
}
  0
LINE
  5
17F54
330
17CD8
100
AcDbEntity
  8
YODOROGO
100
AcDbLine
 10
13944.80217064596
 20
950.2841744681497
 30
0.0
 11
13944.80217064596
 21
969.8747482146441
 31
0.0
1001
AUTOCAD_POSTSCRIPT_FIGURE
1002
{
1000
PSFILL
1000
Grayscale
1000
Grayscale
1070
   100
1002
}
  0
LINE
  5
17F55
330
17CD8
100
AcDbEntity
  8
YODOROGO
100
AcDbLine
 10
13928.80217064596
 20
950.2841744681497
 30
0.0
 11
13944.80217064596
 21
950.2841744681497
 31
0.0
1001
AUTOCAD_POSTSCRIPT_FIGURE
1002
{
1000
PSFILL
1000
Grayscale
1000
Grayscale
1070
   100
1002
}
  0
LINE
  5
17F56
330
17CD8
100
AcDbEntity
  8
YODOROGO
100
AcDbLine
 10
13928.80217064596
 20
942.2841744681491
 30
0.0
 11
13928.80217064596
 21
950.2841744681497
 31
0.0
1001
AUTOCAD_POSTSCRIPT_FIGURE
1002
{
1000
PSFILL
1000
Grayscale
1000
Grayscale
1070
   100
1002
}
  0
LINE
  5
17F57
330
17CD8
100
AcDbEntity
  8
YODOROGO
100
AcDbLine
 10
13944.80217064596
 20
942.2841744681491
 30
0.0
 11
13928.80217064596
 21
942.2841744681491
 31
0.0
1001
AUTOCAD_POSTSCRIPT_FIGURE
1002
{
1000
PSFILL
1000
Grayscale
1000
Grayscale
1070
   100
1002
}
  0
LINE
  5
17F58
330
17CD8
100
AcDbEntity
  8
YODOROGO
100
AcDbLine
 10
13944.80217064596
 20
939.8095889822196
 30
0.0
 11
13944.80217064596
 21
942.2841744681491
 31
0.0
1001
AUTOCAD_POSTSCRIPT_FIGURE
1002
{
1000
PSFILL
1000
Grayscale
1000
Grayscale
1070
   100
1002
}
  0
LINE
  5
17F59
330
17CD8
100
AcDbEntity
  8
YODOROGO
100
AcDbLine
 10
13924.80217064596
 20
906.4874905807087
 30
0.0
 11
13944.80217064596
 21
939.8095889822196
 31
0.0
1001
AUTOCAD_POSTSCRIPT_FIGURE
1002
{
1000
PSFILL
1000
Grayscale
1000
Grayscale
1070
   100
1002
}
  0
LINE
  5
17F5A
330
17CD8
100
AcDbEntity
  8
YODOROGO
100
AcDbLine
 10
13924.80217064596
 20
898.487490580708
 30
0.0
 11
13924.80217064596
 21
906.4874905807087
 31
0.0
1001
AUTOCAD_POSTSCRIPT_FIGURE
1002
{
1000
PSFILL
1000
Grayscale
1000
Grayscale
1070
   100
1002
}
  0
LINE
  5
17F5B
330
17CD8
100
AcDbEntity
  8
YODOROGO
100
AcDbLine
 10
13944.80217064596
 20
923.8095889822183
 30
0.0
 11
13924.80217064596
 21
898.487490580708
 31
0.0
1001
AUTOCAD_POSTSCRIPT_FIGURE
1002
{
1000
PSFILL
1000
Grayscale
1000
Grayscale
1070
   100
1002
}
  0
LINE
  5
17F5C
330
17CD8
100
AcDbEntity
  8
YODOROGO
100
AcDbLine
 10
13944.80217064596
 20
873.8747482146434
 30
0.0
 11
13944.80217064596
 21
923.8095889822183
 31
0.0
1001
AUTOCAD_POSTSCRIPT_FIGURE
1002
{
1000
PSFILL
1000
Grayscale
1000
Grayscale
1070
   100
1002
}
  0
LINE
  5
17F5D
330
17CD8
100
AcDbEntity
  8
YODOROGO
100
AcDbLine
 10
13952.80217064596
 20
873.8747482146434
 30
0.0
 11
13944.80217064596
 21
873.8747482146434
 31
0.0
1001
AUTOCAD_POSTSCRIPT_FIGURE
1002
{
1000
PSFILL
1000
Grayscale
1000
Grayscale
1070
   100
1002
}
  0
LINE
  5
17F5E
330
17CD8
100
AcDbEntity
  8
YODOROGO
100
AcDbLine
 10
13952.80217064596
 20
924.7045060794032
 30
0.0
 11
13952.80217064596
 21
873.8747482146434
 31
0.0
1001
AUTOCAD_POSTSCRIPT_FIGURE
1002
{
1000
PSFILL
1000
Grayscale
1000
Grayscale
1070
   100
1002
}
  0
LINE
  5
17F5F
330
17CD8
100
AcDbEntity
  8
YODOROGO
100
AcDbLine
 10
13968.80217064596
 20
898.487490580708
 30
0.0
 11
13952.80217064596
 21
924.7045060794032
 31
0.0
1001
AUTOCAD_POSTSCRIPT_FIGURE
1002
{
1000
PSFILL
1000
Grayscale
1000
Grayscale
1070
   100
1002
}
  0
LINE
  5
17F60
330
17CD8
100
AcDbEntity
  8
YODOROGO
100
AcDbLine
 10
13968.80217064596
 20
906.4874905807087
 30
0.0
 11
13968.80217064596
 21
898.487490580708
 31
0.0
1001
AUTOCAD_POSTSCRIPT_FIGURE
1002
{
1000
PSFILL
1000
Grayscale
1000
Grayscale
1070
   100
1002
}
  0
LINE
  5
17F61
330
17CD8
100
AcDbEntity
  8
YODOROGO
100
AcDbLine
 10
13952.80217064596
 20
940.7045060794041
 30
0.0
 11
13968.80217064596
 21
906.4874905807087
 31
0.0
1001
AUTOCAD_POSTSCRIPT_FIGURE
1002
{
1000
PSFILL
1000
Grayscale
1000
Grayscale
1070
   100
1002
}
  0
LINE
  5
17F62
330
17CD8
100
AcDbEntity
  8
YODOROGO
100
AcDbLine
 10
13952.80217064596
 20
942.2841744681502
 30
0.0
 11
13952.80217064596
 21
940.7045060794041
 31
0.0
1001
AUTOCAD_POSTSCRIPT_FIGURE
1002
{
1000
PSFILL
1000
Grayscale
1000
Grayscale
1070
   100
1002
}
  0
LINE
  5
17F63
330
17CD8
100
AcDbEntity
  8
YODOROGO
100
AcDbLine
 10
13968.80217064596
 20
942.2841744681491
 30
0.0
 11
13952.80217064596
 21
942.2841744681502
 31
0.0
1001
AUTOCAD_POSTSCRIPT_FIGURE
1002
{
1000
PSFILL
1000
Grayscale
1000
Grayscale
1070
   100
1002
}
  0
LINE
  5
17F64
330
17CD8
100
AcDbEntity
  8
YODOROGO
100
AcDbLine
 10
13968.80217064596
 20
950.2841744681497
 30
0.0
 11
13968.80217064596
 21
942.2841744681491
 31
0.0
1001
AUTOCAD_POSTSCRIPT_FIGURE
1002
{
1000
PSFILL
1000
Grayscale
1000
Grayscale
1070
   100
1002
}
  0
LINE
  5
17F65
330
17CD8
100
AcDbEntity
  8
YODOROGO
100
AcDbLine
 10
13952.80217064596
 20
950.2841744681497
 30
0.0
 11
13968.80217064596
 21
950.2841744681497
 31
0.0
1001
AUTOCAD_POSTSCRIPT_FIGURE
1002
{
1000
PSFILL
1000
Grayscale
1000
Grayscale
1070
   100
1002
}
  0
LINE
  5
17F66
330
17CD8
100
AcDbEntity
  8
YODOROGO
100
AcDbLine
 10
13952.80217064596
 20
969.8747482146441
 30
0.0
 11
13952.80217064596
 21
950.2841744681497
 31
0.0
1001
AUTOCAD_POSTSCRIPT_FIGURE
1002
{
1000
PSFILL
1000
Grayscale
1000
Grayscale
1070
   100
1002
}
  0
LINE
  5
17F67
330
17CD8
100
AcDbEntity
  8
YODOROGO
100
AcDbLine
 10
13968.80217064596
 20
969.8747482146441
 30
0.0
 11
13952.80217064596
 21
969.8747482146441
 31
0.0
1001
AUTOCAD_POSTSCRIPT_FIGURE
1002
{
1000
PSFILL
1000
Grayscale
1000
Grayscale
1070
   100
1002
}
  0
LINE
  5
17F68
330
17CD8
100
AcDbEntity
  8
YODOROGO
100
AcDbLine
 10
13968.80217064596
 20
977.8747482146435
 30
0.0
 11
13968.80217064596
 21
969.8747482146441
 31
0.0
1001
AUTOCAD_POSTSCRIPT_FIGURE
1002
{
1000
PSFILL
1000
Grayscale
1000
Grayscale
1070
   100
1002
}
  0
LINE
  5
17F69
330
17CD8
100
AcDbEntity
  8
YODOROGO
100
AcDbLine
 10
13952.80217064596
 20
977.8747482146435
 30
0.0
 11
13968.80217064596
 21
977.8747482146435
 31
0.0
1001
AUTOCAD_POSTSCRIPT_FIGURE
1002
{
1000
PSFILL
1000
Grayscale
1000
Grayscale
1070
   100
1002
}
  0
LINE
  5
17F6A
330
17CD8
100
AcDbEntity
  8
YODOROGO
100
AcDbLine
 10
13952.80217064596
 20
989.8747482146442
 30
0.0
 11
13952.80217064596
 21
977.8747482146435
 31
0.0
1001
AUTOCAD_POSTSCRIPT_FIGURE
1002
{
1000
PSFILL
1000
Grayscale
1000
Grayscale
1070
   100
1002
}
  0
LINE
  5
17F6B
330
17CD8
100
AcDbEntity
  8
YODOROGO
100
AcDbLine
 10
13944.80217064596
 20
989.8747482146442
 30
0.0
 11
13952.80217064596
 21
989.8747482146442
 31
0.0
1001
AUTOCAD_POSTSCRIPT_FIGURE
1002
{
1000
PSFILL
1000
Grayscale
1000
Grayscale
1070
   100
1002
}
  0
LINE
  5
17F6C
330
17CD8
100
AcDbEntity
  8
YODOROGO
100
AcDbLine
 10
13944.80217064596
 20
977.8747482146435
 30
0.0
 11
13944.80217064596
 21
989.8747482146442
 31
0.0
1001
AUTOCAD_POSTSCRIPT_FIGURE
1002
{
1000
PSFILL
1000
Grayscale
1000
Grayscale
1070
   100
1002
}
  0
LINE
  5
17F6D
330
17CD8
100
AcDbEntity
  8
YODOROGO
100
AcDbLine
 10
13932.80217064596
 20
977.8747482146435
 30
0.0
 11
13944.80217064596
 21
977.8747482146435
 31
0.0
1001
AUTOCAD_POSTSCRIPT_FIGURE
1002
{
1000
PSFILL
1000
Grayscale
1000
Grayscale
1070
   100
1002
}
  0
LINE
  5
17F6E
330
17CD8
100
AcDbEntity
  8
YODOROGO
100
AcDbLine
 10
13932.80217064596
 20
989.8747482146442
 30
0.0
 11
13932.80217064596
 21
977.8747482146435
 31
0.0
1001
AUTOCAD_POSTSCRIPT_FIGURE
1002
{
1000
PSFILL
1000
Grayscale
1000
Grayscale
1070
   100
1002
}
  0
LINE
  5
17F6F
330
17CD8
100
AcDbEntity
  8
YODOROGO
100
AcDbLine
 10
13924.80217064596
 20
989.8747482146442
 30
0.0
 11
13932.80217064596
 21
989.8747482146442
 31
0.0
1001
AUTOCAD_POSTSCRIPT_FIGURE
1002
{
1000
PSFILL
1000
Grayscale
1000
Grayscale
1070
   100
1002
}
  0
LINE
  5
17F70
330
17CD8
100
AcDbEntity
  8
YODOROGO
100
AcDbLine
 10
13924.80217064596
 20
977.8747482146435
 30
0.0
 11
13924.80217064596
 21
989.8747482146442
 31
0.0
1001
AUTOCAD_POSTSCRIPT_FIGURE
1002
{
1000
PSFILL
1000
Grayscale
1000
Grayscale
1070
   100
1002
}
  0
LINE
  5
17F71
330
17CD8
100
AcDbEntity
  8
YODOROGO
100
AcDbLine
 10
13908.80217064596
 20
977.8747482146435
 30
0.0
 11
13924.80217064596
 21
977.8747482146435
 31
0.0
1001
AUTOCAD_POSTSCRIPT_FIGURE
1002
{
1000
PSFILL
1000
Grayscale
1000
Grayscale
1070
   100
1002
}
  0
LINE
  5
17F72
330
17CD8
100
AcDbEntity
  8
YODOROGO
100
AcDbLine
 10
13908.80217064596
 20
989.8747482146442
 30
0.0
 11
13908.80217064596
 21
977.8747482146435
 31
0.0
1001
AUTOCAD_POSTSCRIPT_FIGURE
1002
{
1000
PSFILL
1000
Grayscale
1000
Grayscale
1070
   100
1002
}
  0
LINE
  5
17F73
330
17CD8
100
AcDbEntity
  8
YODOROGO
100
AcDbLine
 10
13900.80217064596
 20
989.8747482146442
 30
0.0
 11
13908.80217064596
 21
989.8747482146442
 31
0.0
1001
AUTOCAD_POSTSCRIPT_FIGURE
1002
{
1000
PSFILL
1000
Grayscale
1000
Grayscale
1070
   100
1002
}
  0
LINE
  5
17F74
330
17CD8
100
AcDbEntity
  8
YODOROGO
100
AcDbLine
 10
13900.80217064596
 20
977.8747482146435
 30
0.0
 11
13900.80217064596
 21
989.8747482146442
 31
0.0
1001
AUTOCAD_POSTSCRIPT_FIGURE
1002
{
1000
PSFILL
1000
Grayscale
1000
Grayscale
1070
   100
1002
}
  0
LINE
  5
17F75
330
17CD8
100
AcDbEntity
  8
YODOROGO
100
AcDbLine
 10
13888.80217064596
 20
977.8747482146435
 30
0.0
 11
13900.80217064596
 21
977.8747482146435
 31
0.0
1001
AUTOCAD_POSTSCRIPT_FIGURE
1002
{
1000
PSFILL
1000
Grayscale
1000
Grayscale
1070
   100
1002
}
  0
LINE
  5
17F76
330
17CD8
100
AcDbEntity
  8
YODOROGO
100
AcDbLine
 10
13888.80217064596
 20
969.8747482146441
 30
0.0
 11
13888.80217064596
 21
977.8747482146435
 31
0.0
1001
AUTOCAD_POSTSCRIPT_FIGURE
1002
{
1000
PSFILL
1000
Grayscale
1000
Grayscale
1070
   100
1002
}
  0
LINE
  5
17F77
330
17CD8
100
AcDbEntity
  8
YODOROGO
100
AcDbLine
 10
13900.80217064596
 20
969.8747482146441
 30
0.0
 11
13888.80217064596
 21
969.8747482146441
 31
0.0
1001
AUTOCAD_POSTSCRIPT_FIGURE
1002
{
1000
PSFILL
1000
Grayscale
1000
Grayscale
1070
   100
1002
}
  0
LINE
  5
17F78
330
17CD8
100
AcDbEntity
  8
YODOROGO
100
AcDbLine
 10
13900.80217064596
 20
957.3932903968525
 30
0.0
 11
13900.80217064596
 21
969.8747482146441
 31
0.0
1001
AUTOCAD_POSTSCRIPT_FIGURE
1002
{
1000
PSFILL
1000
Grayscale
1000
Grayscale
1070
   100
1002
}
  0
LINE
  5
17F79
330
17CD8
100
AcDbEntity
  8
YODOROGO
100
AcDbLine
 10
13888.80217064596
 20
929.8883739758355
 30
0.0
 11
13900.80217064596
 21
957.3932903968525
 31
0.0
1001
AUTOCAD_POSTSCRIPT_FIGURE
1002
{
1000
PSFILL
1000
Grayscale
1000
Grayscale
1070
   100
1002
}
  0
LINE
  5
17F7A
330
17CD8
100
AcDbEntity
  8
YODOROGO
100
AcDbLine
 10
13888.80217064596
 20
921.8883739758362
 30
0.0
 11
13888.80217064596
 21
929.8883739758355
 31
0.0
1001
AUTOCAD_POSTSCRIPT_FIGURE
1002
{
1000
PSFILL
1000
Grayscale
1000
Grayscale
1070
   100
1002
}
  0
LINE
  5
17F7B
330
17CD8
100
AcDbEntity
  8
YODOROGO
100
AcDbLine
 10
14128.80217064596
 20
933.8747482146439
 30
0.0
 11
14200.80217064594
 21
912.4388128201532
 31
0.0
1001
AUTOCAD_POSTSCRIPT_FIGURE
1002
{
1000
PSFILL
1000
Grayscale
1000
Grayscale
1070
   100
1002
}
  0
LINE
  5
17F7C
330
17CD8
100
AcDbEntity
  8
YODOROGO
100
AcDbLine
 10
14200.80217064594
 20
876.4388128201531
 30
0.0
 11
14128.80217064596
 21
897.8747482146435
 31
0.0
1001
AUTOCAD_POSTSCRIPT_FIGURE
1002
{
1000
PSFILL
1000
Grayscale
1000
Grayscale
1070
   100
1002
}
  0
LINE
  5
17F7D
330
17CD8
100
AcDbEntity
  8
YODOROGO
100
AcDbLine
 10
14200.80217064594
 20
992.4388128201531
 30
0.0
 11
14128.80217064596
 21
1013.874748214644
 31
0.0
1001
AUTOCAD_POSTSCRIPT_FIGURE
1002
{
1000
PSFILL
1000
Grayscale
1000
Grayscale
1070
   100
1002
}
  0
LINE
  5
17F7E
330
17CD8
100
AcDbEntity
  8
YODOROGO
100
AcDbLine
 10
14128.80217064596
 20
979.874748214644
 30
0.0
 11
14200.80217064594
 21
958.4388128201537
 31
0.0
1001
AUTOCAD_POSTSCRIPT_FIGURE
1002
{
1000
PSFILL
1000
Grayscale
1000
Grayscale
1070
   100
1002
}
  0
LINE
  5
17F7F
330
17CD8
100
AcDbEntity
  8
YODOROGO
100
AcDbLine
 10
14128.80217064596
 20
897.8747482146435
 30
0.0
 11
14128.80217064596
 21
933.8747482146439
 31
0.0
1001
AUTOCAD_POSTSCRIPT_FIGURE
1002
{
1000
PSFILL
1000
Grayscale
1000
Grayscale
1070
   100
1002
}
  0
LINE
  5
17F80
330
17CD8
100
AcDbEntity
  8
YODOROGO
100
AcDbLine
 10
14128.80217064596
 20
1013.874748214644
 30
0.0
 11
14128.80217064596
 21
979.874748214644
 31
0.0
1001
AUTOCAD_POSTSCRIPT_FIGURE
1002
{
1000
PSFILL
1000
Grayscale
1000
Grayscale
1070
   100
1002
}
  0
LINE
  5
17F81
330
17CD8
100
AcDbEntity
  8
YODOROGO
100
AcDbLine
 10
14040.11816010337
 20
969.8747482146441
 30
0.0
 11
14064.80217064595
 21
873.8747482146434
 31
0.0
1001
AUTOCAD_POSTSCRIPT_FIGURE
1002
{
1000
PSFILL
1000
Grayscale
1000
Grayscale
1070
   100
1002
}
  0
LINE
  5
17F82
330
17CD8
100
AcDbEntity
  8
YODOROGO
100
AcDbLine
 10
13988.80217064596
 20
969.8747482146441
 30
0.0
 11
14040.11816010337
 21
969.8747482146441
 31
0.0
1001
AUTOCAD_POSTSCRIPT_FIGURE
1002
{
1000
PSFILL
1000
Grayscale
1000
Grayscale
1070
   100
1002
}
  0
LINE
  5
17F83
330
17CD8
100
AcDbEntity
  8
YODOROGO
100
AcDbLine
 10
13988.80217064596
 20
977.8747482146435
 30
0.0
 11
13988.80217064596
 21
969.8747482146441
 31
0.0
1001
AUTOCAD_POSTSCRIPT_FIGURE
1002
{
1000
PSFILL
1000
Grayscale
1000
Grayscale
1070
   100
1002
}
  0
LINE
  5
17F84
330
17CD8
100
AcDbEntity
  8
YODOROGO
100
AcDbLine
 10
14038.30343925995
 20
977.8747482146435
 30
0.0
 11
13988.80217064596
 21
977.8747482146435
 31
0.0
1001
AUTOCAD_POSTSCRIPT_FIGURE
1002
{
1000
PSFILL
1000
Grayscale
1000
Grayscale
1070
   100
1002
}
  0
LINE
  5
17F85
330
17CD8
100
AcDbEntity
  8
YODOROGO
100
AcDbLine
 10
14035.58135799485
 20
989.8747482146442
 30
0.0
 11
14038.30343925995
 21
977.8747482146435
 31
0.0
1001
AUTOCAD_POSTSCRIPT_FIGURE
1002
{
1000
PSFILL
1000
Grayscale
1000
Grayscale
1070
   100
1002
}
  0
LINE
  5
17F86
330
17CD8
100
AcDbEntity
  8
YODOROGO
100
AcDbLine
 10
14045.58135799485
 20
989.8747482146442
 30
0.0
 11
14035.58135799485
 21
989.8747482146442
 31
0.0
1001
AUTOCAD_POSTSCRIPT_FIGURE
1002
{
1000
PSFILL
1000
Grayscale
1000
Grayscale
1070
   100
1002
}
  0
LINE
  5
17F87
330
17CD8
100
AcDbEntity
  8
YODOROGO
100
AcDbLine
 10
14047.90343925997
 20
977.8747482146435
 30
0.0
 11
14045.58135799485
 21
989.8747482146442
 31
0.0
1001
AUTOCAD_POSTSCRIPT_FIGURE
1002
{
1000
PSFILL
1000
Grayscale
1000
Grayscale
1070
   100
1002
}
  0
LINE
  5
17F88
330
17CD8
100
AcDbEntity
  8
YODOROGO
100
AcDbLine
 10
14060.80217064596
 20
977.8747482146435
 30
0.0
 11
14047.90343925997
 21
977.8747482146435
 31
0.0
1001
AUTOCAD_POSTSCRIPT_FIGURE
1002
{
1000
PSFILL
1000
Grayscale
1000
Grayscale
1070
   100
1002
}
  0
LINE
  5
17F89
330
17CD8
100
AcDbEntity
  8
YODOROGO
100
AcDbLine
 10
14060.80217064596
 20
989.8747482146442
 30
0.0
 11
14060.80217064596
 21
977.8747482146435
 31
0.0
1001
AUTOCAD_POSTSCRIPT_FIGURE
1002
{
1000
PSFILL
1000
Grayscale
1000
Grayscale
1070
   100
1002
}
  0
LINE
  5
17F8A
330
17CD8
100
AcDbEntity
  8
YODOROGO
100
AcDbLine
 10
14068.80217064596
 20
989.8747482146442
 30
0.0
 11
14060.80217064596
 21
989.8747482146442
 31
0.0
1001
AUTOCAD_POSTSCRIPT_FIGURE
1002
{
1000
PSFILL
1000
Grayscale
1000
Grayscale
1070
   100
1002
}
  0
LINE
  5
17F8B
330
17CD8
100
AcDbEntity
  8
YODOROGO
100
AcDbLine
 10
14068.80217064596
 20
977.8747482146435
 30
0.0
 11
14068.80217064596
 21
989.8747482146442
 31
0.0
1001
AUTOCAD_POSTSCRIPT_FIGURE
1002
{
1000
PSFILL
1000
Grayscale
1000
Grayscale
1070
   100
1002
}
  0
LINE
  5
17F8C
330
17CD8
100
AcDbEntity
  8
YODOROGO
100
AcDbLine
 10
14068.80217064596
 20
969.8747482146441
 30
0.0
 11
14068.80217064596
 21
977.8747482146435
 31
0.0
1001
AUTOCAD_POSTSCRIPT_FIGURE
1002
{
1000
PSFILL
1000
Grayscale
1000
Grayscale
1070
   100
1002
}
  0
LINE
  5
17F8D
330
17CD8
100
AcDbEntity
  8
YODOROGO
100
AcDbLine
 10
14049.45149343671
 20
969.8747482146441
 30
0.0
 11
14068.80217064596
 21
969.8747482146441
 31
0.0
1001
AUTOCAD_POSTSCRIPT_FIGURE
1002
{
1000
PSFILL
1000
Grayscale
1000
Grayscale
1070
   100
1002
}
  0
LINE
  5
17F8E
330
17CD8
100
AcDbEntity
  8
YODOROGO
100
AcDbLine
 10
14068.80217064596
 20
873.8747482146434
 30
0.0
 11
14049.45149343671
 21
969.8747482146441
 31
0.0
1001
AUTOCAD_POSTSCRIPT_FIGURE
1002
{
1000
PSFILL
1000
Grayscale
1000
Grayscale
1070
   100
1002
}
  0
LINE
  5
17F8F
330
17CD8
100
AcDbEntity
  8
YODOROGO
100
AcDbLine
 10
14064.80217064595
 20
873.8747482146434
 30
0.0
 11
14068.80217064596
 21
873.8747482146434
 31
0.0
1001
AUTOCAD_POSTSCRIPT_FIGURE
1002
{
1000
PSFILL
1000
Grayscale
1000
Grayscale
1070
   100
1002
}
  0
LINE
  5
17F90
330
17CD8
100
AcDbEntity
  8
YODOROGO
100
AcDbLine
 10
14039.03460996689
 20
887.8703881493972
 30
0.0
 11
13988.80217064596
 21
873.8747482146434
 31
0.0
  0
LINE
  5
17F91
330
17CD8
100
AcDbEntity
  8
YODOROGO
100
AcDbLine
 10
14039.03460996689
 20
899.3344897645364
 30
0.0
 11
14039.03460996689
 21
887.8703881493972
 31
0.0
  0
LINE
  5
17F92
330
17CD8
100
AcDbEntity
  8
YODOROGO
100
AcDbLine
 10
14016.91839030643
 20
893.4084665668834
 30
0.0
 11
14039.03460996689
 21
899.3344897645364
 31
0.0
  0
LINE
  5
17F93
330
17CD8
100
AcDbEntity
  8
YODOROGO
100
AcDbLine
 10
14016.91839030643
 20
936.2841744681499
 30
0.0
 11
14016.91839030643
 21
893.4084665668834
 31
0.0
  0
LINE
  5
17F94
330
17CD8
100
AcDbEntity
  8
YODOROGO
100
AcDbLine
 10
14039.03460996689
 20
936.2841744681499
 30
0.0
 11
14016.91839030643
 21
936.2841744681499
 31
0.0
  0
LINE
  5
17F95
330
17CD8
100
AcDbEntity
  8
YODOROGO
100
AcDbLine
 10
14039.03460996689
 20
946.2841744681487
 30
0.0
 11
14039.03460996689
 21
936.2841744681499
 31
0.0
  0
LINE
  5
17F96
330
17CD8
100
AcDbEntity
  8
YODOROGO
100
AcDbLine
 10
13988.80217064596
 20
946.2841744681487
 30
0.0
 11
14039.03460996689
 21
946.2841744681487
 31
0.0
  0
LINE
  5
17F97
330
17CD8
100
AcDbEntity
  8
YODOROGO
100
AcDbLine
 10
13988.80217064596
 20
936.2841744681499
 30
0.0
 11
13988.80217064596
 21
946.2841744681487
 31
0.0
  0
LINE
  5
17F98
330
17CD8
100
AcDbEntity
  8
YODOROGO
100
AcDbLine
 10
14010.91839030643
 20
936.2841744681499
 30
0.0
 11
13988.80217064596
 21
936.2841744681499
 31
0.0
  0
LINE
  5
17F99
330
17CD8
100
AcDbEntity
  8
YODOROGO
100
AcDbLine
 10
14010.91839030643
 20
892.3366697971587
 30
0.0
 11
14010.91839030643
 21
936.2841744681499
 31
0.0
  0
LINE
  5
17F9A
330
17CD8
100
AcDbEntity
  8
YODOROGO
100
AcDbLine
 10
13988.80217064596
 20
885.8747482146432
 30
0.0
 11
14010.91839030643
 21
892.3366697971587
 31
0.0
  0
LINE
  5
17F9B
330
17CD8
100
AcDbEntity
  8
YODOROGO
100
AcDbLine
 10
13988.80217064596
 20
873.8747482146434
 30
0.0
 11
13988.80217064596
 21
885.8747482146432
 31
0.0
  0
LINE
  5
17F9C
330
17CD8
100
AcDbEntity
  8
YODOROGO
100
AcDbLine
 10
14000.80217064596
 20
853.874748214644
 30
0.0
 11
14000.80217064596
 21
841.8747482146434
 31
0.0
  0
LINE
  5
17F9D
330
17CD8
100
AcDbEntity
  8
YODOROGO
100
AcDbLine
 10
14000.80217064596
 20
853.874748214644
 30
0.0
 11
14000.80217064596
 21
853.874748214644
 31
0.0
  0
LINE
  5
17F9E
330
17CD8
100
AcDbEntity
  8
YODOROGO
100
AcDbLine
 10
14008.80217064596
 20
853.874748214644
 30
0.0
 11
14000.80217064596
 21
853.874748214644
 31
0.0
  0
LINE
  5
17F9F
330
17CD8
100
AcDbEntity
  8
YODOROGO
100
AcDbLine
 10
14008.80217064596
 20
841.8747482146434
 30
0.0
 11
14008.80217064596
 21
853.874748214644
 31
0.0
  0
LINE
  5
17FA0
330
17CD8
100
AcDbEntity
  8
YODOROGO
100
AcDbLine
 10
14020.45660200844
 20
841.8747482146434
 30
0.0
 11
14008.80217064596
 21
841.8747482146434
 31
0.0
  0
LINE
  5
17FA1
330
17CD8
100
AcDbEntity
  8
YODOROGO
100
AcDbLine
 10
14000.80217064596
 20
841.8747482146434
 30
0.0
 11
13988.80217064596
 21
841.8747482146434
 31
0.0
  0
LINE
  5
17FA2
330
17CD8
100
AcDbEntity
  8
YODOROGO
100
AcDbLine
 10
14041.06776011546
 20
853.874748214644
 30
0.0
 11
14049.06776011545
 21
853.874748214644
 31
0.0
1001
AUTOCAD_POSTSCRIPT_FIGURE
1002
{
1000
PSFILL
1000
Grayscale
1000
Grayscale
1070
   100
1002
}
  0
LINE
  5
17FA3
330
17CD8
100
AcDbEntity
  8
YODOROGO
100
AcDbLine
 10
14200.80217064594
 20
912.4388128201532
 30
0.0
 11
14200.80217064594
 21
876.4388128201531
 31
0.0
1001
AUTOCAD_POSTSCRIPT_FIGURE
1002
{
1000
PSFILL
1000
Grayscale
1000
Grayscale
1070
   100
1002
}
  0
LINE
  5
17FA4
330
17CD8
100
AcDbEntity
  8
YODOROGO
100
AcDbLine
 10
14200.80217064594
 20
958.4388128201537
 30
0.0
 11
14200.80217064594
 21
992.4388128201531
 31
0.0
1001
AUTOCAD_POSTSCRIPT_FIGURE
1002
{
1000
PSFILL
1000
Grayscale
1000
Grayscale
1070
   100
1002
}
  0
LINE
  5
17FA5
330
17CD8
100
AcDbEntity
  8
YODOROGO
100
AcDbLine
 10
14216.80217064594
 20
909.8747482146439
 30
0.0
 11
14216.80217064594
 21
873.8747482146449
 31
0.0
  0
LINE
  5
17FA6
330
17CD8
100
AcDbEntity
  8
YODOROGO
100
AcDbLine
 10
14248.80217064594
 20
853.874748214644
 30
0.0
 11
14216.80217064594
 21
853.874748214644
 31
0.0
  0
LINE
  5
17FA7
330
17CD8
100
AcDbEntity
  8
YODOROGO
100
AcDbLine
 10
14216.80217064594
 20
873.8747482146449
 30
0.0
 11
14292.80217064596
 21
873.8747482146449
 31
0.0
  0
LINE
  5
17FA8
330
17CD8
100
AcDbEntity
  8
YODOROGO
100
AcDbLine
 10
14248.80217064594
 20
933.8747482146439
 30
0.0
 11
14216.80217064594
 21
933.8747482146439
 31
0.0
  0
LINE
  5
17FA9
330
17CD8
100
AcDbEntity
  8
YODOROGO
100
AcDbLine
 10
14248.80217064594
 20
961.8747482146432
 30
0.0
 11
14248.80217064594
 21
933.8747482146439
 31
0.0
  0
LINE
  5
17FAA
330
17CD8
100
AcDbEntity
  8
YODOROGO
100
AcDbLine
 10
14292.80217064596
 20
993.8747482146439
 30
0.0
 11
14292.80217064596
 21
1013.874748214644
 31
0.0
  0
LINE
  5
17FAB
330
17CD8
100
AcDbEntity
  8
YODOROGO
100
AcDbLine
 10
14216.80217064594
 20
993.8747482146439
 30
0.0
 11
14292.80217064596
 21
993.8747482146439
 31
0.0
  0
LINE
  5
17FAC
330
17CD8
100
AcDbEntity
  8
YODOROGO
100
AcDbLine
 10
14216.80217064594
 20
933.8747482146439
 30
0.0
 11
14216.80217064594
 21
993.8747482146439
 31
0.0
  0
LINE
  5
17FAD
330
17CD8
100
AcDbEntity
  8
YODOROGO
100
AcDbLine
 10
14500.80217064594
 20
1013.874748214644
 30
0.0
 11
14500.80217064594
 21
809.8747482146441
 31
0.0
  0
LINE
  5
17FAE
330
17CD8
100
AcDbEntity
  8
YODOROGO
100
AcDbLine
 10
14536.80217064596
 20
789.8747482146441
 30
0.0
 11
14536.80217064596
 21
1013.874748214644
 31
0.0
  0
LINE
  5
17FAF
330
17CD8
100
AcDbEntity
  8
YODOROGO
100
AcDbLine
 10
14630.80217064596
 20
745.8747482146431
 30
0.0
 11
14630.80217064596
 21
1003.874748214644
 31
0.0
  0
LINE
  5
17FB0
330
17CD8
100
AcDbEntity
  8
YODOROGO
100
AcDbLine
 10
14598.80217064596
 20
1003.874748214644
 30
0.0
 11
14598.80217064596
 21
745.8747482146431
 31
0.0
  0
LINE
  5
17FB1
330
17CD8
100
AcDbEntity
  8
YODOROGO
100
AcDbLine
 10
14692.80217064596
 20
1013.874748214644
 30
0.0
 11
14692.80217064596
 21
713.8747482146436
 31
0.0
  0
LINE
  5
17FB2
330
17CD8
100
AcDbEntity
  8
YODOROGO
100
AcDbLine
 10
14728.80217064596
 20
713.8747482146436
 30
0.0
 11
14728.80217064596
 21
1013.874748214644
 31
0.0
  0
LINE
  5
17FB3
330
17CD8
100
AcDbEntity
  8
YODOROGO
100
AcDbLine
 10
14328.80217064594
 20
833.8747482146439
 30
0.0
 11
14328.80217064594
 21
873.8747482146449
 31
0.0
  0
LINE
  5
17FB4
330
17CD8
100
AcDbEntity
  8
YODOROGO
100
AcDbLine
 10
14942.80217064596
 20
853.874748214644
 30
0.0
 11
14942.80217064596
 21
833.8747482146439
 31
0.0
  0
LINE
  5
17FB5
330
17CD8
100
AcDbEntity
  8
YODOROGO
100
AcDbLine
 10
14942.80217064596
 20
853.874748214644
 30
0.0
 11
14942.80217064596
 21
833.8747482146439
 31
0.0
  0
ARC
  5
17FB6
330
17CD8
100
AcDbEntity
  8
YODOROGO
100
AcDbCircle
 10
14453.45578809342
 20
809.1089322211363
 30
0.0
 40
47.35257558937082
100
AcDbArc
 50
274.052441629071
 51
0.9266642149310712
  0
ARC
  5
17FB7
330
17CD8
100
AcDbEntity
  8
YODOROGO
100
AcDbCircle
 10
14454.5930853599
 20
796.30536430522
 30
0.0
 40
82.46021178042756
100
AcDbArc
 50
271.5351210653777
 51
355.5272775058505
  0
LINE
  5
17FB8
330
17CD8
100
AcDbEntity
  8
YODOROGO
100
AcDbLine
 10
14456.80217064596
 20
761.8747482146434
 30
0.0
 11
14456.80217064596
 21
713.8747482146436
 31
0.0
  0
LINE
  5
17FB9
330
17CD8
100
AcDbEntity
  8
YODOROGO
100
AcDbLine
 10
14396.80217064594
 20
833.8747482146439
 30
0.0
 11
14328.80217064594
 21
833.8747482146439
 31
0.0
  0
LINE
  5
17FBA
330
17CD8
100
AcDbEntity
  8
YODOROGO
100
AcDbLine
 10
14396.80217064594
 20
801.8747482146444
 30
0.0
 11
14396.80217064594
 21
833.8747482146439
 31
0.0
  0
LINE
  5
17FBB
330
17CD8
100
AcDbEntity
  8
YODOROGO
100
AcDbLine
 10
14328.80217064594
 20
801.8747482146444
 30
0.0
 11
14396.80217064594
 21
801.8747482146444
 31
0.0
  0
LINE
  5
17FBC
330
17CD8
100
AcDbEntity
  8
YODOROGO
100
AcDbLine
 10
14328.80217064594
 20
761.8747482146434
 30
0.0
 11
14328.80217064594
 21
801.8747482146444
 31
0.0
  0
LINE
  5
17FBD
330
17CD8
100
AcDbEntity
  8
YODOROGO
100
AcDbLine
 10
14396.80217064594
 20
761.8747482146434
 30
0.0
 11
14328.80217064594
 21
761.8747482146434
 31
0.0
  0
LINE
  5
17FBE
330
17CD8
100
AcDbEntity
  8
YODOROGO
100
AcDbLine
 10
14396.80217064594
 20
713.8747482146436
 30
0.0
 11
14396.80217064594
 21
761.8747482146434
 31
0.0
  0
LINE
  5
17FBF
330
17CD8
100
AcDbEntity
  8
YODOROGO
100
AcDbLine
 10
14598.80217064596
 20
745.8747482146431
 30
0.0
 11
14630.80217064596
 21
745.8747482146431
 31
0.0
  0
LINE
  5
17FC0
330
17CD8
100
AcDbEntity
  8
YODOROGO
100
AcDbLine
 10
14692.80217064596
 20
713.8747482146436
 30
0.0
 11
14728.80217064596
 21
713.8747482146436
 31
0.0
  0
LINE
  5
17FC1
330
17CD8
100
AcDbEntity
  8
YODOROGO
100
AcDbLine
 10
14868.80217064596
 20
764.2207260852818
 30
0.0
 11
14868.80217064596
 21
713.8747482146436
 31
0.0
  0
LINE
  5
17FC2
330
17CD8
100
AcDbEntity
  8
YODOROGO
100
AcDbLine
 10
14808.80217064596
 20
713.8747482146436
 30
0.0
 11
14868.80217064596
 21
764.2207260852818
 31
0.0
  0
LINE
  5
17FC3
330
17CD8
100
AcDbEntity
  8
YODOROGO
100
AcDbLine
 10
14808.80217064596
 20
773.874748214644
 30
0.0
 11
14808.80217064596
 21
713.8747482146436
 31
0.0
  0
LINE
  5
17FC4
330
17CD8
100
AcDbEntity
  8
YODOROGO
100
AcDbLine
 10
14856.47231434973
 20
813.8747482146435
 30
0.0
 11
14808.80217064596
 21
773.874748214644
 31
0.0
  0
LINE
  5
17FC5
330
17CD8
100
AcDbEntity
  8
YODOROGO
100
AcDbLine
 10
14808.80217064596
 20
813.8747482146435
 30
0.0
 11
14856.47231434973
 21
813.8747482146435
 31
0.0
  0
LINE
  5
17FC6
330
17CD8
100
AcDbEntity
  8
YODOROGO
100
AcDbLine
 10
14808.80217064596
 20
833.8747482146439
 30
0.0
 11
14808.80217064596
 21
813.8747482146435
 31
0.0
  0
LINE
  5
17FC7
330
17CD8
100
AcDbEntity
  8
YODOROGO
100
AcDbLine
 10
14942.80217064596
 20
833.8747482146439
 30
0.0
 11
14808.80217064596
 21
833.8747482146439
 31
0.0
  0
LINE
  5
17FC8
330
17CD8
100
AcDbEntity
  8
YODOROGO
100
AcDbLine
 10
14958.80217064596
 20
813.8747482146435
 30
0.0
 11
14888.80217064596
 21
813.8747482146435
 31
0.0
  0
LINE
  5
17FC9
330
17CD8
100
AcDbEntity
  8
YODOROGO
100
AcDbLine
 10
14888.80217064596
 20
781.0027187088283
 30
0.0
 11
14885.70493649264
 21
778.403830673117
 31
0.0
  0
LINE
  5
17FCA
330
17CD8
100
AcDbEntity
  8
YODOROGO
100
AcDbLine
 10
14888.80217064596
 20
813.8747482146435
 30
0.0
 11
14888.80217064596
 21
781.0027187088283
 31
0.0
  0
LINE
  5
17FCB
330
17CD8
100
AcDbEntity
  8
YODOROGO
100
AcDbLine
 10
14868.80217064596
 20
764.2207260852818
 30
0.0
 11
14868.80217064596
 21
713.8747482146436
 31
0.0
  0
LINE
  5
17FCC
330
17CD8
100
AcDbEntity
  8
YODOROGO
100
AcDbLine
 10
14808.80217064596
 20
713.8747482146436
 30
0.0
 11
14868.80217064596
 21
764.2207260852818
 31
0.0
  0
LINE
  5
17FCD
330
17CD8
100
AcDbEntity
  8
YODOROGO
100
AcDbLine
 10
14808.80217064596
 20
773.874748214644
 30
0.0
 11
14808.80217064596
 21
713.8747482146436
 31
0.0
  0
LINE
  5
17FCE
330
17CD8
100
AcDbEntity
  8
YODOROGO
100
AcDbLine
 10
14856.47231434973
 20
813.8747482146435
 30
0.0
 11
14808.80217064596
 21
773.874748214644
 31
0.0
  0
LINE
  5
17FCF
330
17CD8
100
AcDbEntity
  8
YODOROGO
100
AcDbLine
 10
14808.80217064596
 20
813.8747482146435
 30
0.0
 11
14856.47231434973
 21
813.8747482146435
 31
0.0
  0
LINE
  5
17FD0
330
17CD8
100
AcDbEntity
  8
YODOROGO
100
AcDbLine
 10
14808.80217064596
 20
833.8747482146439
 30
0.0
 11
14808.80217064596
 21
813.8747482146435
 31
0.0
  0
LINE
  5
17FD1
330
17CD8
100
AcDbEntity
  8
YODOROGO
100
AcDbLine
 10
14942.80217064596
 20
833.8747482146439
 30
0.0
 11
14808.80217064596
 21
833.8747482146439
 31
0.0
  0
LINE
  5
17FD2
330
17CD8
100
AcDbEntity
  8
YODOROGO
100
AcDbLine
 10
14396.80217064594
 20
873.8747482146449
 30
0.0
 11
14396.80217064594
 21
909.8747482146439
 31
0.0
  0
LINE
  5
17FD3
330
17CD8
100
AcDbEntity
  8
YODOROGO
100
AcDbLine
 10
14328.80217064594
 20
873.8747482146449
 30
0.0
 11
14396.80217064594
 21
873.8747482146449
 31
0.0
  0
LINE
  5
17FD4
330
17CD8
100
AcDbEntity
  8
YODOROGO
100
AcDbLine
 10
14364.80217064596
 20
933.8747482146439
 30
0.0
 11
14364.80217064596
 21
961.8747482146432
 31
0.0
  0
LINE
  5
17FD5
330
17CD8
100
AcDbEntity
  8
YODOROGO
100
AcDbLine
 10
14396.80217064594
 20
933.8747482146439
 30
0.0
 11
14364.80217064596
 21
933.8747482146439
 31
0.0
  0
LINE
  5
17FD6
330
17CD8
100
AcDbEntity
  8
YODOROGO
100
AcDbLine
 10
14396.80217064594
 20
973.8747482146434
 30
0.0
 11
14396.80217064594
 21
933.8747482146439
 31
0.0
  0
ARC
  5
17FD7
330
17CD8
100
AcDbEntity
  8
YODOROGO
100
AcDbCircle
 10
14376.80217064594
 20
973.8747482146434
 30
0.0
 40
20.0
100
AcDbArc
 50
0.0
 51
90.0
  0
LINE
  5
17FD8
330
17CD8
100
AcDbEntity
  8
YODOROGO
100
AcDbLine
 10
14328.80217064596
 20
993.8747482146439
 30
0.0
 11
14376.80217064594
 21
993.8747482146439
 31
0.0
  0
LINE
  5
17FD9
330
17CD8
100
AcDbEntity
  8
YODOROGO
100
AcDbLine
 10
14328.80217064596
 20
1013.874748214644
 30
0.0
 11
14328.80217064596
 21
993.8747482146439
 31
0.0
  0
LINE
  5
17FDA
330
17CD8
100
AcDbEntity
  8
YODOROGO
100
AcDbLine
 10
14536.80217064596
 20
1013.874748214644
 30
0.0
 11
14500.80217064594
 21
1013.874748214644
 31
0.0
  0
LINE
  5
17FDB
330
17CD8
100
AcDbEntity
  8
YODOROGO
100
AcDbLine
 10
14630.80217064596
 20
1003.874748214644
 30
0.0
 11
14598.80217064596
 21
1003.874748214644
 31
0.0
  0
LINE
  5
17FDC
330
17CD8
100
AcDbEntity
  8
YODOROGO
100
AcDbLine
 10
14728.80217064596
 20
1013.874748214644
 30
0.0
 11
14692.80217064596
 21
1013.874748214644
 31
0.0
  0
LINE
  5
17FDD
330
17CD8
100
AcDbEntity
  8
YODOROGO
100
AcDbLine
 10
14836.80217064596
 20
853.874748214644
 30
0.0
 11
14836.80217064596
 21
885.8747482146441
 31
0.0
1001
AUTOCAD_POSTSCRIPT_FIGURE
1002
{
1000
PSFILL
1000
Grayscale
1000
Grayscale
1070
    25
1002
}
  0
LINE
  5
17FDE
330
17CD8
100
AcDbEntity
  8
YODOROGO
100
AcDbLine
 10
14808.80217064596
 20
853.874748214644
 30
0.0
 11
14836.80217064596
 21
853.874748214644
 31
0.0
1001
AUTOCAD_POSTSCRIPT_FIGURE
1002
{
1000
PSFILL
1000
Grayscale
1000
Grayscale
1070
    25
1002
}
  0
LINE
  5
17FDF
330
17CD8
100
AcDbEntity
  8
YODOROGO
100
AcDbLine
 10
14808.80217064596
 20
909.8747482146439
 30
0.0
 11
14808.80217064596
 21
853.874748214644
 31
0.0
1001
AUTOCAD_POSTSCRIPT_FIGURE
1002
{
1000
PSFILL
1000
Grayscale
1000
Grayscale
1070
    25
1002
}
  0
LINE
  5
17FE0
330
17CD8
100
AcDbEntity
  8
YODOROGO
100
AcDbLine
 10
14882.80217064596
 20
909.8747482146439
 30
0.0
 11
14808.80217064596
 21
909.8747482146439
 31
0.0
1001
AUTOCAD_POSTSCRIPT_FIGURE
1002
{
1000
PSFILL
1000
Grayscale
1000
Grayscale
1070
    25
1002
}
  0
LINE
  5
17FE1
330
17CD8
100
AcDbEntity
  8
YODOROGO
100
AcDbLine
 10
14882.80217064596
 20
929.874748214644
 30
0.0
 11
14882.80217064596
 21
909.8747482146439
 31
0.0
1001
AUTOCAD_POSTSCRIPT_FIGURE
1002
{
1000
PSFILL
1000
Grayscale
1000
Grayscale
1070
    25
1002
}
  0
LINE
  5
17FE2
330
17CD8
100
AcDbEntity
  8
YODOROGO
100
AcDbLine
 10
14808.80217064596
 20
929.874748214644
 30
0.0
 11
14882.80217064596
 21
929.874748214644
 31
0.0
1001
AUTOCAD_POSTSCRIPT_FIGURE
1002
{
1000
PSFILL
1000
Grayscale
1000
Grayscale
1070
    25
1002
}
  0
LINE
  5
17FE3
330
17CD8
100
AcDbEntity
  8
YODOROGO
100
AcDbLine
 10
14808.80217064596
 20
953.874748214644
 30
0.0
 11
14808.80217064596
 21
929.874748214644
 31
0.0
1001
AUTOCAD_POSTSCRIPT_FIGURE
1002
{
1000
PSFILL
1000
Grayscale
1000
Grayscale
1070
    25
1002
}
  0
LINE
  5
17FE4
330
17CD8
100
AcDbEntity
  8
YODOROGO
100
AcDbLine
 10
14882.80217064596
 20
953.874748214644
 30
0.0
 11
14808.80217064596
 21
953.874748214644
 31
0.0
1001
AUTOCAD_POSTSCRIPT_FIGURE
1002
{
1000
PSFILL
1000
Grayscale
1000
Grayscale
1070
    25
1002
}
  0
LINE
  5
17FE5
330
17CD8
100
AcDbEntity
  8
YODOROGO
100
AcDbLine
 10
14882.80217064596
 20
973.8747482146434
 30
0.0
 11
14882.80217064596
 21
953.874748214644
 31
0.0
1001
AUTOCAD_POSTSCRIPT_FIGURE
1002
{
1000
PSFILL
1000
Grayscale
1000
Grayscale
1070
    25
1002
}
  0
LINE
  5
17FE6
330
17CD8
100
AcDbEntity
  8
YODOROGO
100
AcDbLine
 10
14808.80217064596
 20
973.8747482146434
 30
0.0
 11
14882.80217064596
 21
973.8747482146434
 31
0.0
1001
AUTOCAD_POSTSCRIPT_FIGURE
1002
{
1000
PSFILL
1000
Grayscale
1000
Grayscale
1070
    25
1002
}
  0
LINE
  5
17FE7
330
17CD8
100
AcDbEntity
  8
YODOROGO
100
AcDbLine
 10
14808.80217064596
 20
1013.874748214644
 30
0.0
 11
14808.80217064596
 21
973.8747482146434
 31
0.0
1001
AUTOCAD_POSTSCRIPT_FIGURE
1002
{
1000
PSFILL
1000
Grayscale
1000
Grayscale
1070
    25
1002
}
  0
LINE
  5
17FE8
330
17CD8
100
AcDbEntity
  8
YODOROGO
100
AcDbLine
 10
14832.80217064596
 20
1013.874748214644
 30
0.0
 11
14808.80217064596
 21
1013.874748214644
 31
0.0
1001
AUTOCAD_POSTSCRIPT_FIGURE
1002
{
1000
PSFILL
1000
Grayscale
1000
Grayscale
1070
    25
1002
}
  0
LINE
  5
17FE9
330
17CD8
100
AcDbEntity
  8
YODOROGO
100
AcDbLine
 10
14832.80217064596
 20
997.8747482146435
 30
0.0
 11
14832.80217064596
 21
1013.874748214644
 31
0.0
1001
AUTOCAD_POSTSCRIPT_FIGURE
1002
{
1000
PSFILL
1000
Grayscale
1000
Grayscale
1070
    25
1002
}
  0
LINE
  5
17FEA
330
17CD8
100
AcDbEntity
  8
YODOROGO
100
AcDbLine
 10
14882.80217064596
 20
997.8747482146435
 30
0.0
 11
14832.80217064596
 21
997.8747482146435
 31
0.0
1001
AUTOCAD_POSTSCRIPT_FIGURE
1002
{
1000
PSFILL
1000
Grayscale
1000
Grayscale
1070
    25
1002
}
  0
LINE
  5
17FEB
330
17CD8
100
AcDbEntity
  8
YODOROGO
100
AcDbLine
 10
14882.80217064596
 20
1013.874748214644
 30
0.0
 11
14882.80217064596
 21
997.8747482146435
 31
0.0
1001
AUTOCAD_POSTSCRIPT_FIGURE
1002
{
1000
PSFILL
1000
Grayscale
1000
Grayscale
1070
    25
1002
}
  0
LINE
  5
17FEC
330
17CD8
100
AcDbEntity
  8
YODOROGO
100
AcDbLine
 10
14914.80217064596
 20
1013.874748214644
 30
0.0
 11
14882.80217064596
 21
1013.874748214644
 31
0.0
1001
AUTOCAD_POSTSCRIPT_FIGURE
1002
{
1000
PSFILL
1000
Grayscale
1000
Grayscale
1070
    25
1002
}
  0
LINE
  5
17FED
330
17CD8
100
AcDbEntity
  8
YODOROGO
100
AcDbLine
 10
14914.80217064596
 20
997.8747482146435
 30
0.0
 11
14914.80217064596
 21
1013.874748214644
 31
0.0
1001
AUTOCAD_POSTSCRIPT_FIGURE
1002
{
1000
PSFILL
1000
Grayscale
1000
Grayscale
1070
    25
1002
}
  0
LINE
  5
17FEE
330
17CD8
100
AcDbEntity
  8
YODOROGO
100
AcDbLine
 10
14914.80217064596
 20
953.874748214644
 30
0.0
 11
14914.80217064596
 21
973.8747482146434
 31
0.0
1001
AUTOCAD_POSTSCRIPT_FIGURE
1002
{
1000
PSFILL
1000
Grayscale
1000
Grayscale
1070
    25
1002
}
  0
LINE
  5
17FEF
330
17CD8
100
AcDbEntity
  8
YODOROGO
100
AcDbLine
 10
14914.80217064596
 20
909.8747482146439
 30
0.0
 11
14914.80217064596
 21
929.874748214644
 31
0.0
1001
AUTOCAD_POSTSCRIPT_FIGURE
1002
{
1000
PSFILL
1000
Grayscale
1000
Grayscale
1070
    25
1002
}
  0
LINE
  5
17FF0
330
17CD8
100
AcDbEntity
  8
YODOROGO
100
AcDbLine
 10
14960.80217064594
 20
885.8747482146441
 30
0.0
 11
14960.80217064594
 21
853.874748214644
 31
0.0
1001
AUTOCAD_POSTSCRIPT_FIGURE
1002
{
1000
PSFILL
1000
Grayscale
1000
Grayscale
1070
    25
1002
}
  0
LINE
  5
17FF1
330
17CD8
100
AcDbEntity
  8
YODOROGO
100
AcDbLine
 10
14914.80217064596
 20
885.8747482146441
 30
0.0
 11
14960.80217064594
 21
885.8747482146441
 31
0.0
1001
AUTOCAD_POSTSCRIPT_FIGURE
1002
{
1000
PSFILL
1000
Grayscale
1000
Grayscale
1070
    25
1002
}
  0
LINE
  5
17FF2
330
17CD8
100
AcDbEntity
  8
YODOROGO
100
AcDbLine
 10
14914.80217064596
 20
853.874748214644
 30
0.0
 11
14914.80217064596
 21
885.8747482146441
 31
0.0
1001
AUTOCAD_POSTSCRIPT_FIGURE
1002
{
1000
PSFILL
1000
Grayscale
1000
Grayscale
1070
    25
1002
}
  0
LINE
  5
17FF3
330
17CD8
100
AcDbEntity
  8
YODOROGO
100
AcDbLine
 10
14882.80217064596
 20
853.874748214644
 30
0.0
 11
14914.80217064596
 21
853.874748214644
 31
0.0
1001
AUTOCAD_POSTSCRIPT_FIGURE
1002
{
1000
PSFILL
1000
Grayscale
1000
Grayscale
1070
    25
1002
}
  0
LINE
  5
17FF4
330
17CD8
100
AcDbEntity
  8
YODOROGO
100
AcDbLine
 10
14882.80217064596
 20
885.8747482146441
 30
0.0
 11
14882.80217064596
 21
853.874748214644
 31
0.0
1001
AUTOCAD_POSTSCRIPT_FIGURE
1002
{
1000
PSFILL
1000
Grayscale
1000
Grayscale
1070
    25
1002
}
  0
LINE
  5
17FF5
330
17CD8
100
AcDbEntity
  8
YODOROGO
100
AcDbLine
 10
14836.80217064596
 20
885.8747482146441
 30
0.0
 11
14882.80217064596
 21
885.8747482146441
 31
0.0
1001
AUTOCAD_POSTSCRIPT_FIGURE
1002
{
1000
PSFILL
1000
Grayscale
1000
Grayscale
1070
    25
1002
}
  0
ARC
  5
17FF6
330
17CD8
100
AcDbEntity
  8
YODOROGO
100
AcDbCircle
 10
15529.75894667896
 20
801.3403687577881
 30
0.0
 40
89.11064055536078
100
AcDbArc
 50
281.0262749542535
 51
357.771135755738
  0
LINE
  5
17FF7
330
17CD8
100
AcDbEntity
  8
YODOROGO
100
AcDbLine
 10
15706.80217064596
 20
953.874748214644
 30
0.0
 11
15582.80217064596
 21
953.874748214644
 31
0.0
  0
LINE
  5
17FF8
330
17CD8
100
AcDbEntity
  8
YODOROGO
100
AcDbLine
 10
15706.80217064596
 20
1013.874748214644
 30
0.0
 11
15582.80217064596
 21
1013.874748214644
 31
0.0
  0
LINE
  5
17FF9
330
17CD8
100
AcDbEntity
  8
YODOROGO
100
AcDbLine
 10
15582.80217064596
 20
981.8747482146434
 30
0.0
 11
15706.80217064596
 21
981.8747482146434
 31
0.0
  0
LINE
  5
17FFA
330
17CD8
100
AcDbEntity
  8
YODOROGO
100
AcDbLine
 10
15395.80217064596
 20
781.8747482146434
 30
0.0
 11
15395.80217064596
 21
877.8747482146435
 31
0.0
  0
LINE
  5
17FFB
330
17CD8
100
AcDbEntity
  8
YODOROGO
100
AcDbLine
 10
15381.80217064596
 20
845.8747482146444
 30
0.0
 11
15381.80217064596
 21
781.8747482146434
 31
0.0
  0
LINE
  5
17FFC
330
17CD8
100
AcDbEntity
  8
YODOROGO
100
AcDbLine
 10
15361.80217064596
 20
745.8747482146443
 30
0.0
 11
15361.80217064596
 21
845.8747482146444
 31
0.0
  0
LINE
  5
17FFD
330
17CD8
100
AcDbEntity
  8
YODOROGO
100
AcDbLine
 10
15449.80217064596
 20
845.8747482146444
 30
0.0
 11
15449.80217064596
 21
745.8747482146443
 31
0.0
  0
LINE
  5
17FFE
330
17CD8
100
AcDbEntity
  8
YODOROGO
100
AcDbLine
 10
15429.80217064596
 20
781.8747482146434
 30
0.0
 11
15429.80217064596
 21
845.8747482146444
 31
0.0
  0
LINE
  5
17FFF
330
17CD8
100
AcDbEntity
  8
YODOROGO
100
AcDbLine
 10
15415.80217064596
 20
877.8747482146435
 30
0.0
 11
15415.80217064596
 21
781.8747482146434
 31
0.0
  0
LINE
  5
18000
330
17CD8
100
AcDbEntity
  8
YODOROGO
100
AcDbLine
 10
15486.80217064596
 20
1013.874748214644
 30
0.0
 11
15486.80217064596
 21
733.8747482146435
 31
0.0
  0
LINE
  5
18001
330
17CD8
100
AcDbEntity
  8
YODOROGO
100
AcDbLine
 10
15322.80217064596
 20
713.8747482146436
 30
0.0
 11
15322.80217064596
 21
1013.874748214644
 31
0.0
  0
LINE
  5
18002
330
17CD8
100
AcDbEntity
  8
YODOROGO
100
AcDbLine
 10
15348.80217064596
 20
981.8747482146434
 30
0.0
 11
15348.80217064596
 21
713.8747482146436
 31
0.0
  0
LINE
  5
18003
330
17CD8
100
AcDbEntity
  8
YODOROGO
100
AcDbLine
 10
15462.80217064596
 20
773.874748214644
 30
0.0
 11
15462.80217064596
 21
981.8747482146434
 31
0.0
  0
LINE
  5
18004
330
17CD8
100
AcDbEntity
  8
YODOROGO
100
AcDbLine
 10
15190.80217064596
 20
813.8747482146435
 30
0.0
 11
15190.80217064596
 21
839.8747482146442
 31
0.0
  0
LINE
  5
18005
330
17CD8
100
AcDbEntity
  8
YODOROGO
100
AcDbLine
 10
15308.80217064596
 20
839.8747482146442
 30
0.0
 11
15308.80217064596
 21
813.8747482146435
 31
0.0
  0
LINE
  5
18006
330
17CD8
100
AcDbEntity
  8
YODOROGO
100
AcDbLine
 10
15582.80217064596
 20
953.874748214644
 30
0.0
 11
15582.80217064596
 21
817.8747482146436
 31
0.0
  0
LINE
  5
18007
330
17CD8
100
AcDbEntity
  8
YODOROGO
100
AcDbLine
 10
14974.80217064595
 20
833.8747482146439
 30
0.0
 11
14974.80217064595
 21
853.874748214644
 31
0.0
  0
LINE
  5
18008
330
17CD8
100
AcDbEntity
  8
YODOROGO
100
AcDbLine
 10
14974.80217064595
 20
833.8747482146439
 30
0.0
 11
14974.80217064595
 21
853.874748214644
 31
0.0
  0
ARC
  5
18009
330
17CD8
100
AcDbEntity
  8
YODOROGO
100
AcDbCircle
 10
15268.80217064596
 20
753.8747482146439
 30
0.0
 40
40.0
100
AcDbArc
 50
270.0
 51
0.0
  0
LINE
  5
1800A
330
17CD8
100
AcDbEntity
  8
YODOROGO
100
AcDbLine
 10
15284.80217064596
 20
799.8747482146441
 30
0.0
 11
15308.80217064596
 21
799.8747482146441
 31
0.0
  0
LINE
  5
1800B
330
17CD8
100
AcDbEntity
  8
YODOROGO
100
AcDbLine
 10
15308.80217064596
 20
813.8747482146435
 30
0.0
 11
15264.80217064596
 21
813.8747482146435
 31
0.0
  0
LINE
  5
1800C
330
17CD8
100
AcDbEntity
  8
YODOROGO
100
AcDbLine
 10
15108.80217064596
 20
833.8747482146439
 30
0.0
 11
14974.80217064595
 21
833.8747482146439
 31
0.0
  0
LINE
  5
1800D
330
17CD8
100
AcDbEntity
  8
YODOROGO
100
AcDbLine
 10
15108.80217064596
 20
813.8747482146435
 30
0.0
 11
15108.80217064596
 21
833.8747482146439
 31
0.0
  0
LINE
  5
1800E
330
17CD8
100
AcDbEntity
  8
YODOROGO
100
AcDbLine
 10
15008.80217064596
 20
813.8747482146435
 30
0.0
 11
15108.80217064596
 21
813.8747482146435
 31
0.0
  0
ARC
  5
1800F
330
17CD8
100
AcDbEntity
  8
YODOROGO
100
AcDbCircle
 10
15115.02941435068
 20
934.4428574764513
 30
0.0
 40
160.6888181426141
100
AcDbArc
 50
228.6181454618993
 51
245.660289248906
  0
LINE
  5
18010
330
17CD8
100
AcDbEntity
  8
YODOROGO
100
AcDbLine
 10
15052.80217064596
 20
801.8747482146444
 30
0.0
 11
15048.80217064598
 21
788.0364079349501
 31
0.0
  0
LINE
  5
18011
330
17CD8
100
AcDbEntity
  8
YODOROGO
100
AcDbLine
 10
15094.80217064596
 20
801.8747482146444
 30
0.0
 11
15052.80217064596
 21
801.8747482146444
 31
0.0
  0
LINE
  5
18012
330
17CD8
100
AcDbEntity
  8
YODOROGO
100
AcDbLine
 10
15088.80217064596
 20
775.9088612367134
 30
0.0
 11
15094.80217064596
 21
801.8747482146444
 31
0.0
  0
ARC
  5
18013
330
17CD8
100
AcDbEntity
  8
YODOROGO
100
AcDbCircle
 10
15115.02941435023
 20
934.4428574765014
 30
0.0
 40
160.6888181426453
100
AcDbArc
 50
260.6062929796992
 51
267.7790355655586
  0
LINE
  5
18014
330
17CD8
100
AcDbEntity
  8
YODOROGO
100
AcDbLine
 10
15108.80217064596
 20
713.8747482146428
 30
0.0
 11
15108.80217064596
 21
773.874748214644
 31
0.0
  0
LINE
  5
18015
330
17CD8
100
AcDbEntity
  8
YODOROGO
100
AcDbLine
 10
14968.80217064596
 20
740.6696674577553
 30
0.0
 11
14968.80217064596
 21
797.2655452655705
 31
0.0
  0
LINE
  5
18016
330
17CD8
100
AcDbEntity
  8
YODOROGO
100
AcDbLine
 10
15108.80217064596
 20
833.8747482146439
 30
0.0
 11
14974.80217064595
 21
833.8747482146439
 31
0.0
  0
LINE
  5
18017
330
17CD8
100
AcDbEntity
  8
YODOROGO
100
AcDbLine
 10
15108.80217064596
 20
813.8747482146435
 30
0.0
 11
15108.80217064596
 21
833.8747482146439
 31
0.0
  0
LINE
  5
18018
330
17CD8
100
AcDbEntity
  8
YODOROGO
100
AcDbLine
 10
15008.80217064596
 20
813.8747482146435
 30
0.0
 11
15108.80217064596
 21
813.8747482146435
 31
0.0
  0
ARC
  5
18019
330
17CD8
100
AcDbEntity
  8
YODOROGO
100
AcDbCircle
 10
15115.02941435068
 20
934.4428574764513
 30
0.0
 40
160.6888181426141
100
AcDbArc
 50
228.6181454618993
 51
245.660289248906
  0
LINE
  5
1801A
330
17CD8
100
AcDbEntity
  8
YODOROGO
100
AcDbLine
 10
15052.80217064596
 20
801.8747482146444
 30
0.0
 11
15048.80217064598
 21
788.0364079349501
 31
0.0
  0
LINE
  5
1801B
330
17CD8
100
AcDbEntity
  8
YODOROGO
100
AcDbLine
 10
15094.80217064596
 20
801.8747482146444
 30
0.0
 11
15052.80217064596
 21
801.8747482146444
 31
0.0
  0
LINE
  5
1801C
330
17CD8
100
AcDbEntity
  8
YODOROGO
100
AcDbLine
 10
15088.80217064596
 20
775.9088612367134
 30
0.0
 11
15094.80217064596
 21
801.8747482146444
 31
0.0
  0
ARC
  5
1801D
330
17CD8
100
AcDbEntity
  8
YODOROGO
100
AcDbCircle
 10
15115.02941435023
 20
934.4428574765014
 30
0.0
 40
160.6888181426453
100
AcDbArc
 50
260.6062929796992
 51
267.7790355655586
  0
LINE
  5
1801E
330
17CD8
100
AcDbEntity
  8
YODOROGO
100
AcDbLine
 10
15108.80217064596
 20
713.8747482146428
 30
0.0
 11
15108.80217064596
 21
773.874748214644
 31
0.0
  0
LINE
  5
1801F
330
17CD8
100
AcDbEntity
  8
YODOROGO
100
AcDbLine
 10
14968.80217064596
 20
740.6696674577553
 30
0.0
 11
14968.80217064596
 21
797.2655452655705
 31
0.0
  0
LINE
  5
18020
330
17CD8
100
AcDbEntity
  8
YODOROGO
100
AcDbLine
 10
15216.80217064596
 20
786.8747482146444
 30
0.0
 11
15190.80217064596
 21
786.8747482146444
 31
0.0
  0
LINE
  5
18021
330
17CD8
100
AcDbEntity
  8
YODOROGO
100
AcDbLine
 10
15216.80217064596
 20
800.8747482146432
 30
0.0
 11
15216.80217064596
 21
786.8747482146444
 31
0.0
  0
LINE
  5
18022
330
17CD8
100
AcDbEntity
  8
YODOROGO
100
AcDbLine
 10
15190.80217064596
 20
800.8747482146432
 30
0.0
 11
15216.80217064596
 21
800.8747482146432
 31
0.0
  0
LINE
  5
18023
330
17CD8
100
AcDbEntity
  8
YODOROGO
100
AcDbLine
 10
15190.80217064596
 20
786.8747482146444
 30
0.0
 11
15190.80217064596
 21
800.8747482146432
 31
0.0
  0
LINE
  5
18024
330
17CD8
100
AcDbEntity
  8
YODOROGO
100
AcDbLine
 10
15214.80217064596
 20
788.8747482146436
 30
0.0
 11
15192.80217064595
 21
788.8747482146436
 31
0.0
  0
LINE
  5
18025
330
17CD8
100
AcDbEntity
  8
YODOROGO
100
AcDbLine
 10
15214.80217064596
 20
798.874748214644
 30
0.0
 11
15214.80217064596
 21
788.8747482146436
 31
0.0
  0
LINE
  5
18026
330
17CD8
100
AcDbEntity
  8
YODOROGO
100
AcDbLine
 10
15192.80217064595
 20
798.874748214644
 30
0.0
 11
15214.80217064596
 21
798.874748214644
 31
0.0
  0
LINE
  5
18027
330
17CD8
100
AcDbEntity
  8
YODOROGO
100
AcDbLine
 10
15192.80217064595
 20
788.8747482146436
 30
0.0
 11
15192.80217064595
 21
798.874748214644
 31
0.0
  0
LINE
  5
18028
330
17CD8
100
AcDbEntity
  8
YODOROGO
100
AcDbLine
 10
15212.80217064596
 20
790.8747482146432
 30
0.0
 11
15194.80217064596
 21
790.8747482146432
 31
0.0
  0
LINE
  5
18029
330
17CD8
100
AcDbEntity
  8
YODOROGO
100
AcDbLine
 10
15212.80217064596
 20
796.8747482146445
 30
0.0
 11
15212.80217064596
 21
790.8747482146432
 31
0.0
  0
LINE
  5
1802A
330
17CD8
100
AcDbEntity
  8
YODOROGO
100
AcDbLine
 10
15194.80217064596
 20
796.8747482146445
 30
0.0
 11
15212.80217064596
 21
796.8747482146445
 31
0.0
  0
LINE
  5
1802B
330
17CD8
100
AcDbEntity
  8
YODOROGO
100
AcDbLine
 10
15194.80217064596
 20
790.8747482146432
 30
0.0
 11
15194.80217064596
 21
796.8747482146445
 31
0.0
  0
LINE
  5
1802C
330
17CD8
100
AcDbEntity
  8
YODOROGO
100
AcDbLine
 10
15210.80217064596
 20
792.8747482146435
 30
0.0
 11
15196.80217064596
 21
792.8747482146435
 31
0.0
  0
LINE
  5
1802D
330
17CD8
100
AcDbEntity
  8
YODOROGO
100
AcDbLine
 10
15210.80217064596
 20
794.8747482146441
 30
0.0
 11
15210.80217064596
 21
792.8747482146435
 31
0.0
  0
LINE
  5
1802E
330
17CD8
100
AcDbEntity
  8
YODOROGO
100
AcDbLine
 10
15196.80217064596
 20
794.8747482146441
 30
0.0
 11
15210.80217064596
 21
794.8747482146441
 31
0.0
  0
LINE
  5
1802F
330
17CD8
100
AcDbEntity
  8
YODOROGO
100
AcDbLine
 10
15196.80217064596
 20
792.8747482146435
 30
0.0
 11
15196.80217064596
 21
794.8747482146441
 31
0.0
  0
LINE
  5
18030
330
17CD8
100
AcDbEntity
  8
YODOROGO
100
AcDbLine
 10
15232.80217064596
 20
813.8747482146435
 30
0.0
 11
15190.80217064596
 21
813.8747482146435
 31
0.0
  0
LINE
  5
18031
330
17CD8
100
AcDbEntity
  8
YODOROGO
100
AcDbLine
 10
15232.80217064596
 20
773.874748214644
 30
0.0
 11
15232.80217064596
 21
813.8747482146435
 31
0.0
  0
LINE
  5
18032
330
17CD8
100
AcDbEntity
  8
YODOROGO
100
AcDbLine
 10
15190.80217064596
 20
773.874748214644
 30
0.0
 11
15232.80217064596
 21
773.874748214644
 31
0.0
  0
LINE
  5
18033
330
17CD8
100
AcDbEntity
  8
YODOROGO
100
AcDbLine
 10
15190.80217064596
 20
713.8747482146436
 30
0.0
 11
15190.80217064596
 21
773.874748214644
 31
0.0
  0
LINE
  5
18034
330
17CD8
100
AcDbEntity
  8
YODOROGO
100
AcDbLine
 10
15268.80217064596
 20
713.8747482146436
 30
0.0
 11
15190.80217064596
 21
713.8747482146436
 31
0.0
  0
LINE
  5
18035
330
17CD8
100
AcDbEntity
  8
YODOROGO
100
AcDbLine
 10
15284.80217064596
 20
785.8747482146432
 30
0.0
 11
15284.80217064596
 21
799.8747482146441
 31
0.0
  0
ARC
  5
18036
330
17CD8
100
AcDbEntity
  8
YODOROGO
100
AcDbCircle
 10
15272.80217064594
 20
785.8747482146457
 30
0.0
 40
12.00000000000187
100
AcDbArc
 50
270.0
 51
359.9999999999877
  0
LINE
  5
18037
330
17CD8
100
AcDbEntity
  8
YODOROGO
100
AcDbLine
 10
15264.80217064596
 20
773.874748214644
 30
0.0
 11
15272.80217064594
 21
773.874748214644
 31
0.0
  0
LINE
  5
18038
330
17CD8
100
AcDbEntity
  8
YODOROGO
100
AcDbLine
 10
15264.80217064596
 20
813.8747482146435
 30
0.0
 11
15264.80217064596
 21
773.874748214644
 31
0.0
  0
LINE
  5
18039
330
17CD8
100
AcDbEntity
  8
YODOROGO
100
AcDbLine
 10
15449.80217064596
 20
773.874748214644
 30
0.0
 11
15462.80217064596
 21
773.874748214644
 31
0.0
  0
LINE
  5
1803A
330
17CD8
100
AcDbEntity
  8
YODOROGO
100
AcDbLine
 10
15466.80217064596
 20
713.8747482146436
 30
0.0
 11
15449.80217064596
 21
713.8747482146436
 31
0.0
  0
LINE
  5
1803B
330
17CD8
100
AcDbEntity
  8
YODOROGO
100
AcDbLine
 10
15381.80217064596
 20
781.8747482146434
 30
0.0
 11
15395.80217064596
 21
781.8747482146434
 31
0.0
  0
LINE
  5
1803C
330
17CD8
100
AcDbEntity
  8
YODOROGO
100
AcDbLine
 10
15449.80217064596
 20
745.8747482146443
 30
0.0
 11
15361.80217064596
 21
745.8747482146443
 31
0.0
  0
LINE
  5
1803D
330
17CD8
100
AcDbEntity
  8
YODOROGO
100
AcDbLine
 10
15415.80217064596
 20
781.8747482146434
 30
0.0
 11
15429.80217064596
 21
781.8747482146434
 31
0.0
  0
LINE
  5
1803E
330
17CD8
100
AcDbEntity
  8
YODOROGO
100
AcDbLine
 10
15449.80217064596
 20
713.8747482146436
 30
0.0
 11
15449.80217064596
 21
773.874748214644
 31
0.0
  0
LINE
  5
1803F
330
17CD8
100
AcDbEntity
  8
YODOROGO
100
AcDbLine
 10
15348.80217064596
 20
713.8747482146436
 30
0.0
 11
15322.80217064596
 21
713.8747482146436
 31
0.0
  0
LINE
  5
18040
330
17CD8
100
AcDbEntity
  8
YODOROGO
100
AcDbLine
 10
15308.80217064596
 20
799.8747482146441
 30
0.0
 11
15308.80217064596
 21
753.8747482146439
 31
0.0
  0
ARC
  5
18041
330
17CD8
100
AcDbEntity
  8
YODOROGO
100
AcDbCircle
 10
15466.80217064596
 20
733.8747482146435
 30
0.0
 40
20.0
100
AcDbArc
 50
270.0
 51
0.0
  0
LINE
  5
18042
330
17CD8
100
AcDbEntity
  8
YODOROGO
100
AcDbLine
 10
15546.80217064596
 20
761.8747482146434
 30
0.0
 11
15546.80217064596
 21
713.8747482146436
 31
0.0
  0
ARC
  5
18043
330
17CD8
100
AcDbEntity
  8
YODOROGO
100
AcDbCircle
 10
15519.86069778339
 20
818.7656950548664
 30
0.0
 40
62.94777829583771
100
AcDbArc
 50
295.3405244216011
 51
359.1890230341867
  0
LINE
  5
18044
330
17CD8
100
AcDbEntity
  8
YODOROGO
100
AcDbLine
 10
15308.80217064596
 20
929.874748214644
 30
0.0
 11
15248.80217064596
 21
969.8747482146441
 31
0.0
  0
LINE
  5
18045
330
17CD8
100
AcDbEntity
  8
YODOROGO
100
AcDbLine
 10
15248.80217064596
 20
1013.874748214644
 30
0.0
 11
15308.80217064596
 21
973.8747482146434
 31
0.0
  0
LINE
  5
18046
330
17CD8
100
AcDbEntity
  8
YODOROGO
100
AcDbLine
 10
15264.80217064596
 20
839.8747482146442
 30
0.0
 11
15308.80217064596
 21
839.8747482146442
 31
0.0
  0
LINE
  5
18047
330
17CD8
100
AcDbEntity
  8
YODOROGO
100
AcDbLine
 10
15308.80217064596
 20
867.8747482146436
 30
0.0
 11
15264.80217064596
 21
867.8747482146436
 31
0.0
  0
LINE
  5
18048
330
17CD8
100
AcDbEntity
  8
YODOROGO
100
AcDbLine
 10
15190.80217064596
 20
897.8747482146435
 30
0.0
 11
15308.80217064596
 21
897.8747482146435
 31
0.0
  0
LINE
  5
18049
330
17CD8
100
AcDbEntity
  8
YODOROGO
100
AcDbLine
 10
15040.80217064596
 20
1013.874748214644
 30
0.0
 11
15010.80217064596
 21
1013.874748214644
 31
0.0
  0
LINE
  5
1804A
330
17CD8
100
AcDbEntity
  8
YODOROGO
100
AcDbLine
 10
15040.80217064596
 20
913.8747482146435
 30
0.0
 11
15040.80217064596
 21
1013.874748214644
 31
0.0
  0
LINE
  5
1804B
330
17CD8
100
AcDbEntity
  8
YODOROGO
100
AcDbLine
 10
15010.80217064596
 20
913.8747482146435
 30
0.0
 11
15040.80217064596
 21
913.8747482146435
 31
0.0
  0
LINE
  5
1804C
330
17CD8
100
AcDbEntity
  8
YODOROGO
100
AcDbLine
 10
15010.80217064596
 20
1013.874748214644
 30
0.0
 11
15010.80217064596
 21
913.8747482146435
 31
0.0
  0
LINE
  5
1804D
330
17CD8
100
AcDbEntity
  8
YODOROGO
100
AcDbLine
 10
15080.80217064596
 20
1013.874748214644
 30
0.0
 11
15108.80217064596
 21
1013.874748214644
 31
0.0
  0
LINE
  5
1804E
330
17CD8
100
AcDbEntity
  8
YODOROGO
100
AcDbLine
 10
15080.80217064596
 20
905.8747482146443
 30
0.0
 11
15080.80217064596
 21
1013.874748214644
 31
0.0
  0
ARC
  5
1804F
330
17CD8
100
AcDbEntity
  8
YODOROGO
100
AcDbCircle
 10
15060.80217064596
 20
905.8747482146443
 30
0.0
 40
20.0
100
AcDbArc
 50
270.0
 51
0.0
  0
LINE
  5
18050
330
17CD8
100
AcDbEntity
  8
YODOROGO
100
AcDbLine
 10
15010.80217064596
 20
885.8747482146441
 30
0.0
 11
15060.80217064596
 21
885.8747482146441
 31
0.0
  0
LINE
  5
18051
330
17CD8
100
AcDbEntity
  8
YODOROGO
100
AcDbLine
 10
15010.80217064596
 20
853.874748214644
 30
0.0
 11
15010.80217064596
 21
885.8747482146441
 31
0.0
  0
LINE
  5
18052
330
17CD8
100
AcDbEntity
  8
YODOROGO
100
AcDbLine
 10
15068.80217064596
 20
853.874748214644
 30
0.0
 11
15010.80217064596
 21
853.874748214644
 31
0.0
  0
ARC
  5
18053
330
17CD8
100
AcDbEntity
  8
YODOROGO
100
AcDbCircle
 10
15068.80217064596
 20
893.8747482146439
 30
0.0
 40
40.0
100
AcDbArc
 50
270.0
 51
0.0
  0
LINE
  5
18054
330
17CD8
100
AcDbEntity
  8
YODOROGO
100
AcDbLine
 10
15108.80217064596
 20
1013.874748214644
 30
0.0
 11
15108.80217064596
 21
893.8747482146439
 31
0.0
  0
LINE
  5
18055
330
17CD8
100
AcDbEntity
  8
YODOROGO
100
AcDbLine
 10
14988.80217064596
 20
973.8747482146434
 30
0.0
 11
14988.80217064596
 21
997.8747482146435
 31
0.0
1001
AUTOCAD_POSTSCRIPT_FIGURE
1002
{
1000
PSFILL
1000
Grayscale
1000
Grayscale
1070
    25
1002
}
  0
LINE
  5
18056
330
17CD8
100
AcDbEntity
  8
YODOROGO
100
AcDbLine
 10
14988.80217064596
 20
929.874748214644
 30
0.0
 11
14988.80217064596
 21
953.874748214644
 31
0.0
1001
AUTOCAD_POSTSCRIPT_FIGURE
1002
{
1000
PSFILL
1000
Grayscale
1000
Grayscale
1070
    25
1002
}
  0
LINE
  5
18057
330
17CD8
100
AcDbEntity
  8
YODOROGO
100
AcDbLine
 10
14988.80217064596
 20
853.874748214644
 30
0.0
 11
14988.80217064596
 21
909.8747482146439
 31
0.0
1001
AUTOCAD_POSTSCRIPT_FIGURE
1002
{
1000
PSFILL
1000
Grayscale
1000
Grayscale
1070
    25
1002
}
  0
LINE
  5
18058
330
17CD8
100
AcDbEntity
  8
YODOROGO
100
AcDbLine
 10
15190.80217064596
 20
953.874748214644
 30
0.0
 11
15248.80217064596
 21
1013.874748214644
 31
0.0
  0
LINE
  5
18059
330
17CD8
100
AcDbEntity
  8
YODOROGO
100
AcDbLine
 10
15190.80217064596
 20
909.8747482146439
 30
0.0
 11
15190.80217064596
 21
953.874748214644
 31
0.0
  0
LINE
  5
1805A
330
17CD8
100
AcDbEntity
  8
YODOROGO
100
AcDbLine
 10
15248.80217064596
 20
969.8747482146441
 30
0.0
 11
15190.80217064596
 21
909.8747482146439
 31
0.0
  0
LINE
  5
1805B
330
17CD8
100
AcDbEntity
  8
YODOROGO
100
AcDbLine
 10
15232.80217064596
 20
839.8747482146442
 30
0.0
 11
15232.80217064596
 21
867.8747482146436
 31
0.0
  0
LINE
  5
1805C
330
17CD8
100
AcDbEntity
  8
YODOROGO
100
AcDbLine
 10
15190.80217064596
 20
839.8747482146442
 30
0.0
 11
15232.80217064596
 21
839.8747482146442
 31
0.0
  0
LINE
  5
1805D
330
17CD8
100
AcDbEntity
  8
YODOROGO
100
AcDbLine
 10
15264.80217064596
 20
867.8747482146436
 30
0.0
 11
15264.80217064596
 21
839.8747482146442
 31
0.0
  0
LINE
  5
1805E
330
17CD8
100
AcDbEntity
  8
YODOROGO
100
AcDbLine
 10
15190.80217064596
 20
867.8747482146436
 30
0.0
 11
15190.80217064596
 21
897.8747482146435
 31
0.0
  0
LINE
  5
1805F
330
17CD8
100
AcDbEntity
  8
YODOROGO
100
AcDbLine
 10
15232.80217064596
 20
867.8747482146436
 30
0.0
 11
15190.80217064596
 21
867.8747482146436
 31
0.0
  0
LINE
  5
18060
330
17CD8
100
AcDbEntity
  8
YODOROGO
100
AcDbLine
 10
15322.80217064596
 20
1013.874748214644
 30
0.0
 11
15486.80217064596
 21
1013.874748214644
 31
0.0
  0
LINE
  5
18061
330
17CD8
100
AcDbEntity
  8
YODOROGO
100
AcDbLine
 10
15462.80217064596
 20
981.8747482146434
 30
0.0
 11
15348.80217064596
 21
981.8747482146434
 31
0.0
  0
LINE
  5
18062
330
17CD8
100
AcDbEntity
  8
YODOROGO
100
AcDbLine
 10
15436.80217064595
 20
909.8747482146439
 30
0.0
 11
15449.80217064596
 21
909.8747482146439
 31
0.0
  0
LINE
  5
18063
330
17CD8
100
AcDbEntity
  8
YODOROGO
100
AcDbLine
 10
15449.80217064596
 20
969.8747482146441
 30
0.0
 11
15436.80217064595
 21
909.8747482146439
 31
0.0
  0
LINE
  5
18064
330
17CD8
100
AcDbEntity
  8
YODOROGO
100
AcDbLine
 10
15425.80217064596
 20
969.8747482146441
 30
0.0
 11
15449.80217064596
 21
969.8747482146441
 31
0.0
  0
LINE
  5
18065
330
17CD8
100
AcDbEntity
  8
YODOROGO
100
AcDbLine
 10
15412.80217064596
 20
909.8747482146439
 30
0.0
 11
15425.80217064596
 21
969.8747482146441
 31
0.0
  0
LINE
  5
18066
330
17CD8
100
AcDbEntity
  8
YODOROGO
100
AcDbLine
 10
15398.80217064596
 20
909.8747482146439
 30
0.0
 11
15412.80217064596
 21
909.8747482146439
 31
0.0
  0
LINE
  5
18067
330
17CD8
100
AcDbEntity
  8
YODOROGO
100
AcDbLine
 10
15385.80217064596
 20
969.8747482146441
 30
0.0
 11
15398.80217064596
 21
909.8747482146439
 31
0.0
  0
LINE
  5
18068
330
17CD8
100
AcDbEntity
  8
YODOROGO
100
AcDbLine
 10
15361.80217064596
 20
969.8747482146441
 30
0.0
 11
15385.80217064596
 21
969.8747482146441
 31
0.0
  0
LINE
  5
18069
330
17CD8
100
AcDbEntity
  8
YODOROGO
100
AcDbLine
 10
15374.80217064596
 20
909.8747482146439
 30
0.0
 11
15361.80217064596
 21
969.8747482146441
 31
0.0
  0
LINE
  5
1806A
330
17CD8
100
AcDbEntity
  8
YODOROGO
100
AcDbLine
 10
15361.80217064596
 20
909.8747482146439
 30
0.0
 11
15374.80217064596
 21
909.8747482146439
 31
0.0
  0
LINE
  5
1806B
330
17CD8
100
AcDbEntity
  8
YODOROGO
100
AcDbLine
 10
15361.80217064596
 20
877.8747482146435
 30
0.0
 11
15361.80217064596
 21
909.8747482146439
 31
0.0
  0
LINE
  5
1806C
330
17CD8
100
AcDbEntity
  8
YODOROGO
100
AcDbLine
 10
15449.80217064596
 20
877.8747482146435
 30
0.0
 11
15361.80217064596
 21
877.8747482146435
 31
0.0
  0
LINE
  5
1806D
330
17CD8
100
AcDbEntity
  8
YODOROGO
100
AcDbLine
 10
15449.80217064596
 20
909.8747482146439
 30
0.0
 11
15449.80217064596
 21
877.8747482146435
 31
0.0
  0
LINE
  5
1806E
330
17CD8
100
AcDbEntity
  8
YODOROGO
100
AcDbLine
 10
15308.80217064596
 20
973.8747482146434
 30
0.0
 11
15308.80217064596
 21
929.874748214644
 31
0.0
  0
LINE
  5
1806F
330
17CD8
100
AcDbEntity
  8
YODOROGO
100
AcDbLine
 10
15395.80217064596
 20
877.8747482146435
 30
0.0
 11
15415.80217064596
 21
877.8747482146435
 31
0.0
  0
LINE
  5
18070
330
17CD8
100
AcDbEntity
  8
YODOROGO
100
AcDbLine
 10
15361.80217064596
 20
845.8747482146444
 30
0.0
 11
15381.80217064596
 21
845.8747482146444
 31
0.0
  0
LINE
  5
18071
330
17CD8
100
AcDbEntity
  8
YODOROGO
100
AcDbLine
 10
15429.80217064596
 20
845.8747482146444
 30
0.0
 11
15449.80217064596
 21
845.8747482146444
 31
0.0
  0
LINE
  5
18072
330
17CD8
100
AcDbEntity
  8
YODOROGO
100
AcDbLine
 10
15308.80217064596
 20
897.8747482146435
 30
0.0
 11
15308.80217064596
 21
867.8747482146436
 31
0.0
  0
LINE
  5
18073
330
17CD8
100
AcDbEntity
  8
YODOROGO
100
AcDbLine
 10
15582.80217064596
 20
1013.874748214644
 30
0.0
 11
15582.80217064596
 21
981.8747482146434
 31
0.0
  0
LINE
  5
18074
330
17CD8
100
AcDbEntity
  8
YODOROGO
100
AcDbLine
 10
15766.80217064596
 20
797.8747482146435
 30
0.0
 11
15766.80217064594
 21
905.8747482146443
 31
0.0
  0
LINE
  5
18075
330
17CD8
100
AcDbEntity
  8
YODOROGO
100
AcDbLine
 10
15730.80217064594
 20
993.8747482146439
 30
0.0
 11
15730.80217064594
 21
817.8747482146436
 31
0.0
  0
LINE
  5
18076
330
17CD8
100
AcDbEntity
  8
YODOROGO
100
AcDbLine
 10
15826.80217064596
 20
713.8747482146436
 30
0.0
 11
15826.80217064594
 21
905.8747482146443
 31
0.0
  0
LINE
  5
18077
330
17CD8
100
AcDbEntity
  8
YODOROGO
100
AcDbLine
 10
15794.80217064596
 20
905.8747482146443
 30
0.0
 11
15794.80217064596
 21
713.8747482146436
 31
0.0
  0
LINE
  5
18078
330
17CD8
100
AcDbEntity
  8
YODOROGO
100
AcDbLine
 10
15618.80217064596
 20
797.8747482146435
 30
0.0
 11
15618.80217064596
 21
853.874748214644
 31
0.0
  0
ARC
  5
18079
330
17CD8
100
AcDbEntity
  8
YODOROGO
100
AcDbCircle
 10
15676.95743255803
 20
803.8951756442788
 30
0.0
 40
90.04622428799429
100
AcDbArc
 50
268.6284910216979
 51
356.1663845733032
  0
LINE
  5
1807A
330
17CD8
100
AcDbEntity
  8
YODOROGO
100
AcDbLine
 10
15674.80217064596
 20
763.8747482146435
 30
0.0
 11
15674.80217064596
 21
713.8747482146436
 31
0.0
  0
ARC
  5
1807B
330
17CD8
100
AcDbEntity
  8
YODOROGO
100
AcDbCircle
 10
15675.75903786228
 20
818.9194785088275
 30
0.0
 40
55.05304649180608
100
AcDbArc
 50
269.0041020930593
 51
358.9126445549248
  0
LINE
  5
1807C
330
17CD8
100
AcDbEntity
  8
YODOROGO
100
AcDbLine
 10
15794.80217064596
 20
713.8747482146436
 30
0.0
 11
15826.80217064596
 21
713.8747482146436
 31
0.0
  0
LINE
  5
1807D
330
17CD8
100
AcDbEntity
  8
YODOROGO
100
AcDbLine
 10
15766.80217064594
 20
905.8747482146443
 30
0.0
 11
15794.80217064596
 21
905.8747482146443
 31
0.0
  0
LINE
  5
1807E
330
17CD8
100
AcDbEntity
  8
YODOROGO
100
AcDbLine
 10
15810.80217064596
 20
993.8747482146439
 30
0.0
 11
15730.80217064594
 21
993.8747482146439
 31
0.0
  0
LINE
  5
1807F
330
17CD8
100
AcDbEntity
  8
YODOROGO
100
AcDbLine
 10
15766.80217064594
 20
957.8747482146436
 30
0.0
 11
15830.80217064596
 21
957.8747482146436
 31
0.0
  0
LINE
  5
18080
330
17CD8
100
AcDbEntity
  8
YODOROGO
100
AcDbLine
 10
15850.80217064596
 20
937.8747482146435
 30
0.0
 11
15766.80217064594
 21
937.8747482146435
 31
0.0
  0
LINE
  5
18081
330
17CD8
100
AcDbEntity
  8
YODOROGO
100
AcDbLine
 10
15618.80217064596
 20
889.8747482146442
 30
0.0
 11
15674.80217064596
 21
889.8747482146442
 31
0.0
  0
LINE
  5
18082
330
17CD8
100
AcDbEntity
  8
YODOROGO
100
AcDbLine
 10
15618.80217064596
 20
917.8747482146436
 30
0.0
 11
15618.80217064596
 21
889.8747482146442
 31
0.0
  0
LINE
  5
18083
330
17CD8
100
AcDbEntity
  8
YODOROGO
100
AcDbLine
 10
15674.80217064596
 20
917.8747482146436
 30
0.0
 11
15618.80217064596
 21
917.8747482146436
 31
0.0
  0
LINE
  5
18084
330
17CD8
100
AcDbEntity
  8
YODOROGO
100
AcDbLine
 10
15674.80217064596
 20
889.8747482146442
 30
0.0
 11
15674.80217064596
 21
917.8747482146436
 31
0.0
  0
LINE
  5
18085
330
17CD8
100
AcDbEntity
  8
YODOROGO
100
AcDbLine
 10
15766.80217064594
 20
937.8747482146435
 30
0.0
 11
15766.80217064594
 21
957.8747482146436
 31
0.0
  0
LINE
  5
18086
330
17CD8
100
AcDbEntity
  8
YODOROGO
100
AcDbLine
 10
15706.80217064596
 20
853.874748214644
 30
0.0
 11
15706.80217064596
 21
953.874748214644
 31
0.0
  0
LINE
  5
18087
330
17CD8
100
AcDbEntity
  8
YODOROGO
100
AcDbLine
 10
15618.80217064596
 20
853.874748214644
 30
0.0
 11
15706.80217064596
 21
853.874748214644
 31
0.0
  0
LINE
  5
18088
330
17CD8
100
AcDbEntity
  8
YODOROGO
100
AcDbLine
 10
15706.80217064596
 20
981.8747482146434
 30
0.0
 11
15706.80217064596
 21
1013.874748214644
 31
0.0
  0
ARC
  5
18089
330
17CD8
100
AcDbEntity
  8
YODOROGO
100
AcDbCircle
 10
15810.80217064596
 20
1001.874748214642
 30
0.0
 40
7.99999999999727
100
AcDbArc
 50
270.0
 51
0.0000000000081422
  0
LINE
  5
1808A
330
17CD8
100
AcDbEntity
  8
YODOROGO
100
AcDbLine
 10
15818.80217064596
 20
1013.874748214644
 30
0.0
 11
15818.80217064596
 21
1001.874748214643
 31
0.0
  0
LINE
  5
1808B
330
17CD8
100
AcDbEntity
  8
YODOROGO
100
AcDbLine
 10
15850.80217064596
 20
1013.874748214644
 30
0.0
 11
15818.80217064596
 21
1013.874748214644
 31
0.0
  0
LINE
  5
1808C
330
17CD8
100
AcDbEntity
  8
YODOROGO
100
AcDbLine
 10
15850.80217064596
 20
977.8747482146435
 30
0.0
 11
15850.80217064596
 21
1013.874748214644
 31
0.0
  0
ARC
  5
1808D
330
17CD8
100
AcDbEntity
  8
YODOROGO
100
AcDbCircle
 10
15830.80217064596
 20
977.8747482146435
 30
0.0
 40
20.0
100
AcDbArc
 50
270.0
 51
0.0
  0
LINE
  5
1808E
330
17CD8
100
AcDbEntity
  8
YODOROGO
100
AcDbLine
 10
15850.80217064596
 20
905.8747482146443
 30
0.0
 11
15850.80217064596
 21
937.8747482146435
 31
0.0
  0
LINE
  5
1808F
330
17CD8
100
AcDbEntity
  8
YODOROGO
100
AcDbLine
 10
15826.80217064594
 20
905.8747482146443
 30
0.0
 11
15850.80217064596
 21
905.8747482146443
 31
0.0
  0
LINE
  5
18090
330
17CD8
100
AcDbEntity
  8
SUNPOU
100
AcDbLine
 10
4129.797051267463
 20
3456.684839419605
 30
0.0
 11
3619.240902195489
 21
3456.684839419605
 31
0.0
  0
LINE
  5
18091
330
17CD8
100
AcDbEntity
  8
SUNPOU
100
AcDbLine
 10
3969.797051267461
 20
2551.084839419601
 30
0.0
 11
3619.240902195488
 21
2551.084839419601
 31
0.0
  0
LINE
  5
18092
330
17CD8
100
AcDbEntity
  8
SUNPOU
100
AcDbLine
 10
3664.240902195489
 20
3441.684839419605
 30
0.0
 11
3664.240902195488
 21
2566.084839419601
 31
0.0
  0
LINE
  5
18093
330
17CD8
100
AcDbEntity
  8
SUNPOU
100
AcDbLine
 10
3969.797051267461
 20
2551.084839419601
 30
0.0
 11
3835.993474569398
 21
2551.084839419601
 31
0.0
  0
LINE
  5
18094
330
17CD8
100
AcDbEntity
  8
SUNPOU
100
AcDbLine
 10
3969.797051267461
 20
2711.084839419601
 30
0.0
 11
3835.993474569398
 21
2711.084839419601
 31
0.0
  0
LINE
  5
18095
330
17CD8
100
AcDbEntity
  8
SUNPOU
100
AcDbLine
 10
3880.993474569399
 20
2696.084839419601
 30
0.0
 11
3880.993474569399
 21
2566.084839419601
 31
0.0
  0
LINE
  5
18096
330
17CD8
100
AcDbEntity
  8
SUNPOU
100
AcDbLine
 10
3880.993474569399
 20
2551.084839419601
 30
0.0
 11
3880.993474569399
 21
2299.070130361409
 31
0.0
  0
LINE
  5
18097
330
17CD8
100
AcDbEntity
  8
SUNPOU
100
AcDbLine
 10
7750.123251791109
 20
2551.084839419598
 30
0.0
 11
7400.49893647658
 21
2551.084839419598
 31
0.0
  0
LINE
  5
18098
330
17CD8
100
AcDbEntity
  8
SUNPOU
100
AcDbLine
 10
8230.123251791111
 20
3456.684839419605
 30
0.0
 11
7400.49893647658
 21
3456.684839419605
 31
0.0
  0
LINE
  5
18099
330
17CD8
100
AcDbEntity
  8
SUNPOU
100
AcDbLine
 10
7445.498936476579
 20
2566.084839419596
 30
0.0
 11
7445.498936476579
 21
3441.684839419604
 31
0.0
  0
LINE
  5
1809A
330
17CD8
100
AcDbEntity
  8
SUNPOU
100
AcDbLine
 10
7750.123251791109
 20
2711.084839419601
 30
0.0
 11
7615.76985579035
 21
2711.084839419601
 31
0.0
  0
LINE
  5
1809B
330
17CD8
100
AcDbEntity
  8
SUNPOU
100
AcDbLine
 10
7750.123251791109
 20
2551.084839419598
 30
0.0
 11
7615.76985579035
 21
2551.084839419598
 31
0.0
  0
LINE
  5
1809C
330
17CD8
100
AcDbEntity
  8
SUNPOU
100
AcDbLine
 10
7660.769855790352
 20
2696.084839419601
 30
0.0
 11
7660.769855790352
 21
2566.084839419596
 31
0.0
  0
LINE
  5
1809D
330
17CD8
100
AcDbEntity
  8
SUNPOU
100
AcDbLine
 10
7660.769855790352
 20
2551.084839419598
 30
0.0
 11
7660.769855790352
 21
2300.370553705311
 31
0.0
  0
LINE
  5
1809E
330
17CD8
100
AcDbEntity
  8
SUNPOU
100
AcDbLine
 10
7229.127507899637
 20
8143.243182432323
 30
0.0
 11
7319.127507899643
 21
8158.243182432327
 31
0.0
  0
LINE
  5
1809F
330
17CD8
100
AcDbEntity
  8
SUNPOU
100
AcDbLine
 10
7319.127507899643
 20
8158.243182432327
 30
0.0
 11
7229.127507899637
 21
8173.243182432322
 31
0.0
  0
SOLID
  5
180A0
330
17CD8
100
AcDbEntity
  8
SUNPOU
100
AcDbTrace
 10
7229.127507899637
 20
8143.243182432323
 30
0.0
 11
7229.127507899637
 21
8173.243182432322
 31
0.0
 12
7319.127507899643
 22
8158.243182432327
 32
0.0
 13
7319.127507899643
 23
8158.243182432327
 33
0.0
  0
LINE
  5
180A1
330
17CD8
100
AcDbEntity
  8
SUNPOU
100
AcDbLine
 10
7229.127507899637
 20
8173.243182432322
 30
0.0
 11
7229.127507899637
 21
8143.243182432323
 31
0.0
  0
LINE
  5
180A2
330
17CD8
100
AcDbEntity
  8
SUNPOU
100
AcDbLine
 10
7229.127507899637
 20
9273.243182432329
 30
0.0
 11
7319.127507899643
 21
9258.243182432329
 31
0.0
  0
LINE
  5
180A3
330
17CD8
100
AcDbEntity
  8
SUNPOU
100
AcDbLine
 10
7319.127507899643
 20
9258.243182432329
 30
0.0
 11
7229.127507899637
 21
9243.243182432328
 31
0.0
  0
SOLID
  5
180A4
330
17CD8
100
AcDbEntity
  8
SUNPOU
100
AcDbTrace
 10
7229.127507899637
 20
9273.243182432329
 30
0.0
 11
7229.127507899637
 21
9243.243182432328
 31
0.0
 12
7319.127507899643
 22
9258.243182432329
 32
0.0
 13
7319.127507899643
 23
9258.243182432329
 33
0.0
  0
LINE
  5
180A5
330
17CD8
100
AcDbEntity
  8
SUNPOU
100
AcDbLine
 10
7229.127507899637
 20
9243.243182432328
 30
0.0
 11
7229.127507899637
 21
9273.243182432329
 31
0.0
  0
LINE
  5
180A6
330
17CD8
100
AcDbEntity
  8
SUNPOU
100
AcDbLine
 10
11635.33837406208
 20
3726.33703658456
 30
0.0
 11
12318.40680314955
 21
3726.33703658456
 31
0.0
  0
LINE
  5
180A7
330
17CD8
100
AcDbEntity
  8
SUNPOU
100
AcDbLine
 10
11635.33837406208
 20
3886.33703658456
 30
0.0
 11
12318.40680314955
 21
3886.33703658456
 31
0.0
  0
LINE
  5
180A8
330
17CD8
100
AcDbEntity
  8
SUNPOU
100
AcDbLine
 10
12273.40680314955
 20
3741.33703658456
 30
0.0
 11
12273.40680314955
 21
3871.337036584561
 31
0.0
  0
LINE
  5
180A9
330
17CD8
100
AcDbEntity
  8
SUNPOU
100
AcDbLine
 10
12273.40680314955
 20
3886.33703658456
 30
0.0
 11
12273.40680314955
 21
4088.479893727416
 31
0.0
  0
LINE
  5
180AA
330
17CD8
100
AcDbEntity
  8
SUNPOU
100
AcDbLine
 10
11635.33837406208
 20
3726.33703658456
 30
0.0
 11
12318.40680314955
 21
3726.33703658456
 31
0.0
  0
LINE
  5
180AB
330
17CD8
100
AcDbEntity
  8
SUNPOU
100
AcDbLine
 10
11891.33837406209
 20
3618.337036584561
 30
0.0
 11
12318.40680314955
 21
3618.337036584561
 31
0.0
  0
LINE
  5
180AC
330
17CD8
100
AcDbEntity
  8
SUNPOU
100
AcDbLine
 10
12273.40680314955
 20
3741.33703658456
 30
0.0
 11
12273.40680314955
 21
3756.337036584561
 31
0.0
  0
LINE
  5
180AD
330
17CD8
100
AcDbEntity
  8
SUNPOU
100
AcDbLine
 10
12273.40680314955
 20
3603.337036584561
 30
0.0
 11
12273.40680314955
 21
3401.194179441703
 31
0.0
  0
LINE
  5
180AE
330
17CD8
100
AcDbEntity
  8
SUNPOU
100
AcDbLine
 10
12273.40680314955
 20
3726.33703658456
 30
0.0
 11
12273.40680314955
 21
3618.337036584561
 31
0.0
  0
LINE
  5
180AF
330
17CD8
100
AcDbEntity
  8
SUNPOU
100
AcDbLine
 10
7910.12325179111
 20
3319.084839419601
 30
0.0
 11
7615.769855790354
 21
3319.084839419601
 31
0.0
  0
LINE
  5
180B0
330
17CD8
100
AcDbEntity
  8
SUNPOU
100
AcDbLine
 10
7910.12325179111
 20
3191.084839419597
 30
0.0
 11
7615.769855790354
 21
3191.084839419597
 31
0.0
  0
LINE
  5
180B1
330
17CD8
100
AcDbEntity
  8
SUNPOU
100
AcDbLine
 10
7660.769855790352
 20
3304.0848394196
 30
0.0
 11
7660.769855790352
 21
3206.084839419597
 31
0.0
  0
LINE
  5
180B2
330
17CD8
100
AcDbEntity
  8
SUNPOU
100
AcDbLine
 10
7910.12325179111
 20
3319.084839419601
 30
0.0
 11
7615.76985579035
 21
3319.084839419601
 31
0.0
  0
LINE
  5
180B3
330
17CD8
100
AcDbEntity
  8
SUNPOU
100
AcDbLine
 10
7910.12325179111
 20
3456.684839419605
 30
0.0
 11
7615.76985579035
 21
3456.684839419605
 31
0.0
  0
LINE
  5
180B4
330
17CD8
100
AcDbEntity
  8
SUNPOU
100
AcDbLine
 10
7660.769855790352
 20
3334.0848394196
 30
0.0
 11
7660.769855790352
 21
3441.684839419605
 31
0.0
  0
LINE
  5
180B5
330
17CD8
100
AcDbEntity
  8
SUNPOU
100
AcDbLine
 10
7660.769855790352
 20
3456.684839419605
 30
0.0
 11
7660.769855790352
 21
3658.827696562461
 31
0.0
  0
LINE
  5
180B6
330
17CD8
100
AcDbEntity
  8
SUNPOU
100
AcDbLine
 10
7750.123251791109
 20
2711.084839419601
 30
0.0
 11
7615.76985579035
 21
2711.084839419601
 31
0.0
  0
LINE
  5
180B7
330
17CD8
100
AcDbEntity
  8
SUNPOU
100
AcDbLine
 10
7910.12325179111
 20
3191.084839419597
 30
0.0
 11
7615.76985579035
 21
3191.084839419597
 31
0.0
  0
LINE
  5
180B8
330
17CD8
100
AcDbEntity
  8
SUNPOU
100
AcDbLine
 10
7660.769855790352
 20
2726.084839419601
 30
0.0
 11
7660.769855790352
 21
3176.084839419596
 31
0.0
  0
LINE
  5
180B9
330
17CD8
100
AcDbEntity
  8
SUNPOU
100
AcDbLine
 10
11781.33837406209
 20
2470.144344053149
 30
0.0
 11
11781.33837406209
 21
2200.804976716085
 31
0.0
  0
LINE
  5
180BA
330
17CD8
100
AcDbEntity
  8
SUNPOU
100
AcDbLine
 10
11861.33837406209
 20
2510.144344053149
 30
0.0
 11
11861.33837406209
 21
2200.804976716085
 31
0.0
  0
LINE
  5
180BB
330
17CD8
100
AcDbEntity
  8
SUNPOU
100
AcDbLine
 10
11766.33837406209
 20
2245.804976716085
 30
0.0
 11
11751.33837406209
 21
2245.804976716085
 31
0.0
  0
LINE
  5
180BC
330
17CD8
100
AcDbEntity
  8
SUNPOU
100
AcDbLine
 10
11876.33837406208
 20
2245.804976716085
 30
0.0
 11
12078.48123120495
 21
2245.804976716085
 31
0.0
  0
LINE
  5
180BD
330
17CD8
100
AcDbEntity
  8
SUNPOU
100
AcDbLine
 10
11781.33837406209
 20
2245.804976716085
 30
0.0
 11
11861.33837406209
 21
2245.804976716085
 31
0.0
  0
LINE
  5
180BE
330
17CD8
100
AcDbEntity
  8
SUNPOU
100
AcDbLine
 10
11301.33837406211
 20
2470.144344053149
 30
0.0
 11
11301.33837406211
 21
2200.804976716085
 31
0.0
  0
LINE
  5
180BF
330
17CD8
100
AcDbEntity
  8
SUNPOU
100
AcDbLine
 10
11781.33837406209
 20
2470.144344053149
 30
0.0
 11
11781.33837406209
 21
2200.804976716085
 31
0.0
  0
LINE
  5
180C0
330
17CD8
100
AcDbEntity
  8
SUNPOU
100
AcDbLine
 10
11316.33837406211
 20
2245.804976716085
 30
0.0
 11
11766.33837406209
 21
2245.804976716085
 31
0.0
  0
LINE
  5
180C1
330
17CD8
100
AcDbEntity
  8
SUNPOU
100
AcDbLine
 10
11301.33837406211
 20
2470.144344053149
 30
0.0
 11
11301.33837406211
 21
2200.804976716085
 31
0.0
  0
LINE
  5
180C2
330
17CD8
100
AcDbEntity
  8
SUNPOU
100
AcDbLine
 10
11221.33837406209
 20
2510.144344053149
 30
0.0
 11
11221.33837406209
 21
2200.804976716085
 31
0.0
  0
LINE
  5
180C3
330
17CD8
100
AcDbEntity
  8
SUNPOU
100
AcDbLine
 10
11316.33837406211
 20
2245.804976716085
 30
0.0
 11
11331.3383740621
 21
2245.804976716085
 31
0.0
  0
LINE
  5
180C4
330
17CD8
100
AcDbEntity
  8
SUNPOU
100
AcDbLine
 10
11206.33837406209
 20
2245.804976716085
 30
0.0
 11
11004.19551691924
 21
2245.804976716085
 31
0.0
  0
LINE
  5
180C5
330
17CD8
100
AcDbEntity
  8
SUNPOU
100
AcDbLine
 10
11301.33837406211
 20
2245.804976716085
 30
0.0
 11
11221.33837406209
 21
2245.804976716085
 31
0.0
  0
LINE
  5
180C6
330
17CD8
100
AcDbEntity
  8
SUNPOU
100
AcDbLine
 10
11221.33837406209
 20
2510.144344053149
 30
0.0
 11
11221.33837406209
 21
1990.804976716086
 31
0.0
  0
LINE
  5
180C7
330
17CD8
100
AcDbEntity
  8
SUNPOU
100
AcDbLine
 10
11861.33837406209
 20
2510.144344053149
 30
0.0
 11
11861.33837406209
 21
1990.804976716086
 31
0.0
  0
LINE
  5
180C8
330
17CD8
100
AcDbEntity
  8
SUNPOU
100
AcDbLine
 10
11236.33837406209
 20
2035.804976716086
 30
0.0
 11
11846.33837406209
 21
2035.804976716086
 31
0.0
  0
LINE
  5
180C9
330
17CD8
100
AcDbEntity
  8
SUNPOU
100
AcDbLine
 10
11195.33837406209
 20
2700.144344053149
 30
0.0
 11
10873.33837406209
 21
2700.144344053149
 31
0.0
  0
LINE
  5
180CA
330
17CD8
100
AcDbEntity
  8
SUNPOU
100
AcDbLine
 10
11191.33837406208
 20
2540.144344053149
 30
0.0
 11
10873.33837406209
 21
2540.144344053149
 31
0.0
  0
LINE
  5
180CB
330
17CD8
100
AcDbEntity
  8
SUNPOU
100
AcDbLine
 10
10918.33837406209
 20
2685.144344053149
 30
0.0
 11
10918.33837406209
 21
2555.144344053149
 31
0.0
  0
LINE
  5
180CC
330
17CD8
100
AcDbEntity
  8
SUNPOU
100
AcDbLine
 10
10918.33837406209
 20
2540.144344053149
 30
0.0
 11
10918.33837406209
 21
2338.001486910291
 31
0.0
  0
LINE
  5
180CD
330
17CD8
100
AcDbEntity
  8
SUNPOU
100
AcDbLine
 10
11195.33837406209
 20
2700.144344053149
 30
0.0
 11
10873.33837406209
 21
2700.144344053149
 31
0.0
  0
LINE
  5
180CE
330
17CD8
100
AcDbEntity
  8
SUNPOU
100
AcDbLine
 10
11191.33837406208
 20
2860.144344053149
 30
0.0
 11
10873.33837406209
 21
2860.144344053149
 31
0.0
  0
LINE
  5
180CF
330
17CD8
100
AcDbEntity
  8
SUNPOU
100
AcDbLine
 10
10918.33837406209
 20
2715.144344053149
 30
0.0
 11
10918.33837406209
 21
2845.144344053149
 31
0.0
  0
LINE
  5
180D0
330
17CD8
100
AcDbEntity
  8
SUNPOU
100
AcDbLine
 10
10918.33837406209
 20
2860.144344053149
 30
0.0
 11
10918.33837406209
 21
3062.287201196007
 31
0.0
  0
LINE
  5
180D1
330
17CD8
100
AcDbEntity
  8
SUNPOU
100
AcDbLine
 10
11191.33837406208
 20
2540.144344053149
 30
0.0
 11
10663.33837406209
 21
2540.144344053149
 31
0.0
  0
LINE
  5
180D2
330
17CD8
100
AcDbEntity
  8
SUNPOU
100
AcDbLine
 10
11191.33837406208
 20
2860.144344053149
 30
0.0
 11
10663.33837406209
 21
2860.144344053149
 31
0.0
  0
LINE
  5
180D3
330
17CD8
100
AcDbEntity
  8
SUNPOU
100
AcDbLine
 10
10708.33837406208
 20
2555.144344053149
 30
0.0
 11
10708.33837406208
 21
2845.144344053149
 31
0.0
  0
LINE
  5
180D4
330
17CD8
100
AcDbEntity
  8
SUNPOU
100
AcDbLine
 10
11781.33837406209
 20
3548.33703658456
 30
0.0
 11
11781.33837406209
 21
3349.170862655058
 31
0.0
  0
LINE
  5
180D5
330
17CD8
100
AcDbEntity
  8
SUNPOU
100
AcDbLine
 10
11861.33837406209
 20
3588.337036584561
 30
0.0
 11
11861.33837406209
 21
3349.170862655058
 31
0.0
  0
LINE
  5
180D6
330
17CD8
100
AcDbEntity
  8
SUNPOU
100
AcDbLine
 10
11766.33837406209
 20
3394.170862655057
 30
0.0
 11
11751.33837406209
 21
3394.170862655057
 31
0.0
  0
LINE
  5
180D7
330
17CD8
100
AcDbEntity
  8
SUNPOU
100
AcDbLine
 10
11876.33837406208
 20
3394.170862655057
 30
0.0
 11
12078.48123120495
 21
3394.170862655057
 31
0.0
  0
LINE
  5
180D8
330
17CD8
100
AcDbEntity
  8
SUNPOU
100
AcDbLine
 10
11781.33837406209
 20
3394.170862655057
 30
0.0
 11
11861.33837406209
 21
3394.170862655057
 31
0.0
  0
LINE
  5
180D9
330
17CD8
100
AcDbEntity
  8
SUNPOU
100
AcDbLine
 10
11301.33837406211
 20
3548.33703658456
 30
0.0
 11
11301.33837406211
 21
3349.170862655058
 31
0.0
  0
LINE
  5
180DA
330
17CD8
100
AcDbEntity
  8
SUNPOU
100
AcDbLine
 10
11781.33837406209
 20
3548.33703658456
 30
0.0
 11
11781.33837406209
 21
3349.170862655058
 31
0.0
  0
LINE
  5
180DB
330
17CD8
100
AcDbEntity
  8
SUNPOU
100
AcDbLine
 10
11316.33837406211
 20
3394.170862655057
 30
0.0
 11
11766.33837406209
 21
3394.170862655057
 31
0.0
  0
LINE
  5
180DC
330
17CD8
100
AcDbEntity
  8
SUNPOU
100
AcDbLine
 10
11301.33837406211
 20
3548.33703658456
 30
0.0
 11
11301.33837406211
 21
3349.170862655058
 31
0.0
  0
LINE
  5
180DD
330
17CD8
100
AcDbEntity
  8
SUNPOU
100
AcDbLine
 10
11221.33837406209
 20
3588.337036584561
 30
0.0
 11
11221.33837406209
 21
3349.170862655058
 31
0.0
  0
LINE
  5
180DE
330
17CD8
100
AcDbEntity
  8
SUNPOU
100
AcDbLine
 10
11316.33837406211
 20
3394.170862655057
 30
0.0
 11
11331.3383740621
 21
3394.170862655057
 31
0.0
  0
LINE
  5
180DF
330
17CD8
100
AcDbEntity
  8
SUNPOU
100
AcDbLine
 10
11206.33837406209
 20
3394.170862655057
 30
0.0
 11
11004.19551691924
 21
3394.170862655057
 31
0.0
  0
LINE
  5
180E0
330
17CD8
100
AcDbEntity
  8
SUNPOU
100
AcDbLine
 10
11301.33837406211
 20
3394.170862655057
 30
0.0
 11
11221.33837406209
 21
3394.170862655057
 31
0.0
  0
LINE
  5
180E1
330
17CD8
100
AcDbEntity
  8
SUNPOU
100
AcDbLine
 10
11221.33837406209
 20
3588.337036584561
 30
0.0
 11
11221.33837406209
 21
3139.170862655058
 31
0.0
  0
LINE
  5
180E2
330
17CD8
100
AcDbEntity
  8
SUNPOU
100
AcDbLine
 10
11861.33837406209
 20
3588.337036584561
 30
0.0
 11
11861.33837406209
 21
3139.170862655058
 31
0.0
  0
LINE
  5
180E3
330
17CD8
100
AcDbEntity
  8
SUNPOU
100
AcDbLine
 10
11236.33837406209
 20
3184.170862655058
 30
0.0
 11
11846.33837406209
 21
3184.170862655058
 31
0.0
  0
LINE
  5
180E4
330
17CD8
100
AcDbEntity
  8
SUNPOU
100
AcDbLine
 10
7940.12325179111
 20
2681.084839419606
 30
0.0
 11
7940.12325179111
 21
2103.684839419604
 31
0.0
  0
LINE
  5
180E5
330
17CD8
100
AcDbEntity
  8
SUNPOU
100
AcDbLine
 10
9220.123251791108
 20
2681.084839419606
 30
0.0
 11
9220.123251791108
 21
2103.684839419604
 31
0.0
  0
LINE
  5
180E6
330
17CD8
100
AcDbEntity
  8
SUNPOU
100
AcDbLine
 10
7955.123251791109
 20
2148.684839419604
 30
0.0
 11
9205.123251791109
 21
2148.684839419604
 31
0.0
  0
LINE
  5
180E7
330
17CD8
100
AcDbEntity
  8
SUNPOU
100
AcDbLine
 10
7780.123251791109
 20
2521.084839419601
 30
0.0
 11
7780.123251791109
 21
1893.684839419604
 31
0.0
  0
LINE
  5
180E8
330
17CD8
100
AcDbEntity
  8
SUNPOU
100
AcDbLine
 10
9380.123251791109
 20
2521.084839419601
 30
0.0
 11
9380.123251791109
 21
1893.684839419604
 31
0.0
  0
LINE
  5
180E9
330
17CD8
100
AcDbEntity
  8
SUNPOU
100
AcDbLine
 10
7795.123251791108
 20
1938.684839419604
 30
0.0
 11
9365.123251791109
 21
1938.684839419604
 31
0.0
  0
LINE
  5
180EA
330
17CD8
100
AcDbEntity
  8
SUNPOU
100
AcDbLine
 10
7270.769855790351
 20
3376.684839419608
 30
0.0
 11
7285.769855790352
 21
3376.684839419608
 31
0.0
  0
LINE
  5
180EB
330
17CD8
100
AcDbEntity
  8
SUNPOU
100
AcDbLine
 10
8230.123251791111
 20
3456.684839419605
 30
0.0
 11
7195.769855790351
 21
3456.684839419605
 31
0.0
  0
LINE
  5
180EC
330
17CD8
100
AcDbEntity
  8
SUNPOU
100
AcDbLine
 10
7240.76985579035
 20
3361.684839419608
 30
0.0
 11
7240.76985579035
 21
3346.684839419608
 31
0.0
  0
LINE
  5
180ED
330
17CD8
100
AcDbEntity
  8
SUNPOU
100
AcDbLine
 10
7240.76985579035
 20
3471.684839419604
 30
0.0
 11
7240.76985579035
 21
3673.827696562461
 31
0.0
  0
LINE
  5
180EE
330
17CD8
100
AcDbEntity
  8
SUNPOU
100
AcDbLine
 10
7240.76985579035
 20
3376.684839419608
 30
0.0
 11
7240.76985579035
 21
3456.684839419605
 31
0.0
  0
LINE
  5
180EF
330
17CD8
100
AcDbEntity
  8
SUNPOU
100
AcDbLine
 10
10125.35375904136
 20
4130.485411556196
 30
0.0
 11
10065.35375904133
 21
4130.485411556196
 31
0.0
  0
LINE
  5
180F0
330
17CD8
100
AcDbEntity
  8
SUNPOU
100
AcDbLine
 10
10125.35375904135
 20
4130.485411556196
 30
0.0
 11
10065.35375904135
 21
4146.562363102066
 31
0.0
  0
LINE
  5
180F1
330
17CD8
100
AcDbEntity
  8
SUNPOU
100
AcDbLine
 10
10125.35375904136
 20
4130.485411556196
 30
0.0
 11
10065.35375904133
 21
4114.408460010326
 31
0.0
  0
LINE
  5
180F2
330
17CD8
100
AcDbEntity
  8
SUNPOU
100
AcDbLine
 10
10065.35375904135
 20
4130.485411556196
 30
0.0
 11
10005.35375904133
 21
4130.485411556196
 31
0.0
  0
LINE
  5
180F3
330
17CD8
100
AcDbEntity
  8
SUNPOU
100
AcDbLine
 10
10065.35375904135
 20
4130.485411556196
 30
0.0
 11
10005.35375904135
 21
4146.562363102066
 31
0.0
  0
LINE
  5
180F4
330
17CD8
100
AcDbEntity
  8
SUNPOU
100
AcDbLine
 10
10065.35375904135
 20
4130.485411556196
 30
0.0
 11
10005.35375904133
 21
4114.408460010326
 31
0.0
  0
LINE
  5
180F5
330
17CD8
100
AcDbEntity
  8
SUNPOU
100
AcDbLine
 10
8580.123251791111
 20
4160.485411556194
 30
0.0
 11
8580.123251791111
 21
4175.485411556194
 31
0.0
  0
LINE
  5
180F6
330
17CD8
100
AcDbEntity
  8
SUNPOU
100
AcDbLine
 10
8260.12325179111
 20
3486.684839419604
 30
0.0
 11
8260.12325179111
 21
4175.485411556194
 31
0.0
  0
LINE
  5
180F7
330
17CD8
100
AcDbEntity
  8
SUNPOU
100
AcDbLine
 10
8565.123251791112
 20
4130.485411556196
 30
0.0
 11
8275.123251791111
 21
4130.485411556196
 31
0.0
  0
LINE
  5
180F8
330
17CD8
100
AcDbEntity
  8
SUNPOU
100
AcDbLine
 10
4159.797051267463
 20
2681.084839419601
 30
0.0
 11
4159.797051267463
 21
2103.684839419599
 31
0.0
  0
LINE
  5
180F9
330
17CD8
100
AcDbEntity
  8
SUNPOU
100
AcDbLine
 10
5439.797051267464
 20
2681.084839419601
 30
0.0
 11
5439.797051267464
 21
2103.684839419599
 31
0.0
  0
LINE
  5
180FA
330
17CD8
100
AcDbEntity
  8
SUNPOU
100
AcDbLine
 10
4174.797051267463
 20
2148.684839419601
 30
0.0
 11
5424.797051267464
 21
2148.684839419601
 31
0.0
  0
LINE
  5
180FB
330
17CD8
100
AcDbEntity
  8
SUNPOU
100
AcDbLine
 10
3999.797051267461
 20
2521.084839419601
 30
0.0
 11
3999.797051267461
 21
1893.6848394196
 31
0.0
  0
LINE
  5
180FC
330
17CD8
100
AcDbEntity
  8
SUNPOU
100
AcDbLine
 10
5599.797051267461
 20
2521.084839419601
 30
0.0
 11
5599.797051267461
 21
1893.6848394196
 31
0.0
  0
LINE
  5
180FD
330
17CD8
100
AcDbEntity
  8
SUNPOU
100
AcDbLine
 10
4014.797051267462
 20
1938.6848394196
 30
0.0
 11
5584.797051267462
 21
1938.6848394196
 31
0.0
  0
LINE
  5
180FE
330
17CD8
100
AcDbEntity
  8
SUNPOU
100
AcDbLine
 10
3490.443655266703
 20
3376.684839419604
 30
0.0
 11
3505.443655266704
 21
3376.684839419604
 31
0.0
  0
LINE
  5
180FF
330
17CD8
100
AcDbEntity
  8
SUNPOU
100
AcDbLine
 10
4129.797051267463
 20
3456.684839419605
 30
0.0
 11
3415.443655266705
 21
3456.684839419605
 31
0.0
  0
LINE
  5
18100
330
17CD8
100
AcDbEntity
  8
SUNPOU
100
AcDbLine
 10
3460.443655266704
 20
3361.684839419604
 30
0.0
 11
3460.443655266704
 21
3346.684839419604
 31
0.0
  0
LINE
  5
18101
330
17CD8
100
AcDbEntity
  8
SUNPOU
100
AcDbLine
 10
3460.443655266704
 20
3471.684839419605
 30
0.0
 11
3460.443655266704
 21
3673.827696562461
 31
0.0
  0
LINE
  5
18102
330
17CD8
100
AcDbEntity
  8
SUNPOU
100
AcDbLine
 10
3460.443655266704
 20
3376.684839419604
 30
0.0
 11
3460.443655266704
 21
3456.684839419605
 31
0.0
  0
LINE
  5
18103
330
17CD8
100
AcDbEntity
  8
SUNPOU
100
AcDbLine
 10
4129.797051267463
 20
3319.084839419601
 30
0.0
 11
3835.443655266705
 21
3319.084839419601
 31
0.0
  0
LINE
  5
18104
330
17CD8
100
AcDbEntity
  8
SUNPOU
100
AcDbLine
 10
4129.797051267463
 20
3191.084839419597
 30
0.0
 11
3835.443655266705
 21
3191.084839419597
 31
0.0
  0
LINE
  5
18105
330
17CD8
100
AcDbEntity
  8
SUNPOU
100
AcDbLine
 10
3880.443655266705
 20
3304.0848394196
 30
0.0
 11
3880.443655266705
 21
3206.084839419597
 31
0.0
  0
LINE
  5
18106
330
17CD8
100
AcDbEntity
  8
SUNPOU
100
AcDbLine
 10
4129.797051267463
 20
3319.084839419601
 30
0.0
 11
3835.443655266704
 21
3319.084839419601
 31
0.0
  0
LINE
  5
18107
330
17CD8
100
AcDbEntity
  8
SUNPOU
100
AcDbLine
 10
4129.797051267463
 20
3456.684839419605
 30
0.0
 11
3835.443655266704
 21
3456.684839419605
 31
0.0
  0
LINE
  5
18108
330
17CD8
100
AcDbEntity
  8
SUNPOU
100
AcDbLine
 10
3880.443655266704
 20
3334.0848394196
 30
0.0
 11
3880.443655266704
 21
3441.684839419605
 31
0.0
  0
LINE
  5
18109
330
17CD8
100
AcDbEntity
  8
SUNPOU
100
AcDbLine
 10
3880.443655266704
 20
3456.684839419605
 30
0.0
 11
3880.443655266704
 21
3658.827696562461
 31
0.0
  0
LINE
  5
1810A
330
17CD8
100
AcDbEntity
  8
SUNPOU
100
AcDbLine
 10
3969.797051267461
 20
2711.084839419601
 30
0.0
 11
3835.443655266704
 21
2711.084839419601
 31
0.0
  0
LINE
  5
1810B
330
17CD8
100
AcDbEntity
  8
SUNPOU
100
AcDbLine
 10
4129.797051267463
 20
3191.084839419597
 30
0.0
 11
3835.443655266704
 21
3191.084839419597
 31
0.0
  0
LINE
  5
1810C
330
17CD8
100
AcDbEntity
  8
SUNPOU
100
AcDbLine
 10
3880.443655266704
 20
2726.084839419601
 30
0.0
 11
3880.443655266704
 21
3176.084839419596
 31
0.0
  0
LINE
  5
1810D
330
17CD8
100
AcDbEntity
  8
SUNPOU
100
AcDbLine
 10
6345.027558517712
 20
4130.485411556192
 30
0.0
 11
6285.0275585177
 21
4130.485411556192
 31
0.0
  0
LINE
  5
1810E
330
17CD8
100
AcDbEntity
  8
SUNPOU
100
AcDbLine
 10
6345.027558517706
 20
4130.485411556192
 30
0.0
 11
6285.027558517706
 21
4146.562363102062
 31
0.0
  0
LINE
  5
1810F
330
17CD8
100
AcDbEntity
  8
SUNPOU
100
AcDbLine
 10
6345.027558517712
 20
4130.485411556192
 30
0.0
 11
6285.0275585177
 21
4114.408460010323
 31
0.0
  0
LINE
  5
18110
330
17CD8
100
AcDbEntity
  8
SUNPOU
100
AcDbLine
 10
6285.027558517714
 20
4130.485411556192
 30
0.0
 11
6225.027558517701
 21
4130.485411556192
 31
0.0
  0
LINE
  5
18111
330
17CD8
100
AcDbEntity
  8
SUNPOU
100
AcDbLine
 10
6285.027558517706
 20
4130.485411556192
 30
0.0
 11
6225.027558517706
 21
4146.562363102062
 31
0.0
  0
LINE
  5
18112
330
17CD8
100
AcDbEntity
  8
SUNPOU
100
AcDbLine
 10
6285.027558517714
 20
4130.485411556192
 30
0.0
 11
6225.027558517701
 21
4114.408460010323
 31
0.0
  0
LINE
  5
18113
330
17CD8
100
AcDbEntity
  8
SUNPOU
100
AcDbLine
 10
4799.797051267463
 20
4160.485411556192
 30
0.0
 11
4799.797051267463
 21
4175.485411556191
 31
0.0
  0
LINE
  5
18114
330
17CD8
100
AcDbEntity
  8
SUNPOU
100
AcDbLine
 10
4159.797051267463
 20
3486.684839419604
 30
0.0
 11
4159.797051267463
 21
4175.485411556191
 31
0.0
  0
LINE
  5
18115
330
17CD8
100
AcDbEntity
  8
SUNPOU
100
AcDbLine
 10
4784.797051267463
 20
4130.485411556192
 30
0.0
 11
4174.797051267463
 21
4130.485411556192
 31
0.0
  0
LINE
  5
18116
330
17CD8
100
AcDbEntity
  8
SUNPOU
100
AcDbLine
 10
10249.12750789964
 20
8908.243182432324
 30
0.0
 11
10664.12750789964
 21
8908.243182432324
 31
0.0
  0
LINE
  5
18117
330
17CD8
100
AcDbEntity
  8
SUNPOU
100
AcDbLine
 10
10394.12750789964
 20
8708.243182432324
 30
0.0
 11
10664.12750789964
 21
8708.243182432324
 31
0.0
  0
LINE
  5
18118
330
17CD8
100
AcDbEntity
  8
SUNPOU
100
AcDbLine
 10
10619.12750789964
 20
8893.243182432323
 30
0.0
 11
10619.12750789964
 21
8723.243182432323
 31
0.0
  0
LINE
  5
18119
330
17CD8
100
AcDbEntity
  8
SUNPOU
100
AcDbLine
 10
10619.12750789964
 20
8708.243182432324
 30
0.0
 11
10619.12750789964
 21
8448.957468146611
 31
0.0
  0
LINE
  5
1811A
330
17CD8
100
AcDbEntity
  8
SUNPOU
100
AcDbLine
 10
10249.12750789964
 20
8908.243182432324
 30
0.0
 11
10664.12750789964
 21
8908.243182432324
 31
0.0
  0
LINE
  5
1811B
330
17CD8
100
AcDbEntity
  8
SUNPOU
100
AcDbLine
 10
10249.12750789964
 20
9108.243182432325
 30
0.0
 11
10664.12750789964
 21
9108.243182432325
 31
0.0
  0
LINE
  5
1811C
330
17CD8
100
AcDbEntity
  8
SUNPOU
100
AcDbLine
 10
10619.12750789964
 20
8923.243182432326
 30
0.0
 11
10619.12750789964
 21
9093.243182432324
 31
0.0
  0
LINE
  5
1811D
330
17CD8
100
AcDbEntity
  8
SUNPOU
100
AcDbLine
 10
10619.12750789964
 20
9108.243182432325
 30
0.0
 11
10619.12750789964
 21
9367.52889671804
 31
0.0
  0
LINE
  5
1811E
330
17CD8
100
AcDbEntity
  8
SUNPOU
100
AcDbLine
 10
7644.127507899643
 20
7118.243182432326
 30
0.0
 11
7629.127507899642
 21
7208.243182432326
 31
0.0
  0
LINE
  5
1811F
330
17CD8
100
AcDbEntity
  8
SUNPOU
100
AcDbLine
 10
7629.127507899642
 20
7208.243182432326
 30
0.0
 11
7614.127507899637
 21
7118.243182432326
 31
0.0
  0
SOLID
  5
18120
330
17CD8
100
AcDbEntity
  8
SUNPOU
100
AcDbTrace
 10
7644.127507899643
 20
7118.243182432326
 30
0.0
 11
7614.127507899637
 21
7118.243182432326
 31
0.0
 12
7629.127507899642
 22
7208.243182432326
 32
0.0
 13
7629.127507899642
 23
7208.243182432326
 33
0.0
  0
LINE
  5
18121
330
17CD8
100
AcDbEntity
  8
SUNPOU
100
AcDbLine
 10
7614.127507899637
 20
7118.243182432326
 30
0.0
 11
7644.127507899643
 21
7118.243182432326
 31
0.0
  0
LINE
  5
18122
330
17CD8
100
AcDbEntity
  8
SUNPOU
100
AcDbLine
 10
6394.127507899639
 20
7118.243182432326
 30
0.0
 11
6409.127507899639
 21
7208.243182432326
 31
0.0
  0
LINE
  5
18123
330
17CD8
100
AcDbEntity
  8
SUNPOU
100
AcDbLine
 10
6409.127507899639
 20
7208.243182432326
 30
0.0
 11
6424.127507899638
 21
7118.243182432326
 31
0.0
  0
SOLID
  5
18124
330
17CD8
100
AcDbEntity
  8
SUNPOU
100
AcDbTrace
 10
6394.127507899639
 20
7118.243182432326
 30
0.0
 11
6424.127507899638
 21
7118.243182432326
 31
0.0
 12
6409.127507899639
 22
7208.243182432326
 32
0.0
 13
6409.127507899639
 23
7208.243182432326
 33
0.0
  0
LINE
  5
18125
330
17CD8
100
AcDbEntity
  8
SUNPOU
100
AcDbLine
 10
6424.127507899638
 20
7118.243182432326
 30
0.0
 11
6394.127507899639
 21
7118.243182432326
 31
0.0
  0
LINE
  5
18126
330
17CD8
100
AcDbEntity
  8
SUNPOU
100
AcDbLine
 10
6619.127507899642
 20
9138.243182432324
 30
0.0
 11
6619.127507899642
 21
9663.243182432324
 31
0.0
  0
LINE
  5
18127
330
17CD8
100
AcDbEntity
  8
SUNPOU
100
AcDbLine
 10
10219.12750789964
 20
9138.243182432324
 30
0.0
 11
10219.12750789964
 21
9663.243182432324
 31
0.0
  0
LINE
  5
18128
330
17CD8
100
AcDbEntity
  8
SUNPOU
100
AcDbLine
 10
6634.12750789964
 20
9618.243182432324
 30
0.0
 11
10204.12750789964
 21
9618.243182432324
 31
0.0
  0
LINE
  5
18129
330
17CD8
100
AcDbEntity
  8
SUNPOU
100
AcDbLine
 10
9819.127507899644
 20
9338.243182432325
 30
0.0
 11
9819.127507899644
 21
9453.243182432325
 31
0.0
  0
LINE
  5
1812A
330
17CD8
100
AcDbEntity
  8
SUNPOU
100
AcDbLine
 10
7019.127507899643
 20
9338.243182432325
 30
0.0
 11
7019.127507899643
 21
9453.243182432325
 31
0.0
  0
LINE
  5
1812B
330
17CD8
100
AcDbEntity
  8
SUNPOU
100
AcDbLine
 10
9804.127507899641
 20
9408.243182432325
 30
0.0
 11
7034.12750789964
 21
9408.243182432325
 31
0.0
  0
LINE
  5
1812C
330
17CD8
100
AcDbEntity
  8
SUNPOU
100
AcDbLine
 10
7019.127507899643
 20
9338.243182432325
 30
0.0
 11
7019.127507899643
 21
9453.243182432325
 31
0.0
  0
LINE
  5
1812D
330
17CD8
100
AcDbEntity
  8
SUNPOU
100
AcDbLine
 10
6619.127507899642
 20
9138.243182432324
 30
0.0
 11
6619.127507899642
 21
9453.243182432325
 31
0.0
  0
LINE
  5
1812E
330
17CD8
100
AcDbEntity
  8
SUNPOU
100
AcDbLine
 10
7004.127507899642
 20
9408.243182432325
 30
0.0
 11
6634.12750789964
 21
9408.243182432325
 31
0.0
  0
LINE
  5
1812F
330
17CD8
100
AcDbEntity
  8
SUNPOU
100
AcDbLine
 10
9819.127507899644
 20
9338.243182432325
 30
0.0
 11
9819.127507899644
 21
9453.243182432325
 31
0.0
  0
LINE
  5
18130
330
17CD8
100
AcDbEntity
  8
SUNPOU
100
AcDbLine
 10
10219.12750789964
 20
9138.243182432324
 30
0.0
 11
10219.12750789964
 21
9453.243182432325
 31
0.0
  0
LINE
  5
18131
330
17CD8
100
AcDbEntity
  8
SUNPOU
100
AcDbLine
 10
9834.127507899641
 20
9408.243182432325
 30
0.0
 11
10204.12750789964
 21
9408.243182432325
 31
0.0
  0
LINE
  5
18132
330
17CD8
100
AcDbEntity
  8
SUNPOU
100
AcDbLine
 10
11039.12750789964
 20
9096.993182432326
 30
0.0
 11
11039.12750789964
 21
9085.743182432326
 31
0.0
  0
LINE
  5
18133
330
17CD8
100
AcDbEntity
  8
SUNPOU
100
AcDbLine
 10
10829.12750789964
 20
9096.993182432326
 30
0.0
 11
10829.12750789964
 21
9085.743182432326
 31
0.0
  0
LINE
  5
18134
330
17CD8
100
AcDbEntity
  8
SUNPOU
100
AcDbLine
 10
10829.12750789964
 20
8696.993182432326
 30
0.0
 11
10829.12750789964
 21
8685.743182432323
 31
0.0
  0
LINE
  5
18135
330
17CD8
100
AcDbEntity
  8
SUNPOU
100
AcDbLine
 10
10829.12750789964
 20
8719.493182432323
 30
0.0
 11
10829.12750789964
 21
8730.743182432323
 31
0.0
  0
LINE
  5
18136
330
17CD8
100
AcDbEntity
  8
SUNPOU
100
AcDbLine
 10
10829.12750789964
 20
6896.993182432325
 30
0.0
 11
10829.12750789964
 21
6885.743182432325
 31
0.0
  0
LINE
  5
18137
330
17CD8
100
AcDbEntity
  8
SUNPOU
100
AcDbLine
 10
10829.12750789964
 20
6919.493182432326
 30
0.0
 11
10829.12750789964
 21
6930.743182432326
 31
0.0
  0
LINE
  5
18138
330
17CD8
100
AcDbEntity
  8
SUNPOU
100
AcDbLine
 10
11039.12750789964
 20
6519.493182432326
 30
0.0
 11
11039.12750789964
 21
6530.743182432326
 31
0.0
  0
LINE
  5
18139
330
17CD8
100
AcDbEntity
  8
SUNPOU
100
AcDbLine
 10
10829.12750789964
 20
6519.493182432326
 30
0.0
 11
10829.12750789964
 21
6530.743182432326
 31
0.0
  0
LINE
  5
1813A
330
17CD8
100
AcDbEntity
  8
SUNPOU
100
AcDbLine
 10
9389.12750789964
 20
9108.243182432325
 30
0.0
 11
9074.127507899641
 21
9108.243182432325
 31
0.0
  0
LINE
  5
1813B
330
17CD8
100
AcDbEntity
  8
SUNPOU
100
AcDbLine
 10
9389.12750789964
 20
8308.243182432326
 30
0.0
 11
9074.127507899641
 21
8308.243182432326
 31
0.0
  0
LINE
  5
1813C
330
17CD8
100
AcDbEntity
  8
SUNPOU
100
AcDbLine
 10
9119.127507899641
 20
9093.243182432324
 30
0.0
 11
9119.127507899641
 21
8323.243182432326
 31
0.0
  0
LINE
  5
1813D
330
17CD8
100
AcDbEntity
  8
SUNPOU
100
AcDbLine
 10
9419.127507899641
 20
8278.243182432323
 30
0.0
 11
9419.127507899641
 21
7963.243182432326
 31
0.0
  0
LINE
  5
1813E
330
17CD8
100
AcDbEntity
  8
SUNPOU
100
AcDbLine
 10
10219.12750789964
 20
8278.243182432323
 30
0.0
 11
10219.12750789964
 21
7963.243182432326
 31
0.0
  0
LINE
  5
1813F
330
17CD8
100
AcDbEntity
  8
SUNPOU
100
AcDbLine
 10
9434.12750789964
 20
8008.243182432327
 30
0.0
 11
10204.12750789964
 21
8008.243182432327
 31
0.0
  0
TEXT
  5
18140
330
17CD8
100
AcDbEntity
  8
SUNPOU
100
AcDbText
 10
3619.240902195488
 20
2918.170553705319
 30
0.0
 40
90.0
  1
560
 50
90.0
 41
0.6666666666666666
  7
00
100
AcDbText
  0
LINE
  5
18141
330
17CD8
100
AcDbEntity
  8
SUNPOU
100
AcDbLine
 10
3664.240902195488
 20
2562.334839419601
 30
0.0
 11
3664.240902195488
 21
2573.584839419601
 31
0.0
  0
LINE
  5
18142
330
17CD8
100
AcDbEntity
  8
SUNPOU
100
AcDbLine
 10
3664.240902195489
 20
3445.434839419605
 30
0.0
 11
3664.240902195489
 21
3434.184839419605
 31
0.0
  0
TEXT
  5
18143
330
17CD8
100
AcDbEntity
  8
SUNPOU
100
AcDbText
 10
3835.993474569397
 20
2326.927273218552
 30
0.0
 40
90.0
  1
100
 50
90.0
 41
0.6666666666666666
  7
00
100
AcDbText
  0
LINE
  5
18144
330
17CD8
100
AcDbEntity
  8
SUNPOU
100
AcDbLine
 10
3880.993474569399
 20
2562.334839419601
 30
0.0
 11
3880.993474569399
 21
2573.584839419601
 31
0.0
  0
LINE
  5
18145
330
17CD8
100
AcDbEntity
  8
SUNPOU
100
AcDbLine
 10
3880.993474569399
 20
2699.834839419601
 30
0.0
 11
3880.993474569399
 21
2688.584839419601
 31
0.0
  0
TEXT
  5
18146
330
17CD8
100
AcDbEntity
  8
SUNPOU
100
AcDbText
 10
7400.498936476577
 20
2918.170553705316
 30
0.0
 40
90.0
  1
560
 50
90.0
 41
0.6666666666666666
  7
00
100
AcDbText
  0
LINE
  5
18147
330
17CD8
100
AcDbEntity
  8
SUNPOU
100
AcDbLine
 10
7445.498936476579
 20
3445.434839419604
 30
0.0
 11
7445.498936476579
 21
3434.184839419604
 31
0.0
  0
LINE
  5
18148
330
17CD8
100
AcDbEntity
  8
SUNPOU
100
AcDbLine
 10
7445.498936476579
 20
2562.334839419596
 30
0.0
 11
7445.498936476579
 21
2573.584839419597
 31
0.0
  0
TEXT
  5
18149
330
17CD8
100
AcDbEntity
  8
SUNPOU
100
AcDbText
 10
7615.76985579035
 20
2328.227696562456
 30
0.0
 40
90.0
  1
100
 50
90.0
 41
0.6666666666666666
  7
00
100
AcDbText
  0
LINE
  5
1814A
330
17CD8
100
AcDbEntity
  8
SUNPOU
100
AcDbLine
 10
7660.769855790352
 20
2562.334839419596
 30
0.0
 11
7660.769855790352
 21
2573.584839419597
 31
0.0
  0
LINE
  5
1814B
330
17CD8
100
AcDbEntity
  8
SUNPOU
100
AcDbLine
 10
7660.769855790352
 20
2699.834839419601
 30
0.0
 11
7660.769855790352
 21
2688.584839419601
 31
0.0
  0
TEXT
  5
1814C
330
17CD8
100
AcDbEntity
  8
SUNPOU
100
AcDbText
 10
12228.40680314954
 20
3937.765608013134
 30
0.0
 40
90.0
  1
40
 50
90.0
 41
0.6666666666666666
  7
00
100
AcDbText
  0
LINE
  5
1814D
330
17CD8
100
AcDbEntity
  8
SUNPOU
100
AcDbLine
 10
12273.40680314955
 20
3875.087036584561
 30
0.0
 11
12273.40680314955
 21
3863.83703658456
 31
0.0
  0
LINE
  5
1814E
330
17CD8
100
AcDbEntity
  8
SUNPOU
100
AcDbLine
 10
12273.40680314955
 20
3737.587036584561
 30
0.0
 11
12273.40680314955
 21
3748.837036584561
 31
0.0
  0
TEXT
  5
1814F
330
17CD8
100
AcDbEntity
  8
SUNPOU
100
AcDbText
 10
12228.40680314954
 20
3437.622750870277
 30
0.0
 40
90.0
  1
27
 50
90.0
 41
0.6666666666666666
  7
00
100
AcDbText
  0
LINE
  5
18150
330
17CD8
100
AcDbEntity
  8
SUNPOU
100
AcDbLine
 10
12273.40680314955
 20
3607.087036584561
 30
0.0
 11
12273.40680314955
 21
3595.837036584561
 31
0.0
  0
LINE
  5
18151
330
17CD8
100
AcDbEntity
  8
SUNPOU
100
AcDbLine
 10
12273.40680314955
 20
3737.587036584561
 30
0.0
 11
12273.40680314955
 21
3748.837036584561
 31
0.0
  0
TEXT
  5
18152
330
17CD8
100
AcDbEntity
  8
SUNPOU
100
AcDbText
 10
7615.76985579035
 20
3197.941982276743
 30
0.0
 40
90.0
  1
80
 50
90.0
 41
0.6666666666666666
  7
00
100
AcDbText
  0
LINE
  5
18153
330
17CD8
100
AcDbEntity
  8
SUNPOU
100
AcDbLine
 10
7660.769855790352
 20
3202.334839419596
 30
0.0
 11
7660.769855790352
 21
3213.584839419597
 31
0.0
  0
LINE
  5
18154
330
17CD8
100
AcDbEntity
  8
SUNPOU
100
AcDbLine
 10
7660.769855790352
 20
3307.8348394196
 30
0.0
 11
7660.769855790352
 21
3296.5848394196
 31
0.0
  0
TEXT
  5
18155
330
17CD8
100
AcDbEntity
  8
SUNPOU
100
AcDbText
 10
7615.76985579035
 20
3508.113410848177
 30
0.0
 40
90.0
  1
80
 50
90.0
 41
0.6666666666666666
  7
00
100
AcDbText
  0
LINE
  5
18156
330
17CD8
100
AcDbEntity
  8
SUNPOU
100
AcDbLine
 10
7660.769855790352
 20
3445.434839419605
 30
0.0
 11
7660.769855790352
 21
3434.184839419605
 31
0.0
  0
LINE
  5
18157
330
17CD8
100
AcDbEntity
  8
SUNPOU
100
AcDbLine
 10
7660.769855790352
 20
3330.3348394196
 30
0.0
 11
7660.769855790352
 21
3341.584839419601
 31
0.0
  0
TEXT
  5
18158
330
17CD8
100
AcDbEntity
  8
SUNPOU
100
AcDbText
 10
7615.76985579035
 20
2865.370553705315
 30
0.0
 40
90.0
  1
300
 50
90.0
 41
0.6666666666666666
  7
00
100
AcDbText
  0
LINE
  5
18159
330
17CD8
100
AcDbEntity
  8
SUNPOU
100
AcDbLine
 10
7660.769855790352
 20
3179.834839419596
 30
0.0
 11
7660.769855790352
 21
3168.584839419597
 31
0.0
  0
LINE
  5
1815A
330
17CD8
100
AcDbEntity
  8
SUNPOU
100
AcDbLine
 10
7660.769855790352
 20
2722.334839419601
 30
0.0
 11
7660.769855790352
 21
2733.584839419601
 31
0.0
  0
TEXT
  5
1815B
330
17CD8
100
AcDbEntity
  8
SUNPOU
100
AcDbText
 10
11927.76694549065
 20
2290.804976716086
 30
0.0
 40
90.0
  1
20
 41
0.6666666666666666
  7
00
100
AcDbText
  0
LINE
  5
1815C
330
17CD8
100
AcDbEntity
  8
SUNPOU
100
AcDbLine
 10
11872.58837406209
 20
2245.804976716085
 30
0.0
 11
11883.83837406209
 21
2245.804976716085
 31
0.0
  0
LINE
  5
1815D
330
17CD8
100
AcDbEntity
  8
SUNPOU
100
AcDbLine
 10
11770.08837406209
 20
2245.804976716085
 30
0.0
 11
11758.83837406209
 21
2245.804976716085
 31
0.0
  0
TEXT
  5
1815E
330
17CD8
100
AcDbEntity
  8
SUNPOU
100
AcDbText
 10
11451.33837406209
 20
2290.804976716086
 30
0.0
 40
90.0
  1
120
 41
0.6666666666666666
  7
00
100
AcDbText
  0
LINE
  5
1815F
330
17CD8
100
AcDbEntity
  8
SUNPOU
100
AcDbLine
 10
11770.08837406209
 20
2245.804976716085
 30
0.0
 11
11758.83837406209
 21
2245.804976716085
 31
0.0
  0
LINE
  5
18160
330
17CD8
100
AcDbEntity
  8
SUNPOU
100
AcDbLine
 10
11312.58837406211
 20
2245.804976716085
 30
0.0
 11
11323.83837406211
 21
2245.804976716085
 31
0.0
  0
TEXT
  5
18161
330
17CD8
100
AcDbEntity
  8
SUNPOU
100
AcDbText
 10
11040.6240883478
 20
2290.804976716086
 30
0.0
 40
90.0
  1
20
 41
0.6666666666666666
  7
00
100
AcDbText
  0
LINE
  5
18162
330
17CD8
100
AcDbEntity
  8
SUNPOU
100
AcDbLine
 10
11210.08837406209
 20
2245.804976716085
 30
0.0
 11
11198.83837406209
 21
2245.804976716085
 31
0.0
  0
LINE
  5
18163
330
17CD8
100
AcDbEntity
  8
SUNPOU
100
AcDbLine
 10
11312.58837406211
 20
2245.804976716085
 30
0.0
 11
11323.83837406211
 21
2245.804976716085
 31
0.0
  0
TEXT
  5
18164
330
17CD8
100
AcDbEntity
  8
SUNPOU
100
AcDbText
 10
11451.33837406208
 20
2080.804976716085
 30
0.0
 40
90.0
  1
160
 41
0.6666666666666666
  7
00
100
AcDbText
  0
LINE
  5
18165
330
17CD8
100
AcDbEntity
  8
SUNPOU
100
AcDbLine
 10
11850.08837406209
 20
2035.804976716086
 30
0.0
 11
11838.83837406209
 21
2035.804976716086
 31
0.0
  0
LINE
  5
18166
330
17CD8
100
AcDbEntity
  8
SUNPOU
100
AcDbLine
 10
11232.58837406209
 20
2035.804976716086
 30
0.0
 11
11243.83837406209
 21
2035.804976716086
 31
0.0
  0
TEXT
  5
18167
330
17CD8
100
AcDbEntity
  8
SUNPOU
100
AcDbText
 10
10873.33837406209
 20
2374.430058338865
 30
0.0
 40
90.0
  1
40
 50
90.0
 41
0.6666666666666666
  7
00
100
AcDbText
  0
LINE
  5
18168
330
17CD8
100
AcDbEntity
  8
SUNPOU
100
AcDbLine
 10
10918.33837406209
 20
2551.394344053149
 30
0.0
 11
10918.33837406209
 21
2562.644344053149
 31
0.0
  0
LINE
  5
18169
330
17CD8
100
AcDbEntity
  8
SUNPOU
100
AcDbLine
 10
10918.33837406209
 20
2688.894344053149
 30
0.0
 11
10918.33837406209
 21
2677.644344053149
 31
0.0
  0
TEXT
  5
1816A
330
17CD8
100
AcDbEntity
  8
SUNPOU
100
AcDbText
 10
10873.33837406209
 20
2911.572915481723
 30
0.0
 40
90.0
  1
40
 50
90.0
 41
0.6666666666666666
  7
00
100
AcDbText
  0
LINE
  5
1816B
330
17CD8
100
AcDbEntity
  8
SUNPOU
100
AcDbLine
 10
10918.33837406209
 20
2848.894344053149
 30
0.0
 11
10918.33837406209
 21
2837.644344053149
 31
0.0
  0
LINE
  5
1816C
330
17CD8
100
AcDbEntity
  8
SUNPOU
100
AcDbLine
 10
10918.33837406209
 20
2711.394344053149
 30
0.0
 11
10918.33837406209
 21
2722.644344053149
 31
0.0
  0
TEXT
  5
1816D
330
17CD8
100
AcDbEntity
  8
SUNPOU
100
AcDbText
 10
10663.33837406209
 20
2643.001486910295
 30
0.0
 40
90.0
  1
80
 50
90.0
 41
0.6666666666666666
  7
00
100
AcDbText
  0
LINE
  5
1816E
330
17CD8
100
AcDbEntity
  8
SUNPOU
100
AcDbLine
 10
10708.33837406208
 20
2848.894344053149
 30
0.0
 11
10708.33837406208
 21
2837.644344053149
 31
0.0
  0
LINE
  5
1816F
330
17CD8
100
AcDbEntity
  8
SUNPOU
100
AcDbLine
 10
10708.33837406208
 20
2551.394344053149
 30
0.0
 11
10708.33837406208
 21
2562.644344053149
 31
0.0
  0
TEXT
  5
18170
330
17CD8
100
AcDbEntity
  8
SUNPOU
100
AcDbText
 10
11927.76694549065
 20
3439.170862655058
 30
0.0
 40
90.0
  1
20
 41
0.6666666666666666
  7
00
100
AcDbText
  0
LINE
  5
18171
330
17CD8
100
AcDbEntity
  8
SUNPOU
100
AcDbLine
 10
11872.58837406209
 20
3394.170862655057
 30
0.0
 11
11883.83837406209
 21
3394.170862655057
 31
0.0
  0
LINE
  5
18172
330
17CD8
100
AcDbEntity
  8
SUNPOU
100
AcDbLine
 10
11770.08837406209
 20
3394.170862655057
 30
0.0
 11
11758.83837406209
 21
3394.170862655057
 31
0.0
  0
TEXT
  5
18173
330
17CD8
100
AcDbEntity
  8
SUNPOU
100
AcDbText
 10
11451.33837406209
 20
3439.170862655058
 30
0.0
 40
90.0
  1
120
 41
0.6666666666666666
  7
00
100
AcDbText
  0
LINE
  5
18174
330
17CD8
100
AcDbEntity
  8
SUNPOU
100
AcDbLine
 10
11770.08837406209
 20
3394.170862655057
 30
0.0
 11
11758.83837406209
 21
3394.170862655057
 31
0.0
  0
LINE
  5
18175
330
17CD8
100
AcDbEntity
  8
SUNPOU
100
AcDbLine
 10
11312.58837406211
 20
3394.170862655057
 30
0.0
 11
11323.83837406211
 21
3394.170862655057
 31
0.0
  0
TEXT
  5
18176
330
17CD8
100
AcDbEntity
  8
SUNPOU
100
AcDbText
 10
11040.6240883478
 20
3439.170862655058
 30
0.0
 40
90.0
  1
20
 41
0.6666666666666666
  7
00
100
AcDbText
  0
LINE
  5
18177
330
17CD8
100
AcDbEntity
  8
SUNPOU
100
AcDbLine
 10
11210.08837406209
 20
3394.170862655057
 30
0.0
 11
11198.83837406209
 21
3394.170862655057
 31
0.0
  0
LINE
  5
18178
330
17CD8
100
AcDbEntity
  8
SUNPOU
100
AcDbLine
 10
11312.58837406211
 20
3394.170862655057
 30
0.0
 11
11323.83837406211
 21
3394.170862655057
 31
0.0
  0
TEXT
  5
18179
330
17CD8
100
AcDbEntity
  8
SUNPOU
100
AcDbText
 10
11451.33837406208
 20
3229.170862655058
 30
0.0
 40
90.0
  1
160
 41
0.6666666666666666
  7
00
100
AcDbText
  0
LINE
  5
1817A
330
17CD8
100
AcDbEntity
  8
SUNPOU
100
AcDbLine
 10
11850.08837406209
 20
3184.170862655058
 30
0.0
 11
11838.83837406209
 21
3184.170862655058
 31
0.0
  0
LINE
  5
1817B
330
17CD8
100
AcDbEntity
  8
SUNPOU
100
AcDbLine
 10
11232.58837406209
 20
3184.170862655058
 30
0.0
 11
11243.83837406209
 21
3184.170862655058
 31
0.0
  0
TEXT
  5
1817C
330
17CD8
100
AcDbEntity
  8
SUNPOU
100
AcDbText
 10
8494.408966076823
 20
2193.684839419605
 30
0.0
 40
90.0
  1
800
 41
0.6666666666666666
  7
00
100
AcDbText
  0
LINE
  5
1817D
330
17CD8
100
AcDbEntity
  8
SUNPOU
100
AcDbLine
 10
9208.873251791109
 20
2148.684839419604
 30
0.0
 11
9197.623251791108
 21
2148.684839419604
 31
0.0
  0
LINE
  5
1817E
330
17CD8
100
AcDbEntity
  8
SUNPOU
100
AcDbLine
 10
7951.373251791109
 20
2148.684839419604
 30
0.0
 11
7962.623251791109
 21
2148.684839419604
 31
0.0
  0
TEXT
  5
1817F
330
17CD8
100
AcDbEntity
  8
SUNPOU
100
AcDbText
 10
8461.551823219677
 20
1983.684839419604
 30
0.0
 40
90.0
  1
1000
 41
0.6666666666666666
  7
00
100
AcDbText
  0
LINE
  5
18180
330
17CD8
100
AcDbEntity
  8
SUNPOU
100
AcDbLine
 10
9368.873251791109
 20
1938.684839419604
 30
0.0
 11
9357.623251791109
 21
1938.684839419604
 31
0.0
  0
LINE
  5
18181
330
17CD8
100
AcDbEntity
  8
SUNPOU
100
AcDbLine
 10
7791.373251791107
 20
1938.684839419604
 30
0.0
 11
7802.623251791108
 21
1938.684839419604
 31
0.0
  0
TEXT
  5
18182
330
17CD8
100
AcDbEntity
  8
SUNPOU
100
AcDbText
 10
7195.769855790351
 20
3523.113410848177
 30
0.0
 40
90.0
  1
50
 50
90.0
 41
0.6666666666666666
  7
00
100
AcDbText
  0
LINE
  5
18183
330
17CD8
100
AcDbEntity
  8
SUNPOU
100
AcDbLine
 10
7240.76985579035
 20
3467.934839419604
 30
0.0
 11
7240.76985579035
 21
3479.184839419604
 31
0.0
  0
LINE
  5
18184
330
17CD8
100
AcDbEntity
  8
SUNPOU
100
AcDbLine
 10
7240.76985579035
 20
3365.434839419608
 30
0.0
 11
7240.76985579035
 21
3354.184839419608
 31
0.0
  0
TEXT
  5
18185
330
17CD8
100
AcDbEntity
  8
SUNPOU
100
AcDbText
 10
8334.408966076827
 20
4175.485411556194
 30
0.0
 40
90.0
  1
200
 41
0.6666666666666666
  7
00
100
AcDbText
  0
LINE
  5
18186
330
17CD8
100
AcDbEntity
  8
SUNPOU
100
AcDbLine
 10
8271.373251791111
 20
4130.485411556196
 30
0.0
 11
8282.623251791111
 21
4130.485411556196
 31
0.0
  0
LINE
  5
18187
330
17CD8
100
AcDbEntity
  8
SUNPOU
100
AcDbLine
 10
8568.87325179111
 20
4130.485411556196
 30
0.0
 11
8557.623251791111
 21
4130.485411556196
 31
0.0
  0
TEXT
  5
18188
330
17CD8
100
AcDbEntity
  8
SUNPOU
100
AcDbText
 10
4714.082765553178
 20
2193.684839419601
 30
0.0
 40
90.0
  1
800
 41
0.6666666666666666
  7
00
100
AcDbText
  0
LINE
  5
18189
330
17CD8
100
AcDbEntity
  8
SUNPOU
100
AcDbLine
 10
5428.547051267464
 20
2148.684839419601
 30
0.0
 11
5417.297051267464
 21
2148.684839419601
 31
0.0
  0
LINE
  5
1818A
330
17CD8
100
AcDbEntity
  8
SUNPOU
100
AcDbLine
 10
4171.047051267463
 20
2148.684839419601
 30
0.0
 11
4182.297051267464
 21
2148.684839419601
 31
0.0
  0
TEXT
  5
1818B
330
17CD8
100
AcDbEntity
  8
SUNPOU
100
AcDbText
 10
4681.225622696032
 20
1983.6848394196
 30
0.0
 40
90.0
  1
1000
 41
0.6666666666666666
  7
00
100
AcDbText
  0
LINE
  5
1818C
330
17CD8
100
AcDbEntity
  8
SUNPOU
100
AcDbLine
 10
5588.547051267462
 20
1938.6848394196
 30
0.0
 11
5577.297051267462
 21
1938.6848394196
 31
0.0
  0
LINE
  5
1818D
330
17CD8
100
AcDbEntity
  8
SUNPOU
100
AcDbLine
 10
4011.04705126746
 20
1938.6848394196
 30
0.0
 11
4022.297051267461
 21
1938.6848394196
 31
0.0
  0
TEXT
  5
1818E
330
17CD8
100
AcDbEntity
  8
SUNPOU
100
AcDbText
 10
3415.443655266705
 20
3523.113410848177
 30
0.0
 40
90.0
  1
50
 50
90.0
 41
0.6666666666666666
  7
00
100
AcDbText
  0
LINE
  5
1818F
330
17CD8
100
AcDbEntity
  8
SUNPOU
100
AcDbLine
 10
3460.443655266704
 20
3467.934839419605
 30
0.0
 11
3460.443655266704
 21
3479.184839419605
 31
0.0
  0
LINE
  5
18190
330
17CD8
100
AcDbEntity
  8
SUNPOU
100
AcDbLine
 10
3460.443655266704
 20
3365.434839419604
 30
0.0
 11
3460.443655266704
 21
3354.184839419604
 31
0.0
  0
TEXT
  5
18191
330
17CD8
100
AcDbEntity
  8
SUNPOU
100
AcDbText
 10
3835.443655266704
 20
3197.941982276741
 30
0.0
 40
90.0
  1
80
 50
90.0
 41
0.6666666666666666
  7
00
100
AcDbText
  0
LINE
  5
18192
330
17CD8
100
AcDbEntity
  8
SUNPOU
100
AcDbLine
 10
3880.443655266705
 20
3202.334839419596
 30
0.0
 11
3880.443655266705
 21
3213.584839419597
 31
0.0
  0
LINE
  5
18193
330
17CD8
100
AcDbEntity
  8
SUNPOU
100
AcDbLine
 10
3880.443655266705
 20
3307.8348394196
 30
0.0
 11
3880.443655266705
 21
3296.5848394196
 31
0.0
  0
TEXT
  5
18194
330
17CD8
100
AcDbEntity
  8
SUNPOU
100
AcDbText
 10
3835.443655266704
 20
3508.113410848177
 30
0.0
 40
90.0
  1
80
 50
90.0
 41
0.6666666666666666
  7
00
100
AcDbText
  0
LINE
  5
18195
330
17CD8
100
AcDbEntity
  8
SUNPOU
100
AcDbLine
 10
3880.443655266704
 20
3445.434839419605
 30
0.0
 11
3880.443655266704
 21
3434.184839419605
 31
0.0
  0
LINE
  5
18196
330
17CD8
100
AcDbEntity
  8
SUNPOU
100
AcDbLine
 10
3880.443655266704
 20
3330.3348394196
 30
0.0
 11
3880.443655266704
 21
3341.584839419601
 31
0.0
  0
TEXT
  5
18197
330
17CD8
100
AcDbEntity
  8
SUNPOU
100
AcDbText
 10
3835.443655266704
 20
2865.370553705314
 30
0.0
 40
90.0
  1
300
 50
90.0
 41
0.6666666666666666
  7
00
100
AcDbText
  0
LINE
  5
18198
330
17CD8
100
AcDbEntity
  8
SUNPOU
100
AcDbLine
 10
3880.443655266704
 20
3179.834839419596
 30
0.0
 11
3880.443655266704
 21
3168.584839419597
 31
0.0
  0
LINE
  5
18199
330
17CD8
100
AcDbEntity
  8
SUNPOU
100
AcDbLine
 10
3880.443655266704
 20
2722.334839419601
 30
0.0
 11
3880.443655266704
 21
2733.584839419601
 31
0.0
  0
TEXT
  5
1819A
330
17CD8
100
AcDbEntity
  8
SUNPOU
100
AcDbText
 10
4394.082765553178
 20
4175.485411556191
 30
0.0
 40
90.0
  1
400
 41
0.6666666666666666
  7
00
100
AcDbText
  0
LINE
  5
1819B
330
17CD8
100
AcDbEntity
  8
SUNPOU
100
AcDbLine
 10
4171.047051267463
 20
4130.485411556192
 30
0.0
 11
4182.297051267464
 21
4130.485411556192
 31
0.0
  0
LINE
  5
1819C
330
17CD8
100
AcDbEntity
  8
SUNPOU
100
AcDbLine
 10
4788.547051267463
 20
4130.485411556192
 30
0.0
 11
4777.297051267463
 21
4130.485411556192
 31
0.0
  0
TEXT
  5
1819D
330
17CD8
100
AcDbEntity
  8
SUNPOU
100
AcDbText
 10
10574.12750789963
 20
8485.386039575182
 30
0.0
 40
90.0
  1
200
 50
90.0
 41
0.6666666666666666
  7
00
100
AcDbText
  0
LINE
  5
1819E
330
17CD8
100
AcDbEntity
  8
SUNPOU
100
AcDbLine
 10
10619.12750789964
 20
8719.493182432323
 30
0.0
 11
10619.12750789964
 21
8730.743182432323
 31
0.0
  0
LINE
  5
1819F
330
17CD8
100
AcDbEntity
  8
SUNPOU
100
AcDbLine
 10
10619.12750789964
 20
8896.993182432323
 30
0.0
 11
10619.12750789964
 21
8885.743182432326
 31
0.0
  0
TEXT
  5
181A0
330
17CD8
100
AcDbEntity
  8
SUNPOU
100
AcDbText
 10
10574.12750789963
 20
9159.671753860896
 30
0.0
 40
90.0
  1
200
 50
90.0
 41
0.6666666666666666
  7
00
100
AcDbText
  0
LINE
  5
181A1
330
17CD8
100
AcDbEntity
  8
SUNPOU
100
AcDbLine
 10
10619.12750789964
 20
9096.993182432326
 30
0.0
 11
10619.12750789964
 21
9085.743182432326
 31
0.0
  0
LINE
  5
181A2
330
17CD8
100
AcDbEntity
  8
SUNPOU
100
AcDbLine
 10
10619.12750789964
 20
8919.493182432324
 30
0.0
 11
10619.12750789964
 21
8930.743182432323
 31
0.0
  0
TEXT
  5
181A3
330
17CD8
100
AcDbEntity
  8
SUNPOU
100
AcDbText
 10
8304.841793613924
 20
9663.243182432324
 30
0.0
 40
90.0
  1
3600
 41
0.6666666666666666
  7
00
100
AcDbText
  0
LINE
  5
181A4
330
17CD8
100
AcDbEntity
  8
SUNPOU
100
AcDbLine
 10
10207.87750789964
 20
9618.243182432324
 30
0.0
 11
10196.62750789964
 21
9618.243182432324
 31
0.0
  0
LINE
  5
181A5
330
17CD8
100
AcDbEntity
  8
SUNPOU
100
AcDbLine
 10
6630.377507899642
 20
9618.243182432324
 30
0.0
 11
6641.627507899642
 21
9618.243182432324
 31
0.0
  0
TEXT
  5
181A6
330
17CD8
100
AcDbEntity
  8
SUNPOU
100
AcDbText
 10
8304.841793613924
 20
9453.243182432325
 30
0.0
 40
90.0
  1
2800
 41
0.6666666666666666
  7
00
100
AcDbText
  0
LINE
  5
181A7
330
17CD8
100
AcDbEntity
  8
SUNPOU
100
AcDbLine
 10
7030.377507899642
 20
9408.243182432325
 30
0.0
 11
7041.627507899639
 21
9408.243182432325
 31
0.0
  0
LINE
  5
181A8
330
17CD8
100
AcDbEntity
  8
SUNPOU
100
AcDbLine
 10
9807.87750789964
 20
9408.243182432325
 30
0.0
 11
9796.627507899641
 21
9408.243182432325
 31
0.0
  0
TEXT
  5
181A9
330
17CD8
100
AcDbEntity
  8
SUNPOU
100
AcDbText
 10
6733.413222185355
 20
9453.243182432325
 30
0.0
 40
90.0
  1
400
 41
0.6666666666666666
  7
00
100
AcDbText
  0
LINE
  5
181AA
330
17CD8
100
AcDbEntity
  8
SUNPOU
100
AcDbLine
 10
6630.377507899642
 20
9408.243182432325
 30
0.0
 11
6641.627507899642
 21
9408.243182432325
 31
0.0
  0
LINE
  5
181AB
330
17CD8
100
AcDbEntity
  8
SUNPOU
100
AcDbLine
 10
7007.87750789964
 20
9408.243182432325
 30
0.0
 11
6996.62750789964
 21
9408.243182432325
 31
0.0
  0
TEXT
  5
181AC
330
17CD8
100
AcDbEntity
  8
SUNPOU
100
AcDbText
 10
9933.413222185357
 20
9453.243182432325
 30
0.0
 40
90.0
  1
400
 41
0.6666666666666666
  7
00
100
AcDbText
  0
LINE
  5
181AD
330
17CD8
100
AcDbEntity
  8
SUNPOU
100
AcDbLine
 10
10207.87750789964
 20
9408.243182432325
 30
0.0
 11
10196.62750789964
 21
9408.243182432325
 31
0.0
  0
LINE
  5
181AE
330
17CD8
100
AcDbEntity
  8
SUNPOU
100
AcDbLine
 10
9830.37750789964
 20
9408.243182432325
 30
0.0
 11
9841.627507899641
 21
9408.243182432325
 31
0.0
  0
ARC
  5
181AF
330
17CD8
100
AcDbEntity
  8
SUNPOU
100
AcDbCircle
 10
11039.12750789964
 20
9108.243182432325
 30
0.0
 40
5.625
100
AcDbArc
 50
270.0
 51
90.0
  0
ARC
  5
181B0
330
17CD8
100
AcDbEntity
  8
SUNPOU
100
AcDbCircle
 10
11039.12750789964
 20
9108.243182432325
 30
0.0
 40
5.625
100
AcDbArc
 50
90.0
 51
270.0
  0
ARC
  5
181B1
330
17CD8
100
AcDbEntity
  8
SUNPOU
100
AcDbCircle
 10
10829.12750789964
 20
9108.243182432325
 30
0.0
 40
5.625
100
AcDbArc
 50
270.0
 51
90.0
  0
ARC
  5
181B2
330
17CD8
100
AcDbEntity
  8
SUNPOU
100
AcDbCircle
 10
10829.12750789964
 20
9108.243182432325
 30
0.0
 40
5.625
100
AcDbArc
 50
90.0
 51
270.0
  0
ARC
  5
181B3
330
17CD8
100
AcDbEntity
  8
SUNPOU
100
AcDbCircle
 10
10829.12750789964
 20
8708.243182432324
 30
0.0
 40
5.625
100
AcDbArc
 50
270.0
 51
90.0
  0
ARC
  5
181B4
330
17CD8
100
AcDbEntity
  8
SUNPOU
100
AcDbCircle
 10
10829.12750789964
 20
8708.243182432324
 30
0.0
 40
5.625
100
AcDbArc
 50
90.0
 51
270.0
  0
ARC
  5
181B5
330
17CD8
100
AcDbEntity
  8
SUNPOU
100
AcDbCircle
 10
10829.12750789964
 20
8708.243182432324
 30
0.0
 40
5.625
100
AcDbArc
 50
90.0
 51
270.0
  0
ARC
  5
181B6
330
17CD8
100
AcDbEntity
  8
SUNPOU
100
AcDbCircle
 10
10829.12750789964
 20
8708.243182432324
 30
0.0
 40
5.625
100
AcDbArc
 50
270.0
 51
90.0
  0
ARC
  5
181B7
330
17CD8
100
AcDbEntity
  8
SUNPOU
100
AcDbCircle
 10
10829.12750789964
 20
6908.243182432326
 30
0.0
 40
5.625
100
AcDbArc
 50
270.0
 51
90.0
  0
ARC
  5
181B8
330
17CD8
100
AcDbEntity
  8
SUNPOU
100
AcDbCircle
 10
10829.12750789964
 20
6908.243182432326
 30
0.0
 40
5.625
100
AcDbArc
 50
90.0
 51
270.0
  0
ARC
  5
181B9
330
17CD8
100
AcDbEntity
  8
SUNPOU
100
AcDbCircle
 10
10829.12750789964
 20
6908.243182432326
 30
0.0
 40
5.625
100
AcDbArc
 50
90.0
 51
270.0
  0
ARC
  5
181BA
330
17CD8
100
AcDbEntity
  8
SUNPOU
100
AcDbCircle
 10
10829.12750789964
 20
6908.243182432326
 30
0.0
 40
5.625
100
AcDbArc
 50
270.0
 51
90.0
  0
ARC
  5
181BB
330
17CD8
100
AcDbEntity
  8
SUNPOU
100
AcDbCircle
 10
11039.12750789964
 20
6508.243182432327
 30
0.0
 40
5.625
100
AcDbArc
 50
90.0
 51
270.0
  0
ARC
  5
181BC
330
17CD8
100
AcDbEntity
  8
SUNPOU
100
AcDbCircle
 10
11039.12750789964
 20
6508.243182432327
 30
0.0
 40
5.625
100
AcDbArc
 50
270.0
 51
90.0
  0
ARC
  5
181BD
330
17CD8
100
AcDbEntity
  8
SUNPOU
100
AcDbCircle
 10
10829.12750789964
 20
6508.243182432327
 30
0.0
 40
5.625
100
AcDbArc
 50
90.0
 51
270.0
  0
ARC
  5
181BE
330
17CD8
100
AcDbEntity
  8
SUNPOU
100
AcDbCircle
 10
10829.12750789964
 20
6508.243182432327
 30
0.0
 40
5.625
100
AcDbArc
 50
270.0
 51
90.0
  0
TEXT
  5
181BF
330
17CD8
100
AcDbEntity
  8
SUNPOU
100
AcDbText
 10
9074.127507899637
 20
8622.528896718041
 30
0.0
 40
90.0
  1
800
 50
90.0
 41
0.6666666666666666
  7
00
100
AcDbText
  0
LINE
  5
181C0
330
17CD8
100
AcDbEntity
  8
SUNPOU
100
AcDbLine
 10
9119.127507899641
 20
8319.493182432323
 30
0.0
 11
9119.127507899641
 21
8330.743182432323
 31
0.0
  0
LINE
  5
181C1
330
17CD8
100
AcDbEntity
  8
SUNPOU
100
AcDbLine
 10
9119.127507899641
 20
9096.993182432326
 30
0.0
 11
9119.127507899641
 21
9085.743182432326
 31
0.0
  0
TEXT
  5
181C2
330
17CD8
100
AcDbEntity
  8
SUNPOU
100
AcDbText
 10
9733.413222185355
 20
8053.243182432323
 30
0.0
 40
90.0
  1
800
 41
0.6666666666666666
  7
00
100
AcDbText
  0
LINE
  5
181C3
330
17CD8
100
AcDbEntity
  8
SUNPOU
100
AcDbLine
 10
10207.87750789964
 20
8008.243182432327
 30
0.0
 11
10196.62750789964
 21
8008.243182432327
 31
0.0
  0
LINE
  5
181C4
330
17CD8
100
AcDbEntity
  8
SUNPOU
100
AcDbLine
 10
9430.37750789964
 20
8008.243182432327
 30
0.0
 11
9441.627507899641
 21
8008.243182432327
 31
0.0
  0
ARC
  5
181C5
330
17CD8
100
AcDbEntity
  8
SUNPOU
100
AcDbCircle
 10
3664.240902195488
 20
2551.084839419601
 30
0.0
 40
5.625
100
AcDbArc
 50
90.0
 51
270.0
  0
ARC
  5
181C6
330
17CD8
100
AcDbEntity
  8
SUNPOU
100
AcDbCircle
 10
3664.240902195488
 20
2551.084839419601
 30
0.0
 40
5.625
100
AcDbArc
 50
270.0
 51
90.0
  0
ARC
  5
181C7
330
17CD8
100
AcDbEntity
  8
SUNPOU
100
AcDbCircle
 10
3664.240902195489
 20
3456.684839419605
 30
0.0
 40
5.625
100
AcDbArc
 50
270.0
 51
90.0
  0
ARC
  5
181C8
330
17CD8
100
AcDbEntity
  8
SUNPOU
100
AcDbCircle
 10
3664.240902195489
 20
3456.684839419605
 30
0.0
 40
5.625
100
AcDbArc
 50
90.0
 51
270.0
  0
ARC
  5
181C9
330
17CD8
100
AcDbEntity
  8
SUNPOU
100
AcDbCircle
 10
3880.993474569399
 20
2551.084839419601
 30
0.0
 40
5.625
100
AcDbArc
 50
90.0
 51
270.0
  0
ARC
  5
181CA
330
17CD8
100
AcDbEntity
  8
SUNPOU
100
AcDbCircle
 10
3880.993474569399
 20
2551.084839419601
 30
0.0
 40
5.625
100
AcDbArc
 50
270.0
 51
90.0
  0
ARC
  5
181CB
330
17CD8
100
AcDbEntity
  8
SUNPOU
100
AcDbCircle
 10
3880.993474569399
 20
2711.084839419601
 30
0.0
 40
5.625
100
AcDbArc
 50
270.0
 51
90.0
  0
ARC
  5
181CC
330
17CD8
100
AcDbEntity
  8
SUNPOU
100
AcDbCircle
 10
3880.993474569399
 20
2711.084839419601
 30
0.0
 40
5.625
100
AcDbArc
 50
90.0
 51
270.0
  0
ARC
  5
181CD
330
17CD8
100
AcDbEntity
  8
SUNPOU
100
AcDbCircle
 10
7445.498936476579
 20
3456.684839419605
 30
0.0
 40
5.625
100
AcDbArc
 50
270.0
 51
90.0
  0
ARC
  5
181CE
330
17CD8
100
AcDbEntity
  8
SUNPOU
100
AcDbCircle
 10
7445.498936476579
 20
3456.684839419605
 30
0.0
 40
5.625
100
AcDbArc
 50
90.0
 51
270.0
  0
ARC
  5
181CF
330
17CD8
100
AcDbEntity
  8
SUNPOU
100
AcDbCircle
 10
7445.498936476579
 20
2551.084839419598
 30
0.0
 40
5.625
100
AcDbArc
 50
90.0
 51
270.0
  0
ARC
  5
181D0
330
17CD8
100
AcDbEntity
  8
SUNPOU
100
AcDbCircle
 10
7445.498936476579
 20
2551.084839419598
 30
0.0
 40
5.625
100
AcDbArc
 50
270.0
 51
90.0
  0
ARC
  5
181D1
330
17CD8
100
AcDbEntity
  8
SUNPOU
100
AcDbCircle
 10
7660.769855790352
 20
2551.084839419598
 30
0.0
 40
5.625
100
AcDbArc
 50
90.0
 51
270.0
  0
ARC
  5
181D2
330
17CD8
100
AcDbEntity
  8
SUNPOU
100
AcDbCircle
 10
7660.769855790352
 20
2551.084839419598
 30
0.0
 40
5.625
100
AcDbArc
 50
270.0
 51
90.0
  0
ARC
  5
181D3
330
17CD8
100
AcDbEntity
  8
SUNPOU
100
AcDbCircle
 10
7660.769855790352
 20
2711.084839419601
 30
0.0
 40
5.625
100
AcDbArc
 50
270.0
 51
90.0
  0
ARC
  5
181D4
330
17CD8
100
AcDbEntity
  8
SUNPOU
100
AcDbCircle
 10
7660.769855790352
 20
2711.084839419601
 30
0.0
 40
5.625
100
AcDbArc
 50
90.0
 51
270.0
  0
ARC
  5
181D5
330
17CD8
100
AcDbEntity
  8
SUNPOU
100
AcDbCircle
 10
12273.40680314955
 20
3886.33703658456
 30
0.0
 40
5.625
100
AcDbArc
 50
270.0
 51
90.0
  0
ARC
  5
181D6
330
17CD8
100
AcDbEntity
  8
SUNPOU
100
AcDbCircle
 10
12273.40680314955
 20
3886.33703658456
 30
0.0
 40
5.625
100
AcDbArc
 50
90.0
 51
270.0
  0
ARC
  5
181D7
330
17CD8
100
AcDbEntity
  8
SUNPOU
100
AcDbCircle
 10
12273.40680314955
 20
3726.33703658456
 30
0.0
 40
5.625
100
AcDbArc
 50
90.0
 51
270.0
  0
ARC
  5
181D8
330
17CD8
100
AcDbEntity
  8
SUNPOU
100
AcDbCircle
 10
12273.40680314955
 20
3726.33703658456
 30
0.0
 40
5.625
100
AcDbArc
 50
270.0
 51
90.0
  0
ARC
  5
181D9
330
17CD8
100
AcDbEntity
  8
SUNPOU
100
AcDbCircle
 10
12273.40680314955
 20
3618.337036584561
 30
0.0
 40
5.625
100
AcDbArc
 50
270.0
 51
90.0
  0
ARC
  5
181DA
330
17CD8
100
AcDbEntity
  8
SUNPOU
100
AcDbCircle
 10
12273.40680314955
 20
3618.337036584561
 30
0.0
 40
5.625
100
AcDbArc
 50
90.0
 51
270.0
  0
ARC
  5
181DB
330
17CD8
100
AcDbEntity
  8
SUNPOU
100
AcDbCircle
 10
12273.40680314955
 20
3726.33703658456
 30
0.0
 40
5.625
100
AcDbArc
 50
90.0
 51
270.0
  0
ARC
  5
181DC
330
17CD8
100
AcDbEntity
  8
SUNPOU
100
AcDbCircle
 10
12273.40680314955
 20
3726.33703658456
 30
0.0
 40
5.625
100
AcDbArc
 50
270.0
 51
90.0
  0
ARC
  5
181DD
330
17CD8
100
AcDbEntity
  8
SUNPOU
100
AcDbCircle
 10
7660.769855790352
 20
3191.084839419597
 30
0.0
 40
5.625
100
AcDbArc
 50
90.0
 51
270.0
  0
ARC
  5
181DE
330
17CD8
100
AcDbEntity
  8
SUNPOU
100
AcDbCircle
 10
7660.769855790352
 20
3191.084839419597
 30
0.0
 40
5.625
100
AcDbArc
 50
270.0
 51
90.0
  0
ARC
  5
181DF
330
17CD8
100
AcDbEntity
  8
SUNPOU
100
AcDbCircle
 10
7660.769855790352
 20
3319.084839419601
 30
0.0
 40
5.625
100
AcDbArc
 50
270.0
 51
90.0
  0
ARC
  5
181E0
330
17CD8
100
AcDbEntity
  8
SUNPOU
100
AcDbCircle
 10
7660.769855790352
 20
3319.084839419601
 30
0.0
 40
5.625
100
AcDbArc
 50
90.0
 51
270.0
  0
ARC
  5
181E1
330
17CD8
100
AcDbEntity
  8
SUNPOU
100
AcDbCircle
 10
7660.769855790352
 20
3456.684839419605
 30
0.0
 40
5.625
100
AcDbArc
 50
270.0
 51
90.0
  0
ARC
  5
181E2
330
17CD8
100
AcDbEntity
  8
SUNPOU
100
AcDbCircle
 10
7660.769855790352
 20
3456.684839419605
 30
0.0
 40
5.625
100
AcDbArc
 50
90.0
 51
270.0
  0
ARC
  5
181E3
330
17CD8
100
AcDbEntity
  8
SUNPOU
100
AcDbCircle
 10
7660.769855790352
 20
3319.084839419601
 30
0.0
 40
5.625
100
AcDbArc
 50
90.0
 51
270.0
  0
ARC
  5
181E4
330
17CD8
100
AcDbEntity
  8
SUNPOU
100
AcDbCircle
 10
7660.769855790352
 20
3319.084839419601
 30
0.0
 40
5.625
100
AcDbArc
 50
270.0
 51
90.0
  0
ARC
  5
181E5
330
17CD8
100
AcDbEntity
  8
SUNPOU
100
AcDbCircle
 10
7660.769855790352
 20
3191.084839419597
 30
0.0
 40
5.625
100
AcDbArc
 50
270.0
 51
90.0
  0
ARC
  5
181E6
330
17CD8
100
AcDbEntity
  8
SUNPOU
100
AcDbCircle
 10
7660.769855790352
 20
3191.084839419597
 30
0.0
 40
5.625
100
AcDbArc
 50
90.0
 51
270.0
  0
ARC
  5
181E7
330
17CD8
100
AcDbEntity
  8
SUNPOU
100
AcDbCircle
 10
7660.769855790352
 20
2711.084839419601
 30
0.0
 40
5.625
100
AcDbArc
 50
90.0
 51
270.0
  0
ARC
  5
181E8
330
17CD8
100
AcDbEntity
  8
SUNPOU
100
AcDbCircle
 10
7660.769855790352
 20
2711.084839419601
 30
0.0
 40
5.625
100
AcDbArc
 50
270.0
 51
90.0
  0
ARC
  5
181E9
330
17CD8
100
AcDbEntity
  8
SUNPOU
100
AcDbCircle
 10
11861.33837406209
 20
2245.804976716085
 30
0.0
 40
5.625
100
AcDbArc
 50
0.0
 51
180.0
  0
ARC
  5
181EA
330
17CD8
100
AcDbEntity
  8
SUNPOU
100
AcDbCircle
 10
11861.33837406209
 20
2245.804976716085
 30
0.0
 40
5.625
100
AcDbArc
 50
180.0
 51
0.0
  0
ARC
  5
181EB
330
17CD8
100
AcDbEntity
  8
SUNPOU
100
AcDbCircle
 10
11781.33837406209
 20
2245.804976716085
 30
0.0
 40
5.625
100
AcDbArc
 50
180.0
 51
0.0
  0
ARC
  5
181EC
330
17CD8
100
AcDbEntity
  8
SUNPOU
100
AcDbCircle
 10
11781.33837406209
 20
2245.804976716085
 30
0.0
 40
5.625
100
AcDbArc
 50
0.0
 51
180.0
  0
ARC
  5
181ED
330
17CD8
100
AcDbEntity
  8
SUNPOU
100
AcDbCircle
 10
11781.33837406209
 20
2245.804976716085
 30
0.0
 40
5.625
100
AcDbArc
 50
180.0
 51
0.0
  0
ARC
  5
181EE
330
17CD8
100
AcDbEntity
  8
SUNPOU
100
AcDbCircle
 10
11781.33837406209
 20
2245.804976716085
 30
0.0
 40
5.625
100
AcDbArc
 50
0.0
 51
180.0
  0
ARC
  5
181EF
330
17CD8
100
AcDbEntity
  8
SUNPOU
100
AcDbCircle
 10
11301.33837406211
 20
2245.804976716085
 30
0.0
 40
5.625
100
AcDbArc
 50
0.0
 51
180.0
  0
ARC
  5
181F0
330
17CD8
100
AcDbEntity
  8
SUNPOU
100
AcDbCircle
 10
11301.33837406211
 20
2245.804976716085
 30
0.0
 40
5.625
100
AcDbArc
 50
180.0
 51
0.0
  0
ARC
  5
181F1
330
17CD8
100
AcDbEntity
  8
SUNPOU
100
AcDbCircle
 10
11221.33837406209
 20
2245.804976716085
 30
0.0
 40
5.625
100
AcDbArc
 50
180.0
 51
0.0
  0
ARC
  5
181F2
330
17CD8
100
AcDbEntity
  8
SUNPOU
100
AcDbCircle
 10
11221.33837406209
 20
2245.804976716085
 30
0.0
 40
5.625
100
AcDbArc
 50
0.0
 51
180.0
  0
ARC
  5
181F3
330
17CD8
100
AcDbEntity
  8
SUNPOU
100
AcDbCircle
 10
11301.33837406211
 20
2245.804976716085
 30
0.0
 40
5.625
100
AcDbArc
 50
0.0
 51
180.0
  0
ARC
  5
181F4
330
17CD8
100
AcDbEntity
  8
SUNPOU
100
AcDbCircle
 10
11301.33837406211
 20
2245.804976716085
 30
0.0
 40
5.625
100
AcDbArc
 50
180.0
 51
0.0
  0
ARC
  5
181F5
330
17CD8
100
AcDbEntity
  8
SUNPOU
100
AcDbCircle
 10
11861.33837406209
 20
2035.804976716086
 30
0.0
 40
5.625
100
AcDbArc
 50
180.0
 51
0.0
  0
ARC
  5
181F6
330
17CD8
100
AcDbEntity
  8
SUNPOU
100
AcDbCircle
 10
11861.33837406209
 20
2035.804976716086
 30
0.0
 40
5.625
100
AcDbArc
 50
0.0
 51
180.0
  0
ARC
  5
181F7
330
17CD8
100
AcDbEntity
  8
SUNPOU
100
AcDbCircle
 10
11221.33837406209
 20
2035.804976716086
 30
0.0
 40
5.625
100
AcDbArc
 50
0.0
 51
180.0
  0
ARC
  5
181F8
330
17CD8
100
AcDbEntity
  8
SUNPOU
100
AcDbCircle
 10
11221.33837406209
 20
2035.804976716086
 30
0.0
 40
5.625
100
AcDbArc
 50
180.0
 51
0.0
  0
ARC
  5
181F9
330
17CD8
100
AcDbEntity
  8
SUNPOU
100
AcDbCircle
 10
10918.33837406209
 20
2540.144344053149
 30
0.0
 40
5.625
100
AcDbArc
 50
90.0
 51
270.0
  0
ARC
  5
181FA
330
17CD8
100
AcDbEntity
  8
SUNPOU
100
AcDbCircle
 10
10918.33837406209
 20
2540.144344053149
 30
0.0
 40
5.625
100
AcDbArc
 50
270.0
 51
90.0
  0
ARC
  5
181FB
330
17CD8
100
AcDbEntity
  8
SUNPOU
100
AcDbCircle
 10
10918.33837406209
 20
2700.144344053149
 30
0.0
 40
5.625
100
AcDbArc
 50
270.0
 51
90.0
  0
ARC
  5
181FC
330
17CD8
100
AcDbEntity
  8
SUNPOU
100
AcDbCircle
 10
10918.33837406209
 20
2700.144344053149
 30
0.0
 40
5.625
100
AcDbArc
 50
90.0
 51
270.0
  0
ARC
  5
181FD
330
17CD8
100
AcDbEntity
  8
SUNPOU
100
AcDbCircle
 10
10918.33837406209
 20
2860.144344053149
 30
0.0
 40
5.625
100
AcDbArc
 50
270.0
 51
90.0
  0
ARC
  5
181FE
330
17CD8
100
AcDbEntity
  8
SUNPOU
100
AcDbCircle
 10
10918.33837406209
 20
2860.144344053149
 30
0.0
 40
5.625
100
AcDbArc
 50
90.0
 51
270.0
  0
ARC
  5
181FF
330
17CD8
100
AcDbEntity
  8
SUNPOU
100
AcDbCircle
 10
10918.33837406209
 20
2700.144344053149
 30
0.0
 40
5.625
100
AcDbArc
 50
90.0
 51
270.0
  0
ARC
  5
18200
330
17CD8
100
AcDbEntity
  8
SUNPOU
100
AcDbCircle
 10
10918.33837406209
 20
2700.144344053149
 30
0.0
 40
5.625
100
AcDbArc
 50
270.0
 51
90.0
  0
ARC
  5
18201
330
17CD8
100
AcDbEntity
  8
SUNPOU
100
AcDbCircle
 10
10708.33837406208
 20
2860.144344053149
 30
0.0
 40
5.625
100
AcDbArc
 50
270.0
 51
90.0
  0
ARC
  5
18202
330
17CD8
100
AcDbEntity
  8
SUNPOU
100
AcDbCircle
 10
10708.33837406208
 20
2860.144344053149
 30
0.0
 40
5.625
100
AcDbArc
 50
90.0
 51
270.0
  0
ARC
  5
18203
330
17CD8
100
AcDbEntity
  8
SUNPOU
100
AcDbCircle
 10
10708.33837406208
 20
2540.144344053149
 30
0.0
 40
5.625
100
AcDbArc
 50
90.0
 51
270.0
  0
ARC
  5
18204
330
17CD8
100
AcDbEntity
  8
SUNPOU
100
AcDbCircle
 10
10708.33837406208
 20
2540.144344053149
 30
0.0
 40
5.625
100
AcDbArc
 50
270.0
 51
90.0
  0
ARC
  5
18205
330
17CD8
100
AcDbEntity
  8
SUNPOU
100
AcDbCircle
 10
11861.33837406209
 20
3394.170862655057
 30
0.0
 40
5.625
100
AcDbArc
 50
0.0
 51
180.0
  0
ARC
  5
18206
330
17CD8
100
AcDbEntity
  8
SUNPOU
100
AcDbCircle
 10
11861.33837406209
 20
3394.170862655057
 30
0.0
 40
5.625
100
AcDbArc
 50
180.0
 51
0.0
  0
ARC
  5
18207
330
17CD8
100
AcDbEntity
  8
SUNPOU
100
AcDbCircle
 10
11781.33837406209
 20
3394.170862655057
 30
0.0
 40
5.625
100
AcDbArc
 50
180.0
 51
0.0
  0
ARC
  5
18208
330
17CD8
100
AcDbEntity
  8
SUNPOU
100
AcDbCircle
 10
11781.33837406209
 20
3394.170862655057
 30
0.0
 40
5.625
100
AcDbArc
 50
0.0
 51
180.0
  0
ARC
  5
18209
330
17CD8
100
AcDbEntity
  8
SUNPOU
100
AcDbCircle
 10
11781.33837406209
 20
3394.170862655057
 30
0.0
 40
5.625
100
AcDbArc
 50
180.0
 51
0.0
  0
ARC
  5
1820A
330
17CD8
100
AcDbEntity
  8
SUNPOU
100
AcDbCircle
 10
11781.33837406209
 20
3394.170862655057
 30
0.0
 40
5.625
100
AcDbArc
 50
0.0
 51
180.0
  0
ARC
  5
1820B
330
17CD8
100
AcDbEntity
  8
SUNPOU
100
AcDbCircle
 10
11301.33837406211
 20
3394.170862655057
 30
0.0
 40
5.625
100
AcDbArc
 50
0.0
 51
180.0
  0
ARC
  5
1820C
330
17CD8
100
AcDbEntity
  8
SUNPOU
100
AcDbCircle
 10
11301.33837406211
 20
3394.170862655057
 30
0.0
 40
5.625
100
AcDbArc
 50
180.0
 51
0.0
  0
ARC
  5
1820D
330
17CD8
100
AcDbEntity
  8
SUNPOU
100
AcDbCircle
 10
11221.33837406209
 20
3394.170862655057
 30
0.0
 40
5.625
100
AcDbArc
 50
180.0
 51
0.0
  0
ARC
  5
1820E
330
17CD8
100
AcDbEntity
  8
SUNPOU
100
AcDbCircle
 10
11221.33837406209
 20
3394.170862655057
 30
0.0
 40
5.625
100
AcDbArc
 50
0.0
 51
180.0
  0
ARC
  5
1820F
330
17CD8
100
AcDbEntity
  8
SUNPOU
100
AcDbCircle
 10
11301.33837406211
 20
3394.170862655057
 30
0.0
 40
5.625
100
AcDbArc
 50
0.0
 51
180.0
  0
ARC
  5
18210
330
17CD8
100
AcDbEntity
  8
SUNPOU
100
AcDbCircle
 10
11301.33837406211
 20
3394.170862655057
 30
0.0
 40
5.625
100
AcDbArc
 50
180.0
 51
0.0
  0
ARC
  5
18211
330
17CD8
100
AcDbEntity
  8
SUNPOU
100
AcDbCircle
 10
11861.33837406209
 20
3184.170862655058
 30
0.0
 40
5.625
100
AcDbArc
 50
180.0
 51
0.0
  0
ARC
  5
18212
330
17CD8
100
AcDbEntity
  8
SUNPOU
100
AcDbCircle
 10
11861.33837406209
 20
3184.170862655058
 30
0.0
 40
5.625
100
AcDbArc
 50
0.0
 51
180.0
  0
ARC
  5
18213
330
17CD8
100
AcDbEntity
  8
SUNPOU
100
AcDbCircle
 10
11221.33837406209
 20
3184.170862655058
 30
0.0
 40
5.625
100
AcDbArc
 50
0.0
 51
180.0
  0
ARC
  5
18214
330
17CD8
100
AcDbEntity
  8
SUNPOU
100
AcDbCircle
 10
11221.33837406209
 20
3184.170862655058
 30
0.0
 40
5.625
100
AcDbArc
 50
180.0
 51
0.0
  0
ARC
  5
18215
330
17CD8
100
AcDbEntity
  8
SUNPOU
100
AcDbCircle
 10
9220.123251791108
 20
2148.684839419604
 30
0.0
 40
5.625
100
AcDbArc
 50
180.0
 51
0.0
  0
ARC
  5
18216
330
17CD8
100
AcDbEntity
  8
SUNPOU
100
AcDbCircle
 10
9220.123251791108
 20
2148.684839419604
 30
0.0
 40
5.625
100
AcDbArc
 50
0.0
 51
180.0
  0
ARC
  5
18217
330
17CD8
100
AcDbEntity
  8
SUNPOU
100
AcDbCircle
 10
7940.12325179111
 20
2148.684839419604
 30
0.0
 40
5.625
100
AcDbArc
 50
0.0
 51
180.0
  0
ARC
  5
18218
330
17CD8
100
AcDbEntity
  8
SUNPOU
100
AcDbCircle
 10
7940.12325179111
 20
2148.684839419604
 30
0.0
 40
5.625
100
AcDbArc
 50
180.0
 51
0.0
  0
ARC
  5
18219
330
17CD8
100
AcDbEntity
  8
SUNPOU
100
AcDbCircle
 10
9380.123251791109
 20
1938.684839419604
 30
0.0
 40
5.625
100
AcDbArc
 50
180.0
 51
0.0
  0
ARC
  5
1821A
330
17CD8
100
AcDbEntity
  8
SUNPOU
100
AcDbCircle
 10
9380.123251791109
 20
1938.684839419604
 30
0.0
 40
5.625
100
AcDbArc
 50
0.0
 51
180.0
  0
ARC
  5
1821B
330
17CD8
100
AcDbEntity
  8
SUNPOU
100
AcDbCircle
 10
7780.123251791109
 20
1938.684839419604
 30
0.0
 40
5.625
100
AcDbArc
 50
0.0
 51
180.0
  0
ARC
  5
1821C
330
17CD8
100
AcDbEntity
  8
SUNPOU
100
AcDbCircle
 10
7780.123251791109
 20
1938.684839419604
 30
0.0
 40
5.625
100
AcDbArc
 50
180.0
 51
0.0
  0
ARC
  5
1821D
330
17CD8
100
AcDbEntity
  8
SUNPOU
100
AcDbCircle
 10
7240.76985579035
 20
3456.684839419605
 30
0.0
 40
5.625
100
AcDbArc
 50
90.0
 51
270.0
  0
ARC
  5
1821E
330
17CD8
100
AcDbEntity
  8
SUNPOU
100
AcDbCircle
 10
7240.76985579035
 20
3456.684839419605
 30
0.0
 40
5.625
100
AcDbArc
 50
270.0
 51
90.0
  0
ARC
  5
1821F
330
17CD8
100
AcDbEntity
  8
SUNPOU
100
AcDbCircle
 10
7240.76985579035
 20
3376.684839419608
 30
0.0
 40
5.625
100
AcDbArc
 50
270.0
 51
90.0
  0
ARC
  5
18220
330
17CD8
100
AcDbEntity
  8
SUNPOU
100
AcDbCircle
 10
7240.76985579035
 20
3376.684839419608
 30
0.0
 40
5.625
100
AcDbArc
 50
90.0
 51
270.0
  0
ARC
  5
18221
330
17CD8
100
AcDbEntity
  8
SUNPOU
100
AcDbCircle
 10
8260.12325179111
 20
4130.485411556196
 30
0.0
 40
5.625
100
AcDbArc
 50
0.0
 51
180.0
  0
ARC
  5
18222
330
17CD8
100
AcDbEntity
  8
SUNPOU
100
AcDbCircle
 10
8260.12325179111
 20
4130.485411556196
 30
0.0
 40
5.625
100
AcDbArc
 50
180.0
 51
0.0
  0
ARC
  5
18223
330
17CD8
100
AcDbEntity
  8
SUNPOU
100
AcDbCircle
 10
8580.123251791111
 20
4130.485411556196
 30
0.0
 40
5.625
100
AcDbArc
 50
180.0
 51
0.0
  0
ARC
  5
18224
330
17CD8
100
AcDbEntity
  8
SUNPOU
100
AcDbCircle
 10
8580.123251791111
 20
4130.485411556196
 30
0.0
 40
5.625
100
AcDbArc
 50
0.0
 51
180.0
  0
ARC
  5
18225
330
17CD8
100
AcDbEntity
  8
SUNPOU
100
AcDbCircle
 10
5439.797051267464
 20
2148.684839419601
 30
0.0
 40
5.625
100
AcDbArc
 50
180.0
 51
0.0
  0
ARC
  5
18226
330
17CD8
100
AcDbEntity
  8
SUNPOU
100
AcDbCircle
 10
5439.797051267464
 20
2148.684839419601
 30
0.0
 40
5.625
100
AcDbArc
 50
0.0
 51
180.0
  0
ARC
  5
18227
330
17CD8
100
AcDbEntity
  8
SUNPOU
100
AcDbCircle
 10
4159.797051267463
 20
2148.684839419601
 30
0.0
 40
5.625
100
AcDbArc
 50
0.0
 51
180.0
  0
ARC
  5
18228
330
17CD8
100
AcDbEntity
  8
SUNPOU
100
AcDbCircle
 10
4159.797051267463
 20
2148.684839419601
 30
0.0
 40
5.625
100
AcDbArc
 50
180.0
 51
0.0
  0
ARC
  5
18229
330
17CD8
100
AcDbEntity
  8
SUNPOU
100
AcDbCircle
 10
5599.797051267461
 20
1938.6848394196
 30
0.0
 40
5.625
100
AcDbArc
 50
180.0
 51
0.0
  0
ARC
  5
1822A
330
17CD8
100
AcDbEntity
  8
SUNPOU
100
AcDbCircle
 10
5599.797051267461
 20
1938.6848394196
 30
0.0
 40
5.625
100
AcDbArc
 50
0.0
 51
180.0
  0
ARC
  5
1822B
330
17CD8
100
AcDbEntity
  8
SUNPOU
100
AcDbCircle
 10
3999.797051267461
 20
1938.6848394196
 30
0.0
 40
5.625
100
AcDbArc
 50
0.0
 51
180.0
  0
ARC
  5
1822C
330
17CD8
100
AcDbEntity
  8
SUNPOU
100
AcDbCircle
 10
3999.797051267461
 20
1938.6848394196
 30
0.0
 40
5.625
100
AcDbArc
 50
180.0
 51
0.0
  0
ARC
  5
1822D
330
17CD8
100
AcDbEntity
  8
SUNPOU
100
AcDbCircle
 10
3460.443655266704
 20
3456.684839419605
 30
0.0
 40
5.625
100
AcDbArc
 50
90.0
 51
270.0
  0
ARC
  5
1822E
330
17CD8
100
AcDbEntity
  8
SUNPOU
100
AcDbCircle
 10
3460.443655266704
 20
3456.684839419605
 30
0.0
 40
5.625
100
AcDbArc
 50
270.0
 51
90.0
  0
ARC
  5
1822F
330
17CD8
100
AcDbEntity
  8
SUNPOU
100
AcDbCircle
 10
3460.443655266704
 20
3376.684839419604
 30
0.0
 40
5.625
100
AcDbArc
 50
270.0
 51
90.0
  0
ARC
  5
18230
330
17CD8
100
AcDbEntity
  8
SUNPOU
100
AcDbCircle
 10
3460.443655266704
 20
3376.684839419604
 30
0.0
 40
5.625
100
AcDbArc
 50
90.0
 51
270.0
  0
ARC
  5
18231
330
17CD8
100
AcDbEntity
  8
SUNPOU
100
AcDbCircle
 10
3880.443655266705
 20
3191.084839419597
 30
0.0
 40
5.625
100
AcDbArc
 50
90.0
 51
270.0
  0
ARC
  5
18232
330
17CD8
100
AcDbEntity
  8
SUNPOU
100
AcDbCircle
 10
3880.443655266705
 20
3191.084839419597
 30
0.0
 40
5.625
100
AcDbArc
 50
270.0
 51
90.0
  0
ARC
  5
18233
330
17CD8
100
AcDbEntity
  8
SUNPOU
100
AcDbCircle
 10
3880.443655266705
 20
3319.084839419601
 30
0.0
 40
5.625
100
AcDbArc
 50
270.0
 51
90.0
  0
ARC
  5
18234
330
17CD8
100
AcDbEntity
  8
SUNPOU
100
AcDbCircle
 10
3880.443655266705
 20
3319.084839419601
 30
0.0
 40
5.625
100
AcDbArc
 50
90.0
 51
270.0
  0
ARC
  5
18235
330
17CD8
100
AcDbEntity
  8
SUNPOU
100
AcDbCircle
 10
3880.443655266704
 20
3456.684839419605
 30
0.0
 40
5.625
100
AcDbArc
 50
270.0
 51
90.0
  0
ARC
  5
18236
330
17CD8
100
AcDbEntity
  8
SUNPOU
100
AcDbCircle
 10
3880.443655266704
 20
3456.684839419605
 30
0.0
 40
5.625
100
AcDbArc
 50
90.0
 51
270.0
  0
ARC
  5
18237
330
17CD8
100
AcDbEntity
  8
SUNPOU
100
AcDbCircle
 10
3880.443655266704
 20
3319.084839419601
 30
0.0
 40
5.625
100
AcDbArc
 50
90.0
 51
270.0
  0
ARC
  5
18238
330
17CD8
100
AcDbEntity
  8
SUNPOU
100
AcDbCircle
 10
3880.443655266704
 20
3319.084839419601
 30
0.0
 40
5.625
100
AcDbArc
 50
270.0
 51
90.0
  0
ARC
  5
18239
330
17CD8
100
AcDbEntity
  8
SUNPOU
100
AcDbCircle
 10
3880.443655266704
 20
3191.084839419597
 30
0.0
 40
5.625
100
AcDbArc
 50
270.0
 51
90.0
  0
ARC
  5
1823A
330
17CD8
100
AcDbEntity
  8
SUNPOU
100
AcDbCircle
 10
3880.443655266704
 20
3191.084839419597
 30
0.0
 40
5.625
100
AcDbArc
 50
90.0
 51
270.0
  0
ARC
  5
1823B
330
17CD8
100
AcDbEntity
  8
SUNPOU
100
AcDbCircle
 10
3880.443655266704
 20
2711.084839419601
 30
0.0
 40
5.625
100
AcDbArc
 50
90.0
 51
270.0
  0
ARC
  5
1823C
330
17CD8
100
AcDbEntity
  8
SUNPOU
100
AcDbCircle
 10
3880.443655266704
 20
2711.084839419601
 30
0.0
 40
5.625
100
AcDbArc
 50
270.0
 51
90.0
  0
ARC
  5
1823D
330
17CD8
100
AcDbEntity
  8
SUNPOU
100
AcDbCircle
 10
4159.797051267463
 20
4130.485411556192
 30
0.0
 40
5.625
100
AcDbArc
 50
0.0
 51
180.0
  0
ARC
  5
1823E
330
17CD8
100
AcDbEntity
  8
SUNPOU
100
AcDbCircle
 10
4159.797051267463
 20
4130.485411556192
 30
0.0
 40
5.625
100
AcDbArc
 50
180.0
 51
0.0
  0
ARC
  5
1823F
330
17CD8
100
AcDbEntity
  8
SUNPOU
100
AcDbCircle
 10
4799.797051267463
 20
4130.485411556192
 30
0.0
 40
5.625
100
AcDbArc
 50
180.0
 51
0.0
  0
ARC
  5
18240
330
17CD8
100
AcDbEntity
  8
SUNPOU
100
AcDbCircle
 10
4799.797051267463
 20
4130.485411556192
 30
0.0
 40
5.625
100
AcDbArc
 50
0.0
 51
180.0
  0
ARC
  5
18241
330
17CD8
100
AcDbEntity
  8
SUNPOU
100
AcDbCircle
 10
10619.12750789964
 20
8708.243182432324
 30
0.0
 40
5.625
100
AcDbArc
 50
90.0
 51
270.0
  0
ARC
  5
18242
330
17CD8
100
AcDbEntity
  8
SUNPOU
100
AcDbCircle
 10
10619.12750789964
 20
8708.243182432324
 30
0.0
 40
5.625
100
AcDbArc
 50
270.0
 51
90.0
  0
ARC
  5
18243
330
17CD8
100
AcDbEntity
  8
SUNPOU
100
AcDbCircle
 10
10619.12750789964
 20
8908.243182432324
 30
0.0
 40
5.625
100
AcDbArc
 50
270.0
 51
90.0
  0
ARC
  5
18244
330
17CD8
100
AcDbEntity
  8
SUNPOU
100
AcDbCircle
 10
10619.12750789964
 20
8908.243182432324
 30
0.0
 40
5.625
100
AcDbArc
 50
90.0
 51
270.0
  0
ARC
  5
18245
330
17CD8
100
AcDbEntity
  8
SUNPOU
100
AcDbCircle
 10
10619.12750789964
 20
9108.243182432325
 30
0.0
 40
5.625
100
AcDbArc
 50
270.0
 51
90.0
  0
ARC
  5
18246
330
17CD8
100
AcDbEntity
  8
SUNPOU
100
AcDbCircle
 10
10619.12750789964
 20
9108.243182432325
 30
0.0
 40
5.625
100
AcDbArc
 50
90.0
 51
270.0
  0
ARC
  5
18247
330
17CD8
100
AcDbEntity
  8
SUNPOU
100
AcDbCircle
 10
10619.12750789964
 20
8908.243182432324
 30
0.0
 40
5.625
100
AcDbArc
 50
90.0
 51
270.0
  0
ARC
  5
18248
330
17CD8
100
AcDbEntity
  8
SUNPOU
100
AcDbCircle
 10
10619.12750789964
 20
8908.243182432324
 30
0.0
 40
5.625
100
AcDbArc
 50
270.0
 51
90.0
  0
ARC
  5
18249
330
17CD8
100
AcDbEntity
  8
SUNPOU
100
AcDbCircle
 10
10219.12750789964
 20
9618.243182432324
 30
0.0
 40
5.625
100
AcDbArc
 50
180.0
 51
0.0
  0
ARC
  5
1824A
330
17CD8
100
AcDbEntity
  8
SUNPOU
100
AcDbCircle
 10
10219.12750789964
 20
9618.243182432324
 30
0.0
 40
5.625
100
AcDbArc
 50
0.0
 51
180.0
  0
ARC
  5
1824B
330
17CD8
100
AcDbEntity
  8
SUNPOU
100
AcDbCircle
 10
6619.127507899642
 20
9618.243182432324
 30
0.0
 40
5.625
100
AcDbArc
 50
0.0
 51
180.0
  0
ARC
  5
1824C
330
17CD8
100
AcDbEntity
  8
SUNPOU
100
AcDbCircle
 10
6619.127507899642
 20
9618.243182432324
 30
0.0
 40
5.625
100
AcDbArc
 50
180.0
 51
0.0
  0
ARC
  5
1824D
330
17CD8
100
AcDbEntity
  8
SUNPOU
100
AcDbCircle
 10
7019.127507899643
 20
9408.243182432325
 30
0.0
 40
5.625
100
AcDbArc
 50
0.0
 51
180.0
  0
ARC
  5
1824E
330
17CD8
100
AcDbEntity
  8
SUNPOU
100
AcDbCircle
 10
7019.127507899643
 20
9408.243182432325
 30
0.0
 40
5.625
100
AcDbArc
 50
180.0
 51
0.0
  0
ARC
  5
1824F
330
17CD8
100
AcDbEntity
  8
SUNPOU
100
AcDbCircle
 10
9819.127507899644
 20
9408.243182432325
 30
0.0
 40
5.625
100
AcDbArc
 50
180.0
 51
0.0
  0
ARC
  5
18250
330
17CD8
100
AcDbEntity
  8
SUNPOU
100
AcDbCircle
 10
9819.127507899644
 20
9408.243182432325
 30
0.0
 40
5.625
100
AcDbArc
 50
0.0
 51
180.0
  0
ARC
  5
18251
330
17CD8
100
AcDbEntity
  8
SUNPOU
100
AcDbCircle
 10
6619.127507899642
 20
9408.243182432325
 30
0.0
 40
5.625
100
AcDbArc
 50
0.0
 51
180.0
  0
ARC
  5
18252
330
17CD8
100
AcDbEntity
  8
SUNPOU
100
AcDbCircle
 10
6619.127507899642
 20
9408.243182432325
 30
0.0
 40
5.625
100
AcDbArc
 50
180.0
 51
0.0
  0
ARC
  5
18253
330
17CD8
100
AcDbEntity
  8
SUNPOU
100
AcDbCircle
 10
7019.127507899643
 20
9408.243182432325
 30
0.0
 40
5.625
100
AcDbArc
 50
180.0
 51
0.0
  0
ARC
  5
18254
330
17CD8
100
AcDbEntity
  8
SUNPOU
100
AcDbCircle
 10
7019.127507899643
 20
9408.243182432325
 30
0.0
 40
5.625
100
AcDbArc
 50
0.0
 51
180.0
  0
ARC
  5
18255
330
17CD8
100
AcDbEntity
  8
SUNPOU
100
AcDbCircle
 10
10219.12750789964
 20
9408.243182432325
 30
0.0
 40
5.625
100
AcDbArc
 50
180.0
 51
0.0
  0
ARC
  5
18256
330
17CD8
100
AcDbEntity
  8
SUNPOU
100
AcDbCircle
 10
10219.12750789964
 20
9408.243182432325
 30
0.0
 40
5.625
100
AcDbArc
 50
0.0
 51
180.0
  0
ARC
  5
18257
330
17CD8
100
AcDbEntity
  8
SUNPOU
100
AcDbCircle
 10
9819.127507899644
 20
9408.243182432325
 30
0.0
 40
5.625
100
AcDbArc
 50
0.0
 51
180.0
  0
ARC
  5
18258
330
17CD8
100
AcDbEntity
  8
SUNPOU
100
AcDbCircle
 10
9819.127507899644
 20
9408.243182432325
 30
0.0
 40
5.625
100
AcDbArc
 50
180.0
 51
0.0
  0
ARC
  5
18259
330
17CD8
100
AcDbEntity
  8
SUNPOU
100
AcDbCircle
 10
9119.127507899641
 20
8308.243182432326
 30
0.0
 40
5.625
100
AcDbArc
 50
90.0
 51
270.0
  0
ARC
  5
1825A
330
17CD8
100
AcDbEntity
  8
SUNPOU
100
AcDbCircle
 10
9119.127507899641
 20
8308.243182432326
 30
0.0
 40
5.625
100
AcDbArc
 50
270.0
 51
90.0
  0
ARC
  5
1825B
330
17CD8
100
AcDbEntity
  8
SUNPOU
100
AcDbCircle
 10
9119.127507899641
 20
9108.243182432325
 30
0.0
 40
5.625
100
AcDbArc
 50
270.0
 51
90.0
  0
ARC
  5
1825C
330
17CD8
100
AcDbEntity
  8
SUNPOU
100
AcDbCircle
 10
9119.127507899641
 20
9108.243182432325
 30
0.0
 40
5.625
100
AcDbArc
 50
90.0
 51
270.0
  0
ARC
  5
1825D
330
17CD8
100
AcDbEntity
  8
SUNPOU
100
AcDbCircle
 10
10219.12750789964
 20
8008.243182432327
 30
0.0
 40
5.625
100
AcDbArc
 50
180.0
 51
0.0
  0
ARC
  5
1825E
330
17CD8
100
AcDbEntity
  8
SUNPOU
100
AcDbCircle
 10
10219.12750789964
 20
8008.243182432327
 30
0.0
 40
5.625
100
AcDbArc
 50
0.0
 51
180.0
  0
ARC
  5
1825F
330
17CD8
100
AcDbEntity
  8
SUNPOU
100
AcDbCircle
 10
9419.127507899641
 20
8008.243182432327
 30
0.0
 40
5.625
100
AcDbArc
 50
0.0
 51
180.0
  0
ARC
  5
18260
330
17CD8
100
AcDbEntity
  8
SUNPOU
100
AcDbCircle
 10
9419.127507899641
 20
8008.243182432327
 30
0.0
 40
5.625
100
AcDbArc
 50
180.0
 51
0.0
  0
ARC
  5
18261
330
17CD8
100
AcDbEntity
  8
HIKIDASHI
100
AcDbCircle
 10
7368.753186178046
 20
1889.069567942468
 30
0.0
 40
74.66417910452284
100
AcDbArc
 50
164.8596129850915
 51
237.504500294165
  0
ARC
  5
18262
330
17CD8
100
AcDbEntity
  8
HIKIDASHI
100
AcDbCircle
 10
7305.32939213174
 20
1906.230591426951
 30
0.0
 40
8.959701492542745
100
AcDbArc
 50
15.14038701503429
 51
164.8596129849655
  0
LINE
  5
18263
330
17CD8
100
AcDbEntity
  8
HIKIDASHI
100
AcDbLine
 10
11865.19119696312
 20
2619.990092191335
 30
0.0
 11
12256.64239875644
 21
2245.804976716085
 31
0.0
1001
ACAD
1000
DSTYLE
1002
{
1070
   147
1040
1.0
1070
    77
1070
     0
1002
}
  0
LINE
  5
18264
330
17CD8
100
AcDbEntity
  8
HIKIDASHI
100
AcDbLine
 10
11874.40432936103
 20
2629.628347697202
 30
0.0
 11
11807.36166392793
 21
2675.268886578793
 31
0.0
  0
LINE
  5
18265
330
17CD8
100
AcDbEntity
  8
HIKIDASHI
100
AcDbLine
 10
11807.36166392793
 20
2675.268886578793
 30
0.0
 11
11855.97806456522
 21
2610.351836685468
 31
0.0
  0
SOLID
  5
18266
330
17CD8
100
AcDbEntity
  8
HIKIDASHI
100
AcDbTrace
 10
11874.40432936103
 20
2629.628347697202
 30
0.0
 11
11855.97806456522
 21
2610.351836685468
 31
0.0
 12
11807.36166392793
 22
2675.268886578793
 32
0.0
 13
11807.36166392793
 23
2675.268886578793
 33
0.0
  0
LINE
  5
18267
330
17CD8
100
AcDbEntity
  8
HIKIDASHI
100
AcDbLine
 10
11855.97806456522
 20
2610.351836685468
 30
0.0
 11
11874.40432936103
 21
2629.628347697202
 31
0.0
  0
LINE
  5
18268
330
17CD8
100
AcDbEntity
  8
HIKIDASHI
100
AcDbLine
 10
11918.49428872015
 20
2916.119351150967
 30
0.0
 11
12073.23363223807
 21
3067.661600164834
 31
0.0
1001
ACAD
1000
DSTYLE
1002
{
1070
   147
1040
1.0
1070
    77
1070
     0
1002
}
  0
LINE
  5
18269
330
17CD8
100
AcDbEntity
  8
HIKIDASHI
100
AcDbLine
 10
11909.16512087052
 20
2925.645336927309
 30
0.0
 11
11861.33837406209
 21
2860.144344053149
 31
0.0
  0
LINE
  5
1826A
330
17CD8
100
AcDbEntity
  8
HIKIDASHI
100
AcDbLine
 10
11861.33837406209
 20
2860.144344053149
 30
0.0
 11
11927.82345656978
 21
2906.593365374622
 31
0.0
  0
SOLID
  5
1826B
330
17CD8
100
AcDbEntity
  8
HIKIDASHI
100
AcDbTrace
 10
11909.16512087052
 20
2925.645336927309
 30
0.0
 11
11927.82345656978
 21
2906.593365374622
 31
0.0
 12
11861.33837406209
 22
2860.144344053149
 32
0.0
 13
11861.33837406209
 23
2860.144344053149
 33
0.0
  0
LINE
  5
1826C
330
17CD8
100
AcDbEntity
  8
HIKIDASHI
100
AcDbLine
 10
11927.82345656978
 20
2906.593365374622
 30
0.0
 11
11909.16512087052
 21
2925.645336927309
 31
0.0
  0
LINE
  5
1826D
330
17CD8
100
AcDbEntity
  8
HIKIDASHI
100
AcDbLine
 10
8365.443052330508
 20
2790.288985226448
 30
0.0
 11
7568.025406890003
 21
1938.684839419604
 31
0.0
1001
ACAD
1000
DSTYLE
1002
{
1070
   147
1040
1.0
1070
    77
1070
     0
1002
}
  0
LINE
  5
1826E
330
17CD8
100
AcDbEntity
  8
HIKIDASHI
100
AcDbLine
 10
8375.175694696034
 20
2781.17561864968
 30
0.0
 11
8420.12325179111
 21
2848.684839419607
 31
0.0
  0
LINE
  5
1826F
330
17CD8
100
AcDbEntity
  8
HIKIDASHI
100
AcDbLine
 10
8420.12325179111
 20
2848.684839419607
 30
0.0
 11
8355.710409964979
 21
2799.402351803216
 31
0.0
  0
SOLID
  5
18270
330
17CD8
100
AcDbEntity
  8
HIKIDASHI
100
AcDbTrace
 10
8375.175694696034
 20
2781.17561864968
 30
0.0
 11
8355.710409964979
 21
2799.402351803216
 31
0.0
 12
8420.12325179111
 22
2848.684839419607
 32
0.0
 13
8420.12325179111
 23
2848.684839419607
 33
0.0
  0
LINE
  5
18271
330
17CD8
100
AcDbEntity
  8
HIKIDASHI
100
AcDbLine
 10
8355.710409964979
 20
2799.402351803216
 30
0.0
 11
8375.175694696034
 21
2781.17561864968
 31
0.0
  0
ARC
  5
18272
330
17CD8
100
AcDbEntity
  8
HIKIDASHI
100
AcDbCircle
 10
7243.085124621173
 20
1890.249695302057
 30
0.0
 40
74.66417910452232
100
AcDbArc
 50
301.7712278330705
 51
15.14038701490951
  0
LINE
  5
18273
330
17CD8
100
AcDbEntity
  8
HIKIDASHI
100
AcDbLine
 10
5106.084662666018
 20
3525.966871722361
 30
0.0
 11
5333.860047839355
 21
3920.485411556192
 31
0.0
1001
ACAD
1000
DSTYLE
1002
{
1070
   147
1040
1.0
1070
    77
1070
     0
1002
}
  0
LINE
  5
18274
330
17CD8
100
AcDbEntity
  8
HIKIDASHI
100
AcDbLine
 10
5094.537657282226
 20
3532.633538389028
 30
0.0
 11
5066.084662666021
 21
3456.684839419605
 31
0.0
  0
LINE
  5
18275
330
17CD8
100
AcDbEntity
  8
HIKIDASHI
100
AcDbLine
 10
5066.084662666021
 20
3456.684839419605
 30
0.0
 11
5117.631668049813
 21
3519.300205055695
 31
0.0
  0
SOLID
  5
18276
330
17CD8
100
AcDbEntity
  8
HIKIDASHI
100
AcDbTrace
 10
5094.537657282226
 20
3532.633538389028
 30
0.0
 11
5117.631668049813
 21
3519.300205055695
 31
0.0
 12
5066.084662666021
 22
3456.684839419605
 32
0.0
 13
5066.084662666021
 23
3456.684839419605
 33
0.0
  0
LINE
  5
18277
330
17CD8
100
AcDbEntity
  8
HIKIDASHI
100
AcDbLine
 10
5117.631668049813
 20
3519.300205055695
 30
0.0
 11
5094.537657282226
 21
3532.633538389028
 31
0.0
  0
LINE
  5
18278
330
17CD8
100
AcDbEntity
  8
HIKIDASHI
100
AcDbLine
 10
5648.43515171908
 20
2487.56842276644
 30
0.0
 11
5816.338096802661
 21
2268.304238552882
 31
0.0
1001
ACAD
1000
DSTYLE
1002
{
1070
   147
1040
1.0
1070
    77
1070
     0
1002
}
  0
LINE
  5
18279
330
17CD8
100
AcDbEntity
  8
HIKIDASHI
100
AcDbLine
 10
5659.021221161275
 20
2495.674772841709
 30
0.0
 11
5599.797051267461
 21
2551.084839419601
 31
0.0
  0
LINE
  5
1827A
330
17CD8
100
AcDbEntity
  8
HIKIDASHI
100
AcDbLine
 10
5599.797051267461
 20
2551.084839419601
 30
0.0
 11
5637.849082276888
 21
2479.462072691169
 31
0.0
  0
SOLID
  5
1827B
330
17CD8
100
AcDbEntity
  8
HIKIDASHI
100
AcDbTrace
 10
5659.021221161275
 20
2495.674772841709
 30
0.0
 11
5637.849082276888
 21
2479.462072691169
 31
0.0
 12
5599.797051267461
 22
2551.084839419601
 32
0.0
 13
5599.797051267461
 23
2551.084839419601
 33
0.0
  0
LINE
  5
1827C
330
17CD8
100
AcDbEntity
  8
HIKIDASHI
100
AcDbLine
 10
5637.849082276888
 20
2479.462072691169
 30
0.0
 11
5659.021221161275
 21
2495.674772841709
 31
0.0
  0
LINE
  5
1827D
330
17CD8
100
AcDbEntity
  8
HIKIDASHI
100
AcDbLine
 10
5517.958310807199
 20
3204.439659000036
 30
0.0
 11
5674.871662611158
 21
2904.11470702088
 31
0.0
1001
ACAD
1000
DSTYLE
1002
{
1070
    41
1040
2.0
1070
   173
1070
     0
1070
   341
1005
125B0
1002
}
  0
ARC
  5
1827E
330
17CD8
100
AcDbEntity
  8
HIKIDASHI
100
AcDbCircle
 10
5472.271108781362
 20
3259.491130329859
 30
0.0
 40
18.0
100
AcDbArc
 50
241.1434129563095
 51
354.0287934324676
  0
ARC
  5
1827F
330
17CD8
100
AcDbEntity
  8
HIKIDASHI
100
AcDbCircle
 10
5508.075783564776
 20
3255.746098466976
 30
0.0
 40
18.0
100
AcDbArc
 50
61.1434129563095
 51
174.0287934324675
  0
LINE
  5
18280
330
17CD8
100
AcDbEntity
  8
HIKIDASHI
100
AcDbLine
 10
5490.173446173068
 20
3257.618614398416
 30
0.0
 11
5517.958310807205
 21
3204.439659000024
 31
0.0
  0
LINE
  5
18281
330
17CD8
100
AcDbEntity
  8
HATCH
100
AcDbLine
 10
9597.765052686932
 20
3191.084839418955
 30
0.0
 11
9671.665887143205
 21
3319.084839418948
 31
0.0
  0
LINE
  5
18282
330
17CD8
100
AcDbEntity
  8
HATCH
100
AcDbLine
 10
9633.265887143204
 20
3319.084839418947
 30
0.0
 11
9652.465887143202
 21
3285.829463913629
 31
0.0
  0
LINE
  5
18283
330
17CD8
100
AcDbEntity
  8
HATCH
100
AcDbLine
 10
9309.765052686932
 20
3191.084839418955
 30
0.0
 11
9383.6658871432
 21
3319.084839418948
 31
0.0
  0
LINE
  5
18284
330
17CD8
100
AcDbEntity
  8
HATCH
100
AcDbLine
 10
9345.265887143204
 20
3319.084839418947
 30
0.0
 11
9364.465887143202
 21
3285.829463913629
 31
0.0
  0
LINE
  5
18285
330
17CD8
100
AcDbEntity
  8
HATCH
100
AcDbLine
 10
9453.765052686932
 20
3191.084839418955
 30
0.0
 11
9527.665887143198
 21
3319.084839418948
 31
0.0
  0
LINE
  5
18286
330
17CD8
100
AcDbEntity
  8
HATCH
100
AcDbLine
 10
9489.265887143199
 20
3319.084839418947
 30
0.0
 11
9508.465887143202
 21
3285.829463913629
 31
0.0
  0
LINE
  5
18287
330
17CD8
100
AcDbEntity
  8
HATCH
100
AcDbLine
 10
9741.765052686934
 20
3191.084839418955
 30
0.0
 11
9815.665887143204
 21
3319.084839418948
 31
0.0
  0
LINE
  5
18288
330
17CD8
100
AcDbEntity
  8
HATCH
100
AcDbLine
 10
9777.265887143206
 20
3319.084839418947
 30
0.0
 11
9796.465887143202
 21
3285.829463913629
 31
0.0
  0
LINE
  5
18289
330
17CD8
100
AcDbEntity
  8
HATCH
100
AcDbLine
 10
9597.765052688851
 20
3191.084839419572
 30
0.0
 11
9671.66588714514
 21
3319.084839419601
 31
0.0
  0
LINE
  5
1828A
330
17CD8
100
AcDbEntity
  8
HATCH
100
AcDbLine
 10
9633.265887145132
 20
3319.084839419601
 30
0.0
 11
9652.465887145137
 21
3285.829463914274
 31
0.0
  0
LINE
  5
1828B
330
17CD8
100
AcDbEntity
  8
HATCH
100
AcDbLine
 10
9741.765052688851
 20
3191.084839419572
 30
0.0
 11
9815.66588714514
 21
3319.084839419601
 31
0.0
  0
LINE
  5
1828C
330
17CD8
100
AcDbEntity
  8
HATCH
100
AcDbLine
 10
9777.265887145132
 20
3319.084839419601
 30
0.0
 11
9796.465887145137
 21
3285.829463914274
 31
0.0
  0
LINE
  5
1828D
330
17CD8
100
AcDbEntity
  8
HATCH
100
AcDbLine
 10
9453.765052688849
 20
3191.084839419572
 30
0.0
 11
9527.66588714514
 21
3319.084839419601
 31
0.0
  0
LINE
  5
1828E
330
17CD8
100
AcDbEntity
  8
HATCH
100
AcDbLine
 10
9489.265887145132
 20
3319.084839419601
 30
0.0
 11
9508.465887145135
 21
3285.829463914274
 31
0.0
  0
LINE
  5
1828F
330
17CD8
100
AcDbEntity
  8
HATCH
100
AcDbLine
 10
9309.765052688851
 20
3191.084839419572
 30
0.0
 11
9383.66588714514
 21
3319.084839419601
 31
0.0
  0
LINE
  5
18290
330
17CD8
100
AcDbEntity
  8
HATCH
100
AcDbLine
 10
9345.265887145131
 20
3319.084839419601
 30
0.0
 11
9364.465887145135
 21
3285.829463914274
 31
0.0
  0
LINE
  5
18291
330
17CD8
100
AcDbEntity
  8
KISO
100
AcDbLine
 10
5599.797051267461
 20
2711.084839419601
 30
0.0
 11
3999.797051267461
 21
2711.084839419601
 31
0.0
  0
LINE
  5
18292
330
17CD8
100
AcDbEntity
  8
KISO
100
AcDbLine
 10
3999.797051267461
 20
2711.084839419601
 30
0.0
 11
3999.797051267461
 21
2551.084839419601
 31
0.0
  0
LINE
  5
18293
330
17CD8
100
AcDbEntity
  8
KISO
100
AcDbLine
 10
3999.797051267461
 20
2551.084839419601
 30
0.0
 11
5599.797051267461
 21
2551.084839419601
 31
0.0
  0
LINE
  5
18294
330
17CD8
100
AcDbEntity
  8
KISO
100
AcDbLine
 10
5599.797051267461
 20
2551.084839419601
 30
0.0
 11
5599.797051267461
 21
2711.084839419601
 31
0.0
  0
LINE
  5
18295
330
17CD8
100
AcDbEntity
  8
KISO
100
AcDbLine
 10
7780.123251791109
 20
2711.084839419607
 30
0.0
 11
9380.123251791109
 21
2711.084839419607
 31
0.0
  0
LINE
  5
18296
330
17CD8
100
AcDbEntity
  8
KISO
100
AcDbLine
 10
9380.123251791109
 20
2711.084839419607
 30
0.0
 11
9380.123251791109
 21
2551.084839419601
 31
0.0
  0
LINE
  5
18297
330
17CD8
100
AcDbEntity
  8
KISO
100
AcDbLine
 10
9380.123251791109
 20
2551.084839419601
 30
0.0
 11
7780.123251791109
 21
2551.084839419601
 31
0.0
  0
LINE
  5
18298
330
17CD8
100
AcDbEntity
  8
KISO
100
AcDbLine
 10
7780.123251791109
 20
2551.084839419601
 30
0.0
 11
7780.123251791109
 21
2711.084839419607
 31
0.0
  0
LINE
  5
18299
330
17CD8
100
AcDbEntity
  8
U1
100
AcDbLine
 10
11391.33837406208
 20
2550.144344053149
 30
0.0
 11
11691.33837406209
 21
2550.144344053149
 31
0.0
  0
LINE
  5
1829A
330
17CD8
100
AcDbEntity
  8
U1
100
AcDbLine
 10
11691.33837406209
 20
2550.144344053149
 30
0.0
 11
11691.33837406209
 21
2850.144344053148
 31
0.0
  0
LINE
  5
1829B
330
17CD8
100
AcDbEntity
  8
U1
100
AcDbLine
 10
11691.33837406209
 20
2850.144344053148
 30
0.0
 11
11391.33837406208
 21
2850.144344053148
 31
0.0
  0
LINE
  5
1829C
330
17CD8
100
AcDbEntity
  8
U1
100
AcDbLine
 10
11391.33837406208
 20
2850.144344053148
 30
0.0
 11
11391.33837406208
 21
2550.144344053149
 31
0.0
  0
LINE
  5
1829D
330
17CD8
100
AcDbEntity
  8
U1
100
AcDbLine
 10
11221.33837406209
 20
2540.144344053149
 30
0.0
 11
11861.33837406209
 21
2540.144344053149
 31
0.0
  0
LINE
  5
1829E
330
17CD8
100
AcDbEntity
  8
U1
100
AcDbLine
 10
11861.33837406209
 20
2540.144344053149
 30
0.0
 11
11861.33837406209
 21
2860.144344053149
 31
0.0
  0
LINE
  5
1829F
330
17CD8
100
AcDbEntity
  8
U1
100
AcDbLine
 10
11861.33837406209
 20
2860.144344053149
 30
0.0
 11
11221.33837406209
 21
2860.144344053149
 31
0.0
  0
LINE
  5
182A0
330
17CD8
100
AcDbEntity
  8
U1
100
AcDbLine
 10
11221.33837406209
 20
2860.144344053149
 30
0.0
 11
11221.33837406209
 21
2540.144344053149
 31
0.0
  0
LINE
  5
182A1
330
17CD8
100
AcDbEntity
  8
U1
100
AcDbLine
 10
11221.33837406209
 20
3618.337036584561
 30
0.0
 11
11861.33837406209
 21
3618.337036584561
 31
0.0
  0
LINE
  5
182A2
330
17CD8
100
AcDbEntity
  8
U1
100
AcDbLine
 10
11861.33837406209
 20
3618.337036584561
 30
0.0
 11
11861.33837406209
 21
3642.337036584561
 31
0.0
  0
LINE
  5
182A3
330
17CD8
100
AcDbEntity
  8
U1
100
AcDbLine
 10
11861.33837406209
 20
3642.337036584561
 30
0.0
 11
11221.33837406209
 21
3642.337036584561
 31
0.0
  0
LINE
  5
182A4
330
17CD8
100
AcDbEntity
  8
U1
100
AcDbLine
 10
11221.33837406209
 20
3642.337036584561
 30
0.0
 11
11221.33837406209
 21
3618.337036584561
 31
0.0
  0
LINE
  5
182A5
330
17CD8
100
AcDbEntity
  8
HATCH
100
AcDbLine
 10
9636.165052686925
 20
3191.084839418956
 30
0.0
 11
9616.965052686927
 21
3224.340214924272
 31
0.0
  0
LINE
  5
182A6
330
17CD8
100
AcDbEntity
  8
HATCH
100
AcDbLine
 10
9348.16505268693
 20
3191.084839418956
 30
0.0
 11
9328.965052686926
 21
3224.340214924272
 31
0.0
  0
LINE
  5
182A7
330
17CD8
100
AcDbEntity
  8
HATCH
100
AcDbLine
 10
9492.165052686925
 20
3191.084839418956
 30
0.0
 11
9472.965052686927
 21
3224.340214924272
 31
0.0
  0
LINE
  5
182A8
330
17CD8
100
AcDbEntity
  8
HATCH
100
AcDbLine
 10
9780.165052686927
 20
3191.084839418956
 30
0.0
 11
9760.965052686927
 21
3224.340214924272
 31
0.0
  0
LINE
  5
182A9
330
17CD8
100
AcDbEntity
  8
HATCH
100
AcDbLine
 10
9636.165052688857
 20
3191.084839419572
 30
0.0
 11
9616.965052688854
 21
3224.3402149249
 31
0.0
  0
LINE
  5
182AA
330
17CD8
100
AcDbEntity
  8
HATCH
100
AcDbLine
 10
9780.165052688857
 20
3191.084839419572
 30
0.0
 11
9760.965052688852
 21
3224.3402149249
 31
0.0
  0
LINE
  5
182AB
330
17CD8
100
AcDbEntity
  8
HATCH
100
AcDbLine
 10
9492.165052688857
 20
3191.084839419572
 30
0.0
 11
9472.965052688854
 21
3224.3402149249
 31
0.0
  0
LINE
  5
182AC
330
17CD8
100
AcDbEntity
  8
HATCH
100
AcDbLine
 10
9348.165052688857
 20
3191.084839419572
 30
0.0
 11
9328.965052688852
 21
3224.3402149249
 31
0.0
  0
LINE
  5
182AD
330
17CD8
100
AcDbEntity
  8
TENSEN-1
100
AcDbLine
 10
8740.123251791107
 20
2869.484839419605
 30
0.0
 11
8686.523251791106
 21
2869.484839419605
 31
0.0
  0
LINE
  5
182AE
330
17CD8
100
AcDbEntity
  8
TENSEN-1
100
AcDbLine
 10
8686.523251791106
 20
2869.484839419605
 30
0.0
 11
8686.523251791106
 21
3360.684839419607
 31
0.0
  0
LINE
  5
182AF
330
17CD8
100
AcDbEntity
  8
TENSEN-1
100
AcDbLine
 10
8686.523251791106
 20
3360.684839419607
 30
0.0
 11
8665.723251791112
 21
3360.684839419607
 31
0.0
  0
LINE
  5
182B0
330
17CD8
100
AcDbEntity
  8
TENSEN-1
100
AcDbLine
 10
8665.723251791112
 20
3360.684839419607
 30
0.0
 11
8665.723251791105
 21
2848.684839419607
 31
0.0
  0
LINE
  5
182B1
330
17CD8
100
AcDbEntity
  8
TENSEN-1
100
AcDbLine
 10
8665.723251791105
 20
2848.684839419607
 30
0.0
 11
8740.123251791107
 21
2848.684839419607
 31
0.0
  0
LINE
  5
182B2
330
17CD8
100
AcDbEntity
  8
TENSEN-1
100
AcDbLine
 10
8740.123251791107
 20
2848.684839419607
 30
0.0
 11
8740.123251791107
 21
2869.484839419605
 31
0.0
  0
LINE
  5
182B3
330
17CD8
100
AcDbEntity
  8
TENSEN-1
100
AcDbLine
 10
8420.12325179111
 20
2869.484839419605
 30
0.0
 11
8473.723251791112
 21
2869.484839419605
 31
0.0
  0
LINE
  5
182B4
330
17CD8
100
AcDbEntity
  8
TENSEN-1
100
AcDbLine
 10
8473.723251791112
 20
2869.484839419605
 30
0.0
 11
8473.723251791112
 21
3360.684839419607
 31
0.0
  0
LINE
  5
182B5
330
17CD8
100
AcDbEntity
  8
TENSEN-1
100
AcDbLine
 10
8473.723251791112
 20
3360.684839419607
 30
0.0
 11
8494.523251791115
 21
3360.684839419607
 31
0.0
  0
LINE
  5
182B6
330
17CD8
100
AcDbEntity
  8
TENSEN-1
100
AcDbLine
 10
8494.523251791115
 20
3360.684839419607
 30
0.0
 11
8494.523251791115
 21
2848.684839419607
 31
0.0
  0
LINE
  5
182B7
330
17CD8
100
AcDbEntity
  8
TENSEN-1
100
AcDbLine
 10
8494.523251791115
 20
2848.684839419607
 30
0.0
 11
8420.12325179111
 21
2848.684839419607
 31
0.0
  0
LINE
  5
182B8
330
17CD8
100
AcDbEntity
  8
TENSEN-1
100
AcDbLine
 10
8420.12325179111
 20
2848.684839419607
 30
0.0
 11
8420.12325179111
 21
2869.484839419605
 31
0.0
  0
LINE
  5
182B9
330
17CD8
100
AcDbEntity
  8
HASHIRA
100
AcDbLine
 10
8452.12325179111
 20
3319.084839419606
 30
0.0
 11
8708.123251791105
 21
3319.084839419606
 31
0.0
  0
LINE
  5
182BA
330
17CD8
100
AcDbEntity
  8
HASHIRA
100
AcDbLine
 10
8708.123251791105
 20
3319.084839419606
 30
0.0
 11
8708.123251791105
 21
3328.684839419607
 31
0.0
  0
LINE
  5
182BB
330
17CD8
100
AcDbEntity
  8
HASHIRA
100
AcDbLine
 10
8708.123251791105
 20
3328.684839419607
 30
0.0
 11
8452.12325179111
 21
3328.684839419607
 31
0.0
  0
LINE
  5
182BC
330
17CD8
100
AcDbEntity
  8
HASHIRA
100
AcDbLine
 10
8452.12325179111
 20
3328.684839419607
 30
0.0
 11
8452.12325179111
 21
3319.084839419606
 31
0.0
  0
LINE
  5
182BD
330
17CD8
100
AcDbEntity
  8
BOLT
100
AcDbLine
 10
8593.723251791109
 20
3360.684839419607
 30
0.0
 11
8593.723251791109
 21
3368.536803080584
 31
0.0
  0
LINE
  5
182BE
330
17CD8
100
AcDbEntity
  8
BOLT
100
AcDbLine
 10
8593.723251791109
 20
3368.536803080584
 30
0.0
 11
8580.123251791111
 21
3376.388766741566
 31
0.0
  0
LINE
  5
182BF
330
17CD8
100
AcDbEntity
  8
BOLT
100
AcDbLine
 10
8580.123251791111
 20
3376.388766741566
 30
0.0
 11
8566.523251791107
 21
3368.536803080584
 31
0.0
  0
LINE
  5
182C0
330
17CD8
100
AcDbEntity
  8
BOLT
100
AcDbLine
 10
8566.523251791107
 20
3368.536803080584
 30
0.0
 11
8566.523251791107
 21
3360.684839419607
 31
0.0
  0
LINE
  5
182C1
330
17CD8
100
AcDbEntity
  8
BOLT
100
AcDbLine
 10
8566.523251791107
 20
3360.684839419607
 30
0.0
 11
8566.523251791107
 21
3352.832875758626
 31
0.0
  0
LINE
  5
182C2
330
17CD8
100
AcDbEntity
  8
BOLT
100
AcDbLine
 10
8566.523251791107
 20
3352.832875758626
 30
0.0
 11
8580.123251791111
 21
3344.980912097646
 31
0.0
  0
LINE
  5
182C3
330
17CD8
100
AcDbEntity
  8
BOLT
100
AcDbLine
 10
8580.123251791111
 20
3344.980912097646
 30
0.0
 11
8593.723251791109
 21
3352.832875758626
 31
0.0
  0
LINE
  5
182C4
330
17CD8
100
AcDbEntity
  8
BOLT
100
AcDbLine
 10
8593.723251791109
 20
3352.832875758626
 30
0.0
 11
8593.723251791109
 21
3360.684839419607
 31
0.0
  0
LINE
  5
182C5
330
17CD8
100
AcDbEntity
  8
BOLT
100
AcDbLine
 10
8593.723251791109
 20
3424.684839419607
 30
0.0
 11
8593.723251791109
 21
3432.536803080584
 31
0.0
  0
LINE
  5
182C6
330
17CD8
100
AcDbEntity
  8
BOLT
100
AcDbLine
 10
8593.723251791109
 20
3432.536803080584
 30
0.0
 11
8580.123251791111
 21
3440.388766741566
 31
0.0
  0
LINE
  5
182C7
330
17CD8
100
AcDbEntity
  8
BOLT
100
AcDbLine
 10
8580.123251791111
 20
3440.388766741566
 30
0.0
 11
8566.523251791107
 21
3432.536803080584
 31
0.0
  0
LINE
  5
182C8
330
17CD8
100
AcDbEntity
  8
BOLT
100
AcDbLine
 10
8566.523251791107
 20
3432.536803080584
 30
0.0
 11
8566.523251791107
 21
3424.684839419607
 31
0.0
  0
LINE
  5
182C9
330
17CD8
100
AcDbEntity
  8
BOLT
100
AcDbLine
 10
8566.523251791107
 20
3424.684839419607
 30
0.0
 11
8566.523251791107
 21
3416.832875758626
 31
0.0
  0
LINE
  5
182CA
330
17CD8
100
AcDbEntity
  8
BOLT
100
AcDbLine
 10
8566.523251791107
 20
3416.832875758626
 30
0.0
 11
8580.123251791111
 21
3408.980912097646
 31
0.0
  0
LINE
  5
182CB
330
17CD8
100
AcDbEntity
  8
BOLT
100
AcDbLine
 10
8580.123251791111
 20
3408.980912097646
 30
0.0
 11
8593.723251791109
 21
3416.832875758626
 31
0.0
  0
LINE
  5
182CC
330
17CD8
100
AcDbEntity
  8
BOLT
100
AcDbLine
 10
8593.723251791109
 20
3416.832875758626
 30
0.0
 11
8593.723251791109
 21
3424.684839419607
 31
0.0
  0
LINE
  5
182CD
330
17CD8
100
AcDbEntity
  8
HATCH
100
AcDbLine
 10
5817.438852163284
 20
3191.084839420222
 30
0.0
 11
5891.339686619553
 21
3319.084839420217
 31
0.0
  0
LINE
  5
182CE
330
17CD8
100
AcDbEntity
  8
HATCH
100
AcDbLine
 10
5852.939686619555
 20
3319.084839420215
 30
0.0
 11
5872.139686619554
 21
3285.829463914896
 31
0.0
  0
LINE
  5
182CF
330
17CD8
100
AcDbEntity
  8
HATCH
100
AcDbLine
 10
5529.438852163284
 20
3191.084839420222
 30
0.0
 11
5603.339686619555
 21
3319.084839420217
 31
0.0
  0
LINE
  5
182D0
330
17CD8
100
AcDbEntity
  8
HATCH
100
AcDbLine
 10
5564.939686619556
 20
3319.084839420215
 30
0.0
 11
5584.139686619554
 21
3285.829463914896
 31
0.0
  0
LINE
  5
182D1
330
17CD8
100
AcDbEntity
  8
HATCH
100
AcDbLine
 10
5673.438852163286
 20
3191.084839420222
 30
0.0
 11
5747.339686619554
 21
3319.084839420217
 31
0.0
  0
LINE
  5
182D2
330
17CD8
100
AcDbEntity
  8
HATCH
100
AcDbLine
 10
5708.939686619554
 20
3319.084839420215
 30
0.0
 11
5728.139686619555
 21
3285.829463914896
 31
0.0
  0
LINE
  5
182D3
330
17CD8
100
AcDbEntity
  8
HATCH
100
AcDbLine
 10
5961.438852163285
 20
3191.084839420222
 30
0.0
 11
6035.339686619554
 21
3319.084839420217
 31
0.0
  0
LINE
  5
182D4
330
17CD8
100
AcDbEntity
  8
HATCH
100
AcDbLine
 10
5996.939686619556
 20
3319.084839420215
 30
0.0
 11
6016.139686619554
 21
3285.829463914896
 31
0.0
  0
LINE
  5
182D5
330
17CD8
100
AcDbEntity
  8
HASHIRA
100
AcDbLine
 10
4735.797051267462
 20
3319.084839419608
 30
0.0
 11
4863.797051267464
 21
3319.084839419608
 31
0.0
  0
LINE
  5
182D6
330
17CD8
100
AcDbEntity
  8
HASHIRA
100
AcDbLine
 10
4863.797051267464
 20
3319.084839419608
 30
0.0
 11
4863.797051267464
 21
3328.684839419607
 31
0.0
  0
LINE
  5
182D7
330
17CD8
100
AcDbEntity
  8
HASHIRA
100
AcDbLine
 10
4863.797051267464
 20
3328.684839419607
 30
0.0
 11
4735.797051267462
 21
3328.684839419607
 31
0.0
  0
LINE
  5
182D8
330
17CD8
100
AcDbEntity
  8
HASHIRA
100
AcDbLine
 10
4735.797051267462
 20
3328.684839419607
 30
0.0
 11
4735.797051267462
 21
3319.084839419608
 31
0.0
  0
LINE
  5
182D9
330
17CD8
100
AcDbEntity
  8
TENSEN-1
100
AcDbLine
 10
4735.797051267462
 20
2869.484839419607
 30
0.0
 11
4789.397051267463
 21
2869.484839419607
 31
0.0
  0
LINE
  5
182DA
330
17CD8
100
AcDbEntity
  8
TENSEN-1
100
AcDbLine
 10
4789.397051267463
 20
2869.484839419607
 30
0.0
 11
4789.397051267463
 21
3360.684839419607
 31
0.0
  0
LINE
  5
182DB
330
17CD8
100
AcDbEntity
  8
TENSEN-1
100
AcDbLine
 10
4789.397051267463
 20
3360.684839419607
 30
0.0
 11
4810.197051267465
 21
3360.684839419607
 31
0.0
  0
LINE
  5
182DC
330
17CD8
100
AcDbEntity
  8
TENSEN-1
100
AcDbLine
 10
4810.197051267465
 20
3360.684839419607
 30
0.0
 11
4810.197051267465
 21
2848.684839419607
 31
0.0
  0
LINE
  5
182DD
330
17CD8
100
AcDbEntity
  8
TENSEN-1
100
AcDbLine
 10
4810.197051267465
 20
2848.684839419607
 30
0.0
 11
4735.797051267462
 21
2848.684839419607
 31
0.0
  0
LINE
  5
182DE
330
17CD8
100
AcDbEntity
  8
TENSEN-1
100
AcDbLine
 10
4735.797051267462
 20
2848.684839419607
 30
0.0
 11
4735.797051267462
 21
2869.484839419607
 31
0.0
  0
LINE
  5
182DF
330
17CD8
100
AcDbEntity
  8
DOMAKON
100
AcDbLine
 10
10219.12750789964
 20
6508.243182432327
 30
0.0
 11
6619.127507899642
 21
6508.243182432327
 31
0.0
  0
LINE
  5
182E0
330
17CD8
100
AcDbEntity
  8
DOMAKON
100
AcDbLine
 10
6619.127507899642
 20
6508.243182432327
 30
0.0
 11
6619.127507899642
 21
8908.243182432324
 31
0.0
  0
LINE
  5
182E1
330
17CD8
100
AcDbEntity
  8
DOMAKON
100
AcDbLine
 10
6619.127507899642
 20
8908.243182432324
 30
0.0
 11
10219.12750789964
 21
8908.243182432324
 31
0.0
  0
LINE
  5
182E2
330
17CD8
100
AcDbEntity
  8
DOMAKON
100
AcDbLine
 10
10219.12750789964
 20
8908.243182432324
 30
0.0
 11
10219.12750789964
 21
6508.243182432327
 31
0.0
  0
LINE
  5
182E3
330
17CD8
100
AcDbEntity
  8
YANE
  6
2PL-L
 62
     6
100
AcDbLine
 10
10215.12750789964
 20
6408.243182432326
 30
0.0
 11
6623.127507899638
 21
6408.243182432326
 31
0.0
  0
LINE
  5
182E4
330
17CD8
100
AcDbEntity
  8
YANE
  6
2PL-L
 62
     6
100
AcDbLine
 10
6623.127507899638
 20
6408.243182432326
 30
0.0
 11
6623.127507899638
 21
8958.243182432324
 31
0.0
  0
LINE
  5
182E5
330
17CD8
100
AcDbEntity
  8
YANE
  6
2PL-L
 62
     6
100
AcDbLine
 10
6623.127507899638
 20
8958.243182432324
 30
0.0
 11
10215.12750789964
 21
8958.243182432324
 31
0.0
  0
LINE
  5
182E6
330
17CD8
100
AcDbEntity
  8
YANE
  6
2PL-L
 62
     6
100
AcDbLine
 10
10215.12750789964
 20
8958.243182432324
 30
0.0
 11
10215.12750789964
 21
6408.243182432326
 31
0.0
  0
LINE
  5
182E7
330
17CD8
100
AcDbEntity
  8
KISO
100
AcDbLine
 10
7419.127507899642
 20
6508.243182432327
 30
0.0
 11
6619.127507899642
 21
6508.243182432327
 31
0.0
  0
LINE
  5
182E8
330
17CD8
100
AcDbEntity
  8
KISO
100
AcDbLine
 10
6619.127507899642
 20
6508.243182432327
 30
0.0
 11
6619.127507899642
 21
7308.243182432327
 31
0.0
  0
LINE
  5
182E9
330
17CD8
100
AcDbEntity
  8
KISO
100
AcDbLine
 10
6619.127507899642
 20
7308.243182432327
 30
0.0
 11
7419.127507899642
 21
7308.243182432327
 31
0.0
  0
LINE
  5
182EA
330
17CD8
100
AcDbEntity
  8
KISO
100
AcDbLine
 10
7419.127507899642
 20
7308.243182432327
 30
0.0
 11
7419.127507899642
 21
6508.243182432327
 31
0.0
  0
LINE
  5
182EB
330
17CD8
100
AcDbEntity
  8
KISO
100
AcDbLine
 10
7419.127507899642
 20
8308.243182432326
 30
0.0
 11
6619.127507899642
 21
8308.243182432326
 31
0.0
  0
LINE
  5
182EC
330
17CD8
100
AcDbEntity
  8
KISO
100
AcDbLine
 10
6619.127507899642
 20
8308.243182432326
 30
0.0
 11
6619.127507899642
 21
9108.243182432325
 31
0.0
  0
LINE
  5
182ED
330
17CD8
100
AcDbEntity
  8
KISO
100
AcDbLine
 10
6619.127507899642
 20
9108.243182432325
 30
0.0
 11
7419.127507899642
 21
9108.243182432325
 31
0.0
  0
LINE
  5
182EE
330
17CD8
100
AcDbEntity
  8
KISO
100
AcDbLine
 10
7419.127507899642
 20
9108.243182432325
 30
0.0
 11
7419.127507899642
 21
8308.243182432326
 31
0.0
  0
LINE
  5
182EF
330
17CD8
100
AcDbEntity
  8
KISO
100
AcDbLine
 10
10219.12750789964
 20
6508.243182432327
 30
0.0
 11
9419.127507899641
 21
6508.243182432327
 31
0.0
  0
LINE
  5
182F0
330
17CD8
100
AcDbEntity
  8
KISO
100
AcDbLine
 10
9419.127507899641
 20
6508.243182432327
 30
0.0
 11
9419.127507899641
 21
7308.243182432327
 31
0.0
  0
LINE
  5
182F1
330
17CD8
100
AcDbEntity
  8
KISO
100
AcDbLine
 10
9419.127507899641
 20
7308.243182432327
 30
0.0
 11
10219.12750789964
 21
7308.243182432327
 31
0.0
  0
LINE
  5
182F2
330
17CD8
100
AcDbEntity
  8
KISO
100
AcDbLine
 10
10219.12750789964
 20
7308.243182432327
 30
0.0
 11
10219.12750789964
 21
6508.243182432327
 31
0.0
  0
LINE
  5
182F3
330
17CD8
100
AcDbEntity
  8
KISO
100
AcDbLine
 10
10219.12750789964
 20
8308.243182432326
 30
0.0
 11
9419.127507899641
 21
8308.243182432326
 31
0.0
  0
LINE
  5
182F4
330
17CD8
100
AcDbEntity
  8
KISO
100
AcDbLine
 10
9419.127507899641
 20
8308.243182432326
 30
0.0
 11
9419.127507899641
 21
9108.243182432325
 31
0.0
  0
LINE
  5
182F5
330
17CD8
100
AcDbEntity
  8
KISO
100
AcDbLine
 10
9419.127507899641
 20
9108.243182432325
 30
0.0
 11
10219.12750789964
 21
9108.243182432325
 31
0.0
  0
LINE
  5
182F6
330
17CD8
100
AcDbEntity
  8
KISO
100
AcDbLine
 10
10219.12750789964
 20
9108.243182432325
 30
0.0
 11
10219.12750789964
 21
8308.243182432326
 31
0.0
  0
LINE
  5
182F7
330
17CD8
100
AcDbEntity
  8
U1
100
AcDbLine
 10
9825.32750789964
 20
8678.043182432324
 30
0.0
 11
9792.927507899641
 21
8678.043182432324
 31
0.0
  0
LINE
  5
182F8
330
17CD8
100
AcDbEntity
  8
U1
100
AcDbLine
 10
9792.927507899641
 20
8738.443182432325
 30
0.0
 11
9845.327507899639
 21
8738.443182432325
 31
0.0
  0
ARC
  5
182F9
330
17CD8
100
AcDbEntity
  8
U1
100
AcDbCircle
 10
9792.927507899641
 20
8734.443182432325
 30
0.0
 40
4.0
100
AcDbArc
 50
90.0
 51
180.0
  0
ARC
  5
182FA
330
17CD8
100
AcDbEntity
  8
U1
100
AcDbCircle
 10
9792.927507899641
 20
8682.043182432327
 30
0.0
 40
4.0
100
AcDbArc
 50
180.0
 51
270.0
  0
LINE
  5
182FB
330
17CD8
100
AcDbEntity
  8
U1
100
AcDbLine
 10
9788.927507899641
 20
8682.043182432327
 30
0.0
 11
9788.927507899643
 21
8734.443182432325
 31
0.0
  0
ARC
  5
182FC
330
17CD8
100
AcDbEntity
  8
U1
100
AcDbCircle
 10
9845.327507899639
 20
8734.443182432325
 30
0.0
 40
4.0
100
AcDbArc
 50
0.0
 51
90.0
  0
ARC
  5
182FD
330
17CD8
100
AcDbEntity
  8
U1
100
AcDbCircle
 10
9825.32750789964
 20
8682.043182432321
 30
0.0
 40
4.0
100
AcDbArc
 50
270.0
 51
0.0
  0
ARC
  5
182FE
330
17CD8
100
AcDbEntity
  8
U1
100
AcDbCircle
 10
9832.777507899642
 20
8691.293182432323
 30
0.0
 40
1.149999999999977
100
AcDbArc
 50
0.0
 51
180.0
  0
LINE
  5
182FF
330
17CD8
100
AcDbEntity
  8
U1
100
AcDbLine
 10
9836.227507899643
 20
8683.743182432323
 30
0.0
 11
9836.227507899643
 21
8691.293182432323
 31
0.0
  0
LINE
  5
18300
330
17CD8
100
AcDbEntity
  8
U1
100
AcDbLine
 10
9833.927507899639
 20
8683.743182432323
 30
0.0
 11
9836.227507899643
 21
8683.743182432323
 31
0.0
  0
LINE
  5
18301
330
17CD8
100
AcDbEntity
  8
U1
100
AcDbLine
 10
9831.627507899641
 20
8690.743182432326
 30
0.0
 11
9833.927507899639
 21
8690.743182432326
 31
0.0
  0
ARC
  5
18302
330
17CD8
100
AcDbEntity
  8
U1
100
AcDbCircle
 10
9832.777507899642
 20
8691.293182432323
 30
0.0
 40
3.450000000000044
100
AcDbArc
 50
0.0
 51
180.0
  0
LINE
  5
18303
330
17CD8
100
AcDbEntity
  8
U1
100
AcDbLine
 10
9831.627507899641
 20
8691.293182432323
 30
0.0
 11
9831.627507899641
 21
8682.043182432327
 31
0.0
  0
LINE
  5
18304
330
17CD8
100
AcDbEntity
  8
U1
100
AcDbLine
 10
9833.927507899639
 20
8682.043182432321
 30
0.0
 11
9833.927507899639
 21
8691.293182432323
 31
0.0
  0
LINE
  5
18305
330
17CD8
100
AcDbEntity
  8
U1
100
AcDbLine
 10
9829.327507899641
 20
8691.293182432323
 30
0.0
 11
9829.327507899641
 21
8682.043182432321
 31
0.0
  0
ARC
  5
18306
330
17CD8
100
AcDbEntity
  8
U1
100
AcDbCircle
 10
9845.327507899639
 20
8682.043182432321
 30
0.0
 40
4.0
100
AcDbArc
 50
270.0
 51
0.0
  0
LINE
  5
18307
330
17CD8
100
AcDbEntity
  8
U1
100
AcDbLine
 10
9845.327507899639
 20
8678.043182432324
 30
0.0
 11
9837.927507899641
 21
8678.043182432324
 31
0.0
  0
ARC
  5
18308
330
17CD8
100
AcDbEntity
  8
U1
100
AcDbCircle
 10
9837.927507899641
 20
8682.043182432321
 30
0.0
 40
4.0
100
AcDbArc
 50
180.0
 51
270.0
  0
LINE
  5
18309
330
17CD8
100
AcDbEntity
  8
U1
100
AcDbLine
 10
9849.327507899639
 20
8734.443182432325
 30
0.0
 11
9849.327507899639
 21
8682.043182432321
 31
0.0
  0
LINE
  5
1830A
330
17CD8
100
AcDbEntity
  8
U1
100
AcDbLine
 10
7012.92750789964
 20
8678.043182432324
 30
0.0
 11
7045.32750789964
 21
8678.043182432324
 31
0.0
  0
LINE
  5
1830B
330
17CD8
100
AcDbEntity
  8
U1
100
AcDbLine
 10
7045.32750789964
 20
8738.443182432325
 30
0.0
 11
6992.92750789964
 21
8738.443182432325
 31
0.0
  0
ARC
  5
1830C
330
17CD8
100
AcDbEntity
  8
U1
100
AcDbCircle
 10
7045.32750789964
 20
8734.443182432325
 30
0.0
 40
4.0
100
AcDbArc
 50
0.0
 51
90.0
  0
ARC
  5
1830D
330
17CD8
100
AcDbEntity
  8
U1
100
AcDbCircle
 10
7045.32750789964
 20
8682.043182432321
 30
0.0
 40
4.0
100
AcDbArc
 50
270.0
 51
0.0
  0
LINE
  5
1830E
330
17CD8
100
AcDbEntity
  8
U1
100
AcDbLine
 10
7049.32750789964
 20
8682.043182432321
 30
0.0
 11
7049.32750789964
 21
8734.443182432325
 31
0.0
  0
ARC
  5
1830F
330
17CD8
100
AcDbEntity
  8
U1
100
AcDbCircle
 10
6992.92750789964
 20
8734.443182432325
 30
0.0
 40
4.0
100
AcDbArc
 50
90.0
 51
180.0
  0
ARC
  5
18310
330
17CD8
100
AcDbEntity
  8
U1
100
AcDbCircle
 10
7012.92750789964
 20
8682.043182432321
 30
0.0
 40
4.0
100
AcDbArc
 50
180.0
 51
270.0
  0
ARC
  5
18311
330
17CD8
100
AcDbEntity
  8
U1
100
AcDbCircle
 10
7005.47750789964
 20
8691.293182432323
 30
0.0
 40
1.149999999999977
100
AcDbArc
 50
0.0
 51
180.0
  0
LINE
  5
18312
330
17CD8
100
AcDbEntity
  8
U1
100
AcDbLine
 10
7002.02750789964
 20
8683.743182432323
 30
0.0
 11
7002.02750789964
 21
8691.293182432326
 31
0.0
  0
LINE
  5
18313
330
17CD8
100
AcDbEntity
  8
U1
100
AcDbLine
 10
7004.32750789964
 20
8683.743182432323
 30
0.0
 11
7002.02750789964
 21
8683.743182432323
 31
0.0
  0
LINE
  5
18314
330
17CD8
100
AcDbEntity
  8
U1
100
AcDbLine
 10
7006.62750789964
 20
8690.743182432326
 30
0.0
 11
7004.32750789964
 21
8690.743182432326
 31
0.0
  0
ARC
  5
18315
330
17CD8
100
AcDbEntity
  8
U1
100
AcDbCircle
 10
7005.47750789964
 20
8691.293182432323
 30
0.0
 40
3.450000000000044
100
AcDbArc
 50
0.0
 51
180.0
  0
LINE
  5
18316
330
17CD8
100
AcDbEntity
  8
U1
100
AcDbLine
 10
7006.62750789964
 20
8691.293182432323
 30
0.0
 11
7006.627507899643
 21
8682.043182432327
 31
0.0
  0
LINE
  5
18317
330
17CD8
100
AcDbEntity
  8
U1
100
AcDbLine
 10
7004.32750789964
 20
8682.043182432327
 30
0.0
 11
7004.32750789964
 21
8691.293182432326
 31
0.0
  0
LINE
  5
18318
330
17CD8
100
AcDbEntity
  8
U1
100
AcDbLine
 10
7008.927507899639
 20
8691.293182432323
 30
0.0
 11
7008.927507899639
 21
8682.043182432321
 31
0.0
  0
ARC
  5
18319
330
17CD8
100
AcDbEntity
  8
U1
100
AcDbCircle
 10
6992.927507899641
 20
8682.043182432327
 30
0.0
 40
4.0
100
AcDbArc
 50
180.0
 51
270.0
  0
LINE
  5
1831A
330
17CD8
100
AcDbEntity
  8
U1
100
AcDbLine
 10
6992.927507899641
 20
8678.043182432324
 30
0.0
 11
7000.32750789964
 21
8678.043182432324
 31
0.0
  0
ARC
  5
1831B
330
17CD8
100
AcDbEntity
  8
U1
100
AcDbCircle
 10
7000.32750789964
 20
8682.043182432327
 30
0.0
 40
4.0
100
AcDbArc
 50
270.0
 51
0.0
  0
LINE
  5
1831C
330
17CD8
100
AcDbEntity
  8
U1
100
AcDbLine
 10
6988.92750789964
 20
8734.443182432325
 30
0.0
 11
6988.92750789964
 21
8682.043182432327
 31
0.0
  0
LINE
  5
1831D
330
17CD8
100
AcDbEntity
  8
U1
100
AcDbLine
 10
7012.92750789964
 20
6938.443182432326
 30
0.0
 11
7045.32750789964
 21
6938.443182432326
 31
0.0
  0
LINE
  5
1831E
330
17CD8
100
AcDbEntity
  8
U1
100
AcDbLine
 10
7045.32750789964
 20
6878.043182432326
 30
0.0
 11
6992.92750789964
 21
6878.043182432326
 31
0.0
  0
ARC
  5
1831F
330
17CD8
100
AcDbEntity
  8
U1
100
AcDbCircle
 10
7045.32750789964
 20
6882.043182432325
 30
0.0
 40
4.0
100
AcDbArc
 50
270.0
 51
0.0
  0
ARC
  5
18320
330
17CD8
100
AcDbEntity
  8
U1
100
AcDbCircle
 10
7045.32750789964
 20
6934.443182432325
 30
0.0
 40
4.0
100
AcDbArc
 50
0.0
 51
90.0
  0
LINE
  5
18321
330
17CD8
100
AcDbEntity
  8
U1
100
AcDbLine
 10
7049.32750789964
 20
6934.443182432325
 30
0.0
 11
7049.32750789964
 21
6882.043182432325
 31
0.0
  0
ARC
  5
18322
330
17CD8
100
AcDbEntity
  8
U1
100
AcDbCircle
 10
6992.92750789964
 20
6882.043182432325
 30
0.0
 40
4.0
100
AcDbArc
 50
180.0
 51
270.0
  0
ARC
  5
18323
330
17CD8
100
AcDbEntity
  8
U1
100
AcDbCircle
 10
7012.92750789964
 20
6934.443182432325
 30
0.0
 40
4.0
100
AcDbArc
 50
90.0
 51
180.0
  0
ARC
  5
18324
330
17CD8
100
AcDbEntity
  8
U1
100
AcDbCircle
 10
7005.47750789964
 20
6925.193182432325
 30
0.0
 40
1.149999999999977
100
AcDbArc
 50
180.0
 51
0.0
  0
LINE
  5
18325
330
17CD8
100
AcDbEntity
  8
U1
100
AcDbLine
 10
7002.02750789964
 20
6932.743182432325
 30
0.0
 11
7002.02750789964
 21
6925.193182432325
 31
0.0
  0
LINE
  5
18326
330
17CD8
100
AcDbEntity
  8
U1
100
AcDbLine
 10
7004.32750789964
 20
6932.743182432325
 30
0.0
 11
7002.02750789964
 21
6932.743182432325
 31
0.0
  0
LINE
  5
18327
330
17CD8
100
AcDbEntity
  8
U1
100
AcDbLine
 10
7006.62750789964
 20
6925.743182432326
 30
0.0
 11
7004.32750789964
 21
6925.743182432326
 31
0.0
  0
ARC
  5
18328
330
17CD8
100
AcDbEntity
  8
U1
100
AcDbCircle
 10
7005.47750789964
 20
6925.193182432325
 30
0.0
 40
3.450000000000044
100
AcDbArc
 50
180.0
 51
0.0
  0
LINE
  5
18329
330
17CD8
100
AcDbEntity
  8
U1
100
AcDbLine
 10
7006.62750789964
 20
6925.193182432325
 30
0.0
 11
7006.627507899643
 21
6934.443182432325
 31
0.0
  0
LINE
  5
1832A
330
17CD8
100
AcDbEntity
  8
U1
100
AcDbLine
 10
7004.32750789964
 20
6934.443182432325
 30
0.0
 11
7004.32750789964
 21
6925.193182432325
 31
0.0
  0
LINE
  5
1832B
330
17CD8
100
AcDbEntity
  8
U1
100
AcDbLine
 10
7008.927507899639
 20
6925.193182432325
 30
0.0
 11
7008.927507899639
 21
6934.443182432325
 31
0.0
  0
ARC
  5
1832C
330
17CD8
100
AcDbEntity
  8
U1
100
AcDbCircle
 10
6992.927507899641
 20
6934.443182432325
 30
0.0
 40
4.0
100
AcDbArc
 50
90.0
 51
180.0
  0
LINE
  5
1832D
330
17CD8
100
AcDbEntity
  8
U1
100
AcDbLine
 10
6992.927507899641
 20
6938.443182432326
 30
0.0
 11
7000.32750789964
 21
6938.443182432326
 31
0.0
  0
ARC
  5
1832E
330
17CD8
100
AcDbEntity
  8
U1
100
AcDbCircle
 10
7000.32750789964
 20
6934.443182432325
 30
0.0
 40
4.0
100
AcDbArc
 50
0.0
 51
90.0
  0
LINE
  5
1832F
330
17CD8
100
AcDbEntity
  8
U1
100
AcDbLine
 10
6988.92750789964
 20
6882.043182432325
 30
0.0
 11
6988.92750789964
 21
6934.443182432325
 31
0.0
  0
LINE
  5
18330
330
17CD8
100
AcDbEntity
  8
U1
100
AcDbLine
 10
9825.32750789964
 20
6938.443182432326
 30
0.0
 11
9792.927507899641
 21
6938.443182432326
 31
0.0
  0
LINE
  5
18331
330
17CD8
100
AcDbEntity
  8
U1
100
AcDbLine
 10
9792.927507899641
 20
6878.043182432326
 30
0.0
 11
9845.327507899639
 21
6878.043182432326
 31
0.0
  0
ARC
  5
18332
330
17CD8
100
AcDbEntity
  8
U1
100
AcDbCircle
 10
9792.927507899641
 20
6882.043182432325
 30
0.0
 40
4.0
100
AcDbArc
 50
180.0
 51
270.0
  0
ARC
  5
18333
330
17CD8
100
AcDbEntity
  8
U1
100
AcDbCircle
 10
9792.927507899641
 20
6934.443182432325
 30
0.0
 40
4.0
100
AcDbArc
 50
90.0
 51
180.0
  0
LINE
  5
18334
330
17CD8
100
AcDbEntity
  8
U1
100
AcDbLine
 10
9788.927507899641
 20
6934.443182432325
 30
0.0
 11
9788.927507899641
 21
6882.043182432325
 31
0.0
  0
ARC
  5
18335
330
17CD8
100
AcDbEntity
  8
U1
100
AcDbCircle
 10
9845.327507899639
 20
6882.043182432325
 30
0.0
 40
4.0
100
AcDbArc
 50
270.0
 51
0.0
  0
ARC
  5
18336
330
17CD8
100
AcDbEntity
  8
U1
100
AcDbCircle
 10
9825.32750789964
 20
6934.443182432325
 30
0.0
 40
4.0
100
AcDbArc
 50
0.0
 51
90.0
  0
ARC
  5
18337
330
17CD8
100
AcDbEntity
  8
U1
100
AcDbCircle
 10
9832.777507899642
 20
6925.193182432325
 30
0.0
 40
1.149999999999977
100
AcDbArc
 50
180.0
 51
0.0
  0
LINE
  5
18338
330
17CD8
100
AcDbEntity
  8
U1
100
AcDbLine
 10
9836.227507899643
 20
6932.743182432325
 30
0.0
 11
9836.227507899643
 21
6925.193182432325
 31
0.0
  0
LINE
  5
18339
330
17CD8
100
AcDbEntity
  8
U1
100
AcDbLine
 10
9833.927507899639
 20
6932.743182432325
 30
0.0
 11
9836.227507899643
 21
6932.743182432325
 31
0.0
  0
LINE
  5
1833A
330
17CD8
100
AcDbEntity
  8
U1
100
AcDbLine
 10
9831.627507899641
 20
6925.743182432326
 30
0.0
 11
9833.927507899639
 21
6925.743182432326
 31
0.0
  0
ARC
  5
1833B
330
17CD8
100
AcDbEntity
  8
U1
100
AcDbCircle
 10
9832.777507899642
 20
6925.193182432325
 30
0.0
 40
3.450000000000044
100
AcDbArc
 50
180.0
 51
0.0
  0
LINE
  5
1833C
330
17CD8
100
AcDbEntity
  8
U1
100
AcDbLine
 10
9831.627507899641
 20
6925.193182432325
 30
0.0
 11
9831.627507899641
 21
6934.443182432325
 31
0.0
  0
LINE
  5
1833D
330
17CD8
100
AcDbEntity
  8
U1
100
AcDbLine
 10
9833.927507899639
 20
6934.443182432325
 30
0.0
 11
9833.927507899639
 21
6925.193182432325
 31
0.0
  0
LINE
  5
1833E
330
17CD8
100
AcDbEntity
  8
U1
100
AcDbLine
 10
9829.327507899641
 20
6925.193182432325
 30
0.0
 11
9829.327507899641
 21
6934.443182432325
 31
0.0
  0
ARC
  5
1833F
330
17CD8
100
AcDbEntity
  8
U1
100
AcDbCircle
 10
9845.327507899639
 20
6934.443182432325
 30
0.0
 40
4.0
100
AcDbArc
 50
0.0
 51
90.0
  0
LINE
  5
18340
330
17CD8
100
AcDbEntity
  8
U1
100
AcDbLine
 10
9845.327507899639
 20
6938.443182432326
 30
0.0
 11
9837.927507899641
 21
6938.443182432326
 31
0.0
  0
ARC
  5
18341
330
17CD8
100
AcDbEntity
  8
U1
100
AcDbCircle
 10
9837.927507899641
 20
6934.443182432325
 30
0.0
 40
4.0
100
AcDbArc
 50
90.0
 51
180.0
  0
LINE
  5
18342
330
17CD8
100
AcDbEntity
  8
U1
100
AcDbLine
 10
9849.327507899639
 20
6882.043182432325
 30
0.0
 11
9849.327507899639
 21
6934.443182432325
 31
0.0
  0
LINE
  5
18343
330
17CD8
100
AcDbEntity
  8
U3
100
AcDbLine
 10
9130.078259983639
 20
3525.966871722361
 30
0.0
 11
9357.853645156977
 21
3920.485411556196
 31
0.0
1001
ACAD
1000
DSTYLE
1002
{
1070
   147
1040
1.0
1070
    77
1070
     0
1002
}
  0
LINE
  5
18344
330
17CD8
100
AcDbEntity
  8
0
100
AcDbLine
 10
9118.531254599844
 20
3532.633538389028
 30
0.0
 11
9090.07825998364
 21
3456.684839419605
 31
0.0
  0
LINE
  5
18345
330
17CD8
100
AcDbEntity
  8
0
100
AcDbLine
 10
9090.07825998364
 20
3456.684839419605
 30
0.0
 11
9141.625265367435
 21
3519.300205055695
 31
0.0
  0
SOLID
  5
18346
330
17CD8
100
AcDbEntity
  8
0
100
AcDbTrace
 10
9118.531254599844
 20
3532.633538389028
 30
0.0
 11
9141.625265367435
 21
3519.300205055695
 31
0.0
 12
9090.07825998364
 22
3456.684839419605
 32
0.0
 13
9090.07825998364
 23
3456.684839419605
 33
0.0
  0
LINE
  5
18347
330
17CD8
100
AcDbEntity
  8
0
100
AcDbLine
 10
9141.625265367435
 20
3519.300205055695
 30
0.0
 11
9118.531254599844
 21
3532.633538389028
 31
0.0
  0
LINE
  5
18348
330
17CD8
100
AcDbEntity
  8
HATCH
100
AcDbLine
 10
5855.838852163278
 20
3191.084839420224
 30
0.0
 11
5836.63885216328
 21
3224.340214925541
 31
0.0
  0
LINE
  5
18349
330
17CD8
100
AcDbEntity
  8
HATCH
100
AcDbLine
 10
5567.838852163279
 20
3191.084839420224
 30
0.0
 11
5548.638852163279
 21
3224.340214925541
 31
0.0
  0
LINE
  5
1834A
330
17CD8
100
AcDbEntity
  8
HATCH
100
AcDbLine
 10
5711.838852163278
 20
3191.084839420224
 30
0.0
 11
5692.63885216328
 21
3224.340214925541
 31
0.0
  0
LINE
  5
1834B
330
17CD8
100
AcDbEntity
  8
HATCH
100
AcDbLine
 10
5999.838852163279
 20
3191.084839420224
 30
0.0
 11
5980.63885216328
 21
3224.340214925541
 31
0.0
  0
ARC
  5
1834C
330
17CD8
100
AcDbEntity
  8
U1
100
AcDbCircle
 10
9845.327507899639
 20
8682.043182432321
 30
0.0
 40
6.300000000001091
100
AcDbArc
 50
270.0
 51
0.0
  0
LINE
  5
1834D
330
17CD8
100
AcDbEntity
  8
U1
100
AcDbLine
 10
9845.327507899639
 20
8675.743182432324
 30
0.0
 11
9837.927507899641
 21
8675.743182432324
 31
0.0
  0
ARC
  5
1834E
330
17CD8
100
AcDbEntity
  8
U1
100
AcDbCircle
 10
9837.927507899641
 20
8682.043182432321
 30
0.0
 40
6.299999999999272
100
AcDbArc
 50
180.0
 51
270.0
  0
ARC
  5
1834F
330
17CD8
100
AcDbEntity
  8
U1
100
AcDbCircle
 10
9825.32750789964
 20
8682.043182432327
 30
0.0
 40
6.300000000001091
100
AcDbArc
 50
270.0
 51
359.9999999999833
  0
LINE
  5
18350
330
17CD8
100
AcDbEntity
  8
U1
100
AcDbLine
 10
9825.32750789964
 20
8675.743182432324
 30
0.0
 11
9792.927507899641
 21
8675.743182432324
 31
0.0
  0
ARC
  5
18351
330
17CD8
100
AcDbEntity
  8
U1
100
AcDbCircle
 10
9792.927507899641
 20
8682.043182432327
 30
0.0
 40
6.300000000001091
100
AcDbArc
 50
180.0
 51
270.0
  0
LINE
  5
18352
330
17CD8
100
AcDbEntity
  8
U1
100
AcDbLine
 10
9786.627507899641
 20
8682.043182432327
 30
0.0
 11
9786.627507899641
 21
8734.443182432325
 31
0.0
  0
ARC
  5
18353
330
17CD8
100
AcDbEntity
  8
U1
100
AcDbCircle
 10
9792.927507899641
 20
8734.443182432325
 30
0.0
 40
6.300000000001091
100
AcDbArc
 50
90.0
 51
180.0
  0
LINE
  5
18354
330
17CD8
100
AcDbEntity
  8
U1
100
AcDbLine
 10
9792.927507899641
 20
8740.743182432323
 30
0.0
 11
9845.327507899639
 21
8740.743182432323
 31
0.0
  0
ARC
  5
18355
330
17CD8
100
AcDbEntity
  8
U1
100
AcDbCircle
 10
9845.327507899639
 20
8734.443182432325
 30
0.0
 40
6.299999999999272
100
AcDbArc
 50
0.0
 51
90.0
  0
LINE
  5
18356
330
17CD8
100
AcDbEntity
  8
U1
100
AcDbLine
 10
9851.627507899641
 20
8734.443182432325
 30
0.0
 11
9851.627507899641
 21
8682.043182432321
 31
0.0
  0
ARC
  5
18357
330
17CD8
100
AcDbEntity
  8
U1
100
AcDbCircle
 10
6992.927507899641
 20
8682.043182432327
 30
0.0
 40
6.300000000000181
100
AcDbArc
 50
180.0
 51
270.0
  0
LINE
  5
18358
330
17CD8
100
AcDbEntity
  8
U1
100
AcDbLine
 10
6992.927507899641
 20
8675.743182432324
 30
0.0
 11
7000.32750789964
 21
8675.743182432324
 31
0.0
  0
ARC
  5
18359
330
17CD8
100
AcDbEntity
  8
U1
100
AcDbCircle
 10
7000.32750789964
 20
8682.043182432321
 30
0.0
 40
6.299999999999272
100
AcDbArc
 50
269.9999999999918
 51
0.0
  0
ARC
  5
1835A
330
17CD8
100
AcDbEntity
  8
U1
100
AcDbCircle
 10
7012.92750789964
 20
8682.043182432321
 30
0.0
 40
6.299999999999272
100
AcDbArc
 50
180.0
 51
270.0000000000081
  0
LINE
  5
1835B
330
17CD8
100
AcDbEntity
  8
U1
100
AcDbLine
 10
7012.927507899641
 20
8675.743182432324
 30
0.0
 11
7045.32750789964
 21
8675.743182432324
 31
0.0
  0
ARC
  5
1835C
330
17CD8
100
AcDbEntity
  8
U1
100
AcDbCircle
 10
7045.327507899641
 20
8682.043182432321
 30
0.0
 40
6.299999999999272
100
AcDbArc
 50
269.9999999999918
 51
0.0
  0
LINE
  5
1835D
330
17CD8
100
AcDbEntity
  8
U1
100
AcDbLine
 10
7051.62750789964
 20
8682.043182432321
 30
0.0
 11
7051.62750789964
 21
8734.443182432325
 31
0.0
  0
ARC
  5
1835E
330
17CD8
100
AcDbEntity
  8
U1
100
AcDbCircle
 10
7045.327507899641
 20
8734.443182432325
 30
0.0
 40
6.299999999999272
100
AcDbArc
 50
0.0
 51
90.00000000000826
  0
LINE
  5
1835F
330
17CD8
100
AcDbEntity
  8
U1
100
AcDbLine
 10
7045.32750789964
 20
8740.743182432323
 30
0.0
 11
6992.927507899641
 21
8740.743182432323
 31
0.0
  0
ARC
  5
18360
330
17CD8
100
AcDbEntity
  8
U1
100
AcDbCircle
 10
6992.92750789964
 20
8734.443182432325
 30
0.0
 40
6.299999999999272
100
AcDbArc
 50
89.99999999999173
 51
180.0
  0
LINE
  5
18361
330
17CD8
100
AcDbEntity
  8
U1
100
AcDbLine
 10
6986.62750789964
 20
8734.443182432325
 30
0.0
 11
6986.62750789964
 21
8682.043182432327
 31
0.0
  0
ARC
  5
18362
330
17CD8
100
AcDbEntity
  8
U1
100
AcDbCircle
 10
6992.92750789964
 20
6934.443182432325
 30
0.0
 40
6.299999999999272
100
AcDbArc
 50
89.99999999999173
 51
180.0
  0
LINE
  5
18363
330
17CD8
100
AcDbEntity
  8
U1
100
AcDbLine
 10
6992.927507899641
 20
6940.743182432325
 30
0.0
 11
7000.32750789964
 21
6940.743182432325
 31
0.0
  0
ARC
  5
18364
330
17CD8
100
AcDbEntity
  8
U1
100
AcDbCircle
 10
7000.32750789964
 20
6934.443182432325
 30
0.0
 40
6.300000000000181
100
AcDbArc
 50
0.0
 51
90.00000000000826
  0
ARC
  5
18365
330
17CD8
100
AcDbEntity
  8
U1
100
AcDbCircle
 10
7012.927507899641
 20
6934.443182432325
 30
0.0
 40
6.300000000000181
100
AcDbArc
 50
90.0
 51
179.9999999999916
  0
LINE
  5
18366
330
17CD8
100
AcDbEntity
  8
U1
100
AcDbLine
 10
7012.927507899641
 20
6940.743182432325
 30
0.0
 11
7045.32750789964
 21
6940.743182432325
 31
0.0
  0
ARC
  5
18367
330
17CD8
100
AcDbEntity
  8
U1
100
AcDbCircle
 10
7045.327507899641
 20
6934.443182432325
 30
0.0
 40
6.300000000000181
100
AcDbArc
 50
0.0
 51
90.00000000000826
  0
LINE
  5
18368
330
17CD8
100
AcDbEntity
  8
U1
100
AcDbLine
 10
7051.62750789964
 20
6934.443182432325
 30
0.0
 11
7051.62750789964
 21
6882.043182432325
 31
0.0
  0
ARC
  5
18369
330
17CD8
100
AcDbEntity
  8
U1
100
AcDbCircle
 10
7045.327507899641
 20
6882.043182432325
 30
0.0
 40
6.299999999999272
100
AcDbArc
 50
269.9999999999918
 51
0.0
  0
LINE
  5
1836A
330
17CD8
100
AcDbEntity
  8
U1
100
AcDbLine
 10
7045.32750789964
 20
6875.743182432326
 30
0.0
 11
6992.927507899641
 21
6875.743182432326
 31
0.0
  0
ARC
  5
1836B
330
17CD8
100
AcDbEntity
  8
U1
100
AcDbCircle
 10
6992.92750789964
 20
6882.043182432325
 30
0.0
 40
6.299999999999272
100
AcDbArc
 50
180.0
 51
270.0000000000081
  0
LINE
  5
1836C
330
17CD8
100
AcDbEntity
  8
U1
100
AcDbLine
 10
6986.62750789964
 20
6882.043182432325
 30
0.0
 11
6986.62750789964
 21
6934.443182432325
 31
0.0
  0
ARC
  5
1836D
330
17CD8
100
AcDbEntity
  8
U1
100
AcDbCircle
 10
9845.327507899639
 20
6934.443182432325
 30
0.0
 40
6.299999999999272
100
AcDbArc
 50
0.0
 51
90.0
  0
LINE
  5
1836E
330
17CD8
100
AcDbEntity
  8
U1
100
AcDbLine
 10
9845.327507899639
 20
6940.743182432325
 30
0.0
 11
9837.927507899641
 21
6940.743182432325
 31
0.0
  0
ARC
  5
1836F
330
17CD8
100
AcDbEntity
  8
U1
100
AcDbCircle
 10
9837.927507899641
 20
6934.443182432325
 30
0.0
 40
6.300000000000181
100
AcDbArc
 50
90.0
 51
180.0
  0
ARC
  5
18370
330
17CD8
100
AcDbEntity
  8
U1
100
AcDbCircle
 10
9825.32750789964
 20
6934.443182432325
 30
0.0
 40
6.299999999999272
100
AcDbArc
 50
0.0
 51
90.0
  0
LINE
  5
18371
330
17CD8
100
AcDbEntity
  8
U1
100
AcDbLine
 10
9825.32750789964
 20
6940.743182432325
 30
0.0
 11
9792.927507899641
 21
6940.743182432325
 31
0.0
  0
ARC
  5
18372
330
17CD8
100
AcDbEntity
  8
U1
100
AcDbCircle
 10
9792.927507899641
 20
6934.443182432325
 30
0.0
 40
6.300000000000181
100
AcDbArc
 50
90.0
 51
180.0
  0
LINE
  5
18373
330
17CD8
100
AcDbEntity
  8
U1
100
AcDbLine
 10
9786.627507899641
 20
6934.443182432325
 30
0.0
 11
9786.627507899641
 21
6882.043182432325
 31
0.0
  0
ARC
  5
18374
330
17CD8
100
AcDbEntity
  8
U1
100
AcDbCircle
 10
9792.927507899641
 20
6882.043182432325
 30
0.0
 40
6.299999999999272
100
AcDbArc
 50
180.0
 51
270.0
  0
LINE
  5
18375
330
17CD8
100
AcDbEntity
  8
U1
100
AcDbLine
 10
9792.927507899641
 20
6875.743182432326
 30
0.0
 11
9845.327507899639
 21
6875.743182432326
 31
0.0
  0
ARC
  5
18376
330
17CD8
100
AcDbEntity
  8
U1
100
AcDbCircle
 10
9845.327507899639
 20
6882.043182432325
 30
0.0
 40
6.299999999999272
100
AcDbArc
 50
270.0
 51
0.0
  0
LINE
  5
18377
330
17CD8
100
AcDbEntity
  8
U1
100
AcDbLine
 10
9851.627507899641
 20
6882.043182432325
 30
0.0
 11
9851.627507899641
 21
6934.443182432325
 31
0.0
  0
TEXT
  5
18399
330
17CD8
100
AcDbEntity
  8
SUNPOU
100
AcDbText
 10
1915.270134910177
 20
5573.079863703854
 30
0.0
 40
73.84615384615384
  1
/
 41
0.6700000000000001
  7
00
 11
1915.270134910177
 21
5563.2337098577
 31
0.0
100
AcDbText
 73
     1
  0
TEXT
  5
1839A
330
17CD8
100
AcDbEntity
  8
SUNPOU
100
AcDbText
 10
1979.219577864546
 20
5554.618325242314
 30
0.0
 40
73.84615384615384
  1
25
 41
0.6700000000000001
  7
00
 11
1979.219577864546
 21
5544.77217139616
 31
0.0
100
AcDbText
 73
     1
  0
TEXT
  5
1839B
330
17CD8
100
AcDbEntity
  8
SUNPOU
100
AcDbText
 10
830.3109683787502
 20
5563.2337098577
 30
0.0
 40
120.0
  1
基礎断面図
  7
01
 72
     4
 11
1170.31096837875
 21
5623.2337098577
 31
0.0
100
AcDbText
  0
TEXT
  5
1839C
330
17CD8
100
AcDbEntity
  8
SUNPOU
100
AcDbText
 10
1547.161305741721
 20
5575.541402165392
 30
0.0
 40
92.30769230769228
  1
（ S = 　　  ）
 41
0.6700000000000001
  7
00
 11
1547.161305741721
 21
5563.2337098577
 31
0.0
100
AcDbText
 73
     1
  0
TEXT
  5
1839D
330
17CD8
100
AcDbEntity
  8
SUNPOU
100
AcDbText
 10
835.517454237839
 20
5216.479707411743
 30
0.0
 40
89.9993750043402
  1
地耐力   　　　 以上,コンクリート設計基準強度　　　　　以上
  7
01
100
AcDbText
  0
TEXT
  5
1839E
330
17CD8
100
AcDbEntity
  8
SUNPOU
100
AcDbText
 10
1210.473199327232
 20
4528.622564554598
 30
0.0
 40
90.0
  1
その他現地の実情にあわせて設計して下さい。
  7
01
100
AcDbText
  0
TEXT
  5
1839F
330
17CD8
100
AcDbEntity
  8
SUNPOU
100
AcDbText
 10
1210.473199327232
 20
4837.193993126029
 30
0.0
 40
90.0
  1
寒冷地の場合、凍結深度等を考慮し、実情に
  7
01
100
AcDbText
  0
TEXT
  5
183A0
330
17CD8
100
AcDbEntity
  8
SUNPOU
100
AcDbText
 10
1209.775861662921
 20
5216.479707411743
 30
0.0
 40
89.9993750043402
  1
50  N/m
 41
0.6700000000000001
  7
01
100
AcDbText
  0
TEXT
  5
183A1
330
17CD8
100
AcDbEntity
  8
SUNPOU
100
AcDbText
 10
1319.280882903007
 20
5062.193993126031
 30
0.0
 40
89.9993750043402
  1
34 m/s
 41
0.6700000000000001
  7
01
100
AcDbText
  0
TEXT
  5
183A2
330
17CD8
100
AcDbEntity
  8
SUNPOU
100
AcDbText
 10
835.517454237839
 20
5062.193993126031
 30
0.0
 40
89.9993750043402
  1
基準風速   　　 , 地表面粗度区分
  7
01
100
AcDbText
  0
TEXT
  5
183A3
330
17CD8
100
AcDbEntity
  8
SUNPOU
100
AcDbText
 10
1210.473199327232
 20
4682.908278840312
 30
0.0
 40
90.0
  1
あわせて設計して下さい。
  7
01
100
AcDbText
  0
TEXT
  5
183A4
330
17CD8
100
AcDbEntity
  8
SUNPOU
100
AcDbText
 10
704.9538255216082
 20
5405.7337098577
 30
0.0
 40
90.0
  1
<下記条件での参考図>
  7
01
 72
     4
 11
1293.810968378751
 21
5450.733709857701
 31
0.0
100
AcDbText
  0
TEXT
  5
183A5
330
17CD8
100
AcDbEntity
  8
SUNPOU
100
AcDbText
 10
1004.267454237838
 20
4528.622564554598
 30
0.0
 40
90.0
  1
2
 41
0.6700000000000001
  7
01
100
AcDbText
  0
TEXT
  5
183A6
330
17CD8
100
AcDbEntity
  8
SUNPOU
100
AcDbText
 10
893.6335340250961
 20
4528.622564554598
 30
0.0
 40
90.0
  1
注　）
  7
01
100
AcDbText
  0
ARC
  5
183A7
330
17CD8
100
AcDbEntity
  8
SUNPOU
100
AcDbCircle
 10
988.4757281450438
 20
5180.267130853575
 30
0.0
 40
225.0
100
AcDbArc
 50
148.3472725282829
 51
211.652727471717
  0
TEXT
  5
183A8
330
17CD8
100
AcDbEntity
  8
SUNPOU
100
AcDbText
 10
1004.267454237838
 20
4837.193993126029
 30
0.0
 40
90.0
  1
1
 41
0.6700000000000001
  7
01
100
AcDbText
  0
TEXT
  5
183A9
330
17CD8
100
AcDbEntity
  8
SUNPOU
100
AcDbText
 10
893.6335340250961
 20
4837.193993126029
 30
0.0
 40
90.0
  1
注　）
  7
01
100
AcDbText
  0
TEXT
  5
183AA
330
17CD8
100
AcDbEntity
  8
SUNPOU
100
AcDbText
 10
1345.612314448875
 20
5216.479707411743
 30
0.0
 40
71.99950000347218
  1
K
 41
0.6700000000000001
  7
01
100
AcDbText
  0
TEXT
  5
183AB
330
17CD8
100
AcDbEntity
  8
SUNPOU
100
AcDbText
 10
1613.252471177258
 20
5266.668133769229
 30
0.0
 40
46.28539285937498
  1
2
 41
0.6700000000000001
  7
00
100
AcDbText
  0
LINE
  5
183AC
330
17CD8
100
AcDbEntity
  8
SUNPOU
100
AcDbLine
 10
2672.333015804447
 20
5062.193993126031
 30
0.0
 11
2672.333015804447
 21
5145.686356824809
 31
0.0
  0
LINE
  5
183AD
330
17CD8
100
AcDbEntity
  8
SUNPOU
100
AcDbLine
 10
2655.458015804446
 20
5062.193993126031
 30
0.0
 11
2655.458015804446
 21
5145.686356824809
 31
0.0
  0
LINE
  5
183AE
330
17CD8
100
AcDbEntity
  8
SUNPOU
100
AcDbLine
 10
2638.583015804447
 20
5062.193993126031
 30
0.0
 11
2638.583015804447
 21
5145.686356824809
 31
0.0
  0
LINE
  5
183AF
330
17CD8
100
AcDbEntity
  8
SUNPOU
100
AcDbLine
 10
2627.333015804447
 20
5062.193993126028
 30
0.0
 11
2683.583015804447
 21
5062.193993126028
 31
0.0
  0
LINE
  5
183B0
330
17CD8
100
AcDbEntity
  8
SUNPOU
100
AcDbLine
 10
2627.333015804447
 20
5145.686356824809
 30
0.0
 11
2683.583015804447
 21
5145.686356824809
 31
0.0
  0
TEXT
  5
183B1
330
17CD8
100
AcDbEntity
  8
SUNPOU
100
AcDbText
 10
3415.701131914485
 20
5216.479707411743
 30
0.0
 40
89.9993750043402
  1
N/mm
 41
0.6700000000000001
  7
01
100
AcDbText
  0
TEXT
  5
183B2
330
17CD8
100
AcDbEntity
  8
SUNPOU
100
AcDbText
 10
3279.864679128535
 20
5216.479707411743
 30
0.0
 40
89.9993750043402
  1
18
 41
0.6700000000000001
  7
01
100
AcDbText
  0
ARC
  5
183B3
330
17CD8
100
AcDbEntity
  8
SUNPOU
100
AcDbCircle
 10
3889.916011396606
 20
5180.267130853575
 30
0.0
 40
225.0
100
AcDbArc
 50
328.3472725282829
 51
31.65272747171703
  0
TEXT
  5
183B4
330
17CD8
100
AcDbEntity
  8
SUNPOU
100
AcDbText
 10
3720.16561394589
 20
5266.668133769229
 30
0.0
 40
46.28539285937498
  1
2
 41
0.6700000000000001
  7
00
100
AcDbText
  0
TEXT
  5
183B5
330
17CD8
100
AcDbEntity
  8
SUNPOU
100
AcDbText
 10
1866.864007594806
 20
5591.541402165392
 30
0.0
 40
73.84615384615384
  1
1
 41
0.6700000000000001
  7
00
 11
1866.864007594806
 21
5581.695248319238
 31
0.0
100
AcDbText
 73
     1
  0
ENDSEC
  0
SECTION
  2
OBJECTS
  0
DICTIONARY
  5
17CC6
330
0
100
AcDbDictionary
281
     1
  3
ACAD_GROUP
350
17CC7
  3
ACAD_LAYOUT
350
17CD3
  3
ACAD_MLINESTYLE
350
17CD0
  3
ACAD_PLOTSETTINGS
350
17CD2
  3
ACAD_PLOTSTYLENAME
350
17CC8
  3
AcDbVariableDictionary
350
183B6
  0
DICTIONARY
  5
17CC7
102
{ACAD_REACTORS
330
17CC6
102
}
330
17CC6
100
AcDbDictionary
281
     1
  0
DICTIONARY
  5
17CD3
102
{ACAD_REACTORS
330
17CC6
102
}
330
17CC6
100
AcDbDictionary
281
     1
  3
Model
350
17CDB
  3
ﾚｲｱｳﾄ1
350
17CD7
  0
DICTIONARY
  5
17CD0
102
{ACAD_REACTORS
330
17CC6
102
}
330
17CC6
100
AcDbDictionary
281
     1
  3
Standard
350
17CD1
  0
DICTIONARY
  5
17CD2
102
{ACAD_REACTORS
330
17CC6
102
}
330
17CC6
100
AcDbDictionary
281
     1
  0
ACDBDICTIONARYWDFLT
  5
17CC8
102
{ACAD_REACTORS
330
17CC6
102
}
330
17CC6
100
AcDbDictionary
281
     1
  3
Normal
350
17CC9
100
AcDbDictionaryWithDefault
340
17CC9
  0
DICTIONARY
  5
183B6
102
{ACAD_REACTORS
330
17CC6
102
}
330
17CC6
100
AcDbDictionary
281
     1
  3
DIMASSOC
350
183B7
  0
LAYOUT
  5
17CDB
102
{ACAD_REACTORS
330
17CD3
102
}
330
17CD3
100
AcDbPlotSettings
  1

  2
Muratec V-1200 Is@Web Printer
  4

  6

 40
0.0
 41
0.0
 42
0.0
 43
0.0
 44
0.0
 45
0.0
 46
0.0
 47
0.0
 48
0.0
 49
0.0
140
0.0
141
0.0
142
1.0
143
1.0
 70
  1712
 72
     0
 73
     0
 74
     0
  7

 75
     0
147
1.0
148
0.0
149
0.0
100
AcDbLayout
  1
Model
 70
     1
 71
     0
 10
0.0
 20
0.0
 11
12.0
 21
9.0
 12
0.0
 22
0.0
 32
0.0
 14
0.0
 24
0.0
 34
0.0
 15
0.0
 25
0.0
 35
0.0
146
0.0
 13
0.0
 23
0.0
 33
0.0
 16
1.0
 26
0.0
 36
0.0
 17
0.0
 27
1.0
 37
0.0
 76
     0
330
17CD8
  0
LAYOUT
  5
17CD7
102
{ACAD_REACTORS
330
17CD3
102
}
330
17CD3
100
AcDbPlotSettings
  1

  2
Muratec V-1200 Is@Web Printer
  4

  6

 40
0.0
 41
0.0
 42
0.0
 43
0.0
 44
0.0
 45
0.0
 46
0.0
 47
0.0
 48
0.0
 49
0.0
140
0.0
141
0.0
142
1.0
143
1.0
 70
   688
 72
     0
 73
     0
 74
     5
  7

 75
    16
147
1.0
148
0.0
149
0.0
100
AcDbLayout
  1
ﾚｲｱｳﾄ1
 70
     0
 71
     1
 10
0.0
 20
0.0
 11
12.0
 21
9.0
 12
0.0
 22
0.0
 32
0.0
 14
1.000000000000000E+20
 24
1.000000000000000E+20
 34
1.000000000000000E+20
 15
-1.000000000000000E+20
 25
-1.000000000000000E+20
 35
-1.000000000000000E+20
146
0.0
 13
0.0
 23
0.0
 33
0.0
 16
1.0
 26
0.0
 36
0.0
 17
0.0
 27
1.0
 37
0.0
 76
     0
330
17CD4
  0
MLINESTYLE
  5
17CD1
102
{ACAD_REACTORS
330
17CD0
102
}
330
17CD0
100
AcDbMlineStyle
  2
STANDARD
 70
     0
  3

 62
   256
 51
90.0
 52
90.0
 71
     2
 49
0.5
 62
   256
  6
BYLAYER
 49
-0.5
 62
   256
  6
BYLAYER
  0
ACDBPLACEHOLDER
  5
17CC9
102
{ACAD_REACTORS
330
17CC8
102
}
330
17CC8
  0
DICTIONARYVAR
  5
183B7
102
{ACAD_REACTORS
330
183B6
102
}
330
183B6
100
DictionaryVariables
280
     0
  1
1
  0
ENDSEC
  0
EOF
