  0
SECTION
  2
HEADER
  9
$ACADVER
  1
AC1015
  9
$ACADMAINTVER
 70
    13
  9
$DWGCODEPAGE
  3
ANSI_932
  9
$INSBASE
 10
267.0
 20
194.8999999999998
 30
0.0
  9
$EXTMIN
 10
433.9966216520333
 20
163.6908237492789
 30
-0.0000000000000053
  9
$EXTMAX
 10
16382.6660542547
 20
11242.27663824599
 30
0.0000000000000099
  9
$LIMMIN
 10
0.0
 20
0.0
  9
$LIMMAX
 10
16800.0
 20
11880.0
  9
$ORTHOMODE
 70
     0
  9
$REGENMODE
 70
     1
  9
$FILLMODE
 70
     1
  9
$QTEXTMODE
 70
     0
  9
$MIRRTEXT
 70
     0
  9
$LTSCALE
 40
40.0
  9
$ATTMODE
 70
     1
  9
$TEXTSIZE
 40
0.2
  9
$TRACEWID
 40
0.05
  9
$TEXTSTYLE
  7
00
  9
$CLAYER
  8
SUNPOU
  9
$CELTYPE
  6
ByLayer
  9
$CECOLOR
 62
   256
  9
$CELTSCALE
 40
1.0
  9
$DISPSILH
 70
     0
  9
$DIMSCALE
 40
30.0
  9
$DIMASZ
 40
0.5
  9
$DIMEXO
 40
1.0
  9
$DIMDLI
 40
7.0
  9
$DIMRND
 40
0.0
  9
$DIMDLE
 40
3.0
  9
$DIMEXE
 40
1.5
  9
$DIMTP
 40
0.0
  9
$DIMTM
 40
0.0
  9
$DIMTXT
 40
3.0
  9
$DIMCEN
 40
0.0
  9
$DIMTSZ
 40
0.0
  9
$DIMTOL
 70
     0
  9
$DIMLIM
 70
     0
  9
$DIMTIH
 70
     0
  9
$DIMTOH
 70
     0
  9
$DIMSE1
 70
     0
  9
$DIMSE2
 70
     0
  9
$DIMTAD
 70
     1
  9
$DIMZIN
 70
     8
  9
$DIMBLK
  1

  9
$DIMASO
 70
     1
  9
$DIMSHO
 70
     0
  9
$DIMPOST
  1

  9
$DIMAPOST
  1

  9
$DIMALT
 70
     0
  9
$DIMALTD
 70
     2
  9
$DIMALTF
 40
25.4
  9
$DIMLFAC
 40
0.625
  9
$DIMTOFL
 70
     1
  9
$DIMTVP
 40
0.0
  9
$DIMTIX
 70
     0
  9
$DIMSOXD
 70
     0
  9
$DIMSAH
 70
     1
  9
$DIMBLK1
  1
DOT
  9
$DIMBLK2
  1
DOT
  9
$DIMSTYLE
  2
SUNPOU_図面名
  9
$DIMCLRD
 70
   256
  9
$DIMCLRE
 70
   256
  9
$DIMCLRT
 70
   256
  9
$DIMTFAC
 40
1.0
  9
$DIMGAP
 40
1.5
  9
$DIMJUST
 70
     0
  9
$DIMSD1
 70
     0
  9
$DIMSD2
 70
     0
  9
$DIMTOLJ
 70
     1
  9
$DIMTZIN
 70
     0
  9
$DIMALTZ
 70
     0
  9
$DIMALTTZ
 70
     0
  9
$DIMUPT
 70
     0
  9
$DIMDEC
 70
     4
  9
$DIMTDEC
 70
     4
  9
$DIMALTU
 70
     2
  9
$DIMALTTD
 70
     2
  9
$DIMTXSTY
  7
STANDARD
  9
$DIMAUNIT
 70
     0
  9
$DIMADEC
 70
     0
  9
$DIMALTRND
 40
0.0
  9
$DIMAZIN
 70
     0
  9
$DIMDSEP
 70
    46
  9
$DIMATFIT
 70
     3
  9
$DIMFRAC
 70
     0
  9
$DIMLDRBLK
  1
DOT
  9
$DIMLUNIT
 70
     2
  9
$DIMLWD
 70
    -2
  9
$DIMLWE
 70
    -2
  9
$DIMTMOVE
 70
     0
  9
$LUNITS
 70
     2
  9
$LUPREC
 70
     2
  9
$SKETCHINC
 40
0.1
  9
$FILLETRAD
 40
0.0
  9
$AUNITS
 70
     0
  9
$AUPREC
 70
     0
  9
$MENU
  1
A:\TIGER\MENU\TIGER
  9
$ELEVATION
 40
0.0
  9
$PELEVATION
 40
0.0
  9
$THICKNESS
 40
0.0
  9
$LIMCHECK
 70
     0
  9
$CHAMFERA
 40
0.0
  9
$CHAMFERB
 40
0.0
  9
$CHAMFERC
 40
0.0
  9
$CHAMFERD
 40
0.0
  9
$SKPOLY
 70
     0
  9
$TDCREATE
 40
2450266.571064815
  9
$TDUCREATE
 40
2450266.196064815
  9
$TDUPDATE
 40
2456331.614452754
  9
$TDUUPDATE
 40
2456331.239452754
  9
$TDINDWG
 40
0.1765829167
  9
$TDUSRTIMER
 40
0.1765827431
  9
$USRTIMER
 70
     1
  9
$ANGBASE
 50
0.0
  9
$ANGDIR
 70
     0
  9
$PDMODE
 70
     0
  9
$PDSIZE
 40
0.0
  9
$PLINEWID
 40
0.0
  9
$SPLFRAME
 70
     0
  9
$SPLINETYPE
 70
     6
  9
$SPLINESEGS
 70
     8
  9
$HANDSEED
  5
19712
  9
$SURFTAB1
 70
     6
  9
$SURFTAB2
 70
     6
  9
$SURFTYPE
 70
     6
  9
$SURFU
 70
     6
  9
$SURFV
 70
     6
  9
$UCSBASE
  2

  9
$UCSNAME
  2

  9
$UCSORG
 10
0.0
 20
0.0
 30
0.0
  9
$UCSXDIR
 10
1.0
 20
0.0
 30
0.0
  9
$UCSYDIR
 10
0.0
 20
1.0
 30
0.0
  9
$UCSORTHOREF
  2

  9
$UCSORTHOVIEW
 70
     0
  9
$UCSORGTOP
 10
0.0
 20
0.0
 30
0.0
  9
$UCSORGBOTTOM
 10
0.0
 20
0.0
 30
0.0
  9
$UCSORGLEFT
 10
0.0
 20
0.0
 30
0.0
  9
$UCSORGRIGHT
 10
0.0
 20
0.0
 30
0.0
  9
$UCSORGFRONT
 10
0.0
 20
0.0
 30
0.0
  9
$UCSORGBACK
 10
0.0
 20
0.0
 30
0.0
  9
$PUCSBASE
  2

  9
$PUCSNAME
  2

  9
$PUCSORG
 10
0.0
 20
0.0
 30
0.0
  9
$PUCSXDIR
 10
1.0
 20
0.0
 30
0.0
  9
$PUCSYDIR
 10
0.0
 20
1.0
 30
0.0
  9
$PUCSORTHOREF
  2

  9
$PUCSORTHOVIEW
 70
     0
  9
$PUCSORGTOP
 10
0.0
 20
0.0
 30
0.0
  9
$PUCSORGBOTTOM
 10
0.0
 20
0.0
 30
0.0
  9
$PUCSORGLEFT
 10
0.0
 20
0.0
 30
0.0
  9
$PUCSORGRIGHT
 10
0.0
 20
0.0
 30
0.0
  9
$PUCSORGFRONT
 10
0.0
 20
0.0
 30
0.0
  9
$PUCSORGBACK
 10
0.0
 20
0.0
 30
0.0
  9
$USERI1
 70
     3
  9
$USERI2
 70
     0
  9
$USERI3
 70
     0
  9
$USERI4
 70
     0
  9
$USERI5
 70
  1103
  9
$USERR1
 40
0.0
  9
$USERR2
 40
1.0
  9
$USERR3
 40
0.0
  9
$USERR4
 40
0.0
  9
$USERR5
 40
0.0
  9
$WORLDVIEW
 70
     1
  9
$SHADEDGE
 70
     3
  9
$SHADEDIF
 70
    70
  9
$TILEMODE
 70
     1
  9
$MAXACTVP
 70
    16
  9
$PINSBASE
 10
0.0
 20
0.0
 30
0.0
  9
$PLIMCHECK
 70
     0
  9
$PEXTMIN
 10
1.000000000000000E+20
 20
1.000000000000000E+20
 30
1.000000000000000E+20
  9
$PEXTMAX
 10
-1.000000000000000E+20
 20
-1.000000000000000E+20
 30
-1.000000000000000E+20
  9
$PLIMMIN
 10
0.0
 20
0.0
  9
$PLIMMAX
 10
12.0
 20
9.0
  9
$UNITMODE
 70
     0
  9
$VISRETAIN
 70
     0
  9
$PLINEGEN
 70
     1
  9
$PSLTSCALE
 70
     0
  9
$TREEDEPTH
 70
  3020
  9
$CMLSTYLE
  2
Standard
  9
$CMLJUST
 70
     0
  9
$CMLSCALE
 40
1.0
  9
$PROXYGRAPHICS
 70
     1
  9
$MEASUREMENT
 70
     0
  9
$CELWEIGHT
370
    -1
  9
$ENDCAPS
280
     0
  9
$JOINSTYLE
280
     0
  9
$LWDISPLAY
290
     0
  9
$INSUNITS
 70
     0
  9
$HYPERLINKBASE
  1

  9
$STYLESHEET
  1

  9
$XEDIT
290
     1
  9
$CEPSNTYPE
380
     0
  9
$PSTYLEMODE
290
     1
  9
$FINGERPRINTGUID
  2
{FFF33D09-C195-4459-A5B8-417C35CF5AB2}
  9
$VERSIONGUID
  2
{7450C90E-8450-4735-BE6D-17C9CDE50208}
  9
$EXTNAMES
290
     1
  9
$PSVPSCALE
 40
0.0
  9
$OLESTARTUP
290
     0
  0
ENDSEC
  0
SECTION
  2
CLASSES
  0
CLASS
  1
ACDBDICTIONARYWDFLT
  2
AcDbDictionaryWithDefault
  3
AutoCAD 2000
 90
        0
280
     0
281
     0
  0
CLASS
  1
ACDBPLACEHOLDER
  2
AcDbPlaceHolder
  3
AutoCAD 2000
 90
        0
280
     0
281
     0
  0
CLASS
  1
LAYOUT
  2
AcDbLayout
  3
AutoCAD 2000
 90
        0
280
     0
281
     0
  0
CLASS
  1
DICTIONARYVAR
  2
AcDbDictionaryVar
  3
AutoCAD 2000
 90
        0
280
     0
281
     0
  0
ENDSEC
  0
SECTION
  2
TABLES
  0
TABLE
  2
VPORT
  5
1902A
330
0
100
AcDbSymbolTable
 70
     2
  0
VPORT
  5
19711
330
1902A
100
AcDbSymbolTableRecord
100
AcDbViewportTableRecord
  2
*Active
 70
     0
 10
0.0
 20
0.0
 11
1.0
 21
1.0
 12
8408.331337953368
 22
5702.983730997637
 13
0.0
 23
0.0
 14
1.0
 24
1.0
 15
0.0
 25
0.0
 16
0.0
 26
0.0
 36
1.0
 17
0.0
 27
0.0
 37
0.0
 40
12985.73988638911
 41
1.236040609137055
 42
50.0
 43
0.0
 44
0.0
 50
0.0
 51
0.0
 71
     0
 72
 10000
 73
     1
 74
     0
 75
     0
 76
     0
 77
     0
 78
     0
281
     0
 65
     1
110
0.0
120
0.0
130
0.0
111
1.0
121
0.0
131
0.0
112
0.0
122
1.0
132
0.0
 79
     0
146
0.0
  0
ENDTAB
  0
TABLE
  2
LTYPE
  5
19027
330
0
100
AcDbSymbolTable
 70
     5
  0
LTYPE
  5
19035
330
19027
100
AcDbSymbolTableRecord
100
AcDbLinetypeTableRecord
  2
ByBlock
 70
     0
  3

 72
    65
 73
     0
 40
0.0
  0
LTYPE
  5
19036
330
19027
100
AcDbSymbolTableRecord
100
AcDbLinetypeTableRecord
  2
ByLayer
 70
     0
  3

 72
    65
 73
     0
 40
0.0
  0
LTYPE
  5
19037
330
19027
100
AcDbSymbolTableRecord
100
AcDbLinetypeTableRecord
  2
CONTINUOUS
 70
     0
  3
実線
 72
    65
 73
     0
 40
0.0
  0
LTYPE
  5
19047
330
19027
100
AcDbSymbolTableRecord
100
AcDbLinetypeTableRecord
  2
1PL-LL
 70
     0
  3

 72
    65
 73
     4
 40
106.0
 49
100.0
 74
     0
 49
-2.0
 74
     0
 49
2.0
 74
     0
 49
-2.0
 74
     0
  0
LTYPE
  5
19048
330
19027
100
AcDbSymbolTableRecord
100
AcDbLinetypeTableRecord
  2
1PL-M
 70
     0
  3

 72
    65
 73
     4
 40
15.0
 49
12.0
 74
     0
 49
-1.0
 74
     0
 49
1.0
 74
     0
 49
-1.0
 74
     0
  0
LTYPE
  5
19049
330
19027
100
AcDbSymbolTableRecord
100
AcDbLinetypeTableRecord
  2
2PL-L
 70
     0
  3

 72
    65
 73
     6
 40
60.0
 49
50.0
 74
     0
 49
-2.0
 74
     0
 49
2.0
 74
     0
 49
-2.0
 74
     0
 49
2.0
 74
     0
 49
-2.0
 74
     0
  0
LTYPE
  5
1904A
330
19027
100
AcDbSymbolTableRecord
100
AcDbLinetypeTableRecord
  2
1PL-12
 70
     0
  3

 72
    65
 73
     4
 40
15.0
 49
12.0
 74
     0
 49
-1.0
 74
     0
 49
1.0
 74
     0
 49
-1.0
 74
     0
  0
ENDTAB
  0
TABLE
  2
LAYER
  5
19024
330
0
100
AcDbSymbolTable
 70
    19
  0
LAYER
  5
19032
330
19024
100
AcDbSymbolTableRecord
100
AcDbLayerTableRecord
  2
0
 70
     0
 62
     7
  6
CONTINUOUS
370
    -3
390
19031
  0
LAYER
  5
19044
330
19024
100
AcDbSymbolTableRecord
100
AcDbLayerTableRecord
  2
SUNPOU
 70
     0
 62
     4
  6
CONTINUOUS
370
    -3
390
19031
  0
LAYER
  5
1904B
330
19024
100
AcDbSymbolTableRecord
100
AcDbLayerTableRecord
  2
U1
 70
     0
 62
     3
  6
CONTINUOUS
370
    -3
390
19031
  0
LAYER
  5
1904C
330
19024
100
AcDbSymbolTableRecord
100
AcDbLayerTableRecord
  2
U3
 70
     0
 62
     6
  6
CONTINUOUS
370
    -3
390
19031
  0
LAYER
  5
1904D
330
19024
100
AcDbSymbolTableRecord
100
AcDbLayerTableRecord
  2
HIKIDASHI
 70
     0
 62
     6
  6
CONTINUOUS
370
    -3
390
19031
  0
LAYER
  5
1904E
330
19024
100
AcDbSymbolTableRecord
100
AcDbLayerTableRecord
  2
1PL-M1
 70
     0
 62
     6
  6
1PL-M
370
    -3
390
19031
  0
LAYER
  5
1904F
330
19024
100
AcDbSymbolTableRecord
100
AcDbLayerTableRecord
  2
NAME
 70
     0
 62
    20
  6
CONTINUOUS
370
    -3
390
19031
  0
LAYER
  5
19050
330
19024
100
AcDbSymbolTableRecord
100
AcDbLayerTableRecord
  2
FILENAME
 70
     0
 62
     7
  6
CONTINUOUS
370
    -3
390
19031
  0
LAYER
  5
19051
330
19024
100
AcDbSymbolTableRecord
100
AcDbLayerTableRecord
  2
CENTER
 70
     0
 62
     6
  6
1PL-LL
370
    -3
390
19031
  0
LAYER
  5
19052
330
19024
100
AcDbSymbolTableRecord
100
AcDbLayerTableRecord
  2
KISO
 70
     0
 62
     2
  6
CONTINUOUS
370
    -3
390
19031
  0
LAYER
  5
19053
330
19024
100
AcDbSymbolTableRecord
100
AcDbLayerTableRecord
  2
YANE
 70
     0
 62
     1
  6
1PL-12
370
    -3
390
19031
  0
LAYER
  5
19054
330
19024
100
AcDbSymbolTableRecord
100
AcDbLayerTableRecord
  2
HATCH
 70
     0
 62
     1
  6
CONTINUOUS
370
    -3
390
19031
  0
LAYER
  5
19055
330
19024
100
AcDbSymbolTableRecord
100
AcDbLayerTableRecord
  2
HASHIRA
 70
     0
 62
     3
  6
CONTINUOUS
370
    -3
390
19031
  0
LAYER
  5
19056
330
19024
100
AcDbSymbolTableRecord
100
AcDbLayerTableRecord
  2
TEKKIN
 70
     0
 62
     2
  6
CONTINUOUS
370
    -3
390
19031
  0
LAYER
  5
19057
330
19024
100
AcDbSymbolTableRecord
100
AcDbLayerTableRecord
  2
DOMAKON
 70
     0
 62
     2
  6
CONTINUOUS
370
    -3
390
19031
  0
LAYER
  5
19058
330
19024
100
AcDbSymbolTableRecord
100
AcDbLayerTableRecord
  2
YODOROGO
 70
     0
 62
   130
  6
CONTINUOUS
370
    -3
390
19031
  0
LAYER
  5
19059
330
19024
100
AcDbSymbolTableRecord
100
AcDbLayerTableRecord
  2
WAKUSEN-01
 70
     0
 62
    50
  6
CONTINUOUS
370
    -3
390
19031
  0
LAYER
  5
1905A
330
19024
100
AcDbSymbolTableRecord
100
AcDbLayerTableRecord
  2
WAKUSEN-02
 70
     0
 62
   130
  6
CONTINUOUS
370
    -3
390
19031
  0
LAYER
  5
1905B
330
19024
100
AcDbSymbolTableRecord
100
AcDbLayerTableRecord
  2
WAKUMOJI-01
 70
     0
 62
   130
  6
CONTINUOUS
370
    -3
390
19031
  0
ENDTAB
  0
TABLE
  2
STYLE
  5
19025
330
0
100
AcDbSymbolTable
 70
     5
  0
STYLE
  5
19033
330
19025
100
AcDbSymbolTableRecord
100
AcDbTextStyleTableRecord
  2
STANDARD
 70
     0
 40
3.0
 41
1.0
 50
0.0
 71
     0
 42
0.2
  3
ROMANS
  4
EXTFONT
  0
STYLE
  5
19045
330
19025
100
AcDbSymbolTableRecord
100
AcDbTextStyleTableRecord
  2
00
 70
     0
 40
0.0
 41
0.6666666666666666
 50
0.0
 71
     0
 42
0.2
  3
ROMANS
  4
BIGFONT
  0
STYLE
  5
1905C
330
19025
100
AcDbSymbolTableRecord
100
AcDbTextStyleTableRecord
  2
01
 70
     0
 40
3.0
 41
1.0
 50
0.0
 71
     0
 42
0.2
  3
ROMANS
  4
BIGFONT
  0
STYLE
  5
1905D
330
19025
100
AcDbSymbolTableRecord
100
AcDbTextStyleTableRecord
  2
WAKUMOJI
 70
     0
 40
3.0
 41
1.0
 50
0.0
 71
     0
 42
3.0
  3
SIMPLEX
  4
BIGFONT
  0
STYLE
  5
1905E
330
19025
100
AcDbSymbolTableRecord
100
AcDbTextStyleTableRecord
  2
FILENAME
 70
     0
 40
100.0
 41
1.0
 50
0.0
 71
     0
 42
100.0
  3
romans
  4
bigfont
  0
ENDTAB
  0
TABLE
  2
VIEW
  5
19028
330
0
100
AcDbSymbolTable
 70
     0
  0
ENDTAB
  0
TABLE
  2
UCS
  5
19029
330
0
100
AcDbSymbolTable
 70
     0
  0
ENDTAB
  0
TABLE
  2
APPID
  5
1902B
330
0
100
AcDbSymbolTable
 70
     4
  0
APPID
  5
19034
330
1902B
100
AcDbSymbolTableRecord
100
AcDbRegAppTableRecord
  2
ACAD
 70
     0
  0
APPID
  5
1905F
330
1902B
100
AcDbSymbolTableRecord
100
AcDbRegAppTableRecord
  2
AUTOCAD_POSTSCRIPT_FIGURE
 70
     0
  0
APPID
  5
19060
330
1902B
100
AcDbSymbolTableRecord
100
AcDbRegAppTableRecord
  2
ACAD_EXEMPT_FROM_CAD_STANDARDS
 70
     0
  0
APPID
  5
19061
330
1902B
100
AcDbSymbolTableRecord
100
AcDbRegAppTableRecord
  2
ACAD_PSEXT
 70
     0
  0
ENDTAB
  0
TABLE
  2
DIMSTYLE
  5
1902C
330
0
100
AcDbSymbolTable
 70
     1
100
AcDbDimStyleTable
 71
     0
  0
DIMSTYLE
105
19062
330
1902C
100
AcDbSymbolTableRecord
100
AcDbDimStyleTableRecord
  2
SUNPOU_図面名
 70
     0
 40
30.0
 41
0.5
 42
1.0
 43
7.0
 44
1.5
 46
3.0
 73
     0
 74
     0
 77
     1
 78
     8
140
3.0
141
0.0
147
1.5
172
     1
173
     1
176
   256
177
   256
178
   256
271
     2
272
     2
279
     2
284
     8
285
     8
286
     8
340
19045
  0
ENDTAB
  0
TABLE
  2
BLOCK_RECORD
  5
19023
330
0
100
AcDbSymbolTable
 70
    29
  0
BLOCK_RECORD
  5
19040
330
19023
100
AcDbSymbolTableRecord
100
AcDbBlockTableRecord
  2
*Model_Space
340
19043
  0
BLOCK_RECORD
  5
1903C
330
19023
100
AcDbSymbolTableRecord
100
AcDbBlockTableRecord
  2
*Paper_Space
340
1903F
  0
BLOCK_RECORD
  5
19067
330
19023
100
AcDbSymbolTableRecord
100
AcDbBlockTableRecord
  2
$MODEL_SPACE
340
0
  0
BLOCK_RECORD
  5
1906A
330
19023
100
AcDbSymbolTableRecord
100
AcDbBlockTableRecord
  2
$PAPER_SPACE
340
0
  0
BLOCK_RECORD
  5
1906D
330
19023
100
AcDbSymbolTableRecord
100
AcDbBlockTableRecord
  2
DOT
340
0
  0
BLOCK_RECORD
  5
19075
330
19023
100
AcDbSymbolTableRecord
100
AcDbBlockTableRecord
  2
*U3
340
0
  0
BLOCK_RECORD
  5
19079
330
19023
100
AcDbSymbolTableRecord
100
AcDbBlockTableRecord
  2
*U4
340
0
  0
BLOCK_RECORD
  5
1907D
330
19023
100
AcDbSymbolTableRecord
100
AcDbBlockTableRecord
  2
*U5
340
0
  0
BLOCK_RECORD
  5
19081
330
19023
100
AcDbSymbolTableRecord
100
AcDbBlockTableRecord
  2
*U6
340
0
  0
BLOCK_RECORD
  5
19085
330
19023
100
AcDbSymbolTableRecord
100
AcDbBlockTableRecord
  2
*U7
340
0
  0
BLOCK_RECORD
  5
19089
330
19023
100
AcDbSymbolTableRecord
100
AcDbBlockTableRecord
  2
*U8
340
0
  0
BLOCK_RECORD
  5
1908D
330
19023
100
AcDbSymbolTableRecord
100
AcDbBlockTableRecord
  2
*U9
340
0
  0
BLOCK_RECORD
  5
19091
330
19023
100
AcDbSymbolTableRecord
100
AcDbBlockTableRecord
  2
*U10
340
0
  0
BLOCK_RECORD
  5
19095
330
19023
100
AcDbSymbolTableRecord
100
AcDbBlockTableRecord
  2
*U11
340
0
  0
BLOCK_RECORD
  5
19099
330
19023
100
AcDbSymbolTableRecord
100
AcDbBlockTableRecord
  2
*U12
340
0
  0
BLOCK_RECORD
  5
1909D
330
19023
100
AcDbSymbolTableRecord
100
AcDbBlockTableRecord
  2
*U13
340
0
  0
BLOCK_RECORD
  5
190A1
330
19023
100
AcDbSymbolTableRecord
100
AcDbBlockTableRecord
  2
*U14
340
0
  0
BLOCK_RECORD
  5
190A5
330
19023
100
AcDbSymbolTableRecord
100
AcDbBlockTableRecord
  2
*U15
340
0
  0
BLOCK_RECORD
  5
190A9
330
19023
100
AcDbSymbolTableRecord
100
AcDbBlockTableRecord
  2
*U16
340
0
  0
BLOCK_RECORD
  5
190AD
330
19023
100
AcDbSymbolTableRecord
100
AcDbBlockTableRecord
  2
*U17
340
0
  0
BLOCK_RECORD
  5
190B1
330
19023
100
AcDbSymbolTableRecord
100
AcDbBlockTableRecord
  2
*U18
340
0
  0
BLOCK_RECORD
  5
190B5
330
19023
100
AcDbSymbolTableRecord
100
AcDbBlockTableRecord
  2
*U19
340
0
  0
BLOCK_RECORD
  5
190B9
330
19023
100
AcDbSymbolTableRecord
100
AcDbBlockTableRecord
  2
*U20
340
0
  0
BLOCK_RECORD
  5
190BD
330
19023
100
AcDbSymbolTableRecord
100
AcDbBlockTableRecord
  2
*U21
340
0
  0
BLOCK_RECORD
  5
190C1
330
19023
100
AcDbSymbolTableRecord
100
AcDbBlockTableRecord
  2
*U22
340
0
  0
BLOCK_RECORD
  5
190C5
330
19023
100
AcDbSymbolTableRecord
100
AcDbBlockTableRecord
  2
*U23
340
0
  0
BLOCK_RECORD
  5
190C9
330
19023
100
AcDbSymbolTableRecord
100
AcDbBlockTableRecord
  2
*U24
340
0
  0
BLOCK_RECORD
  5
190CD
330
19023
100
AcDbSymbolTableRecord
100
AcDbBlockTableRecord
  2
*U25
340
0
  0
BLOCK_RECORD
  5
190D1
330
19023
100
AcDbSymbolTableRecord
100
AcDbBlockTableRecord
  2
*U26
340
0
  0
BLOCK_RECORD
  5
190D5
330
19023
100
AcDbSymbolTableRecord
100
AcDbBlockTableRecord
  2
*U27
340
0
  0
ENDTAB
  0
ENDSEC
  0
SECTION
  2
BLOCKS
  0
BLOCK
  5
19041
330
19040
100
AcDbEntity
  8
0
100
AcDbBlockBegin
  2
*Model_Space
 70
     0
 10
0.0
 20
0.0
 30
0.0
  3
*Model_Space
  1

  0
ENDBLK
  5
19042
330
19040
100
AcDbEntity
  8
0
100
AcDbBlockEnd
  0
BLOCK
  5
1903D
330
1903C
100
AcDbEntity
 67
     1
  8
0
100
AcDbBlockBegin
  2
*Paper_Space
 70
     0
 10
0.0
 20
0.0
 30
0.0
  3
*Paper_Space
  1

  0
ENDBLK
  5
1903E
330
1903C
100
AcDbEntity
 67
     1
  8
0
100
AcDbBlockEnd
  0
BLOCK
  5
19068
330
19067
100
AcDbEntity
  8
0
100
AcDbBlockBegin
  2
$MODEL_SPACE
 70
     0
 10
0.0
 20
0.0
 30
0.0
  3
$MODEL_SPACE
  1

  0
ENDBLK
  5
19069
330
19067
100
AcDbEntity
  8
0
100
AcDbBlockEnd
  0
BLOCK
  5
1906B
330
1906A
100
AcDbEntity
  8
0
100
AcDbBlockBegin
  2
$PAPER_SPACE
 70
     0
 10
0.0
 20
0.0
 30
0.0
  3
$PAPER_SPACE
  1

  0
ENDBLK
  5
1906C
330
1906A
100
AcDbEntity
  8
0
100
AcDbBlockEnd
  0
BLOCK
  5
1906E
330
1906D
100
AcDbEntity
  8
0
100
AcDbBlockBegin
  2
DOT
 70
     0
 10
0.0
 20
0.0
 30
0.0
  3
DOT
  1

  0
LWPOLYLINE
  5
1906F
330
1906D
100
AcDbEntity
  8
0
  6
ByBlock
 62
     0
100
AcDbPolyline
 90
        2
 70
     1
 43
0.75
 10
-0.375
 20
0.0
 42
1.0
 10
0.375
 20
0.0
 42
1.0
  0
LINE
  5
19073
330
1906D
100
AcDbEntity
  8
0
  6
ByBlock
 62
     0
100
AcDbLine
 10
-0.75
 20
0.0
 30
0.0
 11
-1.5
 21
0.0
 31
0.0
  0
ENDBLK
  5
19074
330
1906D
100
AcDbEntity
  8
0
100
AcDbBlockEnd
  0
BLOCK
  5
19076
330
19075
100
AcDbEntity
  8
0
100
AcDbBlockBegin
  2
*U3
 70
     1
 10
0.0
 20
0.0
 30
0.0
  3
*U3
  1

  0
TEXT
  5
19077
330
19075
100
AcDbEntity
  8
SUNPOU
100
AcDbText
 10
3378.619628952101
 20
3332.183932023017
 30
0.0
 40
90.0
  1
300
 41
0.6666666666666666
  7
00
100
AcDbText
  0
ENDBLK
  5
19078
330
19075
100
AcDbEntity
  8
0
100
AcDbBlockEnd
  0
BLOCK
  5
1907A
330
19079
100
AcDbEntity
  8
0
100
AcDbBlockBegin
  2
*U4
 70
     1
 10
0.0
 20
0.0
 30
0.0
  3
*U4
  1

  0
TEXT
  5
1907B
330
19079
100
AcDbEntity
  8
SUNPOU
100
AcDbText
 10
2698.333796409537
 20
2094.469646308733
 30
0.0
 40
90.0
  1
380
 50
90.0
 41
0.6666666666666666
  7
00
100
AcDbText
  0
ENDBLK
  5
1907C
330
19079
100
AcDbEntity
  8
0
100
AcDbBlockEnd
  0
BLOCK
  5
1907E
330
1907D
100
AcDbEntity
  8
0
100
AcDbBlockBegin
  2
*U5
 70
     1
 10
0.0
 20
0.0
 30
0.0
  3
*U5
  1

  0
TEXT
  5
1907F
330
1907D
100
AcDbEntity
  8
SUNPOU
100
AcDbText
 10
3617.191057523529
 20
1424.183932023016
 30
0.0
 40
90.0
  1
600
 41
0.6666666666666666
  7
00
100
AcDbText
  0
ENDBLK
  5
19080
330
1907D
100
AcDbEntity
  8
0
100
AcDbBlockEnd
  0
BLOCK
  5
19082
330
19081
100
AcDbEntity
  8
0
100
AcDbBlockBegin
  2
*U6
 70
     1
 10
0.0
 20
0.0
 30
0.0
  3
*U6
  1

  0
TEXT
  5
19083
330
19081
100
AcDbEntity
  8
SUNPOU
100
AcDbText
 10
12389.21703198605
 20
6477.143931901827
 30
0.0
 40
90.0
  1
1800
 50
90.0
 41
0.6666666666666666
  7
00
100
AcDbText
  0
ENDBLK
  5
19084
330
19081
100
AcDbEntity
  8
0
100
AcDbBlockEnd
  0
BLOCK
  5
19086
330
19085
100
AcDbEntity
  8
0
100
AcDbBlockBegin
  2
*U7
 70
     1
 10
0.0
 20
0.0
 30
0.0
  3
*U7
  1

  0
TEXT
  5
19087
330
19085
100
AcDbEntity
  8
SUNPOU
100
AcDbText
 10
12389.21703198605
 20
8277.143931901829
 30
0.0
 40
90.0
  1
1800
 50
90.0
 41
0.6666666666666666
  7
00
100
AcDbText
  0
ENDBLK
  5
19088
330
19085
100
AcDbEntity
  8
0
100
AcDbBlockEnd
  0
BLOCK
  5
1908A
330
19089
100
AcDbEntity
  8
0
100
AcDbBlockBegin
  2
*U8
 70
     1
 10
0.0
 20
0.0
 30
0.0
  3
*U8
  1

  0
TEXT
  5
1908B
330
19089
100
AcDbEntity
  8
SUNPOU
100
AcDbText
 10
8747.074174843204
 20
6290.715360473253
 30
0.0
 40
90.0
  1
600
 41
0.6666666666666666
  7
00
100
AcDbText
  0
ENDBLK
  5
1908C
330
19089
100
AcDbEntity
  8
0
100
AcDbBlockEnd
  0
BLOCK
  5
1908E
330
1908D
100
AcDbEntity
  8
0
100
AcDbBlockBegin
  2
*U9
 70
     1
 10
0.0
 20
0.0
 30
0.0
  3
*U9
  1

  0
TEXT
  5
1908F
330
1908D
100
AcDbEntity
  8
SUNPOU
100
AcDbText
 10
7447.074174843206
 20
8740.715360473251
 30
0.0
 40
90.0
  1
600
 41
0.6666666666666666
  7
00
100
AcDbText
  0
ENDBLK
  5
19090
330
1908D
100
AcDbEntity
  8
0
100
AcDbBlockEnd
  0
BLOCK
  5
19092
330
19091
100
AcDbEntity
  8
0
100
AcDbBlockBegin
  2
*U10
 70
     1
 10
0.0
 20
0.0
 30
0.0
  3
*U10
  1

  0
TEXT
  5
19093
330
19091
100
AcDbEntity
  8
SUNPOU
100
AcDbText
 10
6799.21703198606
 20
9208.572503330399
 30
0.0
 40
90.0
  1
600
 50
90.0
 41
0.6666666666666666
  7
00
100
AcDbText
  0
ENDBLK
  5
19094
330
19091
100
AcDbEntity
  8
0
100
AcDbBlockEnd
  0
BLOCK
  5
19096
330
19095
100
AcDbEntity
  8
0
100
AcDbBlockBegin
  2
*U11
 70
     1
 10
0.0
 20
0.0
 30
0.0
  3
*U11
  1

  0
TEXT
  5
19097
330
19095
100
AcDbEntity
  8
SUNPOU
100
AcDbText
 10
10119.93131770035
 20
10040.71536047325
 30
0.0
 40
90.0
  1
2800
 41
0.6666666666666666
  7
00
100
AcDbText
  0
ENDBLK
  5
19098
330
19095
100
AcDbEntity
  8
0
100
AcDbBlockEnd
  0
BLOCK
  5
1909A
330
19099
100
AcDbEntity
  8
0
100
AcDbBlockBegin
  2
*U12
 70
     1
 10
0.0
 20
0.0
 30
0.0
  3
*U12
  1

  0
TEXT
  5
1909B
330
19099
100
AcDbEntity
  8
SUNPOU
100
AcDbText
 10
6019.931317700351
 20
10040.71536047325
 30
0.0
 40
90.0
  1
2800
 41
0.6666666666666666
  7
00
100
AcDbText
  0
ENDBLK
  5
1909C
330
19099
100
AcDbEntity
  8
0
100
AcDbBlockEnd
  0
BLOCK
  5
1909E
330
1909D
100
AcDbEntity
  8
0
100
AcDbBlockBegin
  2
*U13
 70
     1
 10
0.0
 20
0.0
 30
0.0
  3
*U13
  1

  0
TEXT
  5
1909F
330
1909D
100
AcDbEntity
  8
SUNPOU
100
AcDbText
 10
9389.217031986065
 20
5608.572503330398
 30
0.0
 40
90.0
  1
600
 50
90.0
 41
0.6666666666666666
  7
00
100
AcDbText
  0
ENDBLK
  5
190A0
330
1909D
100
AcDbEntity
  8
0
100
AcDbBlockEnd
  0
BLOCK
  5
190A2
330
190A1
100
AcDbEntity
  8
0
100
AcDbBlockBegin
  2
*U14
 70
     1
 10
0.0
 20
0.0
 30
0.0
  3
*U14
  1

  0
TEXT
  5
190A3
330
190A1
100
AcDbEntity
  8
SUNPOU
100
AcDbText
 10
7665.044415498293
 20
1424.183932023014
 30
0.0
 40
90.0
  1
800
 41
0.6666666666666666
  7
00
100
AcDbText
  0
ENDBLK
  5
190A4
330
190A1
100
AcDbEntity
  8
0
100
AcDbBlockEnd
  0
BLOCK
  5
190A6
330
190A5
100
AcDbEntity
  8
0
100
AcDbBlockBegin
  2
*U15
 70
     1
 10
0.0
 20
0.0
 30
0.0
  3
*U15
  1

  0
TEXT
  5
190A7
330
190A5
100
AcDbEntity
  8
SUNPOU
100
AcDbText
 10
6584.758582955732
 20
2094.469646308731
 30
0.0
 40
90.0
  1
380
 50
90.0
 41
0.6666666666666666
  7
00
100
AcDbText
  0
ENDBLK
  5
190A8
330
190A5
100
AcDbEntity
  8
0
100
AcDbBlockEnd
  0
BLOCK
  5
190AA
330
190A9
100
AcDbEntity
  8
0
100
AcDbBlockBegin
  2
*U16
 70
     1
 10
0.0
 20
0.0
 30
0.0
  3
*U16
  1

  0
TEXT
  5
190AB
330
190A9
100
AcDbEntity
  8
SUNPOU
100
AcDbText
 10
7345.044415498293
 20
3332.183932023015
 30
0.0
 40
90.0
  1
400
 41
0.6666666666666666
  7
00
100
AcDbText
  0
ENDBLK
  5
190AC
330
190A9
100
AcDbEntity
  8
0
100
AcDbBlockEnd
  0
BLOCK
  5
190AE
330
190AD
100
AcDbEntity
  8
0
100
AcDbBlockBegin
  2
*U17
 70
     1
 10
0.0
 20
0.0
 30
0.0
  3
*U17
  1

  0
TEXT
  5
190AF
330
190AD
100
AcDbEntity
  8
SUNPOU
100
AcDbText
 10
9489.21703198606
 20
7410.001074758966
 30
0.0
 40
90.0
  1
800
 50
90.0
 41
0.6666666666666666
  7
00
100
AcDbText
  0
ENDBLK
  5
190B0
330
190AD
100
AcDbEntity
  8
0
100
AcDbBlockEnd
  0
BLOCK
  5
190B2
330
190B1
100
AcDbEntity
  8
0
100
AcDbBlockBegin
  2
*U18
 70
     1
 10
0.0
 20
0.0
 30
0.0
  3
*U18
  1

  0
TEXT
  5
190B3
330
190B1
100
AcDbEntity
  8
SUNPOU
100
AcDbText
 10
8748.50274627178
 20
8110.715360473252
 30
0.0
 40
90.0
  1
800
 41
0.6666666666666666
  7
00
100
AcDbText
  0
ENDBLK
  5
190B4
330
190B1
100
AcDbEntity
  8
0
100
AcDbBlockEnd
  0
BLOCK
  5
190B6
330
190B5
100
AcDbEntity
  8
0
100
AcDbBlockBegin
  2
*U19
 70
     1
 10
0.0
 20
0.0
 30
0.0
  3
*U19
  1

  0
TEXT
  5
190B7
330
190B5
100
AcDbEntity
  8
SUNPOU
100
AcDbText
 10
4448.502746271777
 20
10040.71536047325
 30
0.0
 40
90.0
  1
400
 41
0.6666666666666666
  7
00
100
AcDbText
  0
ENDBLK
  5
190B8
330
190B5
100
AcDbEntity
  8
0
100
AcDbBlockEnd
  0
BLOCK
  5
190BA
330
190B9
100
AcDbEntity
  8
0
100
AcDbBlockBegin
  2
*U20
 70
     1
 10
0.0
 20
0.0
 30
0.0
  3
*U20
  1

  0
TEXT
  5
190BB
330
190B9
100
AcDbEntity
  8
SUNPOU
100
AcDbText
 10
11748.50274627178
 20
10040.71536047325
 30
0.0
 40
90.0
  1
400
 41
0.6666666666666666
  7
00
100
AcDbText
  0
ENDBLK
  5
190BC
330
190B9
100
AcDbEntity
  8
0
100
AcDbBlockEnd
  0
BLOCK
  5
190BE
330
190BD
100
AcDbEntity
  8
0
100
AcDbBlockBegin
  2
*U21
 70
     1
 10
0.0
 20
0.0
 30
0.0
  3
*U21
  1

  0
TEXT
  5
190BF
330
190BD
100
AcDbEntity
  8
SUNPOU
100
AcDbText
 10
7720.50274627178
 20
10250.71536047325
 30
0.0
 40
90.0
  1
L = 2800 x N + 800
 41
0.6666666666666666
  7
00
100
AcDbText
  0
ENDBLK
  5
190C0
330
190BD
100
AcDbEntity
  8
0
100
AcDbBlockEnd
  0
BLOCK
  5
190C2
330
190C1
100
AcDbEntity
  8
0
100
AcDbBlockBegin
  2
*U22
 70
     1
 10
0.0
 20
0.0
 30
0.0
  3
*U22
  1

  0
TEXT
  5
190C3
330
190C1
100
AcDbEntity
  8
SUNPOU
100
AcDbText
 10
3618.6196289521
 20
1214.183932023016
 30
0.0
 40
90.0
  1
800
 41
0.6666666666666666
  7
00
100
AcDbText
  0
ENDBLK
  5
190C4
330
190C1
100
AcDbEntity
  8
0
100
AcDbBlockEnd
  0
BLOCK
  5
190C6
330
190C5
100
AcDbEntity
  8
0
100
AcDbBlockBegin
  2
*U23
 70
     1
 10
0.0
 20
0.0
 30
0.0
  3
*U23
  1

  0
TEXT
  5
190C7
330
190C5
100
AcDbEntity
  8
SUNPOU
100
AcDbText
 10
2698.333796409539
 20
1706.183932023019
 30
0.0
 40
90.0
  1
100
 50
90.0
 41
0.6666666666666666
  7
00
100
AcDbText
  0
ENDBLK
  5
190C8
330
190C5
100
AcDbEntity
  8
0
100
AcDbBlockEnd
  0
BLOCK
  5
190CA
330
190C9
100
AcDbEntity
  8
0
100
AcDbBlockBegin
  2
*U24
 70
     1
 10
0.0
 20
0.0
 30
0.0
  3
*U24
  1

  0
TEXT
  5
190CB
330
190C9
100
AcDbEntity
  8
SUNPOU
100
AcDbText
 10
2498.333796409538
 20
2014.469646308733
 30
0.0
 40
90.0
  1
480
 50
90.0
 41
0.6666666666666666
  7
00
100
AcDbText
  0
ENDBLK
  5
190CC
330
190C9
100
AcDbEntity
  8
0
100
AcDbBlockEnd
  0
BLOCK
  5
190CE
330
190CD
100
AcDbEntity
  8
0
100
AcDbBlockBegin
  2
*U25
 70
     1
 10
0.0
 20
0.0
 30
0.0
  3
*U25
  1

  0
TEXT
  5
190CF
330
190CD
100
AcDbEntity
  8
SUNPOU
100
AcDbText
 10
6584.758582955732
 20
1706.183932023017
 30
0.0
 40
90.0
  1
100
 50
90.0
 41
0.6666666666666666
  7
00
100
AcDbText
  0
ENDBLK
  5
190D0
330
190CD
100
AcDbEntity
  8
0
100
AcDbBlockEnd
  0
BLOCK
  5
190D2
330
190D1
100
AcDbEntity
  8
0
100
AcDbBlockBegin
  2
*U26
 70
     1
 10
0.0
 20
0.0
 30
0.0
  3
*U26
  1

  0
TEXT
  5
190D3
330
190D1
100
AcDbEntity
  8
SUNPOU
100
AcDbText
 10
6384.758582955733
 20
2014.46964630873
 30
0.0
 40
90.0
  1
480
 50
90.0
 41
0.6666666666666666
  7
00
100
AcDbText
  0
ENDBLK
  5
190D4
330
190D1
100
AcDbEntity
  8
0
100
AcDbBlockEnd
  0
BLOCK
  5
190D6
330
190D5
100
AcDbEntity
  8
0
100
AcDbBlockBegin
  2
*U27
 70
     1
 10
0.0
 20
0.0
 30
0.0
  3
*U27
  1

  0
TEXT
  5
190D7
330
190D5
100
AcDbEntity
  8
SUNPOU
100
AcDbText
 10
7632.187272641154
 20
1214.183932023014
 30
0.0
 40
90.0
  1
1000
 41
0.6666666666666666
  7
00
100
AcDbText
  0
ENDBLK
  5
190D8
330
190D5
100
AcDbEntity
  8
0
100
AcDbBlockEnd
  0
ENDSEC
  0
SECTION
  2
ENTITIES
  0
TEXT
  5
190D9
330
19040
100
AcDbEntity
  8
NAME
100
AcDbText
 10
12303.32857318295
 20
1055.0
 30
0.0
 40
120.0
  1
Y O K C
 41
0.6666666666666666
  7
00
100
AcDbText
  0
TEXT
  5
190DA
330
19040
100
AcDbEntity
  8
NAME
100
AcDbText
 10
11227.73587134625
 20
1055.0
 30
0.0
 40
120.0
  1
ヨド自転車置場　　　  型
  7
01
100
AcDbText
  0
TEXT
  5
190DB
330
19040
100
AcDbEntity
  8
NAME
100
AcDbText
 10
11112.07508082364
 20
875.0
 30
0.0
 40
120.0
  1
背合せタイプ（埋め込み方式）
  7
01
 72
     4
 11
12072.07508082364
 21
935.0
 31
0.0
100
AcDbText
  0
TEXT
  5
190F9
330
19040
100
AcDbEntity
  8
NAME
100
AcDbText
 10
12854.79999999999
 20
541.0000000000001
 30
0.0
 40
160.0
  1
<3／3>
 41
0.6
  7
01
 72
     2
 11
13354.0
 21
541.0000000000001
 31
0.0
100
AcDbText
  0
TEXT
  5
190FA
330
19040
100
AcDbEntity
  8
NAME
100
AcDbText
 10
10896.04264730428
 20
541.0
 30
0.0
 40
160.0
  1
YOKC-280
 41
0.7
  7
01
 72
     2
 11
11776.04264730429
 21
541.0
 31
0.0
100
AcDbText
  0
TEXT
  5
190FB
330
19040
100
AcDbEntity
  8
NAME
100
AcDbText
 10
11816.04264730429
 20
541.0
 30
0.0
 40
160.0
  1
型（一般地用）
 41
0.8
  7
01
100
AcDbText
  0
LINE
  5
190FC
330
19040
100
AcDbEntity
  8
U3
100
AcDbLine
 10
3113.143113299374
 20
2404.183932023015
 30
0.0
 11
3224.333914666386
 21
2292.993130656007
 31
0.0
  0
LINE
  5
190FD
330
19040
100
AcDbEntity
  8
U3
100
AcDbLine
 10
3011.31973680851
 20
2302.360555532156
 30
0.0
 11
3077.496360317645
 21
2236.183932023021
 31
0.0
  0
LINE
  5
190FE
330
19040
100
AcDbEntity
  8
U3
100
AcDbLine
 10
3062.231425053941
 20
2353.272243777589
 30
0.0
 11
3179.31973680851
 21
2236.183932023021
 31
0.0
  0
LINE
  5
190FF
330
19040
100
AcDbEntity
  8
U3
100
AcDbLine
 10
2776.333914666386
 20
2303.169754165144
 30
0.0
 11
2843.31973680851
 21
2236.183932023019
 31
0.0
  0
LINE
  5
19100
330
19040
100
AcDbEntity
  8
U3
100
AcDbLine
 10
3224.333914666386
 20
2404.183932023017
 30
0.0
 11
2776.333914666386
 21
2404.183932023017
 31
0.0
  0
LINE
  5
19101
330
19040
100
AcDbEntity
  8
U3
100
AcDbLine
 10
2894.231425053934
 20
2287.095620268444
 30
0.0
 11
3011.31973680851
 21
2404.183932023017
 31
0.0
  0
LINE
  5
19102
330
19040
100
AcDbEntity
  8
U3
100
AcDbLine
 10
2945.143113299374
 20
2236.183932023021
 30
0.0
 11
3113.143113299374
 21
2404.183932023017
 31
0.0
  0
LINE
  5
19103
330
19040
100
AcDbEntity
  8
U3
100
AcDbLine
 10
2777.143113299321
 20
2404.183932023017
 30
0.0
 11
2945.143113299374
 21
2236.183932023021
 31
0.0
  0
LINE
  5
19104
330
19040
100
AcDbEntity
  8
U3
100
AcDbLine
 10
2712.333914666388
 20
2404.183932023017
 30
0.0
 11
2105.143113299378
 21
2404.183932023017
 31
0.0
  0
LINE
  5
19105
330
19040
100
AcDbEntity
  8
U3
100
AcDbLine
 10
2675.319736808516
 20
2302.360555532155
 30
0.0
 11
2690.829693650987
 21
2286.850598689685
 31
0.0
  0
LINE
  5
19106
330
19040
100
AcDbEntity
  8
U3
100
AcDbLine
 10
2659.809779966045
 20
2286.850598689685
 30
0.0
 11
2712.333914666388
 21
2339.374733390029
 31
0.0
  0
LINE
  5
19107
330
19040
100
AcDbEntity
  8
U3
100
AcDbLine
 10
2390.231425053941
 20
2353.272243777586
 30
0.0
 11
2507.319736808512
 21
2236.183932023017
 31
0.0
  0
LINE
  5
19108
330
19040
100
AcDbEntity
  8
U3
100
AcDbLine
 10
2339.319736808512
 20
2302.360555532155
 30
0.0
 11
2405.496360317653
 21
2236.183932023017
 31
0.0
  0
LINE
  5
19109
330
19040
100
AcDbEntity
  8
U3
100
AcDbLine
 10
2558.231425053949
 20
2287.095620268451
 30
0.0
 11
2675.319736808516
 21
2404.183932023015
 31
0.0
  0
LINE
  5
1910A
330
19040
100
AcDbEntity
  8
U3
100
AcDbLine
 10
2273.143113299378
 20
2236.183932023017
 30
0.0
 11
2441.143113299379
 21
2404.183932023015
 31
0.0
  0
LINE
  5
1910B
330
19040
100
AcDbEntity
  8
U3
100
AcDbLine
 10
2171.319736808516
 20
2338.007308513879
 30
0.0
 11
2237.496360317652
 21
2404.183932023013
 31
0.0
  0
LINE
  5
1910C
330
19040
100
AcDbEntity
  8
U3
100
AcDbLine
 10
2105.143113299378
 20
2404.183932023017
 30
0.0
 11
2273.143113299378
 21
2236.183932023017
 31
0.0
  0
LINE
  5
1910D
330
19040
100
AcDbEntity
  8
U3
100
AcDbLine
 10
2222.231425053946
 20
2287.095620268448
 30
0.0
 11
2339.319736808516
 21
2404.183932023013
 31
0.0
  0
LINE
  5
1910E
330
19040
100
AcDbEntity
  8
U3
100
AcDbLine
 10
2441.143113299379
 20
2404.183932023015
 30
0.0
 11
2558.476446632713
 21
2286.850598689685
 31
0.0
  0
LINE
  5
1910F
330
19040
100
AcDbEntity
  8
HATCH
100
AcDbLine
 10
4742.519737066388
 20
2293.439306423018
 30
0.0
 11
4761.719737066387
 21
2260.183932023017
 31
0.0
  0
LINE
  5
19110
330
19040
100
AcDbEntity
  8
HATCH
100
AcDbLine
 10
4886.519737066389
 20
2293.439306423018
 30
0.0
 11
4905.719737066387
 21
2260.183932023017
 31
0.0
  0
LINE
  5
19111
330
19040
100
AcDbEntity
  8
HATCH
100
AcDbLine
 10
4884.345362666385
 20
2356.183932023017
 30
0.0
 11
4903.545362666386
 21
2322.928556023017
 31
0.0
  0
LINE
  5
19112
330
19040
100
AcDbEntity
  8
HATCH
100
AcDbLine
 10
4867.319737066389
 20
2260.183932023017
 30
0.0
 11
4922.745362666384
 21
2356.183932023017
 31
0.0
  0
LINE
  5
19113
330
19040
100
AcDbEntity
  8
HATCH
100
AcDbLine
 10
4990.727527466386
 20
2484.183932023019
 30
0.0
 11
4862.727527466386
 21
2356.183932023017
 31
0.0
  0
LINE
  5
19114
330
19040
100
AcDbEntity
  8
HATCH
100
AcDbLine
 10
4895.692375466388
 20
2484.183932023019
 30
0.0
 11
4767.692375466388
 21
2356.183932023017
 31
0.0
  0
LINE
  5
19115
330
19040
100
AcDbEntity
  8
HATCH
100
AcDbLine
 10
4943.209951466386
 20
2484.183932023019
 30
0.0
 11
4815.209951466385
 21
2356.183932023017
 31
0.0
  0
LINE
  5
19116
330
19040
100
AcDbEntity
  8
HATCH
100
AcDbLine
 10
4614.519737066387
 20
2293.439306423018
 30
0.0
 11
4633.719737066387
 21
2260.183932023017
 31
0.0
  0
LINE
  5
19117
330
19040
100
AcDbEntity
  8
HATCH
100
AcDbLine
 10
4612.345362666385
 20
2356.183932023017
 30
0.0
 11
4631.545362666384
 21
2322.928556023017
 31
0.0
  0
LINE
  5
19118
330
19040
100
AcDbEntity
  8
HATCH
100
AcDbLine
 10
4595.319737066386
 20
2260.183932023017
 30
0.0
 11
4650.745362666384
 21
2356.183932023017
 31
0.0
  0
LINE
  5
19119
330
19040
100
AcDbEntity
  8
HATCH
100
AcDbLine
 10
4371.494221866386
 20
2356.183932023017
 30
0.0
 11
4355.494221866386
 21
2356.183932023017
 31
0.0
  0
LINE
  5
1911A
330
19040
100
AcDbEntity
  8
HATCH
100
AcDbLine
 10
4470.519737066386
 20
2293.439306423018
 30
0.0
 11
4489.719737066387
 21
2260.183932023017
 31
0.0
  0
LINE
  5
1911B
330
19040
100
AcDbEntity
  8
HATCH
100
AcDbLine
 10
4451.319737066387
 20
2260.183932023017
 30
0.0
 11
4506.745362666385
 21
2356.183932023017
 31
0.0
  0
LINE
  5
1911C
330
19040
100
AcDbEntity
  8
HATCH
100
AcDbLine
 10
4468.345362666385
 20
2356.183932023017
 30
0.0
 11
4487.545362666384
 21
2322.928556023017
 31
0.0
  0
LINE
  5
1911D
330
19040
100
AcDbEntity
  8
HATCH
100
AcDbLine
 10
4510.727527466386
 20
2484.183932023019
 30
0.0
 11
4382.727527466385
 21
2356.183932023017
 31
0.0
  0
LINE
  5
1911E
330
19040
100
AcDbEntity
  8
HATCH
100
AcDbLine
 10
4326.519737066386
 20
2293.439306423018
 30
0.0
 11
4345.719737066387
 21
2260.183932023017
 31
0.0
  0
LINE
  5
1911F
330
19040
100
AcDbEntity
  8
HATCH
100
AcDbLine
 10
4324.345362666385
 20
2356.183932023017
 30
0.0
 11
4343.545362666385
 21
2322.928556023017
 31
0.0
  0
LINE
  5
19120
330
19040
100
AcDbEntity
  8
HATCH
100
AcDbLine
 10
4184.333914666385
 20
2296.581555464547
 30
0.0
 11
4218.745362666385
 21
2356.183932023017
 31
0.0
  0
LINE
  5
19121
330
19040
100
AcDbEntity
  8
HATCH
100
AcDbLine
 10
4184.333914666385
 20
2349.275557207625
 30
0.0
 11
4199.545362666386
 21
2322.928556023017
 31
0.0
  0
LINE
  5
19122
330
19040
100
AcDbEntity
  8
HATCH
100
AcDbLine
 10
4184.333914666385
 20
2290.297058750307
 30
0.0
 11
4201.719737066387
 21
2260.183932023017
 31
0.0
  0
LINE
  5
19123
330
19040
100
AcDbEntity
  8
HATCH
100
AcDbLine
 10
4227.494221866386
 20
2356.183932023017
 30
0.0
 11
4211.494221866386
 21
2356.183932023017
 31
0.0
  0
LINE
  5
19124
330
19040
100
AcDbEntity
  8
HATCH
100
AcDbLine
 10
4463.209951466384
 20
2484.183932023019
 30
0.0
 11
4335.209951466388
 21
2356.183932023017
 31
0.0
  0
LINE
  5
19125
330
19040
100
AcDbEntity
  8
HATCH
100
AcDbLine
 10
4415.692375466385
 20
2484.183932023019
 30
0.0
 11
4287.692375466387
 21
2356.183932023017
 31
0.0
  0
LINE
  5
19126
330
19040
100
AcDbEntity
  8
HATCH
100
AcDbLine
 10
4307.319737066388
 20
2260.183932023017
 30
0.0
 11
4362.745362666386
 21
2356.183932023017
 31
0.0
  0
LINE
  5
19127
330
19040
100
AcDbEntity
  8
HATCH
100
AcDbLine
 10
4740.345362666385
 20
2356.183932023017
 30
0.0
 11
4759.545362666385
 21
2322.928556023017
 31
0.0
  0
LINE
  5
19128
330
19040
100
AcDbEntity
  8
HATCH
100
AcDbLine
 10
4723.319737066386
 20
2260.183932023017
 30
0.0
 11
4778.745362666384
 21
2356.183932023017
 31
0.0
  0
LINE
  5
19129
330
19040
100
AcDbEntity
  8
KISO
100
AcDbLine
 10
4184.333914666385
 20
2260.183932023017
 30
0.0
 11
5021.727409209538
 21
2260.183932023017
 31
0.0
  0
LINE
  5
1912A
330
19040
100
AcDbEntity
  8
KISO
100
AcDbLine
 10
5021.727409209538
 20
2356.183932023017
 30
0.0
 11
4184.333914666385
 21
2356.183932023017
 31
0.0
  0
LINE
  5
1912B
330
19040
100
AcDbEntity
  8
KISO
100
AcDbLine
 10
3064.333914666386
 20
1876.183932023018
 30
0.0
 11
3064.333914666386
 21
1764.183932023017
 31
0.0
  0
LINE
  5
1912C
330
19040
100
AcDbEntity
  8
1PL-M1
100
AcDbLine
 10
3704.333914666389
 20
1684.183932023018
 30
0.0
 11
3704.333914666387
 21
3332.183932023017
 31
0.0
  0
LINE
  5
1912D
330
19040
100
AcDbEntity
  8
HASHIRA
100
AcDbLine
 10
3652.333914666386
 20
1876.183932023019
 30
0.0
 11
3652.333914666386
 21
2964.183932023017
 31
0.0
  0
LINE
  5
1912E
330
19040
100
AcDbEntity
  8
HASHIRA
100
AcDbLine
 10
3756.333914666386
 20
1876.183932023019
 30
0.0
 11
3756.333914666384
 21
2964.183932023017
 31
0.0
  0
LINE
  5
1912F
330
19040
100
AcDbEntity
  8
KISO
100
AcDbLine
 10
4344.333914666385
 20
1876.183932023018
 30
0.0
 11
4344.333914666385
 21
1716.183932023017
 31
0.0
  0
LINE
  5
19130
330
19040
100
AcDbEntity
  8
HATCH
100
AcDbLine
 10
3758.930376559231
 20
1716.183932023018
 30
0.0
 11
3851.306419225895
 21
1876.183932023019
 31
0.0
  0
LINE
  5
19131
330
19040
100
AcDbEntity
  8
HATCH
100
AcDbLine
 10
3797.973085892562
 20
1876.183932023019
 30
0.0
 11
3824.639752559228
 21
1829.995909356355
 31
0.0
  0
LINE
  5
19132
330
19040
100
AcDbEntity
  8
HATCH
100
AcDbLine
 10
3785.597043225897
 20
1762.371953356349
 30
0.0
 11
3812.263709892564
 21
1716.183932023018
 31
0.0
  0
LINE
  5
19133
330
19040
100
AcDbEntity
  8
HATCH
100
AcDbLine
 10
3585.597043225897
 20
1762.371953356349
 30
0.0
 11
3612.263709892564
 21
1716.183932023018
 31
0.0
  0
LINE
  5
19134
330
19040
100
AcDbEntity
  8
HATCH
100
AcDbLine
 10
3597.973085892562
 20
1876.183932023019
 30
0.0
 11
3624.639752559229
 21
1829.995909356355
 31
0.0
  0
LINE
  5
19135
330
19040
100
AcDbEntity
  8
KISO
100
AcDbLine
 10
4184.333914666385
 20
2484.183932023019
 30
0.0
 11
4184.333914666385
 21
1876.183932023018
 31
0.0
  0
LINE
  5
19136
330
19040
100
AcDbEntity
  8
KISO
100
AcDbLine
 10
3652.333914666386
 20
2484.183932023019
 30
0.0
 11
3224.333914666386
 21
2484.183932023019
 31
0.0
  0
LINE
  5
19137
330
19040
100
AcDbEntity
  8
HATCH
100
AcDbLine
 10
3614.393906272658
 20
2484.183932023019
 30
0.0
 11
3224.333914666388
 21
2094.123940416748
 31
0.0
  0
LINE
  5
19138
330
19040
100
AcDbEntity
  8
HATCH
100
AcDbLine
 10
3566.876330272656
 20
2484.183932023019
 30
0.0
 11
3224.333914666386
 21
2141.641516416747
 31
0.0
  0
LINE
  5
19139
330
19040
100
AcDbEntity
  8
HATCH
100
AcDbLine
 10
3519.358755872656
 20
2484.183932023019
 30
0.0
 11
3224.333914666386
 21
2189.159090816747
 31
0.0
  0
LINE
  5
1913A
330
19040
100
AcDbEntity
  8
HATCH
100
AcDbLine
 10
3652.333914666386
 20
2134.531888053615
 30
0.0
 11
3497.985958635791
 21
1980.183932023019
 31
0.0
  0
LINE
  5
1913B
330
19040
100
AcDbEntity
  8
HATCH
100
AcDbLine
 10
3385.597043225897
 20
1762.371953356349
 30
0.0
 11
3412.263709892564
 21
1716.183932023018
 31
0.0
  0
LINE
  5
1913C
330
19040
100
AcDbEntity
  8
HATCH
100
AcDbLine
 10
3358.93037655923
 20
1716.183932023018
 30
0.0
 11
3451.306419225895
 21
1876.183932023019
 31
0.0
  0
LINE
  5
1913D
330
19040
100
AcDbEntity
  8
HATCH
100
AcDbLine
 10
3397.973085892562
 20
1876.183932023019
 30
0.0
 11
3424.639752559229
 21
1829.995909356355
 31
0.0
  0
LINE
  5
1913E
330
19040
100
AcDbEntity
  8
KISO
100
AcDbLine
 10
3064.333914666386
 20
1876.183932023019
 30
0.0
 11
3064.333914666386
 21
1716.183932023018
 31
0.0
  0
LINE
  5
1913F
330
19040
100
AcDbEntity
  8
HATCH
100
AcDbLine
 10
3185.597043225897
 20
1762.371953356349
 30
0.0
 11
3212.263709892564
 21
1716.183932023018
 31
0.0
  0
LINE
  5
19140
330
19040
100
AcDbEntity
  8
HATCH
100
AcDbLine
 10
3197.973085892562
 20
1876.183932023019
 30
0.0
 11
3224.639752559229
 21
1829.995909356355
 31
0.0
  0
LINE
  5
19141
330
19040
100
AcDbEntity
  8
HATCH
100
AcDbLine
 10
3158.930376559231
 20
1716.183932023018
 30
0.0
 11
3251.306419225895
 21
1876.183932023019
 31
0.0
  0
LINE
  5
19142
330
19040
100
AcDbEntity
  8
KISO
100
AcDbLine
 10
3224.333914666386
 20
2484.183932023019
 30
0.0
 11
3224.333914666386
 21
1876.183932023019
 31
0.0
  0
LINE
  5
19143
330
19040
100
AcDbEntity
  8
HATCH
100
AcDbLine
 10
3652.333914666386
 20
2229.567038453616
 30
0.0
 11
3298.95080823579
 21
1876.183932023019
 31
0.0
  0
LINE
  5
19144
330
19040
100
AcDbEntity
  8
HATCH
100
AcDbLine
 10
3652.333914666386
 20
2182.049464053616
 30
0.0
 11
3450.46838263579
 21
1980.183932023019
 31
0.0
  0
LINE
  5
19145
330
19040
100
AcDbEntity
  8
HATCH
100
AcDbLine
 10
3558.930376559231
 20
1716.183932023018
 30
0.0
 11
3651.306419225895
 21
1876.183932023019
 31
0.0
  0
LINE
  5
19146
330
19040
100
AcDbEntity
  8
HATCH
100
AcDbLine
 10
4001.985958635791
 20
2484.183932023019
 30
0.0
 11
3756.333914666386
 21
2238.531888053614
 31
0.0
  0
LINE
  5
19147
330
19040
100
AcDbEntity
  8
HATCH
100
AcDbLine
 10
3954.46838263579
 20
2484.183932023019
 30
0.0
 11
3756.333914666386
 21
2286.049464053613
 31
0.0
  0
LINE
  5
19148
330
19040
100
AcDbEntity
  8
HATCH
100
AcDbLine
 10
3906.95080823579
 20
2484.183932023019
 30
0.0
 11
3756.333914666386
 21
2333.567038453614
 31
0.0
  0
LINE
  5
19149
330
19040
100
AcDbEntity
  8
KISO
100
AcDbLine
 10
3064.333914666386
 20
1716.183932023018
 30
0.0
 11
4344.333914666385
 21
1716.183932023017
 31
0.0
  0
LINE
  5
1914A
330
19040
100
AcDbEntity
  8
KISO
100
AcDbLine
 10
5021.727409209538
 20
2484.183932023019
 30
0.0
 11
3756.333914666386
 21
2484.183932023019
 31
0.0
  0
LINE
  5
1914B
330
19040
100
AcDbEntity
  8
HATCH
100
AcDbLine
 10
3997.973085892562
 20
1876.183932023019
 30
0.0
 11
4024.639752559227
 21
1829.995909356355
 31
0.0
  0
LINE
  5
1914C
330
19040
100
AcDbEntity
  8
HATCH
100
AcDbLine
 10
3958.93037655923
 20
1716.183932023018
 30
0.0
 11
4051.306419225895
 21
1876.183932023019
 31
0.0
  0
LINE
  5
1914D
330
19040
100
AcDbEntity
  8
HATCH
100
AcDbLine
 10
3985.597043225897
 20
1762.371953356349
 30
0.0
 11
4012.263709892564
 21
1716.183932023018
 31
0.0
  0
LINE
  5
1914E
330
19040
100
AcDbEntity
  8
HATCH
100
AcDbLine
 10
4184.333914666385
 20
2278.939835690481
 30
0.0
 11
3885.578010998928
 21
1980.183932023019
 31
0.0
  0
LINE
  5
1914F
330
19040
100
AcDbEntity
  8
HATCH
100
AcDbLine
 10
4184.333914666385
 20
2326.457411690481
 30
0.0
 11
3838.060434998926
 21
1980.183932023019
 31
0.0
  0
LINE
  5
19150
330
19040
100
AcDbEntity
  8
HATCH
100
AcDbLine
 10
4184.333914666385
 20
2373.974986090479
 30
0.0
 11
3756.333914666386
 21
1945.974986090478
 31
0.0
  0
LINE
  5
19151
330
19040
100
AcDbEntity
  8
HATCH
100
AcDbLine
 10
4184.333914666385
 20
1986.382933727344
 30
0.0
 11
4074.134912962058
 21
1876.183932023019
 31
0.0
  0
LINE
  5
19152
330
19040
100
AcDbEntity
  8
HATCH
100
AcDbLine
 10
4184.333914666385
 20
1938.865359327343
 30
0.0
 11
4121.652487362065
 21
1876.183932023019
 31
0.0
  0
LINE
  5
19153
330
19040
100
AcDbEntity
  8
HATCH
100
AcDbLine
 10
4184.333914666385
 20
1891.347783327345
 30
0.0
 11
4169.17006336206
 21
1876.183932023019
 31
0.0
  0
LINE
  5
19154
330
19040
100
AcDbEntity
  8
HATCH
100
AcDbLine
 10
3434.46838263579
 20
1964.183932023018
 30
0.0
 11
3346.468382635791
 21
1876.183932023019
 31
0.0
  0
LINE
  5
19155
330
19040
100
AcDbEntity
  8
HATCH
100
AcDbLine
 10
3481.985958635791
 20
1964.183932023018
 30
0.0
 11
3393.985958635791
 21
1876.183932023019
 31
0.0
  0
LINE
  5
19156
330
19040
100
AcDbEntity
  8
HATCH
100
AcDbLine
 10
3774.542860598926
 20
1964.183932023018
 30
0.0
 11
3756.333914666386
 21
1945.974986090478
 31
0.0
  0
LINE
  5
19157
330
19040
100
AcDbEntity
  8
HATCH
100
AcDbLine
 10
3822.060434998928
 20
1964.183932023018
 30
0.0
 11
3756.333914666386
 21
1898.457411690476
 31
0.0
  0
LINE
  5
19158
330
19040
100
AcDbEntity
  8
HATCH
100
AcDbLine
 10
3869.578010998927
 20
1964.183932023018
 30
0.0
 11
3781.578010998928
 21
1876.183932023019
 31
0.0
  0
LINE
  5
19159
330
19040
100
AcDbEntity
  8
KISO
100
AcDbLine
 10
3064.333914666386
 20
1876.183932023019
 30
0.0
 11
3064.333914666386
 21
1876.183932023019
 31
0.0
  0
LINE
  5
1915A
330
19040
100
AcDbEntity
  8
SUNPOU
100
AcDbLine
 10
3719.333914666388
 20
3287.183932023017
 30
0.0
 11
4979.564421916637
 21
3287.183932023017
 31
0.0
  0
TEXT
  5
1915B
330
19040
100
AcDbEntity
  8
SUNPOU
100
AcDbText
 10
4340.161613806854
 20
3332.183932023017
 30
0.0
 40
90.0
  1
2800
 41
0.6666666666666666
  7
00
 72
     4
 11
4454.447328092569
 21
3377.183932023017
 31
0.0
100
AcDbText
  0
TEXT
  5
1915C
330
19040
100
AcDbEntity
  8
HIKIDASHI
100
AcDbText
 10
2665.84219057196
 20
2825.613541661912
 30
0.0
 40
90.0
  1
%%c
 41
0.6700000000000001
  7
00
100
AcDbText
  0
LINE
  5
1915D
330
19040
100
AcDbEntity
  8
HIKIDASHI
100
AcDbLine
 10
2275.958721952463
 20
2754.183932023015
 30
0.0
 11
3121.257717497342
 21
2754.183932023015
 31
0.0
  0
TEXT
  5
1915E
330
19040
100
AcDbEntity
  8
HIKIDASHI
100
AcDbText
 10
2831.547719537899
 20
2798.974945822925
 30
0.0
 40
89.55223880597014
  1
350
 41
0.6700000000000001
  7
00
100
AcDbText
  0
TEXT
  5
1915F
330
19040
100
AcDbEntity
  8
HIKIDASHI
100
AcDbText
 10
2750.412340384764
 20
2810.377961873764
 30
0.0
 40
89.55223880597014
  1
x
 41
0.6700000000000001
  7
00
100
AcDbText
  0
TEXT
  5
19160
330
19040
100
AcDbEntity
  8
HIKIDASHI
100
AcDbText
 10
2305.958721952463
 20
2799.183932023015
 30
0.0
 40
90.0
  1
鉄筋
  7
01
100
AcDbText
  0
TEXT
  5
19161
330
19040
100
AcDbEntity
  8
HIKIDASHI
100
AcDbText
 10
2537.465435554122
 20
2799.183932023015
 30
0.0
 40
89.55223880597014
  1
10
 41
0.6700000000000001
  7
00
100
AcDbText
  0
LINE
  5
19162
330
19040
100
AcDbEntity
  8
HIKIDASHI
100
AcDbLine
 10
2780.663191527326
 20
2994.183932023015
 30
0.0
 11
3134.663191527326
 21
2994.183932023015
 31
0.0
  0
TEXT
  5
19163
330
19040
100
AcDbEntity
  8
HIKIDASHI
100
AcDbText
 10
2810.663191527325
 20
3039.183932023015
 30
0.0
 40
90.0
  1
土　間
  7
01
100
AcDbText
  0
LINE
  5
19164
330
19040
100
AcDbEntity
  8
HIKIDASHI
100
AcDbLine
 10
2839.167309682428
 20
1304.183932023019
 30
0.0
 11
2470.400932854805
 21
1304.183932023019
 31
0.0
  0
TEXT
  5
19165
330
19040
100
AcDbEntity
  8
HIKIDASHI
100
AcDbText
 10
2497.468540446716
 20
1349.183932023019
 30
0.0
 40
90.0
  1
砕　石
  7
01
 72
     2
 11
2797.468540446716
 21
1394.183932023019
 31
0.0
100
AcDbText
 73
     2
  0
TEXT
  5
19166
330
19040
100
AcDbEntity
  8
HIKIDASHI
100
AcDbText
 10
3780.537517545164
 20
925.1349131803479
 30
0.0
 40
90.0
  1
断 面
  7
01
100
AcDbText
  0
LINE
  5
19167
330
19040
100
AcDbEntity
  8
HIKIDASHI
100
AcDbLine
 10
3356.520238048601
 20
880.134913180348
 30
0.0
 11
4052.14759128417
 21
880.134913180348
 31
0.0
  0
LINE
  5
19168
330
19040
100
AcDbEntity
  8
HIKIDASHI
100
AcDbLine
 10
3356.520238048601
 20
850.1349131803479
 30
0.0
 11
4052.14759128417
 21
850.1349131803479
 31
0.0
  0
TEXT
  5
19169
330
19040
100
AcDbEntity
  8
HIKIDASHI
100
AcDbText
 10
3386.520238048602
 20
925.1349131803479
 30
0.0
 40
90.0
  1
A  ~  A'
 41
0.6700000000000001
  7
00
100
AcDbText
  0
TEXT
  5
1916A
330
19040
100
AcDbEntity
  8
SUNPOU
100
AcDbText
 10
4660.022830783562
 20
1458.903907439804
 30
0.0
 40
90.0
  1
ベース筋
  7
01
 72
     4
 11
4864.022830783563
 21
1503.903907439804
 31
0.0
100
AcDbText
  0
TEXT
  5
1916B
330
19040
100
AcDbEntity
  8
SUNPOU
100
AcDbText
 10
4520.599973640699
 20
1293.65456534739
 30
0.0
 40
90.0
  1
4-D13×4-D13
 41
0.6700000000000001
  7
01
 72
     4
 11
4864.022830783557
 21
1338.65456534739
 31
0.0
100
AcDbText
  0
TEXT
  5
1916C
330
19040
100
AcDbEntity
  8
HIKIDASHI
100
AcDbText
 10
4444.49673216886
 20
2006.931554141245
 30
0.0
 40
90.0
  1
敷砂利又は砕石
  7
01
100
AcDbText
  0
LINE
  5
1916D
330
19040
100
AcDbEntity
  8
HIKIDASHI
100
AcDbLine
 10
4397.836947371135
 20
1961.931554141245
 30
0.0
 11
5200.487295746516
 21
1961.931554141245
 31
0.0
  0
TEXT
  5
1916E
330
19040
100
AcDbEntity
  8
SUNPOU
100
AcDbText
 10
4717.660162466765
 20
2619.183932023019
 30
0.0
 40
90.0
  1
F.L
 41
0.6666666666666666
  7
00
 72
     4
 11
4786.231591038194
 21
2664.183932023019
 31
0.0
100
AcDbText
  0
LINE
  5
1916F
330
19040
100
AcDbEntity
  8
SUNPOU
100
AcDbLine
 10
4786.231591038194
 20
2484.183932023019
 30
0.0
 11
4838.193115265261
 21
2574.183932023019
 31
0.0
  0
LINE
  5
19170
330
19040
100
AcDbEntity
  8
SUNPOU
100
AcDbLine
 10
4734.270066811128
 20
2574.183932023019
 30
0.0
 11
4786.231591038194
 21
2484.183932023019
 31
0.0
  0
LINE
  5
19171
330
19040
100
AcDbEntity
  8
SUNPOU
100
AcDbLine
 10
4838.193115265261
 20
2574.183932023019
 30
0.0
 11
4734.270066811128
 21
2574.183932023019
 31
0.0
  0
TEXT
  5
19172
330
19040
100
AcDbEntity
  8
SUNPOU
100
AcDbText
 10
4082.885652329141
 20
7840.715360473253
 30
0.0
 40
90.0
  1
B
 41
0.6700000000000001
  7
00
 72
     4
 11
4114.471366614856
 21
7885.715360473253
 31
0.0
100
AcDbText
  0
LINE
  5
19173
330
19040
100
AcDbEntity
  8
SUNPOU
100
AcDbLine
 10
4114.471366614863
 20
7495.715360473251
 30
0.0
 11
4264.471366614864
 21
7495.715360473251
 31
0.0
  0
LINE
  5
19174
330
19040
100
AcDbEntity
  8
SUNPOU
100
AcDbLine
 10
4114.471366614863
 20
7705.715360473253
 30
0.0
 11
4114.471366614863
 21
7495.715360473251
 31
0.0
  0
SOLID
  5
19175
330
19040
100
AcDbEntity
  8
SUNPOU
100
AcDbTrace
 10
4099.471366614863
 20
7705.715360473253
 30
0.0
 11
4129.471366614864
 21
7705.715360473253
 31
0.0
 12
4114.471366614863
 22
7795.715360473251
 32
0.0
 13
4114.471366614863
 23
7795.715360473251
 33
0.0
  0
LINE
  5
19176
330
19040
100
AcDbEntity
  8
SUNPOU
100
AcDbLine
 10
5219.630294679762
 20
7495.715360473251
 30
0.0
 11
5069.630294679762
 21
7495.715360473251
 31
0.0
  0
TEXT
  5
19177
330
19040
100
AcDbEntity
  8
SUNPOU
100
AcDbText
 10
5300.12315182262
 20
7832.143931901825
 30
0.0
 40
90.0
  1
B'
 41
0.6700000000000001
  7
00
 72
     4
 11
5344.630294679762
 21
7885.715360473253
 31
0.0
100
AcDbText
  0
LINE
  5
19178
330
19040
100
AcDbEntity
  8
SUNPOU
100
AcDbLine
 10
5344.630294679762
 20
7705.715360473253
 30
0.0
 11
5344.630294679762
 21
7495.715360473251
 31
0.0
  0
SOLID
  5
19179
330
19040
100
AcDbEntity
  8
SUNPOU
100
AcDbTrace
 10
5359.630294679762
 20
7705.715360473253
 30
0.0
 11
5329.630294679763
 21
7705.715360473253
 31
0.0
 12
5344.630294679762
 22
7795.715360473251
 32
0.0
 13
5344.630294679762
 23
7795.715360473251
 33
0.0
  0
LINE
  5
1917A
330
19040
100
AcDbEntity
  8
CENTER
  6
1PL-M
100
AcDbLine
 10
8834.217031986062
 20
8245.715360473253
 30
0.0
 11
8834.217031986062
 21
9695.715360473252
 31
0.0
  0
LINE
  5
1917B
330
19040
100
AcDbEntity
  8
CENTER
  6
1PL-M
100
AcDbLine
 10
9574.217031986064
 20
7495.715360473251
 30
0.0
 11
12479.21703198606
 21
7495.715360473251
 31
0.0
  0
LINE
  5
1917C
330
19040
100
AcDbEntity
  8
CENTER
  6
1PL-M
100
AcDbLine
 10
8244.217031986062
 20
7495.715360473251
 30
0.0
 11
9369.217031986059
 21
7495.715360473251
 31
0.0
  0
LINE
  5
1917D
330
19040
100
AcDbEntity
  8
CENTER
  6
1PL-M
100
AcDbLine
 10
4264.217031986064
 20
7495.715360473251
 30
0.0
 11
8124.217031986061
 21
7495.715360473251
 31
0.0
  0
LINE
  5
1917E
330
19040
100
AcDbEntity
  8
CENTER
  6
1PL-M
100
AcDbLine
 10
8244.217031986062
 20
5695.715360473253
 30
0.0
 11
9274.217031986065
 21
5695.715360473253
 31
0.0
  0
LINE
  5
1917F
330
19040
100
AcDbEntity
  8
CENTER
  6
1PL-M
100
AcDbLine
 10
8244.217031986062
 20
9295.715360473252
 30
0.0
 11
12479.21703198606
 21
9295.715360473252
 31
0.0
  0
TEXT
  5
19180
330
19040
100
AcDbEntity
  8
SUNPOU
100
AcDbText
 10
10881.34907160025
 20
4902.649361983672
 30
0.0
 40
90.0
  1
（  ：スパン数）
  7
01
 11
10881.34907160025
 21
4947.649361983672
 31
0.0
100
AcDbText
 73
     2
  0
TEXT
  5
19181
330
19040
100
AcDbEntity
  8
SUNPOU
100
AcDbText
 10
11011.81028265175
 20
4902.649361983672
 30
0.0
 40
90.0
  1
N
 41
0.6666666666666666
  7
00
 72
     4
 11
11043.23885408032
 21
4947.649361983672
 31
0.0
100
AcDbText
  0
LINE
  5
19182
330
19040
100
AcDbEntity
  8
CENTER
  6
1PL-M
100
AcDbLine
 10
4264.217031986064
 20
5695.715360473253
 30
0.0
 11
8124.217031986061
 21
5695.715360473253
 31
0.0
  0
LINE
  5
19183
330
19040
100
AcDbEntity
  8
CENTER
  6
1PL-M
100
AcDbLine
 10
6982.967031986063
 20
9295.715360473252
 30
0.0
 11
8124.217031986061
 21
9295.715360473252
 31
0.0
  0
LINE
  5
19184
330
19040
100
AcDbEntity
  8
SUNPOU
100
AcDbLine
 10
8124.217031986061
 20
9685.715360473253
 30
0.0
 11
8124.217031986061
 21
5275.715360473252
 31
0.0
  0
LINE
  5
19185
330
19040
100
AcDbEntity
  8
CENTER
  6
1PL-M
100
AcDbLine
 10
4734.217031986064
 20
5295.715360473253
 30
0.0
 11
4734.217031986064
 21
9695.715360473252
 31
0.0
  0
LINE
  5
19186
330
19040
100
AcDbEntity
  8
CENTER
  6
1PL-M
100
AcDbLine
 10
7534.217031986059
 20
8845.715360473255
 30
0.0
 11
7534.217031986064
 21
9695.715360473252
 31
0.0
  0
LINE
  5
19187
330
19040
100
AcDbEntity
  8
CENTER
  6
1PL-M
100
AcDbLine
 10
7534.217031986064
 20
5295.715360473253
 30
0.0
 11
7534.217031986064
 21
8650.715360473251
 31
0.0
  0
LINE
  5
19188
330
19040
100
AcDbEntity
  8
CENTER
  6
1PL-M
100
AcDbLine
 10
4264.217031986064
 20
9295.715360473252
 30
0.0
 11
6784.217031986064
 21
9295.715360473252
 31
0.0
  0
LINE
  5
19189
330
19040
100
AcDbEntity
  8
CENTER
  6
1PL-M
100
AcDbLine
 10
9469.217031986065
 20
5695.715360473253
 30
0.0
 11
12479.21703198606
 21
5695.715360473253
 31
0.0
  0
LINE
  5
1918A
330
19040
100
AcDbEntity
  8
SUNPOU
100
AcDbLine
 10
12064.21703198605
 20
9595.715360473253
 30
0.0
 11
12689.21703198605
 21
9595.715360473253
 31
0.0
  0
LINE
  5
1918B
330
19040
100
AcDbEntity
  8
SUNPOU
100
AcDbLine
 10
12064.21703198605
 20
5395.715360473253
 30
0.0
 11
12689.21703198605
 21
5395.715360473253
 31
0.0
  0
LINE
  5
1918C
330
19040
100
AcDbEntity
  8
SUNPOU
100
AcDbLine
 10
8244.217031986062
 20
9685.715360473253
 30
0.0
 11
8244.217031986062
 21
5275.715360473252
 31
0.0
  0
LINE
  5
1918D
330
19040
100
AcDbEntity
  8
CENTER
  6
1PL-M
100
AcDbLine
 10
11634.21703198606
 20
5295.715360473253
 30
0.0
 11
11634.21703198606
 21
9695.715360473252
 31
0.0
  0
LINE
  5
1918E
330
19040
100
AcDbEntity
  8
CENTER
  6
1PL-M
100
AcDbLine
 10
8834.217031986062
 20
5295.715360473253
 30
0.0
 11
8834.21703198606
 21
6200.715360473253
 31
0.0
  0
LINE
  5
1918F
330
19040
100
AcDbEntity
  8
SUNPOU
100
AcDbLine
 10
12644.21703198606
 20
9580.715360473252
 30
0.0
 11
12644.21703198606
 21
5410.715360473253
 31
0.0
  0
LINE
  5
19190
330
19040
100
AcDbEntity
  8
SUNPOU
100
AcDbLine
 10
12434.21703198606
 20
5680.715360473254
 30
0.0
 11
12434.21703198606
 21
5410.715360473253
 31
0.0
  0
LINE
  5
19191
330
19040
100
AcDbEntity
  8
SUNPOU
100
AcDbLine
 10
12404.21703198606
 20
5395.715360473253
 30
0.0
 11
12389.21703198605
 21
5395.715360473253
 31
0.0
  0
TEXT
  5
19192
330
19040
100
AcDbEntity
  8
SUNPOU
100
AcDbText
 10
12389.21703198605
 20
5460.001074758968
 30
0.0
 40
90.0
  1
300
 50
90.0
 41
0.6666666666666666
  7
00
 72
     4
 11
12344.21703198606
 21
5545.715360473253
 31
0.0
100
AcDbText
  0
TEXT
  5
19193
330
19040
100
AcDbEntity
  8
SUNPOU
100
AcDbText
 10
12599.21703198606
 20
7381.429646187537
 30
0.0
 40
90.0
  1
4200
 50
90.0
 41
0.6666666666666666
  7
00
 72
     4
 11
12554.21703198606
 21
7495.715360473251
 31
0.0
100
AcDbText
  0
LINE
  5
19194
330
19040
100
AcDbEntity
  8
SUNPOU
100
AcDbLine
 10
12434.21703198606
 20
9580.715360473252
 30
0.0
 11
12434.21703198606
 21
9310.715360473251
 31
0.0
  0
TEXT
  5
19195
330
19040
100
AcDbEntity
  8
SUNPOU
100
AcDbText
 10
12389.21703198605
 20
9360.001074758967
 30
0.0
 40
90.0
  1
300
 50
90.0
 41
0.6666666666666666
  7
00
 72
     1
 11
12344.21703198606
 21
9445.715360473252
 31
0.0
100
AcDbText
 73
     2
  0
LINE
  5
19196
330
19040
100
AcDbEntity
  8
SUNPOU
100
AcDbLine
 10
12404.21703198606
 20
9595.715360473253
 30
0.0
 11
12389.21703198605
 21
9595.715360473253
 31
0.0
  0
LINE
  5
19197
330
19040
100
AcDbEntity
  8
CENTER
  6
1PL-M
100
AcDbLine
 10
8834.217031986062
 20
6395.715360473253
 30
0.0
 11
8834.217031986062
 21
8020.715360473252
 31
0.0
  0
LINE
  5
19198
330
19040
100
AcDbEntity
  8
SUNPOU
100
AcDbLine
 10
8834.217031986062
 20
9725.715360473252
 30
0.0
 11
8834.217031986062
 21
10040.71536047325
 31
0.0
  0
LINE
  5
19199
330
19040
100
AcDbEntity
  8
SUNPOU
100
AcDbLine
 10
7534.217031986064
 20
9725.715360473252
 30
0.0
 11
7534.217031986064
 21
10040.71536047325
 31
0.0
  0
LINE
  5
1919A
330
19040
100
AcDbEntity
  8
SUNPOU
100
AcDbLine
 10
8819.217031986061
 20
9995.715360473253
 30
0.0
 11
7549.217031986064
 21
9995.715360473253
 31
0.0
  0
TEXT
  5
1919B
330
19040
100
AcDbEntity
  8
HIKIDASHI
100
AcDbText
 10
5574.264373012014
 20
9740.715360473252
 30
0.0
 40
90.0
  1
（鼻隠し外面）
  7
01
100
AcDbText
  0
TEXT
  5
1919C
330
19040
100
AcDbEntity
  8
HIKIDASHI
100
AcDbText
 10
5490.155771095993
 20
9455.715360473243
 30
0.0
 40
90.0
  1
（土間コン後面位置）
  7
01
100
AcDbText
  0
SOLID
  5
1919D
330
19040
100
AcDbEntity
  8
SUNPOU
100
AcDbTrace
 10
4099.471366614863
 20
5905.715360473253
 30
0.0
 11
4129.471366614864
 21
5905.715360473253
 31
0.0
 12
4114.471366614863
 22
5995.715360473253
 32
0.0
 13
4114.471366614863
 23
5995.715360473253
 33
0.0
  0
TEXT
  5
1919E
330
19040
100
AcDbEntity
  8
SUNPOU
100
AcDbText
 10
4088.628509471999
 20
6040.715360473253
 30
0.0
 40
90.0
  1
A
 41
0.6700000000000001
  7
00
 72
     4
 11
4114.471366614856
 21
6085.715360473253
 31
0.0
100
AcDbText
  0
LINE
  5
1919F
330
19040
100
AcDbEntity
  8
SUNPOU
100
AcDbLine
 10
4114.471366614863
 20
5905.715360473253
 30
0.0
 11
4114.471366614863
 21
5695.715360473253
 31
0.0
  0
LINE
  5
191A0
330
19040
100
AcDbEntity
  8
SUNPOU
100
AcDbLine
 10
4114.471366614863
 20
5695.715360473253
 30
0.0
 11
4264.471366614864
 21
5695.715360473253
 31
0.0
  0
LINE
  5
191A1
330
19040
100
AcDbEntity
  8
SUNPOU
100
AcDbLine
 10
5219.630294679762
 20
5695.715360473253
 30
0.0
 11
5069.630294679762
 21
5695.715360473253
 31
0.0
  0
LINE
  5
191A2
330
19040
100
AcDbEntity
  8
SUNPOU
100
AcDbLine
 10
5219.630294679762
 20
5905.715360473253
 30
0.0
 11
5219.630294679762
 21
5695.715360473253
 31
0.0
  0
TEXT
  5
191A3
330
19040
100
AcDbEntity
  8
SUNPOU
100
AcDbText
 10
5183.737437536905
 20
6032.143931901824
 30
0.0
 40
90.0
  1
A'
 41
0.6700000000000001
  7
00
 72
     4
 11
5219.630294679762
 21
6085.715360473253
 31
0.0
100
AcDbText
  0
SOLID
  5
191A4
330
19040
100
AcDbEntity
  8
SUNPOU
100
AcDbTrace
 10
5234.630294679762
 20
5905.715360473253
 30
0.0
 11
5204.630294679763
 21
5905.715360473253
 31
0.0
 12
5219.630294679762
 22
5995.715360473253
 32
0.0
 13
5219.630294679762
 23
5995.715360473253
 33
0.0
  0
TEXT
  5
191A5
330
19040
100
AcDbEntity
  8
HIKIDASHI
100
AcDbText
 10
5574.264373012014
 20
5160.715360473254
 30
0.0
 40
90.0
  1
（鼻隠し外面）
  7
01
100
AcDbText
  0
TEXT
  5
191A6
330
19040
100
AcDbEntity
  8
HIKIDASHI
100
AcDbText
 10
5490.155771095993
 20
5445.71536047326
 30
0.0
 40
90.0
  1
（土間コン前面位置）
  7
01
100
AcDbText
  0
TEXT
  5
191A7
330
19040
100
AcDbEntity
  8
HIKIDASHI
100
AcDbText
 10
8772.515803529449
 20
4879.531802304223
 30
0.0
 40
80.0
  1
)
 41
0.6700000000000001
  7
00
100
AcDbText
  0
TEXT
  5
191A8
330
19040
100
AcDbEntity
  8
HIKIDASHI
100
AcDbText
 10
8571.657054840066
 20
4895.09328005242
 30
0.0
 40
80.0
  1
1
 41
0.6700000000000001
  7
00
100
AcDbText
  0
TEXT
  5
191A9
330
19040
100
AcDbEntity
  8
HIKIDASHI
100
AcDbText
 10
8604.794192704373
 20
4879.531802304223
 30
0.0
 40
80.0
  1
/
 41
0.6700000000000001
  7
00
100
AcDbText
  0
TEXT
  5
191AA
330
19040
100
AcDbEntity
  8
HIKIDASHI
100
AcDbText
 10
8651.089347467019
 20
4853.363971103946
 30
0.0
 40
80.0
  1
40
 41
0.6700000000000001
  7
00
100
AcDbText
  0
TEXT
  5
191AB
330
19040
100
AcDbEntity
  8
HIKIDASHI
100
AcDbText
 10
8390.949138902394
 20
4879.531802304223
 30
0.0
 40
80.0
  1
(S=
 41
0.6700000000000001
  7
00
100
AcDbText
  0
TEXT
  5
191AC
330
19040
100
AcDbEntity
  8
HIKIDASHI
100
AcDbText
 10
7548.949138902393
 20
4855.715360473254
 30
0.0
 40
120.0
  1
基 礎 伏 図
  7
01
 72
     2
 11
8300.949138902394
 21
4855.715360473254
 31
0.0
100
AcDbText
  0
LINE
  5
191AD
330
19040
100
AcDbEntity
  8
U3
100
AcDbLine
 10
6598.75870121258
 20
2404.183932023014
 30
0.0
 11
5991.56789984557
 21
2404.183932023014
 31
0.0
  0
LINE
  5
191AE
330
19040
100
AcDbEntity
  8
U3
100
AcDbLine
 10
5991.56789984557
 20
2404.183932023014
 30
0.0
 11
6159.567899845569
 21
2236.183932023014
 31
0.0
  0
LINE
  5
191AF
330
19040
100
AcDbEntity
  8
U3
100
AcDbLine
 10
6057.744523354709
 20
2338.007308513876
 30
0.0
 11
6123.921146863847
 21
2404.183932023011
 31
0.0
  0
LINE
  5
191B0
330
19040
100
AcDbEntity
  8
U3
100
AcDbLine
 10
6546.234566512237
 20
2286.850598689682
 30
0.0
 11
6598.75870121258
 21
2339.374733390026
 31
0.0
  0
LINE
  5
191B1
330
19040
100
AcDbEntity
  8
U3
100
AcDbLine
 10
6159.567899845569
 20
2236.183932023014
 30
0.0
 11
6327.567899845568
 21
2404.183932023013
 31
0.0
  0
LINE
  5
191B2
330
19040
100
AcDbEntity
  8
U3
100
AcDbLine
 10
6225.744523354705
 20
2302.360555532152
 30
0.0
 11
6291.921146863845
 21
2236.183932023014
 31
0.0
  0
LINE
  5
191B3
330
19040
100
AcDbEntity
  8
U3
100
AcDbLine
 10
6276.656211600133
 20
2353.272243777583
 30
0.0
 11
6393.744523354705
 21
2236.183932023014
 31
0.0
  0
LINE
  5
191B4
330
19040
100
AcDbEntity
  8
U3
100
AcDbLine
 10
6108.65621160014
 20
2287.095620268444
 30
0.0
 11
6225.744523354709
 21
2404.183932023011
 31
0.0
  0
LINE
  5
191B5
330
19040
100
AcDbEntity
  8
U3
100
AcDbLine
 10
6444.65621160014
 20
2287.09562026845
 30
0.0
 11
6561.744523354708
 21
2404.183932023013
 31
0.0
  0
LINE
  5
191B6
330
19040
100
AcDbEntity
  8
U3
100
AcDbLine
 10
6327.567899845568
 20
2404.183932023013
 30
0.0
 11
6444.901233178907
 21
2286.850598689682
 31
0.0
  0
LINE
  5
191B7
330
19040
100
AcDbEntity
  8
U3
100
AcDbLine
 10
6561.744523354708
 20
2302.360555532152
 30
0.0
 11
6577.254480197176
 21
2286.850598689682
 31
0.0
  0
LINE
  5
191B8
330
19040
100
AcDbEntity
  8
U3
100
AcDbLine
 10
6662.75870121258
 20
2303.169754165141
 30
0.0
 11
6729.744523354703
 21
2236.183932023017
 31
0.0
  0
LINE
  5
191B9
330
19040
100
AcDbEntity
  8
U3
100
AcDbLine
 10
6663.567899845512
 20
2404.183932023014
 30
0.0
 11
6831.567899845566
 21
2236.183932023017
 31
0.0
  0
LINE
  5
191BA
330
19040
100
AcDbEntity
  8
U3
100
AcDbLine
 10
6831.567899845566
 20
2236.183932023017
 30
0.0
 11
6999.567899845565
 21
2404.183932023016
 31
0.0
  0
LINE
  5
191BB
330
19040
100
AcDbEntity
  8
U3
100
AcDbLine
 10
6897.744523354704
 20
2302.360555532156
 30
0.0
 11
6963.921146863839
 21
2236.183932023017
 31
0.0
  0
LINE
  5
191BC
330
19040
100
AcDbEntity
  8
U3
100
AcDbLine
 10
6948.656211600134
 20
2353.272243777587
 30
0.0
 11
7065.744523354704
 21
2236.183932023017
 31
0.0
  0
LINE
  5
191BD
330
19040
100
AcDbEntity
  8
U3
100
AcDbLine
 10
7110.758701212581
 20
2404.183932023014
 30
0.0
 11
6662.75870121258
 21
2404.183932023016
 31
0.0
  0
LINE
  5
191BE
330
19040
100
AcDbEntity
  8
U3
100
AcDbLine
 10
6780.656211600126
 20
2287.095620268441
 30
0.0
 11
6897.744523354704
 21
2404.183932023014
 31
0.0
  0
LINE
  5
191BF
330
19040
100
AcDbEntity
  8
U3
100
AcDbLine
 10
6999.567899845565
 20
2404.183932023013
 30
0.0
 11
7070.758701212584
 21
2332.993130655997
 31
0.0
  0
LINE
  5
191C0
330
19040
100
AcDbEntity
  8
KISO
100
AcDbLine
 10
8550.758701212577
 20
1876.183932023014
 30
0.0
 11
8550.758701212577
 21
1716.183932023016
 31
0.0
  0
LINE
  5
191C1
330
19040
100
AcDbEntity
  8
HATCH
100
AcDbLine
 10
7778.688496438757
 20
1716.183932023015
 30
0.0
 11
7871.064539105423
 21
1876.183932023014
 31
0.0
  0
LINE
  5
191C2
330
19040
100
AcDbEntity
  8
HATCH
100
AcDbLine
 10
7817.731205772083
 20
1876.183932023014
 30
0.0
 11
7844.397872438751
 21
1829.99590935635
 31
0.0
  0
LINE
  5
191C3
330
19040
100
AcDbEntity
  8
HATCH
100
AcDbLine
 10
7805.355163105422
 20
1762.371953356345
 30
0.0
 11
7832.02182977209
 21
1716.183932023015
 31
0.0
  0
LINE
  5
191C4
330
19040
100
AcDbEntity
  8
HATCH
100
AcDbLine
 10
7605.355163105421
 20
1762.371953356345
 30
0.0
 11
7632.02182977209
 21
1716.183932023015
 31
0.0
  0
LINE
  5
191C5
330
19040
100
AcDbEntity
  8
HATCH
100
AcDbLine
 10
7617.731205772082
 20
1876.183932023014
 30
0.0
 11
7644.397872438751
 21
1829.99590935635
 31
0.0
  0
LINE
  5
191C6
330
19040
100
AcDbEntity
  8
KISO
100
AcDbLine
 10
8390.758701212579
 20
2484.183932023016
 30
0.0
 11
8390.758701212579
 21
1876.183932023016
 31
0.0
  0
LINE
  5
191C7
330
19040
100
AcDbEntity
  8
KISO
100
AcDbLine
 10
7698.75870121258
 20
2484.183932023016
 30
0.0
 11
7110.758701212581
 21
2484.183932023016
 31
0.0
  0
LINE
  5
191C8
330
19040
100
AcDbEntity
  8
HATCH
100
AcDbLine
 10
7660.818692818849
 20
2484.183932023016
 30
0.0
 11
7110.758701212581
 21
1934.123940416742
 31
0.0
  0
LINE
  5
191C9
330
19040
100
AcDbEntity
  8
HATCH
100
AcDbLine
 10
7613.30111681885
 20
2484.183932023016
 30
0.0
 11
7110.758701212581
 21
1981.641516416744
 31
0.0
  0
LINE
  5
191CA
330
19040
100
AcDbEntity
  8
HATCH
100
AcDbLine
 10
7565.783542418848
 20
2484.183932023016
 30
0.0
 11
7110.758701212581
 21
2029.159090816739
 31
0.0
  0
LINE
  5
191CB
330
19040
100
AcDbEntity
  8
HATCH
100
AcDbLine
 10
7698.75870121258
 20
2134.531888053611
 30
0.0
 11
7544.410745181983
 21
1980.183932023016
 31
0.0
  0
LINE
  5
191CC
330
19040
100
AcDbEntity
  8
HATCH
100
AcDbLine
 10
7405.355163105422
 20
1762.371953356345
 30
0.0
 11
7432.021829772089
 21
1716.183932023015
 31
0.0
  0
LINE
  5
191CD
330
19040
100
AcDbEntity
  8
HATCH
100
AcDbLine
 10
7378.688496438757
 20
1716.183932023015
 30
0.0
 11
7471.064539105417
 21
1876.183932023014
 31
0.0
  0
LINE
  5
191CE
330
19040
100
AcDbEntity
  8
HATCH
100
AcDbLine
 10
7417.731205772082
 20
1876.183932023014
 30
0.0
 11
7444.39787243875
 21
1829.99590935635
 31
0.0
  0
LINE
  5
191CF
330
19040
100
AcDbEntity
  8
KISO
100
AcDbLine
 10
6950.758701212581
 20
1876.183932023014
 30
0.0
 11
6950.758701212581
 21
1716.183932023015
 31
0.0
  0
LINE
  5
191D0
330
19040
100
AcDbEntity
  8
HATCH
100
AcDbLine
 10
7205.355163105423
 20
1762.371953356345
 30
0.0
 11
7232.02182977209
 21
1716.183932023015
 31
0.0
  0
LINE
  5
191D1
330
19040
100
AcDbEntity
  8
HATCH
100
AcDbLine
 10
7217.731205772086
 20
1876.183932023014
 30
0.0
 11
7244.39787243875
 21
1829.99590935635
 31
0.0
  0
LINE
  5
191D2
330
19040
100
AcDbEntity
  8
HATCH
100
AcDbLine
 10
7178.688496438756
 20
1716.183932023015
 30
0.0
 11
7271.064539105417
 21
1876.183932023014
 31
0.0
  0
LINE
  5
191D3
330
19040
100
AcDbEntity
  8
KISO
100
AcDbLine
 10
7110.758701212581
 20
2484.183932023016
 30
0.0
 11
7110.758701212581
 21
1876.183932023016
 31
0.0
  0
LINE
  5
191D4
330
19040
100
AcDbEntity
  8
HATCH
100
AcDbLine
 10
7698.75870121258
 20
2229.567038453613
 30
0.0
 11
7345.375594781983
 21
1876.183932023016
 31
0.0
  0
LINE
  5
191D5
330
19040
100
AcDbEntity
  8
HATCH
100
AcDbLine
 10
7698.75870121258
 20
2182.049464053612
 30
0.0
 11
7496.893169181982
 21
1980.183932023016
 31
0.0
  0
LINE
  5
191D6
330
19040
100
AcDbEntity
  8
HATCH
100
AcDbLine
 10
7578.688496438757
 20
1716.183932023015
 30
0.0
 11
7671.064539105417
 21
1876.183932023014
 31
0.0
  0
LINE
  5
191D7
330
19040
100
AcDbEntity
  8
HATCH
100
AcDbLine
 10
8048.410745181982
 20
2484.183932023016
 30
0.0
 11
7802.758701212581
 21
2238.531888053611
 31
0.0
  0
LINE
  5
191D8
330
19040
100
AcDbEntity
  8
HATCH
100
AcDbLine
 10
8000.893169181983
 20
2484.183932023016
 30
0.0
 11
7802.758701212581
 21
2286.049464053611
 31
0.0
  0
LINE
  5
191D9
330
19040
100
AcDbEntity
  8
HATCH
100
AcDbLine
 10
7953.375594781983
 20
2484.183932023016
 30
0.0
 11
7802.758701212581
 21
2333.567038453611
 31
0.0
  0
LINE
  5
191DA
330
19040
100
AcDbEntity
  8
KISO
100
AcDbLine
 10
6950.758701212581
 20
1716.183932023015
 30
0.0
 11
8550.758701212577
 21
1716.183932023016
 31
0.0
  0
LINE
  5
191DB
330
19040
100
AcDbEntity
  8
HATCH
100
AcDbLine
 10
8017.731205772086
 20
1876.183932023014
 30
0.0
 11
8044.397872438755
 21
1829.99590935635
 31
0.0
  0
LINE
  5
191DC
330
19040
100
AcDbEntity
  8
HATCH
100
AcDbLine
 10
7978.688496438755
 20
1716.183932023015
 30
0.0
 11
8071.064539105421
 21
1876.183932023014
 31
0.0
  0
LINE
  5
191DD
330
19040
100
AcDbEntity
  8
HATCH
100
AcDbLine
 10
8005.355163105424
 20
1762.371953356345
 30
0.0
 11
8032.021829772089
 21
1716.183932023015
 31
0.0
  0
LINE
  5
191DE
330
19040
100
AcDbEntity
  8
HATCH
100
AcDbLine
 10
8390.758701212584
 20
2438.939835690478
 30
0.0
 11
7932.00279754512
 21
1980.183932023016
 31
0.0
  0
LINE
  5
191DF
330
19040
100
AcDbEntity
  8
HATCH
100
AcDbLine
 10
8388.485221545122
 20
2484.183932023016
 30
0.0
 11
7884.485221545121
 21
1980.183932023016
 31
0.0
  0
LINE
  5
191E0
330
19040
100
AcDbEntity
  8
HATCH
100
AcDbLine
 10
8340.96764714512
 20
2484.183932023016
 30
0.0
 11
7802.758701212581
 21
1945.974986090476
 31
0.0
  0
LINE
  5
191E1
330
19040
100
AcDbEntity
  8
HATCH
100
AcDbLine
 10
8390.758701212579
 20
2146.382933727341
 30
0.0
 11
8120.559699508254
 21
1876.183932023016
 31
0.0
  0
LINE
  5
191E2
330
19040
100
AcDbEntity
  8
HATCH
100
AcDbLine
 10
8390.758701212579
 20
2098.865359327338
 30
0.0
 11
8168.077273908258
 21
1876.183932023016
 31
0.0
  0
LINE
  5
191E3
330
19040
100
AcDbEntity
  8
HATCH
100
AcDbLine
 10
7480.893169181982
 20
1964.183932023016
 30
0.0
 11
7392.893169181981
 21
1876.183932023016
 31
0.0
  0
LINE
  5
191E4
330
19040
100
AcDbEntity
  8
HATCH
100
AcDbLine
 10
7528.410745181983
 20
1964.183932023016
 30
0.0
 11
7440.410745181982
 21
1876.183932023016
 31
0.0
  0
LINE
  5
191E5
330
19040
100
AcDbEntity
  8
HATCH
100
AcDbLine
 10
7820.967647145121
 20
1964.183932023016
 30
0.0
 11
7802.758701212581
 21
1945.974986090476
 31
0.0
  0
LINE
  5
191E6
330
19040
100
AcDbEntity
  8
HATCH
100
AcDbLine
 10
7868.485221545121
 20
1964.183932023016
 30
0.0
 11
7802.758701212581
 21
1898.457411690475
 31
0.0
  0
LINE
  5
191E7
330
19040
100
AcDbEntity
  8
HATCH
100
AcDbLine
 10
7916.00279754512
 20
1964.183932023016
 30
0.0
 11
7828.002797545119
 21
1876.183932023016
 31
0.0
  0
LINE
  5
191E8
330
19040
100
AcDbEntity
  8
KISO
100
AcDbLine
 10
6950.758701212581
 20
1876.183932023016
 30
0.0
 11
6950.758701212581
 21
1876.183932023014
 31
0.0
  0
LINE
  5
191E9
330
19040
100
AcDbEntity
  8
KISO
100
AcDbLine
 10
9228.152195755736
 20
2484.183932023016
 30
0.0
 11
7802.758701212581
 21
2484.183932023016
 31
0.0
  0
LINE
  5
191EA
330
19040
100
AcDbEntity
  8
1PL-M1
100
AcDbLine
 10
7750.758701212581
 20
1684.183932023015
 30
0.0
 11
7750.758701212581
 21
3332.183932023017
 31
0.0
  0
LINE
  5
191EB
330
19040
100
AcDbEntity
  8
HASHIRA
100
AcDbLine
 10
7698.75870121258
 20
1876.183932023016
 30
0.0
 11
7698.75870121258
 21
2964.183932023015
 31
0.0
  0
LINE
  5
191EC
330
19040
100
AcDbEntity
  8
HASHIRA
100
AcDbLine
 10
7802.758701212581
 20
1876.183932023016
 30
0.0
 11
7802.758701212581
 21
2964.183932023015
 31
0.0
  0
LINE
  5
191ED
330
19040
100
AcDbEntity
  8
HATCH
100
AcDbLine
 10
8390.758701212584
 20
2051.347783327336
 30
0.0
 11
8215.594849908258
 21
1876.183932023016
 31
0.0
  0
LINE
  5
191EE
330
19040
100
AcDbEntity
  8
HATCH
100
AcDbLine
 10
8217.731205772087
 20
1876.183932023014
 30
0.0
 11
8244.397872438755
 21
1829.99590935635
 31
0.0
  0
LINE
  5
191EF
330
19040
100
AcDbEntity
  8
HATCH
100
AcDbLine
 10
8178.688496438757
 20
1716.183932023015
 30
0.0
 11
8271.06453910542
 21
1876.183932023014
 31
0.0
  0
LINE
  5
191F0
330
19040
100
AcDbEntity
  8
HATCH
100
AcDbLine
 10
8205.355163105421
 20
1762.371953356345
 30
0.0
 11
8232.02182977209
 21
1716.183932023015
 31
0.0
  0
LINE
  5
191F1
330
19040
100
AcDbEntity
  8
HATCH
100
AcDbLine
 10
7005.355163105424
 20
1762.371953356344
 30
0.0
 11
7032.02182977209
 21
1716.183932023014
 31
0.0
  0
LINE
  5
191F2
330
19040
100
AcDbEntity
  8
HATCH
100
AcDbLine
 10
7017.731205772085
 20
1876.183932023014
 30
0.0
 11
7044.397872438752
 21
1829.99590935635
 31
0.0
  0
LINE
  5
191F3
330
19040
100
AcDbEntity
  8
HATCH
100
AcDbLine
 10
6978.688496438756
 20
1716.183932023014
 30
0.0
 11
7071.064539105417
 21
1876.183932023014
 31
0.0
  0
LINE
  5
191F4
330
19040
100
AcDbEntity
  8
HATCH
100
AcDbLine
 10
7273.226640455721
 20
2484.183932023017
 30
0.0
 11
7110.758701212581
 21
2321.715992779873
 31
0.0
  0
LINE
  5
191F5
330
19040
100
AcDbEntity
  8
HATCH
100
AcDbLine
 10
7225.70906445572
 20
2484.183932023016
 30
0.0
 11
7110.758701212581
 21
2369.233568779873
 31
0.0
  0
LINE
  5
191F6
330
19040
100
AcDbEntity
  8
HATCH
100
AcDbLine
 10
7178.191490055723
 20
2484.183932023016
 30
0.0
 11
7110.758701212581
 21
2416.751143179872
 31
0.0
  0
LINE
  5
191F7
330
19040
100
AcDbEntity
  8
SUNPOU
100
AcDbLine
 10
7765.75870121258
 20
3287.183932023015
 30
0.0
 11
9025.98920846283
 21
3287.183932023015
 31
0.0
  0
TEXT
  5
191F8
330
19040
100
AcDbEntity
  8
SUNPOU
100
AcDbText
 10
8386.586400353047
 20
3332.183932023015
 30
0.0
 40
90.0
  1
2800
 41
0.6666666666666666
  7
00
 72
     4
 11
8500.872114638761
 21
3377.183932023015
 31
0.0
100
AcDbText
  0
LINE
  5
191F9
330
19040
100
AcDbEntity
  8
KISO
100
AcDbLine
 10
8390.758701212579
 20
2260.183932023015
 30
0.0
 11
9228.152195755734
 21
2260.183932023015
 31
0.0
  0
LINE
  5
191FA
330
19040
100
AcDbEntity
  8
KISO
100
AcDbLine
 10
9228.152195755734
 20
2356.183932023015
 30
0.0
 11
8390.758701212579
 21
2356.183932023015
 31
0.0
  0
LINE
  5
191FB
330
19040
100
AcDbEntity
  8
HATCH
100
AcDbLine
 10
8577.919008412584
 20
2356.183932023015
 30
0.0
 11
8561.919008412582
 21
2356.183932023015
 31
0.0
  0
LINE
  5
191FC
330
19040
100
AcDbEntity
  8
HATCH
100
AcDbLine
 10
8513.744523612578
 20
2260.183932023015
 30
0.0
 11
8569.170149212579
 21
2356.183932023015
 31
0.0
  0
LINE
  5
191FD
330
19040
100
AcDbEntity
  8
HATCH
100
AcDbLine
 10
8390.758701212579
 20
2290.297058750295
 30
0.0
 11
8408.144523612582
 21
2260.183932023015
 31
0.0
  0
LINE
  5
191FE
330
19040
100
AcDbEntity
  8
HATCH
100
AcDbLine
 10
8532.944523612581
 20
2293.439306423015
 30
0.0
 11
8552.144523612581
 21
2260.183932023015
 31
0.0
  0
LINE
  5
191FF
330
19040
100
AcDbEntity
  8
HATCH
100
AcDbLine
 10
8433.919008412582
 20
2356.183932023015
 30
0.0
 11
8417.919008412582
 21
2356.183932023015
 31
0.0
  0
LINE
  5
19200
330
19040
100
AcDbEntity
  8
HATCH
100
AcDbLine
 10
8390.758701212579
 20
2296.581555464544
 30
0.0
 11
8425.170149212579
 21
2356.183932023015
 31
0.0
  0
LINE
  5
19201
330
19040
100
AcDbEntity
  8
HATCH
100
AcDbLine
 10
8390.758701212579
 20
2349.275557207618
 30
0.0
 11
8405.970149212578
 21
2322.928556023014
 31
0.0
  0
LINE
  5
19202
330
19040
100
AcDbEntity
  8
HATCH
100
AcDbLine
 10
8530.77014921258
 20
2356.183932023015
 30
0.0
 11
8549.97014921258
 21
2322.928556023014
 31
0.0
  0
LINE
  5
19203
330
19040
100
AcDbEntity
  8
HATCH
100
AcDbLine
 10
9073.74452361258
 20
2260.183932023015
 30
0.0
 11
9129.170149212582
 21
2356.183932023015
 31
0.0
  0
LINE
  5
19204
330
19040
100
AcDbEntity
  8
HATCH
100
AcDbLine
 10
8676.944523612581
 20
2293.439306423015
 30
0.0
 11
8696.144523612582
 21
2260.183932023015
 31
0.0
  0
LINE
  5
19205
330
19040
100
AcDbEntity
  8
HATCH
100
AcDbLine
 10
8657.744523612578
 20
2260.183932023015
 30
0.0
 11
8713.170149212579
 21
2356.183932023015
 31
0.0
  0
LINE
  5
19206
330
19040
100
AcDbEntity
  8
HATCH
100
AcDbLine
 10
8820.944523612581
 20
2293.439306423015
 30
0.0
 11
8840.144523612583
 21
2260.183932023015
 31
0.0
  0
LINE
  5
19207
330
19040
100
AcDbEntity
  8
HATCH
100
AcDbLine
 10
8801.74452361258
 20
2260.183932023015
 30
0.0
 11
8857.17014921258
 21
2356.183932023015
 31
0.0
  0
LINE
  5
19208
330
19040
100
AcDbEntity
  8
HATCH
100
AcDbLine
 10
8948.944523612581
 20
2293.439306423015
 30
0.0
 11
8968.144523612583
 21
2260.183932023015
 31
0.0
  0
LINE
  5
19209
330
19040
100
AcDbEntity
  8
HATCH
100
AcDbLine
 10
8929.744523612582
 20
2260.183932023015
 30
0.0
 11
8985.17014921258
 21
2356.183932023015
 31
0.0
  0
LINE
  5
1920A
330
19040
100
AcDbEntity
  8
HATCH
100
AcDbLine
 10
8818.77014921258
 20
2356.183932023015
 30
0.0
 11
8837.970149212578
 21
2322.928556023014
 31
0.0
  0
LINE
  5
1920B
330
19040
100
AcDbEntity
  8
HATCH
100
AcDbLine
 10
8674.77014921258
 20
2356.183932023015
 30
0.0
 11
8693.97014921258
 21
2322.928556023014
 31
0.0
  0
LINE
  5
1920C
330
19040
100
AcDbEntity
  8
HATCH
100
AcDbLine
 10
8946.77014921258
 20
2356.183932023015
 30
0.0
 11
8965.970149212578
 21
2322.928556023014
 31
0.0
  0
LINE
  5
1920D
330
19040
100
AcDbEntity
  8
HATCH
100
AcDbLine
 10
9092.944523612581
 20
2293.439306423015
 30
0.0
 11
9112.144523612583
 21
2260.183932023015
 31
0.0
  0
LINE
  5
1920E
330
19040
100
AcDbEntity
  8
HATCH
100
AcDbLine
 10
9090.770149212579
 20
2356.183932023015
 30
0.0
 11
9109.970149212578
 21
2322.928556023014
 31
0.0
  0
TEXT
  5
1920F
330
19040
100
AcDbEntity
  8
HIKIDASHI
100
AcDbText
 10
8650.921518715056
 20
2006.931554141242
 30
0.0
 40
90.0
  1
敷砂利又は砕石
  7
01
100
AcDbText
  0
LINE
  5
19210
330
19040
100
AcDbEntity
  8
HIKIDASHI
100
AcDbLine
 10
8604.261733917331
 20
1961.931554141242
 30
0.0
 11
9406.912082292711
 21
1961.931554141242
 31
0.0
  0
TEXT
  5
19211
330
19040
100
AcDbEntity
  8
SUNPOU
100
AcDbText
 10
8924.084949012959
 20
2619.183932023016
 30
0.0
 40
90.0
  1
F.L
 41
0.6666666666666666
  7
00
 72
     4
 11
8992.656377584387
 21
2664.183932023016
 31
0.0
100
AcDbText
  0
LINE
  5
19212
330
19040
100
AcDbEntity
  8
SUNPOU
100
AcDbLine
 10
8992.656377584387
 20
2484.183932023016
 30
0.0
 11
9044.617901811456
 21
2574.183932023016
 31
0.0
  0
LINE
  5
19213
330
19040
100
AcDbEntity
  8
SUNPOU
100
AcDbLine
 10
8940.694853357323
 20
2574.183932023016
 30
0.0
 11
8992.656377584387
 21
2484.183932023016
 31
0.0
  0
LINE
  5
19214
330
19040
100
AcDbEntity
  8
SUNPOU
100
AcDbLine
 10
9044.617901811456
 20
2574.183932023016
 30
0.0
 11
8940.694853357323
 21
2574.183932023016
 31
0.0
  0
LINE
  5
19215
330
19040
100
AcDbEntity
  8
HIKIDASHI
100
AcDbLine
 10
6725.592096228623
 20
1304.183932023017
 30
0.0
 11
6356.825719400998
 21
1304.183932023017
 31
0.0
  0
TEXT
  5
19216
330
19040
100
AcDbEntity
  8
HIKIDASHI
100
AcDbText
 10
6383.893326992911
 20
1349.183932023017
 30
0.0
 40
90.0
  1
砕　石
  7
01
 72
     2
 11
6683.89332699291
 21
1394.183932023016
 31
0.0
100
AcDbText
 73
     2
  0
TEXT
  5
19217
330
19040
100
AcDbEntity
  8
HIKIDASHI
100
AcDbText
 10
6592.266977118153
 20
2825.61354166191
 30
0.0
 40
90.0
  1
%%c
 41
0.6700000000000001
  7
00
100
AcDbText
  0
LINE
  5
19218
330
19040
100
AcDbEntity
  8
HIKIDASHI
100
AcDbLine
 10
6202.383508498655
 20
2754.183932023012
 30
0.0
 11
7047.682504043535
 21
2754.183932023012
 31
0.0
  0
TEXT
  5
19219
330
19040
100
AcDbEntity
  8
HIKIDASHI
100
AcDbText
 10
6757.972506084094
 20
2798.974945822921
 30
0.0
 40
89.55223880597014
  1
350
 41
0.6700000000000001
  7
00
100
AcDbText
  0
TEXT
  5
1921A
330
19040
100
AcDbEntity
  8
HIKIDASHI
100
AcDbText
 10
6676.837126930957
 20
2810.37796187376
 30
0.0
 40
89.55223880597014
  1
x
 41
0.6700000000000001
  7
00
100
AcDbText
  0
TEXT
  5
1921B
330
19040
100
AcDbEntity
  8
HIKIDASHI
100
AcDbText
 10
6232.383508498656
 20
2799.183932023012
 30
0.0
 40
90.0
  1
鉄筋
  7
01
100
AcDbText
  0
TEXT
  5
1921C
330
19040
100
AcDbEntity
  8
HIKIDASHI
100
AcDbText
 10
6463.890222100315
 20
2799.183932023012
 30
0.0
 40
89.55223880597014
  1
10
 41
0.6700000000000001
  7
00
100
AcDbText
  0
LINE
  5
1921D
330
19040
100
AcDbEntity
  8
HIKIDASHI
100
AcDbLine
 10
6707.087978073521
 20
2994.183932023013
 30
0.0
 11
7061.08797807352
 21
2994.183932023013
 31
0.0
  0
TEXT
  5
1921E
330
19040
100
AcDbEntity
  8
HIKIDASHI
100
AcDbText
 10
6737.087978073519
 20
3039.183932023012
 30
0.0
 40
90.0
  1
土　間
  7
01
100
AcDbText
  0
TEXT
  5
1921F
330
19040
100
AcDbEntity
  8
SUNPOU
100
AcDbText
 10
8729.52476018689
 20
1293.654565347389
 30
0.0
 40
90.0
  1
5-D13×5-D13
 41
0.6700000000000001
  7
01
 72
     4
 11
9072.947617329749
 21
1338.654565347389
 31
0.0
100
AcDbText
  0
TEXT
  5
19220
330
19040
100
AcDbEntity
  8
SUNPOU
100
AcDbText
 10
8868.947617329755
 20
1458.903907439804
 30
0.0
 40
90.0
  1
ベース筋
  7
01
 72
     4
 11
9072.947617329756
 21
1503.903907439804
 31
0.0
100
AcDbText
  0
TEXT
  5
19221
330
19040
100
AcDbEntity
  8
HIKIDASHI
100
AcDbText
 10
7826.962304091357
 20
925.1349131803465
 30
0.0
 40
90.0
  1
断 面
  7
01
100
AcDbText
  0
LINE
  5
19222
330
19040
100
AcDbEntity
  8
HIKIDASHI
100
AcDbLine
 10
7402.945024594797
 20
880.1349131803466
 30
0.0
 11
8098.572377830365
 21
880.1349131803466
 31
0.0
  0
LINE
  5
19223
330
19040
100
AcDbEntity
  8
HIKIDASHI
100
AcDbLine
 10
7402.945024594797
 20
850.1349131803465
 30
0.0
 11
8098.572377830365
 21
850.1349131803465
 31
0.0
  0
TEXT
  5
19224
330
19040
100
AcDbEntity
  8
HIKIDASHI
100
AcDbText
 10
7432.945024594793
 20
925.1349131803465
 30
0.0
 40
90.0
  1
B  ~  B'
 41
0.6700000000000001
  7
00
100
AcDbText
  0
LINE
  5
19225
330
19040
100
AcDbEntity
  8
HATCH
100
AcDbLine
 10
4197.973085892561
 20
1876.183932023019
 30
0.0
 11
4224.639752559227
 21
1829.995909356355
 31
0.0
  0
LINE
  5
19226
330
19040
100
AcDbEntity
  8
HATCH
100
AcDbLine
 10
4158.93037655923
 20
1716.183932023017
 30
0.0
 11
4251.306419225894
 21
1876.183932023019
 31
0.0
  0
LINE
  5
19227
330
19040
100
AcDbEntity
  8
HATCH
100
AcDbLine
 10
4185.597043225896
 20
1762.371953356349
 30
0.0
 11
4212.263709892561
 21
1716.183932023017
 31
0.0
  0
LINE
  5
19228
330
19040
100
AcDbEntity
  8
HATCH
100
AcDbLine
 10
8417.731205772087
 20
1876.183932023012
 30
0.0
 11
8444.397872438754
 21
1829.995909356347
 31
0.0
  0
LINE
  5
19229
330
19040
100
AcDbEntity
  8
HATCH
100
AcDbLine
 10
8378.688496438753
 20
1716.183932023013
 30
0.0
 11
8471.064539105418
 21
1876.183932023012
 31
0.0
  0
LINE
  5
1922A
330
19040
100
AcDbEntity
  8
HATCH
100
AcDbLine
 10
8405.355163105422
 20
1762.371953356343
 30
0.0
 11
8432.021829772086
 21
1716.183932023013
 31
0.0
  0
TEXT
  5
1922B
330
19040
100
AcDbEntity
  8
FILENAME
100
AcDbText
 10
13644.85714285714
 20
174.0
 30
0.0
 40
100.0
  1
＜YOKC-280-SA-U_3_JIS_GL.DXF ＞
  7
FILENAME
 72
     2
 11
16382.0
 21
174.0
 31
0.0
100
AcDbText
  0
LINE
  5
1922C
330
19040
100
AcDbEntity
  8
WAKUSEN-01
100
AcDbLine
 10
434.0000000000008
 20
413.9999999999997
 30
0.0
 11
16382.0
 21
413.9999999999997
 31
0.0
  0
LINE
  5
1922D
330
19040
100
AcDbEntity
  8
WAKUSEN-01
100
AcDbLine
 10
434.0000000000008
 20
11242.0
 30
0.0
 11
16382.0
 21
11242.0
 31
0.0
  0
LINE
  5
1922E
330
19040
100
AcDbEntity
  8
WAKUSEN-01
100
AcDbLine
 10
434.0000000000008
 20
413.9999999999997
 30
0.0
 11
434.0000000000008
 21
11242.0
 31
0.0
  0
LINE
  5
1922F
330
19040
100
AcDbEntity
  8
WAKUSEN-01
100
AcDbLine
 10
16382.0
 20
413.9999999999997
 30
0.0
 11
16382.0
 21
11242.0
 31
0.0
  0
LINE
  5
19230
330
19040
100
AcDbEntity
  8
WAKUSEN-01
100
AcDbLine
 10
10280.0
 20
1242.0
 30
0.0
 11
16382.0
 21
1242.0
 31
0.0
  0
LINE
  5
19231
330
19040
100
AcDbEntity
  8
WAKUSEN-02
100
AcDbLine
 10
10280.0
 20
827.9999999999997
 30
0.0
 11
13434.0
 21
827.9999999999997
 31
0.0
  0
TEXT
  5
19232
330
19040
100
AcDbEntity
  8
WAKUMOJI-01
100
AcDbText
 10
10335.13012998137
 20
1062.951504669661
 30
0.0
 40
120.0
  1
名　称
  7
WAKUMOJI
100
AcDbText
  0
TEXT
  5
19233
330
19040
100
AcDbEntity
  8
WAKUMOJI-01
100
AcDbText
 10
10328.25274254596
 20
659.5644874899107
 30
0.0
 40
120.0
  1
機種名
  7
WAKUMOJI
100
AcDbText
  0
LINE
  5
19234
330
19040
100
AcDbEntity
  8
WAKUSEN-01
100
AcDbLine
 10
10280.0
 20
413.9999999999985
 30
0.0
 11
10280.0
 21
1242.0
 31
0.0
  0
LINE
  5
19235
330
19040
100
AcDbEntity
  8
WAKUSEN-02
100
AcDbLine
 10
13434.0
 20
413.9999999999963
 30
0.0
 11
13434.0
 21
1242.0
 31
0.0
  0
LINE
  5
19236
330
19040
100
AcDbEntity
  8
YODOROGO
100
AcDbLine
 10
14988.80217064596
 20
997.8747482146435
 30
0.0
 11
14914.80217064596
 21
997.8747482146435
 31
0.0
1001
AUTOCAD_POSTSCRIPT_FIGURE
1002
{
1000
PSFILL
1000
Grayscale
1000
Grayscale
1070
    25
1002
}
  0
LINE
  5
19237
330
19040
100
AcDbEntity
  8
YODOROGO
100
AcDbLine
 10
14914.80217064596
 20
973.8747482146434
 30
0.0
 11
14988.80217064596
 21
973.8747482146434
 31
0.0
1001
AUTOCAD_POSTSCRIPT_FIGURE
1002
{
1000
PSFILL
1000
Grayscale
1000
Grayscale
1070
    25
1002
}
  0
LINE
  5
19238
330
19040
100
AcDbEntity
  8
YODOROGO
100
AcDbLine
 10
14988.80217064596
 20
953.874748214644
 30
0.0
 11
14914.80217064596
 21
953.874748214644
 31
0.0
1001
AUTOCAD_POSTSCRIPT_FIGURE
1002
{
1000
PSFILL
1000
Grayscale
1000
Grayscale
1070
    25
1002
}
  0
LINE
  5
19239
330
19040
100
AcDbEntity
  8
YODOROGO
100
AcDbLine
 10
14914.80217064596
 20
929.874748214644
 30
0.0
 11
14988.80217064596
 21
929.874748214644
 31
0.0
1001
AUTOCAD_POSTSCRIPT_FIGURE
1002
{
1000
PSFILL
1000
Grayscale
1000
Grayscale
1070
    25
1002
}
  0
LINE
  5
1923A
330
19040
100
AcDbEntity
  8
YODOROGO
100
AcDbLine
 10
14988.80217064596
 20
909.8747482146439
 30
0.0
 11
14914.80217064596
 21
909.8747482146439
 31
0.0
1001
AUTOCAD_POSTSCRIPT_FIGURE
1002
{
1000
PSFILL
1000
Grayscale
1000
Grayscale
1070
    25
1002
}
  0
LINE
  5
1923B
330
19040
100
AcDbEntity
  8
YODOROGO
100
AcDbLine
 10
14960.80217064594
 20
853.874748214644
 30
0.0
 11
14988.80217064596
 21
853.874748214644
 31
0.0
1001
AUTOCAD_POSTSCRIPT_FIGURE
1002
{
1000
PSFILL
1000
Grayscale
1000
Grayscale
1070
    25
1002
}
  0
LINE
  5
1923C
330
19040
100
AcDbEntity
  8
YODOROGO
100
AcDbLine
 10
14868.80217064596
 20
713.8747482146436
 30
0.0
 11
14968.80217064596
 21
740.6696674577553
 31
0.0
  0
LINE
  5
1923D
330
19040
100
AcDbEntity
  8
YODOROGO
100
AcDbLine
 10
14974.80217064595
 20
853.874748214644
 30
0.0
 11
14942.80217064596
 21
853.874748214644
 31
0.0
  0
ARC
  5
1923E
330
19040
100
AcDbEntity
  8
YODOROGO
100
AcDbCircle
 10
15127.17387491394
 20
903.9323046166312
 30
0.0
 40
190.9434321028236
100
AcDbArc
 50
213.9611167766784
 51
264.4787207431779
  0
ARC
  5
1923F
330
19040
100
AcDbEntity
  8
YODOROGO
100
AcDbCircle
 10
15127.17387491396
 20
903.9323046166513
 30
0.0
 40
190.9434321028408
100
AcDbArc
 50
208.141144204866
 51
212.9210361185994
  0
LINE
  5
19240
330
19040
100
AcDbEntity
  8
YODOROGO
100
AcDbLine
 10
14885.70493649264
 20
778.403830673117
 30
0.0
 11
14966.89206625426
 21
800.1578565285436
 31
0.0
  0
LINE
  5
19241
330
19040
100
AcDbEntity
  8
YODOROGO
100
AcDbLine
 10
14868.80217064596
 20
713.8747482146436
 30
0.0
 11
14968.80217064596
 21
740.6696674577553
 31
0.0
  0
LINE
  5
19242
330
19040
100
AcDbEntity
  8
YODOROGO
100
AcDbLine
 10
14974.80217064595
 20
853.874748214644
 30
0.0
 11
14942.80217064596
 21
853.874748214644
 31
0.0
  0
ARC
  5
19243
330
19040
100
AcDbEntity
  8
YODOROGO
100
AcDbCircle
 10
15127.17387491394
 20
903.9323046166312
 30
0.0
 40
190.9434321028236
100
AcDbArc
 50
213.9611167766784
 51
264.4787207431779
  0
LINE
  5
19244
330
19040
100
AcDbEntity
  8
YODOROGO
100
AcDbLine
 10
14396.80217064594
 20
909.8747482146439
 30
0.0
 11
14216.80217064594
 21
909.8747482146439
 31
0.0
  0
LINE
  5
19245
330
19040
100
AcDbEntity
  8
YODOROGO
100
AcDbLine
 10
14256.80217064594
 20
713.8747482146436
 30
0.0
 11
14396.80217064594
 21
713.8747482146436
 31
0.0
  0
LINE
  5
19246
330
19040
100
AcDbEntity
  8
YODOROGO
100
AcDbLine
 10
14364.80217064596
 20
961.8747482146432
 30
0.0
 11
14248.80217064594
 21
961.8747482146432
 31
0.0
  0
LINE
  5
19247
330
19040
100
AcDbEntity
  8
YODOROGO
100
AcDbLine
 10
14292.80217064596
 20
1013.874748214644
 30
0.0
 11
14328.80217064596
 21
1013.874748214644
 31
0.0
  0
LINE
  5
19248
330
19040
100
AcDbEntity
  8
YODOROGO
100
AcDbLine
 10
14216.80217064594
 20
853.874748214644
 30
0.0
 11
14216.80217064594
 21
753.8747482146439
 31
0.0
  0
LINE
  5
19249
330
19040
100
AcDbEntity
  8
YODOROGO
100
AcDbLine
 10
14248.80217064594
 20
781.8747482146434
 30
0.0
 11
14248.80217064594
 21
853.874748214644
 31
0.0
  0
LINE
  5
1924A
330
19040
100
AcDbEntity
  8
YODOROGO
100
AcDbLine
 10
14292.80217064596
 20
873.8747482146449
 30
0.0
 11
14292.80217064596
 21
773.874748214644
 31
0.0
  0
LINE
  5
1924B
330
19040
100
AcDbEntity
  8
YODOROGO
100
AcDbLine
 10
13928.80217064596
 20
841.8747482146445
 30
0.0
 11
13888.80217064596
 21
809.9862070222856
 31
0.0
  0
LINE
  5
1924C
330
19040
100
AcDbEntity
  8
YODOROGO
100
AcDbLine
 10
13968.80217064596
 20
809.9862070222856
 30
0.0
 11
13928.80217064596
 21
841.8747482146445
 31
0.0
  0
LINE
  5
1924D
330
19040
100
AcDbEntity
  8
YODOROGO
100
AcDbLine
 10
13928.80217064596
 20
853.874748214644
 30
0.0
 11
13968.80217064596
 21
821.986207022285
 31
0.0
  0
LINE
  5
1924E
330
19040
100
AcDbEntity
  8
YODOROGO
100
AcDbLine
 10
13888.80217064596
 20
821.986207022285
 30
0.0
 11
13928.80217064596
 21
853.874748214644
 31
0.0
  0
LINE
  5
1924F
330
19040
100
AcDbEntity
  8
YODOROGO
100
AcDbLine
 10
14020.45660200844
 20
829.874748214644
 30
0.0
 11
14020.45660200844
 21
841.8747482146434
 31
0.0
  0
LINE
  5
19250
330
19040
100
AcDbEntity
  8
YODOROGO
100
AcDbLine
 10
13988.80217064596
 20
841.8747482146434
 30
0.0
 11
13988.80217064596
 21
833.8747482146427
 31
0.0
  0
LINE
  5
19251
330
19040
100
AcDbEntity
  8
YODOROGO
100
AcDbLine
 10
14049.06776011545
 20
853.874748214644
 30
0.0
 11
14049.06776011545
 21
827.751818637328
 31
0.0
1001
AUTOCAD_POSTSCRIPT_FIGURE
1002
{
1000
PSFILL
1000
Grayscale
1000
Grayscale
1070
   100
1002
}
  0
LINE
  5
19252
330
19040
100
AcDbEntity
  8
YODOROGO
100
AcDbLine
 10
14041.06776011546
 20
827.751818637328
 30
0.0
 11
14041.06776011546
 21
853.874748214644
 31
0.0
1001
AUTOCAD_POSTSCRIPT_FIGURE
1002
{
1000
PSFILL
1000
Grayscale
1000
Grayscale
1070
   100
1002
}
  0
LINE
  5
19253
330
19040
100
AcDbEntity
  8
YODOROGO
100
AcDbLine
 10
13904.80217064596
 20
804.3859520216292
 30
0.0
 11
13904.80217064596
 21
816.3859520216298
 31
0.0
  0
LINE
  5
19254
330
19040
100
AcDbEntity
  8
YODOROGO
100
AcDbLine
 10
13952.80217064596
 20
804.3859520216292
 30
0.0
 11
13904.80217064596
 21
804.3859520216292
 31
0.0
  0
LINE
  5
19255
330
19040
100
AcDbEntity
  8
YODOROGO
100
AcDbLine
 10
13952.80217064596
 20
816.3859520216298
 30
0.0
 11
13952.80217064596
 21
804.3859520216292
 31
0.0
  0
LINE
  5
19256
330
19040
100
AcDbEntity
  8
YODOROGO
100
AcDbLine
 10
13904.80217064596
 20
816.3859520216298
 30
0.0
 11
13952.80217064596
 21
816.3859520216298
 31
0.0
  0
LINE
  5
19257
330
19040
100
AcDbEntity
  8
YODOROGO
100
AcDbLine
 10
13912.25479445787
 20
784.2514286852374
 30
0.0
 11
13892.80217064596
 21
737.8747482146435
 31
0.0
1001
AUTOCAD_POSTSCRIPT_FIGURE
1002
{
1000
PSFILL
1000
Grayscale
1000
Grayscale
1070
   100
1002
}
  0
LINE
  5
19258
330
19040
100
AcDbEntity
  8
YODOROGO
100
AcDbLine
 10
13888.80217064596
 20
784.2514286852374
 30
0.0
 11
13912.25479445787
 21
784.2514286852374
 31
0.0
1001
AUTOCAD_POSTSCRIPT_FIGURE
1002
{
1000
PSFILL
1000
Grayscale
1000
Grayscale
1070
   100
1002
}
  0
LINE
  5
19259
330
19040
100
AcDbEntity
  8
YODOROGO
100
AcDbLine
 10
13888.80217064596
 20
794.2514286852374
 30
0.0
 11
13888.80217064596
 21
784.2514286852374
 31
0.0
1001
AUTOCAD_POSTSCRIPT_FIGURE
1002
{
1000
PSFILL
1000
Grayscale
1000
Grayscale
1070
   100
1002
}
  0
LINE
  5
1925A
330
19040
100
AcDbEntity
  8
YODOROGO
100
AcDbLine
 10
13968.80217064596
 20
794.2514286852374
 30
0.0
 11
13888.80217064596
 21
794.2514286852374
 31
0.0
1001
AUTOCAD_POSTSCRIPT_FIGURE
1002
{
1000
PSFILL
1000
Grayscale
1000
Grayscale
1070
   100
1002
}
  0
LINE
  5
1925B
330
19040
100
AcDbEntity
  8
YODOROGO
100
AcDbLine
 10
13968.80217064596
 20
784.2514286852374
 30
0.0
 11
13968.80217064596
 21
794.2514286852374
 31
0.0
1001
AUTOCAD_POSTSCRIPT_FIGURE
1002
{
1000
PSFILL
1000
Grayscale
1000
Grayscale
1070
   100
1002
}
  0
LINE
  5
1925C
330
19040
100
AcDbEntity
  8
YODOROGO
100
AcDbLine
 10
13922.25479445786
 20
784.2514286852374
 30
0.0
 11
13968.80217064596
 21
784.2514286852374
 31
0.0
1001
AUTOCAD_POSTSCRIPT_FIGURE
1002
{
1000
PSFILL
1000
Grayscale
1000
Grayscale
1070
   100
1002
}
  0
LINE
  5
1925D
330
19040
100
AcDbEntity
  8
YODOROGO
100
AcDbLine
 10
13907.77335914238
 20
747.8747482146435
 30
0.0
 11
13922.25479445786
 21
784.2514286852374
 31
0.0
1001
AUTOCAD_POSTSCRIPT_FIGURE
1002
{
1000
PSFILL
1000
Grayscale
1000
Grayscale
1070
   100
1002
}
  0
LINE
  5
1925E
330
19040
100
AcDbEntity
  8
YODOROGO
100
AcDbLine
 10
13951.02739540432
 20
747.8747482146435
 30
0.0
 11
13907.77335914238
 21
747.8747482146435
 31
0.0
1001
AUTOCAD_POSTSCRIPT_FIGURE
1002
{
1000
PSFILL
1000
Grayscale
1000
Grayscale
1070
   100
1002
}
  0
LINE
  5
1925F
330
19040
100
AcDbEntity
  8
YODOROGO
100
AcDbLine
 10
13942.53250239547
 20
768.1169053488464
 30
0.0
 11
13951.02739540432
 21
747.8747482146435
 31
0.0
1001
AUTOCAD_POSTSCRIPT_FIGURE
1002
{
1000
PSFILL
1000
Grayscale
1000
Grayscale
1070
   100
1002
}
  0
LINE
  5
19260
330
19040
100
AcDbEntity
  8
YODOROGO
100
AcDbLine
 10
13950.53250239547
 20
768.1169053488464
 30
0.0
 11
13942.53250239547
 21
768.1169053488464
 31
0.0
1001
AUTOCAD_POSTSCRIPT_FIGURE
1002
{
1000
PSFILL
1000
Grayscale
1000
Grayscale
1070
   100
1002
}
  0
LINE
  5
19261
330
19040
100
AcDbEntity
  8
YODOROGO
100
AcDbLine
 10
13964.80217064596
 20
737.8747482146435
 30
0.0
 11
13950.53250239547
 21
768.1169053488464
 31
0.0
1001
AUTOCAD_POSTSCRIPT_FIGURE
1002
{
1000
PSFILL
1000
Grayscale
1000
Grayscale
1070
   100
1002
}
  0
LINE
  5
19262
330
19040
100
AcDbEntity
  8
YODOROGO
100
AcDbLine
 10
13892.80217064596
 20
737.8747482146435
 30
0.0
 11
13964.80217064596
 21
737.8747482146435
 31
0.0
1001
AUTOCAD_POSTSCRIPT_FIGURE
1002
{
1000
PSFILL
1000
Grayscale
1000
Grayscale
1070
   100
1002
}
  0
LINE
  5
19263
330
19040
100
AcDbEntity
  8
YODOROGO
100
AcDbLine
 10
13888.80217064596
 20
809.9862070222856
 30
0.0
 11
13888.80217064596
 21
821.986207022285
 31
0.0
  0
LINE
  5
19264
330
19040
100
AcDbEntity
  8
YODOROGO
100
AcDbLine
 10
13968.80217064596
 20
821.986207022285
 30
0.0
 11
13968.80217064596
 21
809.9862070222856
 31
0.0
  0
ARC
  5
19265
330
19040
100
AcDbEntity
  8
YODOROGO
100
AcDbCircle
 10
14112.97022107348
 20
800.438882662663
 30
0.0
 40
87.99999999999995
100
AcDbArc
 50
280.3644312771313
 51
3.541483659218056
  0
ARC
  5
19266
330
19040
100
AcDbEntity
  8
YODOROGO
100
AcDbCircle
 10
14117.87801537965
 20
816.798903480952
 30
0.0
 40
55.99999999999914
100
AcDbArc
 50
281.2490582504155
 51
348.7509417495832
  0
LINE
  5
19267
330
19040
100
AcDbEntity
  8
YODOROGO
100
AcDbLine
 10
14128.80217064596
 20
761.8747482146434
 30
0.0
 11
14128.80217064596
 21
713.8747482146436
 31
0.0
  0
LINE
  5
19268
330
19040
100
AcDbEntity
  8
YODOROGO
100
AcDbLine
 10
14010.04445186845
 20
805.3252825309574
 30
0.0
 11
14020.45660200844
 21
829.874748214644
 31
0.0
  0
LINE
  5
19269
330
19040
100
AcDbEntity
  8
YODOROGO
100
AcDbLine
 10
14020.80217064596
 20
791.5602449742006
 30
0.0
 11
14010.04445186845
 21
805.3252825309574
 31
0.0
  0
LINE
  5
1926A
330
19040
100
AcDbEntity
  8
YODOROGO
100
AcDbLine
 10
14020.80217064596
 20
781.5602449741994
 30
0.0
 11
14020.80217064596
 21
791.5602449742006
 31
0.0
  0
LINE
  5
1926B
330
19040
100
AcDbEntity
  8
YODOROGO
100
AcDbLine
 10
14008.80217064596
 20
792.6185318747651
 30
0.0
 11
14020.80217064596
 21
781.5602449741994
 31
0.0
  0
LINE
  5
1926C
330
19040
100
AcDbEntity
  8
YODOROGO
100
AcDbLine
 10
14008.80217064596
 20
737.8747482146435
 30
0.0
 11
14008.80217064596
 21
792.6185318747651
 31
0.0
  0
LINE
  5
1926D
330
19040
100
AcDbEntity
  8
YODOROGO
100
AcDbLine
 10
14000.80217064596
 20
737.8747482146435
 30
0.0
 11
14008.80217064596
 21
737.8747482146435
 31
0.0
  0
LINE
  5
1926E
330
19040
100
AcDbEntity
  8
YODOROGO
100
AcDbLine
 10
14000.80217064596
 20
790.0026748448738
 30
0.0
 11
14000.80217064596
 21
737.8747482146435
 31
0.0
  0
LINE
  5
1926F
330
19040
100
AcDbEntity
  8
YODOROGO
100
AcDbLine
 10
13988.80217064596
 20
766.3840395167142
 30
0.0
 11
14000.80217064596
 21
790.0026748448738
 31
0.0
  0
LINE
  5
19270
330
19040
100
AcDbEntity
  8
YODOROGO
100
AcDbLine
 10
13988.80217064596
 20
778.3840395167149
 30
0.0
 11
13988.80217064596
 21
766.3840395167142
 31
0.0
  0
LINE
  5
19271
330
19040
100
AcDbEntity
  8
YODOROGO
100
AcDbLine
 10
14012.91438714567
 20
833.8747482146427
 30
0.0
 11
13988.80217064596
 21
778.3840395167149
 31
0.0
  0
LINE
  5
19272
330
19040
100
AcDbEntity
  8
YODOROGO
100
AcDbLine
 10
13988.80217064596
 20
833.8747482146427
 30
0.0
 11
14012.91438714567
 21
833.8747482146427
 31
0.0
  0
LINE
  5
19273
330
19040
100
AcDbEntity
  8
YODOROGO
100
AcDbLine
 10
14025.06776011545
 20
827.751818637328
 30
0.0
 11
14041.06776011546
 21
827.751818637328
 31
0.0
1001
AUTOCAD_POSTSCRIPT_FIGURE
1002
{
1000
PSFILL
1000
Grayscale
1000
Grayscale
1070
   100
1002
}
  0
LINE
  5
19274
330
19040
100
AcDbEntity
  8
YODOROGO
100
AcDbLine
 10
14025.06776011545
 20
815.7518186373286
 30
0.0
 11
14025.06776011545
 21
827.751818637328
 31
0.0
1001
AUTOCAD_POSTSCRIPT_FIGURE
1002
{
1000
PSFILL
1000
Grayscale
1000
Grayscale
1070
   100
1002
}
  0
LINE
  5
19275
330
19040
100
AcDbEntity
  8
YODOROGO
100
AcDbLine
 10
14041.06776011546
 20
815.7518186373286
 30
0.0
 11
14025.06776011545
 21
815.7518186373286
 31
0.0
1001
AUTOCAD_POSTSCRIPT_FIGURE
1002
{
1000
PSFILL
1000
Grayscale
1000
Grayscale
1070
   100
1002
}
  0
LINE
  5
19276
330
19040
100
AcDbEntity
  8
YODOROGO
100
AcDbLine
 10
14041.06776011546
 20
749.8747482146441
 30
0.0
 11
14041.06776011546
 21
815.7518186373286
 31
0.0
1001
AUTOCAD_POSTSCRIPT_FIGURE
1002
{
1000
PSFILL
1000
Grayscale
1000
Grayscale
1070
   100
1002
}
  0
LINE
  5
19277
330
19040
100
AcDbEntity
  8
YODOROGO
100
AcDbLine
 10
14025.06776011545
 20
749.8747482146441
 30
0.0
 11
14041.06776011546
 21
749.8747482146441
 31
0.0
1001
AUTOCAD_POSTSCRIPT_FIGURE
1002
{
1000
PSFILL
1000
Grayscale
1000
Grayscale
1070
   100
1002
}
  0
LINE
  5
19278
330
19040
100
AcDbEntity
  8
YODOROGO
100
AcDbLine
 10
14025.06776011545
 20
737.8747482146435
 30
0.0
 11
14025.06776011545
 21
749.8747482146441
 31
0.0
1001
AUTOCAD_POSTSCRIPT_FIGURE
1002
{
1000
PSFILL
1000
Grayscale
1000
Grayscale
1070
   100
1002
}
  0
LINE
  5
19279
330
19040
100
AcDbEntity
  8
YODOROGO
100
AcDbLine
 10
14068.80217064596
 20
737.8747482146435
 30
0.0
 11
14025.06776011545
 21
737.8747482146435
 31
0.0
1001
AUTOCAD_POSTSCRIPT_FIGURE
1002
{
1000
PSFILL
1000
Grayscale
1000
Grayscale
1070
   100
1002
}
  0
LINE
  5
1927A
330
19040
100
AcDbEntity
  8
YODOROGO
100
AcDbLine
 10
14068.80217064596
 20
749.8747482146441
 30
0.0
 11
14068.80217064596
 21
737.8747482146435
 31
0.0
1001
AUTOCAD_POSTSCRIPT_FIGURE
1002
{
1000
PSFILL
1000
Grayscale
1000
Grayscale
1070
   100
1002
}
  0
LINE
  5
1927B
330
19040
100
AcDbEntity
  8
YODOROGO
100
AcDbLine
 10
14049.06776011545
 20
749.8747482146441
 30
0.0
 11
14068.80217064596
 21
749.8747482146441
 31
0.0
1001
AUTOCAD_POSTSCRIPT_FIGURE
1002
{
1000
PSFILL
1000
Grayscale
1000
Grayscale
1070
   100
1002
}
  0
LINE
  5
1927C
330
19040
100
AcDbEntity
  8
YODOROGO
100
AcDbLine
 10
14049.06776011545
 20
815.7518186373286
 30
0.0
 11
14049.06776011545
 21
749.8747482146441
 31
0.0
1001
AUTOCAD_POSTSCRIPT_FIGURE
1002
{
1000
PSFILL
1000
Grayscale
1000
Grayscale
1070
   100
1002
}
  0
LINE
  5
1927D
330
19040
100
AcDbEntity
  8
YODOROGO
100
AcDbLine
 10
14068.80217064596
 20
815.7518186373286
 30
0.0
 11
14049.06776011545
 21
815.7518186373286
 31
0.0
1001
AUTOCAD_POSTSCRIPT_FIGURE
1002
{
1000
PSFILL
1000
Grayscale
1000
Grayscale
1070
   100
1002
}
  0
LINE
  5
1927E
330
19040
100
AcDbEntity
  8
YODOROGO
100
AcDbLine
 10
14068.80217064596
 20
827.751818637328
 30
0.0
 11
14068.80217064596
 21
815.7518186373286
 31
0.0
1001
AUTOCAD_POSTSCRIPT_FIGURE
1002
{
1000
PSFILL
1000
Grayscale
1000
Grayscale
1070
   100
1002
}
  0
LINE
  5
1927F
330
19040
100
AcDbEntity
  8
YODOROGO
100
AcDbLine
 10
14049.06776011545
 20
827.751818637328
 30
0.0
 11
14068.80217064596
 21
827.751818637328
 31
0.0
1001
AUTOCAD_POSTSCRIPT_FIGURE
1002
{
1000
PSFILL
1000
Grayscale
1000
Grayscale
1070
   100
1002
}
  0
LINE
  5
19280
330
19040
100
AcDbEntity
  8
YODOROGO
100
AcDbLine
 10
14200.80217064594
 20
833.8747482146439
 30
0.0
 11
14172.80217064596
 21
833.8747482146439
 31
0.0
  0
LINE
  5
19281
330
19040
100
AcDbEntity
  8
YODOROGO
100
AcDbLine
 10
14200.80217064594
 20
805.8747482146443
 30
0.0
 11
14200.80217064594
 21
833.8747482146439
 31
0.0
  0
LINE
  5
19282
330
19040
100
AcDbEntity
  8
YODOROGO
100
AcDbLine
 10
14172.80217064596
 20
833.8747482146439
 30
0.0
 11
14172.80217064596
 21
805.8747482146443
 31
0.0
  0
ARC
  5
19283
330
19040
100
AcDbEntity
  8
YODOROGO
100
AcDbCircle
 10
14256.80217064594
 20
753.8747482146439
 30
0.0
 40
40.0
100
AcDbArc
 50
180.0
 51
270.0
  0
ARC
  5
19284
330
19040
100
AcDbEntity
  8
YODOROGO
100
AcDbCircle
 10
14268.80217064594
 20
781.8747482146434
 30
0.0
 40
20.0
100
AcDbArc
 50
180.0
 51
270.0
  0
LINE
  5
19285
330
19040
100
AcDbEntity
  8
YODOROGO
100
AcDbLine
 10
14280.80217064596
 20
761.8747482146434
 30
0.0
 11
14268.80217064594
 21
761.8747482146434
 31
0.0
  0
ARC
  5
19286
330
19040
100
AcDbEntity
  8
YODOROGO
100
AcDbCircle
 10
14280.80217064596
 20
773.8747482146427
 30
0.0
 40
11.99999999999818
100
AcDbArc
 50
270.0
 51
0.0000000000054281
  0
LINE
  5
19287
330
19040
100
AcDbEntity
  8
YODOROGO
100
AcDbLine
 10
13900.80217064596
 20
945.3932903968532
 30
0.0
 11
13888.80217064596
 21
921.8883739758362
 31
0.0
1001
AUTOCAD_POSTSCRIPT_FIGURE
1002
{
1000
PSFILL
1000
Grayscale
1000
Grayscale
1070
   100
1002
}
  0
LINE
  5
19288
330
19040
100
AcDbEntity
  8
YODOROGO
100
AcDbLine
 10
13900.80217064596
 20
873.8747482146434
 30
0.0
 11
13900.80217064596
 21
945.3932903968532
 31
0.0
1001
AUTOCAD_POSTSCRIPT_FIGURE
1002
{
1000
PSFILL
1000
Grayscale
1000
Grayscale
1070
   100
1002
}
  0
LINE
  5
19289
330
19040
100
AcDbEntity
  8
YODOROGO
100
AcDbLine
 10
13908.80217064596
 20
873.8747482146434
 30
0.0
 11
13900.80217064596
 21
873.8747482146434
 31
0.0
1001
AUTOCAD_POSTSCRIPT_FIGURE
1002
{
1000
PSFILL
1000
Grayscale
1000
Grayscale
1070
   100
1002
}
  0
LINE
  5
1928A
330
19040
100
AcDbEntity
  8
YODOROGO
100
AcDbLine
 10
13908.80217064596
 20
946.8856660426332
 30
0.0
 11
13908.80217064596
 21
873.8747482146434
 31
0.0
1001
AUTOCAD_POSTSCRIPT_FIGURE
1002
{
1000
PSFILL
1000
Grayscale
1000
Grayscale
1070
   100
1002
}
  0
LINE
  5
1928B
330
19040
100
AcDbEntity
  8
YODOROGO
100
AcDbLine
 10
13920.80217064596
 20
933.8273791420684
 30
0.0
 11
13908.80217064596
 21
946.8856660426332
 31
0.0
1001
AUTOCAD_POSTSCRIPT_FIGURE
1002
{
1000
PSFILL
1000
Grayscale
1000
Grayscale
1070
   100
1002
}
  0
LINE
  5
1928C
330
19040
100
AcDbEntity
  8
YODOROGO
100
AcDbLine
 10
13920.80217064596
 20
941.8273791420681
 30
0.0
 11
13920.80217064596
 21
933.8273791420684
 31
0.0
1001
AUTOCAD_POSTSCRIPT_FIGURE
1002
{
1000
PSFILL
1000
Grayscale
1000
Grayscale
1070
   100
1002
}
  0
LINE
  5
1928D
330
19040
100
AcDbEntity
  8
YODOROGO
100
AcDbLine
 10
13908.80217064596
 20
958.8856660426325
 30
0.0
 11
13920.80217064596
 21
941.8273791420681
 31
0.0
1001
AUTOCAD_POSTSCRIPT_FIGURE
1002
{
1000
PSFILL
1000
Grayscale
1000
Grayscale
1070
   100
1002
}
  0
LINE
  5
1928E
330
19040
100
AcDbEntity
  8
YODOROGO
100
AcDbLine
 10
13908.80217064596
 20
969.8747482146441
 30
0.0
 11
13908.80217064596
 21
958.8856660426325
 31
0.0
1001
AUTOCAD_POSTSCRIPT_FIGURE
1002
{
1000
PSFILL
1000
Grayscale
1000
Grayscale
1070
   100
1002
}
  0
LINE
  5
1928F
330
19040
100
AcDbEntity
  8
YODOROGO
100
AcDbLine
 10
13944.80217064596
 20
969.8747482146441
 30
0.0
 11
13908.80217064596
 21
969.8747482146441
 31
0.0
1001
AUTOCAD_POSTSCRIPT_FIGURE
1002
{
1000
PSFILL
1000
Grayscale
1000
Grayscale
1070
   100
1002
}
  0
LINE
  5
19290
330
19040
100
AcDbEntity
  8
YODOROGO
100
AcDbLine
 10
13944.80217064596
 20
950.2841744681497
 30
0.0
 11
13944.80217064596
 21
969.8747482146441
 31
0.0
1001
AUTOCAD_POSTSCRIPT_FIGURE
1002
{
1000
PSFILL
1000
Grayscale
1000
Grayscale
1070
   100
1002
}
  0
LINE
  5
19291
330
19040
100
AcDbEntity
  8
YODOROGO
100
AcDbLine
 10
13928.80217064596
 20
950.2841744681497
 30
0.0
 11
13944.80217064596
 21
950.2841744681497
 31
0.0
1001
AUTOCAD_POSTSCRIPT_FIGURE
1002
{
1000
PSFILL
1000
Grayscale
1000
Grayscale
1070
   100
1002
}
  0
LINE
  5
19292
330
19040
100
AcDbEntity
  8
YODOROGO
100
AcDbLine
 10
13928.80217064596
 20
942.2841744681491
 30
0.0
 11
13928.80217064596
 21
950.2841744681497
 31
0.0
1001
AUTOCAD_POSTSCRIPT_FIGURE
1002
{
1000
PSFILL
1000
Grayscale
1000
Grayscale
1070
   100
1002
}
  0
LINE
  5
19293
330
19040
100
AcDbEntity
  8
YODOROGO
100
AcDbLine
 10
13944.80217064596
 20
942.2841744681491
 30
0.0
 11
13928.80217064596
 21
942.2841744681491
 31
0.0
1001
AUTOCAD_POSTSCRIPT_FIGURE
1002
{
1000
PSFILL
1000
Grayscale
1000
Grayscale
1070
   100
1002
}
  0
LINE
  5
19294
330
19040
100
AcDbEntity
  8
YODOROGO
100
AcDbLine
 10
13944.80217064596
 20
939.8095889822196
 30
0.0
 11
13944.80217064596
 21
942.2841744681491
 31
0.0
1001
AUTOCAD_POSTSCRIPT_FIGURE
1002
{
1000
PSFILL
1000
Grayscale
1000
Grayscale
1070
   100
1002
}
  0
LINE
  5
19295
330
19040
100
AcDbEntity
  8
YODOROGO
100
AcDbLine
 10
13924.80217064596
 20
906.4874905807087
 30
0.0
 11
13944.80217064596
 21
939.8095889822196
 31
0.0
1001
AUTOCAD_POSTSCRIPT_FIGURE
1002
{
1000
PSFILL
1000
Grayscale
1000
Grayscale
1070
   100
1002
}
  0
LINE
  5
19296
330
19040
100
AcDbEntity
  8
YODOROGO
100
AcDbLine
 10
13924.80217064596
 20
898.487490580708
 30
0.0
 11
13924.80217064596
 21
906.4874905807087
 31
0.0
1001
AUTOCAD_POSTSCRIPT_FIGURE
1002
{
1000
PSFILL
1000
Grayscale
1000
Grayscale
1070
   100
1002
}
  0
LINE
  5
19297
330
19040
100
AcDbEntity
  8
YODOROGO
100
AcDbLine
 10
13944.80217064596
 20
923.8095889822183
 30
0.0
 11
13924.80217064596
 21
898.487490580708
 31
0.0
1001
AUTOCAD_POSTSCRIPT_FIGURE
1002
{
1000
PSFILL
1000
Grayscale
1000
Grayscale
1070
   100
1002
}
  0
LINE
  5
19298
330
19040
100
AcDbEntity
  8
YODOROGO
100
AcDbLine
 10
13944.80217064596
 20
873.8747482146434
 30
0.0
 11
13944.80217064596
 21
923.8095889822183
 31
0.0
1001
AUTOCAD_POSTSCRIPT_FIGURE
1002
{
1000
PSFILL
1000
Grayscale
1000
Grayscale
1070
   100
1002
}
  0
LINE
  5
19299
330
19040
100
AcDbEntity
  8
YODOROGO
100
AcDbLine
 10
13952.80217064596
 20
873.8747482146434
 30
0.0
 11
13944.80217064596
 21
873.8747482146434
 31
0.0
1001
AUTOCAD_POSTSCRIPT_FIGURE
1002
{
1000
PSFILL
1000
Grayscale
1000
Grayscale
1070
   100
1002
}
  0
LINE
  5
1929A
330
19040
100
AcDbEntity
  8
YODOROGO
100
AcDbLine
 10
13952.80217064596
 20
924.7045060794032
 30
0.0
 11
13952.80217064596
 21
873.8747482146434
 31
0.0
1001
AUTOCAD_POSTSCRIPT_FIGURE
1002
{
1000
PSFILL
1000
Grayscale
1000
Grayscale
1070
   100
1002
}
  0
LINE
  5
1929B
330
19040
100
AcDbEntity
  8
YODOROGO
100
AcDbLine
 10
13968.80217064596
 20
898.487490580708
 30
0.0
 11
13952.80217064596
 21
924.7045060794032
 31
0.0
1001
AUTOCAD_POSTSCRIPT_FIGURE
1002
{
1000
PSFILL
1000
Grayscale
1000
Grayscale
1070
   100
1002
}
  0
LINE
  5
1929C
330
19040
100
AcDbEntity
  8
YODOROGO
100
AcDbLine
 10
13968.80217064596
 20
906.4874905807087
 30
0.0
 11
13968.80217064596
 21
898.487490580708
 31
0.0
1001
AUTOCAD_POSTSCRIPT_FIGURE
1002
{
1000
PSFILL
1000
Grayscale
1000
Grayscale
1070
   100
1002
}
  0
LINE
  5
1929D
330
19040
100
AcDbEntity
  8
YODOROGO
100
AcDbLine
 10
13952.80217064596
 20
940.7045060794041
 30
0.0
 11
13968.80217064596
 21
906.4874905807087
 31
0.0
1001
AUTOCAD_POSTSCRIPT_FIGURE
1002
{
1000
PSFILL
1000
Grayscale
1000
Grayscale
1070
   100
1002
}
  0
LINE
  5
1929E
330
19040
100
AcDbEntity
  8
YODOROGO
100
AcDbLine
 10
13952.80217064596
 20
942.2841744681502
 30
0.0
 11
13952.80217064596
 21
940.7045060794041
 31
0.0
1001
AUTOCAD_POSTSCRIPT_FIGURE
1002
{
1000
PSFILL
1000
Grayscale
1000
Grayscale
1070
   100
1002
}
  0
LINE
  5
1929F
330
19040
100
AcDbEntity
  8
YODOROGO
100
AcDbLine
 10
13968.80217064596
 20
942.2841744681491
 30
0.0
 11
13952.80217064596
 21
942.2841744681502
 31
0.0
1001
AUTOCAD_POSTSCRIPT_FIGURE
1002
{
1000
PSFILL
1000
Grayscale
1000
Grayscale
1070
   100
1002
}
  0
LINE
  5
192A0
330
19040
100
AcDbEntity
  8
YODOROGO
100
AcDbLine
 10
13968.80217064596
 20
950.2841744681497
 30
0.0
 11
13968.80217064596
 21
942.2841744681491
 31
0.0
1001
AUTOCAD_POSTSCRIPT_FIGURE
1002
{
1000
PSFILL
1000
Grayscale
1000
Grayscale
1070
   100
1002
}
  0
LINE
  5
192A1
330
19040
100
AcDbEntity
  8
YODOROGO
100
AcDbLine
 10
13952.80217064596
 20
950.2841744681497
 30
0.0
 11
13968.80217064596
 21
950.2841744681497
 31
0.0
1001
AUTOCAD_POSTSCRIPT_FIGURE
1002
{
1000
PSFILL
1000
Grayscale
1000
Grayscale
1070
   100
1002
}
  0
LINE
  5
192A2
330
19040
100
AcDbEntity
  8
YODOROGO
100
AcDbLine
 10
13952.80217064596
 20
969.8747482146441
 30
0.0
 11
13952.80217064596
 21
950.2841744681497
 31
0.0
1001
AUTOCAD_POSTSCRIPT_FIGURE
1002
{
1000
PSFILL
1000
Grayscale
1000
Grayscale
1070
   100
1002
}
  0
LINE
  5
192A3
330
19040
100
AcDbEntity
  8
YODOROGO
100
AcDbLine
 10
13968.80217064596
 20
969.8747482146441
 30
0.0
 11
13952.80217064596
 21
969.8747482146441
 31
0.0
1001
AUTOCAD_POSTSCRIPT_FIGURE
1002
{
1000
PSFILL
1000
Grayscale
1000
Grayscale
1070
   100
1002
}
  0
LINE
  5
192A4
330
19040
100
AcDbEntity
  8
YODOROGO
100
AcDbLine
 10
13968.80217064596
 20
977.8747482146435
 30
0.0
 11
13968.80217064596
 21
969.8747482146441
 31
0.0
1001
AUTOCAD_POSTSCRIPT_FIGURE
1002
{
1000
PSFILL
1000
Grayscale
1000
Grayscale
1070
   100
1002
}
  0
LINE
  5
192A5
330
19040
100
AcDbEntity
  8
YODOROGO
100
AcDbLine
 10
13952.80217064596
 20
977.8747482146435
 30
0.0
 11
13968.80217064596
 21
977.8747482146435
 31
0.0
1001
AUTOCAD_POSTSCRIPT_FIGURE
1002
{
1000
PSFILL
1000
Grayscale
1000
Grayscale
1070
   100
1002
}
  0
LINE
  5
192A6
330
19040
100
AcDbEntity
  8
YODOROGO
100
AcDbLine
 10
13952.80217064596
 20
989.8747482146442
 30
0.0
 11
13952.80217064596
 21
977.8747482146435
 31
0.0
1001
AUTOCAD_POSTSCRIPT_FIGURE
1002
{
1000
PSFILL
1000
Grayscale
1000
Grayscale
1070
   100
1002
}
  0
LINE
  5
192A7
330
19040
100
AcDbEntity
  8
YODOROGO
100
AcDbLine
 10
13944.80217064596
 20
989.8747482146442
 30
0.0
 11
13952.80217064596
 21
989.8747482146442
 31
0.0
1001
AUTOCAD_POSTSCRIPT_FIGURE
1002
{
1000
PSFILL
1000
Grayscale
1000
Grayscale
1070
   100
1002
}
  0
LINE
  5
192A8
330
19040
100
AcDbEntity
  8
YODOROGO
100
AcDbLine
 10
13944.80217064596
 20
977.8747482146435
 30
0.0
 11
13944.80217064596
 21
989.8747482146442
 31
0.0
1001
AUTOCAD_POSTSCRIPT_FIGURE
1002
{
1000
PSFILL
1000
Grayscale
1000
Grayscale
1070
   100
1002
}
  0
LINE
  5
192A9
330
19040
100
AcDbEntity
  8
YODOROGO
100
AcDbLine
 10
13932.80217064596
 20
977.8747482146435
 30
0.0
 11
13944.80217064596
 21
977.8747482146435
 31
0.0
1001
AUTOCAD_POSTSCRIPT_FIGURE
1002
{
1000
PSFILL
1000
Grayscale
1000
Grayscale
1070
   100
1002
}
  0
LINE
  5
192AA
330
19040
100
AcDbEntity
  8
YODOROGO
100
AcDbLine
 10
13932.80217064596
 20
989.8747482146442
 30
0.0
 11
13932.80217064596
 21
977.8747482146435
 31
0.0
1001
AUTOCAD_POSTSCRIPT_FIGURE
1002
{
1000
PSFILL
1000
Grayscale
1000
Grayscale
1070
   100
1002
}
  0
LINE
  5
192AB
330
19040
100
AcDbEntity
  8
YODOROGO
100
AcDbLine
 10
13924.80217064596
 20
989.8747482146442
 30
0.0
 11
13932.80217064596
 21
989.8747482146442
 31
0.0
1001
AUTOCAD_POSTSCRIPT_FIGURE
1002
{
1000
PSFILL
1000
Grayscale
1000
Grayscale
1070
   100
1002
}
  0
LINE
  5
192AC
330
19040
100
AcDbEntity
  8
YODOROGO
100
AcDbLine
 10
13924.80217064596
 20
977.8747482146435
 30
0.0
 11
13924.80217064596
 21
989.8747482146442
 31
0.0
1001
AUTOCAD_POSTSCRIPT_FIGURE
1002
{
1000
PSFILL
1000
Grayscale
1000
Grayscale
1070
   100
1002
}
  0
LINE
  5
192AD
330
19040
100
AcDbEntity
  8
YODOROGO
100
AcDbLine
 10
13908.80217064596
 20
977.8747482146435
 30
0.0
 11
13924.80217064596
 21
977.8747482146435
 31
0.0
1001
AUTOCAD_POSTSCRIPT_FIGURE
1002
{
1000
PSFILL
1000
Grayscale
1000
Grayscale
1070
   100
1002
}
  0
LINE
  5
192AE
330
19040
100
AcDbEntity
  8
YODOROGO
100
AcDbLine
 10
13908.80217064596
 20
989.8747482146442
 30
0.0
 11
13908.80217064596
 21
977.8747482146435
 31
0.0
1001
AUTOCAD_POSTSCRIPT_FIGURE
1002
{
1000
PSFILL
1000
Grayscale
1000
Grayscale
1070
   100
1002
}
  0
LINE
  5
192AF
330
19040
100
AcDbEntity
  8
YODOROGO
100
AcDbLine
 10
13900.80217064596
 20
989.8747482146442
 30
0.0
 11
13908.80217064596
 21
989.8747482146442
 31
0.0
1001
AUTOCAD_POSTSCRIPT_FIGURE
1002
{
1000
PSFILL
1000
Grayscale
1000
Grayscale
1070
   100
1002
}
  0
LINE
  5
192B0
330
19040
100
AcDbEntity
  8
YODOROGO
100
AcDbLine
 10
13900.80217064596
 20
977.8747482146435
 30
0.0
 11
13900.80217064596
 21
989.8747482146442
 31
0.0
1001
AUTOCAD_POSTSCRIPT_FIGURE
1002
{
1000
PSFILL
1000
Grayscale
1000
Grayscale
1070
   100
1002
}
  0
LINE
  5
192B1
330
19040
100
AcDbEntity
  8
YODOROGO
100
AcDbLine
 10
13888.80217064596
 20
977.8747482146435
 30
0.0
 11
13900.80217064596
 21
977.8747482146435
 31
0.0
1001
AUTOCAD_POSTSCRIPT_FIGURE
1002
{
1000
PSFILL
1000
Grayscale
1000
Grayscale
1070
   100
1002
}
  0
LINE
  5
192B2
330
19040
100
AcDbEntity
  8
YODOROGO
100
AcDbLine
 10
13888.80217064596
 20
969.8747482146441
 30
0.0
 11
13888.80217064596
 21
977.8747482146435
 31
0.0
1001
AUTOCAD_POSTSCRIPT_FIGURE
1002
{
1000
PSFILL
1000
Grayscale
1000
Grayscale
1070
   100
1002
}
  0
LINE
  5
192B3
330
19040
100
AcDbEntity
  8
YODOROGO
100
AcDbLine
 10
13900.80217064596
 20
969.8747482146441
 30
0.0
 11
13888.80217064596
 21
969.8747482146441
 31
0.0
1001
AUTOCAD_POSTSCRIPT_FIGURE
1002
{
1000
PSFILL
1000
Grayscale
1000
Grayscale
1070
   100
1002
}
  0
LINE
  5
192B4
330
19040
100
AcDbEntity
  8
YODOROGO
100
AcDbLine
 10
13900.80217064596
 20
957.3932903968525
 30
0.0
 11
13900.80217064596
 21
969.8747482146441
 31
0.0
1001
AUTOCAD_POSTSCRIPT_FIGURE
1002
{
1000
PSFILL
1000
Grayscale
1000
Grayscale
1070
   100
1002
}
  0
LINE
  5
192B5
330
19040
100
AcDbEntity
  8
YODOROGO
100
AcDbLine
 10
13888.80217064596
 20
929.8883739758355
 30
0.0
 11
13900.80217064596
 21
957.3932903968525
 31
0.0
1001
AUTOCAD_POSTSCRIPT_FIGURE
1002
{
1000
PSFILL
1000
Grayscale
1000
Grayscale
1070
   100
1002
}
  0
LINE
  5
192B6
330
19040
100
AcDbEntity
  8
YODOROGO
100
AcDbLine
 10
13888.80217064596
 20
921.8883739758362
 30
0.0
 11
13888.80217064596
 21
929.8883739758355
 31
0.0
1001
AUTOCAD_POSTSCRIPT_FIGURE
1002
{
1000
PSFILL
1000
Grayscale
1000
Grayscale
1070
   100
1002
}
  0
LINE
  5
192B7
330
19040
100
AcDbEntity
  8
YODOROGO
100
AcDbLine
 10
14128.80217064596
 20
933.8747482146439
 30
0.0
 11
14200.80217064594
 21
912.4388128201532
 31
0.0
1001
AUTOCAD_POSTSCRIPT_FIGURE
1002
{
1000
PSFILL
1000
Grayscale
1000
Grayscale
1070
   100
1002
}
  0
LINE
  5
192B8
330
19040
100
AcDbEntity
  8
YODOROGO
100
AcDbLine
 10
14200.80217064594
 20
876.4388128201531
 30
0.0
 11
14128.80217064596
 21
897.8747482146435
 31
0.0
1001
AUTOCAD_POSTSCRIPT_FIGURE
1002
{
1000
PSFILL
1000
Grayscale
1000
Grayscale
1070
   100
1002
}
  0
LINE
  5
192B9
330
19040
100
AcDbEntity
  8
YODOROGO
100
AcDbLine
 10
14200.80217064594
 20
992.4388128201531
 30
0.0
 11
14128.80217064596
 21
1013.874748214644
 31
0.0
1001
AUTOCAD_POSTSCRIPT_FIGURE
1002
{
1000
PSFILL
1000
Grayscale
1000
Grayscale
1070
   100
1002
}
  0
LINE
  5
192BA
330
19040
100
AcDbEntity
  8
YODOROGO
100
AcDbLine
 10
14128.80217064596
 20
979.874748214644
 30
0.0
 11
14200.80217064594
 21
958.4388128201537
 31
0.0
1001
AUTOCAD_POSTSCRIPT_FIGURE
1002
{
1000
PSFILL
1000
Grayscale
1000
Grayscale
1070
   100
1002
}
  0
LINE
  5
192BB
330
19040
100
AcDbEntity
  8
YODOROGO
100
AcDbLine
 10
14128.80217064596
 20
897.8747482146435
 30
0.0
 11
14128.80217064596
 21
933.8747482146439
 31
0.0
1001
AUTOCAD_POSTSCRIPT_FIGURE
1002
{
1000
PSFILL
1000
Grayscale
1000
Grayscale
1070
   100
1002
}
  0
LINE
  5
192BC
330
19040
100
AcDbEntity
  8
YODOROGO
100
AcDbLine
 10
14128.80217064596
 20
1013.874748214644
 30
0.0
 11
14128.80217064596
 21
979.874748214644
 31
0.0
1001
AUTOCAD_POSTSCRIPT_FIGURE
1002
{
1000
PSFILL
1000
Grayscale
1000
Grayscale
1070
   100
1002
}
  0
LINE
  5
192BD
330
19040
100
AcDbEntity
  8
YODOROGO
100
AcDbLine
 10
14040.11816010337
 20
969.8747482146441
 30
0.0
 11
14064.80217064595
 21
873.8747482146434
 31
0.0
1001
AUTOCAD_POSTSCRIPT_FIGURE
1002
{
1000
PSFILL
1000
Grayscale
1000
Grayscale
1070
   100
1002
}
  0
LINE
  5
192BE
330
19040
100
AcDbEntity
  8
YODOROGO
100
AcDbLine
 10
13988.80217064596
 20
969.8747482146441
 30
0.0
 11
14040.11816010337
 21
969.8747482146441
 31
0.0
1001
AUTOCAD_POSTSCRIPT_FIGURE
1002
{
1000
PSFILL
1000
Grayscale
1000
Grayscale
1070
   100
1002
}
  0
LINE
  5
192BF
330
19040
100
AcDbEntity
  8
YODOROGO
100
AcDbLine
 10
13988.80217064596
 20
977.8747482146435
 30
0.0
 11
13988.80217064596
 21
969.8747482146441
 31
0.0
1001
AUTOCAD_POSTSCRIPT_FIGURE
1002
{
1000
PSFILL
1000
Grayscale
1000
Grayscale
1070
   100
1002
}
  0
LINE
  5
192C0
330
19040
100
AcDbEntity
  8
YODOROGO
100
AcDbLine
 10
14038.30343925995
 20
977.8747482146435
 30
0.0
 11
13988.80217064596
 21
977.8747482146435
 31
0.0
1001
AUTOCAD_POSTSCRIPT_FIGURE
1002
{
1000
PSFILL
1000
Grayscale
1000
Grayscale
1070
   100
1002
}
  0
LINE
  5
192C1
330
19040
100
AcDbEntity
  8
YODOROGO
100
AcDbLine
 10
14035.58135799485
 20
989.8747482146442
 30
0.0
 11
14038.30343925995
 21
977.8747482146435
 31
0.0
1001
AUTOCAD_POSTSCRIPT_FIGURE
1002
{
1000
PSFILL
1000
Grayscale
1000
Grayscale
1070
   100
1002
}
  0
LINE
  5
192C2
330
19040
100
AcDbEntity
  8
YODOROGO
100
AcDbLine
 10
14045.58135799485
 20
989.8747482146442
 30
0.0
 11
14035.58135799485
 21
989.8747482146442
 31
0.0
1001
AUTOCAD_POSTSCRIPT_FIGURE
1002
{
1000
PSFILL
1000
Grayscale
1000
Grayscale
1070
   100
1002
}
  0
LINE
  5
192C3
330
19040
100
AcDbEntity
  8
YODOROGO
100
AcDbLine
 10
14047.90343925997
 20
977.8747482146435
 30
0.0
 11
14045.58135799485
 21
989.8747482146442
 31
0.0
1001
AUTOCAD_POSTSCRIPT_FIGURE
1002
{
1000
PSFILL
1000
Grayscale
1000
Grayscale
1070
   100
1002
}
  0
LINE
  5
192C4
330
19040
100
AcDbEntity
  8
YODOROGO
100
AcDbLine
 10
14060.80217064596
 20
977.8747482146435
 30
0.0
 11
14047.90343925997
 21
977.8747482146435
 31
0.0
1001
AUTOCAD_POSTSCRIPT_FIGURE
1002
{
1000
PSFILL
1000
Grayscale
1000
Grayscale
1070
   100
1002
}
  0
LINE
  5
192C5
330
19040
100
AcDbEntity
  8
YODOROGO
100
AcDbLine
 10
14060.80217064596
 20
989.8747482146442
 30
0.0
 11
14060.80217064596
 21
977.8747482146435
 31
0.0
1001
AUTOCAD_POSTSCRIPT_FIGURE
1002
{
1000
PSFILL
1000
Grayscale
1000
Grayscale
1070
   100
1002
}
  0
LINE
  5
192C6
330
19040
100
AcDbEntity
  8
YODOROGO
100
AcDbLine
 10
14068.80217064596
 20
989.8747482146442
 30
0.0
 11
14060.80217064596
 21
989.8747482146442
 31
0.0
1001
AUTOCAD_POSTSCRIPT_FIGURE
1002
{
1000
PSFILL
1000
Grayscale
1000
Grayscale
1070
   100
1002
}
  0
LINE
  5
192C7
330
19040
100
AcDbEntity
  8
YODOROGO
100
AcDbLine
 10
14068.80217064596
 20
977.8747482146435
 30
0.0
 11
14068.80217064596
 21
989.8747482146442
 31
0.0
1001
AUTOCAD_POSTSCRIPT_FIGURE
1002
{
1000
PSFILL
1000
Grayscale
1000
Grayscale
1070
   100
1002
}
  0
LINE
  5
192C8
330
19040
100
AcDbEntity
  8
YODOROGO
100
AcDbLine
 10
14068.80217064596
 20
969.8747482146441
 30
0.0
 11
14068.80217064596
 21
977.8747482146435
 31
0.0
1001
AUTOCAD_POSTSCRIPT_FIGURE
1002
{
1000
PSFILL
1000
Grayscale
1000
Grayscale
1070
   100
1002
}
  0
LINE
  5
192C9
330
19040
100
AcDbEntity
  8
YODOROGO
100
AcDbLine
 10
14049.45149343671
 20
969.8747482146441
 30
0.0
 11
14068.80217064596
 21
969.8747482146441
 31
0.0
1001
AUTOCAD_POSTSCRIPT_FIGURE
1002
{
1000
PSFILL
1000
Grayscale
1000
Grayscale
1070
   100
1002
}
  0
LINE
  5
192CA
330
19040
100
AcDbEntity
  8
YODOROGO
100
AcDbLine
 10
14068.80217064596
 20
873.8747482146434
 30
0.0
 11
14049.45149343671
 21
969.8747482146441
 31
0.0
1001
AUTOCAD_POSTSCRIPT_FIGURE
1002
{
1000
PSFILL
1000
Grayscale
1000
Grayscale
1070
   100
1002
}
  0
LINE
  5
192CB
330
19040
100
AcDbEntity
  8
YODOROGO
100
AcDbLine
 10
14064.80217064595
 20
873.8747482146434
 30
0.0
 11
14068.80217064596
 21
873.8747482146434
 31
0.0
1001
AUTOCAD_POSTSCRIPT_FIGURE
1002
{
1000
PSFILL
1000
Grayscale
1000
Grayscale
1070
   100
1002
}
  0
LINE
  5
192CC
330
19040
100
AcDbEntity
  8
YODOROGO
100
AcDbLine
 10
14039.03460996689
 20
887.8703881493972
 30
0.0
 11
13988.80217064596
 21
873.8747482146434
 31
0.0
  0
LINE
  5
192CD
330
19040
100
AcDbEntity
  8
YODOROGO
100
AcDbLine
 10
14039.03460996689
 20
899.3344897645364
 30
0.0
 11
14039.03460996689
 21
887.8703881493972
 31
0.0
  0
LINE
  5
192CE
330
19040
100
AcDbEntity
  8
YODOROGO
100
AcDbLine
 10
14016.91839030643
 20
893.4084665668834
 30
0.0
 11
14039.03460996689
 21
899.3344897645364
 31
0.0
  0
LINE
  5
192CF
330
19040
100
AcDbEntity
  8
YODOROGO
100
AcDbLine
 10
14016.91839030643
 20
936.2841744681499
 30
0.0
 11
14016.91839030643
 21
893.4084665668834
 31
0.0
  0
LINE
  5
192D0
330
19040
100
AcDbEntity
  8
YODOROGO
100
AcDbLine
 10
14039.03460996689
 20
936.2841744681499
 30
0.0
 11
14016.91839030643
 21
936.2841744681499
 31
0.0
  0
LINE
  5
192D1
330
19040
100
AcDbEntity
  8
YODOROGO
100
AcDbLine
 10
14039.03460996689
 20
946.2841744681487
 30
0.0
 11
14039.03460996689
 21
936.2841744681499
 31
0.0
  0
LINE
  5
192D2
330
19040
100
AcDbEntity
  8
YODOROGO
100
AcDbLine
 10
13988.80217064596
 20
946.2841744681487
 30
0.0
 11
14039.03460996689
 21
946.2841744681487
 31
0.0
  0
LINE
  5
192D3
330
19040
100
AcDbEntity
  8
YODOROGO
100
AcDbLine
 10
13988.80217064596
 20
936.2841744681499
 30
0.0
 11
13988.80217064596
 21
946.2841744681487
 31
0.0
  0
LINE
  5
192D4
330
19040
100
AcDbEntity
  8
YODOROGO
100
AcDbLine
 10
14010.91839030643
 20
936.2841744681499
 30
0.0
 11
13988.80217064596
 21
936.2841744681499
 31
0.0
  0
LINE
  5
192D5
330
19040
100
AcDbEntity
  8
YODOROGO
100
AcDbLine
 10
14010.91839030643
 20
892.3366697971587
 30
0.0
 11
14010.91839030643
 21
936.2841744681499
 31
0.0
  0
LINE
  5
192D6
330
19040
100
AcDbEntity
  8
YODOROGO
100
AcDbLine
 10
13988.80217064596
 20
885.8747482146432
 30
0.0
 11
14010.91839030643
 21
892.3366697971587
 31
0.0
  0
LINE
  5
192D7
330
19040
100
AcDbEntity
  8
YODOROGO
100
AcDbLine
 10
13988.80217064596
 20
873.8747482146434
 30
0.0
 11
13988.80217064596
 21
885.8747482146432
 31
0.0
  0
LINE
  5
192D8
330
19040
100
AcDbEntity
  8
YODOROGO
100
AcDbLine
 10
14000.80217064596
 20
853.874748214644
 30
0.0
 11
14000.80217064596
 21
841.8747482146434
 31
0.0
  0
LINE
  5
192D9
330
19040
100
AcDbEntity
  8
YODOROGO
100
AcDbLine
 10
14000.80217064596
 20
853.874748214644
 30
0.0
 11
14000.80217064596
 21
853.874748214644
 31
0.0
  0
LINE
  5
192DA
330
19040
100
AcDbEntity
  8
YODOROGO
100
AcDbLine
 10
14008.80217064596
 20
853.874748214644
 30
0.0
 11
14000.80217064596
 21
853.874748214644
 31
0.0
  0
LINE
  5
192DB
330
19040
100
AcDbEntity
  8
YODOROGO
100
AcDbLine
 10
14008.80217064596
 20
841.8747482146434
 30
0.0
 11
14008.80217064596
 21
853.874748214644
 31
0.0
  0
LINE
  5
192DC
330
19040
100
AcDbEntity
  8
YODOROGO
100
AcDbLine
 10
14020.45660200844
 20
841.8747482146434
 30
0.0
 11
14008.80217064596
 21
841.8747482146434
 31
0.0
  0
LINE
  5
192DD
330
19040
100
AcDbEntity
  8
YODOROGO
100
AcDbLine
 10
14000.80217064596
 20
841.8747482146434
 30
0.0
 11
13988.80217064596
 21
841.8747482146434
 31
0.0
  0
LINE
  5
192DE
330
19040
100
AcDbEntity
  8
YODOROGO
100
AcDbLine
 10
14041.06776011546
 20
853.874748214644
 30
0.0
 11
14049.06776011545
 21
853.874748214644
 31
0.0
1001
AUTOCAD_POSTSCRIPT_FIGURE
1002
{
1000
PSFILL
1000
Grayscale
1000
Grayscale
1070
   100
1002
}
  0
LINE
  5
192DF
330
19040
100
AcDbEntity
  8
YODOROGO
100
AcDbLine
 10
14200.80217064594
 20
912.4388128201532
 30
0.0
 11
14200.80217064594
 21
876.4388128201531
 31
0.0
1001
AUTOCAD_POSTSCRIPT_FIGURE
1002
{
1000
PSFILL
1000
Grayscale
1000
Grayscale
1070
   100
1002
}
  0
LINE
  5
192E0
330
19040
100
AcDbEntity
  8
YODOROGO
100
AcDbLine
 10
14200.80217064594
 20
958.4388128201537
 30
0.0
 11
14200.80217064594
 21
992.4388128201531
 31
0.0
1001
AUTOCAD_POSTSCRIPT_FIGURE
1002
{
1000
PSFILL
1000
Grayscale
1000
Grayscale
1070
   100
1002
}
  0
LINE
  5
192E1
330
19040
100
AcDbEntity
  8
YODOROGO
100
AcDbLine
 10
14216.80217064594
 20
909.8747482146439
 30
0.0
 11
14216.80217064594
 21
873.8747482146449
 31
0.0
  0
LINE
  5
192E2
330
19040
100
AcDbEntity
  8
YODOROGO
100
AcDbLine
 10
14248.80217064594
 20
853.874748214644
 30
0.0
 11
14216.80217064594
 21
853.874748214644
 31
0.0
  0
LINE
  5
192E3
330
19040
100
AcDbEntity
  8
YODOROGO
100
AcDbLine
 10
14216.80217064594
 20
873.8747482146449
 30
0.0
 11
14292.80217064596
 21
873.8747482146449
 31
0.0
  0
LINE
  5
192E4
330
19040
100
AcDbEntity
  8
YODOROGO
100
AcDbLine
 10
14248.80217064594
 20
933.8747482146439
 30
0.0
 11
14216.80217064594
 21
933.8747482146439
 31
0.0
  0
LINE
  5
192E5
330
19040
100
AcDbEntity
  8
YODOROGO
100
AcDbLine
 10
14248.80217064594
 20
961.8747482146432
 30
0.0
 11
14248.80217064594
 21
933.8747482146439
 31
0.0
  0
LINE
  5
192E6
330
19040
100
AcDbEntity
  8
YODOROGO
100
AcDbLine
 10
14292.80217064596
 20
993.8747482146439
 30
0.0
 11
14292.80217064596
 21
1013.874748214644
 31
0.0
  0
LINE
  5
192E7
330
19040
100
AcDbEntity
  8
YODOROGO
100
AcDbLine
 10
14216.80217064594
 20
993.8747482146439
 30
0.0
 11
14292.80217064596
 21
993.8747482146439
 31
0.0
  0
LINE
  5
192E8
330
19040
100
AcDbEntity
  8
YODOROGO
100
AcDbLine
 10
14216.80217064594
 20
933.8747482146439
 30
0.0
 11
14216.80217064594
 21
993.8747482146439
 31
0.0
  0
LINE
  5
192E9
330
19040
100
AcDbEntity
  8
YODOROGO
100
AcDbLine
 10
14500.80217064594
 20
1013.874748214644
 30
0.0
 11
14500.80217064594
 21
809.8747482146441
 31
0.0
  0
LINE
  5
192EA
330
19040
100
AcDbEntity
  8
YODOROGO
100
AcDbLine
 10
14536.80217064596
 20
789.8747482146441
 30
0.0
 11
14536.80217064596
 21
1013.874748214644
 31
0.0
  0
LINE
  5
192EB
330
19040
100
AcDbEntity
  8
YODOROGO
100
AcDbLine
 10
14630.80217064596
 20
745.8747482146431
 30
0.0
 11
14630.80217064596
 21
1003.874748214644
 31
0.0
  0
LINE
  5
192EC
330
19040
100
AcDbEntity
  8
YODOROGO
100
AcDbLine
 10
14598.80217064596
 20
1003.874748214644
 30
0.0
 11
14598.80217064596
 21
745.8747482146431
 31
0.0
  0
LINE
  5
192ED
330
19040
100
AcDbEntity
  8
YODOROGO
100
AcDbLine
 10
14692.80217064596
 20
1013.874748214644
 30
0.0
 11
14692.80217064596
 21
713.8747482146436
 31
0.0
  0
LINE
  5
192EE
330
19040
100
AcDbEntity
  8
YODOROGO
100
AcDbLine
 10
14728.80217064596
 20
713.8747482146436
 30
0.0
 11
14728.80217064596
 21
1013.874748214644
 31
0.0
  0
LINE
  5
192EF
330
19040
100
AcDbEntity
  8
YODOROGO
100
AcDbLine
 10
14328.80217064594
 20
833.8747482146439
 30
0.0
 11
14328.80217064594
 21
873.8747482146449
 31
0.0
  0
LINE
  5
192F0
330
19040
100
AcDbEntity
  8
YODOROGO
100
AcDbLine
 10
14942.80217064596
 20
853.874748214644
 30
0.0
 11
14942.80217064596
 21
833.8747482146439
 31
0.0
  0
LINE
  5
192F1
330
19040
100
AcDbEntity
  8
YODOROGO
100
AcDbLine
 10
14942.80217064596
 20
853.874748214644
 30
0.0
 11
14942.80217064596
 21
833.8747482146439
 31
0.0
  0
ARC
  5
192F2
330
19040
100
AcDbEntity
  8
YODOROGO
100
AcDbCircle
 10
14453.45578809342
 20
809.1089322211363
 30
0.0
 40
47.35257558937082
100
AcDbArc
 50
274.052441629071
 51
0.9266642149310712
  0
ARC
  5
192F3
330
19040
100
AcDbEntity
  8
YODOROGO
100
AcDbCircle
 10
14454.5930853599
 20
796.30536430522
 30
0.0
 40
82.46021178042756
100
AcDbArc
 50
271.5351210653777
 51
355.5272775058505
  0
LINE
  5
192F4
330
19040
100
AcDbEntity
  8
YODOROGO
100
AcDbLine
 10
14456.80217064596
 20
761.8747482146434
 30
0.0
 11
14456.80217064596
 21
713.8747482146436
 31
0.0
  0
LINE
  5
192F5
330
19040
100
AcDbEntity
  8
YODOROGO
100
AcDbLine
 10
14396.80217064594
 20
833.8747482146439
 30
0.0
 11
14328.80217064594
 21
833.8747482146439
 31
0.0
  0
LINE
  5
192F6
330
19040
100
AcDbEntity
  8
YODOROGO
100
AcDbLine
 10
14396.80217064594
 20
801.8747482146444
 30
0.0
 11
14396.80217064594
 21
833.8747482146439
 31
0.0
  0
LINE
  5
192F7
330
19040
100
AcDbEntity
  8
YODOROGO
100
AcDbLine
 10
14328.80217064594
 20
801.8747482146444
 30
0.0
 11
14396.80217064594
 21
801.8747482146444
 31
0.0
  0
LINE
  5
192F8
330
19040
100
AcDbEntity
  8
YODOROGO
100
AcDbLine
 10
14328.80217064594
 20
761.8747482146434
 30
0.0
 11
14328.80217064594
 21
801.8747482146444
 31
0.0
  0
LINE
  5
192F9
330
19040
100
AcDbEntity
  8
YODOROGO
100
AcDbLine
 10
14396.80217064594
 20
761.8747482146434
 30
0.0
 11
14328.80217064594
 21
761.8747482146434
 31
0.0
  0
LINE
  5
192FA
330
19040
100
AcDbEntity
  8
YODOROGO
100
AcDbLine
 10
14396.80217064594
 20
713.8747482146436
 30
0.0
 11
14396.80217064594
 21
761.8747482146434
 31
0.0
  0
LINE
  5
192FB
330
19040
100
AcDbEntity
  8
YODOROGO
100
AcDbLine
 10
14598.80217064596
 20
745.8747482146431
 30
0.0
 11
14630.80217064596
 21
745.8747482146431
 31
0.0
  0
LINE
  5
192FC
330
19040
100
AcDbEntity
  8
YODOROGO
100
AcDbLine
 10
14692.80217064596
 20
713.8747482146436
 30
0.0
 11
14728.80217064596
 21
713.8747482146436
 31
0.0
  0
LINE
  5
192FD
330
19040
100
AcDbEntity
  8
YODOROGO
100
AcDbLine
 10
14868.80217064596
 20
764.2207260852818
 30
0.0
 11
14868.80217064596
 21
713.8747482146436
 31
0.0
  0
LINE
  5
192FE
330
19040
100
AcDbEntity
  8
YODOROGO
100
AcDbLine
 10
14808.80217064596
 20
713.8747482146436
 30
0.0
 11
14868.80217064596
 21
764.2207260852818
 31
0.0
  0
LINE
  5
192FF
330
19040
100
AcDbEntity
  8
YODOROGO
100
AcDbLine
 10
14808.80217064596
 20
773.874748214644
 30
0.0
 11
14808.80217064596
 21
713.8747482146436
 31
0.0
  0
LINE
  5
19300
330
19040
100
AcDbEntity
  8
YODOROGO
100
AcDbLine
 10
14856.47231434973
 20
813.8747482146435
 30
0.0
 11
14808.80217064596
 21
773.874748214644
 31
0.0
  0
LINE
  5
19301
330
19040
100
AcDbEntity
  8
YODOROGO
100
AcDbLine
 10
14808.80217064596
 20
813.8747482146435
 30
0.0
 11
14856.47231434973
 21
813.8747482146435
 31
0.0
  0
LINE
  5
19302
330
19040
100
AcDbEntity
  8
YODOROGO
100
AcDbLine
 10
14808.80217064596
 20
833.8747482146439
 30
0.0
 11
14808.80217064596
 21
813.8747482146435
 31
0.0
  0
LINE
  5
19303
330
19040
100
AcDbEntity
  8
YODOROGO
100
AcDbLine
 10
14942.80217064596
 20
833.8747482146439
 30
0.0
 11
14808.80217064596
 21
833.8747482146439
 31
0.0
  0
LINE
  5
19304
330
19040
100
AcDbEntity
  8
YODOROGO
100
AcDbLine
 10
14958.80217064596
 20
813.8747482146435
 30
0.0
 11
14888.80217064596
 21
813.8747482146435
 31
0.0
  0
LINE
  5
19305
330
19040
100
AcDbEntity
  8
YODOROGO
100
AcDbLine
 10
14888.80217064596
 20
781.0027187088283
 30
0.0
 11
14885.70493649264
 21
778.403830673117
 31
0.0
  0
LINE
  5
19306
330
19040
100
AcDbEntity
  8
YODOROGO
100
AcDbLine
 10
14888.80217064596
 20
813.8747482146435
 30
0.0
 11
14888.80217064596
 21
781.0027187088283
 31
0.0
  0
LINE
  5
19307
330
19040
100
AcDbEntity
  8
YODOROGO
100
AcDbLine
 10
14868.80217064596
 20
764.2207260852818
 30
0.0
 11
14868.80217064596
 21
713.8747482146436
 31
0.0
  0
LINE
  5
19308
330
19040
100
AcDbEntity
  8
YODOROGO
100
AcDbLine
 10
14808.80217064596
 20
713.8747482146436
 30
0.0
 11
14868.80217064596
 21
764.2207260852818
 31
0.0
  0
LINE
  5
19309
330
19040
100
AcDbEntity
  8
YODOROGO
100
AcDbLine
 10
14808.80217064596
 20
773.874748214644
 30
0.0
 11
14808.80217064596
 21
713.8747482146436
 31
0.0
  0
LINE
  5
1930A
330
19040
100
AcDbEntity
  8
YODOROGO
100
AcDbLine
 10
14856.47231434973
 20
813.8747482146435
 30
0.0
 11
14808.80217064596
 21
773.874748214644
 31
0.0
  0
LINE
  5
1930B
330
19040
100
AcDbEntity
  8
YODOROGO
100
AcDbLine
 10
14808.80217064596
 20
813.8747482146435
 30
0.0
 11
14856.47231434973
 21
813.8747482146435
 31
0.0
  0
LINE
  5
1930C
330
19040
100
AcDbEntity
  8
YODOROGO
100
AcDbLine
 10
14808.80217064596
 20
833.8747482146439
 30
0.0
 11
14808.80217064596
 21
813.8747482146435
 31
0.0
  0
LINE
  5
1930D
330
19040
100
AcDbEntity
  8
YODOROGO
100
AcDbLine
 10
14942.80217064596
 20
833.8747482146439
 30
0.0
 11
14808.80217064596
 21
833.8747482146439
 31
0.0
  0
LINE
  5
1930E
330
19040
100
AcDbEntity
  8
YODOROGO
100
AcDbLine
 10
14396.80217064594
 20
873.8747482146449
 30
0.0
 11
14396.80217064594
 21
909.8747482146439
 31
0.0
  0
LINE
  5
1930F
330
19040
100
AcDbEntity
  8
YODOROGO
100
AcDbLine
 10
14328.80217064594
 20
873.8747482146449
 30
0.0
 11
14396.80217064594
 21
873.8747482146449
 31
0.0
  0
LINE
  5
19310
330
19040
100
AcDbEntity
  8
YODOROGO
100
AcDbLine
 10
14364.80217064596
 20
933.8747482146439
 30
0.0
 11
14364.80217064596
 21
961.8747482146432
 31
0.0
  0
LINE
  5
19311
330
19040
100
AcDbEntity
  8
YODOROGO
100
AcDbLine
 10
14396.80217064594
 20
933.8747482146439
 30
0.0
 11
14364.80217064596
 21
933.8747482146439
 31
0.0
  0
LINE
  5
19312
330
19040
100
AcDbEntity
  8
YODOROGO
100
AcDbLine
 10
14396.80217064594
 20
973.8747482146434
 30
0.0
 11
14396.80217064594
 21
933.8747482146439
 31
0.0
  0
ARC
  5
19313
330
19040
100
AcDbEntity
  8
YODOROGO
100
AcDbCircle
 10
14376.80217064594
 20
973.8747482146434
 30
0.0
 40
20.0
100
AcDbArc
 50
0.0
 51
90.0
  0
LINE
  5
19314
330
19040
100
AcDbEntity
  8
YODOROGO
100
AcDbLine
 10
14328.80217064596
 20
993.8747482146439
 30
0.0
 11
14376.80217064594
 21
993.8747482146439
 31
0.0
  0
LINE
  5
19315
330
19040
100
AcDbEntity
  8
YODOROGO
100
AcDbLine
 10
14328.80217064596
 20
1013.874748214644
 30
0.0
 11
14328.80217064596
 21
993.8747482146439
 31
0.0
  0
LINE
  5
19316
330
19040
100
AcDbEntity
  8
YODOROGO
100
AcDbLine
 10
14536.80217064596
 20
1013.874748214644
 30
0.0
 11
14500.80217064594
 21
1013.874748214644
 31
0.0
  0
LINE
  5
19317
330
19040
100
AcDbEntity
  8
YODOROGO
100
AcDbLine
 10
14630.80217064596
 20
1003.874748214644
 30
0.0
 11
14598.80217064596
 21
1003.874748214644
 31
0.0
  0
LINE
  5
19318
330
19040
100
AcDbEntity
  8
YODOROGO
100
AcDbLine
 10
14728.80217064596
 20
1013.874748214644
 30
0.0
 11
14692.80217064596
 21
1013.874748214644
 31
0.0
  0
LINE
  5
19319
330
19040
100
AcDbEntity
  8
YODOROGO
100
AcDbLine
 10
14836.80217064596
 20
853.874748214644
 30
0.0
 11
14836.80217064596
 21
885.8747482146441
 31
0.0
1001
AUTOCAD_POSTSCRIPT_FIGURE
1002
{
1000
PSFILL
1000
Grayscale
1000
Grayscale
1070
    25
1002
}
  0
LINE
  5
1931A
330
19040
100
AcDbEntity
  8
YODOROGO
100
AcDbLine
 10
14808.80217064596
 20
853.874748214644
 30
0.0
 11
14836.80217064596
 21
853.874748214644
 31
0.0
1001
AUTOCAD_POSTSCRIPT_FIGURE
1002
{
1000
PSFILL
1000
Grayscale
1000
Grayscale
1070
    25
1002
}
  0
LINE
  5
1931B
330
19040
100
AcDbEntity
  8
YODOROGO
100
AcDbLine
 10
14808.80217064596
 20
909.8747482146439
 30
0.0
 11
14808.80217064596
 21
853.874748214644
 31
0.0
1001
AUTOCAD_POSTSCRIPT_FIGURE
1002
{
1000
PSFILL
1000
Grayscale
1000
Grayscale
1070
    25
1002
}
  0
LINE
  5
1931C
330
19040
100
AcDbEntity
  8
YODOROGO
100
AcDbLine
 10
14882.80217064596
 20
909.8747482146439
 30
0.0
 11
14808.80217064596
 21
909.8747482146439
 31
0.0
1001
AUTOCAD_POSTSCRIPT_FIGURE
1002
{
1000
PSFILL
1000
Grayscale
1000
Grayscale
1070
    25
1002
}
  0
LINE
  5
1931D
330
19040
100
AcDbEntity
  8
YODOROGO
100
AcDbLine
 10
14882.80217064596
 20
929.874748214644
 30
0.0
 11
14882.80217064596
 21
909.8747482146439
 31
0.0
1001
AUTOCAD_POSTSCRIPT_FIGURE
1002
{
1000
PSFILL
1000
Grayscale
1000
Grayscale
1070
    25
1002
}
  0
LINE
  5
1931E
330
19040
100
AcDbEntity
  8
YODOROGO
100
AcDbLine
 10
14808.80217064596
 20
929.874748214644
 30
0.0
 11
14882.80217064596
 21
929.874748214644
 31
0.0
1001
AUTOCAD_POSTSCRIPT_FIGURE
1002
{
1000
PSFILL
1000
Grayscale
1000
Grayscale
1070
    25
1002
}
  0
LINE
  5
1931F
330
19040
100
AcDbEntity
  8
YODOROGO
100
AcDbLine
 10
14808.80217064596
 20
953.874748214644
 30
0.0
 11
14808.80217064596
 21
929.874748214644
 31
0.0
1001
AUTOCAD_POSTSCRIPT_FIGURE
1002
{
1000
PSFILL
1000
Grayscale
1000
Grayscale
1070
    25
1002
}
  0
LINE
  5
19320
330
19040
100
AcDbEntity
  8
YODOROGO
100
AcDbLine
 10
14882.80217064596
 20
953.874748214644
 30
0.0
 11
14808.80217064596
 21
953.874748214644
 31
0.0
1001
AUTOCAD_POSTSCRIPT_FIGURE
1002
{
1000
PSFILL
1000
Grayscale
1000
Grayscale
1070
    25
1002
}
  0
LINE
  5
19321
330
19040
100
AcDbEntity
  8
YODOROGO
100
AcDbLine
 10
14882.80217064596
 20
973.8747482146434
 30
0.0
 11
14882.80217064596
 21
953.874748214644
 31
0.0
1001
AUTOCAD_POSTSCRIPT_FIGURE
1002
{
1000
PSFILL
1000
Grayscale
1000
Grayscale
1070
    25
1002
}
  0
LINE
  5
19322
330
19040
100
AcDbEntity
  8
YODOROGO
100
AcDbLine
 10
14808.80217064596
 20
973.8747482146434
 30
0.0
 11
14882.80217064596
 21
973.8747482146434
 31
0.0
1001
AUTOCAD_POSTSCRIPT_FIGURE
1002
{
1000
PSFILL
1000
Grayscale
1000
Grayscale
1070
    25
1002
}
  0
LINE
  5
19323
330
19040
100
AcDbEntity
  8
YODOROGO
100
AcDbLine
 10
14808.80217064596
 20
1013.874748214644
 30
0.0
 11
14808.80217064596
 21
973.8747482146434
 31
0.0
1001
AUTOCAD_POSTSCRIPT_FIGURE
1002
{
1000
PSFILL
1000
Grayscale
1000
Grayscale
1070
    25
1002
}
  0
LINE
  5
19324
330
19040
100
AcDbEntity
  8
YODOROGO
100
AcDbLine
 10
14832.80217064596
 20
1013.874748214644
 30
0.0
 11
14808.80217064596
 21
1013.874748214644
 31
0.0
1001
AUTOCAD_POSTSCRIPT_FIGURE
1002
{
1000
PSFILL
1000
Grayscale
1000
Grayscale
1070
    25
1002
}
  0
LINE
  5
19325
330
19040
100
AcDbEntity
  8
YODOROGO
100
AcDbLine
 10
14832.80217064596
 20
997.8747482146435
 30
0.0
 11
14832.80217064596
 21
1013.874748214644
 31
0.0
1001
AUTOCAD_POSTSCRIPT_FIGURE
1002
{
1000
PSFILL
1000
Grayscale
1000
Grayscale
1070
    25
1002
}
  0
LINE
  5
19326
330
19040
100
AcDbEntity
  8
YODOROGO
100
AcDbLine
 10
14882.80217064596
 20
997.8747482146435
 30
0.0
 11
14832.80217064596
 21
997.8747482146435
 31
0.0
1001
AUTOCAD_POSTSCRIPT_FIGURE
1002
{
1000
PSFILL
1000
Grayscale
1000
Grayscale
1070
    25
1002
}
  0
LINE
  5
19327
330
19040
100
AcDbEntity
  8
YODOROGO
100
AcDbLine
 10
14882.80217064596
 20
1013.874748214644
 30
0.0
 11
14882.80217064596
 21
997.8747482146435
 31
0.0
1001
AUTOCAD_POSTSCRIPT_FIGURE
1002
{
1000
PSFILL
1000
Grayscale
1000
Grayscale
1070
    25
1002
}
  0
LINE
  5
19328
330
19040
100
AcDbEntity
  8
YODOROGO
100
AcDbLine
 10
14914.80217064596
 20
1013.874748214644
 30
0.0
 11
14882.80217064596
 21
1013.874748214644
 31
0.0
1001
AUTOCAD_POSTSCRIPT_FIGURE
1002
{
1000
PSFILL
1000
Grayscale
1000
Grayscale
1070
    25
1002
}
  0
LINE
  5
19329
330
19040
100
AcDbEntity
  8
YODOROGO
100
AcDbLine
 10
14914.80217064596
 20
997.8747482146435
 30
0.0
 11
14914.80217064596
 21
1013.874748214644
 31
0.0
1001
AUTOCAD_POSTSCRIPT_FIGURE
1002
{
1000
PSFILL
1000
Grayscale
1000
Grayscale
1070
    25
1002
}
  0
LINE
  5
1932A
330
19040
100
AcDbEntity
  8
YODOROGO
100
AcDbLine
 10
14914.80217064596
 20
953.874748214644
 30
0.0
 11
14914.80217064596
 21
973.8747482146434
 31
0.0
1001
AUTOCAD_POSTSCRIPT_FIGURE
1002
{
1000
PSFILL
1000
Grayscale
1000
Grayscale
1070
    25
1002
}
  0
LINE
  5
1932B
330
19040
100
AcDbEntity
  8
YODOROGO
100
AcDbLine
 10
14914.80217064596
 20
909.8747482146439
 30
0.0
 11
14914.80217064596
 21
929.874748214644
 31
0.0
1001
AUTOCAD_POSTSCRIPT_FIGURE
1002
{
1000
PSFILL
1000
Grayscale
1000
Grayscale
1070
    25
1002
}
  0
LINE
  5
1932C
330
19040
100
AcDbEntity
  8
YODOROGO
100
AcDbLine
 10
14960.80217064594
 20
885.8747482146441
 30
0.0
 11
14960.80217064594
 21
853.874748214644
 31
0.0
1001
AUTOCAD_POSTSCRIPT_FIGURE
1002
{
1000
PSFILL
1000
Grayscale
1000
Grayscale
1070
    25
1002
}
  0
LINE
  5
1932D
330
19040
100
AcDbEntity
  8
YODOROGO
100
AcDbLine
 10
14914.80217064596
 20
885.8747482146441
 30
0.0
 11
14960.80217064594
 21
885.8747482146441
 31
0.0
1001
AUTOCAD_POSTSCRIPT_FIGURE
1002
{
1000
PSFILL
1000
Grayscale
1000
Grayscale
1070
    25
1002
}
  0
LINE
  5
1932E
330
19040
100
AcDbEntity
  8
YODOROGO
100
AcDbLine
 10
14914.80217064596
 20
853.874748214644
 30
0.0
 11
14914.80217064596
 21
885.8747482146441
 31
0.0
1001
AUTOCAD_POSTSCRIPT_FIGURE
1002
{
1000
PSFILL
1000
Grayscale
1000
Grayscale
1070
    25
1002
}
  0
LINE
  5
1932F
330
19040
100
AcDbEntity
  8
YODOROGO
100
AcDbLine
 10
14882.80217064596
 20
853.874748214644
 30
0.0
 11
14914.80217064596
 21
853.874748214644
 31
0.0
1001
AUTOCAD_POSTSCRIPT_FIGURE
1002
{
1000
PSFILL
1000
Grayscale
1000
Grayscale
1070
    25
1002
}
  0
LINE
  5
19330
330
19040
100
AcDbEntity
  8
YODOROGO
100
AcDbLine
 10
14882.80217064596
 20
885.8747482146441
 30
0.0
 11
14882.80217064596
 21
853.874748214644
 31
0.0
1001
AUTOCAD_POSTSCRIPT_FIGURE
1002
{
1000
PSFILL
1000
Grayscale
1000
Grayscale
1070
    25
1002
}
  0
LINE
  5
19331
330
19040
100
AcDbEntity
  8
YODOROGO
100
AcDbLine
 10
14836.80217064596
 20
885.8747482146441
 30
0.0
 11
14882.80217064596
 21
885.8747482146441
 31
0.0
1001
AUTOCAD_POSTSCRIPT_FIGURE
1002
{
1000
PSFILL
1000
Grayscale
1000
Grayscale
1070
    25
1002
}
  0
ARC
  5
19332
330
19040
100
AcDbEntity
  8
YODOROGO
100
AcDbCircle
 10
15529.75894667896
 20
801.3403687577881
 30
0.0
 40
89.11064055536078
100
AcDbArc
 50
281.0262749542535
 51
357.771135755738
  0
LINE
  5
19333
330
19040
100
AcDbEntity
  8
YODOROGO
100
AcDbLine
 10
15706.80217064596
 20
953.874748214644
 30
0.0
 11
15582.80217064596
 21
953.874748214644
 31
0.0
  0
LINE
  5
19334
330
19040
100
AcDbEntity
  8
YODOROGO
100
AcDbLine
 10
15706.80217064596
 20
1013.874748214644
 30
0.0
 11
15582.80217064596
 21
1013.874748214644
 31
0.0
  0
LINE
  5
19335
330
19040
100
AcDbEntity
  8
YODOROGO
100
AcDbLine
 10
15582.80217064596
 20
981.8747482146434
 30
0.0
 11
15706.80217064596
 21
981.8747482146434
 31
0.0
  0
LINE
  5
19336
330
19040
100
AcDbEntity
  8
YODOROGO
100
AcDbLine
 10
15395.80217064596
 20
781.8747482146434
 30
0.0
 11
15395.80217064596
 21
877.8747482146435
 31
0.0
  0
LINE
  5
19337
330
19040
100
AcDbEntity
  8
YODOROGO
100
AcDbLine
 10
15381.80217064596
 20
845.8747482146444
 30
0.0
 11
15381.80217064596
 21
781.8747482146434
 31
0.0
  0
LINE
  5
19338
330
19040
100
AcDbEntity
  8
YODOROGO
100
AcDbLine
 10
15361.80217064596
 20
745.8747482146443
 30
0.0
 11
15361.80217064596
 21
845.8747482146444
 31
0.0
  0
LINE
  5
19339
330
19040
100
AcDbEntity
  8
YODOROGO
100
AcDbLine
 10
15449.80217064596
 20
845.8747482146444
 30
0.0
 11
15449.80217064596
 21
745.8747482146443
 31
0.0
  0
LINE
  5
1933A
330
19040
100
AcDbEntity
  8
YODOROGO
100
AcDbLine
 10
15429.80217064596
 20
781.8747482146434
 30
0.0
 11
15429.80217064596
 21
845.8747482146444
 31
0.0
  0
LINE
  5
1933B
330
19040
100
AcDbEntity
  8
YODOROGO
100
AcDbLine
 10
15415.80217064596
 20
877.8747482146435
 30
0.0
 11
15415.80217064596
 21
781.8747482146434
 31
0.0
  0
LINE
  5
1933C
330
19040
100
AcDbEntity
  8
YODOROGO
100
AcDbLine
 10
15486.80217064596
 20
1013.874748214644
 30
0.0
 11
15486.80217064596
 21
733.8747482146435
 31
0.0
  0
LINE
  5
1933D
330
19040
100
AcDbEntity
  8
YODOROGO
100
AcDbLine
 10
15322.80217064596
 20
713.8747482146436
 30
0.0
 11
15322.80217064596
 21
1013.874748214644
 31
0.0
  0
LINE
  5
1933E
330
19040
100
AcDbEntity
  8
YODOROGO
100
AcDbLine
 10
15348.80217064596
 20
981.8747482146434
 30
0.0
 11
15348.80217064596
 21
713.8747482146436
 31
0.0
  0
LINE
  5
1933F
330
19040
100
AcDbEntity
  8
YODOROGO
100
AcDbLine
 10
15462.80217064596
 20
773.874748214644
 30
0.0
 11
15462.80217064596
 21
981.8747482146434
 31
0.0
  0
LINE
  5
19340
330
19040
100
AcDbEntity
  8
YODOROGO
100
AcDbLine
 10
15190.80217064596
 20
813.8747482146435
 30
0.0
 11
15190.80217064596
 21
839.8747482146442
 31
0.0
  0
LINE
  5
19341
330
19040
100
AcDbEntity
  8
YODOROGO
100
AcDbLine
 10
15308.80217064596
 20
839.8747482146442
 30
0.0
 11
15308.80217064596
 21
813.8747482146435
 31
0.0
  0
LINE
  5
19342
330
19040
100
AcDbEntity
  8
YODOROGO
100
AcDbLine
 10
15582.80217064596
 20
953.874748214644
 30
0.0
 11
15582.80217064596
 21
817.8747482146436
 31
0.0
  0
LINE
  5
19343
330
19040
100
AcDbEntity
  8
YODOROGO
100
AcDbLine
 10
14974.80217064595
 20
833.8747482146439
 30
0.0
 11
14974.80217064595
 21
853.874748214644
 31
0.0
  0
LINE
  5
19344
330
19040
100
AcDbEntity
  8
YODOROGO
100
AcDbLine
 10
14974.80217064595
 20
833.8747482146439
 30
0.0
 11
14974.80217064595
 21
853.874748214644
 31
0.0
  0
ARC
  5
19345
330
19040
100
AcDbEntity
  8
YODOROGO
100
AcDbCircle
 10
15268.80217064596
 20
753.8747482146439
 30
0.0
 40
40.0
100
AcDbArc
 50
270.0
 51
0.0
  0
LINE
  5
19346
330
19040
100
AcDbEntity
  8
YODOROGO
100
AcDbLine
 10
15284.80217064596
 20
799.8747482146441
 30
0.0
 11
15308.80217064596
 21
799.8747482146441
 31
0.0
  0
LINE
  5
19347
330
19040
100
AcDbEntity
  8
YODOROGO
100
AcDbLine
 10
15308.80217064596
 20
813.8747482146435
 30
0.0
 11
15264.80217064596
 21
813.8747482146435
 31
0.0
  0
LINE
  5
19348
330
19040
100
AcDbEntity
  8
YODOROGO
100
AcDbLine
 10
15108.80217064596
 20
833.8747482146439
 30
0.0
 11
14974.80217064595
 21
833.8747482146439
 31
0.0
  0
LINE
  5
19349
330
19040
100
AcDbEntity
  8
YODOROGO
100
AcDbLine
 10
15108.80217064596
 20
813.8747482146435
 30
0.0
 11
15108.80217064596
 21
833.8747482146439
 31
0.0
  0
LINE
  5
1934A
330
19040
100
AcDbEntity
  8
YODOROGO
100
AcDbLine
 10
15008.80217064596
 20
813.8747482146435
 30
0.0
 11
15108.80217064596
 21
813.8747482146435
 31
0.0
  0
ARC
  5
1934B
330
19040
100
AcDbEntity
  8
YODOROGO
100
AcDbCircle
 10
15115.02941435068
 20
934.4428574764513
 30
0.0
 40
160.6888181426141
100
AcDbArc
 50
228.6181454618993
 51
245.660289248906
  0
LINE
  5
1934C
330
19040
100
AcDbEntity
  8
YODOROGO
100
AcDbLine
 10
15052.80217064596
 20
801.8747482146444
 30
0.0
 11
15048.80217064598
 21
788.0364079349501
 31
0.0
  0
LINE
  5
1934D
330
19040
100
AcDbEntity
  8
YODOROGO
100
AcDbLine
 10
15094.80217064596
 20
801.8747482146444
 30
0.0
 11
15052.80217064596
 21
801.8747482146444
 31
0.0
  0
LINE
  5
1934E
330
19040
100
AcDbEntity
  8
YODOROGO
100
AcDbLine
 10
15088.80217064596
 20
775.9088612367134
 30
0.0
 11
15094.80217064596
 21
801.8747482146444
 31
0.0
  0
ARC
  5
1934F
330
19040
100
AcDbEntity
  8
YODOROGO
100
AcDbCircle
 10
15115.02941435023
 20
934.4428574765014
 30
0.0
 40
160.6888181426453
100
AcDbArc
 50
260.6062929796992
 51
267.7790355655586
  0
LINE
  5
19350
330
19040
100
AcDbEntity
  8
YODOROGO
100
AcDbLine
 10
15108.80217064596
 20
713.8747482146428
 30
0.0
 11
15108.80217064596
 21
773.874748214644
 31
0.0
  0
LINE
  5
19351
330
19040
100
AcDbEntity
  8
YODOROGO
100
AcDbLine
 10
14968.80217064596
 20
740.6696674577553
 30
0.0
 11
14968.80217064596
 21
797.2655452655705
 31
0.0
  0
LINE
  5
19352
330
19040
100
AcDbEntity
  8
YODOROGO
100
AcDbLine
 10
15108.80217064596
 20
833.8747482146439
 30
0.0
 11
14974.80217064595
 21
833.8747482146439
 31
0.0
  0
LINE
  5
19353
330
19040
100
AcDbEntity
  8
YODOROGO
100
AcDbLine
 10
15108.80217064596
 20
813.8747482146435
 30
0.0
 11
15108.80217064596
 21
833.8747482146439
 31
0.0
  0
LINE
  5
19354
330
19040
100
AcDbEntity
  8
YODOROGO
100
AcDbLine
 10
15008.80217064596
 20
813.8747482146435
 30
0.0
 11
15108.80217064596
 21
813.8747482146435
 31
0.0
  0
ARC
  5
19355
330
19040
100
AcDbEntity
  8
YODOROGO
100
AcDbCircle
 10
15115.02941435068
 20
934.4428574764513
 30
0.0
 40
160.6888181426141
100
AcDbArc
 50
228.6181454618993
 51
245.660289248906
  0
LINE
  5
19356
330
19040
100
AcDbEntity
  8
YODOROGO
100
AcDbLine
 10
15052.80217064596
 20
801.8747482146444
 30
0.0
 11
15048.80217064598
 21
788.0364079349501
 31
0.0
  0
LINE
  5
19357
330
19040
100
AcDbEntity
  8
YODOROGO
100
AcDbLine
 10
15094.80217064596
 20
801.8747482146444
 30
0.0
 11
15052.80217064596
 21
801.8747482146444
 31
0.0
  0
LINE
  5
19358
330
19040
100
AcDbEntity
  8
YODOROGO
100
AcDbLine
 10
15088.80217064596
 20
775.9088612367134
 30
0.0
 11
15094.80217064596
 21
801.8747482146444
 31
0.0
  0
ARC
  5
19359
330
19040
100
AcDbEntity
  8
YODOROGO
100
AcDbCircle
 10
15115.02941435023
 20
934.4428574765014
 30
0.0
 40
160.6888181426453
100
AcDbArc
 50
260.6062929796992
 51
267.7790355655586
  0
LINE
  5
1935A
330
19040
100
AcDbEntity
  8
YODOROGO
100
AcDbLine
 10
15108.80217064596
 20
713.8747482146428
 30
0.0
 11
15108.80217064596
 21
773.874748214644
 31
0.0
  0
LINE
  5
1935B
330
19040
100
AcDbEntity
  8
YODOROGO
100
AcDbLine
 10
14968.80217064596
 20
740.6696674577553
 30
0.0
 11
14968.80217064596
 21
797.2655452655705
 31
0.0
  0
LINE
  5
1935C
330
19040
100
AcDbEntity
  8
YODOROGO
100
AcDbLine
 10
15216.80217064596
 20
786.8747482146444
 30
0.0
 11
15190.80217064596
 21
786.8747482146444
 31
0.0
  0
LINE
  5
1935D
330
19040
100
AcDbEntity
  8
YODOROGO
100
AcDbLine
 10
15216.80217064596
 20
800.8747482146432
 30
0.0
 11
15216.80217064596
 21
786.8747482146444
 31
0.0
  0
LINE
  5
1935E
330
19040
100
AcDbEntity
  8
YODOROGO
100
AcDbLine
 10
15190.80217064596
 20
800.8747482146432
 30
0.0
 11
15216.80217064596
 21
800.8747482146432
 31
0.0
  0
LINE
  5
1935F
330
19040
100
AcDbEntity
  8
YODOROGO
100
AcDbLine
 10
15190.80217064596
 20
786.8747482146444
 30
0.0
 11
15190.80217064596
 21
800.8747482146432
 31
0.0
  0
LINE
  5
19360
330
19040
100
AcDbEntity
  8
YODOROGO
100
AcDbLine
 10
15214.80217064596
 20
788.8747482146436
 30
0.0
 11
15192.80217064595
 21
788.8747482146436
 31
0.0
  0
LINE
  5
19361
330
19040
100
AcDbEntity
  8
YODOROGO
100
AcDbLine
 10
15214.80217064596
 20
798.874748214644
 30
0.0
 11
15214.80217064596
 21
788.8747482146436
 31
0.0
  0
LINE
  5
19362
330
19040
100
AcDbEntity
  8
YODOROGO
100
AcDbLine
 10
15192.80217064595
 20
798.874748214644
 30
0.0
 11
15214.80217064596
 21
798.874748214644
 31
0.0
  0
LINE
  5
19363
330
19040
100
AcDbEntity
  8
YODOROGO
100
AcDbLine
 10
15192.80217064595
 20
788.8747482146436
 30
0.0
 11
15192.80217064595
 21
798.874748214644
 31
0.0
  0
LINE
  5
19364
330
19040
100
AcDbEntity
  8
YODOROGO
100
AcDbLine
 10
15212.80217064596
 20
790.8747482146432
 30
0.0
 11
15194.80217064596
 21
790.8747482146432
 31
0.0
  0
LINE
  5
19365
330
19040
100
AcDbEntity
  8
YODOROGO
100
AcDbLine
 10
15212.80217064596
 20
796.8747482146445
 30
0.0
 11
15212.80217064596
 21
790.8747482146432
 31
0.0
  0
LINE
  5
19366
330
19040
100
AcDbEntity
  8
YODOROGO
100
AcDbLine
 10
15194.80217064596
 20
796.8747482146445
 30
0.0
 11
15212.80217064596
 21
796.8747482146445
 31
0.0
  0
LINE
  5
19367
330
19040
100
AcDbEntity
  8
YODOROGO
100
AcDbLine
 10
15194.80217064596
 20
790.8747482146432
 30
0.0
 11
15194.80217064596
 21
796.8747482146445
 31
0.0
  0
LINE
  5
19368
330
19040
100
AcDbEntity
  8
YODOROGO
100
AcDbLine
 10
15210.80217064596
 20
792.8747482146435
 30
0.0
 11
15196.80217064596
 21
792.8747482146435
 31
0.0
  0
LINE
  5
19369
330
19040
100
AcDbEntity
  8
YODOROGO
100
AcDbLine
 10
15210.80217064596
 20
794.8747482146441
 30
0.0
 11
15210.80217064596
 21
792.8747482146435
 31
0.0
  0
LINE
  5
1936A
330
19040
100
AcDbEntity
  8
YODOROGO
100
AcDbLine
 10
15196.80217064596
 20
794.8747482146441
 30
0.0
 11
15210.80217064596
 21
794.8747482146441
 31
0.0
  0
LINE
  5
1936B
330
19040
100
AcDbEntity
  8
YODOROGO
100
AcDbLine
 10
15196.80217064596
 20
792.8747482146435
 30
0.0
 11
15196.80217064596
 21
794.8747482146441
 31
0.0
  0
LINE
  5
1936C
330
19040
100
AcDbEntity
  8
YODOROGO
100
AcDbLine
 10
15232.80217064596
 20
813.8747482146435
 30
0.0
 11
15190.80217064596
 21
813.8747482146435
 31
0.0
  0
LINE
  5
1936D
330
19040
100
AcDbEntity
  8
YODOROGO
100
AcDbLine
 10
15232.80217064596
 20
773.874748214644
 30
0.0
 11
15232.80217064596
 21
813.8747482146435
 31
0.0
  0
LINE
  5
1936E
330
19040
100
AcDbEntity
  8
YODOROGO
100
AcDbLine
 10
15190.80217064596
 20
773.874748214644
 30
0.0
 11
15232.80217064596
 21
773.874748214644
 31
0.0
  0
LINE
  5
1936F
330
19040
100
AcDbEntity
  8
YODOROGO
100
AcDbLine
 10
15190.80217064596
 20
713.8747482146436
 30
0.0
 11
15190.80217064596
 21
773.874748214644
 31
0.0
  0
LINE
  5
19370
330
19040
100
AcDbEntity
  8
YODOROGO
100
AcDbLine
 10
15268.80217064596
 20
713.8747482146436
 30
0.0
 11
15190.80217064596
 21
713.8747482146436
 31
0.0
  0
LINE
  5
19371
330
19040
100
AcDbEntity
  8
YODOROGO
100
AcDbLine
 10
15284.80217064596
 20
785.8747482146432
 30
0.0
 11
15284.80217064596
 21
799.8747482146441
 31
0.0
  0
ARC
  5
19372
330
19040
100
AcDbEntity
  8
YODOROGO
100
AcDbCircle
 10
15272.80217064594
 20
785.8747482146457
 30
0.0
 40
12.00000000000187
100
AcDbArc
 50
270.0
 51
359.9999999999877
  0
LINE
  5
19373
330
19040
100
AcDbEntity
  8
YODOROGO
100
AcDbLine
 10
15264.80217064596
 20
773.874748214644
 30
0.0
 11
15272.80217064594
 21
773.874748214644
 31
0.0
  0
LINE
  5
19374
330
19040
100
AcDbEntity
  8
YODOROGO
100
AcDbLine
 10
15264.80217064596
 20
813.8747482146435
 30
0.0
 11
15264.80217064596
 21
773.874748214644
 31
0.0
  0
LINE
  5
19375
330
19040
100
AcDbEntity
  8
YODOROGO
100
AcDbLine
 10
15449.80217064596
 20
773.874748214644
 30
0.0
 11
15462.80217064596
 21
773.874748214644
 31
0.0
  0
LINE
  5
19376
330
19040
100
AcDbEntity
  8
YODOROGO
100
AcDbLine
 10
15466.80217064596
 20
713.8747482146436
 30
0.0
 11
15449.80217064596
 21
713.8747482146436
 31
0.0
  0
LINE
  5
19377
330
19040
100
AcDbEntity
  8
YODOROGO
100
AcDbLine
 10
15381.80217064596
 20
781.8747482146434
 30
0.0
 11
15395.80217064596
 21
781.8747482146434
 31
0.0
  0
LINE
  5
19378
330
19040
100
AcDbEntity
  8
YODOROGO
100
AcDbLine
 10
15449.80217064596
 20
745.8747482146443
 30
0.0
 11
15361.80217064596
 21
745.8747482146443
 31
0.0
  0
LINE
  5
19379
330
19040
100
AcDbEntity
  8
YODOROGO
100
AcDbLine
 10
15415.80217064596
 20
781.8747482146434
 30
0.0
 11
15429.80217064596
 21
781.8747482146434
 31
0.0
  0
LINE
  5
1937A
330
19040
100
AcDbEntity
  8
YODOROGO
100
AcDbLine
 10
15449.80217064596
 20
713.8747482146436
 30
0.0
 11
15449.80217064596
 21
773.874748214644
 31
0.0
  0
LINE
  5
1937B
330
19040
100
AcDbEntity
  8
YODOROGO
100
AcDbLine
 10
15348.80217064596
 20
713.8747482146436
 30
0.0
 11
15322.80217064596
 21
713.8747482146436
 31
0.0
  0
LINE
  5
1937C
330
19040
100
AcDbEntity
  8
YODOROGO
100
AcDbLine
 10
15308.80217064596
 20
799.8747482146441
 30
0.0
 11
15308.80217064596
 21
753.8747482146439
 31
0.0
  0
ARC
  5
1937D
330
19040
100
AcDbEntity
  8
YODOROGO
100
AcDbCircle
 10
15466.80217064596
 20
733.8747482146435
 30
0.0
 40
20.0
100
AcDbArc
 50
270.0
 51
0.0
  0
LINE
  5
1937E
330
19040
100
AcDbEntity
  8
YODOROGO
100
AcDbLine
 10
15546.80217064596
 20
761.8747482146434
 30
0.0
 11
15546.80217064596
 21
713.8747482146436
 31
0.0
  0
ARC
  5
1937F
330
19040
100
AcDbEntity
  8
YODOROGO
100
AcDbCircle
 10
15519.86069778339
 20
818.7656950548664
 30
0.0
 40
62.94777829583771
100
AcDbArc
 50
295.3405244216011
 51
359.1890230341867
  0
LINE
  5
19380
330
19040
100
AcDbEntity
  8
YODOROGO
100
AcDbLine
 10
15308.80217064596
 20
929.874748214644
 30
0.0
 11
15248.80217064596
 21
969.8747482146441
 31
0.0
  0
LINE
  5
19381
330
19040
100
AcDbEntity
  8
YODOROGO
100
AcDbLine
 10
15248.80217064596
 20
1013.874748214644
 30
0.0
 11
15308.80217064596
 21
973.8747482146434
 31
0.0
  0
LINE
  5
19382
330
19040
100
AcDbEntity
  8
YODOROGO
100
AcDbLine
 10
15264.80217064596
 20
839.8747482146442
 30
0.0
 11
15308.80217064596
 21
839.8747482146442
 31
0.0
  0
LINE
  5
19383
330
19040
100
AcDbEntity
  8
YODOROGO
100
AcDbLine
 10
15308.80217064596
 20
867.8747482146436
 30
0.0
 11
15264.80217064596
 21
867.8747482146436
 31
0.0
  0
LINE
  5
19384
330
19040
100
AcDbEntity
  8
YODOROGO
100
AcDbLine
 10
15190.80217064596
 20
897.8747482146435
 30
0.0
 11
15308.80217064596
 21
897.8747482146435
 31
0.0
  0
LINE
  5
19385
330
19040
100
AcDbEntity
  8
YODOROGO
100
AcDbLine
 10
15040.80217064596
 20
1013.874748214644
 30
0.0
 11
15010.80217064596
 21
1013.874748214644
 31
0.0
  0
LINE
  5
19386
330
19040
100
AcDbEntity
  8
YODOROGO
100
AcDbLine
 10
15040.80217064596
 20
913.8747482146435
 30
0.0
 11
15040.80217064596
 21
1013.874748214644
 31
0.0
  0
LINE
  5
19387
330
19040
100
AcDbEntity
  8
YODOROGO
100
AcDbLine
 10
15010.80217064596
 20
913.8747482146435
 30
0.0
 11
15040.80217064596
 21
913.8747482146435
 31
0.0
  0
LINE
  5
19388
330
19040
100
AcDbEntity
  8
YODOROGO
100
AcDbLine
 10
15010.80217064596
 20
1013.874748214644
 30
0.0
 11
15010.80217064596
 21
913.8747482146435
 31
0.0
  0
LINE
  5
19389
330
19040
100
AcDbEntity
  8
YODOROGO
100
AcDbLine
 10
15080.80217064596
 20
1013.874748214644
 30
0.0
 11
15108.80217064596
 21
1013.874748214644
 31
0.0
  0
LINE
  5
1938A
330
19040
100
AcDbEntity
  8
YODOROGO
100
AcDbLine
 10
15080.80217064596
 20
905.8747482146443
 30
0.0
 11
15080.80217064596
 21
1013.874748214644
 31
0.0
  0
ARC
  5
1938B
330
19040
100
AcDbEntity
  8
YODOROGO
100
AcDbCircle
 10
15060.80217064596
 20
905.8747482146443
 30
0.0
 40
20.0
100
AcDbArc
 50
270.0
 51
0.0
  0
LINE
  5
1938C
330
19040
100
AcDbEntity
  8
YODOROGO
100
AcDbLine
 10
15010.80217064596
 20
885.8747482146441
 30
0.0
 11
15060.80217064596
 21
885.8747482146441
 31
0.0
  0
LINE
  5
1938D
330
19040
100
AcDbEntity
  8
YODOROGO
100
AcDbLine
 10
15010.80217064596
 20
853.874748214644
 30
0.0
 11
15010.80217064596
 21
885.8747482146441
 31
0.0
  0
LINE
  5
1938E
330
19040
100
AcDbEntity
  8
YODOROGO
100
AcDbLine
 10
15068.80217064596
 20
853.874748214644
 30
0.0
 11
15010.80217064596
 21
853.874748214644
 31
0.0
  0
ARC
  5
1938F
330
19040
100
AcDbEntity
  8
YODOROGO
100
AcDbCircle
 10
15068.80217064596
 20
893.8747482146439
 30
0.0
 40
40.0
100
AcDbArc
 50
270.0
 51
0.0
  0
LINE
  5
19390
330
19040
100
AcDbEntity
  8
YODOROGO
100
AcDbLine
 10
15108.80217064596
 20
1013.874748214644
 30
0.0
 11
15108.80217064596
 21
893.8747482146439
 31
0.0
  0
LINE
  5
19391
330
19040
100
AcDbEntity
  8
YODOROGO
100
AcDbLine
 10
14988.80217064596
 20
973.8747482146434
 30
0.0
 11
14988.80217064596
 21
997.8747482146435
 31
0.0
1001
AUTOCAD_POSTSCRIPT_FIGURE
1002
{
1000
PSFILL
1000
Grayscale
1000
Grayscale
1070
    25
1002
}
  0
LINE
  5
19392
330
19040
100
AcDbEntity
  8
YODOROGO
100
AcDbLine
 10
14988.80217064596
 20
929.874748214644
 30
0.0
 11
14988.80217064596
 21
953.874748214644
 31
0.0
1001
AUTOCAD_POSTSCRIPT_FIGURE
1002
{
1000
PSFILL
1000
Grayscale
1000
Grayscale
1070
    25
1002
}
  0
LINE
  5
19393
330
19040
100
AcDbEntity
  8
YODOROGO
100
AcDbLine
 10
14988.80217064596
 20
853.874748214644
 30
0.0
 11
14988.80217064596
 21
909.8747482146439
 31
0.0
1001
AUTOCAD_POSTSCRIPT_FIGURE
1002
{
1000
PSFILL
1000
Grayscale
1000
Grayscale
1070
    25
1002
}
  0
LINE
  5
19394
330
19040
100
AcDbEntity
  8
YODOROGO
100
AcDbLine
 10
15190.80217064596
 20
953.874748214644
 30
0.0
 11
15248.80217064596
 21
1013.874748214644
 31
0.0
  0
LINE
  5
19395
330
19040
100
AcDbEntity
  8
YODOROGO
100
AcDbLine
 10
15190.80217064596
 20
909.8747482146439
 30
0.0
 11
15190.80217064596
 21
953.874748214644
 31
0.0
  0
LINE
  5
19396
330
19040
100
AcDbEntity
  8
YODOROGO
100
AcDbLine
 10
15248.80217064596
 20
969.8747482146441
 30
0.0
 11
15190.80217064596
 21
909.8747482146439
 31
0.0
  0
LINE
  5
19397
330
19040
100
AcDbEntity
  8
YODOROGO
100
AcDbLine
 10
15232.80217064596
 20
839.8747482146442
 30
0.0
 11
15232.80217064596
 21
867.8747482146436
 31
0.0
  0
LINE
  5
19398
330
19040
100
AcDbEntity
  8
YODOROGO
100
AcDbLine
 10
15190.80217064596
 20
839.8747482146442
 30
0.0
 11
15232.80217064596
 21
839.8747482146442
 31
0.0
  0
LINE
  5
19399
330
19040
100
AcDbEntity
  8
YODOROGO
100
AcDbLine
 10
15264.80217064596
 20
867.8747482146436
 30
0.0
 11
15264.80217064596
 21
839.8747482146442
 31
0.0
  0
LINE
  5
1939A
330
19040
100
AcDbEntity
  8
YODOROGO
100
AcDbLine
 10
15190.80217064596
 20
867.8747482146436
 30
0.0
 11
15190.80217064596
 21
897.8747482146435
 31
0.0
  0
LINE
  5
1939B
330
19040
100
AcDbEntity
  8
YODOROGO
100
AcDbLine
 10
15232.80217064596
 20
867.8747482146436
 30
0.0
 11
15190.80217064596
 21
867.8747482146436
 31
0.0
  0
LINE
  5
1939C
330
19040
100
AcDbEntity
  8
YODOROGO
100
AcDbLine
 10
15322.80217064596
 20
1013.874748214644
 30
0.0
 11
15486.80217064596
 21
1013.874748214644
 31
0.0
  0
LINE
  5
1939D
330
19040
100
AcDbEntity
  8
YODOROGO
100
AcDbLine
 10
15462.80217064596
 20
981.8747482146434
 30
0.0
 11
15348.80217064596
 21
981.8747482146434
 31
0.0
  0
LINE
  5
1939E
330
19040
100
AcDbEntity
  8
YODOROGO
100
AcDbLine
 10
15436.80217064595
 20
909.8747482146439
 30
0.0
 11
15449.80217064596
 21
909.8747482146439
 31
0.0
  0
LINE
  5
1939F
330
19040
100
AcDbEntity
  8
YODOROGO
100
AcDbLine
 10
15449.80217064596
 20
969.8747482146441
 30
0.0
 11
15436.80217064595
 21
909.8747482146439
 31
0.0
  0
LINE
  5
193A0
330
19040
100
AcDbEntity
  8
YODOROGO
100
AcDbLine
 10
15425.80217064596
 20
969.8747482146441
 30
0.0
 11
15449.80217064596
 21
969.8747482146441
 31
0.0
  0
LINE
  5
193A1
330
19040
100
AcDbEntity
  8
YODOROGO
100
AcDbLine
 10
15412.80217064596
 20
909.8747482146439
 30
0.0
 11
15425.80217064596
 21
969.8747482146441
 31
0.0
  0
LINE
  5
193A2
330
19040
100
AcDbEntity
  8
YODOROGO
100
AcDbLine
 10
15398.80217064596
 20
909.8747482146439
 30
0.0
 11
15412.80217064596
 21
909.8747482146439
 31
0.0
  0
LINE
  5
193A3
330
19040
100
AcDbEntity
  8
YODOROGO
100
AcDbLine
 10
15385.80217064596
 20
969.8747482146441
 30
0.0
 11
15398.80217064596
 21
909.8747482146439
 31
0.0
  0
LINE
  5
193A4
330
19040
100
AcDbEntity
  8
YODOROGO
100
AcDbLine
 10
15361.80217064596
 20
969.8747482146441
 30
0.0
 11
15385.80217064596
 21
969.8747482146441
 31
0.0
  0
LINE
  5
193A5
330
19040
100
AcDbEntity
  8
YODOROGO
100
AcDbLine
 10
15374.80217064596
 20
909.8747482146439
 30
0.0
 11
15361.80217064596
 21
969.8747482146441
 31
0.0
  0
LINE
  5
193A6
330
19040
100
AcDbEntity
  8
YODOROGO
100
AcDbLine
 10
15361.80217064596
 20
909.8747482146439
 30
0.0
 11
15374.80217064596
 21
909.8747482146439
 31
0.0
  0
LINE
  5
193A7
330
19040
100
AcDbEntity
  8
YODOROGO
100
AcDbLine
 10
15361.80217064596
 20
877.8747482146435
 30
0.0
 11
15361.80217064596
 21
909.8747482146439
 31
0.0
  0
LINE
  5
193A8
330
19040
100
AcDbEntity
  8
YODOROGO
100
AcDbLine
 10
15449.80217064596
 20
877.8747482146435
 30
0.0
 11
15361.80217064596
 21
877.8747482146435
 31
0.0
  0
LINE
  5
193A9
330
19040
100
AcDbEntity
  8
YODOROGO
100
AcDbLine
 10
15449.80217064596
 20
909.8747482146439
 30
0.0
 11
15449.80217064596
 21
877.8747482146435
 31
0.0
  0
LINE
  5
193AA
330
19040
100
AcDbEntity
  8
YODOROGO
100
AcDbLine
 10
15308.80217064596
 20
973.8747482146434
 30
0.0
 11
15308.80217064596
 21
929.874748214644
 31
0.0
  0
LINE
  5
193AB
330
19040
100
AcDbEntity
  8
YODOROGO
100
AcDbLine
 10
15395.80217064596
 20
877.8747482146435
 30
0.0
 11
15415.80217064596
 21
877.8747482146435
 31
0.0
  0
LINE
  5
193AC
330
19040
100
AcDbEntity
  8
YODOROGO
100
AcDbLine
 10
15361.80217064596
 20
845.8747482146444
 30
0.0
 11
15381.80217064596
 21
845.8747482146444
 31
0.0
  0
LINE
  5
193AD
330
19040
100
AcDbEntity
  8
YODOROGO
100
AcDbLine
 10
15429.80217064596
 20
845.8747482146444
 30
0.0
 11
15449.80217064596
 21
845.8747482146444
 31
0.0
  0
LINE
  5
193AE
330
19040
100
AcDbEntity
  8
YODOROGO
100
AcDbLine
 10
15308.80217064596
 20
897.8747482146435
 30
0.0
 11
15308.80217064596
 21
867.8747482146436
 31
0.0
  0
LINE
  5
193AF
330
19040
100
AcDbEntity
  8
YODOROGO
100
AcDbLine
 10
15582.80217064596
 20
1013.874748214644
 30
0.0
 11
15582.80217064596
 21
981.8747482146434
 31
0.0
  0
LINE
  5
193B0
330
19040
100
AcDbEntity
  8
YODOROGO
100
AcDbLine
 10
15766.80217064596
 20
797.8747482146435
 30
0.0
 11
15766.80217064594
 21
905.8747482146443
 31
0.0
  0
LINE
  5
193B1
330
19040
100
AcDbEntity
  8
YODOROGO
100
AcDbLine
 10
15730.80217064594
 20
993.8747482146439
 30
0.0
 11
15730.80217064594
 21
817.8747482146436
 31
0.0
  0
LINE
  5
193B2
330
19040
100
AcDbEntity
  8
YODOROGO
100
AcDbLine
 10
15826.80217064596
 20
713.8747482146436
 30
0.0
 11
15826.80217064594
 21
905.8747482146443
 31
0.0
  0
LINE
  5
193B3
330
19040
100
AcDbEntity
  8
YODOROGO
100
AcDbLine
 10
15794.80217064596
 20
905.8747482146443
 30
0.0
 11
15794.80217064596
 21
713.8747482146436
 31
0.0
  0
LINE
  5
193B4
330
19040
100
AcDbEntity
  8
YODOROGO
100
AcDbLine
 10
15618.80217064596
 20
797.8747482146435
 30
0.0
 11
15618.80217064596
 21
853.874748214644
 31
0.0
  0
ARC
  5
193B5
330
19040
100
AcDbEntity
  8
YODOROGO
100
AcDbCircle
 10
15676.95743255803
 20
803.8951756442788
 30
0.0
 40
90.04622428799429
100
AcDbArc
 50
268.6284910216979
 51
356.1663845733032
  0
LINE
  5
193B6
330
19040
100
AcDbEntity
  8
YODOROGO
100
AcDbLine
 10
15674.80217064596
 20
763.8747482146435
 30
0.0
 11
15674.80217064596
 21
713.8747482146436
 31
0.0
  0
ARC
  5
193B7
330
19040
100
AcDbEntity
  8
YODOROGO
100
AcDbCircle
 10
15675.75903786228
 20
818.9194785088275
 30
0.0
 40
55.05304649180608
100
AcDbArc
 50
269.0041020930593
 51
358.9126445549248
  0
LINE
  5
193B8
330
19040
100
AcDbEntity
  8
YODOROGO
100
AcDbLine
 10
15794.80217064596
 20
713.8747482146436
 30
0.0
 11
15826.80217064596
 21
713.8747482146436
 31
0.0
  0
LINE
  5
193B9
330
19040
100
AcDbEntity
  8
YODOROGO
100
AcDbLine
 10
15766.80217064594
 20
905.8747482146443
 30
0.0
 11
15794.80217064596
 21
905.8747482146443
 31
0.0
  0
LINE
  5
193BA
330
19040
100
AcDbEntity
  8
YODOROGO
100
AcDbLine
 10
15810.80217064596
 20
993.8747482146439
 30
0.0
 11
15730.80217064594
 21
993.8747482146439
 31
0.0
  0
LINE
  5
193BB
330
19040
100
AcDbEntity
  8
YODOROGO
100
AcDbLine
 10
15766.80217064594
 20
957.8747482146436
 30
0.0
 11
15830.80217064596
 21
957.8747482146436
 31
0.0
  0
LINE
  5
193BC
330
19040
100
AcDbEntity
  8
YODOROGO
100
AcDbLine
 10
15850.80217064596
 20
937.8747482146435
 30
0.0
 11
15766.80217064594
 21
937.8747482146435
 31
0.0
  0
LINE
  5
193BD
330
19040
100
AcDbEntity
  8
YODOROGO
100
AcDbLine
 10
15618.80217064596
 20
889.8747482146442
 30
0.0
 11
15674.80217064596
 21
889.8747482146442
 31
0.0
  0
LINE
  5
193BE
330
19040
100
AcDbEntity
  8
YODOROGO
100
AcDbLine
 10
15618.80217064596
 20
917.8747482146436
 30
0.0
 11
15618.80217064596
 21
889.8747482146442
 31
0.0
  0
LINE
  5
193BF
330
19040
100
AcDbEntity
  8
YODOROGO
100
AcDbLine
 10
15674.80217064596
 20
917.8747482146436
 30
0.0
 11
15618.80217064596
 21
917.8747482146436
 31
0.0
  0
LINE
  5
193C0
330
19040
100
AcDbEntity
  8
YODOROGO
100
AcDbLine
 10
15674.80217064596
 20
889.8747482146442
 30
0.0
 11
15674.80217064596
 21
917.8747482146436
 31
0.0
  0
LINE
  5
193C1
330
19040
100
AcDbEntity
  8
YODOROGO
100
AcDbLine
 10
15766.80217064594
 20
937.8747482146435
 30
0.0
 11
15766.80217064594
 21
957.8747482146436
 31
0.0
  0
LINE
  5
193C2
330
19040
100
AcDbEntity
  8
YODOROGO
100
AcDbLine
 10
15706.80217064596
 20
853.874748214644
 30
0.0
 11
15706.80217064596
 21
953.874748214644
 31
0.0
  0
LINE
  5
193C3
330
19040
100
AcDbEntity
  8
YODOROGO
100
AcDbLine
 10
15618.80217064596
 20
853.874748214644
 30
0.0
 11
15706.80217064596
 21
853.874748214644
 31
0.0
  0
LINE
  5
193C4
330
19040
100
AcDbEntity
  8
YODOROGO
100
AcDbLine
 10
15706.80217064596
 20
981.8747482146434
 30
0.0
 11
15706.80217064596
 21
1013.874748214644
 31
0.0
  0
ARC
  5
193C5
330
19040
100
AcDbEntity
  8
YODOROGO
100
AcDbCircle
 10
15810.80217064596
 20
1001.874748214642
 30
0.0
 40
7.99999999999727
100
AcDbArc
 50
270.0
 51
0.0000000000081422
  0
LINE
  5
193C6
330
19040
100
AcDbEntity
  8
YODOROGO
100
AcDbLine
 10
15818.80217064596
 20
1013.874748214644
 30
0.0
 11
15818.80217064596
 21
1001.874748214643
 31
0.0
  0
LINE
  5
193C7
330
19040
100
AcDbEntity
  8
YODOROGO
100
AcDbLine
 10
15850.80217064596
 20
1013.874748214644
 30
0.0
 11
15818.80217064596
 21
1013.874748214644
 31
0.0
  0
LINE
  5
193C8
330
19040
100
AcDbEntity
  8
YODOROGO
100
AcDbLine
 10
15850.80217064596
 20
977.8747482146435
 30
0.0
 11
15850.80217064596
 21
1013.874748214644
 31
0.0
  0
ARC
  5
193C9
330
19040
100
AcDbEntity
  8
YODOROGO
100
AcDbCircle
 10
15830.80217064596
 20
977.8747482146435
 30
0.0
 40
20.0
100
AcDbArc
 50
270.0
 51
0.0
  0
LINE
  5
193CA
330
19040
100
AcDbEntity
  8
YODOROGO
100
AcDbLine
 10
15850.80217064596
 20
905.8747482146443
 30
0.0
 11
15850.80217064596
 21
937.8747482146435
 31
0.0
  0
LINE
  5
193CB
330
19040
100
AcDbEntity
  8
YODOROGO
100
AcDbLine
 10
15826.80217064594
 20
905.8747482146443
 30
0.0
 11
15850.80217064596
 21
905.8747482146443
 31
0.0
  0
LINE
  5
193CC
330
19040
100
AcDbEntity
  8
SUNPOU
100
AcDbLine
 10
9145.989208462832
 20
3287.183932023015
 30
0.0
 11
9085.989208462816
 21
3287.183932023015
 31
0.0
  0
LINE
  5
193CD
330
19040
100
AcDbEntity
  8
SUNPOU
100
AcDbLine
 10
9145.989208462822
 20
3287.183932023015
 30
0.0
 11
9085.989208462823
 21
3303.260883568885
 31
0.0
  0
LINE
  5
193CE
330
19040
100
AcDbEntity
  8
SUNPOU
100
AcDbLine
 10
9145.989208462832
 20
3287.183932023015
 30
0.0
 11
9085.989208462816
 21
3271.106980477146
 31
0.0
  0
LINE
  5
193CF
330
19040
100
AcDbEntity
  8
SUNPOU
100
AcDbLine
 10
9085.98920846283
 20
3287.183932023015
 30
0.0
 11
9025.989208462815
 21
3287.183932023015
 31
0.0
  0
LINE
  5
193D0
330
19040
100
AcDbEntity
  8
SUNPOU
100
AcDbLine
 10
9085.989208462823
 20
3287.183932023015
 30
0.0
 11
9025.989208462823
 21
3303.260883568885
 31
0.0
  0
LINE
  5
193D1
330
19040
100
AcDbEntity
  8
SUNPOU
100
AcDbLine
 10
9085.98920846283
 20
3287.183932023015
 30
0.0
 11
9025.989208462815
 21
3271.106980477146
 31
0.0
  0
LINE
  5
193D2
330
19040
100
AcDbEntity
  8
SUNPOU
100
AcDbLine
 10
7762.008701212581
 20
3287.183932023015
 30
0.0
 11
7773.258701212579
 21
3287.183932023015
 31
0.0
  0
LINE
  5
193D3
330
19040
100
AcDbEntity
  8
SUNPOU
100
AcDbLine
 10
7750.758701212581
 20
3317.183932023015
 30
0.0
 11
7750.758701212581
 21
3332.183932023015
 31
0.0
  0
LINE
  5
193D4
330
19040
100
AcDbEntity
  8
SUNPOU
100
AcDbLine
 10
7110.758701212581
 20
2514.183932023016
 30
0.0
 11
7110.758701212581
 21
3332.183932023015
 31
0.0
  0
LINE
  5
193D5
330
19040
100
AcDbEntity
  8
SUNPOU
100
AcDbLine
 10
7735.758701212581
 20
3287.183932023015
 30
0.0
 11
7125.758701212581
 21
3287.183932023015
 31
0.0
  0
LINE
  5
193D6
330
19040
100
AcDbEntity
  8
SUNPOU
100
AcDbLine
 10
7080.75870121258
 20
2484.183932023016
 30
0.0
 11
6584.758582955732
 21
2484.183932023016
 31
0.0
  0
LINE
  5
193D7
330
19040
100
AcDbEntity
  8
SUNPOU
100
AcDbLine
 10
6920.758701212581
 20
1876.183932023016
 30
0.0
 11
6584.758582955732
 21
1876.183932023016
 31
0.0
  0
LINE
  5
193D8
330
19040
100
AcDbEntity
  8
SUNPOU
100
AcDbLine
 10
6629.758582955734
 20
2469.183932023016
 30
0.0
 11
6629.758582955732
 21
1891.183932023016
 31
0.0
  0
LINE
  5
193D9
330
19040
100
AcDbEntity
  8
SUNPOU
100
AcDbLine
 10
6920.758701212581
 20
1876.183932023014
 30
0.0
 11
6584.758582955732
 21
1876.183932023014
 31
0.0
  0
LINE
  5
193DA
330
19040
100
AcDbEntity
  8
SUNPOU
100
AcDbLine
 10
6920.758701212581
 20
1716.183932023016
 30
0.0
 11
6584.758582955732
 21
1716.183932023016
 31
0.0
  0
LINE
  5
193DB
330
19040
100
AcDbEntity
  8
SUNPOU
100
AcDbLine
 10
6629.758582955732
 20
1861.183932023014
 30
0.0
 11
6629.758582955732
 21
1731.183932023015
 31
0.0
  0
LINE
  5
193DC
330
19040
100
AcDbEntity
  8
SUNPOU
100
AcDbLine
 10
7080.758701212582
 20
2484.183932023016
 30
0.0
 11
6384.758582955733
 21
2484.183932023016
 31
0.0
  0
LINE
  5
193DD
330
19040
100
AcDbEntity
  8
SUNPOU
100
AcDbLine
 10
6920.758701212581
 20
1716.183932023016
 30
0.0
 11
6384.758582955733
 21
1716.183932023016
 31
0.0
  0
LINE
  5
193DE
330
19040
100
AcDbEntity
  8
SUNPOU
100
AcDbLine
 10
6429.758582955732
 20
2469.183932023016
 30
0.0
 11
6429.758582955732
 21
1731.183932023015
 31
0.0
  0
LINE
  5
193DF
330
19040
100
AcDbEntity
  8
SUNPOU
100
AcDbLine
 10
7110.758701212581
 20
1846.183932023016
 30
0.0
 11
7110.758701212581
 21
1334.183932023014
 31
0.0
  0
LINE
  5
193E0
330
19040
100
AcDbEntity
  8
SUNPOU
100
AcDbLine
 10
8390.758701212579
 20
1846.183932023016
 30
0.0
 11
8390.758701212579
 21
1334.183932023014
 31
0.0
  0
LINE
  5
193E1
330
19040
100
AcDbEntity
  8
SUNPOU
100
AcDbLine
 10
7125.758701212581
 20
1379.183932023015
 30
0.0
 11
8375.758701212578
 21
1379.183932023015
 31
0.0
  0
LINE
  5
193E2
330
19040
100
AcDbEntity
  8
SUNPOU
100
AcDbLine
 10
6950.758701212581
 20
1686.183932023014
 30
0.0
 11
6950.758701212581
 21
1124.183932023014
 31
0.0
  0
LINE
  5
193E3
330
19040
100
AcDbEntity
  8
SUNPOU
100
AcDbLine
 10
8550.758701212577
 20
1686.183932023016
 30
0.0
 11
8550.758701212577
 21
1124.183932023014
 31
0.0
  0
LINE
  5
193E4
330
19040
100
AcDbEntity
  8
SUNPOU
100
AcDbLine
 10
6965.75870121258
 20
1169.183932023014
 30
0.0
 11
8535.758701212579
 21
1169.183932023014
 31
0.0
  0
LINE
  5
193E5
330
19040
100
AcDbEntity
  8
SUNPOU
100
AcDbLine
 10
9164.217031986066
 20
5995.715360473255
 30
0.0
 11
9479.217031986065
 21
5995.715360473255
 31
0.0
  0
LINE
  5
193E6
330
19040
100
AcDbEntity
  8
SUNPOU
100
AcDbLine
 10
9164.217031986066
 20
5395.715360473253
 30
0.0
 11
9479.217031986065
 21
5395.715360473253
 31
0.0
  0
LINE
  5
193E7
330
19040
100
AcDbEntity
  8
SUNPOU
100
AcDbLine
 10
9434.217031986065
 20
5980.715360473254
 30
0.0
 11
9434.217031986065
 21
5410.715360473254
 31
0.0
  0
TEXT
  5
193E8
330
19040
100
AcDbEntity
  8
SUNPOU
100
AcDbText
 10
7776.50274627178
 20
10040.71536047325
 30
0.0
 40
90.0
  1
2800 × （ N - 2 ）
 41
0.6666666666666666
  7
00
100
AcDbText
  0
LINE
  5
193E9
330
19040
100
AcDbEntity
  8
SUNPOU
100
AcDbLine
 10
7545.467031986063
 20
9995.715360473253
 30
0.0
 11
7556.717031986065
 21
9995.715360473253
 31
0.0
  0
LINE
  5
193EA
330
19040
100
AcDbEntity
  8
SUNPOU
100
AcDbLine
 10
8822.967031986062
 20
9995.715360473253
 30
0.0
 11
8811.717031986061
 21
9995.715360473253
 31
0.0
  0
LINE
  5
193EB
330
19040
100
AcDbEntity
  8
SUNPOU
100
AcDbLine
 10
4334.217031986064
 20
9625.715360473252
 30
0.0
 11
4334.217031986064
 21
10250.71536047325
 31
0.0
  0
LINE
  5
193EC
330
19040
100
AcDbEntity
  8
SUNPOU
100
AcDbLine
 10
12034.21703198606
 20
9625.715360473252
 30
0.0
 11
12034.21703198606
 21
10250.71536047325
 31
0.0
  0
LINE
  5
193ED
330
19040
100
AcDbEntity
  8
SUNPOU
100
AcDbLine
 10
4349.217031986063
 20
10205.71536047325
 30
0.0
 11
12019.21703198606
 21
10205.71536047325
 31
0.0
  0
LINE
  5
193EE
330
19040
100
AcDbEntity
  8
SUNPOU
100
AcDbLine
 10
7534.217031986064
 20
9725.715360473252
 30
0.0
 11
7534.217031986064
 21
10040.71536047325
 31
0.0
  0
LINE
  5
193EF
330
19040
100
AcDbEntity
  8
SUNPOU
100
AcDbLine
 10
4734.217031986064
 20
9725.715360473252
 30
0.0
 11
4734.217031986064
 21
10040.71536047325
 31
0.0
  0
LINE
  5
193F0
330
19040
100
AcDbEntity
  8
SUNPOU
100
AcDbLine
 10
7519.217031986062
 20
9995.715360473253
 30
0.0
 11
4749.217031986064
 21
9995.715360473253
 31
0.0
  0
LINE
  5
193F1
330
19040
100
AcDbEntity
  8
SUNPOU
100
AcDbLine
 10
11634.21703198606
 20
9725.715360473252
 30
0.0
 11
11634.21703198606
 21
10040.71536047325
 31
0.0
  0
LINE
  5
193F2
330
19040
100
AcDbEntity
  8
SUNPOU
100
AcDbLine
 10
8834.217031986062
 20
9725.715360473252
 30
0.0
 11
8834.217031986062
 21
10040.71536047325
 31
0.0
  0
LINE
  5
193F3
330
19040
100
AcDbEntity
  8
SUNPOU
100
AcDbLine
 10
11619.21703198605
 20
9995.715360473253
 30
0.0
 11
8849.217031986063
 21
9995.715360473253
 31
0.0
  0
LINE
  5
193F4
330
19040
100
AcDbEntity
  8
SUNPOU
100
AcDbLine
 10
4734.217031986064
 20
9725.715360473252
 30
0.0
 11
4734.217031986064
 21
10040.71536047325
 31
0.0
  0
LINE
  5
193F5
330
19040
100
AcDbEntity
  8
SUNPOU
100
AcDbLine
 10
4334.217031986064
 20
9625.715360473252
 30
0.0
 11
4334.217031986064
 21
10040.71536047325
 31
0.0
  0
LINE
  5
193F6
330
19040
100
AcDbEntity
  8
SUNPOU
100
AcDbLine
 10
4719.217031986064
 20
9995.715360473253
 30
0.0
 11
4349.217031986063
 21
9995.715360473253
 31
0.0
  0
LINE
  5
193F7
330
19040
100
AcDbEntity
  8
SUNPOU
100
AcDbLine
 10
11634.21703198606
 20
9725.715360473252
 30
0.0
 11
11634.21703198606
 21
10040.71536047325
 31
0.0
  0
LINE
  5
193F8
330
19040
100
AcDbEntity
  8
SUNPOU
100
AcDbLine
 10
12034.21703198606
 20
9625.715360473252
 30
0.0
 11
12034.21703198606
 21
10040.71536047325
 31
0.0
  0
LINE
  5
193F9
330
19040
100
AcDbEntity
  8
SUNPOU
100
AcDbLine
 10
11649.21703198606
 20
9995.715360473253
 30
0.0
 11
12019.21703198606
 21
9995.715360473253
 31
0.0
  0
LINE
  5
193FA
330
19040
100
AcDbEntity
  8
SUNPOU
100
AcDbLine
 10
12644.21703198606
 20
9584.465360473252
 30
0.0
 11
12644.21703198606
 21
9573.215360473252
 31
0.0
  0
LINE
  5
193FB
330
19040
100
AcDbEntity
  8
SUNPOU
100
AcDbLine
 10
12434.21703198606
 20
9584.465360473252
 30
0.0
 11
12434.21703198606
 21
9573.215360473252
 31
0.0
  0
LINE
  5
193FC
330
19040
100
AcDbEntity
  8
SUNPOU
100
AcDbLine
 10
12434.21703198606
 20
9284.465360473253
 30
0.0
 11
12434.21703198606
 21
9273.215360473249
 31
0.0
  0
LINE
  5
193FD
330
19040
100
AcDbEntity
  8
SUNPOU
100
AcDbLine
 10
12434.21703198606
 20
9306.965360473252
 30
0.0
 11
12434.21703198606
 21
9318.215360473251
 31
0.0
  0
LINE
  5
193FE
330
19040
100
AcDbEntity
  8
SUNPOU
100
AcDbLine
 10
12434.21703198606
 20
5684.465360473253
 30
0.0
 11
12434.21703198606
 21
5673.215360473253
 31
0.0
  0
LINE
  5
193FF
330
19040
100
AcDbEntity
  8
SUNPOU
100
AcDbLine
 10
12434.21703198606
 20
5706.965360473253
 30
0.0
 11
12434.21703198606
 21
5718.215360473253
 31
0.0
  0
LINE
  5
19400
330
19040
100
AcDbEntity
  8
SUNPOU
100
AcDbLine
 10
12644.21703198606
 20
5406.965360473253
 30
0.0
 11
12644.21703198606
 21
5418.215360473253
 31
0.0
  0
LINE
  5
19401
330
19040
100
AcDbEntity
  8
SUNPOU
100
AcDbLine
 10
12434.21703198606
 20
5406.965360473253
 30
0.0
 11
12434.21703198606
 21
5418.215360473253
 31
0.0
  0
LINE
  5
19402
330
19040
100
AcDbEntity
  8
SUNPOU
100
AcDbLine
 10
7204.217031986065
 20
9595.715360473253
 30
0.0
 11
6799.21703198606
 21
9595.715360473253
 31
0.0
  0
LINE
  5
19403
330
19040
100
AcDbEntity
  8
SUNPOU
100
AcDbLine
 10
7204.217031986065
 20
8995.715360473253
 30
0.0
 11
6799.21703198606
 21
8995.715360473253
 31
0.0
  0
LINE
  5
19404
330
19040
100
AcDbEntity
  8
SUNPOU
100
AcDbLine
 10
6844.217031986061
 20
9580.715360473252
 30
0.0
 11
6844.217031986061
 21
9010.715360473252
 31
0.0
  0
LINE
  5
19405
330
19040
100
AcDbEntity
  8
SUNPOU
100
AcDbLine
 10
7234.217031986064
 20
8965.71536047325
 30
0.0
 11
7234.217031986064
 21
8650.715360473251
 31
0.0
  0
LINE
  5
19406
330
19040
100
AcDbEntity
  8
SUNPOU
100
AcDbLine
 10
7834.217031986064
 20
8965.71536047325
 30
0.0
 11
7834.217031986064
 21
8650.715360473251
 31
0.0
  0
LINE
  5
19407
330
19040
100
AcDbEntity
  8
SUNPOU
100
AcDbLine
 10
7249.217031986062
 20
8695.715360473251
 30
0.0
 11
7819.217031986062
 21
8695.715360473251
 31
0.0
  0
LINE
  5
19408
330
19040
100
AcDbEntity
  8
SUNPOU
100
AcDbLine
 10
8534.217031986065
 20
6025.715360473252
 30
0.0
 11
8534.217031986065
 21
6290.715360473253
 31
0.0
  0
LINE
  5
19409
330
19040
100
AcDbEntity
  8
SUNPOU
100
AcDbLine
 10
9134.217031986066
 20
6025.715360473252
 30
0.0
 11
9134.217031986066
 21
6290.715360473253
 31
0.0
  0
LINE
  5
1940A
330
19040
100
AcDbEntity
  8
SUNPOU
100
AcDbLine
 10
8549.217031986062
 20
6245.715360473253
 30
0.0
 11
9119.217031986066
 21
6245.715360473253
 31
0.0
  0
LINE
  5
1940B
330
19040
100
AcDbEntity
  8
SUNPOU
100
AcDbLine
 10
12434.21703198606
 20
9280.71536047325
 30
0.0
 11
12434.21703198606
 21
7510.715360473253
 31
0.0
  0
LINE
  5
1940C
330
19040
100
AcDbEntity
  8
SUNPOU
100
AcDbLine
 10
12434.21703198606
 20
7480.715360473253
 30
0.0
 11
12434.21703198606
 21
5710.715360473255
 31
0.0
  0
LINE
  5
1940D
330
19040
100
AcDbEntity
  8
SUNPOU
100
AcDbLine
 10
8434.217031986062
 20
7925.715360473251
 30
0.0
 11
8434.217031986062
 21
8110.715360473252
 31
0.0
  0
LINE
  5
1940E
330
19040
100
AcDbEntity
  8
SUNPOU
100
AcDbLine
 10
9234.217031986066
 20
7925.715360473251
 30
0.0
 11
9234.217031986066
 21
8110.715360473252
 31
0.0
  0
LINE
  5
1940F
330
19040
100
AcDbEntity
  8
SUNPOU
100
AcDbLine
 10
8449.217031986062
 20
8065.715360473253
 30
0.0
 11
9219.217031986065
 21
8065.715360473253
 31
0.0
  0
LINE
  5
19410
330
19040
100
AcDbEntity
  8
SUNPOU
100
AcDbLine
 10
9264.217031986065
 20
7895.715360473253
 30
0.0
 11
9579.217031986066
 21
7895.715360473253
 31
0.0
  0
LINE
  5
19411
330
19040
100
AcDbEntity
  8
SUNPOU
100
AcDbLine
 10
9264.217031986065
 20
7095.715360473253
 30
0.0
 11
9579.217031986066
 21
7095.715360473253
 31
0.0
  0
LINE
  5
19412
330
19040
100
AcDbEntity
  8
SUNPOU
100
AcDbLine
 10
9534.217031986065
 20
7880.715360473252
 30
0.0
 11
9534.217031986065
 21
7110.715360473252
 31
0.0
  0
LINE
  5
19413
330
19040
100
AcDbEntity
  8
SUNPOU
100
AcDbLine
 10
3224.333914666386
 20
1846.183932023019
 30
0.0
 11
3224.333914666386
 21
1334.183932023016
 31
0.0
  0
LINE
  5
19414
330
19040
100
AcDbEntity
  8
SUNPOU
100
AcDbLine
 10
4184.333914666385
 20
1846.183932023017
 30
0.0
 11
4184.333914666385
 21
1334.183932023016
 31
0.0
  0
LINE
  5
19415
330
19040
100
AcDbEntity
  8
SUNPOU
100
AcDbLine
 10
3239.333914666387
 20
1379.183932023016
 30
0.0
 11
4169.333914666387
 21
1379.183932023016
 31
0.0
  0
LINE
  5
19416
330
19040
100
AcDbEntity
  8
SUNPOU
100
AcDbLine
 10
3064.333914666386
 20
1686.183932023018
 30
0.0
 11
3064.333914666386
 21
1124.183932023016
 31
0.0
  0
LINE
  5
19417
330
19040
100
AcDbEntity
  8
SUNPOU
100
AcDbLine
 10
4344.333914666385
 20
1686.183932023017
 30
0.0
 11
4344.333914666385
 21
1124.183932023016
 31
0.0
  0
LINE
  5
19418
330
19040
100
AcDbEntity
  8
SUNPOU
100
AcDbLine
 10
3079.333914666386
 20
1169.183932023016
 30
0.0
 11
4329.333914666386
 21
1169.183932023016
 31
0.0
  0
LINE
  5
19419
330
19040
100
AcDbEntity
  8
SUNPOU
100
AcDbLine
 10
3194.333914666385
 20
2484.183932023019
 30
0.0
 11
2698.333796409538
 21
2484.18393202302
 31
0.0
  0
LINE
  5
1941A
330
19040
100
AcDbEntity
  8
SUNPOU
100
AcDbLine
 10
3034.333914666386
 20
1876.183932023018
 30
0.0
 11
2698.333796409538
 21
1876.183932023018
 31
0.0
  0
LINE
  5
1941B
330
19040
100
AcDbEntity
  8
SUNPOU
100
AcDbLine
 10
2743.333796409538
 20
2469.18393202302
 30
0.0
 11
2743.333796409538
 21
1891.183932023017
 31
0.0
  0
LINE
  5
1941C
330
19040
100
AcDbEntity
  8
SUNPOU
100
AcDbLine
 10
3034.333914666386
 20
1876.183932023019
 30
0.0
 11
2698.333796409539
 21
1876.183932023019
 31
0.0
  0
LINE
  5
1941D
330
19040
100
AcDbEntity
  8
SUNPOU
100
AcDbLine
 10
3034.333914666386
 20
1716.183932023018
 30
0.0
 11
2698.333796409539
 21
1716.183932023018
 31
0.0
  0
LINE
  5
1941E
330
19040
100
AcDbEntity
  8
SUNPOU
100
AcDbLine
 10
2743.333796409539
 20
1861.183932023019
 30
0.0
 11
2743.333796409539
 21
1731.183932023019
 31
0.0
  0
LINE
  5
1941F
330
19040
100
AcDbEntity
  8
SUNPOU
100
AcDbLine
 10
3194.333914666386
 20
2484.183932023019
 30
0.0
 11
2498.333796409538
 21
2484.18393202302
 31
0.0
  0
LINE
  5
19420
330
19040
100
AcDbEntity
  8
SUNPOU
100
AcDbLine
 10
3034.333914666386
 20
1716.183932023018
 30
0.0
 11
2498.333796409538
 21
1716.183932023018
 31
0.0
  0
LINE
  5
19421
330
19040
100
AcDbEntity
  8
SUNPOU
100
AcDbLine
 10
2543.333796409538
 20
2469.18393202302
 30
0.0
 11
2543.333796409538
 21
1731.183932023019
 31
0.0
  0
LINE
  5
19422
330
19040
100
AcDbEntity
  8
SUNPOU
100
AcDbLine
 10
3704.333914666387
 20
3317.183932023015
 30
0.0
 11
3704.333914666387
 21
3332.183932023017
 31
0.0
  0
LINE
  5
19423
330
19040
100
AcDbEntity
  8
SUNPOU
100
AcDbLine
 10
3224.333914666386
 20
2514.18393202302
 30
0.0
 11
3224.333914666386
 21
3332.183932023017
 31
0.0
  0
LINE
  5
19424
330
19040
100
AcDbEntity
  8
SUNPOU
100
AcDbLine
 10
3689.333914666387
 20
3287.183932023017
 30
0.0
 11
3239.333914666387
 21
3287.183932023017
 31
0.0
  0
LINE
  5
19425
330
19040
100
AcDbEntity
  8
SUNPOU
100
AcDbLine
 10
5099.564421916637
 20
3287.183932023017
 30
0.0
 11
5039.564421916624
 21
3287.183932023017
 31
0.0
  0
LINE
  5
19426
330
19040
100
AcDbEntity
  8
SUNPOU
100
AcDbLine
 10
5099.564421916631
 20
3287.183932023017
 30
0.0
 11
5039.56442191663
 21
3303.260883568886
 31
0.0
  0
LINE
  5
19427
330
19040
100
AcDbEntity
  8
SUNPOU
100
AcDbLine
 10
5099.564421916637
 20
3287.183932023017
 30
0.0
 11
5039.564421916624
 21
3271.106980477147
 31
0.0
  0
LINE
  5
19428
330
19040
100
AcDbEntity
  8
SUNPOU
100
AcDbLine
 10
5039.564421916637
 20
3287.183932023017
 30
0.0
 11
4979.564421916624
 21
3287.183932023017
 31
0.0
  0
LINE
  5
19429
330
19040
100
AcDbEntity
  8
SUNPOU
100
AcDbLine
 10
5039.56442191663
 20
3287.183932023017
 30
0.0
 11
4979.564421916631
 21
3303.260883568886
 31
0.0
  0
LINE
  5
1942A
330
19040
100
AcDbEntity
  8
SUNPOU
100
AcDbLine
 10
5039.564421916637
 20
3287.183932023017
 30
0.0
 11
4979.564421916624
 21
3271.106980477147
 31
0.0
  0
LINE
  5
1942B
330
19040
100
AcDbEntity
  8
SUNPOU
100
AcDbLine
 10
3715.583914666388
 20
3287.183932023017
 30
0.0
 11
3726.833914666387
 21
3287.183932023017
 31
0.0
  0
ARC
  5
1942C
330
19040
100
AcDbEntity
  8
SUNPOU
100
AcDbCircle
 10
7750.758701212581
 20
3287.183932023015
 30
0.0
 40
5.625
100
AcDbArc
 50
0.0
 51
180.0
  0
ARC
  5
1942D
330
19040
100
AcDbEntity
  8
SUNPOU
100
AcDbCircle
 10
7750.758701212581
 20
3287.183932023015
 30
0.0
 40
5.625
100
AcDbArc
 50
180.0
 51
0.0
  0
TEXT
  5
1942E
330
19040
100
AcDbEntity
  8
SUNPOU
100
AcDbText
 10
7345.044415498293
 20
3332.183932023015
 30
0.0
 40
90.0
  1
400
 41
0.6666666666666666
  7
00
100
AcDbText
  0
LINE
  5
1942F
330
19040
100
AcDbEntity
  8
SUNPOU
100
AcDbLine
 10
7122.00870121258
 20
3287.183932023015
 30
0.0
 11
7133.258701212581
 21
3287.183932023015
 31
0.0
  0
LINE
  5
19430
330
19040
100
AcDbEntity
  8
SUNPOU
100
AcDbLine
 10
7739.508701212582
 20
3287.183932023015
 30
0.0
 11
7728.25870121258
 21
3287.183932023015
 31
0.0
  0
TEXT
  5
19431
330
19040
100
AcDbEntity
  8
SUNPOU
100
AcDbText
 10
6584.758582955732
 20
2094.469646308731
 30
0.0
 40
90.0
  1
380
 50
90.0
 41
0.6666666666666666
  7
00
100
AcDbText
  0
LINE
  5
19432
330
19040
100
AcDbEntity
  8
SUNPOU
100
AcDbLine
 10
6629.758582955732
 20
1887.433932023015
 30
0.0
 11
6629.758582955732
 21
1898.683932023016
 31
0.0
  0
LINE
  5
19433
330
19040
100
AcDbEntity
  8
SUNPOU
100
AcDbLine
 10
6629.758582955734
 20
2472.933932023016
 30
0.0
 11
6629.758582955734
 21
2461.683932023015
 31
0.0
  0
TEXT
  5
19434
330
19040
100
AcDbEntity
  8
SUNPOU
100
AcDbText
 10
6584.758582955732
 20
1706.183932023017
 30
0.0
 40
90.0
  1
100
 50
90.0
 41
0.6666666666666666
  7
00
100
AcDbText
  0
LINE
  5
19435
330
19040
100
AcDbEntity
  8
SUNPOU
100
AcDbLine
 10
6629.758582955732
 20
1727.433932023016
 30
0.0
 11
6629.758582955732
 21
1738.683932023016
 31
0.0
  0
LINE
  5
19436
330
19040
100
AcDbEntity
  8
SUNPOU
100
AcDbLine
 10
6629.758582955732
 20
1864.933932023015
 30
0.0
 11
6629.758582955732
 21
1853.683932023015
 31
0.0
  0
TEXT
  5
19437
330
19040
100
AcDbEntity
  8
SUNPOU
100
AcDbText
 10
6384.758582955733
 20
2014.46964630873
 30
0.0
 40
90.0
  1
480
 50
90.0
 41
0.6666666666666666
  7
00
100
AcDbText
  0
LINE
  5
19438
330
19040
100
AcDbEntity
  8
SUNPOU
100
AcDbLine
 10
6429.758582955732
 20
1727.433932023016
 30
0.0
 11
6429.758582955732
 21
1738.683932023016
 31
0.0
  0
LINE
  5
19439
330
19040
100
AcDbEntity
  8
SUNPOU
100
AcDbLine
 10
6429.758582955732
 20
2472.933932023016
 30
0.0
 11
6429.758582955732
 21
2461.683932023015
 31
0.0
  0
TEXT
  5
1943A
330
19040
100
AcDbEntity
  8
SUNPOU
100
AcDbText
 10
7665.044415498293
 20
1424.183932023014
 30
0.0
 40
90.0
  1
800
 41
0.6666666666666666
  7
00
100
AcDbText
  0
LINE
  5
1943B
330
19040
100
AcDbEntity
  8
SUNPOU
100
AcDbLine
 10
8379.508701212579
 20
1379.183932023015
 30
0.0
 11
8368.25870121258
 21
1379.183932023015
 31
0.0
  0
LINE
  5
1943C
330
19040
100
AcDbEntity
  8
SUNPOU
100
AcDbLine
 10
7122.00870121258
 20
1379.183932023015
 30
0.0
 11
7133.258701212581
 21
1379.183932023015
 31
0.0
  0
TEXT
  5
1943D
330
19040
100
AcDbEntity
  8
SUNPOU
100
AcDbText
 10
7632.187272641154
 20
1214.183932023014
 30
0.0
 40
90.0
  1
1000
 41
0.6666666666666666
  7
00
100
AcDbText
  0
LINE
  5
1943E
330
19040
100
AcDbEntity
  8
SUNPOU
100
AcDbLine
 10
8539.508701212579
 20
1169.183932023014
 30
0.0
 11
8528.258701212578
 21
1169.183932023014
 31
0.0
  0
LINE
  5
1943F
330
19040
100
AcDbEntity
  8
SUNPOU
100
AcDbLine
 10
6962.008701212581
 20
1169.183932023014
 30
0.0
 11
6973.25870121258
 21
1169.183932023014
 31
0.0
  0
TEXT
  5
19440
330
19040
100
AcDbEntity
  8
SUNPOU
100
AcDbText
 10
9389.217031986065
 20
5608.572503330398
 30
0.0
 40
90.0
  1
600
 50
90.0
 41
0.6666666666666666
  7
00
100
AcDbText
  0
LINE
  5
19441
330
19040
100
AcDbEntity
  8
SUNPOU
100
AcDbLine
 10
9434.217031986065
 20
5406.965360473254
 30
0.0
 11
9434.217031986065
 21
5418.215360473254
 31
0.0
  0
LINE
  5
19442
330
19040
100
AcDbEntity
  8
SUNPOU
100
AcDbLine
 10
9434.217031986065
 20
5984.465360473254
 30
0.0
 11
9434.217031986065
 21
5973.215360473255
 31
0.0
  0
ARC
  5
19443
330
19040
100
AcDbEntity
  8
SUNPOU
100
AcDbCircle
 10
7534.217031986064
 20
9995.715360473253
 30
0.0
 40
5.625
100
AcDbArc
 50
0.0
 51
180.0
  0
ARC
  5
19444
330
19040
100
AcDbEntity
  8
SUNPOU
100
AcDbCircle
 10
7534.217031986064
 20
9995.715360473253
 30
0.0
 40
5.625
100
AcDbArc
 50
180.0
 51
0.0
  0
ARC
  5
19445
330
19040
100
AcDbEntity
  8
SUNPOU
100
AcDbCircle
 10
8834.217031986062
 20
9995.715360473253
 30
0.0
 40
5.625
100
AcDbArc
 50
180.0
 51
0.0
  0
ARC
  5
19446
330
19040
100
AcDbEntity
  8
SUNPOU
100
AcDbCircle
 10
8834.217031986062
 20
9995.715360473253
 30
0.0
 40
5.625
100
AcDbArc
 50
0.0
 51
180.0
  0
TEXT
  5
19447
330
19040
100
AcDbEntity
  8
SUNPOU
100
AcDbText
 10
7720.50274627178
 20
10250.71536047325
 30
0.0
 40
90.0
  1
L = 2800 x N + 800
 41
0.6666666666666666
  7
00
100
AcDbText
  0
LINE
  5
19448
330
19040
100
AcDbEntity
  8
SUNPOU
100
AcDbLine
 10
12022.96703198606
 20
10205.71536047325
 30
0.0
 11
12011.71703198606
 21
10205.71536047325
 31
0.0
  0
LINE
  5
19449
330
19040
100
AcDbEntity
  8
SUNPOU
100
AcDbLine
 10
4345.467031986064
 20
10205.71536047325
 30
0.0
 11
4356.717031986064
 21
10205.71536047325
 31
0.0
  0
TEXT
  5
1944A
330
19040
100
AcDbEntity
  8
SUNPOU
100
AcDbText
 10
6019.931317700351
 20
10040.71536047325
 30
0.0
 40
90.0
  1
2800
 41
0.6666666666666666
  7
00
100
AcDbText
  0
LINE
  5
1944B
330
19040
100
AcDbEntity
  8
SUNPOU
100
AcDbLine
 10
4745.467031986065
 20
9995.715360473253
 30
0.0
 11
4756.717031986064
 21
9995.715360473253
 31
0.0
  0
LINE
  5
1944C
330
19040
100
AcDbEntity
  8
SUNPOU
100
AcDbLine
 10
7522.967031986063
 20
9995.715360473253
 30
0.0
 11
7511.717031986062
 21
9995.715360473253
 31
0.0
  0
TEXT
  5
1944D
330
19040
100
AcDbEntity
  8
SUNPOU
100
AcDbText
 10
10119.93131770035
 20
10040.71536047325
 30
0.0
 40
90.0
  1
2800
 41
0.6666666666666666
  7
00
100
AcDbText
  0
LINE
  5
1944E
330
19040
100
AcDbEntity
  8
SUNPOU
100
AcDbLine
 10
8845.467031986061
 20
9995.715360473253
 30
0.0
 11
8856.717031986063
 21
9995.715360473253
 31
0.0
  0
LINE
  5
1944F
330
19040
100
AcDbEntity
  8
SUNPOU
100
AcDbLine
 10
11622.96703198606
 20
9995.715360473253
 30
0.0
 11
11611.71703198605
 21
9995.715360473253
 31
0.0
  0
TEXT
  5
19450
330
19040
100
AcDbEntity
  8
SUNPOU
100
AcDbText
 10
4448.502746271777
 20
10040.71536047325
 30
0.0
 40
90.0
  1
400
 41
0.6666666666666666
  7
00
100
AcDbText
  0
LINE
  5
19451
330
19040
100
AcDbEntity
  8
SUNPOU
100
AcDbLine
 10
4345.467031986064
 20
9995.715360473253
 30
0.0
 11
4356.717031986064
 21
9995.715360473253
 31
0.0
  0
LINE
  5
19452
330
19040
100
AcDbEntity
  8
SUNPOU
100
AcDbLine
 10
4722.967031986065
 20
9995.715360473253
 30
0.0
 11
4711.717031986064
 21
9995.715360473253
 31
0.0
  0
TEXT
  5
19453
330
19040
100
AcDbEntity
  8
SUNPOU
100
AcDbText
 10
11748.50274627178
 20
10040.71536047325
 30
0.0
 40
90.0
  1
400
 41
0.6666666666666666
  7
00
100
AcDbText
  0
LINE
  5
19454
330
19040
100
AcDbEntity
  8
SUNPOU
100
AcDbLine
 10
12022.96703198606
 20
9995.715360473253
 30
0.0
 11
12011.71703198606
 21
9995.715360473253
 31
0.0
  0
LINE
  5
19455
330
19040
100
AcDbEntity
  8
SUNPOU
100
AcDbLine
 10
11645.46703198606
 20
9995.715360473253
 30
0.0
 11
11656.71703198606
 21
9995.715360473253
 31
0.0
  0
ARC
  5
19456
330
19040
100
AcDbEntity
  8
SUNPOU
100
AcDbCircle
 10
12644.21703198606
 20
9595.715360473253
 30
0.0
 40
5.625
100
AcDbArc
 50
270.0
 51
90.0
  0
ARC
  5
19457
330
19040
100
AcDbEntity
  8
SUNPOU
100
AcDbCircle
 10
12644.21703198606
 20
9595.715360473253
 30
0.0
 40
5.625
100
AcDbArc
 50
90.0
 51
270.0
  0
ARC
  5
19458
330
19040
100
AcDbEntity
  8
SUNPOU
100
AcDbCircle
 10
12434.21703198606
 20
9595.715360473253
 30
0.0
 40
5.625
100
AcDbArc
 50
270.0
 51
90.0
  0
ARC
  5
19459
330
19040
100
AcDbEntity
  8
SUNPOU
100
AcDbCircle
 10
12434.21703198606
 20
9595.715360473253
 30
0.0
 40
5.625
100
AcDbArc
 50
90.0
 51
270.0
  0
ARC
  5
1945A
330
19040
100
AcDbEntity
  8
SUNPOU
100
AcDbCircle
 10
12434.21703198606
 20
9295.715360473252
 30
0.0
 40
5.625
100
AcDbArc
 50
270.0
 51
90.0
  0
ARC
  5
1945B
330
19040
100
AcDbEntity
  8
SUNPOU
100
AcDbCircle
 10
12434.21703198606
 20
9295.715360473252
 30
0.0
 40
5.625
100
AcDbArc
 50
90.0
 51
270.0
  0
ARC
  5
1945C
330
19040
100
AcDbEntity
  8
SUNPOU
100
AcDbCircle
 10
12434.21703198606
 20
9295.715360473252
 30
0.0
 40
5.625
100
AcDbArc
 50
90.0
 51
270.0
  0
ARC
  5
1945D
330
19040
100
AcDbEntity
  8
SUNPOU
100
AcDbCircle
 10
12434.21703198606
 20
9295.715360473252
 30
0.0
 40
5.625
100
AcDbArc
 50
270.0
 51
90.0
  0
ARC
  5
1945E
330
19040
100
AcDbEntity
  8
SUNPOU
100
AcDbCircle
 10
12434.21703198606
 20
5695.715360473253
 30
0.0
 40
5.625
100
AcDbArc
 50
270.0
 51
90.0
  0
ARC
  5
1945F
330
19040
100
AcDbEntity
  8
SUNPOU
100
AcDbCircle
 10
12434.21703198606
 20
5695.715360473253
 30
0.0
 40
5.625
100
AcDbArc
 50
90.0
 51
270.0
  0
ARC
  5
19460
330
19040
100
AcDbEntity
  8
SUNPOU
100
AcDbCircle
 10
12434.21703198606
 20
5695.715360473253
 30
0.0
 40
5.625
100
AcDbArc
 50
90.0
 51
270.0
  0
ARC
  5
19461
330
19040
100
AcDbEntity
  8
SUNPOU
100
AcDbCircle
 10
12434.21703198606
 20
5695.715360473253
 30
0.0
 40
5.625
100
AcDbArc
 50
270.0
 51
90.0
  0
ARC
  5
19462
330
19040
100
AcDbEntity
  8
SUNPOU
100
AcDbCircle
 10
12644.21703198606
 20
5395.715360473253
 30
0.0
 40
5.625
100
AcDbArc
 50
90.0
 51
270.0
  0
ARC
  5
19463
330
19040
100
AcDbEntity
  8
SUNPOU
100
AcDbCircle
 10
12644.21703198606
 20
5395.715360473253
 30
0.0
 40
5.625
100
AcDbArc
 50
270.0
 51
90.0
  0
ARC
  5
19464
330
19040
100
AcDbEntity
  8
SUNPOU
100
AcDbCircle
 10
12434.21703198606
 20
5395.715360473253
 30
0.0
 40
5.625
100
AcDbArc
 50
90.0
 51
270.0
  0
ARC
  5
19465
330
19040
100
AcDbEntity
  8
SUNPOU
100
AcDbCircle
 10
12434.21703198606
 20
5395.715360473253
 30
0.0
 40
5.625
100
AcDbArc
 50
270.0
 51
90.0
  0
TEXT
  5
19466
330
19040
100
AcDbEntity
  8
SUNPOU
100
AcDbText
 10
6799.21703198606
 20
9208.572503330399
 30
0.0
 40
90.0
  1
600
 50
90.0
 41
0.6666666666666666
  7
00
100
AcDbText
  0
LINE
  5
19467
330
19040
100
AcDbEntity
  8
SUNPOU
100
AcDbLine
 10
6844.217031986061
 20
9006.96536047325
 30
0.0
 11
6844.217031986061
 21
9018.215360473252
 31
0.0
  0
LINE
  5
19468
330
19040
100
AcDbEntity
  8
SUNPOU
100
AcDbLine
 10
6844.217031986061
 20
9584.465360473252
 30
0.0
 11
6844.217031986061
 21
9573.215360473252
 31
0.0
  0
TEXT
  5
19469
330
19040
100
AcDbEntity
  8
SUNPOU
100
AcDbText
 10
7447.074174843206
 20
8740.715360473251
 30
0.0
 40
90.0
  1
600
 41
0.6666666666666666
  7
00
100
AcDbText
  0
LINE
  5
1946A
330
19040
100
AcDbEntity
  8
SUNPOU
100
AcDbLine
 10
7822.967031986063
 20
8695.715360473251
 30
0.0
 11
7811.717031986062
 21
8695.715360473251
 31
0.0
  0
LINE
  5
1946B
330
19040
100
AcDbEntity
  8
SUNPOU
100
AcDbLine
 10
7245.467031986064
 20
8695.715360473251
 30
0.0
 11
7256.717031986062
 21
8695.715360473251
 31
0.0
  0
TEXT
  5
1946C
330
19040
100
AcDbEntity
  8
SUNPOU
100
AcDbText
 10
8747.074174843204
 20
6290.715360473253
 30
0.0
 40
90.0
  1
600
 41
0.6666666666666666
  7
00
100
AcDbText
  0
LINE
  5
1946D
330
19040
100
AcDbEntity
  8
SUNPOU
100
AcDbLine
 10
9122.96703198606
 20
6245.715360473253
 30
0.0
 11
9111.717031986065
 21
6245.715360473253
 31
0.0
  0
LINE
  5
1946E
330
19040
100
AcDbEntity
  8
SUNPOU
100
AcDbLine
 10
8545.467031986062
 20
6245.715360473253
 30
0.0
 11
8556.717031986062
 21
6245.715360473253
 31
0.0
  0
TEXT
  5
1946F
330
19040
100
AcDbEntity
  8
SUNPOU
100
AcDbText
 10
12389.21703198605
 20
8277.143931901829
 30
0.0
 40
90.0
  1
1800
 50
90.0
 41
0.6666666666666666
  7
00
100
AcDbText
  0
LINE
  5
19470
330
19040
100
AcDbEntity
  8
SUNPOU
100
AcDbLine
 10
12434.21703198606
 20
7506.965360473255
 30
0.0
 11
12434.21703198606
 21
7518.215360473253
 31
0.0
  0
LINE
  5
19471
330
19040
100
AcDbEntity
  8
SUNPOU
100
AcDbLine
 10
12434.21703198606
 20
9284.46536047325
 30
0.0
 11
12434.21703198606
 21
9273.215360473249
 31
0.0
  0
TEXT
  5
19472
330
19040
100
AcDbEntity
  8
SUNPOU
100
AcDbText
 10
12389.21703198605
 20
6477.143931901827
 30
0.0
 40
90.0
  1
1800
 50
90.0
 41
0.6666666666666666
  7
00
100
AcDbText
  0
LINE
  5
19473
330
19040
100
AcDbEntity
  8
SUNPOU
100
AcDbLine
 10
12434.21703198606
 20
5706.965360473255
 30
0.0
 11
12434.21703198606
 21
5718.215360473255
 31
0.0
  0
LINE
  5
19474
330
19040
100
AcDbEntity
  8
SUNPOU
100
AcDbLine
 10
12434.21703198606
 20
7484.465360473253
 30
0.0
 11
12434.21703198606
 21
7473.215360473253
 31
0.0
  0
TEXT
  5
19475
330
19040
100
AcDbEntity
  8
SUNPOU
100
AcDbText
 10
8748.50274627178
 20
8110.715360473252
 30
0.0
 40
90.0
  1
800
 41
0.6666666666666666
  7
00
100
AcDbText
  0
LINE
  5
19476
330
19040
100
AcDbEntity
  8
SUNPOU
100
AcDbLine
 10
9222.967031986065
 20
8065.715360473253
 30
0.0
 11
9211.717031986065
 21
8065.715360473253
 31
0.0
  0
LINE
  5
19477
330
19040
100
AcDbEntity
  8
SUNPOU
100
AcDbLine
 10
8445.46703198606
 20
8065.715360473253
 30
0.0
 11
8456.717031986062
 21
8065.715360473253
 31
0.0
  0
TEXT
  5
19478
330
19040
100
AcDbEntity
  8
SUNPOU
100
AcDbText
 10
9489.21703198606
 20
7410.001074758966
 30
0.0
 40
90.0
  1
800
 50
90.0
 41
0.6666666666666666
  7
00
100
AcDbText
  0
LINE
  5
19479
330
19040
100
AcDbEntity
  8
SUNPOU
100
AcDbLine
 10
9534.217031986065
 20
7106.965360473252
 30
0.0
 11
9534.217031986065
 21
7118.215360473252
 31
0.0
  0
LINE
  5
1947A
330
19040
100
AcDbEntity
  8
SUNPOU
100
AcDbLine
 10
9534.217031986065
 20
7884.465360473253
 30
0.0
 11
9534.217031986065
 21
7873.215360473252
 31
0.0
  0
TEXT
  5
1947B
330
19040
100
AcDbEntity
  8
SUNPOU
100
AcDbText
 10
3617.191057523529
 20
1424.183932023016
 30
0.0
 40
90.0
  1
600
 41
0.6666666666666666
  7
00
100
AcDbText
  0
LINE
  5
1947C
330
19040
100
AcDbEntity
  8
SUNPOU
100
AcDbLine
 10
4173.083914666387
 20
1379.183932023016
 30
0.0
 11
4161.833914666385
 21
1379.183932023016
 31
0.0
  0
LINE
  5
1947D
330
19040
100
AcDbEntity
  8
SUNPOU
100
AcDbLine
 10
3235.583914666387
 20
1379.183932023016
 30
0.0
 11
3246.833914666386
 21
1379.183932023016
 31
0.0
  0
TEXT
  5
1947E
330
19040
100
AcDbEntity
  8
SUNPOU
100
AcDbText
 10
3618.6196289521
 20
1214.183932023016
 30
0.0
 40
90.0
  1
800
 41
0.6666666666666666
  7
00
100
AcDbText
  0
LINE
  5
1947F
330
19040
100
AcDbEntity
  8
SUNPOU
100
AcDbLine
 10
4333.083914666384
 20
1169.183932023016
 30
0.0
 11
4321.833914666386
 21
1169.183932023016
 31
0.0
  0
LINE
  5
19480
330
19040
100
AcDbEntity
  8
SUNPOU
100
AcDbLine
 10
3075.583914666387
 20
1169.183932023016
 30
0.0
 11
3086.833914666386
 21
1169.183932023016
 31
0.0
  0
TEXT
  5
19481
330
19040
100
AcDbEntity
  8
SUNPOU
100
AcDbText
 10
2698.333796409537
 20
2094.469646308733
 30
0.0
 40
90.0
  1
380
 50
90.0
 41
0.6666666666666666
  7
00
100
AcDbText
  0
LINE
  5
19482
330
19040
100
AcDbEntity
  8
SUNPOU
100
AcDbLine
 10
2743.333796409538
 20
1887.433932023017
 30
0.0
 11
2743.333796409538
 21
1898.683932023017
 31
0.0
  0
LINE
  5
19483
330
19040
100
AcDbEntity
  8
SUNPOU
100
AcDbLine
 10
2743.333796409538
 20
2472.93393202302
 30
0.0
 11
2743.333796409538
 21
2461.68393202302
 31
0.0
  0
TEXT
  5
19484
330
19040
100
AcDbEntity
  8
SUNPOU
100
AcDbText
 10
2698.333796409539
 20
1706.183932023019
 30
0.0
 40
90.0
  1
100
 50
90.0
 41
0.6666666666666666
  7
00
100
AcDbText
  0
LINE
  5
19485
330
19040
100
AcDbEntity
  8
SUNPOU
100
AcDbLine
 10
2743.333796409539
 20
1727.433932023019
 30
0.0
 11
2743.333796409539
 21
1738.683932023019
 31
0.0
  0
LINE
  5
19486
330
19040
100
AcDbEntity
  8
SUNPOU
100
AcDbLine
 10
2743.333796409539
 20
1864.933932023019
 30
0.0
 11
2743.333796409539
 21
1853.683932023018
 31
0.0
  0
TEXT
  5
19487
330
19040
100
AcDbEntity
  8
SUNPOU
100
AcDbText
 10
2498.333796409538
 20
2014.469646308733
 30
0.0
 40
90.0
  1
480
 50
90.0
 41
0.6666666666666666
  7
00
100
AcDbText
  0
LINE
  5
19488
330
19040
100
AcDbEntity
  8
SUNPOU
100
AcDbLine
 10
2543.333796409538
 20
1727.433932023019
 30
0.0
 11
2543.333796409538
 21
1738.683932023019
 31
0.0
  0
LINE
  5
19489
330
19040
100
AcDbEntity
  8
SUNPOU
100
AcDbLine
 10
2543.333796409538
 20
2472.93393202302
 30
0.0
 11
2543.333796409538
 21
2461.68393202302
 31
0.0
  0
TEXT
  5
1948A
330
19040
100
AcDbEntity
  8
SUNPOU
100
AcDbText
 10
3378.619628952101
 20
3332.183932023017
 30
0.0
 40
90.0
  1
300
 41
0.6666666666666666
  7
00
100
AcDbText
  0
LINE
  5
1948B
330
19040
100
AcDbEntity
  8
SUNPOU
100
AcDbLine
 10
3235.583914666387
 20
3287.183932023017
 30
0.0
 11
3246.833914666386
 21
3287.183932023017
 31
0.0
  0
LINE
  5
1948C
330
19040
100
AcDbEntity
  8
SUNPOU
100
AcDbLine
 10
3693.083914666386
 20
3287.183932023017
 30
0.0
 11
3681.833914666388
 21
3287.183932023017
 31
0.0
  0
ARC
  5
1948D
330
19040
100
AcDbEntity
  8
SUNPOU
100
AcDbCircle
 10
3704.333914666387
 20
3287.183932023017
 30
0.0
 40
5.625
100
AcDbArc
 50
0.0
 51
180.0
  0
ARC
  5
1948E
330
19040
100
AcDbEntity
  8
SUNPOU
100
AcDbCircle
 10
3704.333914666387
 20
3287.183932023017
 30
0.0
 40
5.625
100
AcDbArc
 50
180.0
 51
0.0
  0
ARC
  5
1948F
330
19040
100
AcDbEntity
  8
SUNPOU
100
AcDbCircle
 10
7110.758701212581
 20
3287.183932023015
 30
0.0
 40
5.625
100
AcDbArc
 50
0.0
 51
180.0
  0
ARC
  5
19490
330
19040
100
AcDbEntity
  8
SUNPOU
100
AcDbCircle
 10
7110.758701212581
 20
3287.183932023015
 30
0.0
 40
5.625
100
AcDbArc
 50
180.0
 51
0.0
  0
ARC
  5
19491
330
19040
100
AcDbEntity
  8
SUNPOU
100
AcDbCircle
 10
7750.758701212581
 20
3287.183932023015
 30
0.0
 40
5.625
100
AcDbArc
 50
180.0
 51
0.0
  0
ARC
  5
19492
330
19040
100
AcDbEntity
  8
SUNPOU
100
AcDbCircle
 10
7750.758701212581
 20
3287.183932023015
 30
0.0
 40
5.625
100
AcDbArc
 50
0.0
 51
180.0
  0
ARC
  5
19493
330
19040
100
AcDbEntity
  8
SUNPOU
100
AcDbCircle
 10
6629.758582955732
 20
1876.183932023016
 30
0.0
 40
5.625
100
AcDbArc
 50
90.0
 51
270.0
  0
ARC
  5
19494
330
19040
100
AcDbEntity
  8
SUNPOU
100
AcDbCircle
 10
6629.758582955732
 20
1876.183932023016
 30
0.0
 40
5.625
100
AcDbArc
 50
270.0
 51
90.0
  0
ARC
  5
19495
330
19040
100
AcDbEntity
  8
SUNPOU
100
AcDbCircle
 10
6629.758582955734
 20
2484.183932023016
 30
0.0
 40
5.625
100
AcDbArc
 50
270.0
 51
90.0
  0
ARC
  5
19496
330
19040
100
AcDbEntity
  8
SUNPOU
100
AcDbCircle
 10
6629.758582955734
 20
2484.183932023016
 30
0.0
 40
5.625
100
AcDbArc
 50
90.0
 51
270.0
  0
ARC
  5
19497
330
19040
100
AcDbEntity
  8
SUNPOU
100
AcDbCircle
 10
6629.758582955732
 20
1716.183932023016
 30
0.0
 40
5.625
100
AcDbArc
 50
90.0
 51
270.0
  0
ARC
  5
19498
330
19040
100
AcDbEntity
  8
SUNPOU
100
AcDbCircle
 10
6629.758582955732
 20
1716.183932023016
 30
0.0
 40
5.625
100
AcDbArc
 50
270.0
 51
90.0
  0
ARC
  5
19499
330
19040
100
AcDbEntity
  8
SUNPOU
100
AcDbCircle
 10
6629.758582955732
 20
1876.183932023014
 30
0.0
 40
5.625
100
AcDbArc
 50
270.0
 51
90.0
  0
ARC
  5
1949A
330
19040
100
AcDbEntity
  8
SUNPOU
100
AcDbCircle
 10
6629.758582955732
 20
1876.183932023014
 30
0.0
 40
5.625
100
AcDbArc
 50
90.0
 51
270.0
  0
ARC
  5
1949B
330
19040
100
AcDbEntity
  8
SUNPOU
100
AcDbCircle
 10
6429.758582955732
 20
1716.183932023016
 30
0.0
 40
5.625
100
AcDbArc
 50
90.0
 51
270.0
  0
ARC
  5
1949C
330
19040
100
AcDbEntity
  8
SUNPOU
100
AcDbCircle
 10
6429.758582955732
 20
1716.183932023016
 30
0.0
 40
5.625
100
AcDbArc
 50
270.0
 51
90.0
  0
ARC
  5
1949D
330
19040
100
AcDbEntity
  8
SUNPOU
100
AcDbCircle
 10
6429.758582955732
 20
2484.183932023016
 30
0.0
 40
5.625
100
AcDbArc
 50
270.0
 51
90.0
  0
ARC
  5
1949E
330
19040
100
AcDbEntity
  8
SUNPOU
100
AcDbCircle
 10
6429.758582955732
 20
2484.183932023016
 30
0.0
 40
5.625
100
AcDbArc
 50
90.0
 51
270.0
  0
ARC
  5
1949F
330
19040
100
AcDbEntity
  8
SUNPOU
100
AcDbCircle
 10
8390.758701212579
 20
1379.183932023015
 30
0.0
 40
5.625
100
AcDbArc
 50
180.0
 51
0.0
  0
ARC
  5
194A0
330
19040
100
AcDbEntity
  8
SUNPOU
100
AcDbCircle
 10
8390.758701212579
 20
1379.183932023015
 30
0.0
 40
5.625
100
AcDbArc
 50
0.0
 51
180.0
  0
ARC
  5
194A1
330
19040
100
AcDbEntity
  8
SUNPOU
100
AcDbCircle
 10
7110.758701212581
 20
1379.183932023015
 30
0.0
 40
5.625
100
AcDbArc
 50
0.0
 51
180.0
  0
ARC
  5
194A2
330
19040
100
AcDbEntity
  8
SUNPOU
100
AcDbCircle
 10
7110.758701212581
 20
1379.183932023015
 30
0.0
 40
5.625
100
AcDbArc
 50
180.0
 51
0.0
  0
ARC
  5
194A3
330
19040
100
AcDbEntity
  8
SUNPOU
100
AcDbCircle
 10
8550.758701212577
 20
1169.183932023014
 30
0.0
 40
5.625
100
AcDbArc
 50
180.0
 51
0.0
  0
ARC
  5
194A4
330
19040
100
AcDbEntity
  8
SUNPOU
100
AcDbCircle
 10
8550.758701212577
 20
1169.183932023014
 30
0.0
 40
5.625
100
AcDbArc
 50
0.0
 51
180.0
  0
ARC
  5
194A5
330
19040
100
AcDbEntity
  8
SUNPOU
100
AcDbCircle
 10
6950.758701212581
 20
1169.183932023014
 30
0.0
 40
5.625
100
AcDbArc
 50
0.0
 51
180.0
  0
ARC
  5
194A6
330
19040
100
AcDbEntity
  8
SUNPOU
100
AcDbCircle
 10
6950.758701212581
 20
1169.183932023014
 30
0.0
 40
5.625
100
AcDbArc
 50
180.0
 51
0.0
  0
ARC
  5
194A7
330
19040
100
AcDbEntity
  8
SUNPOU
100
AcDbCircle
 10
9434.217031986065
 20
5395.715360473253
 30
0.0
 40
5.625
100
AcDbArc
 50
90.0
 51
270.0
  0
ARC
  5
194A8
330
19040
100
AcDbEntity
  8
SUNPOU
100
AcDbCircle
 10
9434.217031986065
 20
5395.715360473253
 30
0.0
 40
5.625
100
AcDbArc
 50
270.0
 51
90.0
  0
ARC
  5
194A9
330
19040
100
AcDbEntity
  8
SUNPOU
100
AcDbCircle
 10
9434.217031986065
 20
5995.715360473255
 30
0.0
 40
5.625
100
AcDbArc
 50
270.0
 51
90.0
  0
ARC
  5
194AA
330
19040
100
AcDbEntity
  8
SUNPOU
100
AcDbCircle
 10
9434.217031986065
 20
5995.715360473255
 30
0.0
 40
5.625
100
AcDbArc
 50
90.0
 51
270.0
  0
ARC
  5
194AB
330
19040
100
AcDbEntity
  8
SUNPOU
100
AcDbCircle
 10
12034.21703198606
 20
10205.71536047325
 30
0.0
 40
5.625
100
AcDbArc
 50
180.0
 51
0.0
  0
ARC
  5
194AC
330
19040
100
AcDbEntity
  8
SUNPOU
100
AcDbCircle
 10
12034.21703198606
 20
10205.71536047325
 30
0.0
 40
5.625
100
AcDbArc
 50
0.0
 51
180.0
  0
ARC
  5
194AD
330
19040
100
AcDbEntity
  8
SUNPOU
100
AcDbCircle
 10
4334.217031986064
 20
10205.71536047325
 30
0.0
 40
5.625
100
AcDbArc
 50
0.0
 51
180.0
  0
ARC
  5
194AE
330
19040
100
AcDbEntity
  8
SUNPOU
100
AcDbCircle
 10
4334.217031986064
 20
10205.71536047325
 30
0.0
 40
5.625
100
AcDbArc
 50
180.0
 51
0.0
  0
ARC
  5
194AF
330
19040
100
AcDbEntity
  8
SUNPOU
100
AcDbCircle
 10
4734.217031986064
 20
9995.715360473253
 30
0.0
 40
5.625
100
AcDbArc
 50
0.0
 51
180.0
  0
ARC
  5
194B0
330
19040
100
AcDbEntity
  8
SUNPOU
100
AcDbCircle
 10
4734.217031986064
 20
9995.715360473253
 30
0.0
 40
5.625
100
AcDbArc
 50
180.0
 51
0.0
  0
ARC
  5
194B1
330
19040
100
AcDbEntity
  8
SUNPOU
100
AcDbCircle
 10
7534.217031986064
 20
9995.715360473253
 30
0.0
 40
5.625
100
AcDbArc
 50
180.0
 51
0.0
  0
ARC
  5
194B2
330
19040
100
AcDbEntity
  8
SUNPOU
100
AcDbCircle
 10
7534.217031986064
 20
9995.715360473253
 30
0.0
 40
5.625
100
AcDbArc
 50
0.0
 51
180.0
  0
ARC
  5
194B3
330
19040
100
AcDbEntity
  8
SUNPOU
100
AcDbCircle
 10
8834.217031986062
 20
9995.715360473253
 30
0.0
 40
5.625
100
AcDbArc
 50
0.0
 51
180.0
  0
ARC
  5
194B4
330
19040
100
AcDbEntity
  8
SUNPOU
100
AcDbCircle
 10
8834.217031986062
 20
9995.715360473253
 30
0.0
 40
5.625
100
AcDbArc
 50
180.0
 51
0.0
  0
ARC
  5
194B5
330
19040
100
AcDbEntity
  8
SUNPOU
100
AcDbCircle
 10
11634.21703198606
 20
9995.715360473253
 30
0.0
 40
5.625
100
AcDbArc
 50
180.0
 51
0.0
  0
ARC
  5
194B6
330
19040
100
AcDbEntity
  8
SUNPOU
100
AcDbCircle
 10
11634.21703198606
 20
9995.715360473253
 30
0.0
 40
5.625
100
AcDbArc
 50
0.0
 51
180.0
  0
ARC
  5
194B7
330
19040
100
AcDbEntity
  8
SUNPOU
100
AcDbCircle
 10
4334.217031986064
 20
9995.715360473253
 30
0.0
 40
5.625
100
AcDbArc
 50
0.0
 51
180.0
  0
ARC
  5
194B8
330
19040
100
AcDbEntity
  8
SUNPOU
100
AcDbCircle
 10
4334.217031986064
 20
9995.715360473253
 30
0.0
 40
5.625
100
AcDbArc
 50
180.0
 51
0.0
  0
ARC
  5
194B9
330
19040
100
AcDbEntity
  8
SUNPOU
100
AcDbCircle
 10
4734.217031986064
 20
9995.715360473253
 30
0.0
 40
5.625
100
AcDbArc
 50
180.0
 51
0.0
  0
ARC
  5
194BA
330
19040
100
AcDbEntity
  8
SUNPOU
100
AcDbCircle
 10
4734.217031986064
 20
9995.715360473253
 30
0.0
 40
5.625
100
AcDbArc
 50
0.0
 51
180.0
  0
ARC
  5
194BB
330
19040
100
AcDbEntity
  8
SUNPOU
100
AcDbCircle
 10
12034.21703198606
 20
9995.715360473253
 30
0.0
 40
5.625
100
AcDbArc
 50
180.0
 51
0.0
  0
ARC
  5
194BC
330
19040
100
AcDbEntity
  8
SUNPOU
100
AcDbCircle
 10
12034.21703198606
 20
9995.715360473253
 30
0.0
 40
5.625
100
AcDbArc
 50
0.0
 51
180.0
  0
ARC
  5
194BD
330
19040
100
AcDbEntity
  8
SUNPOU
100
AcDbCircle
 10
11634.21703198606
 20
9995.715360473253
 30
0.0
 40
5.625
100
AcDbArc
 50
0.0
 51
180.0
  0
ARC
  5
194BE
330
19040
100
AcDbEntity
  8
SUNPOU
100
AcDbCircle
 10
11634.21703198606
 20
9995.715360473253
 30
0.0
 40
5.625
100
AcDbArc
 50
180.0
 51
0.0
  0
ARC
  5
194BF
330
19040
100
AcDbEntity
  8
SUNPOU
100
AcDbCircle
 10
6844.217031986061
 20
8995.715360473253
 30
0.0
 40
5.625
100
AcDbArc
 50
90.0
 51
270.0
  0
ARC
  5
194C0
330
19040
100
AcDbEntity
  8
SUNPOU
100
AcDbCircle
 10
6844.217031986061
 20
8995.715360473253
 30
0.0
 40
5.625
100
AcDbArc
 50
270.0
 51
90.0
  0
ARC
  5
194C1
330
19040
100
AcDbEntity
  8
SUNPOU
100
AcDbCircle
 10
6844.217031986061
 20
9595.715360473253
 30
0.0
 40
5.625
100
AcDbArc
 50
270.0
 51
90.0
  0
ARC
  5
194C2
330
19040
100
AcDbEntity
  8
SUNPOU
100
AcDbCircle
 10
6844.217031986061
 20
9595.715360473253
 30
0.0
 40
5.625
100
AcDbArc
 50
90.0
 51
270.0
  0
ARC
  5
194C3
330
19040
100
AcDbEntity
  8
SUNPOU
100
AcDbCircle
 10
7834.217031986064
 20
8695.715360473251
 30
0.0
 40
5.625
100
AcDbArc
 50
180.0
 51
0.0
  0
ARC
  5
194C4
330
19040
100
AcDbEntity
  8
SUNPOU
100
AcDbCircle
 10
7834.217031986064
 20
8695.715360473251
 30
0.0
 40
5.625
100
AcDbArc
 50
0.0
 51
180.0
  0
ARC
  5
194C5
330
19040
100
AcDbEntity
  8
SUNPOU
100
AcDbCircle
 10
7234.217031986064
 20
8695.715360473251
 30
0.0
 40
5.625
100
AcDbArc
 50
0.0
 51
180.0
  0
ARC
  5
194C6
330
19040
100
AcDbEntity
  8
SUNPOU
100
AcDbCircle
 10
7234.217031986064
 20
8695.715360473251
 30
0.0
 40
5.625
100
AcDbArc
 50
180.0
 51
0.0
  0
ARC
  5
194C7
330
19040
100
AcDbEntity
  8
SUNPOU
100
AcDbCircle
 10
9134.217031986066
 20
6245.715360473253
 30
0.0
 40
5.625
100
AcDbArc
 50
180.0
 51
0.0
  0
ARC
  5
194C8
330
19040
100
AcDbEntity
  8
SUNPOU
100
AcDbCircle
 10
9134.217031986066
 20
6245.715360473253
 30
0.0
 40
5.625
100
AcDbArc
 50
0.0
 51
180.0
  0
ARC
  5
194C9
330
19040
100
AcDbEntity
  8
SUNPOU
100
AcDbCircle
 10
8534.217031986065
 20
6245.715360473253
 30
0.0
 40
5.625
100
AcDbArc
 50
0.0
 51
180.0
  0
ARC
  5
194CA
330
19040
100
AcDbEntity
  8
SUNPOU
100
AcDbCircle
 10
8534.217031986065
 20
6245.715360473253
 30
0.0
 40
5.625
100
AcDbArc
 50
180.0
 51
0.0
  0
ARC
  5
194CB
330
19040
100
AcDbEntity
  8
SUNPOU
100
AcDbCircle
 10
12434.21703198606
 20
7495.715360473251
 30
0.0
 40
5.625
100
AcDbArc
 50
90.0
 51
270.0
  0
ARC
  5
194CC
330
19040
100
AcDbEntity
  8
SUNPOU
100
AcDbCircle
 10
12434.21703198606
 20
7495.715360473251
 30
0.0
 40
5.625
100
AcDbArc
 50
270.0
 51
90.0
  0
ARC
  5
194CD
330
19040
100
AcDbEntity
  8
SUNPOU
100
AcDbCircle
 10
12434.21703198606
 20
9295.71536047325
 30
0.0
 40
5.625
100
AcDbArc
 50
270.0
 51
90.0
  0
ARC
  5
194CE
330
19040
100
AcDbEntity
  8
SUNPOU
100
AcDbCircle
 10
12434.21703198606
 20
9295.71536047325
 30
0.0
 40
5.625
100
AcDbArc
 50
90.0
 51
270.0
  0
ARC
  5
194CF
330
19040
100
AcDbEntity
  8
SUNPOU
100
AcDbCircle
 10
12434.21703198606
 20
5695.715360473254
 30
0.0
 40
5.625
100
AcDbArc
 50
90.0
 51
270.0
  0
ARC
  5
194D0
330
19040
100
AcDbEntity
  8
SUNPOU
100
AcDbCircle
 10
12434.21703198606
 20
5695.715360473254
 30
0.0
 40
5.625
100
AcDbArc
 50
270.0
 51
90.0
  0
ARC
  5
194D1
330
19040
100
AcDbEntity
  8
SUNPOU
100
AcDbCircle
 10
12434.21703198606
 20
7495.715360473251
 30
0.0
 40
5.625
100
AcDbArc
 50
270.0
 51
90.0
  0
ARC
  5
194D2
330
19040
100
AcDbEntity
  8
SUNPOU
100
AcDbCircle
 10
12434.21703198606
 20
7495.715360473251
 30
0.0
 40
5.625
100
AcDbArc
 50
90.0
 51
270.0
  0
ARC
  5
194D3
330
19040
100
AcDbEntity
  8
SUNPOU
100
AcDbCircle
 10
9234.217031986066
 20
8065.715360473253
 30
0.0
 40
5.625
100
AcDbArc
 50
180.0
 51
0.0
  0
ARC
  5
194D4
330
19040
100
AcDbEntity
  8
SUNPOU
100
AcDbCircle
 10
9234.217031986066
 20
8065.715360473253
 30
0.0
 40
5.625
100
AcDbArc
 50
0.0
 51
180.0
  0
ARC
  5
194D5
330
19040
100
AcDbEntity
  8
SUNPOU
100
AcDbCircle
 10
8434.217031986062
 20
8065.715360473253
 30
0.0
 40
5.625
100
AcDbArc
 50
0.0
 51
180.0
  0
ARC
  5
194D6
330
19040
100
AcDbEntity
  8
SUNPOU
100
AcDbCircle
 10
8434.217031986062
 20
8065.715360473253
 30
0.0
 40
5.625
100
AcDbArc
 50
180.0
 51
0.0
  0
ARC
  5
194D7
330
19040
100
AcDbEntity
  8
SUNPOU
100
AcDbCircle
 10
9534.217031986065
 20
7095.715360473253
 30
0.0
 40
5.625
100
AcDbArc
 50
90.0
 51
270.0
  0
ARC
  5
194D8
330
19040
100
AcDbEntity
  8
SUNPOU
100
AcDbCircle
 10
9534.217031986065
 20
7095.715360473253
 30
0.0
 40
5.625
100
AcDbArc
 50
270.0
 51
90.0
  0
ARC
  5
194D9
330
19040
100
AcDbEntity
  8
SUNPOU
100
AcDbCircle
 10
9534.217031986065
 20
7895.715360473253
 30
0.0
 40
5.625
100
AcDbArc
 50
270.0
 51
90.0
  0
ARC
  5
194DA
330
19040
100
AcDbEntity
  8
SUNPOU
100
AcDbCircle
 10
9534.217031986065
 20
7895.715360473253
 30
0.0
 40
5.625
100
AcDbArc
 50
90.0
 51
270.0
  0
ARC
  5
194DB
330
19040
100
AcDbEntity
  8
SUNPOU
100
AcDbCircle
 10
4184.333914666385
 20
1379.183932023016
 30
0.0
 40
5.625
100
AcDbArc
 50
180.0
 51
0.0
  0
ARC
  5
194DC
330
19040
100
AcDbEntity
  8
SUNPOU
100
AcDbCircle
 10
4184.333914666385
 20
1379.183932023016
 30
0.0
 40
5.625
100
AcDbArc
 50
0.0
 51
180.0
  0
ARC
  5
194DD
330
19040
100
AcDbEntity
  8
SUNPOU
100
AcDbCircle
 10
3224.333914666386
 20
1379.183932023016
 30
0.0
 40
5.625
100
AcDbArc
 50
0.0
 51
180.0
  0
ARC
  5
194DE
330
19040
100
AcDbEntity
  8
SUNPOU
100
AcDbCircle
 10
3224.333914666386
 20
1379.183932023016
 30
0.0
 40
5.625
100
AcDbArc
 50
180.0
 51
0.0
  0
ARC
  5
194DF
330
19040
100
AcDbEntity
  8
SUNPOU
100
AcDbCircle
 10
4344.333914666385
 20
1169.183932023016
 30
0.0
 40
5.625
100
AcDbArc
 50
180.0
 51
0.0
  0
ARC
  5
194E0
330
19040
100
AcDbEntity
  8
SUNPOU
100
AcDbCircle
 10
4344.333914666385
 20
1169.183932023016
 30
0.0
 40
5.625
100
AcDbArc
 50
0.0
 51
180.0
  0
ARC
  5
194E1
330
19040
100
AcDbEntity
  8
SUNPOU
100
AcDbCircle
 10
3064.333914666386
 20
1169.183932023016
 30
0.0
 40
5.625
100
AcDbArc
 50
0.0
 51
180.0
  0
ARC
  5
194E2
330
19040
100
AcDbEntity
  8
SUNPOU
100
AcDbCircle
 10
3064.333914666386
 20
1169.183932023016
 30
0.0
 40
5.625
100
AcDbArc
 50
180.0
 51
0.0
  0
ARC
  5
194E3
330
19040
100
AcDbEntity
  8
SUNPOU
100
AcDbCircle
 10
2743.333796409538
 20
1876.183932023018
 30
0.0
 40
5.625
100
AcDbArc
 50
90.0
 51
270.0
  0
ARC
  5
194E4
330
19040
100
AcDbEntity
  8
SUNPOU
100
AcDbCircle
 10
2743.333796409538
 20
1876.183932023018
 30
0.0
 40
5.625
100
AcDbArc
 50
270.0
 51
90.0
  0
ARC
  5
194E5
330
19040
100
AcDbEntity
  8
SUNPOU
100
AcDbCircle
 10
2743.333796409538
 20
2484.18393202302
 30
0.0
 40
5.625
100
AcDbArc
 50
270.0
 51
90.0
  0
ARC
  5
194E6
330
19040
100
AcDbEntity
  8
SUNPOU
100
AcDbCircle
 10
2743.333796409538
 20
2484.18393202302
 30
0.0
 40
5.625
100
AcDbArc
 50
90.0
 51
270.0
  0
ARC
  5
194E7
330
19040
100
AcDbEntity
  8
SUNPOU
100
AcDbCircle
 10
2743.333796409539
 20
1716.183932023018
 30
0.0
 40
5.625
100
AcDbArc
 50
90.0
 51
270.0
  0
ARC
  5
194E8
330
19040
100
AcDbEntity
  8
SUNPOU
100
AcDbCircle
 10
2743.333796409539
 20
1716.183932023018
 30
0.0
 40
5.625
100
AcDbArc
 50
270.0
 51
90.0
  0
ARC
  5
194E9
330
19040
100
AcDbEntity
  8
SUNPOU
100
AcDbCircle
 10
2743.333796409539
 20
1876.183932023019
 30
0.0
 40
5.625
100
AcDbArc
 50
270.0
 51
90.0
  0
ARC
  5
194EA
330
19040
100
AcDbEntity
  8
SUNPOU
100
AcDbCircle
 10
2743.333796409539
 20
1876.183932023019
 30
0.0
 40
5.625
100
AcDbArc
 50
90.0
 51
270.0
  0
ARC
  5
194EB
330
19040
100
AcDbEntity
  8
SUNPOU
100
AcDbCircle
 10
2543.333796409538
 20
1716.183932023018
 30
0.0
 40
5.625
100
AcDbArc
 50
90.0
 51
270.0
  0
ARC
  5
194EC
330
19040
100
AcDbEntity
  8
SUNPOU
100
AcDbCircle
 10
2543.333796409538
 20
1716.183932023018
 30
0.0
 40
5.625
100
AcDbArc
 50
270.0
 51
90.0
  0
ARC
  5
194ED
330
19040
100
AcDbEntity
  8
SUNPOU
100
AcDbCircle
 10
2543.333796409538
 20
2484.18393202302
 30
0.0
 40
5.625
100
AcDbArc
 50
270.0
 51
90.0
  0
ARC
  5
194EE
330
19040
100
AcDbEntity
  8
SUNPOU
100
AcDbCircle
 10
2543.333796409538
 20
2484.18393202302
 30
0.0
 40
5.625
100
AcDbArc
 50
90.0
 51
270.0
  0
ARC
  5
194EF
330
19040
100
AcDbEntity
  8
SUNPOU
100
AcDbCircle
 10
3224.333914666386
 20
3287.183932023017
 30
0.0
 40
5.625
100
AcDbArc
 50
0.0
 51
180.0
  0
ARC
  5
194F0
330
19040
100
AcDbEntity
  8
SUNPOU
100
AcDbCircle
 10
3224.333914666386
 20
3287.183932023017
 30
0.0
 40
5.625
100
AcDbArc
 50
180.0
 51
0.0
  0
ARC
  5
194F1
330
19040
100
AcDbEntity
  8
SUNPOU
100
AcDbCircle
 10
3704.333914666387
 20
3287.183932023017
 30
0.0
 40
5.625
100
AcDbArc
 50
180.0
 51
0.0
  0
ARC
  5
194F2
330
19040
100
AcDbEntity
  8
SUNPOU
100
AcDbCircle
 10
3704.333914666387
 20
3287.183932023017
 30
0.0
 40
5.625
100
AcDbArc
 50
0.0
 51
180.0
  0
ARC
  5
194F3
330
19040
100
AcDbEntity
  8
HIKIDASHI
100
AcDbCircle
 10
7034.163526321626
 20
2884.568660545874
 30
0.0
 40
74.66417910452284
100
AcDbArc
 50
164.8596129850915
 51
237.5045002941574
  0
ARC
  5
194F4
330
19040
100
AcDbEntity
  8
HIKIDASHI
100
AcDbCircle
 10
6970.739732275323
 20
2901.729684030359
 30
0.0
 40
8.959701492542745
100
AcDbArc
 50
15.14038701504827
 51
164.8596129849796
  0
ARC
  5
194F5
330
19040
100
AcDbEntity
  8
HIKIDASHI
100
AcDbCircle
 10
3107.738739775433
 20
2884.568660545875
 30
0.0
 40
74.66417910452284
100
AcDbArc
 50
164.859612985099
 51
237.5045002941329
  0
ARC
  5
194F6
330
19040
100
AcDbEntity
  8
HIKIDASHI
100
AcDbCircle
 10
3044.314945729129
 20
2901.72968403036
 30
0.0
 40
8.959701492542745
100
AcDbArc
 50
15.14038701504827
 51
164.8596129849796
  0
LINE
  5
194F7
330
19040
100
AcDbEntity
  8
HIKIDASHI
100
AcDbLine
 10
7373.188673061545
 20
2549.657897273409
 30
0.0
 11
7061.08797807352
 21
2994.183932023013
 31
0.0
1001
ACAD
1000
DSTYLE
1002
{
1070
   147
1040
1.0
1070
    77
1070
     0
1070
   144
1040
0.625
1002
}
  0
LINE
  5
194F8
330
19040
100
AcDbEntity
  8
HIKIDASHI
100
AcDbLine
 10
7362.276345519813
 20
2541.996377489465
 30
0.0
 11
7419.1577917652
 21
2484.183932023017
 31
0.0
  0
LINE
  5
194F9
330
19040
100
AcDbEntity
  8
HIKIDASHI
100
AcDbLine
 10
7419.1577917652
 20
2484.183932023017
 30
0.0
 11
7384.101000603277
 21
2557.319417057351
 31
0.0
  0
SOLID
  5
194FA
330
19040
100
AcDbEntity
  8
HIKIDASHI
100
AcDbTrace
 10
7362.276345519813
 20
2541.996377489465
 30
0.0
 11
7384.101000603277
 21
2557.319417057351
 31
0.0
 12
7419.1577917652
 22
2484.183932023017
 32
0.0
 13
7419.1577917652
 23
2484.183932023017
 33
0.0
  0
LINE
  5
194FB
330
19040
100
AcDbEntity
  8
HIKIDASHI
100
AcDbLine
 10
7384.101000603277
 20
2557.319417057351
 30
0.0
 11
7362.276345519813
 21
2541.996377489465
 31
0.0
  0
LINE
  5
194FC
330
19040
100
AcDbEntity
  8
HIKIDASHI
100
AcDbLine
 10
7528.904070814292
 20
2046.342848554359
 30
0.0
 11
7047.682504043535
 21
2754.183932023012
 31
0.0
1001
ACAD
1000
DSTYLE
1002
{
1070
   147
1040
1.0
1070
    77
1070
     0
1070
   144
1040
0.625
1002
}
  0
LINE
  5
194FD
330
19040
100
AcDbEntity
  8
HIKIDASHI
100
AcDbLine
 10
7517.877584725734
 20
2038.846557316912
 30
0.0
 11
7573.881818238977
 21
1980.183932023017
 31
0.0
  0
LINE
  5
194FE
330
19040
100
AcDbEntity
  8
HIKIDASHI
100
AcDbLine
 10
7573.881818238977
 20
1980.183932023017
 30
0.0
 11
7539.93055690285
 21
2053.839139791807
 31
0.0
  0
SOLID
  5
194FF
330
19040
100
AcDbEntity
  8
HIKIDASHI
100
AcDbTrace
 10
7517.877584725734
 20
2038.846557316912
 30
0.0
 11
7539.93055690285
 21
2053.839139791807
 31
0.0
 12
7573.881818238977
 22
1980.183932023017
 32
0.0
 13
7573.881818238977
 23
1980.183932023017
 33
0.0
  0
LINE
  5
19500
330
19040
100
AcDbEntity
  8
HIKIDASHI
100
AcDbLine
 10
7539.93055690285
 20
2053.839139791807
 30
0.0
 11
7517.877584725734
 21
2038.846557316912
 31
0.0
  0
ARC
  5
19501
330
19040
100
AcDbEntity
  8
HIKIDASHI
100
AcDbCircle
 10
6908.495464764758
 20
2885.748787905465
 30
0.0
 40
74.66417910452253
100
AcDbArc
 50
301.7712278330703
 51
15.14038701490934
  0
LINE
  5
19502
330
19040
100
AcDbEntity
  8
HIKIDASHI
100
AcDbLine
 10
6916.549902271178
 20
1707.866865745498
 30
0.0
 11
6725.592096228623
 21
1304.183932023017
 31
0.0
1001
ACAD
1000
DSTYLE
1002
{
1070
   147
1040
1.0
1070
    77
1070
     0
1070
   144
1040
0.625
1002
}
  0
LINE
  5
19503
330
19040
100
AcDbEntity
  8
HIKIDASHI
100
AcDbLine
 10
6928.602746650764
 20
1702.165399255265
 30
0.0
 11
6950.758701212581
 21
1780.183932023015
 31
0.0
  0
LINE
  5
19504
330
19040
100
AcDbEntity
  8
HIKIDASHI
100
AcDbLine
 10
6950.758701212581
 20
1780.183932023015
 30
0.0
 11
6904.497057891591
 21
1713.568332235734
 31
0.0
  0
SOLID
  5
19505
330
19040
100
AcDbEntity
  8
HIKIDASHI
100
AcDbTrace
 10
6928.602746650764
 20
1702.165399255265
 30
0.0
 11
6904.497057891591
 21
1713.568332235734
 31
0.0
 12
6950.758701212581
 22
1780.183932023015
 32
0.0
 13
6950.758701212581
 23
1780.183932023015
 33
0.0
  0
LINE
  5
19506
330
19040
100
AcDbEntity
  8
HIKIDASHI
100
AcDbLine
 10
6904.497057891591
 20
1713.568332235734
 30
0.0
 11
6928.602746650764
 21
1702.165399255265
 31
0.0
  0
LINE
  5
19507
330
19040
100
AcDbEntity
  8
HIKIDASHI
100
AcDbLine
 10
8512.255537304527
 20
2235.555264269678
 30
0.0
 11
8604.261733917331
 21
1961.931554141242
 31
0.0
1001
ACAD
1000
DSTYLE
1002
{
1070
   147
1040
1.0
1070
    77
1070
     0
1070
   144
1040
0.625
1070
   173
1070
     0
1070
   341
1005
125B0
1002
}
  0
ARC
  5
19508
330
19040
100
AcDbEntity
  8
HIKIDASHI
100
AcDbCircle
 10
8463.573051272508
 20
2317.583646062626
 30
0.0
 40
24.0
100
AcDbArc
 50
232.1425703309788
 51
345.0279508071377
  0
ARC
  5
19509
330
19040
100
AcDbEntity
  8
HIKIDASHI
100
AcDbCircle
 10
8509.943545927438
 20
2305.182951507191
 30
0.0
 40
24.0
100
AcDbArc
 50
52.14257033097887
 51
165.0279508071375
  0
LINE
  5
1950A
330
19040
100
AcDbEntity
  8
HIKIDASHI
100
AcDbLine
 10
8486.758298599971
 20
2311.383298784909
 30
0.0
 11
8512.255537304531
 21
2235.555264269661
 31
0.0
  0
LINE
  5
1950B
330
19040
100
AcDbEntity
  8
HIKIDASHI
100
AcDbLine
 10
4305.830750758332
 20
2235.555264269682
 30
0.0
 11
4397.836947371135
 21
1961.931554141245
 31
0.0
1001
ACAD
1000
DSTYLE
1002
{
1070
   147
1040
1.0
1070
    77
1070
     0
1070
   144
1040
0.625
1070
   173
1070
     0
1070
   341
1005
125B0
1002
}
  0
ARC
  5
1950C
330
19040
100
AcDbEntity
  8
HIKIDASHI
100
AcDbCircle
 10
4257.148264726313
 20
2317.58364606263
 30
0.0
 40
24.0
100
AcDbArc
 50
232.1425703309794
 51
345.0279508071377
  0
ARC
  5
1950D
330
19040
100
AcDbEntity
  8
HIKIDASHI
100
AcDbCircle
 10
4303.51875938124
 20
2305.182951507194
 30
0.0
 40
24.0
100
AcDbArc
 50
52.14257033097939
 51
165.0279508071375
  0
LINE
  5
1950E
330
19040
100
AcDbEntity
  8
HIKIDASHI
100
AcDbLine
 10
4280.333512053776
 20
2311.383298784912
 30
0.0
 11
4305.830750758338
 21
2235.555264269664
 31
0.0
  0
LINE
  5
1950F
330
19040
100
AcDbEntity
  8
HIKIDASHI
100
AcDbLine
 10
3030.125115724983
 20
1707.866865745504
 30
0.0
 11
2839.167309682428
 21
1304.183932023019
 31
0.0
1001
ACAD
1000
DSTYLE
1002
{
1070
   147
1040
1.0
1070
    77
1070
     0
1070
   144
1040
0.625
1002
}
  0
LINE
  5
19510
330
19040
100
AcDbEntity
  8
HIKIDASHI
100
AcDbLine
 10
3042.177960104569
 20
1702.165399255268
 30
0.0
 11
3064.333914666386
 21
1780.183932023019
 31
0.0
  0
LINE
  5
19511
330
19040
100
AcDbEntity
  8
HIKIDASHI
100
AcDbLine
 10
3064.333914666386
 20
1780.183932023019
 30
0.0
 11
3018.072271345396
 21
1713.568332235738
 31
0.0
  0
SOLID
  5
19512
330
19040
100
AcDbEntity
  8
HIKIDASHI
100
AcDbTrace
 10
3042.177960104569
 20
1702.165399255268
 30
0.0
 11
3018.072271345396
 21
1713.568332235738
 31
0.0
 12
3064.333914666386
 22
1780.183932023019
 32
0.0
 13
3064.333914666386
 23
1780.183932023019
 33
0.0
  0
LINE
  5
19513
330
19040
100
AcDbEntity
  8
HIKIDASHI
100
AcDbLine
 10
3018.072271345396
 20
1713.568332235738
 30
0.0
 11
3042.177960104569
 21
1702.165399255268
 31
0.0
  0
LINE
  5
19514
330
19040
100
AcDbEntity
  8
HIKIDASHI
100
AcDbLine
 10
3397.405324605102
 20
2552.921480099711
 30
0.0
 11
3134.663191527326
 21
2994.183932023015
 31
0.0
1001
ACAD
1000
DSTYLE
1002
{
1070
   147
1040
1.0
1070
    77
1070
     0
1070
   144
1040
0.625
1002
}
  0
LINE
  5
19515
330
19040
100
AcDbEntity
  8
HIKIDASHI
100
AcDbLine
 10
3385.949066592321
 20
2546.100048422829
 30
0.0
 11
3438.333914666386
 21
2484.183932023019
 31
0.0
  0
LINE
  5
19516
330
19040
100
AcDbEntity
  8
HIKIDASHI
100
AcDbLine
 10
3438.333914666386
 20
2484.183932023019
 30
0.0
 11
3408.861582617884
 21
2559.742911776591
 31
0.0
  0
SOLID
  5
19517
330
19040
100
AcDbEntity
  8
HIKIDASHI
100
AcDbTrace
 10
3385.949066592321
 20
2546.100048422829
 30
0.0
 11
3408.861582617884
 21
2559.742911776591
 31
0.0
 12
3438.333914666386
 22
2484.183932023019
 32
0.0
 13
3438.333914666386
 23
2484.183932023019
 33
0.0
  0
LINE
  5
19518
330
19040
100
AcDbEntity
  8
HIKIDASHI
100
AcDbLine
 10
3408.861582617884
 20
2559.742911776591
 30
0.0
 11
3385.949066592321
 21
2546.100048422829
 31
0.0
  0
LINE
  5
19519
330
19040
100
AcDbEntity
  8
HIKIDASHI
100
AcDbLine
 10
3500.3842778552
 20
2050.609957510043
 30
0.0
 11
3121.257717497342
 21
2754.183932023015
 31
0.0
1001
ACAD
1000
DSTYLE
1002
{
1070
   147
1040
1.0
1070
    77
1070
     0
1070
   144
1040
0.625
1002
}
  0
LINE
  5
1951A
330
19040
100
AcDbEntity
  8
HIKIDASHI
100
AcDbLine
 10
3488.646606940696
 20
2044.285018041513
 30
0.0
 11
3538.333914666386
 21
1980.183932023019
 31
0.0
  0
LINE
  5
1951B
330
19040
100
AcDbEntity
  8
HIKIDASHI
100
AcDbLine
 10
3538.333914666386
 20
1980.183932023019
 30
0.0
 11
3512.121948769705
 21
2056.934896978575
 31
0.0
  0
SOLID
  5
1951C
330
19040
100
AcDbEntity
  8
HIKIDASHI
100
AcDbTrace
 10
3488.646606940696
 20
2044.285018041513
 30
0.0
 11
3512.121948769705
 21
2056.934896978575
 31
0.0
 12
3538.333914666386
 22
1980.183932023019
 32
0.0
 13
3538.333914666386
 23
1980.183932023019
 33
0.0
  0
LINE
  5
1951D
330
19040
100
AcDbEntity
  8
HIKIDASHI
100
AcDbLine
 10
3512.121948769705
 20
2056.934896978575
 30
0.0
 11
3488.646606940696
 21
2044.285018041513
 31
0.0
  0
ARC
  5
1951E
330
19040
100
AcDbEntity
  8
HIKIDASHI
100
AcDbCircle
 10
2982.070678218562
 20
2885.748787905466
 30
0.0
 40
74.66417910452276
100
AcDbArc
 50
301.7712278330706
 51
15.14038701490924
  0
LINE
  5
1951F
330
19040
100
AcDbEntity
  8
DOMAKON
100
AcDbLine
 10
8244.217031986062
 20
9595.715360473253
 30
0.0
 11
12034.21703198606
 21
9595.715360473253
 31
0.0
  0
LINE
  5
19520
330
19040
100
AcDbEntity
  8
DOMAKON
100
AcDbLine
 10
12034.21703198606
 20
9595.715360473253
 30
0.0
 11
12034.21703198606
 21
5395.715360473253
 31
0.0
  0
LINE
  5
19521
330
19040
100
AcDbEntity
  8
DOMAKON
100
AcDbLine
 10
12034.21703198606
 20
5395.715360473253
 30
0.0
 11
8244.217031986062
 21
5395.715360473253
 31
0.0
  0
LINE
  5
19522
330
19040
100
AcDbEntity
  8
DOMAKON
100
AcDbLine
 10
8124.217031986061
 20
5395.715360473253
 30
0.0
 11
4334.217031986064
 21
5395.715360473253
 31
0.0
  0
LINE
  5
19523
330
19040
100
AcDbEntity
  8
DOMAKON
100
AcDbLine
 10
4334.217031986064
 20
5395.715360473253
 30
0.0
 11
4334.217031986064
 21
9595.715360473253
 31
0.0
  0
LINE
  5
19524
330
19040
100
AcDbEntity
  8
DOMAKON
100
AcDbLine
 10
4334.217031986064
 20
9595.715360473253
 30
0.0
 11
8124.217031986061
 21
9595.715360473253
 31
0.0
  0
LINE
  5
19525
330
19040
100
AcDbEntity
  8
KISO
100
AcDbLine
 10
7134.217031986064
 20
7095.715360473253
 30
0.0
 11
7934.217031986064
 21
7095.715360473253
 31
0.0
  0
LINE
  5
19526
330
19040
100
AcDbEntity
  8
KISO
100
AcDbLine
 10
7934.217031986064
 20
7095.715360473253
 30
0.0
 11
7934.217031986064
 21
7895.715360473253
 31
0.0
  0
LINE
  5
19527
330
19040
100
AcDbEntity
  8
KISO
100
AcDbLine
 10
7934.217031986064
 20
7895.715360473253
 30
0.0
 11
7134.217031986064
 21
7895.715360473253
 31
0.0
  0
LINE
  5
19528
330
19040
100
AcDbEntity
  8
KISO
100
AcDbLine
 10
7134.217031986064
 20
7895.715360473253
 30
0.0
 11
7134.217031986064
 21
7095.715360473253
 31
0.0
  0
LINE
  5
19529
330
19040
100
AcDbEntity
  8
KISO
100
AcDbLine
 10
4334.217031986064
 20
7095.715360473253
 30
0.0
 11
5134.217031986064
 21
7095.715360473253
 31
0.0
  0
LINE
  5
1952A
330
19040
100
AcDbEntity
  8
KISO
100
AcDbLine
 10
5134.217031986064
 20
7095.715360473253
 30
0.0
 11
5134.217031986064
 21
7895.715360473253
 31
0.0
  0
LINE
  5
1952B
330
19040
100
AcDbEntity
  8
KISO
100
AcDbLine
 10
5134.217031986064
 20
7895.715360473253
 30
0.0
 11
4334.217031986064
 21
7895.715360473253
 31
0.0
  0
LINE
  5
1952C
330
19040
100
AcDbEntity
  8
KISO
100
AcDbLine
 10
4334.217031986064
 20
7895.715360473253
 30
0.0
 11
4334.217031986064
 21
7095.715360473253
 31
0.0
  0
LINE
  5
1952D
330
19040
100
AcDbEntity
  8
KISO
100
AcDbLine
 10
11234.21703198606
 20
7095.715360473253
 30
0.0
 11
12034.21703198606
 21
7095.715360473253
 31
0.0
  0
LINE
  5
1952E
330
19040
100
AcDbEntity
  8
KISO
100
AcDbLine
 10
12034.21703198606
 20
7095.715360473253
 30
0.0
 11
12034.21703198606
 21
7895.715360473253
 31
0.0
  0
LINE
  5
1952F
330
19040
100
AcDbEntity
  8
KISO
100
AcDbLine
 10
12034.21703198606
 20
7895.715360473253
 30
0.0
 11
11234.21703198606
 21
7895.715360473253
 31
0.0
  0
LINE
  5
19530
330
19040
100
AcDbEntity
  8
KISO
100
AcDbLine
 10
11234.21703198606
 20
7895.715360473253
 30
0.0
 11
11234.21703198606
 21
7095.715360473253
 31
0.0
  0
LINE
  5
19531
330
19040
100
AcDbEntity
  8
KISO
100
AcDbLine
 10
8434.217031986062
 20
7095.715360473253
 30
0.0
 11
9234.217031986066
 21
7095.715360473253
 31
0.0
  0
LINE
  5
19532
330
19040
100
AcDbEntity
  8
KISO
100
AcDbLine
 10
9234.217031986066
 20
7095.715360473253
 30
0.0
 11
9234.217031986066
 21
7895.715360473253
 31
0.0
  0
LINE
  5
19533
330
19040
100
AcDbEntity
  8
KISO
100
AcDbLine
 10
9234.217031986066
 20
7895.715360473253
 30
0.0
 11
8434.217031986062
 21
7895.715360473253
 31
0.0
  0
LINE
  5
19534
330
19040
100
AcDbEntity
  8
KISO
100
AcDbLine
 10
8434.217031986062
 20
7895.715360473253
 30
0.0
 11
8434.217031986062
 21
7095.715360473253
 31
0.0
  0
LINE
  5
19535
330
19040
100
AcDbEntity
  8
KISO
100
AcDbLine
 10
8550.758701212577
 20
1876.183932023014
 30
0.0
 11
8550.758701212577
 21
1876.183932023016
 31
0.0
  0
LINE
  5
19536
330
19040
100
AcDbEntity
  8
KISO
100
AcDbLine
 10
8550.758701212577
 20
1876.183932023016
 30
0.0
 11
6950.758701212581
 21
1876.183932023016
 31
0.0
  0
LINE
  5
19537
330
19040
100
AcDbEntity
  8
TEKKIN
100
AcDbLine
 10
7698.75870121258
 20
1980.183932023016
 30
0.0
 11
7470.758701212581
 21
1980.183932023016
 31
0.0
  0
LINE
  5
19538
330
19040
100
AcDbEntity
  8
TEKKIN
100
AcDbLine
 10
7470.758701212581
 20
1980.183932023016
 30
0.0
 11
7470.758701212581
 21
1964.183932023016
 31
0.0
  0
LINE
  5
19539
330
19040
100
AcDbEntity
  8
TEKKIN
100
AcDbLine
 10
7470.758701212581
 20
1964.183932023016
 30
0.0
 11
7698.75870121258
 21
1964.183932023016
 31
0.0
  0
LINE
  5
1953A
330
19040
100
AcDbEntity
  8
TEKKIN
100
AcDbLine
 10
7802.758701212581
 20
1964.183932023016
 30
0.0
 11
8030.758701212581
 21
1964.183932023016
 31
0.0
  0
LINE
  5
1953B
330
19040
100
AcDbEntity
  8
TEKKIN
100
AcDbLine
 10
8030.758701212581
 20
1964.183932023016
 30
0.0
 11
8030.758701212581
 21
1980.183932023016
 31
0.0
  0
LINE
  5
1953C
330
19040
100
AcDbEntity
  8
TEKKIN
100
AcDbLine
 10
8030.758701212581
 20
1980.183932023016
 30
0.0
 11
7802.758701212581
 21
1980.183932023016
 31
0.0
  0
LINE
  5
1953D
330
19040
100
AcDbEntity
  8
YANE
  6
2PL-L
 62
     6
100
AcDbLine
 10
12030.21703198606
 20
5295.715360473253
 30
0.0
 11
4338.217031986064
 21
5295.715360473253
 31
0.0
  0
LINE
  5
1953E
330
19040
100
AcDbEntity
  8
YANE
  6
2PL-L
 62
     6
100
AcDbLine
 10
4338.217031986064
 20
5295.715360473253
 30
0.0
 11
4338.217031986064
 21
9695.715360473252
 31
0.0
  0
LINE
  5
1953F
330
19040
100
AcDbEntity
  8
YANE
  6
2PL-L
 62
     6
100
AcDbLine
 10
4338.217031986064
 20
9695.715360473252
 30
0.0
 11
12030.21703198606
 21
9695.715360473252
 31
0.0
  0
LINE
  5
19540
330
19040
100
AcDbEntity
  8
YANE
  6
2PL-L
 62
     6
100
AcDbLine
 10
12030.21703198606
 20
9695.715360473252
 30
0.0
 11
12030.21703198606
 21
5295.715360473253
 31
0.0
  0
LINE
  5
19541
330
19040
100
AcDbEntity
  8
KISO
100
AcDbLine
 10
9134.217031986066
 20
8995.715360473253
 30
0.0
 11
8534.217031986065
 21
8995.715360473253
 31
0.0
  0
LINE
  5
19542
330
19040
100
AcDbEntity
  8
KISO
100
AcDbLine
 10
8534.217031986065
 20
8995.715360473253
 30
0.0
 11
8534.217031986065
 21
9595.715360473253
 31
0.0
  0
LINE
  5
19543
330
19040
100
AcDbEntity
  8
KISO
100
AcDbLine
 10
8534.217031986065
 20
9595.715360473253
 30
0.0
 11
9134.217031986066
 21
9595.715360473253
 31
0.0
  0
LINE
  5
19544
330
19040
100
AcDbEntity
  8
KISO
100
AcDbLine
 10
9134.217031986066
 20
9595.715360473253
 30
0.0
 11
9134.217031986066
 21
8995.715360473253
 31
0.0
  0
LINE
  5
19545
330
19040
100
AcDbEntity
  8
KISO
100
AcDbLine
 10
7234.217031986064
 20
5395.715360473253
 30
0.0
 11
7834.217031986064
 21
5395.715360473253
 31
0.0
  0
LINE
  5
19546
330
19040
100
AcDbEntity
  8
KISO
100
AcDbLine
 10
7834.217031986064
 20
5395.715360473253
 30
0.0
 11
7834.217031986064
 21
5995.715360473253
 31
0.0
  0
LINE
  5
19547
330
19040
100
AcDbEntity
  8
KISO
100
AcDbLine
 10
7834.217031986064
 20
5995.715360473253
 30
0.0
 11
7234.217031986064
 21
5995.715360473253
 31
0.0
  0
LINE
  5
19548
330
19040
100
AcDbEntity
  8
KISO
100
AcDbLine
 10
7234.217031986064
 20
5995.715360473253
 30
0.0
 11
7234.217031986064
 21
5395.715360473253
 31
0.0
  0
LINE
  5
19549
330
19040
100
AcDbEntity
  8
KISO
100
AcDbLine
 10
4434.21703198606
 20
5395.715360473253
 30
0.0
 11
5034.217031986058
 21
5395.715360473253
 31
0.0
  0
LINE
  5
1954A
330
19040
100
AcDbEntity
  8
KISO
100
AcDbLine
 10
5034.217031986058
 20
5395.715360473253
 30
0.0
 11
5034.217031986058
 21
5995.715360473253
 31
0.0
  0
LINE
  5
1954B
330
19040
100
AcDbEntity
  8
KISO
100
AcDbLine
 10
5034.217031986058
 20
5995.715360473253
 30
0.0
 11
4434.21703198606
 21
5995.715360473253
 31
0.0
  0
LINE
  5
1954C
330
19040
100
AcDbEntity
  8
KISO
100
AcDbLine
 10
4434.21703198606
 20
5995.715360473253
 30
0.0
 11
4434.21703198606
 21
5395.715360473253
 31
0.0
  0
LINE
  5
1954D
330
19040
100
AcDbEntity
  8
KISO
100
AcDbLine
 10
4434.21703198606
 20
8995.715360473253
 30
0.0
 11
5034.217031986058
 21
8995.715360473253
 31
0.0
  0
LINE
  5
1954E
330
19040
100
AcDbEntity
  8
KISO
100
AcDbLine
 10
5034.217031986058
 20
8995.715360473253
 30
0.0
 11
5034.217031986058
 21
9595.715360473253
 31
0.0
  0
LINE
  5
1954F
330
19040
100
AcDbEntity
  8
KISO
100
AcDbLine
 10
5034.217031986058
 20
9595.715360473253
 30
0.0
 11
4434.21703198606
 21
9595.715360473253
 31
0.0
  0
LINE
  5
19550
330
19040
100
AcDbEntity
  8
KISO
100
AcDbLine
 10
4434.21703198606
 20
9595.715360473253
 30
0.0
 11
4434.21703198606
 21
8995.715360473253
 31
0.0
  0
LINE
  5
19551
330
19040
100
AcDbEntity
  8
KISO
100
AcDbLine
 10
11934.21703198606
 20
8995.715360473253
 30
0.0
 11
11334.21703198606
 21
8995.715360473253
 31
0.0
  0
LINE
  5
19552
330
19040
100
AcDbEntity
  8
KISO
100
AcDbLine
 10
11334.21703198606
 20
8995.715360473253
 30
0.0
 11
11334.21703198606
 21
9595.715360473253
 31
0.0
  0
LINE
  5
19553
330
19040
100
AcDbEntity
  8
KISO
100
AcDbLine
 10
11334.21703198606
 20
9595.715360473253
 30
0.0
 11
11934.21703198606
 21
9595.715360473253
 31
0.0
  0
LINE
  5
19554
330
19040
100
AcDbEntity
  8
KISO
100
AcDbLine
 10
11934.21703198606
 20
9595.715360473253
 30
0.0
 11
11934.21703198606
 21
8995.715360473253
 31
0.0
  0
LINE
  5
19555
330
19040
100
AcDbEntity
  8
KISO
100
AcDbLine
 10
11934.21703198606
 20
5395.715360473253
 30
0.0
 11
11334.21703198606
 21
5395.715360473253
 31
0.0
  0
LINE
  5
19556
330
19040
100
AcDbEntity
  8
KISO
100
AcDbLine
 10
11334.21703198606
 20
5395.715360473253
 30
0.0
 11
11334.21703198606
 21
5995.715360473253
 31
0.0
  0
LINE
  5
19557
330
19040
100
AcDbEntity
  8
KISO
100
AcDbLine
 10
11334.21703198606
 20
5995.715360473253
 30
0.0
 11
11934.21703198606
 21
5995.715360473253
 31
0.0
  0
LINE
  5
19558
330
19040
100
AcDbEntity
  8
KISO
100
AcDbLine
 10
11934.21703198606
 20
5995.715360473253
 30
0.0
 11
11934.21703198606
 21
5395.715360473253
 31
0.0
  0
LINE
  5
19559
330
19040
100
AcDbEntity
  8
KISO
100
AcDbLine
 10
9134.217031986066
 20
5395.715360473253
 30
0.0
 11
8534.217031986065
 21
5395.715360473253
 31
0.0
  0
LINE
  5
1955A
330
19040
100
AcDbEntity
  8
KISO
100
AcDbLine
 10
8534.217031986065
 20
5395.715360473253
 30
0.0
 11
8534.217031986065
 21
5995.715360473253
 31
0.0
  0
LINE
  5
1955B
330
19040
100
AcDbEntity
  8
KISO
100
AcDbLine
 10
8534.217031986065
 20
5995.715360473253
 30
0.0
 11
9134.217031986066
 21
5995.715360473253
 31
0.0
  0
LINE
  5
1955C
330
19040
100
AcDbEntity
  8
KISO
100
AcDbLine
 10
9134.217031986066
 20
5995.715360473253
 30
0.0
 11
9134.217031986066
 21
5395.715360473253
 31
0.0
  0
LINE
  5
1955D
330
19040
100
AcDbEntity
  8
KISO
100
AcDbLine
 10
7834.217031986064
 20
8995.715360473253
 30
0.0
 11
7234.217031986064
 21
8995.715360473253
 31
0.0
  0
LINE
  5
1955E
330
19040
100
AcDbEntity
  8
KISO
100
AcDbLine
 10
7234.217031986064
 20
8995.715360473253
 30
0.0
 11
7234.217031986064
 21
9595.715360473253
 31
0.0
  0
LINE
  5
1955F
330
19040
100
AcDbEntity
  8
KISO
100
AcDbLine
 10
7234.217031986064
 20
9595.715360473253
 30
0.0
 11
7834.217031986064
 21
9595.715360473253
 31
0.0
  0
LINE
  5
19560
330
19040
100
AcDbEntity
  8
KISO
100
AcDbLine
 10
7834.217031986064
 20
9595.715360473253
 30
0.0
 11
7834.217031986064
 21
8995.715360473253
 31
0.0
  0
LINE
  5
19561
330
19040
100
AcDbEntity
  8
U1
100
AcDbLine
 10
11640.41703198606
 20
9265.515360473251
 30
0.0
 11
11608.01703198605
 21
9265.515360473251
 31
0.0
  0
LINE
  5
19562
330
19040
100
AcDbEntity
  8
U1
100
AcDbLine
 10
11608.01703198605
 20
9325.915360473253
 30
0.0
 11
11660.41703198606
 21
9325.915360473253
 31
0.0
  0
ARC
  5
19563
330
19040
100
AcDbEntity
  8
U1
100
AcDbCircle
 10
11608.01703198605
 20
9321.915360473253
 30
0.0
 40
4.0
100
AcDbArc
 50
90.0
 51
180.0
  0
ARC
  5
19564
330
19040
100
AcDbEntity
  8
U1
100
AcDbCircle
 10
11608.01703198605
 20
9269.515360473251
 30
0.0
 40
4.0
100
AcDbArc
 50
180.0
 51
270.0
  0
LINE
  5
19565
330
19040
100
AcDbEntity
  8
U1
100
AcDbLine
 10
11604.01703198606
 20
9269.515360473251
 30
0.0
 11
11604.01703198606
 21
9321.915360473253
 31
0.0
  0
ARC
  5
19566
330
19040
100
AcDbEntity
  8
U1
100
AcDbCircle
 10
11660.41703198606
 20
9321.915360473253
 30
0.0
 40
4.0
100
AcDbArc
 50
0.0
 51
90.0
  0
ARC
  5
19567
330
19040
100
AcDbEntity
  8
U1
100
AcDbCircle
 10
11640.41703198606
 20
9269.515360473251
 30
0.0
 40
4.0
100
AcDbArc
 50
270.0
 51
0.0
  0
ARC
  5
19568
330
19040
100
AcDbEntity
  8
U1
100
AcDbCircle
 10
11647.86703198605
 20
9278.765360473251
 30
0.0
 40
1.149999999999977
100
AcDbArc
 50
0.0
 51
180.0
  0
LINE
  5
19569
330
19040
100
AcDbEntity
  8
U1
100
AcDbLine
 10
11651.31703198606
 20
9271.215360473252
 30
0.0
 11
11651.31703198606
 21
9278.765360473251
 31
0.0
  0
LINE
  5
1956A
330
19040
100
AcDbEntity
  8
U1
100
AcDbLine
 10
11649.01703198605
 20
9271.215360473252
 30
0.0
 11
11651.31703198606
 21
9271.215360473252
 31
0.0
  0
LINE
  5
1956B
330
19040
100
AcDbEntity
  8
U1
100
AcDbLine
 10
11646.71703198606
 20
9278.215360473252
 30
0.0
 11
11649.01703198605
 21
9278.215360473252
 31
0.0
  0
ARC
  5
1956C
330
19040
100
AcDbEntity
  8
U1
100
AcDbCircle
 10
11647.86703198605
 20
9278.765360473251
 30
0.0
 40
3.450000000000044
100
AcDbArc
 50
0.0
 51
180.0
  0
LINE
  5
1956D
330
19040
100
AcDbEntity
  8
U1
100
AcDbLine
 10
11646.71703198606
 20
9278.765360473251
 30
0.0
 11
11646.71703198606
 21
9269.515360473251
 31
0.0
  0
LINE
  5
1956E
330
19040
100
AcDbEntity
  8
U1
100
AcDbLine
 10
11649.01703198605
 20
9269.515360473251
 30
0.0
 11
11649.01703198605
 21
9278.765360473251
 31
0.0
  0
LINE
  5
1956F
330
19040
100
AcDbEntity
  8
U1
100
AcDbLine
 10
11644.41703198606
 20
9278.765360473251
 30
0.0
 11
11644.41703198606
 21
9269.515360473251
 31
0.0
  0
ARC
  5
19570
330
19040
100
AcDbEntity
  8
U1
100
AcDbCircle
 10
11660.41703198606
 20
9269.515360473251
 30
0.0
 40
4.0
100
AcDbArc
 50
270.0
 51
0.0
  0
LINE
  5
19571
330
19040
100
AcDbEntity
  8
U1
100
AcDbLine
 10
11660.41703198606
 20
9265.515360473251
 30
0.0
 11
11653.01703198605
 21
9265.515360473251
 31
0.0
  0
ARC
  5
19572
330
19040
100
AcDbEntity
  8
U1
100
AcDbCircle
 10
11653.01703198605
 20
9269.515360473251
 30
0.0
 40
4.0
100
AcDbArc
 50
180.0
 51
270.0
  0
LINE
  5
19573
330
19040
100
AcDbEntity
  8
U1
100
AcDbLine
 10
11664.41703198606
 20
9321.915360473253
 30
0.0
 11
11664.41703198606
 21
9269.515360473251
 31
0.0
  0
LINE
  5
19574
330
19040
100
AcDbEntity
  8
U1
100
AcDbLine
 10
8840.417031986062
 20
9265.515360473251
 30
0.0
 11
8808.017031986063
 21
9265.515360473251
 31
0.0
  0
LINE
  5
19575
330
19040
100
AcDbEntity
  8
U1
100
AcDbLine
 10
8808.017031986064
 20
9325.915360473253
 30
0.0
 11
8860.417031986065
 21
9325.915360473253
 31
0.0
  0
ARC
  5
19576
330
19040
100
AcDbEntity
  8
U1
100
AcDbCircle
 10
8808.017031986064
 20
9321.915360473253
 30
0.0
 40
4.0
100
AcDbArc
 50
90.0
 51
180.0
  0
ARC
  5
19577
330
19040
100
AcDbEntity
  8
U1
100
AcDbCircle
 10
8808.017031986063
 20
9269.515360473251
 30
0.0
 40
4.0
100
AcDbArc
 50
180.0
 51
270.0
  0
LINE
  5
19578
330
19040
100
AcDbEntity
  8
U1
100
AcDbLine
 10
8804.017031986061
 20
9269.515360473251
 30
0.0
 11
8804.017031986065
 21
9321.915360473253
 31
0.0
  0
ARC
  5
19579
330
19040
100
AcDbEntity
  8
U1
100
AcDbCircle
 10
8860.417031986065
 20
9321.915360473253
 30
0.0
 40
4.0
100
AcDbArc
 50
0.0
 51
90.0
  0
ARC
  5
1957A
330
19040
100
AcDbEntity
  8
U1
100
AcDbCircle
 10
8840.417031986062
 20
9269.515360473251
 30
0.0
 40
4.0
100
AcDbArc
 50
270.0
 51
0.0
  0
ARC
  5
1957B
330
19040
100
AcDbEntity
  8
U1
100
AcDbCircle
 10
8847.86703198606
 20
9278.765360473251
 30
0.0
 40
1.149999999999977
100
AcDbArc
 50
0.0
 51
180.0
  0
LINE
  5
1957C
330
19040
100
AcDbEntity
  8
U1
100
AcDbLine
 10
8851.317031986061
 20
9271.215360473252
 30
0.0
 11
8851.317031986061
 21
9278.765360473251
 31
0.0
  0
LINE
  5
1957D
330
19040
100
AcDbEntity
  8
U1
100
AcDbLine
 10
8849.017031986063
 20
9271.215360473252
 30
0.0
 11
8851.317031986061
 21
9271.215360473252
 31
0.0
  0
LINE
  5
1957E
330
19040
100
AcDbEntity
  8
U1
100
AcDbLine
 10
8846.717031986065
 20
9278.215360473252
 30
0.0
 11
8849.017031986063
 21
9278.215360473252
 31
0.0
  0
ARC
  5
1957F
330
19040
100
AcDbEntity
  8
U1
100
AcDbCircle
 10
8847.86703198606
 20
9278.765360473251
 30
0.0
 40
3.450000000000044
100
AcDbArc
 50
0.0
 51
180.0
  0
LINE
  5
19580
330
19040
100
AcDbEntity
  8
U1
100
AcDbLine
 10
8846.717031986065
 20
9278.765360473251
 30
0.0
 11
8846.717031986065
 21
9269.515360473251
 31
0.0
  0
LINE
  5
19581
330
19040
100
AcDbEntity
  8
U1
100
AcDbLine
 10
8849.017031986063
 20
9269.515360473251
 30
0.0
 11
8849.017031986063
 21
9278.765360473251
 31
0.0
  0
LINE
  5
19582
330
19040
100
AcDbEntity
  8
U1
100
AcDbLine
 10
8844.417031986065
 20
9278.765360473251
 30
0.0
 11
8844.417031986065
 21
9269.515360473251
 31
0.0
  0
ARC
  5
19583
330
19040
100
AcDbEntity
  8
U1
100
AcDbCircle
 10
8860.417031986063
 20
9269.515360473251
 30
0.0
 40
4.0
100
AcDbArc
 50
270.0
 51
0.0
  0
LINE
  5
19584
330
19040
100
AcDbEntity
  8
U1
100
AcDbLine
 10
8860.417031986063
 20
9265.515360473251
 30
0.0
 11
8853.017031986063
 21
9265.515360473251
 31
0.0
  0
ARC
  5
19585
330
19040
100
AcDbEntity
  8
U1
100
AcDbCircle
 10
8853.017031986063
 20
9269.515360473251
 30
0.0
 40
4.0
100
AcDbArc
 50
180.0
 51
270.0
  0
LINE
  5
19586
330
19040
100
AcDbEntity
  8
U1
100
AcDbLine
 10
8864.417031986064
 20
9321.915360473253
 30
0.0
 11
8864.417031986063
 21
9269.515360473251
 31
0.0
  0
LINE
  5
19587
330
19040
100
AcDbEntity
  8
U1
100
AcDbLine
 10
7540.417031986064
 20
9265.515360473251
 30
0.0
 11
7508.017031986061
 21
9265.515360473251
 31
0.0
  0
LINE
  5
19588
330
19040
100
AcDbEntity
  8
U1
100
AcDbLine
 10
7508.017031986061
 20
9325.915360473253
 30
0.0
 11
7560.417031986064
 21
9325.915360473253
 31
0.0
  0
ARC
  5
19589
330
19040
100
AcDbEntity
  8
U1
100
AcDbCircle
 10
7508.017031986061
 20
9321.915360473253
 30
0.0
 40
4.0
100
AcDbArc
 50
90.0
 51
180.0
  0
ARC
  5
1958A
330
19040
100
AcDbEntity
  8
U1
100
AcDbCircle
 10
7508.017031986061
 20
9269.515360473251
 30
0.0
 40
4.0
100
AcDbArc
 50
180.0
 51
270.0
  0
LINE
  5
1958B
330
19040
100
AcDbEntity
  8
U1
100
AcDbLine
 10
7504.017031986062
 20
9269.515360473251
 30
0.0
 11
7504.017031986062
 21
9321.915360473253
 31
0.0
  0
ARC
  5
1958C
330
19040
100
AcDbEntity
  8
U1
100
AcDbCircle
 10
7560.417031986064
 20
9321.915360473253
 30
0.0
 40
4.0
100
AcDbArc
 50
0.0
 51
90.0
  0
ARC
  5
1958D
330
19040
100
AcDbEntity
  8
U1
100
AcDbCircle
 10
7540.417031986064
 20
9269.515360473251
 30
0.0
 40
4.0
100
AcDbArc
 50
270.0
 51
0.0
  0
ARC
  5
1958E
330
19040
100
AcDbEntity
  8
U1
100
AcDbCircle
 10
7547.867031986065
 20
9278.765360473251
 30
0.0
 40
1.149999999999977
100
AcDbArc
 50
0.0
 51
180.0
  0
LINE
  5
1958F
330
19040
100
AcDbEntity
  8
U1
100
AcDbLine
 10
7551.317031986065
 20
9271.215360473252
 30
0.0
 11
7551.317031986065
 21
9278.765360473251
 31
0.0
  0
LINE
  5
19590
330
19040
100
AcDbEntity
  8
U1
100
AcDbLine
 10
7549.017031986062
 20
9271.215360473252
 30
0.0
 11
7551.317031986065
 21
9271.215360473252
 31
0.0
  0
LINE
  5
19591
330
19040
100
AcDbEntity
  8
U1
100
AcDbLine
 10
7546.717031986064
 20
9278.215360473252
 30
0.0
 11
7549.017031986062
 21
9278.215360473252
 31
0.0
  0
ARC
  5
19592
330
19040
100
AcDbEntity
  8
U1
100
AcDbCircle
 10
7547.867031986065
 20
9278.765360473251
 30
0.0
 40
3.450000000000044
100
AcDbArc
 50
0.0
 51
180.0
  0
LINE
  5
19593
330
19040
100
AcDbEntity
  8
U1
100
AcDbLine
 10
7546.717031986064
 20
9278.765360473251
 30
0.0
 11
7546.717031986064
 21
9269.515360473251
 31
0.0
  0
LINE
  5
19594
330
19040
100
AcDbEntity
  8
U1
100
AcDbLine
 10
7549.017031986062
 20
9269.515360473251
 30
0.0
 11
7549.017031986062
 21
9278.765360473251
 31
0.0
  0
LINE
  5
19595
330
19040
100
AcDbEntity
  8
U1
100
AcDbLine
 10
7544.417031986064
 20
9278.765360473251
 30
0.0
 11
7544.417031986064
 21
9269.515360473251
 31
0.0
  0
ARC
  5
19596
330
19040
100
AcDbEntity
  8
U1
100
AcDbCircle
 10
7560.417031986062
 20
9269.515360473251
 30
0.0
 40
4.0
100
AcDbArc
 50
270.0
 51
0.0
  0
LINE
  5
19597
330
19040
100
AcDbEntity
  8
U1
100
AcDbLine
 10
7560.417031986062
 20
9265.515360473251
 30
0.0
 11
7553.017031986062
 21
9265.515360473251
 31
0.0
  0
ARC
  5
19598
330
19040
100
AcDbEntity
  8
U1
100
AcDbCircle
 10
7553.017031986062
 20
9269.515360473251
 30
0.0
 40
4.0
100
AcDbArc
 50
180.0
 51
270.0
  0
LINE
  5
19599
330
19040
100
AcDbEntity
  8
U1
100
AcDbLine
 10
7564.417031986065
 20
9321.915360473253
 30
0.0
 11
7564.417031986065
 21
9269.515360473251
 31
0.0
  0
LINE
  5
1959A
330
19040
100
AcDbEntity
  8
U1
100
AcDbLine
 10
4728.017031986063
 20
9265.515360473251
 30
0.0
 11
4760.417031986063
 21
9265.515360473251
 31
0.0
  0
LINE
  5
1959B
330
19040
100
AcDbEntity
  8
U1
100
AcDbLine
 10
4760.417031986063
 20
9325.915360473253
 30
0.0
 11
4708.017031986062
 21
9325.915360473253
 31
0.0
  0
ARC
  5
1959C
330
19040
100
AcDbEntity
  8
U1
100
AcDbCircle
 10
4760.417031986063
 20
9321.915360473253
 30
0.0
 40
4.0
100
AcDbArc
 50
0.0
 51
90.0
  0
ARC
  5
1959D
330
19040
100
AcDbEntity
  8
U1
100
AcDbCircle
 10
4760.417031986063
 20
9269.515360473251
 30
0.0
 40
4.0
100
AcDbArc
 50
270.0
 51
0.0
  0
LINE
  5
1959E
330
19040
100
AcDbEntity
  8
U1
100
AcDbLine
 10
4764.417031986063
 20
9269.515360473251
 30
0.0
 11
4764.417031986063
 21
9321.915360473253
 31
0.0
  0
ARC
  5
1959F
330
19040
100
AcDbEntity
  8
U1
100
AcDbCircle
 10
4708.017031986062
 20
9321.915360473253
 30
0.0
 40
4.0
100
AcDbArc
 50
90.0
 51
180.0
  0
ARC
  5
195A0
330
19040
100
AcDbEntity
  8
U1
100
AcDbCircle
 10
4728.017031986063
 20
9269.515360473251
 30
0.0
 40
4.0
100
AcDbArc
 50
180.0
 51
270.0
  0
ARC
  5
195A1
330
19040
100
AcDbEntity
  8
U1
100
AcDbCircle
 10
4720.567031986063
 20
9278.765360473251
 30
0.0
 40
1.149999999999977
100
AcDbArc
 50
0.0
 51
180.0
  0
LINE
  5
195A2
330
19040
100
AcDbEntity
  8
U1
100
AcDbLine
 10
4717.117031986062
 20
9271.215360473252
 30
0.0
 11
4717.117031986062
 21
9278.765360473251
 31
0.0
  0
LINE
  5
195A3
330
19040
100
AcDbEntity
  8
U1
100
AcDbLine
 10
4719.417031986063
 20
9271.215360473252
 30
0.0
 11
4717.117031986062
 21
9271.215360473252
 31
0.0
  0
LINE
  5
195A4
330
19040
100
AcDbEntity
  8
U1
100
AcDbLine
 10
4721.717031986062
 20
9278.215360473252
 30
0.0
 11
4719.417031986063
 21
9278.215360473252
 31
0.0
  0
ARC
  5
195A5
330
19040
100
AcDbEntity
  8
U1
100
AcDbCircle
 10
4720.567031986063
 20
9278.765360473251
 30
0.0
 40
3.450000000000044
100
AcDbArc
 50
0.0
 51
180.0
  0
LINE
  5
195A6
330
19040
100
AcDbEntity
  8
U1
100
AcDbLine
 10
4721.717031986062
 20
9278.765360473251
 30
0.0
 11
4721.717031986064
 21
9269.515360473251
 31
0.0
  0
LINE
  5
195A7
330
19040
100
AcDbEntity
  8
U1
100
AcDbLine
 10
4719.417031986063
 20
9269.515360473251
 30
0.0
 11
4719.417031986063
 21
9278.765360473251
 31
0.0
  0
LINE
  5
195A8
330
19040
100
AcDbEntity
  8
U1
100
AcDbLine
 10
4724.017031986061
 20
9278.765360473251
 30
0.0
 11
4724.017031986061
 21
9269.515360473251
 31
0.0
  0
ARC
  5
195A9
330
19040
100
AcDbEntity
  8
U1
100
AcDbCircle
 10
4708.017031986063
 20
9269.515360473251
 30
0.0
 40
4.0
100
AcDbArc
 50
180.0
 51
270.0
  0
LINE
  5
195AA
330
19040
100
AcDbEntity
  8
U1
100
AcDbLine
 10
4708.017031986063
 20
9265.515360473251
 30
0.0
 11
4715.417031986063
 21
9265.515360473251
 31
0.0
  0
ARC
  5
195AB
330
19040
100
AcDbEntity
  8
U1
100
AcDbCircle
 10
4715.417031986063
 20
9269.515360473251
 30
0.0
 40
4.0
100
AcDbArc
 50
270.0
 51
0.0
  0
LINE
  5
195AC
330
19040
100
AcDbEntity
  8
U1
100
AcDbLine
 10
4704.017031986063
 20
9321.915360473253
 30
0.0
 11
4704.017031986063
 21
9269.515360473251
 31
0.0
  0
LINE
  5
195AD
330
19040
100
AcDbEntity
  8
U1
100
AcDbLine
 10
7540.417031986064
 20
5725.915360473253
 30
0.0
 11
7508.017031986061
 21
5725.915360473253
 31
0.0
  0
LINE
  5
195AE
330
19040
100
AcDbEntity
  8
U1
100
AcDbLine
 10
7508.017031986061
 20
5665.515360473253
 30
0.0
 11
7560.417031986064
 21
5665.515360473253
 31
0.0
  0
ARC
  5
195AF
330
19040
100
AcDbEntity
  8
U1
100
AcDbCircle
 10
7508.017031986061
 20
5669.515360473252
 30
0.0
 40
4.0
100
AcDbArc
 50
180.0
 51
270.0
  0
ARC
  5
195B0
330
19040
100
AcDbEntity
  8
U1
100
AcDbCircle
 10
7508.017031986061
 20
5721.915360473253
 30
0.0
 40
4.0
100
AcDbArc
 50
90.0
 51
180.0
  0
LINE
  5
195B1
330
19040
100
AcDbEntity
  8
U1
100
AcDbLine
 10
7504.017031986062
 20
5721.915360473253
 30
0.0
 11
7504.017031986062
 21
5669.515360473252
 31
0.0
  0
ARC
  5
195B2
330
19040
100
AcDbEntity
  8
U1
100
AcDbCircle
 10
7560.417031986064
 20
5669.515360473252
 30
0.0
 40
4.0
100
AcDbArc
 50
270.0
 51
0.0
  0
ARC
  5
195B3
330
19040
100
AcDbEntity
  8
U1
100
AcDbCircle
 10
7540.417031986064
 20
5721.915360473253
 30
0.0
 40
4.0
100
AcDbArc
 50
0.0
 51
90.0
  0
ARC
  5
195B4
330
19040
100
AcDbEntity
  8
U1
100
AcDbCircle
 10
7547.867031986065
 20
5712.665360473253
 30
0.0
 40
1.149999999999977
100
AcDbArc
 50
180.0
 51
0.0
  0
LINE
  5
195B5
330
19040
100
AcDbEntity
  8
U1
100
AcDbLine
 10
7551.317031986065
 20
5720.215360473253
 30
0.0
 11
7551.317031986065
 21
5712.665360473253
 31
0.0
  0
LINE
  5
195B6
330
19040
100
AcDbEntity
  8
U1
100
AcDbLine
 10
7549.017031986062
 20
5720.215360473253
 30
0.0
 11
7551.317031986065
 21
5720.215360473253
 31
0.0
  0
LINE
  5
195B7
330
19040
100
AcDbEntity
  8
U1
100
AcDbLine
 10
7546.717031986064
 20
5713.215360473252
 30
0.0
 11
7549.017031986062
 21
5713.215360473252
 31
0.0
  0
ARC
  5
195B8
330
19040
100
AcDbEntity
  8
U1
100
AcDbCircle
 10
7547.867031986065
 20
5712.665360473253
 30
0.0
 40
3.450000000000044
100
AcDbArc
 50
180.0
 51
0.0
  0
LINE
  5
195B9
330
19040
100
AcDbEntity
  8
U1
100
AcDbLine
 10
7546.717031986064
 20
5712.665360473253
 30
0.0
 11
7546.717031986064
 21
5721.915360473252
 31
0.0
  0
LINE
  5
195BA
330
19040
100
AcDbEntity
  8
U1
100
AcDbLine
 10
7549.017031986062
 20
5721.915360473253
 30
0.0
 11
7549.017031986062
 21
5712.665360473253
 31
0.0
  0
LINE
  5
195BB
330
19040
100
AcDbEntity
  8
U1
100
AcDbLine
 10
7544.417031986064
 20
5712.665360473253
 30
0.0
 11
7544.417031986064
 21
5721.915360473253
 31
0.0
  0
ARC
  5
195BC
330
19040
100
AcDbEntity
  8
U1
100
AcDbCircle
 10
7560.417031986062
 20
5721.915360473253
 30
0.0
 40
4.0
100
AcDbArc
 50
0.0
 51
90.0
  0
LINE
  5
195BD
330
19040
100
AcDbEntity
  8
U1
100
AcDbLine
 10
7560.417031986062
 20
5725.915360473253
 30
0.0
 11
7553.017031986062
 21
5725.915360473253
 31
0.0
  0
ARC
  5
195BE
330
19040
100
AcDbEntity
  8
U1
100
AcDbCircle
 10
7553.017031986062
 20
5721.915360473253
 30
0.0
 40
4.0
100
AcDbArc
 50
90.0
 51
180.0
  0
LINE
  5
195BF
330
19040
100
AcDbEntity
  8
U1
100
AcDbLine
 10
7564.417031986065
 20
5669.515360473252
 30
0.0
 11
7564.417031986065
 21
5721.915360473253
 31
0.0
  0
LINE
  5
195C0
330
19040
100
AcDbEntity
  8
U1
100
AcDbLine
 10
4728.017031986063
 20
5725.915360473253
 30
0.0
 11
4760.417031986063
 21
5725.915360473253
 31
0.0
  0
LINE
  5
195C1
330
19040
100
AcDbEntity
  8
U1
100
AcDbLine
 10
4760.417031986063
 20
5665.515360473253
 30
0.0
 11
4708.017031986062
 21
5665.515360473253
 31
0.0
  0
ARC
  5
195C2
330
19040
100
AcDbEntity
  8
U1
100
AcDbCircle
 10
4760.417031986063
 20
5669.515360473252
 30
0.0
 40
4.0
100
AcDbArc
 50
270.0
 51
0.0
  0
ARC
  5
195C3
330
19040
100
AcDbEntity
  8
U1
100
AcDbCircle
 10
4760.417031986063
 20
5721.915360473253
 30
0.0
 40
4.0
100
AcDbArc
 50
0.0
 51
90.0
  0
LINE
  5
195C4
330
19040
100
AcDbEntity
  8
U1
100
AcDbLine
 10
4764.417031986063
 20
5721.915360473253
 30
0.0
 11
4764.417031986063
 21
5669.515360473252
 31
0.0
  0
ARC
  5
195C5
330
19040
100
AcDbEntity
  8
U1
100
AcDbCircle
 10
4708.017031986062
 20
5669.515360473252
 30
0.0
 40
4.0
100
AcDbArc
 50
180.0
 51
270.0
  0
ARC
  5
195C6
330
19040
100
AcDbEntity
  8
U1
100
AcDbCircle
 10
4728.017031986063
 20
5721.915360473253
 30
0.0
 40
4.0
100
AcDbArc
 50
90.0
 51
180.0
  0
ARC
  5
195C7
330
19040
100
AcDbEntity
  8
U1
100
AcDbCircle
 10
4720.567031986063
 20
5712.665360473253
 30
0.0
 40
1.149999999999977
100
AcDbArc
 50
180.0
 51
0.0
  0
LINE
  5
195C8
330
19040
100
AcDbEntity
  8
U1
100
AcDbLine
 10
4717.117031986062
 20
5720.215360473253
 30
0.0
 11
4717.117031986062
 21
5712.665360473253
 31
0.0
  0
LINE
  5
195C9
330
19040
100
AcDbEntity
  8
U1
100
AcDbLine
 10
4719.417031986063
 20
5720.215360473253
 30
0.0
 11
4717.117031986062
 21
5720.215360473253
 31
0.0
  0
LINE
  5
195CA
330
19040
100
AcDbEntity
  8
U1
100
AcDbLine
 10
4721.717031986062
 20
5713.215360473252
 30
0.0
 11
4719.417031986063
 21
5713.215360473252
 31
0.0
  0
ARC
  5
195CB
330
19040
100
AcDbEntity
  8
U1
100
AcDbCircle
 10
4720.567031986063
 20
5712.665360473253
 30
0.0
 40
3.450000000000044
100
AcDbArc
 50
180.0
 51
0.0
  0
LINE
  5
195CC
330
19040
100
AcDbEntity
  8
U1
100
AcDbLine
 10
4721.717031986062
 20
5712.665360473253
 30
0.0
 11
4721.717031986064
 21
5721.915360473252
 31
0.0
  0
LINE
  5
195CD
330
19040
100
AcDbEntity
  8
U1
100
AcDbLine
 10
4719.417031986063
 20
5721.915360473253
 30
0.0
 11
4719.417031986063
 21
5712.665360473253
 31
0.0
  0
LINE
  5
195CE
330
19040
100
AcDbEntity
  8
U1
100
AcDbLine
 10
4724.017031986061
 20
5712.665360473253
 30
0.0
 11
4724.017031986061
 21
5721.915360473253
 31
0.0
  0
ARC
  5
195CF
330
19040
100
AcDbEntity
  8
U1
100
AcDbCircle
 10
4708.017031986063
 20
5721.915360473253
 30
0.0
 40
4.0
100
AcDbArc
 50
90.0
 51
180.0
  0
LINE
  5
195D0
330
19040
100
AcDbEntity
  8
U1
100
AcDbLine
 10
4708.017031986063
 20
5725.915360473253
 30
0.0
 11
4715.417031986063
 21
5725.915360473253
 31
0.0
  0
ARC
  5
195D1
330
19040
100
AcDbEntity
  8
U1
100
AcDbCircle
 10
4715.417031986063
 20
5721.915360473253
 30
0.0
 40
4.0
100
AcDbArc
 50
0.0
 51
90.0
  0
LINE
  5
195D2
330
19040
100
AcDbEntity
  8
U1
100
AcDbLine
 10
4704.017031986063
 20
5669.515360473252
 30
0.0
 11
4704.017031986063
 21
5721.915360473253
 31
0.0
  0
LINE
  5
195D3
330
19040
100
AcDbEntity
  8
U1
100
AcDbLine
 10
8840.417031986062
 20
5725.915360473253
 30
0.0
 11
8808.017031986063
 21
5725.915360473253
 31
0.0
  0
LINE
  5
195D4
330
19040
100
AcDbEntity
  8
U1
100
AcDbLine
 10
8808.017031986063
 20
5665.515360473253
 30
0.0
 11
8860.417031986065
 21
5665.515360473253
 31
0.0
  0
ARC
  5
195D5
330
19040
100
AcDbEntity
  8
U1
100
AcDbCircle
 10
8808.017031986063
 20
5669.515360473252
 30
0.0
 40
4.0
100
AcDbArc
 50
180.0
 51
270.0
  0
ARC
  5
195D6
330
19040
100
AcDbEntity
  8
U1
100
AcDbCircle
 10
8808.017031986063
 20
5721.915360473253
 30
0.0
 40
4.0
100
AcDbArc
 50
90.0
 51
180.0
  0
LINE
  5
195D7
330
19040
100
AcDbEntity
  8
U1
100
AcDbLine
 10
8804.017031986061
 20
5721.915360473253
 30
0.0
 11
8804.017031986061
 21
5669.515360473252
 31
0.0
  0
ARC
  5
195D8
330
19040
100
AcDbEntity
  8
U1
100
AcDbCircle
 10
8860.417031986065
 20
5669.515360473252
 30
0.0
 40
4.0
100
AcDbArc
 50
270.0
 51
0.0
  0
ARC
  5
195D9
330
19040
100
AcDbEntity
  8
U1
100
AcDbCircle
 10
8840.417031986062
 20
5721.915360473253
 30
0.0
 40
4.0
100
AcDbArc
 50
0.0
 51
90.0
  0
ARC
  5
195DA
330
19040
100
AcDbEntity
  8
U1
100
AcDbCircle
 10
8847.867031986066
 20
5712.665360473253
 30
0.0
 40
1.149999999999977
100
AcDbArc
 50
180.0
 51
0.0
  0
LINE
  5
195DB
330
19040
100
AcDbEntity
  8
U1
100
AcDbLine
 10
8851.317031986061
 20
5720.215360473253
 30
0.0
 11
8851.317031986061
 21
5712.665360473253
 31
0.0
  0
LINE
  5
195DC
330
19040
100
AcDbEntity
  8
U1
100
AcDbLine
 10
8849.017031986063
 20
5720.215360473253
 30
0.0
 11
8851.317031986061
 21
5720.215360473253
 31
0.0
  0
LINE
  5
195DD
330
19040
100
AcDbEntity
  8
U1
100
AcDbLine
 10
8846.717031986065
 20
5713.215360473252
 30
0.0
 11
8849.017031986063
 21
5713.215360473252
 31
0.0
  0
ARC
  5
195DE
330
19040
100
AcDbEntity
  8
U1
100
AcDbCircle
 10
8847.867031986066
 20
5712.665360473253
 30
0.0
 40
3.450000000000044
100
AcDbArc
 50
180.0
 51
0.0
  0
LINE
  5
195DF
330
19040
100
AcDbEntity
  8
U1
100
AcDbLine
 10
8846.717031986065
 20
5712.665360473253
 30
0.0
 11
8846.717031986065
 21
5721.915360473252
 31
0.0
  0
LINE
  5
195E0
330
19040
100
AcDbEntity
  8
U1
100
AcDbLine
 10
8849.017031986063
 20
5721.915360473253
 30
0.0
 11
8849.017031986063
 21
5712.665360473253
 31
0.0
  0
LINE
  5
195E1
330
19040
100
AcDbEntity
  8
U1
100
AcDbLine
 10
8844.417031986065
 20
5712.665360473253
 30
0.0
 11
8844.417031986065
 21
5721.915360473253
 31
0.0
  0
ARC
  5
195E2
330
19040
100
AcDbEntity
  8
U1
100
AcDbCircle
 10
8860.417031986065
 20
5721.915360473253
 30
0.0
 40
4.0
100
AcDbArc
 50
0.0
 51
90.0
  0
LINE
  5
195E3
330
19040
100
AcDbEntity
  8
U1
100
AcDbLine
 10
8860.417031986065
 20
5725.915360473253
 30
0.0
 11
8853.017031986063
 21
5725.915360473253
 31
0.0
  0
ARC
  5
195E4
330
19040
100
AcDbEntity
  8
U1
100
AcDbCircle
 10
8853.017031986063
 20
5721.915360473253
 30
0.0
 40
4.0
100
AcDbArc
 50
90.0
 51
180.0
  0
LINE
  5
195E5
330
19040
100
AcDbEntity
  8
U1
100
AcDbLine
 10
8864.417031986064
 20
5669.515360473252
 30
0.0
 11
8864.417031986064
 21
5721.915360473253
 31
0.0
  0
LINE
  5
195E6
330
19040
100
AcDbEntity
  8
U1
100
AcDbLine
 10
11640.41703198606
 20
5725.915360473253
 30
0.0
 11
11608.01703198605
 21
5725.915360473253
 31
0.0
  0
LINE
  5
195E7
330
19040
100
AcDbEntity
  8
U1
100
AcDbLine
 10
11608.01703198605
 20
5665.515360473253
 30
0.0
 11
11660.41703198606
 21
5665.515360473253
 31
0.0
  0
ARC
  5
195E8
330
19040
100
AcDbEntity
  8
U1
100
AcDbCircle
 10
11608.01703198605
 20
5669.515360473252
 30
0.0
 40
4.0
100
AcDbArc
 50
180.0
 51
270.0
  0
ARC
  5
195E9
330
19040
100
AcDbEntity
  8
U1
100
AcDbCircle
 10
11608.01703198605
 20
5721.915360473253
 30
0.0
 40
4.0
100
AcDbArc
 50
90.0
 51
180.0
  0
LINE
  5
195EA
330
19040
100
AcDbEntity
  8
U1
100
AcDbLine
 10
11604.01703198606
 20
5721.915360473253
 30
0.0
 11
11604.01703198606
 21
5669.515360473252
 31
0.0
  0
ARC
  5
195EB
330
19040
100
AcDbEntity
  8
U1
100
AcDbCircle
 10
11660.41703198606
 20
5669.515360473252
 30
0.0
 40
4.0
100
AcDbArc
 50
270.0
 51
0.0
  0
ARC
  5
195EC
330
19040
100
AcDbEntity
  8
U1
100
AcDbCircle
 10
11640.41703198606
 20
5721.915360473253
 30
0.0
 40
4.0
100
AcDbArc
 50
0.0
 51
90.0
  0
ARC
  5
195ED
330
19040
100
AcDbEntity
  8
U1
100
AcDbCircle
 10
11647.86703198605
 20
5712.665360473253
 30
0.0
 40
1.149999999999977
100
AcDbArc
 50
180.0
 51
0.0
  0
LINE
  5
195EE
330
19040
100
AcDbEntity
  8
U1
100
AcDbLine
 10
11651.31703198606
 20
5720.215360473253
 30
0.0
 11
11651.31703198606
 21
5712.665360473253
 31
0.0
  0
LINE
  5
195EF
330
19040
100
AcDbEntity
  8
U1
100
AcDbLine
 10
11649.01703198605
 20
5720.215360473253
 30
0.0
 11
11651.31703198606
 21
5720.215360473253
 31
0.0
  0
LINE
  5
195F0
330
19040
100
AcDbEntity
  8
U1
100
AcDbLine
 10
11646.71703198606
 20
5713.215360473252
 30
0.0
 11
11649.01703198605
 21
5713.215360473252
 31
0.0
  0
ARC
  5
195F1
330
19040
100
AcDbEntity
  8
U1
100
AcDbCircle
 10
11647.86703198605
 20
5712.665360473253
 30
0.0
 40
3.450000000000044
100
AcDbArc
 50
180.0
 51
0.0
  0
LINE
  5
195F2
330
19040
100
AcDbEntity
  8
U1
100
AcDbLine
 10
11646.71703198606
 20
5712.665360473253
 30
0.0
 11
11646.71703198606
 21
5721.915360473252
 31
0.0
  0
LINE
  5
195F3
330
19040
100
AcDbEntity
  8
U1
100
AcDbLine
 10
11649.01703198605
 20
5721.915360473253
 30
0.0
 11
11649.01703198605
 21
5712.665360473253
 31
0.0
  0
LINE
  5
195F4
330
19040
100
AcDbEntity
  8
U1
100
AcDbLine
 10
11644.41703198606
 20
5712.665360473253
 30
0.0
 11
11644.41703198606
 21
5721.915360473253
 31
0.0
  0
ARC
  5
195F5
330
19040
100
AcDbEntity
  8
U1
100
AcDbCircle
 10
11660.41703198606
 20
5721.915360473253
 30
0.0
 40
4.0
100
AcDbArc
 50
0.0
 51
90.0
  0
LINE
  5
195F6
330
19040
100
AcDbEntity
  8
U1
100
AcDbLine
 10
11660.41703198606
 20
5725.915360473253
 30
0.0
 11
11653.01703198605
 21
5725.915360473253
 31
0.0
  0
ARC
  5
195F7
330
19040
100
AcDbEntity
  8
U1
100
AcDbCircle
 10
11653.01703198605
 20
5721.915360473253
 30
0.0
 40
4.0
100
AcDbArc
 50
90.0
 51
180.0
  0
LINE
  5
195F8
330
19040
100
AcDbEntity
  8
U1
100
AcDbLine
 10
11664.41703198606
 20
5669.515360473252
 30
0.0
 11
11664.41703198606
 21
5721.915360473253
 31
0.0
  0
LINE
  5
195F9
330
19040
100
AcDbEntity
  8
U1
100
AcDbLine
 10
4728.017031986063
 20
7525.915360473252
 30
0.0
 11
4760.417031986063
 21
7525.915360473252
 31
0.0
  0
LINE
  5
195FA
330
19040
100
AcDbEntity
  8
U1
100
AcDbLine
 10
4760.417031986063
 20
7465.515360473251
 30
0.0
 11
4708.017031986062
 21
7465.515360473251
 31
0.0
  0
ARC
  5
195FB
330
19040
100
AcDbEntity
  8
U1
100
AcDbCircle
 10
4760.417031986063
 20
7469.515360473251
 30
0.0
 40
4.0
100
AcDbArc
 50
270.0
 51
0.0
  0
ARC
  5
195FC
330
19040
100
AcDbEntity
  8
U1
100
AcDbCircle
 10
4760.417031986063
 20
7521.915360473252
 30
0.0
 40
4.0
100
AcDbArc
 50
0.0
 51
90.0
  0
LINE
  5
195FD
330
19040
100
AcDbEntity
  8
U1
100
AcDbLine
 10
4764.417031986063
 20
7521.915360473252
 30
0.0
 11
4764.417031986063
 21
7469.515360473251
 31
0.0
  0
ARC
  5
195FE
330
19040
100
AcDbEntity
  8
U1
100
AcDbCircle
 10
4708.017031986062
 20
7469.515360473251
 30
0.0
 40
4.0
100
AcDbArc
 50
180.0
 51
270.0
  0
ARC
  5
195FF
330
19040
100
AcDbEntity
  8
U1
100
AcDbCircle
 10
4728.017031986063
 20
7521.915360473252
 30
0.0
 40
4.0
100
AcDbArc
 50
90.0
 51
180.0
  0
ARC
  5
19600
330
19040
100
AcDbEntity
  8
U1
100
AcDbCircle
 10
4720.567031986063
 20
7512.665360473251
 30
0.0
 40
1.149999999999977
100
AcDbArc
 50
180.0
 51
0.0
  0
LINE
  5
19601
330
19040
100
AcDbEntity
  8
U1
100
AcDbLine
 10
4717.117031986062
 20
7520.215360473253
 30
0.0
 11
4717.117031986062
 21
7512.665360473251
 31
0.0
  0
LINE
  5
19602
330
19040
100
AcDbEntity
  8
U1
100
AcDbLine
 10
4719.417031986063
 20
7520.215360473253
 30
0.0
 11
4717.117031986062
 21
7520.215360473253
 31
0.0
  0
LINE
  5
19603
330
19040
100
AcDbEntity
  8
U1
100
AcDbLine
 10
4721.717031986062
 20
7513.215360473253
 30
0.0
 11
4719.417031986063
 21
7513.215360473253
 31
0.0
  0
ARC
  5
19604
330
19040
100
AcDbEntity
  8
U1
100
AcDbCircle
 10
4720.567031986063
 20
7512.665360473251
 30
0.0
 40
3.450000000000044
100
AcDbArc
 50
180.0
 51
0.0
  0
LINE
  5
19605
330
19040
100
AcDbEntity
  8
U1
100
AcDbLine
 10
4721.717031986062
 20
7512.665360473251
 30
0.0
 11
4721.717031986064
 21
7521.915360473252
 31
0.0
  0
LINE
  5
19606
330
19040
100
AcDbEntity
  8
U1
100
AcDbLine
 10
4719.417031986063
 20
7521.915360473252
 30
0.0
 11
4719.417031986063
 21
7512.665360473251
 31
0.0
  0
LINE
  5
19607
330
19040
100
AcDbEntity
  8
U1
100
AcDbLine
 10
4724.017031986061
 20
7512.665360473251
 30
0.0
 11
4724.017031986061
 21
7521.915360473252
 31
0.0
  0
ARC
  5
19608
330
19040
100
AcDbEntity
  8
U1
100
AcDbCircle
 10
4708.017031986063
 20
7521.915360473252
 30
0.0
 40
4.0
100
AcDbArc
 50
90.0
 51
180.0
  0
LINE
  5
19609
330
19040
100
AcDbEntity
  8
U1
100
AcDbLine
 10
4708.017031986063
 20
7525.915360473252
 30
0.0
 11
4715.417031986063
 21
7525.915360473252
 31
0.0
  0
ARC
  5
1960A
330
19040
100
AcDbEntity
  8
U1
100
AcDbCircle
 10
4715.417031986063
 20
7521.915360473252
 30
0.0
 40
4.0
100
AcDbArc
 50
0.0
 51
90.0
  0
LINE
  5
1960B
330
19040
100
AcDbEntity
  8
U1
100
AcDbLine
 10
4704.017031986063
 20
7469.515360473251
 30
0.0
 11
4704.017031986063
 21
7521.915360473252
 31
0.0
  0
LINE
  5
1960C
330
19040
100
AcDbEntity
  8
U1
100
AcDbLine
 10
7540.417031986064
 20
7525.915360473252
 30
0.0
 11
7508.017031986061
 21
7525.915360473252
 31
0.0
  0
LINE
  5
1960D
330
19040
100
AcDbEntity
  8
U1
100
AcDbLine
 10
7508.017031986061
 20
7465.515360473251
 30
0.0
 11
7560.417031986064
 21
7465.515360473251
 31
0.0
  0
ARC
  5
1960E
330
19040
100
AcDbEntity
  8
U1
100
AcDbCircle
 10
7508.017031986061
 20
7469.515360473251
 30
0.0
 40
4.0
100
AcDbArc
 50
180.0
 51
270.0
  0
ARC
  5
1960F
330
19040
100
AcDbEntity
  8
U1
100
AcDbCircle
 10
7508.017031986061
 20
7521.915360473252
 30
0.0
 40
4.0
100
AcDbArc
 50
90.0
 51
180.0
  0
LINE
  5
19610
330
19040
100
AcDbEntity
  8
U1
100
AcDbLine
 10
7504.017031986062
 20
7521.915360473252
 30
0.0
 11
7504.017031986062
 21
7469.515360473251
 31
0.0
  0
ARC
  5
19611
330
19040
100
AcDbEntity
  8
U1
100
AcDbCircle
 10
7560.417031986064
 20
7469.515360473251
 30
0.0
 40
4.0
100
AcDbArc
 50
270.0
 51
0.0
  0
ARC
  5
19612
330
19040
100
AcDbEntity
  8
U1
100
AcDbCircle
 10
7540.417031986064
 20
7521.915360473252
 30
0.0
 40
4.0
100
AcDbArc
 50
0.0
 51
90.0
  0
ARC
  5
19613
330
19040
100
AcDbEntity
  8
U1
100
AcDbCircle
 10
7547.867031986065
 20
7512.665360473251
 30
0.0
 40
1.149999999999977
100
AcDbArc
 50
180.0
 51
0.0
  0
LINE
  5
19614
330
19040
100
AcDbEntity
  8
U1
100
AcDbLine
 10
7551.317031986065
 20
7520.215360473253
 30
0.0
 11
7551.317031986065
 21
7512.665360473251
 31
0.0
  0
LINE
  5
19615
330
19040
100
AcDbEntity
  8
U1
100
AcDbLine
 10
7549.017031986062
 20
7520.215360473253
 30
0.0
 11
7551.317031986065
 21
7520.215360473253
 31
0.0
  0
LINE
  5
19616
330
19040
100
AcDbEntity
  8
U1
100
AcDbLine
 10
7546.717031986064
 20
7513.215360473253
 30
0.0
 11
7549.017031986062
 21
7513.215360473253
 31
0.0
  0
ARC
  5
19617
330
19040
100
AcDbEntity
  8
U1
100
AcDbCircle
 10
7547.867031986065
 20
7512.665360473251
 30
0.0
 40
3.450000000000044
100
AcDbArc
 50
180.0
 51
0.0
  0
LINE
  5
19618
330
19040
100
AcDbEntity
  8
U1
100
AcDbLine
 10
7546.717031986064
 20
7512.665360473251
 30
0.0
 11
7546.717031986064
 21
7521.915360473252
 31
0.0
  0
LINE
  5
19619
330
19040
100
AcDbEntity
  8
U1
100
AcDbLine
 10
7549.017031986062
 20
7521.915360473252
 30
0.0
 11
7549.017031986062
 21
7512.665360473251
 31
0.0
  0
LINE
  5
1961A
330
19040
100
AcDbEntity
  8
U1
100
AcDbLine
 10
7544.417031986064
 20
7512.665360473251
 30
0.0
 11
7544.417031986064
 21
7521.915360473252
 31
0.0
  0
ARC
  5
1961B
330
19040
100
AcDbEntity
  8
U1
100
AcDbCircle
 10
7560.417031986062
 20
7521.915360473252
 30
0.0
 40
4.0
100
AcDbArc
 50
0.0
 51
90.0
  0
LINE
  5
1961C
330
19040
100
AcDbEntity
  8
U1
100
AcDbLine
 10
7560.417031986062
 20
7525.915360473252
 30
0.0
 11
7553.017031986062
 21
7525.915360473252
 31
0.0
  0
ARC
  5
1961D
330
19040
100
AcDbEntity
  8
U1
100
AcDbCircle
 10
7553.017031986062
 20
7521.915360473252
 30
0.0
 40
4.0
100
AcDbArc
 50
90.0
 51
180.0
  0
LINE
  5
1961E
330
19040
100
AcDbEntity
  8
U1
100
AcDbLine
 10
7564.417031986065
 20
7469.515360473251
 30
0.0
 11
7564.417031986065
 21
7521.915360473252
 31
0.0
  0
LINE
  5
1961F
330
19040
100
AcDbEntity
  8
U1
100
AcDbLine
 10
8840.417031986062
 20
7525.915360473252
 30
0.0
 11
8808.017031986063
 21
7525.915360473252
 31
0.0
  0
LINE
  5
19620
330
19040
100
AcDbEntity
  8
U1
100
AcDbLine
 10
8808.017031986063
 20
7465.515360473251
 30
0.0
 11
8860.417031986065
 21
7465.515360473251
 31
0.0
  0
ARC
  5
19621
330
19040
100
AcDbEntity
  8
U1
100
AcDbCircle
 10
8808.017031986063
 20
7469.515360473251
 30
0.0
 40
4.0
100
AcDbArc
 50
180.0
 51
270.0
  0
ARC
  5
19622
330
19040
100
AcDbEntity
  8
U1
100
AcDbCircle
 10
8808.017031986063
 20
7521.915360473252
 30
0.0
 40
4.0
100
AcDbArc
 50
90.0
 51
180.0
  0
LINE
  5
19623
330
19040
100
AcDbEntity
  8
U1
100
AcDbLine
 10
8804.017031986061
 20
7521.915360473252
 30
0.0
 11
8804.017031986061
 21
7469.515360473251
 31
0.0
  0
ARC
  5
19624
330
19040
100
AcDbEntity
  8
U1
100
AcDbCircle
 10
8860.417031986065
 20
7469.515360473251
 30
0.0
 40
4.0
100
AcDbArc
 50
270.0
 51
0.0
  0
ARC
  5
19625
330
19040
100
AcDbEntity
  8
U1
100
AcDbCircle
 10
8840.417031986062
 20
7521.915360473252
 30
0.0
 40
4.0
100
AcDbArc
 50
0.0
 51
90.0
  0
ARC
  5
19626
330
19040
100
AcDbEntity
  8
U1
100
AcDbCircle
 10
8847.867031986066
 20
7512.665360473251
 30
0.0
 40
1.149999999999977
100
AcDbArc
 50
180.0
 51
0.0
  0
LINE
  5
19627
330
19040
100
AcDbEntity
  8
U1
100
AcDbLine
 10
8851.317031986061
 20
7520.215360473253
 30
0.0
 11
8851.317031986061
 21
7512.665360473251
 31
0.0
  0
LINE
  5
19628
330
19040
100
AcDbEntity
  8
U1
100
AcDbLine
 10
8849.017031986063
 20
7520.215360473253
 30
0.0
 11
8851.317031986061
 21
7520.215360473253
 31
0.0
  0
LINE
  5
19629
330
19040
100
AcDbEntity
  8
U1
100
AcDbLine
 10
8846.717031986065
 20
7513.215360473253
 30
0.0
 11
8849.017031986063
 21
7513.215360473253
 31
0.0
  0
ARC
  5
1962A
330
19040
100
AcDbEntity
  8
U1
100
AcDbCircle
 10
8847.867031986066
 20
7512.665360473251
 30
0.0
 40
3.450000000000044
100
AcDbArc
 50
180.0
 51
0.0
  0
LINE
  5
1962B
330
19040
100
AcDbEntity
  8
U1
100
AcDbLine
 10
8846.717031986065
 20
7512.665360473251
 30
0.0
 11
8846.717031986065
 21
7521.915360473252
 31
0.0
  0
LINE
  5
1962C
330
19040
100
AcDbEntity
  8
U1
100
AcDbLine
 10
8849.017031986063
 20
7521.915360473252
 30
0.0
 11
8849.017031986063
 21
7512.665360473251
 31
0.0
  0
LINE
  5
1962D
330
19040
100
AcDbEntity
  8
U1
100
AcDbLine
 10
8844.417031986065
 20
7512.665360473251
 30
0.0
 11
8844.417031986065
 21
7521.915360473252
 31
0.0
  0
ARC
  5
1962E
330
19040
100
AcDbEntity
  8
U1
100
AcDbCircle
 10
8860.417031986065
 20
7521.915360473252
 30
0.0
 40
4.0
100
AcDbArc
 50
0.0
 51
90.0
  0
LINE
  5
1962F
330
19040
100
AcDbEntity
  8
U1
100
AcDbLine
 10
8860.417031986065
 20
7525.915360473252
 30
0.0
 11
8853.017031986063
 21
7525.915360473252
 31
0.0
  0
ARC
  5
19630
330
19040
100
AcDbEntity
  8
U1
100
AcDbCircle
 10
8853.017031986063
 20
7521.915360473252
 30
0.0
 40
4.0
100
AcDbArc
 50
90.0
 51
180.0
  0
LINE
  5
19631
330
19040
100
AcDbEntity
  8
U1
100
AcDbLine
 10
8864.417031986064
 20
7469.515360473251
 30
0.0
 11
8864.417031986064
 21
7521.915360473252
 31
0.0
  0
LINE
  5
19632
330
19040
100
AcDbEntity
  8
U1
100
AcDbLine
 10
11640.41703198606
 20
7525.915360473252
 30
0.0
 11
11608.01703198605
 21
7525.915360473252
 31
0.0
  0
LINE
  5
19633
330
19040
100
AcDbEntity
  8
U1
100
AcDbLine
 10
11608.01703198605
 20
7465.515360473251
 30
0.0
 11
11660.41703198606
 21
7465.515360473251
 31
0.0
  0
ARC
  5
19634
330
19040
100
AcDbEntity
  8
U1
100
AcDbCircle
 10
11608.01703198605
 20
7469.515360473251
 30
0.0
 40
4.0
100
AcDbArc
 50
180.0
 51
270.0
  0
ARC
  5
19635
330
19040
100
AcDbEntity
  8
U1
100
AcDbCircle
 10
11608.01703198605
 20
7521.915360473252
 30
0.0
 40
4.0
100
AcDbArc
 50
90.0
 51
180.0
  0
LINE
  5
19636
330
19040
100
AcDbEntity
  8
U1
100
AcDbLine
 10
11604.01703198606
 20
7521.915360473252
 30
0.0
 11
11604.01703198606
 21
7469.515360473251
 31
0.0
  0
ARC
  5
19637
330
19040
100
AcDbEntity
  8
U1
100
AcDbCircle
 10
11660.41703198606
 20
7469.515360473251
 30
0.0
 40
4.0
100
AcDbArc
 50
270.0
 51
0.0
  0
ARC
  5
19638
330
19040
100
AcDbEntity
  8
U1
100
AcDbCircle
 10
11640.41703198606
 20
7521.915360473252
 30
0.0
 40
4.0
100
AcDbArc
 50
0.0
 51
90.0
  0
ARC
  5
19639
330
19040
100
AcDbEntity
  8
U1
100
AcDbCircle
 10
11647.86703198605
 20
7512.665360473251
 30
0.0
 40
1.149999999999977
100
AcDbArc
 50
180.0
 51
0.0
  0
LINE
  5
1963A
330
19040
100
AcDbEntity
  8
U1
100
AcDbLine
 10
11651.31703198606
 20
7520.215360473253
 30
0.0
 11
11651.31703198606
 21
7512.665360473251
 31
0.0
  0
LINE
  5
1963B
330
19040
100
AcDbEntity
  8
U1
100
AcDbLine
 10
11649.01703198605
 20
7520.215360473253
 30
0.0
 11
11651.31703198606
 21
7520.215360473253
 31
0.0
  0
LINE
  5
1963C
330
19040
100
AcDbEntity
  8
U1
100
AcDbLine
 10
11646.71703198606
 20
7513.215360473253
 30
0.0
 11
11649.01703198605
 21
7513.215360473253
 31
0.0
  0
ARC
  5
1963D
330
19040
100
AcDbEntity
  8
U1
100
AcDbCircle
 10
11647.86703198605
 20
7512.665360473251
 30
0.0
 40
3.450000000000044
100
AcDbArc
 50
180.0
 51
0.0
  0
LINE
  5
1963E
330
19040
100
AcDbEntity
  8
U1
100
AcDbLine
 10
11646.71703198606
 20
7512.665360473251
 30
0.0
 11
11646.71703198606
 21
7521.915360473252
 31
0.0
  0
LINE
  5
1963F
330
19040
100
AcDbEntity
  8
U1
100
AcDbLine
 10
11649.01703198605
 20
7521.915360473252
 30
0.0
 11
11649.01703198605
 21
7512.665360473251
 31
0.0
  0
LINE
  5
19640
330
19040
100
AcDbEntity
  8
U1
100
AcDbLine
 10
11644.41703198606
 20
7512.665360473251
 30
0.0
 11
11644.41703198606
 21
7521.915360473252
 31
0.0
  0
ARC
  5
19641
330
19040
100
AcDbEntity
  8
U1
100
AcDbCircle
 10
11660.41703198606
 20
7521.915360473252
 30
0.0
 40
4.0
100
AcDbArc
 50
0.0
 51
90.0
  0
LINE
  5
19642
330
19040
100
AcDbEntity
  8
U1
100
AcDbLine
 10
11660.41703198606
 20
7525.915360473252
 30
0.0
 11
11653.01703198605
 21
7525.915360473252
 31
0.0
  0
ARC
  5
19643
330
19040
100
AcDbEntity
  8
U1
100
AcDbCircle
 10
11653.01703198605
 20
7521.915360473252
 30
0.0
 40
4.0
100
AcDbArc
 50
90.0
 51
180.0
  0
LINE
  5
19644
330
19040
100
AcDbEntity
  8
U1
100
AcDbLine
 10
11664.41703198606
 20
7469.515360473251
 30
0.0
 11
11664.41703198606
 21
7521.915360473252
 31
0.0
  0
LINE
  5
19645
330
19040
100
AcDbEntity
  8
KISO
100
AcDbLine
 10
4344.333914666385
 20
1876.183932023018
 30
0.0
 11
4344.333914666385
 21
1876.183932023018
 31
0.0
  0
LINE
  5
19646
330
19040
100
AcDbEntity
  8
KISO
100
AcDbLine
 10
4344.333914666385
 20
1876.183932023018
 30
0.0
 11
3064.333914666386
 21
1876.183932023019
 31
0.0
  0
LINE
  5
19647
330
19040
100
AcDbEntity
  8
TEKKIN
100
AcDbLine
 10
3652.333914666386
 20
1980.183932023019
 30
0.0
 11
3424.333914666386
 21
1980.183932023019
 31
0.0
  0
LINE
  5
19648
330
19040
100
AcDbEntity
  8
TEKKIN
100
AcDbLine
 10
3424.333914666386
 20
1980.183932023019
 30
0.0
 11
3424.333914666386
 21
1964.183932023018
 31
0.0
  0
LINE
  5
19649
330
19040
100
AcDbEntity
  8
TEKKIN
100
AcDbLine
 10
3424.333914666386
 20
1964.183932023018
 30
0.0
 11
3652.333914666386
 21
1964.183932023018
 31
0.0
  0
LINE
  5
1964A
330
19040
100
AcDbEntity
  8
TEKKIN
100
AcDbLine
 10
3756.333914666386
 20
1964.183932023018
 30
0.0
 11
3984.333914666386
 21
1964.183932023018
 31
0.0
  0
LINE
  5
1964B
330
19040
100
AcDbEntity
  8
TEKKIN
100
AcDbLine
 10
3984.333914666386
 20
1964.183932023018
 30
0.0
 11
3984.333914666386
 21
1980.183932023019
 31
0.0
  0
LINE
  5
1964C
330
19040
100
AcDbEntity
  8
TEKKIN
100
AcDbLine
 10
3984.333914666386
 20
1980.183932023019
 30
0.0
 11
3756.333914666386
 21
1980.183932023019
 31
0.0
  0
ARC
  5
1964D
330
19040
100
AcDbEntity
  8
U1
100
AcDbCircle
 10
11660.41703198606
 20
9269.515360473251
 30
0.0
 40
6.300000000001091
100
AcDbArc
 50
270.0
 51
0.0
  0
LINE
  5
1964E
330
19040
100
AcDbEntity
  8
U1
100
AcDbLine
 10
11660.41703198606
 20
9263.215360473251
 30
0.0
 11
11653.01703198605
 21
9263.215360473251
 31
0.0
  0
ARC
  5
1964F
330
19040
100
AcDbEntity
  8
U1
100
AcDbCircle
 10
11653.01703198605
 20
9269.515360473251
 30
0.0
 40
6.299999999999272
100
AcDbArc
 50
180.0
 51
270.0
  0
ARC
  5
19650
330
19040
100
AcDbEntity
  8
U1
100
AcDbCircle
 10
11640.41703198606
 20
9269.515360473251
 30
0.0
 40
6.300000000001091
100
AcDbArc
 50
270.0
 51
359.9999999999833
  0
LINE
  5
19651
330
19040
100
AcDbEntity
  8
U1
100
AcDbLine
 10
11640.41703198606
 20
9263.215360473251
 30
0.0
 11
11608.01703198605
 21
9263.215360473251
 31
0.0
  0
ARC
  5
19652
330
19040
100
AcDbEntity
  8
U1
100
AcDbCircle
 10
11608.01703198605
 20
9269.515360473251
 30
0.0
 40
6.300000000001091
100
AcDbArc
 50
180.0
 51
270.0
  0
LINE
  5
19653
330
19040
100
AcDbEntity
  8
U1
100
AcDbLine
 10
11601.71703198606
 20
9269.515360473251
 30
0.0
 11
11601.71703198606
 21
9321.915360473253
 31
0.0
  0
ARC
  5
19654
330
19040
100
AcDbEntity
  8
U1
100
AcDbCircle
 10
11608.01703198605
 20
9321.915360473253
 30
0.0
 40
6.300000000001091
100
AcDbArc
 50
90.0
 51
180.0
  0
LINE
  5
19655
330
19040
100
AcDbEntity
  8
U1
100
AcDbLine
 10
11608.01703198605
 20
9328.215360473253
 30
0.0
 11
11660.41703198606
 21
9328.215360473253
 31
0.0
  0
ARC
  5
19656
330
19040
100
AcDbEntity
  8
U1
100
AcDbCircle
 10
11660.41703198606
 20
9321.915360473253
 30
0.0
 40
6.299999999999272
100
AcDbArc
 50
0.0
 51
90.0
  0
LINE
  5
19657
330
19040
100
AcDbEntity
  8
U1
100
AcDbLine
 10
11666.71703198606
 20
9321.915360473253
 30
0.0
 11
11666.71703198606
 21
9269.515360473251
 31
0.0
  0
ARC
  5
19658
330
19040
100
AcDbEntity
  8
U1
100
AcDbCircle
 10
8860.417031986063
 20
9269.515360473251
 30
0.0
 40
6.300000000001091
100
AcDbArc
 50
270.0
 51
0.0
  0
LINE
  5
19659
330
19040
100
AcDbEntity
  8
U1
100
AcDbLine
 10
8860.417031986063
 20
9263.215360473251
 30
0.0
 11
8853.017031986063
 21
9263.215360473251
 31
0.0
  0
ARC
  5
1965A
330
19040
100
AcDbEntity
  8
U1
100
AcDbCircle
 10
8853.017031986063
 20
9269.515360473251
 30
0.0
 40
6.299999999999272
100
AcDbArc
 50
180.0
 51
270.0
  0
ARC
  5
1965B
330
19040
100
AcDbEntity
  8
U1
100
AcDbCircle
 10
8840.417031986062
 20
9269.515360473251
 30
0.0
 40
6.300000000001091
100
AcDbArc
 50
270.0
 51
359.9999999999833
  0
LINE
  5
1965C
330
19040
100
AcDbEntity
  8
U1
100
AcDbLine
 10
8840.417031986062
 20
9263.215360473251
 30
0.0
 11
8808.017031986063
 21
9263.215360473251
 31
0.0
  0
ARC
  5
1965D
330
19040
100
AcDbEntity
  8
U1
100
AcDbCircle
 10
8808.017031986063
 20
9269.515360473251
 30
0.0
 40
6.300000000001091
100
AcDbArc
 50
180.0
 51
270.0
  0
LINE
  5
1965E
330
19040
100
AcDbEntity
  8
U1
100
AcDbLine
 10
8801.717031986061
 20
9269.515360473251
 30
0.0
 11
8801.717031986061
 21
9321.915360473253
 31
0.0
  0
ARC
  5
1965F
330
19040
100
AcDbEntity
  8
U1
100
AcDbCircle
 10
8808.017031986064
 20
9321.915360473253
 30
0.0
 40
6.300000000001091
100
AcDbArc
 50
90.0
 51
180.0
  0
LINE
  5
19660
330
19040
100
AcDbEntity
  8
U1
100
AcDbLine
 10
8808.017031986064
 20
9328.215360473253
 30
0.0
 11
8860.417031986065
 21
9328.215360473253
 31
0.0
  0
ARC
  5
19661
330
19040
100
AcDbEntity
  8
U1
100
AcDbCircle
 10
8860.417031986065
 20
9321.915360473253
 30
0.0
 40
6.299999999999272
100
AcDbArc
 50
0.0
 51
90.0
  0
LINE
  5
19662
330
19040
100
AcDbEntity
  8
U1
100
AcDbLine
 10
8866.717031986061
 20
9321.915360473253
 30
0.0
 11
8866.717031986061
 21
9269.515360473251
 31
0.0
  0
ARC
  5
19663
330
19040
100
AcDbEntity
  8
U1
100
AcDbCircle
 10
7560.417031986064
 20
9269.515360473251
 30
0.0
 40
6.299999999999272
100
AcDbArc
 50
269.9999999999918
 51
0.0
  0
LINE
  5
19664
330
19040
100
AcDbEntity
  8
U1
100
AcDbLine
 10
7560.417031986062
 20
9263.215360473251
 30
0.0
 11
7553.017031986062
 21
9263.215360473251
 31
0.0
  0
ARC
  5
19665
330
19040
100
AcDbEntity
  8
U1
100
AcDbCircle
 10
7553.017031986062
 20
9269.515360473251
 30
0.0
 40
6.299999999999272
100
AcDbArc
 50
180.0
 51
270.0000000000081
  0
ARC
  5
19666
330
19040
100
AcDbEntity
  8
U1
100
AcDbCircle
 10
7540.417031986064
 20
9269.515360473251
 30
0.0
 40
6.299999999999272
100
AcDbArc
 50
269.9999999999918
 51
0.0
  0
LINE
  5
19667
330
19040
100
AcDbEntity
  8
U1
100
AcDbLine
 10
7540.417031986064
 20
9263.215360473251
 30
0.0
 11
7508.017031986061
 21
9263.215360473251
 31
0.0
  0
ARC
  5
19668
330
19040
100
AcDbEntity
  8
U1
100
AcDbCircle
 10
7508.017031986061
 20
9269.515360473251
 30
0.0
 40
6.300000000001091
100
AcDbArc
 50
180.0
 51
270.0
  0
LINE
  5
19669
330
19040
100
AcDbEntity
  8
U1
100
AcDbLine
 10
7501.717031986064
 20
9269.515360473251
 30
0.0
 11
7501.717031986064
 21
9321.915360473253
 31
0.0
  0
ARC
  5
1966A
330
19040
100
AcDbEntity
  8
U1
100
AcDbCircle
 10
7508.017031986061
 20
9321.915360473253
 30
0.0
 40
6.299999999999272
100
AcDbArc
 50
89.99999999999173
 51
180.0
  0
LINE
  5
1966B
330
19040
100
AcDbEntity
  8
U1
100
AcDbLine
 10
7508.017031986061
 20
9328.215360473253
 30
0.0
 11
7560.417031986062
 21
9328.215360473253
 31
0.0
  0
ARC
  5
1966C
330
19040
100
AcDbEntity
  8
U1
100
AcDbCircle
 10
7560.417031986064
 20
9321.915360473253
 30
0.0
 40
6.299999999999272
100
AcDbArc
 50
0.0
 51
90.00000000000826
  0
LINE
  5
1966D
330
19040
100
AcDbEntity
  8
U1
100
AcDbLine
 10
7566.717031986063
 20
9321.915360473253
 30
0.0
 11
7566.717031986063
 21
9269.515360473251
 31
0.0
  0
ARC
  5
1966E
330
19040
100
AcDbEntity
  8
U1
100
AcDbCircle
 10
4708.017031986063
 20
9269.515360473251
 30
0.0
 40
6.300000000000181
100
AcDbArc
 50
180.0
 51
270.0
  0
LINE
  5
1966F
330
19040
100
AcDbEntity
  8
U1
100
AcDbLine
 10
4708.017031986063
 20
9263.215360473251
 30
0.0
 11
4715.417031986063
 21
9263.215360473251
 31
0.0
  0
ARC
  5
19670
330
19040
100
AcDbEntity
  8
U1
100
AcDbCircle
 10
4715.417031986063
 20
9269.515360473251
 30
0.0
 40
6.299999999999272
100
AcDbArc
 50
269.9999999999918
 51
0.0
  0
ARC
  5
19671
330
19040
100
AcDbEntity
  8
U1
100
AcDbCircle
 10
4728.017031986063
 20
9269.515360473251
 30
0.0
 40
6.299999999999272
100
AcDbArc
 50
180.0
 51
270.0000000000081
  0
LINE
  5
19672
330
19040
100
AcDbEntity
  8
U1
100
AcDbLine
 10
4728.017031986063
 20
9263.215360473251
 30
0.0
 11
4760.417031986063
 21
9263.215360473251
 31
0.0
  0
ARC
  5
19673
330
19040
100
AcDbEntity
  8
U1
100
AcDbCircle
 10
4760.417031986064
 20
9269.515360473251
 30
0.0
 40
6.299999999999272
100
AcDbArc
 50
269.9999999999918
 51
0.0
  0
LINE
  5
19674
330
19040
100
AcDbEntity
  8
U1
100
AcDbLine
 10
4766.717031986064
 20
9269.515360473251
 30
0.0
 11
4766.717031986064
 21
9321.915360473253
 31
0.0
  0
ARC
  5
19675
330
19040
100
AcDbEntity
  8
U1
100
AcDbCircle
 10
4760.417031986064
 20
9321.915360473253
 30
0.0
 40
6.299999999999272
100
AcDbArc
 50
0.0
 51
90.00000000000826
  0
LINE
  5
19676
330
19040
100
AcDbEntity
  8
U1
100
AcDbLine
 10
4760.417031986063
 20
9328.215360473253
 30
0.0
 11
4708.017031986063
 21
9328.215360473253
 31
0.0
  0
ARC
  5
19677
330
19040
100
AcDbEntity
  8
U1
100
AcDbCircle
 10
4708.017031986062
 20
9321.915360473253
 30
0.0
 40
6.299999999999272
100
AcDbArc
 50
89.99999999999173
 51
180.0
  0
LINE
  5
19678
330
19040
100
AcDbEntity
  8
U1
100
AcDbLine
 10
4701.717031986064
 20
9321.915360473253
 30
0.0
 11
4701.717031986064
 21
9269.515360473251
 31
0.0
  0
ARC
  5
19679
330
19040
100
AcDbEntity
  8
U1
100
AcDbCircle
 10
7560.417031986064
 20
5721.915360473253
 30
0.0
 40
6.299999999999272
100
AcDbArc
 50
0.0
 51
90.00000000000826
  0
LINE
  5
1967A
330
19040
100
AcDbEntity
  8
U1
100
AcDbLine
 10
7560.417031986062
 20
5728.215360473253
 30
0.0
 11
7553.017031986062
 21
5728.215360473253
 31
0.0
  0
ARC
  5
1967B
330
19040
100
AcDbEntity
  8
U1
100
AcDbCircle
 10
7553.017031986062
 20
5721.915360473253
 30
0.0
 40
6.300000000000181
100
AcDbArc
 50
89.99999999999173
 51
180.0
  0
ARC
  5
1967C
330
19040
100
AcDbEntity
  8
U1
100
AcDbCircle
 10
7540.417031986064
 20
5721.915360473252
 30
0.0
 40
6.300000000000181
100
AcDbArc
 50
0.0000000000082715
 51
90.0
  0
LINE
  5
1967D
330
19040
100
AcDbEntity
  8
U1
100
AcDbLine
 10
7540.417031986064
 20
5728.215360473253
 30
0.0
 11
7508.017031986061
 21
5728.215360473253
 31
0.0
  0
ARC
  5
1967E
330
19040
100
AcDbEntity
  8
U1
100
AcDbCircle
 10
7508.017031986061
 20
5721.915360473253
 30
0.0
 40
6.300000000000181
100
AcDbArc
 50
89.99999999999173
 51
180.0
  0
LINE
  5
1967F
330
19040
100
AcDbEntity
  8
U1
100
AcDbLine
 10
7501.717031986064
 20
5721.915360473253
 30
0.0
 11
7501.717031986064
 21
5669.515360473252
 31
0.0
  0
ARC
  5
19680
330
19040
100
AcDbEntity
  8
U1
100
AcDbCircle
 10
7508.017031986061
 20
5669.515360473252
 30
0.0
 40
6.299999999999272
100
AcDbArc
 50
180.0
 51
270.0000000000081
  0
LINE
  5
19681
330
19040
100
AcDbEntity
  8
U1
100
AcDbLine
 10
7508.017031986061
 20
5663.215360473253
 30
0.0
 11
7560.417031986062
 21
5663.215360473253
 31
0.0
  0
ARC
  5
19682
330
19040
100
AcDbEntity
  8
U1
100
AcDbCircle
 10
7560.417031986064
 20
5669.515360473252
 30
0.0
 40
6.299999999999272
100
AcDbArc
 50
269.9999999999918
 51
0.0
  0
LINE
  5
19683
330
19040
100
AcDbEntity
  8
U1
100
AcDbLine
 10
7566.717031986063
 20
5669.515360473252
 30
0.0
 11
7566.717031986063
 21
5721.915360473253
 31
0.0
  0
ARC
  5
19684
330
19040
100
AcDbEntity
  8
U1
100
AcDbCircle
 10
4708.017031986062
 20
5721.915360473253
 30
0.0
 40
6.299999999999272
100
AcDbArc
 50
89.99999999999173
 51
180.0
  0
LINE
  5
19685
330
19040
100
AcDbEntity
  8
U1
100
AcDbLine
 10
4708.017031986063
 20
5728.215360473253
 30
0.0
 11
4715.417031986063
 21
5728.215360473253
 31
0.0
  0
ARC
  5
19686
330
19040
100
AcDbEntity
  8
U1
100
AcDbCircle
 10
4715.417031986063
 20
5721.915360473253
 30
0.0
 40
6.300000000000181
100
AcDbArc
 50
0.0
 51
90.00000000000826
  0
ARC
  5
19687
330
19040
100
AcDbEntity
  8
U1
100
AcDbCircle
 10
4728.017031986063
 20
5721.915360473252
 30
0.0
 40
6.300000000000181
100
AcDbArc
 50
90.0
 51
179.9999999999916
  0
LINE
  5
19688
330
19040
100
AcDbEntity
  8
U1
100
AcDbLine
 10
4728.017031986063
 20
5728.215360473253
 30
0.0
 11
4760.417031986063
 21
5728.215360473253
 31
0.0
  0
ARC
  5
19689
330
19040
100
AcDbEntity
  8
U1
100
AcDbCircle
 10
4760.417031986064
 20
5721.915360473253
 30
0.0
 40
6.300000000000181
100
AcDbArc
 50
0.0
 51
90.00000000000826
  0
LINE
  5
1968A
330
19040
100
AcDbEntity
  8
U1
100
AcDbLine
 10
4766.717031986064
 20
5721.915360473253
 30
0.0
 11
4766.717031986064
 21
5669.515360473252
 31
0.0
  0
ARC
  5
1968B
330
19040
100
AcDbEntity
  8
U1
100
AcDbCircle
 10
4760.417031986064
 20
5669.515360473252
 30
0.0
 40
6.299999999999272
100
AcDbArc
 50
269.9999999999918
 51
0.0
  0
LINE
  5
1968C
330
19040
100
AcDbEntity
  8
U1
100
AcDbLine
 10
4760.417031986063
 20
5663.215360473253
 30
0.0
 11
4708.017031986063
 21
5663.215360473253
 31
0.0
  0
ARC
  5
1968D
330
19040
100
AcDbEntity
  8
U1
100
AcDbCircle
 10
4708.017031986062
 20
5669.515360473252
 30
0.0
 40
6.299999999999272
100
AcDbArc
 50
180.0
 51
270.0000000000081
  0
LINE
  5
1968E
330
19040
100
AcDbEntity
  8
U1
100
AcDbLine
 10
4701.717031986064
 20
5669.515360473252
 30
0.0
 11
4701.717031986064
 21
5721.915360473253
 31
0.0
  0
ARC
  5
1968F
330
19040
100
AcDbEntity
  8
U1
100
AcDbCircle
 10
8860.417031986065
 20
5721.915360473253
 30
0.0
 40
6.299999999999272
100
AcDbArc
 50
0.0
 51
90.0
  0
LINE
  5
19690
330
19040
100
AcDbEntity
  8
U1
100
AcDbLine
 10
8860.417031986065
 20
5728.215360473253
 30
0.0
 11
8853.017031986063
 21
5728.215360473253
 31
0.0
  0
ARC
  5
19691
330
19040
100
AcDbEntity
  8
U1
100
AcDbCircle
 10
8853.017031986063
 20
5721.915360473253
 30
0.0
 40
6.300000000000181
100
AcDbArc
 50
90.0
 51
180.0
  0
ARC
  5
19692
330
19040
100
AcDbEntity
  8
U1
100
AcDbCircle
 10
8840.417031986062
 20
5721.915360473253
 30
0.0
 40
6.299999999999272
100
AcDbArc
 50
0.0
 51
90.0
  0
LINE
  5
19693
330
19040
100
AcDbEntity
  8
U1
100
AcDbLine
 10
8840.417031986062
 20
5728.215360473253
 30
0.0
 11
8808.017031986063
 21
5728.215360473253
 31
0.0
  0
ARC
  5
19694
330
19040
100
AcDbEntity
  8
U1
100
AcDbCircle
 10
8808.017031986063
 20
5721.915360473253
 30
0.0
 40
6.300000000000181
100
AcDbArc
 50
90.0
 51
180.0
  0
LINE
  5
19695
330
19040
100
AcDbEntity
  8
U1
100
AcDbLine
 10
8801.717031986061
 20
5721.915360473253
 30
0.0
 11
8801.717031986061
 21
5669.515360473252
 31
0.0
  0
ARC
  5
19696
330
19040
100
AcDbEntity
  8
U1
100
AcDbCircle
 10
8808.017031986063
 20
5669.515360473252
 30
0.0
 40
6.299999999999272
100
AcDbArc
 50
180.0
 51
270.0
  0
LINE
  5
19697
330
19040
100
AcDbEntity
  8
U1
100
AcDbLine
 10
8808.017031986063
 20
5663.215360473253
 30
0.0
 11
8860.417031986065
 21
5663.215360473253
 31
0.0
  0
ARC
  5
19698
330
19040
100
AcDbEntity
  8
U1
100
AcDbCircle
 10
8860.417031986065
 20
5669.515360473252
 30
0.0
 40
6.299999999999272
100
AcDbArc
 50
270.0
 51
0.0
  0
LINE
  5
19699
330
19040
100
AcDbEntity
  8
U1
100
AcDbLine
 10
8866.717031986061
 20
5669.515360473252
 30
0.0
 11
8866.717031986061
 21
5721.915360473253
 31
0.0
  0
ARC
  5
1969A
330
19040
100
AcDbEntity
  8
U1
100
AcDbCircle
 10
11660.41703198606
 20
5721.915360473253
 30
0.0
 40
6.299999999999272
100
AcDbArc
 50
0.0
 51
90.0
  0
LINE
  5
1969B
330
19040
100
AcDbEntity
  8
U1
100
AcDbLine
 10
11660.41703198606
 20
5728.215360473253
 30
0.0
 11
11653.01703198605
 21
5728.215360473253
 31
0.0
  0
ARC
  5
1969C
330
19040
100
AcDbEntity
  8
U1
100
AcDbCircle
 10
11653.01703198605
 20
5721.915360473253
 30
0.0
 40
6.300000000000181
100
AcDbArc
 50
90.0
 51
180.0
  0
ARC
  5
1969D
330
19040
100
AcDbEntity
  8
U1
100
AcDbCircle
 10
11640.41703198606
 20
5721.915360473253
 30
0.0
 40
6.299999999999272
100
AcDbArc
 50
0.0
 51
90.0
  0
LINE
  5
1969E
330
19040
100
AcDbEntity
  8
U1
100
AcDbLine
 10
11640.41703198606
 20
5728.215360473253
 30
0.0
 11
11608.01703198605
 21
5728.215360473253
 31
0.0
  0
ARC
  5
1969F
330
19040
100
AcDbEntity
  8
U1
100
AcDbCircle
 10
11608.01703198605
 20
5721.915360473253
 30
0.0
 40
6.300000000000181
100
AcDbArc
 50
90.0
 51
180.0
  0
LINE
  5
196A0
330
19040
100
AcDbEntity
  8
U1
100
AcDbLine
 10
11601.71703198606
 20
5721.915360473253
 30
0.0
 11
11601.71703198606
 21
5669.515360473252
 31
0.0
  0
ARC
  5
196A1
330
19040
100
AcDbEntity
  8
U1
100
AcDbCircle
 10
11608.01703198605
 20
5669.515360473252
 30
0.0
 40
6.299999999999272
100
AcDbArc
 50
180.0
 51
270.0
  0
LINE
  5
196A2
330
19040
100
AcDbEntity
  8
U1
100
AcDbLine
 10
11608.01703198605
 20
5663.215360473253
 30
0.0
 11
11660.41703198606
 21
5663.215360473253
 31
0.0
  0
ARC
  5
196A3
330
19040
100
AcDbEntity
  8
U1
100
AcDbCircle
 10
11660.41703198606
 20
5669.515360473252
 30
0.0
 40
6.299999999999272
100
AcDbArc
 50
270.0
 51
0.0
  0
LINE
  5
196A4
330
19040
100
AcDbEntity
  8
U1
100
AcDbLine
 10
11666.71703198606
 20
5669.515360473252
 30
0.0
 11
11666.71703198606
 21
5721.915360473253
 31
0.0
  0
ARC
  5
196A5
330
19040
100
AcDbEntity
  8
U1
100
AcDbCircle
 10
4708.017031986062
 20
7521.915360473252
 30
0.0
 40
6.299999999999272
100
AcDbArc
 50
89.99999999999173
 51
180.0
  0
LINE
  5
196A6
330
19040
100
AcDbEntity
  8
U1
100
AcDbLine
 10
4708.017031986063
 20
7528.215360473253
 30
0.0
 11
4715.417031986063
 21
7528.215360473253
 31
0.0
  0
ARC
  5
196A7
330
19040
100
AcDbEntity
  8
U1
100
AcDbCircle
 10
4715.417031986063
 20
7521.915360473252
 30
0.0
 40
6.300000000000181
100
AcDbArc
 50
0.0
 51
90.00000000000826
  0
ARC
  5
196A8
330
19040
100
AcDbEntity
  8
U1
100
AcDbCircle
 10
4728.017031986063
 20
7521.915360473252
 30
0.0
 40
6.300000000000181
100
AcDbArc
 50
90.0
 51
179.9999999999916
  0
LINE
  5
196A9
330
19040
100
AcDbEntity
  8
U1
100
AcDbLine
 10
4728.017031986063
 20
7528.215360473253
 30
0.0
 11
4760.417031986063
 21
7528.215360473253
 31
0.0
  0
ARC
  5
196AA
330
19040
100
AcDbEntity
  8
U1
100
AcDbCircle
 10
4760.417031986064
 20
7521.915360473252
 30
0.0
 40
6.300000000000181
100
AcDbArc
 50
0.0
 51
90.00000000000826
  0
LINE
  5
196AB
330
19040
100
AcDbEntity
  8
U1
100
AcDbLine
 10
4766.717031986064
 20
7521.915360473252
 30
0.0
 11
4766.717031986064
 21
7469.515360473251
 31
0.0
  0
ARC
  5
196AC
330
19040
100
AcDbEntity
  8
U1
100
AcDbCircle
 10
4760.417031986064
 20
7469.515360473251
 30
0.0
 40
6.299999999999272
100
AcDbArc
 50
269.9999999999918
 51
0.0
  0
LINE
  5
196AD
330
19040
100
AcDbEntity
  8
U1
100
AcDbLine
 10
4760.417031986063
 20
7463.215360473253
 30
0.0
 11
4708.017031986063
 21
7463.215360473253
 31
0.0
  0
ARC
  5
196AE
330
19040
100
AcDbEntity
  8
U1
100
AcDbCircle
 10
4708.017031986062
 20
7469.515360473251
 30
0.0
 40
6.299999999999272
100
AcDbArc
 50
180.0
 51
270.0000000000081
  0
LINE
  5
196AF
330
19040
100
AcDbEntity
  8
U1
100
AcDbLine
 10
4701.717031986064
 20
7469.515360473251
 30
0.0
 11
4701.717031986064
 21
7521.915360473252
 31
0.0
  0
ARC
  5
196B0
330
19040
100
AcDbEntity
  8
U1
100
AcDbCircle
 10
7560.417031986064
 20
7521.915360473252
 30
0.0
 40
6.299999999999272
100
AcDbArc
 50
0.0
 51
90.00000000000826
  0
LINE
  5
196B1
330
19040
100
AcDbEntity
  8
U1
100
AcDbLine
 10
7560.417031986062
 20
7528.215360473253
 30
0.0
 11
7553.017031986062
 21
7528.215360473253
 31
0.0
  0
ARC
  5
196B2
330
19040
100
AcDbEntity
  8
U1
100
AcDbCircle
 10
7553.017031986062
 20
7521.915360473252
 30
0.0
 40
6.300000000000181
100
AcDbArc
 50
89.99999999999173
 51
180.0
  0
ARC
  5
196B3
330
19040
100
AcDbEntity
  8
U1
100
AcDbCircle
 10
7540.417031986064
 20
7521.915360473252
 30
0.0
 40
6.300000000000181
100
AcDbArc
 50
0.0000000000082715
 51
90.0
  0
LINE
  5
196B4
330
19040
100
AcDbEntity
  8
U1
100
AcDbLine
 10
7540.417031986064
 20
7528.215360473253
 30
0.0
 11
7508.017031986061
 21
7528.215360473253
 31
0.0
  0
ARC
  5
196B5
330
19040
100
AcDbEntity
  8
U1
100
AcDbCircle
 10
7508.017031986061
 20
7521.915360473252
 30
0.0
 40
6.300000000000181
100
AcDbArc
 50
89.99999999999173
 51
180.0
  0
LINE
  5
196B6
330
19040
100
AcDbEntity
  8
U1
100
AcDbLine
 10
7501.717031986064
 20
7521.915360473252
 30
0.0
 11
7501.717031986064
 21
7469.515360473251
 31
0.0
  0
ARC
  5
196B7
330
19040
100
AcDbEntity
  8
U1
100
AcDbCircle
 10
7508.017031986061
 20
7469.515360473251
 30
0.0
 40
6.299999999999272
100
AcDbArc
 50
180.0
 51
270.0000000000081
  0
LINE
  5
196B8
330
19040
100
AcDbEntity
  8
U1
100
AcDbLine
 10
7508.017031986061
 20
7463.215360473253
 30
0.0
 11
7560.417031986062
 21
7463.215360473253
 31
0.0
  0
ARC
  5
196B9
330
19040
100
AcDbEntity
  8
U1
100
AcDbCircle
 10
7560.417031986064
 20
7469.515360473251
 30
0.0
 40
6.299999999999272
100
AcDbArc
 50
269.9999999999918
 51
0.0
  0
LINE
  5
196BA
330
19040
100
AcDbEntity
  8
U1
100
AcDbLine
 10
7566.717031986063
 20
7469.515360473251
 30
0.0
 11
7566.717031986063
 21
7521.915360473252
 31
0.0
  0
ARC
  5
196BB
330
19040
100
AcDbEntity
  8
U1
100
AcDbCircle
 10
8860.417031986065
 20
7521.915360473252
 30
0.0
 40
6.299999999999272
100
AcDbArc
 50
0.0
 51
90.0
  0
LINE
  5
196BC
330
19040
100
AcDbEntity
  8
U1
100
AcDbLine
 10
8860.417031986065
 20
7528.215360473253
 30
0.0
 11
8853.017031986063
 21
7528.215360473253
 31
0.0
  0
ARC
  5
196BD
330
19040
100
AcDbEntity
  8
U1
100
AcDbCircle
 10
8853.017031986063
 20
7521.915360473252
 30
0.0
 40
6.300000000000181
100
AcDbArc
 50
90.0
 51
180.0
  0
ARC
  5
196BE
330
19040
100
AcDbEntity
  8
U1
100
AcDbCircle
 10
8840.417031986062
 20
7521.915360473252
 30
0.0
 40
6.299999999999272
100
AcDbArc
 50
0.0
 51
90.0
  0
LINE
  5
196BF
330
19040
100
AcDbEntity
  8
U1
100
AcDbLine
 10
8840.417031986062
 20
7528.215360473253
 30
0.0
 11
8808.017031986063
 21
7528.215360473253
 31
0.0
  0
ARC
  5
196C0
330
19040
100
AcDbEntity
  8
U1
100
AcDbCircle
 10
8808.017031986063
 20
7521.915360473252
 30
0.0
 40
6.300000000000181
100
AcDbArc
 50
90.0
 51
180.0
  0
LINE
  5
196C1
330
19040
100
AcDbEntity
  8
U1
100
AcDbLine
 10
8801.717031986061
 20
7521.915360473252
 30
0.0
 11
8801.717031986061
 21
7469.515360473251
 31
0.0
  0
ARC
  5
196C2
330
19040
100
AcDbEntity
  8
U1
100
AcDbCircle
 10
8808.017031986063
 20
7469.515360473251
 30
0.0
 40
6.299999999999272
100
AcDbArc
 50
180.0
 51
270.0
  0
LINE
  5
196C3
330
19040
100
AcDbEntity
  8
U1
100
AcDbLine
 10
8808.017031986063
 20
7463.215360473253
 30
0.0
 11
8860.417031986065
 21
7463.215360473253
 31
0.0
  0
ARC
  5
196C4
330
19040
100
AcDbEntity
  8
U1
100
AcDbCircle
 10
8860.417031986065
 20
7469.515360473251
 30
0.0
 40
6.299999999999272
100
AcDbArc
 50
270.0
 51
0.0
  0
LINE
  5
196C5
330
19040
100
AcDbEntity
  8
U1
100
AcDbLine
 10
8866.717031986061
 20
7469.515360473251
 30
0.0
 11
8866.717031986061
 21
7521.915360473252
 31
0.0
  0
ARC
  5
196C6
330
19040
100
AcDbEntity
  8
U1
100
AcDbCircle
 10
11660.41703198606
 20
7521.915360473252
 30
0.0
 40
6.299999999999272
100
AcDbArc
 50
0.0
 51
90.0
  0
LINE
  5
196C7
330
19040
100
AcDbEntity
  8
U1
100
AcDbLine
 10
11660.41703198606
 20
7528.215360473253
 30
0.0
 11
11653.01703198605
 21
7528.215360473253
 31
0.0
  0
ARC
  5
196C8
330
19040
100
AcDbEntity
  8
U1
100
AcDbCircle
 10
11653.01703198605
 20
7521.915360473252
 30
0.0
 40
6.300000000000181
100
AcDbArc
 50
90.0
 51
180.0
  0
ARC
  5
196C9
330
19040
100
AcDbEntity
  8
U1
100
AcDbCircle
 10
11640.41703198606
 20
7521.915360473252
 30
0.0
 40
6.299999999999272
100
AcDbArc
 50
0.0
 51
90.0
  0
LINE
  5
196CA
330
19040
100
AcDbEntity
  8
U1
100
AcDbLine
 10
11640.41703198606
 20
7528.215360473253
 30
0.0
 11
11608.01703198605
 21
7528.215360473253
 31
0.0
  0
ARC
  5
196CB
330
19040
100
AcDbEntity
  8
U1
100
AcDbCircle
 10
11608.01703198605
 20
7521.915360473252
 30
0.0
 40
6.300000000000181
100
AcDbArc
 50
90.0
 51
180.0
  0
LINE
  5
196CC
330
19040
100
AcDbEntity
  8
U1
100
AcDbLine
 10
11601.71703198606
 20
7521.915360473252
 30
0.0
 11
11601.71703198606
 21
7469.515360473251
 31
0.0
  0
ARC
  5
196CD
330
19040
100
AcDbEntity
  8
U1
100
AcDbCircle
 10
11608.01703198605
 20
7469.515360473251
 30
0.0
 40
6.299999999999272
100
AcDbArc
 50
180.0
 51
270.0
  0
LINE
  5
196CE
330
19040
100
AcDbEntity
  8
U1
100
AcDbLine
 10
11608.01703198605
 20
7463.215360473253
 30
0.0
 11
11660.41703198606
 21
7463.215360473253
 31
0.0
  0
ARC
  5
196CF
330
19040
100
AcDbEntity
  8
U1
100
AcDbCircle
 10
11660.41703198606
 20
7469.515360473251
 30
0.0
 40
6.299999999999272
100
AcDbArc
 50
270.0
 51
0.0
  0
LINE
  5
196D0
330
19040
100
AcDbEntity
  8
U1
100
AcDbLine
 10
11666.71703198606
 20
7469.515360473251
 30
0.0
 11
11666.71703198606
 21
7521.915360473252
 31
0.0
  0
TEXT
  5
196F2
330
19040
100
AcDbEntity
  8
SUNPOU
100
AcDbText
 10
1508.742702358714
 20
4561.11941513331
 30
0.0
 40
89.9993750043402
  1
地耐力   　　　 以上,コンクリート設計基準強度　　　　　以上
  7
01
100
AcDbText
  0
TEXT
  5
196F3
330
19040
100
AcDbEntity
  8
SUNPOU
100
AcDbText
 10
1817.728925250603
 20
4217.580901463074
 30
0.0
 40
90.0
  1
寒冷地の場合、凍結深度等を考慮し、実情に
  7
01
100
AcDbText
  0
TEXT
  5
196F4
330
19040
100
AcDbEntity
  8
SUNPOU
100
AcDbText
 10
1817.728925250603
 20
3909.009472891646
 30
0.0
 40
90.0
  1
その他現地の実情にあわせて設計して下さい。
  7
01
100
AcDbText
  0
TEXT
  5
196F5
330
19040
100
AcDbEntity
  8
SUNPOU
100
AcDbText
 10
1500.889259948469
 20
3909.009472891646
 30
0.0
 40
90.0
  1
注　）
  7
01
100
AcDbText
  0
TEXT
  5
196F6
330
19040
100
AcDbEntity
  8
SUNPOU
100
AcDbText
 10
1611.523180161209
 20
3909.009472891646
 30
0.0
 40
90.0
  1
2
 41
0.6700000000000001
  7
01
100
AcDbText
  0
TEXT
  5
196F7
330
19040
100
AcDbEntity
  8
SUNPOU
100
AcDbText
 10
2018.837562569737
 20
4561.11941513331
 30
0.0
 40
71.99950000347218
  1
K
 41
0.6700000000000001
  7
01
100
AcDbText
  0
TEXT
  5
196F8
330
19040
100
AcDbEntity
  8
SUNPOU
100
AcDbText
 10
1378.179073642483
 20
4750.373417579266
 30
0.0
 40
90.0
  1
<下記条件での参考図>
  7
01
 72
     4
 11
1967.036216499625
 21
4795.373417579265
 31
0.0
100
AcDbText
  0
TEXT
  5
196F9
330
19040
100
AcDbEntity
  8
SUNPOU
100
AcDbText
 10
1883.001109783788
 20
4561.11941513331
 30
0.0
 40
89.9993750043402
  1
50  N/m
 41
0.6700000000000001
  7
01
100
AcDbText
  0
TEXT
  5
196FA
330
19040
100
AcDbEntity
  8
SUNPOU
100
AcDbText
 10
1503.536216499625
 20
4907.873417579264
 30
0.0
 40
120.0
  1
基礎断面図
  7
01
 72
     4
 11
1843.536216499625
 21
4967.873417579264
 31
0.0
100
AcDbText
  0
TEXT
  5
196FB
330
19040
100
AcDbEntity
  8
SUNPOU
100
AcDbText
 10
1508.742702358714
 20
4406.833700847593
 30
0.0
 40
89.9993750043402
  1
基準風速   　　 , 地表面粗度区分
  7
01
100
AcDbText
  0
TEXT
  5
196FC
330
19040
100
AcDbEntity
  8
SUNPOU
100
AcDbText
 10
1817.728925250603
 20
4063.295187177354
 30
0.0
 40
90.0
  1
あわせて設計して下さい。
  7
01
100
AcDbText
  0
TEXT
  5
196FD
330
19040
100
AcDbEntity
  8
SUNPOU
100
AcDbText
 10
1992.506131023877
 20
4406.833700847593
 30
0.0
 40
89.9993750043402
  1
34 m/s
 41
0.6700000000000001
  7
01
100
AcDbText
  0
TEXT
  5
196FE
330
19040
100
AcDbEntity
  8
SUNPOU
100
AcDbText
 10
1500.889259948469
 20
4217.580901463074
 30
0.0
 40
90.0
  1
注　）
  7
01
100
AcDbText
  0
TEXT
  5
196FF
330
19040
100
AcDbEntity
  8
SUNPOU
100
AcDbText
 10
1611.523180161209
 20
4217.580901463074
 30
0.0
 40
90.0
  1
1
 41
0.6700000000000001
  7
01
100
AcDbText
  0
ARC
  5
19700
330
19040
100
AcDbEntity
  8
SUNPOU
100
AcDbCircle
 10
1661.700976265913
 20
4524.90683857514
 30
0.0
 40
225.0
100
AcDbArc
 50
148.3472725282829
 51
211.652727471717
  0
TEXT
  5
19701
330
19040
100
AcDbEntity
  8
SUNPOU
100
AcDbText
 10
2286.477719298138
 20
4611.307841490794
 30
0.0
 40
46.28539285937498
  1
2
 41
0.6700000000000001
  7
00
100
AcDbText
  0
LINE
  5
19702
330
19040
100
AcDbEntity
  8
SUNPOU
100
AcDbLine
 10
3345.558263925318
 20
4406.833700847593
 30
0.0
 11
3345.558263925318
 21
4490.326064546376
 31
0.0
  0
LINE
  5
19703
330
19040
100
AcDbEntity
  8
SUNPOU
100
AcDbLine
 10
3311.808263925316
 20
4406.833700847593
 30
0.0
 11
3311.808263925316
 21
4490.326064546376
 31
0.0
  0
LINE
  5
19704
330
19040
100
AcDbEntity
  8
SUNPOU
100
AcDbLine
 10
3328.683263925316
 20
4406.833700847593
 30
0.0
 11
3328.683263925316
 21
4490.326064546376
 31
0.0
  0
LINE
  5
19705
330
19040
100
AcDbEntity
  8
SUNPOU
100
AcDbLine
 10
3300.558263925315
 20
4490.326064546376
 30
0.0
 11
3356.808263925316
 21
4490.326064546376
 31
0.0
  0
LINE
  5
19706
330
19040
100
AcDbEntity
  8
SUNPOU
100
AcDbLine
 10
3300.558263925315
 20
4406.833700847593
 30
0.0
 11
3356.808263925316
 21
4406.833700847593
 31
0.0
  0
TEXT
  5
19707
330
19040
100
AcDbEntity
  8
SUNPOU
100
AcDbText
 10
2652.444825985417
 20
4899.258032963881
 30
0.0
 40
73.84615384615384
  1
25
 41
0.6700000000000001
  7
00
 11
2652.444825985417
 21
4889.411879117727
 31
0.0
100
AcDbText
 73
     1
  0
TEXT
  5
19708
330
19040
100
AcDbEntity
  8
SUNPOU
100
AcDbText
 10
2220.386553862595
 20
4920.18110988696
 30
0.0
 40
92.30769230769228
  1
（ S = 　　  ）
 41
0.6700000000000001
  7
00
 11
2220.386553862595
 21
4907.873417579267
 31
0.0
100
AcDbText
 73
     1
  0
TEXT
  5
19709
330
19040
100
AcDbEntity
  8
SUNPOU
100
AcDbText
 10
2588.495383031037
 20
4917.719571425421
 30
0.0
 40
73.84615384615384
  1
/
 41
0.6700000000000001
  7
00
 11
2588.495383031037
 21
4907.873417579267
 31
0.0
100
AcDbText
 73
     1
  0
TEXT
  5
1970A
330
19040
100
AcDbEntity
  8
SUNPOU
100
AcDbText
 10
2540.089255715666
 20
4936.18110988696
 30
0.0
 40
73.84615384615384
  1
1
 41
0.6700000000000001
  7
00
 11
2540.089255715666
 21
4926.334956040806
 31
0.0
100
AcDbText
 73
     1
  0
TEXT
  5
1970B
330
19040
100
AcDbEntity
  8
SUNPOU
100
AcDbText
 10
3927.753180645426
 20
4561.11941513331
 30
0.0
 40
89.9993750043402
  1
18
 41
0.6700000000000001
  7
01
100
AcDbText
  0
TEXT
  5
1970C
330
19040
100
AcDbEntity
  8
SUNPOU
100
AcDbText
 10
4063.589633431376
 20
4561.11941513331
 30
0.0
 40
89.9993750043402
  1
N/mm
 41
0.6700000000000001
  7
01
100
AcDbText
  0
TEXT
  5
1970D
330
19040
100
AcDbEntity
  8
SUNPOU
100
AcDbText
 10
4368.054115462778
 20
4611.307841490794
 30
0.0
 40
46.28539285937498
  1
2
 41
0.6700000000000001
  7
00
100
AcDbText
  0
ARC
  5
1970E
330
19040
100
AcDbEntity
  8
SUNPOU
100
AcDbCircle
 10
4516.931379996395
 20
4547.391119360931
 30
0.0
 40
225.0
100
AcDbArc
 50
328.3472725282829
 51
31.65272747171703
  0
ENDSEC
  0
SECTION
  2
OBJECTS
  0
DICTIONARY
  5
1902E
330
0
100
AcDbDictionary
281
     1
  3
ACAD_GROUP
350
1902F
  3
ACAD_LAYOUT
350
1903B
  3
ACAD_MLINESTYLE
350
19038
  3
ACAD_PLOTSETTINGS
350
1903A
  3
ACAD_PLOTSTYLENAME
350
19030
  3
AcDbVariableDictionary
350
1970F
  0
DICTIONARY
  5
1902F
102
{ACAD_REACTORS
330
1902E
102
}
330
1902E
100
AcDbDictionary
281
     1
  0
DICTIONARY
  5
1903B
102
{ACAD_REACTORS
330
1902E
102
}
330
1902E
100
AcDbDictionary
281
     1
  3
Model
350
19043
  3
ﾚｲｱｳﾄ1
350
1903F
  0
DICTIONARY
  5
19038
102
{ACAD_REACTORS
330
1902E
102
}
330
1902E
100
AcDbDictionary
281
     1
  3
Standard
350
19039
  0
DICTIONARY
  5
1903A
102
{ACAD_REACTORS
330
1902E
102
}
330
1902E
100
AcDbDictionary
281
     1
  0
ACDBDICTIONARYWDFLT
  5
19030
102
{ACAD_REACTORS
330
1902E
102
}
330
1902E
100
AcDbDictionary
281
     1
  3
Normal
350
19031
100
AcDbDictionaryWithDefault
340
19031
  0
DICTIONARY
  5
1970F
102
{ACAD_REACTORS
330
1902E
102
}
330
1902E
100
AcDbDictionary
281
     1
  3
DIMASSOC
350
19710
  0
LAYOUT
  5
19043
102
{ACAD_REACTORS
330
1903B
102
}
330
1903B
100
AcDbPlotSettings
  1

  2
Muratec V-1200 Is@Web Printer
  4

  6

 40
0.0
 41
0.0
 42
0.0
 43
0.0
 44
0.0
 45
0.0
 46
0.0
 47
0.0
 48
0.0
 49
0.0
140
0.0
141
0.0
142
1.0
143
1.0
 70
  1712
 72
     0
 73
     0
 74
     0
  7

 75
     0
147
1.0
148
0.0
149
0.0
100
AcDbLayout
  1
Model
 70
     1
 71
     0
 10
0.0
 20
0.0
 11
12.0
 21
9.0
 12
0.0
 22
0.0
 32
0.0
 14
0.0
 24
0.0
 34
0.0
 15
0.0
 25
0.0
 35
0.0
146
0.0
 13
0.0
 23
0.0
 33
0.0
 16
1.0
 26
0.0
 36
0.0
 17
0.0
 27
1.0
 37
0.0
 76
     0
330
19040
  0
LAYOUT
  5
1903F
102
{ACAD_REACTORS
330
1903B
102
}
330
1903B
100
AcDbPlotSettings
  1

  2
Muratec V-1200 Is@Web Printer
  4

  6

 40
0.0
 41
0.0
 42
0.0
 43
0.0
 44
0.0
 45
0.0
 46
0.0
 47
0.0
 48
0.0
 49
0.0
140
0.0
141
0.0
142
1.0
143
1.0
 70
   688
 72
     0
 73
     0
 74
     5
  7

 75
    16
147
1.0
148
0.0
149
0.0
100
AcDbLayout
  1
ﾚｲｱｳﾄ1
 70
     0
 71
     1
 10
0.0
 20
0.0
 11
12.0
 21
9.0
 12
0.0
 22
0.0
 32
0.0
 14
1.000000000000000E+20
 24
1.000000000000000E+20
 34
1.000000000000000E+20
 15
-1.000000000000000E+20
 25
-1.000000000000000E+20
 35
-1.000000000000000E+20
146
0.0
 13
0.0
 23
0.0
 33
0.0
 16
1.0
 26
0.0
 36
0.0
 17
0.0
 27
1.0
 37
0.0
 76
     0
330
1903C
  0
MLINESTYLE
  5
19039
102
{ACAD_REACTORS
330
19038
102
}
330
19038
100
AcDbMlineStyle
  2
STANDARD
 70
     0
  3

 62
   256
 51
90.0
 52
90.0
 71
     2
 49
0.5
 62
   256
  6
BYLAYER
 49
-0.5
 62
   256
  6
BYLAYER
  0
ACDBPLACEHOLDER
  5
19031
102
{ACAD_REACTORS
330
19030
102
}
330
19030
  0
DICTIONARYVAR
  5
19710
102
{ACAD_REACTORS
330
1970F
102
}
330
1970F
100
DictionaryVariables
280
     0
  1
1
  0
ENDSEC
  0
EOF
