  0
SECTION
  2
HEADER
  9
$ACADVER
  1
AC1015
  9
$ACADMAINTVER
 70
    13
  9
$DWGCODEPAGE
  3
ANSI_932
  9
$INSBASE
 10
267.0
 20
194.8999999999998
 30
0.0
  9
$EXTMIN
 10
433.9966216520333
 20
163.6908237492789
 30
-0.0000000000000053
  9
$EXTMAX
 10
16382.6660542547
 20
11242.27663824599
 30
0.0000000000000099
  9
$LIMMIN
 10
0.0
 20
0.0
  9
$LIMMAX
 10
16800.0
 20
11880.0
  9
$ORTHOMODE
 70
     0
  9
$REGENMODE
 70
     1
  9
$FILLMODE
 70
     1
  9
$QTEXTMODE
 70
     0
  9
$MIRRTEXT
 70
     0
  9
$LTSCALE
 40
40.0
  9
$ATTMODE
 70
     1
  9
$TEXTSIZE
 40
0.2
  9
$TRACEWID
 40
0.05
  9
$TEXTSTYLE
  7
00
  9
$CLAYER
  8
SUNPOU
  9
$CELTYPE
  6
ByLayer
  9
$CECOLOR
 62
   256
  9
$CELTSCALE
 40
1.0
  9
$DISPSILH
 70
     0
  9
$DIMSCALE
 40
40.0
  9
$DIMASZ
 40
0.5
  9
$DIMEXO
 40
1.0
  9
$DIMDLI
 40
7.0
  9
$DIMRND
 40
0.0
  9
$DIMDLE
 40
3.0
  9
$DIMEXE
 40
1.5
  9
$DIMTP
 40
0.0
  9
$DIMTM
 40
0.0
  9
$DIMTXT
 40
3.0
  9
$DIMCEN
 40
0.0
  9
$DIMTSZ
 40
0.0
  9
$DIMTOL
 70
     0
  9
$DIMLIM
 70
     0
  9
$DIMTIH
 70
     0
  9
$DIMTOH
 70
     0
  9
$DIMSE1
 70
     0
  9
$DIMSE2
 70
     0
  9
$DIMTAD
 70
     1
  9
$DIMZIN
 70
     8
  9
$DIMBLK
  1
DOT
  9
$DIMASO
 70
     1
  9
$DIMSHO
 70
     0
  9
$DIMPOST
  1

  9
$DIMAPOST
  1

  9
$DIMALT
 70
     0
  9
$DIMALTD
 70
     2
  9
$DIMALTF
 40
25.4
  9
$DIMLFAC
 40
1.0
  9
$DIMTOFL
 70
     1
  9
$DIMTVP
 40
0.0
  9
$DIMTIX
 70
     0
  9
$DIMSOXD
 70
     0
  9
$DIMSAH
 70
     1
  9
$DIMBLK1
  1
DOT
  9
$DIMBLK2
  1
DOT
  9
$DIMSTYLE
  2
SUNPOU_図面名
  9
$DIMCLRD
 70
   256
  9
$DIMCLRE
 70
   256
  9
$DIMCLRT
 70
   256
  9
$DIMTFAC
 40
1.0
  9
$DIMGAP
 40
1.5
  9
$DIMJUST
 70
     0
  9
$DIMSD1
 70
     0
  9
$DIMSD2
 70
     0
  9
$DIMTOLJ
 70
     1
  9
$DIMTZIN
 70
     0
  9
$DIMALTZ
 70
     0
  9
$DIMALTTZ
 70
     0
  9
$DIMUPT
 70
     0
  9
$DIMDEC
 70
     4
  9
$DIMTDEC
 70
     4
  9
$DIMALTU
 70
     2
  9
$DIMALTTD
 70
     2
  9
$DIMTXSTY
  7
STANDARD
  9
$DIMAUNIT
 70
     0
  9
$DIMADEC
 70
     0
  9
$DIMALTRND
 40
0.0
  9
$DIMAZIN
 70
     0
  9
$DIMDSEP
 70
    46
  9
$DIMATFIT
 70
     3
  9
$DIMFRAC
 70
     0
  9
$DIMLDRBLK
  1
DOT
  9
$DIMLUNIT
 70
     2
  9
$DIMLWD
 70
    -2
  9
$DIMLWE
 70
    -2
  9
$DIMTMOVE
 70
     0
  9
$LUNITS
 70
     2
  9
$LUPREC
 70
     2
  9
$SKETCHINC
 40
0.1
  9
$FILLETRAD
 40
0.0
  9
$AUNITS
 70
     0
  9
$AUPREC
 70
     0
  9
$MENU
  1
A:\TIGER\MENU\TIGER
  9
$ELEVATION
 40
0.0
  9
$PELEVATION
 40
0.0
  9
$THICKNESS
 40
0.0
  9
$LIMCHECK
 70
     0
  9
$CHAMFERA
 40
0.0
  9
$CHAMFERB
 40
0.0
  9
$CHAMFERC
 40
0.0
  9
$CHAMFERD
 40
0.0
  9
$SKPOLY
 70
     0
  9
$TDCREATE
 40
2450266.571064815
  9
$TDUCREATE
 40
2450266.196064815
  9
$TDUPDATE
 40
2456331.567814664
  9
$TDUUPDATE
 40
2456331.192814664
  9
$TDINDWG
 40
0.1855926157
  9
$TDUSRTIMER
 40
0.1855924306
  9
$USRTIMER
 70
     1
  9
$ANGBASE
 50
0.0
  9
$ANGDIR
 70
     0
  9
$PDMODE
 70
     0
  9
$PDSIZE
 40
0.0
  9
$PLINEWID
 40
0.0
  9
$SPLFRAME
 70
     0
  9
$SPLINETYPE
 70
     6
  9
$SPLINESEGS
 70
     8
  9
$HANDSEED
  5
199B5
  9
$SURFTAB1
 70
     6
  9
$SURFTAB2
 70
     6
  9
$SURFTYPE
 70
     6
  9
$SURFU
 70
     6
  9
$SURFV
 70
     6
  9
$UCSBASE
  2

  9
$UCSNAME
  2

  9
$UCSORG
 10
0.0
 20
0.0
 30
0.0
  9
$UCSXDIR
 10
1.0
 20
0.0
 30
0.0
  9
$UCSYDIR
 10
0.0
 20
1.0
 30
0.0
  9
$UCSORTHOREF
  2

  9
$UCSORTHOVIEW
 70
     0
  9
$UCSORGTOP
 10
0.0
 20
0.0
 30
0.0
  9
$UCSORGBOTTOM
 10
0.0
 20
0.0
 30
0.0
  9
$UCSORGLEFT
 10
0.0
 20
0.0
 30
0.0
  9
$UCSORGRIGHT
 10
0.0
 20
0.0
 30
0.0
  9
$UCSORGFRONT
 10
0.0
 20
0.0
 30
0.0
  9
$UCSORGBACK
 10
0.0
 20
0.0
 30
0.0
  9
$PUCSBASE
  2

  9
$PUCSNAME
  2

  9
$PUCSORG
 10
0.0
 20
0.0
 30
0.0
  9
$PUCSXDIR
 10
1.0
 20
0.0
 30
0.0
  9
$PUCSYDIR
 10
0.0
 20
1.0
 30
0.0
  9
$PUCSORTHOREF
  2

  9
$PUCSORTHOVIEW
 70
     0
  9
$PUCSORGTOP
 10
0.0
 20
0.0
 30
0.0
  9
$PUCSORGBOTTOM
 10
0.0
 20
0.0
 30
0.0
  9
$PUCSORGLEFT
 10
0.0
 20
0.0
 30
0.0
  9
$PUCSORGRIGHT
 10
0.0
 20
0.0
 30
0.0
  9
$PUCSORGFRONT
 10
0.0
 20
0.0
 30
0.0
  9
$PUCSORGBACK
 10
0.0
 20
0.0
 30
0.0
  9
$USERI1
 70
     3
  9
$USERI2
 70
     0
  9
$USERI3
 70
     0
  9
$USERI4
 70
     0
  9
$USERI5
 70
  1103
  9
$USERR1
 40
0.0
  9
$USERR2
 40
1.0
  9
$USERR3
 40
0.0
  9
$USERR4
 40
0.0
  9
$USERR5
 40
0.0
  9
$WORLDVIEW
 70
     1
  9
$SHADEDGE
 70
     3
  9
$SHADEDIF
 70
    70
  9
$TILEMODE
 70
     1
  9
$MAXACTVP
 70
    16
  9
$PINSBASE
 10
0.0
 20
0.0
 30
0.0
  9
$PLIMCHECK
 70
     0
  9
$PEXTMIN
 10
1.000000000000000E+20
 20
1.000000000000000E+20
 30
1.000000000000000E+20
  9
$PEXTMAX
 10
-1.000000000000000E+20
 20
-1.000000000000000E+20
 30
-1.000000000000000E+20
  9
$PLIMMIN
 10
0.0
 20
0.0
  9
$PLIMMAX
 10
12.0
 20
9.0
  9
$UNITMODE
 70
     0
  9
$VISRETAIN
 70
     0
  9
$PLINEGEN
 70
     1
  9
$PSLTSCALE
 70
     0
  9
$TREEDEPTH
 70
  3020
  9
$CMLSTYLE
  2
Standard
  9
$CMLJUST
 70
     0
  9
$CMLSCALE
 40
1.0
  9
$PROXYGRAPHICS
 70
     1
  9
$MEASUREMENT
 70
     0
  9
$CELWEIGHT
370
    -1
  9
$ENDCAPS
280
     0
  9
$JOINSTYLE
280
     0
  9
$LWDISPLAY
290
     0
  9
$INSUNITS
 70
     0
  9
$HYPERLINKBASE
  1

  9
$STYLESHEET
  1

  9
$XEDIT
290
     1
  9
$CEPSNTYPE
380
     0
  9
$PSTYLEMODE
290
     1
  9
$FINGERPRINTGUID
  2
{75CBAB63-D893-45F8-9552-9BF2A6881D0D}
  9
$VERSIONGUID
  2
{3E132CAF-DB10-4F6F-98DB-B3E8F91A4FE4}
  9
$EXTNAMES
290
     1
  9
$PSVPSCALE
 40
0.0
  9
$OLESTARTUP
290
     0
  0
ENDSEC
  0
SECTION
  2
CLASSES
  0
CLASS
  1
ACDBDICTIONARYWDFLT
  2
AcDbDictionaryWithDefault
  3
AutoCAD 2000
 90
        0
280
     0
281
     0
  0
CLASS
  1
ACDBPLACEHOLDER
  2
AcDbPlaceHolder
  3
AutoCAD 2000
 90
        0
280
     0
281
     0
  0
CLASS
  1
LAYOUT
  2
AcDbLayout
  3
AutoCAD 2000
 90
        0
280
     0
281
     0
  0
CLASS
  1
DICTIONARYVAR
  2
AcDbDictionaryVar
  3
AutoCAD 2000
 90
        0
280
     0
281
     0
  0
ENDSEC
  0
SECTION
  2
TABLES
  0
TABLE
  2
VPORT
  5
193BD
330
0
100
AcDbSymbolTable
 70
     2
  0
VPORT
  5
199B4
330
193BD
100
AcDbSymbolTableRecord
100
AcDbViewportTableRecord
  2
*Active
 70
     0
 10
0.0
 20
0.0
 11
1.0
 21
1.0
 12
8408.331337953368
 22
5702.983730997637
 13
0.0
 23
0.0
 14
1.0
 24
1.0
 15
0.0
 25
0.0
 16
0.0
 26
0.0
 36
1.0
 17
0.0
 27
0.0
 37
0.0
 40
12985.73988638911
 41
1.236040609137055
 42
50.0
 43
0.0
 44
0.0
 50
0.0
 51
0.0
 71
     0
 72
 10000
 73
     1
 74
     0
 75
     0
 76
     0
 77
     0
 78
     0
281
     0
 65
     1
110
0.0
120
0.0
130
0.0
111
1.0
121
0.0
131
0.0
112
0.0
122
1.0
132
0.0
 79
     0
146
0.0
  0
ENDTAB
  0
TABLE
  2
LTYPE
  5
193BA
330
0
100
AcDbSymbolTable
 70
     5
  0
LTYPE
  5
193C8
330
193BA
100
AcDbSymbolTableRecord
100
AcDbLinetypeTableRecord
  2
ByBlock
 70
     0
  3

 72
    65
 73
     0
 40
0.0
  0
LTYPE
  5
193C9
330
193BA
100
AcDbSymbolTableRecord
100
AcDbLinetypeTableRecord
  2
ByLayer
 70
     0
  3

 72
    65
 73
     0
 40
0.0
  0
LTYPE
  5
193CA
330
193BA
100
AcDbSymbolTableRecord
100
AcDbLinetypeTableRecord
  2
CONTINUOUS
 70
     0
  3
実線
 72
    65
 73
     0
 40
0.0
  0
LTYPE
  5
193DA
330
193BA
100
AcDbSymbolTableRecord
100
AcDbLinetypeTableRecord
  2
1PL-LL
 70
     0
  3

 72
    65
 73
     4
 40
106.0
 49
100.0
 74
     0
 49
-2.0
 74
     0
 49
2.0
 74
     0
 49
-2.0
 74
     0
  0
LTYPE
  5
193DB
330
193BA
100
AcDbSymbolTableRecord
100
AcDbLinetypeTableRecord
  2
1PL-M
 70
     0
  3

 72
    65
 73
     4
 40
15.0
 49
12.0
 74
     0
 49
-1.0
 74
     0
 49
1.0
 74
     0
 49
-1.0
 74
     0
  0
LTYPE
  5
193DC
330
193BA
100
AcDbSymbolTableRecord
100
AcDbLinetypeTableRecord
  2
2PL-L
 70
     0
  3

 72
    65
 73
     6
 40
60.0
 49
50.0
 74
     0
 49
-2.0
 74
     0
 49
2.0
 74
     0
 49
-2.0
 74
     0
 49
2.0
 74
     0
 49
-2.0
 74
     0
  0
LTYPE
  5
193DD
330
193BA
100
AcDbSymbolTableRecord
100
AcDbLinetypeTableRecord
  2
1PL-12
 70
     0
  3

 72
    65
 73
     4
 40
15.0
 49
12.0
 74
     0
 49
-1.0
 74
     0
 49
1.0
 74
     0
 49
-1.0
 74
     0
  0
ENDTAB
  0
TABLE
  2
LAYER
  5
193B7
330
0
100
AcDbSymbolTable
 70
    19
  0
LAYER
  5
193C5
330
193B7
100
AcDbSymbolTableRecord
100
AcDbLayerTableRecord
  2
0
 70
     0
 62
     7
  6
CONTINUOUS
370
    -3
390
193C4
  0
LAYER
  5
193D7
330
193B7
100
AcDbSymbolTableRecord
100
AcDbLayerTableRecord
  2
SUNPOU
 70
     0
 62
     4
  6
CONTINUOUS
370
    -3
390
193C4
  0
LAYER
  5
193DE
330
193B7
100
AcDbSymbolTableRecord
100
AcDbLayerTableRecord
  2
U1
 70
     0
 62
     3
  6
CONTINUOUS
370
    -3
390
193C4
  0
LAYER
  5
193DF
330
193B7
100
AcDbSymbolTableRecord
100
AcDbLayerTableRecord
  2
U3
 70
     0
 62
     6
  6
CONTINUOUS
370
    -3
390
193C4
  0
LAYER
  5
193E0
330
193B7
100
AcDbSymbolTableRecord
100
AcDbLayerTableRecord
  2
HIKIDASHI
 70
     0
 62
     6
  6
CONTINUOUS
370
    -3
390
193C4
  0
LAYER
  5
193E1
330
193B7
100
AcDbSymbolTableRecord
100
AcDbLayerTableRecord
  2
1PL-M1
 70
     0
 62
     6
  6
1PL-M
370
    -3
390
193C4
  0
LAYER
  5
193E2
330
193B7
100
AcDbSymbolTableRecord
100
AcDbLayerTableRecord
  2
NAME
 70
     0
 62
    20
  6
CONTINUOUS
370
    -3
390
193C4
  0
LAYER
  5
193E3
330
193B7
100
AcDbSymbolTableRecord
100
AcDbLayerTableRecord
  2
FILENAME
 70
     0
 62
     7
  6
CONTINUOUS
370
    -3
390
193C4
  0
LAYER
  5
193E4
330
193B7
100
AcDbSymbolTableRecord
100
AcDbLayerTableRecord
  2
CENTER
 70
     0
 62
     6
  6
1PL-LL
370
    -3
390
193C4
  0
LAYER
  5
193E5
330
193B7
100
AcDbSymbolTableRecord
100
AcDbLayerTableRecord
  2
KISO
 70
     0
 62
     2
  6
CONTINUOUS
370
    -3
390
193C4
  0
LAYER
  5
193E6
330
193B7
100
AcDbSymbolTableRecord
100
AcDbLayerTableRecord
  2
YANE
 70
     0
 62
     1
  6
1PL-12
370
    -3
390
193C4
  0
LAYER
  5
193E7
330
193B7
100
AcDbSymbolTableRecord
100
AcDbLayerTableRecord
  2
HATCH
 70
     0
 62
     1
  6
CONTINUOUS
370
    -3
390
193C4
  0
LAYER
  5
193E8
330
193B7
100
AcDbSymbolTableRecord
100
AcDbLayerTableRecord
  2
HASHIRA
 70
     0
 62
     3
  6
CONTINUOUS
370
    -3
390
193C4
  0
LAYER
  5
193E9
330
193B7
100
AcDbSymbolTableRecord
100
AcDbLayerTableRecord
  2
TEKKIN
 70
     0
 62
     2
  6
CONTINUOUS
370
    -3
390
193C4
  0
LAYER
  5
193EA
330
193B7
100
AcDbSymbolTableRecord
100
AcDbLayerTableRecord
  2
DOMAKON
 70
     0
 62
     2
  6
CONTINUOUS
370
    -3
390
193C4
  0
LAYER
  5
193EB
330
193B7
100
AcDbSymbolTableRecord
100
AcDbLayerTableRecord
  2
YODOROGO
 70
     0
 62
   130
  6
CONTINUOUS
370
    -3
390
193C4
  0
LAYER
  5
193EC
330
193B7
100
AcDbSymbolTableRecord
100
AcDbLayerTableRecord
  2
WAKUSEN-01
 70
     0
 62
    50
  6
CONTINUOUS
370
    -3
390
193C4
  0
LAYER
  5
193ED
330
193B7
100
AcDbSymbolTableRecord
100
AcDbLayerTableRecord
  2
WAKUSEN-02
 70
     0
 62
   130
  6
CONTINUOUS
370
    -3
390
193C4
  0
LAYER
  5
193EE
330
193B7
100
AcDbSymbolTableRecord
100
AcDbLayerTableRecord
  2
WAKUMOJI-01
 70
     0
 62
   130
  6
CONTINUOUS
370
    -3
390
193C4
  0
ENDTAB
  0
TABLE
  2
STYLE
  5
193B8
330
0
100
AcDbSymbolTable
 70
     5
  0
STYLE
  5
193C6
330
193B8
100
AcDbSymbolTableRecord
100
AcDbTextStyleTableRecord
  2
STANDARD
 70
     0
 40
3.0
 41
1.0
 50
0.0
 71
     0
 42
0.2
  3
ROMANS
  4
EXTFONT
  0
STYLE
  5
193D8
330
193B8
100
AcDbSymbolTableRecord
100
AcDbTextStyleTableRecord
  2
00
 70
     0
 40
0.0
 41
0.6666666666666666
 50
0.0
 71
     0
 42
0.2
  3
ROMANS
  4
BIGFONT
  0
STYLE
  5
193EF
330
193B8
100
AcDbSymbolTableRecord
100
AcDbTextStyleTableRecord
  2
01
 70
     0
 40
3.0
 41
1.0
 50
0.0
 71
     0
 42
0.2
  3
ROMANS
  4
BIGFONT
  0
STYLE
  5
193F0
330
193B8
100
AcDbSymbolTableRecord
100
AcDbTextStyleTableRecord
  2
WAKUMOJI
 70
     0
 40
3.0
 41
1.0
 50
0.0
 71
     0
 42
3.0
  3
SIMPLEX
  4
BIGFONT
  0
STYLE
  5
193F1
330
193B8
100
AcDbSymbolTableRecord
100
AcDbTextStyleTableRecord
  2
FILENAME
 70
     0
 40
100.0
 41
1.0
 50
0.0
 71
     0
 42
100.0
  3
romans
  4
bigfont
  0
ENDTAB
  0
TABLE
  2
VIEW
  5
193BB
330
0
100
AcDbSymbolTable
 70
     0
  0
ENDTAB
  0
TABLE
  2
UCS
  5
193BC
330
0
100
AcDbSymbolTable
 70
     0
  0
ENDTAB
  0
TABLE
  2
APPID
  5
193BE
330
0
100
AcDbSymbolTable
 70
     5
  0
APPID
  5
193C7
330
193BE
100
AcDbSymbolTableRecord
100
AcDbRegAppTableRecord
  2
ACAD
 70
     0
  0
APPID
  5
193F2
330
193BE
100
AcDbSymbolTableRecord
100
AcDbRegAppTableRecord
  2
AUTOCAD_POSTSCRIPT_FIGURE
 70
     0
  0
APPID
  5
193F3
330
193BE
100
AcDbSymbolTableRecord
100
AcDbRegAppTableRecord
  2
ACAD_EXEMPT_FROM_CAD_STANDARDS
 70
     0
  0
APPID
  5
193F4
330
193BE
100
AcDbSymbolTableRecord
100
AcDbRegAppTableRecord
  2
ACAD_PSEXT
 70
     0
  0
APPID
  5
193F5
330
193BE
100
AcDbSymbolTableRecord
100
AcDbRegAppTableRecord
  2
ACLAYERTOOLS
 70
     0
  0
ENDTAB
  0
TABLE
  2
DIMSTYLE
  5
193BF
330
0
100
AcDbSymbolTable
 70
     1
100
AcDbDimStyleTable
 71
     0
  0
DIMSTYLE
105
193F6
330
193BF
100
AcDbSymbolTableRecord
100
AcDbDimStyleTableRecord
  2
SUNPOU_図面名
 70
     0
 40
30.0
 41
0.5
 42
1.0
 43
7.0
 44
1.5
 46
3.0
 73
     0
 74
     0
 77
     1
 78
     8
140
3.0
141
0.0
147
1.5
172
     1
173
     1
176
   256
177
   256
178
   256
271
     2
272
     2
279
     2
284
     8
285
     8
286
     8
340
193D8
  0
ENDTAB
  0
TABLE
  2
BLOCK_RECORD
  5
193B6
330
0
100
AcDbSymbolTable
 70
    33
  0
BLOCK_RECORD
  5
193D3
330
193B6
100
AcDbSymbolTableRecord
100
AcDbBlockTableRecord
  2
*Model_Space
340
193D6
  0
BLOCK_RECORD
  5
193CF
330
193B6
100
AcDbSymbolTableRecord
100
AcDbBlockTableRecord
  2
*Paper_Space
340
193D2
  0
BLOCK_RECORD
  5
193FB
330
193B6
100
AcDbSymbolTableRecord
100
AcDbBlockTableRecord
  2
$MODEL_SPACE
340
0
  0
BLOCK_RECORD
  5
193FE
330
193B6
100
AcDbSymbolTableRecord
100
AcDbBlockTableRecord
  2
$PAPER_SPACE
340
0
  0
BLOCK_RECORD
  5
19401
330
193B6
100
AcDbSymbolTableRecord
100
AcDbBlockTableRecord
  2
DOT
340
0
  0
BLOCK_RECORD
  5
19409
330
193B6
100
AcDbSymbolTableRecord
100
AcDbBlockTableRecord
  2
*U3
340
0
  0
BLOCK_RECORD
  5
1940D
330
193B6
100
AcDbSymbolTableRecord
100
AcDbBlockTableRecord
  2
*U4
340
0
  0
BLOCK_RECORD
  5
19411
330
193B6
100
AcDbSymbolTableRecord
100
AcDbBlockTableRecord
  2
*U5
340
0
  0
BLOCK_RECORD
  5
19415
330
193B6
100
AcDbSymbolTableRecord
100
AcDbBlockTableRecord
  2
*U6
340
0
  0
BLOCK_RECORD
  5
19419
330
193B6
100
AcDbSymbolTableRecord
100
AcDbBlockTableRecord
  2
*U7
340
0
  0
BLOCK_RECORD
  5
1941D
330
193B6
100
AcDbSymbolTableRecord
100
AcDbBlockTableRecord
  2
*U8
340
0
  0
BLOCK_RECORD
  5
19421
330
193B6
100
AcDbSymbolTableRecord
100
AcDbBlockTableRecord
  2
*U9
340
0
  0
BLOCK_RECORD
  5
19425
330
193B6
100
AcDbSymbolTableRecord
100
AcDbBlockTableRecord
  2
*U10
340
0
  0
BLOCK_RECORD
  5
19429
330
193B6
100
AcDbSymbolTableRecord
100
AcDbBlockTableRecord
  2
*U11
340
0
  0
BLOCK_RECORD
  5
1942D
330
193B6
100
AcDbSymbolTableRecord
100
AcDbBlockTableRecord
  2
*U12
340
0
  0
BLOCK_RECORD
  5
19431
330
193B6
100
AcDbSymbolTableRecord
100
AcDbBlockTableRecord
  2
*U13
340
0
  0
BLOCK_RECORD
  5
19435
330
193B6
100
AcDbSymbolTableRecord
100
AcDbBlockTableRecord
  2
*U14
340
0
  0
BLOCK_RECORD
  5
19439
330
193B6
100
AcDbSymbolTableRecord
100
AcDbBlockTableRecord
  2
*U15
340
0
  0
BLOCK_RECORD
  5
1943D
330
193B6
100
AcDbSymbolTableRecord
100
AcDbBlockTableRecord
  2
*U16
340
0
  0
BLOCK_RECORD
  5
19441
330
193B6
100
AcDbSymbolTableRecord
100
AcDbBlockTableRecord
  2
*U17
340
0
  0
BLOCK_RECORD
  5
19445
330
193B6
100
AcDbSymbolTableRecord
100
AcDbBlockTableRecord
  2
*U18
340
0
  0
BLOCK_RECORD
  5
19449
330
193B6
100
AcDbSymbolTableRecord
100
AcDbBlockTableRecord
  2
*U19
340
0
  0
BLOCK_RECORD
  5
1944D
330
193B6
100
AcDbSymbolTableRecord
100
AcDbBlockTableRecord
  2
*U20
340
0
  0
BLOCK_RECORD
  5
19451
330
193B6
100
AcDbSymbolTableRecord
100
AcDbBlockTableRecord
  2
*U21
340
0
  0
BLOCK_RECORD
  5
19455
330
193B6
100
AcDbSymbolTableRecord
100
AcDbBlockTableRecord
  2
*U22
340
0
  0
BLOCK_RECORD
  5
19459
330
193B6
100
AcDbSymbolTableRecord
100
AcDbBlockTableRecord
  2
*U23
340
0
  0
BLOCK_RECORD
  5
1945D
330
193B6
100
AcDbSymbolTableRecord
100
AcDbBlockTableRecord
  2
*U24
340
0
  0
BLOCK_RECORD
  5
19461
330
193B6
100
AcDbSymbolTableRecord
100
AcDbBlockTableRecord
  2
*U25
340
0
  0
BLOCK_RECORD
  5
19465
330
193B6
100
AcDbSymbolTableRecord
100
AcDbBlockTableRecord
  2
*U26
340
0
  0
BLOCK_RECORD
  5
19469
330
193B6
100
AcDbSymbolTableRecord
100
AcDbBlockTableRecord
  2
*U27
340
0
  0
BLOCK_RECORD
  5
1946D
330
193B6
100
AcDbSymbolTableRecord
100
AcDbBlockTableRecord
  2
*U28
340
0
  0
BLOCK_RECORD
  5
19471
330
193B6
100
AcDbSymbolTableRecord
100
AcDbBlockTableRecord
  2
*U29
340
0
  0
BLOCK_RECORD
  5
19475
330
193B6
100
AcDbSymbolTableRecord
100
AcDbBlockTableRecord
  2
*U30
340
0
  0
BLOCK_RECORD
  5
19479
330
193B6
100
AcDbSymbolTableRecord
100
AcDbBlockTableRecord
  2
*U31
340
0
  0
ENDTAB
  0
ENDSEC
  0
SECTION
  2
BLOCKS
  0
BLOCK
  5
193D4
330
193D3
100
AcDbEntity
  8
0
100
AcDbBlockBegin
  2
*Model_Space
 70
     0
 10
0.0
 20
0.0
 30
0.0
  3
*Model_Space
  1

  0
ENDBLK
  5
193D5
330
193D3
100
AcDbEntity
  8
0
100
AcDbBlockEnd
  0
BLOCK
  5
193D0
330
193CF
100
AcDbEntity
 67
     1
  8
0
100
AcDbBlockBegin
  2
*Paper_Space
 70
     0
 10
0.0
 20
0.0
 30
0.0
  3
*Paper_Space
  1

  0
ENDBLK
  5
193D1
330
193CF
100
AcDbEntity
 67
     1
  8
0
100
AcDbBlockEnd
  0
BLOCK
  5
193FC
330
193FB
100
AcDbEntity
  8
0
100
AcDbBlockBegin
  2
$MODEL_SPACE
 70
     0
 10
0.0
 20
0.0
 30
0.0
  3
$MODEL_SPACE
  1

  0
ENDBLK
  5
193FD
330
193FB
100
AcDbEntity
  8
0
100
AcDbBlockEnd
  0
BLOCK
  5
193FF
330
193FE
100
AcDbEntity
  8
0
100
AcDbBlockBegin
  2
$PAPER_SPACE
 70
     0
 10
0.0
 20
0.0
 30
0.0
  3
$PAPER_SPACE
  1

  0
ENDBLK
  5
19400
330
193FE
100
AcDbEntity
  8
0
100
AcDbBlockEnd
  0
BLOCK
  5
19402
330
19401
100
AcDbEntity
  8
0
100
AcDbBlockBegin
  2
DOT
 70
     0
 10
0.0
 20
0.0
 30
0.0
  3
DOT
  1

  0
LWPOLYLINE
  5
19403
330
19401
100
AcDbEntity
  8
0
  6
ByBlock
 62
     0
100
AcDbPolyline
 90
        2
 70
     1
 43
0.75
 10
-0.375
 20
0.0
 42
1.0
 10
0.375
 20
0.0
 42
1.0
  0
LINE
  5
19407
330
19401
100
AcDbEntity
  8
0
  6
ByBlock
 62
     0
100
AcDbLine
 10
-0.75
 20
0.0
 30
0.0
 11
-1.5
 21
0.0
 31
0.0
  0
ENDBLK
  5
19408
330
19401
100
AcDbEntity
  8
0
100
AcDbBlockEnd
  0
BLOCK
  5
1940A
330
19409
100
AcDbEntity
  8
0
100
AcDbBlockBegin
  2
*U3
 70
     1
 10
0.0
 20
0.0
 30
0.0
  3
*U3
  1

  0
TEXT
  5
1940B
330
19409
100
AcDbEntity
  8
SUNPOU
100
AcDbText
 10
3378.619628952101
 20
3332.183932023017
 30
0.0
 40
90.0
  1
300
 41
0.6666666666666666
  7
00
100
AcDbText
  0
ENDBLK
  5
1940C
330
19409
100
AcDbEntity
  8
0
100
AcDbBlockEnd
  0
BLOCK
  5
1940E
330
1940D
100
AcDbEntity
  8
0
100
AcDbBlockBegin
  2
*U4
 70
     1
 10
0.0
 20
0.0
 30
0.0
  3
*U4
  1

  0
TEXT
  5
1940F
330
1940D
100
AcDbEntity
  8
SUNPOU
100
AcDbText
 10
2698.333796409537
 20
2094.469646308733
 30
0.0
 40
90.0
  1
380
 50
90.0
 41
0.6666666666666666
  7
00
100
AcDbText
  0
ENDBLK
  5
19410
330
1940D
100
AcDbEntity
  8
0
100
AcDbBlockEnd
  0
BLOCK
  5
19412
330
19411
100
AcDbEntity
  8
0
100
AcDbBlockBegin
  2
*U5
 70
     1
 10
0.0
 20
0.0
 30
0.0
  3
*U5
  1

  0
TEXT
  5
19413
330
19411
100
AcDbEntity
  8
SUNPOU
100
AcDbText
 10
3617.191057523529
 20
1424.183932023016
 30
0.0
 40
90.0
  1
600
 41
0.6666666666666666
  7
00
100
AcDbText
  0
ENDBLK
  5
19414
330
19411
100
AcDbEntity
  8
0
100
AcDbBlockEnd
  0
BLOCK
  5
19416
330
19415
100
AcDbEntity
  8
0
100
AcDbBlockBegin
  2
*U6
 70
     1
 10
0.0
 20
0.0
 30
0.0
  3
*U6
  1

  0
TEXT
  5
19417
330
19415
100
AcDbEntity
  8
SUNPOU
100
AcDbText
 10
7665.044415498293
 20
1424.183932023014
 30
0.0
 40
90.0
  1
800
 41
0.6666666666666666
  7
00
100
AcDbText
  0
ENDBLK
  5
19418
330
19415
100
AcDbEntity
  8
0
100
AcDbBlockEnd
  0
BLOCK
  5
1941A
330
19419
100
AcDbEntity
  8
0
100
AcDbBlockBegin
  2
*U7
 70
     1
 10
0.0
 20
0.0
 30
0.0
  3
*U7
  1

  0
TEXT
  5
1941B
330
19419
100
AcDbEntity
  8
SUNPOU
100
AcDbText
 10
6584.758582955732
 20
2094.469646308731
 30
0.0
 40
90.0
  1
380
 50
90.0
 41
0.6666666666666666
  7
00
100
AcDbText
  0
ENDBLK
  5
1941C
330
19419
100
AcDbEntity
  8
0
100
AcDbBlockEnd
  0
BLOCK
  5
1941E
330
1941D
100
AcDbEntity
  8
0
100
AcDbBlockBegin
  2
*U8
 70
     1
 10
0.0
 20
0.0
 30
0.0
  3
*U8
  1

  0
TEXT
  5
1941F
330
1941D
100
AcDbEntity
  8
SUNPOU
100
AcDbText
 10
7345.044415498293
 20
3332.183932023015
 30
0.0
 40
90.0
  1
400
 41
0.6666666666666666
  7
00
100
AcDbText
  0
ENDBLK
  5
19420
330
1941D
100
AcDbEntity
  8
0
100
AcDbBlockEnd
  0
BLOCK
  5
19422
330
19421
100
AcDbEntity
  8
0
100
AcDbBlockBegin
  2
*U9
 70
     1
 10
0.0
 20
0.0
 30
0.0
  3
*U9
  1

  0
TEXT
  5
19423
330
19421
100
AcDbEntity
  8
SUNPOU
100
AcDbText
 10
3618.6196289521
 20
1214.183932023016
 30
0.0
 40
90.0
  1
800
 41
0.6666666666666666
  7
00
100
AcDbText
  0
ENDBLK
  5
19424
330
19421
100
AcDbEntity
  8
0
100
AcDbBlockEnd
  0
BLOCK
  5
19426
330
19425
100
AcDbEntity
  8
0
100
AcDbBlockBegin
  2
*U10
 70
     1
 10
0.0
 20
0.0
 30
0.0
  3
*U10
  1

  0
TEXT
  5
19427
330
19425
100
AcDbEntity
  8
SUNPOU
100
AcDbText
 10
2698.333796409539
 20
1706.183932023019
 30
0.0
 40
90.0
  1
100
 50
90.0
 41
0.6666666666666666
  7
00
100
AcDbText
  0
ENDBLK
  5
19428
330
19425
100
AcDbEntity
  8
0
100
AcDbBlockEnd
  0
BLOCK
  5
1942A
330
19429
100
AcDbEntity
  8
0
100
AcDbBlockBegin
  2
*U11
 70
     1
 10
0.0
 20
0.0
 30
0.0
  3
*U11
  1

  0
TEXT
  5
1942B
330
19429
100
AcDbEntity
  8
SUNPOU
100
AcDbText
 10
2498.333796409538
 20
2014.469646308733
 30
0.0
 40
90.0
  1
480
 50
90.0
 41
0.6666666666666666
  7
00
100
AcDbText
  0
ENDBLK
  5
1942C
330
19429
100
AcDbEntity
  8
0
100
AcDbBlockEnd
  0
BLOCK
  5
1942E
330
1942D
100
AcDbEntity
  8
0
100
AcDbBlockBegin
  2
*U12
 70
     1
 10
0.0
 20
0.0
 30
0.0
  3
*U12
  1

  0
TEXT
  5
1942F
330
1942D
100
AcDbEntity
  8
SUNPOU
100
AcDbText
 10
6584.758582955732
 20
1706.183932023017
 30
0.0
 40
90.0
  1
100
 50
90.0
 41
0.6666666666666666
  7
00
100
AcDbText
  0
ENDBLK
  5
19430
330
1942D
100
AcDbEntity
  8
0
100
AcDbBlockEnd
  0
BLOCK
  5
19432
330
19431
100
AcDbEntity
  8
0
100
AcDbBlockBegin
  2
*U13
 70
     1
 10
0.0
 20
0.0
 30
0.0
  3
*U13
  1

  0
TEXT
  5
19433
330
19431
100
AcDbEntity
  8
SUNPOU
100
AcDbText
 10
6384.758582955733
 20
2014.46964630873
 30
0.0
 40
90.0
  1
480
 50
90.0
 41
0.6666666666666666
  7
00
100
AcDbText
  0
ENDBLK
  5
19434
330
19431
100
AcDbEntity
  8
0
100
AcDbBlockEnd
  0
BLOCK
  5
19436
330
19435
100
AcDbEntity
  8
0
100
AcDbBlockBegin
  2
*U14
 70
     1
 10
0.0
 20
0.0
 30
0.0
  3
*U14
  1

  0
TEXT
  5
19437
330
19435
100
AcDbEntity
  8
SUNPOU
100
AcDbText
 10
7632.187272641154
 20
1214.183932023014
 30
0.0
 40
90.0
  1
1000
 41
0.6666666666666666
  7
00
100
AcDbText
  0
ENDBLK
  5
19438
330
19435
100
AcDbEntity
  8
0
100
AcDbBlockEnd
  0
BLOCK
  5
1943A
330
19439
100
AcDbEntity
  8
0
100
AcDbBlockBegin
  2
*U15
 70
     1
 10
0.0
 20
0.0
 30
0.0
  3
*U15
  1

  0
TEXT
  5
1943B
330
19439
100
AcDbEntity
  8
SUNPOU
100
AcDbText
 10
6498.502746271779
 20
10040.71536047325
 30
0.0
 40
90.0
  1
400
 41
0.6666666666666666
  7
00
100
AcDbText
  0
ENDBLK
  5
1943C
330
19439
100
AcDbEntity
  8
0
100
AcDbBlockEnd
  0
BLOCK
  5
1943E
330
1943D
100
AcDbEntity
  8
0
100
AcDbBlockBegin
  2
*U16
 70
     1
 10
0.0
 20
0.0
 30
0.0
  3
*U16
  1

  0
TEXT
  5
1943F
330
1943D
100
AcDbEntity
  8
SUNPOU
100
AcDbText
 10
8069.931317700349
 20
10040.71536047325
 30
0.0
 40
90.0
  1
2800
 41
0.6666666666666666
  7
00
100
AcDbText
  0
ENDBLK
  5
19440
330
1943D
100
AcDbEntity
  8
0
100
AcDbBlockEnd
  0
BLOCK
  5
19442
330
19441
100
AcDbEntity
  8
0
100
AcDbBlockBegin
  2
*U17
 70
     1
 10
0.0
 20
0.0
 30
0.0
  3
*U17
  1

  0
TEXT
  5
19443
330
19441
100
AcDbEntity
  8
SUNPOU
100
AcDbText
 10
8069.931317700349
 20
10250.71536047325
 30
0.0
 40
90.0
  1
3600
 41
0.6666666666666666
  7
00
100
AcDbText
  0
ENDBLK
  5
19444
330
19441
100
AcDbEntity
  8
0
100
AcDbBlockEnd
  0
BLOCK
  5
19446
330
19445
100
AcDbEntity
  8
0
100
AcDbBlockBegin
  2
*U18
 70
     1
 10
0.0
 20
0.0
 30
0.0
  3
*U18
  1

  0
TEXT
  5
19447
330
19445
100
AcDbEntity
  8
SUNPOU
100
AcDbText
 10
9698.502746271776
 20
10040.71536047325
 30
0.0
 40
90.0
  1
400
 41
0.6666666666666666
  7
00
100
AcDbText
  0
ENDBLK
  5
19448
330
19445
100
AcDbEntity
  8
0
100
AcDbBlockEnd
  0
BLOCK
  5
1944A
330
19449
100
AcDbEntity
  8
0
100
AcDbBlockBegin
  2
*U19
 70
     1
 10
0.0
 20
0.0
 30
0.0
  3
*U19
  1

  0
TEXT
  5
1944B
330
19449
100
AcDbEntity
  8
SUNPOU
100
AcDbText
 10
10549.21703198606
 20
7381.42964618754
 30
0.0
 40
90.0
  1
4200
 50
90.0
 41
0.6666666666666666
  7
00
100
AcDbText
  0
ENDBLK
  5
1944C
330
19449
100
AcDbEntity
  8
0
100
AcDbBlockEnd
  0
BLOCK
  5
1944E
330
1944D
100
AcDbEntity
  8
0
100
AcDbBlockBegin
  2
*U20
 70
     1
 10
0.0
 20
0.0
 30
0.0
  3
*U20
  1

  0
TEXT
  5
1944F
330
1944D
100
AcDbEntity
  8
SUNPOU
100
AcDbText
 10
10339.21703198606
 20
5460.001074758968
 30
0.0
 40
90.0
  1
300
 50
90.0
 41
0.6666666666666666
  7
00
100
AcDbText
  0
ENDBLK
  5
19450
330
1944D
100
AcDbEntity
  8
0
100
AcDbBlockEnd
  0
BLOCK
  5
19452
330
19451
100
AcDbEntity
  8
0
100
AcDbBlockBegin
  2
*U21
 70
     1
 10
0.0
 20
0.0
 30
0.0
  3
*U21
  1

  0
TEXT
  5
19453
330
19451
100
AcDbEntity
  8
SUNPOU
100
AcDbText
 10
10339.21703198606
 20
6477.143931901827
 30
0.0
 40
90.0
  1
1800
 50
90.0
 41
0.6666666666666666
  7
00
100
AcDbText
  0
ENDBLK
  5
19454
330
19451
100
AcDbEntity
  8
0
100
AcDbBlockEnd
  0
BLOCK
  5
19456
330
19455
100
AcDbEntity
  8
0
100
AcDbBlockBegin
  2
*U22
 70
     1
 10
0.0
 20
0.0
 30
0.0
  3
*U22
  1

  0
TEXT
  5
19457
330
19455
100
AcDbEntity
  8
SUNPOU
100
AcDbText
 10
10339.21703198606
 20
8277.143931901827
 30
0.0
 40
90.0
  1
1800
 50
90.0
 41
0.6666666666666666
  7
00
100
AcDbText
  0
ENDBLK
  5
19458
330
19455
100
AcDbEntity
  8
0
100
AcDbBlockEnd
  0
BLOCK
  5
1945A
330
19459
100
AcDbEntity
  8
0
100
AcDbBlockBegin
  2
*U23
 70
     1
 10
0.0
 20
0.0
 30
0.0
  3
*U23
  1

  0
TEXT
  5
1945B
330
19459
100
AcDbEntity
  8
SUNPOU
100
AcDbText
 10
10339.21703198606
 20
9360.001074758967
 30
0.0
 40
90.0
  1
300
 50
90.0
 41
0.6666666666666666
  7
00
100
AcDbText
  0
ENDBLK
  5
1945C
330
19459
100
AcDbEntity
  8
0
100
AcDbBlockEnd
  0
BLOCK
  5
1945E
330
1945D
100
AcDbEntity
  8
0
100
AcDbBlockBegin
  2
*U24
 70
     1
 10
0.0
 20
0.0
 30
0.0
  3
*U24
  1

  0
TEXT
  5
1945F
330
1945D
100
AcDbEntity
  8
SUNPOU
100
AcDbText
 10
9322.074174843205
 20
8740.715360473251
 30
0.0
 40
90.0
  1
600
 41
0.6666666666666666
  7
00
100
AcDbText
  0
ENDBLK
  5
19460
330
1945D
100
AcDbEntity
  8
0
100
AcDbBlockEnd
  0
BLOCK
  5
19462
330
19461
100
AcDbEntity
  8
0
100
AcDbBlockBegin
  2
*U25
 70
     1
 10
0.0
 20
0.0
 30
0.0
  3
*U25
  1

  0
TEXT
  5
19463
330
19461
100
AcDbEntity
  8
SUNPOU
100
AcDbText
 10
8764.217031986062
 20
9208.572503330399
 30
0.0
 40
90.0
  1
600
 50
90.0
 41
0.6666666666666666
  7
00
100
AcDbText
  0
ENDBLK
  5
19464
330
19461
100
AcDbEntity
  8
0
100
AcDbBlockEnd
  0
BLOCK
  5
19466
330
19465
100
AcDbEntity
  8
0
100
AcDbBlockBegin
  2
*U26
 70
     1
 10
0.0
 20
0.0
 30
0.0
  3
*U26
  1

  0
TEXT
  5
19467
330
19465
100
AcDbEntity
  8
SUNPOU
100
AcDbText
 10
9323.502746271772
 20
8110.715360473252
 30
0.0
 40
90.0
  1
800
 41
0.6666666666666666
  7
00
100
AcDbText
  0
ENDBLK
  5
19468
330
19465
100
AcDbEntity
  8
0
100
AcDbBlockEnd
  0
BLOCK
  5
1946A
330
19469
100
AcDbEntity
  8
0
100
AcDbBlockBegin
  2
*U27
 70
     1
 10
0.0
 20
0.0
 30
0.0
  3
*U27
  1

  0
TEXT
  5
1946B
330
19469
100
AcDbEntity
  8
SUNPOU
100
AcDbText
 10
8764.217031986062
 20
7410.001074758966
 30
0.0
 40
90.0
  1
800
 50
90.0
 41
0.6666666666666666
  7
00
100
AcDbText
  0
ENDBLK
  5
1946C
330
19469
100
AcDbEntity
  8
0
100
AcDbBlockEnd
  0
BLOCK
  5
1946E
330
1946D
100
AcDbEntity
  8
0
100
AcDbBlockBegin
  2
*U28
 70
     1
 10
0.0
 20
0.0
 30
0.0
  3
*U28
  1

  0
TEXT
  5
1946F
330
1946D
100
AcDbEntity
  8
SUNPOU
100
AcDbText
 10
9497.074174843204
 20
8740.715360473251
 30
0.0
 40
90.0
  1
600
 41
0.6666666666666666
  7
00
100
AcDbText
  0
ENDBLK
  5
19470
330
1946D
100
AcDbEntity
  8
0
100
AcDbBlockEnd
  0
BLOCK
  5
19472
330
19471
100
AcDbEntity
  8
0
100
AcDbBlockBegin
  2
*U29
 70
     1
 10
0.0
 20
0.0
 30
0.0
  3
*U29
  1

  0
TEXT
  5
19473
330
19471
100
AcDbEntity
  8
SUNPOU
100
AcDbText
 10
8939.217031986061
 20
9208.572503330399
 30
0.0
 40
90.0
  1
600
 50
90.0
 41
0.6666666666666666
  7
00
100
AcDbText
  0
ENDBLK
  5
19474
330
19471
100
AcDbEntity
  8
0
100
AcDbBlockEnd
  0
BLOCK
  5
19476
330
19475
100
AcDbEntity
  8
0
100
AcDbBlockBegin
  2
*U30
 70
     1
 10
0.0
 20
0.0
 30
0.0
  3
*U30
  1

  0
TEXT
  5
19477
330
19475
100
AcDbEntity
  8
SUNPOU
100
AcDbText
 10
9498.502746271773
 20
8110.715360473252
 30
0.0
 40
90.0
  1
800
 41
0.6666666666666666
  7
00
100
AcDbText
  0
ENDBLK
  5
19478
330
19475
100
AcDbEntity
  8
0
100
AcDbBlockEnd
  0
BLOCK
  5
1947A
330
19479
100
AcDbEntity
  8
0
100
AcDbBlockBegin
  2
*U31
 70
     1
 10
0.0
 20
0.0
 30
0.0
  3
*U31
  1

  0
TEXT
  5
1947B
330
19479
100
AcDbEntity
  8
SUNPOU
100
AcDbText
 10
8939.217031986061
 20
7410.001074758966
 30
0.0
 40
90.0
  1
800
 50
90.0
 41
0.6666666666666666
  7
00
100
AcDbText
  0
ENDBLK
  5
1947C
330
19479
100
AcDbEntity
  8
0
100
AcDbBlockEnd
  0
ENDSEC
  0
SECTION
  2
ENTITIES
  0
TEXT
  5
1947D
330
193D3
100
AcDbEntity
  8
NAME
100
AcDbText
 10
12303.32857318295
 20
1055.0
 30
0.0
 40
120.0
  1
Y O K C
 41
0.6666666666666666
  7
00
100
AcDbText
  0
TEXT
  5
1947E
330
193D3
100
AcDbEntity
  8
NAME
100
AcDbText
 10
11227.73587134625
 20
1055.0
 30
0.0
 40
120.0
  1
ヨド自転車置場　　　  型
  7
01
100
AcDbText
  0
TEXT
  5
1947F
330
193D3
100
AcDbEntity
  8
NAME
100
AcDbText
 10
11112.07508082364
 20
875.0
 30
0.0
 40
120.0
  1
背合せタイプ（埋め込み方式）
  7
01
 72
     4
 11
12072.07508082364
 21
935.0
 31
0.0
100
AcDbText
  0
TEXT
  5
1949D
330
193D3
100
AcDbEntity
  8
NAME
100
AcDbText
 10
12854.79999999999
 20
541.0000000000001
 30
0.0
 40
160.0
  1
<3／3>
 41
0.6
  7
01
 72
     2
 11
13354.0
 21
541.0000000000001
 31
0.0
100
AcDbText
  0
TEXT
  5
1949E
330
193D3
100
AcDbEntity
  8
NAME
100
AcDbText
 10
10896.04264730428
 20
541.0
 30
0.0
 40
160.0
  1
YOKC-280
 41
0.7
  7
01
 72
     2
 11
11776.04264730429
 21
541.0
 31
0.0
100
AcDbText
  0
TEXT
  5
1949F
330
193D3
100
AcDbEntity
  8
NAME
100
AcDbText
 10
11816.04264730429
 20
541.0
 30
0.0
 40
160.0
  1
型（一般地用）
 41
0.8
  7
01
100
AcDbText
  0
LINE
  5
194A0
330
193D3
100
AcDbEntity
  8
U3
100
AcDbLine
 10
3113.143113299374
 20
2404.183932023015
 30
0.0
 11
3224.333914666386
 21
2292.993130656007
 31
0.0
  0
LINE
  5
194A1
330
193D3
100
AcDbEntity
  8
U3
100
AcDbLine
 10
3011.31973680851
 20
2302.360555532156
 30
0.0
 11
3077.496360317645
 21
2236.183932023021
 31
0.0
  0
LINE
  5
194A2
330
193D3
100
AcDbEntity
  8
U3
100
AcDbLine
 10
3062.231425053941
 20
2353.272243777589
 30
0.0
 11
3179.31973680851
 21
2236.183932023021
 31
0.0
  0
LINE
  5
194A3
330
193D3
100
AcDbEntity
  8
U3
100
AcDbLine
 10
2776.333914666386
 20
2303.169754165144
 30
0.0
 11
2843.31973680851
 21
2236.183932023019
 31
0.0
  0
LINE
  5
194A4
330
193D3
100
AcDbEntity
  8
U3
100
AcDbLine
 10
3224.333914666386
 20
2404.183932023017
 30
0.0
 11
2776.333914666386
 21
2404.183932023017
 31
0.0
  0
LINE
  5
194A5
330
193D3
100
AcDbEntity
  8
U3
100
AcDbLine
 10
2894.231425053934
 20
2287.095620268444
 30
0.0
 11
3011.31973680851
 21
2404.183932023017
 31
0.0
  0
LINE
  5
194A6
330
193D3
100
AcDbEntity
  8
U3
100
AcDbLine
 10
2945.143113299374
 20
2236.183932023021
 30
0.0
 11
3113.143113299374
 21
2404.183932023017
 31
0.0
  0
LINE
  5
194A7
330
193D3
100
AcDbEntity
  8
U3
100
AcDbLine
 10
2777.143113299321
 20
2404.183932023017
 30
0.0
 11
2945.143113299374
 21
2236.183932023021
 31
0.0
  0
LINE
  5
194A8
330
193D3
100
AcDbEntity
  8
U3
100
AcDbLine
 10
2712.333914666388
 20
2404.183932023017
 30
0.0
 11
2105.143113299378
 21
2404.183932023017
 31
0.0
  0
LINE
  5
194A9
330
193D3
100
AcDbEntity
  8
U3
100
AcDbLine
 10
2675.319736808516
 20
2302.360555532155
 30
0.0
 11
2690.829693650987
 21
2286.850598689685
 31
0.0
  0
LINE
  5
194AA
330
193D3
100
AcDbEntity
  8
U3
100
AcDbLine
 10
2659.809779966045
 20
2286.850598689685
 30
0.0
 11
2712.333914666388
 21
2339.374733390029
 31
0.0
  0
LINE
  5
194AB
330
193D3
100
AcDbEntity
  8
U3
100
AcDbLine
 10
2390.231425053941
 20
2353.272243777586
 30
0.0
 11
2507.319736808512
 21
2236.183932023017
 31
0.0
  0
LINE
  5
194AC
330
193D3
100
AcDbEntity
  8
U3
100
AcDbLine
 10
2339.319736808512
 20
2302.360555532155
 30
0.0
 11
2405.496360317653
 21
2236.183932023017
 31
0.0
  0
LINE
  5
194AD
330
193D3
100
AcDbEntity
  8
U3
100
AcDbLine
 10
2558.231425053949
 20
2287.095620268451
 30
0.0
 11
2675.319736808516
 21
2404.183932023015
 31
0.0
  0
LINE
  5
194AE
330
193D3
100
AcDbEntity
  8
U3
100
AcDbLine
 10
2273.143113299378
 20
2236.183932023017
 30
0.0
 11
2441.143113299379
 21
2404.183932023015
 31
0.0
  0
LINE
  5
194AF
330
193D3
100
AcDbEntity
  8
U3
100
AcDbLine
 10
2171.319736808516
 20
2338.007308513879
 30
0.0
 11
2237.496360317652
 21
2404.183932023013
 31
0.0
  0
LINE
  5
194B0
330
193D3
100
AcDbEntity
  8
U3
100
AcDbLine
 10
2105.143113299378
 20
2404.183932023017
 30
0.0
 11
2273.143113299378
 21
2236.183932023017
 31
0.0
  0
LINE
  5
194B1
330
193D3
100
AcDbEntity
  8
U3
100
AcDbLine
 10
2222.231425053946
 20
2287.095620268448
 30
0.0
 11
2339.319736808516
 21
2404.183932023013
 31
0.0
  0
LINE
  5
194B2
330
193D3
100
AcDbEntity
  8
U3
100
AcDbLine
 10
2441.143113299379
 20
2404.183932023015
 30
0.0
 11
2558.476446632713
 21
2286.850598689685
 31
0.0
  0
LINE
  5
194B3
330
193D3
100
AcDbEntity
  8
HATCH
100
AcDbLine
 10
4742.519737066388
 20
2293.439306423018
 30
0.0
 11
4761.719737066387
 21
2260.183932023017
 31
0.0
  0
LINE
  5
194B4
330
193D3
100
AcDbEntity
  8
HATCH
100
AcDbLine
 10
4886.519737066389
 20
2293.439306423018
 30
0.0
 11
4905.719737066387
 21
2260.183932023017
 31
0.0
  0
LINE
  5
194B5
330
193D3
100
AcDbEntity
  8
HATCH
100
AcDbLine
 10
4884.345362666385
 20
2356.183932023017
 30
0.0
 11
4903.545362666386
 21
2322.928556023017
 31
0.0
  0
LINE
  5
194B6
330
193D3
100
AcDbEntity
  8
HATCH
100
AcDbLine
 10
4867.319737066389
 20
2260.183932023017
 30
0.0
 11
4922.745362666384
 21
2356.183932023017
 31
0.0
  0
LINE
  5
194B7
330
193D3
100
AcDbEntity
  8
HATCH
100
AcDbLine
 10
4990.727527466386
 20
2484.183932023019
 30
0.0
 11
4862.727527466386
 21
2356.183932023017
 31
0.0
  0
LINE
  5
194B8
330
193D3
100
AcDbEntity
  8
HATCH
100
AcDbLine
 10
4895.692375466388
 20
2484.183932023019
 30
0.0
 11
4767.692375466388
 21
2356.183932023017
 31
0.0
  0
LINE
  5
194B9
330
193D3
100
AcDbEntity
  8
HATCH
100
AcDbLine
 10
4943.209951466386
 20
2484.183932023019
 30
0.0
 11
4815.209951466385
 21
2356.183932023017
 31
0.0
  0
LINE
  5
194BA
330
193D3
100
AcDbEntity
  8
HATCH
100
AcDbLine
 10
4614.519737066387
 20
2293.439306423018
 30
0.0
 11
4633.719737066387
 21
2260.183932023017
 31
0.0
  0
LINE
  5
194BB
330
193D3
100
AcDbEntity
  8
HATCH
100
AcDbLine
 10
4612.345362666385
 20
2356.183932023017
 30
0.0
 11
4631.545362666384
 21
2322.928556023017
 31
0.0
  0
LINE
  5
194BC
330
193D3
100
AcDbEntity
  8
HATCH
100
AcDbLine
 10
4595.319737066386
 20
2260.183932023017
 30
0.0
 11
4650.745362666384
 21
2356.183932023017
 31
0.0
  0
LINE
  5
194BD
330
193D3
100
AcDbEntity
  8
HATCH
100
AcDbLine
 10
4371.494221866386
 20
2356.183932023017
 30
0.0
 11
4355.494221866386
 21
2356.183932023017
 31
0.0
  0
LINE
  5
194BE
330
193D3
100
AcDbEntity
  8
HATCH
100
AcDbLine
 10
4470.519737066386
 20
2293.439306423018
 30
0.0
 11
4489.719737066387
 21
2260.183932023017
 31
0.0
  0
LINE
  5
194BF
330
193D3
100
AcDbEntity
  8
HATCH
100
AcDbLine
 10
4451.319737066387
 20
2260.183932023017
 30
0.0
 11
4506.745362666385
 21
2356.183932023017
 31
0.0
  0
LINE
  5
194C0
330
193D3
100
AcDbEntity
  8
HATCH
100
AcDbLine
 10
4468.345362666385
 20
2356.183932023017
 30
0.0
 11
4487.545362666384
 21
2322.928556023017
 31
0.0
  0
LINE
  5
194C1
330
193D3
100
AcDbEntity
  8
HATCH
100
AcDbLine
 10
4510.727527466386
 20
2484.183932023019
 30
0.0
 11
4382.727527466385
 21
2356.183932023017
 31
0.0
  0
LINE
  5
194C2
330
193D3
100
AcDbEntity
  8
HATCH
100
AcDbLine
 10
4326.519737066386
 20
2293.439306423018
 30
0.0
 11
4345.719737066387
 21
2260.183932023017
 31
0.0
  0
LINE
  5
194C3
330
193D3
100
AcDbEntity
  8
HATCH
100
AcDbLine
 10
4324.345362666385
 20
2356.183932023017
 30
0.0
 11
4343.545362666385
 21
2322.928556023017
 31
0.0
  0
LINE
  5
194C4
330
193D3
100
AcDbEntity
  8
HATCH
100
AcDbLine
 10
4184.333914666385
 20
2296.581555464547
 30
0.0
 11
4218.745362666385
 21
2356.183932023017
 31
0.0
  0
LINE
  5
194C5
330
193D3
100
AcDbEntity
  8
HATCH
100
AcDbLine
 10
4184.333914666385
 20
2349.275557207625
 30
0.0
 11
4199.545362666386
 21
2322.928556023017
 31
0.0
  0
LINE
  5
194C6
330
193D3
100
AcDbEntity
  8
HATCH
100
AcDbLine
 10
4184.333914666385
 20
2290.297058750307
 30
0.0
 11
4201.719737066387
 21
2260.183932023017
 31
0.0
  0
LINE
  5
194C7
330
193D3
100
AcDbEntity
  8
HATCH
100
AcDbLine
 10
4227.494221866386
 20
2356.183932023017
 30
0.0
 11
4211.494221866386
 21
2356.183932023017
 31
0.0
  0
LINE
  5
194C8
330
193D3
100
AcDbEntity
  8
HATCH
100
AcDbLine
 10
4463.209951466384
 20
2484.183932023019
 30
0.0
 11
4335.209951466388
 21
2356.183932023017
 31
0.0
  0
LINE
  5
194C9
330
193D3
100
AcDbEntity
  8
HATCH
100
AcDbLine
 10
4415.692375466385
 20
2484.183932023019
 30
0.0
 11
4287.692375466387
 21
2356.183932023017
 31
0.0
  0
LINE
  5
194CA
330
193D3
100
AcDbEntity
  8
HATCH
100
AcDbLine
 10
4307.319737066388
 20
2260.183932023017
 30
0.0
 11
4362.745362666386
 21
2356.183932023017
 31
0.0
  0
LINE
  5
194CB
330
193D3
100
AcDbEntity
  8
HATCH
100
AcDbLine
 10
4740.345362666385
 20
2356.183932023017
 30
0.0
 11
4759.545362666385
 21
2322.928556023017
 31
0.0
  0
LINE
  5
194CC
330
193D3
100
AcDbEntity
  8
HATCH
100
AcDbLine
 10
4723.319737066386
 20
2260.183932023017
 30
0.0
 11
4778.745362666384
 21
2356.183932023017
 31
0.0
  0
LINE
  5
194CD
330
193D3
100
AcDbEntity
  8
KISO
100
AcDbLine
 10
4184.333914666385
 20
2260.183932023017
 30
0.0
 11
5021.727409209538
 21
2260.183932023017
 31
0.0
  0
LINE
  5
194CE
330
193D3
100
AcDbEntity
  8
KISO
100
AcDbLine
 10
5021.727409209538
 20
2356.183932023017
 30
0.0
 11
4184.333914666385
 21
2356.183932023017
 31
0.0
  0
LINE
  5
194CF
330
193D3
100
AcDbEntity
  8
KISO
100
AcDbLine
 10
3064.333914666386
 20
1876.183932023018
 30
0.0
 11
3064.333914666386
 21
1764.183932023017
 31
0.0
  0
LINE
  5
194D0
330
193D3
100
AcDbEntity
  8
1PL-M1
100
AcDbLine
 10
3704.333914666389
 20
1684.183932023018
 30
0.0
 11
3704.333914666387
 21
3332.183932023017
 31
0.0
  0
LINE
  5
194D1
330
193D3
100
AcDbEntity
  8
HASHIRA
100
AcDbLine
 10
3652.333914666386
 20
1876.183932023019
 30
0.0
 11
3652.333914666386
 21
2964.183932023017
 31
0.0
  0
LINE
  5
194D2
330
193D3
100
AcDbEntity
  8
HASHIRA
100
AcDbLine
 10
3756.333914666386
 20
1876.183932023019
 30
0.0
 11
3756.333914666384
 21
2964.183932023017
 31
0.0
  0
LINE
  5
194D3
330
193D3
100
AcDbEntity
  8
KISO
100
AcDbLine
 10
4344.333914666385
 20
1876.183932023018
 30
0.0
 11
4344.333914666385
 21
1716.183932023017
 31
0.0
  0
LINE
  5
194D4
330
193D3
100
AcDbEntity
  8
HATCH
100
AcDbLine
 10
3758.930376559231
 20
1716.183932023018
 30
0.0
 11
3851.306419225895
 21
1876.183932023019
 31
0.0
  0
LINE
  5
194D5
330
193D3
100
AcDbEntity
  8
HATCH
100
AcDbLine
 10
3797.973085892562
 20
1876.183932023019
 30
0.0
 11
3824.639752559228
 21
1829.995909356355
 31
0.0
  0
LINE
  5
194D6
330
193D3
100
AcDbEntity
  8
HATCH
100
AcDbLine
 10
3785.597043225897
 20
1762.371953356349
 30
0.0
 11
3812.263709892564
 21
1716.183932023018
 31
0.0
  0
LINE
  5
194D7
330
193D3
100
AcDbEntity
  8
HATCH
100
AcDbLine
 10
3585.597043225897
 20
1762.371953356349
 30
0.0
 11
3612.263709892564
 21
1716.183932023018
 31
0.0
  0
LINE
  5
194D8
330
193D3
100
AcDbEntity
  8
HATCH
100
AcDbLine
 10
3597.973085892562
 20
1876.183932023019
 30
0.0
 11
3624.639752559229
 21
1829.995909356355
 31
0.0
  0
LINE
  5
194D9
330
193D3
100
AcDbEntity
  8
KISO
100
AcDbLine
 10
4184.333914666385
 20
2484.183932023019
 30
0.0
 11
4184.333914666385
 21
1876.183932023018
 31
0.0
  0
LINE
  5
194DA
330
193D3
100
AcDbEntity
  8
KISO
100
AcDbLine
 10
3652.333914666386
 20
2484.183932023019
 30
0.0
 11
3224.333914666386
 21
2484.183932023019
 31
0.0
  0
LINE
  5
194DB
330
193D3
100
AcDbEntity
  8
HATCH
100
AcDbLine
 10
3614.393906272658
 20
2484.183932023019
 30
0.0
 11
3224.333914666388
 21
2094.123940416748
 31
0.0
  0
LINE
  5
194DC
330
193D3
100
AcDbEntity
  8
HATCH
100
AcDbLine
 10
3566.876330272656
 20
2484.183932023019
 30
0.0
 11
3224.333914666386
 21
2141.641516416747
 31
0.0
  0
LINE
  5
194DD
330
193D3
100
AcDbEntity
  8
HATCH
100
AcDbLine
 10
3519.358755872656
 20
2484.183932023019
 30
0.0
 11
3224.333914666386
 21
2189.159090816747
 31
0.0
  0
LINE
  5
194DE
330
193D3
100
AcDbEntity
  8
HATCH
100
AcDbLine
 10
3652.333914666386
 20
2134.531888053615
 30
0.0
 11
3497.985958635791
 21
1980.183932023019
 31
0.0
  0
LINE
  5
194DF
330
193D3
100
AcDbEntity
  8
HATCH
100
AcDbLine
 10
3385.597043225897
 20
1762.371953356349
 30
0.0
 11
3412.263709892564
 21
1716.183932023018
 31
0.0
  0
LINE
  5
194E0
330
193D3
100
AcDbEntity
  8
HATCH
100
AcDbLine
 10
3358.93037655923
 20
1716.183932023018
 30
0.0
 11
3451.306419225895
 21
1876.183932023019
 31
0.0
  0
LINE
  5
194E1
330
193D3
100
AcDbEntity
  8
HATCH
100
AcDbLine
 10
3397.973085892562
 20
1876.183932023019
 30
0.0
 11
3424.639752559229
 21
1829.995909356355
 31
0.0
  0
LINE
  5
194E2
330
193D3
100
AcDbEntity
  8
KISO
100
AcDbLine
 10
3064.333914666386
 20
1876.183932023019
 30
0.0
 11
3064.333914666386
 21
1716.183932023018
 31
0.0
  0
LINE
  5
194E3
330
193D3
100
AcDbEntity
  8
HATCH
100
AcDbLine
 10
3185.597043225897
 20
1762.371953356349
 30
0.0
 11
3212.263709892564
 21
1716.183932023018
 31
0.0
  0
LINE
  5
194E4
330
193D3
100
AcDbEntity
  8
HATCH
100
AcDbLine
 10
3197.973085892562
 20
1876.183932023019
 30
0.0
 11
3224.639752559229
 21
1829.995909356355
 31
0.0
  0
LINE
  5
194E5
330
193D3
100
AcDbEntity
  8
HATCH
100
AcDbLine
 10
3158.930376559231
 20
1716.183932023018
 30
0.0
 11
3251.306419225895
 21
1876.183932023019
 31
0.0
  0
LINE
  5
194E6
330
193D3
100
AcDbEntity
  8
KISO
100
AcDbLine
 10
3224.333914666386
 20
2484.183932023019
 30
0.0
 11
3224.333914666386
 21
1876.183932023019
 31
0.0
  0
LINE
  5
194E7
330
193D3
100
AcDbEntity
  8
HATCH
100
AcDbLine
 10
3652.333914666386
 20
2229.567038453616
 30
0.0
 11
3298.95080823579
 21
1876.183932023019
 31
0.0
  0
LINE
  5
194E8
330
193D3
100
AcDbEntity
  8
HATCH
100
AcDbLine
 10
3652.333914666386
 20
2182.049464053616
 30
0.0
 11
3450.46838263579
 21
1980.183932023019
 31
0.0
  0
LINE
  5
194E9
330
193D3
100
AcDbEntity
  8
HATCH
100
AcDbLine
 10
3558.930376559231
 20
1716.183932023018
 30
0.0
 11
3651.306419225895
 21
1876.183932023019
 31
0.0
  0
LINE
  5
194EA
330
193D3
100
AcDbEntity
  8
HATCH
100
AcDbLine
 10
4001.985958635791
 20
2484.183932023019
 30
0.0
 11
3756.333914666386
 21
2238.531888053614
 31
0.0
  0
LINE
  5
194EB
330
193D3
100
AcDbEntity
  8
HATCH
100
AcDbLine
 10
3954.46838263579
 20
2484.183932023019
 30
0.0
 11
3756.333914666386
 21
2286.049464053613
 31
0.0
  0
LINE
  5
194EC
330
193D3
100
AcDbEntity
  8
HATCH
100
AcDbLine
 10
3906.95080823579
 20
2484.183932023019
 30
0.0
 11
3756.333914666386
 21
2333.567038453614
 31
0.0
  0
LINE
  5
194ED
330
193D3
100
AcDbEntity
  8
KISO
100
AcDbLine
 10
3064.333914666386
 20
1716.183932023018
 30
0.0
 11
4344.333914666385
 21
1716.183932023017
 31
0.0
  0
LINE
  5
194EE
330
193D3
100
AcDbEntity
  8
KISO
100
AcDbLine
 10
5021.727409209538
 20
2484.183932023019
 30
0.0
 11
3756.333914666386
 21
2484.183932023019
 31
0.0
  0
LINE
  5
194EF
330
193D3
100
AcDbEntity
  8
HATCH
100
AcDbLine
 10
3997.973085892562
 20
1876.183932023019
 30
0.0
 11
4024.639752559227
 21
1829.995909356355
 31
0.0
  0
LINE
  5
194F0
330
193D3
100
AcDbEntity
  8
HATCH
100
AcDbLine
 10
3958.93037655923
 20
1716.183932023018
 30
0.0
 11
4051.306419225895
 21
1876.183932023019
 31
0.0
  0
LINE
  5
194F1
330
193D3
100
AcDbEntity
  8
HATCH
100
AcDbLine
 10
3985.597043225897
 20
1762.371953356349
 30
0.0
 11
4012.263709892564
 21
1716.183932023018
 31
0.0
  0
LINE
  5
194F2
330
193D3
100
AcDbEntity
  8
HATCH
100
AcDbLine
 10
4184.333914666385
 20
2278.939835690481
 30
0.0
 11
3885.578010998928
 21
1980.183932023019
 31
0.0
  0
LINE
  5
194F3
330
193D3
100
AcDbEntity
  8
HATCH
100
AcDbLine
 10
4184.333914666385
 20
2326.457411690481
 30
0.0
 11
3838.060434998926
 21
1980.183932023019
 31
0.0
  0
LINE
  5
194F4
330
193D3
100
AcDbEntity
  8
HATCH
100
AcDbLine
 10
4184.333914666385
 20
2373.974986090479
 30
0.0
 11
3756.333914666386
 21
1945.974986090478
 31
0.0
  0
LINE
  5
194F5
330
193D3
100
AcDbEntity
  8
HATCH
100
AcDbLine
 10
4184.333914666385
 20
1986.382933727344
 30
0.0
 11
4074.134912962058
 21
1876.183932023019
 31
0.0
  0
LINE
  5
194F6
330
193D3
100
AcDbEntity
  8
HATCH
100
AcDbLine
 10
4184.333914666385
 20
1938.865359327343
 30
0.0
 11
4121.652487362065
 21
1876.183932023019
 31
0.0
  0
LINE
  5
194F7
330
193D3
100
AcDbEntity
  8
HATCH
100
AcDbLine
 10
4184.333914666385
 20
1891.347783327345
 30
0.0
 11
4169.17006336206
 21
1876.183932023019
 31
0.0
  0
LINE
  5
194F8
330
193D3
100
AcDbEntity
  8
HATCH
100
AcDbLine
 10
3434.46838263579
 20
1964.183932023018
 30
0.0
 11
3346.468382635791
 21
1876.183932023019
 31
0.0
  0
LINE
  5
194F9
330
193D3
100
AcDbEntity
  8
HATCH
100
AcDbLine
 10
3481.985958635791
 20
1964.183932023018
 30
0.0
 11
3393.985958635791
 21
1876.183932023019
 31
0.0
  0
LINE
  5
194FA
330
193D3
100
AcDbEntity
  8
HATCH
100
AcDbLine
 10
3774.542860598926
 20
1964.183932023018
 30
0.0
 11
3756.333914666386
 21
1945.974986090478
 31
0.0
  0
LINE
  5
194FB
330
193D3
100
AcDbEntity
  8
HATCH
100
AcDbLine
 10
3822.060434998928
 20
1964.183932023018
 30
0.0
 11
3756.333914666386
 21
1898.457411690476
 31
0.0
  0
LINE
  5
194FC
330
193D3
100
AcDbEntity
  8
HATCH
100
AcDbLine
 10
3869.578010998927
 20
1964.183932023018
 30
0.0
 11
3781.578010998928
 21
1876.183932023019
 31
0.0
  0
LINE
  5
194FD
330
193D3
100
AcDbEntity
  8
KISO
100
AcDbLine
 10
3064.333914666386
 20
1876.183932023019
 30
0.0
 11
3064.333914666386
 21
1876.183932023019
 31
0.0
  0
LINE
  5
194FE
330
193D3
100
AcDbEntity
  8
SUNPOU
100
AcDbLine
 10
3719.333914666388
 20
3287.183932023017
 30
0.0
 11
4979.564421916637
 21
3287.183932023017
 31
0.0
  0
TEXT
  5
194FF
330
193D3
100
AcDbEntity
  8
SUNPOU
100
AcDbText
 10
4340.161613806854
 20
3332.183932023017
 30
0.0
 40
90.0
  1
2800
 41
0.6666666666666666
  7
00
 72
     4
 11
4454.447328092569
 21
3377.183932023017
 31
0.0
100
AcDbText
  0
TEXT
  5
19500
330
193D3
100
AcDbEntity
  8
HIKIDASHI
100
AcDbText
 10
2665.84219057196
 20
2825.613541661912
 30
0.0
 40
90.0
  1
%%c
 41
0.6700000000000001
  7
00
100
AcDbText
  0
LINE
  5
19501
330
193D3
100
AcDbEntity
  8
HIKIDASHI
100
AcDbLine
 10
2275.958721952463
 20
2754.183932023015
 30
0.0
 11
3121.257717497342
 21
2754.183932023015
 31
0.0
  0
TEXT
  5
19502
330
193D3
100
AcDbEntity
  8
HIKIDASHI
100
AcDbText
 10
2831.547719537899
 20
2798.974945822925
 30
0.0
 40
89.55223880597014
  1
350
 41
0.6700000000000001
  7
00
100
AcDbText
  0
TEXT
  5
19503
330
193D3
100
AcDbEntity
  8
HIKIDASHI
100
AcDbText
 10
2750.412340384764
 20
2810.377961873764
 30
0.0
 40
89.55223880597014
  1
x
 41
0.6700000000000001
  7
00
100
AcDbText
  0
TEXT
  5
19504
330
193D3
100
AcDbEntity
  8
HIKIDASHI
100
AcDbText
 10
2305.958721952463
 20
2799.183932023015
 30
0.0
 40
90.0
  1
鉄筋
  7
01
100
AcDbText
  0
TEXT
  5
19505
330
193D3
100
AcDbEntity
  8
HIKIDASHI
100
AcDbText
 10
2537.465435554122
 20
2799.183932023015
 30
0.0
 40
89.55223880597014
  1
10
 41
0.6700000000000001
  7
00
100
AcDbText
  0
LINE
  5
19506
330
193D3
100
AcDbEntity
  8
HIKIDASHI
100
AcDbLine
 10
2780.663191527326
 20
2994.183932023015
 30
0.0
 11
3134.663191527326
 21
2994.183932023015
 31
0.0
  0
TEXT
  5
19507
330
193D3
100
AcDbEntity
  8
HIKIDASHI
100
AcDbText
 10
2810.663191527325
 20
3039.183932023015
 30
0.0
 40
90.0
  1
土　間
  7
01
100
AcDbText
  0
LINE
  5
19508
330
193D3
100
AcDbEntity
  8
HIKIDASHI
100
AcDbLine
 10
2839.167309682428
 20
1304.183932023019
 30
0.0
 11
2470.400932854805
 21
1304.183932023019
 31
0.0
  0
TEXT
  5
19509
330
193D3
100
AcDbEntity
  8
HIKIDASHI
100
AcDbText
 10
2497.468540446716
 20
1349.183932023019
 30
0.0
 40
90.0
  1
砕　石
  7
01
 72
     2
 11
2797.468540446716
 21
1394.183932023019
 31
0.0
100
AcDbText
 73
     2
  0
TEXT
  5
1950A
330
193D3
100
AcDbEntity
  8
HIKIDASHI
100
AcDbText
 10
3780.537517545164
 20
925.1349131803479
 30
0.0
 40
90.0
  1
断 面
  7
01
100
AcDbText
  0
LINE
  5
1950B
330
193D3
100
AcDbEntity
  8
HIKIDASHI
100
AcDbLine
 10
3356.520238048601
 20
880.134913180348
 30
0.0
 11
4052.14759128417
 21
880.134913180348
 31
0.0
  0
LINE
  5
1950C
330
193D3
100
AcDbEntity
  8
HIKIDASHI
100
AcDbLine
 10
3356.520238048601
 20
850.1349131803479
 30
0.0
 11
4052.14759128417
 21
850.1349131803479
 31
0.0
  0
TEXT
  5
1950D
330
193D3
100
AcDbEntity
  8
HIKIDASHI
100
AcDbText
 10
3386.520238048602
 20
925.1349131803479
 30
0.0
 40
90.0
  1
A  ~  A'
 41
0.6700000000000001
  7
00
100
AcDbText
  0
TEXT
  5
1950E
330
193D3
100
AcDbEntity
  8
SUNPOU
100
AcDbText
 10
4660.022830783562
 20
1458.903907439804
 30
0.0
 40
90.0
  1
ベース筋
  7
01
 72
     4
 11
4864.022830783563
 21
1503.903907439804
 31
0.0
100
AcDbText
  0
TEXT
  5
1950F
330
193D3
100
AcDbEntity
  8
SUNPOU
100
AcDbText
 10
4520.599973640699
 20
1293.65456534739
 30
0.0
 40
90.0
  1
4-D13×4-D13
 41
0.6700000000000001
  7
01
 72
     4
 11
4864.022830783557
 21
1338.65456534739
 31
0.0
100
AcDbText
  0
TEXT
  5
19510
330
193D3
100
AcDbEntity
  8
HIKIDASHI
100
AcDbText
 10
4444.49673216886
 20
2006.931554141245
 30
0.0
 40
90.0
  1
敷砂利又は砕石
  7
01
100
AcDbText
  0
LINE
  5
19511
330
193D3
100
AcDbEntity
  8
HIKIDASHI
100
AcDbLine
 10
4397.836947371135
 20
1961.931554141245
 30
0.0
 11
5200.487295746516
 21
1961.931554141245
 31
0.0
  0
TEXT
  5
19512
330
193D3
100
AcDbEntity
  8
SUNPOU
100
AcDbText
 10
4717.660162466765
 20
2619.183932023019
 30
0.0
 40
90.0
  1
F.L
 41
0.6666666666666666
  7
00
 72
     4
 11
4786.231591038194
 21
2664.183932023019
 31
0.0
100
AcDbText
  0
LINE
  5
19513
330
193D3
100
AcDbEntity
  8
SUNPOU
100
AcDbLine
 10
4786.231591038194
 20
2484.183932023019
 30
0.0
 11
4838.193115265261
 21
2574.183932023019
 31
0.0
  0
LINE
  5
19514
330
193D3
100
AcDbEntity
  8
SUNPOU
100
AcDbLine
 10
4734.270066811128
 20
2574.183932023019
 30
0.0
 11
4786.231591038194
 21
2484.183932023019
 31
0.0
  0
LINE
  5
19515
330
193D3
100
AcDbEntity
  8
SUNPOU
100
AcDbLine
 10
4838.193115265261
 20
2574.183932023019
 30
0.0
 11
4734.270066811128
 21
2574.183932023019
 31
0.0
  0
TEXT
  5
19516
330
193D3
100
AcDbEntity
  8
HIKIDASHI
100
AcDbText
 10
8772.515803529449
 20
4879.531802304223
 30
0.0
 40
80.0
  1
)
 41
0.6700000000000001
  7
00
100
AcDbText
  0
TEXT
  5
19517
330
193D3
100
AcDbEntity
  8
HIKIDASHI
100
AcDbText
 10
8571.657054840066
 20
4895.09328005242
 30
0.0
 40
80.0
  1
1
 41
0.6700000000000001
  7
00
100
AcDbText
  0
TEXT
  5
19518
330
193D3
100
AcDbEntity
  8
HIKIDASHI
100
AcDbText
 10
8604.794192704373
 20
4879.531802304223
 30
0.0
 40
80.0
  1
/
 41
0.6700000000000001
  7
00
100
AcDbText
  0
TEXT
  5
19519
330
193D3
100
AcDbEntity
  8
HIKIDASHI
100
AcDbText
 10
8651.089347467019
 20
4853.363971103946
 30
0.0
 40
80.0
  1
40
 41
0.6700000000000001
  7
00
100
AcDbText
  0
TEXT
  5
1951A
330
193D3
100
AcDbEntity
  8
HIKIDASHI
100
AcDbText
 10
8390.949138902394
 20
4879.531802304223
 30
0.0
 40
80.0
  1
(S=
 41
0.6700000000000001
  7
00
100
AcDbText
  0
TEXT
  5
1951B
330
193D3
100
AcDbEntity
  8
HIKIDASHI
100
AcDbText
 10
7548.949138902393
 20
4855.715360473254
 30
0.0
 40
120.0
  1
基 礎 伏 図
  7
01
 72
     2
 11
8300.949138902394
 21
4855.715360473254
 31
0.0
100
AcDbText
  0
LINE
  5
1951C
330
193D3
100
AcDbEntity
  8
U3
100
AcDbLine
 10
6598.75870121258
 20
2404.183932023014
 30
0.0
 11
5991.56789984557
 21
2404.183932023014
 31
0.0
  0
LINE
  5
1951D
330
193D3
100
AcDbEntity
  8
U3
100
AcDbLine
 10
5991.56789984557
 20
2404.183932023014
 30
0.0
 11
6159.567899845569
 21
2236.183932023014
 31
0.0
  0
LINE
  5
1951E
330
193D3
100
AcDbEntity
  8
U3
100
AcDbLine
 10
6057.744523354709
 20
2338.007308513876
 30
0.0
 11
6123.921146863847
 21
2404.183932023011
 31
0.0
  0
LINE
  5
1951F
330
193D3
100
AcDbEntity
  8
U3
100
AcDbLine
 10
6546.234566512237
 20
2286.850598689682
 30
0.0
 11
6598.75870121258
 21
2339.374733390026
 31
0.0
  0
LINE
  5
19520
330
193D3
100
AcDbEntity
  8
U3
100
AcDbLine
 10
6159.567899845569
 20
2236.183932023014
 30
0.0
 11
6327.567899845568
 21
2404.183932023013
 31
0.0
  0
LINE
  5
19521
330
193D3
100
AcDbEntity
  8
U3
100
AcDbLine
 10
6225.744523354705
 20
2302.360555532152
 30
0.0
 11
6291.921146863845
 21
2236.183932023014
 31
0.0
  0
LINE
  5
19522
330
193D3
100
AcDbEntity
  8
U3
100
AcDbLine
 10
6276.656211600133
 20
2353.272243777583
 30
0.0
 11
6393.744523354705
 21
2236.183932023014
 31
0.0
  0
LINE
  5
19523
330
193D3
100
AcDbEntity
  8
U3
100
AcDbLine
 10
6108.65621160014
 20
2287.095620268444
 30
0.0
 11
6225.744523354709
 21
2404.183932023011
 31
0.0
  0
LINE
  5
19524
330
193D3
100
AcDbEntity
  8
U3
100
AcDbLine
 10
6444.65621160014
 20
2287.09562026845
 30
0.0
 11
6561.744523354708
 21
2404.183932023013
 31
0.0
  0
LINE
  5
19525
330
193D3
100
AcDbEntity
  8
U3
100
AcDbLine
 10
6327.567899845568
 20
2404.183932023013
 30
0.0
 11
6444.901233178907
 21
2286.850598689682
 31
0.0
  0
LINE
  5
19526
330
193D3
100
AcDbEntity
  8
U3
100
AcDbLine
 10
6561.744523354708
 20
2302.360555532152
 30
0.0
 11
6577.254480197176
 21
2286.850598689682
 31
0.0
  0
LINE
  5
19527
330
193D3
100
AcDbEntity
  8
U3
100
AcDbLine
 10
6662.75870121258
 20
2303.169754165141
 30
0.0
 11
6729.744523354703
 21
2236.183932023017
 31
0.0
  0
LINE
  5
19528
330
193D3
100
AcDbEntity
  8
U3
100
AcDbLine
 10
6663.567899845512
 20
2404.183932023014
 30
0.0
 11
6831.567899845566
 21
2236.183932023017
 31
0.0
  0
LINE
  5
19529
330
193D3
100
AcDbEntity
  8
U3
100
AcDbLine
 10
6831.567899845566
 20
2236.183932023017
 30
0.0
 11
6999.567899845565
 21
2404.183932023016
 31
0.0
  0
LINE
  5
1952A
330
193D3
100
AcDbEntity
  8
U3
100
AcDbLine
 10
6897.744523354704
 20
2302.360555532156
 30
0.0
 11
6963.921146863839
 21
2236.183932023017
 31
0.0
  0
LINE
  5
1952B
330
193D3
100
AcDbEntity
  8
U3
100
AcDbLine
 10
6948.656211600134
 20
2353.272243777587
 30
0.0
 11
7065.744523354704
 21
2236.183932023017
 31
0.0
  0
LINE
  5
1952C
330
193D3
100
AcDbEntity
  8
U3
100
AcDbLine
 10
7110.758701212581
 20
2404.183932023014
 30
0.0
 11
6662.75870121258
 21
2404.183932023016
 31
0.0
  0
LINE
  5
1952D
330
193D3
100
AcDbEntity
  8
U3
100
AcDbLine
 10
6780.656211600126
 20
2287.095620268441
 30
0.0
 11
6897.744523354704
 21
2404.183932023014
 31
0.0
  0
LINE
  5
1952E
330
193D3
100
AcDbEntity
  8
U3
100
AcDbLine
 10
6999.567899845565
 20
2404.183932023013
 30
0.0
 11
7070.758701212584
 21
2332.993130655997
 31
0.0
  0
LINE
  5
1952F
330
193D3
100
AcDbEntity
  8
KISO
100
AcDbLine
 10
8550.758701212577
 20
1876.183932023014
 30
0.0
 11
8550.758701212577
 21
1716.183932023016
 31
0.0
  0
LINE
  5
19530
330
193D3
100
AcDbEntity
  8
HATCH
100
AcDbLine
 10
7778.688496438757
 20
1716.183932023015
 30
0.0
 11
7871.064539105423
 21
1876.183932023014
 31
0.0
  0
LINE
  5
19531
330
193D3
100
AcDbEntity
  8
HATCH
100
AcDbLine
 10
7817.731205772083
 20
1876.183932023014
 30
0.0
 11
7844.397872438751
 21
1829.99590935635
 31
0.0
  0
LINE
  5
19532
330
193D3
100
AcDbEntity
  8
HATCH
100
AcDbLine
 10
7805.355163105422
 20
1762.371953356345
 30
0.0
 11
7832.02182977209
 21
1716.183932023015
 31
0.0
  0
LINE
  5
19533
330
193D3
100
AcDbEntity
  8
HATCH
100
AcDbLine
 10
7605.355163105421
 20
1762.371953356345
 30
0.0
 11
7632.02182977209
 21
1716.183932023015
 31
0.0
  0
LINE
  5
19534
330
193D3
100
AcDbEntity
  8
HATCH
100
AcDbLine
 10
7617.731205772082
 20
1876.183932023014
 30
0.0
 11
7644.397872438751
 21
1829.99590935635
 31
0.0
  0
LINE
  5
19535
330
193D3
100
AcDbEntity
  8
KISO
100
AcDbLine
 10
8390.758701212579
 20
2484.183932023016
 30
0.0
 11
8390.758701212579
 21
1876.183932023016
 31
0.0
  0
LINE
  5
19536
330
193D3
100
AcDbEntity
  8
KISO
100
AcDbLine
 10
7698.75870121258
 20
2484.183932023016
 30
0.0
 11
7110.758701212581
 21
2484.183932023016
 31
0.0
  0
LINE
  5
19537
330
193D3
100
AcDbEntity
  8
HATCH
100
AcDbLine
 10
7660.818692818849
 20
2484.183932023016
 30
0.0
 11
7110.758701212581
 21
1934.123940416742
 31
0.0
  0
LINE
  5
19538
330
193D3
100
AcDbEntity
  8
HATCH
100
AcDbLine
 10
7613.30111681885
 20
2484.183932023016
 30
0.0
 11
7110.758701212581
 21
1981.641516416744
 31
0.0
  0
LINE
  5
19539
330
193D3
100
AcDbEntity
  8
HATCH
100
AcDbLine
 10
7565.783542418848
 20
2484.183932023016
 30
0.0
 11
7110.758701212581
 21
2029.159090816739
 31
0.0
  0
LINE
  5
1953A
330
193D3
100
AcDbEntity
  8
HATCH
100
AcDbLine
 10
7698.75870121258
 20
2134.531888053611
 30
0.0
 11
7544.410745181983
 21
1980.183932023016
 31
0.0
  0
LINE
  5
1953B
330
193D3
100
AcDbEntity
  8
HATCH
100
AcDbLine
 10
7405.355163105422
 20
1762.371953356345
 30
0.0
 11
7432.021829772089
 21
1716.183932023015
 31
0.0
  0
LINE
  5
1953C
330
193D3
100
AcDbEntity
  8
HATCH
100
AcDbLine
 10
7378.688496438757
 20
1716.183932023015
 30
0.0
 11
7471.064539105417
 21
1876.183932023014
 31
0.0
  0
LINE
  5
1953D
330
193D3
100
AcDbEntity
  8
HATCH
100
AcDbLine
 10
7417.731205772082
 20
1876.183932023014
 30
0.0
 11
7444.39787243875
 21
1829.99590935635
 31
0.0
  0
LINE
  5
1953E
330
193D3
100
AcDbEntity
  8
KISO
100
AcDbLine
 10
6950.758701212581
 20
1876.183932023014
 30
0.0
 11
6950.758701212581
 21
1716.183932023015
 31
0.0
  0
LINE
  5
1953F
330
193D3
100
AcDbEntity
  8
HATCH
100
AcDbLine
 10
7205.355163105423
 20
1762.371953356345
 30
0.0
 11
7232.02182977209
 21
1716.183932023015
 31
0.0
  0
LINE
  5
19540
330
193D3
100
AcDbEntity
  8
HATCH
100
AcDbLine
 10
7217.731205772086
 20
1876.183932023014
 30
0.0
 11
7244.39787243875
 21
1829.99590935635
 31
0.0
  0
LINE
  5
19541
330
193D3
100
AcDbEntity
  8
HATCH
100
AcDbLine
 10
7178.688496438756
 20
1716.183932023015
 30
0.0
 11
7271.064539105417
 21
1876.183932023014
 31
0.0
  0
LINE
  5
19542
330
193D3
100
AcDbEntity
  8
KISO
100
AcDbLine
 10
7110.758701212581
 20
2484.183932023016
 30
0.0
 11
7110.758701212581
 21
1876.183932023016
 31
0.0
  0
LINE
  5
19543
330
193D3
100
AcDbEntity
  8
HATCH
100
AcDbLine
 10
7698.75870121258
 20
2229.567038453613
 30
0.0
 11
7345.375594781983
 21
1876.183932023016
 31
0.0
  0
LINE
  5
19544
330
193D3
100
AcDbEntity
  8
HATCH
100
AcDbLine
 10
7698.75870121258
 20
2182.049464053612
 30
0.0
 11
7496.893169181982
 21
1980.183932023016
 31
0.0
  0
LINE
  5
19545
330
193D3
100
AcDbEntity
  8
HATCH
100
AcDbLine
 10
7578.688496438757
 20
1716.183932023015
 30
0.0
 11
7671.064539105417
 21
1876.183932023014
 31
0.0
  0
LINE
  5
19546
330
193D3
100
AcDbEntity
  8
HATCH
100
AcDbLine
 10
8048.410745181982
 20
2484.183932023016
 30
0.0
 11
7802.758701212581
 21
2238.531888053611
 31
0.0
  0
LINE
  5
19547
330
193D3
100
AcDbEntity
  8
HATCH
100
AcDbLine
 10
8000.893169181983
 20
2484.183932023016
 30
0.0
 11
7802.758701212581
 21
2286.049464053611
 31
0.0
  0
LINE
  5
19548
330
193D3
100
AcDbEntity
  8
HATCH
100
AcDbLine
 10
7953.375594781983
 20
2484.183932023016
 30
0.0
 11
7802.758701212581
 21
2333.567038453611
 31
0.0
  0
LINE
  5
19549
330
193D3
100
AcDbEntity
  8
KISO
100
AcDbLine
 10
6950.758701212581
 20
1716.183932023015
 30
0.0
 11
8550.758701212577
 21
1716.183932023016
 31
0.0
  0
LINE
  5
1954A
330
193D3
100
AcDbEntity
  8
HATCH
100
AcDbLine
 10
8017.731205772086
 20
1876.183932023014
 30
0.0
 11
8044.397872438755
 21
1829.99590935635
 31
0.0
  0
LINE
  5
1954B
330
193D3
100
AcDbEntity
  8
HATCH
100
AcDbLine
 10
7978.688496438755
 20
1716.183932023015
 30
0.0
 11
8071.064539105421
 21
1876.183932023014
 31
0.0
  0
LINE
  5
1954C
330
193D3
100
AcDbEntity
  8
HATCH
100
AcDbLine
 10
8005.355163105424
 20
1762.371953356345
 30
0.0
 11
8032.021829772089
 21
1716.183932023015
 31
0.0
  0
LINE
  5
1954D
330
193D3
100
AcDbEntity
  8
HATCH
100
AcDbLine
 10
8390.758701212584
 20
2438.939835690478
 30
0.0
 11
7932.00279754512
 21
1980.183932023016
 31
0.0
  0
LINE
  5
1954E
330
193D3
100
AcDbEntity
  8
HATCH
100
AcDbLine
 10
8388.485221545122
 20
2484.183932023016
 30
0.0
 11
7884.485221545121
 21
1980.183932023016
 31
0.0
  0
LINE
  5
1954F
330
193D3
100
AcDbEntity
  8
HATCH
100
AcDbLine
 10
8340.96764714512
 20
2484.183932023016
 30
0.0
 11
7802.758701212581
 21
1945.974986090476
 31
0.0
  0
LINE
  5
19550
330
193D3
100
AcDbEntity
  8
HATCH
100
AcDbLine
 10
8390.758701212579
 20
2146.382933727341
 30
0.0
 11
8120.559699508254
 21
1876.183932023016
 31
0.0
  0
LINE
  5
19551
330
193D3
100
AcDbEntity
  8
HATCH
100
AcDbLine
 10
8390.758701212579
 20
2098.865359327338
 30
0.0
 11
8168.077273908258
 21
1876.183932023016
 31
0.0
  0
LINE
  5
19552
330
193D3
100
AcDbEntity
  8
HATCH
100
AcDbLine
 10
7480.893169181982
 20
1964.183932023016
 30
0.0
 11
7392.893169181981
 21
1876.183932023016
 31
0.0
  0
LINE
  5
19553
330
193D3
100
AcDbEntity
  8
HATCH
100
AcDbLine
 10
7528.410745181983
 20
1964.183932023016
 30
0.0
 11
7440.410745181982
 21
1876.183932023016
 31
0.0
  0
LINE
  5
19554
330
193D3
100
AcDbEntity
  8
HATCH
100
AcDbLine
 10
7820.967647145121
 20
1964.183932023016
 30
0.0
 11
7802.758701212581
 21
1945.974986090476
 31
0.0
  0
LINE
  5
19555
330
193D3
100
AcDbEntity
  8
HATCH
100
AcDbLine
 10
7868.485221545121
 20
1964.183932023016
 30
0.0
 11
7802.758701212581
 21
1898.457411690475
 31
0.0
  0
LINE
  5
19556
330
193D3
100
AcDbEntity
  8
HATCH
100
AcDbLine
 10
7916.00279754512
 20
1964.183932023016
 30
0.0
 11
7828.002797545119
 21
1876.183932023016
 31
0.0
  0
LINE
  5
19557
330
193D3
100
AcDbEntity
  8
KISO
100
AcDbLine
 10
6950.758701212581
 20
1876.183932023016
 30
0.0
 11
6950.758701212581
 21
1876.183932023014
 31
0.0
  0
LINE
  5
19558
330
193D3
100
AcDbEntity
  8
KISO
100
AcDbLine
 10
9228.152195755736
 20
2484.183932023016
 30
0.0
 11
7802.758701212581
 21
2484.183932023016
 31
0.0
  0
LINE
  5
19559
330
193D3
100
AcDbEntity
  8
1PL-M1
100
AcDbLine
 10
7750.758701212581
 20
1684.183932023015
 30
0.0
 11
7750.758701212581
 21
3332.183932023017
 31
0.0
  0
LINE
  5
1955A
330
193D3
100
AcDbEntity
  8
HASHIRA
100
AcDbLine
 10
7698.75870121258
 20
1876.183932023016
 30
0.0
 11
7698.75870121258
 21
2964.183932023015
 31
0.0
  0
LINE
  5
1955B
330
193D3
100
AcDbEntity
  8
HASHIRA
100
AcDbLine
 10
7802.758701212581
 20
1876.183932023016
 30
0.0
 11
7802.758701212581
 21
2964.183932023015
 31
0.0
  0
LINE
  5
1955C
330
193D3
100
AcDbEntity
  8
HATCH
100
AcDbLine
 10
8390.758701212584
 20
2051.347783327336
 30
0.0
 11
8215.594849908258
 21
1876.183932023016
 31
0.0
  0
LINE
  5
1955D
330
193D3
100
AcDbEntity
  8
HATCH
100
AcDbLine
 10
8217.731205772087
 20
1876.183932023014
 30
0.0
 11
8244.397872438755
 21
1829.99590935635
 31
0.0
  0
LINE
  5
1955E
330
193D3
100
AcDbEntity
  8
HATCH
100
AcDbLine
 10
8178.688496438757
 20
1716.183932023015
 30
0.0
 11
8271.06453910542
 21
1876.183932023014
 31
0.0
  0
LINE
  5
1955F
330
193D3
100
AcDbEntity
  8
HATCH
100
AcDbLine
 10
8205.355163105421
 20
1762.371953356345
 30
0.0
 11
8232.02182977209
 21
1716.183932023015
 31
0.0
  0
LINE
  5
19560
330
193D3
100
AcDbEntity
  8
HATCH
100
AcDbLine
 10
7005.355163105424
 20
1762.371953356344
 30
0.0
 11
7032.02182977209
 21
1716.183932023014
 31
0.0
  0
LINE
  5
19561
330
193D3
100
AcDbEntity
  8
HATCH
100
AcDbLine
 10
7017.731205772085
 20
1876.183932023014
 30
0.0
 11
7044.397872438752
 21
1829.99590935635
 31
0.0
  0
LINE
  5
19562
330
193D3
100
AcDbEntity
  8
HATCH
100
AcDbLine
 10
6978.688496438756
 20
1716.183932023014
 30
0.0
 11
7071.064539105417
 21
1876.183932023014
 31
0.0
  0
LINE
  5
19563
330
193D3
100
AcDbEntity
  8
HATCH
100
AcDbLine
 10
7273.226640455721
 20
2484.183932023017
 30
0.0
 11
7110.758701212581
 21
2321.715992779873
 31
0.0
  0
LINE
  5
19564
330
193D3
100
AcDbEntity
  8
HATCH
100
AcDbLine
 10
7225.70906445572
 20
2484.183932023016
 30
0.0
 11
7110.758701212581
 21
2369.233568779873
 31
0.0
  0
LINE
  5
19565
330
193D3
100
AcDbEntity
  8
HATCH
100
AcDbLine
 10
7178.191490055723
 20
2484.183932023016
 30
0.0
 11
7110.758701212581
 21
2416.751143179872
 31
0.0
  0
LINE
  5
19566
330
193D3
100
AcDbEntity
  8
SUNPOU
100
AcDbLine
 10
7765.75870121258
 20
3287.183932023015
 30
0.0
 11
9025.98920846283
 21
3287.183932023015
 31
0.0
  0
TEXT
  5
19567
330
193D3
100
AcDbEntity
  8
SUNPOU
100
AcDbText
 10
8386.586400353047
 20
3332.183932023015
 30
0.0
 40
90.0
  1
2800
 41
0.6666666666666666
  7
00
 72
     4
 11
8500.872114638761
 21
3377.183932023015
 31
0.0
100
AcDbText
  0
LINE
  5
19568
330
193D3
100
AcDbEntity
  8
KISO
100
AcDbLine
 10
8390.758701212579
 20
2260.183932023015
 30
0.0
 11
9228.152195755734
 21
2260.183932023015
 31
0.0
  0
LINE
  5
19569
330
193D3
100
AcDbEntity
  8
KISO
100
AcDbLine
 10
9228.152195755734
 20
2356.183932023015
 30
0.0
 11
8390.758701212579
 21
2356.183932023015
 31
0.0
  0
LINE
  5
1956A
330
193D3
100
AcDbEntity
  8
HATCH
100
AcDbLine
 10
8577.919008412584
 20
2356.183932023015
 30
0.0
 11
8561.919008412582
 21
2356.183932023015
 31
0.0
  0
LINE
  5
1956B
330
193D3
100
AcDbEntity
  8
HATCH
100
AcDbLine
 10
8513.744523612578
 20
2260.183932023015
 30
0.0
 11
8569.170149212579
 21
2356.183932023015
 31
0.0
  0
LINE
  5
1956C
330
193D3
100
AcDbEntity
  8
HATCH
100
AcDbLine
 10
8390.758701212579
 20
2290.297058750295
 30
0.0
 11
8408.144523612582
 21
2260.183932023015
 31
0.0
  0
LINE
  5
1956D
330
193D3
100
AcDbEntity
  8
HATCH
100
AcDbLine
 10
8532.944523612581
 20
2293.439306423015
 30
0.0
 11
8552.144523612581
 21
2260.183932023015
 31
0.0
  0
LINE
  5
1956E
330
193D3
100
AcDbEntity
  8
HATCH
100
AcDbLine
 10
8433.919008412582
 20
2356.183932023015
 30
0.0
 11
8417.919008412582
 21
2356.183932023015
 31
0.0
  0
LINE
  5
1956F
330
193D3
100
AcDbEntity
  8
HATCH
100
AcDbLine
 10
8390.758701212579
 20
2296.581555464544
 30
0.0
 11
8425.170149212579
 21
2356.183932023015
 31
0.0
  0
LINE
  5
19570
330
193D3
100
AcDbEntity
  8
HATCH
100
AcDbLine
 10
8390.758701212579
 20
2349.275557207618
 30
0.0
 11
8405.970149212578
 21
2322.928556023014
 31
0.0
  0
LINE
  5
19571
330
193D3
100
AcDbEntity
  8
HATCH
100
AcDbLine
 10
8530.77014921258
 20
2356.183932023015
 30
0.0
 11
8549.97014921258
 21
2322.928556023014
 31
0.0
  0
LINE
  5
19572
330
193D3
100
AcDbEntity
  8
HATCH
100
AcDbLine
 10
9073.74452361258
 20
2260.183932023015
 30
0.0
 11
9129.170149212582
 21
2356.183932023015
 31
0.0
  0
LINE
  5
19573
330
193D3
100
AcDbEntity
  8
HATCH
100
AcDbLine
 10
8676.944523612581
 20
2293.439306423015
 30
0.0
 11
8696.144523612582
 21
2260.183932023015
 31
0.0
  0
LINE
  5
19574
330
193D3
100
AcDbEntity
  8
HATCH
100
AcDbLine
 10
8657.744523612578
 20
2260.183932023015
 30
0.0
 11
8713.170149212579
 21
2356.183932023015
 31
0.0
  0
LINE
  5
19575
330
193D3
100
AcDbEntity
  8
HATCH
100
AcDbLine
 10
8820.944523612581
 20
2293.439306423015
 30
0.0
 11
8840.144523612583
 21
2260.183932023015
 31
0.0
  0
LINE
  5
19576
330
193D3
100
AcDbEntity
  8
HATCH
100
AcDbLine
 10
8801.74452361258
 20
2260.183932023015
 30
0.0
 11
8857.17014921258
 21
2356.183932023015
 31
0.0
  0
LINE
  5
19577
330
193D3
100
AcDbEntity
  8
HATCH
100
AcDbLine
 10
8948.944523612581
 20
2293.439306423015
 30
0.0
 11
8968.144523612583
 21
2260.183932023015
 31
0.0
  0
LINE
  5
19578
330
193D3
100
AcDbEntity
  8
HATCH
100
AcDbLine
 10
8929.744523612582
 20
2260.183932023015
 30
0.0
 11
8985.17014921258
 21
2356.183932023015
 31
0.0
  0
LINE
  5
19579
330
193D3
100
AcDbEntity
  8
HATCH
100
AcDbLine
 10
8818.77014921258
 20
2356.183932023015
 30
0.0
 11
8837.970149212578
 21
2322.928556023014
 31
0.0
  0
LINE
  5
1957A
330
193D3
100
AcDbEntity
  8
HATCH
100
AcDbLine
 10
8674.77014921258
 20
2356.183932023015
 30
0.0
 11
8693.97014921258
 21
2322.928556023014
 31
0.0
  0
LINE
  5
1957B
330
193D3
100
AcDbEntity
  8
HATCH
100
AcDbLine
 10
8946.77014921258
 20
2356.183932023015
 30
0.0
 11
8965.970149212578
 21
2322.928556023014
 31
0.0
  0
LINE
  5
1957C
330
193D3
100
AcDbEntity
  8
HATCH
100
AcDbLine
 10
9092.944523612581
 20
2293.439306423015
 30
0.0
 11
9112.144523612583
 21
2260.183932023015
 31
0.0
  0
LINE
  5
1957D
330
193D3
100
AcDbEntity
  8
HATCH
100
AcDbLine
 10
9090.770149212579
 20
2356.183932023015
 30
0.0
 11
9109.970149212578
 21
2322.928556023014
 31
0.0
  0
TEXT
  5
1957E
330
193D3
100
AcDbEntity
  8
HIKIDASHI
100
AcDbText
 10
8650.921518715056
 20
2006.931554141242
 30
0.0
 40
90.0
  1
敷砂利又は砕石
  7
01
100
AcDbText
  0
LINE
  5
1957F
330
193D3
100
AcDbEntity
  8
HIKIDASHI
100
AcDbLine
 10
8604.261733917331
 20
1961.931554141242
 30
0.0
 11
9406.912082292711
 21
1961.931554141242
 31
0.0
  0
TEXT
  5
19580
330
193D3
100
AcDbEntity
  8
SUNPOU
100
AcDbText
 10
8924.084949012959
 20
2619.183932023016
 30
0.0
 40
90.0
  1
F.L
 41
0.6666666666666666
  7
00
 72
     4
 11
8992.656377584387
 21
2664.183932023016
 31
0.0
100
AcDbText
  0
LINE
  5
19581
330
193D3
100
AcDbEntity
  8
SUNPOU
100
AcDbLine
 10
8992.656377584387
 20
2484.183932023016
 30
0.0
 11
9044.617901811456
 21
2574.183932023016
 31
0.0
  0
LINE
  5
19582
330
193D3
100
AcDbEntity
  8
SUNPOU
100
AcDbLine
 10
8940.694853357323
 20
2574.183932023016
 30
0.0
 11
8992.656377584387
 21
2484.183932023016
 31
0.0
  0
LINE
  5
19583
330
193D3
100
AcDbEntity
  8
SUNPOU
100
AcDbLine
 10
9044.617901811456
 20
2574.183932023016
 30
0.0
 11
8940.694853357323
 21
2574.183932023016
 31
0.0
  0
LINE
  5
19584
330
193D3
100
AcDbEntity
  8
HIKIDASHI
100
AcDbLine
 10
6725.592096228623
 20
1304.183932023017
 30
0.0
 11
6356.825719400998
 21
1304.183932023017
 31
0.0
  0
TEXT
  5
19585
330
193D3
100
AcDbEntity
  8
HIKIDASHI
100
AcDbText
 10
6383.893326992911
 20
1349.183932023017
 30
0.0
 40
90.0
  1
砕　石
  7
01
 72
     2
 11
6683.89332699291
 21
1394.183932023016
 31
0.0
100
AcDbText
 73
     2
  0
TEXT
  5
19586
330
193D3
100
AcDbEntity
  8
HIKIDASHI
100
AcDbText
 10
6592.266977118153
 20
2825.61354166191
 30
0.0
 40
90.0
  1
%%c
 41
0.6700000000000001
  7
00
100
AcDbText
  0
LINE
  5
19587
330
193D3
100
AcDbEntity
  8
HIKIDASHI
100
AcDbLine
 10
6202.383508498655
 20
2754.183932023012
 30
0.0
 11
7047.682504043535
 21
2754.183932023012
 31
0.0
  0
TEXT
  5
19588
330
193D3
100
AcDbEntity
  8
HIKIDASHI
100
AcDbText
 10
6757.972506084094
 20
2798.974945822921
 30
0.0
 40
89.55223880597014
  1
350
 41
0.6700000000000001
  7
00
100
AcDbText
  0
TEXT
  5
19589
330
193D3
100
AcDbEntity
  8
HIKIDASHI
100
AcDbText
 10
6676.837126930957
 20
2810.37796187376
 30
0.0
 40
89.55223880597014
  1
x
 41
0.6700000000000001
  7
00
100
AcDbText
  0
TEXT
  5
1958A
330
193D3
100
AcDbEntity
  8
HIKIDASHI
100
AcDbText
 10
6232.383508498656
 20
2799.183932023012
 30
0.0
 40
90.0
  1
鉄筋
  7
01
100
AcDbText
  0
TEXT
  5
1958B
330
193D3
100
AcDbEntity
  8
HIKIDASHI
100
AcDbText
 10
6463.890222100315
 20
2799.183932023012
 30
0.0
 40
89.55223880597014
  1
10
 41
0.6700000000000001
  7
00
100
AcDbText
  0
LINE
  5
1958C
330
193D3
100
AcDbEntity
  8
HIKIDASHI
100
AcDbLine
 10
6707.087978073521
 20
2994.183932023013
 30
0.0
 11
7061.08797807352
 21
2994.183932023013
 31
0.0
  0
TEXT
  5
1958D
330
193D3
100
AcDbEntity
  8
HIKIDASHI
100
AcDbText
 10
6737.087978073519
 20
3039.183932023012
 30
0.0
 40
90.0
  1
土　間
  7
01
100
AcDbText
  0
TEXT
  5
1958E
330
193D3
100
AcDbEntity
  8
SUNPOU
100
AcDbText
 10
8729.52476018689
 20
1293.654565347389
 30
0.0
 40
90.0
  1
5-D13×5-D13
 41
0.6700000000000001
  7
01
 72
     4
 11
9072.947617329749
 21
1338.654565347389
 31
0.0
100
AcDbText
  0
TEXT
  5
1958F
330
193D3
100
AcDbEntity
  8
SUNPOU
100
AcDbText
 10
8868.947617329755
 20
1458.903907439804
 30
0.0
 40
90.0
  1
ベース筋
  7
01
 72
     4
 11
9072.947617329756
 21
1503.903907439804
 31
0.0
100
AcDbText
  0
TEXT
  5
19590
330
193D3
100
AcDbEntity
  8
HIKIDASHI
100
AcDbText
 10
7826.962304091357
 20
925.1349131803465
 30
0.0
 40
90.0
  1
断 面
  7
01
100
AcDbText
  0
LINE
  5
19591
330
193D3
100
AcDbEntity
  8
HIKIDASHI
100
AcDbLine
 10
7402.945024594797
 20
880.1349131803466
 30
0.0
 11
8098.572377830365
 21
880.1349131803466
 31
0.0
  0
LINE
  5
19592
330
193D3
100
AcDbEntity
  8
HIKIDASHI
100
AcDbLine
 10
7402.945024594797
 20
850.1349131803465
 30
0.0
 11
8098.572377830365
 21
850.1349131803465
 31
0.0
  0
TEXT
  5
19593
330
193D3
100
AcDbEntity
  8
HIKIDASHI
100
AcDbText
 10
7432.945024594793
 20
925.1349131803465
 30
0.0
 40
90.0
  1
B  ~  B'
 41
0.6700000000000001
  7
00
100
AcDbText
  0
LINE
  5
19594
330
193D3
100
AcDbEntity
  8
HATCH
100
AcDbLine
 10
4197.973085892561
 20
1876.183932023019
 30
0.0
 11
4224.639752559227
 21
1829.995909356355
 31
0.0
  0
LINE
  5
19595
330
193D3
100
AcDbEntity
  8
HATCH
100
AcDbLine
 10
4158.93037655923
 20
1716.183932023017
 30
0.0
 11
4251.306419225894
 21
1876.183932023019
 31
0.0
  0
LINE
  5
19596
330
193D3
100
AcDbEntity
  8
HATCH
100
AcDbLine
 10
4185.597043225896
 20
1762.371953356349
 30
0.0
 11
4212.263709892561
 21
1716.183932023017
 31
0.0
  0
LINE
  5
19597
330
193D3
100
AcDbEntity
  8
HATCH
100
AcDbLine
 10
8417.731205772087
 20
1876.183932023012
 30
0.0
 11
8444.397872438754
 21
1829.995909356347
 31
0.0
  0
LINE
  5
19598
330
193D3
100
AcDbEntity
  8
HATCH
100
AcDbLine
 10
8378.688496438753
 20
1716.183932023013
 30
0.0
 11
8471.064539105418
 21
1876.183932023012
 31
0.0
  0
LINE
  5
19599
330
193D3
100
AcDbEntity
  8
HATCH
100
AcDbLine
 10
8405.355163105422
 20
1762.371953356343
 30
0.0
 11
8432.021829772086
 21
1716.183932023013
 31
0.0
  0
LINE
  5
1959A
330
193D3
100
AcDbEntity
  8
CENTER
  6
1PL-M
100
AcDbLine
 10
6314.217031986064
 20
7495.715360473251
 30
0.0
 11
8819.217031986061
 21
7495.715360473251
 31
0.0
  0
LINE
  5
1959B
330
193D3
100
AcDbEntity
  8
CENTER
  6
1PL-M
100
AcDbLine
 10
6314.217031986064
 20
9295.715360473252
 30
0.0
 11
8819.217031986061
 21
9295.715360473252
 31
0.0
  0
LINE
  5
1959C
330
193D3
100
AcDbEntity
  8
CENTER
  6
1PL-M
100
AcDbLine
 10
6784.217031986064
 20
5295.715360473252
 30
0.0
 11
6784.217031986064
 21
9695.715360473252
 31
0.0
  0
LINE
  5
1959D
330
193D3
100
AcDbEntity
  8
CENTER
  6
1PL-M
100
AcDbLine
 10
6314.217031986062
 20
5695.715360473254
 30
0.0
 11
10429.21703198605
 21
5695.715360473252
 31
0.0
  0
LINE
  5
1959E
330
193D3
100
AcDbEntity
  8
CENTER
  6
1PL-M
100
AcDbLine
 10
9584.217031986066
 20
5295.715360473252
 30
0.0
 11
9584.217031986066
 21
8080.715360473254
 31
0.0
  0
TEXT
  5
1959F
330
193D3
100
AcDbEntity
  8
SUNPOU
100
AcDbText
 10
6132.885652329143
 20
7840.715360473251
 30
0.0
 40
90.0
  1
B
 41
0.6700000000000001
  7
00
 72
     4
 11
6164.471366614858
 21
7885.715360473252
 31
0.0
100
AcDbText
  0
LINE
  5
195A0
330
193D3
100
AcDbEntity
  8
SUNPOU
100
AcDbLine
 10
6164.471366614865
 20
7495.715360473251
 30
0.0
 11
6314.471366614863
 21
7495.715360473251
 31
0.0
  0
LINE
  5
195A1
330
193D3
100
AcDbEntity
  8
SUNPOU
100
AcDbLine
 10
6164.471366614865
 20
7705.715360473252
 30
0.0
 11
6164.471366614865
 21
7495.715360473251
 31
0.0
  0
SOLID
  5
195A2
330
193D3
100
AcDbEntity
  8
SUNPOU
100
AcDbTrace
 10
6149.471366614864
 20
7705.715360473252
 30
0.0
 11
6179.471366614865
 21
7705.715360473252
 31
0.0
 12
6164.471366614865
 22
7795.715360473251
 32
0.0
 13
6164.471366614865
 23
7795.715360473251
 33
0.0
  0
LINE
  5
195A3
330
193D3
100
AcDbEntity
  8
SUNPOU
100
AcDbLine
 10
7394.630294679763
 20
7495.715360473251
 30
0.0
 11
7244.630294679763
 21
7495.715360473251
 31
0.0
  0
TEXT
  5
195A4
330
193D3
100
AcDbEntity
  8
SUNPOU
100
AcDbText
 10
7350.123151822621
 20
7832.143931901822
 30
0.0
 40
90.0
  1
B'
 41
0.6700000000000001
  7
00
 72
     4
 11
7394.630294679763
 21
7885.715360473252
 31
0.0
100
AcDbText
  0
LINE
  5
195A5
330
193D3
100
AcDbEntity
  8
SUNPOU
100
AcDbLine
 10
7394.630294679763
 20
7705.715360473252
 30
0.0
 11
7394.630294679763
 21
7495.715360473251
 31
0.0
  0
SOLID
  5
195A6
330
193D3
100
AcDbEntity
  8
SUNPOU
100
AcDbTrace
 10
7409.630294679762
 20
7705.715360473252
 30
0.0
 11
7379.630294679762
 21
7705.715360473252
 31
0.0
 12
7394.630294679763
 22
7795.715360473251
 32
0.0
 13
7394.630294679763
 23
7795.715360473251
 33
0.0
  0
SOLID
  5
195A7
330
193D3
100
AcDbEntity
  8
SUNPOU
100
AcDbTrace
 10
6149.471366614864
 20
5905.715360473251
 30
0.0
 11
6179.471366614865
 21
5905.715360473251
 31
0.0
 12
6164.471366614865
 22
5995.715360473252
 32
0.0
 13
6164.471366614865
 23
5995.715360473252
 33
0.0
  0
TEXT
  5
195A8
330
193D3
100
AcDbEntity
  8
SUNPOU
100
AcDbText
 10
6138.628509472001
 20
6040.715360473252
 30
0.0
 40
90.0
  1
A
 41
0.6700000000000001
  7
00
 72
     4
 11
6164.471366614858
 21
6085.715360473252
 31
0.0
100
AcDbText
  0
LINE
  5
195A9
330
193D3
100
AcDbEntity
  8
SUNPOU
100
AcDbLine
 10
6164.471366614865
 20
5905.715360473251
 30
0.0
 11
6164.471366614865
 21
5695.715360473252
 31
0.0
  0
LINE
  5
195AA
330
193D3
100
AcDbEntity
  8
SUNPOU
100
AcDbLine
 10
6164.471366614865
 20
5695.715360473252
 30
0.0
 11
6314.471366614863
 21
5695.715360473252
 31
0.0
  0
LINE
  5
195AB
330
193D3
100
AcDbEntity
  8
SUNPOU
100
AcDbLine
 10
7269.630294679763
 20
5695.715360473252
 30
0.0
 11
7119.630294679763
 21
5695.715360473252
 31
0.0
  0
LINE
  5
195AC
330
193D3
100
AcDbEntity
  8
SUNPOU
100
AcDbLine
 10
7269.630294679763
 20
5905.715360473251
 30
0.0
 11
7269.630294679763
 21
5695.715360473252
 31
0.0
  0
TEXT
  5
195AD
330
193D3
100
AcDbEntity
  8
SUNPOU
100
AcDbText
 10
7233.737437536906
 20
6032.143931901824
 30
0.0
 40
90.0
  1
A'
 41
0.6700000000000001
  7
00
 72
     4
 11
7269.630294679763
 21
6085.715360473252
 31
0.0
100
AcDbText
  0
SOLID
  5
195AE
330
193D3
100
AcDbEntity
  8
SUNPOU
100
AcDbTrace
 10
7284.630294679762
 20
5905.715360473251
 30
0.0
 11
7254.630294679762
 21
5905.715360473251
 31
0.0
 12
7269.630294679763
 22
5995.715360473252
 32
0.0
 13
7269.630294679763
 23
5995.715360473252
 33
0.0
  0
TEXT
  5
195AF
330
193D3
100
AcDbEntity
  8
HIKIDASHI
100
AcDbText
 10
7624.264373012015
 20
9740.715360473252
 30
0.0
 40
90.0
  1
（鼻隠し外面）
  7
01
100
AcDbText
  0
TEXT
  5
195B0
330
193D3
100
AcDbEntity
  8
HIKIDASHI
100
AcDbText
 10
7540.155771095993
 20
9455.715360473243
 30
0.0
 40
90.0
  1
（土間コン後面位置）
  7
01
100
AcDbText
  0
TEXT
  5
195B1
330
193D3
100
AcDbEntity
  8
HIKIDASHI
100
AcDbText
 10
7624.264373012015
 20
5160.715360473252
 30
0.0
 40
90.0
  1
（鼻隠し外面）
  7
01
100
AcDbText
  0
TEXT
  5
195B2
330
193D3
100
AcDbEntity
  8
HIKIDASHI
100
AcDbText
 10
7540.155771095993
 20
5445.715360473259
 30
0.0
 40
90.0
  1
（土間コン前面位置）
  7
01
100
AcDbText
  0
LINE
  5
195B3
330
193D3
100
AcDbEntity
  8
CENTER
  6
1PL-M
100
AcDbLine
 10
8969.217031986062
 20
9295.715360473252
 30
0.0
 11
10429.21703198605
 21
9295.715360473252
 31
0.0
  0
LINE
  5
195B4
330
193D3
100
AcDbEntity
  8
CENTER
  6
1PL-M
100
AcDbLine
 10
9584.217031986066
 20
8860.71536047325
 30
0.0
 11
9584.217031986066
 21
9695.715360473252
 31
0.0
  0
LINE
  5
195B5
330
193D3
100
AcDbEntity
  8
CENTER
  6
1PL-M
100
AcDbLine
 10
9584.217031986066
 20
8230.715360473253
 30
0.0
 11
9584.217031986066
 21
8710.715360473249
 31
0.0
  0
LINE
  5
195B6
330
193D3
100
AcDbEntity
  8
CENTER
  6
1PL-M
100
AcDbLine
 10
8969.217031986062
 20
7495.715360473251
 30
0.0
 11
10429.21703198605
 21
7495.715360473251
 31
0.0
  0
TEXT
  5
195B7
330
193D3
100
AcDbEntity
  8
FILENAME
100
AcDbText
 10
13549.61904761904
 20
174.0
 30
0.0
 40
100.0
  1
＜YOKC-280-SA-U1_3_JIS_GL.DXF ＞
  7
FILENAME
 72
     2
 11
16382.0
 21
174.0
 31
0.0
100
AcDbText
  0
LINE
  5
195B8
330
193D3
100
AcDbEntity
  8
WAKUSEN-01
100
AcDbLine
 10
434.0000000000008
 20
413.9999999999997
 30
0.0
 11
16382.0
 21
413.9999999999997
 31
0.0
  0
LINE
  5
195B9
330
193D3
100
AcDbEntity
  8
WAKUSEN-01
100
AcDbLine
 10
434.0000000000008
 20
11242.0
 30
0.0
 11
16382.0
 21
11242.0
 31
0.0
  0
LINE
  5
195BA
330
193D3
100
AcDbEntity
  8
WAKUSEN-01
100
AcDbLine
 10
434.0000000000008
 20
413.9999999999997
 30
0.0
 11
434.0000000000008
 21
11242.0
 31
0.0
  0
LINE
  5
195BB
330
193D3
100
AcDbEntity
  8
WAKUSEN-01
100
AcDbLine
 10
16382.0
 20
413.9999999999997
 30
0.0
 11
16382.0
 21
11242.0
 31
0.0
  0
LINE
  5
195BC
330
193D3
100
AcDbEntity
  8
WAKUSEN-01
100
AcDbLine
 10
10280.0
 20
1242.0
 30
0.0
 11
16382.0
 21
1242.0
 31
0.0
  0
LINE
  5
195BD
330
193D3
100
AcDbEntity
  8
WAKUSEN-02
100
AcDbLine
 10
10280.0
 20
827.9999999999997
 30
0.0
 11
13434.0
 21
827.9999999999997
 31
0.0
  0
TEXT
  5
195BE
330
193D3
100
AcDbEntity
  8
WAKUMOJI-01
100
AcDbText
 10
10335.13012998137
 20
1062.951504669661
 30
0.0
 40
120.0
  1
名　称
  7
WAKUMOJI
100
AcDbText
  0
TEXT
  5
195BF
330
193D3
100
AcDbEntity
  8
WAKUMOJI-01
100
AcDbText
 10
10328.25274254596
 20
659.5644874899107
 30
0.0
 40
120.0
  1
機種名
  7
WAKUMOJI
100
AcDbText
  0
LINE
  5
195C0
330
193D3
100
AcDbEntity
  8
WAKUSEN-01
100
AcDbLine
 10
10280.0
 20
413.9999999999985
 30
0.0
 11
10280.0
 21
1242.0
 31
0.0
  0
LINE
  5
195C1
330
193D3
100
AcDbEntity
  8
WAKUSEN-02
100
AcDbLine
 10
13434.0
 20
413.9999999999963
 30
0.0
 11
13434.0
 21
1242.0
 31
0.0
  0
LINE
  5
195C2
330
193D3
100
AcDbEntity
  8
YODOROGO
100
AcDbLine
 10
14988.80217064596
 20
997.8747482146435
 30
0.0
 11
14914.80217064596
 21
997.8747482146435
 31
0.0
1001
AUTOCAD_POSTSCRIPT_FIGURE
1002
{
1000
PSFILL
1000
Grayscale
1000
Grayscale
1070
    25
1002
}
  0
LINE
  5
195C3
330
193D3
100
AcDbEntity
  8
YODOROGO
100
AcDbLine
 10
14914.80217064596
 20
973.8747482146434
 30
0.0
 11
14988.80217064596
 21
973.8747482146434
 31
0.0
1001
AUTOCAD_POSTSCRIPT_FIGURE
1002
{
1000
PSFILL
1000
Grayscale
1000
Grayscale
1070
    25
1002
}
  0
LINE
  5
195C4
330
193D3
100
AcDbEntity
  8
YODOROGO
100
AcDbLine
 10
14988.80217064596
 20
953.874748214644
 30
0.0
 11
14914.80217064596
 21
953.874748214644
 31
0.0
1001
AUTOCAD_POSTSCRIPT_FIGURE
1002
{
1000
PSFILL
1000
Grayscale
1000
Grayscale
1070
    25
1002
}
  0
LINE
  5
195C5
330
193D3
100
AcDbEntity
  8
YODOROGO
100
AcDbLine
 10
14914.80217064596
 20
929.874748214644
 30
0.0
 11
14988.80217064596
 21
929.874748214644
 31
0.0
1001
AUTOCAD_POSTSCRIPT_FIGURE
1002
{
1000
PSFILL
1000
Grayscale
1000
Grayscale
1070
    25
1002
}
  0
LINE
  5
195C6
330
193D3
100
AcDbEntity
  8
YODOROGO
100
AcDbLine
 10
14988.80217064596
 20
909.8747482146439
 30
0.0
 11
14914.80217064596
 21
909.8747482146439
 31
0.0
1001
AUTOCAD_POSTSCRIPT_FIGURE
1002
{
1000
PSFILL
1000
Grayscale
1000
Grayscale
1070
    25
1002
}
  0
LINE
  5
195C7
330
193D3
100
AcDbEntity
  8
YODOROGO
100
AcDbLine
 10
14960.80217064594
 20
853.874748214644
 30
0.0
 11
14988.80217064596
 21
853.874748214644
 31
0.0
1001
AUTOCAD_POSTSCRIPT_FIGURE
1002
{
1000
PSFILL
1000
Grayscale
1000
Grayscale
1070
    25
1002
}
  0
LINE
  5
195C8
330
193D3
100
AcDbEntity
  8
YODOROGO
100
AcDbLine
 10
14868.80217064596
 20
713.8747482146436
 30
0.0
 11
14968.80217064596
 21
740.6696674577553
 31
0.0
  0
LINE
  5
195C9
330
193D3
100
AcDbEntity
  8
YODOROGO
100
AcDbLine
 10
14974.80217064595
 20
853.874748214644
 30
0.0
 11
14942.80217064596
 21
853.874748214644
 31
0.0
  0
ARC
  5
195CA
330
193D3
100
AcDbEntity
  8
YODOROGO
100
AcDbCircle
 10
15127.17387491394
 20
903.9323046166312
 30
0.0
 40
190.9434321028236
100
AcDbArc
 50
213.9611167766784
 51
264.4787207431779
  0
ARC
  5
195CB
330
193D3
100
AcDbEntity
  8
YODOROGO
100
AcDbCircle
 10
15127.17387491396
 20
903.9323046166513
 30
0.0
 40
190.9434321028408
100
AcDbArc
 50
208.141144204866
 51
212.9210361185994
  0
LINE
  5
195CC
330
193D3
100
AcDbEntity
  8
YODOROGO
100
AcDbLine
 10
14885.70493649264
 20
778.403830673117
 30
0.0
 11
14966.89206625426
 21
800.1578565285436
 31
0.0
  0
LINE
  5
195CD
330
193D3
100
AcDbEntity
  8
YODOROGO
100
AcDbLine
 10
14868.80217064596
 20
713.8747482146436
 30
0.0
 11
14968.80217064596
 21
740.6696674577553
 31
0.0
  0
LINE
  5
195CE
330
193D3
100
AcDbEntity
  8
YODOROGO
100
AcDbLine
 10
14974.80217064595
 20
853.874748214644
 30
0.0
 11
14942.80217064596
 21
853.874748214644
 31
0.0
  0
ARC
  5
195CF
330
193D3
100
AcDbEntity
  8
YODOROGO
100
AcDbCircle
 10
15127.17387491394
 20
903.9323046166312
 30
0.0
 40
190.9434321028236
100
AcDbArc
 50
213.9611167766784
 51
264.4787207431779
  0
LINE
  5
195D0
330
193D3
100
AcDbEntity
  8
YODOROGO
100
AcDbLine
 10
14396.80217064594
 20
909.8747482146439
 30
0.0
 11
14216.80217064594
 21
909.8747482146439
 31
0.0
  0
LINE
  5
195D1
330
193D3
100
AcDbEntity
  8
YODOROGO
100
AcDbLine
 10
14256.80217064594
 20
713.8747482146436
 30
0.0
 11
14396.80217064594
 21
713.8747482146436
 31
0.0
  0
LINE
  5
195D2
330
193D3
100
AcDbEntity
  8
YODOROGO
100
AcDbLine
 10
14364.80217064596
 20
961.8747482146432
 30
0.0
 11
14248.80217064594
 21
961.8747482146432
 31
0.0
  0
LINE
  5
195D3
330
193D3
100
AcDbEntity
  8
YODOROGO
100
AcDbLine
 10
14292.80217064596
 20
1013.874748214644
 30
0.0
 11
14328.80217064596
 21
1013.874748214644
 31
0.0
  0
LINE
  5
195D4
330
193D3
100
AcDbEntity
  8
YODOROGO
100
AcDbLine
 10
14216.80217064594
 20
853.874748214644
 30
0.0
 11
14216.80217064594
 21
753.8747482146439
 31
0.0
  0
LINE
  5
195D5
330
193D3
100
AcDbEntity
  8
YODOROGO
100
AcDbLine
 10
14248.80217064594
 20
781.8747482146434
 30
0.0
 11
14248.80217064594
 21
853.874748214644
 31
0.0
  0
LINE
  5
195D6
330
193D3
100
AcDbEntity
  8
YODOROGO
100
AcDbLine
 10
14292.80217064596
 20
873.8747482146449
 30
0.0
 11
14292.80217064596
 21
773.874748214644
 31
0.0
  0
LINE
  5
195D7
330
193D3
100
AcDbEntity
  8
YODOROGO
100
AcDbLine
 10
13928.80217064596
 20
841.8747482146445
 30
0.0
 11
13888.80217064596
 21
809.9862070222856
 31
0.0
  0
LINE
  5
195D8
330
193D3
100
AcDbEntity
  8
YODOROGO
100
AcDbLine
 10
13968.80217064596
 20
809.9862070222856
 30
0.0
 11
13928.80217064596
 21
841.8747482146445
 31
0.0
  0
LINE
  5
195D9
330
193D3
100
AcDbEntity
  8
YODOROGO
100
AcDbLine
 10
13928.80217064596
 20
853.874748214644
 30
0.0
 11
13968.80217064596
 21
821.986207022285
 31
0.0
  0
LINE
  5
195DA
330
193D3
100
AcDbEntity
  8
YODOROGO
100
AcDbLine
 10
13888.80217064596
 20
821.986207022285
 30
0.0
 11
13928.80217064596
 21
853.874748214644
 31
0.0
  0
LINE
  5
195DB
330
193D3
100
AcDbEntity
  8
YODOROGO
100
AcDbLine
 10
14020.45660200844
 20
829.874748214644
 30
0.0
 11
14020.45660200844
 21
841.8747482146434
 31
0.0
  0
LINE
  5
195DC
330
193D3
100
AcDbEntity
  8
YODOROGO
100
AcDbLine
 10
13988.80217064596
 20
841.8747482146434
 30
0.0
 11
13988.80217064596
 21
833.8747482146427
 31
0.0
  0
LINE
  5
195DD
330
193D3
100
AcDbEntity
  8
YODOROGO
100
AcDbLine
 10
14049.06776011545
 20
853.874748214644
 30
0.0
 11
14049.06776011545
 21
827.751818637328
 31
0.0
1001
AUTOCAD_POSTSCRIPT_FIGURE
1002
{
1000
PSFILL
1000
Grayscale
1000
Grayscale
1070
   100
1002
}
  0
LINE
  5
195DE
330
193D3
100
AcDbEntity
  8
YODOROGO
100
AcDbLine
 10
14041.06776011546
 20
827.751818637328
 30
0.0
 11
14041.06776011546
 21
853.874748214644
 31
0.0
1001
AUTOCAD_POSTSCRIPT_FIGURE
1002
{
1000
PSFILL
1000
Grayscale
1000
Grayscale
1070
   100
1002
}
  0
LINE
  5
195DF
330
193D3
100
AcDbEntity
  8
YODOROGO
100
AcDbLine
 10
13904.80217064596
 20
804.3859520216292
 30
0.0
 11
13904.80217064596
 21
816.3859520216298
 31
0.0
  0
LINE
  5
195E0
330
193D3
100
AcDbEntity
  8
YODOROGO
100
AcDbLine
 10
13952.80217064596
 20
804.3859520216292
 30
0.0
 11
13904.80217064596
 21
804.3859520216292
 31
0.0
  0
LINE
  5
195E1
330
193D3
100
AcDbEntity
  8
YODOROGO
100
AcDbLine
 10
13952.80217064596
 20
816.3859520216298
 30
0.0
 11
13952.80217064596
 21
804.3859520216292
 31
0.0
  0
LINE
  5
195E2
330
193D3
100
AcDbEntity
  8
YODOROGO
100
AcDbLine
 10
13904.80217064596
 20
816.3859520216298
 30
0.0
 11
13952.80217064596
 21
816.3859520216298
 31
0.0
  0
LINE
  5
195E3
330
193D3
100
AcDbEntity
  8
YODOROGO
100
AcDbLine
 10
13912.25479445787
 20
784.2514286852374
 30
0.0
 11
13892.80217064596
 21
737.8747482146435
 31
0.0
1001
AUTOCAD_POSTSCRIPT_FIGURE
1002
{
1000
PSFILL
1000
Grayscale
1000
Grayscale
1070
   100
1002
}
  0
LINE
  5
195E4
330
193D3
100
AcDbEntity
  8
YODOROGO
100
AcDbLine
 10
13888.80217064596
 20
784.2514286852374
 30
0.0
 11
13912.25479445787
 21
784.2514286852374
 31
0.0
1001
AUTOCAD_POSTSCRIPT_FIGURE
1002
{
1000
PSFILL
1000
Grayscale
1000
Grayscale
1070
   100
1002
}
  0
LINE
  5
195E5
330
193D3
100
AcDbEntity
  8
YODOROGO
100
AcDbLine
 10
13888.80217064596
 20
794.2514286852374
 30
0.0
 11
13888.80217064596
 21
784.2514286852374
 31
0.0
1001
AUTOCAD_POSTSCRIPT_FIGURE
1002
{
1000
PSFILL
1000
Grayscale
1000
Grayscale
1070
   100
1002
}
  0
LINE
  5
195E6
330
193D3
100
AcDbEntity
  8
YODOROGO
100
AcDbLine
 10
13968.80217064596
 20
794.2514286852374
 30
0.0
 11
13888.80217064596
 21
794.2514286852374
 31
0.0
1001
AUTOCAD_POSTSCRIPT_FIGURE
1002
{
1000
PSFILL
1000
Grayscale
1000
Grayscale
1070
   100
1002
}
  0
LINE
  5
195E7
330
193D3
100
AcDbEntity
  8
YODOROGO
100
AcDbLine
 10
13968.80217064596
 20
784.2514286852374
 30
0.0
 11
13968.80217064596
 21
794.2514286852374
 31
0.0
1001
AUTOCAD_POSTSCRIPT_FIGURE
1002
{
1000
PSFILL
1000
Grayscale
1000
Grayscale
1070
   100
1002
}
  0
LINE
  5
195E8
330
193D3
100
AcDbEntity
  8
YODOROGO
100
AcDbLine
 10
13922.25479445786
 20
784.2514286852374
 30
0.0
 11
13968.80217064596
 21
784.2514286852374
 31
0.0
1001
AUTOCAD_POSTSCRIPT_FIGURE
1002
{
1000
PSFILL
1000
Grayscale
1000
Grayscale
1070
   100
1002
}
  0
LINE
  5
195E9
330
193D3
100
AcDbEntity
  8
YODOROGO
100
AcDbLine
 10
13907.77335914238
 20
747.8747482146435
 30
0.0
 11
13922.25479445786
 21
784.2514286852374
 31
0.0
1001
AUTOCAD_POSTSCRIPT_FIGURE
1002
{
1000
PSFILL
1000
Grayscale
1000
Grayscale
1070
   100
1002
}
  0
LINE
  5
195EA
330
193D3
100
AcDbEntity
  8
YODOROGO
100
AcDbLine
 10
13951.02739540432
 20
747.8747482146435
 30
0.0
 11
13907.77335914238
 21
747.8747482146435
 31
0.0
1001
AUTOCAD_POSTSCRIPT_FIGURE
1002
{
1000
PSFILL
1000
Grayscale
1000
Grayscale
1070
   100
1002
}
  0
LINE
  5
195EB
330
193D3
100
AcDbEntity
  8
YODOROGO
100
AcDbLine
 10
13942.53250239547
 20
768.1169053488464
 30
0.0
 11
13951.02739540432
 21
747.8747482146435
 31
0.0
1001
AUTOCAD_POSTSCRIPT_FIGURE
1002
{
1000
PSFILL
1000
Grayscale
1000
Grayscale
1070
   100
1002
}
  0
LINE
  5
195EC
330
193D3
100
AcDbEntity
  8
YODOROGO
100
AcDbLine
 10
13950.53250239547
 20
768.1169053488464
 30
0.0
 11
13942.53250239547
 21
768.1169053488464
 31
0.0
1001
AUTOCAD_POSTSCRIPT_FIGURE
1002
{
1000
PSFILL
1000
Grayscale
1000
Grayscale
1070
   100
1002
}
  0
LINE
  5
195ED
330
193D3
100
AcDbEntity
  8
YODOROGO
100
AcDbLine
 10
13964.80217064596
 20
737.8747482146435
 30
0.0
 11
13950.53250239547
 21
768.1169053488464
 31
0.0
1001
AUTOCAD_POSTSCRIPT_FIGURE
1002
{
1000
PSFILL
1000
Grayscale
1000
Grayscale
1070
   100
1002
}
  0
LINE
  5
195EE
330
193D3
100
AcDbEntity
  8
YODOROGO
100
AcDbLine
 10
13892.80217064596
 20
737.8747482146435
 30
0.0
 11
13964.80217064596
 21
737.8747482146435
 31
0.0
1001
AUTOCAD_POSTSCRIPT_FIGURE
1002
{
1000
PSFILL
1000
Grayscale
1000
Grayscale
1070
   100
1002
}
  0
LINE
  5
195EF
330
193D3
100
AcDbEntity
  8
YODOROGO
100
AcDbLine
 10
13888.80217064596
 20
809.9862070222856
 30
0.0
 11
13888.80217064596
 21
821.986207022285
 31
0.0
  0
LINE
  5
195F0
330
193D3
100
AcDbEntity
  8
YODOROGO
100
AcDbLine
 10
13968.80217064596
 20
821.986207022285
 30
0.0
 11
13968.80217064596
 21
809.9862070222856
 31
0.0
  0
ARC
  5
195F1
330
193D3
100
AcDbEntity
  8
YODOROGO
100
AcDbCircle
 10
14112.97022107348
 20
800.438882662663
 30
0.0
 40
87.99999999999995
100
AcDbArc
 50
280.3644312771313
 51
3.541483659218056
  0
ARC
  5
195F2
330
193D3
100
AcDbEntity
  8
YODOROGO
100
AcDbCircle
 10
14117.87801537965
 20
816.798903480952
 30
0.0
 40
55.99999999999914
100
AcDbArc
 50
281.2490582504155
 51
348.7509417495832
  0
LINE
  5
195F3
330
193D3
100
AcDbEntity
  8
YODOROGO
100
AcDbLine
 10
14128.80217064596
 20
761.8747482146434
 30
0.0
 11
14128.80217064596
 21
713.8747482146436
 31
0.0
  0
LINE
  5
195F4
330
193D3
100
AcDbEntity
  8
YODOROGO
100
AcDbLine
 10
14010.04445186845
 20
805.3252825309574
 30
0.0
 11
14020.45660200844
 21
829.874748214644
 31
0.0
  0
LINE
  5
195F5
330
193D3
100
AcDbEntity
  8
YODOROGO
100
AcDbLine
 10
14020.80217064596
 20
791.5602449742006
 30
0.0
 11
14010.04445186845
 21
805.3252825309574
 31
0.0
  0
LINE
  5
195F6
330
193D3
100
AcDbEntity
  8
YODOROGO
100
AcDbLine
 10
14020.80217064596
 20
781.5602449741994
 30
0.0
 11
14020.80217064596
 21
791.5602449742006
 31
0.0
  0
LINE
  5
195F7
330
193D3
100
AcDbEntity
  8
YODOROGO
100
AcDbLine
 10
14008.80217064596
 20
792.6185318747651
 30
0.0
 11
14020.80217064596
 21
781.5602449741994
 31
0.0
  0
LINE
  5
195F8
330
193D3
100
AcDbEntity
  8
YODOROGO
100
AcDbLine
 10
14008.80217064596
 20
737.8747482146435
 30
0.0
 11
14008.80217064596
 21
792.6185318747651
 31
0.0
  0
LINE
  5
195F9
330
193D3
100
AcDbEntity
  8
YODOROGO
100
AcDbLine
 10
14000.80217064596
 20
737.8747482146435
 30
0.0
 11
14008.80217064596
 21
737.8747482146435
 31
0.0
  0
LINE
  5
195FA
330
193D3
100
AcDbEntity
  8
YODOROGO
100
AcDbLine
 10
14000.80217064596
 20
790.0026748448738
 30
0.0
 11
14000.80217064596
 21
737.8747482146435
 31
0.0
  0
LINE
  5
195FB
330
193D3
100
AcDbEntity
  8
YODOROGO
100
AcDbLine
 10
13988.80217064596
 20
766.3840395167142
 30
0.0
 11
14000.80217064596
 21
790.0026748448738
 31
0.0
  0
LINE
  5
195FC
330
193D3
100
AcDbEntity
  8
YODOROGO
100
AcDbLine
 10
13988.80217064596
 20
778.3840395167149
 30
0.0
 11
13988.80217064596
 21
766.3840395167142
 31
0.0
  0
LINE
  5
195FD
330
193D3
100
AcDbEntity
  8
YODOROGO
100
AcDbLine
 10
14012.91438714567
 20
833.8747482146427
 30
0.0
 11
13988.80217064596
 21
778.3840395167149
 31
0.0
  0
LINE
  5
195FE
330
193D3
100
AcDbEntity
  8
YODOROGO
100
AcDbLine
 10
13988.80217064596
 20
833.8747482146427
 30
0.0
 11
14012.91438714567
 21
833.8747482146427
 31
0.0
  0
LINE
  5
195FF
330
193D3
100
AcDbEntity
  8
YODOROGO
100
AcDbLine
 10
14025.06776011545
 20
827.751818637328
 30
0.0
 11
14041.06776011546
 21
827.751818637328
 31
0.0
1001
AUTOCAD_POSTSCRIPT_FIGURE
1002
{
1000
PSFILL
1000
Grayscale
1000
Grayscale
1070
   100
1002
}
  0
LINE
  5
19600
330
193D3
100
AcDbEntity
  8
YODOROGO
100
AcDbLine
 10
14025.06776011545
 20
815.7518186373286
 30
0.0
 11
14025.06776011545
 21
827.751818637328
 31
0.0
1001
AUTOCAD_POSTSCRIPT_FIGURE
1002
{
1000
PSFILL
1000
Grayscale
1000
Grayscale
1070
   100
1002
}
  0
LINE
  5
19601
330
193D3
100
AcDbEntity
  8
YODOROGO
100
AcDbLine
 10
14041.06776011546
 20
815.7518186373286
 30
0.0
 11
14025.06776011545
 21
815.7518186373286
 31
0.0
1001
AUTOCAD_POSTSCRIPT_FIGURE
1002
{
1000
PSFILL
1000
Grayscale
1000
Grayscale
1070
   100
1002
}
  0
LINE
  5
19602
330
193D3
100
AcDbEntity
  8
YODOROGO
100
AcDbLine
 10
14041.06776011546
 20
749.8747482146441
 30
0.0
 11
14041.06776011546
 21
815.7518186373286
 31
0.0
1001
AUTOCAD_POSTSCRIPT_FIGURE
1002
{
1000
PSFILL
1000
Grayscale
1000
Grayscale
1070
   100
1002
}
  0
LINE
  5
19603
330
193D3
100
AcDbEntity
  8
YODOROGO
100
AcDbLine
 10
14025.06776011545
 20
749.8747482146441
 30
0.0
 11
14041.06776011546
 21
749.8747482146441
 31
0.0
1001
AUTOCAD_POSTSCRIPT_FIGURE
1002
{
1000
PSFILL
1000
Grayscale
1000
Grayscale
1070
   100
1002
}
  0
LINE
  5
19604
330
193D3
100
AcDbEntity
  8
YODOROGO
100
AcDbLine
 10
14025.06776011545
 20
737.8747482146435
 30
0.0
 11
14025.06776011545
 21
749.8747482146441
 31
0.0
1001
AUTOCAD_POSTSCRIPT_FIGURE
1002
{
1000
PSFILL
1000
Grayscale
1000
Grayscale
1070
   100
1002
}
  0
LINE
  5
19605
330
193D3
100
AcDbEntity
  8
YODOROGO
100
AcDbLine
 10
14068.80217064596
 20
737.8747482146435
 30
0.0
 11
14025.06776011545
 21
737.8747482146435
 31
0.0
1001
AUTOCAD_POSTSCRIPT_FIGURE
1002
{
1000
PSFILL
1000
Grayscale
1000
Grayscale
1070
   100
1002
}
  0
LINE
  5
19606
330
193D3
100
AcDbEntity
  8
YODOROGO
100
AcDbLine
 10
14068.80217064596
 20
749.8747482146441
 30
0.0
 11
14068.80217064596
 21
737.8747482146435
 31
0.0
1001
AUTOCAD_POSTSCRIPT_FIGURE
1002
{
1000
PSFILL
1000
Grayscale
1000
Grayscale
1070
   100
1002
}
  0
LINE
  5
19607
330
193D3
100
AcDbEntity
  8
YODOROGO
100
AcDbLine
 10
14049.06776011545
 20
749.8747482146441
 30
0.0
 11
14068.80217064596
 21
749.8747482146441
 31
0.0
1001
AUTOCAD_POSTSCRIPT_FIGURE
1002
{
1000
PSFILL
1000
Grayscale
1000
Grayscale
1070
   100
1002
}
  0
LINE
  5
19608
330
193D3
100
AcDbEntity
  8
YODOROGO
100
AcDbLine
 10
14049.06776011545
 20
815.7518186373286
 30
0.0
 11
14049.06776011545
 21
749.8747482146441
 31
0.0
1001
AUTOCAD_POSTSCRIPT_FIGURE
1002
{
1000
PSFILL
1000
Grayscale
1000
Grayscale
1070
   100
1002
}
  0
LINE
  5
19609
330
193D3
100
AcDbEntity
  8
YODOROGO
100
AcDbLine
 10
14068.80217064596
 20
815.7518186373286
 30
0.0
 11
14049.06776011545
 21
815.7518186373286
 31
0.0
1001
AUTOCAD_POSTSCRIPT_FIGURE
1002
{
1000
PSFILL
1000
Grayscale
1000
Grayscale
1070
   100
1002
}
  0
LINE
  5
1960A
330
193D3
100
AcDbEntity
  8
YODOROGO
100
AcDbLine
 10
14068.80217064596
 20
827.751818637328
 30
0.0
 11
14068.80217064596
 21
815.7518186373286
 31
0.0
1001
AUTOCAD_POSTSCRIPT_FIGURE
1002
{
1000
PSFILL
1000
Grayscale
1000
Grayscale
1070
   100
1002
}
  0
LINE
  5
1960B
330
193D3
100
AcDbEntity
  8
YODOROGO
100
AcDbLine
 10
14049.06776011545
 20
827.751818637328
 30
0.0
 11
14068.80217064596
 21
827.751818637328
 31
0.0
1001
AUTOCAD_POSTSCRIPT_FIGURE
1002
{
1000
PSFILL
1000
Grayscale
1000
Grayscale
1070
   100
1002
}
  0
LINE
  5
1960C
330
193D3
100
AcDbEntity
  8
YODOROGO
100
AcDbLine
 10
14200.80217064594
 20
833.8747482146439
 30
0.0
 11
14172.80217064596
 21
833.8747482146439
 31
0.0
  0
LINE
  5
1960D
330
193D3
100
AcDbEntity
  8
YODOROGO
100
AcDbLine
 10
14200.80217064594
 20
805.8747482146443
 30
0.0
 11
14200.80217064594
 21
833.8747482146439
 31
0.0
  0
LINE
  5
1960E
330
193D3
100
AcDbEntity
  8
YODOROGO
100
AcDbLine
 10
14172.80217064596
 20
833.8747482146439
 30
0.0
 11
14172.80217064596
 21
805.8747482146443
 31
0.0
  0
ARC
  5
1960F
330
193D3
100
AcDbEntity
  8
YODOROGO
100
AcDbCircle
 10
14256.80217064594
 20
753.8747482146439
 30
0.0
 40
40.0
100
AcDbArc
 50
180.0
 51
270.0
  0
ARC
  5
19610
330
193D3
100
AcDbEntity
  8
YODOROGO
100
AcDbCircle
 10
14268.80217064594
 20
781.8747482146434
 30
0.0
 40
20.0
100
AcDbArc
 50
180.0
 51
270.0
  0
LINE
  5
19611
330
193D3
100
AcDbEntity
  8
YODOROGO
100
AcDbLine
 10
14280.80217064596
 20
761.8747482146434
 30
0.0
 11
14268.80217064594
 21
761.8747482146434
 31
0.0
  0
ARC
  5
19612
330
193D3
100
AcDbEntity
  8
YODOROGO
100
AcDbCircle
 10
14280.80217064596
 20
773.8747482146427
 30
0.0
 40
11.99999999999818
100
AcDbArc
 50
270.0
 51
0.0000000000054281
  0
LINE
  5
19613
330
193D3
100
AcDbEntity
  8
YODOROGO
100
AcDbLine
 10
13900.80217064596
 20
945.3932903968532
 30
0.0
 11
13888.80217064596
 21
921.8883739758362
 31
0.0
1001
AUTOCAD_POSTSCRIPT_FIGURE
1002
{
1000
PSFILL
1000
Grayscale
1000
Grayscale
1070
   100
1002
}
  0
LINE
  5
19614
330
193D3
100
AcDbEntity
  8
YODOROGO
100
AcDbLine
 10
13900.80217064596
 20
873.8747482146434
 30
0.0
 11
13900.80217064596
 21
945.3932903968532
 31
0.0
1001
AUTOCAD_POSTSCRIPT_FIGURE
1002
{
1000
PSFILL
1000
Grayscale
1000
Grayscale
1070
   100
1002
}
  0
LINE
  5
19615
330
193D3
100
AcDbEntity
  8
YODOROGO
100
AcDbLine
 10
13908.80217064596
 20
873.8747482146434
 30
0.0
 11
13900.80217064596
 21
873.8747482146434
 31
0.0
1001
AUTOCAD_POSTSCRIPT_FIGURE
1002
{
1000
PSFILL
1000
Grayscale
1000
Grayscale
1070
   100
1002
}
  0
LINE
  5
19616
330
193D3
100
AcDbEntity
  8
YODOROGO
100
AcDbLine
 10
13908.80217064596
 20
946.8856660426332
 30
0.0
 11
13908.80217064596
 21
873.8747482146434
 31
0.0
1001
AUTOCAD_POSTSCRIPT_FIGURE
1002
{
1000
PSFILL
1000
Grayscale
1000
Grayscale
1070
   100
1002
}
  0
LINE
  5
19617
330
193D3
100
AcDbEntity
  8
YODOROGO
100
AcDbLine
 10
13920.80217064596
 20
933.8273791420684
 30
0.0
 11
13908.80217064596
 21
946.8856660426332
 31
0.0
1001
AUTOCAD_POSTSCRIPT_FIGURE
1002
{
1000
PSFILL
1000
Grayscale
1000
Grayscale
1070
   100
1002
}
  0
LINE
  5
19618
330
193D3
100
AcDbEntity
  8
YODOROGO
100
AcDbLine
 10
13920.80217064596
 20
941.8273791420681
 30
0.0
 11
13920.80217064596
 21
933.8273791420684
 31
0.0
1001
AUTOCAD_POSTSCRIPT_FIGURE
1002
{
1000
PSFILL
1000
Grayscale
1000
Grayscale
1070
   100
1002
}
  0
LINE
  5
19619
330
193D3
100
AcDbEntity
  8
YODOROGO
100
AcDbLine
 10
13908.80217064596
 20
958.8856660426325
 30
0.0
 11
13920.80217064596
 21
941.8273791420681
 31
0.0
1001
AUTOCAD_POSTSCRIPT_FIGURE
1002
{
1000
PSFILL
1000
Grayscale
1000
Grayscale
1070
   100
1002
}
  0
LINE
  5
1961A
330
193D3
100
AcDbEntity
  8
YODOROGO
100
AcDbLine
 10
13908.80217064596
 20
969.8747482146441
 30
0.0
 11
13908.80217064596
 21
958.8856660426325
 31
0.0
1001
AUTOCAD_POSTSCRIPT_FIGURE
1002
{
1000
PSFILL
1000
Grayscale
1000
Grayscale
1070
   100
1002
}
  0
LINE
  5
1961B
330
193D3
100
AcDbEntity
  8
YODOROGO
100
AcDbLine
 10
13944.80217064596
 20
969.8747482146441
 30
0.0
 11
13908.80217064596
 21
969.8747482146441
 31
0.0
1001
AUTOCAD_POSTSCRIPT_FIGURE
1002
{
1000
PSFILL
1000
Grayscale
1000
Grayscale
1070
   100
1002
}
  0
LINE
  5
1961C
330
193D3
100
AcDbEntity
  8
YODOROGO
100
AcDbLine
 10
13944.80217064596
 20
950.2841744681497
 30
0.0
 11
13944.80217064596
 21
969.8747482146441
 31
0.0
1001
AUTOCAD_POSTSCRIPT_FIGURE
1002
{
1000
PSFILL
1000
Grayscale
1000
Grayscale
1070
   100
1002
}
  0
LINE
  5
1961D
330
193D3
100
AcDbEntity
  8
YODOROGO
100
AcDbLine
 10
13928.80217064596
 20
950.2841744681497
 30
0.0
 11
13944.80217064596
 21
950.2841744681497
 31
0.0
1001
AUTOCAD_POSTSCRIPT_FIGURE
1002
{
1000
PSFILL
1000
Grayscale
1000
Grayscale
1070
   100
1002
}
  0
LINE
  5
1961E
330
193D3
100
AcDbEntity
  8
YODOROGO
100
AcDbLine
 10
13928.80217064596
 20
942.2841744681491
 30
0.0
 11
13928.80217064596
 21
950.2841744681497
 31
0.0
1001
AUTOCAD_POSTSCRIPT_FIGURE
1002
{
1000
PSFILL
1000
Grayscale
1000
Grayscale
1070
   100
1002
}
  0
LINE
  5
1961F
330
193D3
100
AcDbEntity
  8
YODOROGO
100
AcDbLine
 10
13944.80217064596
 20
942.2841744681491
 30
0.0
 11
13928.80217064596
 21
942.2841744681491
 31
0.0
1001
AUTOCAD_POSTSCRIPT_FIGURE
1002
{
1000
PSFILL
1000
Grayscale
1000
Grayscale
1070
   100
1002
}
  0
LINE
  5
19620
330
193D3
100
AcDbEntity
  8
YODOROGO
100
AcDbLine
 10
13944.80217064596
 20
939.8095889822196
 30
0.0
 11
13944.80217064596
 21
942.2841744681491
 31
0.0
1001
AUTOCAD_POSTSCRIPT_FIGURE
1002
{
1000
PSFILL
1000
Grayscale
1000
Grayscale
1070
   100
1002
}
  0
LINE
  5
19621
330
193D3
100
AcDbEntity
  8
YODOROGO
100
AcDbLine
 10
13924.80217064596
 20
906.4874905807087
 30
0.0
 11
13944.80217064596
 21
939.8095889822196
 31
0.0
1001
AUTOCAD_POSTSCRIPT_FIGURE
1002
{
1000
PSFILL
1000
Grayscale
1000
Grayscale
1070
   100
1002
}
  0
LINE
  5
19622
330
193D3
100
AcDbEntity
  8
YODOROGO
100
AcDbLine
 10
13924.80217064596
 20
898.487490580708
 30
0.0
 11
13924.80217064596
 21
906.4874905807087
 31
0.0
1001
AUTOCAD_POSTSCRIPT_FIGURE
1002
{
1000
PSFILL
1000
Grayscale
1000
Grayscale
1070
   100
1002
}
  0
LINE
  5
19623
330
193D3
100
AcDbEntity
  8
YODOROGO
100
AcDbLine
 10
13944.80217064596
 20
923.8095889822183
 30
0.0
 11
13924.80217064596
 21
898.487490580708
 31
0.0
1001
AUTOCAD_POSTSCRIPT_FIGURE
1002
{
1000
PSFILL
1000
Grayscale
1000
Grayscale
1070
   100
1002
}
  0
LINE
  5
19624
330
193D3
100
AcDbEntity
  8
YODOROGO
100
AcDbLine
 10
13944.80217064596
 20
873.8747482146434
 30
0.0
 11
13944.80217064596
 21
923.8095889822183
 31
0.0
1001
AUTOCAD_POSTSCRIPT_FIGURE
1002
{
1000
PSFILL
1000
Grayscale
1000
Grayscale
1070
   100
1002
}
  0
LINE
  5
19625
330
193D3
100
AcDbEntity
  8
YODOROGO
100
AcDbLine
 10
13952.80217064596
 20
873.8747482146434
 30
0.0
 11
13944.80217064596
 21
873.8747482146434
 31
0.0
1001
AUTOCAD_POSTSCRIPT_FIGURE
1002
{
1000
PSFILL
1000
Grayscale
1000
Grayscale
1070
   100
1002
}
  0
LINE
  5
19626
330
193D3
100
AcDbEntity
  8
YODOROGO
100
AcDbLine
 10
13952.80217064596
 20
924.7045060794032
 30
0.0
 11
13952.80217064596
 21
873.8747482146434
 31
0.0
1001
AUTOCAD_POSTSCRIPT_FIGURE
1002
{
1000
PSFILL
1000
Grayscale
1000
Grayscale
1070
   100
1002
}
  0
LINE
  5
19627
330
193D3
100
AcDbEntity
  8
YODOROGO
100
AcDbLine
 10
13968.80217064596
 20
898.487490580708
 30
0.0
 11
13952.80217064596
 21
924.7045060794032
 31
0.0
1001
AUTOCAD_POSTSCRIPT_FIGURE
1002
{
1000
PSFILL
1000
Grayscale
1000
Grayscale
1070
   100
1002
}
  0
LINE
  5
19628
330
193D3
100
AcDbEntity
  8
YODOROGO
100
AcDbLine
 10
13968.80217064596
 20
906.4874905807087
 30
0.0
 11
13968.80217064596
 21
898.487490580708
 31
0.0
1001
AUTOCAD_POSTSCRIPT_FIGURE
1002
{
1000
PSFILL
1000
Grayscale
1000
Grayscale
1070
   100
1002
}
  0
LINE
  5
19629
330
193D3
100
AcDbEntity
  8
YODOROGO
100
AcDbLine
 10
13952.80217064596
 20
940.7045060794041
 30
0.0
 11
13968.80217064596
 21
906.4874905807087
 31
0.0
1001
AUTOCAD_POSTSCRIPT_FIGURE
1002
{
1000
PSFILL
1000
Grayscale
1000
Grayscale
1070
   100
1002
}
  0
LINE
  5
1962A
330
193D3
100
AcDbEntity
  8
YODOROGO
100
AcDbLine
 10
13952.80217064596
 20
942.2841744681502
 30
0.0
 11
13952.80217064596
 21
940.7045060794041
 31
0.0
1001
AUTOCAD_POSTSCRIPT_FIGURE
1002
{
1000
PSFILL
1000
Grayscale
1000
Grayscale
1070
   100
1002
}
  0
LINE
  5
1962B
330
193D3
100
AcDbEntity
  8
YODOROGO
100
AcDbLine
 10
13968.80217064596
 20
942.2841744681491
 30
0.0
 11
13952.80217064596
 21
942.2841744681502
 31
0.0
1001
AUTOCAD_POSTSCRIPT_FIGURE
1002
{
1000
PSFILL
1000
Grayscale
1000
Grayscale
1070
   100
1002
}
  0
LINE
  5
1962C
330
193D3
100
AcDbEntity
  8
YODOROGO
100
AcDbLine
 10
13968.80217064596
 20
950.2841744681497
 30
0.0
 11
13968.80217064596
 21
942.2841744681491
 31
0.0
1001
AUTOCAD_POSTSCRIPT_FIGURE
1002
{
1000
PSFILL
1000
Grayscale
1000
Grayscale
1070
   100
1002
}
  0
LINE
  5
1962D
330
193D3
100
AcDbEntity
  8
YODOROGO
100
AcDbLine
 10
13952.80217064596
 20
950.2841744681497
 30
0.0
 11
13968.80217064596
 21
950.2841744681497
 31
0.0
1001
AUTOCAD_POSTSCRIPT_FIGURE
1002
{
1000
PSFILL
1000
Grayscale
1000
Grayscale
1070
   100
1002
}
  0
LINE
  5
1962E
330
193D3
100
AcDbEntity
  8
YODOROGO
100
AcDbLine
 10
13952.80217064596
 20
969.8747482146441
 30
0.0
 11
13952.80217064596
 21
950.2841744681497
 31
0.0
1001
AUTOCAD_POSTSCRIPT_FIGURE
1002
{
1000
PSFILL
1000
Grayscale
1000
Grayscale
1070
   100
1002
}
  0
LINE
  5
1962F
330
193D3
100
AcDbEntity
  8
YODOROGO
100
AcDbLine
 10
13968.80217064596
 20
969.8747482146441
 30
0.0
 11
13952.80217064596
 21
969.8747482146441
 31
0.0
1001
AUTOCAD_POSTSCRIPT_FIGURE
1002
{
1000
PSFILL
1000
Grayscale
1000
Grayscale
1070
   100
1002
}
  0
LINE
  5
19630
330
193D3
100
AcDbEntity
  8
YODOROGO
100
AcDbLine
 10
13968.80217064596
 20
977.8747482146435
 30
0.0
 11
13968.80217064596
 21
969.8747482146441
 31
0.0
1001
AUTOCAD_POSTSCRIPT_FIGURE
1002
{
1000
PSFILL
1000
Grayscale
1000
Grayscale
1070
   100
1002
}
  0
LINE
  5
19631
330
193D3
100
AcDbEntity
  8
YODOROGO
100
AcDbLine
 10
13952.80217064596
 20
977.8747482146435
 30
0.0
 11
13968.80217064596
 21
977.8747482146435
 31
0.0
1001
AUTOCAD_POSTSCRIPT_FIGURE
1002
{
1000
PSFILL
1000
Grayscale
1000
Grayscale
1070
   100
1002
}
  0
LINE
  5
19632
330
193D3
100
AcDbEntity
  8
YODOROGO
100
AcDbLine
 10
13952.80217064596
 20
989.8747482146442
 30
0.0
 11
13952.80217064596
 21
977.8747482146435
 31
0.0
1001
AUTOCAD_POSTSCRIPT_FIGURE
1002
{
1000
PSFILL
1000
Grayscale
1000
Grayscale
1070
   100
1002
}
  0
LINE
  5
19633
330
193D3
100
AcDbEntity
  8
YODOROGO
100
AcDbLine
 10
13944.80217064596
 20
989.8747482146442
 30
0.0
 11
13952.80217064596
 21
989.8747482146442
 31
0.0
1001
AUTOCAD_POSTSCRIPT_FIGURE
1002
{
1000
PSFILL
1000
Grayscale
1000
Grayscale
1070
   100
1002
}
  0
LINE
  5
19634
330
193D3
100
AcDbEntity
  8
YODOROGO
100
AcDbLine
 10
13944.80217064596
 20
977.8747482146435
 30
0.0
 11
13944.80217064596
 21
989.8747482146442
 31
0.0
1001
AUTOCAD_POSTSCRIPT_FIGURE
1002
{
1000
PSFILL
1000
Grayscale
1000
Grayscale
1070
   100
1002
}
  0
LINE
  5
19635
330
193D3
100
AcDbEntity
  8
YODOROGO
100
AcDbLine
 10
13932.80217064596
 20
977.8747482146435
 30
0.0
 11
13944.80217064596
 21
977.8747482146435
 31
0.0
1001
AUTOCAD_POSTSCRIPT_FIGURE
1002
{
1000
PSFILL
1000
Grayscale
1000
Grayscale
1070
   100
1002
}
  0
LINE
  5
19636
330
193D3
100
AcDbEntity
  8
YODOROGO
100
AcDbLine
 10
13932.80217064596
 20
989.8747482146442
 30
0.0
 11
13932.80217064596
 21
977.8747482146435
 31
0.0
1001
AUTOCAD_POSTSCRIPT_FIGURE
1002
{
1000
PSFILL
1000
Grayscale
1000
Grayscale
1070
   100
1002
}
  0
LINE
  5
19637
330
193D3
100
AcDbEntity
  8
YODOROGO
100
AcDbLine
 10
13924.80217064596
 20
989.8747482146442
 30
0.0
 11
13932.80217064596
 21
989.8747482146442
 31
0.0
1001
AUTOCAD_POSTSCRIPT_FIGURE
1002
{
1000
PSFILL
1000
Grayscale
1000
Grayscale
1070
   100
1002
}
  0
LINE
  5
19638
330
193D3
100
AcDbEntity
  8
YODOROGO
100
AcDbLine
 10
13924.80217064596
 20
977.8747482146435
 30
0.0
 11
13924.80217064596
 21
989.8747482146442
 31
0.0
1001
AUTOCAD_POSTSCRIPT_FIGURE
1002
{
1000
PSFILL
1000
Grayscale
1000
Grayscale
1070
   100
1002
}
  0
LINE
  5
19639
330
193D3
100
AcDbEntity
  8
YODOROGO
100
AcDbLine
 10
13908.80217064596
 20
977.8747482146435
 30
0.0
 11
13924.80217064596
 21
977.8747482146435
 31
0.0
1001
AUTOCAD_POSTSCRIPT_FIGURE
1002
{
1000
PSFILL
1000
Grayscale
1000
Grayscale
1070
   100
1002
}
  0
LINE
  5
1963A
330
193D3
100
AcDbEntity
  8
YODOROGO
100
AcDbLine
 10
13908.80217064596
 20
989.8747482146442
 30
0.0
 11
13908.80217064596
 21
977.8747482146435
 31
0.0
1001
AUTOCAD_POSTSCRIPT_FIGURE
1002
{
1000
PSFILL
1000
Grayscale
1000
Grayscale
1070
   100
1002
}
  0
LINE
  5
1963B
330
193D3
100
AcDbEntity
  8
YODOROGO
100
AcDbLine
 10
13900.80217064596
 20
989.8747482146442
 30
0.0
 11
13908.80217064596
 21
989.8747482146442
 31
0.0
1001
AUTOCAD_POSTSCRIPT_FIGURE
1002
{
1000
PSFILL
1000
Grayscale
1000
Grayscale
1070
   100
1002
}
  0
LINE
  5
1963C
330
193D3
100
AcDbEntity
  8
YODOROGO
100
AcDbLine
 10
13900.80217064596
 20
977.8747482146435
 30
0.0
 11
13900.80217064596
 21
989.8747482146442
 31
0.0
1001
AUTOCAD_POSTSCRIPT_FIGURE
1002
{
1000
PSFILL
1000
Grayscale
1000
Grayscale
1070
   100
1002
}
  0
LINE
  5
1963D
330
193D3
100
AcDbEntity
  8
YODOROGO
100
AcDbLine
 10
13888.80217064596
 20
977.8747482146435
 30
0.0
 11
13900.80217064596
 21
977.8747482146435
 31
0.0
1001
AUTOCAD_POSTSCRIPT_FIGURE
1002
{
1000
PSFILL
1000
Grayscale
1000
Grayscale
1070
   100
1002
}
  0
LINE
  5
1963E
330
193D3
100
AcDbEntity
  8
YODOROGO
100
AcDbLine
 10
13888.80217064596
 20
969.8747482146441
 30
0.0
 11
13888.80217064596
 21
977.8747482146435
 31
0.0
1001
AUTOCAD_POSTSCRIPT_FIGURE
1002
{
1000
PSFILL
1000
Grayscale
1000
Grayscale
1070
   100
1002
}
  0
LINE
  5
1963F
330
193D3
100
AcDbEntity
  8
YODOROGO
100
AcDbLine
 10
13900.80217064596
 20
969.8747482146441
 30
0.0
 11
13888.80217064596
 21
969.8747482146441
 31
0.0
1001
AUTOCAD_POSTSCRIPT_FIGURE
1002
{
1000
PSFILL
1000
Grayscale
1000
Grayscale
1070
   100
1002
}
  0
LINE
  5
19640
330
193D3
100
AcDbEntity
  8
YODOROGO
100
AcDbLine
 10
13900.80217064596
 20
957.3932903968525
 30
0.0
 11
13900.80217064596
 21
969.8747482146441
 31
0.0
1001
AUTOCAD_POSTSCRIPT_FIGURE
1002
{
1000
PSFILL
1000
Grayscale
1000
Grayscale
1070
   100
1002
}
  0
LINE
  5
19641
330
193D3
100
AcDbEntity
  8
YODOROGO
100
AcDbLine
 10
13888.80217064596
 20
929.8883739758355
 30
0.0
 11
13900.80217064596
 21
957.3932903968525
 31
0.0
1001
AUTOCAD_POSTSCRIPT_FIGURE
1002
{
1000
PSFILL
1000
Grayscale
1000
Grayscale
1070
   100
1002
}
  0
LINE
  5
19642
330
193D3
100
AcDbEntity
  8
YODOROGO
100
AcDbLine
 10
13888.80217064596
 20
921.8883739758362
 30
0.0
 11
13888.80217064596
 21
929.8883739758355
 31
0.0
1001
AUTOCAD_POSTSCRIPT_FIGURE
1002
{
1000
PSFILL
1000
Grayscale
1000
Grayscale
1070
   100
1002
}
  0
LINE
  5
19643
330
193D3
100
AcDbEntity
  8
YODOROGO
100
AcDbLine
 10
14128.80217064596
 20
933.8747482146439
 30
0.0
 11
14200.80217064594
 21
912.4388128201532
 31
0.0
1001
AUTOCAD_POSTSCRIPT_FIGURE
1002
{
1000
PSFILL
1000
Grayscale
1000
Grayscale
1070
   100
1002
}
  0
LINE
  5
19644
330
193D3
100
AcDbEntity
  8
YODOROGO
100
AcDbLine
 10
14200.80217064594
 20
876.4388128201531
 30
0.0
 11
14128.80217064596
 21
897.8747482146435
 31
0.0
1001
AUTOCAD_POSTSCRIPT_FIGURE
1002
{
1000
PSFILL
1000
Grayscale
1000
Grayscale
1070
   100
1002
}
  0
LINE
  5
19645
330
193D3
100
AcDbEntity
  8
YODOROGO
100
AcDbLine
 10
14200.80217064594
 20
992.4388128201531
 30
0.0
 11
14128.80217064596
 21
1013.874748214644
 31
0.0
1001
AUTOCAD_POSTSCRIPT_FIGURE
1002
{
1000
PSFILL
1000
Grayscale
1000
Grayscale
1070
   100
1002
}
  0
LINE
  5
19646
330
193D3
100
AcDbEntity
  8
YODOROGO
100
AcDbLine
 10
14128.80217064596
 20
979.874748214644
 30
0.0
 11
14200.80217064594
 21
958.4388128201537
 31
0.0
1001
AUTOCAD_POSTSCRIPT_FIGURE
1002
{
1000
PSFILL
1000
Grayscale
1000
Grayscale
1070
   100
1002
}
  0
LINE
  5
19647
330
193D3
100
AcDbEntity
  8
YODOROGO
100
AcDbLine
 10
14128.80217064596
 20
897.8747482146435
 30
0.0
 11
14128.80217064596
 21
933.8747482146439
 31
0.0
1001
AUTOCAD_POSTSCRIPT_FIGURE
1002
{
1000
PSFILL
1000
Grayscale
1000
Grayscale
1070
   100
1002
}
  0
LINE
  5
19648
330
193D3
100
AcDbEntity
  8
YODOROGO
100
AcDbLine
 10
14128.80217064596
 20
1013.874748214644
 30
0.0
 11
14128.80217064596
 21
979.874748214644
 31
0.0
1001
AUTOCAD_POSTSCRIPT_FIGURE
1002
{
1000
PSFILL
1000
Grayscale
1000
Grayscale
1070
   100
1002
}
  0
LINE
  5
19649
330
193D3
100
AcDbEntity
  8
YODOROGO
100
AcDbLine
 10
14040.11816010337
 20
969.8747482146441
 30
0.0
 11
14064.80217064595
 21
873.8747482146434
 31
0.0
1001
AUTOCAD_POSTSCRIPT_FIGURE
1002
{
1000
PSFILL
1000
Grayscale
1000
Grayscale
1070
   100
1002
}
  0
LINE
  5
1964A
330
193D3
100
AcDbEntity
  8
YODOROGO
100
AcDbLine
 10
13988.80217064596
 20
969.8747482146441
 30
0.0
 11
14040.11816010337
 21
969.8747482146441
 31
0.0
1001
AUTOCAD_POSTSCRIPT_FIGURE
1002
{
1000
PSFILL
1000
Grayscale
1000
Grayscale
1070
   100
1002
}
  0
LINE
  5
1964B
330
193D3
100
AcDbEntity
  8
YODOROGO
100
AcDbLine
 10
13988.80217064596
 20
977.8747482146435
 30
0.0
 11
13988.80217064596
 21
969.8747482146441
 31
0.0
1001
AUTOCAD_POSTSCRIPT_FIGURE
1002
{
1000
PSFILL
1000
Grayscale
1000
Grayscale
1070
   100
1002
}
  0
LINE
  5
1964C
330
193D3
100
AcDbEntity
  8
YODOROGO
100
AcDbLine
 10
14038.30343925995
 20
977.8747482146435
 30
0.0
 11
13988.80217064596
 21
977.8747482146435
 31
0.0
1001
AUTOCAD_POSTSCRIPT_FIGURE
1002
{
1000
PSFILL
1000
Grayscale
1000
Grayscale
1070
   100
1002
}
  0
LINE
  5
1964D
330
193D3
100
AcDbEntity
  8
YODOROGO
100
AcDbLine
 10
14035.58135799485
 20
989.8747482146442
 30
0.0
 11
14038.30343925995
 21
977.8747482146435
 31
0.0
1001
AUTOCAD_POSTSCRIPT_FIGURE
1002
{
1000
PSFILL
1000
Grayscale
1000
Grayscale
1070
   100
1002
}
  0
LINE
  5
1964E
330
193D3
100
AcDbEntity
  8
YODOROGO
100
AcDbLine
 10
14045.58135799485
 20
989.8747482146442
 30
0.0
 11
14035.58135799485
 21
989.8747482146442
 31
0.0
1001
AUTOCAD_POSTSCRIPT_FIGURE
1002
{
1000
PSFILL
1000
Grayscale
1000
Grayscale
1070
   100
1002
}
  0
LINE
  5
1964F
330
193D3
100
AcDbEntity
  8
YODOROGO
100
AcDbLine
 10
14047.90343925997
 20
977.8747482146435
 30
0.0
 11
14045.58135799485
 21
989.8747482146442
 31
0.0
1001
AUTOCAD_POSTSCRIPT_FIGURE
1002
{
1000
PSFILL
1000
Grayscale
1000
Grayscale
1070
   100
1002
}
  0
LINE
  5
19650
330
193D3
100
AcDbEntity
  8
YODOROGO
100
AcDbLine
 10
14060.80217064596
 20
977.8747482146435
 30
0.0
 11
14047.90343925997
 21
977.8747482146435
 31
0.0
1001
AUTOCAD_POSTSCRIPT_FIGURE
1002
{
1000
PSFILL
1000
Grayscale
1000
Grayscale
1070
   100
1002
}
  0
LINE
  5
19651
330
193D3
100
AcDbEntity
  8
YODOROGO
100
AcDbLine
 10
14060.80217064596
 20
989.8747482146442
 30
0.0
 11
14060.80217064596
 21
977.8747482146435
 31
0.0
1001
AUTOCAD_POSTSCRIPT_FIGURE
1002
{
1000
PSFILL
1000
Grayscale
1000
Grayscale
1070
   100
1002
}
  0
LINE
  5
19652
330
193D3
100
AcDbEntity
  8
YODOROGO
100
AcDbLine
 10
14068.80217064596
 20
989.8747482146442
 30
0.0
 11
14060.80217064596
 21
989.8747482146442
 31
0.0
1001
AUTOCAD_POSTSCRIPT_FIGURE
1002
{
1000
PSFILL
1000
Grayscale
1000
Grayscale
1070
   100
1002
}
  0
LINE
  5
19653
330
193D3
100
AcDbEntity
  8
YODOROGO
100
AcDbLine
 10
14068.80217064596
 20
977.8747482146435
 30
0.0
 11
14068.80217064596
 21
989.8747482146442
 31
0.0
1001
AUTOCAD_POSTSCRIPT_FIGURE
1002
{
1000
PSFILL
1000
Grayscale
1000
Grayscale
1070
   100
1002
}
  0
LINE
  5
19654
330
193D3
100
AcDbEntity
  8
YODOROGO
100
AcDbLine
 10
14068.80217064596
 20
969.8747482146441
 30
0.0
 11
14068.80217064596
 21
977.8747482146435
 31
0.0
1001
AUTOCAD_POSTSCRIPT_FIGURE
1002
{
1000
PSFILL
1000
Grayscale
1000
Grayscale
1070
   100
1002
}
  0
LINE
  5
19655
330
193D3
100
AcDbEntity
  8
YODOROGO
100
AcDbLine
 10
14049.45149343671
 20
969.8747482146441
 30
0.0
 11
14068.80217064596
 21
969.8747482146441
 31
0.0
1001
AUTOCAD_POSTSCRIPT_FIGURE
1002
{
1000
PSFILL
1000
Grayscale
1000
Grayscale
1070
   100
1002
}
  0
LINE
  5
19656
330
193D3
100
AcDbEntity
  8
YODOROGO
100
AcDbLine
 10
14068.80217064596
 20
873.8747482146434
 30
0.0
 11
14049.45149343671
 21
969.8747482146441
 31
0.0
1001
AUTOCAD_POSTSCRIPT_FIGURE
1002
{
1000
PSFILL
1000
Grayscale
1000
Grayscale
1070
   100
1002
}
  0
LINE
  5
19657
330
193D3
100
AcDbEntity
  8
YODOROGO
100
AcDbLine
 10
14064.80217064595
 20
873.8747482146434
 30
0.0
 11
14068.80217064596
 21
873.8747482146434
 31
0.0
1001
AUTOCAD_POSTSCRIPT_FIGURE
1002
{
1000
PSFILL
1000
Grayscale
1000
Grayscale
1070
   100
1002
}
  0
LINE
  5
19658
330
193D3
100
AcDbEntity
  8
YODOROGO
100
AcDbLine
 10
14039.03460996689
 20
887.8703881493972
 30
0.0
 11
13988.80217064596
 21
873.8747482146434
 31
0.0
  0
LINE
  5
19659
330
193D3
100
AcDbEntity
  8
YODOROGO
100
AcDbLine
 10
14039.03460996689
 20
899.3344897645364
 30
0.0
 11
14039.03460996689
 21
887.8703881493972
 31
0.0
  0
LINE
  5
1965A
330
193D3
100
AcDbEntity
  8
YODOROGO
100
AcDbLine
 10
14016.91839030643
 20
893.4084665668834
 30
0.0
 11
14039.03460996689
 21
899.3344897645364
 31
0.0
  0
LINE
  5
1965B
330
193D3
100
AcDbEntity
  8
YODOROGO
100
AcDbLine
 10
14016.91839030643
 20
936.2841744681499
 30
0.0
 11
14016.91839030643
 21
893.4084665668834
 31
0.0
  0
LINE
  5
1965C
330
193D3
100
AcDbEntity
  8
YODOROGO
100
AcDbLine
 10
14039.03460996689
 20
936.2841744681499
 30
0.0
 11
14016.91839030643
 21
936.2841744681499
 31
0.0
  0
LINE
  5
1965D
330
193D3
100
AcDbEntity
  8
YODOROGO
100
AcDbLine
 10
14039.03460996689
 20
946.2841744681487
 30
0.0
 11
14039.03460996689
 21
936.2841744681499
 31
0.0
  0
LINE
  5
1965E
330
193D3
100
AcDbEntity
  8
YODOROGO
100
AcDbLine
 10
13988.80217064596
 20
946.2841744681487
 30
0.0
 11
14039.03460996689
 21
946.2841744681487
 31
0.0
  0
LINE
  5
1965F
330
193D3
100
AcDbEntity
  8
YODOROGO
100
AcDbLine
 10
13988.80217064596
 20
936.2841744681499
 30
0.0
 11
13988.80217064596
 21
946.2841744681487
 31
0.0
  0
LINE
  5
19660
330
193D3
100
AcDbEntity
  8
YODOROGO
100
AcDbLine
 10
14010.91839030643
 20
936.2841744681499
 30
0.0
 11
13988.80217064596
 21
936.2841744681499
 31
0.0
  0
LINE
  5
19661
330
193D3
100
AcDbEntity
  8
YODOROGO
100
AcDbLine
 10
14010.91839030643
 20
892.3366697971587
 30
0.0
 11
14010.91839030643
 21
936.2841744681499
 31
0.0
  0
LINE
  5
19662
330
193D3
100
AcDbEntity
  8
YODOROGO
100
AcDbLine
 10
13988.80217064596
 20
885.8747482146432
 30
0.0
 11
14010.91839030643
 21
892.3366697971587
 31
0.0
  0
LINE
  5
19663
330
193D3
100
AcDbEntity
  8
YODOROGO
100
AcDbLine
 10
13988.80217064596
 20
873.8747482146434
 30
0.0
 11
13988.80217064596
 21
885.8747482146432
 31
0.0
  0
LINE
  5
19664
330
193D3
100
AcDbEntity
  8
YODOROGO
100
AcDbLine
 10
14000.80217064596
 20
853.874748214644
 30
0.0
 11
14000.80217064596
 21
841.8747482146434
 31
0.0
  0
LINE
  5
19665
330
193D3
100
AcDbEntity
  8
YODOROGO
100
AcDbLine
 10
14000.80217064596
 20
853.874748214644
 30
0.0
 11
14000.80217064596
 21
853.874748214644
 31
0.0
  0
LINE
  5
19666
330
193D3
100
AcDbEntity
  8
YODOROGO
100
AcDbLine
 10
14008.80217064596
 20
853.874748214644
 30
0.0
 11
14000.80217064596
 21
853.874748214644
 31
0.0
  0
LINE
  5
19667
330
193D3
100
AcDbEntity
  8
YODOROGO
100
AcDbLine
 10
14008.80217064596
 20
841.8747482146434
 30
0.0
 11
14008.80217064596
 21
853.874748214644
 31
0.0
  0
LINE
  5
19668
330
193D3
100
AcDbEntity
  8
YODOROGO
100
AcDbLine
 10
14020.45660200844
 20
841.8747482146434
 30
0.0
 11
14008.80217064596
 21
841.8747482146434
 31
0.0
  0
LINE
  5
19669
330
193D3
100
AcDbEntity
  8
YODOROGO
100
AcDbLine
 10
14000.80217064596
 20
841.8747482146434
 30
0.0
 11
13988.80217064596
 21
841.8747482146434
 31
0.0
  0
LINE
  5
1966A
330
193D3
100
AcDbEntity
  8
YODOROGO
100
AcDbLine
 10
14041.06776011546
 20
853.874748214644
 30
0.0
 11
14049.06776011545
 21
853.874748214644
 31
0.0
1001
AUTOCAD_POSTSCRIPT_FIGURE
1002
{
1000
PSFILL
1000
Grayscale
1000
Grayscale
1070
   100
1002
}
  0
LINE
  5
1966B
330
193D3
100
AcDbEntity
  8
YODOROGO
100
AcDbLine
 10
14200.80217064594
 20
912.4388128201532
 30
0.0
 11
14200.80217064594
 21
876.4388128201531
 31
0.0
1001
AUTOCAD_POSTSCRIPT_FIGURE
1002
{
1000
PSFILL
1000
Grayscale
1000
Grayscale
1070
   100
1002
}
  0
LINE
  5
1966C
330
193D3
100
AcDbEntity
  8
YODOROGO
100
AcDbLine
 10
14200.80217064594
 20
958.4388128201537
 30
0.0
 11
14200.80217064594
 21
992.4388128201531
 31
0.0
1001
AUTOCAD_POSTSCRIPT_FIGURE
1002
{
1000
PSFILL
1000
Grayscale
1000
Grayscale
1070
   100
1002
}
  0
LINE
  5
1966D
330
193D3
100
AcDbEntity
  8
YODOROGO
100
AcDbLine
 10
14216.80217064594
 20
909.8747482146439
 30
0.0
 11
14216.80217064594
 21
873.8747482146449
 31
0.0
  0
LINE
  5
1966E
330
193D3
100
AcDbEntity
  8
YODOROGO
100
AcDbLine
 10
14248.80217064594
 20
853.874748214644
 30
0.0
 11
14216.80217064594
 21
853.874748214644
 31
0.0
  0
LINE
  5
1966F
330
193D3
100
AcDbEntity
  8
YODOROGO
100
AcDbLine
 10
14216.80217064594
 20
873.8747482146449
 30
0.0
 11
14292.80217064596
 21
873.8747482146449
 31
0.0
  0
LINE
  5
19670
330
193D3
100
AcDbEntity
  8
YODOROGO
100
AcDbLine
 10
14248.80217064594
 20
933.8747482146439
 30
0.0
 11
14216.80217064594
 21
933.8747482146439
 31
0.0
  0
LINE
  5
19671
330
193D3
100
AcDbEntity
  8
YODOROGO
100
AcDbLine
 10
14248.80217064594
 20
961.8747482146432
 30
0.0
 11
14248.80217064594
 21
933.8747482146439
 31
0.0
  0
LINE
  5
19672
330
193D3
100
AcDbEntity
  8
YODOROGO
100
AcDbLine
 10
14292.80217064596
 20
993.8747482146439
 30
0.0
 11
14292.80217064596
 21
1013.874748214644
 31
0.0
  0
LINE
  5
19673
330
193D3
100
AcDbEntity
  8
YODOROGO
100
AcDbLine
 10
14216.80217064594
 20
993.8747482146439
 30
0.0
 11
14292.80217064596
 21
993.8747482146439
 31
0.0
  0
LINE
  5
19674
330
193D3
100
AcDbEntity
  8
YODOROGO
100
AcDbLine
 10
14216.80217064594
 20
933.8747482146439
 30
0.0
 11
14216.80217064594
 21
993.8747482146439
 31
0.0
  0
LINE
  5
19675
330
193D3
100
AcDbEntity
  8
YODOROGO
100
AcDbLine
 10
14500.80217064594
 20
1013.874748214644
 30
0.0
 11
14500.80217064594
 21
809.8747482146441
 31
0.0
  0
LINE
  5
19676
330
193D3
100
AcDbEntity
  8
YODOROGO
100
AcDbLine
 10
14536.80217064596
 20
789.8747482146441
 30
0.0
 11
14536.80217064596
 21
1013.874748214644
 31
0.0
  0
LINE
  5
19677
330
193D3
100
AcDbEntity
  8
YODOROGO
100
AcDbLine
 10
14630.80217064596
 20
745.8747482146431
 30
0.0
 11
14630.80217064596
 21
1003.874748214644
 31
0.0
  0
LINE
  5
19678
330
193D3
100
AcDbEntity
  8
YODOROGO
100
AcDbLine
 10
14598.80217064596
 20
1003.874748214644
 30
0.0
 11
14598.80217064596
 21
745.8747482146431
 31
0.0
  0
LINE
  5
19679
330
193D3
100
AcDbEntity
  8
YODOROGO
100
AcDbLine
 10
14692.80217064596
 20
1013.874748214644
 30
0.0
 11
14692.80217064596
 21
713.8747482146436
 31
0.0
  0
LINE
  5
1967A
330
193D3
100
AcDbEntity
  8
YODOROGO
100
AcDbLine
 10
14728.80217064596
 20
713.8747482146436
 30
0.0
 11
14728.80217064596
 21
1013.874748214644
 31
0.0
  0
LINE
  5
1967B
330
193D3
100
AcDbEntity
  8
YODOROGO
100
AcDbLine
 10
14328.80217064594
 20
833.8747482146439
 30
0.0
 11
14328.80217064594
 21
873.8747482146449
 31
0.0
  0
LINE
  5
1967C
330
193D3
100
AcDbEntity
  8
YODOROGO
100
AcDbLine
 10
14942.80217064596
 20
853.874748214644
 30
0.0
 11
14942.80217064596
 21
833.8747482146439
 31
0.0
  0
LINE
  5
1967D
330
193D3
100
AcDbEntity
  8
YODOROGO
100
AcDbLine
 10
14942.80217064596
 20
853.874748214644
 30
0.0
 11
14942.80217064596
 21
833.8747482146439
 31
0.0
  0
ARC
  5
1967E
330
193D3
100
AcDbEntity
  8
YODOROGO
100
AcDbCircle
 10
14453.45578809342
 20
809.1089322211363
 30
0.0
 40
47.35257558937082
100
AcDbArc
 50
274.052441629071
 51
0.9266642149310712
  0
ARC
  5
1967F
330
193D3
100
AcDbEntity
  8
YODOROGO
100
AcDbCircle
 10
14454.5930853599
 20
796.30536430522
 30
0.0
 40
82.46021178042756
100
AcDbArc
 50
271.5351210653777
 51
355.5272775058505
  0
LINE
  5
19680
330
193D3
100
AcDbEntity
  8
YODOROGO
100
AcDbLine
 10
14456.80217064596
 20
761.8747482146434
 30
0.0
 11
14456.80217064596
 21
713.8747482146436
 31
0.0
  0
LINE
  5
19681
330
193D3
100
AcDbEntity
  8
YODOROGO
100
AcDbLine
 10
14396.80217064594
 20
833.8747482146439
 30
0.0
 11
14328.80217064594
 21
833.8747482146439
 31
0.0
  0
LINE
  5
19682
330
193D3
100
AcDbEntity
  8
YODOROGO
100
AcDbLine
 10
14396.80217064594
 20
801.8747482146444
 30
0.0
 11
14396.80217064594
 21
833.8747482146439
 31
0.0
  0
LINE
  5
19683
330
193D3
100
AcDbEntity
  8
YODOROGO
100
AcDbLine
 10
14328.80217064594
 20
801.8747482146444
 30
0.0
 11
14396.80217064594
 21
801.8747482146444
 31
0.0
  0
LINE
  5
19684
330
193D3
100
AcDbEntity
  8
YODOROGO
100
AcDbLine
 10
14328.80217064594
 20
761.8747482146434
 30
0.0
 11
14328.80217064594
 21
801.8747482146444
 31
0.0
  0
LINE
  5
19685
330
193D3
100
AcDbEntity
  8
YODOROGO
100
AcDbLine
 10
14396.80217064594
 20
761.8747482146434
 30
0.0
 11
14328.80217064594
 21
761.8747482146434
 31
0.0
  0
LINE
  5
19686
330
193D3
100
AcDbEntity
  8
YODOROGO
100
AcDbLine
 10
14396.80217064594
 20
713.8747482146436
 30
0.0
 11
14396.80217064594
 21
761.8747482146434
 31
0.0
  0
LINE
  5
19687
330
193D3
100
AcDbEntity
  8
YODOROGO
100
AcDbLine
 10
14598.80217064596
 20
745.8747482146431
 30
0.0
 11
14630.80217064596
 21
745.8747482146431
 31
0.0
  0
LINE
  5
19688
330
193D3
100
AcDbEntity
  8
YODOROGO
100
AcDbLine
 10
14692.80217064596
 20
713.8747482146436
 30
0.0
 11
14728.80217064596
 21
713.8747482146436
 31
0.0
  0
LINE
  5
19689
330
193D3
100
AcDbEntity
  8
YODOROGO
100
AcDbLine
 10
14868.80217064596
 20
764.2207260852818
 30
0.0
 11
14868.80217064596
 21
713.8747482146436
 31
0.0
  0
LINE
  5
1968A
330
193D3
100
AcDbEntity
  8
YODOROGO
100
AcDbLine
 10
14808.80217064596
 20
713.8747482146436
 30
0.0
 11
14868.80217064596
 21
764.2207260852818
 31
0.0
  0
LINE
  5
1968B
330
193D3
100
AcDbEntity
  8
YODOROGO
100
AcDbLine
 10
14808.80217064596
 20
773.874748214644
 30
0.0
 11
14808.80217064596
 21
713.8747482146436
 31
0.0
  0
LINE
  5
1968C
330
193D3
100
AcDbEntity
  8
YODOROGO
100
AcDbLine
 10
14856.47231434973
 20
813.8747482146435
 30
0.0
 11
14808.80217064596
 21
773.874748214644
 31
0.0
  0
LINE
  5
1968D
330
193D3
100
AcDbEntity
  8
YODOROGO
100
AcDbLine
 10
14808.80217064596
 20
813.8747482146435
 30
0.0
 11
14856.47231434973
 21
813.8747482146435
 31
0.0
  0
LINE
  5
1968E
330
193D3
100
AcDbEntity
  8
YODOROGO
100
AcDbLine
 10
14808.80217064596
 20
833.8747482146439
 30
0.0
 11
14808.80217064596
 21
813.8747482146435
 31
0.0
  0
LINE
  5
1968F
330
193D3
100
AcDbEntity
  8
YODOROGO
100
AcDbLine
 10
14942.80217064596
 20
833.8747482146439
 30
0.0
 11
14808.80217064596
 21
833.8747482146439
 31
0.0
  0
LINE
  5
19690
330
193D3
100
AcDbEntity
  8
YODOROGO
100
AcDbLine
 10
14958.80217064596
 20
813.8747482146435
 30
0.0
 11
14888.80217064596
 21
813.8747482146435
 31
0.0
  0
LINE
  5
19691
330
193D3
100
AcDbEntity
  8
YODOROGO
100
AcDbLine
 10
14888.80217064596
 20
781.0027187088283
 30
0.0
 11
14885.70493649264
 21
778.403830673117
 31
0.0
  0
LINE
  5
19692
330
193D3
100
AcDbEntity
  8
YODOROGO
100
AcDbLine
 10
14888.80217064596
 20
813.8747482146435
 30
0.0
 11
14888.80217064596
 21
781.0027187088283
 31
0.0
  0
LINE
  5
19693
330
193D3
100
AcDbEntity
  8
YODOROGO
100
AcDbLine
 10
14868.80217064596
 20
764.2207260852818
 30
0.0
 11
14868.80217064596
 21
713.8747482146436
 31
0.0
  0
LINE
  5
19694
330
193D3
100
AcDbEntity
  8
YODOROGO
100
AcDbLine
 10
14808.80217064596
 20
713.8747482146436
 30
0.0
 11
14868.80217064596
 21
764.2207260852818
 31
0.0
  0
LINE
  5
19695
330
193D3
100
AcDbEntity
  8
YODOROGO
100
AcDbLine
 10
14808.80217064596
 20
773.874748214644
 30
0.0
 11
14808.80217064596
 21
713.8747482146436
 31
0.0
  0
LINE
  5
19696
330
193D3
100
AcDbEntity
  8
YODOROGO
100
AcDbLine
 10
14856.47231434973
 20
813.8747482146435
 30
0.0
 11
14808.80217064596
 21
773.874748214644
 31
0.0
  0
LINE
  5
19697
330
193D3
100
AcDbEntity
  8
YODOROGO
100
AcDbLine
 10
14808.80217064596
 20
813.8747482146435
 30
0.0
 11
14856.47231434973
 21
813.8747482146435
 31
0.0
  0
LINE
  5
19698
330
193D3
100
AcDbEntity
  8
YODOROGO
100
AcDbLine
 10
14808.80217064596
 20
833.8747482146439
 30
0.0
 11
14808.80217064596
 21
813.8747482146435
 31
0.0
  0
LINE
  5
19699
330
193D3
100
AcDbEntity
  8
YODOROGO
100
AcDbLine
 10
14942.80217064596
 20
833.8747482146439
 30
0.0
 11
14808.80217064596
 21
833.8747482146439
 31
0.0
  0
LINE
  5
1969A
330
193D3
100
AcDbEntity
  8
YODOROGO
100
AcDbLine
 10
14396.80217064594
 20
873.8747482146449
 30
0.0
 11
14396.80217064594
 21
909.8747482146439
 31
0.0
  0
LINE
  5
1969B
330
193D3
100
AcDbEntity
  8
YODOROGO
100
AcDbLine
 10
14328.80217064594
 20
873.8747482146449
 30
0.0
 11
14396.80217064594
 21
873.8747482146449
 31
0.0
  0
LINE
  5
1969C
330
193D3
100
AcDbEntity
  8
YODOROGO
100
AcDbLine
 10
14364.80217064596
 20
933.8747482146439
 30
0.0
 11
14364.80217064596
 21
961.8747482146432
 31
0.0
  0
LINE
  5
1969D
330
193D3
100
AcDbEntity
  8
YODOROGO
100
AcDbLine
 10
14396.80217064594
 20
933.8747482146439
 30
0.0
 11
14364.80217064596
 21
933.8747482146439
 31
0.0
  0
LINE
  5
1969E
330
193D3
100
AcDbEntity
  8
YODOROGO
100
AcDbLine
 10
14396.80217064594
 20
973.8747482146434
 30
0.0
 11
14396.80217064594
 21
933.8747482146439
 31
0.0
  0
ARC
  5
1969F
330
193D3
100
AcDbEntity
  8
YODOROGO
100
AcDbCircle
 10
14376.80217064594
 20
973.8747482146434
 30
0.0
 40
20.0
100
AcDbArc
 50
0.0
 51
90.0
  0
LINE
  5
196A0
330
193D3
100
AcDbEntity
  8
YODOROGO
100
AcDbLine
 10
14328.80217064596
 20
993.8747482146439
 30
0.0
 11
14376.80217064594
 21
993.8747482146439
 31
0.0
  0
LINE
  5
196A1
330
193D3
100
AcDbEntity
  8
YODOROGO
100
AcDbLine
 10
14328.80217064596
 20
1013.874748214644
 30
0.0
 11
14328.80217064596
 21
993.8747482146439
 31
0.0
  0
LINE
  5
196A2
330
193D3
100
AcDbEntity
  8
YODOROGO
100
AcDbLine
 10
14536.80217064596
 20
1013.874748214644
 30
0.0
 11
14500.80217064594
 21
1013.874748214644
 31
0.0
  0
LINE
  5
196A3
330
193D3
100
AcDbEntity
  8
YODOROGO
100
AcDbLine
 10
14630.80217064596
 20
1003.874748214644
 30
0.0
 11
14598.80217064596
 21
1003.874748214644
 31
0.0
  0
LINE
  5
196A4
330
193D3
100
AcDbEntity
  8
YODOROGO
100
AcDbLine
 10
14728.80217064596
 20
1013.874748214644
 30
0.0
 11
14692.80217064596
 21
1013.874748214644
 31
0.0
  0
LINE
  5
196A5
330
193D3
100
AcDbEntity
  8
YODOROGO
100
AcDbLine
 10
14836.80217064596
 20
853.874748214644
 30
0.0
 11
14836.80217064596
 21
885.8747482146441
 31
0.0
1001
AUTOCAD_POSTSCRIPT_FIGURE
1002
{
1000
PSFILL
1000
Grayscale
1000
Grayscale
1070
    25
1002
}
  0
LINE
  5
196A6
330
193D3
100
AcDbEntity
  8
YODOROGO
100
AcDbLine
 10
14808.80217064596
 20
853.874748214644
 30
0.0
 11
14836.80217064596
 21
853.874748214644
 31
0.0
1001
AUTOCAD_POSTSCRIPT_FIGURE
1002
{
1000
PSFILL
1000
Grayscale
1000
Grayscale
1070
    25
1002
}
  0
LINE
  5
196A7
330
193D3
100
AcDbEntity
  8
YODOROGO
100
AcDbLine
 10
14808.80217064596
 20
909.8747482146439
 30
0.0
 11
14808.80217064596
 21
853.874748214644
 31
0.0
1001
AUTOCAD_POSTSCRIPT_FIGURE
1002
{
1000
PSFILL
1000
Grayscale
1000
Grayscale
1070
    25
1002
}
  0
LINE
  5
196A8
330
193D3
100
AcDbEntity
  8
YODOROGO
100
AcDbLine
 10
14882.80217064596
 20
909.8747482146439
 30
0.0
 11
14808.80217064596
 21
909.8747482146439
 31
0.0
1001
AUTOCAD_POSTSCRIPT_FIGURE
1002
{
1000
PSFILL
1000
Grayscale
1000
Grayscale
1070
    25
1002
}
  0
LINE
  5
196A9
330
193D3
100
AcDbEntity
  8
YODOROGO
100
AcDbLine
 10
14882.80217064596
 20
929.874748214644
 30
0.0
 11
14882.80217064596
 21
909.8747482146439
 31
0.0
1001
AUTOCAD_POSTSCRIPT_FIGURE
1002
{
1000
PSFILL
1000
Grayscale
1000
Grayscale
1070
    25
1002
}
  0
LINE
  5
196AA
330
193D3
100
AcDbEntity
  8
YODOROGO
100
AcDbLine
 10
14808.80217064596
 20
929.874748214644
 30
0.0
 11
14882.80217064596
 21
929.874748214644
 31
0.0
1001
AUTOCAD_POSTSCRIPT_FIGURE
1002
{
1000
PSFILL
1000
Grayscale
1000
Grayscale
1070
    25
1002
}
  0
LINE
  5
196AB
330
193D3
100
AcDbEntity
  8
YODOROGO
100
AcDbLine
 10
14808.80217064596
 20
953.874748214644
 30
0.0
 11
14808.80217064596
 21
929.874748214644
 31
0.0
1001
AUTOCAD_POSTSCRIPT_FIGURE
1002
{
1000
PSFILL
1000
Grayscale
1000
Grayscale
1070
    25
1002
}
  0
LINE
  5
196AC
330
193D3
100
AcDbEntity
  8
YODOROGO
100
AcDbLine
 10
14882.80217064596
 20
953.874748214644
 30
0.0
 11
14808.80217064596
 21
953.874748214644
 31
0.0
1001
AUTOCAD_POSTSCRIPT_FIGURE
1002
{
1000
PSFILL
1000
Grayscale
1000
Grayscale
1070
    25
1002
}
  0
LINE
  5
196AD
330
193D3
100
AcDbEntity
  8
YODOROGO
100
AcDbLine
 10
14882.80217064596
 20
973.8747482146434
 30
0.0
 11
14882.80217064596
 21
953.874748214644
 31
0.0
1001
AUTOCAD_POSTSCRIPT_FIGURE
1002
{
1000
PSFILL
1000
Grayscale
1000
Grayscale
1070
    25
1002
}
  0
LINE
  5
196AE
330
193D3
100
AcDbEntity
  8
YODOROGO
100
AcDbLine
 10
14808.80217064596
 20
973.8747482146434
 30
0.0
 11
14882.80217064596
 21
973.8747482146434
 31
0.0
1001
AUTOCAD_POSTSCRIPT_FIGURE
1002
{
1000
PSFILL
1000
Grayscale
1000
Grayscale
1070
    25
1002
}
  0
LINE
  5
196AF
330
193D3
100
AcDbEntity
  8
YODOROGO
100
AcDbLine
 10
14808.80217064596
 20
1013.874748214644
 30
0.0
 11
14808.80217064596
 21
973.8747482146434
 31
0.0
1001
AUTOCAD_POSTSCRIPT_FIGURE
1002
{
1000
PSFILL
1000
Grayscale
1000
Grayscale
1070
    25
1002
}
  0
LINE
  5
196B0
330
193D3
100
AcDbEntity
  8
YODOROGO
100
AcDbLine
 10
14832.80217064596
 20
1013.874748214644
 30
0.0
 11
14808.80217064596
 21
1013.874748214644
 31
0.0
1001
AUTOCAD_POSTSCRIPT_FIGURE
1002
{
1000
PSFILL
1000
Grayscale
1000
Grayscale
1070
    25
1002
}
  0
LINE
  5
196B1
330
193D3
100
AcDbEntity
  8
YODOROGO
100
AcDbLine
 10
14832.80217064596
 20
997.8747482146435
 30
0.0
 11
14832.80217064596
 21
1013.874748214644
 31
0.0
1001
AUTOCAD_POSTSCRIPT_FIGURE
1002
{
1000
PSFILL
1000
Grayscale
1000
Grayscale
1070
    25
1002
}
  0
LINE
  5
196B2
330
193D3
100
AcDbEntity
  8
YODOROGO
100
AcDbLine
 10
14882.80217064596
 20
997.8747482146435
 30
0.0
 11
14832.80217064596
 21
997.8747482146435
 31
0.0
1001
AUTOCAD_POSTSCRIPT_FIGURE
1002
{
1000
PSFILL
1000
Grayscale
1000
Grayscale
1070
    25
1002
}
  0
LINE
  5
196B3
330
193D3
100
AcDbEntity
  8
YODOROGO
100
AcDbLine
 10
14882.80217064596
 20
1013.874748214644
 30
0.0
 11
14882.80217064596
 21
997.8747482146435
 31
0.0
1001
AUTOCAD_POSTSCRIPT_FIGURE
1002
{
1000
PSFILL
1000
Grayscale
1000
Grayscale
1070
    25
1002
}
  0
LINE
  5
196B4
330
193D3
100
AcDbEntity
  8
YODOROGO
100
AcDbLine
 10
14914.80217064596
 20
1013.874748214644
 30
0.0
 11
14882.80217064596
 21
1013.874748214644
 31
0.0
1001
AUTOCAD_POSTSCRIPT_FIGURE
1002
{
1000
PSFILL
1000
Grayscale
1000
Grayscale
1070
    25
1002
}
  0
LINE
  5
196B5
330
193D3
100
AcDbEntity
  8
YODOROGO
100
AcDbLine
 10
14914.80217064596
 20
997.8747482146435
 30
0.0
 11
14914.80217064596
 21
1013.874748214644
 31
0.0
1001
AUTOCAD_POSTSCRIPT_FIGURE
1002
{
1000
PSFILL
1000
Grayscale
1000
Grayscale
1070
    25
1002
}
  0
LINE
  5
196B6
330
193D3
100
AcDbEntity
  8
YODOROGO
100
AcDbLine
 10
14914.80217064596
 20
953.874748214644
 30
0.0
 11
14914.80217064596
 21
973.8747482146434
 31
0.0
1001
AUTOCAD_POSTSCRIPT_FIGURE
1002
{
1000
PSFILL
1000
Grayscale
1000
Grayscale
1070
    25
1002
}
  0
LINE
  5
196B7
330
193D3
100
AcDbEntity
  8
YODOROGO
100
AcDbLine
 10
14914.80217064596
 20
909.8747482146439
 30
0.0
 11
14914.80217064596
 21
929.874748214644
 31
0.0
1001
AUTOCAD_POSTSCRIPT_FIGURE
1002
{
1000
PSFILL
1000
Grayscale
1000
Grayscale
1070
    25
1002
}
  0
LINE
  5
196B8
330
193D3
100
AcDbEntity
  8
YODOROGO
100
AcDbLine
 10
14960.80217064594
 20
885.8747482146441
 30
0.0
 11
14960.80217064594
 21
853.874748214644
 31
0.0
1001
AUTOCAD_POSTSCRIPT_FIGURE
1002
{
1000
PSFILL
1000
Grayscale
1000
Grayscale
1070
    25
1002
}
  0
LINE
  5
196B9
330
193D3
100
AcDbEntity
  8
YODOROGO
100
AcDbLine
 10
14914.80217064596
 20
885.8747482146441
 30
0.0
 11
14960.80217064594
 21
885.8747482146441
 31
0.0
1001
AUTOCAD_POSTSCRIPT_FIGURE
1002
{
1000
PSFILL
1000
Grayscale
1000
Grayscale
1070
    25
1002
}
  0
LINE
  5
196BA
330
193D3
100
AcDbEntity
  8
YODOROGO
100
AcDbLine
 10
14914.80217064596
 20
853.874748214644
 30
0.0
 11
14914.80217064596
 21
885.8747482146441
 31
0.0
1001
AUTOCAD_POSTSCRIPT_FIGURE
1002
{
1000
PSFILL
1000
Grayscale
1000
Grayscale
1070
    25
1002
}
  0
LINE
  5
196BB
330
193D3
100
AcDbEntity
  8
YODOROGO
100
AcDbLine
 10
14882.80217064596
 20
853.874748214644
 30
0.0
 11
14914.80217064596
 21
853.874748214644
 31
0.0
1001
AUTOCAD_POSTSCRIPT_FIGURE
1002
{
1000
PSFILL
1000
Grayscale
1000
Grayscale
1070
    25
1002
}
  0
LINE
  5
196BC
330
193D3
100
AcDbEntity
  8
YODOROGO
100
AcDbLine
 10
14882.80217064596
 20
885.8747482146441
 30
0.0
 11
14882.80217064596
 21
853.874748214644
 31
0.0
1001
AUTOCAD_POSTSCRIPT_FIGURE
1002
{
1000
PSFILL
1000
Grayscale
1000
Grayscale
1070
    25
1002
}
  0
LINE
  5
196BD
330
193D3
100
AcDbEntity
  8
YODOROGO
100
AcDbLine
 10
14836.80217064596
 20
885.8747482146441
 30
0.0
 11
14882.80217064596
 21
885.8747482146441
 31
0.0
1001
AUTOCAD_POSTSCRIPT_FIGURE
1002
{
1000
PSFILL
1000
Grayscale
1000
Grayscale
1070
    25
1002
}
  0
ARC
  5
196BE
330
193D3
100
AcDbEntity
  8
YODOROGO
100
AcDbCircle
 10
15529.75894667896
 20
801.3403687577881
 30
0.0
 40
89.11064055536078
100
AcDbArc
 50
281.0262749542535
 51
357.771135755738
  0
LINE
  5
196BF
330
193D3
100
AcDbEntity
  8
YODOROGO
100
AcDbLine
 10
15706.80217064596
 20
953.874748214644
 30
0.0
 11
15582.80217064596
 21
953.874748214644
 31
0.0
  0
LINE
  5
196C0
330
193D3
100
AcDbEntity
  8
YODOROGO
100
AcDbLine
 10
15706.80217064596
 20
1013.874748214644
 30
0.0
 11
15582.80217064596
 21
1013.874748214644
 31
0.0
  0
LINE
  5
196C1
330
193D3
100
AcDbEntity
  8
YODOROGO
100
AcDbLine
 10
15582.80217064596
 20
981.8747482146434
 30
0.0
 11
15706.80217064596
 21
981.8747482146434
 31
0.0
  0
LINE
  5
196C2
330
193D3
100
AcDbEntity
  8
YODOROGO
100
AcDbLine
 10
15395.80217064596
 20
781.8747482146434
 30
0.0
 11
15395.80217064596
 21
877.8747482146435
 31
0.0
  0
LINE
  5
196C3
330
193D3
100
AcDbEntity
  8
YODOROGO
100
AcDbLine
 10
15381.80217064596
 20
845.8747482146444
 30
0.0
 11
15381.80217064596
 21
781.8747482146434
 31
0.0
  0
LINE
  5
196C4
330
193D3
100
AcDbEntity
  8
YODOROGO
100
AcDbLine
 10
15361.80217064596
 20
745.8747482146443
 30
0.0
 11
15361.80217064596
 21
845.8747482146444
 31
0.0
  0
LINE
  5
196C5
330
193D3
100
AcDbEntity
  8
YODOROGO
100
AcDbLine
 10
15449.80217064596
 20
845.8747482146444
 30
0.0
 11
15449.80217064596
 21
745.8747482146443
 31
0.0
  0
LINE
  5
196C6
330
193D3
100
AcDbEntity
  8
YODOROGO
100
AcDbLine
 10
15429.80217064596
 20
781.8747482146434
 30
0.0
 11
15429.80217064596
 21
845.8747482146444
 31
0.0
  0
LINE
  5
196C7
330
193D3
100
AcDbEntity
  8
YODOROGO
100
AcDbLine
 10
15415.80217064596
 20
877.8747482146435
 30
0.0
 11
15415.80217064596
 21
781.8747482146434
 31
0.0
  0
LINE
  5
196C8
330
193D3
100
AcDbEntity
  8
YODOROGO
100
AcDbLine
 10
15486.80217064596
 20
1013.874748214644
 30
0.0
 11
15486.80217064596
 21
733.8747482146435
 31
0.0
  0
LINE
  5
196C9
330
193D3
100
AcDbEntity
  8
YODOROGO
100
AcDbLine
 10
15322.80217064596
 20
713.8747482146436
 30
0.0
 11
15322.80217064596
 21
1013.874748214644
 31
0.0
  0
LINE
  5
196CA
330
193D3
100
AcDbEntity
  8
YODOROGO
100
AcDbLine
 10
15348.80217064596
 20
981.8747482146434
 30
0.0
 11
15348.80217064596
 21
713.8747482146436
 31
0.0
  0
LINE
  5
196CB
330
193D3
100
AcDbEntity
  8
YODOROGO
100
AcDbLine
 10
15462.80217064596
 20
773.874748214644
 30
0.0
 11
15462.80217064596
 21
981.8747482146434
 31
0.0
  0
LINE
  5
196CC
330
193D3
100
AcDbEntity
  8
YODOROGO
100
AcDbLine
 10
15190.80217064596
 20
813.8747482146435
 30
0.0
 11
15190.80217064596
 21
839.8747482146442
 31
0.0
  0
LINE
  5
196CD
330
193D3
100
AcDbEntity
  8
YODOROGO
100
AcDbLine
 10
15308.80217064596
 20
839.8747482146442
 30
0.0
 11
15308.80217064596
 21
813.8747482146435
 31
0.0
  0
LINE
  5
196CE
330
193D3
100
AcDbEntity
  8
YODOROGO
100
AcDbLine
 10
15582.80217064596
 20
953.874748214644
 30
0.0
 11
15582.80217064596
 21
817.8747482146436
 31
0.0
  0
LINE
  5
196CF
330
193D3
100
AcDbEntity
  8
YODOROGO
100
AcDbLine
 10
14974.80217064595
 20
833.8747482146439
 30
0.0
 11
14974.80217064595
 21
853.874748214644
 31
0.0
  0
LINE
  5
196D0
330
193D3
100
AcDbEntity
  8
YODOROGO
100
AcDbLine
 10
14974.80217064595
 20
833.8747482146439
 30
0.0
 11
14974.80217064595
 21
853.874748214644
 31
0.0
  0
ARC
  5
196D1
330
193D3
100
AcDbEntity
  8
YODOROGO
100
AcDbCircle
 10
15268.80217064596
 20
753.8747482146439
 30
0.0
 40
40.0
100
AcDbArc
 50
270.0
 51
0.0
  0
LINE
  5
196D2
330
193D3
100
AcDbEntity
  8
YODOROGO
100
AcDbLine
 10
15284.80217064596
 20
799.8747482146441
 30
0.0
 11
15308.80217064596
 21
799.8747482146441
 31
0.0
  0
LINE
  5
196D3
330
193D3
100
AcDbEntity
  8
YODOROGO
100
AcDbLine
 10
15308.80217064596
 20
813.8747482146435
 30
0.0
 11
15264.80217064596
 21
813.8747482146435
 31
0.0
  0
LINE
  5
196D4
330
193D3
100
AcDbEntity
  8
YODOROGO
100
AcDbLine
 10
15108.80217064596
 20
833.8747482146439
 30
0.0
 11
14974.80217064595
 21
833.8747482146439
 31
0.0
  0
LINE
  5
196D5
330
193D3
100
AcDbEntity
  8
YODOROGO
100
AcDbLine
 10
15108.80217064596
 20
813.8747482146435
 30
0.0
 11
15108.80217064596
 21
833.8747482146439
 31
0.0
  0
LINE
  5
196D6
330
193D3
100
AcDbEntity
  8
YODOROGO
100
AcDbLine
 10
15008.80217064596
 20
813.8747482146435
 30
0.0
 11
15108.80217064596
 21
813.8747482146435
 31
0.0
  0
ARC
  5
196D7
330
193D3
100
AcDbEntity
  8
YODOROGO
100
AcDbCircle
 10
15115.02941435068
 20
934.4428574764513
 30
0.0
 40
160.6888181426141
100
AcDbArc
 50
228.6181454618993
 51
245.660289248906
  0
LINE
  5
196D8
330
193D3
100
AcDbEntity
  8
YODOROGO
100
AcDbLine
 10
15052.80217064596
 20
801.8747482146444
 30
0.0
 11
15048.80217064598
 21
788.0364079349501
 31
0.0
  0
LINE
  5
196D9
330
193D3
100
AcDbEntity
  8
YODOROGO
100
AcDbLine
 10
15094.80217064596
 20
801.8747482146444
 30
0.0
 11
15052.80217064596
 21
801.8747482146444
 31
0.0
  0
LINE
  5
196DA
330
193D3
100
AcDbEntity
  8
YODOROGO
100
AcDbLine
 10
15088.80217064596
 20
775.9088612367134
 30
0.0
 11
15094.80217064596
 21
801.8747482146444
 31
0.0
  0
ARC
  5
196DB
330
193D3
100
AcDbEntity
  8
YODOROGO
100
AcDbCircle
 10
15115.02941435023
 20
934.4428574765014
 30
0.0
 40
160.6888181426453
100
AcDbArc
 50
260.6062929796992
 51
267.7790355655586
  0
LINE
  5
196DC
330
193D3
100
AcDbEntity
  8
YODOROGO
100
AcDbLine
 10
15108.80217064596
 20
713.8747482146428
 30
0.0
 11
15108.80217064596
 21
773.874748214644
 31
0.0
  0
LINE
  5
196DD
330
193D3
100
AcDbEntity
  8
YODOROGO
100
AcDbLine
 10
14968.80217064596
 20
740.6696674577553
 30
0.0
 11
14968.80217064596
 21
797.2655452655705
 31
0.0
  0
LINE
  5
196DE
330
193D3
100
AcDbEntity
  8
YODOROGO
100
AcDbLine
 10
15108.80217064596
 20
833.8747482146439
 30
0.0
 11
14974.80217064595
 21
833.8747482146439
 31
0.0
  0
LINE
  5
196DF
330
193D3
100
AcDbEntity
  8
YODOROGO
100
AcDbLine
 10
15108.80217064596
 20
813.8747482146435
 30
0.0
 11
15108.80217064596
 21
833.8747482146439
 31
0.0
  0
LINE
  5
196E0
330
193D3
100
AcDbEntity
  8
YODOROGO
100
AcDbLine
 10
15008.80217064596
 20
813.8747482146435
 30
0.0
 11
15108.80217064596
 21
813.8747482146435
 31
0.0
  0
ARC
  5
196E1
330
193D3
100
AcDbEntity
  8
YODOROGO
100
AcDbCircle
 10
15115.02941435068
 20
934.4428574764513
 30
0.0
 40
160.6888181426141
100
AcDbArc
 50
228.6181454618993
 51
245.660289248906
  0
LINE
  5
196E2
330
193D3
100
AcDbEntity
  8
YODOROGO
100
AcDbLine
 10
15052.80217064596
 20
801.8747482146444
 30
0.0
 11
15048.80217064598
 21
788.0364079349501
 31
0.0
  0
LINE
  5
196E3
330
193D3
100
AcDbEntity
  8
YODOROGO
100
AcDbLine
 10
15094.80217064596
 20
801.8747482146444
 30
0.0
 11
15052.80217064596
 21
801.8747482146444
 31
0.0
  0
LINE
  5
196E4
330
193D3
100
AcDbEntity
  8
YODOROGO
100
AcDbLine
 10
15088.80217064596
 20
775.9088612367134
 30
0.0
 11
15094.80217064596
 21
801.8747482146444
 31
0.0
  0
ARC
  5
196E5
330
193D3
100
AcDbEntity
  8
YODOROGO
100
AcDbCircle
 10
15115.02941435023
 20
934.4428574765014
 30
0.0
 40
160.6888181426453
100
AcDbArc
 50
260.6062929796992
 51
267.7790355655586
  0
LINE
  5
196E6
330
193D3
100
AcDbEntity
  8
YODOROGO
100
AcDbLine
 10
15108.80217064596
 20
713.8747482146428
 30
0.0
 11
15108.80217064596
 21
773.874748214644
 31
0.0
  0
LINE
  5
196E7
330
193D3
100
AcDbEntity
  8
YODOROGO
100
AcDbLine
 10
14968.80217064596
 20
740.6696674577553
 30
0.0
 11
14968.80217064596
 21
797.2655452655705
 31
0.0
  0
LINE
  5
196E8
330
193D3
100
AcDbEntity
  8
YODOROGO
100
AcDbLine
 10
15216.80217064596
 20
786.8747482146444
 30
0.0
 11
15190.80217064596
 21
786.8747482146444
 31
0.0
  0
LINE
  5
196E9
330
193D3
100
AcDbEntity
  8
YODOROGO
100
AcDbLine
 10
15216.80217064596
 20
800.8747482146432
 30
0.0
 11
15216.80217064596
 21
786.8747482146444
 31
0.0
  0
LINE
  5
196EA
330
193D3
100
AcDbEntity
  8
YODOROGO
100
AcDbLine
 10
15190.80217064596
 20
800.8747482146432
 30
0.0
 11
15216.80217064596
 21
800.8747482146432
 31
0.0
  0
LINE
  5
196EB
330
193D3
100
AcDbEntity
  8
YODOROGO
100
AcDbLine
 10
15190.80217064596
 20
786.8747482146444
 30
0.0
 11
15190.80217064596
 21
800.8747482146432
 31
0.0
  0
LINE
  5
196EC
330
193D3
100
AcDbEntity
  8
YODOROGO
100
AcDbLine
 10
15214.80217064596
 20
788.8747482146436
 30
0.0
 11
15192.80217064595
 21
788.8747482146436
 31
0.0
  0
LINE
  5
196ED
330
193D3
100
AcDbEntity
  8
YODOROGO
100
AcDbLine
 10
15214.80217064596
 20
798.874748214644
 30
0.0
 11
15214.80217064596
 21
788.8747482146436
 31
0.0
  0
LINE
  5
196EE
330
193D3
100
AcDbEntity
  8
YODOROGO
100
AcDbLine
 10
15192.80217064595
 20
798.874748214644
 30
0.0
 11
15214.80217064596
 21
798.874748214644
 31
0.0
  0
LINE
  5
196EF
330
193D3
100
AcDbEntity
  8
YODOROGO
100
AcDbLine
 10
15192.80217064595
 20
788.8747482146436
 30
0.0
 11
15192.80217064595
 21
798.874748214644
 31
0.0
  0
LINE
  5
196F0
330
193D3
100
AcDbEntity
  8
YODOROGO
100
AcDbLine
 10
15212.80217064596
 20
790.8747482146432
 30
0.0
 11
15194.80217064596
 21
790.8747482146432
 31
0.0
  0
LINE
  5
196F1
330
193D3
100
AcDbEntity
  8
YODOROGO
100
AcDbLine
 10
15212.80217064596
 20
796.8747482146445
 30
0.0
 11
15212.80217064596
 21
790.8747482146432
 31
0.0
  0
LINE
  5
196F2
330
193D3
100
AcDbEntity
  8
YODOROGO
100
AcDbLine
 10
15194.80217064596
 20
796.8747482146445
 30
0.0
 11
15212.80217064596
 21
796.8747482146445
 31
0.0
  0
LINE
  5
196F3
330
193D3
100
AcDbEntity
  8
YODOROGO
100
AcDbLine
 10
15194.80217064596
 20
790.8747482146432
 30
0.0
 11
15194.80217064596
 21
796.8747482146445
 31
0.0
  0
LINE
  5
196F4
330
193D3
100
AcDbEntity
  8
YODOROGO
100
AcDbLine
 10
15210.80217064596
 20
792.8747482146435
 30
0.0
 11
15196.80217064596
 21
792.8747482146435
 31
0.0
  0
LINE
  5
196F5
330
193D3
100
AcDbEntity
  8
YODOROGO
100
AcDbLine
 10
15210.80217064596
 20
794.8747482146441
 30
0.0
 11
15210.80217064596
 21
792.8747482146435
 31
0.0
  0
LINE
  5
196F6
330
193D3
100
AcDbEntity
  8
YODOROGO
100
AcDbLine
 10
15196.80217064596
 20
794.8747482146441
 30
0.0
 11
15210.80217064596
 21
794.8747482146441
 31
0.0
  0
LINE
  5
196F7
330
193D3
100
AcDbEntity
  8
YODOROGO
100
AcDbLine
 10
15196.80217064596
 20
792.8747482146435
 30
0.0
 11
15196.80217064596
 21
794.8747482146441
 31
0.0
  0
LINE
  5
196F8
330
193D3
100
AcDbEntity
  8
YODOROGO
100
AcDbLine
 10
15232.80217064596
 20
813.8747482146435
 30
0.0
 11
15190.80217064596
 21
813.8747482146435
 31
0.0
  0
LINE
  5
196F9
330
193D3
100
AcDbEntity
  8
YODOROGO
100
AcDbLine
 10
15232.80217064596
 20
773.874748214644
 30
0.0
 11
15232.80217064596
 21
813.8747482146435
 31
0.0
  0
LINE
  5
196FA
330
193D3
100
AcDbEntity
  8
YODOROGO
100
AcDbLine
 10
15190.80217064596
 20
773.874748214644
 30
0.0
 11
15232.80217064596
 21
773.874748214644
 31
0.0
  0
LINE
  5
196FB
330
193D3
100
AcDbEntity
  8
YODOROGO
100
AcDbLine
 10
15190.80217064596
 20
713.8747482146436
 30
0.0
 11
15190.80217064596
 21
773.874748214644
 31
0.0
  0
LINE
  5
196FC
330
193D3
100
AcDbEntity
  8
YODOROGO
100
AcDbLine
 10
15268.80217064596
 20
713.8747482146436
 30
0.0
 11
15190.80217064596
 21
713.8747482146436
 31
0.0
  0
LINE
  5
196FD
330
193D3
100
AcDbEntity
  8
YODOROGO
100
AcDbLine
 10
15284.80217064596
 20
785.8747482146432
 30
0.0
 11
15284.80217064596
 21
799.8747482146441
 31
0.0
  0
ARC
  5
196FE
330
193D3
100
AcDbEntity
  8
YODOROGO
100
AcDbCircle
 10
15272.80217064594
 20
785.8747482146457
 30
0.0
 40
12.00000000000187
100
AcDbArc
 50
270.0
 51
359.9999999999877
  0
LINE
  5
196FF
330
193D3
100
AcDbEntity
  8
YODOROGO
100
AcDbLine
 10
15264.80217064596
 20
773.874748214644
 30
0.0
 11
15272.80217064594
 21
773.874748214644
 31
0.0
  0
LINE
  5
19700
330
193D3
100
AcDbEntity
  8
YODOROGO
100
AcDbLine
 10
15264.80217064596
 20
813.8747482146435
 30
0.0
 11
15264.80217064596
 21
773.874748214644
 31
0.0
  0
LINE
  5
19701
330
193D3
100
AcDbEntity
  8
YODOROGO
100
AcDbLine
 10
15449.80217064596
 20
773.874748214644
 30
0.0
 11
15462.80217064596
 21
773.874748214644
 31
0.0
  0
LINE
  5
19702
330
193D3
100
AcDbEntity
  8
YODOROGO
100
AcDbLine
 10
15466.80217064596
 20
713.8747482146436
 30
0.0
 11
15449.80217064596
 21
713.8747482146436
 31
0.0
  0
LINE
  5
19703
330
193D3
100
AcDbEntity
  8
YODOROGO
100
AcDbLine
 10
15381.80217064596
 20
781.8747482146434
 30
0.0
 11
15395.80217064596
 21
781.8747482146434
 31
0.0
  0
LINE
  5
19704
330
193D3
100
AcDbEntity
  8
YODOROGO
100
AcDbLine
 10
15449.80217064596
 20
745.8747482146443
 30
0.0
 11
15361.80217064596
 21
745.8747482146443
 31
0.0
  0
LINE
  5
19705
330
193D3
100
AcDbEntity
  8
YODOROGO
100
AcDbLine
 10
15415.80217064596
 20
781.8747482146434
 30
0.0
 11
15429.80217064596
 21
781.8747482146434
 31
0.0
  0
LINE
  5
19706
330
193D3
100
AcDbEntity
  8
YODOROGO
100
AcDbLine
 10
15449.80217064596
 20
713.8747482146436
 30
0.0
 11
15449.80217064596
 21
773.874748214644
 31
0.0
  0
LINE
  5
19707
330
193D3
100
AcDbEntity
  8
YODOROGO
100
AcDbLine
 10
15348.80217064596
 20
713.8747482146436
 30
0.0
 11
15322.80217064596
 21
713.8747482146436
 31
0.0
  0
LINE
  5
19708
330
193D3
100
AcDbEntity
  8
YODOROGO
100
AcDbLine
 10
15308.80217064596
 20
799.8747482146441
 30
0.0
 11
15308.80217064596
 21
753.8747482146439
 31
0.0
  0
ARC
  5
19709
330
193D3
100
AcDbEntity
  8
YODOROGO
100
AcDbCircle
 10
15466.80217064596
 20
733.8747482146435
 30
0.0
 40
20.0
100
AcDbArc
 50
270.0
 51
0.0
  0
LINE
  5
1970A
330
193D3
100
AcDbEntity
  8
YODOROGO
100
AcDbLine
 10
15546.80217064596
 20
761.8747482146434
 30
0.0
 11
15546.80217064596
 21
713.8747482146436
 31
0.0
  0
ARC
  5
1970B
330
193D3
100
AcDbEntity
  8
YODOROGO
100
AcDbCircle
 10
15519.86069778339
 20
818.7656950548664
 30
0.0
 40
62.94777829583771
100
AcDbArc
 50
295.3405244216011
 51
359.1890230341867
  0
LINE
  5
1970C
330
193D3
100
AcDbEntity
  8
YODOROGO
100
AcDbLine
 10
15308.80217064596
 20
929.874748214644
 30
0.0
 11
15248.80217064596
 21
969.8747482146441
 31
0.0
  0
LINE
  5
1970D
330
193D3
100
AcDbEntity
  8
YODOROGO
100
AcDbLine
 10
15248.80217064596
 20
1013.874748214644
 30
0.0
 11
15308.80217064596
 21
973.8747482146434
 31
0.0
  0
LINE
  5
1970E
330
193D3
100
AcDbEntity
  8
YODOROGO
100
AcDbLine
 10
15264.80217064596
 20
839.8747482146442
 30
0.0
 11
15308.80217064596
 21
839.8747482146442
 31
0.0
  0
LINE
  5
1970F
330
193D3
100
AcDbEntity
  8
YODOROGO
100
AcDbLine
 10
15308.80217064596
 20
867.8747482146436
 30
0.0
 11
15264.80217064596
 21
867.8747482146436
 31
0.0
  0
LINE
  5
19710
330
193D3
100
AcDbEntity
  8
YODOROGO
100
AcDbLine
 10
15190.80217064596
 20
897.8747482146435
 30
0.0
 11
15308.80217064596
 21
897.8747482146435
 31
0.0
  0
LINE
  5
19711
330
193D3
100
AcDbEntity
  8
YODOROGO
100
AcDbLine
 10
15040.80217064596
 20
1013.874748214644
 30
0.0
 11
15010.80217064596
 21
1013.874748214644
 31
0.0
  0
LINE
  5
19712
330
193D3
100
AcDbEntity
  8
YODOROGO
100
AcDbLine
 10
15040.80217064596
 20
913.8747482146435
 30
0.0
 11
15040.80217064596
 21
1013.874748214644
 31
0.0
  0
LINE
  5
19713
330
193D3
100
AcDbEntity
  8
YODOROGO
100
AcDbLine
 10
15010.80217064596
 20
913.8747482146435
 30
0.0
 11
15040.80217064596
 21
913.8747482146435
 31
0.0
  0
LINE
  5
19714
330
193D3
100
AcDbEntity
  8
YODOROGO
100
AcDbLine
 10
15010.80217064596
 20
1013.874748214644
 30
0.0
 11
15010.80217064596
 21
913.8747482146435
 31
0.0
  0
LINE
  5
19715
330
193D3
100
AcDbEntity
  8
YODOROGO
100
AcDbLine
 10
15080.80217064596
 20
1013.874748214644
 30
0.0
 11
15108.80217064596
 21
1013.874748214644
 31
0.0
  0
LINE
  5
19716
330
193D3
100
AcDbEntity
  8
YODOROGO
100
AcDbLine
 10
15080.80217064596
 20
905.8747482146443
 30
0.0
 11
15080.80217064596
 21
1013.874748214644
 31
0.0
  0
ARC
  5
19717
330
193D3
100
AcDbEntity
  8
YODOROGO
100
AcDbCircle
 10
15060.80217064596
 20
905.8747482146443
 30
0.0
 40
20.0
100
AcDbArc
 50
270.0
 51
0.0
  0
LINE
  5
19718
330
193D3
100
AcDbEntity
  8
YODOROGO
100
AcDbLine
 10
15010.80217064596
 20
885.8747482146441
 30
0.0
 11
15060.80217064596
 21
885.8747482146441
 31
0.0
  0
LINE
  5
19719
330
193D3
100
AcDbEntity
  8
YODOROGO
100
AcDbLine
 10
15010.80217064596
 20
853.874748214644
 30
0.0
 11
15010.80217064596
 21
885.8747482146441
 31
0.0
  0
LINE
  5
1971A
330
193D3
100
AcDbEntity
  8
YODOROGO
100
AcDbLine
 10
15068.80217064596
 20
853.874748214644
 30
0.0
 11
15010.80217064596
 21
853.874748214644
 31
0.0
  0
ARC
  5
1971B
330
193D3
100
AcDbEntity
  8
YODOROGO
100
AcDbCircle
 10
15068.80217064596
 20
893.8747482146439
 30
0.0
 40
40.0
100
AcDbArc
 50
270.0
 51
0.0
  0
LINE
  5
1971C
330
193D3
100
AcDbEntity
  8
YODOROGO
100
AcDbLine
 10
15108.80217064596
 20
1013.874748214644
 30
0.0
 11
15108.80217064596
 21
893.8747482146439
 31
0.0
  0
LINE
  5
1971D
330
193D3
100
AcDbEntity
  8
YODOROGO
100
AcDbLine
 10
14988.80217064596
 20
973.8747482146434
 30
0.0
 11
14988.80217064596
 21
997.8747482146435
 31
0.0
1001
AUTOCAD_POSTSCRIPT_FIGURE
1002
{
1000
PSFILL
1000
Grayscale
1000
Grayscale
1070
    25
1002
}
  0
LINE
  5
1971E
330
193D3
100
AcDbEntity
  8
YODOROGO
100
AcDbLine
 10
14988.80217064596
 20
929.874748214644
 30
0.0
 11
14988.80217064596
 21
953.874748214644
 31
0.0
1001
AUTOCAD_POSTSCRIPT_FIGURE
1002
{
1000
PSFILL
1000
Grayscale
1000
Grayscale
1070
    25
1002
}
  0
LINE
  5
1971F
330
193D3
100
AcDbEntity
  8
YODOROGO
100
AcDbLine
 10
14988.80217064596
 20
853.874748214644
 30
0.0
 11
14988.80217064596
 21
909.8747482146439
 31
0.0
1001
AUTOCAD_POSTSCRIPT_FIGURE
1002
{
1000
PSFILL
1000
Grayscale
1000
Grayscale
1070
    25
1002
}
  0
LINE
  5
19720
330
193D3
100
AcDbEntity
  8
YODOROGO
100
AcDbLine
 10
15190.80217064596
 20
953.874748214644
 30
0.0
 11
15248.80217064596
 21
1013.874748214644
 31
0.0
  0
LINE
  5
19721
330
193D3
100
AcDbEntity
  8
YODOROGO
100
AcDbLine
 10
15190.80217064596
 20
909.8747482146439
 30
0.0
 11
15190.80217064596
 21
953.874748214644
 31
0.0
  0
LINE
  5
19722
330
193D3
100
AcDbEntity
  8
YODOROGO
100
AcDbLine
 10
15248.80217064596
 20
969.8747482146441
 30
0.0
 11
15190.80217064596
 21
909.8747482146439
 31
0.0
  0
LINE
  5
19723
330
193D3
100
AcDbEntity
  8
YODOROGO
100
AcDbLine
 10
15232.80217064596
 20
839.8747482146442
 30
0.0
 11
15232.80217064596
 21
867.8747482146436
 31
0.0
  0
LINE
  5
19724
330
193D3
100
AcDbEntity
  8
YODOROGO
100
AcDbLine
 10
15190.80217064596
 20
839.8747482146442
 30
0.0
 11
15232.80217064596
 21
839.8747482146442
 31
0.0
  0
LINE
  5
19725
330
193D3
100
AcDbEntity
  8
YODOROGO
100
AcDbLine
 10
15264.80217064596
 20
867.8747482146436
 30
0.0
 11
15264.80217064596
 21
839.8747482146442
 31
0.0
  0
LINE
  5
19726
330
193D3
100
AcDbEntity
  8
YODOROGO
100
AcDbLine
 10
15190.80217064596
 20
867.8747482146436
 30
0.0
 11
15190.80217064596
 21
897.8747482146435
 31
0.0
  0
LINE
  5
19727
330
193D3
100
AcDbEntity
  8
YODOROGO
100
AcDbLine
 10
15232.80217064596
 20
867.8747482146436
 30
0.0
 11
15190.80217064596
 21
867.8747482146436
 31
0.0
  0
LINE
  5
19728
330
193D3
100
AcDbEntity
  8
YODOROGO
100
AcDbLine
 10
15322.80217064596
 20
1013.874748214644
 30
0.0
 11
15486.80217064596
 21
1013.874748214644
 31
0.0
  0
LINE
  5
19729
330
193D3
100
AcDbEntity
  8
YODOROGO
100
AcDbLine
 10
15462.80217064596
 20
981.8747482146434
 30
0.0
 11
15348.80217064596
 21
981.8747482146434
 31
0.0
  0
LINE
  5
1972A
330
193D3
100
AcDbEntity
  8
YODOROGO
100
AcDbLine
 10
15436.80217064595
 20
909.8747482146439
 30
0.0
 11
15449.80217064596
 21
909.8747482146439
 31
0.0
  0
LINE
  5
1972B
330
193D3
100
AcDbEntity
  8
YODOROGO
100
AcDbLine
 10
15449.80217064596
 20
969.8747482146441
 30
0.0
 11
15436.80217064595
 21
909.8747482146439
 31
0.0
  0
LINE
  5
1972C
330
193D3
100
AcDbEntity
  8
YODOROGO
100
AcDbLine
 10
15425.80217064596
 20
969.8747482146441
 30
0.0
 11
15449.80217064596
 21
969.8747482146441
 31
0.0
  0
LINE
  5
1972D
330
193D3
100
AcDbEntity
  8
YODOROGO
100
AcDbLine
 10
15412.80217064596
 20
909.8747482146439
 30
0.0
 11
15425.80217064596
 21
969.8747482146441
 31
0.0
  0
LINE
  5
1972E
330
193D3
100
AcDbEntity
  8
YODOROGO
100
AcDbLine
 10
15398.80217064596
 20
909.8747482146439
 30
0.0
 11
15412.80217064596
 21
909.8747482146439
 31
0.0
  0
LINE
  5
1972F
330
193D3
100
AcDbEntity
  8
YODOROGO
100
AcDbLine
 10
15385.80217064596
 20
969.8747482146441
 30
0.0
 11
15398.80217064596
 21
909.8747482146439
 31
0.0
  0
LINE
  5
19730
330
193D3
100
AcDbEntity
  8
YODOROGO
100
AcDbLine
 10
15361.80217064596
 20
969.8747482146441
 30
0.0
 11
15385.80217064596
 21
969.8747482146441
 31
0.0
  0
LINE
  5
19731
330
193D3
100
AcDbEntity
  8
YODOROGO
100
AcDbLine
 10
15374.80217064596
 20
909.8747482146439
 30
0.0
 11
15361.80217064596
 21
969.8747482146441
 31
0.0
  0
LINE
  5
19732
330
193D3
100
AcDbEntity
  8
YODOROGO
100
AcDbLine
 10
15361.80217064596
 20
909.8747482146439
 30
0.0
 11
15374.80217064596
 21
909.8747482146439
 31
0.0
  0
LINE
  5
19733
330
193D3
100
AcDbEntity
  8
YODOROGO
100
AcDbLine
 10
15361.80217064596
 20
877.8747482146435
 30
0.0
 11
15361.80217064596
 21
909.8747482146439
 31
0.0
  0
LINE
  5
19734
330
193D3
100
AcDbEntity
  8
YODOROGO
100
AcDbLine
 10
15449.80217064596
 20
877.8747482146435
 30
0.0
 11
15361.80217064596
 21
877.8747482146435
 31
0.0
  0
LINE
  5
19735
330
193D3
100
AcDbEntity
  8
YODOROGO
100
AcDbLine
 10
15449.80217064596
 20
909.8747482146439
 30
0.0
 11
15449.80217064596
 21
877.8747482146435
 31
0.0
  0
LINE
  5
19736
330
193D3
100
AcDbEntity
  8
YODOROGO
100
AcDbLine
 10
15308.80217064596
 20
973.8747482146434
 30
0.0
 11
15308.80217064596
 21
929.874748214644
 31
0.0
  0
LINE
  5
19737
330
193D3
100
AcDbEntity
  8
YODOROGO
100
AcDbLine
 10
15395.80217064596
 20
877.8747482146435
 30
0.0
 11
15415.80217064596
 21
877.8747482146435
 31
0.0
  0
LINE
  5
19738
330
193D3
100
AcDbEntity
  8
YODOROGO
100
AcDbLine
 10
15361.80217064596
 20
845.8747482146444
 30
0.0
 11
15381.80217064596
 21
845.8747482146444
 31
0.0
  0
LINE
  5
19739
330
193D3
100
AcDbEntity
  8
YODOROGO
100
AcDbLine
 10
15429.80217064596
 20
845.8747482146444
 30
0.0
 11
15449.80217064596
 21
845.8747482146444
 31
0.0
  0
LINE
  5
1973A
330
193D3
100
AcDbEntity
  8
YODOROGO
100
AcDbLine
 10
15308.80217064596
 20
897.8747482146435
 30
0.0
 11
15308.80217064596
 21
867.8747482146436
 31
0.0
  0
LINE
  5
1973B
330
193D3
100
AcDbEntity
  8
YODOROGO
100
AcDbLine
 10
15582.80217064596
 20
1013.874748214644
 30
0.0
 11
15582.80217064596
 21
981.8747482146434
 31
0.0
  0
LINE
  5
1973C
330
193D3
100
AcDbEntity
  8
YODOROGO
100
AcDbLine
 10
15766.80217064596
 20
797.8747482146435
 30
0.0
 11
15766.80217064594
 21
905.8747482146443
 31
0.0
  0
LINE
  5
1973D
330
193D3
100
AcDbEntity
  8
YODOROGO
100
AcDbLine
 10
15730.80217064594
 20
993.8747482146439
 30
0.0
 11
15730.80217064594
 21
817.8747482146436
 31
0.0
  0
LINE
  5
1973E
330
193D3
100
AcDbEntity
  8
YODOROGO
100
AcDbLine
 10
15826.80217064596
 20
713.8747482146436
 30
0.0
 11
15826.80217064594
 21
905.8747482146443
 31
0.0
  0
LINE
  5
1973F
330
193D3
100
AcDbEntity
  8
YODOROGO
100
AcDbLine
 10
15794.80217064596
 20
905.8747482146443
 30
0.0
 11
15794.80217064596
 21
713.8747482146436
 31
0.0
  0
LINE
  5
19740
330
193D3
100
AcDbEntity
  8
YODOROGO
100
AcDbLine
 10
15618.80217064596
 20
797.8747482146435
 30
0.0
 11
15618.80217064596
 21
853.874748214644
 31
0.0
  0
ARC
  5
19741
330
193D3
100
AcDbEntity
  8
YODOROGO
100
AcDbCircle
 10
15676.95743255803
 20
803.8951756442788
 30
0.0
 40
90.04622428799429
100
AcDbArc
 50
268.6284910216979
 51
356.1663845733032
  0
LINE
  5
19742
330
193D3
100
AcDbEntity
  8
YODOROGO
100
AcDbLine
 10
15674.80217064596
 20
763.8747482146435
 30
0.0
 11
15674.80217064596
 21
713.8747482146436
 31
0.0
  0
ARC
  5
19743
330
193D3
100
AcDbEntity
  8
YODOROGO
100
AcDbCircle
 10
15675.75903786228
 20
818.9194785088275
 30
0.0
 40
55.05304649180608
100
AcDbArc
 50
269.0041020930593
 51
358.9126445549248
  0
LINE
  5
19744
330
193D3
100
AcDbEntity
  8
YODOROGO
100
AcDbLine
 10
15794.80217064596
 20
713.8747482146436
 30
0.0
 11
15826.80217064596
 21
713.8747482146436
 31
0.0
  0
LINE
  5
19745
330
193D3
100
AcDbEntity
  8
YODOROGO
100
AcDbLine
 10
15766.80217064594
 20
905.8747482146443
 30
0.0
 11
15794.80217064596
 21
905.8747482146443
 31
0.0
  0
LINE
  5
19746
330
193D3
100
AcDbEntity
  8
YODOROGO
100
AcDbLine
 10
15810.80217064596
 20
993.8747482146439
 30
0.0
 11
15730.80217064594
 21
993.8747482146439
 31
0.0
  0
LINE
  5
19747
330
193D3
100
AcDbEntity
  8
YODOROGO
100
AcDbLine
 10
15766.80217064594
 20
957.8747482146436
 30
0.0
 11
15830.80217064596
 21
957.8747482146436
 31
0.0
  0
LINE
  5
19748
330
193D3
100
AcDbEntity
  8
YODOROGO
100
AcDbLine
 10
15850.80217064596
 20
937.8747482146435
 30
0.0
 11
15766.80217064594
 21
937.8747482146435
 31
0.0
  0
LINE
  5
19749
330
193D3
100
AcDbEntity
  8
YODOROGO
100
AcDbLine
 10
15618.80217064596
 20
889.8747482146442
 30
0.0
 11
15674.80217064596
 21
889.8747482146442
 31
0.0
  0
LINE
  5
1974A
330
193D3
100
AcDbEntity
  8
YODOROGO
100
AcDbLine
 10
15618.80217064596
 20
917.8747482146436
 30
0.0
 11
15618.80217064596
 21
889.8747482146442
 31
0.0
  0
LINE
  5
1974B
330
193D3
100
AcDbEntity
  8
YODOROGO
100
AcDbLine
 10
15674.80217064596
 20
917.8747482146436
 30
0.0
 11
15618.80217064596
 21
917.8747482146436
 31
0.0
  0
LINE
  5
1974C
330
193D3
100
AcDbEntity
  8
YODOROGO
100
AcDbLine
 10
15674.80217064596
 20
889.8747482146442
 30
0.0
 11
15674.80217064596
 21
917.8747482146436
 31
0.0
  0
LINE
  5
1974D
330
193D3
100
AcDbEntity
  8
YODOROGO
100
AcDbLine
 10
15766.80217064594
 20
937.8747482146435
 30
0.0
 11
15766.80217064594
 21
957.8747482146436
 31
0.0
  0
LINE
  5
1974E
330
193D3
100
AcDbEntity
  8
YODOROGO
100
AcDbLine
 10
15706.80217064596
 20
853.874748214644
 30
0.0
 11
15706.80217064596
 21
953.874748214644
 31
0.0
  0
LINE
  5
1974F
330
193D3
100
AcDbEntity
  8
YODOROGO
100
AcDbLine
 10
15618.80217064596
 20
853.874748214644
 30
0.0
 11
15706.80217064596
 21
853.874748214644
 31
0.0
  0
LINE
  5
19750
330
193D3
100
AcDbEntity
  8
YODOROGO
100
AcDbLine
 10
15706.80217064596
 20
981.8747482146434
 30
0.0
 11
15706.80217064596
 21
1013.874748214644
 31
0.0
  0
ARC
  5
19751
330
193D3
100
AcDbEntity
  8
YODOROGO
100
AcDbCircle
 10
15810.80217064596
 20
1001.874748214642
 30
0.0
 40
7.99999999999727
100
AcDbArc
 50
270.0
 51
0.0000000000081422
  0
LINE
  5
19752
330
193D3
100
AcDbEntity
  8
YODOROGO
100
AcDbLine
 10
15818.80217064596
 20
1013.874748214644
 30
0.0
 11
15818.80217064596
 21
1001.874748214643
 31
0.0
  0
LINE
  5
19753
330
193D3
100
AcDbEntity
  8
YODOROGO
100
AcDbLine
 10
15850.80217064596
 20
1013.874748214644
 30
0.0
 11
15818.80217064596
 21
1013.874748214644
 31
0.0
  0
LINE
  5
19754
330
193D3
100
AcDbEntity
  8
YODOROGO
100
AcDbLine
 10
15850.80217064596
 20
977.8747482146435
 30
0.0
 11
15850.80217064596
 21
1013.874748214644
 31
0.0
  0
ARC
  5
19755
330
193D3
100
AcDbEntity
  8
YODOROGO
100
AcDbCircle
 10
15830.80217064596
 20
977.8747482146435
 30
0.0
 40
20.0
100
AcDbArc
 50
270.0
 51
0.0
  0
LINE
  5
19756
330
193D3
100
AcDbEntity
  8
YODOROGO
100
AcDbLine
 10
15850.80217064596
 20
905.8747482146443
 30
0.0
 11
15850.80217064596
 21
937.8747482146435
 31
0.0
  0
LINE
  5
19757
330
193D3
100
AcDbEntity
  8
YODOROGO
100
AcDbLine
 10
15826.80217064594
 20
905.8747482146443
 30
0.0
 11
15850.80217064596
 21
905.8747482146443
 31
0.0
  0
LINE
  5
19758
330
193D3
100
AcDbEntity
  8
SUNPOU
100
AcDbLine
 10
9154.21703198606
 20
7895.715360473253
 30
0.0
 11
8939.217031986061
 21
7895.715360473253
 31
0.0
  0
LINE
  5
19759
330
193D3
100
AcDbEntity
  8
SUNPOU
100
AcDbLine
 10
9154.21703198606
 20
7095.715360473253
 30
0.0
 11
8939.217031986061
 21
7095.715360473253
 31
0.0
  0
LINE
  5
1975A
330
193D3
100
AcDbEntity
  8
SUNPOU
100
AcDbLine
 10
8984.217031986061
 20
7880.715360473252
 30
0.0
 11
8984.217031986061
 21
7110.715360473252
 31
0.0
  0
LINE
  5
1975B
330
193D3
100
AcDbEntity
  8
SUNPOU
100
AcDbLine
 10
9184.21703198606
 20
7925.715360473251
 30
0.0
 11
9184.21703198606
 21
8110.715360473252
 31
0.0
  0
LINE
  5
1975C
330
193D3
100
AcDbEntity
  8
SUNPOU
100
AcDbLine
 10
9984.217031986061
 20
7925.715360473251
 30
0.0
 11
9984.217031986061
 21
8110.715360473252
 31
0.0
  0
LINE
  5
1975D
330
193D3
100
AcDbEntity
  8
SUNPOU
100
AcDbLine
 10
9199.21703198606
 20
8065.715360473253
 30
0.0
 11
9969.21703198606
 21
8065.715360473253
 31
0.0
  0
LINE
  5
1975E
330
193D3
100
AcDbEntity
  8
SUNPOU
100
AcDbLine
 10
9254.217031986065
 20
9595.715360473253
 30
0.0
 11
8939.217031986061
 21
9595.715360473253
 31
0.0
  0
LINE
  5
1975F
330
193D3
100
AcDbEntity
  8
SUNPOU
100
AcDbLine
 10
9254.217031986065
 20
8995.715360473253
 30
0.0
 11
8939.217031986061
 21
8995.715360473253
 31
0.0
  0
LINE
  5
19760
330
193D3
100
AcDbEntity
  8
SUNPOU
100
AcDbLine
 10
8984.217031986061
 20
9580.715360473252
 30
0.0
 11
8984.217031986061
 21
9010.715360473252
 31
0.0
  0
LINE
  5
19761
330
193D3
100
AcDbEntity
  8
SUNPOU
100
AcDbLine
 10
9284.217031986065
 20
8965.71536047325
 30
0.0
 11
9284.217031986065
 21
8650.715360473251
 31
0.0
  0
LINE
  5
19762
330
193D3
100
AcDbEntity
  8
SUNPOU
100
AcDbLine
 10
9884.217031986066
 20
8965.71536047325
 30
0.0
 11
9884.217031986066
 21
8650.715360473251
 31
0.0
  0
LINE
  5
19763
330
193D3
100
AcDbEntity
  8
SUNPOU
100
AcDbLine
 10
9299.217031986065
 20
8695.715360473251
 30
0.0
 11
9869.217031986066
 21
8695.715360473251
 31
0.0
  0
LINE
  5
19764
330
193D3
100
AcDbEntity
  8
SUNPOU
100
AcDbLine
 10
10354.21703198605
 20
9295.715360473252
 30
0.0
 11
10339.21703198606
 21
9295.715360473252
 31
0.0
  0
LINE
  5
19765
330
193D3
100
AcDbEntity
  8
SUNPOU
100
AcDbLine
 10
10014.21703198606
 20
9595.715360473253
 30
0.0
 11
10429.21703198605
 21
9595.715360473253
 31
0.0
  0
LINE
  5
19766
330
193D3
100
AcDbEntity
  8
SUNPOU
100
AcDbLine
 10
10384.21703198606
 20
9310.715360473251
 30
0.0
 11
10384.21703198606
 21
9580.715360473252
 31
0.0
  0
LINE
  5
19767
330
193D3
100
AcDbEntity
  8
SUNPOU
100
AcDbLine
 10
10354.21703198605
 20
7495.715360473251
 30
0.0
 11
10339.21703198606
 21
7495.715360473251
 31
0.0
  0
LINE
  5
19768
330
193D3
100
AcDbEntity
  8
SUNPOU
100
AcDbLine
 10
10354.21703198605
 20
9295.715360473252
 30
0.0
 11
10339.21703198606
 21
9295.715360473252
 31
0.0
  0
LINE
  5
19769
330
193D3
100
AcDbEntity
  8
SUNPOU
100
AcDbLine
 10
10384.21703198606
 20
7510.715360473252
 30
0.0
 11
10384.21703198606
 21
9280.71536047325
 31
0.0
  0
LINE
  5
1976A
330
193D3
100
AcDbEntity
  8
SUNPOU
100
AcDbLine
 10
10354.21703198605
 20
5695.715360473252
 30
0.0
 11
10339.21703198606
 21
5695.715360473252
 31
0.0
  0
LINE
  5
1976B
330
193D3
100
AcDbEntity
  8
SUNPOU
100
AcDbLine
 10
10354.21703198605
 20
7495.715360473251
 30
0.0
 11
10339.21703198606
 21
7495.715360473251
 31
0.0
  0
LINE
  5
1976C
330
193D3
100
AcDbEntity
  8
SUNPOU
100
AcDbLine
 10
10384.21703198606
 20
5710.715360473252
 30
0.0
 11
10384.21703198606
 21
7480.715360473252
 31
0.0
  0
LINE
  5
1976D
330
193D3
100
AcDbEntity
  8
SUNPOU
100
AcDbLine
 10
10014.21703198606
 20
5395.715360473253
 30
0.0
 11
10429.21703198605
 21
5395.715360473251
 31
0.0
  0
LINE
  5
1976E
330
193D3
100
AcDbEntity
  8
SUNPOU
100
AcDbLine
 10
10354.21703198605
 20
5695.715360473252
 30
0.0
 11
10339.21703198606
 21
5695.715360473252
 31
0.0
  0
LINE
  5
1976F
330
193D3
100
AcDbEntity
  8
SUNPOU
100
AcDbLine
 10
10384.21703198606
 20
5410.71536047325
 30
0.0
 11
10384.21703198606
 21
5680.715360473252
 31
0.0
  0
LINE
  5
19770
330
193D3
100
AcDbEntity
  8
SUNPOU
100
AcDbLine
 10
10014.21703198606
 20
5395.715360473253
 30
0.0
 11
10639.21703198606
 21
5395.715360473251
 31
0.0
  0
LINE
  5
19771
330
193D3
100
AcDbEntity
  8
SUNPOU
100
AcDbLine
 10
10014.21703198606
 20
9595.715360473253
 30
0.0
 11
10639.21703198606
 21
9595.715360473253
 31
0.0
  0
LINE
  5
19772
330
193D3
100
AcDbEntity
  8
SUNPOU
100
AcDbLine
 10
10594.21703198605
 20
5410.71536047325
 30
0.0
 11
10594.21703198605
 21
9580.715360473252
 31
0.0
  0
LINE
  5
19773
330
193D3
100
AcDbEntity
  8
SUNPOU
100
AcDbLine
 10
9584.217031986066
 20
9725.715360473252
 30
0.0
 11
9584.217031986066
 21
10040.71536047325
 31
0.0
  0
LINE
  5
19774
330
193D3
100
AcDbEntity
  8
SUNPOU
100
AcDbLine
 10
9984.217031986066
 20
9625.715360473252
 30
0.0
 11
9984.217031986066
 21
10040.71536047325
 31
0.0
  0
LINE
  5
19775
330
193D3
100
AcDbEntity
  8
SUNPOU
100
AcDbLine
 10
9599.217031986064
 20
9995.715360473253
 30
0.0
 11
9969.217031986065
 21
9995.715360473253
 31
0.0
  0
LINE
  5
19776
330
193D3
100
AcDbEntity
  8
SUNPOU
100
AcDbLine
 10
6384.217031986064
 20
9625.715360473252
 30
0.0
 11
6384.217031986064
 21
10250.71536047325
 31
0.0
  0
LINE
  5
19777
330
193D3
100
AcDbEntity
  8
SUNPOU
100
AcDbLine
 10
9984.217031986066
 20
9625.715360473252
 30
0.0
 11
9984.217031986066
 21
10250.71536047325
 31
0.0
  0
LINE
  5
19778
330
193D3
100
AcDbEntity
  8
SUNPOU
100
AcDbLine
 10
6399.217031986064
 20
10205.71536047325
 30
0.0
 11
9969.217031986065
 21
10205.71536047325
 31
0.0
  0
LINE
  5
19779
330
193D3
100
AcDbEntity
  8
SUNPOU
100
AcDbLine
 10
9584.217031986066
 20
9725.715360473252
 30
0.0
 11
9584.217031986066
 21
10040.71536047325
 31
0.0
  0
LINE
  5
1977A
330
193D3
100
AcDbEntity
  8
SUNPOU
100
AcDbLine
 10
6784.217031986064
 20
9725.715360473252
 30
0.0
 11
6784.217031986064
 21
10040.71536047325
 31
0.0
  0
LINE
  5
1977B
330
193D3
100
AcDbEntity
  8
SUNPOU
100
AcDbLine
 10
9569.217031986065
 20
9995.715360473253
 30
0.0
 11
6799.217031986064
 21
9995.715360473253
 31
0.0
  0
LINE
  5
1977C
330
193D3
100
AcDbEntity
  8
SUNPOU
100
AcDbLine
 10
6784.217031986064
 20
9725.715360473252
 30
0.0
 11
6784.217031986064
 21
10040.71536047325
 31
0.0
  0
LINE
  5
1977D
330
193D3
100
AcDbEntity
  8
SUNPOU
100
AcDbLine
 10
6384.217031986064
 20
9625.715360473252
 30
0.0
 11
6384.217031986064
 21
10040.71536047325
 31
0.0
  0
LINE
  5
1977E
330
193D3
100
AcDbEntity
  8
SUNPOU
100
AcDbLine
 10
6769.217031986065
 20
9995.715360473253
 30
0.0
 11
6399.217031986064
 21
9995.715360473253
 31
0.0
  0
LINE
  5
1977F
330
193D3
100
AcDbEntity
  8
SUNPOU
100
AcDbLine
 10
9145.989208462832
 20
3287.183932023015
 30
0.0
 11
9085.989208462816
 21
3287.183932023015
 31
0.0
  0
LINE
  5
19780
330
193D3
100
AcDbEntity
  8
SUNPOU
100
AcDbLine
 10
9145.989208462822
 20
3287.183932023015
 30
0.0
 11
9085.989208462823
 21
3303.260883568885
 31
0.0
  0
LINE
  5
19781
330
193D3
100
AcDbEntity
  8
SUNPOU
100
AcDbLine
 10
9145.989208462832
 20
3287.183932023015
 30
0.0
 11
9085.989208462816
 21
3271.106980477146
 31
0.0
  0
LINE
  5
19782
330
193D3
100
AcDbEntity
  8
SUNPOU
100
AcDbLine
 10
9085.98920846283
 20
3287.183932023015
 30
0.0
 11
9025.989208462815
 21
3287.183932023015
 31
0.0
  0
LINE
  5
19783
330
193D3
100
AcDbEntity
  8
SUNPOU
100
AcDbLine
 10
9085.989208462823
 20
3287.183932023015
 30
0.0
 11
9025.989208462823
 21
3303.260883568885
 31
0.0
  0
LINE
  5
19784
330
193D3
100
AcDbEntity
  8
SUNPOU
100
AcDbLine
 10
9085.98920846283
 20
3287.183932023015
 30
0.0
 11
9025.989208462815
 21
3271.106980477146
 31
0.0
  0
LINE
  5
19785
330
193D3
100
AcDbEntity
  8
SUNPOU
100
AcDbLine
 10
7762.008701212581
 20
3287.183932023015
 30
0.0
 11
7773.258701212579
 21
3287.183932023015
 31
0.0
  0
LINE
  5
19786
330
193D3
100
AcDbEntity
  8
SUNPOU
100
AcDbLine
 10
7750.758701212581
 20
3317.183932023015
 30
0.0
 11
7750.758701212581
 21
3332.183932023015
 31
0.0
  0
LINE
  5
19787
330
193D3
100
AcDbEntity
  8
SUNPOU
100
AcDbLine
 10
7110.758701212581
 20
2514.183932023016
 30
0.0
 11
7110.758701212581
 21
3332.183932023015
 31
0.0
  0
LINE
  5
19788
330
193D3
100
AcDbEntity
  8
SUNPOU
100
AcDbLine
 10
7735.758701212581
 20
3287.183932023015
 30
0.0
 11
7125.758701212581
 21
3287.183932023015
 31
0.0
  0
LINE
  5
19789
330
193D3
100
AcDbEntity
  8
SUNPOU
100
AcDbLine
 10
7080.75870121258
 20
2484.183932023016
 30
0.0
 11
6584.758582955732
 21
2484.183932023016
 31
0.0
  0
LINE
  5
1978A
330
193D3
100
AcDbEntity
  8
SUNPOU
100
AcDbLine
 10
6920.758701212581
 20
1876.183932023016
 30
0.0
 11
6584.758582955732
 21
1876.183932023016
 31
0.0
  0
LINE
  5
1978B
330
193D3
100
AcDbEntity
  8
SUNPOU
100
AcDbLine
 10
6629.758582955734
 20
2469.183932023016
 30
0.0
 11
6629.758582955732
 21
1891.183932023016
 31
0.0
  0
LINE
  5
1978C
330
193D3
100
AcDbEntity
  8
SUNPOU
100
AcDbLine
 10
6920.758701212581
 20
1876.183932023014
 30
0.0
 11
6584.758582955732
 21
1876.183932023014
 31
0.0
  0
LINE
  5
1978D
330
193D3
100
AcDbEntity
  8
SUNPOU
100
AcDbLine
 10
6920.758701212581
 20
1716.183932023016
 30
0.0
 11
6584.758582955732
 21
1716.183932023016
 31
0.0
  0
LINE
  5
1978E
330
193D3
100
AcDbEntity
  8
SUNPOU
100
AcDbLine
 10
6629.758582955732
 20
1861.183932023014
 30
0.0
 11
6629.758582955732
 21
1731.183932023015
 31
0.0
  0
LINE
  5
1978F
330
193D3
100
AcDbEntity
  8
SUNPOU
100
AcDbLine
 10
7080.758701212582
 20
2484.183932023016
 30
0.0
 11
6384.758582955733
 21
2484.183932023016
 31
0.0
  0
LINE
  5
19790
330
193D3
100
AcDbEntity
  8
SUNPOU
100
AcDbLine
 10
6920.758701212581
 20
1716.183932023016
 30
0.0
 11
6384.758582955733
 21
1716.183932023016
 31
0.0
  0
LINE
  5
19791
330
193D3
100
AcDbEntity
  8
SUNPOU
100
AcDbLine
 10
6429.758582955732
 20
2469.183932023016
 30
0.0
 11
6429.758582955732
 21
1731.183932023015
 31
0.0
  0
LINE
  5
19792
330
193D3
100
AcDbEntity
  8
SUNPOU
100
AcDbLine
 10
7110.758701212581
 20
1846.183932023016
 30
0.0
 11
7110.758701212581
 21
1334.183932023014
 31
0.0
  0
LINE
  5
19793
330
193D3
100
AcDbEntity
  8
SUNPOU
100
AcDbLine
 10
8390.758701212579
 20
1846.183932023016
 30
0.0
 11
8390.758701212579
 21
1334.183932023014
 31
0.0
  0
LINE
  5
19794
330
193D3
100
AcDbEntity
  8
SUNPOU
100
AcDbLine
 10
7125.758701212581
 20
1379.183932023015
 30
0.0
 11
8375.758701212578
 21
1379.183932023015
 31
0.0
  0
LINE
  5
19795
330
193D3
100
AcDbEntity
  8
SUNPOU
100
AcDbLine
 10
6950.758701212581
 20
1686.183932023014
 30
0.0
 11
6950.758701212581
 21
1124.183932023014
 31
0.0
  0
LINE
  5
19796
330
193D3
100
AcDbEntity
  8
SUNPOU
100
AcDbLine
 10
8550.758701212577
 20
1686.183932023016
 30
0.0
 11
8550.758701212577
 21
1124.183932023014
 31
0.0
  0
LINE
  5
19797
330
193D3
100
AcDbEntity
  8
SUNPOU
100
AcDbLine
 10
6965.75870121258
 20
1169.183932023014
 30
0.0
 11
8535.758701212579
 21
1169.183932023014
 31
0.0
  0
LINE
  5
19798
330
193D3
100
AcDbEntity
  8
SUNPOU
100
AcDbLine
 10
3224.333914666386
 20
1846.183932023019
 30
0.0
 11
3224.333914666386
 21
1334.183932023016
 31
0.0
  0
LINE
  5
19799
330
193D3
100
AcDbEntity
  8
SUNPOU
100
AcDbLine
 10
4184.333914666385
 20
1846.183932023017
 30
0.0
 11
4184.333914666385
 21
1334.183932023016
 31
0.0
  0
LINE
  5
1979A
330
193D3
100
AcDbEntity
  8
SUNPOU
100
AcDbLine
 10
3239.333914666387
 20
1379.183932023016
 30
0.0
 11
4169.333914666387
 21
1379.183932023016
 31
0.0
  0
LINE
  5
1979B
330
193D3
100
AcDbEntity
  8
SUNPOU
100
AcDbLine
 10
3064.333914666386
 20
1686.183932023018
 30
0.0
 11
3064.333914666386
 21
1124.183932023016
 31
0.0
  0
LINE
  5
1979C
330
193D3
100
AcDbEntity
  8
SUNPOU
100
AcDbLine
 10
4344.333914666385
 20
1686.183932023017
 30
0.0
 11
4344.333914666385
 21
1124.183932023016
 31
0.0
  0
LINE
  5
1979D
330
193D3
100
AcDbEntity
  8
SUNPOU
100
AcDbLine
 10
3079.333914666386
 20
1169.183932023016
 30
0.0
 11
4329.333914666386
 21
1169.183932023016
 31
0.0
  0
LINE
  5
1979E
330
193D3
100
AcDbEntity
  8
SUNPOU
100
AcDbLine
 10
3194.333914666385
 20
2484.183932023019
 30
0.0
 11
2698.333796409538
 21
2484.18393202302
 31
0.0
  0
LINE
  5
1979F
330
193D3
100
AcDbEntity
  8
SUNPOU
100
AcDbLine
 10
3034.333914666386
 20
1876.183932023018
 30
0.0
 11
2698.333796409538
 21
1876.183932023018
 31
0.0
  0
LINE
  5
197A0
330
193D3
100
AcDbEntity
  8
SUNPOU
100
AcDbLine
 10
2743.333796409538
 20
2469.18393202302
 30
0.0
 11
2743.333796409538
 21
1891.183932023017
 31
0.0
  0
LINE
  5
197A1
330
193D3
100
AcDbEntity
  8
SUNPOU
100
AcDbLine
 10
3034.333914666386
 20
1876.183932023019
 30
0.0
 11
2698.333796409539
 21
1876.183932023019
 31
0.0
  0
LINE
  5
197A2
330
193D3
100
AcDbEntity
  8
SUNPOU
100
AcDbLine
 10
3034.333914666386
 20
1716.183932023018
 30
0.0
 11
2698.333796409539
 21
1716.183932023018
 31
0.0
  0
LINE
  5
197A3
330
193D3
100
AcDbEntity
  8
SUNPOU
100
AcDbLine
 10
2743.333796409539
 20
1861.183932023019
 30
0.0
 11
2743.333796409539
 21
1731.183932023019
 31
0.0
  0
LINE
  5
197A4
330
193D3
100
AcDbEntity
  8
SUNPOU
100
AcDbLine
 10
3194.333914666386
 20
2484.183932023019
 30
0.0
 11
2498.333796409538
 21
2484.18393202302
 31
0.0
  0
LINE
  5
197A5
330
193D3
100
AcDbEntity
  8
SUNPOU
100
AcDbLine
 10
3034.333914666386
 20
1716.183932023018
 30
0.0
 11
2498.333796409538
 21
1716.183932023018
 31
0.0
  0
LINE
  5
197A6
330
193D3
100
AcDbEntity
  8
SUNPOU
100
AcDbLine
 10
2543.333796409538
 20
2469.18393202302
 30
0.0
 11
2543.333796409538
 21
1731.183932023019
 31
0.0
  0
LINE
  5
197A7
330
193D3
100
AcDbEntity
  8
SUNPOU
100
AcDbLine
 10
3704.333914666387
 20
3317.183932023015
 30
0.0
 11
3704.333914666387
 21
3332.183932023017
 31
0.0
  0
LINE
  5
197A8
330
193D3
100
AcDbEntity
  8
SUNPOU
100
AcDbLine
 10
3224.333914666386
 20
2514.18393202302
 30
0.0
 11
3224.333914666386
 21
3332.183932023017
 31
0.0
  0
LINE
  5
197A9
330
193D3
100
AcDbEntity
  8
SUNPOU
100
AcDbLine
 10
3689.333914666387
 20
3287.183932023017
 30
0.0
 11
3239.333914666387
 21
3287.183932023017
 31
0.0
  0
LINE
  5
197AA
330
193D3
100
AcDbEntity
  8
SUNPOU
100
AcDbLine
 10
5099.564421916637
 20
3287.183932023017
 30
0.0
 11
5039.564421916624
 21
3287.183932023017
 31
0.0
  0
LINE
  5
197AB
330
193D3
100
AcDbEntity
  8
SUNPOU
100
AcDbLine
 10
5099.564421916631
 20
3287.183932023017
 30
0.0
 11
5039.56442191663
 21
3303.260883568886
 31
0.0
  0
LINE
  5
197AC
330
193D3
100
AcDbEntity
  8
SUNPOU
100
AcDbLine
 10
5099.564421916637
 20
3287.183932023017
 30
0.0
 11
5039.564421916624
 21
3271.106980477147
 31
0.0
  0
LINE
  5
197AD
330
193D3
100
AcDbEntity
  8
SUNPOU
100
AcDbLine
 10
5039.564421916637
 20
3287.183932023017
 30
0.0
 11
4979.564421916624
 21
3287.183932023017
 31
0.0
  0
LINE
  5
197AE
330
193D3
100
AcDbEntity
  8
SUNPOU
100
AcDbLine
 10
5039.56442191663
 20
3287.183932023017
 30
0.0
 11
4979.564421916631
 21
3303.260883568886
 31
0.0
  0
LINE
  5
197AF
330
193D3
100
AcDbEntity
  8
SUNPOU
100
AcDbLine
 10
5039.564421916637
 20
3287.183932023017
 30
0.0
 11
4979.564421916624
 21
3271.106980477147
 31
0.0
  0
LINE
  5
197B0
330
193D3
100
AcDbEntity
  8
SUNPOU
100
AcDbLine
 10
3715.583914666388
 20
3287.183932023017
 30
0.0
 11
3726.833914666387
 21
3287.183932023017
 31
0.0
  0
TEXT
  5
197B1
330
193D3
100
AcDbEntity
  8
SUNPOU
100
AcDbText
 10
8939.217031986061
 20
7410.001074758966
 30
0.0
 40
90.0
  1
800
 50
90.0
 41
0.6666666666666666
  7
00
100
AcDbText
  0
LINE
  5
197B2
330
193D3
100
AcDbEntity
  8
SUNPOU
100
AcDbLine
 10
8984.217031986061
 20
7106.965360473252
 30
0.0
 11
8984.217031986061
 21
7118.215360473252
 31
0.0
  0
LINE
  5
197B3
330
193D3
100
AcDbEntity
  8
SUNPOU
100
AcDbLine
 10
8984.217031986061
 20
7884.465360473253
 30
0.0
 11
8984.217031986061
 21
7873.215360473252
 31
0.0
  0
TEXT
  5
197B4
330
193D3
100
AcDbEntity
  8
SUNPOU
100
AcDbText
 10
9498.502746271773
 20
8110.715360473252
 30
0.0
 40
90.0
  1
800
 41
0.6666666666666666
  7
00
100
AcDbText
  0
LINE
  5
197B5
330
193D3
100
AcDbEntity
  8
SUNPOU
100
AcDbLine
 10
9972.96703198606
 20
8065.715360473253
 30
0.0
 11
9961.717031986061
 21
8065.715360473253
 31
0.0
  0
LINE
  5
197B6
330
193D3
100
AcDbEntity
  8
SUNPOU
100
AcDbLine
 10
9195.46703198606
 20
8065.715360473253
 30
0.0
 11
9206.717031986059
 21
8065.715360473253
 31
0.0
  0
TEXT
  5
197B7
330
193D3
100
AcDbEntity
  8
SUNPOU
100
AcDbText
 10
8939.217031986061
 20
9208.572503330399
 30
0.0
 40
90.0
  1
600
 50
90.0
 41
0.6666666666666666
  7
00
100
AcDbText
  0
LINE
  5
197B8
330
193D3
100
AcDbEntity
  8
SUNPOU
100
AcDbLine
 10
8984.217031986061
 20
9006.96536047325
 30
0.0
 11
8984.217031986061
 21
9018.215360473252
 31
0.0
  0
LINE
  5
197B9
330
193D3
100
AcDbEntity
  8
SUNPOU
100
AcDbLine
 10
8984.217031986061
 20
9584.465360473252
 30
0.0
 11
8984.217031986061
 21
9573.215360473252
 31
0.0
  0
TEXT
  5
197BA
330
193D3
100
AcDbEntity
  8
SUNPOU
100
AcDbText
 10
9497.074174843204
 20
8740.715360473251
 30
0.0
 40
90.0
  1
600
 41
0.6666666666666666
  7
00
100
AcDbText
  0
LINE
  5
197BB
330
193D3
100
AcDbEntity
  8
SUNPOU
100
AcDbLine
 10
9872.967031986066
 20
8695.715360473251
 30
0.0
 11
9861.717031986065
 21
8695.715360473251
 31
0.0
  0
LINE
  5
197BC
330
193D3
100
AcDbEntity
  8
SUNPOU
100
AcDbLine
 10
9295.467031986065
 20
8695.715360473251
 30
0.0
 11
9306.717031986066
 21
8695.715360473251
 31
0.0
  0
TEXT
  5
197BD
330
193D3
100
AcDbEntity
  8
SUNPOU
100
AcDbText
 10
10339.21703198606
 20
9360.001074758967
 30
0.0
 40
90.0
  1
300
 50
90.0
 41
0.6666666666666666
  7
00
100
AcDbText
  0
LINE
  5
197BE
330
193D3
100
AcDbEntity
  8
SUNPOU
100
AcDbLine
 10
10384.21703198606
 20
9584.465360473252
 30
0.0
 11
10384.21703198606
 21
9573.215360473252
 31
0.0
  0
LINE
  5
197BF
330
193D3
100
AcDbEntity
  8
SUNPOU
100
AcDbLine
 10
10384.21703198606
 20
9306.965360473252
 30
0.0
 11
10384.21703198606
 21
9318.215360473251
 31
0.0
  0
TEXT
  5
197C0
330
193D3
100
AcDbEntity
  8
SUNPOU
100
AcDbText
 10
10339.21703198606
 20
8277.143931901827
 30
0.0
 40
90.0
  1
1800
 50
90.0
 41
0.6666666666666666
  7
00
100
AcDbText
  0
LINE
  5
197C1
330
193D3
100
AcDbEntity
  8
SUNPOU
100
AcDbLine
 10
10384.21703198606
 20
9284.465360473253
 30
0.0
 11
10384.21703198606
 21
9273.215360473249
 31
0.0
  0
LINE
  5
197C2
330
193D3
100
AcDbEntity
  8
SUNPOU
100
AcDbLine
 10
10384.21703198606
 20
7506.965360473251
 30
0.0
 11
10384.21703198606
 21
7518.215360473252
 31
0.0
  0
TEXT
  5
197C3
330
193D3
100
AcDbEntity
  8
SUNPOU
100
AcDbText
 10
10339.21703198606
 20
6477.143931901827
 30
0.0
 40
90.0
  1
1800
 50
90.0
 41
0.6666666666666666
  7
00
100
AcDbText
  0
LINE
  5
197C4
330
193D3
100
AcDbEntity
  8
SUNPOU
100
AcDbLine
 10
10384.21703198606
 20
7484.465360473253
 30
0.0
 11
10384.21703198606
 21
7473.215360473251
 31
0.0
  0
LINE
  5
197C5
330
193D3
100
AcDbEntity
  8
SUNPOU
100
AcDbLine
 10
10384.21703198606
 20
5706.965360473252
 30
0.0
 11
10384.21703198606
 21
5718.215360473251
 31
0.0
  0
TEXT
  5
197C6
330
193D3
100
AcDbEntity
  8
SUNPOU
100
AcDbText
 10
10339.21703198606
 20
5460.001074758968
 30
0.0
 40
90.0
  1
300
 50
90.0
 41
0.6666666666666666
  7
00
100
AcDbText
  0
LINE
  5
197C7
330
193D3
100
AcDbEntity
  8
SUNPOU
100
AcDbLine
 10
10384.21703198606
 20
5684.465360473252
 30
0.0
 11
10384.21703198606
 21
5673.215360473252
 31
0.0
  0
LINE
  5
197C8
330
193D3
100
AcDbEntity
  8
SUNPOU
100
AcDbLine
 10
10384.21703198606
 20
5406.965360473251
 30
0.0
 11
10384.21703198606
 21
5418.215360473251
 31
0.0
  0
TEXT
  5
197C9
330
193D3
100
AcDbEntity
  8
SUNPOU
100
AcDbText
 10
10549.21703198606
 20
7381.42964618754
 30
0.0
 40
90.0
  1
4200
 50
90.0
 41
0.6666666666666666
  7
00
100
AcDbText
  0
LINE
  5
197CA
330
193D3
100
AcDbEntity
  8
SUNPOU
100
AcDbLine
 10
10594.21703198605
 20
9584.465360473252
 30
0.0
 11
10594.21703198605
 21
9573.215360473252
 31
0.0
  0
LINE
  5
197CB
330
193D3
100
AcDbEntity
  8
SUNPOU
100
AcDbLine
 10
10594.21703198605
 20
5406.965360473251
 30
0.0
 11
10594.21703198605
 21
5418.215360473251
 31
0.0
  0
TEXT
  5
197CC
330
193D3
100
AcDbEntity
  8
SUNPOU
100
AcDbText
 10
9698.502746271776
 20
10040.71536047325
 30
0.0
 40
90.0
  1
400
 41
0.6666666666666666
  7
00
100
AcDbText
  0
LINE
  5
197CD
330
193D3
100
AcDbEntity
  8
SUNPOU
100
AcDbLine
 10
9972.967031986065
 20
9995.715360473253
 30
0.0
 11
9961.717031986065
 21
9995.715360473253
 31
0.0
  0
LINE
  5
197CE
330
193D3
100
AcDbEntity
  8
SUNPOU
100
AcDbLine
 10
9595.467031986066
 20
9995.715360473253
 30
0.0
 11
9606.717031986065
 21
9995.715360473253
 31
0.0
  0
TEXT
  5
197CF
330
193D3
100
AcDbEntity
  8
SUNPOU
100
AcDbText
 10
8069.931317700349
 20
10250.71536047325
 30
0.0
 40
90.0
  1
3600
 41
0.6666666666666666
  7
00
100
AcDbText
  0
LINE
  5
197D0
330
193D3
100
AcDbEntity
  8
SUNPOU
100
AcDbLine
 10
9972.967031986065
 20
10205.71536047325
 30
0.0
 11
9961.717031986065
 21
10205.71536047325
 31
0.0
  0
LINE
  5
197D1
330
193D3
100
AcDbEntity
  8
SUNPOU
100
AcDbLine
 10
6395.467031986065
 20
10205.71536047325
 30
0.0
 11
6406.717031986065
 21
10205.71536047325
 31
0.0
  0
TEXT
  5
197D2
330
193D3
100
AcDbEntity
  8
SUNPOU
100
AcDbText
 10
8069.931317700349
 20
10040.71536047325
 30
0.0
 40
90.0
  1
2800
 41
0.6666666666666666
  7
00
100
AcDbText
  0
LINE
  5
197D3
330
193D3
100
AcDbEntity
  8
SUNPOU
100
AcDbLine
 10
6795.467031986063
 20
9995.715360473253
 30
0.0
 11
6806.717031986065
 21
9995.715360473253
 31
0.0
  0
LINE
  5
197D4
330
193D3
100
AcDbEntity
  8
SUNPOU
100
AcDbLine
 10
9572.967031986065
 20
9995.715360473253
 30
0.0
 11
9561.717031986065
 21
9995.715360473253
 31
0.0
  0
TEXT
  5
197D5
330
193D3
100
AcDbEntity
  8
SUNPOU
100
AcDbText
 10
6498.502746271779
 20
10040.71536047325
 30
0.0
 40
90.0
  1
400
 41
0.6666666666666666
  7
00
100
AcDbText
  0
LINE
  5
197D6
330
193D3
100
AcDbEntity
  8
SUNPOU
100
AcDbLine
 10
6395.467031986065
 20
9995.715360473253
 30
0.0
 11
6406.717031986065
 21
9995.715360473253
 31
0.0
  0
LINE
  5
197D7
330
193D3
100
AcDbEntity
  8
SUNPOU
100
AcDbLine
 10
6772.967031986064
 20
9995.715360473253
 30
0.0
 11
6761.717031986065
 21
9995.715360473253
 31
0.0
  0
ARC
  5
197D8
330
193D3
100
AcDbEntity
  8
SUNPOU
100
AcDbCircle
 10
7750.758701212581
 20
3287.183932023015
 30
0.0
 40
5.625
100
AcDbArc
 50
0.0
 51
180.0
  0
ARC
  5
197D9
330
193D3
100
AcDbEntity
  8
SUNPOU
100
AcDbCircle
 10
7750.758701212581
 20
3287.183932023015
 30
0.0
 40
5.625
100
AcDbArc
 50
180.0
 51
0.0
  0
TEXT
  5
197DA
330
193D3
100
AcDbEntity
  8
SUNPOU
100
AcDbText
 10
7345.044415498293
 20
3332.183932023015
 30
0.0
 40
90.0
  1
400
 41
0.6666666666666666
  7
00
100
AcDbText
  0
LINE
  5
197DB
330
193D3
100
AcDbEntity
  8
SUNPOU
100
AcDbLine
 10
7122.00870121258
 20
3287.183932023015
 30
0.0
 11
7133.258701212581
 21
3287.183932023015
 31
0.0
  0
LINE
  5
197DC
330
193D3
100
AcDbEntity
  8
SUNPOU
100
AcDbLine
 10
7739.508701212582
 20
3287.183932023015
 30
0.0
 11
7728.25870121258
 21
3287.183932023015
 31
0.0
  0
TEXT
  5
197DD
330
193D3
100
AcDbEntity
  8
SUNPOU
100
AcDbText
 10
6584.758582955732
 20
2094.469646308731
 30
0.0
 40
90.0
  1
380
 50
90.0
 41
0.6666666666666666
  7
00
100
AcDbText
  0
LINE
  5
197DE
330
193D3
100
AcDbEntity
  8
SUNPOU
100
AcDbLine
 10
6629.758582955732
 20
1887.433932023015
 30
0.0
 11
6629.758582955732
 21
1898.683932023016
 31
0.0
  0
LINE
  5
197DF
330
193D3
100
AcDbEntity
  8
SUNPOU
100
AcDbLine
 10
6629.758582955734
 20
2472.933932023016
 30
0.0
 11
6629.758582955734
 21
2461.683932023015
 31
0.0
  0
TEXT
  5
197E0
330
193D3
100
AcDbEntity
  8
SUNPOU
100
AcDbText
 10
6584.758582955732
 20
1706.183932023017
 30
0.0
 40
90.0
  1
100
 50
90.0
 41
0.6666666666666666
  7
00
100
AcDbText
  0
LINE
  5
197E1
330
193D3
100
AcDbEntity
  8
SUNPOU
100
AcDbLine
 10
6629.758582955732
 20
1727.433932023016
 30
0.0
 11
6629.758582955732
 21
1738.683932023016
 31
0.0
  0
LINE
  5
197E2
330
193D3
100
AcDbEntity
  8
SUNPOU
100
AcDbLine
 10
6629.758582955732
 20
1864.933932023015
 30
0.0
 11
6629.758582955732
 21
1853.683932023015
 31
0.0
  0
TEXT
  5
197E3
330
193D3
100
AcDbEntity
  8
SUNPOU
100
AcDbText
 10
6384.758582955733
 20
2014.46964630873
 30
0.0
 40
90.0
  1
480
 50
90.0
 41
0.6666666666666666
  7
00
100
AcDbText
  0
LINE
  5
197E4
330
193D3
100
AcDbEntity
  8
SUNPOU
100
AcDbLine
 10
6429.758582955732
 20
1727.433932023016
 30
0.0
 11
6429.758582955732
 21
1738.683932023016
 31
0.0
  0
LINE
  5
197E5
330
193D3
100
AcDbEntity
  8
SUNPOU
100
AcDbLine
 10
6429.758582955732
 20
2472.933932023016
 30
0.0
 11
6429.758582955732
 21
2461.683932023015
 31
0.0
  0
TEXT
  5
197E6
330
193D3
100
AcDbEntity
  8
SUNPOU
100
AcDbText
 10
7665.044415498293
 20
1424.183932023014
 30
0.0
 40
90.0
  1
800
 41
0.6666666666666666
  7
00
100
AcDbText
  0
LINE
  5
197E7
330
193D3
100
AcDbEntity
  8
SUNPOU
100
AcDbLine
 10
8379.508701212579
 20
1379.183932023015
 30
0.0
 11
8368.25870121258
 21
1379.183932023015
 31
0.0
  0
LINE
  5
197E8
330
193D3
100
AcDbEntity
  8
SUNPOU
100
AcDbLine
 10
7122.00870121258
 20
1379.183932023015
 30
0.0
 11
7133.258701212581
 21
1379.183932023015
 31
0.0
  0
TEXT
  5
197E9
330
193D3
100
AcDbEntity
  8
SUNPOU
100
AcDbText
 10
7632.187272641154
 20
1214.183932023014
 30
0.0
 40
90.0
  1
1000
 41
0.6666666666666666
  7
00
100
AcDbText
  0
LINE
  5
197EA
330
193D3
100
AcDbEntity
  8
SUNPOU
100
AcDbLine
 10
8539.508701212579
 20
1169.183932023014
 30
0.0
 11
8528.258701212578
 21
1169.183932023014
 31
0.0
  0
LINE
  5
197EB
330
193D3
100
AcDbEntity
  8
SUNPOU
100
AcDbLine
 10
6962.008701212581
 20
1169.183932023014
 30
0.0
 11
6973.25870121258
 21
1169.183932023014
 31
0.0
  0
TEXT
  5
197EC
330
193D3
100
AcDbEntity
  8
SUNPOU
100
AcDbText
 10
3617.191057523529
 20
1424.183932023016
 30
0.0
 40
90.0
  1
600
 41
0.6666666666666666
  7
00
100
AcDbText
  0
LINE
  5
197ED
330
193D3
100
AcDbEntity
  8
SUNPOU
100
AcDbLine
 10
4173.083914666387
 20
1379.183932023016
 30
0.0
 11
4161.833914666385
 21
1379.183932023016
 31
0.0
  0
LINE
  5
197EE
330
193D3
100
AcDbEntity
  8
SUNPOU
100
AcDbLine
 10
3235.583914666387
 20
1379.183932023016
 30
0.0
 11
3246.833914666386
 21
1379.183932023016
 31
0.0
  0
TEXT
  5
197EF
330
193D3
100
AcDbEntity
  8
SUNPOU
100
AcDbText
 10
3618.6196289521
 20
1214.183932023016
 30
0.0
 40
90.0
  1
800
 41
0.6666666666666666
  7
00
100
AcDbText
  0
LINE
  5
197F0
330
193D3
100
AcDbEntity
  8
SUNPOU
100
AcDbLine
 10
4333.083914666384
 20
1169.183932023016
 30
0.0
 11
4321.833914666386
 21
1169.183932023016
 31
0.0
  0
LINE
  5
197F1
330
193D3
100
AcDbEntity
  8
SUNPOU
100
AcDbLine
 10
3075.583914666387
 20
1169.183932023016
 30
0.0
 11
3086.833914666386
 21
1169.183932023016
 31
0.0
  0
TEXT
  5
197F2
330
193D3
100
AcDbEntity
  8
SUNPOU
100
AcDbText
 10
2698.333796409537
 20
2094.469646308733
 30
0.0
 40
90.0
  1
380
 50
90.0
 41
0.6666666666666666
  7
00
100
AcDbText
  0
LINE
  5
197F3
330
193D3
100
AcDbEntity
  8
SUNPOU
100
AcDbLine
 10
2743.333796409538
 20
1887.433932023017
 30
0.0
 11
2743.333796409538
 21
1898.683932023017
 31
0.0
  0
LINE
  5
197F4
330
193D3
100
AcDbEntity
  8
SUNPOU
100
AcDbLine
 10
2743.333796409538
 20
2472.93393202302
 30
0.0
 11
2743.333796409538
 21
2461.68393202302
 31
0.0
  0
TEXT
  5
197F5
330
193D3
100
AcDbEntity
  8
SUNPOU
100
AcDbText
 10
2698.333796409539
 20
1706.183932023019
 30
0.0
 40
90.0
  1
100
 50
90.0
 41
0.6666666666666666
  7
00
100
AcDbText
  0
LINE
  5
197F6
330
193D3
100
AcDbEntity
  8
SUNPOU
100
AcDbLine
 10
2743.333796409539
 20
1727.433932023019
 30
0.0
 11
2743.333796409539
 21
1738.683932023019
 31
0.0
  0
LINE
  5
197F7
330
193D3
100
AcDbEntity
  8
SUNPOU
100
AcDbLine
 10
2743.333796409539
 20
1864.933932023019
 30
0.0
 11
2743.333796409539
 21
1853.683932023018
 31
0.0
  0
TEXT
  5
197F8
330
193D3
100
AcDbEntity
  8
SUNPOU
100
AcDbText
 10
2498.333796409538
 20
2014.469646308733
 30
0.0
 40
90.0
  1
480
 50
90.0
 41
0.6666666666666666
  7
00
100
AcDbText
  0
LINE
  5
197F9
330
193D3
100
AcDbEntity
  8
SUNPOU
100
AcDbLine
 10
2543.333796409538
 20
1727.433932023019
 30
0.0
 11
2543.333796409538
 21
1738.683932023019
 31
0.0
  0
LINE
  5
197FA
330
193D3
100
AcDbEntity
  8
SUNPOU
100
AcDbLine
 10
2543.333796409538
 20
2472.93393202302
 30
0.0
 11
2543.333796409538
 21
2461.68393202302
 31
0.0
  0
TEXT
  5
197FB
330
193D3
100
AcDbEntity
  8
SUNPOU
100
AcDbText
 10
3378.619628952101
 20
3332.183932023017
 30
0.0
 40
90.0
  1
300
 41
0.6666666666666666
  7
00
100
AcDbText
  0
LINE
  5
197FC
330
193D3
100
AcDbEntity
  8
SUNPOU
100
AcDbLine
 10
3235.583914666387
 20
3287.183932023017
 30
0.0
 11
3246.833914666386
 21
3287.183932023017
 31
0.0
  0
LINE
  5
197FD
330
193D3
100
AcDbEntity
  8
SUNPOU
100
AcDbLine
 10
3693.083914666386
 20
3287.183932023017
 30
0.0
 11
3681.833914666388
 21
3287.183932023017
 31
0.0
  0
ARC
  5
197FE
330
193D3
100
AcDbEntity
  8
SUNPOU
100
AcDbCircle
 10
3704.333914666387
 20
3287.183932023017
 30
0.0
 40
5.625
100
AcDbArc
 50
0.0
 51
180.0
  0
ARC
  5
197FF
330
193D3
100
AcDbEntity
  8
SUNPOU
100
AcDbCircle
 10
3704.333914666387
 20
3287.183932023017
 30
0.0
 40
5.625
100
AcDbArc
 50
180.0
 51
0.0
  0
ARC
  5
19800
330
193D3
100
AcDbEntity
  8
SUNPOU
100
AcDbCircle
 10
8984.217031986061
 20
7095.715360473253
 30
0.0
 40
5.625
100
AcDbArc
 50
90.0
 51
270.0
  0
ARC
  5
19801
330
193D3
100
AcDbEntity
  8
SUNPOU
100
AcDbCircle
 10
8984.217031986061
 20
7095.715360473253
 30
0.0
 40
5.625
100
AcDbArc
 50
270.0
 51
90.0
  0
ARC
  5
19802
330
193D3
100
AcDbEntity
  8
SUNPOU
100
AcDbCircle
 10
8984.217031986061
 20
7895.715360473253
 30
0.0
 40
5.625
100
AcDbArc
 50
270.0
 51
90.0
  0
ARC
  5
19803
330
193D3
100
AcDbEntity
  8
SUNPOU
100
AcDbCircle
 10
8984.217031986061
 20
7895.715360473253
 30
0.0
 40
5.625
100
AcDbArc
 50
90.0
 51
270.0
  0
ARC
  5
19804
330
193D3
100
AcDbEntity
  8
SUNPOU
100
AcDbCircle
 10
9984.217031986061
 20
8065.715360473253
 30
0.0
 40
5.625
100
AcDbArc
 50
180.0
 51
0.0
  0
ARC
  5
19805
330
193D3
100
AcDbEntity
  8
SUNPOU
100
AcDbCircle
 10
9984.217031986061
 20
8065.715360473253
 30
0.0
 40
5.625
100
AcDbArc
 50
0.0
 51
180.0
  0
ARC
  5
19806
330
193D3
100
AcDbEntity
  8
SUNPOU
100
AcDbCircle
 10
9184.21703198606
 20
8065.715360473253
 30
0.0
 40
5.625
100
AcDbArc
 50
0.0
 51
180.0
  0
ARC
  5
19807
330
193D3
100
AcDbEntity
  8
SUNPOU
100
AcDbCircle
 10
9184.21703198606
 20
8065.715360473253
 30
0.0
 40
5.625
100
AcDbArc
 50
180.0
 51
0.0
  0
ARC
  5
19808
330
193D3
100
AcDbEntity
  8
SUNPOU
100
AcDbCircle
 10
8984.217031986061
 20
8995.715360473253
 30
0.0
 40
5.625
100
AcDbArc
 50
90.0
 51
270.0
  0
ARC
  5
19809
330
193D3
100
AcDbEntity
  8
SUNPOU
100
AcDbCircle
 10
8984.217031986061
 20
8995.715360473253
 30
0.0
 40
5.625
100
AcDbArc
 50
270.0
 51
90.0
  0
ARC
  5
1980A
330
193D3
100
AcDbEntity
  8
SUNPOU
100
AcDbCircle
 10
8984.217031986061
 20
9595.715360473253
 30
0.0
 40
5.625
100
AcDbArc
 50
270.0
 51
90.0
  0
ARC
  5
1980B
330
193D3
100
AcDbEntity
  8
SUNPOU
100
AcDbCircle
 10
8984.217031986061
 20
9595.715360473253
 30
0.0
 40
5.625
100
AcDbArc
 50
90.0
 51
270.0
  0
ARC
  5
1980C
330
193D3
100
AcDbEntity
  8
SUNPOU
100
AcDbCircle
 10
9884.217031986066
 20
8695.715360473251
 30
0.0
 40
5.625
100
AcDbArc
 50
180.0
 51
0.0
  0
ARC
  5
1980D
330
193D3
100
AcDbEntity
  8
SUNPOU
100
AcDbCircle
 10
9884.217031986066
 20
8695.715360473251
 30
0.0
 40
5.625
100
AcDbArc
 50
0.0
 51
180.0
  0
ARC
  5
1980E
330
193D3
100
AcDbEntity
  8
SUNPOU
100
AcDbCircle
 10
9284.217031986065
 20
8695.715360473251
 30
0.0
 40
5.625
100
AcDbArc
 50
0.0
 51
180.0
  0
ARC
  5
1980F
330
193D3
100
AcDbEntity
  8
SUNPOU
100
AcDbCircle
 10
9284.217031986065
 20
8695.715360473251
 30
0.0
 40
5.625
100
AcDbArc
 50
180.0
 51
0.0
  0
ARC
  5
19810
330
193D3
100
AcDbEntity
  8
SUNPOU
100
AcDbCircle
 10
10384.21703198606
 20
9595.715360473253
 30
0.0
 40
5.625
100
AcDbArc
 50
270.0
 51
90.0
  0
ARC
  5
19811
330
193D3
100
AcDbEntity
  8
SUNPOU
100
AcDbCircle
 10
10384.21703198606
 20
9595.715360473253
 30
0.0
 40
5.625
100
AcDbArc
 50
90.0
 51
270.0
  0
ARC
  5
19812
330
193D3
100
AcDbEntity
  8
SUNPOU
100
AcDbCircle
 10
10384.21703198606
 20
9295.715360473252
 30
0.0
 40
5.625
100
AcDbArc
 50
90.0
 51
270.0
  0
ARC
  5
19813
330
193D3
100
AcDbEntity
  8
SUNPOU
100
AcDbCircle
 10
10384.21703198606
 20
9295.715360473252
 30
0.0
 40
5.625
100
AcDbArc
 50
270.0
 51
90.0
  0
ARC
  5
19814
330
193D3
100
AcDbEntity
  8
SUNPOU
100
AcDbCircle
 10
10384.21703198606
 20
9295.715360473252
 30
0.0
 40
5.625
100
AcDbArc
 50
270.0
 51
90.0
  0
ARC
  5
19815
330
193D3
100
AcDbEntity
  8
SUNPOU
100
AcDbCircle
 10
10384.21703198606
 20
9295.715360473252
 30
0.0
 40
5.625
100
AcDbArc
 50
90.0
 51
270.0
  0
ARC
  5
19816
330
193D3
100
AcDbEntity
  8
SUNPOU
100
AcDbCircle
 10
10384.21703198606
 20
7495.715360473251
 30
0.0
 40
5.625
100
AcDbArc
 50
90.0
 51
270.0
  0
ARC
  5
19817
330
193D3
100
AcDbEntity
  8
SUNPOU
100
AcDbCircle
 10
10384.21703198606
 20
7495.715360473251
 30
0.0
 40
5.625
100
AcDbArc
 50
270.0
 51
90.0
  0
ARC
  5
19818
330
193D3
100
AcDbEntity
  8
SUNPOU
100
AcDbCircle
 10
10384.21703198606
 20
7495.715360473251
 30
0.0
 40
5.625
100
AcDbArc
 50
270.0
 51
90.0
  0
ARC
  5
19819
330
193D3
100
AcDbEntity
  8
SUNPOU
100
AcDbCircle
 10
10384.21703198606
 20
7495.715360473251
 30
0.0
 40
5.625
100
AcDbArc
 50
90.0
 51
270.0
  0
ARC
  5
1981A
330
193D3
100
AcDbEntity
  8
SUNPOU
100
AcDbCircle
 10
10384.21703198606
 20
5695.715360473252
 30
0.0
 40
5.625
100
AcDbArc
 50
90.0
 51
270.0
  0
ARC
  5
1981B
330
193D3
100
AcDbEntity
  8
SUNPOU
100
AcDbCircle
 10
10384.21703198606
 20
5695.715360473252
 30
0.0
 40
5.625
100
AcDbArc
 50
270.0
 51
90.0
  0
ARC
  5
1981C
330
193D3
100
AcDbEntity
  8
SUNPOU
100
AcDbCircle
 10
10384.21703198606
 20
5695.715360473252
 30
0.0
 40
5.625
100
AcDbArc
 50
270.0
 51
90.0
  0
ARC
  5
1981D
330
193D3
100
AcDbEntity
  8
SUNPOU
100
AcDbCircle
 10
10384.21703198606
 20
5695.715360473252
 30
0.0
 40
5.625
100
AcDbArc
 50
90.0
 51
270.0
  0
ARC
  5
1981E
330
193D3
100
AcDbEntity
  8
SUNPOU
100
AcDbCircle
 10
10384.21703198606
 20
5395.715360473251
 30
0.0
 40
5.625
100
AcDbArc
 50
90.0
 51
270.0
  0
ARC
  5
1981F
330
193D3
100
AcDbEntity
  8
SUNPOU
100
AcDbCircle
 10
10384.21703198606
 20
5395.715360473251
 30
0.0
 40
5.625
100
AcDbArc
 50
270.0
 51
90.0
  0
ARC
  5
19820
330
193D3
100
AcDbEntity
  8
SUNPOU
100
AcDbCircle
 10
10594.21703198605
 20
9595.715360473253
 30
0.0
 40
5.625
100
AcDbArc
 50
270.0
 51
90.0
  0
ARC
  5
19821
330
193D3
100
AcDbEntity
  8
SUNPOU
100
AcDbCircle
 10
10594.21703198605
 20
9595.715360473253
 30
0.0
 40
5.625
100
AcDbArc
 50
90.0
 51
270.0
  0
ARC
  5
19822
330
193D3
100
AcDbEntity
  8
SUNPOU
100
AcDbCircle
 10
10594.21703198605
 20
5395.715360473251
 30
0.0
 40
5.625
100
AcDbArc
 50
90.0
 51
270.0
  0
ARC
  5
19823
330
193D3
100
AcDbEntity
  8
SUNPOU
100
AcDbCircle
 10
10594.21703198605
 20
5395.715360473251
 30
0.0
 40
5.625
100
AcDbArc
 50
270.0
 51
90.0
  0
ARC
  5
19824
330
193D3
100
AcDbEntity
  8
SUNPOU
100
AcDbCircle
 10
9984.217031986066
 20
9995.715360473253
 30
0.0
 40
5.625
100
AcDbArc
 50
180.0
 51
0.0
  0
ARC
  5
19825
330
193D3
100
AcDbEntity
  8
SUNPOU
100
AcDbCircle
 10
9984.217031986066
 20
9995.715360473253
 30
0.0
 40
5.625
100
AcDbArc
 50
0.0
 51
180.0
  0
ARC
  5
19826
330
193D3
100
AcDbEntity
  8
SUNPOU
100
AcDbCircle
 10
9584.217031986066
 20
9995.715360473253
 30
0.0
 40
5.625
100
AcDbArc
 50
0.0
 51
180.0
  0
ARC
  5
19827
330
193D3
100
AcDbEntity
  8
SUNPOU
100
AcDbCircle
 10
9584.217031986066
 20
9995.715360473253
 30
0.0
 40
5.625
100
AcDbArc
 50
180.0
 51
0.0
  0
ARC
  5
19828
330
193D3
100
AcDbEntity
  8
SUNPOU
100
AcDbCircle
 10
9984.217031986066
 20
10205.71536047325
 30
0.0
 40
5.625
100
AcDbArc
 50
180.0
 51
0.0
  0
ARC
  5
19829
330
193D3
100
AcDbEntity
  8
SUNPOU
100
AcDbCircle
 10
9984.217031986066
 20
10205.71536047325
 30
0.0
 40
5.625
100
AcDbArc
 50
0.0
 51
180.0
  0
ARC
  5
1982A
330
193D3
100
AcDbEntity
  8
SUNPOU
100
AcDbCircle
 10
6384.217031986064
 20
10205.71536047325
 30
0.0
 40
5.625
100
AcDbArc
 50
0.0
 51
180.0
  0
ARC
  5
1982B
330
193D3
100
AcDbEntity
  8
SUNPOU
100
AcDbCircle
 10
6384.217031986064
 20
10205.71536047325
 30
0.0
 40
5.625
100
AcDbArc
 50
180.0
 51
0.0
  0
ARC
  5
1982C
330
193D3
100
AcDbEntity
  8
SUNPOU
100
AcDbCircle
 10
6784.217031986064
 20
9995.715360473253
 30
0.0
 40
5.625
100
AcDbArc
 50
0.0
 51
180.0
  0
ARC
  5
1982D
330
193D3
100
AcDbEntity
  8
SUNPOU
100
AcDbCircle
 10
6784.217031986064
 20
9995.715360473253
 30
0.0
 40
5.625
100
AcDbArc
 50
180.0
 51
0.0
  0
ARC
  5
1982E
330
193D3
100
AcDbEntity
  8
SUNPOU
100
AcDbCircle
 10
9584.217031986066
 20
9995.715360473253
 30
0.0
 40
5.625
100
AcDbArc
 50
180.0
 51
0.0
  0
ARC
  5
1982F
330
193D3
100
AcDbEntity
  8
SUNPOU
100
AcDbCircle
 10
9584.217031986066
 20
9995.715360473253
 30
0.0
 40
5.625
100
AcDbArc
 50
0.0
 51
180.0
  0
ARC
  5
19830
330
193D3
100
AcDbEntity
  8
SUNPOU
100
AcDbCircle
 10
6384.217031986064
 20
9995.715360473253
 30
0.0
 40
5.625
100
AcDbArc
 50
0.0
 51
180.0
  0
ARC
  5
19831
330
193D3
100
AcDbEntity
  8
SUNPOU
100
AcDbCircle
 10
6384.217031986064
 20
9995.715360473253
 30
0.0
 40
5.625
100
AcDbArc
 50
180.0
 51
0.0
  0
ARC
  5
19832
330
193D3
100
AcDbEntity
  8
SUNPOU
100
AcDbCircle
 10
6784.217031986064
 20
9995.715360473253
 30
0.0
 40
5.625
100
AcDbArc
 50
180.0
 51
0.0
  0
ARC
  5
19833
330
193D3
100
AcDbEntity
  8
SUNPOU
100
AcDbCircle
 10
6784.217031986064
 20
9995.715360473253
 30
0.0
 40
5.625
100
AcDbArc
 50
0.0
 51
180.0
  0
ARC
  5
19834
330
193D3
100
AcDbEntity
  8
SUNPOU
100
AcDbCircle
 10
7110.758701212581
 20
3287.183932023015
 30
0.0
 40
5.625
100
AcDbArc
 50
0.0
 51
180.0
  0
ARC
  5
19835
330
193D3
100
AcDbEntity
  8
SUNPOU
100
AcDbCircle
 10
7110.758701212581
 20
3287.183932023015
 30
0.0
 40
5.625
100
AcDbArc
 50
180.0
 51
0.0
  0
ARC
  5
19836
330
193D3
100
AcDbEntity
  8
SUNPOU
100
AcDbCircle
 10
7750.758701212581
 20
3287.183932023015
 30
0.0
 40
5.625
100
AcDbArc
 50
180.0
 51
0.0
  0
ARC
  5
19837
330
193D3
100
AcDbEntity
  8
SUNPOU
100
AcDbCircle
 10
7750.758701212581
 20
3287.183932023015
 30
0.0
 40
5.625
100
AcDbArc
 50
0.0
 51
180.0
  0
ARC
  5
19838
330
193D3
100
AcDbEntity
  8
SUNPOU
100
AcDbCircle
 10
6629.758582955732
 20
1876.183932023016
 30
0.0
 40
5.625
100
AcDbArc
 50
90.0
 51
270.0
  0
ARC
  5
19839
330
193D3
100
AcDbEntity
  8
SUNPOU
100
AcDbCircle
 10
6629.758582955732
 20
1876.183932023016
 30
0.0
 40
5.625
100
AcDbArc
 50
270.0
 51
90.0
  0
ARC
  5
1983A
330
193D3
100
AcDbEntity
  8
SUNPOU
100
AcDbCircle
 10
6629.758582955734
 20
2484.183932023016
 30
0.0
 40
5.625
100
AcDbArc
 50
270.0
 51
90.0
  0
ARC
  5
1983B
330
193D3
100
AcDbEntity
  8
SUNPOU
100
AcDbCircle
 10
6629.758582955734
 20
2484.183932023016
 30
0.0
 40
5.625
100
AcDbArc
 50
90.0
 51
270.0
  0
ARC
  5
1983C
330
193D3
100
AcDbEntity
  8
SUNPOU
100
AcDbCircle
 10
6629.758582955732
 20
1716.183932023016
 30
0.0
 40
5.625
100
AcDbArc
 50
90.0
 51
270.0
  0
ARC
  5
1983D
330
193D3
100
AcDbEntity
  8
SUNPOU
100
AcDbCircle
 10
6629.758582955732
 20
1716.183932023016
 30
0.0
 40
5.625
100
AcDbArc
 50
270.0
 51
90.0
  0
ARC
  5
1983E
330
193D3
100
AcDbEntity
  8
SUNPOU
100
AcDbCircle
 10
6629.758582955732
 20
1876.183932023014
 30
0.0
 40
5.625
100
AcDbArc
 50
270.0
 51
90.0
  0
ARC
  5
1983F
330
193D3
100
AcDbEntity
  8
SUNPOU
100
AcDbCircle
 10
6629.758582955732
 20
1876.183932023014
 30
0.0
 40
5.625
100
AcDbArc
 50
90.0
 51
270.0
  0
ARC
  5
19840
330
193D3
100
AcDbEntity
  8
SUNPOU
100
AcDbCircle
 10
6429.758582955732
 20
1716.183932023016
 30
0.0
 40
5.625
100
AcDbArc
 50
90.0
 51
270.0
  0
ARC
  5
19841
330
193D3
100
AcDbEntity
  8
SUNPOU
100
AcDbCircle
 10
6429.758582955732
 20
1716.183932023016
 30
0.0
 40
5.625
100
AcDbArc
 50
270.0
 51
90.0
  0
ARC
  5
19842
330
193D3
100
AcDbEntity
  8
SUNPOU
100
AcDbCircle
 10
6429.758582955732
 20
2484.183932023016
 30
0.0
 40
5.625
100
AcDbArc
 50
270.0
 51
90.0
  0
ARC
  5
19843
330
193D3
100
AcDbEntity
  8
SUNPOU
100
AcDbCircle
 10
6429.758582955732
 20
2484.183932023016
 30
0.0
 40
5.625
100
AcDbArc
 50
90.0
 51
270.0
  0
ARC
  5
19844
330
193D3
100
AcDbEntity
  8
SUNPOU
100
AcDbCircle
 10
8390.758701212579
 20
1379.183932023015
 30
0.0
 40
5.625
100
AcDbArc
 50
180.0
 51
0.0
  0
ARC
  5
19845
330
193D3
100
AcDbEntity
  8
SUNPOU
100
AcDbCircle
 10
8390.758701212579
 20
1379.183932023015
 30
0.0
 40
5.625
100
AcDbArc
 50
0.0
 51
180.0
  0
ARC
  5
19846
330
193D3
100
AcDbEntity
  8
SUNPOU
100
AcDbCircle
 10
7110.758701212581
 20
1379.183932023015
 30
0.0
 40
5.625
100
AcDbArc
 50
0.0
 51
180.0
  0
ARC
  5
19847
330
193D3
100
AcDbEntity
  8
SUNPOU
100
AcDbCircle
 10
7110.758701212581
 20
1379.183932023015
 30
0.0
 40
5.625
100
AcDbArc
 50
180.0
 51
0.0
  0
ARC
  5
19848
330
193D3
100
AcDbEntity
  8
SUNPOU
100
AcDbCircle
 10
8550.758701212577
 20
1169.183932023014
 30
0.0
 40
5.625
100
AcDbArc
 50
180.0
 51
0.0
  0
ARC
  5
19849
330
193D3
100
AcDbEntity
  8
SUNPOU
100
AcDbCircle
 10
8550.758701212577
 20
1169.183932023014
 30
0.0
 40
5.625
100
AcDbArc
 50
0.0
 51
180.0
  0
ARC
  5
1984A
330
193D3
100
AcDbEntity
  8
SUNPOU
100
AcDbCircle
 10
6950.758701212581
 20
1169.183932023014
 30
0.0
 40
5.625
100
AcDbArc
 50
0.0
 51
180.0
  0
ARC
  5
1984B
330
193D3
100
AcDbEntity
  8
SUNPOU
100
AcDbCircle
 10
6950.758701212581
 20
1169.183932023014
 30
0.0
 40
5.625
100
AcDbArc
 50
180.0
 51
0.0
  0
ARC
  5
1984C
330
193D3
100
AcDbEntity
  8
SUNPOU
100
AcDbCircle
 10
4184.333914666385
 20
1379.183932023016
 30
0.0
 40
5.625
100
AcDbArc
 50
180.0
 51
0.0
  0
ARC
  5
1984D
330
193D3
100
AcDbEntity
  8
SUNPOU
100
AcDbCircle
 10
4184.333914666385
 20
1379.183932023016
 30
0.0
 40
5.625
100
AcDbArc
 50
0.0
 51
180.0
  0
ARC
  5
1984E
330
193D3
100
AcDbEntity
  8
SUNPOU
100
AcDbCircle
 10
3224.333914666386
 20
1379.183932023016
 30
0.0
 40
5.625
100
AcDbArc
 50
0.0
 51
180.0
  0
ARC
  5
1984F
330
193D3
100
AcDbEntity
  8
SUNPOU
100
AcDbCircle
 10
3224.333914666386
 20
1379.183932023016
 30
0.0
 40
5.625
100
AcDbArc
 50
180.0
 51
0.0
  0
ARC
  5
19850
330
193D3
100
AcDbEntity
  8
SUNPOU
100
AcDbCircle
 10
4344.333914666385
 20
1169.183932023016
 30
0.0
 40
5.625
100
AcDbArc
 50
180.0
 51
0.0
  0
ARC
  5
19851
330
193D3
100
AcDbEntity
  8
SUNPOU
100
AcDbCircle
 10
4344.333914666385
 20
1169.183932023016
 30
0.0
 40
5.625
100
AcDbArc
 50
0.0
 51
180.0
  0
ARC
  5
19852
330
193D3
100
AcDbEntity
  8
SUNPOU
100
AcDbCircle
 10
3064.333914666386
 20
1169.183932023016
 30
0.0
 40
5.625
100
AcDbArc
 50
0.0
 51
180.0
  0
ARC
  5
19853
330
193D3
100
AcDbEntity
  8
SUNPOU
100
AcDbCircle
 10
3064.333914666386
 20
1169.183932023016
 30
0.0
 40
5.625
100
AcDbArc
 50
180.0
 51
0.0
  0
ARC
  5
19854
330
193D3
100
AcDbEntity
  8
SUNPOU
100
AcDbCircle
 10
2743.333796409538
 20
1876.183932023018
 30
0.0
 40
5.625
100
AcDbArc
 50
90.0
 51
270.0
  0
ARC
  5
19855
330
193D3
100
AcDbEntity
  8
SUNPOU
100
AcDbCircle
 10
2743.333796409538
 20
1876.183932023018
 30
0.0
 40
5.625
100
AcDbArc
 50
270.0
 51
90.0
  0
ARC
  5
19856
330
193D3
100
AcDbEntity
  8
SUNPOU
100
AcDbCircle
 10
2743.333796409538
 20
2484.18393202302
 30
0.0
 40
5.625
100
AcDbArc
 50
270.0
 51
90.0
  0
ARC
  5
19857
330
193D3
100
AcDbEntity
  8
SUNPOU
100
AcDbCircle
 10
2743.333796409538
 20
2484.18393202302
 30
0.0
 40
5.625
100
AcDbArc
 50
90.0
 51
270.0
  0
ARC
  5
19858
330
193D3
100
AcDbEntity
  8
SUNPOU
100
AcDbCircle
 10
2743.333796409539
 20
1716.183932023018
 30
0.0
 40
5.625
100
AcDbArc
 50
90.0
 51
270.0
  0
ARC
  5
19859
330
193D3
100
AcDbEntity
  8
SUNPOU
100
AcDbCircle
 10
2743.333796409539
 20
1716.183932023018
 30
0.0
 40
5.625
100
AcDbArc
 50
270.0
 51
90.0
  0
ARC
  5
1985A
330
193D3
100
AcDbEntity
  8
SUNPOU
100
AcDbCircle
 10
2743.333796409539
 20
1876.183932023019
 30
0.0
 40
5.625
100
AcDbArc
 50
270.0
 51
90.0
  0
ARC
  5
1985B
330
193D3
100
AcDbEntity
  8
SUNPOU
100
AcDbCircle
 10
2743.333796409539
 20
1876.183932023019
 30
0.0
 40
5.625
100
AcDbArc
 50
90.0
 51
270.0
  0
ARC
  5
1985C
330
193D3
100
AcDbEntity
  8
SUNPOU
100
AcDbCircle
 10
2543.333796409538
 20
1716.183932023018
 30
0.0
 40
5.625
100
AcDbArc
 50
90.0
 51
270.0
  0
ARC
  5
1985D
330
193D3
100
AcDbEntity
  8
SUNPOU
100
AcDbCircle
 10
2543.333796409538
 20
1716.183932023018
 30
0.0
 40
5.625
100
AcDbArc
 50
270.0
 51
90.0
  0
ARC
  5
1985E
330
193D3
100
AcDbEntity
  8
SUNPOU
100
AcDbCircle
 10
2543.333796409538
 20
2484.18393202302
 30
0.0
 40
5.625
100
AcDbArc
 50
270.0
 51
90.0
  0
ARC
  5
1985F
330
193D3
100
AcDbEntity
  8
SUNPOU
100
AcDbCircle
 10
2543.333796409538
 20
2484.18393202302
 30
0.0
 40
5.625
100
AcDbArc
 50
90.0
 51
270.0
  0
ARC
  5
19860
330
193D3
100
AcDbEntity
  8
SUNPOU
100
AcDbCircle
 10
3224.333914666386
 20
3287.183932023017
 30
0.0
 40
5.625
100
AcDbArc
 50
0.0
 51
180.0
  0
ARC
  5
19861
330
193D3
100
AcDbEntity
  8
SUNPOU
100
AcDbCircle
 10
3224.333914666386
 20
3287.183932023017
 30
0.0
 40
5.625
100
AcDbArc
 50
180.0
 51
0.0
  0
ARC
  5
19862
330
193D3
100
AcDbEntity
  8
SUNPOU
100
AcDbCircle
 10
3704.333914666387
 20
3287.183932023017
 30
0.0
 40
5.625
100
AcDbArc
 50
180.0
 51
0.0
  0
ARC
  5
19863
330
193D3
100
AcDbEntity
  8
SUNPOU
100
AcDbCircle
 10
3704.333914666387
 20
3287.183932023017
 30
0.0
 40
5.625
100
AcDbArc
 50
0.0
 51
180.0
  0
ARC
  5
19864
330
193D3
100
AcDbEntity
  8
HIKIDASHI
100
AcDbCircle
 10
7034.163526321626
 20
2884.568660545874
 30
0.0
 40
74.66417910452284
100
AcDbArc
 50
164.8596129850915
 51
237.5045002941574
  0
ARC
  5
19865
330
193D3
100
AcDbEntity
  8
HIKIDASHI
100
AcDbCircle
 10
6970.739732275323
 20
2901.729684030359
 30
0.0
 40
8.959701492542745
100
AcDbArc
 50
15.14038701504827
 51
164.8596129849796
  0
ARC
  5
19866
330
193D3
100
AcDbEntity
  8
HIKIDASHI
100
AcDbCircle
 10
3107.738739775433
 20
2884.568660545875
 30
0.0
 40
74.66417910452284
100
AcDbArc
 50
164.859612985099
 51
237.5045002941329
  0
ARC
  5
19867
330
193D3
100
AcDbEntity
  8
HIKIDASHI
100
AcDbCircle
 10
3044.314945729129
 20
2901.72968403036
 30
0.0
 40
8.959701492542745
100
AcDbArc
 50
15.14038701504827
 51
164.8596129849796
  0
LINE
  5
19868
330
193D3
100
AcDbEntity
  8
HIKIDASHI
100
AcDbLine
 10
7373.188673061545
 20
2549.657897273409
 30
0.0
 11
7061.08797807352
 21
2994.183932023013
 31
0.0
1001
ACAD
1000
DSTYLE
1002
{
1070
   147
1040
1.0
1070
    77
1070
     0
1070
   144
1040
0.625
1002
}
  0
LINE
  5
19869
330
193D3
100
AcDbEntity
  8
HIKIDASHI
100
AcDbLine
 10
7362.276345519813
 20
2541.996377489465
 30
0.0
 11
7419.1577917652
 21
2484.183932023017
 31
0.0
  0
LINE
  5
1986A
330
193D3
100
AcDbEntity
  8
HIKIDASHI
100
AcDbLine
 10
7419.1577917652
 20
2484.183932023017
 30
0.0
 11
7384.101000603277
 21
2557.319417057351
 31
0.0
  0
SOLID
  5
1986B
330
193D3
100
AcDbEntity
  8
HIKIDASHI
100
AcDbTrace
 10
7362.276345519813
 20
2541.996377489465
 30
0.0
 11
7384.101000603277
 21
2557.319417057351
 31
0.0
 12
7419.1577917652
 22
2484.183932023017
 32
0.0
 13
7419.1577917652
 23
2484.183932023017
 33
0.0
  0
LINE
  5
1986C
330
193D3
100
AcDbEntity
  8
HIKIDASHI
100
AcDbLine
 10
7384.101000603277
 20
2557.319417057351
 30
0.0
 11
7362.276345519813
 21
2541.996377489465
 31
0.0
  0
LINE
  5
1986D
330
193D3
100
AcDbEntity
  8
HIKIDASHI
100
AcDbLine
 10
7528.904070814292
 20
2046.342848554359
 30
0.0
 11
7047.682504043535
 21
2754.183932023012
 31
0.0
1001
ACAD
1000
DSTYLE
1002
{
1070
   147
1040
1.0
1070
    77
1070
     0
1070
   144
1040
0.625
1002
}
  0
LINE
  5
1986E
330
193D3
100
AcDbEntity
  8
HIKIDASHI
100
AcDbLine
 10
7517.877584725734
 20
2038.846557316912
 30
0.0
 11
7573.881818238977
 21
1980.183932023017
 31
0.0
  0
LINE
  5
1986F
330
193D3
100
AcDbEntity
  8
HIKIDASHI
100
AcDbLine
 10
7573.881818238977
 20
1980.183932023017
 30
0.0
 11
7539.93055690285
 21
2053.839139791807
 31
0.0
  0
SOLID
  5
19870
330
193D3
100
AcDbEntity
  8
HIKIDASHI
100
AcDbTrace
 10
7517.877584725734
 20
2038.846557316912
 30
0.0
 11
7539.93055690285
 21
2053.839139791807
 31
0.0
 12
7573.881818238977
 22
1980.183932023017
 32
0.0
 13
7573.881818238977
 23
1980.183932023017
 33
0.0
  0
LINE
  5
19871
330
193D3
100
AcDbEntity
  8
HIKIDASHI
100
AcDbLine
 10
7539.93055690285
 20
2053.839139791807
 30
0.0
 11
7517.877584725734
 21
2038.846557316912
 31
0.0
  0
ARC
  5
19872
330
193D3
100
AcDbEntity
  8
HIKIDASHI
100
AcDbCircle
 10
6908.495464764758
 20
2885.748787905465
 30
0.0
 40
74.66417910452253
100
AcDbArc
 50
301.7712278330703
 51
15.14038701490934
  0
LINE
  5
19873
330
193D3
100
AcDbEntity
  8
HIKIDASHI
100
AcDbLine
 10
6916.549902271178
 20
1707.866865745498
 30
0.0
 11
6725.592096228623
 21
1304.183932023017
 31
0.0
1001
ACAD
1000
DSTYLE
1002
{
1070
   147
1040
1.0
1070
    77
1070
     0
1070
   144
1040
0.625
1002
}
  0
LINE
  5
19874
330
193D3
100
AcDbEntity
  8
HIKIDASHI
100
AcDbLine
 10
6928.602746650764
 20
1702.165399255265
 30
0.0
 11
6950.758701212581
 21
1780.183932023015
 31
0.0
  0
LINE
  5
19875
330
193D3
100
AcDbEntity
  8
HIKIDASHI
100
AcDbLine
 10
6950.758701212581
 20
1780.183932023015
 30
0.0
 11
6904.497057891591
 21
1713.568332235734
 31
0.0
  0
SOLID
  5
19876
330
193D3
100
AcDbEntity
  8
HIKIDASHI
100
AcDbTrace
 10
6928.602746650764
 20
1702.165399255265
 30
0.0
 11
6904.497057891591
 21
1713.568332235734
 31
0.0
 12
6950.758701212581
 22
1780.183932023015
 32
0.0
 13
6950.758701212581
 23
1780.183932023015
 33
0.0
  0
LINE
  5
19877
330
193D3
100
AcDbEntity
  8
HIKIDASHI
100
AcDbLine
 10
6904.497057891591
 20
1713.568332235734
 30
0.0
 11
6928.602746650764
 21
1702.165399255265
 31
0.0
  0
LINE
  5
19878
330
193D3
100
AcDbEntity
  8
HIKIDASHI
100
AcDbLine
 10
8512.255537304527
 20
2235.555264269678
 30
0.0
 11
8604.261733917331
 21
1961.931554141242
 31
0.0
1001
ACAD
1000
DSTYLE
1002
{
1070
   147
1040
1.0
1070
    77
1070
     0
1070
   144
1040
0.625
1070
   173
1070
     0
1070
   341
1005
125B0
1002
}
  0
ARC
  5
19879
330
193D3
100
AcDbEntity
  8
HIKIDASHI
100
AcDbCircle
 10
8463.573051272508
 20
2317.583646062626
 30
0.0
 40
24.0
100
AcDbArc
 50
232.1425703309788
 51
345.0279508071377
  0
ARC
  5
1987A
330
193D3
100
AcDbEntity
  8
HIKIDASHI
100
AcDbCircle
 10
8509.943545927438
 20
2305.182951507191
 30
0.0
 40
24.0
100
AcDbArc
 50
52.14257033097887
 51
165.0279508071375
  0
LINE
  5
1987B
330
193D3
100
AcDbEntity
  8
HIKIDASHI
100
AcDbLine
 10
8486.758298599971
 20
2311.383298784909
 30
0.0
 11
8512.255537304531
 21
2235.555264269661
 31
0.0
  0
LINE
  5
1987C
330
193D3
100
AcDbEntity
  8
HIKIDASHI
100
AcDbLine
 10
4305.830750758332
 20
2235.555264269682
 30
0.0
 11
4397.836947371135
 21
1961.931554141245
 31
0.0
1001
ACAD
1000
DSTYLE
1002
{
1070
   147
1040
1.0
1070
    77
1070
     0
1070
   144
1040
0.625
1070
   173
1070
     0
1070
   341
1005
125B0
1002
}
  0
ARC
  5
1987D
330
193D3
100
AcDbEntity
  8
HIKIDASHI
100
AcDbCircle
 10
4257.148264726313
 20
2317.58364606263
 30
0.0
 40
24.0
100
AcDbArc
 50
232.1425703309794
 51
345.0279508071377
  0
ARC
  5
1987E
330
193D3
100
AcDbEntity
  8
HIKIDASHI
100
AcDbCircle
 10
4303.51875938124
 20
2305.182951507194
 30
0.0
 40
24.0
100
AcDbArc
 50
52.14257033097939
 51
165.0279508071375
  0
LINE
  5
1987F
330
193D3
100
AcDbEntity
  8
HIKIDASHI
100
AcDbLine
 10
4280.333512053776
 20
2311.383298784912
 30
0.0
 11
4305.830750758338
 21
2235.555264269664
 31
0.0
  0
LINE
  5
19880
330
193D3
100
AcDbEntity
  8
HIKIDASHI
100
AcDbLine
 10
3030.125115724983
 20
1707.866865745504
 30
0.0
 11
2839.167309682428
 21
1304.183932023019
 31
0.0
1001
ACAD
1000
DSTYLE
1002
{
1070
   147
1040
1.0
1070
    77
1070
     0
1070
   144
1040
0.625
1002
}
  0
LINE
  5
19881
330
193D3
100
AcDbEntity
  8
HIKIDASHI
100
AcDbLine
 10
3042.177960104569
 20
1702.165399255268
 30
0.0
 11
3064.333914666386
 21
1780.183932023019
 31
0.0
  0
LINE
  5
19882
330
193D3
100
AcDbEntity
  8
HIKIDASHI
100
AcDbLine
 10
3064.333914666386
 20
1780.183932023019
 30
0.0
 11
3018.072271345396
 21
1713.568332235738
 31
0.0
  0
SOLID
  5
19883
330
193D3
100
AcDbEntity
  8
HIKIDASHI
100
AcDbTrace
 10
3042.177960104569
 20
1702.165399255268
 30
0.0
 11
3018.072271345396
 21
1713.568332235738
 31
0.0
 12
3064.333914666386
 22
1780.183932023019
 32
0.0
 13
3064.333914666386
 23
1780.183932023019
 33
0.0
  0
LINE
  5
19884
330
193D3
100
AcDbEntity
  8
HIKIDASHI
100
AcDbLine
 10
3018.072271345396
 20
1713.568332235738
 30
0.0
 11
3042.177960104569
 21
1702.165399255268
 31
0.0
  0
LINE
  5
19885
330
193D3
100
AcDbEntity
  8
HIKIDASHI
100
AcDbLine
 10
3397.405324605102
 20
2552.921480099711
 30
0.0
 11
3134.663191527326
 21
2994.183932023015
 31
0.0
1001
ACAD
1000
DSTYLE
1002
{
1070
   147
1040
1.0
1070
    77
1070
     0
1070
   144
1040
0.625
1002
}
  0
LINE
  5
19886
330
193D3
100
AcDbEntity
  8
HIKIDASHI
100
AcDbLine
 10
3385.949066592321
 20
2546.100048422829
 30
0.0
 11
3438.333914666386
 21
2484.183932023019
 31
0.0
  0
LINE
  5
19887
330
193D3
100
AcDbEntity
  8
HIKIDASHI
100
AcDbLine
 10
3438.333914666386
 20
2484.183932023019
 30
0.0
 11
3408.861582617884
 21
2559.742911776591
 31
0.0
  0
SOLID
  5
19888
330
193D3
100
AcDbEntity
  8
HIKIDASHI
100
AcDbTrace
 10
3385.949066592321
 20
2546.100048422829
 30
0.0
 11
3408.861582617884
 21
2559.742911776591
 31
0.0
 12
3438.333914666386
 22
2484.183932023019
 32
0.0
 13
3438.333914666386
 23
2484.183932023019
 33
0.0
  0
LINE
  5
19889
330
193D3
100
AcDbEntity
  8
HIKIDASHI
100
AcDbLine
 10
3408.861582617884
 20
2559.742911776591
 30
0.0
 11
3385.949066592321
 21
2546.100048422829
 31
0.0
  0
LINE
  5
1988A
330
193D3
100
AcDbEntity
  8
HIKIDASHI
100
AcDbLine
 10
3500.3842778552
 20
2050.609957510043
 30
0.0
 11
3121.257717497342
 21
2754.183932023015
 31
0.0
1001
ACAD
1000
DSTYLE
1002
{
1070
   147
1040
1.0
1070
    77
1070
     0
1070
   144
1040
0.625
1002
}
  0
LINE
  5
1988B
330
193D3
100
AcDbEntity
  8
HIKIDASHI
100
AcDbLine
 10
3488.646606940696
 20
2044.285018041513
 30
0.0
 11
3538.333914666386
 21
1980.183932023019
 31
0.0
  0
LINE
  5
1988C
330
193D3
100
AcDbEntity
  8
HIKIDASHI
100
AcDbLine
 10
3538.333914666386
 20
1980.183932023019
 30
0.0
 11
3512.121948769705
 21
2056.934896978575
 31
0.0
  0
SOLID
  5
1988D
330
193D3
100
AcDbEntity
  8
HIKIDASHI
100
AcDbTrace
 10
3488.646606940696
 20
2044.285018041513
 30
0.0
 11
3512.121948769705
 21
2056.934896978575
 31
0.0
 12
3538.333914666386
 22
1980.183932023019
 32
0.0
 13
3538.333914666386
 23
1980.183932023019
 33
0.0
  0
LINE
  5
1988E
330
193D3
100
AcDbEntity
  8
HIKIDASHI
100
AcDbLine
 10
3512.121948769705
 20
2056.934896978575
 30
0.0
 11
3488.646606940696
 21
2044.285018041513
 31
0.0
  0
ARC
  5
1988F
330
193D3
100
AcDbEntity
  8
HIKIDASHI
100
AcDbCircle
 10
2982.070678218562
 20
2885.748787905466
 30
0.0
 40
74.66417910452276
100
AcDbArc
 50
301.7712278330706
 51
15.14038701490924
  0
LINE
  5
19890
330
193D3
100
AcDbEntity
  8
DOMAKON
100
AcDbLine
 10
6384.217031986064
 20
5395.715360473253
 30
0.0
 11
9984.217031986066
 21
5395.715360473253
 31
0.0
  0
LINE
  5
19891
330
193D3
100
AcDbEntity
  8
DOMAKON
100
AcDbLine
 10
9984.217031986066
 20
5395.715360473253
 30
0.0
 11
9984.217031986066
 21
9595.715360473253
 31
0.0
  0
LINE
  5
19892
330
193D3
100
AcDbEntity
  8
DOMAKON
100
AcDbLine
 10
9984.217031986066
 20
9595.715360473253
 30
0.0
 11
6384.217031986064
 21
9595.715360473253
 31
0.0
  0
LINE
  5
19893
330
193D3
100
AcDbEntity
  8
DOMAKON
100
AcDbLine
 10
6384.217031986064
 20
9595.715360473253
 30
0.0
 11
6384.217031986064
 21
5395.715360473253
 31
0.0
  0
LINE
  5
19894
330
193D3
100
AcDbEntity
  8
KISO
100
AcDbLine
 10
6384.217031986064
 20
7095.715360473253
 30
0.0
 11
7184.217031986064
 21
7095.715360473253
 31
0.0
  0
LINE
  5
19895
330
193D3
100
AcDbEntity
  8
KISO
100
AcDbLine
 10
7184.217031986064
 20
7095.715360473253
 30
0.0
 11
7184.217031986064
 21
7895.715360473253
 31
0.0
  0
LINE
  5
19896
330
193D3
100
AcDbEntity
  8
KISO
100
AcDbLine
 10
7184.217031986064
 20
7895.715360473253
 30
0.0
 11
6384.217031986064
 21
7895.715360473253
 31
0.0
  0
LINE
  5
19897
330
193D3
100
AcDbEntity
  8
KISO
100
AcDbLine
 10
6384.217031986064
 20
7895.715360473253
 30
0.0
 11
6384.217031986064
 21
7095.715360473253
 31
0.0
  0
LINE
  5
19898
330
193D3
100
AcDbEntity
  8
KISO
100
AcDbLine
 10
9184.217031986065
 20
7095.715360473253
 30
0.0
 11
9984.217031986066
 21
7095.715360473253
 31
0.0
  0
LINE
  5
19899
330
193D3
100
AcDbEntity
  8
KISO
100
AcDbLine
 10
9984.217031986066
 20
7095.715360473253
 30
0.0
 11
9984.217031986066
 21
7895.715360473253
 31
0.0
  0
LINE
  5
1989A
330
193D3
100
AcDbEntity
  8
KISO
100
AcDbLine
 10
9984.217031986066
 20
7895.715360473253
 30
0.0
 11
9184.217031986065
 21
7895.715360473253
 31
0.0
  0
LINE
  5
1989B
330
193D3
100
AcDbEntity
  8
KISO
100
AcDbLine
 10
9184.217031986065
 20
7895.715360473253
 30
0.0
 11
9184.217031986065
 21
7095.715360473253
 31
0.0
  0
LINE
  5
1989C
330
193D3
100
AcDbEntity
  8
YANE
  6
2PL-L
 62
     6
100
AcDbLine
 10
9980.217031986065
 20
5295.715360473252
 30
0.0
 11
6388.217031986064
 21
5295.715360473252
 31
0.0
  0
LINE
  5
1989D
330
193D3
100
AcDbEntity
  8
YANE
  6
2PL-L
 62
     6
100
AcDbLine
 10
6388.217031986064
 20
5295.715360473252
 30
0.0
 11
6388.217031986064
 21
9695.715360473252
 31
0.0
  0
LINE
  5
1989E
330
193D3
100
AcDbEntity
  8
YANE
  6
2PL-L
 62
     6
100
AcDbLine
 10
6388.217031986064
 20
9695.715360473252
 30
0.0
 11
9980.217031986065
 21
9695.715360473252
 31
0.0
  0
LINE
  5
1989F
330
193D3
100
AcDbEntity
  8
YANE
  6
2PL-L
 62
     6
100
AcDbLine
 10
9980.217031986065
 20
9695.715360473252
 30
0.0
 11
9980.217031986065
 21
5295.715360473252
 31
0.0
  0
LINE
  5
198A0
330
193D3
100
AcDbEntity
  8
KISO
100
AcDbLine
 10
6484.21703198606
 20
5395.715360473253
 30
0.0
 11
7084.21703198606
 21
5395.715360473253
 31
0.0
  0
LINE
  5
198A1
330
193D3
100
AcDbEntity
  8
KISO
100
AcDbLine
 10
7084.21703198606
 20
5395.715360473253
 30
0.0
 11
7084.21703198606
 21
5995.715360473252
 31
0.0
  0
LINE
  5
198A2
330
193D3
100
AcDbEntity
  8
KISO
100
AcDbLine
 10
7084.21703198606
 20
5995.715360473252
 30
0.0
 11
6484.21703198606
 21
5995.715360473252
 31
0.0
  0
LINE
  5
198A3
330
193D3
100
AcDbEntity
  8
KISO
100
AcDbLine
 10
6484.21703198606
 20
5995.715360473252
 30
0.0
 11
6484.21703198606
 21
5395.715360473253
 31
0.0
  0
LINE
  5
198A4
330
193D3
100
AcDbEntity
  8
KISO
100
AcDbLine
 10
6484.21703198606
 20
8995.715360473253
 30
0.0
 11
7084.21703198606
 21
8995.715360473253
 31
0.0
  0
LINE
  5
198A5
330
193D3
100
AcDbEntity
  8
KISO
100
AcDbLine
 10
7084.21703198606
 20
8995.715360473253
 30
0.0
 11
7084.21703198606
 21
9595.715360473253
 31
0.0
  0
LINE
  5
198A6
330
193D3
100
AcDbEntity
  8
KISO
100
AcDbLine
 10
7084.21703198606
 20
9595.715360473253
 30
0.0
 11
6484.21703198606
 21
9595.715360473253
 31
0.0
  0
LINE
  5
198A7
330
193D3
100
AcDbEntity
  8
KISO
100
AcDbLine
 10
6484.21703198606
 20
9595.715360473253
 30
0.0
 11
6484.21703198606
 21
8995.715360473253
 31
0.0
  0
LINE
  5
198A8
330
193D3
100
AcDbEntity
  8
KISO
100
AcDbLine
 10
9884.217031986066
 20
8995.715360473253
 30
0.0
 11
9284.217031986065
 21
8995.715360473253
 31
0.0
  0
LINE
  5
198A9
330
193D3
100
AcDbEntity
  8
KISO
100
AcDbLine
 10
9284.217031986065
 20
8995.715360473253
 30
0.0
 11
9284.217031986065
 21
9595.715360473253
 31
0.0
  0
LINE
  5
198AA
330
193D3
100
AcDbEntity
  8
KISO
100
AcDbLine
 10
9284.217031986065
 20
9595.715360473253
 30
0.0
 11
9884.217031986066
 21
9595.715360473253
 31
0.0
  0
LINE
  5
198AB
330
193D3
100
AcDbEntity
  8
KISO
100
AcDbLine
 10
9884.217031986066
 20
9595.715360473253
 30
0.0
 11
9884.217031986066
 21
8995.715360473253
 31
0.0
  0
LINE
  5
198AC
330
193D3
100
AcDbEntity
  8
KISO
100
AcDbLine
 10
9884.217031986066
 20
5395.715360473253
 30
0.0
 11
9284.217031986065
 21
5395.715360473253
 31
0.0
  0
LINE
  5
198AD
330
193D3
100
AcDbEntity
  8
KISO
100
AcDbLine
 10
9284.217031986065
 20
5395.715360473253
 30
0.0
 11
9284.217031986065
 21
5995.715360473252
 31
0.0
  0
LINE
  5
198AE
330
193D3
100
AcDbEntity
  8
KISO
100
AcDbLine
 10
9284.217031986065
 20
5995.715360473252
 30
0.0
 11
9884.217031986066
 21
5995.715360473252
 31
0.0
  0
LINE
  5
198AF
330
193D3
100
AcDbEntity
  8
KISO
100
AcDbLine
 10
9884.217031986066
 20
5995.715360473252
 30
0.0
 11
9884.217031986066
 21
5395.715360473253
 31
0.0
  0
LINE
  5
198B0
330
193D3
100
AcDbEntity
  8
U1
100
AcDbLine
 10
9590.417031986062
 20
9265.515360473251
 30
0.0
 11
9558.017031986063
 21
9265.515360473251
 31
0.0
  0
LINE
  5
198B1
330
193D3
100
AcDbEntity
  8
U1
100
AcDbLine
 10
9558.017031986064
 20
9325.915360473253
 30
0.0
 11
9610.417031986065
 21
9325.915360473253
 31
0.0
  0
ARC
  5
198B2
330
193D3
100
AcDbEntity
  8
U1
100
AcDbCircle
 10
9558.017031986064
 20
9321.915360473253
 30
0.0
 40
4.0
100
AcDbArc
 50
90.0
 51
180.0
  0
ARC
  5
198B3
330
193D3
100
AcDbEntity
  8
U1
100
AcDbCircle
 10
9558.017031986063
 20
9269.515360473251
 30
0.0
 40
4.0
100
AcDbArc
 50
180.0
 51
270.0
  0
LINE
  5
198B4
330
193D3
100
AcDbEntity
  8
U1
100
AcDbLine
 10
9554.01703198606
 20
9269.515360473251
 30
0.0
 11
9554.017031986065
 21
9321.915360473253
 31
0.0
  0
ARC
  5
198B5
330
193D3
100
AcDbEntity
  8
U1
100
AcDbCircle
 10
9610.417031986065
 20
9321.915360473253
 30
0.0
 40
4.0
100
AcDbArc
 50
0.0
 51
90.0
  0
ARC
  5
198B6
330
193D3
100
AcDbEntity
  8
U1
100
AcDbCircle
 10
9590.417031986062
 20
9269.515360473251
 30
0.0
 40
4.0
100
AcDbArc
 50
270.0
 51
0.0
  0
ARC
  5
198B7
330
193D3
100
AcDbEntity
  8
U1
100
AcDbCircle
 10
9597.86703198606
 20
9278.765360473251
 30
0.0
 40
1.149999999999977
100
AcDbArc
 50
0.0
 51
180.0
  0
LINE
  5
198B8
330
193D3
100
AcDbEntity
  8
U1
100
AcDbLine
 10
9601.317031986063
 20
9271.215360473252
 30
0.0
 11
9601.317031986063
 21
9278.765360473251
 31
0.0
  0
LINE
  5
198B9
330
193D3
100
AcDbEntity
  8
U1
100
AcDbLine
 10
9599.017031986063
 20
9271.215360473252
 30
0.0
 11
9601.317031986063
 21
9271.215360473252
 31
0.0
  0
LINE
  5
198BA
330
193D3
100
AcDbEntity
  8
U1
100
AcDbLine
 10
9596.717031986065
 20
9278.215360473252
 30
0.0
 11
9599.017031986063
 21
9278.215360473252
 31
0.0
  0
ARC
  5
198BB
330
193D3
100
AcDbEntity
  8
U1
100
AcDbCircle
 10
9597.86703198606
 20
9278.765360473251
 30
0.0
 40
3.450000000000044
100
AcDbArc
 50
0.0
 51
180.0
  0
LINE
  5
198BC
330
193D3
100
AcDbEntity
  8
U1
100
AcDbLine
 10
9596.717031986065
 20
9278.765360473251
 30
0.0
 11
9596.717031986065
 21
9269.515360473251
 31
0.0
  0
LINE
  5
198BD
330
193D3
100
AcDbEntity
  8
U1
100
AcDbLine
 10
9599.017031986063
 20
9269.515360473251
 30
0.0
 11
9599.017031986063
 21
9278.765360473251
 31
0.0
  0
LINE
  5
198BE
330
193D3
100
AcDbEntity
  8
U1
100
AcDbLine
 10
9594.417031986065
 20
9278.765360473251
 30
0.0
 11
9594.417031986065
 21
9269.515360473251
 31
0.0
  0
ARC
  5
198BF
330
193D3
100
AcDbEntity
  8
U1
100
AcDbCircle
 10
9610.417031986063
 20
9269.515360473251
 30
0.0
 40
4.0
100
AcDbArc
 50
270.0
 51
0.0
  0
LINE
  5
198C0
330
193D3
100
AcDbEntity
  8
U1
100
AcDbLine
 10
9610.417031986063
 20
9265.515360473251
 30
0.0
 11
9603.017031986063
 21
9265.515360473251
 31
0.0
  0
ARC
  5
198C1
330
193D3
100
AcDbEntity
  8
U1
100
AcDbCircle
 10
9603.017031986063
 20
9269.515360473251
 30
0.0
 40
4.0
100
AcDbArc
 50
180.0
 51
270.0
  0
LINE
  5
198C2
330
193D3
100
AcDbEntity
  8
U1
100
AcDbLine
 10
9614.417031986064
 20
9321.915360473253
 30
0.0
 11
9614.417031986063
 21
9269.515360473251
 31
0.0
  0
LINE
  5
198C3
330
193D3
100
AcDbEntity
  8
U1
100
AcDbLine
 10
6778.017031986063
 20
9265.515360473251
 30
0.0
 11
6810.417031986062
 21
9265.515360473251
 31
0.0
  0
LINE
  5
198C4
330
193D3
100
AcDbEntity
  8
U1
100
AcDbLine
 10
6810.417031986062
 20
9325.915360473253
 30
0.0
 11
6758.017031986064
 21
9325.915360473253
 31
0.0
  0
ARC
  5
198C5
330
193D3
100
AcDbEntity
  8
U1
100
AcDbCircle
 10
6810.417031986062
 20
9321.915360473253
 30
0.0
 40
4.0
100
AcDbArc
 50
0.0
 51
90.0
  0
ARC
  5
198C6
330
193D3
100
AcDbEntity
  8
U1
100
AcDbCircle
 10
6810.417031986062
 20
9269.515360473251
 30
0.0
 40
4.0
100
AcDbArc
 50
270.0
 51
0.0
  0
LINE
  5
198C7
330
193D3
100
AcDbEntity
  8
U1
100
AcDbLine
 10
6814.417031986065
 20
9269.515360473251
 30
0.0
 11
6814.417031986065
 21
9321.915360473253
 31
0.0
  0
ARC
  5
198C8
330
193D3
100
AcDbEntity
  8
U1
100
AcDbCircle
 10
6758.017031986064
 20
9321.915360473253
 30
0.0
 40
4.0
100
AcDbArc
 50
90.0
 51
180.0
  0
ARC
  5
198C9
330
193D3
100
AcDbEntity
  8
U1
100
AcDbCircle
 10
6778.017031986063
 20
9269.515360473251
 30
0.0
 40
4.0
100
AcDbArc
 50
180.0
 51
270.0
  0
ARC
  5
198CA
330
193D3
100
AcDbEntity
  8
U1
100
AcDbCircle
 10
6770.567031986063
 20
9278.765360473251
 30
0.0
 40
1.149999999999977
100
AcDbArc
 50
0.0
 51
180.0
  0
LINE
  5
198CB
330
193D3
100
AcDbEntity
  8
U1
100
AcDbLine
 10
6767.117031986065
 20
9271.215360473252
 30
0.0
 11
6767.117031986065
 21
9278.765360473251
 31
0.0
  0
LINE
  5
198CC
330
193D3
100
AcDbEntity
  8
U1
100
AcDbLine
 10
6769.417031986063
 20
9271.215360473252
 30
0.0
 11
6767.117031986065
 21
9271.215360473252
 31
0.0
  0
LINE
  5
198CD
330
193D3
100
AcDbEntity
  8
U1
100
AcDbLine
 10
6771.717031986064
 20
9278.215360473252
 30
0.0
 11
6769.417031986063
 21
9278.215360473252
 31
0.0
  0
ARC
  5
198CE
330
193D3
100
AcDbEntity
  8
U1
100
AcDbCircle
 10
6770.567031986063
 20
9278.765360473251
 30
0.0
 40
3.450000000000044
100
AcDbArc
 50
0.0
 51
180.0
  0
LINE
  5
198CF
330
193D3
100
AcDbEntity
  8
U1
100
AcDbLine
 10
6771.717031986064
 20
9278.765360473251
 30
0.0
 11
6771.717031986064
 21
9269.515360473251
 31
0.0
  0
LINE
  5
198D0
330
193D3
100
AcDbEntity
  8
U1
100
AcDbLine
 10
6769.417031986063
 20
9269.515360473251
 30
0.0
 11
6769.417031986063
 21
9278.765360473251
 31
0.0
  0
LINE
  5
198D1
330
193D3
100
AcDbEntity
  8
U1
100
AcDbLine
 10
6774.017031986062
 20
9278.765360473251
 30
0.0
 11
6774.017031986062
 21
9269.515360473251
 31
0.0
  0
ARC
  5
198D2
330
193D3
100
AcDbEntity
  8
U1
100
AcDbCircle
 10
6758.017031986064
 20
9269.515360473251
 30
0.0
 40
4.0
100
AcDbArc
 50
180.0
 51
270.0
  0
LINE
  5
198D3
330
193D3
100
AcDbEntity
  8
U1
100
AcDbLine
 10
6758.017031986064
 20
9265.515360473251
 30
0.0
 11
6765.417031986064
 21
9265.515360473251
 31
0.0
  0
ARC
  5
198D4
330
193D3
100
AcDbEntity
  8
U1
100
AcDbCircle
 10
6765.417031986064
 20
9269.515360473251
 30
0.0
 40
4.0
100
AcDbArc
 50
270.0
 51
0.0
  0
LINE
  5
198D5
330
193D3
100
AcDbEntity
  8
U1
100
AcDbLine
 10
6754.017031986062
 20
9321.915360473253
 30
0.0
 11
6754.017031986063
 21
9269.515360473251
 31
0.0
  0
LINE
  5
198D6
330
193D3
100
AcDbEntity
  8
U1
100
AcDbLine
 10
6778.017031986063
 20
5725.915360473251
 30
0.0
 11
6810.417031986062
 21
5725.915360473251
 31
0.0
  0
LINE
  5
198D7
330
193D3
100
AcDbEntity
  8
U1
100
AcDbLine
 10
6810.417031986062
 20
5665.51536047325
 30
0.0
 11
6758.017031986064
 21
5665.51536047325
 31
0.0
  0
ARC
  5
198D8
330
193D3
100
AcDbEntity
  8
U1
100
AcDbCircle
 10
6810.417031986062
 20
5669.51536047325
 30
0.0
 40
4.0
100
AcDbArc
 50
270.0
 51
0.0
  0
ARC
  5
198D9
330
193D3
100
AcDbEntity
  8
U1
100
AcDbCircle
 10
6810.417031986062
 20
5721.915360473252
 30
0.0
 40
4.0
100
AcDbArc
 50
0.0
 51
90.0
  0
LINE
  5
198DA
330
193D3
100
AcDbEntity
  8
U1
100
AcDbLine
 10
6814.417031986065
 20
5721.915360473252
 30
0.0
 11
6814.417031986065
 21
5669.51536047325
 31
0.0
  0
ARC
  5
198DB
330
193D3
100
AcDbEntity
  8
U1
100
AcDbCircle
 10
6758.017031986064
 20
5669.51536047325
 30
0.0
 40
4.0
100
AcDbArc
 50
180.0
 51
270.0
  0
ARC
  5
198DC
330
193D3
100
AcDbEntity
  8
U1
100
AcDbCircle
 10
6778.017031986063
 20
5721.915360473252
 30
0.0
 40
4.0
100
AcDbArc
 50
90.0
 51
180.0
  0
ARC
  5
198DD
330
193D3
100
AcDbEntity
  8
U1
100
AcDbCircle
 10
6770.567031986063
 20
5712.665360473252
 30
0.0
 40
1.149999999999977
100
AcDbArc
 50
180.0
 51
0.0
  0
LINE
  5
198DE
330
193D3
100
AcDbEntity
  8
U1
100
AcDbLine
 10
6767.117031986065
 20
5720.215360473252
 30
0.0
 11
6767.117031986065
 21
5712.665360473252
 31
0.0
  0
LINE
  5
198DF
330
193D3
100
AcDbEntity
  8
U1
100
AcDbLine
 10
6769.417031986063
 20
5720.215360473252
 30
0.0
 11
6767.117031986065
 21
5720.215360473252
 31
0.0
  0
LINE
  5
198E0
330
193D3
100
AcDbEntity
  8
U1
100
AcDbLine
 10
6771.717031986064
 20
5713.215360473252
 30
0.0
 11
6769.417031986063
 21
5713.215360473252
 31
0.0
  0
ARC
  5
198E1
330
193D3
100
AcDbEntity
  8
U1
100
AcDbCircle
 10
6770.567031986063
 20
5712.665360473252
 30
0.0
 40
3.450000000000044
100
AcDbArc
 50
180.0
 51
0.0
  0
LINE
  5
198E2
330
193D3
100
AcDbEntity
  8
U1
100
AcDbLine
 10
6771.717031986064
 20
5712.665360473252
 30
0.0
 11
6771.717031986064
 21
5721.915360473251
 31
0.0
  0
LINE
  5
198E3
330
193D3
100
AcDbEntity
  8
U1
100
AcDbLine
 10
6769.417031986063
 20
5721.915360473252
 30
0.0
 11
6769.417031986063
 21
5712.665360473252
 31
0.0
  0
LINE
  5
198E4
330
193D3
100
AcDbEntity
  8
U1
100
AcDbLine
 10
6774.017031986062
 20
5712.665360473252
 30
0.0
 11
6774.017031986062
 21
5721.915360473252
 31
0.0
  0
ARC
  5
198E5
330
193D3
100
AcDbEntity
  8
U1
100
AcDbCircle
 10
6758.017031986064
 20
5721.915360473252
 30
0.0
 40
4.0
100
AcDbArc
 50
90.0
 51
180.0
  0
LINE
  5
198E6
330
193D3
100
AcDbEntity
  8
U1
100
AcDbLine
 10
6758.017031986064
 20
5725.915360473251
 30
0.0
 11
6765.417031986064
 21
5725.915360473251
 31
0.0
  0
ARC
  5
198E7
330
193D3
100
AcDbEntity
  8
U1
100
AcDbCircle
 10
6765.417031986064
 20
5721.915360473252
 30
0.0
 40
4.0
100
AcDbArc
 50
0.0
 51
90.0
  0
LINE
  5
198E8
330
193D3
100
AcDbEntity
  8
U1
100
AcDbLine
 10
6754.017031986062
 20
5669.51536047325
 30
0.0
 11
6754.017031986063
 21
5721.915360473252
 31
0.0
  0
LINE
  5
198E9
330
193D3
100
AcDbEntity
  8
U1
100
AcDbLine
 10
9590.417031986062
 20
5725.915360473251
 30
0.0
 11
9558.017031986063
 21
5725.915360473251
 31
0.0
  0
LINE
  5
198EA
330
193D3
100
AcDbEntity
  8
U1
100
AcDbLine
 10
9558.017031986063
 20
5665.51536047325
 30
0.0
 11
9610.417031986065
 21
5665.51536047325
 31
0.0
  0
ARC
  5
198EB
330
193D3
100
AcDbEntity
  8
U1
100
AcDbCircle
 10
9558.017031986063
 20
5669.51536047325
 30
0.0
 40
4.0
100
AcDbArc
 50
180.0
 51
270.0
  0
ARC
  5
198EC
330
193D3
100
AcDbEntity
  8
U1
100
AcDbCircle
 10
9558.017031986063
 20
5721.915360473252
 30
0.0
 40
4.0
100
AcDbArc
 50
90.0
 51
180.0
  0
LINE
  5
198ED
330
193D3
100
AcDbEntity
  8
U1
100
AcDbLine
 10
9554.01703198606
 20
5721.915360473252
 30
0.0
 11
9554.01703198606
 21
5669.51536047325
 31
0.0
  0
ARC
  5
198EE
330
193D3
100
AcDbEntity
  8
U1
100
AcDbCircle
 10
9610.417031986065
 20
5669.51536047325
 30
0.0
 40
4.0
100
AcDbArc
 50
270.0
 51
0.0
  0
ARC
  5
198EF
330
193D3
100
AcDbEntity
  8
U1
100
AcDbCircle
 10
9590.417031986062
 20
5721.915360473252
 30
0.0
 40
4.0
100
AcDbArc
 50
0.0
 51
90.0
  0
ARC
  5
198F0
330
193D3
100
AcDbEntity
  8
U1
100
AcDbCircle
 10
9597.867031986066
 20
5712.665360473252
 30
0.0
 40
1.149999999999977
100
AcDbArc
 50
180.0
 51
0.0
  0
LINE
  5
198F1
330
193D3
100
AcDbEntity
  8
U1
100
AcDbLine
 10
9601.317031986063
 20
5720.215360473252
 30
0.0
 11
9601.317031986063
 21
5712.665360473252
 31
0.0
  0
LINE
  5
198F2
330
193D3
100
AcDbEntity
  8
U1
100
AcDbLine
 10
9599.017031986063
 20
5720.215360473252
 30
0.0
 11
9601.317031986063
 21
5720.215360473252
 31
0.0
  0
LINE
  5
198F3
330
193D3
100
AcDbEntity
  8
U1
100
AcDbLine
 10
9596.717031986065
 20
5713.215360473252
 30
0.0
 11
9599.017031986063
 21
5713.215360473252
 31
0.0
  0
ARC
  5
198F4
330
193D3
100
AcDbEntity
  8
U1
100
AcDbCircle
 10
9597.867031986066
 20
5712.665360473252
 30
0.0
 40
3.450000000000044
100
AcDbArc
 50
180.0
 51
0.0
  0
LINE
  5
198F5
330
193D3
100
AcDbEntity
  8
U1
100
AcDbLine
 10
9596.717031986065
 20
5712.665360473252
 30
0.0
 11
9596.717031986065
 21
5721.915360473251
 31
0.0
  0
LINE
  5
198F6
330
193D3
100
AcDbEntity
  8
U1
100
AcDbLine
 10
9599.017031986063
 20
5721.915360473252
 30
0.0
 11
9599.017031986063
 21
5712.665360473252
 31
0.0
  0
LINE
  5
198F7
330
193D3
100
AcDbEntity
  8
U1
100
AcDbLine
 10
9594.417031986065
 20
5712.665360473252
 30
0.0
 11
9594.417031986065
 21
5721.915360473252
 31
0.0
  0
ARC
  5
198F8
330
193D3
100
AcDbEntity
  8
U1
100
AcDbCircle
 10
9610.417031986065
 20
5721.915360473252
 30
0.0
 40
4.0
100
AcDbArc
 50
0.0
 51
90.0
  0
LINE
  5
198F9
330
193D3
100
AcDbEntity
  8
U1
100
AcDbLine
 10
9610.417031986065
 20
5725.915360473251
 30
0.0
 11
9603.017031986063
 21
5725.915360473251
 31
0.0
  0
ARC
  5
198FA
330
193D3
100
AcDbEntity
  8
U1
100
AcDbCircle
 10
9603.017031986063
 20
5721.915360473252
 30
0.0
 40
4.0
100
AcDbArc
 50
90.0
 51
180.0
  0
LINE
  5
198FB
330
193D3
100
AcDbEntity
  8
U1
100
AcDbLine
 10
9614.417031986064
 20
5669.51536047325
 30
0.0
 11
9614.417031986064
 21
5721.915360473252
 31
0.0
  0
LINE
  5
198FC
330
193D3
100
AcDbEntity
  8
U1
100
AcDbLine
 10
6778.017031986063
 20
7525.915360473253
 30
0.0
 11
6810.417031986062
 21
7525.915360473253
 31
0.0
  0
LINE
  5
198FD
330
193D3
100
AcDbEntity
  8
U1
100
AcDbLine
 10
6810.417031986062
 20
7465.515360473251
 30
0.0
 11
6758.017031986064
 21
7465.515360473251
 31
0.0
  0
ARC
  5
198FE
330
193D3
100
AcDbEntity
  8
U1
100
AcDbCircle
 10
6810.417031986062
 20
7469.515360473251
 30
0.0
 40
4.0
100
AcDbArc
 50
270.0
 51
0.0
  0
ARC
  5
198FF
330
193D3
100
AcDbEntity
  8
U1
100
AcDbCircle
 10
6810.417031986062
 20
7521.915360473252
 30
0.0
 40
4.0
100
AcDbArc
 50
0.0
 51
90.0
  0
LINE
  5
19900
330
193D3
100
AcDbEntity
  8
U1
100
AcDbLine
 10
6814.417031986065
 20
7521.915360473252
 30
0.0
 11
6814.417031986065
 21
7469.515360473251
 31
0.0
  0
ARC
  5
19901
330
193D3
100
AcDbEntity
  8
U1
100
AcDbCircle
 10
6758.017031986064
 20
7469.515360473251
 30
0.0
 40
4.0
100
AcDbArc
 50
180.0
 51
270.0
  0
ARC
  5
19902
330
193D3
100
AcDbEntity
  8
U1
100
AcDbCircle
 10
6778.017031986063
 20
7521.915360473252
 30
0.0
 40
4.0
100
AcDbArc
 50
90.0
 51
180.0
  0
ARC
  5
19903
330
193D3
100
AcDbEntity
  8
U1
100
AcDbCircle
 10
6770.567031986063
 20
7512.665360473251
 30
0.0
 40
1.149999999999977
100
AcDbArc
 50
180.0
 51
0.0
  0
LINE
  5
19904
330
193D3
100
AcDbEntity
  8
U1
100
AcDbLine
 10
6767.117031986065
 20
7520.215360473251
 30
0.0
 11
6767.117031986065
 21
7512.665360473251
 31
0.0
  0
LINE
  5
19905
330
193D3
100
AcDbEntity
  8
U1
100
AcDbLine
 10
6769.417031986063
 20
7520.215360473251
 30
0.0
 11
6767.117031986065
 21
7520.215360473251
 31
0.0
  0
LINE
  5
19906
330
193D3
100
AcDbEntity
  8
U1
100
AcDbLine
 10
6771.717031986064
 20
7513.215360473251
 30
0.0
 11
6769.417031986063
 21
7513.215360473251
 31
0.0
  0
ARC
  5
19907
330
193D3
100
AcDbEntity
  8
U1
100
AcDbCircle
 10
6770.567031986063
 20
7512.665360473251
 30
0.0
 40
3.450000000000044
100
AcDbArc
 50
180.0
 51
0.0
  0
LINE
  5
19908
330
193D3
100
AcDbEntity
  8
U1
100
AcDbLine
 10
6771.717031986064
 20
7512.665360473251
 30
0.0
 11
6771.717031986064
 21
7521.915360473251
 31
0.0
  0
LINE
  5
19909
330
193D3
100
AcDbEntity
  8
U1
100
AcDbLine
 10
6769.417031986063
 20
7521.915360473252
 30
0.0
 11
6769.417031986063
 21
7512.665360473251
 31
0.0
  0
LINE
  5
1990A
330
193D3
100
AcDbEntity
  8
U1
100
AcDbLine
 10
6774.017031986062
 20
7512.665360473251
 30
0.0
 11
6774.017031986062
 21
7521.915360473252
 31
0.0
  0
ARC
  5
1990B
330
193D3
100
AcDbEntity
  8
U1
100
AcDbCircle
 10
6758.017031986064
 20
7521.915360473252
 30
0.0
 40
4.0
100
AcDbArc
 50
90.0
 51
180.0
  0
LINE
  5
1990C
330
193D3
100
AcDbEntity
  8
U1
100
AcDbLine
 10
6758.017031986064
 20
7525.915360473253
 30
0.0
 11
6765.417031986064
 21
7525.915360473253
 31
0.0
  0
ARC
  5
1990D
330
193D3
100
AcDbEntity
  8
U1
100
AcDbCircle
 10
6765.417031986064
 20
7521.915360473252
 30
0.0
 40
4.0
100
AcDbArc
 50
0.0
 51
90.0
  0
LINE
  5
1990E
330
193D3
100
AcDbEntity
  8
U1
100
AcDbLine
 10
6754.017031986062
 20
7469.515360473251
 30
0.0
 11
6754.017031986063
 21
7521.915360473252
 31
0.0
  0
LINE
  5
1990F
330
193D3
100
AcDbEntity
  8
U1
100
AcDbLine
 10
9590.417031986062
 20
7525.915360473253
 30
0.0
 11
9558.017031986063
 21
7525.915360473253
 31
0.0
  0
LINE
  5
19910
330
193D3
100
AcDbEntity
  8
U1
100
AcDbLine
 10
9558.017031986063
 20
7465.515360473251
 30
0.0
 11
9610.417031986065
 21
7465.515360473251
 31
0.0
  0
ARC
  5
19911
330
193D3
100
AcDbEntity
  8
U1
100
AcDbCircle
 10
9558.017031986063
 20
7469.515360473251
 30
0.0
 40
4.0
100
AcDbArc
 50
180.0
 51
270.0
  0
ARC
  5
19912
330
193D3
100
AcDbEntity
  8
U1
100
AcDbCircle
 10
9558.017031986063
 20
7521.915360473252
 30
0.0
 40
4.0
100
AcDbArc
 50
90.0
 51
180.0
  0
LINE
  5
19913
330
193D3
100
AcDbEntity
  8
U1
100
AcDbLine
 10
9554.01703198606
 20
7521.915360473252
 30
0.0
 11
9554.01703198606
 21
7469.515360473251
 31
0.0
  0
ARC
  5
19914
330
193D3
100
AcDbEntity
  8
U1
100
AcDbCircle
 10
9610.417031986065
 20
7469.515360473251
 30
0.0
 40
4.0
100
AcDbArc
 50
270.0
 51
0.0
  0
ARC
  5
19915
330
193D3
100
AcDbEntity
  8
U1
100
AcDbCircle
 10
9590.417031986062
 20
7521.915360473252
 30
0.0
 40
4.0
100
AcDbArc
 50
0.0
 51
90.0
  0
ARC
  5
19916
330
193D3
100
AcDbEntity
  8
U1
100
AcDbCircle
 10
9597.867031986066
 20
7512.665360473251
 30
0.0
 40
1.149999999999977
100
AcDbArc
 50
180.0
 51
0.0
  0
LINE
  5
19917
330
193D3
100
AcDbEntity
  8
U1
100
AcDbLine
 10
9601.317031986063
 20
7520.215360473251
 30
0.0
 11
9601.317031986063
 21
7512.665360473251
 31
0.0
  0
LINE
  5
19918
330
193D3
100
AcDbEntity
  8
U1
100
AcDbLine
 10
9599.017031986063
 20
7520.215360473251
 30
0.0
 11
9601.317031986063
 21
7520.215360473251
 31
0.0
  0
LINE
  5
19919
330
193D3
100
AcDbEntity
  8
U1
100
AcDbLine
 10
9596.717031986065
 20
7513.215360473251
 30
0.0
 11
9599.017031986063
 21
7513.215360473251
 31
0.0
  0
ARC
  5
1991A
330
193D3
100
AcDbEntity
  8
U1
100
AcDbCircle
 10
9597.867031986066
 20
7512.665360473251
 30
0.0
 40
3.450000000000044
100
AcDbArc
 50
180.0
 51
0.0
  0
LINE
  5
1991B
330
193D3
100
AcDbEntity
  8
U1
100
AcDbLine
 10
9596.717031986065
 20
7512.665360473251
 30
0.0
 11
9596.717031986065
 21
7521.915360473251
 31
0.0
  0
LINE
  5
1991C
330
193D3
100
AcDbEntity
  8
U1
100
AcDbLine
 10
9599.017031986063
 20
7521.915360473252
 30
0.0
 11
9599.017031986063
 21
7512.665360473251
 31
0.0
  0
LINE
  5
1991D
330
193D3
100
AcDbEntity
  8
U1
100
AcDbLine
 10
9594.417031986065
 20
7512.665360473251
 30
0.0
 11
9594.417031986065
 21
7521.915360473252
 31
0.0
  0
ARC
  5
1991E
330
193D3
100
AcDbEntity
  8
U1
100
AcDbCircle
 10
9610.417031986065
 20
7521.915360473252
 30
0.0
 40
4.0
100
AcDbArc
 50
0.0
 51
90.0
  0
LINE
  5
1991F
330
193D3
100
AcDbEntity
  8
U1
100
AcDbLine
 10
9610.417031986065
 20
7525.915360473253
 30
0.0
 11
9603.017031986063
 21
7525.915360473253
 31
0.0
  0
ARC
  5
19920
330
193D3
100
AcDbEntity
  8
U1
100
AcDbCircle
 10
9603.017031986063
 20
7521.915360473252
 30
0.0
 40
4.0
100
AcDbArc
 50
90.0
 51
180.0
  0
LINE
  5
19921
330
193D3
100
AcDbEntity
  8
U1
100
AcDbLine
 10
9614.417031986064
 20
7469.515360473251
 30
0.0
 11
9614.417031986064
 21
7521.915360473252
 31
0.0
  0
LINE
  5
19922
330
193D3
100
AcDbEntity
  8
KISO
100
AcDbLine
 10
8550.758701212577
 20
1876.183932023014
 30
0.0
 11
8550.758701212577
 21
1876.183932023016
 31
0.0
  0
LINE
  5
19923
330
193D3
100
AcDbEntity
  8
KISO
100
AcDbLine
 10
8550.758701212577
 20
1876.183932023016
 30
0.0
 11
6950.758701212581
 21
1876.183932023016
 31
0.0
  0
LINE
  5
19924
330
193D3
100
AcDbEntity
  8
TEKKIN
100
AcDbLine
 10
7698.75870121258
 20
1980.183932023016
 30
0.0
 11
7470.758701212581
 21
1980.183932023016
 31
0.0
  0
LINE
  5
19925
330
193D3
100
AcDbEntity
  8
TEKKIN
100
AcDbLine
 10
7470.758701212581
 20
1980.183932023016
 30
0.0
 11
7470.758701212581
 21
1964.183932023016
 31
0.0
  0
LINE
  5
19926
330
193D3
100
AcDbEntity
  8
TEKKIN
100
AcDbLine
 10
7470.758701212581
 20
1964.183932023016
 30
0.0
 11
7698.75870121258
 21
1964.183932023016
 31
0.0
  0
LINE
  5
19927
330
193D3
100
AcDbEntity
  8
TEKKIN
100
AcDbLine
 10
7802.758701212581
 20
1964.183932023016
 30
0.0
 11
8030.758701212581
 21
1964.183932023016
 31
0.0
  0
LINE
  5
19928
330
193D3
100
AcDbEntity
  8
TEKKIN
100
AcDbLine
 10
8030.758701212581
 20
1964.183932023016
 30
0.0
 11
8030.758701212581
 21
1980.183932023016
 31
0.0
  0
LINE
  5
19929
330
193D3
100
AcDbEntity
  8
TEKKIN
100
AcDbLine
 10
8030.758701212581
 20
1980.183932023016
 30
0.0
 11
7802.758701212581
 21
1980.183932023016
 31
0.0
  0
LINE
  5
1992A
330
193D3
100
AcDbEntity
  8
KISO
100
AcDbLine
 10
4344.333914666385
 20
1876.183932023018
 30
0.0
 11
4344.333914666385
 21
1876.183932023018
 31
0.0
  0
LINE
  5
1992B
330
193D3
100
AcDbEntity
  8
KISO
100
AcDbLine
 10
4344.333914666385
 20
1876.183932023018
 30
0.0
 11
3064.333914666386
 21
1876.183932023019
 31
0.0
  0
LINE
  5
1992C
330
193D3
100
AcDbEntity
  8
TEKKIN
100
AcDbLine
 10
3652.333914666386
 20
1980.183932023019
 30
0.0
 11
3424.333914666386
 21
1980.183932023019
 31
0.0
  0
LINE
  5
1992D
330
193D3
100
AcDbEntity
  8
TEKKIN
100
AcDbLine
 10
3424.333914666386
 20
1980.183932023019
 30
0.0
 11
3424.333914666386
 21
1964.183932023018
 31
0.0
  0
LINE
  5
1992E
330
193D3
100
AcDbEntity
  8
TEKKIN
100
AcDbLine
 10
3424.333914666386
 20
1964.183932023018
 30
0.0
 11
3652.333914666386
 21
1964.183932023018
 31
0.0
  0
LINE
  5
1992F
330
193D3
100
AcDbEntity
  8
TEKKIN
100
AcDbLine
 10
3756.333914666386
 20
1964.183932023018
 30
0.0
 11
3984.333914666386
 21
1964.183932023018
 31
0.0
  0
LINE
  5
19930
330
193D3
100
AcDbEntity
  8
TEKKIN
100
AcDbLine
 10
3984.333914666386
 20
1964.183932023018
 30
0.0
 11
3984.333914666386
 21
1980.183932023019
 31
0.0
  0
LINE
  5
19931
330
193D3
100
AcDbEntity
  8
TEKKIN
100
AcDbLine
 10
3984.333914666386
 20
1980.183932023019
 30
0.0
 11
3756.333914666386
 21
1980.183932023019
 31
0.0
  0
ARC
  5
19932
330
193D3
100
AcDbEntity
  8
U1
100
AcDbCircle
 10
9610.417031986063
 20
9269.515360473251
 30
0.0
 40
6.300000000001091
100
AcDbArc
 50
270.0
 51
0.0
  0
LINE
  5
19933
330
193D3
100
AcDbEntity
  8
U1
100
AcDbLine
 10
9610.417031986063
 20
9263.215360473251
 30
0.0
 11
9603.017031986063
 21
9263.215360473251
 31
0.0
  0
ARC
  5
19934
330
193D3
100
AcDbEntity
  8
U1
100
AcDbCircle
 10
9603.017031986063
 20
9269.515360473251
 30
0.0
 40
6.299999999999272
100
AcDbArc
 50
180.0
 51
270.0
  0
ARC
  5
19935
330
193D3
100
AcDbEntity
  8
U1
100
AcDbCircle
 10
9590.417031986062
 20
9269.515360473251
 30
0.0
 40
6.300000000001091
100
AcDbArc
 50
270.0
 51
359.9999999999833
  0
LINE
  5
19936
330
193D3
100
AcDbEntity
  8
U1
100
AcDbLine
 10
9590.417031986062
 20
9263.215360473251
 30
0.0
 11
9558.017031986063
 21
9263.215360473251
 31
0.0
  0
ARC
  5
19937
330
193D3
100
AcDbEntity
  8
U1
100
AcDbCircle
 10
9558.017031986063
 20
9269.515360473251
 30
0.0
 40
6.300000000001091
100
AcDbArc
 50
180.0
 51
270.0
  0
LINE
  5
19938
330
193D3
100
AcDbEntity
  8
U1
100
AcDbLine
 10
9551.717031986065
 20
9269.515360473251
 30
0.0
 11
9551.717031986065
 21
9321.915360473253
 31
0.0
  0
ARC
  5
19939
330
193D3
100
AcDbEntity
  8
U1
100
AcDbCircle
 10
9558.017031986064
 20
9321.915360473253
 30
0.0
 40
6.300000000001091
100
AcDbArc
 50
90.0
 51
180.0
  0
LINE
  5
1993A
330
193D3
100
AcDbEntity
  8
U1
100
AcDbLine
 10
9558.017031986064
 20
9328.215360473253
 30
0.0
 11
9610.417031986065
 21
9328.215360473253
 31
0.0
  0
ARC
  5
1993B
330
193D3
100
AcDbEntity
  8
U1
100
AcDbCircle
 10
9610.417031986065
 20
9321.915360473253
 30
0.0
 40
6.299999999999272
100
AcDbArc
 50
0.0
 51
90.0
  0
LINE
  5
1993C
330
193D3
100
AcDbEntity
  8
U1
100
AcDbLine
 10
9616.717031986066
 20
9321.915360473253
 30
0.0
 11
9616.717031986066
 21
9269.515360473251
 31
0.0
  0
ARC
  5
1993D
330
193D3
100
AcDbEntity
  8
U1
100
AcDbCircle
 10
6758.017031986064
 20
9269.515360473251
 30
0.0
 40
6.300000000000181
100
AcDbArc
 50
180.0
 51
270.0
  0
LINE
  5
1993E
330
193D3
100
AcDbEntity
  8
U1
100
AcDbLine
 10
6758.017031986064
 20
9263.215360473251
 30
0.0
 11
6765.417031986064
 21
9263.215360473251
 31
0.0
  0
ARC
  5
1993F
330
193D3
100
AcDbEntity
  8
U1
100
AcDbCircle
 10
6765.417031986064
 20
9269.515360473251
 30
0.0
 40
6.299999999999272
100
AcDbArc
 50
269.9999999999918
 51
0.0
  0
ARC
  5
19940
330
193D3
100
AcDbEntity
  8
U1
100
AcDbCircle
 10
6778.017031986063
 20
9269.515360473251
 30
0.0
 40
6.299999999999272
100
AcDbArc
 50
180.0
 51
270.0000000000081
  0
LINE
  5
19941
330
193D3
100
AcDbEntity
  8
U1
100
AcDbLine
 10
6778.017031986063
 20
9263.215360473251
 30
0.0
 11
6810.417031986062
 21
9263.215360473251
 31
0.0
  0
ARC
  5
19942
330
193D3
100
AcDbEntity
  8
U1
100
AcDbCircle
 10
6810.417031986064
 20
9269.515360473251
 30
0.0
 40
6.299999999999272
100
AcDbArc
 50
269.9999999999918
 51
0.0
  0
LINE
  5
19943
330
193D3
100
AcDbEntity
  8
U1
100
AcDbLine
 10
6816.717031986065
 20
9269.515360473251
 30
0.0
 11
6816.717031986065
 21
9321.915360473253
 31
0.0
  0
ARC
  5
19944
330
193D3
100
AcDbEntity
  8
U1
100
AcDbCircle
 10
6810.417031986064
 20
9321.915360473253
 30
0.0
 40
6.299999999999272
100
AcDbArc
 50
0.0
 51
90.00000000000826
  0
LINE
  5
19945
330
193D3
100
AcDbEntity
  8
U1
100
AcDbLine
 10
6810.417031986062
 20
9328.215360473253
 30
0.0
 11
6758.017031986064
 21
9328.215360473253
 31
0.0
  0
ARC
  5
19946
330
193D3
100
AcDbEntity
  8
U1
100
AcDbCircle
 10
6758.017031986064
 20
9321.915360473253
 30
0.0
 40
6.299999999999272
100
AcDbArc
 50
89.99999999999173
 51
180.0
  0
LINE
  5
19947
330
193D3
100
AcDbEntity
  8
U1
100
AcDbLine
 10
6751.717031986064
 20
9321.915360473253
 30
0.0
 11
6751.717031986064
 21
9269.515360473251
 31
0.0
  0
ARC
  5
19948
330
193D3
100
AcDbEntity
  8
U1
100
AcDbCircle
 10
6758.017031986064
 20
5721.915360473253
 30
0.0
 40
6.299999999999272
100
AcDbArc
 50
89.99999999999173
 51
180.0000000000082
  0
LINE
  5
19949
330
193D3
100
AcDbEntity
  8
U1
100
AcDbLine
 10
6758.017031986064
 20
5728.215360473252
 30
0.0
 11
6765.417031986064
 21
5728.215360473252
 31
0.0
  0
ARC
  5
1994A
330
193D3
100
AcDbEntity
  8
U1
100
AcDbCircle
 10
6765.417031986064
 20
5721.915360473253
 30
0.0
 40
6.299999999999272
100
AcDbArc
 50
359.9999999999917
 51
90.00000000000826
  0
ARC
  5
1994B
330
193D3
100
AcDbEntity
  8
U1
100
AcDbCircle
 10
6778.017031986063
 20
5721.915360473252
 30
0.0
 40
6.300000000000181
100
AcDbArc
 50
90.0
 51
180.0
  0
LINE
  5
1994C
330
193D3
100
AcDbEntity
  8
U1
100
AcDbLine
 10
6778.017031986063
 20
5728.215360473252
 30
0.0
 11
6810.417031986062
 21
5728.215360473252
 31
0.0
  0
ARC
  5
1994D
330
193D3
100
AcDbEntity
  8
U1
100
AcDbCircle
 10
6810.417031986064
 20
5721.915360473253
 30
0.0
 40
6.299999999999272
100
AcDbArc
 50
359.9999999999917
 51
90.00000000000826
  0
LINE
  5
1994E
330
193D3
100
AcDbEntity
  8
U1
100
AcDbLine
 10
6816.717031986065
 20
5721.915360473252
 30
0.0
 11
6816.717031986065
 21
5669.51536047325
 31
0.0
  0
ARC
  5
1994F
330
193D3
100
AcDbEntity
  8
U1
100
AcDbCircle
 10
6810.417031986064
 20
5669.51536047325
 30
0.0
 40
6.299999999999272
100
AcDbArc
 50
269.9999999999918
 51
0.0
  0
LINE
  5
19950
330
193D3
100
AcDbEntity
  8
U1
100
AcDbLine
 10
6810.417031986062
 20
5663.215360473252
 30
0.0
 11
6758.017031986064
 21
5663.215360473252
 31
0.0
  0
ARC
  5
19951
330
193D3
100
AcDbEntity
  8
U1
100
AcDbCircle
 10
6758.017031986064
 20
5669.51536047325
 30
0.0
 40
6.299999999999272
100
AcDbArc
 50
180.0
 51
270.0000000000081
  0
LINE
  5
19952
330
193D3
100
AcDbEntity
  8
U1
100
AcDbLine
 10
6751.717031986064
 20
5669.51536047325
 30
0.0
 11
6751.717031986064
 21
5721.915360473252
 31
0.0
  0
ARC
  5
19953
330
193D3
100
AcDbEntity
  8
U1
100
AcDbCircle
 10
9610.417031986065
 20
5721.915360473253
 30
0.0
 40
6.299999999999272
100
AcDbArc
 50
359.9999999999917
 51
90.0
  0
LINE
  5
19954
330
193D3
100
AcDbEntity
  8
U1
100
AcDbLine
 10
9610.417031986065
 20
5728.215360473252
 30
0.0
 11
9603.017031986063
 21
5728.215360473252
 31
0.0
  0
ARC
  5
19955
330
193D3
100
AcDbEntity
  8
U1
100
AcDbCircle
 10
9603.017031986063
 20
5721.915360473253
 30
0.0
 40
6.299999999999272
100
AcDbArc
 50
90.0
 51
180.0000000000082
  0
ARC
  5
19956
330
193D3
100
AcDbEntity
  8
U1
100
AcDbCircle
 10
9590.417031986062
 20
5721.915360473253
 30
0.0
 40
6.299999999999272
100
AcDbArc
 50
359.9999999999917
 51
90.0
  0
LINE
  5
19957
330
193D3
100
AcDbEntity
  8
U1
100
AcDbLine
 10
9590.417031986062
 20
5728.215360473252
 30
0.0
 11
9558.017031986063
 21
5728.215360473252
 31
0.0
  0
ARC
  5
19958
330
193D3
100
AcDbEntity
  8
U1
100
AcDbCircle
 10
9558.017031986063
 20
5721.915360473253
 30
0.0
 40
6.299999999999272
100
AcDbArc
 50
90.0
 51
180.0000000000082
  0
LINE
  5
19959
330
193D3
100
AcDbEntity
  8
U1
100
AcDbLine
 10
9551.717031986065
 20
5721.915360473252
 30
0.0
 11
9551.717031986065
 21
5669.51536047325
 31
0.0
  0
ARC
  5
1995A
330
193D3
100
AcDbEntity
  8
U1
100
AcDbCircle
 10
9558.017031986063
 20
5669.51536047325
 30
0.0
 40
6.299999999999272
100
AcDbArc
 50
180.0
 51
270.0
  0
LINE
  5
1995B
330
193D3
100
AcDbEntity
  8
U1
100
AcDbLine
 10
9558.017031986063
 20
5663.215360473252
 30
0.0
 11
9610.417031986065
 21
5663.215360473252
 31
0.0
  0
ARC
  5
1995C
330
193D3
100
AcDbEntity
  8
U1
100
AcDbCircle
 10
9610.417031986065
 20
5669.51536047325
 30
0.0
 40
6.299999999999272
100
AcDbArc
 50
270.0
 51
0.0
  0
LINE
  5
1995D
330
193D3
100
AcDbEntity
  8
U1
100
AcDbLine
 10
9616.717031986066
 20
5669.51536047325
 30
0.0
 11
9616.717031986066
 21
5721.915360473252
 31
0.0
  0
ARC
  5
1995E
330
193D3
100
AcDbEntity
  8
U1
100
AcDbCircle
 10
6758.017031986064
 20
7521.915360473252
 30
0.0
 40
6.299999999999272
100
AcDbArc
 50
89.99999999999173
 51
180.0000000000082
  0
LINE
  5
1995F
330
193D3
100
AcDbEntity
  8
U1
100
AcDbLine
 10
6758.017031986064
 20
7528.215360473253
 30
0.0
 11
6765.417031986064
 21
7528.215360473253
 31
0.0
  0
ARC
  5
19960
330
193D3
100
AcDbEntity
  8
U1
100
AcDbCircle
 10
6765.417031986064
 20
7521.915360473252
 30
0.0
 40
6.299999999999272
100
AcDbArc
 50
359.9999999999917
 51
90.00000000000826
  0
ARC
  5
19961
330
193D3
100
AcDbEntity
  8
U1
100
AcDbCircle
 10
6778.017031986063
 20
7521.915360473252
 30
0.0
 40
6.300000000000181
100
AcDbArc
 50
90.0
 51
180.0
  0
LINE
  5
19962
330
193D3
100
AcDbEntity
  8
U1
100
AcDbLine
 10
6778.017031986063
 20
7528.215360473253
 30
0.0
 11
6810.417031986062
 21
7528.215360473253
 31
0.0
  0
ARC
  5
19963
330
193D3
100
AcDbEntity
  8
U1
100
AcDbCircle
 10
6810.417031986064
 20
7521.915360473252
 30
0.0
 40
6.299999999999272
100
AcDbArc
 50
359.9999999999917
 51
90.00000000000826
  0
LINE
  5
19964
330
193D3
100
AcDbEntity
  8
U1
100
AcDbLine
 10
6816.717031986065
 20
7521.915360473252
 30
0.0
 11
6816.717031986065
 21
7469.515360473251
 31
0.0
  0
ARC
  5
19965
330
193D3
100
AcDbEntity
  8
U1
100
AcDbCircle
 10
6810.417031986064
 20
7469.515360473251
 30
0.0
 40
6.299999999999272
100
AcDbArc
 50
269.9999999999918
 51
0.0
  0
LINE
  5
19966
330
193D3
100
AcDbEntity
  8
U1
100
AcDbLine
 10
6810.417031986062
 20
7463.215360473251
 30
0.0
 11
6758.017031986064
 21
7463.215360473251
 31
0.0
  0
ARC
  5
19967
330
193D3
100
AcDbEntity
  8
U1
100
AcDbCircle
 10
6758.017031986064
 20
7469.515360473251
 30
0.0
 40
6.299999999999272
100
AcDbArc
 50
180.0
 51
270.0000000000081
  0
LINE
  5
19968
330
193D3
100
AcDbEntity
  8
U1
100
AcDbLine
 10
6751.717031986064
 20
7469.515360473251
 30
0.0
 11
6751.717031986064
 21
7521.915360473252
 31
0.0
  0
ARC
  5
19969
330
193D3
100
AcDbEntity
  8
U1
100
AcDbCircle
 10
9610.417031986065
 20
7521.915360473252
 30
0.0
 40
6.299999999999272
100
AcDbArc
 50
359.9999999999917
 51
90.0
  0
LINE
  5
1996A
330
193D3
100
AcDbEntity
  8
U1
100
AcDbLine
 10
9610.417031986065
 20
7528.215360473253
 30
0.0
 11
9603.017031986063
 21
7528.215360473253
 31
0.0
  0
ARC
  5
1996B
330
193D3
100
AcDbEntity
  8
U1
100
AcDbCircle
 10
9603.017031986063
 20
7521.915360473252
 30
0.0
 40
6.299999999999272
100
AcDbArc
 50
90.0
 51
180.0000000000082
  0
ARC
  5
1996C
330
193D3
100
AcDbEntity
  8
U1
100
AcDbCircle
 10
9590.417031986062
 20
7521.915360473252
 30
0.0
 40
6.299999999999272
100
AcDbArc
 50
359.9999999999917
 51
90.0
  0
LINE
  5
1996D
330
193D3
100
AcDbEntity
  8
U1
100
AcDbLine
 10
9590.417031986062
 20
7528.215360473253
 30
0.0
 11
9558.017031986063
 21
7528.215360473253
 31
0.0
  0
ARC
  5
1996E
330
193D3
100
AcDbEntity
  8
U1
100
AcDbCircle
 10
9558.017031986063
 20
7521.915360473252
 30
0.0
 40
6.299999999999272
100
AcDbArc
 50
90.0
 51
180.0000000000082
  0
LINE
  5
1996F
330
193D3
100
AcDbEntity
  8
U1
100
AcDbLine
 10
9551.717031986065
 20
7521.915360473252
 30
0.0
 11
9551.717031986065
 21
7469.515360473251
 31
0.0
  0
ARC
  5
19970
330
193D3
100
AcDbEntity
  8
U1
100
AcDbCircle
 10
9558.017031986063
 20
7469.515360473251
 30
0.0
 40
6.299999999999272
100
AcDbArc
 50
180.0
 51
270.0
  0
LINE
  5
19971
330
193D3
100
AcDbEntity
  8
U1
100
AcDbLine
 10
9558.017031986063
 20
7463.215360473251
 30
0.0
 11
9610.417031986065
 21
7463.215360473251
 31
0.0
  0
ARC
  5
19972
330
193D3
100
AcDbEntity
  8
U1
100
AcDbCircle
 10
9610.417031986065
 20
7469.515360473251
 30
0.0
 40
6.299999999999272
100
AcDbArc
 50
270.0
 51
0.0
  0
LINE
  5
19973
330
193D3
100
AcDbEntity
  8
U1
100
AcDbLine
 10
9616.717031986066
 20
7469.515360473251
 30
0.0
 11
9616.717031986066
 21
7521.915360473252
 31
0.0
  0
TEXT
  5
19995
330
193D3
100
AcDbEntity
  8
SUNPOU
100
AcDbText
 10
1653.104271717215
 20
3793.800113046678
 30
0.0
 40
90.0
  1
その他現地の実情にあわせて設計して下さい。
  7
01
100
AcDbText
  0
TEXT
  5
19996
330
193D3
100
AcDbEntity
  8
SUNPOU
100
AcDbText
 10
1653.104271717215
 20
4102.371541618105
 30
0.0
 40
90.0
  1
寒冷地の場合、凍結深度等を考慮し、実情に
  7
01
100
AcDbText
  0
TEXT
  5
19997
330
193D3
100
AcDbEntity
  8
SUNPOU
100
AcDbText
 10
1344.118048825326
 20
4445.910055288342
 30
0.0
 40
89.9993750043402
  1
地耐力   　　　 以上,コンクリート設計基準強度　　　　　以上
  7
01
100
AcDbText
  0
TEXT
  5
19998
330
193D3
100
AcDbEntity
  8
SUNPOU
100
AcDbText
 10
1446.89852662782
 20
3793.800113046678
 30
0.0
 40
90.0
  1
2
 41
0.6700000000000001
  7
01
100
AcDbText
  0
TEXT
  5
19999
330
193D3
100
AcDbEntity
  8
SUNPOU
100
AcDbText
 10
1336.264606415082
 20
3793.800113046678
 30
0.0
 40
90.0
  1
注　）
  7
01
100
AcDbText
  0
TEXT
  5
1999A
330
193D3
100
AcDbEntity
  8
SUNPOU
100
AcDbText
 10
1827.881477490489
 20
4291.624341002626
 30
0.0
 40
89.9993750043402
  1
34 m/s
 41
0.6700000000000001
  7
01
100
AcDbText
  0
TEXT
  5
1999B
330
193D3
100
AcDbEntity
  8
SUNPOU
100
AcDbText
 10
1653.104271717215
 20
3948.085827332386
 30
0.0
 40
90.0
  1
あわせて設計して下さい。
  7
01
100
AcDbText
  0
TEXT
  5
1999C
330
193D3
100
AcDbEntity
  8
SUNPOU
100
AcDbText
 10
1344.118048825326
 20
4291.624341002626
 30
0.0
 40
89.9993750043402
  1
基準風速   　　 , 地表面粗度区分
  7
01
100
AcDbText
  0
TEXT
  5
1999D
330
193D3
100
AcDbEntity
  8
SUNPOU
100
AcDbText
 10
1213.554420109095
 20
4635.164057734297
 30
0.0
 40
90.0
  1
<下記条件での参考図>
  7
01
 72
     4
 11
1802.411562966238
 21
4680.164057734297
 31
0.0
100
AcDbText
  0
TEXT
  5
1999E
330
193D3
100
AcDbEntity
  8
SUNPOU
100
AcDbText
 10
1338.911562966238
 20
4792.664057734295
 30
0.0
 40
120.0
  1
基礎断面図
  7
01
 72
     4
 11
1678.911562966238
 21
4852.664057734296
 31
0.0
100
AcDbText
  0
TEXT
  5
1999F
330
193D3
100
AcDbEntity
  8
SUNPOU
100
AcDbText
 10
1718.3764562504
 20
4445.910055288342
 30
0.0
 40
89.9993750043402
  1
50  N/m
 41
0.6700000000000001
  7
01
100
AcDbText
  0
TEXT
  5
199A0
330
193D3
100
AcDbEntity
  8
SUNPOU
100
AcDbText
 10
1336.264606415082
 20
4102.371541618105
 30
0.0
 40
90.0
  1
注　）
  7
01
100
AcDbText
  0
ARC
  5
199A1
330
193D3
100
AcDbEntity
  8
SUNPOU
100
AcDbCircle
 10
1497.076322732525
 20
4409.697478730173
 30
0.0
 40
225.0
100
AcDbArc
 50
148.3472725282829
 51
211.652727471717
  0
TEXT
  5
199A2
330
193D3
100
AcDbEntity
  8
SUNPOU
100
AcDbText
 10
1446.89852662782
 20
4102.371541618105
 30
0.0
 40
90.0
  1
1
 41
0.6700000000000001
  7
01
100
AcDbText
  0
TEXT
  5
199A3
330
193D3
100
AcDbEntity
  8
SUNPOU
100
AcDbText
 10
1854.212909036349
 20
4445.910055288342
 30
0.0
 40
71.99950000347218
  1
K
 41
0.6700000000000001
  7
01
100
AcDbText
  0
TEXT
  5
199A4
330
193D3
100
AcDbEntity
  8
SUNPOU
100
AcDbText
 10
2121.853065764749
 20
4496.098481645827
 30
0.0
 40
46.28539285937498
  1
2
 41
0.6700000000000001
  7
00
100
AcDbText
  0
LINE
  5
199A5
330
193D3
100
AcDbEntity
  8
SUNPOU
100
AcDbLine
 10
3135.933610391926
 20
4291.624341002626
 30
0.0
 11
3192.183610391928
 21
4291.624341002626
 31
0.0
  0
LINE
  5
199A6
330
193D3
100
AcDbEntity
  8
SUNPOU
100
AcDbLine
 10
3135.933610391926
 20
4375.116704701408
 30
0.0
 11
3192.183610391928
 21
4375.116704701408
 31
0.0
  0
LINE
  5
199A7
330
193D3
100
AcDbEntity
  8
SUNPOU
100
AcDbLine
 10
3164.058610391928
 20
4291.624341002626
 30
0.0
 11
3164.058610391928
 21
4375.116704701408
 31
0.0
  0
LINE
  5
199A8
330
193D3
100
AcDbEntity
  8
SUNPOU
100
AcDbLine
 10
3147.183610391928
 20
4291.624341002626
 30
0.0
 11
3147.183610391928
 21
4375.116704701408
 31
0.0
  0
LINE
  5
199A9
330
193D3
100
AcDbEntity
  8
SUNPOU
100
AcDbLine
 10
3180.933610391929
 20
4291.624341002626
 30
0.0
 11
3180.933610391929
 21
4375.116704701408
 31
0.0
  0
TEXT
  5
199AA
330
193D3
100
AcDbEntity
  8
SUNPOU
100
AcDbText
 10
2055.761900329208
 20
4804.97175004199
 30
0.0
 40
92.30769230769228
  1
（ S = 　　  ）
 41
0.6700000000000001
  7
00
 11
2055.761900329208
 21
4792.664057734298
 31
0.0
100
AcDbText
 73
     1
  0
TEXT
  5
199AB
330
193D3
100
AcDbEntity
  8
SUNPOU
100
AcDbText
 10
2487.820172452029
 20
4784.048673118912
 30
0.0
 40
73.84615384615384
  1
25
 41
0.6700000000000001
  7
00
 11
2487.820172452029
 21
4774.202519272758
 31
0.0
100
AcDbText
 73
     1
  0
TEXT
  5
199AC
330
193D3
100
AcDbEntity
  8
SUNPOU
100
AcDbText
 10
2375.464602182278
 20
4820.971750041992
 30
0.0
 40
73.84615384615384
  1
1
 41
0.6700000000000001
  7
00
 11
2375.464602182278
 21
4811.125596195838
 31
0.0
100
AcDbText
 73
     1
  0
TEXT
  5
199AD
330
193D3
100
AcDbEntity
  8
SUNPOU
100
AcDbText
 10
2423.870729497649
 20
4802.510211580452
 30
0.0
 40
73.84615384615384
  1
/
 41
0.6700000000000001
  7
00
 11
2423.870729497649
 21
4792.664057734298
 31
0.0
100
AcDbText
 73
     1
  0
TEXT
  5
199AE
330
193D3
100
AcDbEntity
  8
SUNPOU
100
AcDbText
 10
3898.964979897987
 20
4445.910055288342
 30
0.0
 40
89.9993750043402
  1
N/mm
 41
0.6700000000000001
  7
01
100
AcDbText
  0
TEXT
  5
199AF
330
193D3
100
AcDbEntity
  8
SUNPOU
100
AcDbText
 10
3763.128527112038
 20
4445.910055288342
 30
0.0
 40
89.9993750043402
  1
18
 41
0.6700000000000001
  7
01
100
AcDbText
  0
TEXT
  5
199B0
330
193D3
100
AcDbEntity
  8
SUNPOU
100
AcDbText
 10
4203.429461929391
 20
4496.098481645827
 30
0.0
 40
46.28539285937498
  1
2
 41
0.6700000000000001
  7
00
100
AcDbText
  0
ARC
  5
199B1
330
193D3
100
AcDbEntity
  8
SUNPOU
100
AcDbCircle
 10
4352.306726463007
 20
4432.181759515962
 30
0.0
 40
225.0
100
AcDbArc
 50
328.3472725282829
 51
31.65272747171703
  0
ENDSEC
  0
SECTION
  2
OBJECTS
  0
DICTIONARY
  5
193C1
330
0
100
AcDbDictionary
281
     1
  3
ACAD_GROUP
350
193C2
  3
ACAD_LAYOUT
350
193CE
  3
ACAD_MLINESTYLE
350
193CB
  3
ACAD_PLOTSETTINGS
350
193CD
  3
ACAD_PLOTSTYLENAME
350
193C3
  3
AcDbVariableDictionary
350
199B2
  0
DICTIONARY
  5
193C2
102
{ACAD_REACTORS
330
193C1
102
}
330
193C1
100
AcDbDictionary
281
     1
  0
DICTIONARY
  5
193CE
102
{ACAD_REACTORS
330
193C1
102
}
330
193C1
100
AcDbDictionary
281
     1
  3
Model
350
193D6
  3
ﾚｲｱｳﾄ1
350
193D2
  0
DICTIONARY
  5
193CB
102
{ACAD_REACTORS
330
193C1
102
}
330
193C1
100
AcDbDictionary
281
     1
  3
Standard
350
193CC
  0
DICTIONARY
  5
193CD
102
{ACAD_REACTORS
330
193C1
102
}
330
193C1
100
AcDbDictionary
281
     1
  0
ACDBDICTIONARYWDFLT
  5
193C3
102
{ACAD_REACTORS
330
193C1
102
}
330
193C1
100
AcDbDictionary
281
     1
  3
Normal
350
193C4
100
AcDbDictionaryWithDefault
340
193C4
  0
DICTIONARY
  5
199B2
102
{ACAD_REACTORS
330
193C1
102
}
330
193C1
100
AcDbDictionary
281
     1
  3
DIMASSOC
350
199B3
  0
LAYOUT
  5
193D6
102
{ACAD_REACTORS
330
193CE
102
}
330
193CE
100
AcDbPlotSettings
  1

  2
Muratec V-1200 Is@Web Printer
  4

  6

 40
0.0
 41
0.0
 42
0.0
 43
0.0
 44
0.0
 45
0.0
 46
0.0
 47
0.0
 48
0.0
 49
0.0
140
0.0
141
0.0
142
1.0
143
1.0
 70
  1712
 72
     0
 73
     0
 74
     0
  7

 75
     0
147
1.0
148
0.0
149
0.0
100
AcDbLayout
  1
Model
 70
     1
 71
     0
 10
0.0
 20
0.0
 11
12.0
 21
9.0
 12
0.0
 22
0.0
 32
0.0
 14
0.0
 24
0.0
 34
0.0
 15
0.0
 25
0.0
 35
0.0
146
0.0
 13
0.0
 23
0.0
 33
0.0
 16
1.0
 26
0.0
 36
0.0
 17
0.0
 27
1.0
 37
0.0
 76
     0
330
193D3
  0
LAYOUT
  5
193D2
102
{ACAD_REACTORS
330
193CE
102
}
330
193CE
100
AcDbPlotSettings
  1

  2
Muratec V-1200 Is@Web Printer
  4

  6

 40
0.0
 41
0.0
 42
0.0
 43
0.0
 44
0.0
 45
0.0
 46
0.0
 47
0.0
 48
0.0
 49
0.0
140
0.0
141
0.0
142
1.0
143
1.0
 70
   688
 72
     0
 73
     0
 74
     5
  7

 75
    16
147
1.0
148
0.0
149
0.0
100
AcDbLayout
  1
ﾚｲｱｳﾄ1
 70
     0
 71
     1
 10
0.0
 20
0.0
 11
12.0
 21
9.0
 12
0.0
 22
0.0
 32
0.0
 14
1.000000000000000E+20
 24
1.000000000000000E+20
 34
1.000000000000000E+20
 15
-1.000000000000000E+20
 25
-1.000000000000000E+20
 35
-1.000000000000000E+20
146
0.0
 13
0.0
 23
0.0
 33
0.0
 16
1.0
 26
0.0
 36
0.0
 17
0.0
 27
1.0
 37
0.0
 76
     0
330
193CF
  0
MLINESTYLE
  5
193CC
102
{ACAD_REACTORS
330
193CB
102
}
330
193CB
100
AcDbMlineStyle
  2
STANDARD
 70
     0
  3

 62
   256
 51
90.0
 52
90.0
 71
     2
 49
0.5
 62
   256
  6
BYLAYER
 49
-0.5
 62
   256
  6
BYLAYER
  0
ACDBPLACEHOLDER
  5
193C4
102
{ACAD_REACTORS
330
193C3
102
}
330
193C3
  0
DICTIONARYVAR
  5
199B3
102
{ACAD_REACTORS
330
199B2
102
}
330
199B2
100
DictionaryVariables
280
     0
  1
1
  0
ENDSEC
  0
EOF
