  0
SECTION
  2
HEADER
  9
$ACADVER
  1
AC1015
  9
$ACADMAINTVER
 70
    13
  9
$DWGCODEPAGE
  3
ANSI_932
  9
$INSBASE
 10
267.0
 20
194.8999999999998
 30
0.0
  9
$EXTMIN
 10
433.9966216520333
 20
163.6908237492789
 30
-0.000000000000013
  9
$EXTMAX
 10
16382.6660542547
 20
11242.27663824599
 30
0.0000000000000023
  9
$LIMMIN
 10
0.0
 20
0.0
  9
$LIMMAX
 10
16800.0
 20
11880.0
  9
$ORTHOMODE
 70
     0
  9
$REGENMODE
 70
     1
  9
$FILLMODE
 70
     1
  9
$QTEXTMODE
 70
     0
  9
$MIRRTEXT
 70
     0
  9
$LTSCALE
 40
40.0
  9
$ATTMODE
 70
     1
  9
$TEXTSIZE
 40
0.2
  9
$TRACEWID
 40
0.05
  9
$TEXTSTYLE
  7
00
  9
$CLAYER
  8
SUNPOU
  9
$CELTYPE
  6
ByLayer
  9
$CECOLOR
 62
   256
  9
$CELTSCALE
 40
1.0
  9
$DISPSILH
 70
     0
  9
$DIMSCALE
 40
30.0
  9
$DIMASZ
 40
0.5
  9
$DIMEXO
 40
1.0
  9
$DIMDLI
 40
7.0
  9
$DIMRND
 40
0.0
  9
$DIMDLE
 40
3.0
  9
$DIMEXE
 40
1.5
  9
$DIMTP
 40
0.0
  9
$DIMTM
 40
0.0
  9
$DIMTXT
 40
3.0
  9
$DIMCEN
 40
0.0
  9
$DIMTSZ
 40
0.0
  9
$DIMTOL
 70
     0
  9
$DIMLIM
 70
     0
  9
$DIMTIH
 70
     0
  9
$DIMTOH
 70
     0
  9
$DIMSE1
 70
     0
  9
$DIMSE2
 70
     0
  9
$DIMTAD
 70
     1
  9
$DIMZIN
 70
     8
  9
$DIMBLK
  1
DOT
  9
$DIMASO
 70
     1
  9
$DIMSHO
 70
     0
  9
$DIMPOST
  1

  9
$DIMAPOST
  1

  9
$DIMALT
 70
     0
  9
$DIMALTD
 70
     2
  9
$DIMALTF
 40
25.4
  9
$DIMLFAC
 40
1.0
  9
$DIMTOFL
 70
     1
  9
$DIMTVP
 40
0.0
  9
$DIMTIX
 70
     0
  9
$DIMSOXD
 70
     0
  9
$DIMSAH
 70
     1
  9
$DIMBLK1
  1
DOT
  9
$DIMBLK2
  1
DOT
  9
$DIMSTYLE
  2
SUNPOU_図面名
  9
$DIMCLRD
 70
   256
  9
$DIMCLRE
 70
   256
  9
$DIMCLRT
 70
   256
  9
$DIMTFAC
 40
1.0
  9
$DIMGAP
 40
1.5
  9
$DIMJUST
 70
     0
  9
$DIMSD1
 70
     0
  9
$DIMSD2
 70
     0
  9
$DIMTOLJ
 70
     1
  9
$DIMTZIN
 70
     0
  9
$DIMALTZ
 70
     0
  9
$DIMALTTZ
 70
     0
  9
$DIMUPT
 70
     0
  9
$DIMDEC
 70
     4
  9
$DIMTDEC
 70
     4
  9
$DIMALTU
 70
     2
  9
$DIMALTTD
 70
     2
  9
$DIMTXSTY
  7
STANDARD
  9
$DIMAUNIT
 70
     0
  9
$DIMADEC
 70
     0
  9
$DIMALTRND
 40
0.0
  9
$DIMAZIN
 70
     0
  9
$DIMDSEP
 70
    46
  9
$DIMATFIT
 70
     3
  9
$DIMFRAC
 70
     0
  9
$DIMLDRBLK
  1
DOT
  9
$DIMLUNIT
 70
     2
  9
$DIMLWD
 70
    -2
  9
$DIMLWE
 70
    -2
  9
$DIMTMOVE
 70
     0
  9
$LUNITS
 70
     2
  9
$LUPREC
 70
     2
  9
$SKETCHINC
 40
0.1
  9
$FILLETRAD
 40
0.0
  9
$AUNITS
 70
     0
  9
$AUPREC
 70
     0
  9
$MENU
  1
A:\TIGER\MENU\TIGER
  9
$ELEVATION
 40
0.0
  9
$PELEVATION
 40
0.0
  9
$THICKNESS
 40
0.0
  9
$LIMCHECK
 70
     0
  9
$CHAMFERA
 40
0.0
  9
$CHAMFERB
 40
0.0
  9
$CHAMFERC
 40
0.0
  9
$CHAMFERD
 40
0.0
  9
$SKPOLY
 70
     0
  9
$TDCREATE
 40
2450266.571064815
  9
$TDUCREATE
 40
2450266.196064815
  9
$TDUPDATE
 40
2456332.383361898
  9
$TDUUPDATE
 40
2456332.008361898
  9
$TDINDWG
 40
0.1824343287
  9
$TDUSRTIMER
 40
0.1824343287
  9
$USRTIMER
 70
     1
  9
$ANGBASE
 50
0.0
  9
$ANGDIR
 70
     0
  9
$PDMODE
 70
     0
  9
$PDSIZE
 40
0.0
  9
$PLINEWID
 40
0.0
  9
$SPLFRAME
 70
     0
  9
$SPLINETYPE
 70
     6
  9
$SPLINESEGS
 70
     8
  9
$HANDSEED
  5
1A709
  9
$SURFTAB1
 70
     6
  9
$SURFTAB2
 70
     6
  9
$SURFTYPE
 70
     6
  9
$SURFU
 70
     6
  9
$SURFV
 70
     6
  9
$UCSBASE
  2

  9
$UCSNAME
  2

  9
$UCSORG
 10
0.0
 20
0.0
 30
0.0
  9
$UCSXDIR
 10
1.0
 20
0.0
 30
0.0
  9
$UCSYDIR
 10
0.0
 20
1.0
 30
0.0
  9
$UCSORTHOREF
  2

  9
$UCSORTHOVIEW
 70
     0
  9
$UCSORGTOP
 10
0.0
 20
0.0
 30
0.0
  9
$UCSORGBOTTOM
 10
0.0
 20
0.0
 30
0.0
  9
$UCSORGLEFT
 10
0.0
 20
0.0
 30
0.0
  9
$UCSORGRIGHT
 10
0.0
 20
0.0
 30
0.0
  9
$UCSORGFRONT
 10
0.0
 20
0.0
 30
0.0
  9
$UCSORGBACK
 10
0.0
 20
0.0
 30
0.0
  9
$PUCSBASE
  2

  9
$PUCSNAME
  2

  9
$PUCSORG
 10
0.0
 20
0.0
 30
0.0
  9
$PUCSXDIR
 10
1.0
 20
0.0
 30
0.0
  9
$PUCSYDIR
 10
0.0
 20
1.0
 30
0.0
  9
$PUCSORTHOREF
  2

  9
$PUCSORTHOVIEW
 70
     0
  9
$PUCSORGTOP
 10
0.0
 20
0.0
 30
0.0
  9
$PUCSORGBOTTOM
 10
0.0
 20
0.0
 30
0.0
  9
$PUCSORGLEFT
 10
0.0
 20
0.0
 30
0.0
  9
$PUCSORGRIGHT
 10
0.0
 20
0.0
 30
0.0
  9
$PUCSORGFRONT
 10
0.0
 20
0.0
 30
0.0
  9
$PUCSORGBACK
 10
0.0
 20
0.0
 30
0.0
  9
$USERI1
 70
     3
  9
$USERI2
 70
     0
  9
$USERI3
 70
     0
  9
$USERI4
 70
     0
  9
$USERI5
 70
  1103
  9
$USERR1
 40
0.0
  9
$USERR2
 40
1.0
  9
$USERR3
 40
0.0
  9
$USERR4
 40
0.0
  9
$USERR5
 40
0.0
  9
$WORLDVIEW
 70
     1
  9
$SHADEDGE
 70
     3
  9
$SHADEDIF
 70
    70
  9
$TILEMODE
 70
     1
  9
$MAXACTVP
 70
    16
  9
$PINSBASE
 10
0.0
 20
0.0
 30
0.0
  9
$PLIMCHECK
 70
     0
  9
$PEXTMIN
 10
1.000000000000000E+20
 20
1.000000000000000E+20
 30
1.000000000000000E+20
  9
$PEXTMAX
 10
-1.000000000000000E+20
 20
-1.000000000000000E+20
 30
-1.000000000000000E+20
  9
$PLIMMIN
 10
0.0
 20
0.0
  9
$PLIMMAX
 10
12.0
 20
9.0
  9
$UNITMODE
 70
     0
  9
$VISRETAIN
 70
     0
  9
$PLINEGEN
 70
     1
  9
$PSLTSCALE
 70
     0
  9
$TREEDEPTH
 70
  3020
  9
$CMLSTYLE
  2
Standard
  9
$CMLJUST
 70
     0
  9
$CMLSCALE
 40
1.0
  9
$PROXYGRAPHICS
 70
     1
  9
$MEASUREMENT
 70
     0
  9
$CELWEIGHT
370
    -1
  9
$ENDCAPS
280
     0
  9
$JOINSTYLE
280
     0
  9
$LWDISPLAY
290
     0
  9
$INSUNITS
 70
     0
  9
$HYPERLINKBASE
  1

  9
$STYLESHEET
  1

  9
$XEDIT
290
     1
  9
$CEPSNTYPE
380
     0
  9
$PSTYLEMODE
290
     1
  9
$FINGERPRINTGUID
  2
{8036DB7B-8DA5-4F16-93F4-84C2300CFA04}
  9
$VERSIONGUID
  2
{DDD346F4-658C-4BF8-AAF7-31405416CEEB}
  9
$EXTNAMES
290
     1
  9
$PSVPSCALE
 40
0.0
  9
$OLESTARTUP
290
     0
  0
ENDSEC
  0
SECTION
  2
CLASSES
  0
CLASS
  1
ACDBDICTIONARYWDFLT
  2
AcDbDictionaryWithDefault
  3
AutoCAD 2000
 90
        0
280
     0
281
     0
  0
CLASS
  1
ACDBPLACEHOLDER
  2
AcDbPlaceHolder
  3
AutoCAD 2000
 90
        0
280
     0
281
     0
  0
CLASS
  1
LAYOUT
  2
AcDbLayout
  3
AutoCAD 2000
 90
        0
280
     0
281
     0
  0
CLASS
  1
DICTIONARYVAR
  2
AcDbDictionaryVar
  3
AutoCAD 2000
 90
        0
280
     0
281
     0
  0
ENDSEC
  0
SECTION
  2
TABLES
  0
TABLE
  2
VPORT
  5
19E9F
330
0
100
AcDbSymbolTable
 70
     2
  0
VPORT
  5
1A708
330
19E9F
100
AcDbSymbolTableRecord
100
AcDbViewportTableRecord
  2
*Active
 70
     0
 10
0.0
 20
0.0
 11
1.0
 21
1.0
 12
8408.331337953367
 22
5702.983730997637
 13
0.0
 23
0.0
 14
1.0
 24
1.0
 15
0.0
 25
0.0
 16
0.0
 26
0.0
 36
1.0
 17
0.0
 27
0.0
 37
0.0
 40
11163.50538397298
 41
1.527918781725888
 42
50.0
 43
0.0
 44
0.0
 50
0.0
 51
0.0
 71
     0
 72
 10000
 73
     1
 74
     0
 75
     0
 76
     0
 77
     0
 78
     0
281
     0
 65
     1
110
0.0
120
0.0
130
0.0
111
1.0
121
0.0
131
0.0
112
0.0
122
1.0
132
0.0
 79
     0
146
0.0
  0
ENDTAB
  0
TABLE
  2
LTYPE
  5
19E9C
330
0
100
AcDbSymbolTable
 70
     7
  0
LTYPE
  5
19EAA
330
19E9C
100
AcDbSymbolTableRecord
100
AcDbLinetypeTableRecord
  2
ByBlock
 70
     0
  3

 72
    65
 73
     0
 40
0.0
  0
LTYPE
  5
19EAB
330
19E9C
100
AcDbSymbolTableRecord
100
AcDbLinetypeTableRecord
  2
ByLayer
 70
     0
  3

 72
    65
 73
     0
 40
0.0
  0
LTYPE
  5
19EAC
330
19E9C
100
AcDbSymbolTableRecord
100
AcDbLinetypeTableRecord
  2
CONTINUOUS
 70
     0
  3
実線
 72
    65
 73
     0
 40
0.0
  0
LTYPE
  5
19EBC
330
19E9C
100
AcDbSymbolTableRecord
100
AcDbLinetypeTableRecord
  2
TENSEN-
 70
     0
  3

 72
    65
 73
     2
 40
0.6000000000000001
 49
0.2
 74
     0
 49
-0.4
 74
     0
  0
LTYPE
  5
19EBD
330
19E9C
100
AcDbSymbolTableRecord
100
AcDbLinetypeTableRecord
  2
1PL-LL
 70
     0
  3

 72
    65
 73
     4
 40
106.0
 49
100.0
 74
     0
 49
-2.0
 74
     0
 49
2.0
 74
     0
 49
-2.0
 74
     0
  0
LTYPE
  5
19EBE
330
19E9C
100
AcDbSymbolTableRecord
100
AcDbLinetypeTableRecord
  2
1PL-M
 70
     0
  3

 72
    65
 73
     4
 40
15.0
 49
12.0
 74
     0
 49
-1.0
 74
     0
 49
1.0
 74
     0
 49
-1.0
 74
     0
  0
LTYPE
  5
19EBF
330
19E9C
100
AcDbSymbolTableRecord
100
AcDbLinetypeTableRecord
  2
1PL-S
 70
     0
  3

 72
    65
 73
     4
 40
4.0
 49
2.5
 74
     0
 49
-0.5
 74
     0
 49
0.5
 74
     0
 49
-0.5
 74
     0
  0
LTYPE
  5
19EC0
330
19E9C
100
AcDbSymbolTableRecord
100
AcDbLinetypeTableRecord
  2
2PL-L
 70
     0
  3

 72
    65
 73
     6
 40
60.0
 49
50.0
 74
     0
 49
-2.0
 74
     0
 49
2.0
 74
     0
 49
-2.0
 74
     0
 49
2.0
 74
     0
 49
-2.0
 74
     0
  0
LTYPE
  5
19EC1
330
19E9C
100
AcDbSymbolTableRecord
100
AcDbLinetypeTableRecord
  2
1PL-12
 70
     0
  3

 72
    65
 73
     4
 40
15.0
 49
12.0
 74
     0
 49
-1.0
 74
     0
 49
1.0
 74
     0
 49
-1.0
 74
     0
  0
ENDTAB
  0
TABLE
  2
LAYER
  5
19E99
330
0
100
AcDbSymbolTable
 70
    20
  0
LAYER
  5
19EA7
330
19E99
100
AcDbSymbolTableRecord
100
AcDbLayerTableRecord
  2
0
 70
     0
 62
     7
  6
CONTINUOUS
370
    -3
390
19EA6
  0
LAYER
  5
19EB9
330
19E99
100
AcDbSymbolTableRecord
100
AcDbLayerTableRecord
  2
SUNPOU
 70
     0
 62
     4
  6
CONTINUOUS
370
    -3
390
19EA6
  0
LAYER
  5
19EC2
330
19E99
100
AcDbSymbolTableRecord
100
AcDbLayerTableRecord
  2
U1
 70
     0
 62
     3
  6
CONTINUOUS
370
    -3
390
19EA6
  0
LAYER
  5
19EC3
330
19E99
100
AcDbSymbolTableRecord
100
AcDbLayerTableRecord
  2
U3
 70
     0
 62
     6
  6
CONTINUOUS
370
    -3
390
19EA6
  0
LAYER
  5
19EC4
330
19E99
100
AcDbSymbolTableRecord
100
AcDbLayerTableRecord
  2
HIKIDASHI
 70
     0
 62
     6
  6
CONTINUOUS
370
    -3
390
19EA6
  0
LAYER
  5
19EC5
330
19E99
100
AcDbSymbolTableRecord
100
AcDbLayerTableRecord
  2
TENSEN-1
 70
     0
 62
     6
  6
TENSEN-
370
    -3
390
19EA6
  0
LAYER
  5
19EC6
330
19E99
100
AcDbSymbolTableRecord
100
AcDbLayerTableRecord
  2
1PL-S1
 70
     0
 62
     6
  6
1PL-S
370
    -3
390
19EA6
  0
LAYER
  5
19EC7
330
19E99
100
AcDbSymbolTableRecord
100
AcDbLayerTableRecord
  2
1PL-M1
 70
     0
 62
     6
  6
1PL-M
370
    -3
390
19EA6
  0
LAYER
  5
19EC8
330
19E99
100
AcDbSymbolTableRecord
100
AcDbLayerTableRecord
  2
NAME
 70
     0
 62
    20
  6
CONTINUOUS
370
    -3
390
19EA6
  0
LAYER
  5
19EC9
330
19E99
100
AcDbSymbolTableRecord
100
AcDbLayerTableRecord
  2
FILENAME
 70
     0
 62
     7
  6
CONTINUOUS
370
    -3
390
19EA6
  0
LAYER
  5
19ECA
330
19E99
100
AcDbSymbolTableRecord
100
AcDbLayerTableRecord
  2
CENTER
 70
     0
 62
     6
  6
1PL-LL
370
    -3
390
19EA6
  0
LAYER
  5
19ECB
330
19E99
100
AcDbSymbolTableRecord
100
AcDbLayerTableRecord
  2
KISO
 70
     0
 62
     2
  6
CONTINUOUS
370
    -3
390
19EA6
  0
LAYER
  5
19ECC
330
19E99
100
AcDbSymbolTableRecord
100
AcDbLayerTableRecord
  2
BOLT
 70
     0
 62
     4
  6
CONTINUOUS
370
    -3
390
19EA6
  0
LAYER
  5
19ECD
330
19E99
100
AcDbSymbolTableRecord
100
AcDbLayerTableRecord
  2
YANE
 70
     0
 62
     1
  6
1PL-12
370
    -3
390
19EA6
  0
LAYER
  5
19ECE
330
19E99
100
AcDbSymbolTableRecord
100
AcDbLayerTableRecord
  2
HATCH
 70
     0
 62
     1
  6
CONTINUOUS
370
    -3
390
19EA6
  0
LAYER
  5
19ECF
330
19E99
100
AcDbSymbolTableRecord
100
AcDbLayerTableRecord
  2
HASHIRA
 70
     0
 62
     3
  6
CONTINUOUS
370
    -3
390
19EA6
  0
LAYER
  5
19ED0
330
19E99
100
AcDbSymbolTableRecord
100
AcDbLayerTableRecord
  2
YODOROGO
 70
     0
 62
   130
  6
CONTINUOUS
370
    -3
390
19EA6
  0
LAYER
  5
19ED1
330
19E99
100
AcDbSymbolTableRecord
100
AcDbLayerTableRecord
  2
WAKUSEN-01
 70
     0
 62
    50
  6
CONTINUOUS
370
    -3
390
19EA6
  0
LAYER
  5
19ED2
330
19E99
100
AcDbSymbolTableRecord
100
AcDbLayerTableRecord
  2
WAKUSEN-02
 70
     0
 62
   130
  6
CONTINUOUS
370
    -3
390
19EA6
  0
LAYER
  5
19ED3
330
19E99
100
AcDbSymbolTableRecord
100
AcDbLayerTableRecord
  2
WAKUMOJI-01
 70
     0
 62
   130
  6
CONTINUOUS
370
    -3
390
19EA6
  0
ENDTAB
  0
TABLE
  2
STYLE
  5
19E9A
330
0
100
AcDbSymbolTable
 70
     5
  0
STYLE
  5
19EA8
330
19E9A
100
AcDbSymbolTableRecord
100
AcDbTextStyleTableRecord
  2
STANDARD
 70
     0
 40
3.0
 41
1.0
 50
0.0
 71
     0
 42
0.2
  3
ROMANS
  4
EXTFONT
  0
STYLE
  5
19EBA
330
19E9A
100
AcDbSymbolTableRecord
100
AcDbTextStyleTableRecord
  2
00
 70
     0
 40
0.0
 41
0.6666666666666666
 50
0.0
 71
     0
 42
0.2
  3
ROMANS
  4
BIGFONT
  0
STYLE
  5
19ED4
330
19E9A
100
AcDbSymbolTableRecord
100
AcDbTextStyleTableRecord
  2
01
 70
     0
 40
3.0
 41
1.0
 50
0.0
 71
     0
 42
0.2
  3
ROMANS
  4
BIGFONT
  0
STYLE
  5
19ED5
330
19E9A
100
AcDbSymbolTableRecord
100
AcDbTextStyleTableRecord
  2
WAKUMOJI
 70
     0
 40
3.0
 41
1.0
 50
0.0
 71
     0
 42
3.0
  3
SIMPLEX
  4
BIGFONT
  0
STYLE
  5
19ED6
330
19E9A
100
AcDbSymbolTableRecord
100
AcDbTextStyleTableRecord
  2
FILENAME
 70
     0
 40
100.0
 41
1.0
 50
0.0
 71
     0
 42
100.0
  3
romans
  4
bigfont
  0
ENDTAB
  0
TABLE
  2
VIEW
  5
19E9D
330
0
100
AcDbSymbolTable
 70
     0
  0
ENDTAB
  0
TABLE
  2
UCS
  5
19E9E
330
0
100
AcDbSymbolTable
 70
     0
  0
ENDTAB
  0
TABLE
  2
APPID
  5
19EA0
330
0
100
AcDbSymbolTable
 70
     4
  0
APPID
  5
19EA9
330
19EA0
100
AcDbSymbolTableRecord
100
AcDbRegAppTableRecord
  2
ACAD
 70
     0
  0
APPID
  5
19ED7
330
19EA0
100
AcDbSymbolTableRecord
100
AcDbRegAppTableRecord
  2
AUTOCAD_POSTSCRIPT_FIGURE
 70
     0
  0
APPID
  5
19ED8
330
19EA0
100
AcDbSymbolTableRecord
100
AcDbRegAppTableRecord
  2
ACAD_EXEMPT_FROM_CAD_STANDARDS
 70
     0
  0
APPID
  5
19ED9
330
19EA0
100
AcDbSymbolTableRecord
100
AcDbRegAppTableRecord
  2
ACAD_PSEXT
 70
     0
  0
ENDTAB
  0
TABLE
  2
DIMSTYLE
  5
19EA1
330
0
100
AcDbSymbolTable
 70
     1
100
AcDbDimStyleTable
 71
     0
  0
DIMSTYLE
105
19EDA
330
19EA1
100
AcDbSymbolTableRecord
100
AcDbDimStyleTableRecord
  2
SUNPOU_図面名
 70
     0
 40
30.0
 41
0.5
 42
1.0
 43
7.0
 44
1.5
 46
3.0
 73
     0
 74
     0
 77
     1
 78
     8
140
3.0
141
0.0
147
1.5
172
     1
173
     1
176
   256
177
   256
178
   256
271
     2
272
     2
279
     2
284
     8
285
     8
286
     8
340
19EBA
  0
ENDTAB
  0
TABLE
  2
BLOCK_RECORD
  5
19E98
330
0
100
AcDbSymbolTable
 70
    49
  0
BLOCK_RECORD
  5
19EB5
330
19E98
100
AcDbSymbolTableRecord
100
AcDbBlockTableRecord
  2
*Model_Space
340
19EB8
  0
BLOCK_RECORD
  5
19EB1
330
19E98
100
AcDbSymbolTableRecord
100
AcDbBlockTableRecord
  2
*Paper_Space
340
19EB4
  0
BLOCK_RECORD
  5
19EDF
330
19E98
100
AcDbSymbolTableRecord
100
AcDbBlockTableRecord
  2
$MODEL_SPACE
340
0
  0
BLOCK_RECORD
  5
19EE2
330
19E98
100
AcDbSymbolTableRecord
100
AcDbBlockTableRecord
  2
$PAPER_SPACE
340
0
  0
BLOCK_RECORD
  5
19EE5
330
19E98
100
AcDbSymbolTableRecord
100
AcDbBlockTableRecord
  2
DOT
340
0
  0
BLOCK_RECORD
  5
19EED
330
19E98
100
AcDbSymbolTableRecord
100
AcDbBlockTableRecord
  2
*U3
340
0
  0
BLOCK_RECORD
  5
19EF1
330
19E98
100
AcDbSymbolTableRecord
100
AcDbBlockTableRecord
  2
*U4
340
0
  0
BLOCK_RECORD
  5
19EF5
330
19E98
100
AcDbSymbolTableRecord
100
AcDbBlockTableRecord
  2
*U5
340
0
  0
BLOCK_RECORD
  5
19EF9
330
19E98
100
AcDbSymbolTableRecord
100
AcDbBlockTableRecord
  2
*U6
340
0
  0
BLOCK_RECORD
  5
19EFD
330
19E98
100
AcDbSymbolTableRecord
100
AcDbBlockTableRecord
  2
*U7
340
0
  0
BLOCK_RECORD
  5
19F01
330
19E98
100
AcDbSymbolTableRecord
100
AcDbBlockTableRecord
  2
*U8
340
0
  0
BLOCK_RECORD
  5
19F05
330
19E98
100
AcDbSymbolTableRecord
100
AcDbBlockTableRecord
  2
*U9
340
0
  0
BLOCK_RECORD
  5
19F09
330
19E98
100
AcDbSymbolTableRecord
100
AcDbBlockTableRecord
  2
*U10
340
0
  0
BLOCK_RECORD
  5
19F0D
330
19E98
100
AcDbSymbolTableRecord
100
AcDbBlockTableRecord
  2
*U11
340
0
  0
BLOCK_RECORD
  5
19F11
330
19E98
100
AcDbSymbolTableRecord
100
AcDbBlockTableRecord
  2
*U12
340
0
  0
BLOCK_RECORD
  5
19F15
330
19E98
100
AcDbSymbolTableRecord
100
AcDbBlockTableRecord
  2
*U13
340
0
  0
BLOCK_RECORD
  5
19F19
330
19E98
100
AcDbSymbolTableRecord
100
AcDbBlockTableRecord
  2
*U14
340
0
  0
BLOCK_RECORD
  5
19F1D
330
19E98
100
AcDbSymbolTableRecord
100
AcDbBlockTableRecord
  2
*U15
340
0
  0
BLOCK_RECORD
  5
19F21
330
19E98
100
AcDbSymbolTableRecord
100
AcDbBlockTableRecord
  2
*U16
340
0
  0
BLOCK_RECORD
  5
19F25
330
19E98
100
AcDbSymbolTableRecord
100
AcDbBlockTableRecord
  2
*U17
340
0
  0
BLOCK_RECORD
  5
19F29
330
19E98
100
AcDbSymbolTableRecord
100
AcDbBlockTableRecord
  2
*U18
340
0
  0
BLOCK_RECORD
  5
19F2D
330
19E98
100
AcDbSymbolTableRecord
100
AcDbBlockTableRecord
  2
*U19
340
0
  0
BLOCK_RECORD
  5
19F31
330
19E98
100
AcDbSymbolTableRecord
100
AcDbBlockTableRecord
  2
*U20
340
0
  0
BLOCK_RECORD
  5
19F35
330
19E98
100
AcDbSymbolTableRecord
100
AcDbBlockTableRecord
  2
*U21
340
0
  0
BLOCK_RECORD
  5
19F39
330
19E98
100
AcDbSymbolTableRecord
100
AcDbBlockTableRecord
  2
*U22
340
0
  0
BLOCK_RECORD
  5
19F3D
330
19E98
100
AcDbSymbolTableRecord
100
AcDbBlockTableRecord
  2
*U23
340
0
  0
BLOCK_RECORD
  5
19F41
330
19E98
100
AcDbSymbolTableRecord
100
AcDbBlockTableRecord
  2
*U24
340
0
  0
BLOCK_RECORD
  5
19F45
330
19E98
100
AcDbSymbolTableRecord
100
AcDbBlockTableRecord
  2
*U25
340
0
  0
BLOCK_RECORD
  5
19F49
330
19E98
100
AcDbSymbolTableRecord
100
AcDbBlockTableRecord
  2
*U26
340
0
  0
BLOCK_RECORD
  5
19F4D
330
19E98
100
AcDbSymbolTableRecord
100
AcDbBlockTableRecord
  2
*U27
340
0
  0
BLOCK_RECORD
  5
19F51
330
19E98
100
AcDbSymbolTableRecord
100
AcDbBlockTableRecord
  2
*U28
340
0
  0
BLOCK_RECORD
  5
19F55
330
19E98
100
AcDbSymbolTableRecord
100
AcDbBlockTableRecord
  2
*U29
340
0
  0
BLOCK_RECORD
  5
19F59
330
19E98
100
AcDbSymbolTableRecord
100
AcDbBlockTableRecord
  2
*U30
340
0
  0
BLOCK_RECORD
  5
19F5D
330
19E98
100
AcDbSymbolTableRecord
100
AcDbBlockTableRecord
  2
*U31
340
0
  0
BLOCK_RECORD
  5
19F61
330
19E98
100
AcDbSymbolTableRecord
100
AcDbBlockTableRecord
  2
*U32
340
0
  0
BLOCK_RECORD
  5
19F65
330
19E98
100
AcDbSymbolTableRecord
100
AcDbBlockTableRecord
  2
*U33
340
0
  0
BLOCK_RECORD
  5
19F69
330
19E98
100
AcDbSymbolTableRecord
100
AcDbBlockTableRecord
  2
*U34
340
0
  0
BLOCK_RECORD
  5
19F6D
330
19E98
100
AcDbSymbolTableRecord
100
AcDbBlockTableRecord
  2
*U35
340
0
  0
BLOCK_RECORD
  5
19F71
330
19E98
100
AcDbSymbolTableRecord
100
AcDbBlockTableRecord
  2
*U36
340
0
  0
BLOCK_RECORD
  5
19F75
330
19E98
100
AcDbSymbolTableRecord
100
AcDbBlockTableRecord
  2
*U37
340
0
  0
BLOCK_RECORD
  5
19F79
330
19E98
100
AcDbSymbolTableRecord
100
AcDbBlockTableRecord
  2
*U38
340
0
  0
BLOCK_RECORD
  5
19F7D
330
19E98
100
AcDbSymbolTableRecord
100
AcDbBlockTableRecord
  2
*U39
340
0
  0
BLOCK_RECORD
  5
19F81
330
19E98
100
AcDbSymbolTableRecord
100
AcDbBlockTableRecord
  2
*U40
340
0
  0
BLOCK_RECORD
  5
19F85
330
19E98
100
AcDbSymbolTableRecord
100
AcDbBlockTableRecord
  2
*U41
340
0
  0
BLOCK_RECORD
  5
19F89
330
19E98
100
AcDbSymbolTableRecord
100
AcDbBlockTableRecord
  2
*U42
340
0
  0
BLOCK_RECORD
  5
19F8D
330
19E98
100
AcDbSymbolTableRecord
100
AcDbBlockTableRecord
  2
*U43
340
0
  0
BLOCK_RECORD
  5
19F91
330
19E98
100
AcDbSymbolTableRecord
100
AcDbBlockTableRecord
  2
*U44
340
0
  0
BLOCK_RECORD
  5
19F95
330
19E98
100
AcDbSymbolTableRecord
100
AcDbBlockTableRecord
  2
*U45
340
0
  0
BLOCK_RECORD
  5
19F99
330
19E98
100
AcDbSymbolTableRecord
100
AcDbBlockTableRecord
  2
*U46
340
0
  0
BLOCK_RECORD
  5
19F9D
330
19E98
100
AcDbSymbolTableRecord
100
AcDbBlockTableRecord
  2
*U47
340
0
  0
ENDTAB
  0
ENDSEC
  0
SECTION
  2
BLOCKS
  0
BLOCK
  5
19EB6
330
19EB5
100
AcDbEntity
  8
0
100
AcDbBlockBegin
  2
*Model_Space
 70
     0
 10
0.0
 20
0.0
 30
0.0
  3
*Model_Space
  1

  0
ENDBLK
  5
19EB7
330
19EB5
100
AcDbEntity
  8
0
100
AcDbBlockEnd
  0
BLOCK
  5
19EB2
330
19EB1
100
AcDbEntity
 67
     1
  8
0
100
AcDbBlockBegin
  2
*Paper_Space
 70
     0
 10
0.0
 20
0.0
 30
0.0
  3
*Paper_Space
  1

  0
ENDBLK
  5
19EB3
330
19EB1
100
AcDbEntity
 67
     1
  8
0
100
AcDbBlockEnd
  0
BLOCK
  5
19EE0
330
19EDF
100
AcDbEntity
  8
0
100
AcDbBlockBegin
  2
$MODEL_SPACE
 70
     0
 10
0.0
 20
0.0
 30
0.0
  3
$MODEL_SPACE
  1

  0
ENDBLK
  5
19EE1
330
19EDF
100
AcDbEntity
  8
0
100
AcDbBlockEnd
  0
BLOCK
  5
19EE3
330
19EE2
100
AcDbEntity
  8
0
100
AcDbBlockBegin
  2
$PAPER_SPACE
 70
     0
 10
0.0
 20
0.0
 30
0.0
  3
$PAPER_SPACE
  1

  0
ENDBLK
  5
19EE4
330
19EE2
100
AcDbEntity
  8
0
100
AcDbBlockEnd
  0
BLOCK
  5
19EE6
330
19EE5
100
AcDbEntity
  8
0
100
AcDbBlockBegin
  2
DOT
 70
     0
 10
0.0
 20
0.0
 30
0.0
  3
DOT
  1

  0
LWPOLYLINE
  5
19EE7
330
19EE5
100
AcDbEntity
  8
0
  6
ByBlock
 62
     0
100
AcDbPolyline
 90
        2
 70
     1
 43
0.75
 10
-0.375
 20
0.0
 42
1.0
 10
0.375
 20
0.0
 42
1.0
  0
LINE
  5
19EEB
330
19EE5
100
AcDbEntity
  8
0
  6
ByBlock
 62
     0
100
AcDbLine
 10
-0.75
 20
0.0
 30
0.0
 11
-1.5
 21
0.0
 31
0.0
  0
ENDBLK
  5
19EEC
330
19EE5
100
AcDbEntity
  8
0
100
AcDbBlockEnd
  0
BLOCK
  5
19EEE
330
19EED
100
AcDbEntity
  8
0
100
AcDbBlockBegin
  2
*U3
 70
     1
 10
0.0
 20
0.0
 30
0.0
  3
*U3
  1

  0
TEXT
  5
19EEF
330
19EED
100
AcDbEntity
  8
SUNPOU
100
AcDbText
 10
8747.074174843204
 20
6290.715360473253
 30
0.0
 40
90.0
  1
600
 41
0.6666666666666666
  7
00
100
AcDbText
  0
ENDBLK
  5
19EF0
330
19EED
100
AcDbEntity
  8
0
100
AcDbBlockEnd
  0
BLOCK
  5
19EF2
330
19EF1
100
AcDbEntity
  8
0
100
AcDbBlockBegin
  2
*U4
 70
     1
 10
0.0
 20
0.0
 30
0.0
  3
*U4
  1

  0
TEXT
  5
19EF3
330
19EF1
100
AcDbEntity
  8
SUNPOU
100
AcDbText
 10
7447.074174843203
 20
8740.715360473251
 30
0.0
 40
90.0
  1
600
 41
0.6666666666666666
  7
00
100
AcDbText
  0
ENDBLK
  5
19EF4
330
19EF1
100
AcDbEntity
  8
0
100
AcDbBlockEnd
  0
BLOCK
  5
19EF6
330
19EF5
100
AcDbEntity
  8
0
100
AcDbBlockBegin
  2
*U5
 70
     1
 10
0.0
 20
0.0
 30
0.0
  3
*U5
  1

  0
TEXT
  5
19EF7
330
19EF5
100
AcDbEntity
  8
SUNPOU
100
AcDbText
 10
6889.21703198606
 20
9208.572503330399
 30
0.0
 40
90.0
  1
600
 50
90.0
 41
0.6666666666666666
  7
00
100
AcDbText
  0
ENDBLK
  5
19EF8
330
19EF5
100
AcDbEntity
  8
0
100
AcDbBlockEnd
  0
BLOCK
  5
19EFA
330
19EF9
100
AcDbEntity
  8
0
100
AcDbBlockBegin
  2
*U6
 70
     1
 10
0.0
 20
0.0
 30
0.0
  3
*U6
  1

  0
TEXT
  5
19EFB
330
19EF9
100
AcDbEntity
  8
SUNPOU
100
AcDbText
 10
9389.21703198606
 20
5608.572503330398
 30
0.0
 40
90.0
  1
600
 50
90.0
 41
0.6666666666666666
  7
00
100
AcDbText
  0
ENDBLK
  5
19EFC
330
19EF9
100
AcDbEntity
  8
0
100
AcDbBlockEnd
  0
BLOCK
  5
19EFE
330
19EFD
100
AcDbEntity
  8
0
100
AcDbBlockBegin
  2
*U7
 70
     1
 10
0.0
 20
0.0
 30
0.0
  3
*U7
  1

  0
TEXT
  5
19EFF
330
19EFD
100
AcDbEntity
  8
SUNPOU
100
AcDbText
 10
6019.931317700345
 20
10040.71536047325
 30
0.0
 40
90.0
  1
2800
 41
0.6666666666666666
  7
00
100
AcDbText
  0
ENDBLK
  5
19F00
330
19EFD
100
AcDbEntity
  8
0
100
AcDbBlockEnd
  0
BLOCK
  5
19F02
330
19F01
100
AcDbEntity
  8
0
100
AcDbBlockBegin
  2
*U8
 70
     1
 10
0.0
 20
0.0
 30
0.0
  3
*U8
  1

  0
TEXT
  5
19F03
330
19F01
100
AcDbEntity
  8
SUNPOU
100
AcDbText
 10
10119.93131770034
 20
10040.71536047325
 30
0.0
 40
90.0
  1
2800
 41
0.6666666666666666
  7
00
100
AcDbText
  0
ENDBLK
  5
19F04
330
19F01
100
AcDbEntity
  8
0
100
AcDbBlockEnd
  0
BLOCK
  5
19F06
330
19F05
100
AcDbEntity
  8
0
100
AcDbBlockBegin
  2
*U9
 70
     1
 10
0.0
 20
0.0
 30
0.0
  3
*U9
  1

  0
TEXT
  5
19F07
330
19F05
100
AcDbEntity
  8
SUNPOU
100
AcDbText
 10
4474.082765553179
 20
4175.485411556191
 30
0.0
 40
90.0
  1
300
 41
0.6666666666666666
  7
00
100
AcDbText
  0
ENDBLK
  5
19F08
330
19F05
100
AcDbEntity
  8
0
100
AcDbBlockEnd
  0
BLOCK
  5
19F0A
330
19F09
100
AcDbEntity
  8
0
100
AcDbBlockBegin
  2
*U10
 70
     1
 10
0.0
 20
0.0
 30
0.0
  3
*U10
  1

  0
TEXT
  5
19F0B
330
19F09
100
AcDbEntity
  8
SUNPOU
100
AcDbText
 10
3835.443655266704
 20
2865.370553705316
 30
0.0
 40
90.0
  1
300
 50
90.0
 41
0.6666666666666666
  7
00
100
AcDbText
  0
ENDBLK
  5
19F0C
330
19F09
100
AcDbEntity
  8
0
100
AcDbBlockEnd
  0
BLOCK
  5
19F0E
330
19F0D
100
AcDbEntity
  8
0
100
AcDbBlockBegin
  2
*U11
 70
     1
 10
0.0
 20
0.0
 30
0.0
  3
*U11
  1

  0
TEXT
  5
19F0F
330
19F0D
100
AcDbEntity
  8
SUNPOU
100
AcDbText
 10
3835.443655266707
 20
3197.941982276741
 30
0.0
 40
90.0
  1
80
 50
90.0
 41
0.6666666666666666
  7
00
100
AcDbText
  0
ENDBLK
  5
19F10
330
19F0D
100
AcDbEntity
  8
0
100
AcDbBlockEnd
  0
BLOCK
  5
19F12
330
19F11
100
AcDbEntity
  8
0
100
AcDbBlockBegin
  2
*U12
 70
     1
 10
0.0
 20
0.0
 30
0.0
  3
*U12
  1

  0
TEXT
  5
19F13
330
19F11
100
AcDbEntity
  8
SUNPOU
100
AcDbText
 10
3415.443655266705
 20
3523.113410848177
 30
0.0
 40
90.0
  1
50
 50
90.0
 41
0.6666666666666666
  7
00
100
AcDbText
  0
ENDBLK
  5
19F14
330
19F11
100
AcDbEntity
  8
0
100
AcDbBlockEnd
  0
BLOCK
  5
19F16
330
19F15
100
AcDbEntity
  8
0
100
AcDbBlockBegin
  2
*U13
 70
     1
 10
0.0
 20
0.0
 30
0.0
  3
*U13
  1

  0
TEXT
  5
19F17
330
19F15
100
AcDbEntity
  8
SUNPOU
100
AcDbText
 10
4712.654194124605
 20
2193.684839419601
 30
0.0
 40
90.0
  1
600
 41
0.6666666666666666
  7
00
100
AcDbText
  0
ENDBLK
  5
19F18
330
19F15
100
AcDbEntity
  8
0
100
AcDbBlockEnd
  0
BLOCK
  5
19F1A
330
19F19
100
AcDbEntity
  8
0
100
AcDbBlockBegin
  2
*U14
 70
     1
 10
0.0
 20
0.0
 30
0.0
  3
*U14
  1

  0
TEXT
  5
19F1B
330
19F19
100
AcDbEntity
  8
SUNPOU
100
AcDbText
 10
8748.502746271773
 20
8110.715360473252
 30
0.0
 40
90.0
  1
800
 41
0.6666666666666666
  7
00
100
AcDbText
  0
ENDBLK
  5
19F1C
330
19F19
100
AcDbEntity
  8
0
100
AcDbBlockEnd
  0
BLOCK
  5
19F1E
330
19F1D
100
AcDbEntity
  8
0
100
AcDbBlockBegin
  2
*U15
 70
     1
 10
0.0
 20
0.0
 30
0.0
  3
*U15
  1

  0
TEXT
  5
19F1F
330
19F1D
100
AcDbEntity
  8
SUNPOU
100
AcDbText
 10
9489.217031986058
 20
7410.001074758966
 30
0.0
 40
90.0
  1
800
 50
90.0
 41
0.6666666666666666
  7
00
100
AcDbText
  0
ENDBLK
  5
19F20
330
19F1D
100
AcDbEntity
  8
0
100
AcDbBlockEnd
  0
BLOCK
  5
19F22
330
19F21
100
AcDbEntity
  8
0
100
AcDbBlockBegin
  2
*U16
 70
     1
 10
0.0
 20
0.0
 30
0.0
  3
*U16
  1

  0
TEXT
  5
19F23
330
19F21
100
AcDbEntity
  8
SUNPOU
100
AcDbText
 10
11451.33837406208
 20
3229.170862655058
 30
0.0
 40
90.0
  1
160
 41
0.6666666666666666
  7
00
100
AcDbText
  0
ENDBLK
  5
19F24
330
19F21
100
AcDbEntity
  8
0
100
AcDbBlockEnd
  0
BLOCK
  5
19F26
330
19F25
100
AcDbEntity
  8
0
100
AcDbBlockBegin
  2
*U17
 70
     1
 10
0.0
 20
0.0
 30
0.0
  3
*U17
  1

  0
TEXT
  5
19F27
330
19F25
100
AcDbEntity
  8
SUNPOU
100
AcDbText
 10
11040.6240883478
 20
3439.170862655058
 30
0.0
 40
90.0
  1
20
 41
0.6666666666666666
  7
00
100
AcDbText
  0
ENDBLK
  5
19F28
330
19F25
100
AcDbEntity
  8
0
100
AcDbBlockEnd
  0
BLOCK
  5
19F2A
330
19F29
100
AcDbEntity
  8
0
100
AcDbBlockBegin
  2
*U18
 70
     1
 10
0.0
 20
0.0
 30
0.0
  3
*U18
  1

  0
TEXT
  5
19F2B
330
19F29
100
AcDbEntity
  8
SUNPOU
100
AcDbText
 10
11451.33837406209
 20
3439.170862655058
 30
0.0
 40
90.0
  1
120
 41
0.6666666666666666
  7
00
100
AcDbText
  0
ENDBLK
  5
19F2C
330
19F29
100
AcDbEntity
  8
0
100
AcDbBlockEnd
  0
BLOCK
  5
19F2E
330
19F2D
100
AcDbEntity
  8
0
100
AcDbBlockBegin
  2
*U19
 70
     1
 10
0.0
 20
0.0
 30
0.0
  3
*U19
  1

  0
TEXT
  5
19F2F
330
19F2D
100
AcDbEntity
  8
SUNPOU
100
AcDbText
 10
11927.76694549065
 20
3439.170862655058
 30
0.0
 40
90.0
  1
20
 41
0.6666666666666666
  7
00
100
AcDbText
  0
ENDBLK
  5
19F30
330
19F2D
100
AcDbEntity
  8
0
100
AcDbBlockEnd
  0
BLOCK
  5
19F32
330
19F31
100
AcDbEntity
  8
0
100
AcDbBlockBegin
  2
*U20
 70
     1
 10
0.0
 20
0.0
 30
0.0
  3
*U20
  1

  0
TEXT
  5
19F33
330
19F31
100
AcDbEntity
  8
SUNPOU
100
AcDbText
 10
10663.33837406209
 20
2643.001486910295
 30
0.0
 40
90.0
  1
80
 50
90.0
 41
0.6666666666666666
  7
00
100
AcDbText
  0
ENDBLK
  5
19F34
330
19F31
100
AcDbEntity
  8
0
100
AcDbBlockEnd
  0
BLOCK
  5
19F36
330
19F35
100
AcDbEntity
  8
0
100
AcDbBlockBegin
  2
*U21
 70
     1
 10
0.0
 20
0.0
 30
0.0
  3
*U21
  1

  0
TEXT
  5
19F37
330
19F35
100
AcDbEntity
  8
SUNPOU
100
AcDbText
 10
10873.33837406209
 20
2911.572915481723
 30
0.0
 40
90.0
  1
40
 50
90.0
 41
0.6666666666666666
  7
00
100
AcDbText
  0
ENDBLK
  5
19F38
330
19F35
100
AcDbEntity
  8
0
100
AcDbBlockEnd
  0
BLOCK
  5
19F3A
330
19F39
100
AcDbEntity
  8
0
100
AcDbBlockBegin
  2
*U22
 70
     1
 10
0.0
 20
0.0
 30
0.0
  3
*U22
  1

  0
TEXT
  5
19F3B
330
19F39
100
AcDbEntity
  8
SUNPOU
100
AcDbText
 10
10873.33837406209
 20
2374.430058338865
 30
0.0
 40
90.0
  1
40
 50
90.0
 41
0.6666666666666666
  7
00
100
AcDbText
  0
ENDBLK
  5
19F3C
330
19F39
100
AcDbEntity
  8
0
100
AcDbBlockEnd
  0
BLOCK
  5
19F3E
330
19F3D
100
AcDbEntity
  8
0
100
AcDbBlockBegin
  2
*U23
 70
     1
 10
0.0
 20
0.0
 30
0.0
  3
*U23
  1

  0
TEXT
  5
19F3F
330
19F3D
100
AcDbEntity
  8
SUNPOU
100
AcDbText
 10
11451.33837406208
 20
2080.804976716085
 30
0.0
 40
90.0
  1
160
 41
0.6666666666666666
  7
00
100
AcDbText
  0
ENDBLK
  5
19F40
330
19F3D
100
AcDbEntity
  8
0
100
AcDbBlockEnd
  0
BLOCK
  5
19F42
330
19F41
100
AcDbEntity
  8
0
100
AcDbBlockBegin
  2
*U24
 70
     1
 10
0.0
 20
0.0
 30
0.0
  3
*U24
  1

  0
TEXT
  5
19F43
330
19F41
100
AcDbEntity
  8
SUNPOU
100
AcDbText
 10
11040.6240883478
 20
2290.804976716086
 30
0.0
 40
90.0
  1
20
 41
0.6666666666666666
  7
00
100
AcDbText
  0
ENDBLK
  5
19F44
330
19F41
100
AcDbEntity
  8
0
100
AcDbBlockEnd
  0
BLOCK
  5
19F46
330
19F45
100
AcDbEntity
  8
0
100
AcDbBlockBegin
  2
*U25
 70
     1
 10
0.0
 20
0.0
 30
0.0
  3
*U25
  1

  0
TEXT
  5
19F47
330
19F45
100
AcDbEntity
  8
SUNPOU
100
AcDbText
 10
11451.33837406209
 20
2290.804976716086
 30
0.0
 40
90.0
  1
120
 41
0.6666666666666666
  7
00
100
AcDbText
  0
ENDBLK
  5
19F48
330
19F45
100
AcDbEntity
  8
0
100
AcDbBlockEnd
  0
BLOCK
  5
19F4A
330
19F49
100
AcDbEntity
  8
0
100
AcDbBlockBegin
  2
*U26
 70
     1
 10
0.0
 20
0.0
 30
0.0
  3
*U26
  1

  0
TEXT
  5
19F4B
330
19F49
100
AcDbEntity
  8
SUNPOU
100
AcDbText
 10
11927.76694549065
 20
2290.804976716086
 30
0.0
 40
90.0
  1
20
 41
0.6666666666666666
  7
00
100
AcDbText
  0
ENDBLK
  5
19F4C
330
19F49
100
AcDbEntity
  8
0
100
AcDbBlockEnd
  0
BLOCK
  5
19F4E
330
19F4D
100
AcDbEntity
  8
0
100
AcDbBlockBegin
  2
*U27
 70
     1
 10
0.0
 20
0.0
 30
0.0
  3
*U27
  1

  0
TEXT
  5
19F4F
330
19F4D
100
AcDbEntity
  8
SUNPOU
100
AcDbText
 10
12228.40680314954
 20
3437.622750870277
 30
0.0
 40
90.0
  1
27
 50
90.0
 41
0.6666666666666666
  7
00
100
AcDbText
  0
ENDBLK
  5
19F50
330
19F4D
100
AcDbEntity
  8
0
100
AcDbBlockEnd
  0
BLOCK
  5
19F52
330
19F51
100
AcDbEntity
  8
0
100
AcDbBlockBegin
  2
*U28
 70
     1
 10
0.0
 20
0.0
 30
0.0
  3
*U28
  1

  0
TEXT
  5
19F53
330
19F51
100
AcDbEntity
  8
SUNPOU
100
AcDbText
 10
12228.40680314954
 20
3937.765608013134
 30
0.0
 40
90.0
  1
40
 50
90.0
 41
0.6666666666666666
  7
00
100
AcDbText
  0
ENDBLK
  5
19F54
330
19F51
100
AcDbEntity
  8
0
100
AcDbBlockEnd
  0
BLOCK
  5
19F56
330
19F55
100
AcDbEntity
  8
0
100
AcDbBlockBegin
  2
*U29
 70
     1
 10
0.0
 20
0.0
 30
0.0
  3
*U29
  1

  0
TEXT
  5
19F57
330
19F55
100
AcDbEntity
  8
SUNPOU
100
AcDbText
 10
4714.082765553176
 20
1983.6848394196
 30
0.0
 40
90.0
  1
800
 41
0.6666666666666666
  7
00
100
AcDbText
  0
ENDBLK
  5
19F58
330
19F55
100
AcDbEntity
  8
0
100
AcDbBlockEnd
  0
BLOCK
  5
19F5A
330
19F59
100
AcDbEntity
  8
0
100
AcDbBlockBegin
  2
*U30
 70
     1
 10
0.0
 20
0.0
 30
0.0
  3
*U30
  1

  0
TEXT
  5
19F5B
330
19F59
100
AcDbEntity
  8
SUNPOU
100
AcDbText
 10
3835.443655266704
 20
2328.227696562461
 30
0.0
 40
90.0
  1
100
 50
90.0
 41
0.6666666666666666
  7
00
100
AcDbText
  0
ENDBLK
  5
19F5C
330
19F59
100
AcDbEntity
  8
0
100
AcDbBlockEnd
  0
BLOCK
  5
19F5E
330
19F5D
100
AcDbEntity
  8
0
100
AcDbBlockBegin
  2
*U31
 70
     1
 10
0.0
 20
0.0
 30
0.0
  3
*U31
  1

  0
TEXT
  5
19F5F
330
19F5D
100
AcDbEntity
  8
SUNPOU
100
AcDbText
 10
4448.502746271774
 20
10040.71536047325
 30
0.0
 40
90.0
  1
400
 41
0.6666666666666666
  7
00
100
AcDbText
  0
ENDBLK
  5
19F60
330
19F5D
100
AcDbEntity
  8
0
100
AcDbBlockEnd
  0
BLOCK
  5
19F62
330
19F61
100
AcDbEntity
  8
0
100
AcDbBlockBegin
  2
*U32
 70
     1
 10
0.0
 20
0.0
 30
0.0
  3
*U32
  1

  0
TEXT
  5
19F63
330
19F61
100
AcDbEntity
  8
SUNPOU
100
AcDbText
 10
11748.50274627176
 20
10040.71536047325
 30
0.0
 40
90.0
  1
400
 41
0.6666666666666666
  7
00
100
AcDbText
  0
ENDBLK
  5
19F64
330
19F61
100
AcDbEntity
  8
0
100
AcDbBlockEnd
  0
BLOCK
  5
19F66
330
19F65
100
AcDbEntity
  8
0
100
AcDbBlockBegin
  2
*U33
 70
     1
 10
0.0
 20
0.0
 30
0.0
  3
*U33
  1

  0
TEXT
  5
19F67
330
19F65
100
AcDbEntity
  8
SUNPOU
100
AcDbText
 10
12599.21703198606
 20
7381.42964618754
 30
0.0
 40
90.0
  1
4200
 50
90.0
 41
0.6666666666666666
  7
00
100
AcDbText
  0
ENDBLK
  5
19F68
330
19F65
100
AcDbEntity
  8
0
100
AcDbBlockEnd
  0
BLOCK
  5
19F6A
330
19F69
100
AcDbEntity
  8
0
100
AcDbBlockBegin
  2
*U34
 70
     1
 10
0.0
 20
0.0
 30
0.0
  3
*U34
  1

  0
TEXT
  5
19F6B
330
19F69
100
AcDbEntity
  8
SUNPOU
100
AcDbText
 10
12389.21703198605
 20
5460.001074758969
 30
0.0
 40
90.0
  1
300
 50
90.0
 41
0.6666666666666666
  7
00
100
AcDbText
  0
ENDBLK
  5
19F6C
330
19F69
100
AcDbEntity
  8
0
100
AcDbBlockEnd
  0
BLOCK
  5
19F6E
330
19F6D
100
AcDbEntity
  8
0
100
AcDbBlockBegin
  2
*U35
 70
     1
 10
0.0
 20
0.0
 30
0.0
  3
*U35
  1

  0
TEXT
  5
19F6F
330
19F6D
100
AcDbEntity
  8
SUNPOU
100
AcDbText
 10
12389.21703198605
 20
6477.143931901827
 30
0.0
 40
90.0
  1
1800
 50
90.0
 41
0.6666666666666666
  7
00
100
AcDbText
  0
ENDBLK
  5
19F70
330
19F6D
100
AcDbEntity
  8
0
100
AcDbBlockEnd
  0
BLOCK
  5
19F72
330
19F71
100
AcDbEntity
  8
0
100
AcDbBlockBegin
  2
*U36
 70
     1
 10
0.0
 20
0.0
 30
0.0
  3
*U36
  1

  0
TEXT
  5
19F73
330
19F71
100
AcDbEntity
  8
SUNPOU
100
AcDbText
 10
12389.21703198605
 20
8277.143931901829
 30
0.0
 40
90.0
  1
1800
 50
90.0
 41
0.6666666666666666
  7
00
100
AcDbText
  0
ENDBLK
  5
19F74
330
19F71
100
AcDbEntity
  8
0
100
AcDbBlockEnd
  0
BLOCK
  5
19F76
330
19F75
100
AcDbEntity
  8
0
100
AcDbBlockBegin
  2
*U37
 70
     1
 10
0.0
 20
0.0
 30
0.0
  3
*U37
  1

  0
TEXT
  5
19F77
330
19F75
100
AcDbEntity
  8
SUNPOU
100
AcDbText
 10
12389.21703198605
 20
9360.001074758967
 30
0.0
 40
90.0
  1
300
 50
90.0
 41
0.6666666666666666
  7
00
100
AcDbText
  0
ENDBLK
  5
19F78
330
19F75
100
AcDbEntity
  8
0
100
AcDbBlockEnd
  0
BLOCK
  5
19F7A
330
19F79
100
AcDbEntity
  8
0
100
AcDbBlockBegin
  2
*U38
 70
     1
 10
0.0
 20
0.0
 30
0.0
  3
*U38
  1

  0
TEXT
  5
19F7B
330
19F79
100
AcDbEntity
  8
SUNPOU
100
AcDbText
 10
3835.443655266704
 20
3508.113410848177
 30
0.0
 40
90.0
  1
80
 50
90.0
 41
0.6666666666666666
  7
00
100
AcDbText
  0
ENDBLK
  5
19F7C
330
19F79
100
AcDbEntity
  8
0
100
AcDbBlockEnd
  0
BLOCK
  5
19F7E
330
19F7D
100
AcDbEntity
  8
0
100
AcDbBlockBegin
  2
*U39
 70
     1
 10
0.0
 20
0.0
 30
0.0
  3
*U39
  1

  0
TEXT
  5
19F7F
330
19F7D
100
AcDbEntity
  8
SUNPOU
100
AcDbText
 10
3625.443655266705
 20
2918.17055370532
 30
0.0
 40
90.0
  1
560
 50
90.0
 41
0.6666666666666666
  7
00
100
AcDbText
  0
ENDBLK
  5
19F80
330
19F7D
100
AcDbEntity
  8
0
100
AcDbBlockEnd
  0
BLOCK
  5
19F82
330
19F81
100
AcDbEntity
  8
0
100
AcDbBlockBegin
  2
*U40
 70
     1
 10
0.0
 20
0.0
 30
0.0
  3
*U40
  1

  0
TEXT
  5
19F83
330
19F81
100
AcDbEntity
  8
SUNPOU
100
AcDbText
 10
7720.502746271773
 20
10250.71536047325
 30
0.0
 40
90.0
  1
L = 2800 x N + 800
 41
0.6666666666666666
  7
00
100
AcDbText
  0
ENDBLK
  5
19F84
330
19F81
100
AcDbEntity
  8
0
100
AcDbBlockEnd
  0
BLOCK
  5
19F86
330
19F85
100
AcDbEntity
  8
0
100
AcDbBlockBegin
  2
*U41
 70
     1
 10
0.0
 20
0.0
 30
0.0
  3
*U41
  1

  0
TEXT
  5
19F87
330
19F85
100
AcDbEntity
  8
SUNPOU
100
AcDbText
 10
7405.76985579035
 20
2918.17055370532
 30
0.0
 40
90.0
  1
560
 50
90.0
 41
0.6666666666666666
  7
00
100
AcDbText
  0
ENDBLK
  5
19F88
330
19F85
100
AcDbEntity
  8
0
100
AcDbBlockEnd
  0
BLOCK
  5
19F8A
330
19F89
100
AcDbEntity
  8
0
100
AcDbBlockBegin
  2
*U42
 70
     1
 10
0.0
 20
0.0
 30
0.0
  3
*U42
  1

  0
TEXT
  5
19F8B
330
19F89
100
AcDbEntity
  8
SUNPOU
100
AcDbText
 10
7615.76985579035
 20
2328.227696562461
 30
0.0
 40
90.0
  1
100
 50
90.0
 41
0.6666666666666666
  7
00
100
AcDbText
  0
ENDBLK
  5
19F8C
330
19F89
100
AcDbEntity
  8
0
100
AcDbBlockEnd
  0
BLOCK
  5
19F8E
330
19F8D
100
AcDbEntity
  8
0
100
AcDbBlockBegin
  2
*U43
 70
     1
 10
0.0
 20
0.0
 30
0.0
  3
*U43
  1

  0
TEXT
  5
19F8F
330
19F8D
100
AcDbEntity
  8
SUNPOU
100
AcDbText
 10
7615.76985579035
 20
2865.37055370532
 30
0.0
 40
90.0
  1
300
 50
90.0
 41
0.6666666666666666
  7
00
100
AcDbText
  0
ENDBLK
  5
19F90
330
19F8D
100
AcDbEntity
  8
0
100
AcDbBlockEnd
  0
BLOCK
  5
19F92
330
19F91
100
AcDbEntity
  8
0
100
AcDbBlockBegin
  2
*U44
 70
     1
 10
0.0
 20
0.0
 30
0.0
  3
*U44
  1

  0
TEXT
  5
19F93
330
19F91
100
AcDbEntity
  8
SUNPOU
100
AcDbText
 10
7615.76985579035
 20
3508.113410848177
 30
0.0
 40
90.0
  1
80
 50
90.0
 41
0.6666666666666666
  7
00
100
AcDbText
  0
ENDBLK
  5
19F94
330
19F91
100
AcDbEntity
  8
0
100
AcDbBlockEnd
  0
BLOCK
  5
19F96
330
19F95
100
AcDbEntity
  8
0
100
AcDbBlockBegin
  2
*U45
 70
     1
 10
0.0
 20
0.0
 30
0.0
  3
*U45
  1

  0
TEXT
  5
19F97
330
19F95
100
AcDbEntity
  8
SUNPOU
100
AcDbText
 10
7615.76985579035
 20
3197.941982276748
 30
0.0
 40
90.0
  1
80
 50
90.0
 41
0.6666666666666666
  7
00
100
AcDbText
  0
ENDBLK
  5
19F98
330
19F95
100
AcDbEntity
  8
0
100
AcDbBlockEnd
  0
BLOCK
  5
19F9A
330
19F99
100
AcDbEntity
  8
0
100
AcDbBlockBegin
  2
*U46
 70
     1
 10
0.0
 20
0.0
 30
0.0
  3
*U46
  1

  0
TEXT
  5
19F9B
330
19F99
100
AcDbEntity
  8
SUNPOU
100
AcDbText
 10
8461.551823219677
 20
1983.684839419604
 30
0.0
 40
90.0
  1
1000
 41
0.6666666666666666
  7
00
100
AcDbText
  0
ENDBLK
  5
19F9C
330
19F99
100
AcDbEntity
  8
0
100
AcDbBlockEnd
  0
BLOCK
  5
19F9E
330
19F9D
100
AcDbEntity
  8
0
100
AcDbBlockBegin
  2
*U47
 70
     1
 10
0.0
 20
0.0
 30
0.0
  3
*U47
  1

  0
TEXT
  5
19F9F
330
19F9D
100
AcDbEntity
  8
SUNPOU
100
AcDbText
 10
8494.408966076823
 20
2193.684839419605
 30
0.0
 40
90.0
  1
800
 41
0.6666666666666666
  7
00
100
AcDbText
  0
ENDBLK
  5
19FA0
330
19F9D
100
AcDbEntity
  8
0
100
AcDbBlockEnd
  0
ENDSEC
  0
SECTION
  2
ENTITIES
  0
TEXT
  5
19FA1
330
19EB5
100
AcDbEntity
  8
NAME
100
AcDbText
 10
12303.32857318295
 20
1055.0
 30
0.0
 40
120.0
  1
Y O K C
 41
0.6666666666666666
  7
00
100
AcDbText
  0
TEXT
  5
19FA2
330
19EB5
100
AcDbEntity
  8
NAME
100
AcDbText
 10
11227.73587134625
 20
1055.0
 30
0.0
 40
120.0
  1
ヨド自転車置場　　　  型
  7
01
100
AcDbText
  0
TEXT
  5
19FA3
330
19EB5
100
AcDbEntity
  8
NAME
100
AcDbText
 10
10824.07508082364
 20
875.0
 30
0.0
 40
120.0
  1
背合せタイプ（アンカープレート方式）
  7
01
 72
     4
 11
12072.07508082364
 21
935.0
 31
0.0
100
AcDbText
  0
TEXT
  5
19FA4
330
19EB5
100
AcDbEntity
  8
NAME
100
AcDbText
 10
12854.79999999999
 20
541.0000000000001
 30
0.0
 40
160.0
  1
<3／3>
 41
0.6
  7
01
 72
     2
 11
13354.0
 21
541.0000000000001
 31
0.0
100
AcDbText
  0
TEXT
  5
19FA5
330
19EB5
100
AcDbEntity
  8
NAME
100
AcDbText
 10
10896.04264730428
 20
541.0
 30
0.0
 40
160.0
  1
YOKC-280
 41
0.7
  7
01
 72
     2
 11
11776.04264730429
 21
541.0
 31
0.0
100
AcDbText
  0
TEXT
  5
19FA6
330
19EB5
100
AcDbEntity
  8
NAME
100
AcDbText
 10
11816.04264730429
 20
541.0
 30
0.0
 40
160.0
  1
型（一般地用）
 41
0.8
  7
01
100
AcDbText
  0
LINE
  5
19FA7
330
19EB5
100
AcDbEntity
  8
CENTER
  6
1PL-M
100
AcDbLine
 10
8834.21703198606
 20
8245.715360473253
 30
0.0
 11
8834.21703198606
 21
9695.715360473252
 31
0.0
  0
LINE
  5
19FA8
330
19EB5
100
AcDbEntity
  8
CENTER
  6
1PL-M
100
AcDbLine
 10
8244.217031986062
 20
7495.715360473251
 30
0.0
 11
9369.217031986059
 21
7495.715360473251
 31
0.0
  0
LINE
  5
19FA9
330
19EB5
100
AcDbEntity
  8
CENTER
  6
1PL-M
100
AcDbLine
 10
4264.217031986058
 20
7495.715360473251
 30
0.0
 11
8124.217031986061
 21
7495.715360473251
 31
0.0
  0
LINE
  5
19FAA
330
19EB5
100
AcDbEntity
  8
CENTER
  6
1PL-M
100
AcDbLine
 10
8244.217031986062
 20
5695.715360473253
 30
0.0
 11
9274.217031986065
 21
5695.715360473253
 31
0.0
  0
LINE
  5
19FAB
330
19EB5
100
AcDbEntity
  8
CENTER
  6
1PL-M
100
AcDbLine
 10
8244.217031986062
 20
9295.715360473252
 30
0.0
 11
12479.21703198606
 21
9295.715360473252
 31
0.0
  0
TEXT
  5
19FAC
330
19EB5
100
AcDbEntity
  8
SUNPOU
100
AcDbText
 10
10881.34907160025
 20
4902.649361983672
 30
0.0
 40
90.0
  1
（  ：スパン数）
  7
01
 11
10881.34907160025
 21
4947.649361983672
 31
0.0
100
AcDbText
 73
     2
  0
TEXT
  5
19FAD
330
19EB5
100
AcDbEntity
  8
SUNPOU
100
AcDbText
 10
11011.81028265175
 20
4902.649361983672
 30
0.0
 40
90.0
  1
N
 41
0.6666666666666666
  7
00
 72
     4
 11
11043.23885408032
 21
4947.649361983672
 31
0.0
100
AcDbText
  0
LINE
  5
19FAE
330
19EB5
100
AcDbEntity
  8
CENTER
  6
1PL-M
100
AcDbLine
 10
4264.217031986058
 20
5695.715360473253
 30
0.0
 11
8124.217031986061
 21
5695.715360473253
 31
0.0
  0
LINE
  5
19FAF
330
19EB5
100
AcDbEntity
  8
CENTER
  6
1PL-M
100
AcDbLine
 10
6982.96703198606
 20
9295.715360473252
 30
0.0
 11
8124.217031986061
 21
9295.715360473252
 31
0.0
  0
LINE
  5
19FB0
330
19EB5
100
AcDbEntity
  8
SUNPOU
100
AcDbLine
 10
8124.217031986061
 20
9685.715360473253
 30
0.0
 11
8124.217031986061
 21
5275.715360473252
 31
0.0
  0
LINE
  5
19FB1
330
19EB5
100
AcDbEntity
  8
CENTER
  6
1PL-M
100
AcDbLine
 10
4734.21703198606
 20
5295.715360473253
 30
0.0
 11
4734.21703198606
 21
9695.715360473252
 31
0.0
  0
LINE
  5
19FB2
330
19EB5
100
AcDbEntity
  8
CENTER
  6
1PL-M
100
AcDbLine
 10
7534.217031986059
 20
8845.715360473255
 30
0.0
 11
7534.217031986059
 21
9695.715360473252
 31
0.0
  0
LINE
  5
19FB3
330
19EB5
100
AcDbEntity
  8
CENTER
  6
1PL-M
100
AcDbLine
 10
7534.217031986059
 20
5295.715360473253
 30
0.0
 11
7534.217031986059
 21
8650.715360473251
 31
0.0
  0
LINE
  5
19FB4
330
19EB5
100
AcDbEntity
  8
CENTER
  6
1PL-M
100
AcDbLine
 10
4264.217031986058
 20
9295.715360473252
 30
0.0
 11
6784.217031986064
 21
9295.715360473252
 31
0.0
  0
LINE
  5
19FB5
330
19EB5
100
AcDbEntity
  8
CENTER
  6
1PL-M
100
AcDbLine
 10
9469.217031986065
 20
5695.715360473253
 30
0.0
 11
12479.21703198606
 21
5695.715360473253
 31
0.0
  0
LINE
  5
19FB6
330
19EB5
100
AcDbEntity
  8
SUNPOU
100
AcDbLine
 10
8244.217031986062
 20
9685.715360473253
 30
0.0
 11
8244.217031986062
 21
5275.715360473252
 31
0.0
  0
LINE
  5
19FB7
330
19EB5
100
AcDbEntity
  8
CENTER
  6
1PL-M
100
AcDbLine
 10
11634.21703198606
 20
5295.715360473253
 30
0.0
 11
11634.21703198606
 21
9695.715360473252
 31
0.0
  0
LINE
  5
19FB8
330
19EB5
100
AcDbEntity
  8
CENTER
  6
1PL-M
100
AcDbLine
 10
8834.21703198606
 20
5295.715360473253
 30
0.0
 11
8834.21703198606
 21
6200.715360473253
 31
0.0
  0
LINE
  5
19FB9
330
19EB5
100
AcDbEntity
  8
CENTER
  6
1PL-M
100
AcDbLine
 10
8834.21703198606
 20
6395.715360473253
 30
0.0
 11
8834.21703198606
 21
8020.715360473252
 31
0.0
  0
LINE
  5
19FBA
330
19EB5
100
AcDbEntity
  8
SUNPOU
100
AcDbLine
 10
8834.21703198606
 20
9725.715360473252
 30
0.0
 11
8834.21703198606
 21
10040.71536047325
 31
0.0
  0
LINE
  5
19FBB
330
19EB5
100
AcDbEntity
  8
SUNPOU
100
AcDbLine
 10
7534.217031986059
 20
9725.715360473252
 30
0.0
 11
7534.217031986059
 21
10040.71536047325
 31
0.0
  0
LINE
  5
19FBC
330
19EB5
100
AcDbEntity
  8
SUNPOU
100
AcDbLine
 10
8819.21703198606
 20
9995.715360473253
 30
0.0
 11
7549.21703198606
 21
9995.715360473253
 31
0.0
  0
TEXT
  5
19FBD
330
19EB5
100
AcDbEntity
  8
HIKIDASHI
100
AcDbText
 10
5749.264373012014
 20
9740.715360473252
 30
0.0
 40
90.0
  1
（鼻隠し外面）
  7
01
100
AcDbText
  0
TEXT
  5
19FBE
330
19EB5
100
AcDbEntity
  8
HIKIDASHI
100
AcDbText
 10
5665.155771095992
 20
9455.715360473243
 30
0.0
 40
90.0
  1
（土間コン後面位置）
  7
01
100
AcDbText
  0
SOLID
  5
19FBF
330
19EB5
100
AcDbEntity
  8
SUNPOU
100
AcDbTrace
 10
4099.471366614859
 20
5905.715360473253
 30
0.0
 11
4129.47136661486
 21
5905.715360473253
 31
0.0
 12
4114.47136661486
 22
5995.715360473253
 32
0.0
 13
4114.47136661486
 23
5995.715360473253
 33
0.0
  0
TEXT
  5
19FC0
330
19EB5
100
AcDbEntity
  8
SUNPOU
100
AcDbText
 10
4088.628509471999
 20
6040.715360473253
 30
0.0
 40
90.0
  1
A
 41
0.6700000000000001
  7
00
 72
     4
 11
4114.471366614856
 21
6085.715360473253
 31
0.0
100
AcDbText
  0
LINE
  5
19FC1
330
19EB5
100
AcDbEntity
  8
SUNPOU
100
AcDbLine
 10
4114.47136661486
 20
5905.715360473253
 30
0.0
 11
4114.47136661486
 21
5695.715360473253
 31
0.0
  0
LINE
  5
19FC2
330
19EB5
100
AcDbEntity
  8
SUNPOU
100
AcDbLine
 10
4114.47136661486
 20
5695.715360473253
 30
0.0
 11
4264.47136661486
 21
5695.715360473253
 31
0.0
  0
LINE
  5
19FC3
330
19EB5
100
AcDbEntity
  8
SUNPOU
100
AcDbLine
 10
5219.630294679762
 20
5695.715360473253
 30
0.0
 11
5069.630294679758
 21
5695.715360473253
 31
0.0
  0
LINE
  5
19FC4
330
19EB5
100
AcDbEntity
  8
SUNPOU
100
AcDbLine
 10
5219.630294679762
 20
5905.715360473253
 30
0.0
 11
5219.630294679762
 21
5695.715360473253
 31
0.0
  0
TEXT
  5
19FC5
330
19EB5
100
AcDbEntity
  8
SUNPOU
100
AcDbText
 10
5183.737437536905
 20
6032.143931901824
 30
0.0
 40
90.0
  1
A'
 41
0.6700000000000001
  7
00
 72
     4
 11
5219.630294679762
 21
6085.715360473253
 31
0.0
100
AcDbText
  0
SOLID
  5
19FC6
330
19EB5
100
AcDbEntity
  8
SUNPOU
100
AcDbTrace
 10
5234.630294679762
 20
5905.715360473253
 30
0.0
 11
5204.630294679763
 21
5905.715360473253
 31
0.0
 12
5219.630294679762
 22
5995.715360473253
 32
0.0
 13
5219.630294679762
 23
5995.715360473253
 33
0.0
  0
TEXT
  5
19FC7
330
19EB5
100
AcDbEntity
  8
HIKIDASHI
100
AcDbText
 10
5749.264373012014
 20
5160.715360473254
 30
0.0
 40
90.0
  1
（鼻隠し外面）
  7
01
100
AcDbText
  0
TEXT
  5
19FC8
330
19EB5
100
AcDbEntity
  8
HIKIDASHI
100
AcDbText
 10
5665.155771095992
 20
5445.71536047326
 30
0.0
 40
90.0
  1
（土間コン前面位置）
  7
01
100
AcDbText
  0
TEXT
  5
19FC9
330
19EB5
100
AcDbEntity
  8
HIKIDASHI
100
AcDbText
 10
8772.515803529449
 20
4879.531802304223
 30
0.0
 40
80.0
  1
)
 41
0.6700000000000001
  7
00
100
AcDbText
  0
TEXT
  5
19FCA
330
19EB5
100
AcDbEntity
  8
HIKIDASHI
100
AcDbText
 10
8571.657054840066
 20
4895.09328005242
 30
0.0
 40
80.0
  1
1
 41
0.6700000000000001
  7
00
100
AcDbText
  0
TEXT
  5
19FCB
330
19EB5
100
AcDbEntity
  8
HIKIDASHI
100
AcDbText
 10
8604.794192704373
 20
4879.531802304223
 30
0.0
 40
80.0
  1
/
 41
0.6700000000000001
  7
00
100
AcDbText
  0
TEXT
  5
19FCC
330
19EB5
100
AcDbEntity
  8
HIKIDASHI
100
AcDbText
 10
8651.089347467019
 20
4853.363971103946
 30
0.0
 40
80.0
  1
40
 41
0.6700000000000001
  7
00
100
AcDbText
  0
TEXT
  5
19FCD
330
19EB5
100
AcDbEntity
  8
HIKIDASHI
100
AcDbText
 10
8390.949138902394
 20
4879.531802304223
 30
0.0
 40
80.0
  1
(S=
 41
0.6700000000000001
  7
00
100
AcDbText
  0
TEXT
  5
19FCE
330
19EB5
100
AcDbEntity
  8
HIKIDASHI
100
AcDbText
 10
7548.949138902393
 20
4855.715360473254
 30
0.0
 40
120.0
  1
基 礎 伏 図
  7
01
 72
     2
 11
8300.949138902394
 21
4855.715360473254
 31
0.0
100
AcDbText
  0
CIRCLE
  5
19FCF
330
19EB5
100
AcDbEntity
  8
HASHIRA
100
AcDbCircle
 10
4734.21703198606
 20
5635.715360473253
 30
0.0
 40
9.0
  0
CIRCLE
  5
19FD0
330
19EB5
100
AcDbEntity
  8
HASHIRA
100
AcDbCircle
 10
4734.21703198606
 20
5755.715360473253
 30
0.0
 40
9.0
  0
CIRCLE
  5
19FD1
330
19EB5
100
AcDbEntity
  8
HASHIRA
100
AcDbCircle
 10
4734.21703198606
 20
7435.715360473253
 30
0.0
 40
9.0
  0
CIRCLE
  5
19FD2
330
19EB5
100
AcDbEntity
  8
HASHIRA
100
AcDbCircle
 10
4734.21703198606
 20
7555.715360473254
 30
0.0
 40
9.0
  0
CIRCLE
  5
19FD3
330
19EB5
100
AcDbEntity
  8
HASHIRA
100
AcDbCircle
 10
4734.21703198606
 20
9235.715360473252
 30
0.0
 40
9.0
  0
CIRCLE
  5
19FD4
330
19EB5
100
AcDbEntity
  8
HASHIRA
100
AcDbCircle
 10
4734.21703198606
 20
9355.715360473253
 30
0.0
 40
9.0
  0
CIRCLE
  5
19FD5
330
19EB5
100
AcDbEntity
  8
HASHIRA
100
AcDbCircle
 10
7534.217031986059
 20
5635.715360473253
 30
0.0
 40
9.0
  0
CIRCLE
  5
19FD6
330
19EB5
100
AcDbEntity
  8
HASHIRA
100
AcDbCircle
 10
7534.217031986059
 20
5755.715360473253
 30
0.0
 40
9.0
  0
CIRCLE
  5
19FD7
330
19EB5
100
AcDbEntity
  8
HASHIRA
100
AcDbCircle
 10
7534.217031986059
 20
7435.715360473253
 30
0.0
 40
9.0
  0
CIRCLE
  5
19FD8
330
19EB5
100
AcDbEntity
  8
HASHIRA
100
AcDbCircle
 10
7534.217031986059
 20
7555.715360473254
 30
0.0
 40
9.0
  0
CIRCLE
  5
19FD9
330
19EB5
100
AcDbEntity
  8
HASHIRA
100
AcDbCircle
 10
7534.217031986059
 20
9235.715360473252
 30
0.0
 40
9.0
  0
CIRCLE
  5
19FDA
330
19EB5
100
AcDbEntity
  8
HASHIRA
100
AcDbCircle
 10
7534.217031986059
 20
9355.715360473253
 30
0.0
 40
9.0
  0
CIRCLE
  5
19FDB
330
19EB5
100
AcDbEntity
  8
HASHIRA
100
AcDbCircle
 10
8834.21703198606
 20
5635.715360473253
 30
0.0
 40
9.0
  0
CIRCLE
  5
19FDC
330
19EB5
100
AcDbEntity
  8
HASHIRA
100
AcDbCircle
 10
8834.21703198606
 20
5755.715360473253
 30
0.0
 40
9.0
  0
CIRCLE
  5
19FDD
330
19EB5
100
AcDbEntity
  8
HASHIRA
100
AcDbCircle
 10
8834.21703198606
 20
7435.715360473253
 30
0.0
 40
9.0
  0
CIRCLE
  5
19FDE
330
19EB5
100
AcDbEntity
  8
HASHIRA
100
AcDbCircle
 10
8834.21703198606
 20
7555.715360473254
 30
0.0
 40
9.0
  0
CIRCLE
  5
19FDF
330
19EB5
100
AcDbEntity
  8
HASHIRA
100
AcDbCircle
 10
8834.21703198606
 20
9235.715360473252
 30
0.0
 40
9.0
  0
CIRCLE
  5
19FE0
330
19EB5
100
AcDbEntity
  8
HASHIRA
100
AcDbCircle
 10
8834.21703198606
 20
9355.715360473253
 30
0.0
 40
9.0
  0
CIRCLE
  5
19FE1
330
19EB5
100
AcDbEntity
  8
HASHIRA
100
AcDbCircle
 10
11634.21703198606
 20
5635.715360473253
 30
0.0
 40
9.0
  0
CIRCLE
  5
19FE2
330
19EB5
100
AcDbEntity
  8
HASHIRA
100
AcDbCircle
 10
11634.21703198606
 20
5755.715360473253
 30
0.0
 40
9.0
  0
CIRCLE
  5
19FE3
330
19EB5
100
AcDbEntity
  8
HASHIRA
100
AcDbCircle
 10
11634.21703198606
 20
7435.715360473253
 30
0.0
 40
9.0
  0
CIRCLE
  5
19FE4
330
19EB5
100
AcDbEntity
  8
HASHIRA
100
AcDbCircle
 10
11634.21703198606
 20
7555.715360473254
 30
0.0
 40
9.0
  0
CIRCLE
  5
19FE5
330
19EB5
100
AcDbEntity
  8
HASHIRA
100
AcDbCircle
 10
11634.21703198606
 20
9235.715360473252
 30
0.0
 40
9.0
  0
CIRCLE
  5
19FE6
330
19EB5
100
AcDbEntity
  8
HASHIRA
100
AcDbCircle
 10
11634.21703198606
 20
9355.715360473253
 30
0.0
 40
9.0
  0
LINE
  5
19FE7
330
19EB5
100
AcDbEntity
  8
1PL-M1
100
AcDbLine
 10
4799.797051267463
 20
2428.172125878786
 30
0.0
 11
4799.797051267463
 21
4175.485411556191
 31
0.0
  0
LINE
  5
19FE8
330
19EB5
100
AcDbEntity
  8
KISO
100
AcDbLine
 10
6082.193774006775
 20
3456.684839419605
 30
0.0
 11
4851.797051267459
 21
3456.684839419605
 31
0.0
  0
LINE
  5
19FE9
330
19EB5
100
AcDbEntity
  8
KISO
100
AcDbLine
 10
6082.193774006776
 20
3319.084839419605
 30
0.0
 11
4319.797051267466
 21
3319.084839419603
 31
0.0
  0
LINE
  5
19FEA
330
19EB5
100
AcDbEntity
  8
HATCH
100
AcDbLine
 10
5031.155511458886
 20
3456.684839419605
 30
0.0
 11
4893.555511458895
 21
3319.084839419606
 31
0.0
  0
LINE
  5
19FEB
330
19EB5
100
AcDbEntity
  8
U3
100
AcDbLine
 10
3353.961658022964
 20
3376.684839419603
 30
0.0
 11
3521.961658022965
 21
3208.684839419607
 31
0.0
  0
LINE
  5
19FEC
330
19EB5
100
AcDbEntity
  8
U3
100
AcDbLine
 10
3303.049969777532
 20
3325.773151174173
 30
0.0
 11
3420.1382815321
 21
3208.684839419603
 31
0.0
  0
LINE
  5
19FED
330
19EB5
100
AcDbEntity
  8
U3
100
AcDbLine
 10
3589.820095533321
 20
3376.684839419604
 30
0.0
 11
3017.961658022965
 21
3376.684839419604
 31
0.0
  0
LINE
  5
19FEE
330
19EB5
100
AcDbEntity
  8
U3
100
AcDbLine
 10
3084.1382815321
 20
3310.508215910466
 30
0.0
 11
3150.314905041233
 21
3376.684839419601
 31
0.0
  0
LINE
  5
19FEF
330
19EB5
100
AcDbEntity
  8
U3
100
AcDbLine
 10
3017.961658022965
 20
3376.684839419601
 30
0.0
 11
3185.961658022964
 21
3208.684839419606
 31
0.0
  0
LINE
  5
19FF0
330
19EB5
100
AcDbEntity
  8
U3
100
AcDbLine
 10
3135.049969777532
 20
3259.596527665037
 30
0.0
 11
3252.1382815321
 21
3376.684839419601
 31
0.0
  0
LINE
  5
19FF1
330
19EB5
100
AcDbEntity
  8
U3
100
AcDbLine
 10
3185.961658022964
 20
3208.684839419606
 30
0.0
 11
3353.961658022964
 21
3376.684839419603
 31
0.0
  0
LINE
  5
19FF2
330
19EB5
100
AcDbEntity
  8
U3
100
AcDbLine
 10
3252.1382815321
 20
3274.86146292874
 30
0.0
 11
3318.314905041237
 21
3208.684839419603
 31
0.0
  0
LINE
  5
19FF3
330
19EB5
100
AcDbEntity
  8
U3
100
AcDbLine
 10
3521.961658022965
 20
3208.684839419607
 30
0.0
 11
3589.820095533321
 21
3276.543276929964
 31
0.0
  0
LINE
  5
19FF4
330
19EB5
100
AcDbEntity
  8
U3
100
AcDbLine
 10
3420.1382815321
 20
3310.508215910469
 30
0.0
 11
3486.314905041234
 21
3376.684839419603
 31
0.0
  0
LINE
  5
19FF5
330
19EB5
100
AcDbEntity
  8
U3
100
AcDbLine
 10
3471.049969777533
 20
3259.596527665038
 30
0.0
 11
3588.138281532103
 21
3376.684839419603
 31
0.0
  0
LINE
  5
19FF6
330
19EB5
100
AcDbEntity
  8
HASHIRA
100
AcDbLine
 10
4851.797051267459
 20
3328.684839419608
 30
0.0
 11
4851.797051267459
 21
3718.91804462035
 31
0.0
  0
LINE
  5
19FF7
330
19EB5
100
AcDbEntity
  8
HASHIRA
100
AcDbLine
 10
4747.797051267458
 20
3718.91804462035
 30
0.0
 11
4747.797051267458
 21
3328.684839419608
 31
0.0
  0
LINE
  5
19FF8
330
19EB5
100
AcDbEntity
  8
U3
100
AcDbLine
 10
4319.797051267463
 20
3376.684839419605
 30
0.0
 11
3909.820095533321
 21
3376.684839419603
 31
0.0
  0
LINE
  5
19FF9
330
19EB5
100
AcDbEntity
  8
U3
100
AcDbLine
 10
4098.782873409589
 20
3310.508215910469
 30
0.0
 11
4159.797051267463
 21
3371.522393768344
 31
0.0
  0
LINE
  5
19FFA
330
19EB5
100
AcDbEntity
  8
U3
100
AcDbLine
 10
4032.606249900456
 20
3376.684839419603
 30
0.0
 11
4159.797051267463
 21
3249.494038052592
 31
0.0
  0
LINE
  5
19FFB
330
19EB5
100
AcDbEntity
  8
U3
100
AcDbLine
 10
3975.765342899848
 20
3331.702369929347
 30
0.0
 11
4098.782873409595
 21
3208.684839419603
 31
0.0
  0
LINE
  5
19FFC
330
19EB5
100
AcDbEntity
  8
KISO
100
AcDbLine
 10
4747.797051267458
 20
3456.684839419605
 30
0.0
 11
4319.797051267466
 21
3456.684839419605
 31
0.0
  0
LINE
  5
19FFD
330
19EB5
100
AcDbEntity
  8
HATCH
100
AcDbLine
 10
4831.314626963208
 20
3319.08483941961
 30
0.0
 11
4810.197051267466
 21
3297.967263723867
 31
0.0
  0
LINE
  5
19FFE
330
19EB5
100
AcDbEntity
  8
KISO
100
AcDbLine
 10
5279.797051267472
 20
3191.084839419603
 30
0.0
 11
6082.193774006776
 21
3191.084839419605
 31
0.0
  0
LINE
  5
19FFF
330
19EB5
100
AcDbEntity
  8
HATCH
100
AcDbLine
 10
6038.673087154623
 20
3456.684839419603
 30
0.0
 11
5901.073087154634
 21
3319.084839419605
 31
0.0
  0
LINE
  5
1A000
330
19EB5
100
AcDbEntity
  8
HATCH
100
AcDbLine
 10
6086.190662850363
 20
3456.684839419603
 30
0.0
 11
5948.590662850365
 21
3319.084839419605
 31
0.0
  0
LINE
  5
1A001
330
19EB5
100
AcDbEntity
  8
HATCH
100
AcDbLine
 10
5511.155511458887
 20
3456.684839419605
 30
0.0
 11
5373.555511458892
 21
3319.084839419606
 31
0.0
  0
LINE
  5
1A002
330
19EB5
100
AcDbEntity
  8
HATCH
100
AcDbLine
 10
5558.673087154621
 20
3456.684839419603
 30
0.0
 11
5421.073087154634
 21
3319.084839419605
 31
0.0
  0
LINE
  5
1A003
330
19EB5
100
AcDbEntity
  8
HATCH
100
AcDbLine
 10
5126.190662850362
 20
3456.684839419603
 30
0.0
 11
4988.590662850366
 21
3319.084839419605
 31
0.0
  0
LINE
  5
1A004
330
19EB5
100
AcDbEntity
  8
HATCH
100
AcDbLine
 10
5078.673087154623
 20
3456.684839419603
 30
0.0
 11
4941.073087154634
 21
3319.084839419605
 31
0.0
  0
LINE
  5
1A005
330
19EB5
100
AcDbEntity
  8
HATCH
100
AcDbLine
 10
5606.190662850362
 20
3456.684839419603
 30
0.0
 11
5468.590662850367
 21
3319.084839419605
 31
0.0
  0
LINE
  5
1A006
330
19EB5
100
AcDbEntity
  8
HATCH
100
AcDbLine
 10
5991.155511458885
 20
3456.684839419605
 30
0.0
 11
5853.555511458891
 21
3319.084839419606
 31
0.0
  0
LINE
  5
1A007
330
19EB5
100
AcDbEntity
  8
KISO
100
AcDbLine
 10
4319.797051267466
 20
3456.684839419605
 30
0.0
 11
4319.797051267466
 21
2711.084839419605
 31
0.0
  0
LINE
  5
1A008
330
19EB5
100
AcDbEntity
  8
KISO
100
AcDbLine
 10
5279.797051267466
 20
3319.084839419603
 30
0.0
 11
5279.797051267466
 21
2711.084839419605
 31
0.0
  0
LINE
  5
1A009
330
19EB5
100
AcDbEntity
  8
HATCH
100
AcDbLine
 10
5279.797051267466
 20
2903.567263723863
 30
0.0
 11
5087.314626963208
 21
2711.084839419605
 31
0.0
  0
LINE
  5
1A00A
330
19EB5
100
AcDbEntity
  8
HATCH
100
AcDbLine
 10
5279.797051267466
 20
3288.049688028129
 30
0.0
 11
4702.832202658948
 21
2711.084839419605
 31
0.0
  0
LINE
  5
1A00B
330
19EB5
100
AcDbEntity
  8
HATCH
100
AcDbLine
 10
5263.314626963204
 20
3319.084839419601
 30
0.0
 11
4810.197051267466
 21
2865.96726372386
 31
0.0
  0
LINE
  5
1A00C
330
19EB5
100
AcDbEntity
  8
HATCH
100
AcDbLine
 10
5215.797051267466
 20
3319.084839419601
 30
0.0
 11
4810.197051267466
 21
2913.484839419598
 31
0.0
  0
LINE
  5
1A00D
330
19EB5
100
AcDbEntity
  8
HATCH
100
AcDbLine
 10
5279.797051267466
 20
2856.049688028125
 30
0.0
 11
5134.832202658948
 21
2711.084839419605
 31
0.0
  0
LINE
  5
1A00E
330
19EB5
100
AcDbEntity
  8
HATCH
100
AcDbLine
 10
5279.797051267466
 20
2808.53211233239
 30
0.0
 11
5182.34977835468
 21
2711.084839419605
 31
0.0
  0
LINE
  5
1A00F
330
19EB5
100
AcDbEntity
  8
HATCH
100
AcDbLine
 10
4783.797051267482
 20
3319.08483941961
 30
0.0
 11
4319.797051267466
 21
2855.084839419594
 31
0.0
  0
LINE
  5
1A010
330
19EB5
100
AcDbEntity
  8
HATCH
100
AcDbLine
 10
4736.279475571732
 20
3319.084839419604
 30
0.0
 11
4319.797051267466
 21
2902.602415115334
 31
0.0
  0
LINE
  5
1A011
330
19EB5
100
AcDbEntity
  8
HATCH
100
AcDbLine
 10
4789.397051267463
 20
3277.167263723864
 30
0.0
 11
4319.797051267466
 21
2807.567263723863
 31
0.0
  0
LINE
  5
1A012
330
19EB5
100
AcDbEntity
  8
HATCH
100
AcDbLine
 10
4351.797051267472
 20
3319.084839419603
 30
0.0
 11
4319.797051267466
 21
3287.084839419597
 31
0.0
  0
LINE
  5
1A013
330
19EB5
100
AcDbEntity
  8
HATCH
100
AcDbLine
 10
4789.397051267463
 20
2892.684839419597
 30
0.0
 11
4766.19705126748
 21
2869.48483941961
 31
0.0
  0
LINE
  5
1A014
330
19EB5
100
AcDbEntity
  8
HATCH
100
AcDbLine
 10
4745.397051267482
 20
2848.684839419609
 30
0.0
 11
4607.797051267477
 21
2711.084839419605
 31
0.0
  0
LINE
  5
1A015
330
19EB5
100
AcDbEntity
  8
U3
100
AcDbLine
 10
3924.853654654415
 20
3280.790681683919
 30
0.0
 11
3996.959496918732
 21
3208.684839419603
 31
0.0
  0
LINE
  5
1A016
330
19EB5
100
AcDbEntity
  8
U3
100
AcDbLine
 10
3909.820095533321
 20
3265.757122562824
 30
0.0
 11
4020.747812390101
 21
3376.684839419601
 31
0.0
  0
LINE
  5
1A017
330
19EB5
100
AcDbEntity
  8
HATCH
100
AcDbLine
 10
4792.914626963221
 20
2848.684839419609
 30
0.0
 11
4655.314626963214
 21
2711.084839419605
 31
0.0
  0
LINE
  5
1A018
330
19EB5
100
AcDbEntity
  8
HATCH
100
AcDbLine
 10
4646.190662850361
 20
3456.684839419603
 30
0.0
 11
4508.590662850366
 21
3319.084839419605
 31
0.0
  0
LINE
  5
1A019
330
19EB5
100
AcDbEntity
  8
HATCH
100
AcDbLine
 10
4598.673087154621
 20
3456.684839419603
 30
0.0
 11
4461.073087154633
 21
3319.084839419605
 31
0.0
  0
LINE
  5
1A01A
330
19EB5
100
AcDbEntity
  8
HATCH
100
AcDbLine
 10
4551.155511458886
 20
3456.684839419605
 30
0.0
 11
4413.555511458896
 21
3319.084839419606
 31
0.0
  0
LINE
  5
1A01B
330
19EB5
100
AcDbEntity
  8
SUNPOU
100
AcDbLine
 10
4799.797051267463
 20
4130.485411556192
 30
0.0
 11
6225.027558517715
 21
4130.485411556192
 31
0.0
  0
TEXT
  5
1A01C
330
19EB5
100
AcDbEntity
  8
SUNPOU
100
AcDbText
 10
5585.624750407928
 20
4175.485411556191
 30
0.0
 40
90.0
  1
2800
 41
0.6666666666666666
  7
00
 72
     4
 11
5699.910464693643
 21
4220.485411556191
 31
0.0
100
AcDbText
  0
LINE
  5
1A01D
330
19EB5
100
AcDbEntity
  8
HATCH
100
AcDbLine
 10
4854.393513160306
 20
2551.084839419603
 30
0.0
 11
4946.769555826971
 21
2711.084839419605
 31
0.0
  0
LINE
  5
1A01E
330
19EB5
100
AcDbEntity
  8
HATCH
100
AcDbLine
 10
4893.436222493638
 20
2711.084839419605
 30
0.0
 11
4920.102889160304
 21
2664.89681675294
 31
0.0
  0
LINE
  5
1A01F
330
19EB5
100
AcDbEntity
  8
HATCH
100
AcDbLine
 10
4881.060179826974
 20
2597.272860752934
 30
0.0
 11
4907.726846493638
 21
2551.084839419603
 31
0.0
  0
LINE
  5
1A020
330
19EB5
100
AcDbEntity
  8
HATCH
100
AcDbLine
 10
4681.060179826974
 20
2597.272860752934
 30
0.0
 11
4707.726846493637
 21
2551.084839419603
 31
0.0
  0
LINE
  5
1A021
330
19EB5
100
AcDbEntity
  8
HATCH
100
AcDbLine
 10
4693.436222493637
 20
2711.084839419605
 30
0.0
 11
4720.102889160304
 21
2664.89681675294
 31
0.0
  0
LINE
  5
1A022
330
19EB5
100
AcDbEntity
  8
HATCH
100
AcDbLine
 10
4481.060179826974
 20
2597.272860752934
 30
0.0
 11
4507.726846493638
 21
2551.084839419603
 31
0.0
  0
LINE
  5
1A023
330
19EB5
100
AcDbEntity
  8
HATCH
100
AcDbLine
 10
4454.393513160304
 20
2551.084839419603
 30
0.0
 11
4546.769555826971
 21
2711.084839419605
 31
0.0
  0
LINE
  5
1A024
330
19EB5
100
AcDbEntity
  8
HATCH
100
AcDbLine
 10
4493.436222493636
 20
2711.084839419605
 30
0.0
 11
4520.102889160304
 21
2664.89681675294
 31
0.0
  0
LINE
  5
1A025
330
19EB5
100
AcDbEntity
  8
HATCH
100
AcDbLine
 10
4281.060179826972
 20
2597.272860752934
 30
0.0
 11
4307.726846493639
 21
2551.084839419603
 31
0.0
  0
LINE
  5
1A026
330
19EB5
100
AcDbEntity
  8
HATCH
100
AcDbLine
 10
4293.436222493638
 20
2711.084839419605
 30
0.0
 11
4320.102889160303
 21
2664.89681675294
 31
0.0
  0
LINE
  5
1A027
330
19EB5
100
AcDbEntity
  8
HATCH
100
AcDbLine
 10
4254.393513160304
 20
2551.084839419603
 30
0.0
 11
4346.769555826971
 21
2711.084839419605
 31
0.0
  0
LINE
  5
1A028
330
19EB5
100
AcDbEntity
  8
HATCH
100
AcDbLine
 10
4654.393513160306
 20
2551.084839419603
 30
0.0
 11
4746.769555826971
 21
2711.084839419605
 31
0.0
  0
LINE
  5
1A029
330
19EB5
100
AcDbEntity
  8
HATCH
100
AcDbLine
 10
5093.436222493638
 20
2711.084839419605
 30
0.0
 11
5120.102889160303
 21
2664.89681675294
 31
0.0
  0
LINE
  5
1A02A
330
19EB5
100
AcDbEntity
  8
HATCH
100
AcDbLine
 10
5054.393513160306
 20
2551.084839419603
 30
0.0
 11
5146.769555826971
 21
2711.084839419605
 31
0.0
  0
LINE
  5
1A02B
330
19EB5
100
AcDbEntity
  8
HATCH
100
AcDbLine
 10
5081.060179826973
 20
2597.272860752934
 30
0.0
 11
5107.72684649364
 21
2551.084839419603
 31
0.0
  0
TEXT
  5
1A02C
330
19EB5
100
AcDbEntity
  8
SUNPOU
100
AcDbText
 10
3070.061516132469
 20
3511.684839419604
 30
0.0
 40
90.0
  1
G.L
 41
0.6700000000000001
  7
01
 72
     4
 11
3141.847230418183
 21
3556.684839419605
 31
0.0
100
AcDbText
  0
LINE
  5
1A02D
330
19EB5
100
AcDbEntity
  8
SUNPOU
100
AcDbLine
 10
3193.80875464525
 20
3466.684839419605
 30
0.0
 11
3089.885706191117
 21
3466.684839419605
 31
0.0
  0
LINE
  5
1A02E
330
19EB5
100
AcDbEntity
  8
SUNPOU
100
AcDbLine
 10
3089.885706191117
 20
3466.684839419605
 30
0.0
 11
3141.847230418183
 21
3376.684839419604
 31
0.0
  0
LINE
  5
1A02F
330
19EB5
100
AcDbEntity
  8
SUNPOU
100
AcDbLine
 10
3141.847230418183
 20
3376.684839419604
 30
0.0
 11
3193.80875464525
 21
3466.684839419605
 31
0.0
  0
TEXT
  5
1A030
330
19EB5
100
AcDbEntity
  8
HIKIDASHI
100
AcDbText
 10
4876.000654146238
 20
1664.635820576935
 30
0.0
 40
90.0
  1
断 面
  7
01
100
AcDbText
  0
LINE
  5
1A031
330
19EB5
100
AcDbEntity
  8
HIKIDASHI
100
AcDbLine
 10
4451.983374649677
 20
1619.635820576936
 30
0.0
 11
5147.610727885247
 21
1619.635820576936
 31
0.0
  0
LINE
  5
1A032
330
19EB5
100
AcDbEntity
  8
HIKIDASHI
100
AcDbLine
 10
4451.983374649677
 20
1589.635820576935
 30
0.0
 11
5147.610727885247
 21
1589.635820576935
 31
0.0
  0
TEXT
  5
1A033
330
19EB5
100
AcDbEntity
  8
HIKIDASHI
100
AcDbText
 10
4481.983374649677
 20
1664.635820576935
 30
0.0
 40
90.0
  1
A  ~  A'
 41
0.6700000000000001
  7
00
100
AcDbText
  0
TEXT
  5
1A034
330
19EB5
100
AcDbEntity
  8
HIKIDASHI
100
AcDbText
 10
5718.705531692625
 20
2949.11470702088
 30
0.0
 40
90.0
  1
敷砂利又は砕石
  7
01
 72
     2
 11
6450.705531692626
 21
2994.11470702088
 31
0.0
100
AcDbText
 73
     2
  0
LINE
  5
1A035
330
19EB5
100
AcDbEntity
  8
HIKIDASHI
100
AcDbLine
 10
6475.935832338305
 20
2904.11470702088
 30
0.0
 11
5674.871662611158
 21
2904.11470702088
 31
0.0
  0
TEXT
  5
1A036
330
19EB5
100
AcDbEntity
  8
HIKIDASHI
100
AcDbText
 10
5683.40570439457
 20
2393.304238552882
 30
0.0
 40
90.0
  1
砕　石
  7
01
 72
     2
 11
5983.40570439457
 21
2438.304238552882
 31
0.0
100
AcDbText
 73
     2
  0
LINE
  5
1A037
330
19EB5
100
AcDbEntity
  8
HIKIDASHI
100
AcDbLine
 10
6025.104473630285
 20
2348.304238552882
 30
0.0
 11
5656.338096802658
 21
2348.304238552882
 31
0.0
  0
TEXT
  5
1A038
330
19EB5
100
AcDbEntity
  8
SUNPOU
100
AcDbText
 10
5597.491760556315
 20
2578.884705856377
 30
0.0
 40
90.0
  1
4-D13×4-D13
 41
0.6700000000000001
  7
01
 72
     4
 11
5940.914617699172
 21
2623.884705856377
 31
0.0
100
AcDbText
  0
TEXT
  5
1A039
330
19EB5
100
AcDbEntity
  8
SUNPOU
100
AcDbText
 10
5732.60747484203
 20
2713.884705856377
 30
0.0
 40
90.0
  1
ベース筋
  7
01
 72
     4
 11
5936.60747484203
 21
2758.884705856377
 31
0.0
100
AcDbText
  0
TEXT
  5
1A03A
330
19EB5
100
AcDbEntity
  8
HIKIDASHI
100
AcDbText
 10
3323.84503516408
 20
1814.878869270348
 30
0.0
 40
89.55223880597014
  1
x
 41
0.6700000000000001
  7
00
100
AcDbText
  0
TEXT
  5
1A03B
330
19EB5
100
AcDbEntity
  8
HIKIDASHI
100
AcDbText
 10
3252.010097973705
 20
1803.088394027934
 30
0.0
 40
67.16417910447761
  1
2
 41
0.6700000000000001
  7
00
100
AcDbText
  0
TEXT
  5
1A03C
330
19EB5
100
AcDbEntity
  8
HIKIDASHI
100
AcDbText
 10
3164.118061414784
 20
1830.114449058496
 30
0.0
 40
67.16417910447761
  1
1
 41
0.6700000000000001
  7
00
100
AcDbText
  0
TEXT
  5
1A03D
330
19EB5
100
AcDbEntity
  8
HIKIDASHI
100
AcDbText
 10
3089.517250731561
 20
1803.684839419601
 30
0.0
 40
89.55223880597014
  1
W ／
 41
0.6700000000000001
  7
00
100
AcDbText
  0
TEXT
  5
1A03E
330
19EB5
100
AcDbEntity
  8
HIKIDASHI
100
AcDbText
 10
3404.980414317213
 20
1803.475853219509
 30
0.0
 40
89.55223880597014
  1
300
 41
0.6700000000000001
  7
00
100
AcDbText
  0
TEXT
  5
1A03F
330
19EB5
100
AcDbEntity
  8
HIKIDASHI
100
AcDbText
 10
3089.517250731561
 20
1983.6848394196
 30
0.0
 40
90.0
  1
アンカーボルト
  7
01
100
AcDbText
  0
LINE
  5
1A040
330
19EB5
100
AcDbEntity
  8
HIKIDASHI
100
AcDbLine
 10
3060.437641869853
 20
1938.6848394196
 30
0.0
 11
3880.443655266704
 21
1938.6848394196
 31
0.0
  0
TEXT
  5
1A05E
330
19EB5
100
AcDbEntity
  8
SUNPOU
100
AcDbText
 10
10750.05141017947
 20
1674.586261835072
 30
0.0
 40
120.0
  1
柱脚金具詳細図
  7
01
 72
     4
 11
11234.05141017947
 21
1734.586261835072
 31
0.0
100
AcDbText
  0
TEXT
  5
1A05F
330
19EB5
100
AcDbEntity
  8
SUNPOU
100
AcDbText
 10
12146.16023934792
 20
1672.124723373534
 30
0.0
 40
73.84615384615384
  1
/
 41
0.6700000000000001
  7
00
 11
12146.16023934792
 21
1662.27856952738
 31
0.0
100
AcDbText
 73
     1
  0
TEXT
  5
1A060
330
19EB5
100
AcDbEntity
  8
SUNPOU
100
AcDbText
 10
12210.1096823023
 20
1653.663184911995
 30
0.0
 40
73.84615384615384
  1
10
 41
0.6700000000000001
  7
00
 11
12210.1096823023
 21
1643.817031065841
 31
0.0
100
AcDbText
 73
     1
  0
TEXT
  5
1A061
330
19EB5
100
AcDbEntity
  8
SUNPOU
100
AcDbText
 10
12097.75411203255
 20
1690.586261835072
 30
0.0
 40
73.84615384615384
  1
1
 41
0.6700000000000001
  7
00
 11
12097.75411203255
 21
1680.740107988918
 31
0.0
100
AcDbText
 73
     1
  0
TEXT
  5
1A062
330
19EB5
100
AcDbEntity
  8
SUNPOU
100
AcDbText
 10
11778.05141017947
 20
1674.586261835072
 30
0.0
 40
92.30769230769228
  1
（ S = 　　  ）
 41
0.6700000000000001
  7
00
 11
11778.05141017947
 21
1662.27856952738
 31
0.0
100
AcDbText
 73
     1
  0
LINE
  5
1A063
330
19EB5
100
AcDbEntity
  8
CENTER
  6
1PL-M
100
AcDbLine
 10
9574.21703198606
 20
7495.715360473251
 30
0.0
 11
12479.21703198606
 21
7495.715360473251
 31
0.0
  0
LINE
  5
1A064
330
19EB5
100
AcDbEntity
  8
1PL-S1
100
AcDbLine
 10
11225.33837406209
 20
2700.144344053149
 30
0.0
 11
11857.33837406209
 21
2700.144344053149
 31
0.0
  0
LINE
  5
1A065
330
19EB5
100
AcDbEntity
  8
U1
100
AcDbLine
 10
11391.33837406209
 20
3642.337036584561
 30
0.0
 11
11391.33837406209
 21
4026.401575763828
 31
0.0
  0
LINE
  5
1A066
330
19EB5
100
AcDbEntity
  8
U1
100
AcDbLine
 10
11691.33837406209
 20
3642.337036584561
 30
0.0
 11
11691.33837406209
 21
4026.401575763828
 31
0.0
  0
LINE
  5
1A067
330
19EB5
100
AcDbEntity
  8
1PL-S1
100
AcDbLine
 10
11541.33837406209
 20
3578.337036584561
 30
0.0
 11
11541.33837406209
 21
4066.401575763828
 31
0.0
  0
CIRCLE
  5
1A068
330
19EB5
100
AcDbEntity
  8
U1
100
AcDbCircle
 10
11541.33837406209
 20
3886.33703658456
 30
0.0
 40
24.0
  0
LINE
  5
1A069
330
19EB5
100
AcDbEntity
  8
1PL-S1
100
AcDbLine
 10
11301.33837406209
 20
2624.144344053149
 30
0.0
 11
11301.33837406209
 21
2776.144344053149
 31
0.0
  0
LINE
  5
1A06A
330
19EB5
100
AcDbEntity
  8
1PL-S1
100
AcDbLine
 10
11781.33837406209
 20
2624.144344053149
 30
0.0
 11
11781.33837406209
 21
2776.144344053149
 31
0.0
  0
LINE
  5
1A06B
330
19EB5
100
AcDbEntity
  8
1PL-S1
100
AcDbLine
 10
11541.33837406209
 20
2500.144344053149
 30
0.0
 11
11541.33837406209
 21
2900.144344053149
 31
0.0
  0
CIRCLE
  5
1A06C
330
19EB5
100
AcDbEntity
  8
U1
100
AcDbCircle
 10
11301.33837406209
 20
2700.144344053149
 30
0.0
 40
36.0
  0
LINE
  5
1A06D
330
19EB5
100
AcDbEntity
  8
U1
100
AcDbLine
 10
11691.33837406209
 20
2700.144344053149
 30
0.0
 11
11612.31129530375
 21
2700.144344053149
 31
0.0
  0
CIRCLE
  5
1A06E
330
19EB5
100
AcDbEntity
  8
U1
100
AcDbCircle
 10
11781.33837406209
 20
2700.144344053149
 30
0.0
 40
36.0
  0
LINE
  5
1A06F
330
19EB5
100
AcDbEntity
  8
1PL-S1
100
AcDbLine
 10
11477.33837406209
 20
3726.33703658456
 30
0.0
 11
11605.33837406209
 21
3726.33703658456
 31
0.0
  0
LINE
  5
1A070
330
19EB5
100
AcDbEntity
  8
1PL-S1
100
AcDbLine
 10
11301.33837406209
 20
3578.337036584561
 30
0.0
 11
11301.33837406209
 21
3682.337036584561
 31
0.0
  0
LINE
  5
1A071
330
19EB5
100
AcDbEntity
  8
1PL-S1
100
AcDbLine
 10
11781.33837406209
 20
3578.337036584561
 30
0.0
 11
11781.33837406209
 21
3682.337036584561
 31
0.0
  0
CIRCLE
  5
1A072
330
19EB5
100
AcDbEntity
  8
U1
100
AcDbCircle
 10
11541.33837406209
 20
3726.33703658456
 30
0.0
 40
24.0
  0
LINE
  5
1A073
330
19EB5
100
AcDbEntity
  8
1PL-S1
100
AcDbLine
 10
11477.33837406209
 20
3886.33703658456
 30
0.0
 11
11605.33837406209
 21
3886.33703658456
 31
0.0
  0
LINE
  5
1A074
330
19EB5
100
AcDbEntity
  8
HIKIDASHI
100
AcDbLine
 10
12256.64239875644
 20
2245.804976716085
 30
0.0
 11
12840.68319432041
 21
2245.804976716085
 31
0.0
  0
TEXT
  5
1A075
330
19EB5
100
AcDbEntity
  8
HIKIDASHI
100
AcDbText
 10
12288.10785773423
 20
2290.804976716086
 30
0.0
 40
90.0
  1
2
 41
0.6666666666666666
  7
00
 72
     2
 11
12336.67928630566
 21
2290.804976716086
 31
0.0
100
AcDbText
  0
TEXT
  5
1A076
330
19EB5
100
AcDbEntity
  8
HIKIDASHI
100
AcDbText
 10
12504.27139056829
 20
2290.804976716086
 30
0.0
 40
90.0
  1
18
 41
0.6666666666666666
  7
00
 72
     2
 11
12609.98567628258
 21
2290.804976716086
 31
0.0
100
AcDbText
  0
TEXT
  5
1A077
330
19EB5
100
AcDbEntity
  8
HIKIDASHI
100
AcDbText
 10
12439.02627454892
 20
2291.08896132193
 30
0.0
 40
89.99999909999997
  1
-
 41
0.6700000000000001
  7
00
100
AcDbText
  0
TEXT
  5
1A078
330
19EB5
100
AcDbEntity
  8
HIKIDASHI
100
AcDbText
 10
12364.48805587138
 20
2310.804976716088
 30
0.0
 40
89.99999909999997
  1
ヶ
  7
01
100
AcDbText
  0
TEXT
  5
1A079
330
19EB5
100
AcDbEntity
  8
HIKIDASHI
100
AcDbText
 10
12655.41042037726
 20
2304.79072515205
 30
0.0
 40
89.99999909999997
  1
%%c 
 41
0.6700000000000001
  7
00
100
AcDbText
  0
TEXT
  5
1A07A
330
19EB5
100
AcDbEntity
  8
HIKIDASHI
100
AcDbText
 10
12733.90408052569
 20
2290.804976716086
 30
0.0
 40
90.0
  1
孔
  7
01
 72
     2
 11
12817.90408052569
 21
2290.804976716086
 31
0.0
100
AcDbText
  0
LINE
  5
1A07B
330
19EB5
100
AcDbEntity
  8
HIKIDASHI
100
AcDbLine
 10
12073.23363223807
 20
3067.661600164834
 30
0.0
 11
12657.27442780204
 21
3067.661600164834
 31
0.0
  0
TEXT
  5
1A07C
330
19EB5
100
AcDbEntity
  8
HIKIDASHI
100
AcDbText
 10
12092.5236300348
 20
3112.661600164834
 30
0.0
 40
90.0
  1
プレ－ト
  7
01
 72
     2
 11
12482.5236300348
 21
3112.661600164834
 31
0.0
100
AcDbText
  0
TEXT
  5
1A07D
330
19EB5
100
AcDbEntity
  8
HIKIDASHI
100
AcDbText
 10
12520.97881071722
 20
3112.661600164834
 30
0.0
 40
90.0
  1
6
 41
0.6666666666666666
  7
00
 72
     2
 11
12569.55023928865
 21
3112.661600164834
 31
0.0
100
AcDbText
  0
TEXT
  5
1A07E
330
19EB5
100
AcDbEntity
  8
HIKIDASHI
100
AcDbText
 10
12606.97646118922
 20
3126.647348600799
 30
0.0
 40
89.99999909999997
  1
t
 41
0.6700000000000001
  7
00
100
AcDbText
  0
LINE
  5
1A07F
330
19EB5
100
AcDbEntity
  8
HATCH
100
AcDbLine
 10
5293.436222493638
 20
2711.084839419605
 30
0.0
 11
5320.102889160303
 21
2664.89681675294
 31
0.0
  0
LINE
  5
1A080
330
19EB5
100
AcDbEntity
  8
HATCH
100
AcDbLine
 10
5254.393513160305
 20
2551.084839419603
 30
0.0
 11
5346.769555826971
 21
2711.084839419605
 31
0.0
  0
LINE
  5
1A081
330
19EB5
100
AcDbEntity
  8
HATCH
100
AcDbLine
 10
5281.060179826972
 20
2597.272860752934
 30
0.0
 11
5307.726846493641
 21
2551.084839419603
 31
0.0
  0
TEXT
  5
1A082
330
19EB5
100
AcDbEntity
  8
SUNPOU
100
AcDbText
 10
5092.19781972598
 20
8040.715360473251
 30
0.0
 40
90.0
  1
B
 41
0.6700000000000001
  7
00
 72
     4
 11
5123.783534011693
 21
8085.715360473251
 31
0.0
100
AcDbText
  0
LINE
  5
1A083
330
19EB5
100
AcDbEntity
  8
SUNPOU
100
AcDbLine
 10
4734.21703198606
 20
8085.715360473251
 30
0.0
 11
4734.21703198606
 21
7935.715360473252
 31
0.0
  0
LINE
  5
1A084
330
19EB5
100
AcDbEntity
  8
SUNPOU
100
AcDbLine
 10
4944.21703198606
 20
8085.715360473251
 30
0.0
 11
4734.21703198606
 21
8085.715360473251
 31
0.0
  0
SOLID
  5
1A085
330
19EB5
100
AcDbEntity
  8
SUNPOU
100
AcDbTrace
 10
4944.21703198606
 20
8100.71536047325
 30
0.0
 11
4944.21703198606
 21
8070.715360473251
 31
0.0
 12
5034.217031986058
 22
8085.715360473251
 32
0.0
 13
5034.217031986058
 23
8085.715360473251
 33
0.0
  0
TEXT
  5
1A086
330
19EB5
100
AcDbEntity
  8
SUNPOU
100
AcDbText
 10
5079.27639115455
 20
6852.143931901823
 30
0.0
 40
90.0
  1
B'
 41
0.6700000000000001
  7
00
 72
     4
 11
5123.783534011693
 21
6905.715360473251
 31
0.0
100
AcDbText
  0
LINE
  5
1A087
330
19EB5
100
AcDbEntity
  8
SUNPOU
100
AcDbLine
 10
4734.21703198606
 20
6905.715360473251
 30
0.0
 11
4734.21703198606
 21
7055.715360473252
 31
0.0
  0
LINE
  5
1A088
330
19EB5
100
AcDbEntity
  8
SUNPOU
100
AcDbLine
 10
4944.21703198606
 20
6905.715360473251
 30
0.0
 11
4734.21703198606
 21
6905.715360473251
 31
0.0
  0
SOLID
  5
1A089
330
19EB5
100
AcDbEntity
  8
SUNPOU
100
AcDbTrace
 10
4944.21703198606
 20
6890.715360473253
 30
0.0
 11
4944.21703198606
 21
6920.715360473252
 31
0.0
 12
5034.217031986058
 22
6905.715360473251
 32
0.0
 13
5034.217031986058
 23
6905.715360473251
 33
0.0
  0
CIRCLE
  5
1A08A
330
19EB5
100
AcDbEntity
  8
BOLT
100
AcDbCircle
 10
8580.123251791111
 20
3426.2848394196
 30
0.0
 40
13.2
  0
CIRCLE
  5
1A08B
330
19EB5
100
AcDbEntity
  8
BOLT
100
AcDbCircle
 10
8580.123251791111
 20
3426.2848394196
 30
0.0
 40
16.8
  0
CIRCLE
  5
1A08C
330
19EB5
100
AcDbEntity
  8
BOLT
100
AcDbCircle
 10
8580.123251791111
 20
3362.2848394196
 30
0.0
 40
16.8
  0
CIRCLE
  5
1A08D
330
19EB5
100
AcDbEntity
  8
BOLT
100
AcDbCircle
 10
8580.123251791111
 20
3362.2848394196
 30
0.0
 40
13.2
  0
LINE
  5
1A08E
330
19EB5
100
AcDbEntity
  8
KISO
100
AcDbLine
 10
9862.519974530416
 20
3456.684839419605
 30
0.0
 11
8632.123251791107
 21
3456.684839419605
 31
0.0
  0
LINE
  5
1A08F
330
19EB5
100
AcDbEntity
  8
KISO
100
AcDbLine
 10
7297.726529051804
 20
3191.0848394196
 30
0.0
 11
7940.12325179111
 21
3191.0848394196
 31
0.0
  0
LINE
  5
1A090
330
19EB5
100
AcDbEntity
  8
KISO
100
AcDbLine
 10
9220.123251791108
 20
3191.084839419601
 30
0.0
 11
9862.519974530416
 21
3191.084839419603
 31
0.0
  0
LINE
  5
1A091
330
19EB5
100
AcDbEntity
  8
KISO
100
AcDbLine
 10
8528.123251791111
 20
3456.684839419605
 30
0.0
 11
7297.726529051804
 21
3456.684839419605
 31
0.0
  0
LINE
  5
1A092
330
19EB5
100
AcDbEntity
  8
HASHIRA
100
AcDbLine
 10
8632.123251791107
 20
3333.484839419603
 30
0.0
 11
8632.123251791101
 21
3583.485411556191
 31
0.0
  0
LINE
  5
1A093
330
19EB5
100
AcDbEntity
  8
HASHIRA
100
AcDbLine
 10
8528.123251791111
 20
3583.485411556191
 30
0.0
 11
8528.123251791111
 21
3333.484839419603
 31
0.0
  0
LINE
  5
1A094
330
19EB5
100
AcDbEntity
  8
HATCH
100
AcDbLine
 10
8331.481711982535
 20
3456.684839419605
 30
0.0
 11
8193.881711982536
 21
3319.084839419603
 31
0.0
  0
LINE
  5
1A095
330
19EB5
100
AcDbEntity
  8
HATCH
100
AcDbLine
 10
8426.516863374008
 20
3456.684839419605
 30
0.0
 11
8288.916863374007
 21
3319.084839419603
 31
0.0
  0
LINE
  5
1A096
330
19EB5
100
AcDbEntity
  8
HATCH
100
AcDbLine
 10
8378.999287678274
 20
3456.684839419605
 30
0.0
 11
8241.399287678278
 21
3319.084839419603
 31
0.0
  0
LINE
  5
1A097
330
19EB5
100
AcDbEntity
  8
1PL-S1
100
AcDbLine
 10
8468.12325179111
 20
3309.484839419603
 30
0.0
 11
8468.12325179111
 21
3338.284839419605
 31
0.0
  0
LINE
  5
1A098
330
19EB5
100
AcDbEntity
  8
HATCH
100
AcDbLine
 10
8811.481711982535
 20
3456.684839419605
 30
0.0
 11
8673.881711982531
 21
3319.084839419603
 31
0.0
  0
LINE
  5
1A099
330
19EB5
100
AcDbEntity
  8
HATCH
100
AcDbLine
 10
8858.999287678274
 20
3456.684839419605
 30
0.0
 11
8721.399287678272
 21
3319.084839419603
 31
0.0
  0
LINE
  5
1A09A
330
19EB5
100
AcDbEntity
  8
1PL-S1
100
AcDbLine
 10
8692.123251791107
 20
3309.484839419599
 30
0.0
 11
8692.123251791107
 21
3338.284839419598
 31
0.0
  0
LINE
  5
1A09B
330
19EB5
100
AcDbEntity
  8
HATCH
100
AcDbLine
 10
8906.516863374006
 20
3456.684839419605
 30
0.0
 11
8768.916863374007
 21
3319.084839419603
 31
0.0
  0
LINE
  5
1A09C
330
19EB5
100
AcDbEntity
  8
HATCH
100
AcDbLine
 10
9291.481711982534
 20
3456.684839419605
 30
0.0
 11
9153.881711982533
 21
3319.084839419603
 31
0.0
  0
LINE
  5
1A09D
330
19EB5
100
AcDbEntity
  8
HATCH
100
AcDbLine
 10
9338.999287678275
 20
3456.684839419605
 30
0.0
 11
9201.399287678272
 21
3319.084839419603
 31
0.0
  0
LINE
  5
1A09E
330
19EB5
100
AcDbEntity
  8
HATCH
100
AcDbLine
 10
9386.516863374007
 20
3456.684839419605
 30
0.0
 11
9248.916863374004
 21
3319.084839419603
 31
0.0
  0
LINE
  5
1A09F
330
19EB5
100
AcDbEntity
  8
HATCH
100
AcDbLine
 10
9866.516863374007
 20
3456.684839419605
 30
0.0
 11
9728.916863374005
 21
3319.084839419603
 31
0.0
  0
LINE
  5
1A0A0
330
19EB5
100
AcDbEntity
  8
HATCH
100
AcDbLine
 10
9818.999287678275
 20
3456.684839419605
 30
0.0
 11
9681.399287678276
 21
3319.084839419603
 31
0.0
  0
LINE
  5
1A0A1
330
19EB5
100
AcDbEntity
  8
HATCH
100
AcDbLine
 10
9771.481711982536
 20
3456.684839419605
 30
0.0
 11
9633.881711982532
 21
3319.084839419603
 31
0.0
  0
LINE
  5
1A0A2
330
19EB5
100
AcDbEntity
  8
KISO
100
AcDbLine
 10
9862.519974530416
 20
3319.084839419603
 30
0.0
 11
7297.726529051804
 21
3319.084839419603
 31
0.0
  0
LINE
  5
1A0A3
330
19EB5
100
AcDbEntity
  8
HATCH
100
AcDbLine
 10
9220.123251791108
 20
3285.236002075317
 30
0.0
 11
9239.665887143591
 21
3319.084839419603
 31
0.0
  0
LINE
  5
1A0A4
330
19EB5
100
AcDbEntity
  8
HATCH
100
AcDbLine
 10
9220.123251791108
 20
3073.167263723867
 30
0.0
 11
8858.040827486851
 21
2711.084839419607
 31
0.0
  0
LINE
  5
1A0A5
330
19EB5
100
AcDbEntity
  8
HATCH
100
AcDbLine
 10
9220.123251791108
 20
3025.64968802813
 30
0.0
 11
8905.558403182586
 21
2711.084839419607
 31
0.0
  0
LINE
  5
1A0A6
330
19EB5
100
AcDbEntity
  8
HATCH
100
AcDbLine
 10
9220.123251791108
 20
2978.132112332395
 30
0.0
 11
8953.075978878327
 21
2711.084839419608
 31
0.0
  0
LINE
  5
1A0A7
330
19EB5
100
AcDbEntity
  8
HATCH
100
AcDbLine
 10
9034.040827486844
 20
3319.084839419603
 30
0.0
 11
8702.523251791111
 21
2987.567263723864
 31
0.0
  0
LINE
  5
1A0A8
330
19EB5
100
AcDbEntity
  8
HATCH
100
AcDbLine
 10
9081.558403182574
 20
3319.084839419603
 30
0.0
 11
8702.523251791111
 21
2940.049688028133
 31
0.0
  0
LINE
  5
1A0A9
330
19EB5
100
AcDbEntity
  8
HATCH
100
AcDbLine
 10
8986.523251791107
 20
3319.084839419601
 30
0.0
 11
8702.523251791111
 21
3035.084839419601
 31
0.0
  0
LINE
  5
1A0AA
330
19EB5
100
AcDbEntity
  8
KISO
100
AcDbLine
 10
9220.123251791108
 20
3319.084839419605
 30
0.0
 11
9220.123251791108
 21
2711.084839419607
 31
0.0
  0
LINE
  5
1A0AB
330
19EB5
100
AcDbEntity
  8
KISO
100
AcDbLine
 10
7940.12325179111
 20
3319.084839419605
 30
0.0
 11
7940.12325179111
 21
2711.084839419607
 31
0.0
  0
LINE
  5
1A0AC
330
19EB5
100
AcDbEntity
  8
HATCH
100
AcDbLine
 10
8122.523251791113
 20
3319.084839419603
 30
0.0
 11
7940.12325179111
 21
3136.684839419602
 31
0.0
  0
LINE
  5
1A0AD
330
19EB5
100
AcDbEntity
  8
HATCH
100
AcDbLine
 10
8070.205676095381
 20
3314.284839419603
 30
0.0
 11
7940.12325179111
 21
3184.202415115334
 31
0.0
  0
LINE
  5
1A0AE
330
19EB5
100
AcDbEntity
  8
HATCH
100
AcDbLine
 10
8681.72325179111
 20
3014.284839419604
 30
0.0
 11
8378.523251791127
 21
2711.084839419607
 31
0.0
  0
LINE
  5
1A0AF
330
19EB5
100
AcDbEntity
  8
HATCH
100
AcDbLine
 10
8681.723251791105
 20
2966.767263723863
 30
0.0
 11
8426.040827486863
 21
2711.084839419607
 31
0.0
  0
LINE
  5
1A0B0
330
19EB5
100
AcDbEntity
  8
HATCH
100
AcDbLine
 10
8681.723251791105
 20
2919.249688028132
 30
0.0
 11
8473.55840318259
 21
2711.084839419607
 31
0.0
  0
LINE
  5
1A0B1
330
19EB5
100
AcDbEntity
  8
HATCH
100
AcDbLine
 10
8507.005676095374
 20
3319.084839419603
 30
0.0
 11
8478.523251791115
 21
3290.602415115337
 31
0.0
  0
LINE
  5
1A0B2
330
19EB5
100
AcDbEntity
  8
HATCH
100
AcDbLine
 10
8457.723251791113
 20
3269.802415115337
 30
0.0
 11
7940.12325179111
 21
2752.202415115339
 31
0.0
  0
LINE
  5
1A0B3
330
19EB5
100
AcDbEntity
  8
HATCH
100
AcDbLine
 10
8554.523251791115
 20
3319.084839419603
 30
0.0
 11
8478.523251791115
 21
3243.084839419598
 31
0.0
  0
LINE
  5
1A0B4
330
19EB5
100
AcDbEntity
  8
HATCH
100
AcDbLine
 10
8457.723251791113
 20
3222.284839419597
 30
0.0
 11
7946.523251791126
 21
2711.084839419607
 31
0.0
  0
LINE
  5
1A0B5
330
19EB5
100
AcDbEntity
  8
HATCH
100
AcDbLine
 10
8602.040827486851
 20
3319.084839419603
 30
0.0
 11
8478.523251791115
 21
3195.567263723865
 31
0.0
  0
LINE
  5
1A0B6
330
19EB5
100
AcDbEntity
  8
HATCH
100
AcDbLine
 10
8457.723251791113
 20
3174.767263723866
 30
0.0
 11
7994.040827486853
 21
2711.084839419607
 31
0.0
  0
LINE
  5
1A0B7
330
19EB5
100
AcDbEntity
  8
HATCH
100
AcDbLine
 10
8027.488100399645
 20
3319.084839419603
 30
0.0
 11
7940.12325179111
 21
3231.719990811074
 31
0.0
  0
LINE
  5
1A0B8
330
19EB5
100
AcDbEntity
  8
1PL-M1
100
AcDbLine
 10
8580.123251791111
 20
2428.17212587879
 30
0.0
 11
8580.123251791111
 21
4175.485411556194
 31
0.0
  0
LINE
  5
1A0B9
330
19EB5
100
AcDbEntity
  8
KISO
100
AcDbLine
 10
9380.123251791109
 20
2711.084839419607
 30
0.0
 11
9380.123251791109
 21
2551.084839419603
 31
0.0
  0
LINE
  5
1A0BA
330
19EB5
100
AcDbEntity
  8
HATCH
100
AcDbLine
 10
8608.053047017286
 20
2551.084839419607
 30
0.0
 11
8700.42908968395
 21
2711.084839419607
 31
0.0
  0
LINE
  5
1A0BB
330
19EB5
100
AcDbEntity
  8
HATCH
100
AcDbLine
 10
8647.095756350616
 20
2711.084839419607
 30
0.0
 11
8673.762423017283
 21
2664.896816752944
 31
0.0
  0
LINE
  5
1A0BC
330
19EB5
100
AcDbEntity
  8
HATCH
100
AcDbLine
 10
8634.719713683949
 20
2597.272860752938
 30
0.0
 11
8661.386380350618
 21
2551.084839419607
 31
0.0
  0
LINE
  5
1A0BD
330
19EB5
100
AcDbEntity
  8
HATCH
100
AcDbLine
 10
8434.71971368395
 20
2597.272860752938
 30
0.0
 11
8461.386380350617
 21
2551.084839419607
 31
0.0
  0
LINE
  5
1A0BE
330
19EB5
100
AcDbEntity
  8
HATCH
100
AcDbLine
 10
8447.095756350616
 20
2711.084839419607
 30
0.0
 11
8473.762423017282
 21
2664.896816752944
 31
0.0
  0
LINE
  5
1A0BF
330
19EB5
100
AcDbEntity
  8
HATCH
100
AcDbLine
 10
8234.719713683949
 20
2597.272860752938
 30
0.0
 11
8261.386380350618
 21
2551.084839419607
 31
0.0
  0
LINE
  5
1A0C0
330
19EB5
100
AcDbEntity
  8
HATCH
100
AcDbLine
 10
8208.053047017285
 20
2551.084839419607
 30
0.0
 11
8300.42908968395
 21
2711.084839419607
 31
0.0
  0
LINE
  5
1A0C1
330
19EB5
100
AcDbEntity
  8
HATCH
100
AcDbLine
 10
8247.095756350615
 20
2711.084839419607
 30
0.0
 11
8273.762423017283
 21
2664.896816752944
 31
0.0
  0
LINE
  5
1A0C2
330
19EB5
100
AcDbEntity
  8
KISO
100
AcDbLine
 10
7780.123251791109
 20
2711.084839419607
 30
0.0
 11
7780.123251791109
 21
2551.084839419603
 31
0.0
  0
LINE
  5
1A0C3
330
19EB5
100
AcDbEntity
  8
HATCH
100
AcDbLine
 10
8034.719713683951
 20
2597.272860752938
 30
0.0
 11
8061.386380350617
 21
2551.084839419607
 31
0.0
  0
LINE
  5
1A0C4
330
19EB5
100
AcDbEntity
  8
HATCH
100
AcDbLine
 10
8047.095756350616
 20
2711.084839419607
 30
0.0
 11
8073.762423017283
 21
2664.896816752944
 31
0.0
  0
LINE
  5
1A0C5
330
19EB5
100
AcDbEntity
  8
HATCH
100
AcDbLine
 10
8008.053047017282
 20
2551.084839419607
 30
0.0
 11
8100.429089683949
 21
2711.084839419607
 31
0.0
  0
LINE
  5
1A0C6
330
19EB5
100
AcDbEntity
  8
HATCH
100
AcDbLine
 10
8408.053047017286
 20
2551.084839419607
 30
0.0
 11
8500.429089683951
 21
2711.084839419607
 31
0.0
  0
LINE
  5
1A0C7
330
19EB5
100
AcDbEntity
  8
KISO
100
AcDbLine
 10
7780.123251791109
 20
2551.084839419603
 30
0.0
 11
9380.123251791109
 21
2551.084839419603
 31
0.0
  0
LINE
  5
1A0C8
330
19EB5
100
AcDbEntity
  8
HATCH
100
AcDbLine
 10
8847.095756350617
 20
2711.084839419607
 30
0.0
 11
8873.762423017282
 21
2664.896816752944
 31
0.0
  0
LINE
  5
1A0C9
330
19EB5
100
AcDbEntity
  8
HATCH
100
AcDbLine
 10
8808.053047017287
 20
2551.084839419607
 30
0.0
 11
8900.429089683951
 21
2711.084839419607
 31
0.0
  0
LINE
  5
1A0CA
330
19EB5
100
AcDbEntity
  8
HATCH
100
AcDbLine
 10
8834.71971368395
 20
2597.272860752938
 30
0.0
 11
8861.386380350618
 21
2551.084839419607
 31
0.0
  0
LINE
  5
1A0CB
330
19EB5
100
AcDbEntity
  8
HATCH
100
AcDbLine
 10
9008.053047017282
 20
2551.084839419607
 30
0.0
 11
9100.429089683951
 21
2711.084839419607
 31
0.0
  0
LINE
  5
1A0CC
330
19EB5
100
AcDbEntity
  8
HATCH
100
AcDbLine
 10
9047.095756350616
 20
2711.084839419607
 30
0.0
 11
9073.762423017283
 21
2664.896816752944
 31
0.0
  0
LINE
  5
1A0CD
330
19EB5
100
AcDbEntity
  8
HATCH
100
AcDbLine
 10
9034.719713683951
 20
2597.272860752938
 30
0.0
 11
9061.386380350617
 21
2551.084839419607
 31
0.0
  0
LINE
  5
1A0CE
330
19EB5
100
AcDbEntity
  8
HATCH
100
AcDbLine
 10
7847.095756350616
 20
2711.084839419607
 30
0.0
 11
7873.762423017281
 21
2664.896816752944
 31
0.0
  0
LINE
  5
1A0CF
330
19EB5
100
AcDbEntity
  8
HATCH
100
AcDbLine
 10
7808.053047017286
 20
2551.084839419607
 30
0.0
 11
7900.429089683949
 21
2711.084839419607
 31
0.0
  0
LINE
  5
1A0D0
330
19EB5
100
AcDbEntity
  8
HATCH
100
AcDbLine
 10
7834.719713683951
 20
2597.272860752938
 30
0.0
 11
7861.386380350618
 21
2551.084839419607
 31
0.0
  0
LINE
  5
1A0D1
330
19EB5
100
AcDbEntity
  8
SUNPOU
100
AcDbLine
 10
8580.123251791111
 20
4130.485411556196
 30
0.0
 11
9701.364210973478
 21
4130.485411556196
 31
0.0
  0
TEXT
  5
1A0D2
330
19EB5
100
AcDbEntity
  8
SUNPOU
100
AcDbText
 10
9090.021106547046
 20
4175.485411556197
 30
0.0
 40
90.0
  1
1800
 41
0.6666666666666666
  7
00
 72
     4
 11
9208.592535118475
 21
4220.485411556196
 31
0.0
100
AcDbText
  0
LINE
  5
1A0D3
330
19EB5
100
AcDbEntity
  8
HIKIDASHI
100
AcDbLine
 10
9726.620021984601
 20
3920.485411556196
 30
0.0
 11
9357.853645156977
 21
3920.485411556196
 31
0.0
  0
TEXT
  5
1A0D4
330
19EB5
100
AcDbEntity
  8
HIKIDASHI
100
AcDbText
 10
9390.92125274889
 20
3965.485411556194
 30
0.0
 40
90.0
  1
土　間
  7
01
 72
     2
 11
9684.921252748893
 21
4010.485411556194
 31
0.0
100
AcDbText
 73
     2
  0
TEXT
  5
1A0D5
330
19EB5
100
AcDbEntity
  8
SUNPOU
100
AcDbText
 10
9478.587586282396
 20
3591.684839419605
 30
0.0
 40
90.0
  1
F.L
 41
0.6666666666666666
  7
00
 72
     4
 11
9547.159014853825
 21
3636.684839419604
 31
0.0
100
AcDbText
  0
LINE
  5
1A0D6
330
19EB5
100
AcDbEntity
  8
SUNPOU
100
AcDbLine
 10
9547.159014853825
 20
3456.684839419605
 30
0.0
 11
9599.120539080891
 21
3546.684839419604
 31
0.0
  0
LINE
  5
1A0D7
330
19EB5
100
AcDbEntity
  8
SUNPOU
100
AcDbLine
 10
9495.197490626756
 20
3546.684839419604
 30
0.0
 11
9547.159014853825
 21
3456.684839419605
 31
0.0
  0
LINE
  5
1A0D8
330
19EB5
100
AcDbEntity
  8
SUNPOU
100
AcDbLine
 10
9599.120539080891
 20
3546.684839419604
 30
0.0
 11
9495.197490626756
 21
3546.684839419604
 31
0.0
  0
TEXT
  5
1A0D9
330
19EB5
100
AcDbEntity
  8
HIKIDASHI
100
AcDbText
 10
7011.426786787378
 20
1814.878869270352
 30
0.0
 40
89.55223880597014
  1
x
 41
0.6700000000000001
  7
00
100
AcDbText
  0
TEXT
  5
1A0DA
330
19EB5
100
AcDbEntity
  8
HIKIDASHI
100
AcDbText
 10
6939.591849597005
 20
1803.088394027939
 30
0.0
 40
67.16417910447761
  1
2
 41
0.6700000000000001
  7
00
100
AcDbText
  0
TEXT
  5
1A0DB
330
19EB5
100
AcDbEntity
  8
HIKIDASHI
100
AcDbText
 10
6851.699813038081
 20
1830.1144490585
 30
0.0
 40
67.16417910447761
  1
1
 41
0.6700000000000001
  7
00
100
AcDbText
  0
TEXT
  5
1A0DC
330
19EB5
100
AcDbEntity
  8
HIKIDASHI
100
AcDbText
 10
6777.099002354859
 20
1803.684839419606
 30
0.0
 40
89.55223880597014
  1
W ／
 41
0.6700000000000001
  7
00
100
AcDbText
  0
TEXT
  5
1A0DD
330
19EB5
100
AcDbEntity
  8
HIKIDASHI
100
AcDbText
 10
7092.562165940511
 20
1803.475853219515
 30
0.0
 40
89.55223880597014
  1
300
 41
0.6700000000000001
  7
00
100
AcDbText
  0
TEXT
  5
1A0DE
330
19EB5
100
AcDbEntity
  8
HIKIDASHI
100
AcDbText
 10
6777.099002354859
 20
1983.684839419604
 30
0.0
 40
90.0
  1
アンカーボルト
  7
01
100
AcDbText
  0
LINE
  5
1A0DF
330
19EB5
100
AcDbEntity
  8
HIKIDASHI
100
AcDbLine
 10
6748.019393493152
 20
1938.684839419604
 30
0.0
 11
7568.025406890003
 21
1938.684839419604
 31
0.0
  0
TEXT
  5
1A0E0
330
19EB5
100
AcDbEntity
  8
HIKIDASHI
100
AcDbText
 10
8262.30957517332
 20
1664.635820576939
 30
0.0
 40
90.0
  1
B  ~  B'
 41
0.6700000000000001
  7
00
100
AcDbText
  0
LINE
  5
1A0E1
330
19EB5
100
AcDbEntity
  8
HIKIDASHI
100
AcDbLine
 10
8232.309575173323
 20
1589.635820576939
 30
0.0
 11
8927.93692840889
 21
1589.635820576939
 31
0.0
  0
LINE
  5
1A0E2
330
19EB5
100
AcDbEntity
  8
HIKIDASHI
100
AcDbLine
 10
8232.309575173323
 20
1619.635820576939
 30
0.0
 11
8927.93692840889
 21
1619.635820576939
 31
0.0
  0
TEXT
  5
1A0E3
330
19EB5
100
AcDbEntity
  8
HIKIDASHI
100
AcDbText
 10
8656.326854669883
 20
1664.635820576939
 30
0.0
 40
90.0
  1
断 面
  7
01
100
AcDbText
  0
TEXT
  5
1A0E4
330
19EB5
100
AcDbEntity
  8
SUNPOU
100
AcDbText
 10
9537.817961079962
 20
2578.884705856383
 30
0.0
 40
90.0
  1
5-D13×5-D13
 41
0.6700000000000001
  7
01
 72
     4
 11
9881.240818222821
 21
2623.884705856383
 31
0.0
100
AcDbText
  0
TEXT
  5
1A0E5
330
19EB5
100
AcDbEntity
  8
SUNPOU
100
AcDbText
 10
9672.933675365676
 20
2713.884705856383
 30
0.0
 40
90.0
  1
ベース筋
  7
01
 72
     4
 11
9876.933675365677
 21
2758.884705856383
 31
0.0
100
AcDbText
  0
LINE
  5
1A0E6
330
19EB5
100
AcDbEntity
  8
KISO
100
AcDbLine
 10
7780.123251791109
 20
2711.084839419607
 30
0.0
 11
9380.123251791109
 21
2711.084839419607
 31
0.0
  0
LINE
  5
1A0E7
330
19EB5
100
AcDbEntity
  8
HATCH
100
AcDbLine
 10
9208.053047017283
 20
2551.084839419611
 30
0.0
 11
9300.42908968395
 21
2711.084839419611
 31
0.0
  0
LINE
  5
1A0E8
330
19EB5
100
AcDbEntity
  8
HATCH
100
AcDbLine
 10
9247.095756350615
 20
2711.084839419611
 30
0.0
 11
9273.762423017281
 21
2664.896816752947
 31
0.0
  0
LINE
  5
1A0E9
330
19EB5
100
AcDbEntity
  8
HATCH
100
AcDbLine
 10
9234.719713683949
 20
2597.272860752941
 30
0.0
 11
9261.386380350616
 21
2551.084839419611
 31
0.0
  0
LINE
  5
1A0EA
330
19EB5
100
AcDbEntity
  8
HATCH
100
AcDbLine
 10
7851.481711982538
 20
3456.684839419605
 30
0.0
 11
7713.881711982537
 21
3319.084839419603
 31
0.0
  0
LINE
  5
1A0EB
330
19EB5
100
AcDbEntity
  8
HATCH
100
AcDbLine
 10
7946.516863374012
 20
3456.684839419605
 30
0.0
 11
7808.916863374007
 21
3319.084839419603
 31
0.0
  0
LINE
  5
1A0EC
330
19EB5
100
AcDbEntity
  8
HATCH
100
AcDbLine
 10
7898.999287678278
 20
3456.684839419605
 30
0.0
 11
7761.399287678277
 21
3319.084839419603
 31
0.0
  0
LINE
  5
1A0ED
330
19EB5
100
AcDbEntity
  8
HATCH
100
AcDbLine
 10
7371.481711982539
 20
3456.684839419605
 30
0.0
 11
7297.726529051804
 21
3382.929656488869
 31
0.0
  0
LINE
  5
1A0EE
330
19EB5
100
AcDbEntity
  8
HATCH
100
AcDbLine
 10
7466.516863374012
 20
3456.684839419605
 30
0.0
 11
7328.91686337401
 21
3319.084839419603
 31
0.0
  0
LINE
  5
1A0EF
330
19EB5
100
AcDbEntity
  8
HATCH
100
AcDbLine
 10
7418.999287678279
 20
3456.684839419605
 30
0.0
 11
7297.726529051804
 21
3335.412080793129
 31
0.0
  0
LINE
  5
1A0F0
330
19EB5
100
AcDbEntity
  8
SUNPOU
100
AcDbLine
 10
8580.123251791111
 20
4130.485411556196
 30
0.0
 11
7458.882292608745
 21
4130.485411556196
 31
0.0
  0
TEXT
  5
1A0F1
330
19EB5
100
AcDbEntity
  8
SUNPOU
100
AcDbText
 10
7833.082539892314
 20
4175.485411556197
 30
0.0
 40
90.0
  1
1800
 41
0.6666666666666666
  7
00
 72
     4
 11
7951.653968463742
 21
4220.485411556196
 31
0.0
100
AcDbText
  0
LINE
  5
1A0F2
330
19EB5
100
AcDbEntity
  8
HIKIDASHI
100
AcDbLine
 10
5702.626424666976
 20
3920.485411556192
 30
0.0
 11
5333.860047839355
 21
3920.485411556192
 31
0.0
  0
TEXT
  5
1A0F3
330
19EB5
100
AcDbEntity
  8
HIKIDASHI
100
AcDbText
 10
5366.927655431265
 20
3965.485411556191
 30
0.0
 40
90.0
  1
土　間
  7
01
 72
     2
 11
5660.927655431265
 21
4010.48541155619
 31
0.0
100
AcDbText
 73
     2
  0
TEXT
  5
1A0F4
330
19EB5
100
AcDbEntity
  8
FILENAME
100
AcDbText
 10
13663.90476190475
 20
174.0
 30
0.0
 40
100.0
  1
＜YOKC-280-SA-A_3_JIS_GL.DXF ＞
  7
FILENAME
 72
     2
 11
16382.0
 21
174.0
 31
0.0
100
AcDbText
  0
LINE
  5
1A0F5
330
19EB5
100
AcDbEntity
  8
WAKUSEN-01
100
AcDbLine
 10
434.0000000000008
 20
413.9999999999997
 30
0.0
 11
16382.0
 21
413.9999999999997
 31
0.0
  0
LINE
  5
1A0F6
330
19EB5
100
AcDbEntity
  8
WAKUSEN-01
100
AcDbLine
 10
434.0000000000008
 20
11242.0
 30
0.0
 11
16382.0
 21
11242.0
 31
0.0
  0
LINE
  5
1A0F7
330
19EB5
100
AcDbEntity
  8
WAKUSEN-01
100
AcDbLine
 10
434.0000000000008
 20
413.9999999999997
 30
0.0
 11
434.0000000000008
 21
11242.0
 31
0.0
  0
LINE
  5
1A0F8
330
19EB5
100
AcDbEntity
  8
WAKUSEN-01
100
AcDbLine
 10
16382.0
 20
413.9999999999997
 30
0.0
 11
16382.0
 21
11242.0
 31
0.0
  0
LINE
  5
1A0F9
330
19EB5
100
AcDbEntity
  8
WAKUSEN-01
100
AcDbLine
 10
10280.0
 20
1242.0
 30
0.0
 11
16382.0
 21
1242.0
 31
0.0
  0
LINE
  5
1A0FA
330
19EB5
100
AcDbEntity
  8
WAKUSEN-02
100
AcDbLine
 10
10280.0
 20
827.9999999999997
 30
0.0
 11
13434.0
 21
827.9999999999997
 31
0.0
  0
TEXT
  5
1A0FB
330
19EB5
100
AcDbEntity
  8
WAKUMOJI-01
100
AcDbText
 10
10335.13012998137
 20
1062.951504669661
 30
0.0
 40
120.0
  1
名　称
  7
WAKUMOJI
100
AcDbText
  0
TEXT
  5
1A0FC
330
19EB5
100
AcDbEntity
  8
WAKUMOJI-01
100
AcDbText
 10
10328.25274254596
 20
659.5644874899107
 30
0.0
 40
120.0
  1
機種名
  7
WAKUMOJI
100
AcDbText
  0
LINE
  5
1A0FD
330
19EB5
100
AcDbEntity
  8
WAKUSEN-01
100
AcDbLine
 10
10280.0
 20
413.9999999999985
 30
0.0
 11
10280.0
 21
1242.0
 31
0.0
  0
LINE
  5
1A0FE
330
19EB5
100
AcDbEntity
  8
WAKUSEN-02
100
AcDbLine
 10
13434.0
 20
413.9999999999963
 30
0.0
 11
13434.0
 21
1242.0
 31
0.0
  0
LINE
  5
1A0FF
330
19EB5
100
AcDbEntity
  8
YODOROGO
100
AcDbLine
 10
14988.80217064596
 20
997.8747482146435
 30
0.0
 11
14914.80217064596
 21
997.8747482146435
 31
0.0
1001
AUTOCAD_POSTSCRIPT_FIGURE
1002
{
1000
PSFILL
1000
Grayscale
1000
Grayscale
1070
    25
1002
}
  0
LINE
  5
1A100
330
19EB5
100
AcDbEntity
  8
YODOROGO
100
AcDbLine
 10
14914.80217064596
 20
973.8747482146434
 30
0.0
 11
14988.80217064596
 21
973.8747482146434
 31
0.0
1001
AUTOCAD_POSTSCRIPT_FIGURE
1002
{
1000
PSFILL
1000
Grayscale
1000
Grayscale
1070
    25
1002
}
  0
LINE
  5
1A101
330
19EB5
100
AcDbEntity
  8
YODOROGO
100
AcDbLine
 10
14988.80217064596
 20
953.874748214644
 30
0.0
 11
14914.80217064596
 21
953.874748214644
 31
0.0
1001
AUTOCAD_POSTSCRIPT_FIGURE
1002
{
1000
PSFILL
1000
Grayscale
1000
Grayscale
1070
    25
1002
}
  0
LINE
  5
1A102
330
19EB5
100
AcDbEntity
  8
YODOROGO
100
AcDbLine
 10
14914.80217064596
 20
929.874748214644
 30
0.0
 11
14988.80217064596
 21
929.874748214644
 31
0.0
1001
AUTOCAD_POSTSCRIPT_FIGURE
1002
{
1000
PSFILL
1000
Grayscale
1000
Grayscale
1070
    25
1002
}
  0
LINE
  5
1A103
330
19EB5
100
AcDbEntity
  8
YODOROGO
100
AcDbLine
 10
14988.80217064596
 20
909.8747482146439
 30
0.0
 11
14914.80217064596
 21
909.8747482146439
 31
0.0
1001
AUTOCAD_POSTSCRIPT_FIGURE
1002
{
1000
PSFILL
1000
Grayscale
1000
Grayscale
1070
    25
1002
}
  0
LINE
  5
1A104
330
19EB5
100
AcDbEntity
  8
YODOROGO
100
AcDbLine
 10
14960.80217064594
 20
853.874748214644
 30
0.0
 11
14988.80217064596
 21
853.874748214644
 31
0.0
1001
AUTOCAD_POSTSCRIPT_FIGURE
1002
{
1000
PSFILL
1000
Grayscale
1000
Grayscale
1070
    25
1002
}
  0
LINE
  5
1A105
330
19EB5
100
AcDbEntity
  8
YODOROGO
100
AcDbLine
 10
14868.80217064596
 20
713.8747482146436
 30
0.0
 11
14968.80217064596
 21
740.6696674577553
 31
0.0
  0
LINE
  5
1A106
330
19EB5
100
AcDbEntity
  8
YODOROGO
100
AcDbLine
 10
14974.80217064595
 20
853.874748214644
 30
0.0
 11
14942.80217064596
 21
853.874748214644
 31
0.0
  0
ARC
  5
1A107
330
19EB5
100
AcDbEntity
  8
YODOROGO
100
AcDbCircle
 10
15127.17387491394
 20
903.9323046166312
 30
0.0
 40
190.9434321028236
100
AcDbArc
 50
213.9611167766784
 51
264.4787207431779
  0
ARC
  5
1A108
330
19EB5
100
AcDbEntity
  8
YODOROGO
100
AcDbCircle
 10
15127.17387491396
 20
903.9323046166513
 30
0.0
 40
190.9434321028408
100
AcDbArc
 50
208.141144204866
 51
212.9210361185994
  0
LINE
  5
1A109
330
19EB5
100
AcDbEntity
  8
YODOROGO
100
AcDbLine
 10
14885.70493649264
 20
778.403830673117
 30
0.0
 11
14966.89206625426
 21
800.1578565285436
 31
0.0
  0
LINE
  5
1A10A
330
19EB5
100
AcDbEntity
  8
YODOROGO
100
AcDbLine
 10
14868.80217064596
 20
713.8747482146436
 30
0.0
 11
14968.80217064596
 21
740.6696674577553
 31
0.0
  0
LINE
  5
1A10B
330
19EB5
100
AcDbEntity
  8
YODOROGO
100
AcDbLine
 10
14974.80217064595
 20
853.874748214644
 30
0.0
 11
14942.80217064596
 21
853.874748214644
 31
0.0
  0
ARC
  5
1A10C
330
19EB5
100
AcDbEntity
  8
YODOROGO
100
AcDbCircle
 10
15127.17387491394
 20
903.9323046166312
 30
0.0
 40
190.9434321028236
100
AcDbArc
 50
213.9611167766784
 51
264.4787207431779
  0
LINE
  5
1A10D
330
19EB5
100
AcDbEntity
  8
YODOROGO
100
AcDbLine
 10
14396.80217064594
 20
909.8747482146439
 30
0.0
 11
14216.80217064594
 21
909.8747482146439
 31
0.0
  0
LINE
  5
1A10E
330
19EB5
100
AcDbEntity
  8
YODOROGO
100
AcDbLine
 10
14256.80217064594
 20
713.8747482146436
 30
0.0
 11
14396.80217064594
 21
713.8747482146436
 31
0.0
  0
LINE
  5
1A10F
330
19EB5
100
AcDbEntity
  8
YODOROGO
100
AcDbLine
 10
14364.80217064596
 20
961.8747482146432
 30
0.0
 11
14248.80217064594
 21
961.8747482146432
 31
0.0
  0
LINE
  5
1A110
330
19EB5
100
AcDbEntity
  8
YODOROGO
100
AcDbLine
 10
14292.80217064596
 20
1013.874748214644
 30
0.0
 11
14328.80217064596
 21
1013.874748214644
 31
0.0
  0
LINE
  5
1A111
330
19EB5
100
AcDbEntity
  8
YODOROGO
100
AcDbLine
 10
14216.80217064594
 20
853.874748214644
 30
0.0
 11
14216.80217064594
 21
753.8747482146439
 31
0.0
  0
LINE
  5
1A112
330
19EB5
100
AcDbEntity
  8
YODOROGO
100
AcDbLine
 10
14248.80217064594
 20
781.8747482146434
 30
0.0
 11
14248.80217064594
 21
853.874748214644
 31
0.0
  0
LINE
  5
1A113
330
19EB5
100
AcDbEntity
  8
YODOROGO
100
AcDbLine
 10
14292.80217064596
 20
873.8747482146449
 30
0.0
 11
14292.80217064596
 21
773.874748214644
 31
0.0
  0
LINE
  5
1A114
330
19EB5
100
AcDbEntity
  8
YODOROGO
100
AcDbLine
 10
13928.80217064596
 20
841.8747482146445
 30
0.0
 11
13888.80217064596
 21
809.9862070222856
 31
0.0
  0
LINE
  5
1A115
330
19EB5
100
AcDbEntity
  8
YODOROGO
100
AcDbLine
 10
13968.80217064596
 20
809.9862070222856
 30
0.0
 11
13928.80217064596
 21
841.8747482146445
 31
0.0
  0
LINE
  5
1A116
330
19EB5
100
AcDbEntity
  8
YODOROGO
100
AcDbLine
 10
13928.80217064596
 20
853.874748214644
 30
0.0
 11
13968.80217064596
 21
821.986207022285
 31
0.0
  0
LINE
  5
1A117
330
19EB5
100
AcDbEntity
  8
YODOROGO
100
AcDbLine
 10
13888.80217064596
 20
821.986207022285
 30
0.0
 11
13928.80217064596
 21
853.874748214644
 31
0.0
  0
LINE
  5
1A118
330
19EB5
100
AcDbEntity
  8
YODOROGO
100
AcDbLine
 10
14020.45660200844
 20
829.874748214644
 30
0.0
 11
14020.45660200844
 21
841.8747482146434
 31
0.0
  0
LINE
  5
1A119
330
19EB5
100
AcDbEntity
  8
YODOROGO
100
AcDbLine
 10
13988.80217064596
 20
841.8747482146434
 30
0.0
 11
13988.80217064596
 21
833.8747482146427
 31
0.0
  0
LINE
  5
1A11A
330
19EB5
100
AcDbEntity
  8
YODOROGO
100
AcDbLine
 10
14049.06776011545
 20
853.874748214644
 30
0.0
 11
14049.06776011545
 21
827.751818637328
 31
0.0
1001
AUTOCAD_POSTSCRIPT_FIGURE
1002
{
1000
PSFILL
1000
Grayscale
1000
Grayscale
1070
   100
1002
}
  0
LINE
  5
1A11B
330
19EB5
100
AcDbEntity
  8
YODOROGO
100
AcDbLine
 10
14041.06776011546
 20
827.751818637328
 30
0.0
 11
14041.06776011546
 21
853.874748214644
 31
0.0
1001
AUTOCAD_POSTSCRIPT_FIGURE
1002
{
1000
PSFILL
1000
Grayscale
1000
Grayscale
1070
   100
1002
}
  0
LINE
  5
1A11C
330
19EB5
100
AcDbEntity
  8
YODOROGO
100
AcDbLine
 10
13904.80217064596
 20
804.3859520216292
 30
0.0
 11
13904.80217064596
 21
816.3859520216298
 31
0.0
  0
LINE
  5
1A11D
330
19EB5
100
AcDbEntity
  8
YODOROGO
100
AcDbLine
 10
13952.80217064596
 20
804.3859520216292
 30
0.0
 11
13904.80217064596
 21
804.3859520216292
 31
0.0
  0
LINE
  5
1A11E
330
19EB5
100
AcDbEntity
  8
YODOROGO
100
AcDbLine
 10
13952.80217064596
 20
816.3859520216298
 30
0.0
 11
13952.80217064596
 21
804.3859520216292
 31
0.0
  0
LINE
  5
1A11F
330
19EB5
100
AcDbEntity
  8
YODOROGO
100
AcDbLine
 10
13904.80217064596
 20
816.3859520216298
 30
0.0
 11
13952.80217064596
 21
816.3859520216298
 31
0.0
  0
LINE
  5
1A120
330
19EB5
100
AcDbEntity
  8
YODOROGO
100
AcDbLine
 10
13912.25479445787
 20
784.2514286852374
 30
0.0
 11
13892.80217064596
 21
737.8747482146435
 31
0.0
1001
AUTOCAD_POSTSCRIPT_FIGURE
1002
{
1000
PSFILL
1000
Grayscale
1000
Grayscale
1070
   100
1002
}
  0
LINE
  5
1A121
330
19EB5
100
AcDbEntity
  8
YODOROGO
100
AcDbLine
 10
13888.80217064596
 20
784.2514286852374
 30
0.0
 11
13912.25479445787
 21
784.2514286852374
 31
0.0
1001
AUTOCAD_POSTSCRIPT_FIGURE
1002
{
1000
PSFILL
1000
Grayscale
1000
Grayscale
1070
   100
1002
}
  0
LINE
  5
1A122
330
19EB5
100
AcDbEntity
  8
YODOROGO
100
AcDbLine
 10
13888.80217064596
 20
794.2514286852374
 30
0.0
 11
13888.80217064596
 21
784.2514286852374
 31
0.0
1001
AUTOCAD_POSTSCRIPT_FIGURE
1002
{
1000
PSFILL
1000
Grayscale
1000
Grayscale
1070
   100
1002
}
  0
LINE
  5
1A123
330
19EB5
100
AcDbEntity
  8
YODOROGO
100
AcDbLine
 10
13968.80217064596
 20
794.2514286852374
 30
0.0
 11
13888.80217064596
 21
794.2514286852374
 31
0.0
1001
AUTOCAD_POSTSCRIPT_FIGURE
1002
{
1000
PSFILL
1000
Grayscale
1000
Grayscale
1070
   100
1002
}
  0
LINE
  5
1A124
330
19EB5
100
AcDbEntity
  8
YODOROGO
100
AcDbLine
 10
13968.80217064596
 20
784.2514286852374
 30
0.0
 11
13968.80217064596
 21
794.2514286852374
 31
0.0
1001
AUTOCAD_POSTSCRIPT_FIGURE
1002
{
1000
PSFILL
1000
Grayscale
1000
Grayscale
1070
   100
1002
}
  0
LINE
  5
1A125
330
19EB5
100
AcDbEntity
  8
YODOROGO
100
AcDbLine
 10
13922.25479445786
 20
784.2514286852374
 30
0.0
 11
13968.80217064596
 21
784.2514286852374
 31
0.0
1001
AUTOCAD_POSTSCRIPT_FIGURE
1002
{
1000
PSFILL
1000
Grayscale
1000
Grayscale
1070
   100
1002
}
  0
LINE
  5
1A126
330
19EB5
100
AcDbEntity
  8
YODOROGO
100
AcDbLine
 10
13907.77335914238
 20
747.8747482146435
 30
0.0
 11
13922.25479445786
 21
784.2514286852374
 31
0.0
1001
AUTOCAD_POSTSCRIPT_FIGURE
1002
{
1000
PSFILL
1000
Grayscale
1000
Grayscale
1070
   100
1002
}
  0
LINE
  5
1A127
330
19EB5
100
AcDbEntity
  8
YODOROGO
100
AcDbLine
 10
13951.02739540432
 20
747.8747482146435
 30
0.0
 11
13907.77335914238
 21
747.8747482146435
 31
0.0
1001
AUTOCAD_POSTSCRIPT_FIGURE
1002
{
1000
PSFILL
1000
Grayscale
1000
Grayscale
1070
   100
1002
}
  0
LINE
  5
1A128
330
19EB5
100
AcDbEntity
  8
YODOROGO
100
AcDbLine
 10
13942.53250239547
 20
768.1169053488464
 30
0.0
 11
13951.02739540432
 21
747.8747482146435
 31
0.0
1001
AUTOCAD_POSTSCRIPT_FIGURE
1002
{
1000
PSFILL
1000
Grayscale
1000
Grayscale
1070
   100
1002
}
  0
LINE
  5
1A129
330
19EB5
100
AcDbEntity
  8
YODOROGO
100
AcDbLine
 10
13950.53250239547
 20
768.1169053488464
 30
0.0
 11
13942.53250239547
 21
768.1169053488464
 31
0.0
1001
AUTOCAD_POSTSCRIPT_FIGURE
1002
{
1000
PSFILL
1000
Grayscale
1000
Grayscale
1070
   100
1002
}
  0
LINE
  5
1A12A
330
19EB5
100
AcDbEntity
  8
YODOROGO
100
AcDbLine
 10
13964.80217064596
 20
737.8747482146435
 30
0.0
 11
13950.53250239547
 21
768.1169053488464
 31
0.0
1001
AUTOCAD_POSTSCRIPT_FIGURE
1002
{
1000
PSFILL
1000
Grayscale
1000
Grayscale
1070
   100
1002
}
  0
LINE
  5
1A12B
330
19EB5
100
AcDbEntity
  8
YODOROGO
100
AcDbLine
 10
13892.80217064596
 20
737.8747482146435
 30
0.0
 11
13964.80217064596
 21
737.8747482146435
 31
0.0
1001
AUTOCAD_POSTSCRIPT_FIGURE
1002
{
1000
PSFILL
1000
Grayscale
1000
Grayscale
1070
   100
1002
}
  0
LINE
  5
1A12C
330
19EB5
100
AcDbEntity
  8
YODOROGO
100
AcDbLine
 10
13888.80217064596
 20
809.9862070222856
 30
0.0
 11
13888.80217064596
 21
821.986207022285
 31
0.0
  0
LINE
  5
1A12D
330
19EB5
100
AcDbEntity
  8
YODOROGO
100
AcDbLine
 10
13968.80217064596
 20
821.986207022285
 30
0.0
 11
13968.80217064596
 21
809.9862070222856
 31
0.0
  0
ARC
  5
1A12E
330
19EB5
100
AcDbEntity
  8
YODOROGO
100
AcDbCircle
 10
14112.97022107348
 20
800.438882662663
 30
0.0
 40
87.99999999999995
100
AcDbArc
 50
280.3644312771313
 51
3.541483659218056
  0
ARC
  5
1A12F
330
19EB5
100
AcDbEntity
  8
YODOROGO
100
AcDbCircle
 10
14117.87801537965
 20
816.798903480952
 30
0.0
 40
55.99999999999914
100
AcDbArc
 50
281.2490582504155
 51
348.7509417495832
  0
LINE
  5
1A130
330
19EB5
100
AcDbEntity
  8
YODOROGO
100
AcDbLine
 10
14128.80217064596
 20
761.8747482146434
 30
0.0
 11
14128.80217064596
 21
713.8747482146436
 31
0.0
  0
LINE
  5
1A131
330
19EB5
100
AcDbEntity
  8
YODOROGO
100
AcDbLine
 10
14010.04445186845
 20
805.3252825309574
 30
0.0
 11
14020.45660200844
 21
829.874748214644
 31
0.0
  0
LINE
  5
1A132
330
19EB5
100
AcDbEntity
  8
YODOROGO
100
AcDbLine
 10
14020.80217064596
 20
791.5602449742006
 30
0.0
 11
14010.04445186845
 21
805.3252825309574
 31
0.0
  0
LINE
  5
1A133
330
19EB5
100
AcDbEntity
  8
YODOROGO
100
AcDbLine
 10
14020.80217064596
 20
781.5602449741994
 30
0.0
 11
14020.80217064596
 21
791.5602449742006
 31
0.0
  0
LINE
  5
1A134
330
19EB5
100
AcDbEntity
  8
YODOROGO
100
AcDbLine
 10
14008.80217064596
 20
792.6185318747651
 30
0.0
 11
14020.80217064596
 21
781.5602449741994
 31
0.0
  0
LINE
  5
1A135
330
19EB5
100
AcDbEntity
  8
YODOROGO
100
AcDbLine
 10
14008.80217064596
 20
737.8747482146435
 30
0.0
 11
14008.80217064596
 21
792.6185318747651
 31
0.0
  0
LINE
  5
1A136
330
19EB5
100
AcDbEntity
  8
YODOROGO
100
AcDbLine
 10
14000.80217064596
 20
737.8747482146435
 30
0.0
 11
14008.80217064596
 21
737.8747482146435
 31
0.0
  0
LINE
  5
1A137
330
19EB5
100
AcDbEntity
  8
YODOROGO
100
AcDbLine
 10
14000.80217064596
 20
790.0026748448738
 30
0.0
 11
14000.80217064596
 21
737.8747482146435
 31
0.0
  0
LINE
  5
1A138
330
19EB5
100
AcDbEntity
  8
YODOROGO
100
AcDbLine
 10
13988.80217064596
 20
766.3840395167142
 30
0.0
 11
14000.80217064596
 21
790.0026748448738
 31
0.0
  0
LINE
  5
1A139
330
19EB5
100
AcDbEntity
  8
YODOROGO
100
AcDbLine
 10
13988.80217064596
 20
778.3840395167149
 30
0.0
 11
13988.80217064596
 21
766.3840395167142
 31
0.0
  0
LINE
  5
1A13A
330
19EB5
100
AcDbEntity
  8
YODOROGO
100
AcDbLine
 10
14012.91438714567
 20
833.8747482146427
 30
0.0
 11
13988.80217064596
 21
778.3840395167149
 31
0.0
  0
LINE
  5
1A13B
330
19EB5
100
AcDbEntity
  8
YODOROGO
100
AcDbLine
 10
13988.80217064596
 20
833.8747482146427
 30
0.0
 11
14012.91438714567
 21
833.8747482146427
 31
0.0
  0
LINE
  5
1A13C
330
19EB5
100
AcDbEntity
  8
YODOROGO
100
AcDbLine
 10
14025.06776011545
 20
827.751818637328
 30
0.0
 11
14041.06776011546
 21
827.751818637328
 31
0.0
1001
AUTOCAD_POSTSCRIPT_FIGURE
1002
{
1000
PSFILL
1000
Grayscale
1000
Grayscale
1070
   100
1002
}
  0
LINE
  5
1A13D
330
19EB5
100
AcDbEntity
  8
YODOROGO
100
AcDbLine
 10
14025.06776011545
 20
815.7518186373286
 30
0.0
 11
14025.06776011545
 21
827.751818637328
 31
0.0
1001
AUTOCAD_POSTSCRIPT_FIGURE
1002
{
1000
PSFILL
1000
Grayscale
1000
Grayscale
1070
   100
1002
}
  0
LINE
  5
1A13E
330
19EB5
100
AcDbEntity
  8
YODOROGO
100
AcDbLine
 10
14041.06776011546
 20
815.7518186373286
 30
0.0
 11
14025.06776011545
 21
815.7518186373286
 31
0.0
1001
AUTOCAD_POSTSCRIPT_FIGURE
1002
{
1000
PSFILL
1000
Grayscale
1000
Grayscale
1070
   100
1002
}
  0
LINE
  5
1A13F
330
19EB5
100
AcDbEntity
  8
YODOROGO
100
AcDbLine
 10
14041.06776011546
 20
749.8747482146441
 30
0.0
 11
14041.06776011546
 21
815.7518186373286
 31
0.0
1001
AUTOCAD_POSTSCRIPT_FIGURE
1002
{
1000
PSFILL
1000
Grayscale
1000
Grayscale
1070
   100
1002
}
  0
LINE
  5
1A140
330
19EB5
100
AcDbEntity
  8
YODOROGO
100
AcDbLine
 10
14025.06776011545
 20
749.8747482146441
 30
0.0
 11
14041.06776011546
 21
749.8747482146441
 31
0.0
1001
AUTOCAD_POSTSCRIPT_FIGURE
1002
{
1000
PSFILL
1000
Grayscale
1000
Grayscale
1070
   100
1002
}
  0
LINE
  5
1A141
330
19EB5
100
AcDbEntity
  8
YODOROGO
100
AcDbLine
 10
14025.06776011545
 20
737.8747482146435
 30
0.0
 11
14025.06776011545
 21
749.8747482146441
 31
0.0
1001
AUTOCAD_POSTSCRIPT_FIGURE
1002
{
1000
PSFILL
1000
Grayscale
1000
Grayscale
1070
   100
1002
}
  0
LINE
  5
1A142
330
19EB5
100
AcDbEntity
  8
YODOROGO
100
AcDbLine
 10
14068.80217064596
 20
737.8747482146435
 30
0.0
 11
14025.06776011545
 21
737.8747482146435
 31
0.0
1001
AUTOCAD_POSTSCRIPT_FIGURE
1002
{
1000
PSFILL
1000
Grayscale
1000
Grayscale
1070
   100
1002
}
  0
LINE
  5
1A143
330
19EB5
100
AcDbEntity
  8
YODOROGO
100
AcDbLine
 10
14068.80217064596
 20
749.8747482146441
 30
0.0
 11
14068.80217064596
 21
737.8747482146435
 31
0.0
1001
AUTOCAD_POSTSCRIPT_FIGURE
1002
{
1000
PSFILL
1000
Grayscale
1000
Grayscale
1070
   100
1002
}
  0
LINE
  5
1A144
330
19EB5
100
AcDbEntity
  8
YODOROGO
100
AcDbLine
 10
14049.06776011545
 20
749.8747482146441
 30
0.0
 11
14068.80217064596
 21
749.8747482146441
 31
0.0
1001
AUTOCAD_POSTSCRIPT_FIGURE
1002
{
1000
PSFILL
1000
Grayscale
1000
Grayscale
1070
   100
1002
}
  0
LINE
  5
1A145
330
19EB5
100
AcDbEntity
  8
YODOROGO
100
AcDbLine
 10
14049.06776011545
 20
815.7518186373286
 30
0.0
 11
14049.06776011545
 21
749.8747482146441
 31
0.0
1001
AUTOCAD_POSTSCRIPT_FIGURE
1002
{
1000
PSFILL
1000
Grayscale
1000
Grayscale
1070
   100
1002
}
  0
LINE
  5
1A146
330
19EB5
100
AcDbEntity
  8
YODOROGO
100
AcDbLine
 10
14068.80217064596
 20
815.7518186373286
 30
0.0
 11
14049.06776011545
 21
815.7518186373286
 31
0.0
1001
AUTOCAD_POSTSCRIPT_FIGURE
1002
{
1000
PSFILL
1000
Grayscale
1000
Grayscale
1070
   100
1002
}
  0
LINE
  5
1A147
330
19EB5
100
AcDbEntity
  8
YODOROGO
100
AcDbLine
 10
14068.80217064596
 20
827.751818637328
 30
0.0
 11
14068.80217064596
 21
815.7518186373286
 31
0.0
1001
AUTOCAD_POSTSCRIPT_FIGURE
1002
{
1000
PSFILL
1000
Grayscale
1000
Grayscale
1070
   100
1002
}
  0
LINE
  5
1A148
330
19EB5
100
AcDbEntity
  8
YODOROGO
100
AcDbLine
 10
14049.06776011545
 20
827.751818637328
 30
0.0
 11
14068.80217064596
 21
827.751818637328
 31
0.0
1001
AUTOCAD_POSTSCRIPT_FIGURE
1002
{
1000
PSFILL
1000
Grayscale
1000
Grayscale
1070
   100
1002
}
  0
LINE
  5
1A149
330
19EB5
100
AcDbEntity
  8
YODOROGO
100
AcDbLine
 10
14200.80217064594
 20
833.8747482146439
 30
0.0
 11
14172.80217064596
 21
833.8747482146439
 31
0.0
  0
LINE
  5
1A14A
330
19EB5
100
AcDbEntity
  8
YODOROGO
100
AcDbLine
 10
14200.80217064594
 20
805.8747482146443
 30
0.0
 11
14200.80217064594
 21
833.8747482146439
 31
0.0
  0
LINE
  5
1A14B
330
19EB5
100
AcDbEntity
  8
YODOROGO
100
AcDbLine
 10
14172.80217064596
 20
833.8747482146439
 30
0.0
 11
14172.80217064596
 21
805.8747482146443
 31
0.0
  0
ARC
  5
1A14C
330
19EB5
100
AcDbEntity
  8
YODOROGO
100
AcDbCircle
 10
14256.80217064594
 20
753.8747482146439
 30
0.0
 40
40.0
100
AcDbArc
 50
180.0
 51
270.0
  0
ARC
  5
1A14D
330
19EB5
100
AcDbEntity
  8
YODOROGO
100
AcDbCircle
 10
14268.80217064594
 20
781.8747482146434
 30
0.0
 40
20.0
100
AcDbArc
 50
180.0
 51
270.0
  0
LINE
  5
1A14E
330
19EB5
100
AcDbEntity
  8
YODOROGO
100
AcDbLine
 10
14280.80217064596
 20
761.8747482146434
 30
0.0
 11
14268.80217064594
 21
761.8747482146434
 31
0.0
  0
ARC
  5
1A14F
330
19EB5
100
AcDbEntity
  8
YODOROGO
100
AcDbCircle
 10
14280.80217064596
 20
773.8747482146427
 30
0.0
 40
11.99999999999818
100
AcDbArc
 50
270.0
 51
0.0000000000054281
  0
LINE
  5
1A150
330
19EB5
100
AcDbEntity
  8
YODOROGO
100
AcDbLine
 10
13900.80217064596
 20
945.3932903968532
 30
0.0
 11
13888.80217064596
 21
921.8883739758362
 31
0.0
1001
AUTOCAD_POSTSCRIPT_FIGURE
1002
{
1000
PSFILL
1000
Grayscale
1000
Grayscale
1070
   100
1002
}
  0
LINE
  5
1A151
330
19EB5
100
AcDbEntity
  8
YODOROGO
100
AcDbLine
 10
13900.80217064596
 20
873.8747482146434
 30
0.0
 11
13900.80217064596
 21
945.3932903968532
 31
0.0
1001
AUTOCAD_POSTSCRIPT_FIGURE
1002
{
1000
PSFILL
1000
Grayscale
1000
Grayscale
1070
   100
1002
}
  0
LINE
  5
1A152
330
19EB5
100
AcDbEntity
  8
YODOROGO
100
AcDbLine
 10
13908.80217064596
 20
873.8747482146434
 30
0.0
 11
13900.80217064596
 21
873.8747482146434
 31
0.0
1001
AUTOCAD_POSTSCRIPT_FIGURE
1002
{
1000
PSFILL
1000
Grayscale
1000
Grayscale
1070
   100
1002
}
  0
LINE
  5
1A153
330
19EB5
100
AcDbEntity
  8
YODOROGO
100
AcDbLine
 10
13908.80217064596
 20
946.8856660426332
 30
0.0
 11
13908.80217064596
 21
873.8747482146434
 31
0.0
1001
AUTOCAD_POSTSCRIPT_FIGURE
1002
{
1000
PSFILL
1000
Grayscale
1000
Grayscale
1070
   100
1002
}
  0
LINE
  5
1A154
330
19EB5
100
AcDbEntity
  8
YODOROGO
100
AcDbLine
 10
13920.80217064596
 20
933.8273791420684
 30
0.0
 11
13908.80217064596
 21
946.8856660426332
 31
0.0
1001
AUTOCAD_POSTSCRIPT_FIGURE
1002
{
1000
PSFILL
1000
Grayscale
1000
Grayscale
1070
   100
1002
}
  0
LINE
  5
1A155
330
19EB5
100
AcDbEntity
  8
YODOROGO
100
AcDbLine
 10
13920.80217064596
 20
941.8273791420681
 30
0.0
 11
13920.80217064596
 21
933.8273791420684
 31
0.0
1001
AUTOCAD_POSTSCRIPT_FIGURE
1002
{
1000
PSFILL
1000
Grayscale
1000
Grayscale
1070
   100
1002
}
  0
LINE
  5
1A156
330
19EB5
100
AcDbEntity
  8
YODOROGO
100
AcDbLine
 10
13908.80217064596
 20
958.8856660426325
 30
0.0
 11
13920.80217064596
 21
941.8273791420681
 31
0.0
1001
AUTOCAD_POSTSCRIPT_FIGURE
1002
{
1000
PSFILL
1000
Grayscale
1000
Grayscale
1070
   100
1002
}
  0
LINE
  5
1A157
330
19EB5
100
AcDbEntity
  8
YODOROGO
100
AcDbLine
 10
13908.80217064596
 20
969.8747482146441
 30
0.0
 11
13908.80217064596
 21
958.8856660426325
 31
0.0
1001
AUTOCAD_POSTSCRIPT_FIGURE
1002
{
1000
PSFILL
1000
Grayscale
1000
Grayscale
1070
   100
1002
}
  0
LINE
  5
1A158
330
19EB5
100
AcDbEntity
  8
YODOROGO
100
AcDbLine
 10
13944.80217064596
 20
969.8747482146441
 30
0.0
 11
13908.80217064596
 21
969.8747482146441
 31
0.0
1001
AUTOCAD_POSTSCRIPT_FIGURE
1002
{
1000
PSFILL
1000
Grayscale
1000
Grayscale
1070
   100
1002
}
  0
LINE
  5
1A159
330
19EB5
100
AcDbEntity
  8
YODOROGO
100
AcDbLine
 10
13944.80217064596
 20
950.2841744681497
 30
0.0
 11
13944.80217064596
 21
969.8747482146441
 31
0.0
1001
AUTOCAD_POSTSCRIPT_FIGURE
1002
{
1000
PSFILL
1000
Grayscale
1000
Grayscale
1070
   100
1002
}
  0
LINE
  5
1A15A
330
19EB5
100
AcDbEntity
  8
YODOROGO
100
AcDbLine
 10
13928.80217064596
 20
950.2841744681497
 30
0.0
 11
13944.80217064596
 21
950.2841744681497
 31
0.0
1001
AUTOCAD_POSTSCRIPT_FIGURE
1002
{
1000
PSFILL
1000
Grayscale
1000
Grayscale
1070
   100
1002
}
  0
LINE
  5
1A15B
330
19EB5
100
AcDbEntity
  8
YODOROGO
100
AcDbLine
 10
13928.80217064596
 20
942.2841744681491
 30
0.0
 11
13928.80217064596
 21
950.2841744681497
 31
0.0
1001
AUTOCAD_POSTSCRIPT_FIGURE
1002
{
1000
PSFILL
1000
Grayscale
1000
Grayscale
1070
   100
1002
}
  0
LINE
  5
1A15C
330
19EB5
100
AcDbEntity
  8
YODOROGO
100
AcDbLine
 10
13944.80217064596
 20
942.2841744681491
 30
0.0
 11
13928.80217064596
 21
942.2841744681491
 31
0.0
1001
AUTOCAD_POSTSCRIPT_FIGURE
1002
{
1000
PSFILL
1000
Grayscale
1000
Grayscale
1070
   100
1002
}
  0
LINE
  5
1A15D
330
19EB5
100
AcDbEntity
  8
YODOROGO
100
AcDbLine
 10
13944.80217064596
 20
939.8095889822196
 30
0.0
 11
13944.80217064596
 21
942.2841744681491
 31
0.0
1001
AUTOCAD_POSTSCRIPT_FIGURE
1002
{
1000
PSFILL
1000
Grayscale
1000
Grayscale
1070
   100
1002
}
  0
LINE
  5
1A15E
330
19EB5
100
AcDbEntity
  8
YODOROGO
100
AcDbLine
 10
13924.80217064596
 20
906.4874905807087
 30
0.0
 11
13944.80217064596
 21
939.8095889822196
 31
0.0
1001
AUTOCAD_POSTSCRIPT_FIGURE
1002
{
1000
PSFILL
1000
Grayscale
1000
Grayscale
1070
   100
1002
}
  0
LINE
  5
1A15F
330
19EB5
100
AcDbEntity
  8
YODOROGO
100
AcDbLine
 10
13924.80217064596
 20
898.487490580708
 30
0.0
 11
13924.80217064596
 21
906.4874905807087
 31
0.0
1001
AUTOCAD_POSTSCRIPT_FIGURE
1002
{
1000
PSFILL
1000
Grayscale
1000
Grayscale
1070
   100
1002
}
  0
LINE
  5
1A160
330
19EB5
100
AcDbEntity
  8
YODOROGO
100
AcDbLine
 10
13944.80217064596
 20
923.8095889822183
 30
0.0
 11
13924.80217064596
 21
898.487490580708
 31
0.0
1001
AUTOCAD_POSTSCRIPT_FIGURE
1002
{
1000
PSFILL
1000
Grayscale
1000
Grayscale
1070
   100
1002
}
  0
LINE
  5
1A161
330
19EB5
100
AcDbEntity
  8
YODOROGO
100
AcDbLine
 10
13944.80217064596
 20
873.8747482146434
 30
0.0
 11
13944.80217064596
 21
923.8095889822183
 31
0.0
1001
AUTOCAD_POSTSCRIPT_FIGURE
1002
{
1000
PSFILL
1000
Grayscale
1000
Grayscale
1070
   100
1002
}
  0
LINE
  5
1A162
330
19EB5
100
AcDbEntity
  8
YODOROGO
100
AcDbLine
 10
13952.80217064596
 20
873.8747482146434
 30
0.0
 11
13944.80217064596
 21
873.8747482146434
 31
0.0
1001
AUTOCAD_POSTSCRIPT_FIGURE
1002
{
1000
PSFILL
1000
Grayscale
1000
Grayscale
1070
   100
1002
}
  0
LINE
  5
1A163
330
19EB5
100
AcDbEntity
  8
YODOROGO
100
AcDbLine
 10
13952.80217064596
 20
924.7045060794032
 30
0.0
 11
13952.80217064596
 21
873.8747482146434
 31
0.0
1001
AUTOCAD_POSTSCRIPT_FIGURE
1002
{
1000
PSFILL
1000
Grayscale
1000
Grayscale
1070
   100
1002
}
  0
LINE
  5
1A164
330
19EB5
100
AcDbEntity
  8
YODOROGO
100
AcDbLine
 10
13968.80217064596
 20
898.487490580708
 30
0.0
 11
13952.80217064596
 21
924.7045060794032
 31
0.0
1001
AUTOCAD_POSTSCRIPT_FIGURE
1002
{
1000
PSFILL
1000
Grayscale
1000
Grayscale
1070
   100
1002
}
  0
LINE
  5
1A165
330
19EB5
100
AcDbEntity
  8
YODOROGO
100
AcDbLine
 10
13968.80217064596
 20
906.4874905807087
 30
0.0
 11
13968.80217064596
 21
898.487490580708
 31
0.0
1001
AUTOCAD_POSTSCRIPT_FIGURE
1002
{
1000
PSFILL
1000
Grayscale
1000
Grayscale
1070
   100
1002
}
  0
LINE
  5
1A166
330
19EB5
100
AcDbEntity
  8
YODOROGO
100
AcDbLine
 10
13952.80217064596
 20
940.7045060794041
 30
0.0
 11
13968.80217064596
 21
906.4874905807087
 31
0.0
1001
AUTOCAD_POSTSCRIPT_FIGURE
1002
{
1000
PSFILL
1000
Grayscale
1000
Grayscale
1070
   100
1002
}
  0
LINE
  5
1A167
330
19EB5
100
AcDbEntity
  8
YODOROGO
100
AcDbLine
 10
13952.80217064596
 20
942.2841744681502
 30
0.0
 11
13952.80217064596
 21
940.7045060794041
 31
0.0
1001
AUTOCAD_POSTSCRIPT_FIGURE
1002
{
1000
PSFILL
1000
Grayscale
1000
Grayscale
1070
   100
1002
}
  0
LINE
  5
1A168
330
19EB5
100
AcDbEntity
  8
YODOROGO
100
AcDbLine
 10
13968.80217064596
 20
942.2841744681491
 30
0.0
 11
13952.80217064596
 21
942.2841744681502
 31
0.0
1001
AUTOCAD_POSTSCRIPT_FIGURE
1002
{
1000
PSFILL
1000
Grayscale
1000
Grayscale
1070
   100
1002
}
  0
LINE
  5
1A169
330
19EB5
100
AcDbEntity
  8
YODOROGO
100
AcDbLine
 10
13968.80217064596
 20
950.2841744681497
 30
0.0
 11
13968.80217064596
 21
942.2841744681491
 31
0.0
1001
AUTOCAD_POSTSCRIPT_FIGURE
1002
{
1000
PSFILL
1000
Grayscale
1000
Grayscale
1070
   100
1002
}
  0
LINE
  5
1A16A
330
19EB5
100
AcDbEntity
  8
YODOROGO
100
AcDbLine
 10
13952.80217064596
 20
950.2841744681497
 30
0.0
 11
13968.80217064596
 21
950.2841744681497
 31
0.0
1001
AUTOCAD_POSTSCRIPT_FIGURE
1002
{
1000
PSFILL
1000
Grayscale
1000
Grayscale
1070
   100
1002
}
  0
LINE
  5
1A16B
330
19EB5
100
AcDbEntity
  8
YODOROGO
100
AcDbLine
 10
13952.80217064596
 20
969.8747482146441
 30
0.0
 11
13952.80217064596
 21
950.2841744681497
 31
0.0
1001
AUTOCAD_POSTSCRIPT_FIGURE
1002
{
1000
PSFILL
1000
Grayscale
1000
Grayscale
1070
   100
1002
}
  0
LINE
  5
1A16C
330
19EB5
100
AcDbEntity
  8
YODOROGO
100
AcDbLine
 10
13968.80217064596
 20
969.8747482146441
 30
0.0
 11
13952.80217064596
 21
969.8747482146441
 31
0.0
1001
AUTOCAD_POSTSCRIPT_FIGURE
1002
{
1000
PSFILL
1000
Grayscale
1000
Grayscale
1070
   100
1002
}
  0
LINE
  5
1A16D
330
19EB5
100
AcDbEntity
  8
YODOROGO
100
AcDbLine
 10
13968.80217064596
 20
977.8747482146435
 30
0.0
 11
13968.80217064596
 21
969.8747482146441
 31
0.0
1001
AUTOCAD_POSTSCRIPT_FIGURE
1002
{
1000
PSFILL
1000
Grayscale
1000
Grayscale
1070
   100
1002
}
  0
LINE
  5
1A16E
330
19EB5
100
AcDbEntity
  8
YODOROGO
100
AcDbLine
 10
13952.80217064596
 20
977.8747482146435
 30
0.0
 11
13968.80217064596
 21
977.8747482146435
 31
0.0
1001
AUTOCAD_POSTSCRIPT_FIGURE
1002
{
1000
PSFILL
1000
Grayscale
1000
Grayscale
1070
   100
1002
}
  0
LINE
  5
1A16F
330
19EB5
100
AcDbEntity
  8
YODOROGO
100
AcDbLine
 10
13952.80217064596
 20
989.8747482146442
 30
0.0
 11
13952.80217064596
 21
977.8747482146435
 31
0.0
1001
AUTOCAD_POSTSCRIPT_FIGURE
1002
{
1000
PSFILL
1000
Grayscale
1000
Grayscale
1070
   100
1002
}
  0
LINE
  5
1A170
330
19EB5
100
AcDbEntity
  8
YODOROGO
100
AcDbLine
 10
13944.80217064596
 20
989.8747482146442
 30
0.0
 11
13952.80217064596
 21
989.8747482146442
 31
0.0
1001
AUTOCAD_POSTSCRIPT_FIGURE
1002
{
1000
PSFILL
1000
Grayscale
1000
Grayscale
1070
   100
1002
}
  0
LINE
  5
1A171
330
19EB5
100
AcDbEntity
  8
YODOROGO
100
AcDbLine
 10
13944.80217064596
 20
977.8747482146435
 30
0.0
 11
13944.80217064596
 21
989.8747482146442
 31
0.0
1001
AUTOCAD_POSTSCRIPT_FIGURE
1002
{
1000
PSFILL
1000
Grayscale
1000
Grayscale
1070
   100
1002
}
  0
LINE
  5
1A172
330
19EB5
100
AcDbEntity
  8
YODOROGO
100
AcDbLine
 10
13932.80217064596
 20
977.8747482146435
 30
0.0
 11
13944.80217064596
 21
977.8747482146435
 31
0.0
1001
AUTOCAD_POSTSCRIPT_FIGURE
1002
{
1000
PSFILL
1000
Grayscale
1000
Grayscale
1070
   100
1002
}
  0
LINE
  5
1A173
330
19EB5
100
AcDbEntity
  8
YODOROGO
100
AcDbLine
 10
13932.80217064596
 20
989.8747482146442
 30
0.0
 11
13932.80217064596
 21
977.8747482146435
 31
0.0
1001
AUTOCAD_POSTSCRIPT_FIGURE
1002
{
1000
PSFILL
1000
Grayscale
1000
Grayscale
1070
   100
1002
}
  0
LINE
  5
1A174
330
19EB5
100
AcDbEntity
  8
YODOROGO
100
AcDbLine
 10
13924.80217064596
 20
989.8747482146442
 30
0.0
 11
13932.80217064596
 21
989.8747482146442
 31
0.0
1001
AUTOCAD_POSTSCRIPT_FIGURE
1002
{
1000
PSFILL
1000
Grayscale
1000
Grayscale
1070
   100
1002
}
  0
LINE
  5
1A175
330
19EB5
100
AcDbEntity
  8
YODOROGO
100
AcDbLine
 10
13924.80217064596
 20
977.8747482146435
 30
0.0
 11
13924.80217064596
 21
989.8747482146442
 31
0.0
1001
AUTOCAD_POSTSCRIPT_FIGURE
1002
{
1000
PSFILL
1000
Grayscale
1000
Grayscale
1070
   100
1002
}
  0
LINE
  5
1A176
330
19EB5
100
AcDbEntity
  8
YODOROGO
100
AcDbLine
 10
13908.80217064596
 20
977.8747482146435
 30
0.0
 11
13924.80217064596
 21
977.8747482146435
 31
0.0
1001
AUTOCAD_POSTSCRIPT_FIGURE
1002
{
1000
PSFILL
1000
Grayscale
1000
Grayscale
1070
   100
1002
}
  0
LINE
  5
1A177
330
19EB5
100
AcDbEntity
  8
YODOROGO
100
AcDbLine
 10
13908.80217064596
 20
989.8747482146442
 30
0.0
 11
13908.80217064596
 21
977.8747482146435
 31
0.0
1001
AUTOCAD_POSTSCRIPT_FIGURE
1002
{
1000
PSFILL
1000
Grayscale
1000
Grayscale
1070
   100
1002
}
  0
LINE
  5
1A178
330
19EB5
100
AcDbEntity
  8
YODOROGO
100
AcDbLine
 10
13900.80217064596
 20
989.8747482146442
 30
0.0
 11
13908.80217064596
 21
989.8747482146442
 31
0.0
1001
AUTOCAD_POSTSCRIPT_FIGURE
1002
{
1000
PSFILL
1000
Grayscale
1000
Grayscale
1070
   100
1002
}
  0
LINE
  5
1A179
330
19EB5
100
AcDbEntity
  8
YODOROGO
100
AcDbLine
 10
13900.80217064596
 20
977.8747482146435
 30
0.0
 11
13900.80217064596
 21
989.8747482146442
 31
0.0
1001
AUTOCAD_POSTSCRIPT_FIGURE
1002
{
1000
PSFILL
1000
Grayscale
1000
Grayscale
1070
   100
1002
}
  0
LINE
  5
1A17A
330
19EB5
100
AcDbEntity
  8
YODOROGO
100
AcDbLine
 10
13888.80217064596
 20
977.8747482146435
 30
0.0
 11
13900.80217064596
 21
977.8747482146435
 31
0.0
1001
AUTOCAD_POSTSCRIPT_FIGURE
1002
{
1000
PSFILL
1000
Grayscale
1000
Grayscale
1070
   100
1002
}
  0
LINE
  5
1A17B
330
19EB5
100
AcDbEntity
  8
YODOROGO
100
AcDbLine
 10
13888.80217064596
 20
969.8747482146441
 30
0.0
 11
13888.80217064596
 21
977.8747482146435
 31
0.0
1001
AUTOCAD_POSTSCRIPT_FIGURE
1002
{
1000
PSFILL
1000
Grayscale
1000
Grayscale
1070
   100
1002
}
  0
LINE
  5
1A17C
330
19EB5
100
AcDbEntity
  8
YODOROGO
100
AcDbLine
 10
13900.80217064596
 20
969.8747482146441
 30
0.0
 11
13888.80217064596
 21
969.8747482146441
 31
0.0
1001
AUTOCAD_POSTSCRIPT_FIGURE
1002
{
1000
PSFILL
1000
Grayscale
1000
Grayscale
1070
   100
1002
}
  0
LINE
  5
1A17D
330
19EB5
100
AcDbEntity
  8
YODOROGO
100
AcDbLine
 10
13900.80217064596
 20
957.3932903968525
 30
0.0
 11
13900.80217064596
 21
969.8747482146441
 31
0.0
1001
AUTOCAD_POSTSCRIPT_FIGURE
1002
{
1000
PSFILL
1000
Grayscale
1000
Grayscale
1070
   100
1002
}
  0
LINE
  5
1A17E
330
19EB5
100
AcDbEntity
  8
YODOROGO
100
AcDbLine
 10
13888.80217064596
 20
929.8883739758355
 30
0.0
 11
13900.80217064596
 21
957.3932903968525
 31
0.0
1001
AUTOCAD_POSTSCRIPT_FIGURE
1002
{
1000
PSFILL
1000
Grayscale
1000
Grayscale
1070
   100
1002
}
  0
LINE
  5
1A17F
330
19EB5
100
AcDbEntity
  8
YODOROGO
100
AcDbLine
 10
13888.80217064596
 20
921.8883739758362
 30
0.0
 11
13888.80217064596
 21
929.8883739758355
 31
0.0
1001
AUTOCAD_POSTSCRIPT_FIGURE
1002
{
1000
PSFILL
1000
Grayscale
1000
Grayscale
1070
   100
1002
}
  0
LINE
  5
1A180
330
19EB5
100
AcDbEntity
  8
YODOROGO
100
AcDbLine
 10
14128.80217064596
 20
933.8747482146439
 30
0.0
 11
14200.80217064594
 21
912.4388128201532
 31
0.0
1001
AUTOCAD_POSTSCRIPT_FIGURE
1002
{
1000
PSFILL
1000
Grayscale
1000
Grayscale
1070
   100
1002
}
  0
LINE
  5
1A181
330
19EB5
100
AcDbEntity
  8
YODOROGO
100
AcDbLine
 10
14200.80217064594
 20
876.4388128201531
 30
0.0
 11
14128.80217064596
 21
897.8747482146435
 31
0.0
1001
AUTOCAD_POSTSCRIPT_FIGURE
1002
{
1000
PSFILL
1000
Grayscale
1000
Grayscale
1070
   100
1002
}
  0
LINE
  5
1A182
330
19EB5
100
AcDbEntity
  8
YODOROGO
100
AcDbLine
 10
14200.80217064594
 20
992.4388128201531
 30
0.0
 11
14128.80217064596
 21
1013.874748214644
 31
0.0
1001
AUTOCAD_POSTSCRIPT_FIGURE
1002
{
1000
PSFILL
1000
Grayscale
1000
Grayscale
1070
   100
1002
}
  0
LINE
  5
1A183
330
19EB5
100
AcDbEntity
  8
YODOROGO
100
AcDbLine
 10
14128.80217064596
 20
979.874748214644
 30
0.0
 11
14200.80217064594
 21
958.4388128201537
 31
0.0
1001
AUTOCAD_POSTSCRIPT_FIGURE
1002
{
1000
PSFILL
1000
Grayscale
1000
Grayscale
1070
   100
1002
}
  0
LINE
  5
1A184
330
19EB5
100
AcDbEntity
  8
YODOROGO
100
AcDbLine
 10
14128.80217064596
 20
897.8747482146435
 30
0.0
 11
14128.80217064596
 21
933.8747482146439
 31
0.0
1001
AUTOCAD_POSTSCRIPT_FIGURE
1002
{
1000
PSFILL
1000
Grayscale
1000
Grayscale
1070
   100
1002
}
  0
LINE
  5
1A185
330
19EB5
100
AcDbEntity
  8
YODOROGO
100
AcDbLine
 10
14128.80217064596
 20
1013.874748214644
 30
0.0
 11
14128.80217064596
 21
979.874748214644
 31
0.0
1001
AUTOCAD_POSTSCRIPT_FIGURE
1002
{
1000
PSFILL
1000
Grayscale
1000
Grayscale
1070
   100
1002
}
  0
LINE
  5
1A186
330
19EB5
100
AcDbEntity
  8
YODOROGO
100
AcDbLine
 10
14040.11816010337
 20
969.8747482146441
 30
0.0
 11
14064.80217064595
 21
873.8747482146434
 31
0.0
1001
AUTOCAD_POSTSCRIPT_FIGURE
1002
{
1000
PSFILL
1000
Grayscale
1000
Grayscale
1070
   100
1002
}
  0
LINE
  5
1A187
330
19EB5
100
AcDbEntity
  8
YODOROGO
100
AcDbLine
 10
13988.80217064596
 20
969.8747482146441
 30
0.0
 11
14040.11816010337
 21
969.8747482146441
 31
0.0
1001
AUTOCAD_POSTSCRIPT_FIGURE
1002
{
1000
PSFILL
1000
Grayscale
1000
Grayscale
1070
   100
1002
}
  0
LINE
  5
1A188
330
19EB5
100
AcDbEntity
  8
YODOROGO
100
AcDbLine
 10
13988.80217064596
 20
977.8747482146435
 30
0.0
 11
13988.80217064596
 21
969.8747482146441
 31
0.0
1001
AUTOCAD_POSTSCRIPT_FIGURE
1002
{
1000
PSFILL
1000
Grayscale
1000
Grayscale
1070
   100
1002
}
  0
LINE
  5
1A189
330
19EB5
100
AcDbEntity
  8
YODOROGO
100
AcDbLine
 10
14038.30343925995
 20
977.8747482146435
 30
0.0
 11
13988.80217064596
 21
977.8747482146435
 31
0.0
1001
AUTOCAD_POSTSCRIPT_FIGURE
1002
{
1000
PSFILL
1000
Grayscale
1000
Grayscale
1070
   100
1002
}
  0
LINE
  5
1A18A
330
19EB5
100
AcDbEntity
  8
YODOROGO
100
AcDbLine
 10
14035.58135799485
 20
989.8747482146442
 30
0.0
 11
14038.30343925995
 21
977.8747482146435
 31
0.0
1001
AUTOCAD_POSTSCRIPT_FIGURE
1002
{
1000
PSFILL
1000
Grayscale
1000
Grayscale
1070
   100
1002
}
  0
LINE
  5
1A18B
330
19EB5
100
AcDbEntity
  8
YODOROGO
100
AcDbLine
 10
14045.58135799485
 20
989.8747482146442
 30
0.0
 11
14035.58135799485
 21
989.8747482146442
 31
0.0
1001
AUTOCAD_POSTSCRIPT_FIGURE
1002
{
1000
PSFILL
1000
Grayscale
1000
Grayscale
1070
   100
1002
}
  0
LINE
  5
1A18C
330
19EB5
100
AcDbEntity
  8
YODOROGO
100
AcDbLine
 10
14047.90343925997
 20
977.8747482146435
 30
0.0
 11
14045.58135799485
 21
989.8747482146442
 31
0.0
1001
AUTOCAD_POSTSCRIPT_FIGURE
1002
{
1000
PSFILL
1000
Grayscale
1000
Grayscale
1070
   100
1002
}
  0
LINE
  5
1A18D
330
19EB5
100
AcDbEntity
  8
YODOROGO
100
AcDbLine
 10
14060.80217064596
 20
977.8747482146435
 30
0.0
 11
14047.90343925997
 21
977.8747482146435
 31
0.0
1001
AUTOCAD_POSTSCRIPT_FIGURE
1002
{
1000
PSFILL
1000
Grayscale
1000
Grayscale
1070
   100
1002
}
  0
LINE
  5
1A18E
330
19EB5
100
AcDbEntity
  8
YODOROGO
100
AcDbLine
 10
14060.80217064596
 20
989.8747482146442
 30
0.0
 11
14060.80217064596
 21
977.8747482146435
 31
0.0
1001
AUTOCAD_POSTSCRIPT_FIGURE
1002
{
1000
PSFILL
1000
Grayscale
1000
Grayscale
1070
   100
1002
}
  0
LINE
  5
1A18F
330
19EB5
100
AcDbEntity
  8
YODOROGO
100
AcDbLine
 10
14068.80217064596
 20
989.8747482146442
 30
0.0
 11
14060.80217064596
 21
989.8747482146442
 31
0.0
1001
AUTOCAD_POSTSCRIPT_FIGURE
1002
{
1000
PSFILL
1000
Grayscale
1000
Grayscale
1070
   100
1002
}
  0
LINE
  5
1A190
330
19EB5
100
AcDbEntity
  8
YODOROGO
100
AcDbLine
 10
14068.80217064596
 20
977.8747482146435
 30
0.0
 11
14068.80217064596
 21
989.8747482146442
 31
0.0
1001
AUTOCAD_POSTSCRIPT_FIGURE
1002
{
1000
PSFILL
1000
Grayscale
1000
Grayscale
1070
   100
1002
}
  0
LINE
  5
1A191
330
19EB5
100
AcDbEntity
  8
YODOROGO
100
AcDbLine
 10
14068.80217064596
 20
969.8747482146441
 30
0.0
 11
14068.80217064596
 21
977.8747482146435
 31
0.0
1001
AUTOCAD_POSTSCRIPT_FIGURE
1002
{
1000
PSFILL
1000
Grayscale
1000
Grayscale
1070
   100
1002
}
  0
LINE
  5
1A192
330
19EB5
100
AcDbEntity
  8
YODOROGO
100
AcDbLine
 10
14049.45149343671
 20
969.8747482146441
 30
0.0
 11
14068.80217064596
 21
969.8747482146441
 31
0.0
1001
AUTOCAD_POSTSCRIPT_FIGURE
1002
{
1000
PSFILL
1000
Grayscale
1000
Grayscale
1070
   100
1002
}
  0
LINE
  5
1A193
330
19EB5
100
AcDbEntity
  8
YODOROGO
100
AcDbLine
 10
14068.80217064596
 20
873.8747482146434
 30
0.0
 11
14049.45149343671
 21
969.8747482146441
 31
0.0
1001
AUTOCAD_POSTSCRIPT_FIGURE
1002
{
1000
PSFILL
1000
Grayscale
1000
Grayscale
1070
   100
1002
}
  0
LINE
  5
1A194
330
19EB5
100
AcDbEntity
  8
YODOROGO
100
AcDbLine
 10
14064.80217064595
 20
873.8747482146434
 30
0.0
 11
14068.80217064596
 21
873.8747482146434
 31
0.0
1001
AUTOCAD_POSTSCRIPT_FIGURE
1002
{
1000
PSFILL
1000
Grayscale
1000
Grayscale
1070
   100
1002
}
  0
LINE
  5
1A195
330
19EB5
100
AcDbEntity
  8
YODOROGO
100
AcDbLine
 10
14039.03460996689
 20
887.8703881493972
 30
0.0
 11
13988.80217064596
 21
873.8747482146434
 31
0.0
  0
LINE
  5
1A196
330
19EB5
100
AcDbEntity
  8
YODOROGO
100
AcDbLine
 10
14039.03460996689
 20
899.3344897645364
 30
0.0
 11
14039.03460996689
 21
887.8703881493972
 31
0.0
  0
LINE
  5
1A197
330
19EB5
100
AcDbEntity
  8
YODOROGO
100
AcDbLine
 10
14016.91839030643
 20
893.4084665668834
 30
0.0
 11
14039.03460996689
 21
899.3344897645364
 31
0.0
  0
LINE
  5
1A198
330
19EB5
100
AcDbEntity
  8
YODOROGO
100
AcDbLine
 10
14016.91839030643
 20
936.2841744681499
 30
0.0
 11
14016.91839030643
 21
893.4084665668834
 31
0.0
  0
LINE
  5
1A199
330
19EB5
100
AcDbEntity
  8
YODOROGO
100
AcDbLine
 10
14039.03460996689
 20
936.2841744681499
 30
0.0
 11
14016.91839030643
 21
936.2841744681499
 31
0.0
  0
LINE
  5
1A19A
330
19EB5
100
AcDbEntity
  8
YODOROGO
100
AcDbLine
 10
14039.03460996689
 20
946.2841744681487
 30
0.0
 11
14039.03460996689
 21
936.2841744681499
 31
0.0
  0
LINE
  5
1A19B
330
19EB5
100
AcDbEntity
  8
YODOROGO
100
AcDbLine
 10
13988.80217064596
 20
946.2841744681487
 30
0.0
 11
14039.03460996689
 21
946.2841744681487
 31
0.0
  0
LINE
  5
1A19C
330
19EB5
100
AcDbEntity
  8
YODOROGO
100
AcDbLine
 10
13988.80217064596
 20
936.2841744681499
 30
0.0
 11
13988.80217064596
 21
946.2841744681487
 31
0.0
  0
LINE
  5
1A19D
330
19EB5
100
AcDbEntity
  8
YODOROGO
100
AcDbLine
 10
14010.91839030643
 20
936.2841744681499
 30
0.0
 11
13988.80217064596
 21
936.2841744681499
 31
0.0
  0
LINE
  5
1A19E
330
19EB5
100
AcDbEntity
  8
YODOROGO
100
AcDbLine
 10
14010.91839030643
 20
892.3366697971587
 30
0.0
 11
14010.91839030643
 21
936.2841744681499
 31
0.0
  0
LINE
  5
1A19F
330
19EB5
100
AcDbEntity
  8
YODOROGO
100
AcDbLine
 10
13988.80217064596
 20
885.8747482146432
 30
0.0
 11
14010.91839030643
 21
892.3366697971587
 31
0.0
  0
LINE
  5
1A1A0
330
19EB5
100
AcDbEntity
  8
YODOROGO
100
AcDbLine
 10
13988.80217064596
 20
873.8747482146434
 30
0.0
 11
13988.80217064596
 21
885.8747482146432
 31
0.0
  0
LINE
  5
1A1A1
330
19EB5
100
AcDbEntity
  8
YODOROGO
100
AcDbLine
 10
14000.80217064596
 20
853.874748214644
 30
0.0
 11
14000.80217064596
 21
841.8747482146434
 31
0.0
  0
LINE
  5
1A1A2
330
19EB5
100
AcDbEntity
  8
YODOROGO
100
AcDbLine
 10
14000.80217064596
 20
853.874748214644
 30
0.0
 11
14000.80217064596
 21
853.874748214644
 31
0.0
  0
LINE
  5
1A1A3
330
19EB5
100
AcDbEntity
  8
YODOROGO
100
AcDbLine
 10
14008.80217064596
 20
853.874748214644
 30
0.0
 11
14000.80217064596
 21
853.874748214644
 31
0.0
  0
LINE
  5
1A1A4
330
19EB5
100
AcDbEntity
  8
YODOROGO
100
AcDbLine
 10
14008.80217064596
 20
841.8747482146434
 30
0.0
 11
14008.80217064596
 21
853.874748214644
 31
0.0
  0
LINE
  5
1A1A5
330
19EB5
100
AcDbEntity
  8
YODOROGO
100
AcDbLine
 10
14020.45660200844
 20
841.8747482146434
 30
0.0
 11
14008.80217064596
 21
841.8747482146434
 31
0.0
  0
LINE
  5
1A1A6
330
19EB5
100
AcDbEntity
  8
YODOROGO
100
AcDbLine
 10
14000.80217064596
 20
841.8747482146434
 30
0.0
 11
13988.80217064596
 21
841.8747482146434
 31
0.0
  0
LINE
  5
1A1A7
330
19EB5
100
AcDbEntity
  8
YODOROGO
100
AcDbLine
 10
14041.06776011546
 20
853.874748214644
 30
0.0
 11
14049.06776011545
 21
853.874748214644
 31
0.0
1001
AUTOCAD_POSTSCRIPT_FIGURE
1002
{
1000
PSFILL
1000
Grayscale
1000
Grayscale
1070
   100
1002
}
  0
LINE
  5
1A1A8
330
19EB5
100
AcDbEntity
  8
YODOROGO
100
AcDbLine
 10
14200.80217064594
 20
912.4388128201532
 30
0.0
 11
14200.80217064594
 21
876.4388128201531
 31
0.0
1001
AUTOCAD_POSTSCRIPT_FIGURE
1002
{
1000
PSFILL
1000
Grayscale
1000
Grayscale
1070
   100
1002
}
  0
LINE
  5
1A1A9
330
19EB5
100
AcDbEntity
  8
YODOROGO
100
AcDbLine
 10
14200.80217064594
 20
958.4388128201537
 30
0.0
 11
14200.80217064594
 21
992.4388128201531
 31
0.0
1001
AUTOCAD_POSTSCRIPT_FIGURE
1002
{
1000
PSFILL
1000
Grayscale
1000
Grayscale
1070
   100
1002
}
  0
LINE
  5
1A1AA
330
19EB5
100
AcDbEntity
  8
YODOROGO
100
AcDbLine
 10
14216.80217064594
 20
909.8747482146439
 30
0.0
 11
14216.80217064594
 21
873.8747482146449
 31
0.0
  0
LINE
  5
1A1AB
330
19EB5
100
AcDbEntity
  8
YODOROGO
100
AcDbLine
 10
14248.80217064594
 20
853.874748214644
 30
0.0
 11
14216.80217064594
 21
853.874748214644
 31
0.0
  0
LINE
  5
1A1AC
330
19EB5
100
AcDbEntity
  8
YODOROGO
100
AcDbLine
 10
14216.80217064594
 20
873.8747482146449
 30
0.0
 11
14292.80217064596
 21
873.8747482146449
 31
0.0
  0
LINE
  5
1A1AD
330
19EB5
100
AcDbEntity
  8
YODOROGO
100
AcDbLine
 10
14248.80217064594
 20
933.8747482146439
 30
0.0
 11
14216.80217064594
 21
933.8747482146439
 31
0.0
  0
LINE
  5
1A1AE
330
19EB5
100
AcDbEntity
  8
YODOROGO
100
AcDbLine
 10
14248.80217064594
 20
961.8747482146432
 30
0.0
 11
14248.80217064594
 21
933.8747482146439
 31
0.0
  0
LINE
  5
1A1AF
330
19EB5
100
AcDbEntity
  8
YODOROGO
100
AcDbLine
 10
14292.80217064596
 20
993.8747482146439
 30
0.0
 11
14292.80217064596
 21
1013.874748214644
 31
0.0
  0
LINE
  5
1A1B0
330
19EB5
100
AcDbEntity
  8
YODOROGO
100
AcDbLine
 10
14216.80217064594
 20
993.8747482146439
 30
0.0
 11
14292.80217064596
 21
993.8747482146439
 31
0.0
  0
LINE
  5
1A1B1
330
19EB5
100
AcDbEntity
  8
YODOROGO
100
AcDbLine
 10
14216.80217064594
 20
933.8747482146439
 30
0.0
 11
14216.80217064594
 21
993.8747482146439
 31
0.0
  0
LINE
  5
1A1B2
330
19EB5
100
AcDbEntity
  8
YODOROGO
100
AcDbLine
 10
14500.80217064594
 20
1013.874748214644
 30
0.0
 11
14500.80217064594
 21
809.8747482146441
 31
0.0
  0
LINE
  5
1A1B3
330
19EB5
100
AcDbEntity
  8
YODOROGO
100
AcDbLine
 10
14536.80217064596
 20
789.8747482146441
 30
0.0
 11
14536.80217064596
 21
1013.874748214644
 31
0.0
  0
LINE
  5
1A1B4
330
19EB5
100
AcDbEntity
  8
YODOROGO
100
AcDbLine
 10
14630.80217064596
 20
745.8747482146431
 30
0.0
 11
14630.80217064596
 21
1003.874748214644
 31
0.0
  0
LINE
  5
1A1B5
330
19EB5
100
AcDbEntity
  8
YODOROGO
100
AcDbLine
 10
14598.80217064596
 20
1003.874748214644
 30
0.0
 11
14598.80217064596
 21
745.8747482146431
 31
0.0
  0
LINE
  5
1A1B6
330
19EB5
100
AcDbEntity
  8
YODOROGO
100
AcDbLine
 10
14692.80217064596
 20
1013.874748214644
 30
0.0
 11
14692.80217064596
 21
713.8747482146436
 31
0.0
  0
LINE
  5
1A1B7
330
19EB5
100
AcDbEntity
  8
YODOROGO
100
AcDbLine
 10
14728.80217064596
 20
713.8747482146436
 30
0.0
 11
14728.80217064596
 21
1013.874748214644
 31
0.0
  0
LINE
  5
1A1B8
330
19EB5
100
AcDbEntity
  8
YODOROGO
100
AcDbLine
 10
14328.80217064594
 20
833.8747482146439
 30
0.0
 11
14328.80217064594
 21
873.8747482146449
 31
0.0
  0
LINE
  5
1A1B9
330
19EB5
100
AcDbEntity
  8
YODOROGO
100
AcDbLine
 10
14942.80217064596
 20
853.874748214644
 30
0.0
 11
14942.80217064596
 21
833.8747482146439
 31
0.0
  0
LINE
  5
1A1BA
330
19EB5
100
AcDbEntity
  8
YODOROGO
100
AcDbLine
 10
14942.80217064596
 20
853.874748214644
 30
0.0
 11
14942.80217064596
 21
833.8747482146439
 31
0.0
  0
ARC
  5
1A1BB
330
19EB5
100
AcDbEntity
  8
YODOROGO
100
AcDbCircle
 10
14453.45578809342
 20
809.1089322211363
 30
0.0
 40
47.35257558937082
100
AcDbArc
 50
274.052441629071
 51
0.9266642149310712
  0
ARC
  5
1A1BC
330
19EB5
100
AcDbEntity
  8
YODOROGO
100
AcDbCircle
 10
14454.5930853599
 20
796.30536430522
 30
0.0
 40
82.46021178042756
100
AcDbArc
 50
271.5351210653777
 51
355.5272775058505
  0
LINE
  5
1A1BD
330
19EB5
100
AcDbEntity
  8
YODOROGO
100
AcDbLine
 10
14456.80217064596
 20
761.8747482146434
 30
0.0
 11
14456.80217064596
 21
713.8747482146436
 31
0.0
  0
LINE
  5
1A1BE
330
19EB5
100
AcDbEntity
  8
YODOROGO
100
AcDbLine
 10
14396.80217064594
 20
833.8747482146439
 30
0.0
 11
14328.80217064594
 21
833.8747482146439
 31
0.0
  0
LINE
  5
1A1BF
330
19EB5
100
AcDbEntity
  8
YODOROGO
100
AcDbLine
 10
14396.80217064594
 20
801.8747482146444
 30
0.0
 11
14396.80217064594
 21
833.8747482146439
 31
0.0
  0
LINE
  5
1A1C0
330
19EB5
100
AcDbEntity
  8
YODOROGO
100
AcDbLine
 10
14328.80217064594
 20
801.8747482146444
 30
0.0
 11
14396.80217064594
 21
801.8747482146444
 31
0.0
  0
LINE
  5
1A1C1
330
19EB5
100
AcDbEntity
  8
YODOROGO
100
AcDbLine
 10
14328.80217064594
 20
761.8747482146434
 30
0.0
 11
14328.80217064594
 21
801.8747482146444
 31
0.0
  0
LINE
  5
1A1C2
330
19EB5
100
AcDbEntity
  8
YODOROGO
100
AcDbLine
 10
14396.80217064594
 20
761.8747482146434
 30
0.0
 11
14328.80217064594
 21
761.8747482146434
 31
0.0
  0
LINE
  5
1A1C3
330
19EB5
100
AcDbEntity
  8
YODOROGO
100
AcDbLine
 10
14396.80217064594
 20
713.8747482146436
 30
0.0
 11
14396.80217064594
 21
761.8747482146434
 31
0.0
  0
LINE
  5
1A1C4
330
19EB5
100
AcDbEntity
  8
YODOROGO
100
AcDbLine
 10
14598.80217064596
 20
745.8747482146431
 30
0.0
 11
14630.80217064596
 21
745.8747482146431
 31
0.0
  0
LINE
  5
1A1C5
330
19EB5
100
AcDbEntity
  8
YODOROGO
100
AcDbLine
 10
14692.80217064596
 20
713.8747482146436
 30
0.0
 11
14728.80217064596
 21
713.8747482146436
 31
0.0
  0
LINE
  5
1A1C6
330
19EB5
100
AcDbEntity
  8
YODOROGO
100
AcDbLine
 10
14868.80217064596
 20
764.2207260852818
 30
0.0
 11
14868.80217064596
 21
713.8747482146436
 31
0.0
  0
LINE
  5
1A1C7
330
19EB5
100
AcDbEntity
  8
YODOROGO
100
AcDbLine
 10
14808.80217064596
 20
713.8747482146436
 30
0.0
 11
14868.80217064596
 21
764.2207260852818
 31
0.0
  0
LINE
  5
1A1C8
330
19EB5
100
AcDbEntity
  8
YODOROGO
100
AcDbLine
 10
14808.80217064596
 20
773.874748214644
 30
0.0
 11
14808.80217064596
 21
713.8747482146436
 31
0.0
  0
LINE
  5
1A1C9
330
19EB5
100
AcDbEntity
  8
YODOROGO
100
AcDbLine
 10
14856.47231434973
 20
813.8747482146435
 30
0.0
 11
14808.80217064596
 21
773.874748214644
 31
0.0
  0
LINE
  5
1A1CA
330
19EB5
100
AcDbEntity
  8
YODOROGO
100
AcDbLine
 10
14808.80217064596
 20
813.8747482146435
 30
0.0
 11
14856.47231434973
 21
813.8747482146435
 31
0.0
  0
LINE
  5
1A1CB
330
19EB5
100
AcDbEntity
  8
YODOROGO
100
AcDbLine
 10
14808.80217064596
 20
833.8747482146439
 30
0.0
 11
14808.80217064596
 21
813.8747482146435
 31
0.0
  0
LINE
  5
1A1CC
330
19EB5
100
AcDbEntity
  8
YODOROGO
100
AcDbLine
 10
14942.80217064596
 20
833.8747482146439
 30
0.0
 11
14808.80217064596
 21
833.8747482146439
 31
0.0
  0
LINE
  5
1A1CD
330
19EB5
100
AcDbEntity
  8
YODOROGO
100
AcDbLine
 10
14958.80217064596
 20
813.8747482146435
 30
0.0
 11
14888.80217064596
 21
813.8747482146435
 31
0.0
  0
LINE
  5
1A1CE
330
19EB5
100
AcDbEntity
  8
YODOROGO
100
AcDbLine
 10
14888.80217064596
 20
781.0027187088283
 30
0.0
 11
14885.70493649264
 21
778.403830673117
 31
0.0
  0
LINE
  5
1A1CF
330
19EB5
100
AcDbEntity
  8
YODOROGO
100
AcDbLine
 10
14888.80217064596
 20
813.8747482146435
 30
0.0
 11
14888.80217064596
 21
781.0027187088283
 31
0.0
  0
LINE
  5
1A1D0
330
19EB5
100
AcDbEntity
  8
YODOROGO
100
AcDbLine
 10
14868.80217064596
 20
764.2207260852818
 30
0.0
 11
14868.80217064596
 21
713.8747482146436
 31
0.0
  0
LINE
  5
1A1D1
330
19EB5
100
AcDbEntity
  8
YODOROGO
100
AcDbLine
 10
14808.80217064596
 20
713.8747482146436
 30
0.0
 11
14868.80217064596
 21
764.2207260852818
 31
0.0
  0
LINE
  5
1A1D2
330
19EB5
100
AcDbEntity
  8
YODOROGO
100
AcDbLine
 10
14808.80217064596
 20
773.874748214644
 30
0.0
 11
14808.80217064596
 21
713.8747482146436
 31
0.0
  0
LINE
  5
1A1D3
330
19EB5
100
AcDbEntity
  8
YODOROGO
100
AcDbLine
 10
14856.47231434973
 20
813.8747482146435
 30
0.0
 11
14808.80217064596
 21
773.874748214644
 31
0.0
  0
LINE
  5
1A1D4
330
19EB5
100
AcDbEntity
  8
YODOROGO
100
AcDbLine
 10
14808.80217064596
 20
813.8747482146435
 30
0.0
 11
14856.47231434973
 21
813.8747482146435
 31
0.0
  0
LINE
  5
1A1D5
330
19EB5
100
AcDbEntity
  8
YODOROGO
100
AcDbLine
 10
14808.80217064596
 20
833.8747482146439
 30
0.0
 11
14808.80217064596
 21
813.8747482146435
 31
0.0
  0
LINE
  5
1A1D6
330
19EB5
100
AcDbEntity
  8
YODOROGO
100
AcDbLine
 10
14942.80217064596
 20
833.8747482146439
 30
0.0
 11
14808.80217064596
 21
833.8747482146439
 31
0.0
  0
LINE
  5
1A1D7
330
19EB5
100
AcDbEntity
  8
YODOROGO
100
AcDbLine
 10
14396.80217064594
 20
873.8747482146449
 30
0.0
 11
14396.80217064594
 21
909.8747482146439
 31
0.0
  0
LINE
  5
1A1D8
330
19EB5
100
AcDbEntity
  8
YODOROGO
100
AcDbLine
 10
14328.80217064594
 20
873.8747482146449
 30
0.0
 11
14396.80217064594
 21
873.8747482146449
 31
0.0
  0
LINE
  5
1A1D9
330
19EB5
100
AcDbEntity
  8
YODOROGO
100
AcDbLine
 10
14364.80217064596
 20
933.8747482146439
 30
0.0
 11
14364.80217064596
 21
961.8747482146432
 31
0.0
  0
LINE
  5
1A1DA
330
19EB5
100
AcDbEntity
  8
YODOROGO
100
AcDbLine
 10
14396.80217064594
 20
933.8747482146439
 30
0.0
 11
14364.80217064596
 21
933.8747482146439
 31
0.0
  0
LINE
  5
1A1DB
330
19EB5
100
AcDbEntity
  8
YODOROGO
100
AcDbLine
 10
14396.80217064594
 20
973.8747482146434
 30
0.0
 11
14396.80217064594
 21
933.8747482146439
 31
0.0
  0
ARC
  5
1A1DC
330
19EB5
100
AcDbEntity
  8
YODOROGO
100
AcDbCircle
 10
14376.80217064594
 20
973.8747482146434
 30
0.0
 40
20.0
100
AcDbArc
 50
0.0
 51
90.0
  0
LINE
  5
1A1DD
330
19EB5
100
AcDbEntity
  8
YODOROGO
100
AcDbLine
 10
14328.80217064596
 20
993.8747482146439
 30
0.0
 11
14376.80217064594
 21
993.8747482146439
 31
0.0
  0
LINE
  5
1A1DE
330
19EB5
100
AcDbEntity
  8
YODOROGO
100
AcDbLine
 10
14328.80217064596
 20
1013.874748214644
 30
0.0
 11
14328.80217064596
 21
993.8747482146439
 31
0.0
  0
LINE
  5
1A1DF
330
19EB5
100
AcDbEntity
  8
YODOROGO
100
AcDbLine
 10
14536.80217064596
 20
1013.874748214644
 30
0.0
 11
14500.80217064594
 21
1013.874748214644
 31
0.0
  0
LINE
  5
1A1E0
330
19EB5
100
AcDbEntity
  8
YODOROGO
100
AcDbLine
 10
14630.80217064596
 20
1003.874748214644
 30
0.0
 11
14598.80217064596
 21
1003.874748214644
 31
0.0
  0
LINE
  5
1A1E1
330
19EB5
100
AcDbEntity
  8
YODOROGO
100
AcDbLine
 10
14728.80217064596
 20
1013.874748214644
 30
0.0
 11
14692.80217064596
 21
1013.874748214644
 31
0.0
  0
LINE
  5
1A1E2
330
19EB5
100
AcDbEntity
  8
YODOROGO
100
AcDbLine
 10
14836.80217064596
 20
853.874748214644
 30
0.0
 11
14836.80217064596
 21
885.8747482146441
 31
0.0
1001
AUTOCAD_POSTSCRIPT_FIGURE
1002
{
1000
PSFILL
1000
Grayscale
1000
Grayscale
1070
    25
1002
}
  0
LINE
  5
1A1E3
330
19EB5
100
AcDbEntity
  8
YODOROGO
100
AcDbLine
 10
14808.80217064596
 20
853.874748214644
 30
0.0
 11
14836.80217064596
 21
853.874748214644
 31
0.0
1001
AUTOCAD_POSTSCRIPT_FIGURE
1002
{
1000
PSFILL
1000
Grayscale
1000
Grayscale
1070
    25
1002
}
  0
LINE
  5
1A1E4
330
19EB5
100
AcDbEntity
  8
YODOROGO
100
AcDbLine
 10
14808.80217064596
 20
909.8747482146439
 30
0.0
 11
14808.80217064596
 21
853.874748214644
 31
0.0
1001
AUTOCAD_POSTSCRIPT_FIGURE
1002
{
1000
PSFILL
1000
Grayscale
1000
Grayscale
1070
    25
1002
}
  0
LINE
  5
1A1E5
330
19EB5
100
AcDbEntity
  8
YODOROGO
100
AcDbLine
 10
14882.80217064596
 20
909.8747482146439
 30
0.0
 11
14808.80217064596
 21
909.8747482146439
 31
0.0
1001
AUTOCAD_POSTSCRIPT_FIGURE
1002
{
1000
PSFILL
1000
Grayscale
1000
Grayscale
1070
    25
1002
}
  0
LINE
  5
1A1E6
330
19EB5
100
AcDbEntity
  8
YODOROGO
100
AcDbLine
 10
14882.80217064596
 20
929.874748214644
 30
0.0
 11
14882.80217064596
 21
909.8747482146439
 31
0.0
1001
AUTOCAD_POSTSCRIPT_FIGURE
1002
{
1000
PSFILL
1000
Grayscale
1000
Grayscale
1070
    25
1002
}
  0
LINE
  5
1A1E7
330
19EB5
100
AcDbEntity
  8
YODOROGO
100
AcDbLine
 10
14808.80217064596
 20
929.874748214644
 30
0.0
 11
14882.80217064596
 21
929.874748214644
 31
0.0
1001
AUTOCAD_POSTSCRIPT_FIGURE
1002
{
1000
PSFILL
1000
Grayscale
1000
Grayscale
1070
    25
1002
}
  0
LINE
  5
1A1E8
330
19EB5
100
AcDbEntity
  8
YODOROGO
100
AcDbLine
 10
14808.80217064596
 20
953.874748214644
 30
0.0
 11
14808.80217064596
 21
929.874748214644
 31
0.0
1001
AUTOCAD_POSTSCRIPT_FIGURE
1002
{
1000
PSFILL
1000
Grayscale
1000
Grayscale
1070
    25
1002
}
  0
LINE
  5
1A1E9
330
19EB5
100
AcDbEntity
  8
YODOROGO
100
AcDbLine
 10
14882.80217064596
 20
953.874748214644
 30
0.0
 11
14808.80217064596
 21
953.874748214644
 31
0.0
1001
AUTOCAD_POSTSCRIPT_FIGURE
1002
{
1000
PSFILL
1000
Grayscale
1000
Grayscale
1070
    25
1002
}
  0
LINE
  5
1A1EA
330
19EB5
100
AcDbEntity
  8
YODOROGO
100
AcDbLine
 10
14882.80217064596
 20
973.8747482146434
 30
0.0
 11
14882.80217064596
 21
953.874748214644
 31
0.0
1001
AUTOCAD_POSTSCRIPT_FIGURE
1002
{
1000
PSFILL
1000
Grayscale
1000
Grayscale
1070
    25
1002
}
  0
LINE
  5
1A1EB
330
19EB5
100
AcDbEntity
  8
YODOROGO
100
AcDbLine
 10
14808.80217064596
 20
973.8747482146434
 30
0.0
 11
14882.80217064596
 21
973.8747482146434
 31
0.0
1001
AUTOCAD_POSTSCRIPT_FIGURE
1002
{
1000
PSFILL
1000
Grayscale
1000
Grayscale
1070
    25
1002
}
  0
LINE
  5
1A1EC
330
19EB5
100
AcDbEntity
  8
YODOROGO
100
AcDbLine
 10
14808.80217064596
 20
1013.874748214644
 30
0.0
 11
14808.80217064596
 21
973.8747482146434
 31
0.0
1001
AUTOCAD_POSTSCRIPT_FIGURE
1002
{
1000
PSFILL
1000
Grayscale
1000
Grayscale
1070
    25
1002
}
  0
LINE
  5
1A1ED
330
19EB5
100
AcDbEntity
  8
YODOROGO
100
AcDbLine
 10
14832.80217064596
 20
1013.874748214644
 30
0.0
 11
14808.80217064596
 21
1013.874748214644
 31
0.0
1001
AUTOCAD_POSTSCRIPT_FIGURE
1002
{
1000
PSFILL
1000
Grayscale
1000
Grayscale
1070
    25
1002
}
  0
LINE
  5
1A1EE
330
19EB5
100
AcDbEntity
  8
YODOROGO
100
AcDbLine
 10
14832.80217064596
 20
997.8747482146435
 30
0.0
 11
14832.80217064596
 21
1013.874748214644
 31
0.0
1001
AUTOCAD_POSTSCRIPT_FIGURE
1002
{
1000
PSFILL
1000
Grayscale
1000
Grayscale
1070
    25
1002
}
  0
LINE
  5
1A1EF
330
19EB5
100
AcDbEntity
  8
YODOROGO
100
AcDbLine
 10
14882.80217064596
 20
997.8747482146435
 30
0.0
 11
14832.80217064596
 21
997.8747482146435
 31
0.0
1001
AUTOCAD_POSTSCRIPT_FIGURE
1002
{
1000
PSFILL
1000
Grayscale
1000
Grayscale
1070
    25
1002
}
  0
LINE
  5
1A1F0
330
19EB5
100
AcDbEntity
  8
YODOROGO
100
AcDbLine
 10
14882.80217064596
 20
1013.874748214644
 30
0.0
 11
14882.80217064596
 21
997.8747482146435
 31
0.0
1001
AUTOCAD_POSTSCRIPT_FIGURE
1002
{
1000
PSFILL
1000
Grayscale
1000
Grayscale
1070
    25
1002
}
  0
LINE
  5
1A1F1
330
19EB5
100
AcDbEntity
  8
YODOROGO
100
AcDbLine
 10
14914.80217064596
 20
1013.874748214644
 30
0.0
 11
14882.80217064596
 21
1013.874748214644
 31
0.0
1001
AUTOCAD_POSTSCRIPT_FIGURE
1002
{
1000
PSFILL
1000
Grayscale
1000
Grayscale
1070
    25
1002
}
  0
LINE
  5
1A1F2
330
19EB5
100
AcDbEntity
  8
YODOROGO
100
AcDbLine
 10
14914.80217064596
 20
997.8747482146435
 30
0.0
 11
14914.80217064596
 21
1013.874748214644
 31
0.0
1001
AUTOCAD_POSTSCRIPT_FIGURE
1002
{
1000
PSFILL
1000
Grayscale
1000
Grayscale
1070
    25
1002
}
  0
LINE
  5
1A1F3
330
19EB5
100
AcDbEntity
  8
YODOROGO
100
AcDbLine
 10
14914.80217064596
 20
953.874748214644
 30
0.0
 11
14914.80217064596
 21
973.8747482146434
 31
0.0
1001
AUTOCAD_POSTSCRIPT_FIGURE
1002
{
1000
PSFILL
1000
Grayscale
1000
Grayscale
1070
    25
1002
}
  0
LINE
  5
1A1F4
330
19EB5
100
AcDbEntity
  8
YODOROGO
100
AcDbLine
 10
14914.80217064596
 20
909.8747482146439
 30
0.0
 11
14914.80217064596
 21
929.874748214644
 31
0.0
1001
AUTOCAD_POSTSCRIPT_FIGURE
1002
{
1000
PSFILL
1000
Grayscale
1000
Grayscale
1070
    25
1002
}
  0
LINE
  5
1A1F5
330
19EB5
100
AcDbEntity
  8
YODOROGO
100
AcDbLine
 10
14960.80217064594
 20
885.8747482146441
 30
0.0
 11
14960.80217064594
 21
853.874748214644
 31
0.0
1001
AUTOCAD_POSTSCRIPT_FIGURE
1002
{
1000
PSFILL
1000
Grayscale
1000
Grayscale
1070
    25
1002
}
  0
LINE
  5
1A1F6
330
19EB5
100
AcDbEntity
  8
YODOROGO
100
AcDbLine
 10
14914.80217064596
 20
885.8747482146441
 30
0.0
 11
14960.80217064594
 21
885.8747482146441
 31
0.0
1001
AUTOCAD_POSTSCRIPT_FIGURE
1002
{
1000
PSFILL
1000
Grayscale
1000
Grayscale
1070
    25
1002
}
  0
LINE
  5
1A1F7
330
19EB5
100
AcDbEntity
  8
YODOROGO
100
AcDbLine
 10
14914.80217064596
 20
853.874748214644
 30
0.0
 11
14914.80217064596
 21
885.8747482146441
 31
0.0
1001
AUTOCAD_POSTSCRIPT_FIGURE
1002
{
1000
PSFILL
1000
Grayscale
1000
Grayscale
1070
    25
1002
}
  0
LINE
  5
1A1F8
330
19EB5
100
AcDbEntity
  8
YODOROGO
100
AcDbLine
 10
14882.80217064596
 20
853.874748214644
 30
0.0
 11
14914.80217064596
 21
853.874748214644
 31
0.0
1001
AUTOCAD_POSTSCRIPT_FIGURE
1002
{
1000
PSFILL
1000
Grayscale
1000
Grayscale
1070
    25
1002
}
  0
LINE
  5
1A1F9
330
19EB5
100
AcDbEntity
  8
YODOROGO
100
AcDbLine
 10
14882.80217064596
 20
885.8747482146441
 30
0.0
 11
14882.80217064596
 21
853.874748214644
 31
0.0
1001
AUTOCAD_POSTSCRIPT_FIGURE
1002
{
1000
PSFILL
1000
Grayscale
1000
Grayscale
1070
    25
1002
}
  0
LINE
  5
1A1FA
330
19EB5
100
AcDbEntity
  8
YODOROGO
100
AcDbLine
 10
14836.80217064596
 20
885.8747482146441
 30
0.0
 11
14882.80217064596
 21
885.8747482146441
 31
0.0
1001
AUTOCAD_POSTSCRIPT_FIGURE
1002
{
1000
PSFILL
1000
Grayscale
1000
Grayscale
1070
    25
1002
}
  0
ARC
  5
1A1FB
330
19EB5
100
AcDbEntity
  8
YODOROGO
100
AcDbCircle
 10
15529.75894667896
 20
801.3403687577881
 30
0.0
 40
89.11064055536078
100
AcDbArc
 50
281.0262749542535
 51
357.771135755738
  0
LINE
  5
1A1FC
330
19EB5
100
AcDbEntity
  8
YODOROGO
100
AcDbLine
 10
15706.80217064596
 20
953.874748214644
 30
0.0
 11
15582.80217064596
 21
953.874748214644
 31
0.0
  0
LINE
  5
1A1FD
330
19EB5
100
AcDbEntity
  8
YODOROGO
100
AcDbLine
 10
15706.80217064596
 20
1013.874748214644
 30
0.0
 11
15582.80217064596
 21
1013.874748214644
 31
0.0
  0
LINE
  5
1A1FE
330
19EB5
100
AcDbEntity
  8
YODOROGO
100
AcDbLine
 10
15582.80217064596
 20
981.8747482146434
 30
0.0
 11
15706.80217064596
 21
981.8747482146434
 31
0.0
  0
LINE
  5
1A1FF
330
19EB5
100
AcDbEntity
  8
YODOROGO
100
AcDbLine
 10
15395.80217064596
 20
781.8747482146434
 30
0.0
 11
15395.80217064596
 21
877.8747482146435
 31
0.0
  0
LINE
  5
1A200
330
19EB5
100
AcDbEntity
  8
YODOROGO
100
AcDbLine
 10
15381.80217064596
 20
845.8747482146444
 30
0.0
 11
15381.80217064596
 21
781.8747482146434
 31
0.0
  0
LINE
  5
1A201
330
19EB5
100
AcDbEntity
  8
YODOROGO
100
AcDbLine
 10
15361.80217064596
 20
745.8747482146443
 30
0.0
 11
15361.80217064596
 21
845.8747482146444
 31
0.0
  0
LINE
  5
1A202
330
19EB5
100
AcDbEntity
  8
YODOROGO
100
AcDbLine
 10
15449.80217064596
 20
845.8747482146444
 30
0.0
 11
15449.80217064596
 21
745.8747482146443
 31
0.0
  0
LINE
  5
1A203
330
19EB5
100
AcDbEntity
  8
YODOROGO
100
AcDbLine
 10
15429.80217064596
 20
781.8747482146434
 30
0.0
 11
15429.80217064596
 21
845.8747482146444
 31
0.0
  0
LINE
  5
1A204
330
19EB5
100
AcDbEntity
  8
YODOROGO
100
AcDbLine
 10
15415.80217064596
 20
877.8747482146435
 30
0.0
 11
15415.80217064596
 21
781.8747482146434
 31
0.0
  0
LINE
  5
1A205
330
19EB5
100
AcDbEntity
  8
YODOROGO
100
AcDbLine
 10
15486.80217064596
 20
1013.874748214644
 30
0.0
 11
15486.80217064596
 21
733.8747482146435
 31
0.0
  0
LINE
  5
1A206
330
19EB5
100
AcDbEntity
  8
YODOROGO
100
AcDbLine
 10
15322.80217064596
 20
713.8747482146436
 30
0.0
 11
15322.80217064596
 21
1013.874748214644
 31
0.0
  0
LINE
  5
1A207
330
19EB5
100
AcDbEntity
  8
YODOROGO
100
AcDbLine
 10
15348.80217064596
 20
981.8747482146434
 30
0.0
 11
15348.80217064596
 21
713.8747482146436
 31
0.0
  0
LINE
  5
1A208
330
19EB5
100
AcDbEntity
  8
YODOROGO
100
AcDbLine
 10
15462.80217064596
 20
773.874748214644
 30
0.0
 11
15462.80217064596
 21
981.8747482146434
 31
0.0
  0
LINE
  5
1A209
330
19EB5
100
AcDbEntity
  8
YODOROGO
100
AcDbLine
 10
15190.80217064596
 20
813.8747482146435
 30
0.0
 11
15190.80217064596
 21
839.8747482146442
 31
0.0
  0
LINE
  5
1A20A
330
19EB5
100
AcDbEntity
  8
YODOROGO
100
AcDbLine
 10
15308.80217064596
 20
839.8747482146442
 30
0.0
 11
15308.80217064596
 21
813.8747482146435
 31
0.0
  0
LINE
  5
1A20B
330
19EB5
100
AcDbEntity
  8
YODOROGO
100
AcDbLine
 10
15582.80217064596
 20
953.874748214644
 30
0.0
 11
15582.80217064596
 21
817.8747482146436
 31
0.0
  0
LINE
  5
1A20C
330
19EB5
100
AcDbEntity
  8
YODOROGO
100
AcDbLine
 10
14974.80217064595
 20
833.8747482146439
 30
0.0
 11
14974.80217064595
 21
853.874748214644
 31
0.0
  0
LINE
  5
1A20D
330
19EB5
100
AcDbEntity
  8
YODOROGO
100
AcDbLine
 10
14974.80217064595
 20
833.8747482146439
 30
0.0
 11
14974.80217064595
 21
853.874748214644
 31
0.0
  0
ARC
  5
1A20E
330
19EB5
100
AcDbEntity
  8
YODOROGO
100
AcDbCircle
 10
15268.80217064596
 20
753.8747482146439
 30
0.0
 40
40.0
100
AcDbArc
 50
270.0
 51
0.0
  0
LINE
  5
1A20F
330
19EB5
100
AcDbEntity
  8
YODOROGO
100
AcDbLine
 10
15284.80217064596
 20
799.8747482146441
 30
0.0
 11
15308.80217064596
 21
799.8747482146441
 31
0.0
  0
LINE
  5
1A210
330
19EB5
100
AcDbEntity
  8
YODOROGO
100
AcDbLine
 10
15308.80217064596
 20
813.8747482146435
 30
0.0
 11
15264.80217064596
 21
813.8747482146435
 31
0.0
  0
LINE
  5
1A211
330
19EB5
100
AcDbEntity
  8
YODOROGO
100
AcDbLine
 10
15108.80217064596
 20
833.8747482146439
 30
0.0
 11
14974.80217064595
 21
833.8747482146439
 31
0.0
  0
LINE
  5
1A212
330
19EB5
100
AcDbEntity
  8
YODOROGO
100
AcDbLine
 10
15108.80217064596
 20
813.8747482146435
 30
0.0
 11
15108.80217064596
 21
833.8747482146439
 31
0.0
  0
LINE
  5
1A213
330
19EB5
100
AcDbEntity
  8
YODOROGO
100
AcDbLine
 10
15008.80217064596
 20
813.8747482146435
 30
0.0
 11
15108.80217064596
 21
813.8747482146435
 31
0.0
  0
ARC
  5
1A214
330
19EB5
100
AcDbEntity
  8
YODOROGO
100
AcDbCircle
 10
15115.02941435068
 20
934.4428574764513
 30
0.0
 40
160.6888181426141
100
AcDbArc
 50
228.6181454618993
 51
245.660289248906
  0
LINE
  5
1A215
330
19EB5
100
AcDbEntity
  8
YODOROGO
100
AcDbLine
 10
15052.80217064596
 20
801.8747482146444
 30
0.0
 11
15048.80217064598
 21
788.0364079349501
 31
0.0
  0
LINE
  5
1A216
330
19EB5
100
AcDbEntity
  8
YODOROGO
100
AcDbLine
 10
15094.80217064596
 20
801.8747482146444
 30
0.0
 11
15052.80217064596
 21
801.8747482146444
 31
0.0
  0
LINE
  5
1A217
330
19EB5
100
AcDbEntity
  8
YODOROGO
100
AcDbLine
 10
15088.80217064596
 20
775.9088612367134
 30
0.0
 11
15094.80217064596
 21
801.8747482146444
 31
0.0
  0
ARC
  5
1A218
330
19EB5
100
AcDbEntity
  8
YODOROGO
100
AcDbCircle
 10
15115.02941435023
 20
934.4428574765014
 30
0.0
 40
160.6888181426453
100
AcDbArc
 50
260.6062929796992
 51
267.7790355655586
  0
LINE
  5
1A219
330
19EB5
100
AcDbEntity
  8
YODOROGO
100
AcDbLine
 10
15108.80217064596
 20
713.8747482146428
 30
0.0
 11
15108.80217064596
 21
773.874748214644
 31
0.0
  0
LINE
  5
1A21A
330
19EB5
100
AcDbEntity
  8
YODOROGO
100
AcDbLine
 10
14968.80217064596
 20
740.6696674577553
 30
0.0
 11
14968.80217064596
 21
797.2655452655705
 31
0.0
  0
LINE
  5
1A21B
330
19EB5
100
AcDbEntity
  8
YODOROGO
100
AcDbLine
 10
15108.80217064596
 20
833.8747482146439
 30
0.0
 11
14974.80217064595
 21
833.8747482146439
 31
0.0
  0
LINE
  5
1A21C
330
19EB5
100
AcDbEntity
  8
YODOROGO
100
AcDbLine
 10
15108.80217064596
 20
813.8747482146435
 30
0.0
 11
15108.80217064596
 21
833.8747482146439
 31
0.0
  0
LINE
  5
1A21D
330
19EB5
100
AcDbEntity
  8
YODOROGO
100
AcDbLine
 10
15008.80217064596
 20
813.8747482146435
 30
0.0
 11
15108.80217064596
 21
813.8747482146435
 31
0.0
  0
ARC
  5
1A21E
330
19EB5
100
AcDbEntity
  8
YODOROGO
100
AcDbCircle
 10
15115.02941435068
 20
934.4428574764513
 30
0.0
 40
160.6888181426141
100
AcDbArc
 50
228.6181454618993
 51
245.660289248906
  0
LINE
  5
1A21F
330
19EB5
100
AcDbEntity
  8
YODOROGO
100
AcDbLine
 10
15052.80217064596
 20
801.8747482146444
 30
0.0
 11
15048.80217064598
 21
788.0364079349501
 31
0.0
  0
LINE
  5
1A220
330
19EB5
100
AcDbEntity
  8
YODOROGO
100
AcDbLine
 10
15094.80217064596
 20
801.8747482146444
 30
0.0
 11
15052.80217064596
 21
801.8747482146444
 31
0.0
  0
LINE
  5
1A221
330
19EB5
100
AcDbEntity
  8
YODOROGO
100
AcDbLine
 10
15088.80217064596
 20
775.9088612367134
 30
0.0
 11
15094.80217064596
 21
801.8747482146444
 31
0.0
  0
ARC
  5
1A222
330
19EB5
100
AcDbEntity
  8
YODOROGO
100
AcDbCircle
 10
15115.02941435023
 20
934.4428574765014
 30
0.0
 40
160.6888181426453
100
AcDbArc
 50
260.6062929796992
 51
267.7790355655586
  0
LINE
  5
1A223
330
19EB5
100
AcDbEntity
  8
YODOROGO
100
AcDbLine
 10
15108.80217064596
 20
713.8747482146428
 30
0.0
 11
15108.80217064596
 21
773.874748214644
 31
0.0
  0
LINE
  5
1A224
330
19EB5
100
AcDbEntity
  8
YODOROGO
100
AcDbLine
 10
14968.80217064596
 20
740.6696674577553
 30
0.0
 11
14968.80217064596
 21
797.2655452655705
 31
0.0
  0
LINE
  5
1A225
330
19EB5
100
AcDbEntity
  8
YODOROGO
100
AcDbLine
 10
15216.80217064596
 20
786.8747482146444
 30
0.0
 11
15190.80217064596
 21
786.8747482146444
 31
0.0
  0
LINE
  5
1A226
330
19EB5
100
AcDbEntity
  8
YODOROGO
100
AcDbLine
 10
15216.80217064596
 20
800.8747482146432
 30
0.0
 11
15216.80217064596
 21
786.8747482146444
 31
0.0
  0
LINE
  5
1A227
330
19EB5
100
AcDbEntity
  8
YODOROGO
100
AcDbLine
 10
15190.80217064596
 20
800.8747482146432
 30
0.0
 11
15216.80217064596
 21
800.8747482146432
 31
0.0
  0
LINE
  5
1A228
330
19EB5
100
AcDbEntity
  8
YODOROGO
100
AcDbLine
 10
15190.80217064596
 20
786.8747482146444
 30
0.0
 11
15190.80217064596
 21
800.8747482146432
 31
0.0
  0
LINE
  5
1A229
330
19EB5
100
AcDbEntity
  8
YODOROGO
100
AcDbLine
 10
15214.80217064596
 20
788.8747482146436
 30
0.0
 11
15192.80217064595
 21
788.8747482146436
 31
0.0
  0
LINE
  5
1A22A
330
19EB5
100
AcDbEntity
  8
YODOROGO
100
AcDbLine
 10
15214.80217064596
 20
798.874748214644
 30
0.0
 11
15214.80217064596
 21
788.8747482146436
 31
0.0
  0
LINE
  5
1A22B
330
19EB5
100
AcDbEntity
  8
YODOROGO
100
AcDbLine
 10
15192.80217064595
 20
798.874748214644
 30
0.0
 11
15214.80217064596
 21
798.874748214644
 31
0.0
  0
LINE
  5
1A22C
330
19EB5
100
AcDbEntity
  8
YODOROGO
100
AcDbLine
 10
15192.80217064595
 20
788.8747482146436
 30
0.0
 11
15192.80217064595
 21
798.874748214644
 31
0.0
  0
LINE
  5
1A22D
330
19EB5
100
AcDbEntity
  8
YODOROGO
100
AcDbLine
 10
15212.80217064596
 20
790.8747482146432
 30
0.0
 11
15194.80217064596
 21
790.8747482146432
 31
0.0
  0
LINE
  5
1A22E
330
19EB5
100
AcDbEntity
  8
YODOROGO
100
AcDbLine
 10
15212.80217064596
 20
796.8747482146445
 30
0.0
 11
15212.80217064596
 21
790.8747482146432
 31
0.0
  0
LINE
  5
1A22F
330
19EB5
100
AcDbEntity
  8
YODOROGO
100
AcDbLine
 10
15194.80217064596
 20
796.8747482146445
 30
0.0
 11
15212.80217064596
 21
796.8747482146445
 31
0.0
  0
LINE
  5
1A230
330
19EB5
100
AcDbEntity
  8
YODOROGO
100
AcDbLine
 10
15194.80217064596
 20
790.8747482146432
 30
0.0
 11
15194.80217064596
 21
796.8747482146445
 31
0.0
  0
LINE
  5
1A231
330
19EB5
100
AcDbEntity
  8
YODOROGO
100
AcDbLine
 10
15210.80217064596
 20
792.8747482146435
 30
0.0
 11
15196.80217064596
 21
792.8747482146435
 31
0.0
  0
LINE
  5
1A232
330
19EB5
100
AcDbEntity
  8
YODOROGO
100
AcDbLine
 10
15210.80217064596
 20
794.8747482146441
 30
0.0
 11
15210.80217064596
 21
792.8747482146435
 31
0.0
  0
LINE
  5
1A233
330
19EB5
100
AcDbEntity
  8
YODOROGO
100
AcDbLine
 10
15196.80217064596
 20
794.8747482146441
 30
0.0
 11
15210.80217064596
 21
794.8747482146441
 31
0.0
  0
LINE
  5
1A234
330
19EB5
100
AcDbEntity
  8
YODOROGO
100
AcDbLine
 10
15196.80217064596
 20
792.8747482146435
 30
0.0
 11
15196.80217064596
 21
794.8747482146441
 31
0.0
  0
LINE
  5
1A235
330
19EB5
100
AcDbEntity
  8
YODOROGO
100
AcDbLine
 10
15232.80217064596
 20
813.8747482146435
 30
0.0
 11
15190.80217064596
 21
813.8747482146435
 31
0.0
  0
LINE
  5
1A236
330
19EB5
100
AcDbEntity
  8
YODOROGO
100
AcDbLine
 10
15232.80217064596
 20
773.874748214644
 30
0.0
 11
15232.80217064596
 21
813.8747482146435
 31
0.0
  0
LINE
  5
1A237
330
19EB5
100
AcDbEntity
  8
YODOROGO
100
AcDbLine
 10
15190.80217064596
 20
773.874748214644
 30
0.0
 11
15232.80217064596
 21
773.874748214644
 31
0.0
  0
LINE
  5
1A238
330
19EB5
100
AcDbEntity
  8
YODOROGO
100
AcDbLine
 10
15190.80217064596
 20
713.8747482146436
 30
0.0
 11
15190.80217064596
 21
773.874748214644
 31
0.0
  0
LINE
  5
1A239
330
19EB5
100
AcDbEntity
  8
YODOROGO
100
AcDbLine
 10
15268.80217064596
 20
713.8747482146436
 30
0.0
 11
15190.80217064596
 21
713.8747482146436
 31
0.0
  0
LINE
  5
1A23A
330
19EB5
100
AcDbEntity
  8
YODOROGO
100
AcDbLine
 10
15284.80217064596
 20
785.8747482146432
 30
0.0
 11
15284.80217064596
 21
799.8747482146441
 31
0.0
  0
ARC
  5
1A23B
330
19EB5
100
AcDbEntity
  8
YODOROGO
100
AcDbCircle
 10
15272.80217064594
 20
785.8747482146457
 30
0.0
 40
12.00000000000187
100
AcDbArc
 50
270.0
 51
359.9999999999877
  0
LINE
  5
1A23C
330
19EB5
100
AcDbEntity
  8
YODOROGO
100
AcDbLine
 10
15264.80217064596
 20
773.874748214644
 30
0.0
 11
15272.80217064594
 21
773.874748214644
 31
0.0
  0
LINE
  5
1A23D
330
19EB5
100
AcDbEntity
  8
YODOROGO
100
AcDbLine
 10
15264.80217064596
 20
813.8747482146435
 30
0.0
 11
15264.80217064596
 21
773.874748214644
 31
0.0
  0
LINE
  5
1A23E
330
19EB5
100
AcDbEntity
  8
YODOROGO
100
AcDbLine
 10
15449.80217064596
 20
773.874748214644
 30
0.0
 11
15462.80217064596
 21
773.874748214644
 31
0.0
  0
LINE
  5
1A23F
330
19EB5
100
AcDbEntity
  8
YODOROGO
100
AcDbLine
 10
15466.80217064596
 20
713.8747482146436
 30
0.0
 11
15449.80217064596
 21
713.8747482146436
 31
0.0
  0
LINE
  5
1A240
330
19EB5
100
AcDbEntity
  8
YODOROGO
100
AcDbLine
 10
15381.80217064596
 20
781.8747482146434
 30
0.0
 11
15395.80217064596
 21
781.8747482146434
 31
0.0
  0
LINE
  5
1A241
330
19EB5
100
AcDbEntity
  8
YODOROGO
100
AcDbLine
 10
15449.80217064596
 20
745.8747482146443
 30
0.0
 11
15361.80217064596
 21
745.8747482146443
 31
0.0
  0
LINE
  5
1A242
330
19EB5
100
AcDbEntity
  8
YODOROGO
100
AcDbLine
 10
15415.80217064596
 20
781.8747482146434
 30
0.0
 11
15429.80217064596
 21
781.8747482146434
 31
0.0
  0
LINE
  5
1A243
330
19EB5
100
AcDbEntity
  8
YODOROGO
100
AcDbLine
 10
15449.80217064596
 20
713.8747482146436
 30
0.0
 11
15449.80217064596
 21
773.874748214644
 31
0.0
  0
LINE
  5
1A244
330
19EB5
100
AcDbEntity
  8
YODOROGO
100
AcDbLine
 10
15348.80217064596
 20
713.8747482146436
 30
0.0
 11
15322.80217064596
 21
713.8747482146436
 31
0.0
  0
LINE
  5
1A245
330
19EB5
100
AcDbEntity
  8
YODOROGO
100
AcDbLine
 10
15308.80217064596
 20
799.8747482146441
 30
0.0
 11
15308.80217064596
 21
753.8747482146439
 31
0.0
  0
ARC
  5
1A246
330
19EB5
100
AcDbEntity
  8
YODOROGO
100
AcDbCircle
 10
15466.80217064596
 20
733.8747482146435
 30
0.0
 40
20.0
100
AcDbArc
 50
270.0
 51
0.0
  0
LINE
  5
1A247
330
19EB5
100
AcDbEntity
  8
YODOROGO
100
AcDbLine
 10
15546.80217064596
 20
761.8747482146434
 30
0.0
 11
15546.80217064596
 21
713.8747482146436
 31
0.0
  0
ARC
  5
1A248
330
19EB5
100
AcDbEntity
  8
YODOROGO
100
AcDbCircle
 10
15519.86069778339
 20
818.7656950548664
 30
0.0
 40
62.94777829583771
100
AcDbArc
 50
295.3405244216011
 51
359.1890230341867
  0
LINE
  5
1A249
330
19EB5
100
AcDbEntity
  8
YODOROGO
100
AcDbLine
 10
15308.80217064596
 20
929.874748214644
 30
0.0
 11
15248.80217064596
 21
969.8747482146441
 31
0.0
  0
LINE
  5
1A24A
330
19EB5
100
AcDbEntity
  8
YODOROGO
100
AcDbLine
 10
15248.80217064596
 20
1013.874748214644
 30
0.0
 11
15308.80217064596
 21
973.8747482146434
 31
0.0
  0
LINE
  5
1A24B
330
19EB5
100
AcDbEntity
  8
YODOROGO
100
AcDbLine
 10
15264.80217064596
 20
839.8747482146442
 30
0.0
 11
15308.80217064596
 21
839.8747482146442
 31
0.0
  0
LINE
  5
1A24C
330
19EB5
100
AcDbEntity
  8
YODOROGO
100
AcDbLine
 10
15308.80217064596
 20
867.8747482146436
 30
0.0
 11
15264.80217064596
 21
867.8747482146436
 31
0.0
  0
LINE
  5
1A24D
330
19EB5
100
AcDbEntity
  8
YODOROGO
100
AcDbLine
 10
15190.80217064596
 20
897.8747482146435
 30
0.0
 11
15308.80217064596
 21
897.8747482146435
 31
0.0
  0
LINE
  5
1A24E
330
19EB5
100
AcDbEntity
  8
YODOROGO
100
AcDbLine
 10
15040.80217064596
 20
1013.874748214644
 30
0.0
 11
15010.80217064596
 21
1013.874748214644
 31
0.0
  0
LINE
  5
1A24F
330
19EB5
100
AcDbEntity
  8
YODOROGO
100
AcDbLine
 10
15040.80217064596
 20
913.8747482146435
 30
0.0
 11
15040.80217064596
 21
1013.874748214644
 31
0.0
  0
LINE
  5
1A250
330
19EB5
100
AcDbEntity
  8
YODOROGO
100
AcDbLine
 10
15010.80217064596
 20
913.8747482146435
 30
0.0
 11
15040.80217064596
 21
913.8747482146435
 31
0.0
  0
LINE
  5
1A251
330
19EB5
100
AcDbEntity
  8
YODOROGO
100
AcDbLine
 10
15010.80217064596
 20
1013.874748214644
 30
0.0
 11
15010.80217064596
 21
913.8747482146435
 31
0.0
  0
LINE
  5
1A252
330
19EB5
100
AcDbEntity
  8
YODOROGO
100
AcDbLine
 10
15080.80217064596
 20
1013.874748214644
 30
0.0
 11
15108.80217064596
 21
1013.874748214644
 31
0.0
  0
LINE
  5
1A253
330
19EB5
100
AcDbEntity
  8
YODOROGO
100
AcDbLine
 10
15080.80217064596
 20
905.8747482146443
 30
0.0
 11
15080.80217064596
 21
1013.874748214644
 31
0.0
  0
ARC
  5
1A254
330
19EB5
100
AcDbEntity
  8
YODOROGO
100
AcDbCircle
 10
15060.80217064596
 20
905.8747482146443
 30
0.0
 40
20.0
100
AcDbArc
 50
270.0
 51
0.0
  0
LINE
  5
1A255
330
19EB5
100
AcDbEntity
  8
YODOROGO
100
AcDbLine
 10
15010.80217064596
 20
885.8747482146441
 30
0.0
 11
15060.80217064596
 21
885.8747482146441
 31
0.0
  0
LINE
  5
1A256
330
19EB5
100
AcDbEntity
  8
YODOROGO
100
AcDbLine
 10
15010.80217064596
 20
853.874748214644
 30
0.0
 11
15010.80217064596
 21
885.8747482146441
 31
0.0
  0
LINE
  5
1A257
330
19EB5
100
AcDbEntity
  8
YODOROGO
100
AcDbLine
 10
15068.80217064596
 20
853.874748214644
 30
0.0
 11
15010.80217064596
 21
853.874748214644
 31
0.0
  0
ARC
  5
1A258
330
19EB5
100
AcDbEntity
  8
YODOROGO
100
AcDbCircle
 10
15068.80217064596
 20
893.8747482146439
 30
0.0
 40
40.0
100
AcDbArc
 50
270.0
 51
0.0
  0
LINE
  5
1A259
330
19EB5
100
AcDbEntity
  8
YODOROGO
100
AcDbLine
 10
15108.80217064596
 20
1013.874748214644
 30
0.0
 11
15108.80217064596
 21
893.8747482146439
 31
0.0
  0
LINE
  5
1A25A
330
19EB5
100
AcDbEntity
  8
YODOROGO
100
AcDbLine
 10
14988.80217064596
 20
973.8747482146434
 30
0.0
 11
14988.80217064596
 21
997.8747482146435
 31
0.0
1001
AUTOCAD_POSTSCRIPT_FIGURE
1002
{
1000
PSFILL
1000
Grayscale
1000
Grayscale
1070
    25
1002
}
  0
LINE
  5
1A25B
330
19EB5
100
AcDbEntity
  8
YODOROGO
100
AcDbLine
 10
14988.80217064596
 20
929.874748214644
 30
0.0
 11
14988.80217064596
 21
953.874748214644
 31
0.0
1001
AUTOCAD_POSTSCRIPT_FIGURE
1002
{
1000
PSFILL
1000
Grayscale
1000
Grayscale
1070
    25
1002
}
  0
LINE
  5
1A25C
330
19EB5
100
AcDbEntity
  8
YODOROGO
100
AcDbLine
 10
14988.80217064596
 20
853.874748214644
 30
0.0
 11
14988.80217064596
 21
909.8747482146439
 31
0.0
1001
AUTOCAD_POSTSCRIPT_FIGURE
1002
{
1000
PSFILL
1000
Grayscale
1000
Grayscale
1070
    25
1002
}
  0
LINE
  5
1A25D
330
19EB5
100
AcDbEntity
  8
YODOROGO
100
AcDbLine
 10
15190.80217064596
 20
953.874748214644
 30
0.0
 11
15248.80217064596
 21
1013.874748214644
 31
0.0
  0
LINE
  5
1A25E
330
19EB5
100
AcDbEntity
  8
YODOROGO
100
AcDbLine
 10
15190.80217064596
 20
909.8747482146439
 30
0.0
 11
15190.80217064596
 21
953.874748214644
 31
0.0
  0
LINE
  5
1A25F
330
19EB5
100
AcDbEntity
  8
YODOROGO
100
AcDbLine
 10
15248.80217064596
 20
969.8747482146441
 30
0.0
 11
15190.80217064596
 21
909.8747482146439
 31
0.0
  0
LINE
  5
1A260
330
19EB5
100
AcDbEntity
  8
YODOROGO
100
AcDbLine
 10
15232.80217064596
 20
839.8747482146442
 30
0.0
 11
15232.80217064596
 21
867.8747482146436
 31
0.0
  0
LINE
  5
1A261
330
19EB5
100
AcDbEntity
  8
YODOROGO
100
AcDbLine
 10
15190.80217064596
 20
839.8747482146442
 30
0.0
 11
15232.80217064596
 21
839.8747482146442
 31
0.0
  0
LINE
  5
1A262
330
19EB5
100
AcDbEntity
  8
YODOROGO
100
AcDbLine
 10
15264.80217064596
 20
867.8747482146436
 30
0.0
 11
15264.80217064596
 21
839.8747482146442
 31
0.0
  0
LINE
  5
1A263
330
19EB5
100
AcDbEntity
  8
YODOROGO
100
AcDbLine
 10
15190.80217064596
 20
867.8747482146436
 30
0.0
 11
15190.80217064596
 21
897.8747482146435
 31
0.0
  0
LINE
  5
1A264
330
19EB5
100
AcDbEntity
  8
YODOROGO
100
AcDbLine
 10
15232.80217064596
 20
867.8747482146436
 30
0.0
 11
15190.80217064596
 21
867.8747482146436
 31
0.0
  0
LINE
  5
1A265
330
19EB5
100
AcDbEntity
  8
YODOROGO
100
AcDbLine
 10
15322.80217064596
 20
1013.874748214644
 30
0.0
 11
15486.80217064596
 21
1013.874748214644
 31
0.0
  0
LINE
  5
1A266
330
19EB5
100
AcDbEntity
  8
YODOROGO
100
AcDbLine
 10
15462.80217064596
 20
981.8747482146434
 30
0.0
 11
15348.80217064596
 21
981.8747482146434
 31
0.0
  0
LINE
  5
1A267
330
19EB5
100
AcDbEntity
  8
YODOROGO
100
AcDbLine
 10
15436.80217064595
 20
909.8747482146439
 30
0.0
 11
15449.80217064596
 21
909.8747482146439
 31
0.0
  0
LINE
  5
1A268
330
19EB5
100
AcDbEntity
  8
YODOROGO
100
AcDbLine
 10
15449.80217064596
 20
969.8747482146441
 30
0.0
 11
15436.80217064595
 21
909.8747482146439
 31
0.0
  0
LINE
  5
1A269
330
19EB5
100
AcDbEntity
  8
YODOROGO
100
AcDbLine
 10
15425.80217064596
 20
969.8747482146441
 30
0.0
 11
15449.80217064596
 21
969.8747482146441
 31
0.0
  0
LINE
  5
1A26A
330
19EB5
100
AcDbEntity
  8
YODOROGO
100
AcDbLine
 10
15412.80217064596
 20
909.8747482146439
 30
0.0
 11
15425.80217064596
 21
969.8747482146441
 31
0.0
  0
LINE
  5
1A26B
330
19EB5
100
AcDbEntity
  8
YODOROGO
100
AcDbLine
 10
15398.80217064596
 20
909.8747482146439
 30
0.0
 11
15412.80217064596
 21
909.8747482146439
 31
0.0
  0
LINE
  5
1A26C
330
19EB5
100
AcDbEntity
  8
YODOROGO
100
AcDbLine
 10
15385.80217064596
 20
969.8747482146441
 30
0.0
 11
15398.80217064596
 21
909.8747482146439
 31
0.0
  0
LINE
  5
1A26D
330
19EB5
100
AcDbEntity
  8
YODOROGO
100
AcDbLine
 10
15361.80217064596
 20
969.8747482146441
 30
0.0
 11
15385.80217064596
 21
969.8747482146441
 31
0.0
  0
LINE
  5
1A26E
330
19EB5
100
AcDbEntity
  8
YODOROGO
100
AcDbLine
 10
15374.80217064596
 20
909.8747482146439
 30
0.0
 11
15361.80217064596
 21
969.8747482146441
 31
0.0
  0
LINE
  5
1A26F
330
19EB5
100
AcDbEntity
  8
YODOROGO
100
AcDbLine
 10
15361.80217064596
 20
909.8747482146439
 30
0.0
 11
15374.80217064596
 21
909.8747482146439
 31
0.0
  0
LINE
  5
1A270
330
19EB5
100
AcDbEntity
  8
YODOROGO
100
AcDbLine
 10
15361.80217064596
 20
877.8747482146435
 30
0.0
 11
15361.80217064596
 21
909.8747482146439
 31
0.0
  0
LINE
  5
1A271
330
19EB5
100
AcDbEntity
  8
YODOROGO
100
AcDbLine
 10
15449.80217064596
 20
877.8747482146435
 30
0.0
 11
15361.80217064596
 21
877.8747482146435
 31
0.0
  0
LINE
  5
1A272
330
19EB5
100
AcDbEntity
  8
YODOROGO
100
AcDbLine
 10
15449.80217064596
 20
909.8747482146439
 30
0.0
 11
15449.80217064596
 21
877.8747482146435
 31
0.0
  0
LINE
  5
1A273
330
19EB5
100
AcDbEntity
  8
YODOROGO
100
AcDbLine
 10
15308.80217064596
 20
973.8747482146434
 30
0.0
 11
15308.80217064596
 21
929.874748214644
 31
0.0
  0
LINE
  5
1A274
330
19EB5
100
AcDbEntity
  8
YODOROGO
100
AcDbLine
 10
15395.80217064596
 20
877.8747482146435
 30
0.0
 11
15415.80217064596
 21
877.8747482146435
 31
0.0
  0
LINE
  5
1A275
330
19EB5
100
AcDbEntity
  8
YODOROGO
100
AcDbLine
 10
15361.80217064596
 20
845.8747482146444
 30
0.0
 11
15381.80217064596
 21
845.8747482146444
 31
0.0
  0
LINE
  5
1A276
330
19EB5
100
AcDbEntity
  8
YODOROGO
100
AcDbLine
 10
15429.80217064596
 20
845.8747482146444
 30
0.0
 11
15449.80217064596
 21
845.8747482146444
 31
0.0
  0
LINE
  5
1A277
330
19EB5
100
AcDbEntity
  8
YODOROGO
100
AcDbLine
 10
15308.80217064596
 20
897.8747482146435
 30
0.0
 11
15308.80217064596
 21
867.8747482146436
 31
0.0
  0
LINE
  5
1A278
330
19EB5
100
AcDbEntity
  8
YODOROGO
100
AcDbLine
 10
15582.80217064596
 20
1013.874748214644
 30
0.0
 11
15582.80217064596
 21
981.8747482146434
 31
0.0
  0
LINE
  5
1A279
330
19EB5
100
AcDbEntity
  8
YODOROGO
100
AcDbLine
 10
15766.80217064596
 20
797.8747482146435
 30
0.0
 11
15766.80217064594
 21
905.8747482146443
 31
0.0
  0
LINE
  5
1A27A
330
19EB5
100
AcDbEntity
  8
YODOROGO
100
AcDbLine
 10
15730.80217064594
 20
993.8747482146439
 30
0.0
 11
15730.80217064594
 21
817.8747482146436
 31
0.0
  0
LINE
  5
1A27B
330
19EB5
100
AcDbEntity
  8
YODOROGO
100
AcDbLine
 10
15826.80217064596
 20
713.8747482146436
 30
0.0
 11
15826.80217064594
 21
905.8747482146443
 31
0.0
  0
LINE
  5
1A27C
330
19EB5
100
AcDbEntity
  8
YODOROGO
100
AcDbLine
 10
15794.80217064596
 20
905.8747482146443
 30
0.0
 11
15794.80217064596
 21
713.8747482146436
 31
0.0
  0
LINE
  5
1A27D
330
19EB5
100
AcDbEntity
  8
YODOROGO
100
AcDbLine
 10
15618.80217064596
 20
797.8747482146435
 30
0.0
 11
15618.80217064596
 21
853.874748214644
 31
0.0
  0
ARC
  5
1A27E
330
19EB5
100
AcDbEntity
  8
YODOROGO
100
AcDbCircle
 10
15676.95743255803
 20
803.8951756442788
 30
0.0
 40
90.04622428799429
100
AcDbArc
 50
268.6284910216979
 51
356.1663845733032
  0
LINE
  5
1A27F
330
19EB5
100
AcDbEntity
  8
YODOROGO
100
AcDbLine
 10
15674.80217064596
 20
763.8747482146435
 30
0.0
 11
15674.80217064596
 21
713.8747482146436
 31
0.0
  0
ARC
  5
1A280
330
19EB5
100
AcDbEntity
  8
YODOROGO
100
AcDbCircle
 10
15675.75903786228
 20
818.9194785088275
 30
0.0
 40
55.05304649180608
100
AcDbArc
 50
269.0041020930593
 51
358.9126445549248
  0
LINE
  5
1A281
330
19EB5
100
AcDbEntity
  8
YODOROGO
100
AcDbLine
 10
15794.80217064596
 20
713.8747482146436
 30
0.0
 11
15826.80217064596
 21
713.8747482146436
 31
0.0
  0
LINE
  5
1A282
330
19EB5
100
AcDbEntity
  8
YODOROGO
100
AcDbLine
 10
15766.80217064594
 20
905.8747482146443
 30
0.0
 11
15794.80217064596
 21
905.8747482146443
 31
0.0
  0
LINE
  5
1A283
330
19EB5
100
AcDbEntity
  8
YODOROGO
100
AcDbLine
 10
15810.80217064596
 20
993.8747482146439
 30
0.0
 11
15730.80217064594
 21
993.8747482146439
 31
0.0
  0
LINE
  5
1A284
330
19EB5
100
AcDbEntity
  8
YODOROGO
100
AcDbLine
 10
15766.80217064594
 20
957.8747482146436
 30
0.0
 11
15830.80217064596
 21
957.8747482146436
 31
0.0
  0
LINE
  5
1A285
330
19EB5
100
AcDbEntity
  8
YODOROGO
100
AcDbLine
 10
15850.80217064596
 20
937.8747482146435
 30
0.0
 11
15766.80217064594
 21
937.8747482146435
 31
0.0
  0
LINE
  5
1A286
330
19EB5
100
AcDbEntity
  8
YODOROGO
100
AcDbLine
 10
15618.80217064596
 20
889.8747482146442
 30
0.0
 11
15674.80217064596
 21
889.8747482146442
 31
0.0
  0
LINE
  5
1A287
330
19EB5
100
AcDbEntity
  8
YODOROGO
100
AcDbLine
 10
15618.80217064596
 20
917.8747482146436
 30
0.0
 11
15618.80217064596
 21
889.8747482146442
 31
0.0
  0
LINE
  5
1A288
330
19EB5
100
AcDbEntity
  8
YODOROGO
100
AcDbLine
 10
15674.80217064596
 20
917.8747482146436
 30
0.0
 11
15618.80217064596
 21
917.8747482146436
 31
0.0
  0
LINE
  5
1A289
330
19EB5
100
AcDbEntity
  8
YODOROGO
100
AcDbLine
 10
15674.80217064596
 20
889.8747482146442
 30
0.0
 11
15674.80217064596
 21
917.8747482146436
 31
0.0
  0
LINE
  5
1A28A
330
19EB5
100
AcDbEntity
  8
YODOROGO
100
AcDbLine
 10
15766.80217064594
 20
937.8747482146435
 30
0.0
 11
15766.80217064594
 21
957.8747482146436
 31
0.0
  0
LINE
  5
1A28B
330
19EB5
100
AcDbEntity
  8
YODOROGO
100
AcDbLine
 10
15706.80217064596
 20
853.874748214644
 30
0.0
 11
15706.80217064596
 21
953.874748214644
 31
0.0
  0
LINE
  5
1A28C
330
19EB5
100
AcDbEntity
  8
YODOROGO
100
AcDbLine
 10
15618.80217064596
 20
853.874748214644
 30
0.0
 11
15706.80217064596
 21
853.874748214644
 31
0.0
  0
LINE
  5
1A28D
330
19EB5
100
AcDbEntity
  8
YODOROGO
100
AcDbLine
 10
15706.80217064596
 20
981.8747482146434
 30
0.0
 11
15706.80217064596
 21
1013.874748214644
 31
0.0
  0
ARC
  5
1A28E
330
19EB5
100
AcDbEntity
  8
YODOROGO
100
AcDbCircle
 10
15810.80217064596
 20
1001.874748214642
 30
0.0
 40
7.99999999999727
100
AcDbArc
 50
270.0
 51
0.0000000000081422
  0
LINE
  5
1A28F
330
19EB5
100
AcDbEntity
  8
YODOROGO
100
AcDbLine
 10
15818.80217064596
 20
1013.874748214644
 30
0.0
 11
15818.80217064596
 21
1001.874748214643
 31
0.0
  0
LINE
  5
1A290
330
19EB5
100
AcDbEntity
  8
YODOROGO
100
AcDbLine
 10
15850.80217064596
 20
1013.874748214644
 30
0.0
 11
15818.80217064596
 21
1013.874748214644
 31
0.0
  0
LINE
  5
1A291
330
19EB5
100
AcDbEntity
  8
YODOROGO
100
AcDbLine
 10
15850.80217064596
 20
977.8747482146435
 30
0.0
 11
15850.80217064596
 21
1013.874748214644
 31
0.0
  0
ARC
  5
1A292
330
19EB5
100
AcDbEntity
  8
YODOROGO
100
AcDbCircle
 10
15830.80217064596
 20
977.8747482146435
 30
0.0
 40
20.0
100
AcDbArc
 50
270.0
 51
0.0
  0
LINE
  5
1A293
330
19EB5
100
AcDbEntity
  8
YODOROGO
100
AcDbLine
 10
15850.80217064596
 20
905.8747482146443
 30
0.0
 11
15850.80217064596
 21
937.8747482146435
 31
0.0
  0
LINE
  5
1A294
330
19EB5
100
AcDbEntity
  8
YODOROGO
100
AcDbLine
 10
15826.80217064594
 20
905.8747482146443
 30
0.0
 11
15850.80217064596
 21
905.8747482146443
 31
0.0
  0
LINE
  5
1A295
330
19EB5
100
AcDbEntity
  8
SUNPOU
100
AcDbLine
 10
7338.882292608748
 20
4130.485411556196
 30
0.0
 11
7398.882292608762
 21
4130.485411556196
 31
0.0
  0
LINE
  5
1A296
330
19EB5
100
AcDbEntity
  8
SUNPOU
100
AcDbLine
 10
7338.882292608755
 20
4130.485411556196
 30
0.0
 11
7398.882292608757
 21
4146.562363102066
 31
0.0
  0
LINE
  5
1A297
330
19EB5
100
AcDbEntity
  8
SUNPOU
100
AcDbLine
 10
7338.882292608748
 20
4130.485411556196
 30
0.0
 11
7398.882292608762
 21
4114.408460010326
 31
0.0
  0
LINE
  5
1A298
330
19EB5
100
AcDbEntity
  8
SUNPOU
100
AcDbLine
 10
7398.88229260875
 20
4130.485411556196
 30
0.0
 11
7458.882292608763
 21
4130.485411556196
 31
0.0
  0
LINE
  5
1A299
330
19EB5
100
AcDbEntity
  8
SUNPOU
100
AcDbLine
 10
7398.882292608757
 20
4130.485411556196
 30
0.0
 11
7458.882292608755
 21
4146.562363102066
 31
0.0
  0
LINE
  5
1A29A
330
19EB5
100
AcDbEntity
  8
SUNPOU
100
AcDbLine
 10
7398.88229260875
 20
4130.485411556196
 30
0.0
 11
7458.882292608763
 21
4114.408460010326
 31
0.0
  0
LINE
  5
1A29B
330
19EB5
100
AcDbEntity
  8
SUNPOU
100
AcDbLine
 10
8580.123251791111
 20
4141.735411556195
 30
0.0
 11
8580.123251791111
 21
4152.985411556197
 31
0.0
  0
LINE
  5
1A29C
330
19EB5
100
AcDbEntity
  8
SUNPOU
100
AcDbLine
 10
7940.12325179111
 20
2681.084839419607
 30
0.0
 11
7940.12325179111
 21
2103.684839419604
 31
0.0
  0
LINE
  5
1A29D
330
19EB5
100
AcDbEntity
  8
SUNPOU
100
AcDbLine
 10
9220.123251791108
 20
2681.084839419607
 30
0.0
 11
9220.123251791108
 21
2103.684839419604
 31
0.0
  0
LINE
  5
1A29E
330
19EB5
100
AcDbEntity
  8
SUNPOU
100
AcDbLine
 10
7955.123251791109
 20
2148.684839419604
 30
0.0
 11
9205.123251791109
 21
2148.684839419604
 31
0.0
  0
LINE
  5
1A29F
330
19EB5
100
AcDbEntity
  8
SUNPOU
100
AcDbLine
 10
7780.123251791109
 20
2521.084839419604
 30
0.0
 11
7780.123251791109
 21
1893.684839419604
 31
0.0
  0
LINE
  5
1A2A0
330
19EB5
100
AcDbEntity
  8
SUNPOU
100
AcDbLine
 10
9380.123251791109
 20
2521.084839419604
 30
0.0
 11
9380.123251791109
 21
1893.684839419604
 31
0.0
  0
LINE
  5
1A2A1
330
19EB5
100
AcDbEntity
  8
SUNPOU
100
AcDbLine
 10
7795.123251791108
 20
1938.684839419604
 30
0.0
 11
9365.123251791109
 21
1938.684839419604
 31
0.0
  0
LINE
  5
1A2A2
330
19EB5
100
AcDbEntity
  8
SUNPOU
100
AcDbLine
 10
7910.12325179111
 20
3319.084839419605
 30
0.0
 11
7615.769855790354
 21
3319.084839419605
 31
0.0
  0
LINE
  5
1A2A3
330
19EB5
100
AcDbEntity
  8
SUNPOU
100
AcDbLine
 10
7910.12325179111
 20
3191.0848394196
 30
0.0
 11
7615.769855790354
 21
3191.0848394196
 31
0.0
  0
LINE
  5
1A2A4
330
19EB5
100
AcDbEntity
  8
SUNPOU
100
AcDbLine
 10
7660.769855790352
 20
3304.084839419605
 30
0.0
 11
7660.769855790352
 21
3206.084839419601
 31
0.0
  0
LINE
  5
1A2A5
330
19EB5
100
AcDbEntity
  8
SUNPOU
100
AcDbLine
 10
7910.12325179111
 20
3319.084839419603
 30
0.0
 11
7615.76985579035
 21
3319.084839419603
 31
0.0
  0
LINE
  5
1A2A6
330
19EB5
100
AcDbEntity
  8
SUNPOU
100
AcDbLine
 10
8070.123251791107
 20
3456.684839419605
 30
0.0
 11
7615.76985579035
 21
3456.684839419605
 31
0.0
  0
LINE
  5
1A2A7
330
19EB5
100
AcDbEntity
  8
SUNPOU
100
AcDbLine
 10
7660.769855790352
 20
3334.084839419602
 30
0.0
 11
7660.769855790352
 21
3441.684839419604
 31
0.0
  0
LINE
  5
1A2A8
330
19EB5
100
AcDbEntity
  8
SUNPOU
100
AcDbLine
 10
7660.769855790352
 20
3456.684839419605
 30
0.0
 11
7660.769855790352
 21
3658.827696562461
 31
0.0
  0
LINE
  5
1A2A9
330
19EB5
100
AcDbEntity
  8
SUNPOU
100
AcDbLine
 10
7750.123251791109
 20
2711.084839419607
 30
0.0
 11
7615.76985579035
 21
2711.084839419607
 31
0.0
  0
LINE
  5
1A2AA
330
19EB5
100
AcDbEntity
  8
SUNPOU
100
AcDbLine
 10
7910.12325179111
 20
3191.0848394196
 30
0.0
 11
7615.76985579035
 21
3191.0848394196
 31
0.0
  0
LINE
  5
1A2AB
330
19EB5
100
AcDbEntity
  8
SUNPOU
100
AcDbLine
 10
7660.769855790352
 20
2726.084839419607
 30
0.0
 11
7660.769855790352
 21
3176.084839419601
 31
0.0
  0
LINE
  5
1A2AC
330
19EB5
100
AcDbEntity
  8
SUNPOU
100
AcDbLine
 10
7750.123251791109
 20
2711.084839419607
 30
0.0
 11
7615.76985579035
 21
2711.084839419607
 31
0.0
  0
LINE
  5
1A2AD
330
19EB5
100
AcDbEntity
  8
SUNPOU
100
AcDbLine
 10
7750.123251791109
 20
2551.084839419603
 30
0.0
 11
7615.76985579035
 21
2551.084839419603
 31
0.0
  0
LINE
  5
1A2AE
330
19EB5
100
AcDbEntity
  8
SUNPOU
100
AcDbLine
 10
7660.769855790352
 20
2696.084839419607
 30
0.0
 11
7660.769855790352
 21
2566.084839419604
 31
0.0
  0
LINE
  5
1A2AF
330
19EB5
100
AcDbEntity
  8
SUNPOU
100
AcDbLine
 10
7660.769855790352
 20
2551.084839419603
 30
0.0
 11
7660.769855790352
 21
2300.370553705317
 31
0.0
  0
LINE
  5
1A2B0
330
19EB5
100
AcDbEntity
  8
SUNPOU
100
AcDbLine
 10
8070.123251791107
 20
3456.684839419605
 30
0.0
 11
7405.769855790352
 21
3456.684839419605
 31
0.0
  0
LINE
  5
1A2B1
330
19EB5
100
AcDbEntity
  8
SUNPOU
100
AcDbLine
 10
7750.123251791109
 20
2551.084839419603
 30
0.0
 11
7405.769855790352
 21
2551.084839419603
 31
0.0
  0
LINE
  5
1A2B2
330
19EB5
100
AcDbEntity
  8
SUNPOU
100
AcDbLine
 10
7450.769855790351
 20
3441.684839419604
 30
0.0
 11
7450.769855790351
 21
2566.084839419604
 31
0.0
  0
LINE
  5
1A2B3
330
19EB5
100
AcDbEntity
  8
SUNPOU
100
AcDbLine
 10
9821.364210973474
 20
4130.485411556196
 30
0.0
 11
9761.364210973455
 21
4130.485411556196
 31
0.0
  0
LINE
  5
1A2B4
330
19EB5
100
AcDbEntity
  8
SUNPOU
100
AcDbLine
 10
9821.364210973465
 20
4130.485411556196
 30
0.0
 11
9761.364210973468
 21
4146.562363102066
 31
0.0
  0
LINE
  5
1A2B5
330
19EB5
100
AcDbEntity
  8
SUNPOU
100
AcDbLine
 10
9821.364210973474
 20
4130.485411556196
 30
0.0
 11
9761.364210973455
 21
4114.408460010326
 31
0.0
  0
LINE
  5
1A2B6
330
19EB5
100
AcDbEntity
  8
SUNPOU
100
AcDbLine
 10
9761.364210973473
 20
4130.485411556196
 30
0.0
 11
9701.364210973459
 21
4130.485411556196
 31
0.0
  0
LINE
  5
1A2B7
330
19EB5
100
AcDbEntity
  8
SUNPOU
100
AcDbLine
 10
9761.364210973468
 20
4130.485411556196
 30
0.0
 11
9701.364210973466
 21
4146.562363102066
 31
0.0
  0
LINE
  5
1A2B8
330
19EB5
100
AcDbEntity
  8
SUNPOU
100
AcDbLine
 10
9761.364210973473
 20
4130.485411556196
 30
0.0
 11
9701.364210973459
 21
4114.408460010326
 31
0.0
  0
LINE
  5
1A2B9
330
19EB5
100
AcDbEntity
  8
SUNPOU
100
AcDbLine
 10
12404.21703198606
 20
9295.71536047325
 30
0.0
 11
12389.21703198605
 21
9295.71536047325
 31
0.0
  0
LINE
  5
1A2BA
330
19EB5
100
AcDbEntity
  8
SUNPOU
100
AcDbLine
 10
12064.21703198605
 20
9595.715360473253
 30
0.0
 11
12479.21703198606
 21
9595.715360473251
 31
0.0
  0
LINE
  5
1A2BB
330
19EB5
100
AcDbEntity
  8
SUNPOU
100
AcDbLine
 10
12434.21703198606
 20
9310.715360473251
 30
0.0
 11
12434.21703198606
 21
9580.71536047325
 31
0.0
  0
LINE
  5
1A2BC
330
19EB5
100
AcDbEntity
  8
SUNPOU
100
AcDbLine
 10
12404.21703198606
 20
7495.715360473251
 30
0.0
 11
12389.21703198605
 21
7495.715360473251
 31
0.0
  0
LINE
  5
1A2BD
330
19EB5
100
AcDbEntity
  8
SUNPOU
100
AcDbLine
 10
12404.21703198606
 20
9295.71536047325
 30
0.0
 11
12389.21703198605
 21
9295.71536047325
 31
0.0
  0
LINE
  5
1A2BE
330
19EB5
100
AcDbEntity
  8
SUNPOU
100
AcDbLine
 10
12434.21703198606
 20
7510.715360473253
 30
0.0
 11
12434.21703198606
 21
9280.71536047325
 31
0.0
  0
LINE
  5
1A2BF
330
19EB5
100
AcDbEntity
  8
SUNPOU
100
AcDbLine
 10
12404.21703198606
 20
5695.715360473253
 30
0.0
 11
12389.21703198605
 21
5695.715360473253
 31
0.0
  0
LINE
  5
1A2C0
330
19EB5
100
AcDbEntity
  8
SUNPOU
100
AcDbLine
 10
12404.21703198606
 20
7495.715360473251
 30
0.0
 11
12389.21703198605
 21
7495.715360473251
 31
0.0
  0
LINE
  5
1A2C1
330
19EB5
100
AcDbEntity
  8
SUNPOU
100
AcDbLine
 10
12434.21703198606
 20
5710.715360473253
 30
0.0
 11
12434.21703198606
 21
7480.715360473253
 31
0.0
  0
LINE
  5
1A2C2
330
19EB5
100
AcDbEntity
  8
SUNPOU
100
AcDbLine
 10
12064.21703198605
 20
5395.715360473253
 30
0.0
 11
12479.21703198606
 21
5395.715360473253
 31
0.0
  0
LINE
  5
1A2C3
330
19EB5
100
AcDbEntity
  8
SUNPOU
100
AcDbLine
 10
12404.21703198606
 20
5695.715360473253
 30
0.0
 11
12389.21703198605
 21
5695.715360473253
 31
0.0
  0
LINE
  5
1A2C4
330
19EB5
100
AcDbEntity
  8
SUNPOU
100
AcDbLine
 10
12434.21703198606
 20
5410.715360473253
 30
0.0
 11
12434.21703198606
 21
5680.715360473254
 31
0.0
  0
LINE
  5
1A2C5
330
19EB5
100
AcDbEntity
  8
SUNPOU
100
AcDbLine
 10
12064.21703198605
 20
5395.715360473253
 30
0.0
 11
12689.21703198605
 21
5395.715360473253
 31
0.0
  0
LINE
  5
1A2C6
330
19EB5
100
AcDbEntity
  8
SUNPOU
100
AcDbLine
 10
12064.21703198605
 20
9595.715360473253
 30
0.0
 11
12689.21703198605
 21
9595.715360473251
 31
0.0
  0
LINE
  5
1A2C7
330
19EB5
100
AcDbEntity
  8
SUNPOU
100
AcDbLine
 10
12644.21703198606
 20
5410.715360473253
 30
0.0
 11
12644.21703198606
 21
9580.71536047325
 31
0.0
  0
LINE
  5
1A2C8
330
19EB5
100
AcDbEntity
  8
SUNPOU
100
AcDbLine
 10
11635.33837406208
 20
3726.33703658456
 30
0.0
 11
12318.40680314955
 21
3726.33703658456
 31
0.0
  0
LINE
  5
1A2C9
330
19EB5
100
AcDbEntity
  8
SUNPOU
100
AcDbLine
 10
11635.33837406208
 20
3886.33703658456
 30
0.0
 11
12318.40680314955
 21
3886.33703658456
 31
0.0
  0
LINE
  5
1A2CA
330
19EB5
100
AcDbEntity
  8
SUNPOU
100
AcDbLine
 10
12273.40680314955
 20
3741.33703658456
 30
0.0
 11
12273.40680314955
 21
3871.337036584561
 31
0.0
  0
LINE
  5
1A2CB
330
19EB5
100
AcDbEntity
  8
SUNPOU
100
AcDbLine
 10
12273.40680314955
 20
3886.33703658456
 30
0.0
 11
12273.40680314955
 21
4088.479893727416
 31
0.0
  0
LINE
  5
1A2CC
330
19EB5
100
AcDbEntity
  8
SUNPOU
100
AcDbLine
 10
11635.33837406208
 20
3726.33703658456
 30
0.0
 11
12318.40680314955
 21
3726.33703658456
 31
0.0
  0
LINE
  5
1A2CD
330
19EB5
100
AcDbEntity
  8
SUNPOU
100
AcDbLine
 10
11891.33837406209
 20
3618.337036584561
 30
0.0
 11
12318.40680314955
 21
3618.337036584561
 31
0.0
  0
LINE
  5
1A2CE
330
19EB5
100
AcDbEntity
  8
SUNPOU
100
AcDbLine
 10
12273.40680314955
 20
3741.33703658456
 30
0.0
 11
12273.40680314955
 21
3756.337036584561
 31
0.0
  0
LINE
  5
1A2CF
330
19EB5
100
AcDbEntity
  8
SUNPOU
100
AcDbLine
 10
12273.40680314955
 20
3603.337036584561
 30
0.0
 11
12273.40680314955
 21
3401.194179441703
 31
0.0
  0
LINE
  5
1A2D0
330
19EB5
100
AcDbEntity
  8
SUNPOU
100
AcDbLine
 10
12273.40680314955
 20
3726.33703658456
 30
0.0
 11
12273.40680314955
 21
3618.337036584561
 31
0.0
  0
LINE
  5
1A2D1
330
19EB5
100
AcDbEntity
  8
SUNPOU
100
AcDbLine
 10
11781.33837406209
 20
2470.144344053149
 30
0.0
 11
11781.33837406209
 21
2200.804976716085
 31
0.0
  0
LINE
  5
1A2D2
330
19EB5
100
AcDbEntity
  8
SUNPOU
100
AcDbLine
 10
11861.33837406209
 20
2510.144344053149
 30
0.0
 11
11861.33837406209
 21
2200.804976716085
 31
0.0
  0
LINE
  5
1A2D3
330
19EB5
100
AcDbEntity
  8
SUNPOU
100
AcDbLine
 10
11766.33837406209
 20
2245.804976716085
 30
0.0
 11
11751.33837406209
 21
2245.804976716085
 31
0.0
  0
LINE
  5
1A2D4
330
19EB5
100
AcDbEntity
  8
SUNPOU
100
AcDbLine
 10
11876.33837406208
 20
2245.804976716085
 30
0.0
 11
12078.48123120495
 21
2245.804976716085
 31
0.0
  0
LINE
  5
1A2D5
330
19EB5
100
AcDbEntity
  8
SUNPOU
100
AcDbLine
 10
11781.33837406209
 20
2245.804976716085
 30
0.0
 11
11861.33837406209
 21
2245.804976716085
 31
0.0
  0
LINE
  5
1A2D6
330
19EB5
100
AcDbEntity
  8
SUNPOU
100
AcDbLine
 10
11301.33837406209
 20
2470.144344053149
 30
0.0
 11
11301.33837406209
 21
2200.804976716085
 31
0.0
  0
LINE
  5
1A2D7
330
19EB5
100
AcDbEntity
  8
SUNPOU
100
AcDbLine
 10
11781.33837406209
 20
2470.144344053149
 30
0.0
 11
11781.33837406209
 21
2200.804976716085
 31
0.0
  0
LINE
  5
1A2D8
330
19EB5
100
AcDbEntity
  8
SUNPOU
100
AcDbLine
 10
11316.3383740621
 20
2245.804976716085
 30
0.0
 11
11766.33837406209
 21
2245.804976716085
 31
0.0
  0
LINE
  5
1A2D9
330
19EB5
100
AcDbEntity
  8
SUNPOU
100
AcDbLine
 10
11301.33837406209
 20
2470.144344053149
 30
0.0
 11
11301.33837406209
 21
2200.804976716085
 31
0.0
  0
LINE
  5
1A2DA
330
19EB5
100
AcDbEntity
  8
SUNPOU
100
AcDbLine
 10
11221.33837406209
 20
2510.144344053149
 30
0.0
 11
11221.33837406209
 21
2200.804976716085
 31
0.0
  0
LINE
  5
1A2DB
330
19EB5
100
AcDbEntity
  8
SUNPOU
100
AcDbLine
 10
11316.3383740621
 20
2245.804976716085
 30
0.0
 11
11331.33837406209
 21
2245.804976716085
 31
0.0
  0
LINE
  5
1A2DC
330
19EB5
100
AcDbEntity
  8
SUNPOU
100
AcDbLine
 10
11206.33837406209
 20
2245.804976716085
 30
0.0
 11
11004.19551691922
 21
2245.804976716085
 31
0.0
  0
LINE
  5
1A2DD
330
19EB5
100
AcDbEntity
  8
SUNPOU
100
AcDbLine
 10
11301.33837406209
 20
2245.804976716085
 30
0.0
 11
11221.33837406209
 21
2245.804976716085
 31
0.0
  0
LINE
  5
1A2DE
330
19EB5
100
AcDbEntity
  8
SUNPOU
100
AcDbLine
 10
11221.33837406209
 20
2510.144344053149
 30
0.0
 11
11221.33837406209
 21
1990.804976716086
 31
0.0
  0
LINE
  5
1A2DF
330
19EB5
100
AcDbEntity
  8
SUNPOU
100
AcDbLine
 10
11861.33837406209
 20
2510.144344053149
 30
0.0
 11
11861.33837406209
 21
1990.804976716086
 31
0.0
  0
LINE
  5
1A2E0
330
19EB5
100
AcDbEntity
  8
SUNPOU
100
AcDbLine
 10
11236.33837406209
 20
2035.804976716086
 30
0.0
 11
11846.33837406209
 21
2035.804976716086
 31
0.0
  0
LINE
  5
1A2E1
330
19EB5
100
AcDbEntity
  8
SUNPOU
100
AcDbLine
 10
11195.33837406209
 20
2700.144344053149
 30
0.0
 11
10873.33837406209
 21
2700.144344053149
 31
0.0
  0
LINE
  5
1A2E2
330
19EB5
100
AcDbEntity
  8
SUNPOU
100
AcDbLine
 10
11191.33837406208
 20
2540.144344053149
 30
0.0
 11
10873.33837406209
 21
2540.144344053149
 31
0.0
  0
LINE
  5
1A2E3
330
19EB5
100
AcDbEntity
  8
SUNPOU
100
AcDbLine
 10
10918.33837406209
 20
2685.144344053149
 30
0.0
 11
10918.33837406209
 21
2555.144344053149
 31
0.0
  0
LINE
  5
1A2E4
330
19EB5
100
AcDbEntity
  8
SUNPOU
100
AcDbLine
 10
10918.33837406209
 20
2540.144344053149
 30
0.0
 11
10918.33837406209
 21
2338.001486910291
 31
0.0
  0
LINE
  5
1A2E5
330
19EB5
100
AcDbEntity
  8
SUNPOU
100
AcDbLine
 10
11195.33837406209
 20
2700.144344053149
 30
0.0
 11
10873.33837406209
 21
2700.144344053149
 31
0.0
  0
LINE
  5
1A2E6
330
19EB5
100
AcDbEntity
  8
SUNPOU
100
AcDbLine
 10
11191.33837406208
 20
2860.144344053149
 30
0.0
 11
10873.33837406209
 21
2860.144344053149
 31
0.0
  0
LINE
  5
1A2E7
330
19EB5
100
AcDbEntity
  8
SUNPOU
100
AcDbLine
 10
10918.33837406209
 20
2715.144344053149
 30
0.0
 11
10918.33837406209
 21
2845.144344053149
 31
0.0
  0
LINE
  5
1A2E8
330
19EB5
100
AcDbEntity
  8
SUNPOU
100
AcDbLine
 10
10918.33837406209
 20
2860.144344053149
 30
0.0
 11
10918.33837406209
 21
3062.287201196007
 31
0.0
  0
LINE
  5
1A2E9
330
19EB5
100
AcDbEntity
  8
SUNPOU
100
AcDbLine
 10
11191.33837406208
 20
2540.144344053149
 30
0.0
 11
10663.33837406209
 21
2540.144344053149
 31
0.0
  0
LINE
  5
1A2EA
330
19EB5
100
AcDbEntity
  8
SUNPOU
100
AcDbLine
 10
11191.33837406208
 20
2860.144344053149
 30
0.0
 11
10663.33837406209
 21
2860.144344053149
 31
0.0
  0
LINE
  5
1A2EB
330
19EB5
100
AcDbEntity
  8
SUNPOU
100
AcDbLine
 10
10708.33837406208
 20
2555.144344053149
 30
0.0
 11
10708.33837406208
 21
2845.144344053149
 31
0.0
  0
LINE
  5
1A2EC
330
19EB5
100
AcDbEntity
  8
SUNPOU
100
AcDbLine
 10
11781.33837406209
 20
3548.33703658456
 30
0.0
 11
11781.33837406209
 21
3349.170862655058
 31
0.0
  0
LINE
  5
1A2ED
330
19EB5
100
AcDbEntity
  8
SUNPOU
100
AcDbLine
 10
11861.33837406209
 20
3588.337036584561
 30
0.0
 11
11861.33837406209
 21
3349.170862655058
 31
0.0
  0
LINE
  5
1A2EE
330
19EB5
100
AcDbEntity
  8
SUNPOU
100
AcDbLine
 10
11766.33837406209
 20
3394.170862655057
 30
0.0
 11
11751.33837406209
 21
3394.170862655057
 31
0.0
  0
LINE
  5
1A2EF
330
19EB5
100
AcDbEntity
  8
SUNPOU
100
AcDbLine
 10
11876.33837406208
 20
3394.170862655057
 30
0.0
 11
12078.48123120495
 21
3394.170862655057
 31
0.0
  0
LINE
  5
1A2F0
330
19EB5
100
AcDbEntity
  8
SUNPOU
100
AcDbLine
 10
11781.33837406209
 20
3394.170862655057
 30
0.0
 11
11861.33837406209
 21
3394.170862655057
 31
0.0
  0
LINE
  5
1A2F1
330
19EB5
100
AcDbEntity
  8
SUNPOU
100
AcDbLine
 10
11301.33837406209
 20
3548.33703658456
 30
0.0
 11
11301.33837406209
 21
3349.170862655058
 31
0.0
  0
LINE
  5
1A2F2
330
19EB5
100
AcDbEntity
  8
SUNPOU
100
AcDbLine
 10
11781.33837406209
 20
3548.33703658456
 30
0.0
 11
11781.33837406209
 21
3349.170862655058
 31
0.0
  0
LINE
  5
1A2F3
330
19EB5
100
AcDbEntity
  8
SUNPOU
100
AcDbLine
 10
11316.3383740621
 20
3394.170862655057
 30
0.0
 11
11766.33837406209
 21
3394.170862655057
 31
0.0
  0
LINE
  5
1A2F4
330
19EB5
100
AcDbEntity
  8
SUNPOU
100
AcDbLine
 10
11301.33837406209
 20
3548.33703658456
 30
0.0
 11
11301.33837406209
 21
3349.170862655058
 31
0.0
  0
LINE
  5
1A2F5
330
19EB5
100
AcDbEntity
  8
SUNPOU
100
AcDbLine
 10
11221.33837406209
 20
3588.337036584561
 30
0.0
 11
11221.33837406209
 21
3349.170862655058
 31
0.0
  0
LINE
  5
1A2F6
330
19EB5
100
AcDbEntity
  8
SUNPOU
100
AcDbLine
 10
11316.3383740621
 20
3394.170862655057
 30
0.0
 11
11331.33837406209
 21
3394.170862655057
 31
0.0
  0
LINE
  5
1A2F7
330
19EB5
100
AcDbEntity
  8
SUNPOU
100
AcDbLine
 10
11206.33837406209
 20
3394.170862655057
 30
0.0
 11
11004.19551691922
 21
3394.170862655057
 31
0.0
  0
LINE
  5
1A2F8
330
19EB5
100
AcDbEntity
  8
SUNPOU
100
AcDbLine
 10
11301.33837406209
 20
3394.170862655057
 30
0.0
 11
11221.33837406209
 21
3394.170862655057
 31
0.0
  0
LINE
  5
1A2F9
330
19EB5
100
AcDbEntity
  8
SUNPOU
100
AcDbLine
 10
11221.33837406209
 20
3588.337036584561
 30
0.0
 11
11221.33837406209
 21
3139.170862655058
 31
0.0
  0
LINE
  5
1A2FA
330
19EB5
100
AcDbEntity
  8
SUNPOU
100
AcDbLine
 10
11861.33837406209
 20
3588.337036584561
 30
0.0
 11
11861.33837406209
 21
3139.170862655058
 31
0.0
  0
LINE
  5
1A2FB
330
19EB5
100
AcDbEntity
  8
SUNPOU
100
AcDbLine
 10
11236.33837406209
 20
3184.170862655058
 30
0.0
 11
11846.33837406209
 21
3184.170862655058
 31
0.0
  0
LINE
  5
1A2FC
330
19EB5
100
AcDbEntity
  8
SUNPOU
100
AcDbLine
 10
4319.797051267463
 20
2690.684839419602
 30
0.0
 11
4319.797051267463
 21
2103.684839419599
 31
0.0
  0
LINE
  5
1A2FD
330
19EB5
100
AcDbEntity
  8
SUNPOU
100
AcDbLine
 10
5279.797051267464
 20
2690.684839419602
 30
0.0
 11
5279.797051267464
 21
2103.684839419599
 31
0.0
  0
LINE
  5
1A2FE
330
19EB5
100
AcDbEntity
  8
SUNPOU
100
AcDbLine
 10
4334.797051267464
 20
2148.684839419601
 30
0.0
 11
5264.797051267464
 21
2148.684839419601
 31
0.0
  0
LINE
  5
1A2FF
330
19EB5
100
AcDbEntity
  8
SUNPOU
100
AcDbLine
 10
4159.797051267462
 20
2530.684839419603
 30
0.0
 11
4159.797051267462
 21
1893.6848394196
 31
0.0
  0
LINE
  5
1A300
330
19EB5
100
AcDbEntity
  8
SUNPOU
100
AcDbLine
 10
5439.797051267461
 20
2530.684839419603
 30
0.0
 11
5439.797051267461
 21
1893.6848394196
 31
0.0
  0
LINE
  5
1A301
330
19EB5
100
AcDbEntity
  8
SUNPOU
100
AcDbLine
 10
4174.797051267462
 20
1938.6848394196
 30
0.0
 11
5424.797051267462
 21
1938.6848394196
 31
0.0
  0
LINE
  5
1A302
330
19EB5
100
AcDbEntity
  8
SUNPOU
100
AcDbLine
 10
3490.443655266703
 20
3376.684839419604
 30
0.0
 11
3505.443655266704
 21
3376.684839419604
 31
0.0
  0
LINE
  5
1A303
330
19EB5
100
AcDbEntity
  8
SUNPOU
100
AcDbLine
 10
4289.797051267464
 20
3456.684839419605
 30
0.0
 11
3415.443655266705
 21
3456.684839419605
 31
0.0
  0
LINE
  5
1A304
330
19EB5
100
AcDbEntity
  8
SUNPOU
100
AcDbLine
 10
3460.443655266704
 20
3361.684839419604
 30
0.0
 11
3460.443655266704
 21
3346.684839419604
 31
0.0
  0
LINE
  5
1A305
330
19EB5
100
AcDbEntity
  8
SUNPOU
100
AcDbLine
 10
3460.443655266704
 20
3471.684839419605
 30
0.0
 11
3460.443655266704
 21
3673.827696562461
 31
0.0
  0
LINE
  5
1A306
330
19EB5
100
AcDbEntity
  8
SUNPOU
100
AcDbLine
 10
3460.443655266704
 20
3376.684839419604
 30
0.0
 11
3460.443655266704
 21
3456.684839419605
 31
0.0
  0
LINE
  5
1A307
330
19EB5
100
AcDbEntity
  8
SUNPOU
100
AcDbLine
 10
4289.797051267465
 20
3319.084839419601
 30
0.0
 11
3835.443655266707
 21
3319.084839419601
 31
0.0
  0
LINE
  5
1A308
330
19EB5
100
AcDbEntity
  8
SUNPOU
100
AcDbLine
 10
4289.797051267465
 20
3191.084839419597
 30
0.0
 11
3835.443655266707
 21
3191.084839419597
 31
0.0
  0
LINE
  5
1A309
330
19EB5
100
AcDbEntity
  8
SUNPOU
100
AcDbLine
 10
3880.443655266708
 20
3304.084839419601
 30
0.0
 11
3880.443655266708
 21
3206.084839419597
 31
0.0
  0
LINE
  5
1A30A
330
19EB5
100
AcDbEntity
  8
SUNPOU
100
AcDbLine
 10
4289.797051267465
 20
3319.084839419603
 30
0.0
 11
3835.443655266704
 21
3319.084839419603
 31
0.0
  0
LINE
  5
1A30B
330
19EB5
100
AcDbEntity
  8
SUNPOU
100
AcDbLine
 10
4289.797051267464
 20
3456.684839419605
 30
0.0
 11
3835.443655266704
 21
3456.684839419605
 31
0.0
  0
LINE
  5
1A30C
330
19EB5
100
AcDbEntity
  8
SUNPOU
100
AcDbLine
 10
3880.443655266704
 20
3334.084839419602
 30
0.0
 11
3880.443655266704
 21
3441.684839419605
 31
0.0
  0
LINE
  5
1A30D
330
19EB5
100
AcDbEntity
  8
SUNPOU
100
AcDbLine
 10
3880.443655266704
 20
3456.684839419605
 30
0.0
 11
3880.443655266704
 21
3658.827696562461
 31
0.0
  0
LINE
  5
1A30E
330
19EB5
100
AcDbEntity
  8
SUNPOU
100
AcDbLine
 10
4129.797051267462
 20
2711.084839419605
 30
0.0
 11
3835.443655266704
 21
2711.084839419605
 31
0.0
  0
LINE
  5
1A30F
330
19EB5
100
AcDbEntity
  8
SUNPOU
100
AcDbLine
 10
4289.797051267464
 20
3191.084839419599
 30
0.0
 11
3835.443655266704
 21
3191.084839419599
 31
0.0
  0
LINE
  5
1A310
330
19EB5
100
AcDbEntity
  8
SUNPOU
100
AcDbLine
 10
3880.443655266704
 20
2726.084839419605
 30
0.0
 11
3880.443655266704
 21
3176.084839419598
 31
0.0
  0
LINE
  5
1A311
330
19EB5
100
AcDbEntity
  8
SUNPOU
100
AcDbLine
 10
4129.797051267462
 20
2711.084839419605
 30
0.0
 11
3835.443655266704
 21
2711.084839419605
 31
0.0
  0
LINE
  5
1A312
330
19EB5
100
AcDbEntity
  8
SUNPOU
100
AcDbLine
 10
4129.797051267462
 20
2551.084839419605
 30
0.0
 11
3835.443655266704
 21
2551.084839419605
 31
0.0
  0
LINE
  5
1A313
330
19EB5
100
AcDbEntity
  8
SUNPOU
100
AcDbLine
 10
3880.443655266704
 20
2696.084839419605
 30
0.0
 11
3880.443655266704
 21
2566.084839419605
 31
0.0
  0
LINE
  5
1A314
330
19EB5
100
AcDbEntity
  8
SUNPOU
100
AcDbLine
 10
3880.443655266704
 20
2551.084839419605
 30
0.0
 11
3880.443655266704
 21
2300.370553705318
 31
0.0
  0
LINE
  5
1A315
330
19EB5
100
AcDbEntity
  8
SUNPOU
100
AcDbLine
 10
4289.797051267464
 20
3456.684839419605
 30
0.0
 11
3625.443655266705
 21
3456.684839419605
 31
0.0
  0
LINE
  5
1A316
330
19EB5
100
AcDbEntity
  8
SUNPOU
100
AcDbLine
 10
4129.797051267463
 20
2551.084839419605
 30
0.0
 11
3625.443655266705
 21
2551.084839419605
 31
0.0
  0
LINE
  5
1A317
330
19EB5
100
AcDbEntity
  8
SUNPOU
100
AcDbLine
 10
3670.443655266705
 20
3441.684839419605
 30
0.0
 11
3670.443655266705
 21
2566.084839419605
 31
0.0
  0
LINE
  5
1A318
330
19EB5
100
AcDbEntity
  8
SUNPOU
100
AcDbLine
 10
6345.027558517712
 20
4130.485411556192
 30
0.0
 11
6285.0275585177
 21
4130.485411556192
 31
0.0
  0
LINE
  5
1A319
330
19EB5
100
AcDbEntity
  8
SUNPOU
100
AcDbLine
 10
6345.027558517706
 20
4130.485411556192
 30
0.0
 11
6285.027558517706
 21
4146.562363102062
 31
0.0
  0
LINE
  5
1A31A
330
19EB5
100
AcDbEntity
  8
SUNPOU
100
AcDbLine
 10
6345.027558517712
 20
4130.485411556192
 30
0.0
 11
6285.0275585177
 21
4114.408460010323
 31
0.0
  0
LINE
  5
1A31B
330
19EB5
100
AcDbEntity
  8
SUNPOU
100
AcDbLine
 10
6285.027558517714
 20
4130.485411556192
 30
0.0
 11
6225.027558517701
 21
4130.485411556192
 31
0.0
  0
LINE
  5
1A31C
330
19EB5
100
AcDbEntity
  8
SUNPOU
100
AcDbLine
 10
6285.027558517706
 20
4130.485411556192
 30
0.0
 11
6225.027558517706
 21
4146.562363102062
 31
0.0
  0
LINE
  5
1A31D
330
19EB5
100
AcDbEntity
  8
SUNPOU
100
AcDbLine
 10
6285.027558517714
 20
4130.485411556192
 30
0.0
 11
6225.027558517701
 21
4114.408460010323
 31
0.0
  0
LINE
  5
1A31E
330
19EB5
100
AcDbEntity
  8
SUNPOU
100
AcDbLine
 10
4799.797051267463
 20
4160.485411556192
 30
0.0
 11
4799.797051267463
 21
4175.485411556191
 31
0.0
  0
LINE
  5
1A31F
330
19EB5
100
AcDbEntity
  8
SUNPOU
100
AcDbLine
 10
4319.797051267463
 20
3486.684839419604
 30
0.0
 11
4319.797051267463
 21
4175.485411556191
 31
0.0
  0
LINE
  5
1A320
330
19EB5
100
AcDbEntity
  8
SUNPOU
100
AcDbLine
 10
4784.797051267463
 20
4130.485411556192
 30
0.0
 11
4334.797051267464
 21
4130.485411556192
 31
0.0
  0
LINE
  5
1A321
330
19EB5
100
AcDbEntity
  8
SUNPOU
100
AcDbLine
 10
9164.21703198606
 20
5995.715360473255
 30
0.0
 11
9479.21703198606
 21
5995.715360473255
 31
0.0
  0
LINE
  5
1A322
330
19EB5
100
AcDbEntity
  8
SUNPOU
100
AcDbLine
 10
9164.21703198606
 20
5395.715360473253
 30
0.0
 11
9479.21703198606
 21
5395.715360473253
 31
0.0
  0
LINE
  5
1A323
330
19EB5
100
AcDbEntity
  8
SUNPOU
100
AcDbLine
 10
9434.21703198606
 20
5980.715360473254
 30
0.0
 11
9434.21703198606
 21
5410.715360473254
 31
0.0
  0
TEXT
  5
1A324
330
19EB5
100
AcDbEntity
  8
SUNPOU
100
AcDbText
 10
7776.502746271773
 20
10040.71536047325
 30
0.0
 40
90.0
  1
2800 × （ N - 2 ）
 41
0.6666666666666666
  7
00
100
AcDbText
  0
LINE
  5
1A325
330
19EB5
100
AcDbEntity
  8
SUNPOU
100
AcDbLine
 10
7545.46703198606
 20
9995.715360473253
 30
0.0
 11
7556.717031986058
 21
9995.715360473253
 31
0.0
  0
LINE
  5
1A326
330
19EB5
100
AcDbEntity
  8
SUNPOU
100
AcDbLine
 10
8822.96703198606
 20
9995.715360473253
 30
0.0
 11
8811.717031986061
 21
9995.715360473253
 31
0.0
  0
LINE
  5
1A327
330
19EB5
100
AcDbEntity
  8
SUNPOU
100
AcDbLine
 10
4334.217031986058
 20
9625.715360473252
 30
0.0
 11
4334.217031986058
 21
10250.71536047325
 31
0.0
  0
LINE
  5
1A328
330
19EB5
100
AcDbEntity
  8
SUNPOU
100
AcDbLine
 10
12034.21703198606
 20
9625.715360473252
 30
0.0
 11
12034.21703198606
 21
10250.71536047325
 31
0.0
  0
LINE
  5
1A329
330
19EB5
100
AcDbEntity
  8
SUNPOU
100
AcDbLine
 10
4349.21703198606
 20
10205.71536047325
 30
0.0
 11
12019.21703198606
 21
10205.71536047325
 31
0.0
  0
LINE
  5
1A32A
330
19EB5
100
AcDbEntity
  8
SUNPOU
100
AcDbLine
 10
7534.217031986059
 20
9725.715360473252
 30
0.0
 11
7534.217031986059
 21
10040.71536047325
 31
0.0
  0
LINE
  5
1A32B
330
19EB5
100
AcDbEntity
  8
SUNPOU
100
AcDbLine
 10
4734.21703198606
 20
9725.715360473252
 30
0.0
 11
4734.21703198606
 21
10040.71536047325
 31
0.0
  0
LINE
  5
1A32C
330
19EB5
100
AcDbEntity
  8
SUNPOU
100
AcDbLine
 10
7519.217031986058
 20
9995.715360473253
 30
0.0
 11
4749.217031986058
 21
9995.715360473253
 31
0.0
  0
LINE
  5
1A32D
330
19EB5
100
AcDbEntity
  8
SUNPOU
100
AcDbLine
 10
11634.21703198606
 20
9725.715360473252
 30
0.0
 11
11634.21703198606
 21
10040.71536047325
 31
0.0
  0
LINE
  5
1A32E
330
19EB5
100
AcDbEntity
  8
SUNPOU
100
AcDbLine
 10
8834.21703198606
 20
9725.715360473252
 30
0.0
 11
8834.21703198606
 21
10040.71536047325
 31
0.0
  0
LINE
  5
1A32F
330
19EB5
100
AcDbEntity
  8
SUNPOU
100
AcDbLine
 10
11619.21703198605
 20
9995.715360473253
 30
0.0
 11
8849.217031986063
 21
9995.715360473253
 31
0.0
  0
LINE
  5
1A330
330
19EB5
100
AcDbEntity
  8
SUNPOU
100
AcDbLine
 10
4734.21703198606
 20
9725.715360473252
 30
0.0
 11
4734.21703198606
 21
10040.71536047325
 31
0.0
  0
LINE
  5
1A331
330
19EB5
100
AcDbEntity
  8
SUNPOU
100
AcDbLine
 10
4334.217031986058
 20
9625.715360473252
 30
0.0
 11
4334.217031986058
 21
10040.71536047325
 31
0.0
  0
LINE
  5
1A332
330
19EB5
100
AcDbEntity
  8
SUNPOU
100
AcDbLine
 10
4719.21703198606
 20
9995.715360473253
 30
0.0
 11
4349.21703198606
 21
9995.715360473253
 31
0.0
  0
LINE
  5
1A333
330
19EB5
100
AcDbEntity
  8
SUNPOU
100
AcDbLine
 10
11634.21703198606
 20
9725.715360473252
 30
0.0
 11
11634.21703198606
 21
10040.71536047325
 31
0.0
  0
LINE
  5
1A334
330
19EB5
100
AcDbEntity
  8
SUNPOU
100
AcDbLine
 10
12034.21703198606
 20
9625.715360473252
 30
0.0
 11
12034.21703198606
 21
10040.71536047325
 31
0.0
  0
LINE
  5
1A335
330
19EB5
100
AcDbEntity
  8
SUNPOU
100
AcDbLine
 10
11649.21703198606
 20
9995.715360473253
 30
0.0
 11
12019.21703198606
 21
9995.715360473253
 31
0.0
  0
LINE
  5
1A336
330
19EB5
100
AcDbEntity
  8
SUNPOU
100
AcDbLine
 10
7204.21703198606
 20
9595.715360473253
 30
0.0
 11
6889.21703198606
 21
9595.715360473253
 31
0.0
  0
LINE
  5
1A337
330
19EB5
100
AcDbEntity
  8
SUNPOU
100
AcDbLine
 10
7204.21703198606
 20
8995.715360473253
 30
0.0
 11
6889.21703198606
 21
8995.715360473253
 31
0.0
  0
LINE
  5
1A338
330
19EB5
100
AcDbEntity
  8
SUNPOU
100
AcDbLine
 10
6934.21703198606
 20
9580.715360473252
 30
0.0
 11
6934.21703198606
 21
9010.715360473252
 31
0.0
  0
LINE
  5
1A339
330
19EB5
100
AcDbEntity
  8
SUNPOU
100
AcDbLine
 10
7234.21703198606
 20
8965.71536047325
 30
0.0
 11
7234.21703198606
 21
8650.715360473251
 31
0.0
  0
LINE
  5
1A33A
330
19EB5
100
AcDbEntity
  8
SUNPOU
100
AcDbLine
 10
7834.21703198606
 20
8965.71536047325
 30
0.0
 11
7834.21703198606
 21
8650.715360473251
 31
0.0
  0
LINE
  5
1A33B
330
19EB5
100
AcDbEntity
  8
SUNPOU
100
AcDbLine
 10
7249.21703198606
 20
8695.715360473251
 30
0.0
 11
7819.21703198606
 21
8695.715360473251
 31
0.0
  0
LINE
  5
1A33C
330
19EB5
100
AcDbEntity
  8
SUNPOU
100
AcDbLine
 10
8534.217031986059
 20
6025.715360473252
 30
0.0
 11
8534.217031986059
 21
6290.715360473253
 31
0.0
  0
LINE
  5
1A33D
330
19EB5
100
AcDbEntity
  8
SUNPOU
100
AcDbLine
 10
9134.217031986059
 20
6025.715360473252
 30
0.0
 11
9134.217031986059
 21
6290.715360473253
 31
0.0
  0
LINE
  5
1A33E
330
19EB5
100
AcDbEntity
  8
SUNPOU
100
AcDbLine
 10
8549.21703198606
 20
6245.715360473253
 30
0.0
 11
9119.217031986059
 21
6245.715360473253
 31
0.0
  0
LINE
  5
1A33F
330
19EB5
100
AcDbEntity
  8
SUNPOU
100
AcDbLine
 10
8434.21703198606
 20
7925.715360473251
 30
0.0
 11
8434.21703198606
 21
8110.715360473252
 31
0.0
  0
LINE
  5
1A340
330
19EB5
100
AcDbEntity
  8
SUNPOU
100
AcDbLine
 10
9234.217031986061
 20
7925.715360473251
 30
0.0
 11
9234.217031986061
 21
8110.715360473252
 31
0.0
  0
LINE
  5
1A341
330
19EB5
100
AcDbEntity
  8
SUNPOU
100
AcDbLine
 10
8449.21703198606
 20
8065.715360473253
 30
0.0
 11
9219.21703198606
 21
8065.715360473253
 31
0.0
  0
LINE
  5
1A342
330
19EB5
100
AcDbEntity
  8
SUNPOU
100
AcDbLine
 10
9264.21703198606
 20
7895.715360473253
 30
0.0
 11
9579.217031986059
 21
7895.715360473253
 31
0.0
  0
LINE
  5
1A343
330
19EB5
100
AcDbEntity
  8
SUNPOU
100
AcDbLine
 10
9264.21703198606
 20
7095.715360473253
 30
0.0
 11
9579.217031986059
 21
7095.715360473253
 31
0.0
  0
LINE
  5
1A344
330
19EB5
100
AcDbEntity
  8
SUNPOU
100
AcDbLine
 10
9534.217031986059
 20
7880.715360473252
 30
0.0
 11
9534.217031986059
 21
7110.715360473252
 31
0.0
  0
ARC
  5
1A345
330
19EB5
100
AcDbEntity
  8
SUNPOU
100
AcDbCircle
 10
8580.123251791111
 20
4130.485411556196
 30
0.0
 40
5.625
100
AcDbArc
 50
90.0
 51
270.0
  0
ARC
  5
1A346
330
19EB5
100
AcDbEntity
  8
SUNPOU
100
AcDbCircle
 10
8580.123251791111
 20
4130.485411556196
 30
0.0
 40
5.625
100
AcDbArc
 50
270.0
 51
90.0
  0
TEXT
  5
1A347
330
19EB5
100
AcDbEntity
  8
SUNPOU
100
AcDbText
 10
8494.408966076823
 20
2193.684839419605
 30
0.0
 40
90.0
  1
800
 41
0.6666666666666666
  7
00
100
AcDbText
  0
LINE
  5
1A348
330
19EB5
100
AcDbEntity
  8
SUNPOU
100
AcDbLine
 10
9208.873251791109
 20
2148.684839419604
 30
0.0
 11
9197.623251791108
 21
2148.684839419604
 31
0.0
  0
LINE
  5
1A349
330
19EB5
100
AcDbEntity
  8
SUNPOU
100
AcDbLine
 10
7951.373251791109
 20
2148.684839419604
 30
0.0
 11
7962.623251791109
 21
2148.684839419604
 31
0.0
  0
TEXT
  5
1A34A
330
19EB5
100
AcDbEntity
  8
SUNPOU
100
AcDbText
 10
8461.551823219677
 20
1983.684839419604
 30
0.0
 40
90.0
  1
1000
 41
0.6666666666666666
  7
00
100
AcDbText
  0
LINE
  5
1A34B
330
19EB5
100
AcDbEntity
  8
SUNPOU
100
AcDbLine
 10
9368.873251791109
 20
1938.684839419604
 30
0.0
 11
9357.623251791109
 21
1938.684839419604
 31
0.0
  0
LINE
  5
1A34C
330
19EB5
100
AcDbEntity
  8
SUNPOU
100
AcDbLine
 10
7791.373251791107
 20
1938.684839419604
 30
0.0
 11
7802.623251791108
 21
1938.684839419604
 31
0.0
  0
TEXT
  5
1A34D
330
19EB5
100
AcDbEntity
  8
SUNPOU
100
AcDbText
 10
7615.76985579035
 20
3197.941982276748
 30
0.0
 40
90.0
  1
80
 50
90.0
 41
0.6666666666666666
  7
00
100
AcDbText
  0
LINE
  5
1A34E
330
19EB5
100
AcDbEntity
  8
SUNPOU
100
AcDbLine
 10
7660.769855790352
 20
3202.334839419601
 30
0.0
 11
7660.769855790352
 21
3213.584839419601
 31
0.0
  0
LINE
  5
1A34F
330
19EB5
100
AcDbEntity
  8
SUNPOU
100
AcDbLine
 10
7660.769855790352
 20
3307.834839419605
 30
0.0
 11
7660.769855790352
 21
3296.584839419606
 31
0.0
  0
TEXT
  5
1A350
330
19EB5
100
AcDbEntity
  8
SUNPOU
100
AcDbText
 10
7615.76985579035
 20
3508.113410848177
 30
0.0
 40
90.0
  1
80
 50
90.0
 41
0.6666666666666666
  7
00
100
AcDbText
  0
LINE
  5
1A351
330
19EB5
100
AcDbEntity
  8
SUNPOU
100
AcDbLine
 10
7660.769855790352
 20
3445.434839419605
 30
0.0
 11
7660.769855790352
 21
3434.184839419605
 31
0.0
  0
LINE
  5
1A352
330
19EB5
100
AcDbEntity
  8
SUNPOU
100
AcDbLine
 10
7660.769855790352
 20
3330.334839419603
 30
0.0
 11
7660.769855790352
 21
3341.584839419603
 31
0.0
  0
TEXT
  5
1A353
330
19EB5
100
AcDbEntity
  8
SUNPOU
100
AcDbText
 10
7615.76985579035
 20
2865.37055370532
 30
0.0
 40
90.0
  1
300
 50
90.0
 41
0.6666666666666666
  7
00
100
AcDbText
  0
LINE
  5
1A354
330
19EB5
100
AcDbEntity
  8
SUNPOU
100
AcDbLine
 10
7660.769855790352
 20
3179.834839419601
 30
0.0
 11
7660.769855790352
 21
3168.584839419601
 31
0.0
  0
LINE
  5
1A355
330
19EB5
100
AcDbEntity
  8
SUNPOU
100
AcDbLine
 10
7660.769855790352
 20
2722.334839419608
 30
0.0
 11
7660.769855790352
 21
2733.584839419608
 31
0.0
  0
TEXT
  5
1A356
330
19EB5
100
AcDbEntity
  8
SUNPOU
100
AcDbText
 10
7615.76985579035
 20
2328.227696562461
 30
0.0
 40
90.0
  1
100
 50
90.0
 41
0.6666666666666666
  7
00
100
AcDbText
  0
LINE
  5
1A357
330
19EB5
100
AcDbEntity
  8
SUNPOU
100
AcDbLine
 10
7660.769855790352
 20
2562.334839419603
 30
0.0
 11
7660.769855790352
 21
2573.584839419603
 31
0.0
  0
LINE
  5
1A358
330
19EB5
100
AcDbEntity
  8
SUNPOU
100
AcDbLine
 10
7660.769855790352
 20
2699.834839419608
 30
0.0
 11
7660.769855790352
 21
2688.584839419608
 31
0.0
  0
TEXT
  5
1A359
330
19EB5
100
AcDbEntity
  8
SUNPOU
100
AcDbText
 10
7405.76985579035
 20
2918.17055370532
 30
0.0
 40
90.0
  1
560
 50
90.0
 41
0.6666666666666666
  7
00
100
AcDbText
  0
LINE
  5
1A35A
330
19EB5
100
AcDbEntity
  8
SUNPOU
100
AcDbLine
 10
7450.769855790351
 20
2562.334839419603
 30
0.0
 11
7450.769855790351
 21
2573.584839419603
 31
0.0
  0
LINE
  5
1A35B
330
19EB5
100
AcDbEntity
  8
SUNPOU
100
AcDbLine
 10
7450.769855790351
 20
3445.434839419605
 30
0.0
 11
7450.769855790351
 21
3434.184839419605
 31
0.0
  0
TEXT
  5
1A35C
330
19EB5
100
AcDbEntity
  8
SUNPOU
100
AcDbText
 10
12389.21703198605
 20
9360.001074758967
 30
0.0
 40
90.0
  1
300
 50
90.0
 41
0.6666666666666666
  7
00
100
AcDbText
  0
LINE
  5
1A35D
330
19EB5
100
AcDbEntity
  8
SUNPOU
100
AcDbLine
 10
12434.21703198606
 20
9584.465360473251
 30
0.0
 11
12434.21703198606
 21
9573.21536047325
 31
0.0
  0
LINE
  5
1A35E
330
19EB5
100
AcDbEntity
  8
SUNPOU
100
AcDbLine
 10
12434.21703198606
 20
9306.965360473251
 30
0.0
 11
12434.21703198606
 21
9318.215360473251
 31
0.0
  0
TEXT
  5
1A35F
330
19EB5
100
AcDbEntity
  8
SUNPOU
100
AcDbText
 10
12389.21703198605
 20
8277.143931901829
 30
0.0
 40
90.0
  1
1800
 50
90.0
 41
0.6666666666666666
  7
00
100
AcDbText
  0
LINE
  5
1A360
330
19EB5
100
AcDbEntity
  8
SUNPOU
100
AcDbLine
 10
12434.21703198606
 20
9284.46536047325
 30
0.0
 11
12434.21703198606
 21
9273.215360473249
 31
0.0
  0
LINE
  5
1A361
330
19EB5
100
AcDbEntity
  8
SUNPOU
100
AcDbLine
 10
12434.21703198606
 20
7506.965360473255
 30
0.0
 11
12434.21703198606
 21
7518.215360473253
 31
0.0
  0
TEXT
  5
1A362
330
19EB5
100
AcDbEntity
  8
SUNPOU
100
AcDbText
 10
12389.21703198605
 20
6477.143931901827
 30
0.0
 40
90.0
  1
1800
 50
90.0
 41
0.6666666666666666
  7
00
100
AcDbText
  0
LINE
  5
1A363
330
19EB5
100
AcDbEntity
  8
SUNPOU
100
AcDbLine
 10
12434.21703198606
 20
7484.465360473253
 30
0.0
 11
12434.21703198606
 21
7473.215360473253
 31
0.0
  0
LINE
  5
1A364
330
19EB5
100
AcDbEntity
  8
SUNPOU
100
AcDbLine
 10
12434.21703198606
 20
5706.965360473253
 30
0.0
 11
12434.21703198606
 21
5718.215360473253
 31
0.0
  0
TEXT
  5
1A365
330
19EB5
100
AcDbEntity
  8
SUNPOU
100
AcDbText
 10
12389.21703198605
 20
5460.001074758969
 30
0.0
 40
90.0
  1
300
 50
90.0
 41
0.6666666666666666
  7
00
100
AcDbText
  0
LINE
  5
1A366
330
19EB5
100
AcDbEntity
  8
SUNPOU
100
AcDbLine
 10
12434.21703198606
 20
5684.465360473253
 30
0.0
 11
12434.21703198606
 21
5673.215360473253
 31
0.0
  0
LINE
  5
1A367
330
19EB5
100
AcDbEntity
  8
SUNPOU
100
AcDbLine
 10
12434.21703198606
 20
5406.965360473253
 30
0.0
 11
12434.21703198606
 21
5418.215360473253
 31
0.0
  0
TEXT
  5
1A368
330
19EB5
100
AcDbEntity
  8
SUNPOU
100
AcDbText
 10
12599.21703198606
 20
7381.42964618754
 30
0.0
 40
90.0
  1
4200
 50
90.0
 41
0.6666666666666666
  7
00
100
AcDbText
  0
LINE
  5
1A369
330
19EB5
100
AcDbEntity
  8
SUNPOU
100
AcDbLine
 10
12644.21703198606
 20
9584.465360473251
 30
0.0
 11
12644.21703198606
 21
9573.21536047325
 31
0.0
  0
LINE
  5
1A36A
330
19EB5
100
AcDbEntity
  8
SUNPOU
100
AcDbLine
 10
12644.21703198606
 20
5406.965360473253
 30
0.0
 11
12644.21703198606
 21
5418.215360473253
 31
0.0
  0
TEXT
  5
1A36B
330
19EB5
100
AcDbEntity
  8
SUNPOU
100
AcDbText
 10
12228.40680314954
 20
3937.765608013134
 30
0.0
 40
90.0
  1
40
 50
90.0
 41
0.6666666666666666
  7
00
100
AcDbText
  0
LINE
  5
1A36C
330
19EB5
100
AcDbEntity
  8
SUNPOU
100
AcDbLine
 10
12273.40680314955
 20
3875.087036584561
 30
0.0
 11
12273.40680314955
 21
3863.83703658456
 31
0.0
  0
LINE
  5
1A36D
330
19EB5
100
AcDbEntity
  8
SUNPOU
100
AcDbLine
 10
12273.40680314955
 20
3737.587036584561
 30
0.0
 11
12273.40680314955
 21
3748.837036584561
 31
0.0
  0
TEXT
  5
1A36E
330
19EB5
100
AcDbEntity
  8
SUNPOU
100
AcDbText
 10
12228.40680314954
 20
3437.622750870277
 30
0.0
 40
90.0
  1
27
 50
90.0
 41
0.6666666666666666
  7
00
100
AcDbText
  0
LINE
  5
1A36F
330
19EB5
100
AcDbEntity
  8
SUNPOU
100
AcDbLine
 10
12273.40680314955
 20
3607.087036584561
 30
0.0
 11
12273.40680314955
 21
3595.837036584561
 31
0.0
  0
LINE
  5
1A370
330
19EB5
100
AcDbEntity
  8
SUNPOU
100
AcDbLine
 10
12273.40680314955
 20
3737.587036584561
 30
0.0
 11
12273.40680314955
 21
3748.837036584561
 31
0.0
  0
TEXT
  5
1A371
330
19EB5
100
AcDbEntity
  8
SUNPOU
100
AcDbText
 10
11927.76694549065
 20
2290.804976716086
 30
0.0
 40
90.0
  1
20
 41
0.6666666666666666
  7
00
100
AcDbText
  0
LINE
  5
1A372
330
19EB5
100
AcDbEntity
  8
SUNPOU
100
AcDbLine
 10
11872.58837406209
 20
2245.804976716085
 30
0.0
 11
11883.83837406209
 21
2245.804976716085
 31
0.0
  0
LINE
  5
1A373
330
19EB5
100
AcDbEntity
  8
SUNPOU
100
AcDbLine
 10
11770.08837406209
 20
2245.804976716085
 30
0.0
 11
11758.83837406209
 21
2245.804976716085
 31
0.0
  0
TEXT
  5
1A374
330
19EB5
100
AcDbEntity
  8
SUNPOU
100
AcDbText
 10
11451.33837406209
 20
2290.804976716086
 30
0.0
 40
90.0
  1
120
 41
0.6666666666666666
  7
00
100
AcDbText
  0
LINE
  5
1A375
330
19EB5
100
AcDbEntity
  8
SUNPOU
100
AcDbLine
 10
11770.08837406209
 20
2245.804976716085
 30
0.0
 11
11758.83837406209
 21
2245.804976716085
 31
0.0
  0
LINE
  5
1A376
330
19EB5
100
AcDbEntity
  8
SUNPOU
100
AcDbLine
 10
11312.5883740621
 20
2245.804976716085
 30
0.0
 11
11323.8383740621
 21
2245.804976716085
 31
0.0
  0
TEXT
  5
1A377
330
19EB5
100
AcDbEntity
  8
SUNPOU
100
AcDbText
 10
11040.6240883478
 20
2290.804976716086
 30
0.0
 40
90.0
  1
20
 41
0.6666666666666666
  7
00
100
AcDbText
  0
LINE
  5
1A378
330
19EB5
100
AcDbEntity
  8
SUNPOU
100
AcDbLine
 10
11210.08837406209
 20
2245.804976716085
 30
0.0
 11
11198.83837406209
 21
2245.804976716085
 31
0.0
  0
LINE
  5
1A379
330
19EB5
100
AcDbEntity
  8
SUNPOU
100
AcDbLine
 10
11312.5883740621
 20
2245.804976716085
 30
0.0
 11
11323.8383740621
 21
2245.804976716085
 31
0.0
  0
TEXT
  5
1A37A
330
19EB5
100
AcDbEntity
  8
SUNPOU
100
AcDbText
 10
11451.33837406208
 20
2080.804976716085
 30
0.0
 40
90.0
  1
160
 41
0.6666666666666666
  7
00
100
AcDbText
  0
LINE
  5
1A37B
330
19EB5
100
AcDbEntity
  8
SUNPOU
100
AcDbLine
 10
11850.08837406209
 20
2035.804976716086
 30
0.0
 11
11838.83837406209
 21
2035.804976716086
 31
0.0
  0
LINE
  5
1A37C
330
19EB5
100
AcDbEntity
  8
SUNPOU
100
AcDbLine
 10
11232.58837406209
 20
2035.804976716086
 30
0.0
 11
11243.83837406209
 21
2035.804976716086
 31
0.0
  0
TEXT
  5
1A37D
330
19EB5
100
AcDbEntity
  8
SUNPOU
100
AcDbText
 10
10873.33837406209
 20
2374.430058338865
 30
0.0
 40
90.0
  1
40
 50
90.0
 41
0.6666666666666666
  7
00
100
AcDbText
  0
LINE
  5
1A37E
330
19EB5
100
AcDbEntity
  8
SUNPOU
100
AcDbLine
 10
10918.33837406209
 20
2551.394344053149
 30
0.0
 11
10918.33837406209
 21
2562.644344053149
 31
0.0
  0
LINE
  5
1A37F
330
19EB5
100
AcDbEntity
  8
SUNPOU
100
AcDbLine
 10
10918.33837406209
 20
2688.894344053149
 30
0.0
 11
10918.33837406209
 21
2677.644344053149
 31
0.0
  0
TEXT
  5
1A380
330
19EB5
100
AcDbEntity
  8
SUNPOU
100
AcDbText
 10
10873.33837406209
 20
2911.572915481723
 30
0.0
 40
90.0
  1
40
 50
90.0
 41
0.6666666666666666
  7
00
100
AcDbText
  0
LINE
  5
1A381
330
19EB5
100
AcDbEntity
  8
SUNPOU
100
AcDbLine
 10
10918.33837406209
 20
2848.894344053149
 30
0.0
 11
10918.33837406209
 21
2837.644344053149
 31
0.0
  0
LINE
  5
1A382
330
19EB5
100
AcDbEntity
  8
SUNPOU
100
AcDbLine
 10
10918.33837406209
 20
2711.394344053149
 30
0.0
 11
10918.33837406209
 21
2722.644344053149
 31
0.0
  0
TEXT
  5
1A383
330
19EB5
100
AcDbEntity
  8
SUNPOU
100
AcDbText
 10
10663.33837406209
 20
2643.001486910295
 30
0.0
 40
90.0
  1
80
 50
90.0
 41
0.6666666666666666
  7
00
100
AcDbText
  0
LINE
  5
1A384
330
19EB5
100
AcDbEntity
  8
SUNPOU
100
AcDbLine
 10
10708.33837406208
 20
2848.894344053149
 30
0.0
 11
10708.33837406208
 21
2837.644344053149
 31
0.0
  0
LINE
  5
1A385
330
19EB5
100
AcDbEntity
  8
SUNPOU
100
AcDbLine
 10
10708.33837406208
 20
2551.394344053149
 30
0.0
 11
10708.33837406208
 21
2562.644344053149
 31
0.0
  0
TEXT
  5
1A386
330
19EB5
100
AcDbEntity
  8
SUNPOU
100
AcDbText
 10
11927.76694549065
 20
3439.170862655058
 30
0.0
 40
90.0
  1
20
 41
0.6666666666666666
  7
00
100
AcDbText
  0
LINE
  5
1A387
330
19EB5
100
AcDbEntity
  8
SUNPOU
100
AcDbLine
 10
11872.58837406209
 20
3394.170862655057
 30
0.0
 11
11883.83837406209
 21
3394.170862655057
 31
0.0
  0
LINE
  5
1A388
330
19EB5
100
AcDbEntity
  8
SUNPOU
100
AcDbLine
 10
11770.08837406209
 20
3394.170862655057
 30
0.0
 11
11758.83837406209
 21
3394.170862655057
 31
0.0
  0
TEXT
  5
1A389
330
19EB5
100
AcDbEntity
  8
SUNPOU
100
AcDbText
 10
11451.33837406209
 20
3439.170862655058
 30
0.0
 40
90.0
  1
120
 41
0.6666666666666666
  7
00
100
AcDbText
  0
LINE
  5
1A38A
330
19EB5
100
AcDbEntity
  8
SUNPOU
100
AcDbLine
 10
11770.08837406209
 20
3394.170862655057
 30
0.0
 11
11758.83837406209
 21
3394.170862655057
 31
0.0
  0
LINE
  5
1A38B
330
19EB5
100
AcDbEntity
  8
SUNPOU
100
AcDbLine
 10
11312.5883740621
 20
3394.170862655057
 30
0.0
 11
11323.8383740621
 21
3394.170862655057
 31
0.0
  0
TEXT
  5
1A38C
330
19EB5
100
AcDbEntity
  8
SUNPOU
100
AcDbText
 10
11040.6240883478
 20
3439.170862655058
 30
0.0
 40
90.0
  1
20
 41
0.6666666666666666
  7
00
100
AcDbText
  0
LINE
  5
1A38D
330
19EB5
100
AcDbEntity
  8
SUNPOU
100
AcDbLine
 10
11210.08837406209
 20
3394.170862655057
 30
0.0
 11
11198.83837406209
 21
3394.170862655057
 31
0.0
  0
LINE
  5
1A38E
330
19EB5
100
AcDbEntity
  8
SUNPOU
100
AcDbLine
 10
11312.5883740621
 20
3394.170862655057
 30
0.0
 11
11323.8383740621
 21
3394.170862655057
 31
0.0
  0
TEXT
  5
1A38F
330
19EB5
100
AcDbEntity
  8
SUNPOU
100
AcDbText
 10
11451.33837406208
 20
3229.170862655058
 30
0.0
 40
90.0
  1
160
 41
0.6666666666666666
  7
00
100
AcDbText
  0
LINE
  5
1A390
330
19EB5
100
AcDbEntity
  8
SUNPOU
100
AcDbLine
 10
11850.08837406209
 20
3184.170862655058
 30
0.0
 11
11838.83837406209
 21
3184.170862655058
 31
0.0
  0
LINE
  5
1A391
330
19EB5
100
AcDbEntity
  8
SUNPOU
100
AcDbLine
 10
11232.58837406209
 20
3184.170862655058
 30
0.0
 11
11243.83837406209
 21
3184.170862655058
 31
0.0
  0
TEXT
  5
1A392
330
19EB5
100
AcDbEntity
  8
SUNPOU
100
AcDbText
 10
4712.654194124605
 20
2193.684839419601
 30
0.0
 40
90.0
  1
600
 41
0.6666666666666666
  7
00
100
AcDbText
  0
LINE
  5
1A393
330
19EB5
100
AcDbEntity
  8
SUNPOU
100
AcDbLine
 10
5268.547051267464
 20
2148.684839419601
 30
0.0
 11
5257.297051267464
 21
2148.684839419601
 31
0.0
  0
LINE
  5
1A394
330
19EB5
100
AcDbEntity
  8
SUNPOU
100
AcDbLine
 10
4331.047051267463
 20
2148.684839419601
 30
0.0
 11
4342.297051267464
 21
2148.684839419601
 31
0.0
  0
TEXT
  5
1A395
330
19EB5
100
AcDbEntity
  8
SUNPOU
100
AcDbText
 10
4714.082765553176
 20
1983.6848394196
 30
0.0
 40
90.0
  1
800
 41
0.6666666666666666
  7
00
100
AcDbText
  0
LINE
  5
1A396
330
19EB5
100
AcDbEntity
  8
SUNPOU
100
AcDbLine
 10
5428.547051267462
 20
1938.6848394196
 30
0.0
 11
5417.297051267462
 21
1938.6848394196
 31
0.0
  0
LINE
  5
1A397
330
19EB5
100
AcDbEntity
  8
SUNPOU
100
AcDbLine
 10
4171.047051267462
 20
1938.6848394196
 30
0.0
 11
4182.297051267462
 21
1938.6848394196
 31
0.0
  0
TEXT
  5
1A398
330
19EB5
100
AcDbEntity
  8
SUNPOU
100
AcDbText
 10
3415.443655266705
 20
3523.113410848177
 30
0.0
 40
90.0
  1
50
 50
90.0
 41
0.6666666666666666
  7
00
100
AcDbText
  0
LINE
  5
1A399
330
19EB5
100
AcDbEntity
  8
SUNPOU
100
AcDbLine
 10
3460.443655266704
 20
3467.934839419605
 30
0.0
 11
3460.443655266704
 21
3479.184839419605
 31
0.0
  0
LINE
  5
1A39A
330
19EB5
100
AcDbEntity
  8
SUNPOU
100
AcDbLine
 10
3460.443655266704
 20
3365.434839419604
 30
0.0
 11
3460.443655266704
 21
3354.184839419604
 31
0.0
  0
TEXT
  5
1A39B
330
19EB5
100
AcDbEntity
  8
SUNPOU
100
AcDbText
 10
3835.443655266707
 20
3197.941982276741
 30
0.0
 40
90.0
  1
80
 50
90.0
 41
0.6666666666666666
  7
00
100
AcDbText
  0
LINE
  5
1A39C
330
19EB5
100
AcDbEntity
  8
SUNPOU
100
AcDbLine
 10
3880.443655266708
 20
3202.334839419596
 30
0.0
 11
3880.443655266708
 21
3213.584839419597
 31
0.0
  0
LINE
  5
1A39D
330
19EB5
100
AcDbEntity
  8
SUNPOU
100
AcDbLine
 10
3880.443655266708
 20
3307.834839419601
 30
0.0
 11
3880.443655266708
 21
3296.584839419601
 31
0.0
  0
TEXT
  5
1A39E
330
19EB5
100
AcDbEntity
  8
SUNPOU
100
AcDbText
 10
3835.443655266704
 20
3508.113410848177
 30
0.0
 40
90.0
  1
80
 50
90.0
 41
0.6666666666666666
  7
00
100
AcDbText
  0
LINE
  5
1A39F
330
19EB5
100
AcDbEntity
  8
SUNPOU
100
AcDbLine
 10
3880.443655266704
 20
3445.434839419605
 30
0.0
 11
3880.443655266704
 21
3434.184839419605
 31
0.0
  0
LINE
  5
1A3A0
330
19EB5
100
AcDbEntity
  8
SUNPOU
100
AcDbLine
 10
3880.443655266704
 20
3330.334839419603
 30
0.0
 11
3880.443655266704
 21
3341.584839419603
 31
0.0
  0
TEXT
  5
1A3A1
330
19EB5
100
AcDbEntity
  8
SUNPOU
100
AcDbText
 10
3835.443655266704
 20
2865.370553705316
 30
0.0
 40
90.0
  1
300
 50
90.0
 41
0.6666666666666666
  7
00
100
AcDbText
  0
LINE
  5
1A3A2
330
19EB5
100
AcDbEntity
  8
SUNPOU
100
AcDbLine
 10
3880.443655266704
 20
3179.834839419598
 30
0.0
 11
3880.443655266704
 21
3168.584839419598
 31
0.0
  0
LINE
  5
1A3A3
330
19EB5
100
AcDbEntity
  8
SUNPOU
100
AcDbLine
 10
3880.443655266704
 20
2722.334839419605
 30
0.0
 11
3880.443655266704
 21
2733.584839419604
 31
0.0
  0
TEXT
  5
1A3A4
330
19EB5
100
AcDbEntity
  8
SUNPOU
100
AcDbText
 10
3835.443655266704
 20
2328.227696562461
 30
0.0
 40
90.0
  1
100
 50
90.0
 41
0.6666666666666666
  7
00
100
AcDbText
  0
LINE
  5
1A3A5
330
19EB5
100
AcDbEntity
  8
SUNPOU
100
AcDbLine
 10
3880.443655266704
 20
2562.334839419605
 30
0.0
 11
3880.443655266704
 21
2573.584839419605
 31
0.0
  0
LINE
  5
1A3A6
330
19EB5
100
AcDbEntity
  8
SUNPOU
100
AcDbLine
 10
3880.443655266704
 20
2699.834839419605
 30
0.0
 11
3880.443655266704
 21
2688.584839419605
 31
0.0
  0
TEXT
  5
1A3A7
330
19EB5
100
AcDbEntity
  8
SUNPOU
100
AcDbText
 10
3625.443655266705
 20
2918.17055370532
 30
0.0
 40
90.0
  1
560
 50
90.0
 41
0.6666666666666666
  7
00
100
AcDbText
  0
LINE
  5
1A3A8
330
19EB5
100
AcDbEntity
  8
SUNPOU
100
AcDbLine
 10
3670.443655266705
 20
2562.334839419605
 30
0.0
 11
3670.443655266705
 21
2573.584839419605
 31
0.0
  0
LINE
  5
1A3A9
330
19EB5
100
AcDbEntity
  8
SUNPOU
100
AcDbLine
 10
3670.443655266705
 20
3445.434839419605
 30
0.0
 11
3670.443655266705
 21
3434.184839419605
 31
0.0
  0
TEXT
  5
1A3AA
330
19EB5
100
AcDbEntity
  8
SUNPOU
100
AcDbText
 10
4474.082765553179
 20
4175.485411556191
 30
0.0
 40
90.0
  1
300
 41
0.6666666666666666
  7
00
100
AcDbText
  0
LINE
  5
1A3AB
330
19EB5
100
AcDbEntity
  8
SUNPOU
100
AcDbLine
 10
4331.047051267463
 20
4130.485411556192
 30
0.0
 11
4342.297051267464
 21
4130.485411556192
 31
0.0
  0
LINE
  5
1A3AC
330
19EB5
100
AcDbEntity
  8
SUNPOU
100
AcDbLine
 10
4788.547051267463
 20
4130.485411556192
 30
0.0
 11
4777.297051267463
 21
4130.485411556192
 31
0.0
  0
TEXT
  5
1A3AD
330
19EB5
100
AcDbEntity
  8
SUNPOU
100
AcDbText
 10
9389.21703198606
 20
5608.572503330398
 30
0.0
 40
90.0
  1
600
 50
90.0
 41
0.6666666666666666
  7
00
100
AcDbText
  0
LINE
  5
1A3AE
330
19EB5
100
AcDbEntity
  8
SUNPOU
100
AcDbLine
 10
9434.21703198606
 20
5406.965360473254
 30
0.0
 11
9434.21703198606
 21
5418.215360473254
 31
0.0
  0
LINE
  5
1A3AF
330
19EB5
100
AcDbEntity
  8
SUNPOU
100
AcDbLine
 10
9434.21703198606
 20
5984.465360473254
 30
0.0
 11
9434.21703198606
 21
5973.215360473255
 31
0.0
  0
ARC
  5
1A3B0
330
19EB5
100
AcDbEntity
  8
SUNPOU
100
AcDbCircle
 10
7534.217031986059
 20
9995.715360473253
 30
0.0
 40
5.625
100
AcDbArc
 50
0.0
 51
180.0
  0
ARC
  5
1A3B1
330
19EB5
100
AcDbEntity
  8
SUNPOU
100
AcDbCircle
 10
7534.217031986059
 20
9995.715360473253
 30
0.0
 40
5.625
100
AcDbArc
 50
180.0
 51
0.0
  0
ARC
  5
1A3B2
330
19EB5
100
AcDbEntity
  8
SUNPOU
100
AcDbCircle
 10
8834.21703198606
 20
9995.715360473253
 30
0.0
 40
5.625
100
AcDbArc
 50
180.0
 51
0.0
  0
ARC
  5
1A3B3
330
19EB5
100
AcDbEntity
  8
SUNPOU
100
AcDbCircle
 10
8834.21703198606
 20
9995.715360473253
 30
0.0
 40
5.625
100
AcDbArc
 50
0.0
 51
180.0
  0
TEXT
  5
1A3B4
330
19EB5
100
AcDbEntity
  8
SUNPOU
100
AcDbText
 10
7720.502746271773
 20
10250.71536047325
 30
0.0
 40
90.0
  1
L = 2800 x N + 800
 41
0.6666666666666666
  7
00
100
AcDbText
  0
LINE
  5
1A3B5
330
19EB5
100
AcDbEntity
  8
SUNPOU
100
AcDbLine
 10
12022.96703198606
 20
10205.71536047325
 30
0.0
 11
12011.71703198606
 21
10205.71536047325
 31
0.0
  0
LINE
  5
1A3B6
330
19EB5
100
AcDbEntity
  8
SUNPOU
100
AcDbLine
 10
4345.46703198606
 20
10205.71536047325
 30
0.0
 11
4356.71703198606
 21
10205.71536047325
 31
0.0
  0
TEXT
  5
1A3B7
330
19EB5
100
AcDbEntity
  8
SUNPOU
100
AcDbText
 10
6019.931317700345
 20
10040.71536047325
 30
0.0
 40
90.0
  1
2800
 41
0.6666666666666666
  7
00
100
AcDbText
  0
LINE
  5
1A3B8
330
19EB5
100
AcDbEntity
  8
SUNPOU
100
AcDbLine
 10
4745.467031986058
 20
9995.715360473253
 30
0.0
 11
4756.71703198606
 21
9995.715360473253
 31
0.0
  0
LINE
  5
1A3B9
330
19EB5
100
AcDbEntity
  8
SUNPOU
100
AcDbLine
 10
7522.96703198606
 20
9995.715360473253
 30
0.0
 11
7511.71703198606
 21
9995.715360473253
 31
0.0
  0
TEXT
  5
1A3BA
330
19EB5
100
AcDbEntity
  8
SUNPOU
100
AcDbText
 10
10119.93131770034
 20
10040.71536047325
 30
0.0
 40
90.0
  1
2800
 41
0.6666666666666666
  7
00
100
AcDbText
  0
LINE
  5
1A3BB
330
19EB5
100
AcDbEntity
  8
SUNPOU
100
AcDbLine
 10
8845.467031986059
 20
9995.715360473253
 30
0.0
 11
8856.717031986059
 21
9995.715360473253
 31
0.0
  0
LINE
  5
1A3BC
330
19EB5
100
AcDbEntity
  8
SUNPOU
100
AcDbLine
 10
11622.96703198606
 20
9995.715360473253
 30
0.0
 11
11611.71703198605
 21
9995.715360473253
 31
0.0
  0
TEXT
  5
1A3BD
330
19EB5
100
AcDbEntity
  8
SUNPOU
100
AcDbText
 10
4448.502746271774
 20
10040.71536047325
 30
0.0
 40
90.0
  1
400
 41
0.6666666666666666
  7
00
100
AcDbText
  0
LINE
  5
1A3BE
330
19EB5
100
AcDbEntity
  8
SUNPOU
100
AcDbLine
 10
4345.46703198606
 20
9995.715360473253
 30
0.0
 11
4356.71703198606
 21
9995.715360473253
 31
0.0
  0
LINE
  5
1A3BF
330
19EB5
100
AcDbEntity
  8
SUNPOU
100
AcDbLine
 10
4722.967031986057
 20
9995.715360473253
 30
0.0
 11
4711.71703198606
 21
9995.715360473253
 31
0.0
  0
TEXT
  5
1A3C0
330
19EB5
100
AcDbEntity
  8
SUNPOU
100
AcDbText
 10
11748.50274627176
 20
10040.71536047325
 30
0.0
 40
90.0
  1
400
 41
0.6666666666666666
  7
00
100
AcDbText
  0
LINE
  5
1A3C1
330
19EB5
100
AcDbEntity
  8
SUNPOU
100
AcDbLine
 10
12022.96703198606
 20
9995.715360473253
 30
0.0
 11
12011.71703198606
 21
9995.715360473253
 31
0.0
  0
LINE
  5
1A3C2
330
19EB5
100
AcDbEntity
  8
SUNPOU
100
AcDbLine
 10
11645.46703198606
 20
9995.715360473253
 30
0.0
 11
11656.71703198606
 21
9995.715360473253
 31
0.0
  0
TEXT
  5
1A3C3
330
19EB5
100
AcDbEntity
  8
SUNPOU
100
AcDbText
 10
6889.21703198606
 20
9208.572503330399
 30
0.0
 40
90.0
  1
600
 50
90.0
 41
0.6666666666666666
  7
00
100
AcDbText
  0
LINE
  5
1A3C4
330
19EB5
100
AcDbEntity
  8
SUNPOU
100
AcDbLine
 10
6934.21703198606
 20
9006.96536047325
 30
0.0
 11
6934.21703198606
 21
9018.215360473252
 31
0.0
  0
LINE
  5
1A3C5
330
19EB5
100
AcDbEntity
  8
SUNPOU
100
AcDbLine
 10
6934.21703198606
 20
9584.465360473252
 30
0.0
 11
6934.21703198606
 21
9573.215360473252
 31
0.0
  0
TEXT
  5
1A3C6
330
19EB5
100
AcDbEntity
  8
SUNPOU
100
AcDbText
 10
7447.074174843203
 20
8740.715360473251
 30
0.0
 40
90.0
  1
600
 41
0.6666666666666666
  7
00
100
AcDbText
  0
LINE
  5
1A3C7
330
19EB5
100
AcDbEntity
  8
SUNPOU
100
AcDbLine
 10
7822.96703198606
 20
8695.715360473251
 30
0.0
 11
7811.71703198606
 21
8695.715360473251
 31
0.0
  0
LINE
  5
1A3C8
330
19EB5
100
AcDbEntity
  8
SUNPOU
100
AcDbLine
 10
7245.467031986058
 20
8695.715360473251
 30
0.0
 11
7256.71703198606
 21
8695.715360473251
 31
0.0
  0
TEXT
  5
1A3C9
330
19EB5
100
AcDbEntity
  8
SUNPOU
100
AcDbText
 10
8747.074174843204
 20
6290.715360473253
 30
0.0
 40
90.0
  1
600
 41
0.6666666666666666
  7
00
100
AcDbText
  0
LINE
  5
1A3CA
330
19EB5
100
AcDbEntity
  8
SUNPOU
100
AcDbLine
 10
9122.96703198606
 20
6245.715360473253
 30
0.0
 11
9111.71703198606
 21
6245.715360473253
 31
0.0
  0
LINE
  5
1A3CB
330
19EB5
100
AcDbEntity
  8
SUNPOU
100
AcDbLine
 10
8545.46703198606
 20
6245.715360473253
 30
0.0
 11
8556.717031986059
 21
6245.715360473253
 31
0.0
  0
TEXT
  5
1A3CC
330
19EB5
100
AcDbEntity
  8
SUNPOU
100
AcDbText
 10
8748.502746271773
 20
8110.715360473252
 30
0.0
 40
90.0
  1
800
 41
0.6666666666666666
  7
00
100
AcDbText
  0
LINE
  5
1A3CD
330
19EB5
100
AcDbEntity
  8
SUNPOU
100
AcDbLine
 10
9222.96703198606
 20
8065.715360473253
 30
0.0
 11
9211.71703198606
 21
8065.715360473253
 31
0.0
  0
LINE
  5
1A3CE
330
19EB5
100
AcDbEntity
  8
SUNPOU
100
AcDbLine
 10
8445.46703198606
 20
8065.715360473253
 30
0.0
 11
8456.717031986059
 21
8065.715360473253
 31
0.0
  0
TEXT
  5
1A3CF
330
19EB5
100
AcDbEntity
  8
SUNPOU
100
AcDbText
 10
9489.217031986058
 20
7410.001074758966
 30
0.0
 40
90.0
  1
800
 50
90.0
 41
0.6666666666666666
  7
00
100
AcDbText
  0
LINE
  5
1A3D0
330
19EB5
100
AcDbEntity
  8
SUNPOU
100
AcDbLine
 10
9534.217031986059
 20
7106.965360473252
 30
0.0
 11
9534.217031986059
 21
7118.215360473252
 31
0.0
  0
LINE
  5
1A3D1
330
19EB5
100
AcDbEntity
  8
SUNPOU
100
AcDbLine
 10
9534.217031986059
 20
7884.465360473253
 30
0.0
 11
9534.217031986059
 21
7873.215360473252
 31
0.0
  0
ARC
  5
1A3D2
330
19EB5
100
AcDbEntity
  8
SUNPOU
100
AcDbCircle
 10
9220.123251791108
 20
2148.684839419604
 30
0.0
 40
5.625
100
AcDbArc
 50
180.0
 51
0.0
  0
ARC
  5
1A3D3
330
19EB5
100
AcDbEntity
  8
SUNPOU
100
AcDbCircle
 10
9220.123251791108
 20
2148.684839419604
 30
0.0
 40
5.625
100
AcDbArc
 50
0.0
 51
180.0
  0
ARC
  5
1A3D4
330
19EB5
100
AcDbEntity
  8
SUNPOU
100
AcDbCircle
 10
7940.12325179111
 20
2148.684839419604
 30
0.0
 40
5.625
100
AcDbArc
 50
0.0
 51
180.0
  0
ARC
  5
1A3D5
330
19EB5
100
AcDbEntity
  8
SUNPOU
100
AcDbCircle
 10
7940.12325179111
 20
2148.684839419604
 30
0.0
 40
5.625
100
AcDbArc
 50
180.0
 51
0.0
  0
ARC
  5
1A3D6
330
19EB5
100
AcDbEntity
  8
SUNPOU
100
AcDbCircle
 10
9380.123251791109
 20
1938.684839419604
 30
0.0
 40
5.625
100
AcDbArc
 50
180.0
 51
0.0
  0
ARC
  5
1A3D7
330
19EB5
100
AcDbEntity
  8
SUNPOU
100
AcDbCircle
 10
9380.123251791109
 20
1938.684839419604
 30
0.0
 40
5.625
100
AcDbArc
 50
0.0
 51
180.0
  0
ARC
  5
1A3D8
330
19EB5
100
AcDbEntity
  8
SUNPOU
100
AcDbCircle
 10
7780.123251791109
 20
1938.684839419604
 30
0.0
 40
5.625
100
AcDbArc
 50
0.0
 51
180.0
  0
ARC
  5
1A3D9
330
19EB5
100
AcDbEntity
  8
SUNPOU
100
AcDbCircle
 10
7780.123251791109
 20
1938.684839419604
 30
0.0
 40
5.625
100
AcDbArc
 50
180.0
 51
0.0
  0
ARC
  5
1A3DA
330
19EB5
100
AcDbEntity
  8
SUNPOU
100
AcDbCircle
 10
7660.769855790352
 20
3191.0848394196
 30
0.0
 40
5.625
100
AcDbArc
 50
90.0
 51
270.0
  0
ARC
  5
1A3DB
330
19EB5
100
AcDbEntity
  8
SUNPOU
100
AcDbCircle
 10
7660.769855790352
 20
3191.0848394196
 30
0.0
 40
5.625
100
AcDbArc
 50
270.0
 51
90.0
  0
ARC
  5
1A3DC
330
19EB5
100
AcDbEntity
  8
SUNPOU
100
AcDbCircle
 10
7660.769855790352
 20
3319.084839419605
 30
0.0
 40
5.625
100
AcDbArc
 50
270.0
 51
90.0
  0
ARC
  5
1A3DD
330
19EB5
100
AcDbEntity
  8
SUNPOU
100
AcDbCircle
 10
7660.769855790352
 20
3319.084839419605
 30
0.0
 40
5.625
100
AcDbArc
 50
90.0
 51
270.0
  0
ARC
  5
1A3DE
330
19EB5
100
AcDbEntity
  8
SUNPOU
100
AcDbCircle
 10
7660.769855790352
 20
3456.684839419605
 30
0.0
 40
5.625
100
AcDbArc
 50
270.0
 51
90.0
  0
ARC
  5
1A3DF
330
19EB5
100
AcDbEntity
  8
SUNPOU
100
AcDbCircle
 10
7660.769855790352
 20
3456.684839419605
 30
0.0
 40
5.625
100
AcDbArc
 50
90.0
 51
270.0
  0
ARC
  5
1A3E0
330
19EB5
100
AcDbEntity
  8
SUNPOU
100
AcDbCircle
 10
7660.769855790352
 20
3319.084839419603
 30
0.0
 40
5.625
100
AcDbArc
 50
90.0
 51
270.0
  0
ARC
  5
1A3E1
330
19EB5
100
AcDbEntity
  8
SUNPOU
100
AcDbCircle
 10
7660.769855790352
 20
3319.084839419603
 30
0.0
 40
5.625
100
AcDbArc
 50
270.0
 51
90.0
  0
ARC
  5
1A3E2
330
19EB5
100
AcDbEntity
  8
SUNPOU
100
AcDbCircle
 10
7660.769855790352
 20
3191.0848394196
 30
0.0
 40
5.625
100
AcDbArc
 50
270.0
 51
90.0
  0
ARC
  5
1A3E3
330
19EB5
100
AcDbEntity
  8
SUNPOU
100
AcDbCircle
 10
7660.769855790352
 20
3191.0848394196
 30
0.0
 40
5.625
100
AcDbArc
 50
90.0
 51
270.0
  0
ARC
  5
1A3E4
330
19EB5
100
AcDbEntity
  8
SUNPOU
100
AcDbCircle
 10
7660.769855790352
 20
2711.084839419607
 30
0.0
 40
5.625
100
AcDbArc
 50
90.0
 51
270.0
  0
ARC
  5
1A3E5
330
19EB5
100
AcDbEntity
  8
SUNPOU
100
AcDbCircle
 10
7660.769855790352
 20
2711.084839419607
 30
0.0
 40
5.625
100
AcDbArc
 50
270.0
 51
90.0
  0
ARC
  5
1A3E6
330
19EB5
100
AcDbEntity
  8
SUNPOU
100
AcDbCircle
 10
7660.769855790352
 20
2551.084839419603
 30
0.0
 40
5.625
100
AcDbArc
 50
90.0
 51
270.0
  0
ARC
  5
1A3E7
330
19EB5
100
AcDbEntity
  8
SUNPOU
100
AcDbCircle
 10
7660.769855790352
 20
2551.084839419603
 30
0.0
 40
5.625
100
AcDbArc
 50
270.0
 51
90.0
  0
ARC
  5
1A3E8
330
19EB5
100
AcDbEntity
  8
SUNPOU
100
AcDbCircle
 10
7660.769855790352
 20
2711.084839419607
 30
0.0
 40
5.625
100
AcDbArc
 50
270.0
 51
90.0
  0
ARC
  5
1A3E9
330
19EB5
100
AcDbEntity
  8
SUNPOU
100
AcDbCircle
 10
7660.769855790352
 20
2711.084839419607
 30
0.0
 40
5.625
100
AcDbArc
 50
90.0
 51
270.0
  0
ARC
  5
1A3EA
330
19EB5
100
AcDbEntity
  8
SUNPOU
100
AcDbCircle
 10
7450.769855790351
 20
2551.084839419603
 30
0.0
 40
5.625
100
AcDbArc
 50
90.0
 51
270.0
  0
ARC
  5
1A3EB
330
19EB5
100
AcDbEntity
  8
SUNPOU
100
AcDbCircle
 10
7450.769855790351
 20
2551.084839419603
 30
0.0
 40
5.625
100
AcDbArc
 50
270.0
 51
90.0
  0
ARC
  5
1A3EC
330
19EB5
100
AcDbEntity
  8
SUNPOU
100
AcDbCircle
 10
7450.769855790351
 20
3456.684839419605
 30
0.0
 40
5.625
100
AcDbArc
 50
270.0
 51
90.0
  0
ARC
  5
1A3ED
330
19EB5
100
AcDbEntity
  8
SUNPOU
100
AcDbCircle
 10
7450.769855790351
 20
3456.684839419605
 30
0.0
 40
5.625
100
AcDbArc
 50
90.0
 51
270.0
  0
ARC
  5
1A3EE
330
19EB5
100
AcDbEntity
  8
SUNPOU
100
AcDbCircle
 10
12434.21703198606
 20
9595.715360473251
 30
0.0
 40
5.625
100
AcDbArc
 50
270.0
 51
90.0
  0
ARC
  5
1A3EF
330
19EB5
100
AcDbEntity
  8
SUNPOU
100
AcDbCircle
 10
12434.21703198606
 20
9595.715360473251
 30
0.0
 40
5.625
100
AcDbArc
 50
90.0
 51
270.0
  0
ARC
  5
1A3F0
330
19EB5
100
AcDbEntity
  8
SUNPOU
100
AcDbCircle
 10
12434.21703198606
 20
9295.71536047325
 30
0.0
 40
5.625
100
AcDbArc
 50
90.0
 51
270.0
  0
ARC
  5
1A3F1
330
19EB5
100
AcDbEntity
  8
SUNPOU
100
AcDbCircle
 10
12434.21703198606
 20
9295.71536047325
 30
0.0
 40
5.625
100
AcDbArc
 50
270.0
 51
90.0
  0
ARC
  5
1A3F2
330
19EB5
100
AcDbEntity
  8
SUNPOU
100
AcDbCircle
 10
12434.21703198606
 20
9295.71536047325
 30
0.0
 40
5.625
100
AcDbArc
 50
270.0
 51
90.0
  0
ARC
  5
1A3F3
330
19EB5
100
AcDbEntity
  8
SUNPOU
100
AcDbCircle
 10
12434.21703198606
 20
9295.71536047325
 30
0.0
 40
5.625
100
AcDbArc
 50
90.0
 51
270.0
  0
ARC
  5
1A3F4
330
19EB5
100
AcDbEntity
  8
SUNPOU
100
AcDbCircle
 10
12434.21703198606
 20
7495.715360473251
 30
0.0
 40
5.625
100
AcDbArc
 50
90.0
 51
270.0
  0
ARC
  5
1A3F5
330
19EB5
100
AcDbEntity
  8
SUNPOU
100
AcDbCircle
 10
12434.21703198606
 20
7495.715360473251
 30
0.0
 40
5.625
100
AcDbArc
 50
270.0
 51
90.0
  0
ARC
  5
1A3F6
330
19EB5
100
AcDbEntity
  8
SUNPOU
100
AcDbCircle
 10
12434.21703198606
 20
7495.715360473251
 30
0.0
 40
5.625
100
AcDbArc
 50
270.0
 51
90.0
  0
ARC
  5
1A3F7
330
19EB5
100
AcDbEntity
  8
SUNPOU
100
AcDbCircle
 10
12434.21703198606
 20
7495.715360473251
 30
0.0
 40
5.625
100
AcDbArc
 50
90.0
 51
270.0
  0
ARC
  5
1A3F8
330
19EB5
100
AcDbEntity
  8
SUNPOU
100
AcDbCircle
 10
12434.21703198606
 20
5695.715360473253
 30
0.0
 40
5.625
100
AcDbArc
 50
90.0
 51
270.0
  0
ARC
  5
1A3F9
330
19EB5
100
AcDbEntity
  8
SUNPOU
100
AcDbCircle
 10
12434.21703198606
 20
5695.715360473253
 30
0.0
 40
5.625
100
AcDbArc
 50
270.0
 51
90.0
  0
ARC
  5
1A3FA
330
19EB5
100
AcDbEntity
  8
SUNPOU
100
AcDbCircle
 10
12434.21703198606
 20
5695.715360473253
 30
0.0
 40
5.625
100
AcDbArc
 50
270.0
 51
90.0
  0
ARC
  5
1A3FB
330
19EB5
100
AcDbEntity
  8
SUNPOU
100
AcDbCircle
 10
12434.21703198606
 20
5695.715360473253
 30
0.0
 40
5.625
100
AcDbArc
 50
90.0
 51
270.0
  0
ARC
  5
1A3FC
330
19EB5
100
AcDbEntity
  8
SUNPOU
100
AcDbCircle
 10
12434.21703198606
 20
5395.715360473253
 30
0.0
 40
5.625
100
AcDbArc
 50
90.0
 51
270.0
  0
ARC
  5
1A3FD
330
19EB5
100
AcDbEntity
  8
SUNPOU
100
AcDbCircle
 10
12434.21703198606
 20
5395.715360473253
 30
0.0
 40
5.625
100
AcDbArc
 50
270.0
 51
90.0
  0
ARC
  5
1A3FE
330
19EB5
100
AcDbEntity
  8
SUNPOU
100
AcDbCircle
 10
12644.21703198606
 20
9595.715360473251
 30
0.0
 40
5.625
100
AcDbArc
 50
270.0
 51
90.0
  0
ARC
  5
1A3FF
330
19EB5
100
AcDbEntity
  8
SUNPOU
100
AcDbCircle
 10
12644.21703198606
 20
9595.715360473251
 30
0.0
 40
5.625
100
AcDbArc
 50
90.0
 51
270.0
  0
ARC
  5
1A400
330
19EB5
100
AcDbEntity
  8
SUNPOU
100
AcDbCircle
 10
12644.21703198606
 20
5395.715360473253
 30
0.0
 40
5.625
100
AcDbArc
 50
90.0
 51
270.0
  0
ARC
  5
1A401
330
19EB5
100
AcDbEntity
  8
SUNPOU
100
AcDbCircle
 10
12644.21703198606
 20
5395.715360473253
 30
0.0
 40
5.625
100
AcDbArc
 50
270.0
 51
90.0
  0
ARC
  5
1A402
330
19EB5
100
AcDbEntity
  8
SUNPOU
100
AcDbCircle
 10
12273.40680314955
 20
3886.33703658456
 30
0.0
 40
5.625
100
AcDbArc
 50
270.0
 51
90.0
  0
ARC
  5
1A403
330
19EB5
100
AcDbEntity
  8
SUNPOU
100
AcDbCircle
 10
12273.40680314955
 20
3886.33703658456
 30
0.0
 40
5.625
100
AcDbArc
 50
90.0
 51
270.0
  0
ARC
  5
1A404
330
19EB5
100
AcDbEntity
  8
SUNPOU
100
AcDbCircle
 10
12273.40680314955
 20
3726.33703658456
 30
0.0
 40
5.625
100
AcDbArc
 50
90.0
 51
270.0
  0
ARC
  5
1A405
330
19EB5
100
AcDbEntity
  8
SUNPOU
100
AcDbCircle
 10
12273.40680314955
 20
3726.33703658456
 30
0.0
 40
5.625
100
AcDbArc
 50
270.0
 51
90.0
  0
ARC
  5
1A406
330
19EB5
100
AcDbEntity
  8
SUNPOU
100
AcDbCircle
 10
12273.40680314955
 20
3618.337036584561
 30
0.0
 40
5.625
100
AcDbArc
 50
270.0
 51
90.0
  0
ARC
  5
1A407
330
19EB5
100
AcDbEntity
  8
SUNPOU
100
AcDbCircle
 10
12273.40680314955
 20
3618.337036584561
 30
0.0
 40
5.625
100
AcDbArc
 50
90.0
 51
270.0
  0
ARC
  5
1A408
330
19EB5
100
AcDbEntity
  8
SUNPOU
100
AcDbCircle
 10
12273.40680314955
 20
3726.33703658456
 30
0.0
 40
5.625
100
AcDbArc
 50
90.0
 51
270.0
  0
ARC
  5
1A409
330
19EB5
100
AcDbEntity
  8
SUNPOU
100
AcDbCircle
 10
12273.40680314955
 20
3726.33703658456
 30
0.0
 40
5.625
100
AcDbArc
 50
270.0
 51
90.0
  0
ARC
  5
1A40A
330
19EB5
100
AcDbEntity
  8
SUNPOU
100
AcDbCircle
 10
11861.33837406209
 20
2245.804976716085
 30
0.0
 40
5.625
100
AcDbArc
 50
0.0
 51
180.0
  0
ARC
  5
1A40B
330
19EB5
100
AcDbEntity
  8
SUNPOU
100
AcDbCircle
 10
11861.33837406209
 20
2245.804976716085
 30
0.0
 40
5.625
100
AcDbArc
 50
180.0
 51
0.0
  0
ARC
  5
1A40C
330
19EB5
100
AcDbEntity
  8
SUNPOU
100
AcDbCircle
 10
11781.33837406209
 20
2245.804976716085
 30
0.0
 40
5.625
100
AcDbArc
 50
180.0
 51
0.0
  0
ARC
  5
1A40D
330
19EB5
100
AcDbEntity
  8
SUNPOU
100
AcDbCircle
 10
11781.33837406209
 20
2245.804976716085
 30
0.0
 40
5.625
100
AcDbArc
 50
0.0
 51
180.0
  0
ARC
  5
1A40E
330
19EB5
100
AcDbEntity
  8
SUNPOU
100
AcDbCircle
 10
11781.33837406209
 20
2245.804976716085
 30
0.0
 40
5.625
100
AcDbArc
 50
180.0
 51
0.0
  0
ARC
  5
1A40F
330
19EB5
100
AcDbEntity
  8
SUNPOU
100
AcDbCircle
 10
11781.33837406209
 20
2245.804976716085
 30
0.0
 40
5.625
100
AcDbArc
 50
0.0
 51
180.0
  0
ARC
  5
1A410
330
19EB5
100
AcDbEntity
  8
SUNPOU
100
AcDbCircle
 10
11301.33837406209
 20
2245.804976716085
 30
0.0
 40
5.625
100
AcDbArc
 50
0.0
 51
180.0
  0
ARC
  5
1A411
330
19EB5
100
AcDbEntity
  8
SUNPOU
100
AcDbCircle
 10
11301.33837406209
 20
2245.804976716085
 30
0.0
 40
5.625
100
AcDbArc
 50
180.0
 51
0.0
  0
ARC
  5
1A412
330
19EB5
100
AcDbEntity
  8
SUNPOU
100
AcDbCircle
 10
11221.33837406209
 20
2245.804976716085
 30
0.0
 40
5.625
100
AcDbArc
 50
180.0
 51
0.0
  0
ARC
  5
1A413
330
19EB5
100
AcDbEntity
  8
SUNPOU
100
AcDbCircle
 10
11221.33837406209
 20
2245.804976716085
 30
0.0
 40
5.625
100
AcDbArc
 50
0.0
 51
180.0
  0
ARC
  5
1A414
330
19EB5
100
AcDbEntity
  8
SUNPOU
100
AcDbCircle
 10
11301.33837406209
 20
2245.804976716085
 30
0.0
 40
5.625
100
AcDbArc
 50
0.0
 51
180.0
  0
ARC
  5
1A415
330
19EB5
100
AcDbEntity
  8
SUNPOU
100
AcDbCircle
 10
11301.33837406209
 20
2245.804976716085
 30
0.0
 40
5.625
100
AcDbArc
 50
180.0
 51
0.0
  0
ARC
  5
1A416
330
19EB5
100
AcDbEntity
  8
SUNPOU
100
AcDbCircle
 10
11861.33837406209
 20
2035.804976716086
 30
0.0
 40
5.625
100
AcDbArc
 50
180.0
 51
0.0
  0
ARC
  5
1A417
330
19EB5
100
AcDbEntity
  8
SUNPOU
100
AcDbCircle
 10
11861.33837406209
 20
2035.804976716086
 30
0.0
 40
5.625
100
AcDbArc
 50
0.0
 51
180.0
  0
ARC
  5
1A418
330
19EB5
100
AcDbEntity
  8
SUNPOU
100
AcDbCircle
 10
11221.33837406209
 20
2035.804976716086
 30
0.0
 40
5.625
100
AcDbArc
 50
0.0
 51
180.0
  0
ARC
  5
1A419
330
19EB5
100
AcDbEntity
  8
SUNPOU
100
AcDbCircle
 10
11221.33837406209
 20
2035.804976716086
 30
0.0
 40
5.625
100
AcDbArc
 50
180.0
 51
0.0
  0
ARC
  5
1A41A
330
19EB5
100
AcDbEntity
  8
SUNPOU
100
AcDbCircle
 10
10918.33837406209
 20
2540.144344053149
 30
0.0
 40
5.625
100
AcDbArc
 50
90.0
 51
270.0
  0
ARC
  5
1A41B
330
19EB5
100
AcDbEntity
  8
SUNPOU
100
AcDbCircle
 10
10918.33837406209
 20
2540.144344053149
 30
0.0
 40
5.625
100
AcDbArc
 50
270.0
 51
90.0
  0
ARC
  5
1A41C
330
19EB5
100
AcDbEntity
  8
SUNPOU
100
AcDbCircle
 10
10918.33837406209
 20
2700.144344053149
 30
0.0
 40
5.625
100
AcDbArc
 50
270.0
 51
90.0
  0
ARC
  5
1A41D
330
19EB5
100
AcDbEntity
  8
SUNPOU
100
AcDbCircle
 10
10918.33837406209
 20
2700.144344053149
 30
0.0
 40
5.625
100
AcDbArc
 50
90.0
 51
270.0
  0
ARC
  5
1A41E
330
19EB5
100
AcDbEntity
  8
SUNPOU
100
AcDbCircle
 10
10918.33837406209
 20
2860.144344053149
 30
0.0
 40
5.625
100
AcDbArc
 50
270.0
 51
90.0
  0
ARC
  5
1A41F
330
19EB5
100
AcDbEntity
  8
SUNPOU
100
AcDbCircle
 10
10918.33837406209
 20
2860.144344053149
 30
0.0
 40
5.625
100
AcDbArc
 50
90.0
 51
270.0
  0
ARC
  5
1A420
330
19EB5
100
AcDbEntity
  8
SUNPOU
100
AcDbCircle
 10
10918.33837406209
 20
2700.144344053149
 30
0.0
 40
5.625
100
AcDbArc
 50
90.0
 51
270.0
  0
ARC
  5
1A421
330
19EB5
100
AcDbEntity
  8
SUNPOU
100
AcDbCircle
 10
10918.33837406209
 20
2700.144344053149
 30
0.0
 40
5.625
100
AcDbArc
 50
270.0
 51
90.0
  0
ARC
  5
1A422
330
19EB5
100
AcDbEntity
  8
SUNPOU
100
AcDbCircle
 10
10708.33837406208
 20
2860.144344053149
 30
0.0
 40
5.625
100
AcDbArc
 50
270.0
 51
90.0
  0
ARC
  5
1A423
330
19EB5
100
AcDbEntity
  8
SUNPOU
100
AcDbCircle
 10
10708.33837406208
 20
2860.144344053149
 30
0.0
 40
5.625
100
AcDbArc
 50
90.0
 51
270.0
  0
ARC
  5
1A424
330
19EB5
100
AcDbEntity
  8
SUNPOU
100
AcDbCircle
 10
10708.33837406208
 20
2540.144344053149
 30
0.0
 40
5.625
100
AcDbArc
 50
90.0
 51
270.0
  0
ARC
  5
1A425
330
19EB5
100
AcDbEntity
  8
SUNPOU
100
AcDbCircle
 10
10708.33837406208
 20
2540.144344053149
 30
0.0
 40
5.625
100
AcDbArc
 50
270.0
 51
90.0
  0
ARC
  5
1A426
330
19EB5
100
AcDbEntity
  8
SUNPOU
100
AcDbCircle
 10
11861.33837406209
 20
3394.170862655057
 30
0.0
 40
5.625
100
AcDbArc
 50
0.0
 51
180.0
  0
ARC
  5
1A427
330
19EB5
100
AcDbEntity
  8
SUNPOU
100
AcDbCircle
 10
11861.33837406209
 20
3394.170862655057
 30
0.0
 40
5.625
100
AcDbArc
 50
180.0
 51
0.0
  0
ARC
  5
1A428
330
19EB5
100
AcDbEntity
  8
SUNPOU
100
AcDbCircle
 10
11781.33837406209
 20
3394.170862655057
 30
0.0
 40
5.625
100
AcDbArc
 50
180.0
 51
0.0
  0
ARC
  5
1A429
330
19EB5
100
AcDbEntity
  8
SUNPOU
100
AcDbCircle
 10
11781.33837406209
 20
3394.170862655057
 30
0.0
 40
5.625
100
AcDbArc
 50
0.0
 51
180.0
  0
ARC
  5
1A42A
330
19EB5
100
AcDbEntity
  8
SUNPOU
100
AcDbCircle
 10
11781.33837406209
 20
3394.170862655057
 30
0.0
 40
5.625
100
AcDbArc
 50
180.0
 51
0.0
  0
ARC
  5
1A42B
330
19EB5
100
AcDbEntity
  8
SUNPOU
100
AcDbCircle
 10
11781.33837406209
 20
3394.170862655057
 30
0.0
 40
5.625
100
AcDbArc
 50
0.0
 51
180.0
  0
ARC
  5
1A42C
330
19EB5
100
AcDbEntity
  8
SUNPOU
100
AcDbCircle
 10
11301.33837406209
 20
3394.170862655057
 30
0.0
 40
5.625
100
AcDbArc
 50
0.0
 51
180.0
  0
ARC
  5
1A42D
330
19EB5
100
AcDbEntity
  8
SUNPOU
100
AcDbCircle
 10
11301.33837406209
 20
3394.170862655057
 30
0.0
 40
5.625
100
AcDbArc
 50
180.0
 51
0.0
  0
ARC
  5
1A42E
330
19EB5
100
AcDbEntity
  8
SUNPOU
100
AcDbCircle
 10
11221.33837406209
 20
3394.170862655057
 30
0.0
 40
5.625
100
AcDbArc
 50
180.0
 51
0.0
  0
ARC
  5
1A42F
330
19EB5
100
AcDbEntity
  8
SUNPOU
100
AcDbCircle
 10
11221.33837406209
 20
3394.170862655057
 30
0.0
 40
5.625
100
AcDbArc
 50
0.0
 51
180.0
  0
ARC
  5
1A430
330
19EB5
100
AcDbEntity
  8
SUNPOU
100
AcDbCircle
 10
11301.33837406209
 20
3394.170862655057
 30
0.0
 40
5.625
100
AcDbArc
 50
0.0
 51
180.0
  0
ARC
  5
1A431
330
19EB5
100
AcDbEntity
  8
SUNPOU
100
AcDbCircle
 10
11301.33837406209
 20
3394.170862655057
 30
0.0
 40
5.625
100
AcDbArc
 50
180.0
 51
0.0
  0
ARC
  5
1A432
330
19EB5
100
AcDbEntity
  8
SUNPOU
100
AcDbCircle
 10
11861.33837406209
 20
3184.170862655058
 30
0.0
 40
5.625
100
AcDbArc
 50
180.0
 51
0.0
  0
ARC
  5
1A433
330
19EB5
100
AcDbEntity
  8
SUNPOU
100
AcDbCircle
 10
11861.33837406209
 20
3184.170862655058
 30
0.0
 40
5.625
100
AcDbArc
 50
0.0
 51
180.0
  0
ARC
  5
1A434
330
19EB5
100
AcDbEntity
  8
SUNPOU
100
AcDbCircle
 10
11221.33837406209
 20
3184.170862655058
 30
0.0
 40
5.625
100
AcDbArc
 50
0.0
 51
180.0
  0
ARC
  5
1A435
330
19EB5
100
AcDbEntity
  8
SUNPOU
100
AcDbCircle
 10
11221.33837406209
 20
3184.170862655058
 30
0.0
 40
5.625
100
AcDbArc
 50
180.0
 51
0.0
  0
ARC
  5
1A436
330
19EB5
100
AcDbEntity
  8
SUNPOU
100
AcDbCircle
 10
5279.797051267464
 20
2148.684839419601
 30
0.0
 40
5.625
100
AcDbArc
 50
180.0
 51
0.0
  0
ARC
  5
1A437
330
19EB5
100
AcDbEntity
  8
SUNPOU
100
AcDbCircle
 10
5279.797051267464
 20
2148.684839419601
 30
0.0
 40
5.625
100
AcDbArc
 50
0.0
 51
180.0
  0
ARC
  5
1A438
330
19EB5
100
AcDbEntity
  8
SUNPOU
100
AcDbCircle
 10
4319.797051267463
 20
2148.684839419601
 30
0.0
 40
5.625
100
AcDbArc
 50
0.0
 51
180.0
  0
ARC
  5
1A439
330
19EB5
100
AcDbEntity
  8
SUNPOU
100
AcDbCircle
 10
4319.797051267463
 20
2148.684839419601
 30
0.0
 40
5.625
100
AcDbArc
 50
180.0
 51
0.0
  0
ARC
  5
1A43A
330
19EB5
100
AcDbEntity
  8
SUNPOU
100
AcDbCircle
 10
5439.797051267461
 20
1938.6848394196
 30
0.0
 40
5.625
100
AcDbArc
 50
180.0
 51
0.0
  0
ARC
  5
1A43B
330
19EB5
100
AcDbEntity
  8
SUNPOU
100
AcDbCircle
 10
5439.797051267461
 20
1938.6848394196
 30
0.0
 40
5.625
100
AcDbArc
 50
0.0
 51
180.0
  0
ARC
  5
1A43C
330
19EB5
100
AcDbEntity
  8
SUNPOU
100
AcDbCircle
 10
4159.797051267462
 20
1938.6848394196
 30
0.0
 40
5.625
100
AcDbArc
 50
0.0
 51
180.0
  0
ARC
  5
1A43D
330
19EB5
100
AcDbEntity
  8
SUNPOU
100
AcDbCircle
 10
4159.797051267462
 20
1938.6848394196
 30
0.0
 40
5.625
100
AcDbArc
 50
180.0
 51
0.0
  0
ARC
  5
1A43E
330
19EB5
100
AcDbEntity
  8
SUNPOU
100
AcDbCircle
 10
3460.443655266704
 20
3456.684839419605
 30
0.0
 40
5.625
100
AcDbArc
 50
90.0
 51
270.0
  0
ARC
  5
1A43F
330
19EB5
100
AcDbEntity
  8
SUNPOU
100
AcDbCircle
 10
3460.443655266704
 20
3456.684839419605
 30
0.0
 40
5.625
100
AcDbArc
 50
270.0
 51
90.0
  0
ARC
  5
1A440
330
19EB5
100
AcDbEntity
  8
SUNPOU
100
AcDbCircle
 10
3460.443655266704
 20
3376.684839419604
 30
0.0
 40
5.625
100
AcDbArc
 50
270.0
 51
90.0
  0
ARC
  5
1A441
330
19EB5
100
AcDbEntity
  8
SUNPOU
100
AcDbCircle
 10
3460.443655266704
 20
3376.684839419604
 30
0.0
 40
5.625
100
AcDbArc
 50
90.0
 51
270.0
  0
ARC
  5
1A442
330
19EB5
100
AcDbEntity
  8
SUNPOU
100
AcDbCircle
 10
3880.443655266708
 20
3191.084839419597
 30
0.0
 40
5.625
100
AcDbArc
 50
90.0
 51
270.0
  0
ARC
  5
1A443
330
19EB5
100
AcDbEntity
  8
SUNPOU
100
AcDbCircle
 10
3880.443655266708
 20
3191.084839419597
 30
0.0
 40
5.625
100
AcDbArc
 50
270.0
 51
90.0
  0
ARC
  5
1A444
330
19EB5
100
AcDbEntity
  8
SUNPOU
100
AcDbCircle
 10
3880.443655266708
 20
3319.084839419601
 30
0.0
 40
5.625
100
AcDbArc
 50
270.0
 51
90.0
  0
ARC
  5
1A445
330
19EB5
100
AcDbEntity
  8
SUNPOU
100
AcDbCircle
 10
3880.443655266708
 20
3319.084839419601
 30
0.0
 40
5.625
100
AcDbArc
 50
90.0
 51
270.0
  0
ARC
  5
1A446
330
19EB5
100
AcDbEntity
  8
SUNPOU
100
AcDbCircle
 10
3880.443655266704
 20
3456.684839419605
 30
0.0
 40
5.625
100
AcDbArc
 50
270.0
 51
90.0
  0
ARC
  5
1A447
330
19EB5
100
AcDbEntity
  8
SUNPOU
100
AcDbCircle
 10
3880.443655266704
 20
3456.684839419605
 30
0.0
 40
5.625
100
AcDbArc
 50
90.0
 51
270.0
  0
ARC
  5
1A448
330
19EB5
100
AcDbEntity
  8
SUNPOU
100
AcDbCircle
 10
3880.443655266704
 20
3319.084839419603
 30
0.0
 40
5.625
100
AcDbArc
 50
90.0
 51
270.0
  0
ARC
  5
1A449
330
19EB5
100
AcDbEntity
  8
SUNPOU
100
AcDbCircle
 10
3880.443655266704
 20
3319.084839419603
 30
0.0
 40
5.625
100
AcDbArc
 50
270.0
 51
90.0
  0
ARC
  5
1A44A
330
19EB5
100
AcDbEntity
  8
SUNPOU
100
AcDbCircle
 10
3880.443655266704
 20
3191.084839419599
 30
0.0
 40
5.625
100
AcDbArc
 50
270.0
 51
90.0
  0
ARC
  5
1A44B
330
19EB5
100
AcDbEntity
  8
SUNPOU
100
AcDbCircle
 10
3880.443655266704
 20
3191.084839419599
 30
0.0
 40
5.625
100
AcDbArc
 50
90.0
 51
270.0
  0
ARC
  5
1A44C
330
19EB5
100
AcDbEntity
  8
SUNPOU
100
AcDbCircle
 10
3880.443655266704
 20
2711.084839419605
 30
0.0
 40
5.625
100
AcDbArc
 50
90.0
 51
270.0
  0
ARC
  5
1A44D
330
19EB5
100
AcDbEntity
  8
SUNPOU
100
AcDbCircle
 10
3880.443655266704
 20
2711.084839419605
 30
0.0
 40
5.625
100
AcDbArc
 50
270.0
 51
90.0
  0
ARC
  5
1A44E
330
19EB5
100
AcDbEntity
  8
SUNPOU
100
AcDbCircle
 10
3880.443655266704
 20
2551.084839419605
 30
0.0
 40
5.625
100
AcDbArc
 50
90.0
 51
270.0
  0
ARC
  5
1A44F
330
19EB5
100
AcDbEntity
  8
SUNPOU
100
AcDbCircle
 10
3880.443655266704
 20
2551.084839419605
 30
0.0
 40
5.625
100
AcDbArc
 50
270.0
 51
90.0
  0
ARC
  5
1A450
330
19EB5
100
AcDbEntity
  8
SUNPOU
100
AcDbCircle
 10
3880.443655266704
 20
2711.084839419605
 30
0.0
 40
5.625
100
AcDbArc
 50
270.0
 51
90.0
  0
ARC
  5
1A451
330
19EB5
100
AcDbEntity
  8
SUNPOU
100
AcDbCircle
 10
3880.443655266704
 20
2711.084839419605
 30
0.0
 40
5.625
100
AcDbArc
 50
90.0
 51
270.0
  0
ARC
  5
1A452
330
19EB5
100
AcDbEntity
  8
SUNPOU
100
AcDbCircle
 10
3670.443655266705
 20
2551.084839419605
 30
0.0
 40
5.625
100
AcDbArc
 50
90.0
 51
270.0
  0
ARC
  5
1A453
330
19EB5
100
AcDbEntity
  8
SUNPOU
100
AcDbCircle
 10
3670.443655266705
 20
2551.084839419605
 30
0.0
 40
5.625
100
AcDbArc
 50
270.0
 51
90.0
  0
ARC
  5
1A454
330
19EB5
100
AcDbEntity
  8
SUNPOU
100
AcDbCircle
 10
3670.443655266705
 20
3456.684839419605
 30
0.0
 40
5.625
100
AcDbArc
 50
270.0
 51
90.0
  0
ARC
  5
1A455
330
19EB5
100
AcDbEntity
  8
SUNPOU
100
AcDbCircle
 10
3670.443655266705
 20
3456.684839419605
 30
0.0
 40
5.625
100
AcDbArc
 50
90.0
 51
270.0
  0
ARC
  5
1A456
330
19EB5
100
AcDbEntity
  8
SUNPOU
100
AcDbCircle
 10
4319.797051267463
 20
4130.485411556192
 30
0.0
 40
5.625
100
AcDbArc
 50
0.0
 51
180.0
  0
ARC
  5
1A457
330
19EB5
100
AcDbEntity
  8
SUNPOU
100
AcDbCircle
 10
4319.797051267463
 20
4130.485411556192
 30
0.0
 40
5.625
100
AcDbArc
 50
180.0
 51
0.0
  0
ARC
  5
1A458
330
19EB5
100
AcDbEntity
  8
SUNPOU
100
AcDbCircle
 10
4799.797051267463
 20
4130.485411556192
 30
0.0
 40
5.625
100
AcDbArc
 50
180.0
 51
0.0
  0
ARC
  5
1A459
330
19EB5
100
AcDbEntity
  8
SUNPOU
100
AcDbCircle
 10
4799.797051267463
 20
4130.485411556192
 30
0.0
 40
5.625
100
AcDbArc
 50
0.0
 51
180.0
  0
ARC
  5
1A45A
330
19EB5
100
AcDbEntity
  8
SUNPOU
100
AcDbCircle
 10
9434.21703198606
 20
5395.715360473253
 30
0.0
 40
5.625
100
AcDbArc
 50
90.0
 51
270.0
  0
ARC
  5
1A45B
330
19EB5
100
AcDbEntity
  8
SUNPOU
100
AcDbCircle
 10
9434.21703198606
 20
5395.715360473253
 30
0.0
 40
5.625
100
AcDbArc
 50
270.0
 51
90.0
  0
ARC
  5
1A45C
330
19EB5
100
AcDbEntity
  8
SUNPOU
100
AcDbCircle
 10
9434.21703198606
 20
5995.715360473255
 30
0.0
 40
5.625
100
AcDbArc
 50
270.0
 51
90.0
  0
ARC
  5
1A45D
330
19EB5
100
AcDbEntity
  8
SUNPOU
100
AcDbCircle
 10
9434.21703198606
 20
5995.715360473255
 30
0.0
 40
5.625
100
AcDbArc
 50
90.0
 51
270.0
  0
ARC
  5
1A45E
330
19EB5
100
AcDbEntity
  8
SUNPOU
100
AcDbCircle
 10
12034.21703198606
 20
10205.71536047325
 30
0.0
 40
5.625
100
AcDbArc
 50
180.0
 51
0.0
  0
ARC
  5
1A45F
330
19EB5
100
AcDbEntity
  8
SUNPOU
100
AcDbCircle
 10
12034.21703198606
 20
10205.71536047325
 30
0.0
 40
5.625
100
AcDbArc
 50
0.0
 51
180.0
  0
ARC
  5
1A460
330
19EB5
100
AcDbEntity
  8
SUNPOU
100
AcDbCircle
 10
4334.217031986058
 20
10205.71536047325
 30
0.0
 40
5.625
100
AcDbArc
 50
0.0
 51
180.0
  0
ARC
  5
1A461
330
19EB5
100
AcDbEntity
  8
SUNPOU
100
AcDbCircle
 10
4334.217031986058
 20
10205.71536047325
 30
0.0
 40
5.625
100
AcDbArc
 50
180.0
 51
0.0
  0
ARC
  5
1A462
330
19EB5
100
AcDbEntity
  8
SUNPOU
100
AcDbCircle
 10
4734.21703198606
 20
9995.715360473253
 30
0.0
 40
5.625
100
AcDbArc
 50
0.0
 51
180.0
  0
ARC
  5
1A463
330
19EB5
100
AcDbEntity
  8
SUNPOU
100
AcDbCircle
 10
4734.21703198606
 20
9995.715360473253
 30
0.0
 40
5.625
100
AcDbArc
 50
180.0
 51
0.0
  0
ARC
  5
1A464
330
19EB5
100
AcDbEntity
  8
SUNPOU
100
AcDbCircle
 10
7534.217031986059
 20
9995.715360473253
 30
0.0
 40
5.625
100
AcDbArc
 50
180.0
 51
0.0
  0
ARC
  5
1A465
330
19EB5
100
AcDbEntity
  8
SUNPOU
100
AcDbCircle
 10
7534.217031986059
 20
9995.715360473253
 30
0.0
 40
5.625
100
AcDbArc
 50
0.0
 51
180.0
  0
ARC
  5
1A466
330
19EB5
100
AcDbEntity
  8
SUNPOU
100
AcDbCircle
 10
8834.21703198606
 20
9995.715360473253
 30
0.0
 40
5.625
100
AcDbArc
 50
0.0
 51
180.0
  0
ARC
  5
1A467
330
19EB5
100
AcDbEntity
  8
SUNPOU
100
AcDbCircle
 10
8834.21703198606
 20
9995.715360473253
 30
0.0
 40
5.625
100
AcDbArc
 50
180.0
 51
0.0
  0
ARC
  5
1A468
330
19EB5
100
AcDbEntity
  8
SUNPOU
100
AcDbCircle
 10
11634.21703198606
 20
9995.715360473253
 30
0.0
 40
5.625
100
AcDbArc
 50
180.0
 51
0.0
  0
ARC
  5
1A469
330
19EB5
100
AcDbEntity
  8
SUNPOU
100
AcDbCircle
 10
11634.21703198606
 20
9995.715360473253
 30
0.0
 40
5.625
100
AcDbArc
 50
0.0
 51
180.0
  0
ARC
  5
1A46A
330
19EB5
100
AcDbEntity
  8
SUNPOU
100
AcDbCircle
 10
4334.217031986058
 20
9995.715360473253
 30
0.0
 40
5.625
100
AcDbArc
 50
0.0
 51
180.0
  0
ARC
  5
1A46B
330
19EB5
100
AcDbEntity
  8
SUNPOU
100
AcDbCircle
 10
4334.217031986058
 20
9995.715360473253
 30
0.0
 40
5.625
100
AcDbArc
 50
180.0
 51
0.0
  0
ARC
  5
1A46C
330
19EB5
100
AcDbEntity
  8
SUNPOU
100
AcDbCircle
 10
4734.21703198606
 20
9995.715360473253
 30
0.0
 40
5.625
100
AcDbArc
 50
180.0
 51
0.0
  0
ARC
  5
1A46D
330
19EB5
100
AcDbEntity
  8
SUNPOU
100
AcDbCircle
 10
4734.21703198606
 20
9995.715360473253
 30
0.0
 40
5.625
100
AcDbArc
 50
0.0
 51
180.0
  0
ARC
  5
1A46E
330
19EB5
100
AcDbEntity
  8
SUNPOU
100
AcDbCircle
 10
12034.21703198606
 20
9995.715360473253
 30
0.0
 40
5.625
100
AcDbArc
 50
180.0
 51
0.0
  0
ARC
  5
1A46F
330
19EB5
100
AcDbEntity
  8
SUNPOU
100
AcDbCircle
 10
12034.21703198606
 20
9995.715360473253
 30
0.0
 40
5.625
100
AcDbArc
 50
0.0
 51
180.0
  0
ARC
  5
1A470
330
19EB5
100
AcDbEntity
  8
SUNPOU
100
AcDbCircle
 10
11634.21703198606
 20
9995.715360473253
 30
0.0
 40
5.625
100
AcDbArc
 50
0.0
 51
180.0
  0
ARC
  5
1A471
330
19EB5
100
AcDbEntity
  8
SUNPOU
100
AcDbCircle
 10
11634.21703198606
 20
9995.715360473253
 30
0.0
 40
5.625
100
AcDbArc
 50
180.0
 51
0.0
  0
ARC
  5
1A472
330
19EB5
100
AcDbEntity
  8
SUNPOU
100
AcDbCircle
 10
6934.21703198606
 20
8995.715360473253
 30
0.0
 40
5.625
100
AcDbArc
 50
90.0
 51
270.0
  0
ARC
  5
1A473
330
19EB5
100
AcDbEntity
  8
SUNPOU
100
AcDbCircle
 10
6934.21703198606
 20
8995.715360473253
 30
0.0
 40
5.625
100
AcDbArc
 50
270.0
 51
90.0
  0
ARC
  5
1A474
330
19EB5
100
AcDbEntity
  8
SUNPOU
100
AcDbCircle
 10
6934.21703198606
 20
9595.715360473253
 30
0.0
 40
5.625
100
AcDbArc
 50
270.0
 51
90.0
  0
ARC
  5
1A475
330
19EB5
100
AcDbEntity
  8
SUNPOU
100
AcDbCircle
 10
6934.21703198606
 20
9595.715360473253
 30
0.0
 40
5.625
100
AcDbArc
 50
90.0
 51
270.0
  0
ARC
  5
1A476
330
19EB5
100
AcDbEntity
  8
SUNPOU
100
AcDbCircle
 10
7834.21703198606
 20
8695.715360473251
 30
0.0
 40
5.625
100
AcDbArc
 50
180.0
 51
0.0
  0
ARC
  5
1A477
330
19EB5
100
AcDbEntity
  8
SUNPOU
100
AcDbCircle
 10
7834.21703198606
 20
8695.715360473251
 30
0.0
 40
5.625
100
AcDbArc
 50
0.0
 51
180.0
  0
ARC
  5
1A478
330
19EB5
100
AcDbEntity
  8
SUNPOU
100
AcDbCircle
 10
7234.21703198606
 20
8695.715360473251
 30
0.0
 40
5.625
100
AcDbArc
 50
0.0
 51
180.0
  0
ARC
  5
1A479
330
19EB5
100
AcDbEntity
  8
SUNPOU
100
AcDbCircle
 10
7234.21703198606
 20
8695.715360473251
 30
0.0
 40
5.625
100
AcDbArc
 50
180.0
 51
0.0
  0
ARC
  5
1A47A
330
19EB5
100
AcDbEntity
  8
SUNPOU
100
AcDbCircle
 10
9134.217031986059
 20
6245.715360473253
 30
0.0
 40
5.625
100
AcDbArc
 50
180.0
 51
0.0
  0
ARC
  5
1A47B
330
19EB5
100
AcDbEntity
  8
SUNPOU
100
AcDbCircle
 10
9134.217031986059
 20
6245.715360473253
 30
0.0
 40
5.625
100
AcDbArc
 50
0.0
 51
180.0
  0
ARC
  5
1A47C
330
19EB5
100
AcDbEntity
  8
SUNPOU
100
AcDbCircle
 10
8534.217031986059
 20
6245.715360473253
 30
0.0
 40
5.625
100
AcDbArc
 50
0.0
 51
180.0
  0
ARC
  5
1A47D
330
19EB5
100
AcDbEntity
  8
SUNPOU
100
AcDbCircle
 10
8534.217031986059
 20
6245.715360473253
 30
0.0
 40
5.625
100
AcDbArc
 50
180.0
 51
0.0
  0
ARC
  5
1A47E
330
19EB5
100
AcDbEntity
  8
SUNPOU
100
AcDbCircle
 10
9234.217031986061
 20
8065.715360473253
 30
0.0
 40
5.625
100
AcDbArc
 50
180.0
 51
0.0
  0
ARC
  5
1A47F
330
19EB5
100
AcDbEntity
  8
SUNPOU
100
AcDbCircle
 10
9234.217031986061
 20
8065.715360473253
 30
0.0
 40
5.625
100
AcDbArc
 50
0.0
 51
180.0
  0
ARC
  5
1A480
330
19EB5
100
AcDbEntity
  8
SUNPOU
100
AcDbCircle
 10
8434.21703198606
 20
8065.715360473253
 30
0.0
 40
5.625
100
AcDbArc
 50
0.0
 51
180.0
  0
ARC
  5
1A481
330
19EB5
100
AcDbEntity
  8
SUNPOU
100
AcDbCircle
 10
8434.21703198606
 20
8065.715360473253
 30
0.0
 40
5.625
100
AcDbArc
 50
180.0
 51
0.0
  0
ARC
  5
1A482
330
19EB5
100
AcDbEntity
  8
SUNPOU
100
AcDbCircle
 10
9534.217031986059
 20
7095.715360473253
 30
0.0
 40
5.625
100
AcDbArc
 50
90.0
 51
270.0
  0
ARC
  5
1A483
330
19EB5
100
AcDbEntity
  8
SUNPOU
100
AcDbCircle
 10
9534.217031986059
 20
7095.715360473253
 30
0.0
 40
5.625
100
AcDbArc
 50
270.0
 51
90.0
  0
ARC
  5
1A484
330
19EB5
100
AcDbEntity
  8
SUNPOU
100
AcDbCircle
 10
9534.217031986059
 20
7895.715360473253
 30
0.0
 40
5.625
100
AcDbArc
 50
270.0
 51
90.0
  0
ARC
  5
1A485
330
19EB5
100
AcDbEntity
  8
SUNPOU
100
AcDbCircle
 10
9534.217031986059
 20
7895.715360473253
 30
0.0
 40
5.625
100
AcDbArc
 50
90.0
 51
270.0
  0
ARC
  5
1A486
330
19EB5
100
AcDbEntity
  8
HIKIDASHI
100
AcDbCircle
 10
7368.753186178046
 20
1889.069567942468
 30
0.0
 40
74.66417910452284
100
AcDbArc
 50
164.8596129850915
 51
237.504500294165
  0
ARC
  5
1A487
330
19EB5
100
AcDbEntity
  8
HIKIDASHI
100
AcDbCircle
 10
7305.32939213174
 20
1906.230591426951
 30
0.0
 40
8.959701492542745
100
AcDbArc
 50
15.14038701503429
 51
164.8596129849655
  0
ARC
  5
1A488
330
19EB5
100
AcDbEntity
  8
HIKIDASHI
100
AcDbCircle
 10
3681.171434554746
 20
1889.069567942463
 30
0.0
 40
74.66417910452284
100
AcDbArc
 50
164.859612985099
 51
237.5045002941407
  0
ARC
  5
1A489
330
19EB5
100
AcDbEntity
  8
HIKIDASHI
100
AcDbCircle
 10
3617.747640508442
 20
1906.230591426947
 30
0.0
 40
8.959701492542745
100
AcDbArc
 50
15.14038701503429
 51
164.8596129849655
  0
LINE
  5
1A48A
330
19EB5
100
AcDbEntity
  8
HIKIDASHI
100
AcDbLine
 10
8349.997383446192
 20
2789.774820102782
 30
0.0
 11
7568.025406890003
 21
1938.684839419604
 31
0.0
1001
ACAD
1000
DSTYLE
1002
{
1070
   147
1040
1.0
1070
    77
1070
     0
1002
}
  0
LINE
  5
1A48B
330
19EB5
100
AcDbEntity
  8
HIKIDASHI
100
AcDbLine
 10
8359.815719998994
 20
2780.753842045294
 30
0.0
 11
8404.12325179111
 21
2848.684839419603
 31
0.0
  0
LINE
  5
1A48C
330
19EB5
100
AcDbEntity
  8
HIKIDASHI
100
AcDbLine
 10
8404.12325179111
 20
2848.684839419603
 30
0.0
 11
8340.179046893387
 21
2798.795798160268
 31
0.0
  0
SOLID
  5
1A48D
330
19EB5
100
AcDbEntity
  8
HIKIDASHI
100
AcDbTrace
 10
8359.815719998994
 20
2780.753842045294
 30
0.0
 11
8340.179046893387
 21
2798.795798160268
 31
0.0
 12
8404.12325179111
 22
2848.684839419603
 32
0.0
 13
8404.12325179111
 23
2848.684839419603
 33
0.0
  0
LINE
  5
1A48E
330
19EB5
100
AcDbEntity
  8
HIKIDASHI
100
AcDbLine
 10
8340.179046893387
 20
2798.795798160268
 30
0.0
 11
8359.815719998994
 21
2780.753842045294
 31
0.0
  0
ARC
  5
1A48F
330
19EB5
100
AcDbEntity
  8
HIKIDASHI
100
AcDbCircle
 10
7243.085124621173
 20
1890.249695302057
 30
0.0
 40
74.66417910452232
100
AcDbArc
 50
301.7712278330705
 51
15.14038701490951
  0
LINE
  5
1A490
330
19EB5
100
AcDbEntity
  8
HIKIDASHI
100
AcDbLine
 10
11865.19119696312
 20
2619.990092191335
 30
0.0
 11
12256.64239875644
 21
2245.804976716085
 31
0.0
1001
ACAD
1000
DSTYLE
1002
{
1070
   147
1040
1.0
1070
    77
1070
     0
1002
}
  0
LINE
  5
1A491
330
19EB5
100
AcDbEntity
  8
HIKIDASHI
100
AcDbLine
 10
11874.40432936103
 20
2629.628347697202
 30
0.0
 11
11807.36166392793
 21
2675.268886578793
 31
0.0
  0
LINE
  5
1A492
330
19EB5
100
AcDbEntity
  8
HIKIDASHI
100
AcDbLine
 10
11807.36166392793
 20
2675.268886578793
 30
0.0
 11
11855.97806456522
 21
2610.351836685468
 31
0.0
  0
SOLID
  5
1A493
330
19EB5
100
AcDbEntity
  8
HIKIDASHI
100
AcDbTrace
 10
11874.40432936103
 20
2629.628347697202
 30
0.0
 11
11855.97806456522
 21
2610.351836685468
 31
0.0
 12
11807.36166392793
 22
2675.268886578793
 32
0.0
 13
11807.36166392793
 23
2675.268886578793
 33
0.0
  0
LINE
  5
1A494
330
19EB5
100
AcDbEntity
  8
HIKIDASHI
100
AcDbLine
 10
11855.97806456522
 20
2610.351836685468
 30
0.0
 11
11874.40432936103
 21
2629.628347697202
 31
0.0
  0
LINE
  5
1A495
330
19EB5
100
AcDbEntity
  8
HIKIDASHI
100
AcDbLine
 10
11918.49428872015
 20
2916.119351150967
 30
0.0
 11
12073.23363223807
 21
3067.661600164834
 31
0.0
1001
ACAD
1000
DSTYLE
1002
{
1070
   147
1040
1.0
1070
    77
1070
     0
1002
}
  0
LINE
  5
1A496
330
19EB5
100
AcDbEntity
  8
HIKIDASHI
100
AcDbLine
 10
11909.16512087051
 20
2925.645336927309
 30
0.0
 11
11861.33837406209
 21
2860.144344053149
 31
0.0
  0
LINE
  5
1A497
330
19EB5
100
AcDbEntity
  8
HIKIDASHI
100
AcDbLine
 10
11861.33837406209
 20
2860.144344053149
 30
0.0
 11
11927.82345656978
 21
2906.593365374622
 31
0.0
  0
SOLID
  5
1A498
330
19EB5
100
AcDbEntity
  8
HIKIDASHI
100
AcDbTrace
 10
11909.16512087051
 20
2925.645336927309
 30
0.0
 11
11927.82345656978
 21
2906.593365374622
 31
0.0
 12
11861.33837406209
 22
2860.144344053149
 32
0.0
 13
11861.33837406209
 23
2860.144344053149
 33
0.0
  0
LINE
  5
1A499
330
19EB5
100
AcDbEntity
  8
HIKIDASHI
100
AcDbLine
 10
11927.82345656978
 20
2906.593365374622
 30
0.0
 11
11909.16512087051
 21
2925.645336927309
 31
0.0
  0
LINE
  5
1A49A
330
19EB5
100
AcDbEntity
  8
HIKIDASHI
100
AcDbLine
 10
4739.144060259712
 20
3002.326297915248
 30
0.0
 11
3880.443655266704
 21
1938.6848394196
 31
0.0
1001
ACAD
1000
DSTYLE
1002
{
1070
   147
1040
1.0
1070
    77
1070
     0
1002
}
  0
LINE
  5
1A49B
330
19EB5
100
AcDbEntity
  8
HIKIDASHI
100
AcDbLine
 10
4749.518490491424
 20
2993.950799413955
 30
0.0
 11
4789.397051267463
 21
3064.572879305512
 31
0.0
  0
LINE
  5
1A49C
330
19EB5
100
AcDbEntity
  8
HIKIDASHI
100
AcDbLine
 10
4789.397051267463
 20
3064.572879305512
 30
0.0
 11
4728.769630028001
 21
3010.701796416539
 31
0.0
  0
SOLID
  5
1A49D
330
19EB5
100
AcDbEntity
  8
HIKIDASHI
100
AcDbTrace
 10
4749.518490491424
 20
2993.950799413955
 30
0.0
 11
4728.769630028001
 21
3010.701796416539
 31
0.0
 12
4789.397051267463
 22
3064.572879305512
 32
0.0
 13
4789.397051267463
 23
3064.572879305512
 33
0.0
  0
LINE
  5
1A49E
330
19EB5
100
AcDbEntity
  8
HIKIDASHI
100
AcDbLine
 10
4728.769630028001
 20
3010.701796416539
 30
0.0
 11
4749.518490491424
 21
2993.950799413955
 31
0.0
  0
ARC
  5
1A49F
330
19EB5
100
AcDbEntity
  8
HIKIDASHI
100
AcDbCircle
 10
3555.503372997875
 20
1890.249695302052
 30
0.0
 40
74.66417910452256
100
AcDbArc
 50
301.7712278330707
 51
15.14038701490941
  0
LINE
  5
1A4A0
330
19EB5
100
AcDbEntity
  8
HIKIDASHI
100
AcDbLine
 10
5106.084662666018
 20
3525.966871722361
 30
0.0
 11
5333.860047839355
 21
3920.485411556192
 31
0.0
1001
ACAD
1000
DSTYLE
1002
{
1070
   147
1040
1.0
1070
    77
1070
     0
1002
}
  0
LINE
  5
1A4A1
330
19EB5
100
AcDbEntity
  8
HIKIDASHI
100
AcDbLine
 10
5094.537657282226
 20
3532.633538389028
 30
0.0
 11
5066.084662666021
 21
3456.684839419605
 31
0.0
  0
LINE
  5
1A4A2
330
19EB5
100
AcDbEntity
  8
HIKIDASHI
100
AcDbLine
 10
5066.084662666021
 20
3456.684839419605
 30
0.0
 11
5117.631668049813
 21
3519.300205055695
 31
0.0
  0
SOLID
  5
1A4A3
330
19EB5
100
AcDbEntity
  8
HIKIDASHI
100
AcDbTrace
 10
5094.537657282226
 20
3532.633538389028
 30
0.0
 11
5117.631668049813
 21
3519.300205055695
 31
0.0
 12
5066.084662666021
 22
3456.684839419605
 32
0.0
 13
5066.084662666021
 23
3456.684839419605
 33
0.0
  0
LINE
  5
1A4A4
330
19EB5
100
AcDbEntity
  8
HIKIDASHI
100
AcDbLine
 10
5117.631668049813
 20
3519.300205055695
 30
0.0
 11
5094.537657282226
 21
3532.633538389028
 31
0.0
  0
LINE
  5
1A4A5
330
19EB5
100
AcDbEntity
  8
HIKIDASHI
100
AcDbLine
 10
5489.136067929489
 20
2561.711341542924
 30
0.0
 11
5656.338096802658
 21
2348.304238552882
 31
0.0
1001
ACAD
1000
DSTYLE
1002
{
1070
   147
1040
1.0
1070
    77
1070
     0
1002
}
  0
LINE
  5
1A4A6
330
19EB5
100
AcDbEntity
  8
HIKIDASHI
100
AcDbLine
 10
5499.631650908938
 20
2569.934510986595
 30
0.0
 11
5439.797051267461
 21
2624.684839419602
 31
0.0
  0
LINE
  5
1A4A7
330
19EB5
100
AcDbEntity
  8
HIKIDASHI
100
AcDbLine
 10
5439.797051267461
 20
2624.684839419602
 30
0.0
 11
5478.640484950044
 21
2553.488172099252
 31
0.0
  0
SOLID
  5
1A4A8
330
19EB5
100
AcDbEntity
  8
HIKIDASHI
100
AcDbTrace
 10
5499.631650908938
 20
2569.934510986595
 30
0.0
 11
5478.640484950044
 21
2553.488172099252
 31
0.0
 12
5439.797051267461
 22
2624.684839419602
 32
0.0
 13
5439.797051267461
 23
2624.684839419602
 33
0.0
  0
LINE
  5
1A4A9
330
19EB5
100
AcDbEntity
  8
HIKIDASHI
100
AcDbLine
 10
5478.640484950044
 20
2553.488172099252
 30
0.0
 11
5499.631650908938
 21
2569.934510986595
 31
0.0
  0
LINE
  5
1A4AA
330
19EB5
100
AcDbEntity
  8
HIKIDASHI
100
AcDbLine
 10
5517.958310807199
 20
3204.439659000036
 30
0.0
 11
5674.871662611158
 21
2904.11470702088
 31
0.0
1001
ACAD
1000
DSTYLE
1002
{
1070
    41
1040
2.0
1070
   173
1070
     0
1070
   341
1005
125B0
1002
}
  0
ARC
  5
1A4AB
330
19EB5
100
AcDbEntity
  8
HIKIDASHI
100
AcDbCircle
 10
5472.271108781362
 20
3259.491130329859
 30
0.0
 40
18.0
100
AcDbArc
 50
241.1434129563095
 51
354.0287934324676
  0
ARC
  5
1A4AC
330
19EB5
100
AcDbEntity
  8
HIKIDASHI
100
AcDbCircle
 10
5508.075783564776
 20
3255.746098466976
 30
0.0
 40
18.0
100
AcDbArc
 50
61.1434129563095
 51
174.0287934324675
  0
LINE
  5
1A4AD
330
19EB5
100
AcDbEntity
  8
HIKIDASHI
100
AcDbLine
 10
5490.173446173068
 20
3257.618614398416
 30
0.0
 11
5517.958310807205
 21
3204.439659000024
 31
0.0
  0
LINE
  5
1A4AE
330
19EB5
100
AcDbEntity
  8
HATCH
100
AcDbLine
 10
7395.822417332898
 20
3191.084839420303
 30
0.0
 11
7469.72325178917
 21
3319.084839420297
 31
0.0
  0
LINE
  5
1A4AF
330
19EB5
100
AcDbEntity
  8
HATCH
100
AcDbLine
 10
7431.323251789172
 20
3319.084839420296
 30
0.0
 11
7450.523251789171
 21
3285.829463914978
 31
0.0
  0
LINE
  5
1A4B0
330
19EB5
100
AcDbEntity
  8
HATCH
100
AcDbLine
 10
7395.822417334819
 20
3191.084839420923
 30
0.0
 11
7469.723251791108
 21
3319.084839420952
 31
0.0
  0
LINE
  5
1A4B1
330
19EB5
100
AcDbEntity
  8
HATCH
100
AcDbLine
 10
7431.323251791098
 20
3319.084839420951
 30
0.0
 11
7450.523251791103
 21
3285.829463915624
 31
0.0
  0
LINE
  5
1A4B2
330
19EB5
100
AcDbEntity
  8
HATCH
100
AcDbLine
 10
7683.822417332899
 20
3191.084839419027
 30
0.0
 11
7757.72325178917
 21
3319.084839419021
 31
0.0
  0
LINE
  5
1A4B3
330
19EB5
100
AcDbEntity
  8
HATCH
100
AcDbLine
 10
7719.32325178917
 20
3319.084839419019
 30
0.0
 11
7738.523251789171
 21
3285.829463913701
 31
0.0
  0
LINE
  5
1A4B4
330
19EB5
100
AcDbEntity
  8
HATCH
100
AcDbLine
 10
7827.8224173329
 20
3191.084839419027
 30
0.0
 11
7901.723251789167
 21
3319.084839419021
 31
0.0
  0
LINE
  5
1A4B5
330
19EB5
100
AcDbEntity
  8
HATCH
100
AcDbLine
 10
7863.32325178917
 20
3319.084839419019
 30
0.0
 11
7882.52325178917
 21
3285.829463913701
 31
0.0
  0
LINE
  5
1A4B6
330
19EB5
100
AcDbEntity
  8
HATCH
100
AcDbLine
 10
7683.822417334815
 20
3191.084839419646
 30
0.0
 11
7757.723251791105
 21
3319.084839419675
 31
0.0
  0
LINE
  5
1A4B7
330
19EB5
100
AcDbEntity
  8
HATCH
100
AcDbLine
 10
7719.323251791097
 20
3319.084839419675
 30
0.0
 11
7738.5232517911
 21
3285.829463914346
 31
0.0
  0
LINE
  5
1A4B8
330
19EB5
100
AcDbEntity
  8
HATCH
100
AcDbLine
 10
7827.822417334818
 20
3191.084839419646
 30
0.0
 11
7901.723251791107
 21
3319.084839419675
 31
0.0
  0
LINE
  5
1A4B9
330
19EB5
100
AcDbEntity
  8
HATCH
100
AcDbLine
 10
7863.323251791097
 20
3319.084839419675
 30
0.0
 11
7882.5232517911
 21
3285.829463914346
 31
0.0
  0
LINE
  5
1A4BA
330
19EB5
100
AcDbEntity
  8
HATCH
100
AcDbLine
 10
9597.765052686932
 20
3191.084839420268
 30
0.0
 11
9671.665887143205
 21
3319.084839420261
 31
0.0
  0
LINE
  5
1A4BB
330
19EB5
100
AcDbEntity
  8
HATCH
100
AcDbLine
 10
9633.265887143204
 20
3319.084839420259
 30
0.0
 11
9652.465887143202
 21
3285.829463914943
 31
0.0
  0
LINE
  5
1A4BC
330
19EB5
100
AcDbEntity
  8
HATCH
100
AcDbLine
 10
9309.765052686932
 20
3191.084839420268
 30
0.0
 11
9383.6658871432
 21
3319.084839420261
 31
0.0
  0
LINE
  5
1A4BD
330
19EB5
100
AcDbEntity
  8
HATCH
100
AcDbLine
 10
9345.265887143204
 20
3319.084839420259
 30
0.0
 11
9364.465887143202
 21
3285.829463914943
 31
0.0
  0
LINE
  5
1A4BE
330
19EB5
100
AcDbEntity
  8
HATCH
100
AcDbLine
 10
9453.765052686932
 20
3191.084839420268
 30
0.0
 11
9527.665887143198
 21
3319.084839420261
 31
0.0
  0
LINE
  5
1A4BF
330
19EB5
100
AcDbEntity
  8
HATCH
100
AcDbLine
 10
9489.265887143199
 20
3319.084839420259
 30
0.0
 11
9508.465887143202
 21
3285.829463914943
 31
0.0
  0
LINE
  5
1A4C0
330
19EB5
100
AcDbEntity
  8
HATCH
100
AcDbLine
 10
9741.765052686934
 20
3191.084839420268
 30
0.0
 11
9815.665887143204
 21
3319.084839420261
 31
0.0
  0
LINE
  5
1A4C1
330
19EB5
100
AcDbEntity
  8
HATCH
100
AcDbLine
 10
9777.265887143206
 20
3319.084839420259
 30
0.0
 11
9796.465887143202
 21
3285.829463914943
 31
0.0
  0
LINE
  5
1A4C2
330
19EB5
100
AcDbEntity
  8
HATCH
100
AcDbLine
 10
9597.765052688851
 20
3191.084839420887
 30
0.0
 11
9671.66588714514
 21
3319.084839420916
 31
0.0
  0
LINE
  5
1A4C3
330
19EB5
100
AcDbEntity
  8
HATCH
100
AcDbLine
 10
9633.265887145132
 20
3319.084839420915
 30
0.0
 11
9652.465887145137
 21
3285.829463915587
 31
0.0
  0
LINE
  5
1A4C4
330
19EB5
100
AcDbEntity
  8
HATCH
100
AcDbLine
 10
9741.765052688851
 20
3191.084839420887
 30
0.0
 11
9815.66588714514
 21
3319.084839420916
 31
0.0
  0
LINE
  5
1A4C5
330
19EB5
100
AcDbEntity
  8
HATCH
100
AcDbLine
 10
9777.265887145132
 20
3319.084839420915
 30
0.0
 11
9796.465887145137
 21
3285.829463915587
 31
0.0
  0
LINE
  5
1A4C6
330
19EB5
100
AcDbEntity
  8
HATCH
100
AcDbLine
 10
9453.765052688849
 20
3191.084839420887
 30
0.0
 11
9527.66588714514
 21
3319.084839420916
 31
0.0
  0
LINE
  5
1A4C7
330
19EB5
100
AcDbEntity
  8
HATCH
100
AcDbLine
 10
9489.265887145132
 20
3319.084839420915
 30
0.0
 11
9508.465887145135
 21
3285.829463915587
 31
0.0
  0
LINE
  5
1A4C8
330
19EB5
100
AcDbEntity
  8
HATCH
100
AcDbLine
 10
9309.765052688851
 20
3191.084839420887
 30
0.0
 11
9383.66588714514
 21
3319.084839420916
 31
0.0
  0
LINE
  5
1A4C9
330
19EB5
100
AcDbEntity
  8
HATCH
100
AcDbLine
 10
9345.265887145131
 20
3319.084839420915
 30
0.0
 11
9364.465887145135
 21
3285.829463915587
 31
0.0
  0
LINE
  5
1A4CA
330
19EB5
100
AcDbEntity
  8
HATCH
100
AcDbLine
 10
5385.438852163286
 20
3191.084839420224
 30
0.0
 11
5459.339686619554
 21
3319.084839420217
 31
0.0
  0
LINE
  5
1A4CB
330
19EB5
100
AcDbEntity
  8
HATCH
100
AcDbLine
 10
5420.939686619557
 20
3319.084839420217
 30
0.0
 11
5440.139686619557
 21
3285.829463914899
 31
0.0
  0
LINE
  5
1A4CC
330
19EB5
100
AcDbEntity
  8
HATCH
100
AcDbLine
 10
5817.438852163286
 20
3191.084839420224
 30
0.0
 11
5891.339686619555
 21
3319.084839420217
 31
0.0
  0
LINE
  5
1A4CD
330
19EB5
100
AcDbEntity
  8
HATCH
100
AcDbLine
 10
5852.939686619555
 20
3319.084839420217
 30
0.0
 11
5872.139686619554
 21
3285.829463914899
 31
0.0
  0
LINE
  5
1A4CE
330
19EB5
100
AcDbEntity
  8
HATCH
100
AcDbLine
 10
5529.438852163288
 20
3191.084839420224
 30
0.0
 11
5603.339686619555
 21
3319.084839420217
 31
0.0
  0
LINE
  5
1A4CF
330
19EB5
100
AcDbEntity
  8
HATCH
100
AcDbLine
 10
5564.939686619556
 20
3319.084839420217
 30
0.0
 11
5584.139686619558
 21
3285.829463914899
 31
0.0
  0
LINE
  5
1A4D0
330
19EB5
100
AcDbEntity
  8
HATCH
100
AcDbLine
 10
5673.438852163286
 20
3191.084839420224
 30
0.0
 11
5747.339686619554
 21
3319.084839420217
 31
0.0
  0
LINE
  5
1A4D1
330
19EB5
100
AcDbEntity
  8
HATCH
100
AcDbLine
 10
5708.939686619555
 20
3319.084839420217
 30
0.0
 11
5728.139686619557
 21
3285.829463914899
 31
0.0
  0
LINE
  5
1A4D2
330
19EB5
100
AcDbEntity
  8
HATCH
100
AcDbLine
 10
5961.438852163286
 20
3191.084839420224
 30
0.0
 11
6035.339686619554
 21
3319.084839420217
 31
0.0
  0
LINE
  5
1A4D3
330
19EB5
100
AcDbEntity
  8
HATCH
100
AcDbLine
 10
5996.939686619557
 20
3319.084839420217
 30
0.0
 11
6016.139686619557
 21
3285.829463914899
 31
0.0
  0
LINE
  5
1A4D4
330
19EB5
100
AcDbEntity
  8
HATCH
100
AcDbLine
 10
7434.222417332896
 20
3191.084839420305
 30
0.0
 11
7415.022417332895
 21
3224.340214925621
 31
0.0
  0
LINE
  5
1A4D5
330
19EB5
100
AcDbEntity
  8
HATCH
100
AcDbLine
 10
7434.222417334821
 20
3191.084839420923
 30
0.0
 11
7415.022417334819
 21
3224.34021492625
 31
0.0
  0
LINE
  5
1A4D6
330
19EB5
100
AcDbEntity
  8
HATCH
100
AcDbLine
 10
7722.222417332893
 20
3191.084839419027
 30
0.0
 11
7703.022417332895
 21
3224.340214924346
 31
0.0
  0
LINE
  5
1A4D7
330
19EB5
100
AcDbEntity
  8
HATCH
100
AcDbLine
 10
7866.222417332894
 20
3191.084839419027
 30
0.0
 11
7847.022417332894
 21
3224.340214924346
 31
0.0
  0
LINE
  5
1A4D8
330
19EB5
100
AcDbEntity
  8
HATCH
100
AcDbLine
 10
7722.222417334821
 20
3191.084839419646
 30
0.0
 11
7703.02241733482
 21
3224.340214924974
 31
0.0
  0
LINE
  5
1A4D9
330
19EB5
100
AcDbEntity
  8
HATCH
100
AcDbLine
 10
7866.222417334822
 20
3191.084839419646
 30
0.0
 11
7847.022417334817
 21
3224.340214924974
 31
0.0
  0
LINE
  5
1A4DA
330
19EB5
100
AcDbEntity
  8
HATCH
100
AcDbLine
 10
9636.165052686925
 20
3191.084839420268
 30
0.0
 11
9616.965052686927
 21
3224.340214925586
 31
0.0
  0
LINE
  5
1A4DB
330
19EB5
100
AcDbEntity
  8
HATCH
100
AcDbLine
 10
9348.16505268693
 20
3191.084839420268
 30
0.0
 11
9328.965052686926
 21
3224.340214925586
 31
0.0
  0
LINE
  5
1A4DC
330
19EB5
100
AcDbEntity
  8
HATCH
100
AcDbLine
 10
9492.165052686925
 20
3191.084839420268
 30
0.0
 11
9472.965052686927
 21
3224.340214925586
 31
0.0
  0
LINE
  5
1A4DD
330
19EB5
100
AcDbEntity
  8
HATCH
100
AcDbLine
 10
9780.165052686927
 20
3191.084839420268
 30
0.0
 11
9760.965052686927
 21
3224.340214925586
 31
0.0
  0
LINE
  5
1A4DE
330
19EB5
100
AcDbEntity
  8
HATCH
100
AcDbLine
 10
9636.165052688857
 20
3191.084839420887
 30
0.0
 11
9616.965052688854
 21
3224.340214926215
 31
0.0
  0
LINE
  5
1A4DF
330
19EB5
100
AcDbEntity
  8
HATCH
100
AcDbLine
 10
9780.165052688857
 20
3191.084839420887
 30
0.0
 11
9760.965052688852
 21
3224.340214926215
 31
0.0
  0
LINE
  5
1A4E0
330
19EB5
100
AcDbEntity
  8
HATCH
100
AcDbLine
 10
9492.165052688857
 20
3191.084839420887
 30
0.0
 11
9472.965052688854
 21
3224.340214926215
 31
0.0
  0
LINE
  5
1A4E1
330
19EB5
100
AcDbEntity
  8
HATCH
100
AcDbLine
 10
9348.165052688857
 20
3191.084839420887
 30
0.0
 11
9328.965052688852
 21
3224.340214926215
 31
0.0
  0
LINE
  5
1A4E2
330
19EB5
100
AcDbEntity
  8
TENSEN-1
100
AcDbLine
 10
8756.123251791107
 20
2869.484839419598
 30
0.0
 11
8702.523251791111
 21
2869.484839419598
 31
0.0
  0
LINE
  5
1A4E3
330
19EB5
100
AcDbEntity
  8
TENSEN-1
100
AcDbLine
 10
8702.523251791111
 20
2869.484839419598
 30
0.0
 11
8702.523251791111
 21
3360.6848394196
 31
0.0
  0
LINE
  5
1A4E4
330
19EB5
100
AcDbEntity
  8
TENSEN-1
100
AcDbLine
 10
8702.523251791111
 20
3360.6848394196
 30
0.0
 11
8681.72325179111
 21
3360.6848394196
 31
0.0
  0
LINE
  5
1A4E5
330
19EB5
100
AcDbEntity
  8
TENSEN-1
100
AcDbLine
 10
8681.72325179111
 20
3360.6848394196
 30
0.0
 11
8681.723251791105
 21
2848.6848394196
 31
0.0
  0
LINE
  5
1A4E6
330
19EB5
100
AcDbEntity
  8
TENSEN-1
100
AcDbLine
 10
8681.723251791105
 20
2848.6848394196
 30
0.0
 11
8756.123251791107
 21
2848.6848394196
 31
0.0
  0
LINE
  5
1A4E7
330
19EB5
100
AcDbEntity
  8
TENSEN-1
100
AcDbLine
 10
8756.123251791107
 20
2848.6848394196
 30
0.0
 11
8756.123251791107
 21
2869.484839419598
 31
0.0
  0
LINE
  5
1A4E8
330
19EB5
100
AcDbEntity
  8
TENSEN-1
100
AcDbLine
 10
8404.12325179111
 20
2869.484839419603
 30
0.0
 11
8457.723251791113
 21
2869.484839419603
 31
0.0
  0
LINE
  5
1A4E9
330
19EB5
100
AcDbEntity
  8
TENSEN-1
100
AcDbLine
 10
8457.723251791113
 20
2869.484839419603
 30
0.0
 11
8457.723251791113
 21
3360.684839419604
 31
0.0
  0
LINE
  5
1A4EA
330
19EB5
100
AcDbEntity
  8
TENSEN-1
100
AcDbLine
 10
8457.723251791113
 20
3360.684839419604
 30
0.0
 11
8478.523251791115
 21
3360.684839419604
 31
0.0
  0
LINE
  5
1A4EB
330
19EB5
100
AcDbEntity
  8
TENSEN-1
100
AcDbLine
 10
8478.523251791115
 20
3360.684839419604
 30
0.0
 11
8478.523251791115
 21
2848.684839419603
 31
0.0
  0
LINE
  5
1A4EC
330
19EB5
100
AcDbEntity
  8
TENSEN-1
100
AcDbLine
 10
8478.523251791115
 20
2848.684839419603
 30
0.0
 11
8404.12325179111
 21
2848.684839419603
 31
0.0
  0
LINE
  5
1A4ED
330
19EB5
100
AcDbEntity
  8
TENSEN-1
100
AcDbLine
 10
8404.12325179111
 20
2848.684839419603
 30
0.0
 11
8404.12325179111
 21
2869.484839419603
 31
0.0
  0
LINE
  5
1A4EE
330
19EB5
100
AcDbEntity
  8
HASHIRA
100
AcDbLine
 10
8436.12325179111
 20
3319.084839419598
 30
0.0
 11
8724.123251791107
 21
3319.084839419603
 31
0.0
  0
LINE
  5
1A4EF
330
19EB5
100
AcDbEntity
  8
HASHIRA
100
AcDbLine
 10
8724.123251791107
 20
3319.084839419603
 30
0.0
 11
8724.123251791107
 21
3333.484839419603
 31
0.0
  0
LINE
  5
1A4F0
330
19EB5
100
AcDbEntity
  8
HASHIRA
100
AcDbLine
 10
8724.123251791107
 20
3333.484839419603
 30
0.0
 11
8436.12325179111
 21
3333.484839419599
 31
0.0
  0
LINE
  5
1A4F1
330
19EB5
100
AcDbEntity
  8
HASHIRA
100
AcDbLine
 10
8436.12325179111
 20
3333.484839419599
 30
0.0
 11
8436.12325179111
 21
3319.084839419598
 31
0.0
  0
LINE
  5
1A4F2
330
19EB5
100
AcDbEntity
  8
BOLT
100
AcDbLine
 10
8593.723251791109
 20
3362.2848394196
 30
0.0
 11
8593.723251791109
 21
3370.136803080576
 31
0.0
  0
LINE
  5
1A4F3
330
19EB5
100
AcDbEntity
  8
BOLT
100
AcDbLine
 10
8593.723251791109
 20
3370.136803080576
 30
0.0
 11
8580.123251791111
 21
3377.988766741558
 31
0.0
  0
LINE
  5
1A4F4
330
19EB5
100
AcDbEntity
  8
BOLT
100
AcDbLine
 10
8580.123251791111
 20
3377.988766741558
 30
0.0
 11
8566.523251791107
 21
3370.136803080576
 31
0.0
  0
LINE
  5
1A4F5
330
19EB5
100
AcDbEntity
  8
BOLT
100
AcDbLine
 10
8566.523251791107
 20
3370.136803080576
 30
0.0
 11
8566.523251791107
 21
3362.2848394196
 31
0.0
  0
LINE
  5
1A4F6
330
19EB5
100
AcDbEntity
  8
BOLT
100
AcDbLine
 10
8566.523251791107
 20
3362.2848394196
 30
0.0
 11
8566.523251791107
 21
3354.432875758621
 31
0.0
  0
LINE
  5
1A4F7
330
19EB5
100
AcDbEntity
  8
BOLT
100
AcDbLine
 10
8566.523251791107
 20
3354.432875758621
 30
0.0
 11
8580.123251791111
 21
3346.580912097639
 31
0.0
  0
LINE
  5
1A4F8
330
19EB5
100
AcDbEntity
  8
BOLT
100
AcDbLine
 10
8580.123251791111
 20
3346.580912097639
 30
0.0
 11
8593.723251791109
 21
3354.432875758621
 31
0.0
  0
LINE
  5
1A4F9
330
19EB5
100
AcDbEntity
  8
BOLT
100
AcDbLine
 10
8593.723251791109
 20
3354.432875758621
 30
0.0
 11
8593.723251791109
 21
3362.2848394196
 31
0.0
  0
LINE
  5
1A4FA
330
19EB5
100
AcDbEntity
  8
BOLT
100
AcDbLine
 10
8593.723251791109
 20
3426.2848394196
 30
0.0
 11
8593.723251791109
 21
3434.136803080576
 31
0.0
  0
LINE
  5
1A4FB
330
19EB5
100
AcDbEntity
  8
BOLT
100
AcDbLine
 10
8593.723251791109
 20
3434.136803080576
 30
0.0
 11
8580.123251791111
 21
3441.988766741558
 31
0.0
  0
LINE
  5
1A4FC
330
19EB5
100
AcDbEntity
  8
BOLT
100
AcDbLine
 10
8580.123251791111
 20
3441.988766741558
 30
0.0
 11
8566.523251791107
 21
3434.136803080576
 31
0.0
  0
LINE
  5
1A4FD
330
19EB5
100
AcDbEntity
  8
BOLT
100
AcDbLine
 10
8566.523251791107
 20
3434.136803080576
 30
0.0
 11
8566.523251791107
 21
3426.2848394196
 31
0.0
  0
LINE
  5
1A4FE
330
19EB5
100
AcDbEntity
  8
BOLT
100
AcDbLine
 10
8566.523251791107
 20
3426.2848394196
 30
0.0
 11
8566.523251791107
 21
3418.432875758621
 31
0.0
  0
LINE
  5
1A4FF
330
19EB5
100
AcDbEntity
  8
BOLT
100
AcDbLine
 10
8566.523251791107
 20
3418.432875758621
 30
0.0
 11
8580.123251791111
 21
3410.580912097639
 31
0.0
  0
LINE
  5
1A500
330
19EB5
100
AcDbEntity
  8
BOLT
100
AcDbLine
 10
8580.123251791111
 20
3410.580912097639
 30
0.0
 11
8593.723251791109
 21
3418.432875758621
 31
0.0
  0
LINE
  5
1A501
330
19EB5
100
AcDbEntity
  8
BOLT
100
AcDbLine
 10
8593.723251791109
 20
3418.432875758621
 30
0.0
 11
8593.723251791109
 21
3426.2848394196
 31
0.0
  0
LINE
  5
1A502
330
19EB5
100
AcDbEntity
  8
KISO
100
AcDbLine
 10
8124.217031986061
 20
5395.715360473253
 30
0.0
 11
4334.217031986058
 21
5395.715360473253
 31
0.0
  0
LINE
  5
1A503
330
19EB5
100
AcDbEntity
  8
KISO
100
AcDbLine
 10
4334.217031986058
 20
5395.715360473253
 30
0.0
 11
4334.217031986058
 21
9595.715360473253
 31
0.0
  0
LINE
  5
1A504
330
19EB5
100
AcDbEntity
  8
KISO
100
AcDbLine
 10
4334.217031986058
 20
9595.715360473253
 30
0.0
 11
8124.217031986061
 21
9595.715360473253
 31
0.0
  0
LINE
  5
1A505
330
19EB5
100
AcDbEntity
  8
KISO
100
AcDbLine
 10
8244.217031986062
 20
9595.715360473253
 30
0.0
 11
12034.21703198606
 21
9595.715360473253
 31
0.0
  0
LINE
  5
1A506
330
19EB5
100
AcDbEntity
  8
KISO
100
AcDbLine
 10
12034.21703198606
 20
9595.715360473253
 30
0.0
 11
12034.21703198606
 21
5395.715360473253
 31
0.0
  0
LINE
  5
1A507
330
19EB5
100
AcDbEntity
  8
KISO
100
AcDbLine
 10
12034.21703198606
 20
5395.715360473253
 30
0.0
 11
8244.217031986062
 21
5395.715360473253
 31
0.0
  0
LINE
  5
1A508
330
19EB5
100
AcDbEntity
  8
U1
100
AcDbLine
 10
11391.33837406208
 20
2550.144344053149
 30
0.0
 11
11691.33837406209
 21
2550.144344053149
 31
0.0
  0
LINE
  5
1A509
330
19EB5
100
AcDbEntity
  8
U1
100
AcDbLine
 10
11691.33837406209
 20
2550.144344053149
 30
0.0
 11
11691.33837406209
 21
2850.144344053148
 31
0.0
  0
LINE
  5
1A50A
330
19EB5
100
AcDbEntity
  8
U1
100
AcDbLine
 10
11691.33837406209
 20
2850.144344053148
 30
0.0
 11
11391.33837406208
 21
2850.144344053148
 31
0.0
  0
LINE
  5
1A50B
330
19EB5
100
AcDbEntity
  8
U1
100
AcDbLine
 10
11391.33837406208
 20
2850.144344053148
 30
0.0
 11
11391.33837406208
 21
2550.144344053149
 31
0.0
  0
LINE
  5
1A50C
330
19EB5
100
AcDbEntity
  8
U1
100
AcDbLine
 10
11221.33837406209
 20
2540.144344053149
 30
0.0
 11
11861.33837406209
 21
2540.144344053149
 31
0.0
  0
LINE
  5
1A50D
330
19EB5
100
AcDbEntity
  8
U1
100
AcDbLine
 10
11861.33837406209
 20
2540.144344053149
 30
0.0
 11
11861.33837406209
 21
2860.144344053149
 31
0.0
  0
LINE
  5
1A50E
330
19EB5
100
AcDbEntity
  8
U1
100
AcDbLine
 10
11861.33837406209
 20
2860.144344053149
 30
0.0
 11
11221.33837406209
 21
2860.144344053149
 31
0.0
  0
LINE
  5
1A50F
330
19EB5
100
AcDbEntity
  8
U1
100
AcDbLine
 10
11221.33837406209
 20
2860.144344053149
 30
0.0
 11
11221.33837406209
 21
2540.144344053149
 31
0.0
  0
LINE
  5
1A510
330
19EB5
100
AcDbEntity
  8
U1
100
AcDbLine
 10
11221.33837406209
 20
3618.337036584561
 30
0.0
 11
11861.33837406209
 21
3618.337036584561
 31
0.0
  0
LINE
  5
1A511
330
19EB5
100
AcDbEntity
  8
U1
100
AcDbLine
 10
11861.33837406209
 20
3618.337036584561
 30
0.0
 11
11861.33837406209
 21
3642.337036584561
 31
0.0
  0
LINE
  5
1A512
330
19EB5
100
AcDbEntity
  8
U1
100
AcDbLine
 10
11861.33837406209
 20
3642.337036584561
 30
0.0
 11
11221.33837406209
 21
3642.337036584561
 31
0.0
  0
LINE
  5
1A513
330
19EB5
100
AcDbEntity
  8
U1
100
AcDbLine
 10
11221.33837406209
 20
3642.337036584561
 30
0.0
 11
11221.33837406209
 21
3618.337036584561
 31
0.0
  0
LINE
  5
1A514
330
19EB5
100
AcDbEntity
  8
KISO
100
AcDbLine
 10
7134.21703198606
 20
7095.715360473253
 30
0.0
 11
7934.21703198606
 21
7095.715360473253
 31
0.0
  0
LINE
  5
1A515
330
19EB5
100
AcDbEntity
  8
KISO
100
AcDbLine
 10
7934.21703198606
 20
7095.715360473253
 30
0.0
 11
7934.21703198606
 21
7895.715360473253
 31
0.0
  0
LINE
  5
1A516
330
19EB5
100
AcDbEntity
  8
KISO
100
AcDbLine
 10
7934.21703198606
 20
7895.715360473253
 30
0.0
 11
7134.21703198606
 21
7895.715360473253
 31
0.0
  0
LINE
  5
1A517
330
19EB5
100
AcDbEntity
  8
KISO
100
AcDbLine
 10
7134.21703198606
 20
7895.715360473253
 30
0.0
 11
7134.21703198606
 21
7095.715360473253
 31
0.0
  0
LINE
  5
1A518
330
19EB5
100
AcDbEntity
  8
KISO
100
AcDbLine
 10
4334.217031986058
 20
7095.715360473253
 30
0.0
 11
5134.21703198606
 21
7095.715360473253
 31
0.0
  0
LINE
  5
1A519
330
19EB5
100
AcDbEntity
  8
KISO
100
AcDbLine
 10
5134.21703198606
 20
7095.715360473253
 30
0.0
 11
5134.21703198606
 21
7895.715360473253
 31
0.0
  0
LINE
  5
1A51A
330
19EB5
100
AcDbEntity
  8
KISO
100
AcDbLine
 10
5134.21703198606
 20
7895.715360473253
 30
0.0
 11
4334.217031986058
 21
7895.715360473253
 31
0.0
  0
LINE
  5
1A51B
330
19EB5
100
AcDbEntity
  8
KISO
100
AcDbLine
 10
4334.217031986058
 20
7895.715360473253
 30
0.0
 11
4334.217031986058
 21
7095.715360473253
 31
0.0
  0
LINE
  5
1A51C
330
19EB5
100
AcDbEntity
  8
KISO
100
AcDbLine
 10
11234.21703198606
 20
7095.715360473253
 30
0.0
 11
12034.21703198606
 21
7095.715360473253
 31
0.0
  0
LINE
  5
1A51D
330
19EB5
100
AcDbEntity
  8
KISO
100
AcDbLine
 10
12034.21703198606
 20
7095.715360473253
 30
0.0
 11
12034.21703198606
 21
7895.715360473253
 31
0.0
  0
LINE
  5
1A51E
330
19EB5
100
AcDbEntity
  8
KISO
100
AcDbLine
 10
12034.21703198606
 20
7895.715360473253
 30
0.0
 11
11234.21703198606
 21
7895.715360473253
 31
0.0
  0
LINE
  5
1A51F
330
19EB5
100
AcDbEntity
  8
KISO
100
AcDbLine
 10
11234.21703198606
 20
7895.715360473253
 30
0.0
 11
11234.21703198606
 21
7095.715360473253
 31
0.0
  0
LINE
  5
1A520
330
19EB5
100
AcDbEntity
  8
KISO
100
AcDbLine
 10
8434.21703198606
 20
7095.715360473253
 30
0.0
 11
9234.217031986061
 21
7095.715360473253
 31
0.0
  0
LINE
  5
1A521
330
19EB5
100
AcDbEntity
  8
KISO
100
AcDbLine
 10
9234.217031986061
 20
7095.715360473253
 30
0.0
 11
9234.217031986061
 21
7895.715360473253
 31
0.0
  0
LINE
  5
1A522
330
19EB5
100
AcDbEntity
  8
KISO
100
AcDbLine
 10
9234.217031986061
 20
7895.715360473253
 30
0.0
 11
8434.21703198606
 21
7895.715360473253
 31
0.0
  0
LINE
  5
1A523
330
19EB5
100
AcDbEntity
  8
KISO
100
AcDbLine
 10
8434.21703198606
 20
7895.715360473253
 30
0.0
 11
8434.21703198606
 21
7095.715360473253
 31
0.0
  0
LINE
  5
1A524
330
19EB5
100
AcDbEntity
  8
KISO
100
AcDbLine
 10
4159.797051267463
 20
2551.084839419605
 30
0.0
 11
5439.797051267463
 21
2551.084839419605
 31
0.0
  0
LINE
  5
1A525
330
19EB5
100
AcDbEntity
  8
KISO
100
AcDbLine
 10
5439.797051267463
 20
2551.084839419605
 30
0.0
 11
5439.797051267463
 21
2711.084839419605
 31
0.0
  0
LINE
  5
1A526
330
19EB5
100
AcDbEntity
  8
KISO
100
AcDbLine
 10
5439.797051267463
 20
2711.084839419605
 30
0.0
 11
4159.797051267463
 21
2711.084839419605
 31
0.0
  0
LINE
  5
1A527
330
19EB5
100
AcDbEntity
  8
KISO
100
AcDbLine
 10
4159.797051267463
 20
2711.084839419605
 30
0.0
 11
4159.797051267463
 21
2551.084839419605
 31
0.0
  0
LINE
  5
1A528
330
19EB5
100
AcDbEntity
  8
HATCH
100
AcDbLine
 10
5423.83885216328
 20
3191.084839420225
 30
0.0
 11
5404.63885216328
 21
3224.340214925542
 31
0.0
  0
LINE
  5
1A529
330
19EB5
100
AcDbEntity
  8
HATCH
100
AcDbLine
 10
5855.83885216328
 20
3191.084839420225
 30
0.0
 11
5836.638852163281
 21
3224.340214925542
 31
0.0
  0
LINE
  5
1A52A
330
19EB5
100
AcDbEntity
  8
HATCH
100
AcDbLine
 10
5567.83885216328
 20
3191.084839420225
 30
0.0
 11
5548.638852163282
 21
3224.340214925542
 31
0.0
  0
LINE
  5
1A52B
330
19EB5
100
AcDbEntity
  8
HATCH
100
AcDbLine
 10
5711.838852163278
 20
3191.084839420225
 30
0.0
 11
5692.63885216328
 21
3224.340214925542
 31
0.0
  0
LINE
  5
1A52C
330
19EB5
100
AcDbEntity
  8
HATCH
100
AcDbLine
 10
5999.838852163279
 20
3191.084839420225
 30
0.0
 11
5980.638852163282
 21
3224.340214925542
 31
0.0
  0
LINE
  5
1A52D
330
19EB5
100
AcDbEntity
  8
HASHIRA
100
AcDbLine
 10
4735.797051267462
 20
3319.084839419608
 30
0.0
 11
4863.797051267464
 21
3319.084839419608
 31
0.0
  0
LINE
  5
1A52E
330
19EB5
100
AcDbEntity
  8
HASHIRA
100
AcDbLine
 10
4863.797051267464
 20
3319.084839419608
 30
0.0
 11
4863.797051267464
 21
3328.684839419608
 31
0.0
  0
LINE
  5
1A52F
330
19EB5
100
AcDbEntity
  8
HASHIRA
100
AcDbLine
 10
4863.797051267464
 20
3328.684839419608
 30
0.0
 11
4735.797051267462
 21
3328.684839419608
 31
0.0
  0
LINE
  5
1A530
330
19EB5
100
AcDbEntity
  8
HASHIRA
100
AcDbLine
 10
4735.797051267462
 20
3328.684839419608
 30
0.0
 11
4735.797051267462
 21
3319.084839419608
 31
0.0
  0
LINE
  5
1A531
330
19EB5
100
AcDbEntity
  8
TENSEN-1
100
AcDbLine
 10
4735.797051267462
 20
2869.484839419608
 30
0.0
 11
4789.397051267463
 21
2869.484839419608
 31
0.0
  0
LINE
  5
1A532
330
19EB5
100
AcDbEntity
  8
TENSEN-1
100
AcDbLine
 10
4789.397051267463
 20
2869.484839419608
 30
0.0
 11
4789.397051267463
 21
3360.684839419608
 31
0.0
  0
LINE
  5
1A533
330
19EB5
100
AcDbEntity
  8
TENSEN-1
100
AcDbLine
 10
4789.397051267463
 20
3360.684839419608
 30
0.0
 11
4810.197051267465
 21
3360.684839419608
 31
0.0
  0
LINE
  5
1A534
330
19EB5
100
AcDbEntity
  8
TENSEN-1
100
AcDbLine
 10
4810.197051267465
 20
3360.684839419608
 30
0.0
 11
4810.197051267465
 21
2848.684839419608
 31
0.0
  0
LINE
  5
1A535
330
19EB5
100
AcDbEntity
  8
TENSEN-1
100
AcDbLine
 10
4810.197051267465
 20
2848.684839419608
 30
0.0
 11
4735.797051267462
 21
2848.684839419608
 31
0.0
  0
LINE
  5
1A536
330
19EB5
100
AcDbEntity
  8
TENSEN-1
100
AcDbLine
 10
4735.797051267462
 20
2848.684839419608
 30
0.0
 11
4735.797051267462
 21
2869.484839419608
 31
0.0
  0
LINE
  5
1A537
330
19EB5
100
AcDbEntity
  8
U1
100
AcDbLine
 10
11640.41703198606
 20
9325.915360473253
 30
0.0
 11
11608.01703198605
 21
9325.915360473253
 31
0.0
  0
LINE
  5
1A538
330
19EB5
100
AcDbEntity
  8
U1
100
AcDbLine
 10
11608.01703198605
 20
9265.515360473251
 30
0.0
 11
11660.41703198606
 21
9265.515360473251
 31
0.0
  0
ARC
  5
1A539
330
19EB5
100
AcDbEntity
  8
U1
100
AcDbCircle
 10
11608.01703198605
 20
9269.515360473251
 30
0.0
 40
4.0
100
AcDbArc
 50
180.0
 51
270.0
  0
ARC
  5
1A53A
330
19EB5
100
AcDbEntity
  8
U1
100
AcDbCircle
 10
11608.01703198605
 20
9321.915360473253
 30
0.0
 40
4.0
100
AcDbArc
 50
90.0
 51
180.0
  0
LINE
  5
1A53B
330
19EB5
100
AcDbEntity
  8
U1
100
AcDbLine
 10
11604.01703198606
 20
9321.915360473253
 30
0.0
 11
11604.01703198606
 21
9269.515360473251
 31
0.0
  0
ARC
  5
1A53C
330
19EB5
100
AcDbEntity
  8
U1
100
AcDbCircle
 10
11660.41703198606
 20
9269.515360473251
 30
0.0
 40
4.0
100
AcDbArc
 50
270.0
 51
0.0
  0
ARC
  5
1A53D
330
19EB5
100
AcDbEntity
  8
U1
100
AcDbCircle
 10
11640.41703198606
 20
9321.915360473253
 30
0.0
 40
4.0
100
AcDbArc
 50
0.0
 51
90.0
  0
ARC
  5
1A53E
330
19EB5
100
AcDbEntity
  8
U1
100
AcDbCircle
 10
11647.86703198605
 20
9312.665360473252
 30
0.0
 40
1.149999999999977
100
AcDbArc
 50
180.0
 51
0.0
  0
LINE
  5
1A53F
330
19EB5
100
AcDbEntity
  8
U1
100
AcDbLine
 10
11651.31703198606
 20
9320.215360473252
 30
0.0
 11
11651.31703198606
 21
9312.665360473252
 31
0.0
  0
LINE
  5
1A540
330
19EB5
100
AcDbEntity
  8
U1
100
AcDbLine
 10
11649.01703198605
 20
9320.215360473252
 30
0.0
 11
11651.31703198606
 21
9320.215360473252
 31
0.0
  0
LINE
  5
1A541
330
19EB5
100
AcDbEntity
  8
U1
100
AcDbLine
 10
11646.71703198606
 20
9313.215360473252
 30
0.0
 11
11649.01703198605
 21
9313.215360473252
 31
0.0
  0
ARC
  5
1A542
330
19EB5
100
AcDbEntity
  8
U1
100
AcDbCircle
 10
11647.86703198605
 20
9312.665360473252
 30
0.0
 40
3.450000000000044
100
AcDbArc
 50
180.0
 51
0.0
  0
LINE
  5
1A543
330
19EB5
100
AcDbEntity
  8
U1
100
AcDbLine
 10
11646.71703198606
 20
9312.665360473252
 30
0.0
 11
11646.71703198606
 21
9321.915360473253
 31
0.0
  0
LINE
  5
1A544
330
19EB5
100
AcDbEntity
  8
U1
100
AcDbLine
 10
11649.01703198605
 20
9321.915360473253
 30
0.0
 11
11649.01703198605
 21
9312.665360473252
 31
0.0
  0
LINE
  5
1A545
330
19EB5
100
AcDbEntity
  8
U1
100
AcDbLine
 10
11644.41703198606
 20
9312.665360473252
 30
0.0
 11
11644.41703198606
 21
9321.915360473253
 31
0.0
  0
ARC
  5
1A546
330
19EB5
100
AcDbEntity
  8
U1
100
AcDbCircle
 10
11660.41703198606
 20
9321.915360473253
 30
0.0
 40
4.0
100
AcDbArc
 50
0.0
 51
90.0
  0
LINE
  5
1A547
330
19EB5
100
AcDbEntity
  8
U1
100
AcDbLine
 10
11660.41703198606
 20
9325.915360473253
 30
0.0
 11
11653.01703198605
 21
9325.915360473253
 31
0.0
  0
ARC
  5
1A548
330
19EB5
100
AcDbEntity
  8
U1
100
AcDbCircle
 10
11653.01703198605
 20
9321.915360473253
 30
0.0
 40
4.0
100
AcDbArc
 50
90.0
 51
180.0
  0
LINE
  5
1A549
330
19EB5
100
AcDbEntity
  8
U1
100
AcDbLine
 10
11664.41703198606
 20
9269.515360473251
 30
0.0
 11
11664.41703198606
 21
9321.915360473253
 31
0.0
  0
LINE
  5
1A54A
330
19EB5
100
AcDbEntity
  8
U1
100
AcDbLine
 10
11640.41703198606
 20
7525.915360473252
 30
0.0
 11
11608.01703198605
 21
7525.915360473252
 31
0.0
  0
LINE
  5
1A54B
330
19EB5
100
AcDbEntity
  8
U1
100
AcDbLine
 10
11608.01703198605
 20
7465.515360473251
 30
0.0
 11
11660.41703198606
 21
7465.515360473251
 31
0.0
  0
ARC
  5
1A54C
330
19EB5
100
AcDbEntity
  8
U1
100
AcDbCircle
 10
11608.01703198605
 20
7469.515360473251
 30
0.0
 40
4.0
100
AcDbArc
 50
180.0
 51
270.0
  0
ARC
  5
1A54D
330
19EB5
100
AcDbEntity
  8
U1
100
AcDbCircle
 10
11608.01703198605
 20
7521.915360473252
 30
0.0
 40
4.0
100
AcDbArc
 50
90.0
 51
180.0
  0
LINE
  5
1A54E
330
19EB5
100
AcDbEntity
  8
U1
100
AcDbLine
 10
11604.01703198606
 20
7521.915360473252
 30
0.0
 11
11604.01703198606
 21
7469.515360473251
 31
0.0
  0
ARC
  5
1A54F
330
19EB5
100
AcDbEntity
  8
U1
100
AcDbCircle
 10
11660.41703198606
 20
7469.515360473251
 30
0.0
 40
4.0
100
AcDbArc
 50
270.0
 51
0.0
  0
ARC
  5
1A550
330
19EB5
100
AcDbEntity
  8
U1
100
AcDbCircle
 10
11640.41703198606
 20
7521.915360473252
 30
0.0
 40
4.0
100
AcDbArc
 50
0.0
 51
90.0
  0
ARC
  5
1A551
330
19EB5
100
AcDbEntity
  8
U1
100
AcDbCircle
 10
11647.86703198605
 20
7512.665360473251
 30
0.0
 40
1.149999999999977
100
AcDbArc
 50
180.0
 51
0.0
  0
LINE
  5
1A552
330
19EB5
100
AcDbEntity
  8
U1
100
AcDbLine
 10
11651.31703198606
 20
7520.215360473253
 30
0.0
 11
11651.31703198606
 21
7512.665360473251
 31
0.0
  0
LINE
  5
1A553
330
19EB5
100
AcDbEntity
  8
U1
100
AcDbLine
 10
11649.01703198605
 20
7520.215360473253
 30
0.0
 11
11651.31703198606
 21
7520.215360473253
 31
0.0
  0
LINE
  5
1A554
330
19EB5
100
AcDbEntity
  8
U1
100
AcDbLine
 10
11646.71703198606
 20
7513.215360473253
 30
0.0
 11
11649.01703198605
 21
7513.215360473253
 31
0.0
  0
ARC
  5
1A555
330
19EB5
100
AcDbEntity
  8
U1
100
AcDbCircle
 10
11647.86703198605
 20
7512.665360473251
 30
0.0
 40
3.450000000000044
100
AcDbArc
 50
180.0
 51
0.0
  0
LINE
  5
1A556
330
19EB5
100
AcDbEntity
  8
U1
100
AcDbLine
 10
11646.71703198606
 20
7512.665360473251
 30
0.0
 11
11646.71703198606
 21
7521.915360473252
 31
0.0
  0
LINE
  5
1A557
330
19EB5
100
AcDbEntity
  8
U1
100
AcDbLine
 10
11649.01703198605
 20
7521.915360473252
 30
0.0
 11
11649.01703198605
 21
7512.665360473251
 31
0.0
  0
LINE
  5
1A558
330
19EB5
100
AcDbEntity
  8
U1
100
AcDbLine
 10
11644.41703198606
 20
7512.665360473251
 30
0.0
 11
11644.41703198606
 21
7521.915360473252
 31
0.0
  0
ARC
  5
1A559
330
19EB5
100
AcDbEntity
  8
U1
100
AcDbCircle
 10
11660.41703198606
 20
7521.915360473252
 30
0.0
 40
4.0
100
AcDbArc
 50
0.0
 51
90.0
  0
LINE
  5
1A55A
330
19EB5
100
AcDbEntity
  8
U1
100
AcDbLine
 10
11660.41703198606
 20
7525.915360473252
 30
0.0
 11
11653.01703198605
 21
7525.915360473252
 31
0.0
  0
ARC
  5
1A55B
330
19EB5
100
AcDbEntity
  8
U1
100
AcDbCircle
 10
11653.01703198605
 20
7521.915360473252
 30
0.0
 40
4.0
100
AcDbArc
 50
90.0
 51
180.0
  0
LINE
  5
1A55C
330
19EB5
100
AcDbEntity
  8
U1
100
AcDbLine
 10
11664.41703198606
 20
7469.515360473251
 30
0.0
 11
11664.41703198606
 21
7521.915360473252
 31
0.0
  0
LINE
  5
1A55D
330
19EB5
100
AcDbEntity
  8
U1
100
AcDbLine
 10
11640.41703198606
 20
5725.915360473253
 30
0.0
 11
11608.01703198605
 21
5725.915360473253
 31
0.0
  0
LINE
  5
1A55E
330
19EB5
100
AcDbEntity
  8
U1
100
AcDbLine
 10
11608.01703198605
 20
5665.515360473253
 30
0.0
 11
11660.41703198606
 21
5665.515360473253
 31
0.0
  0
ARC
  5
1A55F
330
19EB5
100
AcDbEntity
  8
U1
100
AcDbCircle
 10
11608.01703198605
 20
5669.515360473252
 30
0.0
 40
4.0
100
AcDbArc
 50
180.0
 51
270.0
  0
ARC
  5
1A560
330
19EB5
100
AcDbEntity
  8
U1
100
AcDbCircle
 10
11608.01703198605
 20
5721.915360473253
 30
0.0
 40
4.0
100
AcDbArc
 50
90.0
 51
180.0
  0
LINE
  5
1A561
330
19EB5
100
AcDbEntity
  8
U1
100
AcDbLine
 10
11604.01703198606
 20
5721.915360473253
 30
0.0
 11
11604.01703198606
 21
5669.515360473252
 31
0.0
  0
ARC
  5
1A562
330
19EB5
100
AcDbEntity
  8
U1
100
AcDbCircle
 10
11660.41703198606
 20
5669.515360473252
 30
0.0
 40
4.0
100
AcDbArc
 50
270.0
 51
0.0
  0
ARC
  5
1A563
330
19EB5
100
AcDbEntity
  8
U1
100
AcDbCircle
 10
11640.41703198606
 20
5721.915360473253
 30
0.0
 40
4.0
100
AcDbArc
 50
0.0
 51
90.0
  0
ARC
  5
1A564
330
19EB5
100
AcDbEntity
  8
U1
100
AcDbCircle
 10
11647.86703198605
 20
5712.665360473253
 30
0.0
 40
1.149999999999977
100
AcDbArc
 50
180.0
 51
0.0
  0
LINE
  5
1A565
330
19EB5
100
AcDbEntity
  8
U1
100
AcDbLine
 10
11651.31703198606
 20
5720.215360473253
 30
0.0
 11
11651.31703198606
 21
5712.665360473253
 31
0.0
  0
LINE
  5
1A566
330
19EB5
100
AcDbEntity
  8
U1
100
AcDbLine
 10
11649.01703198605
 20
5720.215360473253
 30
0.0
 11
11651.31703198606
 21
5720.215360473253
 31
0.0
  0
LINE
  5
1A567
330
19EB5
100
AcDbEntity
  8
U1
100
AcDbLine
 10
11646.71703198606
 20
5713.215360473252
 30
0.0
 11
11649.01703198605
 21
5713.215360473252
 31
0.0
  0
ARC
  5
1A568
330
19EB5
100
AcDbEntity
  8
U1
100
AcDbCircle
 10
11647.86703198605
 20
5712.665360473253
 30
0.0
 40
3.450000000000044
100
AcDbArc
 50
180.0
 51
0.0
  0
LINE
  5
1A569
330
19EB5
100
AcDbEntity
  8
U1
100
AcDbLine
 10
11646.71703198606
 20
5712.665360473253
 30
0.0
 11
11646.71703198606
 21
5721.915360473252
 31
0.0
  0
LINE
  5
1A56A
330
19EB5
100
AcDbEntity
  8
U1
100
AcDbLine
 10
11649.01703198605
 20
5721.915360473253
 30
0.0
 11
11649.01703198605
 21
5712.665360473253
 31
0.0
  0
LINE
  5
1A56B
330
19EB5
100
AcDbEntity
  8
U1
100
AcDbLine
 10
11644.41703198606
 20
5712.665360473253
 30
0.0
 11
11644.41703198606
 21
5721.915360473253
 31
0.0
  0
ARC
  5
1A56C
330
19EB5
100
AcDbEntity
  8
U1
100
AcDbCircle
 10
11660.41703198606
 20
5721.915360473253
 30
0.0
 40
4.0
100
AcDbArc
 50
0.0
 51
90.0
  0
LINE
  5
1A56D
330
19EB5
100
AcDbEntity
  8
U1
100
AcDbLine
 10
11660.41703198606
 20
5725.915360473253
 30
0.0
 11
11653.01703198605
 21
5725.915360473253
 31
0.0
  0
ARC
  5
1A56E
330
19EB5
100
AcDbEntity
  8
U1
100
AcDbCircle
 10
11653.01703198605
 20
5721.915360473253
 30
0.0
 40
4.0
100
AcDbArc
 50
90.0
 51
180.0
  0
LINE
  5
1A56F
330
19EB5
100
AcDbEntity
  8
U1
100
AcDbLine
 10
11664.41703198606
 20
5669.515360473252
 30
0.0
 11
11664.41703198606
 21
5721.915360473253
 31
0.0
  0
LINE
  5
1A570
330
19EB5
100
AcDbEntity
  8
U1
100
AcDbLine
 10
8840.417031986062
 20
9325.915360473253
 30
0.0
 11
8808.017031986059
 21
9325.915360473253
 31
0.0
  0
LINE
  5
1A571
330
19EB5
100
AcDbEntity
  8
U1
100
AcDbLine
 10
8808.017031986059
 20
9265.515360473251
 30
0.0
 11
8860.41703198606
 21
9265.515360473251
 31
0.0
  0
ARC
  5
1A572
330
19EB5
100
AcDbEntity
  8
U1
100
AcDbCircle
 10
8808.017031986059
 20
9269.515360473251
 30
0.0
 40
4.0
100
AcDbArc
 50
180.0
 51
270.0
  0
ARC
  5
1A573
330
19EB5
100
AcDbEntity
  8
U1
100
AcDbCircle
 10
8808.017031986059
 20
9321.915360473253
 30
0.0
 40
4.0
100
AcDbArc
 50
90.0
 51
180.0
  0
LINE
  5
1A574
330
19EB5
100
AcDbEntity
  8
U1
100
AcDbLine
 10
8804.017031986061
 20
9321.915360473253
 30
0.0
 11
8804.017031986061
 21
9269.515360473251
 31
0.0
  0
ARC
  5
1A575
330
19EB5
100
AcDbEntity
  8
U1
100
AcDbCircle
 10
8860.41703198606
 20
9269.515360473251
 30
0.0
 40
4.0
100
AcDbArc
 50
270.0
 51
0.0
  0
ARC
  5
1A576
330
19EB5
100
AcDbEntity
  8
U1
100
AcDbCircle
 10
8840.417031986062
 20
9321.915360473253
 30
0.0
 40
4.0
100
AcDbArc
 50
0.0
 51
90.0
  0
ARC
  5
1A577
330
19EB5
100
AcDbEntity
  8
U1
100
AcDbCircle
 10
8847.86703198606
 20
9312.665360473252
 30
0.0
 40
1.149999999999977
100
AcDbArc
 50
180.0
 51
0.0
  0
LINE
  5
1A578
330
19EB5
100
AcDbEntity
  8
U1
100
AcDbLine
 10
8851.317031986061
 20
9320.215360473252
 30
0.0
 11
8851.317031986061
 21
9312.665360473252
 31
0.0
  0
LINE
  5
1A579
330
19EB5
100
AcDbEntity
  8
U1
100
AcDbLine
 10
8849.017031986059
 20
9320.215360473252
 30
0.0
 11
8851.317031986061
 21
9320.215360473252
 31
0.0
  0
LINE
  5
1A57A
330
19EB5
100
AcDbEntity
  8
U1
100
AcDbLine
 10
8846.717031986059
 20
9313.215360473252
 30
0.0
 11
8849.017031986059
 21
9313.215360473252
 31
0.0
  0
ARC
  5
1A57B
330
19EB5
100
AcDbEntity
  8
U1
100
AcDbCircle
 10
8847.86703198606
 20
9312.665360473252
 30
0.0
 40
3.450000000000044
100
AcDbArc
 50
180.0
 51
0.0
  0
LINE
  5
1A57C
330
19EB5
100
AcDbEntity
  8
U1
100
AcDbLine
 10
8846.717031986059
 20
9312.665360473252
 30
0.0
 11
8846.717031986059
 21
9321.915360473253
 31
0.0
  0
LINE
  5
1A57D
330
19EB5
100
AcDbEntity
  8
U1
100
AcDbLine
 10
8849.017031986059
 20
9321.915360473253
 30
0.0
 11
8849.017031986059
 21
9312.665360473252
 31
0.0
  0
LINE
  5
1A57E
330
19EB5
100
AcDbEntity
  8
U1
100
AcDbLine
 10
8844.417031986059
 20
9312.665360473252
 30
0.0
 11
8844.417031986059
 21
9321.915360473253
 31
0.0
  0
ARC
  5
1A57F
330
19EB5
100
AcDbEntity
  8
U1
100
AcDbCircle
 10
8860.41703198606
 20
9321.915360473253
 30
0.0
 40
4.0
100
AcDbArc
 50
0.0
 51
90.0
  0
LINE
  5
1A580
330
19EB5
100
AcDbEntity
  8
U1
100
AcDbLine
 10
8860.41703198606
 20
9325.915360473253
 30
0.0
 11
8853.017031986059
 21
9325.915360473253
 31
0.0
  0
ARC
  5
1A581
330
19EB5
100
AcDbEntity
  8
U1
100
AcDbCircle
 10
8853.017031986059
 20
9321.915360473253
 30
0.0
 40
4.0
100
AcDbArc
 50
90.0
 51
180.0
  0
LINE
  5
1A582
330
19EB5
100
AcDbEntity
  8
U1
100
AcDbLine
 10
8864.417031986061
 20
9269.515360473251
 30
0.0
 11
8864.417031986061
 21
9321.915360473253
 31
0.0
  0
LINE
  5
1A583
330
19EB5
100
AcDbEntity
  8
U1
100
AcDbLine
 10
8840.417031986062
 20
7525.915360473252
 30
0.0
 11
8808.017031986059
 21
7525.915360473252
 31
0.0
  0
LINE
  5
1A584
330
19EB5
100
AcDbEntity
  8
U1
100
AcDbLine
 10
8808.017031986059
 20
7465.515360473251
 30
0.0
 11
8860.41703198606
 21
7465.515360473251
 31
0.0
  0
ARC
  5
1A585
330
19EB5
100
AcDbEntity
  8
U1
100
AcDbCircle
 10
8808.017031986059
 20
7469.515360473251
 30
0.0
 40
4.0
100
AcDbArc
 50
180.0
 51
270.0
  0
ARC
  5
1A586
330
19EB5
100
AcDbEntity
  8
U1
100
AcDbCircle
 10
8808.017031986059
 20
7521.915360473252
 30
0.0
 40
4.0
100
AcDbArc
 50
90.0
 51
180.0
  0
LINE
  5
1A587
330
19EB5
100
AcDbEntity
  8
U1
100
AcDbLine
 10
8804.017031986061
 20
7521.915360473252
 30
0.0
 11
8804.017031986061
 21
7469.515360473251
 31
0.0
  0
ARC
  5
1A588
330
19EB5
100
AcDbEntity
  8
U1
100
AcDbCircle
 10
8860.41703198606
 20
7469.515360473251
 30
0.0
 40
4.0
100
AcDbArc
 50
270.0
 51
0.0
  0
ARC
  5
1A589
330
19EB5
100
AcDbEntity
  8
U1
100
AcDbCircle
 10
8840.417031986062
 20
7521.915360473252
 30
0.0
 40
4.0
100
AcDbArc
 50
0.0
 51
90.0
  0
ARC
  5
1A58A
330
19EB5
100
AcDbEntity
  8
U1
100
AcDbCircle
 10
8847.86703198606
 20
7512.665360473251
 30
0.0
 40
1.149999999999977
100
AcDbArc
 50
180.0
 51
0.0
  0
LINE
  5
1A58B
330
19EB5
100
AcDbEntity
  8
U1
100
AcDbLine
 10
8851.317031986061
 20
7520.215360473253
 30
0.0
 11
8851.317031986061
 21
7512.665360473251
 31
0.0
  0
LINE
  5
1A58C
330
19EB5
100
AcDbEntity
  8
U1
100
AcDbLine
 10
8849.017031986059
 20
7520.215360473253
 30
0.0
 11
8851.317031986061
 21
7520.215360473253
 31
0.0
  0
LINE
  5
1A58D
330
19EB5
100
AcDbEntity
  8
U1
100
AcDbLine
 10
8846.717031986059
 20
7513.215360473253
 30
0.0
 11
8849.017031986059
 21
7513.215360473253
 31
0.0
  0
ARC
  5
1A58E
330
19EB5
100
AcDbEntity
  8
U1
100
AcDbCircle
 10
8847.86703198606
 20
7512.665360473251
 30
0.0
 40
3.450000000000044
100
AcDbArc
 50
180.0
 51
0.0
  0
LINE
  5
1A58F
330
19EB5
100
AcDbEntity
  8
U1
100
AcDbLine
 10
8846.717031986059
 20
7512.665360473251
 30
0.0
 11
8846.717031986059
 21
7521.915360473252
 31
0.0
  0
LINE
  5
1A590
330
19EB5
100
AcDbEntity
  8
U1
100
AcDbLine
 10
8849.017031986059
 20
7521.915360473252
 30
0.0
 11
8849.017031986059
 21
7512.665360473251
 31
0.0
  0
LINE
  5
1A591
330
19EB5
100
AcDbEntity
  8
U1
100
AcDbLine
 10
8844.417031986059
 20
7512.665360473251
 30
0.0
 11
8844.417031986059
 21
7521.915360473252
 31
0.0
  0
ARC
  5
1A592
330
19EB5
100
AcDbEntity
  8
U1
100
AcDbCircle
 10
8860.41703198606
 20
7521.915360473252
 30
0.0
 40
4.0
100
AcDbArc
 50
0.0
 51
90.0
  0
LINE
  5
1A593
330
19EB5
100
AcDbEntity
  8
U1
100
AcDbLine
 10
8860.41703198606
 20
7525.915360473252
 30
0.0
 11
8853.017031986059
 21
7525.915360473252
 31
0.0
  0
ARC
  5
1A594
330
19EB5
100
AcDbEntity
  8
U1
100
AcDbCircle
 10
8853.017031986059
 20
7521.915360473252
 30
0.0
 40
4.0
100
AcDbArc
 50
90.0
 51
180.0
  0
LINE
  5
1A595
330
19EB5
100
AcDbEntity
  8
U1
100
AcDbLine
 10
8864.417031986061
 20
7469.515360473251
 30
0.0
 11
8864.417031986061
 21
7521.915360473252
 31
0.0
  0
LINE
  5
1A596
330
19EB5
100
AcDbEntity
  8
U1
100
AcDbLine
 10
8840.417031986062
 20
5725.915360473253
 30
0.0
 11
8808.017031986059
 21
5725.915360473253
 31
0.0
  0
LINE
  5
1A597
330
19EB5
100
AcDbEntity
  8
U1
100
AcDbLine
 10
8808.017031986059
 20
5665.515360473253
 30
0.0
 11
8860.41703198606
 21
5665.515360473253
 31
0.0
  0
ARC
  5
1A598
330
19EB5
100
AcDbEntity
  8
U1
100
AcDbCircle
 10
8808.017031986059
 20
5669.515360473252
 30
0.0
 40
4.0
100
AcDbArc
 50
180.0
 51
270.0
  0
ARC
  5
1A599
330
19EB5
100
AcDbEntity
  8
U1
100
AcDbCircle
 10
8808.017031986059
 20
5721.915360473253
 30
0.0
 40
4.0
100
AcDbArc
 50
90.0
 51
180.0
  0
LINE
  5
1A59A
330
19EB5
100
AcDbEntity
  8
U1
100
AcDbLine
 10
8804.017031986061
 20
5721.915360473253
 30
0.0
 11
8804.017031986061
 21
5669.515360473252
 31
0.0
  0
ARC
  5
1A59B
330
19EB5
100
AcDbEntity
  8
U1
100
AcDbCircle
 10
8860.41703198606
 20
5669.515360473252
 30
0.0
 40
4.0
100
AcDbArc
 50
270.0
 51
0.0
  0
ARC
  5
1A59C
330
19EB5
100
AcDbEntity
  8
U1
100
AcDbCircle
 10
8840.417031986062
 20
5721.915360473253
 30
0.0
 40
4.0
100
AcDbArc
 50
0.0
 51
90.0
  0
ARC
  5
1A59D
330
19EB5
100
AcDbEntity
  8
U1
100
AcDbCircle
 10
8847.86703198606
 20
5712.665360473253
 30
0.0
 40
1.149999999999977
100
AcDbArc
 50
180.0
 51
0.0
  0
LINE
  5
1A59E
330
19EB5
100
AcDbEntity
  8
U1
100
AcDbLine
 10
8851.317031986061
 20
5720.215360473253
 30
0.0
 11
8851.317031986061
 21
5712.665360473253
 31
0.0
  0
LINE
  5
1A59F
330
19EB5
100
AcDbEntity
  8
U1
100
AcDbLine
 10
8849.017031986059
 20
5720.215360473253
 30
0.0
 11
8851.317031986061
 21
5720.215360473253
 31
0.0
  0
LINE
  5
1A5A0
330
19EB5
100
AcDbEntity
  8
U1
100
AcDbLine
 10
8846.717031986059
 20
5713.215360473252
 30
0.0
 11
8849.017031986059
 21
5713.215360473252
 31
0.0
  0
ARC
  5
1A5A1
330
19EB5
100
AcDbEntity
  8
U1
100
AcDbCircle
 10
8847.86703198606
 20
5712.665360473253
 30
0.0
 40
3.450000000000044
100
AcDbArc
 50
180.0
 51
0.0
  0
LINE
  5
1A5A2
330
19EB5
100
AcDbEntity
  8
U1
100
AcDbLine
 10
8846.717031986059
 20
5712.665360473253
 30
0.0
 11
8846.717031986059
 21
5721.915360473252
 31
0.0
  0
LINE
  5
1A5A3
330
19EB5
100
AcDbEntity
  8
U1
100
AcDbLine
 10
8849.017031986059
 20
5721.915360473253
 30
0.0
 11
8849.017031986059
 21
5712.665360473253
 31
0.0
  0
LINE
  5
1A5A4
330
19EB5
100
AcDbEntity
  8
U1
100
AcDbLine
 10
8844.417031986059
 20
5712.665360473253
 30
0.0
 11
8844.417031986059
 21
5721.915360473253
 31
0.0
  0
ARC
  5
1A5A5
330
19EB5
100
AcDbEntity
  8
U1
100
AcDbCircle
 10
8860.41703198606
 20
5721.915360473253
 30
0.0
 40
4.0
100
AcDbArc
 50
0.0
 51
90.0
  0
LINE
  5
1A5A6
330
19EB5
100
AcDbEntity
  8
U1
100
AcDbLine
 10
8860.41703198606
 20
5725.915360473253
 30
0.0
 11
8853.017031986059
 21
5725.915360473253
 31
0.0
  0
ARC
  5
1A5A7
330
19EB5
100
AcDbEntity
  8
U1
100
AcDbCircle
 10
8853.017031986059
 20
5721.915360473253
 30
0.0
 40
4.0
100
AcDbArc
 50
90.0
 51
180.0
  0
LINE
  5
1A5A8
330
19EB5
100
AcDbEntity
  8
U1
100
AcDbLine
 10
8864.417031986061
 20
5669.515360473252
 30
0.0
 11
8864.417031986061
 21
5721.915360473253
 31
0.0
  0
LINE
  5
1A5A9
330
19EB5
100
AcDbEntity
  8
U1
100
AcDbLine
 10
7540.417031986061
 20
9325.915360473253
 30
0.0
 11
7508.017031986061
 21
9325.915360473253
 31
0.0
  0
LINE
  5
1A5AA
330
19EB5
100
AcDbEntity
  8
U1
100
AcDbLine
 10
7508.017031986061
 20
9265.515360473251
 30
0.0
 11
7560.41703198606
 21
9265.515360473251
 31
0.0
  0
ARC
  5
1A5AB
330
19EB5
100
AcDbEntity
  8
U1
100
AcDbCircle
 10
7508.017031986061
 20
9269.515360473251
 30
0.0
 40
4.0
100
AcDbArc
 50
180.0
 51
270.0
  0
ARC
  5
1A5AC
330
19EB5
100
AcDbEntity
  8
U1
100
AcDbCircle
 10
7508.017031986061
 20
9321.915360473253
 30
0.0
 40
4.0
100
AcDbArc
 50
90.0
 51
180.0
  0
LINE
  5
1A5AD
330
19EB5
100
AcDbEntity
  8
U1
100
AcDbLine
 10
7504.017031986061
 20
9321.915360473253
 30
0.0
 11
7504.017031986061
 21
9269.515360473251
 31
0.0
  0
ARC
  5
1A5AE
330
19EB5
100
AcDbEntity
  8
U1
100
AcDbCircle
 10
7560.41703198606
 20
9269.515360473251
 30
0.0
 40
4.0
100
AcDbArc
 50
270.0
 51
0.0
  0
ARC
  5
1A5AF
330
19EB5
100
AcDbEntity
  8
U1
100
AcDbCircle
 10
7540.417031986061
 20
9321.915360473253
 30
0.0
 40
4.0
100
AcDbArc
 50
0.0
 51
90.0
  0
ARC
  5
1A5B0
330
19EB5
100
AcDbEntity
  8
U1
100
AcDbCircle
 10
7547.867031986061
 20
9312.665360473252
 30
0.0
 40
1.149999999999977
100
AcDbArc
 50
180.0
 51
0.0
  0
LINE
  5
1A5B1
330
19EB5
100
AcDbEntity
  8
U1
100
AcDbLine
 10
7551.31703198606
 20
9320.215360473252
 30
0.0
 11
7551.31703198606
 21
9312.665360473252
 31
0.0
  0
LINE
  5
1A5B2
330
19EB5
100
AcDbEntity
  8
U1
100
AcDbLine
 10
7549.01703198606
 20
9320.215360473252
 30
0.0
 11
7551.31703198606
 21
9320.215360473252
 31
0.0
  0
LINE
  5
1A5B3
330
19EB5
100
AcDbEntity
  8
U1
100
AcDbLine
 10
7546.717031986061
 20
9313.215360473252
 30
0.0
 11
7549.01703198606
 21
9313.215360473252
 31
0.0
  0
ARC
  5
1A5B4
330
19EB5
100
AcDbEntity
  8
U1
100
AcDbCircle
 10
7547.867031986061
 20
9312.665360473252
 30
0.0
 40
3.450000000000044
100
AcDbArc
 50
180.0
 51
0.0
  0
LINE
  5
1A5B5
330
19EB5
100
AcDbEntity
  8
U1
100
AcDbLine
 10
7546.717031986061
 20
9312.665360473252
 30
0.0
 11
7546.71703198606
 21
9321.915360473253
 31
0.0
  0
LINE
  5
1A5B6
330
19EB5
100
AcDbEntity
  8
U1
100
AcDbLine
 10
7549.01703198606
 20
9321.915360473253
 30
0.0
 11
7549.01703198606
 21
9312.665360473252
 31
0.0
  0
LINE
  5
1A5B7
330
19EB5
100
AcDbEntity
  8
U1
100
AcDbLine
 10
7544.417031986061
 20
9312.665360473252
 30
0.0
 11
7544.417031986061
 21
9321.915360473253
 31
0.0
  0
ARC
  5
1A5B8
330
19EB5
100
AcDbEntity
  8
U1
100
AcDbCircle
 10
7560.41703198606
 20
9321.915360473253
 30
0.0
 40
4.0
100
AcDbArc
 50
0.0
 51
90.0
  0
LINE
  5
1A5B9
330
19EB5
100
AcDbEntity
  8
U1
100
AcDbLine
 10
7560.41703198606
 20
9325.915360473253
 30
0.0
 11
7553.017031986062
 21
9325.915360473253
 31
0.0
  0
ARC
  5
1A5BA
330
19EB5
100
AcDbEntity
  8
U1
100
AcDbCircle
 10
7553.017031986062
 20
9321.915360473253
 30
0.0
 40
4.0
100
AcDbArc
 50
90.0
 51
180.0
  0
LINE
  5
1A5BB
330
19EB5
100
AcDbEntity
  8
U1
100
AcDbLine
 10
7564.417031986059
 20
9269.515360473251
 30
0.0
 11
7564.417031986059
 21
9321.915360473253
 31
0.0
  0
LINE
  5
1A5BC
330
19EB5
100
AcDbEntity
  8
U1
100
AcDbLine
 10
7540.417031986061
 20
7525.915360473252
 30
0.0
 11
7508.017031986061
 21
7525.915360473252
 31
0.0
  0
LINE
  5
1A5BD
330
19EB5
100
AcDbEntity
  8
U1
100
AcDbLine
 10
7508.017031986061
 20
7465.515360473251
 30
0.0
 11
7560.41703198606
 21
7465.515360473251
 31
0.0
  0
ARC
  5
1A5BE
330
19EB5
100
AcDbEntity
  8
U1
100
AcDbCircle
 10
7508.017031986061
 20
7469.515360473251
 30
0.0
 40
4.0
100
AcDbArc
 50
180.0
 51
270.0
  0
ARC
  5
1A5BF
330
19EB5
100
AcDbEntity
  8
U1
100
AcDbCircle
 10
7508.017031986061
 20
7521.915360473252
 30
0.0
 40
4.0
100
AcDbArc
 50
90.0
 51
180.0
  0
LINE
  5
1A5C0
330
19EB5
100
AcDbEntity
  8
U1
100
AcDbLine
 10
7504.017031986061
 20
7521.915360473252
 30
0.0
 11
7504.017031986061
 21
7469.515360473251
 31
0.0
  0
ARC
  5
1A5C1
330
19EB5
100
AcDbEntity
  8
U1
100
AcDbCircle
 10
7560.41703198606
 20
7469.515360473251
 30
0.0
 40
4.0
100
AcDbArc
 50
270.0
 51
0.0
  0
ARC
  5
1A5C2
330
19EB5
100
AcDbEntity
  8
U1
100
AcDbCircle
 10
7540.417031986061
 20
7521.915360473252
 30
0.0
 40
4.0
100
AcDbArc
 50
0.0
 51
90.0
  0
ARC
  5
1A5C3
330
19EB5
100
AcDbEntity
  8
U1
100
AcDbCircle
 10
7547.867031986061
 20
7512.665360473251
 30
0.0
 40
1.149999999999977
100
AcDbArc
 50
180.0
 51
0.0
  0
LINE
  5
1A5C4
330
19EB5
100
AcDbEntity
  8
U1
100
AcDbLine
 10
7551.31703198606
 20
7520.215360473253
 30
0.0
 11
7551.31703198606
 21
7512.665360473251
 31
0.0
  0
LINE
  5
1A5C5
330
19EB5
100
AcDbEntity
  8
U1
100
AcDbLine
 10
7549.01703198606
 20
7520.215360473253
 30
0.0
 11
7551.31703198606
 21
7520.215360473253
 31
0.0
  0
LINE
  5
1A5C6
330
19EB5
100
AcDbEntity
  8
U1
100
AcDbLine
 10
7546.717031986061
 20
7513.215360473253
 30
0.0
 11
7549.01703198606
 21
7513.215360473253
 31
0.0
  0
ARC
  5
1A5C7
330
19EB5
100
AcDbEntity
  8
U1
100
AcDbCircle
 10
7547.867031986061
 20
7512.665360473251
 30
0.0
 40
3.450000000000044
100
AcDbArc
 50
180.0
 51
0.0
  0
LINE
  5
1A5C8
330
19EB5
100
AcDbEntity
  8
U1
100
AcDbLine
 10
7546.717031986061
 20
7512.665360473251
 30
0.0
 11
7546.71703198606
 21
7521.915360473252
 31
0.0
  0
LINE
  5
1A5C9
330
19EB5
100
AcDbEntity
  8
U1
100
AcDbLine
 10
7549.01703198606
 20
7521.915360473252
 30
0.0
 11
7549.01703198606
 21
7512.665360473251
 31
0.0
  0
LINE
  5
1A5CA
330
19EB5
100
AcDbEntity
  8
U1
100
AcDbLine
 10
7544.417031986061
 20
7512.665360473251
 30
0.0
 11
7544.417031986061
 21
7521.915360473252
 31
0.0
  0
ARC
  5
1A5CB
330
19EB5
100
AcDbEntity
  8
U1
100
AcDbCircle
 10
7560.41703198606
 20
7521.915360473252
 30
0.0
 40
4.0
100
AcDbArc
 50
0.0
 51
90.0
  0
LINE
  5
1A5CC
330
19EB5
100
AcDbEntity
  8
U1
100
AcDbLine
 10
7560.41703198606
 20
7525.915360473252
 30
0.0
 11
7553.017031986062
 21
7525.915360473252
 31
0.0
  0
ARC
  5
1A5CD
330
19EB5
100
AcDbEntity
  8
U1
100
AcDbCircle
 10
7553.017031986062
 20
7521.915360473252
 30
0.0
 40
4.0
100
AcDbArc
 50
90.0
 51
180.0
  0
LINE
  5
1A5CE
330
19EB5
100
AcDbEntity
  8
U1
100
AcDbLine
 10
7564.417031986059
 20
7469.515360473251
 30
0.0
 11
7564.417031986059
 21
7521.915360473252
 31
0.0
  0
LINE
  5
1A5CF
330
19EB5
100
AcDbEntity
  8
U1
100
AcDbLine
 10
7540.417031986061
 20
5725.915360473253
 30
0.0
 11
7508.017031986061
 21
5725.915360473253
 31
0.0
  0
LINE
  5
1A5D0
330
19EB5
100
AcDbEntity
  8
U1
100
AcDbLine
 10
7508.017031986061
 20
5665.515360473253
 30
0.0
 11
7560.41703198606
 21
5665.515360473253
 31
0.0
  0
ARC
  5
1A5D1
330
19EB5
100
AcDbEntity
  8
U1
100
AcDbCircle
 10
7508.017031986061
 20
5669.515360473252
 30
0.0
 40
4.0
100
AcDbArc
 50
180.0
 51
270.0
  0
ARC
  5
1A5D2
330
19EB5
100
AcDbEntity
  8
U1
100
AcDbCircle
 10
7508.017031986061
 20
5721.915360473253
 30
0.0
 40
4.0
100
AcDbArc
 50
90.0
 51
180.0
  0
LINE
  5
1A5D3
330
19EB5
100
AcDbEntity
  8
U1
100
AcDbLine
 10
7504.017031986061
 20
5721.915360473253
 30
0.0
 11
7504.017031986061
 21
5669.515360473252
 31
0.0
  0
ARC
  5
1A5D4
330
19EB5
100
AcDbEntity
  8
U1
100
AcDbCircle
 10
7560.41703198606
 20
5669.515360473252
 30
0.0
 40
4.0
100
AcDbArc
 50
270.0
 51
0.0
  0
ARC
  5
1A5D5
330
19EB5
100
AcDbEntity
  8
U1
100
AcDbCircle
 10
7540.417031986061
 20
5721.915360473253
 30
0.0
 40
4.0
100
AcDbArc
 50
0.0
 51
90.0
  0
ARC
  5
1A5D6
330
19EB5
100
AcDbEntity
  8
U1
100
AcDbCircle
 10
7547.867031986061
 20
5712.665360473253
 30
0.0
 40
1.149999999999977
100
AcDbArc
 50
180.0
 51
0.0
  0
LINE
  5
1A5D7
330
19EB5
100
AcDbEntity
  8
U1
100
AcDbLine
 10
7551.31703198606
 20
5720.215360473253
 30
0.0
 11
7551.31703198606
 21
5712.665360473253
 31
0.0
  0
LINE
  5
1A5D8
330
19EB5
100
AcDbEntity
  8
U1
100
AcDbLine
 10
7549.01703198606
 20
5720.215360473253
 30
0.0
 11
7551.31703198606
 21
5720.215360473253
 31
0.0
  0
LINE
  5
1A5D9
330
19EB5
100
AcDbEntity
  8
U1
100
AcDbLine
 10
7546.717031986061
 20
5713.215360473252
 30
0.0
 11
7549.01703198606
 21
5713.215360473252
 31
0.0
  0
ARC
  5
1A5DA
330
19EB5
100
AcDbEntity
  8
U1
100
AcDbCircle
 10
7547.867031986061
 20
5712.665360473253
 30
0.0
 40
3.450000000000044
100
AcDbArc
 50
180.0
 51
0.0
  0
LINE
  5
1A5DB
330
19EB5
100
AcDbEntity
  8
U1
100
AcDbLine
 10
7546.717031986061
 20
5712.665360473253
 30
0.0
 11
7546.71703198606
 21
5721.915360473252
 31
0.0
  0
LINE
  5
1A5DC
330
19EB5
100
AcDbEntity
  8
U1
100
AcDbLine
 10
7549.01703198606
 20
5721.915360473253
 30
0.0
 11
7549.01703198606
 21
5712.665360473253
 31
0.0
  0
LINE
  5
1A5DD
330
19EB5
100
AcDbEntity
  8
U1
100
AcDbLine
 10
7544.417031986061
 20
5712.665360473253
 30
0.0
 11
7544.417031986061
 21
5721.915360473253
 31
0.0
  0
ARC
  5
1A5DE
330
19EB5
100
AcDbEntity
  8
U1
100
AcDbCircle
 10
7560.41703198606
 20
5721.915360473253
 30
0.0
 40
4.0
100
AcDbArc
 50
0.0
 51
90.0
  0
LINE
  5
1A5DF
330
19EB5
100
AcDbEntity
  8
U1
100
AcDbLine
 10
7560.41703198606
 20
5725.915360473253
 30
0.0
 11
7553.017031986062
 21
5725.915360473253
 31
0.0
  0
ARC
  5
1A5E0
330
19EB5
100
AcDbEntity
  8
U1
100
AcDbCircle
 10
7553.017031986062
 20
5721.915360473253
 30
0.0
 40
4.0
100
AcDbArc
 50
90.0
 51
180.0
  0
LINE
  5
1A5E1
330
19EB5
100
AcDbEntity
  8
U1
100
AcDbLine
 10
7564.417031986059
 20
5669.515360473252
 30
0.0
 11
7564.417031986059
 21
5721.915360473253
 31
0.0
  0
LINE
  5
1A5E2
330
19EB5
100
AcDbEntity
  8
U1
100
AcDbLine
 10
4740.41703198606
 20
9325.915360473253
 30
0.0
 11
4708.017031986059
 21
9325.915360473253
 31
0.0
  0
LINE
  5
1A5E3
330
19EB5
100
AcDbEntity
  8
U1
100
AcDbLine
 10
4708.017031986059
 20
9265.515360473251
 30
0.0
 11
4760.417031986061
 21
9265.515360473251
 31
0.0
  0
ARC
  5
1A5E4
330
19EB5
100
AcDbEntity
  8
U1
100
AcDbCircle
 10
4708.017031986059
 20
9269.515360473251
 30
0.0
 40
4.0
100
AcDbArc
 50
180.0
 51
270.0
  0
ARC
  5
1A5E5
330
19EB5
100
AcDbEntity
  8
U1
100
AcDbCircle
 10
4708.017031986059
 20
9321.915360473253
 30
0.0
 40
4.0
100
AcDbArc
 50
90.0
 51
180.0
  0
LINE
  5
1A5E6
330
19EB5
100
AcDbEntity
  8
U1
100
AcDbLine
 10
4704.01703198606
 20
9321.915360473253
 30
0.0
 11
4704.01703198606
 21
9269.515360473251
 31
0.0
  0
ARC
  5
1A5E7
330
19EB5
100
AcDbEntity
  8
U1
100
AcDbCircle
 10
4760.417031986061
 20
9269.515360473251
 30
0.0
 40
4.0
100
AcDbArc
 50
270.0
 51
0.0
  0
ARC
  5
1A5E8
330
19EB5
100
AcDbEntity
  8
U1
100
AcDbCircle
 10
4740.41703198606
 20
9321.915360473253
 30
0.0
 40
4.0
100
AcDbArc
 50
0.0
 51
90.0
  0
ARC
  5
1A5E9
330
19EB5
100
AcDbEntity
  8
U1
100
AcDbCircle
 10
4747.86703198606
 20
9312.665360473252
 30
0.0
 40
1.149999999999977
100
AcDbArc
 50
180.0
 51
0.0
  0
LINE
  5
1A5EA
330
19EB5
100
AcDbEntity
  8
U1
100
AcDbLine
 10
4751.31703198606
 20
9320.215360473252
 30
0.0
 11
4751.31703198606
 21
9312.665360473252
 31
0.0
  0
LINE
  5
1A5EB
330
19EB5
100
AcDbEntity
  8
U1
100
AcDbLine
 10
4749.01703198606
 20
9320.215360473252
 30
0.0
 11
4751.31703198606
 21
9320.215360473252
 31
0.0
  0
LINE
  5
1A5EC
330
19EB5
100
AcDbEntity
  8
U1
100
AcDbLine
 10
4746.717031986061
 20
9313.215360473252
 30
0.0
 11
4749.01703198606
 21
9313.215360473252
 31
0.0
  0
ARC
  5
1A5ED
330
19EB5
100
AcDbEntity
  8
U1
100
AcDbCircle
 10
4747.86703198606
 20
9312.665360473252
 30
0.0
 40
3.450000000000044
100
AcDbArc
 50
180.0
 51
0.0
  0
LINE
  5
1A5EE
330
19EB5
100
AcDbEntity
  8
U1
100
AcDbLine
 10
4746.717031986061
 20
9312.665360473252
 30
0.0
 11
4746.71703198606
 21
9321.915360473253
 31
0.0
  0
LINE
  5
1A5EF
330
19EB5
100
AcDbEntity
  8
U1
100
AcDbLine
 10
4749.01703198606
 20
9321.915360473253
 30
0.0
 11
4749.01703198606
 21
9312.665360473252
 31
0.0
  0
LINE
  5
1A5F0
330
19EB5
100
AcDbEntity
  8
U1
100
AcDbLine
 10
4744.41703198606
 20
9312.665360473252
 30
0.0
 11
4744.41703198606
 21
9321.915360473253
 31
0.0
  0
ARC
  5
1A5F1
330
19EB5
100
AcDbEntity
  8
U1
100
AcDbCircle
 10
4760.417031986057
 20
9321.915360473253
 30
0.0
 40
4.0
100
AcDbArc
 50
0.0
 51
90.0
  0
LINE
  5
1A5F2
330
19EB5
100
AcDbEntity
  8
U1
100
AcDbLine
 10
4760.417031986057
 20
9325.915360473253
 30
0.0
 11
4753.01703198606
 21
9325.915360473253
 31
0.0
  0
ARC
  5
1A5F3
330
19EB5
100
AcDbEntity
  8
U1
100
AcDbCircle
 10
4753.01703198606
 20
9321.915360473253
 30
0.0
 40
4.0
100
AcDbArc
 50
90.0
 51
180.0
  0
LINE
  5
1A5F4
330
19EB5
100
AcDbEntity
  8
U1
100
AcDbLine
 10
4764.41703198606
 20
9269.515360473251
 30
0.0
 11
4764.417031986058
 21
9321.915360473253
 31
0.0
  0
LINE
  5
1A5F5
330
19EB5
100
AcDbEntity
  8
U1
100
AcDbLine
 10
4740.41703198606
 20
7525.915360473252
 30
0.0
 11
4708.017031986059
 21
7525.915360473252
 31
0.0
  0
LINE
  5
1A5F6
330
19EB5
100
AcDbEntity
  8
U1
100
AcDbLine
 10
4708.017031986059
 20
7465.515360473251
 30
0.0
 11
4760.417031986061
 21
7465.515360473251
 31
0.0
  0
ARC
  5
1A5F7
330
19EB5
100
AcDbEntity
  8
U1
100
AcDbCircle
 10
4708.017031986059
 20
7469.515360473251
 30
0.0
 40
4.0
100
AcDbArc
 50
180.0
 51
270.0
  0
ARC
  5
1A5F8
330
19EB5
100
AcDbEntity
  8
U1
100
AcDbCircle
 10
4708.017031986059
 20
7521.915360473252
 30
0.0
 40
4.0
100
AcDbArc
 50
90.0
 51
180.0
  0
LINE
  5
1A5F9
330
19EB5
100
AcDbEntity
  8
U1
100
AcDbLine
 10
4704.01703198606
 20
7521.915360473252
 30
0.0
 11
4704.01703198606
 21
7469.515360473251
 31
0.0
  0
ARC
  5
1A5FA
330
19EB5
100
AcDbEntity
  8
U1
100
AcDbCircle
 10
4760.417031986061
 20
7469.515360473251
 30
0.0
 40
4.0
100
AcDbArc
 50
270.0
 51
0.0
  0
ARC
  5
1A5FB
330
19EB5
100
AcDbEntity
  8
U1
100
AcDbCircle
 10
4740.41703198606
 20
7521.915360473252
 30
0.0
 40
4.0
100
AcDbArc
 50
0.0
 51
90.0
  0
ARC
  5
1A5FC
330
19EB5
100
AcDbEntity
  8
U1
100
AcDbCircle
 10
4747.86703198606
 20
7512.665360473251
 30
0.0
 40
1.149999999999977
100
AcDbArc
 50
180.0
 51
0.0
  0
LINE
  5
1A5FD
330
19EB5
100
AcDbEntity
  8
U1
100
AcDbLine
 10
4751.31703198606
 20
7520.215360473253
 30
0.0
 11
4751.31703198606
 21
7512.665360473251
 31
0.0
  0
LINE
  5
1A5FE
330
19EB5
100
AcDbEntity
  8
U1
100
AcDbLine
 10
4749.01703198606
 20
7520.215360473253
 30
0.0
 11
4751.31703198606
 21
7520.215360473253
 31
0.0
  0
LINE
  5
1A5FF
330
19EB5
100
AcDbEntity
  8
U1
100
AcDbLine
 10
4746.717031986061
 20
7513.215360473253
 30
0.0
 11
4749.01703198606
 21
7513.215360473253
 31
0.0
  0
ARC
  5
1A600
330
19EB5
100
AcDbEntity
  8
U1
100
AcDbCircle
 10
4747.86703198606
 20
7512.665360473251
 30
0.0
 40
3.450000000000044
100
AcDbArc
 50
180.0
 51
0.0
  0
LINE
  5
1A601
330
19EB5
100
AcDbEntity
  8
U1
100
AcDbLine
 10
4746.717031986061
 20
7512.665360473251
 30
0.0
 11
4746.71703198606
 21
7521.915360473252
 31
0.0
  0
LINE
  5
1A602
330
19EB5
100
AcDbEntity
  8
U1
100
AcDbLine
 10
4749.01703198606
 20
7521.915360473252
 30
0.0
 11
4749.01703198606
 21
7512.665360473251
 31
0.0
  0
LINE
  5
1A603
330
19EB5
100
AcDbEntity
  8
U1
100
AcDbLine
 10
4744.41703198606
 20
7512.665360473251
 30
0.0
 11
4744.41703198606
 21
7521.915360473252
 31
0.0
  0
ARC
  5
1A604
330
19EB5
100
AcDbEntity
  8
U1
100
AcDbCircle
 10
4760.417031986057
 20
7521.915360473252
 30
0.0
 40
4.0
100
AcDbArc
 50
0.0
 51
90.0
  0
LINE
  5
1A605
330
19EB5
100
AcDbEntity
  8
U1
100
AcDbLine
 10
4760.417031986057
 20
7525.915360473252
 30
0.0
 11
4753.01703198606
 21
7525.915360473252
 31
0.0
  0
ARC
  5
1A606
330
19EB5
100
AcDbEntity
  8
U1
100
AcDbCircle
 10
4753.01703198606
 20
7521.915360473252
 30
0.0
 40
4.0
100
AcDbArc
 50
90.0
 51
180.0
  0
LINE
  5
1A607
330
19EB5
100
AcDbEntity
  8
U1
100
AcDbLine
 10
4764.41703198606
 20
7469.515360473251
 30
0.0
 11
4764.417031986058
 21
7521.915360473252
 31
0.0
  0
LINE
  5
1A608
330
19EB5
100
AcDbEntity
  8
U1
100
AcDbLine
 10
4740.41703198606
 20
5725.915360473253
 30
0.0
 11
4708.017031986059
 21
5725.915360473253
 31
0.0
  0
LINE
  5
1A609
330
19EB5
100
AcDbEntity
  8
U1
100
AcDbLine
 10
4708.017031986059
 20
5665.515360473253
 30
0.0
 11
4760.417031986061
 21
5665.515360473253
 31
0.0
  0
ARC
  5
1A60A
330
19EB5
100
AcDbEntity
  8
U1
100
AcDbCircle
 10
4708.017031986059
 20
5669.515360473252
 30
0.0
 40
4.0
100
AcDbArc
 50
180.0
 51
270.0
  0
ARC
  5
1A60B
330
19EB5
100
AcDbEntity
  8
U1
100
AcDbCircle
 10
4708.017031986059
 20
5721.915360473253
 30
0.0
 40
4.0
100
AcDbArc
 50
90.0
 51
180.0
  0
LINE
  5
1A60C
330
19EB5
100
AcDbEntity
  8
U1
100
AcDbLine
 10
4704.01703198606
 20
5721.915360473253
 30
0.0
 11
4704.01703198606
 21
5669.515360473252
 31
0.0
  0
ARC
  5
1A60D
330
19EB5
100
AcDbEntity
  8
U1
100
AcDbCircle
 10
4760.417031986061
 20
5669.515360473252
 30
0.0
 40
4.0
100
AcDbArc
 50
270.0
 51
0.0
  0
ARC
  5
1A60E
330
19EB5
100
AcDbEntity
  8
U1
100
AcDbCircle
 10
4740.41703198606
 20
5721.915360473253
 30
0.0
 40
4.0
100
AcDbArc
 50
0.0
 51
90.0
  0
ARC
  5
1A60F
330
19EB5
100
AcDbEntity
  8
U1
100
AcDbCircle
 10
4747.86703198606
 20
5712.665360473253
 30
0.0
 40
1.149999999999977
100
AcDbArc
 50
180.0
 51
0.0
  0
LINE
  5
1A610
330
19EB5
100
AcDbEntity
  8
U1
100
AcDbLine
 10
4751.31703198606
 20
5720.215360473253
 30
0.0
 11
4751.31703198606
 21
5712.665360473253
 31
0.0
  0
LINE
  5
1A611
330
19EB5
100
AcDbEntity
  8
U1
100
AcDbLine
 10
4749.01703198606
 20
5720.215360473253
 30
0.0
 11
4751.31703198606
 21
5720.215360473253
 31
0.0
  0
LINE
  5
1A612
330
19EB5
100
AcDbEntity
  8
U1
100
AcDbLine
 10
4746.717031986061
 20
5713.215360473252
 30
0.0
 11
4749.01703198606
 21
5713.215360473252
 31
0.0
  0
ARC
  5
1A613
330
19EB5
100
AcDbEntity
  8
U1
100
AcDbCircle
 10
4747.86703198606
 20
5712.665360473253
 30
0.0
 40
3.450000000000044
100
AcDbArc
 50
180.0
 51
0.0
  0
LINE
  5
1A614
330
19EB5
100
AcDbEntity
  8
U1
100
AcDbLine
 10
4746.717031986061
 20
5712.665360473253
 30
0.0
 11
4746.71703198606
 21
5721.915360473252
 31
0.0
  0
LINE
  5
1A615
330
19EB5
100
AcDbEntity
  8
U1
100
AcDbLine
 10
4749.01703198606
 20
5721.915360473253
 30
0.0
 11
4749.01703198606
 21
5712.665360473253
 31
0.0
  0
LINE
  5
1A616
330
19EB5
100
AcDbEntity
  8
U1
100
AcDbLine
 10
4744.41703198606
 20
5712.665360473253
 30
0.0
 11
4744.41703198606
 21
5721.915360473253
 31
0.0
  0
ARC
  5
1A617
330
19EB5
100
AcDbEntity
  8
U1
100
AcDbCircle
 10
4760.417031986057
 20
5721.915360473253
 30
0.0
 40
4.0
100
AcDbArc
 50
0.0
 51
90.0
  0
LINE
  5
1A618
330
19EB5
100
AcDbEntity
  8
U1
100
AcDbLine
 10
4760.417031986057
 20
5725.915360473253
 30
0.0
 11
4753.01703198606
 21
5725.915360473253
 31
0.0
  0
ARC
  5
1A619
330
19EB5
100
AcDbEntity
  8
U1
100
AcDbCircle
 10
4753.01703198606
 20
5721.915360473253
 30
0.0
 40
4.0
100
AcDbArc
 50
90.0
 51
180.0
  0
LINE
  5
1A61A
330
19EB5
100
AcDbEntity
  8
U1
100
AcDbLine
 10
4764.41703198606
 20
5669.515360473252
 30
0.0
 11
4764.417031986058
 21
5721.915360473253
 31
0.0
  0
LINE
  5
1A61B
330
19EB5
100
AcDbEntity
  8
YANE
  6
2PL-L
 62
     6
100
AcDbLine
 10
12030.21703198606
 20
5295.715360473253
 30
0.0
 11
4338.21703198606
 21
5295.715360473253
 31
0.0
  0
LINE
  5
1A61C
330
19EB5
100
AcDbEntity
  8
YANE
  6
2PL-L
 62
     6
100
AcDbLine
 10
4338.21703198606
 20
5295.715360473253
 30
0.0
 11
4338.21703198606
 21
9695.715360473252
 31
0.0
  0
LINE
  5
1A61D
330
19EB5
100
AcDbEntity
  8
YANE
  6
2PL-L
 62
     6
100
AcDbLine
 10
4338.21703198606
 20
9695.715360473252
 30
0.0
 11
12030.21703198606
 21
9695.715360473252
 31
0.0
  0
LINE
  5
1A61E
330
19EB5
100
AcDbEntity
  8
YANE
  6
2PL-L
 62
     6
100
AcDbLine
 10
12030.21703198606
 20
9695.715360473252
 30
0.0
 11
12030.21703198606
 21
5295.715360473253
 31
0.0
  0
LINE
  5
1A61F
330
19EB5
100
AcDbEntity
  8
KISO
100
AcDbLine
 10
9134.217031986059
 20
8995.715360473253
 30
0.0
 11
8534.217031986059
 21
8995.715360473253
 31
0.0
  0
LINE
  5
1A620
330
19EB5
100
AcDbEntity
  8
KISO
100
AcDbLine
 10
8534.217031986059
 20
8995.715360473253
 30
0.0
 11
8534.217031986059
 21
9595.715360473253
 31
0.0
  0
LINE
  5
1A621
330
19EB5
100
AcDbEntity
  8
KISO
100
AcDbLine
 10
8534.217031986059
 20
9595.715360473253
 30
0.0
 11
9134.217031986059
 21
9595.715360473253
 31
0.0
  0
LINE
  5
1A622
330
19EB5
100
AcDbEntity
  8
KISO
100
AcDbLine
 10
9134.217031986059
 20
9595.715360473253
 30
0.0
 11
9134.217031986059
 21
8995.715360473253
 31
0.0
  0
LINE
  5
1A623
330
19EB5
100
AcDbEntity
  8
KISO
100
AcDbLine
 10
7234.21703198606
 20
5395.715360473253
 30
0.0
 11
7834.21703198606
 21
5395.715360473253
 31
0.0
  0
LINE
  5
1A624
330
19EB5
100
AcDbEntity
  8
KISO
100
AcDbLine
 10
7834.21703198606
 20
5395.715360473253
 30
0.0
 11
7834.21703198606
 21
5995.715360473253
 31
0.0
  0
LINE
  5
1A625
330
19EB5
100
AcDbEntity
  8
KISO
100
AcDbLine
 10
7834.21703198606
 20
5995.715360473253
 30
0.0
 11
7234.21703198606
 21
5995.715360473253
 31
0.0
  0
LINE
  5
1A626
330
19EB5
100
AcDbEntity
  8
KISO
100
AcDbLine
 10
7234.21703198606
 20
5995.715360473253
 30
0.0
 11
7234.21703198606
 21
5395.715360473253
 31
0.0
  0
LINE
  5
1A627
330
19EB5
100
AcDbEntity
  8
KISO
100
AcDbLine
 10
4434.21703198606
 20
5395.715360473253
 30
0.0
 11
5034.217031986058
 21
5395.715360473253
 31
0.0
  0
LINE
  5
1A628
330
19EB5
100
AcDbEntity
  8
KISO
100
AcDbLine
 10
5034.217031986058
 20
5395.715360473253
 30
0.0
 11
5034.217031986058
 21
5995.715360473253
 31
0.0
  0
LINE
  5
1A629
330
19EB5
100
AcDbEntity
  8
KISO
100
AcDbLine
 10
5034.217031986058
 20
5995.715360473253
 30
0.0
 11
4434.21703198606
 21
5995.715360473253
 31
0.0
  0
LINE
  5
1A62A
330
19EB5
100
AcDbEntity
  8
KISO
100
AcDbLine
 10
4434.21703198606
 20
5995.715360473253
 30
0.0
 11
4434.21703198606
 21
5395.715360473253
 31
0.0
  0
LINE
  5
1A62B
330
19EB5
100
AcDbEntity
  8
KISO
100
AcDbLine
 10
4434.21703198606
 20
8995.715360473253
 30
0.0
 11
5034.217031986058
 21
8995.715360473253
 31
0.0
  0
LINE
  5
1A62C
330
19EB5
100
AcDbEntity
  8
KISO
100
AcDbLine
 10
5034.217031986058
 20
8995.715360473253
 30
0.0
 11
5034.217031986058
 21
9595.715360473253
 31
0.0
  0
LINE
  5
1A62D
330
19EB5
100
AcDbEntity
  8
KISO
100
AcDbLine
 10
5034.217031986058
 20
9595.715360473253
 30
0.0
 11
4434.21703198606
 21
9595.715360473253
 31
0.0
  0
LINE
  5
1A62E
330
19EB5
100
AcDbEntity
  8
KISO
100
AcDbLine
 10
4434.21703198606
 20
9595.715360473253
 30
0.0
 11
4434.21703198606
 21
8995.715360473253
 31
0.0
  0
LINE
  5
1A62F
330
19EB5
100
AcDbEntity
  8
KISO
100
AcDbLine
 10
11934.21703198606
 20
8995.715360473253
 30
0.0
 11
11334.21703198606
 21
8995.715360473253
 31
0.0
  0
LINE
  5
1A630
330
19EB5
100
AcDbEntity
  8
KISO
100
AcDbLine
 10
11334.21703198606
 20
8995.715360473253
 30
0.0
 11
11334.21703198606
 21
9595.715360473253
 31
0.0
  0
LINE
  5
1A631
330
19EB5
100
AcDbEntity
  8
KISO
100
AcDbLine
 10
11334.21703198606
 20
9595.715360473253
 30
0.0
 11
11934.21703198606
 21
9595.715360473253
 31
0.0
  0
LINE
  5
1A632
330
19EB5
100
AcDbEntity
  8
KISO
100
AcDbLine
 10
11934.21703198606
 20
9595.715360473253
 30
0.0
 11
11934.21703198606
 21
8995.715360473253
 31
0.0
  0
LINE
  5
1A633
330
19EB5
100
AcDbEntity
  8
KISO
100
AcDbLine
 10
11934.21703198606
 20
5395.715360473253
 30
0.0
 11
11334.21703198606
 21
5395.715360473253
 31
0.0
  0
LINE
  5
1A634
330
19EB5
100
AcDbEntity
  8
KISO
100
AcDbLine
 10
11334.21703198606
 20
5395.715360473253
 30
0.0
 11
11334.21703198606
 21
5995.715360473253
 31
0.0
  0
LINE
  5
1A635
330
19EB5
100
AcDbEntity
  8
KISO
100
AcDbLine
 10
11334.21703198606
 20
5995.715360473253
 30
0.0
 11
11934.21703198606
 21
5995.715360473253
 31
0.0
  0
LINE
  5
1A636
330
19EB5
100
AcDbEntity
  8
KISO
100
AcDbLine
 10
11934.21703198606
 20
5995.715360473253
 30
0.0
 11
11934.21703198606
 21
5395.715360473253
 31
0.0
  0
LINE
  5
1A637
330
19EB5
100
AcDbEntity
  8
KISO
100
AcDbLine
 10
9134.217031986059
 20
5395.715360473253
 30
0.0
 11
8534.217031986059
 21
5395.715360473253
 31
0.0
  0
LINE
  5
1A638
330
19EB5
100
AcDbEntity
  8
KISO
100
AcDbLine
 10
8534.217031986059
 20
5395.715360473253
 30
0.0
 11
8534.217031986059
 21
5995.715360473253
 31
0.0
  0
LINE
  5
1A639
330
19EB5
100
AcDbEntity
  8
KISO
100
AcDbLine
 10
8534.217031986059
 20
5995.715360473253
 30
0.0
 11
9134.217031986059
 21
5995.715360473253
 31
0.0
  0
LINE
  5
1A63A
330
19EB5
100
AcDbEntity
  8
KISO
100
AcDbLine
 10
9134.217031986059
 20
5995.715360473253
 30
0.0
 11
9134.217031986059
 21
5395.715360473253
 31
0.0
  0
LINE
  5
1A63B
330
19EB5
100
AcDbEntity
  8
KISO
100
AcDbLine
 10
7834.21703198606
 20
8995.715360473253
 30
0.0
 11
7234.21703198606
 21
8995.715360473253
 31
0.0
  0
LINE
  5
1A63C
330
19EB5
100
AcDbEntity
  8
KISO
100
AcDbLine
 10
7234.21703198606
 20
8995.715360473253
 30
0.0
 11
7234.21703198606
 21
9595.715360473253
 31
0.0
  0
LINE
  5
1A63D
330
19EB5
100
AcDbEntity
  8
KISO
100
AcDbLine
 10
7234.21703198606
 20
9595.715360473253
 30
0.0
 11
7834.21703198606
 21
9595.715360473253
 31
0.0
  0
LINE
  5
1A63E
330
19EB5
100
AcDbEntity
  8
KISO
100
AcDbLine
 10
7834.21703198606
 20
9595.715360473253
 30
0.0
 11
7834.21703198606
 21
8995.715360473253
 31
0.0
  0
LINE
  5
1A63F
330
19EB5
100
AcDbEntity
  8
U3
100
AcDbLine
 10
9130.078259983639
 20
3525.966871722361
 30
0.0
 11
9357.853645156977
 21
3920.485411556196
 31
0.0
1001
ACAD
1000
DSTYLE
1002
{
1070
   147
1040
1.0
1070
    77
1070
     0
1002
}
  0
LINE
  5
1A640
330
19EB5
100
AcDbEntity
  8
0
100
AcDbLine
 10
9118.531254599844
 20
3532.633538389028
 30
0.0
 11
9090.07825998364
 21
3456.684839419605
 31
0.0
  0
LINE
  5
1A641
330
19EB5
100
AcDbEntity
  8
0
100
AcDbLine
 10
9090.07825998364
 20
3456.684839419605
 30
0.0
 11
9141.625265367435
 21
3519.300205055695
 31
0.0
  0
SOLID
  5
1A642
330
19EB5
100
AcDbEntity
  8
0
100
AcDbTrace
 10
9118.531254599844
 20
3532.633538389028
 30
0.0
 11
9141.625265367435
 21
3519.300205055695
 31
0.0
 12
9090.07825998364
 22
3456.684839419605
 32
0.0
 13
9090.07825998364
 23
3456.684839419605
 33
0.0
  0
LINE
  5
1A643
330
19EB5
100
AcDbEntity
  8
0
100
AcDbLine
 10
9141.625265367435
 20
3519.300205055695
 30
0.0
 11
9118.531254599844
 21
3532.633538389028
 31
0.0
  0
ARC
  5
1A644
330
19EB5
100
AcDbEntity
  8
U1
100
AcDbCircle
 10
11660.41703198606
 20
9321.915360473253
 30
0.0
 40
6.299999999999272
100
AcDbArc
 50
0.0
 51
90.0
  0
LINE
  5
1A645
330
19EB5
100
AcDbEntity
  8
U1
100
AcDbLine
 10
11660.41703198606
 20
9328.215360473253
 30
0.0
 11
11653.01703198605
 21
9328.215360473253
 31
0.0
  0
ARC
  5
1A646
330
19EB5
100
AcDbEntity
  8
U1
100
AcDbCircle
 10
11653.01703198605
 20
9321.915360473253
 30
0.0
 40
6.299999999999272
100
AcDbArc
 50
90.0
 51
180.0
  0
ARC
  5
1A647
330
19EB5
100
AcDbEntity
  8
U1
100
AcDbCircle
 10
11640.41703198606
 20
9321.915360473253
 30
0.0
 40
6.299999999999272
100
AcDbArc
 50
0.0
 51
90.0
  0
LINE
  5
1A648
330
19EB5
100
AcDbEntity
  8
U1
100
AcDbLine
 10
11640.41703198606
 20
9328.215360473253
 30
0.0
 11
11608.01703198605
 21
9328.215360473253
 31
0.0
  0
ARC
  5
1A649
330
19EB5
100
AcDbEntity
  8
U1
100
AcDbCircle
 10
11608.01703198605
 20
9321.915360473253
 30
0.0
 40
6.299999999999272
100
AcDbArc
 50
90.0
 51
180.0
  0
LINE
  5
1A64A
330
19EB5
100
AcDbEntity
  8
U1
100
AcDbLine
 10
11601.71703198606
 20
9321.915360473253
 30
0.0
 11
11601.71703198606
 21
9269.515360473251
 31
0.0
  0
ARC
  5
1A64B
330
19EB5
100
AcDbEntity
  8
U1
100
AcDbCircle
 10
11608.01703198605
 20
9269.515360473251
 30
0.0
 40
6.299999999999272
100
AcDbArc
 50
180.0
 51
270.0
  0
LINE
  5
1A64C
330
19EB5
100
AcDbEntity
  8
U1
100
AcDbLine
 10
11608.01703198605
 20
9263.215360473251
 30
0.0
 11
11660.41703198606
 21
9263.215360473251
 31
0.0
  0
ARC
  5
1A64D
330
19EB5
100
AcDbEntity
  8
U1
100
AcDbCircle
 10
11660.41703198606
 20
9269.515360473251
 30
0.0
 40
6.299999999999272
100
AcDbArc
 50
270.0
 51
0.0
  0
LINE
  5
1A64E
330
19EB5
100
AcDbEntity
  8
U1
100
AcDbLine
 10
11666.71703198606
 20
9269.515360473251
 30
0.0
 11
11666.71703198606
 21
9321.915360473253
 31
0.0
  0
ARC
  5
1A64F
330
19EB5
100
AcDbEntity
  8
U1
100
AcDbCircle
 10
11660.41703198606
 20
7521.915360473252
 30
0.0
 40
6.299999999999272
100
AcDbArc
 50
0.0
 51
90.0
  0
LINE
  5
1A650
330
19EB5
100
AcDbEntity
  8
U1
100
AcDbLine
 10
11660.41703198606
 20
7528.215360473253
 30
0.0
 11
11653.01703198605
 21
7528.215360473253
 31
0.0
  0
ARC
  5
1A651
330
19EB5
100
AcDbEntity
  8
U1
100
AcDbCircle
 10
11653.01703198605
 20
7521.915360473252
 30
0.0
 40
6.300000000000181
100
AcDbArc
 50
90.0
 51
180.0
  0
ARC
  5
1A652
330
19EB5
100
AcDbEntity
  8
U1
100
AcDbCircle
 10
11640.41703198606
 20
7521.915360473252
 30
0.0
 40
6.299999999999272
100
AcDbArc
 50
0.0
 51
90.0
  0
LINE
  5
1A653
330
19EB5
100
AcDbEntity
  8
U1
100
AcDbLine
 10
11640.41703198606
 20
7528.215360473253
 30
0.0
 11
11608.01703198605
 21
7528.215360473253
 31
0.0
  0
ARC
  5
1A654
330
19EB5
100
AcDbEntity
  8
U1
100
AcDbCircle
 10
11608.01703198605
 20
7521.915360473252
 30
0.0
 40
6.300000000000181
100
AcDbArc
 50
90.0
 51
180.0
  0
LINE
  5
1A655
330
19EB5
100
AcDbEntity
  8
U1
100
AcDbLine
 10
11601.71703198606
 20
7521.915360473252
 30
0.0
 11
11601.71703198606
 21
7469.515360473251
 31
0.0
  0
ARC
  5
1A656
330
19EB5
100
AcDbEntity
  8
U1
100
AcDbCircle
 10
11608.01703198605
 20
7469.515360473251
 30
0.0
 40
6.299999999999272
100
AcDbArc
 50
180.0
 51
270.0
  0
LINE
  5
1A657
330
19EB5
100
AcDbEntity
  8
U1
100
AcDbLine
 10
11608.01703198605
 20
7463.215360473253
 30
0.0
 11
11660.41703198606
 21
7463.215360473253
 31
0.0
  0
ARC
  5
1A658
330
19EB5
100
AcDbEntity
  8
U1
100
AcDbCircle
 10
11660.41703198606
 20
7469.515360473251
 30
0.0
 40
6.299999999999272
100
AcDbArc
 50
270.0
 51
0.0
  0
LINE
  5
1A659
330
19EB5
100
AcDbEntity
  8
U1
100
AcDbLine
 10
11666.71703198606
 20
7469.515360473251
 30
0.0
 11
11666.71703198606
 21
7521.915360473252
 31
0.0
  0
ARC
  5
1A65A
330
19EB5
100
AcDbEntity
  8
U1
100
AcDbCircle
 10
11660.41703198606
 20
5721.915360473253
 30
0.0
 40
6.299999999999272
100
AcDbArc
 50
0.0
 51
90.0
  0
LINE
  5
1A65B
330
19EB5
100
AcDbEntity
  8
U1
100
AcDbLine
 10
11660.41703198606
 20
5728.215360473253
 30
0.0
 11
11653.01703198605
 21
5728.215360473253
 31
0.0
  0
ARC
  5
1A65C
330
19EB5
100
AcDbEntity
  8
U1
100
AcDbCircle
 10
11653.01703198605
 20
5721.915360473253
 30
0.0
 40
6.300000000000181
100
AcDbArc
 50
90.0
 51
180.0
  0
ARC
  5
1A65D
330
19EB5
100
AcDbEntity
  8
U1
100
AcDbCircle
 10
11640.41703198606
 20
5721.915360473253
 30
0.0
 40
6.299999999999272
100
AcDbArc
 50
0.0
 51
90.0
  0
LINE
  5
1A65E
330
19EB5
100
AcDbEntity
  8
U1
100
AcDbLine
 10
11640.41703198606
 20
5728.215360473253
 30
0.0
 11
11608.01703198605
 21
5728.215360473253
 31
0.0
  0
ARC
  5
1A65F
330
19EB5
100
AcDbEntity
  8
U1
100
AcDbCircle
 10
11608.01703198605
 20
5721.915360473253
 30
0.0
 40
6.300000000000181
100
AcDbArc
 50
90.0
 51
180.0
  0
LINE
  5
1A660
330
19EB5
100
AcDbEntity
  8
U1
100
AcDbLine
 10
11601.71703198606
 20
5721.915360473253
 30
0.0
 11
11601.71703198606
 21
5669.515360473252
 31
0.0
  0
ARC
  5
1A661
330
19EB5
100
AcDbEntity
  8
U1
100
AcDbCircle
 10
11608.01703198605
 20
5669.515360473252
 30
0.0
 40
6.299999999999272
100
AcDbArc
 50
180.0
 51
270.0
  0
LINE
  5
1A662
330
19EB5
100
AcDbEntity
  8
U1
100
AcDbLine
 10
11608.01703198605
 20
5663.215360473253
 30
0.0
 11
11660.41703198606
 21
5663.215360473253
 31
0.0
  0
ARC
  5
1A663
330
19EB5
100
AcDbEntity
  8
U1
100
AcDbCircle
 10
11660.41703198606
 20
5669.515360473252
 30
0.0
 40
6.299999999999272
100
AcDbArc
 50
270.0
 51
0.0
  0
LINE
  5
1A664
330
19EB5
100
AcDbEntity
  8
U1
100
AcDbLine
 10
11666.71703198606
 20
5669.515360473252
 30
0.0
 11
11666.71703198606
 21
5721.915360473253
 31
0.0
  0
ARC
  5
1A665
330
19EB5
100
AcDbEntity
  8
U1
100
AcDbCircle
 10
8860.41703198606
 20
9321.915360473253
 30
0.0
 40
6.299999999999272
100
AcDbArc
 50
0.0
 51
90.0
  0
LINE
  5
1A666
330
19EB5
100
AcDbEntity
  8
U1
100
AcDbLine
 10
8860.41703198606
 20
9328.215360473253
 30
0.0
 11
8853.017031986059
 21
9328.215360473253
 31
0.0
  0
ARC
  5
1A667
330
19EB5
100
AcDbEntity
  8
U1
100
AcDbCircle
 10
8853.017031986059
 20
9321.915360473253
 30
0.0
 40
6.299999999999272
100
AcDbArc
 50
90.0
 51
180.0
  0
ARC
  5
1A668
330
19EB5
100
AcDbEntity
  8
U1
100
AcDbCircle
 10
8840.417031986062
 20
9321.915360473253
 30
0.0
 40
6.299999999999272
100
AcDbArc
 50
0.0
 51
90.0
  0
LINE
  5
1A669
330
19EB5
100
AcDbEntity
  8
U1
100
AcDbLine
 10
8840.417031986062
 20
9328.215360473253
 30
0.0
 11
8808.017031986059
 21
9328.215360473253
 31
0.0
  0
ARC
  5
1A66A
330
19EB5
100
AcDbEntity
  8
U1
100
AcDbCircle
 10
8808.017031986059
 20
9321.915360473253
 30
0.0
 40
6.299999999999272
100
AcDbArc
 50
90.0
 51
180.0
  0
LINE
  5
1A66B
330
19EB5
100
AcDbEntity
  8
U1
100
AcDbLine
 10
8801.71703198606
 20
9321.915360473253
 30
0.0
 11
8801.71703198606
 21
9269.515360473251
 31
0.0
  0
ARC
  5
1A66C
330
19EB5
100
AcDbEntity
  8
U1
100
AcDbCircle
 10
8808.017031986059
 20
9269.515360473251
 30
0.0
 40
6.299999999999272
100
AcDbArc
 50
180.0
 51
270.0
  0
LINE
  5
1A66D
330
19EB5
100
AcDbEntity
  8
U1
100
AcDbLine
 10
8808.017031986059
 20
9263.215360473251
 30
0.0
 11
8860.41703198606
 21
9263.215360473251
 31
0.0
  0
ARC
  5
1A66E
330
19EB5
100
AcDbEntity
  8
U1
100
AcDbCircle
 10
8860.41703198606
 20
9269.515360473251
 30
0.0
 40
6.299999999999272
100
AcDbArc
 50
270.0
 51
0.0
  0
LINE
  5
1A66F
330
19EB5
100
AcDbEntity
  8
U1
100
AcDbLine
 10
8866.717031986061
 20
9269.515360473251
 30
0.0
 11
8866.717031986061
 21
9321.915360473253
 31
0.0
  0
ARC
  5
1A670
330
19EB5
100
AcDbEntity
  8
U1
100
AcDbCircle
 10
8860.41703198606
 20
7521.915360473252
 30
0.0
 40
6.299999999999272
100
AcDbArc
 50
0.0
 51
90.0
  0
LINE
  5
1A671
330
19EB5
100
AcDbEntity
  8
U1
100
AcDbLine
 10
8860.41703198606
 20
7528.215360473253
 30
0.0
 11
8853.017031986059
 21
7528.215360473253
 31
0.0
  0
ARC
  5
1A672
330
19EB5
100
AcDbEntity
  8
U1
100
AcDbCircle
 10
8853.017031986059
 20
7521.915360473252
 30
0.0
 40
6.300000000000181
100
AcDbArc
 50
90.0
 51
180.0
  0
ARC
  5
1A673
330
19EB5
100
AcDbEntity
  8
U1
100
AcDbCircle
 10
8840.417031986062
 20
7521.915360473252
 30
0.0
 40
6.299999999999272
100
AcDbArc
 50
0.0
 51
90.0
  0
LINE
  5
1A674
330
19EB5
100
AcDbEntity
  8
U1
100
AcDbLine
 10
8840.417031986062
 20
7528.215360473253
 30
0.0
 11
8808.017031986059
 21
7528.215360473253
 31
0.0
  0
ARC
  5
1A675
330
19EB5
100
AcDbEntity
  8
U1
100
AcDbCircle
 10
8808.017031986059
 20
7521.915360473252
 30
0.0
 40
6.300000000000181
100
AcDbArc
 50
90.0
 51
180.0
  0
LINE
  5
1A676
330
19EB5
100
AcDbEntity
  8
U1
100
AcDbLine
 10
8801.71703198606
 20
7521.915360473252
 30
0.0
 11
8801.71703198606
 21
7469.515360473251
 31
0.0
  0
ARC
  5
1A677
330
19EB5
100
AcDbEntity
  8
U1
100
AcDbCircle
 10
8808.017031986059
 20
7469.515360473251
 30
0.0
 40
6.299999999999272
100
AcDbArc
 50
180.0
 51
270.0
  0
LINE
  5
1A678
330
19EB5
100
AcDbEntity
  8
U1
100
AcDbLine
 10
8808.017031986059
 20
7463.215360473253
 30
0.0
 11
8860.41703198606
 21
7463.215360473253
 31
0.0
  0
ARC
  5
1A679
330
19EB5
100
AcDbEntity
  8
U1
100
AcDbCircle
 10
8860.41703198606
 20
7469.515360473251
 30
0.0
 40
6.299999999999272
100
AcDbArc
 50
270.0
 51
0.0
  0
LINE
  5
1A67A
330
19EB5
100
AcDbEntity
  8
U1
100
AcDbLine
 10
8866.717031986061
 20
7469.515360473251
 30
0.0
 11
8866.717031986061
 21
7521.915360473252
 31
0.0
  0
ARC
  5
1A67B
330
19EB5
100
AcDbEntity
  8
U1
100
AcDbCircle
 10
8860.41703198606
 20
5721.915360473253
 30
0.0
 40
6.299999999999272
100
AcDbArc
 50
0.0
 51
90.0
  0
LINE
  5
1A67C
330
19EB5
100
AcDbEntity
  8
U1
100
AcDbLine
 10
8860.41703198606
 20
5728.215360473253
 30
0.0
 11
8853.017031986059
 21
5728.215360473253
 31
0.0
  0
ARC
  5
1A67D
330
19EB5
100
AcDbEntity
  8
U1
100
AcDbCircle
 10
8853.017031986059
 20
5721.915360473253
 30
0.0
 40
6.300000000000181
100
AcDbArc
 50
90.0
 51
180.0
  0
ARC
  5
1A67E
330
19EB5
100
AcDbEntity
  8
U1
100
AcDbCircle
 10
8840.417031986062
 20
5721.915360473253
 30
0.0
 40
6.299999999999272
100
AcDbArc
 50
0.0
 51
90.0
  0
LINE
  5
1A67F
330
19EB5
100
AcDbEntity
  8
U1
100
AcDbLine
 10
8840.417031986062
 20
5728.215360473253
 30
0.0
 11
8808.017031986059
 21
5728.215360473253
 31
0.0
  0
ARC
  5
1A680
330
19EB5
100
AcDbEntity
  8
U1
100
AcDbCircle
 10
8808.017031986059
 20
5721.915360473253
 30
0.0
 40
6.300000000000181
100
AcDbArc
 50
90.0
 51
180.0
  0
LINE
  5
1A681
330
19EB5
100
AcDbEntity
  8
U1
100
AcDbLine
 10
8801.71703198606
 20
5721.915360473253
 30
0.0
 11
8801.71703198606
 21
5669.515360473252
 31
0.0
  0
ARC
  5
1A682
330
19EB5
100
AcDbEntity
  8
U1
100
AcDbCircle
 10
8808.017031986059
 20
5669.515360473252
 30
0.0
 40
6.299999999999272
100
AcDbArc
 50
180.0
 51
270.0
  0
LINE
  5
1A683
330
19EB5
100
AcDbEntity
  8
U1
100
AcDbLine
 10
8808.017031986059
 20
5663.215360473253
 30
0.0
 11
8860.41703198606
 21
5663.215360473253
 31
0.0
  0
ARC
  5
1A684
330
19EB5
100
AcDbEntity
  8
U1
100
AcDbCircle
 10
8860.41703198606
 20
5669.515360473252
 30
0.0
 40
6.299999999999272
100
AcDbArc
 50
270.0
 51
0.0
  0
LINE
  5
1A685
330
19EB5
100
AcDbEntity
  8
U1
100
AcDbLine
 10
8866.717031986061
 20
5669.515360473252
 30
0.0
 11
8866.717031986061
 21
5721.915360473253
 31
0.0
  0
ARC
  5
1A686
330
19EB5
100
AcDbEntity
  8
U1
100
AcDbCircle
 10
7560.41703198606
 20
9321.915360473253
 30
0.0
 40
6.299999999999272
100
AcDbArc
 50
0.0
 51
90.00000000000826
  0
LINE
  5
1A687
330
19EB5
100
AcDbEntity
  8
U1
100
AcDbLine
 10
7560.41703198606
 20
9328.215360473253
 30
0.0
 11
7553.017031986062
 21
9328.215360473253
 31
0.0
  0
ARC
  5
1A688
330
19EB5
100
AcDbEntity
  8
U1
100
AcDbCircle
 10
7553.017031986058
 20
9321.915360473253
 30
0.0
 40
6.299999999999272
100
AcDbArc
 50
89.99999999999173
 51
180.0
  0
ARC
  5
1A689
330
19EB5
100
AcDbEntity
  8
U1
100
AcDbCircle
 10
7540.417031986061
 20
9321.915360473253
 30
0.0
 40
6.299999999999272
100
AcDbArc
 50
0.0
 51
90.00000000000826
  0
LINE
  5
1A68A
330
19EB5
100
AcDbEntity
  8
U1
100
AcDbLine
 10
7540.417031986058
 20
9328.215360473253
 30
0.0
 11
7508.017031986061
 21
9328.215360473253
 31
0.0
  0
ARC
  5
1A68B
330
19EB5
100
AcDbEntity
  8
U1
100
AcDbCircle
 10
7508.017031986058
 20
9321.915360473253
 30
0.0
 40
6.299999999999272
100
AcDbArc
 50
89.99999999999173
 51
180.0
  0
LINE
  5
1A68C
330
19EB5
100
AcDbEntity
  8
U1
100
AcDbLine
 10
7501.71703198606
 20
9321.915360473253
 30
0.0
 11
7501.71703198606
 21
9269.515360473251
 31
0.0
  0
ARC
  5
1A68D
330
19EB5
100
AcDbEntity
  8
U1
100
AcDbCircle
 10
7508.017031986058
 20
9269.515360473251
 30
0.0
 40
6.299999999999272
100
AcDbArc
 50
180.0
 51
270.0000000000081
  0
LINE
  5
1A68E
330
19EB5
100
AcDbEntity
  8
U1
100
AcDbLine
 10
7508.017031986061
 20
9263.215360473251
 30
0.0
 11
7560.41703198606
 21
9263.215360473251
 31
0.0
  0
ARC
  5
1A68F
330
19EB5
100
AcDbEntity
  8
U1
100
AcDbCircle
 10
7560.41703198606
 20
9269.515360473251
 30
0.0
 40
6.299999999999272
100
AcDbArc
 50
269.9999999999918
 51
0.0
  0
LINE
  5
1A690
330
19EB5
100
AcDbEntity
  8
U1
100
AcDbLine
 10
7566.71703198606
 20
9269.515360473251
 30
0.0
 11
7566.71703198606
 21
9321.915360473253
 31
0.0
  0
ARC
  5
1A691
330
19EB5
100
AcDbEntity
  8
U1
100
AcDbCircle
 10
7560.41703198606
 20
7521.915360473252
 30
0.0
 40
6.299999999999272
100
AcDbArc
 50
0.0
 51
90.00000000000826
  0
LINE
  5
1A692
330
19EB5
100
AcDbEntity
  8
U1
100
AcDbLine
 10
7560.41703198606
 20
7528.215360473253
 30
0.0
 11
7553.017031986062
 21
7528.215360473253
 31
0.0
  0
ARC
  5
1A693
330
19EB5
100
AcDbEntity
  8
U1
100
AcDbCircle
 10
7553.017031986058
 20
7521.915360473252
 30
0.0
 40
6.300000000000181
100
AcDbArc
 50
89.99999999999173
 51
180.0
  0
ARC
  5
1A694
330
19EB5
100
AcDbEntity
  8
U1
100
AcDbCircle
 10
7540.417031986058
 20
7521.915360473252
 30
0.0
 40
6.300000000000181
100
AcDbArc
 50
0.0000000000082715
 51
90.0
  0
LINE
  5
1A695
330
19EB5
100
AcDbEntity
  8
U1
100
AcDbLine
 10
7540.417031986058
 20
7528.215360473253
 30
0.0
 11
7508.017031986061
 21
7528.215360473253
 31
0.0
  0
ARC
  5
1A696
330
19EB5
100
AcDbEntity
  8
U1
100
AcDbCircle
 10
7508.017031986058
 20
7521.915360473252
 30
0.0
 40
6.300000000000181
100
AcDbArc
 50
89.99999999999173
 51
180.0
  0
LINE
  5
1A697
330
19EB5
100
AcDbEntity
  8
U1
100
AcDbLine
 10
7501.71703198606
 20
7521.915360473252
 30
0.0
 11
7501.71703198606
 21
7469.515360473251
 31
0.0
  0
ARC
  5
1A698
330
19EB5
100
AcDbEntity
  8
U1
100
AcDbCircle
 10
7508.017031986058
 20
7469.515360473251
 30
0.0
 40
6.299999999999272
100
AcDbArc
 50
180.0
 51
270.0000000000081
  0
LINE
  5
1A699
330
19EB5
100
AcDbEntity
  8
U1
100
AcDbLine
 10
7508.017031986061
 20
7463.215360473253
 30
0.0
 11
7560.41703198606
 21
7463.215360473253
 31
0.0
  0
ARC
  5
1A69A
330
19EB5
100
AcDbEntity
  8
U1
100
AcDbCircle
 10
7560.41703198606
 20
7469.515360473251
 30
0.0
 40
6.299999999999272
100
AcDbArc
 50
269.9999999999918
 51
0.0
  0
LINE
  5
1A69B
330
19EB5
100
AcDbEntity
  8
U1
100
AcDbLine
 10
7566.71703198606
 20
7469.515360473251
 30
0.0
 11
7566.71703198606
 21
7521.915360473252
 31
0.0
  0
ARC
  5
1A69C
330
19EB5
100
AcDbEntity
  8
U1
100
AcDbCircle
 10
7560.41703198606
 20
5721.915360473253
 30
0.0
 40
6.299999999999272
100
AcDbArc
 50
0.0
 51
90.00000000000826
  0
LINE
  5
1A69D
330
19EB5
100
AcDbEntity
  8
U1
100
AcDbLine
 10
7560.41703198606
 20
5728.215360473253
 30
0.0
 11
7553.017031986062
 21
5728.215360473253
 31
0.0
  0
ARC
  5
1A69E
330
19EB5
100
AcDbEntity
  8
U1
100
AcDbCircle
 10
7553.017031986058
 20
5721.915360473253
 30
0.0
 40
6.300000000000181
100
AcDbArc
 50
89.99999999999173
 51
180.0
  0
ARC
  5
1A69F
330
19EB5
100
AcDbEntity
  8
U1
100
AcDbCircle
 10
7540.417031986058
 20
5721.915360473252
 30
0.0
 40
6.300000000000181
100
AcDbArc
 50
0.0000000000082715
 51
90.0
  0
LINE
  5
1A6A0
330
19EB5
100
AcDbEntity
  8
U1
100
AcDbLine
 10
7540.417031986058
 20
5728.215360473253
 30
0.0
 11
7508.017031986061
 21
5728.215360473253
 31
0.0
  0
ARC
  5
1A6A1
330
19EB5
100
AcDbEntity
  8
U1
100
AcDbCircle
 10
7508.017031986058
 20
5721.915360473253
 30
0.0
 40
6.300000000000181
100
AcDbArc
 50
89.99999999999173
 51
180.0
  0
LINE
  5
1A6A2
330
19EB5
100
AcDbEntity
  8
U1
100
AcDbLine
 10
7501.71703198606
 20
5721.915360473253
 30
0.0
 11
7501.71703198606
 21
5669.515360473252
 31
0.0
  0
ARC
  5
1A6A3
330
19EB5
100
AcDbEntity
  8
U1
100
AcDbCircle
 10
7508.017031986058
 20
5669.515360473252
 30
0.0
 40
6.299999999999272
100
AcDbArc
 50
180.0
 51
270.0000000000081
  0
LINE
  5
1A6A4
330
19EB5
100
AcDbEntity
  8
U1
100
AcDbLine
 10
7508.017031986061
 20
5663.215360473253
 30
0.0
 11
7560.41703198606
 21
5663.215360473253
 31
0.0
  0
ARC
  5
1A6A5
330
19EB5
100
AcDbEntity
  8
U1
100
AcDbCircle
 10
7560.41703198606
 20
5669.515360473252
 30
0.0
 40
6.299999999999272
100
AcDbArc
 50
269.9999999999918
 51
0.0
  0
LINE
  5
1A6A6
330
19EB5
100
AcDbEntity
  8
U1
100
AcDbLine
 10
7566.71703198606
 20
5669.515360473252
 30
0.0
 11
7566.71703198606
 21
5721.915360473253
 31
0.0
  0
ARC
  5
1A6A7
330
19EB5
100
AcDbEntity
  8
U1
100
AcDbCircle
 10
4760.417031986061
 20
9321.915360473253
 30
0.0
 40
6.299999999999272
100
AcDbArc
 50
0.0
 51
90.00000000000826
  0
LINE
  5
1A6A8
330
19EB5
100
AcDbEntity
  8
U1
100
AcDbLine
 10
4760.417031986057
 20
9328.215360473253
 30
0.0
 11
4753.01703198606
 21
9328.215360473253
 31
0.0
  0
ARC
  5
1A6A9
330
19EB5
100
AcDbEntity
  8
U1
100
AcDbCircle
 10
4753.017031986058
 20
9321.915360473253
 30
0.0
 40
6.299999999999272
100
AcDbArc
 50
89.99999999999173
 51
180.0
  0
ARC
  5
1A6AA
330
19EB5
100
AcDbEntity
  8
U1
100
AcDbCircle
 10
4740.41703198606
 20
9321.915360473253
 30
0.0
 40
6.299999999999272
100
AcDbArc
 50
0.0
 51
90.00000000000826
  0
LINE
  5
1A6AB
330
19EB5
100
AcDbEntity
  8
U1
100
AcDbLine
 10
4740.417031986058
 20
9328.215360473253
 30
0.0
 11
4708.017031986059
 21
9328.215360473253
 31
0.0
  0
ARC
  5
1A6AC
330
19EB5
100
AcDbEntity
  8
U1
100
AcDbCircle
 10
4708.017031986059
 20
9321.915360473253
 30
0.0
 40
6.299999999999272
100
AcDbArc
 50
89.99999999999173
 51
180.0
  0
LINE
  5
1A6AD
330
19EB5
100
AcDbEntity
  8
U1
100
AcDbLine
 10
4701.717031986058
 20
9321.915360473253
 30
0.0
 11
4701.717031986058
 21
9269.515360473251
 31
0.0
  0
ARC
  5
1A6AE
330
19EB5
100
AcDbEntity
  8
U1
100
AcDbCircle
 10
4708.017031986059
 20
9269.515360473251
 30
0.0
 40
6.299999999999272
100
AcDbArc
 50
180.0
 51
270.0000000000081
  0
LINE
  5
1A6AF
330
19EB5
100
AcDbEntity
  8
U1
100
AcDbLine
 10
4708.017031986059
 20
9263.215360473251
 30
0.0
 11
4760.417031986057
 21
9263.215360473251
 31
0.0
  0
ARC
  5
1A6B0
330
19EB5
100
AcDbEntity
  8
U1
100
AcDbCircle
 10
4760.417031986061
 20
9269.515360473251
 30
0.0
 40
6.299999999999272
100
AcDbArc
 50
269.9999999999918
 51
0.0
  0
LINE
  5
1A6B1
330
19EB5
100
AcDbEntity
  8
U1
100
AcDbLine
 10
4766.717031986058
 20
9269.515360473251
 30
0.0
 11
4766.717031986058
 21
9321.915360473253
 31
0.0
  0
ARC
  5
1A6B2
330
19EB5
100
AcDbEntity
  8
U1
100
AcDbCircle
 10
4760.417031986061
 20
7521.915360473252
 30
0.0
 40
6.299999999999272
100
AcDbArc
 50
0.0
 51
90.00000000000826
  0
LINE
  5
1A6B3
330
19EB5
100
AcDbEntity
  8
U1
100
AcDbLine
 10
4760.417031986057
 20
7528.215360473253
 30
0.0
 11
4753.01703198606
 21
7528.215360473253
 31
0.0
  0
ARC
  5
1A6B4
330
19EB5
100
AcDbEntity
  8
U1
100
AcDbCircle
 10
4753.017031986058
 20
7521.915360473252
 30
0.0
 40
6.300000000000181
100
AcDbArc
 50
89.99999999999173
 51
180.0
  0
ARC
  5
1A6B5
330
19EB5
100
AcDbEntity
  8
U1
100
AcDbCircle
 10
4740.417031986058
 20
7521.915360473252
 30
0.0
 40
6.300000000000181
100
AcDbArc
 50
0.0000000000082715
 51
90.0
  0
LINE
  5
1A6B6
330
19EB5
100
AcDbEntity
  8
U1
100
AcDbLine
 10
4740.417031986058
 20
7528.215360473253
 30
0.0
 11
4708.017031986059
 21
7528.215360473253
 31
0.0
  0
ARC
  5
1A6B7
330
19EB5
100
AcDbEntity
  8
U1
100
AcDbCircle
 10
4708.017031986059
 20
7521.915360473252
 30
0.0
 40
6.300000000000181
100
AcDbArc
 50
89.99999999999173
 51
180.0
  0
LINE
  5
1A6B8
330
19EB5
100
AcDbEntity
  8
U1
100
AcDbLine
 10
4701.717031986058
 20
7521.915360473252
 30
0.0
 11
4701.717031986058
 21
7469.515360473251
 31
0.0
  0
ARC
  5
1A6B9
330
19EB5
100
AcDbEntity
  8
U1
100
AcDbCircle
 10
4708.017031986059
 20
7469.515360473251
 30
0.0
 40
6.299999999999272
100
AcDbArc
 50
180.0
 51
270.0000000000081
  0
LINE
  5
1A6BA
330
19EB5
100
AcDbEntity
  8
U1
100
AcDbLine
 10
4708.017031986059
 20
7463.215360473253
 30
0.0
 11
4760.417031986057
 21
7463.215360473253
 31
0.0
  0
ARC
  5
1A6BB
330
19EB5
100
AcDbEntity
  8
U1
100
AcDbCircle
 10
4760.417031986061
 20
7469.515360473251
 30
0.0
 40
6.299999999999272
100
AcDbArc
 50
269.9999999999918
 51
0.0
  0
LINE
  5
1A6BC
330
19EB5
100
AcDbEntity
  8
U1
100
AcDbLine
 10
4766.717031986058
 20
7469.515360473251
 30
0.0
 11
4766.717031986058
 21
7521.915360473252
 31
0.0
  0
ARC
  5
1A6BD
330
19EB5
100
AcDbEntity
  8
U1
100
AcDbCircle
 10
4760.417031986061
 20
5721.915360473253
 30
0.0
 40
6.299999999999272
100
AcDbArc
 50
0.0
 51
90.00000000000826
  0
LINE
  5
1A6BE
330
19EB5
100
AcDbEntity
  8
U1
100
AcDbLine
 10
4760.417031986057
 20
5728.215360473253
 30
0.0
 11
4753.01703198606
 21
5728.215360473253
 31
0.0
  0
ARC
  5
1A6BF
330
19EB5
100
AcDbEntity
  8
U1
100
AcDbCircle
 10
4753.017031986058
 20
5721.915360473253
 30
0.0
 40
6.300000000000181
100
AcDbArc
 50
89.99999999999173
 51
180.0
  0
ARC
  5
1A6C0
330
19EB5
100
AcDbEntity
  8
U1
100
AcDbCircle
 10
4740.417031986058
 20
5721.915360473252
 30
0.0
 40
6.300000000000181
100
AcDbArc
 50
0.0000000000082715
 51
90.0
  0
LINE
  5
1A6C1
330
19EB5
100
AcDbEntity
  8
U1
100
AcDbLine
 10
4740.417031986058
 20
5728.215360473253
 30
0.0
 11
4708.017031986059
 21
5728.215360473253
 31
0.0
  0
ARC
  5
1A6C2
330
19EB5
100
AcDbEntity
  8
U1
100
AcDbCircle
 10
4708.017031986059
 20
5721.915360473253
 30
0.0
 40
6.300000000000181
100
AcDbArc
 50
89.99999999999173
 51
180.0
  0
LINE
  5
1A6C3
330
19EB5
100
AcDbEntity
  8
U1
100
AcDbLine
 10
4701.717031986058
 20
5721.915360473253
 30
0.0
 11
4701.717031986058
 21
5669.515360473252
 31
0.0
  0
ARC
  5
1A6C4
330
19EB5
100
AcDbEntity
  8
U1
100
AcDbCircle
 10
4708.017031986059
 20
5669.515360473252
 30
0.0
 40
6.299999999999272
100
AcDbArc
 50
180.0
 51
270.0000000000081
  0
LINE
  5
1A6C5
330
19EB5
100
AcDbEntity
  8
U1
100
AcDbLine
 10
4708.017031986059
 20
5663.215360473253
 30
0.0
 11
4760.417031986057
 21
5663.215360473253
 31
0.0
  0
ARC
  5
1A6C6
330
19EB5
100
AcDbEntity
  8
U1
100
AcDbCircle
 10
4760.417031986061
 20
5669.515360473252
 30
0.0
 40
6.299999999999272
100
AcDbArc
 50
269.9999999999918
 51
0.0
  0
LINE
  5
1A6C7
330
19EB5
100
AcDbEntity
  8
U1
100
AcDbLine
 10
4766.717031986058
 20
5669.515360473252
 30
0.0
 11
4766.717031986058
 21
5721.915360473253
 31
0.0
  0
TEXT
  5
1A6E9
330
19EB5
100
AcDbEntity
  8
SUNPOU
100
AcDbText
 10
764.7417779447664
 20
5046.692559297765
 30
0.0
 40
89.9993750043402
  1
地耐力   　　　 以上,コンクリート設計基準強度　　　　　以上
  7
01
100
AcDbText
  0
TEXT
  5
1A6EA
330
19EB5
100
AcDbEntity
  8
SUNPOU
100
AcDbText
 10
1139.697523034159
 20
4358.835416440622
 30
0.0
 40
90.0
  1
その他現地の実情にあわせて設計して下さい。
  7
01
100
AcDbText
  0
TEXT
  5
1A6EB
330
19EB5
100
AcDbEntity
  8
SUNPOU
100
AcDbText
 10
1139.697523034159
 20
4667.406845012052
 30
0.0
 40
90.0
  1
寒冷地の場合、凍結深度等を考慮し、実情に
  7
01
100
AcDbText
  0
TEXT
  5
1A6EC
330
19EB5
100
AcDbEntity
  8
SUNPOU
100
AcDbText
 10
764.7417779447664
 20
4892.406845012052
 30
0.0
 40
89.9993750043402
  1
基準風速   　　 , 地表面粗度区分
  7
01
100
AcDbText
  0
TEXT
  5
1A6ED
330
19EB5
100
AcDbEntity
  8
SUNPOU
100
AcDbText
 10
1139.697523034159
 20
4513.121130726335
 30
0.0
 40
90.0
  1
あわせて設計して下さい。
  7
01
100
AcDbText
  0
TEXT
  5
1A6EE
330
19EB5
100
AcDbEntity
  8
SUNPOU
100
AcDbText
 10
634.1781492285352
 20
5235.946561743723
 30
0.0
 40
90.0
  1
<下記条件での参考図>
  7
01
 72
     4
 11
1223.035292085678
 21
5280.946561743722
 31
0.0
100
AcDbText
  0
TEXT
  5
1A6EF
330
19EB5
100
AcDbEntity
  8
SUNPOU
100
AcDbText
 10
1476.385629448648
 20
5405.754254051414
 30
0.0
 40
92.30769230769228
  1
（ S = 　　  ）
 41
0.6700000000000001
  7
00
 11
1476.385629448648
 21
5393.446561743722
 31
0.0
100
AcDbText
 73
     1
  0
ARC
  5
1A6F0
330
19EB5
100
AcDbEntity
  8
SUNPOU
100
AcDbCircle
 10
917.7000518519708
 20
5010.479982739596
 30
0.0
 40
225.0
100
AcDbArc
 50
148.3472725282829
 51
211.652727471717
  0
TEXT
  5
1A6F1
330
19EB5
100
AcDbEntity
  8
SUNPOU
100
AcDbText
 10
822.8578577320231
 20
4358.835416440622
 30
0.0
 40
90.0
  1
注　）
  7
01
100
AcDbText
  0
TEXT
  5
1A6F2
330
19EB5
100
AcDbEntity
  8
SUNPOU
100
AcDbText
 10
822.8578577320231
 20
4667.406845012052
 30
0.0
 40
90.0
  1
注　）
  7
01
100
AcDbText
  0
TEXT
  5
1A6F3
330
19EB5
100
AcDbEntity
  8
SUNPOU
100
AcDbText
 10
933.491777944765
 20
4358.835416440622
 30
0.0
 40
90.0
  1
2
 41
0.6700000000000001
  7
01
100
AcDbText
  0
TEXT
  5
1A6F4
330
19EB5
100
AcDbEntity
  8
SUNPOU
100
AcDbText
 10
933.491777944765
 20
4667.406845012052
 30
0.0
 40
90.0
  1
1
 41
0.6700000000000001
  7
01
100
AcDbText
  0
TEXT
  5
1A6F5
330
19EB5
100
AcDbEntity
  8
SUNPOU
100
AcDbText
 10
1248.505206609934
 20
4892.406845012052
 30
0.0
 40
89.9993750043402
  1
34 m/s
 41
0.6700000000000001
  7
01
100
AcDbText
  0
TEXT
  5
1A6F6
330
19EB5
100
AcDbEntity
  8
SUNPOU
100
AcDbText
 10
759.5352920856771
 20
5393.446561743722
 30
0.0
 40
120.0
  1
基礎断面図
  7
01
 72
     4
 11
1099.535292085677
 21
5453.446561743722
 31
0.0
100
AcDbText
  0
TEXT
  5
1A6F7
330
19EB5
100
AcDbEntity
  8
SUNPOU
100
AcDbText
 10
1139.000185369848
 20
5046.692559297765
 30
0.0
 40
89.9993750043402
  1
50  N/m
 41
0.6700000000000001
  7
01
100
AcDbText
  0
TEXT
  5
1A6F8
330
19EB5
100
AcDbEntity
  8
SUNPOU
100
AcDbText
 10
1274.836638155802
 20
5046.692559297765
 30
0.0
 40
71.99950000347218
  1
K
 41
0.6700000000000001
  7
01
100
AcDbText
  0
TEXT
  5
1A6F9
330
19EB5
100
AcDbEntity
  8
SUNPOU
100
AcDbText
 10
1542.476794884185
 20
5096.880985655251
 30
0.0
 40
46.28539285937498
  1
2
 41
0.6700000000000001
  7
00
100
AcDbText
  0
LINE
  5
1A6FA
330
19EB5
100
AcDbEntity
  8
SUNPOU
100
AcDbLine
 10
2601.557339511374
 20
4892.406845012052
 30
0.0
 11
2601.557339511374
 21
4975.899208710831
 31
0.0
  0
LINE
  5
1A6FB
330
19EB5
100
AcDbEntity
  8
SUNPOU
100
AcDbLine
 10
2584.682339511374
 20
4892.406845012052
 30
0.0
 11
2584.682339511374
 21
4975.899208710831
 31
0.0
  0
LINE
  5
1A6FC
330
19EB5
100
AcDbEntity
  8
SUNPOU
100
AcDbLine
 10
2567.807339511374
 20
4892.406845012052
 30
0.0
 11
2567.807339511374
 21
4975.899208710831
 31
0.0
  0
LINE
  5
1A6FD
330
19EB5
100
AcDbEntity
  8
SUNPOU
100
AcDbLine
 10
2556.557339511374
 20
4892.406845012051
 30
0.0
 11
2612.807339511374
 21
4892.406845012051
 31
0.0
  0
LINE
  5
1A6FE
330
19EB5
100
AcDbEntity
  8
SUNPOU
100
AcDbLine
 10
2556.557339511374
 20
4975.899208710831
 30
0.0
 11
2612.807339511374
 21
4975.899208710831
 31
0.0
  0
TEXT
  5
1A6FF
330
19EB5
100
AcDbEntity
  8
SUNPOU
100
AcDbText
 10
1844.494458617104
 20
5403.292715589876
 30
0.0
 40
73.84615384615384
  1
/
 41
0.6700000000000001
  7
00
 11
1844.494458617104
 21
5393.446561743722
 31
0.0
100
AcDbText
 73
     1
  0
TEXT
  5
1A700
330
19EB5
100
AcDbEntity
  8
SUNPOU
100
AcDbText
 10
1796.088331301733
 20
5421.754254051414
 30
0.0
 40
73.84615384615384
  1
1
 41
0.6700000000000001
  7
00
 11
1796.088331301733
 21
5411.90810020526
 31
0.0
100
AcDbText
 73
     1
  0
TEXT
  5
1A701
330
19EB5
100
AcDbEntity
  8
SUNPOU
100
AcDbText
 10
1908.443901571472
 20
5384.831177128337
 30
0.0
 40
73.84615384615384
  1
25
 41
0.6700000000000001
  7
00
 11
1908.443901571472
 21
5374.985023282182
 31
0.0
100
AcDbText
 73
     1
  0
ARC
  5
1A702
330
19EB5
100
AcDbEntity
  8
SUNPOU
100
AcDbCircle
 10
3819.140335103533
 20
5010.479982739596
 30
0.0
 40
225.0
100
AcDbArc
 50
328.3472725282829
 51
31.65272747171703
  0
TEXT
  5
1A703
330
19EB5
100
AcDbEntity
  8
SUNPOU
100
AcDbText
 10
3209.089002835461
 20
5046.692559297765
 30
0.0
 40
89.9993750043402
  1
18
 41
0.6700000000000001
  7
01
100
AcDbText
  0
TEXT
  5
1A704
330
19EB5
100
AcDbEntity
  8
SUNPOU
100
AcDbText
 10
3344.925455621412
 20
5046.692559297765
 30
0.0
 40
89.9993750043402
  1
N/mm
 41
0.6700000000000001
  7
01
100
AcDbText
  0
TEXT
  5
1A705
330
19EB5
100
AcDbEntity
  8
SUNPOU
100
AcDbText
 10
3649.389937652817
 20
5096.880985655251
 30
0.0
 40
46.28539285937498
  1
2
 41
0.6700000000000001
  7
00
100
AcDbText
  0
ENDSEC
  0
SECTION
  2
OBJECTS
  0
DICTIONARY
  5
19EA3
330
0
100
AcDbDictionary
281
     1
  3
ACAD_GROUP
350
19EA4
  3
ACAD_LAYOUT
350
19EB0
  3
ACAD_MLINESTYLE
350
19EAD
  3
ACAD_PLOTSETTINGS
350
19EAF
  3
ACAD_PLOTSTYLENAME
350
19EA5
  3
AcDbVariableDictionary
350
1A706
  0
DICTIONARY
  5
19EA4
102
{ACAD_REACTORS
330
19EA3
102
}
330
19EA3
100
AcDbDictionary
281
     1
  0
DICTIONARY
  5
19EB0
102
{ACAD_REACTORS
330
19EA3
102
}
330
19EA3
100
AcDbDictionary
281
     1
  3
Model
350
19EB8
  3
ﾚｲｱｳﾄ1
350
19EB4
  0
DICTIONARY
  5
19EAD
102
{ACAD_REACTORS
330
19EA3
102
}
330
19EA3
100
AcDbDictionary
281
     1
  3
Standard
350
19EAE
  0
DICTIONARY
  5
19EAF
102
{ACAD_REACTORS
330
19EA3
102
}
330
19EA3
100
AcDbDictionary
281
     1
  0
ACDBDICTIONARYWDFLT
  5
19EA5
102
{ACAD_REACTORS
330
19EA3
102
}
330
19EA3
100
AcDbDictionary
281
     1
  3
Normal
350
19EA6
100
AcDbDictionaryWithDefault
340
19EA6
  0
DICTIONARY
  5
1A706
102
{ACAD_REACTORS
330
19EA3
102
}
330
19EA3
100
AcDbDictionary
281
     1
  3
DIMASSOC
350
1A707
  0
LAYOUT
  5
19EB8
102
{ACAD_REACTORS
330
19EB0
102
}
330
19EB0
100
AcDbPlotSettings
  1

  2
Muratec V-1200 Is@Web Printer
  4

  6

 40
0.0
 41
0.0
 42
0.0
 43
0.0
 44
0.0
 45
0.0
 46
0.0
 47
0.0
 48
0.0
 49
0.0
140
0.0
141
0.0
142
1.0
143
1.0
 70
  1712
 72
     0
 73
     0
 74
     0
  7

 75
     0
147
1.0
148
0.0
149
0.0
100
AcDbLayout
  1
Model
 70
     1
 71
     0
 10
0.0
 20
0.0
 11
12.0
 21
9.0
 12
0.0
 22
0.0
 32
0.0
 14
0.0
 24
0.0
 34
0.0
 15
0.0
 25
0.0
 35
0.0
146
0.0
 13
0.0
 23
0.0
 33
0.0
 16
1.0
 26
0.0
 36
0.0
 17
0.0
 27
1.0
 37
0.0
 76
     0
330
19EB5
  0
LAYOUT
  5
19EB4
102
{ACAD_REACTORS
330
19EB0
102
}
330
19EB0
100
AcDbPlotSettings
  1

  2
Muratec V-1200 Is@Web Printer
  4

  6

 40
0.0
 41
0.0
 42
0.0
 43
0.0
 44
0.0
 45
0.0
 46
0.0
 47
0.0
 48
0.0
 49
0.0
140
0.0
141
0.0
142
1.0
143
1.0
 70
   688
 72
     0
 73
     0
 74
     5
  7

 75
    16
147
1.0
148
0.0
149
0.0
100
AcDbLayout
  1
ﾚｲｱｳﾄ1
 70
     0
 71
     1
 10
0.0
 20
0.0
 11
12.0
 21
9.0
 12
0.0
 22
0.0
 32
0.0
 14
1.000000000000000E+20
 24
1.000000000000000E+20
 34
1.000000000000000E+20
 15
-1.000000000000000E+20
 25
-1.000000000000000E+20
 35
-1.000000000000000E+20
146
0.0
 13
0.0
 23
0.0
 33
0.0
 16
1.0
 26
0.0
 36
0.0
 17
0.0
 27
1.0
 37
0.0
 76
     0
330
19EB1
  0
MLINESTYLE
  5
19EAE
102
{ACAD_REACTORS
330
19EAD
102
}
330
19EAD
100
AcDbMlineStyle
  2
STANDARD
 70
     0
  3

 62
   256
 51
90.0
 52
90.0
 71
     2
 49
0.5
 62
   256
  6
BYLAYER
 49
-0.5
 62
   256
  6
BYLAYER
  0
ACDBPLACEHOLDER
  5
19EA6
102
{ACAD_REACTORS
330
19EA5
102
}
330
19EA5
  0
DICTIONARYVAR
  5
1A707
102
{ACAD_REACTORS
330
1A706
102
}
330
1A706
100
DictionaryVariables
280
     0
  1
1
  0
ENDSEC
  0
EOF
