  0
SECTION
  2
HEADER
  9
$ACADVER
  1
AC1015
  9
$ACADMAINTVER
 70
    13
  9
$DWGCODEPAGE
  3
ANSI_932
  9
$INSBASE
 10
267.0
 20
194.8999999999998
 30
0.0
  9
$EXTMIN
 10
433.9966216520333
 20
163.6908237492789
 30
-0.000000000000013
  9
$EXTMAX
 10
16382.6660542547
 20
11242.27663824599
 30
0.0000000000000023
  9
$LIMMIN
 10
0.0
 20
0.0
  9
$LIMMAX
 10
16800.0
 20
11880.0
  9
$ORTHOMODE
 70
     0
  9
$REGENMODE
 70
     1
  9
$FILLMODE
 70
     1
  9
$QTEXTMODE
 70
     0
  9
$MIRRTEXT
 70
     0
  9
$LTSCALE
 40
40.0
  9
$ATTMODE
 70
     1
  9
$TEXTSIZE
 40
0.2
  9
$TRACEWID
 40
0.05
  9
$TEXTSTYLE
  7
00
  9
$CLAYER
  8
SUNPOU
  9
$CELTYPE
  6
ByLayer
  9
$CECOLOR
 62
   256
  9
$CELTSCALE
 40
1.0
  9
$DISPSILH
 70
     0
  9
$DIMSCALE
 40
40.0
  9
$DIMASZ
 40
0.5
  9
$DIMEXO
 40
1.0
  9
$DIMDLI
 40
7.0
  9
$DIMRND
 40
0.0
  9
$DIMDLE
 40
3.0
  9
$DIMEXE
 40
1.5
  9
$DIMTP
 40
0.0
  9
$DIMTM
 40
0.0
  9
$DIMTXT
 40
3.0
  9
$DIMCEN
 40
0.0
  9
$DIMTSZ
 40
0.0
  9
$DIMTOL
 70
     0
  9
$DIMLIM
 70
     0
  9
$DIMTIH
 70
     0
  9
$DIMTOH
 70
     0
  9
$DIMSE1
 70
     0
  9
$DIMSE2
 70
     0
  9
$DIMTAD
 70
     1
  9
$DIMZIN
 70
     8
  9
$DIMBLK
  1
DOT
  9
$DIMASO
 70
     1
  9
$DIMSHO
 70
     0
  9
$DIMPOST
  1

  9
$DIMAPOST
  1

  9
$DIMALT
 70
     0
  9
$DIMALTD
 70
     2
  9
$DIMALTF
 40
25.4
  9
$DIMLFAC
 40
1.0
  9
$DIMTOFL
 70
     1
  9
$DIMTVP
 40
0.0
  9
$DIMTIX
 70
     0
  9
$DIMSOXD
 70
     0
  9
$DIMSAH
 70
     1
  9
$DIMBLK1
  1
DOT
  9
$DIMBLK2
  1
DOT
  9
$DIMSTYLE
  2
SUNPOU_図面名
  9
$DIMCLRD
 70
   256
  9
$DIMCLRE
 70
   256
  9
$DIMCLRT
 70
   256
  9
$DIMTFAC
 40
1.0
  9
$DIMGAP
 40
1.5
  9
$DIMJUST
 70
     0
  9
$DIMSD1
 70
     0
  9
$DIMSD2
 70
     0
  9
$DIMTOLJ
 70
     1
  9
$DIMTZIN
 70
     0
  9
$DIMALTZ
 70
     0
  9
$DIMALTTZ
 70
     0
  9
$DIMUPT
 70
     0
  9
$DIMDEC
 70
     4
  9
$DIMTDEC
 70
     4
  9
$DIMALTU
 70
     2
  9
$DIMALTTD
 70
     2
  9
$DIMTXSTY
  7
STANDARD
  9
$DIMAUNIT
 70
     0
  9
$DIMADEC
 70
     0
  9
$DIMALTRND
 40
0.0
  9
$DIMAZIN
 70
     0
  9
$DIMDSEP
 70
    46
  9
$DIMATFIT
 70
     3
  9
$DIMFRAC
 70
     0
  9
$DIMLDRBLK
  1
DOT
  9
$DIMLUNIT
 70
     2
  9
$DIMLWD
 70
    -2
  9
$DIMLWE
 70
    -2
  9
$DIMTMOVE
 70
     0
  9
$LUNITS
 70
     2
  9
$LUPREC
 70
     2
  9
$SKETCHINC
 40
0.1
  9
$FILLETRAD
 40
0.0
  9
$AUNITS
 70
     0
  9
$AUPREC
 70
     0
  9
$MENU
  1
A:\TIGER\MENU\TIGER
  9
$ELEVATION
 40
0.0
  9
$PELEVATION
 40
0.0
  9
$THICKNESS
 40
0.0
  9
$LIMCHECK
 70
     0
  9
$CHAMFERA
 40
0.0
  9
$CHAMFERB
 40
0.0
  9
$CHAMFERC
 40
0.0
  9
$CHAMFERD
 40
0.0
  9
$SKPOLY
 70
     0
  9
$TDCREATE
 40
2450266.571064815
  9
$TDUCREATE
 40
2450266.196064815
  9
$TDUPDATE
 40
2456331.554746272
  9
$TDUUPDATE
 40
2456331.179746273
  9
$TDINDWG
 40
0.1824139352
  9
$TDUSRTIMER
 40
0.1824139352
  9
$USRTIMER
 70
     1
  9
$ANGBASE
 50
0.0
  9
$ANGDIR
 70
     0
  9
$PDMODE
 70
     0
  9
$PDSIZE
 40
0.0
  9
$PLINEWID
 40
0.0
  9
$SPLFRAME
 70
     0
  9
$SPLINETYPE
 70
     6
  9
$SPLINESEGS
 70
     8
  9
$HANDSEED
  5
19FD5
  9
$SURFTAB1
 70
     6
  9
$SURFTAB2
 70
     6
  9
$SURFTYPE
 70
     6
  9
$SURFU
 70
     6
  9
$SURFV
 70
     6
  9
$UCSBASE
  2

  9
$UCSNAME
  2

  9
$UCSORG
 10
0.0
 20
0.0
 30
0.0
  9
$UCSXDIR
 10
1.0
 20
0.0
 30
0.0
  9
$UCSYDIR
 10
0.0
 20
1.0
 30
0.0
  9
$UCSORTHOREF
  2

  9
$UCSORTHOVIEW
 70
     0
  9
$UCSORGTOP
 10
0.0
 20
0.0
 30
0.0
  9
$UCSORGBOTTOM
 10
0.0
 20
0.0
 30
0.0
  9
$UCSORGLEFT
 10
0.0
 20
0.0
 30
0.0
  9
$UCSORGRIGHT
 10
0.0
 20
0.0
 30
0.0
  9
$UCSORGFRONT
 10
0.0
 20
0.0
 30
0.0
  9
$UCSORGBACK
 10
0.0
 20
0.0
 30
0.0
  9
$PUCSBASE
  2

  9
$PUCSNAME
  2

  9
$PUCSORG
 10
0.0
 20
0.0
 30
0.0
  9
$PUCSXDIR
 10
1.0
 20
0.0
 30
0.0
  9
$PUCSYDIR
 10
0.0
 20
1.0
 30
0.0
  9
$PUCSORTHOREF
  2

  9
$PUCSORTHOVIEW
 70
     0
  9
$PUCSORGTOP
 10
0.0
 20
0.0
 30
0.0
  9
$PUCSORGBOTTOM
 10
0.0
 20
0.0
 30
0.0
  9
$PUCSORGLEFT
 10
0.0
 20
0.0
 30
0.0
  9
$PUCSORGRIGHT
 10
0.0
 20
0.0
 30
0.0
  9
$PUCSORGFRONT
 10
0.0
 20
0.0
 30
0.0
  9
$PUCSORGBACK
 10
0.0
 20
0.0
 30
0.0
  9
$USERI1
 70
     3
  9
$USERI2
 70
     0
  9
$USERI3
 70
     0
  9
$USERI4
 70
     0
  9
$USERI5
 70
  1103
  9
$USERR1
 40
0.0
  9
$USERR2
 40
1.0
  9
$USERR3
 40
0.0
  9
$USERR4
 40
0.0
  9
$USERR5
 40
0.0
  9
$WORLDVIEW
 70
     1
  9
$SHADEDGE
 70
     3
  9
$SHADEDIF
 70
    70
  9
$TILEMODE
 70
     1
  9
$MAXACTVP
 70
    16
  9
$PINSBASE
 10
0.0
 20
0.0
 30
0.0
  9
$PLIMCHECK
 70
     0
  9
$PEXTMIN
 10
1.000000000000000E+20
 20
1.000000000000000E+20
 30
1.000000000000000E+20
  9
$PEXTMAX
 10
-1.000000000000000E+20
 20
-1.000000000000000E+20
 30
-1.000000000000000E+20
  9
$PLIMMIN
 10
0.0
 20
0.0
  9
$PLIMMAX
 10
12.0
 20
9.0
  9
$UNITMODE
 70
     0
  9
$VISRETAIN
 70
     0
  9
$PLINEGEN
 70
     1
  9
$PSLTSCALE
 70
     0
  9
$TREEDEPTH
 70
  3020
  9
$CMLSTYLE
  2
Standard
  9
$CMLJUST
 70
     0
  9
$CMLSCALE
 40
1.0
  9
$PROXYGRAPHICS
 70
     1
  9
$MEASUREMENT
 70
     0
  9
$CELWEIGHT
370
    -1
  9
$ENDCAPS
280
     0
  9
$JOINSTYLE
280
     0
  9
$LWDISPLAY
290
     0
  9
$INSUNITS
 70
     0
  9
$HYPERLINKBASE
  1

  9
$STYLESHEET
  1

  9
$XEDIT
290
     1
  9
$CEPSNTYPE
380
     0
  9
$PSTYLEMODE
290
     1
  9
$FINGERPRINTGUID
  2
{29FBD45C-C4D2-4DF0-8D0C-27D3489E93AB}
  9
$VERSIONGUID
  2
{DA4D57B9-CABB-4D8B-A58B-18401245B1D4}
  9
$EXTNAMES
290
     1
  9
$PSVPSCALE
 40
0.0
  9
$OLESTARTUP
290
     0
  0
ENDSEC
  0
SECTION
  2
CLASSES
  0
CLASS
  1
ACDBDICTIONARYWDFLT
  2
AcDbDictionaryWithDefault
  3
AutoCAD 2000
 90
        0
280
     0
281
     0
  0
CLASS
  1
ACDBPLACEHOLDER
  2
AcDbPlaceHolder
  3
AutoCAD 2000
 90
        0
280
     0
281
     0
  0
CLASS
  1
LAYOUT
  2
AcDbLayout
  3
AutoCAD 2000
 90
        0
280
     0
281
     0
  0
CLASS
  1
DICTIONARYVAR
  2
AcDbDictionaryVar
  3
AutoCAD 2000
 90
        0
280
     0
281
     0
  0
ENDSEC
  0
SECTION
  2
TABLES
  0
TABLE
  2
VPORT
  5
199E0
330
0
100
AcDbSymbolTable
 70
     2
  0
VPORT
  5
19FD4
330
199E0
100
AcDbSymbolTableRecord
100
AcDbViewportTableRecord
  2
*Active
 70
     0
 10
0.0
 20
0.0
 11
1.0
 21
1.0
 12
8408.331337953368
 22
5702.983730997637
 13
0.0
 23
0.0
 14
1.0
 24
1.0
 15
0.0
 25
0.0
 16
0.0
 26
0.0
 36
1.0
 17
0.0
 27
0.0
 37
0.0
 40
12982.41434578206
 41
1.236040609137055
 42
50.0
 43
0.0
 44
0.0
 50
0.0
 51
0.0
 71
     0
 72
 10000
 73
     1
 74
     0
 75
     0
 76
     0
 77
     0
 78
     0
281
     0
 65
     1
110
0.0
120
0.0
130
0.0
111
1.0
121
0.0
131
0.0
112
0.0
122
1.0
132
0.0
 79
     0
146
0.0
  0
ENDTAB
  0
TABLE
  2
LTYPE
  5
199DD
330
0
100
AcDbSymbolTable
 70
     5
  0
LTYPE
  5
199EB
330
199DD
100
AcDbSymbolTableRecord
100
AcDbLinetypeTableRecord
  2
ByBlock
 70
     0
  3

 72
    65
 73
     0
 40
0.0
  0
LTYPE
  5
199EC
330
199DD
100
AcDbSymbolTableRecord
100
AcDbLinetypeTableRecord
  2
ByLayer
 70
     0
  3

 72
    65
 73
     0
 40
0.0
  0
LTYPE
  5
199ED
330
199DD
100
AcDbSymbolTableRecord
100
AcDbLinetypeTableRecord
  2
CONTINUOUS
 70
     0
  3
実線
 72
    65
 73
     0
 40
0.0
  0
LTYPE
  5
199FD
330
199DD
100
AcDbSymbolTableRecord
100
AcDbLinetypeTableRecord
  2
1PL-LL
 70
     0
  3

 72
    65
 73
     4
 40
106.0
 49
100.0
 74
     0
 49
-2.0
 74
     0
 49
2.0
 74
     0
 49
-2.0
 74
     0
  0
LTYPE
  5
199FE
330
199DD
100
AcDbSymbolTableRecord
100
AcDbLinetypeTableRecord
  2
1PL-M
 70
     0
  3

 72
    65
 73
     4
 40
15.0
 49
12.0
 74
     0
 49
-1.0
 74
     0
 49
1.0
 74
     0
 49
-1.0
 74
     0
  0
LTYPE
  5
199FF
330
199DD
100
AcDbSymbolTableRecord
100
AcDbLinetypeTableRecord
  2
2PL-L
 70
     0
  3

 72
    65
 73
     6
 40
60.0
 49
50.0
 74
     0
 49
-2.0
 74
     0
 49
2.0
 74
     0
 49
-2.0
 74
     0
 49
2.0
 74
     0
 49
-2.0
 74
     0
  0
LTYPE
  5
19A00
330
199DD
100
AcDbSymbolTableRecord
100
AcDbLinetypeTableRecord
  2
1PL-12
 70
     0
  3

 72
    65
 73
     4
 40
15.0
 49
12.0
 74
     0
 49
-1.0
 74
     0
 49
1.0
 74
     0
 49
-1.0
 74
     0
  0
ENDTAB
  0
TABLE
  2
LAYER
  5
199DA
330
0
100
AcDbSymbolTable
 70
    19
  0
LAYER
  5
199E8
330
199DA
100
AcDbSymbolTableRecord
100
AcDbLayerTableRecord
  2
0
 70
     0
 62
     7
  6
CONTINUOUS
370
    -3
390
199E7
  0
LAYER
  5
199FA
330
199DA
100
AcDbSymbolTableRecord
100
AcDbLayerTableRecord
  2
SUNPOU
 70
     0
 62
     4
  6
CONTINUOUS
370
    -3
390
199E7
  0
LAYER
  5
19A01
330
199DA
100
AcDbSymbolTableRecord
100
AcDbLayerTableRecord
  2
U1
 70
     0
 62
     3
  6
CONTINUOUS
370
    -3
390
199E7
  0
LAYER
  5
19A02
330
199DA
100
AcDbSymbolTableRecord
100
AcDbLayerTableRecord
  2
U3
 70
     0
 62
     6
  6
CONTINUOUS
370
    -3
390
199E7
  0
LAYER
  5
19A03
330
199DA
100
AcDbSymbolTableRecord
100
AcDbLayerTableRecord
  2
HIKIDASHI
 70
     0
 62
     6
  6
CONTINUOUS
370
    -3
390
199E7
  0
LAYER
  5
19A04
330
199DA
100
AcDbSymbolTableRecord
100
AcDbLayerTableRecord
  2
1PL-M1
 70
     0
 62
     6
  6
1PL-M
370
    -3
390
199E7
  0
LAYER
  5
19A05
330
199DA
100
AcDbSymbolTableRecord
100
AcDbLayerTableRecord
  2
NAME
 70
     0
 62
    20
  6
CONTINUOUS
370
    -3
390
199E7
  0
LAYER
  5
19A06
330
199DA
100
AcDbSymbolTableRecord
100
AcDbLayerTableRecord
  2
FILENAME
 70
     0
 62
     7
  6
CONTINUOUS
370
    -3
390
199E7
  0
LAYER
  5
19A07
330
199DA
100
AcDbSymbolTableRecord
100
AcDbLayerTableRecord
  2
CENTER
 70
     0
 62
     6
  6
1PL-LL
370
    -3
390
199E7
  0
LAYER
  5
19A08
330
199DA
100
AcDbSymbolTableRecord
100
AcDbLayerTableRecord
  2
KISO
 70
     0
 62
     2
  6
CONTINUOUS
370
    -3
390
199E7
  0
LAYER
  5
19A09
330
199DA
100
AcDbSymbolTableRecord
100
AcDbLayerTableRecord
  2
YANE
 70
     0
 62
     1
  6
1PL-12
370
    -3
390
199E7
  0
LAYER
  5
19A0A
330
199DA
100
AcDbSymbolTableRecord
100
AcDbLayerTableRecord
  2
HATCH
 70
     0
 62
     1
  6
CONTINUOUS
370
    -3
390
199E7
  0
LAYER
  5
19A0B
330
199DA
100
AcDbSymbolTableRecord
100
AcDbLayerTableRecord
  2
HASHIRA
 70
     0
 62
     3
  6
CONTINUOUS
370
    -3
390
199E7
  0
LAYER
  5
19A0C
330
199DA
100
AcDbSymbolTableRecord
100
AcDbLayerTableRecord
  2
TEKKIN
 70
     0
 62
     2
  6
CONTINUOUS
370
    -3
390
199E7
  0
LAYER
  5
19A0D
330
199DA
100
AcDbSymbolTableRecord
100
AcDbLayerTableRecord
  2
DOMAKON
 70
     0
 62
     2
  6
CONTINUOUS
370
    -3
390
199E7
  0
LAYER
  5
19A0E
330
199DA
100
AcDbSymbolTableRecord
100
AcDbLayerTableRecord
  2
YODOROGO
 70
     0
 62
   130
  6
CONTINUOUS
370
    -3
390
199E7
  0
LAYER
  5
19A0F
330
199DA
100
AcDbSymbolTableRecord
100
AcDbLayerTableRecord
  2
WAKUSEN-01
 70
     0
 62
    50
  6
CONTINUOUS
370
    -3
390
199E7
  0
LAYER
  5
19A10
330
199DA
100
AcDbSymbolTableRecord
100
AcDbLayerTableRecord
  2
WAKUSEN-02
 70
     0
 62
   130
  6
CONTINUOUS
370
    -3
390
199E7
  0
LAYER
  5
19A11
330
199DA
100
AcDbSymbolTableRecord
100
AcDbLayerTableRecord
  2
WAKUMOJI-01
 70
     0
 62
   130
  6
CONTINUOUS
370
    -3
390
199E7
  0
ENDTAB
  0
TABLE
  2
STYLE
  5
199DB
330
0
100
AcDbSymbolTable
 70
     5
  0
STYLE
  5
199E9
330
199DB
100
AcDbSymbolTableRecord
100
AcDbTextStyleTableRecord
  2
STANDARD
 70
     0
 40
3.0
 41
1.0
 50
0.0
 71
     0
 42
0.2
  3
ROMANS
  4
EXTFONT
  0
STYLE
  5
199FB
330
199DB
100
AcDbSymbolTableRecord
100
AcDbTextStyleTableRecord
  2
00
 70
     0
 40
0.0
 41
0.6666666666666666
 50
0.0
 71
     0
 42
0.2
  3
ROMANS
  4
BIGFONT
  0
STYLE
  5
19A12
330
199DB
100
AcDbSymbolTableRecord
100
AcDbTextStyleTableRecord
  2
01
 70
     0
 40
3.0
 41
1.0
 50
0.0
 71
     0
 42
0.2
  3
ROMANS
  4
BIGFONT
  0
STYLE
  5
19A13
330
199DB
100
AcDbSymbolTableRecord
100
AcDbTextStyleTableRecord
  2
FILENAME
 70
     0
 40
100.0
 41
1.0
 50
0.0
 71
     0
 42
100.0
  3
romans
  4
bigfont
  0
STYLE
  5
19A14
330
199DB
100
AcDbSymbolTableRecord
100
AcDbTextStyleTableRecord
  2
WAKUMOJI
 70
     0
 40
3.0
 41
1.0
 50
0.0
 71
     0
 42
3.0
  3
SIMPLEX
  4
BIGFONT
  0
ENDTAB
  0
TABLE
  2
VIEW
  5
199DE
330
0
100
AcDbSymbolTable
 70
     0
  0
ENDTAB
  0
TABLE
  2
UCS
  5
199DF
330
0
100
AcDbSymbolTable
 70
     0
  0
ENDTAB
  0
TABLE
  2
APPID
  5
199E1
330
0
100
AcDbSymbolTable
 70
     5
  0
APPID
  5
199EA
330
199E1
100
AcDbSymbolTableRecord
100
AcDbRegAppTableRecord
  2
ACAD
 70
     0
  0
APPID
  5
19A15
330
199E1
100
AcDbSymbolTableRecord
100
AcDbRegAppTableRecord
  2
AUTOCAD_POSTSCRIPT_FIGURE
 70
     0
  0
APPID
  5
19A16
330
199E1
100
AcDbSymbolTableRecord
100
AcDbRegAppTableRecord
  2
ACAD_EXEMPT_FROM_CAD_STANDARDS
 70
     0
  0
APPID
  5
19A17
330
199E1
100
AcDbSymbolTableRecord
100
AcDbRegAppTableRecord
  2
ACAD_PSEXT
 70
     0
  0
APPID
  5
19A18
330
199E1
100
AcDbSymbolTableRecord
100
AcDbRegAppTableRecord
  2
CONTENTBLOCKICON
 70
     0
  0
ENDTAB
  0
TABLE
  2
DIMSTYLE
  5
199E2
330
0
100
AcDbSymbolTable
 70
     1
100
AcDbDimStyleTable
 71
     0
  0
DIMSTYLE
105
19A19
330
199E2
100
AcDbSymbolTableRecord
100
AcDbDimStyleTableRecord
  2
SUNPOU_図面名
 70
     0
 40
30.0
 41
0.5
 42
1.0
 43
7.0
 44
1.5
 46
3.0
 73
     0
 74
     0
 77
     1
 78
     8
140
3.0
141
0.0
147
1.5
172
     1
173
     1
176
   256
177
   256
178
   256
271
     2
272
     2
279
     2
284
     8
285
     8
286
     8
340
199FB
  0
ENDTAB
  0
TABLE
  2
BLOCK_RECORD
  5
199D9
330
0
100
AcDbSymbolTable
 70
    28
  0
BLOCK_RECORD
  5
199F6
330
199D9
100
AcDbSymbolTableRecord
100
AcDbBlockTableRecord
  2
*Model_Space
340
199F9
  0
BLOCK_RECORD
  5
199F2
330
199D9
100
AcDbSymbolTableRecord
100
AcDbBlockTableRecord
  2
*Paper_Space
340
199F5
  0
BLOCK_RECORD
  5
19A1E
330
199D9
100
AcDbSymbolTableRecord
100
AcDbBlockTableRecord
  2
$MODEL_SPACE
340
0
  0
BLOCK_RECORD
  5
19A21
330
199D9
100
AcDbSymbolTableRecord
100
AcDbBlockTableRecord
  2
$PAPER_SPACE
340
0
  0
BLOCK_RECORD
  5
19A24
330
199D9
100
AcDbSymbolTableRecord
100
AcDbBlockTableRecord
  2
DOT
340
0
  0
BLOCK_RECORD
  5
19A2C
330
199D9
100
AcDbSymbolTableRecord
100
AcDbBlockTableRecord
  2
*U3
340
0
  0
BLOCK_RECORD
  5
19A30
330
199D9
100
AcDbSymbolTableRecord
100
AcDbBlockTableRecord
  2
*U4
340
0
  0
BLOCK_RECORD
  5
19A34
330
199D9
100
AcDbSymbolTableRecord
100
AcDbBlockTableRecord
  2
*U5
340
0
  0
BLOCK_RECORD
  5
19A38
330
199D9
100
AcDbSymbolTableRecord
100
AcDbBlockTableRecord
  2
*U6
340
0
  0
BLOCK_RECORD
  5
19A3C
330
199D9
100
AcDbSymbolTableRecord
100
AcDbBlockTableRecord
  2
*U7
340
0
  0
BLOCK_RECORD
  5
19A40
330
199D9
100
AcDbSymbolTableRecord
100
AcDbBlockTableRecord
  2
*U8
340
0
  0
BLOCK_RECORD
  5
19A44
330
199D9
100
AcDbSymbolTableRecord
100
AcDbBlockTableRecord
  2
*U9
340
0
  0
BLOCK_RECORD
  5
19A48
330
199D9
100
AcDbSymbolTableRecord
100
AcDbBlockTableRecord
  2
*U10
340
0
  0
BLOCK_RECORD
  5
19A4C
330
199D9
100
AcDbSymbolTableRecord
100
AcDbBlockTableRecord
  2
*U11
340
0
  0
BLOCK_RECORD
  5
19A50
330
199D9
100
AcDbSymbolTableRecord
100
AcDbBlockTableRecord
  2
*U12
340
0
  0
BLOCK_RECORD
  5
19A54
330
199D9
100
AcDbSymbolTableRecord
100
AcDbBlockTableRecord
  2
*U13
340
0
  0
BLOCK_RECORD
  5
19A58
330
199D9
100
AcDbSymbolTableRecord
100
AcDbBlockTableRecord
  2
*U14
340
0
  0
BLOCK_RECORD
  5
19A5C
330
199D9
100
AcDbSymbolTableRecord
100
AcDbBlockTableRecord
  2
*U15
340
0
  0
BLOCK_RECORD
  5
19A60
330
199D9
100
AcDbSymbolTableRecord
100
AcDbBlockTableRecord
  2
*U16
340
0
  0
BLOCK_RECORD
  5
19A64
330
199D9
100
AcDbSymbolTableRecord
100
AcDbBlockTableRecord
  2
*U17
340
0
  0
BLOCK_RECORD
  5
19A68
330
199D9
100
AcDbSymbolTableRecord
100
AcDbBlockTableRecord
  2
*U18
340
0
  0
BLOCK_RECORD
  5
19A6C
330
199D9
100
AcDbSymbolTableRecord
100
AcDbBlockTableRecord
  2
*U19
340
0
  0
BLOCK_RECORD
  5
19A70
330
199D9
100
AcDbSymbolTableRecord
100
AcDbBlockTableRecord
  2
*U20
340
0
  0
BLOCK_RECORD
  5
19A74
330
199D9
100
AcDbSymbolTableRecord
100
AcDbBlockTableRecord
  2
*U21
340
0
  0
BLOCK_RECORD
  5
19A78
330
199D9
100
AcDbSymbolTableRecord
100
AcDbBlockTableRecord
  2
*U22
340
0
  0
BLOCK_RECORD
  5
19A7C
330
199D9
100
AcDbSymbolTableRecord
100
AcDbBlockTableRecord
  2
*U23
340
0
  0
BLOCK_RECORD
  5
19A80
330
199D9
100
AcDbSymbolTableRecord
100
AcDbBlockTableRecord
  2
*U24
340
0
  0
BLOCK_RECORD
  5
19A84
330
199D9
100
AcDbSymbolTableRecord
100
AcDbBlockTableRecord
  2
*U25
340
0
  0
BLOCK_RECORD
  5
19A88
330
199D9
100
AcDbSymbolTableRecord
100
AcDbBlockTableRecord
  2
*U26
340
0
  0
BLOCK_RECORD
  5
19A8C
330
199D9
100
AcDbSymbolTableRecord
100
AcDbBlockTableRecord
  2
*U27
340
0
  0
ENDTAB
  0
ENDSEC
  0
SECTION
  2
BLOCKS
  0
BLOCK
  5
199F7
330
199F6
100
AcDbEntity
  8
0
100
AcDbBlockBegin
  2
*Model_Space
 70
     0
 10
0.0
 20
0.0
 30
0.0
  3
*Model_Space
  1

  0
ENDBLK
  5
199F8
330
199F6
100
AcDbEntity
  8
0
100
AcDbBlockEnd
  0
BLOCK
  5
199F3
330
199F2
100
AcDbEntity
 67
     1
  8
0
100
AcDbBlockBegin
  2
*Paper_Space
 70
     0
 10
0.0
 20
0.0
 30
0.0
  3
*Paper_Space
  1

  0
ENDBLK
  5
199F4
330
199F2
100
AcDbEntity
 67
     1
  8
0
100
AcDbBlockEnd
  0
BLOCK
  5
19A1F
330
19A1E
100
AcDbEntity
  8
0
100
AcDbBlockBegin
  2
$MODEL_SPACE
 70
     0
 10
0.0
 20
0.0
 30
0.0
  3
$MODEL_SPACE
  1

  0
ENDBLK
  5
19A20
330
19A1E
100
AcDbEntity
  8
0
100
AcDbBlockEnd
  0
BLOCK
  5
19A22
330
19A21
100
AcDbEntity
  8
0
100
AcDbBlockBegin
  2
$PAPER_SPACE
 70
     0
 10
0.0
 20
0.0
 30
0.0
  3
$PAPER_SPACE
  1

  0
ENDBLK
  5
19A23
330
19A21
100
AcDbEntity
  8
0
100
AcDbBlockEnd
  0
BLOCK
  5
19A25
330
19A24
100
AcDbEntity
  8
0
100
AcDbBlockBegin
  2
DOT
 70
     0
 10
0.0
 20
0.0
 30
0.0
  3
DOT
  1

  0
LWPOLYLINE
  5
19A26
330
19A24
100
AcDbEntity
  8
0
  6
ByBlock
 62
     0
100
AcDbPolyline
 90
        2
 70
     1
 43
0.75
 10
-0.375
 20
0.0
 42
1.0
 10
0.375
 20
0.0
 42
1.0
  0
LINE
  5
19A2A
330
19A24
100
AcDbEntity
  8
0
  6
ByBlock
 62
     0
100
AcDbLine
 10
-0.75
 20
0.0
 30
0.0
 11
-1.5
 21
0.0
 31
0.0
  0
ENDBLK
  5
19A2B
330
19A24
100
AcDbEntity
  8
0
100
AcDbBlockEnd
  0
BLOCK
  5
19A2D
330
19A2C
100
AcDbEntity
  8
0
100
AcDbBlockBegin
  2
*U3
 70
     1
 10
0.0
 20
0.0
 30
0.0
  3
*U3
  1

  0
TEXT
  5
19A2E
330
19A2C
100
AcDbEntity
  8
SUNPOU
100
AcDbText
 10
3617.191057523529
 20
1424.183932023016
 30
0.0
 40
90.0
  1
600
 41
0.6666666666666666
  7
00
100
AcDbText
  0
ENDBLK
  5
19A2F
330
19A2C
100
AcDbEntity
  8
0
100
AcDbBlockEnd
  0
BLOCK
  5
19A31
330
19A30
100
AcDbEntity
  8
0
100
AcDbBlockBegin
  2
*U4
 70
     1
 10
0.0
 20
0.0
 30
0.0
  3
*U4
  1

  0
TEXT
  5
19A32
330
19A30
100
AcDbEntity
  8
SUNPOU
100
AcDbText
 10
7665.044415498293
 20
1424.183932023014
 30
0.0
 40
90.0
  1
800
 41
0.6666666666666666
  7
00
100
AcDbText
  0
ENDBLK
  5
19A33
330
19A30
100
AcDbEntity
  8
0
100
AcDbBlockEnd
  0
BLOCK
  5
19A35
330
19A34
100
AcDbEntity
  8
0
100
AcDbBlockBegin
  2
*U5
 70
     1
 10
0.0
 20
0.0
 30
0.0
  3
*U5
  1

  0
TEXT
  5
19A36
330
19A34
100
AcDbEntity
  8
SUNPOU
100
AcDbText
 10
6584.758582955732
 20
2094.469646308731
 30
0.0
 40
90.0
  1
380
 50
90.0
 41
0.6666666666666666
  7
00
100
AcDbText
  0
ENDBLK
  5
19A37
330
19A34
100
AcDbEntity
  8
0
100
AcDbBlockEnd
  0
BLOCK
  5
19A39
330
19A38
100
AcDbEntity
  8
0
100
AcDbBlockBegin
  2
*U6
 70
     1
 10
0.0
 20
0.0
 30
0.0
  3
*U6
  1

  0
TEXT
  5
19A3A
330
19A38
100
AcDbEntity
  8
SUNPOU
100
AcDbText
 10
7345.044415498293
 20
3332.183932023015
 30
0.0
 40
90.0
  1
400
 41
0.6666666666666666
  7
00
100
AcDbText
  0
ENDBLK
  5
19A3B
330
19A38
100
AcDbEntity
  8
0
100
AcDbBlockEnd
  0
BLOCK
  5
19A3D
330
19A3C
100
AcDbEntity
  8
0
100
AcDbBlockBegin
  2
*U7
 70
     1
 10
0.0
 20
0.0
 30
0.0
  3
*U7
  1

  0
TEXT
  5
19A3E
330
19A3C
100
AcDbEntity
  8
SUNPOU
100
AcDbText
 10
3618.6196289521
 20
1214.183932023016
 30
0.0
 40
90.0
  1
800
 41
0.6666666666666666
  7
00
100
AcDbText
  0
ENDBLK
  5
19A3F
330
19A3C
100
AcDbEntity
  8
0
100
AcDbBlockEnd
  0
BLOCK
  5
19A41
330
19A40
100
AcDbEntity
  8
0
100
AcDbBlockBegin
  2
*U8
 70
     1
 10
0.0
 20
0.0
 30
0.0
  3
*U8
  1

  0
TEXT
  5
19A42
330
19A40
100
AcDbEntity
  8
SUNPOU
100
AcDbText
 10
2698.333796409539
 20
1706.183932023019
 30
0.0
 40
90.0
  1
100
 50
90.0
 41
0.6666666666666666
  7
00
100
AcDbText
  0
ENDBLK
  5
19A43
330
19A40
100
AcDbEntity
  8
0
100
AcDbBlockEnd
  0
BLOCK
  5
19A45
330
19A44
100
AcDbEntity
  8
0
100
AcDbBlockBegin
  2
*U9
 70
     1
 10
0.0
 20
0.0
 30
0.0
  3
*U9
  1

  0
TEXT
  5
19A46
330
19A44
100
AcDbEntity
  8
SUNPOU
100
AcDbText
 10
6584.758582955732
 20
1706.183932023017
 30
0.0
 40
90.0
  1
100
 50
90.0
 41
0.6666666666666666
  7
00
100
AcDbText
  0
ENDBLK
  5
19A47
330
19A44
100
AcDbEntity
  8
0
100
AcDbBlockEnd
  0
BLOCK
  5
19A49
330
19A48
100
AcDbEntity
  8
0
100
AcDbBlockBegin
  2
*U10
 70
     1
 10
0.0
 20
0.0
 30
0.0
  3
*U10
  1

  0
TEXT
  5
19A4A
330
19A48
100
AcDbEntity
  8
SUNPOU
100
AcDbText
 10
6384.758582955733
 20
2014.469646308732
 30
0.0
 40
90.0
  1
480
 50
90.0
 41
0.6666666666666666
  7
00
100
AcDbText
  0
ENDBLK
  5
19A4B
330
19A48
100
AcDbEntity
  8
0
100
AcDbBlockEnd
  0
BLOCK
  5
19A4D
330
19A4C
100
AcDbEntity
  8
0
100
AcDbBlockBegin
  2
*U11
 70
     1
 10
0.0
 20
0.0
 30
0.0
  3
*U11
  1

  0
TEXT
  5
19A4E
330
19A4C
100
AcDbEntity
  8
SUNPOU
100
AcDbText
 10
7632.187272641154
 20
1214.183932023014
 30
0.0
 40
90.0
  1
1000
 41
0.6666666666666666
  7
00
100
AcDbText
  0
ENDBLK
  5
19A4F
330
19A4C
100
AcDbEntity
  8
0
100
AcDbBlockEnd
  0
BLOCK
  5
19A51
330
19A50
100
AcDbEntity
  8
0
100
AcDbBlockBegin
  2
*U12
 70
     1
 10
0.0
 20
0.0
 30
0.0
  3
*U12
  1

  0
TEXT
  5
19A52
330
19A50
100
AcDbEntity
  8
SUNPOU
100
AcDbText
 10
6498.502746271775
 20
10040.71536047325
 30
0.0
 40
90.0
  1
400
 41
0.6666666666666666
  7
00
100
AcDbText
  0
ENDBLK
  5
19A53
330
19A50
100
AcDbEntity
  8
0
100
AcDbBlockEnd
  0
BLOCK
  5
19A55
330
19A54
100
AcDbEntity
  8
0
100
AcDbBlockBegin
  2
*U13
 70
     1
 10
0.0
 20
0.0
 30
0.0
  3
*U13
  1

  0
TEXT
  5
19A56
330
19A54
100
AcDbEntity
  8
SUNPOU
100
AcDbText
 10
8069.931317700344
 20
10040.71536047325
 30
0.0
 40
90.0
  1
2800
 41
0.6666666666666666
  7
00
100
AcDbText
  0
ENDBLK
  5
19A57
330
19A54
100
AcDbEntity
  8
0
100
AcDbBlockEnd
  0
BLOCK
  5
19A59
330
19A58
100
AcDbEntity
  8
0
100
AcDbBlockBegin
  2
*U14
 70
     1
 10
0.0
 20
0.0
 30
0.0
  3
*U14
  1

  0
TEXT
  5
19A5A
330
19A58
100
AcDbEntity
  8
SUNPOU
100
AcDbText
 10
8069.931317700344
 20
10250.71536047325
 30
0.0
 40
90.0
  1
3600
 41
0.6666666666666666
  7
00
100
AcDbText
  0
ENDBLK
  5
19A5B
330
19A58
100
AcDbEntity
  8
0
100
AcDbBlockEnd
  0
BLOCK
  5
19A5D
330
19A5C
100
AcDbEntity
  8
0
100
AcDbBlockBegin
  2
*U15
 70
     1
 10
0.0
 20
0.0
 30
0.0
  3
*U15
  1

  0
TEXT
  5
19A5E
330
19A5C
100
AcDbEntity
  8
SUNPOU
100
AcDbText
 10
9698.502746271772
 20
10040.71536047325
 30
0.0
 40
90.0
  1
400
 41
0.6666666666666666
  7
00
100
AcDbText
  0
ENDBLK
  5
19A5F
330
19A5C
100
AcDbEntity
  8
0
100
AcDbBlockEnd
  0
BLOCK
  5
19A61
330
19A60
100
AcDbEntity
  8
0
100
AcDbBlockBegin
  2
*U16
 70
     1
 10
0.0
 20
0.0
 30
0.0
  3
*U16
  1

  0
TEXT
  5
19A62
330
19A60
100
AcDbEntity
  8
SUNPOU
100
AcDbText
 10
10549.21703198606
 20
7381.42964618754
 30
0.0
 40
90.0
  1
4200
 50
90.0
 41
0.6666666666666666
  7
00
100
AcDbText
  0
ENDBLK
  5
19A63
330
19A60
100
AcDbEntity
  8
0
100
AcDbBlockEnd
  0
BLOCK
  5
19A65
330
19A64
100
AcDbEntity
  8
0
100
AcDbBlockBegin
  2
*U17
 70
     1
 10
0.0
 20
0.0
 30
0.0
  3
*U17
  1

  0
TEXT
  5
19A66
330
19A64
100
AcDbEntity
  8
SUNPOU
100
AcDbText
 10
10339.21703198606
 20
5460.001074758968
 30
0.0
 40
90.0
  1
300
 50
90.0
 41
0.6666666666666666
  7
00
100
AcDbText
  0
ENDBLK
  5
19A67
330
19A64
100
AcDbEntity
  8
0
100
AcDbBlockEnd
  0
BLOCK
  5
19A69
330
19A68
100
AcDbEntity
  8
0
100
AcDbBlockBegin
  2
*U18
 70
     1
 10
0.0
 20
0.0
 30
0.0
  3
*U18
  1

  0
TEXT
  5
19A6A
330
19A68
100
AcDbEntity
  8
SUNPOU
100
AcDbText
 10
10339.21703198606
 20
6477.143931901827
 30
0.0
 40
90.0
  1
1800
 50
90.0
 41
0.6666666666666666
  7
00
100
AcDbText
  0
ENDBLK
  5
19A6B
330
19A68
100
AcDbEntity
  8
0
100
AcDbBlockEnd
  0
BLOCK
  5
19A6D
330
19A6C
100
AcDbEntity
  8
0
100
AcDbBlockBegin
  2
*U19
 70
     1
 10
0.0
 20
0.0
 30
0.0
  3
*U19
  1

  0
TEXT
  5
19A6E
330
19A6C
100
AcDbEntity
  8
SUNPOU
100
AcDbText
 10
10339.21703198606
 20
8277.143931901829
 30
0.0
 40
90.0
  1
1800
 50
90.0
 41
0.6666666666666666
  7
00
100
AcDbText
  0
ENDBLK
  5
19A6F
330
19A6C
100
AcDbEntity
  8
0
100
AcDbBlockEnd
  0
BLOCK
  5
19A71
330
19A70
100
AcDbEntity
  8
0
100
AcDbBlockBegin
  2
*U20
 70
     1
 10
0.0
 20
0.0
 30
0.0
  3
*U20
  1

  0
TEXT
  5
19A72
330
19A70
100
AcDbEntity
  8
SUNPOU
100
AcDbText
 10
10339.21703198606
 20
9360.001074758967
 30
0.0
 40
90.0
  1
300
 50
90.0
 41
0.6666666666666666
  7
00
100
AcDbText
  0
ENDBLK
  5
19A73
330
19A70
100
AcDbEntity
  8
0
100
AcDbBlockEnd
  0
BLOCK
  5
19A75
330
19A74
100
AcDbEntity
  8
0
100
AcDbBlockBegin
  2
*U21
 70
     1
 10
0.0
 20
0.0
 30
0.0
  3
*U21
  1

  0
TEXT
  5
19A76
330
19A74
100
AcDbEntity
  8
SUNPOU
100
AcDbText
 10
9497.074174843204
 20
8740.715360473251
 30
0.0
 40
90.0
  1
600
 41
0.6666666666666666
  7
00
100
AcDbText
  0
ENDBLK
  5
19A77
330
19A74
100
AcDbEntity
  8
0
100
AcDbBlockEnd
  0
BLOCK
  5
19A79
330
19A78
100
AcDbEntity
  8
0
100
AcDbBlockBegin
  2
*U22
 70
     1
 10
0.0
 20
0.0
 30
0.0
  3
*U22
  1

  0
TEXT
  5
19A7A
330
19A78
100
AcDbEntity
  8
SUNPOU
100
AcDbText
 10
8939.217031986061
 20
9208.572503330399
 30
0.0
 40
90.0
  1
600
 50
90.0
 41
0.6666666666666666
  7
00
100
AcDbText
  0
ENDBLK
  5
19A7B
330
19A78
100
AcDbEntity
  8
0
100
AcDbBlockEnd
  0
BLOCK
  5
19A7D
330
19A7C
100
AcDbEntity
  8
0
100
AcDbBlockBegin
  2
*U23
 70
     1
 10
0.0
 20
0.0
 30
0.0
  3
*U23
  1

  0
TEXT
  5
19A7E
330
19A7C
100
AcDbEntity
  8
SUNPOU
100
AcDbText
 10
9498.502746271773
 20
8110.715360473252
 30
0.0
 40
90.0
  1
800
 41
0.6666666666666666
  7
00
100
AcDbText
  0
ENDBLK
  5
19A7F
330
19A7C
100
AcDbEntity
  8
0
100
AcDbBlockEnd
  0
BLOCK
  5
19A81
330
19A80
100
AcDbEntity
  8
0
100
AcDbBlockBegin
  2
*U24
 70
     1
 10
0.0
 20
0.0
 30
0.0
  3
*U24
  1

  0
TEXT
  5
19A82
330
19A80
100
AcDbEntity
  8
SUNPOU
100
AcDbText
 10
8939.217031986061
 20
7410.001074758966
 30
0.0
 40
90.0
  1
800
 50
90.0
 41
0.6666666666666666
  7
00
100
AcDbText
  0
ENDBLK
  5
19A83
330
19A80
100
AcDbEntity
  8
0
100
AcDbBlockEnd
  0
BLOCK
  5
19A85
330
19A84
100
AcDbEntity
  8
0
100
AcDbBlockBegin
  2
*U25
 70
     1
 10
0.0
 20
0.0
 30
0.0
  3
*U25
  1

  0
TEXT
  5
19A86
330
19A84
100
AcDbEntity
  8
SUNPOU
100
AcDbText
 10
2498.333796409538
 20
2014.469646308733
 30
0.0
 40
90.0
  1
480
 50
90.0
 41
0.6666666666666666
  7
00
100
AcDbText
  0
ENDBLK
  5
19A87
330
19A84
100
AcDbEntity
  8
0
100
AcDbBlockEnd
  0
BLOCK
  5
19A89
330
19A88
100
AcDbEntity
  8
0
100
AcDbBlockBegin
  2
*U26
 70
     1
 10
0.0
 20
0.0
 30
0.0
  3
*U26
  1

  0
TEXT
  5
19A8A
330
19A88
100
AcDbEntity
  8
SUNPOU
100
AcDbText
 10
2698.333796409537
 20
2094.469646308732
 30
0.0
 40
90.0
  1
380
 50
90.0
 41
0.6666666666666666
  7
00
100
AcDbText
  0
ENDBLK
  5
19A8B
330
19A88
100
AcDbEntity
  8
0
100
AcDbBlockEnd
  0
BLOCK
  5
19A8D
330
19A8C
100
AcDbEntity
  8
0
100
AcDbBlockBegin
  2
*U27
 70
     1
 10
0.0
 20
0.0
 30
0.0
  3
*U27
  1

  0
TEXT
  5
19A8E
330
19A8C
100
AcDbEntity
  8
SUNPOU
100
AcDbText
 10
3298.619628952101
 20
3332.183932023017
 30
0.0
 40
90.0
  1
400
 41
0.6666666666666666
  7
00
100
AcDbText
  0
ENDBLK
  5
19A8F
330
19A8C
100
AcDbEntity
  8
0
100
AcDbBlockEnd
  0
ENDSEC
  0
SECTION
  2
ENTITIES
  0
TEXT
  5
19A90
330
199F6
100
AcDbEntity
  8
NAME
100
AcDbText
 10
12303.32857318295
 20
1055.0
 30
0.0
 40
120.0
  1
Y O K C
 41
0.6666666666666666
  7
00
100
AcDbText
  0
TEXT
  5
19A91
330
199F6
100
AcDbEntity
  8
NAME
100
AcDbText
 10
11227.73587134625
 20
1055.0
 30
0.0
 40
120.0
  1
ヨド自転車置場　　　  型
  7
01
100
AcDbText
  0
TEXT
  5
19A92
330
199F6
100
AcDbEntity
  8
NAME
100
AcDbText
 10
11112.07508082364
 20
875.0
 30
0.0
 40
120.0
  1
棟合せタイプ（埋め込み方式）
  7
01
 72
     4
 11
12072.07508082364
 21
935.0
 31
0.0
100
AcDbText
  0
TEXT
  5
19AB0
330
199F6
100
AcDbEntity
  8
NAME
100
AcDbText
 10
12854.79999999999
 20
541.0000000000001
 30
0.0
 40
160.0
  1
<3／3>
 41
0.6
  7
01
 72
     2
 11
13354.0
 21
541.0000000000001
 31
0.0
100
AcDbText
  0
TEXT
  5
19AB1
330
199F6
100
AcDbEntity
  8
NAME
100
AcDbText
 10
10896.04264730428
 20
541.0
 30
0.0
 40
160.0
  1
YOKC-280
 41
0.7
  7
01
 72
     2
 11
11776.04264730429
 21
541.0
 31
0.0
100
AcDbText
  0
TEXT
  5
19AB2
330
199F6
100
AcDbEntity
  8
NAME
100
AcDbText
 10
11816.04264730429
 20
541.0
 30
0.0
 40
160.0
  1
型（一般地用）
 41
0.8
  7
01
100
AcDbText
  0
LINE
  5
19AB3
330
199F6
100
AcDbEntity
  8
U3
100
AcDbLine
 10
2776.333914666386
 20
2303.169754165144
 30
0.0
 11
2843.31973680851
 21
2236.183932023019
 31
0.0
  0
LINE
  5
19AB4
330
199F6
100
AcDbEntity
  8
U3
100
AcDbLine
 10
3064.333914666386
 20
2404.183932023017
 30
0.0
 11
2776.333914666386
 21
2404.183932023017
 31
0.0
  0
LINE
  5
19AB5
330
199F6
100
AcDbEntity
  8
U3
100
AcDbLine
 10
2894.231425053934
 20
2287.095620268444
 30
0.0
 11
3011.31973680851
 21
2404.183932023017
 31
0.0
  0
LINE
  5
19AB6
330
199F6
100
AcDbEntity
  8
U3
100
AcDbLine
 10
2777.143113299321
 20
2404.183932023017
 30
0.0
 11
2945.143113299374
 21
2236.183932023021
 31
0.0
  0
LINE
  5
19AB7
330
199F6
100
AcDbEntity
  8
U3
100
AcDbLine
 10
2712.333914666388
 20
2404.183932023017
 30
0.0
 11
2105.143113299378
 21
2404.183932023017
 31
0.0
  0
LINE
  5
19AB8
330
199F6
100
AcDbEntity
  8
U3
100
AcDbLine
 10
2675.319736808516
 20
2302.360555532155
 30
0.0
 11
2690.829693650987
 21
2286.850598689685
 31
0.0
  0
LINE
  5
19AB9
330
199F6
100
AcDbEntity
  8
U3
100
AcDbLine
 10
2659.809779966045
 20
2286.850598689685
 30
0.0
 11
2712.333914666388
 21
2339.374733390029
 31
0.0
  0
LINE
  5
19ABA
330
199F6
100
AcDbEntity
  8
U3
100
AcDbLine
 10
2390.231425053941
 20
2353.272243777586
 30
0.0
 11
2507.319736808512
 21
2236.183932023017
 31
0.0
  0
LINE
  5
19ABB
330
199F6
100
AcDbEntity
  8
U3
100
AcDbLine
 10
2339.319736808512
 20
2302.360555532155
 30
0.0
 11
2405.496360317653
 21
2236.183932023017
 31
0.0
  0
LINE
  5
19ABC
330
199F6
100
AcDbEntity
  8
U3
100
AcDbLine
 10
2558.231425053949
 20
2287.095620268451
 30
0.0
 11
2675.319736808516
 21
2404.183932023015
 31
0.0
  0
LINE
  5
19ABD
330
199F6
100
AcDbEntity
  8
U3
100
AcDbLine
 10
2273.143113299378
 20
2236.183932023017
 30
0.0
 11
2441.143113299379
 21
2404.183932023015
 31
0.0
  0
LINE
  5
19ABE
330
199F6
100
AcDbEntity
  8
U3
100
AcDbLine
 10
2171.319736808516
 20
2338.007308513879
 30
0.0
 11
2237.496360317652
 21
2404.183932023013
 31
0.0
  0
LINE
  5
19ABF
330
199F6
100
AcDbEntity
  8
U3
100
AcDbLine
 10
2105.143113299378
 20
2404.183932023017
 30
0.0
 11
2273.143113299378
 21
2236.183932023017
 31
0.0
  0
LINE
  5
19AC0
330
199F6
100
AcDbEntity
  8
U3
100
AcDbLine
 10
2222.231425053946
 20
2287.095620268448
 30
0.0
 11
2339.319736808516
 21
2404.183932023013
 31
0.0
  0
LINE
  5
19AC1
330
199F6
100
AcDbEntity
  8
U3
100
AcDbLine
 10
2441.143113299379
 20
2404.183932023015
 30
0.0
 11
2558.476446632713
 21
2286.850598689685
 31
0.0
  0
LINE
  5
19AC2
330
199F6
100
AcDbEntity
  8
HATCH
100
AcDbLine
 10
4742.519737066388
 20
2293.439306423018
 30
0.0
 11
4761.719737066387
 21
2260.183932023017
 31
0.0
  0
LINE
  5
19AC3
330
199F6
100
AcDbEntity
  8
HATCH
100
AcDbLine
 10
4886.519737066389
 20
2293.439306423018
 30
0.0
 11
4905.719737066387
 21
2260.183932023017
 31
0.0
  0
LINE
  5
19AC4
330
199F6
100
AcDbEntity
  8
HATCH
100
AcDbLine
 10
4884.345362666385
 20
2356.183932023017
 30
0.0
 11
4903.545362666386
 21
2322.928556023017
 31
0.0
  0
LINE
  5
19AC5
330
199F6
100
AcDbEntity
  8
HATCH
100
AcDbLine
 10
4867.319737066389
 20
2260.183932023017
 30
0.0
 11
4922.745362666384
 21
2356.183932023017
 31
0.0
  0
LINE
  5
19AC6
330
199F6
100
AcDbEntity
  8
HATCH
100
AcDbLine
 10
4990.727527466386
 20
2484.183932023019
 30
0.0
 11
4862.727527466386
 21
2356.183932023017
 31
0.0
  0
LINE
  5
19AC7
330
199F6
100
AcDbEntity
  8
HATCH
100
AcDbLine
 10
4895.692375466388
 20
2484.183932023019
 30
0.0
 11
4767.692375466388
 21
2356.183932023017
 31
0.0
  0
LINE
  5
19AC8
330
199F6
100
AcDbEntity
  8
HATCH
100
AcDbLine
 10
4943.209951466386
 20
2484.183932023019
 30
0.0
 11
4815.209951466385
 21
2356.183932023017
 31
0.0
  0
LINE
  5
19AC9
330
199F6
100
AcDbEntity
  8
HATCH
100
AcDbLine
 10
4614.519737066387
 20
2293.439306423018
 30
0.0
 11
4633.719737066387
 21
2260.183932023017
 31
0.0
  0
LINE
  5
19ACA
330
199F6
100
AcDbEntity
  8
HATCH
100
AcDbLine
 10
4612.345362666385
 20
2356.183932023017
 30
0.0
 11
4631.545362666384
 21
2322.928556023017
 31
0.0
  0
LINE
  5
19ACB
330
199F6
100
AcDbEntity
  8
HATCH
100
AcDbLine
 10
4595.319737066386
 20
2260.183932023017
 30
0.0
 11
4650.745362666384
 21
2356.183932023017
 31
0.0
  0
LINE
  5
19ACC
330
199F6
100
AcDbEntity
  8
HATCH
100
AcDbLine
 10
4371.494221866386
 20
2356.183932023017
 30
0.0
 11
4355.494221866386
 21
2356.183932023017
 31
0.0
  0
LINE
  5
19ACD
330
199F6
100
AcDbEntity
  8
HATCH
100
AcDbLine
 10
4470.519737066386
 20
2293.439306423018
 30
0.0
 11
4489.719737066387
 21
2260.183932023017
 31
0.0
  0
LINE
  5
19ACE
330
199F6
100
AcDbEntity
  8
HATCH
100
AcDbLine
 10
4451.319737066387
 20
2260.183932023017
 30
0.0
 11
4506.745362666385
 21
2356.183932023017
 31
0.0
  0
LINE
  5
19ACF
330
199F6
100
AcDbEntity
  8
HATCH
100
AcDbLine
 10
4468.345362666385
 20
2356.183932023017
 30
0.0
 11
4487.545362666383
 21
2322.928556023017
 31
0.0
  0
LINE
  5
19AD0
330
199F6
100
AcDbEntity
  8
HATCH
100
AcDbLine
 10
4510.727527466386
 20
2484.183932023019
 30
0.0
 11
4382.727527466385
 21
2356.183932023017
 31
0.0
  0
LINE
  5
19AD1
330
199F6
100
AcDbEntity
  8
HATCH
100
AcDbLine
 10
4326.519737066386
 20
2293.439306423018
 30
0.0
 11
4345.719737066387
 21
2260.183932023017
 31
0.0
  0
LINE
  5
19AD2
330
199F6
100
AcDbEntity
  8
HATCH
100
AcDbLine
 10
4324.345362666385
 20
2356.183932023017
 30
0.0
 11
4343.545362666385
 21
2322.928556023017
 31
0.0
  0
LINE
  5
19AD3
330
199F6
100
AcDbEntity
  8
HATCH
100
AcDbLine
 10
4184.333914666384
 20
2296.581555464547
 30
0.0
 11
4218.745362666385
 21
2356.183932023017
 31
0.0
  0
LINE
  5
19AD4
330
199F6
100
AcDbEntity
  8
HATCH
100
AcDbLine
 10
4184.333914666384
 20
2349.275557207625
 30
0.0
 11
4199.545362666386
 21
2322.928556023017
 31
0.0
  0
LINE
  5
19AD5
330
199F6
100
AcDbEntity
  8
HATCH
100
AcDbLine
 10
4184.333914666384
 20
2290.297058750307
 30
0.0
 11
4201.719737066387
 21
2260.183932023017
 31
0.0
  0
LINE
  5
19AD6
330
199F6
100
AcDbEntity
  8
HATCH
100
AcDbLine
 10
4227.494221866386
 20
2356.183932023017
 30
0.0
 11
4211.494221866386
 21
2356.183932023017
 31
0.0
  0
LINE
  5
19AD7
330
199F6
100
AcDbEntity
  8
HATCH
100
AcDbLine
 10
4463.209951466384
 20
2484.183932023019
 30
0.0
 11
4335.209951466388
 21
2356.183932023017
 31
0.0
  0
LINE
  5
19AD8
330
199F6
100
AcDbEntity
  8
HATCH
100
AcDbLine
 10
4415.692375466385
 20
2484.183932023019
 30
0.0
 11
4287.692375466387
 21
2356.183932023017
 31
0.0
  0
LINE
  5
19AD9
330
199F6
100
AcDbEntity
  8
HATCH
100
AcDbLine
 10
4307.319737066388
 20
2260.183932023017
 30
0.0
 11
4362.745362666387
 21
2356.183932023017
 31
0.0
  0
LINE
  5
19ADA
330
199F6
100
AcDbEntity
  8
HATCH
100
AcDbLine
 10
4740.345362666385
 20
2356.183932023017
 30
0.0
 11
4759.545362666385
 21
2322.928556023017
 31
0.0
  0
LINE
  5
19ADB
330
199F6
100
AcDbEntity
  8
HATCH
100
AcDbLine
 10
4723.319737066386
 20
2260.183932023017
 30
0.0
 11
4778.745362666384
 21
2356.183932023017
 31
0.0
  0
LINE
  5
19ADC
330
199F6
100
AcDbEntity
  8
KISO
100
AcDbLine
 10
4184.333914666384
 20
2260.183932023017
 30
0.0
 11
5021.727409209538
 21
2260.183932023017
 31
0.0
  0
LINE
  5
19ADD
330
199F6
100
AcDbEntity
  8
KISO
100
AcDbLine
 10
5021.727409209538
 20
2356.183932023017
 30
0.0
 11
4184.333914666384
 21
2356.183932023017
 31
0.0
  0
LINE
  5
19ADE
330
199F6
100
AcDbEntity
  8
KISO
100
AcDbLine
 10
3064.333914666386
 20
1876.183932023018
 30
0.0
 11
3064.333914666386
 21
1764.183932023017
 31
0.0
  0
LINE
  5
19ADF
330
199F6
100
AcDbEntity
  8
1PL-M1
100
AcDbLine
 10
3704.333914666389
 20
1572.183932023019
 30
0.0
 11
3704.333914666387
 21
3332.183932023017
 31
0.0
  0
LINE
  5
19AE0
330
199F6
100
AcDbEntity
  8
HASHIRA
100
AcDbLine
 10
3652.333914666386
 20
1876.183932023019
 30
0.0
 11
3652.333914666386
 21
2964.183932023017
 31
0.0
  0
LINE
  5
19AE1
330
199F6
100
AcDbEntity
  8
HASHIRA
100
AcDbLine
 10
3756.333914666386
 20
1876.183932023019
 30
0.0
 11
3756.333914666384
 21
2964.183932023017
 31
0.0
  0
LINE
  5
19AE2
330
199F6
100
AcDbEntity
  8
KISO
100
AcDbLine
 10
4344.333914666385
 20
1876.183932023018
 30
0.0
 11
4344.333914666385
 21
1716.183932023017
 31
0.0
  0
LINE
  5
19AE3
330
199F6
100
AcDbEntity
  8
HATCH
100
AcDbLine
 10
3758.930376559231
 20
1716.183932023017
 30
0.0
 11
3851.306419225895
 21
1876.183932023019
 31
0.0
  0
LINE
  5
19AE4
330
199F6
100
AcDbEntity
  8
HATCH
100
AcDbLine
 10
3797.973085892562
 20
1876.183932023019
 30
0.0
 11
3824.639752559228
 21
1829.995909356355
 31
0.0
  0
LINE
  5
19AE5
330
199F6
100
AcDbEntity
  8
HATCH
100
AcDbLine
 10
3785.597043225897
 20
1762.371953356349
 30
0.0
 11
3812.263709892564
 21
1716.183932023017
 31
0.0
  0
LINE
  5
19AE6
330
199F6
100
AcDbEntity
  8
HATCH
100
AcDbLine
 10
3585.597043225897
 20
1762.371953356349
 30
0.0
 11
3612.263709892564
 21
1716.183932023017
 31
0.0
  0
LINE
  5
19AE7
330
199F6
100
AcDbEntity
  8
HATCH
100
AcDbLine
 10
3597.973085892562
 20
1876.183932023019
 30
0.0
 11
3624.639752559229
 21
1829.995909356355
 31
0.0
  0
LINE
  5
19AE8
330
199F6
100
AcDbEntity
  8
KISO
100
AcDbLine
 10
4184.333914666384
 20
2484.183932023019
 30
0.0
 11
4184.333914666384
 21
1876.183932023018
 31
0.0
  0
LINE
  5
19AE9
330
199F6
100
AcDbEntity
  8
KISO
100
AcDbLine
 10
3652.333914666386
 20
2484.183932023019
 30
0.0
 11
3064.333914666386
 21
2484.183932023019
 31
0.0
  0
LINE
  5
19AEA
330
199F6
100
AcDbEntity
  8
HATCH
100
AcDbLine
 10
3614.393906272658
 20
2484.183932023019
 30
0.0
 11
3224.333914666388
 21
2094.123940416748
 31
0.0
  0
LINE
  5
19AEB
330
199F6
100
AcDbEntity
  8
HATCH
100
AcDbLine
 10
3566.876330272656
 20
2484.183932023019
 30
0.0
 11
3224.333914666386
 21
2141.641516416747
 31
0.0
  0
LINE
  5
19AEC
330
199F6
100
AcDbEntity
  8
HATCH
100
AcDbLine
 10
3519.358755872656
 20
2484.183932023019
 30
0.0
 11
3224.333914666386
 21
2189.159090816747
 31
0.0
  0
LINE
  5
19AED
330
199F6
100
AcDbEntity
  8
HATCH
100
AcDbLine
 10
3652.333914666386
 20
2134.531888053615
 30
0.0
 11
3497.985958635791
 21
1980.183932023019
 31
0.0
  0
LINE
  5
19AEE
330
199F6
100
AcDbEntity
  8
HATCH
100
AcDbLine
 10
3385.597043225897
 20
1762.371953356349
 30
0.0
 11
3412.263709892564
 21
1716.183932023017
 31
0.0
  0
LINE
  5
19AEF
330
199F6
100
AcDbEntity
  8
HATCH
100
AcDbLine
 10
3358.93037655923
 20
1716.183932023017
 30
0.0
 11
3451.306419225895
 21
1876.183932023019
 31
0.0
  0
LINE
  5
19AF0
330
199F6
100
AcDbEntity
  8
HATCH
100
AcDbLine
 10
3397.973085892562
 20
1876.183932023019
 30
0.0
 11
3424.639752559229
 21
1829.995909356355
 31
0.0
  0
LINE
  5
19AF1
330
199F6
100
AcDbEntity
  8
KISO
100
AcDbLine
 10
3064.333914666386
 20
1876.183932023019
 30
0.0
 11
3064.333914666386
 21
1716.183932023017
 31
0.0
  0
LINE
  5
19AF2
330
199F6
100
AcDbEntity
  8
HATCH
100
AcDbLine
 10
3185.597043225897
 20
1762.371953356349
 30
0.0
 11
3212.263709892564
 21
1716.183932023017
 31
0.0
  0
LINE
  5
19AF3
330
199F6
100
AcDbEntity
  8
HATCH
100
AcDbLine
 10
3197.973085892562
 20
1876.183932023019
 30
0.0
 11
3224.639752559229
 21
1829.995909356355
 31
0.0
  0
LINE
  5
19AF4
330
199F6
100
AcDbEntity
  8
HATCH
100
AcDbLine
 10
3158.930376559231
 20
1716.183932023017
 30
0.0
 11
3251.306419225895
 21
1876.183932023019
 31
0.0
  0
LINE
  5
19AF5
330
199F6
100
AcDbEntity
  8
KISO
100
AcDbLine
 10
3224.333914666386
 20
2484.183932023019
 30
0.0
 11
3224.333914666386
 21
1876.183932023019
 31
0.0
  0
LINE
  5
19AF6
330
199F6
100
AcDbEntity
  8
HATCH
100
AcDbLine
 10
3652.333914666386
 20
2229.567038453616
 30
0.0
 11
3298.95080823579
 21
1876.183932023019
 31
0.0
  0
LINE
  5
19AF7
330
199F6
100
AcDbEntity
  8
HATCH
100
AcDbLine
 10
3652.333914666386
 20
2182.049464053616
 30
0.0
 11
3450.46838263579
 21
1980.183932023019
 31
0.0
  0
LINE
  5
19AF8
330
199F6
100
AcDbEntity
  8
HATCH
100
AcDbLine
 10
3558.930376559231
 20
1716.183932023017
 30
0.0
 11
3651.306419225895
 21
1876.183932023019
 31
0.0
  0
LINE
  5
19AF9
330
199F6
100
AcDbEntity
  8
HATCH
100
AcDbLine
 10
4001.985958635791
 20
2484.183932023019
 30
0.0
 11
3756.333914666386
 21
2238.531888053614
 31
0.0
  0
LINE
  5
19AFA
330
199F6
100
AcDbEntity
  8
HATCH
100
AcDbLine
 10
3954.46838263579
 20
2484.183932023019
 30
0.0
 11
3756.333914666386
 21
2286.049464053613
 31
0.0
  0
LINE
  5
19AFB
330
199F6
100
AcDbEntity
  8
HATCH
100
AcDbLine
 10
3906.950808235789
 20
2484.183932023019
 30
0.0
 11
3756.333914666386
 21
2333.567038453614
 31
0.0
  0
LINE
  5
19AFC
330
199F6
100
AcDbEntity
  8
KISO
100
AcDbLine
 10
3064.333914666386
 20
1716.18393202302
 30
0.0
 11
4344.333914666385
 21
1716.183932023017
 31
0.0
  0
LINE
  5
19AFD
330
199F6
100
AcDbEntity
  8
KISO
100
AcDbLine
 10
5021.727409209538
 20
2484.183932023019
 30
0.0
 11
3756.333914666386
 21
2484.183932023019
 31
0.0
  0
LINE
  5
19AFE
330
199F6
100
AcDbEntity
  8
HATCH
100
AcDbLine
 10
3997.973085892562
 20
1876.183932023019
 30
0.0
 11
4024.639752559227
 21
1829.995909356355
 31
0.0
  0
LINE
  5
19AFF
330
199F6
100
AcDbEntity
  8
HATCH
100
AcDbLine
 10
3958.93037655923
 20
1716.183932023017
 30
0.0
 11
4051.306419225895
 21
1876.183932023019
 31
0.0
  0
LINE
  5
19B00
330
199F6
100
AcDbEntity
  8
HATCH
100
AcDbLine
 10
3985.597043225897
 20
1762.371953356349
 30
0.0
 11
4012.263709892564
 21
1716.183932023017
 31
0.0
  0
LINE
  5
19B01
330
199F6
100
AcDbEntity
  8
HATCH
100
AcDbLine
 10
4184.333914666384
 20
2278.939835690481
 30
0.0
 11
3885.578010998928
 21
1980.183932023019
 31
0.0
  0
LINE
  5
19B02
330
199F6
100
AcDbEntity
  8
HATCH
100
AcDbLine
 10
4184.333914666384
 20
2326.457411690481
 30
0.0
 11
3838.060434998925
 21
1980.183932023019
 31
0.0
  0
LINE
  5
19B03
330
199F6
100
AcDbEntity
  8
HATCH
100
AcDbLine
 10
4184.333914666384
 20
2373.974986090479
 30
0.0
 11
3756.333914666386
 21
1945.974986090478
 31
0.0
  0
LINE
  5
19B04
330
199F6
100
AcDbEntity
  8
HATCH
100
AcDbLine
 10
4184.333914666384
 20
1986.382933727344
 30
0.0
 11
4074.134912962057
 21
1876.183932023019
 31
0.0
  0
LINE
  5
19B05
330
199F6
100
AcDbEntity
  8
HATCH
100
AcDbLine
 10
4184.333914666384
 20
1938.865359327343
 30
0.0
 11
4121.652487362065
 21
1876.183932023019
 31
0.0
  0
LINE
  5
19B06
330
199F6
100
AcDbEntity
  8
HATCH
100
AcDbLine
 10
4184.333914666384
 20
1891.347783327345
 30
0.0
 11
4169.17006336206
 21
1876.183932023019
 31
0.0
  0
LINE
  5
19B07
330
199F6
100
AcDbEntity
  8
HATCH
100
AcDbLine
 10
3434.46838263579
 20
1964.183932023018
 30
0.0
 11
3346.468382635791
 21
1876.183932023019
 31
0.0
  0
LINE
  5
19B08
330
199F6
100
AcDbEntity
  8
HATCH
100
AcDbLine
 10
3481.985958635791
 20
1964.183932023018
 30
0.0
 11
3393.985958635791
 21
1876.183932023019
 31
0.0
  0
LINE
  5
19B09
330
199F6
100
AcDbEntity
  8
HATCH
100
AcDbLine
 10
3774.542860598926
 20
1964.183932023018
 30
0.0
 11
3756.333914666386
 21
1945.974986090478
 31
0.0
  0
LINE
  5
19B0A
330
199F6
100
AcDbEntity
  8
HATCH
100
AcDbLine
 10
3822.060434998928
 20
1964.183932023018
 30
0.0
 11
3756.333914666386
 21
1898.457411690475
 31
0.0
  0
LINE
  5
19B0B
330
199F6
100
AcDbEntity
  8
HATCH
100
AcDbLine
 10
3869.578010998927
 20
1964.183932023018
 30
0.0
 11
3781.578010998928
 21
1876.183932023019
 31
0.0
  0
LINE
  5
19B0C
330
199F6
100
AcDbEntity
  8
KISO
100
AcDbLine
 10
3064.333914666386
 20
1876.183932023019
 30
0.0
 11
3064.333914666386
 21
1876.183932023019
 31
0.0
  0
LINE
  5
19B0D
330
199F6
100
AcDbEntity
  8
SUNPOU
100
AcDbLine
 10
3719.333914666388
 20
3287.183932023017
 30
0.0
 11
4979.564421916637
 21
3287.183932023017
 31
0.0
  0
TEXT
  5
19B0E
330
199F6
100
AcDbEntity
  8
SUNPOU
100
AcDbText
 10
4340.161613806854
 20
3332.183932023017
 30
0.0
 40
90.0
  1
2800
 41
0.6666666666666666
  7
00
 72
     4
 11
4454.447328092569
 21
3377.183932023017
 31
0.0
100
AcDbText
  0
TEXT
  5
19B0F
330
199F6
100
AcDbEntity
  8
HIKIDASHI
100
AcDbText
 10
2465.84219057196
 20
2825.613541661912
 30
0.0
 40
90.0
  1
%%c
 41
0.6700000000000001
  7
00
100
AcDbText
  0
LINE
  5
19B10
330
199F6
100
AcDbEntity
  8
HIKIDASHI
100
AcDbLine
 10
2075.958721952463
 20
2754.183932023015
 30
0.0
 11
2921.257717497342
 21
2754.183932023015
 31
0.0
  0
TEXT
  5
19B11
330
199F6
100
AcDbEntity
  8
HIKIDASHI
100
AcDbText
 10
2631.5477195379
 20
2798.974945822925
 30
0.0
 40
89.55223880597014
  1
350
 41
0.6700000000000001
  7
00
100
AcDbText
  0
TEXT
  5
19B12
330
199F6
100
AcDbEntity
  8
HIKIDASHI
100
AcDbText
 10
2550.412340384764
 20
2810.377961873764
 30
0.0
 40
89.55223880597014
  1
x
 41
0.6700000000000001
  7
00
100
AcDbText
  0
TEXT
  5
19B13
330
199F6
100
AcDbEntity
  8
HIKIDASHI
100
AcDbText
 10
2105.958721952462
 20
2799.183932023015
 30
0.0
 40
90.0
  1
鉄筋
  7
01
100
AcDbText
  0
TEXT
  5
19B14
330
199F6
100
AcDbEntity
  8
HIKIDASHI
100
AcDbText
 10
2337.465435554122
 20
2799.183932023015
 30
0.0
 40
89.55223880597014
  1
10
 41
0.6700000000000001
  7
00
100
AcDbText
  0
LINE
  5
19B15
330
199F6
100
AcDbEntity
  8
HIKIDASHI
100
AcDbLine
 10
2580.663191527326
 20
2994.183932023015
 30
0.0
 11
2934.663191527326
 21
2994.183932023015
 31
0.0
  0
TEXT
  5
19B16
330
199F6
100
AcDbEntity
  8
HIKIDASHI
100
AcDbText
 10
2610.663191527326
 20
3039.183932023015
 30
0.0
 40
90.0
  1
土　間
  7
01
100
AcDbText
  0
LINE
  5
19B17
330
199F6
100
AcDbEntity
  8
HIKIDASHI
100
AcDbLine
 10
2839.167309682428
 20
1304.183932023019
 30
0.0
 11
2470.400932854805
 21
1304.183932023019
 31
0.0
  0
TEXT
  5
19B18
330
199F6
100
AcDbEntity
  8
HIKIDASHI
100
AcDbText
 10
2497.468540446716
 20
1349.183932023019
 30
0.0
 40
90.0
  1
砕　石
  7
01
 72
     2
 11
2797.468540446716
 21
1394.183932023019
 31
0.0
100
AcDbText
 73
     2
  0
TEXT
  5
19B19
330
199F6
100
AcDbEntity
  8
HIKIDASHI
100
AcDbText
 10
3780.537517545164
 20
925.1349131803479
 30
0.0
 40
90.0
  1
断 面
  7
01
100
AcDbText
  0
LINE
  5
19B1A
330
199F6
100
AcDbEntity
  8
HIKIDASHI
100
AcDbLine
 10
3356.520238048601
 20
880.134913180348
 30
0.0
 11
4052.14759128417
 21
880.134913180348
 31
0.0
  0
LINE
  5
19B1B
330
199F6
100
AcDbEntity
  8
HIKIDASHI
100
AcDbLine
 10
3356.520238048601
 20
850.1349131803479
 30
0.0
 11
4052.14759128417
 21
850.1349131803479
 31
0.0
  0
TEXT
  5
19B1C
330
199F6
100
AcDbEntity
  8
HIKIDASHI
100
AcDbText
 10
3386.520238048602
 20
925.1349131803479
 30
0.0
 40
90.0
  1
A  ~  A'
 41
0.6700000000000001
  7
00
100
AcDbText
  0
TEXT
  5
19B1D
330
199F6
100
AcDbEntity
  8
SUNPOU
100
AcDbText
 10
4660.022830783563
 20
1458.903907439804
 30
0.0
 40
90.0
  1
ベース筋
  7
01
 72
     4
 11
4864.022830783564
 21
1503.903907439804
 31
0.0
100
AcDbText
  0
TEXT
  5
19B1E
330
199F6
100
AcDbEntity
  8
SUNPOU
100
AcDbText
 10
4520.599973640699
 20
1293.65456534739
 30
0.0
 40
90.0
  1
4-D13×4-D13
 41
0.6700000000000001
  7
01
 72
     4
 11
4864.022830783557
 21
1338.65456534739
 31
0.0
100
AcDbText
  0
TEXT
  5
19B1F
330
199F6
100
AcDbEntity
  8
HIKIDASHI
100
AcDbText
 10
4444.49673216886
 20
2006.931554141245
 30
0.0
 40
90.0
  1
敷砂利又は砕石
  7
01
100
AcDbText
  0
LINE
  5
19B20
330
199F6
100
AcDbEntity
  8
HIKIDASHI
100
AcDbLine
 10
4397.836947371135
 20
1961.931554141245
 30
0.0
 11
5200.487295746516
 21
1961.931554141245
 31
0.0
  0
TEXT
  5
19B21
330
199F6
100
AcDbEntity
  8
SUNPOU
100
AcDbText
 10
4717.660162466765
 20
2619.183932023019
 30
0.0
 40
90.0
  1
F.L
 41
0.6666666666666666
  7
00
 72
     4
 11
4786.231591038194
 21
2664.183932023019
 31
0.0
100
AcDbText
  0
LINE
  5
19B22
330
199F6
100
AcDbEntity
  8
SUNPOU
100
AcDbLine
 10
4786.231591038194
 20
2484.183932023019
 30
0.0
 11
4838.193115265261
 21
2574.183932023019
 31
0.0
  0
LINE
  5
19B23
330
199F6
100
AcDbEntity
  8
SUNPOU
100
AcDbLine
 10
4734.270066811128
 20
2574.183932023019
 30
0.0
 11
4786.231591038194
 21
2484.183932023019
 31
0.0
  0
LINE
  5
19B24
330
199F6
100
AcDbEntity
  8
SUNPOU
100
AcDbLine
 10
4838.193115265261
 20
2574.183932023019
 30
0.0
 11
4734.270066811128
 21
2574.183932023019
 31
0.0
  0
TEXT
  5
19B26
330
199F6
100
AcDbEntity
  8
HIKIDASHI
100
AcDbText
 10
8772.515803529449
 20
4879.531802304223
 30
0.0
 40
80.0
  1
)
 41
0.6700000000000001
  7
00
100
AcDbText
  0
TEXT
  5
19B27
330
199F6
100
AcDbEntity
  8
HIKIDASHI
100
AcDbText
 10
8571.657054840065
 20
4895.09328005242
 30
0.0
 40
80.0
  1
1
 41
0.6700000000000001
  7
00
100
AcDbText
  0
TEXT
  5
19B28
330
199F6
100
AcDbEntity
  8
HIKIDASHI
100
AcDbText
 10
8604.794192704373
 20
4879.531802304223
 30
0.0
 40
80.0
  1
/
 41
0.6700000000000001
  7
00
100
AcDbText
  0
TEXT
  5
19B29
330
199F6
100
AcDbEntity
  8
HIKIDASHI
100
AcDbText
 10
8651.089347467019
 20
4853.363971103946
 30
0.0
 40
80.0
  1
40
 41
0.6700000000000001
  7
00
100
AcDbText
  0
TEXT
  5
19B2A
330
199F6
100
AcDbEntity
  8
HIKIDASHI
100
AcDbText
 10
8390.949138902394
 20
4879.531802304223
 30
0.0
 40
80.0
  1
(S=
 41
0.6700000000000001
  7
00
100
AcDbText
  0
TEXT
  5
19B2B
330
199F6
100
AcDbEntity
  8
HIKIDASHI
100
AcDbText
 10
7548.949138902393
 20
4855.715360473254
 30
0.0
 40
120.0
  1
基 礎 伏 図
  7
01
 72
     2
 11
8300.949138902394
 21
4855.715360473254
 31
0.0
100
AcDbText
  0
LINE
  5
19B2C
330
199F6
100
AcDbEntity
  8
U3
100
AcDbLine
 10
6598.75870121258
 20
2404.183932023014
 30
0.0
 11
5991.56789984557
 21
2404.183932023014
 31
0.0
  0
LINE
  5
19B2D
330
199F6
100
AcDbEntity
  8
U3
100
AcDbLine
 10
5991.56789984557
 20
2404.183932023014
 30
0.0
 11
6159.567899845569
 21
2236.183932023013
 31
0.0
  0
LINE
  5
19B2E
330
199F6
100
AcDbEntity
  8
U3
100
AcDbLine
 10
6057.74452335471
 20
2338.007308513876
 30
0.0
 11
6123.921146863847
 21
2404.18393202301
 31
0.0
  0
LINE
  5
19B2F
330
199F6
100
AcDbEntity
  8
U3
100
AcDbLine
 10
6546.234566512237
 20
2286.850598689682
 30
0.0
 11
6598.75870121258
 21
2339.374733390024
 31
0.0
  0
LINE
  5
19B30
330
199F6
100
AcDbEntity
  8
U3
100
AcDbLine
 10
6159.567899845569
 20
2236.183932023013
 30
0.0
 11
6327.567899845568
 21
2404.183932023012
 31
0.0
  0
LINE
  5
19B31
330
199F6
100
AcDbEntity
  8
U3
100
AcDbLine
 10
6225.744523354705
 20
2302.360555532152
 30
0.0
 11
6291.921146863845
 21
2236.183932023013
 31
0.0
  0
LINE
  5
19B32
330
199F6
100
AcDbEntity
  8
U3
100
AcDbLine
 10
6276.656211600133
 20
2353.272243777581
 30
0.0
 11
6393.744523354705
 21
2236.183932023013
 31
0.0
  0
LINE
  5
19B33
330
199F6
100
AcDbEntity
  8
U3
100
AcDbLine
 10
6108.65621160014
 20
2287.095620268444
 30
0.0
 11
6225.744523354709
 21
2404.18393202301
 31
0.0
  0
LINE
  5
19B34
330
199F6
100
AcDbEntity
  8
U3
100
AcDbLine
 10
6444.65621160014
 20
2287.09562026845
 30
0.0
 11
6561.744523354708
 21
2404.183932023012
 31
0.0
  0
LINE
  5
19B35
330
199F6
100
AcDbEntity
  8
U3
100
AcDbLine
 10
6327.567899845568
 20
2404.183932023012
 30
0.0
 11
6444.901233178907
 21
2286.850598689682
 31
0.0
  0
LINE
  5
19B36
330
199F6
100
AcDbEntity
  8
U3
100
AcDbLine
 10
6561.744523354708
 20
2302.360555532152
 30
0.0
 11
6577.254480197176
 21
2286.850598689682
 31
0.0
  0
LINE
  5
19B37
330
199F6
100
AcDbEntity
  8
U3
100
AcDbLine
 10
6662.75870121258
 20
2303.169754165141
 30
0.0
 11
6729.744523354703
 21
2236.183932023017
 31
0.0
  0
LINE
  5
19B38
330
199F6
100
AcDbEntity
  8
U3
100
AcDbLine
 10
6663.567899845512
 20
2404.183932023014
 30
0.0
 11
6831.567899845566
 21
2236.183932023017
 31
0.0
  0
LINE
  5
19B39
330
199F6
100
AcDbEntity
  8
U3
100
AcDbLine
 10
6831.567899845566
 20
2236.183932023017
 30
0.0
 11
6999.567899845565
 21
2404.183932023016
 31
0.0
  0
LINE
  5
19B3A
330
199F6
100
AcDbEntity
  8
U3
100
AcDbLine
 10
6897.744523354704
 20
2302.360555532156
 30
0.0
 11
6963.921146863839
 21
2236.183932023017
 31
0.0
  0
LINE
  5
19B3B
330
199F6
100
AcDbEntity
  8
U3
100
AcDbLine
 10
6948.656211600134
 20
2353.272243777587
 30
0.0
 11
7065.744523354704
 21
2236.183932023017
 31
0.0
  0
LINE
  5
19B3C
330
199F6
100
AcDbEntity
  8
U3
100
AcDbLine
 10
7110.758701212581
 20
2404.183932023014
 30
0.0
 11
6662.75870121258
 21
2404.183932023016
 31
0.0
  0
LINE
  5
19B3D
330
199F6
100
AcDbEntity
  8
U3
100
AcDbLine
 10
6780.656211600126
 20
2287.095620268441
 30
0.0
 11
6897.744523354704
 21
2404.183932023014
 31
0.0
  0
LINE
  5
19B3E
330
199F6
100
AcDbEntity
  8
U3
100
AcDbLine
 10
6999.567899845565
 20
2404.183932023012
 30
0.0
 11
7070.758701212584
 21
2332.993130655997
 31
0.0
  0
LINE
  5
19B3F
330
199F6
100
AcDbEntity
  8
KISO
100
AcDbLine
 10
8550.758701212577
 20
1876.183932023014
 30
0.0
 11
8550.758701212577
 21
1716.183932023017
 31
0.0
  0
LINE
  5
19B40
330
199F6
100
AcDbEntity
  8
HATCH
100
AcDbLine
 10
7778.688496438757
 20
1716.183932023016
 30
0.0
 11
7871.064539105423
 21
1876.183932023014
 31
0.0
  0
LINE
  5
19B41
330
199F6
100
AcDbEntity
  8
HATCH
100
AcDbLine
 10
7817.731205772083
 20
1876.183932023014
 30
0.0
 11
7844.397872438752
 21
1829.99590935635
 31
0.0
  0
LINE
  5
19B42
330
199F6
100
AcDbEntity
  8
HATCH
100
AcDbLine
 10
7805.355163105422
 20
1762.371953356344
 30
0.0
 11
7832.021829772092
 21
1716.183932023016
 31
0.0
  0
LINE
  5
19B43
330
199F6
100
AcDbEntity
  8
HATCH
100
AcDbLine
 10
7605.355163105421
 20
1762.371953356344
 30
0.0
 11
7632.021829772091
 21
1716.183932023016
 31
0.0
  0
LINE
  5
19B44
330
199F6
100
AcDbEntity
  8
HATCH
100
AcDbLine
 10
7617.731205772082
 20
1876.183932023014
 30
0.0
 11
7644.397872438752
 21
1829.99590935635
 31
0.0
  0
LINE
  5
19B45
330
199F6
100
AcDbEntity
  8
KISO
100
AcDbLine
 10
8390.758701212579
 20
2484.183932023016
 30
0.0
 11
8390.758701212579
 21
1876.183932023014
 31
0.0
  0
LINE
  5
19B46
330
199F6
100
AcDbEntity
  8
KISO
100
AcDbLine
 10
7698.75870121258
 20
2484.183932023016
 30
0.0
 11
7110.758701212581
 21
2484.183932023016
 31
0.0
  0
LINE
  5
19B47
330
199F6
100
AcDbEntity
  8
HATCH
100
AcDbLine
 10
7660.818692818849
 20
2484.183932023016
 30
0.0
 11
7110.758701212581
 21
1934.123940416739
 31
0.0
  0
LINE
  5
19B48
330
199F6
100
AcDbEntity
  8
HATCH
100
AcDbLine
 10
7613.30111681885
 20
2484.183932023016
 30
0.0
 11
7110.758701212581
 21
1981.641516416744
 31
0.0
  0
LINE
  5
19B49
330
199F6
100
AcDbEntity
  8
HATCH
100
AcDbLine
 10
7565.783542418848
 20
2484.183932023016
 30
0.0
 11
7110.758701212581
 21
2029.159090816738
 31
0.0
  0
LINE
  5
19B4A
330
199F6
100
AcDbEntity
  8
HATCH
100
AcDbLine
 10
7698.75870121258
 20
2134.531888053611
 30
0.0
 11
7544.410745181983
 21
1980.183932023015
 31
0.0
  0
LINE
  5
19B4B
330
199F6
100
AcDbEntity
  8
HATCH
100
AcDbLine
 10
7405.355163105422
 20
1762.371953356344
 30
0.0
 11
7432.021829772089
 21
1716.183932023016
 31
0.0
  0
LINE
  5
19B4C
330
199F6
100
AcDbEntity
  8
HATCH
100
AcDbLine
 10
7378.688496438757
 20
1716.183932023016
 30
0.0
 11
7471.064539105417
 21
1876.183932023014
 31
0.0
  0
LINE
  5
19B4D
330
199F6
100
AcDbEntity
  8
HATCH
100
AcDbLine
 10
7417.731205772082
 20
1876.183932023014
 30
0.0
 11
7444.39787243875
 21
1829.99590935635
 31
0.0
  0
LINE
  5
19B4E
330
199F6
100
AcDbEntity
  8
KISO
100
AcDbLine
 10
6950.758701212581
 20
1876.183932023014
 30
0.0
 11
6950.758701212581
 21
1716.183932023016
 31
0.0
  0
LINE
  5
19B4F
330
199F6
100
AcDbEntity
  8
HATCH
100
AcDbLine
 10
7205.355163105423
 20
1762.371953356344
 30
0.0
 11
7232.021829772091
 21
1716.183932023016
 31
0.0
  0
LINE
  5
19B50
330
199F6
100
AcDbEntity
  8
HATCH
100
AcDbLine
 10
7217.731205772087
 20
1876.183932023014
 30
0.0
 11
7244.39787243875
 21
1829.99590935635
 31
0.0
  0
LINE
  5
19B51
330
199F6
100
AcDbEntity
  8
HATCH
100
AcDbLine
 10
7178.688496438756
 20
1716.183932023016
 30
0.0
 11
7271.064539105417
 21
1876.183932023014
 31
0.0
  0
LINE
  5
19B52
330
199F6
100
AcDbEntity
  8
KISO
100
AcDbLine
 10
7110.758701212581
 20
2484.183932023016
 30
0.0
 11
7110.758701212581
 21
1876.183932023014
 31
0.0
  0
LINE
  5
19B53
330
199F6
100
AcDbEntity
  8
HATCH
100
AcDbLine
 10
7698.75870121258
 20
2229.567038453613
 30
0.0
 11
7345.375594781983
 21
1876.183932023014
 31
0.0
  0
LINE
  5
19B54
330
199F6
100
AcDbEntity
  8
HATCH
100
AcDbLine
 10
7698.75870121258
 20
2182.049464053612
 30
0.0
 11
7496.893169181984
 21
1980.183932023015
 31
0.0
  0
LINE
  5
19B55
330
199F6
100
AcDbEntity
  8
HATCH
100
AcDbLine
 10
7578.688496438757
 20
1716.183932023016
 30
0.0
 11
7671.064539105417
 21
1876.183932023014
 31
0.0
  0
LINE
  5
19B56
330
199F6
100
AcDbEntity
  8
HATCH
100
AcDbLine
 10
8048.410745181982
 20
2484.183932023016
 30
0.0
 11
7802.758701212581
 21
2238.531888053611
 31
0.0
  0
LINE
  5
19B57
330
199F6
100
AcDbEntity
  8
HATCH
100
AcDbLine
 10
8000.893169181983
 20
2484.183932023016
 30
0.0
 11
7802.758701212581
 21
2286.049464053611
 31
0.0
  0
LINE
  5
19B58
330
199F6
100
AcDbEntity
  8
HATCH
100
AcDbLine
 10
7953.375594781983
 20
2484.183932023016
 30
0.0
 11
7802.758701212581
 21
2333.567038453611
 31
0.0
  0
LINE
  5
19B59
330
199F6
100
AcDbEntity
  8
KISO
100
AcDbLine
 10
6950.758701212581
 20
1716.183932023016
 30
0.0
 11
8550.758701212577
 21
1716.183932023017
 31
0.0
  0
LINE
  5
19B5A
330
199F6
100
AcDbEntity
  8
HATCH
100
AcDbLine
 10
8017.731205772086
 20
1876.183932023014
 30
0.0
 11
8044.397872438755
 21
1829.99590935635
 31
0.0
  0
LINE
  5
19B5B
330
199F6
100
AcDbEntity
  8
HATCH
100
AcDbLine
 10
7978.688496438755
 20
1716.183932023016
 30
0.0
 11
8071.064539105421
 21
1876.183932023014
 31
0.0
  0
LINE
  5
19B5C
330
199F6
100
AcDbEntity
  8
HATCH
100
AcDbLine
 10
8005.355163105424
 20
1762.371953356344
 30
0.0
 11
8032.021829772089
 21
1716.183932023016
 31
0.0
  0
LINE
  5
19B5D
330
199F6
100
AcDbEntity
  8
HATCH
100
AcDbLine
 10
8390.758701212584
 20
2438.939835690479
 30
0.0
 11
7932.002797545121
 21
1980.183932023015
 31
0.0
  0
LINE
  5
19B5E
330
199F6
100
AcDbEntity
  8
HATCH
100
AcDbLine
 10
8388.485221545122
 20
2484.183932023016
 30
0.0
 11
7884.485221545121
 21
1980.183932023015
 31
0.0
  0
LINE
  5
19B5F
330
199F6
100
AcDbEntity
  8
HATCH
100
AcDbLine
 10
8340.96764714512
 20
2484.183932023016
 30
0.0
 11
7802.758701212581
 21
1945.974986090476
 31
0.0
  0
LINE
  5
19B60
330
199F6
100
AcDbEntity
  8
HATCH
100
AcDbLine
 10
8390.758701212579
 20
2146.382933727339
 30
0.0
 11
8120.559699508254
 21
1876.183932023014
 31
0.0
  0
LINE
  5
19B61
330
199F6
100
AcDbEntity
  8
HATCH
100
AcDbLine
 10
8390.758701212579
 20
2098.865359327338
 30
0.0
 11
8168.077273908258
 21
1876.183932023014
 31
0.0
  0
LINE
  5
19B62
330
199F6
100
AcDbEntity
  8
HATCH
100
AcDbLine
 10
7480.893169181982
 20
1964.183932023016
 30
0.0
 11
7392.893169181981
 21
1876.183932023014
 31
0.0
  0
LINE
  5
19B63
330
199F6
100
AcDbEntity
  8
HATCH
100
AcDbLine
 10
7528.410745181983
 20
1964.183932023016
 30
0.0
 11
7440.410745181982
 21
1876.183932023014
 31
0.0
  0
LINE
  5
19B64
330
199F6
100
AcDbEntity
  8
HATCH
100
AcDbLine
 10
7820.967647145121
 20
1964.183932023016
 30
0.0
 11
7802.758701212581
 21
1945.974986090476
 31
0.0
  0
LINE
  5
19B65
330
199F6
100
AcDbEntity
  8
HATCH
100
AcDbLine
 10
7868.485221545121
 20
1964.183932023016
 30
0.0
 11
7802.758701212581
 21
1898.457411690475
 31
0.0
  0
LINE
  5
19B66
330
199F6
100
AcDbEntity
  8
HATCH
100
AcDbLine
 10
7916.002797545122
 20
1964.183932023016
 30
0.0
 11
7828.002797545119
 21
1876.183932023014
 31
0.0
  0
LINE
  5
19B67
330
199F6
100
AcDbEntity
  8
KISO
100
AcDbLine
 10
6950.758701212581
 20
1876.183932023014
 30
0.0
 11
6950.758701212581
 21
1876.183932023014
 31
0.0
  0
LINE
  5
19B68
330
199F6
100
AcDbEntity
  8
KISO
100
AcDbLine
 10
9228.152195755734
 20
2484.183932023016
 30
0.0
 11
7802.758701212581
 21
2484.183932023016
 31
0.0
  0
LINE
  5
19B69
330
199F6
100
AcDbEntity
  8
1PL-M1
100
AcDbLine
 10
7750.758701212581
 20
1572.183932023015
 30
0.0
 11
7750.758701212581
 21
3332.183932023017
 31
0.0
  0
LINE
  5
19B6A
330
199F6
100
AcDbEntity
  8
HASHIRA
100
AcDbLine
 10
7698.75870121258
 20
1876.183932023014
 30
0.0
 11
7698.75870121258
 21
2964.183932023015
 31
0.0
  0
LINE
  5
19B6B
330
199F6
100
AcDbEntity
  8
HASHIRA
100
AcDbLine
 10
7802.758701212581
 20
1876.183932023014
 30
0.0
 11
7802.758701212581
 21
2964.183932023015
 31
0.0
  0
LINE
  5
19B6C
330
199F6
100
AcDbEntity
  8
HATCH
100
AcDbLine
 10
8390.758701212584
 20
2051.347783327336
 30
0.0
 11
8215.594849908258
 21
1876.183932023014
 31
0.0
  0
LINE
  5
19B6D
330
199F6
100
AcDbEntity
  8
HATCH
100
AcDbLine
 10
8217.731205772087
 20
1876.183932023014
 30
0.0
 11
8244.397872438755
 21
1829.99590935635
 31
0.0
  0
LINE
  5
19B6E
330
199F6
100
AcDbEntity
  8
HATCH
100
AcDbLine
 10
8178.688496438757
 20
1716.183932023016
 30
0.0
 11
8271.06453910542
 21
1876.183932023014
 31
0.0
  0
LINE
  5
19B6F
330
199F6
100
AcDbEntity
  8
HATCH
100
AcDbLine
 10
8205.355163105421
 20
1762.371953356344
 30
0.0
 11
8232.021829772092
 21
1716.183932023016
 31
0.0
  0
LINE
  5
19B70
330
199F6
100
AcDbEntity
  8
HATCH
100
AcDbLine
 10
7005.355163105424
 20
1762.371953356344
 30
0.0
 11
7032.02182977209
 21
1716.183932023016
 31
0.0
  0
LINE
  5
19B71
330
199F6
100
AcDbEntity
  8
HATCH
100
AcDbLine
 10
7017.731205772085
 20
1876.183932023014
 30
0.0
 11
7044.397872438752
 21
1829.99590935635
 31
0.0
  0
LINE
  5
19B72
330
199F6
100
AcDbEntity
  8
HATCH
100
AcDbLine
 10
6978.688496438756
 20
1716.183932023016
 30
0.0
 11
7071.064539105417
 21
1876.183932023014
 31
0.0
  0
LINE
  5
19B73
330
199F6
100
AcDbEntity
  8
HATCH
100
AcDbLine
 10
7273.226640455721
 20
2484.183932023016
 30
0.0
 11
7110.758701212581
 21
2321.715992779873
 31
0.0
  0
LINE
  5
19B74
330
199F6
100
AcDbEntity
  8
HATCH
100
AcDbLine
 10
7225.70906445572
 20
2484.183932023016
 30
0.0
 11
7110.758701212581
 21
2369.233568779873
 31
0.0
  0
LINE
  5
19B75
330
199F6
100
AcDbEntity
  8
HATCH
100
AcDbLine
 10
7178.191490055723
 20
2484.183932023016
 30
0.0
 11
7110.758701212581
 21
2416.751143179872
 31
0.0
  0
LINE
  5
19B76
330
199F6
100
AcDbEntity
  8
SUNPOU
100
AcDbLine
 10
7765.75870121258
 20
3287.183932023015
 30
0.0
 11
9025.98920846283
 21
3287.183932023015
 31
0.0
  0
TEXT
  5
19B77
330
199F6
100
AcDbEntity
  8
SUNPOU
100
AcDbText
 10
8386.586400353047
 20
3332.183932023015
 30
0.0
 40
90.0
  1
2800
 41
0.6666666666666666
  7
00
 72
     4
 11
8500.872114638761
 21
3377.183932023015
 31
0.0
100
AcDbText
  0
LINE
  5
19B78
330
199F6
100
AcDbEntity
  8
KISO
100
AcDbLine
 10
8390.758701212579
 20
2260.183932023013
 30
0.0
 11
9228.152195755734
 21
2260.183932023013
 31
0.0
  0
LINE
  5
19B79
330
199F6
100
AcDbEntity
  8
KISO
100
AcDbLine
 10
9228.152195755734
 20
2356.183932023014
 30
0.0
 11
8390.758701212579
 21
2356.183932023014
 31
0.0
  0
LINE
  5
19B7A
330
199F6
100
AcDbEntity
  8
HATCH
100
AcDbLine
 10
8577.919008412584
 20
2356.183932023014
 30
0.0
 11
8561.919008412582
 21
2356.183932023014
 31
0.0
  0
LINE
  5
19B7B
330
199F6
100
AcDbEntity
  8
HATCH
100
AcDbLine
 10
8513.744523612578
 20
2260.183932023013
 30
0.0
 11
8569.170149212579
 21
2356.183932023014
 31
0.0
  0
LINE
  5
19B7C
330
199F6
100
AcDbEntity
  8
HATCH
100
AcDbLine
 10
8390.758701212579
 20
2290.297058750295
 30
0.0
 11
8408.144523612582
 21
2260.183932023013
 31
0.0
  0
LINE
  5
19B7D
330
199F6
100
AcDbEntity
  8
HATCH
100
AcDbLine
 10
8532.944523612581
 20
2293.439306423013
 30
0.0
 11
8552.144523612581
 21
2260.183932023013
 31
0.0
  0
LINE
  5
19B7E
330
199F6
100
AcDbEntity
  8
HATCH
100
AcDbLine
 10
8433.919008412582
 20
2356.183932023014
 30
0.0
 11
8417.919008412582
 21
2356.183932023014
 31
0.0
  0
LINE
  5
19B7F
330
199F6
100
AcDbEntity
  8
HATCH
100
AcDbLine
 10
8390.758701212579
 20
2296.581555464543
 30
0.0
 11
8425.170149212579
 21
2356.183932023014
 31
0.0
  0
LINE
  5
19B80
330
199F6
100
AcDbEntity
  8
HATCH
100
AcDbLine
 10
8390.758701212579
 20
2349.275557207618
 30
0.0
 11
8405.970149212578
 21
2322.928556023013
 31
0.0
  0
LINE
  5
19B81
330
199F6
100
AcDbEntity
  8
HATCH
100
AcDbLine
 10
8530.77014921258
 20
2356.183932023014
 30
0.0
 11
8549.97014921258
 21
2322.928556023013
 31
0.0
  0
LINE
  5
19B82
330
199F6
100
AcDbEntity
  8
HATCH
100
AcDbLine
 10
9073.74452361258
 20
2260.183932023013
 30
0.0
 11
9129.170149212582
 21
2356.183932023014
 31
0.0
  0
LINE
  5
19B83
330
199F6
100
AcDbEntity
  8
HATCH
100
AcDbLine
 10
8676.944523612579
 20
2293.439306423013
 30
0.0
 11
8696.144523612579
 21
2260.183932023013
 31
0.0
  0
LINE
  5
19B84
330
199F6
100
AcDbEntity
  8
HATCH
100
AcDbLine
 10
8657.744523612578
 20
2260.183932023013
 30
0.0
 11
8713.170149212579
 21
2356.183932023014
 31
0.0
  0
LINE
  5
19B85
330
199F6
100
AcDbEntity
  8
HATCH
100
AcDbLine
 10
8820.944523612579
 20
2293.439306423013
 30
0.0
 11
8840.144523612584
 21
2260.183932023013
 31
0.0
  0
LINE
  5
19B86
330
199F6
100
AcDbEntity
  8
HATCH
100
AcDbLine
 10
8801.74452361258
 20
2260.183932023013
 30
0.0
 11
8857.17014921258
 21
2356.183932023014
 31
0.0
  0
LINE
  5
19B87
330
199F6
100
AcDbEntity
  8
HATCH
100
AcDbLine
 10
8948.944523612579
 20
2293.439306423013
 30
0.0
 11
8968.144523612577
 21
2260.183932023013
 31
0.0
  0
LINE
  5
19B88
330
199F6
100
AcDbEntity
  8
HATCH
100
AcDbLine
 10
8929.744523612578
 20
2260.183932023013
 30
0.0
 11
8985.17014921258
 21
2356.183932023014
 31
0.0
  0
LINE
  5
19B89
330
199F6
100
AcDbEntity
  8
HATCH
100
AcDbLine
 10
8818.770149212578
 20
2356.183932023014
 30
0.0
 11
8837.970149212578
 21
2322.928556023013
 31
0.0
  0
LINE
  5
19B8A
330
199F6
100
AcDbEntity
  8
HATCH
100
AcDbLine
 10
8674.770149212578
 20
2356.183932023014
 30
0.0
 11
8693.97014921258
 21
2322.928556023013
 31
0.0
  0
LINE
  5
19B8B
330
199F6
100
AcDbEntity
  8
HATCH
100
AcDbLine
 10
8946.77014921258
 20
2356.183932023014
 30
0.0
 11
8965.970149212578
 21
2322.928556023013
 31
0.0
  0
LINE
  5
19B8C
330
199F6
100
AcDbEntity
  8
HATCH
100
AcDbLine
 10
9092.944523612581
 20
2293.439306423013
 30
0.0
 11
9112.144523612581
 21
2260.183932023013
 31
0.0
  0
LINE
  5
19B8D
330
199F6
100
AcDbEntity
  8
HATCH
100
AcDbLine
 10
9090.770149212579
 20
2356.183932023014
 30
0.0
 11
9109.970149212578
 21
2322.928556023013
 31
0.0
  0
TEXT
  5
19B8E
330
199F6
100
AcDbEntity
  8
HIKIDASHI
100
AcDbText
 10
8650.921518715056
 20
2006.931554141242
 30
0.0
 40
90.0
  1
敷砂利又は砕石
  7
01
100
AcDbText
  0
LINE
  5
19B8F
330
199F6
100
AcDbEntity
  8
HIKIDASHI
100
AcDbLine
 10
8604.261733917331
 20
1961.931554141242
 30
0.0
 11
9406.912082292713
 21
1961.931554141242
 31
0.0
  0
TEXT
  5
19B90
330
199F6
100
AcDbEntity
  8
SUNPOU
100
AcDbText
 10
8924.084949012959
 20
2619.183932023016
 30
0.0
 40
90.0
  1
F.L
 41
0.6666666666666666
  7
00
 72
     4
 11
8992.656377584387
 21
2664.183932023016
 31
0.0
100
AcDbText
  0
LINE
  5
19B91
330
199F6
100
AcDbEntity
  8
SUNPOU
100
AcDbLine
 10
8992.656377584387
 20
2484.183932023016
 30
0.0
 11
9044.617901811456
 21
2574.183932023016
 31
0.0
  0
LINE
  5
19B92
330
199F6
100
AcDbEntity
  8
SUNPOU
100
AcDbLine
 10
8940.694853357323
 20
2574.183932023016
 30
0.0
 11
8992.656377584387
 21
2484.183932023016
 31
0.0
  0
LINE
  5
19B93
330
199F6
100
AcDbEntity
  8
SUNPOU
100
AcDbLine
 10
9044.617901811456
 20
2574.183932023016
 30
0.0
 11
8940.694853357323
 21
2574.183932023016
 31
0.0
  0
LINE
  5
19B94
330
199F6
100
AcDbEntity
  8
HIKIDASHI
100
AcDbLine
 10
6725.592096228623
 20
1304.183932023017
 30
0.0
 11
6356.825719400998
 21
1304.183932023017
 31
0.0
  0
TEXT
  5
19B95
330
199F6
100
AcDbEntity
  8
HIKIDASHI
100
AcDbText
 10
6383.893326992911
 20
1349.183932023016
 30
0.0
 40
90.0
  1
砕　石
  7
01
 72
     2
 11
6683.89332699291
 21
1394.183932023016
 31
0.0
100
AcDbText
 73
     2
  0
TEXT
  5
19B96
330
199F6
100
AcDbEntity
  8
HIKIDASHI
100
AcDbText
 10
6592.266977118153
 20
2825.613541661909
 30
0.0
 40
90.0
  1
%%c
 41
0.6700000000000001
  7
00
100
AcDbText
  0
LINE
  5
19B97
330
199F6
100
AcDbEntity
  8
HIKIDASHI
100
AcDbLine
 10
6202.383508498655
 20
2754.183932023012
 30
0.0
 11
7047.682504043535
 21
2754.183932023012
 31
0.0
  0
TEXT
  5
19B98
330
199F6
100
AcDbEntity
  8
HIKIDASHI
100
AcDbText
 10
6757.972506084094
 20
2798.974945822921
 30
0.0
 40
89.55223880597014
  1
350
 41
0.6700000000000001
  7
00
100
AcDbText
  0
TEXT
  5
19B99
330
199F6
100
AcDbEntity
  8
HIKIDASHI
100
AcDbText
 10
6676.837126930957
 20
2810.37796187376
 30
0.0
 40
89.55223880597014
  1
x
 41
0.6700000000000001
  7
00
100
AcDbText
  0
TEXT
  5
19B9A
330
199F6
100
AcDbEntity
  8
HIKIDASHI
100
AcDbText
 10
6232.383508498656
 20
2799.183932023012
 30
0.0
 40
90.0
  1
鉄筋
  7
01
100
AcDbText
  0
TEXT
  5
19B9B
330
199F6
100
AcDbEntity
  8
HIKIDASHI
100
AcDbText
 10
6463.890222100315
 20
2799.183932023012
 30
0.0
 40
89.55223880597014
  1
10
 41
0.6700000000000001
  7
00
100
AcDbText
  0
LINE
  5
19B9C
330
199F6
100
AcDbEntity
  8
HIKIDASHI
100
AcDbLine
 10
6707.087978073521
 20
2994.183932023012
 30
0.0
 11
7061.08797807352
 21
2994.183932023012
 31
0.0
  0
TEXT
  5
19B9D
330
199F6
100
AcDbEntity
  8
HIKIDASHI
100
AcDbText
 10
6737.087978073519
 20
3039.183932023012
 30
0.0
 40
90.0
  1
土　間
  7
01
100
AcDbText
  0
TEXT
  5
19B9E
330
199F6
100
AcDbEntity
  8
SUNPOU
100
AcDbText
 10
8729.52476018689
 20
1293.654565347389
 30
0.0
 40
90.0
  1
5-D13×5-D13
 41
0.6700000000000001
  7
01
 72
     4
 11
9072.947617329749
 21
1338.654565347389
 31
0.0
100
AcDbText
  0
TEXT
  5
19B9F
330
199F6
100
AcDbEntity
  8
SUNPOU
100
AcDbText
 10
8868.947617329755
 20
1458.903907439804
 30
0.0
 40
90.0
  1
ベース筋
  7
01
 72
     4
 11
9072.947617329756
 21
1503.903907439804
 31
0.0
100
AcDbText
  0
TEXT
  5
19BA0
330
199F6
100
AcDbEntity
  8
HIKIDASHI
100
AcDbText
 10
7826.962304091357
 20
925.1349131803474
 30
0.0
 40
90.0
  1
断 面
  7
01
100
AcDbText
  0
LINE
  5
19BA1
330
199F6
100
AcDbEntity
  8
HIKIDASHI
100
AcDbLine
 10
7402.945024594797
 20
880.1349131803474
 30
0.0
 11
8098.572377830365
 21
880.1349131803474
 31
0.0
  0
LINE
  5
19BA2
330
199F6
100
AcDbEntity
  8
HIKIDASHI
100
AcDbLine
 10
7402.945024594797
 20
850.1349131803474
 30
0.0
 11
8098.572377830365
 21
850.1349131803474
 31
0.0
  0
TEXT
  5
19BA3
330
199F6
100
AcDbEntity
  8
HIKIDASHI
100
AcDbText
 10
7432.945024594793
 20
925.1349131803474
 30
0.0
 40
90.0
  1
B  ~  B'
 41
0.6700000000000001
  7
00
100
AcDbText
  0
LINE
  5
19BA4
330
199F6
100
AcDbEntity
  8
HATCH
100
AcDbLine
 10
4197.973085892561
 20
1876.183932023019
 30
0.0
 11
4224.639752559228
 21
1829.995909356355
 31
0.0
  0
LINE
  5
19BA5
330
199F6
100
AcDbEntity
  8
HATCH
100
AcDbLine
 10
4158.930376559229
 20
1716.183932023017
 30
0.0
 11
4251.306419225894
 21
1876.183932023019
 31
0.0
  0
LINE
  5
19BA6
330
199F6
100
AcDbEntity
  8
HATCH
100
AcDbLine
 10
4185.597043225896
 20
1762.371953356349
 30
0.0
 11
4212.263709892562
 21
1716.183932023017
 31
0.0
  0
LINE
  5
19BA7
330
199F6
100
AcDbEntity
  8
HATCH
100
AcDbLine
 10
8417.731205772088
 20
1876.183932023014
 30
0.0
 11
8444.397872438754
 21
1829.99590935635
 31
0.0
  0
LINE
  5
19BA8
330
199F6
100
AcDbEntity
  8
HATCH
100
AcDbLine
 10
8378.688496438755
 20
1716.183932023016
 30
0.0
 11
8471.06453910542
 21
1876.183932023014
 31
0.0
  0
LINE
  5
19BA9
330
199F6
100
AcDbEntity
  8
HATCH
100
AcDbLine
 10
8405.355163105422
 20
1762.371953356344
 30
0.0
 11
8432.021829772089
 21
1716.183932023016
 31
0.0
  0
LINE
  5
19BAA
330
199F6
100
AcDbEntity
  8
CENTER
  6
1PL-M
100
AcDbLine
 10
6314.217031986061
 20
7495.715360473251
 30
0.0
 11
8819.21703198606
 21
7495.715360473251
 31
0.0
  0
LINE
  5
19BAB
330
199F6
100
AcDbEntity
  8
CENTER
  6
1PL-M
100
AcDbLine
 10
6314.217031986061
 20
9295.715360473252
 30
0.0
 11
8819.21703198606
 21
9295.715360473252
 31
0.0
  0
LINE
  5
19BAC
330
199F6
100
AcDbEntity
  8
CENTER
  6
1PL-M
100
AcDbLine
 10
6784.217031986061
 20
5295.715360473252
 30
0.0
 11
6784.217031986061
 21
9695.715360473252
 31
0.0
  0
LINE
  5
19BAD
330
199F6
100
AcDbEntity
  8
CENTER
  6
1PL-M
100
AcDbLine
 10
6314.217031986061
 20
5695.715360473251
 30
0.0
 11
10429.21703198605
 21
5695.715360473252
 31
0.0
  0
LINE
  5
19BAE
330
199F6
100
AcDbEntity
  8
CENTER
  6
1PL-M
100
AcDbLine
 10
9584.21703198606
 20
5295.715360473252
 30
0.0
 11
9584.21703198606
 21
8080.715360473252
 31
0.0
  0
TEXT
  5
19BAF
330
199F6
100
AcDbEntity
  8
SUNPOU
100
AcDbText
 10
6132.885652329144
 20
7840.715360473253
 30
0.0
 40
90.0
  1
B
 41
0.6700000000000001
  7
00
 72
     4
 11
6164.471366614858
 21
7885.715360473252
 31
0.0
100
AcDbText
  0
LINE
  5
19BB0
330
199F6
100
AcDbEntity
  8
SUNPOU
100
AcDbLine
 10
6164.471366614861
 20
7495.715360473251
 30
0.0
 11
6314.471366614861
 21
7495.715360473251
 31
0.0
  0
LINE
  5
19BB1
330
199F6
100
AcDbEntity
  8
SUNPOU
100
AcDbLine
 10
6164.471366614861
 20
7705.715360473252
 30
0.0
 11
6164.471366614861
 21
7495.715360473251
 31
0.0
  0
SOLID
  5
19BB2
330
199F6
100
AcDbEntity
  8
SUNPOU
100
AcDbTrace
 10
6149.471366614861
 20
7705.715360473252
 30
0.0
 11
6179.471366614861
 21
7705.715360473252
 31
0.0
 12
6164.471366614861
 22
7795.715360473251
 32
0.0
 13
6164.471366614861
 23
7795.715360473251
 33
0.0
  0
LINE
  5
19BB3
330
199F6
100
AcDbEntity
  8
SUNPOU
100
AcDbLine
 10
7369.217031986067
 20
7495.715360473251
 30
0.0
 11
7219.217031986061
 21
7495.715360473251
 31
0.0
  0
TEXT
  5
19BB4
330
199F6
100
AcDbEntity
  8
SUNPOU
100
AcDbText
 10
7324.709889128924
 20
7832.143931901824
 30
0.0
 40
90.0
  1
B'
 41
0.6700000000000001
  7
00
 72
     4
 11
7369.217031986067
 21
7885.715360473252
 31
0.0
100
AcDbText
  0
LINE
  5
19BB5
330
199F6
100
AcDbEntity
  8
SUNPOU
100
AcDbLine
 10
7369.217031986067
 20
7705.715360473252
 30
0.0
 11
7369.217031986067
 21
7495.715360473251
 31
0.0
  0
SOLID
  5
19BB6
330
199F6
100
AcDbEntity
  8
SUNPOU
100
AcDbTrace
 10
7384.217031986064
 20
7705.715360473252
 30
0.0
 11
7354.217031986064
 21
7705.715360473252
 31
0.0
 12
7369.217031986067
 22
7795.715360473251
 32
0.0
 13
7369.217031986067
 23
7795.715360473251
 33
0.0
  0
SOLID
  5
19BB7
330
199F6
100
AcDbEntity
  8
SUNPOU
100
AcDbTrace
 10
6149.471366614861
 20
5905.715360473251
 30
0.0
 11
6179.471366614861
 21
5905.715360473251
 31
0.0
 12
6164.471366614861
 22
5995.715360473252
 32
0.0
 13
6164.471366614861
 23
5995.715360473252
 33
0.0
  0
TEXT
  5
19BB8
330
199F6
100
AcDbEntity
  8
SUNPOU
100
AcDbText
 10
6138.628509472002
 20
6040.715360473252
 30
0.0
 40
90.0
  1
A
 41
0.6700000000000001
  7
00
 72
     4
 11
6164.471366614858
 21
6085.715360473252
 31
0.0
100
AcDbText
  0
LINE
  5
19BB9
330
199F6
100
AcDbEntity
  8
SUNPOU
100
AcDbLine
 10
6164.471366614861
 20
5905.715360473251
 30
0.0
 11
6164.471366614861
 21
5695.715360473252
 31
0.0
  0
LINE
  5
19BBA
330
199F6
100
AcDbEntity
  8
SUNPOU
100
AcDbLine
 10
6164.471366614861
 20
5695.715360473252
 30
0.0
 11
6314.471366614861
 21
5695.715360473252
 31
0.0
  0
LINE
  5
19BBB
330
199F6
100
AcDbEntity
  8
SUNPOU
100
AcDbLine
 10
7269.630294679763
 20
5695.715360473252
 30
0.0
 11
7119.63029467976
 21
5695.715360473252
 31
0.0
  0
LINE
  5
19BBC
330
199F6
100
AcDbEntity
  8
SUNPOU
100
AcDbLine
 10
7269.630294679763
 20
5905.715360473251
 30
0.0
 11
7269.630294679763
 21
5695.715360473252
 31
0.0
  0
TEXT
  5
19BBD
330
199F6
100
AcDbEntity
  8
SUNPOU
100
AcDbText
 10
7233.737437536906
 20
6032.143931901824
 30
0.0
 40
90.0
  1
A'
 41
0.6700000000000001
  7
00
 72
     4
 11
7269.630294679763
 21
6085.715360473252
 31
0.0
100
AcDbText
  0
SOLID
  5
19BBE
330
199F6
100
AcDbEntity
  8
SUNPOU
100
AcDbTrace
 10
7284.630294679764
 20
5905.715360473251
 30
0.0
 11
7254.630294679763
 21
5905.715360473251
 31
0.0
 12
7269.630294679763
 22
5995.715360473252
 32
0.0
 13
7269.630294679763
 23
5995.715360473252
 33
0.0
  0
LINE
  5
19BBF
330
199F6
100
AcDbEntity
  8
CENTER
  6
1PL-M
100
AcDbLine
 10
9584.21703198606
 20
8230.715360473253
 30
0.0
 11
9584.21703198606
 21
8710.715360473249
 31
0.0
  0
LINE
  5
19BC0
330
199F6
100
AcDbEntity
  8
CENTER
  6
1PL-M
100
AcDbLine
 10
8969.21703198606
 20
7495.715360473251
 30
0.0
 11
10429.21703198605
 21
7495.715360473251
 31
0.0
  0
LINE
  5
19BC1
330
199F6
100
AcDbEntity
  8
CENTER
  6
1PL-M
100
AcDbLine
 10
9584.21703198606
 20
8860.71536047325
 30
0.0
 11
9584.21703198606
 21
9695.715360473252
 31
0.0
  0
LINE
  5
19BC2
330
199F6
100
AcDbEntity
  8
CENTER
  6
1PL-M
100
AcDbLine
 10
8969.21703198606
 20
9295.715360473252
 30
0.0
 11
10429.21703198605
 21
9295.715360473252
 31
0.0
  0
TEXT
  5
19BC3
330
199F6
100
AcDbEntity
  8
HIKIDASHI
100
AcDbText
 10
7624.264373012015
 20
9691.715360473253
 30
0.0
 40
90.0
  1
（屋根前面位置）
  7
01
100
AcDbText
  0
TEXT
  5
19BC4
330
199F6
100
AcDbEntity
  8
HIKIDASHI
100
AcDbText
 10
7540.155771095995
 20
9455.715360473243
 30
0.0
 40
90.0
  1
（土間コン後面位置）
  7
01
100
AcDbText
  0
TEXT
  5
19BC5
330
199F6
100
AcDbEntity
  8
HIKIDASHI
100
AcDbText
 10
7624.264373012015
 20
5209.715360473252
 30
0.0
 40
90.0
  1
（屋根前面位置）
  7
01
100
AcDbText
  0
TEXT
  5
19BC6
330
199F6
100
AcDbEntity
  8
HIKIDASHI
100
AcDbText
 10
7540.155771095995
 20
5445.715360473259
 30
0.0
 40
90.0
  1
（土間コン前面位置）
  7
01
100
AcDbText
  0
LINE
  5
19BC7
330
199F6
100
AcDbEntity
  8
KISO
100
AcDbLine
 10
3064.333914666386
 20
2484.183932023019
 30
0.0
 11
3064.333914666386
 21
2260.183932023017
 31
0.0
  0
LINE
  5
19BC8
330
199F6
100
AcDbEntity
  8
KISO
100
AcDbLine
 10
3064.333914666386
 20
2260.183932023017
 30
0.0
 11
3224.333914666386
 21
2260.183932023017
 31
0.0
  0
LINE
  5
19BC9
330
199F6
100
AcDbEntity
  8
KISO
100
AcDbLine
 10
3224.333914666386
 20
2356.183932023017
 30
0.0
 11
3064.333914666386
 21
2356.183932023017
 31
0.0
  0
LINE
  5
19BCA
330
199F6
100
AcDbEntity
  8
HATCH
100
AcDbLine
 10
3134.608080332767
 20
2293.439306423018
 30
0.0
 11
3153.808080332766
 21
2260.183932023017
 31
0.0
  0
LINE
  5
19BCB
330
199F6
100
AcDbEntity
  8
HATCH
100
AcDbLine
 10
3132.433705932765
 20
2356.183932023017
 30
0.0
 11
3151.633705932765
 21
2322.928556023017
 31
0.0
  0
LINE
  5
19BCC
330
199F6
100
AcDbEntity
  8
HATCH
100
AcDbLine
 10
3115.408080332766
 20
2260.183932023017
 30
0.0
 11
3170.833705932765
 21
2356.183932023017
 31
0.0
  0
LINE
  5
19BCD
330
199F6
100
AcDbEntity
  8
HATCH
100
AcDbLine
 10
3203.809059655493
 20
2484.183932023019
 30
0.0
 11
3075.809059655493
 21
2356.183932023017
 31
0.0
  0
LINE
  5
19BCE
330
199F6
100
AcDbEntity
  8
HATCH
100
AcDbLine
 10
3156.29148365549
 20
2484.183932023019
 30
0.0
 11
3064.333914666386
 21
2392.226363033912
 31
0.0
  0
LINE
  5
19BCF
330
199F6
100
AcDbEntity
  8
HATCH
100
AcDbLine
 10
3108.773907655493
 20
2484.183932023019
 30
0.0
 11
3064.333914666386
 21
2439.743939033911
 31
0.0
  0
TEXT
  5
19BD0
330
199F6
100
AcDbEntity
  8
FILENAME
100
AcDbText
 10
13530.57142857142
 20
174.0
 30
0.0
 40
100.0
  1
＜YOKC-280-MA-U1_3_JIS_GL.DXF ＞
  7
FILENAME
 72
     2
 11
16382.0
 21
174.0
 31
0.0
100
AcDbText
  0
LINE
  5
19BD1
330
199F6
100
AcDbEntity
  8
WAKUSEN-01
100
AcDbLine
 10
434.0000000000008
 20
413.9999999999997
 30
0.0
 11
16382.0
 21
413.9999999999997
 31
0.0
  0
LINE
  5
19BD2
330
199F6
100
AcDbEntity
  8
WAKUSEN-01
100
AcDbLine
 10
434.0000000000008
 20
11242.0
 30
0.0
 11
16382.0
 21
11242.0
 31
0.0
  0
LINE
  5
19BD3
330
199F6
100
AcDbEntity
  8
WAKUSEN-01
100
AcDbLine
 10
434.0000000000008
 20
413.9999999999997
 30
0.0
 11
434.0000000000008
 21
11242.0
 31
0.0
  0
LINE
  5
19BD4
330
199F6
100
AcDbEntity
  8
WAKUSEN-01
100
AcDbLine
 10
16382.0
 20
413.9999999999997
 30
0.0
 11
16382.0
 21
11242.0
 31
0.0
  0
LINE
  5
19BD5
330
199F6
100
AcDbEntity
  8
WAKUSEN-01
100
AcDbLine
 10
10280.0
 20
1242.0
 30
0.0
 11
16382.0
 21
1242.0
 31
0.0
  0
LINE
  5
19BD6
330
199F6
100
AcDbEntity
  8
WAKUSEN-02
100
AcDbLine
 10
10280.0
 20
827.9999999999997
 30
0.0
 11
13434.0
 21
827.9999999999997
 31
0.0
  0
TEXT
  5
19BD7
330
199F6
100
AcDbEntity
  8
WAKUMOJI-01
100
AcDbText
 10
10335.13012998137
 20
1062.951504669661
 30
0.0
 40
120.0
  1
名　称
  7
WAKUMOJI
100
AcDbText
  0
TEXT
  5
19BD8
330
199F6
100
AcDbEntity
  8
WAKUMOJI-01
100
AcDbText
 10
10328.25274254596
 20
659.5644874899107
 30
0.0
 40
120.0
  1
機種名
  7
WAKUMOJI
100
AcDbText
  0
LINE
  5
19BD9
330
199F6
100
AcDbEntity
  8
WAKUSEN-01
100
AcDbLine
 10
10280.0
 20
413.9999999999984
 30
0.0
 11
10280.0
 21
1242.0
 31
0.0
  0
LINE
  5
19BDA
330
199F6
100
AcDbEntity
  8
WAKUSEN-02
100
AcDbLine
 10
13434.0
 20
413.9999999999963
 30
0.0
 11
13434.0
 21
1242.0
 31
0.0
  0
LINE
  5
19BDB
330
199F6
100
AcDbEntity
  8
YODOROGO
100
AcDbLine
 10
14988.80217064596
 20
997.8747482146435
 30
0.0
 11
14914.80217064596
 21
997.8747482146435
 31
0.0
1001
AUTOCAD_POSTSCRIPT_FIGURE
1002
{
1000
PSFILL
1000
Grayscale
1000
Grayscale
1070
    25
1002
}
  0
LINE
  5
19BDC
330
199F6
100
AcDbEntity
  8
YODOROGO
100
AcDbLine
 10
14914.80217064596
 20
973.8747482146434
 30
0.0
 11
14988.80217064596
 21
973.8747482146434
 31
0.0
1001
AUTOCAD_POSTSCRIPT_FIGURE
1002
{
1000
PSFILL
1000
Grayscale
1000
Grayscale
1070
    25
1002
}
  0
LINE
  5
19BDD
330
199F6
100
AcDbEntity
  8
YODOROGO
100
AcDbLine
 10
14988.80217064596
 20
953.874748214644
 30
0.0
 11
14914.80217064596
 21
953.874748214644
 31
0.0
1001
AUTOCAD_POSTSCRIPT_FIGURE
1002
{
1000
PSFILL
1000
Grayscale
1000
Grayscale
1070
    25
1002
}
  0
LINE
  5
19BDE
330
199F6
100
AcDbEntity
  8
YODOROGO
100
AcDbLine
 10
14914.80217064596
 20
929.874748214644
 30
0.0
 11
14988.80217064596
 21
929.874748214644
 31
0.0
1001
AUTOCAD_POSTSCRIPT_FIGURE
1002
{
1000
PSFILL
1000
Grayscale
1000
Grayscale
1070
    25
1002
}
  0
LINE
  5
19BDF
330
199F6
100
AcDbEntity
  8
YODOROGO
100
AcDbLine
 10
14988.80217064596
 20
909.8747482146439
 30
0.0
 11
14914.80217064596
 21
909.8747482146439
 31
0.0
1001
AUTOCAD_POSTSCRIPT_FIGURE
1002
{
1000
PSFILL
1000
Grayscale
1000
Grayscale
1070
    25
1002
}
  0
LINE
  5
19BE0
330
199F6
100
AcDbEntity
  8
YODOROGO
100
AcDbLine
 10
14960.80217064594
 20
853.874748214644
 30
0.0
 11
14988.80217064596
 21
853.874748214644
 31
0.0
1001
AUTOCAD_POSTSCRIPT_FIGURE
1002
{
1000
PSFILL
1000
Grayscale
1000
Grayscale
1070
    25
1002
}
  0
LINE
  5
19BE1
330
199F6
100
AcDbEntity
  8
YODOROGO
100
AcDbLine
 10
14868.80217064596
 20
713.8747482146435
 30
0.0
 11
14968.80217064596
 21
740.6696674577553
 31
0.0
  0
LINE
  5
19BE2
330
199F6
100
AcDbEntity
  8
YODOROGO
100
AcDbLine
 10
14974.80217064595
 20
853.874748214644
 30
0.0
 11
14942.80217064596
 21
853.874748214644
 31
0.0
  0
ARC
  5
19BE3
330
199F6
100
AcDbEntity
  8
YODOROGO
100
AcDbCircle
 10
15127.17387491394
 20
903.9323046166312
 30
0.0
 40
190.9434321028236
100
AcDbArc
 50
213.9611167766783
 51
264.4787207431779
  0
ARC
  5
19BE4
330
199F6
100
AcDbEntity
  8
YODOROGO
100
AcDbCircle
 10
15127.17387491396
 20
903.9323046166513
 30
0.0
 40
190.9434321028408
100
AcDbArc
 50
208.141144204866
 51
212.9210361185994
  0
LINE
  5
19BE5
330
199F6
100
AcDbEntity
  8
YODOROGO
100
AcDbLine
 10
14885.70493649264
 20
778.403830673117
 30
0.0
 11
14966.89206625426
 21
800.1578565285436
 31
0.0
  0
LINE
  5
19BE6
330
199F6
100
AcDbEntity
  8
YODOROGO
100
AcDbLine
 10
14868.80217064596
 20
713.8747482146435
 30
0.0
 11
14968.80217064596
 21
740.6696674577553
 31
0.0
  0
LINE
  5
19BE7
330
199F6
100
AcDbEntity
  8
YODOROGO
100
AcDbLine
 10
14974.80217064595
 20
853.874748214644
 30
0.0
 11
14942.80217064596
 21
853.874748214644
 31
0.0
  0
ARC
  5
19BE8
330
199F6
100
AcDbEntity
  8
YODOROGO
100
AcDbCircle
 10
15127.17387491394
 20
903.9323046166312
 30
0.0
 40
190.9434321028236
100
AcDbArc
 50
213.9611167766783
 51
264.4787207431779
  0
LINE
  5
19BE9
330
199F6
100
AcDbEntity
  8
YODOROGO
100
AcDbLine
 10
14396.80217064594
 20
909.8747482146439
 30
0.0
 11
14216.80217064594
 21
909.8747482146439
 31
0.0
  0
LINE
  5
19BEA
330
199F6
100
AcDbEntity
  8
YODOROGO
100
AcDbLine
 10
14256.80217064594
 20
713.8747482146435
 30
0.0
 11
14396.80217064594
 21
713.8747482146435
 31
0.0
  0
LINE
  5
19BEB
330
199F6
100
AcDbEntity
  8
YODOROGO
100
AcDbLine
 10
14364.80217064596
 20
961.8747482146432
 30
0.0
 11
14248.80217064593
 21
961.8747482146432
 31
0.0
  0
LINE
  5
19BEC
330
199F6
100
AcDbEntity
  8
YODOROGO
100
AcDbLine
 10
14292.80217064596
 20
1013.874748214644
 30
0.0
 11
14328.80217064596
 21
1013.874748214644
 31
0.0
  0
LINE
  5
19BED
330
199F6
100
AcDbEntity
  8
YODOROGO
100
AcDbLine
 10
14216.80217064594
 20
853.874748214644
 30
0.0
 11
14216.80217064594
 21
753.8747482146439
 31
0.0
  0
LINE
  5
19BEE
330
199F6
100
AcDbEntity
  8
YODOROGO
100
AcDbLine
 10
14248.80217064593
 20
781.8747482146434
 30
0.0
 11
14248.80217064593
 21
853.874748214644
 31
0.0
  0
LINE
  5
19BEF
330
199F6
100
AcDbEntity
  8
YODOROGO
100
AcDbLine
 10
14292.80217064596
 20
873.8747482146449
 30
0.0
 11
14292.80217064596
 21
773.874748214644
 31
0.0
  0
LINE
  5
19BF0
330
199F6
100
AcDbEntity
  8
YODOROGO
100
AcDbLine
 10
13928.80217064596
 20
841.8747482146445
 30
0.0
 11
13888.80217064596
 21
809.9862070222856
 31
0.0
  0
LINE
  5
19BF1
330
199F6
100
AcDbEntity
  8
YODOROGO
100
AcDbLine
 10
13968.80217064596
 20
809.9862070222856
 30
0.0
 11
13928.80217064596
 21
841.8747482146445
 31
0.0
  0
LINE
  5
19BF2
330
199F6
100
AcDbEntity
  8
YODOROGO
100
AcDbLine
 10
13928.80217064596
 20
853.874748214644
 30
0.0
 11
13968.80217064596
 21
821.986207022285
 31
0.0
  0
LINE
  5
19BF3
330
199F6
100
AcDbEntity
  8
YODOROGO
100
AcDbLine
 10
13888.80217064596
 20
821.986207022285
 30
0.0
 11
13928.80217064596
 21
853.874748214644
 31
0.0
  0
LINE
  5
19BF4
330
199F6
100
AcDbEntity
  8
YODOROGO
100
AcDbLine
 10
14020.45660200844
 20
829.874748214644
 30
0.0
 11
14020.45660200844
 21
841.8747482146434
 31
0.0
  0
LINE
  5
19BF5
330
199F6
100
AcDbEntity
  8
YODOROGO
100
AcDbLine
 10
13988.80217064596
 20
841.8747482146434
 30
0.0
 11
13988.80217064596
 21
833.8747482146427
 31
0.0
  0
LINE
  5
19BF6
330
199F6
100
AcDbEntity
  8
YODOROGO
100
AcDbLine
 10
14049.06776011545
 20
853.874748214644
 30
0.0
 11
14049.06776011545
 21
827.751818637328
 31
0.0
1001
AUTOCAD_POSTSCRIPT_FIGURE
1002
{
1000
PSFILL
1000
Grayscale
1000
Grayscale
1070
   100
1002
}
  0
LINE
  5
19BF7
330
199F6
100
AcDbEntity
  8
YODOROGO
100
AcDbLine
 10
14041.06776011546
 20
827.751818637328
 30
0.0
 11
14041.06776011546
 21
853.874748214644
 31
0.0
1001
AUTOCAD_POSTSCRIPT_FIGURE
1002
{
1000
PSFILL
1000
Grayscale
1000
Grayscale
1070
   100
1002
}
  0
LINE
  5
19BF8
330
199F6
100
AcDbEntity
  8
YODOROGO
100
AcDbLine
 10
13904.80217064596
 20
804.3859520216292
 30
0.0
 11
13904.80217064596
 21
816.3859520216298
 31
0.0
  0
LINE
  5
19BF9
330
199F6
100
AcDbEntity
  8
YODOROGO
100
AcDbLine
 10
13952.80217064596
 20
804.3859520216292
 30
0.0
 11
13904.80217064596
 21
804.3859520216292
 31
0.0
  0
LINE
  5
19BFA
330
199F6
100
AcDbEntity
  8
YODOROGO
100
AcDbLine
 10
13952.80217064596
 20
816.3859520216298
 30
0.0
 11
13952.80217064596
 21
804.3859520216292
 31
0.0
  0
LINE
  5
19BFB
330
199F6
100
AcDbEntity
  8
YODOROGO
100
AcDbLine
 10
13904.80217064596
 20
816.3859520216298
 30
0.0
 11
13952.80217064596
 21
816.3859520216298
 31
0.0
  0
LINE
  5
19BFC
330
199F6
100
AcDbEntity
  8
YODOROGO
100
AcDbLine
 10
13912.25479445787
 20
784.2514286852374
 30
0.0
 11
13892.80217064596
 21
737.8747482146435
 31
0.0
1001
AUTOCAD_POSTSCRIPT_FIGURE
1002
{
1000
PSFILL
1000
Grayscale
1000
Grayscale
1070
   100
1002
}
  0
LINE
  5
19BFD
330
199F6
100
AcDbEntity
  8
YODOROGO
100
AcDbLine
 10
13888.80217064596
 20
784.2514286852374
 30
0.0
 11
13912.25479445787
 21
784.2514286852374
 31
0.0
1001
AUTOCAD_POSTSCRIPT_FIGURE
1002
{
1000
PSFILL
1000
Grayscale
1000
Grayscale
1070
   100
1002
}
  0
LINE
  5
19BFE
330
199F6
100
AcDbEntity
  8
YODOROGO
100
AcDbLine
 10
13888.80217064596
 20
794.2514286852374
 30
0.0
 11
13888.80217064596
 21
784.2514286852374
 31
0.0
1001
AUTOCAD_POSTSCRIPT_FIGURE
1002
{
1000
PSFILL
1000
Grayscale
1000
Grayscale
1070
   100
1002
}
  0
LINE
  5
19BFF
330
199F6
100
AcDbEntity
  8
YODOROGO
100
AcDbLine
 10
13968.80217064596
 20
794.2514286852374
 30
0.0
 11
13888.80217064596
 21
794.2514286852374
 31
0.0
1001
AUTOCAD_POSTSCRIPT_FIGURE
1002
{
1000
PSFILL
1000
Grayscale
1000
Grayscale
1070
   100
1002
}
  0
LINE
  5
19C00
330
199F6
100
AcDbEntity
  8
YODOROGO
100
AcDbLine
 10
13968.80217064596
 20
784.2514286852374
 30
0.0
 11
13968.80217064596
 21
794.2514286852374
 31
0.0
1001
AUTOCAD_POSTSCRIPT_FIGURE
1002
{
1000
PSFILL
1000
Grayscale
1000
Grayscale
1070
   100
1002
}
  0
LINE
  5
19C01
330
199F6
100
AcDbEntity
  8
YODOROGO
100
AcDbLine
 10
13922.25479445785
 20
784.2514286852374
 30
0.0
 11
13968.80217064596
 21
784.2514286852374
 31
0.0
1001
AUTOCAD_POSTSCRIPT_FIGURE
1002
{
1000
PSFILL
1000
Grayscale
1000
Grayscale
1070
   100
1002
}
  0
LINE
  5
19C02
330
199F6
100
AcDbEntity
  8
YODOROGO
100
AcDbLine
 10
13907.77335914238
 20
747.8747482146435
 30
0.0
 11
13922.25479445785
 21
784.2514286852374
 31
0.0
1001
AUTOCAD_POSTSCRIPT_FIGURE
1002
{
1000
PSFILL
1000
Grayscale
1000
Grayscale
1070
   100
1002
}
  0
LINE
  5
19C03
330
199F6
100
AcDbEntity
  8
YODOROGO
100
AcDbLine
 10
13951.02739540432
 20
747.8747482146435
 30
0.0
 11
13907.77335914238
 21
747.8747482146435
 31
0.0
1001
AUTOCAD_POSTSCRIPT_FIGURE
1002
{
1000
PSFILL
1000
Grayscale
1000
Grayscale
1070
   100
1002
}
  0
LINE
  5
19C04
330
199F6
100
AcDbEntity
  8
YODOROGO
100
AcDbLine
 10
13942.53250239547
 20
768.1169053488464
 30
0.0
 11
13951.02739540432
 21
747.8747482146435
 31
0.0
1001
AUTOCAD_POSTSCRIPT_FIGURE
1002
{
1000
PSFILL
1000
Grayscale
1000
Grayscale
1070
   100
1002
}
  0
LINE
  5
19C05
330
199F6
100
AcDbEntity
  8
YODOROGO
100
AcDbLine
 10
13950.53250239547
 20
768.1169053488464
 30
0.0
 11
13942.53250239547
 21
768.1169053488464
 31
0.0
1001
AUTOCAD_POSTSCRIPT_FIGURE
1002
{
1000
PSFILL
1000
Grayscale
1000
Grayscale
1070
   100
1002
}
  0
LINE
  5
19C06
330
199F6
100
AcDbEntity
  8
YODOROGO
100
AcDbLine
 10
13964.80217064596
 20
737.8747482146435
 30
0.0
 11
13950.53250239547
 21
768.1169053488464
 31
0.0
1001
AUTOCAD_POSTSCRIPT_FIGURE
1002
{
1000
PSFILL
1000
Grayscale
1000
Grayscale
1070
   100
1002
}
  0
LINE
  5
19C07
330
199F6
100
AcDbEntity
  8
YODOROGO
100
AcDbLine
 10
13892.80217064596
 20
737.8747482146435
 30
0.0
 11
13964.80217064596
 21
737.8747482146435
 31
0.0
1001
AUTOCAD_POSTSCRIPT_FIGURE
1002
{
1000
PSFILL
1000
Grayscale
1000
Grayscale
1070
   100
1002
}
  0
LINE
  5
19C08
330
199F6
100
AcDbEntity
  8
YODOROGO
100
AcDbLine
 10
13888.80217064596
 20
809.9862070222856
 30
0.0
 11
13888.80217064596
 21
821.986207022285
 31
0.0
  0
LINE
  5
19C09
330
199F6
100
AcDbEntity
  8
YODOROGO
100
AcDbLine
 10
13968.80217064596
 20
821.986207022285
 30
0.0
 11
13968.80217064596
 21
809.9862070222856
 31
0.0
  0
ARC
  5
19C0A
330
199F6
100
AcDbEntity
  8
YODOROGO
100
AcDbCircle
 10
14112.97022107348
 20
800.438882662663
 30
0.0
 40
87.99999999999995
100
AcDbArc
 50
280.3644312771313
 51
3.541483659218056
  0
ARC
  5
19C0B
330
199F6
100
AcDbEntity
  8
YODOROGO
100
AcDbCircle
 10
14117.87801537965
 20
816.798903480952
 30
0.0
 40
55.99999999999914
100
AcDbArc
 50
281.2490582504155
 51
348.7509417495832
  0
LINE
  5
19C0C
330
199F6
100
AcDbEntity
  8
YODOROGO
100
AcDbLine
 10
14128.80217064596
 20
761.8747482146434
 30
0.0
 11
14128.80217064596
 21
713.8747482146435
 31
0.0
  0
LINE
  5
19C0D
330
199F6
100
AcDbEntity
  8
YODOROGO
100
AcDbLine
 10
14010.04445186844
 20
805.3252825309574
 30
0.0
 11
14020.45660200844
 21
829.874748214644
 31
0.0
  0
LINE
  5
19C0E
330
199F6
100
AcDbEntity
  8
YODOROGO
100
AcDbLine
 10
14020.80217064596
 20
791.5602449742006
 30
0.0
 11
14010.04445186844
 21
805.3252825309574
 31
0.0
  0
LINE
  5
19C0F
330
199F6
100
AcDbEntity
  8
YODOROGO
100
AcDbLine
 10
14020.80217064596
 20
781.5602449741994
 30
0.0
 11
14020.80217064596
 21
791.5602449742006
 31
0.0
  0
LINE
  5
19C10
330
199F6
100
AcDbEntity
  8
YODOROGO
100
AcDbLine
 10
14008.80217064596
 20
792.6185318747651
 30
0.0
 11
14020.80217064596
 21
781.5602449741994
 31
0.0
  0
LINE
  5
19C11
330
199F6
100
AcDbEntity
  8
YODOROGO
100
AcDbLine
 10
14008.80217064596
 20
737.8747482146435
 30
0.0
 11
14008.80217064596
 21
792.6185318747651
 31
0.0
  0
LINE
  5
19C12
330
199F6
100
AcDbEntity
  8
YODOROGO
100
AcDbLine
 10
14000.80217064596
 20
737.8747482146435
 30
0.0
 11
14008.80217064596
 21
737.8747482146435
 31
0.0
  0
LINE
  5
19C13
330
199F6
100
AcDbEntity
  8
YODOROGO
100
AcDbLine
 10
14000.80217064596
 20
790.0026748448738
 30
0.0
 11
14000.80217064596
 21
737.8747482146435
 31
0.0
  0
LINE
  5
19C14
330
199F6
100
AcDbEntity
  8
YODOROGO
100
AcDbLine
 10
13988.80217064596
 20
766.3840395167142
 30
0.0
 11
14000.80217064596
 21
790.0026748448738
 31
0.0
  0
LINE
  5
19C15
330
199F6
100
AcDbEntity
  8
YODOROGO
100
AcDbLine
 10
13988.80217064596
 20
778.3840395167149
 30
0.0
 11
13988.80217064596
 21
766.3840395167142
 31
0.0
  0
LINE
  5
19C16
330
199F6
100
AcDbEntity
  8
YODOROGO
100
AcDbLine
 10
14012.91438714567
 20
833.8747482146427
 30
0.0
 11
13988.80217064596
 21
778.3840395167149
 31
0.0
  0
LINE
  5
19C17
330
199F6
100
AcDbEntity
  8
YODOROGO
100
AcDbLine
 10
13988.80217064596
 20
833.8747482146427
 30
0.0
 11
14012.91438714567
 21
833.8747482146427
 31
0.0
  0
LINE
  5
19C18
330
199F6
100
AcDbEntity
  8
YODOROGO
100
AcDbLine
 10
14025.06776011545
 20
827.751818637328
 30
0.0
 11
14041.06776011546
 21
827.751818637328
 31
0.0
1001
AUTOCAD_POSTSCRIPT_FIGURE
1002
{
1000
PSFILL
1000
Grayscale
1000
Grayscale
1070
   100
1002
}
  0
LINE
  5
19C19
330
199F6
100
AcDbEntity
  8
YODOROGO
100
AcDbLine
 10
14025.06776011545
 20
815.7518186373286
 30
0.0
 11
14025.06776011545
 21
827.751818637328
 31
0.0
1001
AUTOCAD_POSTSCRIPT_FIGURE
1002
{
1000
PSFILL
1000
Grayscale
1000
Grayscale
1070
   100
1002
}
  0
LINE
  5
19C1A
330
199F6
100
AcDbEntity
  8
YODOROGO
100
AcDbLine
 10
14041.06776011546
 20
815.7518186373286
 30
0.0
 11
14025.06776011545
 21
815.7518186373286
 31
0.0
1001
AUTOCAD_POSTSCRIPT_FIGURE
1002
{
1000
PSFILL
1000
Grayscale
1000
Grayscale
1070
   100
1002
}
  0
LINE
  5
19C1B
330
199F6
100
AcDbEntity
  8
YODOROGO
100
AcDbLine
 10
14041.06776011546
 20
749.8747482146441
 30
0.0
 11
14041.06776011546
 21
815.7518186373286
 31
0.0
1001
AUTOCAD_POSTSCRIPT_FIGURE
1002
{
1000
PSFILL
1000
Grayscale
1000
Grayscale
1070
   100
1002
}
  0
LINE
  5
19C1C
330
199F6
100
AcDbEntity
  8
YODOROGO
100
AcDbLine
 10
14025.06776011545
 20
749.8747482146441
 30
0.0
 11
14041.06776011546
 21
749.8747482146441
 31
0.0
1001
AUTOCAD_POSTSCRIPT_FIGURE
1002
{
1000
PSFILL
1000
Grayscale
1000
Grayscale
1070
   100
1002
}
  0
LINE
  5
19C1D
330
199F6
100
AcDbEntity
  8
YODOROGO
100
AcDbLine
 10
14025.06776011545
 20
737.8747482146435
 30
0.0
 11
14025.06776011545
 21
749.8747482146441
 31
0.0
1001
AUTOCAD_POSTSCRIPT_FIGURE
1002
{
1000
PSFILL
1000
Grayscale
1000
Grayscale
1070
   100
1002
}
  0
LINE
  5
19C1E
330
199F6
100
AcDbEntity
  8
YODOROGO
100
AcDbLine
 10
14068.80217064596
 20
737.8747482146435
 30
0.0
 11
14025.06776011545
 21
737.8747482146435
 31
0.0
1001
AUTOCAD_POSTSCRIPT_FIGURE
1002
{
1000
PSFILL
1000
Grayscale
1000
Grayscale
1070
   100
1002
}
  0
LINE
  5
19C1F
330
199F6
100
AcDbEntity
  8
YODOROGO
100
AcDbLine
 10
14068.80217064596
 20
749.8747482146441
 30
0.0
 11
14068.80217064596
 21
737.8747482146435
 31
0.0
1001
AUTOCAD_POSTSCRIPT_FIGURE
1002
{
1000
PSFILL
1000
Grayscale
1000
Grayscale
1070
   100
1002
}
  0
LINE
  5
19C20
330
199F6
100
AcDbEntity
  8
YODOROGO
100
AcDbLine
 10
14049.06776011545
 20
749.8747482146441
 30
0.0
 11
14068.80217064596
 21
749.8747482146441
 31
0.0
1001
AUTOCAD_POSTSCRIPT_FIGURE
1002
{
1000
PSFILL
1000
Grayscale
1000
Grayscale
1070
   100
1002
}
  0
LINE
  5
19C21
330
199F6
100
AcDbEntity
  8
YODOROGO
100
AcDbLine
 10
14049.06776011545
 20
815.7518186373286
 30
0.0
 11
14049.06776011545
 21
749.8747482146441
 31
0.0
1001
AUTOCAD_POSTSCRIPT_FIGURE
1002
{
1000
PSFILL
1000
Grayscale
1000
Grayscale
1070
   100
1002
}
  0
LINE
  5
19C22
330
199F6
100
AcDbEntity
  8
YODOROGO
100
AcDbLine
 10
14068.80217064596
 20
815.7518186373286
 30
0.0
 11
14049.06776011545
 21
815.7518186373286
 31
0.0
1001
AUTOCAD_POSTSCRIPT_FIGURE
1002
{
1000
PSFILL
1000
Grayscale
1000
Grayscale
1070
   100
1002
}
  0
LINE
  5
19C23
330
199F6
100
AcDbEntity
  8
YODOROGO
100
AcDbLine
 10
14068.80217064596
 20
827.751818637328
 30
0.0
 11
14068.80217064596
 21
815.7518186373286
 31
0.0
1001
AUTOCAD_POSTSCRIPT_FIGURE
1002
{
1000
PSFILL
1000
Grayscale
1000
Grayscale
1070
   100
1002
}
  0
LINE
  5
19C24
330
199F6
100
AcDbEntity
  8
YODOROGO
100
AcDbLine
 10
14049.06776011545
 20
827.751818637328
 30
0.0
 11
14068.80217064596
 21
827.751818637328
 31
0.0
1001
AUTOCAD_POSTSCRIPT_FIGURE
1002
{
1000
PSFILL
1000
Grayscale
1000
Grayscale
1070
   100
1002
}
  0
LINE
  5
19C25
330
199F6
100
AcDbEntity
  8
YODOROGO
100
AcDbLine
 10
14200.80217064594
 20
833.8747482146439
 30
0.0
 11
14172.80217064596
 21
833.8747482146439
 31
0.0
  0
LINE
  5
19C26
330
199F6
100
AcDbEntity
  8
YODOROGO
100
AcDbLine
 10
14200.80217064594
 20
805.8747482146443
 30
0.0
 11
14200.80217064594
 21
833.8747482146439
 31
0.0
  0
LINE
  5
19C27
330
199F6
100
AcDbEntity
  8
YODOROGO
100
AcDbLine
 10
14172.80217064596
 20
833.8747482146439
 30
0.0
 11
14172.80217064596
 21
805.8747482146443
 31
0.0
  0
ARC
  5
19C28
330
199F6
100
AcDbEntity
  8
YODOROGO
100
AcDbCircle
 10
14256.80217064594
 20
753.8747482146439
 30
0.0
 40
40.0
100
AcDbArc
 50
180.0
 51
270.0
  0
ARC
  5
19C29
330
199F6
100
AcDbEntity
  8
YODOROGO
100
AcDbCircle
 10
14268.80217064594
 20
781.8747482146434
 30
0.0
 40
20.0
100
AcDbArc
 50
180.0
 51
270.0
  0
LINE
  5
19C2A
330
199F6
100
AcDbEntity
  8
YODOROGO
100
AcDbLine
 10
14280.80217064596
 20
761.8747482146434
 30
0.0
 11
14268.80217064594
 21
761.8747482146434
 31
0.0
  0
ARC
  5
19C2B
330
199F6
100
AcDbEntity
  8
YODOROGO
100
AcDbCircle
 10
14280.80217064596
 20
773.8747482146427
 30
0.0
 40
11.99999999999818
100
AcDbArc
 50
270.0
 51
0.0000000000054281
  0
LINE
  5
19C2C
330
199F6
100
AcDbEntity
  8
YODOROGO
100
AcDbLine
 10
13900.80217064596
 20
945.3932903968532
 30
0.0
 11
13888.80217064596
 21
921.8883739758362
 31
0.0
1001
AUTOCAD_POSTSCRIPT_FIGURE
1002
{
1000
PSFILL
1000
Grayscale
1000
Grayscale
1070
   100
1002
}
  0
LINE
  5
19C2D
330
199F6
100
AcDbEntity
  8
YODOROGO
100
AcDbLine
 10
13900.80217064596
 20
873.8747482146434
 30
0.0
 11
13900.80217064596
 21
945.3932903968532
 31
0.0
1001
AUTOCAD_POSTSCRIPT_FIGURE
1002
{
1000
PSFILL
1000
Grayscale
1000
Grayscale
1070
   100
1002
}
  0
LINE
  5
19C2E
330
199F6
100
AcDbEntity
  8
YODOROGO
100
AcDbLine
 10
13908.80217064596
 20
873.8747482146434
 30
0.0
 11
13900.80217064596
 21
873.8747482146434
 31
0.0
1001
AUTOCAD_POSTSCRIPT_FIGURE
1002
{
1000
PSFILL
1000
Grayscale
1000
Grayscale
1070
   100
1002
}
  0
LINE
  5
19C2F
330
199F6
100
AcDbEntity
  8
YODOROGO
100
AcDbLine
 10
13908.80217064596
 20
946.8856660426332
 30
0.0
 11
13908.80217064596
 21
873.8747482146434
 31
0.0
1001
AUTOCAD_POSTSCRIPT_FIGURE
1002
{
1000
PSFILL
1000
Grayscale
1000
Grayscale
1070
   100
1002
}
  0
LINE
  5
19C30
330
199F6
100
AcDbEntity
  8
YODOROGO
100
AcDbLine
 10
13920.80217064596
 20
933.8273791420684
 30
0.0
 11
13908.80217064596
 21
946.8856660426332
 31
0.0
1001
AUTOCAD_POSTSCRIPT_FIGURE
1002
{
1000
PSFILL
1000
Grayscale
1000
Grayscale
1070
   100
1002
}
  0
LINE
  5
19C31
330
199F6
100
AcDbEntity
  8
YODOROGO
100
AcDbLine
 10
13920.80217064596
 20
941.8273791420681
 30
0.0
 11
13920.80217064596
 21
933.8273791420684
 31
0.0
1001
AUTOCAD_POSTSCRIPT_FIGURE
1002
{
1000
PSFILL
1000
Grayscale
1000
Grayscale
1070
   100
1002
}
  0
LINE
  5
19C32
330
199F6
100
AcDbEntity
  8
YODOROGO
100
AcDbLine
 10
13908.80217064596
 20
958.8856660426325
 30
0.0
 11
13920.80217064596
 21
941.8273791420681
 31
0.0
1001
AUTOCAD_POSTSCRIPT_FIGURE
1002
{
1000
PSFILL
1000
Grayscale
1000
Grayscale
1070
   100
1002
}
  0
LINE
  5
19C33
330
199F6
100
AcDbEntity
  8
YODOROGO
100
AcDbLine
 10
13908.80217064596
 20
969.8747482146441
 30
0.0
 11
13908.80217064596
 21
958.8856660426325
 31
0.0
1001
AUTOCAD_POSTSCRIPT_FIGURE
1002
{
1000
PSFILL
1000
Grayscale
1000
Grayscale
1070
   100
1002
}
  0
LINE
  5
19C34
330
199F6
100
AcDbEntity
  8
YODOROGO
100
AcDbLine
 10
13944.80217064596
 20
969.8747482146441
 30
0.0
 11
13908.80217064596
 21
969.8747482146441
 31
0.0
1001
AUTOCAD_POSTSCRIPT_FIGURE
1002
{
1000
PSFILL
1000
Grayscale
1000
Grayscale
1070
   100
1002
}
  0
LINE
  5
19C35
330
199F6
100
AcDbEntity
  8
YODOROGO
100
AcDbLine
 10
13944.80217064596
 20
950.2841744681495
 30
0.0
 11
13944.80217064596
 21
969.8747482146441
 31
0.0
1001
AUTOCAD_POSTSCRIPT_FIGURE
1002
{
1000
PSFILL
1000
Grayscale
1000
Grayscale
1070
   100
1002
}
  0
LINE
  5
19C36
330
199F6
100
AcDbEntity
  8
YODOROGO
100
AcDbLine
 10
13928.80217064596
 20
950.2841744681495
 30
0.0
 11
13944.80217064596
 21
950.2841744681495
 31
0.0
1001
AUTOCAD_POSTSCRIPT_FIGURE
1002
{
1000
PSFILL
1000
Grayscale
1000
Grayscale
1070
   100
1002
}
  0
LINE
  5
19C37
330
199F6
100
AcDbEntity
  8
YODOROGO
100
AcDbLine
 10
13928.80217064596
 20
942.2841744681491
 30
0.0
 11
13928.80217064596
 21
950.2841744681495
 31
0.0
1001
AUTOCAD_POSTSCRIPT_FIGURE
1002
{
1000
PSFILL
1000
Grayscale
1000
Grayscale
1070
   100
1002
}
  0
LINE
  5
19C38
330
199F6
100
AcDbEntity
  8
YODOROGO
100
AcDbLine
 10
13944.80217064596
 20
942.2841744681491
 30
0.0
 11
13928.80217064596
 21
942.2841744681491
 31
0.0
1001
AUTOCAD_POSTSCRIPT_FIGURE
1002
{
1000
PSFILL
1000
Grayscale
1000
Grayscale
1070
   100
1002
}
  0
LINE
  5
19C39
330
199F6
100
AcDbEntity
  8
YODOROGO
100
AcDbLine
 10
13944.80217064596
 20
939.8095889822197
 30
0.0
 11
13944.80217064596
 21
942.2841744681491
 31
0.0
1001
AUTOCAD_POSTSCRIPT_FIGURE
1002
{
1000
PSFILL
1000
Grayscale
1000
Grayscale
1070
   100
1002
}
  0
LINE
  5
19C3A
330
199F6
100
AcDbEntity
  8
YODOROGO
100
AcDbLine
 10
13924.80217064596
 20
906.4874905807087
 30
0.0
 11
13944.80217064596
 21
939.8095889822197
 31
0.0
1001
AUTOCAD_POSTSCRIPT_FIGURE
1002
{
1000
PSFILL
1000
Grayscale
1000
Grayscale
1070
   100
1002
}
  0
LINE
  5
19C3B
330
199F6
100
AcDbEntity
  8
YODOROGO
100
AcDbLine
 10
13924.80217064596
 20
898.487490580708
 30
0.0
 11
13924.80217064596
 21
906.4874905807087
 31
0.0
1001
AUTOCAD_POSTSCRIPT_FIGURE
1002
{
1000
PSFILL
1000
Grayscale
1000
Grayscale
1070
   100
1002
}
  0
LINE
  5
19C3C
330
199F6
100
AcDbEntity
  8
YODOROGO
100
AcDbLine
 10
13944.80217064596
 20
923.8095889822183
 30
0.0
 11
13924.80217064596
 21
898.487490580708
 31
0.0
1001
AUTOCAD_POSTSCRIPT_FIGURE
1002
{
1000
PSFILL
1000
Grayscale
1000
Grayscale
1070
   100
1002
}
  0
LINE
  5
19C3D
330
199F6
100
AcDbEntity
  8
YODOROGO
100
AcDbLine
 10
13944.80217064596
 20
873.8747482146434
 30
0.0
 11
13944.80217064596
 21
923.8095889822183
 31
0.0
1001
AUTOCAD_POSTSCRIPT_FIGURE
1002
{
1000
PSFILL
1000
Grayscale
1000
Grayscale
1070
   100
1002
}
  0
LINE
  5
19C3E
330
199F6
100
AcDbEntity
  8
YODOROGO
100
AcDbLine
 10
13952.80217064596
 20
873.8747482146434
 30
0.0
 11
13944.80217064596
 21
873.8747482146434
 31
0.0
1001
AUTOCAD_POSTSCRIPT_FIGURE
1002
{
1000
PSFILL
1000
Grayscale
1000
Grayscale
1070
   100
1002
}
  0
LINE
  5
19C3F
330
199F6
100
AcDbEntity
  8
YODOROGO
100
AcDbLine
 10
13952.80217064596
 20
924.7045060794032
 30
0.0
 11
13952.80217064596
 21
873.8747482146434
 31
0.0
1001
AUTOCAD_POSTSCRIPT_FIGURE
1002
{
1000
PSFILL
1000
Grayscale
1000
Grayscale
1070
   100
1002
}
  0
LINE
  5
19C40
330
199F6
100
AcDbEntity
  8
YODOROGO
100
AcDbLine
 10
13968.80217064596
 20
898.487490580708
 30
0.0
 11
13952.80217064596
 21
924.7045060794032
 31
0.0
1001
AUTOCAD_POSTSCRIPT_FIGURE
1002
{
1000
PSFILL
1000
Grayscale
1000
Grayscale
1070
   100
1002
}
  0
LINE
  5
19C41
330
199F6
100
AcDbEntity
  8
YODOROGO
100
AcDbLine
 10
13968.80217064596
 20
906.4874905807087
 30
0.0
 11
13968.80217064596
 21
898.487490580708
 31
0.0
1001
AUTOCAD_POSTSCRIPT_FIGURE
1002
{
1000
PSFILL
1000
Grayscale
1000
Grayscale
1070
   100
1002
}
  0
LINE
  5
19C42
330
199F6
100
AcDbEntity
  8
YODOROGO
100
AcDbLine
 10
13952.80217064596
 20
940.704506079404
 30
0.0
 11
13968.80217064596
 21
906.4874905807087
 31
0.0
1001
AUTOCAD_POSTSCRIPT_FIGURE
1002
{
1000
PSFILL
1000
Grayscale
1000
Grayscale
1070
   100
1002
}
  0
LINE
  5
19C43
330
199F6
100
AcDbEntity
  8
YODOROGO
100
AcDbLine
 10
13952.80217064596
 20
942.2841744681502
 30
0.0
 11
13952.80217064596
 21
940.704506079404
 31
0.0
1001
AUTOCAD_POSTSCRIPT_FIGURE
1002
{
1000
PSFILL
1000
Grayscale
1000
Grayscale
1070
   100
1002
}
  0
LINE
  5
19C44
330
199F6
100
AcDbEntity
  8
YODOROGO
100
AcDbLine
 10
13968.80217064596
 20
942.2841744681491
 30
0.0
 11
13952.80217064596
 21
942.2841744681502
 31
0.0
1001
AUTOCAD_POSTSCRIPT_FIGURE
1002
{
1000
PSFILL
1000
Grayscale
1000
Grayscale
1070
   100
1002
}
  0
LINE
  5
19C45
330
199F6
100
AcDbEntity
  8
YODOROGO
100
AcDbLine
 10
13968.80217064596
 20
950.2841744681495
 30
0.0
 11
13968.80217064596
 21
942.2841744681491
 31
0.0
1001
AUTOCAD_POSTSCRIPT_FIGURE
1002
{
1000
PSFILL
1000
Grayscale
1000
Grayscale
1070
   100
1002
}
  0
LINE
  5
19C46
330
199F6
100
AcDbEntity
  8
YODOROGO
100
AcDbLine
 10
13952.80217064596
 20
950.2841744681495
 30
0.0
 11
13968.80217064596
 21
950.2841744681495
 31
0.0
1001
AUTOCAD_POSTSCRIPT_FIGURE
1002
{
1000
PSFILL
1000
Grayscale
1000
Grayscale
1070
   100
1002
}
  0
LINE
  5
19C47
330
199F6
100
AcDbEntity
  8
YODOROGO
100
AcDbLine
 10
13952.80217064596
 20
969.8747482146441
 30
0.0
 11
13952.80217064596
 21
950.2841744681495
 31
0.0
1001
AUTOCAD_POSTSCRIPT_FIGURE
1002
{
1000
PSFILL
1000
Grayscale
1000
Grayscale
1070
   100
1002
}
  0
LINE
  5
19C48
330
199F6
100
AcDbEntity
  8
YODOROGO
100
AcDbLine
 10
13968.80217064596
 20
969.8747482146441
 30
0.0
 11
13952.80217064596
 21
969.8747482146441
 31
0.0
1001
AUTOCAD_POSTSCRIPT_FIGURE
1002
{
1000
PSFILL
1000
Grayscale
1000
Grayscale
1070
   100
1002
}
  0
LINE
  5
19C49
330
199F6
100
AcDbEntity
  8
YODOROGO
100
AcDbLine
 10
13968.80217064596
 20
977.8747482146435
 30
0.0
 11
13968.80217064596
 21
969.8747482146441
 31
0.0
1001
AUTOCAD_POSTSCRIPT_FIGURE
1002
{
1000
PSFILL
1000
Grayscale
1000
Grayscale
1070
   100
1002
}
  0
LINE
  5
19C4A
330
199F6
100
AcDbEntity
  8
YODOROGO
100
AcDbLine
 10
13952.80217064596
 20
977.8747482146435
 30
0.0
 11
13968.80217064596
 21
977.8747482146435
 31
0.0
1001
AUTOCAD_POSTSCRIPT_FIGURE
1002
{
1000
PSFILL
1000
Grayscale
1000
Grayscale
1070
   100
1002
}
  0
LINE
  5
19C4B
330
199F6
100
AcDbEntity
  8
YODOROGO
100
AcDbLine
 10
13952.80217064596
 20
989.8747482146443
 30
0.0
 11
13952.80217064596
 21
977.8747482146435
 31
0.0
1001
AUTOCAD_POSTSCRIPT_FIGURE
1002
{
1000
PSFILL
1000
Grayscale
1000
Grayscale
1070
   100
1002
}
  0
LINE
  5
19C4C
330
199F6
100
AcDbEntity
  8
YODOROGO
100
AcDbLine
 10
13944.80217064596
 20
989.8747482146443
 30
0.0
 11
13952.80217064596
 21
989.8747482146443
 31
0.0
1001
AUTOCAD_POSTSCRIPT_FIGURE
1002
{
1000
PSFILL
1000
Grayscale
1000
Grayscale
1070
   100
1002
}
  0
LINE
  5
19C4D
330
199F6
100
AcDbEntity
  8
YODOROGO
100
AcDbLine
 10
13944.80217064596
 20
977.8747482146435
 30
0.0
 11
13944.80217064596
 21
989.8747482146443
 31
0.0
1001
AUTOCAD_POSTSCRIPT_FIGURE
1002
{
1000
PSFILL
1000
Grayscale
1000
Grayscale
1070
   100
1002
}
  0
LINE
  5
19C4E
330
199F6
100
AcDbEntity
  8
YODOROGO
100
AcDbLine
 10
13932.80217064596
 20
977.8747482146435
 30
0.0
 11
13944.80217064596
 21
977.8747482146435
 31
0.0
1001
AUTOCAD_POSTSCRIPT_FIGURE
1002
{
1000
PSFILL
1000
Grayscale
1000
Grayscale
1070
   100
1002
}
  0
LINE
  5
19C4F
330
199F6
100
AcDbEntity
  8
YODOROGO
100
AcDbLine
 10
13932.80217064596
 20
989.8747482146443
 30
0.0
 11
13932.80217064596
 21
977.8747482146435
 31
0.0
1001
AUTOCAD_POSTSCRIPT_FIGURE
1002
{
1000
PSFILL
1000
Grayscale
1000
Grayscale
1070
   100
1002
}
  0
LINE
  5
19C50
330
199F6
100
AcDbEntity
  8
YODOROGO
100
AcDbLine
 10
13924.80217064596
 20
989.8747482146443
 30
0.0
 11
13932.80217064596
 21
989.8747482146443
 31
0.0
1001
AUTOCAD_POSTSCRIPT_FIGURE
1002
{
1000
PSFILL
1000
Grayscale
1000
Grayscale
1070
   100
1002
}
  0
LINE
  5
19C51
330
199F6
100
AcDbEntity
  8
YODOROGO
100
AcDbLine
 10
13924.80217064596
 20
977.8747482146435
 30
0.0
 11
13924.80217064596
 21
989.8747482146443
 31
0.0
1001
AUTOCAD_POSTSCRIPT_FIGURE
1002
{
1000
PSFILL
1000
Grayscale
1000
Grayscale
1070
   100
1002
}
  0
LINE
  5
19C52
330
199F6
100
AcDbEntity
  8
YODOROGO
100
AcDbLine
 10
13908.80217064596
 20
977.8747482146435
 30
0.0
 11
13924.80217064596
 21
977.8747482146435
 31
0.0
1001
AUTOCAD_POSTSCRIPT_FIGURE
1002
{
1000
PSFILL
1000
Grayscale
1000
Grayscale
1070
   100
1002
}
  0
LINE
  5
19C53
330
199F6
100
AcDbEntity
  8
YODOROGO
100
AcDbLine
 10
13908.80217064596
 20
989.8747482146443
 30
0.0
 11
13908.80217064596
 21
977.8747482146435
 31
0.0
1001
AUTOCAD_POSTSCRIPT_FIGURE
1002
{
1000
PSFILL
1000
Grayscale
1000
Grayscale
1070
   100
1002
}
  0
LINE
  5
19C54
330
199F6
100
AcDbEntity
  8
YODOROGO
100
AcDbLine
 10
13900.80217064596
 20
989.8747482146443
 30
0.0
 11
13908.80217064596
 21
989.8747482146443
 31
0.0
1001
AUTOCAD_POSTSCRIPT_FIGURE
1002
{
1000
PSFILL
1000
Grayscale
1000
Grayscale
1070
   100
1002
}
  0
LINE
  5
19C55
330
199F6
100
AcDbEntity
  8
YODOROGO
100
AcDbLine
 10
13900.80217064596
 20
977.8747482146435
 30
0.0
 11
13900.80217064596
 21
989.8747482146443
 31
0.0
1001
AUTOCAD_POSTSCRIPT_FIGURE
1002
{
1000
PSFILL
1000
Grayscale
1000
Grayscale
1070
   100
1002
}
  0
LINE
  5
19C56
330
199F6
100
AcDbEntity
  8
YODOROGO
100
AcDbLine
 10
13888.80217064596
 20
977.8747482146435
 30
0.0
 11
13900.80217064596
 21
977.8747482146435
 31
0.0
1001
AUTOCAD_POSTSCRIPT_FIGURE
1002
{
1000
PSFILL
1000
Grayscale
1000
Grayscale
1070
   100
1002
}
  0
LINE
  5
19C57
330
199F6
100
AcDbEntity
  8
YODOROGO
100
AcDbLine
 10
13888.80217064596
 20
969.8747482146441
 30
0.0
 11
13888.80217064596
 21
977.8747482146435
 31
0.0
1001
AUTOCAD_POSTSCRIPT_FIGURE
1002
{
1000
PSFILL
1000
Grayscale
1000
Grayscale
1070
   100
1002
}
  0
LINE
  5
19C58
330
199F6
100
AcDbEntity
  8
YODOROGO
100
AcDbLine
 10
13900.80217064596
 20
969.8747482146441
 30
0.0
 11
13888.80217064596
 21
969.8747482146441
 31
0.0
1001
AUTOCAD_POSTSCRIPT_FIGURE
1002
{
1000
PSFILL
1000
Grayscale
1000
Grayscale
1070
   100
1002
}
  0
LINE
  5
19C59
330
199F6
100
AcDbEntity
  8
YODOROGO
100
AcDbLine
 10
13900.80217064596
 20
957.3932903968524
 30
0.0
 11
13900.80217064596
 21
969.8747482146441
 31
0.0
1001
AUTOCAD_POSTSCRIPT_FIGURE
1002
{
1000
PSFILL
1000
Grayscale
1000
Grayscale
1070
   100
1002
}
  0
LINE
  5
19C5A
330
199F6
100
AcDbEntity
  8
YODOROGO
100
AcDbLine
 10
13888.80217064596
 20
929.8883739758355
 30
0.0
 11
13900.80217064596
 21
957.3932903968524
 31
0.0
1001
AUTOCAD_POSTSCRIPT_FIGURE
1002
{
1000
PSFILL
1000
Grayscale
1000
Grayscale
1070
   100
1002
}
  0
LINE
  5
19C5B
330
199F6
100
AcDbEntity
  8
YODOROGO
100
AcDbLine
 10
13888.80217064596
 20
921.8883739758362
 30
0.0
 11
13888.80217064596
 21
929.8883739758355
 31
0.0
1001
AUTOCAD_POSTSCRIPT_FIGURE
1002
{
1000
PSFILL
1000
Grayscale
1000
Grayscale
1070
   100
1002
}
  0
LINE
  5
19C5C
330
199F6
100
AcDbEntity
  8
YODOROGO
100
AcDbLine
 10
14128.80217064596
 20
933.8747482146439
 30
0.0
 11
14200.80217064594
 21
912.4388128201532
 31
0.0
1001
AUTOCAD_POSTSCRIPT_FIGURE
1002
{
1000
PSFILL
1000
Grayscale
1000
Grayscale
1070
   100
1002
}
  0
LINE
  5
19C5D
330
199F6
100
AcDbEntity
  8
YODOROGO
100
AcDbLine
 10
14200.80217064594
 20
876.4388128201531
 30
0.0
 11
14128.80217064596
 21
897.8747482146435
 31
0.0
1001
AUTOCAD_POSTSCRIPT_FIGURE
1002
{
1000
PSFILL
1000
Grayscale
1000
Grayscale
1070
   100
1002
}
  0
LINE
  5
19C5E
330
199F6
100
AcDbEntity
  8
YODOROGO
100
AcDbLine
 10
14200.80217064594
 20
992.4388128201531
 30
0.0
 11
14128.80217064596
 21
1013.874748214644
 31
0.0
1001
AUTOCAD_POSTSCRIPT_FIGURE
1002
{
1000
PSFILL
1000
Grayscale
1000
Grayscale
1070
   100
1002
}
  0
LINE
  5
19C5F
330
199F6
100
AcDbEntity
  8
YODOROGO
100
AcDbLine
 10
14128.80217064596
 20
979.874748214644
 30
0.0
 11
14200.80217064594
 21
958.4388128201537
 31
0.0
1001
AUTOCAD_POSTSCRIPT_FIGURE
1002
{
1000
PSFILL
1000
Grayscale
1000
Grayscale
1070
   100
1002
}
  0
LINE
  5
19C60
330
199F6
100
AcDbEntity
  8
YODOROGO
100
AcDbLine
 10
14128.80217064596
 20
897.8747482146435
 30
0.0
 11
14128.80217064596
 21
933.8747482146439
 31
0.0
1001
AUTOCAD_POSTSCRIPT_FIGURE
1002
{
1000
PSFILL
1000
Grayscale
1000
Grayscale
1070
   100
1002
}
  0
LINE
  5
19C61
330
199F6
100
AcDbEntity
  8
YODOROGO
100
AcDbLine
 10
14128.80217064596
 20
1013.874748214644
 30
0.0
 11
14128.80217064596
 21
979.874748214644
 31
0.0
1001
AUTOCAD_POSTSCRIPT_FIGURE
1002
{
1000
PSFILL
1000
Grayscale
1000
Grayscale
1070
   100
1002
}
  0
LINE
  5
19C62
330
199F6
100
AcDbEntity
  8
YODOROGO
100
AcDbLine
 10
14040.11816010337
 20
969.8747482146441
 30
0.0
 11
14064.80217064594
 21
873.8747482146434
 31
0.0
1001
AUTOCAD_POSTSCRIPT_FIGURE
1002
{
1000
PSFILL
1000
Grayscale
1000
Grayscale
1070
   100
1002
}
  0
LINE
  5
19C63
330
199F6
100
AcDbEntity
  8
YODOROGO
100
AcDbLine
 10
13988.80217064596
 20
969.8747482146441
 30
0.0
 11
14040.11816010337
 21
969.8747482146441
 31
0.0
1001
AUTOCAD_POSTSCRIPT_FIGURE
1002
{
1000
PSFILL
1000
Grayscale
1000
Grayscale
1070
   100
1002
}
  0
LINE
  5
19C64
330
199F6
100
AcDbEntity
  8
YODOROGO
100
AcDbLine
 10
13988.80217064596
 20
977.8747482146435
 30
0.0
 11
13988.80217064596
 21
969.8747482146441
 31
0.0
1001
AUTOCAD_POSTSCRIPT_FIGURE
1002
{
1000
PSFILL
1000
Grayscale
1000
Grayscale
1070
   100
1002
}
  0
LINE
  5
19C65
330
199F6
100
AcDbEntity
  8
YODOROGO
100
AcDbLine
 10
14038.30343925995
 20
977.8747482146435
 30
0.0
 11
13988.80217064596
 21
977.8747482146435
 31
0.0
1001
AUTOCAD_POSTSCRIPT_FIGURE
1002
{
1000
PSFILL
1000
Grayscale
1000
Grayscale
1070
   100
1002
}
  0
LINE
  5
19C66
330
199F6
100
AcDbEntity
  8
YODOROGO
100
AcDbLine
 10
14035.58135799485
 20
989.8747482146443
 30
0.0
 11
14038.30343925995
 21
977.8747482146435
 31
0.0
1001
AUTOCAD_POSTSCRIPT_FIGURE
1002
{
1000
PSFILL
1000
Grayscale
1000
Grayscale
1070
   100
1002
}
  0
LINE
  5
19C67
330
199F6
100
AcDbEntity
  8
YODOROGO
100
AcDbLine
 10
14045.58135799485
 20
989.8747482146443
 30
0.0
 11
14035.58135799485
 21
989.8747482146443
 31
0.0
1001
AUTOCAD_POSTSCRIPT_FIGURE
1002
{
1000
PSFILL
1000
Grayscale
1000
Grayscale
1070
   100
1002
}
  0
LINE
  5
19C68
330
199F6
100
AcDbEntity
  8
YODOROGO
100
AcDbLine
 10
14047.90343925997
 20
977.8747482146435
 30
0.0
 11
14045.58135799485
 21
989.8747482146443
 31
0.0
1001
AUTOCAD_POSTSCRIPT_FIGURE
1002
{
1000
PSFILL
1000
Grayscale
1000
Grayscale
1070
   100
1002
}
  0
LINE
  5
19C69
330
199F6
100
AcDbEntity
  8
YODOROGO
100
AcDbLine
 10
14060.80217064596
 20
977.8747482146435
 30
0.0
 11
14047.90343925997
 21
977.8747482146435
 31
0.0
1001
AUTOCAD_POSTSCRIPT_FIGURE
1002
{
1000
PSFILL
1000
Grayscale
1000
Grayscale
1070
   100
1002
}
  0
LINE
  5
19C6A
330
199F6
100
AcDbEntity
  8
YODOROGO
100
AcDbLine
 10
14060.80217064596
 20
989.8747482146443
 30
0.0
 11
14060.80217064596
 21
977.8747482146435
 31
0.0
1001
AUTOCAD_POSTSCRIPT_FIGURE
1002
{
1000
PSFILL
1000
Grayscale
1000
Grayscale
1070
   100
1002
}
  0
LINE
  5
19C6B
330
199F6
100
AcDbEntity
  8
YODOROGO
100
AcDbLine
 10
14068.80217064596
 20
989.8747482146443
 30
0.0
 11
14060.80217064596
 21
989.8747482146443
 31
0.0
1001
AUTOCAD_POSTSCRIPT_FIGURE
1002
{
1000
PSFILL
1000
Grayscale
1000
Grayscale
1070
   100
1002
}
  0
LINE
  5
19C6C
330
199F6
100
AcDbEntity
  8
YODOROGO
100
AcDbLine
 10
14068.80217064596
 20
977.8747482146435
 30
0.0
 11
14068.80217064596
 21
989.8747482146443
 31
0.0
1001
AUTOCAD_POSTSCRIPT_FIGURE
1002
{
1000
PSFILL
1000
Grayscale
1000
Grayscale
1070
   100
1002
}
  0
LINE
  5
19C6D
330
199F6
100
AcDbEntity
  8
YODOROGO
100
AcDbLine
 10
14068.80217064596
 20
969.8747482146441
 30
0.0
 11
14068.80217064596
 21
977.8747482146435
 31
0.0
1001
AUTOCAD_POSTSCRIPT_FIGURE
1002
{
1000
PSFILL
1000
Grayscale
1000
Grayscale
1070
   100
1002
}
  0
LINE
  5
19C6E
330
199F6
100
AcDbEntity
  8
YODOROGO
100
AcDbLine
 10
14049.4514934367
 20
969.8747482146441
 30
0.0
 11
14068.80217064596
 21
969.8747482146441
 31
0.0
1001
AUTOCAD_POSTSCRIPT_FIGURE
1002
{
1000
PSFILL
1000
Grayscale
1000
Grayscale
1070
   100
1002
}
  0
LINE
  5
19C6F
330
199F6
100
AcDbEntity
  8
YODOROGO
100
AcDbLine
 10
14068.80217064596
 20
873.8747482146434
 30
0.0
 11
14049.4514934367
 21
969.8747482146441
 31
0.0
1001
AUTOCAD_POSTSCRIPT_FIGURE
1002
{
1000
PSFILL
1000
Grayscale
1000
Grayscale
1070
   100
1002
}
  0
LINE
  5
19C70
330
199F6
100
AcDbEntity
  8
YODOROGO
100
AcDbLine
 10
14064.80217064594
 20
873.8747482146434
 30
0.0
 11
14068.80217064596
 21
873.8747482146434
 31
0.0
1001
AUTOCAD_POSTSCRIPT_FIGURE
1002
{
1000
PSFILL
1000
Grayscale
1000
Grayscale
1070
   100
1002
}
  0
LINE
  5
19C71
330
199F6
100
AcDbEntity
  8
YODOROGO
100
AcDbLine
 10
14039.03460996688
 20
887.8703881493972
 30
0.0
 11
13988.80217064596
 21
873.8747482146434
 31
0.0
  0
LINE
  5
19C72
330
199F6
100
AcDbEntity
  8
YODOROGO
100
AcDbLine
 10
14039.03460996688
 20
899.3344897645364
 30
0.0
 11
14039.03460996688
 21
887.8703881493972
 31
0.0
  0
LINE
  5
19C73
330
199F6
100
AcDbEntity
  8
YODOROGO
100
AcDbLine
 10
14016.91839030643
 20
893.4084665668834
 30
0.0
 11
14039.03460996688
 21
899.3344897645364
 31
0.0
  0
LINE
  5
19C74
330
199F6
100
AcDbEntity
  8
YODOROGO
100
AcDbLine
 10
14016.91839030643
 20
936.2841744681499
 30
0.0
 11
14016.91839030643
 21
893.4084665668834
 31
0.0
  0
LINE
  5
19C75
330
199F6
100
AcDbEntity
  8
YODOROGO
100
AcDbLine
 10
14039.03460996688
 20
936.2841744681499
 30
0.0
 11
14016.91839030643
 21
936.2841744681499
 31
0.0
  0
LINE
  5
19C76
330
199F6
100
AcDbEntity
  8
YODOROGO
100
AcDbLine
 10
14039.03460996688
 20
946.2841744681487
 30
0.0
 11
14039.03460996688
 21
936.2841744681499
 31
0.0
  0
LINE
  5
19C77
330
199F6
100
AcDbEntity
  8
YODOROGO
100
AcDbLine
 10
13988.80217064596
 20
946.2841744681487
 30
0.0
 11
14039.03460996688
 21
946.2841744681487
 31
0.0
  0
LINE
  5
19C78
330
199F6
100
AcDbEntity
  8
YODOROGO
100
AcDbLine
 10
13988.80217064596
 20
936.2841744681499
 30
0.0
 11
13988.80217064596
 21
946.2841744681487
 31
0.0
  0
LINE
  5
19C79
330
199F6
100
AcDbEntity
  8
YODOROGO
100
AcDbLine
 10
14010.91839030643
 20
936.2841744681499
 30
0.0
 11
13988.80217064596
 21
936.2841744681499
 31
0.0
  0
LINE
  5
19C7A
330
199F6
100
AcDbEntity
  8
YODOROGO
100
AcDbLine
 10
14010.91839030643
 20
892.3366697971587
 30
0.0
 11
14010.91839030643
 21
936.2841744681499
 31
0.0
  0
LINE
  5
19C7B
330
199F6
100
AcDbEntity
  8
YODOROGO
100
AcDbLine
 10
13988.80217064596
 20
885.8747482146432
 30
0.0
 11
14010.91839030643
 21
892.3366697971587
 31
0.0
  0
LINE
  5
19C7C
330
199F6
100
AcDbEntity
  8
YODOROGO
100
AcDbLine
 10
13988.80217064596
 20
873.8747482146434
 30
0.0
 11
13988.80217064596
 21
885.8747482146432
 31
0.0
  0
LINE
  5
19C7D
330
199F6
100
AcDbEntity
  8
YODOROGO
100
AcDbLine
 10
14000.80217064596
 20
853.874748214644
 30
0.0
 11
14000.80217064596
 21
841.8747482146434
 31
0.0
  0
LINE
  5
19C7E
330
199F6
100
AcDbEntity
  8
YODOROGO
100
AcDbLine
 10
14000.80217064596
 20
853.874748214644
 30
0.0
 11
14000.80217064596
 21
853.874748214644
 31
0.0
  0
LINE
  5
19C7F
330
199F6
100
AcDbEntity
  8
YODOROGO
100
AcDbLine
 10
14008.80217064596
 20
853.874748214644
 30
0.0
 11
14000.80217064596
 21
853.874748214644
 31
0.0
  0
LINE
  5
19C80
330
199F6
100
AcDbEntity
  8
YODOROGO
100
AcDbLine
 10
14008.80217064596
 20
841.8747482146434
 30
0.0
 11
14008.80217064596
 21
853.874748214644
 31
0.0
  0
LINE
  5
19C81
330
199F6
100
AcDbEntity
  8
YODOROGO
100
AcDbLine
 10
14020.45660200844
 20
841.8747482146434
 30
0.0
 11
14008.80217064596
 21
841.8747482146434
 31
0.0
  0
LINE
  5
19C82
330
199F6
100
AcDbEntity
  8
YODOROGO
100
AcDbLine
 10
14000.80217064596
 20
841.8747482146434
 30
0.0
 11
13988.80217064596
 21
841.8747482146434
 31
0.0
  0
LINE
  5
19C83
330
199F6
100
AcDbEntity
  8
YODOROGO
100
AcDbLine
 10
14041.06776011546
 20
853.874748214644
 30
0.0
 11
14049.06776011545
 21
853.874748214644
 31
0.0
1001
AUTOCAD_POSTSCRIPT_FIGURE
1002
{
1000
PSFILL
1000
Grayscale
1000
Grayscale
1070
   100
1002
}
  0
LINE
  5
19C84
330
199F6
100
AcDbEntity
  8
YODOROGO
100
AcDbLine
 10
14200.80217064594
 20
912.4388128201532
 30
0.0
 11
14200.80217064594
 21
876.4388128201531
 31
0.0
1001
AUTOCAD_POSTSCRIPT_FIGURE
1002
{
1000
PSFILL
1000
Grayscale
1000
Grayscale
1070
   100
1002
}
  0
LINE
  5
19C85
330
199F6
100
AcDbEntity
  8
YODOROGO
100
AcDbLine
 10
14200.80217064594
 20
958.4388128201537
 30
0.0
 11
14200.80217064594
 21
992.4388128201531
 31
0.0
1001
AUTOCAD_POSTSCRIPT_FIGURE
1002
{
1000
PSFILL
1000
Grayscale
1000
Grayscale
1070
   100
1002
}
  0
LINE
  5
19C86
330
199F6
100
AcDbEntity
  8
YODOROGO
100
AcDbLine
 10
14216.80217064594
 20
909.8747482146439
 30
0.0
 11
14216.80217064594
 21
873.8747482146449
 31
0.0
  0
LINE
  5
19C87
330
199F6
100
AcDbEntity
  8
YODOROGO
100
AcDbLine
 10
14248.80217064593
 20
853.874748214644
 30
0.0
 11
14216.80217064594
 21
853.874748214644
 31
0.0
  0
LINE
  5
19C88
330
199F6
100
AcDbEntity
  8
YODOROGO
100
AcDbLine
 10
14216.80217064594
 20
873.8747482146449
 30
0.0
 11
14292.80217064596
 21
873.8747482146449
 31
0.0
  0
LINE
  5
19C89
330
199F6
100
AcDbEntity
  8
YODOROGO
100
AcDbLine
 10
14248.80217064593
 20
933.8747482146439
 30
0.0
 11
14216.80217064594
 21
933.8747482146439
 31
0.0
  0
LINE
  5
19C8A
330
199F6
100
AcDbEntity
  8
YODOROGO
100
AcDbLine
 10
14248.80217064593
 20
961.8747482146432
 30
0.0
 11
14248.80217064593
 21
933.8747482146439
 31
0.0
  0
LINE
  5
19C8B
330
199F6
100
AcDbEntity
  8
YODOROGO
100
AcDbLine
 10
14292.80217064596
 20
993.8747482146439
 30
0.0
 11
14292.80217064596
 21
1013.874748214644
 31
0.0
  0
LINE
  5
19C8C
330
199F6
100
AcDbEntity
  8
YODOROGO
100
AcDbLine
 10
14216.80217064594
 20
993.8747482146439
 30
0.0
 11
14292.80217064596
 21
993.8747482146439
 31
0.0
  0
LINE
  5
19C8D
330
199F6
100
AcDbEntity
  8
YODOROGO
100
AcDbLine
 10
14216.80217064594
 20
933.8747482146439
 30
0.0
 11
14216.80217064594
 21
993.8747482146439
 31
0.0
  0
LINE
  5
19C8E
330
199F6
100
AcDbEntity
  8
YODOROGO
100
AcDbLine
 10
14500.80217064594
 20
1013.874748214644
 30
0.0
 11
14500.80217064594
 21
809.8747482146441
 31
0.0
  0
LINE
  5
19C8F
330
199F6
100
AcDbEntity
  8
YODOROGO
100
AcDbLine
 10
14536.80217064596
 20
789.8747482146441
 30
0.0
 11
14536.80217064596
 21
1013.874748214644
 31
0.0
  0
LINE
  5
19C90
330
199F6
100
AcDbEntity
  8
YODOROGO
100
AcDbLine
 10
14630.80217064596
 20
745.8747482146431
 30
0.0
 11
14630.80217064596
 21
1003.874748214644
 31
0.0
  0
LINE
  5
19C91
330
199F6
100
AcDbEntity
  8
YODOROGO
100
AcDbLine
 10
14598.80217064596
 20
1003.874748214644
 30
0.0
 11
14598.80217064596
 21
745.8747482146431
 31
0.0
  0
LINE
  5
19C92
330
199F6
100
AcDbEntity
  8
YODOROGO
100
AcDbLine
 10
14692.80217064596
 20
1013.874748214644
 30
0.0
 11
14692.80217064596
 21
713.8747482146435
 31
0.0
  0
LINE
  5
19C93
330
199F6
100
AcDbEntity
  8
YODOROGO
100
AcDbLine
 10
14728.80217064596
 20
713.8747482146435
 30
0.0
 11
14728.80217064596
 21
1013.874748214644
 31
0.0
  0
LINE
  5
19C94
330
199F6
100
AcDbEntity
  8
YODOROGO
100
AcDbLine
 10
14328.80217064593
 20
833.8747482146439
 30
0.0
 11
14328.80217064593
 21
873.8747482146449
 31
0.0
  0
LINE
  5
19C95
330
199F6
100
AcDbEntity
  8
YODOROGO
100
AcDbLine
 10
14942.80217064596
 20
853.874748214644
 30
0.0
 11
14942.80217064596
 21
833.8747482146439
 31
0.0
  0
LINE
  5
19C96
330
199F6
100
AcDbEntity
  8
YODOROGO
100
AcDbLine
 10
14942.80217064596
 20
853.874748214644
 30
0.0
 11
14942.80217064596
 21
833.8747482146439
 31
0.0
  0
ARC
  5
19C97
330
199F6
100
AcDbEntity
  8
YODOROGO
100
AcDbCircle
 10
14453.45578809341
 20
809.1089322211363
 30
0.0
 40
47.35257558937082
100
AcDbArc
 50
274.052441629071
 51
0.9266642149310712
  0
ARC
  5
19C98
330
199F6
100
AcDbEntity
  8
YODOROGO
100
AcDbCircle
 10
14454.5930853599
 20
796.30536430522
 30
0.0
 40
82.46021178042756
100
AcDbArc
 50
271.5351210653776
 51
355.5272775058505
  0
LINE
  5
19C99
330
199F6
100
AcDbEntity
  8
YODOROGO
100
AcDbLine
 10
14456.80217064596
 20
761.8747482146434
 30
0.0
 11
14456.80217064596
 21
713.8747482146435
 31
0.0
  0
LINE
  5
19C9A
330
199F6
100
AcDbEntity
  8
YODOROGO
100
AcDbLine
 10
14396.80217064594
 20
833.8747482146439
 30
0.0
 11
14328.80217064593
 21
833.8747482146439
 31
0.0
  0
LINE
  5
19C9B
330
199F6
100
AcDbEntity
  8
YODOROGO
100
AcDbLine
 10
14396.80217064594
 20
801.8747482146443
 30
0.0
 11
14396.80217064594
 21
833.8747482146439
 31
0.0
  0
LINE
  5
19C9C
330
199F6
100
AcDbEntity
  8
YODOROGO
100
AcDbLine
 10
14328.80217064593
 20
801.8747482146443
 30
0.0
 11
14396.80217064594
 21
801.8747482146443
 31
0.0
  0
LINE
  5
19C9D
330
199F6
100
AcDbEntity
  8
YODOROGO
100
AcDbLine
 10
14328.80217064593
 20
761.8747482146434
 30
0.0
 11
14328.80217064593
 21
801.8747482146443
 31
0.0
  0
LINE
  5
19C9E
330
199F6
100
AcDbEntity
  8
YODOROGO
100
AcDbLine
 10
14396.80217064594
 20
761.8747482146434
 30
0.0
 11
14328.80217064593
 21
761.8747482146434
 31
0.0
  0
LINE
  5
19C9F
330
199F6
100
AcDbEntity
  8
YODOROGO
100
AcDbLine
 10
14396.80217064594
 20
713.8747482146435
 30
0.0
 11
14396.80217064594
 21
761.8747482146434
 31
0.0
  0
LINE
  5
19CA0
330
199F6
100
AcDbEntity
  8
YODOROGO
100
AcDbLine
 10
14598.80217064596
 20
745.8747482146431
 30
0.0
 11
14630.80217064596
 21
745.8747482146431
 31
0.0
  0
LINE
  5
19CA1
330
199F6
100
AcDbEntity
  8
YODOROGO
100
AcDbLine
 10
14692.80217064596
 20
713.8747482146435
 30
0.0
 11
14728.80217064596
 21
713.8747482146435
 31
0.0
  0
LINE
  5
19CA2
330
199F6
100
AcDbEntity
  8
YODOROGO
100
AcDbLine
 10
14868.80217064596
 20
764.2207260852816
 30
0.0
 11
14868.80217064596
 21
713.8747482146435
 31
0.0
  0
LINE
  5
19CA3
330
199F6
100
AcDbEntity
  8
YODOROGO
100
AcDbLine
 10
14808.80217064596
 20
713.8747482146435
 30
0.0
 11
14868.80217064596
 21
764.2207260852816
 31
0.0
  0
LINE
  5
19CA4
330
199F6
100
AcDbEntity
  8
YODOROGO
100
AcDbLine
 10
14808.80217064596
 20
773.874748214644
 30
0.0
 11
14808.80217064596
 21
713.8747482146435
 31
0.0
  0
LINE
  5
19CA5
330
199F6
100
AcDbEntity
  8
YODOROGO
100
AcDbLine
 10
14856.47231434973
 20
813.8747482146435
 30
0.0
 11
14808.80217064596
 21
773.874748214644
 31
0.0
  0
LINE
  5
19CA6
330
199F6
100
AcDbEntity
  8
YODOROGO
100
AcDbLine
 10
14808.80217064596
 20
813.8747482146435
 30
0.0
 11
14856.47231434973
 21
813.8747482146435
 31
0.0
  0
LINE
  5
19CA7
330
199F6
100
AcDbEntity
  8
YODOROGO
100
AcDbLine
 10
14808.80217064596
 20
833.8747482146439
 30
0.0
 11
14808.80217064596
 21
813.8747482146435
 31
0.0
  0
LINE
  5
19CA8
330
199F6
100
AcDbEntity
  8
YODOROGO
100
AcDbLine
 10
14942.80217064596
 20
833.8747482146439
 30
0.0
 11
14808.80217064596
 21
833.8747482146439
 31
0.0
  0
LINE
  5
19CA9
330
199F6
100
AcDbEntity
  8
YODOROGO
100
AcDbLine
 10
14958.80217064596
 20
813.8747482146435
 30
0.0
 11
14888.80217064596
 21
813.8747482146435
 31
0.0
  0
LINE
  5
19CAA
330
199F6
100
AcDbEntity
  8
YODOROGO
100
AcDbLine
 10
14888.80217064596
 20
781.0027187088283
 30
0.0
 11
14885.70493649264
 21
778.403830673117
 31
0.0
  0
LINE
  5
19CAB
330
199F6
100
AcDbEntity
  8
YODOROGO
100
AcDbLine
 10
14888.80217064596
 20
813.8747482146435
 30
0.0
 11
14888.80217064596
 21
781.0027187088283
 31
0.0
  0
LINE
  5
19CAC
330
199F6
100
AcDbEntity
  8
YODOROGO
100
AcDbLine
 10
14868.80217064596
 20
764.2207260852816
 30
0.0
 11
14868.80217064596
 21
713.8747482146435
 31
0.0
  0
LINE
  5
19CAD
330
199F6
100
AcDbEntity
  8
YODOROGO
100
AcDbLine
 10
14808.80217064596
 20
713.8747482146435
 30
0.0
 11
14868.80217064596
 21
764.2207260852816
 31
0.0
  0
LINE
  5
19CAE
330
199F6
100
AcDbEntity
  8
YODOROGO
100
AcDbLine
 10
14808.80217064596
 20
773.874748214644
 30
0.0
 11
14808.80217064596
 21
713.8747482146435
 31
0.0
  0
LINE
  5
19CAF
330
199F6
100
AcDbEntity
  8
YODOROGO
100
AcDbLine
 10
14856.47231434973
 20
813.8747482146435
 30
0.0
 11
14808.80217064596
 21
773.874748214644
 31
0.0
  0
LINE
  5
19CB0
330
199F6
100
AcDbEntity
  8
YODOROGO
100
AcDbLine
 10
14808.80217064596
 20
813.8747482146435
 30
0.0
 11
14856.47231434973
 21
813.8747482146435
 31
0.0
  0
LINE
  5
19CB1
330
199F6
100
AcDbEntity
  8
YODOROGO
100
AcDbLine
 10
14808.80217064596
 20
833.8747482146439
 30
0.0
 11
14808.80217064596
 21
813.8747482146435
 31
0.0
  0
LINE
  5
19CB2
330
199F6
100
AcDbEntity
  8
YODOROGO
100
AcDbLine
 10
14942.80217064596
 20
833.8747482146439
 30
0.0
 11
14808.80217064596
 21
833.8747482146439
 31
0.0
  0
LINE
  5
19CB3
330
199F6
100
AcDbEntity
  8
YODOROGO
100
AcDbLine
 10
14396.80217064594
 20
873.8747482146449
 30
0.0
 11
14396.80217064594
 21
909.8747482146439
 31
0.0
  0
LINE
  5
19CB4
330
199F6
100
AcDbEntity
  8
YODOROGO
100
AcDbLine
 10
14328.80217064593
 20
873.8747482146449
 30
0.0
 11
14396.80217064594
 21
873.8747482146449
 31
0.0
  0
LINE
  5
19CB5
330
199F6
100
AcDbEntity
  8
YODOROGO
100
AcDbLine
 10
14364.80217064596
 20
933.8747482146439
 30
0.0
 11
14364.80217064596
 21
961.8747482146432
 31
0.0
  0
LINE
  5
19CB6
330
199F6
100
AcDbEntity
  8
YODOROGO
100
AcDbLine
 10
14396.80217064594
 20
933.8747482146439
 30
0.0
 11
14364.80217064596
 21
933.8747482146439
 31
0.0
  0
LINE
  5
19CB7
330
199F6
100
AcDbEntity
  8
YODOROGO
100
AcDbLine
 10
14396.80217064594
 20
973.8747482146434
 30
0.0
 11
14396.80217064594
 21
933.8747482146439
 31
0.0
  0
ARC
  5
19CB8
330
199F6
100
AcDbEntity
  8
YODOROGO
100
AcDbCircle
 10
14376.80217064594
 20
973.8747482146434
 30
0.0
 40
20.0
100
AcDbArc
 50
0.0
 51
90.0
  0
LINE
  5
19CB9
330
199F6
100
AcDbEntity
  8
YODOROGO
100
AcDbLine
 10
14328.80217064596
 20
993.8747482146439
 30
0.0
 11
14376.80217064594
 21
993.8747482146439
 31
0.0
  0
LINE
  5
19CBA
330
199F6
100
AcDbEntity
  8
YODOROGO
100
AcDbLine
 10
14328.80217064596
 20
1013.874748214644
 30
0.0
 11
14328.80217064596
 21
993.8747482146439
 31
0.0
  0
LINE
  5
19CBB
330
199F6
100
AcDbEntity
  8
YODOROGO
100
AcDbLine
 10
14536.80217064596
 20
1013.874748214644
 30
0.0
 11
14500.80217064594
 21
1013.874748214644
 31
0.0
  0
LINE
  5
19CBC
330
199F6
100
AcDbEntity
  8
YODOROGO
100
AcDbLine
 10
14630.80217064596
 20
1003.874748214644
 30
0.0
 11
14598.80217064596
 21
1003.874748214644
 31
0.0
  0
LINE
  5
19CBD
330
199F6
100
AcDbEntity
  8
YODOROGO
100
AcDbLine
 10
14728.80217064596
 20
1013.874748214644
 30
0.0
 11
14692.80217064596
 21
1013.874748214644
 31
0.0
  0
LINE
  5
19CBE
330
199F6
100
AcDbEntity
  8
YODOROGO
100
AcDbLine
 10
14836.80217064596
 20
853.874748214644
 30
0.0
 11
14836.80217064596
 21
885.8747482146441
 31
0.0
1001
AUTOCAD_POSTSCRIPT_FIGURE
1002
{
1000
PSFILL
1000
Grayscale
1000
Grayscale
1070
    25
1002
}
  0
LINE
  5
19CBF
330
199F6
100
AcDbEntity
  8
YODOROGO
100
AcDbLine
 10
14808.80217064596
 20
853.874748214644
 30
0.0
 11
14836.80217064596
 21
853.874748214644
 31
0.0
1001
AUTOCAD_POSTSCRIPT_FIGURE
1002
{
1000
PSFILL
1000
Grayscale
1000
Grayscale
1070
    25
1002
}
  0
LINE
  5
19CC0
330
199F6
100
AcDbEntity
  8
YODOROGO
100
AcDbLine
 10
14808.80217064596
 20
909.8747482146439
 30
0.0
 11
14808.80217064596
 21
853.874748214644
 31
0.0
1001
AUTOCAD_POSTSCRIPT_FIGURE
1002
{
1000
PSFILL
1000
Grayscale
1000
Grayscale
1070
    25
1002
}
  0
LINE
  5
19CC1
330
199F6
100
AcDbEntity
  8
YODOROGO
100
AcDbLine
 10
14882.80217064596
 20
909.8747482146439
 30
0.0
 11
14808.80217064596
 21
909.8747482146439
 31
0.0
1001
AUTOCAD_POSTSCRIPT_FIGURE
1002
{
1000
PSFILL
1000
Grayscale
1000
Grayscale
1070
    25
1002
}
  0
LINE
  5
19CC2
330
199F6
100
AcDbEntity
  8
YODOROGO
100
AcDbLine
 10
14882.80217064596
 20
929.874748214644
 30
0.0
 11
14882.80217064596
 21
909.8747482146439
 31
0.0
1001
AUTOCAD_POSTSCRIPT_FIGURE
1002
{
1000
PSFILL
1000
Grayscale
1000
Grayscale
1070
    25
1002
}
  0
LINE
  5
19CC3
330
199F6
100
AcDbEntity
  8
YODOROGO
100
AcDbLine
 10
14808.80217064596
 20
929.874748214644
 30
0.0
 11
14882.80217064596
 21
929.874748214644
 31
0.0
1001
AUTOCAD_POSTSCRIPT_FIGURE
1002
{
1000
PSFILL
1000
Grayscale
1000
Grayscale
1070
    25
1002
}
  0
LINE
  5
19CC4
330
199F6
100
AcDbEntity
  8
YODOROGO
100
AcDbLine
 10
14808.80217064596
 20
953.874748214644
 30
0.0
 11
14808.80217064596
 21
929.874748214644
 31
0.0
1001
AUTOCAD_POSTSCRIPT_FIGURE
1002
{
1000
PSFILL
1000
Grayscale
1000
Grayscale
1070
    25
1002
}
  0
LINE
  5
19CC5
330
199F6
100
AcDbEntity
  8
YODOROGO
100
AcDbLine
 10
14882.80217064596
 20
953.874748214644
 30
0.0
 11
14808.80217064596
 21
953.874748214644
 31
0.0
1001
AUTOCAD_POSTSCRIPT_FIGURE
1002
{
1000
PSFILL
1000
Grayscale
1000
Grayscale
1070
    25
1002
}
  0
LINE
  5
19CC6
330
199F6
100
AcDbEntity
  8
YODOROGO
100
AcDbLine
 10
14882.80217064596
 20
973.8747482146434
 30
0.0
 11
14882.80217064596
 21
953.874748214644
 31
0.0
1001
AUTOCAD_POSTSCRIPT_FIGURE
1002
{
1000
PSFILL
1000
Grayscale
1000
Grayscale
1070
    25
1002
}
  0
LINE
  5
19CC7
330
199F6
100
AcDbEntity
  8
YODOROGO
100
AcDbLine
 10
14808.80217064596
 20
973.8747482146434
 30
0.0
 11
14882.80217064596
 21
973.8747482146434
 31
0.0
1001
AUTOCAD_POSTSCRIPT_FIGURE
1002
{
1000
PSFILL
1000
Grayscale
1000
Grayscale
1070
    25
1002
}
  0
LINE
  5
19CC8
330
199F6
100
AcDbEntity
  8
YODOROGO
100
AcDbLine
 10
14808.80217064596
 20
1013.874748214644
 30
0.0
 11
14808.80217064596
 21
973.8747482146434
 31
0.0
1001
AUTOCAD_POSTSCRIPT_FIGURE
1002
{
1000
PSFILL
1000
Grayscale
1000
Grayscale
1070
    25
1002
}
  0
LINE
  5
19CC9
330
199F6
100
AcDbEntity
  8
YODOROGO
100
AcDbLine
 10
14832.80217064596
 20
1013.874748214644
 30
0.0
 11
14808.80217064596
 21
1013.874748214644
 31
0.0
1001
AUTOCAD_POSTSCRIPT_FIGURE
1002
{
1000
PSFILL
1000
Grayscale
1000
Grayscale
1070
    25
1002
}
  0
LINE
  5
19CCA
330
199F6
100
AcDbEntity
  8
YODOROGO
100
AcDbLine
 10
14832.80217064596
 20
997.8747482146435
 30
0.0
 11
14832.80217064596
 21
1013.874748214644
 31
0.0
1001
AUTOCAD_POSTSCRIPT_FIGURE
1002
{
1000
PSFILL
1000
Grayscale
1000
Grayscale
1070
    25
1002
}
  0
LINE
  5
19CCB
330
199F6
100
AcDbEntity
  8
YODOROGO
100
AcDbLine
 10
14882.80217064596
 20
997.8747482146435
 30
0.0
 11
14832.80217064596
 21
997.8747482146435
 31
0.0
1001
AUTOCAD_POSTSCRIPT_FIGURE
1002
{
1000
PSFILL
1000
Grayscale
1000
Grayscale
1070
    25
1002
}
  0
LINE
  5
19CCC
330
199F6
100
AcDbEntity
  8
YODOROGO
100
AcDbLine
 10
14882.80217064596
 20
1013.874748214644
 30
0.0
 11
14882.80217064596
 21
997.8747482146435
 31
0.0
1001
AUTOCAD_POSTSCRIPT_FIGURE
1002
{
1000
PSFILL
1000
Grayscale
1000
Grayscale
1070
    25
1002
}
  0
LINE
  5
19CCD
330
199F6
100
AcDbEntity
  8
YODOROGO
100
AcDbLine
 10
14914.80217064596
 20
1013.874748214644
 30
0.0
 11
14882.80217064596
 21
1013.874748214644
 31
0.0
1001
AUTOCAD_POSTSCRIPT_FIGURE
1002
{
1000
PSFILL
1000
Grayscale
1000
Grayscale
1070
    25
1002
}
  0
LINE
  5
19CCE
330
199F6
100
AcDbEntity
  8
YODOROGO
100
AcDbLine
 10
14914.80217064596
 20
997.8747482146435
 30
0.0
 11
14914.80217064596
 21
1013.874748214644
 31
0.0
1001
AUTOCAD_POSTSCRIPT_FIGURE
1002
{
1000
PSFILL
1000
Grayscale
1000
Grayscale
1070
    25
1002
}
  0
LINE
  5
19CCF
330
199F6
100
AcDbEntity
  8
YODOROGO
100
AcDbLine
 10
14914.80217064596
 20
953.874748214644
 30
0.0
 11
14914.80217064596
 21
973.8747482146434
 31
0.0
1001
AUTOCAD_POSTSCRIPT_FIGURE
1002
{
1000
PSFILL
1000
Grayscale
1000
Grayscale
1070
    25
1002
}
  0
LINE
  5
19CD0
330
199F6
100
AcDbEntity
  8
YODOROGO
100
AcDbLine
 10
14914.80217064596
 20
909.8747482146439
 30
0.0
 11
14914.80217064596
 21
929.874748214644
 31
0.0
1001
AUTOCAD_POSTSCRIPT_FIGURE
1002
{
1000
PSFILL
1000
Grayscale
1000
Grayscale
1070
    25
1002
}
  0
LINE
  5
19CD1
330
199F6
100
AcDbEntity
  8
YODOROGO
100
AcDbLine
 10
14960.80217064594
 20
885.8747482146441
 30
0.0
 11
14960.80217064594
 21
853.874748214644
 31
0.0
1001
AUTOCAD_POSTSCRIPT_FIGURE
1002
{
1000
PSFILL
1000
Grayscale
1000
Grayscale
1070
    25
1002
}
  0
LINE
  5
19CD2
330
199F6
100
AcDbEntity
  8
YODOROGO
100
AcDbLine
 10
14914.80217064596
 20
885.8747482146441
 30
0.0
 11
14960.80217064594
 21
885.8747482146441
 31
0.0
1001
AUTOCAD_POSTSCRIPT_FIGURE
1002
{
1000
PSFILL
1000
Grayscale
1000
Grayscale
1070
    25
1002
}
  0
LINE
  5
19CD3
330
199F6
100
AcDbEntity
  8
YODOROGO
100
AcDbLine
 10
14914.80217064596
 20
853.874748214644
 30
0.0
 11
14914.80217064596
 21
885.8747482146441
 31
0.0
1001
AUTOCAD_POSTSCRIPT_FIGURE
1002
{
1000
PSFILL
1000
Grayscale
1000
Grayscale
1070
    25
1002
}
  0
LINE
  5
19CD4
330
199F6
100
AcDbEntity
  8
YODOROGO
100
AcDbLine
 10
14882.80217064596
 20
853.874748214644
 30
0.0
 11
14914.80217064596
 21
853.874748214644
 31
0.0
1001
AUTOCAD_POSTSCRIPT_FIGURE
1002
{
1000
PSFILL
1000
Grayscale
1000
Grayscale
1070
    25
1002
}
  0
LINE
  5
19CD5
330
199F6
100
AcDbEntity
  8
YODOROGO
100
AcDbLine
 10
14882.80217064596
 20
885.8747482146441
 30
0.0
 11
14882.80217064596
 21
853.874748214644
 31
0.0
1001
AUTOCAD_POSTSCRIPT_FIGURE
1002
{
1000
PSFILL
1000
Grayscale
1000
Grayscale
1070
    25
1002
}
  0
LINE
  5
19CD6
330
199F6
100
AcDbEntity
  8
YODOROGO
100
AcDbLine
 10
14836.80217064596
 20
885.8747482146441
 30
0.0
 11
14882.80217064596
 21
885.8747482146441
 31
0.0
1001
AUTOCAD_POSTSCRIPT_FIGURE
1002
{
1000
PSFILL
1000
Grayscale
1000
Grayscale
1070
    25
1002
}
  0
ARC
  5
19CD7
330
199F6
100
AcDbEntity
  8
YODOROGO
100
AcDbCircle
 10
15529.75894667896
 20
801.3403687577881
 30
0.0
 40
89.11064055536078
100
AcDbArc
 50
281.0262749542534
 51
357.771135755738
  0
LINE
  5
19CD8
330
199F6
100
AcDbEntity
  8
YODOROGO
100
AcDbLine
 10
15706.80217064596
 20
953.874748214644
 30
0.0
 11
15582.80217064596
 21
953.874748214644
 31
0.0
  0
LINE
  5
19CD9
330
199F6
100
AcDbEntity
  8
YODOROGO
100
AcDbLine
 10
15706.80217064596
 20
1013.874748214644
 30
0.0
 11
15582.80217064596
 21
1013.874748214644
 31
0.0
  0
LINE
  5
19CDA
330
199F6
100
AcDbEntity
  8
YODOROGO
100
AcDbLine
 10
15582.80217064596
 20
981.8747482146434
 30
0.0
 11
15706.80217064596
 21
981.8747482146434
 31
0.0
  0
LINE
  5
19CDB
330
199F6
100
AcDbEntity
  8
YODOROGO
100
AcDbLine
 10
15395.80217064596
 20
781.8747482146434
 30
0.0
 11
15395.80217064596
 21
877.8747482146435
 31
0.0
  0
LINE
  5
19CDC
330
199F6
100
AcDbEntity
  8
YODOROGO
100
AcDbLine
 10
15381.80217064596
 20
845.8747482146444
 30
0.0
 11
15381.80217064596
 21
781.8747482146434
 31
0.0
  0
LINE
  5
19CDD
330
199F6
100
AcDbEntity
  8
YODOROGO
100
AcDbLine
 10
15361.80217064596
 20
745.8747482146443
 30
0.0
 11
15361.80217064596
 21
845.8747482146444
 31
0.0
  0
LINE
  5
19CDE
330
199F6
100
AcDbEntity
  8
YODOROGO
100
AcDbLine
 10
15449.80217064596
 20
845.8747482146444
 30
0.0
 11
15449.80217064596
 21
745.8747482146443
 31
0.0
  0
LINE
  5
19CDF
330
199F6
100
AcDbEntity
  8
YODOROGO
100
AcDbLine
 10
15429.80217064596
 20
781.8747482146434
 30
0.0
 11
15429.80217064596
 21
845.8747482146444
 31
0.0
  0
LINE
  5
19CE0
330
199F6
100
AcDbEntity
  8
YODOROGO
100
AcDbLine
 10
15415.80217064596
 20
877.8747482146435
 30
0.0
 11
15415.80217064596
 21
781.8747482146434
 31
0.0
  0
LINE
  5
19CE1
330
199F6
100
AcDbEntity
  8
YODOROGO
100
AcDbLine
 10
15486.80217064596
 20
1013.874748214644
 30
0.0
 11
15486.80217064596
 21
733.8747482146435
 31
0.0
  0
LINE
  5
19CE2
330
199F6
100
AcDbEntity
  8
YODOROGO
100
AcDbLine
 10
15322.80217064596
 20
713.8747482146435
 30
0.0
 11
15322.80217064596
 21
1013.874748214644
 31
0.0
  0
LINE
  5
19CE3
330
199F6
100
AcDbEntity
  8
YODOROGO
100
AcDbLine
 10
15348.80217064596
 20
981.8747482146434
 30
0.0
 11
15348.80217064596
 21
713.8747482146435
 31
0.0
  0
LINE
  5
19CE4
330
199F6
100
AcDbEntity
  8
YODOROGO
100
AcDbLine
 10
15462.80217064596
 20
773.874748214644
 30
0.0
 11
15462.80217064596
 21
981.8747482146434
 31
0.0
  0
LINE
  5
19CE5
330
199F6
100
AcDbEntity
  8
YODOROGO
100
AcDbLine
 10
15190.80217064596
 20
813.8747482146435
 30
0.0
 11
15190.80217064596
 21
839.8747482146443
 31
0.0
  0
LINE
  5
19CE6
330
199F6
100
AcDbEntity
  8
YODOROGO
100
AcDbLine
 10
15308.80217064596
 20
839.8747482146443
 30
0.0
 11
15308.80217064596
 21
813.8747482146435
 31
0.0
  0
LINE
  5
19CE7
330
199F6
100
AcDbEntity
  8
YODOROGO
100
AcDbLine
 10
15582.80217064596
 20
953.874748214644
 30
0.0
 11
15582.80217064596
 21
817.8747482146436
 31
0.0
  0
LINE
  5
19CE8
330
199F6
100
AcDbEntity
  8
YODOROGO
100
AcDbLine
 10
14974.80217064595
 20
833.8747482146439
 30
0.0
 11
14974.80217064595
 21
853.874748214644
 31
0.0
  0
LINE
  5
19CE9
330
199F6
100
AcDbEntity
  8
YODOROGO
100
AcDbLine
 10
14974.80217064595
 20
833.8747482146439
 30
0.0
 11
14974.80217064595
 21
853.874748214644
 31
0.0
  0
ARC
  5
19CEA
330
199F6
100
AcDbEntity
  8
YODOROGO
100
AcDbCircle
 10
15268.80217064596
 20
753.8747482146439
 30
0.0
 40
40.0
100
AcDbArc
 50
270.0
 51
0.0
  0
LINE
  5
19CEB
330
199F6
100
AcDbEntity
  8
YODOROGO
100
AcDbLine
 10
15284.80217064596
 20
799.8747482146441
 30
0.0
 11
15308.80217064596
 21
799.8747482146441
 31
0.0
  0
LINE
  5
19CEC
330
199F6
100
AcDbEntity
  8
YODOROGO
100
AcDbLine
 10
15308.80217064596
 20
813.8747482146435
 30
0.0
 11
15264.80217064596
 21
813.8747482146435
 31
0.0
  0
LINE
  5
19CED
330
199F6
100
AcDbEntity
  8
YODOROGO
100
AcDbLine
 10
15108.80217064596
 20
833.8747482146439
 30
0.0
 11
14974.80217064595
 21
833.8747482146439
 31
0.0
  0
LINE
  5
19CEE
330
199F6
100
AcDbEntity
  8
YODOROGO
100
AcDbLine
 10
15108.80217064596
 20
813.8747482146435
 30
0.0
 11
15108.80217064596
 21
833.8747482146439
 31
0.0
  0
LINE
  5
19CEF
330
199F6
100
AcDbEntity
  8
YODOROGO
100
AcDbLine
 10
15008.80217064596
 20
813.8747482146435
 30
0.0
 11
15108.80217064596
 21
813.8747482146435
 31
0.0
  0
ARC
  5
19CF0
330
199F6
100
AcDbEntity
  8
YODOROGO
100
AcDbCircle
 10
15115.02941435068
 20
934.4428574764513
 30
0.0
 40
160.6888181426141
100
AcDbArc
 50
228.6181454618993
 51
245.660289248906
  0
LINE
  5
19CF1
330
199F6
100
AcDbEntity
  8
YODOROGO
100
AcDbLine
 10
15052.80217064596
 20
801.8747482146443
 30
0.0
 11
15048.80217064598
 21
788.0364079349501
 31
0.0
  0
LINE
  5
19CF2
330
199F6
100
AcDbEntity
  8
YODOROGO
100
AcDbLine
 10
15094.80217064596
 20
801.8747482146443
 30
0.0
 11
15052.80217064596
 21
801.8747482146443
 31
0.0
  0
LINE
  5
19CF3
330
199F6
100
AcDbEntity
  8
YODOROGO
100
AcDbLine
 10
15088.80217064596
 20
775.9088612367134
 30
0.0
 11
15094.80217064596
 21
801.8747482146443
 31
0.0
  0
ARC
  5
19CF4
330
199F6
100
AcDbEntity
  8
YODOROGO
100
AcDbCircle
 10
15115.02941435023
 20
934.4428574765013
 30
0.0
 40
160.6888181426453
100
AcDbArc
 50
260.6062929796991
 51
267.7790355655585
  0
LINE
  5
19CF5
330
199F6
100
AcDbEntity
  8
YODOROGO
100
AcDbLine
 10
15108.80217064596
 20
713.8747482146428
 30
0.0
 11
15108.80217064596
 21
773.874748214644
 31
0.0
  0
LINE
  5
19CF6
330
199F6
100
AcDbEntity
  8
YODOROGO
100
AcDbLine
 10
14968.80217064596
 20
740.6696674577553
 30
0.0
 11
14968.80217064596
 21
797.2655452655705
 31
0.0
  0
LINE
  5
19CF7
330
199F6
100
AcDbEntity
  8
YODOROGO
100
AcDbLine
 10
15108.80217064596
 20
833.8747482146439
 30
0.0
 11
14974.80217064595
 21
833.8747482146439
 31
0.0
  0
LINE
  5
19CF8
330
199F6
100
AcDbEntity
  8
YODOROGO
100
AcDbLine
 10
15108.80217064596
 20
813.8747482146435
 30
0.0
 11
15108.80217064596
 21
833.8747482146439
 31
0.0
  0
LINE
  5
19CF9
330
199F6
100
AcDbEntity
  8
YODOROGO
100
AcDbLine
 10
15008.80217064596
 20
813.8747482146435
 30
0.0
 11
15108.80217064596
 21
813.8747482146435
 31
0.0
  0
ARC
  5
19CFA
330
199F6
100
AcDbEntity
  8
YODOROGO
100
AcDbCircle
 10
15115.02941435068
 20
934.4428574764513
 30
0.0
 40
160.6888181426141
100
AcDbArc
 50
228.6181454618993
 51
245.660289248906
  0
LINE
  5
19CFB
330
199F6
100
AcDbEntity
  8
YODOROGO
100
AcDbLine
 10
15052.80217064596
 20
801.8747482146443
 30
0.0
 11
15048.80217064598
 21
788.0364079349501
 31
0.0
  0
LINE
  5
19CFC
330
199F6
100
AcDbEntity
  8
YODOROGO
100
AcDbLine
 10
15094.80217064596
 20
801.8747482146443
 30
0.0
 11
15052.80217064596
 21
801.8747482146443
 31
0.0
  0
LINE
  5
19CFD
330
199F6
100
AcDbEntity
  8
YODOROGO
100
AcDbLine
 10
15088.80217064596
 20
775.9088612367134
 30
0.0
 11
15094.80217064596
 21
801.8747482146443
 31
0.0
  0
ARC
  5
19CFE
330
199F6
100
AcDbEntity
  8
YODOROGO
100
AcDbCircle
 10
15115.02941435023
 20
934.4428574765013
 30
0.0
 40
160.6888181426453
100
AcDbArc
 50
260.6062929796991
 51
267.7790355655585
  0
LINE
  5
19CFF
330
199F6
100
AcDbEntity
  8
YODOROGO
100
AcDbLine
 10
15108.80217064596
 20
713.8747482146428
 30
0.0
 11
15108.80217064596
 21
773.874748214644
 31
0.0
  0
LINE
  5
19D00
330
199F6
100
AcDbEntity
  8
YODOROGO
100
AcDbLine
 10
14968.80217064596
 20
740.6696674577553
 30
0.0
 11
14968.80217064596
 21
797.2655452655705
 31
0.0
  0
LINE
  5
19D01
330
199F6
100
AcDbEntity
  8
YODOROGO
100
AcDbLine
 10
15216.80217064596
 20
786.8747482146443
 30
0.0
 11
15190.80217064596
 21
786.8747482146443
 31
0.0
  0
LINE
  5
19D02
330
199F6
100
AcDbEntity
  8
YODOROGO
100
AcDbLine
 10
15216.80217064596
 20
800.8747482146432
 30
0.0
 11
15216.80217064596
 21
786.8747482146443
 31
0.0
  0
LINE
  5
19D03
330
199F6
100
AcDbEntity
  8
YODOROGO
100
AcDbLine
 10
15190.80217064596
 20
800.8747482146432
 30
0.0
 11
15216.80217064596
 21
800.8747482146432
 31
0.0
  0
LINE
  5
19D04
330
199F6
100
AcDbEntity
  8
YODOROGO
100
AcDbLine
 10
15190.80217064596
 20
786.8747482146443
 30
0.0
 11
15190.80217064596
 21
800.8747482146432
 31
0.0
  0
LINE
  5
19D05
330
199F6
100
AcDbEntity
  8
YODOROGO
100
AcDbLine
 10
15214.80217064596
 20
788.8747482146436
 30
0.0
 11
15192.80217064594
 21
788.8747482146436
 31
0.0
  0
LINE
  5
19D06
330
199F6
100
AcDbEntity
  8
YODOROGO
100
AcDbLine
 10
15214.80217064596
 20
798.874748214644
 30
0.0
 11
15214.80217064596
 21
788.8747482146436
 31
0.0
  0
LINE
  5
19D07
330
199F6
100
AcDbEntity
  8
YODOROGO
100
AcDbLine
 10
15192.80217064594
 20
798.874748214644
 30
0.0
 11
15214.80217064596
 21
798.874748214644
 31
0.0
  0
LINE
  5
19D08
330
199F6
100
AcDbEntity
  8
YODOROGO
100
AcDbLine
 10
15192.80217064594
 20
788.8747482146436
 30
0.0
 11
15192.80217064594
 21
798.874748214644
 31
0.0
  0
LINE
  5
19D09
330
199F6
100
AcDbEntity
  8
YODOROGO
100
AcDbLine
 10
15212.80217064596
 20
790.8747482146432
 30
0.0
 11
15194.80217064596
 21
790.8747482146432
 31
0.0
  0
LINE
  5
19D0A
330
199F6
100
AcDbEntity
  8
YODOROGO
100
AcDbLine
 10
15212.80217064596
 20
796.8747482146445
 30
0.0
 11
15212.80217064596
 21
790.8747482146432
 31
0.0
  0
LINE
  5
19D0B
330
199F6
100
AcDbEntity
  8
YODOROGO
100
AcDbLine
 10
15194.80217064596
 20
796.8747482146445
 30
0.0
 11
15212.80217064596
 21
796.8747482146445
 31
0.0
  0
LINE
  5
19D0C
330
199F6
100
AcDbEntity
  8
YODOROGO
100
AcDbLine
 10
15194.80217064596
 20
790.8747482146432
 30
0.0
 11
15194.80217064596
 21
796.8747482146445
 31
0.0
  0
LINE
  5
19D0D
330
199F6
100
AcDbEntity
  8
YODOROGO
100
AcDbLine
 10
15210.80217064596
 20
792.8747482146435
 30
0.0
 11
15196.80217064596
 21
792.8747482146435
 31
0.0
  0
LINE
  5
19D0E
330
199F6
100
AcDbEntity
  8
YODOROGO
100
AcDbLine
 10
15210.80217064596
 20
794.8747482146441
 30
0.0
 11
15210.80217064596
 21
792.8747482146435
 31
0.0
  0
LINE
  5
19D0F
330
199F6
100
AcDbEntity
  8
YODOROGO
100
AcDbLine
 10
15196.80217064596
 20
794.8747482146441
 30
0.0
 11
15210.80217064596
 21
794.8747482146441
 31
0.0
  0
LINE
  5
19D10
330
199F6
100
AcDbEntity
  8
YODOROGO
100
AcDbLine
 10
15196.80217064596
 20
792.8747482146435
 30
0.0
 11
15196.80217064596
 21
794.8747482146441
 31
0.0
  0
LINE
  5
19D11
330
199F6
100
AcDbEntity
  8
YODOROGO
100
AcDbLine
 10
15232.80217064596
 20
813.8747482146435
 30
0.0
 11
15190.80217064596
 21
813.8747482146435
 31
0.0
  0
LINE
  5
19D12
330
199F6
100
AcDbEntity
  8
YODOROGO
100
AcDbLine
 10
15232.80217064596
 20
773.874748214644
 30
0.0
 11
15232.80217064596
 21
813.8747482146435
 31
0.0
  0
LINE
  5
19D13
330
199F6
100
AcDbEntity
  8
YODOROGO
100
AcDbLine
 10
15190.80217064596
 20
773.874748214644
 30
0.0
 11
15232.80217064596
 21
773.874748214644
 31
0.0
  0
LINE
  5
19D14
330
199F6
100
AcDbEntity
  8
YODOROGO
100
AcDbLine
 10
15190.80217064596
 20
713.8747482146435
 30
0.0
 11
15190.80217064596
 21
773.874748214644
 31
0.0
  0
LINE
  5
19D15
330
199F6
100
AcDbEntity
  8
YODOROGO
100
AcDbLine
 10
15268.80217064596
 20
713.8747482146435
 30
0.0
 11
15190.80217064596
 21
713.8747482146435
 31
0.0
  0
LINE
  5
19D16
330
199F6
100
AcDbEntity
  8
YODOROGO
100
AcDbLine
 10
15284.80217064596
 20
785.8747482146432
 30
0.0
 11
15284.80217064596
 21
799.8747482146441
 31
0.0
  0
ARC
  5
19D17
330
199F6
100
AcDbEntity
  8
YODOROGO
100
AcDbCircle
 10
15272.80217064594
 20
785.8747482146457
 30
0.0
 40
12.00000000000186
100
AcDbArc
 50
270.0
 51
359.9999999999877
  0
LINE
  5
19D18
330
199F6
100
AcDbEntity
  8
YODOROGO
100
AcDbLine
 10
15264.80217064596
 20
773.874748214644
 30
0.0
 11
15272.80217064594
 21
773.874748214644
 31
0.0
  0
LINE
  5
19D19
330
199F6
100
AcDbEntity
  8
YODOROGO
100
AcDbLine
 10
15264.80217064596
 20
813.8747482146435
 30
0.0
 11
15264.80217064596
 21
773.874748214644
 31
0.0
  0
LINE
  5
19D1A
330
199F6
100
AcDbEntity
  8
YODOROGO
100
AcDbLine
 10
15449.80217064596
 20
773.874748214644
 30
0.0
 11
15462.80217064596
 21
773.874748214644
 31
0.0
  0
LINE
  5
19D1B
330
199F6
100
AcDbEntity
  8
YODOROGO
100
AcDbLine
 10
15466.80217064596
 20
713.8747482146435
 30
0.0
 11
15449.80217064596
 21
713.8747482146435
 31
0.0
  0
LINE
  5
19D1C
330
199F6
100
AcDbEntity
  8
YODOROGO
100
AcDbLine
 10
15381.80217064596
 20
781.8747482146434
 30
0.0
 11
15395.80217064596
 21
781.8747482146434
 31
0.0
  0
LINE
  5
19D1D
330
199F6
100
AcDbEntity
  8
YODOROGO
100
AcDbLine
 10
15449.80217064596
 20
745.8747482146443
 30
0.0
 11
15361.80217064596
 21
745.8747482146443
 31
0.0
  0
LINE
  5
19D1E
330
199F6
100
AcDbEntity
  8
YODOROGO
100
AcDbLine
 10
15415.80217064596
 20
781.8747482146434
 30
0.0
 11
15429.80217064596
 21
781.8747482146434
 31
0.0
  0
LINE
  5
19D1F
330
199F6
100
AcDbEntity
  8
YODOROGO
100
AcDbLine
 10
15449.80217064596
 20
713.8747482146435
 30
0.0
 11
15449.80217064596
 21
773.874748214644
 31
0.0
  0
LINE
  5
19D20
330
199F6
100
AcDbEntity
  8
YODOROGO
100
AcDbLine
 10
15348.80217064596
 20
713.8747482146435
 30
0.0
 11
15322.80217064596
 21
713.8747482146435
 31
0.0
  0
LINE
  5
19D21
330
199F6
100
AcDbEntity
  8
YODOROGO
100
AcDbLine
 10
15308.80217064596
 20
799.8747482146441
 30
0.0
 11
15308.80217064596
 21
753.8747482146439
 31
0.0
  0
ARC
  5
19D22
330
199F6
100
AcDbEntity
  8
YODOROGO
100
AcDbCircle
 10
15466.80217064596
 20
733.8747482146435
 30
0.0
 40
20.0
100
AcDbArc
 50
270.0
 51
0.0
  0
LINE
  5
19D23
330
199F6
100
AcDbEntity
  8
YODOROGO
100
AcDbLine
 10
15546.80217064596
 20
761.8747482146434
 30
0.0
 11
15546.80217064596
 21
713.8747482146435
 31
0.0
  0
ARC
  5
19D24
330
199F6
100
AcDbEntity
  8
YODOROGO
100
AcDbCircle
 10
15519.86069778339
 20
818.7656950548664
 30
0.0
 40
62.94777829583771
100
AcDbArc
 50
295.3405244216011
 51
359.1890230341867
  0
LINE
  5
19D25
330
199F6
100
AcDbEntity
  8
YODOROGO
100
AcDbLine
 10
15308.80217064596
 20
929.874748214644
 30
0.0
 11
15248.80217064596
 21
969.8747482146441
 31
0.0
  0
LINE
  5
19D26
330
199F6
100
AcDbEntity
  8
YODOROGO
100
AcDbLine
 10
15248.80217064596
 20
1013.874748214644
 30
0.0
 11
15308.80217064596
 21
973.8747482146434
 31
0.0
  0
LINE
  5
19D27
330
199F6
100
AcDbEntity
  8
YODOROGO
100
AcDbLine
 10
15264.80217064596
 20
839.8747482146443
 30
0.0
 11
15308.80217064596
 21
839.8747482146443
 31
0.0
  0
LINE
  5
19D28
330
199F6
100
AcDbEntity
  8
YODOROGO
100
AcDbLine
 10
15308.80217064596
 20
867.8747482146436
 30
0.0
 11
15264.80217064596
 21
867.8747482146436
 31
0.0
  0
LINE
  5
19D29
330
199F6
100
AcDbEntity
  8
YODOROGO
100
AcDbLine
 10
15190.80217064596
 20
897.8747482146435
 30
0.0
 11
15308.80217064596
 21
897.8747482146435
 31
0.0
  0
LINE
  5
19D2A
330
199F6
100
AcDbEntity
  8
YODOROGO
100
AcDbLine
 10
15040.80217064596
 20
1013.874748214644
 30
0.0
 11
15010.80217064596
 21
1013.874748214644
 31
0.0
  0
LINE
  5
19D2B
330
199F6
100
AcDbEntity
  8
YODOROGO
100
AcDbLine
 10
15040.80217064596
 20
913.8747482146435
 30
0.0
 11
15040.80217064596
 21
1013.874748214644
 31
0.0
  0
LINE
  5
19D2C
330
199F6
100
AcDbEntity
  8
YODOROGO
100
AcDbLine
 10
15010.80217064596
 20
913.8747482146435
 30
0.0
 11
15040.80217064596
 21
913.8747482146435
 31
0.0
  0
LINE
  5
19D2D
330
199F6
100
AcDbEntity
  8
YODOROGO
100
AcDbLine
 10
15010.80217064596
 20
1013.874748214644
 30
0.0
 11
15010.80217064596
 21
913.8747482146435
 31
0.0
  0
LINE
  5
19D2E
330
199F6
100
AcDbEntity
  8
YODOROGO
100
AcDbLine
 10
15080.80217064596
 20
1013.874748214644
 30
0.0
 11
15108.80217064596
 21
1013.874748214644
 31
0.0
  0
LINE
  5
19D2F
330
199F6
100
AcDbEntity
  8
YODOROGO
100
AcDbLine
 10
15080.80217064596
 20
905.8747482146443
 30
0.0
 11
15080.80217064596
 21
1013.874748214644
 31
0.0
  0
ARC
  5
19D30
330
199F6
100
AcDbEntity
  8
YODOROGO
100
AcDbCircle
 10
15060.80217064596
 20
905.8747482146443
 30
0.0
 40
20.0
100
AcDbArc
 50
270.0
 51
0.0
  0
LINE
  5
19D31
330
199F6
100
AcDbEntity
  8
YODOROGO
100
AcDbLine
 10
15010.80217064596
 20
885.8747482146441
 30
0.0
 11
15060.80217064596
 21
885.8747482146441
 31
0.0
  0
LINE
  5
19D32
330
199F6
100
AcDbEntity
  8
YODOROGO
100
AcDbLine
 10
15010.80217064596
 20
853.874748214644
 30
0.0
 11
15010.80217064596
 21
885.8747482146441
 31
0.0
  0
LINE
  5
19D33
330
199F6
100
AcDbEntity
  8
YODOROGO
100
AcDbLine
 10
15068.80217064596
 20
853.874748214644
 30
0.0
 11
15010.80217064596
 21
853.874748214644
 31
0.0
  0
ARC
  5
19D34
330
199F6
100
AcDbEntity
  8
YODOROGO
100
AcDbCircle
 10
15068.80217064596
 20
893.8747482146439
 30
0.0
 40
40.0
100
AcDbArc
 50
270.0
 51
0.0
  0
LINE
  5
19D35
330
199F6
100
AcDbEntity
  8
YODOROGO
100
AcDbLine
 10
15108.80217064596
 20
1013.874748214644
 30
0.0
 11
15108.80217064596
 21
893.8747482146439
 31
0.0
  0
LINE
  5
19D36
330
199F6
100
AcDbEntity
  8
YODOROGO
100
AcDbLine
 10
14988.80217064596
 20
973.8747482146434
 30
0.0
 11
14988.80217064596
 21
997.8747482146435
 31
0.0
1001
AUTOCAD_POSTSCRIPT_FIGURE
1002
{
1000
PSFILL
1000
Grayscale
1000
Grayscale
1070
    25
1002
}
  0
LINE
  5
19D37
330
199F6
100
AcDbEntity
  8
YODOROGO
100
AcDbLine
 10
14988.80217064596
 20
929.874748214644
 30
0.0
 11
14988.80217064596
 21
953.874748214644
 31
0.0
1001
AUTOCAD_POSTSCRIPT_FIGURE
1002
{
1000
PSFILL
1000
Grayscale
1000
Grayscale
1070
    25
1002
}
  0
LINE
  5
19D38
330
199F6
100
AcDbEntity
  8
YODOROGO
100
AcDbLine
 10
14988.80217064596
 20
853.874748214644
 30
0.0
 11
14988.80217064596
 21
909.8747482146439
 31
0.0
1001
AUTOCAD_POSTSCRIPT_FIGURE
1002
{
1000
PSFILL
1000
Grayscale
1000
Grayscale
1070
    25
1002
}
  0
LINE
  5
19D39
330
199F6
100
AcDbEntity
  8
YODOROGO
100
AcDbLine
 10
15190.80217064596
 20
953.874748214644
 30
0.0
 11
15248.80217064596
 21
1013.874748214644
 31
0.0
  0
LINE
  5
19D3A
330
199F6
100
AcDbEntity
  8
YODOROGO
100
AcDbLine
 10
15190.80217064596
 20
909.8747482146439
 30
0.0
 11
15190.80217064596
 21
953.874748214644
 31
0.0
  0
LINE
  5
19D3B
330
199F6
100
AcDbEntity
  8
YODOROGO
100
AcDbLine
 10
15248.80217064596
 20
969.8747482146441
 30
0.0
 11
15190.80217064596
 21
909.8747482146439
 31
0.0
  0
LINE
  5
19D3C
330
199F6
100
AcDbEntity
  8
YODOROGO
100
AcDbLine
 10
15232.80217064596
 20
839.8747482146443
 30
0.0
 11
15232.80217064596
 21
867.8747482146436
 31
0.0
  0
LINE
  5
19D3D
330
199F6
100
AcDbEntity
  8
YODOROGO
100
AcDbLine
 10
15190.80217064596
 20
839.8747482146443
 30
0.0
 11
15232.80217064596
 21
839.8747482146443
 31
0.0
  0
LINE
  5
19D3E
330
199F6
100
AcDbEntity
  8
YODOROGO
100
AcDbLine
 10
15264.80217064596
 20
867.8747482146436
 30
0.0
 11
15264.80217064596
 21
839.8747482146443
 31
0.0
  0
LINE
  5
19D3F
330
199F6
100
AcDbEntity
  8
YODOROGO
100
AcDbLine
 10
15190.80217064596
 20
867.8747482146436
 30
0.0
 11
15190.80217064596
 21
897.8747482146435
 31
0.0
  0
LINE
  5
19D40
330
199F6
100
AcDbEntity
  8
YODOROGO
100
AcDbLine
 10
15232.80217064596
 20
867.8747482146436
 30
0.0
 11
15190.80217064596
 21
867.8747482146436
 31
0.0
  0
LINE
  5
19D41
330
199F6
100
AcDbEntity
  8
YODOROGO
100
AcDbLine
 10
15322.80217064596
 20
1013.874748214644
 30
0.0
 11
15486.80217064596
 21
1013.874748214644
 31
0.0
  0
LINE
  5
19D42
330
199F6
100
AcDbEntity
  8
YODOROGO
100
AcDbLine
 10
15462.80217064596
 20
981.8747482146434
 30
0.0
 11
15348.80217064596
 21
981.8747482146434
 31
0.0
  0
LINE
  5
19D43
330
199F6
100
AcDbEntity
  8
YODOROGO
100
AcDbLine
 10
15436.80217064595
 20
909.8747482146439
 30
0.0
 11
15449.80217064596
 21
909.8747482146439
 31
0.0
  0
LINE
  5
19D44
330
199F6
100
AcDbEntity
  8
YODOROGO
100
AcDbLine
 10
15449.80217064596
 20
969.8747482146441
 30
0.0
 11
15436.80217064595
 21
909.8747482146439
 31
0.0
  0
LINE
  5
19D45
330
199F6
100
AcDbEntity
  8
YODOROGO
100
AcDbLine
 10
15425.80217064596
 20
969.8747482146441
 30
0.0
 11
15449.80217064596
 21
969.8747482146441
 31
0.0
  0
LINE
  5
19D46
330
199F6
100
AcDbEntity
  8
YODOROGO
100
AcDbLine
 10
15412.80217064596
 20
909.8747482146439
 30
0.0
 11
15425.80217064596
 21
969.8747482146441
 31
0.0
  0
LINE
  5
19D47
330
199F6
100
AcDbEntity
  8
YODOROGO
100
AcDbLine
 10
15398.80217064596
 20
909.8747482146439
 30
0.0
 11
15412.80217064596
 21
909.8747482146439
 31
0.0
  0
LINE
  5
19D48
330
199F6
100
AcDbEntity
  8
YODOROGO
100
AcDbLine
 10
15385.80217064596
 20
969.8747482146441
 30
0.0
 11
15398.80217064596
 21
909.8747482146439
 31
0.0
  0
LINE
  5
19D49
330
199F6
100
AcDbEntity
  8
YODOROGO
100
AcDbLine
 10
15361.80217064596
 20
969.8747482146441
 30
0.0
 11
15385.80217064596
 21
969.8747482146441
 31
0.0
  0
LINE
  5
19D4A
330
199F6
100
AcDbEntity
  8
YODOROGO
100
AcDbLine
 10
15374.80217064596
 20
909.8747482146439
 30
0.0
 11
15361.80217064596
 21
969.8747482146441
 31
0.0
  0
LINE
  5
19D4B
330
199F6
100
AcDbEntity
  8
YODOROGO
100
AcDbLine
 10
15361.80217064596
 20
909.8747482146439
 30
0.0
 11
15374.80217064596
 21
909.8747482146439
 31
0.0
  0
LINE
  5
19D4C
330
199F6
100
AcDbEntity
  8
YODOROGO
100
AcDbLine
 10
15361.80217064596
 20
877.8747482146435
 30
0.0
 11
15361.80217064596
 21
909.8747482146439
 31
0.0
  0
LINE
  5
19D4D
330
199F6
100
AcDbEntity
  8
YODOROGO
100
AcDbLine
 10
15449.80217064596
 20
877.8747482146435
 30
0.0
 11
15361.80217064596
 21
877.8747482146435
 31
0.0
  0
LINE
  5
19D4E
330
199F6
100
AcDbEntity
  8
YODOROGO
100
AcDbLine
 10
15449.80217064596
 20
909.8747482146439
 30
0.0
 11
15449.80217064596
 21
877.8747482146435
 31
0.0
  0
LINE
  5
19D4F
330
199F6
100
AcDbEntity
  8
YODOROGO
100
AcDbLine
 10
15308.80217064596
 20
973.8747482146434
 30
0.0
 11
15308.80217064596
 21
929.874748214644
 31
0.0
  0
LINE
  5
19D50
330
199F6
100
AcDbEntity
  8
YODOROGO
100
AcDbLine
 10
15395.80217064596
 20
877.8747482146435
 30
0.0
 11
15415.80217064596
 21
877.8747482146435
 31
0.0
  0
LINE
  5
19D51
330
199F6
100
AcDbEntity
  8
YODOROGO
100
AcDbLine
 10
15361.80217064596
 20
845.8747482146444
 30
0.0
 11
15381.80217064596
 21
845.8747482146444
 31
0.0
  0
LINE
  5
19D52
330
199F6
100
AcDbEntity
  8
YODOROGO
100
AcDbLine
 10
15429.80217064596
 20
845.8747482146444
 30
0.0
 11
15449.80217064596
 21
845.8747482146444
 31
0.0
  0
LINE
  5
19D53
330
199F6
100
AcDbEntity
  8
YODOROGO
100
AcDbLine
 10
15308.80217064596
 20
897.8747482146435
 30
0.0
 11
15308.80217064596
 21
867.8747482146436
 31
0.0
  0
LINE
  5
19D54
330
199F6
100
AcDbEntity
  8
YODOROGO
100
AcDbLine
 10
15582.80217064596
 20
1013.874748214644
 30
0.0
 11
15582.80217064596
 21
981.8747482146434
 31
0.0
  0
LINE
  5
19D55
330
199F6
100
AcDbEntity
  8
YODOROGO
100
AcDbLine
 10
15766.80217064596
 20
797.8747482146435
 30
0.0
 11
15766.80217064594
 21
905.8747482146443
 31
0.0
  0
LINE
  5
19D56
330
199F6
100
AcDbEntity
  8
YODOROGO
100
AcDbLine
 10
15730.80217064594
 20
993.8747482146439
 30
0.0
 11
15730.80217064594
 21
817.8747482146436
 31
0.0
  0
LINE
  5
19D57
330
199F6
100
AcDbEntity
  8
YODOROGO
100
AcDbLine
 10
15826.80217064596
 20
713.8747482146435
 30
0.0
 11
15826.80217064594
 21
905.8747482146443
 31
0.0
  0
LINE
  5
19D58
330
199F6
100
AcDbEntity
  8
YODOROGO
100
AcDbLine
 10
15794.80217064596
 20
905.8747482146443
 30
0.0
 11
15794.80217064596
 21
713.8747482146435
 31
0.0
  0
LINE
  5
19D59
330
199F6
100
AcDbEntity
  8
YODOROGO
100
AcDbLine
 10
15618.80217064596
 20
797.8747482146435
 30
0.0
 11
15618.80217064596
 21
853.874748214644
 31
0.0
  0
ARC
  5
19D5A
330
199F6
100
AcDbEntity
  8
YODOROGO
100
AcDbCircle
 10
15676.95743255803
 20
803.8951756442788
 30
0.0
 40
90.04622428799429
100
AcDbArc
 50
268.6284910216979
 51
356.1663845733032
  0
LINE
  5
19D5B
330
199F6
100
AcDbEntity
  8
YODOROGO
100
AcDbLine
 10
15674.80217064596
 20
763.8747482146435
 30
0.0
 11
15674.80217064596
 21
713.8747482146435
 31
0.0
  0
ARC
  5
19D5C
330
199F6
100
AcDbEntity
  8
YODOROGO
100
AcDbCircle
 10
15675.75903786228
 20
818.9194785088275
 30
0.0
 40
55.05304649180608
100
AcDbArc
 50
269.0041020930593
 51
358.9126445549248
  0
LINE
  5
19D5D
330
199F6
100
AcDbEntity
  8
YODOROGO
100
AcDbLine
 10
15794.80217064596
 20
713.8747482146435
 30
0.0
 11
15826.80217064596
 21
713.8747482146435
 31
0.0
  0
LINE
  5
19D5E
330
199F6
100
AcDbEntity
  8
YODOROGO
100
AcDbLine
 10
15766.80217064594
 20
905.8747482146443
 30
0.0
 11
15794.80217064596
 21
905.8747482146443
 31
0.0
  0
LINE
  5
19D5F
330
199F6
100
AcDbEntity
  8
YODOROGO
100
AcDbLine
 10
15810.80217064596
 20
993.8747482146439
 30
0.0
 11
15730.80217064594
 21
993.8747482146439
 31
0.0
  0
LINE
  5
19D60
330
199F6
100
AcDbEntity
  8
YODOROGO
100
AcDbLine
 10
15766.80217064594
 20
957.8747482146436
 30
0.0
 11
15830.80217064596
 21
957.8747482146436
 31
0.0
  0
LINE
  5
19D61
330
199F6
100
AcDbEntity
  8
YODOROGO
100
AcDbLine
 10
15850.80217064596
 20
937.8747482146435
 30
0.0
 11
15766.80217064594
 21
937.8747482146435
 31
0.0
  0
LINE
  5
19D62
330
199F6
100
AcDbEntity
  8
YODOROGO
100
AcDbLine
 10
15618.80217064596
 20
889.8747482146443
 30
0.0
 11
15674.80217064596
 21
889.8747482146443
 31
0.0
  0
LINE
  5
19D63
330
199F6
100
AcDbEntity
  8
YODOROGO
100
AcDbLine
 10
15618.80217064596
 20
917.8747482146436
 30
0.0
 11
15618.80217064596
 21
889.8747482146443
 31
0.0
  0
LINE
  5
19D64
330
199F6
100
AcDbEntity
  8
YODOROGO
100
AcDbLine
 10
15674.80217064596
 20
917.8747482146436
 30
0.0
 11
15618.80217064596
 21
917.8747482146436
 31
0.0
  0
LINE
  5
19D65
330
199F6
100
AcDbEntity
  8
YODOROGO
100
AcDbLine
 10
15674.80217064596
 20
889.8747482146443
 30
0.0
 11
15674.80217064596
 21
917.8747482146436
 31
0.0
  0
LINE
  5
19D66
330
199F6
100
AcDbEntity
  8
YODOROGO
100
AcDbLine
 10
15766.80217064594
 20
937.8747482146435
 30
0.0
 11
15766.80217064594
 21
957.8747482146436
 31
0.0
  0
LINE
  5
19D67
330
199F6
100
AcDbEntity
  8
YODOROGO
100
AcDbLine
 10
15706.80217064596
 20
853.874748214644
 30
0.0
 11
15706.80217064596
 21
953.874748214644
 31
0.0
  0
LINE
  5
19D68
330
199F6
100
AcDbEntity
  8
YODOROGO
100
AcDbLine
 10
15618.80217064596
 20
853.874748214644
 30
0.0
 11
15706.80217064596
 21
853.874748214644
 31
0.0
  0
LINE
  5
19D69
330
199F6
100
AcDbEntity
  8
YODOROGO
100
AcDbLine
 10
15706.80217064596
 20
981.8747482146434
 30
0.0
 11
15706.80217064596
 21
1013.874748214644
 31
0.0
  0
ARC
  5
19D6A
330
199F6
100
AcDbEntity
  8
YODOROGO
100
AcDbCircle
 10
15810.80217064596
 20
1001.874748214642
 30
0.0
 40
7.999999999997269
100
AcDbArc
 50
270.0
 51
0.0000000000081422
  0
LINE
  5
19D6B
330
199F6
100
AcDbEntity
  8
YODOROGO
100
AcDbLine
 10
15818.80217064596
 20
1013.874748214644
 30
0.0
 11
15818.80217064596
 21
1001.874748214643
 31
0.0
  0
LINE
  5
19D6C
330
199F6
100
AcDbEntity
  8
YODOROGO
100
AcDbLine
 10
15850.80217064596
 20
1013.874748214644
 30
0.0
 11
15818.80217064596
 21
1013.874748214644
 31
0.0
  0
LINE
  5
19D6D
330
199F6
100
AcDbEntity
  8
YODOROGO
100
AcDbLine
 10
15850.80217064596
 20
977.8747482146435
 30
0.0
 11
15850.80217064596
 21
1013.874748214644
 31
0.0
  0
ARC
  5
19D6E
330
199F6
100
AcDbEntity
  8
YODOROGO
100
AcDbCircle
 10
15830.80217064596
 20
977.8747482146435
 30
0.0
 40
20.0
100
AcDbArc
 50
270.0
 51
0.0
  0
LINE
  5
19D6F
330
199F6
100
AcDbEntity
  8
YODOROGO
100
AcDbLine
 10
15850.80217064596
 20
905.8747482146443
 30
0.0
 11
15850.80217064596
 21
937.8747482146435
 31
0.0
  0
LINE
  5
19D70
330
199F6
100
AcDbEntity
  8
YODOROGO
100
AcDbLine
 10
15826.80217064594
 20
905.8747482146443
 30
0.0
 11
15850.80217064596
 21
905.8747482146443
 31
0.0
  0
LINE
  5
19D71
330
199F6
100
AcDbEntity
  8
SUNPOU
100
AcDbLine
 10
9154.21703198606
 20
7095.715360473253
 30
0.0
 11
8939.217031986061
 21
7095.715360473253
 31
0.0
  0
LINE
  5
19D72
330
199F6
100
AcDbEntity
  8
SUNPOU
100
AcDbLine
 10
9154.21703198606
 20
7895.715360473253
 30
0.0
 11
8939.217031986061
 21
7895.715360473253
 31
0.0
  0
LINE
  5
19D73
330
199F6
100
AcDbEntity
  8
SUNPOU
100
AcDbLine
 10
8984.217031986061
 20
7110.715360473252
 30
0.0
 11
8984.217031986061
 21
7880.715360473252
 31
0.0
  0
LINE
  5
19D74
330
199F6
100
AcDbEntity
  8
SUNPOU
100
AcDbLine
 10
9184.21703198606
 20
7925.715360473251
 30
0.0
 11
9184.21703198606
 21
8110.715360473252
 31
0.0
  0
LINE
  5
19D75
330
199F6
100
AcDbEntity
  8
SUNPOU
100
AcDbLine
 10
9984.217031986061
 20
7925.715360473251
 30
0.0
 11
9984.217031986061
 21
8110.715360473252
 31
0.0
  0
LINE
  5
19D76
330
199F6
100
AcDbEntity
  8
SUNPOU
100
AcDbLine
 10
9199.21703198606
 20
8065.715360473253
 30
0.0
 11
9969.21703198606
 21
8065.715360473253
 31
0.0
  0
LINE
  5
19D77
330
199F6
100
AcDbEntity
  8
SUNPOU
100
AcDbLine
 10
9254.217031986065
 20
9595.715360473253
 30
0.0
 11
8939.217031986061
 21
9595.715360473253
 31
0.0
  0
LINE
  5
19D78
330
199F6
100
AcDbEntity
  8
SUNPOU
100
AcDbLine
 10
9254.217031986065
 20
8995.715360473253
 30
0.0
 11
8939.217031986061
 21
8995.715360473253
 31
0.0
  0
LINE
  5
19D79
330
199F6
100
AcDbEntity
  8
SUNPOU
100
AcDbLine
 10
8984.217031986061
 20
9580.715360473252
 30
0.0
 11
8984.217031986061
 21
9010.715360473252
 31
0.0
  0
LINE
  5
19D7A
330
199F6
100
AcDbEntity
  8
SUNPOU
100
AcDbLine
 10
9284.217031986065
 20
8965.71536047325
 30
0.0
 11
9284.217031986065
 21
8650.715360473251
 31
0.0
  0
LINE
  5
19D7B
330
199F6
100
AcDbEntity
  8
SUNPOU
100
AcDbLine
 10
9884.217031986066
 20
8965.71536047325
 30
0.0
 11
9884.217031986066
 21
8650.715360473251
 31
0.0
  0
LINE
  5
19D7C
330
199F6
100
AcDbEntity
  8
SUNPOU
100
AcDbLine
 10
9299.217031986065
 20
8695.715360473251
 30
0.0
 11
9869.217031986066
 21
8695.715360473251
 31
0.0
  0
LINE
  5
19D7D
330
199F6
100
AcDbEntity
  8
SUNPOU
100
AcDbLine
 10
10354.21703198605
 20
9295.715360473252
 30
0.0
 11
10339.21703198606
 21
9295.715360473252
 31
0.0
  0
LINE
  5
19D7E
330
199F6
100
AcDbEntity
  8
SUNPOU
100
AcDbLine
 10
10014.21703198606
 20
9595.715360473253
 30
0.0
 11
10429.21703198605
 21
9595.715360473253
 31
0.0
  0
LINE
  5
19D7F
330
199F6
100
AcDbEntity
  8
SUNPOU
100
AcDbLine
 10
10384.21703198606
 20
9310.715360473251
 30
0.0
 11
10384.21703198606
 21
9580.715360473252
 31
0.0
  0
LINE
  5
19D80
330
199F6
100
AcDbEntity
  8
SUNPOU
100
AcDbLine
 10
10354.21703198605
 20
7495.715360473251
 30
0.0
 11
10339.21703198606
 21
7495.715360473251
 31
0.0
  0
LINE
  5
19D81
330
199F6
100
AcDbEntity
  8
SUNPOU
100
AcDbLine
 10
10354.21703198605
 20
9295.715360473252
 30
0.0
 11
10339.21703198606
 21
9295.715360473252
 31
0.0
  0
LINE
  5
19D82
330
199F6
100
AcDbEntity
  8
SUNPOU
100
AcDbLine
 10
10384.21703198606
 20
7510.715360473252
 30
0.0
 11
10384.21703198606
 21
9280.71536047325
 31
0.0
  0
LINE
  5
19D83
330
199F6
100
AcDbEntity
  8
SUNPOU
100
AcDbLine
 10
10354.21703198605
 20
5695.715360473252
 30
0.0
 11
10339.21703198606
 21
5695.715360473252
 31
0.0
  0
LINE
  5
19D84
330
199F6
100
AcDbEntity
  8
SUNPOU
100
AcDbLine
 10
10354.21703198605
 20
7495.715360473251
 30
0.0
 11
10339.21703198606
 21
7495.715360473251
 31
0.0
  0
LINE
  5
19D85
330
199F6
100
AcDbEntity
  8
SUNPOU
100
AcDbLine
 10
10384.21703198606
 20
5710.715360473252
 30
0.0
 11
10384.21703198606
 21
7480.715360473252
 31
0.0
  0
LINE
  5
19D86
330
199F6
100
AcDbEntity
  8
SUNPOU
100
AcDbLine
 10
10014.21703198606
 20
5395.715360473253
 30
0.0
 11
10429.21703198605
 21
5395.715360473251
 31
0.0
  0
LINE
  5
19D87
330
199F6
100
AcDbEntity
  8
SUNPOU
100
AcDbLine
 10
10354.21703198605
 20
5695.715360473252
 30
0.0
 11
10339.21703198606
 21
5695.715360473252
 31
0.0
  0
LINE
  5
19D88
330
199F6
100
AcDbEntity
  8
SUNPOU
100
AcDbLine
 10
10384.21703198606
 20
5410.71536047325
 30
0.0
 11
10384.21703198606
 21
5680.715360473252
 31
0.0
  0
LINE
  5
19D89
330
199F6
100
AcDbEntity
  8
SUNPOU
100
AcDbLine
 10
10014.21703198606
 20
5395.715360473253
 30
0.0
 11
10639.21703198606
 21
5395.715360473251
 31
0.0
  0
LINE
  5
19D8A
330
199F6
100
AcDbEntity
  8
SUNPOU
100
AcDbLine
 10
10014.21703198606
 20
9595.715360473253
 30
0.0
 11
10639.21703198606
 21
9595.715360473253
 31
0.0
  0
LINE
  5
19D8B
330
199F6
100
AcDbEntity
  8
SUNPOU
100
AcDbLine
 10
10594.21703198605
 20
5410.71536047325
 30
0.0
 11
10594.21703198605
 21
9580.715360473252
 31
0.0
  0
LINE
  5
19D8C
330
199F6
100
AcDbEntity
  8
SUNPOU
100
AcDbLine
 10
9584.21703198606
 20
9725.715360473252
 30
0.0
 11
9584.21703198606
 21
10040.71536047325
 31
0.0
  0
LINE
  5
19D8D
330
199F6
100
AcDbEntity
  8
SUNPOU
100
AcDbLine
 10
9984.217031986061
 20
9625.715360473252
 30
0.0
 11
9984.217031986061
 21
10040.71536047325
 31
0.0
  0
LINE
  5
19D8E
330
199F6
100
AcDbEntity
  8
SUNPOU
100
AcDbLine
 10
9599.217031986061
 20
9995.715360473253
 30
0.0
 11
9969.217031986058
 21
9995.715360473253
 31
0.0
  0
LINE
  5
19D8F
330
199F6
100
AcDbEntity
  8
SUNPOU
100
AcDbLine
 10
6384.217031986061
 20
9625.715360473252
 30
0.0
 11
6384.217031986061
 21
10250.71536047325
 31
0.0
  0
LINE
  5
19D90
330
199F6
100
AcDbEntity
  8
SUNPOU
100
AcDbLine
 10
9984.217031986061
 20
9625.715360473252
 30
0.0
 11
9984.217031986061
 21
10250.71536047325
 31
0.0
  0
LINE
  5
19D91
330
199F6
100
AcDbEntity
  8
SUNPOU
100
AcDbLine
 10
6399.217031986061
 20
10205.71536047325
 30
0.0
 11
9969.217031986058
 21
10205.71536047325
 31
0.0
  0
LINE
  5
19D92
330
199F6
100
AcDbEntity
  8
SUNPOU
100
AcDbLine
 10
9584.21703198606
 20
9725.715360473252
 30
0.0
 11
9584.21703198606
 21
10040.71536047325
 31
0.0
  0
LINE
  5
19D93
330
199F6
100
AcDbEntity
  8
SUNPOU
100
AcDbLine
 10
6784.217031986061
 20
9725.715360473252
 30
0.0
 11
6784.217031986061
 21
10040.71536047325
 31
0.0
  0
LINE
  5
19D94
330
199F6
100
AcDbEntity
  8
SUNPOU
100
AcDbLine
 10
9569.21703198606
 20
9995.715360473253
 30
0.0
 11
6799.21703198606
 21
9995.715360473253
 31
0.0
  0
LINE
  5
19D95
330
199F6
100
AcDbEntity
  8
SUNPOU
100
AcDbLine
 10
6784.217031986061
 20
9725.715360473252
 30
0.0
 11
6784.217031986061
 21
10040.71536047325
 31
0.0
  0
LINE
  5
19D96
330
199F6
100
AcDbEntity
  8
SUNPOU
100
AcDbLine
 10
6384.217031986061
 20
9625.715360473252
 30
0.0
 11
6384.217031986061
 21
10040.71536047325
 31
0.0
  0
LINE
  5
19D97
330
199F6
100
AcDbEntity
  8
SUNPOU
100
AcDbLine
 10
6769.217031986061
 20
9995.715360473253
 30
0.0
 11
6399.217031986061
 21
9995.715360473253
 31
0.0
  0
LINE
  5
19D98
330
199F6
100
AcDbEntity
  8
SUNPOU
100
AcDbLine
 10
9145.989208462832
 20
3287.183932023015
 30
0.0
 11
9085.989208462816
 21
3287.183932023015
 31
0.0
  0
LINE
  5
19D99
330
199F6
100
AcDbEntity
  8
SUNPOU
100
AcDbLine
 10
9145.989208462822
 20
3287.183932023015
 30
0.0
 11
9085.989208462823
 21
3303.260883568885
 31
0.0
  0
LINE
  5
19D9A
330
199F6
100
AcDbEntity
  8
SUNPOU
100
AcDbLine
 10
9145.989208462832
 20
3287.183932023015
 30
0.0
 11
9085.989208462816
 21
3271.106980477146
 31
0.0
  0
LINE
  5
19D9B
330
199F6
100
AcDbEntity
  8
SUNPOU
100
AcDbLine
 10
9085.98920846283
 20
3287.183932023015
 30
0.0
 11
9025.989208462815
 21
3287.183932023015
 31
0.0
  0
LINE
  5
19D9C
330
199F6
100
AcDbEntity
  8
SUNPOU
100
AcDbLine
 10
9085.989208462823
 20
3287.183932023015
 30
0.0
 11
9025.989208462823
 21
3303.260883568885
 31
0.0
  0
LINE
  5
19D9D
330
199F6
100
AcDbEntity
  8
SUNPOU
100
AcDbLine
 10
9085.98920846283
 20
3287.183932023015
 30
0.0
 11
9025.989208462815
 21
3271.106980477146
 31
0.0
  0
LINE
  5
19D9E
330
199F6
100
AcDbEntity
  8
SUNPOU
100
AcDbLine
 10
7762.008701212581
 20
3287.183932023015
 30
0.0
 11
7773.258701212579
 21
3287.183932023015
 31
0.0
  0
LINE
  5
19D9F
330
199F6
100
AcDbEntity
  8
SUNPOU
100
AcDbLine
 10
7750.758701212581
 20
3317.183932023015
 30
0.0
 11
7750.758701212581
 21
3332.183932023015
 31
0.0
  0
LINE
  5
19DA0
330
199F6
100
AcDbEntity
  8
SUNPOU
100
AcDbLine
 10
7110.758701212581
 20
2514.183932023016
 30
0.0
 11
7110.758701212581
 21
3332.183932023015
 31
0.0
  0
LINE
  5
19DA1
330
199F6
100
AcDbEntity
  8
SUNPOU
100
AcDbLine
 10
7735.758701212581
 20
3287.183932023014
 30
0.0
 11
7125.758701212581
 21
3287.183932023014
 31
0.0
  0
LINE
  5
19DA2
330
199F6
100
AcDbEntity
  8
SUNPOU
100
AcDbLine
 10
7080.758701212579
 20
2484.183932023016
 30
0.0
 11
6584.758582955732
 21
2484.183932023016
 31
0.0
  0
LINE
  5
19DA3
330
199F6
100
AcDbEntity
  8
SUNPOU
100
AcDbLine
 10
6920.758701212581
 20
1876.183932023014
 30
0.0
 11
6584.758582955732
 21
1876.183932023016
 31
0.0
  0
LINE
  5
19DA4
330
199F6
100
AcDbEntity
  8
SUNPOU
100
AcDbLine
 10
6629.758582955734
 20
2469.183932023016
 30
0.0
 11
6629.758582955732
 21
1891.183932023016
 31
0.0
  0
LINE
  5
19DA5
330
199F6
100
AcDbEntity
  8
SUNPOU
100
AcDbLine
 10
6920.758701212581
 20
1876.183932023017
 30
0.0
 11
6584.758582955732
 21
1876.183932023018
 31
0.0
  0
LINE
  5
19DA6
330
199F6
100
AcDbEntity
  8
SUNPOU
100
AcDbLine
 10
6920.758701212581
 20
1716.183932023017
 30
0.0
 11
6584.758582955732
 21
1716.183932023017
 31
0.0
  0
LINE
  5
19DA7
330
199F6
100
AcDbEntity
  8
SUNPOU
100
AcDbLine
 10
6629.758582955732
 20
1861.183932023017
 30
0.0
 11
6629.758582955732
 21
1731.183932023017
 31
0.0
  0
LINE
  5
19DA8
330
199F6
100
AcDbEntity
  8
SUNPOU
100
AcDbLine
 10
7080.758701212582
 20
2484.183932023016
 30
0.0
 11
6384.758582955733
 21
2484.183932023016
 31
0.0
  0
LINE
  5
19DA9
330
199F6
100
AcDbEntity
  8
SUNPOU
100
AcDbLine
 10
6920.758701212581
 20
1716.183932023017
 30
0.0
 11
6384.758582955733
 21
1716.183932023017
 31
0.0
  0
LINE
  5
19DAA
330
199F6
100
AcDbEntity
  8
SUNPOU
100
AcDbLine
 10
6429.758582955732
 20
2469.183932023016
 30
0.0
 11
6429.758582955732
 21
1731.183932023017
 31
0.0
  0
LINE
  5
19DAB
330
199F6
100
AcDbEntity
  8
SUNPOU
100
AcDbLine
 10
7110.758701212581
 20
1846.183932023015
 30
0.0
 11
7110.758701212581
 21
1334.183932023013
 31
0.0
  0
LINE
  5
19DAC
330
199F6
100
AcDbEntity
  8
SUNPOU
100
AcDbLine
 10
8390.758701212579
 20
1846.183932023015
 30
0.0
 11
8390.758701212579
 21
1334.183932023013
 31
0.0
  0
LINE
  5
19DAD
330
199F6
100
AcDbEntity
  8
SUNPOU
100
AcDbLine
 10
7125.758701212581
 20
1379.183932023014
 30
0.0
 11
8375.758701212578
 21
1379.183932023014
 31
0.0
  0
LINE
  5
19DAE
330
199F6
100
AcDbEntity
  8
SUNPOU
100
AcDbLine
 10
6950.758701212581
 20
1686.183932023016
 30
0.0
 11
6950.758701212581
 21
1124.183932023014
 31
0.0
  0
LINE
  5
19DAF
330
199F6
100
AcDbEntity
  8
SUNPOU
100
AcDbLine
 10
8550.758701212577
 20
1686.183932023017
 30
0.0
 11
8550.758701212577
 21
1124.183932023014
 31
0.0
  0
LINE
  5
19DB0
330
199F6
100
AcDbEntity
  8
SUNPOU
100
AcDbLine
 10
6965.75870121258
 20
1169.183932023013
 30
0.0
 11
8535.758701212579
 21
1169.183932023013
 31
0.0
  0
LINE
  5
19DB1
330
199F6
100
AcDbEntity
  8
SUNPOU
100
AcDbLine
 10
3224.333914666386
 20
1846.183932023019
 30
0.0
 11
3224.333914666386
 21
1334.183932023016
 31
0.0
  0
LINE
  5
19DB2
330
199F6
100
AcDbEntity
  8
SUNPOU
100
AcDbLine
 10
4184.333914666384
 20
1846.183932023016
 30
0.0
 11
4184.333914666384
 21
1334.183932023016
 31
0.0
  0
LINE
  5
19DB3
330
199F6
100
AcDbEntity
  8
SUNPOU
100
AcDbLine
 10
3239.333914666387
 20
1379.183932023016
 30
0.0
 11
4169.333914666387
 21
1379.183932023016
 31
0.0
  0
LINE
  5
19DB4
330
199F6
100
AcDbEntity
  8
SUNPOU
100
AcDbLine
 10
3064.333914666386
 20
1686.18393202302
 30
0.0
 11
3064.333914666386
 21
1124.183932023016
 31
0.0
  0
LINE
  5
19DB5
330
199F6
100
AcDbEntity
  8
SUNPOU
100
AcDbLine
 10
4344.333914666385
 20
1686.183932023017
 30
0.0
 11
4344.333914666385
 21
1124.183932023016
 31
0.0
  0
LINE
  5
19DB6
330
199F6
100
AcDbEntity
  8
SUNPOU
100
AcDbLine
 10
3079.333914666387
 20
1169.183932023016
 30
0.0
 11
4329.333914666387
 21
1169.183932023016
 31
0.0
  0
LINE
  5
19DB7
330
199F6
100
AcDbEntity
  8
SUNPOU
100
AcDbLine
 10
3034.333914666386
 20
2484.183932023019
 30
0.0
 11
2698.333796409538
 21
2484.183932023019
 31
0.0
  0
LINE
  5
19DB8
330
199F6
100
AcDbEntity
  8
SUNPOU
100
AcDbLine
 10
3034.333914666386
 20
1876.183932023018
 30
0.0
 11
2698.333796409538
 21
1876.183932023018
 31
0.0
  0
LINE
  5
19DB9
330
199F6
100
AcDbEntity
  8
SUNPOU
100
AcDbLine
 10
2743.333796409538
 20
2469.183932023019
 30
0.0
 11
2743.333796409538
 21
1891.183932023016
 31
0.0
  0
LINE
  5
19DBA
330
199F6
100
AcDbEntity
  8
SUNPOU
100
AcDbLine
 10
3034.333914666386
 20
1876.183932023019
 30
0.0
 11
2698.333796409539
 21
1876.183932023019
 31
0.0
  0
LINE
  5
19DBB
330
199F6
100
AcDbEntity
  8
SUNPOU
100
AcDbLine
 10
3034.333914666386
 20
1716.18393202302
 30
0.0
 11
2698.333796409539
 21
1716.18393202302
 31
0.0
  0
LINE
  5
19DBC
330
199F6
100
AcDbEntity
  8
SUNPOU
100
AcDbLine
 10
2743.333796409539
 20
1861.183932023019
 30
0.0
 11
2743.333796409539
 21
1731.18393202302
 31
0.0
  0
LINE
  5
19DBD
330
199F6
100
AcDbEntity
  8
SUNPOU
100
AcDbLine
 10
3034.333914666388
 20
2484.183932023019
 30
0.0
 11
2498.333796409538
 21
2484.183932023019
 31
0.0
  0
LINE
  5
19DBE
330
199F6
100
AcDbEntity
  8
SUNPOU
100
AcDbLine
 10
3034.333914666386
 20
1716.18393202302
 30
0.0
 11
2498.333796409538
 21
1716.18393202302
 31
0.0
  0
LINE
  5
19DBF
330
199F6
100
AcDbEntity
  8
SUNPOU
100
AcDbLine
 10
2543.333796409538
 20
2469.183932023019
 30
0.0
 11
2543.333796409538
 21
1731.18393202302
 31
0.0
  0
LINE
  5
19DC0
330
199F6
100
AcDbEntity
  8
SUNPOU
100
AcDbLine
 10
3704.333914666387
 20
3317.183932023015
 30
0.0
 11
3704.333914666387
 21
3332.183932023017
 31
0.0
  0
LINE
  5
19DC1
330
199F6
100
AcDbEntity
  8
SUNPOU
100
AcDbLine
 10
3064.333914666386
 20
2514.183932023019
 30
0.0
 11
3064.333914666386
 21
3332.183932023017
 31
0.0
  0
LINE
  5
19DC2
330
199F6
100
AcDbEntity
  8
SUNPOU
100
AcDbLine
 10
3689.333914666387
 20
3287.183932023017
 30
0.0
 11
3079.333914666386
 21
3287.183932023017
 31
0.0
  0
LINE
  5
19DC3
330
199F6
100
AcDbEntity
  8
SUNPOU
100
AcDbLine
 10
5099.564421916637
 20
3287.183932023017
 30
0.0
 11
5039.564421916624
 21
3287.183932023017
 31
0.0
  0
LINE
  5
19DC4
330
199F6
100
AcDbEntity
  8
SUNPOU
100
AcDbLine
 10
5099.564421916631
 20
3287.183932023017
 30
0.0
 11
5039.56442191663
 21
3303.260883568886
 31
0.0
  0
LINE
  5
19DC5
330
199F6
100
AcDbEntity
  8
SUNPOU
100
AcDbLine
 10
5099.564421916637
 20
3287.183932023017
 30
0.0
 11
5039.564421916624
 21
3271.106980477147
 31
0.0
  0
LINE
  5
19DC6
330
199F6
100
AcDbEntity
  8
SUNPOU
100
AcDbLine
 10
5039.564421916637
 20
3287.183932023017
 30
0.0
 11
4979.564421916624
 21
3287.183932023017
 31
0.0
  0
LINE
  5
19DC7
330
199F6
100
AcDbEntity
  8
SUNPOU
100
AcDbLine
 10
5039.56442191663
 20
3287.183932023017
 30
0.0
 11
4979.564421916631
 21
3303.260883568886
 31
0.0
  0
LINE
  5
19DC8
330
199F6
100
AcDbEntity
  8
SUNPOU
100
AcDbLine
 10
5039.564421916637
 20
3287.183932023017
 30
0.0
 11
4979.564421916624
 21
3271.106980477147
 31
0.0
  0
LINE
  5
19DC9
330
199F6
100
AcDbEntity
  8
SUNPOU
100
AcDbLine
 10
3715.583914666388
 20
3287.183932023017
 30
0.0
 11
3726.833914666387
 21
3287.183932023017
 31
0.0
  0
TEXT
  5
19DCA
330
199F6
100
AcDbEntity
  8
SUNPOU
100
AcDbText
 10
8939.217031986061
 20
7410.001074758966
 30
0.0
 40
90.0
  1
800
 50
90.0
 41
0.6666666666666666
  7
00
100
AcDbText
  0
LINE
  5
19DCB
330
199F6
100
AcDbEntity
  8
SUNPOU
100
AcDbLine
 10
8984.217031986061
 20
7884.465360473253
 30
0.0
 11
8984.217031986061
 21
7873.215360473252
 31
0.0
  0
LINE
  5
19DCC
330
199F6
100
AcDbEntity
  8
SUNPOU
100
AcDbLine
 10
8984.217031986061
 20
7106.965360473252
 30
0.0
 11
8984.217031986061
 21
7118.215360473252
 31
0.0
  0
TEXT
  5
19DCD
330
199F6
100
AcDbEntity
  8
SUNPOU
100
AcDbText
 10
9498.502746271773
 20
8110.715360473252
 30
0.0
 40
90.0
  1
800
 41
0.6666666666666666
  7
00
100
AcDbText
  0
LINE
  5
19DCE
330
199F6
100
AcDbEntity
  8
SUNPOU
100
AcDbLine
 10
9972.96703198606
 20
8065.715360473253
 30
0.0
 11
9961.717031986061
 21
8065.715360473253
 31
0.0
  0
LINE
  5
19DCF
330
199F6
100
AcDbEntity
  8
SUNPOU
100
AcDbLine
 10
9195.46703198606
 20
8065.715360473253
 30
0.0
 11
9206.717031986059
 21
8065.715360473253
 31
0.0
  0
TEXT
  5
19DD0
330
199F6
100
AcDbEntity
  8
SUNPOU
100
AcDbText
 10
8939.217031986061
 20
9208.572503330399
 30
0.0
 40
90.0
  1
600
 50
90.0
 41
0.6666666666666666
  7
00
100
AcDbText
  0
LINE
  5
19DD1
330
199F6
100
AcDbEntity
  8
SUNPOU
100
AcDbLine
 10
8984.217031986061
 20
9006.96536047325
 30
0.0
 11
8984.217031986061
 21
9018.215360473252
 31
0.0
  0
LINE
  5
19DD2
330
199F6
100
AcDbEntity
  8
SUNPOU
100
AcDbLine
 10
8984.217031986061
 20
9584.465360473252
 30
0.0
 11
8984.217031986061
 21
9573.215360473252
 31
0.0
  0
TEXT
  5
19DD3
330
199F6
100
AcDbEntity
  8
SUNPOU
100
AcDbText
 10
9497.074174843204
 20
8740.715360473251
 30
0.0
 40
90.0
  1
600
 41
0.6666666666666666
  7
00
100
AcDbText
  0
LINE
  5
19DD4
330
199F6
100
AcDbEntity
  8
SUNPOU
100
AcDbLine
 10
9872.967031986066
 20
8695.715360473251
 30
0.0
 11
9861.717031986065
 21
8695.715360473251
 31
0.0
  0
LINE
  5
19DD5
330
199F6
100
AcDbEntity
  8
SUNPOU
100
AcDbLine
 10
9295.467031986065
 20
8695.715360473251
 30
0.0
 11
9306.717031986066
 21
8695.715360473251
 31
0.0
  0
TEXT
  5
19DD6
330
199F6
100
AcDbEntity
  8
SUNPOU
100
AcDbText
 10
10339.21703198606
 20
9360.001074758967
 30
0.0
 40
90.0
  1
300
 50
90.0
 41
0.6666666666666666
  7
00
100
AcDbText
  0
LINE
  5
19DD7
330
199F6
100
AcDbEntity
  8
SUNPOU
100
AcDbLine
 10
10384.21703198606
 20
9584.465360473252
 30
0.0
 11
10384.21703198606
 21
9573.215360473252
 31
0.0
  0
LINE
  5
19DD8
330
199F6
100
AcDbEntity
  8
SUNPOU
100
AcDbLine
 10
10384.21703198606
 20
9306.965360473252
 30
0.0
 11
10384.21703198606
 21
9318.215360473251
 31
0.0
  0
TEXT
  5
19DD9
330
199F6
100
AcDbEntity
  8
SUNPOU
100
AcDbText
 10
10339.21703198606
 20
8277.143931901829
 30
0.0
 40
90.0
  1
1800
 50
90.0
 41
0.6666666666666666
  7
00
100
AcDbText
  0
LINE
  5
19DDA
330
199F6
100
AcDbEntity
  8
SUNPOU
100
AcDbLine
 10
10384.21703198606
 20
9284.465360473253
 30
0.0
 11
10384.21703198606
 21
9273.215360473249
 31
0.0
  0
LINE
  5
19DDB
330
199F6
100
AcDbEntity
  8
SUNPOU
100
AcDbLine
 10
10384.21703198606
 20
7506.965360473251
 30
0.0
 11
10384.21703198606
 21
7518.215360473252
 31
0.0
  0
TEXT
  5
19DDC
330
199F6
100
AcDbEntity
  8
SUNPOU
100
AcDbText
 10
10339.21703198606
 20
6477.143931901827
 30
0.0
 40
90.0
  1
1800
 50
90.0
 41
0.6666666666666666
  7
00
100
AcDbText
  0
LINE
  5
19DDD
330
199F6
100
AcDbEntity
  8
SUNPOU
100
AcDbLine
 10
10384.21703198606
 20
7484.465360473253
 30
0.0
 11
10384.21703198606
 21
7473.215360473251
 31
0.0
  0
LINE
  5
19DDE
330
199F6
100
AcDbEntity
  8
SUNPOU
100
AcDbLine
 10
10384.21703198606
 20
5706.965360473252
 30
0.0
 11
10384.21703198606
 21
5718.215360473251
 31
0.0
  0
TEXT
  5
19DDF
330
199F6
100
AcDbEntity
  8
SUNPOU
100
AcDbText
 10
10339.21703198606
 20
5460.001074758968
 30
0.0
 40
90.0
  1
300
 50
90.0
 41
0.6666666666666666
  7
00
100
AcDbText
  0
LINE
  5
19DE0
330
199F6
100
AcDbEntity
  8
SUNPOU
100
AcDbLine
 10
10384.21703198606
 20
5684.465360473252
 30
0.0
 11
10384.21703198606
 21
5673.215360473252
 31
0.0
  0
LINE
  5
19DE1
330
199F6
100
AcDbEntity
  8
SUNPOU
100
AcDbLine
 10
10384.21703198606
 20
5406.965360473251
 30
0.0
 11
10384.21703198606
 21
5418.215360473251
 31
0.0
  0
TEXT
  5
19DE2
330
199F6
100
AcDbEntity
  8
SUNPOU
100
AcDbText
 10
10549.21703198606
 20
7381.42964618754
 30
0.0
 40
90.0
  1
4200
 50
90.0
 41
0.6666666666666666
  7
00
100
AcDbText
  0
LINE
  5
19DE3
330
199F6
100
AcDbEntity
  8
SUNPOU
100
AcDbLine
 10
10594.21703198605
 20
9584.465360473252
 30
0.0
 11
10594.21703198605
 21
9573.215360473252
 31
0.0
  0
LINE
  5
19DE4
330
199F6
100
AcDbEntity
  8
SUNPOU
100
AcDbLine
 10
10594.21703198605
 20
5406.965360473251
 30
0.0
 11
10594.21703198605
 21
5418.215360473251
 31
0.0
  0
TEXT
  5
19DE5
330
199F6
100
AcDbEntity
  8
SUNPOU
100
AcDbText
 10
9698.502746271772
 20
10040.71536047325
 30
0.0
 40
90.0
  1
400
 41
0.6666666666666666
  7
00
100
AcDbText
  0
LINE
  5
19DE6
330
199F6
100
AcDbEntity
  8
SUNPOU
100
AcDbLine
 10
9972.967031986058
 20
9995.715360473253
 30
0.0
 11
9961.717031986058
 21
9995.715360473253
 31
0.0
  0
LINE
  5
19DE7
330
199F6
100
AcDbEntity
  8
SUNPOU
100
AcDbLine
 10
9595.467031986059
 20
9995.715360473253
 30
0.0
 11
9606.717031986059
 21
9995.715360473253
 31
0.0
  0
TEXT
  5
19DE8
330
199F6
100
AcDbEntity
  8
SUNPOU
100
AcDbText
 10
8069.931317700344
 20
10250.71536047325
 30
0.0
 40
90.0
  1
3600
 41
0.6666666666666666
  7
00
100
AcDbText
  0
LINE
  5
19DE9
330
199F6
100
AcDbEntity
  8
SUNPOU
100
AcDbLine
 10
9972.967031986058
 20
10205.71536047325
 30
0.0
 11
9961.717031986058
 21
10205.71536047325
 31
0.0
  0
LINE
  5
19DEA
330
199F6
100
AcDbEntity
  8
SUNPOU
100
AcDbLine
 10
6395.467031986061
 20
10205.71536047325
 30
0.0
 11
6406.717031986061
 21
10205.71536047325
 31
0.0
  0
TEXT
  5
19DEB
330
199F6
100
AcDbEntity
  8
SUNPOU
100
AcDbText
 10
8069.931317700344
 20
10040.71536047325
 30
0.0
 40
90.0
  1
2800
 41
0.6666666666666666
  7
00
100
AcDbText
  0
LINE
  5
19DEC
330
199F6
100
AcDbEntity
  8
SUNPOU
100
AcDbLine
 10
6795.467031986061
 20
9995.715360473253
 30
0.0
 11
6806.717031986059
 21
9995.715360473253
 31
0.0
  0
LINE
  5
19DED
330
199F6
100
AcDbEntity
  8
SUNPOU
100
AcDbLine
 10
9572.96703198606
 20
9995.715360473253
 30
0.0
 11
9561.717031986061
 21
9995.715360473253
 31
0.0
  0
TEXT
  5
19DEE
330
199F6
100
AcDbEntity
  8
SUNPOU
100
AcDbText
 10
6498.502746271775
 20
10040.71536047325
 30
0.0
 40
90.0
  1
400
 41
0.6666666666666666
  7
00
100
AcDbText
  0
LINE
  5
19DEF
330
199F6
100
AcDbEntity
  8
SUNPOU
100
AcDbLine
 10
6395.467031986061
 20
9995.715360473253
 30
0.0
 11
6406.717031986061
 21
9995.715360473253
 31
0.0
  0
LINE
  5
19DF0
330
199F6
100
AcDbEntity
  8
SUNPOU
100
AcDbLine
 10
6772.96703198606
 20
9995.715360473253
 30
0.0
 11
6761.71703198606
 21
9995.715360473253
 31
0.0
  0
ARC
  5
19DF1
330
199F6
100
AcDbEntity
  8
SUNPOU
100
AcDbCircle
 10
7750.758701212581
 20
3287.183932023015
 30
0.0
 40
5.625
100
AcDbArc
 50
0.0
 51
180.0
  0
ARC
  5
19DF2
330
199F6
100
AcDbEntity
  8
SUNPOU
100
AcDbCircle
 10
7750.758701212581
 20
3287.183932023015
 30
0.0
 40
5.625
100
AcDbArc
 50
180.0
 51
0.0
  0
TEXT
  5
19DF3
330
199F6
100
AcDbEntity
  8
SUNPOU
100
AcDbText
 10
7345.044415498293
 20
3332.183932023015
 30
0.0
 40
90.0
  1
400
 41
0.6666666666666666
  7
00
100
AcDbText
  0
LINE
  5
19DF4
330
199F6
100
AcDbEntity
  8
SUNPOU
100
AcDbLine
 10
7122.00870121258
 20
3287.183932023014
 30
0.0
 11
7133.258701212581
 21
3287.183932023014
 31
0.0
  0
LINE
  5
19DF5
330
199F6
100
AcDbEntity
  8
SUNPOU
100
AcDbLine
 10
7739.508701212582
 20
3287.183932023014
 30
0.0
 11
7728.25870121258
 21
3287.183932023014
 31
0.0
  0
TEXT
  5
19DF6
330
199F6
100
AcDbEntity
  8
SUNPOU
100
AcDbText
 10
6584.758582955732
 20
2094.469646308731
 30
0.0
 40
90.0
  1
380
 50
90.0
 41
0.6666666666666666
  7
00
100
AcDbText
  0
LINE
  5
19DF7
330
199F6
100
AcDbEntity
  8
SUNPOU
100
AcDbLine
 10
6629.758582955732
 20
1887.433932023015
 30
0.0
 11
6629.758582955732
 21
1898.683932023016
 31
0.0
  0
LINE
  5
19DF8
330
199F6
100
AcDbEntity
  8
SUNPOU
100
AcDbLine
 10
6629.758582955734
 20
2472.933932023016
 30
0.0
 11
6629.758582955734
 21
2461.683932023015
 31
0.0
  0
TEXT
  5
19DF9
330
199F6
100
AcDbEntity
  8
SUNPOU
100
AcDbText
 10
6584.758582955732
 20
1706.183932023017
 30
0.0
 40
90.0
  1
100
 50
90.0
 41
0.6666666666666666
  7
00
100
AcDbText
  0
LINE
  5
19DFA
330
199F6
100
AcDbEntity
  8
SUNPOU
100
AcDbLine
 10
6629.758582955732
 20
1727.433932023016
 30
0.0
 11
6629.758582955732
 21
1738.683932023018
 31
0.0
  0
LINE
  5
19DFB
330
199F6
100
AcDbEntity
  8
SUNPOU
100
AcDbLine
 10
6629.758582955732
 20
1864.933932023016
 30
0.0
 11
6629.758582955732
 21
1853.683932023017
 31
0.0
  0
TEXT
  5
19DFC
330
199F6
100
AcDbEntity
  8
SUNPOU
100
AcDbText
 10
6384.758582955733
 20
2014.469646308732
 30
0.0
 40
90.0
  1
480
 50
90.0
 41
0.6666666666666666
  7
00
100
AcDbText
  0
LINE
  5
19DFD
330
199F6
100
AcDbEntity
  8
SUNPOU
100
AcDbLine
 10
6429.758582955732
 20
1727.433932023016
 30
0.0
 11
6429.758582955732
 21
1738.683932023018
 31
0.0
  0
LINE
  5
19DFE
330
199F6
100
AcDbEntity
  8
SUNPOU
100
AcDbLine
 10
6429.758582955732
 20
2472.933932023016
 30
0.0
 11
6429.758582955732
 21
2461.683932023015
 31
0.0
  0
TEXT
  5
19DFF
330
199F6
100
AcDbEntity
  8
SUNPOU
100
AcDbText
 10
7665.044415498293
 20
1424.183932023014
 30
0.0
 40
90.0
  1
800
 41
0.6666666666666666
  7
00
100
AcDbText
  0
LINE
  5
19E00
330
199F6
100
AcDbEntity
  8
SUNPOU
100
AcDbLine
 10
8379.508701212579
 20
1379.183932023014
 30
0.0
 11
8368.25870121258
 21
1379.183932023014
 31
0.0
  0
LINE
  5
19E01
330
199F6
100
AcDbEntity
  8
SUNPOU
100
AcDbLine
 10
7122.00870121258
 20
1379.183932023014
 30
0.0
 11
7133.258701212581
 21
1379.183932023014
 31
0.0
  0
TEXT
  5
19E02
330
199F6
100
AcDbEntity
  8
SUNPOU
100
AcDbText
 10
7632.187272641154
 20
1214.183932023014
 30
0.0
 40
90.0
  1
1000
 41
0.6666666666666666
  7
00
100
AcDbText
  0
LINE
  5
19E03
330
199F6
100
AcDbEntity
  8
SUNPOU
100
AcDbLine
 10
8539.508701212579
 20
1169.183932023013
 30
0.0
 11
8528.258701212578
 21
1169.183932023013
 31
0.0
  0
LINE
  5
19E04
330
199F6
100
AcDbEntity
  8
SUNPOU
100
AcDbLine
 10
6962.008701212581
 20
1169.183932023013
 30
0.0
 11
6973.258701212579
 21
1169.183932023013
 31
0.0
  0
TEXT
  5
19E05
330
199F6
100
AcDbEntity
  8
SUNPOU
100
AcDbText
 10
3617.191057523529
 20
1424.183932023016
 30
0.0
 40
90.0
  1
600
 41
0.6666666666666666
  7
00
100
AcDbText
  0
LINE
  5
19E06
330
199F6
100
AcDbEntity
  8
SUNPOU
100
AcDbLine
 10
4173.083914666387
 20
1379.183932023016
 30
0.0
 11
4161.833914666384
 21
1379.183932023016
 31
0.0
  0
LINE
  5
19E07
330
199F6
100
AcDbEntity
  8
SUNPOU
100
AcDbLine
 10
3235.583914666387
 20
1379.183932023016
 30
0.0
 11
3246.833914666386
 21
1379.183932023016
 31
0.0
  0
TEXT
  5
19E08
330
199F6
100
AcDbEntity
  8
SUNPOU
100
AcDbText
 10
3618.6196289521
 20
1214.183932023016
 30
0.0
 40
90.0
  1
800
 41
0.6666666666666666
  7
00
100
AcDbText
  0
LINE
  5
19E09
330
199F6
100
AcDbEntity
  8
SUNPOU
100
AcDbLine
 10
4333.083914666387
 20
1169.183932023016
 30
0.0
 11
4321.833914666386
 21
1169.183932023016
 31
0.0
  0
LINE
  5
19E0A
330
199F6
100
AcDbEntity
  8
SUNPOU
100
AcDbLine
 10
3075.583914666387
 20
1169.183932023016
 30
0.0
 11
3086.833914666387
 21
1169.183932023016
 31
0.0
  0
TEXT
  5
19E0B
330
199F6
100
AcDbEntity
  8
SUNPOU
100
AcDbText
 10
2698.333796409537
 20
2094.469646308732
 30
0.0
 40
90.0
  1
380
 50
90.0
 41
0.6666666666666666
  7
00
100
AcDbText
  0
LINE
  5
19E0C
330
199F6
100
AcDbEntity
  8
SUNPOU
100
AcDbLine
 10
2743.333796409538
 20
1887.433932023017
 30
0.0
 11
2743.333796409538
 21
1898.683932023017
 31
0.0
  0
LINE
  5
19E0D
330
199F6
100
AcDbEntity
  8
SUNPOU
100
AcDbLine
 10
2743.333796409538
 20
2472.933932023019
 30
0.0
 11
2743.333796409538
 21
2461.683932023019
 31
0.0
  0
TEXT
  5
19E0E
330
199F6
100
AcDbEntity
  8
SUNPOU
100
AcDbText
 10
2698.333796409539
 20
1706.183932023019
 30
0.0
 40
90.0
  1
100
 50
90.0
 41
0.6666666666666666
  7
00
100
AcDbText
  0
LINE
  5
19E0F
330
199F6
100
AcDbEntity
  8
SUNPOU
100
AcDbLine
 10
2743.333796409539
 20
1727.43393202302
 30
0.0
 11
2743.333796409539
 21
1738.683932023019
 31
0.0
  0
LINE
  5
19E10
330
199F6
100
AcDbEntity
  8
SUNPOU
100
AcDbLine
 10
2743.333796409539
 20
1864.933932023019
 30
0.0
 11
2743.333796409539
 21
1853.683932023018
 31
0.0
  0
TEXT
  5
19E11
330
199F6
100
AcDbEntity
  8
SUNPOU
100
AcDbText
 10
2498.333796409538
 20
2014.469646308733
 30
0.0
 40
90.0
  1
480
 50
90.0
 41
0.6666666666666666
  7
00
100
AcDbText
  0
LINE
  5
19E12
330
199F6
100
AcDbEntity
  8
SUNPOU
100
AcDbLine
 10
2543.333796409538
 20
1727.43393202302
 30
0.0
 11
2543.333796409538
 21
1738.683932023019
 31
0.0
  0
LINE
  5
19E13
330
199F6
100
AcDbEntity
  8
SUNPOU
100
AcDbLine
 10
2543.333796409538
 20
2472.933932023019
 30
0.0
 11
2543.333796409538
 21
2461.683932023019
 31
0.0
  0
TEXT
  5
19E14
330
199F6
100
AcDbEntity
  8
SUNPOU
100
AcDbText
 10
3298.619628952101
 20
3332.183932023017
 30
0.0
 40
90.0
  1
400
 41
0.6666666666666666
  7
00
100
AcDbText
  0
LINE
  5
19E15
330
199F6
100
AcDbEntity
  8
SUNPOU
100
AcDbLine
 10
3075.583914666387
 20
3287.183932023017
 30
0.0
 11
3086.833914666386
 21
3287.183932023017
 31
0.0
  0
LINE
  5
19E16
330
199F6
100
AcDbEntity
  8
SUNPOU
100
AcDbLine
 10
3693.083914666386
 20
3287.183932023017
 30
0.0
 11
3681.833914666388
 21
3287.183932023017
 31
0.0
  0
ARC
  5
19E17
330
199F6
100
AcDbEntity
  8
SUNPOU
100
AcDbCircle
 10
3704.333914666387
 20
3287.183932023017
 30
0.0
 40
5.625
100
AcDbArc
 50
0.0
 51
180.0
  0
ARC
  5
19E18
330
199F6
100
AcDbEntity
  8
SUNPOU
100
AcDbCircle
 10
3704.333914666387
 20
3287.183932023017
 30
0.0
 40
5.625
100
AcDbArc
 50
180.0
 51
0.0
  0
ARC
  5
19E19
330
199F6
100
AcDbEntity
  8
SUNPOU
100
AcDbCircle
 10
8984.217031986061
 20
7895.715360473253
 30
0.0
 40
5.625
100
AcDbArc
 50
270.0
 51
90.0
  0
ARC
  5
19E1A
330
199F6
100
AcDbEntity
  8
SUNPOU
100
AcDbCircle
 10
8984.217031986061
 20
7895.715360473253
 30
0.0
 40
5.625
100
AcDbArc
 50
90.0
 51
270.0
  0
ARC
  5
19E1B
330
199F6
100
AcDbEntity
  8
SUNPOU
100
AcDbCircle
 10
8984.217031986061
 20
7095.715360473253
 30
0.0
 40
5.625
100
AcDbArc
 50
90.0
 51
270.0
  0
ARC
  5
19E1C
330
199F6
100
AcDbEntity
  8
SUNPOU
100
AcDbCircle
 10
8984.217031986061
 20
7095.715360473253
 30
0.0
 40
5.625
100
AcDbArc
 50
270.0
 51
90.0
  0
ARC
  5
19E1D
330
199F6
100
AcDbEntity
  8
SUNPOU
100
AcDbCircle
 10
9984.217031986061
 20
8065.715360473253
 30
0.0
 40
5.625
100
AcDbArc
 50
180.0
 51
0.0
  0
ARC
  5
19E1E
330
199F6
100
AcDbEntity
  8
SUNPOU
100
AcDbCircle
 10
9984.217031986061
 20
8065.715360473253
 30
0.0
 40
5.625
100
AcDbArc
 50
0.0
 51
180.0
  0
ARC
  5
19E1F
330
199F6
100
AcDbEntity
  8
SUNPOU
100
AcDbCircle
 10
9184.21703198606
 20
8065.715360473253
 30
0.0
 40
5.625
100
AcDbArc
 50
0.0
 51
180.0
  0
ARC
  5
19E20
330
199F6
100
AcDbEntity
  8
SUNPOU
100
AcDbCircle
 10
9184.21703198606
 20
8065.715360473253
 30
0.0
 40
5.625
100
AcDbArc
 50
180.0
 51
0.0
  0
ARC
  5
19E21
330
199F6
100
AcDbEntity
  8
SUNPOU
100
AcDbCircle
 10
8984.217031986061
 20
8995.715360473253
 30
0.0
 40
5.625
100
AcDbArc
 50
90.0
 51
270.0
  0
ARC
  5
19E22
330
199F6
100
AcDbEntity
  8
SUNPOU
100
AcDbCircle
 10
8984.217031986061
 20
8995.715360473253
 30
0.0
 40
5.625
100
AcDbArc
 50
270.0
 51
90.0
  0
ARC
  5
19E23
330
199F6
100
AcDbEntity
  8
SUNPOU
100
AcDbCircle
 10
8984.217031986061
 20
9595.715360473253
 30
0.0
 40
5.625
100
AcDbArc
 50
270.0
 51
90.0
  0
ARC
  5
19E24
330
199F6
100
AcDbEntity
  8
SUNPOU
100
AcDbCircle
 10
8984.217031986061
 20
9595.715360473253
 30
0.0
 40
5.625
100
AcDbArc
 50
90.0
 51
270.0
  0
ARC
  5
19E25
330
199F6
100
AcDbEntity
  8
SUNPOU
100
AcDbCircle
 10
9884.217031986066
 20
8695.715360473251
 30
0.0
 40
5.625
100
AcDbArc
 50
180.0
 51
0.0
  0
ARC
  5
19E26
330
199F6
100
AcDbEntity
  8
SUNPOU
100
AcDbCircle
 10
9884.217031986066
 20
8695.715360473251
 30
0.0
 40
5.625
100
AcDbArc
 50
0.0
 51
180.0
  0
ARC
  5
19E27
330
199F6
100
AcDbEntity
  8
SUNPOU
100
AcDbCircle
 10
9284.217031986065
 20
8695.715360473251
 30
0.0
 40
5.625
100
AcDbArc
 50
0.0
 51
180.0
  0
ARC
  5
19E28
330
199F6
100
AcDbEntity
  8
SUNPOU
100
AcDbCircle
 10
9284.217031986065
 20
8695.715360473251
 30
0.0
 40
5.625
100
AcDbArc
 50
180.0
 51
0.0
  0
ARC
  5
19E29
330
199F6
100
AcDbEntity
  8
SUNPOU
100
AcDbCircle
 10
10384.21703198606
 20
9595.715360473253
 30
0.0
 40
5.625
100
AcDbArc
 50
270.0
 51
90.0
  0
ARC
  5
19E2A
330
199F6
100
AcDbEntity
  8
SUNPOU
100
AcDbCircle
 10
10384.21703198606
 20
9595.715360473253
 30
0.0
 40
5.625
100
AcDbArc
 50
90.0
 51
270.0
  0
ARC
  5
19E2B
330
199F6
100
AcDbEntity
  8
SUNPOU
100
AcDbCircle
 10
10384.21703198606
 20
9295.715360473252
 30
0.0
 40
5.625
100
AcDbArc
 50
90.0
 51
270.0
  0
ARC
  5
19E2C
330
199F6
100
AcDbEntity
  8
SUNPOU
100
AcDbCircle
 10
10384.21703198606
 20
9295.715360473252
 30
0.0
 40
5.625
100
AcDbArc
 50
270.0
 51
90.0
  0
ARC
  5
19E2D
330
199F6
100
AcDbEntity
  8
SUNPOU
100
AcDbCircle
 10
10384.21703198606
 20
9295.715360473252
 30
0.0
 40
5.625
100
AcDbArc
 50
270.0
 51
90.0
  0
ARC
  5
19E2E
330
199F6
100
AcDbEntity
  8
SUNPOU
100
AcDbCircle
 10
10384.21703198606
 20
9295.715360473252
 30
0.0
 40
5.625
100
AcDbArc
 50
90.0
 51
270.0
  0
ARC
  5
19E2F
330
199F6
100
AcDbEntity
  8
SUNPOU
100
AcDbCircle
 10
10384.21703198606
 20
7495.715360473251
 30
0.0
 40
5.625
100
AcDbArc
 50
90.0
 51
270.0
  0
ARC
  5
19E30
330
199F6
100
AcDbEntity
  8
SUNPOU
100
AcDbCircle
 10
10384.21703198606
 20
7495.715360473251
 30
0.0
 40
5.625
100
AcDbArc
 50
270.0
 51
90.0
  0
ARC
  5
19E31
330
199F6
100
AcDbEntity
  8
SUNPOU
100
AcDbCircle
 10
10384.21703198606
 20
7495.715360473251
 30
0.0
 40
5.625
100
AcDbArc
 50
270.0
 51
90.0
  0
ARC
  5
19E32
330
199F6
100
AcDbEntity
  8
SUNPOU
100
AcDbCircle
 10
10384.21703198606
 20
7495.715360473251
 30
0.0
 40
5.625
100
AcDbArc
 50
90.0
 51
270.0
  0
ARC
  5
19E33
330
199F6
100
AcDbEntity
  8
SUNPOU
100
AcDbCircle
 10
10384.21703198606
 20
5695.715360473252
 30
0.0
 40
5.625
100
AcDbArc
 50
90.0
 51
270.0
  0
ARC
  5
19E34
330
199F6
100
AcDbEntity
  8
SUNPOU
100
AcDbCircle
 10
10384.21703198606
 20
5695.715360473252
 30
0.0
 40
5.625
100
AcDbArc
 50
270.0
 51
90.0
  0
ARC
  5
19E35
330
199F6
100
AcDbEntity
  8
SUNPOU
100
AcDbCircle
 10
10384.21703198606
 20
5695.715360473252
 30
0.0
 40
5.625
100
AcDbArc
 50
270.0
 51
90.0
  0
ARC
  5
19E36
330
199F6
100
AcDbEntity
  8
SUNPOU
100
AcDbCircle
 10
10384.21703198606
 20
5695.715360473252
 30
0.0
 40
5.625
100
AcDbArc
 50
90.0
 51
270.0
  0
ARC
  5
19E37
330
199F6
100
AcDbEntity
  8
SUNPOU
100
AcDbCircle
 10
10384.21703198606
 20
5395.715360473251
 30
0.0
 40
5.625
100
AcDbArc
 50
90.0
 51
270.0
  0
ARC
  5
19E38
330
199F6
100
AcDbEntity
  8
SUNPOU
100
AcDbCircle
 10
10384.21703198606
 20
5395.715360473251
 30
0.0
 40
5.625
100
AcDbArc
 50
270.0
 51
90.0
  0
ARC
  5
19E39
330
199F6
100
AcDbEntity
  8
SUNPOU
100
AcDbCircle
 10
10594.21703198605
 20
9595.715360473253
 30
0.0
 40
5.625
100
AcDbArc
 50
270.0
 51
90.0
  0
ARC
  5
19E3A
330
199F6
100
AcDbEntity
  8
SUNPOU
100
AcDbCircle
 10
10594.21703198605
 20
9595.715360473253
 30
0.0
 40
5.625
100
AcDbArc
 50
90.0
 51
270.0
  0
ARC
  5
19E3B
330
199F6
100
AcDbEntity
  8
SUNPOU
100
AcDbCircle
 10
10594.21703198605
 20
5395.715360473251
 30
0.0
 40
5.625
100
AcDbArc
 50
90.0
 51
270.0
  0
ARC
  5
19E3C
330
199F6
100
AcDbEntity
  8
SUNPOU
100
AcDbCircle
 10
10594.21703198605
 20
5395.715360473251
 30
0.0
 40
5.625
100
AcDbArc
 50
270.0
 51
90.0
  0
ARC
  5
19E3D
330
199F6
100
AcDbEntity
  8
SUNPOU
100
AcDbCircle
 10
9984.217031986061
 20
9995.715360473253
 30
0.0
 40
5.625
100
AcDbArc
 50
180.0
 51
0.0
  0
ARC
  5
19E3E
330
199F6
100
AcDbEntity
  8
SUNPOU
100
AcDbCircle
 10
9984.217031986061
 20
9995.715360473253
 30
0.0
 40
5.625
100
AcDbArc
 50
0.0
 51
180.0
  0
ARC
  5
19E3F
330
199F6
100
AcDbEntity
  8
SUNPOU
100
AcDbCircle
 10
9584.21703198606
 20
9995.715360473253
 30
0.0
 40
5.625
100
AcDbArc
 50
0.0
 51
180.0
  0
ARC
  5
19E40
330
199F6
100
AcDbEntity
  8
SUNPOU
100
AcDbCircle
 10
9584.21703198606
 20
9995.715360473253
 30
0.0
 40
5.625
100
AcDbArc
 50
180.0
 51
0.0
  0
ARC
  5
19E41
330
199F6
100
AcDbEntity
  8
SUNPOU
100
AcDbCircle
 10
9984.217031986061
 20
10205.71536047325
 30
0.0
 40
5.625
100
AcDbArc
 50
180.0
 51
0.0
  0
ARC
  5
19E42
330
199F6
100
AcDbEntity
  8
SUNPOU
100
AcDbCircle
 10
9984.217031986061
 20
10205.71536047325
 30
0.0
 40
5.625
100
AcDbArc
 50
0.0
 51
180.0
  0
ARC
  5
19E43
330
199F6
100
AcDbEntity
  8
SUNPOU
100
AcDbCircle
 10
6384.217031986061
 20
10205.71536047325
 30
0.0
 40
5.625
100
AcDbArc
 50
0.0
 51
180.0
  0
ARC
  5
19E44
330
199F6
100
AcDbEntity
  8
SUNPOU
100
AcDbCircle
 10
6384.217031986061
 20
10205.71536047325
 30
0.0
 40
5.625
100
AcDbArc
 50
180.0
 51
0.0
  0
ARC
  5
19E45
330
199F6
100
AcDbEntity
  8
SUNPOU
100
AcDbCircle
 10
6784.217031986061
 20
9995.715360473253
 30
0.0
 40
5.625
100
AcDbArc
 50
0.0
 51
180.0
  0
ARC
  5
19E46
330
199F6
100
AcDbEntity
  8
SUNPOU
100
AcDbCircle
 10
6784.217031986061
 20
9995.715360473253
 30
0.0
 40
5.625
100
AcDbArc
 50
180.0
 51
0.0
  0
ARC
  5
19E47
330
199F6
100
AcDbEntity
  8
SUNPOU
100
AcDbCircle
 10
9584.21703198606
 20
9995.715360473253
 30
0.0
 40
5.625
100
AcDbArc
 50
180.0
 51
0.0
  0
ARC
  5
19E48
330
199F6
100
AcDbEntity
  8
SUNPOU
100
AcDbCircle
 10
9584.21703198606
 20
9995.715360473253
 30
0.0
 40
5.625
100
AcDbArc
 50
0.0
 51
180.0
  0
ARC
  5
19E49
330
199F6
100
AcDbEntity
  8
SUNPOU
100
AcDbCircle
 10
6384.217031986061
 20
9995.715360473253
 30
0.0
 40
5.625
100
AcDbArc
 50
0.0
 51
180.0
  0
ARC
  5
19E4A
330
199F6
100
AcDbEntity
  8
SUNPOU
100
AcDbCircle
 10
6384.217031986061
 20
9995.715360473253
 30
0.0
 40
5.625
100
AcDbArc
 50
180.0
 51
0.0
  0
ARC
  5
19E4B
330
199F6
100
AcDbEntity
  8
SUNPOU
100
AcDbCircle
 10
6784.217031986061
 20
9995.715360473253
 30
0.0
 40
5.625
100
AcDbArc
 50
180.0
 51
0.0
  0
ARC
  5
19E4C
330
199F6
100
AcDbEntity
  8
SUNPOU
100
AcDbCircle
 10
6784.217031986061
 20
9995.715360473253
 30
0.0
 40
5.625
100
AcDbArc
 50
0.0
 51
180.0
  0
ARC
  5
19E4D
330
199F6
100
AcDbEntity
  8
SUNPOU
100
AcDbCircle
 10
7110.758701212581
 20
3287.183932023014
 30
0.0
 40
5.625
100
AcDbArc
 50
0.0
 51
180.0
  0
ARC
  5
19E4E
330
199F6
100
AcDbEntity
  8
SUNPOU
100
AcDbCircle
 10
7110.758701212581
 20
3287.183932023014
 30
0.0
 40
5.625
100
AcDbArc
 50
180.0
 51
0.0
  0
ARC
  5
19E4F
330
199F6
100
AcDbEntity
  8
SUNPOU
100
AcDbCircle
 10
7750.758701212581
 20
3287.183932023014
 30
0.0
 40
5.625
100
AcDbArc
 50
180.0
 51
0.0
  0
ARC
  5
19E50
330
199F6
100
AcDbEntity
  8
SUNPOU
100
AcDbCircle
 10
7750.758701212581
 20
3287.183932023014
 30
0.0
 40
5.625
100
AcDbArc
 50
0.0
 51
180.0
  0
ARC
  5
19E51
330
199F6
100
AcDbEntity
  8
SUNPOU
100
AcDbCircle
 10
6629.758582955732
 20
1876.183932023016
 30
0.0
 40
5.625
100
AcDbArc
 50
90.0
 51
270.0
  0
ARC
  5
19E52
330
199F6
100
AcDbEntity
  8
SUNPOU
100
AcDbCircle
 10
6629.758582955732
 20
1876.183932023016
 30
0.0
 40
5.625
100
AcDbArc
 50
270.0
 51
90.0
  0
ARC
  5
19E53
330
199F6
100
AcDbEntity
  8
SUNPOU
100
AcDbCircle
 10
6629.758582955734
 20
2484.183932023016
 30
0.0
 40
5.625
100
AcDbArc
 50
270.0
 51
90.0
  0
ARC
  5
19E54
330
199F6
100
AcDbEntity
  8
SUNPOU
100
AcDbCircle
 10
6629.758582955734
 20
2484.183932023016
 30
0.0
 40
5.625
100
AcDbArc
 50
90.0
 51
270.0
  0
ARC
  5
19E55
330
199F6
100
AcDbEntity
  8
SUNPOU
100
AcDbCircle
 10
6629.758582955732
 20
1716.183932023017
 30
0.0
 40
5.625
100
AcDbArc
 50
90.0
 51
270.0
  0
ARC
  5
19E56
330
199F6
100
AcDbEntity
  8
SUNPOU
100
AcDbCircle
 10
6629.758582955732
 20
1716.183932023017
 30
0.0
 40
5.625
100
AcDbArc
 50
270.0
 51
90.0
  0
ARC
  5
19E57
330
199F6
100
AcDbEntity
  8
SUNPOU
100
AcDbCircle
 10
6629.758582955732
 20
1876.183932023018
 30
0.0
 40
5.625
100
AcDbArc
 50
270.0
 51
90.0
  0
ARC
  5
19E58
330
199F6
100
AcDbEntity
  8
SUNPOU
100
AcDbCircle
 10
6629.758582955732
 20
1876.183932023018
 30
0.0
 40
5.625
100
AcDbArc
 50
90.0
 51
270.0
  0
ARC
  5
19E59
330
199F6
100
AcDbEntity
  8
SUNPOU
100
AcDbCircle
 10
6429.758582955732
 20
1716.183932023017
 30
0.0
 40
5.625
100
AcDbArc
 50
90.0
 51
270.0
  0
ARC
  5
19E5A
330
199F6
100
AcDbEntity
  8
SUNPOU
100
AcDbCircle
 10
6429.758582955732
 20
1716.183932023017
 30
0.0
 40
5.625
100
AcDbArc
 50
270.0
 51
90.0
  0
ARC
  5
19E5B
330
199F6
100
AcDbEntity
  8
SUNPOU
100
AcDbCircle
 10
6429.758582955732
 20
2484.183932023016
 30
0.0
 40
5.625
100
AcDbArc
 50
270.0
 51
90.0
  0
ARC
  5
19E5C
330
199F6
100
AcDbEntity
  8
SUNPOU
100
AcDbCircle
 10
6429.758582955732
 20
2484.183932023016
 30
0.0
 40
5.625
100
AcDbArc
 50
90.0
 51
270.0
  0
ARC
  5
19E5D
330
199F6
100
AcDbEntity
  8
SUNPOU
100
AcDbCircle
 10
8390.758701212579
 20
1379.183932023014
 30
0.0
 40
5.625
100
AcDbArc
 50
180.0
 51
0.0
  0
ARC
  5
19E5E
330
199F6
100
AcDbEntity
  8
SUNPOU
100
AcDbCircle
 10
8390.758701212579
 20
1379.183932023014
 30
0.0
 40
5.625
100
AcDbArc
 50
0.0
 51
180.0
  0
ARC
  5
19E5F
330
199F6
100
AcDbEntity
  8
SUNPOU
100
AcDbCircle
 10
7110.758701212581
 20
1379.183932023014
 30
0.0
 40
5.625
100
AcDbArc
 50
0.0
 51
180.0
  0
ARC
  5
19E60
330
199F6
100
AcDbEntity
  8
SUNPOU
100
AcDbCircle
 10
7110.758701212581
 20
1379.183932023014
 30
0.0
 40
5.625
100
AcDbArc
 50
180.0
 51
0.0
  0
ARC
  5
19E61
330
199F6
100
AcDbEntity
  8
SUNPOU
100
AcDbCircle
 10
8550.758701212577
 20
1169.183932023013
 30
0.0
 40
5.625
100
AcDbArc
 50
180.0
 51
0.0
  0
ARC
  5
19E62
330
199F6
100
AcDbEntity
  8
SUNPOU
100
AcDbCircle
 10
8550.758701212577
 20
1169.183932023013
 30
0.0
 40
5.625
100
AcDbArc
 50
0.0
 51
180.0
  0
ARC
  5
19E63
330
199F6
100
AcDbEntity
  8
SUNPOU
100
AcDbCircle
 10
6950.758701212581
 20
1169.183932023013
 30
0.0
 40
5.625
100
AcDbArc
 50
0.0
 51
180.0
  0
ARC
  5
19E64
330
199F6
100
AcDbEntity
  8
SUNPOU
100
AcDbCircle
 10
6950.758701212581
 20
1169.183932023013
 30
0.0
 40
5.625
100
AcDbArc
 50
180.0
 51
0.0
  0
ARC
  5
19E65
330
199F6
100
AcDbEntity
  8
SUNPOU
100
AcDbCircle
 10
4184.333914666384
 20
1379.183932023016
 30
0.0
 40
5.625
100
AcDbArc
 50
180.0
 51
0.0
  0
ARC
  5
19E66
330
199F6
100
AcDbEntity
  8
SUNPOU
100
AcDbCircle
 10
4184.333914666384
 20
1379.183932023016
 30
0.0
 40
5.625
100
AcDbArc
 50
0.0
 51
180.0
  0
ARC
  5
19E67
330
199F6
100
AcDbEntity
  8
SUNPOU
100
AcDbCircle
 10
3224.333914666386
 20
1379.183932023016
 30
0.0
 40
5.625
100
AcDbArc
 50
0.0
 51
180.0
  0
ARC
  5
19E68
330
199F6
100
AcDbEntity
  8
SUNPOU
100
AcDbCircle
 10
3224.333914666386
 20
1379.183932023016
 30
0.0
 40
5.625
100
AcDbArc
 50
180.0
 51
0.0
  0
ARC
  5
19E69
330
199F6
100
AcDbEntity
  8
SUNPOU
100
AcDbCircle
 10
4344.333914666385
 20
1169.183932023016
 30
0.0
 40
5.625
100
AcDbArc
 50
180.0
 51
0.0
  0
ARC
  5
19E6A
330
199F6
100
AcDbEntity
  8
SUNPOU
100
AcDbCircle
 10
4344.333914666385
 20
1169.183932023016
 30
0.0
 40
5.625
100
AcDbArc
 50
0.0
 51
180.0
  0
ARC
  5
19E6B
330
199F6
100
AcDbEntity
  8
SUNPOU
100
AcDbCircle
 10
3064.333914666386
 20
1169.183932023016
 30
0.0
 40
5.625
100
AcDbArc
 50
0.0
 51
180.0
  0
ARC
  5
19E6C
330
199F6
100
AcDbEntity
  8
SUNPOU
100
AcDbCircle
 10
3064.333914666386
 20
1169.183932023016
 30
0.0
 40
5.625
100
AcDbArc
 50
180.0
 51
0.0
  0
ARC
  5
19E6D
330
199F6
100
AcDbEntity
  8
SUNPOU
100
AcDbCircle
 10
2743.333796409538
 20
1876.183932023018
 30
0.0
 40
5.625
100
AcDbArc
 50
90.0
 51
270.0
  0
ARC
  5
19E6E
330
199F6
100
AcDbEntity
  8
SUNPOU
100
AcDbCircle
 10
2743.333796409538
 20
1876.183932023018
 30
0.0
 40
5.625
100
AcDbArc
 50
270.0
 51
90.0
  0
ARC
  5
19E6F
330
199F6
100
AcDbEntity
  8
SUNPOU
100
AcDbCircle
 10
2743.333796409538
 20
2484.183932023019
 30
0.0
 40
5.625
100
AcDbArc
 50
270.0
 51
90.0
  0
ARC
  5
19E70
330
199F6
100
AcDbEntity
  8
SUNPOU
100
AcDbCircle
 10
2743.333796409538
 20
2484.183932023019
 30
0.0
 40
5.625
100
AcDbArc
 50
90.0
 51
270.0
  0
ARC
  5
19E71
330
199F6
100
AcDbEntity
  8
SUNPOU
100
AcDbCircle
 10
2743.333796409539
 20
1716.18393202302
 30
0.0
 40
5.625
100
AcDbArc
 50
90.0
 51
270.0
  0
ARC
  5
19E72
330
199F6
100
AcDbEntity
  8
SUNPOU
100
AcDbCircle
 10
2743.333796409539
 20
1716.18393202302
 30
0.0
 40
5.625
100
AcDbArc
 50
270.0
 51
90.0
  0
ARC
  5
19E73
330
199F6
100
AcDbEntity
  8
SUNPOU
100
AcDbCircle
 10
2743.333796409539
 20
1876.183932023019
 30
0.0
 40
5.625
100
AcDbArc
 50
270.0
 51
90.0
  0
ARC
  5
19E74
330
199F6
100
AcDbEntity
  8
SUNPOU
100
AcDbCircle
 10
2743.333796409539
 20
1876.183932023019
 30
0.0
 40
5.625
100
AcDbArc
 50
90.0
 51
270.0
  0
ARC
  5
19E75
330
199F6
100
AcDbEntity
  8
SUNPOU
100
AcDbCircle
 10
2543.333796409538
 20
1716.18393202302
 30
0.0
 40
5.625
100
AcDbArc
 50
90.0
 51
270.0
  0
ARC
  5
19E76
330
199F6
100
AcDbEntity
  8
SUNPOU
100
AcDbCircle
 10
2543.333796409538
 20
1716.18393202302
 30
0.0
 40
5.625
100
AcDbArc
 50
270.0
 51
90.0
  0
ARC
  5
19E77
330
199F6
100
AcDbEntity
  8
SUNPOU
100
AcDbCircle
 10
2543.333796409538
 20
2484.183932023019
 30
0.0
 40
5.625
100
AcDbArc
 50
270.0
 51
90.0
  0
ARC
  5
19E78
330
199F6
100
AcDbEntity
  8
SUNPOU
100
AcDbCircle
 10
2543.333796409538
 20
2484.183932023019
 30
0.0
 40
5.625
100
AcDbArc
 50
90.0
 51
270.0
  0
ARC
  5
19E79
330
199F6
100
AcDbEntity
  8
SUNPOU
100
AcDbCircle
 10
3064.333914666386
 20
3287.183932023017
 30
0.0
 40
5.625
100
AcDbArc
 50
0.0
 51
180.0
  0
ARC
  5
19E7A
330
199F6
100
AcDbEntity
  8
SUNPOU
100
AcDbCircle
 10
3064.333914666386
 20
3287.183932023017
 30
0.0
 40
5.625
100
AcDbArc
 50
180.0
 51
0.0
  0
ARC
  5
19E7B
330
199F6
100
AcDbEntity
  8
SUNPOU
100
AcDbCircle
 10
3704.333914666387
 20
3287.183932023017
 30
0.0
 40
5.625
100
AcDbArc
 50
180.0
 51
0.0
  0
ARC
  5
19E7C
330
199F6
100
AcDbEntity
  8
SUNPOU
100
AcDbCircle
 10
3704.333914666387
 20
3287.183932023017
 30
0.0
 40
5.625
100
AcDbArc
 50
0.0
 51
180.0
  0
ARC
  5
19E7D
330
199F6
100
AcDbEntity
  8
HIKIDASHI
100
AcDbCircle
 10
7034.163526321626
 20
2884.568660545874
 30
0.0
 40
74.66417910452284
100
AcDbArc
 50
164.8596129850915
 51
237.5045002941574
  0
ARC
  5
19E7E
330
199F6
100
AcDbEntity
  8
HIKIDASHI
100
AcDbCircle
 10
6970.739732275323
 20
2901.729684030359
 30
0.0
 40
8.959701492542743
100
AcDbArc
 50
15.14038701504826
 51
164.8596129849795
  0
ARC
  5
19E7F
330
199F6
100
AcDbEntity
  8
HIKIDASHI
100
AcDbCircle
 10
2907.738739775433
 20
2884.568660545875
 30
0.0
 40
74.66417910452284
100
AcDbArc
 50
164.859612985099
 51
237.5045002941329
  0
ARC
  5
19E80
330
199F6
100
AcDbEntity
  8
HIKIDASHI
100
AcDbCircle
 10
2844.314945729129
 20
2901.72968403036
 30
0.0
 40
8.959701492542743
100
AcDbArc
 50
15.14038701504826
 51
164.8596129849795
  0
LINE
  5
19E81
330
199F6
100
AcDbEntity
  8
HIKIDASHI
100
AcDbLine
 10
7373.188673061545
 20
2549.657897273409
 30
0.0
 11
7061.08797807352
 21
2994.183932023012
 31
0.0
1001
ACAD
1000
DSTYLE
1002
{
1070
   147
1040
1.0
1070
    77
1070
     0
1070
   144
1040
0.625
1002
}
  0
LINE
  5
19E82
330
199F6
100
AcDbEntity
  8
HIKIDASHI
100
AcDbLine
 10
7362.276345519813
 20
2541.996377489465
 30
0.0
 11
7419.1577917652
 21
2484.183932023017
 31
0.0
  0
LINE
  5
19E83
330
199F6
100
AcDbEntity
  8
HIKIDASHI
100
AcDbLine
 10
7419.1577917652
 20
2484.183932023017
 30
0.0
 11
7384.101000603277
 21
2557.319417057351
 31
0.0
  0
SOLID
  5
19E84
330
199F6
100
AcDbEntity
  8
HIKIDASHI
100
AcDbTrace
 10
7362.276345519813
 20
2541.996377489465
 30
0.0
 11
7384.101000603277
 21
2557.319417057351
 31
0.0
 12
7419.1577917652
 22
2484.183932023017
 32
0.0
 13
7419.1577917652
 23
2484.183932023017
 33
0.0
  0
LINE
  5
19E85
330
199F6
100
AcDbEntity
  8
HIKIDASHI
100
AcDbLine
 10
7384.101000603277
 20
2557.319417057351
 30
0.0
 11
7362.276345519813
 21
2541.996377489465
 31
0.0
  0
LINE
  5
19E86
330
199F6
100
AcDbEntity
  8
HIKIDASHI
100
AcDbLine
 10
7528.904070814292
 20
2046.342848554359
 30
0.0
 11
7047.682504043535
 21
2754.183932023012
 31
0.0
1001
ACAD
1000
DSTYLE
1002
{
1070
   147
1040
1.0
1070
    77
1070
     0
1070
   144
1040
0.625
1002
}
  0
LINE
  5
19E87
330
199F6
100
AcDbEntity
  8
HIKIDASHI
100
AcDbLine
 10
7517.877584725734
 20
2038.846557316913
 30
0.0
 11
7573.881818238977
 21
1980.183932023017
 31
0.0
  0
LINE
  5
19E88
330
199F6
100
AcDbEntity
  8
HIKIDASHI
100
AcDbLine
 10
7573.881818238977
 20
1980.183932023017
 30
0.0
 11
7539.93055690285
 21
2053.839139791807
 31
0.0
  0
SOLID
  5
19E89
330
199F6
100
AcDbEntity
  8
HIKIDASHI
100
AcDbTrace
 10
7517.877584725734
 20
2038.846557316913
 30
0.0
 11
7539.93055690285
 21
2053.839139791807
 31
0.0
 12
7573.881818238977
 22
1980.183932023017
 32
0.0
 13
7573.881818238977
 23
1980.183932023017
 33
0.0
  0
LINE
  5
19E8A
330
199F6
100
AcDbEntity
  8
HIKIDASHI
100
AcDbLine
 10
7539.93055690285
 20
2053.839139791807
 30
0.0
 11
7517.877584725734
 21
2038.846557316913
 31
0.0
  0
ARC
  5
19E8B
330
199F6
100
AcDbEntity
  8
HIKIDASHI
100
AcDbCircle
 10
6908.495464764758
 20
2885.748787905465
 30
0.0
 40
74.66417910452253
100
AcDbArc
 50
301.7712278330702
 51
15.14038701490934
  0
LINE
  5
19E8C
330
199F6
100
AcDbEntity
  8
HIKIDASHI
100
AcDbLine
 10
6916.549902271178
 20
1707.866865745499
 30
0.0
 11
6725.592096228623
 21
1304.183932023017
 31
0.0
1001
ACAD
1000
DSTYLE
1002
{
1070
   147
1040
1.0
1070
    77
1070
     0
1070
   144
1040
0.625
1002
}
  0
LINE
  5
19E8D
330
199F6
100
AcDbEntity
  8
HIKIDASHI
100
AcDbLine
 10
6928.602746650764
 20
1702.165399255266
 30
0.0
 11
6950.758701212581
 21
1780.183932023017
 31
0.0
  0
LINE
  5
19E8E
330
199F6
100
AcDbEntity
  8
HIKIDASHI
100
AcDbLine
 10
6950.758701212581
 20
1780.183932023017
 30
0.0
 11
6904.497057891591
 21
1713.568332235734
 31
0.0
  0
SOLID
  5
19E8F
330
199F6
100
AcDbEntity
  8
HIKIDASHI
100
AcDbTrace
 10
6928.602746650764
 20
1702.165399255266
 30
0.0
 11
6904.497057891591
 21
1713.568332235734
 31
0.0
 12
6950.758701212581
 22
1780.183932023017
 32
0.0
 13
6950.758701212581
 23
1780.183932023017
 33
0.0
  0
LINE
  5
19E90
330
199F6
100
AcDbEntity
  8
HIKIDASHI
100
AcDbLine
 10
6904.497057891591
 20
1713.568332235734
 30
0.0
 11
6928.602746650764
 21
1702.165399255266
 31
0.0
  0
LINE
  5
19E91
330
199F6
100
AcDbEntity
  8
HIKIDASHI
100
AcDbLine
 10
8512.255537304527
 20
2235.555264269677
 30
0.0
 11
8604.261733917331
 21
1961.931554141242
 31
0.0
1001
ACAD
1000
DSTYLE
1002
{
1070
   147
1040
1.0
1070
    77
1070
     0
1070
   144
1040
0.625
1070
   173
1070
     0
1070
   341
1005
125B0
1002
}
  0
ARC
  5
19E92
330
199F6
100
AcDbEntity
  8
HIKIDASHI
100
AcDbCircle
 10
8463.573051272508
 20
2317.583646062626
 30
0.0
 40
24.0
100
AcDbArc
 50
232.1425703309788
 51
345.0279508071377
  0
ARC
  5
19E93
330
199F6
100
AcDbEntity
  8
HIKIDASHI
100
AcDbCircle
 10
8509.943545927438
 20
2305.182951507191
 30
0.0
 40
24.0
100
AcDbArc
 50
52.14257033097887
 51
165.0279508071375
  0
LINE
  5
19E94
330
199F6
100
AcDbEntity
  8
HIKIDASHI
100
AcDbLine
 10
8486.758298599971
 20
2311.383298784909
 30
0.0
 11
8512.255537304531
 21
2235.555264269661
 31
0.0
  0
LINE
  5
19E95
330
199F6
100
AcDbEntity
  8
HIKIDASHI
100
AcDbLine
 10
4305.830750758332
 20
2235.555264269682
 30
0.0
 11
4397.836947371135
 21
1961.931554141245
 31
0.0
1001
ACAD
1000
DSTYLE
1002
{
1070
   147
1040
1.0
1070
    77
1070
     0
1070
   144
1040
0.625
1070
   173
1070
     0
1070
   341
1005
125B0
1002
}
  0
ARC
  5
19E96
330
199F6
100
AcDbEntity
  8
HIKIDASHI
100
AcDbCircle
 10
4257.148264726313
 20
2317.58364606263
 30
0.0
 40
24.0
100
AcDbArc
 50
232.1425703309794
 51
345.0279508071377
  0
ARC
  5
19E97
330
199F6
100
AcDbEntity
  8
HIKIDASHI
100
AcDbCircle
 10
4303.51875938124
 20
2305.182951507194
 30
0.0
 40
24.0
100
AcDbArc
 50
52.1425703309794
 51
165.0279508071375
  0
LINE
  5
19E98
330
199F6
100
AcDbEntity
  8
HIKIDASHI
100
AcDbLine
 10
4280.333512053775
 20
2311.383298784912
 30
0.0
 11
4305.830750758338
 21
2235.555264269664
 31
0.0
  0
LINE
  5
19E99
330
199F6
100
AcDbEntity
  8
HIKIDASHI
100
AcDbLine
 10
3030.125115724983
 20
1707.866865745504
 30
0.0
 11
2839.167309682428
 21
1304.183932023019
 31
0.0
1001
ACAD
1000
DSTYLE
1002
{
1070
   147
1040
1.0
1070
    77
1070
     0
1070
   144
1040
0.625
1002
}
  0
LINE
  5
19E9A
330
199F6
100
AcDbEntity
  8
HIKIDASHI
100
AcDbLine
 10
3042.177960104569
 20
1702.165399255267
 30
0.0
 11
3064.333914666386
 21
1780.183932023019
 31
0.0
  0
LINE
  5
19E9B
330
199F6
100
AcDbEntity
  8
HIKIDASHI
100
AcDbLine
 10
3064.333914666386
 20
1780.183932023019
 30
0.0
 11
3018.072271345396
 21
1713.568332235738
 31
0.0
  0
SOLID
  5
19E9C
330
199F6
100
AcDbEntity
  8
HIKIDASHI
100
AcDbTrace
 10
3042.177960104569
 20
1702.165399255267
 30
0.0
 11
3018.072271345396
 21
1713.568332235738
 31
0.0
 12
3064.333914666386
 22
1780.183932023019
 32
0.0
 13
3064.333914666386
 23
1780.183932023019
 33
0.0
  0
LINE
  5
19E9D
330
199F6
100
AcDbEntity
  8
HIKIDASHI
100
AcDbLine
 10
3018.072271345396
 20
1713.568332235738
 30
0.0
 11
3042.177960104569
 21
1702.165399255267
 31
0.0
  0
LINE
  5
19E9E
330
199F6
100
AcDbEntity
  8
HIKIDASHI
100
AcDbLine
 10
3382.119677299271
 20
2541.104574300084
 30
0.0
 11
2934.663191527326
 21
2994.183932023015
 31
0.0
1001
ACAD
1000
DSTYLE
1002
{
1070
   147
1040
1.0
1070
    77
1070
     0
1070
   144
1040
0.625
1002
}
  0
LINE
  5
19E9F
330
199F6
100
AcDbEntity
  8
HIKIDASHI
100
AcDbLine
 10
3372.632903586426
 20
2531.735534738897
 30
0.0
 11
3438.333914666386
 21
2484.183932023019
 31
0.0
  0
LINE
  5
19EA0
330
199F6
100
AcDbEntity
  8
HIKIDASHI
100
AcDbLine
 10
3438.333914666386
 20
2484.183932023019
 30
0.0
 11
3391.606451012115
 21
2550.47361386127
 31
0.0
  0
SOLID
  5
19EA1
330
199F6
100
AcDbEntity
  8
HIKIDASHI
100
AcDbTrace
 10
3372.632903586426
 20
2531.735534738897
 30
0.0
 11
3391.606451012115
 21
2550.47361386127
 31
0.0
 12
3438.333914666386
 22
2484.183932023019
 32
0.0
 13
3438.333914666386
 23
2484.183932023019
 33
0.0
  0
LINE
  5
19EA2
330
199F6
100
AcDbEntity
  8
HIKIDASHI
100
AcDbLine
 10
3391.606451012115
 20
2550.47361386127
 30
0.0
 11
3372.632903586426
 21
2531.735534738897
 31
0.0
  0
LINE
  5
19EA3
330
199F6
100
AcDbEntity
  8
HIKIDASHI
100
AcDbLine
 10
3488.463040470064
 20
2042.737076683335
 30
0.0
 11
2921.257717497342
 21
2754.183932023015
 31
0.0
1001
ACAD
1000
DSTYLE
1002
{
1070
   147
1040
1.0
1070
    77
1070
     0
1070
   144
1040
0.625
1002
}
  0
LINE
  5
19EA4
330
199F6
100
AcDbEntity
  8
HIKIDASHI
100
AcDbLine
 10
3478.037516360011
 20
2034.425264317282
 30
0.0
 11
3538.333914666386
 21
1980.183932023019
 31
0.0
  0
LINE
  5
19EA5
330
199F6
100
AcDbEntity
  8
HIKIDASHI
100
AcDbLine
 10
3538.333914666386
 20
1980.183932023019
 30
0.0
 11
3498.888564580116
 21
2051.048889049388
 31
0.0
  0
SOLID
  5
19EA6
330
199F6
100
AcDbEntity
  8
HIKIDASHI
100
AcDbTrace
 10
3478.037516360011
 20
2034.425264317282
 30
0.0
 11
3498.888564580116
 21
2051.048889049388
 31
0.0
 12
3538.333914666386
 22
1980.183932023019
 32
0.0
 13
3538.333914666386
 23
1980.183932023019
 33
0.0
  0
LINE
  5
19EA7
330
199F6
100
AcDbEntity
  8
HIKIDASHI
100
AcDbLine
 10
3498.888564580116
 20
2051.048889049388
 30
0.0
 11
3478.037516360011
 21
2034.425264317282
 31
0.0
  0
ARC
  5
19EA8
330
199F6
100
AcDbEntity
  8
HIKIDASHI
100
AcDbCircle
 10
2782.07067821856
 20
2885.748787905465
 30
0.0
 40
74.66417910452276
100
AcDbArc
 50
301.7712278330706
 51
15.14038701490924
  0
LINE
  5
19EA9
330
199F6
100
AcDbEntity
  8
DOMAKON
100
AcDbLine
 10
6384.217031986061
 20
5395.715360473253
 30
0.0
 11
9984.217031986061
 21
5395.715360473253
 31
0.0
  0
LINE
  5
19EAA
330
199F6
100
AcDbEntity
  8
DOMAKON
100
AcDbLine
 10
9984.217031986061
 20
5395.715360473253
 30
0.0
 11
9984.217031986061
 21
9595.715360473253
 31
0.0
  0
LINE
  5
19EAB
330
199F6
100
AcDbEntity
  8
DOMAKON
100
AcDbLine
 10
9984.217031986061
 20
9595.715360473253
 30
0.0
 11
6384.217031986061
 21
9595.715360473253
 31
0.0
  0
LINE
  5
19EAC
330
199F6
100
AcDbEntity
  8
DOMAKON
100
AcDbLine
 10
6384.217031986061
 20
9595.715360473253
 30
0.0
 11
6384.217031986061
 21
5395.715360473253
 31
0.0
  0
LINE
  5
19EAD
330
199F6
100
AcDbEntity
  8
KISO
100
AcDbLine
 10
6384.217031986061
 20
7095.715360473253
 30
0.0
 11
7184.217031986062
 21
7095.715360473253
 31
0.0
  0
LINE
  5
19EAE
330
199F6
100
AcDbEntity
  8
KISO
100
AcDbLine
 10
7184.217031986062
 20
7095.715360473253
 30
0.0
 11
7184.217031986062
 21
7895.715360473253
 31
0.0
  0
LINE
  5
19EAF
330
199F6
100
AcDbEntity
  8
KISO
100
AcDbLine
 10
7184.217031986062
 20
7895.715360473253
 30
0.0
 11
6384.217031986061
 21
7895.715360473253
 31
0.0
  0
LINE
  5
19EB0
330
199F6
100
AcDbEntity
  8
KISO
100
AcDbLine
 10
6384.217031986061
 20
7895.715360473253
 30
0.0
 11
6384.217031986061
 21
7095.715360473253
 31
0.0
  0
LINE
  5
19EB1
330
199F6
100
AcDbEntity
  8
KISO
100
AcDbLine
 10
9184.21703198606
 20
7095.715360473253
 30
0.0
 11
9984.217031986061
 21
7095.715360473253
 31
0.0
  0
LINE
  5
19EB2
330
199F6
100
AcDbEntity
  8
KISO
100
AcDbLine
 10
9984.217031986061
 20
7095.715360473253
 30
0.0
 11
9984.217031986061
 21
7895.715360473253
 31
0.0
  0
LINE
  5
19EB3
330
199F6
100
AcDbEntity
  8
KISO
100
AcDbLine
 10
9984.217031986061
 20
7895.715360473253
 30
0.0
 11
9184.21703198606
 21
7895.715360473253
 31
0.0
  0
LINE
  5
19EB4
330
199F6
100
AcDbEntity
  8
KISO
100
AcDbLine
 10
9184.21703198606
 20
7895.715360473253
 30
0.0
 11
9184.21703198606
 21
7095.715360473253
 31
0.0
  0
LINE
  5
19EB5
330
199F6
100
AcDbEntity
  8
YANE
  6
2PL-L
 62
     6
100
AcDbLine
 10
9980.217031986059
 20
5344.715360473252
 30
0.0
 11
6388.21703198606
 21
5344.715360473252
 31
0.0
  0
LINE
  5
19EB6
330
199F6
100
AcDbEntity
  8
YANE
  6
2PL-L
 62
     6
100
AcDbLine
 10
6388.21703198606
 20
5344.715360473252
 30
0.0
 11
6388.21703198606
 21
9646.715360473251
 31
0.0
  0
LINE
  5
19EB7
330
199F6
100
AcDbEntity
  8
YANE
  6
2PL-L
 62
     6
100
AcDbLine
 10
6388.21703198606
 20
9646.715360473251
 30
0.0
 11
9980.217031986059
 21
9646.715360473251
 31
0.0
  0
LINE
  5
19EB8
330
199F6
100
AcDbEntity
  8
YANE
  6
2PL-L
 62
     6
100
AcDbLine
 10
9980.217031986059
 20
9646.715360473251
 30
0.0
 11
9980.217031986059
 21
5344.715360473252
 31
0.0
  0
LINE
  5
19EB9
330
199F6
100
AcDbEntity
  8
KISO
100
AcDbLine
 10
6484.217031986061
 20
5395.715360473253
 30
0.0
 11
7084.217031986061
 21
5395.715360473253
 31
0.0
  0
LINE
  5
19EBA
330
199F6
100
AcDbEntity
  8
KISO
100
AcDbLine
 10
7084.217031986061
 20
5395.715360473253
 30
0.0
 11
7084.217031986061
 21
5995.715360473252
 31
0.0
  0
LINE
  5
19EBB
330
199F6
100
AcDbEntity
  8
KISO
100
AcDbLine
 10
7084.217031986061
 20
5995.715360473252
 30
0.0
 11
6484.217031986061
 21
5995.715360473252
 31
0.0
  0
LINE
  5
19EBC
330
199F6
100
AcDbEntity
  8
KISO
100
AcDbLine
 10
6484.217031986061
 20
5995.715360473252
 30
0.0
 11
6484.217031986061
 21
5395.715360473253
 31
0.0
  0
LINE
  5
19EBD
330
199F6
100
AcDbEntity
  8
KISO
100
AcDbLine
 10
6484.217031986061
 20
8995.715360473253
 30
0.0
 11
7084.217031986061
 21
8995.715360473253
 31
0.0
  0
LINE
  5
19EBE
330
199F6
100
AcDbEntity
  8
KISO
100
AcDbLine
 10
7084.217031986061
 20
8995.715360473253
 30
0.0
 11
7084.217031986061
 21
9595.715360473253
 31
0.0
  0
LINE
  5
19EBF
330
199F6
100
AcDbEntity
  8
KISO
100
AcDbLine
 10
7084.217031986061
 20
9595.715360473253
 30
0.0
 11
6484.217031986061
 21
9595.715360473253
 31
0.0
  0
LINE
  5
19EC0
330
199F6
100
AcDbEntity
  8
KISO
100
AcDbLine
 10
6484.217031986061
 20
9595.715360473253
 30
0.0
 11
6484.217031986061
 21
8995.715360473253
 31
0.0
  0
LINE
  5
19EC1
330
199F6
100
AcDbEntity
  8
KISO
100
AcDbLine
 10
9884.217031986066
 20
8995.715360473253
 30
0.0
 11
9284.217031986065
 21
8995.715360473253
 31
0.0
  0
LINE
  5
19EC2
330
199F6
100
AcDbEntity
  8
KISO
100
AcDbLine
 10
9284.217031986065
 20
8995.715360473253
 30
0.0
 11
9284.217031986065
 21
9595.715360473253
 31
0.0
  0
LINE
  5
19EC3
330
199F6
100
AcDbEntity
  8
KISO
100
AcDbLine
 10
9284.217031986065
 20
9595.715360473253
 30
0.0
 11
9884.217031986066
 21
9595.715360473253
 31
0.0
  0
LINE
  5
19EC4
330
199F6
100
AcDbEntity
  8
KISO
100
AcDbLine
 10
9884.217031986066
 20
9595.715360473253
 30
0.0
 11
9884.217031986066
 21
8995.715360473253
 31
0.0
  0
LINE
  5
19EC5
330
199F6
100
AcDbEntity
  8
KISO
100
AcDbLine
 10
9884.217031986066
 20
5395.715360473253
 30
0.0
 11
9284.217031986065
 21
5395.715360473253
 31
0.0
  0
LINE
  5
19EC6
330
199F6
100
AcDbEntity
  8
KISO
100
AcDbLine
 10
9284.217031986065
 20
5395.715360473253
 30
0.0
 11
9284.217031986065
 21
5995.715360473252
 31
0.0
  0
LINE
  5
19EC7
330
199F6
100
AcDbEntity
  8
KISO
100
AcDbLine
 10
9284.217031986065
 20
5995.715360473252
 30
0.0
 11
9884.217031986066
 21
5995.715360473252
 31
0.0
  0
LINE
  5
19EC8
330
199F6
100
AcDbEntity
  8
KISO
100
AcDbLine
 10
9884.217031986066
 20
5995.715360473252
 30
0.0
 11
9884.217031986066
 21
5395.715360473253
 31
0.0
  0
LINE
  5
19EC9
330
199F6
100
AcDbEntity
  8
U1
100
AcDbLine
 10
9590.417031986062
 20
9265.515360473251
 30
0.0
 11
9558.017031986059
 21
9265.515360473251
 31
0.0
  0
LINE
  5
19ECA
330
199F6
100
AcDbEntity
  8
U1
100
AcDbLine
 10
9558.017031986059
 20
9325.915360473253
 30
0.0
 11
9610.41703198606
 21
9325.915360473253
 31
0.0
  0
ARC
  5
19ECB
330
199F6
100
AcDbEntity
  8
U1
100
AcDbCircle
 10
9558.017031986059
 20
9321.915360473253
 30
0.0
 40
4.0
100
AcDbArc
 50
90.0
 51
180.0
  0
ARC
  5
19ECC
330
199F6
100
AcDbEntity
  8
U1
100
AcDbCircle
 10
9558.017031986059
 20
9269.515360473251
 30
0.0
 40
4.0
100
AcDbArc
 50
180.0
 51
270.0
  0
LINE
  5
19ECD
330
199F6
100
AcDbEntity
  8
U1
100
AcDbLine
 10
9554.01703198606
 20
9269.515360473251
 30
0.0
 11
9554.01703198606
 21
9321.915360473253
 31
0.0
  0
ARC
  5
19ECE
330
199F6
100
AcDbEntity
  8
U1
100
AcDbCircle
 10
9610.41703198606
 20
9321.915360473253
 30
0.0
 40
4.0
100
AcDbArc
 50
0.0
 51
90.0
  0
ARC
  5
19ECF
330
199F6
100
AcDbEntity
  8
U1
100
AcDbCircle
 10
9590.417031986062
 20
9269.515360473251
 30
0.0
 40
4.0
100
AcDbArc
 50
270.0
 51
0.0
  0
ARC
  5
19ED0
330
199F6
100
AcDbEntity
  8
U1
100
AcDbCircle
 10
9597.86703198606
 20
9278.765360473251
 30
0.0
 40
1.149999999999977
100
AcDbArc
 50
0.0
 51
180.0
  0
LINE
  5
19ED1
330
199F6
100
AcDbEntity
  8
U1
100
AcDbLine
 10
9601.317031986061
 20
9271.215360473252
 30
0.0
 11
9601.317031986061
 21
9278.765360473251
 31
0.0
  0
LINE
  5
19ED2
330
199F6
100
AcDbEntity
  8
U1
100
AcDbLine
 10
9599.017031986059
 20
9271.215360473252
 30
0.0
 11
9601.317031986061
 21
9271.215360473252
 31
0.0
  0
LINE
  5
19ED3
330
199F6
100
AcDbEntity
  8
U1
100
AcDbLine
 10
9596.717031986059
 20
9278.215360473252
 30
0.0
 11
9599.017031986059
 21
9278.215360473252
 31
0.0
  0
ARC
  5
19ED4
330
199F6
100
AcDbEntity
  8
U1
100
AcDbCircle
 10
9597.86703198606
 20
9278.765360473251
 30
0.0
 40
3.450000000000044
100
AcDbArc
 50
0.0
 51
180.0
  0
LINE
  5
19ED5
330
199F6
100
AcDbEntity
  8
U1
100
AcDbLine
 10
9596.717031986059
 20
9278.765360473251
 30
0.0
 11
9596.717031986059
 21
9269.515360473251
 31
0.0
  0
LINE
  5
19ED6
330
199F6
100
AcDbEntity
  8
U1
100
AcDbLine
 10
9599.017031986059
 20
9269.515360473251
 30
0.0
 11
9599.017031986059
 21
9278.765360473251
 31
0.0
  0
LINE
  5
19ED7
330
199F6
100
AcDbEntity
  8
U1
100
AcDbLine
 10
9594.417031986059
 20
9278.765360473251
 30
0.0
 11
9594.417031986059
 21
9269.515360473251
 31
0.0
  0
ARC
  5
19ED8
330
199F6
100
AcDbEntity
  8
U1
100
AcDbCircle
 10
9610.41703198606
 20
9269.515360473251
 30
0.0
 40
4.0
100
AcDbArc
 50
270.0
 51
0.0
  0
LINE
  5
19ED9
330
199F6
100
AcDbEntity
  8
U1
100
AcDbLine
 10
9610.41703198606
 20
9265.515360473251
 30
0.0
 11
9603.017031986059
 21
9265.515360473251
 31
0.0
  0
ARC
  5
19EDA
330
199F6
100
AcDbEntity
  8
U1
100
AcDbCircle
 10
9603.017031986059
 20
9269.515360473251
 30
0.0
 40
4.0
100
AcDbArc
 50
180.0
 51
270.0
  0
LINE
  5
19EDB
330
199F6
100
AcDbEntity
  8
U1
100
AcDbLine
 10
9614.417031986061
 20
9321.915360473253
 30
0.0
 11
9614.417031986061
 21
9269.515360473251
 31
0.0
  0
LINE
  5
19EDC
330
199F6
100
AcDbEntity
  8
U1
100
AcDbLine
 10
6778.01703198606
 20
9265.515360473251
 30
0.0
 11
6810.41703198606
 21
9265.515360473251
 31
0.0
  0
LINE
  5
19EDD
330
199F6
100
AcDbEntity
  8
U1
100
AcDbLine
 10
6810.41703198606
 20
9325.915360473253
 30
0.0
 11
6758.01703198606
 21
9325.915360473253
 31
0.0
  0
ARC
  5
19EDE
330
199F6
100
AcDbEntity
  8
U1
100
AcDbCircle
 10
6810.41703198606
 20
9321.915360473253
 30
0.0
 40
4.0
100
AcDbArc
 50
0.0
 51
90.0
  0
ARC
  5
19EDF
330
199F6
100
AcDbEntity
  8
U1
100
AcDbCircle
 10
6810.41703198606
 20
9269.515360473251
 30
0.0
 40
4.0
100
AcDbArc
 50
270.0
 51
0.0
  0
LINE
  5
19EE0
330
199F6
100
AcDbEntity
  8
U1
100
AcDbLine
 10
6814.417031986059
 20
9269.515360473251
 30
0.0
 11
6814.417031986059
 21
9321.915360473253
 31
0.0
  0
ARC
  5
19EE1
330
199F6
100
AcDbEntity
  8
U1
100
AcDbCircle
 10
6758.01703198606
 20
9321.915360473253
 30
0.0
 40
4.0
100
AcDbArc
 50
90.0
 51
180.0
  0
ARC
  5
19EE2
330
199F6
100
AcDbEntity
  8
U1
100
AcDbCircle
 10
6778.01703198606
 20
9269.515360473251
 30
0.0
 40
4.0
100
AcDbArc
 50
180.0
 51
270.0
  0
ARC
  5
19EE3
330
199F6
100
AcDbEntity
  8
U1
100
AcDbCircle
 10
6770.567031986058
 20
9278.765360473251
 30
0.0
 40
1.149999999999977
100
AcDbArc
 50
0.0
 51
180.0
  0
LINE
  5
19EE4
330
199F6
100
AcDbEntity
  8
U1
100
AcDbLine
 10
6767.117031986059
 20
9271.215360473252
 30
0.0
 11
6767.117031986059
 21
9278.765360473251
 31
0.0
  0
LINE
  5
19EE5
330
199F6
100
AcDbEntity
  8
U1
100
AcDbLine
 10
6769.41703198606
 20
9271.215360473252
 30
0.0
 11
6767.117031986059
 21
9271.215360473252
 31
0.0
  0
LINE
  5
19EE6
330
199F6
100
AcDbEntity
  8
U1
100
AcDbLine
 10
6771.71703198606
 20
9278.215360473252
 30
0.0
 11
6769.41703198606
 21
9278.215360473252
 31
0.0
  0
ARC
  5
19EE7
330
199F6
100
AcDbEntity
  8
U1
100
AcDbCircle
 10
6770.567031986058
 20
9278.765360473251
 30
0.0
 40
3.450000000000044
100
AcDbArc
 50
0.0
 51
180.0
  0
LINE
  5
19EE8
330
199F6
100
AcDbEntity
  8
U1
100
AcDbLine
 10
6771.71703198606
 20
9278.765360473251
 30
0.0
 11
6771.717031986061
 21
9269.515360473251
 31
0.0
  0
LINE
  5
19EE9
330
199F6
100
AcDbEntity
  8
U1
100
AcDbLine
 10
6769.41703198606
 20
9269.515360473251
 30
0.0
 11
6769.41703198606
 21
9278.765360473251
 31
0.0
  0
LINE
  5
19EEA
330
199F6
100
AcDbEntity
  8
U1
100
AcDbLine
 10
6774.017031986059
 20
9278.765360473251
 30
0.0
 11
6774.017031986059
 21
9269.515360473251
 31
0.0
  0
ARC
  5
19EEB
330
199F6
100
AcDbEntity
  8
U1
100
AcDbCircle
 10
6758.017031986061
 20
9269.515360473251
 30
0.0
 40
4.0
100
AcDbArc
 50
180.0
 51
270.0
  0
LINE
  5
19EEC
330
199F6
100
AcDbEntity
  8
U1
100
AcDbLine
 10
6758.017031986061
 20
9265.515360473251
 30
0.0
 11
6765.417031986061
 21
9265.515360473251
 31
0.0
  0
ARC
  5
19EED
330
199F6
100
AcDbEntity
  8
U1
100
AcDbCircle
 10
6765.417031986061
 20
9269.515360473251
 30
0.0
 40
4.0
100
AcDbArc
 50
270.0
 51
0.0
  0
LINE
  5
19EEE
330
199F6
100
AcDbEntity
  8
U1
100
AcDbLine
 10
6754.017031986061
 20
9321.915360473253
 30
0.0
 11
6754.017031986061
 21
9269.515360473251
 31
0.0
  0
LINE
  5
19EEF
330
199F6
100
AcDbEntity
  8
U1
100
AcDbLine
 10
6778.01703198606
 20
5725.915360473251
 30
0.0
 11
6810.41703198606
 21
5725.915360473251
 31
0.0
  0
LINE
  5
19EF0
330
199F6
100
AcDbEntity
  8
U1
100
AcDbLine
 10
6810.41703198606
 20
5665.51536047325
 30
0.0
 11
6758.01703198606
 21
5665.51536047325
 31
0.0
  0
ARC
  5
19EF1
330
199F6
100
AcDbEntity
  8
U1
100
AcDbCircle
 10
6810.41703198606
 20
5669.515360473249
 30
0.0
 40
4.0
100
AcDbArc
 50
270.0
 51
0.0
  0
ARC
  5
19EF2
330
199F6
100
AcDbEntity
  8
U1
100
AcDbCircle
 10
6810.41703198606
 20
5721.915360473252
 30
0.0
 40
4.0
100
AcDbArc
 50
0.0
 51
90.0
  0
LINE
  5
19EF3
330
199F6
100
AcDbEntity
  8
U1
100
AcDbLine
 10
6814.417031986059
 20
5721.915360473252
 30
0.0
 11
6814.417031986059
 21
5669.515360473249
 31
0.0
  0
ARC
  5
19EF4
330
199F6
100
AcDbEntity
  8
U1
100
AcDbCircle
 10
6758.01703198606
 20
5669.515360473249
 30
0.0
 40
4.0
100
AcDbArc
 50
180.0
 51
270.0
  0
ARC
  5
19EF5
330
199F6
100
AcDbEntity
  8
U1
100
AcDbCircle
 10
6778.01703198606
 20
5721.915360473252
 30
0.0
 40
4.0
100
AcDbArc
 50
90.0
 51
180.0
  0
ARC
  5
19EF6
330
199F6
100
AcDbEntity
  8
U1
100
AcDbCircle
 10
6770.567031986058
 20
5712.665360473252
 30
0.0
 40
1.149999999999977
100
AcDbArc
 50
180.0
 51
0.0
  0
LINE
  5
19EF7
330
199F6
100
AcDbEntity
  8
U1
100
AcDbLine
 10
6767.117031986059
 20
5720.215360473252
 30
0.0
 11
6767.117031986059
 21
5712.665360473252
 31
0.0
  0
LINE
  5
19EF8
330
199F6
100
AcDbEntity
  8
U1
100
AcDbLine
 10
6769.41703198606
 20
5720.215360473252
 30
0.0
 11
6767.117031986059
 21
5720.215360473252
 31
0.0
  0
LINE
  5
19EF9
330
199F6
100
AcDbEntity
  8
U1
100
AcDbLine
 10
6771.71703198606
 20
5713.215360473252
 30
0.0
 11
6769.41703198606
 21
5713.215360473252
 31
0.0
  0
ARC
  5
19EFA
330
199F6
100
AcDbEntity
  8
U1
100
AcDbCircle
 10
6770.567031986058
 20
5712.665360473252
 30
0.0
 40
3.450000000000044
100
AcDbArc
 50
180.0
 51
0.0
  0
LINE
  5
19EFB
330
199F6
100
AcDbEntity
  8
U1
100
AcDbLine
 10
6771.71703198606
 20
5712.665360473252
 30
0.0
 11
6771.717031986061
 21
5721.915360473251
 31
0.0
  0
LINE
  5
19EFC
330
199F6
100
AcDbEntity
  8
U1
100
AcDbLine
 10
6769.41703198606
 20
5721.915360473252
 30
0.0
 11
6769.41703198606
 21
5712.665360473252
 31
0.0
  0
LINE
  5
19EFD
330
199F6
100
AcDbEntity
  8
U1
100
AcDbLine
 10
6774.017031986059
 20
5712.665360473252
 30
0.0
 11
6774.017031986059
 21
5721.915360473252
 31
0.0
  0
ARC
  5
19EFE
330
199F6
100
AcDbEntity
  8
U1
100
AcDbCircle
 10
6758.017031986061
 20
5721.915360473252
 30
0.0
 40
4.0
100
AcDbArc
 50
90.0
 51
180.0
  0
LINE
  5
19EFF
330
199F6
100
AcDbEntity
  8
U1
100
AcDbLine
 10
6758.017031986061
 20
5725.915360473251
 30
0.0
 11
6765.417031986061
 21
5725.915360473251
 31
0.0
  0
ARC
  5
19F00
330
199F6
100
AcDbEntity
  8
U1
100
AcDbCircle
 10
6765.417031986061
 20
5721.915360473252
 30
0.0
 40
4.0
100
AcDbArc
 50
0.0
 51
90.0
  0
LINE
  5
19F01
330
199F6
100
AcDbEntity
  8
U1
100
AcDbLine
 10
6754.017031986061
 20
5669.515360473249
 30
0.0
 11
6754.017031986061
 21
5721.915360473252
 31
0.0
  0
LINE
  5
19F02
330
199F6
100
AcDbEntity
  8
U1
100
AcDbLine
 10
9590.417031986062
 20
5725.915360473251
 30
0.0
 11
9558.017031986059
 21
5725.915360473251
 31
0.0
  0
LINE
  5
19F03
330
199F6
100
AcDbEntity
  8
U1
100
AcDbLine
 10
9558.017031986059
 20
5665.51536047325
 30
0.0
 11
9610.41703198606
 21
5665.51536047325
 31
0.0
  0
ARC
  5
19F04
330
199F6
100
AcDbEntity
  8
U1
100
AcDbCircle
 10
9558.017031986059
 20
5669.515360473249
 30
0.0
 40
4.0
100
AcDbArc
 50
180.0
 51
270.0
  0
ARC
  5
19F05
330
199F6
100
AcDbEntity
  8
U1
100
AcDbCircle
 10
9558.017031986059
 20
5721.915360473252
 30
0.0
 40
4.0
100
AcDbArc
 50
90.0
 51
180.0
  0
LINE
  5
19F06
330
199F6
100
AcDbEntity
  8
U1
100
AcDbLine
 10
9554.01703198606
 20
5721.915360473252
 30
0.0
 11
9554.01703198606
 21
5669.515360473249
 31
0.0
  0
ARC
  5
19F07
330
199F6
100
AcDbEntity
  8
U1
100
AcDbCircle
 10
9610.41703198606
 20
5669.515360473249
 30
0.0
 40
4.0
100
AcDbArc
 50
270.0
 51
0.0
  0
ARC
  5
19F08
330
199F6
100
AcDbEntity
  8
U1
100
AcDbCircle
 10
9590.417031986062
 20
5721.915360473252
 30
0.0
 40
4.0
100
AcDbArc
 50
0.0
 51
90.0
  0
ARC
  5
19F09
330
199F6
100
AcDbEntity
  8
U1
100
AcDbCircle
 10
9597.86703198606
 20
5712.665360473252
 30
0.0
 40
1.149999999999977
100
AcDbArc
 50
180.0
 51
0.0
  0
LINE
  5
19F0A
330
199F6
100
AcDbEntity
  8
U1
100
AcDbLine
 10
9601.317031986061
 20
5720.215360473252
 30
0.0
 11
9601.317031986061
 21
5712.665360473252
 31
0.0
  0
LINE
  5
19F0B
330
199F6
100
AcDbEntity
  8
U1
100
AcDbLine
 10
9599.017031986059
 20
5720.215360473252
 30
0.0
 11
9601.317031986061
 21
5720.215360473252
 31
0.0
  0
LINE
  5
19F0C
330
199F6
100
AcDbEntity
  8
U1
100
AcDbLine
 10
9596.717031986059
 20
5713.215360473252
 30
0.0
 11
9599.017031986059
 21
5713.215360473252
 31
0.0
  0
ARC
  5
19F0D
330
199F6
100
AcDbEntity
  8
U1
100
AcDbCircle
 10
9597.86703198606
 20
5712.665360473252
 30
0.0
 40
3.450000000000044
100
AcDbArc
 50
180.0
 51
0.0
  0
LINE
  5
19F0E
330
199F6
100
AcDbEntity
  8
U1
100
AcDbLine
 10
9596.717031986059
 20
5712.665360473252
 30
0.0
 11
9596.717031986059
 21
5721.915360473251
 31
0.0
  0
LINE
  5
19F0F
330
199F6
100
AcDbEntity
  8
U1
100
AcDbLine
 10
9599.017031986059
 20
5721.915360473252
 30
0.0
 11
9599.017031986059
 21
5712.665360473252
 31
0.0
  0
LINE
  5
19F10
330
199F6
100
AcDbEntity
  8
U1
100
AcDbLine
 10
9594.417031986059
 20
5712.665360473252
 30
0.0
 11
9594.417031986059
 21
5721.915360473252
 31
0.0
  0
ARC
  5
19F11
330
199F6
100
AcDbEntity
  8
U1
100
AcDbCircle
 10
9610.41703198606
 20
5721.915360473252
 30
0.0
 40
4.0
100
AcDbArc
 50
0.0
 51
90.0
  0
LINE
  5
19F12
330
199F6
100
AcDbEntity
  8
U1
100
AcDbLine
 10
9610.41703198606
 20
5725.915360473251
 30
0.0
 11
9603.017031986059
 21
5725.915360473251
 31
0.0
  0
ARC
  5
19F13
330
199F6
100
AcDbEntity
  8
U1
100
AcDbCircle
 10
9603.017031986059
 20
5721.915360473252
 30
0.0
 40
4.0
100
AcDbArc
 50
90.0
 51
180.0
  0
LINE
  5
19F14
330
199F6
100
AcDbEntity
  8
U1
100
AcDbLine
 10
9614.417031986061
 20
5669.515360473249
 30
0.0
 11
9614.417031986061
 21
5721.915360473252
 31
0.0
  0
LINE
  5
19F15
330
199F6
100
AcDbEntity
  8
U1
100
AcDbLine
 10
6778.01703198606
 20
7525.915360473253
 30
0.0
 11
6810.41703198606
 21
7525.915360473253
 31
0.0
  0
LINE
  5
19F16
330
199F6
100
AcDbEntity
  8
U1
100
AcDbLine
 10
6810.41703198606
 20
7465.515360473251
 30
0.0
 11
6758.01703198606
 21
7465.515360473251
 31
0.0
  0
ARC
  5
19F17
330
199F6
100
AcDbEntity
  8
U1
100
AcDbCircle
 10
6810.41703198606
 20
7469.515360473251
 30
0.0
 40
4.0
100
AcDbArc
 50
270.0
 51
0.0
  0
ARC
  5
19F18
330
199F6
100
AcDbEntity
  8
U1
100
AcDbCircle
 10
6810.41703198606
 20
7521.915360473252
 30
0.0
 40
4.0
100
AcDbArc
 50
0.0
 51
90.0
  0
LINE
  5
19F19
330
199F6
100
AcDbEntity
  8
U1
100
AcDbLine
 10
6814.417031986059
 20
7521.915360473252
 30
0.0
 11
6814.417031986059
 21
7469.515360473251
 31
0.0
  0
ARC
  5
19F1A
330
199F6
100
AcDbEntity
  8
U1
100
AcDbCircle
 10
6758.01703198606
 20
7469.515360473251
 30
0.0
 40
4.0
100
AcDbArc
 50
180.0
 51
270.0
  0
ARC
  5
19F1B
330
199F6
100
AcDbEntity
  8
U1
100
AcDbCircle
 10
6778.01703198606
 20
7521.915360473252
 30
0.0
 40
4.0
100
AcDbArc
 50
90.0
 51
180.0
  0
ARC
  5
19F1C
330
199F6
100
AcDbEntity
  8
U1
100
AcDbCircle
 10
6770.567031986058
 20
7512.665360473251
 30
0.0
 40
1.149999999999977
100
AcDbArc
 50
180.0
 51
0.0
  0
LINE
  5
19F1D
330
199F6
100
AcDbEntity
  8
U1
100
AcDbLine
 10
6767.117031986059
 20
7520.215360473251
 30
0.0
 11
6767.117031986059
 21
7512.665360473251
 31
0.0
  0
LINE
  5
19F1E
330
199F6
100
AcDbEntity
  8
U1
100
AcDbLine
 10
6769.41703198606
 20
7520.215360473251
 30
0.0
 11
6767.117031986059
 21
7520.215360473251
 31
0.0
  0
LINE
  5
19F1F
330
199F6
100
AcDbEntity
  8
U1
100
AcDbLine
 10
6771.71703198606
 20
7513.215360473251
 30
0.0
 11
6769.41703198606
 21
7513.215360473251
 31
0.0
  0
ARC
  5
19F20
330
199F6
100
AcDbEntity
  8
U1
100
AcDbCircle
 10
6770.567031986058
 20
7512.665360473251
 30
0.0
 40
3.450000000000044
100
AcDbArc
 50
180.0
 51
0.0
  0
LINE
  5
19F21
330
199F6
100
AcDbEntity
  8
U1
100
AcDbLine
 10
6771.71703198606
 20
7512.665360473251
 30
0.0
 11
6771.717031986061
 21
7521.915360473251
 31
0.0
  0
LINE
  5
19F22
330
199F6
100
AcDbEntity
  8
U1
100
AcDbLine
 10
6769.41703198606
 20
7521.915360473252
 30
0.0
 11
6769.41703198606
 21
7512.665360473251
 31
0.0
  0
LINE
  5
19F23
330
199F6
100
AcDbEntity
  8
U1
100
AcDbLine
 10
6774.017031986059
 20
7512.665360473251
 30
0.0
 11
6774.017031986059
 21
7521.915360473252
 31
0.0
  0
ARC
  5
19F24
330
199F6
100
AcDbEntity
  8
U1
100
AcDbCircle
 10
6758.017031986061
 20
7521.915360473252
 30
0.0
 40
4.0
100
AcDbArc
 50
90.0
 51
180.0
  0
LINE
  5
19F25
330
199F6
100
AcDbEntity
  8
U1
100
AcDbLine
 10
6758.017031986061
 20
7525.915360473253
 30
0.0
 11
6765.417031986061
 21
7525.915360473253
 31
0.0
  0
ARC
  5
19F26
330
199F6
100
AcDbEntity
  8
U1
100
AcDbCircle
 10
6765.417031986061
 20
7521.915360473252
 30
0.0
 40
4.0
100
AcDbArc
 50
0.0
 51
90.0
  0
LINE
  5
19F27
330
199F6
100
AcDbEntity
  8
U1
100
AcDbLine
 10
6754.017031986061
 20
7469.515360473251
 30
0.0
 11
6754.017031986061
 21
7521.915360473252
 31
0.0
  0
LINE
  5
19F28
330
199F6
100
AcDbEntity
  8
U1
100
AcDbLine
 10
9590.417031986062
 20
7525.915360473253
 30
0.0
 11
9558.017031986059
 21
7525.915360473253
 31
0.0
  0
LINE
  5
19F29
330
199F6
100
AcDbEntity
  8
U1
100
AcDbLine
 10
9558.017031986059
 20
7465.515360473251
 30
0.0
 11
9610.41703198606
 21
7465.515360473251
 31
0.0
  0
ARC
  5
19F2A
330
199F6
100
AcDbEntity
  8
U1
100
AcDbCircle
 10
9558.017031986059
 20
7469.515360473251
 30
0.0
 40
4.0
100
AcDbArc
 50
180.0
 51
270.0
  0
ARC
  5
19F2B
330
199F6
100
AcDbEntity
  8
U1
100
AcDbCircle
 10
9558.017031986059
 20
7521.915360473252
 30
0.0
 40
4.0
100
AcDbArc
 50
90.0
 51
180.0
  0
LINE
  5
19F2C
330
199F6
100
AcDbEntity
  8
U1
100
AcDbLine
 10
9554.01703198606
 20
7521.915360473252
 30
0.0
 11
9554.01703198606
 21
7469.515360473251
 31
0.0
  0
ARC
  5
19F2D
330
199F6
100
AcDbEntity
  8
U1
100
AcDbCircle
 10
9610.41703198606
 20
7469.515360473251
 30
0.0
 40
4.0
100
AcDbArc
 50
270.0
 51
0.0
  0
ARC
  5
19F2E
330
199F6
100
AcDbEntity
  8
U1
100
AcDbCircle
 10
9590.417031986062
 20
7521.915360473252
 30
0.0
 40
4.0
100
AcDbArc
 50
0.0
 51
90.0
  0
ARC
  5
19F2F
330
199F6
100
AcDbEntity
  8
U1
100
AcDbCircle
 10
9597.86703198606
 20
7512.665360473251
 30
0.0
 40
1.149999999999977
100
AcDbArc
 50
180.0
 51
0.0
  0
LINE
  5
19F30
330
199F6
100
AcDbEntity
  8
U1
100
AcDbLine
 10
9601.317031986061
 20
7520.215360473251
 30
0.0
 11
9601.317031986061
 21
7512.665360473251
 31
0.0
  0
LINE
  5
19F31
330
199F6
100
AcDbEntity
  8
U1
100
AcDbLine
 10
9599.017031986059
 20
7520.215360473251
 30
0.0
 11
9601.317031986061
 21
7520.215360473251
 31
0.0
  0
LINE
  5
19F32
330
199F6
100
AcDbEntity
  8
U1
100
AcDbLine
 10
9596.717031986059
 20
7513.215360473251
 30
0.0
 11
9599.017031986059
 21
7513.215360473251
 31
0.0
  0
ARC
  5
19F33
330
199F6
100
AcDbEntity
  8
U1
100
AcDbCircle
 10
9597.86703198606
 20
7512.665360473251
 30
0.0
 40
3.450000000000044
100
AcDbArc
 50
180.0
 51
0.0
  0
LINE
  5
19F34
330
199F6
100
AcDbEntity
  8
U1
100
AcDbLine
 10
9596.717031986059
 20
7512.665360473251
 30
0.0
 11
9596.717031986059
 21
7521.915360473251
 31
0.0
  0
LINE
  5
19F35
330
199F6
100
AcDbEntity
  8
U1
100
AcDbLine
 10
9599.017031986059
 20
7521.915360473252
 30
0.0
 11
9599.017031986059
 21
7512.665360473251
 31
0.0
  0
LINE
  5
19F36
330
199F6
100
AcDbEntity
  8
U1
100
AcDbLine
 10
9594.417031986059
 20
7512.665360473251
 30
0.0
 11
9594.417031986059
 21
7521.915360473252
 31
0.0
  0
ARC
  5
19F37
330
199F6
100
AcDbEntity
  8
U1
100
AcDbCircle
 10
9610.41703198606
 20
7521.915360473252
 30
0.0
 40
4.0
100
AcDbArc
 50
0.0
 51
90.0
  0
LINE
  5
19F38
330
199F6
100
AcDbEntity
  8
U1
100
AcDbLine
 10
9610.41703198606
 20
7525.915360473253
 30
0.0
 11
9603.017031986059
 21
7525.915360473253
 31
0.0
  0
ARC
  5
19F39
330
199F6
100
AcDbEntity
  8
U1
100
AcDbCircle
 10
9603.017031986059
 20
7521.915360473252
 30
0.0
 40
4.0
100
AcDbArc
 50
90.0
 51
180.0
  0
LINE
  5
19F3A
330
199F6
100
AcDbEntity
  8
U1
100
AcDbLine
 10
9614.417031986061
 20
7469.515360473251
 30
0.0
 11
9614.417031986061
 21
7521.915360473252
 31
0.0
  0
LINE
  5
19F3B
330
199F6
100
AcDbEntity
  8
KISO
100
AcDbLine
 10
8550.758701212577
 20
1876.183932023014
 30
0.0
 11
8550.758701212577
 21
1876.183932023014
 31
0.0
  0
LINE
  5
19F3C
330
199F6
100
AcDbEntity
  8
KISO
100
AcDbLine
 10
8550.758701212577
 20
1876.183932023014
 30
0.0
 11
6950.758701212581
 21
1876.183932023014
 31
0.0
  0
LINE
  5
19F3D
330
199F6
100
AcDbEntity
  8
TEKKIN
100
AcDbLine
 10
7698.75870121258
 20
1980.183932023015
 30
0.0
 11
7470.758701212581
 21
1980.183932023015
 31
0.0
  0
LINE
  5
19F3E
330
199F6
100
AcDbEntity
  8
TEKKIN
100
AcDbLine
 10
7470.758701212581
 20
1980.183932023015
 30
0.0
 11
7470.758701212581
 21
1964.183932023016
 31
0.0
  0
LINE
  5
19F3F
330
199F6
100
AcDbEntity
  8
TEKKIN
100
AcDbLine
 10
7470.758701212581
 20
1964.183932023016
 30
0.0
 11
7698.75870121258
 21
1964.183932023016
 31
0.0
  0
LINE
  5
19F40
330
199F6
100
AcDbEntity
  8
TEKKIN
100
AcDbLine
 10
7802.758701212581
 20
1964.183932023016
 30
0.0
 11
8030.758701212581
 21
1964.183932023016
 31
0.0
  0
LINE
  5
19F41
330
199F6
100
AcDbEntity
  8
TEKKIN
100
AcDbLine
 10
8030.758701212581
 20
1964.183932023016
 30
0.0
 11
8030.758701212581
 21
1980.183932023015
 31
0.0
  0
LINE
  5
19F42
330
199F6
100
AcDbEntity
  8
TEKKIN
100
AcDbLine
 10
8030.758701212581
 20
1980.183932023015
 30
0.0
 11
7802.758701212581
 21
1980.183932023015
 31
0.0
  0
LINE
  5
19F43
330
199F6
100
AcDbEntity
  8
KISO
100
AcDbLine
 10
4344.333914666385
 20
1876.183932023018
 30
0.0
 11
4344.333914666385
 21
1876.183932023018
 31
0.0
  0
LINE
  5
19F44
330
199F6
100
AcDbEntity
  8
KISO
100
AcDbLine
 10
4344.333914666385
 20
1876.183932023018
 30
0.0
 11
3064.333914666386
 21
1876.183932023019
 31
0.0
  0
LINE
  5
19F45
330
199F6
100
AcDbEntity
  8
TEKKIN
100
AcDbLine
 10
3652.333914666386
 20
1980.183932023019
 30
0.0
 11
3424.333914666386
 21
1980.183932023019
 31
0.0
  0
LINE
  5
19F46
330
199F6
100
AcDbEntity
  8
TEKKIN
100
AcDbLine
 10
3424.333914666386
 20
1980.183932023019
 30
0.0
 11
3424.333914666386
 21
1964.183932023018
 31
0.0
  0
LINE
  5
19F47
330
199F6
100
AcDbEntity
  8
TEKKIN
100
AcDbLine
 10
3424.333914666386
 20
1964.183932023018
 30
0.0
 11
3652.333914666386
 21
1964.183932023018
 31
0.0
  0
LINE
  5
19F48
330
199F6
100
AcDbEntity
  8
TEKKIN
100
AcDbLine
 10
3756.333914666386
 20
1964.183932023018
 30
0.0
 11
3984.333914666386
 21
1964.183932023018
 31
0.0
  0
LINE
  5
19F49
330
199F6
100
AcDbEntity
  8
TEKKIN
100
AcDbLine
 10
3984.333914666386
 20
1964.183932023018
 30
0.0
 11
3984.333914666386
 21
1980.183932023019
 31
0.0
  0
LINE
  5
19F4A
330
199F6
100
AcDbEntity
  8
TEKKIN
100
AcDbLine
 10
3984.333914666386
 20
1980.183932023019
 30
0.0
 11
3756.333914666386
 21
1980.183932023019
 31
0.0
  0
ARC
  5
19F4B
330
199F6
100
AcDbEntity
  8
U1
100
AcDbCircle
 10
9610.41703198606
 20
9269.515360473251
 30
0.0
 40
6.30000000000109
100
AcDbArc
 50
270.0
 51
0.0
  0
LINE
  5
19F4C
330
199F6
100
AcDbEntity
  8
U1
100
AcDbLine
 10
9610.41703198606
 20
9263.215360473251
 30
0.0
 11
9603.017031986059
 21
9263.215360473251
 31
0.0
  0
ARC
  5
19F4D
330
199F6
100
AcDbEntity
  8
U1
100
AcDbCircle
 10
9603.017031986059
 20
9269.515360473251
 30
0.0
 40
6.299999999999272
100
AcDbArc
 50
180.0
 51
270.0
  0
ARC
  5
19F4E
330
199F6
100
AcDbEntity
  8
U1
100
AcDbCircle
 10
9590.417031986058
 20
9269.515360473251
 30
0.0
 40
6.30000000000109
100
AcDbArc
 50
270.0
 51
359.9999999999833
  0
LINE
  5
19F4F
330
199F6
100
AcDbEntity
  8
U1
100
AcDbLine
 10
9590.417031986058
 20
9263.215360473251
 30
0.0
 11
9558.017031986059
 21
9263.215360473251
 31
0.0
  0
ARC
  5
19F50
330
199F6
100
AcDbEntity
  8
U1
100
AcDbCircle
 10
9558.017031986059
 20
9269.515360473251
 30
0.0
 40
6.30000000000109
100
AcDbArc
 50
180.0
 51
270.0
  0
LINE
  5
19F51
330
199F6
100
AcDbEntity
  8
U1
100
AcDbLine
 10
9551.71703198606
 20
9269.515360473251
 30
0.0
 11
9551.71703198606
 21
9321.915360473253
 31
0.0
  0
ARC
  5
19F52
330
199F6
100
AcDbEntity
  8
U1
100
AcDbCircle
 10
9558.017031986059
 20
9321.915360473253
 30
0.0
 40
6.30000000000109
100
AcDbArc
 50
90.0
 51
180.0
  0
LINE
  5
19F53
330
199F6
100
AcDbEntity
  8
U1
100
AcDbLine
 10
9558.017031986059
 20
9328.215360473253
 30
0.0
 11
9610.41703198606
 21
9328.215360473253
 31
0.0
  0
ARC
  5
19F54
330
199F6
100
AcDbEntity
  8
U1
100
AcDbCircle
 10
9610.41703198606
 20
9321.915360473253
 30
0.0
 40
6.299999999999272
100
AcDbArc
 50
0.0
 51
90.0
  0
LINE
  5
19F55
330
199F6
100
AcDbEntity
  8
U1
100
AcDbLine
 10
9616.717031986061
 20
9321.915360473253
 30
0.0
 11
9616.717031986061
 21
9269.515360473251
 31
0.0
  0
ARC
  5
19F56
330
199F6
100
AcDbEntity
  8
U1
100
AcDbCircle
 10
6758.017031986061
 20
9269.515360473251
 30
0.0
 40
6.30000000000109
100
AcDbArc
 50
180.0
 51
269.9999999999918
  0
LINE
  5
19F57
330
199F6
100
AcDbEntity
  8
U1
100
AcDbLine
 10
6758.017031986061
 20
9263.215360473251
 30
0.0
 11
6765.417031986061
 21
9263.215360473251
 31
0.0
  0
ARC
  5
19F58
330
199F6
100
AcDbEntity
  8
U1
100
AcDbCircle
 10
6765.417031986061
 20
9269.515360473251
 30
0.0
 40
6.299999999999272
100
AcDbArc
 50
270.0
 51
0.0
  0
ARC
  5
19F59
330
199F6
100
AcDbEntity
  8
U1
100
AcDbCircle
 10
6778.017031986061
 20
9269.515360473251
 30
0.0
 40
6.300000000000181
100
AcDbArc
 50
180.0
 51
270.0
  0
LINE
  5
19F5A
330
199F6
100
AcDbEntity
  8
U1
100
AcDbLine
 10
6778.017031986061
 20
9263.215360473251
 30
0.0
 11
6810.41703198606
 21
9263.215360473251
 31
0.0
  0
ARC
  5
19F5B
330
199F6
100
AcDbEntity
  8
U1
100
AcDbCircle
 10
6810.41703198606
 20
9269.515360473251
 30
0.0
 40
6.299999999999272
100
AcDbArc
 50
270.0
 51
0.0
  0
LINE
  5
19F5C
330
199F6
100
AcDbEntity
  8
U1
100
AcDbLine
 10
6816.71703198606
 20
9269.515360473251
 30
0.0
 11
6816.71703198606
 21
9321.915360473253
 31
0.0
  0
ARC
  5
19F5D
330
199F6
100
AcDbEntity
  8
U1
100
AcDbCircle
 10
6810.41703198606
 20
9321.915360473253
 30
0.0
 40
6.300000000000181
100
AcDbArc
 50
0.0
 51
90.0
  0
LINE
  5
19F5E
330
199F6
100
AcDbEntity
  8
U1
100
AcDbLine
 10
6810.41703198606
 20
9328.215360473253
 30
0.0
 11
6758.017031986061
 21
9328.215360473253
 31
0.0
  0
ARC
  5
19F5F
330
199F6
100
AcDbEntity
  8
U1
100
AcDbCircle
 10
6758.017031986061
 20
9321.915360473253
 30
0.0
 40
6.299999999999272
100
AcDbArc
 50
90.0
 51
180.0
  0
LINE
  5
19F60
330
199F6
100
AcDbEntity
  8
U1
100
AcDbLine
 10
6751.717031986061
 20
9321.915360473253
 30
0.0
 11
6751.717031986061
 21
9269.515360473251
 31
0.0
  0
ARC
  5
19F61
330
199F6
100
AcDbEntity
  8
U1
100
AcDbCircle
 10
6758.017031986061
 20
5721.915360473253
 30
0.0
 40
6.300000000000181
100
AcDbArc
 50
90.0
 51
180.0000000000082
  0
LINE
  5
19F62
330
199F6
100
AcDbEntity
  8
U1
100
AcDbLine
 10
6758.017031986061
 20
5728.215360473252
 30
0.0
 11
6765.417031986061
 21
5728.215360473252
 31
0.0
  0
ARC
  5
19F63
330
199F6
100
AcDbEntity
  8
U1
100
AcDbCircle
 10
6765.417031986061
 20
5721.915360473253
 30
0.0
 40
6.299999999999272
100
AcDbArc
 50
359.9999999999917
 51
90.0
  0
ARC
  5
19F64
330
199F6
100
AcDbEntity
  8
U1
100
AcDbCircle
 10
6778.017031986061
 20
5721.915360473252
 30
0.0
 40
6.30000000000109
100
AcDbArc
 50
90.00000000000826
 51
180.0
  0
LINE
  5
19F65
330
199F6
100
AcDbEntity
  8
U1
100
AcDbLine
 10
6778.017031986061
 20
5728.215360473252
 30
0.0
 11
6810.41703198606
 21
5728.215360473252
 31
0.0
  0
ARC
  5
19F66
330
199F6
100
AcDbEntity
  8
U1
100
AcDbCircle
 10
6810.41703198606
 20
5721.915360473253
 30
0.0
 40
6.299999999999272
100
AcDbArc
 50
359.9999999999917
 51
90.0
  0
LINE
  5
19F67
330
199F6
100
AcDbEntity
  8
U1
100
AcDbLine
 10
6816.71703198606
 20
5721.915360473252
 30
0.0
 11
6816.71703198606
 21
5669.515360473249
 31
0.0
  0
ARC
  5
19F68
330
199F6
100
AcDbEntity
  8
U1
100
AcDbCircle
 10
6810.41703198606
 20
5669.515360473249
 30
0.0
 40
6.300000000000181
100
AcDbArc
 50
270.0
 51
0.0
  0
LINE
  5
19F69
330
199F6
100
AcDbEntity
  8
U1
100
AcDbLine
 10
6810.41703198606
 20
5663.215360473252
 30
0.0
 11
6758.017031986061
 21
5663.215360473252
 31
0.0
  0
ARC
  5
19F6A
330
199F6
100
AcDbEntity
  8
U1
100
AcDbCircle
 10
6758.017031986061
 20
5669.515360473249
 30
0.0
 40
6.299999999999272
100
AcDbArc
 50
180.0
 51
270.0
  0
LINE
  5
19F6B
330
199F6
100
AcDbEntity
  8
U1
100
AcDbLine
 10
6751.717031986061
 20
5669.515360473249
 30
0.0
 11
6751.717031986061
 21
5721.915360473252
 31
0.0
  0
ARC
  5
19F6C
330
199F6
100
AcDbEntity
  8
U1
100
AcDbCircle
 10
9610.41703198606
 20
5721.915360473253
 30
0.0
 40
6.299999999999272
100
AcDbArc
 50
359.9999999999917
 51
90.0
  0
LINE
  5
19F6D
330
199F6
100
AcDbEntity
  8
U1
100
AcDbLine
 10
9610.41703198606
 20
5728.215360473252
 30
0.0
 11
9603.017031986059
 21
5728.215360473252
 31
0.0
  0
ARC
  5
19F6E
330
199F6
100
AcDbEntity
  8
U1
100
AcDbCircle
 10
9603.017031986059
 20
5721.915360473253
 30
0.0
 40
6.299999999999272
100
AcDbArc
 50
90.0
 51
180.0000000000082
  0
ARC
  5
19F6F
330
199F6
100
AcDbEntity
  8
U1
100
AcDbCircle
 10
9590.417031986062
 20
5721.915360473253
 30
0.0
 40
6.299999999999272
100
AcDbArc
 50
359.9999999999917
 51
90.0
  0
LINE
  5
19F70
330
199F6
100
AcDbEntity
  8
U1
100
AcDbLine
 10
9590.417031986062
 20
5728.215360473252
 30
0.0
 11
9558.017031986059
 21
5728.215360473252
 31
0.0
  0
ARC
  5
19F71
330
199F6
100
AcDbEntity
  8
U1
100
AcDbCircle
 10
9558.017031986059
 20
5721.915360473253
 30
0.0
 40
6.299999999999272
100
AcDbArc
 50
90.0
 51
180.0000000000082
  0
LINE
  5
19F72
330
199F6
100
AcDbEntity
  8
U1
100
AcDbLine
 10
9551.71703198606
 20
5721.915360473252
 30
0.0
 11
9551.71703198606
 21
5669.515360473249
 31
0.0
  0
ARC
  5
19F73
330
199F6
100
AcDbEntity
  8
U1
100
AcDbCircle
 10
9558.017031986059
 20
5669.515360473249
 30
0.0
 40
6.299999999999272
100
AcDbArc
 50
180.0
 51
270.0
  0
LINE
  5
19F74
330
199F6
100
AcDbEntity
  8
U1
100
AcDbLine
 10
9558.017031986059
 20
5663.215360473252
 30
0.0
 11
9610.41703198606
 21
5663.215360473252
 31
0.0
  0
ARC
  5
19F75
330
199F6
100
AcDbEntity
  8
U1
100
AcDbCircle
 10
9610.41703198606
 20
5669.515360473249
 30
0.0
 40
6.299999999999272
100
AcDbArc
 50
270.0
 51
0.0
  0
LINE
  5
19F76
330
199F6
100
AcDbEntity
  8
U1
100
AcDbLine
 10
9616.717031986061
 20
5669.515360473249
 30
0.0
 11
9616.717031986061
 21
5721.915360473252
 31
0.0
  0
ARC
  5
19F77
330
199F6
100
AcDbEntity
  8
U1
100
AcDbCircle
 10
6758.017031986061
 20
7521.915360473252
 30
0.0
 40
6.300000000000181
100
AcDbArc
 50
90.0
 51
180.0000000000082
  0
LINE
  5
19F78
330
199F6
100
AcDbEntity
  8
U1
100
AcDbLine
 10
6758.017031986061
 20
7528.215360473253
 30
0.0
 11
6765.417031986061
 21
7528.215360473253
 31
0.0
  0
ARC
  5
19F79
330
199F6
100
AcDbEntity
  8
U1
100
AcDbCircle
 10
6765.417031986061
 20
7521.915360473252
 30
0.0
 40
6.299999999999272
100
AcDbArc
 50
359.9999999999917
 51
90.0
  0
ARC
  5
19F7A
330
199F6
100
AcDbEntity
  8
U1
100
AcDbCircle
 10
6778.017031986061
 20
7521.915360473252
 30
0.0
 40
6.30000000000109
100
AcDbArc
 50
90.00000000000826
 51
180.0
  0
LINE
  5
19F7B
330
199F6
100
AcDbEntity
  8
U1
100
AcDbLine
 10
6778.017031986061
 20
7528.215360473253
 30
0.0
 11
6810.41703198606
 21
7528.215360473253
 31
0.0
  0
ARC
  5
19F7C
330
199F6
100
AcDbEntity
  8
U1
100
AcDbCircle
 10
6810.41703198606
 20
7521.915360473252
 30
0.0
 40
6.299999999999272
100
AcDbArc
 50
359.9999999999917
 51
90.0
  0
LINE
  5
19F7D
330
199F6
100
AcDbEntity
  8
U1
100
AcDbLine
 10
6816.71703198606
 20
7521.915360473252
 30
0.0
 11
6816.71703198606
 21
7469.515360473251
 31
0.0
  0
ARC
  5
19F7E
330
199F6
100
AcDbEntity
  8
U1
100
AcDbCircle
 10
6810.41703198606
 20
7469.515360473251
 30
0.0
 40
6.300000000000181
100
AcDbArc
 50
270.0
 51
0.0
  0
LINE
  5
19F7F
330
199F6
100
AcDbEntity
  8
U1
100
AcDbLine
 10
6810.41703198606
 20
7463.215360473251
 30
0.0
 11
6758.017031986061
 21
7463.215360473251
 31
0.0
  0
ARC
  5
19F80
330
199F6
100
AcDbEntity
  8
U1
100
AcDbCircle
 10
6758.017031986061
 20
7469.515360473251
 30
0.0
 40
6.299999999999272
100
AcDbArc
 50
180.0
 51
270.0
  0
LINE
  5
19F81
330
199F6
100
AcDbEntity
  8
U1
100
AcDbLine
 10
6751.717031986061
 20
7469.515360473251
 30
0.0
 11
6751.717031986061
 21
7521.915360473252
 31
0.0
  0
ARC
  5
19F82
330
199F6
100
AcDbEntity
  8
U1
100
AcDbCircle
 10
9610.41703198606
 20
7521.915360473252
 30
0.0
 40
6.299999999999272
100
AcDbArc
 50
359.9999999999917
 51
90.0
  0
LINE
  5
19F83
330
199F6
100
AcDbEntity
  8
U1
100
AcDbLine
 10
9610.41703198606
 20
7528.215360473253
 30
0.0
 11
9603.017031986059
 21
7528.215360473253
 31
0.0
  0
ARC
  5
19F84
330
199F6
100
AcDbEntity
  8
U1
100
AcDbCircle
 10
9603.017031986059
 20
7521.915360473252
 30
0.0
 40
6.299999999999272
100
AcDbArc
 50
90.0
 51
180.0000000000082
  0
ARC
  5
19F85
330
199F6
100
AcDbEntity
  8
U1
100
AcDbCircle
 10
9590.417031986062
 20
7521.915360473252
 30
0.0
 40
6.299999999999272
100
AcDbArc
 50
359.9999999999917
 51
90.0
  0
LINE
  5
19F86
330
199F6
100
AcDbEntity
  8
U1
100
AcDbLine
 10
9590.417031986062
 20
7528.215360473253
 30
0.0
 11
9558.017031986059
 21
7528.215360473253
 31
0.0
  0
ARC
  5
19F87
330
199F6
100
AcDbEntity
  8
U1
100
AcDbCircle
 10
9558.017031986059
 20
7521.915360473252
 30
0.0
 40
6.299999999999272
100
AcDbArc
 50
90.0
 51
180.0000000000082
  0
LINE
  5
19F88
330
199F6
100
AcDbEntity
  8
U1
100
AcDbLine
 10
9551.71703198606
 20
7521.915360473252
 30
0.0
 11
9551.71703198606
 21
7469.515360473251
 31
0.0
  0
ARC
  5
19F89
330
199F6
100
AcDbEntity
  8
U1
100
AcDbCircle
 10
9558.017031986059
 20
7469.515360473251
 30
0.0
 40
6.299999999999272
100
AcDbArc
 50
180.0
 51
270.0
  0
LINE
  5
19F8A
330
199F6
100
AcDbEntity
  8
U1
100
AcDbLine
 10
9558.017031986059
 20
7463.215360473251
 30
0.0
 11
9610.41703198606
 21
7463.215360473251
 31
0.0
  0
ARC
  5
19F8B
330
199F6
100
AcDbEntity
  8
U1
100
AcDbCircle
 10
9610.41703198606
 20
7469.515360473251
 30
0.0
 40
6.299999999999272
100
AcDbArc
 50
270.0
 51
0.0
  0
LINE
  5
19F8C
330
199F6
100
AcDbEntity
  8
U1
100
AcDbLine
 10
9616.717031986061
 20
7469.515360473251
 30
0.0
 11
9616.717031986061
 21
7521.915360473252
 31
0.0
  0
LINE
  5
19FAE
330
199F6
100
AcDbEntity
  8
SUNPOU
100
AcDbLine
 10
2998.206101289241
 20
4894.563215151651
 30
0.0
 11
3054.456101289241
 21
4894.563215151651
 31
0.0
  0
LINE
  5
19FAF
330
199F6
100
AcDbEntity
  8
SUNPOU
100
AcDbLine
 10
2998.206101289241
 20
4811.070851452867
 30
0.0
 11
3054.456101289241
 21
4811.070851452867
 31
0.0
  0
TEXT
  5
19FB0
330
199F6
100
AcDbEntity
  8
SUNPOU
100
AcDbText
 10
1206.390539722641
 20
4965.356565738582
 30
0.0
 40
89.9993750043402
  1
地耐力   　　　 以上,コンクリート設計基準強度　　　　　以上
  7
01
100
AcDbText
  0
TEXT
  5
19FB1
330
199F6
100
AcDbEntity
  8
SUNPOU
100
AcDbText
 10
1515.37676261453
 20
4621.818052068348
 30
0.0
 40
90.0
  1
寒冷地の場合、凍結深度等を考慮し、実情に
  7
01
100
AcDbText
  0
TEXT
  5
19FB2
330
199F6
100
AcDbEntity
  8
SUNPOU
100
AcDbText
 10
1515.37676261453
 20
4313.246623496918
 30
0.0
 40
90.0
  1
その他現地の実情にあわせて設計して下さい。
  7
01
100
AcDbText
  0
TEXT
  5
19FB3
330
199F6
100
AcDbEntity
  8
SUNPOU
100
AcDbText
 10
1580.648947147715
 20
4965.356565738582
 30
0.0
 40
89.9993750043402
  1
50  N/m
 41
0.6700000000000001
  7
01
100
AcDbText
  0
TEXT
  5
19FB4
330
199F6
100
AcDbEntity
  8
SUNPOU
100
AcDbText
 10
1201.184053863552
 20
5312.110568184536
 30
0.0
 40
120.0
  1
基礎断面図
  7
01
 72
     4
 11
1541.184053863552
 21
5372.110568184536
 31
0.0
100
AcDbText
  0
TEXT
  5
19FB5
330
199F6
100
AcDbEntity
  8
SUNPOU
100
AcDbText
 10
1075.826911006409
 20
5154.61056818454
 30
0.0
 40
90.0
  1
<下記条件での参考図>
  7
01
 72
     4
 11
1664.684053863552
 21
5199.610568184539
 31
0.0
100
AcDbText
  0
TEXT
  5
19FB6
330
199F6
100
AcDbEntity
  8
SUNPOU
100
AcDbText
 10
1206.390539722641
 20
4811.070851452869
 30
0.0
 40
89.9993750043402
  1
基準風速   　　 , 地表面粗度区分
  7
01
100
AcDbText
  0
TEXT
  5
19FB7
330
199F6
100
AcDbEntity
  8
SUNPOU
100
AcDbText
 10
1515.37676261453
 20
4467.532337782627
 30
0.0
 40
90.0
  1
あわせて設計して下さい。
  7
01
100
AcDbText
  0
TEXT
  5
19FB8
330
199F6
100
AcDbEntity
  8
SUNPOU
100
AcDbText
 10
1198.537097312396
 20
4621.818052068348
 30
0.0
 40
90.0
  1
注　）
  7
01
100
AcDbText
  0
TEXT
  5
19FB9
330
199F6
100
AcDbEntity
  8
SUNPOU
100
AcDbText
 10
1198.537097312396
 20
4313.246623496918
 30
0.0
 40
90.0
  1
注　）
  7
01
100
AcDbText
  0
TEXT
  5
19FBA
330
199F6
100
AcDbEntity
  8
SUNPOU
100
AcDbText
 10
1309.171017525135
 20
4313.246623496918
 30
0.0
 40
90.0
  1
2
 41
0.6700000000000001
  7
01
100
AcDbText
  0
TEXT
  5
19FBB
330
199F6
100
AcDbEntity
  8
SUNPOU
100
AcDbText
 10
1309.171017525135
 20
4621.818052068348
 30
0.0
 40
90.0
  1
1
 41
0.6700000000000001
  7
01
100
AcDbText
  0
ARC
  5
19FBC
330
199F6
100
AcDbEntity
  8
SUNPOU
100
AcDbCircle
 10
1359.34881362984
 20
4929.143989180413
 30
0.0
 40
225.0
100
AcDbArc
 50
148.3472725282829
 51
211.6527274717169
  0
TEXT
  5
19FBD
330
199F6
100
AcDbEntity
  8
SUNPOU
100
AcDbText
 10
1690.153968387804
 20
4811.070851452869
 30
0.0
 40
89.9993750043402
  1
34 m/s
 41
0.6700000000000001
  7
01
100
AcDbText
  0
TEXT
  5
19FBE
330
199F6
100
AcDbEntity
  8
SUNPOU
100
AcDbText
 10
1716.485399933663
 20
4965.356565738582
 30
0.0
 40
71.99950000347218
  1
K
 41
0.6700000000000001
  7
01
100
AcDbText
  0
TEXT
  5
19FBF
330
199F6
100
AcDbEntity
  8
SUNPOU
100
AcDbText
 10
1984.125556662063
 20
5015.544992096069
 30
0.0
 40
46.28539285937498
  1
2
 41
0.6700000000000001
  7
00
100
AcDbText
  0
TEXT
  5
19FC0
330
199F6
100
AcDbEntity
  8
SUNPOU
100
AcDbText
 10
1918.034391226521
 20
5324.418260492231
 30
0.0
 40
92.30769230769228
  1
（ S = 　　  ）
 41
0.6700000000000001
  7
00
 11
1918.034391226521
 21
5312.110568184539
 31
0.0
100
AcDbText
 73
     1
  0
TEXT
  5
19FC1
330
199F6
100
AcDbEntity
  8
SUNPOU
100
AcDbText
 10
2286.143220394963
 20
5321.956722030694
 30
0.0
 40
73.84615384615384
  1
/
 41
0.6700000000000001
  7
00
 11
2286.143220394963
 21
5312.110568184539
 31
0.0
100
AcDbText
 73
     1
  0
TEXT
  5
19FC2
330
199F6
100
AcDbEntity
  8
SUNPOU
100
AcDbText
 10
2237.737093079592
 20
5340.418260492233
 30
0.0
 40
73.84615384615384
  1
1
 41
0.6700000000000001
  7
00
 11
2237.737093079592
 21
5330.572106646079
 31
0.0
100
AcDbText
 73
     1
  0
TEXT
  5
19FC3
330
199F6
100
AcDbEntity
  8
SUNPOU
100
AcDbText
 10
2350.092663349343
 20
5303.495183569154
 30
0.0
 40
73.84615384615384
  1
25
 41
0.6700000000000001
  7
00
 11
2350.092663349343
 21
5293.649029723
 31
0.0
100
AcDbText
 73
     1
  0
TEXT
  5
19FC4
330
199F6
100
AcDbEntity
  8
SUNPOU
100
AcDbText
 10
3625.401018009353
 20
4965.356565738582
 30
0.0
 40
89.9993750043402
  1
18
 41
0.6700000000000001
  7
01
100
AcDbText
  0
LINE
  5
19FC5
330
199F6
100
AcDbEntity
  8
SUNPOU
100
AcDbLine
 10
3009.456101289242
 20
4811.070851452869
 30
0.0
 11
3009.456101289242
 21
4894.563215151651
 31
0.0
  0
LINE
  5
19FC6
330
199F6
100
AcDbEntity
  8
SUNPOU
100
AcDbLine
 10
3026.331101289242
 20
4811.070851452869
 30
0.0
 11
3026.331101289242
 21
4894.563215151651
 31
0.0
  0
LINE
  5
19FC7
330
199F6
100
AcDbEntity
  8
SUNPOU
100
AcDbLine
 10
3043.206101289243
 20
4811.070851452869
 30
0.0
 11
3043.206101289243
 21
4894.563215151651
 31
0.0
  0
TEXT
  5
19FC8
330
199F6
100
AcDbEntity
  8
SUNPOU
100
AcDbText
 10
3761.2374707953
 20
4965.356565738582
 30
0.0
 40
89.9993750043402
  1
N/mm
 41
0.6700000000000001
  7
01
100
AcDbText
  0
TEXT
  5
19FC9
330
199F6
100
AcDbEntity
  8
SUNPOU
100
AcDbText
 10
4065.701952826706
 20
5015.544992096069
 30
0.0
 40
46.28539285937498
  1
2
 41
0.6700000000000001
  7
00
100
AcDbText
  0
ARC
  5
19FCA
330
199F6
100
AcDbEntity
  8
SUNPOU
100
AcDbCircle
 10
4214.579217360323
 20
4951.628269966204
 30
0.0
 40
225.0
100
AcDbArc
 50
328.3472725282828
 51
31.65272747171703
  0
ENDSEC
  0
SECTION
  2
OBJECTS
  0
DICTIONARY
  5
199E4
330
0
100
AcDbDictionary
281
     1
  3
ACAD_GROUP
350
199E5
  3
ACAD_LAYOUT
350
199F1
  3
ACAD_MLINESTYLE
350
199EE
  3
ACAD_PLOTSETTINGS
350
199F0
  3
ACAD_PLOTSTYLENAME
350
199E6
  3
AcDbVariableDictionary
350
19FCB
  0
DICTIONARY
  5
199E5
102
{ACAD_REACTORS
330
199E4
102
}
330
199E4
100
AcDbDictionary
281
     1
  0
DICTIONARY
  5
199F1
102
{ACAD_REACTORS
330
199E4
102
}
330
199E4
100
AcDbDictionary
281
     1
  3
Model
350
199F9
  3
ﾚｲｱｳﾄ1
350
199F5
  0
DICTIONARY
  5
199EE
102
{ACAD_REACTORS
330
199E4
102
}
330
199E4
100
AcDbDictionary
281
     1
  3
Standard
350
199EF
  0
DICTIONARY
  5
199F0
102
{ACAD_REACTORS
330
199E4
102
}
330
199E4
100
AcDbDictionary
281
     1
  0
ACDBDICTIONARYWDFLT
  5
199E6
102
{ACAD_REACTORS
330
199E4
102
}
330
199E4
100
AcDbDictionary
281
     1
  3
Normal
350
199E7
100
AcDbDictionaryWithDefault
340
199E7
  0
DICTIONARY
  5
19FCB
102
{ACAD_REACTORS
330
199E4
102
}
330
199E4
100
AcDbDictionary
281
     1
  3
DIMASSOC
350
19FCC
  0
LAYOUT
  5
199F9
102
{ACAD_REACTORS
330
199F1
102
}
330
199F1
100
AcDbPlotSettings
  1

  2
Muratec V-1200 Is@Web Printer
  4

  6

 40
0.0
 41
0.0
 42
0.0
 43
0.0
 44
0.0
 45
0.0
 46
0.0
 47
0.0
 48
0.0
 49
0.0
140
0.0
141
0.0
142
1.0
143
1.0
 70
  1712
 72
     0
 73
     0
 74
     0
  7

 75
     0
147
1.0
148
0.0
149
0.0
100
AcDbLayout
  1
Model
 70
     1
 71
     0
 10
0.0
 20
0.0
 11
12.0
 21
9.0
 12
0.0
 22
0.0
 32
0.0
 14
0.0
 24
0.0
 34
0.0
 15
0.0
 25
0.0
 35
0.0
146
0.0
 13
0.0
 23
0.0
 33
0.0
 16
1.0
 26
0.0
 36
0.0
 17
0.0
 27
1.0
 37
0.0
 76
     0
330
199F6
  0
LAYOUT
  5
199F5
102
{ACAD_REACTORS
330
199F1
102
}
330
199F1
100
AcDbPlotSettings
  1

  2
Muratec V-1200 Is@Web Printer
  4

  6

 40
0.0
 41
0.0
 42
0.0
 43
0.0
 44
0.0
 45
0.0
 46
0.0
 47
0.0
 48
0.0
 49
0.0
140
0.0
141
0.0
142
1.0
143
1.0
 70
   688
 72
     0
 73
     0
 74
     5
  7

 75
    16
147
1.0
148
0.0
149
0.0
100
AcDbLayout
  1
ﾚｲｱｳﾄ1
 70
     0
 71
     1
 10
0.0
 20
0.0
 11
12.0
 21
9.0
 12
0.0
 22
0.0
 32
0.0
 14
1.000000000000000E+20
 24
1.000000000000000E+20
 34
1.000000000000000E+20
 15
-1.000000000000000E+20
 25
-1.000000000000000E+20
 35
-1.000000000000000E+20
146
0.0
 13
0.0
 23
0.0
 33
0.0
 16
1.0
 26
0.0
 36
0.0
 17
0.0
 27
1.0
 37
0.0
 76
     0
330
199F2
  0
MLINESTYLE
  5
199EF
102
{ACAD_REACTORS
330
199EE
102
}
330
199EE
100
AcDbMlineStyle
  2
STANDARD
 70
     0
  3

 62
   256
 51
90.0
 52
90.0
 71
     2
 49
0.5
 62
   256
  6
BYLAYER
 49
-0.5
 62
   256
  6
BYLAYER
  0
ACDBPLACEHOLDER
  5
199E7
102
{ACAD_REACTORS
330
199E6
102
}
330
199E6
  0
DICTIONARYVAR
  5
19FCC
102
{ACAD_REACTORS
330
19FCB
102
}
330
19FCB
100
DictionaryVariables
280
     0
  1
1
  0
ENDSEC
  0
EOF
