  0
SECTION
  2
HEADER
  9
$ACADVER
  1
AC1015
  9
$ACADMAINTVER
 70
    13
  9
$DWGCODEPAGE
  3
ANSI_932
  9
$INSBASE
 10
267.0
 20
194.8999999999998
 30
0.0
  9
$EXTMIN
 10
434.0000000000008
 20
164.4761904761906
 30
0.0
  9
$EXTMAX
 10
16382.0
 20
11242.0
 30
0.0
  9
$LIMMIN
 10
0.0
 20
0.0
  9
$LIMMAX
 10
16800.0
 20
11880.0
  9
$ORTHOMODE
 70
     0
  9
$REGENMODE
 70
     1
  9
$FILLMODE
 70
     1
  9
$QTEXTMODE
 70
     0
  9
$MIRRTEXT
 70
     0
  9
$LTSCALE
 40
40.0
  9
$ATTMODE
 70
     1
  9
$TEXTSIZE
 40
0.2
  9
$TRACEWID
 40
0.05
  9
$TEXTSTYLE
  7
00
  9
$CLAYER
  8
SUNPOU
  9
$CELTYPE
  6
ByLayer
  9
$CECOLOR
 62
   256
  9
$CELTSCALE
 40
1.0
  9
$DISPSILH
 70
     0
  9
$DIMSCALE
 40
40.0
  9
$DIMASZ
 40
0.5
  9
$DIMEXO
 40
1.0
  9
$DIMDLI
 40
7.0
  9
$DIMRND
 40
0.0
  9
$DIMDLE
 40
3.0
  9
$DIMEXE
 40
1.5
  9
$DIMTP
 40
0.0
  9
$DIMTM
 40
0.0
  9
$DIMTXT
 40
3.0
  9
$DIMCEN
 40
0.0
  9
$DIMTSZ
 40
0.0
  9
$DIMTOL
 70
     0
  9
$DIMLIM
 70
     0
  9
$DIMTIH
 70
     0
  9
$DIMTOH
 70
     0
  9
$DIMSE1
 70
     0
  9
$DIMSE2
 70
     0
  9
$DIMTAD
 70
     1
  9
$DIMZIN
 70
     8
  9
$DIMBLK
  1

  9
$DIMASO
 70
     1
  9
$DIMSHO
 70
     0
  9
$DIMPOST
  1

  9
$DIMAPOST
  1

  9
$DIMALT
 70
     0
  9
$DIMALTD
 70
     2
  9
$DIMALTF
 40
25.4
  9
$DIMLFAC
 40
0.625
  9
$DIMTOFL
 70
     1
  9
$DIMTVP
 40
0.0
  9
$DIMTIX
 70
     0
  9
$DIMSOXD
 70
     0
  9
$DIMSAH
 70
     1
  9
$DIMBLK1
  1
DOT
  9
$DIMBLK2
  1
DOT
  9
$DIMSTYLE
  2
SUNPOU_図面名
  9
$DIMCLRD
 70
   256
  9
$DIMCLRE
 70
   256
  9
$DIMCLRT
 70
   256
  9
$DIMTFAC
 40
1.0
  9
$DIMGAP
 40
1.5
  9
$DIMJUST
 70
     0
  9
$DIMSD1
 70
     0
  9
$DIMSD2
 70
     0
  9
$DIMTOLJ
 70
     1
  9
$DIMTZIN
 70
     0
  9
$DIMALTZ
 70
     0
  9
$DIMALTTZ
 70
     0
  9
$DIMUPT
 70
     0
  9
$DIMDEC
 70
     4
  9
$DIMTDEC
 70
     4
  9
$DIMALTU
 70
     2
  9
$DIMALTTD
 70
     2
  9
$DIMTXSTY
  7
STANDARD
  9
$DIMAUNIT
 70
     0
  9
$DIMADEC
 70
     0
  9
$DIMALTRND
 40
0.0
  9
$DIMAZIN
 70
     0
  9
$DIMDSEP
 70
    46
  9
$DIMATFIT
 70
     3
  9
$DIMFRAC
 70
     0
  9
$DIMLDRBLK
  1
DOT
  9
$DIMLUNIT
 70
     2
  9
$DIMLWD
 70
    -2
  9
$DIMLWE
 70
    -2
  9
$DIMTMOVE
 70
     0
  9
$LUNITS
 70
     2
  9
$LUPREC
 70
     2
  9
$SKETCHINC
 40
0.1
  9
$FILLETRAD
 40
0.0
  9
$AUNITS
 70
     0
  9
$AUPREC
 70
     0
  9
$MENU
  1
A:\TIGER\MENU\TIGER
  9
$ELEVATION
 40
0.0
  9
$PELEVATION
 40
0.0
  9
$THICKNESS
 40
0.0
  9
$LIMCHECK
 70
     0
  9
$CHAMFERA
 40
0.0
  9
$CHAMFERB
 40
0.0
  9
$CHAMFERC
 40
0.0
  9
$CHAMFERD
 40
0.0
  9
$SKPOLY
 70
     0
  9
$TDCREATE
 40
2450266.571064815
  9
$TDUCREATE
 40
2450266.196064815
  9
$TDUPDATE
 40
2456332.372687175
  9
$TDUUPDATE
 40
2456331.997687176
  9
$TDINDWG
 40
0.2281146875
  9
$TDUSRTIMER
 40
0.2281145023
  9
$USRTIMER
 70
     1
  9
$ANGBASE
 50
0.0
  9
$ANGDIR
 70
     0
  9
$PDMODE
 70
     0
  9
$PDSIZE
 40
0.0
  9
$PLINEWID
 40
0.0
  9
$SPLFRAME
 70
     0
  9
$SPLINETYPE
 70
     6
  9
$SPLINESEGS
 70
     8
  9
$HANDSEED
  5
1CFF1
  9
$SURFTAB1
 70
     6
  9
$SURFTAB2
 70
     6
  9
$SURFTYPE
 70
     6
  9
$SURFU
 70
     6
  9
$SURFV
 70
     6
  9
$UCSBASE
  2

  9
$UCSNAME
  2

  9
$UCSORG
 10
0.0
 20
0.0
 30
0.0
  9
$UCSXDIR
 10
1.0
 20
0.0
 30
0.0
  9
$UCSYDIR
 10
0.0
 20
1.0
 30
0.0
  9
$UCSORTHOREF
  2

  9
$UCSORTHOVIEW
 70
     0
  9
$UCSORGTOP
 10
0.0
 20
0.0
 30
0.0
  9
$UCSORGBOTTOM
 10
0.0
 20
0.0
 30
0.0
  9
$UCSORGLEFT
 10
0.0
 20
0.0
 30
0.0
  9
$UCSORGRIGHT
 10
0.0
 20
0.0
 30
0.0
  9
$UCSORGFRONT
 10
0.0
 20
0.0
 30
0.0
  9
$UCSORGBACK
 10
0.0
 20
0.0
 30
0.0
  9
$PUCSBASE
  2

  9
$PUCSNAME
  2

  9
$PUCSORG
 10
0.0
 20
0.0
 30
0.0
  9
$PUCSXDIR
 10
1.0
 20
0.0
 30
0.0
  9
$PUCSYDIR
 10
0.0
 20
1.0
 30
0.0
  9
$PUCSORTHOREF
  2

  9
$PUCSORTHOVIEW
 70
     0
  9
$PUCSORGTOP
 10
0.0
 20
0.0
 30
0.0
  9
$PUCSORGBOTTOM
 10
0.0
 20
0.0
 30
0.0
  9
$PUCSORGLEFT
 10
0.0
 20
0.0
 30
0.0
  9
$PUCSORGRIGHT
 10
0.0
 20
0.0
 30
0.0
  9
$PUCSORGFRONT
 10
0.0
 20
0.0
 30
0.0
  9
$PUCSORGBACK
 10
0.0
 20
0.0
 30
0.0
  9
$USERI1
 70
     3
  9
$USERI2
 70
     0
  9
$USERI3
 70
     0
  9
$USERI4
 70
     0
  9
$USERI5
 70
  1103
  9
$USERR1
 40
0.0
  9
$USERR2
 40
1.0
  9
$USERR3
 40
0.0
  9
$USERR4
 40
0.0
  9
$USERR5
 40
0.0
  9
$WORLDVIEW
 70
     1
  9
$SHADEDGE
 70
     3
  9
$SHADEDIF
 70
    70
  9
$TILEMODE
 70
     1
  9
$MAXACTVP
 70
    16
  9
$PINSBASE
 10
0.0
 20
0.0
 30
0.0
  9
$PLIMCHECK
 70
     0
  9
$PEXTMIN
 10
1.000000000000000E+20
 20
1.000000000000000E+20
 30
1.000000000000000E+20
  9
$PEXTMAX
 10
-1.000000000000000E+20
 20
-1.000000000000000E+20
 30
-1.000000000000000E+20
  9
$PLIMMIN
 10
0.0
 20
0.0
  9
$PLIMMAX
 10
12.0
 20
9.0
  9
$UNITMODE
 70
     0
  9
$VISRETAIN
 70
     0
  9
$PLINEGEN
 70
     1
  9
$PSLTSCALE
 70
     0
  9
$TREEDEPTH
 70
  3020
  9
$CMLSTYLE
  2
Standard
  9
$CMLJUST
 70
     0
  9
$CMLSCALE
 40
1.0
  9
$PROXYGRAPHICS
 70
     1
  9
$MEASUREMENT
 70
     0
  9
$CELWEIGHT
370
    -1
  9
$ENDCAPS
280
     0
  9
$JOINSTYLE
280
     0
  9
$LWDISPLAY
290
     0
  9
$INSUNITS
 70
     0
  9
$HYPERLINKBASE
  1

  9
$STYLESHEET
  1

  9
$XEDIT
290
     1
  9
$CEPSNTYPE
380
     0
  9
$PSTYLEMODE
290
     1
  9
$FINGERPRINTGUID
  2
{A3F97ECE-B003-4F7E-AC5B-8A6C64E9F4B9}
  9
$VERSIONGUID
  2
{88057ECF-2A36-4F44-A069-AE0D4DDFE8D1}
  9
$EXTNAMES
290
     1
  9
$PSVPSCALE
 40
0.0
  9
$OLESTARTUP
290
     0
  0
ENDSEC
  0
SECTION
  2
CLASSES
  0
CLASS
  1
ACDBDICTIONARYWDFLT
  2
AcDbDictionaryWithDefault
  3
AutoCAD 2000
 90
        0
280
     0
281
     0
  0
CLASS
  1
ACDBPLACEHOLDER
  2
AcDbPlaceHolder
  3
AutoCAD 2000
 90
        0
280
     0
281
     0
  0
CLASS
  1
LAYOUT
  2
AcDbLayout
  3
AutoCAD 2000
 90
        0
280
     0
281
     0
  0
CLASS
  1
DICTIONARYVAR
  2
AcDbDictionaryVar
  3
AutoCAD 2000
 90
        0
280
     0
281
     0
  0
ENDSEC
  0
SECTION
  2
TABLES
  0
TABLE
  2
VPORT
  5
1C769
330
0
100
AcDbSymbolTable
 70
     2
  0
VPORT
  5
1CFF0
330
1C769
100
AcDbSymbolTableRecord
100
AcDbViewportTableRecord
  2
*Active
 70
     0
 10
0.0
 20
0.0
 11
1.0
 21
1.0
 12
8408.331337953367
 22
5702.983730997637
 13
0.0
 23
0.0
 14
1.0
 24
1.0
 15
0.0
 25
0.0
 16
0.0
 26
0.0
 36
1.0
 17
0.0
 27
0.0
 37
0.0
 40
11162.83361536741
 41
1.527918781725888
 42
50.0
 43
0.0
 44
0.0
 50
0.0
 51
0.0
 71
     0
 72
 10000
 73
     1
 74
     0
 75
     0
 76
     0
 77
     0
 78
     0
281
     0
 65
     1
110
0.0
120
0.0
130
0.0
111
1.0
121
0.0
131
0.0
112
0.0
122
1.0
132
0.0
 79
     0
146
0.0
  0
ENDTAB
  0
TABLE
  2
LTYPE
  5
1C766
330
0
100
AcDbSymbolTable
 70
     7
  0
LTYPE
  5
1C774
330
1C766
100
AcDbSymbolTableRecord
100
AcDbLinetypeTableRecord
  2
ByBlock
 70
     0
  3

 72
    65
 73
     0
 40
0.0
  0
LTYPE
  5
1C775
330
1C766
100
AcDbSymbolTableRecord
100
AcDbLinetypeTableRecord
  2
ByLayer
 70
     0
  3

 72
    65
 73
     0
 40
0.0
  0
LTYPE
  5
1C776
330
1C766
100
AcDbSymbolTableRecord
100
AcDbLinetypeTableRecord
  2
CONTINUOUS
 70
     0
  3
実線
 72
    65
 73
     0
 40
0.0
  0
LTYPE
  5
1C786
330
1C766
100
AcDbSymbolTableRecord
100
AcDbLinetypeTableRecord
  2
TENSEN-
 70
     0
  3

 72
    65
 73
     2
 40
0.6000000000000001
 49
0.2
 74
     0
 49
-0.4
 74
     0
  0
LTYPE
  5
1C787
330
1C766
100
AcDbSymbolTableRecord
100
AcDbLinetypeTableRecord
  2
1PL-LL
 70
     0
  3

 72
    65
 73
     4
 40
106.0
 49
100.0
 74
     0
 49
-2.0
 74
     0
 49
2.0
 74
     0
 49
-2.0
 74
     0
  0
LTYPE
  5
1C788
330
1C766
100
AcDbSymbolTableRecord
100
AcDbLinetypeTableRecord
  2
1PL-M
 70
     0
  3

 72
    65
 73
     4
 40
15.0
 49
12.0
 74
     0
 49
-1.0
 74
     0
 49
1.0
 74
     0
 49
-1.0
 74
     0
  0
LTYPE
  5
1C789
330
1C766
100
AcDbSymbolTableRecord
100
AcDbLinetypeTableRecord
  2
1PL-S
 70
     0
  3

 72
    65
 73
     4
 40
4.0
 49
2.5
 74
     0
 49
-0.5
 74
     0
 49
0.5
 74
     0
 49
-0.5
 74
     0
  0
LTYPE
  5
1C78A
330
1C766
100
AcDbSymbolTableRecord
100
AcDbLinetypeTableRecord
  2
2PL-L
 70
     0
  3

 72
    65
 73
     6
 40
60.0
 49
50.0
 74
     0
 49
-2.0
 74
     0
 49
2.0
 74
     0
 49
-2.0
 74
     0
 49
2.0
 74
     0
 49
-2.0
 74
     0
  0
LTYPE
  5
1C78B
330
1C766
100
AcDbSymbolTableRecord
100
AcDbLinetypeTableRecord
  2
1PL-12
 70
     0
  3

 72
    65
 73
     4
 40
15.0
 49
12.0
 74
     0
 49
-1.0
 74
     0
 49
1.0
 74
     0
 49
-1.0
 74
     0
  0
ENDTAB
  0
TABLE
  2
LAYER
  5
1C763
330
0
100
AcDbSymbolTable
 70
    21
  0
LAYER
  5
1C771
330
1C763
100
AcDbSymbolTableRecord
100
AcDbLayerTableRecord
  2
0
 70
     0
 62
     7
  6
CONTINUOUS
370
    -3
390
1C770
  0
LAYER
  5
1C783
330
1C763
100
AcDbSymbolTableRecord
100
AcDbLayerTableRecord
  2
SUNPOU
 70
     0
 62
     4
  6
CONTINUOUS
370
    -3
390
1C770
  0
LAYER
  5
1C78C
330
1C763
100
AcDbSymbolTableRecord
100
AcDbLayerTableRecord
  2
U1
 70
     0
 62
     3
  6
CONTINUOUS
370
    -3
390
1C770
  0
LAYER
  5
1C78D
330
1C763
100
AcDbSymbolTableRecord
100
AcDbLayerTableRecord
  2
U3
 70
     0
 62
     6
  6
CONTINUOUS
370
    -3
390
1C770
  0
LAYER
  5
1C78E
330
1C763
100
AcDbSymbolTableRecord
100
AcDbLayerTableRecord
  2
HIKIDASHI
 70
     0
 62
     6
  6
CONTINUOUS
370
    -3
390
1C770
  0
LAYER
  5
1C78F
330
1C763
100
AcDbSymbolTableRecord
100
AcDbLayerTableRecord
  2
TENSEN-1
 70
     0
 62
     6
  6
TENSEN-
370
    -3
390
1C770
  0
LAYER
  5
1C790
330
1C763
100
AcDbSymbolTableRecord
100
AcDbLayerTableRecord
  2
1PL-S1
 70
     0
 62
     6
  6
1PL-S
370
    -3
390
1C770
  0
LAYER
  5
1C791
330
1C763
100
AcDbSymbolTableRecord
100
AcDbLayerTableRecord
  2
1PL-M1
 70
     0
 62
     6
  6
1PL-M
370
    -3
390
1C770
  0
LAYER
  5
1C792
330
1C763
100
AcDbSymbolTableRecord
100
AcDbLayerTableRecord
  2
NAME
 70
     0
 62
    20
  6
CONTINUOUS
370
    -3
390
1C770
  0
LAYER
  5
1C793
330
1C763
100
AcDbSymbolTableRecord
100
AcDbLayerTableRecord
  2
FILENAME
 70
     0
 62
     7
  6
CONTINUOUS
370
    -3
390
1C770
  0
LAYER
  5
1C794
330
1C763
100
AcDbSymbolTableRecord
100
AcDbLayerTableRecord
  2
CENTER
 70
     0
 62
     6
  6
1PL-LL
370
    -3
390
1C770
  0
LAYER
  5
1C795
330
1C763
100
AcDbSymbolTableRecord
100
AcDbLayerTableRecord
  2
KISO
 70
     0
 62
     2
  6
CONTINUOUS
370
    -3
390
1C770
  0
LAYER
  5
1C796
330
1C763
100
AcDbSymbolTableRecord
100
AcDbLayerTableRecord
  2
BOLT
 70
     0
 62
     4
  6
CONTINUOUS
370
    -3
390
1C770
  0
LAYER
  5
1C797
330
1C763
100
AcDbSymbolTableRecord
100
AcDbLayerTableRecord
  2
YANE
 70
     0
 62
     1
  6
1PL-12
370
    -3
390
1C770
  0
LAYER
  5
1C798
330
1C763
100
AcDbSymbolTableRecord
100
AcDbLayerTableRecord
  2
HATCH
 70
     0
 62
     1
  6
CONTINUOUS
370
    -3
390
1C770
  0
LAYER
  5
1C799
330
1C763
100
AcDbSymbolTableRecord
100
AcDbLayerTableRecord
  2
HASHIRA
 70
     0
 62
     3
  6
CONTINUOUS
370
    -3
390
1C770
  0
LAYER
  5
1C79A
330
1C763
100
AcDbSymbolTableRecord
100
AcDbLayerTableRecord
  2
DOMAKON
 70
     0
 62
     2
  6
CONTINUOUS
370
    -3
390
1C770
  0
LAYER
  5
1C79B
330
1C763
100
AcDbSymbolTableRecord
100
AcDbLayerTableRecord
  2
YODOROGO
 70
     0
 62
   130
  6
CONTINUOUS
370
    -3
390
1C770
  0
LAYER
  5
1C79C
330
1C763
100
AcDbSymbolTableRecord
100
AcDbLayerTableRecord
  2
WAKUSEN-01
 70
     0
 62
    50
  6
CONTINUOUS
370
    -3
390
1C770
  0
LAYER
  5
1C79D
330
1C763
100
AcDbSymbolTableRecord
100
AcDbLayerTableRecord
  2
WAKUSEN-02
 70
     0
 62
   130
  6
CONTINUOUS
370
    -3
390
1C770
  0
LAYER
  5
1C79E
330
1C763
100
AcDbSymbolTableRecord
100
AcDbLayerTableRecord
  2
WAKUMOJI-01
 70
     0
 62
   130
  6
CONTINUOUS
370
    -3
390
1C770
  0
ENDTAB
  0
TABLE
  2
STYLE
  5
1C764
330
0
100
AcDbSymbolTable
 70
     5
  0
STYLE
  5
1C772
330
1C764
100
AcDbSymbolTableRecord
100
AcDbTextStyleTableRecord
  2
STANDARD
 70
     0
 40
3.0
 41
1.0
 50
0.0
 71
     0
 42
0.2
  3
ROMANS
  4
EXTFONT
  0
STYLE
  5
1C784
330
1C764
100
AcDbSymbolTableRecord
100
AcDbTextStyleTableRecord
  2
00
 70
     0
 40
0.0
 41
0.6666666666666666
 50
0.0
 71
     0
 42
0.2
  3
ROMANS
  4
BIGFONT
  0
STYLE
  5
1C79F
330
1C764
100
AcDbSymbolTableRecord
100
AcDbTextStyleTableRecord
  2
01
 70
     0
 40
3.0
 41
1.0
 50
0.0
 71
     0
 42
0.2
  3
ROMANS
  4
BIGFONT
  0
STYLE
  5
1C7A0
330
1C764
100
AcDbSymbolTableRecord
100
AcDbTextStyleTableRecord
  2
WAKUMOJI
 70
     0
 40
3.0
 41
1.0
 50
0.0
 71
     0
 42
3.0
  3
SIMPLEX
  4
BIGFONT
  0
STYLE
  5
1C7A1
330
1C764
100
AcDbSymbolTableRecord
100
AcDbTextStyleTableRecord
  2
FILENAME
 70
     0
 40
100.0
 41
1.0
 50
0.0
 71
     0
 42
100.0
  3
romans
  4
bigfont
  0
ENDTAB
  0
TABLE
  2
VIEW
  5
1C767
330
0
100
AcDbSymbolTable
 70
     0
  0
ENDTAB
  0
TABLE
  2
UCS
  5
1C768
330
0
100
AcDbSymbolTable
 70
     0
  0
ENDTAB
  0
TABLE
  2
APPID
  5
1C76A
330
0
100
AcDbSymbolTable
 70
     5
  0
APPID
  5
1C773
330
1C76A
100
AcDbSymbolTableRecord
100
AcDbRegAppTableRecord
  2
ACAD
 70
     0
  0
APPID
  5
1C7A2
330
1C76A
100
AcDbSymbolTableRecord
100
AcDbRegAppTableRecord
  2
AUTOCAD_POSTSCRIPT_FIGURE
 70
     0
  0
APPID
  5
1C7A3
330
1C76A
100
AcDbSymbolTableRecord
100
AcDbRegAppTableRecord
  2
ACAD_EXEMPT_FROM_CAD_STANDARDS
 70
     0
  0
APPID
  5
1C7A4
330
1C76A
100
AcDbSymbolTableRecord
100
AcDbRegAppTableRecord
  2
ACAD_PSEXT
 70
     0
  0
APPID
  5
1C7A5
330
1C76A
100
AcDbSymbolTableRecord
100
AcDbRegAppTableRecord
  2
ACLAYERTOOLS
 70
     0
  0
ENDTAB
  0
TABLE
  2
DIMSTYLE
  5
1C76B
330
0
100
AcDbSymbolTable
 70
     1
100
AcDbDimStyleTable
 71
     0
  0
DIMSTYLE
105
1C7A6
330
1C76B
100
AcDbSymbolTableRecord
100
AcDbDimStyleTableRecord
  2
SUNPOU_図面名
 70
     0
 40
30.0
 41
0.5
 42
1.0
 43
7.0
 44
1.5
 46
3.0
 73
     0
 74
     0
 77
     1
 78
     8
140
3.0
141
0.0
147
1.5
172
     1
173
     1
176
   256
177
   256
178
   256
271
     2
272
     2
279
     2
284
     8
285
     8
286
     8
340
1C784
  0
ENDTAB
  0
TABLE
  2
BLOCK_RECORD
  5
1C762
330
0
100
AcDbSymbolTable
 70
    48
  0
BLOCK_RECORD
  5
1C77F
330
1C762
100
AcDbSymbolTableRecord
100
AcDbBlockTableRecord
  2
*Model_Space
340
1C782
  0
BLOCK_RECORD
  5
1C77B
330
1C762
100
AcDbSymbolTableRecord
100
AcDbBlockTableRecord
  2
*Paper_Space
340
1C77E
  0
BLOCK_RECORD
  5
1C7AB
330
1C762
100
AcDbSymbolTableRecord
100
AcDbBlockTableRecord
  2
$MODEL_SPACE
340
0
  0
BLOCK_RECORD
  5
1C7AE
330
1C762
100
AcDbSymbolTableRecord
100
AcDbBlockTableRecord
  2
$PAPER_SPACE
340
0
  0
BLOCK_RECORD
  5
1C7B1
330
1C762
100
AcDbSymbolTableRecord
100
AcDbBlockTableRecord
  2
DOT
340
0
  0
BLOCK_RECORD
  5
1C7B9
330
1C762
100
AcDbSymbolTableRecord
100
AcDbBlockTableRecord
  2
*U3
340
0
  0
BLOCK_RECORD
  5
1C7BD
330
1C762
100
AcDbSymbolTableRecord
100
AcDbBlockTableRecord
  2
*U4
340
0
  0
BLOCK_RECORD
  5
1C7C1
330
1C762
100
AcDbSymbolTableRecord
100
AcDbBlockTableRecord
  2
*U5
340
0
  0
BLOCK_RECORD
  5
1C7C5
330
1C762
100
AcDbSymbolTableRecord
100
AcDbBlockTableRecord
  2
*U6
340
0
  0
BLOCK_RECORD
  5
1C7C9
330
1C762
100
AcDbSymbolTableRecord
100
AcDbBlockTableRecord
  2
*U7
340
0
  0
BLOCK_RECORD
  5
1C7CD
330
1C762
100
AcDbSymbolTableRecord
100
AcDbBlockTableRecord
  2
*U8
340
0
  0
BLOCK_RECORD
  5
1C7D1
330
1C762
100
AcDbSymbolTableRecord
100
AcDbBlockTableRecord
  2
*U9
340
0
  0
BLOCK_RECORD
  5
1C7D5
330
1C762
100
AcDbSymbolTableRecord
100
AcDbBlockTableRecord
  2
*U10
340
0
  0
BLOCK_RECORD
  5
1C7D9
330
1C762
100
AcDbSymbolTableRecord
100
AcDbBlockTableRecord
  2
*U11
340
0
  0
BLOCK_RECORD
  5
1C7DD
330
1C762
100
AcDbSymbolTableRecord
100
AcDbBlockTableRecord
  2
*U12
340
0
  0
BLOCK_RECORD
  5
1C7E1
330
1C762
100
AcDbSymbolTableRecord
100
AcDbBlockTableRecord
  2
*U13
340
0
  0
BLOCK_RECORD
  5
1C7E5
330
1C762
100
AcDbSymbolTableRecord
100
AcDbBlockTableRecord
  2
*U14
340
0
  0
BLOCK_RECORD
  5
1C7E9
330
1C762
100
AcDbSymbolTableRecord
100
AcDbBlockTableRecord
  2
*U15
340
0
  0
BLOCK_RECORD
  5
1C7ED
330
1C762
100
AcDbSymbolTableRecord
100
AcDbBlockTableRecord
  2
*U16
340
0
  0
BLOCK_RECORD
  5
1C7F1
330
1C762
100
AcDbSymbolTableRecord
100
AcDbBlockTableRecord
  2
*U17
340
0
  0
BLOCK_RECORD
  5
1C7F5
330
1C762
100
AcDbSymbolTableRecord
100
AcDbBlockTableRecord
  2
*U18
340
0
  0
BLOCK_RECORD
  5
1C7F9
330
1C762
100
AcDbSymbolTableRecord
100
AcDbBlockTableRecord
  2
*U19
340
0
  0
BLOCK_RECORD
  5
1C7FD
330
1C762
100
AcDbSymbolTableRecord
100
AcDbBlockTableRecord
  2
*U20
340
0
  0
BLOCK_RECORD
  5
1C801
330
1C762
100
AcDbSymbolTableRecord
100
AcDbBlockTableRecord
  2
*U21
340
0
  0
BLOCK_RECORD
  5
1C805
330
1C762
100
AcDbSymbolTableRecord
100
AcDbBlockTableRecord
  2
*U22
340
0
  0
BLOCK_RECORD
  5
1C809
330
1C762
100
AcDbSymbolTableRecord
100
AcDbBlockTableRecord
  2
*U23
340
0
  0
BLOCK_RECORD
  5
1C80D
330
1C762
100
AcDbSymbolTableRecord
100
AcDbBlockTableRecord
  2
*U24
340
0
  0
BLOCK_RECORD
  5
1C811
330
1C762
100
AcDbSymbolTableRecord
100
AcDbBlockTableRecord
  2
*U25
340
0
  0
BLOCK_RECORD
  5
1C815
330
1C762
100
AcDbSymbolTableRecord
100
AcDbBlockTableRecord
  2
*U26
340
0
  0
BLOCK_RECORD
  5
1C819
330
1C762
100
AcDbSymbolTableRecord
100
AcDbBlockTableRecord
  2
*U27
340
0
  0
BLOCK_RECORD
  5
1C81D
330
1C762
100
AcDbSymbolTableRecord
100
AcDbBlockTableRecord
  2
*U28
340
0
  0
BLOCK_RECORD
  5
1C821
330
1C762
100
AcDbSymbolTableRecord
100
AcDbBlockTableRecord
  2
*U29
340
0
  0
BLOCK_RECORD
  5
1C825
330
1C762
100
AcDbSymbolTableRecord
100
AcDbBlockTableRecord
  2
*U30
340
0
  0
BLOCK_RECORD
  5
1C829
330
1C762
100
AcDbSymbolTableRecord
100
AcDbBlockTableRecord
  2
*U31
340
0
  0
BLOCK_RECORD
  5
1C82D
330
1C762
100
AcDbSymbolTableRecord
100
AcDbBlockTableRecord
  2
*U32
340
0
  0
BLOCK_RECORD
  5
1C831
330
1C762
100
AcDbSymbolTableRecord
100
AcDbBlockTableRecord
  2
*U33
340
0
  0
BLOCK_RECORD
  5
1C835
330
1C762
100
AcDbSymbolTableRecord
100
AcDbBlockTableRecord
  2
*U34
340
0
  0
BLOCK_RECORD
  5
1C839
330
1C762
100
AcDbSymbolTableRecord
100
AcDbBlockTableRecord
  2
*U35
340
0
  0
BLOCK_RECORD
  5
1C83D
330
1C762
100
AcDbSymbolTableRecord
100
AcDbBlockTableRecord
  2
*U36
340
0
  0
BLOCK_RECORD
  5
1C841
330
1C762
100
AcDbSymbolTableRecord
100
AcDbBlockTableRecord
  2
*U37
340
0
  0
BLOCK_RECORD
  5
1C845
330
1C762
100
AcDbSymbolTableRecord
100
AcDbBlockTableRecord
  2
*U38
340
0
  0
BLOCK_RECORD
  5
1C849
330
1C762
100
AcDbSymbolTableRecord
100
AcDbBlockTableRecord
  2
*U39
340
0
  0
BLOCK_RECORD
  5
1C84D
330
1C762
100
AcDbSymbolTableRecord
100
AcDbBlockTableRecord
  2
*U40
340
0
  0
BLOCK_RECORD
  5
1C851
330
1C762
100
AcDbSymbolTableRecord
100
AcDbBlockTableRecord
  2
*U41
340
0
  0
BLOCK_RECORD
  5
1C855
330
1C762
100
AcDbSymbolTableRecord
100
AcDbBlockTableRecord
  2
*U42
340
0
  0
BLOCK_RECORD
  5
1C859
330
1C762
100
AcDbSymbolTableRecord
100
AcDbBlockTableRecord
  2
*U43
340
0
  0
BLOCK_RECORD
  5
1C85D
330
1C762
100
AcDbSymbolTableRecord
100
AcDbBlockTableRecord
  2
*U44
340
0
  0
BLOCK_RECORD
  5
1C861
330
1C762
100
AcDbSymbolTableRecord
100
AcDbBlockTableRecord
  2
*U45
340
0
  0
BLOCK_RECORD
  5
1C865
330
1C762
100
AcDbSymbolTableRecord
100
AcDbBlockTableRecord
  2
*U46
340
0
  0
BLOCK_RECORD
  5
1C869
330
1C762
100
AcDbSymbolTableRecord
100
AcDbBlockTableRecord
  2
*U47
340
0
  0
ENDTAB
  0
ENDSEC
  0
SECTION
  2
BLOCKS
  0
BLOCK
  5
1C780
330
1C77F
100
AcDbEntity
  8
0
100
AcDbBlockBegin
  2
*Model_Space
 70
     0
 10
0.0
 20
0.0
 30
0.0
  3
*Model_Space
  1

  0
ENDBLK
  5
1C781
330
1C77F
100
AcDbEntity
  8
0
100
AcDbBlockEnd
  0
BLOCK
  5
1C77C
330
1C77B
100
AcDbEntity
 67
     1
  8
0
100
AcDbBlockBegin
  2
*Paper_Space
 70
     0
 10
0.0
 20
0.0
 30
0.0
  3
*Paper_Space
  1

  0
ENDBLK
  5
1C77D
330
1C77B
100
AcDbEntity
 67
     1
  8
0
100
AcDbBlockEnd
  0
BLOCK
  5
1C7AC
330
1C7AB
100
AcDbEntity
  8
0
100
AcDbBlockBegin
  2
$MODEL_SPACE
 70
     0
 10
0.0
 20
0.0
 30
0.0
  3
$MODEL_SPACE
  1

  0
ENDBLK
  5
1C7AD
330
1C7AB
100
AcDbEntity
  8
0
100
AcDbBlockEnd
  0
BLOCK
  5
1C7AF
330
1C7AE
100
AcDbEntity
  8
0
100
AcDbBlockBegin
  2
$PAPER_SPACE
 70
     0
 10
0.0
 20
0.0
 30
0.0
  3
$PAPER_SPACE
  1

  0
ENDBLK
  5
1C7B0
330
1C7AE
100
AcDbEntity
  8
0
100
AcDbBlockEnd
  0
BLOCK
  5
1C7B2
330
1C7B1
100
AcDbEntity
  8
0
100
AcDbBlockBegin
  2
DOT
 70
     0
 10
0.0
 20
0.0
 30
0.0
  3
DOT
  1

  0
LWPOLYLINE
  5
1C7B3
330
1C7B1
100
AcDbEntity
  8
0
  6
ByBlock
 62
     0
100
AcDbPolyline
 90
        2
 70
     1
 43
0.75
 10
-0.375
 20
0.0
 42
1.0
 10
0.375
 20
0.0
 42
1.0
  0
LINE
  5
1C7B7
330
1C7B1
100
AcDbEntity
  8
0
  6
ByBlock
 62
     0
100
AcDbLine
 10
-0.75
 20
0.0
 30
0.0
 11
-1.5
 21
0.0
 31
0.0
  0
ENDBLK
  5
1C7B8
330
1C7B1
100
AcDbEntity
  8
0
100
AcDbBlockEnd
  0
BLOCK
  5
1C7BA
330
1C7B9
100
AcDbEntity
  8
0
100
AcDbBlockBegin
  2
*U3
 70
     1
 10
0.0
 20
0.0
 30
0.0
  3
*U3
  1

  0
TEXT
  5
1C7BB
330
1C7B9
100
AcDbEntity
  8
SUNPOU
100
AcDbText
 10
8747.074174843204
 20
6290.715360473253
 30
0.0
 40
90.0
  1
600
 41
0.6666666666666666
  7
00
100
AcDbText
  0
ENDBLK
  5
1C7BC
330
1C7B9
100
AcDbEntity
  8
0
100
AcDbBlockEnd
  0
BLOCK
  5
1C7BE
330
1C7BD
100
AcDbEntity
  8
0
100
AcDbBlockBegin
  2
*U4
 70
     1
 10
0.0
 20
0.0
 30
0.0
  3
*U4
  1

  0
TEXT
  5
1C7BF
330
1C7BD
100
AcDbEntity
  8
SUNPOU
100
AcDbText
 10
7447.074174843203
 20
8740.715360473251
 30
0.0
 40
90.0
  1
600
 41
0.6666666666666666
  7
00
100
AcDbText
  0
ENDBLK
  5
1C7C0
330
1C7BD
100
AcDbEntity
  8
0
100
AcDbBlockEnd
  0
BLOCK
  5
1C7C2
330
1C7C1
100
AcDbEntity
  8
0
100
AcDbBlockBegin
  2
*U5
 70
     1
 10
0.0
 20
0.0
 30
0.0
  3
*U5
  1

  0
TEXT
  5
1C7C3
330
1C7C1
100
AcDbEntity
  8
SUNPOU
100
AcDbText
 10
6889.21703198606
 20
9208.572503330399
 30
0.0
 40
90.0
  1
600
 50
90.0
 41
0.6666666666666666
  7
00
100
AcDbText
  0
ENDBLK
  5
1C7C4
330
1C7C1
100
AcDbEntity
  8
0
100
AcDbBlockEnd
  0
BLOCK
  5
1C7C6
330
1C7C5
100
AcDbEntity
  8
0
100
AcDbBlockBegin
  2
*U6
 70
     1
 10
0.0
 20
0.0
 30
0.0
  3
*U6
  1

  0
TEXT
  5
1C7C7
330
1C7C5
100
AcDbEntity
  8
SUNPOU
100
AcDbText
 10
9389.21703198606
 20
5608.572503330398
 30
0.0
 40
90.0
  1
600
 50
90.0
 41
0.6666666666666666
  7
00
100
AcDbText
  0
ENDBLK
  5
1C7C8
330
1C7C5
100
AcDbEntity
  8
0
100
AcDbBlockEnd
  0
BLOCK
  5
1C7CA
330
1C7C9
100
AcDbEntity
  8
0
100
AcDbBlockBegin
  2
*U7
 70
     1
 10
0.0
 20
0.0
 30
0.0
  3
*U7
  1

  0
TEXT
  5
1C7CB
330
1C7C9
100
AcDbEntity
  8
SUNPOU
100
AcDbText
 10
9389.21703198606
 20
7410.001074758969
 30
0.0
 40
90.0
  1
800
 50
90.0
 41
0.6666666666666666
  7
00
100
AcDbText
  0
ENDBLK
  5
1C7CC
330
1C7C9
100
AcDbEntity
  8
0
100
AcDbBlockEnd
  0
BLOCK
  5
1C7CE
330
1C7CD
100
AcDbEntity
  8
0
100
AcDbBlockBegin
  2
*U8
 70
     1
 10
0.0
 20
0.0
 30
0.0
  3
*U8
  1

  0
TEXT
  5
1C7CF
330
1C7CD
100
AcDbEntity
  8
SUNPOU
100
AcDbText
 10
8748.502746271773
 20
8110.715360473252
 30
0.0
 40
90.0
  1
800
 41
0.6666666666666666
  7
00
100
AcDbText
  0
ENDBLK
  5
1C7D0
330
1C7CD
100
AcDbEntity
  8
0
100
AcDbBlockEnd
  0
BLOCK
  5
1C7D2
330
1C7D1
100
AcDbEntity
  8
0
100
AcDbBlockBegin
  2
*U9
 70
     1
 10
0.0
 20
0.0
 30
0.0
  3
*U9
  1

  0
TEXT
  5
1C7D3
330
1C7D1
100
AcDbEntity
  8
SUNPOU
100
AcDbText
 10
6019.931317700345
 20
10040.71536047325
 30
0.0
 40
90.0
  1
2800
 41
0.6666666666666666
  7
00
100
AcDbText
  0
ENDBLK
  5
1C7D4
330
1C7D1
100
AcDbEntity
  8
0
100
AcDbBlockEnd
  0
BLOCK
  5
1C7D6
330
1C7D5
100
AcDbEntity
  8
0
100
AcDbBlockBegin
  2
*U10
 70
     1
 10
0.0
 20
0.0
 30
0.0
  3
*U10
  1

  0
TEXT
  5
1C7D7
330
1C7D5
100
AcDbEntity
  8
SUNPOU
100
AcDbText
 10
10119.93131770034
 20
10040.71536047325
 30
0.0
 40
90.0
  1
2800
 41
0.6666666666666666
  7
00
100
AcDbText
  0
ENDBLK
  5
1C7D8
330
1C7D5
100
AcDbEntity
  8
0
100
AcDbBlockEnd
  0
BLOCK
  5
1C7DA
330
1C7D9
100
AcDbEntity
  8
0
100
AcDbBlockBegin
  2
*U11
 70
     1
 10
0.0
 20
0.0
 30
0.0
  3
*U11
  1

  0
TEXT
  5
1C7DB
330
1C7D9
100
AcDbEntity
  8
SUNPOU
100
AcDbText
 10
4448.502746271774
 20
10040.71536047325
 30
0.0
 40
90.0
  1
400
 41
0.6666666666666666
  7
00
100
AcDbText
  0
ENDBLK
  5
1C7DC
330
1C7D9
100
AcDbEntity
  8
0
100
AcDbBlockEnd
  0
BLOCK
  5
1C7DE
330
1C7DD
100
AcDbEntity
  8
0
100
AcDbBlockBegin
  2
*U12
 70
     1
 10
0.0
 20
0.0
 30
0.0
  3
*U12
  1

  0
TEXT
  5
1C7DF
330
1C7DD
100
AcDbEntity
  8
SUNPOU
100
AcDbText
 10
11748.50274627176
 20
10040.71536047325
 30
0.0
 40
90.0
  1
400
 41
0.6666666666666666
  7
00
100
AcDbText
  0
ENDBLK
  5
1C7E0
330
1C7DD
100
AcDbEntity
  8
0
100
AcDbBlockEnd
  0
BLOCK
  5
1C7E2
330
1C7E1
100
AcDbEntity
  8
0
100
AcDbBlockBegin
  2
*U13
 70
     1
 10
0.0
 20
0.0
 30
0.0
  3
*U13
  1

  0
TEXT
  5
1C7E3
330
1C7E1
100
AcDbEntity
  8
SUNPOU
100
AcDbText
 10
7720.502746271773
 20
10250.71536047325
 30
0.0
 40
90.0
  1
L = 2800 x N + 800
 41
0.6666666666666666
  7
00
100
AcDbText
  0
ENDBLK
  5
1C7E4
330
1C7E1
100
AcDbEntity
  8
0
100
AcDbBlockEnd
  0
BLOCK
  5
1C7E6
330
1C7E5
100
AcDbEntity
  8
0
100
AcDbBlockBegin
  2
*U14
 70
     1
 10
0.0
 20
0.0
 30
0.0
  3
*U14
  1

  0
TEXT
  5
1C7E7
330
1C7E5
100
AcDbEntity
  8
SUNPOU
100
AcDbText
 10
12599.21703198606
 20
7381.42964618754
 30
0.0
 40
90.0
  1
4200
 50
90.0
 41
0.6666666666666666
  7
00
100
AcDbText
  0
ENDBLK
  5
1C7E8
330
1C7E5
100
AcDbEntity
  8
0
100
AcDbBlockEnd
  0
BLOCK
  5
1C7EA
330
1C7E9
100
AcDbEntity
  8
0
100
AcDbBlockBegin
  2
*U15
 70
     1
 10
0.0
 20
0.0
 30
0.0
  3
*U15
  1

  0
TEXT
  5
1C7EB
330
1C7E9
100
AcDbEntity
  8
SUNPOU
100
AcDbText
 10
12389.21703198605
 20
5460.001074758969
 30
0.0
 40
90.0
  1
300
 50
90.0
 41
0.6666666666666666
  7
00
100
AcDbText
  0
ENDBLK
  5
1C7EC
330
1C7E9
100
AcDbEntity
  8
0
100
AcDbBlockEnd
  0
BLOCK
  5
1C7EE
330
1C7ED
100
AcDbEntity
  8
0
100
AcDbBlockBegin
  2
*U16
 70
     1
 10
0.0
 20
0.0
 30
0.0
  3
*U16
  1

  0
TEXT
  5
1C7EF
330
1C7ED
100
AcDbEntity
  8
SUNPOU
100
AcDbText
 10
12389.21703198605
 20
6477.143931901827
 30
0.0
 40
90.0
  1
1800
 50
90.0
 41
0.6666666666666666
  7
00
100
AcDbText
  0
ENDBLK
  5
1C7F0
330
1C7ED
100
AcDbEntity
  8
0
100
AcDbBlockEnd
  0
BLOCK
  5
1C7F2
330
1C7F1
100
AcDbEntity
  8
0
100
AcDbBlockBegin
  2
*U17
 70
     1
 10
0.0
 20
0.0
 30
0.0
  3
*U17
  1

  0
TEXT
  5
1C7F3
330
1C7F1
100
AcDbEntity
  8
SUNPOU
100
AcDbText
 10
12389.21703198605
 20
8277.143931901829
 30
0.0
 40
90.0
  1
1800
 50
90.0
 41
0.6666666666666666
  7
00
100
AcDbText
  0
ENDBLK
  5
1C7F4
330
1C7F1
100
AcDbEntity
  8
0
100
AcDbBlockEnd
  0
BLOCK
  5
1C7F6
330
1C7F5
100
AcDbEntity
  8
0
100
AcDbBlockBegin
  2
*U18
 70
     1
 10
0.0
 20
0.0
 30
0.0
  3
*U18
  1

  0
TEXT
  5
1C7F7
330
1C7F5
100
AcDbEntity
  8
SUNPOU
100
AcDbText
 10
12389.21703198605
 20
9360.001074758967
 30
0.0
 40
90.0
  1
300
 50
90.0
 41
0.6666666666666666
  7
00
100
AcDbText
  0
ENDBLK
  5
1C7F8
330
1C7F5
100
AcDbEntity
  8
0
100
AcDbBlockEnd
  0
BLOCK
  5
1C7FA
330
1C7F9
100
AcDbEntity
  8
0
100
AcDbBlockBegin
  2
*U19
 70
     1
 10
0.0
 20
0.0
 30
0.0
  3
*U19
  1

  0
TEXT
  5
1C7FB
330
1C7F9
100
AcDbEntity
  8
SUNPOU
100
AcDbText
 10
8364.11054691988
 20
2921.981031079321
 30
0.0
 40
90.0
  1
564
 50
90.0
 41
0.6666666666666666
  7
00
100
AcDbText
  0
ENDBLK
  5
1C7FC
330
1C7F9
100
AcDbEntity
  8
0
100
AcDbBlockEnd
  0
BLOCK
  5
1C7FE
330
1C7FD
100
AcDbEntity
  8
0
100
AcDbBlockBegin
  2
*U20
 70
     1
 10
0.0
 20
0.0
 30
0.0
  3
*U20
  1

  0
TEXT
  5
1C7FF
330
1C7FD
100
AcDbEntity
  8
SUNPOU
100
AcDbText
 10
8574.110546919881
 20
2335.066745365034
 30
0.0
 40
90.0
  1
100
 50
90.0
 41
0.6666666666666666
  7
00
100
AcDbText
  0
ENDBLK
  5
1C800
330
1C7FD
100
AcDbEntity
  8
0
100
AcDbBlockEnd
  0
BLOCK
  5
1C802
330
1C801
100
AcDbEntity
  8
0
100
AcDbBlockBegin
  2
*U21
 70
     1
 10
0.0
 20
0.0
 30
0.0
  3
*U21
  1

  0
TEXT
  5
1C803
330
1C801
100
AcDbEntity
  8
SUNPOU
100
AcDbText
 10
8574.110546919881
 20
2872.209602507892
 30
0.0
 40
90.0
  1
300
 50
90.0
 41
0.6666666666666666
  7
00
100
AcDbText
  0
ENDBLK
  5
1C804
330
1C801
100
AcDbEntity
  8
0
100
AcDbBlockEnd
  0
BLOCK
  5
1C806
330
1C805
100
AcDbEntity
  8
0
100
AcDbBlockBegin
  2
*U22
 70
     1
 10
0.0
 20
0.0
 30
0.0
  3
*U22
  1

  0
TEXT
  5
1C807
330
1C805
100
AcDbEntity
  8
SUNPOU
100
AcDbText
 10
8574.110546919881
 20
3511.752459650749
 30
0.0
 40
90.0
  1
84
 50
90.0
 41
0.6666666666666666
  7
00
100
AcDbText
  0
ENDBLK
  5
1C808
330
1C805
100
AcDbEntity
  8
0
100
AcDbBlockEnd
  0
BLOCK
  5
1C80A
330
1C809
100
AcDbEntity
  8
0
100
AcDbBlockBegin
  2
*U23
 70
     1
 10
0.0
 20
0.0
 30
0.0
  3
*U23
  1

  0
TEXT
  5
1C80B
330
1C809
100
AcDbEntity
  8
SUNPOU
100
AcDbText
 10
8574.110546919881
 20
3204.78103107932
 30
0.0
 40
90.0
  1
80
 50
90.0
 41
0.6666666666666666
  7
00
100
AcDbText
  0
ENDBLK
  5
1C80C
330
1C809
100
AcDbEntity
  8
0
100
AcDbBlockEnd
  0
BLOCK
  5
1C80E
330
1C80D
100
AcDbEntity
  8
0
100
AcDbBlockBegin
  2
*U24
 70
     1
 10
0.0
 20
0.0
 30
0.0
  3
*U24
  1

  0
TEXT
  5
1C80F
330
1C80D
100
AcDbEntity
  8
SUNPOU
100
AcDbText
 10
9419.892514349211
 20
1990.523888222177
 30
0.0
 40
90.0
  1
1000
 41
0.6666666666666666
  7
00
100
AcDbText
  0
ENDBLK
  5
1C810
330
1C80D
100
AcDbEntity
  8
0
100
AcDbBlockEnd
  0
BLOCK
  5
1C812
330
1C811
100
AcDbEntity
  8
0
100
AcDbBlockBegin
  2
*U25
 70
     1
 10
0.0
 20
0.0
 30
0.0
  3
*U25
  1

  0
TEXT
  5
1C813
330
1C811
100
AcDbEntity
  8
SUNPOU
100
AcDbText
 10
9452.749657206352
 20
2200.523888222177
 30
0.0
 40
90.0
  1
800
 41
0.6666666666666666
  7
00
100
AcDbText
  0
ENDBLK
  5
1C814
330
1C811
100
AcDbEntity
  8
0
100
AcDbBlockEnd
  0
BLOCK
  5
1C816
330
1C815
100
AcDbEntity
  8
0
100
AcDbBlockBegin
  2
*U26
 70
     1
 10
0.0
 20
0.0
 30
0.0
  3
*U26
  1

  0
TEXT
  5
1C817
330
1C815
100
AcDbEntity
  8
SUNPOU
100
AcDbText
 10
12409.67906519162
 20
3236.00991145763
 30
0.0
 40
90.0
  1
160
 41
0.6666666666666666
  7
00
100
AcDbText
  0
ENDBLK
  5
1C818
330
1C815
100
AcDbEntity
  8
0
100
AcDbBlockEnd
  0
BLOCK
  5
1C81A
330
1C819
100
AcDbEntity
  8
0
100
AcDbBlockBegin
  2
*U27
 70
     1
 10
0.0
 20
0.0
 30
0.0
  3
*U27
  1

  0
TEXT
  5
1C81B
330
1C819
100
AcDbEntity
  8
SUNPOU
100
AcDbText
 10
11998.96477947731
 20
3446.009911457631
 30
0.0
 40
90.0
  1
20
 41
0.6666666666666666
  7
00
100
AcDbText
  0
ENDBLK
  5
1C81C
330
1C819
100
AcDbEntity
  8
0
100
AcDbBlockEnd
  0
BLOCK
  5
1C81E
330
1C81D
100
AcDbEntity
  8
0
100
AcDbBlockBegin
  2
*U28
 70
     1
 10
0.0
 20
0.0
 30
0.0
  3
*U28
  1

  0
TEXT
  5
1C81F
330
1C81D
100
AcDbEntity
  8
SUNPOU
100
AcDbText
 10
12409.67906519163
 20
3446.009911457631
 30
0.0
 40
90.0
  1
120
 41
0.6666666666666666
  7
00
100
AcDbText
  0
ENDBLK
  5
1C820
330
1C81D
100
AcDbEntity
  8
0
100
AcDbBlockEnd
  0
BLOCK
  5
1C822
330
1C821
100
AcDbEntity
  8
0
100
AcDbBlockBegin
  2
*U29
 70
     1
 10
0.0
 20
0.0
 30
0.0
  3
*U29
  1

  0
TEXT
  5
1C823
330
1C821
100
AcDbEntity
  8
SUNPOU
100
AcDbText
 10
12886.10763662019
 20
3446.009911457631
 30
0.0
 40
90.0
  1
20
 41
0.6666666666666666
  7
00
100
AcDbText
  0
ENDBLK
  5
1C824
330
1C821
100
AcDbEntity
  8
0
100
AcDbBlockEnd
  0
BLOCK
  5
1C826
330
1C825
100
AcDbEntity
  8
0
100
AcDbBlockBegin
  2
*U30
 70
     1
 10
0.0
 20
0.0
 30
0.0
  3
*U30
  1

  0
TEXT
  5
1C827
330
1C825
100
AcDbEntity
  8
SUNPOU
100
AcDbText
 10
11621.67906519162
 20
2649.840535712867
 30
0.0
 40
90.0
  1
80
 50
90.0
 41
0.6666666666666666
  7
00
100
AcDbText
  0
ENDBLK
  5
1C828
330
1C825
100
AcDbEntity
  8
0
100
AcDbBlockEnd
  0
BLOCK
  5
1C82A
330
1C829
100
AcDbEntity
  8
0
100
AcDbBlockBegin
  2
*U31
 70
     1
 10
0.0
 20
0.0
 30
0.0
  3
*U31
  1

  0
TEXT
  5
1C82B
330
1C829
100
AcDbEntity
  8
SUNPOU
100
AcDbText
 10
11831.67906519162
 20
2918.411964284295
 30
0.0
 40
90.0
  1
40
 50
90.0
 41
0.6666666666666666
  7
00
100
AcDbText
  0
ENDBLK
  5
1C82C
330
1C829
100
AcDbEntity
  8
0
100
AcDbBlockEnd
  0
BLOCK
  5
1C82E
330
1C82D
100
AcDbEntity
  8
0
100
AcDbBlockBegin
  2
*U32
 70
     1
 10
0.0
 20
0.0
 30
0.0
  3
*U32
  1

  0
TEXT
  5
1C82F
330
1C82D
100
AcDbEntity
  8
SUNPOU
100
AcDbText
 10
11831.67906519162
 20
2381.269107141437
 30
0.0
 40
90.0
  1
40
 50
90.0
 41
0.6666666666666666
  7
00
100
AcDbText
  0
ENDBLK
  5
1C830
330
1C82D
100
AcDbEntity
  8
0
100
AcDbBlockEnd
  0
BLOCK
  5
1C832
330
1C831
100
AcDbEntity
  8
0
100
AcDbBlockBegin
  2
*U33
 70
     1
 10
0.0
 20
0.0
 30
0.0
  3
*U33
  1

  0
TEXT
  5
1C833
330
1C831
100
AcDbEntity
  8
SUNPOU
100
AcDbText
 10
12409.67906519162
 20
2087.644025518657
 30
0.0
 40
90.0
  1
160
 41
0.6666666666666666
  7
00
100
AcDbText
  0
ENDBLK
  5
1C834
330
1C831
100
AcDbEntity
  8
0
100
AcDbBlockEnd
  0
BLOCK
  5
1C836
330
1C835
100
AcDbEntity
  8
0
100
AcDbBlockBegin
  2
*U34
 70
     1
 10
0.0
 20
0.0
 30
0.0
  3
*U34
  1

  0
TEXT
  5
1C837
330
1C835
100
AcDbEntity
  8
SUNPOU
100
AcDbText
 10
11998.96477947731
 20
2297.644025518658
 30
0.0
 40
90.0
  1
20
 41
0.6666666666666666
  7
00
100
AcDbText
  0
ENDBLK
  5
1C838
330
1C835
100
AcDbEntity
  8
0
100
AcDbBlockEnd
  0
BLOCK
  5
1C83A
330
1C839
100
AcDbEntity
  8
0
100
AcDbBlockBegin
  2
*U35
 70
     1
 10
0.0
 20
0.0
 30
0.0
  3
*U35
  1

  0
TEXT
  5
1C83B
330
1C839
100
AcDbEntity
  8
SUNPOU
100
AcDbText
 10
12409.67906519163
 20
2297.644025518658
 30
0.0
 40
90.0
  1
120
 41
0.6666666666666666
  7
00
100
AcDbText
  0
ENDBLK
  5
1C83C
330
1C839
100
AcDbEntity
  8
0
100
AcDbBlockEnd
  0
BLOCK
  5
1C83E
330
1C83D
100
AcDbEntity
  8
0
100
AcDbBlockBegin
  2
*U36
 70
     1
 10
0.0
 20
0.0
 30
0.0
  3
*U36
  1

  0
TEXT
  5
1C83F
330
1C83D
100
AcDbEntity
  8
SUNPOU
100
AcDbText
 10
12886.10763662019
 20
2297.644025518658
 30
0.0
 40
90.0
  1
20
 41
0.6666666666666666
  7
00
100
AcDbText
  0
ENDBLK
  5
1C840
330
1C83D
100
AcDbEntity
  8
0
100
AcDbBlockEnd
  0
BLOCK
  5
1C842
330
1C841
100
AcDbEntity
  8
0
100
AcDbBlockBegin
  2
*U37
 70
     1
 10
0.0
 20
0.0
 30
0.0
  3
*U37
  1

  0
TEXT
  5
1C843
330
1C841
100
AcDbEntity
  8
SUNPOU
100
AcDbText
 10
5352.42345668271
 20
4182.324460358763
 30
0.0
 40
90.0
  1
400
 41
0.6666666666666666
  7
00
100
AcDbText
  0
ENDBLK
  5
1C844
330
1C841
100
AcDbEntity
  8
0
100
AcDbBlockEnd
  0
BLOCK
  5
1C846
330
1C845
100
AcDbEntity
  8
0
100
AcDbBlockBegin
  2
*U38
 70
     1
 10
0.0
 20
0.0
 30
0.0
  3
*U38
  1

  0
TEXT
  5
1C847
330
1C845
100
AcDbEntity
  8
SUNPOU
100
AcDbText
 10
4583.784346396234
 20
2921.981031079321
 30
0.0
 40
90.0
  1
564
 50
90.0
 41
0.6666666666666666
  7
00
100
AcDbText
  0
ENDBLK
  5
1C848
330
1C845
100
AcDbEntity
  8
0
100
AcDbBlockEnd
  0
BLOCK
  5
1C84A
330
1C849
100
AcDbEntity
  8
0
100
AcDbBlockBegin
  2
*U39
 70
     1
 10
0.0
 20
0.0
 30
0.0
  3
*U39
  1

  0
TEXT
  5
1C84B
330
1C849
100
AcDbEntity
  8
SUNPOU
100
AcDbText
 10
4793.784346396234
 20
2335.066745365034
 30
0.0
 40
90.0
  1
100
 50
90.0
 41
0.6666666666666666
  7
00
100
AcDbText
  0
ENDBLK
  5
1C84C
330
1C849
100
AcDbEntity
  8
0
100
AcDbBlockEnd
  0
BLOCK
  5
1C84E
330
1C84D
100
AcDbEntity
  8
0
100
AcDbBlockBegin
  2
*U40
 70
     1
 10
0.0
 20
0.0
 30
0.0
  3
*U40
  1

  0
TEXT
  5
1C84F
330
1C84D
100
AcDbEntity
  8
SUNPOU
100
AcDbText
 10
4793.784346396234
 20
2872.209602507888
 30
0.0
 40
90.0
  1
300
 50
90.0
 41
0.6666666666666666
  7
00
100
AcDbText
  0
ENDBLK
  5
1C850
330
1C84D
100
AcDbEntity
  8
0
100
AcDbBlockEnd
  0
BLOCK
  5
1C852
330
1C851
100
AcDbEntity
  8
0
100
AcDbBlockBegin
  2
*U41
 70
     1
 10
0.0
 20
0.0
 30
0.0
  3
*U41
  1

  0
TEXT
  5
1C853
330
1C851
100
AcDbEntity
  8
SUNPOU
100
AcDbText
 10
4793.784346396234
 20
3511.752459650749
 30
0.0
 40
90.0
  1
84
 50
90.0
 41
0.6666666666666666
  7
00
100
AcDbText
  0
ENDBLK
  5
1C854
330
1C851
100
AcDbEntity
  8
0
100
AcDbBlockEnd
  0
BLOCK
  5
1C856
330
1C855
100
AcDbEntity
  8
0
100
AcDbBlockBegin
  2
*U42
 70
     1
 10
0.0
 20
0.0
 30
0.0
  3
*U42
  1

  0
TEXT
  5
1C857
330
1C855
100
AcDbEntity
  8
SUNPOU
100
AcDbText
 10
4793.784346396237
 20
3204.781031079315
 30
0.0
 40
90.0
  1
80
 50
90.0
 41
0.6666666666666666
  7
00
100
AcDbText
  0
ENDBLK
  5
1C858
330
1C855
100
AcDbEntity
  8
0
100
AcDbBlockEnd
  0
BLOCK
  5
1C85A
330
1C859
100
AcDbEntity
  8
0
100
AcDbBlockBegin
  2
*U43
 70
     1
 10
0.0
 20
0.0
 30
0.0
  3
*U43
  1

  0
TEXT
  5
1C85B
330
1C859
100
AcDbEntity
  8
SUNPOU
100
AcDbText
 10
4373.784346396234
 20
3526.752459650748
 30
0.0
 40
90.0
  1
50
 50
90.0
 41
0.6666666666666666
  7
00
100
AcDbText
  0
ENDBLK
  5
1C85C
330
1C859
100
AcDbEntity
  8
0
100
AcDbBlockEnd
  0
BLOCK
  5
1C85E
330
1C85D
100
AcDbEntity
  8
0
100
AcDbBlockBegin
  2
*U44
 70
     1
 10
0.0
 20
0.0
 30
0.0
  3
*U44
  1

  0
TEXT
  5
1C85F
330
1C85D
100
AcDbEntity
  8
SUNPOU
100
AcDbText
 10
5672.423456682707
 20
1990.523888222173
 30
0.0
 40
90.0
  1
800
 41
0.6666666666666666
  7
00
100
AcDbText
  0
ENDBLK
  5
1C860
330
1C85D
100
AcDbEntity
  8
0
100
AcDbBlockEnd
  0
BLOCK
  5
1C862
330
1C861
100
AcDbEntity
  8
0
100
AcDbBlockBegin
  2
*U45
 70
     1
 10
0.0
 20
0.0
 30
0.0
  3
*U45
  1

  0
TEXT
  5
1C863
330
1C861
100
AcDbEntity
  8
SUNPOU
100
AcDbText
 10
5670.994885254138
 20
2200.523888222173
 30
0.0
 40
90.0
  1
600
 41
0.6666666666666666
  7
00
100
AcDbText
  0
ENDBLK
  5
1C864
330
1C861
100
AcDbEntity
  8
0
100
AcDbBlockEnd
  0
BLOCK
  5
1C866
330
1C865
100
AcDbEntity
  8
0
100
AcDbBlockBegin
  2
*U46
 70
     1
 10
0.0
 20
0.0
 30
0.0
  3
*U46
  1

  0
TEXT
  5
1C867
330
1C865
100
AcDbEntity
  8
SUNPOU
100
AcDbText
 10
13186.74749427908
 20
3444.461799672849
 30
0.0
 40
90.0
  1
27
 50
90.0
 41
0.6666666666666666
  7
00
100
AcDbText
  0
ENDBLK
  5
1C868
330
1C865
100
AcDbEntity
  8
0
100
AcDbBlockEnd
  0
BLOCK
  5
1C86A
330
1C869
100
AcDbEntity
  8
0
100
AcDbBlockBegin
  2
*U47
 70
     1
 10
0.0
 20
0.0
 30
0.0
  3
*U47
  1

  0
TEXT
  5
1C86B
330
1C869
100
AcDbEntity
  8
SUNPOU
100
AcDbText
 10
13186.74749427908
 20
3944.604656815706
 30
0.0
 40
90.0
  1
40
 50
90.0
 41
0.6666666666666666
  7
00
100
AcDbText
  0
ENDBLK
  5
1C86C
330
1C869
100
AcDbEntity
  8
0
100
AcDbBlockEnd
  0
ENDSEC
  0
SECTION
  2
ENTITIES
  0
TEXT
  5
1C86D
330
1C77F
100
AcDbEntity
  8
NAME
100
AcDbText
 10
12303.32857318295
 20
1055.0
 30
0.0
 40
120.0
  1
Y O K C
 41
0.6666666666666666
  7
00
100
AcDbText
  0
TEXT
  5
1C86E
330
1C77F
100
AcDbEntity
  8
NAME
100
AcDbText
 10
11227.73587134625
 20
1055.0
 30
0.0
 40
120.0
  1
ヨド自転車置場　　　  型
  7
01
100
AcDbText
  0
TEXT
  5
1C86F
330
1C77F
100
AcDbEntity
  8
NAME
100
AcDbText
 10
10824.07508082364
 20
875.0
 30
0.0
 40
120.0
  1
棟合せタイプ（アンカープレート方式）
  7
01
 72
     4
 11
12072.07508082364
 21
935.0
 31
0.0
100
AcDbText
  0
TEXT
  5
1C870
330
1C77F
100
AcDbEntity
  8
NAME
100
AcDbText
 10
12854.79999999999
 20
541.0000000000001
 30
0.0
 40
160.0
  1
<3／3>
 41
0.6
  7
01
 72
     2
 11
13354.0
 21
541.0000000000001
 31
0.0
100
AcDbText
  0
TEXT
  5
1C871
330
1C77F
100
AcDbEntity
  8
NAME
100
AcDbText
 10
10896.04264730428
 20
541.0
 30
0.0
 40
160.0
  1
YOKC-280
 41
0.7
  7
01
 72
     2
 11
11776.04264730429
 21
541.0
 31
0.0
100
AcDbText
  0
TEXT
  5
1C872
330
1C77F
100
AcDbEntity
  8
NAME
100
AcDbText
 10
11816.04264730429
 20
541.0
 30
0.0
 40
160.0
  1
型（一般地用）
 41
0.8
  7
01
100
AcDbText
  0
LINE
  5
1C873
330
1C77F
100
AcDbEntity
  8
CENTER
  6
1PL-M
100
AcDbLine
 10
8834.21703198606
 20
8245.715360473253
 30
0.0
 11
8834.21703198606
 21
9695.715360473252
 31
0.0
  0
LINE
  5
1C874
330
1C77F
100
AcDbEntity
  8
CENTER
  6
1PL-M
100
AcDbLine
 10
9454.217031986059
 20
7495.715360473251
 30
0.0
 11
12479.21703198606
 21
7495.715360473251
 31
0.0
  0
LINE
  5
1C875
330
1C77F
100
AcDbEntity
  8
CENTER
  6
1PL-M
100
AcDbLine
 10
8244.217031986062
 20
7495.715360473251
 30
0.0
 11
9189.217031986059
 21
7495.715360473251
 31
0.0
  0
LINE
  5
1C876
330
1C77F
100
AcDbEntity
  8
CENTER
  6
1PL-M
100
AcDbLine
 10
4264.217031986058
 20
7495.715360473251
 30
0.0
 11
8124.217031986061
 21
7495.715360473251
 31
0.0
  0
LINE
  5
1C877
330
1C77F
100
AcDbEntity
  8
CENTER
  6
1PL-M
100
AcDbLine
 10
8244.217031986062
 20
5695.715360473253
 30
0.0
 11
9274.217031986065
 21
5695.715360473253
 31
0.0
  0
LINE
  5
1C878
330
1C77F
100
AcDbEntity
  8
CENTER
  6
1PL-M
100
AcDbLine
 10
8244.217031986062
 20
9295.715360473252
 30
0.0
 11
12479.21703198606
 21
9295.715360473252
 31
0.0
  0
TEXT
  5
1C879
330
1C77F
100
AcDbEntity
  8
SUNPOU
100
AcDbText
 10
10881.34907160025
 20
4902.649361983672
 30
0.0
 40
90.0
  1
（  ：スパン数）
  7
01
 11
10881.34907160025
 21
4947.649361983672
 31
0.0
100
AcDbText
 73
     2
  0
TEXT
  5
1C87A
330
1C77F
100
AcDbEntity
  8
SUNPOU
100
AcDbText
 10
11011.81028265175
 20
4902.649361983672
 30
0.0
 40
90.0
  1
N
 41
0.6666666666666666
  7
00
 72
     4
 11
11043.23885408032
 21
4947.649361983672
 31
0.0
100
AcDbText
  0
LINE
  5
1C87B
330
1C77F
100
AcDbEntity
  8
CENTER
  6
1PL-M
100
AcDbLine
 10
4264.217031986058
 20
5695.715360473253
 30
0.0
 11
8124.217031986061
 21
5695.715360473253
 31
0.0
  0
LINE
  5
1C87C
330
1C77F
100
AcDbEntity
  8
CENTER
  6
1PL-M
100
AcDbLine
 10
6982.96703198606
 20
9295.715360473252
 30
0.0
 11
8124.217031986061
 21
9295.715360473252
 31
0.0
  0
LINE
  5
1C87D
330
1C77F
100
AcDbEntity
  8
SUNPOU
100
AcDbLine
 10
8124.217031986061
 20
9685.715360473253
 30
0.0
 11
8124.217031986061
 21
5275.715360473252
 31
0.0
  0
LINE
  5
1C87E
330
1C77F
100
AcDbEntity
  8
CENTER
  6
1PL-M
100
AcDbLine
 10
4734.21703198606
 20
5295.715360473253
 30
0.0
 11
4734.21703198606
 21
9695.715360473252
 31
0.0
  0
LINE
  5
1C87F
330
1C77F
100
AcDbEntity
  8
CENTER
  6
1PL-M
100
AcDbLine
 10
7534.217031986059
 20
8845.715360473255
 30
0.0
 11
7534.217031986059
 21
9695.715360473252
 31
0.0
  0
LINE
  5
1C880
330
1C77F
100
AcDbEntity
  8
CENTER
  6
1PL-M
100
AcDbLine
 10
7534.217031986059
 20
5295.715360473253
 30
0.0
 11
7534.217031986059
 21
8650.715360473251
 31
0.0
  0
LINE
  5
1C881
330
1C77F
100
AcDbEntity
  8
CENTER
  6
1PL-M
100
AcDbLine
 10
4264.217031986058
 20
9295.715360473252
 30
0.0
 11
6784.217031986064
 21
9295.715360473252
 31
0.0
  0
LINE
  5
1C882
330
1C77F
100
AcDbEntity
  8
CENTER
  6
1PL-M
100
AcDbLine
 10
9469.217031986065
 20
5695.715360473253
 30
0.0
 11
12479.21703198606
 21
5695.715360473253
 31
0.0
  0
LINE
  5
1C883
330
1C77F
100
AcDbEntity
  8
SUNPOU
100
AcDbLine
 10
8244.217031986062
 20
9685.715360473253
 30
0.0
 11
8244.217031986062
 21
5275.715360473252
 31
0.0
  0
LINE
  5
1C884
330
1C77F
100
AcDbEntity
  8
CENTER
  6
1PL-M
100
AcDbLine
 10
11634.21703198606
 20
5295.715360473253
 30
0.0
 11
11634.21703198606
 21
9695.715360473252
 31
0.0
  0
LINE
  5
1C885
330
1C77F
100
AcDbEntity
  8
CENTER
  6
1PL-M
100
AcDbLine
 10
8834.21703198606
 20
5295.715360473253
 30
0.0
 11
8834.21703198606
 21
6200.715360473253
 31
0.0
  0
LINE
  5
1C886
330
1C77F
100
AcDbEntity
  8
CENTER
  6
1PL-M
100
AcDbLine
 10
8834.21703198606
 20
6395.715360473253
 30
0.0
 11
8834.21703198606
 21
8020.715360473252
 31
0.0
  0
LINE
  5
1C887
330
1C77F
100
AcDbEntity
  8
SUNPOU
100
AcDbLine
 10
8834.21703198606
 20
9725.715360473252
 30
0.0
 11
8834.21703198606
 21
10040.71536047325
 31
0.0
  0
LINE
  5
1C888
330
1C77F
100
AcDbEntity
  8
SUNPOU
100
AcDbLine
 10
7534.217031986059
 20
9725.715360473252
 30
0.0
 11
7534.217031986059
 21
10040.71536047325
 31
0.0
  0
LINE
  5
1C889
330
1C77F
100
AcDbEntity
  8
SUNPOU
100
AcDbLine
 10
8819.21703198606
 20
9995.715360473253
 30
0.0
 11
7549.21703198606
 21
9995.715360473253
 31
0.0
  0
TEXT
  5
1C88A
330
1C77F
100
AcDbEntity
  8
HIKIDASHI
100
AcDbText
 10
5574.264373012014
 20
9691.715360473253
 30
0.0
 40
90.0
  1
（屋根前面位置）
  7
01
100
AcDbText
  0
TEXT
  5
1C88B
330
1C77F
100
AcDbEntity
  8
HIKIDASHI
100
AcDbText
 10
5490.155771095993
 20
9455.715360473243
 30
0.0
 40
90.0
  1
（土間コン後面位置）
  7
01
100
AcDbText
  0
SOLID
  5
1C88C
330
1C77F
100
AcDbEntity
  8
SUNPOU
100
AcDbTrace
 10
4099.471366614859
 20
5905.715360473253
 30
0.0
 11
4129.47136661486
 21
5905.715360473253
 31
0.0
 12
4114.47136661486
 22
5995.715360473253
 32
0.0
 13
4114.47136661486
 23
5995.715360473253
 33
0.0
  0
TEXT
  5
1C88D
330
1C77F
100
AcDbEntity
  8
SUNPOU
100
AcDbText
 10
4088.628509471999
 20
6040.715360473253
 30
0.0
 40
90.0
  1
A
 41
0.6700000000000001
  7
00
 72
     4
 11
4114.471366614856
 21
6085.715360473253
 31
0.0
100
AcDbText
  0
LINE
  5
1C88E
330
1C77F
100
AcDbEntity
  8
SUNPOU
100
AcDbLine
 10
4114.47136661486
 20
5905.715360473253
 30
0.0
 11
4114.47136661486
 21
5695.715360473253
 31
0.0
  0
LINE
  5
1C88F
330
1C77F
100
AcDbEntity
  8
SUNPOU
100
AcDbLine
 10
4114.47136661486
 20
5695.715360473253
 30
0.0
 11
4264.47136661486
 21
5695.715360473253
 31
0.0
  0
LINE
  5
1C890
330
1C77F
100
AcDbEntity
  8
SUNPOU
100
AcDbLine
 10
5219.630294679762
 20
5695.715360473253
 30
0.0
 11
5069.630294679758
 21
5695.715360473253
 31
0.0
  0
LINE
  5
1C891
330
1C77F
100
AcDbEntity
  8
SUNPOU
100
AcDbLine
 10
5219.630294679762
 20
5905.715360473253
 30
0.0
 11
5219.630294679762
 21
5695.715360473253
 31
0.0
  0
TEXT
  5
1C892
330
1C77F
100
AcDbEntity
  8
SUNPOU
100
AcDbText
 10
5183.737437536905
 20
6032.143931901824
 30
0.0
 40
90.0
  1
A'
 41
0.6700000000000001
  7
00
 72
     4
 11
5219.630294679762
 21
6085.715360473253
 31
0.0
100
AcDbText
  0
SOLID
  5
1C893
330
1C77F
100
AcDbEntity
  8
SUNPOU
100
AcDbTrace
 10
5234.630294679762
 20
5905.715360473253
 30
0.0
 11
5204.630294679763
 21
5905.715360473253
 31
0.0
 12
5219.630294679762
 22
5995.715360473253
 32
0.0
 13
5219.630294679762
 23
5995.715360473253
 33
0.0
  0
TEXT
  5
1C894
330
1C77F
100
AcDbEntity
  8
HIKIDASHI
100
AcDbText
 10
5574.264373012014
 20
5209.715360473254
 30
0.0
 40
90.0
  1
（屋根前面位置）
  7
01
100
AcDbText
  0
TEXT
  5
1C895
330
1C77F
100
AcDbEntity
  8
HIKIDASHI
100
AcDbText
 10
5490.155771095993
 20
5445.71536047326
 30
0.0
 40
90.0
  1
（土間コン前面位置）
  7
01
100
AcDbText
  0
TEXT
  5
1C896
330
1C77F
100
AcDbEntity
  8
HIKIDASHI
100
AcDbText
 10
8772.515803529449
 20
4879.531802304223
 30
0.0
 40
80.0
  1
)
 41
0.6700000000000001
  7
00
100
AcDbText
  0
TEXT
  5
1C897
330
1C77F
100
AcDbEntity
  8
HIKIDASHI
100
AcDbText
 10
8571.657054840065
 20
4895.09328005242
 30
0.0
 40
80.0
  1
1
 41
0.6700000000000001
  7
00
100
AcDbText
  0
TEXT
  5
1C898
330
1C77F
100
AcDbEntity
  8
HIKIDASHI
100
AcDbText
 10
8604.794192704373
 20
4879.531802304223
 30
0.0
 40
80.0
  1
/
 41
0.6700000000000001
  7
00
100
AcDbText
  0
TEXT
  5
1C899
330
1C77F
100
AcDbEntity
  8
HIKIDASHI
100
AcDbText
 10
8651.089347467019
 20
4853.363971103946
 30
0.0
 40
80.0
  1
40
 41
0.6700000000000001
  7
00
100
AcDbText
  0
TEXT
  5
1C89A
330
1C77F
100
AcDbEntity
  8
HIKIDASHI
100
AcDbText
 10
8390.949138902394
 20
4879.531802304223
 30
0.0
 40
80.0
  1
(S=
 41
0.6700000000000001
  7
00
100
AcDbText
  0
TEXT
  5
1C89B
330
1C77F
100
AcDbEntity
  8
HIKIDASHI
100
AcDbText
 10
7548.949138902393
 20
4855.715360473254
 30
0.0
 40
120.0
  1
基 礎 伏 図
  7
01
 72
     2
 11
8300.949138902394
 21
4855.715360473254
 31
0.0
100
AcDbText
  0
CIRCLE
  5
1C89C
330
1C77F
100
AcDbEntity
  8
HASHIRA
100
AcDbCircle
 10
4734.21703198606
 20
5755.715360473253
 30
0.0
 40
9.0
  0
CIRCLE
  5
1C89D
330
1C77F
100
AcDbEntity
  8
HASHIRA
100
AcDbCircle
 10
4734.21703198606
 20
5635.715360473253
 30
0.0
 40
9.0
  0
CIRCLE
  5
1C89E
330
1C77F
100
AcDbEntity
  8
HASHIRA
100
AcDbCircle
 10
4734.21703198606
 20
7555.715360473254
 30
0.0
 40
9.0
  0
CIRCLE
  5
1C89F
330
1C77F
100
AcDbEntity
  8
HASHIRA
100
AcDbCircle
 10
4734.21703198606
 20
7435.715360473253
 30
0.0
 40
9.0
  0
CIRCLE
  5
1C8A0
330
1C77F
100
AcDbEntity
  8
HASHIRA
100
AcDbCircle
 10
4734.21703198606
 20
9355.715360473253
 30
0.0
 40
9.0
  0
CIRCLE
  5
1C8A1
330
1C77F
100
AcDbEntity
  8
HASHIRA
100
AcDbCircle
 10
4734.21703198606
 20
9235.715360473252
 30
0.0
 40
9.0
  0
CIRCLE
  5
1C8A2
330
1C77F
100
AcDbEntity
  8
HASHIRA
100
AcDbCircle
 10
7534.217031986059
 20
5755.715360473253
 30
0.0
 40
9.0
  0
CIRCLE
  5
1C8A3
330
1C77F
100
AcDbEntity
  8
HASHIRA
100
AcDbCircle
 10
7534.217031986059
 20
5635.715360473253
 30
0.0
 40
9.0
  0
CIRCLE
  5
1C8A4
330
1C77F
100
AcDbEntity
  8
HASHIRA
100
AcDbCircle
 10
7534.217031986059
 20
7555.715360473254
 30
0.0
 40
9.0
  0
CIRCLE
  5
1C8A5
330
1C77F
100
AcDbEntity
  8
HASHIRA
100
AcDbCircle
 10
7534.217031986059
 20
7435.715360473253
 30
0.0
 40
9.0
  0
CIRCLE
  5
1C8A6
330
1C77F
100
AcDbEntity
  8
HASHIRA
100
AcDbCircle
 10
7534.217031986059
 20
9355.715360473253
 30
0.0
 40
9.0
  0
CIRCLE
  5
1C8A7
330
1C77F
100
AcDbEntity
  8
HASHIRA
100
AcDbCircle
 10
7534.217031986059
 20
9235.715360473252
 30
0.0
 40
9.0
  0
CIRCLE
  5
1C8A8
330
1C77F
100
AcDbEntity
  8
HASHIRA
100
AcDbCircle
 10
8834.21703198606
 20
5755.715360473253
 30
0.0
 40
9.0
  0
CIRCLE
  5
1C8A9
330
1C77F
100
AcDbEntity
  8
HASHIRA
100
AcDbCircle
 10
8834.21703198606
 20
5635.715360473253
 30
0.0
 40
9.0
  0
CIRCLE
  5
1C8AA
330
1C77F
100
AcDbEntity
  8
HASHIRA
100
AcDbCircle
 10
8834.21703198606
 20
7555.715360473254
 30
0.0
 40
9.0
  0
CIRCLE
  5
1C8AB
330
1C77F
100
AcDbEntity
  8
HASHIRA
100
AcDbCircle
 10
8834.21703198606
 20
7435.715360473253
 30
0.0
 40
9.0
  0
CIRCLE
  5
1C8AC
330
1C77F
100
AcDbEntity
  8
HASHIRA
100
AcDbCircle
 10
8834.21703198606
 20
9355.715360473253
 30
0.0
 40
9.0
  0
CIRCLE
  5
1C8AD
330
1C77F
100
AcDbEntity
  8
HASHIRA
100
AcDbCircle
 10
8834.21703198606
 20
9235.715360473252
 30
0.0
 40
9.0
  0
CIRCLE
  5
1C8AE
330
1C77F
100
AcDbEntity
  8
HASHIRA
100
AcDbCircle
 10
11634.21703198606
 20
5755.715360473253
 30
0.0
 40
9.0
  0
CIRCLE
  5
1C8AF
330
1C77F
100
AcDbEntity
  8
HASHIRA
100
AcDbCircle
 10
11634.21703198606
 20
5635.715360473253
 30
0.0
 40
9.0
  0
CIRCLE
  5
1C8B0
330
1C77F
100
AcDbEntity
  8
HASHIRA
100
AcDbCircle
 10
11634.21703198606
 20
7555.715360473254
 30
0.0
 40
9.0
  0
CIRCLE
  5
1C8B1
330
1C77F
100
AcDbEntity
  8
HASHIRA
100
AcDbCircle
 10
11634.21703198606
 20
7435.715360473253
 30
0.0
 40
9.0
  0
CIRCLE
  5
1C8B2
330
1C77F
100
AcDbEntity
  8
HASHIRA
100
AcDbCircle
 10
11634.21703198606
 20
9355.715360473253
 30
0.0
 40
9.0
  0
CIRCLE
  5
1C8B3
330
1C77F
100
AcDbEntity
  8
HASHIRA
100
AcDbCircle
 10
11634.21703198606
 20
9235.715360473252
 30
0.0
 40
9.0
  0
TEXT
  5
1C8D1
330
1C77F
100
AcDbEntity
  8
SUNPOU
100
AcDbText
 10
12389.21703198605
 20
5460.001074758968
 30
0.0
 40
90.0
  1
300
 50
90.0
 41
0.6666666666666666
  7
00
 72
     4
 11
12344.21703198606
 21
5545.715360473253
 31
0.0
100
AcDbText
  0
TEXT
  5
1C8D2
330
1C77F
100
AcDbEntity
  8
SUNPOU
100
AcDbText
 10
5092.19781972598
 20
8040.715360473251
 30
0.0
 40
90.0
  1
B
 41
0.6700000000000001
  7
00
 72
     4
 11
5123.783534011693
 21
8085.715360473251
 31
0.0
100
AcDbText
  0
LINE
  5
1C8D3
330
1C77F
100
AcDbEntity
  8
SUNPOU
100
AcDbLine
 10
4734.21703198606
 20
8085.715360473251
 30
0.0
 11
4734.21703198606
 21
7935.715360473252
 31
0.0
  0
LINE
  5
1C8D4
330
1C77F
100
AcDbEntity
  8
SUNPOU
100
AcDbLine
 10
4944.21703198606
 20
8085.715360473251
 30
0.0
 11
4734.21703198606
 21
8085.715360473251
 31
0.0
  0
SOLID
  5
1C8D5
330
1C77F
100
AcDbEntity
  8
SUNPOU
100
AcDbTrace
 10
4944.21703198606
 20
8100.71536047325
 30
0.0
 11
4944.21703198606
 21
8070.715360473251
 31
0.0
 12
5034.217031986058
 22
8085.715360473251
 32
0.0
 13
5034.217031986058
 23
8085.715360473251
 33
0.0
  0
TEXT
  5
1C8D6
330
1C77F
100
AcDbEntity
  8
SUNPOU
100
AcDbText
 10
5079.27639115455
 20
6852.143931901823
 30
0.0
 40
90.0
  1
B'
 41
0.6700000000000001
  7
00
 72
     4
 11
5123.783534011693
 21
6905.715360473251
 31
0.0
100
AcDbText
  0
LINE
  5
1C8D7
330
1C77F
100
AcDbEntity
  8
SUNPOU
100
AcDbLine
 10
4734.21703198606
 20
6905.715360473251
 30
0.0
 11
4734.21703198606
 21
7055.715360473252
 31
0.0
  0
LINE
  5
1C8D8
330
1C77F
100
AcDbEntity
  8
SUNPOU
100
AcDbLine
 10
4944.21703198606
 20
6905.715360473251
 30
0.0
 11
4734.21703198606
 21
6905.715360473251
 31
0.0
  0
SOLID
  5
1C8D9
330
1C77F
100
AcDbEntity
  8
SUNPOU
100
AcDbTrace
 10
4944.21703198606
 20
6890.715360473253
 30
0.0
 11
4944.21703198606
 21
6920.715360473252
 31
0.0
 12
5034.217031986058
 22
6905.715360473251
 32
0.0
 13
5034.217031986058
 23
6905.715360473251
 33
0.0
  0
LINE
  5
1C8DA
330
1C77F
100
AcDbEntity
  8
1PL-S1
100
AcDbLine
 10
12183.67906519162
 20
2706.98339285572
 30
0.0
 11
12815.67906519162
 21
2706.98339285572
 31
0.0
  0
LINE
  5
1C8DB
330
1C77F
100
AcDbEntity
  8
U1
100
AcDbLine
 10
12349.67906519164
 20
3649.176085387133
 30
0.0
 11
12349.67906519164
 21
4033.2406245664
 31
0.0
  0
LINE
  5
1C8DC
330
1C77F
100
AcDbEntity
  8
U1
100
AcDbLine
 10
12649.67906519162
 20
3649.176085387133
 30
0.0
 11
12649.67906519162
 21
4033.2406245664
 31
0.0
  0
LINE
  5
1C8DD
330
1C77F
100
AcDbEntity
  8
1PL-S1
100
AcDbLine
 10
12499.67906519162
 20
3585.176085387133
 30
0.0
 11
12499.67906519162
 21
4073.240624566401
 31
0.0
  0
CIRCLE
  5
1C8DE
330
1C77F
100
AcDbEntity
  8
U1
100
AcDbCircle
 10
12499.67906519162
 20
3893.176085387133
 30
0.0
 40
24.0
  0
LINE
  5
1C8DF
330
1C77F
100
AcDbEntity
  8
1PL-S1
100
AcDbLine
 10
12259.67906519162
 20
2630.983392855721
 30
0.0
 11
12259.67906519162
 21
2782.983392855721
 31
0.0
  0
LINE
  5
1C8E0
330
1C77F
100
AcDbEntity
  8
1PL-S1
100
AcDbLine
 10
12739.67906519162
 20
2630.983392855721
 30
0.0
 11
12739.67906519162
 21
2782.983392855721
 31
0.0
  0
LINE
  5
1C8E1
330
1C77F
100
AcDbEntity
  8
1PL-S1
100
AcDbLine
 10
12499.67906519162
 20
2506.983392855721
 30
0.0
 11
12499.67906519162
 21
2906.983392855721
 31
0.0
  0
CIRCLE
  5
1C8E2
330
1C77F
100
AcDbEntity
  8
U1
100
AcDbCircle
 10
12259.67906519162
 20
2706.98339285572
 30
0.0
 40
36.0
  0
LINE
  5
1C8E3
330
1C77F
100
AcDbEntity
  8
U1
100
AcDbLine
 10
12649.67906519162
 20
2706.98339285572
 30
0.0
 11
12570.65198643327
 21
2706.98339285572
 31
0.0
  0
CIRCLE
  5
1C8E4
330
1C77F
100
AcDbEntity
  8
U1
100
AcDbCircle
 10
12739.67906519162
 20
2706.98339285572
 30
0.0
 40
36.0
  0
LINE
  5
1C8E5
330
1C77F
100
AcDbEntity
  8
1PL-S1
100
AcDbLine
 10
12435.67906519162
 20
3733.176085387134
 30
0.0
 11
12563.67906519162
 21
3733.176085387134
 31
0.0
  0
LINE
  5
1C8E6
330
1C77F
100
AcDbEntity
  8
1PL-S1
100
AcDbLine
 10
12259.67906519163
 20
3585.176085387133
 30
0.0
 11
12259.67906519162
 21
3689.176085387134
 31
0.0
  0
LINE
  5
1C8E7
330
1C77F
100
AcDbEntity
  8
1PL-S1
100
AcDbLine
 10
12739.67906519162
 20
3585.176085387133
 30
0.0
 11
12739.67906519162
 21
3689.176085387134
 31
0.0
  0
CIRCLE
  5
1C8E8
330
1C77F
100
AcDbEntity
  8
U1
100
AcDbCircle
 10
12499.67906519162
 20
3733.176085387134
 30
0.0
 40
24.0
  0
LINE
  5
1C8E9
330
1C77F
100
AcDbEntity
  8
1PL-S1
100
AcDbLine
 10
12435.67906519162
 20
3893.176085387133
 30
0.0
 11
12563.67906519162
 21
3893.176085387133
 31
0.0
  0
LINE
  5
1C8EA
330
1C77F
100
AcDbEntity
  8
HIKIDASHI
100
AcDbLine
 10
13031.5743233676
 20
3074.500648967407
 30
0.0
 11
13615.61511893156
 21
3074.500648967407
 31
0.0
  0
TEXT
  5
1C8EB
330
1C77F
100
AcDbEntity
  8
HIKIDASHI
100
AcDbText
 10
13050.86432116434
 20
3119.500648967407
 30
0.0
 40
90.0
  1
プレ－ト
  7
01
 72
     2
 11
13440.86432116434
 21
3119.500648967407
 31
0.0
100
AcDbText
  0
TEXT
  5
1C8EC
330
1C77F
100
AcDbEntity
  8
HIKIDASHI
100
AcDbText
 10
13479.31950184674
 20
3119.500648967407
 30
0.0
 40
90.0
  1
6
 41
0.6666666666666666
  7
00
 72
     2
 11
13527.89093041817
 21
3119.500648967407
 31
0.0
100
AcDbText
  0
TEXT
  5
1C8ED
330
1C77F
100
AcDbEntity
  8
HIKIDASHI
100
AcDbText
 10
13565.31715231874
 20
3133.486397403372
 30
0.0
 40
89.99999909999997
  1
t
 41
0.6700000000000001
  7
00
100
AcDbText
  0
LINE
  5
1C8EE
330
1C77F
100
AcDbEntity
  8
1PL-M1
100
AcDbLine
 10
5758.137742396995
 20
2435.011174681359
 30
0.0
 11
5758.137742396995
 21
4182.324460358763
 31
0.0
  0
LINE
  5
1C8EF
330
1C77F
100
AcDbEntity
  8
KISO
100
AcDbLine
 10
7040.534465136305
 20
3460.323888222176
 30
0.0
 11
5810.137742396987
 21
3460.323888222176
 31
0.0
  0
LINE
  5
1C8F0
330
1C77F
100
AcDbEntity
  8
KISO
100
AcDbLine
 10
7040.534465136305
 20
3325.923888222177
 30
0.0
 11
5278.137742396996
 21
3325.923888222175
 31
0.0
  0
LINE
  5
1C8F1
330
1C77F
100
AcDbEntity
  8
HATCH
100
AcDbLine
 10
5986.296202588415
 20
3460.323888222176
 30
0.0
 11
5851.896202588426
 21
3325.923888222177
 31
0.0
  0
LINE
  5
1C8F2
330
1C77F
100
AcDbEntity
  8
U3
100
AcDbLine
 10
4312.302349152495
 20
3380.323888222175
 30
0.0
 11
4480.302349152498
 21
3212.32388822218
 31
0.0
  0
LINE
  5
1C8F3
330
1C77F
100
AcDbEntity
  8
U3
100
AcDbLine
 10
4261.390660907061
 20
3329.412199976744
 30
0.0
 11
4378.478972661631
 21
3212.323888222175
 31
0.0
  0
LINE
  5
1C8F4
330
1C77F
100
AcDbEntity
  8
U3
100
AcDbLine
 10
4548.160786662853
 20
3380.323888222175
 30
0.0
 11
3976.302349152496
 21
3380.323888222175
 31
0.0
  0
LINE
  5
1C8F5
330
1C77F
100
AcDbEntity
  8
U3
100
AcDbLine
 10
4042.478972661631
 20
3314.147264713039
 30
0.0
 11
4108.655596170764
 21
3380.323888222174
 31
0.0
  0
LINE
  5
1C8F6
330
1C77F
100
AcDbEntity
  8
U3
100
AcDbLine
 10
3976.302349152496
 20
3380.323888222174
 30
0.0
 11
4144.302349152495
 21
3212.323888222178
 31
0.0
  0
LINE
  5
1C8F7
330
1C77F
100
AcDbEntity
  8
U3
100
AcDbLine
 10
4093.390660907064
 20
3263.235576467609
 30
0.0
 11
4210.478972661631
 21
3380.323888222174
 31
0.0
  0
LINE
  5
1C8F8
330
1C77F
100
AcDbEntity
  8
U3
100
AcDbLine
 10
4144.302349152495
 20
3212.323888222178
 30
0.0
 11
4312.302349152495
 21
3380.323888222175
 31
0.0
  0
LINE
  5
1C8F9
330
1C77F
100
AcDbEntity
  8
U3
100
AcDbLine
 10
4210.478972661631
 20
3278.500511731312
 30
0.0
 11
4276.655596170768
 21
3212.323888222175
 31
0.0
  0
LINE
  5
1C8FA
330
1C77F
100
AcDbEntity
  8
U3
100
AcDbLine
 10
4480.302349152498
 20
3212.32388822218
 30
0.0
 11
4548.160786662853
 21
3280.182325732535
 31
0.0
  0
LINE
  5
1C8FB
330
1C77F
100
AcDbEntity
  8
U3
100
AcDbLine
 10
4378.478972661631
 20
3314.147264713039
 30
0.0
 11
4444.655596170764
 21
3380.323888222175
 31
0.0
  0
LINE
  5
1C8FC
330
1C77F
100
AcDbEntity
  8
U3
100
AcDbLine
 10
4429.390660907063
 20
3263.235576467611
 30
0.0
 11
4546.478972661634
 21
3380.323888222175
 31
0.0
  0
LINE
  5
1C8FD
330
1C77F
100
AcDbEntity
  8
HASHIRA
100
AcDbLine
 10
5810.137742396987
 20
3335.52388822218
 30
0.0
 11
5810.137742396987
 21
3725.757093422924
 31
0.0
  0
LINE
  5
1C8FE
330
1C77F
100
AcDbEntity
  8
HASHIRA
100
AcDbLine
 10
5706.137742396987
 20
3725.757093422924
 30
0.0
 11
5706.137742396987
 21
3335.52388822218
 31
0.0
  0
LINE
  5
1C8FF
330
1C77F
100
AcDbEntity
  8
U3
100
AcDbLine
 10
5118.137742396996
 20
3380.323888222175
 30
0.0
 11
4868.160786662853
 21
3380.323888222175
 31
0.0
  0
LINE
  5
1C900
330
1C77F
100
AcDbEntity
  8
U3
100
AcDbLine
 10
4934.106034029378
 20
3335.34141873192
 30
0.0
 11
5057.123564539126
 21
3212.323888222175
 31
0.0
  0
LINE
  5
1C901
330
1C77F
100
AcDbEntity
  8
KISO
100
AcDbLine
 10
5706.137742396987
 20
3460.323888222176
 30
0.0
 11
5118.137742396996
 21
3460.323888222176
 31
0.0
  0
LINE
  5
1C902
330
1C77F
100
AcDbEntity
  8
HATCH
100
AcDbLine
 10
5789.655318092737
 20
3325.923888222182
 30
0.0
 11
5768.537742396997
 21
3304.806312526439
 31
0.0
  0
LINE
  5
1C903
330
1C77F
100
AcDbEntity
  8
KISO
100
AcDbLine
 10
6238.137742397004
 20
3197.923888222176
 30
0.0
 11
7040.534465136305
 21
3197.923888222177
 31
0.0
  0
LINE
  5
1C904
330
1C77F
100
AcDbEntity
  8
HATCH
100
AcDbLine
 10
6993.813778284151
 20
3460.323888222176
 30
0.0
 11
6859.413778284165
 21
3325.923888222177
 31
0.0
  0
LINE
  5
1C905
330
1C77F
100
AcDbEntity
  8
HATCH
100
AcDbLine
 10
7041.331353979891
 20
3460.323888222176
 30
0.0
 11
6906.931353979896
 21
3325.923888222177
 31
0.0
  0
LINE
  5
1C906
330
1C77F
100
AcDbEntity
  8
HATCH
100
AcDbLine
 10
6466.296202588414
 20
3460.323888222176
 30
0.0
 11
6331.896202588422
 21
3325.923888222177
 31
0.0
  0
LINE
  5
1C907
330
1C77F
100
AcDbEntity
  8
HATCH
100
AcDbLine
 10
6513.813778284151
 20
3460.323888222176
 30
0.0
 11
6379.413778284165
 21
3325.923888222177
 31
0.0
  0
LINE
  5
1C908
330
1C77F
100
AcDbEntity
  8
HATCH
100
AcDbLine
 10
6081.331353979892
 20
3460.323888222176
 30
0.0
 11
5946.931353979896
 21
3325.923888222177
 31
0.0
  0
LINE
  5
1C909
330
1C77F
100
AcDbEntity
  8
HATCH
100
AcDbLine
 10
6033.813778284152
 20
3460.323888222176
 30
0.0
 11
5899.413778284166
 21
3325.923888222177
 31
0.0
  0
LINE
  5
1C90A
330
1C77F
100
AcDbEntity
  8
HATCH
100
AcDbLine
 10
6561.331353979891
 20
3460.323888222176
 30
0.0
 11
6426.931353979897
 21
3325.923888222177
 31
0.0
  0
LINE
  5
1C90B
330
1C77F
100
AcDbEntity
  8
HATCH
100
AcDbLine
 10
6946.296202588415
 20
3460.323888222176
 30
0.0
 11
6811.89620258842
 21
3325.923888222177
 31
0.0
  0
LINE
  5
1C90C
330
1C77F
100
AcDbEntity
  8
KISO
100
AcDbLine
 10
5278.137742396996
 20
3325.923888222175
 30
0.0
 11
5278.137742396996
 21
2717.923888222177
 31
0.0
  0
LINE
  5
1C90D
330
1C77F
100
AcDbEntity
  8
KISO
100
AcDbLine
 10
6238.137742396993
 20
3325.923888222175
 30
0.0
 11
6238.137742396993
 21
2717.923888222177
 31
0.0
  0
LINE
  5
1C90E
330
1C77F
100
AcDbEntity
  8
HATCH
100
AcDbLine
 10
6238.137742396993
 20
2910.406312526436
 30
0.0
 11
6045.655318092737
 21
2717.923888222177
 31
0.0
  0
LINE
  5
1C90F
330
1C77F
100
AcDbEntity
  8
HATCH
100
AcDbLine
 10
6238.137742396993
 20
3294.888736830703
 30
0.0
 11
5661.172893788478
 21
2717.923888222177
 31
0.0
  0
LINE
  5
1C910
330
1C77F
100
AcDbEntity
  8
HATCH
100
AcDbLine
 10
6221.655318092736
 20
3325.923888222173
 30
0.0
 11
5768.537742396997
 21
2872.806312526432
 31
0.0
  0
LINE
  5
1C911
330
1C77F
100
AcDbEntity
  8
HATCH
100
AcDbLine
 10
6174.137742396993
 20
3325.923888222173
 30
0.0
 11
5768.537742396997
 21
2920.323888222171
 31
0.0
  0
LINE
  5
1C912
330
1C77F
100
AcDbEntity
  8
HATCH
100
AcDbLine
 10
6238.137742396993
 20
2862.888736830697
 30
0.0
 11
6093.172893788478
 21
2717.923888222177
 31
0.0
  0
LINE
  5
1C913
330
1C77F
100
AcDbEntity
  8
HATCH
100
AcDbLine
 10
6238.137742396993
 20
2815.371161134964
 30
0.0
 11
6140.69046948421
 21
2717.923888222177
 31
0.0
  0
LINE
  5
1C914
330
1C77F
100
AcDbEntity
  8
HATCH
100
AcDbLine
 10
5742.137742397011
 20
3325.923888222182
 30
0.0
 11
5278.137742396996
 21
2861.923888222166
 31
0.0
  0
LINE
  5
1C915
330
1C77F
100
AcDbEntity
  8
HATCH
100
AcDbLine
 10
5694.620166701263
 20
3325.923888222177
 30
0.0
 11
5278.137742396996
 21
2909.441463917907
 31
0.0
  0
LINE
  5
1C916
330
1C77F
100
AcDbEntity
  8
HATCH
100
AcDbLine
 10
5747.737742396994
 20
3284.006312526437
 30
0.0
 11
5278.137742396996
 21
2814.406312526436
 31
0.0
  0
LINE
  5
1C917
330
1C77F
100
AcDbEntity
  8
HATCH
100
AcDbLine
 10
5310.137742397003
 20
3325.923888222175
 30
0.0
 11
5278.137742396996
 21
3293.923888222169
 31
0.0
  0
LINE
  5
1C918
330
1C77F
100
AcDbEntity
  8
HATCH
100
AcDbLine
 10
5747.737742396994
 20
2899.523888222169
 30
0.0
 11
5724.537742397011
 21
2876.323888222183
 31
0.0
  0
LINE
  5
1C919
330
1C77F
100
AcDbEntity
  8
HATCH
100
AcDbLine
 10
5703.737742397012
 20
2855.523888222182
 30
0.0
 11
5566.137742397007
 21
2717.923888222177
 31
0.0
  0
LINE
  5
1C91A
330
1C77F
100
AcDbEntity
  8
U3
100
AcDbLine
 10
4883.194345783946
 20
3284.429730486489
 30
0.0
 11
4955.300188048265
 21
3212.323888222175
 31
0.0
  0
LINE
  5
1C91B
330
1C77F
100
AcDbEntity
  8
U3
100
AcDbLine
 10
4868.160786662853
 20
3269.396171365396
 30
0.0
 11
4979.088503519632
 21
3380.323888222174
 31
0.0
  0
LINE
  5
1C91C
330
1C77F
100
AcDbEntity
  8
HATCH
100
AcDbLine
 10
5751.255318092752
 20
2855.523888222182
 30
0.0
 11
5613.655318092747
 21
2717.923888222177
 31
0.0
  0
LINE
  5
1C91D
330
1C77F
100
AcDbEntity
  8
HATCH
100
AcDbLine
 10
5601.331353979893
 20
3460.323888222176
 30
0.0
 11
5466.931353979897
 21
3325.923888222177
 31
0.0
  0
LINE
  5
1C91E
330
1C77F
100
AcDbEntity
  8
HATCH
100
AcDbLine
 10
5553.81377828415
 20
3460.323888222176
 30
0.0
 11
5419.413778284166
 21
3325.923888222177
 31
0.0
  0
LINE
  5
1C91F
330
1C77F
100
AcDbEntity
  8
HATCH
100
AcDbLine
 10
5506.296202588416
 20
3460.323888222176
 30
0.0
 11
5371.896202588426
 21
3325.923888222177
 31
0.0
  0
LINE
  5
1C920
330
1C77F
100
AcDbEntity
  8
SUNPOU
100
AcDbLine
 10
5758.137742396995
 20
4137.324460358764
 30
0.0
 11
7183.368249647246
 21
4137.324460358764
 31
0.0
  0
TEXT
  5
1C921
330
1C77F
100
AcDbEntity
  8
SUNPOU
100
AcDbText
 10
6543.965441537459
 20
4182.324460358762
 30
0.0
 40
90.0
  1
2800
 41
0.6666666666666666
  7
00
 72
     4
 11
6658.251155823174
 21
4227.324460358762
 31
0.0
100
AcDbText
  0
LINE
  5
1C922
330
1C77F
100
AcDbEntity
  8
HATCH
100
AcDbLine
 10
5812.734204289836
 20
2557.923888222175
 30
0.0
 11
5905.110246956501
 21
2717.923888222177
 31
0.0
  0
LINE
  5
1C923
330
1C77F
100
AcDbEntity
  8
HATCH
100
AcDbLine
 10
5851.776913623166
 20
2717.923888222177
 30
0.0
 11
5878.443580289835
 21
2671.735865555513
 31
0.0
  0
LINE
  5
1C924
330
1C77F
100
AcDbEntity
  8
HATCH
100
AcDbLine
 10
5839.400870956501
 20
2604.111909555508
 30
0.0
 11
5866.06753762317
 21
2557.923888222175
 31
0.0
  0
LINE
  5
1C925
330
1C77F
100
AcDbEntity
  8
HATCH
100
AcDbLine
 10
5639.400870956501
 20
2604.111909555508
 30
0.0
 11
5666.06753762317
 21
2557.923888222175
 31
0.0
  0
LINE
  5
1C926
330
1C77F
100
AcDbEntity
  8
HATCH
100
AcDbLine
 10
5651.776913623166
 20
2717.923888222177
 30
0.0
 11
5678.443580289835
 21
2671.735865555513
 31
0.0
  0
LINE
  5
1C927
330
1C77F
100
AcDbEntity
  8
HATCH
100
AcDbLine
 10
5439.400870956502
 20
2604.111909555508
 30
0.0
 11
5466.06753762317
 21
2557.923888222175
 31
0.0
  0
LINE
  5
1C928
330
1C77F
100
AcDbEntity
  8
HATCH
100
AcDbLine
 10
5412.734204289836
 20
2557.923888222175
 30
0.0
 11
5505.110246956501
 21
2717.923888222177
 31
0.0
  0
LINE
  5
1C929
330
1C77F
100
AcDbEntity
  8
HATCH
100
AcDbLine
 10
5451.776913623167
 20
2717.923888222177
 30
0.0
 11
5478.443580289835
 21
2671.735865555513
 31
0.0
  0
LINE
  5
1C92A
330
1C77F
100
AcDbEntity
  8
HATCH
100
AcDbLine
 10
5239.400870956502
 20
2604.111909555508
 30
0.0
 11
5266.06753762317
 21
2557.923888222175
 31
0.0
  0
LINE
  5
1C92B
330
1C77F
100
AcDbEntity
  8
HATCH
100
AcDbLine
 10
5251.776913623167
 20
2717.923888222177
 30
0.0
 11
5278.443580289835
 21
2671.735865555513
 31
0.0
  0
LINE
  5
1C92C
330
1C77F
100
AcDbEntity
  8
HATCH
100
AcDbLine
 10
5212.734204289835
 20
2557.923888222175
 30
0.0
 11
5305.110246956502
 21
2717.923888222177
 31
0.0
  0
LINE
  5
1C92D
330
1C77F
100
AcDbEntity
  8
HATCH
100
AcDbLine
 10
5612.734204289836
 20
2557.923888222175
 30
0.0
 11
5705.110246956501
 21
2717.923888222177
 31
0.0
  0
LINE
  5
1C92E
330
1C77F
100
AcDbEntity
  8
HATCH
100
AcDbLine
 10
6051.776913623166
 20
2717.923888222177
 30
0.0
 11
6078.443580289835
 21
2671.735865555513
 31
0.0
  0
LINE
  5
1C92F
330
1C77F
100
AcDbEntity
  8
HATCH
100
AcDbLine
 10
6012.734204289836
 20
2557.923888222175
 30
0.0
 11
6105.110246956502
 21
2717.923888222177
 31
0.0
  0
LINE
  5
1C930
330
1C77F
100
AcDbEntity
  8
HATCH
100
AcDbLine
 10
6039.400870956502
 20
2604.111909555508
 30
0.0
 11
6066.06753762317
 21
2557.923888222175
 31
0.0
  0
TEXT
  5
1C931
330
1C77F
100
AcDbEntity
  8
SUNPOU
100
AcDbText
 10
4028.402207261999
 20
3515.323888222175
 30
0.0
 40
90.0
  1
G.L
 41
0.6700000000000001
  7
01
 72
     4
 11
4100.187921547713
 21
3560.323888222176
 31
0.0
100
AcDbText
  0
LINE
  5
1C932
330
1C77F
100
AcDbEntity
  8
SUNPOU
100
AcDbLine
 10
4152.149445774781
 20
3470.323888222176
 30
0.0
 11
4048.226397320648
 21
3470.323888222176
 31
0.0
  0
LINE
  5
1C933
330
1C77F
100
AcDbEntity
  8
SUNPOU
100
AcDbLine
 10
4048.226397320648
 20
3470.323888222176
 30
0.0
 11
4100.187921547713
 21
3380.323888222175
 31
0.0
  0
LINE
  5
1C934
330
1C77F
100
AcDbEntity
  8
SUNPOU
100
AcDbLine
 10
4100.187921547713
 20
3380.323888222175
 30
0.0
 11
4152.149445774781
 21
3470.323888222176
 31
0.0
  0
TEXT
  5
1C935
330
1C77F
100
AcDbEntity
  8
HIKIDASHI
100
AcDbText
 10
5834.341345275769
 20
1671.474869379508
 30
0.0
 40
90.0
  1
断 面
  7
01
100
AcDbText
  0
LINE
  5
1C936
330
1C77F
100
AcDbEntity
  8
HIKIDASHI
100
AcDbLine
 10
5410.324065779207
 20
1626.474869379508
 30
0.0
 11
6105.951419014775
 21
1626.474869379508
 31
0.0
  0
LINE
  5
1C937
330
1C77F
100
AcDbEntity
  8
HIKIDASHI
100
AcDbLine
 10
5410.324065779207
 20
1596.474869379508
 30
0.0
 11
6105.951419014775
 21
1596.474869379508
 31
0.0
  0
TEXT
  5
1C938
330
1C77F
100
AcDbEntity
  8
HIKIDASHI
100
AcDbText
 10
5440.324065779208
 20
1671.474869379508
 30
0.0
 40
90.0
  1
A  ~  A'
 41
0.6700000000000001
  7
00
100
AcDbText
  0
TEXT
  5
1C939
330
1C77F
100
AcDbEntity
  8
HIKIDASHI
100
AcDbText
 10
6677.046222822155
 20
2955.953755823452
 30
0.0
 40
90.0
  1
敷砂利又は砕石
  7
01
 72
     2
 11
7409.046222822155
 21
3000.953755823453
 31
0.0
100
AcDbText
 73
     2
  0
LINE
  5
1C93A
330
1C77F
100
AcDbEntity
  8
HIKIDASHI
100
AcDbLine
 10
7434.276523467835
 20
2910.953755823452
 30
0.0
 11
6633.212353740688
 21
2910.953755823452
 31
0.0
  0
TEXT
  5
1C93B
330
1C77F
100
AcDbEntity
  8
HIKIDASHI
100
AcDbText
 10
6641.746395524101
 20
2400.143287355454
 30
0.0
 40
90.0
  1
砕　石
  7
01
 72
     2
 11
6941.746395524102
 21
2445.143287355454
 31
0.0
100
AcDbText
 73
     2
  0
LINE
  5
1C93C
330
1C77F
100
AcDbEntity
  8
HIKIDASHI
100
AcDbLine
 10
6983.445164759816
 20
2355.143287355454
 30
0.0
 11
6614.678787932191
 21
2355.143287355454
 31
0.0
  0
TEXT
  5
1C93D
330
1C77F
100
AcDbEntity
  8
SUNPOU
100
AcDbText
 10
6555.832451685846
 20
2585.723754658951
 30
0.0
 40
90.0
  1
4-D13×4-D13
 41
0.6700000000000001
  7
01
 72
     4
 11
6899.255308828704
 21
2630.723754658951
 31
0.0
100
AcDbText
  0
TEXT
  5
1C93E
330
1C77F
100
AcDbEntity
  8
SUNPOU
100
AcDbText
 10
6690.948165971561
 20
2720.723754658949
 30
0.0
 40
90.0
  1
ベース筋
  7
01
 72
     4
 11
6894.94816597156
 21
2765.723754658949
 31
0.0
100
AcDbText
  0
TEXT
  5
1C93F
330
1C77F
100
AcDbEntity
  8
HIKIDASHI
100
AcDbText
 10
4282.185726293611
 20
1821.71791807292
 30
0.0
 40
89.55223880597014
  1
x
 41
0.6700000000000001
  7
00
100
AcDbText
  0
TEXT
  5
1C940
330
1C77F
100
AcDbEntity
  8
HIKIDASHI
100
AcDbText
 10
4210.350789103236
 20
1809.927442830506
 30
0.0
 40
67.16417910447761
  1
2
 41
0.6700000000000001
  7
00
100
AcDbText
  0
TEXT
  5
1C941
330
1C77F
100
AcDbEntity
  8
HIKIDASHI
100
AcDbText
 10
4122.458752544313
 20
1836.953497861068
 30
0.0
 40
67.16417910447761
  1
1
 41
0.6700000000000001
  7
00
100
AcDbText
  0
TEXT
  5
1C942
330
1C77F
100
AcDbEntity
  8
HIKIDASHI
100
AcDbText
 10
4047.857941861089
 20
1810.523888222174
 30
0.0
 40
89.55223880597014
  1
W ／
 41
0.6700000000000001
  7
00
100
AcDbText
  0
TEXT
  5
1C943
330
1C77F
100
AcDbEntity
  8
HIKIDASHI
100
AcDbText
 10
4363.321105446742
 20
1810.314902022081
 30
0.0
 40
89.55223880597014
  1
300
 41
0.6700000000000001
  7
00
100
AcDbText
  0
TEXT
  5
1C944
330
1C77F
100
AcDbEntity
  8
HIKIDASHI
100
AcDbText
 10
4047.857941861089
 20
1990.523888222173
 30
0.0
 40
90.0
  1
アンカーボルト
  7
01
100
AcDbText
  0
LINE
  5
1C945
330
1C77F
100
AcDbEntity
  8
HIKIDASHI
100
AcDbLine
 10
4018.778332999384
 20
1945.523888222172
 30
0.0
 11
4838.784346396234
 21
1945.523888222172
 31
0.0
  0
TEXT
  5
1C946
330
1C77F
100
AcDbEntity
  8
SUNPOU
100
AcDbText
 10
11708.39210130901
 20
1681.425310637644
 30
0.0
 40
120.0
  1
柱脚金具詳細図
  7
01
 72
     4
 11
12192.39210130901
 21
1741.425310637644
 31
0.0
100
AcDbText
  0
TEXT
  5
1C947
330
1C77F
100
AcDbEntity
  8
SUNPOU
100
AcDbText
 10
13104.50093047745
 20
1678.963772176106
 30
0.0
 40
73.84615384615384
  1
/
 41
0.6700000000000001
  7
00
 11
13104.50093047745
 21
1669.117618329952
 31
0.0
100
AcDbText
 73
     1
  0
TEXT
  5
1C948
330
1C77F
100
AcDbEntity
  8
SUNPOU
100
AcDbText
 10
13168.45037343182
 20
1660.502233714565
 30
0.0
 40
73.84615384615384
  1
10
 41
0.6700000000000001
  7
00
 11
13168.45037343182
 21
1650.656079868411
 31
0.0
100
AcDbText
 73
     1
  0
TEXT
  5
1C949
330
1C77F
100
AcDbEntity
  8
SUNPOU
100
AcDbText
 10
13056.09480316209
 20
1697.425310637645
 30
0.0
 40
73.84615384615384
  1
1
 41
0.6700000000000001
  7
00
 11
13056.09480316209
 21
1687.579156791491
 31
0.0
100
AcDbText
 73
     1
  0
TEXT
  5
1C94A
330
1C77F
100
AcDbEntity
  8
SUNPOU
100
AcDbText
 10
12736.39210130901
 20
1681.425310637644
 30
0.0
 40
92.30769230769228
  1
（ S = 　　  ）
 41
0.6700000000000001
  7
00
 11
12736.39210130901
 21
1669.117618329952
 31
0.0
100
AcDbText
 73
     1
  0
LINE
  5
1C94B
330
1C77F
100
AcDbEntity
  8
HATCH
100
AcDbLine
 10
6251.776913623166
 20
2717.923888222177
 30
0.0
 11
6278.443580289835
 21
2671.735865555513
 31
0.0
  0
LINE
  5
1C94C
330
1C77F
100
AcDbEntity
  8
HATCH
100
AcDbLine
 10
6212.734204289836
 20
2557.923888222175
 30
0.0
 11
6305.110246956502
 21
2717.923888222177
 31
0.0
  0
LINE
  5
1C94D
330
1C77F
100
AcDbEntity
  8
HATCH
100
AcDbLine
 10
6239.400870956501
 20
2604.111909555508
 30
0.0
 11
6266.06753762317
 21
2557.923888222175
 31
0.0
  0
CIRCLE
  5
1C94E
330
1C77F
100
AcDbEntity
  8
BOLT
100
AcDbCircle
 10
9538.463942920641
 20
3433.123888222172
 30
0.0
 40
13.2
  0
CIRCLE
  5
1C94F
330
1C77F
100
AcDbEntity
  8
BOLT
100
AcDbCircle
 10
9538.463942920641
 20
3433.123888222172
 30
0.0
 40
16.8
  0
CIRCLE
  5
1C950
330
1C77F
100
AcDbEntity
  8
BOLT
100
AcDbCircle
 10
9538.463942920641
 20
3369.123888222172
 30
0.0
 40
16.8
  0
CIRCLE
  5
1C951
330
1C77F
100
AcDbEntity
  8
BOLT
100
AcDbCircle
 10
9538.463942920641
 20
3369.123888222172
 30
0.0
 40
13.2
  0
LINE
  5
1C952
330
1C77F
100
AcDbEntity
  8
KISO
100
AcDbLine
 10
10820.86066565994
 20
3460.323888222177
 30
0.0
 11
9590.463942920637
 21
3460.323888222176
 31
0.0
  0
LINE
  5
1C953
330
1C77F
100
AcDbEntity
  8
KISO
100
AcDbLine
 10
8256.067220181336
 20
3197.923888222172
 30
0.0
 11
8898.463942920646
 21
3197.923888222172
 31
0.0
  0
LINE
  5
1C954
330
1C77F
100
AcDbEntity
  8
KISO
100
AcDbLine
 10
10178.46394292064
 20
3197.923888222172
 30
0.0
 11
10820.86066565995
 21
3197.923888222176
 31
0.0
  0
LINE
  5
1C955
330
1C77F
100
AcDbEntity
  8
KISO
100
AcDbLine
 10
9486.463942920638
 20
3460.323888222176
 30
0.0
 11
8256.067220181328
 21
3460.323888222177
 31
0.0
  0
LINE
  5
1C956
330
1C77F
100
AcDbEntity
  8
HASHIRA
100
AcDbLine
 10
9590.46394292064
 20
3340.323888222175
 30
0.0
 11
9590.463942920633
 21
3590.324460358764
 31
0.0
  0
LINE
  5
1C957
330
1C77F
100
AcDbEntity
  8
HASHIRA
100
AcDbLine
 10
9486.463942920641
 20
3590.324460358764
 30
0.0
 11
9486.463942920641
 21
3340.323888222175
 31
0.0
  0
LINE
  5
1C958
330
1C77F
100
AcDbEntity
  8
HATCH
100
AcDbLine
 10
9289.822403112067
 20
3463.523888222177
 30
0.0
 11
9152.222403112068
 21
3325.923888222177
 31
0.0
  0
LINE
  5
1C959
330
1C77F
100
AcDbEntity
  8
HATCH
100
AcDbLine
 10
9384.85755450354
 20
3463.523888222177
 30
0.0
 11
9247.257554503539
 21
3325.923888222175
 31
0.0
  0
LINE
  5
1C95A
330
1C77F
100
AcDbEntity
  8
HATCH
100
AcDbLine
 10
9337.339978807808
 20
3463.523888222177
 30
0.0
 11
9199.739978807803
 21
3325.923888222175
 31
0.0
  0
LINE
  5
1C95B
330
1C77F
100
AcDbEntity
  8
1PL-S1
100
AcDbLine
 10
9426.463942920639
 20
3316.323888222175
 30
0.0
 11
9426.463942920639
 21
3345.123888222178
 31
0.0
  0
LINE
  5
1C95C
330
1C77F
100
AcDbEntity
  8
HATCH
100
AcDbLine
 10
9766.622403112064
 20
3460.323888222176
 30
0.0
 11
9632.222403112065
 21
3325.923888222175
 31
0.0
  0
LINE
  5
1C95D
330
1C77F
100
AcDbEntity
  8
HATCH
100
AcDbLine
 10
9814.139978807803
 20
3460.323888222176
 30
0.0
 11
9679.739978807804
 21
3325.923888222175
 31
0.0
  0
LINE
  5
1C95E
330
1C77F
100
AcDbEntity
  8
1PL-S1
100
AcDbLine
 10
9650.463942920641
 20
3316.32388822217
 30
0.0
 11
9650.463942920641
 21
3345.123888222172
 31
0.0
  0
LINE
  5
1C95F
330
1C77F
100
AcDbEntity
  8
HATCH
100
AcDbLine
 10
9861.657554503537
 20
3460.323888222176
 30
0.0
 11
9727.257554503538
 21
3325.923888222175
 31
0.0
  0
LINE
  5
1C960
330
1C77F
100
AcDbEntity
  8
HATCH
100
AcDbLine
 10
10246.62240311206
 20
3460.323888222176
 30
0.0
 11
10112.22240311205
 21
3325.923888222175
 31
0.0
  0
LINE
  5
1C961
330
1C77F
100
AcDbEntity
  8
HATCH
100
AcDbLine
 10
10294.13997880779
 20
3460.323888222176
 30
0.0
 11
10159.7399788078
 21
3325.923888222175
 31
0.0
  0
LINE
  5
1C962
330
1C77F
100
AcDbEntity
  8
HATCH
100
AcDbLine
 10
10341.65755450354
 20
3460.323888222176
 30
0.0
 11
10207.25755450353
 21
3325.923888222175
 31
0.0
  0
LINE
  5
1C963
330
1C77F
100
AcDbEntity
  8
HATCH
100
AcDbLine
 10
10820.86066565994
 20
3459.526999378581
 30
0.0
 11
10687.25755450353
 21
3325.923888222175
 31
0.0
  0
LINE
  5
1C964
330
1C77F
100
AcDbEntity
  8
HATCH
100
AcDbLine
 10
10774.13997880779
 20
3460.323888222176
 30
0.0
 11
10639.7399788078
 21
3325.923888222175
 31
0.0
  0
LINE
  5
1C965
330
1C77F
100
AcDbEntity
  8
HATCH
100
AcDbLine
 10
10726.62240311206
 20
3460.323888222176
 30
0.0
 11
10592.22240311205
 21
3325.923888222175
 31
0.0
  0
LINE
  5
1C966
330
1C77F
100
AcDbEntity
  8
KISO
100
AcDbLine
 10
10820.86066565995
 20
3325.923888222175
 30
0.0
 11
8256.067220181336
 21
3325.923888222175
 31
0.0
  0
LINE
  5
1C967
330
1C77F
100
AcDbEntity
  8
HATCH
100
AcDbLine
 10
10178.46394292064
 20
3292.075050877889
 30
0.0
 11
10198.0065782731
 21
3325.923888222175
 31
0.0
  0
LINE
  5
1C968
330
1C77F
100
AcDbEntity
  8
HATCH
100
AcDbLine
 10
10178.46394292064
 20
3080.006312526439
 30
0.0
 11
9816.381518616385
 21
2717.92388822218
 31
0.0
  0
LINE
  5
1C969
330
1C77F
100
AcDbEntity
  8
HATCH
100
AcDbLine
 10
10178.46394292064
 20
3032.488736830703
 30
0.0
 11
9863.899094312117
 21
2717.92388822218
 31
0.0
  0
LINE
  5
1C96A
330
1C77F
100
AcDbEntity
  8
HATCH
100
AcDbLine
 10
10178.46394292064
 20
2984.971161134968
 30
0.0
 11
9911.416670007861
 21
2717.923888222181
 31
0.0
  0
LINE
  5
1C96B
330
1C77F
100
AcDbEntity
  8
HATCH
100
AcDbLine
 10
9992.381518616376
 20
3325.923888222175
 30
0.0
 11
9660.863942920641
 21
2994.406312526436
 31
0.0
  0
LINE
  5
1C96C
330
1C77F
100
AcDbEntity
  8
HATCH
100
AcDbLine
 10
10039.89909431209
 20
3325.923888222175
 30
0.0
 11
9660.863942920641
 21
2946.888736830706
 31
0.0
  0
LINE
  5
1C96D
330
1C77F
100
AcDbEntity
  8
HATCH
100
AcDbLine
 10
9944.863942920642
 20
3325.923888222175
 30
0.0
 11
9660.863942920641
 21
3041.923888222175
 31
0.0
  0
LINE
  5
1C96E
330
1C77F
100
AcDbEntity
  8
KISO
100
AcDbLine
 10
10178.46394292064
 20
3325.923888222177
 30
0.0
 11
10178.46394292064
 21
2717.92388822218
 31
0.0
  0
LINE
  5
1C96F
330
1C77F
100
AcDbEntity
  8
KISO
100
AcDbLine
 10
8898.463942920646
 20
3325.923888222177
 30
0.0
 11
8898.463942920646
 21
2717.92388822218
 31
0.0
  0
LINE
  5
1C970
330
1C77F
100
AcDbEntity
  8
HATCH
100
AcDbLine
 10
9080.863942920645
 20
3325.923888222175
 30
0.0
 11
8898.463942920646
 21
3143.523888222173
 31
0.0
  0
LINE
  5
1C971
330
1C77F
100
AcDbEntity
  8
HATCH
100
AcDbLine
 10
9028.546367224912
 20
3321.123888222174
 30
0.0
 11
8898.463942920646
 21
3191.041463917906
 31
0.0
  0
LINE
  5
1C972
330
1C77F
100
AcDbEntity
  8
HATCH
100
AcDbLine
 10
9640.063942920642
 20
3021.123888222175
 30
0.0
 11
9336.863942920659
 21
2717.92388822218
 31
0.0
  0
LINE
  5
1C973
330
1C77F
100
AcDbEntity
  8
HATCH
100
AcDbLine
 10
9640.06394292064
 20
2973.606312526436
 30
0.0
 11
9384.381518616391
 21
2717.92388822218
 31
0.0
  0
LINE
  5
1C974
330
1C77F
100
AcDbEntity
  8
HATCH
100
AcDbLine
 10
9640.06394292064
 20
2926.088736830703
 30
0.0
 11
9431.89909431212
 21
2717.92388822218
 31
0.0
  0
LINE
  5
1C975
330
1C77F
100
AcDbEntity
  8
HATCH
100
AcDbLine
 10
9465.346367224908
 20
3325.923888222175
 30
0.0
 11
9436.863942920645
 21
3297.441463917909
 31
0.0
  0
LINE
  5
1C976
330
1C77F
100
AcDbEntity
  8
HATCH
100
AcDbLine
 10
9416.063942920644
 20
3276.64146391791
 30
0.0
 11
8898.463942920646
 21
2759.041463917909
 31
0.0
  0
LINE
  5
1C977
330
1C77F
100
AcDbEntity
  8
HATCH
100
AcDbLine
 10
9512.863942920649
 20
3325.923888222175
 30
0.0
 11
9436.863942920645
 21
3249.923888222171
 31
0.0
  0
LINE
  5
1C978
330
1C77F
100
AcDbEntity
  8
HATCH
100
AcDbLine
 10
9416.063942920644
 20
3229.123888222171
 30
0.0
 11
8904.863942920661
 21
2717.92388822218
 31
0.0
  0
LINE
  5
1C979
330
1C77F
100
AcDbEntity
  8
HATCH
100
AcDbLine
 10
9560.381518616384
 20
3325.923888222175
 30
0.0
 11
9436.863942920645
 21
3202.406312526437
 31
0.0
  0
LINE
  5
1C97A
330
1C77F
100
AcDbEntity
  8
HATCH
100
AcDbLine
 10
9416.063942920644
 20
3181.606312526438
 30
0.0
 11
8952.381518616384
 21
2717.92388822218
 31
0.0
  0
LINE
  5
1C97B
330
1C77F
100
AcDbEntity
  8
HATCH
100
AcDbLine
 10
8985.828791529177
 20
3325.923888222175
 30
0.0
 11
8898.463942920646
 21
3238.559039613646
 31
0.0
  0
LINE
  5
1C97C
330
1C77F
100
AcDbEntity
  8
1PL-M1
100
AcDbLine
 10
9538.463942920641
 20
2435.011174681364
 30
0.0
 11
9538.463942920641
 21
4182.324460358767
 31
0.0
  0
LINE
  5
1C97D
330
1C77F
100
AcDbEntity
  8
KISO
100
AcDbLine
 10
10338.46394292064
 20
2717.92388822218
 30
0.0
 11
10338.46394292064
 21
2557.923888222175
 31
0.0
  0
LINE
  5
1C97E
330
1C77F
100
AcDbEntity
  8
HATCH
100
AcDbLine
 10
9566.393738146818
 20
2557.923888222179
 30
0.0
 11
9658.76978081348
 21
2717.92388822218
 31
0.0
  0
LINE
  5
1C97F
330
1C77F
100
AcDbEntity
  8
HATCH
100
AcDbLine
 10
9605.436447480148
 20
2717.92388822218
 30
0.0
 11
9632.103114146815
 21
2671.735865555517
 31
0.0
  0
LINE
  5
1C980
330
1C77F
100
AcDbEntity
  8
HATCH
100
AcDbLine
 10
9593.060404813481
 20
2604.11190955551
 30
0.0
 11
9619.727071480149
 21
2557.923888222179
 31
0.0
  0
LINE
  5
1C981
330
1C77F
100
AcDbEntity
  8
HATCH
100
AcDbLine
 10
9393.06040481348
 20
2604.11190955551
 30
0.0
 11
9419.727071480147
 21
2557.923888222179
 31
0.0
  0
LINE
  5
1C982
330
1C77F
100
AcDbEntity
  8
HATCH
100
AcDbLine
 10
9405.436447480147
 20
2717.92388822218
 30
0.0
 11
9432.103114146812
 21
2671.735865555517
 31
0.0
  0
LINE
  5
1C983
330
1C77F
100
AcDbEntity
  8
HATCH
100
AcDbLine
 10
9193.060404813481
 20
2604.11190955551
 30
0.0
 11
9219.727071480148
 21
2557.923888222179
 31
0.0
  0
LINE
  5
1C984
330
1C77F
100
AcDbEntity
  8
HATCH
100
AcDbLine
 10
9166.393738146817
 20
2557.923888222179
 30
0.0
 11
9258.76978081348
 21
2717.92388822218
 31
0.0
  0
LINE
  5
1C985
330
1C77F
100
AcDbEntity
  8
HATCH
100
AcDbLine
 10
9205.436447480147
 20
2717.92388822218
 30
0.0
 11
9232.103114146815
 21
2671.735865555517
 31
0.0
  0
LINE
  5
1C986
330
1C77F
100
AcDbEntity
  8
KISO
100
AcDbLine
 10
8738.46394292064
 20
2717.92388822218
 30
0.0
 11
8738.46394292064
 21
2557.923888222175
 31
0.0
  0
LINE
  5
1C987
330
1C77F
100
AcDbEntity
  8
HATCH
100
AcDbLine
 10
8993.060404813482
 20
2604.11190955551
 30
0.0
 11
9019.727071480147
 21
2557.923888222179
 31
0.0
  0
LINE
  5
1C988
330
1C77F
100
AcDbEntity
  8
HATCH
100
AcDbLine
 10
9005.436447480146
 20
2717.92388822218
 30
0.0
 11
9032.103114146812
 21
2671.735865555517
 31
0.0
  0
LINE
  5
1C989
330
1C77F
100
AcDbEntity
  8
HATCH
100
AcDbLine
 10
8966.393738146818
 20
2557.923888222179
 30
0.0
 11
9058.769780813481
 21
2717.92388822218
 31
0.0
  0
LINE
  5
1C98A
330
1C77F
100
AcDbEntity
  8
HATCH
100
AcDbLine
 10
9366.393738146816
 20
2557.923888222179
 30
0.0
 11
9458.769780813481
 21
2717.92388822218
 31
0.0
  0
LINE
  5
1C98B
330
1C77F
100
AcDbEntity
  8
KISO
100
AcDbLine
 10
8738.46394292064
 20
2557.923888222175
 30
0.0
 11
10338.46394292064
 21
2557.923888222175
 31
0.0
  0
LINE
  5
1C98C
330
1C77F
100
AcDbEntity
  8
HATCH
100
AcDbLine
 10
9805.436447480147
 20
2717.92388822218
 30
0.0
 11
9832.103114146812
 21
2671.735865555517
 31
0.0
  0
LINE
  5
1C98D
330
1C77F
100
AcDbEntity
  8
HATCH
100
AcDbLine
 10
9766.393738146817
 20
2557.923888222179
 30
0.0
 11
9858.769780813481
 21
2717.92388822218
 31
0.0
  0
LINE
  5
1C98E
330
1C77F
100
AcDbEntity
  8
HATCH
100
AcDbLine
 10
9793.060404813481
 20
2604.11190955551
 30
0.0
 11
9819.727071480153
 21
2557.923888222179
 31
0.0
  0
LINE
  5
1C98F
330
1C77F
100
AcDbEntity
  8
HATCH
100
AcDbLine
 10
9966.393738146818
 20
2557.923888222179
 30
0.0
 11
10058.76978081348
 21
2717.92388822218
 31
0.0
  0
LINE
  5
1C990
330
1C77F
100
AcDbEntity
  8
HATCH
100
AcDbLine
 10
10005.43644748014
 20
2717.92388822218
 30
0.0
 11
10032.1031141468
 21
2671.735865555517
 31
0.0
  0
LINE
  5
1C991
330
1C77F
100
AcDbEntity
  8
HATCH
100
AcDbLine
 10
9993.060404813482
 20
2604.11190955551
 30
0.0
 11
10019.72707148015
 21
2557.923888222179
 31
0.0
  0
LINE
  5
1C992
330
1C77F
100
AcDbEntity
  8
HATCH
100
AcDbLine
 10
8805.436447480145
 20
2717.92388822218
 30
0.0
 11
8832.103114146812
 21
2671.735865555517
 31
0.0
  0
LINE
  5
1C993
330
1C77F
100
AcDbEntity
  8
HATCH
100
AcDbLine
 10
8766.393738146817
 20
2557.923888222179
 30
0.0
 11
8858.76978081348
 21
2717.92388822218
 31
0.0
  0
LINE
  5
1C994
330
1C77F
100
AcDbEntity
  8
HATCH
100
AcDbLine
 10
8793.060404813481
 20
2604.11190955551
 30
0.0
 11
8819.72707148015
 21
2557.923888222179
 31
0.0
  0
LINE
  5
1C995
330
1C77F
100
AcDbEntity
  8
SUNPOU
100
AcDbLine
 10
9538.463942920641
 20
4137.324460358767
 30
0.0
 11
10659.70490210299
 21
4137.324460358767
 31
0.0
  0
TEXT
  5
1C996
330
1C77F
100
AcDbEntity
  8
SUNPOU
100
AcDbText
 10
10048.36179767657
 20
4182.324460358767
 30
0.0
 40
90.0
  1
1800
 41
0.6666666666666666
  7
00
 72
     4
 11
10166.933226248
 21
4227.324460358767
 31
0.0
100
AcDbText
  0
LINE
  5
1C997
330
1C77F
100
AcDbEntity
  8
HIKIDASHI
100
AcDbLine
 10
10684.96071311411
 20
3927.324460358768
 30
0.0
 11
10316.1943362865
 21
3927.324460358768
 31
0.0
  0
TEXT
  5
1C998
330
1C77F
100
AcDbEntity
  8
HIKIDASHI
100
AcDbText
 10
10349.26194387842
 20
3972.324460358767
 30
0.0
 40
90.0
  1
土　間
  7
01
 72
     2
 11
10643.26194387842
 21
4017.324460358767
 31
0.0
100
AcDbText
 73
     2
  0
TEXT
  5
1C999
330
1C77F
100
AcDbEntity
  8
SUNPOU
100
AcDbText
 10
10436.92827741191
 20
3595.323888222175
 30
0.0
 40
90.0
  1
F.L
 41
0.6666666666666666
  7
00
 72
     4
 11
10505.49970598334
 21
3640.323888222175
 31
0.0
100
AcDbText
  0
LINE
  5
1C99A
330
1C77F
100
AcDbEntity
  8
SUNPOU
100
AcDbLine
 10
10505.49970598334
 20
3460.323888222176
 30
0.0
 11
10557.46123021042
 21
3550.323888222175
 31
0.0
  0
LINE
  5
1C99B
330
1C77F
100
AcDbEntity
  8
SUNPOU
100
AcDbLine
 10
10453.53818175629
 20
3550.323888222175
 30
0.0
 11
10505.49970598334
 21
3460.323888222176
 31
0.0
  0
LINE
  5
1C99C
330
1C77F
100
AcDbEntity
  8
SUNPOU
100
AcDbLine
 10
10557.46123021042
 20
3550.323888222175
 30
0.0
 11
10453.53818175629
 21
3550.323888222175
 31
0.0
  0
TEXT
  5
1C99D
330
1C77F
100
AcDbEntity
  8
HIKIDASHI
100
AcDbText
 10
7969.767477916909
 20
1821.717918072923
 30
0.0
 40
89.55223880597014
  1
x
 41
0.6700000000000001
  7
00
100
AcDbText
  0
TEXT
  5
1C99E
330
1C77F
100
AcDbEntity
  8
HIKIDASHI
100
AcDbText
 10
7897.932540726535
 20
1809.927442830512
 30
0.0
 40
67.16417910447761
  1
2
 41
0.6700000000000001
  7
00
100
AcDbText
  0
TEXT
  5
1C99F
330
1C77F
100
AcDbEntity
  8
HIKIDASHI
100
AcDbText
 10
7810.040504167613
 20
1836.953497861074
 30
0.0
 40
67.16417910447761
  1
1
 41
0.6700000000000001
  7
00
100
AcDbText
  0
TEXT
  5
1C9A0
330
1C77F
100
AcDbEntity
  8
HIKIDASHI
100
AcDbText
 10
7735.439693484391
 20
1810.523888222179
 30
0.0
 40
89.55223880597014
  1
W ／
 41
0.6700000000000001
  7
00
100
AcDbText
  0
TEXT
  5
1C9A1
330
1C77F
100
AcDbEntity
  8
HIKIDASHI
100
AcDbText
 10
8050.902857070045
 20
1810.314902022088
 30
0.0
 40
89.55223880597014
  1
300
 41
0.6700000000000001
  7
00
100
AcDbText
  0
TEXT
  5
1C9A2
330
1C77F
100
AcDbEntity
  8
HIKIDASHI
100
AcDbText
 10
7735.439693484391
 20
1990.523888222177
 30
0.0
 40
90.0
  1
アンカーボルト
  7
01
100
AcDbText
  0
LINE
  5
1C9A3
330
1C77F
100
AcDbEntity
  8
HIKIDASHI
100
AcDbLine
 10
7706.360084622684
 20
1945.523888222177
 30
0.0
 11
8526.366098019535
 21
1945.523888222177
 31
0.0
  0
TEXT
  5
1C9A4
330
1C77F
100
AcDbEntity
  8
HIKIDASHI
100
AcDbText
 10
9220.650266302852
 20
1671.474869379512
 30
0.0
 40
90.0
  1
B  ~  B'
 41
0.6700000000000001
  7
00
100
AcDbText
  0
LINE
  5
1C9A5
330
1C77F
100
AcDbEntity
  8
HIKIDASHI
100
AcDbLine
 10
9190.650266302851
 20
1596.474869379512
 30
0.0
 11
9886.277619538422
 21
1596.474869379512
 31
0.0
  0
LINE
  5
1C9A6
330
1C77F
100
AcDbEntity
  8
HIKIDASHI
100
AcDbLine
 10
9190.650266302851
 20
1626.474869379512
 30
0.0
 11
9886.277619538422
 21
1626.474869379512
 31
0.0
  0
TEXT
  5
1C9A7
330
1C77F
100
AcDbEntity
  8
HIKIDASHI
100
AcDbText
 10
9614.667545799413
 20
1671.474869379512
 30
0.0
 40
90.0
  1
断 面
  7
01
100
AcDbText
  0
TEXT
  5
1C9A8
330
1C77F
100
AcDbEntity
  8
SUNPOU
100
AcDbText
 10
10496.15865220949
 20
2585.723754658955
 30
0.0
 40
90.0
  1
5-D13×5-D13
 41
0.6700000000000001
  7
01
 72
     4
 11
10839.58150935235
 21
2630.723754658955
 31
0.0
100
AcDbText
  0
TEXT
  5
1C9A9
330
1C77F
100
AcDbEntity
  8
SUNPOU
100
AcDbText
 10
10631.2743664952
 20
2720.723754658955
 30
0.0
 40
90.0
  1
ベース筋
  7
01
 72
     4
 11
10835.2743664952
 21
2765.723754658955
 31
0.0
100
AcDbText
  0
LINE
  5
1C9AA
330
1C77F
100
AcDbEntity
  8
KISO
100
AcDbLine
 10
8738.46394292064
 20
2717.92388822218
 30
0.0
 11
10338.46394292064
 21
2717.92388822218
 31
0.0
  0
LINE
  5
1C9AB
330
1C77F
100
AcDbEntity
  8
HATCH
100
AcDbLine
 10
10166.3937381468
 20
2557.923888222183
 30
0.0
 11
10258.76978081348
 21
2717.923888222184
 31
0.0
  0
LINE
  5
1C9AC
330
1C77F
100
AcDbEntity
  8
HATCH
100
AcDbLine
 10
10205.43644748014
 20
2717.923888222184
 30
0.0
 11
10232.1031141468
 21
2671.73586555552
 31
0.0
  0
LINE
  5
1C9AD
330
1C77F
100
AcDbEntity
  8
HATCH
100
AcDbLine
 10
10193.06040481348
 20
2604.111909555513
 30
0.0
 11
10219.72707148014
 21
2557.923888222183
 31
0.0
  0
LINE
  5
1C9AE
330
1C77F
100
AcDbEntity
  8
HATCH
100
AcDbLine
 10
8806.62240311207
 20
3460.323888222177
 30
0.0
 11
8672.222403112071
 21
3325.923888222177
 31
0.0
  0
LINE
  5
1C9AF
330
1C77F
100
AcDbEntity
  8
HATCH
100
AcDbLine
 10
8901.657554503541
 20
3460.323888222177
 30
0.0
 11
8767.25755450354
 21
3325.923888222175
 31
0.0
  0
LINE
  5
1C9B0
330
1C77F
100
AcDbEntity
  8
HATCH
100
AcDbLine
 10
8854.139978807806
 20
3460.323888222177
 30
0.0
 11
8719.739978807806
 21
3325.923888222175
 31
0.0
  0
LINE
  5
1C9B1
330
1C77F
100
AcDbEntity
  8
HATCH
100
AcDbLine
 10
8329.822403112073
 20
3463.523888222177
 30
0.0
 11
8256.067220181336
 21
3389.768705291441
 31
0.0
  0
LINE
  5
1C9B2
330
1C77F
100
AcDbEntity
  8
HATCH
100
AcDbLine
 10
8424.857554503542
 20
3463.523888222177
 30
0.0
 11
8287.257554503543
 21
3325.923888222175
 31
0.0
  0
LINE
  5
1C9B3
330
1C77F
100
AcDbEntity
  8
HATCH
100
AcDbLine
 10
8377.339978807809
 20
3463.523888222177
 30
0.0
 11
8256.067220181336
 21
3342.251129595704
 31
0.0
  0
LINE
  5
1C9B4
330
1C77F
100
AcDbEntity
  8
SUNPOU
100
AcDbLine
 10
9538.463942920641
 20
4137.324460358767
 30
0.0
 11
8417.222983738275
 21
4137.324460358767
 31
0.0
  0
TEXT
  5
1C9B5
330
1C77F
100
AcDbEntity
  8
SUNPOU
100
AcDbText
 10
8791.423231021845
 20
4182.324460358767
 30
0.0
 40
90.0
  1
1800
 41
0.6666666666666666
  7
00
 72
     4
 11
8909.994659593275
 21
4227.324460358767
 31
0.0
100
AcDbText
  0
LINE
  5
1C9B6
330
1C77F
100
AcDbEntity
  8
HIKIDASHI
100
AcDbLine
 10
6660.967115796506
 20
3927.324460358765
 30
0.0
 11
6292.200738968885
 21
3927.324460358765
 31
0.0
  0
TEXT
  5
1C9B7
330
1C77F
100
AcDbEntity
  8
HIKIDASHI
100
AcDbText
 10
6325.268346560793
 20
3972.324460358763
 30
0.0
 40
90.0
  1
土　間
  7
01
 72
     2
 11
6619.268346560793
 21
4017.324460358763
 31
0.0
100
AcDbText
 73
     2
  0
LINE
  5
1C9B8
330
1C77F
100
AcDbEntity
  8
KISO
100
AcDbLine
 10
5118.137742396996
 20
3460.323888222176
 30
0.0
 11
5118.137742396994
 21
3197.923888222172
 31
0.0
  0
LINE
  5
1C9B9
330
1C77F
100
AcDbEntity
  8
KISO
100
AcDbLine
 10
5118.137742396994
 20
3197.923888222172
 30
0.0
 11
5278.137742396996
 21
3197.923888222172
 31
0.0
  0
LINE
  5
1C9BA
330
1C77F
100
AcDbEntity
  8
KISO
100
AcDbLine
 10
5278.137742396996
 20
3325.923888222175
 30
0.0
 11
5118.137742396996
 21
3325.923888222175
 31
0.0
  0
LINE
  5
1C9BB
330
1C77F
100
AcDbEntity
  8
HATCH
100
AcDbLine
 10
5254.412887386102
 20
3460.323888222176
 30
0.0
 11
5120.012887386101
 21
3325.923888222175
 31
0.0
  0
LINE
  5
1C9BC
330
1C77F
100
AcDbEntity
  8
HATCH
100
AcDbLine
 10
5206.8953113861
 20
3460.323888222176
 30
0.0
 11
5118.137742396996
 21
3371.566319233068
 31
0.0
  0
LINE
  5
1C9BD
330
1C77F
100
AcDbEntity
  8
HATCH
100
AcDbLine
 10
5159.377735386102
 20
3460.323888222176
 30
0.0
 11
5118.137742396996
 21
3419.083895233068
 31
0.0
  0
TEXT
  5
1C9BE
330
1C77F
100
AcDbEntity
  8
HIKIDASHI
100
AcDbText
 10
10582.07259604774
 20
2400.143287355456
 30
0.0
 40
90.0
  1
砕　石
  7
01
 72
     2
 11
10882.07259604774
 21
2445.143287355457
 31
0.0
100
AcDbText
 73
     2
  0
LINE
  5
1C9BF
330
1C77F
100
AcDbEntity
  8
HIKIDASHI
100
AcDbLine
 10
10923.77136528345
 20
2355.143287355456
 30
0.0
 11
10555.00498845583
 21
2355.143287355456
 31
0.0
  0
TEXT
  5
1C9C0
330
1C77F
100
AcDbEntity
  8
HIKIDASHI
100
AcDbText
 10
10457.3724233458
 20
2955.95375582345
 30
0.0
 40
90.0
  1
敷砂利又は砕石
  7
01
 72
     2
 11
11189.3724233458
 21
3000.953755823451
 31
0.0
100
AcDbText
 73
     2
  0
LINE
  5
1C9C1
330
1C77F
100
AcDbEntity
  8
HIKIDASHI
100
AcDbLine
 10
11214.60272399148
 20
2910.953755823451
 30
0.0
 11
10413.53855426433
 21
2910.953755823451
 31
0.0
  0
TEXT
  5
1C9C2
330
1C77F
100
AcDbEntity
  8
HIKIDASHI
100
AcDbText
 10
13244.98308988595
 20
2297.644025518658
 30
0.0
 40
90.0
  1
2
 41
0.6666666666666666
  7
00
100
AcDbText
  0
TEXT
  5
1C9C3
330
1C77F
100
AcDbEntity
  8
HIKIDASHI
100
AcDbText
 10
13323.55451845738
 20
2312.644025518657
 30
0.0
 40
90.0
  1
ｹ
  7
01
100
AcDbText
  0
TEXT
  5
1C9C4
330
1C77F
100
AcDbEntity
  8
HIKIDASHI
100
AcDbText
 10
13404.55451845738
 20
2297.644025518658
 30
0.0
 40
90.0
  1
-
 41
0.6666666666666666
  7
00
100
AcDbText
  0
TEXT
  5
1C9C5
330
1C77F
100
AcDbEntity
  8
HIKIDASHI
100
AcDbText
 10
13512.41166131454
 20
2297.644025518658
 30
0.0
 40
90.0
  1
18
 41
0.6666666666666666
  7
00
100
AcDbText
  0
TEXT
  5
1C9C6
330
1C77F
100
AcDbEntity
  8
HIKIDASHI
100
AcDbText
 10
13648.12594702882
 20
2312.644025518657
 30
0.0
 40
90.0
  1
%%c
 41
0.6666666666666666
  7
00
100
AcDbText
  0
TEXT
  5
1C9C7
330
1C77F
100
AcDbEntity
  8
HIKIDASHI
100
AcDbText
 10
13723.84023274311
 20
2297.644025518658
 30
0.0
 40
90.0
  1
孔
  7
01
100
AcDbText
  0
LINE
  5
1C9C8
330
1C77F
100
AcDbEntity
  8
HIKIDASHI
100
AcDbLine
 10
13214.98308988596
 20
2252.644025518658
 30
0.0
 11
13837.84023274311
 21
2252.644025518658
 31
0.0
  0
TEXT
  5
1C9C9
330
1C77F
100
AcDbEntity
  8
FILENAME
100
AcDbText
 10
13644.85714285714
 20
174.0
 30
0.0
 40
100.0
  1
＜YOKC-280-MA-A_3_JIS_GL.DXF ＞
  7
FILENAME
 72
     2
 11
16382.0
 21
174.0
 31
0.0
100
AcDbText
  0
LINE
  5
1C9CA
330
1C77F
100
AcDbEntity
  8
WAKUSEN-01
100
AcDbLine
 10
434.0000000000008
 20
413.9999999999997
 30
0.0
 11
16382.0
 21
413.9999999999997
 31
0.0
  0
LINE
  5
1C9CB
330
1C77F
100
AcDbEntity
  8
WAKUSEN-01
100
AcDbLine
 10
434.0000000000008
 20
11242.0
 30
0.0
 11
16382.0
 21
11242.0
 31
0.0
  0
LINE
  5
1C9CC
330
1C77F
100
AcDbEntity
  8
WAKUSEN-01
100
AcDbLine
 10
434.0000000000008
 20
413.9999999999997
 30
0.0
 11
434.0000000000008
 21
11242.0
 31
0.0
  0
LINE
  5
1C9CD
330
1C77F
100
AcDbEntity
  8
WAKUSEN-01
100
AcDbLine
 10
16382.0
 20
413.9999999999997
 30
0.0
 11
16382.0
 21
11242.0
 31
0.0
  0
LINE
  5
1C9CE
330
1C77F
100
AcDbEntity
  8
WAKUSEN-01
100
AcDbLine
 10
10280.0
 20
1242.0
 30
0.0
 11
16382.0
 21
1242.0
 31
0.0
  0
LINE
  5
1C9CF
330
1C77F
100
AcDbEntity
  8
WAKUSEN-02
100
AcDbLine
 10
10280.0
 20
827.9999999999997
 30
0.0
 11
13434.0
 21
827.9999999999997
 31
0.0
  0
TEXT
  5
1C9D0
330
1C77F
100
AcDbEntity
  8
WAKUMOJI-01
100
AcDbText
 10
10335.13012998137
 20
1062.951504669661
 30
0.0
 40
120.0
  1
名　称
  7
WAKUMOJI
100
AcDbText
  0
TEXT
  5
1C9D1
330
1C77F
100
AcDbEntity
  8
WAKUMOJI-01
100
AcDbText
 10
10328.25274254596
 20
659.5644874899107
 30
0.0
 40
120.0
  1
機種名
  7
WAKUMOJI
100
AcDbText
  0
LINE
  5
1C9D2
330
1C77F
100
AcDbEntity
  8
WAKUSEN-01
100
AcDbLine
 10
10280.0
 20
413.9999999999984
 30
0.0
 11
10280.0
 21
1242.0
 31
0.0
  0
LINE
  5
1C9D3
330
1C77F
100
AcDbEntity
  8
WAKUSEN-02
100
AcDbLine
 10
13434.0
 20
413.9999999999963
 30
0.0
 11
13434.0
 21
1242.0
 31
0.0
  0
LINE
  5
1C9D4
330
1C77F
100
AcDbEntity
  8
YODOROGO
100
AcDbLine
 10
14988.80217064596
 20
997.8747482146435
 30
0.0
 11
14914.80217064596
 21
997.8747482146435
 31
0.0
1001
AUTOCAD_POSTSCRIPT_FIGURE
1002
{
1000
PSFILL
1000
Grayscale
1000
Grayscale
1070
    25
1002
}
  0
LINE
  5
1C9D5
330
1C77F
100
AcDbEntity
  8
YODOROGO
100
AcDbLine
 10
14914.80217064596
 20
973.8747482146434
 30
0.0
 11
14988.80217064596
 21
973.8747482146434
 31
0.0
1001
AUTOCAD_POSTSCRIPT_FIGURE
1002
{
1000
PSFILL
1000
Grayscale
1000
Grayscale
1070
    25
1002
}
  0
LINE
  5
1C9D6
330
1C77F
100
AcDbEntity
  8
YODOROGO
100
AcDbLine
 10
14988.80217064596
 20
953.874748214644
 30
0.0
 11
14914.80217064596
 21
953.874748214644
 31
0.0
1001
AUTOCAD_POSTSCRIPT_FIGURE
1002
{
1000
PSFILL
1000
Grayscale
1000
Grayscale
1070
    25
1002
}
  0
LINE
  5
1C9D7
330
1C77F
100
AcDbEntity
  8
YODOROGO
100
AcDbLine
 10
14914.80217064596
 20
929.874748214644
 30
0.0
 11
14988.80217064596
 21
929.874748214644
 31
0.0
1001
AUTOCAD_POSTSCRIPT_FIGURE
1002
{
1000
PSFILL
1000
Grayscale
1000
Grayscale
1070
    25
1002
}
  0
LINE
  5
1C9D8
330
1C77F
100
AcDbEntity
  8
YODOROGO
100
AcDbLine
 10
14988.80217064596
 20
909.8747482146439
 30
0.0
 11
14914.80217064596
 21
909.8747482146439
 31
0.0
1001
AUTOCAD_POSTSCRIPT_FIGURE
1002
{
1000
PSFILL
1000
Grayscale
1000
Grayscale
1070
    25
1002
}
  0
LINE
  5
1C9D9
330
1C77F
100
AcDbEntity
  8
YODOROGO
100
AcDbLine
 10
14960.80217064594
 20
853.874748214644
 30
0.0
 11
14988.80217064596
 21
853.874748214644
 31
0.0
1001
AUTOCAD_POSTSCRIPT_FIGURE
1002
{
1000
PSFILL
1000
Grayscale
1000
Grayscale
1070
    25
1002
}
  0
LINE
  5
1C9DA
330
1C77F
100
AcDbEntity
  8
YODOROGO
100
AcDbLine
 10
14868.80217064596
 20
713.8747482146435
 30
0.0
 11
14968.80217064596
 21
740.6696674577553
 31
0.0
  0
LINE
  5
1C9DB
330
1C77F
100
AcDbEntity
  8
YODOROGO
100
AcDbLine
 10
14974.80217064595
 20
853.874748214644
 30
0.0
 11
14942.80217064596
 21
853.874748214644
 31
0.0
  0
ARC
  5
1C9DC
330
1C77F
100
AcDbEntity
  8
YODOROGO
100
AcDbCircle
 10
15127.17387491394
 20
903.9323046166312
 30
0.0
 40
190.9434321028236
100
AcDbArc
 50
213.9611167766783
 51
264.4787207431779
  0
ARC
  5
1C9DD
330
1C77F
100
AcDbEntity
  8
YODOROGO
100
AcDbCircle
 10
15127.17387491396
 20
903.9323046166513
 30
0.0
 40
190.9434321028408
100
AcDbArc
 50
208.141144204866
 51
212.9210361185994
  0
LINE
  5
1C9DE
330
1C77F
100
AcDbEntity
  8
YODOROGO
100
AcDbLine
 10
14885.70493649264
 20
778.403830673117
 30
0.0
 11
14966.89206625426
 21
800.1578565285436
 31
0.0
  0
LINE
  5
1C9DF
330
1C77F
100
AcDbEntity
  8
YODOROGO
100
AcDbLine
 10
14868.80217064596
 20
713.8747482146435
 30
0.0
 11
14968.80217064596
 21
740.6696674577553
 31
0.0
  0
LINE
  5
1C9E0
330
1C77F
100
AcDbEntity
  8
YODOROGO
100
AcDbLine
 10
14974.80217064595
 20
853.874748214644
 30
0.0
 11
14942.80217064596
 21
853.874748214644
 31
0.0
  0
ARC
  5
1C9E1
330
1C77F
100
AcDbEntity
  8
YODOROGO
100
AcDbCircle
 10
15127.17387491394
 20
903.9323046166312
 30
0.0
 40
190.9434321028236
100
AcDbArc
 50
213.9611167766783
 51
264.4787207431779
  0
LINE
  5
1C9E2
330
1C77F
100
AcDbEntity
  8
YODOROGO
100
AcDbLine
 10
14396.80217064594
 20
909.8747482146439
 30
0.0
 11
14216.80217064594
 21
909.8747482146439
 31
0.0
  0
LINE
  5
1C9E3
330
1C77F
100
AcDbEntity
  8
YODOROGO
100
AcDbLine
 10
14256.80217064594
 20
713.8747482146435
 30
0.0
 11
14396.80217064594
 21
713.8747482146435
 31
0.0
  0
LINE
  5
1C9E4
330
1C77F
100
AcDbEntity
  8
YODOROGO
100
AcDbLine
 10
14364.80217064596
 20
961.8747482146432
 30
0.0
 11
14248.80217064593
 21
961.8747482146432
 31
0.0
  0
LINE
  5
1C9E5
330
1C77F
100
AcDbEntity
  8
YODOROGO
100
AcDbLine
 10
14292.80217064596
 20
1013.874748214644
 30
0.0
 11
14328.80217064596
 21
1013.874748214644
 31
0.0
  0
LINE
  5
1C9E6
330
1C77F
100
AcDbEntity
  8
YODOROGO
100
AcDbLine
 10
14216.80217064594
 20
853.874748214644
 30
0.0
 11
14216.80217064594
 21
753.8747482146439
 31
0.0
  0
LINE
  5
1C9E7
330
1C77F
100
AcDbEntity
  8
YODOROGO
100
AcDbLine
 10
14248.80217064593
 20
781.8747482146434
 30
0.0
 11
14248.80217064593
 21
853.874748214644
 31
0.0
  0
LINE
  5
1C9E8
330
1C77F
100
AcDbEntity
  8
YODOROGO
100
AcDbLine
 10
14292.80217064596
 20
873.8747482146449
 30
0.0
 11
14292.80217064596
 21
773.874748214644
 31
0.0
  0
LINE
  5
1C9E9
330
1C77F
100
AcDbEntity
  8
YODOROGO
100
AcDbLine
 10
13928.80217064596
 20
841.8747482146445
 30
0.0
 11
13888.80217064596
 21
809.9862070222856
 31
0.0
  0
LINE
  5
1C9EA
330
1C77F
100
AcDbEntity
  8
YODOROGO
100
AcDbLine
 10
13968.80217064596
 20
809.9862070222856
 30
0.0
 11
13928.80217064596
 21
841.8747482146445
 31
0.0
  0
LINE
  5
1C9EB
330
1C77F
100
AcDbEntity
  8
YODOROGO
100
AcDbLine
 10
13928.80217064596
 20
853.874748214644
 30
0.0
 11
13968.80217064596
 21
821.986207022285
 31
0.0
  0
LINE
  5
1C9EC
330
1C77F
100
AcDbEntity
  8
YODOROGO
100
AcDbLine
 10
13888.80217064596
 20
821.986207022285
 30
0.0
 11
13928.80217064596
 21
853.874748214644
 31
0.0
  0
LINE
  5
1C9ED
330
1C77F
100
AcDbEntity
  8
YODOROGO
100
AcDbLine
 10
14020.45660200844
 20
829.874748214644
 30
0.0
 11
14020.45660200844
 21
841.8747482146434
 31
0.0
  0
LINE
  5
1C9EE
330
1C77F
100
AcDbEntity
  8
YODOROGO
100
AcDbLine
 10
13988.80217064596
 20
841.8747482146434
 30
0.0
 11
13988.80217064596
 21
833.8747482146427
 31
0.0
  0
LINE
  5
1C9EF
330
1C77F
100
AcDbEntity
  8
YODOROGO
100
AcDbLine
 10
14049.06776011545
 20
853.874748214644
 30
0.0
 11
14049.06776011545
 21
827.751818637328
 31
0.0
1001
AUTOCAD_POSTSCRIPT_FIGURE
1002
{
1000
PSFILL
1000
Grayscale
1000
Grayscale
1070
   100
1002
}
  0
LINE
  5
1C9F0
330
1C77F
100
AcDbEntity
  8
YODOROGO
100
AcDbLine
 10
14041.06776011546
 20
827.751818637328
 30
0.0
 11
14041.06776011546
 21
853.874748214644
 31
0.0
1001
AUTOCAD_POSTSCRIPT_FIGURE
1002
{
1000
PSFILL
1000
Grayscale
1000
Grayscale
1070
   100
1002
}
  0
LINE
  5
1C9F1
330
1C77F
100
AcDbEntity
  8
YODOROGO
100
AcDbLine
 10
13904.80217064596
 20
804.3859520216292
 30
0.0
 11
13904.80217064596
 21
816.3859520216298
 31
0.0
  0
LINE
  5
1C9F2
330
1C77F
100
AcDbEntity
  8
YODOROGO
100
AcDbLine
 10
13952.80217064596
 20
804.3859520216292
 30
0.0
 11
13904.80217064596
 21
804.3859520216292
 31
0.0
  0
LINE
  5
1C9F3
330
1C77F
100
AcDbEntity
  8
YODOROGO
100
AcDbLine
 10
13952.80217064596
 20
816.3859520216298
 30
0.0
 11
13952.80217064596
 21
804.3859520216292
 31
0.0
  0
LINE
  5
1C9F4
330
1C77F
100
AcDbEntity
  8
YODOROGO
100
AcDbLine
 10
13904.80217064596
 20
816.3859520216298
 30
0.0
 11
13952.80217064596
 21
816.3859520216298
 31
0.0
  0
LINE
  5
1C9F5
330
1C77F
100
AcDbEntity
  8
YODOROGO
100
AcDbLine
 10
13912.25479445787
 20
784.2514286852374
 30
0.0
 11
13892.80217064596
 21
737.8747482146435
 31
0.0
1001
AUTOCAD_POSTSCRIPT_FIGURE
1002
{
1000
PSFILL
1000
Grayscale
1000
Grayscale
1070
   100
1002
}
  0
LINE
  5
1C9F6
330
1C77F
100
AcDbEntity
  8
YODOROGO
100
AcDbLine
 10
13888.80217064596
 20
784.2514286852374
 30
0.0
 11
13912.25479445787
 21
784.2514286852374
 31
0.0
1001
AUTOCAD_POSTSCRIPT_FIGURE
1002
{
1000
PSFILL
1000
Grayscale
1000
Grayscale
1070
   100
1002
}
  0
LINE
  5
1C9F7
330
1C77F
100
AcDbEntity
  8
YODOROGO
100
AcDbLine
 10
13888.80217064596
 20
794.2514286852374
 30
0.0
 11
13888.80217064596
 21
784.2514286852374
 31
0.0
1001
AUTOCAD_POSTSCRIPT_FIGURE
1002
{
1000
PSFILL
1000
Grayscale
1000
Grayscale
1070
   100
1002
}
  0
LINE
  5
1C9F8
330
1C77F
100
AcDbEntity
  8
YODOROGO
100
AcDbLine
 10
13968.80217064596
 20
794.2514286852374
 30
0.0
 11
13888.80217064596
 21
794.2514286852374
 31
0.0
1001
AUTOCAD_POSTSCRIPT_FIGURE
1002
{
1000
PSFILL
1000
Grayscale
1000
Grayscale
1070
   100
1002
}
  0
LINE
  5
1C9F9
330
1C77F
100
AcDbEntity
  8
YODOROGO
100
AcDbLine
 10
13968.80217064596
 20
784.2514286852374
 30
0.0
 11
13968.80217064596
 21
794.2514286852374
 31
0.0
1001
AUTOCAD_POSTSCRIPT_FIGURE
1002
{
1000
PSFILL
1000
Grayscale
1000
Grayscale
1070
   100
1002
}
  0
LINE
  5
1C9FA
330
1C77F
100
AcDbEntity
  8
YODOROGO
100
AcDbLine
 10
13922.25479445785
 20
784.2514286852374
 30
0.0
 11
13968.80217064596
 21
784.2514286852374
 31
0.0
1001
AUTOCAD_POSTSCRIPT_FIGURE
1002
{
1000
PSFILL
1000
Grayscale
1000
Grayscale
1070
   100
1002
}
  0
LINE
  5
1C9FB
330
1C77F
100
AcDbEntity
  8
YODOROGO
100
AcDbLine
 10
13907.77335914238
 20
747.8747482146435
 30
0.0
 11
13922.25479445785
 21
784.2514286852374
 31
0.0
1001
AUTOCAD_POSTSCRIPT_FIGURE
1002
{
1000
PSFILL
1000
Grayscale
1000
Grayscale
1070
   100
1002
}
  0
LINE
  5
1C9FC
330
1C77F
100
AcDbEntity
  8
YODOROGO
100
AcDbLine
 10
13951.02739540432
 20
747.8747482146435
 30
0.0
 11
13907.77335914238
 21
747.8747482146435
 31
0.0
1001
AUTOCAD_POSTSCRIPT_FIGURE
1002
{
1000
PSFILL
1000
Grayscale
1000
Grayscale
1070
   100
1002
}
  0
LINE
  5
1C9FD
330
1C77F
100
AcDbEntity
  8
YODOROGO
100
AcDbLine
 10
13942.53250239547
 20
768.1169053488464
 30
0.0
 11
13951.02739540432
 21
747.8747482146435
 31
0.0
1001
AUTOCAD_POSTSCRIPT_FIGURE
1002
{
1000
PSFILL
1000
Grayscale
1000
Grayscale
1070
   100
1002
}
  0
LINE
  5
1C9FE
330
1C77F
100
AcDbEntity
  8
YODOROGO
100
AcDbLine
 10
13950.53250239547
 20
768.1169053488464
 30
0.0
 11
13942.53250239547
 21
768.1169053488464
 31
0.0
1001
AUTOCAD_POSTSCRIPT_FIGURE
1002
{
1000
PSFILL
1000
Grayscale
1000
Grayscale
1070
   100
1002
}
  0
LINE
  5
1C9FF
330
1C77F
100
AcDbEntity
  8
YODOROGO
100
AcDbLine
 10
13964.80217064596
 20
737.8747482146435
 30
0.0
 11
13950.53250239547
 21
768.1169053488464
 31
0.0
1001
AUTOCAD_POSTSCRIPT_FIGURE
1002
{
1000
PSFILL
1000
Grayscale
1000
Grayscale
1070
   100
1002
}
  0
LINE
  5
1CA00
330
1C77F
100
AcDbEntity
  8
YODOROGO
100
AcDbLine
 10
13892.80217064596
 20
737.8747482146435
 30
0.0
 11
13964.80217064596
 21
737.8747482146435
 31
0.0
1001
AUTOCAD_POSTSCRIPT_FIGURE
1002
{
1000
PSFILL
1000
Grayscale
1000
Grayscale
1070
   100
1002
}
  0
LINE
  5
1CA01
330
1C77F
100
AcDbEntity
  8
YODOROGO
100
AcDbLine
 10
13888.80217064596
 20
809.9862070222856
 30
0.0
 11
13888.80217064596
 21
821.986207022285
 31
0.0
  0
LINE
  5
1CA02
330
1C77F
100
AcDbEntity
  8
YODOROGO
100
AcDbLine
 10
13968.80217064596
 20
821.986207022285
 30
0.0
 11
13968.80217064596
 21
809.9862070222856
 31
0.0
  0
ARC
  5
1CA03
330
1C77F
100
AcDbEntity
  8
YODOROGO
100
AcDbCircle
 10
14112.97022107348
 20
800.438882662663
 30
0.0
 40
87.99999999999995
100
AcDbArc
 50
280.3644312771313
 51
3.541483659218056
  0
ARC
  5
1CA04
330
1C77F
100
AcDbEntity
  8
YODOROGO
100
AcDbCircle
 10
14117.87801537965
 20
816.798903480952
 30
0.0
 40
55.99999999999914
100
AcDbArc
 50
281.2490582504155
 51
348.7509417495832
  0
LINE
  5
1CA05
330
1C77F
100
AcDbEntity
  8
YODOROGO
100
AcDbLine
 10
14128.80217064596
 20
761.8747482146434
 30
0.0
 11
14128.80217064596
 21
713.8747482146435
 31
0.0
  0
LINE
  5
1CA06
330
1C77F
100
AcDbEntity
  8
YODOROGO
100
AcDbLine
 10
14010.04445186844
 20
805.3252825309574
 30
0.0
 11
14020.45660200844
 21
829.874748214644
 31
0.0
  0
LINE
  5
1CA07
330
1C77F
100
AcDbEntity
  8
YODOROGO
100
AcDbLine
 10
14020.80217064596
 20
791.5602449742006
 30
0.0
 11
14010.04445186844
 21
805.3252825309574
 31
0.0
  0
LINE
  5
1CA08
330
1C77F
100
AcDbEntity
  8
YODOROGO
100
AcDbLine
 10
14020.80217064596
 20
781.5602449741994
 30
0.0
 11
14020.80217064596
 21
791.5602449742006
 31
0.0
  0
LINE
  5
1CA09
330
1C77F
100
AcDbEntity
  8
YODOROGO
100
AcDbLine
 10
14008.80217064596
 20
792.6185318747651
 30
0.0
 11
14020.80217064596
 21
781.5602449741994
 31
0.0
  0
LINE
  5
1CA0A
330
1C77F
100
AcDbEntity
  8
YODOROGO
100
AcDbLine
 10
14008.80217064596
 20
737.8747482146435
 30
0.0
 11
14008.80217064596
 21
792.6185318747651
 31
0.0
  0
LINE
  5
1CA0B
330
1C77F
100
AcDbEntity
  8
YODOROGO
100
AcDbLine
 10
14000.80217064596
 20
737.8747482146435
 30
0.0
 11
14008.80217064596
 21
737.8747482146435
 31
0.0
  0
LINE
  5
1CA0C
330
1C77F
100
AcDbEntity
  8
YODOROGO
100
AcDbLine
 10
14000.80217064596
 20
790.0026748448738
 30
0.0
 11
14000.80217064596
 21
737.8747482146435
 31
0.0
  0
LINE
  5
1CA0D
330
1C77F
100
AcDbEntity
  8
YODOROGO
100
AcDbLine
 10
13988.80217064596
 20
766.3840395167142
 30
0.0
 11
14000.80217064596
 21
790.0026748448738
 31
0.0
  0
LINE
  5
1CA0E
330
1C77F
100
AcDbEntity
  8
YODOROGO
100
AcDbLine
 10
13988.80217064596
 20
778.3840395167149
 30
0.0
 11
13988.80217064596
 21
766.3840395167142
 31
0.0
  0
LINE
  5
1CA0F
330
1C77F
100
AcDbEntity
  8
YODOROGO
100
AcDbLine
 10
14012.91438714567
 20
833.8747482146427
 30
0.0
 11
13988.80217064596
 21
778.3840395167149
 31
0.0
  0
LINE
  5
1CA10
330
1C77F
100
AcDbEntity
  8
YODOROGO
100
AcDbLine
 10
13988.80217064596
 20
833.8747482146427
 30
0.0
 11
14012.91438714567
 21
833.8747482146427
 31
0.0
  0
LINE
  5
1CA11
330
1C77F
100
AcDbEntity
  8
YODOROGO
100
AcDbLine
 10
14025.06776011545
 20
827.751818637328
 30
0.0
 11
14041.06776011546
 21
827.751818637328
 31
0.0
1001
AUTOCAD_POSTSCRIPT_FIGURE
1002
{
1000
PSFILL
1000
Grayscale
1000
Grayscale
1070
   100
1002
}
  0
LINE
  5
1CA12
330
1C77F
100
AcDbEntity
  8
YODOROGO
100
AcDbLine
 10
14025.06776011545
 20
815.7518186373286
 30
0.0
 11
14025.06776011545
 21
827.751818637328
 31
0.0
1001
AUTOCAD_POSTSCRIPT_FIGURE
1002
{
1000
PSFILL
1000
Grayscale
1000
Grayscale
1070
   100
1002
}
  0
LINE
  5
1CA13
330
1C77F
100
AcDbEntity
  8
YODOROGO
100
AcDbLine
 10
14041.06776011546
 20
815.7518186373286
 30
0.0
 11
14025.06776011545
 21
815.7518186373286
 31
0.0
1001
AUTOCAD_POSTSCRIPT_FIGURE
1002
{
1000
PSFILL
1000
Grayscale
1000
Grayscale
1070
   100
1002
}
  0
LINE
  5
1CA14
330
1C77F
100
AcDbEntity
  8
YODOROGO
100
AcDbLine
 10
14041.06776011546
 20
749.8747482146441
 30
0.0
 11
14041.06776011546
 21
815.7518186373286
 31
0.0
1001
AUTOCAD_POSTSCRIPT_FIGURE
1002
{
1000
PSFILL
1000
Grayscale
1000
Grayscale
1070
   100
1002
}
  0
LINE
  5
1CA15
330
1C77F
100
AcDbEntity
  8
YODOROGO
100
AcDbLine
 10
14025.06776011545
 20
749.8747482146441
 30
0.0
 11
14041.06776011546
 21
749.8747482146441
 31
0.0
1001
AUTOCAD_POSTSCRIPT_FIGURE
1002
{
1000
PSFILL
1000
Grayscale
1000
Grayscale
1070
   100
1002
}
  0
LINE
  5
1CA16
330
1C77F
100
AcDbEntity
  8
YODOROGO
100
AcDbLine
 10
14025.06776011545
 20
737.8747482146435
 30
0.0
 11
14025.06776011545
 21
749.8747482146441
 31
0.0
1001
AUTOCAD_POSTSCRIPT_FIGURE
1002
{
1000
PSFILL
1000
Grayscale
1000
Grayscale
1070
   100
1002
}
  0
LINE
  5
1CA17
330
1C77F
100
AcDbEntity
  8
YODOROGO
100
AcDbLine
 10
14068.80217064596
 20
737.8747482146435
 30
0.0
 11
14025.06776011545
 21
737.8747482146435
 31
0.0
1001
AUTOCAD_POSTSCRIPT_FIGURE
1002
{
1000
PSFILL
1000
Grayscale
1000
Grayscale
1070
   100
1002
}
  0
LINE
  5
1CA18
330
1C77F
100
AcDbEntity
  8
YODOROGO
100
AcDbLine
 10
14068.80217064596
 20
749.8747482146441
 30
0.0
 11
14068.80217064596
 21
737.8747482146435
 31
0.0
1001
AUTOCAD_POSTSCRIPT_FIGURE
1002
{
1000
PSFILL
1000
Grayscale
1000
Grayscale
1070
   100
1002
}
  0
LINE
  5
1CA19
330
1C77F
100
AcDbEntity
  8
YODOROGO
100
AcDbLine
 10
14049.06776011545
 20
749.8747482146441
 30
0.0
 11
14068.80217064596
 21
749.8747482146441
 31
0.0
1001
AUTOCAD_POSTSCRIPT_FIGURE
1002
{
1000
PSFILL
1000
Grayscale
1000
Grayscale
1070
   100
1002
}
  0
LINE
  5
1CA1A
330
1C77F
100
AcDbEntity
  8
YODOROGO
100
AcDbLine
 10
14049.06776011545
 20
815.7518186373286
 30
0.0
 11
14049.06776011545
 21
749.8747482146441
 31
0.0
1001
AUTOCAD_POSTSCRIPT_FIGURE
1002
{
1000
PSFILL
1000
Grayscale
1000
Grayscale
1070
   100
1002
}
  0
LINE
  5
1CA1B
330
1C77F
100
AcDbEntity
  8
YODOROGO
100
AcDbLine
 10
14068.80217064596
 20
815.7518186373286
 30
0.0
 11
14049.06776011545
 21
815.7518186373286
 31
0.0
1001
AUTOCAD_POSTSCRIPT_FIGURE
1002
{
1000
PSFILL
1000
Grayscale
1000
Grayscale
1070
   100
1002
}
  0
LINE
  5
1CA1C
330
1C77F
100
AcDbEntity
  8
YODOROGO
100
AcDbLine
 10
14068.80217064596
 20
827.751818637328
 30
0.0
 11
14068.80217064596
 21
815.7518186373286
 31
0.0
1001
AUTOCAD_POSTSCRIPT_FIGURE
1002
{
1000
PSFILL
1000
Grayscale
1000
Grayscale
1070
   100
1002
}
  0
LINE
  5
1CA1D
330
1C77F
100
AcDbEntity
  8
YODOROGO
100
AcDbLine
 10
14049.06776011545
 20
827.751818637328
 30
0.0
 11
14068.80217064596
 21
827.751818637328
 31
0.0
1001
AUTOCAD_POSTSCRIPT_FIGURE
1002
{
1000
PSFILL
1000
Grayscale
1000
Grayscale
1070
   100
1002
}
  0
LINE
  5
1CA1E
330
1C77F
100
AcDbEntity
  8
YODOROGO
100
AcDbLine
 10
14200.80217064594
 20
833.8747482146439
 30
0.0
 11
14172.80217064596
 21
833.8747482146439
 31
0.0
  0
LINE
  5
1CA1F
330
1C77F
100
AcDbEntity
  8
YODOROGO
100
AcDbLine
 10
14200.80217064594
 20
805.8747482146443
 30
0.0
 11
14200.80217064594
 21
833.8747482146439
 31
0.0
  0
LINE
  5
1CA20
330
1C77F
100
AcDbEntity
  8
YODOROGO
100
AcDbLine
 10
14172.80217064596
 20
833.8747482146439
 30
0.0
 11
14172.80217064596
 21
805.8747482146443
 31
0.0
  0
ARC
  5
1CA21
330
1C77F
100
AcDbEntity
  8
YODOROGO
100
AcDbCircle
 10
14256.80217064594
 20
753.8747482146439
 30
0.0
 40
40.0
100
AcDbArc
 50
180.0
 51
270.0
  0
ARC
  5
1CA22
330
1C77F
100
AcDbEntity
  8
YODOROGO
100
AcDbCircle
 10
14268.80217064594
 20
781.8747482146434
 30
0.0
 40
20.0
100
AcDbArc
 50
180.0
 51
270.0
  0
LINE
  5
1CA23
330
1C77F
100
AcDbEntity
  8
YODOROGO
100
AcDbLine
 10
14280.80217064596
 20
761.8747482146434
 30
0.0
 11
14268.80217064594
 21
761.8747482146434
 31
0.0
  0
ARC
  5
1CA24
330
1C77F
100
AcDbEntity
  8
YODOROGO
100
AcDbCircle
 10
14280.80217064596
 20
773.8747482146427
 30
0.0
 40
11.99999999999818
100
AcDbArc
 50
270.0
 51
0.0000000000054281
  0
LINE
  5
1CA25
330
1C77F
100
AcDbEntity
  8
YODOROGO
100
AcDbLine
 10
13900.80217064596
 20
945.3932903968532
 30
0.0
 11
13888.80217064596
 21
921.8883739758362
 31
0.0
1001
AUTOCAD_POSTSCRIPT_FIGURE
1002
{
1000
PSFILL
1000
Grayscale
1000
Grayscale
1070
   100
1002
}
  0
LINE
  5
1CA26
330
1C77F
100
AcDbEntity
  8
YODOROGO
100
AcDbLine
 10
13900.80217064596
 20
873.8747482146434
 30
0.0
 11
13900.80217064596
 21
945.3932903968532
 31
0.0
1001
AUTOCAD_POSTSCRIPT_FIGURE
1002
{
1000
PSFILL
1000
Grayscale
1000
Grayscale
1070
   100
1002
}
  0
LINE
  5
1CA27
330
1C77F
100
AcDbEntity
  8
YODOROGO
100
AcDbLine
 10
13908.80217064596
 20
873.8747482146434
 30
0.0
 11
13900.80217064596
 21
873.8747482146434
 31
0.0
1001
AUTOCAD_POSTSCRIPT_FIGURE
1002
{
1000
PSFILL
1000
Grayscale
1000
Grayscale
1070
   100
1002
}
  0
LINE
  5
1CA28
330
1C77F
100
AcDbEntity
  8
YODOROGO
100
AcDbLine
 10
13908.80217064596
 20
946.8856660426332
 30
0.0
 11
13908.80217064596
 21
873.8747482146434
 31
0.0
1001
AUTOCAD_POSTSCRIPT_FIGURE
1002
{
1000
PSFILL
1000
Grayscale
1000
Grayscale
1070
   100
1002
}
  0
LINE
  5
1CA29
330
1C77F
100
AcDbEntity
  8
YODOROGO
100
AcDbLine
 10
13920.80217064596
 20
933.8273791420684
 30
0.0
 11
13908.80217064596
 21
946.8856660426332
 31
0.0
1001
AUTOCAD_POSTSCRIPT_FIGURE
1002
{
1000
PSFILL
1000
Grayscale
1000
Grayscale
1070
   100
1002
}
  0
LINE
  5
1CA2A
330
1C77F
100
AcDbEntity
  8
YODOROGO
100
AcDbLine
 10
13920.80217064596
 20
941.8273791420681
 30
0.0
 11
13920.80217064596
 21
933.8273791420684
 31
0.0
1001
AUTOCAD_POSTSCRIPT_FIGURE
1002
{
1000
PSFILL
1000
Grayscale
1000
Grayscale
1070
   100
1002
}
  0
LINE
  5
1CA2B
330
1C77F
100
AcDbEntity
  8
YODOROGO
100
AcDbLine
 10
13908.80217064596
 20
958.8856660426325
 30
0.0
 11
13920.80217064596
 21
941.8273791420681
 31
0.0
1001
AUTOCAD_POSTSCRIPT_FIGURE
1002
{
1000
PSFILL
1000
Grayscale
1000
Grayscale
1070
   100
1002
}
  0
LINE
  5
1CA2C
330
1C77F
100
AcDbEntity
  8
YODOROGO
100
AcDbLine
 10
13908.80217064596
 20
969.8747482146441
 30
0.0
 11
13908.80217064596
 21
958.8856660426325
 31
0.0
1001
AUTOCAD_POSTSCRIPT_FIGURE
1002
{
1000
PSFILL
1000
Grayscale
1000
Grayscale
1070
   100
1002
}
  0
LINE
  5
1CA2D
330
1C77F
100
AcDbEntity
  8
YODOROGO
100
AcDbLine
 10
13944.80217064596
 20
969.8747482146441
 30
0.0
 11
13908.80217064596
 21
969.8747482146441
 31
0.0
1001
AUTOCAD_POSTSCRIPT_FIGURE
1002
{
1000
PSFILL
1000
Grayscale
1000
Grayscale
1070
   100
1002
}
  0
LINE
  5
1CA2E
330
1C77F
100
AcDbEntity
  8
YODOROGO
100
AcDbLine
 10
13944.80217064596
 20
950.2841744681495
 30
0.0
 11
13944.80217064596
 21
969.8747482146441
 31
0.0
1001
AUTOCAD_POSTSCRIPT_FIGURE
1002
{
1000
PSFILL
1000
Grayscale
1000
Grayscale
1070
   100
1002
}
  0
LINE
  5
1CA2F
330
1C77F
100
AcDbEntity
  8
YODOROGO
100
AcDbLine
 10
13928.80217064596
 20
950.2841744681495
 30
0.0
 11
13944.80217064596
 21
950.2841744681495
 31
0.0
1001
AUTOCAD_POSTSCRIPT_FIGURE
1002
{
1000
PSFILL
1000
Grayscale
1000
Grayscale
1070
   100
1002
}
  0
LINE
  5
1CA30
330
1C77F
100
AcDbEntity
  8
YODOROGO
100
AcDbLine
 10
13928.80217064596
 20
942.2841744681491
 30
0.0
 11
13928.80217064596
 21
950.2841744681495
 31
0.0
1001
AUTOCAD_POSTSCRIPT_FIGURE
1002
{
1000
PSFILL
1000
Grayscale
1000
Grayscale
1070
   100
1002
}
  0
LINE
  5
1CA31
330
1C77F
100
AcDbEntity
  8
YODOROGO
100
AcDbLine
 10
13944.80217064596
 20
942.2841744681491
 30
0.0
 11
13928.80217064596
 21
942.2841744681491
 31
0.0
1001
AUTOCAD_POSTSCRIPT_FIGURE
1002
{
1000
PSFILL
1000
Grayscale
1000
Grayscale
1070
   100
1002
}
  0
LINE
  5
1CA32
330
1C77F
100
AcDbEntity
  8
YODOROGO
100
AcDbLine
 10
13944.80217064596
 20
939.8095889822197
 30
0.0
 11
13944.80217064596
 21
942.2841744681491
 31
0.0
1001
AUTOCAD_POSTSCRIPT_FIGURE
1002
{
1000
PSFILL
1000
Grayscale
1000
Grayscale
1070
   100
1002
}
  0
LINE
  5
1CA33
330
1C77F
100
AcDbEntity
  8
YODOROGO
100
AcDbLine
 10
13924.80217064596
 20
906.4874905807087
 30
0.0
 11
13944.80217064596
 21
939.8095889822197
 31
0.0
1001
AUTOCAD_POSTSCRIPT_FIGURE
1002
{
1000
PSFILL
1000
Grayscale
1000
Grayscale
1070
   100
1002
}
  0
LINE
  5
1CA34
330
1C77F
100
AcDbEntity
  8
YODOROGO
100
AcDbLine
 10
13924.80217064596
 20
898.487490580708
 30
0.0
 11
13924.80217064596
 21
906.4874905807087
 31
0.0
1001
AUTOCAD_POSTSCRIPT_FIGURE
1002
{
1000
PSFILL
1000
Grayscale
1000
Grayscale
1070
   100
1002
}
  0
LINE
  5
1CA35
330
1C77F
100
AcDbEntity
  8
YODOROGO
100
AcDbLine
 10
13944.80217064596
 20
923.8095889822183
 30
0.0
 11
13924.80217064596
 21
898.487490580708
 31
0.0
1001
AUTOCAD_POSTSCRIPT_FIGURE
1002
{
1000
PSFILL
1000
Grayscale
1000
Grayscale
1070
   100
1002
}
  0
LINE
  5
1CA36
330
1C77F
100
AcDbEntity
  8
YODOROGO
100
AcDbLine
 10
13944.80217064596
 20
873.8747482146434
 30
0.0
 11
13944.80217064596
 21
923.8095889822183
 31
0.0
1001
AUTOCAD_POSTSCRIPT_FIGURE
1002
{
1000
PSFILL
1000
Grayscale
1000
Grayscale
1070
   100
1002
}
  0
LINE
  5
1CA37
330
1C77F
100
AcDbEntity
  8
YODOROGO
100
AcDbLine
 10
13952.80217064596
 20
873.8747482146434
 30
0.0
 11
13944.80217064596
 21
873.8747482146434
 31
0.0
1001
AUTOCAD_POSTSCRIPT_FIGURE
1002
{
1000
PSFILL
1000
Grayscale
1000
Grayscale
1070
   100
1002
}
  0
LINE
  5
1CA38
330
1C77F
100
AcDbEntity
  8
YODOROGO
100
AcDbLine
 10
13952.80217064596
 20
924.7045060794032
 30
0.0
 11
13952.80217064596
 21
873.8747482146434
 31
0.0
1001
AUTOCAD_POSTSCRIPT_FIGURE
1002
{
1000
PSFILL
1000
Grayscale
1000
Grayscale
1070
   100
1002
}
  0
LINE
  5
1CA39
330
1C77F
100
AcDbEntity
  8
YODOROGO
100
AcDbLine
 10
13968.80217064596
 20
898.487490580708
 30
0.0
 11
13952.80217064596
 21
924.7045060794032
 31
0.0
1001
AUTOCAD_POSTSCRIPT_FIGURE
1002
{
1000
PSFILL
1000
Grayscale
1000
Grayscale
1070
   100
1002
}
  0
LINE
  5
1CA3A
330
1C77F
100
AcDbEntity
  8
YODOROGO
100
AcDbLine
 10
13968.80217064596
 20
906.4874905807087
 30
0.0
 11
13968.80217064596
 21
898.487490580708
 31
0.0
1001
AUTOCAD_POSTSCRIPT_FIGURE
1002
{
1000
PSFILL
1000
Grayscale
1000
Grayscale
1070
   100
1002
}
  0
LINE
  5
1CA3B
330
1C77F
100
AcDbEntity
  8
YODOROGO
100
AcDbLine
 10
13952.80217064596
 20
940.704506079404
 30
0.0
 11
13968.80217064596
 21
906.4874905807087
 31
0.0
1001
AUTOCAD_POSTSCRIPT_FIGURE
1002
{
1000
PSFILL
1000
Grayscale
1000
Grayscale
1070
   100
1002
}
  0
LINE
  5
1CA3C
330
1C77F
100
AcDbEntity
  8
YODOROGO
100
AcDbLine
 10
13952.80217064596
 20
942.2841744681502
 30
0.0
 11
13952.80217064596
 21
940.704506079404
 31
0.0
1001
AUTOCAD_POSTSCRIPT_FIGURE
1002
{
1000
PSFILL
1000
Grayscale
1000
Grayscale
1070
   100
1002
}
  0
LINE
  5
1CA3D
330
1C77F
100
AcDbEntity
  8
YODOROGO
100
AcDbLine
 10
13968.80217064596
 20
942.2841744681491
 30
0.0
 11
13952.80217064596
 21
942.2841744681502
 31
0.0
1001
AUTOCAD_POSTSCRIPT_FIGURE
1002
{
1000
PSFILL
1000
Grayscale
1000
Grayscale
1070
   100
1002
}
  0
LINE
  5
1CA3E
330
1C77F
100
AcDbEntity
  8
YODOROGO
100
AcDbLine
 10
13968.80217064596
 20
950.2841744681495
 30
0.0
 11
13968.80217064596
 21
942.2841744681491
 31
0.0
1001
AUTOCAD_POSTSCRIPT_FIGURE
1002
{
1000
PSFILL
1000
Grayscale
1000
Grayscale
1070
   100
1002
}
  0
LINE
  5
1CA3F
330
1C77F
100
AcDbEntity
  8
YODOROGO
100
AcDbLine
 10
13952.80217064596
 20
950.2841744681495
 30
0.0
 11
13968.80217064596
 21
950.2841744681495
 31
0.0
1001
AUTOCAD_POSTSCRIPT_FIGURE
1002
{
1000
PSFILL
1000
Grayscale
1000
Grayscale
1070
   100
1002
}
  0
LINE
  5
1CA40
330
1C77F
100
AcDbEntity
  8
YODOROGO
100
AcDbLine
 10
13952.80217064596
 20
969.8747482146441
 30
0.0
 11
13952.80217064596
 21
950.2841744681495
 31
0.0
1001
AUTOCAD_POSTSCRIPT_FIGURE
1002
{
1000
PSFILL
1000
Grayscale
1000
Grayscale
1070
   100
1002
}
  0
LINE
  5
1CA41
330
1C77F
100
AcDbEntity
  8
YODOROGO
100
AcDbLine
 10
13968.80217064596
 20
969.8747482146441
 30
0.0
 11
13952.80217064596
 21
969.8747482146441
 31
0.0
1001
AUTOCAD_POSTSCRIPT_FIGURE
1002
{
1000
PSFILL
1000
Grayscale
1000
Grayscale
1070
   100
1002
}
  0
LINE
  5
1CA42
330
1C77F
100
AcDbEntity
  8
YODOROGO
100
AcDbLine
 10
13968.80217064596
 20
977.8747482146435
 30
0.0
 11
13968.80217064596
 21
969.8747482146441
 31
0.0
1001
AUTOCAD_POSTSCRIPT_FIGURE
1002
{
1000
PSFILL
1000
Grayscale
1000
Grayscale
1070
   100
1002
}
  0
LINE
  5
1CA43
330
1C77F
100
AcDbEntity
  8
YODOROGO
100
AcDbLine
 10
13952.80217064596
 20
977.8747482146435
 30
0.0
 11
13968.80217064596
 21
977.8747482146435
 31
0.0
1001
AUTOCAD_POSTSCRIPT_FIGURE
1002
{
1000
PSFILL
1000
Grayscale
1000
Grayscale
1070
   100
1002
}
  0
LINE
  5
1CA44
330
1C77F
100
AcDbEntity
  8
YODOROGO
100
AcDbLine
 10
13952.80217064596
 20
989.8747482146443
 30
0.0
 11
13952.80217064596
 21
977.8747482146435
 31
0.0
1001
AUTOCAD_POSTSCRIPT_FIGURE
1002
{
1000
PSFILL
1000
Grayscale
1000
Grayscale
1070
   100
1002
}
  0
LINE
  5
1CA45
330
1C77F
100
AcDbEntity
  8
YODOROGO
100
AcDbLine
 10
13944.80217064596
 20
989.8747482146443
 30
0.0
 11
13952.80217064596
 21
989.8747482146443
 31
0.0
1001
AUTOCAD_POSTSCRIPT_FIGURE
1002
{
1000
PSFILL
1000
Grayscale
1000
Grayscale
1070
   100
1002
}
  0
LINE
  5
1CA46
330
1C77F
100
AcDbEntity
  8
YODOROGO
100
AcDbLine
 10
13944.80217064596
 20
977.8747482146435
 30
0.0
 11
13944.80217064596
 21
989.8747482146443
 31
0.0
1001
AUTOCAD_POSTSCRIPT_FIGURE
1002
{
1000
PSFILL
1000
Grayscale
1000
Grayscale
1070
   100
1002
}
  0
LINE
  5
1CA47
330
1C77F
100
AcDbEntity
  8
YODOROGO
100
AcDbLine
 10
13932.80217064596
 20
977.8747482146435
 30
0.0
 11
13944.80217064596
 21
977.8747482146435
 31
0.0
1001
AUTOCAD_POSTSCRIPT_FIGURE
1002
{
1000
PSFILL
1000
Grayscale
1000
Grayscale
1070
   100
1002
}
  0
LINE
  5
1CA48
330
1C77F
100
AcDbEntity
  8
YODOROGO
100
AcDbLine
 10
13932.80217064596
 20
989.8747482146443
 30
0.0
 11
13932.80217064596
 21
977.8747482146435
 31
0.0
1001
AUTOCAD_POSTSCRIPT_FIGURE
1002
{
1000
PSFILL
1000
Grayscale
1000
Grayscale
1070
   100
1002
}
  0
LINE
  5
1CA49
330
1C77F
100
AcDbEntity
  8
YODOROGO
100
AcDbLine
 10
13924.80217064596
 20
989.8747482146443
 30
0.0
 11
13932.80217064596
 21
989.8747482146443
 31
0.0
1001
AUTOCAD_POSTSCRIPT_FIGURE
1002
{
1000
PSFILL
1000
Grayscale
1000
Grayscale
1070
   100
1002
}
  0
LINE
  5
1CA4A
330
1C77F
100
AcDbEntity
  8
YODOROGO
100
AcDbLine
 10
13924.80217064596
 20
977.8747482146435
 30
0.0
 11
13924.80217064596
 21
989.8747482146443
 31
0.0
1001
AUTOCAD_POSTSCRIPT_FIGURE
1002
{
1000
PSFILL
1000
Grayscale
1000
Grayscale
1070
   100
1002
}
  0
LINE
  5
1CA4B
330
1C77F
100
AcDbEntity
  8
YODOROGO
100
AcDbLine
 10
13908.80217064596
 20
977.8747482146435
 30
0.0
 11
13924.80217064596
 21
977.8747482146435
 31
0.0
1001
AUTOCAD_POSTSCRIPT_FIGURE
1002
{
1000
PSFILL
1000
Grayscale
1000
Grayscale
1070
   100
1002
}
  0
LINE
  5
1CA4C
330
1C77F
100
AcDbEntity
  8
YODOROGO
100
AcDbLine
 10
13908.80217064596
 20
989.8747482146443
 30
0.0
 11
13908.80217064596
 21
977.8747482146435
 31
0.0
1001
AUTOCAD_POSTSCRIPT_FIGURE
1002
{
1000
PSFILL
1000
Grayscale
1000
Grayscale
1070
   100
1002
}
  0
LINE
  5
1CA4D
330
1C77F
100
AcDbEntity
  8
YODOROGO
100
AcDbLine
 10
13900.80217064596
 20
989.8747482146443
 30
0.0
 11
13908.80217064596
 21
989.8747482146443
 31
0.0
1001
AUTOCAD_POSTSCRIPT_FIGURE
1002
{
1000
PSFILL
1000
Grayscale
1000
Grayscale
1070
   100
1002
}
  0
LINE
  5
1CA4E
330
1C77F
100
AcDbEntity
  8
YODOROGO
100
AcDbLine
 10
13900.80217064596
 20
977.8747482146435
 30
0.0
 11
13900.80217064596
 21
989.8747482146443
 31
0.0
1001
AUTOCAD_POSTSCRIPT_FIGURE
1002
{
1000
PSFILL
1000
Grayscale
1000
Grayscale
1070
   100
1002
}
  0
LINE
  5
1CA4F
330
1C77F
100
AcDbEntity
  8
YODOROGO
100
AcDbLine
 10
13888.80217064596
 20
977.8747482146435
 30
0.0
 11
13900.80217064596
 21
977.8747482146435
 31
0.0
1001
AUTOCAD_POSTSCRIPT_FIGURE
1002
{
1000
PSFILL
1000
Grayscale
1000
Grayscale
1070
   100
1002
}
  0
LINE
  5
1CA50
330
1C77F
100
AcDbEntity
  8
YODOROGO
100
AcDbLine
 10
13888.80217064596
 20
969.8747482146441
 30
0.0
 11
13888.80217064596
 21
977.8747482146435
 31
0.0
1001
AUTOCAD_POSTSCRIPT_FIGURE
1002
{
1000
PSFILL
1000
Grayscale
1000
Grayscale
1070
   100
1002
}
  0
LINE
  5
1CA51
330
1C77F
100
AcDbEntity
  8
YODOROGO
100
AcDbLine
 10
13900.80217064596
 20
969.8747482146441
 30
0.0
 11
13888.80217064596
 21
969.8747482146441
 31
0.0
1001
AUTOCAD_POSTSCRIPT_FIGURE
1002
{
1000
PSFILL
1000
Grayscale
1000
Grayscale
1070
   100
1002
}
  0
LINE
  5
1CA52
330
1C77F
100
AcDbEntity
  8
YODOROGO
100
AcDbLine
 10
13900.80217064596
 20
957.3932903968524
 30
0.0
 11
13900.80217064596
 21
969.8747482146441
 31
0.0
1001
AUTOCAD_POSTSCRIPT_FIGURE
1002
{
1000
PSFILL
1000
Grayscale
1000
Grayscale
1070
   100
1002
}
  0
LINE
  5
1CA53
330
1C77F
100
AcDbEntity
  8
YODOROGO
100
AcDbLine
 10
13888.80217064596
 20
929.8883739758355
 30
0.0
 11
13900.80217064596
 21
957.3932903968524
 31
0.0
1001
AUTOCAD_POSTSCRIPT_FIGURE
1002
{
1000
PSFILL
1000
Grayscale
1000
Grayscale
1070
   100
1002
}
  0
LINE
  5
1CA54
330
1C77F
100
AcDbEntity
  8
YODOROGO
100
AcDbLine
 10
13888.80217064596
 20
921.8883739758362
 30
0.0
 11
13888.80217064596
 21
929.8883739758355
 31
0.0
1001
AUTOCAD_POSTSCRIPT_FIGURE
1002
{
1000
PSFILL
1000
Grayscale
1000
Grayscale
1070
   100
1002
}
  0
LINE
  5
1CA55
330
1C77F
100
AcDbEntity
  8
YODOROGO
100
AcDbLine
 10
14128.80217064596
 20
933.8747482146439
 30
0.0
 11
14200.80217064594
 21
912.4388128201532
 31
0.0
1001
AUTOCAD_POSTSCRIPT_FIGURE
1002
{
1000
PSFILL
1000
Grayscale
1000
Grayscale
1070
   100
1002
}
  0
LINE
  5
1CA56
330
1C77F
100
AcDbEntity
  8
YODOROGO
100
AcDbLine
 10
14200.80217064594
 20
876.4388128201531
 30
0.0
 11
14128.80217064596
 21
897.8747482146435
 31
0.0
1001
AUTOCAD_POSTSCRIPT_FIGURE
1002
{
1000
PSFILL
1000
Grayscale
1000
Grayscale
1070
   100
1002
}
  0
LINE
  5
1CA57
330
1C77F
100
AcDbEntity
  8
YODOROGO
100
AcDbLine
 10
14200.80217064594
 20
992.4388128201531
 30
0.0
 11
14128.80217064596
 21
1013.874748214644
 31
0.0
1001
AUTOCAD_POSTSCRIPT_FIGURE
1002
{
1000
PSFILL
1000
Grayscale
1000
Grayscale
1070
   100
1002
}
  0
LINE
  5
1CA58
330
1C77F
100
AcDbEntity
  8
YODOROGO
100
AcDbLine
 10
14128.80217064596
 20
979.874748214644
 30
0.0
 11
14200.80217064594
 21
958.4388128201537
 31
0.0
1001
AUTOCAD_POSTSCRIPT_FIGURE
1002
{
1000
PSFILL
1000
Grayscale
1000
Grayscale
1070
   100
1002
}
  0
LINE
  5
1CA59
330
1C77F
100
AcDbEntity
  8
YODOROGO
100
AcDbLine
 10
14128.80217064596
 20
897.8747482146435
 30
0.0
 11
14128.80217064596
 21
933.8747482146439
 31
0.0
1001
AUTOCAD_POSTSCRIPT_FIGURE
1002
{
1000
PSFILL
1000
Grayscale
1000
Grayscale
1070
   100
1002
}
  0
LINE
  5
1CA5A
330
1C77F
100
AcDbEntity
  8
YODOROGO
100
AcDbLine
 10
14128.80217064596
 20
1013.874748214644
 30
0.0
 11
14128.80217064596
 21
979.874748214644
 31
0.0
1001
AUTOCAD_POSTSCRIPT_FIGURE
1002
{
1000
PSFILL
1000
Grayscale
1000
Grayscale
1070
   100
1002
}
  0
LINE
  5
1CA5B
330
1C77F
100
AcDbEntity
  8
YODOROGO
100
AcDbLine
 10
14040.11816010337
 20
969.8747482146441
 30
0.0
 11
14064.80217064594
 21
873.8747482146434
 31
0.0
1001
AUTOCAD_POSTSCRIPT_FIGURE
1002
{
1000
PSFILL
1000
Grayscale
1000
Grayscale
1070
   100
1002
}
  0
LINE
  5
1CA5C
330
1C77F
100
AcDbEntity
  8
YODOROGO
100
AcDbLine
 10
13988.80217064596
 20
969.8747482146441
 30
0.0
 11
14040.11816010337
 21
969.8747482146441
 31
0.0
1001
AUTOCAD_POSTSCRIPT_FIGURE
1002
{
1000
PSFILL
1000
Grayscale
1000
Grayscale
1070
   100
1002
}
  0
LINE
  5
1CA5D
330
1C77F
100
AcDbEntity
  8
YODOROGO
100
AcDbLine
 10
13988.80217064596
 20
977.8747482146435
 30
0.0
 11
13988.80217064596
 21
969.8747482146441
 31
0.0
1001
AUTOCAD_POSTSCRIPT_FIGURE
1002
{
1000
PSFILL
1000
Grayscale
1000
Grayscale
1070
   100
1002
}
  0
LINE
  5
1CA5E
330
1C77F
100
AcDbEntity
  8
YODOROGO
100
AcDbLine
 10
14038.30343925995
 20
977.8747482146435
 30
0.0
 11
13988.80217064596
 21
977.8747482146435
 31
0.0
1001
AUTOCAD_POSTSCRIPT_FIGURE
1002
{
1000
PSFILL
1000
Grayscale
1000
Grayscale
1070
   100
1002
}
  0
LINE
  5
1CA5F
330
1C77F
100
AcDbEntity
  8
YODOROGO
100
AcDbLine
 10
14035.58135799485
 20
989.8747482146443
 30
0.0
 11
14038.30343925995
 21
977.8747482146435
 31
0.0
1001
AUTOCAD_POSTSCRIPT_FIGURE
1002
{
1000
PSFILL
1000
Grayscale
1000
Grayscale
1070
   100
1002
}
  0
LINE
  5
1CA60
330
1C77F
100
AcDbEntity
  8
YODOROGO
100
AcDbLine
 10
14045.58135799485
 20
989.8747482146443
 30
0.0
 11
14035.58135799485
 21
989.8747482146443
 31
0.0
1001
AUTOCAD_POSTSCRIPT_FIGURE
1002
{
1000
PSFILL
1000
Grayscale
1000
Grayscale
1070
   100
1002
}
  0
LINE
  5
1CA61
330
1C77F
100
AcDbEntity
  8
YODOROGO
100
AcDbLine
 10
14047.90343925997
 20
977.8747482146435
 30
0.0
 11
14045.58135799485
 21
989.8747482146443
 31
0.0
1001
AUTOCAD_POSTSCRIPT_FIGURE
1002
{
1000
PSFILL
1000
Grayscale
1000
Grayscale
1070
   100
1002
}
  0
LINE
  5
1CA62
330
1C77F
100
AcDbEntity
  8
YODOROGO
100
AcDbLine
 10
14060.80217064596
 20
977.8747482146435
 30
0.0
 11
14047.90343925997
 21
977.8747482146435
 31
0.0
1001
AUTOCAD_POSTSCRIPT_FIGURE
1002
{
1000
PSFILL
1000
Grayscale
1000
Grayscale
1070
   100
1002
}
  0
LINE
  5
1CA63
330
1C77F
100
AcDbEntity
  8
YODOROGO
100
AcDbLine
 10
14060.80217064596
 20
989.8747482146443
 30
0.0
 11
14060.80217064596
 21
977.8747482146435
 31
0.0
1001
AUTOCAD_POSTSCRIPT_FIGURE
1002
{
1000
PSFILL
1000
Grayscale
1000
Grayscale
1070
   100
1002
}
  0
LINE
  5
1CA64
330
1C77F
100
AcDbEntity
  8
YODOROGO
100
AcDbLine
 10
14068.80217064596
 20
989.8747482146443
 30
0.0
 11
14060.80217064596
 21
989.8747482146443
 31
0.0
1001
AUTOCAD_POSTSCRIPT_FIGURE
1002
{
1000
PSFILL
1000
Grayscale
1000
Grayscale
1070
   100
1002
}
  0
LINE
  5
1CA65
330
1C77F
100
AcDbEntity
  8
YODOROGO
100
AcDbLine
 10
14068.80217064596
 20
977.8747482146435
 30
0.0
 11
14068.80217064596
 21
989.8747482146443
 31
0.0
1001
AUTOCAD_POSTSCRIPT_FIGURE
1002
{
1000
PSFILL
1000
Grayscale
1000
Grayscale
1070
   100
1002
}
  0
LINE
  5
1CA66
330
1C77F
100
AcDbEntity
  8
YODOROGO
100
AcDbLine
 10
14068.80217064596
 20
969.8747482146441
 30
0.0
 11
14068.80217064596
 21
977.8747482146435
 31
0.0
1001
AUTOCAD_POSTSCRIPT_FIGURE
1002
{
1000
PSFILL
1000
Grayscale
1000
Grayscale
1070
   100
1002
}
  0
LINE
  5
1CA67
330
1C77F
100
AcDbEntity
  8
YODOROGO
100
AcDbLine
 10
14049.4514934367
 20
969.8747482146441
 30
0.0
 11
14068.80217064596
 21
969.8747482146441
 31
0.0
1001
AUTOCAD_POSTSCRIPT_FIGURE
1002
{
1000
PSFILL
1000
Grayscale
1000
Grayscale
1070
   100
1002
}
  0
LINE
  5
1CA68
330
1C77F
100
AcDbEntity
  8
YODOROGO
100
AcDbLine
 10
14068.80217064596
 20
873.8747482146434
 30
0.0
 11
14049.4514934367
 21
969.8747482146441
 31
0.0
1001
AUTOCAD_POSTSCRIPT_FIGURE
1002
{
1000
PSFILL
1000
Grayscale
1000
Grayscale
1070
   100
1002
}
  0
LINE
  5
1CA69
330
1C77F
100
AcDbEntity
  8
YODOROGO
100
AcDbLine
 10
14064.80217064594
 20
873.8747482146434
 30
0.0
 11
14068.80217064596
 21
873.8747482146434
 31
0.0
1001
AUTOCAD_POSTSCRIPT_FIGURE
1002
{
1000
PSFILL
1000
Grayscale
1000
Grayscale
1070
   100
1002
}
  0
LINE
  5
1CA6A
330
1C77F
100
AcDbEntity
  8
YODOROGO
100
AcDbLine
 10
14039.03460996688
 20
887.8703881493972
 30
0.0
 11
13988.80217064596
 21
873.8747482146434
 31
0.0
  0
LINE
  5
1CA6B
330
1C77F
100
AcDbEntity
  8
YODOROGO
100
AcDbLine
 10
14039.03460996688
 20
899.3344897645364
 30
0.0
 11
14039.03460996688
 21
887.8703881493972
 31
0.0
  0
LINE
  5
1CA6C
330
1C77F
100
AcDbEntity
  8
YODOROGO
100
AcDbLine
 10
14016.91839030643
 20
893.4084665668834
 30
0.0
 11
14039.03460996688
 21
899.3344897645364
 31
0.0
  0
LINE
  5
1CA6D
330
1C77F
100
AcDbEntity
  8
YODOROGO
100
AcDbLine
 10
14016.91839030643
 20
936.2841744681499
 30
0.0
 11
14016.91839030643
 21
893.4084665668834
 31
0.0
  0
LINE
  5
1CA6E
330
1C77F
100
AcDbEntity
  8
YODOROGO
100
AcDbLine
 10
14039.03460996688
 20
936.2841744681499
 30
0.0
 11
14016.91839030643
 21
936.2841744681499
 31
0.0
  0
LINE
  5
1CA6F
330
1C77F
100
AcDbEntity
  8
YODOROGO
100
AcDbLine
 10
14039.03460996688
 20
946.2841744681487
 30
0.0
 11
14039.03460996688
 21
936.2841744681499
 31
0.0
  0
LINE
  5
1CA70
330
1C77F
100
AcDbEntity
  8
YODOROGO
100
AcDbLine
 10
13988.80217064596
 20
946.2841744681487
 30
0.0
 11
14039.03460996688
 21
946.2841744681487
 31
0.0
  0
LINE
  5
1CA71
330
1C77F
100
AcDbEntity
  8
YODOROGO
100
AcDbLine
 10
13988.80217064596
 20
936.2841744681499
 30
0.0
 11
13988.80217064596
 21
946.2841744681487
 31
0.0
  0
LINE
  5
1CA72
330
1C77F
100
AcDbEntity
  8
YODOROGO
100
AcDbLine
 10
14010.91839030643
 20
936.2841744681499
 30
0.0
 11
13988.80217064596
 21
936.2841744681499
 31
0.0
  0
LINE
  5
1CA73
330
1C77F
100
AcDbEntity
  8
YODOROGO
100
AcDbLine
 10
14010.91839030643
 20
892.3366697971587
 30
0.0
 11
14010.91839030643
 21
936.2841744681499
 31
0.0
  0
LINE
  5
1CA74
330
1C77F
100
AcDbEntity
  8
YODOROGO
100
AcDbLine
 10
13988.80217064596
 20
885.8747482146432
 30
0.0
 11
14010.91839030643
 21
892.3366697971587
 31
0.0
  0
LINE
  5
1CA75
330
1C77F
100
AcDbEntity
  8
YODOROGO
100
AcDbLine
 10
13988.80217064596
 20
873.8747482146434
 30
0.0
 11
13988.80217064596
 21
885.8747482146432
 31
0.0
  0
LINE
  5
1CA76
330
1C77F
100
AcDbEntity
  8
YODOROGO
100
AcDbLine
 10
14000.80217064596
 20
853.874748214644
 30
0.0
 11
14000.80217064596
 21
841.8747482146434
 31
0.0
  0
LINE
  5
1CA77
330
1C77F
100
AcDbEntity
  8
YODOROGO
100
AcDbLine
 10
14000.80217064596
 20
853.874748214644
 30
0.0
 11
14000.80217064596
 21
853.874748214644
 31
0.0
  0
LINE
  5
1CA78
330
1C77F
100
AcDbEntity
  8
YODOROGO
100
AcDbLine
 10
14008.80217064596
 20
853.874748214644
 30
0.0
 11
14000.80217064596
 21
853.874748214644
 31
0.0
  0
LINE
  5
1CA79
330
1C77F
100
AcDbEntity
  8
YODOROGO
100
AcDbLine
 10
14008.80217064596
 20
841.8747482146434
 30
0.0
 11
14008.80217064596
 21
853.874748214644
 31
0.0
  0
LINE
  5
1CA7A
330
1C77F
100
AcDbEntity
  8
YODOROGO
100
AcDbLine
 10
14020.45660200844
 20
841.8747482146434
 30
0.0
 11
14008.80217064596
 21
841.8747482146434
 31
0.0
  0
LINE
  5
1CA7B
330
1C77F
100
AcDbEntity
  8
YODOROGO
100
AcDbLine
 10
14000.80217064596
 20
841.8747482146434
 30
0.0
 11
13988.80217064596
 21
841.8747482146434
 31
0.0
  0
LINE
  5
1CA7C
330
1C77F
100
AcDbEntity
  8
YODOROGO
100
AcDbLine
 10
14041.06776011546
 20
853.874748214644
 30
0.0
 11
14049.06776011545
 21
853.874748214644
 31
0.0
1001
AUTOCAD_POSTSCRIPT_FIGURE
1002
{
1000
PSFILL
1000
Grayscale
1000
Grayscale
1070
   100
1002
}
  0
LINE
  5
1CA7D
330
1C77F
100
AcDbEntity
  8
YODOROGO
100
AcDbLine
 10
14200.80217064594
 20
912.4388128201532
 30
0.0
 11
14200.80217064594
 21
876.4388128201531
 31
0.0
1001
AUTOCAD_POSTSCRIPT_FIGURE
1002
{
1000
PSFILL
1000
Grayscale
1000
Grayscale
1070
   100
1002
}
  0
LINE
  5
1CA7E
330
1C77F
100
AcDbEntity
  8
YODOROGO
100
AcDbLine
 10
14200.80217064594
 20
958.4388128201537
 30
0.0
 11
14200.80217064594
 21
992.4388128201531
 31
0.0
1001
AUTOCAD_POSTSCRIPT_FIGURE
1002
{
1000
PSFILL
1000
Grayscale
1000
Grayscale
1070
   100
1002
}
  0
LINE
  5
1CA7F
330
1C77F
100
AcDbEntity
  8
YODOROGO
100
AcDbLine
 10
14216.80217064594
 20
909.8747482146439
 30
0.0
 11
14216.80217064594
 21
873.8747482146449
 31
0.0
  0
LINE
  5
1CA80
330
1C77F
100
AcDbEntity
  8
YODOROGO
100
AcDbLine
 10
14248.80217064593
 20
853.874748214644
 30
0.0
 11
14216.80217064594
 21
853.874748214644
 31
0.0
  0
LINE
  5
1CA81
330
1C77F
100
AcDbEntity
  8
YODOROGO
100
AcDbLine
 10
14216.80217064594
 20
873.8747482146449
 30
0.0
 11
14292.80217064596
 21
873.8747482146449
 31
0.0
  0
LINE
  5
1CA82
330
1C77F
100
AcDbEntity
  8
YODOROGO
100
AcDbLine
 10
14248.80217064593
 20
933.8747482146439
 30
0.0
 11
14216.80217064594
 21
933.8747482146439
 31
0.0
  0
LINE
  5
1CA83
330
1C77F
100
AcDbEntity
  8
YODOROGO
100
AcDbLine
 10
14248.80217064593
 20
961.8747482146432
 30
0.0
 11
14248.80217064593
 21
933.8747482146439
 31
0.0
  0
LINE
  5
1CA84
330
1C77F
100
AcDbEntity
  8
YODOROGO
100
AcDbLine
 10
14292.80217064596
 20
993.8747482146439
 30
0.0
 11
14292.80217064596
 21
1013.874748214644
 31
0.0
  0
LINE
  5
1CA85
330
1C77F
100
AcDbEntity
  8
YODOROGO
100
AcDbLine
 10
14216.80217064594
 20
993.8747482146439
 30
0.0
 11
14292.80217064596
 21
993.8747482146439
 31
0.0
  0
LINE
  5
1CA86
330
1C77F
100
AcDbEntity
  8
YODOROGO
100
AcDbLine
 10
14216.80217064594
 20
933.8747482146439
 30
0.0
 11
14216.80217064594
 21
993.8747482146439
 31
0.0
  0
LINE
  5
1CA87
330
1C77F
100
AcDbEntity
  8
YODOROGO
100
AcDbLine
 10
14500.80217064594
 20
1013.874748214644
 30
0.0
 11
14500.80217064594
 21
809.8747482146441
 31
0.0
  0
LINE
  5
1CA88
330
1C77F
100
AcDbEntity
  8
YODOROGO
100
AcDbLine
 10
14536.80217064596
 20
789.8747482146441
 30
0.0
 11
14536.80217064596
 21
1013.874748214644
 31
0.0
  0
LINE
  5
1CA89
330
1C77F
100
AcDbEntity
  8
YODOROGO
100
AcDbLine
 10
14630.80217064596
 20
745.8747482146431
 30
0.0
 11
14630.80217064596
 21
1003.874748214644
 31
0.0
  0
LINE
  5
1CA8A
330
1C77F
100
AcDbEntity
  8
YODOROGO
100
AcDbLine
 10
14598.80217064596
 20
1003.874748214644
 30
0.0
 11
14598.80217064596
 21
745.8747482146431
 31
0.0
  0
LINE
  5
1CA8B
330
1C77F
100
AcDbEntity
  8
YODOROGO
100
AcDbLine
 10
14692.80217064596
 20
1013.874748214644
 30
0.0
 11
14692.80217064596
 21
713.8747482146435
 31
0.0
  0
LINE
  5
1CA8C
330
1C77F
100
AcDbEntity
  8
YODOROGO
100
AcDbLine
 10
14728.80217064596
 20
713.8747482146435
 30
0.0
 11
14728.80217064596
 21
1013.874748214644
 31
0.0
  0
LINE
  5
1CA8D
330
1C77F
100
AcDbEntity
  8
YODOROGO
100
AcDbLine
 10
14328.80217064593
 20
833.8747482146439
 30
0.0
 11
14328.80217064593
 21
873.8747482146449
 31
0.0
  0
LINE
  5
1CA8E
330
1C77F
100
AcDbEntity
  8
YODOROGO
100
AcDbLine
 10
14942.80217064596
 20
853.874748214644
 30
0.0
 11
14942.80217064596
 21
833.8747482146439
 31
0.0
  0
LINE
  5
1CA8F
330
1C77F
100
AcDbEntity
  8
YODOROGO
100
AcDbLine
 10
14942.80217064596
 20
853.874748214644
 30
0.0
 11
14942.80217064596
 21
833.8747482146439
 31
0.0
  0
ARC
  5
1CA90
330
1C77F
100
AcDbEntity
  8
YODOROGO
100
AcDbCircle
 10
14453.45578809341
 20
809.1089322211363
 30
0.0
 40
47.35257558937082
100
AcDbArc
 50
274.052441629071
 51
0.9266642149310712
  0
ARC
  5
1CA91
330
1C77F
100
AcDbEntity
  8
YODOROGO
100
AcDbCircle
 10
14454.5930853599
 20
796.30536430522
 30
0.0
 40
82.46021178042756
100
AcDbArc
 50
271.5351210653776
 51
355.5272775058505
  0
LINE
  5
1CA92
330
1C77F
100
AcDbEntity
  8
YODOROGO
100
AcDbLine
 10
14456.80217064596
 20
761.8747482146434
 30
0.0
 11
14456.80217064596
 21
713.8747482146435
 31
0.0
  0
LINE
  5
1CA93
330
1C77F
100
AcDbEntity
  8
YODOROGO
100
AcDbLine
 10
14396.80217064594
 20
833.8747482146439
 30
0.0
 11
14328.80217064593
 21
833.8747482146439
 31
0.0
  0
LINE
  5
1CA94
330
1C77F
100
AcDbEntity
  8
YODOROGO
100
AcDbLine
 10
14396.80217064594
 20
801.8747482146443
 30
0.0
 11
14396.80217064594
 21
833.8747482146439
 31
0.0
  0
LINE
  5
1CA95
330
1C77F
100
AcDbEntity
  8
YODOROGO
100
AcDbLine
 10
14328.80217064593
 20
801.8747482146443
 30
0.0
 11
14396.80217064594
 21
801.8747482146443
 31
0.0
  0
LINE
  5
1CA96
330
1C77F
100
AcDbEntity
  8
YODOROGO
100
AcDbLine
 10
14328.80217064593
 20
761.8747482146434
 30
0.0
 11
14328.80217064593
 21
801.8747482146443
 31
0.0
  0
LINE
  5
1CA97
330
1C77F
100
AcDbEntity
  8
YODOROGO
100
AcDbLine
 10
14396.80217064594
 20
761.8747482146434
 30
0.0
 11
14328.80217064593
 21
761.8747482146434
 31
0.0
  0
LINE
  5
1CA98
330
1C77F
100
AcDbEntity
  8
YODOROGO
100
AcDbLine
 10
14396.80217064594
 20
713.8747482146435
 30
0.0
 11
14396.80217064594
 21
761.8747482146434
 31
0.0
  0
LINE
  5
1CA99
330
1C77F
100
AcDbEntity
  8
YODOROGO
100
AcDbLine
 10
14598.80217064596
 20
745.8747482146431
 30
0.0
 11
14630.80217064596
 21
745.8747482146431
 31
0.0
  0
LINE
  5
1CA9A
330
1C77F
100
AcDbEntity
  8
YODOROGO
100
AcDbLine
 10
14692.80217064596
 20
713.8747482146435
 30
0.0
 11
14728.80217064596
 21
713.8747482146435
 31
0.0
  0
LINE
  5
1CA9B
330
1C77F
100
AcDbEntity
  8
YODOROGO
100
AcDbLine
 10
14868.80217064596
 20
764.2207260852816
 30
0.0
 11
14868.80217064596
 21
713.8747482146435
 31
0.0
  0
LINE
  5
1CA9C
330
1C77F
100
AcDbEntity
  8
YODOROGO
100
AcDbLine
 10
14808.80217064596
 20
713.8747482146435
 30
0.0
 11
14868.80217064596
 21
764.2207260852816
 31
0.0
  0
LINE
  5
1CA9D
330
1C77F
100
AcDbEntity
  8
YODOROGO
100
AcDbLine
 10
14808.80217064596
 20
773.874748214644
 30
0.0
 11
14808.80217064596
 21
713.8747482146435
 31
0.0
  0
LINE
  5
1CA9E
330
1C77F
100
AcDbEntity
  8
YODOROGO
100
AcDbLine
 10
14856.47231434973
 20
813.8747482146435
 30
0.0
 11
14808.80217064596
 21
773.874748214644
 31
0.0
  0
LINE
  5
1CA9F
330
1C77F
100
AcDbEntity
  8
YODOROGO
100
AcDbLine
 10
14808.80217064596
 20
813.8747482146435
 30
0.0
 11
14856.47231434973
 21
813.8747482146435
 31
0.0
  0
LINE
  5
1CAA0
330
1C77F
100
AcDbEntity
  8
YODOROGO
100
AcDbLine
 10
14808.80217064596
 20
833.8747482146439
 30
0.0
 11
14808.80217064596
 21
813.8747482146435
 31
0.0
  0
LINE
  5
1CAA1
330
1C77F
100
AcDbEntity
  8
YODOROGO
100
AcDbLine
 10
14942.80217064596
 20
833.8747482146439
 30
0.0
 11
14808.80217064596
 21
833.8747482146439
 31
0.0
  0
LINE
  5
1CAA2
330
1C77F
100
AcDbEntity
  8
YODOROGO
100
AcDbLine
 10
14958.80217064596
 20
813.8747482146435
 30
0.0
 11
14888.80217064596
 21
813.8747482146435
 31
0.0
  0
LINE
  5
1CAA3
330
1C77F
100
AcDbEntity
  8
YODOROGO
100
AcDbLine
 10
14888.80217064596
 20
781.0027187088283
 30
0.0
 11
14885.70493649264
 21
778.403830673117
 31
0.0
  0
LINE
  5
1CAA4
330
1C77F
100
AcDbEntity
  8
YODOROGO
100
AcDbLine
 10
14888.80217064596
 20
813.8747482146435
 30
0.0
 11
14888.80217064596
 21
781.0027187088283
 31
0.0
  0
LINE
  5
1CAA5
330
1C77F
100
AcDbEntity
  8
YODOROGO
100
AcDbLine
 10
14868.80217064596
 20
764.2207260852816
 30
0.0
 11
14868.80217064596
 21
713.8747482146435
 31
0.0
  0
LINE
  5
1CAA6
330
1C77F
100
AcDbEntity
  8
YODOROGO
100
AcDbLine
 10
14808.80217064596
 20
713.8747482146435
 30
0.0
 11
14868.80217064596
 21
764.2207260852816
 31
0.0
  0
LINE
  5
1CAA7
330
1C77F
100
AcDbEntity
  8
YODOROGO
100
AcDbLine
 10
14808.80217064596
 20
773.874748214644
 30
0.0
 11
14808.80217064596
 21
713.8747482146435
 31
0.0
  0
LINE
  5
1CAA8
330
1C77F
100
AcDbEntity
  8
YODOROGO
100
AcDbLine
 10
14856.47231434973
 20
813.8747482146435
 30
0.0
 11
14808.80217064596
 21
773.874748214644
 31
0.0
  0
LINE
  5
1CAA9
330
1C77F
100
AcDbEntity
  8
YODOROGO
100
AcDbLine
 10
14808.80217064596
 20
813.8747482146435
 30
0.0
 11
14856.47231434973
 21
813.8747482146435
 31
0.0
  0
LINE
  5
1CAAA
330
1C77F
100
AcDbEntity
  8
YODOROGO
100
AcDbLine
 10
14808.80217064596
 20
833.8747482146439
 30
0.0
 11
14808.80217064596
 21
813.8747482146435
 31
0.0
  0
LINE
  5
1CAAB
330
1C77F
100
AcDbEntity
  8
YODOROGO
100
AcDbLine
 10
14942.80217064596
 20
833.8747482146439
 30
0.0
 11
14808.80217064596
 21
833.8747482146439
 31
0.0
  0
LINE
  5
1CAAC
330
1C77F
100
AcDbEntity
  8
YODOROGO
100
AcDbLine
 10
14396.80217064594
 20
873.8747482146449
 30
0.0
 11
14396.80217064594
 21
909.8747482146439
 31
0.0
  0
LINE
  5
1CAAD
330
1C77F
100
AcDbEntity
  8
YODOROGO
100
AcDbLine
 10
14328.80217064593
 20
873.8747482146449
 30
0.0
 11
14396.80217064594
 21
873.8747482146449
 31
0.0
  0
LINE
  5
1CAAE
330
1C77F
100
AcDbEntity
  8
YODOROGO
100
AcDbLine
 10
14364.80217064596
 20
933.8747482146439
 30
0.0
 11
14364.80217064596
 21
961.8747482146432
 31
0.0
  0
LINE
  5
1CAAF
330
1C77F
100
AcDbEntity
  8
YODOROGO
100
AcDbLine
 10
14396.80217064594
 20
933.8747482146439
 30
0.0
 11
14364.80217064596
 21
933.8747482146439
 31
0.0
  0
LINE
  5
1CAB0
330
1C77F
100
AcDbEntity
  8
YODOROGO
100
AcDbLine
 10
14396.80217064594
 20
973.8747482146434
 30
0.0
 11
14396.80217064594
 21
933.8747482146439
 31
0.0
  0
ARC
  5
1CAB1
330
1C77F
100
AcDbEntity
  8
YODOROGO
100
AcDbCircle
 10
14376.80217064594
 20
973.8747482146434
 30
0.0
 40
20.0
100
AcDbArc
 50
0.0
 51
90.0
  0
LINE
  5
1CAB2
330
1C77F
100
AcDbEntity
  8
YODOROGO
100
AcDbLine
 10
14328.80217064596
 20
993.8747482146439
 30
0.0
 11
14376.80217064594
 21
993.8747482146439
 31
0.0
  0
LINE
  5
1CAB3
330
1C77F
100
AcDbEntity
  8
YODOROGO
100
AcDbLine
 10
14328.80217064596
 20
1013.874748214644
 30
0.0
 11
14328.80217064596
 21
993.8747482146439
 31
0.0
  0
LINE
  5
1CAB4
330
1C77F
100
AcDbEntity
  8
YODOROGO
100
AcDbLine
 10
14536.80217064596
 20
1013.874748214644
 30
0.0
 11
14500.80217064594
 21
1013.874748214644
 31
0.0
  0
LINE
  5
1CAB5
330
1C77F
100
AcDbEntity
  8
YODOROGO
100
AcDbLine
 10
14630.80217064596
 20
1003.874748214644
 30
0.0
 11
14598.80217064596
 21
1003.874748214644
 31
0.0
  0
LINE
  5
1CAB6
330
1C77F
100
AcDbEntity
  8
YODOROGO
100
AcDbLine
 10
14728.80217064596
 20
1013.874748214644
 30
0.0
 11
14692.80217064596
 21
1013.874748214644
 31
0.0
  0
LINE
  5
1CAB7
330
1C77F
100
AcDbEntity
  8
YODOROGO
100
AcDbLine
 10
14836.80217064596
 20
853.874748214644
 30
0.0
 11
14836.80217064596
 21
885.8747482146441
 31
0.0
1001
AUTOCAD_POSTSCRIPT_FIGURE
1002
{
1000
PSFILL
1000
Grayscale
1000
Grayscale
1070
    25
1002
}
  0
LINE
  5
1CAB8
330
1C77F
100
AcDbEntity
  8
YODOROGO
100
AcDbLine
 10
14808.80217064596
 20
853.874748214644
 30
0.0
 11
14836.80217064596
 21
853.874748214644
 31
0.0
1001
AUTOCAD_POSTSCRIPT_FIGURE
1002
{
1000
PSFILL
1000
Grayscale
1000
Grayscale
1070
    25
1002
}
  0
LINE
  5
1CAB9
330
1C77F
100
AcDbEntity
  8
YODOROGO
100
AcDbLine
 10
14808.80217064596
 20
909.8747482146439
 30
0.0
 11
14808.80217064596
 21
853.874748214644
 31
0.0
1001
AUTOCAD_POSTSCRIPT_FIGURE
1002
{
1000
PSFILL
1000
Grayscale
1000
Grayscale
1070
    25
1002
}
  0
LINE
  5
1CABA
330
1C77F
100
AcDbEntity
  8
YODOROGO
100
AcDbLine
 10
14882.80217064596
 20
909.8747482146439
 30
0.0
 11
14808.80217064596
 21
909.8747482146439
 31
0.0
1001
AUTOCAD_POSTSCRIPT_FIGURE
1002
{
1000
PSFILL
1000
Grayscale
1000
Grayscale
1070
    25
1002
}
  0
LINE
  5
1CABB
330
1C77F
100
AcDbEntity
  8
YODOROGO
100
AcDbLine
 10
14882.80217064596
 20
929.874748214644
 30
0.0
 11
14882.80217064596
 21
909.8747482146439
 31
0.0
1001
AUTOCAD_POSTSCRIPT_FIGURE
1002
{
1000
PSFILL
1000
Grayscale
1000
Grayscale
1070
    25
1002
}
  0
LINE
  5
1CABC
330
1C77F
100
AcDbEntity
  8
YODOROGO
100
AcDbLine
 10
14808.80217064596
 20
929.874748214644
 30
0.0
 11
14882.80217064596
 21
929.874748214644
 31
0.0
1001
AUTOCAD_POSTSCRIPT_FIGURE
1002
{
1000
PSFILL
1000
Grayscale
1000
Grayscale
1070
    25
1002
}
  0
LINE
  5
1CABD
330
1C77F
100
AcDbEntity
  8
YODOROGO
100
AcDbLine
 10
14808.80217064596
 20
953.874748214644
 30
0.0
 11
14808.80217064596
 21
929.874748214644
 31
0.0
1001
AUTOCAD_POSTSCRIPT_FIGURE
1002
{
1000
PSFILL
1000
Grayscale
1000
Grayscale
1070
    25
1002
}
  0
LINE
  5
1CABE
330
1C77F
100
AcDbEntity
  8
YODOROGO
100
AcDbLine
 10
14882.80217064596
 20
953.874748214644
 30
0.0
 11
14808.80217064596
 21
953.874748214644
 31
0.0
1001
AUTOCAD_POSTSCRIPT_FIGURE
1002
{
1000
PSFILL
1000
Grayscale
1000
Grayscale
1070
    25
1002
}
  0
LINE
  5
1CABF
330
1C77F
100
AcDbEntity
  8
YODOROGO
100
AcDbLine
 10
14882.80217064596
 20
973.8747482146434
 30
0.0
 11
14882.80217064596
 21
953.874748214644
 31
0.0
1001
AUTOCAD_POSTSCRIPT_FIGURE
1002
{
1000
PSFILL
1000
Grayscale
1000
Grayscale
1070
    25
1002
}
  0
LINE
  5
1CAC0
330
1C77F
100
AcDbEntity
  8
YODOROGO
100
AcDbLine
 10
14808.80217064596
 20
973.8747482146434
 30
0.0
 11
14882.80217064596
 21
973.8747482146434
 31
0.0
1001
AUTOCAD_POSTSCRIPT_FIGURE
1002
{
1000
PSFILL
1000
Grayscale
1000
Grayscale
1070
    25
1002
}
  0
LINE
  5
1CAC1
330
1C77F
100
AcDbEntity
  8
YODOROGO
100
AcDbLine
 10
14808.80217064596
 20
1013.874748214644
 30
0.0
 11
14808.80217064596
 21
973.8747482146434
 31
0.0
1001
AUTOCAD_POSTSCRIPT_FIGURE
1002
{
1000
PSFILL
1000
Grayscale
1000
Grayscale
1070
    25
1002
}
  0
LINE
  5
1CAC2
330
1C77F
100
AcDbEntity
  8
YODOROGO
100
AcDbLine
 10
14832.80217064596
 20
1013.874748214644
 30
0.0
 11
14808.80217064596
 21
1013.874748214644
 31
0.0
1001
AUTOCAD_POSTSCRIPT_FIGURE
1002
{
1000
PSFILL
1000
Grayscale
1000
Grayscale
1070
    25
1002
}
  0
LINE
  5
1CAC3
330
1C77F
100
AcDbEntity
  8
YODOROGO
100
AcDbLine
 10
14832.80217064596
 20
997.8747482146435
 30
0.0
 11
14832.80217064596
 21
1013.874748214644
 31
0.0
1001
AUTOCAD_POSTSCRIPT_FIGURE
1002
{
1000
PSFILL
1000
Grayscale
1000
Grayscale
1070
    25
1002
}
  0
LINE
  5
1CAC4
330
1C77F
100
AcDbEntity
  8
YODOROGO
100
AcDbLine
 10
14882.80217064596
 20
997.8747482146435
 30
0.0
 11
14832.80217064596
 21
997.8747482146435
 31
0.0
1001
AUTOCAD_POSTSCRIPT_FIGURE
1002
{
1000
PSFILL
1000
Grayscale
1000
Grayscale
1070
    25
1002
}
  0
LINE
  5
1CAC5
330
1C77F
100
AcDbEntity
  8
YODOROGO
100
AcDbLine
 10
14882.80217064596
 20
1013.874748214644
 30
0.0
 11
14882.80217064596
 21
997.8747482146435
 31
0.0
1001
AUTOCAD_POSTSCRIPT_FIGURE
1002
{
1000
PSFILL
1000
Grayscale
1000
Grayscale
1070
    25
1002
}
  0
LINE
  5
1CAC6
330
1C77F
100
AcDbEntity
  8
YODOROGO
100
AcDbLine
 10
14914.80217064596
 20
1013.874748214644
 30
0.0
 11
14882.80217064596
 21
1013.874748214644
 31
0.0
1001
AUTOCAD_POSTSCRIPT_FIGURE
1002
{
1000
PSFILL
1000
Grayscale
1000
Grayscale
1070
    25
1002
}
  0
LINE
  5
1CAC7
330
1C77F
100
AcDbEntity
  8
YODOROGO
100
AcDbLine
 10
14914.80217064596
 20
997.8747482146435
 30
0.0
 11
14914.80217064596
 21
1013.874748214644
 31
0.0
1001
AUTOCAD_POSTSCRIPT_FIGURE
1002
{
1000
PSFILL
1000
Grayscale
1000
Grayscale
1070
    25
1002
}
  0
LINE
  5
1CAC8
330
1C77F
100
AcDbEntity
  8
YODOROGO
100
AcDbLine
 10
14914.80217064596
 20
953.874748214644
 30
0.0
 11
14914.80217064596
 21
973.8747482146434
 31
0.0
1001
AUTOCAD_POSTSCRIPT_FIGURE
1002
{
1000
PSFILL
1000
Grayscale
1000
Grayscale
1070
    25
1002
}
  0
LINE
  5
1CAC9
330
1C77F
100
AcDbEntity
  8
YODOROGO
100
AcDbLine
 10
14914.80217064596
 20
909.8747482146439
 30
0.0
 11
14914.80217064596
 21
929.874748214644
 31
0.0
1001
AUTOCAD_POSTSCRIPT_FIGURE
1002
{
1000
PSFILL
1000
Grayscale
1000
Grayscale
1070
    25
1002
}
  0
LINE
  5
1CACA
330
1C77F
100
AcDbEntity
  8
YODOROGO
100
AcDbLine
 10
14960.80217064594
 20
885.8747482146441
 30
0.0
 11
14960.80217064594
 21
853.874748214644
 31
0.0
1001
AUTOCAD_POSTSCRIPT_FIGURE
1002
{
1000
PSFILL
1000
Grayscale
1000
Grayscale
1070
    25
1002
}
  0
LINE
  5
1CACB
330
1C77F
100
AcDbEntity
  8
YODOROGO
100
AcDbLine
 10
14914.80217064596
 20
885.8747482146441
 30
0.0
 11
14960.80217064594
 21
885.8747482146441
 31
0.0
1001
AUTOCAD_POSTSCRIPT_FIGURE
1002
{
1000
PSFILL
1000
Grayscale
1000
Grayscale
1070
    25
1002
}
  0
LINE
  5
1CACC
330
1C77F
100
AcDbEntity
  8
YODOROGO
100
AcDbLine
 10
14914.80217064596
 20
853.874748214644
 30
0.0
 11
14914.80217064596
 21
885.8747482146441
 31
0.0
1001
AUTOCAD_POSTSCRIPT_FIGURE
1002
{
1000
PSFILL
1000
Grayscale
1000
Grayscale
1070
    25
1002
}
  0
LINE
  5
1CACD
330
1C77F
100
AcDbEntity
  8
YODOROGO
100
AcDbLine
 10
14882.80217064596
 20
853.874748214644
 30
0.0
 11
14914.80217064596
 21
853.874748214644
 31
0.0
1001
AUTOCAD_POSTSCRIPT_FIGURE
1002
{
1000
PSFILL
1000
Grayscale
1000
Grayscale
1070
    25
1002
}
  0
LINE
  5
1CACE
330
1C77F
100
AcDbEntity
  8
YODOROGO
100
AcDbLine
 10
14882.80217064596
 20
885.8747482146441
 30
0.0
 11
14882.80217064596
 21
853.874748214644
 31
0.0
1001
AUTOCAD_POSTSCRIPT_FIGURE
1002
{
1000
PSFILL
1000
Grayscale
1000
Grayscale
1070
    25
1002
}
  0
LINE
  5
1CACF
330
1C77F
100
AcDbEntity
  8
YODOROGO
100
AcDbLine
 10
14836.80217064596
 20
885.8747482146441
 30
0.0
 11
14882.80217064596
 21
885.8747482146441
 31
0.0
1001
AUTOCAD_POSTSCRIPT_FIGURE
1002
{
1000
PSFILL
1000
Grayscale
1000
Grayscale
1070
    25
1002
}
  0
ARC
  5
1CAD0
330
1C77F
100
AcDbEntity
  8
YODOROGO
100
AcDbCircle
 10
15529.75894667896
 20
801.3403687577881
 30
0.0
 40
89.11064055536078
100
AcDbArc
 50
281.0262749542534
 51
357.771135755738
  0
LINE
  5
1CAD1
330
1C77F
100
AcDbEntity
  8
YODOROGO
100
AcDbLine
 10
15706.80217064596
 20
953.874748214644
 30
0.0
 11
15582.80217064596
 21
953.874748214644
 31
0.0
  0
LINE
  5
1CAD2
330
1C77F
100
AcDbEntity
  8
YODOROGO
100
AcDbLine
 10
15706.80217064596
 20
1013.874748214644
 30
0.0
 11
15582.80217064596
 21
1013.874748214644
 31
0.0
  0
LINE
  5
1CAD3
330
1C77F
100
AcDbEntity
  8
YODOROGO
100
AcDbLine
 10
15582.80217064596
 20
981.8747482146434
 30
0.0
 11
15706.80217064596
 21
981.8747482146434
 31
0.0
  0
LINE
  5
1CAD4
330
1C77F
100
AcDbEntity
  8
YODOROGO
100
AcDbLine
 10
15395.80217064596
 20
781.8747482146434
 30
0.0
 11
15395.80217064596
 21
877.8747482146435
 31
0.0
  0
LINE
  5
1CAD5
330
1C77F
100
AcDbEntity
  8
YODOROGO
100
AcDbLine
 10
15381.80217064596
 20
845.8747482146444
 30
0.0
 11
15381.80217064596
 21
781.8747482146434
 31
0.0
  0
LINE
  5
1CAD6
330
1C77F
100
AcDbEntity
  8
YODOROGO
100
AcDbLine
 10
15361.80217064596
 20
745.8747482146443
 30
0.0
 11
15361.80217064596
 21
845.8747482146444
 31
0.0
  0
LINE
  5
1CAD7
330
1C77F
100
AcDbEntity
  8
YODOROGO
100
AcDbLine
 10
15449.80217064596
 20
845.8747482146444
 30
0.0
 11
15449.80217064596
 21
745.8747482146443
 31
0.0
  0
LINE
  5
1CAD8
330
1C77F
100
AcDbEntity
  8
YODOROGO
100
AcDbLine
 10
15429.80217064596
 20
781.8747482146434
 30
0.0
 11
15429.80217064596
 21
845.8747482146444
 31
0.0
  0
LINE
  5
1CAD9
330
1C77F
100
AcDbEntity
  8
YODOROGO
100
AcDbLine
 10
15415.80217064596
 20
877.8747482146435
 30
0.0
 11
15415.80217064596
 21
781.8747482146434
 31
0.0
  0
LINE
  5
1CADA
330
1C77F
100
AcDbEntity
  8
YODOROGO
100
AcDbLine
 10
15486.80217064596
 20
1013.874748214644
 30
0.0
 11
15486.80217064596
 21
733.8747482146435
 31
0.0
  0
LINE
  5
1CADB
330
1C77F
100
AcDbEntity
  8
YODOROGO
100
AcDbLine
 10
15322.80217064596
 20
713.8747482146435
 30
0.0
 11
15322.80217064596
 21
1013.874748214644
 31
0.0
  0
LINE
  5
1CADC
330
1C77F
100
AcDbEntity
  8
YODOROGO
100
AcDbLine
 10
15348.80217064596
 20
981.8747482146434
 30
0.0
 11
15348.80217064596
 21
713.8747482146435
 31
0.0
  0
LINE
  5
1CADD
330
1C77F
100
AcDbEntity
  8
YODOROGO
100
AcDbLine
 10
15462.80217064596
 20
773.874748214644
 30
0.0
 11
15462.80217064596
 21
981.8747482146434
 31
0.0
  0
LINE
  5
1CADE
330
1C77F
100
AcDbEntity
  8
YODOROGO
100
AcDbLine
 10
15190.80217064596
 20
813.8747482146435
 30
0.0
 11
15190.80217064596
 21
839.8747482146443
 31
0.0
  0
LINE
  5
1CADF
330
1C77F
100
AcDbEntity
  8
YODOROGO
100
AcDbLine
 10
15308.80217064596
 20
839.8747482146443
 30
0.0
 11
15308.80217064596
 21
813.8747482146435
 31
0.0
  0
LINE
  5
1CAE0
330
1C77F
100
AcDbEntity
  8
YODOROGO
100
AcDbLine
 10
15582.80217064596
 20
953.874748214644
 30
0.0
 11
15582.80217064596
 21
817.8747482146436
 31
0.0
  0
LINE
  5
1CAE1
330
1C77F
100
AcDbEntity
  8
YODOROGO
100
AcDbLine
 10
14974.80217064595
 20
833.8747482146439
 30
0.0
 11
14974.80217064595
 21
853.874748214644
 31
0.0
  0
LINE
  5
1CAE2
330
1C77F
100
AcDbEntity
  8
YODOROGO
100
AcDbLine
 10
14974.80217064595
 20
833.8747482146439
 30
0.0
 11
14974.80217064595
 21
853.874748214644
 31
0.0
  0
ARC
  5
1CAE3
330
1C77F
100
AcDbEntity
  8
YODOROGO
100
AcDbCircle
 10
15268.80217064596
 20
753.8747482146439
 30
0.0
 40
40.0
100
AcDbArc
 50
270.0
 51
0.0
  0
LINE
  5
1CAE4
330
1C77F
100
AcDbEntity
  8
YODOROGO
100
AcDbLine
 10
15284.80217064596
 20
799.8747482146441
 30
0.0
 11
15308.80217064596
 21
799.8747482146441
 31
0.0
  0
LINE
  5
1CAE5
330
1C77F
100
AcDbEntity
  8
YODOROGO
100
AcDbLine
 10
15308.80217064596
 20
813.8747482146435
 30
0.0
 11
15264.80217064596
 21
813.8747482146435
 31
0.0
  0
LINE
  5
1CAE6
330
1C77F
100
AcDbEntity
  8
YODOROGO
100
AcDbLine
 10
15108.80217064596
 20
833.8747482146439
 30
0.0
 11
14974.80217064595
 21
833.8747482146439
 31
0.0
  0
LINE
  5
1CAE7
330
1C77F
100
AcDbEntity
  8
YODOROGO
100
AcDbLine
 10
15108.80217064596
 20
813.8747482146435
 30
0.0
 11
15108.80217064596
 21
833.8747482146439
 31
0.0
  0
LINE
  5
1CAE8
330
1C77F
100
AcDbEntity
  8
YODOROGO
100
AcDbLine
 10
15008.80217064596
 20
813.8747482146435
 30
0.0
 11
15108.80217064596
 21
813.8747482146435
 31
0.0
  0
ARC
  5
1CAE9
330
1C77F
100
AcDbEntity
  8
YODOROGO
100
AcDbCircle
 10
15115.02941435068
 20
934.4428574764513
 30
0.0
 40
160.6888181426141
100
AcDbArc
 50
228.6181454618993
 51
245.660289248906
  0
LINE
  5
1CAEA
330
1C77F
100
AcDbEntity
  8
YODOROGO
100
AcDbLine
 10
15052.80217064596
 20
801.8747482146443
 30
0.0
 11
15048.80217064598
 21
788.0364079349501
 31
0.0
  0
LINE
  5
1CAEB
330
1C77F
100
AcDbEntity
  8
YODOROGO
100
AcDbLine
 10
15094.80217064596
 20
801.8747482146443
 30
0.0
 11
15052.80217064596
 21
801.8747482146443
 31
0.0
  0
LINE
  5
1CAEC
330
1C77F
100
AcDbEntity
  8
YODOROGO
100
AcDbLine
 10
15088.80217064596
 20
775.9088612367134
 30
0.0
 11
15094.80217064596
 21
801.8747482146443
 31
0.0
  0
ARC
  5
1CAED
330
1C77F
100
AcDbEntity
  8
YODOROGO
100
AcDbCircle
 10
15115.02941435023
 20
934.4428574765013
 30
0.0
 40
160.6888181426453
100
AcDbArc
 50
260.6062929796991
 51
267.7790355655585
  0
LINE
  5
1CAEE
330
1C77F
100
AcDbEntity
  8
YODOROGO
100
AcDbLine
 10
15108.80217064596
 20
713.8747482146428
 30
0.0
 11
15108.80217064596
 21
773.874748214644
 31
0.0
  0
LINE
  5
1CAEF
330
1C77F
100
AcDbEntity
  8
YODOROGO
100
AcDbLine
 10
14968.80217064596
 20
740.6696674577553
 30
0.0
 11
14968.80217064596
 21
797.2655452655705
 31
0.0
  0
LINE
  5
1CAF0
330
1C77F
100
AcDbEntity
  8
YODOROGO
100
AcDbLine
 10
15108.80217064596
 20
833.8747482146439
 30
0.0
 11
14974.80217064595
 21
833.8747482146439
 31
0.0
  0
LINE
  5
1CAF1
330
1C77F
100
AcDbEntity
  8
YODOROGO
100
AcDbLine
 10
15108.80217064596
 20
813.8747482146435
 30
0.0
 11
15108.80217064596
 21
833.8747482146439
 31
0.0
  0
LINE
  5
1CAF2
330
1C77F
100
AcDbEntity
  8
YODOROGO
100
AcDbLine
 10
15008.80217064596
 20
813.8747482146435
 30
0.0
 11
15108.80217064596
 21
813.8747482146435
 31
0.0
  0
ARC
  5
1CAF3
330
1C77F
100
AcDbEntity
  8
YODOROGO
100
AcDbCircle
 10
15115.02941435068
 20
934.4428574764513
 30
0.0
 40
160.6888181426141
100
AcDbArc
 50
228.6181454618993
 51
245.660289248906
  0
LINE
  5
1CAF4
330
1C77F
100
AcDbEntity
  8
YODOROGO
100
AcDbLine
 10
15052.80217064596
 20
801.8747482146443
 30
0.0
 11
15048.80217064598
 21
788.0364079349501
 31
0.0
  0
LINE
  5
1CAF5
330
1C77F
100
AcDbEntity
  8
YODOROGO
100
AcDbLine
 10
15094.80217064596
 20
801.8747482146443
 30
0.0
 11
15052.80217064596
 21
801.8747482146443
 31
0.0
  0
LINE
  5
1CAF6
330
1C77F
100
AcDbEntity
  8
YODOROGO
100
AcDbLine
 10
15088.80217064596
 20
775.9088612367134
 30
0.0
 11
15094.80217064596
 21
801.8747482146443
 31
0.0
  0
ARC
  5
1CAF7
330
1C77F
100
AcDbEntity
  8
YODOROGO
100
AcDbCircle
 10
15115.02941435023
 20
934.4428574765013
 30
0.0
 40
160.6888181426453
100
AcDbArc
 50
260.6062929796991
 51
267.7790355655585
  0
LINE
  5
1CAF8
330
1C77F
100
AcDbEntity
  8
YODOROGO
100
AcDbLine
 10
15108.80217064596
 20
713.8747482146428
 30
0.0
 11
15108.80217064596
 21
773.874748214644
 31
0.0
  0
LINE
  5
1CAF9
330
1C77F
100
AcDbEntity
  8
YODOROGO
100
AcDbLine
 10
14968.80217064596
 20
740.6696674577553
 30
0.0
 11
14968.80217064596
 21
797.2655452655705
 31
0.0
  0
LINE
  5
1CAFA
330
1C77F
100
AcDbEntity
  8
YODOROGO
100
AcDbLine
 10
15216.80217064596
 20
786.8747482146443
 30
0.0
 11
15190.80217064596
 21
786.8747482146443
 31
0.0
  0
LINE
  5
1CAFB
330
1C77F
100
AcDbEntity
  8
YODOROGO
100
AcDbLine
 10
15216.80217064596
 20
800.8747482146432
 30
0.0
 11
15216.80217064596
 21
786.8747482146443
 31
0.0
  0
LINE
  5
1CAFC
330
1C77F
100
AcDbEntity
  8
YODOROGO
100
AcDbLine
 10
15190.80217064596
 20
800.8747482146432
 30
0.0
 11
15216.80217064596
 21
800.8747482146432
 31
0.0
  0
LINE
  5
1CAFD
330
1C77F
100
AcDbEntity
  8
YODOROGO
100
AcDbLine
 10
15190.80217064596
 20
786.8747482146443
 30
0.0
 11
15190.80217064596
 21
800.8747482146432
 31
0.0
  0
LINE
  5
1CAFE
330
1C77F
100
AcDbEntity
  8
YODOROGO
100
AcDbLine
 10
15214.80217064596
 20
788.8747482146436
 30
0.0
 11
15192.80217064594
 21
788.8747482146436
 31
0.0
  0
LINE
  5
1CAFF
330
1C77F
100
AcDbEntity
  8
YODOROGO
100
AcDbLine
 10
15214.80217064596
 20
798.874748214644
 30
0.0
 11
15214.80217064596
 21
788.8747482146436
 31
0.0
  0
LINE
  5
1CB00
330
1C77F
100
AcDbEntity
  8
YODOROGO
100
AcDbLine
 10
15192.80217064594
 20
798.874748214644
 30
0.0
 11
15214.80217064596
 21
798.874748214644
 31
0.0
  0
LINE
  5
1CB01
330
1C77F
100
AcDbEntity
  8
YODOROGO
100
AcDbLine
 10
15192.80217064594
 20
788.8747482146436
 30
0.0
 11
15192.80217064594
 21
798.874748214644
 31
0.0
  0
LINE
  5
1CB02
330
1C77F
100
AcDbEntity
  8
YODOROGO
100
AcDbLine
 10
15212.80217064596
 20
790.8747482146432
 30
0.0
 11
15194.80217064596
 21
790.8747482146432
 31
0.0
  0
LINE
  5
1CB03
330
1C77F
100
AcDbEntity
  8
YODOROGO
100
AcDbLine
 10
15212.80217064596
 20
796.8747482146445
 30
0.0
 11
15212.80217064596
 21
790.8747482146432
 31
0.0
  0
LINE
  5
1CB04
330
1C77F
100
AcDbEntity
  8
YODOROGO
100
AcDbLine
 10
15194.80217064596
 20
796.8747482146445
 30
0.0
 11
15212.80217064596
 21
796.8747482146445
 31
0.0
  0
LINE
  5
1CB05
330
1C77F
100
AcDbEntity
  8
YODOROGO
100
AcDbLine
 10
15194.80217064596
 20
790.8747482146432
 30
0.0
 11
15194.80217064596
 21
796.8747482146445
 31
0.0
  0
LINE
  5
1CB06
330
1C77F
100
AcDbEntity
  8
YODOROGO
100
AcDbLine
 10
15210.80217064596
 20
792.8747482146435
 30
0.0
 11
15196.80217064596
 21
792.8747482146435
 31
0.0
  0
LINE
  5
1CB07
330
1C77F
100
AcDbEntity
  8
YODOROGO
100
AcDbLine
 10
15210.80217064596
 20
794.8747482146441
 30
0.0
 11
15210.80217064596
 21
792.8747482146435
 31
0.0
  0
LINE
  5
1CB08
330
1C77F
100
AcDbEntity
  8
YODOROGO
100
AcDbLine
 10
15196.80217064596
 20
794.8747482146441
 30
0.0
 11
15210.80217064596
 21
794.8747482146441
 31
0.0
  0
LINE
  5
1CB09
330
1C77F
100
AcDbEntity
  8
YODOROGO
100
AcDbLine
 10
15196.80217064596
 20
792.8747482146435
 30
0.0
 11
15196.80217064596
 21
794.8747482146441
 31
0.0
  0
LINE
  5
1CB0A
330
1C77F
100
AcDbEntity
  8
YODOROGO
100
AcDbLine
 10
15232.80217064596
 20
813.8747482146435
 30
0.0
 11
15190.80217064596
 21
813.8747482146435
 31
0.0
  0
LINE
  5
1CB0B
330
1C77F
100
AcDbEntity
  8
YODOROGO
100
AcDbLine
 10
15232.80217064596
 20
773.874748214644
 30
0.0
 11
15232.80217064596
 21
813.8747482146435
 31
0.0
  0
LINE
  5
1CB0C
330
1C77F
100
AcDbEntity
  8
YODOROGO
100
AcDbLine
 10
15190.80217064596
 20
773.874748214644
 30
0.0
 11
15232.80217064596
 21
773.874748214644
 31
0.0
  0
LINE
  5
1CB0D
330
1C77F
100
AcDbEntity
  8
YODOROGO
100
AcDbLine
 10
15190.80217064596
 20
713.8747482146435
 30
0.0
 11
15190.80217064596
 21
773.874748214644
 31
0.0
  0
LINE
  5
1CB0E
330
1C77F
100
AcDbEntity
  8
YODOROGO
100
AcDbLine
 10
15268.80217064596
 20
713.8747482146435
 30
0.0
 11
15190.80217064596
 21
713.8747482146435
 31
0.0
  0
LINE
  5
1CB0F
330
1C77F
100
AcDbEntity
  8
YODOROGO
100
AcDbLine
 10
15284.80217064596
 20
785.8747482146432
 30
0.0
 11
15284.80217064596
 21
799.8747482146441
 31
0.0
  0
ARC
  5
1CB10
330
1C77F
100
AcDbEntity
  8
YODOROGO
100
AcDbCircle
 10
15272.80217064594
 20
785.8747482146457
 30
0.0
 40
12.00000000000186
100
AcDbArc
 50
270.0
 51
359.9999999999877
  0
LINE
  5
1CB11
330
1C77F
100
AcDbEntity
  8
YODOROGO
100
AcDbLine
 10
15264.80217064596
 20
773.874748214644
 30
0.0
 11
15272.80217064594
 21
773.874748214644
 31
0.0
  0
LINE
  5
1CB12
330
1C77F
100
AcDbEntity
  8
YODOROGO
100
AcDbLine
 10
15264.80217064596
 20
813.8747482146435
 30
0.0
 11
15264.80217064596
 21
773.874748214644
 31
0.0
  0
LINE
  5
1CB13
330
1C77F
100
AcDbEntity
  8
YODOROGO
100
AcDbLine
 10
15449.80217064596
 20
773.874748214644
 30
0.0
 11
15462.80217064596
 21
773.874748214644
 31
0.0
  0
LINE
  5
1CB14
330
1C77F
100
AcDbEntity
  8
YODOROGO
100
AcDbLine
 10
15466.80217064596
 20
713.8747482146435
 30
0.0
 11
15449.80217064596
 21
713.8747482146435
 31
0.0
  0
LINE
  5
1CB15
330
1C77F
100
AcDbEntity
  8
YODOROGO
100
AcDbLine
 10
15381.80217064596
 20
781.8747482146434
 30
0.0
 11
15395.80217064596
 21
781.8747482146434
 31
0.0
  0
LINE
  5
1CB16
330
1C77F
100
AcDbEntity
  8
YODOROGO
100
AcDbLine
 10
15449.80217064596
 20
745.8747482146443
 30
0.0
 11
15361.80217064596
 21
745.8747482146443
 31
0.0
  0
LINE
  5
1CB17
330
1C77F
100
AcDbEntity
  8
YODOROGO
100
AcDbLine
 10
15415.80217064596
 20
781.8747482146434
 30
0.0
 11
15429.80217064596
 21
781.8747482146434
 31
0.0
  0
LINE
  5
1CB18
330
1C77F
100
AcDbEntity
  8
YODOROGO
100
AcDbLine
 10
15449.80217064596
 20
713.8747482146435
 30
0.0
 11
15449.80217064596
 21
773.874748214644
 31
0.0
  0
LINE
  5
1CB19
330
1C77F
100
AcDbEntity
  8
YODOROGO
100
AcDbLine
 10
15348.80217064596
 20
713.8747482146435
 30
0.0
 11
15322.80217064596
 21
713.8747482146435
 31
0.0
  0
LINE
  5
1CB1A
330
1C77F
100
AcDbEntity
  8
YODOROGO
100
AcDbLine
 10
15308.80217064596
 20
799.8747482146441
 30
0.0
 11
15308.80217064596
 21
753.8747482146439
 31
0.0
  0
ARC
  5
1CB1B
330
1C77F
100
AcDbEntity
  8
YODOROGO
100
AcDbCircle
 10
15466.80217064596
 20
733.8747482146435
 30
0.0
 40
20.0
100
AcDbArc
 50
270.0
 51
0.0
  0
LINE
  5
1CB1C
330
1C77F
100
AcDbEntity
  8
YODOROGO
100
AcDbLine
 10
15546.80217064596
 20
761.8747482146434
 30
0.0
 11
15546.80217064596
 21
713.8747482146435
 31
0.0
  0
ARC
  5
1CB1D
330
1C77F
100
AcDbEntity
  8
YODOROGO
100
AcDbCircle
 10
15519.86069778339
 20
818.7656950548664
 30
0.0
 40
62.94777829583771
100
AcDbArc
 50
295.3405244216011
 51
359.1890230341867
  0
LINE
  5
1CB1E
330
1C77F
100
AcDbEntity
  8
YODOROGO
100
AcDbLine
 10
15308.80217064596
 20
929.874748214644
 30
0.0
 11
15248.80217064596
 21
969.8747482146441
 31
0.0
  0
LINE
  5
1CB1F
330
1C77F
100
AcDbEntity
  8
YODOROGO
100
AcDbLine
 10
15248.80217064596
 20
1013.874748214644
 30
0.0
 11
15308.80217064596
 21
973.8747482146434
 31
0.0
  0
LINE
  5
1CB20
330
1C77F
100
AcDbEntity
  8
YODOROGO
100
AcDbLine
 10
15264.80217064596
 20
839.8747482146443
 30
0.0
 11
15308.80217064596
 21
839.8747482146443
 31
0.0
  0
LINE
  5
1CB21
330
1C77F
100
AcDbEntity
  8
YODOROGO
100
AcDbLine
 10
15308.80217064596
 20
867.8747482146436
 30
0.0
 11
15264.80217064596
 21
867.8747482146436
 31
0.0
  0
LINE
  5
1CB22
330
1C77F
100
AcDbEntity
  8
YODOROGO
100
AcDbLine
 10
15190.80217064596
 20
897.8747482146435
 30
0.0
 11
15308.80217064596
 21
897.8747482146435
 31
0.0
  0
LINE
  5
1CB23
330
1C77F
100
AcDbEntity
  8
YODOROGO
100
AcDbLine
 10
15040.80217064596
 20
1013.874748214644
 30
0.0
 11
15010.80217064596
 21
1013.874748214644
 31
0.0
  0
LINE
  5
1CB24
330
1C77F
100
AcDbEntity
  8
YODOROGO
100
AcDbLine
 10
15040.80217064596
 20
913.8747482146435
 30
0.0
 11
15040.80217064596
 21
1013.874748214644
 31
0.0
  0
LINE
  5
1CB25
330
1C77F
100
AcDbEntity
  8
YODOROGO
100
AcDbLine
 10
15010.80217064596
 20
913.8747482146435
 30
0.0
 11
15040.80217064596
 21
913.8747482146435
 31
0.0
  0
LINE
  5
1CB26
330
1C77F
100
AcDbEntity
  8
YODOROGO
100
AcDbLine
 10
15010.80217064596
 20
1013.874748214644
 30
0.0
 11
15010.80217064596
 21
913.8747482146435
 31
0.0
  0
LINE
  5
1CB27
330
1C77F
100
AcDbEntity
  8
YODOROGO
100
AcDbLine
 10
15080.80217064596
 20
1013.874748214644
 30
0.0
 11
15108.80217064596
 21
1013.874748214644
 31
0.0
  0
LINE
  5
1CB28
330
1C77F
100
AcDbEntity
  8
YODOROGO
100
AcDbLine
 10
15080.80217064596
 20
905.8747482146443
 30
0.0
 11
15080.80217064596
 21
1013.874748214644
 31
0.0
  0
ARC
  5
1CB29
330
1C77F
100
AcDbEntity
  8
YODOROGO
100
AcDbCircle
 10
15060.80217064596
 20
905.8747482146443
 30
0.0
 40
20.0
100
AcDbArc
 50
270.0
 51
0.0
  0
LINE
  5
1CB2A
330
1C77F
100
AcDbEntity
  8
YODOROGO
100
AcDbLine
 10
15010.80217064596
 20
885.8747482146441
 30
0.0
 11
15060.80217064596
 21
885.8747482146441
 31
0.0
  0
LINE
  5
1CB2B
330
1C77F
100
AcDbEntity
  8
YODOROGO
100
AcDbLine
 10
15010.80217064596
 20
853.874748214644
 30
0.0
 11
15010.80217064596
 21
885.8747482146441
 31
0.0
  0
LINE
  5
1CB2C
330
1C77F
100
AcDbEntity
  8
YODOROGO
100
AcDbLine
 10
15068.80217064596
 20
853.874748214644
 30
0.0
 11
15010.80217064596
 21
853.874748214644
 31
0.0
  0
ARC
  5
1CB2D
330
1C77F
100
AcDbEntity
  8
YODOROGO
100
AcDbCircle
 10
15068.80217064596
 20
893.8747482146439
 30
0.0
 40
40.0
100
AcDbArc
 50
270.0
 51
0.0
  0
LINE
  5
1CB2E
330
1C77F
100
AcDbEntity
  8
YODOROGO
100
AcDbLine
 10
15108.80217064596
 20
1013.874748214644
 30
0.0
 11
15108.80217064596
 21
893.8747482146439
 31
0.0
  0
LINE
  5
1CB2F
330
1C77F
100
AcDbEntity
  8
YODOROGO
100
AcDbLine
 10
14988.80217064596
 20
973.8747482146434
 30
0.0
 11
14988.80217064596
 21
997.8747482146435
 31
0.0
1001
AUTOCAD_POSTSCRIPT_FIGURE
1002
{
1000
PSFILL
1000
Grayscale
1000
Grayscale
1070
    25
1002
}
  0
LINE
  5
1CB30
330
1C77F
100
AcDbEntity
  8
YODOROGO
100
AcDbLine
 10
14988.80217064596
 20
929.874748214644
 30
0.0
 11
14988.80217064596
 21
953.874748214644
 31
0.0
1001
AUTOCAD_POSTSCRIPT_FIGURE
1002
{
1000
PSFILL
1000
Grayscale
1000
Grayscale
1070
    25
1002
}
  0
LINE
  5
1CB31
330
1C77F
100
AcDbEntity
  8
YODOROGO
100
AcDbLine
 10
14988.80217064596
 20
853.874748214644
 30
0.0
 11
14988.80217064596
 21
909.8747482146439
 31
0.0
1001
AUTOCAD_POSTSCRIPT_FIGURE
1002
{
1000
PSFILL
1000
Grayscale
1000
Grayscale
1070
    25
1002
}
  0
LINE
  5
1CB32
330
1C77F
100
AcDbEntity
  8
YODOROGO
100
AcDbLine
 10
15190.80217064596
 20
953.874748214644
 30
0.0
 11
15248.80217064596
 21
1013.874748214644
 31
0.0
  0
LINE
  5
1CB33
330
1C77F
100
AcDbEntity
  8
YODOROGO
100
AcDbLine
 10
15190.80217064596
 20
909.8747482146439
 30
0.0
 11
15190.80217064596
 21
953.874748214644
 31
0.0
  0
LINE
  5
1CB34
330
1C77F
100
AcDbEntity
  8
YODOROGO
100
AcDbLine
 10
15248.80217064596
 20
969.8747482146441
 30
0.0
 11
15190.80217064596
 21
909.8747482146439
 31
0.0
  0
LINE
  5
1CB35
330
1C77F
100
AcDbEntity
  8
YODOROGO
100
AcDbLine
 10
15232.80217064596
 20
839.8747482146443
 30
0.0
 11
15232.80217064596
 21
867.8747482146436
 31
0.0
  0
LINE
  5
1CB36
330
1C77F
100
AcDbEntity
  8
YODOROGO
100
AcDbLine
 10
15190.80217064596
 20
839.8747482146443
 30
0.0
 11
15232.80217064596
 21
839.8747482146443
 31
0.0
  0
LINE
  5
1CB37
330
1C77F
100
AcDbEntity
  8
YODOROGO
100
AcDbLine
 10
15264.80217064596
 20
867.8747482146436
 30
0.0
 11
15264.80217064596
 21
839.8747482146443
 31
0.0
  0
LINE
  5
1CB38
330
1C77F
100
AcDbEntity
  8
YODOROGO
100
AcDbLine
 10
15190.80217064596
 20
867.8747482146436
 30
0.0
 11
15190.80217064596
 21
897.8747482146435
 31
0.0
  0
LINE
  5
1CB39
330
1C77F
100
AcDbEntity
  8
YODOROGO
100
AcDbLine
 10
15232.80217064596
 20
867.8747482146436
 30
0.0
 11
15190.80217064596
 21
867.8747482146436
 31
0.0
  0
LINE
  5
1CB3A
330
1C77F
100
AcDbEntity
  8
YODOROGO
100
AcDbLine
 10
15322.80217064596
 20
1013.874748214644
 30
0.0
 11
15486.80217064596
 21
1013.874748214644
 31
0.0
  0
LINE
  5
1CB3B
330
1C77F
100
AcDbEntity
  8
YODOROGO
100
AcDbLine
 10
15462.80217064596
 20
981.8747482146434
 30
0.0
 11
15348.80217064596
 21
981.8747482146434
 31
0.0
  0
LINE
  5
1CB3C
330
1C77F
100
AcDbEntity
  8
YODOROGO
100
AcDbLine
 10
15436.80217064595
 20
909.8747482146439
 30
0.0
 11
15449.80217064596
 21
909.8747482146439
 31
0.0
  0
LINE
  5
1CB3D
330
1C77F
100
AcDbEntity
  8
YODOROGO
100
AcDbLine
 10
15449.80217064596
 20
969.8747482146441
 30
0.0
 11
15436.80217064595
 21
909.8747482146439
 31
0.0
  0
LINE
  5
1CB3E
330
1C77F
100
AcDbEntity
  8
YODOROGO
100
AcDbLine
 10
15425.80217064596
 20
969.8747482146441
 30
0.0
 11
15449.80217064596
 21
969.8747482146441
 31
0.0
  0
LINE
  5
1CB3F
330
1C77F
100
AcDbEntity
  8
YODOROGO
100
AcDbLine
 10
15412.80217064596
 20
909.8747482146439
 30
0.0
 11
15425.80217064596
 21
969.8747482146441
 31
0.0
  0
LINE
  5
1CB40
330
1C77F
100
AcDbEntity
  8
YODOROGO
100
AcDbLine
 10
15398.80217064596
 20
909.8747482146439
 30
0.0
 11
15412.80217064596
 21
909.8747482146439
 31
0.0
  0
LINE
  5
1CB41
330
1C77F
100
AcDbEntity
  8
YODOROGO
100
AcDbLine
 10
15385.80217064596
 20
969.8747482146441
 30
0.0
 11
15398.80217064596
 21
909.8747482146439
 31
0.0
  0
LINE
  5
1CB42
330
1C77F
100
AcDbEntity
  8
YODOROGO
100
AcDbLine
 10
15361.80217064596
 20
969.8747482146441
 30
0.0
 11
15385.80217064596
 21
969.8747482146441
 31
0.0
  0
LINE
  5
1CB43
330
1C77F
100
AcDbEntity
  8
YODOROGO
100
AcDbLine
 10
15374.80217064596
 20
909.8747482146439
 30
0.0
 11
15361.80217064596
 21
969.8747482146441
 31
0.0
  0
LINE
  5
1CB44
330
1C77F
100
AcDbEntity
  8
YODOROGO
100
AcDbLine
 10
15361.80217064596
 20
909.8747482146439
 30
0.0
 11
15374.80217064596
 21
909.8747482146439
 31
0.0
  0
LINE
  5
1CB45
330
1C77F
100
AcDbEntity
  8
YODOROGO
100
AcDbLine
 10
15361.80217064596
 20
877.8747482146435
 30
0.0
 11
15361.80217064596
 21
909.8747482146439
 31
0.0
  0
LINE
  5
1CB46
330
1C77F
100
AcDbEntity
  8
YODOROGO
100
AcDbLine
 10
15449.80217064596
 20
877.8747482146435
 30
0.0
 11
15361.80217064596
 21
877.8747482146435
 31
0.0
  0
LINE
  5
1CB47
330
1C77F
100
AcDbEntity
  8
YODOROGO
100
AcDbLine
 10
15449.80217064596
 20
909.8747482146439
 30
0.0
 11
15449.80217064596
 21
877.8747482146435
 31
0.0
  0
LINE
  5
1CB48
330
1C77F
100
AcDbEntity
  8
YODOROGO
100
AcDbLine
 10
15308.80217064596
 20
973.8747482146434
 30
0.0
 11
15308.80217064596
 21
929.874748214644
 31
0.0
  0
LINE
  5
1CB49
330
1C77F
100
AcDbEntity
  8
YODOROGO
100
AcDbLine
 10
15395.80217064596
 20
877.8747482146435
 30
0.0
 11
15415.80217064596
 21
877.8747482146435
 31
0.0
  0
LINE
  5
1CB4A
330
1C77F
100
AcDbEntity
  8
YODOROGO
100
AcDbLine
 10
15361.80217064596
 20
845.8747482146444
 30
0.0
 11
15381.80217064596
 21
845.8747482146444
 31
0.0
  0
LINE
  5
1CB4B
330
1C77F
100
AcDbEntity
  8
YODOROGO
100
AcDbLine
 10
15429.80217064596
 20
845.8747482146444
 30
0.0
 11
15449.80217064596
 21
845.8747482146444
 31
0.0
  0
LINE
  5
1CB4C
330
1C77F
100
AcDbEntity
  8
YODOROGO
100
AcDbLine
 10
15308.80217064596
 20
897.8747482146435
 30
0.0
 11
15308.80217064596
 21
867.8747482146436
 31
0.0
  0
LINE
  5
1CB4D
330
1C77F
100
AcDbEntity
  8
YODOROGO
100
AcDbLine
 10
15582.80217064596
 20
1013.874748214644
 30
0.0
 11
15582.80217064596
 21
981.8747482146434
 31
0.0
  0
LINE
  5
1CB4E
330
1C77F
100
AcDbEntity
  8
YODOROGO
100
AcDbLine
 10
15766.80217064596
 20
797.8747482146435
 30
0.0
 11
15766.80217064594
 21
905.8747482146443
 31
0.0
  0
LINE
  5
1CB4F
330
1C77F
100
AcDbEntity
  8
YODOROGO
100
AcDbLine
 10
15730.80217064594
 20
993.8747482146439
 30
0.0
 11
15730.80217064594
 21
817.8747482146436
 31
0.0
  0
LINE
  5
1CB50
330
1C77F
100
AcDbEntity
  8
YODOROGO
100
AcDbLine
 10
15826.80217064596
 20
713.8747482146435
 30
0.0
 11
15826.80217064594
 21
905.8747482146443
 31
0.0
  0
LINE
  5
1CB51
330
1C77F
100
AcDbEntity
  8
YODOROGO
100
AcDbLine
 10
15794.80217064596
 20
905.8747482146443
 30
0.0
 11
15794.80217064596
 21
713.8747482146435
 31
0.0
  0
LINE
  5
1CB52
330
1C77F
100
AcDbEntity
  8
YODOROGO
100
AcDbLine
 10
15618.80217064596
 20
797.8747482146435
 30
0.0
 11
15618.80217064596
 21
853.874748214644
 31
0.0
  0
ARC
  5
1CB53
330
1C77F
100
AcDbEntity
  8
YODOROGO
100
AcDbCircle
 10
15676.95743255803
 20
803.8951756442788
 30
0.0
 40
90.04622428799429
100
AcDbArc
 50
268.6284910216979
 51
356.1663845733032
  0
LINE
  5
1CB54
330
1C77F
100
AcDbEntity
  8
YODOROGO
100
AcDbLine
 10
15674.80217064596
 20
763.8747482146435
 30
0.0
 11
15674.80217064596
 21
713.8747482146435
 31
0.0
  0
ARC
  5
1CB55
330
1C77F
100
AcDbEntity
  8
YODOROGO
100
AcDbCircle
 10
15675.75903786228
 20
818.9194785088275
 30
0.0
 40
55.05304649180608
100
AcDbArc
 50
269.0041020930593
 51
358.9126445549248
  0
LINE
  5
1CB56
330
1C77F
100
AcDbEntity
  8
YODOROGO
100
AcDbLine
 10
15794.80217064596
 20
713.8747482146435
 30
0.0
 11
15826.80217064596
 21
713.8747482146435
 31
0.0
  0
LINE
  5
1CB57
330
1C77F
100
AcDbEntity
  8
YODOROGO
100
AcDbLine
 10
15766.80217064594
 20
905.8747482146443
 30
0.0
 11
15794.80217064596
 21
905.8747482146443
 31
0.0
  0
LINE
  5
1CB58
330
1C77F
100
AcDbEntity
  8
YODOROGO
100
AcDbLine
 10
15810.80217064596
 20
993.8747482146439
 30
0.0
 11
15730.80217064594
 21
993.8747482146439
 31
0.0
  0
LINE
  5
1CB59
330
1C77F
100
AcDbEntity
  8
YODOROGO
100
AcDbLine
 10
15766.80217064594
 20
957.8747482146436
 30
0.0
 11
15830.80217064596
 21
957.8747482146436
 31
0.0
  0
LINE
  5
1CB5A
330
1C77F
100
AcDbEntity
  8
YODOROGO
100
AcDbLine
 10
15850.80217064596
 20
937.8747482146435
 30
0.0
 11
15766.80217064594
 21
937.8747482146435
 31
0.0
  0
LINE
  5
1CB5B
330
1C77F
100
AcDbEntity
  8
YODOROGO
100
AcDbLine
 10
15618.80217064596
 20
889.8747482146443
 30
0.0
 11
15674.80217064596
 21
889.8747482146443
 31
0.0
  0
LINE
  5
1CB5C
330
1C77F
100
AcDbEntity
  8
YODOROGO
100
AcDbLine
 10
15618.80217064596
 20
917.8747482146436
 30
0.0
 11
15618.80217064596
 21
889.8747482146443
 31
0.0
  0
LINE
  5
1CB5D
330
1C77F
100
AcDbEntity
  8
YODOROGO
100
AcDbLine
 10
15674.80217064596
 20
917.8747482146436
 30
0.0
 11
15618.80217064596
 21
917.8747482146436
 31
0.0
  0
LINE
  5
1CB5E
330
1C77F
100
AcDbEntity
  8
YODOROGO
100
AcDbLine
 10
15674.80217064596
 20
889.8747482146443
 30
0.0
 11
15674.80217064596
 21
917.8747482146436
 31
0.0
  0
LINE
  5
1CB5F
330
1C77F
100
AcDbEntity
  8
YODOROGO
100
AcDbLine
 10
15766.80217064594
 20
937.8747482146435
 30
0.0
 11
15766.80217064594
 21
957.8747482146436
 31
0.0
  0
LINE
  5
1CB60
330
1C77F
100
AcDbEntity
  8
YODOROGO
100
AcDbLine
 10
15706.80217064596
 20
853.874748214644
 30
0.0
 11
15706.80217064596
 21
953.874748214644
 31
0.0
  0
LINE
  5
1CB61
330
1C77F
100
AcDbEntity
  8
YODOROGO
100
AcDbLine
 10
15618.80217064596
 20
853.874748214644
 30
0.0
 11
15706.80217064596
 21
853.874748214644
 31
0.0
  0
LINE
  5
1CB62
330
1C77F
100
AcDbEntity
  8
YODOROGO
100
AcDbLine
 10
15706.80217064596
 20
981.8747482146434
 30
0.0
 11
15706.80217064596
 21
1013.874748214644
 31
0.0
  0
ARC
  5
1CB63
330
1C77F
100
AcDbEntity
  8
YODOROGO
100
AcDbCircle
 10
15810.80217064596
 20
1001.874748214642
 30
0.0
 40
7.999999999997269
100
AcDbArc
 50
270.0
 51
0.0000000000081422
  0
LINE
  5
1CB64
330
1C77F
100
AcDbEntity
  8
YODOROGO
100
AcDbLine
 10
15818.80217064596
 20
1013.874748214644
 30
0.0
 11
15818.80217064596
 21
1001.874748214643
 31
0.0
  0
LINE
  5
1CB65
330
1C77F
100
AcDbEntity
  8
YODOROGO
100
AcDbLine
 10
15850.80217064596
 20
1013.874748214644
 30
0.0
 11
15818.80217064596
 21
1013.874748214644
 31
0.0
  0
LINE
  5
1CB66
330
1C77F
100
AcDbEntity
  8
YODOROGO
100
AcDbLine
 10
15850.80217064596
 20
977.8747482146435
 30
0.0
 11
15850.80217064596
 21
1013.874748214644
 31
0.0
  0
ARC
  5
1CB67
330
1C77F
100
AcDbEntity
  8
YODOROGO
100
AcDbCircle
 10
15830.80217064596
 20
977.8747482146435
 30
0.0
 40
20.0
100
AcDbArc
 50
270.0
 51
0.0
  0
LINE
  5
1CB68
330
1C77F
100
AcDbEntity
  8
YODOROGO
100
AcDbLine
 10
15850.80217064596
 20
905.8747482146443
 30
0.0
 11
15850.80217064596
 21
937.8747482146435
 31
0.0
  0
LINE
  5
1CB69
330
1C77F
100
AcDbEntity
  8
YODOROGO
100
AcDbLine
 10
15826.80217064594
 20
905.8747482146443
 30
0.0
 11
15850.80217064596
 21
905.8747482146443
 31
0.0
  0
LINE
  5
1CB6A
330
1C77F
100
AcDbEntity
  8
SUNPOU
100
AcDbLine
 10
8297.222983738278
 20
4137.324460358767
 30
0.0
 11
8357.222983738294
 21
4137.324460358767
 31
0.0
  0
LINE
  5
1CB6B
330
1C77F
100
AcDbEntity
  8
SUNPOU
100
AcDbLine
 10
8297.222983738285
 20
4137.324460358767
 30
0.0
 11
8357.222983738287
 21
4153.401411904638
 31
0.0
  0
LINE
  5
1CB6C
330
1C77F
100
AcDbEntity
  8
SUNPOU
100
AcDbLine
 10
8297.222983738278
 20
4137.324460358767
 30
0.0
 11
8357.222983738294
 21
4121.247508812897
 31
0.0
  0
LINE
  5
1CB6D
330
1C77F
100
AcDbEntity
  8
SUNPOU
100
AcDbLine
 10
8357.22298373828
 20
4137.324460358767
 30
0.0
 11
8417.222983738293
 21
4137.324460358767
 31
0.0
  0
LINE
  5
1CB6E
330
1C77F
100
AcDbEntity
  8
SUNPOU
100
AcDbLine
 10
8357.222983738287
 20
4137.324460358767
 30
0.0
 11
8417.222983738286
 21
4153.401411904638
 31
0.0
  0
LINE
  5
1CB6F
330
1C77F
100
AcDbEntity
  8
SUNPOU
100
AcDbLine
 10
8357.22298373828
 20
4137.324460358767
 30
0.0
 11
8417.222983738293
 21
4121.247508812897
 31
0.0
  0
LINE
  5
1CB70
330
1C77F
100
AcDbEntity
  8
SUNPOU
100
AcDbLine
 10
9538.463942920641
 20
4148.574460358767
 30
0.0
 11
9538.463942920641
 21
4159.824460358767
 31
0.0
  0
LINE
  5
1CB71
330
1C77F
100
AcDbEntity
  8
SUNPOU
100
AcDbLine
 10
8898.463942920646
 20
2687.923888222178
 30
0.0
 11
8898.463942920646
 21
2110.523888222176
 31
0.0
  0
LINE
  5
1CB72
330
1C77F
100
AcDbEntity
  8
SUNPOU
100
AcDbLine
 10
10178.46394292064
 20
2687.923888222178
 30
0.0
 11
10178.46394292064
 21
2110.523888222176
 31
0.0
  0
LINE
  5
1CB73
330
1C77F
100
AcDbEntity
  8
SUNPOU
100
AcDbLine
 10
8913.463942920646
 20
2155.523888222176
 30
0.0
 11
10163.46394292064
 21
2155.523888222176
 31
0.0
  0
LINE
  5
1CB74
330
1C77F
100
AcDbEntity
  8
SUNPOU
100
AcDbLine
 10
8738.46394292064
 20
2527.923888222176
 30
0.0
 11
8738.46394292064
 21
1900.523888222177
 31
0.0
  0
LINE
  5
1CB75
330
1C77F
100
AcDbEntity
  8
SUNPOU
100
AcDbLine
 10
10338.46394292064
 20
2527.923888222176
 30
0.0
 11
10338.46394292064
 21
1900.523888222177
 31
0.0
  0
LINE
  5
1CB76
330
1C77F
100
AcDbEntity
  8
SUNPOU
100
AcDbLine
 10
8753.463942920644
 20
1945.523888222177
 30
0.0
 11
10323.46394292064
 21
1945.523888222177
 31
0.0
  0
LINE
  5
1CB77
330
1C77F
100
AcDbEntity
  8
SUNPOU
100
AcDbLine
 10
8868.463942920646
 20
3325.923888222177
 30
0.0
 11
8574.110546919881
 21
3325.923888222177
 31
0.0
  0
LINE
  5
1CB78
330
1C77F
100
AcDbEntity
  8
SUNPOU
100
AcDbLine
 10
8868.463942920646
 20
3197.923888222172
 30
0.0
 11
8574.110546919881
 21
3197.923888222172
 31
0.0
  0
LINE
  5
1CB79
330
1C77F
100
AcDbEntity
  8
SUNPOU
100
AcDbLine
 10
8619.110546919882
 20
3310.923888222177
 30
0.0
 11
8619.110546919882
 21
3212.923888222173
 31
0.0
  0
LINE
  5
1CB7A
330
1C77F
100
AcDbEntity
  8
SUNPOU
100
AcDbLine
 10
8868.463942920646
 20
3325.923888222175
 30
0.0
 11
8574.110546919881
 21
3325.923888222175
 31
0.0
  0
LINE
  5
1CB7B
330
1C77F
100
AcDbEntity
  8
SUNPOU
100
AcDbLine
 10
8776.622403112069
 20
3460.323888222177
 30
0.0
 11
8574.110546919881
 21
3460.323888222177
 31
0.0
  0
LINE
  5
1CB7C
330
1C77F
100
AcDbEntity
  8
SUNPOU
100
AcDbLine
 10
8619.110546919882
 20
3340.923888222175
 30
0.0
 11
8619.110546919882
 21
3445.323888222176
 31
0.0
  0
LINE
  5
1CB7D
330
1C77F
100
AcDbEntity
  8
SUNPOU
100
AcDbLine
 10
8619.110546919882
 20
3460.323888222177
 30
0.0
 11
8619.110546919882
 21
3665.323888222177
 31
0.0
  0
LINE
  5
1CB7E
330
1C77F
100
AcDbEntity
  8
SUNPOU
100
AcDbLine
 10
8708.463942920642
 20
2717.92388822218
 30
0.0
 11
8574.110546919881
 21
2717.92388822218
 31
0.0
  0
LINE
  5
1CB7F
330
1C77F
100
AcDbEntity
  8
SUNPOU
100
AcDbLine
 10
8868.463942920646
 20
3197.923888222172
 30
0.0
 11
8574.110546919881
 21
3197.923888222172
 31
0.0
  0
LINE
  5
1CB80
330
1C77F
100
AcDbEntity
  8
SUNPOU
100
AcDbLine
 10
8619.110546919882
 20
2732.923888222179
 30
0.0
 11
8619.110546919882
 21
3182.923888222173
 31
0.0
  0
LINE
  5
1CB81
330
1C77F
100
AcDbEntity
  8
SUNPOU
100
AcDbLine
 10
8708.463942920642
 20
2717.92388822218
 30
0.0
 11
8574.110546919881
 21
2717.92388822218
 31
0.0
  0
LINE
  5
1CB82
330
1C77F
100
AcDbEntity
  8
SUNPOU
100
AcDbLine
 10
8708.463942920642
 20
2557.923888222175
 30
0.0
 11
8574.110546919881
 21
2557.923888222175
 31
0.0
  0
LINE
  5
1CB83
330
1C77F
100
AcDbEntity
  8
SUNPOU
100
AcDbLine
 10
8619.110546919882
 20
2702.923888222179
 30
0.0
 11
8619.110546919882
 21
2572.923888222176
 31
0.0
  0
LINE
  5
1CB84
330
1C77F
100
AcDbEntity
  8
SUNPOU
100
AcDbLine
 10
8619.110546919882
 20
2557.923888222175
 30
0.0
 11
8619.110546919882
 21
2307.209602507889
 31
0.0
  0
LINE
  5
1CB85
330
1C77F
100
AcDbEntity
  8
SUNPOU
100
AcDbLine
 10
8776.622403112069
 20
3460.323888222177
 30
0.0
 11
8364.11054691988
 21
3460.323888222177
 31
0.0
  0
LINE
  5
1CB86
330
1C77F
100
AcDbEntity
  8
SUNPOU
100
AcDbLine
 10
8708.463942920642
 20
2557.923888222175
 30
0.0
 11
8364.11054691988
 21
2557.923888222175
 31
0.0
  0
LINE
  5
1CB87
330
1C77F
100
AcDbEntity
  8
SUNPOU
100
AcDbLine
 10
8409.110546919881
 20
3445.323888222176
 30
0.0
 11
8409.110546919881
 21
2572.923888222176
 31
0.0
  0
LINE
  5
1CB88
330
1C77F
100
AcDbEntity
  8
SUNPOU
100
AcDbLine
 10
10779.704902103
 20
4137.324460358767
 30
0.0
 11
10719.70490210299
 21
4137.324460358767
 31
0.0
  0
LINE
  5
1CB89
330
1C77F
100
AcDbEntity
  8
SUNPOU
100
AcDbLine
 10
10779.70490210299
 20
4137.324460358767
 30
0.0
 11
10719.70490210299
 21
4153.401411904638
 31
0.0
  0
LINE
  5
1CB8A
330
1C77F
100
AcDbEntity
  8
SUNPOU
100
AcDbLine
 10
10779.704902103
 20
4137.324460358767
 30
0.0
 11
10719.70490210299
 21
4121.247508812897
 31
0.0
  0
LINE
  5
1CB8B
330
1C77F
100
AcDbEntity
  8
SUNPOU
100
AcDbLine
 10
10719.70490210299
 20
4137.324460358767
 30
0.0
 11
10659.70490210299
 21
4137.324460358767
 31
0.0
  0
LINE
  5
1CB8C
330
1C77F
100
AcDbEntity
  8
SUNPOU
100
AcDbLine
 10
10719.70490210299
 20
4137.324460358767
 30
0.0
 11
10659.70490210299
 21
4153.401411904638
 31
0.0
  0
LINE
  5
1CB8D
330
1C77F
100
AcDbEntity
  8
SUNPOU
100
AcDbLine
 10
10719.70490210299
 20
4137.324460358767
 30
0.0
 11
10659.70490210299
 21
4121.247508812897
 31
0.0
  0
LINE
  5
1CB8E
330
1C77F
100
AcDbEntity
  8
SUNPOU
100
AcDbLine
 10
12593.67906519162
 20
3733.176085387134
 30
0.0
 11
13276.74749427907
 21
3733.176085387134
 31
0.0
  0
LINE
  5
1CB8F
330
1C77F
100
AcDbEntity
  8
SUNPOU
100
AcDbLine
 10
12593.67906519162
 20
3893.176085387133
 30
0.0
 11
13276.74749427907
 21
3893.176085387133
 31
0.0
  0
LINE
  5
1CB90
330
1C77F
100
AcDbEntity
  8
SUNPOU
100
AcDbLine
 10
13231.74749427908
 20
3748.176085387133
 30
0.0
 11
13231.74749427908
 21
3878.176085387133
 31
0.0
  0
LINE
  5
1CB91
330
1C77F
100
AcDbEntity
  8
SUNPOU
100
AcDbLine
 10
13231.74749427908
 20
3893.176085387133
 30
0.0
 11
13231.74749427908
 21
4095.318942529988
 31
0.0
  0
LINE
  5
1CB92
330
1C77F
100
AcDbEntity
  8
SUNPOU
100
AcDbLine
 10
12593.67906519162
 20
3733.176085387134
 30
0.0
 11
13276.74749427907
 21
3733.176085387134
 31
0.0
  0
LINE
  5
1CB93
330
1C77F
100
AcDbEntity
  8
SUNPOU
100
AcDbLine
 10
12849.67906519162
 20
3625.176085387133
 30
0.0
 11
13276.74749427907
 21
3625.176085387133
 31
0.0
  0
LINE
  5
1CB94
330
1C77F
100
AcDbEntity
  8
SUNPOU
100
AcDbLine
 10
13231.74749427908
 20
3748.176085387133
 30
0.0
 11
13231.74749427908
 21
3763.176085387133
 31
0.0
  0
LINE
  5
1CB95
330
1C77F
100
AcDbEntity
  8
SUNPOU
100
AcDbLine
 10
13231.74749427908
 20
3610.176085387133
 30
0.0
 11
13231.74749427908
 21
3408.033228244276
 31
0.0
  0
LINE
  5
1CB96
330
1C77F
100
AcDbEntity
  8
SUNPOU
100
AcDbLine
 10
13231.74749427908
 20
3733.176085387134
 30
0.0
 11
13231.74749427908
 21
3625.176085387133
 31
0.0
  0
LINE
  5
1CB97
330
1C77F
100
AcDbEntity
  8
SUNPOU
100
AcDbLine
 10
5278.137742396994
 20
2697.523888222175
 30
0.0
 11
5278.137742396994
 21
2110.523888222173
 31
0.0
  0
LINE
  5
1CB98
330
1C77F
100
AcDbEntity
  8
SUNPOU
100
AcDbLine
 10
6238.137742396993
 20
2697.523888222175
 30
0.0
 11
6238.137742396993
 21
2110.523888222173
 31
0.0
  0
LINE
  5
1CB99
330
1C77F
100
AcDbEntity
  8
SUNPOU
100
AcDbLine
 10
5293.137742396994
 20
2155.523888222173
 30
0.0
 11
6223.137742396994
 21
2155.523888222173
 31
0.0
  0
LINE
  5
1CB9A
330
1C77F
100
AcDbEntity
  8
SUNPOU
100
AcDbLine
 10
5118.137742396992
 20
2537.523888222175
 30
0.0
 11
5118.137742396992
 21
1900.523888222172
 31
0.0
  0
LINE
  5
1CB9B
330
1C77F
100
AcDbEntity
  8
SUNPOU
100
AcDbLine
 10
6398.137742396992
 20
2537.523888222175
 30
0.0
 11
6398.137742396992
 21
1900.523888222172
 31
0.0
  0
LINE
  5
1CB9C
330
1C77F
100
AcDbEntity
  8
SUNPOU
100
AcDbLine
 10
5133.137742396995
 20
1945.523888222172
 30
0.0
 11
6383.137742396993
 21
1945.523888222172
 31
0.0
  0
LINE
  5
1CB9D
330
1C77F
100
AcDbEntity
  8
SUNPOU
100
AcDbLine
 10
4448.784346396233
 20
3380.323888222175
 30
0.0
 11
4463.784346396234
 21
3380.323888222175
 31
0.0
  0
LINE
  5
1CB9E
330
1C77F
100
AcDbEntity
  8
SUNPOU
100
AcDbLine
 10
5088.137742396995
 20
3460.323888222177
 30
0.0
 11
4373.784346396234
 21
3460.323888222177
 31
0.0
  0
LINE
  5
1CB9F
330
1C77F
100
AcDbEntity
  8
SUNPOU
100
AcDbLine
 10
4418.784346396234
 20
3365.323888222175
 30
0.0
 11
4418.784346396234
 21
3350.323888222176
 31
0.0
  0
LINE
  5
1CBA0
330
1C77F
100
AcDbEntity
  8
SUNPOU
100
AcDbLine
 10
4418.784346396234
 20
3475.323888222177
 30
0.0
 11
4418.784346396234
 21
3677.466745365034
 31
0.0
  0
LINE
  5
1CBA1
330
1C77F
100
AcDbEntity
  8
SUNPOU
100
AcDbLine
 10
4418.784346396234
 20
3380.323888222175
 30
0.0
 11
4418.784346396234
 21
3460.323888222177
 31
0.0
  0
LINE
  5
1CBA2
330
1C77F
100
AcDbEntity
  8
SUNPOU
100
AcDbLine
 10
5088.137742396995
 20
3325.923888222173
 30
0.0
 11
4793.784346396238
 21
3325.923888222173
 31
0.0
  0
LINE
  5
1CBA3
330
1C77F
100
AcDbEntity
  8
SUNPOU
100
AcDbLine
 10
5088.137742396995
 20
3197.923888222169
 30
0.0
 11
4793.784346396238
 21
3197.923888222169
 31
0.0
  0
LINE
  5
1CBA4
330
1C77F
100
AcDbEntity
  8
SUNPOU
100
AcDbLine
 10
4838.784346396238
 20
3310.923888222173
 30
0.0
 11
4838.784346396238
 21
3212.92388822217
 31
0.0
  0
LINE
  5
1CBA5
330
1C77F
100
AcDbEntity
  8
SUNPOU
100
AcDbLine
 10
5088.137742396995
 20
3325.923888222175
 30
0.0
 11
4793.784346396234
 21
3325.923888222175
 31
0.0
  0
LINE
  5
1CBA6
330
1C77F
100
AcDbEntity
  8
SUNPOU
100
AcDbLine
 10
5088.137742396995
 20
3460.323888222177
 30
0.0
 11
4793.784346396234
 21
3460.323888222177
 31
0.0
  0
LINE
  5
1CBA7
330
1C77F
100
AcDbEntity
  8
SUNPOU
100
AcDbLine
 10
4838.784346396234
 20
3340.923888222175
 30
0.0
 11
4838.784346396234
 21
3445.323888222176
 31
0.0
  0
LINE
  5
1CBA8
330
1C77F
100
AcDbEntity
  8
SUNPOU
100
AcDbLine
 10
4838.784346396234
 20
3460.323888222177
 30
0.0
 11
4838.784346396234
 21
3665.323888222177
 31
0.0
  0
LINE
  5
1CBA9
330
1C77F
100
AcDbEntity
  8
SUNPOU
100
AcDbLine
 10
5088.137742396992
 20
2717.923888222177
 30
0.0
 11
4793.784346396234
 21
2717.923888222177
 31
0.0
  0
LINE
  5
1CBAA
330
1C77F
100
AcDbEntity
  8
SUNPOU
100
AcDbLine
 10
5088.137742396992
 20
3197.923888222171
 30
0.0
 11
4793.784346396234
 21
3197.923888222171
 31
0.0
  0
LINE
  5
1CBAB
330
1C77F
100
AcDbEntity
  8
SUNPOU
100
AcDbLine
 10
4838.784346396234
 20
2732.923888222178
 30
0.0
 11
4838.784346396234
 21
3182.923888222171
 31
0.0
  0
LINE
  5
1CBAC
330
1C77F
100
AcDbEntity
  8
SUNPOU
100
AcDbLine
 10
5088.137742396992
 20
2717.923888222177
 30
0.0
 11
4793.784346396234
 21
2717.923888222177
 31
0.0
  0
LINE
  5
1CBAD
330
1C77F
100
AcDbEntity
  8
SUNPOU
100
AcDbLine
 10
5088.137742396992
 20
2557.923888222177
 30
0.0
 11
4793.784346396234
 21
2557.923888222177
 31
0.0
  0
LINE
  5
1CBAE
330
1C77F
100
AcDbEntity
  8
SUNPOU
100
AcDbLine
 10
4838.784346396234
 20
2702.923888222177
 30
0.0
 11
4838.784346396234
 21
2572.923888222177
 31
0.0
  0
LINE
  5
1CBAF
330
1C77F
100
AcDbEntity
  8
SUNPOU
100
AcDbLine
 10
4838.784346396234
 20
2557.923888222177
 30
0.0
 11
4838.784346396234
 21
2307.209602507889
 31
0.0
  0
LINE
  5
1CBB0
330
1C77F
100
AcDbEntity
  8
SUNPOU
100
AcDbLine
 10
5088.137742396995
 20
3460.323888222177
 30
0.0
 11
4583.784346396234
 21
3460.323888222177
 31
0.0
  0
LINE
  5
1CBB1
330
1C77F
100
AcDbEntity
  8
SUNPOU
100
AcDbLine
 10
5088.137742396995
 20
2557.923888222177
 30
0.0
 11
4583.784346396234
 21
2557.923888222177
 31
0.0
  0
LINE
  5
1CBB2
330
1C77F
100
AcDbEntity
  8
SUNPOU
100
AcDbLine
 10
4628.784346396234
 20
3445.323888222176
 30
0.0
 11
4628.784346396234
 21
2572.923888222177
 31
0.0
  0
LINE
  5
1CBB3
330
1C77F
100
AcDbEntity
  8
SUNPOU
100
AcDbLine
 10
7303.368249647245
 20
4137.324460358764
 30
0.0
 11
7243.36824964723
 21
4137.324460358764
 31
0.0
  0
LINE
  5
1CBB4
330
1C77F
100
AcDbEntity
  8
SUNPOU
100
AcDbLine
 10
7303.368249647238
 20
4137.324460358764
 30
0.0
 11
7243.368249647234
 21
4153.401411904634
 31
0.0
  0
LINE
  5
1CBB5
330
1C77F
100
AcDbEntity
  8
SUNPOU
100
AcDbLine
 10
7303.368249647245
 20
4137.324460358764
 30
0.0
 11
7243.36824964723
 21
4121.247508812895
 31
0.0
  0
LINE
  5
1CBB6
330
1C77F
100
AcDbEntity
  8
SUNPOU
100
AcDbLine
 10
7243.368249647244
 20
4137.324460358764
 30
0.0
 11
7183.36824964723
 21
4137.324460358764
 31
0.0
  0
LINE
  5
1CBB7
330
1C77F
100
AcDbEntity
  8
SUNPOU
100
AcDbLine
 10
7243.368249647234
 20
4137.324460358764
 30
0.0
 11
7183.368249647237
 21
4153.401411904634
 31
0.0
  0
LINE
  5
1CBB8
330
1C77F
100
AcDbEntity
  8
SUNPOU
100
AcDbLine
 10
7243.368249647244
 20
4137.324460358764
 30
0.0
 11
7183.36824964723
 21
4121.247508812895
 31
0.0
  0
LINE
  5
1CBB9
330
1C77F
100
AcDbEntity
  8
SUNPOU
100
AcDbLine
 10
5758.137742396995
 20
4167.324460358766
 30
0.0
 11
5758.137742396995
 21
4182.324460358763
 31
0.0
  0
LINE
  5
1CBBA
330
1C77F
100
AcDbEntity
  8
SUNPOU
100
AcDbLine
 10
5118.137742396996
 20
3490.323888222175
 30
0.0
 11
5118.137742396996
 21
4182.324460358763
 31
0.0
  0
LINE
  5
1CBBB
330
1C77F
100
AcDbEntity
  8
SUNPOU
100
AcDbLine
 10
5743.137742396993
 20
4137.324460358764
 30
0.0
 11
5133.137742396995
 21
4137.324460358764
 31
0.0
  0
LINE
  5
1CBBC
330
1C77F
100
AcDbEntity
  8
SUNPOU
100
AcDbLine
 10
12739.67906519162
 20
2476.983392855721
 30
0.0
 11
12739.67906519162
 21
2207.644025518658
 31
0.0
  0
LINE
  5
1CBBD
330
1C77F
100
AcDbEntity
  8
SUNPOU
100
AcDbLine
 10
12819.67906519162
 20
2516.983392855721
 30
0.0
 11
12819.67906519162
 21
2207.644025518658
 31
0.0
  0
LINE
  5
1CBBE
330
1C77F
100
AcDbEntity
  8
SUNPOU
100
AcDbLine
 10
12724.67906519162
 20
2252.644025518658
 30
0.0
 11
12709.67906519162
 21
2252.644025518658
 31
0.0
  0
LINE
  5
1CBBF
330
1C77F
100
AcDbEntity
  8
SUNPOU
100
AcDbLine
 10
12834.67906519162
 20
2252.644025518658
 30
0.0
 11
13036.82192233448
 21
2252.644025518658
 31
0.0
  0
LINE
  5
1CBC0
330
1C77F
100
AcDbEntity
  8
SUNPOU
100
AcDbLine
 10
12739.67906519162
 20
2252.644025518658
 30
0.0
 11
12819.67906519162
 21
2252.644025518658
 31
0.0
  0
LINE
  5
1CBC1
330
1C77F
100
AcDbEntity
  8
SUNPOU
100
AcDbLine
 10
12259.67906519163
 20
2476.983392855721
 30
0.0
 11
12259.67906519163
 21
2207.644025518658
 31
0.0
  0
LINE
  5
1CBC2
330
1C77F
100
AcDbEntity
  8
SUNPOU
100
AcDbLine
 10
12739.67906519162
 20
2476.983392855721
 30
0.0
 11
12739.67906519162
 21
2207.644025518658
 31
0.0
  0
LINE
  5
1CBC3
330
1C77F
100
AcDbEntity
  8
SUNPOU
100
AcDbLine
 10
12274.67906519164
 20
2252.644025518658
 30
0.0
 11
12724.67906519162
 21
2252.644025518658
 31
0.0
  0
LINE
  5
1CBC4
330
1C77F
100
AcDbEntity
  8
SUNPOU
100
AcDbLine
 10
12259.67906519163
 20
2476.983392855721
 30
0.0
 11
12259.67906519163
 21
2207.644025518658
 31
0.0
  0
LINE
  5
1CBC5
330
1C77F
100
AcDbEntity
  8
SUNPOU
100
AcDbLine
 10
12179.67906519162
 20
2516.983392855721
 30
0.0
 11
12179.67906519162
 21
2207.644025518658
 31
0.0
  0
LINE
  5
1CBC6
330
1C77F
100
AcDbEntity
  8
SUNPOU
100
AcDbLine
 10
12274.67906519164
 20
2252.644025518658
 30
0.0
 11
12289.67906519164
 21
2252.644025518658
 31
0.0
  0
LINE
  5
1CBC7
330
1C77F
100
AcDbEntity
  8
SUNPOU
100
AcDbLine
 10
12164.67906519162
 20
2252.644025518658
 30
0.0
 11
11962.53620804875
 21
2252.644025518658
 31
0.0
  0
LINE
  5
1CBC8
330
1C77F
100
AcDbEntity
  8
SUNPOU
100
AcDbLine
 10
12259.67906519163
 20
2252.644025518658
 30
0.0
 11
12179.67906519162
 21
2252.644025518658
 31
0.0
  0
LINE
  5
1CBC9
330
1C77F
100
AcDbEntity
  8
SUNPOU
100
AcDbLine
 10
12179.67906519162
 20
2516.983392855721
 30
0.0
 11
12179.67906519162
 21
1997.644025518658
 31
0.0
  0
LINE
  5
1CBCA
330
1C77F
100
AcDbEntity
  8
SUNPOU
100
AcDbLine
 10
12819.67906519162
 20
2516.983392855721
 30
0.0
 11
12819.67906519162
 21
1997.644025518658
 31
0.0
  0
LINE
  5
1CBCB
330
1C77F
100
AcDbEntity
  8
SUNPOU
100
AcDbLine
 10
12194.67906519162
 20
2042.644025518657
 30
0.0
 11
12804.67906519162
 21
2042.644025518657
 31
0.0
  0
LINE
  5
1CBCC
330
1C77F
100
AcDbEntity
  8
SUNPOU
100
AcDbLine
 10
12153.67906519162
 20
2706.98339285572
 30
0.0
 11
11831.67906519162
 21
2706.98339285572
 31
0.0
  0
LINE
  5
1CBCD
330
1C77F
100
AcDbEntity
  8
SUNPOU
100
AcDbLine
 10
12149.67906519162
 20
2546.983392855721
 30
0.0
 11
11831.67906519162
 21
2546.983392855721
 31
0.0
  0
LINE
  5
1CBCE
330
1C77F
100
AcDbEntity
  8
SUNPOU
100
AcDbLine
 10
11876.67906519162
 20
2691.983392855721
 30
0.0
 11
11876.67906519162
 21
2561.98339285572
 31
0.0
  0
LINE
  5
1CBCF
330
1C77F
100
AcDbEntity
  8
SUNPOU
100
AcDbLine
 10
11876.67906519162
 20
2546.983392855721
 30
0.0
 11
11876.67906519162
 21
2344.840535712865
 31
0.0
  0
LINE
  5
1CBD0
330
1C77F
100
AcDbEntity
  8
SUNPOU
100
AcDbLine
 10
12153.67906519162
 20
2706.98339285572
 30
0.0
 11
11831.67906519162
 21
2706.98339285572
 31
0.0
  0
LINE
  5
1CBD1
330
1C77F
100
AcDbEntity
  8
SUNPOU
100
AcDbLine
 10
12149.67906519162
 20
2866.983392855721
 30
0.0
 11
11831.67906519162
 21
2866.983392855721
 31
0.0
  0
LINE
  5
1CBD2
330
1C77F
100
AcDbEntity
  8
SUNPOU
100
AcDbLine
 10
11876.67906519162
 20
2721.983392855721
 30
0.0
 11
11876.67906519162
 21
2851.983392855721
 31
0.0
  0
LINE
  5
1CBD3
330
1C77F
100
AcDbEntity
  8
SUNPOU
100
AcDbLine
 10
11876.67906519162
 20
2866.983392855721
 30
0.0
 11
11876.67906519162
 21
3069.126249998579
 31
0.0
  0
LINE
  5
1CBD4
330
1C77F
100
AcDbEntity
  8
SUNPOU
100
AcDbLine
 10
12149.67906519162
 20
2546.983392855721
 30
0.0
 11
11621.67906519162
 21
2546.983392855721
 31
0.0
  0
LINE
  5
1CBD5
330
1C77F
100
AcDbEntity
  8
SUNPOU
100
AcDbLine
 10
12149.67906519162
 20
2866.983392855721
 30
0.0
 11
11621.67906519162
 21
2866.983392855721
 31
0.0
  0
LINE
  5
1CBD6
330
1C77F
100
AcDbEntity
  8
SUNPOU
100
AcDbLine
 10
11666.67906519162
 20
2561.98339285572
 30
0.0
 11
11666.67906519162
 21
2851.983392855721
 31
0.0
  0
LINE
  5
1CBD7
330
1C77F
100
AcDbEntity
  8
SUNPOU
100
AcDbLine
 10
12739.67906519162
 20
3555.176085387133
 30
0.0
 11
12739.67906519162
 21
3356.00991145763
 31
0.0
  0
LINE
  5
1CBD8
330
1C77F
100
AcDbEntity
  8
SUNPOU
100
AcDbLine
 10
12819.67906519162
 20
3595.176085387133
 30
0.0
 11
12819.67906519162
 21
3356.00991145763
 31
0.0
  0
LINE
  5
1CBD9
330
1C77F
100
AcDbEntity
  8
SUNPOU
100
AcDbLine
 10
12724.67906519162
 20
3401.009911457631
 30
0.0
 11
12709.67906519162
 21
3401.009911457631
 31
0.0
  0
LINE
  5
1CBDA
330
1C77F
100
AcDbEntity
  8
SUNPOU
100
AcDbLine
 10
12834.67906519162
 20
3401.009911457631
 30
0.0
 11
13036.82192233448
 21
3401.009911457631
 31
0.0
  0
LINE
  5
1CBDB
330
1C77F
100
AcDbEntity
  8
SUNPOU
100
AcDbLine
 10
12739.67906519162
 20
3401.009911457631
 30
0.0
 11
12819.67906519162
 21
3401.009911457631
 31
0.0
  0
LINE
  5
1CBDC
330
1C77F
100
AcDbEntity
  8
SUNPOU
100
AcDbLine
 10
12259.67906519163
 20
3555.176085387133
 30
0.0
 11
12259.67906519163
 21
3356.00991145763
 31
0.0
  0
LINE
  5
1CBDD
330
1C77F
100
AcDbEntity
  8
SUNPOU
100
AcDbLine
 10
12739.67906519162
 20
3555.176085387133
 30
0.0
 11
12739.67906519162
 21
3356.00991145763
 31
0.0
  0
LINE
  5
1CBDE
330
1C77F
100
AcDbEntity
  8
SUNPOU
100
AcDbLine
 10
12274.67906519164
 20
3401.009911457631
 30
0.0
 11
12724.67906519162
 21
3401.009911457631
 31
0.0
  0
LINE
  5
1CBDF
330
1C77F
100
AcDbEntity
  8
SUNPOU
100
AcDbLine
 10
12259.67906519163
 20
3555.176085387133
 30
0.0
 11
12259.67906519163
 21
3356.00991145763
 31
0.0
  0
LINE
  5
1CBE0
330
1C77F
100
AcDbEntity
  8
SUNPOU
100
AcDbLine
 10
12179.67906519162
 20
3595.176085387133
 30
0.0
 11
12179.67906519162
 21
3356.00991145763
 31
0.0
  0
LINE
  5
1CBE1
330
1C77F
100
AcDbEntity
  8
SUNPOU
100
AcDbLine
 10
12274.67906519164
 20
3401.009911457631
 30
0.0
 11
12289.67906519164
 21
3401.009911457631
 31
0.0
  0
LINE
  5
1CBE2
330
1C77F
100
AcDbEntity
  8
SUNPOU
100
AcDbLine
 10
12164.67906519162
 20
3401.009911457631
 30
0.0
 11
11962.53620804875
 21
3401.009911457631
 31
0.0
  0
LINE
  5
1CBE3
330
1C77F
100
AcDbEntity
  8
SUNPOU
100
AcDbLine
 10
12259.67906519163
 20
3401.009911457631
 30
0.0
 11
12179.67906519162
 21
3401.009911457631
 31
0.0
  0
LINE
  5
1CBE4
330
1C77F
100
AcDbEntity
  8
SUNPOU
100
AcDbLine
 10
12179.67906519162
 20
3595.176085387133
 30
0.0
 11
12179.67906519162
 21
3146.00991145763
 31
0.0
  0
LINE
  5
1CBE5
330
1C77F
100
AcDbEntity
  8
SUNPOU
100
AcDbLine
 10
12819.67906519162
 20
3595.176085387133
 30
0.0
 11
12819.67906519162
 21
3146.00991145763
 31
0.0
  0
LINE
  5
1CBE6
330
1C77F
100
AcDbEntity
  8
SUNPOU
100
AcDbLine
 10
12194.67906519162
 20
3191.00991145763
 30
0.0
 11
12804.67906519162
 21
3191.00991145763
 31
0.0
  0
LINE
  5
1CBE7
330
1C77F
100
AcDbEntity
  8
SUNPOU
100
AcDbLine
 10
12404.21703198606
 20
9295.715360473252
 30
0.0
 11
12389.21703198605
 21
9295.715360473252
 31
0.0
  0
LINE
  5
1CBE8
330
1C77F
100
AcDbEntity
  8
SUNPOU
100
AcDbLine
 10
12064.21703198605
 20
9595.715360473253
 30
0.0
 11
12479.21703198606
 21
9595.715360473253
 31
0.0
  0
LINE
  5
1CBE9
330
1C77F
100
AcDbEntity
  8
SUNPOU
100
AcDbLine
 10
12434.21703198606
 20
9310.715360473251
 30
0.0
 11
12434.21703198606
 21
9580.71536047325
 31
0.0
  0
LINE
  5
1CBEA
330
1C77F
100
AcDbEntity
  8
SUNPOU
100
AcDbLine
 10
12404.21703198606
 20
7495.715360473251
 30
0.0
 11
12389.21703198605
 21
7495.715360473251
 31
0.0
  0
LINE
  5
1CBEB
330
1C77F
100
AcDbEntity
  8
SUNPOU
100
AcDbLine
 10
12404.21703198606
 20
9295.715360473252
 30
0.0
 11
12389.21703198605
 21
9295.715360473252
 31
0.0
  0
LINE
  5
1CBEC
330
1C77F
100
AcDbEntity
  8
SUNPOU
100
AcDbLine
 10
12434.21703198606
 20
7510.715360473253
 30
0.0
 11
12434.21703198606
 21
9280.71536047325
 31
0.0
  0
LINE
  5
1CBED
330
1C77F
100
AcDbEntity
  8
SUNPOU
100
AcDbLine
 10
12404.21703198606
 20
5695.715360473253
 30
0.0
 11
12389.21703198605
 21
5695.715360473253
 31
0.0
  0
LINE
  5
1CBEE
330
1C77F
100
AcDbEntity
  8
SUNPOU
100
AcDbLine
 10
12404.21703198606
 20
7495.715360473251
 30
0.0
 11
12389.21703198605
 21
7495.715360473251
 31
0.0
  0
LINE
  5
1CBEF
330
1C77F
100
AcDbEntity
  8
SUNPOU
100
AcDbLine
 10
12434.21703198606
 20
5710.715360473253
 30
0.0
 11
12434.21703198606
 21
7480.715360473253
 31
0.0
  0
LINE
  5
1CBF0
330
1C77F
100
AcDbEntity
  8
SUNPOU
100
AcDbLine
 10
12064.21703198605
 20
5395.715360473253
 30
0.0
 11
12479.21703198606
 21
5395.715360473253
 31
0.0
  0
LINE
  5
1CBF1
330
1C77F
100
AcDbEntity
  8
SUNPOU
100
AcDbLine
 10
12404.21703198606
 20
5695.715360473253
 30
0.0
 11
12389.21703198605
 21
5695.715360473253
 31
0.0
  0
LINE
  5
1CBF2
330
1C77F
100
AcDbEntity
  8
SUNPOU
100
AcDbLine
 10
12434.21703198606
 20
5410.715360473253
 30
0.0
 11
12434.21703198606
 21
5680.715360473254
 31
0.0
  0
LINE
  5
1CBF3
330
1C77F
100
AcDbEntity
  8
SUNPOU
100
AcDbLine
 10
12064.21703198605
 20
5395.715360473253
 30
0.0
 11
12689.21703198605
 21
5395.715360473253
 31
0.0
  0
LINE
  5
1CBF4
330
1C77F
100
AcDbEntity
  8
SUNPOU
100
AcDbLine
 10
12064.21703198605
 20
9595.715360473253
 30
0.0
 11
12689.21703198605
 21
9595.715360473253
 31
0.0
  0
LINE
  5
1CBF5
330
1C77F
100
AcDbEntity
  8
SUNPOU
100
AcDbLine
 10
12644.21703198606
 20
5410.715360473253
 30
0.0
 11
12644.21703198606
 21
9580.71536047325
 31
0.0
  0
LINE
  5
1CBF6
330
1C77F
100
AcDbEntity
  8
SUNPOU
100
AcDbLine
 10
9164.21703198606
 20
5995.715360473255
 30
0.0
 11
9479.21703198606
 21
5995.715360473255
 31
0.0
  0
LINE
  5
1CBF7
330
1C77F
100
AcDbEntity
  8
SUNPOU
100
AcDbLine
 10
9164.21703198606
 20
5395.715360473253
 30
0.0
 11
9479.21703198606
 21
5395.715360473253
 31
0.0
  0
LINE
  5
1CBF8
330
1C77F
100
AcDbEntity
  8
SUNPOU
100
AcDbLine
 10
9434.21703198606
 20
5980.715360473254
 30
0.0
 11
9434.21703198606
 21
5410.715360473254
 31
0.0
  0
TEXT
  5
1CBF9
330
1C77F
100
AcDbEntity
  8
SUNPOU
100
AcDbText
 10
7794.502746271773
 20
10040.71536047325
 30
0.0
 40
90.0
  1
2800× （ N - 2 ）
 41
0.6666666666666666
  7
00
100
AcDbText
  0
LINE
  5
1CBFA
330
1C77F
100
AcDbEntity
  8
SUNPOU
100
AcDbLine
 10
7545.46703198606
 20
9995.715360473253
 30
0.0
 11
7556.717031986058
 21
9995.715360473253
 31
0.0
  0
LINE
  5
1CBFB
330
1C77F
100
AcDbEntity
  8
SUNPOU
100
AcDbLine
 10
8822.96703198606
 20
9995.715360473253
 30
0.0
 11
8811.717031986061
 21
9995.715360473253
 31
0.0
  0
LINE
  5
1CBFC
330
1C77F
100
AcDbEntity
  8
SUNPOU
100
AcDbLine
 10
4334.217031986058
 20
9625.715360473252
 30
0.0
 11
4334.217031986058
 21
10250.71536047325
 31
0.0
  0
LINE
  5
1CBFD
330
1C77F
100
AcDbEntity
  8
SUNPOU
100
AcDbLine
 10
12034.21703198606
 20
9625.715360473252
 30
0.0
 11
12034.21703198606
 21
10250.71536047325
 31
0.0
  0
LINE
  5
1CBFE
330
1C77F
100
AcDbEntity
  8
SUNPOU
100
AcDbLine
 10
4349.21703198606
 20
10205.71536047325
 30
0.0
 11
12019.21703198606
 21
10205.71536047325
 31
0.0
  0
LINE
  5
1CBFF
330
1C77F
100
AcDbEntity
  8
SUNPOU
100
AcDbLine
 10
7534.217031986059
 20
9725.715360473252
 30
0.0
 11
7534.217031986059
 21
10040.71536047325
 31
0.0
  0
LINE
  5
1CC00
330
1C77F
100
AcDbEntity
  8
SUNPOU
100
AcDbLine
 10
4734.21703198606
 20
9725.715360473252
 30
0.0
 11
4734.21703198606
 21
10040.71536047325
 31
0.0
  0
LINE
  5
1CC01
330
1C77F
100
AcDbEntity
  8
SUNPOU
100
AcDbLine
 10
7519.217031986058
 20
9995.715360473253
 30
0.0
 11
4749.217031986058
 21
9995.715360473253
 31
0.0
  0
LINE
  5
1CC02
330
1C77F
100
AcDbEntity
  8
SUNPOU
100
AcDbLine
 10
11634.21703198606
 20
9725.715360473252
 30
0.0
 11
11634.21703198606
 21
10040.71536047325
 31
0.0
  0
LINE
  5
1CC03
330
1C77F
100
AcDbEntity
  8
SUNPOU
100
AcDbLine
 10
8834.21703198606
 20
9725.715360473252
 30
0.0
 11
8834.21703198606
 21
10040.71536047325
 31
0.0
  0
LINE
  5
1CC04
330
1C77F
100
AcDbEntity
  8
SUNPOU
100
AcDbLine
 10
11619.21703198605
 20
9995.715360473253
 30
0.0
 11
8849.217031986063
 21
9995.715360473253
 31
0.0
  0
LINE
  5
1CC05
330
1C77F
100
AcDbEntity
  8
SUNPOU
100
AcDbLine
 10
4734.21703198606
 20
9725.715360473252
 30
0.0
 11
4734.21703198606
 21
10040.71536047325
 31
0.0
  0
LINE
  5
1CC06
330
1C77F
100
AcDbEntity
  8
SUNPOU
100
AcDbLine
 10
4334.217031986058
 20
9625.715360473252
 30
0.0
 11
4334.217031986058
 21
10040.71536047325
 31
0.0
  0
LINE
  5
1CC07
330
1C77F
100
AcDbEntity
  8
SUNPOU
100
AcDbLine
 10
4719.21703198606
 20
9995.715360473253
 30
0.0
 11
4349.21703198606
 21
9995.715360473253
 31
0.0
  0
LINE
  5
1CC08
330
1C77F
100
AcDbEntity
  8
SUNPOU
100
AcDbLine
 10
11634.21703198606
 20
9725.715360473252
 30
0.0
 11
11634.21703198606
 21
10040.71536047325
 31
0.0
  0
LINE
  5
1CC09
330
1C77F
100
AcDbEntity
  8
SUNPOU
100
AcDbLine
 10
12034.21703198606
 20
9625.715360473252
 30
0.0
 11
12034.21703198606
 21
10040.71536047325
 31
0.0
  0
LINE
  5
1CC0A
330
1C77F
100
AcDbEntity
  8
SUNPOU
100
AcDbLine
 10
11649.21703198606
 20
9995.715360473253
 30
0.0
 11
12019.21703198606
 21
9995.715360473253
 31
0.0
  0
LINE
  5
1CC0B
330
1C77F
100
AcDbEntity
  8
SUNPOU
100
AcDbLine
 10
7204.21703198606
 20
9595.715360473253
 30
0.0
 11
6889.21703198606
 21
9595.715360473253
 31
0.0
  0
LINE
  5
1CC0C
330
1C77F
100
AcDbEntity
  8
SUNPOU
100
AcDbLine
 10
7204.21703198606
 20
8995.715360473253
 30
0.0
 11
6889.21703198606
 21
8995.715360473253
 31
0.0
  0
LINE
  5
1CC0D
330
1C77F
100
AcDbEntity
  8
SUNPOU
100
AcDbLine
 10
6934.21703198606
 20
9580.715360473252
 30
0.0
 11
6934.21703198606
 21
9010.715360473252
 31
0.0
  0
LINE
  5
1CC0E
330
1C77F
100
AcDbEntity
  8
SUNPOU
100
AcDbLine
 10
7234.21703198606
 20
8965.71536047325
 30
0.0
 11
7234.21703198606
 21
8650.715360473251
 31
0.0
  0
LINE
  5
1CC0F
330
1C77F
100
AcDbEntity
  8
SUNPOU
100
AcDbLine
 10
7834.21703198606
 20
8965.71536047325
 30
0.0
 11
7834.21703198606
 21
8650.715360473251
 31
0.0
  0
LINE
  5
1CC10
330
1C77F
100
AcDbEntity
  8
SUNPOU
100
AcDbLine
 10
7249.21703198606
 20
8695.715360473251
 30
0.0
 11
7819.21703198606
 21
8695.715360473251
 31
0.0
  0
LINE
  5
1CC11
330
1C77F
100
AcDbEntity
  8
SUNPOU
100
AcDbLine
 10
8534.217031986059
 20
6025.715360473252
 30
0.0
 11
8534.217031986059
 21
6290.715360473253
 31
0.0
  0
LINE
  5
1CC12
330
1C77F
100
AcDbEntity
  8
SUNPOU
100
AcDbLine
 10
9134.217031986059
 20
6025.715360473252
 30
0.0
 11
9134.217031986059
 21
6290.715360473253
 31
0.0
  0
LINE
  5
1CC13
330
1C77F
100
AcDbEntity
  8
SUNPOU
100
AcDbLine
 10
8549.21703198606
 20
6245.715360473253
 30
0.0
 11
9119.217031986059
 21
6245.715360473253
 31
0.0
  0
LINE
  5
1CC14
330
1C77F
100
AcDbEntity
  8
SUNPOU
100
AcDbLine
 10
8434.21703198606
 20
7925.715360473255
 30
0.0
 11
8434.21703198606
 21
8110.715360473252
 31
0.0
  0
LINE
  5
1CC15
330
1C77F
100
AcDbEntity
  8
SUNPOU
100
AcDbLine
 10
9234.217031986061
 20
7925.715360473255
 30
0.0
 11
9234.217031986061
 21
8110.715360473252
 31
0.0
  0
LINE
  5
1CC16
330
1C77F
100
AcDbEntity
  8
SUNPOU
100
AcDbLine
 10
8449.21703198606
 20
8065.715360473253
 30
0.0
 11
9219.21703198606
 21
8065.715360473253
 31
0.0
  0
LINE
  5
1CC17
330
1C77F
100
AcDbEntity
  8
SUNPOU
100
AcDbLine
 10
9264.21703198606
 20
7895.715360473253
 30
0.0
 11
9479.21703198606
 21
7895.715360473253
 31
0.0
  0
LINE
  5
1CC18
330
1C77F
100
AcDbEntity
  8
SUNPOU
100
AcDbLine
 10
9264.21703198606
 20
7095.715360473253
 30
0.0
 11
9479.21703198606
 21
7095.715360473253
 31
0.0
  0
LINE
  5
1CC19
330
1C77F
100
AcDbEntity
  8
SUNPOU
100
AcDbLine
 10
9434.21703198606
 20
7880.715360473253
 30
0.0
 11
9434.21703198606
 21
7110.715360473253
 31
0.0
  0
ARC
  5
1CC1A
330
1C77F
100
AcDbEntity
  8
SUNPOU
100
AcDbCircle
 10
9538.463942920641
 20
4137.324460358767
 30
0.0
 40
5.625
100
AcDbArc
 50
90.0
 51
270.0
  0
ARC
  5
1CC1B
330
1C77F
100
AcDbEntity
  8
SUNPOU
100
AcDbCircle
 10
9538.463942920641
 20
4137.324460358767
 30
0.0
 40
5.625
100
AcDbArc
 50
270.0
 51
90.0
  0
TEXT
  5
1CC1C
330
1C77F
100
AcDbEntity
  8
SUNPOU
100
AcDbText
 10
9452.749657206352
 20
2200.523888222177
 30
0.0
 40
90.0
  1
800
 41
0.6666666666666666
  7
00
100
AcDbText
  0
LINE
  5
1CC1D
330
1C77F
100
AcDbEntity
  8
SUNPOU
100
AcDbLine
 10
10167.21394292064
 20
2155.523888222176
 30
0.0
 11
10155.96394292064
 21
2155.523888222176
 31
0.0
  0
LINE
  5
1CC1E
330
1C77F
100
AcDbEntity
  8
SUNPOU
100
AcDbLine
 10
8909.713942920644
 20
2155.523888222176
 30
0.0
 11
8920.963942920643
 21
2155.523888222176
 31
0.0
  0
TEXT
  5
1CC1F
330
1C77F
100
AcDbEntity
  8
SUNPOU
100
AcDbText
 10
9419.892514349211
 20
1990.523888222177
 30
0.0
 40
90.0
  1
1000
 41
0.6666666666666666
  7
00
100
AcDbText
  0
LINE
  5
1CC20
330
1C77F
100
AcDbEntity
  8
SUNPOU
100
AcDbLine
 10
10327.21394292064
 20
1945.523888222177
 30
0.0
 11
10315.96394292064
 21
1945.523888222177
 31
0.0
  0
LINE
  5
1CC21
330
1C77F
100
AcDbEntity
  8
SUNPOU
100
AcDbLine
 10
8749.71394292064
 20
1945.523888222177
 30
0.0
 11
8760.963942920637
 21
1945.523888222177
 31
0.0
  0
TEXT
  5
1CC22
330
1C77F
100
AcDbEntity
  8
SUNPOU
100
AcDbText
 10
8574.110546919881
 20
3204.78103107932
 30
0.0
 40
90.0
  1
80
 50
90.0
 41
0.6666666666666666
  7
00
100
AcDbText
  0
LINE
  5
1CC23
330
1C77F
100
AcDbEntity
  8
SUNPOU
100
AcDbLine
 10
8619.110546919882
 20
3209.173888222173
 30
0.0
 11
8619.110546919882
 21
3220.423888222173
 31
0.0
  0
LINE
  5
1CC24
330
1C77F
100
AcDbEntity
  8
SUNPOU
100
AcDbLine
 10
8619.110546919882
 20
3314.673888222177
 30
0.0
 11
8619.110546919882
 21
3303.423888222178
 31
0.0
  0
TEXT
  5
1CC25
330
1C77F
100
AcDbEntity
  8
SUNPOU
100
AcDbText
 10
8574.110546919881
 20
3511.752459650749
 30
0.0
 40
90.0
  1
84
 50
90.0
 41
0.6666666666666666
  7
00
100
AcDbText
  0
LINE
  5
1CC26
330
1C77F
100
AcDbEntity
  8
SUNPOU
100
AcDbLine
 10
8619.110546919882
 20
3449.073888222175
 30
0.0
 11
8619.110546919882
 21
3437.823888222176
 31
0.0
  0
LINE
  5
1CC27
330
1C77F
100
AcDbEntity
  8
SUNPOU
100
AcDbLine
 10
8619.110546919882
 20
3337.173888222175
 30
0.0
 11
8619.110546919882
 21
3348.423888222175
 31
0.0
  0
TEXT
  5
1CC28
330
1C77F
100
AcDbEntity
  8
SUNPOU
100
AcDbText
 10
8574.110546919881
 20
2872.209602507892
 30
0.0
 40
90.0
  1
300
 50
90.0
 41
0.6666666666666666
  7
00
100
AcDbText
  0
LINE
  5
1CC29
330
1C77F
100
AcDbEntity
  8
SUNPOU
100
AcDbLine
 10
8619.110546919882
 20
3186.673888222173
 30
0.0
 11
8619.110546919882
 21
3175.423888222173
 31
0.0
  0
LINE
  5
1CC2A
330
1C77F
100
AcDbEntity
  8
SUNPOU
100
AcDbLine
 10
8619.110546919882
 20
2729.17388822218
 30
0.0
 11
8619.110546919882
 21
2740.42388822218
 31
0.0
  0
TEXT
  5
1CC2B
330
1C77F
100
AcDbEntity
  8
SUNPOU
100
AcDbText
 10
8574.110546919881
 20
2335.066745365034
 30
0.0
 40
90.0
  1
100
 50
90.0
 41
0.6666666666666666
  7
00
100
AcDbText
  0
LINE
  5
1CC2C
330
1C77F
100
AcDbEntity
  8
SUNPOU
100
AcDbLine
 10
8619.110546919882
 20
2569.173888222175
 30
0.0
 11
8619.110546919882
 21
2580.423888222175
 31
0.0
  0
LINE
  5
1CC2D
330
1C77F
100
AcDbEntity
  8
SUNPOU
100
AcDbLine
 10
8619.110546919882
 20
2706.67388822218
 30
0.0
 11
8619.110546919882
 21
2695.42388822218
 31
0.0
  0
TEXT
  5
1CC2E
330
1C77F
100
AcDbEntity
  8
SUNPOU
100
AcDbText
 10
8364.11054691988
 20
2921.981031079321
 30
0.0
 40
90.0
  1
564
 50
90.0
 41
0.6666666666666666
  7
00
100
AcDbText
  0
LINE
  5
1CC2F
330
1C77F
100
AcDbEntity
  8
SUNPOU
100
AcDbLine
 10
8409.110546919881
 20
2569.173888222175
 30
0.0
 11
8409.110546919881
 21
2580.423888222175
 31
0.0
  0
LINE
  5
1CC30
330
1C77F
100
AcDbEntity
  8
SUNPOU
100
AcDbLine
 10
8409.110546919881
 20
3449.073888222175
 30
0.0
 11
8409.110546919881
 21
3437.823888222176
 31
0.0
  0
TEXT
  5
1CC31
330
1C77F
100
AcDbEntity
  8
SUNPOU
100
AcDbText
 10
13186.74749427908
 20
3944.604656815706
 30
0.0
 40
90.0
  1
40
 50
90.0
 41
0.6666666666666666
  7
00
100
AcDbText
  0
LINE
  5
1CC32
330
1C77F
100
AcDbEntity
  8
SUNPOU
100
AcDbLine
 10
13231.74749427908
 20
3881.926085387133
 30
0.0
 11
13231.74749427908
 21
3870.676085387133
 31
0.0
  0
LINE
  5
1CC33
330
1C77F
100
AcDbEntity
  8
SUNPOU
100
AcDbLine
 10
13231.74749427908
 20
3744.426085387133
 30
0.0
 11
13231.74749427908
 21
3755.676085387133
 31
0.0
  0
TEXT
  5
1CC34
330
1C77F
100
AcDbEntity
  8
SUNPOU
100
AcDbText
 10
13186.74749427908
 20
3444.461799672849
 30
0.0
 40
90.0
  1
27
 50
90.0
 41
0.6666666666666666
  7
00
100
AcDbText
  0
LINE
  5
1CC35
330
1C77F
100
AcDbEntity
  8
SUNPOU
100
AcDbLine
 10
13231.74749427908
 20
3613.926085387133
 30
0.0
 11
13231.74749427908
 21
3602.676085387133
 31
0.0
  0
LINE
  5
1CC36
330
1C77F
100
AcDbEntity
  8
SUNPOU
100
AcDbLine
 10
13231.74749427908
 20
3744.426085387133
 30
0.0
 11
13231.74749427908
 21
3755.676085387133
 31
0.0
  0
TEXT
  5
1CC37
330
1C77F
100
AcDbEntity
  8
SUNPOU
100
AcDbText
 10
5670.994885254138
 20
2200.523888222173
 30
0.0
 40
90.0
  1
600
 41
0.6666666666666666
  7
00
100
AcDbText
  0
LINE
  5
1CC38
330
1C77F
100
AcDbEntity
  8
SUNPOU
100
AcDbLine
 10
6226.887742396995
 20
2155.523888222173
 30
0.0
 11
6215.637742396993
 21
2155.523888222173
 31
0.0
  0
LINE
  5
1CC39
330
1C77F
100
AcDbEntity
  8
SUNPOU
100
AcDbLine
 10
5289.387742396995
 20
2155.523888222173
 30
0.0
 11
5300.637742396994
 21
2155.523888222173
 31
0.0
  0
TEXT
  5
1CC3A
330
1C77F
100
AcDbEntity
  8
SUNPOU
100
AcDbText
 10
5672.423456682707
 20
1990.523888222173
 30
0.0
 40
90.0
  1
800
 41
0.6666666666666666
  7
00
100
AcDbText
  0
LINE
  5
1CC3B
330
1C77F
100
AcDbEntity
  8
SUNPOU
100
AcDbLine
 10
6386.887742396993
 20
1945.523888222172
 30
0.0
 11
6375.637742396992
 21
1945.523888222172
 31
0.0
  0
LINE
  5
1CC3C
330
1C77F
100
AcDbEntity
  8
SUNPOU
100
AcDbLine
 10
5129.387742396994
 20
1945.523888222172
 30
0.0
 11
5140.637742396994
 21
1945.523888222172
 31
0.0
  0
TEXT
  5
1CC3D
330
1C77F
100
AcDbEntity
  8
SUNPOU
100
AcDbText
 10
4373.784346396234
 20
3526.752459650748
 30
0.0
 40
90.0
  1
50
 50
90.0
 41
0.6666666666666666
  7
00
100
AcDbText
  0
LINE
  5
1CC3E
330
1C77F
100
AcDbEntity
  8
SUNPOU
100
AcDbLine
 10
4418.784346396234
 20
3471.573888222176
 30
0.0
 11
4418.784346396234
 21
3482.823888222176
 31
0.0
  0
LINE
  5
1CC3F
330
1C77F
100
AcDbEntity
  8
SUNPOU
100
AcDbLine
 10
4418.784346396234
 20
3369.073888222176
 30
0.0
 11
4418.784346396234
 21
3357.823888222176
 31
0.0
  0
TEXT
  5
1CC40
330
1C77F
100
AcDbEntity
  8
SUNPOU
100
AcDbText
 10
4793.784346396237
 20
3204.781031079315
 30
0.0
 40
90.0
  1
80
 50
90.0
 41
0.6666666666666666
  7
00
100
AcDbText
  0
LINE
  5
1CC41
330
1C77F
100
AcDbEntity
  8
SUNPOU
100
AcDbLine
 10
4838.784346396238
 20
3209.173888222169
 30
0.0
 11
4838.784346396238
 21
3220.423888222169
 31
0.0
  0
LINE
  5
1CC42
330
1C77F
100
AcDbEntity
  8
SUNPOU
100
AcDbLine
 10
4838.784346396238
 20
3314.673888222173
 30
0.0
 11
4838.784346396238
 21
3303.423888222173
 31
0.0
  0
TEXT
  5
1CC43
330
1C77F
100
AcDbEntity
  8
SUNPOU
100
AcDbText
 10
4793.784346396234
 20
3511.752459650749
 30
0.0
 40
90.0
  1
84
 50
90.0
 41
0.6666666666666666
  7
00
100
AcDbText
  0
LINE
  5
1CC44
330
1C77F
100
AcDbEntity
  8
SUNPOU
100
AcDbLine
 10
4838.784346396234
 20
3449.073888222175
 30
0.0
 11
4838.784346396234
 21
3437.823888222176
 31
0.0
  0
LINE
  5
1CC45
330
1C77F
100
AcDbEntity
  8
SUNPOU
100
AcDbLine
 10
4838.784346396234
 20
3337.173888222175
 30
0.0
 11
4838.784346396234
 21
3348.423888222175
 31
0.0
  0
TEXT
  5
1CC46
330
1C77F
100
AcDbEntity
  8
SUNPOU
100
AcDbText
 10
4793.784346396234
 20
2872.209602507888
 30
0.0
 40
90.0
  1
300
 50
90.0
 41
0.6666666666666666
  7
00
100
AcDbText
  0
LINE
  5
1CC47
330
1C77F
100
AcDbEntity
  8
SUNPOU
100
AcDbLine
 10
4838.784346396234
 20
3186.673888222171
 30
0.0
 11
4838.784346396234
 21
3175.423888222171
 31
0.0
  0
LINE
  5
1CC48
330
1C77F
100
AcDbEntity
  8
SUNPOU
100
AcDbLine
 10
4838.784346396234
 20
2729.173888222177
 30
0.0
 11
4838.784346396234
 21
2740.423888222177
 31
0.0
  0
TEXT
  5
1CC49
330
1C77F
100
AcDbEntity
  8
SUNPOU
100
AcDbText
 10
4793.784346396234
 20
2335.066745365034
 30
0.0
 40
90.0
  1
100
 50
90.0
 41
0.6666666666666666
  7
00
100
AcDbText
  0
LINE
  5
1CC4A
330
1C77F
100
AcDbEntity
  8
SUNPOU
100
AcDbLine
 10
4838.784346396234
 20
2569.173888222177
 30
0.0
 11
4838.784346396234
 21
2580.423888222177
 31
0.0
  0
LINE
  5
1CC4B
330
1C77F
100
AcDbEntity
  8
SUNPOU
100
AcDbLine
 10
4838.784346396234
 20
2706.673888222177
 30
0.0
 11
4838.784346396234
 21
2695.423888222177
 31
0.0
  0
TEXT
  5
1CC4C
330
1C77F
100
AcDbEntity
  8
SUNPOU
100
AcDbText
 10
4583.784346396234
 20
2921.981031079321
 30
0.0
 40
90.0
  1
564
 50
90.0
 41
0.6666666666666666
  7
00
100
AcDbText
  0
LINE
  5
1CC4D
330
1C77F
100
AcDbEntity
  8
SUNPOU
100
AcDbLine
 10
4628.784346396234
 20
2569.173888222177
 30
0.0
 11
4628.784346396234
 21
2580.423888222177
 31
0.0
  0
LINE
  5
1CC4E
330
1C77F
100
AcDbEntity
  8
SUNPOU
100
AcDbLine
 10
4628.784346396234
 20
3449.073888222175
 30
0.0
 11
4628.784346396234
 21
3437.823888222176
 31
0.0
  0
TEXT
  5
1CC4F
330
1C77F
100
AcDbEntity
  8
SUNPOU
100
AcDbText
 10
5352.42345668271
 20
4182.324460358763
 30
0.0
 40
90.0
  1
400
 41
0.6666666666666666
  7
00
100
AcDbText
  0
LINE
  5
1CC50
330
1C77F
100
AcDbEntity
  8
SUNPOU
100
AcDbLine
 10
5129.387742396995
 20
4137.324460358764
 30
0.0
 11
5140.637742396997
 21
4137.324460358764
 31
0.0
  0
LINE
  5
1CC51
330
1C77F
100
AcDbEntity
  8
SUNPOU
100
AcDbLine
 10
5746.887742396993
 20
4137.324460358764
 30
0.0
 11
5735.637742396995
 21
4137.324460358764
 31
0.0
  0
TEXT
  5
1CC52
330
1C77F
100
AcDbEntity
  8
SUNPOU
100
AcDbText
 10
12886.10763662019
 20
2297.644025518658
 30
0.0
 40
90.0
  1
20
 41
0.6666666666666666
  7
00
100
AcDbText
  0
LINE
  5
1CC53
330
1C77F
100
AcDbEntity
  8
SUNPOU
100
AcDbLine
 10
12830.92906519162
 20
2252.644025518658
 30
0.0
 11
12842.17906519162
 21
2252.644025518658
 31
0.0
  0
LINE
  5
1CC54
330
1C77F
100
AcDbEntity
  8
SUNPOU
100
AcDbLine
 10
12728.42906519162
 20
2252.644025518658
 30
0.0
 11
12717.17906519162
 21
2252.644025518658
 31
0.0
  0
TEXT
  5
1CC55
330
1C77F
100
AcDbEntity
  8
SUNPOU
100
AcDbText
 10
12409.67906519163
 20
2297.644025518658
 30
0.0
 40
90.0
  1
120
 41
0.6666666666666666
  7
00
100
AcDbText
  0
LINE
  5
1CC56
330
1C77F
100
AcDbEntity
  8
SUNPOU
100
AcDbLine
 10
12728.42906519162
 20
2252.644025518658
 30
0.0
 11
12717.17906519162
 21
2252.644025518658
 31
0.0
  0
LINE
  5
1CC57
330
1C77F
100
AcDbEntity
  8
SUNPOU
100
AcDbLine
 10
12270.92906519164
 20
2252.644025518658
 30
0.0
 11
12282.17906519164
 21
2252.644025518658
 31
0.0
  0
TEXT
  5
1CC58
330
1C77F
100
AcDbEntity
  8
SUNPOU
100
AcDbText
 10
11998.96477947731
 20
2297.644025518658
 30
0.0
 40
90.0
  1
20
 41
0.6666666666666666
  7
00
100
AcDbText
  0
LINE
  5
1CC59
330
1C77F
100
AcDbEntity
  8
SUNPOU
100
AcDbLine
 10
12168.42906519162
 20
2252.644025518658
 30
0.0
 11
12157.17906519162
 21
2252.644025518658
 31
0.0
  0
LINE
  5
1CC5A
330
1C77F
100
AcDbEntity
  8
SUNPOU
100
AcDbLine
 10
12270.92906519164
 20
2252.644025518658
 30
0.0
 11
12282.17906519164
 21
2252.644025518658
 31
0.0
  0
TEXT
  5
1CC5B
330
1C77F
100
AcDbEntity
  8
SUNPOU
100
AcDbText
 10
12409.67906519162
 20
2087.644025518657
 30
0.0
 40
90.0
  1
160
 41
0.6666666666666666
  7
00
100
AcDbText
  0
LINE
  5
1CC5C
330
1C77F
100
AcDbEntity
  8
SUNPOU
100
AcDbLine
 10
12808.42906519162
 20
2042.644025518657
 30
0.0
 11
12797.17906519162
 21
2042.644025518657
 31
0.0
  0
LINE
  5
1CC5D
330
1C77F
100
AcDbEntity
  8
SUNPOU
100
AcDbLine
 10
12190.92906519162
 20
2042.644025518657
 30
0.0
 11
12202.17906519162
 21
2042.644025518657
 31
0.0
  0
TEXT
  5
1CC5E
330
1C77F
100
AcDbEntity
  8
SUNPOU
100
AcDbText
 10
11831.67906519162
 20
2381.269107141437
 30
0.0
 40
90.0
  1
40
 50
90.0
 41
0.6666666666666666
  7
00
100
AcDbText
  0
LINE
  5
1CC5F
330
1C77F
100
AcDbEntity
  8
SUNPOU
100
AcDbLine
 10
11876.67906519162
 20
2558.23339285572
 30
0.0
 11
11876.67906519162
 21
2569.483392855721
 31
0.0
  0
LINE
  5
1CC60
330
1C77F
100
AcDbEntity
  8
SUNPOU
100
AcDbLine
 10
11876.67906519162
 20
2695.733392855721
 30
0.0
 11
11876.67906519162
 21
2684.483392855721
 31
0.0
  0
TEXT
  5
1CC61
330
1C77F
100
AcDbEntity
  8
SUNPOU
100
AcDbText
 10
11831.67906519162
 20
2918.411964284295
 30
0.0
 40
90.0
  1
40
 50
90.0
 41
0.6666666666666666
  7
00
100
AcDbText
  0
LINE
  5
1CC62
330
1C77F
100
AcDbEntity
  8
SUNPOU
100
AcDbLine
 10
11876.67906519162
 20
2855.733392855721
 30
0.0
 11
11876.67906519162
 21
2844.483392855721
 31
0.0
  0
LINE
  5
1CC63
330
1C77F
100
AcDbEntity
  8
SUNPOU
100
AcDbLine
 10
11876.67906519162
 20
2718.23339285572
 30
0.0
 11
11876.67906519162
 21
2729.483392855721
 31
0.0
  0
TEXT
  5
1CC64
330
1C77F
100
AcDbEntity
  8
SUNPOU
100
AcDbText
 10
11621.67906519162
 20
2649.840535712867
 30
0.0
 40
90.0
  1
80
 50
90.0
 41
0.6666666666666666
  7
00
100
AcDbText
  0
LINE
  5
1CC65
330
1C77F
100
AcDbEntity
  8
SUNPOU
100
AcDbLine
 10
11666.67906519162
 20
2855.733392855721
 30
0.0
 11
11666.67906519162
 21
2844.483392855721
 31
0.0
  0
LINE
  5
1CC66
330
1C77F
100
AcDbEntity
  8
SUNPOU
100
AcDbLine
 10
11666.67906519162
 20
2558.23339285572
 30
0.0
 11
11666.67906519162
 21
2569.483392855721
 31
0.0
  0
TEXT
  5
1CC67
330
1C77F
100
AcDbEntity
  8
SUNPOU
100
AcDbText
 10
12886.10763662019
 20
3446.009911457631
 30
0.0
 40
90.0
  1
20
 41
0.6666666666666666
  7
00
100
AcDbText
  0
LINE
  5
1CC68
330
1C77F
100
AcDbEntity
  8
SUNPOU
100
AcDbLine
 10
12830.92906519162
 20
3401.009911457631
 30
0.0
 11
12842.17906519162
 21
3401.009911457631
 31
0.0
  0
LINE
  5
1CC69
330
1C77F
100
AcDbEntity
  8
SUNPOU
100
AcDbLine
 10
12728.42906519162
 20
3401.009911457631
 30
0.0
 11
12717.17906519162
 21
3401.009911457631
 31
0.0
  0
TEXT
  5
1CC6A
330
1C77F
100
AcDbEntity
  8
SUNPOU
100
AcDbText
 10
12409.67906519163
 20
3446.009911457631
 30
0.0
 40
90.0
  1
120
 41
0.6666666666666666
  7
00
100
AcDbText
  0
LINE
  5
1CC6B
330
1C77F
100
AcDbEntity
  8
SUNPOU
100
AcDbLine
 10
12728.42906519162
 20
3401.009911457631
 30
0.0
 11
12717.17906519162
 21
3401.009911457631
 31
0.0
  0
LINE
  5
1CC6C
330
1C77F
100
AcDbEntity
  8
SUNPOU
100
AcDbLine
 10
12270.92906519164
 20
3401.009911457631
 30
0.0
 11
12282.17906519164
 21
3401.009911457631
 31
0.0
  0
TEXT
  5
1CC6D
330
1C77F
100
AcDbEntity
  8
SUNPOU
100
AcDbText
 10
11998.96477947731
 20
3446.009911457631
 30
0.0
 40
90.0
  1
20
 41
0.6666666666666666
  7
00
100
AcDbText
  0
LINE
  5
1CC6E
330
1C77F
100
AcDbEntity
  8
SUNPOU
100
AcDbLine
 10
12168.42906519162
 20
3401.009911457631
 30
0.0
 11
12157.17906519162
 21
3401.009911457631
 31
0.0
  0
LINE
  5
1CC6F
330
1C77F
100
AcDbEntity
  8
SUNPOU
100
AcDbLine
 10
12270.92906519164
 20
3401.009911457631
 30
0.0
 11
12282.17906519164
 21
3401.009911457631
 31
0.0
  0
TEXT
  5
1CC70
330
1C77F
100
AcDbEntity
  8
SUNPOU
100
AcDbText
 10
12409.67906519162
 20
3236.00991145763
 30
0.0
 40
90.0
  1
160
 41
0.6666666666666666
  7
00
100
AcDbText
  0
LINE
  5
1CC71
330
1C77F
100
AcDbEntity
  8
SUNPOU
100
AcDbLine
 10
12808.42906519162
 20
3191.00991145763
 30
0.0
 11
12797.17906519162
 21
3191.00991145763
 31
0.0
  0
LINE
  5
1CC72
330
1C77F
100
AcDbEntity
  8
SUNPOU
100
AcDbLine
 10
12190.92906519162
 20
3191.00991145763
 30
0.0
 11
12202.17906519162
 21
3191.00991145763
 31
0.0
  0
TEXT
  5
1CC73
330
1C77F
100
AcDbEntity
  8
SUNPOU
100
AcDbText
 10
12389.21703198605
 20
9360.001074758967
 30
0.0
 40
90.0
  1
300
 50
90.0
 41
0.6666666666666666
  7
00
100
AcDbText
  0
LINE
  5
1CC74
330
1C77F
100
AcDbEntity
  8
SUNPOU
100
AcDbLine
 10
12434.21703198606
 20
9584.465360473252
 30
0.0
 11
12434.21703198606
 21
9573.21536047325
 31
0.0
  0
LINE
  5
1CC75
330
1C77F
100
AcDbEntity
  8
SUNPOU
100
AcDbLine
 10
12434.21703198606
 20
9306.965360473252
 30
0.0
 11
12434.21703198606
 21
9318.215360473251
 31
0.0
  0
TEXT
  5
1CC76
330
1C77F
100
AcDbEntity
  8
SUNPOU
100
AcDbText
 10
12389.21703198605
 20
8277.143931901829
 30
0.0
 40
90.0
  1
1800
 50
90.0
 41
0.6666666666666666
  7
00
100
AcDbText
  0
LINE
  5
1CC77
330
1C77F
100
AcDbEntity
  8
SUNPOU
100
AcDbLine
 10
12434.21703198606
 20
9284.465360473253
 30
0.0
 11
12434.21703198606
 21
9273.215360473249
 31
0.0
  0
LINE
  5
1CC78
330
1C77F
100
AcDbEntity
  8
SUNPOU
100
AcDbLine
 10
12434.21703198606
 20
7506.965360473255
 30
0.0
 11
12434.21703198606
 21
7518.215360473253
 31
0.0
  0
TEXT
  5
1CC79
330
1C77F
100
AcDbEntity
  8
SUNPOU
100
AcDbText
 10
12389.21703198605
 20
6477.143931901827
 30
0.0
 40
90.0
  1
1800
 50
90.0
 41
0.6666666666666666
  7
00
100
AcDbText
  0
LINE
  5
1CC7A
330
1C77F
100
AcDbEntity
  8
SUNPOU
100
AcDbLine
 10
12434.21703198606
 20
7484.465360473253
 30
0.0
 11
12434.21703198606
 21
7473.215360473253
 31
0.0
  0
LINE
  5
1CC7B
330
1C77F
100
AcDbEntity
  8
SUNPOU
100
AcDbLine
 10
12434.21703198606
 20
5706.965360473253
 30
0.0
 11
12434.21703198606
 21
5718.215360473253
 31
0.0
  0
TEXT
  5
1CC7C
330
1C77F
100
AcDbEntity
  8
SUNPOU
100
AcDbText
 10
12389.21703198605
 20
5460.001074758969
 30
0.0
 40
90.0
  1
300
 50
90.0
 41
0.6666666666666666
  7
00
100
AcDbText
  0
LINE
  5
1CC7D
330
1C77F
100
AcDbEntity
  8
SUNPOU
100
AcDbLine
 10
12434.21703198606
 20
5684.465360473253
 30
0.0
 11
12434.21703198606
 21
5673.215360473253
 31
0.0
  0
LINE
  5
1CC7E
330
1C77F
100
AcDbEntity
  8
SUNPOU
100
AcDbLine
 10
12434.21703198606
 20
5406.965360473253
 30
0.0
 11
12434.21703198606
 21
5418.215360473253
 31
0.0
  0
TEXT
  5
1CC7F
330
1C77F
100
AcDbEntity
  8
SUNPOU
100
AcDbText
 10
12599.21703198606
 20
7381.42964618754
 30
0.0
 40
90.0
  1
4200
 50
90.0
 41
0.6666666666666666
  7
00
100
AcDbText
  0
LINE
  5
1CC80
330
1C77F
100
AcDbEntity
  8
SUNPOU
100
AcDbLine
 10
12644.21703198606
 20
9584.465360473252
 30
0.0
 11
12644.21703198606
 21
9573.21536047325
 31
0.0
  0
LINE
  5
1CC81
330
1C77F
100
AcDbEntity
  8
SUNPOU
100
AcDbLine
 10
12644.21703198606
 20
5406.965360473253
 30
0.0
 11
12644.21703198606
 21
5418.215360473253
 31
0.0
  0
TEXT
  5
1CC82
330
1C77F
100
AcDbEntity
  8
SUNPOU
100
AcDbText
 10
9389.21703198606
 20
5608.572503330398
 30
0.0
 40
90.0
  1
600
 50
90.0
 41
0.6666666666666666
  7
00
100
AcDbText
  0
LINE
  5
1CC83
330
1C77F
100
AcDbEntity
  8
SUNPOU
100
AcDbLine
 10
9434.21703198606
 20
5406.965360473254
 30
0.0
 11
9434.21703198606
 21
5418.215360473254
 31
0.0
  0
LINE
  5
1CC84
330
1C77F
100
AcDbEntity
  8
SUNPOU
100
AcDbLine
 10
9434.21703198606
 20
5984.465360473254
 30
0.0
 11
9434.21703198606
 21
5973.215360473255
 31
0.0
  0
ARC
  5
1CC85
330
1C77F
100
AcDbEntity
  8
SUNPOU
100
AcDbCircle
 10
7534.217031986059
 20
9995.715360473253
 30
0.0
 40
5.625
100
AcDbArc
 50
0.0
 51
180.0
  0
ARC
  5
1CC86
330
1C77F
100
AcDbEntity
  8
SUNPOU
100
AcDbCircle
 10
7534.217031986059
 20
9995.715360473253
 30
0.0
 40
5.625
100
AcDbArc
 50
180.0
 51
0.0
  0
ARC
  5
1CC87
330
1C77F
100
AcDbEntity
  8
SUNPOU
100
AcDbCircle
 10
8834.21703198606
 20
9995.715360473253
 30
0.0
 40
5.625
100
AcDbArc
 50
180.0
 51
0.0
  0
ARC
  5
1CC88
330
1C77F
100
AcDbEntity
  8
SUNPOU
100
AcDbCircle
 10
8834.21703198606
 20
9995.715360473253
 30
0.0
 40
5.625
100
AcDbArc
 50
0.0
 51
180.0
  0
TEXT
  5
1CC89
330
1C77F
100
AcDbEntity
  8
SUNPOU
100
AcDbText
 10
7720.502746271773
 20
10250.71536047325
 30
0.0
 40
90.0
  1
L = 2800 x N + 800
 41
0.6666666666666666
  7
00
100
AcDbText
  0
LINE
  5
1CC8A
330
1C77F
100
AcDbEntity
  8
SUNPOU
100
AcDbLine
 10
12022.96703198606
 20
10205.71536047325
 30
0.0
 11
12011.71703198606
 21
10205.71536047325
 31
0.0
  0
LINE
  5
1CC8B
330
1C77F
100
AcDbEntity
  8
SUNPOU
100
AcDbLine
 10
4345.46703198606
 20
10205.71536047325
 30
0.0
 11
4356.71703198606
 21
10205.71536047325
 31
0.0
  0
TEXT
  5
1CC8C
330
1C77F
100
AcDbEntity
  8
SUNPOU
100
AcDbText
 10
6019.931317700345
 20
10040.71536047325
 30
0.0
 40
90.0
  1
2800
 41
0.6666666666666666
  7
00
100
AcDbText
  0
LINE
  5
1CC8D
330
1C77F
100
AcDbEntity
  8
SUNPOU
100
AcDbLine
 10
4745.467031986058
 20
9995.715360473253
 30
0.0
 11
4756.71703198606
 21
9995.715360473253
 31
0.0
  0
LINE
  5
1CC8E
330
1C77F
100
AcDbEntity
  8
SUNPOU
100
AcDbLine
 10
7522.96703198606
 20
9995.715360473253
 30
0.0
 11
7511.71703198606
 21
9995.715360473253
 31
0.0
  0
TEXT
  5
1CC8F
330
1C77F
100
AcDbEntity
  8
SUNPOU
100
AcDbText
 10
10119.93131770034
 20
10040.71536047325
 30
0.0
 40
90.0
  1
2800
 41
0.6666666666666666
  7
00
100
AcDbText
  0
LINE
  5
1CC90
330
1C77F
100
AcDbEntity
  8
SUNPOU
100
AcDbLine
 10
8845.467031986059
 20
9995.715360473253
 30
0.0
 11
8856.717031986059
 21
9995.715360473253
 31
0.0
  0
LINE
  5
1CC91
330
1C77F
100
AcDbEntity
  8
SUNPOU
100
AcDbLine
 10
11622.96703198606
 20
9995.715360473253
 30
0.0
 11
11611.71703198605
 21
9995.715360473253
 31
0.0
  0
TEXT
  5
1CC92
330
1C77F
100
AcDbEntity
  8
SUNPOU
100
AcDbText
 10
4448.502746271774
 20
10040.71536047325
 30
0.0
 40
90.0
  1
400
 41
0.6666666666666666
  7
00
100
AcDbText
  0
LINE
  5
1CC93
330
1C77F
100
AcDbEntity
  8
SUNPOU
100
AcDbLine
 10
4345.46703198606
 20
9995.715360473253
 30
0.0
 11
4356.71703198606
 21
9995.715360473253
 31
0.0
  0
LINE
  5
1CC94
330
1C77F
100
AcDbEntity
  8
SUNPOU
100
AcDbLine
 10
4722.967031986057
 20
9995.715360473253
 30
0.0
 11
4711.71703198606
 21
9995.715360473253
 31
0.0
  0
TEXT
  5
1CC95
330
1C77F
100
AcDbEntity
  8
SUNPOU
100
AcDbText
 10
11748.50274627176
 20
10040.71536047325
 30
0.0
 40
90.0
  1
400
 41
0.6666666666666666
  7
00
100
AcDbText
  0
LINE
  5
1CC96
330
1C77F
100
AcDbEntity
  8
SUNPOU
100
AcDbLine
 10
12022.96703198606
 20
9995.715360473253
 30
0.0
 11
12011.71703198606
 21
9995.715360473253
 31
0.0
  0
LINE
  5
1CC97
330
1C77F
100
AcDbEntity
  8
SUNPOU
100
AcDbLine
 10
11645.46703198606
 20
9995.715360473253
 30
0.0
 11
11656.71703198606
 21
9995.715360473253
 31
0.0
  0
TEXT
  5
1CC98
330
1C77F
100
AcDbEntity
  8
SUNPOU
100
AcDbText
 10
6889.21703198606
 20
9208.572503330399
 30
0.0
 40
90.0
  1
600
 50
90.0
 41
0.6666666666666666
  7
00
100
AcDbText
  0
LINE
  5
1CC99
330
1C77F
100
AcDbEntity
  8
SUNPOU
100
AcDbLine
 10
6934.21703198606
 20
9006.96536047325
 30
0.0
 11
6934.21703198606
 21
9018.215360473252
 31
0.0
  0
LINE
  5
1CC9A
330
1C77F
100
AcDbEntity
  8
SUNPOU
100
AcDbLine
 10
6934.21703198606
 20
9584.465360473252
 30
0.0
 11
6934.21703198606
 21
9573.215360473252
 31
0.0
  0
TEXT
  5
1CC9B
330
1C77F
100
AcDbEntity
  8
SUNPOU
100
AcDbText
 10
7447.074174843203
 20
8740.715360473251
 30
0.0
 40
90.0
  1
600
 41
0.6666666666666666
  7
00
100
AcDbText
  0
LINE
  5
1CC9C
330
1C77F
100
AcDbEntity
  8
SUNPOU
100
AcDbLine
 10
7822.96703198606
 20
8695.715360473251
 30
0.0
 11
7811.71703198606
 21
8695.715360473251
 31
0.0
  0
LINE
  5
1CC9D
330
1C77F
100
AcDbEntity
  8
SUNPOU
100
AcDbLine
 10
7245.467031986058
 20
8695.715360473251
 30
0.0
 11
7256.71703198606
 21
8695.715360473251
 31
0.0
  0
TEXT
  5
1CC9E
330
1C77F
100
AcDbEntity
  8
SUNPOU
100
AcDbText
 10
8747.074174843204
 20
6290.715360473253
 30
0.0
 40
90.0
  1
600
 41
0.6666666666666666
  7
00
100
AcDbText
  0
LINE
  5
1CC9F
330
1C77F
100
AcDbEntity
  8
SUNPOU
100
AcDbLine
 10
9122.96703198606
 20
6245.715360473253
 30
0.0
 11
9111.71703198606
 21
6245.715360473253
 31
0.0
  0
LINE
  5
1CCA0
330
1C77F
100
AcDbEntity
  8
SUNPOU
100
AcDbLine
 10
8545.46703198606
 20
6245.715360473253
 30
0.0
 11
8556.717031986059
 21
6245.715360473253
 31
0.0
  0
TEXT
  5
1CCA1
330
1C77F
100
AcDbEntity
  8
SUNPOU
100
AcDbText
 10
8748.502746271773
 20
8110.715360473252
 30
0.0
 40
90.0
  1
800
 41
0.6666666666666666
  7
00
100
AcDbText
  0
LINE
  5
1CCA2
330
1C77F
100
AcDbEntity
  8
SUNPOU
100
AcDbLine
 10
9222.96703198606
 20
8065.715360473253
 30
0.0
 11
9211.71703198606
 21
8065.715360473253
 31
0.0
  0
LINE
  5
1CCA3
330
1C77F
100
AcDbEntity
  8
SUNPOU
100
AcDbLine
 10
8445.46703198606
 20
8065.715360473253
 30
0.0
 11
8456.717031986059
 21
8065.715360473253
 31
0.0
  0
TEXT
  5
1CCA4
330
1C77F
100
AcDbEntity
  8
SUNPOU
100
AcDbText
 10
9389.21703198606
 20
7410.001074758969
 30
0.0
 40
90.0
  1
800
 50
90.0
 41
0.6666666666666666
  7
00
100
AcDbText
  0
LINE
  5
1CCA5
330
1C77F
100
AcDbEntity
  8
SUNPOU
100
AcDbLine
 10
9434.21703198606
 20
7106.965360473253
 30
0.0
 11
9434.21703198606
 21
7118.215360473254
 31
0.0
  0
LINE
  5
1CCA6
330
1C77F
100
AcDbEntity
  8
SUNPOU
100
AcDbLine
 10
9434.21703198606
 20
7884.465360473253
 30
0.0
 11
9434.21703198606
 21
7873.215360473253
 31
0.0
  0
ARC
  5
1CCA7
330
1C77F
100
AcDbEntity
  8
SUNPOU
100
AcDbCircle
 10
10178.46394292064
 20
2155.523888222176
 30
0.0
 40
5.625
100
AcDbArc
 50
180.0
 51
0.0
  0
ARC
  5
1CCA8
330
1C77F
100
AcDbEntity
  8
SUNPOU
100
AcDbCircle
 10
10178.46394292064
 20
2155.523888222176
 30
0.0
 40
5.625
100
AcDbArc
 50
0.0
 51
180.0
  0
ARC
  5
1CCA9
330
1C77F
100
AcDbEntity
  8
SUNPOU
100
AcDbCircle
 10
8898.463942920646
 20
2155.523888222176
 30
0.0
 40
5.625
100
AcDbArc
 50
0.0
 51
180.0
  0
ARC
  5
1CCAA
330
1C77F
100
AcDbEntity
  8
SUNPOU
100
AcDbCircle
 10
8898.463942920646
 20
2155.523888222176
 30
0.0
 40
5.625
100
AcDbArc
 50
180.0
 51
0.0
  0
ARC
  5
1CCAB
330
1C77F
100
AcDbEntity
  8
SUNPOU
100
AcDbCircle
 10
10338.46394292064
 20
1945.523888222177
 30
0.0
 40
5.625
100
AcDbArc
 50
180.0
 51
0.0
  0
ARC
  5
1CCAC
330
1C77F
100
AcDbEntity
  8
SUNPOU
100
AcDbCircle
 10
10338.46394292064
 20
1945.523888222177
 30
0.0
 40
5.625
100
AcDbArc
 50
0.0
 51
180.0
  0
ARC
  5
1CCAD
330
1C77F
100
AcDbEntity
  8
SUNPOU
100
AcDbCircle
 10
8738.46394292064
 20
1945.523888222177
 30
0.0
 40
5.625
100
AcDbArc
 50
0.0
 51
180.0
  0
ARC
  5
1CCAE
330
1C77F
100
AcDbEntity
  8
SUNPOU
100
AcDbCircle
 10
8738.46394292064
 20
1945.523888222177
 30
0.0
 40
5.625
100
AcDbArc
 50
180.0
 51
0.0
  0
ARC
  5
1CCAF
330
1C77F
100
AcDbEntity
  8
SUNPOU
100
AcDbCircle
 10
8619.110546919882
 20
3197.923888222172
 30
0.0
 40
5.625
100
AcDbArc
 50
90.0
 51
270.0
  0
ARC
  5
1CCB0
330
1C77F
100
AcDbEntity
  8
SUNPOU
100
AcDbCircle
 10
8619.110546919882
 20
3197.923888222172
 30
0.0
 40
5.625
100
AcDbArc
 50
270.0
 51
90.0
  0
ARC
  5
1CCB1
330
1C77F
100
AcDbEntity
  8
SUNPOU
100
AcDbCircle
 10
8619.110546919882
 20
3325.923888222177
 30
0.0
 40
5.625
100
AcDbArc
 50
270.0
 51
90.0
  0
ARC
  5
1CCB2
330
1C77F
100
AcDbEntity
  8
SUNPOU
100
AcDbCircle
 10
8619.110546919882
 20
3325.923888222177
 30
0.0
 40
5.625
100
AcDbArc
 50
90.0
 51
270.0
  0
ARC
  5
1CCB3
330
1C77F
100
AcDbEntity
  8
SUNPOU
100
AcDbCircle
 10
8619.110546919882
 20
3460.323888222177
 30
0.0
 40
5.625
100
AcDbArc
 50
270.0
 51
90.0
  0
ARC
  5
1CCB4
330
1C77F
100
AcDbEntity
  8
SUNPOU
100
AcDbCircle
 10
8619.110546919882
 20
3460.323888222177
 30
0.0
 40
5.625
100
AcDbArc
 50
90.0
 51
270.0
  0
ARC
  5
1CCB5
330
1C77F
100
AcDbEntity
  8
SUNPOU
100
AcDbCircle
 10
8619.110546919882
 20
3325.923888222175
 30
0.0
 40
5.625
100
AcDbArc
 50
90.0
 51
270.0
  0
ARC
  5
1CCB6
330
1C77F
100
AcDbEntity
  8
SUNPOU
100
AcDbCircle
 10
8619.110546919882
 20
3325.923888222175
 30
0.0
 40
5.625
100
AcDbArc
 50
270.0
 51
90.0
  0
ARC
  5
1CCB7
330
1C77F
100
AcDbEntity
  8
SUNPOU
100
AcDbCircle
 10
8619.110546919882
 20
3197.923888222172
 30
0.0
 40
5.625
100
AcDbArc
 50
270.0
 51
90.0
  0
ARC
  5
1CCB8
330
1C77F
100
AcDbEntity
  8
SUNPOU
100
AcDbCircle
 10
8619.110546919882
 20
3197.923888222172
 30
0.0
 40
5.625
100
AcDbArc
 50
90.0
 51
270.0
  0
ARC
  5
1CCB9
330
1C77F
100
AcDbEntity
  8
SUNPOU
100
AcDbCircle
 10
8619.110546919882
 20
2717.92388822218
 30
0.0
 40
5.625
100
AcDbArc
 50
90.0
 51
270.0
  0
ARC
  5
1CCBA
330
1C77F
100
AcDbEntity
  8
SUNPOU
100
AcDbCircle
 10
8619.110546919882
 20
2717.92388822218
 30
0.0
 40
5.625
100
AcDbArc
 50
270.0
 51
90.0
  0
ARC
  5
1CCBB
330
1C77F
100
AcDbEntity
  8
SUNPOU
100
AcDbCircle
 10
8619.110546919882
 20
2557.923888222175
 30
0.0
 40
5.625
100
AcDbArc
 50
90.0
 51
270.0
  0
ARC
  5
1CCBC
330
1C77F
100
AcDbEntity
  8
SUNPOU
100
AcDbCircle
 10
8619.110546919882
 20
2557.923888222175
 30
0.0
 40
5.625
100
AcDbArc
 50
270.0
 51
90.0
  0
ARC
  5
1CCBD
330
1C77F
100
AcDbEntity
  8
SUNPOU
100
AcDbCircle
 10
8619.110546919882
 20
2717.92388822218
 30
0.0
 40
5.625
100
AcDbArc
 50
270.0
 51
90.0
  0
ARC
  5
1CCBE
330
1C77F
100
AcDbEntity
  8
SUNPOU
100
AcDbCircle
 10
8619.110546919882
 20
2717.92388822218
 30
0.0
 40
5.625
100
AcDbArc
 50
90.0
 51
270.0
  0
ARC
  5
1CCBF
330
1C77F
100
AcDbEntity
  8
SUNPOU
100
AcDbCircle
 10
8409.110546919881
 20
2557.923888222175
 30
0.0
 40
5.625
100
AcDbArc
 50
90.0
 51
270.0
  0
ARC
  5
1CCC0
330
1C77F
100
AcDbEntity
  8
SUNPOU
100
AcDbCircle
 10
8409.110546919881
 20
2557.923888222175
 30
0.0
 40
5.625
100
AcDbArc
 50
270.0
 51
90.0
  0
ARC
  5
1CCC1
330
1C77F
100
AcDbEntity
  8
SUNPOU
100
AcDbCircle
 10
8409.110546919881
 20
3460.323888222177
 30
0.0
 40
5.625
100
AcDbArc
 50
270.0
 51
90.0
  0
ARC
  5
1CCC2
330
1C77F
100
AcDbEntity
  8
SUNPOU
100
AcDbCircle
 10
8409.110546919881
 20
3460.323888222177
 30
0.0
 40
5.625
100
AcDbArc
 50
90.0
 51
270.0
  0
ARC
  5
1CCC3
330
1C77F
100
AcDbEntity
  8
SUNPOU
100
AcDbCircle
 10
13231.74749427908
 20
3893.176085387133
 30
0.0
 40
5.625
100
AcDbArc
 50
270.0
 51
90.0
  0
ARC
  5
1CCC4
330
1C77F
100
AcDbEntity
  8
SUNPOU
100
AcDbCircle
 10
13231.74749427908
 20
3893.176085387133
 30
0.0
 40
5.625
100
AcDbArc
 50
90.0
 51
270.0
  0
ARC
  5
1CCC5
330
1C77F
100
AcDbEntity
  8
SUNPOU
100
AcDbCircle
 10
13231.74749427908
 20
3733.176085387134
 30
0.0
 40
5.625
100
AcDbArc
 50
90.0
 51
270.0
  0
ARC
  5
1CCC6
330
1C77F
100
AcDbEntity
  8
SUNPOU
100
AcDbCircle
 10
13231.74749427908
 20
3733.176085387134
 30
0.0
 40
5.625
100
AcDbArc
 50
270.0
 51
90.0
  0
ARC
  5
1CCC7
330
1C77F
100
AcDbEntity
  8
SUNPOU
100
AcDbCircle
 10
13231.74749427908
 20
3625.176085387133
 30
0.0
 40
5.625
100
AcDbArc
 50
270.0
 51
90.0
  0
ARC
  5
1CCC8
330
1C77F
100
AcDbEntity
  8
SUNPOU
100
AcDbCircle
 10
13231.74749427908
 20
3625.176085387133
 30
0.0
 40
5.625
100
AcDbArc
 50
90.0
 51
270.0
  0
ARC
  5
1CCC9
330
1C77F
100
AcDbEntity
  8
SUNPOU
100
AcDbCircle
 10
13231.74749427908
 20
3733.176085387134
 30
0.0
 40
5.625
100
AcDbArc
 50
90.0
 51
270.0
  0
ARC
  5
1CCCA
330
1C77F
100
AcDbEntity
  8
SUNPOU
100
AcDbCircle
 10
13231.74749427908
 20
3733.176085387134
 30
0.0
 40
5.625
100
AcDbArc
 50
270.0
 51
90.0
  0
ARC
  5
1CCCB
330
1C77F
100
AcDbEntity
  8
SUNPOU
100
AcDbCircle
 10
6238.137742396993
 20
2155.523888222173
 30
0.0
 40
5.625
100
AcDbArc
 50
180.0
 51
0.0
  0
ARC
  5
1CCCC
330
1C77F
100
AcDbEntity
  8
SUNPOU
100
AcDbCircle
 10
6238.137742396993
 20
2155.523888222173
 30
0.0
 40
5.625
100
AcDbArc
 50
0.0
 51
180.0
  0
ARC
  5
1CCCD
330
1C77F
100
AcDbEntity
  8
SUNPOU
100
AcDbCircle
 10
5278.137742396994
 20
2155.523888222173
 30
0.0
 40
5.625
100
AcDbArc
 50
0.0
 51
180.0
  0
ARC
  5
1CCCE
330
1C77F
100
AcDbEntity
  8
SUNPOU
100
AcDbCircle
 10
5278.137742396994
 20
2155.523888222173
 30
0.0
 40
5.625
100
AcDbArc
 50
180.0
 51
0.0
  0
ARC
  5
1CCCF
330
1C77F
100
AcDbEntity
  8
SUNPOU
100
AcDbCircle
 10
6398.137742396992
 20
1945.523888222172
 30
0.0
 40
5.625
100
AcDbArc
 50
180.0
 51
0.0
  0
ARC
  5
1CCD0
330
1C77F
100
AcDbEntity
  8
SUNPOU
100
AcDbCircle
 10
6398.137742396992
 20
1945.523888222172
 30
0.0
 40
5.625
100
AcDbArc
 50
0.0
 51
180.0
  0
ARC
  5
1CCD1
330
1C77F
100
AcDbEntity
  8
SUNPOU
100
AcDbCircle
 10
5118.137742396992
 20
1945.523888222172
 30
0.0
 40
5.625
100
AcDbArc
 50
0.0
 51
180.0
  0
ARC
  5
1CCD2
330
1C77F
100
AcDbEntity
  8
SUNPOU
100
AcDbCircle
 10
5118.137742396992
 20
1945.523888222172
 30
0.0
 40
5.625
100
AcDbArc
 50
180.0
 51
0.0
  0
ARC
  5
1CCD3
330
1C77F
100
AcDbEntity
  8
SUNPOU
100
AcDbCircle
 10
4418.784346396234
 20
3460.323888222177
 30
0.0
 40
5.625
100
AcDbArc
 50
90.0
 51
270.0
  0
ARC
  5
1CCD4
330
1C77F
100
AcDbEntity
  8
SUNPOU
100
AcDbCircle
 10
4418.784346396234
 20
3460.323888222177
 30
0.0
 40
5.625
100
AcDbArc
 50
270.0
 51
90.0
  0
ARC
  5
1CCD5
330
1C77F
100
AcDbEntity
  8
SUNPOU
100
AcDbCircle
 10
4418.784346396234
 20
3380.323888222175
 30
0.0
 40
5.625
100
AcDbArc
 50
270.0
 51
90.0
  0
ARC
  5
1CCD6
330
1C77F
100
AcDbEntity
  8
SUNPOU
100
AcDbCircle
 10
4418.784346396234
 20
3380.323888222175
 30
0.0
 40
5.625
100
AcDbArc
 50
90.0
 51
270.0
  0
ARC
  5
1CCD7
330
1C77F
100
AcDbEntity
  8
SUNPOU
100
AcDbCircle
 10
4838.784346396238
 20
3197.923888222169
 30
0.0
 40
5.625
100
AcDbArc
 50
90.0
 51
270.0
  0
ARC
  5
1CCD8
330
1C77F
100
AcDbEntity
  8
SUNPOU
100
AcDbCircle
 10
4838.784346396238
 20
3197.923888222169
 30
0.0
 40
5.625
100
AcDbArc
 50
270.0
 51
90.0
  0
ARC
  5
1CCD9
330
1C77F
100
AcDbEntity
  8
SUNPOU
100
AcDbCircle
 10
4838.784346396238
 20
3325.923888222173
 30
0.0
 40
5.625
100
AcDbArc
 50
270.0
 51
90.0
  0
ARC
  5
1CCDA
330
1C77F
100
AcDbEntity
  8
SUNPOU
100
AcDbCircle
 10
4838.784346396238
 20
3325.923888222173
 30
0.0
 40
5.625
100
AcDbArc
 50
90.0
 51
270.0
  0
ARC
  5
1CCDB
330
1C77F
100
AcDbEntity
  8
SUNPOU
100
AcDbCircle
 10
4838.784346396234
 20
3460.323888222177
 30
0.0
 40
5.625
100
AcDbArc
 50
270.0
 51
90.0
  0
ARC
  5
1CCDC
330
1C77F
100
AcDbEntity
  8
SUNPOU
100
AcDbCircle
 10
4838.784346396234
 20
3460.323888222177
 30
0.0
 40
5.625
100
AcDbArc
 50
90.0
 51
270.0
  0
ARC
  5
1CCDD
330
1C77F
100
AcDbEntity
  8
SUNPOU
100
AcDbCircle
 10
4838.784346396234
 20
3325.923888222175
 30
0.0
 40
5.625
100
AcDbArc
 50
90.0
 51
270.0
  0
ARC
  5
1CCDE
330
1C77F
100
AcDbEntity
  8
SUNPOU
100
AcDbCircle
 10
4838.784346396234
 20
3325.923888222175
 30
0.0
 40
5.625
100
AcDbArc
 50
270.0
 51
90.0
  0
ARC
  5
1CCDF
330
1C77F
100
AcDbEntity
  8
SUNPOU
100
AcDbCircle
 10
4838.784346396234
 20
3197.923888222171
 30
0.0
 40
5.625
100
AcDbArc
 50
270.0
 51
90.0
  0
ARC
  5
1CCE0
330
1C77F
100
AcDbEntity
  8
SUNPOU
100
AcDbCircle
 10
4838.784346396234
 20
3197.923888222171
 30
0.0
 40
5.625
100
AcDbArc
 50
90.0
 51
270.0
  0
ARC
  5
1CCE1
330
1C77F
100
AcDbEntity
  8
SUNPOU
100
AcDbCircle
 10
4838.784346396234
 20
2717.923888222177
 30
0.0
 40
5.625
100
AcDbArc
 50
90.0
 51
270.0
  0
ARC
  5
1CCE2
330
1C77F
100
AcDbEntity
  8
SUNPOU
100
AcDbCircle
 10
4838.784346396234
 20
2717.923888222177
 30
0.0
 40
5.625
100
AcDbArc
 50
270.0
 51
90.0
  0
ARC
  5
1CCE3
330
1C77F
100
AcDbEntity
  8
SUNPOU
100
AcDbCircle
 10
4838.784346396234
 20
2557.923888222177
 30
0.0
 40
5.625
100
AcDbArc
 50
90.0
 51
270.0
  0
ARC
  5
1CCE4
330
1C77F
100
AcDbEntity
  8
SUNPOU
100
AcDbCircle
 10
4838.784346396234
 20
2557.923888222177
 30
0.0
 40
5.625
100
AcDbArc
 50
270.0
 51
90.0
  0
ARC
  5
1CCE5
330
1C77F
100
AcDbEntity
  8
SUNPOU
100
AcDbCircle
 10
4838.784346396234
 20
2717.923888222177
 30
0.0
 40
5.625
100
AcDbArc
 50
270.0
 51
90.0
  0
ARC
  5
1CCE6
330
1C77F
100
AcDbEntity
  8
SUNPOU
100
AcDbCircle
 10
4838.784346396234
 20
2717.923888222177
 30
0.0
 40
5.625
100
AcDbArc
 50
90.0
 51
270.0
  0
ARC
  5
1CCE7
330
1C77F
100
AcDbEntity
  8
SUNPOU
100
AcDbCircle
 10
4628.784346396234
 20
2557.923888222177
 30
0.0
 40
5.625
100
AcDbArc
 50
90.0
 51
270.0
  0
ARC
  5
1CCE8
330
1C77F
100
AcDbEntity
  8
SUNPOU
100
AcDbCircle
 10
4628.784346396234
 20
2557.923888222177
 30
0.0
 40
5.625
100
AcDbArc
 50
270.0
 51
90.0
  0
ARC
  5
1CCE9
330
1C77F
100
AcDbEntity
  8
SUNPOU
100
AcDbCircle
 10
4628.784346396234
 20
3460.323888222177
 30
0.0
 40
5.625
100
AcDbArc
 50
270.0
 51
90.0
  0
ARC
  5
1CCEA
330
1C77F
100
AcDbEntity
  8
SUNPOU
100
AcDbCircle
 10
4628.784346396234
 20
3460.323888222177
 30
0.0
 40
5.625
100
AcDbArc
 50
90.0
 51
270.0
  0
ARC
  5
1CCEB
330
1C77F
100
AcDbEntity
  8
SUNPOU
100
AcDbCircle
 10
5118.137742396996
 20
4137.324460358764
 30
0.0
 40
5.625
100
AcDbArc
 50
0.0
 51
180.0
  0
ARC
  5
1CCEC
330
1C77F
100
AcDbEntity
  8
SUNPOU
100
AcDbCircle
 10
5118.137742396996
 20
4137.324460358764
 30
0.0
 40
5.625
100
AcDbArc
 50
180.0
 51
0.0
  0
ARC
  5
1CCED
330
1C77F
100
AcDbEntity
  8
SUNPOU
100
AcDbCircle
 10
5758.137742396995
 20
4137.324460358764
 30
0.0
 40
5.625
100
AcDbArc
 50
180.0
 51
0.0
  0
ARC
  5
1CCEE
330
1C77F
100
AcDbEntity
  8
SUNPOU
100
AcDbCircle
 10
5758.137742396995
 20
4137.324460358764
 30
0.0
 40
5.625
100
AcDbArc
 50
0.0
 51
180.0
  0
ARC
  5
1CCEF
330
1C77F
100
AcDbEntity
  8
SUNPOU
100
AcDbCircle
 10
12819.67906519162
 20
2252.644025518658
 30
0.0
 40
5.625
100
AcDbArc
 50
0.0
 51
180.0
  0
ARC
  5
1CCF0
330
1C77F
100
AcDbEntity
  8
SUNPOU
100
AcDbCircle
 10
12819.67906519162
 20
2252.644025518658
 30
0.0
 40
5.625
100
AcDbArc
 50
180.0
 51
0.0
  0
ARC
  5
1CCF1
330
1C77F
100
AcDbEntity
  8
SUNPOU
100
AcDbCircle
 10
12739.67906519162
 20
2252.644025518658
 30
0.0
 40
5.625
100
AcDbArc
 50
180.0
 51
0.0
  0
ARC
  5
1CCF2
330
1C77F
100
AcDbEntity
  8
SUNPOU
100
AcDbCircle
 10
12739.67906519162
 20
2252.644025518658
 30
0.0
 40
5.625
100
AcDbArc
 50
0.0
 51
180.0
  0
ARC
  5
1CCF3
330
1C77F
100
AcDbEntity
  8
SUNPOU
100
AcDbCircle
 10
12739.67906519162
 20
2252.644025518658
 30
0.0
 40
5.625
100
AcDbArc
 50
180.0
 51
0.0
  0
ARC
  5
1CCF4
330
1C77F
100
AcDbEntity
  8
SUNPOU
100
AcDbCircle
 10
12739.67906519162
 20
2252.644025518658
 30
0.0
 40
5.625
100
AcDbArc
 50
0.0
 51
180.0
  0
ARC
  5
1CCF5
330
1C77F
100
AcDbEntity
  8
SUNPOU
100
AcDbCircle
 10
12259.67906519163
 20
2252.644025518658
 30
0.0
 40
5.625
100
AcDbArc
 50
0.0
 51
180.0
  0
ARC
  5
1CCF6
330
1C77F
100
AcDbEntity
  8
SUNPOU
100
AcDbCircle
 10
12259.67906519163
 20
2252.644025518658
 30
0.0
 40
5.625
100
AcDbArc
 50
180.0
 51
0.0
  0
ARC
  5
1CCF7
330
1C77F
100
AcDbEntity
  8
SUNPOU
100
AcDbCircle
 10
12179.67906519162
 20
2252.644025518658
 30
0.0
 40
5.625
100
AcDbArc
 50
180.0
 51
0.0
  0
ARC
  5
1CCF8
330
1C77F
100
AcDbEntity
  8
SUNPOU
100
AcDbCircle
 10
12179.67906519162
 20
2252.644025518658
 30
0.0
 40
5.625
100
AcDbArc
 50
0.0
 51
180.0
  0
ARC
  5
1CCF9
330
1C77F
100
AcDbEntity
  8
SUNPOU
100
AcDbCircle
 10
12259.67906519163
 20
2252.644025518658
 30
0.0
 40
5.625
100
AcDbArc
 50
0.0
 51
180.0
  0
ARC
  5
1CCFA
330
1C77F
100
AcDbEntity
  8
SUNPOU
100
AcDbCircle
 10
12259.67906519163
 20
2252.644025518658
 30
0.0
 40
5.625
100
AcDbArc
 50
180.0
 51
0.0
  0
ARC
  5
1CCFB
330
1C77F
100
AcDbEntity
  8
SUNPOU
100
AcDbCircle
 10
12819.67906519162
 20
2042.644025518657
 30
0.0
 40
5.625
100
AcDbArc
 50
180.0
 51
0.0
  0
ARC
  5
1CCFC
330
1C77F
100
AcDbEntity
  8
SUNPOU
100
AcDbCircle
 10
12819.67906519162
 20
2042.644025518657
 30
0.0
 40
5.625
100
AcDbArc
 50
0.0
 51
180.0
  0
ARC
  5
1CCFD
330
1C77F
100
AcDbEntity
  8
SUNPOU
100
AcDbCircle
 10
12179.67906519162
 20
2042.644025518657
 30
0.0
 40
5.625
100
AcDbArc
 50
0.0
 51
180.0
  0
ARC
  5
1CCFE
330
1C77F
100
AcDbEntity
  8
SUNPOU
100
AcDbCircle
 10
12179.67906519162
 20
2042.644025518657
 30
0.0
 40
5.625
100
AcDbArc
 50
180.0
 51
0.0
  0
ARC
  5
1CCFF
330
1C77F
100
AcDbEntity
  8
SUNPOU
100
AcDbCircle
 10
11876.67906519162
 20
2546.983392855721
 30
0.0
 40
5.625
100
AcDbArc
 50
90.0
 51
270.0
  0
ARC
  5
1CD00
330
1C77F
100
AcDbEntity
  8
SUNPOU
100
AcDbCircle
 10
11876.67906519162
 20
2546.983392855721
 30
0.0
 40
5.625
100
AcDbArc
 50
270.0
 51
90.0
  0
ARC
  5
1CD01
330
1C77F
100
AcDbEntity
  8
SUNPOU
100
AcDbCircle
 10
11876.67906519162
 20
2706.98339285572
 30
0.0
 40
5.625
100
AcDbArc
 50
270.0
 51
90.0
  0
ARC
  5
1CD02
330
1C77F
100
AcDbEntity
  8
SUNPOU
100
AcDbCircle
 10
11876.67906519162
 20
2706.98339285572
 30
0.0
 40
5.625
100
AcDbArc
 50
90.0
 51
270.0
  0
ARC
  5
1CD03
330
1C77F
100
AcDbEntity
  8
SUNPOU
100
AcDbCircle
 10
11876.67906519162
 20
2866.983392855721
 30
0.0
 40
5.625
100
AcDbArc
 50
270.0
 51
90.0
  0
ARC
  5
1CD04
330
1C77F
100
AcDbEntity
  8
SUNPOU
100
AcDbCircle
 10
11876.67906519162
 20
2866.983392855721
 30
0.0
 40
5.625
100
AcDbArc
 50
90.0
 51
270.0
  0
ARC
  5
1CD05
330
1C77F
100
AcDbEntity
  8
SUNPOU
100
AcDbCircle
 10
11876.67906519162
 20
2706.98339285572
 30
0.0
 40
5.625
100
AcDbArc
 50
90.0
 51
270.0
  0
ARC
  5
1CD06
330
1C77F
100
AcDbEntity
  8
SUNPOU
100
AcDbCircle
 10
11876.67906519162
 20
2706.98339285572
 30
0.0
 40
5.625
100
AcDbArc
 50
270.0
 51
90.0
  0
ARC
  5
1CD07
330
1C77F
100
AcDbEntity
  8
SUNPOU
100
AcDbCircle
 10
11666.67906519162
 20
2866.983392855721
 30
0.0
 40
5.625
100
AcDbArc
 50
270.0
 51
90.0
  0
ARC
  5
1CD08
330
1C77F
100
AcDbEntity
  8
SUNPOU
100
AcDbCircle
 10
11666.67906519162
 20
2866.983392855721
 30
0.0
 40
5.625
100
AcDbArc
 50
90.0
 51
270.0
  0
ARC
  5
1CD09
330
1C77F
100
AcDbEntity
  8
SUNPOU
100
AcDbCircle
 10
11666.67906519162
 20
2546.983392855721
 30
0.0
 40
5.625
100
AcDbArc
 50
90.0
 51
270.0
  0
ARC
  5
1CD0A
330
1C77F
100
AcDbEntity
  8
SUNPOU
100
AcDbCircle
 10
11666.67906519162
 20
2546.983392855721
 30
0.0
 40
5.625
100
AcDbArc
 50
270.0
 51
90.0
  0
ARC
  5
1CD0B
330
1C77F
100
AcDbEntity
  8
SUNPOU
100
AcDbCircle
 10
12819.67906519162
 20
3401.009911457631
 30
0.0
 40
5.625
100
AcDbArc
 50
0.0
 51
180.0
  0
ARC
  5
1CD0C
330
1C77F
100
AcDbEntity
  8
SUNPOU
100
AcDbCircle
 10
12819.67906519162
 20
3401.009911457631
 30
0.0
 40
5.625
100
AcDbArc
 50
180.0
 51
0.0
  0
ARC
  5
1CD0D
330
1C77F
100
AcDbEntity
  8
SUNPOU
100
AcDbCircle
 10
12739.67906519162
 20
3401.009911457631
 30
0.0
 40
5.625
100
AcDbArc
 50
180.0
 51
0.0
  0
ARC
  5
1CD0E
330
1C77F
100
AcDbEntity
  8
SUNPOU
100
AcDbCircle
 10
12739.67906519162
 20
3401.009911457631
 30
0.0
 40
5.625
100
AcDbArc
 50
0.0
 51
180.0
  0
ARC
  5
1CD0F
330
1C77F
100
AcDbEntity
  8
SUNPOU
100
AcDbCircle
 10
12739.67906519162
 20
3401.009911457631
 30
0.0
 40
5.625
100
AcDbArc
 50
180.0
 51
0.0
  0
ARC
  5
1CD10
330
1C77F
100
AcDbEntity
  8
SUNPOU
100
AcDbCircle
 10
12739.67906519162
 20
3401.009911457631
 30
0.0
 40
5.625
100
AcDbArc
 50
0.0
 51
180.0
  0
ARC
  5
1CD11
330
1C77F
100
AcDbEntity
  8
SUNPOU
100
AcDbCircle
 10
12259.67906519163
 20
3401.009911457631
 30
0.0
 40
5.625
100
AcDbArc
 50
0.0
 51
180.0
  0
ARC
  5
1CD12
330
1C77F
100
AcDbEntity
  8
SUNPOU
100
AcDbCircle
 10
12259.67906519163
 20
3401.009911457631
 30
0.0
 40
5.625
100
AcDbArc
 50
180.0
 51
0.0
  0
ARC
  5
1CD13
330
1C77F
100
AcDbEntity
  8
SUNPOU
100
AcDbCircle
 10
12179.67906519162
 20
3401.009911457631
 30
0.0
 40
5.625
100
AcDbArc
 50
180.0
 51
0.0
  0
ARC
  5
1CD14
330
1C77F
100
AcDbEntity
  8
SUNPOU
100
AcDbCircle
 10
12179.67906519162
 20
3401.009911457631
 30
0.0
 40
5.625
100
AcDbArc
 50
0.0
 51
180.0
  0
ARC
  5
1CD15
330
1C77F
100
AcDbEntity
  8
SUNPOU
100
AcDbCircle
 10
12259.67906519163
 20
3401.009911457631
 30
0.0
 40
5.625
100
AcDbArc
 50
0.0
 51
180.0
  0
ARC
  5
1CD16
330
1C77F
100
AcDbEntity
  8
SUNPOU
100
AcDbCircle
 10
12259.67906519163
 20
3401.009911457631
 30
0.0
 40
5.625
100
AcDbArc
 50
180.0
 51
0.0
  0
ARC
  5
1CD17
330
1C77F
100
AcDbEntity
  8
SUNPOU
100
AcDbCircle
 10
12819.67906519162
 20
3191.00991145763
 30
0.0
 40
5.625
100
AcDbArc
 50
180.0
 51
0.0
  0
ARC
  5
1CD18
330
1C77F
100
AcDbEntity
  8
SUNPOU
100
AcDbCircle
 10
12819.67906519162
 20
3191.00991145763
 30
0.0
 40
5.625
100
AcDbArc
 50
0.0
 51
180.0
  0
ARC
  5
1CD19
330
1C77F
100
AcDbEntity
  8
SUNPOU
100
AcDbCircle
 10
12179.67906519162
 20
3191.00991145763
 30
0.0
 40
5.625
100
AcDbArc
 50
0.0
 51
180.0
  0
ARC
  5
1CD1A
330
1C77F
100
AcDbEntity
  8
SUNPOU
100
AcDbCircle
 10
12179.67906519162
 20
3191.00991145763
 30
0.0
 40
5.625
100
AcDbArc
 50
180.0
 51
0.0
  0
ARC
  5
1CD1B
330
1C77F
100
AcDbEntity
  8
SUNPOU
100
AcDbCircle
 10
12434.21703198606
 20
9595.715360473253
 30
0.0
 40
5.625
100
AcDbArc
 50
270.0
 51
90.0
  0
ARC
  5
1CD1C
330
1C77F
100
AcDbEntity
  8
SUNPOU
100
AcDbCircle
 10
12434.21703198606
 20
9595.715360473253
 30
0.0
 40
5.625
100
AcDbArc
 50
90.0
 51
270.0
  0
ARC
  5
1CD1D
330
1C77F
100
AcDbEntity
  8
SUNPOU
100
AcDbCircle
 10
12434.21703198606
 20
9295.715360473252
 30
0.0
 40
5.625
100
AcDbArc
 50
90.0
 51
270.0
  0
ARC
  5
1CD1E
330
1C77F
100
AcDbEntity
  8
SUNPOU
100
AcDbCircle
 10
12434.21703198606
 20
9295.715360473252
 30
0.0
 40
5.625
100
AcDbArc
 50
270.0
 51
90.0
  0
ARC
  5
1CD1F
330
1C77F
100
AcDbEntity
  8
SUNPOU
100
AcDbCircle
 10
12434.21703198606
 20
9295.715360473252
 30
0.0
 40
5.625
100
AcDbArc
 50
270.0
 51
90.0
  0
ARC
  5
1CD20
330
1C77F
100
AcDbEntity
  8
SUNPOU
100
AcDbCircle
 10
12434.21703198606
 20
9295.715360473252
 30
0.0
 40
5.625
100
AcDbArc
 50
90.0
 51
270.0
  0
ARC
  5
1CD21
330
1C77F
100
AcDbEntity
  8
SUNPOU
100
AcDbCircle
 10
12434.21703198606
 20
7495.715360473251
 30
0.0
 40
5.625
100
AcDbArc
 50
90.0
 51
270.0
  0
ARC
  5
1CD22
330
1C77F
100
AcDbEntity
  8
SUNPOU
100
AcDbCircle
 10
12434.21703198606
 20
7495.715360473251
 30
0.0
 40
5.625
100
AcDbArc
 50
270.0
 51
90.0
  0
ARC
  5
1CD23
330
1C77F
100
AcDbEntity
  8
SUNPOU
100
AcDbCircle
 10
12434.21703198606
 20
7495.715360473251
 30
0.0
 40
5.625
100
AcDbArc
 50
270.0
 51
90.0
  0
ARC
  5
1CD24
330
1C77F
100
AcDbEntity
  8
SUNPOU
100
AcDbCircle
 10
12434.21703198606
 20
7495.715360473251
 30
0.0
 40
5.625
100
AcDbArc
 50
90.0
 51
270.0
  0
ARC
  5
1CD25
330
1C77F
100
AcDbEntity
  8
SUNPOU
100
AcDbCircle
 10
12434.21703198606
 20
5695.715360473253
 30
0.0
 40
5.625
100
AcDbArc
 50
90.0
 51
270.0
  0
ARC
  5
1CD26
330
1C77F
100
AcDbEntity
  8
SUNPOU
100
AcDbCircle
 10
12434.21703198606
 20
5695.715360473253
 30
0.0
 40
5.625
100
AcDbArc
 50
270.0
 51
90.0
  0
ARC
  5
1CD27
330
1C77F
100
AcDbEntity
  8
SUNPOU
100
AcDbCircle
 10
12434.21703198606
 20
5695.715360473253
 30
0.0
 40
5.625
100
AcDbArc
 50
270.0
 51
90.0
  0
ARC
  5
1CD28
330
1C77F
100
AcDbEntity
  8
SUNPOU
100
AcDbCircle
 10
12434.21703198606
 20
5695.715360473253
 30
0.0
 40
5.625
100
AcDbArc
 50
90.0
 51
270.0
  0
ARC
  5
1CD29
330
1C77F
100
AcDbEntity
  8
SUNPOU
100
AcDbCircle
 10
12434.21703198606
 20
5395.715360473253
 30
0.0
 40
5.625
100
AcDbArc
 50
90.0
 51
270.0
  0
ARC
  5
1CD2A
330
1C77F
100
AcDbEntity
  8
SUNPOU
100
AcDbCircle
 10
12434.21703198606
 20
5395.715360473253
 30
0.0
 40
5.625
100
AcDbArc
 50
270.0
 51
90.0
  0
ARC
  5
1CD2B
330
1C77F
100
AcDbEntity
  8
SUNPOU
100
AcDbCircle
 10
12644.21703198606
 20
9595.715360473253
 30
0.0
 40
5.625
100
AcDbArc
 50
270.0
 51
90.0
  0
ARC
  5
1CD2C
330
1C77F
100
AcDbEntity
  8
SUNPOU
100
AcDbCircle
 10
12644.21703198606
 20
9595.715360473253
 30
0.0
 40
5.625
100
AcDbArc
 50
90.0
 51
270.0
  0
ARC
  5
1CD2D
330
1C77F
100
AcDbEntity
  8
SUNPOU
100
AcDbCircle
 10
12644.21703198606
 20
5395.715360473253
 30
0.0
 40
5.625
100
AcDbArc
 50
90.0
 51
270.0
  0
ARC
  5
1CD2E
330
1C77F
100
AcDbEntity
  8
SUNPOU
100
AcDbCircle
 10
12644.21703198606
 20
5395.715360473253
 30
0.0
 40
5.625
100
AcDbArc
 50
270.0
 51
90.0
  0
ARC
  5
1CD2F
330
1C77F
100
AcDbEntity
  8
SUNPOU
100
AcDbCircle
 10
9434.21703198606
 20
5395.715360473253
 30
0.0
 40
5.625
100
AcDbArc
 50
90.0
 51
270.0
  0
ARC
  5
1CD30
330
1C77F
100
AcDbEntity
  8
SUNPOU
100
AcDbCircle
 10
9434.21703198606
 20
5395.715360473253
 30
0.0
 40
5.625
100
AcDbArc
 50
270.0
 51
90.0
  0
ARC
  5
1CD31
330
1C77F
100
AcDbEntity
  8
SUNPOU
100
AcDbCircle
 10
9434.21703198606
 20
5995.715360473255
 30
0.0
 40
5.625
100
AcDbArc
 50
270.0
 51
90.0
  0
ARC
  5
1CD32
330
1C77F
100
AcDbEntity
  8
SUNPOU
100
AcDbCircle
 10
9434.21703198606
 20
5995.715360473255
 30
0.0
 40
5.625
100
AcDbArc
 50
90.0
 51
270.0
  0
ARC
  5
1CD33
330
1C77F
100
AcDbEntity
  8
SUNPOU
100
AcDbCircle
 10
12034.21703198606
 20
10205.71536047325
 30
0.0
 40
5.625
100
AcDbArc
 50
180.0
 51
0.0
  0
ARC
  5
1CD34
330
1C77F
100
AcDbEntity
  8
SUNPOU
100
AcDbCircle
 10
12034.21703198606
 20
10205.71536047325
 30
0.0
 40
5.625
100
AcDbArc
 50
0.0
 51
180.0
  0
ARC
  5
1CD35
330
1C77F
100
AcDbEntity
  8
SUNPOU
100
AcDbCircle
 10
4334.217031986058
 20
10205.71536047325
 30
0.0
 40
5.625
100
AcDbArc
 50
0.0
 51
180.0
  0
ARC
  5
1CD36
330
1C77F
100
AcDbEntity
  8
SUNPOU
100
AcDbCircle
 10
4334.217031986058
 20
10205.71536047325
 30
0.0
 40
5.625
100
AcDbArc
 50
180.0
 51
0.0
  0
ARC
  5
1CD37
330
1C77F
100
AcDbEntity
  8
SUNPOU
100
AcDbCircle
 10
4734.21703198606
 20
9995.715360473253
 30
0.0
 40
5.625
100
AcDbArc
 50
0.0
 51
180.0
  0
ARC
  5
1CD38
330
1C77F
100
AcDbEntity
  8
SUNPOU
100
AcDbCircle
 10
4734.21703198606
 20
9995.715360473253
 30
0.0
 40
5.625
100
AcDbArc
 50
180.0
 51
0.0
  0
ARC
  5
1CD39
330
1C77F
100
AcDbEntity
  8
SUNPOU
100
AcDbCircle
 10
7534.217031986059
 20
9995.715360473253
 30
0.0
 40
5.625
100
AcDbArc
 50
180.0
 51
0.0
  0
ARC
  5
1CD3A
330
1C77F
100
AcDbEntity
  8
SUNPOU
100
AcDbCircle
 10
7534.217031986059
 20
9995.715360473253
 30
0.0
 40
5.625
100
AcDbArc
 50
0.0
 51
180.0
  0
ARC
  5
1CD3B
330
1C77F
100
AcDbEntity
  8
SUNPOU
100
AcDbCircle
 10
8834.21703198606
 20
9995.715360473253
 30
0.0
 40
5.625
100
AcDbArc
 50
0.0
 51
180.0
  0
ARC
  5
1CD3C
330
1C77F
100
AcDbEntity
  8
SUNPOU
100
AcDbCircle
 10
8834.21703198606
 20
9995.715360473253
 30
0.0
 40
5.625
100
AcDbArc
 50
180.0
 51
0.0
  0
ARC
  5
1CD3D
330
1C77F
100
AcDbEntity
  8
SUNPOU
100
AcDbCircle
 10
11634.21703198606
 20
9995.715360473253
 30
0.0
 40
5.625
100
AcDbArc
 50
180.0
 51
0.0
  0
ARC
  5
1CD3E
330
1C77F
100
AcDbEntity
  8
SUNPOU
100
AcDbCircle
 10
11634.21703198606
 20
9995.715360473253
 30
0.0
 40
5.625
100
AcDbArc
 50
0.0
 51
180.0
  0
ARC
  5
1CD3F
330
1C77F
100
AcDbEntity
  8
SUNPOU
100
AcDbCircle
 10
4334.217031986058
 20
9995.715360473253
 30
0.0
 40
5.625
100
AcDbArc
 50
0.0
 51
180.0
  0
ARC
  5
1CD40
330
1C77F
100
AcDbEntity
  8
SUNPOU
100
AcDbCircle
 10
4334.217031986058
 20
9995.715360473253
 30
0.0
 40
5.625
100
AcDbArc
 50
180.0
 51
0.0
  0
ARC
  5
1CD41
330
1C77F
100
AcDbEntity
  8
SUNPOU
100
AcDbCircle
 10
4734.21703198606
 20
9995.715360473253
 30
0.0
 40
5.625
100
AcDbArc
 50
180.0
 51
0.0
  0
ARC
  5
1CD42
330
1C77F
100
AcDbEntity
  8
SUNPOU
100
AcDbCircle
 10
4734.21703198606
 20
9995.715360473253
 30
0.0
 40
5.625
100
AcDbArc
 50
0.0
 51
180.0
  0
ARC
  5
1CD43
330
1C77F
100
AcDbEntity
  8
SUNPOU
100
AcDbCircle
 10
12034.21703198606
 20
9995.715360473253
 30
0.0
 40
5.625
100
AcDbArc
 50
180.0
 51
0.0
  0
ARC
  5
1CD44
330
1C77F
100
AcDbEntity
  8
SUNPOU
100
AcDbCircle
 10
12034.21703198606
 20
9995.715360473253
 30
0.0
 40
5.625
100
AcDbArc
 50
0.0
 51
180.0
  0
ARC
  5
1CD45
330
1C77F
100
AcDbEntity
  8
SUNPOU
100
AcDbCircle
 10
11634.21703198606
 20
9995.715360473253
 30
0.0
 40
5.625
100
AcDbArc
 50
0.0
 51
180.0
  0
ARC
  5
1CD46
330
1C77F
100
AcDbEntity
  8
SUNPOU
100
AcDbCircle
 10
11634.21703198606
 20
9995.715360473253
 30
0.0
 40
5.625
100
AcDbArc
 50
180.0
 51
0.0
  0
ARC
  5
1CD47
330
1C77F
100
AcDbEntity
  8
SUNPOU
100
AcDbCircle
 10
6934.21703198606
 20
8995.715360473253
 30
0.0
 40
5.625
100
AcDbArc
 50
90.0
 51
270.0
  0
ARC
  5
1CD48
330
1C77F
100
AcDbEntity
  8
SUNPOU
100
AcDbCircle
 10
6934.21703198606
 20
8995.715360473253
 30
0.0
 40
5.625
100
AcDbArc
 50
270.0
 51
90.0
  0
ARC
  5
1CD49
330
1C77F
100
AcDbEntity
  8
SUNPOU
100
AcDbCircle
 10
6934.21703198606
 20
9595.715360473253
 30
0.0
 40
5.625
100
AcDbArc
 50
270.0
 51
90.0
  0
ARC
  5
1CD4A
330
1C77F
100
AcDbEntity
  8
SUNPOU
100
AcDbCircle
 10
6934.21703198606
 20
9595.715360473253
 30
0.0
 40
5.625
100
AcDbArc
 50
90.0
 51
270.0
  0
ARC
  5
1CD4B
330
1C77F
100
AcDbEntity
  8
SUNPOU
100
AcDbCircle
 10
7834.21703198606
 20
8695.715360473251
 30
0.0
 40
5.625
100
AcDbArc
 50
180.0
 51
0.0
  0
ARC
  5
1CD4C
330
1C77F
100
AcDbEntity
  8
SUNPOU
100
AcDbCircle
 10
7834.21703198606
 20
8695.715360473251
 30
0.0
 40
5.625
100
AcDbArc
 50
0.0
 51
180.0
  0
ARC
  5
1CD4D
330
1C77F
100
AcDbEntity
  8
SUNPOU
100
AcDbCircle
 10
7234.21703198606
 20
8695.715360473251
 30
0.0
 40
5.625
100
AcDbArc
 50
0.0
 51
180.0
  0
ARC
  5
1CD4E
330
1C77F
100
AcDbEntity
  8
SUNPOU
100
AcDbCircle
 10
7234.21703198606
 20
8695.715360473251
 30
0.0
 40
5.625
100
AcDbArc
 50
180.0
 51
0.0
  0
ARC
  5
1CD4F
330
1C77F
100
AcDbEntity
  8
SUNPOU
100
AcDbCircle
 10
9134.217031986059
 20
6245.715360473253
 30
0.0
 40
5.625
100
AcDbArc
 50
180.0
 51
0.0
  0
ARC
  5
1CD50
330
1C77F
100
AcDbEntity
  8
SUNPOU
100
AcDbCircle
 10
9134.217031986059
 20
6245.715360473253
 30
0.0
 40
5.625
100
AcDbArc
 50
0.0
 51
180.0
  0
ARC
  5
1CD51
330
1C77F
100
AcDbEntity
  8
SUNPOU
100
AcDbCircle
 10
8534.217031986059
 20
6245.715360473253
 30
0.0
 40
5.625
100
AcDbArc
 50
0.0
 51
180.0
  0
ARC
  5
1CD52
330
1C77F
100
AcDbEntity
  8
SUNPOU
100
AcDbCircle
 10
8534.217031986059
 20
6245.715360473253
 30
0.0
 40
5.625
100
AcDbArc
 50
180.0
 51
0.0
  0
ARC
  5
1CD53
330
1C77F
100
AcDbEntity
  8
SUNPOU
100
AcDbCircle
 10
9234.217031986061
 20
8065.715360473253
 30
0.0
 40
5.625
100
AcDbArc
 50
180.0
 51
0.0
  0
ARC
  5
1CD54
330
1C77F
100
AcDbEntity
  8
SUNPOU
100
AcDbCircle
 10
9234.217031986061
 20
8065.715360473253
 30
0.0
 40
5.625
100
AcDbArc
 50
0.0
 51
180.0
  0
ARC
  5
1CD55
330
1C77F
100
AcDbEntity
  8
SUNPOU
100
AcDbCircle
 10
8434.21703198606
 20
8065.715360473253
 30
0.0
 40
5.625
100
AcDbArc
 50
0.0
 51
180.0
  0
ARC
  5
1CD56
330
1C77F
100
AcDbEntity
  8
SUNPOU
100
AcDbCircle
 10
8434.21703198606
 20
8065.715360473253
 30
0.0
 40
5.625
100
AcDbArc
 50
180.0
 51
0.0
  0
ARC
  5
1CD57
330
1C77F
100
AcDbEntity
  8
SUNPOU
100
AcDbCircle
 10
9434.21703198606
 20
7095.715360473253
 30
0.0
 40
5.625
100
AcDbArc
 50
90.0
 51
270.0
  0
ARC
  5
1CD58
330
1C77F
100
AcDbEntity
  8
SUNPOU
100
AcDbCircle
 10
9434.21703198606
 20
7095.715360473253
 30
0.0
 40
5.625
100
AcDbArc
 50
270.0
 51
90.0
  0
ARC
  5
1CD59
330
1C77F
100
AcDbEntity
  8
SUNPOU
100
AcDbCircle
 10
9434.21703198606
 20
7895.715360473253
 30
0.0
 40
5.625
100
AcDbArc
 50
270.0
 51
90.0
  0
ARC
  5
1CD5A
330
1C77F
100
AcDbEntity
  8
SUNPOU
100
AcDbCircle
 10
9434.21703198606
 20
7895.715360473253
 30
0.0
 40
5.625
100
AcDbArc
 50
90.0
 51
270.0
  0
ARC
  5
1CD5B
330
1C77F
100
AcDbEntity
  8
HIKIDASHI
100
AcDbCircle
 10
8327.093877307573
 20
1895.90861674504
 30
0.0
 40
74.66417910452284
100
AcDbArc
 50
164.8596129850915
 51
237.504500294165
  0
ARC
  5
1CD5C
330
1C77F
100
AcDbEntity
  8
HIKIDASHI
100
AcDbCircle
 10
8263.670083261272
 20
1913.069640229525
 30
0.0
 40
8.959701492542743
100
AcDbArc
 50
15.14038701503428
 51
164.8596129849655
  0
ARC
  5
1CD5D
330
1C77F
100
AcDbEntity
  8
HIKIDASHI
100
AcDbCircle
 10
4639.512125684277
 20
1895.908616745035
 30
0.0
 40
74.66417910452284
100
AcDbArc
 50
164.8596129850915
 51
237.504500294165
  0
ARC
  5
1CD5E
330
1C77F
100
AcDbEntity
  8
HIKIDASHI
100
AcDbCircle
 10
4576.088331637971
 20
1913.06964022952
 30
0.0
 40
8.959701492542743
100
AcDbArc
 50
15.14038701503428
 51
164.8596129849655
  0
LINE
  5
1CD5F
330
1C77F
100
AcDbEntity
  8
HIKIDASHI
100
AcDbLine
 10
10256.62520246035
 20
3211.278707802606
 30
0.0
 11
10413.53855426433
 21
2910.953755823451
 31
0.0
1001
ACAD
1000
DSTYLE
1002
{
1070
    41
1040
2.0
1070
   173
1070
     0
1070
   341
1005
125B0
1002
}
  0
ARC
  5
1CD60
330
1C77F
100
AcDbEntity
  8
HIKIDASHI
100
AcDbCircle
 10
10210.93800043452
 20
3266.330179132429
 30
0.0
 40
18.0
100
AcDbArc
 50
241.1434129563085
 51
354.0287934324676
  0
ARC
  5
1CD61
330
1C77F
100
AcDbEntity
  8
HIKIDASHI
100
AcDbCircle
 10
10246.74267521795
 20
3262.585147269547
 30
0.0
 40
18.0
100
AcDbArc
 50
61.14341295630873
 51
174.0287934324675
  0
LINE
  5
1CD62
330
1C77F
100
AcDbEntity
  8
HIKIDASHI
100
AcDbLine
 10
10228.84033782624
 20
3264.457663200988
 30
0.0
 11
10256.62520246038
 21
3211.278707802595
 31
0.0
  0
LINE
  5
1CD63
330
1C77F
100
AcDbEntity
  8
HIKIDASHI
100
AcDbLine
 10
10387.80295958267
 20
2568.550390345496
 30
0.0
 11
10555.00498845583
 21
2355.143287355456
 31
0.0
1001
ACAD
1000
DSTYLE
1002
{
1070
   147
1040
1.0
1070
    77
1070
     0
1002
}
  0
LINE
  5
1CD64
330
1C77F
100
AcDbEntity
  8
HIKIDASHI
100
AcDbLine
 10
10398.29854256209
 20
2576.77355978917
 30
0.0
 11
10338.46394292064
 21
2631.523888222177
 31
0.0
  0
LINE
  5
1CD65
330
1C77F
100
AcDbEntity
  8
HIKIDASHI
100
AcDbLine
 10
10338.46394292064
 20
2631.523888222177
 30
0.0
 11
10377.3073766032
 21
2560.327220901827
 31
0.0
  0
SOLID
  5
1CD66
330
1C77F
100
AcDbEntity
  8
HIKIDASHI
100
AcDbTrace
 10
10398.29854256209
 20
2576.77355978917
 30
0.0
 11
10377.3073766032
 21
2560.327220901827
 31
0.0
 12
10338.46394292064
 22
2631.523888222177
 32
0.0
 13
10338.46394292064
 23
2631.523888222177
 33
0.0
  0
LINE
  5
1CD67
330
1C77F
100
AcDbEntity
  8
HIKIDASHI
100
AcDbLine
 10
10377.3073766032
 20
2560.327220901827
 30
0.0
 11
10398.29854256209
 21
2576.77355978917
 31
0.0
  0
LINE
  5
1CD68
330
1C77F
100
AcDbEntity
  8
HIKIDASHI
100
AcDbLine
 10
9308.338074575722
 20
2796.613868905354
 30
0.0
 11
8526.366098019535
 21
1945.523888222177
 31
0.0
1001
ACAD
1000
DSTYLE
1002
{
1070
   147
1040
1.0
1070
    77
1070
     0
1002
}
  0
LINE
  5
1CD69
330
1C77F
100
AcDbEntity
  8
HIKIDASHI
100
AcDbLine
 10
9318.156411128526
 20
2787.592890847867
 30
0.0
 11
9362.463942920639
 21
2855.523888222176
 31
0.0
  0
LINE
  5
1CD6A
330
1C77F
100
AcDbEntity
  8
HIKIDASHI
100
AcDbLine
 10
9362.463942920639
 20
2855.523888222176
 30
0.0
 11
9298.519738022918
 21
2805.634846962841
 31
0.0
  0
SOLID
  5
1CD6B
330
1C77F
100
AcDbEntity
  8
HIKIDASHI
100
AcDbTrace
 10
9318.156411128526
 20
2787.592890847867
 30
0.0
 11
9298.519738022918
 21
2805.634846962841
 31
0.0
 12
9362.463942920639
 22
2855.523888222176
 32
0.0
 13
9362.463942920639
 23
2855.523888222176
 33
0.0
  0
LINE
  5
1CD6C
330
1C77F
100
AcDbEntity
  8
HIKIDASHI
100
AcDbLine
 10
9298.519738022918
 20
2805.634846962841
 30
0.0
 11
9318.156411128526
 21
2787.592890847867
 31
0.0
  0
ARC
  5
1CD6D
330
1C77F
100
AcDbEntity
  8
HIKIDASHI
100
AcDbCircle
 10
8201.425815750704
 20
1897.08874410463
 30
0.0
 40
74.66417910452232
100
AcDbArc
 50
301.7712278330705
 51
15.14038701490951
  0
LINE
  5
1CD6E
330
1C77F
100
AcDbEntity
  8
HIKIDASHI
100
AcDbLine
 10
5697.484751389242
 20
3009.16534671782
 30
0.0
 11
4838.784346396234
 21
1945.523888222172
 31
0.0
1001
ACAD
1000
DSTYLE
1002
{
1070
   147
1040
1.0
1070
    77
1070
     0
1002
}
  0
LINE
  5
1CD6F
330
1C77F
100
AcDbEntity
  8
HIKIDASHI
100
AcDbLine
 10
5707.859181620954
 20
3000.789848216527
 30
0.0
 11
5747.737742396992
 21
3071.411928108086
 31
0.0
  0
LINE
  5
1CD70
330
1C77F
100
AcDbEntity
  8
HIKIDASHI
100
AcDbLine
 10
5747.737742396992
 20
3071.411928108086
 30
0.0
 11
5687.110321157532
 21
3017.540845219111
 31
0.0
  0
SOLID
  5
1CD71
330
1C77F
100
AcDbEntity
  8
HIKIDASHI
100
AcDbTrace
 10
5707.859181620954
 20
3000.789848216527
 30
0.0
 11
5687.110321157532
 21
3017.540845219111
 31
0.0
 12
5747.737742396992
 22
3071.411928108086
 32
0.0
 13
5747.737742396992
 23
3071.411928108086
 33
0.0
  0
LINE
  5
1CD72
330
1C77F
100
AcDbEntity
  8
HIKIDASHI
100
AcDbLine
 10
5687.110321157532
 20
3017.540845219111
 30
0.0
 11
5707.859181620954
 21
3000.789848216527
 31
0.0
  0
ARC
  5
1CD73
330
1C77F
100
AcDbEntity
  8
HIKIDASHI
100
AcDbCircle
 10
4513.844064127407
 20
1897.088744104625
 30
0.0
 40
74.66417910452232
100
AcDbArc
 50
301.7712278330705
 51
15.14038701490951
  0
LINE
  5
1CD74
330
1C77F
100
AcDbEntity
  8
HIKIDASHI
100
AcDbLine
 10
6064.219258073771
 20
3529.724501924764
 30
0.0
 11
6292.200738968885
 21
3927.324460358765
 31
0.0
1001
ACAD
1000
DSTYLE
1002
{
1070
   147
1040
1.0
1070
    77
1070
     0
1002
}
  0
LINE
  5
1CD75
330
1C77F
100
AcDbEntity
  8
HIKIDASHI
100
AcDbLine
 10
6052.652489123339
 20
3536.356819304467
 30
0.0
 11
6024.425353795553
 21
3460.323888222176
 31
0.0
  0
LINE
  5
1CD76
330
1C77F
100
AcDbEntity
  8
HIKIDASHI
100
AcDbLine
 10
6024.425353795553
 20
3460.323888222176
 30
0.0
 11
6075.786027024202
 21
3523.092184545062
 31
0.0
  0
SOLID
  5
1CD77
330
1C77F
100
AcDbEntity
  8
HIKIDASHI
100
AcDbTrace
 10
6052.652489123339
 20
3536.356819304467
 30
0.0
 11
6075.786027024202
 21
3523.092184545062
 31
0.0
 12
6024.425353795553
 22
3460.323888222176
 32
0.0
 13
6024.425353795553
 23
3460.323888222176
 33
0.0
  0
LINE
  5
1CD78
330
1C77F
100
AcDbEntity
  8
HIKIDASHI
100
AcDbLine
 10
6075.786027024202
 20
3523.092184545062
 30
0.0
 11
6052.652489123339
 21
3536.356819304467
 31
0.0
  0
LINE
  5
1CD79
330
1C77F
100
AcDbEntity
  8
HIKIDASHI
100
AcDbLine
 10
6447.47675905902
 20
2568.550390345496
 30
0.0
 11
6614.678787932191
 21
2355.143287355454
 31
0.0
1001
ACAD
1000
DSTYLE
1002
{
1070
   147
1040
1.0
1070
    77
1070
     0
1002
}
  0
LINE
  5
1CD7A
330
1C77F
100
AcDbEntity
  8
HIKIDASHI
100
AcDbLine
 10
6457.972342038468
 20
2576.773559789168
 30
0.0
 11
6398.137742396992
 21
2631.523888222175
 31
0.0
  0
LINE
  5
1CD7B
330
1C77F
100
AcDbEntity
  8
HIKIDASHI
100
AcDbLine
 10
6398.137742396992
 20
2631.523888222175
 30
0.0
 11
6436.981176079574
 21
2560.327220901824
 31
0.0
  0
SOLID
  5
1CD7C
330
1C77F
100
AcDbEntity
  8
HIKIDASHI
100
AcDbTrace
 10
6457.972342038468
 20
2576.773559789168
 30
0.0
 11
6436.981176079574
 21
2560.327220901824
 31
0.0
 12
6398.137742396992
 22
2631.523888222175
 32
0.0
 13
6398.137742396992
 23
2631.523888222175
 33
0.0
  0
LINE
  5
1CD7D
330
1C77F
100
AcDbEntity
  8
HIKIDASHI
100
AcDbLine
 10
6436.981176079574
 20
2560.327220901824
 30
0.0
 11
6457.972342038468
 21
2576.773559789168
 31
0.0
  0
LINE
  5
1CD7E
330
1C77F
100
AcDbEntity
  8
HIKIDASHI
100
AcDbLine
 10
6476.299001936729
 20
3211.278707802609
 30
0.0
 11
6633.212353740688
 21
2910.953755823452
 31
0.0
1001
ACAD
1000
DSTYLE
1002
{
1070
    41
1040
2.0
1070
   173
1070
     0
1070
   341
1005
125B0
1002
}
  0
ARC
  5
1CD7F
330
1C77F
100
AcDbEntity
  8
HIKIDASHI
100
AcDbCircle
 10
6430.611799910892
 20
3266.33017913243
 30
0.0
 40
18.0
100
AcDbArc
 50
241.1434129563095
 51
354.0287934324676
  0
ARC
  5
1CD80
330
1C77F
100
AcDbEntity
  8
HIKIDASHI
100
AcDbCircle
 10
6466.416474694305
 20
3262.585147269549
 30
0.0
 40
18.0
100
AcDbArc
 50
61.1434129563095
 51
174.0287934324674
  0
LINE
  5
1CD81
330
1C77F
100
AcDbEntity
  8
HIKIDASHI
100
AcDbLine
 10
6448.514137302599
 20
3264.457663200988
 30
0.0
 11
6476.299001936737
 21
3211.278707802597
 31
0.0
  0
LINE
  5
1CD82
330
1C77F
100
AcDbEntity
  8
HIKIDASHI
100
AcDbLine
 10
12823.53188809265
 20
2626.829140993907
 30
0.0
 11
13214.98308988596
 21
2252.644025518658
 31
0.0
1001
ACAD
1000
DSTYLE
1002
{
1070
   147
1040
1.0
1070
    77
1070
     0
1002
}
  0
LINE
  5
1CD83
330
1C77F
100
AcDbEntity
  8
HIKIDASHI
100
AcDbLine
 10
12832.74502049057
 20
2636.467396499774
 30
0.0
 11
12765.70235505745
 21
2682.107935381366
 31
0.0
  0
LINE
  5
1CD84
330
1C77F
100
AcDbEntity
  8
HIKIDASHI
100
AcDbLine
 10
12765.70235505745
 20
2682.107935381366
 30
0.0
 11
12814.31875569475
 21
2617.190885488041
 31
0.0
  0
SOLID
  5
1CD85
330
1C77F
100
AcDbEntity
  8
HIKIDASHI
100
AcDbTrace
 10
12832.74502049057
 20
2636.467396499774
 30
0.0
 11
12814.31875569475
 21
2617.190885488041
 31
0.0
 12
12765.70235505745
 22
2682.107935381366
 32
0.0
 13
12765.70235505745
 23
2682.107935381366
 33
0.0
  0
LINE
  5
1CD86
330
1C77F
100
AcDbEntity
  8
HIKIDASHI
100
AcDbLine
 10
12814.31875569475
 20
2617.190885488041
 30
0.0
 11
12832.74502049057
 21
2636.467396499774
 31
0.0
  0
LINE
  5
1CD87
330
1C77F
100
AcDbEntity
  8
HIKIDASHI
100
AcDbLine
 10
12876.83497984968
 20
2922.958399953539
 30
0.0
 11
13031.5743233676
 21
3074.500648967407
 31
0.0
1001
ACAD
1000
DSTYLE
1002
{
1070
   147
1040
1.0
1070
    77
1070
     0
1002
}
  0
LINE
  5
1CD88
330
1C77F
100
AcDbEntity
  8
HIKIDASHI
100
AcDbLine
 10
12867.50581200002
 20
2932.484385729882
 30
0.0
 11
12819.67906519162
 21
2866.983392855721
 31
0.0
  0
LINE
  5
1CD89
330
1C77F
100
AcDbEntity
  8
HIKIDASHI
100
AcDbLine
 10
12819.67906519162
 20
2866.983392855721
 30
0.0
 11
12886.16414769931
 21
2913.432414177195
 31
0.0
  0
SOLID
  5
1CD8A
330
1C77F
100
AcDbEntity
  8
HIKIDASHI
100
AcDbTrace
 10
12867.50581200002
 20
2932.484385729882
 30
0.0
 11
12886.16414769931
 21
2913.432414177195
 31
0.0
 12
12819.67906519162
 22
2866.983392855721
 32
0.0
 13
12819.67906519162
 23
2866.983392855721
 33
0.0
  0
LINE
  5
1CD8B
330
1C77F
100
AcDbEntity
  8
HIKIDASHI
100
AcDbLine
 10
12886.16414769931
 20
2913.432414177195
 30
0.0
 11
12867.50581200002
 21
2932.484385729882
 31
0.0
  0
LINE
  5
1CD8C
330
1C77F
100
AcDbEntity
  8
HATCH
100
AcDbLine
 10
5161.938028947274
 20
3197.923888222797
 30
0.0
 11
5235.838863403543
 21
3325.923888222791
 31
0.0
  0
LINE
  5
1CD8D
330
1C77F
100
AcDbEntity
  8
HATCH
100
AcDbLine
 10
5197.438863403545
 20
3325.923888222789
 30
0.0
 11
5216.638863403544
 21
3292.668512717471
 31
0.0
  0
LINE
  5
1CD8E
330
1C77F
100
AcDbEntity
  8
HATCH
100
AcDbLine
 10
8354.163108462433
 20
3197.923888222877
 30
0.0
 11
8428.063942918702
 21
3325.92388822287
 31
0.0
  0
LINE
  5
1CD8F
330
1C77F
100
AcDbEntity
  8
HATCH
100
AcDbLine
 10
8389.663942918701
 20
3325.923888222869
 30
0.0
 11
8408.863942918703
 21
3292.668512717551
 31
0.0
  0
LINE
  5
1CD90
330
1C77F
100
AcDbEntity
  8
HATCH
100
AcDbLine
 10
8354.163108464351
 20
3197.923888223495
 30
0.0
 11
8428.063942920639
 21
3325.923888223524
 31
0.0
  0
LINE
  5
1CD91
330
1C77F
100
AcDbEntity
  8
HATCH
100
AcDbLine
 10
8389.663942920632
 20
3325.923888223523
 30
0.0
 11
8408.863942920634
 21
3292.668512718196
 31
0.0
  0
LINE
  5
1CD92
330
1C77F
100
AcDbEntity
  8
HATCH
100
AcDbLine
 10
8642.16310846243
 20
3197.923888221601
 30
0.0
 11
8716.063942918699
 21
3325.923888221594
 31
0.0
  0
LINE
  5
1CD93
330
1C77F
100
AcDbEntity
  8
HATCH
100
AcDbLine
 10
8677.663942918702
 20
3325.923888221593
 30
0.0
 11
8696.863942918701
 21
3292.668512716275
 31
0.0
  0
LINE
  5
1CD94
330
1C77F
100
AcDbEntity
  8
HATCH
100
AcDbLine
 10
8786.16310846243
 20
3197.923888221601
 30
0.0
 11
8860.063942918699
 21
3325.923888221594
 31
0.0
  0
LINE
  5
1CD95
330
1C77F
100
AcDbEntity
  8
HATCH
100
AcDbLine
 10
8821.663942918702
 20
3325.923888221593
 30
0.0
 11
8840.8639429187
 21
3292.668512716275
 31
0.0
  0
LINE
  5
1CD96
330
1C77F
100
AcDbEntity
  8
HATCH
100
AcDbLine
 10
8642.16310846435
 20
3197.923888222219
 30
0.0
 11
8716.063942920639
 21
3325.923888222249
 31
0.0
  0
LINE
  5
1CD97
330
1C77F
100
AcDbEntity
  8
HATCH
100
AcDbLine
 10
8677.663942920629
 20
3325.923888222247
 30
0.0
 11
8696.863942920634
 21
3292.668512716919
 31
0.0
  0
LINE
  5
1CD98
330
1C77F
100
AcDbEntity
  8
HATCH
100
AcDbLine
 10
8786.163108464348
 20
3197.923888222219
 30
0.0
 11
8860.063942920637
 21
3325.923888222249
 31
0.0
  0
LINE
  5
1CD99
330
1C77F
100
AcDbEntity
  8
HATCH
100
AcDbLine
 10
8821.663942920627
 20
3325.923888222247
 30
0.0
 11
8840.863942920634
 21
3292.668512716919
 31
0.0
  0
LINE
  5
1CD9A
330
1C77F
100
AcDbEntity
  8
HATCH
100
AcDbLine
 10
10556.10574381646
 20
3197.923888222841
 30
0.0
 11
10630.00657827272
 21
3325.923888222833
 31
0.0
  0
LINE
  5
1CD9B
330
1C77F
100
AcDbEntity
  8
HATCH
100
AcDbLine
 10
10591.60657827272
 20
3325.923888222833
 30
0.0
 11
10610.80657827273
 21
3292.668512717515
 31
0.0
  0
LINE
  5
1CD9C
330
1C77F
100
AcDbEntity
  8
HATCH
100
AcDbLine
 10
10268.10574381646
 20
3197.923888222841
 30
0.0
 11
10342.00657827272
 21
3325.923888222833
 31
0.0
  0
LINE
  5
1CD9D
330
1C77F
100
AcDbEntity
  8
HATCH
100
AcDbLine
 10
10303.60657827273
 20
3325.923888222833
 30
0.0
 11
10322.80657827271
 21
3292.668512717515
 31
0.0
  0
LINE
  5
1CD9E
330
1C77F
100
AcDbEntity
  8
HATCH
100
AcDbLine
 10
10412.10574381646
 20
3197.923888222841
 30
0.0
 11
10486.00657827272
 21
3325.923888222833
 31
0.0
  0
LINE
  5
1CD9F
330
1C77F
100
AcDbEntity
  8
HATCH
100
AcDbLine
 10
10447.60657827273
 20
3325.923888222833
 30
0.0
 11
10466.80657827272
 21
3292.668512717515
 31
0.0
  0
LINE
  5
1CDA0
330
1C77F
100
AcDbEntity
  8
HATCH
100
AcDbLine
 10
10700.10574381646
 20
3197.923888222841
 30
0.0
 11
10774.00657827273
 21
3325.923888222833
 31
0.0
  0
LINE
  5
1CDA1
330
1C77F
100
AcDbEntity
  8
HATCH
100
AcDbLine
 10
10735.60657827272
 20
3325.923888222833
 30
0.0
 11
10754.80657827273
 21
3292.668512717515
 31
0.0
  0
LINE
  5
1CDA2
330
1C77F
100
AcDbEntity
  8
HATCH
100
AcDbLine
 10
10556.10574381838
 20
3197.92388822346
 30
0.0
 11
10630.00657827467
 21
3325.923888223488
 31
0.0
  0
LINE
  5
1CDA3
330
1C77F
100
AcDbEntity
  8
HATCH
100
AcDbLine
 10
10591.60657827465
 20
3325.923888223488
 30
0.0
 11
10610.80657827466
 21
3292.66851271816
 31
0.0
  0
LINE
  5
1CDA4
330
1C77F
100
AcDbEntity
  8
HATCH
100
AcDbLine
 10
10700.10574381837
 20
3197.92388822346
 30
0.0
 11
10774.00657827467
 21
3325.923888223488
 31
0.0
  0
LINE
  5
1CDA5
330
1C77F
100
AcDbEntity
  8
HATCH
100
AcDbLine
 10
10735.60657827465
 20
3325.923888223488
 30
0.0
 11
10754.80657827466
 21
3292.66851271816
 31
0.0
  0
LINE
  5
1CDA6
330
1C77F
100
AcDbEntity
  8
HATCH
100
AcDbLine
 10
10412.10574381838
 20
3197.92388822346
 30
0.0
 11
10486.00657827466
 21
3325.923888223488
 31
0.0
  0
LINE
  5
1CDA7
330
1C77F
100
AcDbEntity
  8
HATCH
100
AcDbLine
 10
10447.60657827465
 20
3325.923888223488
 30
0.0
 11
10466.80657827466
 21
3292.66851271816
 31
0.0
  0
LINE
  5
1CDA8
330
1C77F
100
AcDbEntity
  8
HATCH
100
AcDbLine
 10
10268.10574381838
 20
3197.92388822346
 30
0.0
 11
10342.00657827465
 21
3325.923888223488
 31
0.0
  0
LINE
  5
1CDA9
330
1C77F
100
AcDbEntity
  8
HATCH
100
AcDbLine
 10
10303.60657827465
 20
3325.923888223488
 30
0.0
 11
10322.80657827467
 21
3292.66851271816
 31
0.0
  0
LINE
  5
1CDAA
330
1C77F
100
AcDbEntity
  8
HATCH
100
AcDbLine
 10
6343.779543292819
 20
3197.923888222797
 30
0.0
 11
6417.680377749085
 21
3325.923888222791
 31
0.0
  0
LINE
  5
1CDAB
330
1C77F
100
AcDbEntity
  8
HATCH
100
AcDbLine
 10
6379.280377749087
 20
3325.923888222789
 30
0.0
 11
6398.480377749086
 21
3292.668512717471
 31
0.0
  0
LINE
  5
1CDAC
330
1C77F
100
AcDbEntity
  8
HATCH
100
AcDbLine
 10
6775.779543292817
 20
3197.923888222797
 30
0.0
 11
6849.680377749084
 21
3325.923888222791
 31
0.0
  0
LINE
  5
1CDAD
330
1C77F
100
AcDbEntity
  8
HATCH
100
AcDbLine
 10
6811.280377749087
 20
3325.923888222789
 30
0.0
 11
6830.480377749086
 21
3292.668512717471
 31
0.0
  0
LINE
  5
1CDAE
330
1C77F
100
AcDbEntity
  8
HATCH
100
AcDbLine
 10
6487.779543292816
 20
3197.923888222797
 30
0.0
 11
6561.680377749084
 21
3325.923888222791
 31
0.0
  0
LINE
  5
1CDAF
330
1C77F
100
AcDbEntity
  8
HATCH
100
AcDbLine
 10
6523.280377749087
 20
3325.923888222789
 30
0.0
 11
6542.480377749086
 21
3292.668512717471
 31
0.0
  0
LINE
  5
1CDB0
330
1C77F
100
AcDbEntity
  8
HATCH
100
AcDbLine
 10
6631.779543292816
 20
3197.923888222797
 30
0.0
 11
6705.680377749086
 21
3325.923888222791
 31
0.0
  0
LINE
  5
1CDB1
330
1C77F
100
AcDbEntity
  8
HATCH
100
AcDbLine
 10
6667.280377749086
 20
3325.923888222789
 30
0.0
 11
6686.480377749086
 21
3292.668512717471
 31
0.0
  0
LINE
  5
1CDB2
330
1C77F
100
AcDbEntity
  8
HATCH
100
AcDbLine
 10
6919.779543292817
 20
3197.923888222797
 30
0.0
 11
6993.680377749083
 21
3325.923888222791
 31
0.0
  0
LINE
  5
1CDB3
330
1C77F
100
AcDbEntity
  8
HATCH
100
AcDbLine
 10
6955.280377749088
 20
3325.923888222789
 30
0.0
 11
6974.480377749086
 21
3292.668512717471
 31
0.0
  0
LINE
  5
1CDB4
330
1C77F
100
AcDbEntity
  8
HATCH
100
AcDbLine
 10
5200.338028947268
 20
3197.923888222797
 30
0.0
 11
5181.138028947271
 21
3231.179263728115
 31
0.0
  0
LINE
  5
1CDB5
330
1C77F
100
AcDbEntity
  8
HATCH
100
AcDbLine
 10
8392.563108462425
 20
3197.923888222877
 30
0.0
 11
8373.363108462429
 21
3231.179263728196
 31
0.0
  0
LINE
  5
1CDB6
330
1C77F
100
AcDbEntity
  8
HATCH
100
AcDbLine
 10
8392.563108464354
 20
3197.923888223495
 30
0.0
 11
8373.363108464349
 21
3231.179263728823
 31
0.0
  0
LINE
  5
1CDB7
330
1C77F
100
AcDbEntity
  8
HATCH
100
AcDbLine
 10
8680.563108462425
 20
3197.923888221601
 30
0.0
 11
8661.363108462424
 21
3231.179263726918
 31
0.0
  0
LINE
  5
1CDB8
330
1C77F
100
AcDbEntity
  8
HATCH
100
AcDbLine
 10
8824.563108462426
 20
3197.923888221601
 30
0.0
 11
8805.363108462426
 21
3231.179263726918
 31
0.0
  0
LINE
  5
1CDB9
330
1C77F
100
AcDbEntity
  8
HATCH
100
AcDbLine
 10
8680.563108464353
 20
3197.923888222219
 30
0.0
 11
8661.363108464351
 21
3231.179263727547
 31
0.0
  0
LINE
  5
1CDBA
330
1C77F
100
AcDbEntity
  8
HATCH
100
AcDbLine
 10
8824.563108464353
 20
3197.923888222219
 30
0.0
 11
8805.363108464351
 21
3231.179263727547
 31
0.0
  0
LINE
  5
1CDBB
330
1C77F
100
AcDbEntity
  8
HATCH
100
AcDbLine
 10
10594.50574381646
 20
3197.923888222841
 30
0.0
 11
10575.30574381646
 21
3231.179263728158
 31
0.0
  0
LINE
  5
1CDBC
330
1C77F
100
AcDbEntity
  8
HATCH
100
AcDbLine
 10
10306.50574381646
 20
3197.923888222841
 30
0.0
 11
10287.30574381645
 21
3231.179263728158
 31
0.0
  0
LINE
  5
1CDBD
330
1C77F
100
AcDbEntity
  8
HATCH
100
AcDbLine
 10
10450.50574381646
 20
3197.923888222841
 30
0.0
 11
10431.30574381645
 21
3231.179263728158
 31
0.0
  0
LINE
  5
1CDBE
330
1C77F
100
AcDbEntity
  8
HATCH
100
AcDbLine
 10
10738.50574381645
 20
3197.923888222841
 30
0.0
 11
10719.30574381646
 21
3231.179263728158
 31
0.0
  0
LINE
  5
1CDBF
330
1C77F
100
AcDbEntity
  8
HATCH
100
AcDbLine
 10
10594.50574381838
 20
3197.92388822346
 30
0.0
 11
10575.30574381838
 21
3231.179263728787
 31
0.0
  0
LINE
  5
1CDC0
330
1C77F
100
AcDbEntity
  8
HATCH
100
AcDbLine
 10
10738.50574381838
 20
3197.92388822346
 30
0.0
 11
10719.30574381838
 21
3231.179263728787
 31
0.0
  0
LINE
  5
1CDC1
330
1C77F
100
AcDbEntity
  8
HATCH
100
AcDbLine
 10
10450.50574381839
 20
3197.92388822346
 30
0.0
 11
10431.30574381838
 21
3231.179263728787
 31
0.0
  0
LINE
  5
1CDC2
330
1C77F
100
AcDbEntity
  8
HATCH
100
AcDbLine
 10
10306.50574381839
 20
3197.92388822346
 30
0.0
 11
10287.30574381838
 21
3231.179263728787
 31
0.0
  0
LINE
  5
1CDC3
330
1C77F
100
AcDbEntity
  8
TENSEN-1
100
AcDbLine
 10
9714.463942920641
 20
2876.323888222172
 30
0.0
 11
9660.863942920641
 21
2876.323888222172
 31
0.0
  0
LINE
  5
1CDC4
330
1C77F
100
AcDbEntity
  8
TENSEN-1
100
AcDbLine
 10
9660.863942920641
 20
2876.323888222172
 30
0.0
 11
9660.863942920641
 21
3367.523888222172
 31
0.0
  0
LINE
  5
1CDC5
330
1C77F
100
AcDbEntity
  8
TENSEN-1
100
AcDbLine
 10
9660.863942920641
 20
3367.523888222172
 30
0.0
 11
9640.063942920642
 21
3367.523888222172
 31
0.0
  0
LINE
  5
1CDC6
330
1C77F
100
AcDbEntity
  8
TENSEN-1
100
AcDbLine
 10
9640.063942920642
 20
3367.523888222172
 30
0.0
 11
9640.06394292064
 21
2855.523888222172
 31
0.0
  0
LINE
  5
1CDC7
330
1C77F
100
AcDbEntity
  8
TENSEN-1
100
AcDbLine
 10
9640.06394292064
 20
2855.523888222172
 30
0.0
 11
9714.463942920641
 21
2855.523888222172
 31
0.0
  0
LINE
  5
1CDC8
330
1C77F
100
AcDbEntity
  8
TENSEN-1
100
AcDbLine
 10
9714.463942920641
 20
2855.523888222172
 30
0.0
 11
9714.463942920641
 21
2876.323888222172
 31
0.0
  0
LINE
  5
1CDC9
330
1C77F
100
AcDbEntity
  8
TENSEN-1
100
AcDbLine
 10
9362.463942920639
 20
2876.323888222175
 30
0.0
 11
9416.063942920644
 21
2876.323888222175
 31
0.0
  0
LINE
  5
1CDCA
330
1C77F
100
AcDbEntity
  8
TENSEN-1
100
AcDbLine
 10
9416.063942920644
 20
2876.323888222175
 30
0.0
 11
9416.063942920644
 21
3367.523888222176
 31
0.0
  0
LINE
  5
1CDCB
330
1C77F
100
AcDbEntity
  8
TENSEN-1
100
AcDbLine
 10
9416.063942920644
 20
3367.523888222176
 30
0.0
 11
9436.863942920645
 21
3367.523888222176
 31
0.0
  0
LINE
  5
1CDCC
330
1C77F
100
AcDbEntity
  8
TENSEN-1
100
AcDbLine
 10
9436.863942920645
 20
3367.523888222176
 30
0.0
 11
9436.863942920645
 21
2855.523888222176
 31
0.0
  0
LINE
  5
1CDCD
330
1C77F
100
AcDbEntity
  8
TENSEN-1
100
AcDbLine
 10
9436.863942920645
 20
2855.523888222176
 30
0.0
 11
9362.463942920639
 21
2855.523888222176
 31
0.0
  0
LINE
  5
1CDCE
330
1C77F
100
AcDbEntity
  8
TENSEN-1
100
AcDbLine
 10
9362.463942920639
 20
2855.523888222176
 30
0.0
 11
9362.463942920639
 21
2876.323888222175
 31
0.0
  0
LINE
  5
1CDCF
330
1C77F
100
AcDbEntity
  8
HASHIRA
100
AcDbLine
 10
9394.463942920641
 20
3325.92388822217
 30
0.0
 11
9682.463942920641
 21
3325.923888222175
 31
0.0
  0
LINE
  5
1CDD0
330
1C77F
100
AcDbEntity
  8
HASHIRA
100
AcDbLine
 10
9682.463942920641
 20
3325.923888222175
 30
0.0
 11
9682.463942920641
 21
3340.323888222175
 31
0.0
  0
LINE
  5
1CDD1
330
1C77F
100
AcDbEntity
  8
HASHIRA
100
AcDbLine
 10
9682.463942920641
 20
3340.323888222175
 30
0.0
 11
9394.463942920641
 21
3340.323888222171
 31
0.0
  0
LINE
  5
1CDD2
330
1C77F
100
AcDbEntity
  8
HASHIRA
100
AcDbLine
 10
9394.463942920641
 20
3340.323888222171
 30
0.0
 11
9394.463942920641
 21
3325.92388822217
 31
0.0
  0
LINE
  5
1CDD3
330
1C77F
100
AcDbEntity
  8
BOLT
100
AcDbLine
 10
9552.063942920641
 20
3369.123888222172
 30
0.0
 11
9552.063942920641
 21
3376.97585188315
 31
0.0
  0
LINE
  5
1CDD4
330
1C77F
100
AcDbEntity
  8
BOLT
100
AcDbLine
 10
9552.063942920641
 20
3376.97585188315
 30
0.0
 11
9538.463942920641
 21
3384.827815544132
 31
0.0
  0
LINE
  5
1CDD5
330
1C77F
100
AcDbEntity
  8
BOLT
100
AcDbLine
 10
9538.463942920641
 20
3384.827815544132
 30
0.0
 11
9524.863942920639
 21
3376.97585188315
 31
0.0
  0
LINE
  5
1CDD6
330
1C77F
100
AcDbEntity
  8
BOLT
100
AcDbLine
 10
9524.863942920639
 20
3376.97585188315
 30
0.0
 11
9524.863942920639
 21
3369.123888222172
 31
0.0
  0
LINE
  5
1CDD7
330
1C77F
100
AcDbEntity
  8
BOLT
100
AcDbLine
 10
9524.863942920639
 20
3369.123888222172
 30
0.0
 11
9524.863942920639
 21
3361.271924561193
 31
0.0
  0
LINE
  5
1CDD8
330
1C77F
100
AcDbEntity
  8
BOLT
100
AcDbLine
 10
9524.863942920639
 20
3361.271924561193
 30
0.0
 11
9538.463942920641
 21
3353.419960900213
 31
0.0
  0
LINE
  5
1CDD9
330
1C77F
100
AcDbEntity
  8
BOLT
100
AcDbLine
 10
9538.463942920641
 20
3353.419960900213
 30
0.0
 11
9552.063942920641
 21
3361.271924561193
 31
0.0
  0
LINE
  5
1CDDA
330
1C77F
100
AcDbEntity
  8
BOLT
100
AcDbLine
 10
9552.063942920641
 20
3361.271924561193
 30
0.0
 11
9552.063942920641
 21
3369.123888222172
 31
0.0
  0
LINE
  5
1CDDB
330
1C77F
100
AcDbEntity
  8
BOLT
100
AcDbLine
 10
9552.063942920641
 20
3433.123888222172
 30
0.0
 11
9552.063942920641
 21
3440.97585188315
 31
0.0
  0
LINE
  5
1CDDC
330
1C77F
100
AcDbEntity
  8
BOLT
100
AcDbLine
 10
9552.063942920641
 20
3440.97585188315
 30
0.0
 11
9538.463942920641
 21
3448.827815544132
 31
0.0
  0
LINE
  5
1CDDD
330
1C77F
100
AcDbEntity
  8
BOLT
100
AcDbLine
 10
9538.463942920641
 20
3448.827815544132
 30
0.0
 11
9524.863942920639
 21
3440.97585188315
 31
0.0
  0
LINE
  5
1CDDE
330
1C77F
100
AcDbEntity
  8
BOLT
100
AcDbLine
 10
9524.863942920639
 20
3440.97585188315
 30
0.0
 11
9524.863942920639
 21
3433.123888222172
 31
0.0
  0
LINE
  5
1CDDF
330
1C77F
100
AcDbEntity
  8
BOLT
100
AcDbLine
 10
9524.863942920639
 20
3433.123888222172
 30
0.0
 11
9524.863942920639
 21
3425.271924561193
 31
0.0
  0
LINE
  5
1CDE0
330
1C77F
100
AcDbEntity
  8
BOLT
100
AcDbLine
 10
9524.863942920639
 20
3425.271924561193
 30
0.0
 11
9538.463942920641
 21
3417.419960900213
 31
0.0
  0
LINE
  5
1CDE1
330
1C77F
100
AcDbEntity
  8
BOLT
100
AcDbLine
 10
9538.463942920641
 20
3417.419960900213
 30
0.0
 11
9552.063942920641
 21
3425.271924561193
 31
0.0
  0
LINE
  5
1CDE2
330
1C77F
100
AcDbEntity
  8
BOLT
100
AcDbLine
 10
9552.063942920641
 20
3425.271924561193
 30
0.0
 11
9552.063942920641
 21
3433.123888222172
 31
0.0
  0
LINE
  5
1CDE3
330
1C77F
100
AcDbEntity
  8
KISO
100
AcDbLine
 10
5118.137742396994
 20
2557.923888222177
 30
0.0
 11
6398.137742396993
 21
2557.923888222177
 31
0.0
  0
LINE
  5
1CDE4
330
1C77F
100
AcDbEntity
  8
KISO
100
AcDbLine
 10
6398.137742396993
 20
2557.923888222177
 30
0.0
 11
6398.137742396993
 21
2717.923888222177
 31
0.0
  0
LINE
  5
1CDE5
330
1C77F
100
AcDbEntity
  8
KISO
100
AcDbLine
 10
6398.137742396993
 20
2717.923888222177
 30
0.0
 11
5118.137742396994
 21
2717.923888222177
 31
0.0
  0
LINE
  5
1CDE6
330
1C77F
100
AcDbEntity
  8
KISO
100
AcDbLine
 10
5118.137742396994
 20
2717.923888222177
 30
0.0
 11
5118.137742396994
 21
2557.923888222177
 31
0.0
  0
LINE
  5
1CDE7
330
1C77F
100
AcDbEntity
  8
HATCH
100
AcDbLine
 10
6382.17954329281
 20
3197.923888222797
 30
0.0
 11
6362.979543292811
 21
3231.179263728115
 31
0.0
  0
LINE
  5
1CDE8
330
1C77F
100
AcDbEntity
  8
HATCH
100
AcDbLine
 10
6814.17954329281
 20
3197.923888222797
 30
0.0
 11
6794.979543292811
 21
3231.179263728115
 31
0.0
  0
LINE
  5
1CDE9
330
1C77F
100
AcDbEntity
  8
HATCH
100
AcDbLine
 10
6526.179543292809
 20
3197.923888222797
 30
0.0
 11
6506.979543292811
 21
3231.179263728115
 31
0.0
  0
LINE
  5
1CDEA
330
1C77F
100
AcDbEntity
  8
HATCH
100
AcDbLine
 10
6670.17954329281
 20
3197.923888222797
 30
0.0
 11
6650.979543292812
 21
3231.179263728115
 31
0.0
  0
LINE
  5
1CDEB
330
1C77F
100
AcDbEntity
  8
HATCH
100
AcDbLine
 10
6958.179543292811
 20
3197.923888222797
 30
0.0
 11
6938.979543292811
 21
3231.179263728115
 31
0.0
  0
LINE
  5
1CDEC
330
1C77F
100
AcDbEntity
  8
HASHIRA
100
AcDbLine
 10
5694.137742396993
 20
3325.923888222181
 30
0.0
 11
5822.137742396995
 21
3325.923888222181
 31
0.0
  0
LINE
  5
1CDED
330
1C77F
100
AcDbEntity
  8
HASHIRA
100
AcDbLine
 10
5822.137742396995
 20
3325.923888222181
 30
0.0
 11
5822.137742396995
 21
3335.52388822218
 31
0.0
  0
LINE
  5
1CDEE
330
1C77F
100
AcDbEntity
  8
HASHIRA
100
AcDbLine
 10
5822.137742396995
 20
3335.52388822218
 30
0.0
 11
5694.137742396993
 21
3335.52388822218
 31
0.0
  0
LINE
  5
1CDEF
330
1C77F
100
AcDbEntity
  8
HASHIRA
100
AcDbLine
 10
5694.137742396993
 20
3335.52388822218
 30
0.0
 11
5694.137742396993
 21
3325.923888222181
 31
0.0
  0
LINE
  5
1CDF0
330
1C77F
100
AcDbEntity
  8
TENSEN-1
100
AcDbLine
 10
5694.137742396993
 20
2876.32388822218
 30
0.0
 11
5747.737742396992
 21
2876.32388822218
 31
0.0
  0
LINE
  5
1CDF1
330
1C77F
100
AcDbEntity
  8
TENSEN-1
100
AcDbLine
 10
5747.737742396992
 20
2876.32388822218
 30
0.0
 11
5747.737742396992
 21
3367.52388822218
 31
0.0
  0
LINE
  5
1CDF2
330
1C77F
100
AcDbEntity
  8
TENSEN-1
100
AcDbLine
 10
5747.737742396992
 20
3367.52388822218
 30
0.0
 11
5768.537742396996
 21
3367.52388822218
 31
0.0
  0
LINE
  5
1CDF3
330
1C77F
100
AcDbEntity
  8
TENSEN-1
100
AcDbLine
 10
5768.537742396996
 20
3367.52388822218
 30
0.0
 11
5768.537742396996
 21
2855.52388822218
 31
0.0
  0
LINE
  5
1CDF4
330
1C77F
100
AcDbEntity
  8
TENSEN-1
100
AcDbLine
 10
5768.537742396996
 20
2855.52388822218
 30
0.0
 11
5694.137742396993
 21
2855.52388822218
 31
0.0
  0
LINE
  5
1CDF5
330
1C77F
100
AcDbEntity
  8
TENSEN-1
100
AcDbLine
 10
5694.137742396993
 20
2855.52388822218
 30
0.0
 11
5694.137742396993
 21
2876.32388822218
 31
0.0
  0
LINE
  5
1CDF6
330
1C77F
100
AcDbEntity
  8
U1
100
AcDbLine
 10
12349.67906519162
 20
2556.983392855721
 30
0.0
 11
12649.67906519162
 21
2556.983392855721
 31
0.0
  0
LINE
  5
1CDF7
330
1C77F
100
AcDbEntity
  8
U1
100
AcDbLine
 10
12649.67906519162
 20
2556.983392855721
 30
0.0
 11
12649.67906519162
 21
2856.98339285572
 31
0.0
  0
LINE
  5
1CDF8
330
1C77F
100
AcDbEntity
  8
U1
100
AcDbLine
 10
12649.67906519162
 20
2856.98339285572
 30
0.0
 11
12349.67906519162
 21
2856.98339285572
 31
0.0
  0
LINE
  5
1CDF9
330
1C77F
100
AcDbEntity
  8
U1
100
AcDbLine
 10
12349.67906519162
 20
2856.98339285572
 30
0.0
 11
12349.67906519162
 21
2556.983392855721
 31
0.0
  0
LINE
  5
1CDFA
330
1C77F
100
AcDbEntity
  8
U1
100
AcDbLine
 10
12179.67906519162
 20
2546.983392855721
 30
0.0
 11
12819.67906519162
 21
2546.983392855721
 31
0.0
  0
LINE
  5
1CDFB
330
1C77F
100
AcDbEntity
  8
U1
100
AcDbLine
 10
12819.67906519162
 20
2546.983392855721
 30
0.0
 11
12819.67906519162
 21
2866.983392855721
 31
0.0
  0
LINE
  5
1CDFC
330
1C77F
100
AcDbEntity
  8
U1
100
AcDbLine
 10
12819.67906519162
 20
2866.983392855721
 30
0.0
 11
12179.67906519162
 21
2866.983392855721
 31
0.0
  0
LINE
  5
1CDFD
330
1C77F
100
AcDbEntity
  8
U1
100
AcDbLine
 10
12179.67906519162
 20
2866.983392855721
 30
0.0
 11
12179.67906519162
 21
2546.983392855721
 31
0.0
  0
LINE
  5
1CDFE
330
1C77F
100
AcDbEntity
  8
U1
100
AcDbLine
 10
12179.67906519162
 20
3625.176085387133
 30
0.0
 11
12819.67906519162
 21
3625.176085387133
 31
0.0
  0
LINE
  5
1CDFF
330
1C77F
100
AcDbEntity
  8
U1
100
AcDbLine
 10
12819.67906519162
 20
3625.176085387133
 30
0.0
 11
12819.67906519162
 21
3649.176085387133
 31
0.0
  0
LINE
  5
1CE00
330
1C77F
100
AcDbEntity
  8
U1
100
AcDbLine
 10
12819.67906519162
 20
3649.176085387133
 30
0.0
 11
12179.67906519162
 21
3649.176085387133
 31
0.0
  0
LINE
  5
1CE01
330
1C77F
100
AcDbEntity
  8
U1
100
AcDbLine
 10
12179.67906519162
 20
3649.176085387133
 30
0.0
 11
12179.67906519162
 21
3625.176085387133
 31
0.0
  0
LINE
  5
1CE02
330
1C77F
100
AcDbEntity
  8
DOMAKON
100
AcDbLine
 10
8244.217031986066
 20
5395.715360473253
 30
0.0
 11
12034.21703198606
 21
5395.715360473253
 31
0.0
  0
LINE
  5
1CE03
330
1C77F
100
AcDbEntity
  8
DOMAKON
100
AcDbLine
 10
12034.21703198606
 20
5395.715360473253
 30
0.0
 11
12034.21703198606
 21
9595.715360473253
 31
0.0
  0
LINE
  5
1CE04
330
1C77F
100
AcDbEntity
  8
DOMAKON
100
AcDbLine
 10
12034.21703198606
 20
9595.715360473253
 30
0.0
 11
8244.217031986066
 21
9595.715360473253
 31
0.0
  0
LINE
  5
1CE05
330
1C77F
100
AcDbEntity
  8
DOMAKON
100
AcDbLine
 10
8124.217031986061
 20
9595.715360473253
 30
0.0
 11
4334.217031986058
 21
9595.715360473253
 31
0.0
  0
LINE
  5
1CE06
330
1C77F
100
AcDbEntity
  8
DOMAKON
100
AcDbLine
 10
4334.217031986058
 20
9595.715360473253
 30
0.0
 11
4334.217031986058
 21
5395.715360473253
 31
0.0
  0
LINE
  5
1CE07
330
1C77F
100
AcDbEntity
  8
DOMAKON
100
AcDbLine
 10
4334.217031986058
 20
5395.715360473253
 30
0.0
 11
8124.217031986061
 21
5395.715360473253
 31
0.0
  0
LINE
  5
1CE08
330
1C77F
100
AcDbEntity
  8
U1
100
AcDbLine
 10
11640.41703198606
 20
9325.915360473253
 30
0.0
 11
11608.01703198605
 21
9325.915360473253
 31
0.0
  0
LINE
  5
1CE09
330
1C77F
100
AcDbEntity
  8
U1
100
AcDbLine
 10
11608.01703198605
 20
9265.515360473251
 30
0.0
 11
11660.41703198606
 21
9265.515360473251
 31
0.0
  0
ARC
  5
1CE0A
330
1C77F
100
AcDbEntity
  8
U1
100
AcDbCircle
 10
11608.01703198605
 20
9269.515360473251
 30
0.0
 40
4.0
100
AcDbArc
 50
180.0
 51
270.0
  0
ARC
  5
1CE0B
330
1C77F
100
AcDbEntity
  8
U1
100
AcDbCircle
 10
11608.01703198605
 20
9321.915360473253
 30
0.0
 40
4.0
100
AcDbArc
 50
90.0
 51
180.0
  0
LINE
  5
1CE0C
330
1C77F
100
AcDbEntity
  8
U1
100
AcDbLine
 10
11604.01703198606
 20
9321.915360473253
 30
0.0
 11
11604.01703198606
 21
9269.515360473251
 31
0.0
  0
ARC
  5
1CE0D
330
1C77F
100
AcDbEntity
  8
U1
100
AcDbCircle
 10
11660.41703198606
 20
9269.515360473251
 30
0.0
 40
4.0
100
AcDbArc
 50
270.0
 51
0.0
  0
ARC
  5
1CE0E
330
1C77F
100
AcDbEntity
  8
U1
100
AcDbCircle
 10
11640.41703198606
 20
9321.915360473253
 30
0.0
 40
4.0
100
AcDbArc
 50
0.0
 51
90.0
  0
ARC
  5
1CE0F
330
1C77F
100
AcDbEntity
  8
U1
100
AcDbCircle
 10
11647.86703198605
 20
9312.665360473252
 30
0.0
 40
1.149999999999977
100
AcDbArc
 50
180.0
 51
0.0
  0
LINE
  5
1CE10
330
1C77F
100
AcDbEntity
  8
U1
100
AcDbLine
 10
11651.31703198606
 20
9320.215360473252
 30
0.0
 11
11651.31703198606
 21
9312.665360473252
 31
0.0
  0
LINE
  5
1CE11
330
1C77F
100
AcDbEntity
  8
U1
100
AcDbLine
 10
11649.01703198605
 20
9320.215360473252
 30
0.0
 11
11651.31703198606
 21
9320.215360473252
 31
0.0
  0
LINE
  5
1CE12
330
1C77F
100
AcDbEntity
  8
U1
100
AcDbLine
 10
11646.71703198606
 20
9313.215360473252
 30
0.0
 11
11649.01703198605
 21
9313.215360473252
 31
0.0
  0
ARC
  5
1CE13
330
1C77F
100
AcDbEntity
  8
U1
100
AcDbCircle
 10
11647.86703198605
 20
9312.665360473252
 30
0.0
 40
3.450000000000044
100
AcDbArc
 50
180.0
 51
0.0
  0
LINE
  5
1CE14
330
1C77F
100
AcDbEntity
  8
U1
100
AcDbLine
 10
11646.71703198606
 20
9312.665360473252
 30
0.0
 11
11646.71703198606
 21
9321.915360473253
 31
0.0
  0
LINE
  5
1CE15
330
1C77F
100
AcDbEntity
  8
U1
100
AcDbLine
 10
11649.01703198605
 20
9321.915360473253
 30
0.0
 11
11649.01703198605
 21
9312.665360473252
 31
0.0
  0
LINE
  5
1CE16
330
1C77F
100
AcDbEntity
  8
U1
100
AcDbLine
 10
11644.41703198606
 20
9312.665360473252
 30
0.0
 11
11644.41703198606
 21
9321.915360473253
 31
0.0
  0
ARC
  5
1CE17
330
1C77F
100
AcDbEntity
  8
U1
100
AcDbCircle
 10
11660.41703198606
 20
9321.915360473253
 30
0.0
 40
4.0
100
AcDbArc
 50
0.0
 51
90.0
  0
LINE
  5
1CE18
330
1C77F
100
AcDbEntity
  8
U1
100
AcDbLine
 10
11660.41703198606
 20
9325.915360473253
 30
0.0
 11
11653.01703198605
 21
9325.915360473253
 31
0.0
  0
ARC
  5
1CE19
330
1C77F
100
AcDbEntity
  8
U1
100
AcDbCircle
 10
11653.01703198605
 20
9321.915360473253
 30
0.0
 40
4.0
100
AcDbArc
 50
90.0
 51
180.0
  0
LINE
  5
1CE1A
330
1C77F
100
AcDbEntity
  8
U1
100
AcDbLine
 10
11664.41703198606
 20
9269.515360473251
 30
0.0
 11
11664.41703198606
 21
9321.915360473253
 31
0.0
  0
LINE
  5
1CE1B
330
1C77F
100
AcDbEntity
  8
U1
100
AcDbLine
 10
11640.41703198606
 20
7525.915360473252
 30
0.0
 11
11608.01703198605
 21
7525.915360473252
 31
0.0
  0
LINE
  5
1CE1C
330
1C77F
100
AcDbEntity
  8
U1
100
AcDbLine
 10
11608.01703198605
 20
7465.515360473251
 30
0.0
 11
11660.41703198606
 21
7465.515360473251
 31
0.0
  0
ARC
  5
1CE1D
330
1C77F
100
AcDbEntity
  8
U1
100
AcDbCircle
 10
11608.01703198605
 20
7469.515360473251
 30
0.0
 40
4.0
100
AcDbArc
 50
180.0
 51
270.0
  0
ARC
  5
1CE1E
330
1C77F
100
AcDbEntity
  8
U1
100
AcDbCircle
 10
11608.01703198605
 20
7521.915360473252
 30
0.0
 40
4.0
100
AcDbArc
 50
90.0
 51
180.0
  0
LINE
  5
1CE1F
330
1C77F
100
AcDbEntity
  8
U1
100
AcDbLine
 10
11604.01703198606
 20
7521.915360473252
 30
0.0
 11
11604.01703198606
 21
7469.515360473251
 31
0.0
  0
ARC
  5
1CE20
330
1C77F
100
AcDbEntity
  8
U1
100
AcDbCircle
 10
11660.41703198606
 20
7469.515360473251
 30
0.0
 40
4.0
100
AcDbArc
 50
270.0
 51
0.0
  0
ARC
  5
1CE21
330
1C77F
100
AcDbEntity
  8
U1
100
AcDbCircle
 10
11640.41703198606
 20
7521.915360473252
 30
0.0
 40
4.0
100
AcDbArc
 50
0.0
 51
90.0
  0
ARC
  5
1CE22
330
1C77F
100
AcDbEntity
  8
U1
100
AcDbCircle
 10
11647.86703198605
 20
7512.665360473251
 30
0.0
 40
1.149999999999977
100
AcDbArc
 50
180.0
 51
0.0
  0
LINE
  5
1CE23
330
1C77F
100
AcDbEntity
  8
U1
100
AcDbLine
 10
11651.31703198606
 20
7520.215360473253
 30
0.0
 11
11651.31703198606
 21
7512.665360473251
 31
0.0
  0
LINE
  5
1CE24
330
1C77F
100
AcDbEntity
  8
U1
100
AcDbLine
 10
11649.01703198605
 20
7520.215360473253
 30
0.0
 11
11651.31703198606
 21
7520.215360473253
 31
0.0
  0
LINE
  5
1CE25
330
1C77F
100
AcDbEntity
  8
U1
100
AcDbLine
 10
11646.71703198606
 20
7513.215360473253
 30
0.0
 11
11649.01703198605
 21
7513.215360473253
 31
0.0
  0
ARC
  5
1CE26
330
1C77F
100
AcDbEntity
  8
U1
100
AcDbCircle
 10
11647.86703198605
 20
7512.665360473251
 30
0.0
 40
3.450000000000044
100
AcDbArc
 50
180.0
 51
0.0
  0
LINE
  5
1CE27
330
1C77F
100
AcDbEntity
  8
U1
100
AcDbLine
 10
11646.71703198606
 20
7512.665360473251
 30
0.0
 11
11646.71703198606
 21
7521.915360473252
 31
0.0
  0
LINE
  5
1CE28
330
1C77F
100
AcDbEntity
  8
U1
100
AcDbLine
 10
11649.01703198605
 20
7521.915360473252
 30
0.0
 11
11649.01703198605
 21
7512.665360473251
 31
0.0
  0
LINE
  5
1CE29
330
1C77F
100
AcDbEntity
  8
U1
100
AcDbLine
 10
11644.41703198606
 20
7512.665360473251
 30
0.0
 11
11644.41703198606
 21
7521.915360473252
 31
0.0
  0
ARC
  5
1CE2A
330
1C77F
100
AcDbEntity
  8
U1
100
AcDbCircle
 10
11660.41703198606
 20
7521.915360473252
 30
0.0
 40
4.0
100
AcDbArc
 50
0.0
 51
90.0
  0
LINE
  5
1CE2B
330
1C77F
100
AcDbEntity
  8
U1
100
AcDbLine
 10
11660.41703198606
 20
7525.915360473252
 30
0.0
 11
11653.01703198605
 21
7525.915360473252
 31
0.0
  0
ARC
  5
1CE2C
330
1C77F
100
AcDbEntity
  8
U1
100
AcDbCircle
 10
11653.01703198605
 20
7521.915360473252
 30
0.0
 40
4.0
100
AcDbArc
 50
90.0
 51
180.0
  0
LINE
  5
1CE2D
330
1C77F
100
AcDbEntity
  8
U1
100
AcDbLine
 10
11664.41703198606
 20
7469.515360473251
 30
0.0
 11
11664.41703198606
 21
7521.915360473252
 31
0.0
  0
LINE
  5
1CE2E
330
1C77F
100
AcDbEntity
  8
U1
100
AcDbLine
 10
11640.41703198606
 20
5725.915360473253
 30
0.0
 11
11608.01703198605
 21
5725.915360473253
 31
0.0
  0
LINE
  5
1CE2F
330
1C77F
100
AcDbEntity
  8
U1
100
AcDbLine
 10
11608.01703198605
 20
5665.515360473253
 30
0.0
 11
11660.41703198606
 21
5665.515360473253
 31
0.0
  0
ARC
  5
1CE30
330
1C77F
100
AcDbEntity
  8
U1
100
AcDbCircle
 10
11608.01703198605
 20
5669.515360473252
 30
0.0
 40
4.0
100
AcDbArc
 50
180.0
 51
270.0
  0
ARC
  5
1CE31
330
1C77F
100
AcDbEntity
  8
U1
100
AcDbCircle
 10
11608.01703198605
 20
5721.915360473253
 30
0.0
 40
4.0
100
AcDbArc
 50
90.0
 51
180.0
  0
LINE
  5
1CE32
330
1C77F
100
AcDbEntity
  8
U1
100
AcDbLine
 10
11604.01703198606
 20
5721.915360473253
 30
0.0
 11
11604.01703198606
 21
5669.515360473252
 31
0.0
  0
ARC
  5
1CE33
330
1C77F
100
AcDbEntity
  8
U1
100
AcDbCircle
 10
11660.41703198606
 20
5669.515360473252
 30
0.0
 40
4.0
100
AcDbArc
 50
270.0
 51
0.0
  0
ARC
  5
1CE34
330
1C77F
100
AcDbEntity
  8
U1
100
AcDbCircle
 10
11640.41703198606
 20
5721.915360473253
 30
0.0
 40
4.0
100
AcDbArc
 50
0.0
 51
90.0
  0
ARC
  5
1CE35
330
1C77F
100
AcDbEntity
  8
U1
100
AcDbCircle
 10
11647.86703198605
 20
5712.665360473253
 30
0.0
 40
1.149999999999977
100
AcDbArc
 50
180.0
 51
0.0
  0
LINE
  5
1CE36
330
1C77F
100
AcDbEntity
  8
U1
100
AcDbLine
 10
11651.31703198606
 20
5720.215360473253
 30
0.0
 11
11651.31703198606
 21
5712.665360473253
 31
0.0
  0
LINE
  5
1CE37
330
1C77F
100
AcDbEntity
  8
U1
100
AcDbLine
 10
11649.01703198605
 20
5720.215360473253
 30
0.0
 11
11651.31703198606
 21
5720.215360473253
 31
0.0
  0
LINE
  5
1CE38
330
1C77F
100
AcDbEntity
  8
U1
100
AcDbLine
 10
11646.71703198606
 20
5713.215360473252
 30
0.0
 11
11649.01703198605
 21
5713.215360473252
 31
0.0
  0
ARC
  5
1CE39
330
1C77F
100
AcDbEntity
  8
U1
100
AcDbCircle
 10
11647.86703198605
 20
5712.665360473253
 30
0.0
 40
3.450000000000044
100
AcDbArc
 50
180.0
 51
0.0
  0
LINE
  5
1CE3A
330
1C77F
100
AcDbEntity
  8
U1
100
AcDbLine
 10
11646.71703198606
 20
5712.665360473253
 30
0.0
 11
11646.71703198606
 21
5721.915360473252
 31
0.0
  0
LINE
  5
1CE3B
330
1C77F
100
AcDbEntity
  8
U1
100
AcDbLine
 10
11649.01703198605
 20
5721.915360473253
 30
0.0
 11
11649.01703198605
 21
5712.665360473253
 31
0.0
  0
LINE
  5
1CE3C
330
1C77F
100
AcDbEntity
  8
U1
100
AcDbLine
 10
11644.41703198606
 20
5712.665360473253
 30
0.0
 11
11644.41703198606
 21
5721.915360473253
 31
0.0
  0
ARC
  5
1CE3D
330
1C77F
100
AcDbEntity
  8
U1
100
AcDbCircle
 10
11660.41703198606
 20
5721.915360473253
 30
0.0
 40
4.0
100
AcDbArc
 50
0.0
 51
90.0
  0
LINE
  5
1CE3E
330
1C77F
100
AcDbEntity
  8
U1
100
AcDbLine
 10
11660.41703198606
 20
5725.915360473253
 30
0.0
 11
11653.01703198605
 21
5725.915360473253
 31
0.0
  0
ARC
  5
1CE3F
330
1C77F
100
AcDbEntity
  8
U1
100
AcDbCircle
 10
11653.01703198605
 20
5721.915360473253
 30
0.0
 40
4.0
100
AcDbArc
 50
90.0
 51
180.0
  0
LINE
  5
1CE40
330
1C77F
100
AcDbEntity
  8
U1
100
AcDbLine
 10
11664.41703198606
 20
5669.515360473252
 30
0.0
 11
11664.41703198606
 21
5721.915360473253
 31
0.0
  0
LINE
  5
1CE41
330
1C77F
100
AcDbEntity
  8
U1
100
AcDbLine
 10
8840.417031986062
 20
9325.915360473253
 30
0.0
 11
8808.017031986059
 21
9325.915360473253
 31
0.0
  0
LINE
  5
1CE42
330
1C77F
100
AcDbEntity
  8
U1
100
AcDbLine
 10
8808.017031986059
 20
9265.515360473251
 30
0.0
 11
8860.41703198606
 21
9265.515360473251
 31
0.0
  0
ARC
  5
1CE43
330
1C77F
100
AcDbEntity
  8
U1
100
AcDbCircle
 10
8808.017031986059
 20
9269.515360473251
 30
0.0
 40
4.0
100
AcDbArc
 50
180.0
 51
270.0
  0
ARC
  5
1CE44
330
1C77F
100
AcDbEntity
  8
U1
100
AcDbCircle
 10
8808.017031986059
 20
9321.915360473253
 30
0.0
 40
4.0
100
AcDbArc
 50
90.0
 51
180.0
  0
LINE
  5
1CE45
330
1C77F
100
AcDbEntity
  8
U1
100
AcDbLine
 10
8804.017031986061
 20
9321.915360473253
 30
0.0
 11
8804.017031986061
 21
9269.515360473251
 31
0.0
  0
ARC
  5
1CE46
330
1C77F
100
AcDbEntity
  8
U1
100
AcDbCircle
 10
8860.41703198606
 20
9269.515360473251
 30
0.0
 40
4.0
100
AcDbArc
 50
270.0
 51
0.0
  0
ARC
  5
1CE47
330
1C77F
100
AcDbEntity
  8
U1
100
AcDbCircle
 10
8840.417031986062
 20
9321.915360473253
 30
0.0
 40
4.0
100
AcDbArc
 50
0.0
 51
90.0
  0
ARC
  5
1CE48
330
1C77F
100
AcDbEntity
  8
U1
100
AcDbCircle
 10
8847.86703198606
 20
9312.665360473252
 30
0.0
 40
1.149999999999977
100
AcDbArc
 50
180.0
 51
0.0
  0
LINE
  5
1CE49
330
1C77F
100
AcDbEntity
  8
U1
100
AcDbLine
 10
8851.317031986061
 20
9320.215360473252
 30
0.0
 11
8851.317031986061
 21
9312.665360473252
 31
0.0
  0
LINE
  5
1CE4A
330
1C77F
100
AcDbEntity
  8
U1
100
AcDbLine
 10
8849.017031986059
 20
9320.215360473252
 30
0.0
 11
8851.317031986061
 21
9320.215360473252
 31
0.0
  0
LINE
  5
1CE4B
330
1C77F
100
AcDbEntity
  8
U1
100
AcDbLine
 10
8846.717031986059
 20
9313.215360473252
 30
0.0
 11
8849.017031986059
 21
9313.215360473252
 31
0.0
  0
ARC
  5
1CE4C
330
1C77F
100
AcDbEntity
  8
U1
100
AcDbCircle
 10
8847.86703198606
 20
9312.665360473252
 30
0.0
 40
3.450000000000044
100
AcDbArc
 50
180.0
 51
0.0
  0
LINE
  5
1CE4D
330
1C77F
100
AcDbEntity
  8
U1
100
AcDbLine
 10
8846.717031986059
 20
9312.665360473252
 30
0.0
 11
8846.717031986059
 21
9321.915360473253
 31
0.0
  0
LINE
  5
1CE4E
330
1C77F
100
AcDbEntity
  8
U1
100
AcDbLine
 10
8849.017031986059
 20
9321.915360473253
 30
0.0
 11
8849.017031986059
 21
9312.665360473252
 31
0.0
  0
LINE
  5
1CE4F
330
1C77F
100
AcDbEntity
  8
U1
100
AcDbLine
 10
8844.417031986059
 20
9312.665360473252
 30
0.0
 11
8844.417031986059
 21
9321.915360473253
 31
0.0
  0
ARC
  5
1CE50
330
1C77F
100
AcDbEntity
  8
U1
100
AcDbCircle
 10
8860.41703198606
 20
9321.915360473253
 30
0.0
 40
4.0
100
AcDbArc
 50
0.0
 51
90.0
  0
LINE
  5
1CE51
330
1C77F
100
AcDbEntity
  8
U1
100
AcDbLine
 10
8860.41703198606
 20
9325.915360473253
 30
0.0
 11
8853.017031986059
 21
9325.915360473253
 31
0.0
  0
ARC
  5
1CE52
330
1C77F
100
AcDbEntity
  8
U1
100
AcDbCircle
 10
8853.017031986059
 20
9321.915360473253
 30
0.0
 40
4.0
100
AcDbArc
 50
90.0
 51
180.0
  0
LINE
  5
1CE53
330
1C77F
100
AcDbEntity
  8
U1
100
AcDbLine
 10
8864.417031986061
 20
9269.515360473251
 30
0.0
 11
8864.417031986061
 21
9321.915360473253
 31
0.0
  0
LINE
  5
1CE54
330
1C77F
100
AcDbEntity
  8
U1
100
AcDbLine
 10
8840.417031986062
 20
7525.915360473252
 30
0.0
 11
8808.017031986059
 21
7525.915360473252
 31
0.0
  0
LINE
  5
1CE55
330
1C77F
100
AcDbEntity
  8
U1
100
AcDbLine
 10
8808.017031986059
 20
7465.515360473251
 30
0.0
 11
8860.41703198606
 21
7465.515360473251
 31
0.0
  0
ARC
  5
1CE56
330
1C77F
100
AcDbEntity
  8
U1
100
AcDbCircle
 10
8808.017031986059
 20
7469.515360473251
 30
0.0
 40
4.0
100
AcDbArc
 50
180.0
 51
270.0
  0
ARC
  5
1CE57
330
1C77F
100
AcDbEntity
  8
U1
100
AcDbCircle
 10
8808.017031986059
 20
7521.915360473252
 30
0.0
 40
4.0
100
AcDbArc
 50
90.0
 51
180.0
  0
LINE
  5
1CE58
330
1C77F
100
AcDbEntity
  8
U1
100
AcDbLine
 10
8804.017031986061
 20
7521.915360473252
 30
0.0
 11
8804.017031986061
 21
7469.515360473251
 31
0.0
  0
ARC
  5
1CE59
330
1C77F
100
AcDbEntity
  8
U1
100
AcDbCircle
 10
8860.41703198606
 20
7469.515360473251
 30
0.0
 40
4.0
100
AcDbArc
 50
270.0
 51
0.0
  0
ARC
  5
1CE5A
330
1C77F
100
AcDbEntity
  8
U1
100
AcDbCircle
 10
8840.417031986062
 20
7521.915360473252
 30
0.0
 40
4.0
100
AcDbArc
 50
0.0
 51
90.0
  0
ARC
  5
1CE5B
330
1C77F
100
AcDbEntity
  8
U1
100
AcDbCircle
 10
8847.86703198606
 20
7512.665360473251
 30
0.0
 40
1.149999999999977
100
AcDbArc
 50
180.0
 51
0.0
  0
LINE
  5
1CE5C
330
1C77F
100
AcDbEntity
  8
U1
100
AcDbLine
 10
8851.317031986061
 20
7520.215360473253
 30
0.0
 11
8851.317031986061
 21
7512.665360473251
 31
0.0
  0
LINE
  5
1CE5D
330
1C77F
100
AcDbEntity
  8
U1
100
AcDbLine
 10
8849.017031986059
 20
7520.215360473253
 30
0.0
 11
8851.317031986061
 21
7520.215360473253
 31
0.0
  0
LINE
  5
1CE5E
330
1C77F
100
AcDbEntity
  8
U1
100
AcDbLine
 10
8846.717031986059
 20
7513.215360473253
 30
0.0
 11
8849.017031986059
 21
7513.215360473253
 31
0.0
  0
ARC
  5
1CE5F
330
1C77F
100
AcDbEntity
  8
U1
100
AcDbCircle
 10
8847.86703198606
 20
7512.665360473251
 30
0.0
 40
3.450000000000044
100
AcDbArc
 50
180.0
 51
0.0
  0
LINE
  5
1CE60
330
1C77F
100
AcDbEntity
  8
U1
100
AcDbLine
 10
8846.717031986059
 20
7512.665360473251
 30
0.0
 11
8846.717031986059
 21
7521.915360473252
 31
0.0
  0
LINE
  5
1CE61
330
1C77F
100
AcDbEntity
  8
U1
100
AcDbLine
 10
8849.017031986059
 20
7521.915360473252
 30
0.0
 11
8849.017031986059
 21
7512.665360473251
 31
0.0
  0
LINE
  5
1CE62
330
1C77F
100
AcDbEntity
  8
U1
100
AcDbLine
 10
8844.417031986059
 20
7512.665360473251
 30
0.0
 11
8844.417031986059
 21
7521.915360473252
 31
0.0
  0
ARC
  5
1CE63
330
1C77F
100
AcDbEntity
  8
U1
100
AcDbCircle
 10
8860.41703198606
 20
7521.915360473252
 30
0.0
 40
4.0
100
AcDbArc
 50
0.0
 51
90.0
  0
LINE
  5
1CE64
330
1C77F
100
AcDbEntity
  8
U1
100
AcDbLine
 10
8860.41703198606
 20
7525.915360473252
 30
0.0
 11
8853.017031986059
 21
7525.915360473252
 31
0.0
  0
ARC
  5
1CE65
330
1C77F
100
AcDbEntity
  8
U1
100
AcDbCircle
 10
8853.017031986059
 20
7521.915360473252
 30
0.0
 40
4.0
100
AcDbArc
 50
90.0
 51
180.0
  0
LINE
  5
1CE66
330
1C77F
100
AcDbEntity
  8
U1
100
AcDbLine
 10
8864.417031986061
 20
7469.515360473251
 30
0.0
 11
8864.417031986061
 21
7521.915360473252
 31
0.0
  0
LINE
  5
1CE67
330
1C77F
100
AcDbEntity
  8
U1
100
AcDbLine
 10
8840.417031986062
 20
5725.915360473253
 30
0.0
 11
8808.017031986059
 21
5725.915360473253
 31
0.0
  0
LINE
  5
1CE68
330
1C77F
100
AcDbEntity
  8
U1
100
AcDbLine
 10
8808.017031986059
 20
5665.515360473253
 30
0.0
 11
8860.41703198606
 21
5665.515360473253
 31
0.0
  0
ARC
  5
1CE69
330
1C77F
100
AcDbEntity
  8
U1
100
AcDbCircle
 10
8808.017031986059
 20
5669.515360473252
 30
0.0
 40
4.0
100
AcDbArc
 50
180.0
 51
270.0
  0
ARC
  5
1CE6A
330
1C77F
100
AcDbEntity
  8
U1
100
AcDbCircle
 10
8808.017031986059
 20
5721.915360473253
 30
0.0
 40
4.0
100
AcDbArc
 50
90.0
 51
180.0
  0
LINE
  5
1CE6B
330
1C77F
100
AcDbEntity
  8
U1
100
AcDbLine
 10
8804.017031986061
 20
5721.915360473253
 30
0.0
 11
8804.017031986061
 21
5669.515360473252
 31
0.0
  0
ARC
  5
1CE6C
330
1C77F
100
AcDbEntity
  8
U1
100
AcDbCircle
 10
8860.41703198606
 20
5669.515360473252
 30
0.0
 40
4.0
100
AcDbArc
 50
270.0
 51
0.0
  0
ARC
  5
1CE6D
330
1C77F
100
AcDbEntity
  8
U1
100
AcDbCircle
 10
8840.417031986062
 20
5721.915360473253
 30
0.0
 40
4.0
100
AcDbArc
 50
0.0
 51
90.0
  0
ARC
  5
1CE6E
330
1C77F
100
AcDbEntity
  8
U1
100
AcDbCircle
 10
8847.86703198606
 20
5712.665360473253
 30
0.0
 40
1.149999999999977
100
AcDbArc
 50
180.0
 51
0.0
  0
LINE
  5
1CE6F
330
1C77F
100
AcDbEntity
  8
U1
100
AcDbLine
 10
8851.317031986061
 20
5720.215360473253
 30
0.0
 11
8851.317031986061
 21
5712.665360473253
 31
0.0
  0
LINE
  5
1CE70
330
1C77F
100
AcDbEntity
  8
U1
100
AcDbLine
 10
8849.017031986059
 20
5720.215360473253
 30
0.0
 11
8851.317031986061
 21
5720.215360473253
 31
0.0
  0
LINE
  5
1CE71
330
1C77F
100
AcDbEntity
  8
U1
100
AcDbLine
 10
8846.717031986059
 20
5713.215360473252
 30
0.0
 11
8849.017031986059
 21
5713.215360473252
 31
0.0
  0
ARC
  5
1CE72
330
1C77F
100
AcDbEntity
  8
U1
100
AcDbCircle
 10
8847.86703198606
 20
5712.665360473253
 30
0.0
 40
3.450000000000044
100
AcDbArc
 50
180.0
 51
0.0
  0
LINE
  5
1CE73
330
1C77F
100
AcDbEntity
  8
U1
100
AcDbLine
 10
8846.717031986059
 20
5712.665360473253
 30
0.0
 11
8846.717031986059
 21
5721.915360473252
 31
0.0
  0
LINE
  5
1CE74
330
1C77F
100
AcDbEntity
  8
U1
100
AcDbLine
 10
8849.017031986059
 20
5721.915360473253
 30
0.0
 11
8849.017031986059
 21
5712.665360473253
 31
0.0
  0
LINE
  5
1CE75
330
1C77F
100
AcDbEntity
  8
U1
100
AcDbLine
 10
8844.417031986059
 20
5712.665360473253
 30
0.0
 11
8844.417031986059
 21
5721.915360473253
 31
0.0
  0
ARC
  5
1CE76
330
1C77F
100
AcDbEntity
  8
U1
100
AcDbCircle
 10
8860.41703198606
 20
5721.915360473253
 30
0.0
 40
4.0
100
AcDbArc
 50
0.0
 51
90.0
  0
LINE
  5
1CE77
330
1C77F
100
AcDbEntity
  8
U1
100
AcDbLine
 10
8860.41703198606
 20
5725.915360473253
 30
0.0
 11
8853.017031986059
 21
5725.915360473253
 31
0.0
  0
ARC
  5
1CE78
330
1C77F
100
AcDbEntity
  8
U1
100
AcDbCircle
 10
8853.017031986059
 20
5721.915360473253
 30
0.0
 40
4.0
100
AcDbArc
 50
90.0
 51
180.0
  0
LINE
  5
1CE79
330
1C77F
100
AcDbEntity
  8
U1
100
AcDbLine
 10
8864.417031986061
 20
5669.515360473252
 30
0.0
 11
8864.417031986061
 21
5721.915360473253
 31
0.0
  0
LINE
  5
1CE7A
330
1C77F
100
AcDbEntity
  8
U1
100
AcDbLine
 10
7540.417031986061
 20
9325.915360473253
 30
0.0
 11
7508.017031986061
 21
9325.915360473253
 31
0.0
  0
LINE
  5
1CE7B
330
1C77F
100
AcDbEntity
  8
U1
100
AcDbLine
 10
7508.017031986061
 20
9265.515360473251
 30
0.0
 11
7560.41703198606
 21
9265.515360473251
 31
0.0
  0
ARC
  5
1CE7C
330
1C77F
100
AcDbEntity
  8
U1
100
AcDbCircle
 10
7508.017031986061
 20
9269.515360473251
 30
0.0
 40
4.0
100
AcDbArc
 50
180.0
 51
270.0
  0
ARC
  5
1CE7D
330
1C77F
100
AcDbEntity
  8
U1
100
AcDbCircle
 10
7508.017031986061
 20
9321.915360473253
 30
0.0
 40
4.0
100
AcDbArc
 50
90.0
 51
180.0
  0
LINE
  5
1CE7E
330
1C77F
100
AcDbEntity
  8
U1
100
AcDbLine
 10
7504.017031986061
 20
9321.915360473253
 30
0.0
 11
7504.017031986061
 21
9269.515360473251
 31
0.0
  0
ARC
  5
1CE7F
330
1C77F
100
AcDbEntity
  8
U1
100
AcDbCircle
 10
7560.41703198606
 20
9269.515360473251
 30
0.0
 40
4.0
100
AcDbArc
 50
270.0
 51
0.0
  0
ARC
  5
1CE80
330
1C77F
100
AcDbEntity
  8
U1
100
AcDbCircle
 10
7540.417031986061
 20
9321.915360473253
 30
0.0
 40
4.0
100
AcDbArc
 50
0.0
 51
90.0
  0
ARC
  5
1CE81
330
1C77F
100
AcDbEntity
  8
U1
100
AcDbCircle
 10
7547.867031986061
 20
9312.665360473252
 30
0.0
 40
1.149999999999977
100
AcDbArc
 50
180.0
 51
0.0
  0
LINE
  5
1CE82
330
1C77F
100
AcDbEntity
  8
U1
100
AcDbLine
 10
7551.317031986059
 20
9320.215360473252
 30
0.0
 11
7551.317031986059
 21
9312.665360473252
 31
0.0
  0
LINE
  5
1CE83
330
1C77F
100
AcDbEntity
  8
U1
100
AcDbLine
 10
7549.01703198606
 20
9320.215360473252
 30
0.0
 11
7551.317031986059
 21
9320.215360473252
 31
0.0
  0
LINE
  5
1CE84
330
1C77F
100
AcDbEntity
  8
U1
100
AcDbLine
 10
7546.717031986061
 20
9313.215360473252
 30
0.0
 11
7549.01703198606
 21
9313.215360473252
 31
0.0
  0
ARC
  5
1CE85
330
1C77F
100
AcDbEntity
  8
U1
100
AcDbCircle
 10
7547.867031986061
 20
9312.665360473252
 30
0.0
 40
3.450000000000044
100
AcDbArc
 50
180.0
 51
0.0
  0
LINE
  5
1CE86
330
1C77F
100
AcDbEntity
  8
U1
100
AcDbLine
 10
7546.717031986061
 20
9312.665360473252
 30
0.0
 11
7546.71703198606
 21
9321.915360473253
 31
0.0
  0
LINE
  5
1CE87
330
1C77F
100
AcDbEntity
  8
U1
100
AcDbLine
 10
7549.01703198606
 20
9321.915360473253
 30
0.0
 11
7549.01703198606
 21
9312.665360473252
 31
0.0
  0
LINE
  5
1CE88
330
1C77F
100
AcDbEntity
  8
U1
100
AcDbLine
 10
7544.417031986061
 20
9312.665360473252
 30
0.0
 11
7544.417031986061
 21
9321.915360473253
 31
0.0
  0
ARC
  5
1CE89
330
1C77F
100
AcDbEntity
  8
U1
100
AcDbCircle
 10
7560.41703198606
 20
9321.915360473253
 30
0.0
 40
4.0
100
AcDbArc
 50
0.0
 51
90.0
  0
LINE
  5
1CE8A
330
1C77F
100
AcDbEntity
  8
U1
100
AcDbLine
 10
7560.41703198606
 20
9325.915360473253
 30
0.0
 11
7553.017031986062
 21
9325.915360473253
 31
0.0
  0
ARC
  5
1CE8B
330
1C77F
100
AcDbEntity
  8
U1
100
AcDbCircle
 10
7553.017031986062
 20
9321.915360473253
 30
0.0
 40
4.0
100
AcDbArc
 50
90.0
 51
180.0
  0
LINE
  5
1CE8C
330
1C77F
100
AcDbEntity
  8
U1
100
AcDbLine
 10
7564.417031986059
 20
9269.515360473251
 30
0.0
 11
7564.417031986059
 21
9321.915360473253
 31
0.0
  0
LINE
  5
1CE8D
330
1C77F
100
AcDbEntity
  8
U1
100
AcDbLine
 10
7540.417031986061
 20
7525.915360473252
 30
0.0
 11
7508.017031986061
 21
7525.915360473252
 31
0.0
  0
LINE
  5
1CE8E
330
1C77F
100
AcDbEntity
  8
U1
100
AcDbLine
 10
7508.017031986061
 20
7465.515360473251
 30
0.0
 11
7560.41703198606
 21
7465.515360473251
 31
0.0
  0
ARC
  5
1CE8F
330
1C77F
100
AcDbEntity
  8
U1
100
AcDbCircle
 10
7508.017031986061
 20
7469.515360473251
 30
0.0
 40
4.0
100
AcDbArc
 50
180.0
 51
270.0
  0
ARC
  5
1CE90
330
1C77F
100
AcDbEntity
  8
U1
100
AcDbCircle
 10
7508.017031986061
 20
7521.915360473252
 30
0.0
 40
4.0
100
AcDbArc
 50
90.0
 51
180.0
  0
LINE
  5
1CE91
330
1C77F
100
AcDbEntity
  8
U1
100
AcDbLine
 10
7504.017031986061
 20
7521.915360473252
 30
0.0
 11
7504.017031986061
 21
7469.515360473251
 31
0.0
  0
ARC
  5
1CE92
330
1C77F
100
AcDbEntity
  8
U1
100
AcDbCircle
 10
7560.41703198606
 20
7469.515360473251
 30
0.0
 40
4.0
100
AcDbArc
 50
270.0
 51
0.0
  0
ARC
  5
1CE93
330
1C77F
100
AcDbEntity
  8
U1
100
AcDbCircle
 10
7540.417031986061
 20
7521.915360473252
 30
0.0
 40
4.0
100
AcDbArc
 50
0.0
 51
90.0
  0
ARC
  5
1CE94
330
1C77F
100
AcDbEntity
  8
U1
100
AcDbCircle
 10
7547.867031986061
 20
7512.665360473251
 30
0.0
 40
1.149999999999977
100
AcDbArc
 50
180.0
 51
0.0
  0
LINE
  5
1CE95
330
1C77F
100
AcDbEntity
  8
U1
100
AcDbLine
 10
7551.317031986059
 20
7520.215360473253
 30
0.0
 11
7551.317031986059
 21
7512.665360473251
 31
0.0
  0
LINE
  5
1CE96
330
1C77F
100
AcDbEntity
  8
U1
100
AcDbLine
 10
7549.01703198606
 20
7520.215360473253
 30
0.0
 11
7551.317031986059
 21
7520.215360473253
 31
0.0
  0
LINE
  5
1CE97
330
1C77F
100
AcDbEntity
  8
U1
100
AcDbLine
 10
7546.717031986061
 20
7513.215360473253
 30
0.0
 11
7549.01703198606
 21
7513.215360473253
 31
0.0
  0
ARC
  5
1CE98
330
1C77F
100
AcDbEntity
  8
U1
100
AcDbCircle
 10
7547.867031986061
 20
7512.665360473251
 30
0.0
 40
3.450000000000044
100
AcDbArc
 50
180.0
 51
0.0
  0
LINE
  5
1CE99
330
1C77F
100
AcDbEntity
  8
U1
100
AcDbLine
 10
7546.717031986061
 20
7512.665360473251
 30
0.0
 11
7546.71703198606
 21
7521.915360473252
 31
0.0
  0
LINE
  5
1CE9A
330
1C77F
100
AcDbEntity
  8
U1
100
AcDbLine
 10
7549.01703198606
 20
7521.915360473252
 30
0.0
 11
7549.01703198606
 21
7512.665360473251
 31
0.0
  0
LINE
  5
1CE9B
330
1C77F
100
AcDbEntity
  8
U1
100
AcDbLine
 10
7544.417031986061
 20
7512.665360473251
 30
0.0
 11
7544.417031986061
 21
7521.915360473252
 31
0.0
  0
ARC
  5
1CE9C
330
1C77F
100
AcDbEntity
  8
U1
100
AcDbCircle
 10
7560.41703198606
 20
7521.915360473252
 30
0.0
 40
4.0
100
AcDbArc
 50
0.0
 51
90.0
  0
LINE
  5
1CE9D
330
1C77F
100
AcDbEntity
  8
U1
100
AcDbLine
 10
7560.41703198606
 20
7525.915360473252
 30
0.0
 11
7553.017031986062
 21
7525.915360473252
 31
0.0
  0
ARC
  5
1CE9E
330
1C77F
100
AcDbEntity
  8
U1
100
AcDbCircle
 10
7553.017031986062
 20
7521.915360473252
 30
0.0
 40
4.0
100
AcDbArc
 50
90.0
 51
180.0
  0
LINE
  5
1CE9F
330
1C77F
100
AcDbEntity
  8
U1
100
AcDbLine
 10
7564.417031986059
 20
7469.515360473251
 30
0.0
 11
7564.417031986059
 21
7521.915360473252
 31
0.0
  0
LINE
  5
1CEA0
330
1C77F
100
AcDbEntity
  8
U1
100
AcDbLine
 10
7540.417031986061
 20
5725.915360473253
 30
0.0
 11
7508.017031986061
 21
5725.915360473253
 31
0.0
  0
LINE
  5
1CEA1
330
1C77F
100
AcDbEntity
  8
U1
100
AcDbLine
 10
7508.017031986061
 20
5665.515360473253
 30
0.0
 11
7560.41703198606
 21
5665.515360473253
 31
0.0
  0
ARC
  5
1CEA2
330
1C77F
100
AcDbEntity
  8
U1
100
AcDbCircle
 10
7508.017031986061
 20
5669.515360473252
 30
0.0
 40
4.0
100
AcDbArc
 50
180.0
 51
270.0
  0
ARC
  5
1CEA3
330
1C77F
100
AcDbEntity
  8
U1
100
AcDbCircle
 10
7508.017031986061
 20
5721.915360473253
 30
0.0
 40
4.0
100
AcDbArc
 50
90.0
 51
180.0
  0
LINE
  5
1CEA4
330
1C77F
100
AcDbEntity
  8
U1
100
AcDbLine
 10
7504.017031986061
 20
5721.915360473253
 30
0.0
 11
7504.017031986061
 21
5669.515360473252
 31
0.0
  0
ARC
  5
1CEA5
330
1C77F
100
AcDbEntity
  8
U1
100
AcDbCircle
 10
7560.41703198606
 20
5669.515360473252
 30
0.0
 40
4.0
100
AcDbArc
 50
270.0
 51
0.0
  0
ARC
  5
1CEA6
330
1C77F
100
AcDbEntity
  8
U1
100
AcDbCircle
 10
7540.417031986061
 20
5721.915360473253
 30
0.0
 40
4.0
100
AcDbArc
 50
0.0
 51
90.0
  0
ARC
  5
1CEA7
330
1C77F
100
AcDbEntity
  8
U1
100
AcDbCircle
 10
7547.867031986061
 20
5712.665360473253
 30
0.0
 40
1.149999999999977
100
AcDbArc
 50
180.0
 51
0.0
  0
LINE
  5
1CEA8
330
1C77F
100
AcDbEntity
  8
U1
100
AcDbLine
 10
7551.317031986059
 20
5720.215360473253
 30
0.0
 11
7551.317031986059
 21
5712.665360473253
 31
0.0
  0
LINE
  5
1CEA9
330
1C77F
100
AcDbEntity
  8
U1
100
AcDbLine
 10
7549.01703198606
 20
5720.215360473253
 30
0.0
 11
7551.317031986059
 21
5720.215360473253
 31
0.0
  0
LINE
  5
1CEAA
330
1C77F
100
AcDbEntity
  8
U1
100
AcDbLine
 10
7546.717031986061
 20
5713.215360473252
 30
0.0
 11
7549.01703198606
 21
5713.215360473252
 31
0.0
  0
ARC
  5
1CEAB
330
1C77F
100
AcDbEntity
  8
U1
100
AcDbCircle
 10
7547.867031986061
 20
5712.665360473253
 30
0.0
 40
3.450000000000044
100
AcDbArc
 50
180.0
 51
0.0
  0
LINE
  5
1CEAC
330
1C77F
100
AcDbEntity
  8
U1
100
AcDbLine
 10
7546.717031986061
 20
5712.665360473253
 30
0.0
 11
7546.71703198606
 21
5721.915360473252
 31
0.0
  0
LINE
  5
1CEAD
330
1C77F
100
AcDbEntity
  8
U1
100
AcDbLine
 10
7549.01703198606
 20
5721.915360473253
 30
0.0
 11
7549.01703198606
 21
5712.665360473253
 31
0.0
  0
LINE
  5
1CEAE
330
1C77F
100
AcDbEntity
  8
U1
100
AcDbLine
 10
7544.417031986061
 20
5712.665360473253
 30
0.0
 11
7544.417031986061
 21
5721.915360473253
 31
0.0
  0
ARC
  5
1CEAF
330
1C77F
100
AcDbEntity
  8
U1
100
AcDbCircle
 10
7560.41703198606
 20
5721.915360473253
 30
0.0
 40
4.0
100
AcDbArc
 50
0.0
 51
90.0
  0
LINE
  5
1CEB0
330
1C77F
100
AcDbEntity
  8
U1
100
AcDbLine
 10
7560.41703198606
 20
5725.915360473253
 30
0.0
 11
7553.017031986062
 21
5725.915360473253
 31
0.0
  0
ARC
  5
1CEB1
330
1C77F
100
AcDbEntity
  8
U1
100
AcDbCircle
 10
7553.017031986062
 20
5721.915360473253
 30
0.0
 40
4.0
100
AcDbArc
 50
90.0
 51
180.0
  0
LINE
  5
1CEB2
330
1C77F
100
AcDbEntity
  8
U1
100
AcDbLine
 10
7564.417031986059
 20
5669.515360473252
 30
0.0
 11
7564.417031986059
 21
5721.915360473253
 31
0.0
  0
LINE
  5
1CEB3
330
1C77F
100
AcDbEntity
  8
U1
100
AcDbLine
 10
4740.41703198606
 20
9325.915360473253
 30
0.0
 11
4708.017031986059
 21
9325.915360473253
 31
0.0
  0
LINE
  5
1CEB4
330
1C77F
100
AcDbEntity
  8
U1
100
AcDbLine
 10
4708.017031986059
 20
9265.515360473251
 30
0.0
 11
4760.417031986061
 21
9265.515360473251
 31
0.0
  0
ARC
  5
1CEB5
330
1C77F
100
AcDbEntity
  8
U1
100
AcDbCircle
 10
4708.017031986059
 20
9269.515360473251
 30
0.0
 40
4.0
100
AcDbArc
 50
180.0
 51
270.0
  0
ARC
  5
1CEB6
330
1C77F
100
AcDbEntity
  8
U1
100
AcDbCircle
 10
4708.017031986059
 20
9321.915360473253
 30
0.0
 40
4.0
100
AcDbArc
 50
90.0
 51
180.0
  0
LINE
  5
1CEB7
330
1C77F
100
AcDbEntity
  8
U1
100
AcDbLine
 10
4704.01703198606
 20
9321.915360473253
 30
0.0
 11
4704.01703198606
 21
9269.515360473251
 31
0.0
  0
ARC
  5
1CEB8
330
1C77F
100
AcDbEntity
  8
U1
100
AcDbCircle
 10
4760.417031986061
 20
9269.515360473251
 30
0.0
 40
4.0
100
AcDbArc
 50
270.0
 51
0.0
  0
ARC
  5
1CEB9
330
1C77F
100
AcDbEntity
  8
U1
100
AcDbCircle
 10
4740.41703198606
 20
9321.915360473253
 30
0.0
 40
4.0
100
AcDbArc
 50
0.0
 51
90.0
  0
ARC
  5
1CEBA
330
1C77F
100
AcDbEntity
  8
U1
100
AcDbCircle
 10
4747.86703198606
 20
9312.665360473252
 30
0.0
 40
1.149999999999977
100
AcDbArc
 50
180.0
 51
0.0
  0
LINE
  5
1CEBB
330
1C77F
100
AcDbEntity
  8
U1
100
AcDbLine
 10
4751.31703198606
 20
9320.215360473252
 30
0.0
 11
4751.31703198606
 21
9312.665360473252
 31
0.0
  0
LINE
  5
1CEBC
330
1C77F
100
AcDbEntity
  8
U1
100
AcDbLine
 10
4749.01703198606
 20
9320.215360473252
 30
0.0
 11
4751.31703198606
 21
9320.215360473252
 31
0.0
  0
LINE
  5
1CEBD
330
1C77F
100
AcDbEntity
  8
U1
100
AcDbLine
 10
4746.717031986061
 20
9313.215360473252
 30
0.0
 11
4749.01703198606
 21
9313.215360473252
 31
0.0
  0
ARC
  5
1CEBE
330
1C77F
100
AcDbEntity
  8
U1
100
AcDbCircle
 10
4747.86703198606
 20
9312.665360473252
 30
0.0
 40
3.450000000000044
100
AcDbArc
 50
180.0
 51
0.0
  0
LINE
  5
1CEBF
330
1C77F
100
AcDbEntity
  8
U1
100
AcDbLine
 10
4746.717031986061
 20
9312.665360473252
 30
0.0
 11
4746.71703198606
 21
9321.915360473253
 31
0.0
  0
LINE
  5
1CEC0
330
1C77F
100
AcDbEntity
  8
U1
100
AcDbLine
 10
4749.01703198606
 20
9321.915360473253
 30
0.0
 11
4749.01703198606
 21
9312.665360473252
 31
0.0
  0
LINE
  5
1CEC1
330
1C77F
100
AcDbEntity
  8
U1
100
AcDbLine
 10
4744.41703198606
 20
9312.665360473252
 30
0.0
 11
4744.41703198606
 21
9321.915360473253
 31
0.0
  0
ARC
  5
1CEC2
330
1C77F
100
AcDbEntity
  8
U1
100
AcDbCircle
 10
4760.417031986057
 20
9321.915360473253
 30
0.0
 40
4.0
100
AcDbArc
 50
0.0
 51
90.0
  0
LINE
  5
1CEC3
330
1C77F
100
AcDbEntity
  8
U1
100
AcDbLine
 10
4760.417031986057
 20
9325.915360473253
 30
0.0
 11
4753.01703198606
 21
9325.915360473253
 31
0.0
  0
ARC
  5
1CEC4
330
1C77F
100
AcDbEntity
  8
U1
100
AcDbCircle
 10
4753.01703198606
 20
9321.915360473253
 30
0.0
 40
4.0
100
AcDbArc
 50
90.0
 51
180.0
  0
LINE
  5
1CEC5
330
1C77F
100
AcDbEntity
  8
U1
100
AcDbLine
 10
4764.41703198606
 20
9269.515360473251
 30
0.0
 11
4764.417031986058
 21
9321.915360473253
 31
0.0
  0
LINE
  5
1CEC6
330
1C77F
100
AcDbEntity
  8
U1
100
AcDbLine
 10
4740.41703198606
 20
7525.915360473252
 30
0.0
 11
4708.017031986059
 21
7525.915360473252
 31
0.0
  0
LINE
  5
1CEC7
330
1C77F
100
AcDbEntity
  8
U1
100
AcDbLine
 10
4708.017031986059
 20
7465.515360473251
 30
0.0
 11
4760.417031986061
 21
7465.515360473251
 31
0.0
  0
ARC
  5
1CEC8
330
1C77F
100
AcDbEntity
  8
U1
100
AcDbCircle
 10
4708.017031986059
 20
7469.515360473251
 30
0.0
 40
4.0
100
AcDbArc
 50
180.0
 51
270.0
  0
ARC
  5
1CEC9
330
1C77F
100
AcDbEntity
  8
U1
100
AcDbCircle
 10
4708.017031986059
 20
7521.915360473252
 30
0.0
 40
4.0
100
AcDbArc
 50
90.0
 51
180.0
  0
LINE
  5
1CECA
330
1C77F
100
AcDbEntity
  8
U1
100
AcDbLine
 10
4704.01703198606
 20
7521.915360473252
 30
0.0
 11
4704.01703198606
 21
7469.515360473251
 31
0.0
  0
ARC
  5
1CECB
330
1C77F
100
AcDbEntity
  8
U1
100
AcDbCircle
 10
4760.417031986061
 20
7469.515360473251
 30
0.0
 40
4.0
100
AcDbArc
 50
270.0
 51
0.0
  0
ARC
  5
1CECC
330
1C77F
100
AcDbEntity
  8
U1
100
AcDbCircle
 10
4740.41703198606
 20
7521.915360473252
 30
0.0
 40
4.0
100
AcDbArc
 50
0.0
 51
90.0
  0
ARC
  5
1CECD
330
1C77F
100
AcDbEntity
  8
U1
100
AcDbCircle
 10
4747.86703198606
 20
7512.665360473251
 30
0.0
 40
1.149999999999977
100
AcDbArc
 50
180.0
 51
0.0
  0
LINE
  5
1CECE
330
1C77F
100
AcDbEntity
  8
U1
100
AcDbLine
 10
4751.31703198606
 20
7520.215360473253
 30
0.0
 11
4751.31703198606
 21
7512.665360473251
 31
0.0
  0
LINE
  5
1CECF
330
1C77F
100
AcDbEntity
  8
U1
100
AcDbLine
 10
4749.01703198606
 20
7520.215360473253
 30
0.0
 11
4751.31703198606
 21
7520.215360473253
 31
0.0
  0
LINE
  5
1CED0
330
1C77F
100
AcDbEntity
  8
U1
100
AcDbLine
 10
4746.717031986061
 20
7513.215360473253
 30
0.0
 11
4749.01703198606
 21
7513.215360473253
 31
0.0
  0
ARC
  5
1CED1
330
1C77F
100
AcDbEntity
  8
U1
100
AcDbCircle
 10
4747.86703198606
 20
7512.665360473251
 30
0.0
 40
3.450000000000044
100
AcDbArc
 50
180.0
 51
0.0
  0
LINE
  5
1CED2
330
1C77F
100
AcDbEntity
  8
U1
100
AcDbLine
 10
4746.717031986061
 20
7512.665360473251
 30
0.0
 11
4746.71703198606
 21
7521.915360473252
 31
0.0
  0
LINE
  5
1CED3
330
1C77F
100
AcDbEntity
  8
U1
100
AcDbLine
 10
4749.01703198606
 20
7521.915360473252
 30
0.0
 11
4749.01703198606
 21
7512.665360473251
 31
0.0
  0
LINE
  5
1CED4
330
1C77F
100
AcDbEntity
  8
U1
100
AcDbLine
 10
4744.41703198606
 20
7512.665360473251
 30
0.0
 11
4744.41703198606
 21
7521.915360473252
 31
0.0
  0
ARC
  5
1CED5
330
1C77F
100
AcDbEntity
  8
U1
100
AcDbCircle
 10
4760.417031986057
 20
7521.915360473252
 30
0.0
 40
4.0
100
AcDbArc
 50
0.0
 51
90.0
  0
LINE
  5
1CED6
330
1C77F
100
AcDbEntity
  8
U1
100
AcDbLine
 10
4760.417031986057
 20
7525.915360473252
 30
0.0
 11
4753.01703198606
 21
7525.915360473252
 31
0.0
  0
ARC
  5
1CED7
330
1C77F
100
AcDbEntity
  8
U1
100
AcDbCircle
 10
4753.01703198606
 20
7521.915360473252
 30
0.0
 40
4.0
100
AcDbArc
 50
90.0
 51
180.0
  0
LINE
  5
1CED8
330
1C77F
100
AcDbEntity
  8
U1
100
AcDbLine
 10
4764.41703198606
 20
7469.515360473251
 30
0.0
 11
4764.417031986058
 21
7521.915360473252
 31
0.0
  0
LINE
  5
1CED9
330
1C77F
100
AcDbEntity
  8
U1
100
AcDbLine
 10
4740.41703198606
 20
5725.915360473253
 30
0.0
 11
4708.017031986059
 21
5725.915360473253
 31
0.0
  0
LINE
  5
1CEDA
330
1C77F
100
AcDbEntity
  8
U1
100
AcDbLine
 10
4708.017031986059
 20
5665.515360473253
 30
0.0
 11
4760.417031986061
 21
5665.515360473253
 31
0.0
  0
ARC
  5
1CEDB
330
1C77F
100
AcDbEntity
  8
U1
100
AcDbCircle
 10
4708.017031986059
 20
5669.515360473252
 30
0.0
 40
4.0
100
AcDbArc
 50
180.0
 51
270.0
  0
ARC
  5
1CEDC
330
1C77F
100
AcDbEntity
  8
U1
100
AcDbCircle
 10
4708.017031986059
 20
5721.915360473253
 30
0.0
 40
4.0
100
AcDbArc
 50
90.0
 51
180.0
  0
LINE
  5
1CEDD
330
1C77F
100
AcDbEntity
  8
U1
100
AcDbLine
 10
4704.01703198606
 20
5721.915360473253
 30
0.0
 11
4704.01703198606
 21
5669.515360473252
 31
0.0
  0
ARC
  5
1CEDE
330
1C77F
100
AcDbEntity
  8
U1
100
AcDbCircle
 10
4760.417031986061
 20
5669.515360473252
 30
0.0
 40
4.0
100
AcDbArc
 50
270.0
 51
0.0
  0
ARC
  5
1CEDF
330
1C77F
100
AcDbEntity
  8
U1
100
AcDbCircle
 10
4740.41703198606
 20
5721.915360473253
 30
0.0
 40
4.0
100
AcDbArc
 50
0.0
 51
90.0
  0
ARC
  5
1CEE0
330
1C77F
100
AcDbEntity
  8
U1
100
AcDbCircle
 10
4747.86703198606
 20
5712.665360473253
 30
0.0
 40
1.149999999999977
100
AcDbArc
 50
180.0
 51
0.0
  0
LINE
  5
1CEE1
330
1C77F
100
AcDbEntity
  8
U1
100
AcDbLine
 10
4751.31703198606
 20
5720.215360473253
 30
0.0
 11
4751.31703198606
 21
5712.665360473253
 31
0.0
  0
LINE
  5
1CEE2
330
1C77F
100
AcDbEntity
  8
U1
100
AcDbLine
 10
4749.01703198606
 20
5720.215360473253
 30
0.0
 11
4751.31703198606
 21
5720.215360473253
 31
0.0
  0
LINE
  5
1CEE3
330
1C77F
100
AcDbEntity
  8
U1
100
AcDbLine
 10
4746.717031986061
 20
5713.215360473252
 30
0.0
 11
4749.01703198606
 21
5713.215360473252
 31
0.0
  0
ARC
  5
1CEE4
330
1C77F
100
AcDbEntity
  8
U1
100
AcDbCircle
 10
4747.86703198606
 20
5712.665360473253
 30
0.0
 40
3.450000000000044
100
AcDbArc
 50
180.0
 51
0.0
  0
LINE
  5
1CEE5
330
1C77F
100
AcDbEntity
  8
U1
100
AcDbLine
 10
4746.717031986061
 20
5712.665360473253
 30
0.0
 11
4746.71703198606
 21
5721.915360473252
 31
0.0
  0
LINE
  5
1CEE6
330
1C77F
100
AcDbEntity
  8
U1
100
AcDbLine
 10
4749.01703198606
 20
5721.915360473253
 30
0.0
 11
4749.01703198606
 21
5712.665360473253
 31
0.0
  0
LINE
  5
1CEE7
330
1C77F
100
AcDbEntity
  8
U1
100
AcDbLine
 10
4744.41703198606
 20
5712.665360473253
 30
0.0
 11
4744.41703198606
 21
5721.915360473253
 31
0.0
  0
ARC
  5
1CEE8
330
1C77F
100
AcDbEntity
  8
U1
100
AcDbCircle
 10
4760.417031986057
 20
5721.915360473253
 30
0.0
 40
4.0
100
AcDbArc
 50
0.0
 51
90.0
  0
LINE
  5
1CEE9
330
1C77F
100
AcDbEntity
  8
U1
100
AcDbLine
 10
4760.417031986057
 20
5725.915360473253
 30
0.0
 11
4753.01703198606
 21
5725.915360473253
 31
0.0
  0
ARC
  5
1CEEA
330
1C77F
100
AcDbEntity
  8
U1
100
AcDbCircle
 10
4753.01703198606
 20
5721.915360473253
 30
0.0
 40
4.0
100
AcDbArc
 50
90.0
 51
180.0
  0
LINE
  5
1CEEB
330
1C77F
100
AcDbEntity
  8
U1
100
AcDbLine
 10
4764.41703198606
 20
5669.515360473252
 30
0.0
 11
4764.417031986058
 21
5721.915360473253
 31
0.0
  0
LINE
  5
1CEEC
330
1C77F
100
AcDbEntity
  8
KISO
100
AcDbLine
 10
4334.217031986058
 20
7095.715360473253
 30
0.0
 11
5134.21703198606
 21
7095.715360473253
 31
0.0
  0
LINE
  5
1CEED
330
1C77F
100
AcDbEntity
  8
KISO
100
AcDbLine
 10
5134.21703198606
 20
7095.715360473253
 30
0.0
 11
5134.21703198606
 21
7895.715360473253
 31
0.0
  0
LINE
  5
1CEEE
330
1C77F
100
AcDbEntity
  8
KISO
100
AcDbLine
 10
5134.21703198606
 20
7895.715360473253
 30
0.0
 11
4334.217031986058
 21
7895.715360473253
 31
0.0
  0
LINE
  5
1CEEF
330
1C77F
100
AcDbEntity
  8
KISO
100
AcDbLine
 10
4334.217031986058
 20
7895.715360473253
 30
0.0
 11
4334.217031986058
 21
7095.715360473253
 31
0.0
  0
LINE
  5
1CEF0
330
1C77F
100
AcDbEntity
  8
KISO
100
AcDbLine
 10
11234.21703198606
 20
7095.715360473253
 30
0.0
 11
12034.21703198606
 21
7095.715360473253
 31
0.0
  0
LINE
  5
1CEF1
330
1C77F
100
AcDbEntity
  8
KISO
100
AcDbLine
 10
12034.21703198606
 20
7095.715360473253
 30
0.0
 11
12034.21703198606
 21
7895.715360473253
 31
0.0
  0
LINE
  5
1CEF2
330
1C77F
100
AcDbEntity
  8
KISO
100
AcDbLine
 10
12034.21703198606
 20
7895.715360473253
 30
0.0
 11
11234.21703198606
 21
7895.715360473253
 31
0.0
  0
LINE
  5
1CEF3
330
1C77F
100
AcDbEntity
  8
KISO
100
AcDbLine
 10
11234.21703198606
 20
7895.715360473253
 30
0.0
 11
11234.21703198606
 21
7095.715360473253
 31
0.0
  0
LINE
  5
1CEF4
330
1C77F
100
AcDbEntity
  8
KISO
100
AcDbLine
 10
8434.21703198606
 20
7095.715360473253
 30
0.0
 11
9234.217031986061
 21
7095.715360473253
 31
0.0
  0
LINE
  5
1CEF5
330
1C77F
100
AcDbEntity
  8
KISO
100
AcDbLine
 10
9234.217031986061
 20
7095.715360473253
 30
0.0
 11
9234.217031986061
 21
7895.715360473253
 31
0.0
  0
LINE
  5
1CEF6
330
1C77F
100
AcDbEntity
  8
KISO
100
AcDbLine
 10
9234.217031986061
 20
7895.715360473253
 30
0.0
 11
8434.21703198606
 21
7895.715360473253
 31
0.0
  0
LINE
  5
1CEF7
330
1C77F
100
AcDbEntity
  8
KISO
100
AcDbLine
 10
8434.21703198606
 20
7895.715360473253
 30
0.0
 11
8434.21703198606
 21
7095.715360473253
 31
0.0
  0
LINE
  5
1CEF8
330
1C77F
100
AcDbEntity
  8
KISO
100
AcDbLine
 10
7134.21703198606
 20
7095.715360473253
 30
0.0
 11
7934.21703198606
 21
7095.715360473253
 31
0.0
  0
LINE
  5
1CEF9
330
1C77F
100
AcDbEntity
  8
KISO
100
AcDbLine
 10
7934.21703198606
 20
7095.715360473253
 30
0.0
 11
7934.21703198606
 21
7895.715360473253
 31
0.0
  0
LINE
  5
1CEFA
330
1C77F
100
AcDbEntity
  8
KISO
100
AcDbLine
 10
7934.21703198606
 20
7895.715360473253
 30
0.0
 11
7134.21703198606
 21
7895.715360473253
 31
0.0
  0
LINE
  5
1CEFB
330
1C77F
100
AcDbEntity
  8
KISO
100
AcDbLine
 10
7134.21703198606
 20
7895.715360473253
 30
0.0
 11
7134.21703198606
 21
7095.715360473253
 31
0.0
  0
LINE
  5
1CEFC
330
1C77F
100
AcDbEntity
  8
YANE
  6
2PL-L
 62
     6
100
AcDbLine
 10
12030.21703198606
 20
5344.715360473253
 30
0.0
 11
4338.21703198606
 21
5344.715360473253
 31
0.0
  0
LINE
  5
1CEFD
330
1C77F
100
AcDbEntity
  8
YANE
  6
2PL-L
 62
     6
100
AcDbLine
 10
4338.21703198606
 20
5344.715360473253
 30
0.0
 11
4338.21703198606
 21
9646.715360473251
 31
0.0
  0
LINE
  5
1CEFE
330
1C77F
100
AcDbEntity
  8
YANE
  6
2PL-L
 62
     6
100
AcDbLine
 10
4338.21703198606
 20
9646.715360473251
 30
0.0
 11
12030.21703198606
 21
9646.715360473251
 31
0.0
  0
LINE
  5
1CEFF
330
1C77F
100
AcDbEntity
  8
YANE
  6
2PL-L
 62
     6
100
AcDbLine
 10
12030.21703198606
 20
9646.715360473251
 30
0.0
 11
12030.21703198606
 21
5344.715360473253
 31
0.0
  0
LINE
  5
1CF00
330
1C77F
100
AcDbEntity
  8
KISO
100
AcDbLine
 10
9134.217031986059
 20
8995.715360473253
 30
0.0
 11
8534.217031986059
 21
8995.715360473253
 31
0.0
  0
LINE
  5
1CF01
330
1C77F
100
AcDbEntity
  8
KISO
100
AcDbLine
 10
8534.217031986059
 20
8995.715360473253
 30
0.0
 11
8534.217031986059
 21
9595.715360473253
 31
0.0
  0
LINE
  5
1CF02
330
1C77F
100
AcDbEntity
  8
KISO
100
AcDbLine
 10
8534.217031986059
 20
9595.715360473253
 30
0.0
 11
9134.217031986059
 21
9595.715360473253
 31
0.0
  0
LINE
  5
1CF03
330
1C77F
100
AcDbEntity
  8
KISO
100
AcDbLine
 10
9134.217031986059
 20
9595.715360473253
 30
0.0
 11
9134.217031986059
 21
8995.715360473253
 31
0.0
  0
LINE
  5
1CF04
330
1C77F
100
AcDbEntity
  8
KISO
100
AcDbLine
 10
7234.21703198606
 20
5395.715360473253
 30
0.0
 11
7834.21703198606
 21
5395.715360473253
 31
0.0
  0
LINE
  5
1CF05
330
1C77F
100
AcDbEntity
  8
KISO
100
AcDbLine
 10
7834.21703198606
 20
5395.715360473253
 30
0.0
 11
7834.21703198606
 21
5995.715360473253
 31
0.0
  0
LINE
  5
1CF06
330
1C77F
100
AcDbEntity
  8
KISO
100
AcDbLine
 10
7834.21703198606
 20
5995.715360473253
 30
0.0
 11
7234.21703198606
 21
5995.715360473253
 31
0.0
  0
LINE
  5
1CF07
330
1C77F
100
AcDbEntity
  8
KISO
100
AcDbLine
 10
7234.21703198606
 20
5995.715360473253
 30
0.0
 11
7234.21703198606
 21
5395.715360473253
 31
0.0
  0
LINE
  5
1CF08
330
1C77F
100
AcDbEntity
  8
KISO
100
AcDbLine
 10
4434.21703198606
 20
5395.715360473253
 30
0.0
 11
5034.217031986058
 21
5395.715360473253
 31
0.0
  0
LINE
  5
1CF09
330
1C77F
100
AcDbEntity
  8
KISO
100
AcDbLine
 10
5034.217031986058
 20
5395.715360473253
 30
0.0
 11
5034.217031986058
 21
5995.715360473253
 31
0.0
  0
LINE
  5
1CF0A
330
1C77F
100
AcDbEntity
  8
KISO
100
AcDbLine
 10
5034.217031986058
 20
5995.715360473253
 30
0.0
 11
4434.21703198606
 21
5995.715360473253
 31
0.0
  0
LINE
  5
1CF0B
330
1C77F
100
AcDbEntity
  8
KISO
100
AcDbLine
 10
4434.21703198606
 20
5995.715360473253
 30
0.0
 11
4434.21703198606
 21
5395.715360473253
 31
0.0
  0
LINE
  5
1CF0C
330
1C77F
100
AcDbEntity
  8
KISO
100
AcDbLine
 10
4434.21703198606
 20
8995.715360473253
 30
0.0
 11
5034.217031986058
 21
8995.715360473253
 31
0.0
  0
LINE
  5
1CF0D
330
1C77F
100
AcDbEntity
  8
KISO
100
AcDbLine
 10
5034.217031986058
 20
8995.715360473253
 30
0.0
 11
5034.217031986058
 21
9595.715360473253
 31
0.0
  0
LINE
  5
1CF0E
330
1C77F
100
AcDbEntity
  8
KISO
100
AcDbLine
 10
5034.217031986058
 20
9595.715360473253
 30
0.0
 11
4434.21703198606
 21
9595.715360473253
 31
0.0
  0
LINE
  5
1CF0F
330
1C77F
100
AcDbEntity
  8
KISO
100
AcDbLine
 10
4434.21703198606
 20
9595.715360473253
 30
0.0
 11
4434.21703198606
 21
8995.715360473253
 31
0.0
  0
LINE
  5
1CF10
330
1C77F
100
AcDbEntity
  8
KISO
100
AcDbLine
 10
11934.21703198606
 20
8995.715360473253
 30
0.0
 11
11334.21703198606
 21
8995.715360473253
 31
0.0
  0
LINE
  5
1CF11
330
1C77F
100
AcDbEntity
  8
KISO
100
AcDbLine
 10
11334.21703198606
 20
8995.715360473253
 30
0.0
 11
11334.21703198606
 21
9595.715360473253
 31
0.0
  0
LINE
  5
1CF12
330
1C77F
100
AcDbEntity
  8
KISO
100
AcDbLine
 10
11334.21703198606
 20
9595.715360473253
 30
0.0
 11
11934.21703198606
 21
9595.715360473253
 31
0.0
  0
LINE
  5
1CF13
330
1C77F
100
AcDbEntity
  8
KISO
100
AcDbLine
 10
11934.21703198606
 20
9595.715360473253
 30
0.0
 11
11934.21703198606
 21
8995.715360473253
 31
0.0
  0
LINE
  5
1CF14
330
1C77F
100
AcDbEntity
  8
KISO
100
AcDbLine
 10
11934.21703198606
 20
5395.715360473253
 30
0.0
 11
11334.21703198606
 21
5395.715360473253
 31
0.0
  0
LINE
  5
1CF15
330
1C77F
100
AcDbEntity
  8
KISO
100
AcDbLine
 10
11334.21703198606
 20
5395.715360473253
 30
0.0
 11
11334.21703198606
 21
5995.715360473253
 31
0.0
  0
LINE
  5
1CF16
330
1C77F
100
AcDbEntity
  8
KISO
100
AcDbLine
 10
11334.21703198606
 20
5995.715360473253
 30
0.0
 11
11934.21703198606
 21
5995.715360473253
 31
0.0
  0
LINE
  5
1CF17
330
1C77F
100
AcDbEntity
  8
KISO
100
AcDbLine
 10
11934.21703198606
 20
5995.715360473253
 30
0.0
 11
11934.21703198606
 21
5395.715360473253
 31
0.0
  0
LINE
  5
1CF18
330
1C77F
100
AcDbEntity
  8
KISO
100
AcDbLine
 10
9134.217031986059
 20
5395.715360473253
 30
0.0
 11
8534.217031986059
 21
5395.715360473253
 31
0.0
  0
LINE
  5
1CF19
330
1C77F
100
AcDbEntity
  8
KISO
100
AcDbLine
 10
8534.217031986059
 20
5395.715360473253
 30
0.0
 11
8534.217031986059
 21
5995.715360473253
 31
0.0
  0
LINE
  5
1CF1A
330
1C77F
100
AcDbEntity
  8
KISO
100
AcDbLine
 10
8534.217031986059
 20
5995.715360473253
 30
0.0
 11
9134.217031986059
 21
5995.715360473253
 31
0.0
  0
LINE
  5
1CF1B
330
1C77F
100
AcDbEntity
  8
KISO
100
AcDbLine
 10
9134.217031986059
 20
5995.715360473253
 30
0.0
 11
9134.217031986059
 21
5395.715360473253
 31
0.0
  0
LINE
  5
1CF1C
330
1C77F
100
AcDbEntity
  8
KISO
100
AcDbLine
 10
7834.21703198606
 20
8995.715360473253
 30
0.0
 11
7234.21703198606
 21
8995.715360473253
 31
0.0
  0
LINE
  5
1CF1D
330
1C77F
100
AcDbEntity
  8
KISO
100
AcDbLine
 10
7234.21703198606
 20
8995.715360473253
 30
0.0
 11
7234.21703198606
 21
9595.715360473253
 31
0.0
  0
LINE
  5
1CF1E
330
1C77F
100
AcDbEntity
  8
KISO
100
AcDbLine
 10
7234.21703198606
 20
9595.715360473253
 30
0.0
 11
7834.21703198606
 21
9595.715360473253
 31
0.0
  0
LINE
  5
1CF1F
330
1C77F
100
AcDbEntity
  8
KISO
100
AcDbLine
 10
7834.21703198606
 20
9595.715360473253
 30
0.0
 11
7834.21703198606
 21
8995.715360473253
 31
0.0
  0
LINE
  5
1CF20
330
1C77F
100
AcDbEntity
  8
U3
100
AcDbLine
 10
10088.41895111316
 20
3532.805920524933
 30
0.0
 11
10316.1943362865
 21
3927.324460358768
 31
0.0
1001
ACAD
1000
DSTYLE
1002
{
1070
   147
1040
1.0
1070
    77
1070
     0
1002
}
  0
LINE
  5
1CF21
330
1C77F
100
AcDbEntity
  8
0
100
AcDbLine
 10
10076.87194572937
 20
3539.4725871916
 30
0.0
 11
10048.41895111316
 21
3463.523888222177
 31
0.0
  0
LINE
  5
1CF22
330
1C77F
100
AcDbEntity
  8
0
100
AcDbLine
 10
10048.41895111316
 20
3463.523888222177
 30
0.0
 11
10099.96595649695
 21
3526.139253858267
 31
0.0
  0
SOLID
  5
1CF23
330
1C77F
100
AcDbEntity
  8
0
100
AcDbTrace
 10
10076.87194572937
 20
3539.4725871916
 30
0.0
 11
10099.96595649695
 21
3526.139253858267
 31
0.0
 12
10048.41895111316
 22
3463.523888222177
 32
0.0
 13
10048.41895111316
 23
3463.523888222177
 33
0.0
  0
LINE
  5
1CF24
330
1C77F
100
AcDbEntity
  8
0
100
AcDbLine
 10
10099.96595649695
 20
3526.139253858267
 30
0.0
 11
10076.87194572937
 21
3539.4725871916
 31
0.0
  0
ARC
  5
1CF25
330
1C77F
100
AcDbEntity
  8
U1
100
AcDbCircle
 10
11660.41703198606
 20
9321.915360473253
 30
0.0
 40
6.299999999999272
100
AcDbArc
 50
0.0
 51
90.0
  0
LINE
  5
1CF26
330
1C77F
100
AcDbEntity
  8
U1
100
AcDbLine
 10
11660.41703198606
 20
9328.215360473253
 30
0.0
 11
11653.01703198605
 21
9328.215360473253
 31
0.0
  0
ARC
  5
1CF27
330
1C77F
100
AcDbEntity
  8
U1
100
AcDbCircle
 10
11653.01703198605
 20
9321.915360473253
 30
0.0
 40
6.299999999999272
100
AcDbArc
 50
90.0
 51
180.0
  0
ARC
  5
1CF28
330
1C77F
100
AcDbEntity
  8
U1
100
AcDbCircle
 10
11640.41703198606
 20
9321.915360473253
 30
0.0
 40
6.299999999999272
100
AcDbArc
 50
0.0
 51
90.0
  0
LINE
  5
1CF29
330
1C77F
100
AcDbEntity
  8
U1
100
AcDbLine
 10
11640.41703198606
 20
9328.215360473253
 30
0.0
 11
11608.01703198605
 21
9328.215360473253
 31
0.0
  0
ARC
  5
1CF2A
330
1C77F
100
AcDbEntity
  8
U1
100
AcDbCircle
 10
11608.01703198605
 20
9321.915360473253
 30
0.0
 40
6.299999999999272
100
AcDbArc
 50
90.0
 51
180.0
  0
LINE
  5
1CF2B
330
1C77F
100
AcDbEntity
  8
U1
100
AcDbLine
 10
11601.71703198606
 20
9321.915360473253
 30
0.0
 11
11601.71703198606
 21
9269.515360473251
 31
0.0
  0
ARC
  5
1CF2C
330
1C77F
100
AcDbEntity
  8
U1
100
AcDbCircle
 10
11608.01703198605
 20
9269.515360473251
 30
0.0
 40
6.299999999999272
100
AcDbArc
 50
180.0
 51
270.0
  0
LINE
  5
1CF2D
330
1C77F
100
AcDbEntity
  8
U1
100
AcDbLine
 10
11608.01703198605
 20
9263.215360473251
 30
0.0
 11
11660.41703198606
 21
9263.215360473251
 31
0.0
  0
ARC
  5
1CF2E
330
1C77F
100
AcDbEntity
  8
U1
100
AcDbCircle
 10
11660.41703198606
 20
9269.515360473251
 30
0.0
 40
6.299999999999272
100
AcDbArc
 50
270.0
 51
0.0
  0
LINE
  5
1CF2F
330
1C77F
100
AcDbEntity
  8
U1
100
AcDbLine
 10
11666.71703198606
 20
9269.515360473251
 30
0.0
 11
11666.71703198606
 21
9321.915360473253
 31
0.0
  0
ARC
  5
1CF30
330
1C77F
100
AcDbEntity
  8
U1
100
AcDbCircle
 10
11660.41703198606
 20
7521.915360473252
 30
0.0
 40
6.299999999999272
100
AcDbArc
 50
0.0
 51
90.0
  0
LINE
  5
1CF31
330
1C77F
100
AcDbEntity
  8
U1
100
AcDbLine
 10
11660.41703198606
 20
7528.215360473253
 30
0.0
 11
11653.01703198605
 21
7528.215360473253
 31
0.0
  0
ARC
  5
1CF32
330
1C77F
100
AcDbEntity
  8
U1
100
AcDbCircle
 10
11653.01703198605
 20
7521.915360473252
 30
0.0
 40
6.300000000000181
100
AcDbArc
 50
90.0
 51
180.0
  0
ARC
  5
1CF33
330
1C77F
100
AcDbEntity
  8
U1
100
AcDbCircle
 10
11640.41703198606
 20
7521.915360473252
 30
0.0
 40
6.299999999999272
100
AcDbArc
 50
0.0
 51
90.0
  0
LINE
  5
1CF34
330
1C77F
100
AcDbEntity
  8
U1
100
AcDbLine
 10
11640.41703198606
 20
7528.215360473253
 30
0.0
 11
11608.01703198605
 21
7528.215360473253
 31
0.0
  0
ARC
  5
1CF35
330
1C77F
100
AcDbEntity
  8
U1
100
AcDbCircle
 10
11608.01703198605
 20
7521.915360473252
 30
0.0
 40
6.300000000000181
100
AcDbArc
 50
90.0
 51
180.0
  0
LINE
  5
1CF36
330
1C77F
100
AcDbEntity
  8
U1
100
AcDbLine
 10
11601.71703198606
 20
7521.915360473252
 30
0.0
 11
11601.71703198606
 21
7469.515360473251
 31
0.0
  0
ARC
  5
1CF37
330
1C77F
100
AcDbEntity
  8
U1
100
AcDbCircle
 10
11608.01703198605
 20
7469.515360473251
 30
0.0
 40
6.299999999999272
100
AcDbArc
 50
180.0
 51
270.0
  0
LINE
  5
1CF38
330
1C77F
100
AcDbEntity
  8
U1
100
AcDbLine
 10
11608.01703198605
 20
7463.215360473253
 30
0.0
 11
11660.41703198606
 21
7463.215360473253
 31
0.0
  0
ARC
  5
1CF39
330
1C77F
100
AcDbEntity
  8
U1
100
AcDbCircle
 10
11660.41703198606
 20
7469.515360473251
 30
0.0
 40
6.299999999999272
100
AcDbArc
 50
270.0
 51
0.0
  0
LINE
  5
1CF3A
330
1C77F
100
AcDbEntity
  8
U1
100
AcDbLine
 10
11666.71703198606
 20
7469.515360473251
 30
0.0
 11
11666.71703198606
 21
7521.915360473252
 31
0.0
  0
ARC
  5
1CF3B
330
1C77F
100
AcDbEntity
  8
U1
100
AcDbCircle
 10
11660.41703198606
 20
5721.915360473253
 30
0.0
 40
6.299999999999272
100
AcDbArc
 50
0.0
 51
90.0
  0
LINE
  5
1CF3C
330
1C77F
100
AcDbEntity
  8
U1
100
AcDbLine
 10
11660.41703198606
 20
5728.215360473253
 30
0.0
 11
11653.01703198605
 21
5728.215360473253
 31
0.0
  0
ARC
  5
1CF3D
330
1C77F
100
AcDbEntity
  8
U1
100
AcDbCircle
 10
11653.01703198605
 20
5721.915360473253
 30
0.0
 40
6.300000000000181
100
AcDbArc
 50
90.0
 51
180.0
  0
ARC
  5
1CF3E
330
1C77F
100
AcDbEntity
  8
U1
100
AcDbCircle
 10
11640.41703198606
 20
5721.915360473253
 30
0.0
 40
6.299999999999272
100
AcDbArc
 50
0.0
 51
90.0
  0
LINE
  5
1CF3F
330
1C77F
100
AcDbEntity
  8
U1
100
AcDbLine
 10
11640.41703198606
 20
5728.215360473253
 30
0.0
 11
11608.01703198605
 21
5728.215360473253
 31
0.0
  0
ARC
  5
1CF40
330
1C77F
100
AcDbEntity
  8
U1
100
AcDbCircle
 10
11608.01703198605
 20
5721.915360473253
 30
0.0
 40
6.300000000000181
100
AcDbArc
 50
90.0
 51
180.0
  0
LINE
  5
1CF41
330
1C77F
100
AcDbEntity
  8
U1
100
AcDbLine
 10
11601.71703198606
 20
5721.915360473253
 30
0.0
 11
11601.71703198606
 21
5669.515360473252
 31
0.0
  0
ARC
  5
1CF42
330
1C77F
100
AcDbEntity
  8
U1
100
AcDbCircle
 10
11608.01703198605
 20
5669.515360473252
 30
0.0
 40
6.299999999999272
100
AcDbArc
 50
180.0
 51
270.0
  0
LINE
  5
1CF43
330
1C77F
100
AcDbEntity
  8
U1
100
AcDbLine
 10
11608.01703198605
 20
5663.215360473253
 30
0.0
 11
11660.41703198606
 21
5663.215360473253
 31
0.0
  0
ARC
  5
1CF44
330
1C77F
100
AcDbEntity
  8
U1
100
AcDbCircle
 10
11660.41703198606
 20
5669.515360473252
 30
0.0
 40
6.299999999999272
100
AcDbArc
 50
270.0
 51
0.0
  0
LINE
  5
1CF45
330
1C77F
100
AcDbEntity
  8
U1
100
AcDbLine
 10
11666.71703198606
 20
5669.515360473252
 30
0.0
 11
11666.71703198606
 21
5721.915360473253
 31
0.0
  0
ARC
  5
1CF46
330
1C77F
100
AcDbEntity
  8
U1
100
AcDbCircle
 10
8860.41703198606
 20
9321.915360473253
 30
0.0
 40
6.299999999999272
100
AcDbArc
 50
0.0
 51
90.0
  0
LINE
  5
1CF47
330
1C77F
100
AcDbEntity
  8
U1
100
AcDbLine
 10
8860.41703198606
 20
9328.215360473253
 30
0.0
 11
8853.017031986059
 21
9328.215360473253
 31
0.0
  0
ARC
  5
1CF48
330
1C77F
100
AcDbEntity
  8
U1
100
AcDbCircle
 10
8853.017031986059
 20
9321.915360473253
 30
0.0
 40
6.299999999999272
100
AcDbArc
 50
90.0
 51
180.0
  0
ARC
  5
1CF49
330
1C77F
100
AcDbEntity
  8
U1
100
AcDbCircle
 10
8840.417031986062
 20
9321.915360473253
 30
0.0
 40
6.299999999999272
100
AcDbArc
 50
0.0
 51
90.0
  0
LINE
  5
1CF4A
330
1C77F
100
AcDbEntity
  8
U1
100
AcDbLine
 10
8840.417031986062
 20
9328.215360473253
 30
0.0
 11
8808.017031986059
 21
9328.215360473253
 31
0.0
  0
ARC
  5
1CF4B
330
1C77F
100
AcDbEntity
  8
U1
100
AcDbCircle
 10
8808.017031986059
 20
9321.915360473253
 30
0.0
 40
6.299999999999272
100
AcDbArc
 50
90.0
 51
180.0
  0
LINE
  5
1CF4C
330
1C77F
100
AcDbEntity
  8
U1
100
AcDbLine
 10
8801.71703198606
 20
9321.915360473253
 30
0.0
 11
8801.71703198606
 21
9269.515360473251
 31
0.0
  0
ARC
  5
1CF4D
330
1C77F
100
AcDbEntity
  8
U1
100
AcDbCircle
 10
8808.017031986059
 20
9269.515360473251
 30
0.0
 40
6.299999999999272
100
AcDbArc
 50
180.0
 51
270.0
  0
LINE
  5
1CF4E
330
1C77F
100
AcDbEntity
  8
U1
100
AcDbLine
 10
8808.017031986059
 20
9263.215360473251
 30
0.0
 11
8860.41703198606
 21
9263.215360473251
 31
0.0
  0
ARC
  5
1CF4F
330
1C77F
100
AcDbEntity
  8
U1
100
AcDbCircle
 10
8860.41703198606
 20
9269.515360473251
 30
0.0
 40
6.299999999999272
100
AcDbArc
 50
270.0
 51
0.0
  0
LINE
  5
1CF50
330
1C77F
100
AcDbEntity
  8
U1
100
AcDbLine
 10
8866.717031986061
 20
9269.515360473251
 30
0.0
 11
8866.717031986061
 21
9321.915360473253
 31
0.0
  0
ARC
  5
1CF51
330
1C77F
100
AcDbEntity
  8
U1
100
AcDbCircle
 10
8860.41703198606
 20
7521.915360473252
 30
0.0
 40
6.299999999999272
100
AcDbArc
 50
0.0
 51
90.0
  0
LINE
  5
1CF52
330
1C77F
100
AcDbEntity
  8
U1
100
AcDbLine
 10
8860.41703198606
 20
7528.215360473253
 30
0.0
 11
8853.017031986059
 21
7528.215360473253
 31
0.0
  0
ARC
  5
1CF53
330
1C77F
100
AcDbEntity
  8
U1
100
AcDbCircle
 10
8853.017031986059
 20
7521.915360473252
 30
0.0
 40
6.300000000000181
100
AcDbArc
 50
90.0
 51
180.0
  0
ARC
  5
1CF54
330
1C77F
100
AcDbEntity
  8
U1
100
AcDbCircle
 10
8840.417031986062
 20
7521.915360473252
 30
0.0
 40
6.299999999999272
100
AcDbArc
 50
0.0
 51
90.0
  0
LINE
  5
1CF55
330
1C77F
100
AcDbEntity
  8
U1
100
AcDbLine
 10
8840.417031986062
 20
7528.215360473253
 30
0.0
 11
8808.017031986059
 21
7528.215360473253
 31
0.0
  0
ARC
  5
1CF56
330
1C77F
100
AcDbEntity
  8
U1
100
AcDbCircle
 10
8808.017031986059
 20
7521.915360473252
 30
0.0
 40
6.300000000000181
100
AcDbArc
 50
90.0
 51
180.0
  0
LINE
  5
1CF57
330
1C77F
100
AcDbEntity
  8
U1
100
AcDbLine
 10
8801.71703198606
 20
7521.915360473252
 30
0.0
 11
8801.71703198606
 21
7469.515360473251
 31
0.0
  0
ARC
  5
1CF58
330
1C77F
100
AcDbEntity
  8
U1
100
AcDbCircle
 10
8808.017031986059
 20
7469.515360473251
 30
0.0
 40
6.299999999999272
100
AcDbArc
 50
180.0
 51
270.0
  0
LINE
  5
1CF59
330
1C77F
100
AcDbEntity
  8
U1
100
AcDbLine
 10
8808.017031986059
 20
7463.215360473253
 30
0.0
 11
8860.41703198606
 21
7463.215360473253
 31
0.0
  0
ARC
  5
1CF5A
330
1C77F
100
AcDbEntity
  8
U1
100
AcDbCircle
 10
8860.41703198606
 20
7469.515360473251
 30
0.0
 40
6.299999999999272
100
AcDbArc
 50
270.0
 51
0.0
  0
LINE
  5
1CF5B
330
1C77F
100
AcDbEntity
  8
U1
100
AcDbLine
 10
8866.717031986061
 20
7469.515360473251
 30
0.0
 11
8866.717031986061
 21
7521.915360473252
 31
0.0
  0
ARC
  5
1CF5C
330
1C77F
100
AcDbEntity
  8
U1
100
AcDbCircle
 10
8860.41703198606
 20
5721.915360473253
 30
0.0
 40
6.299999999999272
100
AcDbArc
 50
0.0
 51
90.0
  0
LINE
  5
1CF5D
330
1C77F
100
AcDbEntity
  8
U1
100
AcDbLine
 10
8860.41703198606
 20
5728.215360473253
 30
0.0
 11
8853.017031986059
 21
5728.215360473253
 31
0.0
  0
ARC
  5
1CF5E
330
1C77F
100
AcDbEntity
  8
U1
100
AcDbCircle
 10
8853.017031986059
 20
5721.915360473253
 30
0.0
 40
6.300000000000181
100
AcDbArc
 50
90.0
 51
180.0
  0
ARC
  5
1CF5F
330
1C77F
100
AcDbEntity
  8
U1
100
AcDbCircle
 10
8840.417031986062
 20
5721.915360473253
 30
0.0
 40
6.299999999999272
100
AcDbArc
 50
0.0
 51
90.0
  0
LINE
  5
1CF60
330
1C77F
100
AcDbEntity
  8
U1
100
AcDbLine
 10
8840.417031986062
 20
5728.215360473253
 30
0.0
 11
8808.017031986059
 21
5728.215360473253
 31
0.0
  0
ARC
  5
1CF61
330
1C77F
100
AcDbEntity
  8
U1
100
AcDbCircle
 10
8808.017031986059
 20
5721.915360473253
 30
0.0
 40
6.300000000000181
100
AcDbArc
 50
90.0
 51
180.0
  0
LINE
  5
1CF62
330
1C77F
100
AcDbEntity
  8
U1
100
AcDbLine
 10
8801.71703198606
 20
5721.915360473253
 30
0.0
 11
8801.71703198606
 21
5669.515360473252
 31
0.0
  0
ARC
  5
1CF63
330
1C77F
100
AcDbEntity
  8
U1
100
AcDbCircle
 10
8808.017031986059
 20
5669.515360473252
 30
0.0
 40
6.299999999999272
100
AcDbArc
 50
180.0
 51
270.0
  0
LINE
  5
1CF64
330
1C77F
100
AcDbEntity
  8
U1
100
AcDbLine
 10
8808.017031986059
 20
5663.215360473253
 30
0.0
 11
8860.41703198606
 21
5663.215360473253
 31
0.0
  0
ARC
  5
1CF65
330
1C77F
100
AcDbEntity
  8
U1
100
AcDbCircle
 10
8860.41703198606
 20
5669.515360473252
 30
0.0
 40
6.299999999999272
100
AcDbArc
 50
270.0
 51
0.0
  0
LINE
  5
1CF66
330
1C77F
100
AcDbEntity
  8
U1
100
AcDbLine
 10
8866.717031986061
 20
5669.515360473252
 30
0.0
 11
8866.717031986061
 21
5721.915360473253
 31
0.0
  0
ARC
  5
1CF67
330
1C77F
100
AcDbEntity
  8
U1
100
AcDbCircle
 10
7560.41703198606
 20
9321.915360473253
 30
0.0
 40
6.299999999999272
100
AcDbArc
 50
0.0
 51
90.00000000000826
  0
LINE
  5
1CF68
330
1C77F
100
AcDbEntity
  8
U1
100
AcDbLine
 10
7560.41703198606
 20
9328.215360473253
 30
0.0
 11
7553.017031986062
 21
9328.215360473253
 31
0.0
  0
ARC
  5
1CF69
330
1C77F
100
AcDbEntity
  8
U1
100
AcDbCircle
 10
7553.017031986058
 20
9321.915360473253
 30
0.0
 40
6.299999999999272
100
AcDbArc
 50
89.99999999999173
 51
180.0
  0
ARC
  5
1CF6A
330
1C77F
100
AcDbEntity
  8
U1
100
AcDbCircle
 10
7540.417031986061
 20
9321.915360473253
 30
0.0
 40
6.299999999999272
100
AcDbArc
 50
0.0
 51
90.00000000000826
  0
LINE
  5
1CF6B
330
1C77F
100
AcDbEntity
  8
U1
100
AcDbLine
 10
7540.417031986058
 20
9328.215360473253
 30
0.0
 11
7508.017031986061
 21
9328.215360473253
 31
0.0
  0
ARC
  5
1CF6C
330
1C77F
100
AcDbEntity
  8
U1
100
AcDbCircle
 10
7508.017031986058
 20
9321.915360473253
 30
0.0
 40
6.299999999999272
100
AcDbArc
 50
89.99999999999173
 51
180.0
  0
LINE
  5
1CF6D
330
1C77F
100
AcDbEntity
  8
U1
100
AcDbLine
 10
7501.71703198606
 20
9321.915360473253
 30
0.0
 11
7501.71703198606
 21
9269.515360473251
 31
0.0
  0
ARC
  5
1CF6E
330
1C77F
100
AcDbEntity
  8
U1
100
AcDbCircle
 10
7508.017031986058
 20
9269.515360473251
 30
0.0
 40
6.299999999999272
100
AcDbArc
 50
180.0
 51
270.000000000008
  0
LINE
  5
1CF6F
330
1C77F
100
AcDbEntity
  8
U1
100
AcDbLine
 10
7508.017031986061
 20
9263.215360473251
 30
0.0
 11
7560.41703198606
 21
9263.215360473251
 31
0.0
  0
ARC
  5
1CF70
330
1C77F
100
AcDbEntity
  8
U1
100
AcDbCircle
 10
7560.41703198606
 20
9269.515360473251
 30
0.0
 40
6.299999999999272
100
AcDbArc
 50
269.9999999999918
 51
0.0
  0
LINE
  5
1CF71
330
1C77F
100
AcDbEntity
  8
U1
100
AcDbLine
 10
7566.71703198606
 20
9269.515360473251
 30
0.0
 11
7566.71703198606
 21
9321.915360473253
 31
0.0
  0
ARC
  5
1CF72
330
1C77F
100
AcDbEntity
  8
U1
100
AcDbCircle
 10
7560.41703198606
 20
7521.915360473252
 30
0.0
 40
6.299999999999272
100
AcDbArc
 50
0.0
 51
90.00000000000826
  0
LINE
  5
1CF73
330
1C77F
100
AcDbEntity
  8
U1
100
AcDbLine
 10
7560.41703198606
 20
7528.215360473253
 30
0.0
 11
7553.017031986062
 21
7528.215360473253
 31
0.0
  0
ARC
  5
1CF74
330
1C77F
100
AcDbEntity
  8
U1
100
AcDbCircle
 10
7553.017031986058
 20
7521.915360473252
 30
0.0
 40
6.300000000000181
100
AcDbArc
 50
89.99999999999173
 51
180.0
  0
ARC
  5
1CF75
330
1C77F
100
AcDbEntity
  8
U1
100
AcDbCircle
 10
7540.417031986058
 20
7521.915360473252
 30
0.0
 40
6.300000000000181
100
AcDbArc
 50
0.0000000000082715
 51
90.0
  0
LINE
  5
1CF76
330
1C77F
100
AcDbEntity
  8
U1
100
AcDbLine
 10
7540.417031986058
 20
7528.215360473253
 30
0.0
 11
7508.017031986061
 21
7528.215360473253
 31
0.0
  0
ARC
  5
1CF77
330
1C77F
100
AcDbEntity
  8
U1
100
AcDbCircle
 10
7508.017031986058
 20
7521.915360473252
 30
0.0
 40
6.300000000000181
100
AcDbArc
 50
89.99999999999173
 51
180.0
  0
LINE
  5
1CF78
330
1C77F
100
AcDbEntity
  8
U1
100
AcDbLine
 10
7501.71703198606
 20
7521.915360473252
 30
0.0
 11
7501.71703198606
 21
7469.515360473251
 31
0.0
  0
ARC
  5
1CF79
330
1C77F
100
AcDbEntity
  8
U1
100
AcDbCircle
 10
7508.017031986058
 20
7469.515360473251
 30
0.0
 40
6.299999999999272
100
AcDbArc
 50
180.0
 51
270.000000000008
  0
LINE
  5
1CF7A
330
1C77F
100
AcDbEntity
  8
U1
100
AcDbLine
 10
7508.017031986061
 20
7463.215360473253
 30
0.0
 11
7560.41703198606
 21
7463.215360473253
 31
0.0
  0
ARC
  5
1CF7B
330
1C77F
100
AcDbEntity
  8
U1
100
AcDbCircle
 10
7560.41703198606
 20
7469.515360473251
 30
0.0
 40
6.299999999999272
100
AcDbArc
 50
269.9999999999918
 51
0.0
  0
LINE
  5
1CF7C
330
1C77F
100
AcDbEntity
  8
U1
100
AcDbLine
 10
7566.71703198606
 20
7469.515360473251
 30
0.0
 11
7566.71703198606
 21
7521.915360473252
 31
0.0
  0
ARC
  5
1CF7D
330
1C77F
100
AcDbEntity
  8
U1
100
AcDbCircle
 10
7560.41703198606
 20
5721.915360473253
 30
0.0
 40
6.299999999999272
100
AcDbArc
 50
0.0
 51
90.00000000000826
  0
LINE
  5
1CF7E
330
1C77F
100
AcDbEntity
  8
U1
100
AcDbLine
 10
7560.41703198606
 20
5728.215360473253
 30
0.0
 11
7553.017031986062
 21
5728.215360473253
 31
0.0
  0
ARC
  5
1CF7F
330
1C77F
100
AcDbEntity
  8
U1
100
AcDbCircle
 10
7553.017031986058
 20
5721.915360473253
 30
0.0
 40
6.300000000000181
100
AcDbArc
 50
89.99999999999173
 51
180.0
  0
ARC
  5
1CF80
330
1C77F
100
AcDbEntity
  8
U1
100
AcDbCircle
 10
7540.417031986058
 20
5721.915360473252
 30
0.0
 40
6.300000000000181
100
AcDbArc
 50
0.0000000000082715
 51
90.0
  0
LINE
  5
1CF81
330
1C77F
100
AcDbEntity
  8
U1
100
AcDbLine
 10
7540.417031986058
 20
5728.215360473253
 30
0.0
 11
7508.017031986061
 21
5728.215360473253
 31
0.0
  0
ARC
  5
1CF82
330
1C77F
100
AcDbEntity
  8
U1
100
AcDbCircle
 10
7508.017031986058
 20
5721.915360473253
 30
0.0
 40
6.300000000000181
100
AcDbArc
 50
89.99999999999173
 51
180.0
  0
LINE
  5
1CF83
330
1C77F
100
AcDbEntity
  8
U1
100
AcDbLine
 10
7501.71703198606
 20
5721.915360473253
 30
0.0
 11
7501.71703198606
 21
5669.515360473252
 31
0.0
  0
ARC
  5
1CF84
330
1C77F
100
AcDbEntity
  8
U1
100
AcDbCircle
 10
7508.017031986058
 20
5669.515360473252
 30
0.0
 40
6.299999999999272
100
AcDbArc
 50
180.0
 51
270.000000000008
  0
LINE
  5
1CF85
330
1C77F
100
AcDbEntity
  8
U1
100
AcDbLine
 10
7508.017031986061
 20
5663.215360473253
 30
0.0
 11
7560.41703198606
 21
5663.215360473253
 31
0.0
  0
ARC
  5
1CF86
330
1C77F
100
AcDbEntity
  8
U1
100
AcDbCircle
 10
7560.41703198606
 20
5669.515360473252
 30
0.0
 40
6.299999999999272
100
AcDbArc
 50
269.9999999999918
 51
0.0
  0
LINE
  5
1CF87
330
1C77F
100
AcDbEntity
  8
U1
100
AcDbLine
 10
7566.71703198606
 20
5669.515360473252
 30
0.0
 11
7566.71703198606
 21
5721.915360473253
 31
0.0
  0
ARC
  5
1CF88
330
1C77F
100
AcDbEntity
  8
U1
100
AcDbCircle
 10
4760.417031986061
 20
9321.915360473253
 30
0.0
 40
6.299999999999272
100
AcDbArc
 50
0.0
 51
90.00000000000826
  0
LINE
  5
1CF89
330
1C77F
100
AcDbEntity
  8
U1
100
AcDbLine
 10
4760.417031986057
 20
9328.215360473253
 30
0.0
 11
4753.01703198606
 21
9328.215360473253
 31
0.0
  0
ARC
  5
1CF8A
330
1C77F
100
AcDbEntity
  8
U1
100
AcDbCircle
 10
4753.017031986058
 20
9321.915360473253
 30
0.0
 40
6.299999999999272
100
AcDbArc
 50
89.99999999999173
 51
180.0
  0
ARC
  5
1CF8B
330
1C77F
100
AcDbEntity
  8
U1
100
AcDbCircle
 10
4740.41703198606
 20
9321.915360473253
 30
0.0
 40
6.299999999999272
100
AcDbArc
 50
0.0
 51
90.00000000000826
  0
LINE
  5
1CF8C
330
1C77F
100
AcDbEntity
  8
U1
100
AcDbLine
 10
4740.417031986058
 20
9328.215360473253
 30
0.0
 11
4708.017031986059
 21
9328.215360473253
 31
0.0
  0
ARC
  5
1CF8D
330
1C77F
100
AcDbEntity
  8
U1
100
AcDbCircle
 10
4708.017031986059
 20
9321.915360473253
 30
0.0
 40
6.299999999999272
100
AcDbArc
 50
89.99999999999173
 51
180.0
  0
LINE
  5
1CF8E
330
1C77F
100
AcDbEntity
  8
U1
100
AcDbLine
 10
4701.717031986058
 20
9321.915360473253
 30
0.0
 11
4701.717031986058
 21
9269.515360473251
 31
0.0
  0
ARC
  5
1CF8F
330
1C77F
100
AcDbEntity
  8
U1
100
AcDbCircle
 10
4708.017031986059
 20
9269.515360473251
 30
0.0
 40
6.299999999999272
100
AcDbArc
 50
180.0
 51
270.000000000008
  0
LINE
  5
1CF90
330
1C77F
100
AcDbEntity
  8
U1
100
AcDbLine
 10
4708.017031986059
 20
9263.215360473251
 30
0.0
 11
4760.417031986057
 21
9263.215360473251
 31
0.0
  0
ARC
  5
1CF91
330
1C77F
100
AcDbEntity
  8
U1
100
AcDbCircle
 10
4760.417031986061
 20
9269.515360473251
 30
0.0
 40
6.299999999999272
100
AcDbArc
 50
269.9999999999918
 51
0.0
  0
LINE
  5
1CF92
330
1C77F
100
AcDbEntity
  8
U1
100
AcDbLine
 10
4766.717031986058
 20
9269.515360473251
 30
0.0
 11
4766.717031986058
 21
9321.915360473253
 31
0.0
  0
ARC
  5
1CF93
330
1C77F
100
AcDbEntity
  8
U1
100
AcDbCircle
 10
4760.417031986061
 20
7521.915360473252
 30
0.0
 40
6.299999999999272
100
AcDbArc
 50
0.0
 51
90.00000000000826
  0
LINE
  5
1CF94
330
1C77F
100
AcDbEntity
  8
U1
100
AcDbLine
 10
4760.417031986057
 20
7528.215360473253
 30
0.0
 11
4753.01703198606
 21
7528.215360473253
 31
0.0
  0
ARC
  5
1CF95
330
1C77F
100
AcDbEntity
  8
U1
100
AcDbCircle
 10
4753.017031986058
 20
7521.915360473252
 30
0.0
 40
6.300000000000181
100
AcDbArc
 50
89.99999999999173
 51
180.0
  0
ARC
  5
1CF96
330
1C77F
100
AcDbEntity
  8
U1
100
AcDbCircle
 10
4740.417031986058
 20
7521.915360473252
 30
0.0
 40
6.300000000000181
100
AcDbArc
 50
0.0000000000082715
 51
90.0
  0
LINE
  5
1CF97
330
1C77F
100
AcDbEntity
  8
U1
100
AcDbLine
 10
4740.417031986058
 20
7528.215360473253
 30
0.0
 11
4708.017031986059
 21
7528.215360473253
 31
0.0
  0
ARC
  5
1CF98
330
1C77F
100
AcDbEntity
  8
U1
100
AcDbCircle
 10
4708.017031986059
 20
7521.915360473252
 30
0.0
 40
6.300000000000181
100
AcDbArc
 50
89.99999999999173
 51
180.0
  0
LINE
  5
1CF99
330
1C77F
100
AcDbEntity
  8
U1
100
AcDbLine
 10
4701.717031986058
 20
7521.915360473252
 30
0.0
 11
4701.717031986058
 21
7469.515360473251
 31
0.0
  0
ARC
  5
1CF9A
330
1C77F
100
AcDbEntity
  8
U1
100
AcDbCircle
 10
4708.017031986059
 20
7469.515360473251
 30
0.0
 40
6.299999999999272
100
AcDbArc
 50
180.0
 51
270.000000000008
  0
LINE
  5
1CF9B
330
1C77F
100
AcDbEntity
  8
U1
100
AcDbLine
 10
4708.017031986059
 20
7463.215360473253
 30
0.0
 11
4760.417031986057
 21
7463.215360473253
 31
0.0
  0
ARC
  5
1CF9C
330
1C77F
100
AcDbEntity
  8
U1
100
AcDbCircle
 10
4760.417031986061
 20
7469.515360473251
 30
0.0
 40
6.299999999999272
100
AcDbArc
 50
269.9999999999918
 51
0.0
  0
LINE
  5
1CF9D
330
1C77F
100
AcDbEntity
  8
U1
100
AcDbLine
 10
4766.717031986058
 20
7469.515360473251
 30
0.0
 11
4766.717031986058
 21
7521.915360473252
 31
0.0
  0
ARC
  5
1CF9E
330
1C77F
100
AcDbEntity
  8
U1
100
AcDbCircle
 10
4760.417031986061
 20
5721.915360473253
 30
0.0
 40
6.299999999999272
100
AcDbArc
 50
0.0
 51
90.00000000000826
  0
LINE
  5
1CF9F
330
1C77F
100
AcDbEntity
  8
U1
100
AcDbLine
 10
4760.417031986057
 20
5728.215360473253
 30
0.0
 11
4753.01703198606
 21
5728.215360473253
 31
0.0
  0
ARC
  5
1CFA0
330
1C77F
100
AcDbEntity
  8
U1
100
AcDbCircle
 10
4753.017031986058
 20
5721.915360473253
 30
0.0
 40
6.300000000000181
100
AcDbArc
 50
89.99999999999173
 51
180.0
  0
ARC
  5
1CFA1
330
1C77F
100
AcDbEntity
  8
U1
100
AcDbCircle
 10
4740.417031986058
 20
5721.915360473252
 30
0.0
 40
6.300000000000181
100
AcDbArc
 50
0.0000000000082715
 51
90.0
  0
LINE
  5
1CFA2
330
1C77F
100
AcDbEntity
  8
U1
100
AcDbLine
 10
4740.417031986058
 20
5728.215360473253
 30
0.0
 11
4708.017031986059
 21
5728.215360473253
 31
0.0
  0
ARC
  5
1CFA3
330
1C77F
100
AcDbEntity
  8
U1
100
AcDbCircle
 10
4708.017031986059
 20
5721.915360473253
 30
0.0
 40
6.300000000000181
100
AcDbArc
 50
89.99999999999173
 51
180.0
  0
LINE
  5
1CFA4
330
1C77F
100
AcDbEntity
  8
U1
100
AcDbLine
 10
4701.717031986058
 20
5721.915360473253
 30
0.0
 11
4701.717031986058
 21
5669.515360473252
 31
0.0
  0
ARC
  5
1CFA5
330
1C77F
100
AcDbEntity
  8
U1
100
AcDbCircle
 10
4708.017031986059
 20
5669.515360473252
 30
0.0
 40
6.299999999999272
100
AcDbArc
 50
180.0
 51
270.000000000008
  0
LINE
  5
1CFA6
330
1C77F
100
AcDbEntity
  8
U1
100
AcDbLine
 10
4708.017031986059
 20
5663.215360473253
 30
0.0
 11
4760.417031986057
 21
5663.215360473253
 31
0.0
  0
ARC
  5
1CFA7
330
1C77F
100
AcDbEntity
  8
U1
100
AcDbCircle
 10
4760.417031986061
 20
5669.515360473252
 30
0.0
 40
6.299999999999272
100
AcDbArc
 50
269.9999999999918
 51
0.0
  0
LINE
  5
1CFA8
330
1C77F
100
AcDbEntity
  8
U1
100
AcDbLine
 10
4766.717031986058
 20
5669.515360473252
 30
0.0
 11
4766.717031986058
 21
5721.915360473253
 31
0.0
  0
TEXT
  5
1CFCA
330
1C77F
100
AcDbEntity
  8
SUNPOU
100
AcDbText
 10
1118.619980306714
 20
4947.650029959326
 30
0.0
 40
89.9993750043402
  1
地耐力   　　　 以上,コンクリート設計基準強度　　　　　以上
  7
01
100
AcDbText
  0
TEXT
  5
1CFCB
330
1C77F
100
AcDbEntity
  8
SUNPOU
100
AcDbText
 10
1493.575725396108
 20
4259.792887102184
 30
0.0
 40
90.0
  1
その他現地の実情にあわせて設計して下さい。
  7
01
100
AcDbText
  0
TEXT
  5
1CFCC
330
1C77F
100
AcDbEntity
  8
SUNPOU
100
AcDbText
 10
1493.575725396108
 20
4568.364315673611
 30
0.0
 40
90.0
  1
寒冷地の場合、凍結深度等を考慮し、実情に
  7
01
100
AcDbText
  0
TEXT
  5
1CFCD
330
1C77F
100
AcDbEntity
  8
SUNPOU
100
AcDbText
 10
1492.878387731796
 20
4947.650029959326
 30
0.0
 40
89.9993750043402
  1
50  N/m
 41
0.6700000000000001
  7
01
100
AcDbText
  0
TEXT
  5
1CFCE
330
1C77F
100
AcDbEntity
  8
SUNPOU
100
AcDbText
 10
1602.383408971882
 20
4793.364315673614
 30
0.0
 40
89.9993750043402
  1
34 m/s
 41
0.6700000000000001
  7
01
100
AcDbText
  0
TEXT
  5
1CFCF
330
1C77F
100
AcDbEntity
  8
SUNPOU
100
AcDbText
 10
988.0563515904841
 20
5136.904032405284
 30
0.0
 40
90.0
  1
<下記条件での参考図>
  7
01
 72
     4
 11
1576.913494447627
 21
5181.904032405284
 31
0.0
100
AcDbText
  0
TEXT
  5
1CFD0
330
1C77F
100
AcDbEntity
  8
SUNPOU
100
AcDbText
 10
1118.619980306714
 20
4793.364315673614
 30
0.0
 40
89.9993750043402
  1
基準風速   　　 , 地表面粗度区分
  7
01
100
AcDbText
  0
TEXT
  5
1CFD1
330
1C77F
100
AcDbEntity
  8
SUNPOU
100
AcDbText
 10
1493.575725396108
 20
4414.078601387894
 30
0.0
 40
90.0
  1
あわせて設計して下さい。
  7
01
100
AcDbText
  0
ARC
  5
1CFD2
330
1C77F
100
AcDbEntity
  8
SUNPOU
100
AcDbCircle
 10
1271.57825421392
 20
4911.437453401156
 30
0.0
 40
225.0
100
AcDbArc
 50
148.3472725282829
 51
211.6527274717169
  0
TEXT
  5
1CFD3
330
1C77F
100
AcDbEntity
  8
SUNPOU
100
AcDbText
 10
1287.369980306714
 20
4259.792887102184
 30
0.0
 40
90.0
  1
2
 41
0.6700000000000001
  7
01
100
AcDbText
  0
TEXT
  5
1CFD4
330
1C77F
100
AcDbEntity
  8
SUNPOU
100
AcDbText
 10
1176.736060093972
 20
4259.792887102184
 30
0.0
 40
90.0
  1
注　）
  7
01
100
AcDbText
  0
TEXT
  5
1CFD5
330
1C77F
100
AcDbEntity
  8
SUNPOU
100
AcDbText
 10
1176.736060093972
 20
4568.364315673611
 30
0.0
 40
90.0
  1
注　）
  7
01
100
AcDbText
  0
TEXT
  5
1CFD6
330
1C77F
100
AcDbEntity
  8
SUNPOU
100
AcDbText
 10
1287.369980306714
 20
4568.364315673611
 30
0.0
 40
90.0
  1
1
 41
0.6700000000000001
  7
01
100
AcDbText
  0
TEXT
  5
1CFD7
330
1C77F
100
AcDbEntity
  8
SUNPOU
100
AcDbText
 10
1113.413494447627
 20
5294.404032405282
 30
0.0
 40
120.0
  1
基礎断面図
  7
01
 72
     4
 11
1453.413494447627
 21
5354.404032405282
 31
0.0
100
AcDbText
  0
TEXT
  5
1CFD8
330
1C77F
100
AcDbEntity
  8
SUNPOU
100
AcDbText
 10
1628.71484051775
 20
4947.650029959326
 30
0.0
 40
71.99950000347218
  1
K
 41
0.6700000000000001
  7
01
100
AcDbText
  0
LINE
  5
1CFD9
330
1C77F
100
AcDbEntity
  8
SUNPOU
100
AcDbLine
 10
2955.435541873324
 20
4793.364315673614
 30
0.0
 11
2955.435541873324
 21
4876.856679372394
 31
0.0
  0
LINE
  5
1CFDA
330
1C77F
100
AcDbEntity
  8
SUNPOU
100
AcDbLine
 10
2938.560541873323
 20
4793.364315673614
 30
0.0
 11
2938.560541873323
 21
4876.856679372394
 31
0.0
  0
LINE
  5
1CFDB
330
1C77F
100
AcDbEntity
  8
SUNPOU
100
AcDbLine
 10
2921.685541873324
 20
4793.364315673614
 30
0.0
 11
2921.685541873324
 21
4876.856679372394
 31
0.0
  0
LINE
  5
1CFDC
330
1C77F
100
AcDbEntity
  8
SUNPOU
100
AcDbLine
 10
2910.435541873324
 20
4793.364315673611
 30
0.0
 11
2966.685541873324
 21
4793.364315673611
 31
0.0
  0
LINE
  5
1CFDD
330
1C77F
100
AcDbEntity
  8
SUNPOU
100
AcDbLine
 10
2910.435541873324
 20
4876.856679372394
 30
0.0
 11
2966.685541873324
 21
4876.856679372394
 31
0.0
  0
TEXT
  5
1CFDE
330
1C77F
100
AcDbEntity
  8
SUNPOU
100
AcDbText
 10
2198.372660979053
 20
5304.250186251438
 30
0.0
 40
73.84615384615384
  1
/
 41
0.6700000000000001
  7
00
 11
2198.372660979053
 21
5294.404032405284
 31
0.0
100
AcDbText
 73
     1
  0
TEXT
  5
1CFDF
330
1C77F
100
AcDbEntity
  8
SUNPOU
100
AcDbText
 10
2149.96653366368
 20
5322.711724712976
 30
0.0
 40
73.84615384615384
  1
1
 41
0.6700000000000001
  7
00
 11
2149.96653366368
 21
5312.865570866822
 31
0.0
100
AcDbText
 73
     1
  0
TEXT
  5
1CFE0
330
1C77F
100
AcDbEntity
  8
SUNPOU
100
AcDbText
 10
1830.263831810595
 20
5306.711724712976
 30
0.0
 40
92.30769230769228
  1
（ S = 　　  ）
 41
0.6700000000000001
  7
00
 11
1830.263831810595
 21
5294.404032405284
 31
0.0
100
AcDbText
 73
     1
  0
TEXT
  5
1CFE1
330
1C77F
100
AcDbEntity
  8
SUNPOU
100
AcDbText
 10
1896.354997246134
 20
4997.838456316813
 30
0.0
 40
46.28539285937498
  1
2
 41
0.6700000000000001
  7
00
100
AcDbText
  0
TEXT
  5
1CFE2
330
1C77F
100
AcDbEntity
  8
SUNPOU
100
AcDbText
 10
2262.322103933422
 20
5285.788647789897
 30
0.0
 40
73.84615384615384
  1
25
 41
0.6700000000000001
  7
00
 11
2262.322103933422
 21
5275.942493943743
 31
0.0
100
AcDbText
 73
     1
  0
ARC
  5
1CFE3
330
1C77F
100
AcDbEntity
  8
SUNPOU
100
AcDbCircle
 10
4120.465757215561
 20
4911.437453401156
 30
0.0
 40
225.0
100
AcDbArc
 50
328.3472725282828
 51
31.65272747171703
  0
TEXT
  5
1CFE4
330
1C77F
100
AcDbEntity
  8
SUNPOU
100
AcDbText
 10
3681.877341611074
 20
4947.650029959326
 30
0.0
 40
89.9993750043402
  1
N/mm
 41
0.6700000000000001
  7
01
100
AcDbText
  0
TEXT
  5
1CFE5
330
1C77F
100
AcDbEntity
  8
SUNPOU
100
AcDbText
 10
3546.040888825123
 20
4947.650029959326
 30
0.0
 40
89.9993750043402
  1
18
 41
0.6700000000000001
  7
01
100
AcDbText
  0
TEXT
  5
1CFE6
330
1C77F
100
AcDbEntity
  8
SUNPOU
100
AcDbText
 10
3986.341823642478
 20
4997.838456316813
 30
0.0
 40
46.28539285937498
  1
2
 41
0.6700000000000001
  7
00
100
AcDbText
  0
ENDSEC
  0
SECTION
  2
OBJECTS
  0
DICTIONARY
  5
1C76D
330
0
100
AcDbDictionary
281
     1
  3
ACAD_GROUP
350
1C76E
  3
ACAD_LAYOUT
350
1C77A
  3
ACAD_MLINESTYLE
350
1C777
  3
ACAD_PLOTSETTINGS
350
1C779
  3
ACAD_PLOTSTYLENAME
350
1C76F
  3
AcDbVariableDictionary
350
1CFE7
  0
DICTIONARY
  5
1C76E
102
{ACAD_REACTORS
330
1C76D
102
}
330
1C76D
100
AcDbDictionary
281
     1
  0
DICTIONARY
  5
1C77A
102
{ACAD_REACTORS
330
1C76D
102
}
330
1C76D
100
AcDbDictionary
281
     1
  3
Model
350
1C782
  3
ﾚｲｱｳﾄ1
350
1C77E
  0
DICTIONARY
  5
1C777
102
{ACAD_REACTORS
330
1C76D
102
}
330
1C76D
100
AcDbDictionary
281
     1
  3
Standard
350
1C778
  0
DICTIONARY
  5
1C779
102
{ACAD_REACTORS
330
1C76D
102
}
330
1C76D
100
AcDbDictionary
281
     1
  0
ACDBDICTIONARYWDFLT
  5
1C76F
102
{ACAD_REACTORS
330
1C76D
102
}
330
1C76D
100
AcDbDictionary
281
     1
  3
Normal
350
1C770
100
AcDbDictionaryWithDefault
340
1C770
  0
DICTIONARY
  5
1CFE7
102
{ACAD_REACTORS
330
1C76D
102
}
330
1C76D
100
AcDbDictionary
281
     1
  3
DIMASSOC
350
1CFE8
  0
LAYOUT
  5
1C782
102
{ACAD_REACTORS
330
1C77A
102
}
330
1C77A
100
AcDbPlotSettings
  1

  2
Muratec V-1200 Is@Web Printer
  4

  6

 40
0.0
 41
0.0
 42
0.0
 43
0.0
 44
0.0
 45
0.0
 46
0.0
 47
0.0
 48
0.0
 49
0.0
140
0.0
141
0.0
142
1.0
143
1.0
 70
  1712
 72
     0
 73
     0
 74
     0
  7

 75
     0
147
1.0
148
0.0
149
0.0
100
AcDbLayout
  1
Model
 70
     1
 71
     0
 10
0.0
 20
0.0
 11
12.0
 21
9.0
 12
0.0
 22
0.0
 32
0.0
 14
0.0
 24
0.0
 34
0.0
 15
0.0
 25
0.0
 35
0.0
146
0.0
 13
0.0
 23
0.0
 33
0.0
 16
1.0
 26
0.0
 36
0.0
 17
0.0
 27
1.0
 37
0.0
 76
     0
330
1C77F
  0
LAYOUT
  5
1C77E
102
{ACAD_REACTORS
330
1C77A
102
}
330
1C77A
100
AcDbPlotSettings
  1

  2
Muratec V-1200 Is@Web Printer
  4

  6

 40
0.0
 41
0.0
 42
0.0
 43
0.0
 44
0.0
 45
0.0
 46
0.0
 47
0.0
 48
0.0
 49
0.0
140
0.0
141
0.0
142
1.0
143
1.0
 70
   688
 72
     0
 73
     0
 74
     5
  7

 75
    16
147
1.0
148
0.0
149
0.0
100
AcDbLayout
  1
ﾚｲｱｳﾄ1
 70
     0
 71
     1
 10
0.0
 20
0.0
 11
12.0
 21
9.0
 12
0.0
 22
0.0
 32
0.0
 14
1.000000000000000E+20
 24
1.000000000000000E+20
 34
1.000000000000000E+20
 15
-1.000000000000000E+20
 25
-1.000000000000000E+20
 35
-1.000000000000000E+20
146
0.0
 13
0.0
 23
0.0
 33
0.0
 16
1.0
 26
0.0
 36
0.0
 17
0.0
 27
1.0
 37
0.0
 76
     0
330
1C77B
  0
MLINESTYLE
  5
1C778
102
{ACAD_REACTORS
330
1C777
102
}
330
1C777
100
AcDbMlineStyle
  2
STANDARD
 70
     0
  3

 62
   256
 51
90.0
 52
90.0
 71
     2
 49
0.5
 62
   256
  6
BYLAYER
 49
-0.5
 62
   256
  6
BYLAYER
  0
ACDBPLACEHOLDER
  5
1C770
102
{ACAD_REACTORS
330
1C76F
102
}
330
1C76F
  0
DICTIONARYVAR
  5
1CFE8
102
{ACAD_REACTORS
330
1CFE7
102
}
330
1CFE7
100
DictionaryVariables
280
     0
  1
1
  0
ENDSEC
  0
EOF
