  0
SECTION
  2
HEADER
  9
$ACADVER
  1
AC1015
  9
$ACADMAINTVER
 70
    13
  9
$DWGCODEPAGE
  3
ANSI_932
  9
$INSBASE
 10
267.0
 20
194.8999999999998
 30
0.0
  9
$EXTMIN
 10
433.9966216520333
 20
163.6908237492789
 30
-0.000000000000013
  9
$EXTMAX
 10
16382.6660542547
 20
11242.27663824599
 30
0.0000000000000023
  9
$LIMMIN
 10
0.0
 20
0.0
  9
$LIMMAX
 10
16800.0
 20
11880.0
  9
$ORTHOMODE
 70
     0
  9
$REGENMODE
 70
     1
  9
$FILLMODE
 70
     1
  9
$QTEXTMODE
 70
     0
  9
$MIRRTEXT
 70
     0
  9
$LTSCALE
 40
40.0
  9
$ATTMODE
 70
     1
  9
$TEXTSIZE
 40
0.2
  9
$TRACEWID
 40
0.05
  9
$TEXTSTYLE
  7
00
  9
$CLAYER
  8
SUNPOU
  9
$CELTYPE
  6
ByLayer
  9
$CECOLOR
 62
   256
  9
$CELTSCALE
 40
1.0
  9
$DISPSILH
 70
     0
  9
$DIMSCALE
 40
40.0
  9
$DIMASZ
 40
0.5
  9
$DIMEXO
 40
1.0
  9
$DIMDLI
 40
7.0
  9
$DIMRND
 40
0.0
  9
$DIMDLE
 40
3.0
  9
$DIMEXE
 40
1.0
  9
$DIMTP
 40
0.0
  9
$DIMTM
 40
0.0
  9
$DIMTXT
 40
2.0
  9
$DIMCEN
 40
0.0
  9
$DIMTSZ
 40
0.0
  9
$DIMTOL
 70
     0
  9
$DIMLIM
 70
     0
  9
$DIMTIH
 70
     0
  9
$DIMTOH
 70
     0
  9
$DIMSE1
 70
     0
  9
$DIMSE2
 70
     0
  9
$DIMTAD
 70
     1
  9
$DIMZIN
 70
     8
  9
$DIMBLK
  1
DOT
  9
$DIMASO
 70
     1
  9
$DIMSHO
 70
     0
  9
$DIMPOST
  1

  9
$DIMAPOST
  1

  9
$DIMALT
 70
     0
  9
$DIMALTD
 70
     2
  9
$DIMALTF
 40
25.4
  9
$DIMLFAC
 40
1.0
  9
$DIMTOFL
 70
     1
  9
$DIMTVP
 40
0.0
  9
$DIMTIX
 70
     0
  9
$DIMSOXD
 70
     0
  9
$DIMSAH
 70
     1
  9
$DIMBLK1
  1
DOT
  9
$DIMBLK2
  1
DOT
  9
$DIMSTYLE
  2
SUNPOU_申請図
  9
$DIMCLRD
 70
   256
  9
$DIMCLRE
 70
   256
  9
$DIMCLRT
 70
   256
  9
$DIMTFAC
 40
1.0
  9
$DIMGAP
 40
1.0
  9
$DIMJUST
 70
     0
  9
$DIMSD1
 70
     0
  9
$DIMSD2
 70
     0
  9
$DIMTOLJ
 70
     1
  9
$DIMTZIN
 70
     0
  9
$DIMALTZ
 70
     0
  9
$DIMALTTZ
 70
     0
  9
$DIMUPT
 70
     0
  9
$DIMDEC
 70
     4
  9
$DIMTDEC
 70
     4
  9
$DIMALTU
 70
     2
  9
$DIMALTTD
 70
     2
  9
$DIMTXSTY
  7
STANDARD
  9
$DIMAUNIT
 70
     0
  9
$DIMADEC
 70
     0
  9
$DIMALTRND
 40
0.0
  9
$DIMAZIN
 70
     0
  9
$DIMDSEP
 70
    46
  9
$DIMATFIT
 70
     3
  9
$DIMFRAC
 70
     0
  9
$DIMLDRBLK
  1
DOT
  9
$DIMLUNIT
 70
     2
  9
$DIMLWD
 70
    -2
  9
$DIMLWE
 70
    -2
  9
$DIMTMOVE
 70
     0
  9
$LUNITS
 70
     2
  9
$LUPREC
 70
     2
  9
$SKETCHINC
 40
0.1
  9
$FILLETRAD
 40
0.0
  9
$AUNITS
 70
     0
  9
$AUPREC
 70
     0
  9
$MENU
  1
A:\TIGER\MENU\TIGER
  9
$ELEVATION
 40
0.0
  9
$PELEVATION
 40
0.0
  9
$THICKNESS
 40
0.0
  9
$LIMCHECK
 70
     0
  9
$CHAMFERA
 40
0.0
  9
$CHAMFERB
 40
0.0
  9
$CHAMFERC
 40
0.0
  9
$CHAMFERD
 40
0.0
  9
$SKPOLY
 70
     0
  9
$TDCREATE
 40
2450266.571064815
  9
$TDUCREATE
 40
2450266.196064815
  9
$TDUPDATE
 40
2456331.624481145
  9
$TDUUPDATE
 40
2456331.249481146
  9
$TDINDWG
 40
0.1571085995
  9
$TDUSRTIMER
 40
0.1571085995
  9
$USRTIMER
 70
     1
  9
$ANGBASE
 50
0.0
  9
$ANGDIR
 70
     0
  9
$PDMODE
 70
     0
  9
$PDSIZE
 40
0.0
  9
$PLINEWID
 40
0.0
  9
$SPLFRAME
 70
     0
  9
$SPLINETYPE
 70
     6
  9
$SPLINESEGS
 70
     8
  9
$HANDSEED
  5
1773C
  9
$SURFTAB1
 70
     6
  9
$SURFTAB2
 70
     6
  9
$SURFTYPE
 70
     6
  9
$SURFU
 70
     6
  9
$SURFV
 70
     6
  9
$UCSBASE
  2

  9
$UCSNAME
  2

  9
$UCSORG
 10
0.0
 20
0.0
 30
0.0
  9
$UCSXDIR
 10
1.0
 20
0.0
 30
0.0
  9
$UCSYDIR
 10
0.0
 20
1.0
 30
0.0
  9
$UCSORTHOREF
  2

  9
$UCSORTHOVIEW
 70
     0
  9
$UCSORGTOP
 10
0.0
 20
0.0
 30
0.0
  9
$UCSORGBOTTOM
 10
0.0
 20
0.0
 30
0.0
  9
$UCSORGLEFT
 10
0.0
 20
0.0
 30
0.0
  9
$UCSORGRIGHT
 10
0.0
 20
0.0
 30
0.0
  9
$UCSORGFRONT
 10
0.0
 20
0.0
 30
0.0
  9
$UCSORGBACK
 10
0.0
 20
0.0
 30
0.0
  9
$PUCSBASE
  2

  9
$PUCSNAME
  2

  9
$PUCSORG
 10
0.0
 20
0.0
 30
0.0
  9
$PUCSXDIR
 10
1.0
 20
0.0
 30
0.0
  9
$PUCSYDIR
 10
0.0
 20
1.0
 30
0.0
  9
$PUCSORTHOREF
  2

  9
$PUCSORTHOVIEW
 70
     0
  9
$PUCSORGTOP
 10
0.0
 20
0.0
 30
0.0
  9
$PUCSORGBOTTOM
 10
0.0
 20
0.0
 30
0.0
  9
$PUCSORGLEFT
 10
0.0
 20
0.0
 30
0.0
  9
$PUCSORGRIGHT
 10
0.0
 20
0.0
 30
0.0
  9
$PUCSORGFRONT
 10
0.0
 20
0.0
 30
0.0
  9
$PUCSORGBACK
 10
0.0
 20
0.0
 30
0.0
  9
$USERI1
 70
     3
  9
$USERI2
 70
     0
  9
$USERI3
 70
     0
  9
$USERI4
 70
     0
  9
$USERI5
 70
  1103
  9
$USERR1
 40
0.0
  9
$USERR2
 40
1.0
  9
$USERR3
 40
0.0
  9
$USERR4
 40
0.0
  9
$USERR5
 40
0.0
  9
$WORLDVIEW
 70
     1
  9
$SHADEDGE
 70
     3
  9
$SHADEDIF
 70
    70
  9
$TILEMODE
 70
     1
  9
$MAXACTVP
 70
    16
  9
$PINSBASE
 10
0.0
 20
0.0
 30
0.0
  9
$PLIMCHECK
 70
     0
  9
$PEXTMIN
 10
1.000000000000000E+20
 20
1.000000000000000E+20
 30
1.000000000000000E+20
  9
$PEXTMAX
 10
-1.000000000000000E+20
 20
-1.000000000000000E+20
 30
-1.000000000000000E+20
  9
$PLIMMIN
 10
0.0
 20
0.0
  9
$PLIMMAX
 10
12.0
 20
9.0
  9
$UNITMODE
 70
     0
  9
$VISRETAIN
 70
     0
  9
$PLINEGEN
 70
     1
  9
$PSLTSCALE
 70
     0
  9
$TREEDEPTH
 70
  3020
  9
$CMLSTYLE
  2
Standard
  9
$CMLJUST
 70
     0
  9
$CMLSCALE
 40
1.0
  9
$PROXYGRAPHICS
 70
     1
  9
$MEASUREMENT
 70
     0
  9
$CELWEIGHT
370
    -1
  9
$ENDCAPS
280
     0
  9
$JOINSTYLE
280
     0
  9
$LWDISPLAY
290
     0
  9
$INSUNITS
 70
     0
  9
$HYPERLINKBASE
  1

  9
$STYLESHEET
  1

  9
$XEDIT
290
     1
  9
$CEPSNTYPE
380
     0
  9
$PSTYLEMODE
290
     1
  9
$FINGERPRINTGUID
  2
{89F747D6-DFC6-434E-B6E1-2FC9F9FAE427}
  9
$VERSIONGUID
  2
{5FB0DDAF-6C72-4EAA-9B99-31F378A6C533}
  9
$EXTNAMES
290
     1
  9
$PSVPSCALE
 40
0.0
  9
$OLESTARTUP
290
     0
  0
ENDSEC
  0
SECTION
  2
CLASSES
  0
CLASS
  1
ACDBDICTIONARYWDFLT
  2
AcDbDictionaryWithDefault
  3
AutoCAD 2000
 90
        0
280
     0
281
     0
  0
CLASS
  1
ACDBPLACEHOLDER
  2
AcDbPlaceHolder
  3
AutoCAD 2000
 90
        0
280
     0
281
     0
  0
CLASS
  1
LAYOUT
  2
AcDbLayout
  3
AutoCAD 2000
 90
        0
280
     0
281
     0
  0
CLASS
  1
DICTIONARYVAR
  2
AcDbDictionaryVar
  3
AutoCAD 2000
 90
        0
280
     0
281
     0
  0
ENDSEC
  0
SECTION
  2
TABLES
  0
TABLE
  2
VPORT
  5
171EB
330
0
100
AcDbSymbolTable
 70
     2
  0
VPORT
  5
1773B
330
171EB
100
AcDbSymbolTableRecord
100
AcDbViewportTableRecord
  2
*Active
 70
     0
 10
0.0
 20
0.0
 11
1.0
 21
1.0
 12
8408.331337953368
 22
5702.983730997637
 13
0.0
 23
0.0
 14
1.0
 24
1.0
 15
0.0
 25
0.0
 16
0.0
 26
0.0
 36
1.0
 17
0.0
 27
0.0
 37
0.0
 40
12985.73988638911
 41
1.236040609137055
 42
50.0
 43
0.0
 44
0.0
 50
0.0
 51
0.0
 71
     0
 72
 10000
 73
     1
 74
     0
 75
     0
 76
     0
 77
     0
 78
     0
281
     0
 65
     1
110
0.0
120
0.0
130
0.0
111
1.0
121
0.0
131
0.0
112
0.0
122
1.0
132
0.0
 79
     0
146
0.0
  0
ENDTAB
  0
TABLE
  2
LTYPE
  5
171E8
330
0
100
AcDbSymbolTable
 70
     5
  0
LTYPE
  5
171F6
330
171E8
100
AcDbSymbolTableRecord
100
AcDbLinetypeTableRecord
  2
ByBlock
 70
     0
  3

 72
    65
 73
     0
 40
0.0
  0
LTYPE
  5
171F7
330
171E8
100
AcDbSymbolTableRecord
100
AcDbLinetypeTableRecord
  2
ByLayer
 70
     0
  3

 72
    65
 73
     0
 40
0.0
  0
LTYPE
  5
171F8
330
171E8
100
AcDbSymbolTableRecord
100
AcDbLinetypeTableRecord
  2
CONTINUOUS
 70
     0
  3
実線
 72
    65
 73
     0
 40
0.0
  0
LTYPE
  5
17208
330
171E8
100
AcDbSymbolTableRecord
100
AcDbLinetypeTableRecord
  2
1PL-LL
 70
     0
  3

 72
    65
 73
     4
 40
106.0
 49
100.0
 74
     0
 49
-2.0
 74
     0
 49
2.0
 74
     0
 49
-2.0
 74
     0
  0
LTYPE
  5
17209
330
171E8
100
AcDbSymbolTableRecord
100
AcDbLinetypeTableRecord
  2
1PL-M
 70
     0
  3

 72
    65
 73
     4
 40
15.0
 49
12.0
 74
     0
 49
-1.0
 74
     0
 49
1.0
 74
     0
 49
-1.0
 74
     0
  0
LTYPE
  5
1720A
330
171E8
100
AcDbSymbolTableRecord
100
AcDbLinetypeTableRecord
  2
2PL-L
 70
     0
  3

 72
    65
 73
     6
 40
60.0
 49
50.0
 74
     0
 49
-2.0
 74
     0
 49
2.0
 74
     0
 49
-2.0
 74
     0
 49
2.0
 74
     0
 49
-2.0
 74
     0
  0
LTYPE
  5
1720B
330
171E8
100
AcDbSymbolTableRecord
100
AcDbLinetypeTableRecord
  2
1PL-12
 70
     0
  3

 72
    65
 73
     4
 40
15.0
 49
12.0
 74
     0
 49
-1.0
 74
     0
 49
1.0
 74
     0
 49
-1.0
 74
     0
  0
ENDTAB
  0
TABLE
  2
LAYER
  5
171E5
330
0
100
AcDbSymbolTable
 70
    19
  0
LAYER
  5
171F3
330
171E5
100
AcDbSymbolTableRecord
100
AcDbLayerTableRecord
  2
0
 70
     0
 62
     7
  6
CONTINUOUS
370
    -3
390
171F2
  0
LAYER
  5
17205
330
171E5
100
AcDbSymbolTableRecord
100
AcDbLayerTableRecord
  2
SUNPOU
 70
     0
 62
     4
  6
CONTINUOUS
370
    -3
390
171F2
  0
LAYER
  5
1720C
330
171E5
100
AcDbSymbolTableRecord
100
AcDbLayerTableRecord
  2
U1
 70
     0
 62
     3
  6
CONTINUOUS
370
    -3
390
171F2
  0
LAYER
  5
1720D
330
171E5
100
AcDbSymbolTableRecord
100
AcDbLayerTableRecord
  2
U3
 70
     0
 62
     6
  6
CONTINUOUS
370
    -3
390
171F2
  0
LAYER
  5
1720E
330
171E5
100
AcDbSymbolTableRecord
100
AcDbLayerTableRecord
  2
HIKIDASHI
 70
     0
 62
     6
  6
CONTINUOUS
370
    -3
390
171F2
  0
LAYER
  5
1720F
330
171E5
100
AcDbSymbolTableRecord
100
AcDbLayerTableRecord
  2
1PL-M1
 70
     0
 62
     6
  6
1PL-M
370
    -3
390
171F2
  0
LAYER
  5
17210
330
171E5
100
AcDbSymbolTableRecord
100
AcDbLayerTableRecord
  2
NAME
 70
     0
 62
    20
  6
CONTINUOUS
370
    -3
390
171F2
  0
LAYER
  5
17211
330
171E5
100
AcDbSymbolTableRecord
100
AcDbLayerTableRecord
  2
FILENAME
 70
     0
 62
     7
  6
CONTINUOUS
370
    -3
390
171F2
  0
LAYER
  5
17212
330
171E5
100
AcDbSymbolTableRecord
100
AcDbLayerTableRecord
  2
CENTER
 70
     0
 62
     6
  6
1PL-LL
370
    -3
390
171F2
  0
LAYER
  5
17213
330
171E5
100
AcDbSymbolTableRecord
100
AcDbLayerTableRecord
  2
KISO
 70
     0
 62
     2
  6
CONTINUOUS
370
    -3
390
171F2
  0
LAYER
  5
17214
330
171E5
100
AcDbSymbolTableRecord
100
AcDbLayerTableRecord
  2
YANE
 70
     0
 62
     1
  6
1PL-12
370
    -3
390
171F2
  0
LAYER
  5
17215
330
171E5
100
AcDbSymbolTableRecord
100
AcDbLayerTableRecord
  2
HATCH
 70
     0
 62
     1
  6
CONTINUOUS
370
    -3
390
171F2
  0
LAYER
  5
17216
330
171E5
100
AcDbSymbolTableRecord
100
AcDbLayerTableRecord
  2
HASHIRA
 70
     0
 62
     3
  6
CONTINUOUS
370
    -3
390
171F2
  0
LAYER
  5
17217
330
171E5
100
AcDbSymbolTableRecord
100
AcDbLayerTableRecord
  2
TEKKIN
 70
     0
 62
     2
  6
CONTINUOUS
370
    -3
390
171F2
  0
LAYER
  5
17218
330
171E5
100
AcDbSymbolTableRecord
100
AcDbLayerTableRecord
  2
DOMAKON
 70
     0
 62
     2
  6
CONTINUOUS
370
    -3
390
171F2
  0
LAYER
  5
17219
330
171E5
100
AcDbSymbolTableRecord
100
AcDbLayerTableRecord
  2
YODOROGO
 70
     0
 62
   130
  6
CONTINUOUS
370
    -3
390
171F2
  0
LAYER
  5
1721A
330
171E5
100
AcDbSymbolTableRecord
100
AcDbLayerTableRecord
  2
WAKUSEN-01
 70
     0
 62
    50
  6
CONTINUOUS
370
    -3
390
171F2
  0
LAYER
  5
1721B
330
171E5
100
AcDbSymbolTableRecord
100
AcDbLayerTableRecord
  2
WAKUSEN-02
 70
     0
 62
   130
  6
CONTINUOUS
370
    -3
390
171F2
  0
LAYER
  5
1721C
330
171E5
100
AcDbSymbolTableRecord
100
AcDbLayerTableRecord
  2
WAKUMOJI-01
 70
     0
 62
   130
  6
CONTINUOUS
370
    -3
390
171F2
  0
ENDTAB
  0
TABLE
  2
STYLE
  5
171E6
330
0
100
AcDbSymbolTable
 70
     5
  0
STYLE
  5
171F4
330
171E6
100
AcDbSymbolTableRecord
100
AcDbTextStyleTableRecord
  2
STANDARD
 70
     0
 40
3.0
 41
1.0
 50
0.0
 71
     0
 42
0.2
  3
ROMANS
  4
EXTFONT
  0
STYLE
  5
17206
330
171E6
100
AcDbSymbolTableRecord
100
AcDbTextStyleTableRecord
  2
00
 70
     0
 40
0.0
 41
0.6666666666666666
 50
0.0
 71
     0
 42
0.2
  3
ROMANS
  4
BIGFONT
  0
STYLE
  5
1721D
330
171E6
100
AcDbSymbolTableRecord
100
AcDbTextStyleTableRecord
  2
01
 70
     0
 40
3.0
 41
1.0
 50
0.0
 71
     0
 42
0.2
  3
ROMANS
  4
BIGFONT
  0
STYLE
  5
1721E
330
171E6
100
AcDbSymbolTableRecord
100
AcDbTextStyleTableRecord
  2
WAKUMOJI
 70
     0
 40
3.0
 41
1.0
 50
0.0
 71
     0
 42
3.0
  3
SIMPLEX
  4
BIGFONT
  0
STYLE
  5
1721F
330
171E6
100
AcDbSymbolTableRecord
100
AcDbTextStyleTableRecord
  2
FILENAME
 70
     0
 40
100.0
 41
1.0
 50
0.0
 71
     0
 42
100.0
  3
romans
  4
bigfont
  0
ENDTAB
  0
TABLE
  2
VIEW
  5
171E9
330
0
100
AcDbSymbolTable
 70
     0
  0
ENDTAB
  0
TABLE
  2
UCS
  5
171EA
330
0
100
AcDbSymbolTable
 70
     0
  0
ENDTAB
  0
TABLE
  2
APPID
  5
171EC
330
0
100
AcDbSymbolTable
 70
     3
  0
APPID
  5
171F5
330
171EC
100
AcDbSymbolTableRecord
100
AcDbRegAppTableRecord
  2
ACAD
 70
     0
  0
APPID
  5
17220
330
171EC
100
AcDbSymbolTableRecord
100
AcDbRegAppTableRecord
  2
AUTOCAD_POSTSCRIPT_FIGURE
 70
     0
  0
APPID
  5
17221
330
171EC
100
AcDbSymbolTableRecord
100
AcDbRegAppTableRecord
  2
ACAD_PSEXT
 70
     0
  0
ENDTAB
  0
TABLE
  2
DIMSTYLE
  5
171ED
330
0
100
AcDbSymbolTable
 70
     2
100
AcDbDimStyleTable
 71
     0
  0
DIMSTYLE
105
17222
330
171ED
100
AcDbSymbolTableRecord
100
AcDbDimStyleTableRecord
  2
SUNPOU_申請図
 70
     0
 40
40.0
 41
0.5
 42
1.0
 43
7.0
 44
1.0
 46
3.0
 73
     0
 74
     0
 77
     1
 78
     8
140
2.0
141
0.0
147
1.0
172
     1
173
     1
176
   256
177
   256
178
   256
271
     2
272
     2
279
     2
284
     8
285
     8
286
     8
340
17206
  0
DIMSTYLE
105
176FA
330
171ED
100
AcDbSymbolTableRecord
100
AcDbDimStyleTableRecord
  2
SUNPOU_図面名
 70
     0
 40
30.0
 41
0.5
 42
1.0
 43
7.0
 44
1.5
 46
3.0
 73
     0
 74
     0
 77
     1
 78
     8
140
3.0
141
0.0
147
1.5
172
     1
173
     1
176
   256
177
   256
178
   256
271
     2
272
     2
340
17206
341
1722D
342
1722D
343
1722D
344
1722D
  0
ENDTAB
  0
TABLE
  2
BLOCK_RECORD
  5
171E4
330
0
100
AcDbSymbolTable
 70
    21
  0
BLOCK_RECORD
  5
17201
330
171E4
100
AcDbSymbolTableRecord
100
AcDbBlockTableRecord
  2
*Model_Space
340
17204
  0
BLOCK_RECORD
  5
171FD
330
171E4
100
AcDbSymbolTableRecord
100
AcDbBlockTableRecord
  2
*Paper_Space
340
17200
  0
BLOCK_RECORD
  5
17227
330
171E4
100
AcDbSymbolTableRecord
100
AcDbBlockTableRecord
  2
$MODEL_SPACE
340
0
  0
BLOCK_RECORD
  5
1722A
330
171E4
100
AcDbSymbolTableRecord
100
AcDbBlockTableRecord
  2
$PAPER_SPACE
340
0
  0
BLOCK_RECORD
  5
1722D
330
171E4
100
AcDbSymbolTableRecord
100
AcDbBlockTableRecord
  2
DOT
340
0
  0
BLOCK_RECORD
  5
17235
330
171E4
100
AcDbSymbolTableRecord
100
AcDbBlockTableRecord
  2
*U3
340
0
  0
BLOCK_RECORD
  5
17239
330
171E4
100
AcDbSymbolTableRecord
100
AcDbBlockTableRecord
  2
*U4
340
0
  0
BLOCK_RECORD
  5
1723D
330
171E4
100
AcDbSymbolTableRecord
100
AcDbBlockTableRecord
  2
*U5
340
0
  0
BLOCK_RECORD
  5
17241
330
171E4
100
AcDbSymbolTableRecord
100
AcDbBlockTableRecord
  2
*U6
340
0
  0
BLOCK_RECORD
  5
17245
330
171E4
100
AcDbSymbolTableRecord
100
AcDbBlockTableRecord
  2
*U7
340
0
  0
BLOCK_RECORD
  5
17249
330
171E4
100
AcDbSymbolTableRecord
100
AcDbBlockTableRecord
  2
*U8
340
0
  0
BLOCK_RECORD
  5
1724D
330
171E4
100
AcDbSymbolTableRecord
100
AcDbBlockTableRecord
  2
*U9
340
0
  0
BLOCK_RECORD
  5
17251
330
171E4
100
AcDbSymbolTableRecord
100
AcDbBlockTableRecord
  2
*U10
340
0
  0
BLOCK_RECORD
  5
17255
330
171E4
100
AcDbSymbolTableRecord
100
AcDbBlockTableRecord
  2
*U11
340
0
  0
BLOCK_RECORD
  5
17259
330
171E4
100
AcDbSymbolTableRecord
100
AcDbBlockTableRecord
  2
*U12
340
0
  0
BLOCK_RECORD
  5
1725D
330
171E4
100
AcDbSymbolTableRecord
100
AcDbBlockTableRecord
  2
*U13
340
0
  0
BLOCK_RECORD
  5
17261
330
171E4
100
AcDbSymbolTableRecord
100
AcDbBlockTableRecord
  2
*U14
340
0
  0
BLOCK_RECORD
  5
17265
330
171E4
100
AcDbSymbolTableRecord
100
AcDbBlockTableRecord
  2
*U15
340
0
  0
BLOCK_RECORD
  5
17269
330
171E4
100
AcDbSymbolTableRecord
100
AcDbBlockTableRecord
  2
*U16
340
0
  0
BLOCK_RECORD
  5
1726D
330
171E4
100
AcDbSymbolTableRecord
100
AcDbBlockTableRecord
  2
*U17
340
0
  0
BLOCK_RECORD
  5
17271
330
171E4
100
AcDbSymbolTableRecord
100
AcDbBlockTableRecord
  2
*U18
340
0
  0
BLOCK_RECORD
  5
17275
330
171E4
100
AcDbSymbolTableRecord
100
AcDbBlockTableRecord
  2
*U19
340
0
  0
ENDTAB
  0
ENDSEC
  0
SECTION
  2
BLOCKS
  0
BLOCK
  5
17202
330
17201
100
AcDbEntity
  8
0
100
AcDbBlockBegin
  2
*Model_Space
 70
     0
 10
0.0
 20
0.0
 30
0.0
  3
*Model_Space
  1

  0
ENDBLK
  5
17203
330
17201
100
AcDbEntity
  8
0
100
AcDbBlockEnd
  0
BLOCK
  5
171FE
330
171FD
100
AcDbEntity
 67
     1
  8
0
100
AcDbBlockBegin
  2
*Paper_Space
 70
     0
 10
0.0
 20
0.0
 30
0.0
  3
*Paper_Space
  1

  0
ENDBLK
  5
171FF
330
171FD
100
AcDbEntity
 67
     1
  8
0
100
AcDbBlockEnd
  0
BLOCK
  5
17228
330
17227
100
AcDbEntity
  8
0
100
AcDbBlockBegin
  2
$MODEL_SPACE
 70
     0
 10
0.0
 20
0.0
 30
0.0
  3
$MODEL_SPACE
  1

  0
ENDBLK
  5
17229
330
17227
100
AcDbEntity
  8
0
100
AcDbBlockEnd
  0
BLOCK
  5
1722B
330
1722A
100
AcDbEntity
  8
0
100
AcDbBlockBegin
  2
$PAPER_SPACE
 70
     0
 10
0.0
 20
0.0
 30
0.0
  3
$PAPER_SPACE
  1

  0
ENDBLK
  5
1722C
330
1722A
100
AcDbEntity
  8
0
100
AcDbBlockEnd
  0
BLOCK
  5
1722E
330
1722D
100
AcDbEntity
  8
0
100
AcDbBlockBegin
  2
DOT
 70
     0
 10
0.0
 20
0.0
 30
0.0
  3
DOT
  1

  0
LWPOLYLINE
  5
1722F
330
1722D
100
AcDbEntity
  8
0
  6
ByBlock
 62
     0
100
AcDbPolyline
 90
        2
 70
     1
 43
0.75
 10
-0.375
 20
0.0
 42
1.0
 10
0.375
 20
0.0
 42
1.0
  0
LINE
  5
17233
330
1722D
100
AcDbEntity
  8
0
  6
ByBlock
 62
     0
100
AcDbLine
 10
-0.75
 20
0.0
 30
0.0
 11
-1.5
 21
0.0
 31
0.0
  0
ENDBLK
  5
17234
330
1722D
100
AcDbEntity
  8
0
100
AcDbBlockEnd
  0
BLOCK
  5
17236
330
17235
100
AcDbEntity
  8
0
100
AcDbBlockBegin
  2
*U3
 70
     1
 10
0.0
 20
0.0
 30
0.0
  3
*U3
  1

  0
TEXT
  5
17237
330
17235
100
AcDbEntity
  8
SUNPOU
100
AcDbText
 10
6974.127507899638
 20
8622.528896718042
 30
0.0
 40
90.0
  1
800
 50
90.0
 41
0.6666666666666666
  7
00
100
AcDbText
  0
ENDBLK
  5
17238
330
17235
100
AcDbEntity
  8
0
100
AcDbBlockEnd
  0
BLOCK
  5
1723A
330
17239
100
AcDbEntity
  8
0
100
AcDbBlockBegin
  2
*U4
 70
     1
 10
0.0
 20
0.0
 30
0.0
  3
*U4
  1

  0
TEXT
  5
1723B
330
17239
100
AcDbEntity
  8
SUNPOU
100
AcDbText
 10
7633.413222185355
 20
8053.243182432325
 30
0.0
 40
90.0
  1
800
 41
0.6666666666666666
  7
00
100
AcDbText
  0
ENDBLK
  5
1723C
330
17239
100
AcDbEntity
  8
0
100
AcDbBlockEnd
  0
BLOCK
  5
1723E
330
1723D
100
AcDbEntity
  8
0
100
AcDbBlockBegin
  2
*U5
 70
     1
 10
0.0
 20
0.0
 30
0.0
  3
*U5
  1

  0
TEXT
  5
1723F
330
1723D
100
AcDbEntity
  8
SUNPOU
100
AcDbText
 10
9033.413222185352
 20
7653.243182432325
 30
0.0
 40
90.0
  1
800
 41
0.6666666666666666
  7
00
100
AcDbText
  0
ENDBLK
  5
17240
330
1723D
100
AcDbEntity
  8
0
100
AcDbBlockEnd
  0
BLOCK
  5
17242
330
17241
100
AcDbEntity
  8
0
100
AcDbBlockBegin
  2
*U6
 70
     1
 10
0.0
 20
0.0
 30
0.0
  3
*U6
  1

  0
TEXT
  5
17243
330
17241
100
AcDbEntity
  8
SUNPOU
100
AcDbText
 10
6379.841793613925
 20
9453.243182432325
 30
0.0
 40
90.0
  1
2450
 41
0.6666666666666666
  7
00
100
AcDbText
  0
ENDBLK
  5
17244
330
17241
100
AcDbEntity
  8
0
100
AcDbBlockEnd
  0
BLOCK
  5
17246
330
17245
100
AcDbEntity
  8
0
100
AcDbBlockBegin
  2
*U7
 70
     1
 10
0.0
 20
0.0
 30
0.0
  3
*U7
  1

  0
TEXT
  5
17247
330
17245
100
AcDbEntity
  8
SUNPOU
100
AcDbText
 10
4983.413222185355
 20
9453.243182432325
 30
0.0
 40
90.0
  1
400
 41
0.6666666666666666
  7
00
100
AcDbText
  0
ENDBLK
  5
17248
330
17245
100
AcDbEntity
  8
0
100
AcDbBlockEnd
  0
BLOCK
  5
1724A
330
17249
100
AcDbEntity
  8
0
100
AcDbBlockBegin
  2
*U8
 70
     1
 10
0.0
 20
0.0
 30
0.0
  3
*U8
  1

  0
TEXT
  5
1724B
330
17249
100
AcDbEntity
  8
SUNPOU
100
AcDbText
 10
10229.84179361392
 20
9453.243182432325
 30
0.0
 40
90.0
  1
2450
 41
0.6666666666666666
  7
00
100
AcDbText
  0
ENDBLK
  5
1724C
330
17249
100
AcDbEntity
  8
0
100
AcDbBlockEnd
  0
BLOCK
  5
1724E
330
1724D
100
AcDbEntity
  8
0
100
AcDbBlockBegin
  2
*U9
 70
     1
 10
0.0
 20
0.0
 30
0.0
  3
*U9
  1

  0
TEXT
  5
1724F
330
1724D
100
AcDbEntity
  8
SUNPOU
100
AcDbText
 10
11683.41322218535
 20
9453.243182432325
 30
0.0
 40
90.0
  1
400
 41
0.6666666666666666
  7
00
100
AcDbText
  0
ENDBLK
  5
17250
330
1724D
100
AcDbEntity
  8
0
100
AcDbBlockEnd
  0
BLOCK
  5
17252
330
17251
100
AcDbEntity
  8
0
100
AcDbBlockBegin
  2
*U10
 70
     1
 10
0.0
 20
0.0
 30
0.0
  3
*U10
  1

  0
TEXT
  5
17253
330
17251
100
AcDbEntity
  8
SUNPOU
100
AcDbText
 10
12324.12750789964
 20
9159.6717538609
 30
0.0
 40
90.0
  1
200
 50
90.0
 41
0.6666666666666666
  7
00
100
AcDbText
  0
ENDBLK
  5
17254
330
17251
100
AcDbEntity
  8
0
100
AcDbBlockEnd
  0
BLOCK
  5
17256
330
17255
100
AcDbEntity
  8
0
100
AcDbBlockBegin
  2
*U11
 70
     1
 10
0.0
 20
0.0
 30
0.0
  3
*U11
  1

  0
TEXT
  5
17257
330
17255
100
AcDbEntity
  8
SUNPOU
100
AcDbText
 10
12324.12750789964
 20
8485.386039575185
 30
0.0
 40
90.0
  1
200
 50
90.0
 41
0.6666666666666666
  7
00
100
AcDbText
  0
ENDBLK
  5
17258
330
17255
100
AcDbEntity
  8
0
100
AcDbBlockEnd
  0
BLOCK
  5
1725A
330
17259
100
AcDbEntity
  8
0
100
AcDbBlockBegin
  2
*U12
 70
     1
 10
0.0
 20
0.0
 30
0.0
  3
*U12
  1

  0
TEXT
  5
1725B
330
17259
100
AcDbEntity
  8
SUNPOU
100
AcDbText
 10
9774.127507899642
 20
6822.528896718042
 30
0.0
 40
90.0
  1
800
 50
90.0
 41
0.6666666666666666
  7
00
100
AcDbText
  0
ENDBLK
  5
1725C
330
17259
100
AcDbEntity
  8
0
100
AcDbBlockEnd
  0
BLOCK
  5
1725E
330
1725D
100
AcDbEntity
  8
0
100
AcDbBlockBegin
  2
*U13
 70
     1
 10
0.0
 20
0.0
 30
0.0
  3
*U13
  1

  0
TEXT
  5
1725F
330
1725D
100
AcDbEntity
  8
SUNPOU
100
AcDbText
 10
7955.413222185355
 20
9663.243182432324
 30
0.0
 40
90.0
  1
L = 2450 x N + 800
 41
0.6666666666666666
  7
00
100
AcDbText
  0
ENDBLK
  5
17260
330
1725D
100
AcDbEntity
  8
0
100
AcDbBlockEnd
  0
BLOCK
  5
17262
330
17261
100
AcDbEntity
  8
0
100
AcDbBlockBegin
  2
*U14
 70
     1
 10
0.0
 20
0.0
 30
0.0
  3
*U14
  1

  0
TEXT
  5
17263
330
17261
100
AcDbEntity
  8
SUNPOU
100
AcDbText
 10
4771.285055024263
 20
2440.963733520729
 30
0.0
 40
90.0
  1
1000
 41
0.6666666666666666
  7
00
100
AcDbText
  0
ENDBLK
  5
17264
330
17261
100
AcDbEntity
  8
0
100
AcDbBlockEnd
  0
BLOCK
  5
17266
330
17265
100
AcDbEntity
  8
0
100
AcDbBlockBegin
  2
*U15
 70
     1
 10
0.0
 20
0.0
 30
0.0
  3
*U15
  1

  0
TEXT
  5
17267
330
17265
100
AcDbEntity
  8
SUNPOU
100
AcDbText
 10
4804.142197881406
 20
2650.963733520728
 30
0.0
 40
90.0
  1
800
 41
0.6666666666666666
  7
00
100
AcDbText
  0
ENDBLK
  5
17268
330
17265
100
AcDbEntity
  8
0
100
AcDbBlockEnd
  0
BLOCK
  5
1726A
330
17269
100
AcDbEntity
  8
0
100
AcDbBlockBegin
  2
*U16
 70
     1
 10
0.0
 20
0.0
 30
0.0
  3
*U16
  1

  0
TEXT
  5
1726B
330
17269
100
AcDbEntity
  8
SUNPOU
100
AcDbText
 10
6979.437589004638
 20
3284.249447806444
 30
0.0
 40
90.0
  1
480
 50
90.0
 41
0.6666666666666666
  7
00
100
AcDbText
  0
ENDBLK
  5
1726C
330
17269
100
AcDbEntity
  8
0
100
AcDbBlockEnd
  0
BLOCK
  5
1726E
330
1726D
100
AcDbEntity
  8
0
100
AcDbBlockBegin
  2
*U17
 70
     1
 10
0.0
 20
0.0
 30
0.0
  3
*U17
  1

  0
TEXT
  5
1726F
330
1726D
100
AcDbEntity
  8
SUNPOU
100
AcDbText
 10
6775.015821249391
 20
2760.243102996788
 30
0.0
 40
90.0
  1
100
 50
90.0
 41
0.6666666666666666
  7
00
100
AcDbText
  0
ENDBLK
  5
17270
330
1726D
100
AcDbEntity
  8
0
100
AcDbBlockEnd
  0
BLOCK
  5
17272
330
17271
100
AcDbEntity
  8
0
100
AcDbBlockBegin
  2
*U18
 70
     1
 10
0.0
 20
0.0
 30
0.0
  3
*U18
  1

  0
TEXT
  5
17273
330
17271
100
AcDbEntity
  8
SUNPOU
100
AcDbText
 10
6773.187589004638
 20
3364.249447806444
 30
0.0
 40
90.0
  1
380
 50
90.0
 41
0.6666666666666666
  7
00
100
AcDbText
  0
ENDBLK
  5
17274
330
17271
100
AcDbEntity
  8
0
100
AcDbBlockEnd
  0
BLOCK
  5
17276
330
17275
100
AcDbEntity
  8
0
100
AcDbBlockBegin
  2
*U19
 70
     1
 10
0.0
 20
0.0
 30
0.0
  3
*U19
  1

  0
TEXT
  5
17277
330
17275
100
AcDbEntity
  8
SUNPOU
100
AcDbText
 10
4484.142197881406
 20
4601.963733520728
 30
0.0
 40
90.0
  1
400
 41
0.6666666666666666
  7
00
100
AcDbText
  0
ENDBLK
  5
17278
330
17275
100
AcDbEntity
  8
0
100
AcDbBlockEnd
  0
ENDSEC
  0
SECTION
  2
ENTITIES
  0
TEXT
  5
17279
330
17201
100
AcDbEntity
  8
NAME
100
AcDbText
 10
12303.32857318295
 20
1055.0
 30
0.0
 40
120.0
  1
Y O K C
 41
0.6666666666666666
  7
00
100
AcDbText
  0
TEXT
  5
1727A
330
17201
100
AcDbEntity
  8
NAME
100
AcDbText
 10
11227.73587134625
 20
1055.0
 30
0.0
 40
120.0
  1
ヨド自転車置場　　　  型
  7
01
100
AcDbText
  0
TEXT
  5
1727B
330
17201
100
AcDbEntity
  8
NAME
100
AcDbText
 10
11516.07508082364
 20
875.0
 30
0.0
 40
120.0
  1
（埋め込み方式）
  7
01
 72
     4
 11
12072.07508082364
 21
935.0
 31
0.0
100
AcDbText
  0
TEXT
  5
1727C
330
17201
100
AcDbEntity
  8
HIKIDASHI
100
AcDbText
 10
9007.426279443023
 20
5992.059624263298
 30
0.0
 40
80.0
  1
)
 41
0.6700000000000001
  7
00
100
AcDbText
  0
TEXT
  5
1727D
330
17201
100
AcDbEntity
  8
HIKIDASHI
100
AcDbText
 10
8806.567530753644
 20
6007.621102011493
 30
0.0
 40
80.0
  1
1
 41
0.6700000000000001
  7
00
100
AcDbText
  0
TEXT
  5
1727E
330
17201
100
AcDbEntity
  8
HIKIDASHI
100
AcDbText
 10
8839.704668617951
 20
5992.059624263298
 30
0.0
 40
80.0
  1
/
 41
0.6700000000000001
  7
00
100
AcDbText
  0
TEXT
  5
1727F
330
17201
100
AcDbEntity
  8
HIKIDASHI
100
AcDbText
 10
8885.999823380595
 20
5965.891793063018
 30
0.0
 40
80.0
  1
40
 41
0.6700000000000001
  7
00
100
AcDbText
  0
TEXT
  5
17280
330
17201
100
AcDbEntity
  8
HIKIDASHI
100
AcDbText
 10
8625.85961481597
 20
5992.059624263298
 30
0.0
 40
80.0
  1
(S=
 41
0.6700000000000001
  7
00
100
AcDbText
  0
TEXT
  5
17281
330
17201
100
AcDbEntity
  8
HIKIDASHI
100
AcDbText
 10
7783.859614815971
 20
5968.243182432328
 30
0.0
 40
120.0
  1
基 礎 伏 図
  7
01
 72
     2
 11
8535.85961481597
 21
5968.243182432328
 31
0.0
100
AcDbText
  0
LINE
  5
17282
330
17201
100
AcDbEntity
  8
CENTER
  6
1PL-M
100
AcDbLine
 10
8479.12750789964
 20
6908.243182432326
 30
0.0
 11
9669.127507899641
 21
6908.243182432326
 31
0.0
  0
LINE
  5
17283
330
17201
100
AcDbEntity
  8
CENTER
  6
1PL-M
100
AcDbLine
 10
8479.12750789964
 20
8708.243182432324
 30
0.0
 11
12114.12750789964
 21
8708.243182432324
 31
0.0
  0
TEXT
  5
17284
330
17201
100
AcDbEntity
  8
SUNPOU
100
AcDbText
 10
11288.67847370104
 20
6095.177183942745
 30
0.0
 40
90.0
  1

 41
0.6666666666666666
  7
00
 72
     4
 11
11288.67847370104
 21
6095.177183942745
 31
0.0
100
AcDbText
  0
TEXT
  5
17285
330
17201
100
AcDbEntity
  8
SUNPOU
100
AcDbText
 10
10966.25954751383
 20
5915.177183942747
 30
0.0
 40
90.0
  1
（  ：スパン数）
  7
01
 11
10966.25954751383
 21
5960.177183942747
 31
0.0
100
AcDbText
 73
     2
  0
TEXT
  5
17286
330
17201
100
AcDbEntity
  8
SUNPOU
100
AcDbText
 10
11096.72075856533
 20
5915.177183942747
 30
0.0
 40
90.0
  1
N
 41
0.6666666666666666
  7
00
 72
     4
 11
11128.1493299939
 21
5960.177183942747
 31
0.0
100
AcDbText
  0
LINE
  5
17287
330
17201
100
AcDbEntity
  8
CENTER
  6
1PL-M
100
AcDbLine
 10
4846.977929614668
 20
6908.243182432326
 30
0.0
 11
8359.127507899641
 21
6908.243182432326
 31
0.0
  0
LINE
  5
17288
330
17201
100
AcDbEntity
  8
CENTER
  6
1PL-M
100
AcDbLine
 10
7067.877507899639
 20
8708.243182432324
 30
0.0
 11
8359.127507899641
 21
8708.243182432324
 31
0.0
  0
LINE
  5
17289
330
17201
100
AcDbEntity
  8
SUNPOU
100
AcDbLine
 10
8359.127507899641
 20
9198.243182432326
 30
0.0
 11
8359.127507899641
 21
6388.243182432327
 31
0.0
  0
LINE
  5
1728A
330
17201
100
AcDbEntity
  8
CENTER
  6
1PL-M
100
AcDbLine
 10
5269.127507899639
 20
6308.243182432327
 30
0.0
 11
5269.127507899639
 21
9308.243182432326
 31
0.0
  0
LINE
  5
1728B
330
17201
100
AcDbEntity
  8
CENTER
  6
1PL-M
100
AcDbLine
 10
7719.127507899635
 20
8158.243182432327
 30
0.0
 11
7719.127507899639
 21
9308.243182432326
 31
0.0
  0
LINE
  5
1728C
330
17201
100
AcDbEntity
  8
CENTER
  6
1PL-M
100
AcDbLine
 10
7719.127507899639
 20
6308.243182432327
 30
0.0
 11
7719.127507899639
 21
7963.243182432326
 31
0.0
  0
LINE
  5
1728D
330
17201
100
AcDbEntity
  8
CENTER
  6
1PL-M
100
AcDbLine
 10
4724.127507899638
 20
8708.243182432324
 30
0.0
 11
6869.12750789964
 21
8708.243182432324
 31
0.0
  0
LINE
  5
1728E
330
17201
100
AcDbEntity
  8
CENTER
  6
1PL-M
100
AcDbLine
 10
9864.127507899638
 20
6908.243182432326
 30
0.0
 11
12114.12750789964
 21
6908.243182432326
 31
0.0
  0
LINE
  5
1728F
330
17201
100
AcDbEntity
  8
SUNPOU
100
AcDbLine
 10
11999.12750789964
 20
9108.243182432325
 30
0.0
 11
12834.12750789964
 21
9108.243182432325
 31
0.0
  0
LINE
  5
17290
330
17201
100
AcDbEntity
  8
SUNPOU
100
AcDbLine
 10
11999.12750789964
 20
6508.243182432327
 30
0.0
 11
12834.12750789964
 21
6508.243182432327
 31
0.0
  0
LINE
  5
17291
330
17201
100
AcDbEntity
  8
SUNPOU
100
AcDbLine
 10
8479.12750789964
 20
9198.243182432326
 30
0.0
 11
8479.12750789964
 21
6388.243182432327
 31
0.0
  0
LINE
  5
17292
330
17201
100
AcDbEntity
  8
CENTER
  6
1PL-M
100
AcDbLine
 10
11569.12750789964
 20
6308.243182432327
 30
0.0
 11
11569.12750789964
 21
9308.243182432326
 31
0.0
  0
LINE
  5
17293
330
17201
100
AcDbEntity
  8
CENTER
  6
1PL-M
100
AcDbLine
 10
9119.127507899637
 20
6308.243182432327
 30
0.0
 11
9119.127507899637
 21
7563.243182432326
 31
0.0
  0
LINE
  5
17294
330
17201
100
AcDbEntity
  8
SUNPOU
100
AcDbLine
 10
12789.12750789964
 20
9093.243182432329
 30
0.0
 11
12789.12750789964
 21
6523.243182432327
 31
0.0
  0
LINE
  5
17295
330
17201
100
AcDbEntity
  8
SUNPOU
100
AcDbLine
 10
12579.12750789964
 20
8693.243182432324
 30
0.0
 11
12579.12750789964
 21
6923.243182432327
 31
0.0
  0
LINE
  5
17296
330
17201
100
AcDbEntity
  8
SUNPOU
100
AcDbLine
 10
12579.12750789964
 20
6893.243182432327
 30
0.0
 11
12579.12750789964
 21
6523.243182432327
 31
0.0
  0
LINE
  5
17297
330
17201
100
AcDbEntity
  8
SUNPOU
100
AcDbLine
 10
12549.12750789964
 20
6508.243182432327
 30
0.0
 11
12534.12750789964
 21
6508.243182432327
 31
0.0
  0
TEXT
  5
17298
330
17201
100
AcDbEntity
  8
SUNPOU
100
AcDbText
 10
12534.12750789964
 20
6622.528896718041
 30
0.0
 40
90.0
  1
400
 50
90.0
 41
0.6666666666666666
  7
00
 72
     4
 11
12489.12750789963
 21
6708.243182432326
 31
0.0
100
AcDbText
  0
TEXT
  5
17299
330
17201
100
AcDbEntity
  8
SUNPOU
100
AcDbText
 10
12744.12750789964
 20
7693.957468146611
 30
0.0
 40
90.0
  1
2600
 50
90.0
 41
0.6666666666666666
  7
00
 72
     4
 11
12699.12750789964
 21
7808.243182432327
 31
0.0
100
AcDbText
  0
TEXT
  5
1729A
330
17201
100
AcDbEntity
  8
SUNPOU
100
AcDbText
 10
12534.12750789964
 20
7689.671753860896
 30
0.0
 40
90.0
  1
1800
 50
90.0
 41
0.6666666666666666
  7
00
 72
     4
 11
12489.12750789963
 21
7808.243182432327
 31
0.0
100
AcDbText
  0
LINE
  5
1729B
330
17201
100
AcDbEntity
  8
SUNPOU
100
AcDbLine
 10
12579.12750789964
 20
9093.243182432329
 30
0.0
 11
12579.12750789964
 21
8723.243182432325
 31
0.0
  0
TEXT
  5
1729C
330
17201
100
AcDbEntity
  8
SUNPOU
100
AcDbText
 10
12534.12750789964
 20
8822.528896718038
 30
0.0
 40
90.0
  1
400
 50
90.0
 41
0.6666666666666666
  7
00
 72
     1
 11
12489.12750789963
 21
8908.243182432325
 31
0.0
100
AcDbText
 73
     2
  0
LINE
  5
1729D
330
17201
100
AcDbEntity
  8
SUNPOU
100
AcDbLine
 10
12549.12750789964
 20
9108.243182432325
 30
0.0
 11
12534.12750789964
 21
9108.243182432325
 31
0.0
  0
LINE
  5
1729E
330
17201
100
AcDbEntity
  8
CENTER
  6
1PL-M
100
AcDbLine
 10
9119.127507899637
 20
7758.243182432327
 30
0.0
 11
9119.127507899637
 21
9308.243182432326
 31
0.0
  0
LINE
  5
1729F
330
17201
100
AcDbEntity
  8
SUNPOU
100
AcDbLine
 10
9119.127507899637
 20
9338.243182432325
 30
0.0
 11
9119.127507899637
 21
9453.243182432325
 31
0.0
  0
LINE
  5
172A0
330
17201
100
AcDbEntity
  8
SUNPOU
100
AcDbLine
 10
7719.127507899639
 20
9338.243182432325
 30
0.0
 11
7719.127507899639
 21
9453.243182432325
 31
0.0
  0
LINE
  5
172A1
330
17201
100
AcDbEntity
  8
SUNPOU
100
AcDbLine
 10
9104.127507899637
 20
9408.243182432325
 30
0.0
 11
7734.127507899637
 21
9408.243182432325
 31
0.0
  0
LINE
  5
172A2
330
17201
100
AcDbEntity
  8
SUNPOU
100
AcDbLine
 10
4659.127507899635
 20
7118.243182432327
 30
0.0
 11
4659.127507899635
 21
6908.243182432326
 31
0.0
  0
LINE
  5
172A3
330
17201
100
AcDbEntity
  8
SUNPOU
100
AcDbLine
 10
4659.127507899639
 20
6908.243182432326
 30
0.0
 11
4809.127507899638
 21
6908.243182432326
 31
0.0
  0
TEXT
  5
172A4
330
17201
100
AcDbEntity
  8
SUNPOU
100
AcDbText
 10
4633.284650756779
 20
7253.243182432325
 30
0.0
 40
90.0
  1
A
 41
0.6700000000000001
  7
00
 72
     4
 11
4659.127507899635
 21
7298.243182432326
 31
0.0
100
AcDbText
  0
LINE
  5
172A5
330
17201
100
AcDbEntity
  8
SUNPOU
100
AcDbLine
 10
5879.127507899639
 20
7118.243182432327
 30
0.0
 11
5879.127507899639
 21
6908.243182432326
 31
0.0
  0
LINE
  5
172A6
330
17201
100
AcDbEntity
  8
SUNPOU
100
AcDbLine
 10
5879.127507899639
 20
6908.243182432326
 30
0.0
 11
5729.127507899637
 21
6908.243182432326
 31
0.0
  0
TEXT
  5
172A7
330
17201
100
AcDbEntity
  8
SUNPOU
100
AcDbText
 10
5843.234650756782
 20
7244.671753860898
 30
0.0
 40
90.0
  1
A'
 41
0.6700000000000001
  7
00
 72
     4
 11
5879.127507899639
 21
7298.243182432326
 31
0.0
100
AcDbText
  0
LINE
  5
172A8
330
17201
100
AcDbEntity
  8
SUNPOU
100
AcDbLine
 10
12144.12750789964
 20
8708.243182432324
 30
0.0
 11
12624.12750789964
 21
8708.243182432324
 31
0.0
  0
LINE
  5
172A9
330
17201
100
AcDbEntity
  8
SUNPOU
100
AcDbLine
 10
12144.12750789964
 20
6908.243182432326
 30
0.0
 11
12624.12750789964
 21
6908.243182432326
 31
0.0
  0
TEXT
  5
172AA
330
17201
100
AcDbEntity
  8
HIKIDASHI
100
AcDbText
 10
5882.824073304892
 20
9003.243182432326
 30
0.0
 40
90.0
  1
（屋根後面位置）
  7
01
100
AcDbText
  0
TEXT
  5
172AB
330
17201
100
AcDbEntity
  8
HIKIDASHI
100
AcDbText
 10
5798.715471388875
 20
8773.243182432326
 30
0.0
 40
90.0
  1
（土間コン後面位置）
  7
01
100
AcDbText
  0
TEXT
  5
172AC
330
17201
100
AcDbEntity
  8
HIKIDASHI
100
AcDbText
 10
5905.736109815656
 20
6273.243182432327
 30
0.0
 40
90.0
  1
（鼻隠し外面）
  7
01
100
AcDbText
  0
TEXT
  5
172AD
330
17201
100
AcDbEntity
  8
HIKIDASHI
100
AcDbText
 10
5821.627507899639
 20
6553.243182432327
 30
0.0
 40
90.0
  1
（土間コン前面位置）
  7
01
100
AcDbText
  0
TEXT
  5
172AE
330
17201
100
AcDbEntity
  8
NAME
100
AcDbText
 10
12854.79999999999
 20
541.0000000000001
 30
0.0
 40
160.0
  1
<3／3>
 41
0.6
  7
01
 72
     2
 11
13354.0
 21
541.0000000000001
 31
0.0
100
AcDbText
  0
TEXT
  5
172AF
330
17201
100
AcDbEntity
  8
NAME
100
AcDbText
 10
10896.04264730428
 20
541.0
 30
0.0
 40
160.0
  1
YOKC-245
 41
0.7
  7
01
 72
     2
 11
11776.04264730429
 21
541.0
 31
0.0
100
AcDbText
  0
TEXT
  5
172B0
330
17201
100
AcDbEntity
  8
NAME
100
AcDbText
 10
11816.04264730429
 20
541.0
 30
0.0
 40
160.0
  1
型（一般地用）
 41
0.8
  7
01
100
AcDbText
  0
LINE
  5
172CE
330
17201
100
AcDbEntity
  8
HIKIDASHI
100
AcDbLine
 10
4186.816957180232
 20
4083.204154334509
 30
0.0
 11
3405.031576763642
 21
4083.204154334509
 31
0.0
  0
LINE
  5
172CF
330
17201
100
AcDbEntity
  8
1PL-M1
100
AcDbLine
 10
4889.856483595693
 20
2873.963733520729
 30
0.0
 11
4889.856483595691
 21
4601.963733520728
 31
0.0
  0
LINE
  5
172D0
330
17201
100
AcDbEntity
  8
HASHIRA
100
AcDbLine
 10
4837.856483595691
 20
3145.963733520729
 30
0.0
 11
4837.856483595691
 21
4233.963733520726
 31
0.0
  0
LINE
  5
172D1
330
17201
100
AcDbEntity
  8
HASHIRA
100
AcDbLine
 10
4941.856483595691
 20
3145.963733520729
 30
0.0
 11
4941.856483595691
 21
4233.963733520726
 31
0.0
  0
LINE
  5
172D2
330
17201
100
AcDbEntity
  8
HATCH
100
AcDbLine
 10
6088.042305995692
 20
3563.21910792073
 30
0.0
 11
6107.242305995693
 21
3529.963733520729
 31
0.0
  0
LINE
  5
172D3
330
17201
100
AcDbEntity
  8
HATCH
100
AcDbLine
 10
6232.042305995692
 20
3563.21910792073
 30
0.0
 11
6251.242305995694
 21
3529.963733520729
 31
0.0
  0
LINE
  5
172D4
330
17201
100
AcDbEntity
  8
HATCH
100
AcDbLine
 10
6229.867931595689
 20
3625.963733520729
 30
0.0
 11
6249.067931595693
 21
3592.708357520729
 31
0.0
  0
LINE
  5
172D5
330
17201
100
AcDbEntity
  8
HATCH
100
AcDbLine
 10
6212.842305995692
 20
3529.963733520729
 30
0.0
 11
6268.267931595691
 21
3625.963733520729
 31
0.0
  0
LINE
  5
172D6
330
17201
100
AcDbEntity
  8
HATCH
100
AcDbLine
 10
6336.250096395694
 20
3753.963733520729
 30
0.0
 11
6208.250096395694
 21
3625.963733520729
 31
0.0
  0
LINE
  5
172D7
330
17201
100
AcDbEntity
  8
HATCH
100
AcDbLine
 10
6241.21494439569
 20
3753.963733520729
 30
0.0
 11
6113.21494439569
 21
3625.963733520729
 31
0.0
  0
LINE
  5
172D8
330
17201
100
AcDbEntity
  8
HATCH
100
AcDbLine
 10
6288.732520395693
 20
3753.963733520729
 30
0.0
 11
6160.732520395693
 21
3625.963733520729
 31
0.0
  0
LINE
  5
172D9
330
17201
100
AcDbEntity
  8
HATCH
100
AcDbLine
 10
5960.042305995692
 20
3563.21910792073
 30
0.0
 11
5979.242305995693
 21
3529.963733520729
 31
0.0
  0
LINE
  5
172DA
330
17201
100
AcDbEntity
  8
HATCH
100
AcDbLine
 10
5957.867931595689
 20
3625.963733520729
 30
0.0
 11
5977.067931595691
 21
3592.708357520729
 31
0.0
  0
LINE
  5
172DB
330
17201
100
AcDbEntity
  8
HATCH
100
AcDbLine
 10
5940.842305995693
 20
3529.963733520729
 30
0.0
 11
5996.267931595689
 21
3625.963733520729
 31
0.0
  0
LINE
  5
172DC
330
17201
100
AcDbEntity
  8
HATCH
100
AcDbLine
 10
5717.016790795693
 20
3625.963733520729
 30
0.0
 11
5701.016790795693
 21
3625.963733520729
 31
0.0
  0
LINE
  5
172DD
330
17201
100
AcDbEntity
  8
HATCH
100
AcDbLine
 10
5816.042305995694
 20
3563.21910792073
 30
0.0
 11
5835.242305995691
 21
3529.963733520729
 31
0.0
  0
LINE
  5
172DE
330
17201
100
AcDbEntity
  8
HATCH
100
AcDbLine
 10
5796.842305995693
 20
3529.963733520729
 30
0.0
 11
5852.267931595689
 21
3625.963733520729
 31
0.0
  0
LINE
  5
172DF
330
17201
100
AcDbEntity
  8
HATCH
100
AcDbLine
 10
5813.86793159569
 20
3625.963733520729
 30
0.0
 11
5833.067931595691
 21
3592.708357520729
 31
0.0
  0
LINE
  5
172E0
330
17201
100
AcDbEntity
  8
HATCH
100
AcDbLine
 10
5856.250096395695
 20
3753.963733520729
 30
0.0
 11
5728.250096395695
 21
3625.963733520729
 31
0.0
  0
LINE
  5
172E1
330
17201
100
AcDbEntity
  8
HATCH
100
AcDbLine
 10
5672.042305995695
 20
3563.21910792073
 30
0.0
 11
5691.242305995693
 21
3529.963733520729
 31
0.0
  0
LINE
  5
172E2
330
17201
100
AcDbEntity
  8
HATCH
100
AcDbLine
 10
5669.867931595689
 20
3625.963733520729
 30
0.0
 11
5689.067931595691
 21
3592.708357520729
 31
0.0
  0
LINE
  5
172E3
330
17201
100
AcDbEntity
  8
HATCH
100
AcDbLine
 10
5529.856483595692
 20
3566.36135696226
 30
0.0
 11
5564.26793159569
 21
3625.963733520729
 31
0.0
  0
LINE
  5
172E4
330
17201
100
AcDbEntity
  8
HATCH
100
AcDbLine
 10
5529.856483595692
 20
3619.055358705336
 30
0.0
 11
5545.067931595691
 21
3592.708357520729
 31
0.0
  0
LINE
  5
172E5
330
17201
100
AcDbEntity
  8
HATCH
100
AcDbLine
 10
5529.856483595692
 20
3560.076860248017
 30
0.0
 11
5547.242305995694
 21
3529.963733520729
 31
0.0
  0
LINE
  5
172E6
330
17201
100
AcDbEntity
  8
HATCH
100
AcDbLine
 10
5573.016790795693
 20
3625.963733520729
 30
0.0
 11
5557.016790795692
 21
3625.963733520729
 31
0.0
  0
LINE
  5
172E7
330
17201
100
AcDbEntity
  8
HATCH
100
AcDbLine
 10
5808.73252039569
 20
3753.963733520729
 30
0.0
 11
5680.732520395693
 21
3625.963733520729
 31
0.0
  0
LINE
  5
172E8
330
17201
100
AcDbEntity
  8
HATCH
100
AcDbLine
 10
5761.214944395693
 20
3753.963733520729
 30
0.0
 11
5633.214944395693
 21
3625.963733520729
 31
0.0
  0
LINE
  5
172E9
330
17201
100
AcDbEntity
  8
HATCH
100
AcDbLine
 10
5652.842305995695
 20
3529.963733520729
 30
0.0
 11
5708.267931595689
 21
3625.963733520729
 31
0.0
  0
LINE
  5
172EA
330
17201
100
AcDbEntity
  8
HATCH
100
AcDbLine
 10
6085.867931595689
 20
3625.963733520729
 30
0.0
 11
6105.067931595691
 21
3592.708357520729
 31
0.0
  0
LINE
  5
172EB
330
17201
100
AcDbEntity
  8
HATCH
100
AcDbLine
 10
6068.842305995693
 20
3529.963733520729
 30
0.0
 11
6124.267931595689
 21
3625.963733520729
 31
0.0
  0
LINE
  5
172EC
330
17201
100
AcDbEntity
  8
KISO
100
AcDbLine
 10
5529.856483595692
 20
3529.963733520729
 30
0.0
 11
6367.249978138846
 21
3529.963733520729
 31
0.0
  0
LINE
  5
172ED
330
17201
100
AcDbEntity
  8
KISO
100
AcDbLine
 10
6367.249978138846
 20
3625.963733520729
 30
0.0
 11
5529.856483595692
 21
3625.963733520729
 31
0.0
  0
LINE
  5
172EE
330
17201
100
AcDbEntity
  8
KISO
100
AcDbLine
 10
5529.856483595692
 20
3753.963733520729
 30
0.0
 11
5529.856483595692
 21
3145.963733520729
 31
0.0
  0
LINE
  5
172EF
330
17201
100
AcDbEntity
  8
U3
100
AcDbLine
 10
4138.665683595692
 20
3673.963733520729
 30
0.0
 11
4249.856483595691
 21
3562.772931920729
 31
0.0
  0
LINE
  5
172F0
330
17201
100
AcDbEntity
  8
U3
100
AcDbLine
 10
4087.753993995693
 20
3623.052043920729
 30
0.0
 11
4204.842305995692
 21
3505.963733520729
 31
0.0
  0
LINE
  5
172F1
330
17201
100
AcDbEntity
  8
U3
100
AcDbLine
 10
3919.753993995694
 20
3556.875421520731
 30
0.0
 11
4036.842305995692
 21
3673.963733520729
 31
0.0
  0
LINE
  5
172F2
330
17201
100
AcDbEntity
  8
U3
100
AcDbLine
 10
4036.842305995692
 20
3572.140355920728
 30
0.0
 11
4103.01892999569
 21
3505.963733520729
 31
0.0
  0
LINE
  5
172F3
330
17201
100
AcDbEntity
  8
U3
100
AcDbLine
 10
3970.665683595692
 20
3505.963733520729
 30
0.0
 11
4138.665683595692
 21
3673.963733520729
 31
0.0
  0
LINE
  5
172F4
330
17201
100
AcDbEntity
  8
KISO
100
AcDbLine
 10
4837.856483595691
 20
3753.963733520729
 30
0.0
 11
4249.856483595691
 21
3753.963733520729
 31
0.0
  0
LINE
  5
172F5
330
17201
100
AcDbEntity
  8
HATCH
100
AcDbLine
 10
4799.916475201962
 20
3753.963733520729
 30
0.0
 11
4249.856483595691
 21
3203.903741914457
 31
0.0
  0
LINE
  5
172F6
330
17201
100
AcDbEntity
  8
HATCH
100
AcDbLine
 10
4752.398899201963
 20
3753.963733520729
 30
0.0
 11
4249.856483595691
 21
3251.421317914457
 31
0.0
  0
LINE
  5
172F7
330
17201
100
AcDbEntity
  8
HATCH
100
AcDbLine
 10
4704.881324801961
 20
3753.963733520729
 30
0.0
 11
4249.856483595691
 21
3298.938892314453
 31
0.0
  0
LINE
  5
172F8
330
17201
100
AcDbEntity
  8
U3
100
AcDbLine
 10
3700.842305995694
 20
3572.140355920728
 30
0.0
 11
3767.018929995692
 21
3505.963733520729
 31
0.0
  0
LINE
  5
172F9
330
17201
100
AcDbEntity
  8
U3
100
AcDbLine
 10
3751.753993995694
 20
3623.052043920729
 30
0.0
 11
3868.842305995693
 21
3505.963733520729
 31
0.0
  0
LINE
  5
172FA
330
17201
100
AcDbEntity
  8
U3
100
AcDbLine
 10
3532.842305995694
 20
3607.787109520728
 30
0.0
 11
3599.018929995692
 21
3673.963733520729
 31
0.0
  0
LINE
  5
172FB
330
17201
100
AcDbEntity
  8
U3
100
AcDbLine
 10
3634.665683595692
 20
3505.963733520729
 30
0.0
 11
3802.665683595693
 21
3673.963733520729
 31
0.0
  0
LINE
  5
172FC
330
17201
100
AcDbEntity
  8
U3
100
AcDbLine
 10
3583.753993995694
 20
3556.875421520731
 30
0.0
 11
3700.842305995694
 21
3673.963733520729
 31
0.0
  0
LINE
  5
172FD
330
17201
100
AcDbEntity
  8
U3
100
AcDbLine
 10
3466.665683595692
 20
3673.963733520729
 30
0.0
 11
3634.665683595692
 21
3505.963733520729
 31
0.0
  0
LINE
  5
172FE
330
17201
100
AcDbEntity
  8
U3
100
AcDbLine
 10
3868.842305995693
 20
3607.787109520728
 30
0.0
 11
3935.018929995692
 21
3673.963733520729
 31
0.0
  0
LINE
  5
172FF
330
17201
100
AcDbEntity
  8
U3
100
AcDbLine
 10
3802.665683595693
 20
3673.963733520729
 30
0.0
 11
3970.665683595692
 21
3505.963733520729
 31
0.0
  0
LINE
  5
17300
330
17201
100
AcDbEntity
  8
U3
100
AcDbLine
 10
4249.856483595691
 20
3673.963733520729
 30
0.0
 11
3466.665683595692
 21
3673.963733520729
 31
0.0
  0
LINE
  5
17301
330
17201
100
AcDbEntity
  8
HATCH
100
AcDbLine
 10
4837.856483595691
 20
3404.311689551324
 30
0.0
 11
4683.508527565098
 21
3249.963733520729
 31
0.0
  0
LINE
  5
17302
330
17201
100
AcDbEntity
  8
KISO
100
AcDbLine
 10
4249.856483595691
 20
3753.963733520729
 30
0.0
 11
4249.856483595691
 21
3145.963733520729
 31
0.0
  0
LINE
  5
17303
330
17201
100
AcDbEntity
  8
HATCH
100
AcDbLine
 10
4837.856483595691
 20
3499.346839951326
 30
0.0
 11
4484.473377165095
 21
3145.963733520729
 31
0.0
  0
LINE
  5
17304
330
17201
100
AcDbEntity
  8
HATCH
100
AcDbLine
 10
4837.856483595691
 20
3451.829265551324
 30
0.0
 11
4635.990951565096
 21
3249.963733520729
 31
0.0
  0
LINE
  5
17305
330
17201
100
AcDbEntity
  8
HATCH
100
AcDbLine
 10
5187.508527565098
 20
3753.963733520729
 30
0.0
 11
4941.856483595691
 21
3508.311689551324
 31
0.0
  0
LINE
  5
17306
330
17201
100
AcDbEntity
  8
HATCH
100
AcDbLine
 10
5139.990951565096
 20
3753.963733520729
 30
0.0
 11
4941.856483595691
 21
3555.829265551323
 31
0.0
  0
LINE
  5
17307
330
17201
100
AcDbEntity
  8
HATCH
100
AcDbLine
 10
5092.473377165095
 20
3753.963733520729
 30
0.0
 11
4941.856483595691
 21
3603.346839951324
 31
0.0
  0
LINE
  5
17308
330
17201
100
AcDbEntity
  8
KISO
100
AcDbLine
 10
6367.249978138845
 20
3753.963733520729
 30
0.0
 11
4941.856483595691
 21
3753.963733520729
 31
0.0
  0
LINE
  5
17309
330
17201
100
AcDbEntity
  8
HATCH
100
AcDbLine
 10
4364.80684683883
 20
3753.963733520729
 30
0.0
 11
4249.856483595693
 21
3639.013370277589
 31
0.0
  0
LINE
  5
1730A
330
17201
100
AcDbEntity
  8
HATCH
100
AcDbLine
 10
4412.324422838832
 20
3753.963733520729
 30
0.0
 11
4249.856483595691
 21
3591.49579427759
 31
0.0
  0
LINE
  5
1730B
330
17201
100
AcDbEntity
  8
HATCH
100
AcDbLine
 10
4317.289272438831
 20
3753.963733520729
 30
0.0
 11
4249.856483595691
 21
3686.530944677587
 31
0.0
  0
LINE
  5
1730C
330
17201
100
AcDbEntity
  8
HATCH
100
AcDbLine
 10
5529.856483595692
 20
3708.71963718819
 30
0.0
 11
5071.100579928232
 21
3249.963733520729
 31
0.0
  0
LINE
  5
1730D
330
17201
100
AcDbEntity
  8
HATCH
100
AcDbLine
 10
5527.583003928228
 20
3753.963733520729
 30
0.0
 11
5023.583003928232
 21
3249.963733520728
 31
0.0
  0
LINE
  5
1730E
330
17201
100
AcDbEntity
  8
HATCH
100
AcDbLine
 10
5480.065429528228
 20
3753.963733520729
 30
0.0
 11
4941.856483595691
 21
3215.754787588188
 31
0.0
  0
LINE
  5
1730F
330
17201
100
AcDbEntity
  8
HATCH
100
AcDbLine
 10
5529.856483595692
 20
3416.162735225057
 30
0.0
 11
5259.657481891365
 21
3145.963733520729
 31
0.0
  0
LINE
  5
17310
330
17201
100
AcDbEntity
  8
HATCH
100
AcDbLine
 10
5529.856483595692
 20
3368.645160825057
 30
0.0
 11
5307.17505629137
 21
3145.963733520729
 31
0.0
  0
LINE
  5
17311
330
17201
100
AcDbEntity
  8
HATCH
100
AcDbLine
 10
5529.856483595693
 20
3321.127584825055
 30
0.0
 11
5354.692632291366
 21
3145.963733520729
 31
0.0
  0
LINE
  5
17312
330
17201
100
AcDbEntity
  8
HATCH
100
AcDbLine
 10
4619.990951565096
 20
3233.963733520729
 30
0.0
 11
4531.990951565096
 21
3145.963733520729
 31
0.0
  0
LINE
  5
17313
330
17201
100
AcDbEntity
  8
HATCH
100
AcDbLine
 10
4667.508527565098
 20
3233.963733520729
 30
0.0
 11
4579.508527565098
 21
3145.963733520729
 31
0.0
  0
LINE
  5
17314
330
17201
100
AcDbEntity
  8
HATCH
100
AcDbLine
 10
4960.065429528231
 20
3233.963733520729
 30
0.0
 11
4941.856483595691
 21
3215.754787588188
 31
0.0
  0
LINE
  5
17315
330
17201
100
AcDbEntity
  8
HATCH
100
AcDbLine
 10
5007.583003928234
 20
3233.963733520729
 30
0.0
 11
4941.856483595691
 21
3168.237213188188
 31
0.0
  0
LINE
  5
17316
330
17201
100
AcDbEntity
  8
HATCH
100
AcDbLine
 10
5055.100579928232
 20
3233.963733520729
 30
0.0
 11
4967.100579928231
 21
3145.963733520729
 31
0.0
  0
TEXT
  5
17317
330
17201
100
AcDbEntity
  8
HIKIDASHI
100
AcDbText
 10
4966.060086474469
 20
2119.914714678057
 30
0.0
 40
90.0
  1
断 面
  7
01
100
AcDbText
  0
LINE
  5
17318
330
17201
100
AcDbEntity
  8
HIKIDASHI
100
AcDbLine
 10
4542.042806977907
 20
2074.914714678057
 30
0.0
 11
5237.670160213478
 21
2074.914714678057
 31
0.0
  0
LINE
  5
17319
330
17201
100
AcDbEntity
  8
HIKIDASHI
100
AcDbLine
 10
4542.042806977907
 20
2044.914714678057
 30
0.0
 11
5237.670160213478
 21
2044.914714678057
 31
0.0
  0
TEXT
  5
1731A
330
17201
100
AcDbEntity
  8
HIKIDASHI
100
AcDbText
 10
4572.042806977907
 20
2119.914714678057
 30
0.0
 40
90.0
  1
A  ~  A'
 41
0.6700000000000001
  7
00
100
AcDbText
  0
LINE
  5
1731B
330
17201
100
AcDbEntity
  8
SUNPOU
100
AcDbLine
 10
4889.856483595693
 20
4556.963733520728
 30
0.0
 11
6315.086990845943
 21
4556.963733520728
 31
0.0
  0
TEXT
  5
1731C
330
17201
100
AcDbEntity
  8
SUNPOU
100
AcDbText
 10
5675.684182736158
 20
4601.963733520728
 30
0.0
 40
90.0
  1
2450
 41
0.6666666666666666
  7
00
 72
     4
 11
5789.969897021872
 21
4646.963733520728
 31
0.0
100
AcDbText
  0
LINE
  5
1731D
330
17201
100
AcDbEntity
  8
HIKIDASHI
100
AcDbLine
 10
3864.689878611732
 20
2573.963733520729
 30
0.0
 11
3495.923501784111
 21
2573.963733520729
 31
0.0
  0
TEXT
  5
1731E
330
17201
100
AcDbEntity
  8
HIKIDASHI
100
AcDbText
 10
3522.991109376021
 20
2618.963733520729
 30
0.0
 40
90.0
  1
砕　石
  7
01
 72
     2
 11
3822.991109376021
 21
2663.963733520729
 31
0.0
100
AcDbText
 73
     2
  0
TEXT
  5
1731F
330
17201
100
AcDbEntity
  8
SUNPOU
100
AcDbText
 10
6214.517344503915
 20
2588.570487822471
 30
0.0
 40
90.0
  1
5-D13×5-D13
 41
0.6700000000000001
  7
01
 72
     4
 11
6557.940201646772
 21
2633.570487822471
 31
0.0
100
AcDbText
  0
TEXT
  5
17320
330
17201
100
AcDbEntity
  8
SUNPOU
100
AcDbText
 10
5727.69726306127
 20
2588.570487822471
 30
0.0
 40
90.0
  1
ベース筋
  7
01
 72
     4
 11
5931.69726306127
 21
2633.570487822471
 31
0.0
100
AcDbText
  0
LINE
  5
17321
330
17201
100
AcDbEntity
  8
HIKIDASHI
100
AcDbLine
 10
6997.547440734263
 20
4083.963733520728
 30
0.0
 11
6196.483271007121
 21
4083.963733520728
 31
0.0
  0
TEXT
  5
17322
330
17201
100
AcDbEntity
  8
HIKIDASHI
100
AcDbText
 10
6240.317140088584
 20
4128.963733520728
 30
0.0
 40
90.0
  1
敷砂利又は砕石
  7
01
 72
     2
 11
6972.317140088584
 21
4173.963733520728
 31
0.0
100
AcDbText
 73
     2
  0
TEXT
  5
17323
330
17201
100
AcDbEntity
  8
HIKIDASHI
100
AcDbText
 10
6024.221954446723
 20
4338.963733520728
 30
0.0
 40
90.0
  1
土　間
  7
01
 72
     2
 11
6318.221954446722
 21
4383.963733520728
 31
0.0
100
AcDbText
 73
     2
  0
LINE
  5
17324
330
17201
100
AcDbEntity
  8
HIKIDASHI
100
AcDbLine
 10
6359.920723682438
 20
4293.963733520728
 30
0.0
 11
5991.154346854814
 21
4293.963733520728
 31
0.0
  0
TEXT
  5
17325
330
17201
100
AcDbEntity
  8
SUNPOU
100
AcDbText
 10
6200.509196873749
 20
3888.963733520728
 30
0.0
 40
90.0
  1
F.L
 41
0.6666666666666666
  7
00
 72
     4
 11
6269.080625445177
 21
3933.963733520729
 31
0.0
100
AcDbText
  0
LINE
  5
17326
330
17201
100
AcDbEntity
  8
SUNPOU
100
AcDbLine
 10
6269.080625445177
 20
3753.963733520729
 30
0.0
 11
6321.042149672243
 21
3843.963733520729
 31
0.0
  0
LINE
  5
17327
330
17201
100
AcDbEntity
  8
SUNPOU
100
AcDbLine
 10
6217.119101218109
 20
3843.963733520729
 30
0.0
 11
6269.080625445177
 21
3753.963733520729
 31
0.0
  0
LINE
  5
17328
330
17201
100
AcDbEntity
  8
SUNPOU
100
AcDbLine
 10
6321.042149672243
 20
3843.963733520729
 30
0.0
 11
6217.119101218109
 21
3843.963733520729
 31
0.0
  0
TEXT
  5
17329
330
17201
100
AcDbEntity
  8
HIKIDASHI
100
AcDbText
 10
3941.197894611569
 20
4128.754747320637
 30
0.0
 40
89.55223880597014
  1
350
 41
0.6700000000000001
  7
00
100
AcDbText
  0
TEXT
  5
1732A
330
17201
100
AcDbEntity
  8
HIKIDASHI
100
AcDbText
 10
3647.115610627791
 20
4128.963733520728
 30
0.0
 40
89.55223880597014
  1
10
 41
0.6700000000000001
  7
00
100
AcDbText
  0
TEXT
  5
1732B
330
17201
100
AcDbEntity
  8
HIKIDASHI
100
AcDbText
 10
3775.492365645627
 20
4155.393343159622
 30
0.0
 40
90.0
  1
%%c
 41
0.6700000000000001
  7
00
100
AcDbText
  0
TEXT
  5
1732C
330
17201
100
AcDbEntity
  8
HIKIDASHI
100
AcDbText
 10
3415.608897026134
 20
4128.963733520728
 30
0.0
 40
90.0
  1
鉄筋
  7
01
100
AcDbText
  0
TEXT
  5
1732D
330
17201
100
AcDbEntity
  8
HIKIDASHI
100
AcDbText
 10
3860.062515458436
 20
4140.157763371475
 30
0.0
 40
89.55223880597014
  1
x
 41
0.6700000000000001
  7
00
100
AcDbText
  0
LINE
  5
1732E
330
17201
100
AcDbEntity
  8
KISO
100
AcDbLine
 10
4089.85648359569
 20
2985.963733520728
 30
0.0
 11
5689.856483595686
 21
2985.963733520732
 31
0.0
  0
LINE
  5
1732F
330
17201
100
AcDbEntity
  8
KISO
100
AcDbLine
 10
4089.85648359569
 20
2985.963733520728
 30
0.0
 11
4089.85648359569
 21
3145.963733520729
 31
0.0
  0
LINE
  5
17330
330
17201
100
AcDbEntity
  8
KISO
100
AcDbLine
 10
5689.856483595686
 20
2985.963733520732
 30
0.0
 11
5689.856483595686
 21
3145.963733520728
 31
0.0
  0
LINE
  5
17331
330
17201
100
AcDbEntity
  8
KISO
100
AcDbLine
 10
4089.85648359569
 20
3145.963733520729
 30
0.0
 11
5689.856483595686
 21
3145.963733520728
 31
0.0
  0
TEXT
  5
17332
330
17201
100
AcDbEntity
  8
FILENAME
100
AcDbText
 10
13949.61904761904
 20
174.0
 30
0.0
 40
100.0
  1
＜YOKC-245-U_3_JIS_GL.DXF ＞
  7
FILENAME
 72
     2
 11
16382.0
 21
174.0
 31
0.0
100
AcDbText
  0
LINE
  5
17333
330
17201
100
AcDbEntity
  8
WAKUSEN-01
100
AcDbLine
 10
434.0000000000008
 20
413.9999999999997
 30
0.0
 11
16382.0
 21
413.9999999999997
 31
0.0
  0
LINE
  5
17334
330
17201
100
AcDbEntity
  8
WAKUSEN-01
100
AcDbLine
 10
434.0000000000008
 20
11242.0
 30
0.0
 11
16382.0
 21
11242.0
 31
0.0
  0
LINE
  5
17335
330
17201
100
AcDbEntity
  8
WAKUSEN-01
100
AcDbLine
 10
434.0000000000008
 20
413.9999999999997
 30
0.0
 11
434.0000000000008
 21
11242.0
 31
0.0
  0
LINE
  5
17336
330
17201
100
AcDbEntity
  8
WAKUSEN-01
100
AcDbLine
 10
16382.0
 20
413.9999999999997
 30
0.0
 11
16382.0
 21
11242.0
 31
0.0
  0
LINE
  5
17337
330
17201
100
AcDbEntity
  8
WAKUSEN-01
100
AcDbLine
 10
10280.0
 20
1242.0
 30
0.0
 11
16382.0
 21
1242.0
 31
0.0
  0
LINE
  5
17338
330
17201
100
AcDbEntity
  8
WAKUSEN-02
100
AcDbLine
 10
10280.0
 20
827.9999999999997
 30
0.0
 11
13434.0
 21
827.9999999999997
 31
0.0
  0
TEXT
  5
17339
330
17201
100
AcDbEntity
  8
WAKUMOJI-01
100
AcDbText
 10
10335.13012998137
 20
1062.951504669661
 30
0.0
 40
120.0
  1
名　称
  7
WAKUMOJI
100
AcDbText
  0
TEXT
  5
1733A
330
17201
100
AcDbEntity
  8
WAKUMOJI-01
100
AcDbText
 10
10328.25274254596
 20
659.5644874899107
 30
0.0
 40
120.0
  1
機種名
  7
WAKUMOJI
100
AcDbText
  0
LINE
  5
1733B
330
17201
100
AcDbEntity
  8
WAKUSEN-01
100
AcDbLine
 10
10280.0
 20
413.9999999999985
 30
0.0
 11
10280.0
 21
1242.0
 31
0.0
  0
LINE
  5
1733C
330
17201
100
AcDbEntity
  8
WAKUSEN-02
100
AcDbLine
 10
13434.0
 20
413.9999999999963
 30
0.0
 11
13434.0
 21
1242.0
 31
0.0
  0
LINE
  5
1733D
330
17201
100
AcDbEntity
  8
YODOROGO
100
AcDbLine
 10
14988.80217064596
 20
997.8747482146435
 30
0.0
 11
14914.80217064596
 21
997.8747482146435
 31
0.0
1001
AUTOCAD_POSTSCRIPT_FIGURE
1002
{
1000
PSFILL
1000
Grayscale
1000
Grayscale
1070
    25
1002
}
  0
LINE
  5
1733E
330
17201
100
AcDbEntity
  8
YODOROGO
100
AcDbLine
 10
14914.80217064596
 20
973.8747482146434
 30
0.0
 11
14988.80217064596
 21
973.8747482146434
 31
0.0
1001
AUTOCAD_POSTSCRIPT_FIGURE
1002
{
1000
PSFILL
1000
Grayscale
1000
Grayscale
1070
    25
1002
}
  0
LINE
  5
1733F
330
17201
100
AcDbEntity
  8
YODOROGO
100
AcDbLine
 10
14988.80217064596
 20
953.874748214644
 30
0.0
 11
14914.80217064596
 21
953.874748214644
 31
0.0
1001
AUTOCAD_POSTSCRIPT_FIGURE
1002
{
1000
PSFILL
1000
Grayscale
1000
Grayscale
1070
    25
1002
}
  0
LINE
  5
17340
330
17201
100
AcDbEntity
  8
YODOROGO
100
AcDbLine
 10
14914.80217064596
 20
929.874748214644
 30
0.0
 11
14988.80217064596
 21
929.874748214644
 31
0.0
1001
AUTOCAD_POSTSCRIPT_FIGURE
1002
{
1000
PSFILL
1000
Grayscale
1000
Grayscale
1070
    25
1002
}
  0
LINE
  5
17341
330
17201
100
AcDbEntity
  8
YODOROGO
100
AcDbLine
 10
14988.80217064596
 20
909.8747482146439
 30
0.0
 11
14914.80217064596
 21
909.8747482146439
 31
0.0
1001
AUTOCAD_POSTSCRIPT_FIGURE
1002
{
1000
PSFILL
1000
Grayscale
1000
Grayscale
1070
    25
1002
}
  0
LINE
  5
17342
330
17201
100
AcDbEntity
  8
YODOROGO
100
AcDbLine
 10
14960.80217064594
 20
853.874748214644
 30
0.0
 11
14988.80217064596
 21
853.874748214644
 31
0.0
1001
AUTOCAD_POSTSCRIPT_FIGURE
1002
{
1000
PSFILL
1000
Grayscale
1000
Grayscale
1070
    25
1002
}
  0
LINE
  5
17343
330
17201
100
AcDbEntity
  8
YODOROGO
100
AcDbLine
 10
14868.80217064596
 20
713.8747482146436
 30
0.0
 11
14968.80217064596
 21
740.6696674577553
 31
0.0
  0
LINE
  5
17344
330
17201
100
AcDbEntity
  8
YODOROGO
100
AcDbLine
 10
14974.80217064595
 20
853.874748214644
 30
0.0
 11
14942.80217064596
 21
853.874748214644
 31
0.0
  0
ARC
  5
17345
330
17201
100
AcDbEntity
  8
YODOROGO
100
AcDbCircle
 10
15127.17387491394
 20
903.9323046166312
 30
0.0
 40
190.9434321028236
100
AcDbArc
 50
213.9611167766784
 51
264.4787207431779
  0
ARC
  5
17346
330
17201
100
AcDbEntity
  8
YODOROGO
100
AcDbCircle
 10
15127.17387491396
 20
903.9323046166513
 30
0.0
 40
190.9434321028408
100
AcDbArc
 50
208.141144204866
 51
212.9210361185994
  0
LINE
  5
17347
330
17201
100
AcDbEntity
  8
YODOROGO
100
AcDbLine
 10
14885.70493649264
 20
778.403830673117
 30
0.0
 11
14966.89206625426
 21
800.1578565285436
 31
0.0
  0
LINE
  5
17348
330
17201
100
AcDbEntity
  8
YODOROGO
100
AcDbLine
 10
14868.80217064596
 20
713.8747482146436
 30
0.0
 11
14968.80217064596
 21
740.6696674577553
 31
0.0
  0
LINE
  5
17349
330
17201
100
AcDbEntity
  8
YODOROGO
100
AcDbLine
 10
14974.80217064595
 20
853.874748214644
 30
0.0
 11
14942.80217064596
 21
853.874748214644
 31
0.0
  0
ARC
  5
1734A
330
17201
100
AcDbEntity
  8
YODOROGO
100
AcDbCircle
 10
15127.17387491394
 20
903.9323046166312
 30
0.0
 40
190.9434321028236
100
AcDbArc
 50
213.9611167766784
 51
264.4787207431779
  0
LINE
  5
1734B
330
17201
100
AcDbEntity
  8
YODOROGO
100
AcDbLine
 10
14396.80217064594
 20
909.8747482146439
 30
0.0
 11
14216.80217064594
 21
909.8747482146439
 31
0.0
  0
LINE
  5
1734C
330
17201
100
AcDbEntity
  8
YODOROGO
100
AcDbLine
 10
14256.80217064594
 20
713.8747482146436
 30
0.0
 11
14396.80217064594
 21
713.8747482146436
 31
0.0
  0
LINE
  5
1734D
330
17201
100
AcDbEntity
  8
YODOROGO
100
AcDbLine
 10
14364.80217064596
 20
961.8747482146432
 30
0.0
 11
14248.80217064594
 21
961.8747482146432
 31
0.0
  0
LINE
  5
1734E
330
17201
100
AcDbEntity
  8
YODOROGO
100
AcDbLine
 10
14292.80217064596
 20
1013.874748214644
 30
0.0
 11
14328.80217064596
 21
1013.874748214644
 31
0.0
  0
LINE
  5
1734F
330
17201
100
AcDbEntity
  8
YODOROGO
100
AcDbLine
 10
14216.80217064594
 20
853.874748214644
 30
0.0
 11
14216.80217064594
 21
753.8747482146439
 31
0.0
  0
LINE
  5
17350
330
17201
100
AcDbEntity
  8
YODOROGO
100
AcDbLine
 10
14248.80217064594
 20
781.8747482146434
 30
0.0
 11
14248.80217064594
 21
853.874748214644
 31
0.0
  0
LINE
  5
17351
330
17201
100
AcDbEntity
  8
YODOROGO
100
AcDbLine
 10
14292.80217064596
 20
873.8747482146449
 30
0.0
 11
14292.80217064596
 21
773.874748214644
 31
0.0
  0
LINE
  5
17352
330
17201
100
AcDbEntity
  8
YODOROGO
100
AcDbLine
 10
13928.80217064596
 20
841.8747482146445
 30
0.0
 11
13888.80217064596
 21
809.9862070222856
 31
0.0
  0
LINE
  5
17353
330
17201
100
AcDbEntity
  8
YODOROGO
100
AcDbLine
 10
13968.80217064596
 20
809.9862070222856
 30
0.0
 11
13928.80217064596
 21
841.8747482146445
 31
0.0
  0
LINE
  5
17354
330
17201
100
AcDbEntity
  8
YODOROGO
100
AcDbLine
 10
13928.80217064596
 20
853.874748214644
 30
0.0
 11
13968.80217064596
 21
821.986207022285
 31
0.0
  0
LINE
  5
17355
330
17201
100
AcDbEntity
  8
YODOROGO
100
AcDbLine
 10
13888.80217064596
 20
821.986207022285
 30
0.0
 11
13928.80217064596
 21
853.874748214644
 31
0.0
  0
LINE
  5
17356
330
17201
100
AcDbEntity
  8
YODOROGO
100
AcDbLine
 10
14020.45660200844
 20
829.874748214644
 30
0.0
 11
14020.45660200844
 21
841.8747482146434
 31
0.0
  0
LINE
  5
17357
330
17201
100
AcDbEntity
  8
YODOROGO
100
AcDbLine
 10
13988.80217064596
 20
841.8747482146434
 30
0.0
 11
13988.80217064596
 21
833.8747482146427
 31
0.0
  0
LINE
  5
17358
330
17201
100
AcDbEntity
  8
YODOROGO
100
AcDbLine
 10
14049.06776011545
 20
853.874748214644
 30
0.0
 11
14049.06776011545
 21
827.751818637328
 31
0.0
1001
AUTOCAD_POSTSCRIPT_FIGURE
1002
{
1000
PSFILL
1000
Grayscale
1000
Grayscale
1070
   100
1002
}
  0
LINE
  5
17359
330
17201
100
AcDbEntity
  8
YODOROGO
100
AcDbLine
 10
14041.06776011546
 20
827.751818637328
 30
0.0
 11
14041.06776011546
 21
853.874748214644
 31
0.0
1001
AUTOCAD_POSTSCRIPT_FIGURE
1002
{
1000
PSFILL
1000
Grayscale
1000
Grayscale
1070
   100
1002
}
  0
LINE
  5
1735A
330
17201
100
AcDbEntity
  8
YODOROGO
100
AcDbLine
 10
13904.80217064596
 20
804.3859520216292
 30
0.0
 11
13904.80217064596
 21
816.3859520216298
 31
0.0
  0
LINE
  5
1735B
330
17201
100
AcDbEntity
  8
YODOROGO
100
AcDbLine
 10
13952.80217064596
 20
804.3859520216292
 30
0.0
 11
13904.80217064596
 21
804.3859520216292
 31
0.0
  0
LINE
  5
1735C
330
17201
100
AcDbEntity
  8
YODOROGO
100
AcDbLine
 10
13952.80217064596
 20
816.3859520216298
 30
0.0
 11
13952.80217064596
 21
804.3859520216292
 31
0.0
  0
LINE
  5
1735D
330
17201
100
AcDbEntity
  8
YODOROGO
100
AcDbLine
 10
13904.80217064596
 20
816.3859520216298
 30
0.0
 11
13952.80217064596
 21
816.3859520216298
 31
0.0
  0
LINE
  5
1735E
330
17201
100
AcDbEntity
  8
YODOROGO
100
AcDbLine
 10
13912.25479445787
 20
784.2514286852374
 30
0.0
 11
13892.80217064596
 21
737.8747482146435
 31
0.0
1001
AUTOCAD_POSTSCRIPT_FIGURE
1002
{
1000
PSFILL
1000
Grayscale
1000
Grayscale
1070
   100
1002
}
  0
LINE
  5
1735F
330
17201
100
AcDbEntity
  8
YODOROGO
100
AcDbLine
 10
13888.80217064596
 20
784.2514286852374
 30
0.0
 11
13912.25479445787
 21
784.2514286852374
 31
0.0
1001
AUTOCAD_POSTSCRIPT_FIGURE
1002
{
1000
PSFILL
1000
Grayscale
1000
Grayscale
1070
   100
1002
}
  0
LINE
  5
17360
330
17201
100
AcDbEntity
  8
YODOROGO
100
AcDbLine
 10
13888.80217064596
 20
794.2514286852374
 30
0.0
 11
13888.80217064596
 21
784.2514286852374
 31
0.0
1001
AUTOCAD_POSTSCRIPT_FIGURE
1002
{
1000
PSFILL
1000
Grayscale
1000
Grayscale
1070
   100
1002
}
  0
LINE
  5
17361
330
17201
100
AcDbEntity
  8
YODOROGO
100
AcDbLine
 10
13968.80217064596
 20
794.2514286852374
 30
0.0
 11
13888.80217064596
 21
794.2514286852374
 31
0.0
1001
AUTOCAD_POSTSCRIPT_FIGURE
1002
{
1000
PSFILL
1000
Grayscale
1000
Grayscale
1070
   100
1002
}
  0
LINE
  5
17362
330
17201
100
AcDbEntity
  8
YODOROGO
100
AcDbLine
 10
13968.80217064596
 20
784.2514286852374
 30
0.0
 11
13968.80217064596
 21
794.2514286852374
 31
0.0
1001
AUTOCAD_POSTSCRIPT_FIGURE
1002
{
1000
PSFILL
1000
Grayscale
1000
Grayscale
1070
   100
1002
}
  0
LINE
  5
17363
330
17201
100
AcDbEntity
  8
YODOROGO
100
AcDbLine
 10
13922.25479445786
 20
784.2514286852374
 30
0.0
 11
13968.80217064596
 21
784.2514286852374
 31
0.0
1001
AUTOCAD_POSTSCRIPT_FIGURE
1002
{
1000
PSFILL
1000
Grayscale
1000
Grayscale
1070
   100
1002
}
  0
LINE
  5
17364
330
17201
100
AcDbEntity
  8
YODOROGO
100
AcDbLine
 10
13907.77335914238
 20
747.8747482146435
 30
0.0
 11
13922.25479445786
 21
784.2514286852374
 31
0.0
1001
AUTOCAD_POSTSCRIPT_FIGURE
1002
{
1000
PSFILL
1000
Grayscale
1000
Grayscale
1070
   100
1002
}
  0
LINE
  5
17365
330
17201
100
AcDbEntity
  8
YODOROGO
100
AcDbLine
 10
13951.02739540432
 20
747.8747482146435
 30
0.0
 11
13907.77335914238
 21
747.8747482146435
 31
0.0
1001
AUTOCAD_POSTSCRIPT_FIGURE
1002
{
1000
PSFILL
1000
Grayscale
1000
Grayscale
1070
   100
1002
}
  0
LINE
  5
17366
330
17201
100
AcDbEntity
  8
YODOROGO
100
AcDbLine
 10
13942.53250239547
 20
768.1169053488464
 30
0.0
 11
13951.02739540432
 21
747.8747482146435
 31
0.0
1001
AUTOCAD_POSTSCRIPT_FIGURE
1002
{
1000
PSFILL
1000
Grayscale
1000
Grayscale
1070
   100
1002
}
  0
LINE
  5
17367
330
17201
100
AcDbEntity
  8
YODOROGO
100
AcDbLine
 10
13950.53250239547
 20
768.1169053488464
 30
0.0
 11
13942.53250239547
 21
768.1169053488464
 31
0.0
1001
AUTOCAD_POSTSCRIPT_FIGURE
1002
{
1000
PSFILL
1000
Grayscale
1000
Grayscale
1070
   100
1002
}
  0
LINE
  5
17368
330
17201
100
AcDbEntity
  8
YODOROGO
100
AcDbLine
 10
13964.80217064596
 20
737.8747482146435
 30
0.0
 11
13950.53250239547
 21
768.1169053488464
 31
0.0
1001
AUTOCAD_POSTSCRIPT_FIGURE
1002
{
1000
PSFILL
1000
Grayscale
1000
Grayscale
1070
   100
1002
}
  0
LINE
  5
17369
330
17201
100
AcDbEntity
  8
YODOROGO
100
AcDbLine
 10
13892.80217064596
 20
737.8747482146435
 30
0.0
 11
13964.80217064596
 21
737.8747482146435
 31
0.0
1001
AUTOCAD_POSTSCRIPT_FIGURE
1002
{
1000
PSFILL
1000
Grayscale
1000
Grayscale
1070
   100
1002
}
  0
LINE
  5
1736A
330
17201
100
AcDbEntity
  8
YODOROGO
100
AcDbLine
 10
13888.80217064596
 20
809.9862070222856
 30
0.0
 11
13888.80217064596
 21
821.986207022285
 31
0.0
  0
LINE
  5
1736B
330
17201
100
AcDbEntity
  8
YODOROGO
100
AcDbLine
 10
13968.80217064596
 20
821.986207022285
 30
0.0
 11
13968.80217064596
 21
809.9862070222856
 31
0.0
  0
ARC
  5
1736C
330
17201
100
AcDbEntity
  8
YODOROGO
100
AcDbCircle
 10
14112.97022107348
 20
800.438882662663
 30
0.0
 40
87.99999999999995
100
AcDbArc
 50
280.3644312771313
 51
3.541483659218056
  0
ARC
  5
1736D
330
17201
100
AcDbEntity
  8
YODOROGO
100
AcDbCircle
 10
14117.87801537965
 20
816.798903480952
 30
0.0
 40
55.99999999999914
100
AcDbArc
 50
281.2490582504155
 51
348.7509417495832
  0
LINE
  5
1736E
330
17201
100
AcDbEntity
  8
YODOROGO
100
AcDbLine
 10
14128.80217064596
 20
761.8747482146434
 30
0.0
 11
14128.80217064596
 21
713.8747482146436
 31
0.0
  0
LINE
  5
1736F
330
17201
100
AcDbEntity
  8
YODOROGO
100
AcDbLine
 10
14010.04445186845
 20
805.3252825309574
 30
0.0
 11
14020.45660200844
 21
829.874748214644
 31
0.0
  0
LINE
  5
17370
330
17201
100
AcDbEntity
  8
YODOROGO
100
AcDbLine
 10
14020.80217064596
 20
791.5602449742006
 30
0.0
 11
14010.04445186845
 21
805.3252825309574
 31
0.0
  0
LINE
  5
17371
330
17201
100
AcDbEntity
  8
YODOROGO
100
AcDbLine
 10
14020.80217064596
 20
781.5602449741994
 30
0.0
 11
14020.80217064596
 21
791.5602449742006
 31
0.0
  0
LINE
  5
17372
330
17201
100
AcDbEntity
  8
YODOROGO
100
AcDbLine
 10
14008.80217064596
 20
792.6185318747651
 30
0.0
 11
14020.80217064596
 21
781.5602449741994
 31
0.0
  0
LINE
  5
17373
330
17201
100
AcDbEntity
  8
YODOROGO
100
AcDbLine
 10
14008.80217064596
 20
737.8747482146435
 30
0.0
 11
14008.80217064596
 21
792.6185318747651
 31
0.0
  0
LINE
  5
17374
330
17201
100
AcDbEntity
  8
YODOROGO
100
AcDbLine
 10
14000.80217064596
 20
737.8747482146435
 30
0.0
 11
14008.80217064596
 21
737.8747482146435
 31
0.0
  0
LINE
  5
17375
330
17201
100
AcDbEntity
  8
YODOROGO
100
AcDbLine
 10
14000.80217064596
 20
790.0026748448738
 30
0.0
 11
14000.80217064596
 21
737.8747482146435
 31
0.0
  0
LINE
  5
17376
330
17201
100
AcDbEntity
  8
YODOROGO
100
AcDbLine
 10
13988.80217064596
 20
766.3840395167142
 30
0.0
 11
14000.80217064596
 21
790.0026748448738
 31
0.0
  0
LINE
  5
17377
330
17201
100
AcDbEntity
  8
YODOROGO
100
AcDbLine
 10
13988.80217064596
 20
778.3840395167149
 30
0.0
 11
13988.80217064596
 21
766.3840395167142
 31
0.0
  0
LINE
  5
17378
330
17201
100
AcDbEntity
  8
YODOROGO
100
AcDbLine
 10
14012.91438714567
 20
833.8747482146427
 30
0.0
 11
13988.80217064596
 21
778.3840395167149
 31
0.0
  0
LINE
  5
17379
330
17201
100
AcDbEntity
  8
YODOROGO
100
AcDbLine
 10
13988.80217064596
 20
833.8747482146427
 30
0.0
 11
14012.91438714567
 21
833.8747482146427
 31
0.0
  0
LINE
  5
1737A
330
17201
100
AcDbEntity
  8
YODOROGO
100
AcDbLine
 10
14025.06776011545
 20
827.751818637328
 30
0.0
 11
14041.06776011546
 21
827.751818637328
 31
0.0
1001
AUTOCAD_POSTSCRIPT_FIGURE
1002
{
1000
PSFILL
1000
Grayscale
1000
Grayscale
1070
   100
1002
}
  0
LINE
  5
1737B
330
17201
100
AcDbEntity
  8
YODOROGO
100
AcDbLine
 10
14025.06776011545
 20
815.7518186373286
 30
0.0
 11
14025.06776011545
 21
827.751818637328
 31
0.0
1001
AUTOCAD_POSTSCRIPT_FIGURE
1002
{
1000
PSFILL
1000
Grayscale
1000
Grayscale
1070
   100
1002
}
  0
LINE
  5
1737C
330
17201
100
AcDbEntity
  8
YODOROGO
100
AcDbLine
 10
14041.06776011546
 20
815.7518186373286
 30
0.0
 11
14025.06776011545
 21
815.7518186373286
 31
0.0
1001
AUTOCAD_POSTSCRIPT_FIGURE
1002
{
1000
PSFILL
1000
Grayscale
1000
Grayscale
1070
   100
1002
}
  0
LINE
  5
1737D
330
17201
100
AcDbEntity
  8
YODOROGO
100
AcDbLine
 10
14041.06776011546
 20
749.8747482146441
 30
0.0
 11
14041.06776011546
 21
815.7518186373286
 31
0.0
1001
AUTOCAD_POSTSCRIPT_FIGURE
1002
{
1000
PSFILL
1000
Grayscale
1000
Grayscale
1070
   100
1002
}
  0
LINE
  5
1737E
330
17201
100
AcDbEntity
  8
YODOROGO
100
AcDbLine
 10
14025.06776011545
 20
749.8747482146441
 30
0.0
 11
14041.06776011546
 21
749.8747482146441
 31
0.0
1001
AUTOCAD_POSTSCRIPT_FIGURE
1002
{
1000
PSFILL
1000
Grayscale
1000
Grayscale
1070
   100
1002
}
  0
LINE
  5
1737F
330
17201
100
AcDbEntity
  8
YODOROGO
100
AcDbLine
 10
14025.06776011545
 20
737.8747482146435
 30
0.0
 11
14025.06776011545
 21
749.8747482146441
 31
0.0
1001
AUTOCAD_POSTSCRIPT_FIGURE
1002
{
1000
PSFILL
1000
Grayscale
1000
Grayscale
1070
   100
1002
}
  0
LINE
  5
17380
330
17201
100
AcDbEntity
  8
YODOROGO
100
AcDbLine
 10
14068.80217064596
 20
737.8747482146435
 30
0.0
 11
14025.06776011545
 21
737.8747482146435
 31
0.0
1001
AUTOCAD_POSTSCRIPT_FIGURE
1002
{
1000
PSFILL
1000
Grayscale
1000
Grayscale
1070
   100
1002
}
  0
LINE
  5
17381
330
17201
100
AcDbEntity
  8
YODOROGO
100
AcDbLine
 10
14068.80217064596
 20
749.8747482146441
 30
0.0
 11
14068.80217064596
 21
737.8747482146435
 31
0.0
1001
AUTOCAD_POSTSCRIPT_FIGURE
1002
{
1000
PSFILL
1000
Grayscale
1000
Grayscale
1070
   100
1002
}
  0
LINE
  5
17382
330
17201
100
AcDbEntity
  8
YODOROGO
100
AcDbLine
 10
14049.06776011545
 20
749.8747482146441
 30
0.0
 11
14068.80217064596
 21
749.8747482146441
 31
0.0
1001
AUTOCAD_POSTSCRIPT_FIGURE
1002
{
1000
PSFILL
1000
Grayscale
1000
Grayscale
1070
   100
1002
}
  0
LINE
  5
17383
330
17201
100
AcDbEntity
  8
YODOROGO
100
AcDbLine
 10
14049.06776011545
 20
815.7518186373286
 30
0.0
 11
14049.06776011545
 21
749.8747482146441
 31
0.0
1001
AUTOCAD_POSTSCRIPT_FIGURE
1002
{
1000
PSFILL
1000
Grayscale
1000
Grayscale
1070
   100
1002
}
  0
LINE
  5
17384
330
17201
100
AcDbEntity
  8
YODOROGO
100
AcDbLine
 10
14068.80217064596
 20
815.7518186373286
 30
0.0
 11
14049.06776011545
 21
815.7518186373286
 31
0.0
1001
AUTOCAD_POSTSCRIPT_FIGURE
1002
{
1000
PSFILL
1000
Grayscale
1000
Grayscale
1070
   100
1002
}
  0
LINE
  5
17385
330
17201
100
AcDbEntity
  8
YODOROGO
100
AcDbLine
 10
14068.80217064596
 20
827.751818637328
 30
0.0
 11
14068.80217064596
 21
815.7518186373286
 31
0.0
1001
AUTOCAD_POSTSCRIPT_FIGURE
1002
{
1000
PSFILL
1000
Grayscale
1000
Grayscale
1070
   100
1002
}
  0
LINE
  5
17386
330
17201
100
AcDbEntity
  8
YODOROGO
100
AcDbLine
 10
14049.06776011545
 20
827.751818637328
 30
0.0
 11
14068.80217064596
 21
827.751818637328
 31
0.0
1001
AUTOCAD_POSTSCRIPT_FIGURE
1002
{
1000
PSFILL
1000
Grayscale
1000
Grayscale
1070
   100
1002
}
  0
LINE
  5
17387
330
17201
100
AcDbEntity
  8
YODOROGO
100
AcDbLine
 10
14200.80217064594
 20
833.8747482146439
 30
0.0
 11
14172.80217064596
 21
833.8747482146439
 31
0.0
  0
LINE
  5
17388
330
17201
100
AcDbEntity
  8
YODOROGO
100
AcDbLine
 10
14200.80217064594
 20
805.8747482146443
 30
0.0
 11
14200.80217064594
 21
833.8747482146439
 31
0.0
  0
LINE
  5
17389
330
17201
100
AcDbEntity
  8
YODOROGO
100
AcDbLine
 10
14172.80217064596
 20
833.8747482146439
 30
0.0
 11
14172.80217064596
 21
805.8747482146443
 31
0.0
  0
ARC
  5
1738A
330
17201
100
AcDbEntity
  8
YODOROGO
100
AcDbCircle
 10
14256.80217064594
 20
753.8747482146439
 30
0.0
 40
40.0
100
AcDbArc
 50
180.0
 51
270.0
  0
ARC
  5
1738B
330
17201
100
AcDbEntity
  8
YODOROGO
100
AcDbCircle
 10
14268.80217064594
 20
781.8747482146434
 30
0.0
 40
20.0
100
AcDbArc
 50
180.0
 51
270.0
  0
LINE
  5
1738C
330
17201
100
AcDbEntity
  8
YODOROGO
100
AcDbLine
 10
14280.80217064596
 20
761.8747482146434
 30
0.0
 11
14268.80217064594
 21
761.8747482146434
 31
0.0
  0
ARC
  5
1738D
330
17201
100
AcDbEntity
  8
YODOROGO
100
AcDbCircle
 10
14280.80217064596
 20
773.8747482146427
 30
0.0
 40
11.99999999999818
100
AcDbArc
 50
270.0
 51
0.0000000000054281
  0
LINE
  5
1738E
330
17201
100
AcDbEntity
  8
YODOROGO
100
AcDbLine
 10
13900.80217064596
 20
945.3932903968532
 30
0.0
 11
13888.80217064596
 21
921.8883739758362
 31
0.0
1001
AUTOCAD_POSTSCRIPT_FIGURE
1002
{
1000
PSFILL
1000
Grayscale
1000
Grayscale
1070
   100
1002
}
  0
LINE
  5
1738F
330
17201
100
AcDbEntity
  8
YODOROGO
100
AcDbLine
 10
13900.80217064596
 20
873.8747482146434
 30
0.0
 11
13900.80217064596
 21
945.3932903968532
 31
0.0
1001
AUTOCAD_POSTSCRIPT_FIGURE
1002
{
1000
PSFILL
1000
Grayscale
1000
Grayscale
1070
   100
1002
}
  0
LINE
  5
17390
330
17201
100
AcDbEntity
  8
YODOROGO
100
AcDbLine
 10
13908.80217064596
 20
873.8747482146434
 30
0.0
 11
13900.80217064596
 21
873.8747482146434
 31
0.0
1001
AUTOCAD_POSTSCRIPT_FIGURE
1002
{
1000
PSFILL
1000
Grayscale
1000
Grayscale
1070
   100
1002
}
  0
LINE
  5
17391
330
17201
100
AcDbEntity
  8
YODOROGO
100
AcDbLine
 10
13908.80217064596
 20
946.8856660426332
 30
0.0
 11
13908.80217064596
 21
873.8747482146434
 31
0.0
1001
AUTOCAD_POSTSCRIPT_FIGURE
1002
{
1000
PSFILL
1000
Grayscale
1000
Grayscale
1070
   100
1002
}
  0
LINE
  5
17392
330
17201
100
AcDbEntity
  8
YODOROGO
100
AcDbLine
 10
13920.80217064596
 20
933.8273791420684
 30
0.0
 11
13908.80217064596
 21
946.8856660426332
 31
0.0
1001
AUTOCAD_POSTSCRIPT_FIGURE
1002
{
1000
PSFILL
1000
Grayscale
1000
Grayscale
1070
   100
1002
}
  0
LINE
  5
17393
330
17201
100
AcDbEntity
  8
YODOROGO
100
AcDbLine
 10
13920.80217064596
 20
941.8273791420681
 30
0.0
 11
13920.80217064596
 21
933.8273791420684
 31
0.0
1001
AUTOCAD_POSTSCRIPT_FIGURE
1002
{
1000
PSFILL
1000
Grayscale
1000
Grayscale
1070
   100
1002
}
  0
LINE
  5
17394
330
17201
100
AcDbEntity
  8
YODOROGO
100
AcDbLine
 10
13908.80217064596
 20
958.8856660426325
 30
0.0
 11
13920.80217064596
 21
941.8273791420681
 31
0.0
1001
AUTOCAD_POSTSCRIPT_FIGURE
1002
{
1000
PSFILL
1000
Grayscale
1000
Grayscale
1070
   100
1002
}
  0
LINE
  5
17395
330
17201
100
AcDbEntity
  8
YODOROGO
100
AcDbLine
 10
13908.80217064596
 20
969.8747482146441
 30
0.0
 11
13908.80217064596
 21
958.8856660426325
 31
0.0
1001
AUTOCAD_POSTSCRIPT_FIGURE
1002
{
1000
PSFILL
1000
Grayscale
1000
Grayscale
1070
   100
1002
}
  0
LINE
  5
17396
330
17201
100
AcDbEntity
  8
YODOROGO
100
AcDbLine
 10
13944.80217064596
 20
969.8747482146441
 30
0.0
 11
13908.80217064596
 21
969.8747482146441
 31
0.0
1001
AUTOCAD_POSTSCRIPT_FIGURE
1002
{
1000
PSFILL
1000
Grayscale
1000
Grayscale
1070
   100
1002
}
  0
LINE
  5
17397
330
17201
100
AcDbEntity
  8
YODOROGO
100
AcDbLine
 10
13944.80217064596
 20
950.2841744681497
 30
0.0
 11
13944.80217064596
 21
969.8747482146441
 31
0.0
1001
AUTOCAD_POSTSCRIPT_FIGURE
1002
{
1000
PSFILL
1000
Grayscale
1000
Grayscale
1070
   100
1002
}
  0
LINE
  5
17398
330
17201
100
AcDbEntity
  8
YODOROGO
100
AcDbLine
 10
13928.80217064596
 20
950.2841744681497
 30
0.0
 11
13944.80217064596
 21
950.2841744681497
 31
0.0
1001
AUTOCAD_POSTSCRIPT_FIGURE
1002
{
1000
PSFILL
1000
Grayscale
1000
Grayscale
1070
   100
1002
}
  0
LINE
  5
17399
330
17201
100
AcDbEntity
  8
YODOROGO
100
AcDbLine
 10
13928.80217064596
 20
942.2841744681491
 30
0.0
 11
13928.80217064596
 21
950.2841744681497
 31
0.0
1001
AUTOCAD_POSTSCRIPT_FIGURE
1002
{
1000
PSFILL
1000
Grayscale
1000
Grayscale
1070
   100
1002
}
  0
LINE
  5
1739A
330
17201
100
AcDbEntity
  8
YODOROGO
100
AcDbLine
 10
13944.80217064596
 20
942.2841744681491
 30
0.0
 11
13928.80217064596
 21
942.2841744681491
 31
0.0
1001
AUTOCAD_POSTSCRIPT_FIGURE
1002
{
1000
PSFILL
1000
Grayscale
1000
Grayscale
1070
   100
1002
}
  0
LINE
  5
1739B
330
17201
100
AcDbEntity
  8
YODOROGO
100
AcDbLine
 10
13944.80217064596
 20
939.8095889822196
 30
0.0
 11
13944.80217064596
 21
942.2841744681491
 31
0.0
1001
AUTOCAD_POSTSCRIPT_FIGURE
1002
{
1000
PSFILL
1000
Grayscale
1000
Grayscale
1070
   100
1002
}
  0
LINE
  5
1739C
330
17201
100
AcDbEntity
  8
YODOROGO
100
AcDbLine
 10
13924.80217064596
 20
906.4874905807087
 30
0.0
 11
13944.80217064596
 21
939.8095889822196
 31
0.0
1001
AUTOCAD_POSTSCRIPT_FIGURE
1002
{
1000
PSFILL
1000
Grayscale
1000
Grayscale
1070
   100
1002
}
  0
LINE
  5
1739D
330
17201
100
AcDbEntity
  8
YODOROGO
100
AcDbLine
 10
13924.80217064596
 20
898.487490580708
 30
0.0
 11
13924.80217064596
 21
906.4874905807087
 31
0.0
1001
AUTOCAD_POSTSCRIPT_FIGURE
1002
{
1000
PSFILL
1000
Grayscale
1000
Grayscale
1070
   100
1002
}
  0
LINE
  5
1739E
330
17201
100
AcDbEntity
  8
YODOROGO
100
AcDbLine
 10
13944.80217064596
 20
923.8095889822183
 30
0.0
 11
13924.80217064596
 21
898.487490580708
 31
0.0
1001
AUTOCAD_POSTSCRIPT_FIGURE
1002
{
1000
PSFILL
1000
Grayscale
1000
Grayscale
1070
   100
1002
}
  0
LINE
  5
1739F
330
17201
100
AcDbEntity
  8
YODOROGO
100
AcDbLine
 10
13944.80217064596
 20
873.8747482146434
 30
0.0
 11
13944.80217064596
 21
923.8095889822183
 31
0.0
1001
AUTOCAD_POSTSCRIPT_FIGURE
1002
{
1000
PSFILL
1000
Grayscale
1000
Grayscale
1070
   100
1002
}
  0
LINE
  5
173A0
330
17201
100
AcDbEntity
  8
YODOROGO
100
AcDbLine
 10
13952.80217064596
 20
873.8747482146434
 30
0.0
 11
13944.80217064596
 21
873.8747482146434
 31
0.0
1001
AUTOCAD_POSTSCRIPT_FIGURE
1002
{
1000
PSFILL
1000
Grayscale
1000
Grayscale
1070
   100
1002
}
  0
LINE
  5
173A1
330
17201
100
AcDbEntity
  8
YODOROGO
100
AcDbLine
 10
13952.80217064596
 20
924.7045060794032
 30
0.0
 11
13952.80217064596
 21
873.8747482146434
 31
0.0
1001
AUTOCAD_POSTSCRIPT_FIGURE
1002
{
1000
PSFILL
1000
Grayscale
1000
Grayscale
1070
   100
1002
}
  0
LINE
  5
173A2
330
17201
100
AcDbEntity
  8
YODOROGO
100
AcDbLine
 10
13968.80217064596
 20
898.487490580708
 30
0.0
 11
13952.80217064596
 21
924.7045060794032
 31
0.0
1001
AUTOCAD_POSTSCRIPT_FIGURE
1002
{
1000
PSFILL
1000
Grayscale
1000
Grayscale
1070
   100
1002
}
  0
LINE
  5
173A3
330
17201
100
AcDbEntity
  8
YODOROGO
100
AcDbLine
 10
13968.80217064596
 20
906.4874905807087
 30
0.0
 11
13968.80217064596
 21
898.487490580708
 31
0.0
1001
AUTOCAD_POSTSCRIPT_FIGURE
1002
{
1000
PSFILL
1000
Grayscale
1000
Grayscale
1070
   100
1002
}
  0
LINE
  5
173A4
330
17201
100
AcDbEntity
  8
YODOROGO
100
AcDbLine
 10
13952.80217064596
 20
940.7045060794041
 30
0.0
 11
13968.80217064596
 21
906.4874905807087
 31
0.0
1001
AUTOCAD_POSTSCRIPT_FIGURE
1002
{
1000
PSFILL
1000
Grayscale
1000
Grayscale
1070
   100
1002
}
  0
LINE
  5
173A5
330
17201
100
AcDbEntity
  8
YODOROGO
100
AcDbLine
 10
13952.80217064596
 20
942.2841744681502
 30
0.0
 11
13952.80217064596
 21
940.7045060794041
 31
0.0
1001
AUTOCAD_POSTSCRIPT_FIGURE
1002
{
1000
PSFILL
1000
Grayscale
1000
Grayscale
1070
   100
1002
}
  0
LINE
  5
173A6
330
17201
100
AcDbEntity
  8
YODOROGO
100
AcDbLine
 10
13968.80217064596
 20
942.2841744681491
 30
0.0
 11
13952.80217064596
 21
942.2841744681502
 31
0.0
1001
AUTOCAD_POSTSCRIPT_FIGURE
1002
{
1000
PSFILL
1000
Grayscale
1000
Grayscale
1070
   100
1002
}
  0
LINE
  5
173A7
330
17201
100
AcDbEntity
  8
YODOROGO
100
AcDbLine
 10
13968.80217064596
 20
950.2841744681497
 30
0.0
 11
13968.80217064596
 21
942.2841744681491
 31
0.0
1001
AUTOCAD_POSTSCRIPT_FIGURE
1002
{
1000
PSFILL
1000
Grayscale
1000
Grayscale
1070
   100
1002
}
  0
LINE
  5
173A8
330
17201
100
AcDbEntity
  8
YODOROGO
100
AcDbLine
 10
13952.80217064596
 20
950.2841744681497
 30
0.0
 11
13968.80217064596
 21
950.2841744681497
 31
0.0
1001
AUTOCAD_POSTSCRIPT_FIGURE
1002
{
1000
PSFILL
1000
Grayscale
1000
Grayscale
1070
   100
1002
}
  0
LINE
  5
173A9
330
17201
100
AcDbEntity
  8
YODOROGO
100
AcDbLine
 10
13952.80217064596
 20
969.8747482146441
 30
0.0
 11
13952.80217064596
 21
950.2841744681497
 31
0.0
1001
AUTOCAD_POSTSCRIPT_FIGURE
1002
{
1000
PSFILL
1000
Grayscale
1000
Grayscale
1070
   100
1002
}
  0
LINE
  5
173AA
330
17201
100
AcDbEntity
  8
YODOROGO
100
AcDbLine
 10
13968.80217064596
 20
969.8747482146441
 30
0.0
 11
13952.80217064596
 21
969.8747482146441
 31
0.0
1001
AUTOCAD_POSTSCRIPT_FIGURE
1002
{
1000
PSFILL
1000
Grayscale
1000
Grayscale
1070
   100
1002
}
  0
LINE
  5
173AB
330
17201
100
AcDbEntity
  8
YODOROGO
100
AcDbLine
 10
13968.80217064596
 20
977.8747482146435
 30
0.0
 11
13968.80217064596
 21
969.8747482146441
 31
0.0
1001
AUTOCAD_POSTSCRIPT_FIGURE
1002
{
1000
PSFILL
1000
Grayscale
1000
Grayscale
1070
   100
1002
}
  0
LINE
  5
173AC
330
17201
100
AcDbEntity
  8
YODOROGO
100
AcDbLine
 10
13952.80217064596
 20
977.8747482146435
 30
0.0
 11
13968.80217064596
 21
977.8747482146435
 31
0.0
1001
AUTOCAD_POSTSCRIPT_FIGURE
1002
{
1000
PSFILL
1000
Grayscale
1000
Grayscale
1070
   100
1002
}
  0
LINE
  5
173AD
330
17201
100
AcDbEntity
  8
YODOROGO
100
AcDbLine
 10
13952.80217064596
 20
989.8747482146442
 30
0.0
 11
13952.80217064596
 21
977.8747482146435
 31
0.0
1001
AUTOCAD_POSTSCRIPT_FIGURE
1002
{
1000
PSFILL
1000
Grayscale
1000
Grayscale
1070
   100
1002
}
  0
LINE
  5
173AE
330
17201
100
AcDbEntity
  8
YODOROGO
100
AcDbLine
 10
13944.80217064596
 20
989.8747482146442
 30
0.0
 11
13952.80217064596
 21
989.8747482146442
 31
0.0
1001
AUTOCAD_POSTSCRIPT_FIGURE
1002
{
1000
PSFILL
1000
Grayscale
1000
Grayscale
1070
   100
1002
}
  0
LINE
  5
173AF
330
17201
100
AcDbEntity
  8
YODOROGO
100
AcDbLine
 10
13944.80217064596
 20
977.8747482146435
 30
0.0
 11
13944.80217064596
 21
989.8747482146442
 31
0.0
1001
AUTOCAD_POSTSCRIPT_FIGURE
1002
{
1000
PSFILL
1000
Grayscale
1000
Grayscale
1070
   100
1002
}
  0
LINE
  5
173B0
330
17201
100
AcDbEntity
  8
YODOROGO
100
AcDbLine
 10
13932.80217064596
 20
977.8747482146435
 30
0.0
 11
13944.80217064596
 21
977.8747482146435
 31
0.0
1001
AUTOCAD_POSTSCRIPT_FIGURE
1002
{
1000
PSFILL
1000
Grayscale
1000
Grayscale
1070
   100
1002
}
  0
LINE
  5
173B1
330
17201
100
AcDbEntity
  8
YODOROGO
100
AcDbLine
 10
13932.80217064596
 20
989.8747482146442
 30
0.0
 11
13932.80217064596
 21
977.8747482146435
 31
0.0
1001
AUTOCAD_POSTSCRIPT_FIGURE
1002
{
1000
PSFILL
1000
Grayscale
1000
Grayscale
1070
   100
1002
}
  0
LINE
  5
173B2
330
17201
100
AcDbEntity
  8
YODOROGO
100
AcDbLine
 10
13924.80217064596
 20
989.8747482146442
 30
0.0
 11
13932.80217064596
 21
989.8747482146442
 31
0.0
1001
AUTOCAD_POSTSCRIPT_FIGURE
1002
{
1000
PSFILL
1000
Grayscale
1000
Grayscale
1070
   100
1002
}
  0
LINE
  5
173B3
330
17201
100
AcDbEntity
  8
YODOROGO
100
AcDbLine
 10
13924.80217064596
 20
977.8747482146435
 30
0.0
 11
13924.80217064596
 21
989.8747482146442
 31
0.0
1001
AUTOCAD_POSTSCRIPT_FIGURE
1002
{
1000
PSFILL
1000
Grayscale
1000
Grayscale
1070
   100
1002
}
  0
LINE
  5
173B4
330
17201
100
AcDbEntity
  8
YODOROGO
100
AcDbLine
 10
13908.80217064596
 20
977.8747482146435
 30
0.0
 11
13924.80217064596
 21
977.8747482146435
 31
0.0
1001
AUTOCAD_POSTSCRIPT_FIGURE
1002
{
1000
PSFILL
1000
Grayscale
1000
Grayscale
1070
   100
1002
}
  0
LINE
  5
173B5
330
17201
100
AcDbEntity
  8
YODOROGO
100
AcDbLine
 10
13908.80217064596
 20
989.8747482146442
 30
0.0
 11
13908.80217064596
 21
977.8747482146435
 31
0.0
1001
AUTOCAD_POSTSCRIPT_FIGURE
1002
{
1000
PSFILL
1000
Grayscale
1000
Grayscale
1070
   100
1002
}
  0
LINE
  5
173B6
330
17201
100
AcDbEntity
  8
YODOROGO
100
AcDbLine
 10
13900.80217064596
 20
989.8747482146442
 30
0.0
 11
13908.80217064596
 21
989.8747482146442
 31
0.0
1001
AUTOCAD_POSTSCRIPT_FIGURE
1002
{
1000
PSFILL
1000
Grayscale
1000
Grayscale
1070
   100
1002
}
  0
LINE
  5
173B7
330
17201
100
AcDbEntity
  8
YODOROGO
100
AcDbLine
 10
13900.80217064596
 20
977.8747482146435
 30
0.0
 11
13900.80217064596
 21
989.8747482146442
 31
0.0
1001
AUTOCAD_POSTSCRIPT_FIGURE
1002
{
1000
PSFILL
1000
Grayscale
1000
Grayscale
1070
   100
1002
}
  0
LINE
  5
173B8
330
17201
100
AcDbEntity
  8
YODOROGO
100
AcDbLine
 10
13888.80217064596
 20
977.8747482146435
 30
0.0
 11
13900.80217064596
 21
977.8747482146435
 31
0.0
1001
AUTOCAD_POSTSCRIPT_FIGURE
1002
{
1000
PSFILL
1000
Grayscale
1000
Grayscale
1070
   100
1002
}
  0
LINE
  5
173B9
330
17201
100
AcDbEntity
  8
YODOROGO
100
AcDbLine
 10
13888.80217064596
 20
969.8747482146441
 30
0.0
 11
13888.80217064596
 21
977.8747482146435
 31
0.0
1001
AUTOCAD_POSTSCRIPT_FIGURE
1002
{
1000
PSFILL
1000
Grayscale
1000
Grayscale
1070
   100
1002
}
  0
LINE
  5
173BA
330
17201
100
AcDbEntity
  8
YODOROGO
100
AcDbLine
 10
13900.80217064596
 20
969.8747482146441
 30
0.0
 11
13888.80217064596
 21
969.8747482146441
 31
0.0
1001
AUTOCAD_POSTSCRIPT_FIGURE
1002
{
1000
PSFILL
1000
Grayscale
1000
Grayscale
1070
   100
1002
}
  0
LINE
  5
173BB
330
17201
100
AcDbEntity
  8
YODOROGO
100
AcDbLine
 10
13900.80217064596
 20
957.3932903968525
 30
0.0
 11
13900.80217064596
 21
969.8747482146441
 31
0.0
1001
AUTOCAD_POSTSCRIPT_FIGURE
1002
{
1000
PSFILL
1000
Grayscale
1000
Grayscale
1070
   100
1002
}
  0
LINE
  5
173BC
330
17201
100
AcDbEntity
  8
YODOROGO
100
AcDbLine
 10
13888.80217064596
 20
929.8883739758355
 30
0.0
 11
13900.80217064596
 21
957.3932903968525
 31
0.0
1001
AUTOCAD_POSTSCRIPT_FIGURE
1002
{
1000
PSFILL
1000
Grayscale
1000
Grayscale
1070
   100
1002
}
  0
LINE
  5
173BD
330
17201
100
AcDbEntity
  8
YODOROGO
100
AcDbLine
 10
13888.80217064596
 20
921.8883739758362
 30
0.0
 11
13888.80217064596
 21
929.8883739758355
 31
0.0
1001
AUTOCAD_POSTSCRIPT_FIGURE
1002
{
1000
PSFILL
1000
Grayscale
1000
Grayscale
1070
   100
1002
}
  0
LINE
  5
173BE
330
17201
100
AcDbEntity
  8
YODOROGO
100
AcDbLine
 10
14128.80217064596
 20
933.8747482146439
 30
0.0
 11
14200.80217064594
 21
912.4388128201532
 31
0.0
1001
AUTOCAD_POSTSCRIPT_FIGURE
1002
{
1000
PSFILL
1000
Grayscale
1000
Grayscale
1070
   100
1002
}
  0
LINE
  5
173BF
330
17201
100
AcDbEntity
  8
YODOROGO
100
AcDbLine
 10
14200.80217064594
 20
876.4388128201531
 30
0.0
 11
14128.80217064596
 21
897.8747482146435
 31
0.0
1001
AUTOCAD_POSTSCRIPT_FIGURE
1002
{
1000
PSFILL
1000
Grayscale
1000
Grayscale
1070
   100
1002
}
  0
LINE
  5
173C0
330
17201
100
AcDbEntity
  8
YODOROGO
100
AcDbLine
 10
14200.80217064594
 20
992.4388128201531
 30
0.0
 11
14128.80217064596
 21
1013.874748214644
 31
0.0
1001
AUTOCAD_POSTSCRIPT_FIGURE
1002
{
1000
PSFILL
1000
Grayscale
1000
Grayscale
1070
   100
1002
}
  0
LINE
  5
173C1
330
17201
100
AcDbEntity
  8
YODOROGO
100
AcDbLine
 10
14128.80217064596
 20
979.874748214644
 30
0.0
 11
14200.80217064594
 21
958.4388128201537
 31
0.0
1001
AUTOCAD_POSTSCRIPT_FIGURE
1002
{
1000
PSFILL
1000
Grayscale
1000
Grayscale
1070
   100
1002
}
  0
LINE
  5
173C2
330
17201
100
AcDbEntity
  8
YODOROGO
100
AcDbLine
 10
14128.80217064596
 20
897.8747482146435
 30
0.0
 11
14128.80217064596
 21
933.8747482146439
 31
0.0
1001
AUTOCAD_POSTSCRIPT_FIGURE
1002
{
1000
PSFILL
1000
Grayscale
1000
Grayscale
1070
   100
1002
}
  0
LINE
  5
173C3
330
17201
100
AcDbEntity
  8
YODOROGO
100
AcDbLine
 10
14128.80217064596
 20
1013.874748214644
 30
0.0
 11
14128.80217064596
 21
979.874748214644
 31
0.0
1001
AUTOCAD_POSTSCRIPT_FIGURE
1002
{
1000
PSFILL
1000
Grayscale
1000
Grayscale
1070
   100
1002
}
  0
LINE
  5
173C4
330
17201
100
AcDbEntity
  8
YODOROGO
100
AcDbLine
 10
14040.11816010337
 20
969.8747482146441
 30
0.0
 11
14064.80217064595
 21
873.8747482146434
 31
0.0
1001
AUTOCAD_POSTSCRIPT_FIGURE
1002
{
1000
PSFILL
1000
Grayscale
1000
Grayscale
1070
   100
1002
}
  0
LINE
  5
173C5
330
17201
100
AcDbEntity
  8
YODOROGO
100
AcDbLine
 10
13988.80217064596
 20
969.8747482146441
 30
0.0
 11
14040.11816010337
 21
969.8747482146441
 31
0.0
1001
AUTOCAD_POSTSCRIPT_FIGURE
1002
{
1000
PSFILL
1000
Grayscale
1000
Grayscale
1070
   100
1002
}
  0
LINE
  5
173C6
330
17201
100
AcDbEntity
  8
YODOROGO
100
AcDbLine
 10
13988.80217064596
 20
977.8747482146435
 30
0.0
 11
13988.80217064596
 21
969.8747482146441
 31
0.0
1001
AUTOCAD_POSTSCRIPT_FIGURE
1002
{
1000
PSFILL
1000
Grayscale
1000
Grayscale
1070
   100
1002
}
  0
LINE
  5
173C7
330
17201
100
AcDbEntity
  8
YODOROGO
100
AcDbLine
 10
14038.30343925995
 20
977.8747482146435
 30
0.0
 11
13988.80217064596
 21
977.8747482146435
 31
0.0
1001
AUTOCAD_POSTSCRIPT_FIGURE
1002
{
1000
PSFILL
1000
Grayscale
1000
Grayscale
1070
   100
1002
}
  0
LINE
  5
173C8
330
17201
100
AcDbEntity
  8
YODOROGO
100
AcDbLine
 10
14035.58135799485
 20
989.8747482146442
 30
0.0
 11
14038.30343925995
 21
977.8747482146435
 31
0.0
1001
AUTOCAD_POSTSCRIPT_FIGURE
1002
{
1000
PSFILL
1000
Grayscale
1000
Grayscale
1070
   100
1002
}
  0
LINE
  5
173C9
330
17201
100
AcDbEntity
  8
YODOROGO
100
AcDbLine
 10
14045.58135799485
 20
989.8747482146442
 30
0.0
 11
14035.58135799485
 21
989.8747482146442
 31
0.0
1001
AUTOCAD_POSTSCRIPT_FIGURE
1002
{
1000
PSFILL
1000
Grayscale
1000
Grayscale
1070
   100
1002
}
  0
LINE
  5
173CA
330
17201
100
AcDbEntity
  8
YODOROGO
100
AcDbLine
 10
14047.90343925997
 20
977.8747482146435
 30
0.0
 11
14045.58135799485
 21
989.8747482146442
 31
0.0
1001
AUTOCAD_POSTSCRIPT_FIGURE
1002
{
1000
PSFILL
1000
Grayscale
1000
Grayscale
1070
   100
1002
}
  0
LINE
  5
173CB
330
17201
100
AcDbEntity
  8
YODOROGO
100
AcDbLine
 10
14060.80217064596
 20
977.8747482146435
 30
0.0
 11
14047.90343925997
 21
977.8747482146435
 31
0.0
1001
AUTOCAD_POSTSCRIPT_FIGURE
1002
{
1000
PSFILL
1000
Grayscale
1000
Grayscale
1070
   100
1002
}
  0
LINE
  5
173CC
330
17201
100
AcDbEntity
  8
YODOROGO
100
AcDbLine
 10
14060.80217064596
 20
989.8747482146442
 30
0.0
 11
14060.80217064596
 21
977.8747482146435
 31
0.0
1001
AUTOCAD_POSTSCRIPT_FIGURE
1002
{
1000
PSFILL
1000
Grayscale
1000
Grayscale
1070
   100
1002
}
  0
LINE
  5
173CD
330
17201
100
AcDbEntity
  8
YODOROGO
100
AcDbLine
 10
14068.80217064596
 20
989.8747482146442
 30
0.0
 11
14060.80217064596
 21
989.8747482146442
 31
0.0
1001
AUTOCAD_POSTSCRIPT_FIGURE
1002
{
1000
PSFILL
1000
Grayscale
1000
Grayscale
1070
   100
1002
}
  0
LINE
  5
173CE
330
17201
100
AcDbEntity
  8
YODOROGO
100
AcDbLine
 10
14068.80217064596
 20
977.8747482146435
 30
0.0
 11
14068.80217064596
 21
989.8747482146442
 31
0.0
1001
AUTOCAD_POSTSCRIPT_FIGURE
1002
{
1000
PSFILL
1000
Grayscale
1000
Grayscale
1070
   100
1002
}
  0
LINE
  5
173CF
330
17201
100
AcDbEntity
  8
YODOROGO
100
AcDbLine
 10
14068.80217064596
 20
969.8747482146441
 30
0.0
 11
14068.80217064596
 21
977.8747482146435
 31
0.0
1001
AUTOCAD_POSTSCRIPT_FIGURE
1002
{
1000
PSFILL
1000
Grayscale
1000
Grayscale
1070
   100
1002
}
  0
LINE
  5
173D0
330
17201
100
AcDbEntity
  8
YODOROGO
100
AcDbLine
 10
14049.45149343671
 20
969.8747482146441
 30
0.0
 11
14068.80217064596
 21
969.8747482146441
 31
0.0
1001
AUTOCAD_POSTSCRIPT_FIGURE
1002
{
1000
PSFILL
1000
Grayscale
1000
Grayscale
1070
   100
1002
}
  0
LINE
  5
173D1
330
17201
100
AcDbEntity
  8
YODOROGO
100
AcDbLine
 10
14068.80217064596
 20
873.8747482146434
 30
0.0
 11
14049.45149343671
 21
969.8747482146441
 31
0.0
1001
AUTOCAD_POSTSCRIPT_FIGURE
1002
{
1000
PSFILL
1000
Grayscale
1000
Grayscale
1070
   100
1002
}
  0
LINE
  5
173D2
330
17201
100
AcDbEntity
  8
YODOROGO
100
AcDbLine
 10
14064.80217064595
 20
873.8747482146434
 30
0.0
 11
14068.80217064596
 21
873.8747482146434
 31
0.0
1001
AUTOCAD_POSTSCRIPT_FIGURE
1002
{
1000
PSFILL
1000
Grayscale
1000
Grayscale
1070
   100
1002
}
  0
LINE
  5
173D3
330
17201
100
AcDbEntity
  8
YODOROGO
100
AcDbLine
 10
14039.03460996689
 20
887.8703881493972
 30
0.0
 11
13988.80217064596
 21
873.8747482146434
 31
0.0
  0
LINE
  5
173D4
330
17201
100
AcDbEntity
  8
YODOROGO
100
AcDbLine
 10
14039.03460996689
 20
899.3344897645364
 30
0.0
 11
14039.03460996689
 21
887.8703881493972
 31
0.0
  0
LINE
  5
173D5
330
17201
100
AcDbEntity
  8
YODOROGO
100
AcDbLine
 10
14016.91839030643
 20
893.4084665668834
 30
0.0
 11
14039.03460996689
 21
899.3344897645364
 31
0.0
  0
LINE
  5
173D6
330
17201
100
AcDbEntity
  8
YODOROGO
100
AcDbLine
 10
14016.91839030643
 20
936.2841744681499
 30
0.0
 11
14016.91839030643
 21
893.4084665668834
 31
0.0
  0
LINE
  5
173D7
330
17201
100
AcDbEntity
  8
YODOROGO
100
AcDbLine
 10
14039.03460996689
 20
936.2841744681499
 30
0.0
 11
14016.91839030643
 21
936.2841744681499
 31
0.0
  0
LINE
  5
173D8
330
17201
100
AcDbEntity
  8
YODOROGO
100
AcDbLine
 10
14039.03460996689
 20
946.2841744681487
 30
0.0
 11
14039.03460996689
 21
936.2841744681499
 31
0.0
  0
LINE
  5
173D9
330
17201
100
AcDbEntity
  8
YODOROGO
100
AcDbLine
 10
13988.80217064596
 20
946.2841744681487
 30
0.0
 11
14039.03460996689
 21
946.2841744681487
 31
0.0
  0
LINE
  5
173DA
330
17201
100
AcDbEntity
  8
YODOROGO
100
AcDbLine
 10
13988.80217064596
 20
936.2841744681499
 30
0.0
 11
13988.80217064596
 21
946.2841744681487
 31
0.0
  0
LINE
  5
173DB
330
17201
100
AcDbEntity
  8
YODOROGO
100
AcDbLine
 10
14010.91839030643
 20
936.2841744681499
 30
0.0
 11
13988.80217064596
 21
936.2841744681499
 31
0.0
  0
LINE
  5
173DC
330
17201
100
AcDbEntity
  8
YODOROGO
100
AcDbLine
 10
14010.91839030643
 20
892.3366697971587
 30
0.0
 11
14010.91839030643
 21
936.2841744681499
 31
0.0
  0
LINE
  5
173DD
330
17201
100
AcDbEntity
  8
YODOROGO
100
AcDbLine
 10
13988.80217064596
 20
885.8747482146432
 30
0.0
 11
14010.91839030643
 21
892.3366697971587
 31
0.0
  0
LINE
  5
173DE
330
17201
100
AcDbEntity
  8
YODOROGO
100
AcDbLine
 10
13988.80217064596
 20
873.8747482146434
 30
0.0
 11
13988.80217064596
 21
885.8747482146432
 31
0.0
  0
LINE
  5
173DF
330
17201
100
AcDbEntity
  8
YODOROGO
100
AcDbLine
 10
14000.80217064596
 20
853.874748214644
 30
0.0
 11
14000.80217064596
 21
841.8747482146434
 31
0.0
  0
LINE
  5
173E0
330
17201
100
AcDbEntity
  8
YODOROGO
100
AcDbLine
 10
14000.80217064596
 20
853.874748214644
 30
0.0
 11
14000.80217064596
 21
853.874748214644
 31
0.0
  0
LINE
  5
173E1
330
17201
100
AcDbEntity
  8
YODOROGO
100
AcDbLine
 10
14008.80217064596
 20
853.874748214644
 30
0.0
 11
14000.80217064596
 21
853.874748214644
 31
0.0
  0
LINE
  5
173E2
330
17201
100
AcDbEntity
  8
YODOROGO
100
AcDbLine
 10
14008.80217064596
 20
841.8747482146434
 30
0.0
 11
14008.80217064596
 21
853.874748214644
 31
0.0
  0
LINE
  5
173E3
330
17201
100
AcDbEntity
  8
YODOROGO
100
AcDbLine
 10
14020.45660200844
 20
841.8747482146434
 30
0.0
 11
14008.80217064596
 21
841.8747482146434
 31
0.0
  0
LINE
  5
173E4
330
17201
100
AcDbEntity
  8
YODOROGO
100
AcDbLine
 10
14000.80217064596
 20
841.8747482146434
 30
0.0
 11
13988.80217064596
 21
841.8747482146434
 31
0.0
  0
LINE
  5
173E5
330
17201
100
AcDbEntity
  8
YODOROGO
100
AcDbLine
 10
14041.06776011546
 20
853.874748214644
 30
0.0
 11
14049.06776011545
 21
853.874748214644
 31
0.0
1001
AUTOCAD_POSTSCRIPT_FIGURE
1002
{
1000
PSFILL
1000
Grayscale
1000
Grayscale
1070
   100
1002
}
  0
LINE
  5
173E6
330
17201
100
AcDbEntity
  8
YODOROGO
100
AcDbLine
 10
14200.80217064594
 20
912.4388128201532
 30
0.0
 11
14200.80217064594
 21
876.4388128201531
 31
0.0
1001
AUTOCAD_POSTSCRIPT_FIGURE
1002
{
1000
PSFILL
1000
Grayscale
1000
Grayscale
1070
   100
1002
}
  0
LINE
  5
173E7
330
17201
100
AcDbEntity
  8
YODOROGO
100
AcDbLine
 10
14200.80217064594
 20
958.4388128201537
 30
0.0
 11
14200.80217064594
 21
992.4388128201531
 31
0.0
1001
AUTOCAD_POSTSCRIPT_FIGURE
1002
{
1000
PSFILL
1000
Grayscale
1000
Grayscale
1070
   100
1002
}
  0
LINE
  5
173E8
330
17201
100
AcDbEntity
  8
YODOROGO
100
AcDbLine
 10
14216.80217064594
 20
909.8747482146439
 30
0.0
 11
14216.80217064594
 21
873.8747482146449
 31
0.0
  0
LINE
  5
173E9
330
17201
100
AcDbEntity
  8
YODOROGO
100
AcDbLine
 10
14248.80217064594
 20
853.874748214644
 30
0.0
 11
14216.80217064594
 21
853.874748214644
 31
0.0
  0
LINE
  5
173EA
330
17201
100
AcDbEntity
  8
YODOROGO
100
AcDbLine
 10
14216.80217064594
 20
873.8747482146449
 30
0.0
 11
14292.80217064596
 21
873.8747482146449
 31
0.0
  0
LINE
  5
173EB
330
17201
100
AcDbEntity
  8
YODOROGO
100
AcDbLine
 10
14248.80217064594
 20
933.8747482146439
 30
0.0
 11
14216.80217064594
 21
933.8747482146439
 31
0.0
  0
LINE
  5
173EC
330
17201
100
AcDbEntity
  8
YODOROGO
100
AcDbLine
 10
14248.80217064594
 20
961.8747482146432
 30
0.0
 11
14248.80217064594
 21
933.8747482146439
 31
0.0
  0
LINE
  5
173ED
330
17201
100
AcDbEntity
  8
YODOROGO
100
AcDbLine
 10
14292.80217064596
 20
993.8747482146439
 30
0.0
 11
14292.80217064596
 21
1013.874748214644
 31
0.0
  0
LINE
  5
173EE
330
17201
100
AcDbEntity
  8
YODOROGO
100
AcDbLine
 10
14216.80217064594
 20
993.8747482146439
 30
0.0
 11
14292.80217064596
 21
993.8747482146439
 31
0.0
  0
LINE
  5
173EF
330
17201
100
AcDbEntity
  8
YODOROGO
100
AcDbLine
 10
14216.80217064594
 20
933.8747482146439
 30
0.0
 11
14216.80217064594
 21
993.8747482146439
 31
0.0
  0
LINE
  5
173F0
330
17201
100
AcDbEntity
  8
YODOROGO
100
AcDbLine
 10
14500.80217064594
 20
1013.874748214644
 30
0.0
 11
14500.80217064594
 21
809.8747482146441
 31
0.0
  0
LINE
  5
173F1
330
17201
100
AcDbEntity
  8
YODOROGO
100
AcDbLine
 10
14536.80217064596
 20
789.8747482146441
 30
0.0
 11
14536.80217064596
 21
1013.874748214644
 31
0.0
  0
LINE
  5
173F2
330
17201
100
AcDbEntity
  8
YODOROGO
100
AcDbLine
 10
14630.80217064596
 20
745.8747482146431
 30
0.0
 11
14630.80217064596
 21
1003.874748214644
 31
0.0
  0
LINE
  5
173F3
330
17201
100
AcDbEntity
  8
YODOROGO
100
AcDbLine
 10
14598.80217064596
 20
1003.874748214644
 30
0.0
 11
14598.80217064596
 21
745.8747482146431
 31
0.0
  0
LINE
  5
173F4
330
17201
100
AcDbEntity
  8
YODOROGO
100
AcDbLine
 10
14692.80217064596
 20
1013.874748214644
 30
0.0
 11
14692.80217064596
 21
713.8747482146436
 31
0.0
  0
LINE
  5
173F5
330
17201
100
AcDbEntity
  8
YODOROGO
100
AcDbLine
 10
14728.80217064596
 20
713.8747482146436
 30
0.0
 11
14728.80217064596
 21
1013.874748214644
 31
0.0
  0
LINE
  5
173F6
330
17201
100
AcDbEntity
  8
YODOROGO
100
AcDbLine
 10
14328.80217064594
 20
833.8747482146439
 30
0.0
 11
14328.80217064594
 21
873.8747482146449
 31
0.0
  0
LINE
  5
173F7
330
17201
100
AcDbEntity
  8
YODOROGO
100
AcDbLine
 10
14942.80217064596
 20
853.874748214644
 30
0.0
 11
14942.80217064596
 21
833.8747482146439
 31
0.0
  0
LINE
  5
173F8
330
17201
100
AcDbEntity
  8
YODOROGO
100
AcDbLine
 10
14942.80217064596
 20
853.874748214644
 30
0.0
 11
14942.80217064596
 21
833.8747482146439
 31
0.0
  0
ARC
  5
173F9
330
17201
100
AcDbEntity
  8
YODOROGO
100
AcDbCircle
 10
14453.45578809342
 20
809.1089322211363
 30
0.0
 40
47.35257558937082
100
AcDbArc
 50
274.052441629071
 51
0.9266642149310712
  0
ARC
  5
173FA
330
17201
100
AcDbEntity
  8
YODOROGO
100
AcDbCircle
 10
14454.5930853599
 20
796.30536430522
 30
0.0
 40
82.46021178042756
100
AcDbArc
 50
271.5351210653777
 51
355.5272775058505
  0
LINE
  5
173FB
330
17201
100
AcDbEntity
  8
YODOROGO
100
AcDbLine
 10
14456.80217064596
 20
761.8747482146434
 30
0.0
 11
14456.80217064596
 21
713.8747482146436
 31
0.0
  0
LINE
  5
173FC
330
17201
100
AcDbEntity
  8
YODOROGO
100
AcDbLine
 10
14396.80217064594
 20
833.8747482146439
 30
0.0
 11
14328.80217064594
 21
833.8747482146439
 31
0.0
  0
LINE
  5
173FD
330
17201
100
AcDbEntity
  8
YODOROGO
100
AcDbLine
 10
14396.80217064594
 20
801.8747482146444
 30
0.0
 11
14396.80217064594
 21
833.8747482146439
 31
0.0
  0
LINE
  5
173FE
330
17201
100
AcDbEntity
  8
YODOROGO
100
AcDbLine
 10
14328.80217064594
 20
801.8747482146444
 30
0.0
 11
14396.80217064594
 21
801.8747482146444
 31
0.0
  0
LINE
  5
173FF
330
17201
100
AcDbEntity
  8
YODOROGO
100
AcDbLine
 10
14328.80217064594
 20
761.8747482146434
 30
0.0
 11
14328.80217064594
 21
801.8747482146444
 31
0.0
  0
LINE
  5
17400
330
17201
100
AcDbEntity
  8
YODOROGO
100
AcDbLine
 10
14396.80217064594
 20
761.8747482146434
 30
0.0
 11
14328.80217064594
 21
761.8747482146434
 31
0.0
  0
LINE
  5
17401
330
17201
100
AcDbEntity
  8
YODOROGO
100
AcDbLine
 10
14396.80217064594
 20
713.8747482146436
 30
0.0
 11
14396.80217064594
 21
761.8747482146434
 31
0.0
  0
LINE
  5
17402
330
17201
100
AcDbEntity
  8
YODOROGO
100
AcDbLine
 10
14598.80217064596
 20
745.8747482146431
 30
0.0
 11
14630.80217064596
 21
745.8747482146431
 31
0.0
  0
LINE
  5
17403
330
17201
100
AcDbEntity
  8
YODOROGO
100
AcDbLine
 10
14692.80217064596
 20
713.8747482146436
 30
0.0
 11
14728.80217064596
 21
713.8747482146436
 31
0.0
  0
LINE
  5
17404
330
17201
100
AcDbEntity
  8
YODOROGO
100
AcDbLine
 10
14868.80217064596
 20
764.2207260852818
 30
0.0
 11
14868.80217064596
 21
713.8747482146436
 31
0.0
  0
LINE
  5
17405
330
17201
100
AcDbEntity
  8
YODOROGO
100
AcDbLine
 10
14808.80217064596
 20
713.8747482146436
 30
0.0
 11
14868.80217064596
 21
764.2207260852818
 31
0.0
  0
LINE
  5
17406
330
17201
100
AcDbEntity
  8
YODOROGO
100
AcDbLine
 10
14808.80217064596
 20
773.874748214644
 30
0.0
 11
14808.80217064596
 21
713.8747482146436
 31
0.0
  0
LINE
  5
17407
330
17201
100
AcDbEntity
  8
YODOROGO
100
AcDbLine
 10
14856.47231434973
 20
813.8747482146435
 30
0.0
 11
14808.80217064596
 21
773.874748214644
 31
0.0
  0
LINE
  5
17408
330
17201
100
AcDbEntity
  8
YODOROGO
100
AcDbLine
 10
14808.80217064596
 20
813.8747482146435
 30
0.0
 11
14856.47231434973
 21
813.8747482146435
 31
0.0
  0
LINE
  5
17409
330
17201
100
AcDbEntity
  8
YODOROGO
100
AcDbLine
 10
14808.80217064596
 20
833.8747482146439
 30
0.0
 11
14808.80217064596
 21
813.8747482146435
 31
0.0
  0
LINE
  5
1740A
330
17201
100
AcDbEntity
  8
YODOROGO
100
AcDbLine
 10
14942.80217064596
 20
833.8747482146439
 30
0.0
 11
14808.80217064596
 21
833.8747482146439
 31
0.0
  0
LINE
  5
1740B
330
17201
100
AcDbEntity
  8
YODOROGO
100
AcDbLine
 10
14958.80217064596
 20
813.8747482146435
 30
0.0
 11
14888.80217064596
 21
813.8747482146435
 31
0.0
  0
LINE
  5
1740C
330
17201
100
AcDbEntity
  8
YODOROGO
100
AcDbLine
 10
14888.80217064596
 20
781.0027187088283
 30
0.0
 11
14885.70493649264
 21
778.403830673117
 31
0.0
  0
LINE
  5
1740D
330
17201
100
AcDbEntity
  8
YODOROGO
100
AcDbLine
 10
14888.80217064596
 20
813.8747482146435
 30
0.0
 11
14888.80217064596
 21
781.0027187088283
 31
0.0
  0
LINE
  5
1740E
330
17201
100
AcDbEntity
  8
YODOROGO
100
AcDbLine
 10
14868.80217064596
 20
764.2207260852818
 30
0.0
 11
14868.80217064596
 21
713.8747482146436
 31
0.0
  0
LINE
  5
1740F
330
17201
100
AcDbEntity
  8
YODOROGO
100
AcDbLine
 10
14808.80217064596
 20
713.8747482146436
 30
0.0
 11
14868.80217064596
 21
764.2207260852818
 31
0.0
  0
LINE
  5
17410
330
17201
100
AcDbEntity
  8
YODOROGO
100
AcDbLine
 10
14808.80217064596
 20
773.874748214644
 30
0.0
 11
14808.80217064596
 21
713.8747482146436
 31
0.0
  0
LINE
  5
17411
330
17201
100
AcDbEntity
  8
YODOROGO
100
AcDbLine
 10
14856.47231434973
 20
813.8747482146435
 30
0.0
 11
14808.80217064596
 21
773.874748214644
 31
0.0
  0
LINE
  5
17412
330
17201
100
AcDbEntity
  8
YODOROGO
100
AcDbLine
 10
14808.80217064596
 20
813.8747482146435
 30
0.0
 11
14856.47231434973
 21
813.8747482146435
 31
0.0
  0
LINE
  5
17413
330
17201
100
AcDbEntity
  8
YODOROGO
100
AcDbLine
 10
14808.80217064596
 20
833.8747482146439
 30
0.0
 11
14808.80217064596
 21
813.8747482146435
 31
0.0
  0
LINE
  5
17414
330
17201
100
AcDbEntity
  8
YODOROGO
100
AcDbLine
 10
14942.80217064596
 20
833.8747482146439
 30
0.0
 11
14808.80217064596
 21
833.8747482146439
 31
0.0
  0
LINE
  5
17415
330
17201
100
AcDbEntity
  8
YODOROGO
100
AcDbLine
 10
14396.80217064594
 20
873.8747482146449
 30
0.0
 11
14396.80217064594
 21
909.8747482146439
 31
0.0
  0
LINE
  5
17416
330
17201
100
AcDbEntity
  8
YODOROGO
100
AcDbLine
 10
14328.80217064594
 20
873.8747482146449
 30
0.0
 11
14396.80217064594
 21
873.8747482146449
 31
0.0
  0
LINE
  5
17417
330
17201
100
AcDbEntity
  8
YODOROGO
100
AcDbLine
 10
14364.80217064596
 20
933.8747482146439
 30
0.0
 11
14364.80217064596
 21
961.8747482146432
 31
0.0
  0
LINE
  5
17418
330
17201
100
AcDbEntity
  8
YODOROGO
100
AcDbLine
 10
14396.80217064594
 20
933.8747482146439
 30
0.0
 11
14364.80217064596
 21
933.8747482146439
 31
0.0
  0
LINE
  5
17419
330
17201
100
AcDbEntity
  8
YODOROGO
100
AcDbLine
 10
14396.80217064594
 20
973.8747482146434
 30
0.0
 11
14396.80217064594
 21
933.8747482146439
 31
0.0
  0
ARC
  5
1741A
330
17201
100
AcDbEntity
  8
YODOROGO
100
AcDbCircle
 10
14376.80217064594
 20
973.8747482146434
 30
0.0
 40
20.0
100
AcDbArc
 50
0.0
 51
90.0
  0
LINE
  5
1741B
330
17201
100
AcDbEntity
  8
YODOROGO
100
AcDbLine
 10
14328.80217064596
 20
993.8747482146439
 30
0.0
 11
14376.80217064594
 21
993.8747482146439
 31
0.0
  0
LINE
  5
1741C
330
17201
100
AcDbEntity
  8
YODOROGO
100
AcDbLine
 10
14328.80217064596
 20
1013.874748214644
 30
0.0
 11
14328.80217064596
 21
993.8747482146439
 31
0.0
  0
LINE
  5
1741D
330
17201
100
AcDbEntity
  8
YODOROGO
100
AcDbLine
 10
14536.80217064596
 20
1013.874748214644
 30
0.0
 11
14500.80217064594
 21
1013.874748214644
 31
0.0
  0
LINE
  5
1741E
330
17201
100
AcDbEntity
  8
YODOROGO
100
AcDbLine
 10
14630.80217064596
 20
1003.874748214644
 30
0.0
 11
14598.80217064596
 21
1003.874748214644
 31
0.0
  0
LINE
  5
1741F
330
17201
100
AcDbEntity
  8
YODOROGO
100
AcDbLine
 10
14728.80217064596
 20
1013.874748214644
 30
0.0
 11
14692.80217064596
 21
1013.874748214644
 31
0.0
  0
LINE
  5
17420
330
17201
100
AcDbEntity
  8
YODOROGO
100
AcDbLine
 10
14836.80217064596
 20
853.874748214644
 30
0.0
 11
14836.80217064596
 21
885.8747482146441
 31
0.0
1001
AUTOCAD_POSTSCRIPT_FIGURE
1002
{
1000
PSFILL
1000
Grayscale
1000
Grayscale
1070
    25
1002
}
  0
LINE
  5
17421
330
17201
100
AcDbEntity
  8
YODOROGO
100
AcDbLine
 10
14808.80217064596
 20
853.874748214644
 30
0.0
 11
14836.80217064596
 21
853.874748214644
 31
0.0
1001
AUTOCAD_POSTSCRIPT_FIGURE
1002
{
1000
PSFILL
1000
Grayscale
1000
Grayscale
1070
    25
1002
}
  0
LINE
  5
17422
330
17201
100
AcDbEntity
  8
YODOROGO
100
AcDbLine
 10
14808.80217064596
 20
909.8747482146439
 30
0.0
 11
14808.80217064596
 21
853.874748214644
 31
0.0
1001
AUTOCAD_POSTSCRIPT_FIGURE
1002
{
1000
PSFILL
1000
Grayscale
1000
Grayscale
1070
    25
1002
}
  0
LINE
  5
17423
330
17201
100
AcDbEntity
  8
YODOROGO
100
AcDbLine
 10
14882.80217064596
 20
909.8747482146439
 30
0.0
 11
14808.80217064596
 21
909.8747482146439
 31
0.0
1001
AUTOCAD_POSTSCRIPT_FIGURE
1002
{
1000
PSFILL
1000
Grayscale
1000
Grayscale
1070
    25
1002
}
  0
LINE
  5
17424
330
17201
100
AcDbEntity
  8
YODOROGO
100
AcDbLine
 10
14882.80217064596
 20
929.874748214644
 30
0.0
 11
14882.80217064596
 21
909.8747482146439
 31
0.0
1001
AUTOCAD_POSTSCRIPT_FIGURE
1002
{
1000
PSFILL
1000
Grayscale
1000
Grayscale
1070
    25
1002
}
  0
LINE
  5
17425
330
17201
100
AcDbEntity
  8
YODOROGO
100
AcDbLine
 10
14808.80217064596
 20
929.874748214644
 30
0.0
 11
14882.80217064596
 21
929.874748214644
 31
0.0
1001
AUTOCAD_POSTSCRIPT_FIGURE
1002
{
1000
PSFILL
1000
Grayscale
1000
Grayscale
1070
    25
1002
}
  0
LINE
  5
17426
330
17201
100
AcDbEntity
  8
YODOROGO
100
AcDbLine
 10
14808.80217064596
 20
953.874748214644
 30
0.0
 11
14808.80217064596
 21
929.874748214644
 31
0.0
1001
AUTOCAD_POSTSCRIPT_FIGURE
1002
{
1000
PSFILL
1000
Grayscale
1000
Grayscale
1070
    25
1002
}
  0
LINE
  5
17427
330
17201
100
AcDbEntity
  8
YODOROGO
100
AcDbLine
 10
14882.80217064596
 20
953.874748214644
 30
0.0
 11
14808.80217064596
 21
953.874748214644
 31
0.0
1001
AUTOCAD_POSTSCRIPT_FIGURE
1002
{
1000
PSFILL
1000
Grayscale
1000
Grayscale
1070
    25
1002
}
  0
LINE
  5
17428
330
17201
100
AcDbEntity
  8
YODOROGO
100
AcDbLine
 10
14882.80217064596
 20
973.8747482146434
 30
0.0
 11
14882.80217064596
 21
953.874748214644
 31
0.0
1001
AUTOCAD_POSTSCRIPT_FIGURE
1002
{
1000
PSFILL
1000
Grayscale
1000
Grayscale
1070
    25
1002
}
  0
LINE
  5
17429
330
17201
100
AcDbEntity
  8
YODOROGO
100
AcDbLine
 10
14808.80217064596
 20
973.8747482146434
 30
0.0
 11
14882.80217064596
 21
973.8747482146434
 31
0.0
1001
AUTOCAD_POSTSCRIPT_FIGURE
1002
{
1000
PSFILL
1000
Grayscale
1000
Grayscale
1070
    25
1002
}
  0
LINE
  5
1742A
330
17201
100
AcDbEntity
  8
YODOROGO
100
AcDbLine
 10
14808.80217064596
 20
1013.874748214644
 30
0.0
 11
14808.80217064596
 21
973.8747482146434
 31
0.0
1001
AUTOCAD_POSTSCRIPT_FIGURE
1002
{
1000
PSFILL
1000
Grayscale
1000
Grayscale
1070
    25
1002
}
  0
LINE
  5
1742B
330
17201
100
AcDbEntity
  8
YODOROGO
100
AcDbLine
 10
14832.80217064596
 20
1013.874748214644
 30
0.0
 11
14808.80217064596
 21
1013.874748214644
 31
0.0
1001
AUTOCAD_POSTSCRIPT_FIGURE
1002
{
1000
PSFILL
1000
Grayscale
1000
Grayscale
1070
    25
1002
}
  0
LINE
  5
1742C
330
17201
100
AcDbEntity
  8
YODOROGO
100
AcDbLine
 10
14832.80217064596
 20
997.8747482146435
 30
0.0
 11
14832.80217064596
 21
1013.874748214644
 31
0.0
1001
AUTOCAD_POSTSCRIPT_FIGURE
1002
{
1000
PSFILL
1000
Grayscale
1000
Grayscale
1070
    25
1002
}
  0
LINE
  5
1742D
330
17201
100
AcDbEntity
  8
YODOROGO
100
AcDbLine
 10
14882.80217064596
 20
997.8747482146435
 30
0.0
 11
14832.80217064596
 21
997.8747482146435
 31
0.0
1001
AUTOCAD_POSTSCRIPT_FIGURE
1002
{
1000
PSFILL
1000
Grayscale
1000
Grayscale
1070
    25
1002
}
  0
LINE
  5
1742E
330
17201
100
AcDbEntity
  8
YODOROGO
100
AcDbLine
 10
14882.80217064596
 20
1013.874748214644
 30
0.0
 11
14882.80217064596
 21
997.8747482146435
 31
0.0
1001
AUTOCAD_POSTSCRIPT_FIGURE
1002
{
1000
PSFILL
1000
Grayscale
1000
Grayscale
1070
    25
1002
}
  0
LINE
  5
1742F
330
17201
100
AcDbEntity
  8
YODOROGO
100
AcDbLine
 10
14914.80217064596
 20
1013.874748214644
 30
0.0
 11
14882.80217064596
 21
1013.874748214644
 31
0.0
1001
AUTOCAD_POSTSCRIPT_FIGURE
1002
{
1000
PSFILL
1000
Grayscale
1000
Grayscale
1070
    25
1002
}
  0
LINE
  5
17430
330
17201
100
AcDbEntity
  8
YODOROGO
100
AcDbLine
 10
14914.80217064596
 20
997.8747482146435
 30
0.0
 11
14914.80217064596
 21
1013.874748214644
 31
0.0
1001
AUTOCAD_POSTSCRIPT_FIGURE
1002
{
1000
PSFILL
1000
Grayscale
1000
Grayscale
1070
    25
1002
}
  0
LINE
  5
17431
330
17201
100
AcDbEntity
  8
YODOROGO
100
AcDbLine
 10
14914.80217064596
 20
953.874748214644
 30
0.0
 11
14914.80217064596
 21
973.8747482146434
 31
0.0
1001
AUTOCAD_POSTSCRIPT_FIGURE
1002
{
1000
PSFILL
1000
Grayscale
1000
Grayscale
1070
    25
1002
}
  0
LINE
  5
17432
330
17201
100
AcDbEntity
  8
YODOROGO
100
AcDbLine
 10
14914.80217064596
 20
909.8747482146439
 30
0.0
 11
14914.80217064596
 21
929.874748214644
 31
0.0
1001
AUTOCAD_POSTSCRIPT_FIGURE
1002
{
1000
PSFILL
1000
Grayscale
1000
Grayscale
1070
    25
1002
}
  0
LINE
  5
17433
330
17201
100
AcDbEntity
  8
YODOROGO
100
AcDbLine
 10
14960.80217064594
 20
885.8747482146441
 30
0.0
 11
14960.80217064594
 21
853.874748214644
 31
0.0
1001
AUTOCAD_POSTSCRIPT_FIGURE
1002
{
1000
PSFILL
1000
Grayscale
1000
Grayscale
1070
    25
1002
}
  0
LINE
  5
17434
330
17201
100
AcDbEntity
  8
YODOROGO
100
AcDbLine
 10
14914.80217064596
 20
885.8747482146441
 30
0.0
 11
14960.80217064594
 21
885.8747482146441
 31
0.0
1001
AUTOCAD_POSTSCRIPT_FIGURE
1002
{
1000
PSFILL
1000
Grayscale
1000
Grayscale
1070
    25
1002
}
  0
LINE
  5
17435
330
17201
100
AcDbEntity
  8
YODOROGO
100
AcDbLine
 10
14914.80217064596
 20
853.874748214644
 30
0.0
 11
14914.80217064596
 21
885.8747482146441
 31
0.0
1001
AUTOCAD_POSTSCRIPT_FIGURE
1002
{
1000
PSFILL
1000
Grayscale
1000
Grayscale
1070
    25
1002
}
  0
LINE
  5
17436
330
17201
100
AcDbEntity
  8
YODOROGO
100
AcDbLine
 10
14882.80217064596
 20
853.874748214644
 30
0.0
 11
14914.80217064596
 21
853.874748214644
 31
0.0
1001
AUTOCAD_POSTSCRIPT_FIGURE
1002
{
1000
PSFILL
1000
Grayscale
1000
Grayscale
1070
    25
1002
}
  0
LINE
  5
17437
330
17201
100
AcDbEntity
  8
YODOROGO
100
AcDbLine
 10
14882.80217064596
 20
885.8747482146441
 30
0.0
 11
14882.80217064596
 21
853.874748214644
 31
0.0
1001
AUTOCAD_POSTSCRIPT_FIGURE
1002
{
1000
PSFILL
1000
Grayscale
1000
Grayscale
1070
    25
1002
}
  0
LINE
  5
17438
330
17201
100
AcDbEntity
  8
YODOROGO
100
AcDbLine
 10
14836.80217064596
 20
885.8747482146441
 30
0.0
 11
14882.80217064596
 21
885.8747482146441
 31
0.0
1001
AUTOCAD_POSTSCRIPT_FIGURE
1002
{
1000
PSFILL
1000
Grayscale
1000
Grayscale
1070
    25
1002
}
  0
ARC
  5
17439
330
17201
100
AcDbEntity
  8
YODOROGO
100
AcDbCircle
 10
15529.75894667896
 20
801.3403687577881
 30
0.0
 40
89.11064055536078
100
AcDbArc
 50
281.0262749542535
 51
357.771135755738
  0
LINE
  5
1743A
330
17201
100
AcDbEntity
  8
YODOROGO
100
AcDbLine
 10
15706.80217064596
 20
953.874748214644
 30
0.0
 11
15582.80217064596
 21
953.874748214644
 31
0.0
  0
LINE
  5
1743B
330
17201
100
AcDbEntity
  8
YODOROGO
100
AcDbLine
 10
15706.80217064596
 20
1013.874748214644
 30
0.0
 11
15582.80217064596
 21
1013.874748214644
 31
0.0
  0
LINE
  5
1743C
330
17201
100
AcDbEntity
  8
YODOROGO
100
AcDbLine
 10
15582.80217064596
 20
981.8747482146434
 30
0.0
 11
15706.80217064596
 21
981.8747482146434
 31
0.0
  0
LINE
  5
1743D
330
17201
100
AcDbEntity
  8
YODOROGO
100
AcDbLine
 10
15395.80217064596
 20
781.8747482146434
 30
0.0
 11
15395.80217064596
 21
877.8747482146435
 31
0.0
  0
LINE
  5
1743E
330
17201
100
AcDbEntity
  8
YODOROGO
100
AcDbLine
 10
15381.80217064596
 20
845.8747482146444
 30
0.0
 11
15381.80217064596
 21
781.8747482146434
 31
0.0
  0
LINE
  5
1743F
330
17201
100
AcDbEntity
  8
YODOROGO
100
AcDbLine
 10
15361.80217064596
 20
745.8747482146443
 30
0.0
 11
15361.80217064596
 21
845.8747482146444
 31
0.0
  0
LINE
  5
17440
330
17201
100
AcDbEntity
  8
YODOROGO
100
AcDbLine
 10
15449.80217064596
 20
845.8747482146444
 30
0.0
 11
15449.80217064596
 21
745.8747482146443
 31
0.0
  0
LINE
  5
17441
330
17201
100
AcDbEntity
  8
YODOROGO
100
AcDbLine
 10
15429.80217064596
 20
781.8747482146434
 30
0.0
 11
15429.80217064596
 21
845.8747482146444
 31
0.0
  0
LINE
  5
17442
330
17201
100
AcDbEntity
  8
YODOROGO
100
AcDbLine
 10
15415.80217064596
 20
877.8747482146435
 30
0.0
 11
15415.80217064596
 21
781.8747482146434
 31
0.0
  0
LINE
  5
17443
330
17201
100
AcDbEntity
  8
YODOROGO
100
AcDbLine
 10
15486.80217064596
 20
1013.874748214644
 30
0.0
 11
15486.80217064596
 21
733.8747482146435
 31
0.0
  0
LINE
  5
17444
330
17201
100
AcDbEntity
  8
YODOROGO
100
AcDbLine
 10
15322.80217064596
 20
713.8747482146436
 30
0.0
 11
15322.80217064596
 21
1013.874748214644
 31
0.0
  0
LINE
  5
17445
330
17201
100
AcDbEntity
  8
YODOROGO
100
AcDbLine
 10
15348.80217064596
 20
981.8747482146434
 30
0.0
 11
15348.80217064596
 21
713.8747482146436
 31
0.0
  0
LINE
  5
17446
330
17201
100
AcDbEntity
  8
YODOROGO
100
AcDbLine
 10
15462.80217064596
 20
773.874748214644
 30
0.0
 11
15462.80217064596
 21
981.8747482146434
 31
0.0
  0
LINE
  5
17447
330
17201
100
AcDbEntity
  8
YODOROGO
100
AcDbLine
 10
15190.80217064596
 20
813.8747482146435
 30
0.0
 11
15190.80217064596
 21
839.8747482146442
 31
0.0
  0
LINE
  5
17448
330
17201
100
AcDbEntity
  8
YODOROGO
100
AcDbLine
 10
15308.80217064596
 20
839.8747482146442
 30
0.0
 11
15308.80217064596
 21
813.8747482146435
 31
0.0
  0
LINE
  5
17449
330
17201
100
AcDbEntity
  8
YODOROGO
100
AcDbLine
 10
15582.80217064596
 20
953.874748214644
 30
0.0
 11
15582.80217064596
 21
817.8747482146436
 31
0.0
  0
LINE
  5
1744A
330
17201
100
AcDbEntity
  8
YODOROGO
100
AcDbLine
 10
14974.80217064595
 20
833.8747482146439
 30
0.0
 11
14974.80217064595
 21
853.874748214644
 31
0.0
  0
LINE
  5
1744B
330
17201
100
AcDbEntity
  8
YODOROGO
100
AcDbLine
 10
14974.80217064595
 20
833.8747482146439
 30
0.0
 11
14974.80217064595
 21
853.874748214644
 31
0.0
  0
ARC
  5
1744C
330
17201
100
AcDbEntity
  8
YODOROGO
100
AcDbCircle
 10
15268.80217064596
 20
753.8747482146439
 30
0.0
 40
40.0
100
AcDbArc
 50
270.0
 51
0.0
  0
LINE
  5
1744D
330
17201
100
AcDbEntity
  8
YODOROGO
100
AcDbLine
 10
15284.80217064596
 20
799.8747482146441
 30
0.0
 11
15308.80217064596
 21
799.8747482146441
 31
0.0
  0
LINE
  5
1744E
330
17201
100
AcDbEntity
  8
YODOROGO
100
AcDbLine
 10
15308.80217064596
 20
813.8747482146435
 30
0.0
 11
15264.80217064596
 21
813.8747482146435
 31
0.0
  0
LINE
  5
1744F
330
17201
100
AcDbEntity
  8
YODOROGO
100
AcDbLine
 10
15108.80217064596
 20
833.8747482146439
 30
0.0
 11
14974.80217064595
 21
833.8747482146439
 31
0.0
  0
LINE
  5
17450
330
17201
100
AcDbEntity
  8
YODOROGO
100
AcDbLine
 10
15108.80217064596
 20
813.8747482146435
 30
0.0
 11
15108.80217064596
 21
833.8747482146439
 31
0.0
  0
LINE
  5
17451
330
17201
100
AcDbEntity
  8
YODOROGO
100
AcDbLine
 10
15008.80217064596
 20
813.8747482146435
 30
0.0
 11
15108.80217064596
 21
813.8747482146435
 31
0.0
  0
ARC
  5
17452
330
17201
100
AcDbEntity
  8
YODOROGO
100
AcDbCircle
 10
15115.02941435068
 20
934.4428574764513
 30
0.0
 40
160.6888181426141
100
AcDbArc
 50
228.6181454618993
 51
245.660289248906
  0
LINE
  5
17453
330
17201
100
AcDbEntity
  8
YODOROGO
100
AcDbLine
 10
15052.80217064596
 20
801.8747482146444
 30
0.0
 11
15048.80217064598
 21
788.0364079349501
 31
0.0
  0
LINE
  5
17454
330
17201
100
AcDbEntity
  8
YODOROGO
100
AcDbLine
 10
15094.80217064596
 20
801.8747482146444
 30
0.0
 11
15052.80217064596
 21
801.8747482146444
 31
0.0
  0
LINE
  5
17455
330
17201
100
AcDbEntity
  8
YODOROGO
100
AcDbLine
 10
15088.80217064596
 20
775.9088612367134
 30
0.0
 11
15094.80217064596
 21
801.8747482146444
 31
0.0
  0
ARC
  5
17456
330
17201
100
AcDbEntity
  8
YODOROGO
100
AcDbCircle
 10
15115.02941435023
 20
934.4428574765014
 30
0.0
 40
160.6888181426453
100
AcDbArc
 50
260.6062929796992
 51
267.7790355655586
  0
LINE
  5
17457
330
17201
100
AcDbEntity
  8
YODOROGO
100
AcDbLine
 10
15108.80217064596
 20
713.8747482146428
 30
0.0
 11
15108.80217064596
 21
773.874748214644
 31
0.0
  0
LINE
  5
17458
330
17201
100
AcDbEntity
  8
YODOROGO
100
AcDbLine
 10
14968.80217064596
 20
740.6696674577553
 30
0.0
 11
14968.80217064596
 21
797.2655452655705
 31
0.0
  0
LINE
  5
17459
330
17201
100
AcDbEntity
  8
YODOROGO
100
AcDbLine
 10
15108.80217064596
 20
833.8747482146439
 30
0.0
 11
14974.80217064595
 21
833.8747482146439
 31
0.0
  0
LINE
  5
1745A
330
17201
100
AcDbEntity
  8
YODOROGO
100
AcDbLine
 10
15108.80217064596
 20
813.8747482146435
 30
0.0
 11
15108.80217064596
 21
833.8747482146439
 31
0.0
  0
LINE
  5
1745B
330
17201
100
AcDbEntity
  8
YODOROGO
100
AcDbLine
 10
15008.80217064596
 20
813.8747482146435
 30
0.0
 11
15108.80217064596
 21
813.8747482146435
 31
0.0
  0
ARC
  5
1745C
330
17201
100
AcDbEntity
  8
YODOROGO
100
AcDbCircle
 10
15115.02941435068
 20
934.4428574764513
 30
0.0
 40
160.6888181426141
100
AcDbArc
 50
228.6181454618993
 51
245.660289248906
  0
LINE
  5
1745D
330
17201
100
AcDbEntity
  8
YODOROGO
100
AcDbLine
 10
15052.80217064596
 20
801.8747482146444
 30
0.0
 11
15048.80217064598
 21
788.0364079349501
 31
0.0
  0
LINE
  5
1745E
330
17201
100
AcDbEntity
  8
YODOROGO
100
AcDbLine
 10
15094.80217064596
 20
801.8747482146444
 30
0.0
 11
15052.80217064596
 21
801.8747482146444
 31
0.0
  0
LINE
  5
1745F
330
17201
100
AcDbEntity
  8
YODOROGO
100
AcDbLine
 10
15088.80217064596
 20
775.9088612367134
 30
0.0
 11
15094.80217064596
 21
801.8747482146444
 31
0.0
  0
ARC
  5
17460
330
17201
100
AcDbEntity
  8
YODOROGO
100
AcDbCircle
 10
15115.02941435023
 20
934.4428574765014
 30
0.0
 40
160.6888181426453
100
AcDbArc
 50
260.6062929796992
 51
267.7790355655586
  0
LINE
  5
17461
330
17201
100
AcDbEntity
  8
YODOROGO
100
AcDbLine
 10
15108.80217064596
 20
713.8747482146428
 30
0.0
 11
15108.80217064596
 21
773.874748214644
 31
0.0
  0
LINE
  5
17462
330
17201
100
AcDbEntity
  8
YODOROGO
100
AcDbLine
 10
14968.80217064596
 20
740.6696674577553
 30
0.0
 11
14968.80217064596
 21
797.2655452655705
 31
0.0
  0
LINE
  5
17463
330
17201
100
AcDbEntity
  8
YODOROGO
100
AcDbLine
 10
15216.80217064596
 20
786.8747482146444
 30
0.0
 11
15190.80217064596
 21
786.8747482146444
 31
0.0
  0
LINE
  5
17464
330
17201
100
AcDbEntity
  8
YODOROGO
100
AcDbLine
 10
15216.80217064596
 20
800.8747482146432
 30
0.0
 11
15216.80217064596
 21
786.8747482146444
 31
0.0
  0
LINE
  5
17465
330
17201
100
AcDbEntity
  8
YODOROGO
100
AcDbLine
 10
15190.80217064596
 20
800.8747482146432
 30
0.0
 11
15216.80217064596
 21
800.8747482146432
 31
0.0
  0
LINE
  5
17466
330
17201
100
AcDbEntity
  8
YODOROGO
100
AcDbLine
 10
15190.80217064596
 20
786.8747482146444
 30
0.0
 11
15190.80217064596
 21
800.8747482146432
 31
0.0
  0
LINE
  5
17467
330
17201
100
AcDbEntity
  8
YODOROGO
100
AcDbLine
 10
15214.80217064596
 20
788.8747482146436
 30
0.0
 11
15192.80217064595
 21
788.8747482146436
 31
0.0
  0
LINE
  5
17468
330
17201
100
AcDbEntity
  8
YODOROGO
100
AcDbLine
 10
15214.80217064596
 20
798.874748214644
 30
0.0
 11
15214.80217064596
 21
788.8747482146436
 31
0.0
  0
LINE
  5
17469
330
17201
100
AcDbEntity
  8
YODOROGO
100
AcDbLine
 10
15192.80217064595
 20
798.874748214644
 30
0.0
 11
15214.80217064596
 21
798.874748214644
 31
0.0
  0
LINE
  5
1746A
330
17201
100
AcDbEntity
  8
YODOROGO
100
AcDbLine
 10
15192.80217064595
 20
788.8747482146436
 30
0.0
 11
15192.80217064595
 21
798.874748214644
 31
0.0
  0
LINE
  5
1746B
330
17201
100
AcDbEntity
  8
YODOROGO
100
AcDbLine
 10
15212.80217064596
 20
790.8747482146432
 30
0.0
 11
15194.80217064596
 21
790.8747482146432
 31
0.0
  0
LINE
  5
1746C
330
17201
100
AcDbEntity
  8
YODOROGO
100
AcDbLine
 10
15212.80217064596
 20
796.8747482146445
 30
0.0
 11
15212.80217064596
 21
790.8747482146432
 31
0.0
  0
LINE
  5
1746D
330
17201
100
AcDbEntity
  8
YODOROGO
100
AcDbLine
 10
15194.80217064596
 20
796.8747482146445
 30
0.0
 11
15212.80217064596
 21
796.8747482146445
 31
0.0
  0
LINE
  5
1746E
330
17201
100
AcDbEntity
  8
YODOROGO
100
AcDbLine
 10
15194.80217064596
 20
790.8747482146432
 30
0.0
 11
15194.80217064596
 21
796.8747482146445
 31
0.0
  0
LINE
  5
1746F
330
17201
100
AcDbEntity
  8
YODOROGO
100
AcDbLine
 10
15210.80217064596
 20
792.8747482146435
 30
0.0
 11
15196.80217064596
 21
792.8747482146435
 31
0.0
  0
LINE
  5
17470
330
17201
100
AcDbEntity
  8
YODOROGO
100
AcDbLine
 10
15210.80217064596
 20
794.8747482146441
 30
0.0
 11
15210.80217064596
 21
792.8747482146435
 31
0.0
  0
LINE
  5
17471
330
17201
100
AcDbEntity
  8
YODOROGO
100
AcDbLine
 10
15196.80217064596
 20
794.8747482146441
 30
0.0
 11
15210.80217064596
 21
794.8747482146441
 31
0.0
  0
LINE
  5
17472
330
17201
100
AcDbEntity
  8
YODOROGO
100
AcDbLine
 10
15196.80217064596
 20
792.8747482146435
 30
0.0
 11
15196.80217064596
 21
794.8747482146441
 31
0.0
  0
LINE
  5
17473
330
17201
100
AcDbEntity
  8
YODOROGO
100
AcDbLine
 10
15232.80217064596
 20
813.8747482146435
 30
0.0
 11
15190.80217064596
 21
813.8747482146435
 31
0.0
  0
LINE
  5
17474
330
17201
100
AcDbEntity
  8
YODOROGO
100
AcDbLine
 10
15232.80217064596
 20
773.874748214644
 30
0.0
 11
15232.80217064596
 21
813.8747482146435
 31
0.0
  0
LINE
  5
17475
330
17201
100
AcDbEntity
  8
YODOROGO
100
AcDbLine
 10
15190.80217064596
 20
773.874748214644
 30
0.0
 11
15232.80217064596
 21
773.874748214644
 31
0.0
  0
LINE
  5
17476
330
17201
100
AcDbEntity
  8
YODOROGO
100
AcDbLine
 10
15190.80217064596
 20
713.8747482146436
 30
0.0
 11
15190.80217064596
 21
773.874748214644
 31
0.0
  0
LINE
  5
17477
330
17201
100
AcDbEntity
  8
YODOROGO
100
AcDbLine
 10
15268.80217064596
 20
713.8747482146436
 30
0.0
 11
15190.80217064596
 21
713.8747482146436
 31
0.0
  0
LINE
  5
17478
330
17201
100
AcDbEntity
  8
YODOROGO
100
AcDbLine
 10
15284.80217064596
 20
785.8747482146432
 30
0.0
 11
15284.80217064596
 21
799.8747482146441
 31
0.0
  0
ARC
  5
17479
330
17201
100
AcDbEntity
  8
YODOROGO
100
AcDbCircle
 10
15272.80217064594
 20
785.8747482146457
 30
0.0
 40
12.00000000000187
100
AcDbArc
 50
270.0
 51
359.9999999999877
  0
LINE
  5
1747A
330
17201
100
AcDbEntity
  8
YODOROGO
100
AcDbLine
 10
15264.80217064596
 20
773.874748214644
 30
0.0
 11
15272.80217064594
 21
773.874748214644
 31
0.0
  0
LINE
  5
1747B
330
17201
100
AcDbEntity
  8
YODOROGO
100
AcDbLine
 10
15264.80217064596
 20
813.8747482146435
 30
0.0
 11
15264.80217064596
 21
773.874748214644
 31
0.0
  0
LINE
  5
1747C
330
17201
100
AcDbEntity
  8
YODOROGO
100
AcDbLine
 10
15449.80217064596
 20
773.874748214644
 30
0.0
 11
15462.80217064596
 21
773.874748214644
 31
0.0
  0
LINE
  5
1747D
330
17201
100
AcDbEntity
  8
YODOROGO
100
AcDbLine
 10
15466.80217064596
 20
713.8747482146436
 30
0.0
 11
15449.80217064596
 21
713.8747482146436
 31
0.0
  0
LINE
  5
1747E
330
17201
100
AcDbEntity
  8
YODOROGO
100
AcDbLine
 10
15381.80217064596
 20
781.8747482146434
 30
0.0
 11
15395.80217064596
 21
781.8747482146434
 31
0.0
  0
LINE
  5
1747F
330
17201
100
AcDbEntity
  8
YODOROGO
100
AcDbLine
 10
15449.80217064596
 20
745.8747482146443
 30
0.0
 11
15361.80217064596
 21
745.8747482146443
 31
0.0
  0
LINE
  5
17480
330
17201
100
AcDbEntity
  8
YODOROGO
100
AcDbLine
 10
15415.80217064596
 20
781.8747482146434
 30
0.0
 11
15429.80217064596
 21
781.8747482146434
 31
0.0
  0
LINE
  5
17481
330
17201
100
AcDbEntity
  8
YODOROGO
100
AcDbLine
 10
15449.80217064596
 20
713.8747482146436
 30
0.0
 11
15449.80217064596
 21
773.874748214644
 31
0.0
  0
LINE
  5
17482
330
17201
100
AcDbEntity
  8
YODOROGO
100
AcDbLine
 10
15348.80217064596
 20
713.8747482146436
 30
0.0
 11
15322.80217064596
 21
713.8747482146436
 31
0.0
  0
LINE
  5
17483
330
17201
100
AcDbEntity
  8
YODOROGO
100
AcDbLine
 10
15308.80217064596
 20
799.8747482146441
 30
0.0
 11
15308.80217064596
 21
753.8747482146439
 31
0.0
  0
ARC
  5
17484
330
17201
100
AcDbEntity
  8
YODOROGO
100
AcDbCircle
 10
15466.80217064596
 20
733.8747482146435
 30
0.0
 40
20.0
100
AcDbArc
 50
270.0
 51
0.0
  0
LINE
  5
17485
330
17201
100
AcDbEntity
  8
YODOROGO
100
AcDbLine
 10
15546.80217064596
 20
761.8747482146434
 30
0.0
 11
15546.80217064596
 21
713.8747482146436
 31
0.0
  0
ARC
  5
17486
330
17201
100
AcDbEntity
  8
YODOROGO
100
AcDbCircle
 10
15519.86069778339
 20
818.7656950548664
 30
0.0
 40
62.94777829583771
100
AcDbArc
 50
295.3405244216011
 51
359.1890230341867
  0
LINE
  5
17487
330
17201
100
AcDbEntity
  8
YODOROGO
100
AcDbLine
 10
15308.80217064596
 20
929.874748214644
 30
0.0
 11
15248.80217064596
 21
969.8747482146441
 31
0.0
  0
LINE
  5
17488
330
17201
100
AcDbEntity
  8
YODOROGO
100
AcDbLine
 10
15248.80217064596
 20
1013.874748214644
 30
0.0
 11
15308.80217064596
 21
973.8747482146434
 31
0.0
  0
LINE
  5
17489
330
17201
100
AcDbEntity
  8
YODOROGO
100
AcDbLine
 10
15264.80217064596
 20
839.8747482146442
 30
0.0
 11
15308.80217064596
 21
839.8747482146442
 31
0.0
  0
LINE
  5
1748A
330
17201
100
AcDbEntity
  8
YODOROGO
100
AcDbLine
 10
15308.80217064596
 20
867.8747482146436
 30
0.0
 11
15264.80217064596
 21
867.8747482146436
 31
0.0
  0
LINE
  5
1748B
330
17201
100
AcDbEntity
  8
YODOROGO
100
AcDbLine
 10
15190.80217064596
 20
897.8747482146435
 30
0.0
 11
15308.80217064596
 21
897.8747482146435
 31
0.0
  0
LINE
  5
1748C
330
17201
100
AcDbEntity
  8
YODOROGO
100
AcDbLine
 10
15040.80217064596
 20
1013.874748214644
 30
0.0
 11
15010.80217064596
 21
1013.874748214644
 31
0.0
  0
LINE
  5
1748D
330
17201
100
AcDbEntity
  8
YODOROGO
100
AcDbLine
 10
15040.80217064596
 20
913.8747482146435
 30
0.0
 11
15040.80217064596
 21
1013.874748214644
 31
0.0
  0
LINE
  5
1748E
330
17201
100
AcDbEntity
  8
YODOROGO
100
AcDbLine
 10
15010.80217064596
 20
913.8747482146435
 30
0.0
 11
15040.80217064596
 21
913.8747482146435
 31
0.0
  0
LINE
  5
1748F
330
17201
100
AcDbEntity
  8
YODOROGO
100
AcDbLine
 10
15010.80217064596
 20
1013.874748214644
 30
0.0
 11
15010.80217064596
 21
913.8747482146435
 31
0.0
  0
LINE
  5
17490
330
17201
100
AcDbEntity
  8
YODOROGO
100
AcDbLine
 10
15080.80217064596
 20
1013.874748214644
 30
0.0
 11
15108.80217064596
 21
1013.874748214644
 31
0.0
  0
LINE
  5
17491
330
17201
100
AcDbEntity
  8
YODOROGO
100
AcDbLine
 10
15080.80217064596
 20
905.8747482146443
 30
0.0
 11
15080.80217064596
 21
1013.874748214644
 31
0.0
  0
ARC
  5
17492
330
17201
100
AcDbEntity
  8
YODOROGO
100
AcDbCircle
 10
15060.80217064596
 20
905.8747482146443
 30
0.0
 40
20.0
100
AcDbArc
 50
270.0
 51
0.0
  0
LINE
  5
17493
330
17201
100
AcDbEntity
  8
YODOROGO
100
AcDbLine
 10
15010.80217064596
 20
885.8747482146441
 30
0.0
 11
15060.80217064596
 21
885.8747482146441
 31
0.0
  0
LINE
  5
17494
330
17201
100
AcDbEntity
  8
YODOROGO
100
AcDbLine
 10
15010.80217064596
 20
853.874748214644
 30
0.0
 11
15010.80217064596
 21
885.8747482146441
 31
0.0
  0
LINE
  5
17495
330
17201
100
AcDbEntity
  8
YODOROGO
100
AcDbLine
 10
15068.80217064596
 20
853.874748214644
 30
0.0
 11
15010.80217064596
 21
853.874748214644
 31
0.0
  0
ARC
  5
17496
330
17201
100
AcDbEntity
  8
YODOROGO
100
AcDbCircle
 10
15068.80217064596
 20
893.8747482146439
 30
0.0
 40
40.0
100
AcDbArc
 50
270.0
 51
0.0
  0
LINE
  5
17497
330
17201
100
AcDbEntity
  8
YODOROGO
100
AcDbLine
 10
15108.80217064596
 20
1013.874748214644
 30
0.0
 11
15108.80217064596
 21
893.8747482146439
 31
0.0
  0
LINE
  5
17498
330
17201
100
AcDbEntity
  8
YODOROGO
100
AcDbLine
 10
14988.80217064596
 20
973.8747482146434
 30
0.0
 11
14988.80217064596
 21
997.8747482146435
 31
0.0
1001
AUTOCAD_POSTSCRIPT_FIGURE
1002
{
1000
PSFILL
1000
Grayscale
1000
Grayscale
1070
    25
1002
}
  0
LINE
  5
17499
330
17201
100
AcDbEntity
  8
YODOROGO
100
AcDbLine
 10
14988.80217064596
 20
929.874748214644
 30
0.0
 11
14988.80217064596
 21
953.874748214644
 31
0.0
1001
AUTOCAD_POSTSCRIPT_FIGURE
1002
{
1000
PSFILL
1000
Grayscale
1000
Grayscale
1070
    25
1002
}
  0
LINE
  5
1749A
330
17201
100
AcDbEntity
  8
YODOROGO
100
AcDbLine
 10
14988.80217064596
 20
853.874748214644
 30
0.0
 11
14988.80217064596
 21
909.8747482146439
 31
0.0
1001
AUTOCAD_POSTSCRIPT_FIGURE
1002
{
1000
PSFILL
1000
Grayscale
1000
Grayscale
1070
    25
1002
}
  0
LINE
  5
1749B
330
17201
100
AcDbEntity
  8
YODOROGO
100
AcDbLine
 10
15190.80217064596
 20
953.874748214644
 30
0.0
 11
15248.80217064596
 21
1013.874748214644
 31
0.0
  0
LINE
  5
1749C
330
17201
100
AcDbEntity
  8
YODOROGO
100
AcDbLine
 10
15190.80217064596
 20
909.8747482146439
 30
0.0
 11
15190.80217064596
 21
953.874748214644
 31
0.0
  0
LINE
  5
1749D
330
17201
100
AcDbEntity
  8
YODOROGO
100
AcDbLine
 10
15248.80217064596
 20
969.8747482146441
 30
0.0
 11
15190.80217064596
 21
909.8747482146439
 31
0.0
  0
LINE
  5
1749E
330
17201
100
AcDbEntity
  8
YODOROGO
100
AcDbLine
 10
15232.80217064596
 20
839.8747482146442
 30
0.0
 11
15232.80217064596
 21
867.8747482146436
 31
0.0
  0
LINE
  5
1749F
330
17201
100
AcDbEntity
  8
YODOROGO
100
AcDbLine
 10
15190.80217064596
 20
839.8747482146442
 30
0.0
 11
15232.80217064596
 21
839.8747482146442
 31
0.0
  0
LINE
  5
174A0
330
17201
100
AcDbEntity
  8
YODOROGO
100
AcDbLine
 10
15264.80217064596
 20
867.8747482146436
 30
0.0
 11
15264.80217064596
 21
839.8747482146442
 31
0.0
  0
LINE
  5
174A1
330
17201
100
AcDbEntity
  8
YODOROGO
100
AcDbLine
 10
15190.80217064596
 20
867.8747482146436
 30
0.0
 11
15190.80217064596
 21
897.8747482146435
 31
0.0
  0
LINE
  5
174A2
330
17201
100
AcDbEntity
  8
YODOROGO
100
AcDbLine
 10
15232.80217064596
 20
867.8747482146436
 30
0.0
 11
15190.80217064596
 21
867.8747482146436
 31
0.0
  0
LINE
  5
174A3
330
17201
100
AcDbEntity
  8
YODOROGO
100
AcDbLine
 10
15322.80217064596
 20
1013.874748214644
 30
0.0
 11
15486.80217064596
 21
1013.874748214644
 31
0.0
  0
LINE
  5
174A4
330
17201
100
AcDbEntity
  8
YODOROGO
100
AcDbLine
 10
15462.80217064596
 20
981.8747482146434
 30
0.0
 11
15348.80217064596
 21
981.8747482146434
 31
0.0
  0
LINE
  5
174A5
330
17201
100
AcDbEntity
  8
YODOROGO
100
AcDbLine
 10
15436.80217064595
 20
909.8747482146439
 30
0.0
 11
15449.80217064596
 21
909.8747482146439
 31
0.0
  0
LINE
  5
174A6
330
17201
100
AcDbEntity
  8
YODOROGO
100
AcDbLine
 10
15449.80217064596
 20
969.8747482146441
 30
0.0
 11
15436.80217064595
 21
909.8747482146439
 31
0.0
  0
LINE
  5
174A7
330
17201
100
AcDbEntity
  8
YODOROGO
100
AcDbLine
 10
15425.80217064596
 20
969.8747482146441
 30
0.0
 11
15449.80217064596
 21
969.8747482146441
 31
0.0
  0
LINE
  5
174A8
330
17201
100
AcDbEntity
  8
YODOROGO
100
AcDbLine
 10
15412.80217064596
 20
909.8747482146439
 30
0.0
 11
15425.80217064596
 21
969.8747482146441
 31
0.0
  0
LINE
  5
174A9
330
17201
100
AcDbEntity
  8
YODOROGO
100
AcDbLine
 10
15398.80217064596
 20
909.8747482146439
 30
0.0
 11
15412.80217064596
 21
909.8747482146439
 31
0.0
  0
LINE
  5
174AA
330
17201
100
AcDbEntity
  8
YODOROGO
100
AcDbLine
 10
15385.80217064596
 20
969.8747482146441
 30
0.0
 11
15398.80217064596
 21
909.8747482146439
 31
0.0
  0
LINE
  5
174AB
330
17201
100
AcDbEntity
  8
YODOROGO
100
AcDbLine
 10
15361.80217064596
 20
969.8747482146441
 30
0.0
 11
15385.80217064596
 21
969.8747482146441
 31
0.0
  0
LINE
  5
174AC
330
17201
100
AcDbEntity
  8
YODOROGO
100
AcDbLine
 10
15374.80217064596
 20
909.8747482146439
 30
0.0
 11
15361.80217064596
 21
969.8747482146441
 31
0.0
  0
LINE
  5
174AD
330
17201
100
AcDbEntity
  8
YODOROGO
100
AcDbLine
 10
15361.80217064596
 20
909.8747482146439
 30
0.0
 11
15374.80217064596
 21
909.8747482146439
 31
0.0
  0
LINE
  5
174AE
330
17201
100
AcDbEntity
  8
YODOROGO
100
AcDbLine
 10
15361.80217064596
 20
877.8747482146435
 30
0.0
 11
15361.80217064596
 21
909.8747482146439
 31
0.0
  0
LINE
  5
174AF
330
17201
100
AcDbEntity
  8
YODOROGO
100
AcDbLine
 10
15449.80217064596
 20
877.8747482146435
 30
0.0
 11
15361.80217064596
 21
877.8747482146435
 31
0.0
  0
LINE
  5
174B0
330
17201
100
AcDbEntity
  8
YODOROGO
100
AcDbLine
 10
15449.80217064596
 20
909.8747482146439
 30
0.0
 11
15449.80217064596
 21
877.8747482146435
 31
0.0
  0
LINE
  5
174B1
330
17201
100
AcDbEntity
  8
YODOROGO
100
AcDbLine
 10
15308.80217064596
 20
973.8747482146434
 30
0.0
 11
15308.80217064596
 21
929.874748214644
 31
0.0
  0
LINE
  5
174B2
330
17201
100
AcDbEntity
  8
YODOROGO
100
AcDbLine
 10
15395.80217064596
 20
877.8747482146435
 30
0.0
 11
15415.80217064596
 21
877.8747482146435
 31
0.0
  0
LINE
  5
174B3
330
17201
100
AcDbEntity
  8
YODOROGO
100
AcDbLine
 10
15361.80217064596
 20
845.8747482146444
 30
0.0
 11
15381.80217064596
 21
845.8747482146444
 31
0.0
  0
LINE
  5
174B4
330
17201
100
AcDbEntity
  8
YODOROGO
100
AcDbLine
 10
15429.80217064596
 20
845.8747482146444
 30
0.0
 11
15449.80217064596
 21
845.8747482146444
 31
0.0
  0
LINE
  5
174B5
330
17201
100
AcDbEntity
  8
YODOROGO
100
AcDbLine
 10
15308.80217064596
 20
897.8747482146435
 30
0.0
 11
15308.80217064596
 21
867.8747482146436
 31
0.0
  0
LINE
  5
174B6
330
17201
100
AcDbEntity
  8
YODOROGO
100
AcDbLine
 10
15582.80217064596
 20
1013.874748214644
 30
0.0
 11
15582.80217064596
 21
981.8747482146434
 31
0.0
  0
LINE
  5
174B7
330
17201
100
AcDbEntity
  8
YODOROGO
100
AcDbLine
 10
15766.80217064596
 20
797.8747482146435
 30
0.0
 11
15766.80217064594
 21
905.8747482146443
 31
0.0
  0
LINE
  5
174B8
330
17201
100
AcDbEntity
  8
YODOROGO
100
AcDbLine
 10
15730.80217064594
 20
993.8747482146439
 30
0.0
 11
15730.80217064594
 21
817.8747482146436
 31
0.0
  0
LINE
  5
174B9
330
17201
100
AcDbEntity
  8
YODOROGO
100
AcDbLine
 10
15826.80217064596
 20
713.8747482146436
 30
0.0
 11
15826.80217064594
 21
905.8747482146443
 31
0.0
  0
LINE
  5
174BA
330
17201
100
AcDbEntity
  8
YODOROGO
100
AcDbLine
 10
15794.80217064596
 20
905.8747482146443
 30
0.0
 11
15794.80217064596
 21
713.8747482146436
 31
0.0
  0
LINE
  5
174BB
330
17201
100
AcDbEntity
  8
YODOROGO
100
AcDbLine
 10
15618.80217064596
 20
797.8747482146435
 30
0.0
 11
15618.80217064596
 21
853.874748214644
 31
0.0
  0
ARC
  5
174BC
330
17201
100
AcDbEntity
  8
YODOROGO
100
AcDbCircle
 10
15676.95743255803
 20
803.8951756442788
 30
0.0
 40
90.04622428799429
100
AcDbArc
 50
268.6284910216979
 51
356.1663845733032
  0
LINE
  5
174BD
330
17201
100
AcDbEntity
  8
YODOROGO
100
AcDbLine
 10
15674.80217064596
 20
763.8747482146435
 30
0.0
 11
15674.80217064596
 21
713.8747482146436
 31
0.0
  0
ARC
  5
174BE
330
17201
100
AcDbEntity
  8
YODOROGO
100
AcDbCircle
 10
15675.75903786228
 20
818.9194785088275
 30
0.0
 40
55.05304649180608
100
AcDbArc
 50
269.0041020930593
 51
358.9126445549248
  0
LINE
  5
174BF
330
17201
100
AcDbEntity
  8
YODOROGO
100
AcDbLine
 10
15794.80217064596
 20
713.8747482146436
 30
0.0
 11
15826.80217064596
 21
713.8747482146436
 31
0.0
  0
LINE
  5
174C0
330
17201
100
AcDbEntity
  8
YODOROGO
100
AcDbLine
 10
15766.80217064594
 20
905.8747482146443
 30
0.0
 11
15794.80217064596
 21
905.8747482146443
 31
0.0
  0
LINE
  5
174C1
330
17201
100
AcDbEntity
  8
YODOROGO
100
AcDbLine
 10
15810.80217064596
 20
993.8747482146439
 30
0.0
 11
15730.80217064594
 21
993.8747482146439
 31
0.0
  0
LINE
  5
174C2
330
17201
100
AcDbEntity
  8
YODOROGO
100
AcDbLine
 10
15766.80217064594
 20
957.8747482146436
 30
0.0
 11
15830.80217064596
 21
957.8747482146436
 31
0.0
  0
LINE
  5
174C3
330
17201
100
AcDbEntity
  8
YODOROGO
100
AcDbLine
 10
15850.80217064596
 20
937.8747482146435
 30
0.0
 11
15766.80217064594
 21
937.8747482146435
 31
0.0
  0
LINE
  5
174C4
330
17201
100
AcDbEntity
  8
YODOROGO
100
AcDbLine
 10
15618.80217064596
 20
889.8747482146442
 30
0.0
 11
15674.80217064596
 21
889.8747482146442
 31
0.0
  0
LINE
  5
174C5
330
17201
100
AcDbEntity
  8
YODOROGO
100
AcDbLine
 10
15618.80217064596
 20
917.8747482146436
 30
0.0
 11
15618.80217064596
 21
889.8747482146442
 31
0.0
  0
LINE
  5
174C6
330
17201
100
AcDbEntity
  8
YODOROGO
100
AcDbLine
 10
15674.80217064596
 20
917.8747482146436
 30
0.0
 11
15618.80217064596
 21
917.8747482146436
 31
0.0
  0
LINE
  5
174C7
330
17201
100
AcDbEntity
  8
YODOROGO
100
AcDbLine
 10
15674.80217064596
 20
889.8747482146442
 30
0.0
 11
15674.80217064596
 21
917.8747482146436
 31
0.0
  0
LINE
  5
174C8
330
17201
100
AcDbEntity
  8
YODOROGO
100
AcDbLine
 10
15766.80217064594
 20
937.8747482146435
 30
0.0
 11
15766.80217064594
 21
957.8747482146436
 31
0.0
  0
LINE
  5
174C9
330
17201
100
AcDbEntity
  8
YODOROGO
100
AcDbLine
 10
15706.80217064596
 20
853.874748214644
 30
0.0
 11
15706.80217064596
 21
953.874748214644
 31
0.0
  0
LINE
  5
174CA
330
17201
100
AcDbEntity
  8
YODOROGO
100
AcDbLine
 10
15618.80217064596
 20
853.874748214644
 30
0.0
 11
15706.80217064596
 21
853.874748214644
 31
0.0
  0
LINE
  5
174CB
330
17201
100
AcDbEntity
  8
YODOROGO
100
AcDbLine
 10
15706.80217064596
 20
981.8747482146434
 30
0.0
 11
15706.80217064596
 21
1013.874748214644
 31
0.0
  0
ARC
  5
174CC
330
17201
100
AcDbEntity
  8
YODOROGO
100
AcDbCircle
 10
15810.80217064596
 20
1001.874748214642
 30
0.0
 40
7.99999999999727
100
AcDbArc
 50
270.0
 51
0.0000000000081422
  0
LINE
  5
174CD
330
17201
100
AcDbEntity
  8
YODOROGO
100
AcDbLine
 10
15818.80217064596
 20
1013.874748214644
 30
0.0
 11
15818.80217064596
 21
1001.874748214643
 31
0.0
  0
LINE
  5
174CE
330
17201
100
AcDbEntity
  8
YODOROGO
100
AcDbLine
 10
15850.80217064596
 20
1013.874748214644
 30
0.0
 11
15818.80217064596
 21
1013.874748214644
 31
0.0
  0
LINE
  5
174CF
330
17201
100
AcDbEntity
  8
YODOROGO
100
AcDbLine
 10
15850.80217064596
 20
977.8747482146435
 30
0.0
 11
15850.80217064596
 21
1013.874748214644
 31
0.0
  0
ARC
  5
174D0
330
17201
100
AcDbEntity
  8
YODOROGO
100
AcDbCircle
 10
15830.80217064596
 20
977.8747482146435
 30
0.0
 40
20.0
100
AcDbArc
 50
270.0
 51
0.0
  0
LINE
  5
174D1
330
17201
100
AcDbEntity
  8
YODOROGO
100
AcDbLine
 10
15850.80217064596
 20
905.8747482146443
 30
0.0
 11
15850.80217064596
 21
937.8747482146435
 31
0.0
  0
LINE
  5
174D2
330
17201
100
AcDbEntity
  8
YODOROGO
100
AcDbLine
 10
15826.80217064594
 20
905.8747482146443
 30
0.0
 11
15850.80217064596
 21
905.8747482146443
 31
0.0
  0
LINE
  5
174D3
330
17201
100
AcDbEntity
  8
SUNPOU
100
AcDbLine
 10
4889.856483595693
 20
4586.963733520728
 30
0.0
 11
4889.856483595693
 21
4601.963733520728
 31
0.0
  0
LINE
  5
174D4
330
17201
100
AcDbEntity
  8
SUNPOU
100
AcDbLine
 10
4249.856483595691
 20
3783.963733520729
 30
0.0
 11
4249.856483595691
 21
4601.963733520728
 31
0.0
  0
LINE
  5
174D5
330
17201
100
AcDbEntity
  8
SUNPOU
100
AcDbLine
 10
4874.856483595692
 20
4556.963733520728
 30
0.0
 11
4264.856483595691
 21
4556.963733520728
 31
0.0
  0
LINE
  5
174D6
330
17201
100
AcDbEntity
  8
SUNPOU
100
AcDbLine
 10
6435.086990845943
 20
4556.963733520728
 30
0.0
 11
6375.086990845929
 21
4556.963733520728
 31
0.0
  0
LINE
  5
174D7
330
17201
100
AcDbEntity
  8
SUNPOU
100
AcDbLine
 10
6435.086990845936
 20
4556.963733520728
 30
0.0
 11
6375.086990845936
 21
4573.040685066597
 31
0.0
  0
LINE
  5
174D8
330
17201
100
AcDbEntity
  8
SUNPOU
100
AcDbLine
 10
6435.086990845943
 20
4556.963733520728
 30
0.0
 11
6375.086990845929
 21
4540.886781974857
 31
0.0
  0
LINE
  5
174D9
330
17201
100
AcDbEntity
  8
SUNPOU
100
AcDbLine
 10
6375.086990845943
 20
4556.963733520728
 30
0.0
 11
6315.086990845929
 21
4556.963733520728
 31
0.0
  0
LINE
  5
174DA
330
17201
100
AcDbEntity
  8
SUNPOU
100
AcDbLine
 10
6375.086990845936
 20
4556.963733520728
 30
0.0
 11
6315.086990845936
 21
4573.040685066597
 31
0.0
  0
LINE
  5
174DB
330
17201
100
AcDbEntity
  8
SUNPOU
100
AcDbLine
 10
6375.086990845943
 20
4556.963733520728
 30
0.0
 11
6315.086990845929
 21
4540.886781974857
 31
0.0
  0
LINE
  5
174DC
330
17201
100
AcDbEntity
  8
SUNPOU
100
AcDbLine
 10
6397.249978138844
 20
3753.963733520729
 30
0.0
 11
6863.18758900464
 21
3753.963733520729
 31
0.0
  0
LINE
  5
174DD
330
17201
100
AcDbEntity
  8
SUNPOU
100
AcDbLine
 10
5719.856483595691
 20
3145.963733520729
 30
0.0
 11
6863.18758900464
 21
3145.963733520729
 31
0.0
  0
LINE
  5
174DE
330
17201
100
AcDbEntity
  8
SUNPOU
100
AcDbLine
 10
6818.18758900464
 20
3738.963733520729
 30
0.0
 11
6818.18758900464
 21
3160.963733520729
 31
0.0
  0
LINE
  5
174DF
330
17201
100
AcDbEntity
  8
SUNPOU
100
AcDbLine
 10
5719.856483595692
 20
3145.963733520728
 30
0.0
 11
6863.18758900464
 21
3145.963733520728
 31
0.0
  0
LINE
  5
174E0
330
17201
100
AcDbEntity
  8
SUNPOU
100
AcDbLine
 10
5719.856483595692
 20
2985.963733520732
 30
0.0
 11
6863.18758900464
 21
2985.963733520732
 31
0.0
  0
LINE
  5
174E1
330
17201
100
AcDbEntity
  8
SUNPOU
100
AcDbLine
 10
6818.18758900464
 20
3130.963733520728
 30
0.0
 11
6818.18758900464
 21
3000.963733520731
 31
0.0
  0
LINE
  5
174E2
330
17201
100
AcDbEntity
  8
SUNPOU
100
AcDbLine
 10
6397.249978138844
 20
3753.963733520729
 30
0.0
 11
7069.43758900464
 21
3753.963733520729
 31
0.0
  0
LINE
  5
174E3
330
17201
100
AcDbEntity
  8
SUNPOU
100
AcDbLine
 10
5719.856483595692
 20
2985.963733520732
 30
0.0
 11
7069.43758900464
 21
2985.963733520732
 31
0.0
  0
LINE
  5
174E4
330
17201
100
AcDbEntity
  8
SUNPOU
100
AcDbLine
 10
7024.43758900464
 20
3738.963733520729
 30
0.0
 11
7024.43758900464
 21
3000.963733520731
 31
0.0
  0
LINE
  5
174E5
330
17201
100
AcDbEntity
  8
SUNPOU
100
AcDbLine
 10
4249.856483595691
 20
3115.963733520729
 30
0.0
 11
4249.856483595691
 21
2560.963733520728
 31
0.0
  0
LINE
  5
174E6
330
17201
100
AcDbEntity
  8
SUNPOU
100
AcDbLine
 10
5529.856483595692
 20
3115.963733520729
 30
0.0
 11
5529.856483595692
 21
2560.963733520728
 31
0.0
  0
LINE
  5
174E7
330
17201
100
AcDbEntity
  8
SUNPOU
100
AcDbLine
 10
4264.856483595691
 20
2605.963733520728
 30
0.0
 11
5514.856483595691
 21
2605.963733520728
 31
0.0
  0
LINE
  5
174E8
330
17201
100
AcDbEntity
  8
SUNPOU
100
AcDbLine
 10
4089.85648359569
 20
2955.963733520729
 30
0.0
 11
4089.85648359569
 21
2350.963733520728
 31
0.0
  0
LINE
  5
174E9
330
17201
100
AcDbEntity
  8
SUNPOU
100
AcDbLine
 10
5689.856483595693
 20
2955.963733520731
 30
0.0
 11
5689.856483595693
 21
2350.963733520728
 31
0.0
  0
LINE
  5
174EA
330
17201
100
AcDbEntity
  8
SUNPOU
100
AcDbLine
 10
4104.856483595692
 20
2395.963733520728
 30
0.0
 11
5674.856483595693
 21
2395.963733520728
 31
0.0
  0
LINE
  5
174EB
330
17201
100
AcDbEntity
  8
SUNPOU
100
AcDbLine
 10
11995.12750789964
 20
8908.243182432325
 30
0.0
 11
12414.12750789964
 21
8908.243182432324
 31
0.0
  0
LINE
  5
174EC
330
17201
100
AcDbEntity
  8
SUNPOU
100
AcDbLine
 10
11999.12750789964
 20
9108.243182432325
 30
0.0
 11
12414.12750789964
 21
9108.243182432325
 31
0.0
  0
LINE
  5
174ED
330
17201
100
AcDbEntity
  8
SUNPOU
100
AcDbLine
 10
12369.12750789964
 20
8923.243182432326
 30
0.0
 11
12369.12750789964
 21
9093.243182432324
 31
0.0
  0
LINE
  5
174EE
330
17201
100
AcDbEntity
  8
SUNPOU
100
AcDbLine
 10
12369.12750789964
 20
9108.243182432325
 30
0.0
 11
12369.12750789964
 21
9367.52889671804
 31
0.0
  0
LINE
  5
174EF
330
17201
100
AcDbEntity
  8
SUNPOU
100
AcDbLine
 10
12144.12750789964
 20
8708.243182432324
 30
0.0
 11
12414.12750789964
 21
8708.243182432324
 31
0.0
  0
LINE
  5
174F0
330
17201
100
AcDbEntity
  8
SUNPOU
100
AcDbLine
 10
11999.12750789964
 20
8908.243182432325
 30
0.0
 11
12414.12750789964
 21
8908.243182432324
 31
0.0
  0
LINE
  5
174F1
330
17201
100
AcDbEntity
  8
SUNPOU
100
AcDbLine
 10
12369.12750789964
 20
8893.243182432323
 30
0.0
 11
12369.12750789964
 21
8723.243182432323
 31
0.0
  0
LINE
  5
174F2
330
17201
100
AcDbEntity
  8
SUNPOU
100
AcDbLine
 10
12369.12750789964
 20
8708.243182432324
 30
0.0
 11
12369.12750789964
 21
8448.957468146611
 31
0.0
  0
LINE
  5
174F3
330
17201
100
AcDbEntity
  8
SUNPOU
100
AcDbLine
 10
9549.127507899637
 20
7308.243182432327
 30
0.0
 11
9864.12750789964
 21
7308.243182432327
 31
0.0
  0
LINE
  5
174F4
330
17201
100
AcDbEntity
  8
SUNPOU
100
AcDbLine
 10
9549.127507899637
 20
6508.243182432327
 30
0.0
 11
9864.12750789964
 21
6508.243182432327
 31
0.0
  0
LINE
  5
174F5
330
17201
100
AcDbEntity
  8
SUNPOU
100
AcDbLine
 10
9819.127507899644
 20
7293.243182432326
 30
0.0
 11
9819.127507899644
 21
6523.243182432327
 31
0.0
  0
LINE
  5
174F6
330
17201
100
AcDbEntity
  8
SUNPOU
100
AcDbLine
 10
5894.127507899639
 20
7118.243182432327
 30
0.0
 11
5879.127507899639
 21
7208.243182432326
 31
0.0
  0
LINE
  5
174F7
330
17201
100
AcDbEntity
  8
SUNPOU
100
AcDbLine
 10
5879.127507899639
 20
7208.243182432326
 30
0.0
 11
5864.127507899638
 21
7118.243182432327
 31
0.0
  0
SOLID
  5
174F8
330
17201
100
AcDbEntity
  8
SUNPOU
100
AcDbTrace
 10
5894.127507899639
 20
7118.243182432327
 30
0.0
 11
5864.127507899638
 21
7118.243182432327
 31
0.0
 12
5879.127507899639
 22
7208.243182432326
 32
0.0
 13
5879.127507899639
 23
7208.243182432326
 33
0.0
  0
LINE
  5
174F9
330
17201
100
AcDbEntity
  8
SUNPOU
100
AcDbLine
 10
5864.127507899638
 20
7118.243182432327
 30
0.0
 11
5894.127507899639
 21
7118.243182432327
 31
0.0
  0
LINE
  5
174FA
330
17201
100
AcDbEntity
  8
SUNPOU
100
AcDbLine
 10
4644.127507899637
 20
7118.243182432327
 30
0.0
 11
4659.127507899635
 21
7208.243182432326
 31
0.0
  0
LINE
  5
174FB
330
17201
100
AcDbEntity
  8
SUNPOU
100
AcDbLine
 10
4659.127507899635
 20
7208.243182432326
 30
0.0
 11
4674.127507899636
 21
7118.243182432327
 31
0.0
  0
SOLID
  5
174FC
330
17201
100
AcDbEntity
  8
SUNPOU
100
AcDbTrace
 10
4644.127507899637
 20
7118.243182432327
 30
0.0
 11
4674.127507899636
 21
7118.243182432327
 31
0.0
 12
4659.127507899635
 22
7208.243182432326
 32
0.0
 13
4659.127507899635
 23
7208.243182432326
 33
0.0
  0
LINE
  5
174FD
330
17201
100
AcDbEntity
  8
SUNPOU
100
AcDbLine
 10
4674.127507899636
 20
7118.243182432327
 30
0.0
 11
4644.127507899637
 21
7118.243182432327
 31
0.0
  0
TEXT
  5
174FE
330
17201
100
AcDbEntity
  8
SUNPOU
100
AcDbText
 10
8011.413222185353
 20
9453.243182432325
 30
0.0
 40
90.0
  1
2450 × （ N - 2 ）
 41
0.6666666666666666
  7
00
100
AcDbText
  0
LINE
  5
174FF
330
17201
100
AcDbEntity
  8
SUNPOU
100
AcDbLine
 10
7730.377507899638
 20
9408.243182432325
 30
0.0
 11
7741.627507899638
 21
9408.243182432325
 31
0.0
  0
LINE
  5
17500
330
17201
100
AcDbEntity
  8
SUNPOU
100
AcDbLine
 10
9107.877507899637
 20
9408.243182432325
 30
0.0
 11
9096.627507899638
 21
9408.243182432325
 31
0.0
  0
LINE
  5
17501
330
17201
100
AcDbEntity
  8
SUNPOU
100
AcDbLine
 10
4869.12750789964
 20
9138.243182432324
 30
0.0
 11
4869.12750789964
 21
9663.243182432324
 31
0.0
  0
LINE
  5
17502
330
17201
100
AcDbEntity
  8
SUNPOU
100
AcDbLine
 10
11969.12750789964
 20
9138.243182432324
 30
0.0
 11
11969.12750789964
 21
9663.243182432324
 31
0.0
  0
LINE
  5
17503
330
17201
100
AcDbEntity
  8
SUNPOU
100
AcDbLine
 10
4884.12750789964
 20
9618.243182432324
 30
0.0
 11
11954.12750789964
 21
9618.243182432324
 31
0.0
  0
LINE
  5
17504
330
17201
100
AcDbEntity
  8
SUNPOU
100
AcDbLine
 10
7719.127507899639
 20
9338.243182432325
 30
0.0
 11
7719.127507899639
 21
9453.243182432325
 31
0.0
  0
LINE
  5
17505
330
17201
100
AcDbEntity
  8
SUNPOU
100
AcDbLine
 10
5269.127507899639
 20
9338.243182432325
 30
0.0
 11
5269.127507899639
 21
9453.243182432325
 31
0.0
  0
LINE
  5
17506
330
17201
100
AcDbEntity
  8
SUNPOU
100
AcDbLine
 10
7704.127507899638
 20
9408.243182432325
 30
0.0
 11
5284.12750789964
 21
9408.243182432325
 31
0.0
  0
LINE
  5
17507
330
17201
100
AcDbEntity
  8
SUNPOU
100
AcDbLine
 10
11569.12750789964
 20
9338.243182432325
 30
0.0
 11
11569.12750789964
 21
9453.243182432325
 31
0.0
  0
LINE
  5
17508
330
17201
100
AcDbEntity
  8
SUNPOU
100
AcDbLine
 10
9119.127507899637
 20
9338.243182432325
 30
0.0
 11
9119.127507899637
 21
9453.243182432325
 31
0.0
  0
LINE
  5
17509
330
17201
100
AcDbEntity
  8
SUNPOU
100
AcDbLine
 10
11554.12750789964
 20
9408.243182432325
 30
0.0
 11
9134.12750789964
 21
9408.243182432325
 31
0.0
  0
LINE
  5
1750A
330
17201
100
AcDbEntity
  8
SUNPOU
100
AcDbLine
 10
5269.127507899639
 20
9338.243182432325
 30
0.0
 11
5269.127507899639
 21
9453.243182432325
 31
0.0
  0
LINE
  5
1750B
330
17201
100
AcDbEntity
  8
SUNPOU
100
AcDbLine
 10
4869.12750789964
 20
9138.243182432324
 30
0.0
 11
4869.12750789964
 21
9453.243182432325
 31
0.0
  0
LINE
  5
1750C
330
17201
100
AcDbEntity
  8
SUNPOU
100
AcDbLine
 10
5254.12750789964
 20
9408.243182432325
 30
0.0
 11
4884.12750789964
 21
9408.243182432325
 31
0.0
  0
LINE
  5
1750D
330
17201
100
AcDbEntity
  8
SUNPOU
100
AcDbLine
 10
11569.12750789964
 20
9338.243182432325
 30
0.0
 11
11569.12750789964
 21
9453.243182432325
 31
0.0
  0
LINE
  5
1750E
330
17201
100
AcDbEntity
  8
SUNPOU
100
AcDbLine
 10
11969.12750789964
 20
9138.243182432324
 30
0.0
 11
11969.12750789964
 21
9453.243182432325
 31
0.0
  0
LINE
  5
1750F
330
17201
100
AcDbEntity
  8
SUNPOU
100
AcDbLine
 10
11584.12750789964
 20
9408.243182432325
 30
0.0
 11
11954.12750789964
 21
9408.243182432325
 31
0.0
  0
LINE
  5
17510
330
17201
100
AcDbEntity
  8
SUNPOU
100
AcDbLine
 10
12789.12750789964
 20
9096.993182432326
 30
0.0
 11
12789.12750789964
 21
9085.743182432326
 31
0.0
  0
LINE
  5
17511
330
17201
100
AcDbEntity
  8
SUNPOU
100
AcDbLine
 10
12579.12750789964
 20
9096.993182432326
 30
0.0
 11
12579.12750789964
 21
9085.743182432326
 31
0.0
  0
LINE
  5
17512
330
17201
100
AcDbEntity
  8
SUNPOU
100
AcDbLine
 10
12579.12750789964
 20
8696.993182432326
 30
0.0
 11
12579.12750789964
 21
8685.743182432325
 31
0.0
  0
LINE
  5
17513
330
17201
100
AcDbEntity
  8
SUNPOU
100
AcDbLine
 10
12579.12750789964
 20
8719.493182432325
 30
0.0
 11
12579.12750789964
 21
8730.743182432325
 31
0.0
  0
LINE
  5
17514
330
17201
100
AcDbEntity
  8
SUNPOU
100
AcDbLine
 10
12579.12750789964
 20
6896.993182432327
 30
0.0
 11
12579.12750789964
 21
6885.743182432327
 31
0.0
  0
LINE
  5
17515
330
17201
100
AcDbEntity
  8
SUNPOU
100
AcDbLine
 10
12579.12750789964
 20
6919.493182432326
 30
0.0
 11
12579.12750789964
 21
6930.743182432327
 31
0.0
  0
LINE
  5
17516
330
17201
100
AcDbEntity
  8
SUNPOU
100
AcDbLine
 10
12789.12750789964
 20
6519.493182432326
 30
0.0
 11
12789.12750789964
 21
6530.743182432328
 31
0.0
  0
LINE
  5
17517
330
17201
100
AcDbEntity
  8
SUNPOU
100
AcDbLine
 10
12579.12750789964
 20
6519.493182432326
 30
0.0
 11
12579.12750789964
 21
6530.743182432328
 31
0.0
  0
LINE
  5
17518
330
17201
100
AcDbEntity
  8
SUNPOU
100
AcDbLine
 10
7289.127507899637
 20
9108.243182432325
 30
0.0
 11
6974.127507899639
 21
9108.243182432325
 31
0.0
  0
LINE
  5
17519
330
17201
100
AcDbEntity
  8
SUNPOU
100
AcDbLine
 10
7289.127507899637
 20
8308.243182432326
 30
0.0
 11
6974.127507899639
 21
8308.243182432326
 31
0.0
  0
LINE
  5
1751A
330
17201
100
AcDbEntity
  8
SUNPOU
100
AcDbLine
 10
7019.127507899638
 20
9093.243182432329
 30
0.0
 11
7019.127507899638
 21
8323.243182432326
 31
0.0
  0
LINE
  5
1751B
330
17201
100
AcDbEntity
  8
SUNPOU
100
AcDbLine
 10
7319.127507899638
 20
8278.243182432325
 30
0.0
 11
7319.127507899638
 21
7963.243182432326
 31
0.0
  0
LINE
  5
1751C
330
17201
100
AcDbEntity
  8
SUNPOU
100
AcDbLine
 10
8119.127507899639
 20
8278.243182432325
 30
0.0
 11
8119.127507899639
 21
7963.243182432326
 31
0.0
  0
LINE
  5
1751D
330
17201
100
AcDbEntity
  8
SUNPOU
100
AcDbLine
 10
7334.127507899637
 20
8008.243182432327
 30
0.0
 11
8104.127507899638
 21
8008.243182432327
 31
0.0
  0
LINE
  5
1751E
330
17201
100
AcDbEntity
  8
SUNPOU
100
AcDbLine
 10
8719.127507899637
 20
7338.243182432326
 30
0.0
 11
8719.127507899637
 21
7653.243182432325
 31
0.0
  0
LINE
  5
1751F
330
17201
100
AcDbEntity
  8
SUNPOU
100
AcDbLine
 10
9519.127507899638
 20
7338.243182432326
 30
0.0
 11
9519.127507899638
 21
7653.243182432325
 31
0.0
  0
LINE
  5
17520
330
17201
100
AcDbEntity
  8
SUNPOU
100
AcDbLine
 10
8734.127507899637
 20
7608.243182432326
 30
0.0
 11
9504.127507899637
 21
7608.243182432326
 31
0.0
  0
TEXT
  5
17521
330
17201
100
AcDbEntity
  8
SUNPOU
100
AcDbText
 10
4484.142197881406
 20
4601.963733520728
 30
0.0
 40
90.0
  1
400
 41
0.6666666666666666
  7
00
100
AcDbText
  0
LINE
  5
17522
330
17201
100
AcDbEntity
  8
SUNPOU
100
AcDbLine
 10
4261.106483595692
 20
4556.963733520728
 30
0.0
 11
4272.356483595691
 21
4556.963733520728
 31
0.0
  0
LINE
  5
17523
330
17201
100
AcDbEntity
  8
SUNPOU
100
AcDbLine
 10
4878.606483595692
 20
4556.963733520728
 30
0.0
 11
4867.356483595692
 21
4556.963733520728
 31
0.0
  0
TEXT
  5
17524
330
17201
100
AcDbEntity
  8
SUNPOU
100
AcDbText
 10
6773.187589004638
 20
3364.249447806444
 30
0.0
 40
90.0
  1
380
 50
90.0
 41
0.6666666666666666
  7
00
100
AcDbText
  0
LINE
  5
17525
330
17201
100
AcDbEntity
  8
SUNPOU
100
AcDbLine
 10
6818.18758900464
 20
3157.213733520729
 30
0.0
 11
6818.18758900464
 21
3168.463733520729
 31
0.0
  0
LINE
  5
17526
330
17201
100
AcDbEntity
  8
SUNPOU
100
AcDbLine
 10
6818.18758900464
 20
3742.713733520729
 30
0.0
 11
6818.18758900464
 21
3731.463733520728
 31
0.0
  0
LINE
  5
17527
330
17201
100
AcDbEntity
  8
SUNPOU
100
AcDbLine
 10
6818.18758900464
 20
2997.213733520732
 30
0.0
 11
6818.18758900464
 21
3008.463733520732
 31
0.0
  0
LINE
  5
17528
330
17201
100
AcDbEntity
  8
SUNPOU
100
AcDbLine
 10
6818.18758900464
 20
3134.713733520728
 30
0.0
 11
6818.18758900464
 21
3123.463733520728
 31
0.0
  0
TEXT
  5
17529
330
17201
100
AcDbEntity
  8
SUNPOU
100
AcDbText
 10
6775.015821249391
 20
2760.243102996788
 30
0.0
 40
90.0
  1
100
 50
90.0
 41
0.6666666666666666
  7
00
100
AcDbText
  0
TEXT
  5
1752A
330
17201
100
AcDbEntity
  8
SUNPOU
100
AcDbText
 10
6979.437589004638
 20
3284.249447806444
 30
0.0
 40
90.0
  1
480
 50
90.0
 41
0.6666666666666666
  7
00
100
AcDbText
  0
LINE
  5
1752B
330
17201
100
AcDbEntity
  8
SUNPOU
100
AcDbLine
 10
7024.43758900464
 20
2997.213733520732
 30
0.0
 11
7024.43758900464
 21
3008.463733520732
 31
0.0
  0
LINE
  5
1752C
330
17201
100
AcDbEntity
  8
SUNPOU
100
AcDbLine
 10
7024.43758900464
 20
3742.713733520729
 30
0.0
 11
7024.43758900464
 21
3731.463733520728
 31
0.0
  0
TEXT
  5
1752D
330
17201
100
AcDbEntity
  8
SUNPOU
100
AcDbText
 10
4804.142197881406
 20
2650.963733520728
 30
0.0
 40
90.0
  1
800
 41
0.6666666666666666
  7
00
100
AcDbText
  0
LINE
  5
1752E
330
17201
100
AcDbEntity
  8
SUNPOU
100
AcDbLine
 10
5518.606483595691
 20
2605.963733520728
 30
0.0
 11
5507.356483595692
 21
2605.963733520728
 31
0.0
  0
LINE
  5
1752F
330
17201
100
AcDbEntity
  8
SUNPOU
100
AcDbLine
 10
4261.106483595692
 20
2605.963733520728
 30
0.0
 11
4272.356483595691
 21
2605.963733520728
 31
0.0
  0
TEXT
  5
17530
330
17201
100
AcDbEntity
  8
SUNPOU
100
AcDbText
 10
4771.285055024263
 20
2440.963733520729
 30
0.0
 40
90.0
  1
1000
 41
0.6666666666666666
  7
00
100
AcDbText
  0
LINE
  5
17531
330
17201
100
AcDbEntity
  8
SUNPOU
100
AcDbLine
 10
5678.606483595692
 20
2395.963733520728
 30
0.0
 11
5667.356483595693
 21
2395.963733520728
 31
0.0
  0
LINE
  5
17532
330
17201
100
AcDbEntity
  8
SUNPOU
100
AcDbLine
 10
4101.106483595692
 20
2395.963733520728
 30
0.0
 11
4112.356483595691
 21
2395.963733520728
 31
0.0
  0
TEXT
  5
17533
330
17201
100
AcDbEntity
  8
SUNPOU
100
AcDbText
 10
12324.12750789964
 20
9159.6717538609
 30
0.0
 40
90.0
  1
200
 50
90.0
 41
0.6666666666666666
  7
00
100
AcDbText
  0
LINE
  5
17534
330
17201
100
AcDbEntity
  8
SUNPOU
100
AcDbLine
 10
12369.12750789964
 20
9096.993182432326
 30
0.0
 11
12369.12750789964
 21
9085.743182432326
 31
0.0
  0
LINE
  5
17535
330
17201
100
AcDbEntity
  8
SUNPOU
100
AcDbLine
 10
12369.12750789964
 20
8919.493182432324
 30
0.0
 11
12369.12750789964
 21
8930.743182432323
 31
0.0
  0
TEXT
  5
17536
330
17201
100
AcDbEntity
  8
SUNPOU
100
AcDbText
 10
12324.12750789964
 20
8485.386039575185
 30
0.0
 40
90.0
  1
200
 50
90.0
 41
0.6666666666666666
  7
00
100
AcDbText
  0
LINE
  5
17537
330
17201
100
AcDbEntity
  8
SUNPOU
100
AcDbLine
 10
12369.12750789964
 20
8719.493182432323
 30
0.0
 11
12369.12750789964
 21
8730.743182432323
 31
0.0
  0
LINE
  5
17538
330
17201
100
AcDbEntity
  8
SUNPOU
100
AcDbLine
 10
12369.12750789964
 20
8896.993182432323
 30
0.0
 11
12369.12750789964
 21
8885.743182432326
 31
0.0
  0
TEXT
  5
17539
330
17201
100
AcDbEntity
  8
SUNPOU
100
AcDbText
 10
9774.127507899642
 20
6822.528896718042
 30
0.0
 40
90.0
  1
800
 50
90.0
 41
0.6666666666666666
  7
00
100
AcDbText
  0
LINE
  5
1753A
330
17201
100
AcDbEntity
  8
SUNPOU
100
AcDbLine
 10
9819.127507899644
 20
6519.493182432326
 30
0.0
 11
9819.127507899644
 21
6530.743182432328
 31
0.0
  0
LINE
  5
1753B
330
17201
100
AcDbEntity
  8
SUNPOU
100
AcDbLine
 10
9819.127507899644
 20
7296.993182432325
 30
0.0
 11
9819.127507899644
 21
7285.743182432326
 31
0.0
  0
ARC
  5
1753C
330
17201
100
AcDbEntity
  8
SUNPOU
100
AcDbCircle
 10
7719.127507899639
 20
9408.243182432325
 30
0.0
 40
5.625
100
AcDbArc
 50
0.0
 51
180.0
  0
ARC
  5
1753D
330
17201
100
AcDbEntity
  8
SUNPOU
100
AcDbCircle
 10
7719.127507899639
 20
9408.243182432325
 30
0.0
 40
5.625
100
AcDbArc
 50
180.0
 51
0.0
  0
ARC
  5
1753E
330
17201
100
AcDbEntity
  8
SUNPOU
100
AcDbCircle
 10
9119.127507899637
 20
9408.243182432325
 30
0.0
 40
5.625
100
AcDbArc
 50
180.0
 51
0.0
  0
ARC
  5
1753F
330
17201
100
AcDbEntity
  8
SUNPOU
100
AcDbCircle
 10
9119.127507899637
 20
9408.243182432325
 30
0.0
 40
5.625
100
AcDbArc
 50
0.0
 51
180.0
  0
TEXT
  5
17540
330
17201
100
AcDbEntity
  8
SUNPOU
100
AcDbText
 10
7955.413222185355
 20
9663.243182432324
 30
0.0
 40
90.0
  1
L = 2450 x N + 800
 41
0.6666666666666666
  7
00
100
AcDbText
  0
LINE
  5
17541
330
17201
100
AcDbEntity
  8
SUNPOU
100
AcDbLine
 10
11957.87750789964
 20
9618.243182432324
 30
0.0
 11
11946.62750789964
 21
9618.243182432324
 31
0.0
  0
LINE
  5
17542
330
17201
100
AcDbEntity
  8
SUNPOU
100
AcDbLine
 10
4880.377507899638
 20
9618.243182432324
 30
0.0
 11
4891.627507899638
 21
9618.243182432324
 31
0.0
  0
TEXT
  5
17543
330
17201
100
AcDbEntity
  8
SUNPOU
100
AcDbText
 10
6379.841793613925
 20
9453.243182432325
 30
0.0
 40
90.0
  1
2450
 41
0.6666666666666666
  7
00
100
AcDbText
  0
LINE
  5
17544
330
17201
100
AcDbEntity
  8
SUNPOU
100
AcDbLine
 10
5280.37750789964
 20
9408.243182432325
 30
0.0
 11
5291.627507899637
 21
9408.243182432325
 31
0.0
  0
LINE
  5
17545
330
17201
100
AcDbEntity
  8
SUNPOU
100
AcDbLine
 10
7707.877507899637
 20
9408.243182432325
 30
0.0
 11
7696.627507899638
 21
9408.243182432325
 31
0.0
  0
TEXT
  5
17546
330
17201
100
AcDbEntity
  8
SUNPOU
100
AcDbText
 10
10229.84179361392
 20
9453.243182432325
 30
0.0
 40
90.0
  1
2450
 41
0.6666666666666666
  7
00
100
AcDbText
  0
LINE
  5
17547
330
17201
100
AcDbEntity
  8
SUNPOU
100
AcDbLine
 10
9130.377507899636
 20
9408.243182432325
 30
0.0
 11
9141.62750789964
 21
9408.243182432325
 31
0.0
  0
LINE
  5
17548
330
17201
100
AcDbEntity
  8
SUNPOU
100
AcDbLine
 10
11557.87750789964
 20
9408.243182432325
 30
0.0
 11
11546.62750789964
 21
9408.243182432325
 31
0.0
  0
TEXT
  5
17549
330
17201
100
AcDbEntity
  8
SUNPOU
100
AcDbText
 10
4983.413222185355
 20
9453.243182432325
 30
0.0
 40
90.0
  1
400
 41
0.6666666666666666
  7
00
100
AcDbText
  0
LINE
  5
1754A
330
17201
100
AcDbEntity
  8
SUNPOU
100
AcDbLine
 10
4880.377507899638
 20
9408.243182432325
 30
0.0
 11
4891.627507899638
 21
9408.243182432325
 31
0.0
  0
LINE
  5
1754B
330
17201
100
AcDbEntity
  8
SUNPOU
100
AcDbLine
 10
5257.877507899639
 20
9408.243182432325
 30
0.0
 11
5246.627507899638
 21
9408.243182432325
 31
0.0
  0
TEXT
  5
1754C
330
17201
100
AcDbEntity
  8
SUNPOU
100
AcDbText
 10
11683.41322218535
 20
9453.243182432325
 30
0.0
 40
90.0
  1
400
 41
0.6666666666666666
  7
00
100
AcDbText
  0
LINE
  5
1754D
330
17201
100
AcDbEntity
  8
SUNPOU
100
AcDbLine
 10
11957.87750789964
 20
9408.243182432325
 30
0.0
 11
11946.62750789964
 21
9408.243182432325
 31
0.0
  0
LINE
  5
1754E
330
17201
100
AcDbEntity
  8
SUNPOU
100
AcDbLine
 10
11580.37750789964
 20
9408.243182432325
 30
0.0
 11
11591.62750789964
 21
9408.243182432325
 31
0.0
  0
ARC
  5
1754F
330
17201
100
AcDbEntity
  8
SUNPOU
100
AcDbCircle
 10
12789.12750789964
 20
9108.243182432325
 30
0.0
 40
5.625
100
AcDbArc
 50
270.0
 51
90.0
  0
ARC
  5
17550
330
17201
100
AcDbEntity
  8
SUNPOU
100
AcDbCircle
 10
12789.12750789964
 20
9108.243182432325
 30
0.0
 40
5.625
100
AcDbArc
 50
90.0
 51
270.0
  0
ARC
  5
17551
330
17201
100
AcDbEntity
  8
SUNPOU
100
AcDbCircle
 10
12579.12750789964
 20
9108.243182432325
 30
0.0
 40
5.625
100
AcDbArc
 50
270.0
 51
90.0
  0
ARC
  5
17552
330
17201
100
AcDbEntity
  8
SUNPOU
100
AcDbCircle
 10
12579.12750789964
 20
9108.243182432325
 30
0.0
 40
5.625
100
AcDbArc
 50
90.0
 51
270.0
  0
ARC
  5
17553
330
17201
100
AcDbEntity
  8
SUNPOU
100
AcDbCircle
 10
12579.12750789964
 20
8708.243182432324
 30
0.0
 40
5.625
100
AcDbArc
 50
270.0
 51
90.0
  0
ARC
  5
17554
330
17201
100
AcDbEntity
  8
SUNPOU
100
AcDbCircle
 10
12579.12750789964
 20
8708.243182432324
 30
0.0
 40
5.625
100
AcDbArc
 50
90.0
 51
270.0
  0
ARC
  5
17555
330
17201
100
AcDbEntity
  8
SUNPOU
100
AcDbCircle
 10
12579.12750789964
 20
8708.243182432324
 30
0.0
 40
5.625
100
AcDbArc
 50
90.0
 51
270.0
  0
ARC
  5
17556
330
17201
100
AcDbEntity
  8
SUNPOU
100
AcDbCircle
 10
12579.12750789964
 20
8708.243182432324
 30
0.0
 40
5.625
100
AcDbArc
 50
270.0
 51
90.0
  0
ARC
  5
17557
330
17201
100
AcDbEntity
  8
SUNPOU
100
AcDbCircle
 10
12579.12750789964
 20
6908.243182432326
 30
0.0
 40
5.625
100
AcDbArc
 50
270.0
 51
90.0
  0
ARC
  5
17558
330
17201
100
AcDbEntity
  8
SUNPOU
100
AcDbCircle
 10
12579.12750789964
 20
6908.243182432326
 30
0.0
 40
5.625
100
AcDbArc
 50
90.0
 51
270.0
  0
ARC
  5
17559
330
17201
100
AcDbEntity
  8
SUNPOU
100
AcDbCircle
 10
12579.12750789964
 20
6908.243182432326
 30
0.0
 40
5.625
100
AcDbArc
 50
90.0
 51
270.0
  0
ARC
  5
1755A
330
17201
100
AcDbEntity
  8
SUNPOU
100
AcDbCircle
 10
12579.12750789964
 20
6908.243182432326
 30
0.0
 40
5.625
100
AcDbArc
 50
270.0
 51
90.0
  0
ARC
  5
1755B
330
17201
100
AcDbEntity
  8
SUNPOU
100
AcDbCircle
 10
12789.12750789964
 20
6508.243182432327
 30
0.0
 40
5.625
100
AcDbArc
 50
90.0
 51
270.0
  0
ARC
  5
1755C
330
17201
100
AcDbEntity
  8
SUNPOU
100
AcDbCircle
 10
12789.12750789964
 20
6508.243182432327
 30
0.0
 40
5.625
100
AcDbArc
 50
270.0
 51
90.0
  0
ARC
  5
1755D
330
17201
100
AcDbEntity
  8
SUNPOU
100
AcDbCircle
 10
12579.12750789964
 20
6508.243182432327
 30
0.0
 40
5.625
100
AcDbArc
 50
90.0
 51
270.0
  0
ARC
  5
1755E
330
17201
100
AcDbEntity
  8
SUNPOU
100
AcDbCircle
 10
12579.12750789964
 20
6508.243182432327
 30
0.0
 40
5.625
100
AcDbArc
 50
270.0
 51
90.0
  0
TEXT
  5
1755F
330
17201
100
AcDbEntity
  8
SUNPOU
100
AcDbText
 10
6974.127507899638
 20
8622.528896718042
 30
0.0
 40
90.0
  1
800
 50
90.0
 41
0.6666666666666666
  7
00
100
AcDbText
  0
LINE
  5
17560
330
17201
100
AcDbEntity
  8
SUNPOU
100
AcDbLine
 10
7019.127507899638
 20
8319.493182432324
 30
0.0
 11
7019.127507899638
 21
8330.743182432325
 31
0.0
  0
LINE
  5
17561
330
17201
100
AcDbEntity
  8
SUNPOU
100
AcDbLine
 10
7019.127507899638
 20
9096.993182432326
 30
0.0
 11
7019.127507899638
 21
9085.743182432326
 31
0.0
  0
TEXT
  5
17562
330
17201
100
AcDbEntity
  8
SUNPOU
100
AcDbText
 10
7633.413222185355
 20
8053.243182432325
 30
0.0
 40
90.0
  1
800
 41
0.6666666666666666
  7
00
100
AcDbText
  0
LINE
  5
17563
330
17201
100
AcDbEntity
  8
SUNPOU
100
AcDbLine
 10
8107.877507899637
 20
8008.243182432327
 30
0.0
 11
8096.627507899638
 21
8008.243182432327
 31
0.0
  0
LINE
  5
17564
330
17201
100
AcDbEntity
  8
SUNPOU
100
AcDbLine
 10
7330.377507899638
 20
8008.243182432327
 30
0.0
 11
7341.627507899637
 21
8008.243182432327
 31
0.0
  0
TEXT
  5
17565
330
17201
100
AcDbEntity
  8
SUNPOU
100
AcDbText
 10
9033.413222185352
 20
7653.243182432325
 30
0.0
 40
90.0
  1
800
 41
0.6666666666666666
  7
00
100
AcDbText
  0
LINE
  5
17566
330
17201
100
AcDbEntity
  8
SUNPOU
100
AcDbLine
 10
9507.877507899637
 20
7608.243182432326
 30
0.0
 11
9496.627507899637
 21
7608.243182432326
 31
0.0
  0
LINE
  5
17567
330
17201
100
AcDbEntity
  8
SUNPOU
100
AcDbLine
 10
8730.377507899637
 20
7608.243182432326
 30
0.0
 11
8741.627507899636
 21
7608.243182432326
 31
0.0
  0
ARC
  5
17568
330
17201
100
AcDbEntity
  8
SUNPOU
100
AcDbCircle
 10
4249.856483595691
 20
4556.963733520728
 30
0.0
 40
5.625
100
AcDbArc
 50
0.0
 51
180.0
  0
ARC
  5
17569
330
17201
100
AcDbEntity
  8
SUNPOU
100
AcDbCircle
 10
4249.856483595691
 20
4556.963733520728
 30
0.0
 40
5.625
100
AcDbArc
 50
180.0
 51
0.0
  0
ARC
  5
1756A
330
17201
100
AcDbEntity
  8
SUNPOU
100
AcDbCircle
 10
4889.856483595693
 20
4556.963733520728
 30
0.0
 40
5.625
100
AcDbArc
 50
180.0
 51
0.0
  0
ARC
  5
1756B
330
17201
100
AcDbEntity
  8
SUNPOU
100
AcDbCircle
 10
4889.856483595693
 20
4556.963733520728
 30
0.0
 40
5.625
100
AcDbArc
 50
0.0
 51
180.0
  0
ARC
  5
1756C
330
17201
100
AcDbEntity
  8
SUNPOU
100
AcDbCircle
 10
6818.18758900464
 20
3145.963733520729
 30
0.0
 40
5.625
100
AcDbArc
 50
90.0
 51
270.0
  0
ARC
  5
1756D
330
17201
100
AcDbEntity
  8
SUNPOU
100
AcDbCircle
 10
6818.18758900464
 20
3145.963733520729
 30
0.0
 40
5.625
100
AcDbArc
 50
270.0
 51
90.0
  0
ARC
  5
1756E
330
17201
100
AcDbEntity
  8
SUNPOU
100
AcDbCircle
 10
6818.18758900464
 20
3753.963733520729
 30
0.0
 40
5.625
100
AcDbArc
 50
270.0
 51
90.0
  0
ARC
  5
1756F
330
17201
100
AcDbEntity
  8
SUNPOU
100
AcDbCircle
 10
6818.18758900464
 20
3753.963733520729
 30
0.0
 40
5.625
100
AcDbArc
 50
90.0
 51
270.0
  0
ARC
  5
17570
330
17201
100
AcDbEntity
  8
SUNPOU
100
AcDbCircle
 10
6818.18758900464
 20
2985.963733520732
 30
0.0
 40
5.625
100
AcDbArc
 50
90.0
 51
270.0
  0
ARC
  5
17571
330
17201
100
AcDbEntity
  8
SUNPOU
100
AcDbCircle
 10
6818.18758900464
 20
2985.963733520732
 30
0.0
 40
5.625
100
AcDbArc
 50
270.0
 51
90.0
  0
ARC
  5
17572
330
17201
100
AcDbEntity
  8
SUNPOU
100
AcDbCircle
 10
6818.18758900464
 20
3145.963733520728
 30
0.0
 40
5.625
100
AcDbArc
 50
270.0
 51
90.0
  0
ARC
  5
17573
330
17201
100
AcDbEntity
  8
SUNPOU
100
AcDbCircle
 10
6818.18758900464
 20
3145.963733520728
 30
0.0
 40
5.625
100
AcDbArc
 50
90.0
 51
270.0
  0
ARC
  5
17574
330
17201
100
AcDbEntity
  8
SUNPOU
100
AcDbCircle
 10
7024.43758900464
 20
2985.963733520732
 30
0.0
 40
5.625
100
AcDbArc
 50
90.0
 51
270.0
  0
ARC
  5
17575
330
17201
100
AcDbEntity
  8
SUNPOU
100
AcDbCircle
 10
7024.43758900464
 20
2985.963733520732
 30
0.0
 40
5.625
100
AcDbArc
 50
270.0
 51
90.0
  0
ARC
  5
17576
330
17201
100
AcDbEntity
  8
SUNPOU
100
AcDbCircle
 10
7024.43758900464
 20
3753.963733520729
 30
0.0
 40
5.625
100
AcDbArc
 50
270.0
 51
90.0
  0
ARC
  5
17577
330
17201
100
AcDbEntity
  8
SUNPOU
100
AcDbCircle
 10
7024.43758900464
 20
3753.963733520729
 30
0.0
 40
5.625
100
AcDbArc
 50
90.0
 51
270.0
  0
ARC
  5
17578
330
17201
100
AcDbEntity
  8
SUNPOU
100
AcDbCircle
 10
5529.856483595692
 20
2605.963733520728
 30
0.0
 40
5.625
100
AcDbArc
 50
180.0
 51
0.0
  0
ARC
  5
17579
330
17201
100
AcDbEntity
  8
SUNPOU
100
AcDbCircle
 10
5529.856483595692
 20
2605.963733520728
 30
0.0
 40
5.625
100
AcDbArc
 50
0.0
 51
180.0
  0
ARC
  5
1757A
330
17201
100
AcDbEntity
  8
SUNPOU
100
AcDbCircle
 10
4249.856483595691
 20
2605.963733520728
 30
0.0
 40
5.625
100
AcDbArc
 50
0.0
 51
180.0
  0
ARC
  5
1757B
330
17201
100
AcDbEntity
  8
SUNPOU
100
AcDbCircle
 10
4249.856483595691
 20
2605.963733520728
 30
0.0
 40
5.625
100
AcDbArc
 50
180.0
 51
0.0
  0
ARC
  5
1757C
330
17201
100
AcDbEntity
  8
SUNPOU
100
AcDbCircle
 10
5689.856483595693
 20
2395.963733520728
 30
0.0
 40
5.625
100
AcDbArc
 50
180.0
 51
0.0
  0
ARC
  5
1757D
330
17201
100
AcDbEntity
  8
SUNPOU
100
AcDbCircle
 10
5689.856483595693
 20
2395.963733520728
 30
0.0
 40
5.625
100
AcDbArc
 50
0.0
 51
180.0
  0
ARC
  5
1757E
330
17201
100
AcDbEntity
  8
SUNPOU
100
AcDbCircle
 10
4089.85648359569
 20
2395.963733520728
 30
0.0
 40
5.625
100
AcDbArc
 50
0.0
 51
180.0
  0
ARC
  5
1757F
330
17201
100
AcDbEntity
  8
SUNPOU
100
AcDbCircle
 10
4089.85648359569
 20
2395.963733520728
 30
0.0
 40
5.625
100
AcDbArc
 50
180.0
 51
0.0
  0
ARC
  5
17580
330
17201
100
AcDbEntity
  8
SUNPOU
100
AcDbCircle
 10
12369.12750789964
 20
9108.243182432325
 30
0.0
 40
5.625
100
AcDbArc
 50
270.0
 51
90.0
  0
ARC
  5
17581
330
17201
100
AcDbEntity
  8
SUNPOU
100
AcDbCircle
 10
12369.12750789964
 20
9108.243182432325
 30
0.0
 40
5.625
100
AcDbArc
 50
90.0
 51
270.0
  0
ARC
  5
17582
330
17201
100
AcDbEntity
  8
SUNPOU
100
AcDbCircle
 10
12369.12750789964
 20
8908.243182432324
 30
0.0
 40
5.625
100
AcDbArc
 50
90.0
 51
270.0
  0
ARC
  5
17583
330
17201
100
AcDbEntity
  8
SUNPOU
100
AcDbCircle
 10
12369.12750789964
 20
8908.243182432324
 30
0.0
 40
5.625
100
AcDbArc
 50
270.0
 51
90.0
  0
ARC
  5
17584
330
17201
100
AcDbEntity
  8
SUNPOU
100
AcDbCircle
 10
12369.12750789964
 20
8708.243182432324
 30
0.0
 40
5.625
100
AcDbArc
 50
90.0
 51
270.0
  0
ARC
  5
17585
330
17201
100
AcDbEntity
  8
SUNPOU
100
AcDbCircle
 10
12369.12750789964
 20
8708.243182432324
 30
0.0
 40
5.625
100
AcDbArc
 50
270.0
 51
90.0
  0
ARC
  5
17586
330
17201
100
AcDbEntity
  8
SUNPOU
100
AcDbCircle
 10
12369.12750789964
 20
8908.243182432324
 30
0.0
 40
5.625
100
AcDbArc
 50
270.0
 51
90.0
  0
ARC
  5
17587
330
17201
100
AcDbEntity
  8
SUNPOU
100
AcDbCircle
 10
12369.12750789964
 20
8908.243182432324
 30
0.0
 40
5.625
100
AcDbArc
 50
90.0
 51
270.0
  0
ARC
  5
17588
330
17201
100
AcDbEntity
  8
SUNPOU
100
AcDbCircle
 10
9819.127507899644
 20
6508.243182432327
 30
0.0
 40
5.625
100
AcDbArc
 50
90.0
 51
270.0
  0
ARC
  5
17589
330
17201
100
AcDbEntity
  8
SUNPOU
100
AcDbCircle
 10
9819.127507899644
 20
6508.243182432327
 30
0.0
 40
5.625
100
AcDbArc
 50
270.0
 51
90.0
  0
ARC
  5
1758A
330
17201
100
AcDbEntity
  8
SUNPOU
100
AcDbCircle
 10
9819.127507899644
 20
7308.243182432327
 30
0.0
 40
5.625
100
AcDbArc
 50
270.0
 51
90.0
  0
ARC
  5
1758B
330
17201
100
AcDbEntity
  8
SUNPOU
100
AcDbCircle
 10
9819.127507899644
 20
7308.243182432327
 30
0.0
 40
5.625
100
AcDbArc
 50
90.0
 51
270.0
  0
ARC
  5
1758C
330
17201
100
AcDbEntity
  8
SUNPOU
100
AcDbCircle
 10
11969.12750789964
 20
9618.243182432324
 30
0.0
 40
5.625
100
AcDbArc
 50
180.0
 51
0.0
  0
ARC
  5
1758D
330
17201
100
AcDbEntity
  8
SUNPOU
100
AcDbCircle
 10
11969.12750789964
 20
9618.243182432324
 30
0.0
 40
5.625
100
AcDbArc
 50
0.0
 51
180.0
  0
ARC
  5
1758E
330
17201
100
AcDbEntity
  8
SUNPOU
100
AcDbCircle
 10
4869.12750789964
 20
9618.243182432324
 30
0.0
 40
5.625
100
AcDbArc
 50
0.0
 51
180.0
  0
ARC
  5
1758F
330
17201
100
AcDbEntity
  8
SUNPOU
100
AcDbCircle
 10
4869.12750789964
 20
9618.243182432324
 30
0.0
 40
5.625
100
AcDbArc
 50
180.0
 51
0.0
  0
ARC
  5
17590
330
17201
100
AcDbEntity
  8
SUNPOU
100
AcDbCircle
 10
5269.127507899639
 20
9408.243182432325
 30
0.0
 40
5.625
100
AcDbArc
 50
0.0
 51
180.0
  0
ARC
  5
17591
330
17201
100
AcDbEntity
  8
SUNPOU
100
AcDbCircle
 10
5269.127507899639
 20
9408.243182432325
 30
0.0
 40
5.625
100
AcDbArc
 50
180.0
 51
0.0
  0
ARC
  5
17592
330
17201
100
AcDbEntity
  8
SUNPOU
100
AcDbCircle
 10
7719.127507899639
 20
9408.243182432325
 30
0.0
 40
5.625
100
AcDbArc
 50
180.0
 51
0.0
  0
ARC
  5
17593
330
17201
100
AcDbEntity
  8
SUNPOU
100
AcDbCircle
 10
7719.127507899639
 20
9408.243182432325
 30
0.0
 40
5.625
100
AcDbArc
 50
0.0
 51
180.0
  0
ARC
  5
17594
330
17201
100
AcDbEntity
  8
SUNPOU
100
AcDbCircle
 10
9119.127507899637
 20
9408.243182432325
 30
0.0
 40
5.625
100
AcDbArc
 50
0.0
 51
180.0
  0
ARC
  5
17595
330
17201
100
AcDbEntity
  8
SUNPOU
100
AcDbCircle
 10
9119.127507899637
 20
9408.243182432325
 30
0.0
 40
5.625
100
AcDbArc
 50
180.0
 51
0.0
  0
ARC
  5
17596
330
17201
100
AcDbEntity
  8
SUNPOU
100
AcDbCircle
 10
11569.12750789964
 20
9408.243182432325
 30
0.0
 40
5.625
100
AcDbArc
 50
180.0
 51
0.0
  0
ARC
  5
17597
330
17201
100
AcDbEntity
  8
SUNPOU
100
AcDbCircle
 10
11569.12750789964
 20
9408.243182432325
 30
0.0
 40
5.625
100
AcDbArc
 50
0.0
 51
180.0
  0
ARC
  5
17598
330
17201
100
AcDbEntity
  8
SUNPOU
100
AcDbCircle
 10
4869.12750789964
 20
9408.243182432325
 30
0.0
 40
5.625
100
AcDbArc
 50
0.0
 51
180.0
  0
ARC
  5
17599
330
17201
100
AcDbEntity
  8
SUNPOU
100
AcDbCircle
 10
4869.12750789964
 20
9408.243182432325
 30
0.0
 40
5.625
100
AcDbArc
 50
180.0
 51
0.0
  0
ARC
  5
1759A
330
17201
100
AcDbEntity
  8
SUNPOU
100
AcDbCircle
 10
5269.127507899639
 20
9408.243182432325
 30
0.0
 40
5.625
100
AcDbArc
 50
180.0
 51
0.0
  0
ARC
  5
1759B
330
17201
100
AcDbEntity
  8
SUNPOU
100
AcDbCircle
 10
5269.127507899639
 20
9408.243182432325
 30
0.0
 40
5.625
100
AcDbArc
 50
0.0
 51
180.0
  0
ARC
  5
1759C
330
17201
100
AcDbEntity
  8
SUNPOU
100
AcDbCircle
 10
11969.12750789964
 20
9408.243182432325
 30
0.0
 40
5.625
100
AcDbArc
 50
180.0
 51
0.0
  0
ARC
  5
1759D
330
17201
100
AcDbEntity
  8
SUNPOU
100
AcDbCircle
 10
11969.12750789964
 20
9408.243182432325
 30
0.0
 40
5.625
100
AcDbArc
 50
0.0
 51
180.0
  0
ARC
  5
1759E
330
17201
100
AcDbEntity
  8
SUNPOU
100
AcDbCircle
 10
11569.12750789964
 20
9408.243182432325
 30
0.0
 40
5.625
100
AcDbArc
 50
0.0
 51
180.0
  0
ARC
  5
1759F
330
17201
100
AcDbEntity
  8
SUNPOU
100
AcDbCircle
 10
11569.12750789964
 20
9408.243182432325
 30
0.0
 40
5.625
100
AcDbArc
 50
180.0
 51
0.0
  0
ARC
  5
175A0
330
17201
100
AcDbEntity
  8
SUNPOU
100
AcDbCircle
 10
7019.127507899638
 20
8308.243182432326
 30
0.0
 40
5.625
100
AcDbArc
 50
90.0
 51
270.0
  0
ARC
  5
175A1
330
17201
100
AcDbEntity
  8
SUNPOU
100
AcDbCircle
 10
7019.127507899638
 20
8308.243182432326
 30
0.0
 40
5.625
100
AcDbArc
 50
270.0
 51
90.0
  0
ARC
  5
175A2
330
17201
100
AcDbEntity
  8
SUNPOU
100
AcDbCircle
 10
7019.127507899638
 20
9108.243182432325
 30
0.0
 40
5.625
100
AcDbArc
 50
270.0
 51
90.0
  0
ARC
  5
175A3
330
17201
100
AcDbEntity
  8
SUNPOU
100
AcDbCircle
 10
7019.127507899638
 20
9108.243182432325
 30
0.0
 40
5.625
100
AcDbArc
 50
90.0
 51
270.0
  0
ARC
  5
175A4
330
17201
100
AcDbEntity
  8
SUNPOU
100
AcDbCircle
 10
8119.127507899639
 20
8008.243182432327
 30
0.0
 40
5.625
100
AcDbArc
 50
180.0
 51
0.0
  0
ARC
  5
175A5
330
17201
100
AcDbEntity
  8
SUNPOU
100
AcDbCircle
 10
8119.127507899639
 20
8008.243182432327
 30
0.0
 40
5.625
100
AcDbArc
 50
0.0
 51
180.0
  0
ARC
  5
175A6
330
17201
100
AcDbEntity
  8
SUNPOU
100
AcDbCircle
 10
7319.127507899638
 20
8008.243182432327
 30
0.0
 40
5.625
100
AcDbArc
 50
0.0
 51
180.0
  0
ARC
  5
175A7
330
17201
100
AcDbEntity
  8
SUNPOU
100
AcDbCircle
 10
7319.127507899638
 20
8008.243182432327
 30
0.0
 40
5.625
100
AcDbArc
 50
180.0
 51
0.0
  0
ARC
  5
175A8
330
17201
100
AcDbEntity
  8
SUNPOU
100
AcDbCircle
 10
9519.127507899638
 20
7608.243182432326
 30
0.0
 40
5.625
100
AcDbArc
 50
180.0
 51
0.0
  0
ARC
  5
175A9
330
17201
100
AcDbEntity
  8
SUNPOU
100
AcDbCircle
 10
9519.127507899638
 20
7608.243182432326
 30
0.0
 40
5.625
100
AcDbArc
 50
0.0
 51
180.0
  0
ARC
  5
175AA
330
17201
100
AcDbEntity
  8
SUNPOU
100
AcDbCircle
 10
8719.127507899637
 20
7608.243182432326
 30
0.0
 40
5.625
100
AcDbArc
 50
0.0
 51
180.0
  0
ARC
  5
175AB
330
17201
100
AcDbEntity
  8
SUNPOU
100
AcDbCircle
 10
8719.127507899637
 20
7608.243182432326
 30
0.0
 40
5.625
100
AcDbArc
 50
180.0
 51
0.0
  0
ARC
  5
175AC
330
17201
100
AcDbEntity
  8
HIKIDASHI
100
AcDbCircle
 10
4217.388914848876
 20
4214.34846204352
 30
0.0
 40
74.66417910446155
100
AcDbArc
 50
164.8596129851117
 51
237.5045002941574
  0
ARC
  5
175AD
330
17201
100
AcDbEntity
  8
HIKIDASHI
100
AcDbCircle
 10
4153.965120802623
 20
4231.50948552799
 30
0.0
 40
8.959701492535389
100
AcDbArc
 50
15.14038701506338
 51
164.8596129849366
  0
LINE
  5
175AE
330
17201
100
AcDbEntity
  8
HIKIDASHI
100
AcDbLine
 10
4627.888538436751
 20
3319.245765823483
 30
0.0
 11
4186.816957180232
 21
4083.204154334509
 31
0.0
1001
ACAD
1000
DSTYLE
1002
{
1070
   147
1040
1.0
1070
    77
1070
     0
1002
}
  0
LINE
  5
175AF
330
17201
100
AcDbEntity
  8
HIKIDASHI
100
AcDbLine
 10
4616.341533052959
 20
3312.579099156816
 30
0.0
 11
4667.888538436751
 21
3249.963733520729
 31
0.0
  0
LINE
  5
175B0
330
17201
100
AcDbEntity
  8
HIKIDASHI
100
AcDbLine
 10
4667.888538436751
 20
3249.963733520729
 30
0.0
 11
4639.435543820545
 21
3325.912432490151
 31
0.0
  0
SOLID
  5
175B1
330
17201
100
AcDbEntity
  8
HIKIDASHI
100
AcDbTrace
 10
4616.341533052959
 20
3312.579099156816
 30
0.0
 11
4639.435543820545
 21
3325.912432490151
 31
0.0
 12
4667.888538436751
 22
3249.963733520729
 32
0.0
 13
4667.888538436751
 23
3249.963733520729
 33
0.0
  0
LINE
  5
175B2
330
17201
100
AcDbEntity
  8
HIKIDASHI
100
AcDbLine
 10
4639.435543820545
 20
3325.912432490151
 30
0.0
 11
4616.341533052959
 21
3312.579099156816
 31
0.0
  0
ARC
  5
175B3
330
17201
100
AcDbEntity
  8
HIKIDASHI
100
AcDbCircle
 10
4091.720853292108
 20
4215.528589403109
 30
0.0
 40
74.66417910446081
100
AcDbArc
 50
301.7712278330701
 51
15.1403870149094
  0
LINE
  5
175B4
330
17201
100
AcDbEntity
  8
HIKIDASHI
100
AcDbLine
 10
5936.424512455826
 20
3642.477924325876
 30
0.0
 11
6196.483271007117
 21
4083.963733520728
 31
0.0
1001
ACAD
1000
DSTYLE
1002
{
1070
   147
1040
1.0
1070
    77
1070
     0
1070
   173
1070
     0
1070
   341
1005
125B0
1002
}
  0
ARC
  5
175B5
330
17201
100
AcDbEntity
  8
HIKIDASHI
100
AcDbCircle
 10
5906.32019968622
 20
3551.966211169526
 30
0.0
 40
24.0
100
AcDbArc
 50
3.056949146300892
 51
115.9423296224592
  0
ARC
  5
175B6
330
17201
100
AcDbEntity
  8
HIKIDASHI
100
AcDbCircle
 10
5885.321819467964
 20
3595.129482920051
 30
0.0
 40
24.0
100
AcDbArc
 50
183.0569491463009
 51
295.9423296224593
  0
LINE
  5
175B7
330
17201
100
AcDbEntity
  8
HIKIDASHI
100
AcDbLine
 10
5895.821009577092
 20
3573.547847044789
 30
0.0
 11
5936.424512455836
 21
3642.47792432589
 31
0.0
  0
LINE
  5
175B8
330
17201
100
AcDbEntity
  8
HIKIDASHI
100
AcDbLine
 10
5719.385201492448
 20
3823.245765823486
 30
0.0
 11
5991.154346854814
 21
4293.963733520728
 31
0.0
1001
ACAD
1000
DSTYLE
1002
{
1070
   147
1040
1.0
1070
    77
1070
     0
1002
}
  0
LINE
  5
175B9
330
17201
100
AcDbEntity
  8
HIKIDASHI
100
AcDbLine
 10
5707.838196108657
 20
3829.912432490152
 30
0.0
 11
5679.385201492451
 21
3753.963733520729
 31
0.0
  0
LINE
  5
175BA
330
17201
100
AcDbEntity
  8
HIKIDASHI
100
AcDbLine
 10
5679.385201492451
 20
3753.963733520729
 30
0.0
 11
5730.932206876241
 21
3816.57909915682
 31
0.0
  0
SOLID
  5
175BB
330
17201
100
AcDbEntity
  8
HIKIDASHI
100
AcDbTrace
 10
5707.838196108657
 20
3829.912432490152
 30
0.0
 11
5730.932206876241
 21
3816.57909915682
 31
0.0
 12
5679.385201492451
 22
3753.963733520729
 32
0.0
 13
5679.385201492451
 23
3753.963733520729
 33
0.0
  0
LINE
  5
175BC
330
17201
100
AcDbEntity
  8
HIKIDASHI
100
AcDbLine
 10
5730.932206876241
 20
3816.57909915682
 30
0.0
 11
5707.838196108657
 21
3829.912432490152
 31
0.0
  0
LINE
  5
175BD
330
17201
100
AcDbEntity
  8
HIKIDASHI
100
AcDbLine
 10
4058.272423574408
 20
3024.462392359007
 30
0.0
 11
3864.689878611732
 21
2573.963733520729
 31
0.0
  0
LINE
  5
175BE
330
17201
100
AcDbEntity
  8
HIKIDASHI
100
AcDbLine
 10
4070.522647101362
 20
3019.198382355458
 30
0.0
 11
4089.85648359569
 21
3097.963733520729
 31
0.0
  0
LINE
  5
175BF
330
17201
100
AcDbEntity
  8
HIKIDASHI
100
AcDbLine
 10
4089.85648359569
 20
3097.963733520729
 30
0.0
 11
4046.022200047453
 21
3029.726402362554
 31
0.0
  0
SOLID
  5
175C0
330
17201
100
AcDbEntity
  8
HIKIDASHI
100
AcDbTrace
 10
4070.522647101362
 20
3019.198382355458
 30
0.0
 11
4046.022200047453
 21
3029.726402362554
 31
0.0
 12
4089.85648359569
 22
3097.963733520729
 32
0.0
 13
4089.85648359569
 23
3097.963733520729
 33
0.0
  0
LINE
  5
175C1
330
17201
100
AcDbEntity
  8
HIKIDASHI
100
AcDbLine
 10
4046.022200047453
 20
3029.726402362554
 30
0.0
 11
4070.522647101362
 21
3019.198382355458
 31
0.0
  0
LINE
  5
175C2
330
17201
100
AcDbEntity
  8
HATCH
100
AcDbLine
 10
5353.544817397462
 20
2985.963733520728
 30
0.0
 11
5445.920860467789
 21
3145.963733520705
 31
0.0
  0
LINE
  5
175C3
330
17201
100
AcDbEntity
  8
HATCH
100
AcDbLine
 10
5381.920860467798
 20
3145.963733520704
 30
0.0
 11
5413.920860467793
 21
3090.538107678512
 31
0.0
  0
LINE
  5
175C4
330
17201
100
AcDbEntity
  8
HATCH
100
AcDbLine
 10
5385.544817397457
 20
3041.389359362927
 30
0.0
 11
5417.544817397452
 21
2985.963733520728
 31
0.0
  0
LINE
  5
175C5
330
17201
100
AcDbEntity
  8
HATCH
100
AcDbLine
 10
5153.544817397462
 20
2985.963733520728
 30
0.0
 11
5245.920860467789
 21
3145.963733520705
 31
0.0
  0
LINE
  5
175C6
330
17201
100
AcDbEntity
  8
HATCH
100
AcDbLine
 10
5181.920860467798
 20
3145.963733520704
 30
0.0
 11
5213.920860467793
 21
3090.538107678512
 31
0.0
  0
LINE
  5
175C7
330
17201
100
AcDbEntity
  8
HATCH
100
AcDbLine
 10
5185.544817397457
 20
3041.389359362927
 30
0.0
 11
5217.544817397453
 21
2985.963733520728
 31
0.0
  0
LINE
  5
175C8
330
17201
100
AcDbEntity
  8
HATCH
100
AcDbLine
 10
4953.544817397462
 20
2985.963733520728
 30
0.0
 11
5045.920860467789
 21
3145.963733520705
 31
0.0
  0
LINE
  5
175C9
330
17201
100
AcDbEntity
  8
HATCH
100
AcDbLine
 10
4981.920860467798
 20
3145.963733520704
 30
0.0
 11
5013.920860467793
 21
3090.538107678512
 31
0.0
  0
LINE
  5
175CA
330
17201
100
AcDbEntity
  8
HATCH
100
AcDbLine
 10
4985.544817397457
 20
3041.389359362927
 30
0.0
 11
5017.544817397452
 21
2985.963733520728
 31
0.0
  0
LINE
  5
175CB
330
17201
100
AcDbEntity
  8
HATCH
100
AcDbLine
 10
4553.544817397462
 20
2985.963733520728
 30
0.0
 11
4645.920860467787
 21
3145.963733520705
 31
0.0
  0
LINE
  5
175CC
330
17201
100
AcDbEntity
  8
HATCH
100
AcDbLine
 10
4581.920860467798
 20
3145.963733520704
 30
0.0
 11
4613.920860467793
 21
3090.538107678512
 31
0.0
  0
LINE
  5
175CD
330
17201
100
AcDbEntity
  8
HATCH
100
AcDbLine
 10
4585.544817397457
 20
3041.389359362927
 30
0.0
 11
4617.544817397452
 21
2985.963733520728
 31
0.0
  0
LINE
  5
175CE
330
17201
100
AcDbEntity
  8
HATCH
100
AcDbLine
 10
4353.544817397462
 20
2985.963733520728
 30
0.0
 11
4445.920860467789
 21
3145.963733520705
 31
0.0
  0
LINE
  5
175CF
330
17201
100
AcDbEntity
  8
HATCH
100
AcDbLine
 10
4381.920860467796
 20
3145.963733520704
 30
0.0
 11
4413.920860467793
 21
3090.538107678512
 31
0.0
  0
LINE
  5
175D0
330
17201
100
AcDbEntity
  8
HATCH
100
AcDbLine
 10
4385.544817397457
 20
3041.389359362927
 30
0.0
 11
4417.544817397452
 21
2985.963733520728
 31
0.0
  0
LINE
  5
175D1
330
17201
100
AcDbEntity
  8
HATCH
100
AcDbLine
 10
4753.544817397462
 20
2985.963733520728
 30
0.0
 11
4845.920860467789
 21
3145.963733520705
 31
0.0
  0
LINE
  5
175D2
330
17201
100
AcDbEntity
  8
HATCH
100
AcDbLine
 10
4781.920860467798
 20
3145.963733520704
 30
0.0
 11
4813.920860467793
 21
3090.538107678512
 31
0.0
  0
LINE
  5
175D3
330
17201
100
AcDbEntity
  8
HATCH
100
AcDbLine
 10
4785.544817397457
 20
3041.389359362927
 30
0.0
 11
4817.544817397452
 21
2985.963733520728
 31
0.0
  0
LINE
  5
175D4
330
17201
100
AcDbEntity
  8
HATCH
100
AcDbLine
 10
5553.544817397463
 20
2985.963733520729
 30
0.0
 11
5645.920860467789
 21
3145.963733520706
 31
0.0
  0
LINE
  5
175D5
330
17201
100
AcDbEntity
  8
HATCH
100
AcDbLine
 10
5581.920860467799
 20
3145.963733520704
 30
0.0
 11
5613.920860467795
 21
3090.538107678512
 31
0.0
  0
LINE
  5
175D6
330
17201
100
AcDbEntity
  8
HATCH
100
AcDbLine
 10
5585.544817397458
 20
3041.389359362927
 30
0.0
 11
5617.544817397453
 21
2985.963733520729
 31
0.0
  0
LINE
  5
175D7
330
17201
100
AcDbEntity
  8
HATCH
100
AcDbLine
 10
4153.544817397462
 20
2985.963733520728
 30
0.0
 11
4245.92086046779
 21
3145.963733520704
 31
0.0
  0
LINE
  5
175D8
330
17201
100
AcDbEntity
  8
HATCH
100
AcDbLine
 10
4181.920860467799
 20
3145.963733520703
 30
0.0
 11
4213.920860467793
 21
3090.538107678511
 31
0.0
  0
LINE
  5
175D9
330
17201
100
AcDbEntity
  8
HATCH
100
AcDbLine
 10
4185.544817397459
 20
3041.389359362925
 30
0.0
 11
4217.544817397453
 21
2985.963733520728
 31
0.0
  0
LINE
  5
175DA
330
17201
100
AcDbEntity
  8
TEKKIN
100
AcDbLine
 10
4837.856483595691
 20
3249.963733520729
 30
0.0
 11
4609.856483595691
 21
3249.963733520729
 31
0.0
  0
LINE
  5
175DB
330
17201
100
AcDbEntity
  8
TEKKIN
100
AcDbLine
 10
4609.856483595691
 20
3249.963733520729
 30
0.0
 11
4609.856483595691
 21
3233.963733520729
 31
0.0
  0
LINE
  5
175DC
330
17201
100
AcDbEntity
  8
TEKKIN
100
AcDbLine
 10
4609.856483595691
 20
3233.963733520729
 30
0.0
 11
4837.856483595691
 21
3233.963733520729
 31
0.0
  0
LINE
  5
175DD
330
17201
100
AcDbEntity
  8
TEKKIN
100
AcDbLine
 10
4941.856483595691
 20
3233.963733520729
 30
0.0
 11
5169.856483595691
 21
3233.963733520729
 31
0.0
  0
LINE
  5
175DE
330
17201
100
AcDbEntity
  8
TEKKIN
100
AcDbLine
 10
5169.856483595691
 20
3233.963733520729
 30
0.0
 11
5169.856483595691
 21
3249.963733520729
 31
0.0
  0
LINE
  5
175DF
330
17201
100
AcDbEntity
  8
TEKKIN
100
AcDbLine
 10
5169.856483595691
 20
3249.963733520729
 30
0.0
 11
4941.856483595691
 21
3249.963733520729
 31
0.0
  0
LINE
  5
175E0
330
17201
100
AcDbEntity
  8
YANE
  6
2PL-L
 62
     6
100
AcDbLine
 10
11965.12750789963
 20
6408.243182432326
 30
0.0
 11
4873.127507899638
 21
6408.243182432326
 31
0.0
  0
LINE
  5
175E1
330
17201
100
AcDbEntity
  8
YANE
  6
2PL-L
 62
     6
100
AcDbLine
 10
4873.127507899638
 20
6408.243182432326
 30
0.0
 11
4873.127507899638
 21
8958.243182432324
 31
0.0
  0
LINE
  5
175E2
330
17201
100
AcDbEntity
  8
YANE
  6
2PL-L
 62
     6
100
AcDbLine
 10
4873.127507899638
 20
8958.243182432324
 30
0.0
 11
11965.12750789963
 21
8958.243182432324
 31
0.0
  0
LINE
  5
175E3
330
17201
100
AcDbEntity
  8
YANE
  6
2PL-L
 62
     6
100
AcDbLine
 10
11965.12750789963
 20
8958.243182432324
 30
0.0
 11
11965.12750789963
 21
6408.243182432326
 31
0.0
  0
LINE
  5
175E4
330
17201
100
AcDbEntity
  8
DOMAKON
100
AcDbLine
 10
8359.127507899641
 20
8908.243182432325
 30
0.0
 11
4869.12750789964
 21
8908.243182432325
 31
0.0
  0
LINE
  5
175E5
330
17201
100
AcDbEntity
  8
DOMAKON
100
AcDbLine
 10
4869.12750789964
 20
8908.243182432325
 30
0.0
 11
4869.12750789964
 21
6508.243182432327
 31
0.0
  0
LINE
  5
175E6
330
17201
100
AcDbEntity
  8
DOMAKON
100
AcDbLine
 10
4869.12750789964
 20
6508.243182432327
 30
0.0
 11
8359.127507899641
 21
6508.243182432327
 31
0.0
  0
LINE
  5
175E7
330
17201
100
AcDbEntity
  8
DOMAKON
100
AcDbLine
 10
8479.12750789964
 20
6508.243182432327
 30
0.0
 11
11969.12750789964
 21
6508.243182432327
 31
0.0
  0
LINE
  5
175E8
330
17201
100
AcDbEntity
  8
DOMAKON
100
AcDbLine
 10
11969.12750789964
 20
6508.243182432327
 30
0.0
 11
11969.12750789964
 21
8908.243182432325
 31
0.0
  0
LINE
  5
175E9
330
17201
100
AcDbEntity
  8
DOMAKON
100
AcDbLine
 10
11969.12750789964
 20
8908.243182432325
 30
0.0
 11
8479.12750789964
 21
8908.243182432325
 31
0.0
  0
LINE
  5
175EA
330
17201
100
AcDbEntity
  8
KISO
100
AcDbLine
 10
9519.127507899638
 20
6508.243182432327
 30
0.0
 11
8719.127507899637
 21
6508.243182432327
 31
0.0
  0
LINE
  5
175EB
330
17201
100
AcDbEntity
  8
KISO
100
AcDbLine
 10
8719.127507899637
 20
6508.243182432327
 30
0.0
 11
8719.127507899637
 21
7308.243182432327
 31
0.0
  0
LINE
  5
175EC
330
17201
100
AcDbEntity
  8
KISO
100
AcDbLine
 10
8719.127507899637
 20
7308.243182432327
 30
0.0
 11
9519.127507899638
 21
7308.243182432327
 31
0.0
  0
LINE
  5
175ED
330
17201
100
AcDbEntity
  8
KISO
100
AcDbLine
 10
9519.127507899638
 20
7308.243182432327
 30
0.0
 11
9519.127507899638
 21
6508.243182432327
 31
0.0
  0
LINE
  5
175EE
330
17201
100
AcDbEntity
  8
KISO
100
AcDbLine
 10
8119.127507899639
 20
6508.243182432327
 30
0.0
 11
7319.127507899638
 21
6508.243182432327
 31
0.0
  0
LINE
  5
175EF
330
17201
100
AcDbEntity
  8
KISO
100
AcDbLine
 10
7319.127507899638
 20
6508.243182432327
 30
0.0
 11
7319.127507899638
 21
7308.243182432327
 31
0.0
  0
LINE
  5
175F0
330
17201
100
AcDbEntity
  8
KISO
100
AcDbLine
 10
7319.127507899638
 20
7308.243182432327
 30
0.0
 11
8119.127507899639
 21
7308.243182432327
 31
0.0
  0
LINE
  5
175F1
330
17201
100
AcDbEntity
  8
KISO
100
AcDbLine
 10
8119.127507899639
 20
7308.243182432327
 30
0.0
 11
8119.127507899639
 21
6508.243182432327
 31
0.0
  0
LINE
  5
175F2
330
17201
100
AcDbEntity
  8
KISO
100
AcDbLine
 10
5669.127507899639
 20
6508.243182432327
 30
0.0
 11
4869.12750789964
 21
6508.243182432327
 31
0.0
  0
LINE
  5
175F3
330
17201
100
AcDbEntity
  8
KISO
100
AcDbLine
 10
4869.12750789964
 20
6508.243182432327
 30
0.0
 11
4869.12750789964
 21
7308.243182432327
 31
0.0
  0
LINE
  5
175F4
330
17201
100
AcDbEntity
  8
KISO
100
AcDbLine
 10
4869.12750789964
 20
7308.243182432327
 30
0.0
 11
5669.127507899639
 21
7308.243182432327
 31
0.0
  0
LINE
  5
175F5
330
17201
100
AcDbEntity
  8
KISO
100
AcDbLine
 10
5669.127507899639
 20
7308.243182432327
 30
0.0
 11
5669.127507899639
 21
6508.243182432327
 31
0.0
  0
LINE
  5
175F6
330
17201
100
AcDbEntity
  8
KISO
100
AcDbLine
 10
5669.127507899639
 20
8308.243182432326
 30
0.0
 11
4869.12750789964
 21
8308.243182432326
 31
0.0
  0
LINE
  5
175F7
330
17201
100
AcDbEntity
  8
KISO
100
AcDbLine
 10
4869.12750789964
 20
8308.243182432326
 30
0.0
 11
4869.12750789964
 21
9108.243182432325
 31
0.0
  0
LINE
  5
175F8
330
17201
100
AcDbEntity
  8
KISO
100
AcDbLine
 10
4869.12750789964
 20
9108.243182432325
 30
0.0
 11
5669.127507899639
 21
9108.243182432325
 31
0.0
  0
LINE
  5
175F9
330
17201
100
AcDbEntity
  8
KISO
100
AcDbLine
 10
5669.127507899639
 20
9108.243182432325
 30
0.0
 11
5669.127507899639
 21
8308.243182432326
 31
0.0
  0
LINE
  5
175FA
330
17201
100
AcDbEntity
  8
KISO
100
AcDbLine
 10
8119.127507899639
 20
8308.243182432326
 30
0.0
 11
7319.127507899638
 21
8308.243182432326
 31
0.0
  0
LINE
  5
175FB
330
17201
100
AcDbEntity
  8
KISO
100
AcDbLine
 10
7319.127507899638
 20
8308.243182432326
 30
0.0
 11
7319.127507899638
 21
9108.243182432325
 31
0.0
  0
LINE
  5
175FC
330
17201
100
AcDbEntity
  8
KISO
100
AcDbLine
 10
7319.127507899638
 20
9108.243182432325
 30
0.0
 11
8119.127507899639
 21
9108.243182432325
 31
0.0
  0
LINE
  5
175FD
330
17201
100
AcDbEntity
  8
KISO
100
AcDbLine
 10
8119.127507899639
 20
9108.243182432325
 30
0.0
 11
8119.127507899639
 21
8308.243182432326
 31
0.0
  0
LINE
  5
175FE
330
17201
100
AcDbEntity
  8
KISO
100
AcDbLine
 10
11969.12750789964
 20
6508.243182432327
 30
0.0
 11
11169.12750789964
 21
6508.243182432327
 31
0.0
  0
LINE
  5
175FF
330
17201
100
AcDbEntity
  8
KISO
100
AcDbLine
 10
11169.12750789964
 20
6508.243182432327
 30
0.0
 11
11169.12750789964
 21
7308.243182432327
 31
0.0
  0
LINE
  5
17600
330
17201
100
AcDbEntity
  8
KISO
100
AcDbLine
 10
11169.12750789964
 20
7308.243182432327
 30
0.0
 11
11969.12750789964
 21
7308.243182432327
 31
0.0
  0
LINE
  5
17601
330
17201
100
AcDbEntity
  8
KISO
100
AcDbLine
 10
11969.12750789964
 20
7308.243182432327
 30
0.0
 11
11969.12750789964
 21
6508.243182432327
 31
0.0
  0
LINE
  5
17602
330
17201
100
AcDbEntity
  8
KISO
100
AcDbLine
 10
9519.127507899638
 20
8308.243182432326
 30
0.0
 11
8719.127507899637
 21
8308.243182432326
 31
0.0
  0
LINE
  5
17603
330
17201
100
AcDbEntity
  8
KISO
100
AcDbLine
 10
8719.127507899637
 20
8308.243182432326
 30
0.0
 11
8719.127507899637
 21
9108.243182432325
 31
0.0
  0
LINE
  5
17604
330
17201
100
AcDbEntity
  8
KISO
100
AcDbLine
 10
8719.127507899637
 20
9108.243182432325
 30
0.0
 11
9519.127507899638
 21
9108.243182432325
 31
0.0
  0
LINE
  5
17605
330
17201
100
AcDbEntity
  8
KISO
100
AcDbLine
 10
9519.127507899638
 20
9108.243182432325
 30
0.0
 11
9519.127507899638
 21
8308.243182432326
 31
0.0
  0
LINE
  5
17606
330
17201
100
AcDbEntity
  8
KISO
100
AcDbLine
 10
11969.12750789964
 20
8308.243182432326
 30
0.0
 11
11169.12750789964
 21
8308.243182432326
 31
0.0
  0
LINE
  5
17607
330
17201
100
AcDbEntity
  8
KISO
100
AcDbLine
 10
11169.12750789964
 20
8308.243182432326
 30
0.0
 11
11169.12750789964
 21
9108.243182432325
 31
0.0
  0
LINE
  5
17608
330
17201
100
AcDbEntity
  8
KISO
100
AcDbLine
 10
11169.12750789964
 20
9108.243182432325
 30
0.0
 11
11969.12750789964
 21
9108.243182432325
 31
0.0
  0
LINE
  5
17609
330
17201
100
AcDbEntity
  8
KISO
100
AcDbLine
 10
11969.12750789964
 20
9108.243182432325
 30
0.0
 11
11969.12750789964
 21
8308.243182432326
 31
0.0
  0
LINE
  5
1760A
330
17201
100
AcDbEntity
  8
U1
100
AcDbLine
 10
11575.32750789964
 20
8678.043182432325
 30
0.0
 11
11542.92750789964
 21
8678.043182432325
 31
0.0
  0
LINE
  5
1760B
330
17201
100
AcDbEntity
  8
U1
100
AcDbLine
 10
11542.92750789964
 20
8738.443182432325
 30
0.0
 11
11595.32750789964
 21
8738.443182432325
 31
0.0
  0
ARC
  5
1760C
330
17201
100
AcDbEntity
  8
U1
100
AcDbCircle
 10
11542.92750789964
 20
8734.443182432325
 30
0.0
 40
4.0
100
AcDbArc
 50
90.0
 51
180.0
  0
ARC
  5
1760D
330
17201
100
AcDbEntity
  8
U1
100
AcDbCircle
 10
11542.92750789964
 20
8682.043182432327
 30
0.0
 40
4.0
100
AcDbArc
 50
180.0
 51
270.0
  0
LINE
  5
1760E
330
17201
100
AcDbEntity
  8
U1
100
AcDbLine
 10
11538.92750789964
 20
8682.043182432327
 30
0.0
 11
11538.92750789964
 21
8734.443182432325
 31
0.0
  0
ARC
  5
1760F
330
17201
100
AcDbEntity
  8
U1
100
AcDbCircle
 10
11595.32750789964
 20
8734.443182432325
 30
0.0
 40
4.0
100
AcDbArc
 50
0.0
 51
90.0
  0
ARC
  5
17610
330
17201
100
AcDbEntity
  8
U1
100
AcDbCircle
 10
11575.32750789964
 20
8682.043182432327
 30
0.0
 40
4.0
100
AcDbArc
 50
270.0
 51
0.0
  0
ARC
  5
17611
330
17201
100
AcDbEntity
  8
U1
100
AcDbCircle
 10
11582.77750789964
 20
8691.293182432326
 30
0.0
 40
1.149999999999977
100
AcDbArc
 50
0.0
 51
180.0
  0
LINE
  5
17612
330
17201
100
AcDbEntity
  8
U1
100
AcDbLine
 10
11586.22750789964
 20
8683.743182432328
 30
0.0
 11
11586.22750789964
 21
8691.293182432326
 31
0.0
  0
LINE
  5
17613
330
17201
100
AcDbEntity
  8
U1
100
AcDbLine
 10
11583.92750789964
 20
8683.743182432328
 30
0.0
 11
11586.22750789964
 21
8683.743182432328
 31
0.0
  0
LINE
  5
17614
330
17201
100
AcDbEntity
  8
U1
100
AcDbLine
 10
11581.62750789964
 20
8690.743182432326
 30
0.0
 11
11583.92750789964
 21
8690.743182432326
 31
0.0
  0
ARC
  5
17615
330
17201
100
AcDbEntity
  8
U1
100
AcDbCircle
 10
11582.77750789964
 20
8691.293182432326
 30
0.0
 40
3.450000000000044
100
AcDbArc
 50
0.0
 51
180.0
  0
LINE
  5
17616
330
17201
100
AcDbEntity
  8
U1
100
AcDbLine
 10
11581.62750789964
 20
8691.293182432326
 30
0.0
 11
11581.62750789964
 21
8682.043182432327
 31
0.0
  0
LINE
  5
17617
330
17201
100
AcDbEntity
  8
U1
100
AcDbLine
 10
11583.92750789964
 20
8682.043182432327
 30
0.0
 11
11583.92750789964
 21
8691.293182432326
 31
0.0
  0
LINE
  5
17618
330
17201
100
AcDbEntity
  8
U1
100
AcDbLine
 10
11579.32750789964
 20
8691.293182432326
 30
0.0
 11
11579.32750789964
 21
8682.043182432327
 31
0.0
  0
ARC
  5
17619
330
17201
100
AcDbEntity
  8
U1
100
AcDbCircle
 10
11595.32750789964
 20
8682.043182432327
 30
0.0
 40
4.0
100
AcDbArc
 50
270.0
 51
0.0
  0
LINE
  5
1761A
330
17201
100
AcDbEntity
  8
U1
100
AcDbLine
 10
11595.32750789964
 20
8678.043182432324
 30
0.0
 11
11587.92750789964
 21
8678.043182432324
 31
0.0
  0
ARC
  5
1761B
330
17201
100
AcDbEntity
  8
U1
100
AcDbCircle
 10
11587.92750789964
 20
8682.043182432327
 30
0.0
 40
4.0
100
AcDbArc
 50
180.0
 51
270.0
  0
LINE
  5
1761C
330
17201
100
AcDbEntity
  8
U1
100
AcDbLine
 10
11599.32750789964
 20
8734.443182432325
 30
0.0
 11
11599.32750789964
 21
8682.043182432327
 31
0.0
  0
LINE
  5
1761D
330
17201
100
AcDbEntity
  8
U1
100
AcDbLine
 10
9125.327507899639
 20
8678.043182432325
 30
0.0
 11
9092.927507899636
 21
8678.043182432325
 31
0.0
  0
LINE
  5
1761E
330
17201
100
AcDbEntity
  8
U1
100
AcDbLine
 10
9092.92750789964
 20
8738.443182432325
 30
0.0
 11
9145.32750789964
 21
8738.443182432325
 31
0.0
  0
ARC
  5
1761F
330
17201
100
AcDbEntity
  8
U1
100
AcDbCircle
 10
9092.92750789964
 20
8734.443182432325
 30
0.0
 40
4.0
100
AcDbArc
 50
90.0
 51
180.0
  0
ARC
  5
17620
330
17201
100
AcDbEntity
  8
U1
100
AcDbCircle
 10
9092.927507899636
 20
8682.043182432327
 30
0.0
 40
4.0
100
AcDbArc
 50
180.0
 51
270.0
  0
LINE
  5
17621
330
17201
100
AcDbEntity
  8
U1
100
AcDbLine
 10
9088.927507899636
 20
8682.043182432327
 30
0.0
 11
9088.92750789964
 21
8734.443182432325
 31
0.0
  0
ARC
  5
17622
330
17201
100
AcDbEntity
  8
U1
100
AcDbCircle
 10
9145.32750789964
 20
8734.443182432325
 30
0.0
 40
4.0
100
AcDbArc
 50
0.0
 51
90.0
  0
ARC
  5
17623
330
17201
100
AcDbEntity
  8
U1
100
AcDbCircle
 10
9125.327507899639
 20
8682.043182432327
 30
0.0
 40
4.0
100
AcDbArc
 50
270.0
 51
0.0
  0
ARC
  5
17624
330
17201
100
AcDbEntity
  8
U1
100
AcDbCircle
 10
9132.777507899637
 20
8691.293182432326
 30
0.0
 40
1.149999999999977
100
AcDbArc
 50
0.0
 51
180.0
  0
LINE
  5
17625
330
17201
100
AcDbEntity
  8
U1
100
AcDbLine
 10
9136.227507899636
 20
8683.743182432328
 30
0.0
 11
9136.227507899636
 21
8691.293182432326
 31
0.0
  0
LINE
  5
17626
330
17201
100
AcDbEntity
  8
U1
100
AcDbLine
 10
9133.927507899636
 20
8683.743182432328
 30
0.0
 11
9136.227507899636
 21
8683.743182432328
 31
0.0
  0
LINE
  5
17627
330
17201
100
AcDbEntity
  8
U1
100
AcDbLine
 10
9131.627507899636
 20
8690.743182432326
 30
0.0
 11
9133.927507899636
 21
8690.743182432326
 31
0.0
  0
ARC
  5
17628
330
17201
100
AcDbEntity
  8
U1
100
AcDbCircle
 10
9132.777507899637
 20
8691.293182432326
 30
0.0
 40
3.450000000000044
100
AcDbArc
 50
0.0
 51
180.0
  0
LINE
  5
17629
330
17201
100
AcDbEntity
  8
U1
100
AcDbLine
 10
9131.627507899636
 20
8691.293182432326
 30
0.0
 11
9131.627507899636
 21
8682.043182432327
 31
0.0
  0
LINE
  5
1762A
330
17201
100
AcDbEntity
  8
U1
100
AcDbLine
 10
9133.927507899636
 20
8682.043182432327
 30
0.0
 11
9133.927507899636
 21
8691.293182432326
 31
0.0
  0
LINE
  5
1762B
330
17201
100
AcDbEntity
  8
U1
100
AcDbLine
 10
9129.32750789964
 20
8691.293182432326
 30
0.0
 11
9129.32750789964
 21
8682.043182432327
 31
0.0
  0
ARC
  5
1762C
330
17201
100
AcDbEntity
  8
U1
100
AcDbCircle
 10
9145.327507899635
 20
8682.043182432327
 30
0.0
 40
4.0
100
AcDbArc
 50
270.0
 51
0.0
  0
LINE
  5
1762D
330
17201
100
AcDbEntity
  8
U1
100
AcDbLine
 10
9145.327507899635
 20
8678.043182432324
 30
0.0
 11
9137.927507899636
 21
8678.043182432324
 31
0.0
  0
ARC
  5
1762E
330
17201
100
AcDbEntity
  8
U1
100
AcDbCircle
 10
9137.927507899636
 20
8682.043182432327
 30
0.0
 40
4.0
100
AcDbArc
 50
180.0
 51
270.0
  0
LINE
  5
1762F
330
17201
100
AcDbEntity
  8
U1
100
AcDbLine
 10
9149.32750789964
 20
8734.443182432325
 30
0.0
 11
9149.327507899636
 21
8682.043182432327
 31
0.0
  0
LINE
  5
17630
330
17201
100
AcDbEntity
  8
U1
100
AcDbLine
 10
7725.327507899638
 20
8678.043182432325
 30
0.0
 11
7692.927507899637
 21
8678.043182432325
 31
0.0
  0
LINE
  5
17631
330
17201
100
AcDbEntity
  8
U1
100
AcDbLine
 10
7692.927507899637
 20
8738.443182432325
 30
0.0
 11
7745.32750789964
 21
8738.443182432325
 31
0.0
  0
ARC
  5
17632
330
17201
100
AcDbEntity
  8
U1
100
AcDbCircle
 10
7692.927507899637
 20
8734.443182432325
 30
0.0
 40
4.0
100
AcDbArc
 50
90.0
 51
180.0
  0
ARC
  5
17633
330
17201
100
AcDbEntity
  8
U1
100
AcDbCircle
 10
7692.927507899637
 20
8682.043182432327
 30
0.0
 40
4.0
100
AcDbArc
 50
180.0
 51
270.0
  0
LINE
  5
17634
330
17201
100
AcDbEntity
  8
U1
100
AcDbLine
 10
7688.927507899638
 20
8682.043182432327
 30
0.0
 11
7688.927507899638
 21
8734.443182432325
 31
0.0
  0
ARC
  5
17635
330
17201
100
AcDbEntity
  8
U1
100
AcDbCircle
 10
7745.32750789964
 20
8734.443182432325
 30
0.0
 40
4.0
100
AcDbArc
 50
0.0
 51
90.0
  0
ARC
  5
17636
330
17201
100
AcDbEntity
  8
U1
100
AcDbCircle
 10
7725.327507899638
 20
8682.043182432327
 30
0.0
 40
4.0
100
AcDbArc
 50
270.0
 51
0.0
  0
ARC
  5
17637
330
17201
100
AcDbEntity
  8
U1
100
AcDbCircle
 10
7732.77750789964
 20
8691.293182432326
 30
0.0
 40
1.149999999999977
100
AcDbArc
 50
0.0
 51
180.0
  0
LINE
  5
17638
330
17201
100
AcDbEntity
  8
U1
100
AcDbLine
 10
7736.227507899639
 20
8683.743182432328
 30
0.0
 11
7736.227507899639
 21
8691.293182432326
 31
0.0
  0
LINE
  5
17639
330
17201
100
AcDbEntity
  8
U1
100
AcDbLine
 10
7733.927507899636
 20
8683.743182432328
 30
0.0
 11
7736.227507899639
 21
8683.743182432328
 31
0.0
  0
LINE
  5
1763A
330
17201
100
AcDbEntity
  8
U1
100
AcDbLine
 10
7731.627507899638
 20
8690.743182432326
 30
0.0
 11
7733.927507899636
 21
8690.743182432326
 31
0.0
  0
ARC
  5
1763B
330
17201
100
AcDbEntity
  8
U1
100
AcDbCircle
 10
7732.77750789964
 20
8691.293182432326
 30
0.0
 40
3.450000000000044
100
AcDbArc
 50
0.0
 51
180.0
  0
LINE
  5
1763C
330
17201
100
AcDbEntity
  8
U1
100
AcDbLine
 10
7731.627507899638
 20
8691.293182432326
 30
0.0
 11
7731.627507899638
 21
8682.043182432327
 31
0.0
  0
LINE
  5
1763D
330
17201
100
AcDbEntity
  8
U1
100
AcDbLine
 10
7733.927507899636
 20
8682.043182432327
 30
0.0
 11
7733.927507899636
 21
8691.293182432326
 31
0.0
  0
LINE
  5
1763E
330
17201
100
AcDbEntity
  8
U1
100
AcDbLine
 10
7729.32750789964
 20
8691.293182432326
 30
0.0
 11
7729.32750789964
 21
8682.043182432327
 31
0.0
  0
ARC
  5
1763F
330
17201
100
AcDbEntity
  8
U1
100
AcDbCircle
 10
7745.327507899638
 20
8682.043182432327
 30
0.0
 40
4.0
100
AcDbArc
 50
270.0
 51
0.0
  0
LINE
  5
17640
330
17201
100
AcDbEntity
  8
U1
100
AcDbLine
 10
7745.327507899638
 20
8678.043182432324
 30
0.0
 11
7737.927507899637
 21
8678.043182432324
 31
0.0
  0
ARC
  5
17641
330
17201
100
AcDbEntity
  8
U1
100
AcDbCircle
 10
7737.927507899637
 20
8682.043182432327
 30
0.0
 40
4.0
100
AcDbArc
 50
180.0
 51
270.0
  0
LINE
  5
17642
330
17201
100
AcDbEntity
  8
U1
100
AcDbLine
 10
7749.327507899637
 20
8734.443182432325
 30
0.0
 11
7749.327507899637
 21
8682.043182432327
 31
0.0
  0
LINE
  5
17643
330
17201
100
AcDbEntity
  8
U1
100
AcDbLine
 10
5262.927507899638
 20
8678.043182432325
 30
0.0
 11
5295.32750789964
 21
8678.043182432324
 31
0.0
  0
LINE
  5
17644
330
17201
100
AcDbEntity
  8
U1
100
AcDbLine
 10
5295.32750789964
 20
8738.443182432325
 30
0.0
 11
5242.927507899638
 21
8738.443182432325
 31
0.0
  0
ARC
  5
17645
330
17201
100
AcDbEntity
  8
U1
100
AcDbCircle
 10
5295.32750789964
 20
8734.443182432325
 30
0.0
 40
4.0
100
AcDbArc
 50
0.0
 51
90.0
  0
ARC
  5
17646
330
17201
100
AcDbEntity
  8
U1
100
AcDbCircle
 10
5295.32750789964
 20
8682.043182432327
 30
0.0
 40
4.0
100
AcDbArc
 50
270.0
 51
0.0
  0
LINE
  5
17647
330
17201
100
AcDbEntity
  8
U1
100
AcDbLine
 10
5299.327507899638
 20
8682.043182432327
 30
0.0
 11
5299.327507899638
 21
8734.443182432325
 31
0.0
  0
ARC
  5
17648
330
17201
100
AcDbEntity
  8
U1
100
AcDbCircle
 10
5242.927507899638
 20
8734.443182432325
 30
0.0
 40
4.0
100
AcDbArc
 50
90.0
 51
180.0
  0
ARC
  5
17649
330
17201
100
AcDbEntity
  8
U1
100
AcDbCircle
 10
5262.927507899638
 20
8682.043182432327
 30
0.0
 40
4.0
100
AcDbArc
 50
180.0
 51
270.0
  0
ARC
  5
1764A
330
17201
100
AcDbEntity
  8
U1
100
AcDbCircle
 10
5255.477507899638
 20
8691.293182432326
 30
0.0
 40
1.149999999999977
100
AcDbArc
 50
0.0
 51
180.0
  0
LINE
  5
1764B
330
17201
100
AcDbEntity
  8
U1
100
AcDbLine
 10
5252.027507899638
 20
8683.743182432328
 30
0.0
 11
5252.027507899638
 21
8691.293182432326
 31
0.0
  0
LINE
  5
1764C
330
17201
100
AcDbEntity
  8
U1
100
AcDbLine
 10
5254.327507899638
 20
8683.743182432328
 30
0.0
 11
5252.027507899638
 21
8683.743182432328
 31
0.0
  0
LINE
  5
1764D
330
17201
100
AcDbEntity
  8
U1
100
AcDbLine
 10
5256.627507899636
 20
8690.743182432326
 30
0.0
 11
5254.327507899638
 21
8690.743182432326
 31
0.0
  0
ARC
  5
1764E
330
17201
100
AcDbEntity
  8
U1
100
AcDbCircle
 10
5255.477507899638
 20
8691.293182432326
 30
0.0
 40
3.450000000000044
100
AcDbArc
 50
0.0
 51
180.0
  0
LINE
  5
1764F
330
17201
100
AcDbEntity
  8
U1
100
AcDbLine
 10
5256.627507899636
 20
8691.293182432326
 30
0.0
 11
5256.62750789964
 21
8682.043182432327
 31
0.0
  0
LINE
  5
17650
330
17201
100
AcDbEntity
  8
U1
100
AcDbLine
 10
5254.327507899638
 20
8682.043182432327
 30
0.0
 11
5254.327507899638
 21
8691.293182432326
 31
0.0
  0
LINE
  5
17651
330
17201
100
AcDbEntity
  8
U1
100
AcDbLine
 10
5258.927507899638
 20
8691.293182432326
 30
0.0
 11
5258.927507899638
 21
8682.043182432327
 31
0.0
  0
ARC
  5
17652
330
17201
100
AcDbEntity
  8
U1
100
AcDbCircle
 10
5242.927507899639
 20
8682.043182432327
 30
0.0
 40
4.0
100
AcDbArc
 50
180.0
 51
270.0
  0
LINE
  5
17653
330
17201
100
AcDbEntity
  8
U1
100
AcDbLine
 10
5242.927507899639
 20
8678.043182432325
 30
0.0
 11
5250.32750789964
 21
8678.043182432325
 31
0.0
  0
ARC
  5
17654
330
17201
100
AcDbEntity
  8
U1
100
AcDbCircle
 10
5250.32750789964
 20
8682.043182432327
 30
0.0
 40
4.0
100
AcDbArc
 50
270.0
 51
0.0
  0
LINE
  5
17655
330
17201
100
AcDbEntity
  8
U1
100
AcDbLine
 10
5238.927507899638
 20
8734.443182432325
 30
0.0
 11
5238.927507899639
 21
8682.043182432327
 31
0.0
  0
LINE
  5
17656
330
17201
100
AcDbEntity
  8
U1
100
AcDbLine
 10
7725.327507899638
 20
6938.443182432329
 30
0.0
 11
7692.927507899637
 21
6938.443182432329
 31
0.0
  0
LINE
  5
17657
330
17201
100
AcDbEntity
  8
U1
100
AcDbLine
 10
7692.927507899637
 20
6878.043182432326
 30
0.0
 11
7745.32750789964
 21
6878.043182432326
 31
0.0
  0
ARC
  5
17658
330
17201
100
AcDbEntity
  8
U1
100
AcDbCircle
 10
7692.927507899637
 20
6882.043182432325
 30
0.0
 40
4.0
100
AcDbArc
 50
180.0
 51
270.0
  0
ARC
  5
17659
330
17201
100
AcDbEntity
  8
U1
100
AcDbCircle
 10
7692.927507899637
 20
6934.443182432325
 30
0.0
 40
4.0
100
AcDbArc
 50
90.0
 51
180.0
  0
LINE
  5
1765A
330
17201
100
AcDbEntity
  8
U1
100
AcDbLine
 10
7688.927507899638
 20
6934.443182432325
 30
0.0
 11
7688.927507899638
 21
6882.043182432325
 31
0.0
  0
ARC
  5
1765B
330
17201
100
AcDbEntity
  8
U1
100
AcDbCircle
 10
7745.32750789964
 20
6882.043182432325
 30
0.0
 40
4.0
100
AcDbArc
 50
270.0
 51
0.0
  0
ARC
  5
1765C
330
17201
100
AcDbEntity
  8
U1
100
AcDbCircle
 10
7725.327507899638
 20
6934.443182432325
 30
0.0
 40
4.0
100
AcDbArc
 50
0.0
 51
90.0
  0
ARC
  5
1765D
330
17201
100
AcDbEntity
  8
U1
100
AcDbCircle
 10
7732.77750789964
 20
6925.193182432328
 30
0.0
 40
1.149999999999977
100
AcDbArc
 50
180.0
 51
0.0
  0
LINE
  5
1765E
330
17201
100
AcDbEntity
  8
U1
100
AcDbLine
 10
7736.227507899639
 20
6932.743182432327
 30
0.0
 11
7736.227507899639
 21
6925.193182432328
 31
0.0
  0
LINE
  5
1765F
330
17201
100
AcDbEntity
  8
U1
100
AcDbLine
 10
7733.927507899636
 20
6932.743182432327
 30
0.0
 11
7736.227507899639
 21
6932.743182432327
 31
0.0
  0
LINE
  5
17660
330
17201
100
AcDbEntity
  8
U1
100
AcDbLine
 10
7731.627507899638
 20
6925.743182432326
 30
0.0
 11
7733.927507899636
 21
6925.743182432326
 31
0.0
  0
ARC
  5
17661
330
17201
100
AcDbEntity
  8
U1
100
AcDbCircle
 10
7732.77750789964
 20
6925.193182432328
 30
0.0
 40
3.450000000000044
100
AcDbArc
 50
180.0
 51
0.0
  0
LINE
  5
17662
330
17201
100
AcDbEntity
  8
U1
100
AcDbLine
 10
7731.627507899638
 20
6925.193182432328
 30
0.0
 11
7731.627507899638
 21
6934.443182432325
 31
0.0
  0
LINE
  5
17663
330
17201
100
AcDbEntity
  8
U1
100
AcDbLine
 10
7733.927507899636
 20
6934.443182432325
 30
0.0
 11
7733.927507899636
 21
6925.193182432328
 31
0.0
  0
LINE
  5
17664
330
17201
100
AcDbEntity
  8
U1
100
AcDbLine
 10
7729.32750789964
 20
6925.193182432328
 30
0.0
 11
7729.32750789964
 21
6934.443182432325
 31
0.0
  0
ARC
  5
17665
330
17201
100
AcDbEntity
  8
U1
100
AcDbCircle
 10
7745.327507899638
 20
6934.443182432325
 30
0.0
 40
4.0
100
AcDbArc
 50
0.0
 51
90.0
  0
LINE
  5
17666
330
17201
100
AcDbEntity
  8
U1
100
AcDbLine
 10
7745.327507899638
 20
6938.443182432329
 30
0.0
 11
7737.927507899637
 21
6938.443182432329
 31
0.0
  0
ARC
  5
17667
330
17201
100
AcDbEntity
  8
U1
100
AcDbCircle
 10
7737.927507899637
 20
6934.443182432325
 30
0.0
 40
4.0
100
AcDbArc
 50
90.0
 51
180.0
  0
LINE
  5
17668
330
17201
100
AcDbEntity
  8
U1
100
AcDbLine
 10
7749.327507899637
 20
6882.043182432325
 30
0.0
 11
7749.327507899637
 21
6934.443182432325
 31
0.0
  0
LINE
  5
17669
330
17201
100
AcDbEntity
  8
U1
100
AcDbLine
 10
5262.927507899638
 20
6938.443182432329
 30
0.0
 11
5295.32750789964
 21
6938.443182432329
 31
0.0
  0
LINE
  5
1766A
330
17201
100
AcDbEntity
  8
U1
100
AcDbLine
 10
5295.32750789964
 20
6878.043182432326
 30
0.0
 11
5242.927507899638
 21
6878.043182432326
 31
0.0
  0
ARC
  5
1766B
330
17201
100
AcDbEntity
  8
U1
100
AcDbCircle
 10
5295.32750789964
 20
6882.043182432325
 30
0.0
 40
4.0
100
AcDbArc
 50
270.0
 51
0.0
  0
ARC
  5
1766C
330
17201
100
AcDbEntity
  8
U1
100
AcDbCircle
 10
5295.32750789964
 20
6934.443182432325
 30
0.0
 40
4.0
100
AcDbArc
 50
0.0
 51
90.0
  0
LINE
  5
1766D
330
17201
100
AcDbEntity
  8
U1
100
AcDbLine
 10
5299.327507899638
 20
6934.443182432325
 30
0.0
 11
5299.327507899638
 21
6882.043182432325
 31
0.0
  0
ARC
  5
1766E
330
17201
100
AcDbEntity
  8
U1
100
AcDbCircle
 10
5242.927507899638
 20
6882.043182432325
 30
0.0
 40
4.0
100
AcDbArc
 50
180.0
 51
270.0
  0
ARC
  5
1766F
330
17201
100
AcDbEntity
  8
U1
100
AcDbCircle
 10
5262.927507899638
 20
6934.443182432325
 30
0.0
 40
4.0
100
AcDbArc
 50
90.0
 51
180.0
  0
ARC
  5
17670
330
17201
100
AcDbEntity
  8
U1
100
AcDbCircle
 10
5255.477507899638
 20
6925.193182432328
 30
0.0
 40
1.149999999999977
100
AcDbArc
 50
180.0
 51
0.0
  0
LINE
  5
17671
330
17201
100
AcDbEntity
  8
U1
100
AcDbLine
 10
5252.027507899638
 20
6932.743182432327
 30
0.0
 11
5252.027507899638
 21
6925.193182432328
 31
0.0
  0
LINE
  5
17672
330
17201
100
AcDbEntity
  8
U1
100
AcDbLine
 10
5254.327507899638
 20
6932.743182432327
 30
0.0
 11
5252.027507899638
 21
6932.743182432327
 31
0.0
  0
LINE
  5
17673
330
17201
100
AcDbEntity
  8
U1
100
AcDbLine
 10
5256.627507899636
 20
6925.743182432326
 30
0.0
 11
5254.327507899638
 21
6925.743182432326
 31
0.0
  0
ARC
  5
17674
330
17201
100
AcDbEntity
  8
U1
100
AcDbCircle
 10
5255.477507899638
 20
6925.193182432328
 30
0.0
 40
3.450000000000044
100
AcDbArc
 50
180.0
 51
0.0
  0
LINE
  5
17675
330
17201
100
AcDbEntity
  8
U1
100
AcDbLine
 10
5256.627507899636
 20
6925.193182432328
 30
0.0
 11
5256.62750789964
 21
6934.443182432325
 31
0.0
  0
LINE
  5
17676
330
17201
100
AcDbEntity
  8
U1
100
AcDbLine
 10
5254.327507899638
 20
6934.443182432325
 30
0.0
 11
5254.327507899638
 21
6925.193182432328
 31
0.0
  0
LINE
  5
17677
330
17201
100
AcDbEntity
  8
U1
100
AcDbLine
 10
5258.927507899638
 20
6925.193182432328
 30
0.0
 11
5258.927507899638
 21
6934.443182432325
 31
0.0
  0
ARC
  5
17678
330
17201
100
AcDbEntity
  8
U1
100
AcDbCircle
 10
5242.927507899639
 20
6934.443182432325
 30
0.0
 40
4.0
100
AcDbArc
 50
90.0
 51
180.0
  0
LINE
  5
17679
330
17201
100
AcDbEntity
  8
U1
100
AcDbLine
 10
5242.927507899639
 20
6938.443182432329
 30
0.0
 11
5250.32750789964
 21
6938.443182432329
 31
0.0
  0
ARC
  5
1767A
330
17201
100
AcDbEntity
  8
U1
100
AcDbCircle
 10
5250.32750789964
 20
6934.443182432325
 30
0.0
 40
4.0
100
AcDbArc
 50
0.0
 51
90.0
  0
LINE
  5
1767B
330
17201
100
AcDbEntity
  8
U1
100
AcDbLine
 10
5238.927507899638
 20
6882.043182432325
 30
0.0
 11
5238.927507899639
 21
6934.443182432325
 31
0.0
  0
LINE
  5
1767C
330
17201
100
AcDbEntity
  8
U1
100
AcDbLine
 10
9125.327507899639
 20
6938.443182432329
 30
0.0
 11
9092.92750789964
 21
6938.443182432329
 31
0.0
  0
LINE
  5
1767D
330
17201
100
AcDbEntity
  8
U1
100
AcDbLine
 10
9092.92750789964
 20
6878.043182432326
 30
0.0
 11
9145.32750789964
 21
6878.043182432326
 31
0.0
  0
ARC
  5
1767E
330
17201
100
AcDbEntity
  8
U1
100
AcDbCircle
 10
9092.92750789964
 20
6882.043182432325
 30
0.0
 40
4.0
100
AcDbArc
 50
180.0
 51
270.0
  0
ARC
  5
1767F
330
17201
100
AcDbEntity
  8
U1
100
AcDbCircle
 10
9092.92750789964
 20
6934.443182432325
 30
0.0
 40
4.0
100
AcDbArc
 50
90.0
 51
180.0
  0
LINE
  5
17680
330
17201
100
AcDbEntity
  8
U1
100
AcDbLine
 10
9088.92750789964
 20
6934.443182432325
 30
0.0
 11
9088.92750789964
 21
6882.043182432325
 31
0.0
  0
ARC
  5
17681
330
17201
100
AcDbEntity
  8
U1
100
AcDbCircle
 10
9145.32750789964
 20
6882.043182432325
 30
0.0
 40
4.0
100
AcDbArc
 50
270.0
 51
0.0
  0
ARC
  5
17682
330
17201
100
AcDbEntity
  8
U1
100
AcDbCircle
 10
9125.327507899639
 20
6934.443182432325
 30
0.0
 40
4.0
100
AcDbArc
 50
0.0
 51
90.0
  0
ARC
  5
17683
330
17201
100
AcDbEntity
  8
U1
100
AcDbCircle
 10
9132.777507899637
 20
6925.193182432328
 30
0.0
 40
1.149999999999977
100
AcDbArc
 50
180.0
 51
0.0
  0
LINE
  5
17684
330
17201
100
AcDbEntity
  8
U1
100
AcDbLine
 10
9136.227507899636
 20
6932.743182432327
 30
0.0
 11
9136.227507899636
 21
6925.193182432328
 31
0.0
  0
LINE
  5
17685
330
17201
100
AcDbEntity
  8
U1
100
AcDbLine
 10
9133.92750789964
 20
6932.743182432327
 30
0.0
 11
9136.227507899636
 21
6932.743182432327
 31
0.0
  0
LINE
  5
17686
330
17201
100
AcDbEntity
  8
U1
100
AcDbLine
 10
9131.627507899642
 20
6925.743182432326
 30
0.0
 11
9133.92750789964
 21
6925.743182432326
 31
0.0
  0
ARC
  5
17687
330
17201
100
AcDbEntity
  8
U1
100
AcDbCircle
 10
9132.777507899637
 20
6925.193182432328
 30
0.0
 40
3.450000000000044
100
AcDbArc
 50
180.0
 51
0.0
  0
LINE
  5
17688
330
17201
100
AcDbEntity
  8
U1
100
AcDbLine
 10
9131.627507899642
 20
6925.193182432328
 30
0.0
 11
9131.627507899636
 21
6934.443182432325
 31
0.0
  0
LINE
  5
17689
330
17201
100
AcDbEntity
  8
U1
100
AcDbLine
 10
9133.92750789964
 20
6934.443182432325
 30
0.0
 11
9133.92750789964
 21
6925.193182432328
 31
0.0
  0
LINE
  5
1768A
330
17201
100
AcDbEntity
  8
U1
100
AcDbLine
 10
9129.32750789964
 20
6925.193182432328
 30
0.0
 11
9129.32750789964
 21
6934.443182432325
 31
0.0
  0
ARC
  5
1768B
330
17201
100
AcDbEntity
  8
U1
100
AcDbCircle
 10
9145.327507899635
 20
6934.443182432325
 30
0.0
 40
4.0
100
AcDbArc
 50
0.0
 51
90.0
  0
LINE
  5
1768C
330
17201
100
AcDbEntity
  8
U1
100
AcDbLine
 10
9145.327507899635
 20
6938.443182432329
 30
0.0
 11
9137.92750789964
 21
6938.443182432329
 31
0.0
  0
ARC
  5
1768D
330
17201
100
AcDbEntity
  8
U1
100
AcDbCircle
 10
9137.92750789964
 20
6934.443182432325
 30
0.0
 40
4.0
100
AcDbArc
 50
90.0
 51
180.0
  0
LINE
  5
1768E
330
17201
100
AcDbEntity
  8
U1
100
AcDbLine
 10
9149.32750789964
 20
6882.043182432325
 30
0.0
 11
9149.327507899636
 21
6934.443182432325
 31
0.0
  0
LINE
  5
1768F
330
17201
100
AcDbEntity
  8
U1
100
AcDbLine
 10
11575.32750789964
 20
6938.443182432329
 30
0.0
 11
11542.92750789964
 21
6938.443182432329
 31
0.0
  0
LINE
  5
17690
330
17201
100
AcDbEntity
  8
U1
100
AcDbLine
 10
11542.92750789964
 20
6878.043182432326
 30
0.0
 11
11595.32750789964
 21
6878.043182432326
 31
0.0
  0
ARC
  5
17691
330
17201
100
AcDbEntity
  8
U1
100
AcDbCircle
 10
11542.92750789964
 20
6882.043182432325
 30
0.0
 40
4.0
100
AcDbArc
 50
180.0
 51
270.0
  0
ARC
  5
17692
330
17201
100
AcDbEntity
  8
U1
100
AcDbCircle
 10
11542.92750789964
 20
6934.443182432325
 30
0.0
 40
4.0
100
AcDbArc
 50
90.0
 51
180.0
  0
LINE
  5
17693
330
17201
100
AcDbEntity
  8
U1
100
AcDbLine
 10
11538.92750789964
 20
6934.443182432325
 30
0.0
 11
11538.92750789964
 21
6882.043182432325
 31
0.0
  0
ARC
  5
17694
330
17201
100
AcDbEntity
  8
U1
100
AcDbCircle
 10
11595.32750789964
 20
6882.043182432325
 30
0.0
 40
4.0
100
AcDbArc
 50
270.0
 51
0.0
  0
ARC
  5
17695
330
17201
100
AcDbEntity
  8
U1
100
AcDbCircle
 10
11575.32750789964
 20
6934.443182432325
 30
0.0
 40
4.0
100
AcDbArc
 50
0.0
 51
90.0
  0
ARC
  5
17696
330
17201
100
AcDbEntity
  8
U1
100
AcDbCircle
 10
11582.77750789964
 20
6925.193182432328
 30
0.0
 40
1.149999999999977
100
AcDbArc
 50
180.0
 51
0.0
  0
LINE
  5
17697
330
17201
100
AcDbEntity
  8
U1
100
AcDbLine
 10
11586.22750789964
 20
6932.743182432327
 30
0.0
 11
11586.22750789964
 21
6925.193182432328
 31
0.0
  0
LINE
  5
17698
330
17201
100
AcDbEntity
  8
U1
100
AcDbLine
 10
11583.92750789964
 20
6932.743182432327
 30
0.0
 11
11586.22750789964
 21
6932.743182432327
 31
0.0
  0
LINE
  5
17699
330
17201
100
AcDbEntity
  8
U1
100
AcDbLine
 10
11581.62750789964
 20
6925.743182432326
 30
0.0
 11
11583.92750789964
 21
6925.743182432326
 31
0.0
  0
ARC
  5
1769A
330
17201
100
AcDbEntity
  8
U1
100
AcDbCircle
 10
11582.77750789964
 20
6925.193182432328
 30
0.0
 40
3.450000000000044
100
AcDbArc
 50
180.0
 51
0.0
  0
LINE
  5
1769B
330
17201
100
AcDbEntity
  8
U1
100
AcDbLine
 10
11581.62750789964
 20
6925.193182432328
 30
0.0
 11
11581.62750789964
 21
6934.443182432325
 31
0.0
  0
LINE
  5
1769C
330
17201
100
AcDbEntity
  8
U1
100
AcDbLine
 10
11583.92750789964
 20
6934.443182432325
 30
0.0
 11
11583.92750789964
 21
6925.193182432328
 31
0.0
  0
LINE
  5
1769D
330
17201
100
AcDbEntity
  8
U1
100
AcDbLine
 10
11579.32750789964
 20
6925.193182432328
 30
0.0
 11
11579.32750789964
 21
6934.443182432325
 31
0.0
  0
ARC
  5
1769E
330
17201
100
AcDbEntity
  8
U1
100
AcDbCircle
 10
11595.32750789964
 20
6934.443182432325
 30
0.0
 40
4.0
100
AcDbArc
 50
0.0
 51
90.0
  0
LINE
  5
1769F
330
17201
100
AcDbEntity
  8
U1
100
AcDbLine
 10
11595.32750789964
 20
6938.443182432329
 30
0.0
 11
11587.92750789964
 21
6938.443182432329
 31
0.0
  0
ARC
  5
176A0
330
17201
100
AcDbEntity
  8
U1
100
AcDbCircle
 10
11587.92750789964
 20
6934.443182432325
 30
0.0
 40
4.0
100
AcDbArc
 50
90.0
 51
180.0
  0
LINE
  5
176A1
330
17201
100
AcDbEntity
  8
U1
100
AcDbLine
 10
11599.32750789964
 20
6882.043182432325
 30
0.0
 11
11599.32750789964
 21
6934.443182432325
 31
0.0
  0
ARC
  5
176A2
330
17201
100
AcDbEntity
  8
U1
100
AcDbCircle
 10
11595.32750789964
 20
8682.043182432327
 30
0.0
 40
6.300000000001091
100
AcDbArc
 50
270.0
 51
0.0
  0
LINE
  5
176A3
330
17201
100
AcDbEntity
  8
U1
100
AcDbLine
 10
11595.32750789964
 20
8675.743182432324
 30
0.0
 11
11587.92750789964
 21
8675.743182432324
 31
0.0
  0
ARC
  5
176A4
330
17201
100
AcDbEntity
  8
U1
100
AcDbCircle
 10
11587.92750789964
 20
8682.043182432327
 30
0.0
 40
6.299999999999272
100
AcDbArc
 50
179.9999999999833
 51
270.0
  0
ARC
  5
176A5
330
17201
100
AcDbEntity
  8
U1
100
AcDbCircle
 10
11575.32750789962
 20
8682.043182432327
 30
0.0
 40
6.30000000000291
100
AcDbArc
 50
270.0000000000164
 51
0.0
  0
LINE
  5
176A6
330
17201
100
AcDbEntity
  8
U1
100
AcDbLine
 10
11575.32750789964
 20
8675.743182432324
 30
0.0
 11
11542.92750789964
 21
8675.743182432324
 31
0.0
  0
ARC
  5
176A7
330
17201
100
AcDbEntity
  8
U1
100
AcDbCircle
 10
11542.92750789964
 20
8682.043182432327
 30
0.0
 40
6.299999999999272
100
AcDbArc
 50
179.9999999999833
 51
270.0
  0
LINE
  5
176A8
330
17201
100
AcDbEntity
  8
U1
100
AcDbLine
 10
11536.62750789964
 20
8682.043182432327
 30
0.0
 11
11536.62750789964
 21
8734.443182432325
 31
0.0
  0
ARC
  5
176A9
330
17201
100
AcDbEntity
  8
U1
100
AcDbCircle
 10
11542.92750789964
 20
8734.443182432325
 30
0.0
 40
6.300000000001091
100
AcDbArc
 50
90.0
 51
180.0
  0
LINE
  5
176AA
330
17201
100
AcDbEntity
  8
U1
100
AcDbLine
 10
11542.92750789964
 20
8740.743182432325
 30
0.0
 11
11595.32750789964
 21
8740.743182432325
 31
0.0
  0
ARC
  5
176AB
330
17201
100
AcDbEntity
  8
U1
100
AcDbCircle
 10
11595.32750789964
 20
8734.443182432325
 30
0.0
 40
6.299999999999272
100
AcDbArc
 50
0.0
 51
90.0
  0
LINE
  5
176AC
330
17201
100
AcDbEntity
  8
U1
100
AcDbLine
 10
11601.62750789964
 20
8734.443182432325
 30
0.0
 11
11601.62750789964
 21
8682.043182432327
 31
0.0
  0
ARC
  5
176AD
330
17201
100
AcDbEntity
  8
U1
100
AcDbCircle
 10
9145.32750789964
 20
8682.043182432327
 30
0.0
 40
6.299999999999272
100
AcDbArc
 50
269.9999999999834
 51
0.0
  0
LINE
  5
176AE
330
17201
100
AcDbEntity
  8
U1
100
AcDbLine
 10
9145.327507899635
 20
8675.743182432324
 30
0.0
 11
9137.927507899636
 21
8675.743182432324
 31
0.0
  0
ARC
  5
176AF
330
17201
100
AcDbEntity
  8
U1
100
AcDbCircle
 10
9137.927507899636
 20
8682.043182432327
 30
0.0
 40
6.299999999999272
100
AcDbArc
 50
179.9999999999833
 51
270.0
  0
ARC
  5
176B0
330
17201
100
AcDbEntity
  8
U1
100
AcDbCircle
 10
9125.327507899639
 20
8682.043182432327
 30
0.0
 40
6.300000000001091
100
AcDbArc
 50
270.0
 51
0.0
  0
LINE
  5
176B1
330
17201
100
AcDbEntity
  8
U1
100
AcDbLine
 10
9125.327507899639
 20
8675.743182432324
 30
0.0
 11
9092.927507899636
 21
8675.743182432324
 31
0.0
  0
ARC
  5
176B2
330
17201
100
AcDbEntity
  8
U1
100
AcDbCircle
 10
9092.927507899636
 20
8682.043182432327
 30
0.0
 40
6.299999999999272
100
AcDbArc
 50
179.9999999999833
 51
270.0
  0
LINE
  5
176B3
330
17201
100
AcDbEntity
  8
U1
100
AcDbLine
 10
9086.62750789964
 20
8682.043182432327
 30
0.0
 11
9086.62750789964
 21
8734.443182432325
 31
0.0
  0
ARC
  5
176B4
330
17201
100
AcDbEntity
  8
U1
100
AcDbCircle
 10
9092.927507899636
 20
8734.443182432325
 30
0.0
 40
6.299999999999272
100
AcDbArc
 50
89.99999999998346
 51
180.0
  0
LINE
  5
176B5
330
17201
100
AcDbEntity
  8
U1
100
AcDbLine
 10
9092.92750789964
 20
8740.743182432325
 30
0.0
 11
9145.32750789964
 21
8740.743182432325
 31
0.0
  0
ARC
  5
176B6
330
17201
100
AcDbEntity
  8
U1
100
AcDbCircle
 10
9145.32750789964
 20
8734.443182432325
 30
0.0
 40
6.299999999999272
100
AcDbArc
 50
0.0
 51
90.0
  0
LINE
  5
176B7
330
17201
100
AcDbEntity
  8
U1
100
AcDbLine
 10
9151.627507899638
 20
8734.443182432325
 30
0.0
 11
9151.627507899638
 21
8682.043182432327
 31
0.0
  0
ARC
  5
176B8
330
17201
100
AcDbEntity
  8
U1
100
AcDbCircle
 10
7745.32750789964
 20
8682.043182432327
 30
0.0
 40
6.299999999999272
100
AcDbArc
 50
269.9999999999918
 51
0.0
  0
LINE
  5
176B9
330
17201
100
AcDbEntity
  8
U1
100
AcDbLine
 10
7745.327507899638
 20
8675.743182432324
 30
0.0
 11
7737.927507899637
 21
8675.743182432324
 31
0.0
  0
ARC
  5
176BA
330
17201
100
AcDbEntity
  8
U1
100
AcDbCircle
 10
7737.927507899637
 20
8682.043182432327
 30
0.0
 40
6.299999999999272
100
AcDbArc
 50
179.9999999999833
 51
270.0
  0
ARC
  5
176BB
330
17201
100
AcDbEntity
  8
U1
100
AcDbCircle
 10
7725.327507899638
 20
8682.043182432327
 30
0.0
 40
6.300000000000181
100
AcDbArc
 50
270.0
 51
0.0000000000165429
  0
LINE
  5
176BC
330
17201
100
AcDbEntity
  8
U1
100
AcDbLine
 10
7725.327507899638
 20
8675.743182432324
 30
0.0
 11
7692.927507899637
 21
8675.743182432324
 31
0.0
  0
ARC
  5
176BD
330
17201
100
AcDbEntity
  8
U1
100
AcDbCircle
 10
7692.927507899637
 20
8682.043182432327
 30
0.0
 40
6.299999999999272
100
AcDbArc
 50
179.9999999999833
 51
270.0
  0
LINE
  5
176BE
330
17201
100
AcDbEntity
  8
U1
100
AcDbLine
 10
7686.627507899638
 20
8682.043182432327
 30
0.0
 11
7686.627507899638
 21
8734.443182432325
 31
0.0
  0
ARC
  5
176BF
330
17201
100
AcDbEntity
  8
U1
100
AcDbCircle
 10
7692.927507899637
 20
8734.443182432325
 30
0.0
 40
6.299999999999272
100
AcDbArc
 50
89.99999999999173
 51
180.0
  0
LINE
  5
176C0
330
17201
100
AcDbEntity
  8
U1
100
AcDbLine
 10
7692.927507899637
 20
8740.743182432325
 30
0.0
 11
7745.327507899638
 21
8740.743182432325
 31
0.0
  0
ARC
  5
176C1
330
17201
100
AcDbEntity
  8
U1
100
AcDbCircle
 10
7745.32750789964
 20
8734.443182432325
 30
0.0
 40
6.299999999999272
100
AcDbArc
 50
0.0
 51
90.00000000000826
  0
LINE
  5
176C2
330
17201
100
AcDbEntity
  8
U1
100
AcDbLine
 10
7751.627507899637
 20
8734.443182432325
 30
0.0
 11
7751.627507899637
 21
8682.043182432327
 31
0.0
  0
ARC
  5
176C3
330
17201
100
AcDbEntity
  8
U1
100
AcDbCircle
 10
5242.927507899639
 20
8682.043182432327
 30
0.0
 40
6.300000000000181
100
AcDbArc
 50
179.9999999999833
 51
270.0
  0
LINE
  5
176C4
330
17201
100
AcDbEntity
  8
U1
100
AcDbLine
 10
5242.927507899639
 20
8675.743182432324
 30
0.0
 11
5250.32750789964
 21
8675.743182432324
 31
0.0
  0
ARC
  5
176C5
330
17201
100
AcDbEntity
  8
U1
100
AcDbCircle
 10
5250.32750789964
 20
8682.043182432327
 30
0.0
 40
6.299999999999272
100
AcDbArc
 50
270.0
 51
0.0000000000165429
  0
ARC
  5
176C6
330
17201
100
AcDbEntity
  8
U1
100
AcDbCircle
 10
5262.927507899639
 20
8682.043182432327
 30
0.0
 40
6.300000000000181
100
AcDbArc
 50
179.9999999999833
 51
270.0
  0
LINE
  5
176C7
330
17201
100
AcDbEntity
  8
U1
100
AcDbLine
 10
5262.927507899639
 20
8675.743182432324
 30
0.0
 11
5295.32750789964
 21
8675.743182432324
 31
0.0
  0
ARC
  5
176C8
330
17201
100
AcDbEntity
  8
U1
100
AcDbCircle
 10
5295.32750789964
 20
8682.043182432327
 30
0.0
 40
6.299999999999272
100
AcDbArc
 50
269.9999999999918
 51
0.0
  0
LINE
  5
176C9
330
17201
100
AcDbEntity
  8
U1
100
AcDbLine
 10
5301.627507899638
 20
8682.043182432327
 30
0.0
 11
5301.627507899638
 21
8734.443182432325
 31
0.0
  0
ARC
  5
176CA
330
17201
100
AcDbEntity
  8
U1
100
AcDbCircle
 10
5295.32750789964
 20
8734.443182432325
 30
0.0
 40
6.299999999999272
100
AcDbArc
 50
0.0
 51
90.00000000000826
  0
LINE
  5
176CB
330
17201
100
AcDbEntity
  8
U1
100
AcDbLine
 10
5295.32750789964
 20
8740.743182432325
 30
0.0
 11
5242.927507899639
 21
8740.743182432325
 31
0.0
  0
ARC
  5
176CC
330
17201
100
AcDbEntity
  8
U1
100
AcDbCircle
 10
5242.927507899638
 20
8734.443182432325
 30
0.0
 40
6.299999999999272
100
AcDbArc
 50
89.99999999999173
 51
180.0
  0
LINE
  5
176CD
330
17201
100
AcDbEntity
  8
U1
100
AcDbLine
 10
5236.62750789964
 20
8734.443182432325
 30
0.0
 11
5236.62750789964
 21
8682.043182432327
 31
0.0
  0
ARC
  5
176CE
330
17201
100
AcDbEntity
  8
U1
100
AcDbCircle
 10
7745.32750789964
 20
6934.443182432328
 30
0.0
 40
6.299999999999272
100
AcDbArc
 50
359.9999999999917
 51
90.00000000000826
  0
LINE
  5
176CF
330
17201
100
AcDbEntity
  8
U1
100
AcDbLine
 10
7745.327507899638
 20
6940.743182432327
 30
0.0
 11
7737.927507899637
 21
6940.743182432327
 31
0.0
  0
ARC
  5
176D0
330
17201
100
AcDbEntity
  8
U1
100
AcDbCircle
 10
7737.927507899637
 20
6934.443182432328
 30
0.0
 40
6.299999999999272
100
AcDbArc
 50
89.99999999999173
 51
180.0000000000082
  0
ARC
  5
176D1
330
17201
100
AcDbEntity
  8
U1
100
AcDbCircle
 10
7725.327507899638
 20
6934.443182432325
 30
0.0
 40
6.300000000000181
100
AcDbArc
 50
0.0
 51
90.0
  0
LINE
  5
176D2
330
17201
100
AcDbEntity
  8
U1
100
AcDbLine
 10
7725.327507899638
 20
6940.743182432327
 30
0.0
 11
7692.927507899637
 21
6940.743182432327
 31
0.0
  0
ARC
  5
176D3
330
17201
100
AcDbEntity
  8
U1
100
AcDbCircle
 10
7692.927507899637
 20
6934.443182432328
 30
0.0
 40
6.299999999999272
100
AcDbArc
 50
89.99999999999173
 51
180.0000000000082
  0
LINE
  5
176D4
330
17201
100
AcDbEntity
  8
U1
100
AcDbLine
 10
7686.627507899638
 20
6934.443182432325
 30
0.0
 11
7686.627507899638
 21
6882.043182432325
 31
0.0
  0
ARC
  5
176D5
330
17201
100
AcDbEntity
  8
U1
100
AcDbCircle
 10
7692.927507899637
 20
6882.043182432325
 30
0.0
 40
6.299999999999272
100
AcDbArc
 50
180.0
 51
270.0000000000081
  0
LINE
  5
176D6
330
17201
100
AcDbEntity
  8
U1
100
AcDbLine
 10
7692.927507899637
 20
6875.743182432326
 30
0.0
 11
7745.327507899638
 21
6875.743182432326
 31
0.0
  0
ARC
  5
176D7
330
17201
100
AcDbEntity
  8
U1
100
AcDbCircle
 10
7745.32750789964
 20
6882.043182432325
 30
0.0
 40
6.299999999999272
100
AcDbArc
 50
269.9999999999918
 51
0.0
  0
LINE
  5
176D8
330
17201
100
AcDbEntity
  8
U1
100
AcDbLine
 10
7751.627507899637
 20
6882.043182432325
 30
0.0
 11
7751.627507899637
 21
6934.443182432325
 31
0.0
  0
ARC
  5
176D9
330
17201
100
AcDbEntity
  8
U1
100
AcDbCircle
 10
5242.927507899638
 20
6934.443182432328
 30
0.0
 40
6.299999999999272
100
AcDbArc
 50
89.99999999999173
 51
180.0000000000082
  0
LINE
  5
176DA
330
17201
100
AcDbEntity
  8
U1
100
AcDbLine
 10
5242.927507899639
 20
6940.743182432327
 30
0.0
 11
5250.32750789964
 21
6940.743182432327
 31
0.0
  0
ARC
  5
176DB
330
17201
100
AcDbEntity
  8
U1
100
AcDbCircle
 10
5250.32750789964
 20
6934.443182432328
 30
0.0
 40
6.299999999999272
100
AcDbArc
 50
359.9999999999917
 51
90.00000000000826
  0
ARC
  5
176DC
330
17201
100
AcDbEntity
  8
U1
100
AcDbCircle
 10
5262.927507899639
 20
6934.443182432325
 30
0.0
 40
6.300000000000181
100
AcDbArc
 50
90.0
 51
180.0
  0
LINE
  5
176DD
330
17201
100
AcDbEntity
  8
U1
100
AcDbLine
 10
5262.927507899639
 20
6940.743182432327
 30
0.0
 11
5295.32750789964
 21
6940.743182432327
 31
0.0
  0
ARC
  5
176DE
330
17201
100
AcDbEntity
  8
U1
100
AcDbCircle
 10
5295.32750789964
 20
6934.443182432328
 30
0.0
 40
6.299999999999272
100
AcDbArc
 50
359.9999999999917
 51
90.00000000000826
  0
LINE
  5
176DF
330
17201
100
AcDbEntity
  8
U1
100
AcDbLine
 10
5301.627507899638
 20
6934.443182432325
 30
0.0
 11
5301.627507899638
 21
6882.043182432325
 31
0.0
  0
ARC
  5
176E0
330
17201
100
AcDbEntity
  8
U1
100
AcDbCircle
 10
5295.32750789964
 20
6882.043182432325
 30
0.0
 40
6.299999999999272
100
AcDbArc
 50
269.9999999999918
 51
0.0
  0
LINE
  5
176E1
330
17201
100
AcDbEntity
  8
U1
100
AcDbLine
 10
5295.32750789964
 20
6875.743182432326
 30
0.0
 11
5242.927507899639
 21
6875.743182432326
 31
0.0
  0
ARC
  5
176E2
330
17201
100
AcDbEntity
  8
U1
100
AcDbCircle
 10
5242.927507899638
 20
6882.043182432325
 30
0.0
 40
6.299999999999272
100
AcDbArc
 50
180.0
 51
270.0000000000081
  0
LINE
  5
176E3
330
17201
100
AcDbEntity
  8
U1
100
AcDbLine
 10
5236.62750789964
 20
6882.043182432325
 30
0.0
 11
5236.62750789964
 21
6934.443182432325
 31
0.0
  0
ARC
  5
176E4
330
17201
100
AcDbEntity
  8
U1
100
AcDbCircle
 10
9145.32750789964
 20
6934.443182432325
 30
0.0
 40
6.299999999999272
100
AcDbArc
 50
0.0
 51
90.00000000001655
  0
LINE
  5
176E5
330
17201
100
AcDbEntity
  8
U1
100
AcDbLine
 10
9145.327507899635
 20
6940.743182432327
 30
0.0
 11
9137.92750789964
 21
6940.743182432327
 31
0.0
  0
ARC
  5
176E6
330
17201
100
AcDbEntity
  8
U1
100
AcDbCircle
 10
9137.927507899636
 20
6934.443182432325
 30
0.0
 40
6.300000000000181
100
AcDbArc
 50
89.99999999998346
 51
180.0
  0
ARC
  5
176E7
330
17201
100
AcDbEntity
  8
U1
100
AcDbCircle
 10
9125.327507899639
 20
6934.443182432325
 30
0.0
 40
6.299999999999272
100
AcDbArc
 50
0.0
 51
90.00000000001655
  0
LINE
  5
176E8
330
17201
100
AcDbEntity
  8
U1
100
AcDbLine
 10
9125.327507899639
 20
6940.743182432327
 30
0.0
 11
9092.92750789964
 21
6940.743182432327
 31
0.0
  0
ARC
  5
176E9
330
17201
100
AcDbEntity
  8
U1
100
AcDbCircle
 10
9092.927507899636
 20
6934.443182432325
 30
0.0
 40
6.300000000000181
100
AcDbArc
 50
89.99999999998346
 51
180.0
  0
LINE
  5
176EA
330
17201
100
AcDbEntity
  8
U1
100
AcDbLine
 10
9086.62750789964
 20
6934.443182432325
 30
0.0
 11
9086.62750789964
 21
6882.043182432325
 31
0.0
  0
ARC
  5
176EB
330
17201
100
AcDbEntity
  8
U1
100
AcDbCircle
 10
9092.927507899636
 20
6882.043182432325
 30
0.0
 40
6.299999999999272
100
AcDbArc
 50
180.0000000000082
 51
270.0000000000164
  0
LINE
  5
176EC
330
17201
100
AcDbEntity
  8
U1
100
AcDbLine
 10
9092.92750789964
 20
6875.743182432326
 30
0.0
 11
9145.327507899635
 21
6875.743182432326
 31
0.0
  0
ARC
  5
176ED
330
17201
100
AcDbEntity
  8
U1
100
AcDbCircle
 10
9145.32750789964
 20
6882.043182432325
 30
0.0
 40
6.300000000000181
100
AcDbArc
 50
269.9999999999834
 51
359.9999999999917
  0
LINE
  5
176EE
330
17201
100
AcDbEntity
  8
U1
100
AcDbLine
 10
9151.627507899638
 20
6882.043182432325
 30
0.0
 11
9151.627507899638
 21
6934.443182432325
 31
0.0
  0
ARC
  5
176EF
330
17201
100
AcDbEntity
  8
U1
100
AcDbCircle
 10
11595.32750789964
 20
6934.443182432328
 30
0.0
 40
6.299999999999272
100
AcDbArc
 50
359.9999999999917
 51
90.0
  0
LINE
  5
176F0
330
17201
100
AcDbEntity
  8
U1
100
AcDbLine
 10
11595.32750789964
 20
6940.743182432327
 30
0.0
 11
11587.92750789964
 21
6940.743182432327
 31
0.0
  0
ARC
  5
176F1
330
17201
100
AcDbEntity
  8
U1
100
AcDbCircle
 10
11587.92750789964
 20
6934.443182432328
 30
0.0
 40
6.299999999999272
100
AcDbArc
 50
90.0
 51
180.0000000000082
  0
ARC
  5
176F2
330
17201
100
AcDbEntity
  8
U1
100
AcDbCircle
 10
11575.32750789964
 20
6934.443182432328
 30
0.0
 40
6.299999999999272
100
AcDbArc
 50
359.9999999999917
 51
90.0
  0
LINE
  5
176F3
330
17201
100
AcDbEntity
  8
U1
100
AcDbLine
 10
11575.32750789964
 20
6940.743182432327
 30
0.0
 11
11542.92750789964
 21
6940.743182432327
 31
0.0
  0
ARC
  5
176F4
330
17201
100
AcDbEntity
  8
U1
100
AcDbCircle
 10
11542.92750789964
 20
6934.443182432328
 30
0.0
 40
6.299999999999272
100
AcDbArc
 50
90.0
 51
180.0000000000082
  0
LINE
  5
176F5
330
17201
100
AcDbEntity
  8
U1
100
AcDbLine
 10
11536.62750789964
 20
6934.443182432325
 30
0.0
 11
11536.62750789964
 21
6882.043182432325
 31
0.0
  0
ARC
  5
176F6
330
17201
100
AcDbEntity
  8
U1
100
AcDbCircle
 10
11542.92750789964
 20
6882.043182432325
 30
0.0
 40
6.299999999999272
100
AcDbArc
 50
180.0
 51
270.0
  0
LINE
  5
176F7
330
17201
100
AcDbEntity
  8
U1
100
AcDbLine
 10
11542.92750789964
 20
6875.743182432326
 30
0.0
 11
11595.32750789964
 21
6875.743182432326
 31
0.0
  0
ARC
  5
176F8
330
17201
100
AcDbEntity
  8
U1
100
AcDbCircle
 10
11595.32750789964
 20
6882.043182432325
 30
0.0
 40
6.299999999999272
100
AcDbArc
 50
270.0
 51
0.0
  0
LINE
  5
176F9
330
17201
100
AcDbEntity
  8
U1
100
AcDbLine
 10
11601.62750789964
 20
6882.043182432325
 30
0.0
 11
11601.62750789964
 21
6934.443182432325
 31
0.0
  0
TEXT
  5
1771C
330
17201
100
AcDbEntity
  8
SUNPOU
100
AcDbText
 10
8402.714310140153
 20
2625.248144216742
 30
0.0
 40
90.0
  1
その他現地の実情にあわせて設計して下さい。
  7
01
100
AcDbText
  0
TEXT
  5
1771D
330
17201
100
AcDbEntity
  8
SUNPOU
100
AcDbText
 10
8402.714310140153
 20
2933.819572788169
 30
0.0
 40
90.0
  1
寒冷地の場合、凍結深度等を考慮し、実情に
  7
01
100
AcDbText
  0
TEXT
  5
1771E
330
17201
100
AcDbEntity
  8
SUNPOU
100
AcDbText
 10
8093.728087248265
 20
3277.358086458407
 30
0.0
 40
89.9993750043402
  1
地耐力   　　　 以上,コンクリート設計基準強度　　　　　以上
  7
01
100
AcDbText
  0
TEXT
  5
1771F
330
17201
100
AcDbEntity
  8
SUNPOU
100
AcDbText
 10
8196.508565050759
 20
2625.248144216742
 30
0.0
 40
90.0
  1
2
 41
0.6700000000000001
  7
01
100
AcDbText
  0
TEXT
  5
17720
330
17201
100
AcDbEntity
  8
SUNPOU
100
AcDbText
 10
8085.874644838023
 20
2625.248144216742
 30
0.0
 40
90.0
  1
注　）
  7
01
100
AcDbText
  0
TEXT
  5
17721
330
17201
100
AcDbEntity
  8
SUNPOU
100
AcDbText
 10
8577.491515913429
 20
3123.07237217269
 30
0.0
 40
89.9993750043402
  1
34 m/s
 41
0.6700000000000001
  7
01
100
AcDbText
  0
TEXT
  5
17722
330
17201
100
AcDbEntity
  8
SUNPOU
100
AcDbText
 10
8402.714310140153
 20
2779.53385850245
 30
0.0
 40
90.0
  1
あわせて設計して下さい。
  7
01
100
AcDbText
  0
TEXT
  5
17723
330
17201
100
AcDbEntity
  8
SUNPOU
100
AcDbText
 10
8093.728087248265
 20
3123.07237217269
 30
0.0
 40
89.9993750043402
  1
基準風速   　　 , 地表面粗度区分
  7
01
100
AcDbText
  0
TEXT
  5
17724
330
17201
100
AcDbEntity
  8
SUNPOU
100
AcDbText
 10
7963.164458532034
 20
3466.612088904361
 30
0.0
 40
90.0
  1
<下記条件での参考図>
  7
01
 72
     4
 11
8552.021601389176
 21
3511.612088904361
 31
0.0
100
AcDbText
  0
TEXT
  5
17725
330
17201
100
AcDbEntity
  8
SUNPOU
100
AcDbText
 10
8088.521601389176
 20
3624.112088904359
 30
0.0
 40
120.0
  1
基礎断面図
  7
01
 72
     4
 11
8428.521601389176
 21
3684.112088904359
 31
0.0
100
AcDbText
  0
TEXT
  5
17726
330
17201
100
AcDbEntity
  8
SUNPOU
100
AcDbText
 10
8467.98649467334
 20
3277.358086458407
 30
0.0
 40
89.9993750043402
  1
50  N/m
 41
0.6700000000000001
  7
01
100
AcDbText
  0
TEXT
  5
17727
330
17201
100
AcDbEntity
  8
SUNPOU
100
AcDbText
 10
8085.874644838023
 20
2933.819572788169
 30
0.0
 40
90.0
  1
注　）
  7
01
100
AcDbText
  0
ARC
  5
17728
330
17201
100
AcDbEntity
  8
SUNPOU
100
AcDbCircle
 10
8246.686361155466
 20
3241.145509900238
 30
0.0
 40
225.0
100
AcDbArc
 50
148.3472725282761
 51
211.6527274717238
  0
TEXT
  5
17729
330
17201
100
AcDbEntity
  8
SUNPOU
100
AcDbText
 10
8196.508565050759
 20
2933.819572788169
 30
0.0
 40
90.0
  1
1
 41
0.6700000000000001
  7
01
100
AcDbText
  0
TEXT
  5
1772A
330
17201
100
AcDbEntity
  8
SUNPOU
100
AcDbText
 10
8603.822947459287
 20
3277.358086458407
 30
0.0
 40
71.99950000347218
  1
K
 41
0.6700000000000001
  7
01
100
AcDbText
  0
TEXT
  5
1772B
330
17201
100
AcDbEntity
  8
SUNPOU
100
AcDbText
 10
8871.463104187689
 20
3327.54651281589
 30
0.0
 40
46.28539285937498
  1
2
 41
0.6700000000000001
  7
00
100
AcDbText
  0
LINE
  5
1772C
330
17201
100
AcDbEntity
  8
SUNPOU
100
AcDbLine
 10
9885.543648814868
 20
3123.07237217269
 30
0.0
 11
9941.793648814869
 21
3123.07237217269
 31
0.0
  0
LINE
  5
1772D
330
17201
100
AcDbEntity
  8
SUNPOU
100
AcDbLine
 10
9885.543648814868
 20
3206.564735871472
 30
0.0
 11
9941.793648814869
 21
3206.564735871472
 31
0.0
  0
LINE
  5
1772E
330
17201
100
AcDbEntity
  8
SUNPOU
100
AcDbLine
 10
9913.668648814869
 20
3123.07237217269
 30
0.0
 11
9913.668648814869
 21
3206.564735871472
 31
0.0
  0
LINE
  5
1772F
330
17201
100
AcDbEntity
  8
SUNPOU
100
AcDbLine
 10
9896.793648814869
 20
3123.07237217269
 30
0.0
 11
9896.793648814869
 21
3206.564735871472
 31
0.0
  0
LINE
  5
17730
330
17201
100
AcDbEntity
  8
SUNPOU
100
AcDbLine
 10
9930.54364881487
 20
3123.07237217269
 30
0.0
 11
9930.54364881487
 21
3206.564735871472
 31
0.0
  0
TEXT
  5
17731
330
17201
100
AcDbEntity
  8
SUNPOU
100
AcDbText
 10
8805.371938752147
 20
3636.419781212056
 30
0.0
 40
92.30769230769228
  1
（ S = 　　  ）
 41
0.6700000000000001
  7
00
 11
8805.371938752147
 21
3624.112088904363
 31
0.0
100
AcDbText
 73
     1
  0
TEXT
  5
17732
330
17201
100
AcDbEntity
  8
SUNPOU
100
AcDbText
 10
9237.430210874968
 20
3615.496704288976
 30
0.0
 40
73.84615384615384
  1
25
 41
0.6700000000000001
  7
00
 11
9237.430210874968
 21
3605.650550442822
 31
0.0
100
AcDbText
 73
     1
  0
TEXT
  5
17733
330
17201
100
AcDbEntity
  8
SUNPOU
100
AcDbText
 10
9125.074640605218
 20
3652.419781212055
 30
0.0
 40
73.84615384615384
  1
1
 41
0.6700000000000001
  7
00
 11
9125.074640605218
 21
3642.573627365901
 31
0.0
100
AcDbText
 73
     1
  0
TEXT
  5
17734
330
17201
100
AcDbEntity
  8
SUNPOU
100
AcDbText
 10
9173.480767920585
 20
3633.958242750517
 30
0.0
 40
73.84615384615384
  1
/
 41
0.6700000000000001
  7
00
 11
9173.480767920585
 21
3624.112088904363
 31
0.0
100
AcDbText
 73
     1
  0
TEXT
  5
17735
330
17201
100
AcDbEntity
  8
SUNPOU
100
AcDbText
 10
10648.57501832092
 20
3277.358086458407
 30
0.0
 40
89.9993750043402
  1
N/mm
 41
0.6700000000000001
  7
01
100
AcDbText
  0
TEXT
  5
17736
330
17201
100
AcDbEntity
  8
SUNPOU
100
AcDbText
 10
10512.73856553497
 20
3277.358086458407
 30
0.0
 40
89.9993750043402
  1
18
 41
0.6700000000000001
  7
01
100
AcDbText
  0
TEXT
  5
17737
330
17201
100
AcDbEntity
  8
SUNPOU
100
AcDbText
 10
10953.03950035232
 20
3327.54651281589
 30
0.0
 40
46.28539285937498
  1
2
 41
0.6700000000000001
  7
00
100
AcDbText
  0
ARC
  5
17738
330
17201
100
AcDbEntity
  8
SUNPOU
100
AcDbCircle
 10
11101.91676488594
 20
3263.629790686027
 30
0.0
 40
225.0
100
AcDbArc
 50
328.3472725282761
 51
31.65272747172387
  0
ENDSEC
  0
SECTION
  2
OBJECTS
  0
DICTIONARY
  5
171EF
330
0
100
AcDbDictionary
281
     1
  3
ACAD_GROUP
350
171F0
  3
ACAD_LAYOUT
350
171FC
  3
ACAD_MLINESTYLE
350
171F9
  3
ACAD_PLOTSETTINGS
350
171FB
  3
ACAD_PLOTSTYLENAME
350
171F1
  3
AcDbVariableDictionary
350
17739
  0
DICTIONARY
  5
171F0
102
{ACAD_REACTORS
330
171EF
102
}
330
171EF
100
AcDbDictionary
281
     1
  0
DICTIONARY
  5
171FC
102
{ACAD_REACTORS
330
171EF
102
}
330
171EF
100
AcDbDictionary
281
     1
  3
Model
350
17204
  3
ﾚｲｱｳﾄ1
350
17200
  0
DICTIONARY
  5
171F9
102
{ACAD_REACTORS
330
171EF
102
}
330
171EF
100
AcDbDictionary
281
     1
  3
Standard
350
171FA
  0
DICTIONARY
  5
171FB
102
{ACAD_REACTORS
330
171EF
102
}
330
171EF
100
AcDbDictionary
281
     1
  0
ACDBDICTIONARYWDFLT
  5
171F1
102
{ACAD_REACTORS
330
171EF
102
}
330
171EF
100
AcDbDictionary
281
     1
  3
Normal
350
171F2
100
AcDbDictionaryWithDefault
340
171F2
  0
DICTIONARY
  5
17739
102
{ACAD_REACTORS
330
171EF
102
}
330
171EF
100
AcDbDictionary
281
     1
  3
DIMASSOC
350
1773A
  0
LAYOUT
  5
17204
102
{ACAD_REACTORS
330
171FC
102
}
330
171FC
100
AcDbPlotSettings
  1

  2
Muratec V-1200 Is@Web Printer
  4

  6

 40
0.0
 41
0.0
 42
0.0
 43
0.0
 44
0.0
 45
0.0
 46
0.0
 47
0.0
 48
0.0
 49
0.0
140
0.0
141
0.0
142
1.0
143
1.0
 70
  1712
 72
     0
 73
     0
 74
     0
  7

 75
     0
147
1.0
148
0.0
149
0.0
100
AcDbLayout
  1
Model
 70
     1
 71
     0
 10
0.0
 20
0.0
 11
12.0
 21
9.0
 12
0.0
 22
0.0
 32
0.0
 14
0.0
 24
0.0
 34
0.0
 15
0.0
 25
0.0
 35
0.0
146
0.0
 13
0.0
 23
0.0
 33
0.0
 16
1.0
 26
0.0
 36
0.0
 17
0.0
 27
1.0
 37
0.0
 76
     0
330
17201
  0
LAYOUT
  5
17200
102
{ACAD_REACTORS
330
171FC
102
}
330
171FC
100
AcDbPlotSettings
  1

  2
Muratec V-1200 Is@Web Printer
  4

  6

 40
0.0
 41
0.0
 42
0.0
 43
0.0
 44
0.0
 45
0.0
 46
0.0
 47
0.0
 48
0.0
 49
0.0
140
0.0
141
0.0
142
1.0
143
1.0
 70
   688
 72
     0
 73
     0
 74
     5
  7

 75
    16
147
1.0
148
0.0
149
0.0
100
AcDbLayout
  1
ﾚｲｱｳﾄ1
 70
     0
 71
     1
 10
0.0
 20
0.0
 11
12.0
 21
9.0
 12
0.0
 22
0.0
 32
0.0
 14
1.000000000000000E+20
 24
1.000000000000000E+20
 34
1.000000000000000E+20
 15
-1.000000000000000E+20
 25
-1.000000000000000E+20
 35
-1.000000000000000E+20
146
0.0
 13
0.0
 23
0.0
 33
0.0
 16
1.0
 26
0.0
 36
0.0
 17
0.0
 27
1.0
 37
0.0
 76
     0
330
171FD
  0
MLINESTYLE
  5
171FA
102
{ACAD_REACTORS
330
171F9
102
}
330
171F9
100
AcDbMlineStyle
  2
STANDARD
 70
     0
  3

 62
   256
 51
90.0
 52
90.0
 71
     2
 49
0.5
 62
   256
  6
BYLAYER
 49
-0.5
 62
   256
  6
BYLAYER
  0
ACDBPLACEHOLDER
  5
171F2
102
{ACAD_REACTORS
330
171F1
102
}
330
171F1
  0
DICTIONARYVAR
  5
1773A
102
{ACAD_REACTORS
330
17739
102
}
330
17739
100
DictionaryVariables
280
     0
  1
1
  0
ENDSEC
  0
EOF
