  0
SECTION
  2
HEADER
  9
$ACADVER
  1
AC1015
  9
$ACADMAINTVER
 70
    13
  9
$DWGCODEPAGE
  3
ANSI_932
  9
$INSBASE
 10
267.0
 20
194.8999999999998
 30
0.0
  9
$EXTMIN
 10
433.9966216520333
 20
163.6908237492789
 30
-0.000000000000013
  9
$EXTMAX
 10
16382.6660542547
 20
11242.27663824599
 30
0.0000000000000023
  9
$LIMMIN
 10
0.0
 20
0.0
  9
$LIMMAX
 10
16800.0
 20
11880.0
  9
$ORTHOMODE
 70
     0
  9
$REGENMODE
 70
     1
  9
$FILLMODE
 70
     1
  9
$QTEXTMODE
 70
     0
  9
$MIRRTEXT
 70
     0
  9
$LTSCALE
 40
40.0
  9
$ATTMODE
 70
     1
  9
$TEXTSIZE
 40
0.2
  9
$TRACEWID
 40
0.05
  9
$TEXTSTYLE
  7
00
  9
$CLAYER
  8
SUNPOU
  9
$CELTYPE
  6
BYLAYER
  9
$CECOLOR
 62
   256
  9
$CELTSCALE
 40
1.0
  9
$DISPSILH
 70
     0
  9
$DIMSCALE
 40
30.0
  9
$DIMASZ
 40
0.5
  9
$DIMEXO
 40
1.0
  9
$DIMDLI
 40
7.0
  9
$DIMRND
 40
0.0
  9
$DIMDLE
 40
3.0
  9
$DIMEXE
 40
1.5
  9
$DIMTP
 40
0.0
  9
$DIMTM
 40
0.0
  9
$DIMTXT
 40
3.0
  9
$DIMCEN
 40
0.0
  9
$DIMTSZ
 40
0.0
  9
$DIMTOL
 70
     0
  9
$DIMLIM
 70
     0
  9
$DIMTIH
 70
     0
  9
$DIMTOH
 70
     0
  9
$DIMSE1
 70
     0
  9
$DIMSE2
 70
     0
  9
$DIMTAD
 70
     1
  9
$DIMZIN
 70
     8
  9
$DIMBLK
  1
DOT
  9
$DIMASO
 70
     1
  9
$DIMSHO
 70
     0
  9
$DIMPOST
  1

  9
$DIMAPOST
  1

  9
$DIMALT
 70
     0
  9
$DIMALTD
 70
     2
  9
$DIMALTF
 40
25.4
  9
$DIMLFAC
 40
1.0
  9
$DIMTOFL
 70
     1
  9
$DIMTVP
 40
0.0
  9
$DIMTIX
 70
     0
  9
$DIMSOXD
 70
     0
  9
$DIMSAH
 70
     1
  9
$DIMBLK1
  1
DOT
  9
$DIMBLK2
  1
DOT
  9
$DIMSTYLE
  2
SUNPOU_図面名
  9
$DIMCLRD
 70
   256
  9
$DIMCLRE
 70
   256
  9
$DIMCLRT
 70
   256
  9
$DIMTFAC
 40
1.0
  9
$DIMGAP
 40
1.5
  9
$DIMJUST
 70
     0
  9
$DIMSD1
 70
     0
  9
$DIMSD2
 70
     0
  9
$DIMTOLJ
 70
     1
  9
$DIMTZIN
 70
     0
  9
$DIMALTZ
 70
     0
  9
$DIMALTTZ
 70
     0
  9
$DIMUPT
 70
     0
  9
$DIMDEC
 70
     2
  9
$DIMTDEC
 70
     2
  9
$DIMALTU
 70
     2
  9
$DIMALTTD
 70
     2
  9
$DIMTXSTY
  7
00
  9
$DIMAUNIT
 70
     0
  9
$DIMADEC
 70
     0
  9
$DIMALTRND
 40
0.0
  9
$DIMAZIN
 70
     0
  9
$DIMDSEP
 70
    46
  9
$DIMATFIT
 70
     3
  9
$DIMFRAC
 70
     0
  9
$DIMLDRBLK
  1
DOT
  9
$DIMLUNIT
 70
     2
  9
$DIMLWD
 70
    -2
  9
$DIMLWE
 70
    -2
  9
$DIMTMOVE
 70
     0
  9
$LUNITS
 70
     2
  9
$LUPREC
 70
     2
  9
$SKETCHINC
 40
0.1
  9
$FILLETRAD
 40
0.0
  9
$AUNITS
 70
     0
  9
$AUPREC
 70
     0
  9
$MENU
  1
A:\TIGER\MENU\TIGER
  9
$ELEVATION
 40
0.0
  9
$PELEVATION
 40
0.0
  9
$THICKNESS
 40
0.0
  9
$LIMCHECK
 70
     0
  9
$CHAMFERA
 40
0.0
  9
$CHAMFERB
 40
0.0
  9
$CHAMFERC
 40
0.0
  9
$CHAMFERD
 40
0.0
  9
$SKPOLY
 70
     0
  9
$TDCREATE
 40
2450266.571064815
  9
$TDUCREATE
 40
2450266.196064815
  9
$TDUPDATE
 40
2456331.618571863
  9
$TDUUPDATE
 40
2456331.243571863
  9
$TDINDWG
 40
0.1624753935
  9
$TDUSRTIMER
 40
0.1624753935
  9
$USRTIMER
 70
     1
  9
$ANGBASE
 50
0.0
  9
$ANGDIR
 70
     0
  9
$PDMODE
 70
     0
  9
$PDSIZE
 40
0.0
  9
$PLINEWID
 40
0.0
  9
$SPLFRAME
 70
     0
  9
$SPLINETYPE
 70
     6
  9
$SPLINESEGS
 70
     8
  9
$HANDSEED
  5
1759A
  9
$SURFTAB1
 70
     6
  9
$SURFTAB2
 70
     6
  9
$SURFTYPE
 70
     6
  9
$SURFU
 70
     6
  9
$SURFV
 70
     6
  9
$UCSBASE
  2

  9
$UCSNAME
  2

  9
$UCSORG
 10
0.0
 20
0.0
 30
0.0
  9
$UCSXDIR
 10
1.0
 20
0.0
 30
0.0
  9
$UCSYDIR
 10
0.0
 20
1.0
 30
0.0
  9
$UCSORTHOREF
  2

  9
$UCSORTHOVIEW
 70
     0
  9
$UCSORGTOP
 10
0.0
 20
0.0
 30
0.0
  9
$UCSORGBOTTOM
 10
0.0
 20
0.0
 30
0.0
  9
$UCSORGLEFT
 10
0.0
 20
0.0
 30
0.0
  9
$UCSORGRIGHT
 10
0.0
 20
0.0
 30
0.0
  9
$UCSORGFRONT
 10
0.0
 20
0.0
 30
0.0
  9
$UCSORGBACK
 10
0.0
 20
0.0
 30
0.0
  9
$PUCSBASE
  2

  9
$PUCSNAME
  2

  9
$PUCSORG
 10
0.0
 20
0.0
 30
0.0
  9
$PUCSXDIR
 10
1.0
 20
0.0
 30
0.0
  9
$PUCSYDIR
 10
0.0
 20
1.0
 30
0.0
  9
$PUCSORTHOREF
  2

  9
$PUCSORTHOVIEW
 70
     0
  9
$PUCSORGTOP
 10
0.0
 20
0.0
 30
0.0
  9
$PUCSORGBOTTOM
 10
0.0
 20
0.0
 30
0.0
  9
$PUCSORGLEFT
 10
0.0
 20
0.0
 30
0.0
  9
$PUCSORGRIGHT
 10
0.0
 20
0.0
 30
0.0
  9
$PUCSORGFRONT
 10
0.0
 20
0.0
 30
0.0
  9
$PUCSORGBACK
 10
0.0
 20
0.0
 30
0.0
  9
$USERI1
 70
     3
  9
$USERI2
 70
     0
  9
$USERI3
 70
     0
  9
$USERI4
 70
     0
  9
$USERI5
 70
  1103
  9
$USERR1
 40
0.0
  9
$USERR2
 40
1.0
  9
$USERR3
 40
0.0
  9
$USERR4
 40
0.0
  9
$USERR5
 40
0.0
  9
$WORLDVIEW
 70
     1
  9
$SHADEDGE
 70
     3
  9
$SHADEDIF
 70
    70
  9
$TILEMODE
 70
     1
  9
$MAXACTVP
 70
    16
  9
$PINSBASE
 10
267.0
 20
194.8999999999998
 30
0.0
  9
$PLIMCHECK
 70
     0
  9
$PEXTMIN
 10
1.000000000000000E+20
 20
1.000000000000000E+20
 30
1.000000000000000E+20
  9
$PEXTMAX
 10
-1.000000000000000E+20
 20
-1.000000000000000E+20
 30
-1.000000000000000E+20
  9
$PLIMMIN
 10
0.0
 20
0.0
  9
$PLIMMAX
 10
12.0
 20
9.0
  9
$UNITMODE
 70
     0
  9
$VISRETAIN
 70
     0
  9
$PLINEGEN
 70
     1
  9
$PSLTSCALE
 70
     0
  9
$TREEDEPTH
 70
  3020
  9
$CMLSTYLE
  2
STANDARD
  9
$CMLJUST
 70
     0
  9
$CMLSCALE
 40
1.0
  9
$PROXYGRAPHICS
 70
     1
  9
$MEASUREMENT
 70
     0
  9
$CELWEIGHT
370
    -1
  9
$ENDCAPS
280
     0
  9
$JOINSTYLE
280
     0
  9
$LWDISPLAY
290
     0
  9
$INSUNITS
 70
     0
  9
$HYPERLINKBASE
  1

  9
$STYLESHEET
  1
SINSEI-A3.CTB
  9
$XEDIT
290
     1
  9
$CEPSNTYPE
380
     0
  9
$PSTYLEMODE
290
     1
  9
$FINGERPRINTGUID
  2
{E6DDE4A3-3185-11D4-AFBC-0040266D0056}
  9
$VERSIONGUID
  2
{9A9A1517-0393-4CB9-B358-DC9A7E7FF26D}
  9
$EXTNAMES
290
     1
  9
$PSVPSCALE
 40
0.0
  9
$OLESTARTUP
290
     0
  0
ENDSEC
  0
SECTION
  2
CLASSES
  0
CLASS
  1
ACDBDICTIONARYWDFLT
  2
AcDbDictionaryWithDefault
  3
AutoCAD 2000
 90
        0
280
     0
281
     0
  0
CLASS
  1
DICTIONARYVAR
  2
AcDbDictionaryVar
  3
AutoCAD 2000
 90
        0
280
     0
281
     0
  0
CLASS
  1
MATERIAL
  2
AcDbMaterial
  3
ObjectDBX Classes
 90
     1153
280
     0
281
     0
  0
CLASS
  1
VISUALSTYLE
  2
AcDbVisualStyle
  3
ObjectDBX Classes
 90
     4095
280
     0
281
     0
  0
CLASS
  1
TABLESTYLE
  2
AcDbTableStyle
  3
ObjectDBX Classes
 90
    36863
280
     0
281
     0
  0
CLASS
  1
SORTENTSTABLE
  2
AcDbSortentsTable
  3
AutoCAD 2000
 90
        0
280
     0
281
     0
  0
CLASS
  1
ACDBPLACEHOLDER
  2
AcDbPlaceHolder
  3
AutoCAD 2000
 90
        0
280
     0
281
     0
  0
CLASS
  1
LAYOUT
  2
AcDbLayout
  3
AutoCAD 2000
 90
        0
280
     0
281
     0
  0
ENDSEC
  0
SECTION
  2
TABLES
  0
TABLE
  2
VPORT
  5
1259A
102
{ACAD_XDICTIONARY
360
15B8E
102
}
330
0
100
AcDbSymbolTable
 70
     2
  0
VPORT
  5
17599
330
1259A
100
AcDbSymbolTableRecord
100
AcDbViewportTableRecord
  2
*Active
 70
     0
 10
0.0
 20
0.0
 11
1.0
 21
1.0
 12
8408.331337953368
 22
5702.983730997637
 13
0.0
 23
0.0
 14
1.0
 24
1.0
 15
0.0
 25
0.0
 16
0.0
 26
0.0
 36
1.0
 17
0.0
 27
0.0
 37
0.0
 40
12985.73988638911
 41
1.236040609137055
 42
50.0
 43
0.0
 44
0.0
 50
0.0
 51
0.0
 71
     0
 72
 10000
 73
     1
 74
     0
 75
     0
 76
     0
 77
     0
 78
     0
281
     0
 65
     1
110
0.0
120
0.0
130
0.0
111
1.0
121
0.0
131
0.0
112
0.0
122
1.0
132
0.0
 79
     0
146
0.0
  0
ENDTAB
  0
TABLE
  2
LTYPE
  5
12597
330
0
100
AcDbSymbolTable
 70
     5
  0
LTYPE
  5
125A4
330
12597
100
AcDbSymbolTableRecord
100
AcDbLinetypeTableRecord
  2
BYBLOCK
 70
     0
  3

 72
    65
 73
     0
 40
0.0
  0
LTYPE
  5
125A5
330
12597
100
AcDbSymbolTableRecord
100
AcDbLinetypeTableRecord
  2
BYLAYER
 70
     0
  3

 72
    65
 73
     0
 40
0.0
  0
LTYPE
  5
125A6
330
12597
100
AcDbSymbolTableRecord
100
AcDbLinetypeTableRecord
  2
CONTINUOUS
 70
     0
  3
実線
 72
    65
 73
     0
 40
0.0
  0
LTYPE
  5
125B9
330
12597
100
AcDbSymbolTableRecord
100
AcDbLinetypeTableRecord
  2
1PL-LL
 70
     0
  3

 72
    65
 73
     4
 40
106.0
 49
100.0
 74
     0
 49
-2.0
 74
     0
 49
2.0
 74
     0
 49
-2.0
 74
     0
  0
LTYPE
  5
125BC
330
12597
100
AcDbSymbolTableRecord
100
AcDbLinetypeTableRecord
  2
1PL-M
 70
     0
  3

 72
    65
 73
     4
 40
15.0
 49
12.0
 74
     0
 49
-1.0
 74
     0
 49
1.0
 74
     0
 49
-1.0
 74
     0
  0
LTYPE
  5
125C0
330
12597
100
AcDbSymbolTableRecord
100
AcDbLinetypeTableRecord
  2
2PL-L
 70
     0
  3

 72
    65
 73
     6
 40
60.0
 49
50.0
 74
     0
 49
-2.0
 74
     0
 49
2.0
 74
     0
 49
-2.0
 74
     0
 49
2.0
 74
     0
 49
-2.0
 74
     0
  0
LTYPE
  5
12C5B
330
12597
100
AcDbSymbolTableRecord
100
AcDbLinetypeTableRecord
  2
1PL-12
 70
     0
  3

 72
    65
 73
     4
 40
15.0
 49
12.0
 74
     0
 49
-1.0
 74
     0
 49
1.0
 74
     0
 49
-1.0
 74
     0
  0
ENDTAB
  0
TABLE
  2
LAYER
  5
12594
330
0
100
AcDbSymbolTable
 70
    19
  0
LAYER
  5
125A1
330
12594
100
AcDbSymbolTableRecord
100
AcDbLayerTableRecord
  2
0
 70
     0
 62
     7
  6
CONTINUOUS
370
    -3
390
1297A
  0
LAYER
  5
125C8
330
12594
100
AcDbSymbolTableRecord
100
AcDbLayerTableRecord
  2
U1
 70
     0
 62
     3
  6
CONTINUOUS
370
    -3
390
1297A
  0
LAYER
  5
125CA
330
12594
100
AcDbSymbolTableRecord
100
AcDbLayerTableRecord
  2
U3
 70
     0
 62
     6
  6
CONTINUOUS
370
    -3
390
1297A
  0
LAYER
  5
125D1
330
12594
100
AcDbSymbolTableRecord
100
AcDbLayerTableRecord
  2
SUNPOU
 70
     0
 62
     4
  6
CONTINUOUS
370
    -3
390
1297A
  0
LAYER
  5
125D2
330
12594
100
AcDbSymbolTableRecord
100
AcDbLayerTableRecord
  2
HIKIDASHI
 70
     0
 62
     6
  6
CONTINUOUS
370
    -3
390
1297A
  0
LAYER
  5
125E5
330
12594
100
AcDbSymbolTableRecord
100
AcDbLayerTableRecord
  2
1PL-M1
 70
     0
 62
     6
  6
1PL-M
370
    -3
390
1297A
  0
LAYER
  5
12ACD
330
12594
100
AcDbSymbolTableRecord
100
AcDbLayerTableRecord
  2
NAME
 70
     0
 62
    20
  6
CONTINUOUS
370
    -3
390
1297A
  0
LAYER
  5
12ACE
330
12594
100
AcDbSymbolTableRecord
100
AcDbLayerTableRecord
  2
FILENAME
 70
     0
 62
     7
  6
CONTINUOUS
370
    -3
390
1297A
  0
LAYER
  5
12C5C
330
12594
100
AcDbSymbolTableRecord
100
AcDbLayerTableRecord
  2
CENTER
 70
     0
 62
     6
  6
1PL-LL
370
    -3
390
1297A
  0
LAYER
  5
12C5D
330
12594
100
AcDbSymbolTableRecord
100
AcDbLayerTableRecord
  2
KISO
 70
     0
 62
     2
  6
CONTINUOUS
370
    -3
390
1297A
  0
LAYER
  5
12C70
330
12594
100
AcDbSymbolTableRecord
100
AcDbLayerTableRecord
  2
YANE
 70
     0
 62
     1
  6
1PL-12
370
    -3
390
1297A
  0
LAYER
  5
15354
330
12594
100
AcDbSymbolTableRecord
100
AcDbLayerTableRecord
  2
HATCH
 70
     0
 62
     1
  6
CONTINUOUS
370
    -3
390
1297A
  0
LAYER
  5
15355
330
12594
100
AcDbSymbolTableRecord
100
AcDbLayerTableRecord
  2
HASHIRA
 70
     0
 62
     3
  6
CONTINUOUS
370
    -3
390
1297A
  0
LAYER
  5
15356
330
12594
100
AcDbSymbolTableRecord
100
AcDbLayerTableRecord
  2
tekkin
 70
     0
 62
     2
  6
CONTINUOUS
370
    -3
390
1297A
  0
LAYER
  5
15357
330
12594
100
AcDbSymbolTableRecord
100
AcDbLayerTableRecord
  2
DOMAKON
 70
     0
 62
     2
  6
CONTINUOUS
370
    -3
390
1297A
  0
LAYER
  5
171CC
330
12594
100
AcDbSymbolTableRecord
100
AcDbLayerTableRecord
  2
YODOROGO
 70
     0
 62
   130
  6
CONTINUOUS
370
    -3
390
1297A
  0
LAYER
  5
171CF
330
12594
100
AcDbSymbolTableRecord
100
AcDbLayerTableRecord
  2
WAKUSEN-01
 70
     0
 62
    50
  6
CONTINUOUS
370
    -3
390
1297A
  0
LAYER
  5
171D0
330
12594
100
AcDbSymbolTableRecord
100
AcDbLayerTableRecord
  2
WAKUSEN-02
 70
     0
 62
   130
  6
CONTINUOUS
370
    -3
390
1297A
  0
LAYER
  5
171D1
330
12594
100
AcDbSymbolTableRecord
100
AcDbLayerTableRecord
  2
WAKUMOJI-01
 70
     0
 62
   130
  6
CONTINUOUS
370
    -3
390
1297A
  0
ENDTAB
  0
TABLE
  2
STYLE
  5
12595
330
0
100
AcDbSymbolTable
 70
     5
  0
STYLE
  5
125A2
330
12595
100
AcDbSymbolTableRecord
100
AcDbTextStyleTableRecord
  2
STANDARD
 70
     0
 40
3.0
 41
1.0
 50
0.0
 71
     0
 42
0.2
  3
ROMANS
  4
EXTFONT
  0
STYLE
  5
125B1
330
12595
100
AcDbSymbolTableRecord
100
AcDbTextStyleTableRecord
  2
01
 70
     0
 40
3.0
 41
1.0
 50
0.0
 71
     0
 42
0.2
  3
ROMANS
  4
BIGFONT
  0
STYLE
  5
125B3
330
12595
100
AcDbSymbolTableRecord
100
AcDbTextStyleTableRecord
  2
00
 70
     0
 40
0.0
 41
0.6666666666666666
 50
0.0
 71
     0
 42
0.2
  3
ROMANS
  4
BIGFONT
  0
STYLE
  5
126E5
330
12595
100
AcDbSymbolTableRecord
100
AcDbTextStyleTableRecord
  2
WAKUMOJI
 70
     0
 40
3.0
 41
1.0
 50
0.0
 71
     0
 42
3.0
  3
SIMPLEX
  4
BIGFONT
  0
STYLE
  5
12ACF
330
12595
100
AcDbSymbolTableRecord
100
AcDbTextStyleTableRecord
  2
FILENAME
 70
     0
 40
100.0
 41
1.0
 50
0.0
 71
     0
 42
100.0
  3
romans
  4
bigfont
  0
ENDTAB
  0
TABLE
  2
VIEW
  5
12598
330
0
100
AcDbSymbolTable
 70
     0
  0
ENDTAB
  0
TABLE
  2
UCS
  5
12599
330
0
100
AcDbSymbolTable
 70
     0
  0
ENDTAB
  0
TABLE
  2
APPID
  5
1259B
330
0
100
AcDbSymbolTable
 70
     3
  0
APPID
  5
125A3
330
1259B
100
AcDbSymbolTableRecord
100
AcDbRegAppTableRecord
  2
ACAD
 70
     0
  0
APPID
  5
1263C
330
1259B
100
AcDbSymbolTableRecord
100
AcDbRegAppTableRecord
  2
AUTOCAD_POSTSCRIPT_FIGURE
 70
     0
  0
APPID
  5
167C0
330
1259B
100
AcDbSymbolTableRecord
100
AcDbRegAppTableRecord
  2
ACAD_PSEXT
 70
     0
  0
ENDTAB
  0
TABLE
  2
DIMSTYLE
  5
1259C
330
0
100
AcDbSymbolTable
 70
     1
100
AcDbDimStyleTable
 71
     0
  0
DIMSTYLE
105
12C72
330
1259C
100
AcDbSymbolTableRecord
100
AcDbDimStyleTableRecord
  2
SUNPOU_図面名
 70
     0
 40
30.0
 41
0.5
 42
1.0
 43
7.0
 44
1.5
 46
3.0
 73
     0
 74
     0
 77
     1
 78
     8
140
3.0
141
0.0
147
1.5
172
     1
173
     1
176
   256
177
   256
178
   256
271
     2
272
     2
340
125B3
341
125AE
342
125AE
343
125AE
344
125AE
  0
ENDTAB
  0
TABLE
  2
BLOCK_RECORD
  5
12593
330
0
100
AcDbSymbolTable
 70
     2
  0
BLOCK_RECORD
  5
125AA
102
{ACAD_XDICTIONARY
360
129B1
102
}
330
12593
100
AcDbSymbolTableRecord
100
AcDbBlockTableRecord
  2
*MODEL_SPACE
340
1297D
  0
BLOCK_RECORD
  5
125A7
102
{ACAD_XDICTIONARY
360
129AF
102
}
330
12593
100
AcDbSymbolTableRecord
100
AcDbBlockTableRecord
  2
*PAPER_SPACE
340
1297E
  0
BLOCK_RECORD
  5
125AE
330
12593
100
AcDbSymbolTableRecord
100
AcDbBlockTableRecord
  2
DOT
340
0
  0
ENDTAB
  0
ENDSEC
  0
SECTION
  2
BLOCKS
  0
BLOCK
  5
125F6
330
125AA
100
AcDbEntity
  8
0
100
AcDbBlockBegin
  2
*MODEL_SPACE
 70
     0
 10
0.0
 20
0.0
 30
0.0
  3
*MODEL_SPACE
  1

  0
ENDBLK
  5
125F7
330
125AA
100
AcDbEntity
  8
0
100
AcDbBlockEnd
  0
BLOCK
  5
125F4
330
125A7
100
AcDbEntity
 67
     1
  8
0
100
AcDbBlockBegin
  2
*PAPER_SPACE
 70
     0
 10
0.0
 20
0.0
 30
0.0
  3
*PAPER_SPACE
  1

  0
ENDBLK
  5
125F5
330
125A7
100
AcDbEntity
 67
     1
  8
0
100
AcDbBlockEnd
  0
BLOCK
  5
12986
330
125AE
100
AcDbEntity
  8
0
100
AcDbBlockBegin
  2
DOT
 70
     0
 10
0.0
 20
0.0
 30
0.0
  3
DOT
  1

  0
LWPOLYLINE
  5
12987
330
125AE
100
AcDbEntity
  8
0
  6
ByBlock
 62
     0
100
AcDbPolyline
 90
        2
 70
     1
 43
0.75
 10
-0.375
 20
0.0
 42
1.0
 10
0.375
 20
0.0
 42
1.0
  0
LINE
  5
12988
330
125AE
100
AcDbEntity
  8
0
  6
ByBlock
 62
     0
100
AcDbLine
 10
-0.75
 20
0.0
 30
0.0
 11
-1.5
 21
0.0
 31
0.0
  0
ENDBLK
  5
12989
330
125AE
100
AcDbEntity
  8
0
100
AcDbBlockEnd
  0
ENDSEC
  0
SECTION
  2
ENTITIES
  0
TEXT
  5
12ADB
330
125AA
100
AcDbEntity
  8
NAME
100
AcDbText
 10
12303.32857318295
 20
1055.0
 30
0.0
 40
120.0
  1
Y O K C
 41
0.6666666666666666
  7
00
100
AcDbText
  0
TEXT
  5
12ADC
330
125AA
100
AcDbEntity
  8
NAME
100
AcDbText
 10
11227.73587134625
 20
1055.0
 30
0.0
 40
120.0
  1
ヨド自転車置場　　　  型
  7
01
100
AcDbText
  0
TEXT
  5
12ADD
330
125AA
100
AcDbEntity
  8
NAME
100
AcDbText
 10
11516.07508082364
 20
875.0
 30
0.0
 40
120.0
  1
（埋め込み方式）
  7
01
 72
     4
 11
12072.07508082364
 21
935.0
 31
0.0
100
AcDbText
  0
TEXT
  5
1546C
330
125AA
100
AcDbEntity
  8
HIKIDASHI
100
AcDbText
 10
9007.426279443023
 20
5992.059624263298
 30
0.0
 40
80.0
  1
)
 41
0.6700000000000001
  7
00
100
AcDbText
  0
TEXT
  5
1546D
330
125AA
100
AcDbEntity
  8
HIKIDASHI
100
AcDbText
 10
8806.567530753644
 20
6007.621102011493
 30
0.0
 40
80.0
  1
1
 41
0.6700000000000001
  7
00
100
AcDbText
  0
TEXT
  5
1546E
330
125AA
100
AcDbEntity
  8
HIKIDASHI
100
AcDbText
 10
8839.704668617953
 20
5992.059624263298
 30
0.0
 40
80.0
  1
/
 41
0.6700000000000001
  7
00
100
AcDbText
  0
TEXT
  5
1546F
330
125AA
100
AcDbEntity
  8
HIKIDASHI
100
AcDbText
 10
8885.999823380597
 20
5965.891793063018
 30
0.0
 40
80.0
  1
40
 41
0.6700000000000001
  7
00
100
AcDbText
  0
TEXT
  5
15470
330
125AA
100
AcDbEntity
  8
HIKIDASHI
100
AcDbText
 10
8625.85961481597
 20
5992.059624263298
 30
0.0
 40
80.0
  1
(S=
 41
0.6700000000000001
  7
00
100
AcDbText
  0
TEXT
  5
15471
330
125AA
100
AcDbEntity
  8
HIKIDASHI
100
AcDbText
 10
7783.859614815971
 20
5968.243182432328
 30
0.0
 40
120.0
  1
基 礎 伏 図
  7
01
 72
     2
 11
8535.85961481597
 21
5968.243182432328
 31
0.0
100
AcDbText
  0
TEXT
  5
159C6
330
125AA
100
AcDbEntity
  8
NAME
100
AcDbText
 10
12854.79999999999
 20
541.0000000000001
 30
0.0
 40
160.0
  1
<3／3>
 41
0.6
  7
01
 72
     2
 11
13354.0
 21
541.0000000000001
 31
0.0
100
AcDbText
  0
TEXT
  5
159C7
330
125AA
100
AcDbEntity
  8
NAME
100
AcDbText
 10
10896.04264730428
 20
541.0
 30
0.0
 40
160.0
  1
YOKC-245
 41
0.7
  7
01
 72
     2
 11
11776.04264730429
 21
541.0
 31
0.0
100
AcDbText
  0
TEXT
  5
159C8
330
125AA
100
AcDbEntity
  8
NAME
100
AcDbText
 10
11816.04264730429
 20
541.0
 30
0.0
 40
160.0
  1
型（一般地用）
 41
0.8
  7
01
100
AcDbText
  0
LINE
  5
16A63
330
125AA
100
AcDbEntity
  8
CENTER
  6
1PL-M
100
AcDbLine
 10
6649.127507899641
 20
8708.243182432326
 30
0.0
 11
8779.127507899639
 21
8708.243182432328
 31
0.0
  0
LINE
  5
16A64
330
125AA
100
AcDbEntity
  8
CENTER
  6
1PL-M
100
AcDbLine
 10
8929.127507899641
 20
8708.243182432328
 30
0.0
 11
10189.12750789964
 21
8708.243182432326
 31
0.0
  0
TEXT
  5
16A65
330
125AA
100
AcDbEntity
  8
HIKIDASHI
100
AcDbText
 10
7820.055429329484
 20
6566.56402767579
 30
0.0
 40
90.0
  1
（土間コン前面位置）
  7
01
100
AcDbText
  0
LINE
  5
16A69
330
125AA
100
AcDbEntity
  8
SUNPOU
100
AcDbLine
 10
6584.127507899639
 20
7118.243182432327
 30
0.0
 11
6584.127507899639
 21
6908.243182432326
 31
0.0
  0
LINE
  5
16A6A
330
125AA
100
AcDbEntity
  8
SUNPOU
100
AcDbLine
 10
6584.127507899641
 20
6908.243182432326
 30
0.0
 11
6734.12750789964
 21
6908.243182432326
 31
0.0
  0
TEXT
  5
16A6B
330
125AA
100
AcDbEntity
  8
SUNPOU
100
AcDbText
 10
6558.284650756782
 20
7253.243182432327
 30
0.0
 40
90.0
  1
A
 41
0.6700000000000001
  7
00
 72
     4
 11
6584.127507899639
 21
7298.243182432327
 31
0.0
100
AcDbText
  0
LINE
  5
16A6D
330
125AA
100
AcDbEntity
  8
CENTER
  6
1PL-M
100
AcDbLine
 10
7194.127507899641
 20
6308.243182432327
 30
0.0
 11
7194.127507899641
 21
9308.243182432327
 31
0.0
  0
LINE
  5
16A6E
330
125AA
100
AcDbEntity
  8
SUNPOU
100
AcDbLine
 10
7804.127507899642
 20
7118.243182432327
 30
0.0
 11
7804.127507899642
 21
6908.243182432326
 31
0.0
  0
LINE
  5
16A6F
330
125AA
100
AcDbEntity
  8
SUNPOU
100
AcDbLine
 10
7804.127507899642
 20
6908.243182432326
 30
0.0
 11
7654.127507899642
 21
6908.243182432326
 31
0.0
  0
TEXT
  5
16A70
330
125AA
100
AcDbEntity
  8
SUNPOU
100
AcDbText
 10
7768.234650756784
 20
7244.671753860898
 30
0.0
 40
90.0
  1
A'
 41
0.6700000000000001
  7
00
 72
     4
 11
7804.127507899642
 21
7298.243182432327
 31
0.0
100
AcDbText
  0
TEXT
  5
16A72
330
125AA
100
AcDbEntity
  8
HIKIDASHI
100
AcDbText
 10
7904.1640312455
 20
6265.132060441851
 30
0.0
 40
90.0
  1
（鼻隠し外面）
  7
01
100
AcDbText
  0
TEXT
  5
16A73
330
125AA
100
AcDbEntity
  8
HIKIDASHI
100
AcDbText
 10
7830.315263925881
 20
9016.792454813669
 30
0.0
 40
90.0
  1
（屋根後面位置）
  7
01
100
AcDbText
  0
TEXT
  5
16A75
330
125AA
100
AcDbEntity
  8
HIKIDASHI
100
AcDbText
 10
7746.206662009865
 20
8753.243182432333
 30
0.0
 40
90.0
  1
（土間コン後面位置）
  7
01
100
AcDbText
  0
LINE
  5
16A77
330
125AA
100
AcDbEntity
  8
CENTER
  6
1PL-M
100
AcDbLine
 10
9644.127507899641
 20
6308.243182432327
 30
0.0
 11
9644.127507899641
 21
8023.243182432326
 31
0.0
  0
LINE
  5
16A78
330
125AA
100
AcDbEntity
  8
CENTER
  6
1PL-M
100
AcDbLine
 10
9644.127507899641
 20
8173.243182432328
 30
0.0
 11
9644.127507899641
 21
9308.243182432327
 31
0.0
  0
LINE
  5
16A79
330
125AA
100
AcDbEntity
  8
CENTER
  6
1PL-M
100
AcDbLine
 10
6649.127507899641
 20
6908.243182432326
 30
0.0
 11
10189.12750789964
 21
6908.243182432326
 31
0.0
  0
LINE
  5
16A88
330
125AA
100
AcDbEntity
  8
SUNPOU
100
AcDbLine
 10
10219.12750789964
 20
6908.243182432326
 30
0.0
 11
10699.12750789964
 21
6908.243182432326
 31
0.0
  0
LINE
  5
16A89
330
125AA
100
AcDbEntity
  8
SUNPOU
100
AcDbLine
 10
10219.12750789964
 20
8708.243182432326
 30
0.0
 11
10699.12750789964
 21
8708.243182432326
 31
0.0
  0
TEXT
  5
16A8A
330
125AA
100
AcDbEntity
  8
SUNPOU
100
AcDbText
 10
10609.12750789964
 20
8822.52889671804
 30
0.0
 40
90.0
  1
400
 50
90.0
 41
0.6666666666666666
  7
00
 72
     1
 11
10564.12750789964
 21
8908.243182432327
 31
0.0
100
AcDbText
 73
     2
  0
TEXT
  5
16A8B
330
125AA
100
AcDbEntity
  8
SUNPOU
100
AcDbText
 10
10609.12750789964
 20
7689.671753860898
 30
0.0
 40
90.0
  1
1800
 50
90.0
 41
0.6666666666666666
  7
00
 72
     4
 11
10564.12750789964
 21
7808.243182432327
 31
0.0
100
AcDbText
  0
TEXT
  5
16A8C
330
125AA
100
AcDbEntity
  8
SUNPOU
100
AcDbText
 10
10609.12750789964
 20
6622.528896718041
 30
0.0
 40
90.0
  1
400
 50
90.0
 41
0.6666666666666666
  7
00
 72
     4
 11
10564.12750789964
 21
6708.243182432326
 31
0.0
100
AcDbText
  0
LINE
  5
16A8D
330
125AA
100
AcDbEntity
  8
SUNPOU
100
AcDbLine
 10
10074.12750789964
 20
6508.243182432327
 30
0.0
 11
10909.12750789964
 21
6508.243182432327
 31
0.0
  0
LINE
  5
16A8E
330
125AA
100
AcDbEntity
  8
SUNPOU
100
AcDbLine
 10
10074.12750789964
 20
9108.243182432328
 30
0.0
 11
10909.12750789964
 21
9108.243182432328
 31
0.0
  0
LINE
  5
16A91
330
125AA
100
AcDbEntity
  8
SUNPOU
100
AcDbLine
 10
10654.12750789964
 20
9093.243182432329
 30
0.0
 11
10654.12750789964
 21
8723.243182432327
 31
0.0
  0
LINE
  5
16A92
330
125AA
100
AcDbEntity
  8
SUNPOU
100
AcDbLine
 10
10864.12750789964
 20
9093.243182432329
 30
0.0
 11
10864.12750789964
 21
6523.243182432327
 31
0.0
  0
LINE
  5
16A93
330
125AA
100
AcDbEntity
  8
SUNPOU
100
AcDbLine
 10
10654.12750789964
 20
8693.243182432327
 30
0.0
 11
10654.12750789964
 21
6923.243182432327
 31
0.0
  0
LINE
  5
16A94
330
125AA
100
AcDbEntity
  8
SUNPOU
100
AcDbLine
 10
10654.12750789964
 20
6893.243182432327
 30
0.0
 11
10654.12750789964
 21
6523.243182432327
 31
0.0
  0
LINE
  5
16A96
330
125AA
100
AcDbEntity
  8
SUNPOU
100
AcDbLine
 10
10624.12750789964
 20
6508.243182432327
 30
0.0
 11
10609.12750789964
 21
6508.243182432327
 31
0.0
  0
TEXT
  5
16A9A
330
125AA
100
AcDbEntity
  8
SUNPOU
100
AcDbText
 10
10819.12750789964
 20
7693.957468146613
 30
0.0
 40
90.0
  1
2600
 50
90.0
 41
0.6666666666666666
  7
00
 72
     4
 11
10774.12750789964
 21
7808.243182432327
 31
0.0
100
AcDbText
  0
LINE
  5
16A9E
330
125AA
100
AcDbEntity
  8
SUNPOU
100
AcDbLine
 10
10624.12750789964
 20
9108.243182432328
 30
0.0
 11
10609.12750789964
 21
9108.243182432328
 31
0.0
  0
LINE
  5
16F8B
330
125AA
100
AcDbEntity
  8
KISO
100
AcDbLine
 10
4089.856483595691
 20
3145.963733520729
 30
0.0
 11
5689.856483595686
 21
3145.963733520728
 31
0.0
  0
LINE
  5
16F8D
330
125AA
100
AcDbEntity
  8
KISO
100
AcDbLine
 10
5689.856483595686
 20
2985.963733520732
 30
0.0
 11
5689.856483595686
 21
3145.963733520728
 31
0.0
  0
LINE
  5
16F91
330
125AA
100
AcDbEntity
  8
KISO
100
AcDbLine
 10
4089.856483595691
 20
2985.963733520728
 30
0.0
 11
4089.856483595691
 21
3145.963733520729
 31
0.0
  0
LINE
  5
16F94
330
125AA
100
AcDbEntity
  8
KISO
100
AcDbLine
 10
4089.856483595691
 20
2985.963733520728
 30
0.0
 11
5689.856483595686
 21
2985.963733520732
 31
0.0
  0
TEXT
  5
16F97
330
125AA
100
AcDbEntity
  8
HIKIDASHI
100
AcDbText
 10
3860.062515458436
 20
4140.157763371475
 30
0.0
 40
89.55223880597015
  1
x
 41
0.6700000000000001
  7
00
100
AcDbText
  0
TEXT
  5
16F98
330
125AA
100
AcDbEntity
  8
HIKIDASHI
100
AcDbText
 10
3415.608897026134
 20
4128.963733520728
 30
0.0
 40
90.0
  1
鉄筋
  7
01
100
AcDbText
  0
TEXT
  5
16F99
330
125AA
100
AcDbEntity
  8
HIKIDASHI
100
AcDbText
 10
3775.492365645627
 20
4155.393343159622
 30
0.0
 40
90.0
  1
%%c
 41
0.6700000000000001
  7
00
100
AcDbText
  0
TEXT
  5
16F9A
330
125AA
100
AcDbEntity
  8
HIKIDASHI
100
AcDbText
 10
3647.115610627791
 20
4128.963733520728
 30
0.0
 40
89.55223880597015
  1
10
 41
0.6700000000000001
  7
00
100
AcDbText
  0
TEXT
  5
16F9B
330
125AA
100
AcDbEntity
  8
HIKIDASHI
100
AcDbText
 10
3941.197894611569
 20
4128.754747320638
 30
0.0
 40
89.55223880597015
  1
350
 41
0.6700000000000001
  7
00
100
AcDbText
  0
LINE
  5
16F9F
330
125AA
100
AcDbEntity
  8
SUNPOU
100
AcDbLine
 10
6321.042149672243
 20
3843.963733520729
 30
0.0
 11
6217.119101218109
 21
3843.963733520729
 31
0.0
  0
LINE
  5
16FA0
330
125AA
100
AcDbEntity
  8
SUNPOU
100
AcDbLine
 10
6217.119101218109
 20
3843.963733520729
 30
0.0
 11
6269.080625445177
 21
3753.963733520729
 31
0.0
  0
LINE
  5
16FA1
330
125AA
100
AcDbEntity
  8
SUNPOU
100
AcDbLine
 10
6269.080625445177
 20
3753.963733520729
 30
0.0
 11
6321.042149672243
 21
3843.963733520729
 31
0.0
  0
TEXT
  5
16FA2
330
125AA
100
AcDbEntity
  8
SUNPOU
100
AcDbText
 10
6200.509196873749
 20
3888.963733520728
 30
0.0
 40
90.0
  1
F.L
 41
0.6666666666666666
  7
00
 72
     4
 11
6269.080625445177
 21
3933.963733520729
 31
0.0
100
AcDbText
  0
LINE
  5
16FA3
330
125AA
100
AcDbEntity
  8
HIKIDASHI
100
AcDbLine
 10
6359.920723682438
 20
4293.963733520728
 30
0.0
 11
5991.154346854814
 21
4293.963733520728
 31
0.0
  0
TEXT
  5
16FA4
330
125AA
100
AcDbEntity
  8
HIKIDASHI
100
AcDbText
 10
6024.221954446723
 20
4338.963733520728
 30
0.0
 40
90.0
  1
土　間
  7
01
 72
     2
 11
6318.221954446722
 21
4383.963733520728
 31
0.0
100
AcDbText
 73
     2
  0
TEXT
  5
16FA5
330
125AA
100
AcDbEntity
  8
HIKIDASHI
100
AcDbText
 10
6240.317140088584
 20
4128.963733520728
 30
0.0
 40
90.0
  1
敷砂利又は砕石
  7
01
 72
     2
 11
6972.317140088584
 21
4173.963733520728
 31
0.0
100
AcDbText
 73
     2
  0
LINE
  5
16FA6
330
125AA
100
AcDbEntity
  8
HIKIDASHI
100
AcDbLine
 10
6997.547440734263
 20
4083.963733520728
 30
0.0
 11
6196.483271007121
 21
4083.963733520728
 31
0.0
  0
TEXT
  5
16FA7
330
125AA
100
AcDbEntity
  8
SUNPOU
100
AcDbText
 10
5727.69726306127
 20
2588.570487822471
 30
0.0
 40
90.0
  1
ベース筋
  7
01
 72
     4
 11
5931.69726306127
 21
2633.570487822471
 31
0.0
100
AcDbText
  0
TEXT
  5
16FA8
330
125AA
100
AcDbEntity
  8
SUNPOU
100
AcDbText
 10
6214.517344503915
 20
2588.570487822471
 30
0.0
 40
90.0
  1
5-D13×5-D13
 41
0.6700000000000001
  7
01
 72
     4
 11
6557.940201646772
 21
2633.570487822471
 31
0.0
100
AcDbText
  0
TEXT
  5
16FAA
330
125AA
100
AcDbEntity
  8
HIKIDASHI
100
AcDbText
 10
3522.991109376021
 20
2618.963733520729
 30
0.0
 40
90.0
  1
砕　石
  7
01
 72
     2
 11
3822.991109376021
 21
2663.963733520729
 31
0.0
100
AcDbText
 73
     2
  0
LINE
  5
16FAB
330
125AA
100
AcDbEntity
  8
HIKIDASHI
100
AcDbLine
 10
3864.689878611732
 20
2573.963733520729
 30
0.0
 11
3495.92350178411
 21
2573.963733520729
 31
0.0
  0
TEXT
  5
16FAF
330
125AA
100
AcDbEntity
  8
SUNPOU
100
AcDbText
 10
5675.684182736158
 20
4601.963733520728
 30
0.0
 40
90.0
  1
2450
 41
0.6666666666666666
  7
00
 72
     4
 11
5789.969897021872
 21
4646.963733520728
 31
0.0
100
AcDbText
  0
LINE
  5
16FB0
330
125AA
100
AcDbEntity
  8
SUNPOU
100
AcDbLine
 10
4889.856483595693
 20
4556.963733520728
 30
0.0
 11
6315.086990845943
 21
4556.963733520728
 31
0.0
  0
TEXT
  5
16FB4
330
125AA
100
AcDbEntity
  8
HIKIDASHI
100
AcDbText
 10
4572.042806977907
 20
2119.914714678058
 30
0.0
 40
90.0
  1
A  ~  A'
 41
0.6700000000000001
  7
00
100
AcDbText
  0
LINE
  5
16FB5
330
125AA
100
AcDbEntity
  8
HIKIDASHI
100
AcDbLine
 10
4542.042806977907
 20
2044.914714678057
 30
0.0
 11
5237.670160213478
 21
2044.914714678057
 31
0.0
  0
LINE
  5
16FB6
330
125AA
100
AcDbEntity
  8
HIKIDASHI
100
AcDbLine
 10
4542.042806977907
 20
2074.914714678058
 30
0.0
 11
5237.670160213478
 21
2074.914714678058
 31
0.0
  0
TEXT
  5
16FB7
330
125AA
100
AcDbEntity
  8
HIKIDASHI
100
AcDbText
 10
4966.060086474469
 20
2119.914714678058
 30
0.0
 40
90.0
  1
断 面
  7
01
100
AcDbText
  0
LINE
  5
16FBA
330
125AA
100
AcDbEntity
  8
HATCH
100
AcDbLine
 10
5055.100579928232
 20
3233.96373352073
 30
0.0
 11
4967.100579928231
 21
3145.963733520729
 31
0.0
  0
LINE
  5
16FBB
330
125AA
100
AcDbEntity
  8
HATCH
100
AcDbLine
 10
5007.583003928234
 20
3233.96373352073
 30
0.0
 11
4941.856483595691
 21
3168.237213188188
 31
0.0
  0
LINE
  5
16FBC
330
125AA
100
AcDbEntity
  8
HATCH
100
AcDbLine
 10
4960.065429528231
 20
3233.96373352073
 30
0.0
 11
4941.856483595691
 21
3215.754787588188
 31
0.0
  0
LINE
  5
16FBD
330
125AA
100
AcDbEntity
  8
HATCH
100
AcDbLine
 10
4667.508527565098
 20
3233.96373352073
 30
0.0
 11
4579.508527565098
 21
3145.963733520729
 31
0.0
  0
LINE
  5
16FBE
330
125AA
100
AcDbEntity
  8
HATCH
100
AcDbLine
 10
4619.990951565096
 20
3233.96373352073
 30
0.0
 11
4531.990951565096
 21
3145.963733520729
 31
0.0
  0
LINE
  5
16FBF
330
125AA
100
AcDbEntity
  8
HATCH
100
AcDbLine
 10
5529.856483595693
 20
3321.127584825055
 30
0.0
 11
5354.692632291366
 21
3145.963733520729
 31
0.0
  0
LINE
  5
16FC0
330
125AA
100
AcDbEntity
  8
HATCH
100
AcDbLine
 10
5529.856483595692
 20
3368.645160825057
 30
0.0
 11
5307.175056291369
 21
3145.963733520729
 31
0.0
  0
LINE
  5
16FC1
330
125AA
100
AcDbEntity
  8
HATCH
100
AcDbLine
 10
5529.856483595692
 20
3416.162735225057
 30
0.0
 11
5259.657481891365
 21
3145.963733520729
 31
0.0
  0
LINE
  5
16FC2
330
125AA
100
AcDbEntity
  8
HATCH
100
AcDbLine
 10
5480.065429528228
 20
3753.963733520729
 30
0.0
 11
4941.856483595691
 21
3215.754787588188
 31
0.0
  0
LINE
  5
16FC3
330
125AA
100
AcDbEntity
  8
HATCH
100
AcDbLine
 10
5527.583003928228
 20
3753.963733520729
 30
0.0
 11
5023.583003928232
 21
3249.963733520728
 31
0.0
  0
LINE
  5
16FC4
330
125AA
100
AcDbEntity
  8
HATCH
100
AcDbLine
 10
5529.856483595692
 20
3708.719637188189
 30
0.0
 11
5071.100579928232
 21
3249.963733520729
 31
0.0
  0
LINE
  5
16FC5
330
125AA
100
AcDbEntity
  8
HATCH
100
AcDbLine
 10
4317.289272438831
 20
3753.963733520729
 30
0.0
 11
4249.856483595691
 21
3686.530944677587
 31
0.0
  0
LINE
  5
16FC6
330
125AA
100
AcDbEntity
  8
HATCH
100
AcDbLine
 10
4412.324422838832
 20
3753.963733520729
 30
0.0
 11
4249.856483595691
 21
3591.49579427759
 31
0.0
  0
LINE
  5
16FC7
330
125AA
100
AcDbEntity
  8
HATCH
100
AcDbLine
 10
4364.80684683883
 20
3753.963733520729
 30
0.0
 11
4249.856483595693
 21
3639.013370277589
 31
0.0
  0
LINE
  5
16FC8
330
125AA
100
AcDbEntity
  8
KISO
100
AcDbLine
 10
6367.249978138845
 20
3753.963733520729
 30
0.0
 11
4941.856483595691
 21
3753.963733520729
 31
0.0
  0
LINE
  5
16FC9
330
125AA
100
AcDbEntity
  8
HATCH
100
AcDbLine
 10
5092.473377165095
 20
3753.963733520729
 30
0.0
 11
4941.856483595691
 21
3603.346839951324
 31
0.0
  0
LINE
  5
16FCA
330
125AA
100
AcDbEntity
  8
HATCH
100
AcDbLine
 10
5139.990951565096
 20
3753.963733520729
 30
0.0
 11
4941.856483595691
 21
3555.829265551323
 31
0.0
  0
LINE
  5
16FCB
330
125AA
100
AcDbEntity
  8
HATCH
100
AcDbLine
 10
5187.508527565098
 20
3753.963733520729
 30
0.0
 11
4941.856483595691
 21
3508.311689551324
 31
0.0
  0
LINE
  5
16FCC
330
125AA
100
AcDbEntity
  8
HATCH
100
AcDbLine
 10
4837.856483595691
 20
3451.829265551324
 30
0.0
 11
4635.990951565096
 21
3249.963733520729
 31
0.0
  0
LINE
  5
16FCD
330
125AA
100
AcDbEntity
  8
HATCH
100
AcDbLine
 10
4837.856483595691
 20
3499.346839951326
 30
0.0
 11
4484.473377165095
 21
3145.96373352073
 31
0.0
  0
LINE
  5
16FCE
330
125AA
100
AcDbEntity
  8
KISO
100
AcDbLine
 10
4249.856483595691
 20
3753.963733520729
 30
0.0
 11
4249.856483595691
 21
3145.963733520729
 31
0.0
  0
LINE
  5
16FCF
330
125AA
100
AcDbEntity
  8
HATCH
100
AcDbLine
 10
4837.856483595691
 20
3404.311689551324
 30
0.0
 11
4683.508527565098
 21
3249.963733520729
 31
0.0
  0
LINE
  5
16FD0
330
125AA
100
AcDbEntity
  8
U3
100
AcDbLine
 10
4249.856483595691
 20
3673.963733520729
 30
0.0
 11
3466.665683595692
 21
3673.963733520729
 31
0.0
  0
LINE
  5
16FD1
330
125AA
100
AcDbEntity
  8
U3
100
AcDbLine
 10
3802.665683595693
 20
3673.963733520729
 30
0.0
 11
3970.665683595692
 21
3505.963733520729
 31
0.0
  0
LINE
  5
16FD2
330
125AA
100
AcDbEntity
  8
U3
100
AcDbLine
 10
3868.842305995693
 20
3607.787109520728
 30
0.0
 11
3935.018929995692
 21
3673.963733520729
 31
0.0
  0
LINE
  5
16FD3
330
125AA
100
AcDbEntity
  8
U3
100
AcDbLine
 10
3466.665683595692
 20
3673.963733520729
 30
0.0
 11
3634.665683595692
 21
3505.963733520729
 31
0.0
  0
LINE
  5
16FD4
330
125AA
100
AcDbEntity
  8
U3
100
AcDbLine
 10
3583.753993995694
 20
3556.875421520731
 30
0.0
 11
3700.842305995694
 21
3673.963733520729
 31
0.0
  0
LINE
  5
16FD5
330
125AA
100
AcDbEntity
  8
U3
100
AcDbLine
 10
3634.665683595692
 20
3505.963733520729
 30
0.0
 11
3802.665683595693
 21
3673.963733520729
 31
0.0
  0
LINE
  5
16FD6
330
125AA
100
AcDbEntity
  8
U3
100
AcDbLine
 10
3532.842305995694
 20
3607.787109520728
 30
0.0
 11
3599.018929995692
 21
3673.963733520729
 31
0.0
  0
LINE
  5
16FD7
330
125AA
100
AcDbEntity
  8
U3
100
AcDbLine
 10
3751.753993995694
 20
3623.052043920729
 30
0.0
 11
3868.842305995693
 21
3505.963733520729
 31
0.0
  0
LINE
  5
16FD8
330
125AA
100
AcDbEntity
  8
U3
100
AcDbLine
 10
3700.842305995694
 20
3572.140355920728
 30
0.0
 11
3767.018929995692
 21
3505.963733520729
 31
0.0
  0
LINE
  5
16FD9
330
125AA
100
AcDbEntity
  8
HATCH
100
AcDbLine
 10
4704.881324801961
 20
3753.963733520729
 30
0.0
 11
4249.856483595691
 21
3298.938892314453
 31
0.0
  0
LINE
  5
16FDA
330
125AA
100
AcDbEntity
  8
HATCH
100
AcDbLine
 10
4752.398899201963
 20
3753.963733520729
 30
0.0
 11
4249.856483595691
 21
3251.421317914457
 31
0.0
  0
LINE
  5
16FDB
330
125AA
100
AcDbEntity
  8
HATCH
100
AcDbLine
 10
4799.916475201962
 20
3753.963733520729
 30
0.0
 11
4249.856483595691
 21
3203.903741914457
 31
0.0
  0
LINE
  5
16FDC
330
125AA
100
AcDbEntity
  8
KISO
100
AcDbLine
 10
4837.856483595691
 20
3753.963733520729
 30
0.0
 11
4249.856483595691
 21
3753.963733520729
 31
0.0
  0
LINE
  5
16FDD
330
125AA
100
AcDbEntity
  8
U3
100
AcDbLine
 10
3970.665683595692
 20
3505.963733520729
 30
0.0
 11
4138.665683595692
 21
3673.963733520729
 31
0.0
  0
LINE
  5
16FDE
330
125AA
100
AcDbEntity
  8
U3
100
AcDbLine
 10
4036.842305995692
 20
3572.140355920728
 30
0.0
 11
4103.01892999569
 21
3505.963733520729
 31
0.0
  0
LINE
  5
16FDF
330
125AA
100
AcDbEntity
  8
U3
100
AcDbLine
 10
3919.753993995694
 20
3556.875421520731
 30
0.0
 11
4036.842305995692
 21
3673.963733520729
 31
0.0
  0
LINE
  5
16FE0
330
125AA
100
AcDbEntity
  8
U3
100
AcDbLine
 10
4087.753993995693
 20
3623.052043920729
 30
0.0
 11
4204.842305995692
 21
3505.963733520729
 31
0.0
  0
LINE
  5
16FE1
330
125AA
100
AcDbEntity
  8
U3
100
AcDbLine
 10
4138.665683595692
 20
3673.963733520729
 30
0.0
 11
4249.856483595691
 21
3562.772931920729
 31
0.0
  0
LINE
  5
16FE2
330
125AA
100
AcDbEntity
  8
KISO
100
AcDbLine
 10
5529.856483595692
 20
3753.963733520729
 30
0.0
 11
5529.856483595692
 21
3145.963733520729
 31
0.0
  0
LINE
  5
16FE3
330
125AA
100
AcDbEntity
  8
KISO
100
AcDbLine
 10
6367.249978138846
 20
3625.963733520729
 30
0.0
 11
5529.856483595692
 21
3625.963733520729
 31
0.0
  0
LINE
  5
16FE4
330
125AA
100
AcDbEntity
  8
KISO
100
AcDbLine
 10
5529.856483595692
 20
3529.963733520729
 30
0.0
 11
6367.249978138846
 21
3529.96373352073
 31
0.0
  0
LINE
  5
16FE5
330
125AA
100
AcDbEntity
  8
HATCH
100
AcDbLine
 10
6068.842305995693
 20
3529.963733520729
 30
0.0
 11
6124.267931595689
 21
3625.963733520729
 31
0.0
  0
LINE
  5
16FE6
330
125AA
100
AcDbEntity
  8
HATCH
100
AcDbLine
 10
6085.867931595689
 20
3625.963733520729
 30
0.0
 11
6105.067931595691
 21
3592.708357520729
 31
0.0
  0
LINE
  5
16FE7
330
125AA
100
AcDbEntity
  8
HATCH
100
AcDbLine
 10
5652.842305995695
 20
3529.963733520729
 30
0.0
 11
5708.267931595689
 21
3625.963733520729
 31
0.0
  0
LINE
  5
16FE8
330
125AA
100
AcDbEntity
  8
HATCH
100
AcDbLine
 10
5761.214944395693
 20
3753.963733520729
 30
0.0
 11
5633.214944395693
 21
3625.963733520729
 31
0.0
  0
LINE
  5
16FE9
330
125AA
100
AcDbEntity
  8
HATCH
100
AcDbLine
 10
5808.73252039569
 20
3753.963733520729
 30
0.0
 11
5680.732520395693
 21
3625.963733520729
 31
0.0
  0
LINE
  5
16FEA
330
125AA
100
AcDbEntity
  8
HATCH
100
AcDbLine
 10
5573.016790795693
 20
3625.963733520729
 30
0.0
 11
5557.016790795692
 21
3625.963733520729
 31
0.0
  0
LINE
  5
16FEB
330
125AA
100
AcDbEntity
  8
HATCH
100
AcDbLine
 10
5529.856483595692
 20
3560.076860248017
 30
0.0
 11
5547.242305995694
 21
3529.963733520729
 31
0.0
  0
LINE
  5
16FEC
330
125AA
100
AcDbEntity
  8
HATCH
100
AcDbLine
 10
5529.856483595692
 20
3619.055358705336
 30
0.0
 11
5545.067931595691
 21
3592.708357520729
 31
0.0
  0
LINE
  5
16FED
330
125AA
100
AcDbEntity
  8
HATCH
100
AcDbLine
 10
5529.856483595692
 20
3566.36135696226
 30
0.0
 11
5564.26793159569
 21
3625.963733520729
 31
0.0
  0
LINE
  5
16FEE
330
125AA
100
AcDbEntity
  8
HATCH
100
AcDbLine
 10
5669.867931595691
 20
3625.963733520729
 30
0.0
 11
5689.067931595691
 21
3592.708357520729
 31
0.0
  0
LINE
  5
16FEF
330
125AA
100
AcDbEntity
  8
HATCH
100
AcDbLine
 10
5672.042305995695
 20
3563.21910792073
 30
0.0
 11
5691.242305995693
 21
3529.963733520729
 31
0.0
  0
LINE
  5
16FF0
330
125AA
100
AcDbEntity
  8
HATCH
100
AcDbLine
 10
5856.250096395695
 20
3753.963733520729
 30
0.0
 11
5728.250096395695
 21
3625.963733520729
 31
0.0
  0
LINE
  5
16FF1
330
125AA
100
AcDbEntity
  8
HATCH
100
AcDbLine
 10
5813.867931595691
 20
3625.963733520729
 30
0.0
 11
5833.067931595691
 21
3592.708357520729
 31
0.0
  0
LINE
  5
16FF2
330
125AA
100
AcDbEntity
  8
HATCH
100
AcDbLine
 10
5796.842305995693
 20
3529.963733520729
 30
0.0
 11
5852.267931595689
 21
3625.963733520729
 31
0.0
  0
LINE
  5
16FF3
330
125AA
100
AcDbEntity
  8
HATCH
100
AcDbLine
 10
5816.042305995694
 20
3563.21910792073
 30
0.0
 11
5835.242305995691
 21
3529.963733520729
 31
0.0
  0
LINE
  5
16FF4
330
125AA
100
AcDbEntity
  8
HATCH
100
AcDbLine
 10
5717.016790795693
 20
3625.963733520729
 30
0.0
 11
5701.016790795693
 21
3625.963733520729
 31
0.0
  0
LINE
  5
16FF5
330
125AA
100
AcDbEntity
  8
HATCH
100
AcDbLine
 10
5940.842305995693
 20
3529.963733520729
 30
0.0
 11
5996.267931595689
 21
3625.963733520729
 31
0.0
  0
LINE
  5
16FF6
330
125AA
100
AcDbEntity
  8
HATCH
100
AcDbLine
 10
5957.867931595689
 20
3625.963733520729
 30
0.0
 11
5977.067931595691
 21
3592.708357520729
 31
0.0
  0
LINE
  5
16FF7
330
125AA
100
AcDbEntity
  8
HATCH
100
AcDbLine
 10
5960.042305995692
 20
3563.21910792073
 30
0.0
 11
5979.242305995693
 21
3529.963733520729
 31
0.0
  0
LINE
  5
16FF8
330
125AA
100
AcDbEntity
  8
HATCH
100
AcDbLine
 10
6288.732520395693
 20
3753.963733520729
 30
0.0
 11
6160.732520395693
 21
3625.963733520729
 31
0.0
  0
LINE
  5
16FF9
330
125AA
100
AcDbEntity
  8
HATCH
100
AcDbLine
 10
6241.21494439569
 20
3753.963733520729
 30
0.0
 11
6113.21494439569
 21
3625.963733520729
 31
0.0
  0
LINE
  5
16FFA
330
125AA
100
AcDbEntity
  8
HATCH
100
AcDbLine
 10
6336.250096395694
 20
3753.963733520729
 30
0.0
 11
6208.250096395694
 21
3625.963733520729
 31
0.0
  0
LINE
  5
16FFB
330
125AA
100
AcDbEntity
  8
HATCH
100
AcDbLine
 10
6212.842305995692
 20
3529.963733520729
 30
0.0
 11
6268.267931595691
 21
3625.963733520729
 31
0.0
  0
LINE
  5
16FFC
330
125AA
100
AcDbEntity
  8
HATCH
100
AcDbLine
 10
6229.867931595691
 20
3625.963733520729
 30
0.0
 11
6249.067931595693
 21
3592.708357520729
 31
0.0
  0
LINE
  5
16FFD
330
125AA
100
AcDbEntity
  8
HATCH
100
AcDbLine
 10
6232.042305995692
 20
3563.21910792073
 30
0.0
 11
6251.242305995694
 21
3529.963733520729
 31
0.0
  0
LINE
  5
16FFE
330
125AA
100
AcDbEntity
  8
HATCH
100
AcDbLine
 10
6088.042305995692
 20
3563.21910792073
 30
0.0
 11
6107.242305995693
 21
3529.963733520729
 31
0.0
  0
LINE
  5
16FFF
330
125AA
100
AcDbEntity
  8
HASHIRA
100
AcDbLine
 10
4941.856483595691
 20
3145.963733520729
 30
0.0
 11
4941.856483595691
 21
4233.963733520726
 31
0.0
  0
LINE
  5
17000
330
125AA
100
AcDbEntity
  8
HASHIRA
100
AcDbLine
 10
4837.856483595691
 20
3145.963733520729
 30
0.0
 11
4837.856483595691
 21
4233.963733520726
 31
0.0
  0
LINE
  5
17001
330
125AA
100
AcDbEntity
  8
1PL-M1
100
AcDbLine
 10
4889.856483595693
 20
2873.96373352073
 30
0.0
 11
4889.856483595691
 21
4601.963733520728
 31
0.0
  0
LINE
  5
170BE
330
125AA
100
AcDbEntity
  8
HIKIDASHI
100
AcDbLine
 10
4186.816957180232
 20
4083.204154334509
 30
0.0
 11
3405.031576763642
 21
4083.204154334509
 31
0.0
  0
TEXT
  5
171CB
330
125AA
100
AcDbEntity
  8
FILENAME
100
AcDbText
 10
13854.38095238095
 20
174.0
 30
0.0
 40
100.0
  1
＜YOKC-245-U1_3_JIS_GL.DXF ＞
  7
FILENAME
 72
     2
 11
16382.0
 21
174.0
 31
0.0
100
AcDbText
  0
LINE
  5
171D2
330
125AA
100
AcDbEntity
  8
WAKUSEN-01
100
AcDbLine
 10
434.0000000000008
 20
413.9999999999997
 30
0.0
 11
16382.0
 21
413.9999999999997
 31
0.0
  0
LINE
  5
171D3
330
125AA
100
AcDbEntity
  8
WAKUSEN-01
100
AcDbLine
 10
434.0000000000008
 20
11242.0
 30
0.0
 11
16382.0
 21
11242.0
 31
0.0
  0
LINE
  5
171D4
330
125AA
100
AcDbEntity
  8
WAKUSEN-01
100
AcDbLine
 10
434.0000000000008
 20
413.9999999999997
 30
0.0
 11
434.0000000000008
 21
11242.0
 31
0.0
  0
LINE
  5
171D5
330
125AA
100
AcDbEntity
  8
WAKUSEN-01
100
AcDbLine
 10
16382.0
 20
413.9999999999997
 30
0.0
 11
16382.0
 21
11242.0
 31
0.0
  0
LINE
  5
171D6
330
125AA
100
AcDbEntity
  8
WAKUSEN-01
100
AcDbLine
 10
10280.0
 20
1242.0
 30
0.0
 11
16382.0
 21
1242.0
 31
0.0
  0
LINE
  5
171D7
330
125AA
100
AcDbEntity
  8
WAKUSEN-02
100
AcDbLine
 10
10280.0
 20
827.9999999999997
 30
0.0
 11
13434.0
 21
827.9999999999997
 31
0.0
  0
TEXT
  5
171D8
330
125AA
100
AcDbEntity
  8
WAKUMOJI-01
100
AcDbText
 10
10335.13012998137
 20
1062.951504669661
 30
0.0
 40
120.0
  1
名　称
  7
WAKUMOJI
100
AcDbText
  0
TEXT
  5
171D9
330
125AA
100
AcDbEntity
  8
WAKUMOJI-01
100
AcDbText
 10
10328.25274254596
 20
659.5644874899107
 30
0.0
 40
120.0
  1
機種名
  7
WAKUMOJI
100
AcDbText
  0
LINE
  5
171DA
330
125AA
100
AcDbEntity
  8
WAKUSEN-01
100
AcDbLine
 10
10280.0
 20
413.9999999999986
 30
0.0
 11
10280.0
 21
1242.0
 31
0.0
  0
LINE
  5
171DB
330
125AA
100
AcDbEntity
  8
WAKUSEN-02
100
AcDbLine
 10
13434.0
 20
413.9999999999963
 30
0.0
 11
13434.0
 21
1242.0
 31
0.0
  0
LINE
  5
171DC
330
125AA
100
AcDbEntity
  8
YODOROGO
100
AcDbLine
 10
14988.80217064596
 20
997.8747482146435
 30
0.0
 11
14914.80217064596
 21
997.8747482146435
 31
0.0
1001
AUTOCAD_POSTSCRIPT_FIGURE
1002
{
1000
PSFILL
1000
Grayscale
1000
Grayscale
1070
    25
1002
}
  0
LINE
  5
171DD
330
125AA
100
AcDbEntity
  8
YODOROGO
100
AcDbLine
 10
14914.80217064596
 20
973.8747482146436
 30
0.0
 11
14988.80217064596
 21
973.8747482146436
 31
0.0
1001
AUTOCAD_POSTSCRIPT_FIGURE
1002
{
1000
PSFILL
1000
Grayscale
1000
Grayscale
1070
    25
1002
}
  0
LINE
  5
171DE
330
125AA
100
AcDbEntity
  8
YODOROGO
100
AcDbLine
 10
14988.80217064596
 20
953.874748214644
 30
0.0
 11
14914.80217064596
 21
953.874748214644
 31
0.0
1001
AUTOCAD_POSTSCRIPT_FIGURE
1002
{
1000
PSFILL
1000
Grayscale
1000
Grayscale
1070
    25
1002
}
  0
LINE
  5
171DF
330
125AA
100
AcDbEntity
  8
YODOROGO
100
AcDbLine
 10
14914.80217064596
 20
929.874748214644
 30
0.0
 11
14988.80217064596
 21
929.874748214644
 31
0.0
1001
AUTOCAD_POSTSCRIPT_FIGURE
1002
{
1000
PSFILL
1000
Grayscale
1000
Grayscale
1070
    25
1002
}
  0
LINE
  5
171E0
330
125AA
100
AcDbEntity
  8
YODOROGO
100
AcDbLine
 10
14988.80217064596
 20
909.8747482146439
 30
0.0
 11
14914.80217064596
 21
909.8747482146439
 31
0.0
1001
AUTOCAD_POSTSCRIPT_FIGURE
1002
{
1000
PSFILL
1000
Grayscale
1000
Grayscale
1070
    25
1002
}
  0
LINE
  5
171E1
330
125AA
100
AcDbEntity
  8
YODOROGO
100
AcDbLine
 10
14960.80217064594
 20
853.8747482146439
 30
0.0
 11
14988.80217064596
 21
853.8747482146439
 31
0.0
1001
AUTOCAD_POSTSCRIPT_FIGURE
1002
{
1000
PSFILL
1000
Grayscale
1000
Grayscale
1070
    25
1002
}
  0
LINE
  5
171E2
330
125AA
100
AcDbEntity
  8
YODOROGO
100
AcDbLine
 10
14868.80217064596
 20
713.8747482146436
 30
0.0
 11
14968.80217064596
 21
740.6696674577553
 31
0.0
  0
LINE
  5
171E3
330
125AA
100
AcDbEntity
  8
YODOROGO
100
AcDbLine
 10
14974.80217064595
 20
853.8747482146439
 30
0.0
 11
14942.80217064596
 21
853.8747482146439
 31
0.0
  0
ARC
  5
171E4
330
125AA
100
AcDbEntity
  8
YODOROGO
100
AcDbCircle
 10
15127.17387491395
 20
903.9323046166312
 30
0.0
 40
190.9434321028236
100
AcDbArc
 50
213.9611167766784
 51
264.4787207431779
  0
ARC
  5
171E5
330
125AA
100
AcDbEntity
  8
YODOROGO
100
AcDbCircle
 10
15127.17387491396
 20
903.9323046166513
 30
0.0
 40
190.9434321028408
100
AcDbArc
 50
208.141144204866
 51
212.9210361185995
  0
LINE
  5
171E6
330
125AA
100
AcDbEntity
  8
YODOROGO
100
AcDbLine
 10
14885.70493649264
 20
778.403830673117
 30
0.0
 11
14966.89206625426
 21
800.1578565285436
 31
0.0
  0
LINE
  5
171E7
330
125AA
100
AcDbEntity
  8
YODOROGO
100
AcDbLine
 10
14868.80217064596
 20
713.8747482146436
 30
0.0
 11
14968.80217064596
 21
740.6696674577553
 31
0.0
  0
LINE
  5
171E8
330
125AA
100
AcDbEntity
  8
YODOROGO
100
AcDbLine
 10
14974.80217064595
 20
853.8747482146439
 30
0.0
 11
14942.80217064596
 21
853.8747482146439
 31
0.0
  0
ARC
  5
171E9
330
125AA
100
AcDbEntity
  8
YODOROGO
100
AcDbCircle
 10
15127.17387491395
 20
903.9323046166312
 30
0.0
 40
190.9434321028236
100
AcDbArc
 50
213.9611167766784
 51
264.4787207431779
  0
LINE
  5
171EA
330
125AA
100
AcDbEntity
  8
YODOROGO
100
AcDbLine
 10
14396.80217064594
 20
909.8747482146439
 30
0.0
 11
14216.80217064595
 21
909.8747482146439
 31
0.0
  0
LINE
  5
171EB
330
125AA
100
AcDbEntity
  8
YODOROGO
100
AcDbLine
 10
14256.80217064595
 20
713.8747482146436
 30
0.0
 11
14396.80217064594
 21
713.8747482146436
 31
0.0
  0
LINE
  5
171EC
330
125AA
100
AcDbEntity
  8
YODOROGO
100
AcDbLine
 10
14364.80217064596
 20
961.8747482146432
 30
0.0
 11
14248.80217064595
 21
961.8747482146432
 31
0.0
  0
LINE
  5
171ED
330
125AA
100
AcDbEntity
  8
YODOROGO
100
AcDbLine
 10
14292.80217064596
 20
1013.874748214644
 30
0.0
 11
14328.80217064596
 21
1013.874748214644
 31
0.0
  0
LINE
  5
171EE
330
125AA
100
AcDbEntity
  8
YODOROGO
100
AcDbLine
 10
14216.80217064595
 20
853.8747482146439
 30
0.0
 11
14216.80217064595
 21
753.8747482146439
 31
0.0
  0
LINE
  5
171EF
330
125AA
100
AcDbEntity
  8
YODOROGO
100
AcDbLine
 10
14248.80217064595
 20
781.8747482146434
 30
0.0
 11
14248.80217064595
 21
853.8747482146439
 31
0.0
  0
LINE
  5
171F0
330
125AA
100
AcDbEntity
  8
YODOROGO
100
AcDbLine
 10
14292.80217064596
 20
873.8747482146449
 30
0.0
 11
14292.80217064596
 21
773.8747482146439
 31
0.0
  0
LINE
  5
171F1
330
125AA
100
AcDbEntity
  8
YODOROGO
100
AcDbLine
 10
13928.80217064596
 20
841.8747482146445
 30
0.0
 11
13888.80217064596
 21
809.9862070222856
 31
0.0
  0
LINE
  5
171F2
330
125AA
100
AcDbEntity
  8
YODOROGO
100
AcDbLine
 10
13968.80217064596
 20
809.9862070222856
 30
0.0
 11
13928.80217064596
 21
841.8747482146445
 31
0.0
  0
LINE
  5
171F3
330
125AA
100
AcDbEntity
  8
YODOROGO
100
AcDbLine
 10
13928.80217064596
 20
853.8747482146439
 30
0.0
 11
13968.80217064596
 21
821.986207022285
 31
0.0
  0
LINE
  5
171F4
330
125AA
100
AcDbEntity
  8
YODOROGO
100
AcDbLine
 10
13888.80217064596
 20
821.986207022285
 30
0.0
 11
13928.80217064596
 21
853.8747482146439
 31
0.0
  0
LINE
  5
171F5
330
125AA
100
AcDbEntity
  8
YODOROGO
100
AcDbLine
 10
14020.45660200845
 20
829.874748214644
 30
0.0
 11
14020.45660200845
 21
841.8747482146434
 31
0.0
  0
LINE
  5
171F6
330
125AA
100
AcDbEntity
  8
YODOROGO
100
AcDbLine
 10
13988.80217064596
 20
841.8747482146434
 30
0.0
 11
13988.80217064596
 21
833.8747482146427
 31
0.0
  0
LINE
  5
171F7
330
125AA
100
AcDbEntity
  8
YODOROGO
100
AcDbLine
 10
14049.06776011545
 20
853.8747482146439
 30
0.0
 11
14049.06776011545
 21
827.751818637328
 31
0.0
1001
AUTOCAD_POSTSCRIPT_FIGURE
1002
{
1000
PSFILL
1000
Grayscale
1000
Grayscale
1070
   100
1002
}
  0
LINE
  5
171F8
330
125AA
100
AcDbEntity
  8
YODOROGO
100
AcDbLine
 10
14041.06776011546
 20
827.751818637328
 30
0.0
 11
14041.06776011546
 21
853.8747482146439
 31
0.0
1001
AUTOCAD_POSTSCRIPT_FIGURE
1002
{
1000
PSFILL
1000
Grayscale
1000
Grayscale
1070
   100
1002
}
  0
LINE
  5
171F9
330
125AA
100
AcDbEntity
  8
YODOROGO
100
AcDbLine
 10
13904.80217064596
 20
804.3859520216292
 30
0.0
 11
13904.80217064596
 21
816.3859520216298
 31
0.0
  0
LINE
  5
171FA
330
125AA
100
AcDbEntity
  8
YODOROGO
100
AcDbLine
 10
13952.80217064596
 20
804.3859520216292
 30
0.0
 11
13904.80217064596
 21
804.3859520216292
 31
0.0
  0
LINE
  5
171FB
330
125AA
100
AcDbEntity
  8
YODOROGO
100
AcDbLine
 10
13952.80217064596
 20
816.3859520216298
 30
0.0
 11
13952.80217064596
 21
804.3859520216292
 31
0.0
  0
LINE
  5
171FC
330
125AA
100
AcDbEntity
  8
YODOROGO
100
AcDbLine
 10
13904.80217064596
 20
816.3859520216298
 30
0.0
 11
13952.80217064596
 21
816.3859520216298
 31
0.0
  0
LINE
  5
171FD
330
125AA
100
AcDbEntity
  8
YODOROGO
100
AcDbLine
 10
13912.25479445787
 20
784.2514286852374
 30
0.0
 11
13892.80217064596
 21
737.8747482146437
 31
0.0
1001
AUTOCAD_POSTSCRIPT_FIGURE
1002
{
1000
PSFILL
1000
Grayscale
1000
Grayscale
1070
   100
1002
}
  0
LINE
  5
171FE
330
125AA
100
AcDbEntity
  8
YODOROGO
100
AcDbLine
 10
13888.80217064596
 20
784.2514286852374
 30
0.0
 11
13912.25479445787
 21
784.2514286852374
 31
0.0
1001
AUTOCAD_POSTSCRIPT_FIGURE
1002
{
1000
PSFILL
1000
Grayscale
1000
Grayscale
1070
   100
1002
}
  0
LINE
  5
171FF
330
125AA
100
AcDbEntity
  8
YODOROGO
100
AcDbLine
 10
13888.80217064596
 20
794.2514286852374
 30
0.0
 11
13888.80217064596
 21
784.2514286852374
 31
0.0
1001
AUTOCAD_POSTSCRIPT_FIGURE
1002
{
1000
PSFILL
1000
Grayscale
1000
Grayscale
1070
   100
1002
}
  0
LINE
  5
17200
330
125AA
100
AcDbEntity
  8
YODOROGO
100
AcDbLine
 10
13968.80217064596
 20
794.2514286852374
 30
0.0
 11
13888.80217064596
 21
794.2514286852374
 31
0.0
1001
AUTOCAD_POSTSCRIPT_FIGURE
1002
{
1000
PSFILL
1000
Grayscale
1000
Grayscale
1070
   100
1002
}
  0
LINE
  5
17201
330
125AA
100
AcDbEntity
  8
YODOROGO
100
AcDbLine
 10
13968.80217064596
 20
784.2514286852374
 30
0.0
 11
13968.80217064596
 21
794.2514286852374
 31
0.0
1001
AUTOCAD_POSTSCRIPT_FIGURE
1002
{
1000
PSFILL
1000
Grayscale
1000
Grayscale
1070
   100
1002
}
  0
LINE
  5
17202
330
125AA
100
AcDbEntity
  8
YODOROGO
100
AcDbLine
 10
13922.25479445787
 20
784.2514286852374
 30
0.0
 11
13968.80217064596
 21
784.2514286852374
 31
0.0
1001
AUTOCAD_POSTSCRIPT_FIGURE
1002
{
1000
PSFILL
1000
Grayscale
1000
Grayscale
1070
   100
1002
}
  0
LINE
  5
17203
330
125AA
100
AcDbEntity
  8
YODOROGO
100
AcDbLine
 10
13907.77335914239
 20
747.8747482146435
 30
0.0
 11
13922.25479445787
 21
784.2514286852374
 31
0.0
1001
AUTOCAD_POSTSCRIPT_FIGURE
1002
{
1000
PSFILL
1000
Grayscale
1000
Grayscale
1070
   100
1002
}
  0
LINE
  5
17204
330
125AA
100
AcDbEntity
  8
YODOROGO
100
AcDbLine
 10
13951.02739540432
 20
747.8747482146435
 30
0.0
 11
13907.77335914239
 21
747.8747482146435
 31
0.0
1001
AUTOCAD_POSTSCRIPT_FIGURE
1002
{
1000
PSFILL
1000
Grayscale
1000
Grayscale
1070
   100
1002
}
  0
LINE
  5
17205
330
125AA
100
AcDbEntity
  8
YODOROGO
100
AcDbLine
 10
13942.53250239547
 20
768.1169053488464
 30
0.0
 11
13951.02739540432
 21
747.8747482146435
 31
0.0
1001
AUTOCAD_POSTSCRIPT_FIGURE
1002
{
1000
PSFILL
1000
Grayscale
1000
Grayscale
1070
   100
1002
}
  0
LINE
  5
17206
330
125AA
100
AcDbEntity
  8
YODOROGO
100
AcDbLine
 10
13950.53250239547
 20
768.1169053488464
 30
0.0
 11
13942.53250239547
 21
768.1169053488464
 31
0.0
1001
AUTOCAD_POSTSCRIPT_FIGURE
1002
{
1000
PSFILL
1000
Grayscale
1000
Grayscale
1070
   100
1002
}
  0
LINE
  5
17207
330
125AA
100
AcDbEntity
  8
YODOROGO
100
AcDbLine
 10
13964.80217064596
 20
737.8747482146437
 30
0.0
 11
13950.53250239547
 21
768.1169053488464
 31
0.0
1001
AUTOCAD_POSTSCRIPT_FIGURE
1002
{
1000
PSFILL
1000
Grayscale
1000
Grayscale
1070
   100
1002
}
  0
LINE
  5
17208
330
125AA
100
AcDbEntity
  8
YODOROGO
100
AcDbLine
 10
13892.80217064596
 20
737.8747482146437
 30
0.0
 11
13964.80217064596
 21
737.8747482146437
 31
0.0
1001
AUTOCAD_POSTSCRIPT_FIGURE
1002
{
1000
PSFILL
1000
Grayscale
1000
Grayscale
1070
   100
1002
}
  0
LINE
  5
17209
330
125AA
100
AcDbEntity
  8
YODOROGO
100
AcDbLine
 10
13888.80217064596
 20
809.9862070222856
 30
0.0
 11
13888.80217064596
 21
821.986207022285
 31
0.0
  0
LINE
  5
1720A
330
125AA
100
AcDbEntity
  8
YODOROGO
100
AcDbLine
 10
13968.80217064596
 20
821.986207022285
 30
0.0
 11
13968.80217064596
 21
809.9862070222856
 31
0.0
  0
ARC
  5
1720B
330
125AA
100
AcDbEntity
  8
YODOROGO
100
AcDbCircle
 10
14112.97022107348
 20
800.438882662663
 30
0.0
 40
87.99999999999995
100
AcDbArc
 50
280.3644312771313
 51
3.541483659218056
  0
ARC
  5
1720C
330
125AA
100
AcDbEntity
  8
YODOROGO
100
AcDbCircle
 10
14117.87801537965
 20
816.7989034809522
 30
0.0
 40
55.99999999999916
100
AcDbArc
 50
281.2490582504155
 51
348.7509417495832
  0
LINE
  5
1720D
330
125AA
100
AcDbEntity
  8
YODOROGO
100
AcDbLine
 10
14128.80217064596
 20
761.8747482146434
 30
0.0
 11
14128.80217064596
 21
713.8747482146436
 31
0.0
  0
LINE
  5
1720E
330
125AA
100
AcDbEntity
  8
YODOROGO
100
AcDbLine
 10
14010.04445186844
 20
805.3252825309574
 30
0.0
 11
14020.45660200845
 21
829.874748214644
 31
0.0
  0
LINE
  5
1720F
330
125AA
100
AcDbEntity
  8
YODOROGO
100
AcDbLine
 10
14020.80217064596
 20
791.5602449742006
 30
0.0
 11
14010.04445186844
 21
805.3252825309574
 31
0.0
  0
LINE
  5
17210
330
125AA
100
AcDbEntity
  8
YODOROGO
100
AcDbLine
 10
14020.80217064596
 20
781.5602449741995
 30
0.0
 11
14020.80217064596
 21
791.5602449742006
 31
0.0
  0
LINE
  5
17211
330
125AA
100
AcDbEntity
  8
YODOROGO
100
AcDbLine
 10
14008.80217064596
 20
792.6185318747652
 30
0.0
 11
14020.80217064596
 21
781.5602449741995
 31
0.0
  0
LINE
  5
17212
330
125AA
100
AcDbEntity
  8
YODOROGO
100
AcDbLine
 10
14008.80217064596
 20
737.8747482146437
 30
0.0
 11
14008.80217064596
 21
792.6185318747652
 31
0.0
  0
LINE
  5
17213
330
125AA
100
AcDbEntity
  8
YODOROGO
100
AcDbLine
 10
14000.80217064596
 20
737.8747482146437
 30
0.0
 11
14008.80217064596
 21
737.8747482146437
 31
0.0
  0
LINE
  5
17214
330
125AA
100
AcDbEntity
  8
YODOROGO
100
AcDbLine
 10
14000.80217064596
 20
790.0026748448738
 30
0.0
 11
14000.80217064596
 21
737.8747482146437
 31
0.0
  0
LINE
  5
17215
330
125AA
100
AcDbEntity
  8
YODOROGO
100
AcDbLine
 10
13988.80217064596
 20
766.3840395167142
 30
0.0
 11
14000.80217064596
 21
790.0026748448738
 31
0.0
  0
LINE
  5
17216
330
125AA
100
AcDbEntity
  8
YODOROGO
100
AcDbLine
 10
13988.80217064596
 20
778.3840395167149
 30
0.0
 11
13988.80217064596
 21
766.3840395167142
 31
0.0
  0
LINE
  5
17217
330
125AA
100
AcDbEntity
  8
YODOROGO
100
AcDbLine
 10
14012.91438714567
 20
833.8747482146427
 30
0.0
 11
13988.80217064596
 21
778.3840395167149
 31
0.0
  0
LINE
  5
17218
330
125AA
100
AcDbEntity
  8
YODOROGO
100
AcDbLine
 10
13988.80217064596
 20
833.8747482146427
 30
0.0
 11
14012.91438714567
 21
833.8747482146427
 31
0.0
  0
LINE
  5
17219
330
125AA
100
AcDbEntity
  8
YODOROGO
100
AcDbLine
 10
14025.06776011545
 20
827.751818637328
 30
0.0
 11
14041.06776011546
 21
827.751818637328
 31
0.0
1001
AUTOCAD_POSTSCRIPT_FIGURE
1002
{
1000
PSFILL
1000
Grayscale
1000
Grayscale
1070
   100
1002
}
  0
LINE
  5
1721A
330
125AA
100
AcDbEntity
  8
YODOROGO
100
AcDbLine
 10
14025.06776011545
 20
815.7518186373286
 30
0.0
 11
14025.06776011545
 21
827.751818637328
 31
0.0
1001
AUTOCAD_POSTSCRIPT_FIGURE
1002
{
1000
PSFILL
1000
Grayscale
1000
Grayscale
1070
   100
1002
}
  0
LINE
  5
1721B
330
125AA
100
AcDbEntity
  8
YODOROGO
100
AcDbLine
 10
14041.06776011546
 20
815.7518186373286
 30
0.0
 11
14025.06776011545
 21
815.7518186373286
 31
0.0
1001
AUTOCAD_POSTSCRIPT_FIGURE
1002
{
1000
PSFILL
1000
Grayscale
1000
Grayscale
1070
   100
1002
}
  0
LINE
  5
1721C
330
125AA
100
AcDbEntity
  8
YODOROGO
100
AcDbLine
 10
14041.06776011546
 20
749.8747482146441
 30
0.0
 11
14041.06776011546
 21
815.7518186373286
 31
0.0
1001
AUTOCAD_POSTSCRIPT_FIGURE
1002
{
1000
PSFILL
1000
Grayscale
1000
Grayscale
1070
   100
1002
}
  0
LINE
  5
1721D
330
125AA
100
AcDbEntity
  8
YODOROGO
100
AcDbLine
 10
14025.06776011545
 20
749.8747482146441
 30
0.0
 11
14041.06776011546
 21
749.8747482146441
 31
0.0
1001
AUTOCAD_POSTSCRIPT_FIGURE
1002
{
1000
PSFILL
1000
Grayscale
1000
Grayscale
1070
   100
1002
}
  0
LINE
  5
1721E
330
125AA
100
AcDbEntity
  8
YODOROGO
100
AcDbLine
 10
14025.06776011545
 20
737.8747482146437
 30
0.0
 11
14025.06776011545
 21
749.8747482146441
 31
0.0
1001
AUTOCAD_POSTSCRIPT_FIGURE
1002
{
1000
PSFILL
1000
Grayscale
1000
Grayscale
1070
   100
1002
}
  0
LINE
  5
1721F
330
125AA
100
AcDbEntity
  8
YODOROGO
100
AcDbLine
 10
14068.80217064596
 20
737.8747482146437
 30
0.0
 11
14025.06776011545
 21
737.8747482146437
 31
0.0
1001
AUTOCAD_POSTSCRIPT_FIGURE
1002
{
1000
PSFILL
1000
Grayscale
1000
Grayscale
1070
   100
1002
}
  0
LINE
  5
17220
330
125AA
100
AcDbEntity
  8
YODOROGO
100
AcDbLine
 10
14068.80217064596
 20
749.8747482146441
 30
0.0
 11
14068.80217064596
 21
737.8747482146437
 31
0.0
1001
AUTOCAD_POSTSCRIPT_FIGURE
1002
{
1000
PSFILL
1000
Grayscale
1000
Grayscale
1070
   100
1002
}
  0
LINE
  5
17221
330
125AA
100
AcDbEntity
  8
YODOROGO
100
AcDbLine
 10
14049.06776011545
 20
749.8747482146441
 30
0.0
 11
14068.80217064596
 21
749.8747482146441
 31
0.0
1001
AUTOCAD_POSTSCRIPT_FIGURE
1002
{
1000
PSFILL
1000
Grayscale
1000
Grayscale
1070
   100
1002
}
  0
LINE
  5
17222
330
125AA
100
AcDbEntity
  8
YODOROGO
100
AcDbLine
 10
14049.06776011545
 20
815.7518186373286
 30
0.0
 11
14049.06776011545
 21
749.8747482146441
 31
0.0
1001
AUTOCAD_POSTSCRIPT_FIGURE
1002
{
1000
PSFILL
1000
Grayscale
1000
Grayscale
1070
   100
1002
}
  0
LINE
  5
17223
330
125AA
100
AcDbEntity
  8
YODOROGO
100
AcDbLine
 10
14068.80217064596
 20
815.7518186373286
 30
0.0
 11
14049.06776011545
 21
815.7518186373286
 31
0.0
1001
AUTOCAD_POSTSCRIPT_FIGURE
1002
{
1000
PSFILL
1000
Grayscale
1000
Grayscale
1070
   100
1002
}
  0
LINE
  5
17224
330
125AA
100
AcDbEntity
  8
YODOROGO
100
AcDbLine
 10
14068.80217064596
 20
827.751818637328
 30
0.0
 11
14068.80217064596
 21
815.7518186373286
 31
0.0
1001
AUTOCAD_POSTSCRIPT_FIGURE
1002
{
1000
PSFILL
1000
Grayscale
1000
Grayscale
1070
   100
1002
}
  0
LINE
  5
17225
330
125AA
100
AcDbEntity
  8
YODOROGO
100
AcDbLine
 10
14049.06776011545
 20
827.751818637328
 30
0.0
 11
14068.80217064596
 21
827.751818637328
 31
0.0
1001
AUTOCAD_POSTSCRIPT_FIGURE
1002
{
1000
PSFILL
1000
Grayscale
1000
Grayscale
1070
   100
1002
}
  0
LINE
  5
17226
330
125AA
100
AcDbEntity
  8
YODOROGO
100
AcDbLine
 10
14200.80217064595
 20
833.8747482146439
 30
0.0
 11
14172.80217064596
 21
833.8747482146439
 31
0.0
  0
LINE
  5
17227
330
125AA
100
AcDbEntity
  8
YODOROGO
100
AcDbLine
 10
14200.80217064595
 20
805.8747482146443
 30
0.0
 11
14200.80217064595
 21
833.8747482146439
 31
0.0
  0
LINE
  5
17228
330
125AA
100
AcDbEntity
  8
YODOROGO
100
AcDbLine
 10
14172.80217064596
 20
833.8747482146439
 30
0.0
 11
14172.80217064596
 21
805.8747482146443
 31
0.0
  0
ARC
  5
17229
330
125AA
100
AcDbEntity
  8
YODOROGO
100
AcDbCircle
 10
14256.80217064595
 20
753.8747482146439
 30
0.0
 40
40.0
100
AcDbArc
 50
180.0
 51
270.0
  0
ARC
  5
1722A
330
125AA
100
AcDbEntity
  8
YODOROGO
100
AcDbCircle
 10
14268.80217064595
 20
781.8747482146434
 30
0.0
 40
20.0
100
AcDbArc
 50
180.0
 51
270.0
  0
LINE
  5
1722B
330
125AA
100
AcDbEntity
  8
YODOROGO
100
AcDbLine
 10
14280.80217064596
 20
761.8747482146434
 30
0.0
 11
14268.80217064595
 21
761.8747482146434
 31
0.0
  0
ARC
  5
1722C
330
125AA
100
AcDbEntity
  8
YODOROGO
100
AcDbCircle
 10
14280.80217064596
 20
773.8747482146427
 30
0.0
 40
11.99999999999818
100
AcDbArc
 50
270.0
 51
0.0000000000054281
  0
LINE
  5
1722D
330
125AA
100
AcDbEntity
  8
YODOROGO
100
AcDbLine
 10
13900.80217064596
 20
945.3932903968532
 30
0.0
 11
13888.80217064596
 21
921.8883739758362
 31
0.0
1001
AUTOCAD_POSTSCRIPT_FIGURE
1002
{
1000
PSFILL
1000
Grayscale
1000
Grayscale
1070
   100
1002
}
  0
LINE
  5
1722E
330
125AA
100
AcDbEntity
  8
YODOROGO
100
AcDbLine
 10
13900.80217064596
 20
873.8747482146436
 30
0.0
 11
13900.80217064596
 21
945.3932903968532
 31
0.0
1001
AUTOCAD_POSTSCRIPT_FIGURE
1002
{
1000
PSFILL
1000
Grayscale
1000
Grayscale
1070
   100
1002
}
  0
LINE
  5
1722F
330
125AA
100
AcDbEntity
  8
YODOROGO
100
AcDbLine
 10
13908.80217064596
 20
873.8747482146436
 30
0.0
 11
13900.80217064596
 21
873.8747482146436
 31
0.0
1001
AUTOCAD_POSTSCRIPT_FIGURE
1002
{
1000
PSFILL
1000
Grayscale
1000
Grayscale
1070
   100
1002
}
  0
LINE
  5
17230
330
125AA
100
AcDbEntity
  8
YODOROGO
100
AcDbLine
 10
13908.80217064596
 20
946.8856660426334
 30
0.0
 11
13908.80217064596
 21
873.8747482146436
 31
0.0
1001
AUTOCAD_POSTSCRIPT_FIGURE
1002
{
1000
PSFILL
1000
Grayscale
1000
Grayscale
1070
   100
1002
}
  0
LINE
  5
17231
330
125AA
100
AcDbEntity
  8
YODOROGO
100
AcDbLine
 10
13920.80217064596
 20
933.8273791420684
 30
0.0
 11
13908.80217064596
 21
946.8856660426334
 31
0.0
1001
AUTOCAD_POSTSCRIPT_FIGURE
1002
{
1000
PSFILL
1000
Grayscale
1000
Grayscale
1070
   100
1002
}
  0
LINE
  5
17232
330
125AA
100
AcDbEntity
  8
YODOROGO
100
AcDbLine
 10
13920.80217064596
 20
941.8273791420681
 30
0.0
 11
13920.80217064596
 21
933.8273791420684
 31
0.0
1001
AUTOCAD_POSTSCRIPT_FIGURE
1002
{
1000
PSFILL
1000
Grayscale
1000
Grayscale
1070
   100
1002
}
  0
LINE
  5
17233
330
125AA
100
AcDbEntity
  8
YODOROGO
100
AcDbLine
 10
13908.80217064596
 20
958.8856660426326
 30
0.0
 11
13920.80217064596
 21
941.8273791420681
 31
0.0
1001
AUTOCAD_POSTSCRIPT_FIGURE
1002
{
1000
PSFILL
1000
Grayscale
1000
Grayscale
1070
   100
1002
}
  0
LINE
  5
17234
330
125AA
100
AcDbEntity
  8
YODOROGO
100
AcDbLine
 10
13908.80217064596
 20
969.8747482146441
 30
0.0
 11
13908.80217064596
 21
958.8856660426326
 31
0.0
1001
AUTOCAD_POSTSCRIPT_FIGURE
1002
{
1000
PSFILL
1000
Grayscale
1000
Grayscale
1070
   100
1002
}
  0
LINE
  5
17235
330
125AA
100
AcDbEntity
  8
YODOROGO
100
AcDbLine
 10
13944.80217064596
 20
969.8747482146441
 30
0.0
 11
13908.80217064596
 21
969.8747482146441
 31
0.0
1001
AUTOCAD_POSTSCRIPT_FIGURE
1002
{
1000
PSFILL
1000
Grayscale
1000
Grayscale
1070
   100
1002
}
  0
LINE
  5
17236
330
125AA
100
AcDbEntity
  8
YODOROGO
100
AcDbLine
 10
13944.80217064596
 20
950.2841744681497
 30
0.0
 11
13944.80217064596
 21
969.8747482146441
 31
0.0
1001
AUTOCAD_POSTSCRIPT_FIGURE
1002
{
1000
PSFILL
1000
Grayscale
1000
Grayscale
1070
   100
1002
}
  0
LINE
  5
17237
330
125AA
100
AcDbEntity
  8
YODOROGO
100
AcDbLine
 10
13928.80217064596
 20
950.2841744681497
 30
0.0
 11
13944.80217064596
 21
950.2841744681497
 31
0.0
1001
AUTOCAD_POSTSCRIPT_FIGURE
1002
{
1000
PSFILL
1000
Grayscale
1000
Grayscale
1070
   100
1002
}
  0
LINE
  5
17238
330
125AA
100
AcDbEntity
  8
YODOROGO
100
AcDbLine
 10
13928.80217064596
 20
942.2841744681491
 30
0.0
 11
13928.80217064596
 21
950.2841744681497
 31
0.0
1001
AUTOCAD_POSTSCRIPT_FIGURE
1002
{
1000
PSFILL
1000
Grayscale
1000
Grayscale
1070
   100
1002
}
  0
LINE
  5
17239
330
125AA
100
AcDbEntity
  8
YODOROGO
100
AcDbLine
 10
13944.80217064596
 20
942.2841744681491
 30
0.0
 11
13928.80217064596
 21
942.2841744681491
 31
0.0
1001
AUTOCAD_POSTSCRIPT_FIGURE
1002
{
1000
PSFILL
1000
Grayscale
1000
Grayscale
1070
   100
1002
}
  0
LINE
  5
1723A
330
125AA
100
AcDbEntity
  8
YODOROGO
100
AcDbLine
 10
13944.80217064596
 20
939.8095889822197
 30
0.0
 11
13944.80217064596
 21
942.2841744681491
 31
0.0
1001
AUTOCAD_POSTSCRIPT_FIGURE
1002
{
1000
PSFILL
1000
Grayscale
1000
Grayscale
1070
   100
1002
}
  0
LINE
  5
1723B
330
125AA
100
AcDbEntity
  8
YODOROGO
100
AcDbLine
 10
13924.80217064596
 20
906.4874905807087
 30
0.0
 11
13944.80217064596
 21
939.8095889822197
 31
0.0
1001
AUTOCAD_POSTSCRIPT_FIGURE
1002
{
1000
PSFILL
1000
Grayscale
1000
Grayscale
1070
   100
1002
}
  0
LINE
  5
1723C
330
125AA
100
AcDbEntity
  8
YODOROGO
100
AcDbLine
 10
13924.80217064596
 20
898.487490580708
 30
0.0
 11
13924.80217064596
 21
906.4874905807087
 31
0.0
1001
AUTOCAD_POSTSCRIPT_FIGURE
1002
{
1000
PSFILL
1000
Grayscale
1000
Grayscale
1070
   100
1002
}
  0
LINE
  5
1723D
330
125AA
100
AcDbEntity
  8
YODOROGO
100
AcDbLine
 10
13944.80217064596
 20
923.8095889822183
 30
0.0
 11
13924.80217064596
 21
898.487490580708
 31
0.0
1001
AUTOCAD_POSTSCRIPT_FIGURE
1002
{
1000
PSFILL
1000
Grayscale
1000
Grayscale
1070
   100
1002
}
  0
LINE
  5
1723E
330
125AA
100
AcDbEntity
  8
YODOROGO
100
AcDbLine
 10
13944.80217064596
 20
873.8747482146436
 30
0.0
 11
13944.80217064596
 21
923.8095889822183
 31
0.0
1001
AUTOCAD_POSTSCRIPT_FIGURE
1002
{
1000
PSFILL
1000
Grayscale
1000
Grayscale
1070
   100
1002
}
  0
LINE
  5
1723F
330
125AA
100
AcDbEntity
  8
YODOROGO
100
AcDbLine
 10
13952.80217064596
 20
873.8747482146436
 30
0.0
 11
13944.80217064596
 21
873.8747482146436
 31
0.0
1001
AUTOCAD_POSTSCRIPT_FIGURE
1002
{
1000
PSFILL
1000
Grayscale
1000
Grayscale
1070
   100
1002
}
  0
LINE
  5
17240
330
125AA
100
AcDbEntity
  8
YODOROGO
100
AcDbLine
 10
13952.80217064596
 20
924.7045060794032
 30
0.0
 11
13952.80217064596
 21
873.8747482146436
 31
0.0
1001
AUTOCAD_POSTSCRIPT_FIGURE
1002
{
1000
PSFILL
1000
Grayscale
1000
Grayscale
1070
   100
1002
}
  0
LINE
  5
17241
330
125AA
100
AcDbEntity
  8
YODOROGO
100
AcDbLine
 10
13968.80217064596
 20
898.487490580708
 30
0.0
 11
13952.80217064596
 21
924.7045060794032
 31
0.0
1001
AUTOCAD_POSTSCRIPT_FIGURE
1002
{
1000
PSFILL
1000
Grayscale
1000
Grayscale
1070
   100
1002
}
  0
LINE
  5
17242
330
125AA
100
AcDbEntity
  8
YODOROGO
100
AcDbLine
 10
13968.80217064596
 20
906.4874905807087
 30
0.0
 11
13968.80217064596
 21
898.487490580708
 31
0.0
1001
AUTOCAD_POSTSCRIPT_FIGURE
1002
{
1000
PSFILL
1000
Grayscale
1000
Grayscale
1070
   100
1002
}
  0
LINE
  5
17243
330
125AA
100
AcDbEntity
  8
YODOROGO
100
AcDbLine
 10
13952.80217064596
 20
940.7045060794045
 30
0.0
 11
13968.80217064596
 21
906.4874905807087
 31
0.0
1001
AUTOCAD_POSTSCRIPT_FIGURE
1002
{
1000
PSFILL
1000
Grayscale
1000
Grayscale
1070
   100
1002
}
  0
LINE
  5
17244
330
125AA
100
AcDbEntity
  8
YODOROGO
100
AcDbLine
 10
13952.80217064596
 20
942.2841744681502
 30
0.0
 11
13952.80217064596
 21
940.7045060794045
 31
0.0
1001
AUTOCAD_POSTSCRIPT_FIGURE
1002
{
1000
PSFILL
1000
Grayscale
1000
Grayscale
1070
   100
1002
}
  0
LINE
  5
17245
330
125AA
100
AcDbEntity
  8
YODOROGO
100
AcDbLine
 10
13968.80217064596
 20
942.2841744681491
 30
0.0
 11
13952.80217064596
 21
942.2841744681502
 31
0.0
1001
AUTOCAD_POSTSCRIPT_FIGURE
1002
{
1000
PSFILL
1000
Grayscale
1000
Grayscale
1070
   100
1002
}
  0
LINE
  5
17246
330
125AA
100
AcDbEntity
  8
YODOROGO
100
AcDbLine
 10
13968.80217064596
 20
950.2841744681497
 30
0.0
 11
13968.80217064596
 21
942.2841744681491
 31
0.0
1001
AUTOCAD_POSTSCRIPT_FIGURE
1002
{
1000
PSFILL
1000
Grayscale
1000
Grayscale
1070
   100
1002
}
  0
LINE
  5
17247
330
125AA
100
AcDbEntity
  8
YODOROGO
100
AcDbLine
 10
13952.80217064596
 20
950.2841744681497
 30
0.0
 11
13968.80217064596
 21
950.2841744681497
 31
0.0
1001
AUTOCAD_POSTSCRIPT_FIGURE
1002
{
1000
PSFILL
1000
Grayscale
1000
Grayscale
1070
   100
1002
}
  0
LINE
  5
17248
330
125AA
100
AcDbEntity
  8
YODOROGO
100
AcDbLine
 10
13952.80217064596
 20
969.8747482146441
 30
0.0
 11
13952.80217064596
 21
950.2841744681497
 31
0.0
1001
AUTOCAD_POSTSCRIPT_FIGURE
1002
{
1000
PSFILL
1000
Grayscale
1000
Grayscale
1070
   100
1002
}
  0
LINE
  5
17249
330
125AA
100
AcDbEntity
  8
YODOROGO
100
AcDbLine
 10
13968.80217064596
 20
969.8747482146441
 30
0.0
 11
13952.80217064596
 21
969.8747482146441
 31
0.0
1001
AUTOCAD_POSTSCRIPT_FIGURE
1002
{
1000
PSFILL
1000
Grayscale
1000
Grayscale
1070
   100
1002
}
  0
LINE
  5
1724A
330
125AA
100
AcDbEntity
  8
YODOROGO
100
AcDbLine
 10
13968.80217064596
 20
977.8747482146435
 30
0.0
 11
13968.80217064596
 21
969.8747482146441
 31
0.0
1001
AUTOCAD_POSTSCRIPT_FIGURE
1002
{
1000
PSFILL
1000
Grayscale
1000
Grayscale
1070
   100
1002
}
  0
LINE
  5
1724B
330
125AA
100
AcDbEntity
  8
YODOROGO
100
AcDbLine
 10
13952.80217064596
 20
977.8747482146435
 30
0.0
 11
13968.80217064596
 21
977.8747482146435
 31
0.0
1001
AUTOCAD_POSTSCRIPT_FIGURE
1002
{
1000
PSFILL
1000
Grayscale
1000
Grayscale
1070
   100
1002
}
  0
LINE
  5
1724C
330
125AA
100
AcDbEntity
  8
YODOROGO
100
AcDbLine
 10
13952.80217064596
 20
989.8747482146443
 30
0.0
 11
13952.80217064596
 21
977.8747482146435
 31
0.0
1001
AUTOCAD_POSTSCRIPT_FIGURE
1002
{
1000
PSFILL
1000
Grayscale
1000
Grayscale
1070
   100
1002
}
  0
LINE
  5
1724D
330
125AA
100
AcDbEntity
  8
YODOROGO
100
AcDbLine
 10
13944.80217064596
 20
989.8747482146443
 30
0.0
 11
13952.80217064596
 21
989.8747482146443
 31
0.0
1001
AUTOCAD_POSTSCRIPT_FIGURE
1002
{
1000
PSFILL
1000
Grayscale
1000
Grayscale
1070
   100
1002
}
  0
LINE
  5
1724E
330
125AA
100
AcDbEntity
  8
YODOROGO
100
AcDbLine
 10
13944.80217064596
 20
977.8747482146435
 30
0.0
 11
13944.80217064596
 21
989.8747482146443
 31
0.0
1001
AUTOCAD_POSTSCRIPT_FIGURE
1002
{
1000
PSFILL
1000
Grayscale
1000
Grayscale
1070
   100
1002
}
  0
LINE
  5
1724F
330
125AA
100
AcDbEntity
  8
YODOROGO
100
AcDbLine
 10
13932.80217064596
 20
977.8747482146435
 30
0.0
 11
13944.80217064596
 21
977.8747482146435
 31
0.0
1001
AUTOCAD_POSTSCRIPT_FIGURE
1002
{
1000
PSFILL
1000
Grayscale
1000
Grayscale
1070
   100
1002
}
  0
LINE
  5
17250
330
125AA
100
AcDbEntity
  8
YODOROGO
100
AcDbLine
 10
13932.80217064596
 20
989.8747482146443
 30
0.0
 11
13932.80217064596
 21
977.8747482146435
 31
0.0
1001
AUTOCAD_POSTSCRIPT_FIGURE
1002
{
1000
PSFILL
1000
Grayscale
1000
Grayscale
1070
   100
1002
}
  0
LINE
  5
17251
330
125AA
100
AcDbEntity
  8
YODOROGO
100
AcDbLine
 10
13924.80217064596
 20
989.8747482146443
 30
0.0
 11
13932.80217064596
 21
989.8747482146443
 31
0.0
1001
AUTOCAD_POSTSCRIPT_FIGURE
1002
{
1000
PSFILL
1000
Grayscale
1000
Grayscale
1070
   100
1002
}
  0
LINE
  5
17252
330
125AA
100
AcDbEntity
  8
YODOROGO
100
AcDbLine
 10
13924.80217064596
 20
977.8747482146435
 30
0.0
 11
13924.80217064596
 21
989.8747482146443
 31
0.0
1001
AUTOCAD_POSTSCRIPT_FIGURE
1002
{
1000
PSFILL
1000
Grayscale
1000
Grayscale
1070
   100
1002
}
  0
LINE
  5
17253
330
125AA
100
AcDbEntity
  8
YODOROGO
100
AcDbLine
 10
13908.80217064596
 20
977.8747482146435
 30
0.0
 11
13924.80217064596
 21
977.8747482146435
 31
0.0
1001
AUTOCAD_POSTSCRIPT_FIGURE
1002
{
1000
PSFILL
1000
Grayscale
1000
Grayscale
1070
   100
1002
}
  0
LINE
  5
17254
330
125AA
100
AcDbEntity
  8
YODOROGO
100
AcDbLine
 10
13908.80217064596
 20
989.8747482146443
 30
0.0
 11
13908.80217064596
 21
977.8747482146435
 31
0.0
1001
AUTOCAD_POSTSCRIPT_FIGURE
1002
{
1000
PSFILL
1000
Grayscale
1000
Grayscale
1070
   100
1002
}
  0
LINE
  5
17255
330
125AA
100
AcDbEntity
  8
YODOROGO
100
AcDbLine
 10
13900.80217064596
 20
989.8747482146443
 30
0.0
 11
13908.80217064596
 21
989.8747482146443
 31
0.0
1001
AUTOCAD_POSTSCRIPT_FIGURE
1002
{
1000
PSFILL
1000
Grayscale
1000
Grayscale
1070
   100
1002
}
  0
LINE
  5
17256
330
125AA
100
AcDbEntity
  8
YODOROGO
100
AcDbLine
 10
13900.80217064596
 20
977.8747482146435
 30
0.0
 11
13900.80217064596
 21
989.8747482146443
 31
0.0
1001
AUTOCAD_POSTSCRIPT_FIGURE
1002
{
1000
PSFILL
1000
Grayscale
1000
Grayscale
1070
   100
1002
}
  0
LINE
  5
17257
330
125AA
100
AcDbEntity
  8
YODOROGO
100
AcDbLine
 10
13888.80217064596
 20
977.8747482146435
 30
0.0
 11
13900.80217064596
 21
977.8747482146435
 31
0.0
1001
AUTOCAD_POSTSCRIPT_FIGURE
1002
{
1000
PSFILL
1000
Grayscale
1000
Grayscale
1070
   100
1002
}
  0
LINE
  5
17258
330
125AA
100
AcDbEntity
  8
YODOROGO
100
AcDbLine
 10
13888.80217064596
 20
969.8747482146441
 30
0.0
 11
13888.80217064596
 21
977.8747482146435
 31
0.0
1001
AUTOCAD_POSTSCRIPT_FIGURE
1002
{
1000
PSFILL
1000
Grayscale
1000
Grayscale
1070
   100
1002
}
  0
LINE
  5
17259
330
125AA
100
AcDbEntity
  8
YODOROGO
100
AcDbLine
 10
13900.80217064596
 20
969.8747482146441
 30
0.0
 11
13888.80217064596
 21
969.8747482146441
 31
0.0
1001
AUTOCAD_POSTSCRIPT_FIGURE
1002
{
1000
PSFILL
1000
Grayscale
1000
Grayscale
1070
   100
1002
}
  0
LINE
  5
1725A
330
125AA
100
AcDbEntity
  8
YODOROGO
100
AcDbLine
 10
13900.80217064596
 20
957.3932903968524
 30
0.0
 11
13900.80217064596
 21
969.8747482146441
 31
0.0
1001
AUTOCAD_POSTSCRIPT_FIGURE
1002
{
1000
PSFILL
1000
Grayscale
1000
Grayscale
1070
   100
1002
}
  0
LINE
  5
1725B
330
125AA
100
AcDbEntity
  8
YODOROGO
100
AcDbLine
 10
13888.80217064596
 20
929.8883739758355
 30
0.0
 11
13900.80217064596
 21
957.3932903968524
 31
0.0
1001
AUTOCAD_POSTSCRIPT_FIGURE
1002
{
1000
PSFILL
1000
Grayscale
1000
Grayscale
1070
   100
1002
}
  0
LINE
  5
1725C
330
125AA
100
AcDbEntity
  8
YODOROGO
100
AcDbLine
 10
13888.80217064596
 20
921.8883739758362
 30
0.0
 11
13888.80217064596
 21
929.8883739758355
 31
0.0
1001
AUTOCAD_POSTSCRIPT_FIGURE
1002
{
1000
PSFILL
1000
Grayscale
1000
Grayscale
1070
   100
1002
}
  0
LINE
  5
1725D
330
125AA
100
AcDbEntity
  8
YODOROGO
100
AcDbLine
 10
14128.80217064596
 20
933.8747482146439
 30
0.0
 11
14200.80217064595
 21
912.4388128201532
 31
0.0
1001
AUTOCAD_POSTSCRIPT_FIGURE
1002
{
1000
PSFILL
1000
Grayscale
1000
Grayscale
1070
   100
1002
}
  0
LINE
  5
1725E
330
125AA
100
AcDbEntity
  8
YODOROGO
100
AcDbLine
 10
14200.80217064595
 20
876.4388128201531
 30
0.0
 11
14128.80217064596
 21
897.8747482146435
 31
0.0
1001
AUTOCAD_POSTSCRIPT_FIGURE
1002
{
1000
PSFILL
1000
Grayscale
1000
Grayscale
1070
   100
1002
}
  0
LINE
  5
1725F
330
125AA
100
AcDbEntity
  8
YODOROGO
100
AcDbLine
 10
14200.80217064595
 20
992.4388128201531
 30
0.0
 11
14128.80217064596
 21
1013.874748214644
 31
0.0
1001
AUTOCAD_POSTSCRIPT_FIGURE
1002
{
1000
PSFILL
1000
Grayscale
1000
Grayscale
1070
   100
1002
}
  0
LINE
  5
17260
330
125AA
100
AcDbEntity
  8
YODOROGO
100
AcDbLine
 10
14128.80217064596
 20
979.874748214644
 30
0.0
 11
14200.80217064595
 21
958.4388128201537
 31
0.0
1001
AUTOCAD_POSTSCRIPT_FIGURE
1002
{
1000
PSFILL
1000
Grayscale
1000
Grayscale
1070
   100
1002
}
  0
LINE
  5
17261
330
125AA
100
AcDbEntity
  8
YODOROGO
100
AcDbLine
 10
14128.80217064596
 20
897.8747482146435
 30
0.0
 11
14128.80217064596
 21
933.8747482146439
 31
0.0
1001
AUTOCAD_POSTSCRIPT_FIGURE
1002
{
1000
PSFILL
1000
Grayscale
1000
Grayscale
1070
   100
1002
}
  0
LINE
  5
17262
330
125AA
100
AcDbEntity
  8
YODOROGO
100
AcDbLine
 10
14128.80217064596
 20
1013.874748214644
 30
0.0
 11
14128.80217064596
 21
979.874748214644
 31
0.0
1001
AUTOCAD_POSTSCRIPT_FIGURE
1002
{
1000
PSFILL
1000
Grayscale
1000
Grayscale
1070
   100
1002
}
  0
LINE
  5
17263
330
125AA
100
AcDbEntity
  8
YODOROGO
100
AcDbLine
 10
14040.11816010337
 20
969.8747482146441
 30
0.0
 11
14064.80217064595
 21
873.8747482146436
 31
0.0
1001
AUTOCAD_POSTSCRIPT_FIGURE
1002
{
1000
PSFILL
1000
Grayscale
1000
Grayscale
1070
   100
1002
}
  0
LINE
  5
17264
330
125AA
100
AcDbEntity
  8
YODOROGO
100
AcDbLine
 10
13988.80217064596
 20
969.8747482146441
 30
0.0
 11
14040.11816010337
 21
969.8747482146441
 31
0.0
1001
AUTOCAD_POSTSCRIPT_FIGURE
1002
{
1000
PSFILL
1000
Grayscale
1000
Grayscale
1070
   100
1002
}
  0
LINE
  5
17265
330
125AA
100
AcDbEntity
  8
YODOROGO
100
AcDbLine
 10
13988.80217064596
 20
977.8747482146435
 30
0.0
 11
13988.80217064596
 21
969.8747482146441
 31
0.0
1001
AUTOCAD_POSTSCRIPT_FIGURE
1002
{
1000
PSFILL
1000
Grayscale
1000
Grayscale
1070
   100
1002
}
  0
LINE
  5
17266
330
125AA
100
AcDbEntity
  8
YODOROGO
100
AcDbLine
 10
14038.30343925995
 20
977.8747482146435
 30
0.0
 11
13988.80217064596
 21
977.8747482146435
 31
0.0
1001
AUTOCAD_POSTSCRIPT_FIGURE
1002
{
1000
PSFILL
1000
Grayscale
1000
Grayscale
1070
   100
1002
}
  0
LINE
  5
17267
330
125AA
100
AcDbEntity
  8
YODOROGO
100
AcDbLine
 10
14035.58135799485
 20
989.8747482146443
 30
0.0
 11
14038.30343925995
 21
977.8747482146435
 31
0.0
1001
AUTOCAD_POSTSCRIPT_FIGURE
1002
{
1000
PSFILL
1000
Grayscale
1000
Grayscale
1070
   100
1002
}
  0
LINE
  5
17268
330
125AA
100
AcDbEntity
  8
YODOROGO
100
AcDbLine
 10
14045.58135799485
 20
989.8747482146443
 30
0.0
 11
14035.58135799485
 21
989.8747482146443
 31
0.0
1001
AUTOCAD_POSTSCRIPT_FIGURE
1002
{
1000
PSFILL
1000
Grayscale
1000
Grayscale
1070
   100
1002
}
  0
LINE
  5
17269
330
125AA
100
AcDbEntity
  8
YODOROGO
100
AcDbLine
 10
14047.90343925997
 20
977.8747482146435
 30
0.0
 11
14045.58135799485
 21
989.8747482146443
 31
0.0
1001
AUTOCAD_POSTSCRIPT_FIGURE
1002
{
1000
PSFILL
1000
Grayscale
1000
Grayscale
1070
   100
1002
}
  0
LINE
  5
1726A
330
125AA
100
AcDbEntity
  8
YODOROGO
100
AcDbLine
 10
14060.80217064596
 20
977.8747482146435
 30
0.0
 11
14047.90343925997
 21
977.8747482146435
 31
0.0
1001
AUTOCAD_POSTSCRIPT_FIGURE
1002
{
1000
PSFILL
1000
Grayscale
1000
Grayscale
1070
   100
1002
}
  0
LINE
  5
1726B
330
125AA
100
AcDbEntity
  8
YODOROGO
100
AcDbLine
 10
14060.80217064596
 20
989.8747482146443
 30
0.0
 11
14060.80217064596
 21
977.8747482146435
 31
0.0
1001
AUTOCAD_POSTSCRIPT_FIGURE
1002
{
1000
PSFILL
1000
Grayscale
1000
Grayscale
1070
   100
1002
}
  0
LINE
  5
1726C
330
125AA
100
AcDbEntity
  8
YODOROGO
100
AcDbLine
 10
14068.80217064596
 20
989.8747482146443
 30
0.0
 11
14060.80217064596
 21
989.8747482146443
 31
0.0
1001
AUTOCAD_POSTSCRIPT_FIGURE
1002
{
1000
PSFILL
1000
Grayscale
1000
Grayscale
1070
   100
1002
}
  0
LINE
  5
1726D
330
125AA
100
AcDbEntity
  8
YODOROGO
100
AcDbLine
 10
14068.80217064596
 20
977.8747482146435
 30
0.0
 11
14068.80217064596
 21
989.8747482146443
 31
0.0
1001
AUTOCAD_POSTSCRIPT_FIGURE
1002
{
1000
PSFILL
1000
Grayscale
1000
Grayscale
1070
   100
1002
}
  0
LINE
  5
1726E
330
125AA
100
AcDbEntity
  8
YODOROGO
100
AcDbLine
 10
14068.80217064596
 20
969.8747482146441
 30
0.0
 11
14068.80217064596
 21
977.8747482146435
 31
0.0
1001
AUTOCAD_POSTSCRIPT_FIGURE
1002
{
1000
PSFILL
1000
Grayscale
1000
Grayscale
1070
   100
1002
}
  0
LINE
  5
1726F
330
125AA
100
AcDbEntity
  8
YODOROGO
100
AcDbLine
 10
14049.4514934367
 20
969.8747482146441
 30
0.0
 11
14068.80217064596
 21
969.8747482146441
 31
0.0
1001
AUTOCAD_POSTSCRIPT_FIGURE
1002
{
1000
PSFILL
1000
Grayscale
1000
Grayscale
1070
   100
1002
}
  0
LINE
  5
17270
330
125AA
100
AcDbEntity
  8
YODOROGO
100
AcDbLine
 10
14068.80217064596
 20
873.8747482146436
 30
0.0
 11
14049.4514934367
 21
969.8747482146441
 31
0.0
1001
AUTOCAD_POSTSCRIPT_FIGURE
1002
{
1000
PSFILL
1000
Grayscale
1000
Grayscale
1070
   100
1002
}
  0
LINE
  5
17271
330
125AA
100
AcDbEntity
  8
YODOROGO
100
AcDbLine
 10
14064.80217064595
 20
873.8747482146436
 30
0.0
 11
14068.80217064596
 21
873.8747482146436
 31
0.0
1001
AUTOCAD_POSTSCRIPT_FIGURE
1002
{
1000
PSFILL
1000
Grayscale
1000
Grayscale
1070
   100
1002
}
  0
LINE
  5
17272
330
125AA
100
AcDbEntity
  8
YODOROGO
100
AcDbLine
 10
14039.03460996689
 20
887.8703881493972
 30
0.0
 11
13988.80217064596
 21
873.8747482146436
 31
0.0
  0
LINE
  5
17273
330
125AA
100
AcDbEntity
  8
YODOROGO
100
AcDbLine
 10
14039.03460996689
 20
899.3344897645366
 30
0.0
 11
14039.03460996689
 21
887.8703881493972
 31
0.0
  0
LINE
  5
17274
330
125AA
100
AcDbEntity
  8
YODOROGO
100
AcDbLine
 10
14016.91839030643
 20
893.4084665668834
 30
0.0
 11
14039.03460996689
 21
899.3344897645366
 31
0.0
  0
LINE
  5
17275
330
125AA
100
AcDbEntity
  8
YODOROGO
100
AcDbLine
 10
14016.91839030643
 20
936.2841744681499
 30
0.0
 11
14016.91839030643
 21
893.4084665668834
 31
0.0
  0
LINE
  5
17276
330
125AA
100
AcDbEntity
  8
YODOROGO
100
AcDbLine
 10
14039.03460996689
 20
936.2841744681499
 30
0.0
 11
14016.91839030643
 21
936.2841744681499
 31
0.0
  0
LINE
  5
17277
330
125AA
100
AcDbEntity
  8
YODOROGO
100
AcDbLine
 10
14039.03460996689
 20
946.2841744681487
 30
0.0
 11
14039.03460996689
 21
936.2841744681499
 31
0.0
  0
LINE
  5
17278
330
125AA
100
AcDbEntity
  8
YODOROGO
100
AcDbLine
 10
13988.80217064596
 20
946.2841744681487
 30
0.0
 11
14039.03460996689
 21
946.2841744681487
 31
0.0
  0
LINE
  5
17279
330
125AA
100
AcDbEntity
  8
YODOROGO
100
AcDbLine
 10
13988.80217064596
 20
936.2841744681499
 30
0.0
 11
13988.80217064596
 21
946.2841744681487
 31
0.0
  0
LINE
  5
1727A
330
125AA
100
AcDbEntity
  8
YODOROGO
100
AcDbLine
 10
14010.91839030643
 20
936.2841744681499
 30
0.0
 11
13988.80217064596
 21
936.2841744681499
 31
0.0
  0
LINE
  5
1727B
330
125AA
100
AcDbEntity
  8
YODOROGO
100
AcDbLine
 10
14010.91839030643
 20
892.3366697971587
 30
0.0
 11
14010.91839030643
 21
936.2841744681499
 31
0.0
  0
LINE
  5
1727C
330
125AA
100
AcDbEntity
  8
YODOROGO
100
AcDbLine
 10
13988.80217064596
 20
885.8747482146432
 30
0.0
 11
14010.91839030643
 21
892.3366697971587
 31
0.0
  0
LINE
  5
1727D
330
125AA
100
AcDbEntity
  8
YODOROGO
100
AcDbLine
 10
13988.80217064596
 20
873.8747482146436
 30
0.0
 11
13988.80217064596
 21
885.8747482146432
 31
0.0
  0
LINE
  5
1727E
330
125AA
100
AcDbEntity
  8
YODOROGO
100
AcDbLine
 10
14000.80217064596
 20
853.8747482146439
 30
0.0
 11
14000.80217064596
 21
841.8747482146434
 31
0.0
  0
LINE
  5
1727F
330
125AA
100
AcDbEntity
  8
YODOROGO
100
AcDbLine
 10
14000.80217064596
 20
853.8747482146439
 30
0.0
 11
14000.80217064596
 21
853.8747482146439
 31
0.0
  0
LINE
  5
17280
330
125AA
100
AcDbEntity
  8
YODOROGO
100
AcDbLine
 10
14008.80217064596
 20
853.8747482146439
 30
0.0
 11
14000.80217064596
 21
853.8747482146439
 31
0.0
  0
LINE
  5
17281
330
125AA
100
AcDbEntity
  8
YODOROGO
100
AcDbLine
 10
14008.80217064596
 20
841.8747482146434
 30
0.0
 11
14008.80217064596
 21
853.8747482146439
 31
0.0
  0
LINE
  5
17282
330
125AA
100
AcDbEntity
  8
YODOROGO
100
AcDbLine
 10
14020.45660200845
 20
841.8747482146434
 30
0.0
 11
14008.80217064596
 21
841.8747482146434
 31
0.0
  0
LINE
  5
17283
330
125AA
100
AcDbEntity
  8
YODOROGO
100
AcDbLine
 10
14000.80217064596
 20
841.8747482146434
 30
0.0
 11
13988.80217064596
 21
841.8747482146434
 31
0.0
  0
LINE
  5
17284
330
125AA
100
AcDbEntity
  8
YODOROGO
100
AcDbLine
 10
14041.06776011546
 20
853.8747482146439
 30
0.0
 11
14049.06776011545
 21
853.8747482146439
 31
0.0
1001
AUTOCAD_POSTSCRIPT_FIGURE
1002
{
1000
PSFILL
1000
Grayscale
1000
Grayscale
1070
   100
1002
}
  0
LINE
  5
17285
330
125AA
100
AcDbEntity
  8
YODOROGO
100
AcDbLine
 10
14200.80217064595
 20
912.4388128201532
 30
0.0
 11
14200.80217064595
 21
876.4388128201531
 31
0.0
1001
AUTOCAD_POSTSCRIPT_FIGURE
1002
{
1000
PSFILL
1000
Grayscale
1000
Grayscale
1070
   100
1002
}
  0
LINE
  5
17286
330
125AA
100
AcDbEntity
  8
YODOROGO
100
AcDbLine
 10
14200.80217064595
 20
958.4388128201537
 30
0.0
 11
14200.80217064595
 21
992.4388128201531
 31
0.0
1001
AUTOCAD_POSTSCRIPT_FIGURE
1002
{
1000
PSFILL
1000
Grayscale
1000
Grayscale
1070
   100
1002
}
  0
LINE
  5
17287
330
125AA
100
AcDbEntity
  8
YODOROGO
100
AcDbLine
 10
14216.80217064595
 20
909.8747482146439
 30
0.0
 11
14216.80217064595
 21
873.8747482146449
 31
0.0
  0
LINE
  5
17288
330
125AA
100
AcDbEntity
  8
YODOROGO
100
AcDbLine
 10
14248.80217064595
 20
853.8747482146439
 30
0.0
 11
14216.80217064595
 21
853.8747482146439
 31
0.0
  0
LINE
  5
17289
330
125AA
100
AcDbEntity
  8
YODOROGO
100
AcDbLine
 10
14216.80217064595
 20
873.8747482146449
 30
0.0
 11
14292.80217064596
 21
873.8747482146449
 31
0.0
  0
LINE
  5
1728A
330
125AA
100
AcDbEntity
  8
YODOROGO
100
AcDbLine
 10
14248.80217064595
 20
933.8747482146439
 30
0.0
 11
14216.80217064595
 21
933.8747482146439
 31
0.0
  0
LINE
  5
1728B
330
125AA
100
AcDbEntity
  8
YODOROGO
100
AcDbLine
 10
14248.80217064595
 20
961.8747482146432
 30
0.0
 11
14248.80217064595
 21
933.8747482146439
 31
0.0
  0
LINE
  5
1728C
330
125AA
100
AcDbEntity
  8
YODOROGO
100
AcDbLine
 10
14292.80217064596
 20
993.8747482146439
 30
0.0
 11
14292.80217064596
 21
1013.874748214644
 31
0.0
  0
LINE
  5
1728D
330
125AA
100
AcDbEntity
  8
YODOROGO
100
AcDbLine
 10
14216.80217064595
 20
993.8747482146439
 30
0.0
 11
14292.80217064596
 21
993.8747482146439
 31
0.0
  0
LINE
  5
1728E
330
125AA
100
AcDbEntity
  8
YODOROGO
100
AcDbLine
 10
14216.80217064595
 20
933.8747482146439
 30
0.0
 11
14216.80217064595
 21
993.8747482146439
 31
0.0
  0
LINE
  5
1728F
330
125AA
100
AcDbEntity
  8
YODOROGO
100
AcDbLine
 10
14500.80217064595
 20
1013.874748214644
 30
0.0
 11
14500.80217064595
 21
809.8747482146441
 31
0.0
  0
LINE
  5
17290
330
125AA
100
AcDbEntity
  8
YODOROGO
100
AcDbLine
 10
14536.80217064596
 20
789.8747482146441
 30
0.0
 11
14536.80217064596
 21
1013.874748214644
 31
0.0
  0
LINE
  5
17291
330
125AA
100
AcDbEntity
  8
YODOROGO
100
AcDbLine
 10
14630.80217064596
 20
745.8747482146431
 30
0.0
 11
14630.80217064596
 21
1003.874748214644
 31
0.0
  0
LINE
  5
17292
330
125AA
100
AcDbEntity
  8
YODOROGO
100
AcDbLine
 10
14598.80217064596
 20
1003.874748214644
 30
0.0
 11
14598.80217064596
 21
745.8747482146431
 31
0.0
  0
LINE
  5
17293
330
125AA
100
AcDbEntity
  8
YODOROGO
100
AcDbLine
 10
14692.80217064596
 20
1013.874748214644
 30
0.0
 11
14692.80217064596
 21
713.8747482146436
 31
0.0
  0
LINE
  5
17294
330
125AA
100
AcDbEntity
  8
YODOROGO
100
AcDbLine
 10
14728.80217064596
 20
713.8747482146436
 30
0.0
 11
14728.80217064596
 21
1013.874748214644
 31
0.0
  0
LINE
  5
17295
330
125AA
100
AcDbEntity
  8
YODOROGO
100
AcDbLine
 10
14328.80217064595
 20
833.8747482146439
 30
0.0
 11
14328.80217064595
 21
873.8747482146449
 31
0.0
  0
LINE
  5
17296
330
125AA
100
AcDbEntity
  8
YODOROGO
100
AcDbLine
 10
14942.80217064596
 20
853.8747482146439
 30
0.0
 11
14942.80217064596
 21
833.8747482146439
 31
0.0
  0
LINE
  5
17297
330
125AA
100
AcDbEntity
  8
YODOROGO
100
AcDbLine
 10
14942.80217064596
 20
853.8747482146439
 30
0.0
 11
14942.80217064596
 21
833.8747482146439
 31
0.0
  0
ARC
  5
17298
330
125AA
100
AcDbEntity
  8
YODOROGO
100
AcDbCircle
 10
14453.45578809341
 20
809.1089322211365
 30
0.0
 40
47.35257558937083
100
AcDbArc
 50
274.052441629071
 51
0.9266642149310712
  0
ARC
  5
17299
330
125AA
100
AcDbEntity
  8
YODOROGO
100
AcDbCircle
 10
14454.59308535991
 20
796.30536430522
 30
0.0
 40
82.46021178042756
100
AcDbArc
 50
271.5351210653778
 51
355.5272775058505
  0
LINE
  5
1729A
330
125AA
100
AcDbEntity
  8
YODOROGO
100
AcDbLine
 10
14456.80217064596
 20
761.8747482146434
 30
0.0
 11
14456.80217064596
 21
713.8747482146436
 31
0.0
  0
LINE
  5
1729B
330
125AA
100
AcDbEntity
  8
YODOROGO
100
AcDbLine
 10
14396.80217064594
 20
833.8747482146439
 30
0.0
 11
14328.80217064595
 21
833.8747482146439
 31
0.0
  0
LINE
  5
1729C
330
125AA
100
AcDbEntity
  8
YODOROGO
100
AcDbLine
 10
14396.80217064594
 20
801.8747482146446
 30
0.0
 11
14396.80217064594
 21
833.8747482146439
 31
0.0
  0
LINE
  5
1729D
330
125AA
100
AcDbEntity
  8
YODOROGO
100
AcDbLine
 10
14328.80217064595
 20
801.8747482146446
 30
0.0
 11
14396.80217064594
 21
801.8747482146446
 31
0.0
  0
LINE
  5
1729E
330
125AA
100
AcDbEntity
  8
YODOROGO
100
AcDbLine
 10
14328.80217064595
 20
761.8747482146434
 30
0.0
 11
14328.80217064595
 21
801.8747482146446
 31
0.0
  0
LINE
  5
1729F
330
125AA
100
AcDbEntity
  8
YODOROGO
100
AcDbLine
 10
14396.80217064594
 20
761.8747482146434
 30
0.0
 11
14328.80217064595
 21
761.8747482146434
 31
0.0
  0
LINE
  5
172A0
330
125AA
100
AcDbEntity
  8
YODOROGO
100
AcDbLine
 10
14396.80217064594
 20
713.8747482146436
 30
0.0
 11
14396.80217064594
 21
761.8747482146434
 31
0.0
  0
LINE
  5
172A1
330
125AA
100
AcDbEntity
  8
YODOROGO
100
AcDbLine
 10
14598.80217064596
 20
745.8747482146431
 30
0.0
 11
14630.80217064596
 21
745.8747482146431
 31
0.0
  0
LINE
  5
172A2
330
125AA
100
AcDbEntity
  8
YODOROGO
100
AcDbLine
 10
14692.80217064596
 20
713.8747482146436
 30
0.0
 11
14728.80217064596
 21
713.8747482146436
 31
0.0
  0
LINE
  5
172A3
330
125AA
100
AcDbEntity
  8
YODOROGO
100
AcDbLine
 10
14868.80217064596
 20
764.2207260852821
 30
0.0
 11
14868.80217064596
 21
713.8747482146436
 31
0.0
  0
LINE
  5
172A4
330
125AA
100
AcDbEntity
  8
YODOROGO
100
AcDbLine
 10
14808.80217064596
 20
713.8747482146436
 30
0.0
 11
14868.80217064596
 21
764.2207260852821
 31
0.0
  0
LINE
  5
172A5
330
125AA
100
AcDbEntity
  8
YODOROGO
100
AcDbLine
 10
14808.80217064596
 20
773.8747482146439
 30
0.0
 11
14808.80217064596
 21
713.8747482146436
 31
0.0
  0
LINE
  5
172A6
330
125AA
100
AcDbEntity
  8
YODOROGO
100
AcDbLine
 10
14856.47231434973
 20
813.8747482146436
 30
0.0
 11
14808.80217064596
 21
773.8747482146439
 31
0.0
  0
LINE
  5
172A7
330
125AA
100
AcDbEntity
  8
YODOROGO
100
AcDbLine
 10
14808.80217064596
 20
813.8747482146436
 30
0.0
 11
14856.47231434973
 21
813.8747482146436
 31
0.0
  0
LINE
  5
172A8
330
125AA
100
AcDbEntity
  8
YODOROGO
100
AcDbLine
 10
14808.80217064596
 20
833.8747482146439
 30
0.0
 11
14808.80217064596
 21
813.8747482146436
 31
0.0
  0
LINE
  5
172A9
330
125AA
100
AcDbEntity
  8
YODOROGO
100
AcDbLine
 10
14942.80217064596
 20
833.8747482146439
 30
0.0
 11
14808.80217064596
 21
833.8747482146439
 31
0.0
  0
LINE
  5
172AA
330
125AA
100
AcDbEntity
  8
YODOROGO
100
AcDbLine
 10
14958.80217064596
 20
813.8747482146436
 30
0.0
 11
14888.80217064596
 21
813.8747482146436
 31
0.0
  0
LINE
  5
172AB
330
125AA
100
AcDbEntity
  8
YODOROGO
100
AcDbLine
 10
14888.80217064596
 20
781.0027187088283
 30
0.0
 11
14885.70493649264
 21
778.403830673117
 31
0.0
  0
LINE
  5
172AC
330
125AA
100
AcDbEntity
  8
YODOROGO
100
AcDbLine
 10
14888.80217064596
 20
813.8747482146436
 30
0.0
 11
14888.80217064596
 21
781.0027187088283
 31
0.0
  0
LINE
  5
172AD
330
125AA
100
AcDbEntity
  8
YODOROGO
100
AcDbLine
 10
14868.80217064596
 20
764.2207260852821
 30
0.0
 11
14868.80217064596
 21
713.8747482146436
 31
0.0
  0
LINE
  5
172AE
330
125AA
100
AcDbEntity
  8
YODOROGO
100
AcDbLine
 10
14808.80217064596
 20
713.8747482146436
 30
0.0
 11
14868.80217064596
 21
764.2207260852821
 31
0.0
  0
LINE
  5
172AF
330
125AA
100
AcDbEntity
  8
YODOROGO
100
AcDbLine
 10
14808.80217064596
 20
773.8747482146439
 30
0.0
 11
14808.80217064596
 21
713.8747482146436
 31
0.0
  0
LINE
  5
172B0
330
125AA
100
AcDbEntity
  8
YODOROGO
100
AcDbLine
 10
14856.47231434973
 20
813.8747482146436
 30
0.0
 11
14808.80217064596
 21
773.8747482146439
 31
0.0
  0
LINE
  5
172B1
330
125AA
100
AcDbEntity
  8
YODOROGO
100
AcDbLine
 10
14808.80217064596
 20
813.8747482146436
 30
0.0
 11
14856.47231434973
 21
813.8747482146436
 31
0.0
  0
LINE
  5
172B2
330
125AA
100
AcDbEntity
  8
YODOROGO
100
AcDbLine
 10
14808.80217064596
 20
833.8747482146439
 30
0.0
 11
14808.80217064596
 21
813.8747482146436
 31
0.0
  0
LINE
  5
172B3
330
125AA
100
AcDbEntity
  8
YODOROGO
100
AcDbLine
 10
14942.80217064596
 20
833.8747482146439
 30
0.0
 11
14808.80217064596
 21
833.8747482146439
 31
0.0
  0
LINE
  5
172B4
330
125AA
100
AcDbEntity
  8
YODOROGO
100
AcDbLine
 10
14396.80217064594
 20
873.8747482146449
 30
0.0
 11
14396.80217064594
 21
909.8747482146439
 31
0.0
  0
LINE
  5
172B5
330
125AA
100
AcDbEntity
  8
YODOROGO
100
AcDbLine
 10
14328.80217064595
 20
873.8747482146449
 30
0.0
 11
14396.80217064594
 21
873.8747482146449
 31
0.0
  0
LINE
  5
172B6
330
125AA
100
AcDbEntity
  8
YODOROGO
100
AcDbLine
 10
14364.80217064596
 20
933.8747482146439
 30
0.0
 11
14364.80217064596
 21
961.8747482146432
 31
0.0
  0
LINE
  5
172B7
330
125AA
100
AcDbEntity
  8
YODOROGO
100
AcDbLine
 10
14396.80217064594
 20
933.8747482146439
 30
0.0
 11
14364.80217064596
 21
933.8747482146439
 31
0.0
  0
LINE
  5
172B8
330
125AA
100
AcDbEntity
  8
YODOROGO
100
AcDbLine
 10
14396.80217064594
 20
973.8747482146436
 30
0.0
 11
14396.80217064594
 21
933.8747482146439
 31
0.0
  0
ARC
  5
172B9
330
125AA
100
AcDbEntity
  8
YODOROGO
100
AcDbCircle
 10
14376.80217064595
 20
973.8747482146436
 30
0.0
 40
20.0
100
AcDbArc
 50
0.0
 51
90.0
  0
LINE
  5
172BA
330
125AA
100
AcDbEntity
  8
YODOROGO
100
AcDbLine
 10
14328.80217064596
 20
993.8747482146439
 30
0.0
 11
14376.80217064595
 21
993.8747482146439
 31
0.0
  0
LINE
  5
172BB
330
125AA
100
AcDbEntity
  8
YODOROGO
100
AcDbLine
 10
14328.80217064596
 20
1013.874748214644
 30
0.0
 11
14328.80217064596
 21
993.8747482146439
 31
0.0
  0
LINE
  5
172BC
330
125AA
100
AcDbEntity
  8
YODOROGO
100
AcDbLine
 10
14536.80217064596
 20
1013.874748214644
 30
0.0
 11
14500.80217064595
 21
1013.874748214644
 31
0.0
  0
LINE
  5
172BD
330
125AA
100
AcDbEntity
  8
YODOROGO
100
AcDbLine
 10
14630.80217064596
 20
1003.874748214644
 30
0.0
 11
14598.80217064596
 21
1003.874748214644
 31
0.0
  0
LINE
  5
172BE
330
125AA
100
AcDbEntity
  8
YODOROGO
100
AcDbLine
 10
14728.80217064596
 20
1013.874748214644
 30
0.0
 11
14692.80217064596
 21
1013.874748214644
 31
0.0
  0
LINE
  5
172BF
330
125AA
100
AcDbEntity
  8
YODOROGO
100
AcDbLine
 10
14836.80217064596
 20
853.8747482146439
 30
0.0
 11
14836.80217064596
 21
885.8747482146442
 31
0.0
1001
AUTOCAD_POSTSCRIPT_FIGURE
1002
{
1000
PSFILL
1000
Grayscale
1000
Grayscale
1070
    25
1002
}
  0
LINE
  5
172C0
330
125AA
100
AcDbEntity
  8
YODOROGO
100
AcDbLine
 10
14808.80217064596
 20
853.8747482146439
 30
0.0
 11
14836.80217064596
 21
853.8747482146439
 31
0.0
1001
AUTOCAD_POSTSCRIPT_FIGURE
1002
{
1000
PSFILL
1000
Grayscale
1000
Grayscale
1070
    25
1002
}
  0
LINE
  5
172C1
330
125AA
100
AcDbEntity
  8
YODOROGO
100
AcDbLine
 10
14808.80217064596
 20
909.8747482146439
 30
0.0
 11
14808.80217064596
 21
853.8747482146439
 31
0.0
1001
AUTOCAD_POSTSCRIPT_FIGURE
1002
{
1000
PSFILL
1000
Grayscale
1000
Grayscale
1070
    25
1002
}
  0
LINE
  5
172C2
330
125AA
100
AcDbEntity
  8
YODOROGO
100
AcDbLine
 10
14882.80217064596
 20
909.8747482146439
 30
0.0
 11
14808.80217064596
 21
909.8747482146439
 31
0.0
1001
AUTOCAD_POSTSCRIPT_FIGURE
1002
{
1000
PSFILL
1000
Grayscale
1000
Grayscale
1070
    25
1002
}
  0
LINE
  5
172C3
330
125AA
100
AcDbEntity
  8
YODOROGO
100
AcDbLine
 10
14882.80217064596
 20
929.874748214644
 30
0.0
 11
14882.80217064596
 21
909.8747482146439
 31
0.0
1001
AUTOCAD_POSTSCRIPT_FIGURE
1002
{
1000
PSFILL
1000
Grayscale
1000
Grayscale
1070
    25
1002
}
  0
LINE
  5
172C4
330
125AA
100
AcDbEntity
  8
YODOROGO
100
AcDbLine
 10
14808.80217064596
 20
929.874748214644
 30
0.0
 11
14882.80217064596
 21
929.874748214644
 31
0.0
1001
AUTOCAD_POSTSCRIPT_FIGURE
1002
{
1000
PSFILL
1000
Grayscale
1000
Grayscale
1070
    25
1002
}
  0
LINE
  5
172C5
330
125AA
100
AcDbEntity
  8
YODOROGO
100
AcDbLine
 10
14808.80217064596
 20
953.874748214644
 30
0.0
 11
14808.80217064596
 21
929.874748214644
 31
0.0
1001
AUTOCAD_POSTSCRIPT_FIGURE
1002
{
1000
PSFILL
1000
Grayscale
1000
Grayscale
1070
    25
1002
}
  0
LINE
  5
172C6
330
125AA
100
AcDbEntity
  8
YODOROGO
100
AcDbLine
 10
14882.80217064596
 20
953.874748214644
 30
0.0
 11
14808.80217064596
 21
953.874748214644
 31
0.0
1001
AUTOCAD_POSTSCRIPT_FIGURE
1002
{
1000
PSFILL
1000
Grayscale
1000
Grayscale
1070
    25
1002
}
  0
LINE
  5
172C7
330
125AA
100
AcDbEntity
  8
YODOROGO
100
AcDbLine
 10
14882.80217064596
 20
973.8747482146436
 30
0.0
 11
14882.80217064596
 21
953.874748214644
 31
0.0
1001
AUTOCAD_POSTSCRIPT_FIGURE
1002
{
1000
PSFILL
1000
Grayscale
1000
Grayscale
1070
    25
1002
}
  0
LINE
  5
172C8
330
125AA
100
AcDbEntity
  8
YODOROGO
100
AcDbLine
 10
14808.80217064596
 20
973.8747482146436
 30
0.0
 11
14882.80217064596
 21
973.8747482146436
 31
0.0
1001
AUTOCAD_POSTSCRIPT_FIGURE
1002
{
1000
PSFILL
1000
Grayscale
1000
Grayscale
1070
    25
1002
}
  0
LINE
  5
172C9
330
125AA
100
AcDbEntity
  8
YODOROGO
100
AcDbLine
 10
14808.80217064596
 20
1013.874748214644
 30
0.0
 11
14808.80217064596
 21
973.8747482146436
 31
0.0
1001
AUTOCAD_POSTSCRIPT_FIGURE
1002
{
1000
PSFILL
1000
Grayscale
1000
Grayscale
1070
    25
1002
}
  0
LINE
  5
172CA
330
125AA
100
AcDbEntity
  8
YODOROGO
100
AcDbLine
 10
14832.80217064596
 20
1013.874748214644
 30
0.0
 11
14808.80217064596
 21
1013.874748214644
 31
0.0
1001
AUTOCAD_POSTSCRIPT_FIGURE
1002
{
1000
PSFILL
1000
Grayscale
1000
Grayscale
1070
    25
1002
}
  0
LINE
  5
172CB
330
125AA
100
AcDbEntity
  8
YODOROGO
100
AcDbLine
 10
14832.80217064596
 20
997.8747482146435
 30
0.0
 11
14832.80217064596
 21
1013.874748214644
 31
0.0
1001
AUTOCAD_POSTSCRIPT_FIGURE
1002
{
1000
PSFILL
1000
Grayscale
1000
Grayscale
1070
    25
1002
}
  0
LINE
  5
172CC
330
125AA
100
AcDbEntity
  8
YODOROGO
100
AcDbLine
 10
14882.80217064596
 20
997.8747482146435
 30
0.0
 11
14832.80217064596
 21
997.8747482146435
 31
0.0
1001
AUTOCAD_POSTSCRIPT_FIGURE
1002
{
1000
PSFILL
1000
Grayscale
1000
Grayscale
1070
    25
1002
}
  0
LINE
  5
172CD
330
125AA
100
AcDbEntity
  8
YODOROGO
100
AcDbLine
 10
14882.80217064596
 20
1013.874748214644
 30
0.0
 11
14882.80217064596
 21
997.8747482146435
 31
0.0
1001
AUTOCAD_POSTSCRIPT_FIGURE
1002
{
1000
PSFILL
1000
Grayscale
1000
Grayscale
1070
    25
1002
}
  0
LINE
  5
172CE
330
125AA
100
AcDbEntity
  8
YODOROGO
100
AcDbLine
 10
14914.80217064596
 20
1013.874748214644
 30
0.0
 11
14882.80217064596
 21
1013.874748214644
 31
0.0
1001
AUTOCAD_POSTSCRIPT_FIGURE
1002
{
1000
PSFILL
1000
Grayscale
1000
Grayscale
1070
    25
1002
}
  0
LINE
  5
172CF
330
125AA
100
AcDbEntity
  8
YODOROGO
100
AcDbLine
 10
14914.80217064596
 20
997.8747482146435
 30
0.0
 11
14914.80217064596
 21
1013.874748214644
 31
0.0
1001
AUTOCAD_POSTSCRIPT_FIGURE
1002
{
1000
PSFILL
1000
Grayscale
1000
Grayscale
1070
    25
1002
}
  0
LINE
  5
172D0
330
125AA
100
AcDbEntity
  8
YODOROGO
100
AcDbLine
 10
14914.80217064596
 20
953.874748214644
 30
0.0
 11
14914.80217064596
 21
973.8747482146436
 31
0.0
1001
AUTOCAD_POSTSCRIPT_FIGURE
1002
{
1000
PSFILL
1000
Grayscale
1000
Grayscale
1070
    25
1002
}
  0
LINE
  5
172D1
330
125AA
100
AcDbEntity
  8
YODOROGO
100
AcDbLine
 10
14914.80217064596
 20
909.8747482146439
 30
0.0
 11
14914.80217064596
 21
929.874748214644
 31
0.0
1001
AUTOCAD_POSTSCRIPT_FIGURE
1002
{
1000
PSFILL
1000
Grayscale
1000
Grayscale
1070
    25
1002
}
  0
LINE
  5
172D2
330
125AA
100
AcDbEntity
  8
YODOROGO
100
AcDbLine
 10
14960.80217064594
 20
885.8747482146442
 30
0.0
 11
14960.80217064594
 21
853.8747482146439
 31
0.0
1001
AUTOCAD_POSTSCRIPT_FIGURE
1002
{
1000
PSFILL
1000
Grayscale
1000
Grayscale
1070
    25
1002
}
  0
LINE
  5
172D3
330
125AA
100
AcDbEntity
  8
YODOROGO
100
AcDbLine
 10
14914.80217064596
 20
885.8747482146442
 30
0.0
 11
14960.80217064594
 21
885.8747482146442
 31
0.0
1001
AUTOCAD_POSTSCRIPT_FIGURE
1002
{
1000
PSFILL
1000
Grayscale
1000
Grayscale
1070
    25
1002
}
  0
LINE
  5
172D4
330
125AA
100
AcDbEntity
  8
YODOROGO
100
AcDbLine
 10
14914.80217064596
 20
853.8747482146439
 30
0.0
 11
14914.80217064596
 21
885.8747482146442
 31
0.0
1001
AUTOCAD_POSTSCRIPT_FIGURE
1002
{
1000
PSFILL
1000
Grayscale
1000
Grayscale
1070
    25
1002
}
  0
LINE
  5
172D5
330
125AA
100
AcDbEntity
  8
YODOROGO
100
AcDbLine
 10
14882.80217064596
 20
853.8747482146439
 30
0.0
 11
14914.80217064596
 21
853.8747482146439
 31
0.0
1001
AUTOCAD_POSTSCRIPT_FIGURE
1002
{
1000
PSFILL
1000
Grayscale
1000
Grayscale
1070
    25
1002
}
  0
LINE
  5
172D6
330
125AA
100
AcDbEntity
  8
YODOROGO
100
AcDbLine
 10
14882.80217064596
 20
885.8747482146442
 30
0.0
 11
14882.80217064596
 21
853.8747482146439
 31
0.0
1001
AUTOCAD_POSTSCRIPT_FIGURE
1002
{
1000
PSFILL
1000
Grayscale
1000
Grayscale
1070
    25
1002
}
  0
LINE
  5
172D7
330
125AA
100
AcDbEntity
  8
YODOROGO
100
AcDbLine
 10
14836.80217064596
 20
885.8747482146442
 30
0.0
 11
14882.80217064596
 21
885.8747482146442
 31
0.0
1001
AUTOCAD_POSTSCRIPT_FIGURE
1002
{
1000
PSFILL
1000
Grayscale
1000
Grayscale
1070
    25
1002
}
  0
ARC
  5
172D8
330
125AA
100
AcDbEntity
  8
YODOROGO
100
AcDbCircle
 10
15529.75894667896
 20
801.3403687577882
 30
0.0
 40
89.11064055536078
100
AcDbArc
 50
281.0262749542535
 51
357.771135755738
  0
LINE
  5
172D9
330
125AA
100
AcDbEntity
  8
YODOROGO
100
AcDbLine
 10
15706.80217064596
 20
953.874748214644
 30
0.0
 11
15582.80217064596
 21
953.874748214644
 31
0.0
  0
LINE
  5
172DA
330
125AA
100
AcDbEntity
  8
YODOROGO
100
AcDbLine
 10
15706.80217064596
 20
1013.874748214644
 30
0.0
 11
15582.80217064596
 21
1013.874748214644
 31
0.0
  0
LINE
  5
172DB
330
125AA
100
AcDbEntity
  8
YODOROGO
100
AcDbLine
 10
15582.80217064596
 20
981.8747482146434
 30
0.0
 11
15706.80217064596
 21
981.8747482146434
 31
0.0
  0
LINE
  5
172DC
330
125AA
100
AcDbEntity
  8
YODOROGO
100
AcDbLine
 10
15395.80217064596
 20
781.8747482146434
 30
0.0
 11
15395.80217064596
 21
877.8747482146437
 31
0.0
  0
LINE
  5
172DD
330
125AA
100
AcDbEntity
  8
YODOROGO
100
AcDbLine
 10
15381.80217064596
 20
845.8747482146444
 30
0.0
 11
15381.80217064596
 21
781.8747482146434
 31
0.0
  0
LINE
  5
172DE
330
125AA
100
AcDbEntity
  8
YODOROGO
100
AcDbLine
 10
15361.80217064596
 20
745.8747482146443
 30
0.0
 11
15361.80217064596
 21
845.8747482146444
 31
0.0
  0
LINE
  5
172DF
330
125AA
100
AcDbEntity
  8
YODOROGO
100
AcDbLine
 10
15449.80217064596
 20
845.8747482146444
 30
0.0
 11
15449.80217064596
 21
745.8747482146443
 31
0.0
  0
LINE
  5
172E0
330
125AA
100
AcDbEntity
  8
YODOROGO
100
AcDbLine
 10
15429.80217064596
 20
781.8747482146434
 30
0.0
 11
15429.80217064596
 21
845.8747482146444
 31
0.0
  0
LINE
  5
172E1
330
125AA
100
AcDbEntity
  8
YODOROGO
100
AcDbLine
 10
15415.80217064596
 20
877.8747482146437
 30
0.0
 11
15415.80217064596
 21
781.8747482146434
 31
0.0
  0
LINE
  5
172E2
330
125AA
100
AcDbEntity
  8
YODOROGO
100
AcDbLine
 10
15486.80217064596
 20
1013.874748214644
 30
0.0
 11
15486.80217064596
 21
733.8747482146437
 31
0.0
  0
LINE
  5
172E3
330
125AA
100
AcDbEntity
  8
YODOROGO
100
AcDbLine
 10
15322.80217064596
 20
713.8747482146436
 30
0.0
 11
15322.80217064596
 21
1013.874748214644
 31
0.0
  0
LINE
  5
172E4
330
125AA
100
AcDbEntity
  8
YODOROGO
100
AcDbLine
 10
15348.80217064596
 20
981.8747482146434
 30
0.0
 11
15348.80217064596
 21
713.8747482146436
 31
0.0
  0
LINE
  5
172E5
330
125AA
100
AcDbEntity
  8
YODOROGO
100
AcDbLine
 10
15462.80217064596
 20
773.8747482146439
 30
0.0
 11
15462.80217064596
 21
981.8747482146434
 31
0.0
  0
LINE
  5
172E6
330
125AA
100
AcDbEntity
  8
YODOROGO
100
AcDbLine
 10
15190.80217064596
 20
813.8747482146436
 30
0.0
 11
15190.80217064596
 21
839.8747482146443
 31
0.0
  0
LINE
  5
172E7
330
125AA
100
AcDbEntity
  8
YODOROGO
100
AcDbLine
 10
15308.80217064596
 20
839.8747482146443
 30
0.0
 11
15308.80217064596
 21
813.8747482146436
 31
0.0
  0
LINE
  5
172E8
330
125AA
100
AcDbEntity
  8
YODOROGO
100
AcDbLine
 10
15582.80217064596
 20
953.874748214644
 30
0.0
 11
15582.80217064596
 21
817.8747482146436
 31
0.0
  0
LINE
  5
172E9
330
125AA
100
AcDbEntity
  8
YODOROGO
100
AcDbLine
 10
14974.80217064595
 20
833.8747482146439
 30
0.0
 11
14974.80217064595
 21
853.8747482146439
 31
0.0
  0
LINE
  5
172EA
330
125AA
100
AcDbEntity
  8
YODOROGO
100
AcDbLine
 10
14974.80217064595
 20
833.8747482146439
 30
0.0
 11
14974.80217064595
 21
853.8747482146439
 31
0.0
  0
ARC
  5
172EB
330
125AA
100
AcDbEntity
  8
YODOROGO
100
AcDbCircle
 10
15268.80217064596
 20
753.8747482146439
 30
0.0
 40
40.0
100
AcDbArc
 50
270.0
 51
0.0
  0
LINE
  5
172EC
330
125AA
100
AcDbEntity
  8
YODOROGO
100
AcDbLine
 10
15284.80217064596
 20
799.8747482146441
 30
0.0
 11
15308.80217064596
 21
799.8747482146441
 31
0.0
  0
LINE
  5
172ED
330
125AA
100
AcDbEntity
  8
YODOROGO
100
AcDbLine
 10
15308.80217064596
 20
813.8747482146436
 30
0.0
 11
15264.80217064596
 21
813.8747482146436
 31
0.0
  0
LINE
  5
172EE
330
125AA
100
AcDbEntity
  8
YODOROGO
100
AcDbLine
 10
15108.80217064596
 20
833.8747482146439
 30
0.0
 11
14974.80217064595
 21
833.8747482146439
 31
0.0
  0
LINE
  5
172EF
330
125AA
100
AcDbEntity
  8
YODOROGO
100
AcDbLine
 10
15108.80217064596
 20
813.8747482146436
 30
0.0
 11
15108.80217064596
 21
833.8747482146439
 31
0.0
  0
LINE
  5
172F0
330
125AA
100
AcDbEntity
  8
YODOROGO
100
AcDbLine
 10
15008.80217064596
 20
813.8747482146436
 30
0.0
 11
15108.80217064596
 21
813.8747482146436
 31
0.0
  0
ARC
  5
172F1
330
125AA
100
AcDbEntity
  8
YODOROGO
100
AcDbCircle
 10
15115.02941435068
 20
934.4428574764513
 30
0.0
 40
160.6888181426141
100
AcDbArc
 50
228.6181454618993
 51
245.660289248906
  0
LINE
  5
172F2
330
125AA
100
AcDbEntity
  8
YODOROGO
100
AcDbLine
 10
15052.80217064596
 20
801.8747482146446
 30
0.0
 11
15048.80217064598
 21
788.0364079349501
 31
0.0
  0
LINE
  5
172F3
330
125AA
100
AcDbEntity
  8
YODOROGO
100
AcDbLine
 10
15094.80217064596
 20
801.8747482146446
 30
0.0
 11
15052.80217064596
 21
801.8747482146446
 31
0.0
  0
LINE
  5
172F4
330
125AA
100
AcDbEntity
  8
YODOROGO
100
AcDbLine
 10
15088.80217064596
 20
775.9088612367134
 30
0.0
 11
15094.80217064596
 21
801.8747482146446
 31
0.0
  0
ARC
  5
172F5
330
125AA
100
AcDbEntity
  8
YODOROGO
100
AcDbCircle
 10
15115.02941435023
 20
934.4428574765013
 30
0.0
 40
160.6888181426453
100
AcDbArc
 50
260.6062929796993
 51
267.7790355655585
  0
LINE
  5
172F6
330
125AA
100
AcDbEntity
  8
YODOROGO
100
AcDbLine
 10
15108.80217064596
 20
713.8747482146428
 30
0.0
 11
15108.80217064596
 21
773.8747482146439
 31
0.0
  0
LINE
  5
172F7
330
125AA
100
AcDbEntity
  8
YODOROGO
100
AcDbLine
 10
14968.80217064596
 20
740.6696674577553
 30
0.0
 11
14968.80217064596
 21
797.2655452655707
 31
0.0
  0
LINE
  5
172F8
330
125AA
100
AcDbEntity
  8
YODOROGO
100
AcDbLine
 10
15108.80217064596
 20
833.8747482146439
 30
0.0
 11
14974.80217064595
 21
833.8747482146439
 31
0.0
  0
LINE
  5
172F9
330
125AA
100
AcDbEntity
  8
YODOROGO
100
AcDbLine
 10
15108.80217064596
 20
813.8747482146436
 30
0.0
 11
15108.80217064596
 21
833.8747482146439
 31
0.0
  0
LINE
  5
172FA
330
125AA
100
AcDbEntity
  8
YODOROGO
100
AcDbLine
 10
15008.80217064596
 20
813.8747482146436
 30
0.0
 11
15108.80217064596
 21
813.8747482146436
 31
0.0
  0
ARC
  5
172FB
330
125AA
100
AcDbEntity
  8
YODOROGO
100
AcDbCircle
 10
15115.02941435068
 20
934.4428574764513
 30
0.0
 40
160.6888181426141
100
AcDbArc
 50
228.6181454618993
 51
245.660289248906
  0
LINE
  5
172FC
330
125AA
100
AcDbEntity
  8
YODOROGO
100
AcDbLine
 10
15052.80217064596
 20
801.8747482146446
 30
0.0
 11
15048.80217064598
 21
788.0364079349501
 31
0.0
  0
LINE
  5
172FD
330
125AA
100
AcDbEntity
  8
YODOROGO
100
AcDbLine
 10
15094.80217064596
 20
801.8747482146446
 30
0.0
 11
15052.80217064596
 21
801.8747482146446
 31
0.0
  0
LINE
  5
172FE
330
125AA
100
AcDbEntity
  8
YODOROGO
100
AcDbLine
 10
15088.80217064596
 20
775.9088612367134
 30
0.0
 11
15094.80217064596
 21
801.8747482146446
 31
0.0
  0
ARC
  5
172FF
330
125AA
100
AcDbEntity
  8
YODOROGO
100
AcDbCircle
 10
15115.02941435023
 20
934.4428574765013
 30
0.0
 40
160.6888181426453
100
AcDbArc
 50
260.6062929796993
 51
267.7790355655585
  0
LINE
  5
17300
330
125AA
100
AcDbEntity
  8
YODOROGO
100
AcDbLine
 10
15108.80217064596
 20
713.8747482146428
 30
0.0
 11
15108.80217064596
 21
773.8747482146439
 31
0.0
  0
LINE
  5
17301
330
125AA
100
AcDbEntity
  8
YODOROGO
100
AcDbLine
 10
14968.80217064596
 20
740.6696674577553
 30
0.0
 11
14968.80217064596
 21
797.2655452655707
 31
0.0
  0
LINE
  5
17302
330
125AA
100
AcDbEntity
  8
YODOROGO
100
AcDbLine
 10
15216.80217064596
 20
786.8747482146446
 30
0.0
 11
15190.80217064596
 21
786.8747482146446
 31
0.0
  0
LINE
  5
17303
330
125AA
100
AcDbEntity
  8
YODOROGO
100
AcDbLine
 10
15216.80217064596
 20
800.8747482146432
 30
0.0
 11
15216.80217064596
 21
786.8747482146446
 31
0.0
  0
LINE
  5
17304
330
125AA
100
AcDbEntity
  8
YODOROGO
100
AcDbLine
 10
15190.80217064596
 20
800.8747482146432
 30
0.0
 11
15216.80217064596
 21
800.8747482146432
 31
0.0
  0
LINE
  5
17305
330
125AA
100
AcDbEntity
  8
YODOROGO
100
AcDbLine
 10
15190.80217064596
 20
786.8747482146446
 30
0.0
 11
15190.80217064596
 21
800.8747482146432
 31
0.0
  0
LINE
  5
17306
330
125AA
100
AcDbEntity
  8
YODOROGO
100
AcDbLine
 10
15214.80217064596
 20
788.8747482146436
 30
0.0
 11
15192.80217064595
 21
788.8747482146436
 31
0.0
  0
LINE
  5
17307
330
125AA
100
AcDbEntity
  8
YODOROGO
100
AcDbLine
 10
15214.80217064596
 20
798.8747482146439
 30
0.0
 11
15214.80217064596
 21
788.8747482146436
 31
0.0
  0
LINE
  5
17308
330
125AA
100
AcDbEntity
  8
YODOROGO
100
AcDbLine
 10
15192.80217064595
 20
798.8747482146439
 30
0.0
 11
15214.80217064596
 21
798.8747482146439
 31
0.0
  0
LINE
  5
17309
330
125AA
100
AcDbEntity
  8
YODOROGO
100
AcDbLine
 10
15192.80217064595
 20
788.8747482146436
 30
0.0
 11
15192.80217064595
 21
798.8747482146439
 31
0.0
  0
LINE
  5
1730A
330
125AA
100
AcDbEntity
  8
YODOROGO
100
AcDbLine
 10
15212.80217064596
 20
790.8747482146432
 30
0.0
 11
15194.80217064596
 21
790.8747482146432
 31
0.0
  0
LINE
  5
1730B
330
125AA
100
AcDbEntity
  8
YODOROGO
100
AcDbLine
 10
15212.80217064596
 20
796.8747482146445
 30
0.0
 11
15212.80217064596
 21
790.8747482146432
 31
0.0
  0
LINE
  5
1730C
330
125AA
100
AcDbEntity
  8
YODOROGO
100
AcDbLine
 10
15194.80217064596
 20
796.8747482146445
 30
0.0
 11
15212.80217064596
 21
796.8747482146445
 31
0.0
  0
LINE
  5
1730D
330
125AA
100
AcDbEntity
  8
YODOROGO
100
AcDbLine
 10
15194.80217064596
 20
790.8747482146432
 30
0.0
 11
15194.80217064596
 21
796.8747482146445
 31
0.0
  0
LINE
  5
1730E
330
125AA
100
AcDbEntity
  8
YODOROGO
100
AcDbLine
 10
15210.80217064596
 20
792.8747482146435
 30
0.0
 11
15196.80217064596
 21
792.8747482146435
 31
0.0
  0
LINE
  5
1730F
330
125AA
100
AcDbEntity
  8
YODOROGO
100
AcDbLine
 10
15210.80217064596
 20
794.8747482146441
 30
0.0
 11
15210.80217064596
 21
792.8747482146435
 31
0.0
  0
LINE
  5
17310
330
125AA
100
AcDbEntity
  8
YODOROGO
100
AcDbLine
 10
15196.80217064596
 20
794.8747482146441
 30
0.0
 11
15210.80217064596
 21
794.8747482146441
 31
0.0
  0
LINE
  5
17311
330
125AA
100
AcDbEntity
  8
YODOROGO
100
AcDbLine
 10
15196.80217064596
 20
792.8747482146435
 30
0.0
 11
15196.80217064596
 21
794.8747482146441
 31
0.0
  0
LINE
  5
17312
330
125AA
100
AcDbEntity
  8
YODOROGO
100
AcDbLine
 10
15232.80217064596
 20
813.8747482146436
 30
0.0
 11
15190.80217064596
 21
813.8747482146436
 31
0.0
  0
LINE
  5
17313
330
125AA
100
AcDbEntity
  8
YODOROGO
100
AcDbLine
 10
15232.80217064596
 20
773.8747482146439
 30
0.0
 11
15232.80217064596
 21
813.8747482146436
 31
0.0
  0
LINE
  5
17314
330
125AA
100
AcDbEntity
  8
YODOROGO
100
AcDbLine
 10
15190.80217064596
 20
773.8747482146439
 30
0.0
 11
15232.80217064596
 21
773.8747482146439
 31
0.0
  0
LINE
  5
17315
330
125AA
100
AcDbEntity
  8
YODOROGO
100
AcDbLine
 10
15190.80217064596
 20
713.8747482146436
 30
0.0
 11
15190.80217064596
 21
773.8747482146439
 31
0.0
  0
LINE
  5
17316
330
125AA
100
AcDbEntity
  8
YODOROGO
100
AcDbLine
 10
15268.80217064596
 20
713.8747482146436
 30
0.0
 11
15190.80217064596
 21
713.8747482146436
 31
0.0
  0
LINE
  5
17317
330
125AA
100
AcDbEntity
  8
YODOROGO
100
AcDbLine
 10
15284.80217064596
 20
785.8747482146432
 30
0.0
 11
15284.80217064596
 21
799.8747482146441
 31
0.0
  0
ARC
  5
17318
330
125AA
100
AcDbEntity
  8
YODOROGO
100
AcDbCircle
 10
15272.80217064594
 20
785.8747482146457
 30
0.0
 40
12.00000000000186
100
AcDbArc
 50
270.0
 51
359.9999999999877
  0
LINE
  5
17319
330
125AA
100
AcDbEntity
  8
YODOROGO
100
AcDbLine
 10
15264.80217064596
 20
773.8747482146439
 30
0.0
 11
15272.80217064594
 21
773.8747482146439
 31
0.0
  0
LINE
  5
1731A
330
125AA
100
AcDbEntity
  8
YODOROGO
100
AcDbLine
 10
15264.80217064596
 20
813.8747482146436
 30
0.0
 11
15264.80217064596
 21
773.8747482146439
 31
0.0
  0
LINE
  5
1731B
330
125AA
100
AcDbEntity
  8
YODOROGO
100
AcDbLine
 10
15449.80217064597
 20
773.8747482146439
 30
0.0
 11
15462.80217064596
 21
773.8747482146439
 31
0.0
  0
LINE
  5
1731C
330
125AA
100
AcDbEntity
  8
YODOROGO
100
AcDbLine
 10
15466.80217064596
 20
713.8747482146436
 30
0.0
 11
15449.80217064596
 21
713.8747482146436
 31
0.0
  0
LINE
  5
1731D
330
125AA
100
AcDbEntity
  8
YODOROGO
100
AcDbLine
 10
15381.80217064596
 20
781.8747482146434
 30
0.0
 11
15395.80217064596
 21
781.8747482146434
 31
0.0
  0
LINE
  5
1731E
330
125AA
100
AcDbEntity
  8
YODOROGO
100
AcDbLine
 10
15449.80217064596
 20
745.8747482146443
 30
0.0
 11
15361.80217064596
 21
745.8747482146443
 31
0.0
  0
LINE
  5
1731F
330
125AA
100
AcDbEntity
  8
YODOROGO
100
AcDbLine
 10
15415.80217064596
 20
781.8747482146434
 30
0.0
 11
15429.80217064596
 21
781.8747482146434
 31
0.0
  0
LINE
  5
17320
330
125AA
100
AcDbEntity
  8
YODOROGO
100
AcDbLine
 10
15449.80217064596
 20
713.8747482146436
 30
0.0
 11
15449.80217064597
 21
773.8747482146439
 31
0.0
  0
LINE
  5
17321
330
125AA
100
AcDbEntity
  8
YODOROGO
100
AcDbLine
 10
15348.80217064596
 20
713.8747482146436
 30
0.0
 11
15322.80217064596
 21
713.8747482146436
 31
0.0
  0
LINE
  5
17322
330
125AA
100
AcDbEntity
  8
YODOROGO
100
AcDbLine
 10
15308.80217064596
 20
799.8747482146441
 30
0.0
 11
15308.80217064596
 21
753.8747482146439
 31
0.0
  0
ARC
  5
17323
330
125AA
100
AcDbEntity
  8
YODOROGO
100
AcDbCircle
 10
15466.80217064596
 20
733.8747482146437
 30
0.0
 40
20.0
100
AcDbArc
 50
270.0
 51
0.0
  0
LINE
  5
17324
330
125AA
100
AcDbEntity
  8
YODOROGO
100
AcDbLine
 10
15546.80217064596
 20
761.8747482146434
 30
0.0
 11
15546.80217064596
 21
713.8747482146436
 31
0.0
  0
ARC
  5
17325
330
125AA
100
AcDbEntity
  8
YODOROGO
100
AcDbCircle
 10
15519.86069778339
 20
818.7656950548667
 30
0.0
 40
62.94777829583771
100
AcDbArc
 50
295.3405244216011
 51
359.1890230341867
  0
LINE
  5
17326
330
125AA
100
AcDbEntity
  8
YODOROGO
100
AcDbLine
 10
15308.80217064596
 20
929.874748214644
 30
0.0
 11
15248.80217064596
 21
969.8747482146441
 31
0.0
  0
LINE
  5
17327
330
125AA
100
AcDbEntity
  8
YODOROGO
100
AcDbLine
 10
15248.80217064596
 20
1013.874748214644
 30
0.0
 11
15308.80217064596
 21
973.8747482146436
 31
0.0
  0
LINE
  5
17328
330
125AA
100
AcDbEntity
  8
YODOROGO
100
AcDbLine
 10
15264.80217064596
 20
839.8747482146443
 30
0.0
 11
15308.80217064596
 21
839.8747482146443
 31
0.0
  0
LINE
  5
17329
330
125AA
100
AcDbEntity
  8
YODOROGO
100
AcDbLine
 10
15308.80217064596
 20
867.8747482146436
 30
0.0
 11
15264.80217064596
 21
867.8747482146436
 31
0.0
  0
LINE
  5
1732A
330
125AA
100
AcDbEntity
  8
YODOROGO
100
AcDbLine
 10
15190.80217064596
 20
897.8747482146435
 30
0.0
 11
15308.80217064596
 21
897.8747482146435
 31
0.0
  0
LINE
  5
1732B
330
125AA
100
AcDbEntity
  8
YODOROGO
100
AcDbLine
 10
15040.80217064596
 20
1013.874748214644
 30
0.0
 11
15010.80217064596
 21
1013.874748214644
 31
0.0
  0
LINE
  5
1732C
330
125AA
100
AcDbEntity
  8
YODOROGO
100
AcDbLine
 10
15040.80217064596
 20
913.8747482146436
 30
0.0
 11
15040.80217064596
 21
1013.874748214644
 31
0.0
  0
LINE
  5
1732D
330
125AA
100
AcDbEntity
  8
YODOROGO
100
AcDbLine
 10
15010.80217064596
 20
913.8747482146436
 30
0.0
 11
15040.80217064596
 21
913.8747482146436
 31
0.0
  0
LINE
  5
1732E
330
125AA
100
AcDbEntity
  8
YODOROGO
100
AcDbLine
 10
15010.80217064596
 20
1013.874748214644
 30
0.0
 11
15010.80217064596
 21
913.8747482146436
 31
0.0
  0
LINE
  5
1732F
330
125AA
100
AcDbEntity
  8
YODOROGO
100
AcDbLine
 10
15080.80217064596
 20
1013.874748214644
 30
0.0
 11
15108.80217064596
 21
1013.874748214644
 31
0.0
  0
LINE
  5
17330
330
125AA
100
AcDbEntity
  8
YODOROGO
100
AcDbLine
 10
15080.80217064596
 20
905.8747482146443
 30
0.0
 11
15080.80217064596
 21
1013.874748214644
 31
0.0
  0
ARC
  5
17331
330
125AA
100
AcDbEntity
  8
YODOROGO
100
AcDbCircle
 10
15060.80217064596
 20
905.8747482146443
 30
0.0
 40
20.0
100
AcDbArc
 50
270.0
 51
0.0
  0
LINE
  5
17332
330
125AA
100
AcDbEntity
  8
YODOROGO
100
AcDbLine
 10
15010.80217064596
 20
885.8747482146442
 30
0.0
 11
15060.80217064596
 21
885.8747482146442
 31
0.0
  0
LINE
  5
17333
330
125AA
100
AcDbEntity
  8
YODOROGO
100
AcDbLine
 10
15010.80217064596
 20
853.8747482146439
 30
0.0
 11
15010.80217064596
 21
885.8747482146442
 31
0.0
  0
LINE
  5
17334
330
125AA
100
AcDbEntity
  8
YODOROGO
100
AcDbLine
 10
15068.80217064596
 20
853.8747482146439
 30
0.0
 11
15010.80217064596
 21
853.8747482146439
 31
0.0
  0
ARC
  5
17335
330
125AA
100
AcDbEntity
  8
YODOROGO
100
AcDbCircle
 10
15068.80217064596
 20
893.8747482146439
 30
0.0
 40
40.0
100
AcDbArc
 50
270.0
 51
0.0
  0
LINE
  5
17336
330
125AA
100
AcDbEntity
  8
YODOROGO
100
AcDbLine
 10
15108.80217064596
 20
1013.874748214644
 30
0.0
 11
15108.80217064596
 21
893.8747482146439
 31
0.0
  0
LINE
  5
17337
330
125AA
100
AcDbEntity
  8
YODOROGO
100
AcDbLine
 10
14988.80217064596
 20
973.8747482146436
 30
0.0
 11
14988.80217064596
 21
997.8747482146435
 31
0.0
1001
AUTOCAD_POSTSCRIPT_FIGURE
1002
{
1000
PSFILL
1000
Grayscale
1000
Grayscale
1070
    25
1002
}
  0
LINE
  5
17338
330
125AA
100
AcDbEntity
  8
YODOROGO
100
AcDbLine
 10
14988.80217064596
 20
929.874748214644
 30
0.0
 11
14988.80217064596
 21
953.874748214644
 31
0.0
1001
AUTOCAD_POSTSCRIPT_FIGURE
1002
{
1000
PSFILL
1000
Grayscale
1000
Grayscale
1070
    25
1002
}
  0
LINE
  5
17339
330
125AA
100
AcDbEntity
  8
YODOROGO
100
AcDbLine
 10
14988.80217064596
 20
853.8747482146439
 30
0.0
 11
14988.80217064596
 21
909.8747482146439
 31
0.0
1001
AUTOCAD_POSTSCRIPT_FIGURE
1002
{
1000
PSFILL
1000
Grayscale
1000
Grayscale
1070
    25
1002
}
  0
LINE
  5
1733A
330
125AA
100
AcDbEntity
  8
YODOROGO
100
AcDbLine
 10
15190.80217064596
 20
953.874748214644
 30
0.0
 11
15248.80217064596
 21
1013.874748214644
 31
0.0
  0
LINE
  5
1733B
330
125AA
100
AcDbEntity
  8
YODOROGO
100
AcDbLine
 10
15190.80217064596
 20
909.8747482146439
 30
0.0
 11
15190.80217064596
 21
953.874748214644
 31
0.0
  0
LINE
  5
1733C
330
125AA
100
AcDbEntity
  8
YODOROGO
100
AcDbLine
 10
15248.80217064596
 20
969.8747482146441
 30
0.0
 11
15190.80217064596
 21
909.8747482146439
 31
0.0
  0
LINE
  5
1733D
330
125AA
100
AcDbEntity
  8
YODOROGO
100
AcDbLine
 10
15232.80217064596
 20
839.8747482146443
 30
0.0
 11
15232.80217064596
 21
867.8747482146436
 31
0.0
  0
LINE
  5
1733E
330
125AA
100
AcDbEntity
  8
YODOROGO
100
AcDbLine
 10
15190.80217064596
 20
839.8747482146443
 30
0.0
 11
15232.80217064596
 21
839.8747482146443
 31
0.0
  0
LINE
  5
1733F
330
125AA
100
AcDbEntity
  8
YODOROGO
100
AcDbLine
 10
15264.80217064596
 20
867.8747482146436
 30
0.0
 11
15264.80217064596
 21
839.8747482146443
 31
0.0
  0
LINE
  5
17340
330
125AA
100
AcDbEntity
  8
YODOROGO
100
AcDbLine
 10
15190.80217064596
 20
867.8747482146436
 30
0.0
 11
15190.80217064596
 21
897.8747482146435
 31
0.0
  0
LINE
  5
17341
330
125AA
100
AcDbEntity
  8
YODOROGO
100
AcDbLine
 10
15232.80217064596
 20
867.8747482146436
 30
0.0
 11
15190.80217064596
 21
867.8747482146436
 31
0.0
  0
LINE
  5
17342
330
125AA
100
AcDbEntity
  8
YODOROGO
100
AcDbLine
 10
15322.80217064596
 20
1013.874748214644
 30
0.0
 11
15486.80217064596
 21
1013.874748214644
 31
0.0
  0
LINE
  5
17343
330
125AA
100
AcDbEntity
  8
YODOROGO
100
AcDbLine
 10
15462.80217064596
 20
981.8747482146434
 30
0.0
 11
15348.80217064596
 21
981.8747482146434
 31
0.0
  0
LINE
  5
17344
330
125AA
100
AcDbEntity
  8
YODOROGO
100
AcDbLine
 10
15436.80217064595
 20
909.8747482146439
 30
0.0
 11
15449.80217064596
 21
909.8747482146439
 31
0.0
  0
LINE
  5
17345
330
125AA
100
AcDbEntity
  8
YODOROGO
100
AcDbLine
 10
15449.80217064596
 20
969.8747482146441
 30
0.0
 11
15436.80217064595
 21
909.8747482146439
 31
0.0
  0
LINE
  5
17346
330
125AA
100
AcDbEntity
  8
YODOROGO
100
AcDbLine
 10
15425.80217064596
 20
969.8747482146441
 30
0.0
 11
15449.80217064596
 21
969.8747482146441
 31
0.0
  0
LINE
  5
17347
330
125AA
100
AcDbEntity
  8
YODOROGO
100
AcDbLine
 10
15412.80217064596
 20
909.8747482146439
 30
0.0
 11
15425.80217064596
 21
969.8747482146441
 31
0.0
  0
LINE
  5
17348
330
125AA
100
AcDbEntity
  8
YODOROGO
100
AcDbLine
 10
15398.80217064596
 20
909.8747482146439
 30
0.0
 11
15412.80217064596
 21
909.8747482146439
 31
0.0
  0
LINE
  5
17349
330
125AA
100
AcDbEntity
  8
YODOROGO
100
AcDbLine
 10
15385.80217064596
 20
969.8747482146441
 30
0.0
 11
15398.80217064596
 21
909.8747482146439
 31
0.0
  0
LINE
  5
1734A
330
125AA
100
AcDbEntity
  8
YODOROGO
100
AcDbLine
 10
15361.80217064596
 20
969.8747482146441
 30
0.0
 11
15385.80217064596
 21
969.8747482146441
 31
0.0
  0
LINE
  5
1734B
330
125AA
100
AcDbEntity
  8
YODOROGO
100
AcDbLine
 10
15374.80217064596
 20
909.8747482146439
 30
0.0
 11
15361.80217064596
 21
969.8747482146441
 31
0.0
  0
LINE
  5
1734C
330
125AA
100
AcDbEntity
  8
YODOROGO
100
AcDbLine
 10
15361.80217064596
 20
909.8747482146439
 30
0.0
 11
15374.80217064596
 21
909.8747482146439
 31
0.0
  0
LINE
  5
1734D
330
125AA
100
AcDbEntity
  8
YODOROGO
100
AcDbLine
 10
15361.80217064596
 20
877.8747482146437
 30
0.0
 11
15361.80217064596
 21
909.8747482146439
 31
0.0
  0
LINE
  5
1734E
330
125AA
100
AcDbEntity
  8
YODOROGO
100
AcDbLine
 10
15449.80217064596
 20
877.8747482146437
 30
0.0
 11
15361.80217064596
 21
877.8747482146437
 31
0.0
  0
LINE
  5
1734F
330
125AA
100
AcDbEntity
  8
YODOROGO
100
AcDbLine
 10
15449.80217064596
 20
909.8747482146439
 30
0.0
 11
15449.80217064596
 21
877.8747482146437
 31
0.0
  0
LINE
  5
17350
330
125AA
100
AcDbEntity
  8
YODOROGO
100
AcDbLine
 10
15308.80217064596
 20
973.8747482146436
 30
0.0
 11
15308.80217064596
 21
929.874748214644
 31
0.0
  0
LINE
  5
17351
330
125AA
100
AcDbEntity
  8
YODOROGO
100
AcDbLine
 10
15395.80217064596
 20
877.8747482146437
 30
0.0
 11
15415.80217064596
 21
877.8747482146437
 31
0.0
  0
LINE
  5
17352
330
125AA
100
AcDbEntity
  8
YODOROGO
100
AcDbLine
 10
15361.80217064596
 20
845.8747482146444
 30
0.0
 11
15381.80217064596
 21
845.8747482146444
 31
0.0
  0
LINE
  5
17353
330
125AA
100
AcDbEntity
  8
YODOROGO
100
AcDbLine
 10
15429.80217064596
 20
845.8747482146444
 30
0.0
 11
15449.80217064596
 21
845.8747482146444
 31
0.0
  0
LINE
  5
17354
330
125AA
100
AcDbEntity
  8
YODOROGO
100
AcDbLine
 10
15308.80217064596
 20
897.8747482146435
 30
0.0
 11
15308.80217064596
 21
867.8747482146436
 31
0.0
  0
LINE
  5
17355
330
125AA
100
AcDbEntity
  8
YODOROGO
100
AcDbLine
 10
15582.80217064596
 20
1013.874748214644
 30
0.0
 11
15582.80217064596
 21
981.8747482146434
 31
0.0
  0
LINE
  5
17356
330
125AA
100
AcDbEntity
  8
YODOROGO
100
AcDbLine
 10
15766.80217064596
 20
797.8747482146435
 30
0.0
 11
15766.80217064595
 21
905.8747482146443
 31
0.0
  0
LINE
  5
17357
330
125AA
100
AcDbEntity
  8
YODOROGO
100
AcDbLine
 10
15730.80217064594
 20
993.8747482146439
 30
0.0
 11
15730.80217064594
 21
817.8747482146436
 31
0.0
  0
LINE
  5
17358
330
125AA
100
AcDbEntity
  8
YODOROGO
100
AcDbLine
 10
15826.80217064596
 20
713.8747482146436
 30
0.0
 11
15826.80217064595
 21
905.8747482146443
 31
0.0
  0
LINE
  5
17359
330
125AA
100
AcDbEntity
  8
YODOROGO
100
AcDbLine
 10
15794.80217064596
 20
905.8747482146443
 30
0.0
 11
15794.80217064596
 21
713.8747482146436
 31
0.0
  0
LINE
  5
1735A
330
125AA
100
AcDbEntity
  8
YODOROGO
100
AcDbLine
 10
15618.80217064596
 20
797.8747482146435
 30
0.0
 11
15618.80217064596
 21
853.8747482146439
 31
0.0
  0
ARC
  5
1735B
330
125AA
100
AcDbEntity
  8
YODOROGO
100
AcDbCircle
 10
15676.95743255803
 20
803.8951756442788
 30
0.0
 40
90.04622428799429
100
AcDbArc
 50
268.6284910216979
 51
356.1663845733032
  0
LINE
  5
1735C
330
125AA
100
AcDbEntity
  8
YODOROGO
100
AcDbLine
 10
15674.80217064596
 20
763.8747482146436
 30
0.0
 11
15674.80217064596
 21
713.8747482146436
 31
0.0
  0
ARC
  5
1735D
330
125AA
100
AcDbEntity
  8
YODOROGO
100
AcDbCircle
 10
15675.75903786228
 20
818.9194785088275
 30
0.0
 40
55.05304649180608
100
AcDbArc
 50
269.0041020930593
 51
358.9126445549248
  0
LINE
  5
1735E
330
125AA
100
AcDbEntity
  8
YODOROGO
100
AcDbLine
 10
15794.80217064596
 20
713.8747482146436
 30
0.0
 11
15826.80217064596
 21
713.8747482146436
 31
0.0
  0
LINE
  5
1735F
330
125AA
100
AcDbEntity
  8
YODOROGO
100
AcDbLine
 10
15766.80217064595
 20
905.8747482146443
 30
0.0
 11
15794.80217064596
 21
905.8747482146443
 31
0.0
  0
LINE
  5
17360
330
125AA
100
AcDbEntity
  8
YODOROGO
100
AcDbLine
 10
15810.80217064596
 20
993.8747482146439
 30
0.0
 11
15730.80217064594
 21
993.8747482146439
 31
0.0
  0
LINE
  5
17361
330
125AA
100
AcDbEntity
  8
YODOROGO
100
AcDbLine
 10
15766.80217064595
 20
957.8747482146436
 30
0.0
 11
15830.80217064596
 21
957.8747482146436
 31
0.0
  0
LINE
  5
17362
330
125AA
100
AcDbEntity
  8
YODOROGO
100
AcDbLine
 10
15850.80217064596
 20
937.8747482146435
 30
0.0
 11
15766.80217064595
 21
937.8747482146435
 31
0.0
  0
LINE
  5
17363
330
125AA
100
AcDbEntity
  8
YODOROGO
100
AcDbLine
 10
15618.80217064596
 20
889.8747482146443
 30
0.0
 11
15674.80217064596
 21
889.8747482146443
 31
0.0
  0
LINE
  5
17364
330
125AA
100
AcDbEntity
  8
YODOROGO
100
AcDbLine
 10
15618.80217064596
 20
917.8747482146436
 30
0.0
 11
15618.80217064596
 21
889.8747482146443
 31
0.0
  0
LINE
  5
17365
330
125AA
100
AcDbEntity
  8
YODOROGO
100
AcDbLine
 10
15674.80217064596
 20
917.8747482146436
 30
0.0
 11
15618.80217064596
 21
917.8747482146436
 31
0.0
  0
LINE
  5
17366
330
125AA
100
AcDbEntity
  8
YODOROGO
100
AcDbLine
 10
15674.80217064596
 20
889.8747482146443
 30
0.0
 11
15674.80217064596
 21
917.8747482146436
 31
0.0
  0
LINE
  5
17367
330
125AA
100
AcDbEntity
  8
YODOROGO
100
AcDbLine
 10
15766.80217064595
 20
937.8747482146435
 30
0.0
 11
15766.80217064595
 21
957.8747482146436
 31
0.0
  0
LINE
  5
17368
330
125AA
100
AcDbEntity
  8
YODOROGO
100
AcDbLine
 10
15706.80217064596
 20
853.8747482146439
 30
0.0
 11
15706.80217064596
 21
953.874748214644
 31
0.0
  0
LINE
  5
17369
330
125AA
100
AcDbEntity
  8
YODOROGO
100
AcDbLine
 10
15618.80217064596
 20
853.8747482146439
 30
0.0
 11
15706.80217064596
 21
853.8747482146439
 31
0.0
  0
LINE
  5
1736A
330
125AA
100
AcDbEntity
  8
YODOROGO
100
AcDbLine
 10
15706.80217064596
 20
981.8747482146434
 30
0.0
 11
15706.80217064596
 21
1013.874748214644
 31
0.0
  0
ARC
  5
1736B
330
125AA
100
AcDbEntity
  8
YODOROGO
100
AcDbCircle
 10
15810.80217064596
 20
1001.874748214642
 30
0.0
 40
7.999999999997271
100
AcDbArc
 50
270.0
 51
0.0000000000081422
  0
LINE
  5
1736C
330
125AA
100
AcDbEntity
  8
YODOROGO
100
AcDbLine
 10
15818.80217064596
 20
1013.874748214644
 30
0.0
 11
15818.80217064596
 21
1001.874748214643
 31
0.0
  0
LINE
  5
1736D
330
125AA
100
AcDbEntity
  8
YODOROGO
100
AcDbLine
 10
15850.80217064596
 20
1013.874748214644
 30
0.0
 11
15818.80217064596
 21
1013.874748214644
 31
0.0
  0
LINE
  5
1736E
330
125AA
100
AcDbEntity
  8
YODOROGO
100
AcDbLine
 10
15850.80217064596
 20
977.8747482146435
 30
0.0
 11
15850.80217064596
 21
1013.874748214644
 31
0.0
  0
ARC
  5
1736F
330
125AA
100
AcDbEntity
  8
YODOROGO
100
AcDbCircle
 10
15830.80217064596
 20
977.8747482146435
 30
0.0
 40
20.0
100
AcDbArc
 50
270.0
 51
0.0
  0
LINE
  5
17370
330
125AA
100
AcDbEntity
  8
YODOROGO
100
AcDbLine
 10
15850.80217064596
 20
905.8747482146443
 30
0.0
 11
15850.80217064596
 21
937.8747482146435
 31
0.0
  0
LINE
  5
17371
330
125AA
100
AcDbEntity
  8
YODOROGO
100
AcDbLine
 10
15826.80217064595
 20
905.8747482146443
 30
0.0
 11
15850.80217064596
 21
905.8747482146443
 31
0.0
  0
LINE
  5
17372
330
125AA
100
AcDbEntity
  8
SUNPOU
100
AcDbLine
 10
4089.856483595691
 20
2955.963733520729
 30
0.0
 11
4089.856483595691
 21
2350.963733520728
 31
0.0
  0
LINE
  5
17373
330
125AA
100
AcDbEntity
  8
SUNPOU
100
AcDbLine
 10
5689.856483595693
 20
2955.963733520731
 30
0.0
 11
5689.856483595693
 21
2350.963733520728
 31
0.0
  0
LINE
  5
17374
330
125AA
100
AcDbEntity
  8
SUNPOU
100
AcDbLine
 10
4104.856483595692
 20
2395.963733520728
 30
0.0
 11
5674.856483595693
 21
2395.963733520728
 31
0.0
  0
LINE
  5
17379
330
125AA
100
AcDbEntity
  8
SUNPOU
100
AcDbLine
 10
4249.856483595691
 20
3115.963733520729
 30
0.0
 11
4249.856483595691
 21
2560.963733520728
 31
0.0
  0
LINE
  5
1737A
330
125AA
100
AcDbEntity
  8
SUNPOU
100
AcDbLine
 10
5529.856483595692
 20
3115.963733520729
 30
0.0
 11
5529.856483595692
 21
2560.963733520728
 31
0.0
  0
LINE
  5
1737B
330
125AA
100
AcDbEntity
  8
SUNPOU
100
AcDbLine
 10
4264.856483595691
 20
2605.963733520728
 30
0.0
 11
5514.856483595691
 21
2605.963733520728
 31
0.0
  0
LINE
  5
1737F
330
125AA
100
AcDbEntity
  8
SUNPOU
100
AcDbLine
 10
6397.249978138844
 20
3753.963733520729
 30
0.0
 11
7069.437589004642
 21
3753.963733520729
 31
0.0
  0
LINE
  5
17380
330
125AA
100
AcDbEntity
  8
SUNPOU
100
AcDbLine
 10
5719.856483595692
 20
2985.963733520732
 30
0.0
 11
7069.437589004642
 21
2985.963733520732
 31
0.0
  0
LINE
  5
17381
330
125AA
100
AcDbEntity
  8
SUNPOU
100
AcDbLine
 10
7024.43758900464
 20
3738.963733520729
 30
0.0
 11
7024.43758900464
 21
3000.963733520731
 31
0.0
  0
LINE
  5
17385
330
125AA
100
AcDbEntity
  8
SUNPOU
100
AcDbLine
 10
5719.856483595692
 20
3145.963733520728
 30
0.0
 11
6863.18758900464
 21
3145.963733520728
 31
0.0
  0
LINE
  5
17386
330
125AA
100
AcDbEntity
  8
SUNPOU
100
AcDbLine
 10
5719.856483595692
 20
2985.963733520732
 30
0.0
 11
6863.18758900464
 21
2985.963733520732
 31
0.0
  0
LINE
  5
17387
330
125AA
100
AcDbEntity
  8
SUNPOU
100
AcDbLine
 10
6818.18758900464
 20
3130.963733520728
 30
0.0
 11
6818.18758900464
 21
3000.963733520731
 31
0.0
  0
LINE
  5
1738B
330
125AA
100
AcDbEntity
  8
SUNPOU
100
AcDbLine
 10
6397.249978138844
 20
3753.963733520729
 30
0.0
 11
6863.18758900464
 21
3753.963733520729
 31
0.0
  0
LINE
  5
1738C
330
125AA
100
AcDbEntity
  8
SUNPOU
100
AcDbLine
 10
5719.856483595691
 20
3145.963733520729
 30
0.0
 11
6863.18758900464
 21
3145.963733520729
 31
0.0
  0
LINE
  5
1738D
330
125AA
100
AcDbEntity
  8
SUNPOU
100
AcDbLine
 10
6818.18758900464
 20
3738.963733520729
 30
0.0
 11
6818.18758900464
 21
3160.963733520729
 31
0.0
  0
LINE
  5
17391
330
125AA
100
AcDbEntity
  8
SUNPOU
100
AcDbLine
 10
6375.086990845943
 20
4556.963733520728
 30
0.0
 11
6315.086990845929
 21
4556.963733520728
 31
0.0
  0
LINE
  5
17392
330
125AA
100
AcDbEntity
  8
SUNPOU
100
AcDbLine
 10
6375.086990845936
 20
4556.963733520728
 30
0.0
 11
6315.086990845935
 21
4573.040685066597
 31
0.0
  0
LINE
  5
17393
330
125AA
100
AcDbEntity
  8
SUNPOU
100
AcDbLine
 10
6375.086990845943
 20
4556.963733520728
 30
0.0
 11
6315.086990845929
 21
4540.886781974857
 31
0.0
  0
LINE
  5
17394
330
125AA
100
AcDbEntity
  8
SUNPOU
100
AcDbLine
 10
6435.086990845943
 20
4556.963733520728
 30
0.0
 11
6375.086990845929
 21
4556.963733520728
 31
0.0
  0
LINE
  5
17395
330
125AA
100
AcDbEntity
  8
SUNPOU
100
AcDbLine
 10
6435.086990845936
 20
4556.963733520728
 30
0.0
 11
6375.086990845936
 21
4573.040685066597
 31
0.0
  0
LINE
  5
17396
330
125AA
100
AcDbEntity
  8
SUNPOU
100
AcDbLine
 10
6435.086990845943
 20
4556.963733520728
 30
0.0
 11
6375.086990845929
 21
4540.886781974857
 31
0.0
  0
LINE
  5
17397
330
125AA
100
AcDbEntity
  8
SUNPOU
100
AcDbLine
 10
4889.856483595693
 20
4586.963733520728
 30
0.0
 11
4889.856483595693
 21
4601.963733520728
 31
0.0
  0
LINE
  5
17398
330
125AA
100
AcDbEntity
  8
SUNPOU
100
AcDbLine
 10
4249.856483595691
 20
3783.963733520729
 30
0.0
 11
4249.856483595691
 21
4601.963733520728
 31
0.0
  0
LINE
  5
17399
330
125AA
100
AcDbEntity
  8
SUNPOU
100
AcDbLine
 10
4874.856483595692
 20
4556.963733520728
 30
0.0
 11
4264.856483595691
 21
4556.963733520728
 31
0.0
  0
LINE
  5
1739D
330
125AA
100
AcDbEntity
  8
SUNPOU
100
AcDbLine
 10
10074.12750789964
 20
8908.243182432327
 30
0.0
 11
10489.12750789964
 21
8908.243182432327
 31
0.0
  0
LINE
  5
1739E
330
125AA
100
AcDbEntity
  8
SUNPOU
100
AcDbLine
 10
10219.12750789964
 20
8708.243182432326
 30
0.0
 11
10489.12750789964
 21
8708.243182432326
 31
0.0
  0
LINE
  5
1739F
330
125AA
100
AcDbEntity
  8
SUNPOU
100
AcDbLine
 10
10444.12750789964
 20
8893.243182432327
 30
0.0
 11
10444.12750789964
 21
8723.243182432327
 31
0.0
  0
LINE
  5
173A0
330
125AA
100
AcDbEntity
  8
SUNPOU
100
AcDbLine
 10
10444.12750789964
 20
8708.243182432326
 30
0.0
 11
10444.12750789964
 21
8448.957468146613
 31
0.0
  0
LINE
  5
173A4
330
125AA
100
AcDbEntity
  8
SUNPOU
100
AcDbLine
 10
10074.12750789964
 20
8908.243182432327
 30
0.0
 11
10489.12750789964
 21
8908.243182432327
 31
0.0
  0
LINE
  5
173A5
330
125AA
100
AcDbEntity
  8
SUNPOU
100
AcDbLine
 10
10074.12750789964
 20
9108.243182432328
 30
0.0
 11
10489.12750789964
 21
9108.243182432328
 31
0.0
  0
LINE
  5
173A6
330
125AA
100
AcDbEntity
  8
SUNPOU
100
AcDbLine
 10
10444.12750789964
 20
8923.243182432328
 30
0.0
 11
10444.12750789964
 21
9093.243182432329
 31
0.0
  0
LINE
  5
173A7
330
125AA
100
AcDbEntity
  8
SUNPOU
100
AcDbLine
 10
10444.12750789964
 20
9108.243182432328
 30
0.0
 11
10444.12750789964
 21
9367.52889671804
 31
0.0
  0
LINE
  5
173AB
330
125AA
100
AcDbEntity
  8
SUNPOU
100
AcDbLine
 10
9244.127507899641
 20
8278.243182432326
 30
0.0
 11
9244.127507899641
 21
7963.243182432326
 31
0.0
  0
LINE
  5
173AC
330
125AA
100
AcDbEntity
  8
SUNPOU
100
AcDbLine
 10
10044.12750789964
 20
8278.243182432326
 30
0.0
 11
10044.12750789964
 21
7963.243182432326
 31
0.0
  0
LINE
  5
173AD
330
125AA
100
AcDbEntity
  8
SUNPOU
100
AcDbLine
 10
9259.12750789964
 20
8008.243182432327
 30
0.0
 11
10029.12750789964
 21
8008.243182432327
 31
0.0
  0
LINE
  5
173B1
330
125AA
100
AcDbEntity
  8
SUNPOU
100
AcDbLine
 10
9214.12750789964
 20
9108.243182432328
 30
0.0
 11
8899.12750789964
 21
9108.243182432328
 31
0.0
  0
LINE
  5
173B2
330
125AA
100
AcDbEntity
  8
SUNPOU
100
AcDbLine
 10
9214.12750789964
 20
8308.243182432326
 30
0.0
 11
8899.12750789964
 21
8308.243182432326
 31
0.0
  0
LINE
  5
173B3
330
125AA
100
AcDbEntity
  8
SUNPOU
100
AcDbLine
 10
8944.127507899642
 20
9093.243182432329
 30
0.0
 11
8944.127507899642
 21
8323.243182432326
 31
0.0
  0
LINE
  5
173B8
330
125AA
100
AcDbEntity
  8
SUNPOU
100
AcDbLine
 10
10864.12750789964
 20
9096.993182432328
 30
0.0
 11
10864.12750789964
 21
9085.743182432329
 31
0.0
  0
LINE
  5
173BA
330
125AA
100
AcDbEntity
  8
SUNPOU
100
AcDbLine
 10
10654.12750789964
 20
9096.993182432328
 30
0.0
 11
10654.12750789964
 21
9085.743182432329
 31
0.0
  0
LINE
  5
173BC
330
125AA
100
AcDbEntity
  8
SUNPOU
100
AcDbLine
 10
10654.12750789964
 20
8696.993182432327
 30
0.0
 11
10654.12750789964
 21
8685.743182432327
 31
0.0
  0
LINE
  5
173BE
330
125AA
100
AcDbEntity
  8
SUNPOU
100
AcDbLine
 10
10654.12750789964
 20
8719.493182432326
 30
0.0
 11
10654.12750789964
 21
8730.743182432327
 31
0.0
  0
LINE
  5
173C0
330
125AA
100
AcDbEntity
  8
SUNPOU
100
AcDbLine
 10
10654.12750789964
 20
6919.493182432326
 30
0.0
 11
10654.12750789964
 21
6930.743182432327
 31
0.0
  0
LINE
  5
173C2
330
125AA
100
AcDbEntity
  8
SUNPOU
100
AcDbLine
 10
10654.12750789964
 20
6896.993182432327
 30
0.0
 11
10654.12750789964
 21
6885.743182432327
 31
0.0
  0
LINE
  5
173C4
330
125AA
100
AcDbEntity
  8
SUNPOU
100
AcDbLine
 10
10864.12750789964
 20
6519.493182432326
 30
0.0
 11
10864.12750789964
 21
6530.743182432328
 31
0.0
  0
LINE
  5
173C6
330
125AA
100
AcDbEntity
  8
SUNPOU
100
AcDbLine
 10
10654.12750789964
 20
6519.493182432326
 30
0.0
 11
10654.12750789964
 21
6530.743182432328
 31
0.0
  0
LINE
  5
173C7
330
125AA
100
AcDbEntity
  8
SUNPOU
100
AcDbLine
 10
9644.127507899641
 20
9338.243182432329
 30
0.0
 11
9644.127507899641
 21
9453.243182432325
 31
0.0
  0
LINE
  5
173C8
330
125AA
100
AcDbEntity
  8
SUNPOU
100
AcDbLine
 10
10044.12750789964
 20
9138.243182432329
 30
0.0
 11
10044.12750789964
 21
9453.243182432325
 31
0.0
  0
LINE
  5
173C9
330
125AA
100
AcDbEntity
  8
SUNPOU
100
AcDbLine
 10
9659.12750789964
 20
9408.243182432325
 30
0.0
 11
10029.12750789964
 21
9408.243182432325
 31
0.0
  0
LINE
  5
173CD
330
125AA
100
AcDbEntity
  8
SUNPOU
100
AcDbLine
 10
9644.127507899641
 20
9338.243182432329
 30
0.0
 11
9644.127507899641
 21
9453.243182432325
 31
0.0
  0
LINE
  5
173CE
330
125AA
100
AcDbEntity
  8
SUNPOU
100
AcDbLine
 10
7194.127507899641
 20
9338.243182432329
 30
0.0
 11
7194.127507899641
 21
9453.243182432325
 31
0.0
  0
LINE
  5
173CF
330
125AA
100
AcDbEntity
  8
SUNPOU
100
AcDbLine
 10
9629.127507899641
 20
9408.243182432325
 30
0.0
 11
7209.127507899641
 21
9408.243182432325
 31
0.0
  0
LINE
  5
173D3
330
125AA
100
AcDbEntity
  8
SUNPOU
100
AcDbLine
 10
7819.127507899641
 20
7118.243182432327
 30
0.0
 11
7804.127507899642
 21
7208.243182432326
 31
0.0
  0
LINE
  5
173D4
330
125AA
100
AcDbEntity
  8
SUNPOU
100
AcDbLine
 10
7804.127507899642
 20
7208.243182432326
 30
0.0
 11
7789.127507899642
 21
7118.243182432327
 31
0.0
  0
SOLID
  5
173D5
330
125AA
100
AcDbEntity
  8
SUNPOU
100
AcDbTrace
 10
7819.127507899641
 20
7118.243182432327
 30
0.0
 11
7789.127507899642
 21
7118.243182432327
 31
0.0
 12
7804.127507899642
 22
7208.243182432326
 32
0.0
 13
7804.127507899642
 23
7208.243182432326
 33
0.0
  0
LINE
  5
173D6
330
125AA
100
AcDbEntity
  8
SUNPOU
100
AcDbLine
 10
7789.127507899642
 20
7118.243182432327
 30
0.0
 11
7819.127507899641
 21
7118.243182432327
 31
0.0
  0
LINE
  5
173D7
330
125AA
100
AcDbEntity
  8
SUNPOU
100
AcDbLine
 10
6569.127507899638
 20
7118.243182432327
 30
0.0
 11
6584.127507899639
 21
7208.243182432326
 31
0.0
  0
LINE
  5
173D8
330
125AA
100
AcDbEntity
  8
SUNPOU
100
AcDbLine
 10
6584.127507899639
 20
7208.243182432326
 30
0.0
 11
6599.127507899638
 21
7118.243182432327
 31
0.0
  0
SOLID
  5
173D9
330
125AA
100
AcDbEntity
  8
SUNPOU
100
AcDbTrace
 10
6569.127507899638
 20
7118.243182432327
 30
0.0
 11
6599.127507899638
 21
7118.243182432327
 31
0.0
 12
6584.127507899639
 22
7208.243182432326
 32
0.0
 13
6584.127507899639
 23
7208.243182432326
 33
0.0
  0
LINE
  5
173DA
330
125AA
100
AcDbEntity
  8
SUNPOU
100
AcDbLine
 10
6599.127507899638
 20
7118.243182432327
 30
0.0
 11
6569.127507899638
 21
7118.243182432327
 31
0.0
  0
LINE
  5
173DB
330
125AA
100
AcDbEntity
  8
SUNPOU
100
AcDbLine
 10
7194.127507899641
 20
9338.243182432329
 30
0.0
 11
7194.127507899641
 21
9453.243182432325
 31
0.0
  0
LINE
  5
173DC
330
125AA
100
AcDbEntity
  8
SUNPOU
100
AcDbLine
 10
6794.127507899641
 20
9138.243182432329
 30
0.0
 11
6794.127507899641
 21
9453.243182432325
 31
0.0
  0
LINE
  5
173DD
330
125AA
100
AcDbEntity
  8
SUNPOU
100
AcDbLine
 10
7179.127507899642
 20
9408.243182432325
 30
0.0
 11
6809.12750789964
 21
9408.243182432325
 31
0.0
  0
LINE
  5
173E1
330
125AA
100
AcDbEntity
  8
SUNPOU
100
AcDbLine
 10
6794.127507899641
 20
9138.243182432329
 30
0.0
 11
6794.127507899641
 21
9663.243182432324
 31
0.0
  0
LINE
  5
173E2
330
125AA
100
AcDbEntity
  8
SUNPOU
100
AcDbLine
 10
10044.12750789964
 20
9138.243182432329
 30
0.0
 11
10044.12750789964
 21
9663.243182432324
 31
0.0
  0
LINE
  5
173E3
330
125AA
100
AcDbEntity
  8
SUNPOU
100
AcDbLine
 10
6809.12750789964
 20
9618.243182432324
 30
0.0
 11
10029.12750789964
 21
9618.243182432324
 31
0.0
  0
TEXT
  5
173E7
330
125AA
100
AcDbEntity
  8
SUNPOU
100
AcDbText
 10
4771.285055024263
 20
2440.963733520729
 30
0.0
 40
90.0
  1
1000
 41
0.6666666666666666
  7
00
100
AcDbText
  0
LINE
  5
173E9
330
125AA
100
AcDbEntity
  8
SUNPOU
100
AcDbLine
 10
5678.606483595692
 20
2395.963733520728
 30
0.0
 11
5667.356483595693
 21
2395.963733520728
 31
0.0
  0
LINE
  5
173EB
330
125AA
100
AcDbEntity
  8
SUNPOU
100
AcDbLine
 10
4101.106483595692
 20
2395.963733520728
 30
0.0
 11
4112.356483595691
 21
2395.963733520728
 31
0.0
  0
TEXT
  5
173EC
330
125AA
100
AcDbEntity
  8
SUNPOU
100
AcDbText
 10
4804.142197881406
 20
2650.963733520728
 30
0.0
 40
90.0
  1
800
 41
0.6666666666666666
  7
00
100
AcDbText
  0
LINE
  5
173EE
330
125AA
100
AcDbEntity
  8
SUNPOU
100
AcDbLine
 10
5518.606483595691
 20
2605.963733520728
 30
0.0
 11
5507.356483595692
 21
2605.963733520728
 31
0.0
  0
LINE
  5
173F0
330
125AA
100
AcDbEntity
  8
SUNPOU
100
AcDbLine
 10
4261.106483595692
 20
2605.963733520728
 30
0.0
 11
4272.356483595691
 21
2605.963733520728
 31
0.0
  0
TEXT
  5
173F1
330
125AA
100
AcDbEntity
  8
SUNPOU
100
AcDbText
 10
6979.437589004638
 20
3284.249447806444
 30
0.0
 40
90.0
  1
480
 50
90.0
 41
0.6666666666666666
  7
00
100
AcDbText
  0
LINE
  5
173F3
330
125AA
100
AcDbEntity
  8
SUNPOU
100
AcDbLine
 10
7024.43758900464
 20
2997.213733520732
 30
0.0
 11
7024.43758900464
 21
3008.463733520732
 31
0.0
  0
LINE
  5
173F5
330
125AA
100
AcDbEntity
  8
SUNPOU
100
AcDbLine
 10
7024.43758900464
 20
3742.713733520729
 30
0.0
 11
7024.43758900464
 21
3731.463733520728
 31
0.0
  0
LINE
  5
173F7
330
125AA
100
AcDbEntity
  8
SUNPOU
100
AcDbLine
 10
6818.18758900464
 20
2997.213733520732
 30
0.0
 11
6818.18758900464
 21
3008.463733520732
 31
0.0
  0
LINE
  5
173F9
330
125AA
100
AcDbEntity
  8
SUNPOU
100
AcDbLine
 10
6818.18758900464
 20
3134.713733520728
 30
0.0
 11
6818.18758900464
 21
3123.463733520728
 31
0.0
  0
TEXT
  5
173FA
330
125AA
100
AcDbEntity
  8
SUNPOU
100
AcDbText
 10
6775.015821249391
 20
2760.243102996788
 30
0.0
 40
90.0
  1
100
 50
90.0
 41
0.6666666666666666
  7
00
100
AcDbText
  0
TEXT
  5
173FB
330
125AA
100
AcDbEntity
  8
SUNPOU
100
AcDbText
 10
6773.187589004638
 20
3364.249447806444
 30
0.0
 40
90.0
  1
380
 50
90.0
 41
0.6666666666666666
  7
00
100
AcDbText
  0
LINE
  5
173FD
330
125AA
100
AcDbEntity
  8
SUNPOU
100
AcDbLine
 10
6818.18758900464
 20
3157.213733520729
 30
0.0
 11
6818.18758900464
 21
3168.463733520729
 31
0.0
  0
LINE
  5
173FF
330
125AA
100
AcDbEntity
  8
SUNPOU
100
AcDbLine
 10
6818.18758900464
 20
3742.713733520729
 30
0.0
 11
6818.18758900464
 21
3731.463733520728
 31
0.0
  0
TEXT
  5
17400
330
125AA
100
AcDbEntity
  8
SUNPOU
100
AcDbText
 10
4484.142197881406
 20
4601.963733520728
 30
0.0
 40
90.0
  1
400
 41
0.6666666666666666
  7
00
100
AcDbText
  0
LINE
  5
17402
330
125AA
100
AcDbEntity
  8
SUNPOU
100
AcDbLine
 10
4261.106483595692
 20
4556.963733520728
 30
0.0
 11
4272.356483595691
 21
4556.963733520728
 31
0.0
  0
LINE
  5
17404
330
125AA
100
AcDbEntity
  8
SUNPOU
100
AcDbLine
 10
4878.606483595692
 20
4556.963733520728
 30
0.0
 11
4867.356483595692
 21
4556.963733520728
 31
0.0
  0
TEXT
  5
17405
330
125AA
100
AcDbEntity
  8
SUNPOU
100
AcDbText
 10
10399.12750789964
 20
8485.386039575185
 30
0.0
 40
90.0
  1
200
 50
90.0
 41
0.6666666666666666
  7
00
100
AcDbText
  0
LINE
  5
17407
330
125AA
100
AcDbEntity
  8
SUNPOU
100
AcDbLine
 10
10444.12750789964
 20
8719.493182432326
 30
0.0
 11
10444.12750789964
 21
8730.743182432327
 31
0.0
  0
LINE
  5
17409
330
125AA
100
AcDbEntity
  8
SUNPOU
100
AcDbLine
 10
10444.12750789964
 20
8896.993182432327
 30
0.0
 11
10444.12750789964
 21
8885.743182432326
 31
0.0
  0
TEXT
  5
1740A
330
125AA
100
AcDbEntity
  8
SUNPOU
100
AcDbText
 10
10399.12750789964
 20
9159.6717538609
 30
0.0
 40
90.0
  1
200
 50
90.0
 41
0.6666666666666666
  7
00
100
AcDbText
  0
LINE
  5
1740C
330
125AA
100
AcDbEntity
  8
SUNPOU
100
AcDbLine
 10
10444.12750789964
 20
9096.993182432328
 30
0.0
 11
10444.12750789964
 21
9085.743182432329
 31
0.0
  0
LINE
  5
1740E
330
125AA
100
AcDbEntity
  8
SUNPOU
100
AcDbLine
 10
10444.12750789964
 20
8919.493182432326
 30
0.0
 11
10444.12750789964
 21
8930.743182432328
 31
0.0
  0
TEXT
  5
1740F
330
125AA
100
AcDbEntity
  8
SUNPOU
100
AcDbText
 10
9558.413222185356
 20
8053.243182432327
 30
0.0
 40
90.0
  1
800
 41
0.6666666666666666
  7
00
100
AcDbText
  0
LINE
  5
17411
330
125AA
100
AcDbEntity
  8
SUNPOU
100
AcDbLine
 10
10032.87750789964
 20
8008.243182432327
 30
0.0
 11
10021.62750789964
 21
8008.243182432327
 31
0.0
  0
LINE
  5
17413
330
125AA
100
AcDbEntity
  8
SUNPOU
100
AcDbLine
 10
9255.377507899641
 20
8008.243182432327
 30
0.0
 11
9266.62750789964
 21
8008.243182432327
 31
0.0
  0
TEXT
  5
17414
330
125AA
100
AcDbEntity
  8
SUNPOU
100
AcDbText
 10
8899.12750789964
 20
8622.528896718042
 30
0.0
 40
90.0
  1
800
 50
90.0
 41
0.6666666666666666
  7
00
100
AcDbText
  0
LINE
  5
17416
330
125AA
100
AcDbEntity
  8
SUNPOU
100
AcDbLine
 10
8944.127507899642
 20
8319.493182432326
 30
0.0
 11
8944.127507899642
 21
8330.743182432327
 31
0.0
  0
LINE
  5
17418
330
125AA
100
AcDbEntity
  8
SUNPOU
100
AcDbLine
 10
8944.127507899642
 20
9096.993182432328
 30
0.0
 11
8944.127507899642
 21
9085.743182432329
 31
0.0
  0
ARC
  5
17419
330
125AA
100
AcDbEntity
  8
SUNPOU
100
AcDbCircle
 10
10864.12750789964
 20
9108.243182432328
 30
0.0
 40
5.625
100
AcDbArc
 50
270.0
 51
90.0
  0
ARC
  5
1741A
330
125AA
100
AcDbEntity
  8
SUNPOU
100
AcDbCircle
 10
10864.12750789964
 20
9108.243182432328
 30
0.0
 40
5.625
100
AcDbArc
 50
90.0
 51
270.0
  0
ARC
  5
1741B
330
125AA
100
AcDbEntity
  8
SUNPOU
100
AcDbCircle
 10
10654.12750789964
 20
9108.243182432328
 30
0.0
 40
5.625
100
AcDbArc
 50
270.0
 51
90.0
  0
ARC
  5
1741C
330
125AA
100
AcDbEntity
  8
SUNPOU
100
AcDbCircle
 10
10654.12750789964
 20
9108.243182432328
 30
0.0
 40
5.625
100
AcDbArc
 50
90.0
 51
270.0
  0
ARC
  5
1741D
330
125AA
100
AcDbEntity
  8
SUNPOU
100
AcDbCircle
 10
10654.12750789964
 20
8708.243182432326
 30
0.0
 40
5.625
100
AcDbArc
 50
270.0
 51
90.0
  0
ARC
  5
1741E
330
125AA
100
AcDbEntity
  8
SUNPOU
100
AcDbCircle
 10
10654.12750789964
 20
8708.243182432326
 30
0.0
 40
5.625
100
AcDbArc
 50
90.0
 51
270.0
  0
ARC
  5
1741F
330
125AA
100
AcDbEntity
  8
SUNPOU
100
AcDbCircle
 10
10654.12750789964
 20
8708.243182432326
 30
0.0
 40
5.625
100
AcDbArc
 50
90.0
 51
270.0
  0
ARC
  5
17420
330
125AA
100
AcDbEntity
  8
SUNPOU
100
AcDbCircle
 10
10654.12750789964
 20
8708.243182432326
 30
0.0
 40
5.625
100
AcDbArc
 50
270.0
 51
90.0
  0
ARC
  5
17421
330
125AA
100
AcDbEntity
  8
SUNPOU
100
AcDbCircle
 10
10654.12750789964
 20
6908.243182432326
 30
0.0
 40
5.625
100
AcDbArc
 50
90.0
 51
270.0
  0
ARC
  5
17422
330
125AA
100
AcDbEntity
  8
SUNPOU
100
AcDbCircle
 10
10654.12750789964
 20
6908.243182432326
 30
0.0
 40
5.625
100
AcDbArc
 50
270.0
 51
90.0
  0
ARC
  5
17423
330
125AA
100
AcDbEntity
  8
SUNPOU
100
AcDbCircle
 10
10654.12750789964
 20
6908.243182432326
 30
0.0
 40
5.625
100
AcDbArc
 50
270.0
 51
90.0
  0
ARC
  5
17424
330
125AA
100
AcDbEntity
  8
SUNPOU
100
AcDbCircle
 10
10654.12750789964
 20
6908.243182432326
 30
0.0
 40
5.625
100
AcDbArc
 50
90.0
 51
270.0
  0
ARC
  5
17425
330
125AA
100
AcDbEntity
  8
SUNPOU
100
AcDbCircle
 10
10864.12750789964
 20
6508.243182432327
 30
0.0
 40
5.625
100
AcDbArc
 50
90.0
 51
270.0
  0
ARC
  5
17426
330
125AA
100
AcDbEntity
  8
SUNPOU
100
AcDbCircle
 10
10864.12750789964
 20
6508.243182432327
 30
0.0
 40
5.625
100
AcDbArc
 50
270.0
 51
90.0
  0
ARC
  5
17427
330
125AA
100
AcDbEntity
  8
SUNPOU
100
AcDbCircle
 10
10654.12750789964
 20
6508.243182432327
 30
0.0
 40
5.625
100
AcDbArc
 50
90.0
 51
270.0
  0
ARC
  5
17428
330
125AA
100
AcDbEntity
  8
SUNPOU
100
AcDbCircle
 10
10654.12750789964
 20
6508.243182432327
 30
0.0
 40
5.625
100
AcDbArc
 50
270.0
 51
90.0
  0
TEXT
  5
17429
330
125AA
100
AcDbEntity
  8
SUNPOU
100
AcDbText
 10
9758.413222185355
 20
9453.243182432325
 30
0.0
 40
90.0
  1
400
 41
0.6666666666666666
  7
00
100
AcDbText
  0
LINE
  5
1742B
330
125AA
100
AcDbEntity
  8
SUNPOU
100
AcDbLine
 10
10032.87750789964
 20
9408.243182432325
 30
0.0
 11
10021.62750789964
 21
9408.243182432325
 31
0.0
  0
LINE
  5
1742D
330
125AA
100
AcDbEntity
  8
SUNPOU
100
AcDbLine
 10
9655.377507899641
 20
9408.243182432325
 30
0.0
 11
9666.62750789964
 21
9408.243182432325
 31
0.0
  0
TEXT
  5
1742E
330
125AA
100
AcDbEntity
  8
SUNPOU
100
AcDbText
 10
8304.841793613924
 20
9453.243182432325
 30
0.0
 40
90.0
  1
2450
 41
0.6666666666666666
  7
00
100
AcDbText
  0
LINE
  5
17430
330
125AA
100
AcDbEntity
  8
SUNPOU
100
AcDbLine
 10
7205.37750789964
 20
9408.243182432325
 30
0.0
 11
7216.627507899642
 21
9408.243182432325
 31
0.0
  0
LINE
  5
17432
330
125AA
100
AcDbEntity
  8
SUNPOU
100
AcDbLine
 10
9632.877507899641
 20
9408.243182432325
 30
0.0
 11
9621.62750789964
 21
9408.243182432325
 31
0.0
  0
TEXT
  5
17433
330
125AA
100
AcDbEntity
  8
SUNPOU
100
AcDbText
 10
6908.413222185355
 20
9453.243182432325
 30
0.0
 40
90.0
  1
400
 41
0.6666666666666666
  7
00
100
AcDbText
  0
LINE
  5
17435
330
125AA
100
AcDbEntity
  8
SUNPOU
100
AcDbLine
 10
6805.377507899641
 20
9408.243182432325
 30
0.0
 11
6816.627507899642
 21
9408.243182432325
 31
0.0
  0
LINE
  5
17437
330
125AA
100
AcDbEntity
  8
SUNPOU
100
AcDbLine
 10
7182.877507899641
 20
9408.243182432325
 30
0.0
 11
7171.627507899642
 21
9408.243182432325
 31
0.0
  0
TEXT
  5
17438
330
125AA
100
AcDbEntity
  8
SUNPOU
100
AcDbText
 10
8304.841793613924
 20
9663.243182432324
 30
0.0
 40
90.0
  1
3250
 41
0.6666666666666666
  7
00
100
AcDbText
  0
LINE
  5
1743A
330
125AA
100
AcDbEntity
  8
SUNPOU
100
AcDbLine
 10
10032.87750789964
 20
9618.243182432324
 30
0.0
 11
10021.62750789964
 21
9618.243182432324
 31
0.0
  0
LINE
  5
1743C
330
125AA
100
AcDbEntity
  8
SUNPOU
100
AcDbLine
 10
6805.377507899641
 20
9618.243182432324
 30
0.0
 11
6816.627507899642
 21
9618.243182432324
 31
0.0
  0
ARC
  5
1743D
330
125AA
100
AcDbEntity
  8
SUNPOU
100
AcDbCircle
 10
5689.856483595693
 20
2395.963733520728
 30
0.0
 40
5.625
100
AcDbArc
 50
180.0
 51
0.0
  0
ARC
  5
1743E
330
125AA
100
AcDbEntity
  8
SUNPOU
100
AcDbCircle
 10
5689.856483595693
 20
2395.963733520728
 30
0.0
 40
5.625
100
AcDbArc
 50
0.0
 51
180.0
  0
ARC
  5
1743F
330
125AA
100
AcDbEntity
  8
SUNPOU
100
AcDbCircle
 10
4089.856483595691
 20
2395.963733520728
 30
0.0
 40
5.625
100
AcDbArc
 50
0.0
 51
180.0
  0
ARC
  5
17440
330
125AA
100
AcDbEntity
  8
SUNPOU
100
AcDbCircle
 10
4089.856483595691
 20
2395.963733520728
 30
0.0
 40
5.625
100
AcDbArc
 50
180.0
 51
0.0
  0
ARC
  5
17441
330
125AA
100
AcDbEntity
  8
SUNPOU
100
AcDbCircle
 10
5529.856483595692
 20
2605.963733520728
 30
0.0
 40
5.625
100
AcDbArc
 50
180.0
 51
0.0
  0
ARC
  5
17442
330
125AA
100
AcDbEntity
  8
SUNPOU
100
AcDbCircle
 10
5529.856483595692
 20
2605.963733520728
 30
0.0
 40
5.625
100
AcDbArc
 50
0.0
 51
180.0
  0
ARC
  5
17443
330
125AA
100
AcDbEntity
  8
SUNPOU
100
AcDbCircle
 10
4249.856483595691
 20
2605.963733520728
 30
0.0
 40
5.625
100
AcDbArc
 50
0.0
 51
180.0
  0
ARC
  5
17444
330
125AA
100
AcDbEntity
  8
SUNPOU
100
AcDbCircle
 10
4249.856483595691
 20
2605.963733520728
 30
0.0
 40
5.625
100
AcDbArc
 50
180.0
 51
0.0
  0
ARC
  5
17445
330
125AA
100
AcDbEntity
  8
SUNPOU
100
AcDbCircle
 10
7024.43758900464
 20
2985.963733520732
 30
0.0
 40
5.625
100
AcDbArc
 50
90.0
 51
270.0
  0
ARC
  5
17446
330
125AA
100
AcDbEntity
  8
SUNPOU
100
AcDbCircle
 10
7024.43758900464
 20
2985.963733520732
 30
0.0
 40
5.625
100
AcDbArc
 50
270.0
 51
90.0
  0
ARC
  5
17447
330
125AA
100
AcDbEntity
  8
SUNPOU
100
AcDbCircle
 10
7024.43758900464
 20
3753.963733520729
 30
0.0
 40
5.625
100
AcDbArc
 50
270.0
 51
90.0
  0
ARC
  5
17448
330
125AA
100
AcDbEntity
  8
SUNPOU
100
AcDbCircle
 10
7024.43758900464
 20
3753.963733520729
 30
0.0
 40
5.625
100
AcDbArc
 50
90.0
 51
270.0
  0
ARC
  5
17449
330
125AA
100
AcDbEntity
  8
SUNPOU
100
AcDbCircle
 10
6818.18758900464
 20
2985.963733520732
 30
0.0
 40
5.625
100
AcDbArc
 50
90.0
 51
270.0
  0
ARC
  5
1744A
330
125AA
100
AcDbEntity
  8
SUNPOU
100
AcDbCircle
 10
6818.18758900464
 20
2985.963733520732
 30
0.0
 40
5.625
100
AcDbArc
 50
270.0
 51
90.0
  0
ARC
  5
1744B
330
125AA
100
AcDbEntity
  8
SUNPOU
100
AcDbCircle
 10
6818.18758900464
 20
3145.963733520728
 30
0.0
 40
5.625
100
AcDbArc
 50
270.0
 51
90.0
  0
ARC
  5
1744C
330
125AA
100
AcDbEntity
  8
SUNPOU
100
AcDbCircle
 10
6818.18758900464
 20
3145.963733520728
 30
0.0
 40
5.625
100
AcDbArc
 50
90.0
 51
270.0
  0
ARC
  5
1744D
330
125AA
100
AcDbEntity
  8
SUNPOU
100
AcDbCircle
 10
6818.18758900464
 20
3145.963733520729
 30
0.0
 40
5.625
100
AcDbArc
 50
90.0
 51
270.0
  0
ARC
  5
1744E
330
125AA
100
AcDbEntity
  8
SUNPOU
100
AcDbCircle
 10
6818.18758900464
 20
3145.963733520729
 30
0.0
 40
5.625
100
AcDbArc
 50
270.0
 51
90.0
  0
ARC
  5
1744F
330
125AA
100
AcDbEntity
  8
SUNPOU
100
AcDbCircle
 10
6818.18758900464
 20
3753.963733520729
 30
0.0
 40
5.625
100
AcDbArc
 50
270.0
 51
90.0
  0
ARC
  5
17450
330
125AA
100
AcDbEntity
  8
SUNPOU
100
AcDbCircle
 10
6818.18758900464
 20
3753.963733520729
 30
0.0
 40
5.625
100
AcDbArc
 50
90.0
 51
270.0
  0
ARC
  5
17451
330
125AA
100
AcDbEntity
  8
SUNPOU
100
AcDbCircle
 10
4249.856483595691
 20
4556.963733520728
 30
0.0
 40
5.625
100
AcDbArc
 50
0.0
 51
180.0
  0
ARC
  5
17452
330
125AA
100
AcDbEntity
  8
SUNPOU
100
AcDbCircle
 10
4249.856483595691
 20
4556.963733520728
 30
0.0
 40
5.625
100
AcDbArc
 50
180.0
 51
0.0
  0
ARC
  5
17453
330
125AA
100
AcDbEntity
  8
SUNPOU
100
AcDbCircle
 10
4889.856483595693
 20
4556.963733520728
 30
0.0
 40
5.625
100
AcDbArc
 50
180.0
 51
0.0
  0
ARC
  5
17454
330
125AA
100
AcDbEntity
  8
SUNPOU
100
AcDbCircle
 10
4889.856483595693
 20
4556.963733520728
 30
0.0
 40
5.625
100
AcDbArc
 50
0.0
 51
180.0
  0
ARC
  5
17455
330
125AA
100
AcDbEntity
  8
SUNPOU
100
AcDbCircle
 10
10444.12750789964
 20
8708.243182432326
 30
0.0
 40
5.625
100
AcDbArc
 50
90.0
 51
270.0
  0
ARC
  5
17456
330
125AA
100
AcDbEntity
  8
SUNPOU
100
AcDbCircle
 10
10444.12750789964
 20
8708.243182432326
 30
0.0
 40
5.625
100
AcDbArc
 50
270.0
 51
90.0
  0
ARC
  5
17457
330
125AA
100
AcDbEntity
  8
SUNPOU
100
AcDbCircle
 10
10444.12750789964
 20
8908.243182432327
 30
0.0
 40
5.625
100
AcDbArc
 50
270.0
 51
90.0
  0
ARC
  5
17458
330
125AA
100
AcDbEntity
  8
SUNPOU
100
AcDbCircle
 10
10444.12750789964
 20
8908.243182432327
 30
0.0
 40
5.625
100
AcDbArc
 50
90.0
 51
270.0
  0
ARC
  5
17459
330
125AA
100
AcDbEntity
  8
SUNPOU
100
AcDbCircle
 10
10444.12750789964
 20
9108.243182432328
 30
0.0
 40
5.625
100
AcDbArc
 50
270.0
 51
90.0
  0
ARC
  5
1745A
330
125AA
100
AcDbEntity
  8
SUNPOU
100
AcDbCircle
 10
10444.12750789964
 20
9108.243182432328
 30
0.0
 40
5.625
100
AcDbArc
 50
90.0
 51
270.0
  0
ARC
  5
1745B
330
125AA
100
AcDbEntity
  8
SUNPOU
100
AcDbCircle
 10
10444.12750789964
 20
8908.243182432327
 30
0.0
 40
5.625
100
AcDbArc
 50
90.0
 51
270.0
  0
ARC
  5
1745C
330
125AA
100
AcDbEntity
  8
SUNPOU
100
AcDbCircle
 10
10444.12750789964
 20
8908.243182432327
 30
0.0
 40
5.625
100
AcDbArc
 50
270.0
 51
90.0
  0
ARC
  5
1745D
330
125AA
100
AcDbEntity
  8
SUNPOU
100
AcDbCircle
 10
10044.12750789964
 20
8008.243182432327
 30
0.0
 40
5.625
100
AcDbArc
 50
180.0
 51
0.0
  0
ARC
  5
1745E
330
125AA
100
AcDbEntity
  8
SUNPOU
100
AcDbCircle
 10
10044.12750789964
 20
8008.243182432327
 30
0.0
 40
5.625
100
AcDbArc
 50
0.0
 51
180.0
  0
ARC
  5
1745F
330
125AA
100
AcDbEntity
  8
SUNPOU
100
AcDbCircle
 10
9244.127507899641
 20
8008.243182432327
 30
0.0
 40
5.625
100
AcDbArc
 50
0.0
 51
180.0
  0
ARC
  5
17460
330
125AA
100
AcDbEntity
  8
SUNPOU
100
AcDbCircle
 10
9244.127507899641
 20
8008.243182432327
 30
0.0
 40
5.625
100
AcDbArc
 50
180.0
 51
0.0
  0
ARC
  5
17461
330
125AA
100
AcDbEntity
  8
SUNPOU
100
AcDbCircle
 10
8944.127507899642
 20
8308.243182432326
 30
0.0
 40
5.625
100
AcDbArc
 50
90.0
 51
270.0
  0
ARC
  5
17462
330
125AA
100
AcDbEntity
  8
SUNPOU
100
AcDbCircle
 10
8944.127507899642
 20
8308.243182432326
 30
0.0
 40
5.625
100
AcDbArc
 50
270.0
 51
90.0
  0
ARC
  5
17463
330
125AA
100
AcDbEntity
  8
SUNPOU
100
AcDbCircle
 10
8944.127507899642
 20
9108.243182432328
 30
0.0
 40
5.625
100
AcDbArc
 50
270.0
 51
90.0
  0
ARC
  5
17464
330
125AA
100
AcDbEntity
  8
SUNPOU
100
AcDbCircle
 10
8944.127507899642
 20
9108.243182432328
 30
0.0
 40
5.625
100
AcDbArc
 50
90.0
 51
270.0
  0
ARC
  5
17465
330
125AA
100
AcDbEntity
  8
SUNPOU
100
AcDbCircle
 10
10044.12750789964
 20
9408.243182432325
 30
0.0
 40
5.625
100
AcDbArc
 50
180.0
 51
0.0
  0
ARC
  5
17466
330
125AA
100
AcDbEntity
  8
SUNPOU
100
AcDbCircle
 10
10044.12750789964
 20
9408.243182432325
 30
0.0
 40
5.625
100
AcDbArc
 50
0.0
 51
180.0
  0
ARC
  5
17467
330
125AA
100
AcDbEntity
  8
SUNPOU
100
AcDbCircle
 10
9644.127507899641
 20
9408.243182432325
 30
0.0
 40
5.625
100
AcDbArc
 50
0.0
 51
180.0
  0
ARC
  5
17468
330
125AA
100
AcDbEntity
  8
SUNPOU
100
AcDbCircle
 10
9644.127507899641
 20
9408.243182432325
 30
0.0
 40
5.625
100
AcDbArc
 50
180.0
 51
0.0
  0
ARC
  5
17469
330
125AA
100
AcDbEntity
  8
SUNPOU
100
AcDbCircle
 10
7194.127507899641
 20
9408.243182432325
 30
0.0
 40
5.625
100
AcDbArc
 50
0.0
 51
180.0
  0
ARC
  5
1746A
330
125AA
100
AcDbEntity
  8
SUNPOU
100
AcDbCircle
 10
7194.127507899641
 20
9408.243182432325
 30
0.0
 40
5.625
100
AcDbArc
 50
180.0
 51
0.0
  0
ARC
  5
1746B
330
125AA
100
AcDbEntity
  8
SUNPOU
100
AcDbCircle
 10
9644.127507899641
 20
9408.243182432325
 30
0.0
 40
5.625
100
AcDbArc
 50
180.0
 51
0.0
  0
ARC
  5
1746C
330
125AA
100
AcDbEntity
  8
SUNPOU
100
AcDbCircle
 10
9644.127507899641
 20
9408.243182432325
 30
0.0
 40
5.625
100
AcDbArc
 50
0.0
 51
180.0
  0
ARC
  5
1746D
330
125AA
100
AcDbEntity
  8
SUNPOU
100
AcDbCircle
 10
6794.127507899641
 20
9408.243182432325
 30
0.0
 40
5.625
100
AcDbArc
 50
0.0
 51
180.0
  0
ARC
  5
1746E
330
125AA
100
AcDbEntity
  8
SUNPOU
100
AcDbCircle
 10
6794.127507899641
 20
9408.243182432325
 30
0.0
 40
5.625
100
AcDbArc
 50
180.0
 51
0.0
  0
ARC
  5
1746F
330
125AA
100
AcDbEntity
  8
SUNPOU
100
AcDbCircle
 10
7194.127507899641
 20
9408.243182432325
 30
0.0
 40
5.625
100
AcDbArc
 50
180.0
 51
0.0
  0
ARC
  5
17470
330
125AA
100
AcDbEntity
  8
SUNPOU
100
AcDbCircle
 10
7194.127507899641
 20
9408.243182432325
 30
0.0
 40
5.625
100
AcDbArc
 50
0.0
 51
180.0
  0
ARC
  5
17471
330
125AA
100
AcDbEntity
  8
SUNPOU
100
AcDbCircle
 10
10044.12750789964
 20
9618.243182432324
 30
0.0
 40
5.625
100
AcDbArc
 50
180.0
 51
0.0
  0
ARC
  5
17472
330
125AA
100
AcDbEntity
  8
SUNPOU
100
AcDbCircle
 10
10044.12750789964
 20
9618.243182432324
 30
0.0
 40
5.625
100
AcDbArc
 50
0.0
 51
180.0
  0
ARC
  5
17473
330
125AA
100
AcDbEntity
  8
SUNPOU
100
AcDbCircle
 10
6794.127507899641
 20
9618.243182432324
 30
0.0
 40
5.625
100
AcDbArc
 50
0.0
 51
180.0
  0
ARC
  5
17474
330
125AA
100
AcDbEntity
  8
SUNPOU
100
AcDbCircle
 10
6794.127507899641
 20
9618.243182432324
 30
0.0
 40
5.625
100
AcDbArc
 50
180.0
 51
0.0
  0
ARC
  5
1747C
330
125AA
100
AcDbEntity
  8
HIKIDASHI
100
AcDbCircle
 10
4217.388914848876
 20
4214.34846204352
 30
0.0
 40
74.66417910446155
100
AcDbArc
 50
164.8596129851117
 51
237.5045002941574
  0
ARC
  5
1747D
330
125AA
100
AcDbEntity
  8
HIKIDASHI
100
AcDbCircle
 10
4153.965120802623
 20
4231.50948552799
 30
0.0
 40
8.959701492535391
100
AcDbArc
 50
15.14038701506339
 51
164.8596129849366
  0
LINE
  5
17480
330
125AA
100
AcDbEntity
  8
HIKIDASHI
100
AcDbLine
 10
4058.272423574408
 20
3024.462392359007
 30
0.0
 11
3864.689878611732
 21
2573.963733520729
 31
0.0
  0
LINE
  5
17481
330
125AA
100
AcDbEntity
  8
HIKIDASHI
100
AcDbLine
 10
4070.522647101362
 20
3019.198382355458
 30
0.0
 11
4089.856483595691
 21
3097.963733520729
 31
0.0
  0
LINE
  5
17482
330
125AA
100
AcDbEntity
  8
HIKIDASHI
100
AcDbLine
 10
4089.856483595691
 20
3097.963733520729
 30
0.0
 11
4046.022200047453
 21
3029.726402362554
 31
0.0
  0
SOLID
  5
17483
330
125AA
100
AcDbEntity
  8
HIKIDASHI
100
AcDbTrace
 10
4070.522647101362
 20
3019.198382355458
 30
0.0
 11
4046.022200047453
 21
3029.726402362554
 31
0.0
 12
4089.856483595691
 22
3097.963733520729
 32
0.0
 13
4089.856483595691
 23
3097.963733520729
 33
0.0
  0
LINE
  5
17484
330
125AA
100
AcDbEntity
  8
HIKIDASHI
100
AcDbLine
 10
4046.022200047453
 20
3029.726402362554
 30
0.0
 11
4070.522647101362
 21
3019.198382355458
 31
0.0
  0
LINE
  5
17485
330
125AA
100
AcDbEntity
  8
HIKIDASHI
100
AcDbLine
 10
5719.385201492448
 20
3823.245765823486
 30
0.0
 11
5991.154346854814
 21
4293.963733520728
 31
0.0
1001
ACAD
1000
DSTYLE
1002
{
1070
   147
1040
1.0
1070
    77
1070
     0
1002
}
  0
LINE
  5
17486
330
125AA
100
AcDbEntity
  8
HIKIDASHI
100
AcDbLine
 10
5707.838196108657
 20
3829.912432490152
 30
0.0
 11
5679.385201492451
 21
3753.963733520729
 31
0.0
  0
LINE
  5
17487
330
125AA
100
AcDbEntity
  8
HIKIDASHI
100
AcDbLine
 10
5679.385201492451
 20
3753.963733520729
 30
0.0
 11
5730.932206876241
 21
3816.57909915682
 31
0.0
  0
SOLID
  5
17488
330
125AA
100
AcDbEntity
  8
HIKIDASHI
100
AcDbTrace
 10
5707.838196108657
 20
3829.912432490152
 30
0.0
 11
5730.932206876241
 21
3816.57909915682
 31
0.0
 12
5679.385201492451
 22
3753.963733520729
 32
0.0
 13
5679.385201492451
 23
3753.963733520729
 33
0.0
  0
LINE
  5
17489
330
125AA
100
AcDbEntity
  8
HIKIDASHI
100
AcDbLine
 10
5730.932206876241
 20
3816.57909915682
 30
0.0
 11
5707.838196108657
 21
3829.912432490152
 31
0.0
  0
LINE
  5
1748A
330
125AA
100
AcDbEntity
  8
HIKIDASHI
100
AcDbLine
 10
5936.424512455826
 20
3642.477924325876
 30
0.0
 11
6196.483271007117
 21
4083.963733520728
 31
0.0
1001
ACAD
1000
DSTYLE
1002
{
1070
   147
1040
1.0
1070
    77
1070
     0
1070
   173
1070
     0
1070
   341
1005
125B0
1002
}
  0
ARC
  5
1748B
330
125AA
100
AcDbEntity
  8
HIKIDASHI
100
AcDbCircle
 10
5906.320199686221
 20
3551.966211169526
 30
0.0
 40
24.0
100
AcDbArc
 50
3.056949146300892
 51
115.9423296224592
  0
ARC
  5
1748C
330
125AA
100
AcDbEntity
  8
HIKIDASHI
100
AcDbCircle
 10
5885.321819467964
 20
3595.129482920051
 30
0.0
 40
24.0
100
AcDbArc
 50
183.0569491463009
 51
295.9423296224593
  0
LINE
  5
1748D
330
125AA
100
AcDbEntity
  8
HIKIDASHI
100
AcDbLine
 10
5895.821009577092
 20
3573.547847044789
 30
0.0
 11
5936.424512455836
 21
3642.477924325891
 31
0.0
  0
ARC
  5
1748E
330
125AA
100
AcDbEntity
  8
HIKIDASHI
100
AcDbCircle
 10
4091.720853292108
 20
4215.528589403109
 30
0.0
 40
74.66417910446081
100
AcDbArc
 50
301.7712278330701
 51
15.1403870149094
  0
LINE
  5
1748F
330
125AA
100
AcDbEntity
  8
HIKIDASHI
100
AcDbLine
 10
4627.888538436751
 20
3319.245765823483
 30
0.0
 11
4186.816957180232
 21
4083.204154334509
 31
0.0
1001
ACAD
1000
DSTYLE
1002
{
1070
   147
1040
1.0
1070
    77
1070
     0
1002
}
  0
LINE
  5
17490
330
125AA
100
AcDbEntity
  8
HIKIDASHI
100
AcDbLine
 10
4616.341533052959
 20
3312.579099156816
 30
0.0
 11
4667.888538436751
 21
3249.963733520729
 31
0.0
  0
LINE
  5
17491
330
125AA
100
AcDbEntity
  8
HIKIDASHI
100
AcDbLine
 10
4667.888538436751
 20
3249.963733520729
 30
0.0
 11
4639.435543820545
 21
3325.912432490151
 31
0.0
  0
SOLID
  5
17492
330
125AA
100
AcDbEntity
  8
HIKIDASHI
100
AcDbTrace
 10
4616.341533052959
 20
3312.579099156816
 30
0.0
 11
4639.435543820545
 21
3325.912432490151
 31
0.0
 12
4667.888538436751
 22
3249.963733520729
 32
0.0
 13
4667.888538436751
 23
3249.963733520729
 33
0.0
  0
LINE
  5
17493
330
125AA
100
AcDbEntity
  8
HIKIDASHI
100
AcDbLine
 10
4639.435543820545
 20
3325.912432490151
 30
0.0
 11
4616.341533052959
 21
3312.579099156816
 31
0.0
  0
LINE
  5
17494
330
125AA
100
AcDbEntity
  8
HATCH
100
AcDbLine
 10
4153.544817397462
 20
2985.963733520728
 30
0.0
 11
4245.92086046779
 21
3145.963733520704
 31
0.0
  0
LINE
  5
17495
330
125AA
100
AcDbEntity
  8
HATCH
100
AcDbLine
 10
4181.920860467799
 20
3145.963733520703
 30
0.0
 11
4213.920860467793
 21
3090.538107678511
 31
0.0
  0
LINE
  5
17496
330
125AA
100
AcDbEntity
  8
HATCH
100
AcDbLine
 10
4185.544817397459
 20
3041.389359362926
 30
0.0
 11
4217.544817397453
 21
2985.963733520728
 31
0.0
  0
LINE
  5
17497
330
125AA
100
AcDbEntity
  8
HATCH
100
AcDbLine
 10
5553.544817397463
 20
2985.96373352073
 30
0.0
 11
5645.920860467789
 21
3145.963733520706
 31
0.0
  0
LINE
  5
17498
330
125AA
100
AcDbEntity
  8
HATCH
100
AcDbLine
 10
5581.920860467799
 20
3145.963733520704
 30
0.0
 11
5613.920860467795
 21
3090.538107678512
 31
0.0
  0
LINE
  5
17499
330
125AA
100
AcDbEntity
  8
HATCH
100
AcDbLine
 10
5585.544817397458
 20
3041.389359362927
 30
0.0
 11
5617.544817397453
 21
2985.96373352073
 31
0.0
  0
LINE
  5
1749A
330
125AA
100
AcDbEntity
  8
HATCH
100
AcDbLine
 10
4753.544817397462
 20
2985.963733520728
 30
0.0
 11
4845.920860467789
 21
3145.963733520705
 31
0.0
  0
LINE
  5
1749B
330
125AA
100
AcDbEntity
  8
HATCH
100
AcDbLine
 10
4781.920860467798
 20
3145.963733520704
 30
0.0
 11
4813.920860467793
 21
3090.538107678512
 31
0.0
  0
LINE
  5
1749C
330
125AA
100
AcDbEntity
  8
HATCH
100
AcDbLine
 10
4785.544817397457
 20
3041.389359362927
 30
0.0
 11
4817.544817397452
 21
2985.963733520728
 31
0.0
  0
LINE
  5
1749D
330
125AA
100
AcDbEntity
  8
HATCH
100
AcDbLine
 10
4353.544817397462
 20
2985.963733520728
 30
0.0
 11
4445.920860467789
 21
3145.963733520705
 31
0.0
  0
LINE
  5
1749E
330
125AA
100
AcDbEntity
  8
HATCH
100
AcDbLine
 10
4381.920860467798
 20
3145.963733520704
 30
0.0
 11
4413.920860467793
 21
3090.538107678512
 31
0.0
  0
LINE
  5
1749F
330
125AA
100
AcDbEntity
  8
HATCH
100
AcDbLine
 10
4385.544817397457
 20
3041.389359362927
 30
0.0
 11
4417.544817397452
 21
2985.963733520728
 31
0.0
  0
LINE
  5
174A0
330
125AA
100
AcDbEntity
  8
HATCH
100
AcDbLine
 10
4553.544817397462
 20
2985.963733520728
 30
0.0
 11
4645.920860467787
 21
3145.963733520705
 31
0.0
  0
LINE
  5
174A1
330
125AA
100
AcDbEntity
  8
HATCH
100
AcDbLine
 10
4581.920860467798
 20
3145.963733520704
 30
0.0
 11
4613.920860467793
 21
3090.538107678512
 31
0.0
  0
LINE
  5
174A2
330
125AA
100
AcDbEntity
  8
HATCH
100
AcDbLine
 10
4585.544817397457
 20
3041.389359362927
 30
0.0
 11
4617.544817397452
 21
2985.963733520728
 31
0.0
  0
LINE
  5
174A3
330
125AA
100
AcDbEntity
  8
HATCH
100
AcDbLine
 10
4953.544817397462
 20
2985.963733520728
 30
0.0
 11
5045.920860467789
 21
3145.963733520705
 31
0.0
  0
LINE
  5
174A4
330
125AA
100
AcDbEntity
  8
HATCH
100
AcDbLine
 10
4981.920860467798
 20
3145.963733520704
 30
0.0
 11
5013.920860467793
 21
3090.538107678512
 31
0.0
  0
LINE
  5
174A5
330
125AA
100
AcDbEntity
  8
HATCH
100
AcDbLine
 10
4985.544817397457
 20
3041.389359362927
 30
0.0
 11
5017.544817397452
 21
2985.963733520728
 31
0.0
  0
LINE
  5
174A6
330
125AA
100
AcDbEntity
  8
HATCH
100
AcDbLine
 10
5153.544817397462
 20
2985.963733520728
 30
0.0
 11
5245.920860467789
 21
3145.963733520705
 31
0.0
  0
LINE
  5
174A7
330
125AA
100
AcDbEntity
  8
HATCH
100
AcDbLine
 10
5181.920860467798
 20
3145.963733520704
 30
0.0
 11
5213.920860467793
 21
3090.538107678512
 31
0.0
  0
LINE
  5
174A8
330
125AA
100
AcDbEntity
  8
HATCH
100
AcDbLine
 10
5185.544817397457
 20
3041.389359362927
 30
0.0
 11
5217.544817397453
 21
2985.963733520728
 31
0.0
  0
LINE
  5
174A9
330
125AA
100
AcDbEntity
  8
HATCH
100
AcDbLine
 10
5353.544817397462
 20
2985.963733520728
 30
0.0
 11
5445.920860467789
 21
3145.963733520705
 31
0.0
  0
LINE
  5
174AA
330
125AA
100
AcDbEntity
  8
HATCH
100
AcDbLine
 10
5381.920860467798
 20
3145.963733520704
 30
0.0
 11
5413.920860467793
 21
3090.538107678512
 31
0.0
  0
LINE
  5
174AB
330
125AA
100
AcDbEntity
  8
HATCH
100
AcDbLine
 10
5385.544817397457
 20
3041.389359362927
 30
0.0
 11
5417.544817397452
 21
2985.963733520728
 31
0.0
  0
LINE
  5
174AC
330
125AA
100
AcDbEntity
  8
tekkin
100
AcDbLine
 10
4941.856483595691
 20
3233.96373352073
 30
0.0
 11
5169.856483595691
 21
3233.96373352073
 31
0.0
  0
LINE
  5
174AD
330
125AA
100
AcDbEntity
  8
tekkin
100
AcDbLine
 10
5169.856483595691
 20
3233.96373352073
 30
0.0
 11
5169.856483595691
 21
3249.963733520729
 31
0.0
  0
LINE
  5
174AE
330
125AA
100
AcDbEntity
  8
tekkin
100
AcDbLine
 10
5169.856483595691
 20
3249.963733520729
 30
0.0
 11
4941.856483595691
 21
3249.963733520729
 31
0.0
  0
LINE
  5
174AF
330
125AA
100
AcDbEntity
  8
tekkin
100
AcDbLine
 10
4837.856483595691
 20
3249.963733520729
 30
0.0
 11
4609.856483595691
 21
3249.963733520729
 31
0.0
  0
LINE
  5
174B0
330
125AA
100
AcDbEntity
  8
tekkin
100
AcDbLine
 10
4609.856483595691
 20
3249.963733520729
 30
0.0
 11
4609.856483595691
 21
3233.96373352073
 31
0.0
  0
LINE
  5
174B1
330
125AA
100
AcDbEntity
  8
tekkin
100
AcDbLine
 10
4609.856483595691
 20
3233.96373352073
 30
0.0
 11
4837.856483595691
 21
3233.96373352073
 31
0.0
  0
LINE
  5
174B2
330
125AA
100
AcDbEntity
  8
DOMAKON
100
AcDbLine
 10
6794.127507899641
 20
8908.243182432327
 30
0.0
 11
10044.12750789964
 21
8908.243182432327
 31
0.0
  0
LINE
  5
174B3
330
125AA
100
AcDbEntity
  8
DOMAKON
100
AcDbLine
 10
10044.12750789964
 20
8908.243182432327
 30
0.0
 11
10044.12750789964
 21
6508.243182432327
 31
0.0
  0
LINE
  5
174B4
330
125AA
100
AcDbEntity
  8
DOMAKON
100
AcDbLine
 10
10044.12750789964
 20
6508.243182432327
 30
0.0
 11
6794.127507899641
 21
6508.243182432327
 31
0.0
  0
LINE
  5
174B5
330
125AA
100
AcDbEntity
  8
DOMAKON
100
AcDbLine
 10
6794.127507899641
 20
6508.243182432327
 30
0.0
 11
6794.127507899641
 21
8908.243182432327
 31
0.0
  0
LINE
  5
174B6
330
125AA
100
AcDbEntity
  8
U1
100
AcDbLine
 10
7200.327507899641
 20
6938.443182432327
 30
0.0
 11
7167.927507899641
 21
6938.443182432327
 31
0.0
  0
LINE
  5
174B7
330
125AA
100
AcDbEntity
  8
U1
100
AcDbLine
 10
7167.927507899641
 20
6878.043182432326
 30
0.0
 11
7220.327507899641
 21
6878.043182432326
 31
0.0
  0
ARC
  5
174B9
330
125AA
100
AcDbEntity
  8
U1
100
AcDbCircle
 10
7167.927507899641
 20
6882.043182432325
 30
0.0
 40
4.0
100
AcDbArc
 50
180.0
 51
270.0
  0
ARC
  5
174BA
330
125AA
100
AcDbEntity
  8
U1
100
AcDbCircle
 10
7167.927507899641
 20
6934.443182432325
 30
0.0
 40
4.0
100
AcDbArc
 50
90.0
 51
180.0
  0
LINE
  5
174BB
330
125AA
100
AcDbEntity
  8
U1
100
AcDbLine
 10
7163.92750789964
 20
6934.443182432325
 30
0.0
 11
7163.92750789964
 21
6882.043182432325
 31
0.0
  0
ARC
  5
174BC
330
125AA
100
AcDbEntity
  8
U1
100
AcDbCircle
 10
7220.327507899641
 20
6882.043182432325
 30
0.0
 40
4.0
100
AcDbArc
 50
270.0
 51
0.0
  0
ARC
  5
174BD
330
125AA
100
AcDbEntity
  8
U1
100
AcDbCircle
 10
7200.327507899641
 20
6934.443182432325
 30
0.0
 40
4.0
100
AcDbArc
 50
0.0
 51
90.0
  0
ARC
  5
174BE
330
125AA
100
AcDbEntity
  8
U1
100
AcDbCircle
 10
7207.777507899641
 20
6925.193182432327
 30
0.0
 40
1.149999999999977
100
AcDbArc
 50
180.0
 51
0.0
  0
LINE
  5
174BF
330
125AA
100
AcDbEntity
  8
U1
100
AcDbLine
 10
7211.22750789964
 20
6932.743182432327
 30
0.0
 11
7211.22750789964
 21
6925.193182432327
 31
0.0
  0
LINE
  5
174C0
330
125AA
100
AcDbEntity
  8
U1
100
AcDbLine
 10
7208.927507899641
 20
6932.743182432327
 30
0.0
 11
7211.22750789964
 21
6932.743182432327
 31
0.0
  0
LINE
  5
174C1
330
125AA
100
AcDbEntity
  8
U1
100
AcDbLine
 10
7206.627507899641
 20
6925.743182432326
 30
0.0
 11
7208.927507899641
 21
6925.743182432326
 31
0.0
  0
ARC
  5
174C2
330
125AA
100
AcDbEntity
  8
U1
100
AcDbCircle
 10
7207.777507899641
 20
6925.193182432327
 30
0.0
 40
3.450000000000044
100
AcDbArc
 50
180.0
 51
0.0
  0
LINE
  5
174C3
330
125AA
100
AcDbEntity
  8
U1
100
AcDbLine
 10
7206.627507899641
 20
6925.193182432327
 30
0.0
 11
7206.627507899641
 21
6934.443182432325
 31
0.0
  0
LINE
  5
174C4
330
125AA
100
AcDbEntity
  8
U1
100
AcDbLine
 10
7208.927507899641
 20
6934.443182432325
 30
0.0
 11
7208.927507899641
 21
6925.193182432327
 31
0.0
  0
LINE
  5
174C5
330
125AA
100
AcDbEntity
  8
U1
100
AcDbLine
 10
7204.327507899641
 20
6925.193182432327
 30
0.0
 11
7204.327507899641
 21
6934.443182432325
 31
0.0
  0
ARC
  5
174C6
330
125AA
100
AcDbEntity
  8
U1
100
AcDbCircle
 10
7220.327507899638
 20
6934.443182432325
 30
0.0
 40
4.0
100
AcDbArc
 50
0.0
 51
90.0
  0
LINE
  5
174C7
330
125AA
100
AcDbEntity
  8
U1
100
AcDbLine
 10
7220.327507899638
 20
6938.443182432327
 30
0.0
 11
7212.927507899641
 21
6938.443182432327
 31
0.0
  0
ARC
  5
174C8
330
125AA
100
AcDbEntity
  8
U1
100
AcDbCircle
 10
7212.927507899641
 20
6934.443182432325
 30
0.0
 40
4.0
100
AcDbArc
 50
90.0
 51
180.0
  0
LINE
  5
174C9
330
125AA
100
AcDbEntity
  8
U1
100
AcDbLine
 10
7224.327507899642
 20
6882.043182432325
 30
0.0
 11
7224.327507899642
 21
6934.443182432325
 31
0.0
  0
LINE
  5
174CA
330
125AA
100
AcDbEntity
  8
U1
100
AcDbLine
 10
7200.327507899641
 20
8738.443182432325
 30
0.0
 11
7167.927507899641
 21
8738.443182432325
 31
0.0
  0
LINE
  5
174CB
330
125AA
100
AcDbEntity
  8
U1
100
AcDbLine
 10
7167.927507899641
 20
8678.043182432324
 30
0.0
 11
7220.327507899641
 21
8678.043182432324
 31
0.0
  0
ARC
  5
174CD
330
125AA
100
AcDbEntity
  8
U1
100
AcDbCircle
 10
7167.927507899641
 20
8682.043182432328
 30
0.0
 40
4.0
100
AcDbArc
 50
180.0
 51
270.0
  0
ARC
  5
174CE
330
125AA
100
AcDbEntity
  8
U1
100
AcDbCircle
 10
7167.927507899641
 20
8734.443182432325
 30
0.0
 40
4.0
100
AcDbArc
 50
90.0
 51
180.0
  0
LINE
  5
174CF
330
125AA
100
AcDbEntity
  8
U1
100
AcDbLine
 10
7163.92750789964
 20
8734.443182432325
 30
0.0
 11
7163.92750789964
 21
8682.043182432328
 31
0.0
  0
ARC
  5
174D0
330
125AA
100
AcDbEntity
  8
U1
100
AcDbCircle
 10
7220.327507899641
 20
8682.043182432328
 30
0.0
 40
4.0
100
AcDbArc
 50
270.0
 51
0.0
  0
ARC
  5
174D1
330
125AA
100
AcDbEntity
  8
U1
100
AcDbCircle
 10
7200.327507899641
 20
8734.443182432325
 30
0.0
 40
4.0
100
AcDbArc
 50
0.0
 51
90.0
  0
ARC
  5
174D2
330
125AA
100
AcDbEntity
  8
U1
100
AcDbCircle
 10
7207.777507899641
 20
8725.193182432326
 30
0.0
 40
1.149999999999977
100
AcDbArc
 50
180.0
 51
0.0
  0
LINE
  5
174D3
330
125AA
100
AcDbEntity
  8
U1
100
AcDbLine
 10
7211.22750789964
 20
8732.743182432328
 30
0.0
 11
7211.22750789964
 21
8725.193182432326
 31
0.0
  0
LINE
  5
174D4
330
125AA
100
AcDbEntity
  8
U1
100
AcDbLine
 10
7208.927507899641
 20
8732.743182432328
 30
0.0
 11
7211.22750789964
 21
8732.743182432328
 31
0.0
  0
LINE
  5
174D5
330
125AA
100
AcDbEntity
  8
U1
100
AcDbLine
 10
7206.627507899641
 20
8725.743182432326
 30
0.0
 11
7208.927507899641
 21
8725.743182432326
 31
0.0
  0
ARC
  5
174D6
330
125AA
100
AcDbEntity
  8
U1
100
AcDbCircle
 10
7207.777507899641
 20
8725.193182432326
 30
0.0
 40
3.450000000000044
100
AcDbArc
 50
180.0
 51
0.0
  0
LINE
  5
174D7
330
125AA
100
AcDbEntity
  8
U1
100
AcDbLine
 10
7206.627507899641
 20
8725.193182432326
 30
0.0
 11
7206.627507899641
 21
8734.443182432325
 31
0.0
  0
LINE
  5
174D8
330
125AA
100
AcDbEntity
  8
U1
100
AcDbLine
 10
7208.927507899641
 20
8734.443182432325
 30
0.0
 11
7208.927507899641
 21
8725.193182432326
 31
0.0
  0
LINE
  5
174D9
330
125AA
100
AcDbEntity
  8
U1
100
AcDbLine
 10
7204.327507899641
 20
8725.193182432326
 30
0.0
 11
7204.327507899641
 21
8734.443182432325
 31
0.0
  0
ARC
  5
174DA
330
125AA
100
AcDbEntity
  8
U1
100
AcDbCircle
 10
7220.327507899638
 20
8734.443182432325
 30
0.0
 40
4.0
100
AcDbArc
 50
0.0
 51
90.0
  0
LINE
  5
174DB
330
125AA
100
AcDbEntity
  8
U1
100
AcDbLine
 10
7220.327507899638
 20
8738.443182432325
 30
0.0
 11
7212.927507899641
 21
8738.443182432325
 31
0.0
  0
ARC
  5
174DC
330
125AA
100
AcDbEntity
  8
U1
100
AcDbCircle
 10
7212.927507899641
 20
8734.443182432325
 30
0.0
 40
4.0
100
AcDbArc
 50
90.0
 51
180.0
  0
LINE
  5
174DD
330
125AA
100
AcDbEntity
  8
U1
100
AcDbLine
 10
7224.327507899642
 20
8682.043182432328
 30
0.0
 11
7224.327507899642
 21
8734.443182432325
 31
0.0
  0
LINE
  5
174DE
330
125AA
100
AcDbEntity
  8
U1
100
AcDbLine
 10
9650.327507899639
 20
8738.443182432325
 30
0.0
 11
9617.927507899642
 21
8738.443182432325
 31
0.0
  0
LINE
  5
174DF
330
125AA
100
AcDbEntity
  8
U1
100
AcDbLine
 10
9617.927507899642
 20
8678.043182432324
 30
0.0
 11
9670.32750789964
 21
8678.043182432324
 31
0.0
  0
ARC
  5
174E1
330
125AA
100
AcDbEntity
  8
U1
100
AcDbCircle
 10
9617.927507899642
 20
8682.043182432328
 30
0.0
 40
4.0
100
AcDbArc
 50
180.0
 51
270.0
  0
ARC
  5
174E2
330
125AA
100
AcDbEntity
  8
U1
100
AcDbCircle
 10
9617.927507899642
 20
8734.443182432325
 30
0.0
 40
4.0
100
AcDbArc
 50
90.0
 51
180.0
  0
LINE
  5
174E3
330
125AA
100
AcDbEntity
  8
U1
100
AcDbLine
 10
9613.927507899642
 20
8734.443182432325
 30
0.0
 11
9613.927507899642
 21
8682.043182432328
 31
0.0
  0
ARC
  5
174E4
330
125AA
100
AcDbEntity
  8
U1
100
AcDbCircle
 10
9670.32750789964
 20
8682.043182432328
 30
0.0
 40
4.0
100
AcDbArc
 50
270.0
 51
0.0
  0
ARC
  5
174E5
330
125AA
100
AcDbEntity
  8
U1
100
AcDbCircle
 10
9650.327507899639
 20
8734.443182432325
 30
0.0
 40
4.0
100
AcDbArc
 50
0.0
 51
90.0
  0
ARC
  5
174E6
330
125AA
100
AcDbEntity
  8
U1
100
AcDbCircle
 10
9657.777507899645
 20
8725.193182432326
 30
0.0
 40
1.149999999999977
100
AcDbArc
 50
180.0
 51
0.0
  0
LINE
  5
174E7
330
125AA
100
AcDbEntity
  8
U1
100
AcDbLine
 10
9661.22750789964
 20
8732.743182432328
 30
0.0
 11
9661.22750789964
 21
8725.193182432326
 31
0.0
  0
LINE
  5
174E8
330
125AA
100
AcDbEntity
  8
U1
100
AcDbLine
 10
9658.927507899642
 20
8732.743182432328
 30
0.0
 11
9661.22750789964
 21
8732.743182432328
 31
0.0
  0
LINE
  5
174E9
330
125AA
100
AcDbEntity
  8
U1
100
AcDbLine
 10
9656.627507899642
 20
8725.743182432326
 30
0.0
 11
9658.927507899642
 21
8725.743182432326
 31
0.0
  0
ARC
  5
174EA
330
125AA
100
AcDbEntity
  8
U1
100
AcDbCircle
 10
9657.777507899645
 20
8725.193182432326
 30
0.0
 40
3.450000000000044
100
AcDbArc
 50
180.0
 51
0.0
  0
LINE
  5
174EB
330
125AA
100
AcDbEntity
  8
U1
100
AcDbLine
 10
9656.627507899642
 20
8725.193182432326
 30
0.0
 11
9656.627507899642
 21
8734.443182432325
 31
0.0
  0
LINE
  5
174EC
330
125AA
100
AcDbEntity
  8
U1
100
AcDbLine
 10
9658.927507899642
 20
8734.443182432325
 30
0.0
 11
9658.927507899642
 21
8725.193182432326
 31
0.0
  0
LINE
  5
174ED
330
125AA
100
AcDbEntity
  8
U1
100
AcDbLine
 10
9654.32750789964
 20
8725.193182432326
 30
0.0
 11
9654.32750789964
 21
8734.443182432325
 31
0.0
  0
ARC
  5
174EE
330
125AA
100
AcDbEntity
  8
U1
100
AcDbCircle
 10
9670.32750789964
 20
8734.443182432325
 30
0.0
 40
4.0
100
AcDbArc
 50
0.0
 51
90.0
  0
LINE
  5
174EF
330
125AA
100
AcDbEntity
  8
U1
100
AcDbLine
 10
9670.32750789964
 20
8738.443182432325
 30
0.0
 11
9662.927507899642
 21
8738.443182432325
 31
0.0
  0
ARC
  5
174F0
330
125AA
100
AcDbEntity
  8
U1
100
AcDbCircle
 10
9662.927507899642
 20
8734.443182432325
 30
0.0
 40
4.0
100
AcDbArc
 50
90.0
 51
180.0
  0
LINE
  5
174F1
330
125AA
100
AcDbEntity
  8
U1
100
AcDbLine
 10
9674.32750789964
 20
8682.043182432328
 30
0.0
 11
9674.32750789964
 21
8734.443182432325
 31
0.0
  0
LINE
  5
174F2
330
125AA
100
AcDbEntity
  8
U1
100
AcDbLine
 10
9650.327507899639
 20
6938.443182432327
 30
0.0
 11
9617.927507899642
 21
6938.443182432327
 31
0.0
  0
LINE
  5
174F3
330
125AA
100
AcDbEntity
  8
U1
100
AcDbLine
 10
9617.927507899642
 20
6878.043182432326
 30
0.0
 11
9670.32750789964
 21
6878.043182432326
 31
0.0
  0
ARC
  5
174F5
330
125AA
100
AcDbEntity
  8
U1
100
AcDbCircle
 10
9617.927507899642
 20
6882.043182432325
 30
0.0
 40
4.0
100
AcDbArc
 50
180.0
 51
270.0
  0
ARC
  5
174F6
330
125AA
100
AcDbEntity
  8
U1
100
AcDbCircle
 10
9617.927507899642
 20
6934.443182432325
 30
0.0
 40
4.0
100
AcDbArc
 50
90.0
 51
180.0
  0
LINE
  5
174F7
330
125AA
100
AcDbEntity
  8
U1
100
AcDbLine
 10
9613.927507899642
 20
6934.443182432325
 30
0.0
 11
9613.927507899642
 21
6882.043182432325
 31
0.0
  0
ARC
  5
174F8
330
125AA
100
AcDbEntity
  8
U1
100
AcDbCircle
 10
9670.32750789964
 20
6882.043182432325
 30
0.0
 40
4.0
100
AcDbArc
 50
270.0
 51
0.0
  0
ARC
  5
174F9
330
125AA
100
AcDbEntity
  8
U1
100
AcDbCircle
 10
9650.327507899639
 20
6934.443182432325
 30
0.0
 40
4.0
100
AcDbArc
 50
0.0
 51
90.0
  0
ARC
  5
174FA
330
125AA
100
AcDbEntity
  8
U1
100
AcDbCircle
 10
9657.777507899645
 20
6925.193182432327
 30
0.0
 40
1.149999999999977
100
AcDbArc
 50
180.0
 51
0.0
  0
LINE
  5
174FB
330
125AA
100
AcDbEntity
  8
U1
100
AcDbLine
 10
9661.22750789964
 20
6932.743182432327
 30
0.0
 11
9661.22750789964
 21
6925.193182432327
 31
0.0
  0
LINE
  5
174FC
330
125AA
100
AcDbEntity
  8
U1
100
AcDbLine
 10
9658.927507899642
 20
6932.743182432327
 30
0.0
 11
9661.22750789964
 21
6932.743182432327
 31
0.0
  0
LINE
  5
174FD
330
125AA
100
AcDbEntity
  8
U1
100
AcDbLine
 10
9656.627507899642
 20
6925.743182432326
 30
0.0
 11
9658.927507899642
 21
6925.743182432326
 31
0.0
  0
ARC
  5
174FE
330
125AA
100
AcDbEntity
  8
U1
100
AcDbCircle
 10
9657.777507899645
 20
6925.193182432327
 30
0.0
 40
3.450000000000044
100
AcDbArc
 50
180.0
 51
0.0
  0
LINE
  5
174FF
330
125AA
100
AcDbEntity
  8
U1
100
AcDbLine
 10
9656.627507899642
 20
6925.193182432327
 30
0.0
 11
9656.627507899642
 21
6934.443182432325
 31
0.0
  0
LINE
  5
17500
330
125AA
100
AcDbEntity
  8
U1
100
AcDbLine
 10
9658.927507899642
 20
6934.443182432325
 30
0.0
 11
9658.927507899642
 21
6925.193182432327
 31
0.0
  0
LINE
  5
17501
330
125AA
100
AcDbEntity
  8
U1
100
AcDbLine
 10
9654.32750789964
 20
6925.193182432327
 30
0.0
 11
9654.32750789964
 21
6934.443182432325
 31
0.0
  0
ARC
  5
17502
330
125AA
100
AcDbEntity
  8
U1
100
AcDbCircle
 10
9670.32750789964
 20
6934.443182432325
 30
0.0
 40
4.0
100
AcDbArc
 50
0.0
 51
90.0
  0
LINE
  5
17503
330
125AA
100
AcDbEntity
  8
U1
100
AcDbLine
 10
9670.32750789964
 20
6938.443182432327
 30
0.0
 11
9662.927507899642
 21
6938.443182432327
 31
0.0
  0
ARC
  5
17504
330
125AA
100
AcDbEntity
  8
U1
100
AcDbCircle
 10
9662.927507899642
 20
6934.443182432325
 30
0.0
 40
4.0
100
AcDbArc
 50
90.0
 51
180.0
  0
LINE
  5
17505
330
125AA
100
AcDbEntity
  8
U1
100
AcDbLine
 10
9674.32750789964
 20
6882.043182432325
 30
0.0
 11
9674.32750789964
 21
6934.443182432325
 31
0.0
  0
LINE
  5
17506
330
125AA
100
AcDbEntity
  8
KISO
100
AcDbLine
 10
10044.12750789964
 20
6508.243182432327
 30
0.0
 11
9244.127507899641
 21
6508.243182432327
 31
0.0
  0
LINE
  5
17507
330
125AA
100
AcDbEntity
  8
KISO
100
AcDbLine
 10
9244.127507899641
 20
6508.243182432327
 30
0.0
 11
9244.127507899641
 21
7308.243182432327
 31
0.0
  0
LINE
  5
17508
330
125AA
100
AcDbEntity
  8
KISO
100
AcDbLine
 10
9244.127507899641
 20
7308.243182432327
 30
0.0
 11
10044.12750789964
 21
7308.243182432327
 31
0.0
  0
LINE
  5
17509
330
125AA
100
AcDbEntity
  8
KISO
100
AcDbLine
 10
10044.12750789964
 20
7308.243182432327
 30
0.0
 11
10044.12750789964
 21
6508.243182432327
 31
0.0
  0
LINE
  5
1750A
330
125AA
100
AcDbEntity
  8
KISO
100
AcDbLine
 10
10044.12750789964
 20
8308.243182432326
 30
0.0
 11
9244.127507899641
 21
8308.243182432326
 31
0.0
  0
LINE
  5
1750B
330
125AA
100
AcDbEntity
  8
KISO
100
AcDbLine
 10
9244.127507899641
 20
8308.243182432326
 30
0.0
 11
9244.127507899641
 21
9108.243182432328
 31
0.0
  0
LINE
  5
1750C
330
125AA
100
AcDbEntity
  8
KISO
100
AcDbLine
 10
9244.127507899641
 20
9108.243182432328
 30
0.0
 11
10044.12750789964
 21
9108.243182432328
 31
0.0
  0
LINE
  5
1750D
330
125AA
100
AcDbEntity
  8
KISO
100
AcDbLine
 10
10044.12750789964
 20
9108.243182432328
 30
0.0
 11
10044.12750789964
 21
8308.243182432326
 31
0.0
  0
LINE
  5
1750E
330
125AA
100
AcDbEntity
  8
KISO
100
AcDbLine
 10
7594.127507899641
 20
8308.243182432326
 30
0.0
 11
6794.127507899641
 21
8308.243182432326
 31
0.0
  0
LINE
  5
1750F
330
125AA
100
AcDbEntity
  8
KISO
100
AcDbLine
 10
6794.127507899641
 20
8308.243182432326
 30
0.0
 11
6794.127507899641
 21
9108.243182432328
 31
0.0
  0
LINE
  5
17510
330
125AA
100
AcDbEntity
  8
KISO
100
AcDbLine
 10
6794.127507899641
 20
9108.243182432328
 30
0.0
 11
7594.127507899641
 21
9108.243182432328
 31
0.0
  0
LINE
  5
17511
330
125AA
100
AcDbEntity
  8
KISO
100
AcDbLine
 10
7594.127507899641
 20
9108.243182432328
 30
0.0
 11
7594.127507899641
 21
8308.243182432326
 31
0.0
  0
LINE
  5
17512
330
125AA
100
AcDbEntity
  8
KISO
100
AcDbLine
 10
7594.127507899641
 20
6508.243182432327
 30
0.0
 11
6794.127507899641
 21
6508.243182432327
 31
0.0
  0
LINE
  5
17513
330
125AA
100
AcDbEntity
  8
KISO
100
AcDbLine
 10
6794.127507899641
 20
6508.243182432327
 30
0.0
 11
6794.127507899641
 21
7308.243182432327
 31
0.0
  0
LINE
  5
17514
330
125AA
100
AcDbEntity
  8
KISO
100
AcDbLine
 10
6794.127507899641
 20
7308.243182432327
 30
0.0
 11
7594.127507899641
 21
7308.243182432327
 31
0.0
  0
LINE
  5
17515
330
125AA
100
AcDbEntity
  8
KISO
100
AcDbLine
 10
7594.127507899641
 20
7308.243182432327
 30
0.0
 11
7594.127507899641
 21
6508.243182432327
 31
0.0
  0
LINE
  5
17516
330
125AA
100
AcDbEntity
  8
YANE
  6
2PL-L
 62
     6
100
AcDbLine
 10
10040.12750789964
 20
6408.243182432326
 30
0.0
 11
6798.127507899639
 21
6408.243182432326
 31
0.0
  0
LINE
  5
17517
330
125AA
100
AcDbEntity
  8
YANE
  6
2PL-L
 62
     6
100
AcDbLine
 10
6798.127507899639
 20
6408.243182432326
 30
0.0
 11
6798.127507899639
 21
8958.243182432326
 31
0.0
  0
LINE
  5
17518
330
125AA
100
AcDbEntity
  8
YANE
  6
2PL-L
 62
     6
100
AcDbLine
 10
6798.127507899639
 20
8958.243182432326
 30
0.0
 11
10040.12750789964
 21
8958.243182432326
 31
0.0
  0
LINE
  5
17519
330
125AA
100
AcDbEntity
  8
YANE
  6
2PL-L
 62
     6
100
AcDbLine
 10
10040.12750789964
 20
8958.243182432326
 30
0.0
 11
10040.12750789964
 21
6408.243182432326
 31
0.0
  0
ARC
  5
1751A
330
125AA
100
AcDbEntity
  8
U1
100
AcDbCircle
 10
7220.327507899641
 20
6934.443182432328
 30
0.0
 40
6.299999999999272
100
AcDbArc
 50
359.9999999999917
 51
90.00000000000826
  0
LINE
  5
1751B
330
125AA
100
AcDbEntity
  8
U1
100
AcDbLine
 10
7220.327507899638
 20
6940.743182432327
 30
0.0
 11
7212.927507899641
 21
6940.743182432327
 31
0.0
  0
ARC
  5
1751C
330
125AA
100
AcDbEntity
  8
U1
100
AcDbCircle
 10
7212.927507899641
 20
6934.443182432328
 30
0.0
 40
6.299999999999272
100
AcDbArc
 50
89.99999999999173
 51
180.0000000000082
  0
ARC
  5
1751D
330
125AA
100
AcDbEntity
  8
U1
100
AcDbCircle
 10
7200.327507899641
 20
6934.443182432325
 30
0.0
 40
6.300000000000181
100
AcDbArc
 50
0.0
 51
90.0
  0
LINE
  5
1751E
330
125AA
100
AcDbEntity
  8
U1
100
AcDbLine
 10
7200.327507899641
 20
6940.743182432327
 30
0.0
 11
7167.927507899641
 21
6940.743182432327
 31
0.0
  0
ARC
  5
1751F
330
125AA
100
AcDbEntity
  8
U1
100
AcDbCircle
 10
7167.927507899641
 20
6934.443182432328
 30
0.0
 40
6.299999999999272
100
AcDbArc
 50
89.99999999999173
 51
180.0000000000082
  0
LINE
  5
17520
330
125AA
100
AcDbEntity
  8
U1
100
AcDbLine
 10
7161.627507899641
 20
6934.443182432325
 30
0.0
 11
7161.627507899641
 21
6882.043182432325
 31
0.0
  0
ARC
  5
17521
330
125AA
100
AcDbEntity
  8
U1
100
AcDbCircle
 10
7167.927507899641
 20
6882.043182432325
 30
0.0
 40
6.299999999999272
100
AcDbArc
 50
180.0
 51
270.0000000000081
  0
LINE
  5
17522
330
125AA
100
AcDbEntity
  8
U1
100
AcDbLine
 10
7167.927507899641
 20
6875.743182432326
 30
0.0
 11
7220.327507899638
 21
6875.743182432326
 31
0.0
  0
ARC
  5
17523
330
125AA
100
AcDbEntity
  8
U1
100
AcDbCircle
 10
7220.327507899641
 20
6882.043182432325
 30
0.0
 40
6.299999999999272
100
AcDbArc
 50
269.9999999999918
 51
0.0
  0
LINE
  5
17524
330
125AA
100
AcDbEntity
  8
U1
100
AcDbLine
 10
7226.627507899642
 20
6882.043182432325
 30
0.0
 11
7226.627507899642
 21
6934.443182432325
 31
0.0
  0
ARC
  5
17525
330
125AA
100
AcDbEntity
  8
U1
100
AcDbCircle
 10
7220.327507899638
 20
8734.443182432327
 30
0.0
 40
6.300000000000181
100
AcDbArc
 50
359.9999999999833
 51
90.0
  0
LINE
  5
17526
330
125AA
100
AcDbEntity
  8
U1
100
AcDbLine
 10
7220.327507899638
 20
8740.743182432327
 30
0.0
 11
7212.927507899641
 21
8740.743182432327
 31
0.0
  0
ARC
  5
17527
330
125AA
100
AcDbEntity
  8
U1
100
AcDbCircle
 10
7212.927507899641
 20
8734.443182432327
 30
0.0
 40
6.299999999999272
100
AcDbArc
 50
90.0
 51
180.0000000000165
  0
ARC
  5
17528
330
125AA
100
AcDbEntity
  8
U1
100
AcDbCircle
 10
7200.327507899641
 20
8734.443182432327
 30
0.0
 40
6.300000000000181
100
AcDbArc
 50
359.9999999999833
 51
90.0
  0
LINE
  5
17529
330
125AA
100
AcDbEntity
  8
U1
100
AcDbLine
 10
7200.327507899641
 20
8740.743182432327
 30
0.0
 11
7167.927507899641
 21
8740.743182432327
 31
0.0
  0
ARC
  5
1752A
330
125AA
100
AcDbEntity
  8
U1
100
AcDbCircle
 10
7167.927507899641
 20
8734.443182432327
 30
0.0
 40
6.299999999999272
100
AcDbArc
 50
90.0
 51
180.0000000000165
  0
LINE
  5
1752B
330
125AA
100
AcDbEntity
  8
U1
100
AcDbLine
 10
7161.627507899641
 20
8734.443182432325
 30
0.0
 11
7161.627507899641
 21
8682.043182432328
 31
0.0
  0
ARC
  5
1752C
330
125AA
100
AcDbEntity
  8
U1
100
AcDbCircle
 10
7167.927507899641
 20
8682.043182432328
 30
0.0
 40
6.299999999999272
100
AcDbArc
 50
180.0
 51
270.0000000000081
  0
LINE
  5
1752D
330
125AA
100
AcDbEntity
  8
U1
100
AcDbLine
 10
7167.927507899641
 20
8675.743182432325
 30
0.0
 11
7220.327507899638
 21
8675.743182432325
 31
0.0
  0
ARC
  5
1752E
330
125AA
100
AcDbEntity
  8
U1
100
AcDbCircle
 10
7220.327507899641
 20
8682.043182432328
 30
0.0
 40
6.299999999999272
100
AcDbArc
 50
269.9999999999918
 51
0.0
  0
LINE
  5
1752F
330
125AA
100
AcDbEntity
  8
U1
100
AcDbLine
 10
7226.627507899642
 20
8682.043182432328
 30
0.0
 11
7226.627507899642
 21
8734.443182432325
 31
0.0
  0
ARC
  5
17530
330
125AA
100
AcDbEntity
  8
U1
100
AcDbCircle
 10
9670.32750789964
 20
8734.443182432327
 30
0.0
 40
6.299999999999272
100
AcDbArc
 50
359.9999999999833
 51
90.0
  0
LINE
  5
17531
330
125AA
100
AcDbEntity
  8
U1
100
AcDbLine
 10
9670.32750789964
 20
8740.743182432327
 30
0.0
 11
9662.927507899642
 21
8740.743182432327
 31
0.0
  0
ARC
  5
17532
330
125AA
100
AcDbEntity
  8
U1
100
AcDbCircle
 10
9662.927507899642
 20
8734.443182432327
 30
0.0
 40
6.299999999999272
100
AcDbArc
 50
90.0
 51
180.0000000000165
  0
ARC
  5
17533
330
125AA
100
AcDbEntity
  8
U1
100
AcDbCircle
 10
9650.327507899641
 20
8734.443182432327
 30
0.0
 40
6.30000000000109
100
AcDbArc
 50
359.9999999999833
 51
89.99999999998344
  0
LINE
  5
17534
330
125AA
100
AcDbEntity
  8
U1
100
AcDbLine
 10
9650.327507899639
 20
8740.743182432327
 30
0.0
 11
9617.927507899642
 21
8740.743182432327
 31
0.0
  0
ARC
  5
17535
330
125AA
100
AcDbEntity
  8
U1
100
AcDbCircle
 10
9617.927507899642
 20
8734.443182432327
 30
0.0
 40
6.299999999999272
100
AcDbArc
 50
90.0
 51
180.0000000000165
  0
LINE
  5
17536
330
125AA
100
AcDbEntity
  8
U1
100
AcDbLine
 10
9611.62750789964
 20
8734.443182432325
 30
0.0
 11
9611.62750789964
 21
8682.043182432328
 31
0.0
  0
ARC
  5
17537
330
125AA
100
AcDbEntity
  8
U1
100
AcDbCircle
 10
9617.927507899642
 20
8682.043182432328
 30
0.0
 40
6.299999999999272
100
AcDbArc
 50
180.0
 51
270.0
  0
LINE
  5
17538
330
125AA
100
AcDbEntity
  8
U1
100
AcDbLine
 10
9617.927507899642
 20
8675.743182432325
 30
0.0
 11
9670.32750789964
 21
8675.743182432325
 31
0.0
  0
ARC
  5
17539
330
125AA
100
AcDbEntity
  8
U1
100
AcDbCircle
 10
9670.32750789964
 20
8682.043182432328
 30
0.0
 40
6.299999999999272
100
AcDbArc
 50
270.0
 51
0.0
  0
LINE
  5
1753A
330
125AA
100
AcDbEntity
  8
U1
100
AcDbLine
 10
9676.62750789964
 20
8682.043182432328
 30
0.0
 11
9676.62750789964
 21
8734.443182432325
 31
0.0
  0
ARC
  5
1753B
330
125AA
100
AcDbEntity
  8
U1
100
AcDbCircle
 10
9670.32750789964
 20
6934.443182432328
 30
0.0
 40
6.299999999999272
100
AcDbArc
 50
359.9999999999917
 51
90.0
  0
LINE
  5
1753C
330
125AA
100
AcDbEntity
  8
U1
100
AcDbLine
 10
9670.32750789964
 20
6940.743182432327
 30
0.0
 11
9662.927507899642
 21
6940.743182432327
 31
0.0
  0
ARC
  5
1753D
330
125AA
100
AcDbEntity
  8
U1
100
AcDbCircle
 10
9662.927507899642
 20
6934.443182432328
 30
0.0
 40
6.299999999999272
100
AcDbArc
 50
90.0
 51
180.0000000000082
  0
ARC
  5
1753E
330
125AA
100
AcDbEntity
  8
U1
100
AcDbCircle
 10
9650.327507899639
 20
6934.443182432328
 30
0.0
 40
6.299999999999272
100
AcDbArc
 50
359.9999999999917
 51
90.0
  0
LINE
  5
1753F
330
125AA
100
AcDbEntity
  8
U1
100
AcDbLine
 10
9650.327507899639
 20
6940.743182432327
 30
0.0
 11
9617.927507899642
 21
6940.743182432327
 31
0.0
  0
ARC
  5
17540
330
125AA
100
AcDbEntity
  8
U1
100
AcDbCircle
 10
9617.927507899642
 20
6934.443182432328
 30
0.0
 40
6.299999999999272
100
AcDbArc
 50
90.0
 51
180.0000000000082
  0
LINE
  5
17541
330
125AA
100
AcDbEntity
  8
U1
100
AcDbLine
 10
9611.62750789964
 20
6934.443182432325
 30
0.0
 11
9611.62750789964
 21
6882.043182432325
 31
0.0
  0
ARC
  5
17542
330
125AA
100
AcDbEntity
  8
U1
100
AcDbCircle
 10
9617.927507899642
 20
6882.043182432325
 30
0.0
 40
6.299999999999272
100
AcDbArc
 50
180.0
 51
270.0
  0
LINE
  5
17543
330
125AA
100
AcDbEntity
  8
U1
100
AcDbLine
 10
9617.927507899642
 20
6875.743182432326
 30
0.0
 11
9670.32750789964
 21
6875.743182432326
 31
0.0
  0
ARC
  5
17544
330
125AA
100
AcDbEntity
  8
U1
100
AcDbCircle
 10
9670.32750789964
 20
6882.043182432325
 30
0.0
 40
6.299999999999272
100
AcDbArc
 50
270.0
 51
0.0
  0
LINE
  5
17545
330
125AA
100
AcDbEntity
  8
U1
100
AcDbLine
 10
9676.62750789964
 20
6882.043182432325
 30
0.0
 11
9676.62750789964
 21
6934.443182432325
 31
0.0
  0
TEXT
  5
1757C
330
125AA
100
AcDbEntity
  8
SUNPOU
100
AcDbText
 10
8155.777375182578
 20
2773.374481791071
 30
0.0
 40
90.0
  1
その他現地の実情にあわせて設計して下さい。
  7
01
100
AcDbText
  0
TEXT
  5
1757D
330
125AA
100
AcDbEntity
  8
SUNPOU
100
AcDbText
 10
8155.777375182578
 20
3081.945910362499
 30
0.0
 40
90.0
  1
寒冷地の場合、凍結深度等を考慮し、実情に
  7
01
100
AcDbText
  0
TEXT
  5
1757E
330
125AA
100
AcDbEntity
  8
SUNPOU
100
AcDbText
 10
7846.79115229069
 20
3425.484424032736
 30
0.0
 40
89.9993750043402
  1
地耐力   　　　 以上,コンクリート設計基準強度　　　　　以上
  7
01
100
AcDbText
  0
TEXT
  5
1757F
330
125AA
100
AcDbEntity
  8
SUNPOU
100
AcDbText
 10
7949.571630093183
 20
2773.374481791071
 30
0.0
 40
90.0
  1
2
 41
0.6700000000000001
  7
01
100
AcDbText
  0
TEXT
  5
17580
330
125AA
100
AcDbEntity
  8
SUNPOU
100
AcDbText
 10
7838.937709880447
 20
2773.374481791071
 30
0.0
 40
90.0
  1
注　）
  7
01
100
AcDbText
  0
TEXT
  5
17581
330
125AA
100
AcDbEntity
  8
SUNPOU
100
AcDbText
 10
8330.554580955853
 20
3271.19870974702
 30
0.0
 40
89.9993750043402
  1
34 m/s
 41
0.6700000000000001
  7
01
100
AcDbText
  0
TEXT
  5
17582
330
125AA
100
AcDbEntity
  8
SUNPOU
100
AcDbText
 10
8155.777375182578
 20
2927.66019607678
 30
0.0
 40
90.0
  1
あわせて設計して下さい。
  7
01
100
AcDbText
  0
TEXT
  5
17583
330
125AA
100
AcDbEntity
  8
SUNPOU
100
AcDbText
 10
7846.79115229069
 20
3271.19870974702
 30
0.0
 40
89.9993750043402
  1
基準風速   　　 , 地表面粗度区分
  7
01
100
AcDbText
  0
TEXT
  5
17584
330
125AA
100
AcDbEntity
  8
SUNPOU
100
AcDbText
 10
7716.227523574459
 20
3614.738426478691
 30
0.0
 40
90.0
  1
<下記条件での参考図>
  7
01
 72
     4
 11
8305.084666431602
 21
3659.738426478691
 31
0.0
100
AcDbText
  0
TEXT
  5
17585
330
125AA
100
AcDbEntity
  8
SUNPOU
100
AcDbText
 10
7841.584666431602
 20
3772.238426478689
 30
0.0
 40
120.0
  1
基礎断面図
  7
01
 72
     4
 11
8181.584666431602
 21
3832.238426478689
 31
0.0
100
AcDbText
  0
TEXT
  5
17586
330
125AA
100
AcDbEntity
  8
SUNPOU
100
AcDbText
 10
8221.049559715764
 20
3425.484424032736
 30
0.0
 40
89.9993750043402
  1
50  N/m
 41
0.6700000000000001
  7
01
100
AcDbText
  0
TEXT
  5
17587
330
125AA
100
AcDbEntity
  8
SUNPOU
100
AcDbText
 10
7838.937709880447
 20
3081.945910362499
 30
0.0
 40
90.0
  1
注　）
  7
01
100
AcDbText
  0
ARC
  5
17588
330
125AA
100
AcDbEntity
  8
SUNPOU
100
AcDbCircle
 10
7999.74942619789
 20
3389.271847474567
 30
0.0
 40
225.0
100
AcDbArc
 50
148.3472725282761
 51
211.6527274717238
  0
TEXT
  5
17589
330
125AA
100
AcDbEntity
  8
SUNPOU
100
AcDbText
 10
7949.571630093183
 20
3081.945910362499
 30
0.0
 40
90.0
  1
1
 41
0.6700000000000001
  7
01
100
AcDbText
  0
TEXT
  5
1758A
330
125AA
100
AcDbEntity
  8
SUNPOU
100
AcDbText
 10
8356.886012501712
 20
3425.484424032736
 30
0.0
 40
71.99950000347218
  1
K
 41
0.6700000000000001
  7
01
100
AcDbText
  0
TEXT
  5
1758B
330
125AA
100
AcDbEntity
  8
SUNPOU
100
AcDbText
 10
8624.526169230113
 20
3475.67285039022
 30
0.0
 40
46.28539285937498
  1
2
 41
0.6700000000000001
  7
00
100
AcDbText
  0
LINE
  5
1758C
330
125AA
100
AcDbEntity
  8
SUNPOU
100
AcDbLine
 10
9638.606713857292
 20
3271.19870974702
 30
0.0
 11
9694.856713857292
 21
3271.19870974702
 31
0.0
  0
LINE
  5
1758D
330
125AA
100
AcDbEntity
  8
SUNPOU
100
AcDbLine
 10
9638.606713857292
 20
3354.691073445802
 30
0.0
 11
9694.856713857292
 21
3354.691073445802
 31
0.0
  0
LINE
  5
1758E
330
125AA
100
AcDbEntity
  8
SUNPOU
100
AcDbLine
 10
9666.731713857293
 20
3271.19870974702
 30
0.0
 11
9666.731713857293
 21
3354.691073445802
 31
0.0
  0
LINE
  5
1758F
330
125AA
100
AcDbEntity
  8
SUNPOU
100
AcDbLine
 10
9649.856713857293
 20
3271.19870974702
 30
0.0
 11
9649.856713857293
 21
3354.691073445802
 31
0.0
  0
LINE
  5
17590
330
125AA
100
AcDbEntity
  8
SUNPOU
100
AcDbLine
 10
9683.606713857294
 20
3271.19870974702
 30
0.0
 11
9683.606713857294
 21
3354.691073445802
 31
0.0
  0
TEXT
  5
17591
330
125AA
100
AcDbEntity
  8
SUNPOU
100
AcDbText
 10
8558.435003794571
 20
3784.546118786384
 30
0.0
 40
92.30769230769228
  1
（ S = 　　  ）
 41
0.6700000000000001
  7
00
 11
8558.435003794571
 21
3772.238426478692
 31
0.0
100
AcDbText
 73
     1
  0
TEXT
  5
17592
330
125AA
100
AcDbEntity
  8
SUNPOU
100
AcDbText
 10
8990.493275917392
 20
3763.623041863306
 30
0.0
 40
73.84615384615384
  1
25
 41
0.6700000000000001
  7
00
 11
8990.493275917392
 21
3753.776888017152
 31
0.0
100
AcDbText
 73
     1
  0
TEXT
  5
17593
330
125AA
100
AcDbEntity
  8
SUNPOU
100
AcDbText
 10
8878.137705647642
 20
3800.546118786385
 30
0.0
 40
73.84615384615384
  1
1
 41
0.6700000000000001
  7
00
 11
8878.137705647642
 21
3790.699964940231
 31
0.0
100
AcDbText
 73
     1
  0
TEXT
  5
17594
330
125AA
100
AcDbEntity
  8
SUNPOU
100
AcDbText
 10
8926.543832963012
 20
3782.084580324845
 30
0.0
 40
73.84615384615384
  1
/
 41
0.6700000000000001
  7
00
 11
8926.543832963012
 21
3772.238426478692
 31
0.0
100
AcDbText
 73
     1
  0
TEXT
  5
17595
330
125AA
100
AcDbEntity
  8
SUNPOU
100
AcDbText
 10
10401.63808336335
 20
3425.484424032736
 30
0.0
 40
89.9993750043402
  1
N/mm
 41
0.6700000000000001
  7
01
100
AcDbText
  0
TEXT
  5
17596
330
125AA
100
AcDbEntity
  8
SUNPOU
100
AcDbText
 10
10265.8016305774
 20
3425.484424032736
 30
0.0
 40
89.9993750043402
  1
18
 41
0.6700000000000001
  7
01
100
AcDbText
  0
TEXT
  5
17597
330
125AA
100
AcDbEntity
  8
SUNPOU
100
AcDbText
 10
10706.10256539475
 20
3475.67285039022
 30
0.0
 40
46.28539285937498
  1
2
 41
0.6700000000000001
  7
00
100
AcDbText
  0
ARC
  5
17598
330
125AA
100
AcDbEntity
  8
SUNPOU
100
AcDbCircle
 10
10854.97982992837
 20
3411.756128260357
 30
0.0
 40
225.0
100
AcDbArc
 50
328.3472725282761
 51
31.65272747172387
  0
ENDSEC
  0
SECTION
  2
OBJECTS
  0
DICTIONARY
  5
1259E
330
0
100
AcDbDictionary
281
     1
  3
ACAD_COLOR
350
12AC1
  3
ACAD_GROUP
350
1259F
  3
ACAD_LAYOUT
350
1297B
  3
ACAD_MATERIAL
350
12AC0
  3
ACAD_MLEADERSTYLE
350
17546
  3
ACAD_MLINESTYLE
350
125A0
  3
ACAD_PLOTSETTINGS
350
1297C
  3
ACAD_PLOTSTYLENAME
350
12979
  3
ACAD_TABLESTYLE
350
15B34
  3
ACAD_VISUALSTYLE
350
15B23
  3
AcDbVariableDictionary
350
13B02
  3
DWGPROPS
350
1754B
  0
DICTIONARY
  5
15B8E
330
1259A
100
AcDbDictionary
280
     1
281
     1
  3
ACAD_XREC_ROUNDTRIP
360
17554
  0
DICTIONARY
  5
129B1
330
125AA
100
AcDbDictionary
280
     1
281
     1
  3
ACAD_LAYOUTSELFREF
360
12A86
  3
ACAD_SORTENTS
360
17378
  0
DICTIONARY
  5
129AF
330
125A7
100
AcDbDictionary
280
     1
281
     1
  3
ACAD_LAYOUTSELFREF
360
12A85
  0
DICTIONARY
  5
12AC1
102
{ACAD_REACTORS
330
1259E
102
}
330
1259E
100
AcDbDictionary
281
     1
  0
DICTIONARY
  5
1259F
102
{ACAD_REACTORS
330
1259E
102
}
330
1259E
100
AcDbDictionary
281
     1
  0
DICTIONARY
  5
1297B
102
{ACAD_REACTORS
330
1259E
102
}
330
1259E
100
AcDbDictionary
281
     1
  3
Model
350
1297D
  3
ﾚｲｱｳﾄ1
350
1297E
  0
DICTIONARY
  5
12AC0
102
{ACAD_REACTORS
330
1259E
102
}
330
1259E
100
AcDbDictionary
281
     1
  3
ByBlock
350
15B21
  3
ByLayer
350
15B20
  3
Global
350
15B22
  0
DICTIONARY
  5
17546
102
{ACAD_REACTORS
330
1259E
102
}
330
1259E
100
AcDbDictionary
281
     1
  0
DICTIONARY
  5
125A0
102
{ACAD_REACTORS
330
1259E
102
}
330
1259E
100
AcDbDictionary
281
     1
  3
STANDARD
350
125AD
  0
DICTIONARY
  5
1297C
102
{ACAD_REACTORS
330
1259E
102
}
330
1259E
100
AcDbDictionary
281
     1
  0
ACDBDICTIONARYWDFLT
  5
12979
102
{ACAD_REACTORS
330
1259E
102
}
330
1259E
100
AcDbDictionary
281
     1
  3
Normal
350
1297A
100
AcDbDictionaryWithDefault
340
1297A
1001
ACAD
1000
TREAT_AS_HARD
1070
     0
1000
TREAT_AS_HARD
1070
     0
1000
TREAT_AS_HARD
1070
     0
  0
DICTIONARY
  5
15B34
102
{ACAD_REACTORS
330
1259E
102
}
330
1259E
100
AcDbDictionary
281
     1
  0
DICTIONARY
  5
15B23
102
{ACAD_REACTORS
330
1259E
102
}
330
1259E
100
AcDbDictionary
281
     1
  3
2dWireframe
350
15B29
  3
3D Hidden
350
15B2B
  3
3dWireframe
350
15B2A
  3
Basic
350
15B28
  3
Brighten
350
15B2F
  3
ColorChange
350
15B33
  3
Conceptual
350
15B2C
  3
Dim
350
15B2E
  3
Facepattern
350
15B32
  3
Flat
350
15B24
  3
FlatWithEdges
350
15B25
  3
Gouraud
350
15B26
  3
GouraudWithEdges
350
15B27
  3
Linepattern
350
15B31
  3
Realistic
350
15B2D
  3
Thicken
350
15B30
  0
DICTIONARY
  5
13B02
102
{ACAD_REACTORS
330
1259E
102
}
330
1259E
100
AcDbDictionary
281
     1
  3
CTABLESTYLE
350
15C50
  3
DIMASSOC
350
13B03
  3
HIDETEXT
350
17547
  3
INDEXCTL
350
15C52
  3
PROJECTNAME
350
13B04
  3
SORTENTS
350
15C51
  0
XRECORD
  5
1754B
102
{ACAD_REACTORS
330
1259E
102
}
330
1259E
100
AcDbXrecord
280
     1
  1
DWGPROPS COOKIE
  2

  3

  4

  6

  7

  8
User
  9

300
=
301
=
302
=
303
=
304
=
305
=
306
=
307
=
308
=
309
=
 40
0.0
 41
2450266.196064815
 42
2455168.150544086
  1

 90
        0
  0
XRECORD
  5
17554
102
{ACAD_REACTORS
330
15B8E
102
}
330
15B8E
100
AcDbXrecord
280
     1
102
VTR_0.000_0.000_1.000_1.000_VISUALSTYLE
340
15B29
102
VTR_0.000_0.000_1.000_1.000_GRIDDISPLAY
 70
     3
102
VTR_0.000_0.000_1.000_1.000_GRIDMAJOR
 70
     5
102
VTR_0.000_0.000_1.000_1.000_DEFAULTLIGHTING
280
     1
102
VTR_0.000_0.000_1.000_1.000_DEFAULTLIGHTINGTYPE
 70
     1
102
VTR_0.000_0.000_1.000_1.000_BRIGHTNESS
141
0.0
102
VTR_0.000_0.000_1.000_1.000_CONTRAST
142
0.0
  0
XRECORD
  5
12A86
102
{ACAD_REACTORS
330
129B1
102
}
330
129B1
100
AcDbXrecord
280
     1
340
125AA
  0
SORTENTSTABLE
  5
17378
102
{ACAD_REACTORS
330
129B1
102
}
330
129B1
100
AcDbSortentsTable
330
125AA
331
174C5
  5
1726D
331
17504
  5
171ED
331
17418
  5
1729D
331
1744F
  5
1731C
331
173D9
  5
16FA1
331
1748E
  5
172E6
331
1753B
  5
16FF4
331
17543
  5
16FFF
331
17496
  5
173A4
331
174CD
  5
1723D
331
173E1
  5
16A6E
331
17420
  5
1728C
331
17457
  5
172BF
331
1750C
  5
16FDE
331
17514
  5
16A91
331
1745F
  5
172A5
331
173E9
  5
1734D
331
1749E
  5
172D6
331
174D5
  5
1724A
331
17467
  5
16FEA
331
174DD
  5
17253
331
172A8
  5
1747C
331
171F3
  5
173C7
331
17232
  5
17406
331
17269
  5
1743D
331
17326
  5
174FA
331
1735D
  5
17531
331
172B0
  5
17484
331
172E7
  5
174BB
331
171FB
  5
173CF
331
1723A
  5
1740E
331
17271
  5
17445
331
1732E
  5
17502
331
17365
  5
17539
331
17279
  5
1744D
331
172B8
  5
1748C
331
17203
  5
173D7
331
17242
  5
17416
331
172EF
  5
174C3
331
173A4
  5
172B0
331
173AC
  5
172A3
331
172F7
  5
174CB
331
17281
  5
17455
331
17336
  5
1750A
331
1720B
  5
173DF
331
1736D
  5
17541
331
172FF
  5
174D3
331
16FF2
  5
17388
331
164AD
  5
164AD
331
16FBB
  5
17350
331
16FFA
  5
17390
331
16FC3
  5
17358
331
15470
  5
15470
331
164B5
  5
164B5
331
16FCB
  5
17360
331
16A65
  5
16A8C
331
16F94
  5
172DB
331
16A6D
  5
16FA3
331
173B2
  5
17299
331
173F1
  5
17336
331
17428
  5
1727E
331
174E5
  5
17208
331
1751C
  5
17258
331
17430
  5
16FCF
331
1746F
  5
16F8F
331
173BA
  5
17293
331
173F9
  5
17329
331
174A6
  5
172CB
331
174AE
  5
1739D
331
17438
  5
16A89
331
174ED
  5
17210
331
173C2
  5
17286
331
17524
  5
17260
331
1752C
  5
17239
331
174B6
  5
17254
331
17409
  5
172C1
331
17440
  5
17349
331
174F5
  5
170C0
331
17534
  5
171FC
331
17487
  5
172EE
331
174BE
  5
17266
331
174FD
  5
171DE
331
172C0
  5
17494
331
1724A
  5
1741E
331
17289
  5
1745D
331
17213
  5
173E7
331
172C8
  5
1749C
331
17307
  5
174DB
331
1721B
  5
173EF
331
17252
  5
17426
331
171DC
  5
173B0
331
17291
  5
17465
331
1733E
  5
17512
331
17346
  5
1751A
331
17385
  5
17323
331
17299
  5
1746D
331
172D0
  5
174A4
331
171E4
  5
173B8
331
17223
  5
173F7
331
1725A
  5
1742E
331
1730F
  5
174E3
331
17317
  5
174EB
331
1734E
  5
17522
331
17262
  5
17436
331
172A1
  5
17475
331
171EC
  5
173C0
331
1722B
  5
173FF
331
172D8
  5
174AC
331
1738D
  5
1731B
331
17395
  5
17312
331
16FD3
  5
17368
331
1731F
  5
174F3
331
17356
  5
1752A
331
159C6
  5
159C6
331
16FDB
  5
17370
331
16A75
  5
16FD1
331
171D2
  5
173A6
331
16FA4
  5
172F9
331
16FE3
  5
17379
331
16A8D
  5
17277
331
16FEB
  5
17381
331
1649E
  5
1649E
331
164A6
  5
164A6
331
17411
  5
172AA
331
17448
  5
17331
331
17505
  5
171EE
331
1753C
  5
16FF5
331
17450
  5
1731D
331
1748F
  5
172E0
331
173DA
  5
16FA2
331
17419
  5
17295
331
174C6
  5
1726E
331
174CE
  5
1723E
331
1750D
  5
16FDF
331
17458
  5
172C0
331
17497
  5
1739F
331
17544
  5
170BE
331
173E2
  5
16A6F
331
17421
  5
17287
331
174D6
  5
1724C
331
17515
  5
16A92
331
17460
  5
172A6
331
1749F
  5
172D7
331
174DE
  5
171F2
331
1726A
  5
1743E
331
172A9
  5
1747D
331
171F4
  5
173C8
331
17233
  5
17407
331
172E0
  5
174B4
331
1739D
  5
172BB
331
172E8
  5
174BC
331
17327
  5
174FB
331
1723B
  5
1740F
331
17272
  5
17446
331
171FC
  5
173D0
331
172B1
  5
17485
331
1735E
  5
17532
331
17366
  5
1753A
331
173A5
  5
172B1
331
172B9
  5
1748D
331
172F0
  5
174C4
331
17204
  5
173D8
331
17243
  5
17417
331
1727A
  5
1744E
331
1732F
  5
17503
331
17337
  5
1750B
331
1736E
  5
17542
331
172F8
  5
174CC
331
173AD
  5
172A4
331
1720C
  5
173E0
331
17282
  5
17456
331
16FF3
  5
17389
331
16FB4
  5
17337
331
164AE
  5
164AE
331
16FBC
  5
17351
331
16FFB
  5
17391
331
16FC4
  5
17359
331
15471
  5
15471
331
16F8D
  5
172CA
331
16FCC
  5
17361
331
16A6E
  5
16FA4
331
17429
  5
16FF0
331
173B3
  5
1729A
331
17468
  5
16FEB
331
1751D
  5
17259
331
17470
  5
16F90
331
173FA
  5
17326
331
174A7
  5
172CC
331
174E6
  5
17209
331
17525
  5
17223
331
17402
  5
1730F
331
174AF
  5
17398
331
174EE
  5
17211
331
174F6
  5
171CB
331
1752D
  5
1723A
331
17441
  5
17341
331
17480
  5
17304
331
1740A
  5
172BA
331
174B7
  5
17255
331
174BF
  5
17267
331
174FE
  5
171E2
331
17535
  5
171FD
331
1728A
  5
1745E
331
172C1
  5
17495
331
17214
  5
173E8
331
1724B
  5
1741F
331
17300
  5
174D4
331
17308
  5
174DC
331
1733F
  5
17513
331
17253
  5
17427
331
17292
  5
17466
331
171DD
  5
173B1
331
1721C
  5
173F0
331
172C9
  5
1749D
331
17386
  5
17324
331
172D1
  5
174A5
331
17310
  5
174E4
331
1725B
  5
1742F
331
1729A
  5
1746E
331
17347
  5
1751B
331
171E5
  5
173B9
331
17224
  5
173F8
331
172D9
  5
174AD
331
17318
  5
174EC
331
1722C
  5
17400
331
17263
  5
17437
331
171ED
  5
173C1
331
172A2
  5
17476
331
1734F
  5
17523
331
17357
  5
1752B
331
17396
  5
17313
331
16FD4
  5
17369
331
16FDC
  5
17371
331
171CB
  5
173A5
331
159C7
  5
159C7
331
16FE4
  5
1737A
331
171D3
  5
173A7
331
16FA5
  5
172FA
331
1649F
  5
1649F
331
16FEC
  5
17382
331
16A8E
  5
17278
331
164A7
  5
164A7
331
16A96
  5
17280
331
17449
  5
1732A
331
173D3
  5
16FA7
331
17488
  5
172EF
331
1753D
  5
16FF7
331
174C7
  5
1726F
331
17506
  5
16FE3
331
1741A
  5
17296
331
17451
  5
1730D
331
173DB
  5
16F8B
331
17490
  5
172DC
331
17545
  5
170BF
331
17498
  5
173A0
331
174CF
  5
1723F
331
173E3
  5
16A70
331
17422
  5
17288
331
17459
  5
172B7
331
1750E
  5
16A93
331
17516
  5
16A63
331
17461
  5
1729E
331
173EB
  5
1734A
331
174D7
  5
1724D
331
174DF
  5
171F3
331
172AA
  5
1747E
331
172E1
  5
174B5
331
171F5
  5
173C9
331
17234
  5
17408
331
1726B
  5
1743F
331
17320
  5
174F4
331
17328
  5
174FC
331
1735F
  5
17533
331
17273
  5
17447
331
172B2
  5
17486
331
171FD
  5
173D1
331
1723C
  5
17410
331
172E9
  5
174BD
331
1739E
  5
172BC
331
173A6
  5
172B2
331
17330
  5
17504
331
17367
  5
1753B
331
1727B
  5
1744F
331
172BA
  5
1748E
331
17205
  5
173D9
331
17244
  5
17418
331
172F1
  5
174C5
331
172F9
  5
174CD
331
17283
  5
17457
331
1720D
  5
173E1
331
1736F
  5
17543
331
16FB5
  5
17338
331
16FF4
  5
1738A
331
16A9E
  5
17294
331
16FFC
  5
17392
331
16FBD
  5
17352
331
164AF
  5
164AF
331
16FC5
  5
1735A
331
16FCD
  5
17362
331
16A6F
  5
16FA5
331
17469
  5
16FCA
331
173F3
  5
17335
331
174A0
  5
172D1
331
174E7
  5
1720A
331
1751E
  5
1725A
331
17432
  5
16FC9
331
17471
  5
16A79
331
173BC
  5
17290
331
173FB
  5
17322
331
174A8
  5
172CD
331
174B0
  5
17399
331
1743A
  5
16A7C
331
174EF
  5
17213
331
173C4
  5
17283
331
17526
  5
17229
331
1752E
  5
1723B
331
17481
  5
172FE
331
17442
  5
17342
331
174F7
  5
171D2
331
17536
  5
171FE
331
174FF
  5
171E3
331
172C2
  5
17496
331
17301
  5
174D5
331
17215
  5
173E9
331
1724C
  5
17420
331
170BE
  5
1739E
331
1728B
  5
1745F
331
17338
  5
1750C
331
17340
  5
17514
331
1737F
  5
1732D
331
172CA
  5
1749E
331
17309
  5
174DD
331
1721D
  5
173F1
331
17254
  5
17428
331
171DE
  5
173B2
331
17293
  5
17467
331
17348
  5
1751C
331
17387
  5
17325
331
1729B
  5
1746F
331
172D2
  5
174A6
331
171E6
  5
173BA
331
17225
  5
173F9
331
1725C
  5
17430
331
17311
  5
174E5
331
17319
  5
174ED
331
17350
  5
17524
331
17264
  5
17438
331
172A3
  5
17477
331
171EE
  5
173C2
331
1722D
  5
17401
331
172DA
  5
174AE
331
17397
  5
17307
331
16FD5
  5
1736A
331
159C8
  5
159C8
331
16FDD
  5
17372
331
16A77
  5
16FE0
331
171D4
  5
173A8
331
16FA6
  5
172FB
331
16FE5
  5
1737B
331
16FED
  5
17383
331
12ADB
  5
12ADB
331
164A0
  5
164A0
331
17489
  5
172F2
331
174C0
  5
17268
331
173D4
  5
16FAA
331
17413
  5
172A7
331
1744A
  5
1732B
331
17507
  5
16FE4
331
1753E
  5
16FF9
331
17452
  5
1730E
331
17491
  5
172DD
331
173DC
  5
16F8D
331
1741B
  5
17291
331
174C8
  5
17270
331
174D0
  5
17240
331
1750F
  5
16A94
331
17423
  5
17284
331
1745A
  5
172B8
331
17499
  5
173A1
331
174D8
  5
1724E
331
17462
  5
1729F
331
17517
  5
16A64
331
173EC
  5
17344
331
172E2
  5
174B6
331
17321
  5
174F5
331
1726C
  5
17440
331
172AB
  5
1747F
331
17358
  5
1752C
331
171F6
  5
173CA
331
17235
  5
17409
331
1739F
  5
172BD
331
172EA
  5
174BE
331
17329
  5
174FD
331
1723D
  5
17411
331
17274
  5
17448
331
171FE
  5
173D2
331
172B3
  5
17487
331
17360
  5
17534
331
17368
  5
1753C
331
173A7
  5
172B3
331
172BB
  5
1748F
331
172F2
  5
174C6
331
17206
  5
173DA
331
17245
  5
17419
331
1727C
  5
17450
331
17331
  5
17505
331
17370
  5
17544
331
17284
  5
17458
331
1720E
  5
173E2
331
172FA
  5
174CE
331
164A8
  5
164A8
331
16FF5
  5
1738B
331
16FB6
  5
17339
331
164B0
  5
164B0
331
16FBE
  5
17353
331
16FFD
  5
17393
331
16FC6
  5
1735B
331
16F97
  5
172E1
331
16FCE
  5
17363
331
174A1
  5
172D2
331
1742B
  5
16FEF
331
1746A
  5
16FCB
331
1751F
  5
1725B
331
17472
  5
16A7A
331
174A9
  5
172C6
331
17433
  5
16F99
331
174E8
  5
1720B
331
174F0
  5
17214
331
17527
  5
1722A
331
17404
  5
1730C
331
174B1
  5
1739A
331
174F8
  5
171D3
331
1752F
  5
1723C
331
17443
  5
1733E
331
17482
  5
172FF
331
173CD
  5
16FBF
331
1740C
  5
172B9
331
174B9
  5
17261
331
17537
  5
171FF
331
17339
  5
1750D
331
1728C
  5
17460
331
172C3
  5
17497
331
17216
  5
173EA
331
1724D
  5
17421
331
17302
  5
174D6
331
1730A
  5
174DE
331
17341
  5
17515
331
17255
  5
17429
331
17294
  5
17468
331
171DF
  5
173B3
331
1721E
  5
173F2
331
172CB
  5
1749F
331
17380
  5
1732E
331
172D3
  5
174A7
331
17312
  5
174E6
331
17226
  5
173FA
331
1725D
  5
17431
331
171E7
  5
173BB
331
1729C
  5
17470
331
17349
  5
1751D
331
17351
  5
17525
331
172DB
  5
174AF
331
1731A
  5
174EE
331
1722E
  5
17402
331
17265
  5
17439
331
171EF
  5
173C3
331
172A4
  5
17478
331
16A70
  5
16FA6
331
16FD6
  5
1736B
331
16FDE
  5
17373
331
16A78
  5
16FE1
331
16F9F
  5
172F4
331
16499
  5
16499
331
16A88
  5
17272
331
16FA7
  5
172FC
331
16FE6
  5
1737C
331
171D5
  5
173A9
331
12ADC
  5
12ADC
331
164A1
  5
164A1
331
16FAF
  5
17317
331
16FEE
  5
17384
331
174C1
  5
17269
331
17500
  5
171E8
331
17414
  5
172A1
331
1744B
  5
17327
331
173D5
  5
16FB4
331
1748A
  5
172EC
331
1753F
  5
16FFA
331
17492
  5
172DE
331
174C9
  5
17271
331
1741C
  5
17292
331
17453
  5
1730A
331
17508
  5
16FE5
331
173DD
  5
16F8E
331
1749A
  5
172D8
331
174D1
  5
17245
331
17424
  5
17285
331
1745B
  5
172B4
331
17510
  5
16A96
331
17463
  5
1729B
331
174D9
  5
1724F
331
17359
  5
1752D
331
17398
  5
17308
331
172AC
  5
17480
331
172E3
  5
174B7
331
171F7
  5
173CB
331
17236
  5
1740A
331
1726D
  5
17441
331
17322
  5
174F6
331
1732A
  5
174FE
331
17361
  5
17535
331
17275
  5
17449
331
172B4
  5
17488
331
171FF
  5
173D3
331
1723E
  5
17412
331
172EB
  5
174BF
331
173A0
  5
172BE
331
172F3
  5
174C7
331
17332
  5
17506
331
1727D
  5
17451
331
172BC
  5
17490
331
17369
  5
1753D
331
17207
  5
173DB
331
17246
  5
1741A
331
172FB
  5
174CF
331
17285
  5
17459
331
1720F
  5
173E3
331
17371
  5
17545
331
164A9
  5
164A9
331
16FB7
  5
1733A
331
16FF6
  5
1738C
331
16FFE
  5
17394
331
16FBF
  5
17354
331
1546C
  5
1546C
331
164B1
  5
164B1
331
16FC7
  5
1735C
331
16FCF
  5
17364
331
16A69
  5
16F9B
331
174E1
  5
17204
331
17518
  5
16A65
331
1746B
  5
16FC4
331
173F5
  5
17332
331
174A2
  5
172D3
331
174E9
  5
1720C
331
17520
  5
1725C
331
17473
  5
16A72
331
173BE
  5
1728D
331
173FD
  5
17321
331
174AA
  5
172C7
331
174B2
  5
172AC
331
17405
  5
172C5
331
1743C
  5
16A78
331
174F1
  5
1721D
331
173C6
  5
1727F
331
17528
  5
1722C
331
17530
  5
171F4
331
17483
  5
17300
331
174BA
  5
17262
331
173CE
  5
16FC0
331
17444
  5
1733F
331
174F9
  5
171D4
331
17379
  5
1733B
331
172C4
  5
17498
331
17303
  5
174D7
331
17217
  5
173EB
331
1724E
  5
17422
331
171D8
  5
173AC
331
1728D
  5
17461
331
1733A
  5
1750E
331
17342
  5
17516
331
17381
  5
1732F
331
17295
  5
17469
331
172CC
  5
174A0
331
1721F
  5
173F3
331
17256
  5
1742A
331
1730B
  5
174DF
331
171E0
  5
173B4
331
1734A
  5
1751E
331
1729D
  5
17471
331
172D4
  5
174A8
331
171E8
  5
173BC
331
17227
  5
173FB
331
1725E
  5
17432
331
17313
  5
174E7
331
1731B
  5
174EF
331
17352
  5
17526
331
17266
  5
1743A
331
172A5
  5
17479
331
1722F
  5
17403
331
172DC
  5
174B0
331
17391
  5
17314
331
16F98
  5
172E2
331
16FD7
  5
1736C
331
16FA0
  5
172F5
331
16FDF
  5
17374
331
16A79
  5
16FE2
331
16A89
  5
17273
331
171D6
  5
173AA
331
1649A
  5
1649A
331
16FA8
  5
172FD
331
16FE7
  5
1737D
331
16A91
  5
17279
331
16FEF
  5
17385
331
12ADD
  5
12ADD
331
164A2
  5
164A2
331
17501
  5
171EA
331
17538
  5
17201
331
1748B
  5
172E9
331
174C2
  5
1726A
331
173D6
  5
16FB6
331
1744C
  5
17328
331
17509
  5
16FE6
331
17540
  5
16FFB
331
17454
  5
1730B
331
17493
  5
172DF
331
1741D
  5
1728E
331
174CA
  5
17221
331
174D2
  5
17246
331
17511
  5
16A9A
331
17425
  5
17281
331
1745C
  5
172B5
331
1749B
  5
172D9
331
174DA
  5
17250
331
17464
  5
1729C
331
173EE
  5
17343
331
171F0
  5
173C4
331
17399
  5
17309
331
172E4
  5
174B8
331
17323
  5
174F7
331
17237
  5
1740B
331
1726E
  5
17442
331
171F8
  5
173CC
331
172AD
  5
17481
331
1735A
  5
1752E
331
17362
  5
17536
331
172EC
  5
174C0
331
1732B
  5
174FF
331
1723F
  5
17413
331
17276
  5
1744A
331
17200
  5
173D4
331
172B5
  5
17489
331
1736A
  5
1753E
331
172BD
  5
17491
331
172F4
  5
174C8
331
17208
  5
173DC
331
17247
  5
1741B
331
1727E
  5
17452
331
17333
  5
17507
331
17372
  5
17345
331
17286
  5
1745A
331
172FC
  5
174D0
331
16FB0
  5
17318
331
164AA
  5
164AA
331
16FF7
  5
1738D
331
1546D
  5
1546D
331
164B2
  5
164B2
331
16FC0
  5
17355
331
16FFF
  5
17395
331
16FC8
  5
1735D
331
16F91
  5
172D4
331
16A6A
  5
16F9D
331
174A3
  5
172CE
331
174E2
  5
17205
331
1742D
  5
16FEC
331
1746C
  5
16FC5
331
17519
  5
16A6B
331
17521
  5
1725D
331
17474
  5
16A73
331
174AB
  5
172C8
331
17435
  5
16F94
331
174EA
  5
1720D
331
174F2
  5
16FF1
331
17529
  5
1722D
331
1743D
  5
1734B
331
173C7
  5
16FE7
331
1747C
  5
172E7
331
174B3
  5
172AD
331
174FA
  5
171D6
331
17531
  5
171F8
331
17445
  5
17333
331
17484
  5
17303
331
173CF
  5
16FC3
331
1740E
  5
172B6
331
174BB
  5
17263
331
17210
  5
173E4
331
17304
  5
174D8
331
1733B
  5
1750F
331
1728E
  5
17462
331
172C5
  5
17499
331
1737A
  5
1733C
331
171D9
  5
173AD
331
17218
  5
173EC
331
1724F
  5
17423
331
1730C
  5
174E0
331
17343
  5
17517
331
17257
  5
1742B
331
17296
  5
1746A
331
171E1
  5
173B5
331
17220
  5
173F4
331
172CD
  5
174A1
331
172D5
  5
174A9
331
17314
  5
174E8
331
17228
  5
173FC
331
1725F
  5
17433
331
171E9
  5
173BD
331
1729E
  5
17472
331
1734B
  5
1751F
331
17353
  5
17527
331
17392
  5
17315
331
172A6
  5
1747A
331
172DD
  5
174B1
331
17267
  5
1743B
331
1731C
  5
174F0
331
16FD0
  5
17365
331
16A72
  5
16FB7
331
16F99
  5
172E3
331
16FD8
  5
1736D
331
16FE0
  5
17375
331
16FA1
  5
172F6
331
1649B
  5
1649B
331
16A8A
  5
17274
331
16FE8
  5
1737E
331
171D7
  5
173AB
331
164A3
  5
164A3
331
16A92
  5
1727A
331
174C3
  5
1726B
331
17502
  5
171EB
331
17416
  5
172A0
331
1744D
  5
1731F
331
173D7
  5
16F9F
331
1748C
  5
172EA
331
17539
  5
17202
331
17541
  5
16FFC
331
17494
  5
173A2
331
174CB
  5
17222
331
1741E
  5
1728F
331
17455
  5
172C2
331
1750A
  5
16FD2
331
17512
  5
16A8D
331
1749C
  5
172DA
331
174D3
  5
17247
331
173E7
  5
1734E
331
17426
  5
17282
331
1745D
  5
172A8
331
17465
  5
16FED
331
174DB
  5
17251
331
17230
  5
17404
331
171F1
  5
173C5
331
1735B
  5
1752F
331
172AE
  5
17482
331
172E5
  5
174B9
331
171F9
  5
173CD
331
17238
  5
1740C
331
1726F
  5
17443
331
17324
  5
174F8
331
1732C
  5
17500
331
17363
  5
17537
331
17277
  5
1744B
331
172B6
  5
1748A
331
17201
  5
173D5
331
17240
  5
17414
331
172ED
  5
174C1
331
172F5
  5
174C9
331
17334
  5
17508
331
1727F
  5
17453
331
17209
  5
173DD
331
172BE
  5
17492
331
1736B
  5
1753F
331
17373
  5
17346
331
172FD
  5
174D1
331
17287
  5
1745B
331
16FF0
  5
17386
331
16A9A
  5
1728A
331
164AB
  5
164AB
331
16FF8
  5
1738E
331
17000
  5
17396
331
16FC1
  5
17356
331
1546E
  5
1546E
331
164B3
  5
164B3
331
16FC9
  5
1735E
331
16A63
  5
16A8A
331
16A6B
  5
16F9E
331
174E3
  5
17206
331
1751A
  5
17256
331
1742E
  5
16FD0
331
1746D
  5
16F92
331
173B8
  5
17297
331
173F7
  5
1732C
331
174A4
  5
172CF
331
174AC
  5
1739B
331
174EB
  5
1720E
331
17522
  5
1725E
331
173C0
  5
17289
331
173FF
  5
1731E
331
174B4
  5
172AE
331
174F3
  5
16FF2
331
17407
  5
172C4
331
1743E
  5
1734C
331
173C8
  5
16FE8
331
1747D
  5
172E8
331
1752A
  5
17234
331
17532
  5
171F9
331
17485
  5
172F3
331
174BC
  5
17264
331
1740F
  5
172AB
331
17446
  5
17334
331
174FB
  5
171D8
331
17248
  5
1741C
331
17211
  5
173E5
331
1737B
  5
1733D
331
172C6
  5
1749A
331
17305
  5
174D9
331
17219
  5
173ED
331
17250
  5
17424
331
171DA
  5
173AE
331
1728F
  5
17463
331
1733C
  5
17510
331
17344
  5
17518
331
17297
  5
1746B
331
172CE
  5
174A2
331
171E2
  5
173B6
331
17221
  5
173F5
331
17258
  5
1742C
331
1730D
  5
174E1
331
17315
  5
174E9
331
1734C
  5
17520
331
1729F
  5
17473
331
172D6
  5
174AA
331
1738B
  5
17319
331
171EA
  5
173BE
331
17229
  5
173FD
331
17260
  5
17434
331
16FD1
  5
17366
331
1731D
  5
174F1
331
17354
  5
17528
331
172A7
  5
1747B
331
172DE
  5
174B2
331
17393
  5
17316
331
16F9A
  5
172E4
331
16FD9
  5
1736E
331
16A73
  5
16FBD
331
16FA2
  5
172F7
331
16FE1
  5
17376
331
16A8B
  5
17275
331
1649C
  5
1649C
331
16FAA
  5
17305
331
16FE9
  5
1737F
331
16A93
  5
1727B
331
164A4
  5
164A4
331
17503
  5
171EC
331
1753A
  5
17203
331
1744E
  5
17320
331
173D8
  5
16FA0
331
1748D
  5
172EB
331
174C4
  5
1726C
331
1750B
  5
16FDA
331
17456
  5
172C3
331
17495
  5
173A3
331
17542
  5
16FFD
331
1741F
  5
1728B
331
174D4
  5
17248
331
17513
  5
16A8E
331
17427
  5
1727D
331
1745E
  5
172A9
331
1749D
  5
172D5
331
174DC
  5
17252
331
17466
  5
16FEE
331
17268
  5
1743C
331
171F2
  5
173C6
331
17231
  5
17405
331
172E6
  5
174BA
331
17325
  5
174F9
331
17239
  5
1740D
331
17270
  5
17444
331
171FA
  5
173CE
331
172AF
  5
17483
331
1735C
  5
17530
331
17364
  5
17538
331
172B7
  5
1748B
331
172EE
  5
174C2
331
17241
  5
17415
331
17278
  5
1744C
331
1732D
  5
17501
331
17202
  5
173D6
331
1736C
  5
17540
331
173AB
  5
172A2
331
172BF
  5
17493
331
172F6
  5
174CA
331
1720A
  5
173DE
331
17280
  5
17454
331
17335
  5
17509
331
16FF1
  5
17387
331
17374
  5
17347
331
172FE
  5
174D2
331
164AC
  5
164AC
331
16FBA
  5
1734F
331
16FF9
  5
1738F
331
1546F
  5
1546F
331
164B4
  5
164B4
331
16FC2
  5
17357
331
17001
  5
17397
331
16F8B
  5
172C9
331
16FCA
  5
1735F
331
16A64
  5
16A8B
331
173F0
  5
17340
331
173B1
  5
17298
331
1751B
  5
17257
331
174A5
  5
172D0
331
174E4
  5
17207
331
1746E
  5
16F93
331
17523
  5
1725F
331
174AD
  5
1739C
331
17400
  5
17310
331
17437
  5
16F91
331
174EC
  5
1720F
331
1752B
  5
17238
331
1743F
  5
17348
331
173C9
  5
16FE9
331
174B5
  5
172AF
331
174BD
  5
17265
331
174FC
  5
171DC
331
17447
  5
17330
331
17486
  5
172ED
331
17533
  5
171FA
331
17288
  5
1745C
331
17212
  5
173E6
331
17249
  5
1741D
331
17306
  5
174DA
331
1733D
  5
17511
331
17251
  5
17425
331
17290
  5
17464
331
171DB
  5
173AF
331
1721A
  5
173EE
331
172C7
  5
1749B
331
1730E
  5
174E2
331
17345
  5
17519
331
17259
  5
1742D
331
17298
  5
1746C
331
171E3
  5
173B7
331
17222
  5
173F6
331
172CF
  5
174A3
331
1738C
  5
1731A
331
172D7
  5
174AB
331
17316
  5
174EA
331
1722A
  5
173FE
331
17261
  5
17435
331
171EB
  5
173BF
331
172A0
  5
17474
331
1734D
  5
17521
331
17355
  5
17529
331
17394
  5
17311
331
172DF
  5
174B3
331
1731E
  5
174F2
331
16FD2
  5
17367
331
16FDA
  5
1736F
331
16F9B
  5
172E5
331
16FE2
  5
17377
331
16FA3
  5
172F8
331
1649D
  5
1649D
331
16FAB
  5
17306
331
16FEA
  5
17380
331
16A8C
  5
17276
331
164A5
  5
164A5
331
16A94
  5
1727C
  0
XRECORD
  5
12A85
102
{ACAD_REACTORS
330
129AF
102
}
330
129AF
100
AcDbXrecord
280
     1
340
125A7
  0
LAYOUT
  5
1297D
102
{ACAD_XDICTIONARY
360
1754C
102
}
102
{ACAD_REACTORS
330
1297B
102
}
330
1297B
100
AcDbPlotSettings
  1

  2
いきなりPDF Professional
  4
User76
  6

 40
3.174999952316283
 41
3.174999952316283
 42
3.17498779296875
 43
3.17498779296875
 44
419.9889831542968
 45
297.0106506347656
 46
7.459999999999999
 47
6.849999999999998
 48
0.0
 49
0.0
140
0.0
141
0.0
142
1.0
143
40.0
 70
 11940
 72
     1
 73
     0
 74
     1
  7
sinsei-a3.ctb
 75
     0
147
0.025
148
-433.9966216520332
149
-163.6908237492789
100
AcDbLayout
  1
Model
 70
     1
 71
     0
 10
0.0
 20
0.0
 11
12.0
 21
9.0
 12
0.0
 22
0.0
 32
0.0
 14
0.0
 24
0.0
 34
0.0
 15
0.0
 25
0.0
 35
0.0
146
0.0
 13
0.0
 23
0.0
 33
0.0
 16
1.0
 26
0.0
 36
0.0
 17
0.0
 27
1.0
 37
0.0
 76
     0
330
125AA
331
170E0
1001
ACAD_PSEXT
1000
いきなりPDF Professional
1000
いきなりPDF Professional
1000
SN PDFPro Port
1000

1070
     0
  0
LAYOUT
  5
1297E
102
{ACAD_REACTORS
330
1297B
102
}
330
1297B
100
AcDbPlotSettings
  1

  2
RICOH NX-210 RPDL
  4

  6

 40
0.0
 41
0.0
 42
0.0
 43
0.0
 44
0.0
 45
0.0
 46
0.0
 47
0.0
 48
0.0
 49
0.0
140
0.0
141
0.0
142
1.0
143
1.0
 70
   688
 72
     0
 73
     0
 74
     5
  7
sinsei-a3.ctb
 75
    16
147
1.0
148
0.0
149
0.0
100
AcDbLayout
  1
ﾚｲｱｳﾄ1
 70
     0
 71
     1
 10
0.0
 20
0.0
 11
12.0
 21
9.0
 12
267.0
 22
194.8999999999998
 32
0.0
 14
1.000000000000000E+20
 24
1.000000000000000E+20
 34
1.000000000000000E+20
 15
-1.000000000000000E+20
 25
-1.000000000000000E+20
 35
-1.000000000000000E+20
146
0.0
 13
0.0
 23
0.0
 33
0.0
 16
1.0
 26
0.0
 36
0.0
 17
0.0
 27
1.0
 37
0.0
 76
     0
330
125A7
  0
MATERIAL
  5
15B21
102
{ACAD_XDICTIONARY
360
1754E
102
}
102
{ACAD_REACTORS
330
12AC0
102
}
330
12AC0
100
AcDbMaterial
  1
ByBlock
  0
MATERIAL
  5
15B20
102
{ACAD_XDICTIONARY
360
17550
102
}
102
{ACAD_REACTORS
330
12AC0
102
}
330
12AC0
100
AcDbMaterial
  1
ByLayer
  0
MATERIAL
  5
15B22
102
{ACAD_XDICTIONARY
360
17552
102
}
102
{ACAD_REACTORS
330
12AC0
102
}
330
12AC0
100
AcDbMaterial
  1
Global
  0
MLINESTYLE
  5
125AD
102
{ACAD_REACTORS
330
125A0
102
}
330
125A0
100
AcDbMlineStyle
  2
STANDARD
 70
     0
  3

 62
     0
 51
90.0
 52
90.0
 71
     2
 49
0.5
 62
   256
  6
BYLAYER
 49
-0.5
 62
   256
  6
BYLAYER
  0
ACDBPLACEHOLDER
  5
1297A
102
{ACAD_REACTORS
330
12979
102
}
330
12979
  0
VISUALSTYLE
  5
15B29
102
{ACAD_REACTORS
330
15B23
102
}
330
15B23
100
AcDbVisualStyle
  2
2dWireframe
 70
     4
 71
     0
 72
     2
 73
     0
 90
        0
 40
-0.6
 41
-30.0
 62
     5
 63
     7
 74
     1
 91
        4
 64
     7
 65
   257
 75
     1
175
     1
 42
1.0
 92
        0
 66
   257
 43
1.0
 76
     1
 77
     6
 78
     2
 67
     7
 79
     5
170
     0
171
     0
290
     0
174
     0
 93
        1
 44
0.0
173
     0
291
     0
 45
0.0
1001
ACAD
1000
AcRTDxfName
1000
VISUALSTYLE
1000
AcRTDxfName
1000
VISUALSTYLE
1000
AcRTDxfName
1000
VISUALSTYLE
1000
AcRTDxfName
1000
VISUALSTYLE
1000
AcDbSavedByObjectVersion
1070
     0
  0
VISUALSTYLE
  5
15B2B
102
{ACAD_REACTORS
330
15B23
102
}
330
15B23
100
AcDbVisualStyle
  2
3D Hidden
 70
     6
 71
     1
 72
     2
 73
     2
 90
        0
 40
-0.6
 41
-30.0
 62
     5
 63
     7
 74
     2
 91
        2
 64
     7
 65
   257
 75
     2
175
     1
 42
40.0
 92
        0
 66
   257
 43
1.0
 76
     1
 77
     6
 78
     2
 67
     7
 79
     3
170
     0
171
     0
290
     0
174
     0
 93
        1
 44
0.0
173
     0
291
     0
 45
0.0
1001
ACAD
1000
AcRTDxfName
1000
VISUALSTYLE
1000
AcRTDxfName
1000
VISUALSTYLE
1000
AcRTDxfName
1000
VISUALSTYLE
1000
AcRTDxfName
1000
VISUALSTYLE
1000
AcDbSavedByObjectVersion
1070
     0
  0
VISUALSTYLE
  5
15B2A
102
{ACAD_REACTORS
330
15B23
102
}
330
15B23
100
AcDbVisualStyle
  2
3dWireframe
 70
     5
 71
     0
 72
     2
 73
     0
 90
        0
 40
-0.6
 41
-30.0
 62
     5
 63
     7
 74
     1
 91
        4
 64
     7
 65
   257
 75
     1
175
     1
 42
1.0
 92
        0
 66
   257
 43
1.0
 76
     1
 77
     6
 78
     2
 67
     7
 79
     5
170
     0
171
     0
290
     0
174
     0
 93
        1
 44
0.0
173
     0
291
     0
 45
0.0
1001
ACAD
1000
AcRTDxfName
1000
VISUALSTYLE
1000
AcRTDxfName
1000
VISUALSTYLE
1000
AcRTDxfName
1000
VISUALSTYLE
1000
AcRTDxfName
1000
VISUALSTYLE
1000
AcDbSavedByObjectVersion
1070
     0
  0
VISUALSTYLE
  5
15B28
102
{ACAD_REACTORS
330
15B23
102
}
330
15B23
100
AcDbVisualStyle
  2
Basic
 70
     7
 71
     1
 72
     0
 73
     1
 90
        0
 40
-0.6
 41
-30.0
 62
     5
 63
     7
 74
     0
 91
        4
 64
     7
 65
   257
 75
     1
175
     1
 42
1.0
 92
        8
 66
     7
 43
1.0
 76
     1
 77
     6
 78
     2
 67
     7
 79
     5
170
     0
171
     0
290
     0
174
     0
 93
        1
 44
0.0
173
     0
291
     1
 45
0.0
1001
ACAD
1000
AcRTDxfName
1000
VISUALSTYLE
1000
AcRTDxfName
1000
VISUALSTYLE
1000
AcRTDxfName
1000
VISUALSTYLE
1000
AcRTDxfName
1000
VISUALSTYLE
1000
AcDbSavedByObjectVersion
1070
     0
  0
VISUALSTYLE
  5
15B2F
102
{ACAD_REACTORS
330
15B23
102
}
330
15B23
100
AcDbVisualStyle
  2
Brighten
 70
    12
 71
     2
 72
     2
 73
     0
 90
        0
 40
-0.6
 41
-30.0
 62
     5
 63
     7
 74
     1
 91
        4
 64
     7
 65
   257
 75
     1
175
     1
 42
1.0
 92
        8
 66
     7
 43
1.0
 76
     1
 77
     6
 78
     2
 67
     7
 79
     5
170
     0
171
     0
290
     0
174
     0
 93
        1
 44
50.0
173
     0
291
     1
 45
0.0
1001
ACAD
1000
AcRTDxfName
1000
VISUALSTYLE
1000
AcRTDxfName
1000
VISUALSTYLE
1000
AcRTDxfName
1000
VISUALSTYLE
1000
AcRTDxfName
1000
VISUALSTYLE
1000
AcDbSavedByObjectVersion
1070
     0
  0
VISUALSTYLE
  5
15B33
102
{ACAD_REACTORS
330
15B23
102
}
330
15B23
100
AcDbVisualStyle
  2
ColorChange
 70
    16
 71
     2
 72
     2
 73
     3
 90
        0
 40
-0.6
 41
-30.0
 62
     5
 63
     8
 74
     1
 91
        4
 64
     7
 65
   257
 75
     1
175
     1
 42
1.0
 92
        8
 66
     8
 43
1.0
 76
     1
 77
     6
 78
     2
 67
     7
 79
     5
170
     0
171
     0
290
     0
174
     0
 93
        1
 44
0.0
173
     0
291
     1
 45
0.0
1001
ACAD
1000
AcRTDxfName
1000
VISUALSTYLE
1000
AcRTDxfName
1000
VISUALSTYLE
1000
AcRTDxfName
1000
VISUALSTYLE
1000
AcRTDxfName
1000
VISUALSTYLE
1000
AcDbSavedByObjectVersion
1070
     0
  0
VISUALSTYLE
  5
15B2C
102
{ACAD_REACTORS
330
15B23
102
}
330
15B23
100
AcDbVisualStyle
  2
Conceptual
 70
     9
 71
     3
 72
     2
 73
     0
 90
        0
 40
-0.6
 41
-30.0
 62
     5
 63
     7
 74
     2
 91
        2
 64
     7
 65
   257
 75
     1
175
     1
 42
40.0
 92
        8
 66
     7
 43
1.0
 76
     1
 77
     6
 78
     2
 67
     7
 79
     3
170
     0
171
     0
290
     0
174
     0
 93
        1
 44
0.0
173
     0
291
     0
 45
0.0
1001
ACAD
1000
AcRTDxfName
1000
VISUALSTYLE
1000
AcRTDxfName
1000
VISUALSTYLE
1000
AcRTDxfName
1000
VISUALSTYLE
1000
AcRTDxfName
1000
VISUALSTYLE
1000
AcDbSavedByObjectVersion
1070
     0
  0
VISUALSTYLE
  5
15B2E
102
{ACAD_REACTORS
330
15B23
102
}
330
15B23
100
AcDbVisualStyle
  2
Dim
 70
    11
 71
     2
 72
     2
 73
     0
 90
        0
 40
-0.6
 41
-30.0
 62
     5
 63
     7
 74
     1
 91
        4
 64
     7
 65
   257
 75
     1
175
     1
 42
1.0
 92
        8
 66
     7
 43
1.0
 76
     1
 77
     6
 78
     2
 67
     7
 79
     5
170
     0
171
     0
290
     0
174
     0
 93
        1
 44
-50.0
173
     0
291
     1
 45
0.0
1001
ACAD
1000
AcRTDxfName
1000
VISUALSTYLE
1000
AcRTDxfName
1000
VISUALSTYLE
1000
AcRTDxfName
1000
VISUALSTYLE
1000
AcRTDxfName
1000
VISUALSTYLE
1000
AcDbSavedByObjectVersion
1070
     0
  0
VISUALSTYLE
  5
15B32
102
{ACAD_REACTORS
330
15B23
102
}
330
15B23
100
AcDbVisualStyle
  2
Facepattern
 70
    15
 71
     2
 72
     2
 73
     0
 90
        0
 40
-0.6
 41
-30.0
 62
     5
 63
     7
 74
     1
 91
        4
 64
     7
 65
   257
 75
     1
175
     1
 42
1.0
 92
        8
 66
     7
 43
1.0
 76
     1
 77
     6
 78
     2
 67
     7
 79
     5
170
     0
171
     0
290
     0
174
     0
 93
        1
 44
0.0
173
     0
291
     1
 45
0.0
1001
ACAD
1000
AcRTDxfName
1000
VISUALSTYLE
1000
AcRTDxfName
1000
VISUALSTYLE
1000
AcRTDxfName
1000
VISUALSTYLE
1000
AcRTDxfName
1000
VISUALSTYLE
1000
AcDbSavedByObjectVersion
1070
     0
  0
VISUALSTYLE
  5
15B24
102
{ACAD_REACTORS
330
15B23
102
}
330
15B23
100
AcDbVisualStyle
  2
Flat
 70
     0
 71
     2
 72
     1
 73
     1
 90
        2
 40
-0.6
 41
30.0
 62
     5
 63
     7
 74
     0
 91
        4
 64
     7
 65
   257
 75
     1
175
     1
 42
1.0
 92
        8
 66
     7
 43
1.0
 76
     1
 77
     6
 78
     2
 67
     7
 79
     5
170
     0
171
     0
290
     0
174
     0
 93
       13
 44
0.0
173
     0
291
     1
 45
0.0
1001
ACAD
1000
AcRTDxfName
1000
VISUALSTYLE
1000
AcRTDxfName
1000
VISUALSTYLE
1000
AcRTDxfName
1000
VISUALSTYLE
1000
AcRTDxfName
1000
VISUALSTYLE
1000
AcDbSavedByObjectVersion
1070
     0
  0
VISUALSTYLE
  5
15B25
102
{ACAD_REACTORS
330
15B23
102
}
330
15B23
100
AcDbVisualStyle
  2
FlatWithEdges
 70
     1
 71
     2
 72
     1
 73
     1
 90
        2
 40
-0.6
 41
30.0
 62
     5
 63
     7
 74
     1
 91
        4
 64
     7
 65
   257
 75
     1
175
     1
 42
1.0
 92
        0
 66
   257
 43
1.0
 76
     1
 77
     6
 78
     2
 67
     7
 79
     5
170
     0
171
     0
290
     0
174
     0
 93
       13
 44
0.0
173
     0
291
     1
 45
0.0
1001
ACAD
1000
AcRTDxfName
1000
VISUALSTYLE
1000
AcRTDxfName
1000
VISUALSTYLE
1000
AcRTDxfName
1000
VISUALSTYLE
1000
AcRTDxfName
1000
VISUALSTYLE
1000
AcDbSavedByObjectVersion
1070
     0
  0
VISUALSTYLE
  5
15B26
102
{ACAD_REACTORS
330
15B23
102
}
330
15B23
100
AcDbVisualStyle
  2
Gouraud
 70
     2
 71
     2
 72
     2
 73
     1
 90
        2
 40
-0.6
 41
30.0
 62
     5
 63
     7
 74
     0
 91
        4
 64
     7
 65
   257
 75
     1
175
     1
 42
1.0
 92
        0
 66
     7
 43
1.0
 76
     1
 77
     6
 78
     2
 67
     7
 79
     5
170
     0
171
     0
290
     0
174
     0
 93
       13
 44
0.0
173
     0
291
     1
 45
0.0
1001
ACAD
1000
AcRTDxfName
1000
VISUALSTYLE
1000
AcRTDxfName
1000
VISUALSTYLE
1000
AcRTDxfName
1000
VISUALSTYLE
1000
AcRTDxfName
1000
VISUALSTYLE
1000
AcDbSavedByObjectVersion
1070
     0
  0
VISUALSTYLE
  5
15B27
102
{ACAD_REACTORS
330
15B23
102
}
330
15B23
100
AcDbVisualStyle
  2
GouraudWithEdges
 70
     3
 71
     2
 72
     2
 73
     1
 90
        2
 40
-0.6
 41
30.0
 62
     5
 63
     7
 74
     1
 91
        4
 64
     7
 65
   257
 75
     1
175
     1
 42
1.0
 92
        0
 66
   257
 43
1.0
 76
     1
 77
     6
 78
     2
 67
     7
 79
     5
170
     0
171
     0
290
     0
174
     0
 93
       13
 44
0.0
173
     0
291
     1
 45
0.0
1001
ACAD
1000
AcRTDxfName
1000
VISUALSTYLE
1000
AcRTDxfName
1000
VISUALSTYLE
1000
AcRTDxfName
1000
VISUALSTYLE
1000
AcRTDxfName
1000
VISUALSTYLE
1000
AcDbSavedByObjectVersion
1070
     0
  0
VISUALSTYLE
  5
15B31
102
{ACAD_REACTORS
330
15B23
102
}
330
15B23
100
AcDbVisualStyle
  2
Linepattern
 70
    14
 71
     2
 72
     2
 73
     0
 90
        0
 40
-0.6
 41
-30.0
 62
     5
 63
     7
 74
     1
 91
        4
 64
     7
 65
   257
 75
     7
175
     7
 42
1.0
 92
        8
 66
     7
 43
1.0
 76
     1
 77
     6
 78
     2
 67
     7
 79
     5
170
     0
171
     0
290
     0
174
     0
 93
        1
 44
0.0
173
     0
291
     1
 45
0.0
1001
ACAD
1000
AcRTDxfName
1000
VISUALSTYLE
1000
AcRTDxfName
1000
VISUALSTYLE
1000
AcRTDxfName
1000
VISUALSTYLE
1000
AcRTDxfName
1000
VISUALSTYLE
1000
AcDbSavedByObjectVersion
1070
     0
  0
VISUALSTYLE
  5
15B2D
102
{ACAD_REACTORS
330
15B23
102
}
330
15B23
100
AcDbVisualStyle
  2
Realistic
 70
     8
 71
     2
 72
     2
 73
     0
 90
        0
 40
-0.6
 41
-30.0
 62
     5
 63
     7
 74
     1
 91
        0
 64
     7
 65
   257
 75
     1
175
     1
 42
1.0
 92
        8
 66
     8
 43
1.0
 76
     1
 77
     6
 78
     2
 67
     7
 79
     5
170
     0
171
     0
290
     0
174
     0
 93
       13
 44
0.0
173
     0
291
     0
 45
0.0
1001
ACAD
1000
AcRTDxfName
1000
VISUALSTYLE
1000
AcRTDxfName
1000
VISUALSTYLE
1000
AcRTDxfName
1000
VISUALSTYLE
1000
AcRTDxfName
1000
VISUALSTYLE
1000
AcDbSavedByObjectVersion
1070
     0
  0
VISUALSTYLE
  5
15B30
102
{ACAD_REACTORS
330
15B23
102
}
330
15B23
100
AcDbVisualStyle
  2
Thicken
 70
    13
 71
     2
 72
     2
 73
     0
 90
        0
 40
-0.6
 41
-30.0
 62
     5
 63
     7
 74
     1
 91
        4
 64
     7
 65
   257
 75
     1
175
     1
 42
1.0
 92
       12
 66
     7
 43
1.0
 76
     1
 77
     6
 78
     2
 67
     7
 79
     5
170
     0
171
     0
290
     0
174
     0
 93
        1
 44
0.0
173
     0
291
     1
 45
0.0
1001
ACAD
1000
AcRTDxfName
1000
VISUALSTYLE
1000
AcRTDxfName
1000
VISUALSTYLE
1000
AcRTDxfName
1000
VISUALSTYLE
1000
AcRTDxfName
1000
VISUALSTYLE
1000
AcDbSavedByObjectVersion
1070
     0
  0
DICTIONARYVAR
  5
15C50
102
{ACAD_REACTORS
330
13B02
102
}
330
13B02
100
DictionaryVariables
280
     0
  1
Standard
  0
DICTIONARYVAR
  5
13B03
102
{ACAD_REACTORS
330
13B02
102
}
330
13B02
100
DictionaryVariables
280
     0
  1
1
  0
DICTIONARYVAR
  5
17547
102
{ACAD_REACTORS
330
13B02
102
}
330
13B02
100
DictionaryVariables
280
     0
  1
0
  0
DICTIONARYVAR
  5
15C52
102
{ACAD_REACTORS
330
13B02
102
}
330
13B02
100
DictionaryVariables
280
     0
  1
0
  0
DICTIONARYVAR
  5
13B04
102
{ACAD_REACTORS
330
13B02
102
}
330
13B02
100
DictionaryVariables
280
     0
  1

  0
DICTIONARYVAR
  5
15C51
102
{ACAD_REACTORS
330
13B02
102
}
330
13B02
100
DictionaryVariables
280
     0
  1
127
  0
DICTIONARY
  5
1754C
330
1297D
100
AcDbDictionary
280
     1
281
     1
  3
ACAD_XREC_ROUNDTRIP
360
1754D
  0
DICTIONARY
  5
1754E
330
15B21
100
AcDbDictionary
280
     1
281
     1
  3
ACAD_XREC_ROUNDTRIP
360
1754F
  0
DICTIONARY
  5
17550
330
15B20
100
AcDbDictionary
280
     1
281
     1
  3
ACAD_XREC_ROUNDTRIP
360
17551
  0
DICTIONARY
  5
17552
330
15B22
100
AcDbDictionary
280
     1
281
     1
  3
ACAD_XREC_ROUNDTRIP
360
17553
  0
XRECORD
  5
1754D
102
{ACAD_REACTORS
330
1754C
102
}
330
1754C
100
AcDbXrecord
280
     1
102
SHADEPLOT
 70
     1
102
SHADEPLOTRESLEVEL
 70
     2
102
SHADEPLOTCUSTOMDPI
 70
   300
  0
XRECORD
  5
1754F
102
{ACAD_REACTORS
330
1754E
102
}
330
1754E
100
AcDbXrecord
280
     1
102
MATERIAL
148
0.0
149
0.0
149
0.0
 93
        0
 94
       63
282
     0
 72
     1
 77
     1
171
     1
175
     1
179
     1
273
     0
  0
XRECORD
  5
17551
102
{ACAD_REACTORS
330
17550
102
}
330
17550
100
AcDbXrecord
280
     1
102
MATERIAL
148
0.0
149
0.0
149
0.0
 93
        0
 94
       63
282
     0
 72
     1
 77
     1
171
     1
175
     1
179
     1
273
     0
  0
XRECORD
  5
17553
102
{ACAD_REACTORS
330
17552
102
}
330
17552
100
AcDbXrecord
280
     1
102
MATERIAL
148
0.0
149
0.0
149
0.0
 93
        0
 94
       63
282
     0
 72
     1
 77
     1
171
     1
175
     1
179
     1
273
     0
  0
ENDSEC
  0
EOF
