  0
SECTION
  2
HEADER
  9
$ACADVER
  1
AC1009
  9
$INSBASE
 10
267.00000000000011
 20
194.89999999999981
 30
0.0
  9
$EXTMIN
 10
433.9966216520333
 20
163.69082374927891
 30
-0.0015258207003583
  9
$EXTMAX
 10
16382.6660542547
 20
11242.27663824599
 30
0.0000000349246037
  9
$LIMMIN
 10
0.0
 20
0.0
  9
$LIMMAX
 10
16800.0
 20
11880.0
  9
$ORTHOMODE
 70
     0
  9
$REGENMODE
 70
     1
  9
$FILLMODE
 70
     1
  9
$QTEXTMODE
 70
     0
  9
$MIRRTEXT
 70
     0
  9
$DRAGMODE
 70
     2
  9
$LTSCALE
 40
40.0
  9
$OSMODE
 70
  3071
  9
$ATTMODE
 70
     1
  9
$TEXTSIZE
 40
0.2
  9
$TRACEWID
 40
0.05
  9
$TEXTSTYLE
  7
00
  9
$CLAYER
  8
SUNPOU
  9
$CELTYPE
  6
BYLAYER
  9
$CECOLOR
 62
   256
  9
$DIMSCALE
 40
30.0
  9
$DIMASZ
 40
0.5
  9
$DIMEXO
 40
1.0
  9
$DIMDLI
 40
7.0
  9
$DIMRND
 40
0.0
  9
$DIMDLE
 40
3.0
  9
$DIMEXE
 40
1.5
  9
$DIMTP
 40
0.0
  9
$DIMTM
 40
0.0
  9
$DIMTXT
 40
3.0
  9
$DIMCEN
 40
0.0
  9
$DIMTSZ
 40
0.0
  9
$DIMTOL
 70
     0
  9
$DIMLIM
 70
     0
  9
$DIMTIH
 70
     0
  9
$DIMTOH
 70
     0
  9
$DIMSE1
 70
     0
  9
$DIMSE2
 70
     0
  9
$DIMTAD
 70
     1
  9
$DIMZIN
 70
     8
  9
$DIMBLK
  1

  9
$DIMASO
 70
     1
  9
$DIMSHO
 70
     0
  9
$DIMPOST
  1

  9
$DIMAPOST
  1

  9
$DIMALT
 70
     0
  9
$DIMALTD
 70
     2
  9
$DIMALTF
 40
25.399999999999999
  9
$DIMLFAC
 40
1.0
  9
$DIMTOFL
 70
     1
  9
$DIMTVP
 40
0.0
  9
$DIMTIX
 70
     0
  9
$DIMSOXD
 70
     0
  9
$DIMSAH
 70
     1
  9
$DIMBLK1
  1
DOT
  9
$DIMBLK2
  1
DOT
  9
$DIMSTYLE
  2
SUNPOU_図面名
  9
$DIMCLRD
 70
   256
  9
$DIMCLRE
 70
   256
  9
$DIMCLRT
 70
   256
  9
$DIMTFAC
 40
1.0
  9
$DIMGAP
 40
1.5
  9
$LUNITS
 70
     2
  9
$LUPREC
 70
     2
  9
$SKETCHINC
 40
0.1
  9
$FILLETRAD
 40
0.0
  9
$AUNITS
 70
     0
  9
$AUPREC
 70
     0
  9
$MENU
  1
A:\TIGER\MENU\TIGER
  9
$ELEVATION
 40
0.0
  9
$PELEVATION
 40
0.0
  9
$THICKNESS
 40
0.0
  9
$LIMCHECK
 70
     0
  9
$BLIPMODE
 70
     1
  9
$CHAMFERA
 40
0.0
  9
$CHAMFERB
 40
0.0
  9
$SKPOLY
 70
     0
  9
$TDCREATE
 40
2450266.5710648149
  9
$TDUPDATE
 40
2456399.439050382
  9
$TDINDWG
 40
0.185558588
  9
$TDUSRTIMER
 40
0.1855584028
  9
$USRTIMER
 70
     1
  9
$ANGBASE
 50
0.0
  9
$ANGDIR
 70
     0
  9
$PDMODE
 70
     0
  9
$PDSIZE
 40
0.0
  9
$PLINEWID
 40
0.0
  9
$COORDS
 70
     1
  9
$SPLFRAME
 70
     0
  9
$SPLINETYPE
 70
     6
  9
$SPLINESEGS
 70
     8
  9
$ATTDIA
 70
     0
  9
$ATTREQ
 70
     1
  9
$HANDLING
 70
     1
  9
$HANDSEED
  5
1954B
  9
$SURFTAB1
 70
     6
  9
$SURFTAB2
 70
     6
  9
$SURFTYPE
 70
     6
  9
$SURFU
 70
     6
  9
$SURFV
 70
     6
  9
$UCSNAME
  2

  9
$UCSORG
 10
0.0
 20
0.0
 30
0.0
  9
$UCSXDIR
 10
1.0
 20
0.0
 30
0.0
  9
$UCSYDIR
 10
0.0
 20
1.0
 30
0.0
  9
$PUCSNAME
  2

  9
$PUCSORG
 10
0.0
 20
0.0
 30
0.0
  9
$PUCSXDIR
 10
1.0
 20
0.0
 30
0.0
  9
$PUCSYDIR
 10
0.0
 20
1.0
 30
0.0
  9
$USERI1
 70
     3
  9
$USERI2
 70
     0
  9
$USERI3
 70
     0
  9
$USERI4
 70
     0
  9
$USERI5
 70
  1103
  9
$USERR1
 40
0.0
  9
$USERR2
 40
1.0
  9
$USERR3
 40
0.0
  9
$USERR4
 40
0.0
  9
$USERR5
 40
0.0
  9
$WORLDVIEW
 70
     1
  9
$SHADEDGE
 70
     3
  9
$SHADEDIF
 70
    70
  9
$TILEMODE
 70
     1
  9
$MAXACTVP
 70
    16
  9
$PLIMCHECK
 70
     0
  9
$PEXTMIN
 10
1.0000000000000000E+020
 20
1.0000000000000000E+020
 30
1.0000000000000000E+020
  9
$PEXTMAX
 10
-1.0000000000000000E+020
 20
-1.0000000000000000E+020
 30
-1.0000000000000000E+020
  9
$PLIMMIN
 10
0.0
 20
0.0
  9
$PLIMMAX
 10
12.0
 20
9.0
  9
$UNITMODE
 70
     0
  9
$VISRETAIN
 70
     0
  9
$PLINEGEN
 70
     1
  9
$PSLTSCALE
 70
     0
  0
ENDSEC
  0
SECTION
  2
TABLES
  0
TABLE
  2
VPORT
 70
     1
  0
VPORT
  2
*ACTIVE
 70
     0
 10
0.0
 20
0.0
 11
1.0
 21
1.0
 12
8400.0
 22
5940.0
 13
0.0
 23
0.0
 14
1.0
 24
1.0
 15
0.0
 25
0.0
 16
0.0
 26
0.0
 36
1.0
 17
0.0
 27
0.0
 37
0.0
 40
11982.120343839541
 41
1.6944045911047341
 42
50.0
 43
0.0
 44
0.0
 50
0.0
 51
0.0
 71
     0
 72
 10000
 73
     1
 74
     0
 75
     0
 76
     0
 77
     0
 78
     0
  0
ENDTAB
  0
TABLE
  2
LTYPE
 70
     8
  0
LTYPE
  2
CONTINUOUS
 70
     0
  3
実線
 72
    65
 73
     0
 40
0.0
  0
LTYPE
  2
TENSEN-
 70
     0
  3

 72
    65
 73
     2
 40
0.6000000000000001
 49
0.2
 49
-0.4
  0
LTYPE
  2
1PL-LL
 70
     0
  3

 72
    65
 73
     4
 40
106.0
 49
100.0
 49
-2.0
 49
2.0
 49
-2.0
  0
LTYPE
  2
1PL-M
 70
     0
  3

 72
    65
 73
     4
 40
15.0
 49
12.0
 49
-1.0
 49
1.0
 49
-1.0
  0
LTYPE
  2
1PL-S
 70
     0
  3

 72
    65
 73
     4
 40
4.0
 49
2.5
 49
-0.5
 49
0.5
 49
-0.5
  0
LTYPE
  2
2PL-L
 70
     0
  3

 72
    65
 73
     6
 40
60.0
 49
50.0
 49
-2.0
 49
2.0
 49
-2.0
 49
2.0
 49
-2.0
  0
LTYPE
  2
1PL-12
 70
     0
  3

 72
    65
 73
     4
 40
15.0
 49
12.0
 49
-1.0
 49
1.0
 49
-1.0
  0
LTYPE
  2
PHANTOM2
 70
     0
  3
Phantom (.5x) ___ _ _ ___ _ _ ___ _ _ ___ _ _
 72
    65
 73
     6
 40
1.25
 49
0.625
 49
-0.125
 49
0.125
 49
-0.125
 49
0.125
 49
-0.125
  0
ENDTAB
  0
TABLE
  2
LAYER
 70
    24
  0
LAYER
  2
0
 70
     0
 62
     7
  6
CONTINUOUS
  0
LAYER
  2
U1
 70
     0
 62
     3
  6
CONTINUOUS
  0
LAYER
  2
U3
 70
     0
 62
     6
  6
CONTINUOUS
  0
LAYER
  2
SUNPOU
 70
     0
 62
     4
  6
CONTINUOUS
  0
LAYER
  2
HIKIDASHI
 70
     0
 62
     6
  6
CONTINUOUS
  0
LAYER
  2
TENSEN-1
 70
     0
 62
     6
  6
TENSEN-
  0
LAYER
  2
1PL-S1
 70
     0
 62
     6
  6
1PL-S
  0
LAYER
  2
1PL-M1
 70
     0
 62
     6
  6
1PL-M
  0
LAYER
  2
NAME
 70
     0
 62
    20
  6
CONTINUOUS
  0
LAYER
  2
FILENAME
 70
     0
 62
     7
  6
CONTINUOUS
  0
LAYER
  2
CENTER
 70
     0
 62
     6
  6
1PL-LL
  0
LAYER
  2
KISO
 70
     0
 62
     2
  6
CONTINUOUS
  0
LAYER
  2
BOLT
 70
     0
 62
     4
  6
CONTINUOUS
  0
LAYER
  2
YANE
 70
     0
 62
     1
  6
1PL-12
  0
LAYER
  2
HATCH
 70
     0
 62
     1
  6
CONTINUOUS
  0
LAYER
  2
HASHIRA
 70
     0
 62
     3
  6
CONTINUOUS
  0
LAYER
  2
DOMAKON
 70
     0
 62
     2
  6
CONTINUOUS
  0
LAYER
  2
YODOROGO
 70
     0
 62
   130
  6
CONTINUOUS
  0
LAYER
  2
WAKUSEN-01
 70
     0
 62
    50
  6
CONTINUOUS
  0
LAYER
  2
WAKUSEN-02
 70
     0
 62
   130
  6
CONTINUOUS
  0
LAYER
  2
WAKUMOJI-01
 70
     0
 62
   130
  6
CONTINUOUS
  0
ENDTAB
  0
TABLE
  2
STYLE
 70
     5
  0
STYLE
  2
STANDARD
 70
     0
 40
3.0
 41
1.0
 50
0.0
 71
     0
 42
0.2
  3
ROMANS
  4
EXTFONT
  0
STYLE
  2
01
 70
     0
 40
3.0
 41
1.0
 50
0.0
 71
     0
 42
0.2
  3
ROMANS
  4
BIGFONT
  0
STYLE
  2
00
 70
     0
 40
0.0
 41
0.6666666666666666
 50
0.0
 71
     0
 42
0.2
  3
ROMANS
  4
BIGFONT
  0
STYLE
  2
WAKUMOJI
 70
     0
 40
3.0
 41
1.0
 50
0.0
 71
     0
 42
3.0
  3
SIMPLEX
  4
BIGFONT
  0
STYLE
  2
FILENAME
 70
     0
 40
100.0
 41
1.0
 50
0.0
 71
     0
 42
100.0
  3
romans
  4
bigfont
  0
ENDTAB
  0
TABLE
  2
VIEW
 70
     0
  0
ENDTAB
  0
TABLE
  2
UCS
 70
     0
  0
ENDTAB
  0
TABLE
  2
APPID
 70
     6
  0
APPID
  2
ACAD
 70
     0
  0
APPID
  2
AUTOCAD_POSTSCRIPT_FIGURE
 70
     0
  0
APPID
  2
ACAD_EXEMPT_FROM_CAD_STANDARDS
 70
     0
  0
APPID
  2
ACAD_PSEXT
 70
     0
  0
APPID
  2
ACAD_MLEADERVER
 70
     0
  0
APPID
  2
ACAD_NAV_VCDISPLAY
 70
     0
  0
ENDTAB
  0
TABLE
  2
DIMSTYLE
 70
     2
  0
DIMSTYLE
  2
SUNPOU_図面名
 70
     0
  3

  4

  5

  6
DOT
  7
DOT
 40
30.0
 41
0.5
 42
1.0
 43
7.0
 44
1.5
 45
0.0
 46
3.0
 47
0.0
 48
0.0
140
3.0
141
0.0
142
0.0
143
25.399999999999999
144
1.0
145
0.0
146
1.0
147
1.5
 71
     0
 72
     0
 73
     0
 74
     0
 75
     0
 76
     0
 77
     1
 78
     8
170
     0
171
     2
172
     1
173
     1
174
     0
175
     0
176
   256
177
   256
178
   256
  0
ENDTAB
  0
ENDSEC
  0
SECTION
  2
BLOCKS
  0
BLOCK
  8
0
  2
$MODEL_SPACE
 70
     0
 10
0.0
 20
0.0
 30
0.0
  3
$MODEL_SPACE
  1

  0
ENDBLK
  5
125F7
  8
0
  0
BLOCK
 67
     1
  8
0
  2
$PAPER_SPACE
 70
     0
 10
0.0
 20
0.0
 30
0.0
  3
$PAPER_SPACE
  1

  0
ENDBLK
  5
125F5
 67
     1
  8
0
  0
BLOCK
  8
0
  2
DOT
 70
     0
 10
0.0
 20
0.0
 30
0.0
  3
DOT
  1

  0
POLYLINE
  5
12987
  8
0
  6
BYBLOCK
 62
     0
 66
     1
 10
0.0
 20
0.0
 30
0.0
 70
     1
 40
0.75
 41
0.75
  0
VERTEX
  5
1950D
  8
0
  6
BYBLOCK
 62
     0
 10
-0.375
 20
0.0
 30
0.0
 42
1.0
  0
VERTEX
  5
1950E
  8
0
  6
BYBLOCK
 62
     0
 10
0.375
 20
0.0
 30
0.0
 42
1.0
  0
SEQEND
  5
1950F
  8
0
  6
BYBLOCK
 62
     0
  0
LINE
  5
12988
  8
0
  6
BYBLOCK
 62
     0
 10
-0.75
 20
0.0
 30
0.0
 11
-1.5
 21
0.0
 31
0.0
  0
ENDBLK
  5
12989
  8
0
  0
ENDSEC
  0
SECTION
  2
ENTITIES
  0
TEXT
  5
12ADB
  8
NAME
 10
12303.328573182949
 20
1055.0
 30
0.0
 40
120.0
  1
Y O K C
 41
0.6666666666666666
  7
00
  0
TEXT
  5
12ADC
  8
NAME
 10
11227.735871346251
 20
1055.0
 30
0.0
 40
120.0
  1
ヨド自転車置場　　　  型
  7
01
  0
TEXT
  5
12ADD
  8
NAME
 10
11228.075080823641
 20
875.0
 30
0.0
 40
120.0
  1
（アンカープレート方式）
  7
01
 72
     4
 11
12072.075080823641
 21
935.0
 31
0.0
  0
TEXT
  5
159C6
  8
NAME
 10
12854.799999999999
 20
541.00000000000011
 30
0.0
 40
160.0
  1
<3／3>
 41
0.6
  7
01
 72
     2
 11
13354.0
 21
541.00000000000011
 31
0.0
  0
TEXT
  5
159C7
  8
NAME
 10
10896.04264730429
 20
541.0
 30
0.0
 40
160.0
  1
YOKC-245
 41
0.7
  7
01
 72
     2
 11
11776.04264730429
 21
541.0
 31
0.0
  0
TEXT
  5
159C8
  8
NAME
 10
11816.04264730429
 20
541.0
 30
0.0
 40
160.0
  1
型（一般地用）
 41
0.8
  7
01
  0
TEXT
  5
164A9
  8
SUNPOU
 10
1179.10490162256
 20
4150.5221540914208
 30
0.0
 40
90.0
  1
2
 41
0.6700000000000002
  7
01
  0
TEXT
  5
164AA
  8
SUNPOU
 10
1068.470981409818
 20
4150.5221540914208
 30
0.0
 40
90.0
  1
注　）
  7
01
  0
TEXT
  5
164AB
  8
SUNPOU
 10
1068.470981409818
 20
4459.0935826628511
 30
0.0
 40
90.0
  1
注　）
  7
01
  0
TEXT
  5
164AC
  8
SUNPOU
 10
1179.10490162256
 20
4459.0935826628511
 30
0.0
 40
90.0
  1
1
 41
0.6700000000000002
  7
01
  0
TEXT
  5
164AD
  8
SUNPOU
 10
1385.310646711954
 20
4304.8078683771337
 30
0.0
 40
90.0
  1
あわせて設計して下さい。
  7
01
  0
TEXT
  5
164AE
  8
SUNPOU
 10
1385.310646711954
 20
4150.5221540914208
 30
0.0
 40
90.0
  1
その他現地の実情にあわせて設計して下さい。
  7
01
  0
TEXT
  5
164AF
  8
SUNPOU
 10
1385.310646711954
 20
4459.0935826628511
 30
0.0
 40
90.0
  1
寒冷地の場合、凍結深度等を考慮し、実情に
  7
01
  0
TEXT
  5
164B0
  8
SUNPOU
 10
879.79127290633005
 20
5027.6332993945207
 30
0.0
 40
90.0
  1
<下記条件での参考図>
  7
01
 72
     4
 11
1468.6484157634729
 21
5072.6332993945207
 31
0.0
  0
TEXT
  5
164B1
  8
SUNPOU
 10
2090.1075822949001
 20
5194.979453240675
 30
0.0
 40
73.84615384615384
  1
/
 41
0.6700000000000002
  7
00
 11
2090.1075822949001
 21
5185.1332993945207
 31
0.0
 73
     1
  0
TEXT
  5
164B2
  8
SUNPOU
 10
2154.0570252492689
 20
5176.517914779135
 30
0.0
 40
73.84615384615384
  1
25
 41
0.6700000000000002
  7
00
 11
2154.0570252492689
 21
5166.6717609329808
 31
0.0
 73
     1
  0
TEXT
  5
164B3
  8
SUNPOU
 10
2041.7014549795281
 20
5213.4409917022131
 30
0.0
 40
73.84615384615384
  1
1
 41
0.6700000000000002
  7
00
 11
2041.7014549795281
 21
5203.5948378560588
 31
0.0
 73
     1
  0
TEXT
  5
164B4
  8
SUNPOU
 10
1721.998753126443
 20
5197.4409917022131
 30
0.0
 40
92.307692307692278
  1
（ S = 　　  ）
 41
0.6700000000000002
  7
00
 11
1721.998753126443
 21
5185.1332993945207
 31
0.0
 73
     1
  0
TEXT
  5
164B5
  8
SUNPOU
 10
1005.1484157634731
 20
5185.1332993945207
 30
0.0
 40
120.0
  1
基礎断面図
  7
01
 72
     4
 11
1345.1484157634729
 21
5245.1332993945198
 31
0.0
  0
LINE
  5
16AF5
  8
SUNPOU
 10
8611.3603260254786
 20
9989.5127029417781
 30
0.0
 11
7241.3603260254777
 21
9989.5127029417781
 31
0.0
  0
LINE
  5
16AF9
  8
CENTER
  6
1PL-M
 10
7986.3603260254822
 20
9289.5127029417763
 30
0.0
 11
11621.36032602548
 21
9289.5127029417763
 31
0.0
  0
LINE
  5
16AFA
  8
CENTER
  6
1PL-M
 10
7986.3603260254822
 20
7489.5127029417781
 30
0.0
 11
9176.3603260254822
 21
7489.5127029417781
 31
0.0
  0
TEXT
  5
16AFB
  8
HIKIDASHI
 10
5402.2882474553226
 20
7147.8335481852391
 30
0.0
 40
90.0
  1
（土間コン前面位置）
  7
01
  0
LINE
  5
16B00
  8
CENTER
  6
1PL-M
 10
4231.3603260254786
 20
9289.5127029417763
 30
0.0
 11
6376.3603260254831
 21
9289.5127029417763
 31
0.0
  0
LINE
  5
16B01
  8
CENTER
  6
1PL-M
 10
4231.3603260254786
 20
7489.5127029417781
 30
0.0
 11
7866.3603260254822
 21
7489.5127029417781
 31
0.0
  0
LINE
  5
16B02
  8
SUNPOU
 10
4166.3603260254768
 20
7699.5127029417781
 30
0.0
 11
4166.3603260254768
 21
7489.5127029417781
 31
0.0
  0
LINE
  5
16B03
  8
SUNPOU
 10
4166.3603260254768
 20
7489.5127029417781
 30
0.0
 11
4316.3603260254786
 21
7489.5127029417781
 31
0.0
  0
TEXT
  5
16B04
  8
SUNPOU
 10
4140.5174688826201
 20
7834.5127029417781
 30
0.0
 40
90.0
  1
A
 41
0.6700000000000002
  7
00
 72
     4
 11
4166.3603260254768
 21
7879.5127029417781
 31
0.0
  0
LINE
  5
16B07
  8
SUNPOU
 10
7986.3603260254822
 20
9779.5127029417781
 30
0.0
 11
7986.3603260254822
 21
6969.5127029417772
 31
0.0
  0
LINE
  5
16B08
  8
CENTER
  6
1PL-M
 10
7226.3603260254777
 20
8739.5127029417781
 30
0.0
 11
7226.3603260254777
 21
9889.5127029417818
 31
0.0
  0
LINE
  5
16B09
  8
CENTER
  6
1PL-M
 10
4776.3603260254777
 20
6889.5127029417781
 30
0.0
 11
4776.3603260254777
 21
9889.5127029417818
 31
0.0
  0
LINE
  5
16B0A
  8
SUNPOU
 10
7866.3603260254822
 20
9779.5127029417781
 30
0.0
 11
7866.3603260254822
 21
6969.5127029417772
 31
0.0
  0
LINE
  5
16B0C
  8
SUNPOU
 10
5386.3603260254777
 20
7699.5127029417781
 30
0.0
 11
5386.3603260254777
 21
7489.5127029417781
 31
0.0
  0
LINE
  5
16B0D
  8
SUNPOU
 10
5386.3603260254777
 20
7489.5127029417781
 30
0.0
 11
5236.3603260254777
 21
7489.5127029417781
 31
0.0
  0
TEXT
  5
16B0E
  8
SUNPOU
 10
5350.4674688826199
 20
7825.9412743703488
 30
0.0
 40
90.0
  1
A'
 41
0.6700000000000002
  7
00
 72
     4
 11
5386.3603260254777
 21
7879.5127029417781
 31
0.0
  0
TEXT
  5
16B10
  8
HIKIDASHI
 10
5486.3968493713401
 20
6846.4015809513048
 30
0.0
 40
90.0
  1
（鼻隠し外面）
  7
01
  0
TEXT
  5
16B11
  8
HIKIDASHI
 10
5412.5480820517187
 20
9598.061975323124
 30
0.0
 40
90.0
  1
（屋根後面位置）
  7
01
  0
LINE
  5
16B12
  8
CENTER
  6
1PL-M
 10
7226.3603260254777
 20
6889.5127029417781
 30
0.0
 11
7226.3603260254777
 21
8544.5127029417781
 31
0.0
  0
LINE
  5
16B14
  8
CENTER
  6
1PL-M
 10
6575.1103260254777
 20
9289.5127029417763
 30
0.0
 11
7866.3603260254822
 21
9289.5127029417763
 31
0.0
  0
TEXT
  5
16B17
  8
HIKIDASHI
 10
5328.4394801357012
 20
9334.5127029417836
 30
0.0
 40
90.0
  1
（土間コン後面位置）
  7
01
  0
LINE
  5
16B19
  8
SUNPOU
 10
7226.3603260254777
 20
9919.5127029417799
 30
0.0
 11
7226.3603260254777
 21
10034.51270294178
 31
0.0
  0
LINE
  5
16B20
  8
CENTER
  6
1PL-M
 10
8626.3603260254786
 20
8339.5127029417781
 30
0.0
 11
8626.3603260254786
 21
9889.5127029417818
 31
0.0
  0
LINE
  5
16B21
  8
CENTER
  6
1PL-M
 10
11076.36032602548
 20
6889.5127029417781
 30
0.0
 11
11076.36032602548
 21
9889.5127029417818
 31
0.0
  0
LINE
  5
16B22
  8
CENTER
  6
1PL-M
 10
9371.3603260254786
 20
7489.5127029417781
 30
0.0
 11
11621.36032602548
 21
7489.5127029417781
 31
0.0
  0
LINE
  5
16B24
  8
CENTER
  6
1PL-M
 10
8626.3603260254786
 20
6889.5127029417781
 30
0.0
 11
8626.3603260254786
 21
8144.5127029417781
 31
0.0
  0
LINE
  5
16B28
  8
SUNPOU
 10
8626.3603260254786
 20
9919.5127029417799
 30
0.0
 11
8626.3603260254786
 21
10034.51270294178
 31
0.0
  0
TEXT
  5
16BDB
  8
SUNPOU
 10
10473.49236563967
 20
6496.4467044521962
 30
0.0
 40
90.0
  1
（  ：スパン数）
  7
01
 11
10473.49236563967
 21
6541.4467044521971
 31
0.0
 73
     2
  0
TEXT
  5
16BDC
  8
SUNPOU
 10
10603.953576691179
 20
6496.4467044521962
 30
0.0
 40
90.0
  1
N
 41
0.6666666666666666
  7
00
 72
     4
 11
10635.38214811975
 21
6541.4467044521971
 31
0.0
  0
LINE
  5
16BDD
  8
SUNPOU
 10
4986.3603260254777
 20
8739.5127029417781
 30
0.0
 11
4776.3603260254777
 21
8739.5127029417781
 31
0.0
  0
LINE
  5
16BDE
  8
SUNPOU
 10
4776.3603260254777
 20
8739.5127029417781
 30
0.0
 11
4776.3603260254777
 21
8889.5127029417763
 31
0.0
  0
TEXT
  5
16BDF
  8
SUNPOU
 10
5128.2363615745289
 20
8694.5127029417763
 30
0.0
 40
90.0
  1
B
 41
0.6700000000000002
  7
00
 72
     4
 11
5159.8220758602438
 21
8739.5127029417781
 31
0.0
  0
CIRCLE
  5
16BE2
  8
HASHIRA
 10
11076.36032602548
 20
7429.5127029417781
 30
0.0
 40
9.0
  0
CIRCLE
  5
16BE3
  8
HASHIRA
 10
11076.36032602548
 20
7549.512702941779
 30
0.0
 40
9.0
  0
CIRCLE
  5
16BE5
  8
HASHIRA
 10
11076.36032602548
 20
9229.5127029417799
 30
0.0
 40
9.0
  0
CIRCLE
  5
16BE6
  8
HASHIRA
 10
11076.36032602548
 20
9349.5127029417781
 30
0.0
 40
9.0
  0
CIRCLE
  5
16BE8
  8
HASHIRA
 10
8626.3603260254786
 20
7549.512702941779
 30
0.0
 40
9.0
  0
CIRCLE
  5
16BE9
  8
HASHIRA
 10
8626.3603260254786
 20
7429.5127029417781
 30
0.0
 40
9.0
  0
CIRCLE
  5
16BEB
  8
HASHIRA
 10
8626.3603260254786
 20
9229.5127029417799
 30
0.0
 40
9.0
  0
CIRCLE
  5
16BEC
  8
HASHIRA
 10
8626.3603260254786
 20
9349.5127029417781
 30
0.0
 40
9.0
  0
CIRCLE
  5
16BEE
  8
HASHIRA
 10
7226.3603260254777
 20
9229.5127029417799
 30
0.0
 40
9.0
  0
CIRCLE
  5
16BEF
  8
HASHIRA
 10
7226.3603260254777
 20
9349.5127029417781
 30
0.0
 40
9.0
  0
CIRCLE
  5
16BF0
  8
HASHIRA
 10
7226.3603260254777
 20
7429.5127029417781
 30
0.0
 40
9.0
  0
CIRCLE
  5
16BF1
  8
HASHIRA
 10
7226.3603260254777
 20
7549.512702941779
 30
0.0
 40
9.0
  0
CIRCLE
  5
16BF4
  8
HASHIRA
 10
4776.3603260254777
 20
9229.5127029417799
 30
0.0
 40
9.0
  0
CIRCLE
  5
16BF5
  8
HASHIRA
 10
4776.3603260254777
 20
9349.5127029417781
 30
0.0
 40
9.0
  0
CIRCLE
  5
16BF7
  8
HASHIRA
 10
4776.3603260254777
 20
7549.512702941779
 30
0.0
 40
9.0
  0
CIRCLE
  5
16BF8
  8
HASHIRA
 10
4776.3603260254777
 20
7429.5127029417781
 30
0.0
 40
9.0
  0
LINE
  5
16C29
  8
SUNPOU
 10
4986.3603260254777
 20
9839.5127029417818
 30
0.0
 11
4776.3603260254777
 21
9839.5127029417818
 31
0.0
  0
LINE
  5
16C2A
  8
SUNPOU
 10
4776.3603260254777
 20
9839.5127029417781
 30
0.0
 11
4776.3603260254777
 21
9689.5127029417781
 31
0.0
  0
TEXT
  5
16C2B
  8
SUNPOU
 10
5115.3149330031019
 20
9785.9412743703488
 30
0.0
 40
90.0
  1
B'
 41
0.6700000000000002
  7
00
 72
     4
 11
5159.8220758602438
 21
9839.5127029417781
 31
0.0
  0
LINE
  5
16C2D
  8
SUNPOU
 10
11651.36032602548
 20
7489.5127029417781
 30
0.0
 11
12131.36032602548
 21
7489.5127029417781
 31
0.0
  0
LINE
  5
16C2E
  8
SUNPOU
 10
11651.36032602548
 20
9289.5127029417763
 30
0.0
 11
12131.36032602548
 21
9289.5127029417763
 31
0.0
  0
TEXT
  5
16C2F
  8
SUNPOU
 10
12041.36032602548
 20
9403.7984172274919
 30
0.0
 40
90.0
  1
400
 50
90.0
 41
0.6666666666666666
  7
00
 72
     1
 11
11996.36032602548
 21
9489.5127029417781
 31
0.0
 73
     2
  0
TEXT
  5
16C30
  8
SUNPOU
 10
12041.36032602548
 20
8270.9412743703488
 30
0.0
 40
90.0
  1
1800
 50
90.0
 41
0.6666666666666666
  7
00
 72
     4
 11
11996.36032602548
 21
8389.5127029417763
 31
0.0
  0
TEXT
  5
16C31
  8
SUNPOU
 10
12041.36032602548
 20
7203.7984172274919
 30
0.0
 40
90.0
  1
400
 50
90.0
 41
0.6666666666666666
  7
00
 72
     4
 11
11996.36032602548
 21
7289.5127029417772
 31
0.0
  0
LINE
  5
16C32
  8
SUNPOU
 10
11506.36032602548
 20
7089.5127029417781
 30
0.0
 11
12341.36032602548
 21
7089.5127029417781
 31
0.0
  0
LINE
  5
16C33
  8
SUNPOU
 10
11506.36032602548
 20
9689.5127029417781
 30
0.0
 11
12341.36032602548
 21
9689.5127029417781
 31
0.0
  0
LINE
  5
16C36
  8
SUNPOU
 10
12086.36032602548
 20
9674.5127029417818
 30
0.0
 11
12086.36032602548
 21
9304.5127029417781
 31
0.0
  0
LINE
  5
16C37
  8
SUNPOU
 10
12296.36032602548
 20
9674.5127029417818
 30
0.0
 11
12296.36032602548
 21
7104.512702941779
 31
0.0
  0
LINE
  5
16C38
  8
SUNPOU
 10
12086.36032602548
 20
9274.5127029417799
 30
0.0
 11
12086.36032602548
 21
7504.5127029417781
 31
0.0
  0
LINE
  5
16C39
  8
SUNPOU
 10
12086.36032602548
 20
7474.512702941779
 30
0.0
 11
12086.36032602548
 21
7104.512702941779
 31
0.0
  0
LINE
  5
16C3B
  8
SUNPOU
 10
12056.36032602548
 20
7089.5127029417781
 30
0.0
 11
12041.36032602548
 21
7089.5127029417781
 31
0.0
  0
TEXT
  5
16C3F
  8
SUNPOU
 10
12251.36032602548
 20
8275.2269886560625
 30
0.0
 40
90.0
  1
2600
 50
90.0
 41
0.6666666666666666
  7
00
 72
     4
 11
12206.36032602548
 21
8389.5127029417763
 31
0.0
  0
LINE
  5
16C43
  8
SUNPOU
 10
12056.36032602548
 20
9689.5127029417781
 30
0.0
 11
12041.36032602548
 21
9689.5127029417781
 31
0.0
  0
TEXT
  5
16D8F
  8
HIKIDASHI
 10
8514.6590975688669
 20
6573.3291447727479
 30
0.0
 40
80.0
  1
)
 41
0.6700000000000002
  7
00
  0
TEXT
  5
16D90
  8
HIKIDASHI
 10
8313.8003488794875
 20
6588.8906225209457
 30
0.0
 40
80.0
  1
1
 41
0.6700000000000002
  7
00
  0
TEXT
  5
16D91
  8
HIKIDASHI
 10
8346.9374867437946
 20
6573.3291447727479
 30
0.0
 40
80.0
  1
/
 41
0.6700000000000002
  7
00
  0
TEXT
  5
16D92
  8
HIKIDASHI
 10
8393.2326415064381
 20
6547.161313572471
 30
0.0
 40
80.0
  1
40
 41
0.6700000000000002
  7
00
  0
TEXT
  5
16D93
  8
HIKIDASHI
 10
8133.0924329418131
 20
6573.3291447727479
 30
0.0
 40
80.0
  1
(S=
 41
0.6700000000000002
  7
00
  0
TEXT
  5
16D94
  8
HIKIDASHI
 10
7291.0924329418112
 20
6549.5127029417799
 30
0.0
 40
120.0
  1
基 礎 伏 図
  7
01
 72
     2
 11
8043.0924329418112
 21
6549.5127029417799
 31
0.0
  0
LINE
  5
16D9E
  8
1PL-M1
 10
4799.7970512674628
 20
2428.1721258787861
 30
0.0
 11
4799.7970512674628
 21
4175.4854115561911
 31
0.0
  0
LINE
  5
16D9F
  8
KISO
 10
6082.1937740067751
 20
3456.6848394196049
 30
0.0
 11
4851.7970512674574
 21
3456.6848394196049
 31
0.0
  0
LINE
  5
16DA0
  8
KISO
 10
6082.1937740067751
 20
3319.0848394196032
 30
0.0
 11
4159.7970512674628
 21
3319.0848394196009
 31
0.0
  0
LINE
  5
16DA1
  8
HATCH
 10
5031.1555114588864
 20
3456.6848394196049
 30
0.0
 11
4893.5555114588924
 21
3319.0848394196009
 31
0.0
  0
LINE
  5
16DA2
  8
U3
 10
3353.9616580229649
 20
3376.6848394196031
 30
0.0
 11
3521.9616580229649
 21
3208.6848394196072
 31
0.0
  0
LINE
  5
16DA3
  8
U3
 10
3303.0499697775322
 20
3325.7731511741731
 30
0.0
 11
3420.1382815320999
 21
3208.684839419604
 31
0.0
  0
LINE
  5
16DA4
  8
U3
 10
3589.8200955333232
 20
3376.684839419604
 30
0.0
 11
3017.9616580229649
 21
3376.684839419604
 31
0.0
  0
LINE
  5
16DA5
  8
U3
 10
3084.1382815321008
 20
3310.5082159104659
 30
0.0
 11
3150.3149050412339
 21
3376.6848394196008
 31
0.0
  0
LINE
  5
16DA6
  8
U3
 10
3017.9616580229649
 20
3376.6848394196008
 30
0.0
 11
3185.9616580229649
 21
3208.6848394196059
 31
0.0
  0
LINE
  5
16DA7
  8
U3
 10
3135.0499697775322
 20
3259.5965276650359
 30
0.0
 11
3252.1382815321008
 21
3376.6848394196008
 31
0.0
  0
LINE
  5
16DA8
  8
U3
 10
3185.9616580229649
 20
3208.6848394196059
 30
0.0
 11
3353.9616580229649
 21
3376.6848394196031
 31
0.0
  0
LINE
  5
16DA9
  8
U3
 10
3252.1382815321008
 20
3274.8614629287399
 30
0.0
 11
3318.3149050412371
 21
3208.684839419604
 31
0.0
  0
LINE
  5
16DAA
  8
U3
 10
3521.9616580229649
 20
3208.6848394196072
 30
0.0
 11
3589.8200955333232
 21
3276.5432769299632
 31
0.0
  0
LINE
  5
16DAB
  8
U3
 10
3420.1382815320999
 20
3310.5082159104691
 30
0.0
 11
3486.3149050412339
 21
3376.6848394196031
 31
0.0
  0
LINE
  5
16DAC
  8
U3
 10
3471.049969777534
 20
3259.5965276650381
 30
0.0
 11
3588.1382815321031
 21
3376.6848394196031
 31
0.0
  0
LINE
  5
16DAD
  8
HASHIRA
 10
4851.7970512674574
 20
3328.6848394196072
 30
0.0
 11
4851.7970512674574
 21
3718.9180446203509
 31
0.0
  0
LINE
  5
16DAE
  8
HASHIRA
 10
4747.7970512674574
 20
3718.9180446203509
 30
0.0
 11
4747.7970512674574
 21
3328.6848394196072
 31
0.0
  0
LINE
  5
16DB0
  8
U3
 10
4159.7970512674628
 20
3376.684839419604
 30
0.0
 11
3909.8200955333209
 21
3376.6848394196031
 31
0.0
  0
LINE
  5
16DB1
  8
U3
 10
4098.7828734095892
 20
3310.5082159104691
 30
0.0
 11
4159.7970512674628
 21
3371.5223937683431
 31
0.0
  0
LINE
  5
16DB2
  8
U3
 10
4032.6062499004561
 20
3376.6848394196031
 30
0.0
 11
4159.7970512674628
 21
3249.4940380525918
 31
0.0
  0
LINE
  5
16DB3
  8
U3
 10
3975.7653428998478
 20
3331.7023699293468
 30
0.0
 11
4098.7828734095947
 21
3208.684839419604
 31
0.0
  0
LINE
  5
16DB5
  8
KISO
 10
4747.7970512674574
 20
3456.6848394196049
 30
0.0
 11
4159.7970512674628
 21
3456.6848394196049
 31
0.0
  0
LINE
  5
16DB8
  8
HATCH
 10
4821.714626963203
 20
3319.0848394196009
 30
0.0
 11
4810.1970512674652
 21
3307.5672637238649
 31
0.0
  0
LINE
  5
16DB9
  8
KISO
 10
5439.797051267471
 20
3191.0848394196
 30
0.0
 11
6082.1937740067751
 21
3191.0848394196018
 31
0.0
  0
LINE
  5
16DBA
  8
HATCH
 10
6038.6730871546233
 20
3456.6848394196031
 30
0.0
 11
5901.073087154633
 21
3319.0848394196018
 31
0.0
  0
LINE
  5
16DBB
  8
HATCH
 10
6086.190662850363
 20
3456.6848394196031
 30
0.0
 11
5948.5906628503644
 21
3319.0848394196018
 31
0.0
  0
LINE
  5
16DBD
  8
HATCH
 10
5511.1555114588873
 20
3456.6848394196049
 30
0.0
 11
5373.5555114588878
 21
3319.0848394196018
 31
0.0
  0
LINE
  5
16DBE
  8
HATCH
 10
5558.6730871546206
 20
3456.6848394196031
 30
0.0
 11
5421.0730871546293
 21
3319.0848394196018
 31
0.0
  0
LINE
  5
16DBF
  8
HATCH
 10
5126.1906628503621
 20
3456.6848394196031
 30
0.0
 11
4988.5906628503617
 21
3319.0848394196018
 31
0.0
  0
LINE
  5
16DC0
  8
HATCH
 10
5078.6730871546233
 20
3456.6848394196031
 30
0.0
 11
4941.0730871546311
 21
3319.0848394196009
 31
0.0
  0
LINE
  5
16DC2
  8
HATCH
 10
5606.1906628503621
 20
3456.6848394196031
 30
0.0
 11
5468.5906628503626
 21
3319.0848394196018
 31
0.0
  0
LINE
  5
16DC4
  8
HATCH
 10
5991.1555114588846
 20
3456.6848394196049
 30
0.0
 11
5853.5555114588878
 21
3319.0848394196018
 31
0.0
  0
LINE
  5
16DC7
  8
KISO
 10
5439.7970512674638
 20
3319.0848394196009
 30
0.0
 11
5439.7970512674638
 21
2711.0848394196018
 31
0.0
  0
LINE
  5
16DCC
  8
HATCH
 10
5439.7970512674638
 20
3073.1672637238621
 30
0.0
 11
5077.7146269632058
 21
2711.0848394196018
 31
0.0
  0
LINE
  5
16DCD
  8
HATCH
 10
5301.2322026589381
 20
3319.0848394196018
 30
0.0
 11
4693.2322026589472
 21
2711.0848394196018
 31
0.0
  0
LINE
  5
16DCE
  8
HATCH
 10
5253.7146269632067
 20
3319.0848394196018
 30
0.0
 11
4810.1970512674652
 21
2875.5672637238572
 31
0.0
  0
LINE
  5
16DCF
  8
HATCH
 10
5206.1970512674661
 20
3319.0848394196018
 30
0.0
 11
4810.1970512674652
 21
2923.0848394195941
 31
0.0
  0
LINE
  5
16DD0
  8
HATCH
 10
5439.7970512674638
 20
3025.6496880281252
 30
0.0
 11
5125.2322026589472
 21
2711.0848394196018
 31
0.0
  0
LINE
  5
16DD1
  8
HATCH
 10
5439.7970512674638
 20
2978.132112332391
 30
0.0
 11
5172.7497783546778
 21
2711.0848394196018
 31
0.0
  0
LINE
  5
16DD2
  8
HATCH
 10
4774.1970512674761
 20
3319.0848394196009
 30
0.0
 11
4166.1970512674734
 21
2711.0848394196018
 31
0.0
  0
LINE
  5
16DD3
  8
HATCH
 10
4726.6794755717319
 20
3319.0848394196018
 30
0.0
 11
4159.7970512674628
 21
2752.202415115331
 31
0.0
  0
LINE
  5
16DD4
  8
HATCH
 10
4789.3970512674632
 20
3286.7672637238629
 30
0.0
 11
4213.7146269632067
 21
2711.0848394196018
 31
0.0
  0
LINE
  5
16DD5
  8
HATCH
 10
4342.1970512674689
 20
3319.0848394196018
 30
0.0
 11
4159.7970512674628
 21
3136.6848394195958
 31
0.0
  0
LINE
  5
16DD6
  8
HATCH
 10
4247.1618998760014
 20
3319.0848394196018
 30
0.0
 11
4159.7970512674628
 21
3231.7199908110679
 31
0.0
  0
LINE
  5
16DD7
  8
HATCH
 10
4294.6794755717392
 20
3319.0848394196018
 30
0.0
 11
4159.7970512674628
 21
3184.2024151153282
 31
0.0
  0
LINE
  5
16DDF
  8
HATCH
 10
4789.3970512674632
 20
2902.2848394195939
 30
0.0
 11
4766.1970512674798
 21
2879.0848394196069
 31
0.0
  0
LINE
  5
16DE0
  8
HATCH
 10
4745.3970512674787
 20
2858.2848394196071
 30
0.0
 11
4598.1970512674734
 21
2711.0848394196018
 31
0.0
  0
LINE
  5
16DE1
  8
HATCH
 10
5439.7970512674638
 20
3285.2360020753172
 30
0.0
 11
5459.3396866199419
 21
3319.0848394196018
 31
0.0
  0
LINE
  5
16DE2
  8
U3
 10
3924.8536546544151
 20
3280.7906816839181
 30
0.0
 11
3996.9594969187328
 21
3208.6848394196031
 31
0.0
  0
LINE
  5
16DE3
  8
U3
 10
3909.8200955333209
 20
3265.757122562823
 30
0.0
 11
4020.747812390101
 21
3376.6848394196008
 31
0.0
  0
LINE
  5
16DE4
  8
HATCH
 10
4792.9146269632201
 20
2858.2848394196071
 30
0.0
 11
4645.714626963214
 21
2711.0848394196018
 31
0.0
  0
LINE
  5
16DE5
  8
HATCH
 10
4646.1906628503612
 20
3456.6848394196031
 30
0.0
 11
4508.5906628503617
 21
3319.0848394196009
 31
0.0
  0
LINE
  5
16DE6
  8
HATCH
 10
4598.6730871546206
 20
3456.6848394196031
 30
0.0
 11
4461.0730871546302
 21
3319.0848394196009
 31
0.0
  0
LINE
  5
16DE7
  8
HATCH
 10
4551.1555114588864
 20
3456.6848394196049
 30
0.0
 11
4413.5555114588897
 21
3319.0848394196018
 31
0.0
  0
LINE
  5
16DE8
  8
SUNPOU
 10
4799.7970512674628
 20
4130.485411556192
 30
0.0
 11
6225.0275585177151
 21
4130.485411556192
 31
0.0
  0
TEXT
  5
16E08
  8
SUNPOU
 10
5585.6247504079283
 20
4175.4854115561911
 30
0.0
 40
90.0
  1
2450
 41
0.6666666666666666
  7
00
 72
     4
 11
5699.910464693643
 21
4220.4854115561911
 31
0.0
  0
LINE
  5
16E0E
  8
HATCH
 10
4827.7268464936387
 20
2551.0848394196018
 30
0.0
 11
4920.1028891603037
 21
2711.0848394196018
 31
0.0
  0
LINE
  5
16E0F
  8
HATCH
 10
4866.7695558269688
 20
2711.0848394196018
 30
0.0
 11
4893.4362224936367
 21
2664.8968167529379
 31
0.0
  0
LINE
  5
16E10
  8
HATCH
 10
4854.3935131603048
 20
2597.272860752932
 30
0.0
 11
4881.0601798269699
 21
2551.0848394196018
 31
0.0
  0
LINE
  5
16E11
  8
HATCH
 10
4654.3935131603048
 20
2597.272860752932
 30
0.0
 11
4681.0601798269699
 21
2551.0848394196018
 31
0.0
  0
LINE
  5
16E12
  8
HATCH
 10
4666.7695558269688
 20
2711.0848394196018
 30
0.0
 11
4693.4362224936367
 21
2664.8968167529379
 31
0.0
  0
LINE
  5
16E13
  8
HATCH
 10
4454.3935131603039
 20
2597.272860752932
 30
0.0
 11
4481.0601798269709
 21
2551.0848394196018
 31
0.0
  0
LINE
  5
16E14
  8
HATCH
 10
4427.726846493636
 20
2551.0848394196018
 30
0.0
 11
4520.1028891603028
 21
2711.0848394196018
 31
0.0
  0
LINE
  5
16E15
  8
HATCH
 10
4466.7695558269697
 20
2711.0848394196018
 30
0.0
 11
4493.4362224936349
 21
2664.8968167529379
 31
0.0
  0
LINE
  5
16E17
  8
HATCH
 10
4254.3935131603039
 20
2597.272860752932
 30
0.0
 11
4281.0601798269718
 21
2551.0848394196018
 31
0.0
  0
LINE
  5
16E18
  8
HATCH
 10
4266.7695558269706
 20
2711.0848394196018
 30
0.0
 11
4293.436222493634
 21
2664.8968167529379
 31
0.0
  0
LINE
  5
16E19
  8
HATCH
 10
4227.7268464936369
 20
2551.0848394196018
 30
0.0
 11
4320.1028891603028
 21
2711.0848394196018
 31
0.0
  0
LINE
  5
16E1A
  8
HATCH
 10
4627.726846493636
 20
2551.0848394196018
 30
0.0
 11
4720.1028891603028
 21
2711.0848394196018
 31
0.0
  0
LINE
  5
16E1D
  8
HATCH
 10
5066.7695558269697
 20
2711.0848394196018
 30
0.0
 11
5093.4362224936358
 21
2664.8968167529379
 31
0.0
  0
LINE
  5
16E1E
  8
HATCH
 10
5027.7268464936387
 20
2551.0848394196018
 30
0.0
 11
5120.1028891603028
 21
2711.0848394196018
 31
0.0
  0
LINE
  5
16E1F
  8
HATCH
 10
5054.3935131603048
 20
2597.272860752932
 30
0.0
 11
5081.0601798269709
 21
2551.0848394196018
 31
0.0
  0
LINE
  5
16E20
  8
HATCH
 10
5227.7268464936387
 20
2551.0848394196018
 30
0.0
 11
5320.1028891603028
 21
2711.0848394196018
 31
0.0
  0
LINE
  5
16E21
  8
HATCH
 10
5266.7695558269706
 20
2711.0848394196018
 30
0.0
 11
5293.4362224936349
 21
2664.8968167529379
 31
0.0
  0
LINE
  5
16E22
  8
HATCH
 10
5254.3935131603048
 20
2597.272860752932
 30
0.0
 11
5281.0601798269718
 21
2551.0848394196018
 31
0.0
  0
LINE
  5
16E23
  8
HATCH
 10
4066.7695558269702
 20
2711.0848394196018
 30
0.0
 11
4093.4362224936349
 21
2664.8968167529379
 31
0.0
  0
LINE
  5
16E24
  8
HATCH
 10
4027.7268464936378
 20
2551.0848394196018
 30
0.0
 11
4120.1028891603009
 21
2711.0848394196018
 31
0.0
  0
LINE
  5
16E25
  8
HATCH
 10
4054.3935131603048
 20
2597.272860752932
 30
0.0
 11
4081.0601798269709
 21
2551.0848394196018
 31
0.0
  0
TEXT
  5
16EB9
  8
SUNPOU
 10
3070.061516132469
 20
3511.6848394196049
 30
0.0
 40
90.0
  1
G.L
 41
0.6700000000000002
  7
01
 72
     4
 11
3141.8472304181828
 21
3556.6848394196049
 31
0.0
  0
LINE
  5
16EBA
  8
SUNPOU
 10
3193.8087546452498
 20
3466.6848394196049
 30
0.0
 11
3089.8857061911172
 21
3466.6848394196049
 31
0.0
  0
LINE
  5
16EBB
  8
SUNPOU
 10
3089.8857061911172
 20
3466.6848394196049
 30
0.0
 11
3141.8472304181828
 21
3376.684839419604
 31
0.0
  0
LINE
  5
16EBC
  8
SUNPOU
 10
3141.8472304181828
 20
3376.684839419604
 30
0.0
 11
3193.8087546452498
 21
3466.6848394196049
 31
0.0
  0
TEXT
  5
16EBD
  8
HIKIDASHI
 10
4876.000654146238
 20
1664.635820576935
 30
0.0
 40
90.0
  1
断 面
  7
01
  0
LINE
  5
16EBE
  8
HIKIDASHI
 10
4451.983374649677
 20
1619.6358205769361
 30
0.0
 11
5147.6107278852469
 21
1619.6358205769361
 31
0.0
  0
LINE
  5
16EBF
  8
HIKIDASHI
 10
4451.983374649677
 20
1589.635820576935
 30
0.0
 11
5147.6107278852469
 21
1589.635820576935
 31
0.0
  0
TEXT
  5
16EC0
  8
HIKIDASHI
 10
4481.983374649677
 20
1664.635820576935
 30
0.0
 40
90.0
  1
A  ~  A'
 41
0.6700000000000002
  7
00
  0
TEXT
  5
16F23
  8
HIKIDASHI
 10
5718.7055316926253
 20
2949.1147070208799
 30
0.0
 40
90.0
  1
敷砂利又は砕石
  7
01
 72
     2
 11
6450.7055316926262
 21
2994.1147070208799
 31
0.0
 73
     2
  0
LINE
  5
16F24
  8
HIKIDASHI
 10
6475.9358323383049
 20
2904.1147070208799
 30
0.0
 11
5674.8716626111582
 21
2904.1147070208799
 31
0.0
  0
TEXT
  5
16F26
  8
HIKIDASHI
 10
5843.4057043945704
 20
2313.304238552882
 30
0.0
 40
90.0
  1
砕　石
  7
01
 72
     2
 11
6143.4057043945704
 21
2358.304238552882
 31
0.0
 73
     2
  0
LINE
  5
16F27
  8
HIKIDASHI
 10
6185.1044736302847
 20
2268.304238552882
 30
0.0
 11
5816.3380968026604
 21
2268.304238552882
 31
0.0
  0
CIRCLE
  5
17113
  8
BOLT
 10
8580.1232517911103
 20
3424.6848394196072
 30
0.0
 40
13.199999999999999
  0
CIRCLE
  5
17114
  8
BOLT
 10
8580.1232517911103
 20
3424.6848394196072
 30
0.0
 40
16.800000000000001
  0
CIRCLE
  5
17115
  8
BOLT
 10
8580.1232517911103
 20
3360.6848394196072
 30
0.0
 40
16.800000000000001
  0
CIRCLE
  5
17116
  8
BOLT
 10
8580.1232517911103
 20
3360.6848394196072
 30
0.0
 40
13.199999999999999
  0
LINE
  5
17118
  8
KISO
 10
9862.5199745304217
 20
3456.6848394196049
 30
0.0
 11
8632.1232517911103
 21
3456.6848394196049
 31
0.0
  0
LINE
  5
17119
  8
KISO
 10
9862.5199745304217
 20
3319.0848394196018
 30
0.0
 11
7940.1232517911103
 21
3319.0848394196018
 31
0.0
  0
LINE
  5
1711A
  8
KISO
 10
9220.1232517911121
 20
3191.0848394196009
 30
0.0
 11
9862.5199745304217
 21
3191.0848394196018
 31
0.0
  0
LINE
  5
17124
  8
KISO
 10
8528.1232517911103
 20
3456.6848394196049
 30
0.0
 11
8260.1232517911103
 21
3456.6848394196049
 31
0.0
  0
LINE
  5
17131
  8
KISO
 10
8260.1232517911103
 20
3456.6848394196072
 30
0.0
 11
8260.1232517911103
 21
3319.0848394196009
 31
0.0
  0
LINE
  5
17135
  8
KISO
 10
7940.1232517911112
 20
3319.0848394196018
 30
0.0
 11
7940.1232517911112
 21
3191.0848394196018
 31
0.0
  0
LINE
  5
17136
  8
HASHIRA
 10
8632.1232517911103
 20
3328.6848394196072
 30
0.0
 11
8632.123251791103
 21
3583.4854115561911
 31
0.0
  0
LINE
  5
17137
  8
HASHIRA
 10
8528.1232517911103
 20
3583.4854115561911
 30
0.0
 11
8528.1232517911103
 21
3328.6848394196072
 31
0.0
  0
LINE
  5
1713A
  8
HATCH
 10
8331.4817119825366
 20
3456.6848394196049
 30
0.0
 11
8260.1232517911103
 21
3385.3263792281768
 31
0.0
  0
LINE
  5
1713B
  8
HATCH
 10
8426.5168633740086
 20
3456.6848394196049
 30
0.0
 11
8288.9168633740028
 21
3319.0848394196009
 31
0.0
  0
LINE
  5
1713C
  8
HATCH
 10
8378.9992876782762
 20
3456.6848394196049
 30
0.0
 11
8260.1232517911103
 21
3337.808803532439
 31
0.0
  0
LINE
  5
1713D
  8
1PL-S1
 10
8484.1232517911103
 20
3309.4848394196069
 30
0.0
 11
8484.1232517911103
 21
3338.284839419608
 31
0.0
  0
LINE
  5
1713F
  8
HATCH
 10
8811.4817119825348
 20
3456.6848394196049
 30
0.0
 11
8683.4817119825384
 21
3328.6848394196072
 31
0.0
  0
LINE
  5
17140
  8
HATCH
 10
8858.9992876782762
 20
3456.6848394196049
 30
0.0
 11
8721.3992876782722
 21
3319.0848394196018
 31
0.0
  0
LINE
  5
17141
  8
1PL-S1
 10
8676.1232517911103
 20
3309.4848394196069
 30
0.0
 11
8676.1232517911103
 21
3338.2848394196062
 31
0.0
  0
LINE
  5
17142
  8
HATCH
 10
8906.5168633740068
 20
3456.6848394196049
 30
0.0
 11
8768.9168633740064
 21
3319.0848394196018
 31
0.0
  0
LINE
  5
17143
  8
HATCH
 10
9291.4817119825348
 20
3456.6848394196049
 30
0.0
 11
9153.881711982538
 21
3319.0848394196018
 31
0.0
  0
LINE
  5
17144
  8
HATCH
 10
9338.9992876782762
 20
3456.6848394196049
 30
0.0
 11
9201.3992876782759
 21
3319.0848394196018
 31
0.0
  0
LINE
  5
17145
  8
HATCH
 10
9386.5168633740068
 20
3456.6848394196049
 30
0.0
 11
9248.9168633740046
 21
3319.0848394196018
 31
0.0
  0
LINE
  5
17149
  8
HATCH
 10
9866.5168633740068
 20
3456.6848394196049
 30
0.0
 11
9728.9168633740046
 21
3319.0848394196018
 31
0.0
  0
LINE
  5
1714A
  8
HATCH
 10
9818.9992876782762
 20
3456.6848394196049
 30
0.0
 11
9681.3992876782759
 21
3319.0848394196018
 31
0.0
  0
LINE
  5
1714B
  8
HATCH
 10
9771.4817119825384
 20
3456.6848394196049
 30
0.0
 11
9633.8817119825362
 21
3319.0848394196018
 31
0.0
  0
LINE
  5
1714E
  8
HATCH
 10
9220.1232517911121
 20
3285.2360020747892
 30
0.0
 11
9239.665887143592
 21
3319.0848394190762
 31
0.0
  0
LINE
  5
17150
  8
HATCH
 10
9220.1232517911121
 20
3073.1672637238671
 30
0.0
 11
8858.0408274868587
 21
2711.0848394196059
 31
0.0
  0
LINE
  5
17158
  8
HATCH
 10
9220.1232517911121
 20
3025.6496880281302
 30
0.0
 11
8905.5584031825856
 21
2711.0848394196059
 31
0.0
  0
LINE
  5
17159
  8
HATCH
 10
9220.1232517911121
 20
2978.1321123323951
 30
0.0
 11
8953.0759788783271
 21
2711.0848394196059
 31
0.0
  0
LINE
  5
1715D
  8
HATCH
 10
9034.0408274868478
 20
3319.0848394196018
 30
0.0
 11
8686.5232517911136
 21
2971.5672637238608
 31
0.0
  0
LINE
  5
1715E
  8
HATCH
 10
9081.5584031825765
 20
3319.0848394196018
 30
0.0
 11
8686.5232517911136
 21
2924.0496880281298
 31
0.0
  0
LINE
  5
1715F
  8
HATCH
 10
8986.5232517911099
 20
3319.0848394196018
 30
0.0
 11
8686.5232517911136
 21
3019.0848394195991
 31
0.0
  0
LINE
  5
17160
  8
KISO
 10
9220.1232517911121
 20
3319.084839419605
 30
0.0
 11
9220.1232517911121
 21
2711.0848394196069
 31
0.0
  0
LINE
  5
17161
  8
HATCH
 10
8507.0056760953757
 20
3319.0848394196009
 30
0.0
 11
8494.5232517911136
 21
3306.602415115337
 31
0.0
  0
LINE
  5
17162
  8
HATCH
 10
8569.7232517911125
 20
3286.767263723867
 30
0.0
 11
8494.5232517911136
 21
3211.5672637238649
 31
0.0
  0
LINE
  5
17163
  8
HATCH
 10
8554.5232517911136
 20
3319.0848394196018
 30
0.0
 11
8494.5232517911136
 21
3259.0848394195982
 31
0.0
  0
LINE
  5
17164
  8
KISO
 10
7940.1232517911112
 20
3319.084839419605
 30
0.0
 11
7940.1232517911112
 21
2711.0848394196069
 31
0.0
  0
LINE
  5
17165
  8
HATCH
 10
8122.5232517911109
 20
3319.0848394196018
 30
0.0
 11
7940.1232517911112
 21
3136.6848394196008
 31
0.0
  0
LINE
  5
17166
  8
HATCH
 10
8075.005676095383
 20
3319.0848394196018
 30
0.0
 11
7940.1232517911112
 21
3184.2024151153332
 31
0.0
  0
LINE
  5
17167
  8
HATCH
 10
8665.7232517911089
 20
2998.284839419598
 30
0.0
 11
8378.5232517911245
 21
2711.0848394196059
 31
0.0
  0
LINE
  5
17168
  8
HATCH
 10
8665.7232517911089
 20
2950.7672637238602
 30
0.0
 11
8426.0408274868623
 21
2711.0848394196059
 31
0.0
  0
LINE
  5
17169
  8
HATCH
 10
8665.7232517911089
 20
2903.2496880281278
 30
0.0
 11
8473.5584031825911
 21
2711.0848394196059
 31
0.0
  0
LINE
  5
1716A
  8
HATCH
 10
8473.7232517911125
 20
3285.8024151153372
 30
0.0
 11
7940.1232517911112
 21
2752.202415115336
 31
0.0
  0
LINE
  5
1716B
  8
HATCH
 10
8473.7232517911125
 20
3238.2848394195971
 30
0.0
 11
7946.5232517911263
 21
2711.0848394196069
 31
0.0
  0
LINE
  5
1716C
  8
HATCH
 10
8473.7232517911125
 20
3190.7672637238652
 30
0.0
 11
7994.0408274868532
 21
2711.0848394196069
 31
0.0
  0
LINE
  5
1716D
  8
HATCH
 10
8027.4881003996443
 20
3319.0848394196018
 30
0.0
 11
7940.1232517911112
 21
3231.7199908110738
 31
0.0
  0
LINE
  5
1716F
  8
U3
 10
8015.1090739332349
 20
3328.6848394196022
 30
0.0
 11
8063.1090739332312
 21
3376.684839419604
 31
0.0
  0
LINE
  5
17170
  8
U3
 10
8116.9324504240922
 20
3328.6848394196022
 30
0.0
 11
8164.9324504241013
 21
3376.6848394196049
 31
0.0
  0
LINE
  5
17171
  8
U3
 10
8164.9324504240958
 20
3376.684839419604
 30
0.0
 11
8212.9324504240994
 21
3328.6848394196022
 31
0.0
  0
LINE
  5
17266
  8
1PL-M1
 10
8580.1232517911103
 20
2428.1721258787911
 30
0.0
 11
8580.1232517911103
 21
4175.4854115561939
 31
0.0
  0
LINE
  5
17268
  8
HATCH
 10
8608.0530470172871
 20
2551.0848394196069
 30
0.0
 11
8700.4290896839502
 21
2711.0848394196069
 31
0.0
  0
LINE
  5
17269
  8
HATCH
 10
8647.0957563506163
 20
2711.0848394196069
 30
0.0
 11
8673.7624230172823
 21
2664.8968167529429
 31
0.0
  0
LINE
  5
1726A
  8
HATCH
 10
8634.7197136839513
 20
2597.272860752938
 30
0.0
 11
8661.3863803506174
 21
2551.0848394196069
 31
0.0
  0
LINE
  5
1726B
  8
HATCH
 10
8434.7197136839513
 20
2597.272860752938
 30
0.0
 11
8461.3863803506156
 21
2551.0848394196069
 31
0.0
  0
LINE
  5
1726C
  8
HATCH
 10
8447.0957563506163
 20
2711.0848394196069
 30
0.0
 11
8473.7624230172823
 21
2664.8968167529429
 31
0.0
  0
LINE
  5
1726D
  8
HATCH
 10
8234.7197136839513
 20
2597.272860752938
 30
0.0
 11
8261.3863803506174
 21
2551.0848394196069
 31
0.0
  0
LINE
  5
1726E
  8
HATCH
 10
8208.0530470172853
 20
2551.0848394196069
 30
0.0
 11
8300.4290896839502
 21
2711.0848394196069
 31
0.0
  0
LINE
  5
1726F
  8
HATCH
 10
8247.0957563506145
 20
2711.0848394196069
 30
0.0
 11
8273.7624230172823
 21
2664.8968167529429
 31
0.0
  0
LINE
  5
17271
  8
HATCH
 10
8034.7197136839513
 20
2597.272860752938
 30
0.0
 11
8061.3863803506174
 21
2551.0848394196069
 31
0.0
  0
LINE
  5
17272
  8
HATCH
 10
8047.0957563506163
 20
2711.0848394196069
 30
0.0
 11
8073.7624230172833
 21
2664.8968167529429
 31
0.0
  0
LINE
  5
17273
  8
HATCH
 10
8008.0530470172844
 20
2551.0848394196069
 30
0.0
 11
8100.4290896839493
 21
2711.0848394196069
 31
0.0
  0
LINE
  5
17274
  8
HATCH
 10
8408.0530470172871
 20
2551.0848394196069
 30
0.0
 11
8500.4290896839539
 21
2711.0848394196069
 31
0.0
  0
LINE
  5
17277
  8
HATCH
 10
8847.0957563506163
 20
2711.0848394196069
 30
0.0
 11
8873.7624230172823
 21
2664.8968167529429
 31
0.0
  0
LINE
  5
17278
  8
HATCH
 10
8808.0530470172871
 20
2551.0848394196069
 30
0.0
 11
8900.4290896839502
 21
2711.0848394196069
 31
0.0
  0
LINE
  5
17279
  8
HATCH
 10
8834.7197136839495
 20
2597.272860752938
 30
0.0
 11
8861.3863803506174
 21
2551.0848394196069
 31
0.0
  0
LINE
  5
1727A
  8
HATCH
 10
9008.0530470172871
 20
2551.0848394196069
 30
0.0
 11
9100.429089683952
 21
2711.0848394196069
 31
0.0
  0
LINE
  5
1727B
  8
HATCH
 10
9047.0957563506163
 20
2711.0848394196069
 30
0.0
 11
9073.7624230172823
 21
2664.8968167529429
 31
0.0
  0
LINE
  5
1727C
  8
HATCH
 10
9034.7197136839513
 20
2597.272860752938
 30
0.0
 11
9061.3863803506174
 21
2551.0848394196069
 31
0.0
  0
LINE
  5
1727D
  8
HATCH
 10
7847.0957563506163
 20
2711.0848394196069
 30
0.0
 11
7873.7624230172814
 21
2664.8968167529429
 31
0.0
  0
LINE
  5
1727E
  8
HATCH
 10
7808.0530470172862
 20
2551.0848394196069
 30
0.0
 11
7900.4290896839493
 21
2711.0848394196069
 31
0.0
  0
LINE
  5
1727F
  8
HATCH
 10
7834.7197136839513
 20
2597.272860752938
 30
0.0
 11
7861.3863803506183
 21
2551.0848394196069
 31
0.0
  0
LINE
  5
1728E
  8
SUNPOU
 10
8580.1232517911103
 20
4130.4854115561957
 30
0.0
 11
10005.35375904136
 21
4130.4854115561957
 31
0.0
  0
TEXT
  5
17290
  8
SUNPOU
 10
9361.6652366458584
 20
4175.4854115561966
 30
0.0
 40
90.0
  1
1800
 41
0.6666666666666666
  7
00
 72
     4
 11
9480.2366652172877
 21
4220.4854115561957
 31
0.0
  0
TEXT
  5
1729A
  8
SUNPOU
 10
6850.3877166561142
 20
3511.684839419609
 30
0.0
 40
90.0
  1
G.L
 41
0.6700000000000002
  7
01
 72
     4
 11
6922.1734309418289
 21
3556.684839419609
 31
0.0
  0
LINE
  5
1729B
  8
SUNPOU
 10
6974.1349551688972
 20
3466.684839419609
 30
0.0
 11
6870.2119067147642
 21
3466.684839419609
 31
0.0
  0
LINE
  5
1729C
  8
SUNPOU
 10
6870.2119067147642
 20
3466.684839419609
 30
0.0
 11
6922.1734309418289
 21
3376.684839419609
 31
0.0
  0
LINE
  5
1729D
  8
SUNPOU
 10
6922.1734309418289
 20
3376.684839419609
 30
0.0
 11
6974.1349551688972
 21
3466.684839419609
 31
0.0
  0
LINE
  5
1737E
  8
U3
 10
7134.2878585466106
 20
3376.6848394196031
 30
0.0
 11
7302.2878585466133
 21
3208.6848394196072
 31
0.0
  0
LINE
  5
1737F
  8
U3
 10
7083.3761703011769
 20
3325.7731511741731
 30
0.0
 11
7200.464482055746
 21
3208.684839419604
 31
0.0
  0
LINE
  5
17380
  8
U3
 10
7370.1462960569688
 20
3376.684839419604
 30
0.0
 11
6798.2878585466106
 21
3376.684839419604
 31
0.0
  0
LINE
  5
17381
  8
U3
 10
6864.464482055746
 20
3310.5082159104659
 30
0.0
 11
6930.6411055648796
 21
3376.6848394196008
 31
0.0
  0
LINE
  5
17382
  8
U3
 10
6798.2878585466106
 20
3376.6848394196008
 30
0.0
 11
6966.2878585466106
 21
3208.6848394196059
 31
0.0
  0
LINE
  5
17383
  8
U3
 10
6915.3761703011787
 20
3259.5965276650359
 30
0.0
 11
7032.4644820557469
 21
3376.6848394196008
 31
0.0
  0
LINE
  5
17384
  8
U3
 10
6966.2878585466106
 20
3208.6848394196059
 30
0.0
 11
7134.2878585466106
 21
3376.6848394196031
 31
0.0
  0
LINE
  5
17385
  8
U3
 10
7032.4644820557469
 20
3274.8614629287399
 30
0.0
 11
7098.6411055648841
 21
3208.684839419604
 31
0.0
  0
LINE
  5
17386
  8
U3
 10
7302.2878585466133
 20
3208.6848394196072
 30
0.0
 11
7370.1462960569688
 21
3276.5432769299632
 31
0.0
  0
LINE
  5
17387
  8
U3
 10
7200.464482055746
 20
3310.5082159104691
 30
0.0
 11
7266.6411055648823
 21
3376.6848394196031
 31
0.0
  0
LINE
  5
17388
  8
U3
 10
7251.3761703011787
 20
3259.5965276650381
 30
0.0
 11
7368.4644820557487
 21
3376.6848394196031
 31
0.0
  0
LINE
  5
17389
  8
U3
 10
8260.1232517911103
 20
3376.684839419604
 30
0.0
 11
7690.146296056967
 21
3376.6848394196031
 31
0.0
  0
LINE
  5
1738A
  8
U3
 10
7879.1090739332349
 20
3310.5082159104691
 30
0.0
 11
7940.1232517911112
 21
3371.5223937683431
 31
0.0
  0
LINE
  5
1738B
  8
U3
 10
7812.9324504241031
 20
3376.6848394196031
 30
0.0
 11
7940.1232517911112
 21
3249.4940380525918
 31
0.0
  0
LINE
  5
1738C
  8
U3
 10
7756.0915434234939
 20
3331.7023699293468
 30
0.0
 11
7879.1090739332421
 21
3208.684839419604
 31
0.0
  0
LINE
  5
1738D
  8
U3
 10
7705.1798551780612
 20
3280.7906816839181
 30
0.0
 11
7777.2856974423794
 21
3208.6848394196031
 31
0.0
  0
LINE
  5
1738E
  8
U3
 10
7690.146296056967
 20
3265.757122562823
 30
0.0
 11
7801.0740129137484
 21
3376.6848394196008
 31
0.0
  0
LINE
  5
173B6
  8
HIKIDASHI
 10
9726.6200219846014
 20
3920.4854115561948
 30
0.0
 11
9357.8536451569798
 21
3920.4854115561948
 31
0.0
  0
TEXT
  5
173B7
  8
HIKIDASHI
 10
9390.9212527488908
 20
3965.4854115561961
 30
0.0
 40
90.0
  1
土　間
  7
01
 72
     2
 11
9684.9212527488926
 21
4010.4854115561948
 31
0.0
 73
     2
  0
TEXT
  5
173BE
  8
SUNPOU
 10
9478.5875862823959
 20
3591.6848394196049
 30
0.0
 40
90.0
  1
F.L
 41
0.6666666666666666
  7
00
 72
     4
 11
9547.1590148538253
 21
3636.6848394196049
 31
0.0
  0
LINE
  5
173BF
  8
SUNPOU
 10
9547.1590148538253
 20
3456.6848394196049
 30
0.0
 11
9599.1205390808918
 21
3546.6848394196049
 31
0.0
  0
LINE
  5
173C0
  8
SUNPOU
 10
9495.1974906267606
 20
3546.6848394196049
 30
0.0
 11
9547.1590148538253
 21
3456.6848394196049
 31
0.0
  0
LINE
  5
173C1
  8
SUNPOU
 10
9599.1205390808918
 20
3546.6848394196049
 30
0.0
 11
9495.1974906267606
 21
3546.6848394196049
 31
0.0
  0
TEXT
  5
173C3
  8
HIKIDASHI
 10
7011.4267867873787
 20
1814.8788692703531
 30
0.0
 40
89.552238805970148
  1
x
 41
0.6700000000000002
  7
00
  0
TEXT
  5
173C4
  8
HIKIDASHI
 10
6939.5918495970054
 20
1803.08839402794
 30
0.0
 40
67.164179104477611
  1
2
 41
0.6700000000000002
  7
00
  0
TEXT
  5
173C5
  8
HIKIDASHI
 10
6851.6998130380807
 20
1830.1144490585009
 30
0.0
 40
67.164179104477611
  1
1
 41
0.6700000000000002
  7
00
  0
TEXT
  5
173C6
  8
HIKIDASHI
 10
6777.0990023548593
 20
1803.6848394196061
 30
0.0
 40
89.552238805970148
  1
W ／
 41
0.6700000000000002
  7
00
  0
TEXT
  5
173C7
  8
HIKIDASHI
 10
7092.5621659405106
 20
1803.4758532195151
 30
0.0
 40
89.552238805970148
  1
300
 41
0.6700000000000002
  7
00
  0
TEXT
  5
173C8
  8
HIKIDASHI
 10
6777.0990023548593
 20
1983.6848394196049
 30
0.0
 40
90.0
  1
アンカーボルト
  7
01
  0
LINE
  5
173C9
  8
HIKIDASHI
 10
6748.0193934931522
 20
1938.6848394196049
 30
0.0
 11
7568.0254068900031
 21
1938.6848394196049
 31
0.0
  0
TEXT
  5
173CC
  8
HIKIDASHI
 10
8262.3095751733199
 20
1664.6358205769391
 30
0.0
 40
90.0
  1
B  ~  B'
 41
0.6700000000000002
  7
00
  0
LINE
  5
173CD
  8
HIKIDASHI
 10
8232.3095751733235
 20
1589.6358205769391
 30
0.0
 11
8927.9369284088898
 21
1589.6358205769391
 31
0.0
  0
LINE
  5
173CE
  8
HIKIDASHI
 10
8232.3095751733235
 20
1619.6358205769391
 30
0.0
 11
8927.9369284088898
 21
1619.6358205769391
 31
0.0
  0
TEXT
  5
173CF
  8
HIKIDASHI
 10
8656.3268546698837
 20
1664.6358205769391
 30
0.0
 40
90.0
  1
断 面
  7
01
  0
LINE
  5
17432
  8
1PL-S1
 10
11225.33837406209
 20
2700.1443440531489
 30
0.0
 11
11857.33837406209
 21
2700.1443440531489
 31
0.0
  0
LINE
  5
17433
  8
U1
 10
11391.33837406211
 20
3642.3370365845608
 30
0.0
 11
11391.33837406211
 21
4026.4015757638281
 31
0.0
  0
LINE
  5
17434
  8
U1
 10
11691.33837406209
 20
3642.3370365845608
 30
0.0
 11
11691.33837406209
 21
4026.4015757638281
 31
0.0
  0
LINE
  5
17435
  8
1PL-S1
 10
11541.33837406209
 20
3578.3370365845608
 30
0.0
 11
11541.33837406209
 21
4066.4015757638281
 31
0.0
  0
CIRCLE
  5
17436
  8
U1
 10
11541.33837406209
 20
3886.3370365845599
 30
0.0
 40
24.0
  0
LINE
  5
17438
  8
1PL-S1
 10
11301.33837406209
 20
2624.1443440531498
 30
0.0
 11
11301.33837406209
 21
2776.1443440531489
 31
0.0
  0
LINE
  5
17439
  8
1PL-S1
 10
11781.33837406209
 20
2624.1443440531498
 30
0.0
 11
11781.33837406209
 21
2776.1443440531489
 31
0.0
  0
LINE
  5
1743A
  8
1PL-S1
 10
11541.33837406209
 20
2500.1443440531489
 30
0.0
 11
11541.33837406209
 21
2900.1443440531489
 31
0.0
  0
CIRCLE
  5
1743B
  8
U1
 10
11301.33837406209
 20
2700.1443440531489
 30
0.0
 40
36.0
  0
LINE
  5
1743C
  8
U1
 10
11691.33837406209
 20
2700.1443440531489
 30
0.0
 11
11612.311295303751
 21
2700.1443440531489
 31
0.0
  0
CIRCLE
  5
1743D
  8
U1
 10
11781.33837406209
 20
2700.1443440531489
 30
0.0
 40
36.0
  0
LINE
  5
1743E
  8
1PL-S1
 10
11477.33837406209
 20
3726.3370365845599
 30
0.0
 11
11605.33837406209
 21
3726.3370365845599
 31
0.0
  0
LINE
  5
1743F
  8
1PL-S1
 10
11301.33837406211
 20
3578.3370365845608
 30
0.0
 11
11301.33837406209
 21
3682.3370365845622
 31
0.0
  0
LINE
  5
17440
  8
1PL-S1
 10
11781.33837406209
 20
3578.3370365845608
 30
0.0
 11
11781.33837406209
 21
3682.3370365845622
 31
0.0
  0
CIRCLE
  5
17441
  8
U1
 10
11541.33837406209
 20
3726.3370365845599
 30
0.0
 40
24.0
  0
LINE
  5
17442
  8
1PL-S1
 10
11477.33837406209
 20
3886.3370365845599
 30
0.0
 11
11605.33837406209
 21
3886.3370365845599
 31
0.0
  0
TEXT
  5
17598
  8
SUNPOU
 10
10750.051410179471
 20
1674.586261835072
 30
0.0
 40
120.0
  1
柱脚金具詳細図
  7
01
 72
     4
 11
11234.051410179471
 21
1734.586261835072
 31
0.0
  0
TEXT
  5
1759D
  8
SUNPOU
 10
12146.16023934793
 20
1672.1247233735339
 30
0.0
 40
73.84615384615384
  1
/
 41
0.6700000000000002
  7
00
 11
12146.16023934793
 21
1662.2785695273799
 31
0.0
 73
     1
  0
TEXT
  5
1759E
  8
SUNPOU
 10
12210.1096823023
 20
1653.6631849119949
 30
0.0
 40
73.84615384615384
  1
10
 41
0.6700000000000002
  7
00
 11
12210.1096823023
 21
1643.8170310658411
 31
0.0
 73
     1
  0
TEXT
  5
1759F
  8
SUNPOU
 10
12097.75411203256
 20
1690.586261835072
 30
0.0
 40
73.84615384615384
  1
1
 41
0.6700000000000002
  7
00
 11
12097.75411203256
 21
1680.740107988918
 31
0.0
 73
     1
  0
TEXT
  5
175A0
  8
SUNPOU
 10
11778.051410179471
 20
1674.586261835072
 30
0.0
 40
92.307692307692278
  1
（ S = 　　  ）
 41
0.6700000000000002
  7
00
 11
11778.051410179471
 21
1662.2785695273799
 31
0.0
 73
     1
  0
LINE
  5
175D2
  8
HIKIDASHI
 10
12073.233632238071
 20
3067.661600164834
 30
0.0
 11
12657.27442780204
 21
3067.661600164834
 31
0.0
  0
TEXT
  5
175D3
  8
HIKIDASHI
 10
12092.52363003481
 20
3112.661600164834
 30
0.0
 40
90.0
  1
プレ－ト
  7
01
 72
     2
 11
12482.52363003481
 21
3112.661600164834
 31
0.0
  0
TEXT
  5
175D4
  8
HIKIDASHI
 10
12520.978810717221
 20
3112.661600164834
 30
0.0
 40
90.0
  1
6
 41
0.6666666666666666
  7
00
 72
     2
 11
12569.55023928865
 21
3112.661600164834
 31
0.0
  0
TEXT
  5
175D5
  8
HIKIDASHI
 10
12606.976461189221
 20
3126.647348600799
 30
0.0
 40
89.999999099999968
  1
t
 41
0.6700000000000002
  7
00
  0
TEXT
  5
17E5F
  8
SUNPOU
 10
5757.491760556316
 20
2578.8847058563779
 30
0.0
 40
90.0
  1
5-D13\U+00D75-D13
 41
0.6700000000000002
  7
01
 72
     4
 11
6100.9146176991726
 21
2623.8847058563779
 31
0.0
  0
TEXT
  5
17E60
  8
SUNPOU
 10
5892.6074748420297
 20
2713.8847058563779
 30
0.0
 40
90.0
  1
ベース筋
  7
01
 72
     4
 11
6096.6074748420297
 21
2758.8847058563779
 31
0.0
  0
TEXT
  5
17E63
  8
SUNPOU
 10
9537.8179610799616
 20
2578.8847058563829
 30
0.0
 40
90.0
  1
5-D13\U+00D75-D13
 41
0.6700000000000002
  7
01
 72
     4
 11
9881.240818222821
 21
2623.8847058563829
 31
0.0
  0
TEXT
  5
17E64
  8
SUNPOU
 10
9672.9336753656753
 20
2713.8847058563829
 30
0.0
 40
90.0
  1
ベース筋
  7
01
 72
     4
 11
9876.9336753656771
 21
2758.8847058563829
 31
0.0
  0
LINE
  5
17F38
  8
KISO
 10
4159.7970512674628
 20
3456.6848394196049
 30
0.0
 11
4159.7970512674628
 21
2711.0848394196018
 31
0.0
  0
LINE
  5
188B9
  8
HATCH
 10
5427.7268464936387
 20
2551.0848394196018
 30
0.0
 11
5520.1028891603037
 21
2711.0848394196018
 31
0.0
  0
LINE
  5
188BA
  8
HATCH
 10
5466.7695558269706
 20
2711.0848394196018
 30
0.0
 11
5493.4362224936349
 21
2664.8968167529379
 31
0.0
  0
LINE
  5
188BB
  8
HATCH
 10
5454.3935131603039
 20
2597.272860752932
 30
0.0
 11
5481.0601798269718
 21
2551.0848394196018
 31
0.0
  0
LINE
  5
188D9
  8
HATCH
 10
9208.0530470172835
 20
2551.0848394196109
 30
0.0
 11
9300.4290896839502
 21
2711.0848394196109
 31
0.0
  0
LINE
  5
188DA
  8
HATCH
 10
9247.0957563506145
 20
2711.0848394196109
 30
0.0
 11
9273.7624230172805
 21
2664.8968167529479
 31
0.0
  0
LINE
  5
188DB
  8
HATCH
 10
9234.7197136839495
 20
2597.2728607529421
 30
0.0
 11
9261.3863803506156
 21
2551.0848394196109
 31
0.0
  0
TEXT
  5
18AFF
  8
HIKIDASHI
 10
12286.642398756439
 20
2290.804976716086
 30
0.0
 40
90.0
  1
2
 41
0.6666666666666666
  7
00
  0
TEXT
  5
18B00
  8
HIKIDASHI
 10
12365.213827327871
 20
2305.8049767160851
 30
0.0
 40
90.0
  1
ｹ
  7
01
  0
TEXT
  5
18B01
  8
HIKIDASHI
 10
12446.213827327871
 20
2290.804976716086
 30
0.0
 40
90.0
  1
-
 41
0.6666666666666666
  7
00
  0
TEXT
  5
18B02
  8
HIKIDASHI
 10
12554.07097018501
 20
2290.804976716086
 30
0.0
 40
90.0
  1
18
 41
0.6666666666666666
  7
00
  0
TEXT
  5
18B03
  8
HIKIDASHI
 10
12689.7852558993
 20
2305.8049767160851
 30
0.0
 40
90.0
  1
%%c
 41
0.6666666666666666
  7
00
  0
TEXT
  5
18B04
  8
HIKIDASHI
 10
12765.499541613581
 20
2290.804976716086
 30
0.0
 40
90.0
  1
孔
  7
01
  0
LINE
  5
18B05
  8
HIKIDASHI
 10
12256.642398756439
 20
2245.8049767160851
 30
0.0
 11
12879.499541613581
 21
2245.8049767160851
 31
0.0
  0
LINE
  5
18C03
  8
HIKIDASHI
 10
5702.6264246669762
 20
3920.485411556192
 30
0.0
 11
5333.8600478393546
 21
3920.485411556192
 31
0.0
  0
TEXT
  5
18C04
  8
HIKIDASHI
 10
5366.9276554312646
 20
3965.4854115561898
 30
0.0
 40
90.0
  1
土　間
  7
01
 72
     2
 11
5660.9276554312646
 21
4010.4854115561898
 31
0.0
 73
     2
  0
LINE
  5
18C5B
  8
WAKUSEN-01
 10
434.0000000000008
 20
11242.0
 30
0.0
 11
16382.0
 21
11242.0
 31
0.0
  0
LINE
  5
18C5E
  8
WAKUSEN-01
 10
10280.0
 20
1242.0
 30
0.0
 11
16382.0
 21
1242.0
 31
0.0
  0
LINE
  5
18C5F
  8
WAKUSEN-02
 10
10280.0
 20
827.99999999999966
 30
0.0
 11
13434.0
 21
827.99999999999966
 31
0.0
  0
TEXT
  5
18C60
  8
WAKUMOJI-01
 10
10335.13012998138
 20
1062.9515046696611
 30
0.0
 40
120.0
  1
名　称
  7
WAKUMOJI
  0
TEXT
  5
18C61
  8
WAKUMOJI-01
 10
10328.252742545959
 20
659.56448748991068
 30
0.0
 40
120.0
  1
機種名
  7
WAKUMOJI
  0
LINE
  5
18C64
  8
YODOROGO
 10
14988.80217064596
 20
997.87474821464355
 30
0.0
 11
14914.80217064596
 21
997.87474821464355
 31
0.0
1001
AUTOCAD_POSTSCRIPT_FIGURE
1002
{
1000
PSFILL
1000
Grayscale
1000
Grayscale
1070
    25
1002
}
  0
LINE
  5
18C65
  8
YODOROGO
 10
14914.80217064596
 20
973.87474821464343
 30
0.0
 11
14988.80217064596
 21
973.87474821464343
 31
0.0
1001
AUTOCAD_POSTSCRIPT_FIGURE
1002
{
1000
PSFILL
1000
Grayscale
1000
Grayscale
1070
    25
1002
}
  0
LINE
  5
18C66
  8
YODOROGO
 10
14988.80217064596
 20
953.874748214644
 30
0.0
 11
14914.80217064596
 21
953.874748214644
 31
0.0
1001
AUTOCAD_POSTSCRIPT_FIGURE
1002
{
1000
PSFILL
1000
Grayscale
1000
Grayscale
1070
    25
1002
}
  0
LINE
  5
18C67
  8
YODOROGO
 10
14914.80217064596
 20
929.874748214644
 30
0.0
 11
14988.80217064596
 21
929.874748214644
 31
0.0
1001
AUTOCAD_POSTSCRIPT_FIGURE
1002
{
1000
PSFILL
1000
Grayscale
1000
Grayscale
1070
    25
1002
}
  0
LINE
  5
18C68
  8
YODOROGO
 10
14988.80217064596
 20
909.87474821464389
 30
0.0
 11
14914.80217064596
 21
909.87474821464389
 31
0.0
1001
AUTOCAD_POSTSCRIPT_FIGURE
1002
{
1000
PSFILL
1000
Grayscale
1000
Grayscale
1070
    25
1002
}
  0
LINE
  5
18C69
  8
YODOROGO
 10
14960.802170645949
 20
853.87474821464389
 30
0.0
 11
14988.80217064596
 21
853.87474821464389
 31
0.0
1001
AUTOCAD_POSTSCRIPT_FIGURE
1002
{
1000
PSFILL
1000
Grayscale
1000
Grayscale
1070
    25
1002
}
  0
LINE
  5
18C6A
  8
YODOROGO
 10
14868.80217064596
 20
713.87474821464355
 30
0.0
 11
14968.80217064596
 21
740.66966745775528
 31
0.0
  0
LINE
  5
18C6B
  8
YODOROGO
 10
14974.80217064596
 20
853.87474821464389
 30
0.0
 11
14942.80217064596
 21
853.87474821464389
 31
0.0
  0
ARC
  5
18C6C
  8
YODOROGO
 10
15127.173874913949
 20
903.9323046166312
 30
0.0
 40
190.94343210282361
 50
213.96111677667849
 51
264.47872074317792
  0
ARC
  5
18C6D
  8
YODOROGO
 10
15127.17387491396
 20
903.93230461665132
 30
0.0
 40
190.9434321028408
 50
208.14114420486601
 51
212.92103611859949
  0
LINE
  5
18C6E
  8
YODOROGO
 10
14885.70493649265
 20
778.403830673117
 30
0.0
 11
14966.89206625427
 21
800.15785652854356
 31
0.0
  0
LINE
  5
18C6F
  8
YODOROGO
 10
14868.80217064596
 20
713.87474821464355
 30
0.0
 11
14968.80217064596
 21
740.66966745775528
 31
0.0
  0
LINE
  5
18C70
  8
YODOROGO
 10
14974.80217064596
 20
853.87474821464389
 30
0.0
 11
14942.80217064596
 21
853.87474821464389
 31
0.0
  0
ARC
  5
18C71
  8
YODOROGO
 10
15127.173874913949
 20
903.9323046166312
 30
0.0
 40
190.94343210282361
 50
213.96111677667849
 51
264.47872074317792
  0
LINE
  5
18C72
  8
YODOROGO
 10
14396.802170645949
 20
909.87474821464389
 30
0.0
 11
14216.802170645949
 21
909.87474821464389
 31
0.0
  0
LINE
  5
18C73
  8
YODOROGO
 10
14256.802170645949
 20
713.87474821464355
 30
0.0
 11
14396.802170645949
 21
713.87474821464355
 31
0.0
  0
LINE
  5
18C74
  8
YODOROGO
 10
14364.80217064596
 20
961.8747482146432
 30
0.0
 11
14248.802170645949
 21
961.8747482146432
 31
0.0
  0
LINE
  5
18C75
  8
YODOROGO
 10
14292.80217064596
 20
1013.874748214644
 30
0.0
 11
14328.80217064596
 21
1013.874748214644
 31
0.0
  0
LINE
  5
18C76
  8
YODOROGO
 10
14216.802170645949
 20
853.87474821464389
 30
0.0
 11
14216.802170645949
 21
753.87474821464389
 31
0.0
  0
LINE
  5
18C77
  8
YODOROGO
 10
14248.802170645949
 20
781.87474821464343
 30
0.0
 11
14248.802170645949
 21
853.87474821464389
 31
0.0
  0
LINE
  5
18C78
  8
YODOROGO
 10
14292.80217064596
 20
873.87474821464491
 30
0.0
 11
14292.80217064596
 21
773.87474821464389
 31
0.0
  0
LINE
  5
18C79
  8
YODOROGO
 10
13928.80217064596
 20
841.87474821464446
 30
0.0
 11
13888.80217064596
 21
809.98620702228561
 31
0.0
  0
LINE
  5
18C7A
  8
YODOROGO
 10
13968.80217064596
 20
809.98620702228561
 30
0.0
 11
13928.80217064596
 21
841.87474821464446
 31
0.0
  0
LINE
  5
18C7B
  8
YODOROGO
 10
13928.80217064596
 20
853.87474821464389
 30
0.0
 11
13968.80217064596
 21
821.98620702228504
 31
0.0
  0
LINE
  5
18C7C
  8
YODOROGO
 10
13888.80217064596
 20
821.98620702228504
 30
0.0
 11
13928.80217064596
 21
853.87474821464389
 31
0.0
  0
LINE
  5
18C7D
  8
YODOROGO
 10
14020.456602008449
 20
829.874748214644
 30
0.0
 11
14020.456602008449
 21
841.87474821464343
 31
0.0
  0
LINE
  5
18C7E
  8
YODOROGO
 10
13988.80217064596
 20
841.87474821464343
 30
0.0
 11
13988.80217064596
 21
833.87474821464275
 31
0.0
  0
LINE
  5
18C7F
  8
YODOROGO
 10
14049.06776011546
 20
853.87474821464389
 30
0.0
 11
14049.06776011546
 21
827.75181863732803
 31
0.0
1001
AUTOCAD_POSTSCRIPT_FIGURE
1002
{
1000
PSFILL
1000
Grayscale
1000
Grayscale
1070
   100
1002
}
  0
LINE
  5
18C80
  8
YODOROGO
 10
14041.06776011546
 20
827.75181863732803
 30
0.0
 11
14041.06776011546
 21
853.87474821464389
 31
0.0
1001
AUTOCAD_POSTSCRIPT_FIGURE
1002
{
1000
PSFILL
1000
Grayscale
1000
Grayscale
1070
   100
1002
}
  0
LINE
  5
18C81
  8
YODOROGO
 10
13904.80217064596
 20
804.38595202162924
 30
0.0
 11
13904.80217064596
 21
816.38595202162981
 31
0.0
  0
LINE
  5
18C82
  8
YODOROGO
 10
13952.80217064596
 20
804.38595202162924
 30
0.0
 11
13904.80217064596
 21
804.38595202162924
 31
0.0
  0
LINE
  5
18C83
  8
YODOROGO
 10
13952.80217064596
 20
816.38595202162981
 30
0.0
 11
13952.80217064596
 21
804.38595202162924
 31
0.0
  0
LINE
  5
18C84
  8
YODOROGO
 10
13904.80217064596
 20
816.38595202162981
 30
0.0
 11
13952.80217064596
 21
816.38595202162981
 31
0.0
  0
LINE
  5
18C85
  8
YODOROGO
 10
13912.254794457869
 20
784.25142868523744
 30
0.0
 11
13892.80217064596
 21
737.87474821464366
 31
0.0
1001
AUTOCAD_POSTSCRIPT_FIGURE
1002
{
1000
PSFILL
1000
Grayscale
1000
Grayscale
1070
   100
1002
}
  0
LINE
  5
18C86
  8
YODOROGO
 10
13888.80217064596
 20
784.25142868523744
 30
0.0
 11
13912.254794457869
 21
784.25142868523744
 31
0.0
1001
AUTOCAD_POSTSCRIPT_FIGURE
1002
{
1000
PSFILL
1000
Grayscale
1000
Grayscale
1070
   100
1002
}
  0
LINE
  5
18C87
  8
YODOROGO
 10
13888.80217064596
 20
794.25142868523744
 30
0.0
 11
13888.80217064596
 21
784.25142868523744
 31
0.0
1001
AUTOCAD_POSTSCRIPT_FIGURE
1002
{
1000
PSFILL
1000
Grayscale
1000
Grayscale
1070
   100
1002
}
  0
LINE
  5
18C88
  8
YODOROGO
 10
13968.80217064596
 20
794.25142868523744
 30
0.0
 11
13888.80217064596
 21
794.25142868523744
 31
0.0
1001
AUTOCAD_POSTSCRIPT_FIGURE
1002
{
1000
PSFILL
1000
Grayscale
1000
Grayscale
1070
   100
1002
}
  0
LINE
  5
18C89
  8
YODOROGO
 10
13968.80217064596
 20
784.25142868523744
 30
0.0
 11
13968.80217064596
 21
794.25142868523744
 31
0.0
1001
AUTOCAD_POSTSCRIPT_FIGURE
1002
{
1000
PSFILL
1000
Grayscale
1000
Grayscale
1070
   100
1002
}
  0
LINE
  5
18C8A
  8
YODOROGO
 10
13922.254794457869
 20
784.25142868523744
 30
0.0
 11
13968.80217064596
 21
784.25142868523744
 31
0.0
1001
AUTOCAD_POSTSCRIPT_FIGURE
1002
{
1000
PSFILL
1000
Grayscale
1000
Grayscale
1070
   100
1002
}
  0
LINE
  5
18C8B
  8
YODOROGO
 10
13907.773359142389
 20
747.87474821464355
 30
0.0
 11
13922.254794457869
 21
784.25142868523744
 31
0.0
1001
AUTOCAD_POSTSCRIPT_FIGURE
1002
{
1000
PSFILL
1000
Grayscale
1000
Grayscale
1070
   100
1002
}
  0
LINE
  5
18C8C
  8
YODOROGO
 10
13951.02739540432
 20
747.87474821464355
 30
0.0
 11
13907.773359142389
 21
747.87474821464355
 31
0.0
1001
AUTOCAD_POSTSCRIPT_FIGURE
1002
{
1000
PSFILL
1000
Grayscale
1000
Grayscale
1070
   100
1002
}
  0
LINE
  5
18C8D
  8
YODOROGO
 10
13942.53250239547
 20
768.11690534884644
 30
0.0
 11
13951.02739540432
 21
747.87474821464355
 31
0.0
1001
AUTOCAD_POSTSCRIPT_FIGURE
1002
{
1000
PSFILL
1000
Grayscale
1000
Grayscale
1070
   100
1002
}
  0
LINE
  5
18C8E
  8
YODOROGO
 10
13950.53250239547
 20
768.11690534884644
 30
0.0
 11
13942.53250239547
 21
768.11690534884644
 31
0.0
1001
AUTOCAD_POSTSCRIPT_FIGURE
1002
{
1000
PSFILL
1000
Grayscale
1000
Grayscale
1070
   100
1002
}
  0
LINE
  5
18C8F
  8
YODOROGO
 10
13964.80217064596
 20
737.87474821464366
 30
0.0
 11
13950.53250239547
 21
768.11690534884644
 31
0.0
1001
AUTOCAD_POSTSCRIPT_FIGURE
1002
{
1000
PSFILL
1000
Grayscale
1000
Grayscale
1070
   100
1002
}
  0
LINE
  5
18C90
  8
YODOROGO
 10
13892.80217064596
 20
737.87474821464366
 30
0.0
 11
13964.80217064596
 21
737.87474821464366
 31
0.0
1001
AUTOCAD_POSTSCRIPT_FIGURE
1002
{
1000
PSFILL
1000
Grayscale
1000
Grayscale
1070
   100
1002
}
  0
LINE
  5
18C91
  8
YODOROGO
 10
13888.80217064596
 20
809.98620702228561
 30
0.0
 11
13888.80217064596
 21
821.98620702228504
 31
0.0
  0
LINE
  5
18C92
  8
YODOROGO
 10
13968.80217064596
 20
821.98620702228504
 30
0.0
 11
13968.80217064596
 21
809.98620702228561
 31
0.0
  0
ARC
  5
18C93
  8
YODOROGO
 10
14112.970221073479
 20
800.43888266266299
 30
0.0
 40
87.999999999999943
 50
280.3644312771313
 51
3.5414836592180561
  0
ARC
  5
18C94
  8
YODOROGO
 10
14117.878015379651
 20
816.79890348095216
 30
0.0
 40
55.999999999999162
 50
281.2490582504156
 51
348.75094174958332
  0
LINE
  5
18C95
  8
YODOROGO
 10
14128.80217064596
 20
761.87474821464343
 30
0.0
 11
14128.80217064596
 21
713.87474821464355
 31
0.0
  0
LINE
  5
18C96
  8
YODOROGO
 10
14010.044451868451
 20
805.32528253095745
 30
0.0
 11
14020.456602008449
 21
829.874748214644
 31
0.0
  0
LINE
  5
18C97
  8
YODOROGO
 10
14020.80217064596
 20
791.5602449742006
 30
0.0
 11
14010.044451868451
 21
805.32528253095745
 31
0.0
  0
LINE
  5
18C98
  8
YODOROGO
 10
14020.80217064596
 20
781.56024497419946
 30
0.0
 11
14020.80217064596
 21
791.5602449742006
 31
0.0
  0
LINE
  5
18C99
  8
YODOROGO
 10
14008.80217064596
 20
792.61853187476515
 30
0.0
 11
14020.80217064596
 21
781.56024497419946
 31
0.0
  0
LINE
  5
18C9A
  8
YODOROGO
 10
14008.80217064596
 20
737.87474821464366
 30
0.0
 11
14008.80217064596
 21
792.61853187476515
 31
0.0
  0
LINE
  5
18C9B
  8
YODOROGO
 10
14000.80217064596
 20
737.87474821464366
 30
0.0
 11
14008.80217064596
 21
737.87474821464366
 31
0.0
  0
LINE
  5
18C9C
  8
YODOROGO
 10
14000.80217064596
 20
790.00267484487381
 30
0.0
 11
14000.80217064596
 21
737.87474821464366
 31
0.0
  0
LINE
  5
18C9D
  8
YODOROGO
 10
13988.80217064596
 20
766.38403951671421
 30
0.0
 11
14000.80217064596
 21
790.00267484487381
 31
0.0
  0
LINE
  5
18C9E
  8
YODOROGO
 10
13988.80217064596
 20
778.38403951671489
 30
0.0
 11
13988.80217064596
 21
766.38403951671421
 31
0.0
  0
LINE
  5
18C9F
  8
YODOROGO
 10
14012.91438714568
 20
833.87474821464275
 30
0.0
 11
13988.80217064596
 21
778.38403951671489
 31
0.0
  0
LINE
  5
18CA0
  8
YODOROGO
 10
13988.80217064596
 20
833.87474821464275
 30
0.0
 11
14012.91438714568
 21
833.87474821464275
 31
0.0
  0
LINE
  5
18CA1
  8
YODOROGO
 10
14025.067760115449
 20
827.75181863732803
 30
0.0
 11
14041.06776011546
 21
827.75181863732803
 31
0.0
1001
AUTOCAD_POSTSCRIPT_FIGURE
1002
{
1000
PSFILL
1000
Grayscale
1000
Grayscale
1070
   100
1002
}
  0
LINE
  5
18CA2
  8
YODOROGO
 10
14025.067760115449
 20
815.7518186373286
 30
0.0
 11
14025.067760115449
 21
827.75181863732803
 31
0.0
1001
AUTOCAD_POSTSCRIPT_FIGURE
1002
{
1000
PSFILL
1000
Grayscale
1000
Grayscale
1070
   100
1002
}
  0
LINE
  5
18CA3
  8
YODOROGO
 10
14041.06776011546
 20
815.7518186373286
 30
0.0
 11
14025.067760115449
 21
815.7518186373286
 31
0.0
1001
AUTOCAD_POSTSCRIPT_FIGURE
1002
{
1000
PSFILL
1000
Grayscale
1000
Grayscale
1070
   100
1002
}
  0
LINE
  5
18CA4
  8
YODOROGO
 10
14041.06776011546
 20
749.87474821464411
 30
0.0
 11
14041.06776011546
 21
815.7518186373286
 31
0.0
1001
AUTOCAD_POSTSCRIPT_FIGURE
1002
{
1000
PSFILL
1000
Grayscale
1000
Grayscale
1070
   100
1002
}
  0
LINE
  5
18CA5
  8
YODOROGO
 10
14025.06776011546
 20
749.87474821464411
 30
0.0
 11
14041.06776011546
 21
749.87474821464411
 31
0.0
1001
AUTOCAD_POSTSCRIPT_FIGURE
1002
{
1000
PSFILL
1000
Grayscale
1000
Grayscale
1070
   100
1002
}
  0
LINE
  5
18CA6
  8
YODOROGO
 10
14025.06776011546
 20
737.87474821464366
 30
0.0
 11
14025.06776011546
 21
749.87474821464411
 31
0.0
1001
AUTOCAD_POSTSCRIPT_FIGURE
1002
{
1000
PSFILL
1000
Grayscale
1000
Grayscale
1070
   100
1002
}
  0
LINE
  5
18CA7
  8
YODOROGO
 10
14068.80217064596
 20
737.87474821464366
 30
0.0
 11
14025.06776011546
 21
737.87474821464366
 31
0.0
1001
AUTOCAD_POSTSCRIPT_FIGURE
1002
{
1000
PSFILL
1000
Grayscale
1000
Grayscale
1070
   100
1002
}
  0
LINE
  5
18CA8
  8
YODOROGO
 10
14068.80217064596
 20
749.87474821464411
 30
0.0
 11
14068.80217064596
 21
737.87474821464366
 31
0.0
1001
AUTOCAD_POSTSCRIPT_FIGURE
1002
{
1000
PSFILL
1000
Grayscale
1000
Grayscale
1070
   100
1002
}
  0
LINE
  5
18CA9
  8
YODOROGO
 10
14049.06776011546
 20
749.87474821464411
 30
0.0
 11
14068.80217064596
 21
749.87474821464411
 31
0.0
1001
AUTOCAD_POSTSCRIPT_FIGURE
1002
{
1000
PSFILL
1000
Grayscale
1000
Grayscale
1070
   100
1002
}
  0
LINE
  5
18CAA
  8
YODOROGO
 10
14049.06776011546
 20
815.7518186373286
 30
0.0
 11
14049.06776011546
 21
749.87474821464411
 31
0.0
1001
AUTOCAD_POSTSCRIPT_FIGURE
1002
{
1000
PSFILL
1000
Grayscale
1000
Grayscale
1070
   100
1002
}
  0
LINE
  5
18CAB
  8
YODOROGO
 10
14068.80217064596
 20
815.7518186373286
 30
0.0
 11
14049.06776011546
 21
815.7518186373286
 31
0.0
1001
AUTOCAD_POSTSCRIPT_FIGURE
1002
{
1000
PSFILL
1000
Grayscale
1000
Grayscale
1070
   100
1002
}
  0
LINE
  5
18CAC
  8
YODOROGO
 10
14068.80217064596
 20
827.75181863732803
 30
0.0
 11
14068.80217064596
 21
815.7518186373286
 31
0.0
1001
AUTOCAD_POSTSCRIPT_FIGURE
1002
{
1000
PSFILL
1000
Grayscale
1000
Grayscale
1070
   100
1002
}
  0
LINE
  5
18CAD
  8
YODOROGO
 10
14049.06776011546
 20
827.75181863732803
 30
0.0
 11
14068.80217064596
 21
827.75181863732803
 31
0.0
1001
AUTOCAD_POSTSCRIPT_FIGURE
1002
{
1000
PSFILL
1000
Grayscale
1000
Grayscale
1070
   100
1002
}
  0
LINE
  5
18CAE
  8
YODOROGO
 10
14200.802170645949
 20
833.87474821464389
 30
0.0
 11
14172.80217064596
 21
833.87474821464389
 31
0.0
  0
LINE
  5
18CAF
  8
YODOROGO
 10
14200.802170645949
 20
805.87474821464434
 30
0.0
 11
14200.802170645949
 21
833.87474821464389
 31
0.0
  0
LINE
  5
18CB0
  8
YODOROGO
 10
14172.80217064596
 20
833.87474821464389
 30
0.0
 11
14172.80217064596
 21
805.87474821464434
 31
0.0
  0
ARC
  5
18CB1
  8
YODOROGO
 10
14256.802170645949
 20
753.87474821464389
 30
0.0
 40
40.0
 50
180.0
 51
270.0
  0
ARC
  5
18CB2
  8
YODOROGO
 10
14268.802170645949
 20
781.87474821464343
 30
0.0
 40
20.0
 50
180.0
 51
270.0
  0
LINE
  5
18CB3
  8
YODOROGO
 10
14280.80217064596
 20
761.87474821464343
 30
0.0
 11
14268.802170645949
 21
761.87474821464343
 31
0.0
  0
ARC
  5
18CB4
  8
YODOROGO
 10
14280.80217064596
 20
773.87474821464275
 30
0.0
 40
11.999999999998179
 50
270.0
 51
0.0000000000054281
  0
LINE
  5
18CB5
  8
YODOROGO
 10
13900.80217064596
 20
945.39329039685322
 30
0.0
 11
13888.80217064596
 21
921.8883739758362
 31
0.0
1001
AUTOCAD_POSTSCRIPT_FIGURE
1002
{
1000
PSFILL
1000
Grayscale
1000
Grayscale
1070
   100
1002
}
  0
LINE
  5
18CB6
  8
YODOROGO
 10
13900.80217064596
 20
873.87474821464343
 30
0.0
 11
13900.80217064596
 21
945.39329039685322
 31
0.0
1001
AUTOCAD_POSTSCRIPT_FIGURE
1002
{
1000
PSFILL
1000
Grayscale
1000
Grayscale
1070
   100
1002
}
  0
LINE
  5
18CB7
  8
YODOROGO
 10
13908.80217064596
 20
873.87474821464343
 30
0.0
 11
13900.80217064596
 21
873.87474821464343
 31
0.0
1001
AUTOCAD_POSTSCRIPT_FIGURE
1002
{
1000
PSFILL
1000
Grayscale
1000
Grayscale
1070
   100
1002
}
  0
LINE
  5
18CB8
  8
YODOROGO
 10
13908.80217064596
 20
946.88566604263337
 30
0.0
 11
13908.80217064596
 21
873.87474821464343
 31
0.0
1001
AUTOCAD_POSTSCRIPT_FIGURE
1002
{
1000
PSFILL
1000
Grayscale
1000
Grayscale
1070
   100
1002
}
  0
LINE
  5
18CB9
  8
YODOROGO
 10
13920.80217064596
 20
933.82737914206837
 30
0.0
 11
13908.80217064596
 21
946.88566604263337
 31
0.0
1001
AUTOCAD_POSTSCRIPT_FIGURE
1002
{
1000
PSFILL
1000
Grayscale
1000
Grayscale
1070
   100
1002
}
  0
LINE
  5
18CBA
  8
YODOROGO
 10
13920.80217064596
 20
941.82737914206814
 30
0.0
 11
13920.80217064596
 21
933.82737914206837
 31
0.0
1001
AUTOCAD_POSTSCRIPT_FIGURE
1002
{
1000
PSFILL
1000
Grayscale
1000
Grayscale
1070
   100
1002
}
  0
LINE
  5
18CBB
  8
YODOROGO
 10
13908.80217064596
 20
958.88566604263258
 30
0.0
 11
13920.80217064596
 21
941.82737914206814
 31
0.0
1001
AUTOCAD_POSTSCRIPT_FIGURE
1002
{
1000
PSFILL
1000
Grayscale
1000
Grayscale
1070
   100
1002
}
  0
LINE
  5
18CBC
  8
YODOROGO
 10
13908.80217064596
 20
969.87474821464411
 30
0.0
 11
13908.80217064596
 21
958.88566604263258
 31
0.0
1001
AUTOCAD_POSTSCRIPT_FIGURE
1002
{
1000
PSFILL
1000
Grayscale
1000
Grayscale
1070
   100
1002
}
  0
LINE
  5
18CBD
  8
YODOROGO
 10
13944.80217064596
 20
969.87474821464411
 30
0.0
 11
13908.80217064596
 21
969.87474821464411
 31
0.0
1001
AUTOCAD_POSTSCRIPT_FIGURE
1002
{
1000
PSFILL
1000
Grayscale
1000
Grayscale
1070
   100
1002
}
  0
LINE
  5
18CBE
  8
YODOROGO
 10
13944.80217064596
 20
950.28417446814944
 30
0.0
 11
13944.80217064596
 21
969.87474821464411
 31
0.0
1001
AUTOCAD_POSTSCRIPT_FIGURE
1002
{
1000
PSFILL
1000
Grayscale
1000
Grayscale
1070
   100
1002
}
  0
LINE
  5
18CBF
  8
YODOROGO
 10
13928.80217064596
 20
950.28417446814944
 30
0.0
 11
13944.80217064596
 21
950.28417446814944
 31
0.0
1001
AUTOCAD_POSTSCRIPT_FIGURE
1002
{
1000
PSFILL
1000
Grayscale
1000
Grayscale
1070
   100
1002
}
  0
LINE
  5
18CC0
  8
YODOROGO
 10
13928.80217064596
 20
942.2841744681491
 30
0.0
 11
13928.80217064596
 21
950.28417446814944
 31
0.0
1001
AUTOCAD_POSTSCRIPT_FIGURE
1002
{
1000
PSFILL
1000
Grayscale
1000
Grayscale
1070
   100
1002
}
  0
LINE
  5
18CC1
  8
YODOROGO
 10
13944.80217064596
 20
942.2841744681491
 30
0.0
 11
13928.80217064596
 21
942.2841744681491
 31
0.0
1001
AUTOCAD_POSTSCRIPT_FIGURE
1002
{
1000
PSFILL
1000
Grayscale
1000
Grayscale
1070
   100
1002
}
  0
LINE
  5
18CC2
  8
YODOROGO
 10
13944.80217064596
 20
939.80958898221968
 30
0.0
 11
13944.80217064596
 21
942.2841744681491
 31
0.0
1001
AUTOCAD_POSTSCRIPT_FIGURE
1002
{
1000
PSFILL
1000
Grayscale
1000
Grayscale
1070
   100
1002
}
  0
LINE
  5
18CC3
  8
YODOROGO
 10
13924.80217064596
 20
906.48749058070871
 30
0.0
 11
13944.80217064596
 21
939.80958898221968
 31
0.0
1001
AUTOCAD_POSTSCRIPT_FIGURE
1002
{
1000
PSFILL
1000
Grayscale
1000
Grayscale
1070
   100
1002
}
  0
LINE
  5
18CC4
  8
YODOROGO
 10
13924.80217064596
 20
898.48749058070803
 30
0.0
 11
13924.80217064596
 21
906.48749058070871
 31
0.0
1001
AUTOCAD_POSTSCRIPT_FIGURE
1002
{
1000
PSFILL
1000
Grayscale
1000
Grayscale
1070
   100
1002
}
  0
LINE
  5
18CC5
  8
YODOROGO
 10
13944.80217064596
 20
923.80958898221832
 30
0.0
 11
13924.80217064596
 21
898.48749058070803
 31
0.0
1001
AUTOCAD_POSTSCRIPT_FIGURE
1002
{
1000
PSFILL
1000
Grayscale
1000
Grayscale
1070
   100
1002
}
  0
LINE
  5
18CC6
  8
YODOROGO
 10
13944.80217064596
 20
873.87474821464343
 30
0.0
 11
13944.80217064596
 21
923.80958898221832
 31
0.0
1001
AUTOCAD_POSTSCRIPT_FIGURE
1002
{
1000
PSFILL
1000
Grayscale
1000
Grayscale
1070
   100
1002
}
  0
LINE
  5
18CC7
  8
YODOROGO
 10
13952.80217064596
 20
873.87474821464343
 30
0.0
 11
13944.80217064596
 21
873.87474821464343
 31
0.0
1001
AUTOCAD_POSTSCRIPT_FIGURE
1002
{
1000
PSFILL
1000
Grayscale
1000
Grayscale
1070
   100
1002
}
  0
LINE
  5
18CC8
  8
YODOROGO
 10
13952.80217064596
 20
924.70450607940325
 30
0.0
 11
13952.80217064596
 21
873.87474821464343
 31
0.0
1001
AUTOCAD_POSTSCRIPT_FIGURE
1002
{
1000
PSFILL
1000
Grayscale
1000
Grayscale
1070
   100
1002
}
  0
LINE
  5
18CC9
  8
YODOROGO
 10
13968.80217064596
 20
898.48749058070803
 30
0.0
 11
13952.80217064596
 21
924.70450607940325
 31
0.0
1001
AUTOCAD_POSTSCRIPT_FIGURE
1002
{
1000
PSFILL
1000
Grayscale
1000
Grayscale
1070
   100
1002
}
  0
LINE
  5
18CCA
  8
YODOROGO
 10
13968.80217064596
 20
906.48749058070871
 30
0.0
 11
13968.80217064596
 21
898.48749058070803
 31
0.0
1001
AUTOCAD_POSTSCRIPT_FIGURE
1002
{
1000
PSFILL
1000
Grayscale
1000
Grayscale
1070
   100
1002
}
  0
LINE
  5
18CCB
  8
YODOROGO
 10
13952.80217064596
 20
940.7045060794045
 30
0.0
 11
13968.80217064596
 21
906.48749058070871
 31
0.0
1001
AUTOCAD_POSTSCRIPT_FIGURE
1002
{
1000
PSFILL
1000
Grayscale
1000
Grayscale
1070
   100
1002
}
  0
LINE
  5
18CCC
  8
YODOROGO
 10
13952.80217064596
 20
942.28417446815024
 30
0.0
 11
13952.80217064596
 21
940.7045060794045
 31
0.0
1001
AUTOCAD_POSTSCRIPT_FIGURE
1002
{
1000
PSFILL
1000
Grayscale
1000
Grayscale
1070
   100
1002
}
  0
LINE
  5
18CCD
  8
YODOROGO
 10
13968.80217064596
 20
942.2841744681491
 30
0.0
 11
13952.80217064596
 21
942.28417446815024
 31
0.0
1001
AUTOCAD_POSTSCRIPT_FIGURE
1002
{
1000
PSFILL
1000
Grayscale
1000
Grayscale
1070
   100
1002
}
  0
LINE
  5
18CCE
  8
YODOROGO
 10
13968.80217064596
 20
950.28417446814944
 30
0.0
 11
13968.80217064596
 21
942.2841744681491
 31
0.0
1001
AUTOCAD_POSTSCRIPT_FIGURE
1002
{
1000
PSFILL
1000
Grayscale
1000
Grayscale
1070
   100
1002
}
  0
LINE
  5
18CCF
  8
YODOROGO
 10
13952.80217064596
 20
950.28417446814944
 30
0.0
 11
13968.80217064596
 21
950.28417446814944
 31
0.0
1001
AUTOCAD_POSTSCRIPT_FIGURE
1002
{
1000
PSFILL
1000
Grayscale
1000
Grayscale
1070
   100
1002
}
  0
LINE
  5
18CD0
  8
YODOROGO
 10
13952.80217064596
 20
969.87474821464411
 30
0.0
 11
13952.80217064596
 21
950.28417446814944
 31
0.0
1001
AUTOCAD_POSTSCRIPT_FIGURE
1002
{
1000
PSFILL
1000
Grayscale
1000
Grayscale
1070
   100
1002
}
  0
LINE
  5
18CD1
  8
YODOROGO
 10
13968.80217064596
 20
969.87474821464411
 30
0.0
 11
13952.80217064596
 21
969.87474821464411
 31
0.0
1001
AUTOCAD_POSTSCRIPT_FIGURE
1002
{
1000
PSFILL
1000
Grayscale
1000
Grayscale
1070
   100
1002
}
  0
LINE
  5
18CD2
  8
YODOROGO
 10
13968.80217064596
 20
977.87474821464355
 30
0.0
 11
13968.80217064596
 21
969.87474821464411
 31
0.0
1001
AUTOCAD_POSTSCRIPT_FIGURE
1002
{
1000
PSFILL
1000
Grayscale
1000
Grayscale
1070
   100
1002
}
  0
LINE
  5
18CD3
  8
YODOROGO
 10
13952.80217064596
 20
977.87474821464355
 30
0.0
 11
13968.80217064596
 21
977.87474821464355
 31
0.0
1001
AUTOCAD_POSTSCRIPT_FIGURE
1002
{
1000
PSFILL
1000
Grayscale
1000
Grayscale
1070
   100
1002
}
  0
LINE
  5
18CD4
  8
YODOROGO
 10
13952.80217064596
 20
989.87474821464434
 30
0.0
 11
13952.80217064596
 21
977.87474821464355
 31
0.0
1001
AUTOCAD_POSTSCRIPT_FIGURE
1002
{
1000
PSFILL
1000
Grayscale
1000
Grayscale
1070
   100
1002
}
  0
LINE
  5
18CD5
  8
YODOROGO
 10
13944.80217064596
 20
989.87474821464434
 30
0.0
 11
13952.80217064596
 21
989.87474821464434
 31
0.0
1001
AUTOCAD_POSTSCRIPT_FIGURE
1002
{
1000
PSFILL
1000
Grayscale
1000
Grayscale
1070
   100
1002
}
  0
LINE
  5
18CD6
  8
YODOROGO
 10
13944.80217064596
 20
977.87474821464355
 30
0.0
 11
13944.80217064596
 21
989.87474821464434
 31
0.0
1001
AUTOCAD_POSTSCRIPT_FIGURE
1002
{
1000
PSFILL
1000
Grayscale
1000
Grayscale
1070
   100
1002
}
  0
LINE
  5
18CD7
  8
YODOROGO
 10
13932.80217064596
 20
977.87474821464355
 30
0.0
 11
13944.80217064596
 21
977.87474821464355
 31
0.0
1001
AUTOCAD_POSTSCRIPT_FIGURE
1002
{
1000
PSFILL
1000
Grayscale
1000
Grayscale
1070
   100
1002
}
  0
LINE
  5
18CD8
  8
YODOROGO
 10
13932.80217064596
 20
989.87474821464434
 30
0.0
 11
13932.80217064596
 21
977.87474821464355
 31
0.0
1001
AUTOCAD_POSTSCRIPT_FIGURE
1002
{
1000
PSFILL
1000
Grayscale
1000
Grayscale
1070
   100
1002
}
  0
LINE
  5
18CD9
  8
YODOROGO
 10
13924.80217064596
 20
989.87474821464434
 30
0.0
 11
13932.80217064596
 21
989.87474821464434
 31
0.0
1001
AUTOCAD_POSTSCRIPT_FIGURE
1002
{
1000
PSFILL
1000
Grayscale
1000
Grayscale
1070
   100
1002
}
  0
LINE
  5
18CDA
  8
YODOROGO
 10
13924.80217064596
 20
977.87474821464355
 30
0.0
 11
13924.80217064596
 21
989.87474821464434
 31
0.0
1001
AUTOCAD_POSTSCRIPT_FIGURE
1002
{
1000
PSFILL
1000
Grayscale
1000
Grayscale
1070
   100
1002
}
  0
LINE
  5
18CDB
  8
YODOROGO
 10
13908.80217064596
 20
977.87474821464355
 30
0.0
 11
13924.80217064596
 21
977.87474821464355
 31
0.0
1001
AUTOCAD_POSTSCRIPT_FIGURE
1002
{
1000
PSFILL
1000
Grayscale
1000
Grayscale
1070
   100
1002
}
  0
LINE
  5
18CDC
  8
YODOROGO
 10
13908.80217064596
 20
989.87474821464434
 30
0.0
 11
13908.80217064596
 21
977.87474821464355
 31
0.0
1001
AUTOCAD_POSTSCRIPT_FIGURE
1002
{
1000
PSFILL
1000
Grayscale
1000
Grayscale
1070
   100
1002
}
  0
LINE
  5
18CDD
  8
YODOROGO
 10
13900.80217064596
 20
989.87474821464434
 30
0.0
 11
13908.80217064596
 21
989.87474821464434
 31
0.0
1001
AUTOCAD_POSTSCRIPT_FIGURE
1002
{
1000
PSFILL
1000
Grayscale
1000
Grayscale
1070
   100
1002
}
  0
LINE
  5
18CDE
  8
YODOROGO
 10
13900.80217064596
 20
977.87474821464355
 30
0.0
 11
13900.80217064596
 21
989.87474821464434
 31
0.0
1001
AUTOCAD_POSTSCRIPT_FIGURE
1002
{
1000
PSFILL
1000
Grayscale
1000
Grayscale
1070
   100
1002
}
  0
LINE
  5
18CDF
  8
YODOROGO
 10
13888.80217064596
 20
977.87474821464355
 30
0.0
 11
13900.80217064596
 21
977.87474821464355
 31
0.0
1001
AUTOCAD_POSTSCRIPT_FIGURE
1002
{
1000
PSFILL
1000
Grayscale
1000
Grayscale
1070
   100
1002
}
  0
LINE
  5
18CE0
  8
YODOROGO
 10
13888.80217064596
 20
969.87474821464411
 30
0.0
 11
13888.80217064596
 21
977.87474821464355
 31
0.0
1001
AUTOCAD_POSTSCRIPT_FIGURE
1002
{
1000
PSFILL
1000
Grayscale
1000
Grayscale
1070
   100
1002
}
  0
LINE
  5
18CE1
  8
YODOROGO
 10
13900.80217064596
 20
969.87474821464411
 30
0.0
 11
13888.80217064596
 21
969.87474821464411
 31
0.0
1001
AUTOCAD_POSTSCRIPT_FIGURE
1002
{
1000
PSFILL
1000
Grayscale
1000
Grayscale
1070
   100
1002
}
  0
LINE
  5
18CE2
  8
YODOROGO
 10
13900.80217064596
 20
957.39329039685242
 30
0.0
 11
13900.80217064596
 21
969.87474821464411
 31
0.0
1001
AUTOCAD_POSTSCRIPT_FIGURE
1002
{
1000
PSFILL
1000
Grayscale
1000
Grayscale
1070
   100
1002
}
  0
LINE
  5
18CE3
  8
YODOROGO
 10
13888.80217064596
 20
929.88837397583552
 30
0.0
 11
13900.80217064596
 21
957.39329039685242
 31
0.0
1001
AUTOCAD_POSTSCRIPT_FIGURE
1002
{
1000
PSFILL
1000
Grayscale
1000
Grayscale
1070
   100
1002
}
  0
LINE
  5
18CE4
  8
YODOROGO
 10
13888.80217064596
 20
921.8883739758362
 30
0.0
 11
13888.80217064596
 21
929.88837397583552
 31
0.0
1001
AUTOCAD_POSTSCRIPT_FIGURE
1002
{
1000
PSFILL
1000
Grayscale
1000
Grayscale
1070
   100
1002
}
  0
LINE
  5
18CE5
  8
YODOROGO
 10
14128.80217064596
 20
933.87474821464389
 30
0.0
 11
14200.802170645949
 21
912.4388128201532
 31
0.0
1001
AUTOCAD_POSTSCRIPT_FIGURE
1002
{
1000
PSFILL
1000
Grayscale
1000
Grayscale
1070
   100
1002
}
  0
LINE
  5
18CE6
  8
YODOROGO
 10
14200.802170645949
 20
876.43881282015309
 30
0.0
 11
14128.80217064596
 21
897.87474821464355
 31
0.0
1001
AUTOCAD_POSTSCRIPT_FIGURE
1002
{
1000
PSFILL
1000
Grayscale
1000
Grayscale
1070
   100
1002
}
  0
LINE
  5
18CE7
  8
YODOROGO
 10
14200.802170645949
 20
992.43881282015309
 30
0.0
 11
14128.80217064596
 21
1013.874748214644
 31
0.0
1001
AUTOCAD_POSTSCRIPT_FIGURE
1002
{
1000
PSFILL
1000
Grayscale
1000
Grayscale
1070
   100
1002
}
  0
LINE
  5
18CE8
  8
YODOROGO
 10
14128.80217064596
 20
979.874748214644
 30
0.0
 11
14200.802170645949
 21
958.43881282015366
 31
0.0
1001
AUTOCAD_POSTSCRIPT_FIGURE
1002
{
1000
PSFILL
1000
Grayscale
1000
Grayscale
1070
   100
1002
}
  0
LINE
  5
18CE9
  8
YODOROGO
 10
14128.80217064596
 20
897.87474821464355
 30
0.0
 11
14128.80217064596
 21
933.87474821464389
 31
0.0
1001
AUTOCAD_POSTSCRIPT_FIGURE
1002
{
1000
PSFILL
1000
Grayscale
1000
Grayscale
1070
   100
1002
}
  0
LINE
  5
18CEA
  8
YODOROGO
 10
14128.80217064596
 20
1013.874748214644
 30
0.0
 11
14128.80217064596
 21
979.874748214644
 31
0.0
1001
AUTOCAD_POSTSCRIPT_FIGURE
1002
{
1000
PSFILL
1000
Grayscale
1000
Grayscale
1070
   100
1002
}
  0
LINE
  5
18CEB
  8
YODOROGO
 10
14040.11816010337
 20
969.87474821464411
 30
0.0
 11
14064.80217064596
 21
873.87474821464343
 31
0.0
1001
AUTOCAD_POSTSCRIPT_FIGURE
1002
{
1000
PSFILL
1000
Grayscale
1000
Grayscale
1070
   100
1002
}
  0
LINE
  5
18CEC
  8
YODOROGO
 10
13988.80217064596
 20
969.87474821464411
 30
0.0
 11
14040.11816010337
 21
969.87474821464411
 31
0.0
1001
AUTOCAD_POSTSCRIPT_FIGURE
1002
{
1000
PSFILL
1000
Grayscale
1000
Grayscale
1070
   100
1002
}
  0
LINE
  5
18CED
  8
YODOROGO
 10
13988.80217064596
 20
977.87474821464355
 30
0.0
 11
13988.80217064596
 21
969.87474821464411
 31
0.0
1001
AUTOCAD_POSTSCRIPT_FIGURE
1002
{
1000
PSFILL
1000
Grayscale
1000
Grayscale
1070
   100
1002
}
  0
LINE
  5
18CEE
  8
YODOROGO
 10
14038.30343925996
 20
977.87474821464355
 30
0.0
 11
13988.80217064596
 21
977.87474821464355
 31
0.0
1001
AUTOCAD_POSTSCRIPT_FIGURE
1002
{
1000
PSFILL
1000
Grayscale
1000
Grayscale
1070
   100
1002
}
  0
LINE
  5
18CEF
  8
YODOROGO
 10
14035.58135799485
 20
989.87474821464434
 30
0.0
 11
14038.30343925996
 21
977.87474821464355
 31
0.0
1001
AUTOCAD_POSTSCRIPT_FIGURE
1002
{
1000
PSFILL
1000
Grayscale
1000
Grayscale
1070
   100
1002
}
  0
LINE
  5
18CF0
  8
YODOROGO
 10
14045.58135799485
 20
989.87474821464434
 30
0.0
 11
14035.58135799485
 21
989.87474821464434
 31
0.0
1001
AUTOCAD_POSTSCRIPT_FIGURE
1002
{
1000
PSFILL
1000
Grayscale
1000
Grayscale
1070
   100
1002
}
  0
LINE
  5
18CF1
  8
YODOROGO
 10
14047.90343925997
 20
977.87474821464355
 30
0.0
 11
14045.58135799485
 21
989.87474821464434
 31
0.0
1001
AUTOCAD_POSTSCRIPT_FIGURE
1002
{
1000
PSFILL
1000
Grayscale
1000
Grayscale
1070
   100
1002
}
  0
LINE
  5
18CF2
  8
YODOROGO
 10
14060.80217064596
 20
977.87474821464355
 30
0.0
 11
14047.90343925997
 21
977.87474821464355
 31
0.0
1001
AUTOCAD_POSTSCRIPT_FIGURE
1002
{
1000
PSFILL
1000
Grayscale
1000
Grayscale
1070
   100
1002
}
  0
LINE
  5
18CF3
  8
YODOROGO
 10
14060.80217064596
 20
989.87474821464434
 30
0.0
 11
14060.80217064596
 21
977.87474821464355
 31
0.0
1001
AUTOCAD_POSTSCRIPT_FIGURE
1002
{
1000
PSFILL
1000
Grayscale
1000
Grayscale
1070
   100
1002
}
  0
LINE
  5
18CF4
  8
YODOROGO
 10
14068.80217064596
 20
989.87474821464434
 30
0.0
 11
14060.80217064596
 21
989.87474821464434
 31
0.0
1001
AUTOCAD_POSTSCRIPT_FIGURE
1002
{
1000
PSFILL
1000
Grayscale
1000
Grayscale
1070
   100
1002
}
  0
LINE
  5
18CF5
  8
YODOROGO
 10
14068.80217064596
 20
977.87474821464355
 30
0.0
 11
14068.80217064596
 21
989.87474821464434
 31
0.0
1001
AUTOCAD_POSTSCRIPT_FIGURE
1002
{
1000
PSFILL
1000
Grayscale
1000
Grayscale
1070
   100
1002
}
  0
LINE
  5
18CF6
  8
YODOROGO
 10
14068.80217064596
 20
969.87474821464411
 30
0.0
 11
14068.80217064596
 21
977.87474821464355
 31
0.0
1001
AUTOCAD_POSTSCRIPT_FIGURE
1002
{
1000
PSFILL
1000
Grayscale
1000
Grayscale
1070
   100
1002
}
  0
LINE
  5
18CF7
  8
YODOROGO
 10
14049.451493436711
 20
969.87474821464411
 30
0.0
 11
14068.80217064596
 21
969.87474821464411
 31
0.0
1001
AUTOCAD_POSTSCRIPT_FIGURE
1002
{
1000
PSFILL
1000
Grayscale
1000
Grayscale
1070
   100
1002
}
  0
LINE
  5
18CF8
  8
YODOROGO
 10
14068.80217064596
 20
873.87474821464343
 30
0.0
 11
14049.451493436711
 21
969.87474821464411
 31
0.0
1001
AUTOCAD_POSTSCRIPT_FIGURE
1002
{
1000
PSFILL
1000
Grayscale
1000
Grayscale
1070
   100
1002
}
  0
LINE
  5
18CF9
  8
YODOROGO
 10
14064.80217064596
 20
873.87474821464343
 30
0.0
 11
14068.80217064596
 21
873.87474821464343
 31
0.0
1001
AUTOCAD_POSTSCRIPT_FIGURE
1002
{
1000
PSFILL
1000
Grayscale
1000
Grayscale
1070
   100
1002
}
  0
LINE
  5
18CFA
  8
YODOROGO
 10
14039.0346099669
 20
887.87038814939717
 30
0.0
 11
13988.80217064596
 21
873.87474821464343
 31
0.0
  0
LINE
  5
18CFB
  8
YODOROGO
 10
14039.0346099669
 20
899.33448976453656
 30
0.0
 11
14039.0346099669
 21
887.87038814939717
 31
0.0
  0
LINE
  5
18CFC
  8
YODOROGO
 10
14016.91839030643
 20
893.40846656688336
 30
0.0
 11
14039.0346099669
 21
899.33448976453656
 31
0.0
  0
LINE
  5
18CFD
  8
YODOROGO
 10
14016.91839030643
 20
936.2841744681499
 30
0.0
 11
14016.91839030643
 21
893.40846656688336
 31
0.0
  0
LINE
  5
18CFE
  8
YODOROGO
 10
14039.0346099669
 20
936.2841744681499
 30
0.0
 11
14016.91839030643
 21
936.2841744681499
 31
0.0
  0
LINE
  5
18CFF
  8
YODOROGO
 10
14039.0346099669
 20
946.28417446814865
 30
0.0
 11
14039.0346099669
 21
936.2841744681499
 31
0.0
  0
LINE
  5
18D00
  8
YODOROGO
 10
13988.80217064596
 20
946.28417446814865
 30
0.0
 11
14039.0346099669
 21
946.28417446814865
 31
0.0
  0
LINE
  5
18D01
  8
YODOROGO
 10
13988.80217064596
 20
936.2841744681499
 30
0.0
 11
13988.80217064596
 21
946.28417446814865
 31
0.0
  0
LINE
  5
18D02
  8
YODOROGO
 10
14010.91839030643
 20
936.2841744681499
 30
0.0
 11
13988.80217064596
 21
936.2841744681499
 31
0.0
  0
LINE
  5
18D03
  8
YODOROGO
 10
14010.91839030643
 20
892.33666979715872
 30
0.0
 11
14010.91839030643
 21
936.2841744681499
 31
0.0
  0
LINE
  5
18D04
  8
YODOROGO
 10
13988.80217064596
 20
885.8747482146432
 30
0.0
 11
14010.91839030643
 21
892.33666979715872
 31
0.0
  0
LINE
  5
18D05
  8
YODOROGO
 10
13988.80217064596
 20
873.87474821464343
 30
0.0
 11
13988.80217064596
 21
885.8747482146432
 31
0.0
  0
LINE
  5
18D06
  8
YODOROGO
 10
14000.80217064596
 20
853.87474821464389
 30
0.0
 11
14000.80217064596
 21
841.87474821464343
 31
0.0
  0
LINE
  5
18D08
  8
YODOROGO
 10
14008.80217064596
 20
853.87474821464389
 30
0.0
 11
14000.80217064596
 21
853.87474821464389
 31
0.0
  0
LINE
  5
18D09
  8
YODOROGO
 10
14008.80217064596
 20
841.87474821464343
 30
0.0
 11
14008.80217064596
 21
853.87474821464389
 31
0.0
  0
LINE
  5
18D0A
  8
YODOROGO
 10
14020.456602008449
 20
841.87474821464343
 30
0.0
 11
14008.80217064596
 21
841.87474821464343
 31
0.0
  0
LINE
  5
18D0B
  8
YODOROGO
 10
14000.80217064596
 20
841.87474821464343
 30
0.0
 11
13988.80217064596
 21
841.87474821464343
 31
0.0
  0
LINE
  5
18D0C
  8
YODOROGO
 10
14041.06776011546
 20
853.87474821464389
 30
0.0
 11
14049.06776011546
 21
853.87474821464389
 31
0.0
1001
AUTOCAD_POSTSCRIPT_FIGURE
1002
{
1000
PSFILL
1000
Grayscale
1000
Grayscale
1070
   100
1002
}
  0
LINE
  5
18D0D
  8
YODOROGO
 10
14200.802170645949
 20
912.4388128201532
 30
0.0
 11
14200.802170645949
 21
876.43881282015309
 31
0.0
1001
AUTOCAD_POSTSCRIPT_FIGURE
1002
{
1000
PSFILL
1000
Grayscale
1000
Grayscale
1070
   100
1002
}
  0
LINE
  5
18D0E
  8
YODOROGO
 10
14200.802170645949
 20
958.43881282015366
 30
0.0
 11
14200.802170645949
 21
992.43881282015309
 31
0.0
1001
AUTOCAD_POSTSCRIPT_FIGURE
1002
{
1000
PSFILL
1000
Grayscale
1000
Grayscale
1070
   100
1002
}
  0
LINE
  5
18D0F
  8
YODOROGO
 10
14216.802170645949
 20
909.87474821464389
 30
0.0
 11
14216.802170645949
 21
873.87474821464491
 31
0.0
  0
LINE
  5
18D10
  8
YODOROGO
 10
14248.802170645949
 20
853.87474821464389
 30
0.0
 11
14216.802170645949
 21
853.87474821464389
 31
0.0
  0
LINE
  5
18D11
  8
YODOROGO
 10
14216.802170645949
 20
873.87474821464491
 30
0.0
 11
14292.80217064596
 21
873.87474821464491
 31
0.0
  0
LINE
  5
18D12
  8
YODOROGO
 10
14248.802170645949
 20
933.87474821464389
 30
0.0
 11
14216.802170645949
 21
933.87474821464389
 31
0.0
  0
LINE
  5
18D13
  8
YODOROGO
 10
14248.802170645949
 20
961.8747482146432
 30
0.0
 11
14248.802170645949
 21
933.87474821464389
 31
0.0
  0
LINE
  5
18D14
  8
YODOROGO
 10
14292.80217064596
 20
993.87474821464389
 30
0.0
 11
14292.80217064596
 21
1013.874748214644
 31
0.0
  0
LINE
  5
18D15
  8
YODOROGO
 10
14216.802170645949
 20
993.87474821464389
 30
0.0
 11
14292.80217064596
 21
993.87474821464389
 31
0.0
  0
LINE
  5
18D16
  8
YODOROGO
 10
14216.802170645949
 20
933.87474821464389
 30
0.0
 11
14216.802170645949
 21
993.87474821464389
 31
0.0
  0
LINE
  5
18D17
  8
YODOROGO
 10
14500.802170645949
 20
1013.874748214644
 30
0.0
 11
14500.802170645949
 21
809.87474821464411
 31
0.0
  0
LINE
  5
18D18
  8
YODOROGO
 10
14536.80217064596
 20
789.87474821464411
 30
0.0
 11
14536.80217064596
 21
1013.874748214644
 31
0.0
  0
LINE
  5
18D19
  8
YODOROGO
 10
14630.80217064596
 20
745.87474821464309
 30
0.0
 11
14630.80217064596
 21
1003.874748214644
 31
0.0
  0
LINE
  5
18D1A
  8
YODOROGO
 10
14598.80217064596
 20
1003.874748214644
 30
0.0
 11
14598.80217064596
 21
745.87474821464309
 31
0.0
  0
LINE
  5
18D1B
  8
YODOROGO
 10
14692.80217064596
 20
1013.874748214644
 30
0.0
 11
14692.80217064596
 21
713.87474821464355
 31
0.0
  0
LINE
  5
18D1C
  8
YODOROGO
 10
14728.80217064596
 20
713.87474821464355
 30
0.0
 11
14728.80217064596
 21
1013.874748214644
 31
0.0
  0
LINE
  5
18D1D
  8
YODOROGO
 10
14328.802170645949
 20
833.87474821464389
 30
0.0
 11
14328.802170645949
 21
873.87474821464491
 31
0.0
  0
LINE
  5
18D1E
  8
YODOROGO
 10
14942.80217064596
 20
853.87474821464389
 30
0.0
 11
14942.80217064596
 21
833.87474821464389
 31
0.0
  0
LINE
  5
18D1F
  8
YODOROGO
 10
14942.80217064596
 20
853.87474821464389
 30
0.0
 11
14942.80217064596
 21
833.87474821464389
 31
0.0
  0
ARC
  5
18D20
  8
YODOROGO
 10
14453.455788093421
 20
809.10893222113646
 30
0.0
 40
47.352575589370829
 50
274.0524416290711
 51
0.9266642149310712
  0
ARC
  5
18D21
  8
YODOROGO
 10
14454.593085359909
 20
796.30536430522
 30
0.0
 40
82.460211780427557
 50
271.53512106537778
 51
355.52727750585058
  0
LINE
  5
18D22
  8
YODOROGO
 10
14456.80217064596
 20
761.87474821464343
 30
0.0
 11
14456.80217064596
 21
713.87474821464355
 31
0.0
  0
LINE
  5
18D23
  8
YODOROGO
 10
14396.802170645949
 20
833.87474821464389
 30
0.0
 11
14328.802170645949
 21
833.87474821464389
 31
0.0
  0
LINE
  5
18D24
  8
YODOROGO
 10
14396.802170645949
 20
801.87474821464457
 30
0.0
 11
14396.802170645949
 21
833.87474821464389
 31
0.0
  0
LINE
  5
18D25
  8
YODOROGO
 10
14328.802170645949
 20
801.87474821464457
 30
0.0
 11
14396.802170645949
 21
801.87474821464457
 31
0.0
  0
LINE
  5
18D26
  8
YODOROGO
 10
14328.802170645949
 20
761.87474821464343
 30
0.0
 11
14328.802170645949
 21
801.87474821464457
 31
0.0
  0
LINE
  5
18D27
  8
YODOROGO
 10
14396.802170645949
 20
761.87474821464343
 30
0.0
 11
14328.802170645949
 21
761.87474821464343
 31
0.0
  0
LINE
  5
18D28
  8
YODOROGO
 10
14396.802170645949
 20
713.87474821464355
 30
0.0
 11
14396.802170645949
 21
761.87474821464343
 31
0.0
  0
LINE
  5
18D29
  8
YODOROGO
 10
14598.80217064596
 20
745.87474821464309
 30
0.0
 11
14630.80217064596
 21
745.87474821464309
 31
0.0
  0
LINE
  5
18D2A
  8
YODOROGO
 10
14692.80217064596
 20
713.87474821464355
 30
0.0
 11
14728.80217064596
 21
713.87474821464355
 31
0.0
  0
LINE
  5
18D2B
  8
YODOROGO
 10
14868.80217064596
 20
764.22072608528208
 30
0.0
 11
14868.80217064596
 21
713.87474821464355
 31
0.0
  0
LINE
  5
18D2C
  8
YODOROGO
 10
14808.80217064596
 20
713.87474821464355
 30
0.0
 11
14868.80217064596
 21
764.22072608528208
 31
0.0
  0
LINE
  5
18D2D
  8
YODOROGO
 10
14808.80217064596
 20
773.87474821464389
 30
0.0
 11
14808.80217064596
 21
713.87474821464355
 31
0.0
  0
LINE
  5
18D2E
  8
YODOROGO
 10
14856.47231434973
 20
813.87474821464355
 30
0.0
 11
14808.80217064596
 21
773.87474821464389
 31
0.0
  0
LINE
  5
18D2F
  8
YODOROGO
 10
14808.80217064596
 20
813.87474821464355
 30
0.0
 11
14856.47231434973
 21
813.87474821464355
 31
0.0
  0
LINE
  5
18D30
  8
YODOROGO
 10
14808.80217064596
 20
833.87474821464389
 30
0.0
 11
14808.80217064596
 21
813.87474821464355
 31
0.0
  0
LINE
  5
18D31
  8
YODOROGO
 10
14942.80217064596
 20
833.87474821464389
 30
0.0
 11
14808.80217064596
 21
833.87474821464389
 31
0.0
  0
LINE
  5
18D32
  8
YODOROGO
 10
14958.80217064596
 20
813.87474821464355
 30
0.0
 11
14888.80217064596
 21
813.87474821464355
 31
0.0
  0
LINE
  5
18D33
  8
YODOROGO
 10
14888.80217064596
 20
781.0027187088283
 30
0.0
 11
14885.70493649265
 21
778.403830673117
 31
0.0
  0
LINE
  5
18D34
  8
YODOROGO
 10
14888.80217064596
 20
813.87474821464355
 30
0.0
 11
14888.80217064596
 21
781.0027187088283
 31
0.0
  0
LINE
  5
18D35
  8
YODOROGO
 10
14868.80217064596
 20
764.22072608528208
 30
0.0
 11
14868.80217064596
 21
713.87474821464355
 31
0.0
  0
LINE
  5
18D36
  8
YODOROGO
 10
14808.80217064596
 20
713.87474821464355
 30
0.0
 11
14868.80217064596
 21
764.22072608528208
 31
0.0
  0
LINE
  5
18D37
  8
YODOROGO
 10
14808.80217064596
 20
773.87474821464389
 30
0.0
 11
14808.80217064596
 21
713.87474821464355
 31
0.0
  0
LINE
  5
18D38
  8
YODOROGO
 10
14856.47231434973
 20
813.87474821464355
 30
0.0
 11
14808.80217064596
 21
773.87474821464389
 31
0.0
  0
LINE
  5
18D39
  8
YODOROGO
 10
14808.80217064596
 20
813.87474821464355
 30
0.0
 11
14856.47231434973
 21
813.87474821464355
 31
0.0
  0
LINE
  5
18D3A
  8
YODOROGO
 10
14808.80217064596
 20
833.87474821464389
 30
0.0
 11
14808.80217064596
 21
813.87474821464355
 31
0.0
  0
LINE
  5
18D3B
  8
YODOROGO
 10
14942.80217064596
 20
833.87474821464389
 30
0.0
 11
14808.80217064596
 21
833.87474821464389
 31
0.0
  0
LINE
  5
18D3C
  8
YODOROGO
 10
14396.802170645949
 20
873.87474821464491
 30
0.0
 11
14396.802170645949
 21
909.87474821464389
 31
0.0
  0
LINE
  5
18D3D
  8
YODOROGO
 10
14328.802170645949
 20
873.87474821464491
 30
0.0
 11
14396.802170645949
 21
873.87474821464491
 31
0.0
  0
LINE
  5
18D3E
  8
YODOROGO
 10
14364.80217064596
 20
933.87474821464389
 30
0.0
 11
14364.80217064596
 21
961.8747482146432
 31
0.0
  0
LINE
  5
18D3F
  8
YODOROGO
 10
14396.802170645949
 20
933.87474821464389
 30
0.0
 11
14364.80217064596
 21
933.87474821464389
 31
0.0
  0
LINE
  5
18D40
  8
YODOROGO
 10
14396.802170645949
 20
973.87474821464343
 30
0.0
 11
14396.802170645949
 21
933.87474821464389
 31
0.0
  0
ARC
  5
18D41
  8
YODOROGO
 10
14376.802170645949
 20
973.87474821464343
 30
0.0
 40
20.0
 50
0.0
 51
90.0
  0
LINE
  5
18D42
  8
YODOROGO
 10
14328.80217064596
 20
993.87474821464389
 30
0.0
 11
14376.802170645949
 21
993.87474821464389
 31
0.0
  0
LINE
  5
18D43
  8
YODOROGO
 10
14328.80217064596
 20
1013.874748214644
 30
0.0
 11
14328.80217064596
 21
993.87474821464389
 31
0.0
  0
LINE
  5
18D44
  8
YODOROGO
 10
14536.80217064596
 20
1013.874748214644
 30
0.0
 11
14500.802170645949
 21
1013.874748214644
 31
0.0
  0
LINE
  5
18D45
  8
YODOROGO
 10
14630.80217064596
 20
1003.874748214644
 30
0.0
 11
14598.80217064596
 21
1003.874748214644
 31
0.0
  0
LINE
  5
18D46
  8
YODOROGO
 10
14728.80217064596
 20
1013.874748214644
 30
0.0
 11
14692.80217064596
 21
1013.874748214644
 31
0.0
  0
LINE
  5
18D47
  8
YODOROGO
 10
14836.80217064596
 20
853.87474821464389
 30
0.0
 11
14836.80217064596
 21
885.87474821464423
 31
0.0
1001
AUTOCAD_POSTSCRIPT_FIGURE
1002
{
1000
PSFILL
1000
Grayscale
1000
Grayscale
1070
    25
1002
}
  0
LINE
  5
18D48
  8
YODOROGO
 10
14808.80217064596
 20
853.87474821464389
 30
0.0
 11
14836.80217064596
 21
853.87474821464389
 31
0.0
1001
AUTOCAD_POSTSCRIPT_FIGURE
1002
{
1000
PSFILL
1000
Grayscale
1000
Grayscale
1070
    25
1002
}
  0
LINE
  5
18D49
  8
YODOROGO
 10
14808.80217064596
 20
909.87474821464389
 30
0.0
 11
14808.80217064596
 21
853.87474821464389
 31
0.0
1001
AUTOCAD_POSTSCRIPT_FIGURE
1002
{
1000
PSFILL
1000
Grayscale
1000
Grayscale
1070
    25
1002
}
  0
LINE
  5
18D4A
  8
YODOROGO
 10
14882.80217064596
 20
909.87474821464389
 30
0.0
 11
14808.80217064596
 21
909.87474821464389
 31
0.0
1001
AUTOCAD_POSTSCRIPT_FIGURE
1002
{
1000
PSFILL
1000
Grayscale
1000
Grayscale
1070
    25
1002
}
  0
LINE
  5
18D4B
  8
YODOROGO
 10
14882.80217064596
 20
929.874748214644
 30
0.0
 11
14882.80217064596
 21
909.87474821464389
 31
0.0
1001
AUTOCAD_POSTSCRIPT_FIGURE
1002
{
1000
PSFILL
1000
Grayscale
1000
Grayscale
1070
    25
1002
}
  0
LINE
  5
18D4C
  8
YODOROGO
 10
14808.80217064596
 20
929.874748214644
 30
0.0
 11
14882.80217064596
 21
929.874748214644
 31
0.0
1001
AUTOCAD_POSTSCRIPT_FIGURE
1002
{
1000
PSFILL
1000
Grayscale
1000
Grayscale
1070
    25
1002
}
  0
LINE
  5
18D4D
  8
YODOROGO
 10
14808.80217064596
 20
953.874748214644
 30
0.0
 11
14808.80217064596
 21
929.874748214644
 31
0.0
1001
AUTOCAD_POSTSCRIPT_FIGURE
1002
{
1000
PSFILL
1000
Grayscale
1000
Grayscale
1070
    25
1002
}
  0
LINE
  5
18D4E
  8
YODOROGO
 10
14882.80217064596
 20
953.874748214644
 30
0.0
 11
14808.80217064596
 21
953.874748214644
 31
0.0
1001
AUTOCAD_POSTSCRIPT_FIGURE
1002
{
1000
PSFILL
1000
Grayscale
1000
Grayscale
1070
    25
1002
}
  0
LINE
  5
18D4F
  8
YODOROGO
 10
14882.80217064596
 20
973.87474821464343
 30
0.0
 11
14882.80217064596
 21
953.874748214644
 31
0.0
1001
AUTOCAD_POSTSCRIPT_FIGURE
1002
{
1000
PSFILL
1000
Grayscale
1000
Grayscale
1070
    25
1002
}
  0
LINE
  5
18D50
  8
YODOROGO
 10
14808.80217064596
 20
973.87474821464343
 30
0.0
 11
14882.80217064596
 21
973.87474821464343
 31
0.0
1001
AUTOCAD_POSTSCRIPT_FIGURE
1002
{
1000
PSFILL
1000
Grayscale
1000
Grayscale
1070
    25
1002
}
  0
LINE
  5
18D51
  8
YODOROGO
 10
14808.80217064596
 20
1013.874748214644
 30
0.0
 11
14808.80217064596
 21
973.87474821464343
 31
0.0
1001
AUTOCAD_POSTSCRIPT_FIGURE
1002
{
1000
PSFILL
1000
Grayscale
1000
Grayscale
1070
    25
1002
}
  0
LINE
  5
18D52
  8
YODOROGO
 10
14832.80217064596
 20
1013.874748214644
 30
0.0
 11
14808.80217064596
 21
1013.874748214644
 31
0.0
1001
AUTOCAD_POSTSCRIPT_FIGURE
1002
{
1000
PSFILL
1000
Grayscale
1000
Grayscale
1070
    25
1002
}
  0
LINE
  5
18D53
  8
YODOROGO
 10
14832.80217064596
 20
997.87474821464355
 30
0.0
 11
14832.80217064596
 21
1013.874748214644
 31
0.0
1001
AUTOCAD_POSTSCRIPT_FIGURE
1002
{
1000
PSFILL
1000
Grayscale
1000
Grayscale
1070
    25
1002
}
  0
LINE
  5
18D54
  8
YODOROGO
 10
14882.80217064596
 20
997.87474821464355
 30
0.0
 11
14832.80217064596
 21
997.87474821464355
 31
0.0
1001
AUTOCAD_POSTSCRIPT_FIGURE
1002
{
1000
PSFILL
1000
Grayscale
1000
Grayscale
1070
    25
1002
}
  0
LINE
  5
18D55
  8
YODOROGO
 10
14882.80217064596
 20
1013.874748214644
 30
0.0
 11
14882.80217064596
 21
997.87474821464355
 31
0.0
1001
AUTOCAD_POSTSCRIPT_FIGURE
1002
{
1000
PSFILL
1000
Grayscale
1000
Grayscale
1070
    25
1002
}
  0
LINE
  5
18D56
  8
YODOROGO
 10
14914.80217064596
 20
1013.874748214644
 30
0.0
 11
14882.80217064596
 21
1013.874748214644
 31
0.0
1001
AUTOCAD_POSTSCRIPT_FIGURE
1002
{
1000
PSFILL
1000
Grayscale
1000
Grayscale
1070
    25
1002
}
  0
LINE
  5
18D57
  8
YODOROGO
 10
14914.80217064596
 20
997.87474821464355
 30
0.0
 11
14914.80217064596
 21
1013.874748214644
 31
0.0
1001
AUTOCAD_POSTSCRIPT_FIGURE
1002
{
1000
PSFILL
1000
Grayscale
1000
Grayscale
1070
    25
1002
}
  0
LINE
  5
18D58
  8
YODOROGO
 10
14914.80217064596
 20
953.874748214644
 30
0.0
 11
14914.80217064596
 21
973.87474821464343
 31
0.0
1001
AUTOCAD_POSTSCRIPT_FIGURE
1002
{
1000
PSFILL
1000
Grayscale
1000
Grayscale
1070
    25
1002
}
  0
LINE
  5
18D59
  8
YODOROGO
 10
14914.80217064596
 20
909.87474821464389
 30
0.0
 11
14914.80217064596
 21
929.874748214644
 31
0.0
1001
AUTOCAD_POSTSCRIPT_FIGURE
1002
{
1000
PSFILL
1000
Grayscale
1000
Grayscale
1070
    25
1002
}
  0
LINE
  5
18D5A
  8
YODOROGO
 10
14960.802170645949
 20
885.87474821464423
 30
0.0
 11
14960.802170645949
 21
853.87474821464389
 31
0.0
1001
AUTOCAD_POSTSCRIPT_FIGURE
1002
{
1000
PSFILL
1000
Grayscale
1000
Grayscale
1070
    25
1002
}
  0
LINE
  5
18D5B
  8
YODOROGO
 10
14914.80217064596
 20
885.87474821464423
 30
0.0
 11
14960.802170645949
 21
885.87474821464423
 31
0.0
1001
AUTOCAD_POSTSCRIPT_FIGURE
1002
{
1000
PSFILL
1000
Grayscale
1000
Grayscale
1070
    25
1002
}
  0
LINE
  5
18D5C
  8
YODOROGO
 10
14914.80217064596
 20
853.87474821464389
 30
0.0
 11
14914.80217064596
 21
885.87474821464423
 31
0.0
1001
AUTOCAD_POSTSCRIPT_FIGURE
1002
{
1000
PSFILL
1000
Grayscale
1000
Grayscale
1070
    25
1002
}
  0
LINE
  5
18D5D
  8
YODOROGO
 10
14882.80217064596
 20
853.87474821464389
 30
0.0
 11
14914.80217064596
 21
853.87474821464389
 31
0.0
1001
AUTOCAD_POSTSCRIPT_FIGURE
1002
{
1000
PSFILL
1000
Grayscale
1000
Grayscale
1070
    25
1002
}
  0
LINE
  5
18D5E
  8
YODOROGO
 10
14882.80217064596
 20
885.87474821464423
 30
0.0
 11
14882.80217064596
 21
853.87474821464389
 31
0.0
1001
AUTOCAD_POSTSCRIPT_FIGURE
1002
{
1000
PSFILL
1000
Grayscale
1000
Grayscale
1070
    25
1002
}
  0
LINE
  5
18D5F
  8
YODOROGO
 10
14836.80217064596
 20
885.87474821464423
 30
0.0
 11
14882.80217064596
 21
885.87474821464423
 31
0.0
1001
AUTOCAD_POSTSCRIPT_FIGURE
1002
{
1000
PSFILL
1000
Grayscale
1000
Grayscale
1070
    25
1002
}
  0
ARC
  5
18D60
  8
YODOROGO
 10
15529.75894667896
 20
801.34036875778816
 30
0.0
 40
89.110640555360774
 50
281.02627495425349
 51
357.77113575573799
  0
LINE
  5
18D61
  8
YODOROGO
 10
15706.80217064596
 20
953.874748214644
 30
0.0
 11
15582.80217064596
 21
953.874748214644
 31
0.0
  0
LINE
  5
18D62
  8
YODOROGO
 10
15706.80217064596
 20
1013.874748214644
 30
0.0
 11
15582.80217064596
 21
1013.874748214644
 31
0.0
  0
LINE
  5
18D63
  8
YODOROGO
 10
15582.80217064596
 20
981.87474821464343
 30
0.0
 11
15706.80217064596
 21
981.87474821464343
 31
0.0
  0
LINE
  5
18D64
  8
YODOROGO
 10
15395.80217064596
 20
781.87474821464343
 30
0.0
 11
15395.80217064596
 21
877.87474821464366
 31
0.0
  0
LINE
  5
18D65
  8
YODOROGO
 10
15381.80217064596
 20
845.87474821464446
 30
0.0
 11
15381.80217064596
 21
781.87474821464343
 31
0.0
  0
LINE
  5
18D66
  8
YODOROGO
 10
15361.80217064596
 20
745.87474821464434
 30
0.0
 11
15361.80217064596
 21
845.87474821464446
 31
0.0
  0
LINE
  5
18D67
  8
YODOROGO
 10
15449.80217064596
 20
845.87474821464446
 30
0.0
 11
15449.80217064596
 21
745.87474821464434
 31
0.0
  0
LINE
  5
18D68
  8
YODOROGO
 10
15429.80217064596
 20
781.87474821464343
 30
0.0
 11
15429.80217064596
 21
845.87474821464446
 31
0.0
  0
LINE
  5
18D69
  8
YODOROGO
 10
15415.80217064596
 20
877.87474821464366
 30
0.0
 11
15415.80217064596
 21
781.87474821464343
 31
0.0
  0
LINE
  5
18D6A
  8
YODOROGO
 10
15486.80217064596
 20
1013.874748214644
 30
0.0
 11
15486.80217064596
 21
733.87474821464366
 31
0.0
  0
LINE
  5
18D6B
  8
YODOROGO
 10
15322.80217064596
 20
713.87474821464355
 30
0.0
 11
15322.80217064596
 21
1013.874748214644
 31
0.0
  0
LINE
  5
18D6C
  8
YODOROGO
 10
15348.80217064596
 20
981.87474821464343
 30
0.0
 11
15348.80217064596
 21
713.87474821464355
 31
0.0
  0
LINE
  5
18D6D
  8
YODOROGO
 10
15462.80217064596
 20
773.87474821464389
 30
0.0
 11
15462.80217064596
 21
981.87474821464343
 31
0.0
  0
LINE
  5
18D6E
  8
YODOROGO
 10
15190.80217064596
 20
813.87474821464355
 30
0.0
 11
15190.80217064596
 21
839.87474821464434
 31
0.0
  0
LINE
  5
18D6F
  8
YODOROGO
 10
15308.80217064596
 20
839.87474821464434
 30
0.0
 11
15308.80217064596
 21
813.87474821464355
 31
0.0
  0
LINE
  5
18D70
  8
YODOROGO
 10
15582.80217064596
 20
953.874748214644
 30
0.0
 11
15582.80217064596
 21
817.87474821464355
 31
0.0
  0
LINE
  5
18D71
  8
YODOROGO
 10
14974.80217064596
 20
833.87474821464389
 30
0.0
 11
14974.80217064596
 21
853.87474821464389
 31
0.0
  0
LINE
  5
18D72
  8
YODOROGO
 10
14974.80217064596
 20
833.87474821464389
 30
0.0
 11
14974.80217064596
 21
853.87474821464389
 31
0.0
  0
ARC
  5
18D73
  8
YODOROGO
 10
15268.80217064596
 20
753.87474821464389
 30
0.0
 40
40.0
 50
270.0
 51
0.0
  0
LINE
  5
18D74
  8
YODOROGO
 10
15284.80217064596
 20
799.87474821464411
 30
0.0
 11
15308.80217064596
 21
799.87474821464411
 31
0.0
  0
LINE
  5
18D75
  8
YODOROGO
 10
15308.80217064596
 20
813.87474821464355
 30
0.0
 11
15264.80217064596
 21
813.87474821464355
 31
0.0
  0
LINE
  5
18D76
  8
YODOROGO
 10
15108.80217064596
 20
833.87474821464389
 30
0.0
 11
14974.80217064596
 21
833.87474821464389
 31
0.0
  0
LINE
  5
18D77
  8
YODOROGO
 10
15108.80217064596
 20
813.87474821464355
 30
0.0
 11
15108.80217064596
 21
833.87474821464389
 31
0.0
  0
LINE
  5
18D78
  8
YODOROGO
 10
15008.80217064596
 20
813.87474821464355
 30
0.0
 11
15108.80217064596
 21
813.87474821464355
 31
0.0
  0
ARC
  5
18D79
  8
YODOROGO
 10
15115.02941435068
 20
934.44285747645131
 30
0.0
 40
160.68881814261411
 50
228.6181454618993
 51
245.660289248906
  0
LINE
  5
18D7A
  8
YODOROGO
 10
15052.80217064596
 20
801.87474821464457
 30
0.0
 11
15048.80217064598
 21
788.03640793495015
 31
0.0
  0
LINE
  5
18D7B
  8
YODOROGO
 10
15094.80217064596
 20
801.87474821464457
 30
0.0
 11
15052.80217064596
 21
801.87474821464457
 31
0.0
  0
LINE
  5
18D7C
  8
YODOROGO
 10
15088.80217064596
 20
775.90886123671339
 30
0.0
 11
15094.80217064596
 21
801.87474821464457
 31
0.0
  0
ARC
  5
18D7D
  8
YODOROGO
 10
15115.029414350231
 20
934.44285747650133
 30
0.0
 40
160.6888181426454
 50
260.60629297969928
 51
267.77903556555862
  0
LINE
  5
18D7E
  8
YODOROGO
 10
15108.80217064596
 20
713.87474821464275
 30
0.0
 11
15108.80217064596
 21
773.87474821464389
 31
0.0
  0
LINE
  5
18D7F
  8
YODOROGO
 10
14968.80217064596
 20
740.66966745775528
 30
0.0
 11
14968.80217064596
 21
797.26554526557072
 31
0.0
  0
LINE
  5
18D80
  8
YODOROGO
 10
15108.80217064596
 20
833.87474821464389
 30
0.0
 11
14974.80217064596
 21
833.87474821464389
 31
0.0
  0
LINE
  5
18D81
  8
YODOROGO
 10
15108.80217064596
 20
813.87474821464355
 30
0.0
 11
15108.80217064596
 21
833.87474821464389
 31
0.0
  0
LINE
  5
18D82
  8
YODOROGO
 10
15008.80217064596
 20
813.87474821464355
 30
0.0
 11
15108.80217064596
 21
813.87474821464355
 31
0.0
  0
ARC
  5
18D83
  8
YODOROGO
 10
15115.02941435068
 20
934.44285747645131
 30
0.0
 40
160.68881814261411
 50
228.6181454618993
 51
245.660289248906
  0
LINE
  5
18D84
  8
YODOROGO
 10
15052.80217064596
 20
801.87474821464457
 30
0.0
 11
15048.80217064598
 21
788.03640793495015
 31
0.0
  0
LINE
  5
18D85
  8
YODOROGO
 10
15094.80217064596
 20
801.87474821464457
 30
0.0
 11
15052.80217064596
 21
801.87474821464457
 31
0.0
  0
LINE
  5
18D86
  8
YODOROGO
 10
15088.80217064596
 20
775.90886123671339
 30
0.0
 11
15094.80217064596
 21
801.87474821464457
 31
0.0
  0
ARC
  5
18D87
  8
YODOROGO
 10
15115.029414350231
 20
934.44285747650133
 30
0.0
 40
160.6888181426454
 50
260.60629297969928
 51
267.77903556555862
  0
LINE
  5
18D88
  8
YODOROGO
 10
15108.80217064596
 20
713.87474821464275
 30
0.0
 11
15108.80217064596
 21
773.87474821464389
 31
0.0
  0
LINE
  5
18D89
  8
YODOROGO
 10
14968.80217064596
 20
740.66966745775528
 30
0.0
 11
14968.80217064596
 21
797.26554526557072
 31
0.0
  0
LINE
  5
18D8A
  8
YODOROGO
 10
15216.80217064596
 20
786.87474821464457
 30
0.0
 11
15190.80217064596
 21
786.87474821464457
 31
0.0
  0
LINE
  5
18D8B
  8
YODOROGO
 10
15216.80217064596
 20
800.8747482146432
 30
0.0
 11
15216.80217064596
 21
786.87474821464457
 31
0.0
  0
LINE
  5
18D8C
  8
YODOROGO
 10
15190.80217064596
 20
800.8747482146432
 30
0.0
 11
15216.80217064596
 21
800.8747482146432
 31
0.0
  0
LINE
  5
18D8D
  8
YODOROGO
 10
15190.80217064596
 20
786.87474821464457
 30
0.0
 11
15190.80217064596
 21
800.8747482146432
 31
0.0
  0
LINE
  5
18D8E
  8
YODOROGO
 10
15214.80217064596
 20
788.87474821464355
 30
0.0
 11
15192.80217064596
 21
788.87474821464355
 31
0.0
  0
LINE
  5
18D8F
  8
YODOROGO
 10
15214.80217064596
 20
798.87474821464389
 30
0.0
 11
15214.80217064596
 21
788.87474821464355
 31
0.0
  0
LINE
  5
18D90
  8
YODOROGO
 10
15192.80217064596
 20
798.87474821464389
 30
0.0
 11
15214.80217064596
 21
798.87474821464389
 31
0.0
  0
LINE
  5
18D91
  8
YODOROGO
 10
15192.80217064596
 20
788.87474821464355
 30
0.0
 11
15192.80217064596
 21
798.87474821464389
 31
0.0
  0
LINE
  5
18D92
  8
YODOROGO
 10
15212.80217064596
 20
790.8747482146432
 30
0.0
 11
15194.80217064596
 21
790.8747482146432
 31
0.0
  0
LINE
  5
18D93
  8
YODOROGO
 10
15212.80217064596
 20
796.87474821464446
 30
0.0
 11
15212.80217064596
 21
790.8747482146432
 31
0.0
  0
LINE
  5
18D94
  8
YODOROGO
 10
15194.80217064596
 20
796.87474821464446
 30
0.0
 11
15212.80217064596
 21
796.87474821464446
 31
0.0
  0
LINE
  5
18D95
  8
YODOROGO
 10
15194.80217064596
 20
790.8747482146432
 30
0.0
 11
15194.80217064596
 21
796.87474821464446
 31
0.0
  0
LINE
  5
18D96
  8
YODOROGO
 10
15210.80217064596
 20
792.87474821464355
 30
0.0
 11
15196.80217064596
 21
792.87474821464355
 31
0.0
  0
LINE
  5
18D97
  8
YODOROGO
 10
15210.80217064596
 20
794.87474821464411
 30
0.0
 11
15210.80217064596
 21
792.87474821464355
 31
0.0
  0
LINE
  5
18D98
  8
YODOROGO
 10
15196.80217064596
 20
794.87474821464411
 30
0.0
 11
15210.80217064596
 21
794.87474821464411
 31
0.0
  0
LINE
  5
18D99
  8
YODOROGO
 10
15196.80217064596
 20
792.87474821464355
 30
0.0
 11
15196.80217064596
 21
794.87474821464411
 31
0.0
  0
LINE
  5
18D9A
  8
YODOROGO
 10
15232.80217064596
 20
813.87474821464355
 30
0.0
 11
15190.80217064596
 21
813.87474821464355
 31
0.0
  0
LINE
  5
18D9B
  8
YODOROGO
 10
15232.80217064596
 20
773.87474821464389
 30
0.0
 11
15232.80217064596
 21
813.87474821464355
 31
0.0
  0
LINE
  5
18D9C
  8
YODOROGO
 10
15190.80217064596
 20
773.87474821464389
 30
0.0
 11
15232.80217064596
 21
773.87474821464389
 31
0.0
  0
LINE
  5
18D9D
  8
YODOROGO
 10
15190.80217064596
 20
713.87474821464355
 30
0.0
 11
15190.80217064596
 21
773.87474821464389
 31
0.0
  0
LINE
  5
18D9E
  8
YODOROGO
 10
15268.80217064596
 20
713.87474821464355
 30
0.0
 11
15190.80217064596
 21
713.87474821464355
 31
0.0
  0
LINE
  5
18D9F
  8
YODOROGO
 10
15284.80217064596
 20
785.8747482146432
 30
0.0
 11
15284.80217064596
 21
799.87474821464411
 31
0.0
  0
ARC
  5
18DA0
  8
YODOROGO
 10
15272.802170645949
 20
785.87474821464571
 30
0.0
 40
12.000000000001871
 50
270.0
 51
359.99999999998778
  0
LINE
  5
18DA1
  8
YODOROGO
 10
15264.80217064596
 20
773.87474821464389
 30
0.0
 11
15272.802170645949
 21
773.87474821464389
 31
0.0
  0
LINE
  5
18DA2
  8
YODOROGO
 10
15264.80217064596
 20
813.87474821464355
 30
0.0
 11
15264.80217064596
 21
773.87474821464389
 31
0.0
  0
LINE
  5
18DA3
  8
YODOROGO
 10
15449.802170645969
 20
773.87474821464389
 30
0.0
 11
15462.80217064596
 21
773.87474821464389
 31
0.0
  0
LINE
  5
18DA4
  8
YODOROGO
 10
15466.80217064596
 20
713.87474821464355
 30
0.0
 11
15449.80217064596
 21
713.87474821464355
 31
0.0
  0
LINE
  5
18DA5
  8
YODOROGO
 10
15381.80217064596
 20
781.87474821464343
 30
0.0
 11
15395.80217064596
 21
781.87474821464343
 31
0.0
  0
LINE
  5
18DA6
  8
YODOROGO
 10
15449.80217064596
 20
745.87474821464434
 30
0.0
 11
15361.80217064596
 21
745.87474821464434
 31
0.0
  0
LINE
  5
18DA7
  8
YODOROGO
 10
15415.80217064596
 20
781.87474821464343
 30
0.0
 11
15429.80217064596
 21
781.87474821464343
 31
0.0
  0
LINE
  5
18DA8
  8
YODOROGO
 10
15449.80217064596
 20
713.87474821464355
 30
0.0
 11
15449.802170645969
 21
773.87474821464389
 31
0.0
  0
LINE
  5
18DA9
  8
YODOROGO
 10
15348.80217064596
 20
713.87474821464355
 30
0.0
 11
15322.80217064596
 21
713.87474821464355
 31
0.0
  0
LINE
  5
18DAA
  8
YODOROGO
 10
15308.80217064596
 20
799.87474821464411
 30
0.0
 11
15308.80217064596
 21
753.87474821464389
 31
0.0
  0
ARC
  5
18DAB
  8
YODOROGO
 10
15466.80217064596
 20
733.87474821464366
 30
0.0
 40
20.0
 50
270.0
 51
0.0
  0
LINE
  5
18DAC
  8
YODOROGO
 10
15546.80217064596
 20
761.87474821464343
 30
0.0
 11
15546.80217064596
 21
713.87474821464355
 31
0.0
  0
ARC
  5
18DAD
  8
YODOROGO
 10
15519.86069778339
 20
818.76569505486668
 30
0.0
 40
62.947778295837708
 50
295.34052442160112
 51
359.18902303418679
  0
LINE
  5
18DAE
  8
YODOROGO
 10
15308.80217064596
 20
929.874748214644
 30
0.0
 11
15248.80217064596
 21
969.87474821464411
 31
0.0
  0
LINE
  5
18DAF
  8
YODOROGO
 10
15248.80217064596
 20
1013.874748214644
 30
0.0
 11
15308.80217064596
 21
973.87474821464343
 31
0.0
  0
LINE
  5
18DB0
  8
YODOROGO
 10
15264.80217064596
 20
839.87474821464434
 30
0.0
 11
15308.80217064596
 21
839.87474821464434
 31
0.0
  0
LINE
  5
18DB1
  8
YODOROGO
 10
15308.80217064596
 20
867.87474821464355
 30
0.0
 11
15264.80217064596
 21
867.87474821464355
 31
0.0
  0
LINE
  5
18DB2
  8
YODOROGO
 10
15190.80217064596
 20
897.87474821464355
 30
0.0
 11
15308.80217064596
 21
897.87474821464355
 31
0.0
  0
LINE
  5
18DB3
  8
YODOROGO
 10
15040.80217064596
 20
1013.874748214644
 30
0.0
 11
15010.80217064596
 21
1013.874748214644
 31
0.0
  0
LINE
  5
18DB4
  8
YODOROGO
 10
15040.80217064596
 20
913.87474821464355
 30
0.0
 11
15040.80217064596
 21
1013.874748214644
 31
0.0
  0
LINE
  5
18DB5
  8
YODOROGO
 10
15010.80217064596
 20
913.87474821464355
 30
0.0
 11
15040.80217064596
 21
913.87474821464355
 31
0.0
  0
LINE
  5
18DB6
  8
YODOROGO
 10
15010.80217064596
 20
1013.874748214644
 30
0.0
 11
15010.80217064596
 21
913.87474821464355
 31
0.0
  0
LINE
  5
18DB7
  8
YODOROGO
 10
15080.80217064596
 20
1013.874748214644
 30
0.0
 11
15108.80217064596
 21
1013.874748214644
 31
0.0
  0
LINE
  5
18DB8
  8
YODOROGO
 10
15080.80217064596
 20
905.87474821464434
 30
0.0
 11
15080.80217064596
 21
1013.874748214644
 31
0.0
  0
ARC
  5
18DB9
  8
YODOROGO
 10
15060.80217064596
 20
905.87474821464434
 30
0.0
 40
20.0
 50
270.0
 51
0.0
  0
LINE
  5
18DBA
  8
YODOROGO
 10
15010.80217064596
 20
885.87474821464423
 30
0.0
 11
15060.80217064596
 21
885.87474821464423
 31
0.0
  0
LINE
  5
18DBB
  8
YODOROGO
 10
15010.80217064596
 20
853.87474821464389
 30
0.0
 11
15010.80217064596
 21
885.87474821464423
 31
0.0
  0
LINE
  5
18DBC
  8
YODOROGO
 10
15068.80217064596
 20
853.87474821464389
 30
0.0
 11
15010.80217064596
 21
853.87474821464389
 31
0.0
  0
ARC
  5
18DBD
  8
YODOROGO
 10
15068.80217064596
 20
893.87474821464389
 30
0.0
 40
40.0
 50
270.0
 51
0.0
  0
LINE
  5
18DBE
  8
YODOROGO
 10
15108.80217064596
 20
1013.874748214644
 30
0.0
 11
15108.80217064596
 21
893.87474821464389
 31
0.0
  0
LINE
  5
18DBF
  8
YODOROGO
 10
14988.80217064596
 20
973.87474821464343
 30
0.0
 11
14988.80217064596
 21
997.87474821464355
 31
0.0
1001
AUTOCAD_POSTSCRIPT_FIGURE
1002
{
1000
PSFILL
1000
Grayscale
1000
Grayscale
1070
    25
1002
}
  0
LINE
  5
18DC0
  8
YODOROGO
 10
14988.80217064596
 20
929.874748214644
 30
0.0
 11
14988.80217064596
 21
953.874748214644
 31
0.0
1001
AUTOCAD_POSTSCRIPT_FIGURE
1002
{
1000
PSFILL
1000
Grayscale
1000
Grayscale
1070
    25
1002
}
  0
LINE
  5
18DC1
  8
YODOROGO
 10
14988.80217064596
 20
853.87474821464389
 30
0.0
 11
14988.80217064596
 21
909.87474821464389
 31
0.0
1001
AUTOCAD_POSTSCRIPT_FIGURE
1002
{
1000
PSFILL
1000
Grayscale
1000
Grayscale
1070
    25
1002
}
  0
LINE
  5
18DC2
  8
YODOROGO
 10
15190.80217064596
 20
953.874748214644
 30
0.0
 11
15248.80217064596
 21
1013.874748214644
 31
0.0
  0
LINE
  5
18DC3
  8
YODOROGO
 10
15190.80217064596
 20
909.87474821464389
 30
0.0
 11
15190.80217064596
 21
953.874748214644
 31
0.0
  0
LINE
  5
18DC4
  8
YODOROGO
 10
15248.80217064596
 20
969.87474821464411
 30
0.0
 11
15190.80217064596
 21
909.87474821464389
 31
0.0
  0
LINE
  5
18DC5
  8
YODOROGO
 10
15232.80217064596
 20
839.87474821464434
 30
0.0
 11
15232.80217064596
 21
867.87474821464355
 31
0.0
  0
LINE
  5
18DC6
  8
YODOROGO
 10
15190.80217064596
 20
839.87474821464434
 30
0.0
 11
15232.80217064596
 21
839.87474821464434
 31
0.0
  0
LINE
  5
18DC7
  8
YODOROGO
 10
15264.80217064596
 20
867.87474821464355
 30
0.0
 11
15264.80217064596
 21
839.87474821464434
 31
0.0
  0
LINE
  5
18DC8
  8
YODOROGO
 10
15190.80217064596
 20
867.87474821464355
 30
0.0
 11
15190.80217064596
 21
897.87474821464355
 31
0.0
  0
LINE
  5
18DC9
  8
YODOROGO
 10
15232.80217064596
 20
867.87474821464355
 30
0.0
 11
15190.80217064596
 21
867.87474821464355
 31
0.0
  0
LINE
  5
18DCA
  8
YODOROGO
 10
15322.80217064596
 20
1013.874748214644
 30
0.0
 11
15486.80217064596
 21
1013.874748214644
 31
0.0
  0
LINE
  5
18DCB
  8
YODOROGO
 10
15462.80217064596
 20
981.87474821464343
 30
0.0
 11
15348.80217064596
 21
981.87474821464343
 31
0.0
  0
LINE
  5
18DCC
  8
YODOROGO
 10
15436.80217064596
 20
909.87474821464389
 30
0.0
 11
15449.80217064596
 21
909.87474821464389
 31
0.0
  0
LINE
  5
18DCD
  8
YODOROGO
 10
15449.80217064596
 20
969.87474821464411
 30
0.0
 11
15436.80217064596
 21
909.87474821464389
 31
0.0
  0
LINE
  5
18DCE
  8
YODOROGO
 10
15425.80217064596
 20
969.87474821464411
 30
0.0
 11
15449.80217064596
 21
969.87474821464411
 31
0.0
  0
LINE
  5
18DCF
  8
YODOROGO
 10
15412.80217064596
 20
909.87474821464389
 30
0.0
 11
15425.80217064596
 21
969.87474821464411
 31
0.0
  0
LINE
  5
18DD0
  8
YODOROGO
 10
15398.80217064596
 20
909.87474821464389
 30
0.0
 11
15412.80217064596
 21
909.87474821464389
 31
0.0
  0
LINE
  5
18DD1
  8
YODOROGO
 10
15385.80217064596
 20
969.87474821464411
 30
0.0
 11
15398.80217064596
 21
909.87474821464389
 31
0.0
  0
LINE
  5
18DD2
  8
YODOROGO
 10
15361.80217064596
 20
969.87474821464411
 30
0.0
 11
15385.80217064596
 21
969.87474821464411
 31
0.0
  0
LINE
  5
18DD3
  8
YODOROGO
 10
15374.80217064596
 20
909.87474821464389
 30
0.0
 11
15361.80217064596
 21
969.87474821464411
 31
0.0
  0
LINE
  5
18DD4
  8
YODOROGO
 10
15361.80217064596
 20
909.87474821464389
 30
0.0
 11
15374.80217064596
 21
909.87474821464389
 31
0.0
  0
LINE
  5
18DD5
  8
YODOROGO
 10
15361.80217064596
 20
877.87474821464366
 30
0.0
 11
15361.80217064596
 21
909.87474821464389
 31
0.0
  0
LINE
  5
18DD6
  8
YODOROGO
 10
15449.80217064596
 20
877.87474821464366
 30
0.0
 11
15361.80217064596
 21
877.87474821464366
 31
0.0
  0
LINE
  5
18DD7
  8
YODOROGO
 10
15449.80217064596
 20
909.87474821464389
 30
0.0
 11
15449.80217064596
 21
877.87474821464366
 31
0.0
  0
LINE
  5
18DD8
  8
YODOROGO
 10
15308.80217064596
 20
973.87474821464343
 30
0.0
 11
15308.80217064596
 21
929.874748214644
 31
0.0
  0
LINE
  5
18DD9
  8
YODOROGO
 10
15395.80217064596
 20
877.87474821464366
 30
0.0
 11
15415.80217064596
 21
877.87474821464366
 31
0.0
  0
LINE
  5
18DDA
  8
YODOROGO
 10
15361.80217064596
 20
845.87474821464446
 30
0.0
 11
15381.80217064596
 21
845.87474821464446
 31
0.0
  0
LINE
  5
18DDB
  8
YODOROGO
 10
15429.80217064596
 20
845.87474821464446
 30
0.0
 11
15449.80217064596
 21
845.87474821464446
 31
0.0
  0
LINE
  5
18DDC
  8
YODOROGO
 10
15308.80217064596
 20
897.87474821464355
 30
0.0
 11
15308.80217064596
 21
867.87474821464355
 31
0.0
  0
LINE
  5
18DDD
  8
YODOROGO
 10
15582.80217064596
 20
1013.874748214644
 30
0.0
 11
15582.80217064596
 21
981.87474821464343
 31
0.0
  0
LINE
  5
18DDE
  8
YODOROGO
 10
15766.80217064596
 20
797.87474821464355
 30
0.0
 11
15766.802170645949
 21
905.87474821464434
 31
0.0
  0
LINE
  5
18DDF
  8
YODOROGO
 10
15730.802170645949
 20
993.87474821464389
 30
0.0
 11
15730.802170645949
 21
817.87474821464355
 31
0.0
  0
LINE
  5
18DE0
  8
YODOROGO
 10
15826.80217064596
 20
713.87474821464355
 30
0.0
 11
15826.802170645949
 21
905.87474821464434
 31
0.0
  0
LINE
  5
18DE1
  8
YODOROGO
 10
15794.80217064596
 20
905.87474821464434
 30
0.0
 11
15794.80217064596
 21
713.87474821464355
 31
0.0
  0
LINE
  5
18DE2
  8
YODOROGO
 10
15618.80217064596
 20
797.87474821464355
 30
0.0
 11
15618.80217064596
 21
853.87474821464389
 31
0.0
  0
ARC
  5
18DE3
  8
YODOROGO
 10
15676.957432558031
 20
803.89517564427877
 30
0.0
 40
90.046224287994292
 50
268.62849102169793
 51
356.16638457330322
  0
LINE
  5
18DE4
  8
YODOROGO
 10
15674.80217064596
 20
763.87474821464355
 30
0.0
 11
15674.80217064596
 21
713.87474821464355
 31
0.0
  0
ARC
  5
18DE5
  8
YODOROGO
 10
15675.759037862281
 20
818.91947850882752
 30
0.0
 40
55.053046491806079
 50
269.00410209305937
 51
358.91264455492478
  0
LINE
  5
18DE6
  8
YODOROGO
 10
15794.80217064596
 20
713.87474821464355
 30
0.0
 11
15826.80217064596
 21
713.87474821464355
 31
0.0
  0
LINE
  5
18DE7
  8
YODOROGO
 10
15766.802170645949
 20
905.87474821464434
 30
0.0
 11
15794.80217064596
 21
905.87474821464434
 31
0.0
  0
LINE
  5
18DE8
  8
YODOROGO
 10
15810.80217064596
 20
993.87474821464389
 30
0.0
 11
15730.802170645949
 21
993.87474821464389
 31
0.0
  0
LINE
  5
18DE9
  8
YODOROGO
 10
15766.802170645949
 20
957.87474821464355
 30
0.0
 11
15830.80217064596
 21
957.87474821464355
 31
0.0
  0
LINE
  5
18DEA
  8
YODOROGO
 10
15850.80217064596
 20
937.87474821464355
 30
0.0
 11
15766.802170645949
 21
937.87474821464355
 31
0.0
  0
LINE
  5
18DEB
  8
YODOROGO
 10
15618.80217064596
 20
889.87474821464434
 30
0.0
 11
15674.80217064596
 21
889.87474821464434
 31
0.0
  0
LINE
  5
18DEC
  8
YODOROGO
 10
15618.80217064596
 20
917.87474821464355
 30
0.0
 11
15618.80217064596
 21
889.87474821464434
 31
0.0
  0
LINE
  5
18DED
  8
YODOROGO
 10
15674.80217064596
 20
917.87474821464355
 30
0.0
 11
15618.80217064596
 21
917.87474821464355
 31
0.0
  0
LINE
  5
18DEE
  8
YODOROGO
 10
15674.80217064596
 20
889.87474821464434
 30
0.0
 11
15674.80217064596
 21
917.87474821464355
 31
0.0
  0
LINE
  5
18DEF
  8
YODOROGO
 10
15766.802170645949
 20
937.87474821464355
 30
0.0
 11
15766.802170645949
 21
957.87474821464355
 31
0.0
  0
LINE
  5
18DF0
  8
YODOROGO
 10
15706.80217064596
 20
853.87474821464389
 30
0.0
 11
15706.80217064596
 21
953.874748214644
 31
0.0
  0
LINE
  5
18DF1
  8
YODOROGO
 10
15618.80217064596
 20
853.87474821464389
 30
0.0
 11
15706.80217064596
 21
853.87474821464389
 31
0.0
  0
LINE
  5
18DF2
  8
YODOROGO
 10
15706.80217064596
 20
981.87474821464343
 30
0.0
 11
15706.80217064596
 21
1013.874748214644
 31
0.0
  0
ARC
  5
18DF3
  8
YODOROGO
 10
15810.80217064596
 20
1001.874748214642
 30
0.0
 40
7.9999999999972706
 50
270.0
 51
0.0000000000081422
  0
LINE
  5
18DF4
  8
YODOROGO
 10
15818.80217064596
 20
1013.874748214644
 30
0.0
 11
15818.80217064596
 21
1001.874748214643
 31
0.0
  0
LINE
  5
18DF5
  8
YODOROGO
 10
15850.80217064596
 20
1013.874748214644
 30
0.0
 11
15818.80217064596
 21
1013.874748214644
 31
0.0
  0
LINE
  5
18DF6
  8
YODOROGO
 10
15850.80217064596
 20
977.87474821464355
 30
0.0
 11
15850.80217064596
 21
1013.874748214644
 31
0.0
  0
ARC
  5
18DF7
  8
YODOROGO
 10
15830.80217064596
 20
977.87474821464355
 30
0.0
 40
20.0
 50
270.0
 51
0.0
  0
LINE
  5
18DF8
  8
YODOROGO
 10
15850.80217064596
 20
905.87474821464434
 30
0.0
 11
15850.80217064596
 21
937.87474821464355
 31
0.0
  0
LINE
  5
18DF9
  8
YODOROGO
 10
15826.802170645949
 20
905.87474821464434
 30
0.0
 11
15850.80217064596
 21
905.87474821464434
 31
0.0
  0
LINE
  5
18DFA
  8
SUNPOU
 10
3969.7970512674619
 20
2711.0848394196018
 30
0.0
 11
3835.4436552667039
 21
2711.0848394196018
 31
0.0
  0
LINE
  5
18DFB
  8
SUNPOU
 10
3969.7970512674619
 20
2551.0848394196018
 30
0.0
 11
3835.4436552667039
 21
2551.0848394196018
 31
0.0
  0
LINE
  5
18DFC
  8
SUNPOU
 10
3880.4436552667039
 20
2696.0848394196018
 30
0.0
 11
3880.4436552667039
 21
2566.0848394196018
 31
0.0
  0
LINE
  5
18DFD
  8
SUNPOU
 10
3880.4436552667039
 20
2551.0848394196018
 30
0.0
 11
3880.4436552667039
 21
2300.3705537053161
 31
0.0
  0
LINE
  5
18E02
  8
SUNPOU
 10
4129.7970512674628
 20
3456.6848394196049
 30
0.0
 11
3613.8540906125859
 21
3456.6848394196049
 31
0.0
  0
LINE
  5
18E03
  8
SUNPOU
 10
3969.7970512674619
 20
2551.0848394196018
 30
0.0
 11
3613.8540906125859
 21
2551.0848394196018
 31
0.0
  0
LINE
  5
18E04
  8
SUNPOU
 10
3658.8540906125859
 20
3441.684839419604
 30
0.0
 11
3658.8540906125859
 21
2566.0848394196018
 31
0.0
  0
LINE
  5
18E08
  8
SUNPOU
 10
7750.1232517911094
 20
2711.0848394196018
 30
0.0
 11
7615.7698557903514
 21
2711.0848394196018
 31
0.0
  0
LINE
  5
18E09
  8
SUNPOU
 10
7750.1232517911094
 20
2551.0848394196018
 30
0.0
 11
7615.7698557903514
 21
2551.0848394196018
 31
0.0
  0
LINE
  5
18E0A
  8
SUNPOU
 10
7660.7698557903523
 20
2696.0848394196018
 30
0.0
 11
7660.7698557903523
 21
2566.0848394196018
 31
0.0
  0
LINE
  5
18E0B
  8
SUNPOU
 10
7660.7698557903523
 20
2551.0848394196018
 30
0.0
 11
7660.7698557903523
 21
2300.3705537053161
 31
0.0
  0
LINE
  5
18E0F
  8
SUNPOU
 10
8230.1232517911103
 20
3456.6848394196049
 30
0.0
 11
7396.8922290321007
 21
3456.6848394196049
 31
0.0
  0
LINE
  5
18E10
  8
SUNPOU
 10
7750.1232517911094
 20
2551.0848394196018
 30
0.0
 11
7396.8922290321007
 21
2551.0848394196018
 31
0.0
  0
LINE
  5
18E11
  8
SUNPOU
 10
7441.8922290320988
 20
3441.684839419604
 30
0.0
 11
7441.8922290320988
 21
2566.0848394196018
 31
0.0
  0
LINE
  5
18E15
  8
SUNPOU
 10
11635.33837406209
 20
3726.3370365845599
 30
0.0
 11
12318.40680314955
 21
3726.3370365845599
 31
0.0
  0
LINE
  5
18E16
  8
SUNPOU
 10
11635.33837406209
 20
3886.3370365845599
 30
0.0
 11
12318.40680314955
 21
3886.3370365845599
 31
0.0
  0
LINE
  5
18E17
  8
SUNPOU
 10
12273.40680314955
 20
3741.3370365845599
 30
0.0
 11
12273.40680314955
 21
3871.3370365845608
 31
0.0
  0
LINE
  5
18E18
  8
SUNPOU
 10
12273.40680314955
 20
3886.3370365845599
 30
0.0
 11
12273.40680314955
 21
4088.4798937274159
 31
0.0
  0
LINE
  5
18E1C
  8
SUNPOU
 10
11635.33837406209
 20
3726.3370365845599
 30
0.0
 11
12318.40680314955
 21
3726.3370365845599
 31
0.0
  0
LINE
  5
18E1D
  8
SUNPOU
 10
11891.33837406209
 20
3618.3370365845608
 30
0.0
 11
12318.40680314955
 21
3618.3370365845608
 31
0.0
  0
LINE
  5
18E1E
  8
SUNPOU
 10
12273.40680314955
 20
3741.3370365845599
 30
0.0
 11
12273.40680314955
 21
3756.3370365845608
 31
0.0
  0
LINE
  5
18E1F
  8
SUNPOU
 10
12273.40680314955
 20
3603.3370365845608
 30
0.0
 11
12273.40680314955
 21
3401.194179441703
 31
0.0
  0
LINE
  5
18E20
  8
SUNPOU
 10
12273.40680314955
 20
3726.3370365845599
 30
0.0
 11
12273.40680314955
 21
3618.3370365845608
 31
0.0
  0
LINE
  5
18E24
  8
SUNPOU
 10
7910.1232517911103
 20
3319.0848394196009
 30
0.0
 11
7615.7698557903532
 21
3319.0848394196009
 31
0.0
  0
LINE
  5
18E25
  8
SUNPOU
 10
7910.1232517911103
 20
3191.0848394195959
 30
0.0
 11
7615.7698557903532
 21
3191.0848394195959
 31
0.0
  0
LINE
  5
18E26
  8
SUNPOU
 10
7660.7698557903523
 20
3304.0848394196
 30
0.0
 11
7660.7698557903523
 21
3206.0848394195959
 31
0.0
  0
LINE
  5
18E2A
  8
SUNPOU
 10
7910.1232517911103
 20
3319.0848394196009
 30
0.0
 11
7615.7698557903514
 21
3319.0848394196009
 31
0.0
  0
LINE
  5
18E2B
  8
SUNPOU
 10
7910.1232517911103
 20
3456.6848394196049
 30
0.0
 11
7615.7698557903514
 21
3456.6848394196049
 31
0.0
  0
LINE
  5
18E2C
  8
SUNPOU
 10
7660.7698557903523
 20
3334.0848394196
 30
0.0
 11
7660.7698557903523
 21
3441.684839419604
 31
0.0
  0
LINE
  5
18E2D
  8
SUNPOU
 10
7660.7698557903523
 20
3456.6848394196049
 30
0.0
 11
7660.7698557903523
 21
3658.8276965624618
 31
0.0
  0
LINE
  5
18E31
  8
SUNPOU
 10
7750.1232517911094
 20
2711.0848394196018
 30
0.0
 11
7615.7698557903514
 21
2711.0848394196018
 31
0.0
  0
LINE
  5
18E32
  8
SUNPOU
 10
7910.1232517911103
 20
3191.0848394195959
 30
0.0
 11
7615.7698557903514
 21
3191.0848394195959
 31
0.0
  0
LINE
  5
18E33
  8
SUNPOU
 10
7660.7698557903523
 20
2726.0848394196018
 30
0.0
 11
7660.7698557903523
 21
3176.0848394195959
 31
0.0
  0
LINE
  5
18E37
  8
SUNPOU
 10
11506.36032602548
 20
9489.5127029417781
 30
0.0
 11
11921.36032602548
 21
9489.5127029417781
 31
0.0
  0
LINE
  5
18E38
  8
SUNPOU
 10
11651.36032602548
 20
9289.5127029417763
 30
0.0
 11
11921.36032602548
 21
9289.5127029417763
 31
0.0
  0
LINE
  5
18E39
  8
SUNPOU
 10
11876.36032602548
 20
9474.5127029417781
 30
0.0
 11
11876.36032602548
 21
9304.5127029417781
 31
0.0
  0
LINE
  5
18E3A
  8
SUNPOU
 10
11876.36032602548
 20
9289.5127029417763
 30
0.0
 11
11876.36032602548
 21
9030.2269886560662
 31
0.0
  0
LINE
  5
18E3E
  8
SUNPOU
 10
11506.36032602548
 20
9489.5127029417781
 30
0.0
 11
11921.36032602548
 21
9489.5127029417781
 31
0.0
  0
LINE
  5
18E3F
  8
SUNPOU
 10
11506.36032602548
 20
9689.5127029417781
 30
0.0
 11
11921.36032602548
 21
9689.5127029417781
 31
0.0
  0
LINE
  5
18E40
  8
SUNPOU
 10
11876.36032602548
 20
9504.5127029417781
 30
0.0
 11
11876.36032602548
 21
9674.5127029417818
 31
0.0
  0
LINE
  5
18E41
  8
SUNPOU
 10
11876.36032602548
 20
9689.5127029417781
 30
0.0
 11
11876.36032602548
 21
9948.7984172274937
 31
0.0
  0
LINE
  5
18E45
  8
SUNPOU
 10
11781.33837406209
 20
2470.1443440531498
 30
0.0
 11
11781.33837406209
 21
2200.8049767160851
 31
0.0
  0
LINE
  5
18E46
  8
SUNPOU
 10
11861.33837406209
 20
2510.1443440531489
 30
0.0
 11
11861.33837406209
 21
2200.8049767160851
 31
0.0
  0
LINE
  5
18E47
  8
SUNPOU
 10
11766.33837406209
 20
2245.8049767160851
 30
0.0
 11
11751.33837406209
 21
2245.8049767160851
 31
0.0
  0
LINE
  5
18E48
  8
SUNPOU
 10
11876.33837406209
 20
2245.8049767160851
 30
0.0
 11
12078.481231204951
 21
2245.8049767160851
 31
0.0
  0
LINE
  5
18E49
  8
SUNPOU
 10
11781.33837406209
 20
2245.8049767160851
 30
0.0
 11
11861.33837406209
 21
2245.8049767160851
 31
0.0
  0
LINE
  5
18E4D
  8
SUNPOU
 10
11301.33837406211
 20
2470.1443440531498
 30
0.0
 11
11301.33837406211
 21
2200.8049767160851
 31
0.0
  0
LINE
  5
18E4E
  8
SUNPOU
 10
11781.33837406209
 20
2470.1443440531498
 30
0.0
 11
11781.33837406209
 21
2200.8049767160851
 31
0.0
  0
LINE
  5
18E4F
  8
SUNPOU
 10
11316.33837406211
 20
2245.8049767160851
 30
0.0
 11
11766.33837406209
 21
2245.8049767160851
 31
0.0
  0
LINE
  5
18E53
  8
SUNPOU
 10
11301.33837406211
 20
2470.1443440531498
 30
0.0
 11
11301.33837406211
 21
2200.8049767160851
 31
0.0
  0
LINE
  5
18E54
  8
SUNPOU
 10
11221.33837406209
 20
2510.1443440531489
 30
0.0
 11
11221.33837406209
 21
2200.8049767160851
 31
0.0
  0
LINE
  5
18E55
  8
SUNPOU
 10
11316.33837406211
 20
2245.8049767160851
 30
0.0
 11
11331.33837406211
 21
2245.8049767160851
 31
0.0
  0
LINE
  5
18E56
  8
SUNPOU
 10
11206.33837406209
 20
2245.8049767160851
 30
0.0
 11
11004.195516919241
 21
2245.8049767160851
 31
0.0
  0
LINE
  5
18E57
  8
SUNPOU
 10
11301.33837406211
 20
2245.8049767160851
 30
0.0
 11
11221.33837406209
 21
2245.8049767160851
 31
0.0
  0
LINE
  5
18E5B
  8
SUNPOU
 10
11221.33837406209
 20
2510.1443440531489
 30
0.0
 11
11221.33837406209
 21
1990.804976716086
 31
0.0
  0
LINE
  5
18E5C
  8
SUNPOU
 10
11861.33837406209
 20
2510.1443440531489
 30
0.0
 11
11861.33837406209
 21
1990.804976716086
 31
0.0
  0
LINE
  5
18E5D
  8
SUNPOU
 10
11236.33837406209
 20
2035.804976716086
 30
0.0
 11
11846.33837406209
 21
2035.804976716086
 31
0.0
  0
LINE
  5
18E61
  8
SUNPOU
 10
11195.33837406209
 20
2700.1443440531489
 30
0.0
 11
10873.33837406209
 21
2700.1443440531489
 31
0.0
  0
LINE
  5
18E62
  8
SUNPOU
 10
11191.33837406209
 20
2540.1443440531498
 30
0.0
 11
10873.33837406209
 21
2540.1443440531498
 31
0.0
  0
LINE
  5
18E63
  8
SUNPOU
 10
10918.33837406209
 20
2685.1443440531511
 30
0.0
 11
10918.33837406209
 21
2555.1443440531489
 31
0.0
  0
LINE
  5
18E64
  8
SUNPOU
 10
10918.33837406209
 20
2540.1443440531498
 30
0.0
 11
10918.33837406209
 21
2338.001486910292
 31
0.0
  0
LINE
  5
18E68
  8
SUNPOU
 10
11195.33837406209
 20
2700.1443440531489
 30
0.0
 11
10873.33837406209
 21
2700.1443440531489
 31
0.0
  0
LINE
  5
18E69
  8
SUNPOU
 10
11191.33837406209
 20
2860.1443440531498
 30
0.0
 11
10873.33837406209
 21
2860.1443440531498
 31
0.0
  0
LINE
  5
18E6A
  8
SUNPOU
 10
10918.33837406209
 20
2715.1443440531489
 30
0.0
 11
10918.33837406209
 21
2845.1443440531498
 31
0.0
  0
LINE
  5
18E6B
  8
SUNPOU
 10
10918.33837406209
 20
2860.1443440531498
 30
0.0
 11
10918.33837406209
 21
3062.2872011960071
 31
0.0
  0
LINE
  5
18E6F
  8
SUNPOU
 10
11191.33837406209
 20
2540.1443440531498
 30
0.0
 11
10663.33837406209
 21
2540.1443440531498
 31
0.0
  0
LINE
  5
18E70
  8
SUNPOU
 10
11191.33837406209
 20
2860.1443440531498
 30
0.0
 11
10663.33837406209
 21
2860.1443440531498
 31
0.0
  0
LINE
  5
18E71
  8
SUNPOU
 10
10708.33837406209
 20
2555.1443440531489
 30
0.0
 11
10708.33837406209
 21
2845.1443440531498
 31
0.0
  0
LINE
  5
18E75
  8
SUNPOU
 10
11781.33837406209
 20
3548.3370365845599
 30
0.0
 11
11781.33837406209
 21
3349.170862655058
 31
0.0
  0
LINE
  5
18E76
  8
SUNPOU
 10
11861.33837406209
 20
3588.3370365845622
 30
0.0
 11
11861.33837406209
 21
3349.170862655058
 31
0.0
  0
LINE
  5
18E77
  8
SUNPOU
 10
11766.33837406209
 20
3394.170862655058
 30
0.0
 11
11751.33837406209
 21
3394.170862655058
 31
0.0
  0
LINE
  5
18E78
  8
SUNPOU
 10
11876.33837406209
 20
3394.170862655058
 30
0.0
 11
12078.481231204951
 21
3394.170862655058
 31
0.0
  0
LINE
  5
18E79
  8
SUNPOU
 10
11781.33837406209
 20
3394.170862655058
 30
0.0
 11
11861.33837406209
 21
3394.170862655058
 31
0.0
  0
LINE
  5
18E7D
  8
SUNPOU
 10
11301.33837406211
 20
3548.3370365845599
 30
0.0
 11
11301.33837406211
 21
3349.170862655058
 31
0.0
  0
LINE
  5
18E7E
  8
SUNPOU
 10
11781.33837406209
 20
3548.3370365845599
 30
0.0
 11
11781.33837406209
 21
3349.170862655058
 31
0.0
  0
LINE
  5
18E7F
  8
SUNPOU
 10
11316.33837406211
 20
3394.170862655058
 30
0.0
 11
11766.33837406209
 21
3394.170862655058
 31
0.0
  0
LINE
  5
18E83
  8
SUNPOU
 10
11301.33837406211
 20
3548.3370365845599
 30
0.0
 11
11301.33837406211
 21
3349.170862655058
 31
0.0
  0
LINE
  5
18E84
  8
SUNPOU
 10
11221.33837406209
 20
3588.3370365845622
 30
0.0
 11
11221.33837406209
 21
3349.170862655058
 31
0.0
  0
LINE
  5
18E85
  8
SUNPOU
 10
11316.33837406211
 20
3394.170862655058
 30
0.0
 11
11331.33837406211
 21
3394.170862655058
 31
0.0
  0
LINE
  5
18E86
  8
SUNPOU
 10
11206.33837406209
 20
3394.170862655058
 30
0.0
 11
11004.195516919241
 21
3394.170862655058
 31
0.0
  0
LINE
  5
18E87
  8
SUNPOU
 10
11301.33837406211
 20
3394.170862655058
 30
0.0
 11
11221.33837406209
 21
3394.170862655058
 31
0.0
  0
LINE
  5
18E8B
  8
SUNPOU
 10
11221.33837406209
 20
3588.3370365845622
 30
0.0
 11
11221.33837406209
 21
3139.170862655058
 31
0.0
  0
LINE
  5
18E8C
  8
SUNPOU
 10
11861.33837406209
 20
3588.3370365845622
 30
0.0
 11
11861.33837406209
 21
3139.170862655058
 31
0.0
  0
LINE
  5
18E8D
  8
SUNPOU
 10
11236.33837406209
 20
3184.170862655058
 30
0.0
 11
11846.33837406209
 21
3184.170862655058
 31
0.0
  0
LINE
  5
18E91
  8
SUNPOU
 10
7940.1232517911112
 20
2681.0848394196059
 30
0.0
 11
7940.1232517911112
 21
2103.6848394196049
 31
0.0
  0
LINE
  5
18E92
  8
SUNPOU
 10
9220.1232517911121
 20
2681.0848394196059
 30
0.0
 11
9220.1232517911121
 21
2103.6848394196049
 31
0.0
  0
LINE
  5
18E93
  8
SUNPOU
 10
7955.1232517911112
 20
2148.6848394196049
 30
0.0
 11
9205.1232517911121
 21
2148.6848394196049
 31
0.0
  0
LINE
  5
18E97
  8
SUNPOU
 10
7780.1232517911094
 20
2521.0848394196018
 30
0.0
 11
7780.1232517911094
 21
1893.6848394196049
 31
0.0
  0
LINE
  5
18E98
  8
SUNPOU
 10
9380.1232517911085
 20
2521.0848394196018
 30
0.0
 11
9380.1232517911085
 21
1893.6848394196049
 31
0.0
  0
LINE
  5
18E99
  8
SUNPOU
 10
7795.1232517911076
 20
1938.6848394196049
 30
0.0
 11
9365.1232517911085
 21
1938.6848394196049
 31
0.0
  0
LINE
  5
18E9D
  8
SUNPOU
 10
7270.7698557903514
 20
3376.6848394196081
 30
0.0
 11
7285.7698557903523
 21
3376.6848394196081
 31
0.0
  0
LINE
  5
18E9E
  8
SUNPOU
 10
8230.1232517911103
 20
3456.6848394196049
 30
0.0
 11
7195.7698557903514
 21
3456.6848394196049
 31
0.0
  0
LINE
  5
18E9F
  8
SUNPOU
 10
7240.7698557903514
 20
3361.6848394196081
 30
0.0
 11
7240.7698557903514
 21
3346.684839419609
 31
0.0
  0
LINE
  5
18EA0
  8
SUNPOU
 10
7240.7698557903514
 20
3471.684839419604
 30
0.0
 11
7240.7698557903514
 21
3673.8276965624609
 31
0.0
  0
LINE
  5
18EA1
  8
SUNPOU
 10
7240.7698557903514
 20
3376.6848394196081
 30
0.0
 11
7240.7698557903514
 21
3456.6848394196049
 31
0.0
  0
LINE
  5
18EA5
  8
SUNPOU
 10
10125.35375904136
 20
4130.4854115561957
 30
0.0
 11
10065.35375904134
 21
4130.4854115561957
 31
0.0
  0
LINE
  5
18EA6
  8
SUNPOU
 10
10125.353759041351
 20
4130.4854115561957
 30
0.0
 11
10065.353759041351
 21
4146.5623631020662
 31
0.0
  0
LINE
  5
18EA7
  8
SUNPOU
 10
10125.35375904136
 20
4130.4854115561957
 30
0.0
 11
10065.35375904134
 21
4114.4084600103261
 31
0.0
  0
LINE
  5
18EA8
  8
SUNPOU
 10
10065.35375904136
 20
4130.4854115561957
 30
0.0
 11
10005.35375904134
 21
4130.4854115561957
 31
0.0
  0
LINE
  5
18EA9
  8
SUNPOU
 10
10065.353759041351
 20
4130.4854115561957
 30
0.0
 11
10005.353759041351
 21
4146.5623631020662
 31
0.0
  0
LINE
  5
18EAA
  8
SUNPOU
 10
10065.35375904136
 20
4130.4854115561957
 30
0.0
 11
10005.35375904134
 21
4114.4084600103261
 31
0.0
  0
LINE
  5
18EAB
  8
SUNPOU
 10
8580.1232517911103
 20
4160.4854115561939
 30
0.0
 11
8580.1232517911103
 21
4175.4854115561939
 31
0.0
  0
LINE
  5
18EAC
  8
SUNPOU
 10
8260.1232517911103
 20
3486.6848394196031
 30
0.0
 11
8260.1232517911103
 21
4175.4854115561939
 31
0.0
  0
LINE
  5
18EAD
  8
SUNPOU
 10
8565.1232517911121
 20
4130.4854115561957
 30
0.0
 11
8275.1232517911103
 21
4130.4854115561957
 31
0.0
  0
LINE
  5
18EB1
  8
SUNPOU
 10
4159.7970512674628
 20
2681.0848394196018
 30
0.0
 11
4159.7970512674628
 21
2103.6848394195999
 31
0.0
  0
LINE
  5
18EB2
  8
SUNPOU
 10
5439.7970512674638
 20
2681.0848394196018
 30
0.0
 11
5439.7970512674638
 21
2103.6848394195999
 31
0.0
  0
LINE
  5
18EB3
  8
SUNPOU
 10
4174.7970512674628
 20
2148.6848394196008
 30
0.0
 11
5424.7970512674638
 21
2148.6848394196008
 31
0.0
  0
LINE
  5
18EB7
  8
SUNPOU
 10
3999.7970512674619
 20
2521.0848394196018
 30
0.0
 11
3999.7970512674619
 21
1893.6848394196011
 31
0.0
  0
LINE
  5
18EB8
  8
SUNPOU
 10
5599.797051267461
 20
2521.0848394196018
 30
0.0
 11
5599.797051267461
 21
1893.6848394196011
 31
0.0
  0
LINE
  5
18EB9
  8
SUNPOU
 10
4014.7970512674619
 20
1938.6848394195999
 30
0.0
 11
5584.7970512674619
 21
1938.6848394195999
 31
0.0
  0
LINE
  5
18EBD
  8
SUNPOU
 10
3490.443655266703
 20
3376.684839419604
 30
0.0
 11
3505.4436552667048
 21
3376.684839419604
 31
0.0
  0
LINE
  5
18EBE
  8
SUNPOU
 10
4129.7970512674628
 20
3456.6848394196049
 30
0.0
 11
3415.4436552667048
 21
3456.6848394196049
 31
0.0
  0
LINE
  5
18EBF
  8
SUNPOU
 10
3460.4436552667048
 20
3361.6848394196031
 30
0.0
 11
3460.4436552667048
 21
3346.684839419604
 31
0.0
  0
LINE
  5
18EC0
  8
SUNPOU
 10
3460.4436552667048
 20
3471.6848394196049
 30
0.0
 11
3460.4436552667048
 21
3673.8276965624618
 31
0.0
  0
LINE
  5
18EC1
  8
SUNPOU
 10
3460.4436552667048
 20
3376.684839419604
 30
0.0
 11
3460.4436552667048
 21
3456.6848394196049
 31
0.0
  0
LINE
  5
18EC5
  8
SUNPOU
 10
4129.7970512674628
 20
3319.0848394196009
 30
0.0
 11
3835.4436552667062
 21
3319.0848394196009
 31
0.0
  0
LINE
  5
18EC6
  8
SUNPOU
 10
4129.7970512674628
 20
3191.0848394195959
 30
0.0
 11
3835.4436552667062
 21
3191.0848394195959
 31
0.0
  0
LINE
  5
18EC7
  8
SUNPOU
 10
3880.4436552667062
 20
3304.0848394196
 30
0.0
 11
3880.4436552667062
 21
3206.0848394195959
 31
0.0
  0
LINE
  5
18ECB
  8
SUNPOU
 10
4129.7970512674628
 20
3319.0848394196009
 30
0.0
 11
3835.4436552667039
 21
3319.0848394196009
 31
0.0
  0
LINE
  5
18ECC
  8
SUNPOU
 10
4129.7970512674628
 20
3456.6848394196049
 30
0.0
 11
3835.4436552667039
 21
3456.6848394196049
 31
0.0
  0
LINE
  5
18ECD
  8
SUNPOU
 10
3880.4436552667048
 20
3334.0848394196
 30
0.0
 11
3880.4436552667048
 21
3441.684839419604
 31
0.0
  0
LINE
  5
18ECE
  8
SUNPOU
 10
3880.4436552667048
 20
3456.6848394196049
 30
0.0
 11
3880.4436552667048
 21
3658.8276965624618
 31
0.0
  0
LINE
  5
18ED2
  8
SUNPOU
 10
3969.7970512674619
 20
2711.0848394196018
 30
0.0
 11
3835.4436552667039
 21
2711.0848394196018
 31
0.0
  0
LINE
  5
18ED3
  8
SUNPOU
 10
4129.7970512674628
 20
3191.0848394195959
 30
0.0
 11
3835.4436552667039
 21
3191.0848394195959
 31
0.0
  0
LINE
  5
18ED4
  8
SUNPOU
 10
3880.4436552667039
 20
2726.0848394196018
 30
0.0
 11
3880.4436552667048
 21
3176.0848394195959
 31
0.0
  0
LINE
  5
18ED8
  8
SUNPOU
 10
6345.0275585177124
 20
4130.485411556192
 30
0.0
 11
6285.0275585176996
 21
4130.485411556192
 31
0.0
  0
LINE
  5
18ED9
  8
SUNPOU
 10
6345.027558517706
 20
4130.485411556192
 30
0.0
 11
6285.027558517706
 21
4146.5623631020617
 31
0.0
  0
LINE
  5
18EDA
  8
SUNPOU
 10
6345.0275585177124
 20
4130.485411556192
 30
0.0
 11
6285.0275585176996
 21
4114.4084600103233
 31
0.0
  0
LINE
  5
18EDB
  8
SUNPOU
 10
6285.0275585177142
 20
4130.485411556192
 30
0.0
 11
6225.0275585177023
 21
4130.485411556192
 31
0.0
  0
LINE
  5
18EDC
  8
SUNPOU
 10
6285.027558517706
 20
4130.485411556192
 30
0.0
 11
6225.027558517706
 21
4146.5623631020617
 31
0.0
  0
LINE
  5
18EDD
  8
SUNPOU
 10
6285.0275585177142
 20
4130.485411556192
 30
0.0
 11
6225.0275585177023
 21
4114.4084600103233
 31
0.0
  0
LINE
  5
18EDE
  8
SUNPOU
 10
4799.7970512674628
 20
4160.485411556192
 30
0.0
 11
4799.7970512674628
 21
4175.4854115561911
 31
0.0
  0
LINE
  5
18EDF
  8
SUNPOU
 10
4159.7970512674628
 20
3486.6848394196049
 30
0.0
 11
4159.7970512674628
 21
4175.4854115561911
 31
0.0
  0
LINE
  5
18EE0
  8
SUNPOU
 10
4784.7970512674628
 20
4130.485411556192
 30
0.0
 11
4174.7970512674628
 21
4130.485411556192
 31
0.0
  0
LINE
  5
18EE5
  8
SUNPOU
 10
12296.36032602548
 20
9678.2627029417781
 30
0.0
 11
12296.36032602548
 21
9667.0127029417799
 31
0.0
  0
LINE
  5
18EE7
  8
SUNPOU
 10
12086.36032602548
 20
9678.2627029417781
 30
0.0
 11
12086.36032602548
 21
9667.0127029417799
 31
0.0
  0
LINE
  5
18EE9
  8
SUNPOU
 10
12086.36032602548
 20
9278.2627029417781
 30
0.0
 11
12086.36032602548
 21
9267.0127029417781
 31
0.0
  0
LINE
  5
18EEB
  8
SUNPOU
 10
12086.36032602548
 20
9300.7627029417781
 30
0.0
 11
12086.36032602548
 21
9312.0127029417781
 31
0.0
  0
LINE
  5
18EED
  8
SUNPOU
 10
12086.36032602548
 20
7500.7627029417772
 30
0.0
 11
12086.36032602548
 21
7512.0127029417781
 31
0.0
  0
LINE
  5
18EEF
  8
SUNPOU
 10
12086.36032602548
 20
7478.2627029417781
 30
0.0
 11
12086.36032602548
 21
7467.0127029417781
 31
0.0
  0
LINE
  5
18EF1
  8
SUNPOU
 10
12296.36032602548
 20
7100.7627029417781
 30
0.0
 11
12296.36032602548
 21
7112.012702941779
 31
0.0
  0
LINE
  5
18EF3
  8
SUNPOU
 10
12086.36032602548
 20
7100.7627029417781
 30
0.0
 11
12086.36032602548
 21
7112.012702941779
 31
0.0
  0
LINE
  5
18EF4
  8
SUNPOU
 10
4986.3603260254777
 20
9854.5127029417818
 30
0.0
 11
5076.3603260254786
 21
9839.5127029417818
 31
0.0
  0
LINE
  5
18EF5
  8
SUNPOU
 10
5076.3603260254786
 20
9839.5127029417818
 30
0.0
 11
4986.3603260254777
 21
9824.5127029417818
 31
0.0
  0
SOLID
  5
18EF6
  8
SUNPOU
 10
4986.3603260254777
 20
9854.5127029417818
 30
0.0
 11
4986.3603260254777
 21
9824.5127029417818
 31
0.0
 12
5076.3603260254786
 22
9839.5127029417818
 32
0.0
 13
5076.3603260254786
 23
9839.5127029417818
 33
0.0
  0
LINE
  5
18EF7
  8
SUNPOU
 10
4986.3603260254777
 20
9824.5127029417818
 30
0.0
 11
4986.3603260254777
 21
9854.5127029417818
 31
0.0
  0
LINE
  5
18EF8
  8
SUNPOU
 10
4986.3603260254777
 20
8724.5127029417763
 30
0.0
 11
5076.3603260254786
 21
8739.5127029417781
 31
0.0
  0
LINE
  5
18EF9
  8
SUNPOU
 10
5076.3603260254786
 20
8739.5127029417781
 30
0.0
 11
4986.3603260254777
 21
8754.5127029417781
 31
0.0
  0
SOLID
  5
18EFA
  8
SUNPOU
 10
4986.3603260254777
 20
8724.5127029417763
 30
0.0
 11
4986.3603260254777
 21
8754.5127029417781
 31
0.0
 12
5076.3603260254786
 22
8739.5127029417781
 32
0.0
 13
5076.3603260254786
 23
8739.5127029417781
 33
0.0
  0
LINE
  5
18EFB
  8
SUNPOU
 10
4986.3603260254777
 20
8754.5127029417781
 30
0.0
 11
4986.3603260254777
 21
8724.5127029417763
 31
0.0
  0
LINE
  5
18EFC
  8
SUNPOU
 10
11076.36032602548
 20
9919.5127029417799
 30
0.0
 11
11076.36032602548
 21
10034.51270294178
 31
0.0
  0
LINE
  5
18EFD
  8
SUNPOU
 10
11476.36032602548
 20
9719.5127029417818
 30
0.0
 11
11476.36032602548
 21
10034.51270294178
 31
0.0
  0
LINE
  5
18EFE
  8
SUNPOU
 10
11091.36032602548
 20
9989.5127029417781
 30
0.0
 11
11461.36032602548
 21
9989.5127029417781
 31
0.0
  0
LINE
  5
18F03
  8
SUNPOU
 10
8615.1103260254786
 20
9989.5127029417781
 30
0.0
 11
8603.8603260254786
 21
9989.5127029417781
 31
0.0
  0
LINE
  5
18F04
  8
SUNPOU
 10
11076.36032602548
 20
9919.5127029417799
 30
0.0
 11
11076.36032602548
 21
10034.51270294178
 31
0.0
  0
LINE
  5
18F05
  8
SUNPOU
 10
8626.3603260254786
 20
9919.5127029417799
 30
0.0
 11
8626.3603260254786
 21
10034.51270294178
 31
0.0
  0
LINE
  5
18F06
  8
SUNPOU
 10
11061.36032602548
 20
9989.5127029417781
 30
0.0
 11
8641.3603260254786
 21
9989.5127029417781
 31
0.0
  0
LINE
  5
18F0A
  8
SUNPOU
 10
9056.3603260254804
 20
7889.5127029417781
 30
0.0
 11
9371.360326025484
 21
7889.5127029417781
 31
0.0
  0
LINE
  5
18F0B
  8
SUNPOU
 10
9056.3603260254804
 20
7089.5127029417781
 30
0.0
 11
9371.360326025484
 21
7089.5127029417781
 31
0.0
  0
LINE
  5
18F0C
  8
SUNPOU
 10
9326.3603260254858
 20
7874.5127029417781
 30
0.0
 11
9326.3603260254858
 21
7104.512702941779
 31
0.0
  0
TEXT
  5
18F10
  8
SUNPOU
 10
7518.6460403111923
 20
10034.51270294178
 30
0.0
 40
90.0
  1
2450 \U+00D7 （ N - 2 ）
 41
0.6666666666666666
  7
00
  0
LINE
  5
18F12
  8
SUNPOU
 10
7237.6103260254786
 20
9989.5127029417781
 30
0.0
 11
7248.8603260254786
 21
9989.5127029417781
 31
0.0
  0
LINE
  5
18F13
  8
SUNPOU
 10
7226.3603260254777
 20
9919.5127029417799
 30
0.0
 11
7226.3603260254777
 21
10034.51270294178
 31
0.0
  0
LINE
  5
18F14
  8
SUNPOU
 10
4776.3603260254777
 20
9919.5127029417799
 30
0.0
 11
4776.3603260254777
 21
10034.51270294178
 31
0.0
  0
LINE
  5
18F15
  8
SUNPOU
 10
7211.3603260254786
 20
9989.5127029417781
 30
0.0
 11
4791.3603260254768
 21
9989.5127029417781
 31
0.0
  0
LINE
  5
18F19
  8
SUNPOU
 10
6826.3603260254777
 20
8859.5127029417781
 30
0.0
 11
6826.3603260254777
 21
8544.5127029417781
 31
0.0
  0
LINE
  5
18F1A
  8
SUNPOU
 10
7626.3603260254777
 20
8859.5127029417781
 30
0.0
 11
7626.3603260254777
 21
8544.5127029417781
 31
0.0
  0
LINE
  5
18F1B
  8
SUNPOU
 10
6841.3603260254786
 20
8589.5127029417781
 30
0.0
 11
7611.3603260254786
 21
8589.5127029417781
 31
0.0
  0
LINE
  5
18F1F
  8
SUNPOU
 10
5401.3603260254777
 20
7699.5127029417781
 30
0.0
 11
5386.3603260254777
 21
7789.5127029417772
 31
0.0
  0
LINE
  5
18F20
  8
SUNPOU
 10
5386.3603260254777
 20
7789.5127029417772
 30
0.0
 11
5371.3603260254768
 21
7699.5127029417781
 31
0.0
  0
SOLID
  5
18F21
  8
SUNPOU
 10
5401.3603260254777
 20
7699.5127029417781
 30
0.0
 11
5371.3603260254768
 21
7699.5127029417781
 31
0.0
 12
5386.3603260254777
 22
7789.5127029417772
 32
0.0
 13
5386.3603260254777
 23
7789.5127029417772
 33
0.0
  0
LINE
  5
18F22
  8
SUNPOU
 10
5371.3603260254768
 20
7699.5127029417781
 30
0.0
 11
5401.3603260254777
 21
7699.5127029417781
 31
0.0
  0
LINE
  5
18F23
  8
SUNPOU
 10
6796.3603260254777
 20
9689.5127029417781
 30
0.0
 11
6481.3603260254777
 21
9689.5127029417781
 31
0.0
  0
LINE
  5
18F24
  8
SUNPOU
 10
6796.3603260254777
 20
8889.5127029417763
 30
0.0
 11
6481.3603260254777
 21
8889.5127029417763
 31
0.0
  0
LINE
  5
18F25
  8
SUNPOU
 10
6526.3603260254777
 20
9674.5127029417818
 30
0.0
 11
6526.3603260254777
 21
8904.5127029417781
 31
0.0
  0
LINE
  5
18F29
  8
SUNPOU
 10
4151.3603260254777
 20
7699.5127029417781
 30
0.0
 11
4166.3603260254768
 21
7789.5127029417772
 31
0.0
  0
LINE
  5
18F2A
  8
SUNPOU
 10
4166.3603260254768
 20
7789.5127029417772
 30
0.0
 11
4181.3603260254786
 21
7699.5127029417781
 31
0.0
  0
SOLID
  5
18F2B
  8
SUNPOU
 10
4151.3603260254777
 20
7699.5127029417781
 30
0.0
 11
4181.3603260254786
 21
7699.5127029417781
 31
0.0
 12
4166.3603260254768
 22
7789.5127029417772
 32
0.0
 13
4166.3603260254768
 23
7789.5127029417772
 33
0.0
  0
LINE
  5
18F2C
  8
SUNPOU
 10
4181.3603260254786
 20
7699.5127029417781
 30
0.0
 11
4151.3603260254777
 21
7699.5127029417781
 31
0.0
  0
LINE
  5
18F2D
  8
SUNPOU
 10
4776.3603260254777
 20
9919.5127029417799
 30
0.0
 11
4776.3603260254777
 21
10034.51270294178
 31
0.0
  0
LINE
  5
18F2E
  8
SUNPOU
 10
4376.3603260254786
 20
9719.5127029417818
 30
0.0
 11
4376.3603260254786
 21
10034.51270294178
 31
0.0
  0
LINE
  5
18F2F
  8
SUNPOU
 10
4761.3603260254768
 20
9989.5127029417781
 30
0.0
 11
4391.3603260254804
 21
9989.5127029417781
 31
0.0
  0
LINE
  5
18F33
  8
SUNPOU
 10
8226.3603260254786
 20
7919.5127029417772
 30
0.0
 11
8226.3603260254786
 21
8234.5127029417781
 31
0.0
  0
LINE
  5
18F34
  8
SUNPOU
 10
9026.3603260254786
 20
7919.5127029417772
 30
0.0
 11
9026.3603260254786
 21
8234.5127029417781
 31
0.0
  0
LINE
  5
18F35
  8
SUNPOU
 10
8241.3603260254786
 20
8189.5127029417781
 30
0.0
 11
9011.3603260254804
 21
8189.5127029417781
 31
0.0
  0
LINE
  5
18F39
  8
SUNPOU
 10
4376.3603260254786
 20
9719.5127029417818
 30
0.0
 11
4376.3603260254786
 21
10244.51270294178
 31
0.0
  0
LINE
  5
18F3A
  8
SUNPOU
 10
11476.36032602548
 20
9719.5127029417818
 30
0.0
 11
11476.36032602548
 21
10244.51270294178
 31
0.0
  0
LINE
  5
18F3B
  8
SUNPOU
 10
4391.3603260254804
 20
10199.512702941771
 30
0.0
 11
11461.36032602548
 21
10199.512702941771
 31
0.0
  0
TEXT
  5
18F3F
  8
SUNPOU
 10
3835.4436552667039
 20
2328.2276965624601
 30
0.0
 40
90.0
  1
100
 50
90.0
 41
0.6666666666666666
  7
00
  0
LINE
  5
18F41
  8
SUNPOU
 10
3880.4436552667039
 20
2562.3348394196018
 30
0.0
 11
3880.4436552667039
 21
2573.5848394196018
 31
0.0
  0
LINE
  5
18F43
  8
SUNPOU
 10
3880.4436552667039
 20
2699.8348394196018
 30
0.0
 11
3880.4436552667039
 21
2688.5848394196018
 31
0.0
  0
TEXT
  5
18F44
  8
SUNPOU
 10
3613.854090612585
 20
2918.1705537053181
 30
0.0
 40
90.0
  1
560
 50
90.0
 41
0.6666666666666666
  7
00
  0
LINE
  5
18F46
  8
SUNPOU
 10
3658.8540906125859
 20
2562.3348394196018
 30
0.0
 11
3658.8540906125859
 21
2573.5848394196018
 31
0.0
  0
LINE
  5
18F48
  8
SUNPOU
 10
3658.8540906125859
 20
3445.4348394196049
 30
0.0
 11
3658.8540906125859
 21
3434.1848394196049
 31
0.0
  0
TEXT
  5
18F49
  8
SUNPOU
 10
7615.7698557903504
 20
2328.227696562461
 30
0.0
 40
90.0
  1
100
 50
90.0
 41
0.6666666666666666
  7
00
  0
LINE
  5
18F4B
  8
SUNPOU
 10
7660.7698557903523
 20
2562.3348394196018
 30
0.0
 11
7660.7698557903523
 21
2573.5848394196018
 31
0.0
  0
LINE
  5
18F4D
  8
SUNPOU
 10
7660.7698557903523
 20
2699.8348394196018
 30
0.0
 11
7660.7698557903523
 21
2688.5848394196018
 31
0.0
  0
TEXT
  5
18F4E
  8
SUNPOU
 10
7396.892229032097
 20
2918.1705537053199
 30
0.0
 40
90.0
  1
560
 50
90.0
 41
0.6666666666666666
  7
00
  0
LINE
  5
18F50
  8
SUNPOU
 10
7441.8922290320988
 20
2562.3348394196018
 30
0.0
 11
7441.8922290320988
 21
2573.5848394196018
 31
0.0
  0
LINE
  5
18F52
  8
SUNPOU
 10
7441.8922290320988
 20
3445.434839419604
 30
0.0
 11
7441.8922290320988
 21
3434.184839419604
 31
0.0
  0
TEXT
  5
18F53
  8
SUNPOU
 10
12228.40680314955
 20
3937.7656080131351
 30
0.0
 40
90.0
  1
40
 50
90.0
 41
0.6666666666666666
  7
00
  0
LINE
  5
18F55
  8
SUNPOU
 10
12273.40680314955
 20
3875.0870365845622
 30
0.0
 11
12273.40680314955
 21
3863.8370365845599
 31
0.0
  0
LINE
  5
18F57
  8
SUNPOU
 10
12273.40680314955
 20
3737.5870365845622
 30
0.0
 11
12273.40680314955
 21
3748.8370365845608
 31
0.0
  0
TEXT
  5
18F58
  8
SUNPOU
 10
12228.40680314955
 20
3437.6227508702782
 30
0.0
 40
90.0
  1
27
 50
90.0
 41
0.6666666666666666
  7
00
  0
LINE
  5
18F5A
  8
SUNPOU
 10
12273.40680314955
 20
3607.0870365845608
 30
0.0
 11
12273.40680314955
 21
3595.8370365845608
 31
0.0
  0
LINE
  5
18F5C
  8
SUNPOU
 10
12273.40680314955
 20
3737.5870365845622
 30
0.0
 11
12273.40680314955
 21
3748.8370365845608
 31
0.0
  0
TEXT
  5
18F5D
  8
SUNPOU
 10
7615.7698557903514
 20
3197.9419822767441
 30
0.0
 40
90.0
  1
80
 50
90.0
 41
0.6666666666666666
  7
00
  0
LINE
  5
18F5F
  8
SUNPOU
 10
7660.7698557903523
 20
3202.3348394195959
 30
0.0
 11
7660.7698557903523
 21
3213.5848394195959
 31
0.0
  0
LINE
  5
18F61
  8
SUNPOU
 10
7660.7698557903523
 20
3307.8348394196
 30
0.0
 11
7660.7698557903523
 21
3296.5848394196
 31
0.0
  0
TEXT
  5
18F62
  8
SUNPOU
 10
7615.7698557903504
 20
3508.1134108481779
 30
0.0
 40
90.0
  1
80
 50
90.0
 41
0.6666666666666666
  7
00
  0
LINE
  5
18F64
  8
SUNPOU
 10
7660.7698557903523
 20
3445.4348394196049
 30
0.0
 11
7660.7698557903523
 21
3434.1848394196049
 31
0.0
  0
LINE
  5
18F66
  8
SUNPOU
 10
7660.7698557903523
 20
3330.3348394196
 30
0.0
 11
7660.7698557903523
 21
3341.5848394196009
 31
0.0
  0
TEXT
  5
18F67
  8
SUNPOU
 10
7615.7698557903504
 20
2865.3705537053152
 30
0.0
 40
90.0
  1
300
 50
90.0
 41
0.6666666666666666
  7
00
  0
LINE
  5
18F69
  8
SUNPOU
 10
7660.7698557903523
 20
3179.8348394195959
 30
0.0
 11
7660.7698557903523
 21
3168.5848394195959
 31
0.0
  0
LINE
  5
18F6B
  8
SUNPOU
 10
7660.7698557903523
 20
2722.3348394196018
 30
0.0
 11
7660.7698557903523
 21
2733.5848394196018
 31
0.0
  0
TEXT
  5
18F6C
  8
SUNPOU
 10
11831.36032602548
 20
9066.6555600846368
 30
0.0
 40
90.0
  1
200
 50
90.0
 41
0.6666666666666666
  7
00
  0
LINE
  5
18F6E
  8
SUNPOU
 10
11876.36032602548
 20
9300.7627029417781
 30
0.0
 11
11876.36032602548
 21
9312.0127029417781
 31
0.0
  0
LINE
  5
18F70
  8
SUNPOU
 10
11876.36032602548
 20
9478.2627029417781
 30
0.0
 11
11876.36032602548
 21
9467.0127029417781
 31
0.0
  0
TEXT
  5
18F71
  8
SUNPOU
 10
11831.36032602548
 20
9740.9412743703524
 30
0.0
 40
90.0
  1
200
 50
90.0
 41
0.6666666666666666
  7
00
  0
LINE
  5
18F73
  8
SUNPOU
 10
11876.36032602548
 20
9678.2627029417781
 30
0.0
 11
11876.36032602548
 21
9667.0127029417799
 31
0.0
  0
LINE
  5
18F75
  8
SUNPOU
 10
11876.36032602548
 20
9500.7627029417745
 30
0.0
 11
11876.36032602548
 21
9512.0127029417781
 31
0.0
  0
TEXT
  5
18F76
  8
SUNPOU
 10
11927.766945490661
 20
2290.804976716086
 30
0.0
 40
90.0
  1
20
 41
0.6666666666666666
  7
00
  0
LINE
  5
18F78
  8
SUNPOU
 10
11872.58837406209
 20
2245.8049767160851
 30
0.0
 11
11883.83837406209
 21
2245.8049767160851
 31
0.0
  0
LINE
  5
18F7A
  8
SUNPOU
 10
11770.08837406209
 20
2245.8049767160851
 30
0.0
 11
11758.83837406209
 21
2245.8049767160851
 31
0.0
  0
TEXT
  5
18F7B
  8
SUNPOU
 10
11451.338374062099
 20
2290.804976716086
 30
0.0
 40
90.0
  1
120
 41
0.6666666666666666
  7
00
  0
LINE
  5
18F7D
  8
SUNPOU
 10
11770.08837406209
 20
2245.8049767160851
 30
0.0
 11
11758.83837406209
 21
2245.8049767160851
 31
0.0
  0
LINE
  5
18F7F
  8
SUNPOU
 10
11312.58837406211
 20
2245.8049767160851
 30
0.0
 11
11323.83837406211
 21
2245.8049767160851
 31
0.0
  0
TEXT
  5
18F80
  8
SUNPOU
 10
11040.624088347809
 20
2290.804976716086
 30
0.0
 40
90.0
  1
20
 41
0.6666666666666666
  7
00
  0
LINE
  5
18F82
  8
SUNPOU
 10
11210.08837406209
 20
2245.8049767160851
 30
0.0
 11
11198.83837406209
 21
2245.8049767160851
 31
0.0
  0
LINE
  5
18F84
  8
SUNPOU
 10
11312.58837406211
 20
2245.8049767160851
 30
0.0
 11
11323.83837406211
 21
2245.8049767160851
 31
0.0
  0
TEXT
  5
18F85
  8
SUNPOU
 10
11451.33837406209
 20
2080.804976716086
 30
0.0
 40
90.0
  1
160
 41
0.6666666666666666
  7
00
  0
LINE
  5
18F87
  8
SUNPOU
 10
11850.08837406209
 20
2035.804976716086
 30
0.0
 11
11838.83837406209
 21
2035.804976716086
 31
0.0
  0
LINE
  5
18F89
  8
SUNPOU
 10
11232.58837406209
 20
2035.804976716086
 30
0.0
 11
11243.83837406209
 21
2035.804976716086
 31
0.0
  0
TEXT
  5
18F8A
  8
SUNPOU
 10
10873.33837406209
 20
2374.4300583388658
 30
0.0
 40
90.0
  1
40
 50
90.0
 41
0.6666666666666666
  7
00
  0
LINE
  5
18F8C
  8
SUNPOU
 10
10918.33837406209
 20
2551.3943440531511
 30
0.0
 11
10918.33837406209
 21
2562.6443440531489
 31
0.0
  0
LINE
  5
18F8E
  8
SUNPOU
 10
10918.33837406209
 20
2688.8943440531498
 30
0.0
 11
10918.33837406209
 21
2677.6443440531489
 31
0.0
  0
TEXT
  5
18F8F
  8
SUNPOU
 10
10873.33837406209
 20
2911.5729154817232
 30
0.0
 40
90.0
  1
40
 50
90.0
 41
0.6666666666666666
  7
00
  0
LINE
  5
18F91
  8
SUNPOU
 10
10918.33837406209
 20
2848.8943440531498
 30
0.0
 11
10918.33837406209
 21
2837.6443440531489
 31
0.0
  0
LINE
  5
18F93
  8
SUNPOU
 10
10918.33837406209
 20
2711.3943440531489
 30
0.0
 11
10918.33837406209
 21
2722.6443440531489
 31
0.0
  0
TEXT
  5
18F94
  8
SUNPOU
 10
10663.33837406209
 20
2643.0014869102952
 30
0.0
 40
90.0
  1
80
 50
90.0
 41
0.6666666666666666
  7
00
  0
LINE
  5
18F96
  8
SUNPOU
 10
10708.33837406209
 20
2848.8943440531498
 30
0.0
 11
10708.33837406209
 21
2837.6443440531489
 31
0.0
  0
LINE
  5
18F98
  8
SUNPOU
 10
10708.33837406209
 20
2551.3943440531511
 30
0.0
 11
10708.33837406209
 21
2562.6443440531489
 31
0.0
  0
TEXT
  5
18F99
  8
SUNPOU
 10
11927.766945490661
 20
3439.170862655058
 30
0.0
 40
90.0
  1
20
 41
0.6666666666666666
  7
00
  0
LINE
  5
18F9B
  8
SUNPOU
 10
11872.58837406209
 20
3394.170862655058
 30
0.0
 11
11883.83837406209
 21
3394.170862655058
 31
0.0
  0
LINE
  5
18F9D
  8
SUNPOU
 10
11770.08837406209
 20
3394.170862655058
 30
0.0
 11
11758.83837406209
 21
3394.170862655058
 31
0.0
  0
TEXT
  5
18F9E
  8
SUNPOU
 10
11451.338374062099
 20
3439.170862655058
 30
0.0
 40
90.0
  1
120
 41
0.6666666666666666
  7
00
  0
LINE
  5
18FA0
  8
SUNPOU
 10
11770.08837406209
 20
3394.170862655058
 30
0.0
 11
11758.83837406209
 21
3394.170862655058
 31
0.0
  0
LINE
  5
18FA2
  8
SUNPOU
 10
11312.58837406211
 20
3394.170862655058
 30
0.0
 11
11323.83837406211
 21
3394.170862655058
 31
0.0
  0
TEXT
  5
18FA3
  8
SUNPOU
 10
11040.624088347809
 20
3439.170862655058
 30
0.0
 40
90.0
  1
20
 41
0.6666666666666666
  7
00
  0
LINE
  5
18FA5
  8
SUNPOU
 10
11210.08837406209
 20
3394.170862655058
 30
0.0
 11
11198.83837406209
 21
3394.170862655058
 31
0.0
  0
LINE
  5
18FA7
  8
SUNPOU
 10
11312.58837406211
 20
3394.170862655058
 30
0.0
 11
11323.83837406211
 21
3394.170862655058
 31
0.0
  0
TEXT
  5
18FA8
  8
SUNPOU
 10
11451.33837406209
 20
3229.170862655058
 30
0.0
 40
90.0
  1
160
 41
0.6666666666666666
  7
00
  0
LINE
  5
18FAA
  8
SUNPOU
 10
11850.08837406209
 20
3184.170862655058
 30
0.0
 11
11838.83837406209
 21
3184.170862655058
 31
0.0
  0
LINE
  5
18FAC
  8
SUNPOU
 10
11232.58837406209
 20
3184.170862655058
 30
0.0
 11
11243.83837406209
 21
3184.170862655058
 31
0.0
  0
TEXT
  5
18FAD
  8
SUNPOU
 10
8494.4089660768223
 20
2193.6848394196049
 30
0.0
 40
90.0
  1
800
 41
0.6666666666666666
  7
00
  0
LINE
  5
18FAF
  8
SUNPOU
 10
9208.8732517911121
 20
2148.6848394196049
 30
0.0
 11
9197.6232517911103
 21
2148.6848394196049
 31
0.0
  0
LINE
  5
18FB1
  8
SUNPOU
 10
7951.3732517911076
 20
2148.6848394196049
 30
0.0
 11
7962.6232517911121
 21
2148.6848394196049
 31
0.0
  0
TEXT
  5
18FB2
  8
SUNPOU
 10
8461.5518232196791
 20
1983.6848394196049
 30
0.0
 40
90.0
  1
1000
 41
0.6666666666666666
  7
00
  0
LINE
  5
18FB4
  8
SUNPOU
 10
9368.8732517911085
 20
1938.6848394196049
 30
0.0
 11
9357.6232517911085
 21
1938.6848394196049
 31
0.0
  0
LINE
  5
18FB6
  8
SUNPOU
 10
7791.3732517911076
 20
1938.6848394196049
 30
0.0
 11
7802.6232517911076
 21
1938.6848394196049
 31
0.0
  0
TEXT
  5
18FB7
  8
SUNPOU
 10
7195.7698557903514
 20
3523.113410848177
 30
0.0
 40
90.0
  1
50
 50
90.0
 41
0.6666666666666666
  7
00
  0
LINE
  5
18FB9
  8
SUNPOU
 10
7240.7698557903514
 20
3467.934839419604
 30
0.0
 11
7240.7698557903514
 21
3479.184839419604
 31
0.0
  0
LINE
  5
18FBB
  8
SUNPOU
 10
7240.7698557903514
 20
3365.4348394196081
 30
0.0
 11
7240.7698557903514
 21
3354.1848394196081
 31
0.0
  0
TEXT
  5
18FBC
  8
SUNPOU
 10
8334.4089660768259
 20
4175.4854115561939
 30
0.0
 40
90.0
  1
200
 41
0.6666666666666666
  7
00
  0
LINE
  5
18FBE
  8
SUNPOU
 10
8271.3732517911103
 20
4130.4854115561957
 30
0.0
 11
8282.6232517911103
 21
4130.4854115561957
 31
0.0
  0
LINE
  5
18FC0
  8
SUNPOU
 10
8568.8732517911103
 20
4130.4854115561957
 30
0.0
 11
8557.6232517911103
 21
4130.4854115561957
 31
0.0
  0
TEXT
  5
18FC1
  8
SUNPOU
 10
4714.0827655531784
 20
2193.6848394196008
 30
0.0
 40
90.0
  1
800
 41
0.6666666666666666
  7
00
  0
LINE
  5
18FC3
  8
SUNPOU
 10
5428.5470512674638
 20
2148.6848394196008
 30
0.0
 11
5417.2970512674638
 21
2148.6848394196008
 31
0.0
  0
LINE
  5
18FC5
  8
SUNPOU
 10
4171.0470512674628
 20
2148.6848394196008
 30
0.0
 11
4182.2970512674638
 21
2148.6848394196008
 31
0.0
  0
TEXT
  5
18FC6
  8
SUNPOU
 10
4681.2256226960317
 20
1983.6848394195999
 30
0.0
 40
90.0
  1
1000
 41
0.6666666666666666
  7
00
  0
LINE
  5
18FC8
  8
SUNPOU
 10
5588.5470512674619
 20
1938.6848394195999
 30
0.0
 11
5577.2970512674619
 21
1938.6848394195999
 31
0.0
  0
LINE
  5
18FCA
  8
SUNPOU
 10
4011.0470512674601
 20
1938.6848394195999
 30
0.0
 11
4022.2970512674619
 21
1938.6848394195999
 31
0.0
  0
TEXT
  5
18FCB
  8
SUNPOU
 10
3415.4436552667048
 20
3523.113410848177
 30
0.0
 40
90.0
  1
50
 50
90.0
 41
0.6666666666666666
  7
00
  0
LINE
  5
18FCD
  8
SUNPOU
 10
3460.4436552667048
 20
3467.9348394196049
 30
0.0
 11
3460.4436552667048
 21
3479.184839419604
 31
0.0
  0
LINE
  5
18FCF
  8
SUNPOU
 10
3460.4436552667048
 20
3365.434839419604
 30
0.0
 11
3460.4436552667048
 21
3354.184839419604
 31
0.0
  0
TEXT
  5
18FD0
  8
SUNPOU
 10
3835.4436552667039
 20
3197.9419822767418
 30
0.0
 40
90.0
  1
80
 50
90.0
 41
0.6666666666666666
  7
00
  0
LINE
  5
18FD2
  8
SUNPOU
 10
3880.4436552667062
 20
3202.3348394195959
 30
0.0
 11
3880.4436552667062
 21
3213.5848394195959
 31
0.0
  0
LINE
  5
18FD4
  8
SUNPOU
 10
3880.4436552667062
 20
3307.8348394196
 30
0.0
 11
3880.4436552667062
 21
3296.5848394196
 31
0.0
  0
TEXT
  5
18FD5
  8
SUNPOU
 10
3835.4436552667039
 20
3508.113410848177
 30
0.0
 40
90.0
  1
80
 50
90.0
 41
0.6666666666666666
  7
00
  0
LINE
  5
18FD7
  8
SUNPOU
 10
3880.4436552667048
 20
3445.4348394196049
 30
0.0
 11
3880.4436552667048
 21
3434.1848394196049
 31
0.0
  0
LINE
  5
18FD9
  8
SUNPOU
 10
3880.4436552667048
 20
3330.3348394196
 30
0.0
 11
3880.4436552667048
 21
3341.5848394196009
 31
0.0
  0
TEXT
  5
18FDA
  8
SUNPOU
 10
3835.4436552667039
 20
2865.3705537053138
 30
0.0
 40
90.0
  1
300
 50
90.0
 41
0.6666666666666666
  7
00
  0
LINE
  5
18FDC
  8
SUNPOU
 10
3880.4436552667048
 20
3179.8348394195959
 30
0.0
 11
3880.4436552667048
 21
3168.5848394195959
 31
0.0
  0
LINE
  5
18FDE
  8
SUNPOU
 10
3880.4436552667039
 20
2722.3348394196018
 30
0.0
 11
3880.4436552667039
 21
2733.5848394196018
 31
0.0
  0
TEXT
  5
18FDF
  8
SUNPOU
 10
4394.0827655531784
 20
4175.4854115561911
 30
0.0
 40
90.0
  1
400
 41
0.6666666666666666
  7
00
  0
LINE
  5
18FE1
  8
SUNPOU
 10
4171.0470512674628
 20
4130.485411556192
 30
0.0
 11
4182.2970512674638
 21
4130.485411556192
 31
0.0
  0
LINE
  5
18FE3
  8
SUNPOU
 10
4788.5470512674628
 20
4130.485411556192
 30
0.0
 11
4777.2970512674628
 21
4130.485411556192
 31
0.0
  0
ARC
  5
18FE4
  8
SUNPOU
 10
12296.36032602548
 20
9689.5127029417781
 30
0.0
 40
5.625
 50
270.0
 51
90.0
  0
ARC
  5
18FE5
  8
SUNPOU
 10
12296.36032602548
 20
9689.5127029417781
 30
0.0
 40
5.625
 50
90.0
 51
270.0
  0
ARC
  5
18FE6
  8
SUNPOU
 10
12086.36032602548
 20
9689.5127029417781
 30
0.0
 40
5.625
 50
270.0
 51
90.0
  0
ARC
  5
18FE7
  8
SUNPOU
 10
12086.36032602548
 20
9689.5127029417781
 30
0.0
 40
5.625
 50
90.0
 51
270.0
  0
ARC
  5
18FE8
  8
SUNPOU
 10
12086.36032602548
 20
9289.5127029417763
 30
0.0
 40
5.625
 50
270.0
 51
90.0
  0
ARC
  5
18FE9
  8
SUNPOU
 10
12086.36032602548
 20
9289.5127029417763
 30
0.0
 40
5.625
 50
90.0
 51
270.0
  0
ARC
  5
18FEA
  8
SUNPOU
 10
12086.36032602548
 20
9289.5127029417763
 30
0.0
 40
5.625
 50
90.0
 51
270.0
  0
ARC
  5
18FEB
  8
SUNPOU
 10
12086.36032602548
 20
9289.5127029417763
 30
0.0
 40
5.625
 50
270.0
 51
90.0
  0
ARC
  5
18FEC
  8
SUNPOU
 10
12086.36032602548
 20
7489.5127029417781
 30
0.0
 40
5.625
 50
90.0
 51
270.0
  0
ARC
  5
18FED
  8
SUNPOU
 10
12086.36032602548
 20
7489.5127029417781
 30
0.0
 40
5.625
 50
270.0
 51
90.0
  0
ARC
  5
18FEE
  8
SUNPOU
 10
12086.36032602548
 20
7489.5127029417781
 30
0.0
 40
5.625
 50
270.0
 51
90.0
  0
ARC
  5
18FEF
  8
SUNPOU
 10
12086.36032602548
 20
7489.5127029417781
 30
0.0
 40
5.625
 50
90.0
 51
270.0
  0
ARC
  5
18FF0
  8
SUNPOU
 10
12296.36032602548
 20
7089.5127029417781
 30
0.0
 40
5.625
 50
90.0
 51
270.0
  0
ARC
  5
18FF1
  8
SUNPOU
 10
12296.36032602548
 20
7089.5127029417781
 30
0.0
 40
5.625
 50
270.0
 51
90.0
  0
ARC
  5
18FF2
  8
SUNPOU
 10
12086.36032602548
 20
7089.5127029417781
 30
0.0
 40
5.625
 50
90.0
 51
270.0
  0
ARC
  5
18FF3
  8
SUNPOU
 10
12086.36032602548
 20
7089.5127029417781
 30
0.0
 40
5.625
 50
270.0
 51
90.0
  0
TEXT
  5
18FF4
  8
SUNPOU
 10
11190.646040311191
 20
10034.51270294178
 30
0.0
 40
90.0
  1
400
 41
0.6666666666666666
  7
00
  0
LINE
  5
18FF6
  8
SUNPOU
 10
11465.11032602548
 20
9989.5127029417781
 30
0.0
 11
11453.86032602548
 21
9989.5127029417781
 31
0.0
  0
LINE
  5
18FF8
  8
SUNPOU
 10
11087.61032602548
 20
9989.5127029417781
 30
0.0
 11
11098.86032602548
 21
9989.5127029417781
 31
0.0
  0
ARC
  5
18FF9
  8
SUNPOU
 10
8626.3603260254786
 20
9989.5127029417781
 30
0.0
 40
5.625
 50
180.0
 51
0.0
  0
ARC
  5
18FFA
  8
SUNPOU
 10
8626.3603260254786
 20
9989.5127029417781
 30
0.0
 40
5.625
 50
0.0
 51
180.0
  0
TEXT
  5
18FFB
  8
SUNPOU
 10
9737.0746117397648
 20
10034.51270294178
 30
0.0
 40
90.0
  1
2450
 41
0.6666666666666666
  7
00
  0
LINE
  5
18FFD
  8
SUNPOU
 10
8637.6103260254786
 20
9989.5127029417781
 30
0.0
 11
8648.8603260254786
 21
9989.5127029417781
 31
0.0
  0
LINE
  5
18FFF
  8
SUNPOU
 10
11065.11032602548
 20
9989.5127029417781
 30
0.0
 11
11053.86032602548
 21
9989.5127029417781
 31
0.0
  0
TEXT
  5
19000
  8
SUNPOU
 10
9281.3603260254804
 20
7403.7984172274928
 30
0.0
 40
90.0
  1
800
 50
90.0
 41
0.6666666666666666
  7
00
  0
LINE
  5
19002
  8
SUNPOU
 10
9326.3603260254858
 20
7100.7627029417781
 30
0.0
 11
9326.3603260254858
 21
7112.012702941779
 31
0.0
  0
LINE
  5
19004
  8
SUNPOU
 10
9326.3603260254858
 20
7878.2627029417781
 30
0.0
 11
9326.3603260254858
 21
7867.0127029417781
 31
0.0
  0
ARC
  5
19005
  8
SUNPOU
 10
7226.3603260254777
 20
9989.5127029417781
 30
0.0
 40
5.625
 50
0.0
 51
180.0
  0
ARC
  5
19006
  8
SUNPOU
 10
7226.3603260254777
 20
9989.5127029417781
 30
0.0
 40
5.625
 50
180.0
 51
0.0
  0
TEXT
  5
19007
  8
SUNPOU
 10
5887.0746117397648
 20
10034.51270294178
 30
0.0
 40
90.0
  1
2450
 41
0.6666666666666666
  7
00
  0
LINE
  5
19009
  8
SUNPOU
 10
4787.6103260254777
 20
9989.5127029417781
 30
0.0
 11
4798.8603260254777
 21
9989.5127029417781
 31
0.0
  0
LINE
  5
1900B
  8
SUNPOU
 10
7215.1103260254777
 20
9989.5127029417781
 30
0.0
 11
7203.8603260254786
 21
9989.5127029417781
 31
0.0
  0
TEXT
  5
1900C
  8
SUNPOU
 10
7140.6460403111923
 20
8634.5127029417781
 30
0.0
 40
90.0
  1
800
 41
0.6666666666666666
  7
00
  0
LINE
  5
1900E
  8
SUNPOU
 10
7615.1103260254786
 20
8589.5127029417781
 30
0.0
 11
7603.8603260254786
 21
8589.5127029417781
 31
0.0
  0
LINE
  5
19010
  8
SUNPOU
 10
6837.6103260254804
 20
8589.5127029417781
 30
0.0
 11
6848.8603260254786
 21
8589.5127029417781
 31
0.0
  0
TEXT
  5
19011
  8
SUNPOU
 10
6481.3603260254777
 20
9203.7984172274937
 30
0.0
 40
90.0
  1
800
 50
90.0
 41
0.6666666666666666
  7
00
  0
LINE
  5
19013
  8
SUNPOU
 10
6526.3603260254777
 20
8900.7627029417763
 30
0.0
 11
6526.3603260254777
 21
8912.0127029417781
 31
0.0
  0
LINE
  5
19015
  8
SUNPOU
 10
6526.3603260254777
 20
9678.2627029417781
 30
0.0
 11
6526.3603260254777
 21
9667.0127029417799
 31
0.0
  0
TEXT
  5
19016
  8
SUNPOU
 10
4490.6460403111932
 20
10034.51270294178
 30
0.0
 40
90.0
  1
400
 41
0.6666666666666666
  7
00
  0
LINE
  5
19018
  8
SUNPOU
 10
4387.6103260254786
 20
9989.5127029417781
 30
0.0
 11
4398.8603260254768
 21
9989.5127029417781
 31
0.0
  0
LINE
  5
1901A
  8
SUNPOU
 10
4765.1103260254768
 20
9989.5127029417781
 30
0.0
 11
4753.8603260254786
 21
9989.5127029417781
 31
0.0
  0
TEXT
  5
1901B
  8
SUNPOU
 10
8540.6460403111923
 20
8234.5127029417781
 30
0.0
 40
90.0
  1
800
 41
0.6666666666666666
  7
00
  0
LINE
  5
1901D
  8
SUNPOU
 10
9015.1103260254786
 20
8189.5127029417781
 30
0.0
 11
9003.8603260254786
 21
8189.5127029417781
 31
0.0
  0
LINE
  5
1901F
  8
SUNPOU
 10
8237.6103260254804
 20
8189.5127029417781
 30
0.0
 11
8248.8603260254786
 21
8189.5127029417781
 31
0.0
  0
TEXT
  5
19020
  8
SUNPOU
 10
7462.6460403111951
 20
10244.51270294178
 30
0.0
 40
90.0
  1
L = 2450 x N + 800
 41
0.6666666666666666
  7
00
  0
LINE
  5
19022
  8
SUNPOU
 10
11465.11032602548
 20
10199.512702941771
 30
0.0
 11
11453.86032602548
 21
10199.512702941771
 31
0.0
  0
LINE
  5
19024
  8
SUNPOU
 10
4387.6103260254786
 20
10199.512702941771
 30
0.0
 11
4398.8603260254768
 21
10199.512702941771
 31
0.0
  0
ARC
  5
19025
  8
SUNPOU
 10
3880.4436552667039
 20
2551.0848394196018
 30
0.0
 40
5.625
 50
90.0
 51
270.0
  0
ARC
  5
19026
  8
SUNPOU
 10
3880.4436552667039
 20
2551.0848394196018
 30
0.0
 40
5.625
 50
270.0
 51
90.0
  0
ARC
  5
19027
  8
SUNPOU
 10
3880.4436552667039
 20
2711.0848394196018
 30
0.0
 40
5.625
 50
270.0
 51
90.0
  0
ARC
  5
19028
  8
SUNPOU
 10
3880.4436552667039
 20
2711.0848394196018
 30
0.0
 40
5.625
 50
90.0
 51
270.0
  0
ARC
  5
19029
  8
SUNPOU
 10
3658.8540906125859
 20
2551.0848394196018
 30
0.0
 40
5.625
 50
90.0
 51
270.0
  0
ARC
  5
1902A
  8
SUNPOU
 10
3658.8540906125859
 20
2551.0848394196018
 30
0.0
 40
5.625
 50
270.0
 51
90.0
  0
ARC
  5
1902B
  8
SUNPOU
 10
3658.8540906125859
 20
3456.6848394196049
 30
0.0
 40
5.625
 50
270.0
 51
90.0
  0
ARC
  5
1902C
  8
SUNPOU
 10
3658.8540906125859
 20
3456.6848394196049
 30
0.0
 40
5.625
 50
90.0
 51
270.0
  0
ARC
  5
1902D
  8
SUNPOU
 10
7660.7698557903523
 20
2551.0848394196018
 30
0.0
 40
5.625
 50
90.0
 51
270.0
  0
ARC
  5
1902E
  8
SUNPOU
 10
7660.7698557903523
 20
2551.0848394196018
 30
0.0
 40
5.625
 50
270.0
 51
90.0
  0
ARC
  5
1902F
  8
SUNPOU
 10
7660.7698557903523
 20
2711.0848394196018
 30
0.0
 40
5.625
 50
270.0
 51
90.0
  0
ARC
  5
19030
  8
SUNPOU
 10
7660.7698557903523
 20
2711.0848394196018
 30
0.0
 40
5.625
 50
90.0
 51
270.0
  0
ARC
  5
19031
  8
SUNPOU
 10
7441.8922290320988
 20
2551.0848394196018
 30
0.0
 40
5.625
 50
90.0
 51
270.0
  0
ARC
  5
19032
  8
SUNPOU
 10
7441.8922290320988
 20
2551.0848394196018
 30
0.0
 40
5.625
 50
270.0
 51
90.0
  0
ARC
  5
19033
  8
SUNPOU
 10
7441.8922290320988
 20
3456.6848394196049
 30
0.0
 40
5.625
 50
270.0
 51
90.0
  0
ARC
  5
19034
  8
SUNPOU
 10
7441.8922290320988
 20
3456.6848394196049
 30
0.0
 40
5.625
 50
90.0
 51
270.0
  0
ARC
  5
19035
  8
SUNPOU
 10
12273.40680314955
 20
3886.3370365845599
 30
0.0
 40
5.625
 50
270.0
 51
90.0
  0
ARC
  5
19036
  8
SUNPOU
 10
12273.40680314955
 20
3886.3370365845599
 30
0.0
 40
5.625
 50
90.0
 51
270.0
  0
ARC
  5
19037
  8
SUNPOU
 10
12273.40680314955
 20
3726.3370365845599
 30
0.0
 40
5.625
 50
90.0
 51
270.0
  0
ARC
  5
19038
  8
SUNPOU
 10
12273.40680314955
 20
3726.3370365845599
 30
0.0
 40
5.625
 50
270.0
 51
90.0
  0
ARC
  5
19039
  8
SUNPOU
 10
12273.40680314955
 20
3618.3370365845608
 30
0.0
 40
5.625
 50
270.0
 51
90.0
  0
ARC
  5
1903A
  8
SUNPOU
 10
12273.40680314955
 20
3618.3370365845608
 30
0.0
 40
5.625
 50
90.0
 51
270.0
  0
ARC
  5
1903B
  8
SUNPOU
 10
12273.40680314955
 20
3726.3370365845599
 30
0.0
 40
5.625
 50
90.0
 51
270.0
  0
ARC
  5
1903C
  8
SUNPOU
 10
12273.40680314955
 20
3726.3370365845599
 30
0.0
 40
5.625
 50
270.0
 51
90.0
  0
ARC
  5
1903D
  8
SUNPOU
 10
7660.7698557903523
 20
3191.0848394195959
 30
0.0
 40
5.625
 50
90.0
 51
270.0
  0
ARC
  5
1903E
  8
SUNPOU
 10
7660.7698557903523
 20
3191.0848394195959
 30
0.0
 40
5.625
 50
270.0
 51
90.0
  0
ARC
  5
1903F
  8
SUNPOU
 10
7660.7698557903523
 20
3319.0848394196009
 30
0.0
 40
5.625
 50
270.0
 51
90.0
  0
ARC
  5
19040
  8
SUNPOU
 10
7660.7698557903523
 20
3319.0848394196009
 30
0.0
 40
5.625
 50
90.0
 51
270.0
  0
ARC
  5
19041
  8
SUNPOU
 10
7660.7698557903523
 20
3456.6848394196049
 30
0.0
 40
5.625
 50
270.0
 51
90.0
  0
ARC
  5
19042
  8
SUNPOU
 10
7660.7698557903523
 20
3456.6848394196049
 30
0.0
 40
5.625
 50
90.0
 51
270.0
  0
ARC
  5
19043
  8
SUNPOU
 10
7660.7698557903523
 20
3319.0848394196009
 30
0.0
 40
5.625
 50
90.0
 51
270.0
  0
ARC
  5
19044
  8
SUNPOU
 10
7660.7698557903523
 20
3319.0848394196009
 30
0.0
 40
5.625
 50
270.0
 51
90.0
  0
ARC
  5
19045
  8
SUNPOU
 10
7660.7698557903523
 20
3191.0848394195959
 30
0.0
 40
5.625
 50
270.0
 51
90.0
  0
ARC
  5
19046
  8
SUNPOU
 10
7660.7698557903523
 20
3191.0848394195959
 30
0.0
 40
5.625
 50
90.0
 51
270.0
  0
ARC
  5
19047
  8
SUNPOU
 10
7660.7698557903523
 20
2711.0848394196018
 30
0.0
 40
5.625
 50
90.0
 51
270.0
  0
ARC
  5
19048
  8
SUNPOU
 10
7660.7698557903523
 20
2711.0848394196018
 30
0.0
 40
5.625
 50
270.0
 51
90.0
  0
ARC
  5
19049
  8
SUNPOU
 10
11876.36032602548
 20
9289.5127029417763
 30
0.0
 40
5.625
 50
90.0
 51
270.0
  0
ARC
  5
1904A
  8
SUNPOU
 10
11876.36032602548
 20
9289.5127029417763
 30
0.0
 40
5.625
 50
270.0
 51
90.0
  0
ARC
  5
1904B
  8
SUNPOU
 10
11876.36032602548
 20
9489.5127029417781
 30
0.0
 40
5.625
 50
270.0
 51
90.0
  0
ARC
  5
1904C
  8
SUNPOU
 10
11876.36032602548
 20
9489.5127029417781
 30
0.0
 40
5.625
 50
90.0
 51
270.0
  0
ARC
  5
1904D
  8
SUNPOU
 10
11876.36032602548
 20
9689.5127029417781
 30
0.0
 40
5.625
 50
270.0
 51
90.0
  0
ARC
  5
1904E
  8
SUNPOU
 10
11876.36032602548
 20
9689.5127029417781
 30
0.0
 40
5.625
 50
90.0
 51
270.0
  0
ARC
  5
1904F
  8
SUNPOU
 10
11876.36032602548
 20
9489.5127029417781
 30
0.0
 40
5.625
 50
90.0
 51
270.0
  0
ARC
  5
19050
  8
SUNPOU
 10
11876.36032602548
 20
9489.5127029417781
 30
0.0
 40
5.625
 50
270.0
 51
90.0
  0
ARC
  5
19051
  8
SUNPOU
 10
11861.33837406209
 20
2245.8049767160851
 30
0.0
 40
5.625
 50
0.0
 51
180.0
  0
ARC
  5
19052
  8
SUNPOU
 10
11861.33837406209
 20
2245.8049767160851
 30
0.0
 40
5.625
 50
180.0
 51
0.0
  0
ARC
  5
19053
  8
SUNPOU
 10
11781.33837406209
 20
2245.8049767160851
 30
0.0
 40
5.625
 50
180.0
 51
0.0
  0
ARC
  5
19054
  8
SUNPOU
 10
11781.33837406209
 20
2245.8049767160851
 30
0.0
 40
5.625
 50
0.0
 51
180.0
  0
ARC
  5
19055
  8
SUNPOU
 10
11781.33837406209
 20
2245.8049767160851
 30
0.0
 40
5.625
 50
180.0
 51
0.0
  0
ARC
  5
19056
  8
SUNPOU
 10
11781.33837406209
 20
2245.8049767160851
 30
0.0
 40
5.625
 50
0.0
 51
180.0
  0
ARC
  5
19057
  8
SUNPOU
 10
11301.33837406211
 20
2245.8049767160851
 30
0.0
 40
5.625
 50
0.0
 51
180.0
  0
ARC
  5
19058
  8
SUNPOU
 10
11301.33837406211
 20
2245.8049767160851
 30
0.0
 40
5.625
 50
180.0
 51
0.0
  0
ARC
  5
19059
  8
SUNPOU
 10
11221.33837406209
 20
2245.8049767160851
 30
0.0
 40
5.625
 50
180.0
 51
0.0
  0
ARC
  5
1905A
  8
SUNPOU
 10
11221.33837406209
 20
2245.8049767160851
 30
0.0
 40
5.625
 50
0.0
 51
180.0
  0
ARC
  5
1905B
  8
SUNPOU
 10
11301.33837406211
 20
2245.8049767160851
 30
0.0
 40
5.625
 50
0.0
 51
180.0
  0
ARC
  5
1905C
  8
SUNPOU
 10
11301.33837406211
 20
2245.8049767160851
 30
0.0
 40
5.625
 50
180.0
 51
0.0
  0
ARC
  5
1905D
  8
SUNPOU
 10
11861.33837406209
 20
2035.804976716086
 30
0.0
 40
5.625
 50
180.0
 51
0.0
  0
ARC
  5
1905E
  8
SUNPOU
 10
11861.33837406209
 20
2035.804976716086
 30
0.0
 40
5.625
 50
0.0
 51
180.0
  0
ARC
  5
1905F
  8
SUNPOU
 10
11221.33837406209
 20
2035.804976716086
 30
0.0
 40
5.625
 50
0.0
 51
180.0
  0
ARC
  5
19060
  8
SUNPOU
 10
11221.33837406209
 20
2035.804976716086
 30
0.0
 40
5.625
 50
180.0
 51
0.0
  0
ARC
  5
19061
  8
SUNPOU
 10
10918.33837406209
 20
2540.1443440531498
 30
0.0
 40
5.625
 50
90.0
 51
270.0
  0
ARC
  5
19062
  8
SUNPOU
 10
10918.33837406209
 20
2540.1443440531498
 30
0.0
 40
5.625
 50
270.0
 51
90.0
  0
ARC
  5
19063
  8
SUNPOU
 10
10918.33837406209
 20
2700.1443440531489
 30
0.0
 40
5.625
 50
270.0
 51
90.0
  0
ARC
  5
19064
  8
SUNPOU
 10
10918.33837406209
 20
2700.1443440531489
 30
0.0
 40
5.625
 50
90.0
 51
270.0
  0
ARC
  5
19065
  8
SUNPOU
 10
10918.33837406209
 20
2860.1443440531498
 30
0.0
 40
5.625
 50
270.0
 51
90.0
  0
ARC
  5
19066
  8
SUNPOU
 10
10918.33837406209
 20
2860.1443440531498
 30
0.0
 40
5.625
 50
90.0
 51
270.0
  0
ARC
  5
19067
  8
SUNPOU
 10
10918.33837406209
 20
2700.1443440531489
 30
0.0
 40
5.625
 50
90.0
 51
270.0
  0
ARC
  5
19068
  8
SUNPOU
 10
10918.33837406209
 20
2700.1443440531489
 30
0.0
 40
5.625
 50
270.0
 51
90.0
  0
ARC
  5
19069
  8
SUNPOU
 10
10708.33837406209
 20
2860.1443440531498
 30
0.0
 40
5.625
 50
270.0
 51
90.0
  0
ARC
  5
1906A
  8
SUNPOU
 10
10708.33837406209
 20
2860.1443440531498
 30
0.0
 40
5.625
 50
90.0
 51
270.0
  0
ARC
  5
1906B
  8
SUNPOU
 10
10708.33837406209
 20
2540.1443440531498
 30
0.0
 40
5.625
 50
90.0
 51
270.0
  0
ARC
  5
1906C
  8
SUNPOU
 10
10708.33837406209
 20
2540.1443440531498
 30
0.0
 40
5.625
 50
270.0
 51
90.0
  0
ARC
  5
1906D
  8
SUNPOU
 10
11861.33837406209
 20
3394.170862655058
 30
0.0
 40
5.625
 50
0.0
 51
180.0
  0
ARC
  5
1906E
  8
SUNPOU
 10
11861.33837406209
 20
3394.170862655058
 30
0.0
 40
5.625
 50
180.0
 51
0.0
  0
ARC
  5
1906F
  8
SUNPOU
 10
11781.33837406209
 20
3394.170862655058
 30
0.0
 40
5.625
 50
180.0
 51
0.0
  0
ARC
  5
19070
  8
SUNPOU
 10
11781.33837406209
 20
3394.170862655058
 30
0.0
 40
5.625
 50
0.0
 51
180.0
  0
ARC
  5
19071
  8
SUNPOU
 10
11781.33837406209
 20
3394.170862655058
 30
0.0
 40
5.625
 50
180.0
 51
0.0
  0
ARC
  5
19072
  8
SUNPOU
 10
11781.33837406209
 20
3394.170862655058
 30
0.0
 40
5.625
 50
0.0
 51
180.0
  0
ARC
  5
19073
  8
SUNPOU
 10
11301.33837406211
 20
3394.170862655058
 30
0.0
 40
5.625
 50
0.0
 51
180.0
  0
ARC
  5
19074
  8
SUNPOU
 10
11301.33837406211
 20
3394.170862655058
 30
0.0
 40
5.625
 50
180.0
 51
0.0
  0
ARC
  5
19075
  8
SUNPOU
 10
11221.33837406209
 20
3394.170862655058
 30
0.0
 40
5.625
 50
180.0
 51
0.0
  0
ARC
  5
19076
  8
SUNPOU
 10
11221.33837406209
 20
3394.170862655058
 30
0.0
 40
5.625
 50
0.0
 51
180.0
  0
ARC
  5
19077
  8
SUNPOU
 10
11301.33837406211
 20
3394.170862655058
 30
0.0
 40
5.625
 50
0.0
 51
180.0
  0
ARC
  5
19078
  8
SUNPOU
 10
11301.33837406211
 20
3394.170862655058
 30
0.0
 40
5.625
 50
180.0
 51
0.0
  0
ARC
  5
19079
  8
SUNPOU
 10
11861.33837406209
 20
3184.170862655058
 30
0.0
 40
5.625
 50
180.0
 51
0.0
  0
ARC
  5
1907A
  8
SUNPOU
 10
11861.33837406209
 20
3184.170862655058
 30
0.0
 40
5.625
 50
0.0
 51
180.0
  0
ARC
  5
1907B
  8
SUNPOU
 10
11221.33837406209
 20
3184.170862655058
 30
0.0
 40
5.625
 50
0.0
 51
180.0
  0
ARC
  5
1907C
  8
SUNPOU
 10
11221.33837406209
 20
3184.170862655058
 30
0.0
 40
5.625
 50
180.0
 51
0.0
  0
ARC
  5
1907D
  8
SUNPOU
 10
9220.1232517911121
 20
2148.6848394196049
 30
0.0
 40
5.625
 50
180.0
 51
0.0
  0
ARC
  5
1907E
  8
SUNPOU
 10
9220.1232517911121
 20
2148.6848394196049
 30
0.0
 40
5.625
 50
0.0
 51
180.0
  0
ARC
  5
1907F
  8
SUNPOU
 10
7940.1232517911112
 20
2148.6848394196049
 30
0.0
 40
5.625
 50
0.0
 51
180.0
  0
ARC
  5
19080
  8
SUNPOU
 10
7940.1232517911112
 20
2148.6848394196049
 30
0.0
 40
5.625
 50
180.0
 51
0.0
  0
ARC
  5
19081
  8
SUNPOU
 10
9380.1232517911085
 20
1938.6848394196049
 30
0.0
 40
5.625
 50
180.0
 51
0.0
  0
ARC
  5
19082
  8
SUNPOU
 10
9380.1232517911085
 20
1938.6848394196049
 30
0.0
 40
5.625
 50
0.0
 51
180.0
  0
ARC
  5
19083
  8
SUNPOU
 10
7780.1232517911094
 20
1938.6848394196049
 30
0.0
 40
5.625
 50
0.0
 51
180.0
  0
ARC
  5
19084
  8
SUNPOU
 10
7780.1232517911094
 20
1938.6848394196049
 30
0.0
 40
5.625
 50
180.0
 51
0.0
  0
ARC
  5
19085
  8
SUNPOU
 10
7240.7698557903514
 20
3456.6848394196049
 30
0.0
 40
5.625
 50
90.0
 51
270.0
  0
ARC
  5
19086
  8
SUNPOU
 10
7240.7698557903514
 20
3456.6848394196049
 30
0.0
 40
5.625
 50
270.0
 51
90.0
  0
ARC
  5
19087
  8
SUNPOU
 10
7240.7698557903514
 20
3376.6848394196081
 30
0.0
 40
5.625
 50
270.0
 51
90.0
  0
ARC
  5
19088
  8
SUNPOU
 10
7240.7698557903514
 20
3376.6848394196081
 30
0.0
 40
5.625
 50
90.0
 51
270.0
  0
ARC
  5
19089
  8
SUNPOU
 10
8260.1232517911103
 20
4130.4854115561957
 30
0.0
 40
5.625
 50
0.0
 51
180.0
  0
ARC
  5
1908A
  8
SUNPOU
 10
8260.1232517911103
 20
4130.4854115561957
 30
0.0
 40
5.625
 50
180.0
 51
0.0
  0
ARC
  5
1908B
  8
SUNPOU
 10
8580.1232517911103
 20
4130.4854115561957
 30
0.0
 40
5.625
 50
180.0
 51
0.0
  0
ARC
  5
1908C
  8
SUNPOU
 10
8580.1232517911103
 20
4130.4854115561957
 30
0.0
 40
5.625
 50
0.0
 51
180.0
  0
ARC
  5
1908D
  8
SUNPOU
 10
5439.7970512674638
 20
2148.6848394196008
 30
0.0
 40
5.625
 50
180.0
 51
0.0
  0
ARC
  5
1908E
  8
SUNPOU
 10
5439.7970512674638
 20
2148.6848394196008
 30
0.0
 40
5.625
 50
0.0
 51
180.0
  0
ARC
  5
1908F
  8
SUNPOU
 10
4159.7970512674628
 20
2148.6848394196008
 30
0.0
 40
5.625
 50
0.0
 51
180.0
  0
ARC
  5
19090
  8
SUNPOU
 10
4159.7970512674628
 20
2148.6848394196008
 30
0.0
 40
5.625
 50
180.0
 51
0.0
  0
ARC
  5
19091
  8
SUNPOU
 10
5599.797051267461
 20
1938.6848394195999
 30
0.0
 40
5.625
 50
180.0
 51
0.0
  0
ARC
  5
19092
  8
SUNPOU
 10
5599.797051267461
 20
1938.6848394195999
 30
0.0
 40
5.625
 50
0.0
 51
180.0
  0
ARC
  5
19093
  8
SUNPOU
 10
3999.7970512674619
 20
1938.6848394195999
 30
0.0
 40
5.625
 50
0.0
 51
180.0
  0
ARC
  5
19094
  8
SUNPOU
 10
3999.7970512674619
 20
1938.6848394195999
 30
0.0
 40
5.625
 50
180.0
 51
0.0
  0
ARC
  5
19095
  8
SUNPOU
 10
3460.4436552667048
 20
3456.6848394196049
 30
0.0
 40
5.625
 50
90.0
 51
270.0
  0
ARC
  5
19096
  8
SUNPOU
 10
3460.4436552667048
 20
3456.6848394196049
 30
0.0
 40
5.625
 50
270.0
 51
90.0
  0
ARC
  5
19097
  8
SUNPOU
 10
3460.4436552667048
 20
3376.684839419604
 30
0.0
 40
5.625
 50
270.0
 51
90.0
  0
ARC
  5
19098
  8
SUNPOU
 10
3460.4436552667048
 20
3376.684839419604
 30
0.0
 40
5.625
 50
90.0
 51
270.0
  0
ARC
  5
19099
  8
SUNPOU
 10
3880.4436552667062
 20
3191.0848394195959
 30
0.0
 40
5.625
 50
90.0
 51
270.0
  0
ARC
  5
1909A
  8
SUNPOU
 10
3880.4436552667062
 20
3191.0848394195959
 30
0.0
 40
5.625
 50
270.0
 51
90.0
  0
ARC
  5
1909B
  8
SUNPOU
 10
3880.4436552667062
 20
3319.0848394196009
 30
0.0
 40
5.625
 50
270.0
 51
90.0
  0
ARC
  5
1909C
  8
SUNPOU
 10
3880.4436552667062
 20
3319.0848394196009
 30
0.0
 40
5.625
 50
90.0
 51
270.0
  0
ARC
  5
1909D
  8
SUNPOU
 10
3880.4436552667048
 20
3456.6848394196049
 30
0.0
 40
5.625
 50
270.0
 51
90.0
  0
ARC
  5
1909E
  8
SUNPOU
 10
3880.4436552667048
 20
3456.6848394196049
 30
0.0
 40
5.625
 50
90.0
 51
270.0
  0
ARC
  5
1909F
  8
SUNPOU
 10
3880.4436552667048
 20
3319.0848394196009
 30
0.0
 40
5.625
 50
90.0
 51
270.0
  0
ARC
  5
190A0
  8
SUNPOU
 10
3880.4436552667048
 20
3319.0848394196009
 30
0.0
 40
5.625
 50
270.0
 51
90.0
  0
ARC
  5
190A1
  8
SUNPOU
 10
3880.4436552667048
 20
3191.0848394195959
 30
0.0
 40
5.625
 50
270.0
 51
90.0
  0
ARC
  5
190A2
  8
SUNPOU
 10
3880.4436552667048
 20
3191.0848394195959
 30
0.0
 40
5.625
 50
90.0
 51
270.0
  0
ARC
  5
190A3
  8
SUNPOU
 10
3880.4436552667039
 20
2711.0848394196018
 30
0.0
 40
5.625
 50
90.0
 51
270.0
  0
ARC
  5
190A4
  8
SUNPOU
 10
3880.4436552667039
 20
2711.0848394196018
 30
0.0
 40
5.625
 50
270.0
 51
90.0
  0
ARC
  5
190A5
  8
SUNPOU
 10
4159.7970512674628
 20
4130.485411556192
 30
0.0
 40
5.625
 50
0.0
 51
180.0
  0
ARC
  5
190A6
  8
SUNPOU
 10
4159.7970512674628
 20
4130.485411556192
 30
0.0
 40
5.625
 50
180.0
 51
0.0
  0
ARC
  5
190A7
  8
SUNPOU
 10
4799.7970512674628
 20
4130.485411556192
 30
0.0
 40
5.625
 50
180.0
 51
0.0
  0
ARC
  5
190A8
  8
SUNPOU
 10
4799.7970512674628
 20
4130.485411556192
 30
0.0
 40
5.625
 50
0.0
 51
180.0
  0
ARC
  5
190A9
  8
SUNPOU
 10
11476.36032602548
 20
9989.5127029417781
 30
0.0
 40
5.625
 50
180.0
 51
0.0
  0
ARC
  5
190AA
  8
SUNPOU
 10
11476.36032602548
 20
9989.5127029417781
 30
0.0
 40
5.625
 50
0.0
 51
180.0
  0
ARC
  5
190AB
  8
SUNPOU
 10
11076.36032602548
 20
9989.5127029417781
 30
0.0
 40
5.625
 50
0.0
 51
180.0
  0
ARC
  5
190AC
  8
SUNPOU
 10
11076.36032602548
 20
9989.5127029417781
 30
0.0
 40
5.625
 50
180.0
 51
0.0
  0
ARC
  5
190AD
  8
SUNPOU
 10
8626.3603260254786
 20
9989.5127029417781
 30
0.0
 40
5.625
 50
0.0
 51
180.0
  0
ARC
  5
190AE
  8
SUNPOU
 10
8626.3603260254786
 20
9989.5127029417781
 30
0.0
 40
5.625
 50
180.0
 51
0.0
  0
ARC
  5
190AF
  8
SUNPOU
 10
11076.36032602548
 20
9989.5127029417781
 30
0.0
 40
5.625
 50
180.0
 51
0.0
  0
ARC
  5
190B0
  8
SUNPOU
 10
11076.36032602548
 20
9989.5127029417781
 30
0.0
 40
5.625
 50
0.0
 51
180.0
  0
ARC
  5
190B1
  8
SUNPOU
 10
9326.3603260254858
 20
7089.5127029417781
 30
0.0
 40
5.625
 50
90.0
 51
270.0
  0
ARC
  5
190B2
  8
SUNPOU
 10
9326.3603260254858
 20
7089.5127029417781
 30
0.0
 40
5.625
 50
270.0
 51
90.0
  0
ARC
  5
190B3
  8
SUNPOU
 10
9326.3603260254858
 20
7889.5127029417781
 30
0.0
 40
5.625
 50
270.0
 51
90.0
  0
ARC
  5
190B4
  8
SUNPOU
 10
9326.3603260254858
 20
7889.5127029417781
 30
0.0
 40
5.625
 50
90.0
 51
270.0
  0
ARC
  5
190B5
  8
SUNPOU
 10
4776.3603260254777
 20
9989.5127029417781
 30
0.0
 40
5.625
 50
0.0
 51
180.0
  0
ARC
  5
190B6
  8
SUNPOU
 10
4776.3603260254777
 20
9989.5127029417781
 30
0.0
 40
5.625
 50
180.0
 51
0.0
  0
ARC
  5
190B7
  8
SUNPOU
 10
7226.3603260254777
 20
9989.5127029417781
 30
0.0
 40
5.625
 50
180.0
 51
0.0
  0
ARC
  5
190B8
  8
SUNPOU
 10
7226.3603260254777
 20
9989.5127029417781
 30
0.0
 40
5.625
 50
0.0
 51
180.0
  0
ARC
  5
190B9
  8
SUNPOU
 10
7626.3603260254777
 20
8589.5127029417781
 30
0.0
 40
5.625
 50
180.0
 51
0.0
  0
ARC
  5
190BA
  8
SUNPOU
 10
7626.3603260254777
 20
8589.5127029417781
 30
0.0
 40
5.625
 50
0.0
 51
180.0
  0
ARC
  5
190BB
  8
SUNPOU
 10
6826.3603260254777
 20
8589.5127029417781
 30
0.0
 40
5.625
 50
0.0
 51
180.0
  0
ARC
  5
190BC
  8
SUNPOU
 10
6826.3603260254777
 20
8589.5127029417781
 30
0.0
 40
5.625
 50
180.0
 51
0.0
  0
ARC
  5
190BD
  8
SUNPOU
 10
6526.3603260254777
 20
8889.5127029417763
 30
0.0
 40
5.625
 50
90.0
 51
270.0
  0
ARC
  5
190BE
  8
SUNPOU
 10
6526.3603260254777
 20
8889.5127029417763
 30
0.0
 40
5.625
 50
270.0
 51
90.0
  0
ARC
  5
190BF
  8
SUNPOU
 10
6526.3603260254777
 20
9689.5127029417781
 30
0.0
 40
5.625
 50
270.0
 51
90.0
  0
ARC
  5
190C0
  8
SUNPOU
 10
6526.3603260254777
 20
9689.5127029417781
 30
0.0
 40
5.625
 50
90.0
 51
270.0
  0
ARC
  5
190C1
  8
SUNPOU
 10
4376.3603260254786
 20
9989.5127029417781
 30
0.0
 40
5.625
 50
0.0
 51
180.0
  0
ARC
  5
190C2
  8
SUNPOU
 10
4376.3603260254786
 20
9989.5127029417781
 30
0.0
 40
5.625
 50
180.0
 51
0.0
  0
ARC
  5
190C3
  8
SUNPOU
 10
4776.3603260254777
 20
9989.5127029417781
 30
0.0
 40
5.625
 50
180.0
 51
0.0
  0
ARC
  5
190C4
  8
SUNPOU
 10
4776.3603260254777
 20
9989.5127029417781
 30
0.0
 40
5.625
 50
0.0
 51
180.0
  0
ARC
  5
190C5
  8
SUNPOU
 10
9026.3603260254786
 20
8189.5127029417781
 30
0.0
 40
5.625
 50
180.0
 51
0.0
  0
ARC
  5
190C6
  8
SUNPOU
 10
9026.3603260254786
 20
8189.5127029417781
 30
0.0
 40
5.625
 50
0.0
 51
180.0
  0
ARC
  5
190C7
  8
SUNPOU
 10
8226.3603260254786
 20
8189.5127029417781
 30
0.0
 40
5.625
 50
0.0
 51
180.0
  0
ARC
  5
190C8
  8
SUNPOU
 10
8226.3603260254786
 20
8189.5127029417781
 30
0.0
 40
5.625
 50
180.0
 51
0.0
  0
ARC
  5
190C9
  8
SUNPOU
 10
11476.36032602548
 20
10199.512702941771
 30
0.0
 40
5.625
 50
180.0
 51
0.0
  0
ARC
  5
190CA
  8
SUNPOU
 10
11476.36032602548
 20
10199.512702941771
 30
0.0
 40
5.625
 50
0.0
 51
180.0
  0
ARC
  5
190CB
  8
SUNPOU
 10
4376.3603260254786
 20
10199.512702941771
 30
0.0
 40
5.625
 50
0.0
 51
180.0
  0
ARC
  5
190CC
  8
SUNPOU
 10
4376.3603260254786
 20
10199.512702941771
 30
0.0
 40
5.625
 50
180.0
 51
0.0
  0
ARC
  5
190D4
  8
HIKIDASHI
 10
7368.7531861780462
 20
1889.069567942468
 30
0.0
 40
74.664179104522844
 50
164.8596129850915
 51
237.5045002941651
  0
ARC
  5
190D5
  8
HIKIDASHI
 10
7305.32939213174
 20
1906.2305914269521
 30
0.0
 40
8.9597014925427416
 50
15.140387015034291
 51
164.85961298496559
  0
LINE
  5
190DC
  8
HIKIDASHI
 10
11865.191196963129
 20
2619.990092191335
 30
0.0
 11
12256.642398756439
 21
2245.8049767160851
 31
0.0
1001
ACAD
1000
DSTYLE
1002
{
1070
   147
1040
1.0
1070
    77
1070
     0
1002
}
  0
LINE
  5
190DD
  8
HIKIDASHI
 10
11874.404329361039
 20
2629.6283476972021
 30
0.0
 11
11807.36166392793
 21
2675.2688865787932
 31
0.0
  0
LINE
  5
190DE
  8
HIKIDASHI
 10
11807.36166392793
 20
2675.2688865787932
 30
0.0
 11
11855.978064565221
 21
2610.3518366854678
 31
0.0
  0
SOLID
  5
190DF
  8
HIKIDASHI
 10
11874.404329361039
 20
2629.6283476972021
 30
0.0
 11
11855.978064565221
 21
2610.3518366854678
 31
0.0
 12
11807.36166392793
 22
2675.2688865787932
 32
0.0
 13
11807.36166392793
 23
2675.2688865787932
 33
0.0
  0
LINE
  5
190E0
  8
HIKIDASHI
 10
11855.978064565221
 20
2610.3518366854678
 30
0.0
 11
11874.404329361039
 21
2629.6283476972021
 31
0.0
  0
LINE
  5
190E1
  8
HIKIDASHI
 10
11918.494288720151
 20
2916.1193511509668
 30
0.0
 11
12073.233632238071
 21
3067.661600164834
 31
0.0
1001
ACAD
1000
DSTYLE
1002
{
1070
   147
1040
1.0
1070
    77
1070
     0
1002
}
  0
LINE
  5
190E2
  8
HIKIDASHI
 10
11909.165120870521
 20
2925.6453369273099
 30
0.0
 11
11861.33837406209
 21
2860.1443440531498
 31
0.0
  0
LINE
  5
190E3
  8
HIKIDASHI
 10
11861.33837406209
 20
2860.1443440531498
 30
0.0
 11
11927.823456569789
 21
2906.5933653746229
 31
0.0
  0
SOLID
  5
190E4
  8
HIKIDASHI
 10
11909.165120870521
 20
2925.6453369273099
 30
0.0
 11
11927.823456569789
 21
2906.5933653746229
 31
0.0
 12
11861.33837406209
 22
2860.1443440531498
 32
0.0
 13
11861.33837406209
 23
2860.1443440531498
 33
0.0
  0
LINE
  5
190E5
  8
HIKIDASHI
 10
11927.823456569789
 20
2906.5933653746229
 30
0.0
 11
11909.165120870521
 21
2925.6453369273099
 31
0.0
  0
LINE
  5
190E6
  8
HIKIDASHI
 10
8365.4430523305073
 20
2790.2889852264479
 30
0.0
 11
7568.0254068900031
 21
1938.6848394196049
 31
0.0
1001
ACAD
1000
DSTYLE
1002
{
1070
   147
1040
1.0
1070
    77
1070
     0
1002
}
  0
LINE
  5
190E7
  8
HIKIDASHI
 10
8375.175694696034
 20
2781.1756186496809
 30
0.0
 11
8420.1232517911103
 21
2848.6848394196072
 31
0.0
  0
LINE
  5
190E8
  8
HIKIDASHI
 10
8420.1232517911103
 20
2848.6848394196072
 30
0.0
 11
8355.7104099649805
 21
2799.4023518032159
 31
0.0
  0
SOLID
  5
190E9
  8
HIKIDASHI
 10
8375.175694696034
 20
2781.1756186496809
 30
0.0
 11
8355.7104099649805
 21
2799.4023518032159
 31
0.0
 12
8420.1232517911103
 22
2848.6848394196072
 32
0.0
 13
8420.1232517911103
 23
2848.6848394196072
 33
0.0
  0
LINE
  5
190EA
  8
HIKIDASHI
 10
8355.7104099649805
 20
2799.4023518032159
 30
0.0
 11
8375.175694696034
 21
2781.1756186496809
 31
0.0
  0
ARC
  5
190EB
  8
HIKIDASHI
 10
7243.0851246211732
 20
1890.2496953020579
 30
0.0
 40
74.664179104522319
 50
301.7712278330705
 51
15.140387014909511
  0
LINE
  5
190EC
  8
HIKIDASHI
 10
5106.0846626660186
 20
3525.9668717223599
 30
0.0
 11
5333.8600478393546
 21
3920.485411556192
 31
0.0
1001
ACAD
1000
DSTYLE
1002
{
1070
   147
1040
1.0
1070
    77
1070
     0
1002
}
  0
LINE
  5
190ED
  8
HIKIDASHI
 10
5094.5376572822261
 20
3532.6335383890282
 30
0.0
 11
5066.0846626660214
 21
3456.6848394196049
 31
0.0
  0
LINE
  5
190EE
  8
HIKIDASHI
 10
5066.0846626660214
 20
3456.6848394196049
 30
0.0
 11
5117.631668049813
 21
3519.3002050556938
 31
0.0
  0
SOLID
  5
190EF
  8
HIKIDASHI
 10
5094.5376572822261
 20
3532.6335383890282
 30
0.0
 11
5117.631668049813
 21
3519.3002050556938
 31
0.0
 12
5066.0846626660214
 22
3456.6848394196049
 32
0.0
 13
5066.0846626660214
 23
3456.6848394196049
 33
0.0
  0
LINE
  5
190F0
  8
HIKIDASHI
 10
5117.631668049813
 20
3519.3002050556938
 30
0.0
 11
5094.5376572822261
 21
3532.6335383890282
 31
0.0
  0
LINE
  5
190F1
  8
HIKIDASHI
 10
5648.4351517190798
 20
2487.5684227664401
 30
0.0
 11
5816.3380968026604
 21
2268.304238552882
 31
0.0
1001
ACAD
1000
DSTYLE
1002
{
1070
   147
1040
1.0
1070
    77
1070
     0
1002
}
  0
LINE
  5
190F2
  8
HIKIDASHI
 10
5659.0212211612752
 20
2495.6747728417099
 30
0.0
 11
5599.797051267461
 21
2551.0848394196018
 31
0.0
  0
LINE
  5
190F3
  8
HIKIDASHI
 10
5599.797051267461
 20
2551.0848394196018
 30
0.0
 11
5637.8490822768881
 21
2479.4620726911699
 31
0.0
  0
SOLID
  5
190F4
  8
HIKIDASHI
 10
5659.0212211612752
 20
2495.6747728417099
 30
0.0
 11
5637.8490822768881
 21
2479.4620726911699
 31
0.0
 12
5599.797051267461
 22
2551.0848394196018
 32
0.0
 13
5599.797051267461
 23
2551.0848394196018
 33
0.0
  0
LINE
  5
190F5
  8
HIKIDASHI
 10
5637.8490822768881
 20
2479.4620726911699
 30
0.0
 11
5659.0212211612752
 21
2495.6747728417099
 31
0.0
  0
LINE
  5
190F6
  8
HIKIDASHI
 10
5517.9583108071984
 20
3204.439659000036
 30
0.0
 11
5674.8716626111582
 21
2904.1147070208799
 31
0.0
1001
ACAD
1000
DSTYLE
1002
{
1070
    41
1040
2.0
1070
   173
1070
     0
1070
   341
1005
125B0
1002
}
  0
ARC
  5
190F7
  8
HIKIDASHI
 10
5472.2711087813614
 20
3259.4911303298582
 30
0.0
 40
18.0
 50
241.1434129563095
 51
354.02879343246758
  0
ARC
  5
190F8
  8
HIKIDASHI
 10
5508.0757835647764
 20
3255.746098466976
 30
0.0
 40
18.0
 50
61.143412956309497
 51
174.02879343246749
  0
LINE
  5
190F9
  8
HIKIDASHI
 10
5490.1734461730684
 20
3257.6186143984169
 30
0.0
 11
5517.9583108072047
 21
3204.4396590000242
 31
0.0
  0
LINE
  5
190FB
  8
HATCH
 10
9597.7650526869329
 20
3191.0848394189561
 30
0.0
 11
9671.6658871432046
 21
3319.0848394189479
 31
0.0
  0
LINE
  5
190FC
  8
HATCH
 10
9633.2658871432031
 20
3319.084839418947
 30
0.0
 11
9652.4658871432021
 21
3285.8294639136311
 31
0.0
  0
LINE
  5
190FE
  8
HATCH
 10
9309.7650526869329
 20
3191.0848394189561
 30
0.0
 11
9383.6658871431991
 21
3319.0848394189479
 31
0.0
  0
LINE
  5
190FF
  8
HATCH
 10
9345.2658871432031
 20
3319.084839418947
 30
0.0
 11
9364.4658871432021
 21
3285.8294639136311
 31
0.0
  0
LINE
  5
19101
  8
HATCH
 10
9453.7650526869329
 20
3191.0848394189561
 30
0.0
 11
9527.6658871431973
 21
3319.0848394189479
 31
0.0
  0
LINE
  5
19102
  8
HATCH
 10
9489.2658871432013
 20
3319.084839418947
 30
0.0
 11
9508.4658871432021
 21
3285.8294639136311
 31
0.0
  0
LINE
  5
19104
  8
HATCH
 10
9741.7650526869347
 20
3191.0848394189561
 30
0.0
 11
9815.6658871432046
 21
3319.0848394189479
 31
0.0
  0
LINE
  5
19105
  8
HATCH
 10
9777.2658871432068
 20
3319.084839418947
 30
0.0
 11
9796.4658871432021
 21
3285.8294639136311
 31
0.0
  0
LINE
  5
19107
  8
HATCH
 10
9597.7650526888538
 20
3191.0848394195732
 30
0.0
 11
9671.66588714514
 21
3319.0848394196018
 31
0.0
  0
LINE
  5
19108
  8
HATCH
 10
9633.2658871451313
 20
3319.0848394196018
 30
0.0
 11
9652.4658871451375
 21
3285.8294639142741
 31
0.0
  0
LINE
  5
1910A
  8
HATCH
 10
9741.7650526888538
 20
3191.0848394195732
 30
0.0
 11
9815.66588714514
 21
3319.0848394196018
 31
0.0
  0
LINE
  5
1910B
  8
HATCH
 10
9777.2658871451313
 20
3319.0848394196018
 30
0.0
 11
9796.4658871451375
 21
3285.8294639142741
 31
0.0
  0
LINE
  5
1910D
  8
HATCH
 10
9453.7650526888483
 20
3191.0848394195732
 30
0.0
 11
9527.66588714514
 21
3319.0848394196018
 31
0.0
  0
LINE
  5
1910E
  8
HATCH
 10
9489.2658871451313
 20
3319.0848394196018
 30
0.0
 11
9508.4658871451356
 21
3285.8294639142741
 31
0.0
  0
LINE
  5
19110
  8
HATCH
 10
9309.7650526888501
 20
3191.0848394195732
 30
0.0
 11
9383.66588714514
 21
3319.0848394196018
 31
0.0
  0
LINE
  5
19111
  8
HATCH
 10
9345.2658871451313
 20
3319.0848394196018
 30
0.0
 11
9364.4658871451356
 21
3285.8294639142741
 31
0.0
  0
LINE
  5
19113
  8
HATCH
 10
5817.4388521632836
 20
3191.084839420223
 30
0.0
 11
5891.3396866195526
 21
3319.0848394202171
 31
0.0
  0
LINE
  5
19114
  8
HATCH
 10
5852.9396866195548
 20
3319.0848394202148
 30
0.0
 11
5872.1396866195537
 21
3285.8294639148971
 31
0.0
  0
LINE
  5
19116
  8
HATCH
 10
5529.4388521632836
 20
3191.084839420223
 30
0.0
 11
5603.3396866195553
 21
3319.0848394202171
 31
0.0
  0
LINE
  5
19117
  8
HATCH
 10
5564.9396866195557
 20
3319.0848394202148
 30
0.0
 11
5584.1396866195537
 21
3285.8294639148971
 31
0.0
  0
LINE
  5
19119
  8
HATCH
 10
5673.4388521632864
 20
3191.084839420223
 30
0.0
 11
5747.3396866195544
 21
3319.0848394202171
 31
0.0
  0
LINE
  5
1911A
  8
HATCH
 10
5708.9396866195539
 20
3319.0848394202148
 30
0.0
 11
5728.1396866195546
 21
3285.8294639148971
 31
0.0
  0
LINE
  5
1911C
  8
HATCH
 10
5961.4388521632854
 20
3191.084839420223
 30
0.0
 11
6035.3396866195544
 21
3319.0848394202171
 31
0.0
  0
LINE
  5
1911D
  8
HATCH
 10
5996.9396866195557
 20
3319.0848394202148
 30
0.0
 11
6016.1396866195537
 21
3285.8294639148971
 31
0.0
  0
LINE
  5
1911E
  8
HATCH
 10
9636.1650526869253
 20
3191.0848394189561
 30
0.0
 11
9616.9650526869282
 21
3224.3402149242729
 31
0.0
  0
LINE
  5
1911F
  8
HATCH
 10
9348.1650526869289
 20
3191.0848394189561
 30
0.0
 11
9328.9650526869264
 21
3224.3402149242729
 31
0.0
  0
LINE
  5
19120
  8
HATCH
 10
9492.1650526869253
 20
3191.0848394189561
 30
0.0
 11
9472.9650526869282
 21
3224.3402149242729
 31
0.0
  0
LINE
  5
19121
  8
HATCH
 10
9780.1650526869271
 20
3191.0848394189561
 30
0.0
 11
9760.9650526869282
 21
3224.3402149242729
 31
0.0
  0
LINE
  5
19122
  8
HATCH
 10
9636.165052688857
 20
3191.0848394195732
 30
0.0
 11
9616.9650526888545
 21
3224.3402149249009
 31
0.0
  0
LINE
  5
19123
  8
HATCH
 10
9780.165052688857
 20
3191.0848394195732
 30
0.0
 11
9760.9650526888527
 21
3224.3402149249009
 31
0.0
  0
LINE
  5
19124
  8
HATCH
 10
9492.165052688857
 20
3191.0848394195732
 30
0.0
 11
9472.9650526888508
 21
3224.3402149249009
 31
0.0
  0
LINE
  5
19125
  8
HATCH
 10
9348.165052688857
 20
3191.0848394195732
 30
0.0
 11
9328.9650526888508
 21
3224.3402149249009
 31
0.0
  0
LINE
  5
19126
  8
HATCH
 10
5855.8388521632778
 20
3191.0848394202239
 30
0.0
 11
5836.6388521632798
 21
3224.3402149255412
 31
0.0
  0
LINE
  5
19127
  8
HATCH
 10
5567.8388521632787
 20
3191.0848394202239
 30
0.0
 11
5548.6388521632789
 21
3224.3402149255412
 31
0.0
  0
LINE
  5
19128
  8
HATCH
 10
5711.8388521632778
 20
3191.0848394202239
 30
0.0
 11
5692.6388521632798
 21
3224.3402149255412
 31
0.0
  0
LINE
  5
19129
  8
HATCH
 10
5999.8388521632787
 20
3191.0848394202239
 30
0.0
 11
5980.6388521632798
 21
3224.3402149255412
 31
0.0
  0
LINE
  5
1912A
  8
KISO
 10
5599.797051267461
 20
2711.0848394196018
 30
0.0
 11
3999.7970512674619
 21
2711.0848394196018
 31
0.0
  0
LINE
  5
1912B
  8
KISO
 10
3999.7970512674619
 20
2711.0848394196018
 30
0.0
 11
3999.7970512674619
 21
2551.0848394196018
 31
0.0
  0
LINE
  5
1912C
  8
KISO
 10
3999.7970512674619
 20
2551.0848394196018
 30
0.0
 11
5599.797051267461
 21
2551.0848394196018
 31
0.0
  0
LINE
  5
1912D
  8
KISO
 10
5599.797051267461
 20
2551.0848394196018
 30
0.0
 11
5599.797051267461
 21
2711.0848394196018
 31
0.0
  0
LINE
  5
1912E
  8
KISO
 10
7780.1232517911094
 20
2711.0848394196069
 30
0.0
 11
9380.1232517911085
 21
2711.0848394196069
 31
0.0
  0
LINE
  5
1912F
  8
KISO
 10
9380.1232517911085
 20
2711.0848394196069
 30
0.0
 11
9380.1232517911085
 21
2551.0848394196018
 31
0.0
  0
LINE
  5
19130
  8
KISO
 10
9380.1232517911085
 20
2551.0848394196018
 30
0.0
 11
7780.1232517911094
 21
2551.0848394196018
 31
0.0
  0
LINE
  5
19131
  8
KISO
 10
7780.1232517911094
 20
2551.0848394196018
 30
0.0
 11
7780.1232517911094
 21
2711.0848394196069
 31
0.0
  0
LINE
  5
19132
  8
U1
 10
11391.33837406209
 20
2550.1443440531489
 30
0.0
 11
11691.33837406209
 21
2550.1443440531489
 31
0.0
  0
LINE
  5
19133
  8
U1
 10
11691.33837406209
 20
2550.1443440531489
 30
0.0
 11
11691.33837406209
 21
2850.1443440531489
 31
0.0
  0
LINE
  5
19134
  8
U1
 10
11691.33837406209
 20
2850.1443440531489
 30
0.0
 11
11391.33837406209
 21
2850.1443440531489
 31
0.0
  0
LINE
  5
19135
  8
U1
 10
11391.33837406209
 20
2850.1443440531489
 30
0.0
 11
11391.33837406209
 21
2550.1443440531489
 31
0.0
  0
LINE
  5
19136
  8
U1
 10
11221.33837406209
 20
2540.1443440531498
 30
0.0
 11
11861.33837406209
 21
2540.1443440531498
 31
0.0
  0
LINE
  5
19137
  8
U1
 10
11861.33837406209
 20
2540.1443440531498
 30
0.0
 11
11861.33837406209
 21
2860.1443440531498
 31
0.0
  0
LINE
  5
19138
  8
U1
 10
11861.33837406209
 20
2860.1443440531498
 30
0.0
 11
11221.33837406209
 21
2860.1443440531498
 31
0.0
  0
LINE
  5
19139
  8
U1
 10
11221.33837406209
 20
2860.1443440531498
 30
0.0
 11
11221.33837406209
 21
2540.1443440531498
 31
0.0
  0
LINE
  5
1913A
  8
U1
 10
11221.33837406209
 20
3618.3370365845608
 30
0.0
 11
11861.33837406209
 21
3618.3370365845608
 31
0.0
  0
LINE
  5
1913B
  8
U1
 10
11861.33837406209
 20
3618.3370365845608
 30
0.0
 11
11861.33837406209
 21
3642.3370365845608
 31
0.0
  0
LINE
  5
1913C
  8
U1
 10
11861.33837406209
 20
3642.3370365845608
 30
0.0
 11
11221.33837406209
 21
3642.3370365845608
 31
0.0
  0
LINE
  5
1913D
  8
U1
 10
11221.33837406209
 20
3642.3370365845608
 30
0.0
 11
11221.33837406209
 21
3618.3370365845608
 31
0.0
  0
LINE
  5
19140
  8
TENSEN-1
 10
8740.1232517911103
 20
2869.484839419606
 30
0.0
 11
8686.5232517911136
 21
2869.484839419606
 31
0.0
  0
LINE
  5
19141
  8
TENSEN-1
 10
8686.5232517911136
 20
2869.484839419606
 30
0.0
 11
8686.5232517911136
 21
3360.6848394196072
 31
0.0
  0
LINE
  5
19142
  8
TENSEN-1
 10
8686.5232517911136
 20
3360.6848394196072
 30
0.0
 11
8665.7232517911125
 21
3360.6848394196072
 31
0.0
  0
LINE
  5
19143
  8
TENSEN-1
 10
8665.7232517911125
 20
3360.6848394196072
 30
0.0
 11
8665.7232517911089
 21
2848.6848394196072
 31
0.0
  0
LINE
  5
19144
  8
TENSEN-1
 10
8665.7232517911089
 20
2848.6848394196072
 30
0.0
 11
8740.1232517911103
 21
2848.6848394196072
 31
0.0
  0
LINE
  5
19145
  8
TENSEN-1
 10
8740.1232517911103
 20
2848.6848394196072
 30
0.0
 11
8740.1232517911103
 21
2869.484839419606
 31
0.0
  0
LINE
  5
19146
  8
TENSEN-1
 10
8420.1232517911103
 20
2869.484839419606
 30
0.0
 11
8473.7232517911125
 21
2869.484839419606
 31
0.0
  0
LINE
  5
19147
  8
TENSEN-1
 10
8473.7232517911125
 20
2869.484839419606
 30
0.0
 11
8473.7232517911125
 21
3360.6848394196072
 31
0.0
  0
LINE
  5
19148
  8
TENSEN-1
 10
8473.7232517911125
 20
3360.6848394196072
 30
0.0
 11
8494.5232517911136
 21
3360.6848394196072
 31
0.0
  0
LINE
  5
19149
  8
TENSEN-1
 10
8494.5232517911136
 20
3360.6848394196072
 30
0.0
 11
8494.5232517911136
 21
2848.6848394196072
 31
0.0
  0
LINE
  5
1914A
  8
TENSEN-1
 10
8494.5232517911136
 20
2848.6848394196072
 30
0.0
 11
8420.1232517911103
 21
2848.6848394196072
 31
0.0
  0
LINE
  5
1914B
  8
TENSEN-1
 10
8420.1232517911103
 20
2848.6848394196072
 30
0.0
 11
8420.1232517911103
 21
2869.484839419606
 31
0.0
  0
LINE
  5
1914C
  8
HASHIRA
 10
8452.1232517911103
 20
3319.0848394196069
 30
0.0
 11
8708.1232517911103
 21
3319.0848394196069
 31
0.0
  0
LINE
  5
1914D
  8
HASHIRA
 10
8708.1232517911103
 20
3319.0848394196069
 30
0.0
 11
8708.1232517911103
 21
3328.6848394196072
 31
0.0
  0
LINE
  5
1914E
  8
HASHIRA
 10
8708.1232517911103
 20
3328.6848394196072
 30
0.0
 11
8452.1232517911103
 21
3328.6848394196072
 31
0.0
  0
LINE
  5
1914F
  8
HASHIRA
 10
8452.1232517911103
 20
3328.6848394196072
 30
0.0
 11
8452.1232517911103
 21
3319.0848394196069
 31
0.0
  0
LINE
  5
19150
  8
BOLT
 10
8593.7232517911089
 20
3360.6848394196072
 30
0.0
 11
8593.7232517911089
 21
3368.5368030805839
 31
0.0
  0
LINE
  5
19151
  8
BOLT
 10
8593.7232517911089
 20
3368.5368030805839
 30
0.0
 11
8580.1232517911103
 21
3376.3887667415661
 31
0.0
  0
LINE
  5
19152
  8
BOLT
 10
8580.1232517911103
 20
3376.3887667415661
 30
0.0
 11
8566.5232517911081
 21
3368.5368030805839
 31
0.0
  0
LINE
  5
19153
  8
BOLT
 10
8566.5232517911081
 20
3368.5368030805839
 30
0.0
 11
8566.5232517911081
 21
3360.6848394196072
 31
0.0
  0
LINE
  5
19154
  8
BOLT
 10
8566.5232517911081
 20
3360.6848394196072
 30
0.0
 11
8566.5232517911081
 21
3352.8328757586269
 31
0.0
  0
LINE
  5
19155
  8
BOLT
 10
8566.5232517911081
 20
3352.8328757586269
 30
0.0
 11
8580.1232517911103
 21
3344.980912097647
 31
0.0
  0
LINE
  5
19156
  8
BOLT
 10
8580.1232517911103
 20
3344.980912097647
 30
0.0
 11
8593.7232517911089
 21
3352.8328757586269
 31
0.0
  0
LINE
  5
19157
  8
BOLT
 10
8593.7232517911089
 20
3352.8328757586269
 30
0.0
 11
8593.7232517911089
 21
3360.6848394196072
 31
0.0
  0
LINE
  5
19158
  8
BOLT
 10
8593.7232517911089
 20
3424.6848394196072
 30
0.0
 11
8593.7232517911089
 21
3432.5368030805839
 31
0.0
  0
LINE
  5
19159
  8
BOLT
 10
8593.7232517911089
 20
3432.5368030805839
 30
0.0
 11
8580.1232517911103
 21
3440.3887667415661
 31
0.0
  0
LINE
  5
1915A
  8
BOLT
 10
8580.1232517911103
 20
3440.3887667415661
 30
0.0
 11
8566.5232517911081
 21
3432.5368030805839
 31
0.0
  0
LINE
  5
1915B
  8
BOLT
 10
8566.5232517911081
 20
3432.5368030805839
 30
0.0
 11
8566.5232517911081
 21
3424.6848394196072
 31
0.0
  0
LINE
  5
1915C
  8
BOLT
 10
8566.5232517911081
 20
3424.6848394196072
 30
0.0
 11
8566.5232517911081
 21
3416.8328757586269
 31
0.0
  0
LINE
  5
1915D
  8
BOLT
 10
8566.5232517911081
 20
3416.8328757586269
 30
0.0
 11
8580.1232517911103
 21
3408.980912097647
 31
0.0
  0
LINE
  5
1915E
  8
BOLT
 10
8580.1232517911103
 20
3408.980912097647
 30
0.0
 11
8593.7232517911089
 21
3416.8328757586269
 31
0.0
  0
LINE
  5
1915F
  8
BOLT
 10
8593.7232517911089
 20
3416.8328757586269
 30
0.0
 11
8593.7232517911089
 21
3424.6848394196072
 31
0.0
  0
LINE
  5
19160
  8
HASHIRA
 10
4735.7970512674619
 20
3319.0848394196082
 30
0.0
 11
4863.7970512674638
 21
3319.0848394196082
 31
0.0
  0
LINE
  5
19161
  8
HASHIRA
 10
4863.7970512674638
 20
3319.0848394196082
 30
0.0
 11
4863.7970512674638
 21
3328.6848394196072
 31
0.0
  0
LINE
  5
19162
  8
HASHIRA
 10
4863.7970512674638
 20
3328.6848394196072
 30
0.0
 11
4735.7970512674619
 21
3328.6848394196072
 31
0.0
  0
LINE
  5
19163
  8
HASHIRA
 10
4735.7970512674619
 20
3328.6848394196072
 30
0.0
 11
4735.7970512674619
 21
3319.0848394196082
 31
0.0
  0
LINE
  5
19164
  8
TENSEN-1
 10
4735.7970512674619
 20
2869.4848394196069
 30
0.0
 11
4789.3970512674632
 21
2869.4848394196069
 31
0.0
  0
LINE
  5
19165
  8
TENSEN-1
 10
4789.3970512674632
 20
2869.4848394196069
 30
0.0
 11
4789.3970512674632
 21
3360.6848394196072
 31
0.0
  0
LINE
  5
19166
  8
TENSEN-1
 10
4789.3970512674632
 20
3360.6848394196072
 30
0.0
 11
4810.1970512674652
 21
3360.6848394196072
 31
0.0
  0
LINE
  5
19167
  8
TENSEN-1
 10
4810.1970512674652
 20
3360.6848394196072
 30
0.0
 11
4810.1970512674652
 21
2848.6848394196072
 31
0.0
  0
LINE
  5
19168
  8
TENSEN-1
 10
4810.1970512674652
 20
2848.6848394196072
 30
0.0
 11
4735.7970512674619
 21
2848.6848394196072
 31
0.0
  0
LINE
  5
19169
  8
TENSEN-1
 10
4735.7970512674619
 20
2848.6848394196072
 30
0.0
 11
4735.7970512674619
 21
2869.4848394196069
 31
0.0
  0
LINE
  5
1916A
  8
U1
 10
4782.5603260254793
 20
7519.7127029417779
 30
0.0
 11
4750.1603260254778
 21
7519.7127029417779
 31
0.0
  0
LINE
  5
1916B
  8
U1
 10
4750.1603260254778
 20
7459.3127029417774
 30
0.0
 11
4802.5603260254802
 21
7459.3127029417774
 31
0.0
  0
ARC
  5
1916D
  8
U1
 10
4750.1603260254778
 20
7463.3127029417774
 30
0.0
 40
4.0
 50
180.0
 51
270.0
  0
ARC
  5
1916E
  8
U1
 10
4750.1603260254778
 20
7515.7127029417798
 30
0.0
 40
4.0
 50
90.0
 51
180.0
  0
LINE
  5
1916F
  8
U1
 10
4746.1603260254788
 20
7515.7127029417798
 30
0.0
 11
4746.1603260254788
 21
7463.3127029417774
 31
0.0
  0
ARC
  5
19170
  8
U1
 10
4802.5603260254802
 20
7463.3127029417774
 30
0.0
 40
4.0
 50
270.0
 51
0.0
  0
ARC
  5
19171
  8
U1
 10
4782.5603260254793
 20
7515.7127029417798
 30
0.0
 40
4.0
 50
0.0
 51
90.0
  0
ARC
  5
19172
  8
U1
 10
4790.01032602548
 20
7506.4627029417788
 30
0.0
 40
1.149999999999977
 50
180.0
 51
0.0
  0
LINE
  5
19173
  8
U1
 10
4793.4603260254789
 20
7514.0127029417781
 30
0.0
 11
4793.4603260254789
 21
7506.4627029417788
 31
0.0
  0
LINE
  5
19174
  8
U1
 10
4791.1603260254788
 20
7514.0127029417781
 30
0.0
 11
4793.4603260254789
 21
7514.0127029417781
 31
0.0
  0
LINE
  5
19175
  8
U1
 10
4788.8603260254804
 20
7507.0127029417781
 30
0.0
 11
4791.1603260254788
 21
7507.0127029417781
 31
0.0
  0
ARC
  5
19176
  8
U1
 10
4790.01032602548
 20
7506.4627029417788
 30
0.0
 40
3.4500000000000441
 50
180.0
 51
0.0
  0
LINE
  5
19177
  8
U1
 10
4788.8603260254804
 20
7506.4627029417788
 30
0.0
 11
4788.8603260254804
 21
7515.7127029417761
 31
0.0
  0
LINE
  5
19178
  8
U1
 10
4791.1603260254788
 20
7515.7127029417798
 30
0.0
 11
4791.1603260254788
 21
7506.4627029417788
 31
0.0
  0
LINE
  5
19179
  8
U1
 10
4786.5603260254793
 20
7506.4627029417788
 30
0.0
 11
4786.5603260254793
 21
7515.7127029417798
 31
0.0
  0
ARC
  5
1917A
  8
U1
 10
4802.5603260254784
 20
7515.7127029417798
 30
0.0
 40
4.0
 50
0.0
 51
90.0
  0
LINE
  5
1917B
  8
U1
 10
4802.5603260254784
 20
7519.7127029417779
 30
0.0
 11
4795.160326025476
 21
7519.7127029417779
 31
0.0
  0
ARC
  5
1917C
  8
U1
 10
4795.160326025476
 20
7515.7127029417798
 30
0.0
 40
4.0
 50
90.0
 51
180.0
  0
LINE
  5
1917D
  8
U1
 10
4806.5603260254793
 20
7463.3127029417774
 30
0.0
 11
4806.5603260254766
 21
7515.7127029417798
 31
0.0
  0
LINE
  5
1917E
  8
U1
 10
4782.5603260254793
 20
9319.7127029417788
 30
0.0
 11
4750.1603260254778
 21
9319.7127029417788
 31
0.0
  0
LINE
  5
1917F
  8
U1
 10
4750.1603260254778
 20
9259.3127029417756
 30
0.0
 11
4802.5603260254802
 21
9259.3127029417756
 31
0.0
  0
ARC
  5
19181
  8
U1
 10
4750.1603260254778
 20
9263.3127029417792
 30
0.0
 40
4.0
 50
180.0
 51
270.0
  0
ARC
  5
19182
  8
U1
 10
4750.1603260254778
 20
9315.7127029417788
 30
0.0
 40
4.0
 50
90.0
 51
180.0
  0
LINE
  5
19183
  8
U1
 10
4746.1603260254788
 20
9315.7127029417788
 30
0.0
 11
4746.1603260254788
 21
9263.3127029417792
 31
0.0
  0
ARC
  5
19184
  8
U1
 10
4802.5603260254802
 20
9263.3127029417792
 30
0.0
 40
4.0
 50
270.0
 51
0.0
  0
ARC
  5
19185
  8
U1
 10
4782.5603260254793
 20
9315.7127029417788
 30
0.0
 40
4.0
 50
0.0
 51
90.0
  0
ARC
  5
19186
  8
U1
 10
4790.01032602548
 20
9306.4627029417807
 30
0.0
 40
1.149999999999977
 50
180.0
 51
0.0
  0
LINE
  5
19187
  8
U1
 10
4793.4603260254789
 20
9314.0127029417781
 30
0.0
 11
4793.4603260254789
 21
9306.4627029417807
 31
0.0
  0
LINE
  5
19188
  8
U1
 10
4791.1603260254788
 20
9314.0127029417781
 30
0.0
 11
4793.4603260254789
 21
9314.0127029417781
 31
0.0
  0
LINE
  5
19189
  8
U1
 10
4788.8603260254804
 20
9307.0127029417763
 30
0.0
 11
4791.1603260254788
 21
9307.0127029417763
 31
0.0
  0
ARC
  5
1918A
  8
U1
 10
4790.01032602548
 20
9306.4627029417807
 30
0.0
 40
3.4500000000000441
 50
180.0
 51
0.0
  0
LINE
  5
1918B
  8
U1
 10
4788.8603260254804
 20
9306.4627029417807
 30
0.0
 11
4788.8603260254804
 21
9315.712702941777
 31
0.0
  0
LINE
  5
1918C
  8
U1
 10
4791.1603260254788
 20
9315.7127029417788
 30
0.0
 11
4791.1603260254788
 21
9306.4627029417807
 31
0.0
  0
LINE
  5
1918D
  8
U1
 10
4786.5603260254793
 20
9306.4627029417807
 30
0.0
 11
4786.5603260254793
 21
9315.7127029417788
 31
0.0
  0
ARC
  5
1918E
  8
U1
 10
4802.5603260254784
 20
9315.7127029417788
 30
0.0
 40
4.0
 50
0.0
 51
90.0
  0
LINE
  5
1918F
  8
U1
 10
4802.5603260254784
 20
9319.7127029417788
 30
0.0
 11
4795.160326025476
 21
9319.7127029417788
 31
0.0
  0
ARC
  5
19190
  8
U1
 10
4795.160326025476
 20
9315.7127029417788
 30
0.0
 40
4.0
 50
90.0
 51
180.0
  0
LINE
  5
19191
  8
U1
 10
4806.5603260254793
 20
9263.3127029417792
 30
0.0
 11
4806.5603260254766
 21
9315.7127029417788
 31
0.0
  0
LINE
  5
19192
  8
U1
 10
7232.5603260254784
 20
7519.7127029417779
 30
0.0
 11
7200.1603260254778
 21
7519.7127029417779
 31
0.0
  0
LINE
  5
19193
  8
U1
 10
7200.1603260254778
 20
7459.3127029417774
 30
0.0
 11
7252.5603260254802
 21
7459.3127029417774
 31
0.0
  0
ARC
  5
19195
  8
U1
 10
7200.1603260254778
 20
7463.3127029417774
 30
0.0
 40
4.0
 50
180.0
 51
270.0
  0
ARC
  5
19196
  8
U1
 10
7200.1603260254778
 20
7515.7127029417798
 30
0.0
 40
4.0
 50
90.0
 51
180.0
  0
LINE
  5
19197
  8
U1
 10
7196.1603260254788
 20
7515.7127029417798
 30
0.0
 11
7196.1603260254788
 21
7463.3127029417774
 31
0.0
  0
ARC
  5
19198
  8
U1
 10
7252.5603260254802
 20
7463.3127029417774
 30
0.0
 40
4.0
 50
270.0
 51
0.0
  0
ARC
  5
19199
  8
U1
 10
7232.5603260254784
 20
7515.7127029417798
 30
0.0
 40
4.0
 50
0.0
 51
90.0
  0
ARC
  5
1919A
  8
U1
 10
7240.01032602548
 20
7506.4627029417788
 30
0.0
 40
1.149999999999977
 50
180.0
 51
0.0
  0
LINE
  5
1919B
  8
U1
 10
7243.4603260254789
 20
7514.0127029417781
 30
0.0
 11
7243.4603260254789
 21
7506.4627029417788
 31
0.0
  0
LINE
  5
1919C
  8
U1
 10
7241.1603260254788
 20
7514.0127029417781
 30
0.0
 11
7243.4603260254789
 21
7514.0127029417781
 31
0.0
  0
LINE
  5
1919D
  8
U1
 10
7238.8603260254804
 20
7507.0127029417781
 30
0.0
 11
7241.1603260254788
 21
7507.0127029417781
 31
0.0
  0
ARC
  5
1919E
  8
U1
 10
7240.01032602548
 20
7506.4627029417788
 30
0.0
 40
3.4500000000000441
 50
180.0
 51
0.0
  0
LINE
  5
1919F
  8
U1
 10
7238.8603260254804
 20
7506.4627029417788
 30
0.0
 11
7238.8603260254777
 21
7515.7127029417761
 31
0.0
  0
LINE
  5
191A0
  8
U1
 10
7241.1603260254788
 20
7515.7127029417798
 30
0.0
 11
7241.1603260254788
 21
7506.4627029417788
 31
0.0
  0
LINE
  5
191A1
  8
U1
 10
7236.5603260254802
 20
7506.4627029417788
 30
0.0
 11
7236.5603260254802
 21
7515.7127029417798
 31
0.0
  0
ARC
  5
191A2
  8
U1
 10
7252.5603260254784
 20
7515.7127029417798
 30
0.0
 40
4.0
 50
0.0
 51
90.0
  0
LINE
  5
191A3
  8
U1
 10
7252.5603260254784
 20
7519.7127029417779
 30
0.0
 11
7245.1603260254778
 21
7519.7127029417779
 31
0.0
  0
ARC
  5
191A4
  8
U1
 10
7245.1603260254778
 20
7515.7127029417798
 30
0.0
 40
4.0
 50
90.0
 51
180.0
  0
LINE
  5
191A5
  8
U1
 10
7256.5603260254784
 20
7463.3127029417774
 30
0.0
 11
7256.5603260254784
 21
7515.7127029417798
 31
0.0
  0
LINE
  5
191A6
  8
U1
 10
7232.5603260254784
 20
9319.7127029417788
 30
0.0
 11
7200.1603260254778
 21
9319.7127029417788
 31
0.0
  0
LINE
  5
191A7
  8
U1
 10
7200.1603260254778
 20
9259.3127029417756
 30
0.0
 11
7252.5603260254802
 21
9259.3127029417756
 31
0.0
  0
ARC
  5
191A9
  8
U1
 10
7200.1603260254778
 20
9263.3127029417792
 30
0.0
 40
4.0
 50
180.0
 51
270.0
  0
ARC
  5
191AA
  8
U1
 10
7200.1603260254778
 20
9315.7127029417788
 30
0.0
 40
4.0
 50
90.0
 51
180.0
  0
LINE
  5
191AB
  8
U1
 10
7196.1603260254788
 20
9315.7127029417788
 30
0.0
 11
7196.1603260254788
 21
9263.3127029417792
 31
0.0
  0
ARC
  5
191AC
  8
U1
 10
7252.5603260254802
 20
9263.3127029417792
 30
0.0
 40
4.0
 50
270.0
 51
0.0
  0
ARC
  5
191AD
  8
U1
 10
7232.5603260254784
 20
9315.7127029417788
 30
0.0
 40
4.0
 50
0.0
 51
90.0
  0
ARC
  5
191AE
  8
U1
 10
7240.01032602548
 20
9306.4627029417807
 30
0.0
 40
1.149999999999977
 50
180.0
 51
0.0
  0
LINE
  5
191AF
  8
U1
 10
7243.4603260254789
 20
9314.0127029417781
 30
0.0
 11
7243.4603260254789
 21
9306.4627029417807
 31
0.0
  0
LINE
  5
191B0
  8
U1
 10
7241.1603260254788
 20
9314.0127029417781
 30
0.0
 11
7243.4603260254789
 21
9314.0127029417781
 31
0.0
  0
LINE
  5
191B1
  8
U1
 10
7238.8603260254804
 20
9307.0127029417763
 30
0.0
 11
7241.1603260254788
 21
9307.0127029417763
 31
0.0
  0
ARC
  5
191B2
  8
U1
 10
7240.01032602548
 20
9306.4627029417807
 30
0.0
 40
3.4500000000000441
 50
180.0
 51
0.0
  0
LINE
  5
191B3
  8
U1
 10
7238.8603260254804
 20
9306.4627029417807
 30
0.0
 11
7238.8603260254777
 21
9315.712702941777
 31
0.0
  0
LINE
  5
191B4
  8
U1
 10
7241.1603260254788
 20
9315.7127029417788
 30
0.0
 11
7241.1603260254788
 21
9306.4627029417807
 31
0.0
  0
LINE
  5
191B5
  8
U1
 10
7236.5603260254802
 20
9306.4627029417807
 30
0.0
 11
7236.5603260254802
 21
9315.7127029417788
 31
0.0
  0
ARC
  5
191B6
  8
U1
 10
7252.5603260254784
 20
9315.7127029417788
 30
0.0
 40
4.0
 50
0.0
 51
90.0
  0
LINE
  5
191B7
  8
U1
 10
7252.5603260254784
 20
9319.7127029417788
 30
0.0
 11
7245.1603260254778
 21
9319.7127029417788
 31
0.0
  0
ARC
  5
191B8
  8
U1
 10
7245.1603260254778
 20
9315.7127029417788
 30
0.0
 40
4.0
 50
90.0
 51
180.0
  0
LINE
  5
191B9
  8
U1
 10
7256.5603260254784
 20
9263.3127029417792
 30
0.0
 11
7256.5603260254784
 21
9315.7127029417788
 31
0.0
  0
LINE
  5
191BA
  8
U1
 10
8632.5603260254793
 20
9319.7127029417788
 30
0.0
 11
8600.1603260254797
 21
9319.7127029417788
 31
0.0
  0
LINE
  5
191BB
  8
U1
 10
8600.1603260254797
 20
9259.3127029417756
 30
0.0
 11
8652.5603260254793
 21
9259.3127029417756
 31
0.0
  0
ARC
  5
191BD
  8
U1
 10
8600.1603260254797
 20
9263.3127029417792
 30
0.0
 40
4.0
 50
180.0
 51
270.0
  0
ARC
  5
191BE
  8
U1
 10
8600.1603260254797
 20
9315.7127029417788
 30
0.0
 40
4.0
 50
90.0
 51
180.0
  0
LINE
  5
191BF
  8
U1
 10
8596.1603260254778
 20
9315.7127029417788
 30
0.0
 11
8596.1603260254778
 21
9263.3127029417792
 31
0.0
  0
ARC
  5
191C0
  8
U1
 10
8652.5603260254793
 20
9263.3127029417792
 30
0.0
 40
4.0
 50
270.0
 51
0.0
  0
ARC
  5
191C1
  8
U1
 10
8632.5603260254793
 20
9315.7127029417788
 30
0.0
 40
4.0
 50
0.0
 51
90.0
  0
ARC
  5
191C2
  8
U1
 10
8640.01032602548
 20
9306.4627029417807
 30
0.0
 40
1.149999999999977
 50
180.0
 51
0.0
  0
LINE
  5
191C3
  8
U1
 10
8643.4603260254789
 20
9314.0127029417781
 30
0.0
 11
8643.4603260254789
 21
9306.4627029417807
 31
0.0
  0
LINE
  5
191C4
  8
U1
 10
8641.1603260254778
 20
9314.0127029417781
 30
0.0
 11
8643.4603260254789
 21
9314.0127029417781
 31
0.0
  0
LINE
  5
191C5
  8
U1
 10
8638.8603260254768
 20
9307.0127029417763
 30
0.0
 11
8641.1603260254778
 21
9307.0127029417763
 31
0.0
  0
ARC
  5
191C6
  8
U1
 10
8640.01032602548
 20
9306.4627029417807
 30
0.0
 40
3.4500000000000441
 50
180.0
 51
0.0
  0
LINE
  5
191C7
  8
U1
 10
8638.8603260254768
 20
9306.4627029417807
 30
0.0
 11
8638.8603260254768
 21
9315.712702941777
 31
0.0
  0
LINE
  5
191C8
  8
U1
 10
8641.1603260254778
 20
9315.7127029417788
 30
0.0
 11
8641.1603260254778
 21
9306.4627029417807
 31
0.0
  0
LINE
  5
191C9
  8
U1
 10
8636.5603260254793
 20
9306.4627029417807
 30
0.0
 11
8636.5603260254793
 21
9315.7127029417788
 31
0.0
  0
ARC
  5
191CA
  8
U1
 10
8652.5603260254793
 20
9315.7127029417788
 30
0.0
 40
4.0
 50
0.0
 51
90.0
  0
LINE
  5
191CB
  8
U1
 10
8652.5603260254793
 20
9319.7127029417788
 30
0.0
 11
8645.1603260254797
 21
9319.7127029417788
 31
0.0
  0
ARC
  5
191CC
  8
U1
 10
8645.1603260254797
 20
9315.7127029417788
 30
0.0
 40
4.0
 50
90.0
 51
180.0
  0
LINE
  5
191CD
  8
U1
 10
8656.5603260254793
 20
9263.3127029417792
 30
0.0
 11
8656.5603260254793
 21
9315.7127029417788
 31
0.0
  0
LINE
  5
191CE
  8
U1
 10
8632.5603260254793
 20
7519.7127029417779
 30
0.0
 11
8600.1603260254797
 21
7519.7127029417779
 31
0.0
  0
LINE
  5
191CF
  8
U1
 10
8600.1603260254797
 20
7459.3127029417774
 30
0.0
 11
8652.5603260254793
 21
7459.3127029417774
 31
0.0
  0
ARC
  5
191D1
  8
U1
 10
8600.1603260254797
 20
7463.3127029417774
 30
0.0
 40
4.0
 50
180.0
 51
270.0
  0
ARC
  5
191D2
  8
U1
 10
8600.1603260254797
 20
7515.7127029417798
 30
0.0
 40
4.0
 50
90.0
 51
180.0
  0
LINE
  5
191D3
  8
U1
 10
8596.1603260254778
 20
7515.7127029417798
 30
0.0
 11
8596.1603260254778
 21
7463.3127029417774
 31
0.0
  0
ARC
  5
191D4
  8
U1
 10
8652.5603260254793
 20
7463.3127029417774
 30
0.0
 40
4.0
 50
270.0
 51
0.0
  0
ARC
  5
191D5
  8
U1
 10
8632.5603260254793
 20
7515.7127029417798
 30
0.0
 40
4.0
 50
0.0
 51
90.0
  0
ARC
  5
191D6
  8
U1
 10
8640.01032602548
 20
7506.4627029417788
 30
0.0
 40
1.149999999999977
 50
180.0
 51
0.0
  0
LINE
  5
191D7
  8
U1
 10
8643.4603260254789
 20
7514.0127029417781
 30
0.0
 11
8643.4603260254789
 21
7506.4627029417788
 31
0.0
  0
LINE
  5
191D8
  8
U1
 10
8641.1603260254778
 20
7514.0127029417781
 30
0.0
 11
8643.4603260254789
 21
7514.0127029417781
 31
0.0
  0
LINE
  5
191D9
  8
U1
 10
8638.8603260254768
 20
7507.0127029417781
 30
0.0
 11
8641.1603260254778
 21
7507.0127029417781
 31
0.0
  0
ARC
  5
191DA
  8
U1
 10
8640.01032602548
 20
7506.4627029417788
 30
0.0
 40
3.4500000000000441
 50
180.0
 51
0.0
  0
LINE
  5
191DB
  8
U1
 10
8638.8603260254768
 20
7506.4627029417788
 30
0.0
 11
8638.8603260254768
 21
7515.7127029417761
 31
0.0
  0
LINE
  5
191DC
  8
U1
 10
8641.1603260254778
 20
7515.7127029417798
 30
0.0
 11
8641.1603260254778
 21
7506.4627029417788
 31
0.0
  0
LINE
  5
191DD
  8
U1
 10
8636.5603260254793
 20
7506.4627029417788
 30
0.0
 11
8636.5603260254793
 21
7515.7127029417798
 31
0.0
  0
ARC
  5
191DE
  8
U1
 10
8652.5603260254793
 20
7515.7127029417798
 30
0.0
 40
4.0
 50
0.0
 51
90.0
  0
LINE
  5
191DF
  8
U1
 10
8652.5603260254793
 20
7519.7127029417779
 30
0.0
 11
8645.1603260254797
 21
7519.7127029417779
 31
0.0
  0
ARC
  5
191E0
  8
U1
 10
8645.1603260254797
 20
7515.7127029417798
 30
0.0
 40
4.0
 50
90.0
 51
180.0
  0
LINE
  5
191E1
  8
U1
 10
8656.5603260254793
 20
7463.3127029417774
 30
0.0
 11
8656.5603260254793
 21
7515.7127029417798
 31
0.0
  0
LINE
  5
191E2
  8
U1
 10
11082.560326025479
 20
9319.7127029417788
 30
0.0
 11
11050.160326025471
 21
9319.7127029417788
 31
0.0
  0
LINE
  5
191E3
  8
U1
 10
11050.160326025471
 20
9259.3127029417756
 30
0.0
 11
11102.560326025479
 21
9259.3127029417756
 31
0.0
  0
ARC
  5
191E5
  8
U1
 10
11050.160326025471
 20
9263.3127029417792
 30
0.0
 40
4.0
 50
180.0
 51
270.0
  0
ARC
  5
191E6
  8
U1
 10
11050.160326025471
 20
9315.7127029417788
 30
0.0
 40
4.0
 50
90.0
 51
180.0
  0
LINE
  5
191E7
  8
U1
 10
11046.16032602548
 20
9315.7127029417788
 30
0.0
 11
11046.16032602548
 21
9263.3127029417792
 31
0.0
  0
ARC
  5
191E8
  8
U1
 10
11102.560326025479
 20
9263.3127029417792
 30
0.0
 40
4.0
 50
270.0
 51
0.0
  0
ARC
  5
191E9
  8
U1
 10
11082.560326025479
 20
9315.7127029417788
 30
0.0
 40
4.0
 50
0.0
 51
90.0
  0
ARC
  5
191EA
  8
U1
 10
11090.01032602548
 20
9306.4627029417807
 30
0.0
 40
1.149999999999977
 50
180.0
 51
0.0
  0
LINE
  5
191EB
  8
U1
 10
11093.460326025481
 20
9314.0127029417781
 30
0.0
 11
11093.460326025481
 21
9306.4627029417807
 31
0.0
  0
LINE
  5
191EC
  8
U1
 10
11091.160326025471
 20
9314.0127029417781
 30
0.0
 11
11093.460326025481
 21
9314.0127029417781
 31
0.0
  0
LINE
  5
191ED
  8
U1
 10
11088.86032602548
 20
9307.0127029417763
 30
0.0
 11
11091.160326025471
 21
9307.0127029417763
 31
0.0
  0
ARC
  5
191EE
  8
U1
 10
11090.01032602548
 20
9306.4627029417807
 30
0.0
 40
3.4500000000000441
 50
180.0
 51
0.0
  0
LINE
  5
191EF
  8
U1
 10
11088.86032602548
 20
9306.4627029417807
 30
0.0
 11
11088.86032602548
 21
9315.712702941777
 31
0.0
  0
LINE
  5
191F0
  8
U1
 10
11091.160326025471
 20
9315.7127029417788
 30
0.0
 11
11091.160326025471
 21
9306.4627029417807
 31
0.0
  0
LINE
  5
191F1
  8
U1
 10
11086.560326025479
 20
9306.4627029417807
 30
0.0
 11
11086.560326025479
 21
9315.7127029417788
 31
0.0
  0
ARC
  5
191F2
  8
U1
 10
11102.560326025479
 20
9315.7127029417788
 30
0.0
 40
4.0
 50
0.0
 51
90.0
  0
LINE
  5
191F3
  8
U1
 10
11102.560326025479
 20
9319.7127029417788
 30
0.0
 11
11095.16032602548
 21
9319.7127029417788
 31
0.0
  0
ARC
  5
191F4
  8
U1
 10
11095.16032602548
 20
9315.7127029417788
 30
0.0
 40
4.0
 50
90.0
 51
180.0
  0
LINE
  5
191F5
  8
U1
 10
11106.560326025479
 20
9263.3127029417792
 30
0.0
 11
11106.560326025479
 21
9315.7127029417788
 31
0.0
  0
LINE
  5
191F6
  8
U1
 10
11082.560326025479
 20
7519.7127029417779
 30
0.0
 11
11050.160326025471
 21
7519.7127029417779
 31
0.0
  0
LINE
  5
191F7
  8
U1
 10
11050.160326025471
 20
7459.3127029417774
 30
0.0
 11
11102.560326025479
 21
7459.3127029417774
 31
0.0
  0
ARC
  5
191F9
  8
U1
 10
11050.160326025471
 20
7463.3127029417774
 30
0.0
 40
4.0
 50
180.0
 51
270.0
  0
ARC
  5
191FA
  8
U1
 10
11050.160326025471
 20
7515.7127029417798
 30
0.0
 40
4.0
 50
90.0
 51
180.0
  0
LINE
  5
191FB
  8
U1
 10
11046.16032602548
 20
7515.7127029417798
 30
0.0
 11
11046.16032602548
 21
7463.3127029417774
 31
0.0
  0
ARC
  5
191FC
  8
U1
 10
11102.560326025479
 20
7463.3127029417774
 30
0.0
 40
4.0
 50
270.0
 51
0.0
  0
ARC
  5
191FD
  8
U1
 10
11082.560326025479
 20
7515.7127029417798
 30
0.0
 40
4.0
 50
0.0
 51
90.0
  0
ARC
  5
191FE
  8
U1
 10
11090.01032602548
 20
7506.4627029417788
 30
0.0
 40
1.149999999999977
 50
180.0
 51
0.0
  0
LINE
  5
191FF
  8
U1
 10
11093.460326025481
 20
7514.0127029417781
 30
0.0
 11
11093.460326025481
 21
7506.4627029417788
 31
0.0
  0
LINE
  5
19200
  8
U1
 10
11091.160326025471
 20
7514.0127029417781
 30
0.0
 11
11093.460326025481
 21
7514.0127029417781
 31
0.0
  0
LINE
  5
19201
  8
U1
 10
11088.86032602548
 20
7507.0127029417781
 30
0.0
 11
11091.160326025471
 21
7507.0127029417781
 31
0.0
  0
ARC
  5
19202
  8
U1
 10
11090.01032602548
 20
7506.4627029417788
 30
0.0
 40
3.4500000000000441
 50
180.0
 51
0.0
  0
LINE
  5
19203
  8
U1
 10
11088.86032602548
 20
7506.4627029417788
 30
0.0
 11
11088.86032602548
 21
7515.7127029417761
 31
0.0
  0
LINE
  5
19204
  8
U1
 10
11091.160326025471
 20
7515.7127029417798
 30
0.0
 11
11091.160326025471
 21
7506.4627029417788
 31
0.0
  0
LINE
  5
19205
  8
U1
 10
11086.560326025479
 20
7506.4627029417788
 30
0.0
 11
11086.560326025479
 21
7515.7127029417798
 31
0.0
  0
ARC
  5
19206
  8
U1
 10
11102.560326025479
 20
7515.7127029417798
 30
0.0
 40
4.0
 50
0.0
 51
90.0
  0
LINE
  5
19207
  8
U1
 10
11102.560326025479
 20
7519.7127029417779
 30
0.0
 11
11095.16032602548
 21
7519.7127029417779
 31
0.0
  0
ARC
  5
19208
  8
U1
 10
11095.16032602548
 20
7515.7127029417798
 30
0.0
 40
4.0
 50
90.0
 51
180.0
  0
LINE
  5
19209
  8
U1
 10
11106.560326025479
 20
7463.3127029417774
 30
0.0
 11
11106.560326025479
 21
7515.7127029417798
 31
0.0
  0
LINE
  5
1920A
  8
KISO
 10
11476.36032602548
 20
7089.5127029417781
 30
0.0
 11
10676.36032602548
 21
7089.5127029417781
 31
0.0
  0
LINE
  5
1920B
  8
KISO
 10
10676.36032602548
 20
7089.5127029417781
 30
0.0
 11
10676.36032602548
 21
7889.5127029417781
 31
0.0
  0
LINE
  5
1920C
  8
KISO
 10
10676.36032602548
 20
7889.5127029417781
 30
0.0
 11
11476.36032602548
 21
7889.5127029417781
 31
0.0
  0
LINE
  5
1920D
  8
KISO
 10
11476.36032602548
 20
7889.5127029417781
 30
0.0
 11
11476.36032602548
 21
7089.5127029417781
 31
0.0
  0
LINE
  5
1920E
  8
KISO
 10
11476.36032602548
 20
8889.5127029417763
 30
0.0
 11
10676.36032602548
 21
8889.5127029417763
 31
0.0
  0
LINE
  5
1920F
  8
KISO
 10
10676.36032602548
 20
8889.5127029417763
 30
0.0
 11
10676.36032602548
 21
9689.5127029417781
 31
0.0
  0
LINE
  5
19210
  8
KISO
 10
10676.36032602548
 20
9689.5127029417781
 30
0.0
 11
11476.36032602548
 21
9689.5127029417781
 31
0.0
  0
LINE
  5
19211
  8
KISO
 10
11476.36032602548
 20
9689.5127029417781
 30
0.0
 11
11476.36032602548
 21
8889.5127029417763
 31
0.0
  0
LINE
  5
19212
  8
KISO
 10
7626.3603260254777
 20
7089.5127029417781
 30
0.0
 11
6826.3603260254777
 21
7089.5127029417781
 31
0.0
  0
LINE
  5
19213
  8
KISO
 10
6826.3603260254777
 20
7089.5127029417781
 30
0.0
 11
6826.3603260254777
 21
7889.5127029417781
 31
0.0
  0
LINE
  5
19214
  8
KISO
 10
6826.3603260254777
 20
7889.5127029417781
 30
0.0
 11
7626.3603260254777
 21
7889.5127029417781
 31
0.0
  0
LINE
  5
19215
  8
KISO
 10
7626.3603260254777
 20
7889.5127029417781
 30
0.0
 11
7626.3603260254777
 21
7089.5127029417781
 31
0.0
  0
LINE
  5
19216
  8
KISO
 10
7626.3603260254777
 20
8889.5127029417763
 30
0.0
 11
6826.3603260254777
 21
8889.5127029417763
 31
0.0
  0
LINE
  5
19217
  8
KISO
 10
6826.3603260254777
 20
8889.5127029417763
 30
0.0
 11
6826.3603260254777
 21
9689.5127029417781
 31
0.0
  0
LINE
  5
19218
  8
KISO
 10
6826.3603260254777
 20
9689.5127029417781
 30
0.0
 11
7626.3603260254777
 21
9689.5127029417781
 31
0.0
  0
LINE
  5
19219
  8
KISO
 10
7626.3603260254777
 20
9689.5127029417781
 30
0.0
 11
7626.3603260254777
 21
8889.5127029417763
 31
0.0
  0
LINE
  5
1921A
  8
KISO
 10
5176.3603260254804
 20
8889.5127029417763
 30
0.0
 11
4376.3603260254786
 21
8889.5127029417763
 31
0.0
  0
LINE
  5
1921B
  8
KISO
 10
4376.3603260254786
 20
8889.5127029417763
 30
0.0
 11
4376.3603260254786
 21
9689.5127029417781
 31
0.0
  0
LINE
  5
1921C
  8
KISO
 10
4376.3603260254786
 20
9689.5127029417781
 30
0.0
 11
5176.3603260254804
 21
9689.5127029417781
 31
0.0
  0
LINE
  5
1921D
  8
KISO
 10
5176.3603260254804
 20
9689.5127029417781
 30
0.0
 11
5176.3603260254804
 21
8889.5127029417763
 31
0.0
  0
LINE
  5
1921E
  8
KISO
 10
5176.3603260254804
 20
7089.5127029417781
 30
0.0
 11
4376.3603260254786
 21
7089.5127029417781
 31
0.0
  0
LINE
  5
1921F
  8
KISO
 10
4376.3603260254786
 20
7089.5127029417781
 30
0.0
 11
4376.3603260254786
 21
7889.5127029417781
 31
0.0
  0
LINE
  5
19220
  8
KISO
 10
4376.3603260254786
 20
7889.5127029417781
 30
0.0
 11
5176.3603260254804
 21
7889.5127029417781
 31
0.0
  0
LINE
  5
19221
  8
KISO
 10
5176.3603260254804
 20
7889.5127029417781
 30
0.0
 11
5176.3603260254804
 21
7089.5127029417781
 31
0.0
  0
LINE
  5
19222
  8
DOMAKON
 10
7866.3603260254822
 20
9489.5127029417781
 30
0.0
 11
4376.3603260254786
 21
9489.5127029417781
 31
0.0
  0
LINE
  5
19223
  8
DOMAKON
 10
4376.3603260254786
 20
9489.5127029417781
 30
0.0
 11
4376.3603260254786
 21
7089.5127029417781
 31
0.0
  0
LINE
  5
19224
  8
DOMAKON
 10
4376.3603260254786
 20
7089.5127029417781
 30
0.0
 11
7866.3603260254822
 21
7089.5127029417781
 31
0.0
  0
LINE
  5
19225
  8
KISO
 10
9026.3603260254786
 20
8889.5127029417763
 30
0.0
 11
8226.3603260254786
 21
8889.5127029417763
 31
0.0
  0
LINE
  5
19226
  8
KISO
 10
8226.3603260254786
 20
8889.5127029417763
 30
0.0
 11
8226.3603260254786
 21
9689.5127029417781
 31
0.0
  0
LINE
  5
19227
  8
KISO
 10
8226.3603260254786
 20
9689.5127029417781
 30
0.0
 11
9026.3603260254786
 21
9689.5127029417781
 31
0.0
  0
LINE
  5
19228
  8
KISO
 10
9026.3603260254786
 20
9689.5127029417781
 30
0.0
 11
9026.3603260254786
 21
8889.5127029417763
 31
0.0
  0
LINE
  5
19229
  8
KISO
 10
9026.3603260254786
 20
7089.5127029417781
 30
0.0
 11
8226.3603260254786
 21
7089.5127029417781
 31
0.0
  0
LINE
  5
1922A
  8
KISO
 10
8226.3603260254786
 20
7089.5127029417781
 30
0.0
 11
8226.3603260254786
 21
7889.5127029417781
 31
0.0
  0
LINE
  5
1922B
  8
KISO
 10
8226.3603260254786
 20
7889.5127029417781
 30
0.0
 11
9026.3603260254786
 21
7889.5127029417781
 31
0.0
  0
LINE
  5
1922C
  8
KISO
 10
9026.3603260254786
 20
7889.5127029417781
 30
0.0
 11
9026.3603260254786
 21
7089.5127029417781
 31
0.0
  0
LINE
  5
1922D
  8
DOMAKON
 10
7986.3603260254822
 20
7089.5127029417781
 30
0.0
 11
11476.36032602548
 21
7089.5127029417781
 31
0.0
  0
LINE
  5
1922E
  8
DOMAKON
 10
11476.36032602548
 20
7089.5127029417781
 30
0.0
 11
11476.36032602548
 21
9489.5127029417781
 31
0.0
  0
LINE
  5
1922F
  8
DOMAKON
 10
11476.36032602548
 20
9489.5127029417781
 30
0.0
 11
7986.3603260254822
 21
9489.5127029417781
 31
0.0
  0
LINE
  5
19230
  8
YANE
  6
2PL-L
 62
     6
 10
11472.36032602548
 20
6989.5127029417781
 30
0.0
 11
4380.3603260254786
 21
6989.5127029417781
 31
0.0
  0
LINE
  5
19231
  8
YANE
  6
2PL-L
 62
     6
 10
4380.3603260254786
 20
6989.5127029417781
 30
0.0
 11
4380.3603260254786
 21
9539.5127029417763
 31
0.0
  0
LINE
  5
19232
  8
YANE
  6
2PL-L
 62
     6
 10
4380.3603260254786
 20
9539.5127029417763
 30
0.0
 11
11472.36032602548
 21
9539.5127029417763
 31
0.0
  0
LINE
  5
19233
  8
YANE
  6
2PL-L
 62
     6
 10
11472.36032602548
 20
9539.5127029417763
 30
0.0
 11
11472.36032602548
 21
6989.5127029417781
 31
0.0
  0
LINE
  5
19234
  8
U3
 10
9130.0782599836402
 20
3525.9668717223608
 30
0.0
 11
9357.8536451569798
 21
3920.4854115561948
 31
0.0
1001
ACAD
1000
DSTYLE
1002
{
1070
   147
1040
1.0
1070
    77
1070
     0
1002
}
  0
LINE
  5
19235
  8
0
 10
9118.5312545998495
 20
3532.6335383890282
 30
0.0
 11
9090.0782599836457
 21
3456.6848394196049
 31
0.0
  0
LINE
  5
19236
  8
0
 10
9090.0782599836457
 20
3456.6848394196049
 30
0.0
 11
9141.6252653674346
 21
3519.3002050556961
 31
0.0
  0
SOLID
  5
19237
  8
0
 10
9118.5312545998495
 20
3532.6335383890282
 30
0.0
 11
9141.6252653674346
 21
3519.3002050556961
 31
0.0
 12
9090.0782599836457
 22
3456.6848394196049
 32
0.0
 13
9090.0782599836457
 23
3456.6848394196049
 33
0.0
  0
LINE
  5
19238
  8
0
 10
9141.6252653674346
 20
3519.3002050556961
 30
0.0
 11
9118.5312545998495
 21
3532.6335383890282
 31
0.0
  0
ARC
  5
19239
  8
U1
 10
4802.5603260254802
 20
7515.7127029417798
 30
0.0
 40
6.2999999999992724
 50
359.9999999999917
 51
90.000000000008257
  0
LINE
  5
1923A
  8
U1
 10
4802.5603260254784
 20
7522.0127029417781
 30
0.0
 11
4795.160326025476
 21
7522.0127029417781
 31
0.0
  0
ARC
  5
1923B
  8
U1
 10
4795.160326025476
 20
7515.7127029417798
 30
0.0
 40
6.2999999999992724
 50
89.999999999991729
 51
180.00000000000821
  0
ARC
  5
1923C
  8
U1
 10
4782.5603260254766
 20
7515.7127029417798
 30
0.0
 40
6.300000000000181
 50
0.0
 51
90.0
  0
LINE
  5
1923D
  8
U1
 10
4782.5603260254766
 20
7522.0127029417781
 30
0.0
 11
4750.1603260254778
 21
7522.0127029417781
 31
0.0
  0
ARC
  5
1923E
  8
U1
 10
4750.1603260254778
 20
7515.7127029417798
 30
0.0
 40
6.2999999999992724
 50
89.999999999991729
 51
180.00000000000821
  0
LINE
  5
1923F
  8
U1
 10
4743.8603260254786
 20
7515.7127029417798
 30
0.0
 11
4743.8603260254786
 21
7463.3127029417774
 31
0.0
  0
ARC
  5
19240
  8
U1
 10
4750.1603260254778
 20
7463.3127029417774
 30
0.0
 40
6.2999999999992724
 50
180.0
 51
270.00000000000819
  0
LINE
  5
19241
  8
U1
 10
4750.1603260254778
 20
7457.0127029417781
 30
0.0
 11
4802.5603260254784
 21
7457.0127029417781
 31
0.0
  0
ARC
  5
19242
  8
U1
 10
4802.5603260254802
 20
7463.3127029417774
 30
0.0
 40
6.2999999999992724
 50
269.99999999999181
 51
0.0
  0
LINE
  5
19243
  8
U1
 10
4808.8603260254768
 20
7463.3127029417774
 30
0.0
 11
4808.8603260254768
 21
7515.7127029417798
 31
0.0
  0
ARC
  5
19244
  8
U1
 10
4802.5603260254802
 20
9315.7127029417788
 30
0.0
 40
6.2999999999992724
 50
0.0
 51
90.000000000008257
  0
LINE
  5
19245
  8
U1
 10
4802.5603260254784
 20
9322.0127029417781
 30
0.0
 11
4795.160326025476
 21
9322.0127029417781
 31
0.0
  0
ARC
  5
19246
  8
U1
 10
4795.160326025476
 20
9315.7127029417788
 30
0.0
 40
6.2999999999992724
 50
89.999999999991729
 51
180.0
  0
ARC
  5
19247
  8
U1
 10
4782.5603260254793
 20
9315.7127029417788
 30
0.0
 40
6.2999999999992724
 50
0.0
 51
90.000000000008257
  0
LINE
  5
19248
  8
U1
 10
4782.5603260254766
 20
9322.0127029417781
 30
0.0
 11
4750.1603260254778
 21
9322.0127029417781
 31
0.0
  0
ARC
  5
19249
  8
U1
 10
4750.1603260254778
 20
9315.7127029417788
 30
0.0
 40
6.2999999999992724
 50
89.999999999991729
 51
180.0
  0
LINE
  5
1924A
  8
U1
 10
4743.8603260254786
 20
9315.7127029417788
 30
0.0
 11
4743.8603260254786
 21
9263.3127029417792
 31
0.0
  0
ARC
  5
1924B
  8
U1
 10
4750.1603260254778
 20
9263.3127029417792
 30
0.0
 40
6.2999999999992724
 50
180.0
 51
270.00000000000819
  0
LINE
  5
1924C
  8
U1
 10
4750.1603260254778
 20
9257.0127029417763
 30
0.0
 11
4802.5603260254784
 21
9257.0127029417763
 31
0.0
  0
ARC
  5
1924D
  8
U1
 10
4802.5603260254802
 20
9263.3127029417792
 30
0.0
 40
6.2999999999992724
 50
269.99999999999181
 51
0.0
  0
LINE
  5
1924E
  8
U1
 10
4808.8603260254768
 20
9263.3127029417792
 30
0.0
 11
4808.8603260254768
 21
9315.7127029417788
 31
0.0
  0
ARC
  5
1924F
  8
U1
 10
7252.5603260254802
 20
7515.7127029417798
 30
0.0
 40
6.2999999999992724
 50
359.9999999999917
 51
90.000000000008257
  0
LINE
  5
19250
  8
U1
 10
7252.5603260254784
 20
7522.0127029417781
 30
0.0
 11
7245.1603260254778
 21
7522.0127029417781
 31
0.0
  0
ARC
  5
19251
  8
U1
 10
7245.1603260254778
 20
7515.7127029417798
 30
0.0
 40
6.2999999999992724
 50
89.999999999991729
 51
180.00000000000821
  0
ARC
  5
19252
  8
U1
 10
7232.5603260254784
 20
7515.7127029417798
 30
0.0
 40
6.300000000000181
 50
0.0
 51
90.0
  0
LINE
  5
19253
  8
U1
 10
7232.5603260254784
 20
7522.0127029417781
 30
0.0
 11
7200.1603260254778
 21
7522.0127029417781
 31
0.0
  0
ARC
  5
19254
  8
U1
 10
7200.1603260254778
 20
7515.7127029417798
 30
0.0
 40
6.2999999999992724
 50
89.999999999991729
 51
180.00000000000821
  0
LINE
  5
19255
  8
U1
 10
7193.8603260254786
 20
7515.7127029417798
 30
0.0
 11
7193.8603260254786
 21
7463.3127029417774
 31
0.0
  0
ARC
  5
19256
  8
U1
 10
7200.1603260254778
 20
7463.3127029417774
 30
0.0
 40
6.2999999999992724
 50
180.0
 51
270.00000000000819
  0
LINE
  5
19257
  8
U1
 10
7200.1603260254778
 20
7457.0127029417781
 30
0.0
 11
7252.5603260254784
 21
7457.0127029417781
 31
0.0
  0
ARC
  5
19258
  8
U1
 10
7252.5603260254802
 20
7463.3127029417774
 30
0.0
 40
6.2999999999992724
 50
269.99999999999181
 51
0.0
  0
LINE
  5
19259
  8
U1
 10
7258.8603260254777
 20
7463.3127029417774
 30
0.0
 11
7258.8603260254777
 21
7515.7127029417798
 31
0.0
  0
ARC
  5
1925A
  8
U1
 10
7252.5603260254802
 20
9315.7127029417788
 30
0.0
 40
6.2999999999992724
 50
0.0
 51
90.000000000008257
  0
LINE
  5
1925B
  8
U1
 10
7252.5603260254784
 20
9322.0127029417781
 30
0.0
 11
7245.1603260254778
 21
9322.0127029417781
 31
0.0
  0
ARC
  5
1925C
  8
U1
 10
7245.1603260254778
 20
9315.7127029417788
 30
0.0
 40
6.2999999999992724
 50
89.999999999991729
 51
180.0
  0
ARC
  5
1925D
  8
U1
 10
7232.5603260254784
 20
9315.7127029417788
 30
0.0
 40
6.2999999999992724
 50
0.0
 51
90.000000000008257
  0
LINE
  5
1925E
  8
U1
 10
7232.5603260254784
 20
9322.0127029417781
 30
0.0
 11
7200.1603260254778
 21
9322.0127029417781
 31
0.0
  0
ARC
  5
1925F
  8
U1
 10
7200.1603260254778
 20
9315.7127029417788
 30
0.0
 40
6.2999999999992724
 50
89.999999999991729
 51
180.0
  0
LINE
  5
19260
  8
U1
 10
7193.8603260254786
 20
9315.7127029417788
 30
0.0
 11
7193.8603260254786
 21
9263.3127029417792
 31
0.0
  0
ARC
  5
19261
  8
U1
 10
7200.1603260254778
 20
9263.3127029417792
 30
0.0
 40
6.2999999999992724
 50
180.0
 51
270.00000000000819
  0
LINE
  5
19262
  8
U1
 10
7200.1603260254778
 20
9257.0127029417763
 30
0.0
 11
7252.5603260254784
 21
9257.0127029417763
 31
0.0
  0
ARC
  5
19263
  8
U1
 10
7252.5603260254802
 20
9263.3127029417792
 30
0.0
 40
6.2999999999992724
 50
269.99999999999181
 51
0.0
  0
LINE
  5
19264
  8
U1
 10
7258.8603260254777
 20
9263.3127029417792
 30
0.0
 11
7258.8603260254777
 21
9315.7127029417788
 31
0.0
  0
ARC
  5
19265
  8
U1
 10
8652.5603260254793
 20
9315.7127029417788
 30
0.0
 40
6.2999999999992724
 50
0.0
 51
90.0
  0
LINE
  5
19266
  8
U1
 10
8652.5603260254793
 20
9322.0127029417781
 30
0.0
 11
8645.1603260254797
 21
9322.0127029417781
 31
0.0
  0
ARC
  5
19267
  8
U1
 10
8645.1603260254797
 20
9315.7127029417788
 30
0.0
 40
6.2999999999992724
 50
90.0
 51
180.0
  0
ARC
  5
19268
  8
U1
 10
8632.5603260254793
 20
9315.7127029417788
 30
0.0
 40
6.2999999999992724
 50
0.0
 51
90.0
  0
LINE
  5
19269
  8
U1
 10
8632.5603260254793
 20
9322.0127029417781
 30
0.0
 11
8600.1603260254797
 21
9322.0127029417781
 31
0.0
  0
ARC
  5
1926A
  8
U1
 10
8600.1603260254797
 20
9315.7127029417788
 30
0.0
 40
6.2999999999992724
 50
90.0
 51
180.0
  0
LINE
  5
1926B
  8
U1
 10
8593.8603260254786
 20
9315.7127029417788
 30
0.0
 11
8593.8603260254786
 21
9263.3127029417792
 31
0.0
  0
ARC
  5
1926C
  8
U1
 10
8600.1603260254797
 20
9263.3127029417792
 30
0.0
 40
6.2999999999992724
 50
180.0
 51
270.0
  0
LINE
  5
1926D
  8
U1
 10
8600.1603260254797
 20
9257.0127029417763
 30
0.0
 11
8652.5603260254793
 21
9257.0127029417763
 31
0.0
  0
ARC
  5
1926E
  8
U1
 10
8652.5603260254793
 20
9263.3127029417792
 30
0.0
 40
6.2999999999992724
 50
270.0
 51
0.0
  0
LINE
  5
1926F
  8
U1
 10
8658.8603260254786
 20
9263.3127029417792
 30
0.0
 11
8658.8603260254786
 21
9315.7127029417788
 31
0.0
  0
ARC
  5
19270
  8
U1
 10
8652.5603260254793
 20
7515.7127029417798
 30
0.0
 40
6.2999999999992724
 50
359.9999999999917
 51
90.0
  0
LINE
  5
19271
  8
U1
 10
8652.5603260254793
 20
7522.0127029417781
 30
0.0
 11
8645.1603260254797
 21
7522.0127029417781
 31
0.0
  0
ARC
  5
19272
  8
U1
 10
8645.1603260254797
 20
7515.7127029417798
 30
0.0
 40
6.2999999999992724
 50
90.0
 51
180.00000000000821
  0
ARC
  5
19273
  8
U1
 10
8632.5603260254793
 20
7515.7127029417798
 30
0.0
 40
6.2999999999992724
 50
359.9999999999917
 51
90.0
  0
LINE
  5
19274
  8
U1
 10
8632.5603260254793
 20
7522.0127029417781
 30
0.0
 11
8600.1603260254797
 21
7522.0127029417781
 31
0.0
  0
ARC
  5
19275
  8
U1
 10
8600.1603260254797
 20
7515.7127029417798
 30
0.0
 40
6.2999999999992724
 50
90.0
 51
180.00000000000821
  0
LINE
  5
19276
  8
U1
 10
8593.8603260254786
 20
7515.7127029417798
 30
0.0
 11
8593.8603260254786
 21
7463.3127029417774
 31
0.0
  0
ARC
  5
19277
  8
U1
 10
8600.1603260254797
 20
7463.3127029417774
 30
0.0
 40
6.2999999999992724
 50
180.0
 51
270.0
  0
LINE
  5
19278
  8
U1
 10
8600.1603260254797
 20
7457.0127029417781
 30
0.0
 11
8652.5603260254793
 21
7457.0127029417781
 31
0.0
  0
ARC
  5
19279
  8
U1
 10
8652.5603260254793
 20
7463.3127029417774
 30
0.0
 40
6.2999999999992724
 50
270.0
 51
0.0
  0
LINE
  5
1927A
  8
U1
 10
8658.8603260254786
 20
7463.3127029417774
 30
0.0
 11
8658.8603260254786
 21
7515.7127029417798
 31
0.0
  0
ARC
  5
1927B
  8
U1
 10
11102.560326025479
 20
9315.7127029417788
 30
0.0
 40
6.2999999999992724
 50
0.0
 51
90.0
  0
LINE
  5
1927C
  8
U1
 10
11102.560326025479
 20
9322.0127029417781
 30
0.0
 11
11095.16032602548
 21
9322.0127029417781
 31
0.0
  0
ARC
  5
1927D
  8
U1
 10
11095.16032602548
 20
9315.7127029417788
 30
0.0
 40
6.2999999999992724
 50
90.0
 51
180.0
  0
ARC
  5
1927E
  8
U1
 10
11082.560326025479
 20
9315.7127029417788
 30
0.0
 40
6.2999999999992724
 50
0.0
 51
90.0
  0
LINE
  5
1927F
  8
U1
 10
11082.560326025479
 20
9322.0127029417781
 30
0.0
 11
11050.160326025471
 21
9322.0127029417781
 31
0.0
  0
ARC
  5
19280
  8
U1
 10
11050.160326025471
 20
9315.7127029417788
 30
0.0
 40
6.2999999999992724
 50
90.0
 51
180.0
  0
LINE
  5
19281
  8
U1
 10
11043.86032602548
 20
9315.7127029417788
 30
0.0
 11
11043.86032602548
 21
9263.3127029417792
 31
0.0
  0
ARC
  5
19282
  8
U1
 10
11050.160326025471
 20
9263.3127029417792
 30
0.0
 40
6.2999999999992724
 50
180.0
 51
270.0
  0
LINE
  5
19283
  8
U1
 10
11050.160326025471
 20
9257.0127029417763
 30
0.0
 11
11102.560326025479
 21
9257.0127029417763
 31
0.0
  0
ARC
  5
19284
  8
U1
 10
11102.560326025479
 20
9263.3127029417792
 30
0.0
 40
6.2999999999992724
 50
270.0
 51
0.0
  0
LINE
  5
19285
  8
U1
 10
11108.86032602548
 20
9263.3127029417792
 30
0.0
 11
11108.86032602548
 21
9315.7127029417788
 31
0.0
  0
ARC
  5
19286
  8
U1
 10
11102.560326025479
 20
7515.7127029417798
 30
0.0
 40
6.2999999999992724
 50
359.9999999999917
 51
90.0
  0
LINE
  5
19287
  8
U1
 10
11102.560326025479
 20
7522.0127029417781
 30
0.0
 11
11095.16032602548
 21
7522.0127029417781
 31
0.0
  0
ARC
  5
19288
  8
U1
 10
11095.16032602548
 20
7515.7127029417798
 30
0.0
 40
6.2999999999992724
 50
90.0
 51
180.00000000000821
  0
ARC
  5
19289
  8
U1
 10
11082.560326025479
 20
7515.7127029417798
 30
0.0
 40
6.2999999999992724
 50
359.9999999999917
 51
90.0
  0
LINE
  5
1928A
  8
U1
 10
11082.560326025479
 20
7522.0127029417781
 30
0.0
 11
11050.160326025471
 21
7522.0127029417781
 31
0.0
  0
ARC
  5
1928B
  8
U1
 10
11050.160326025471
 20
7515.7127029417798
 30
0.0
 40
6.2999999999992724
 50
90.0
 51
180.00000000000821
  0
LINE
  5
1928C
  8
U1
 10
11043.86032602548
 20
7515.7127029417798
 30
0.0
 11
11043.86032602548
 21
7463.3127029417774
 31
0.0
  0
ARC
  5
1928D
  8
U1
 10
11050.160326025471
 20
7463.3127029417774
 30
0.0
 40
6.2999999999992724
 50
180.0
 51
270.0
  0
LINE
  5
1928E
  8
U1
 10
11050.160326025471
 20
7457.0127029417781
 30
0.0
 11
11102.560326025479
 21
7457.0127029417781
 31
0.0
  0
ARC
  5
1928F
  8
U1
 10
11102.560326025479
 20
7463.3127029417774
 30
0.0
 40
6.2999999999992724
 50
270.0
 51
0.0
  0
LINE
  5
19290
  8
U1
 10
11108.86032602548
 20
7463.3127029417774
 30
0.0
 11
11108.86032602548
 21
7515.7127029417798
 31
0.0
  0
TEXT
  5
19313
  8
SUNPOU
 10
1010.354901622562
 20
4838.3792969485648
 30
0.0
 40
89.999375004340195
  1
地耐力   　　　 以上,コンクリート設計基準強度　　　　　以上
  7
01
  0
TEXT
  5
19315
  8
SUNPOU
 10
1494.11833028773
 20
4684.093582662852
 30
0.0
 40
89.999375004340195
  1
34 m/s
 41
0.6700000000000002
  7
01
  0
TEXT
  5
19318
  8
SUNPOU
 10
1010.354901622562
 20
4684.093582662852
 30
0.0
 40
89.999375004340195
  1
基準風速   　　 , 地表面粗度区分
  7
01
  0
TEXT
  5
19319
  8
SUNPOU
 10
1384.613309047643
 20
4838.3792969485648
 30
0.0
 40
89.999375004340195
  1
50  N/m
 41
0.6700000000000002
  7
01
  0
ARC
  5
1931F
  8
SUNPOU
 10
1163.313175529765
 20
4802.1667203903953
 30
0.0
 40
225.0
 50
148.34727252827051
 51
211.65272747172941
  0
TEXT
  5
19320
  8
SUNPOU
 10
1520.449761833597
 20
4838.3792969485648
 30
0.0
 40
71.999500003472178
  1
K
 41
0.6700000000000002
  7
01
  0
TEXT
  5
19321
  8
SUNPOU
 10
1788.089918561981
 20
4888.5677233060514
 30
0.0
 40
46.28539285937498
  1
2
 41
0.6700000000000002
  7
00
  0
LINE
  5
19325
  8
SUNPOU
 10
2802.1704631891689
 20
4767.5859463616298
 30
0.0
 11
2858.4204631891689
 21
4767.5859463616298
 31
0.0
  0
LINE
  5
19326
  8
SUNPOU
 10
2802.1704631891689
 20
4684.0935826628456
 30
0.0
 11
2858.4204631891689
 21
4684.0935826628456
 31
0.0
  0
LINE
  5
19327
  8
SUNPOU
 10
2813.4204631891712
 20
4684.093582662852
 30
0.0
 11
2813.4204631891712
 21
4767.5859463616298
 31
0.0
  0
LINE
  5
19328
  8
SUNPOU
 10
2830.2954631891712
 20
4684.093582662852
 30
0.0
 11
2830.2954631891712
 21
4767.5859463616298
 31
0.0
  0
LINE
  5
19329
  8
SUNPOU
 10
2847.1704631891689
 20
4684.093582662852
 30
0.0
 11
2847.1704631891689
 21
4767.5859463616298
 31
0.0
  0
TEXT
  5
1932A
  8
SUNPOU
 10
3590.5385792992088
 20
4838.3792969485648
 30
0.0
 40
89.999375004340195
  1
N/mm
 41
0.6700000000000002
  7
01
  0
TEXT
  5
1932B
  8
SUNPOU
 10
3454.702126513258
 20
4838.3792969485648
 30
0.0
 40
89.999375004340195
  1
18
 41
0.6700000000000002
  7
01
  0
TEXT
  5
1932C
  8
SUNPOU
 10
3895.0030613306149
 20
4888.5677233060514
 30
0.0
 40
46.28539285937498
  1
2
 41
0.6700000000000002
  7
00
  0
ARC
  5
1932D
  8
SUNPOU
 10
4064.7534587813279
 20
4802.1667203903953
 30
0.0
 40
225.0
 50
328.34727252827059
 51
31.65272747172942
  0
TEXT
  5
1932F
  8
FILENAME
 10
13968.666666666661
 20
174.0
 30
0.0
 40
100.0
  1
＜YOKC-245-A_3_JIS_GL.DXF ＞
  7
FILENAME
 72
     2
 11
16382.0
 21
174.0
 31
0.0
  0
LINE
  5
19333
  8
WAKUSEN-01
 10
434.00000000000091
 20
413.99999999999972
 30
0.0
 11
16382.0
 21
413.99999999999972
 31
0.0
  0
LINE
  5
19334
  8
WAKUSEN-01
 10
434.00000000000091
 20
11242.0
 30
0.0
 11
16382.0
 21
11242.0
 31
0.0
  0
LINE
  5
19335
  8
WAKUSEN-01
 10
434.00000000000091
 20
413.99999999999972
 30
0.0
 11
434.00000000000091
 21
11242.0
 31
0.0
  0
LINE
  5
19336
  8
WAKUSEN-01
 10
16382.0
 20
413.99999999999972
 30
0.0
 11
16382.0
 21
11242.0
 31
0.0
  0
LINE
  5
19337
  8
WAKUSEN-01
 10
10280.0
 20
1242.0
 30
0.0
 11
16382.0
 21
1242.0
 31
0.0
  0
LINE
  5
19338
  8
WAKUSEN-02
 10
10280.0
 20
827.99999999999966
 30
0.0
 11
13434.0
 21
827.99999999999966
 31
0.0
  0
TEXT
  5
19339
  8
WAKUMOJI-01
 10
10335.13012998138
 20
1062.9515046696611
 30
0.0
 40
120.0
  1
名　称
  7
WAKUMOJI
  0
TEXT
  5
1933A
  8
WAKUMOJI-01
 10
10328.252742545959
 20
659.56448748991068
 30
0.0
 40
120.0
  1
機種名
  7
WAKUMOJI
  0
LINE
  5
1933B
  8
WAKUSEN-01
 10
10280.0
 20
413.99999999999858
 30
0.0
 11
10280.0
 21
1242.0
 31
0.0
  0
LINE
  5
1933C
  8
WAKUSEN-02
 10
13434.0
 20
413.99999999999631
 30
0.0
 11
13434.0
 21
1242.0
 31
0.0
  0
LINE
  5
1933D
  8
YODOROGO
 10
14988.80217064596
 20
997.87474821464355
 30
0.0
 11
14914.80217064596
 21
997.87474821464355
 31
0.0
1001
AUTOCAD_POSTSCRIPT_FIGURE
1002
{
1000
PSFILL
1000
Grayscale
1000
Grayscale
1070
    25
1002
}
  0
LINE
  5
1933E
  8
YODOROGO
 10
14914.80217064596
 20
973.87474821464377
 30
0.0
 11
14988.80217064596
 21
973.87474821464377
 31
0.0
1001
AUTOCAD_POSTSCRIPT_FIGURE
1002
{
1000
PSFILL
1000
Grayscale
1000
Grayscale
1070
    25
1002
}
  0
LINE
  5
1933F
  8
YODOROGO
 10
14988.80217064596
 20
953.87474821464389
 30
0.0
 11
14914.80217064596
 21
953.87474821464389
 31
0.0
1001
AUTOCAD_POSTSCRIPT_FIGURE
1002
{
1000
PSFILL
1000
Grayscale
1000
Grayscale
1070
    25
1002
}
  0
LINE
  5
19340
  8
YODOROGO
 10
14914.80217064596
 20
929.874748214644
 30
0.0
 11
14988.80217064596
 21
929.874748214644
 31
0.0
1001
AUTOCAD_POSTSCRIPT_FIGURE
1002
{
1000
PSFILL
1000
Grayscale
1000
Grayscale
1070
    25
1002
}
  0
LINE
  5
19341
  8
YODOROGO
 10
14988.80217064596
 20
909.87474821464411
 30
0.0
 11
14914.80217064596
 21
909.87474821464411
 31
0.0
1001
AUTOCAD_POSTSCRIPT_FIGURE
1002
{
1000
PSFILL
1000
Grayscale
1000
Grayscale
1070
    25
1002
}
  0
LINE
  5
19342
  8
YODOROGO
 10
14960.802170645949
 20
853.87474821464389
 30
0.0
 11
14988.80217064596
 21
853.87474821464389
 31
0.0
1001
AUTOCAD_POSTSCRIPT_FIGURE
1002
{
1000
PSFILL
1000
Grayscale
1000
Grayscale
1070
    25
1002
}
  0
LINE
  5
19343
  8
YODOROGO
 10
14868.80217064596
 20
713.87474821464377
 30
0.0
 11
14968.80217064596
 21
740.66966745775528
 31
0.0
  0
LINE
  5
19344
  8
YODOROGO
 10
14974.80217064596
 20
853.87474821464389
 30
0.0
 11
14942.80217064596
 21
853.87474821464389
 31
0.0
  0
ARC
  5
19345
  8
YODOROGO
 10
15127.173874913949
 20
903.9323046166312
 30
0.0
 40
190.94343210282361
 50
213.96111677667849
 51
264.47872074317792
  0
ARC
  5
19346
  8
YODOROGO
 10
15127.17387491396
 20
903.93230461665109
 30
0.0
 40
190.9434321028408
 50
208.14114420486601
 51
212.92103611859949
  0
LINE
  5
19347
  8
YODOROGO
 10
14885.70493649265
 20
778.403830673117
 30
0.0
 11
14966.89206625427
 21
800.15785652854356
 31
0.0
  0
LINE
  5
19348
  8
YODOROGO
 10
14868.80217064596
 20
713.87474821464377
 30
0.0
 11
14968.80217064596
 21
740.66966745775528
 31
0.0
  0
LINE
  5
19349
  8
YODOROGO
 10
14974.80217064596
 20
853.87474821464389
 30
0.0
 11
14942.80217064596
 21
853.87474821464389
 31
0.0
  0
ARC
  5
1934A
  8
YODOROGO
 10
15127.173874913949
 20
903.9323046166312
 30
0.0
 40
190.94343210282361
 50
213.96111677667849
 51
264.47872074317792
  0
LINE
  5
1934B
  8
YODOROGO
 10
14396.802170645949
 20
909.87474821464411
 30
0.0
 11
14216.802170645949
 21
909.87474821464411
 31
0.0
  0
LINE
  5
1934C
  8
YODOROGO
 10
14256.802170645949
 20
713.87474821464377
 30
0.0
 11
14396.802170645949
 21
713.87474821464377
 31
0.0
  0
LINE
  5
1934D
  8
YODOROGO
 10
14364.80217064596
 20
961.87474821464332
 30
0.0
 11
14248.802170645949
 21
961.87474821464332
 31
0.0
  0
LINE
  5
1934E
  8
YODOROGO
 10
14292.80217064596
 20
1013.874748214644
 30
0.0
 11
14328.80217064596
 21
1013.874748214644
 31
0.0
  0
LINE
  5
1934F
  8
YODOROGO
 10
14216.802170645949
 20
853.87474821464389
 30
0.0
 11
14216.802170645949
 21
753.87474821464389
 31
0.0
  0
LINE
  5
19350
  8
YODOROGO
 10
14248.802170645949
 20
781.87474821464343
 30
0.0
 11
14248.802170645949
 21
853.87474821464389
 31
0.0
  0
LINE
  5
19351
  8
YODOROGO
 10
14292.80217064596
 20
873.87474821464502
 30
0.0
 11
14292.80217064596
 21
773.87474821464389
 31
0.0
  0
LINE
  5
19352
  8
YODOROGO
 10
13928.80217064596
 20
841.87474821464446
 30
0.0
 11
13888.80217064596
 21
809.98620702228561
 31
0.0
  0
LINE
  5
19353
  8
YODOROGO
 10
13968.80217064596
 20
809.98620702228561
 30
0.0
 11
13928.80217064596
 21
841.87474821464446
 31
0.0
  0
LINE
  5
19354
  8
YODOROGO
 10
13928.80217064596
 20
853.87474821464389
 30
0.0
 11
13968.80217064596
 21
821.98620702228504
 31
0.0
  0
LINE
  5
19355
  8
YODOROGO
 10
13888.80217064596
 20
821.98620702228504
 30
0.0
 11
13928.80217064596
 21
853.87474821464389
 31
0.0
  0
LINE
  5
19356
  8
YODOROGO
 10
14020.456602008449
 20
829.874748214644
 30
0.0
 11
14020.456602008449
 21
841.87474821464343
 31
0.0
  0
LINE
  5
19357
  8
YODOROGO
 10
13988.80217064596
 20
841.87474821464343
 30
0.0
 11
13988.80217064596
 21
833.87474821464275
 31
0.0
  0
LINE
  5
19358
  8
YODOROGO
 10
14049.06776011546
 20
853.87474821464389
 30
0.0
 11
14049.06776011546
 21
827.75181863732803
 31
0.0
1001
AUTOCAD_POSTSCRIPT_FIGURE
1002
{
1000
PSFILL
1000
Grayscale
1000
Grayscale
1070
   100
1002
}
  0
LINE
  5
19359
  8
YODOROGO
 10
14041.06776011546
 20
827.75181863732803
 30
0.0
 11
14041.06776011546
 21
853.87474821464389
 31
0.0
1001
AUTOCAD_POSTSCRIPT_FIGURE
1002
{
1000
PSFILL
1000
Grayscale
1000
Grayscale
1070
   100
1002
}
  0
LINE
  5
1935A
  8
YODOROGO
 10
13904.80217064596
 20
804.38595202162924
 30
0.0
 11
13904.80217064596
 21
816.38595202162969
 31
0.0
  0
LINE
  5
1935B
  8
YODOROGO
 10
13952.80217064596
 20
804.38595202162924
 30
0.0
 11
13904.80217064596
 21
804.38595202162924
 31
0.0
  0
LINE
  5
1935C
  8
YODOROGO
 10
13952.80217064596
 20
816.38595202162969
 30
0.0
 11
13952.80217064596
 21
804.38595202162924
 31
0.0
  0
LINE
  5
1935D
  8
YODOROGO
 10
13904.80217064596
 20
816.38595202162969
 30
0.0
 11
13952.80217064596
 21
816.38595202162969
 31
0.0
  0
LINE
  5
1935E
  8
YODOROGO
 10
13912.254794457869
 20
784.25142868523744
 30
0.0
 11
13892.80217064596
 21
737.87474821464366
 31
0.0
1001
AUTOCAD_POSTSCRIPT_FIGURE
1002
{
1000
PSFILL
1000
Grayscale
1000
Grayscale
1070
   100
1002
}
  0
LINE
  5
1935F
  8
YODOROGO
 10
13888.80217064596
 20
784.25142868523744
 30
0.0
 11
13912.254794457869
 21
784.25142868523744
 31
0.0
1001
AUTOCAD_POSTSCRIPT_FIGURE
1002
{
1000
PSFILL
1000
Grayscale
1000
Grayscale
1070
   100
1002
}
  0
LINE
  5
19360
  8
YODOROGO
 10
13888.80217064596
 20
794.25142868523744
 30
0.0
 11
13888.80217064596
 21
784.25142868523744
 31
0.0
1001
AUTOCAD_POSTSCRIPT_FIGURE
1002
{
1000
PSFILL
1000
Grayscale
1000
Grayscale
1070
   100
1002
}
  0
LINE
  5
19361
  8
YODOROGO
 10
13968.80217064596
 20
794.25142868523744
 30
0.0
 11
13888.80217064596
 21
794.25142868523744
 31
0.0
1001
AUTOCAD_POSTSCRIPT_FIGURE
1002
{
1000
PSFILL
1000
Grayscale
1000
Grayscale
1070
   100
1002
}
  0
LINE
  5
19362
  8
YODOROGO
 10
13968.80217064596
 20
784.25142868523744
 30
0.0
 11
13968.80217064596
 21
794.25142868523744
 31
0.0
1001
AUTOCAD_POSTSCRIPT_FIGURE
1002
{
1000
PSFILL
1000
Grayscale
1000
Grayscale
1070
   100
1002
}
  0
LINE
  5
19363
  8
YODOROGO
 10
13922.254794457869
 20
784.25142868523744
 30
0.0
 11
13968.80217064596
 21
784.25142868523744
 31
0.0
1001
AUTOCAD_POSTSCRIPT_FIGURE
1002
{
1000
PSFILL
1000
Grayscale
1000
Grayscale
1070
   100
1002
}
  0
LINE
  5
19364
  8
YODOROGO
 10
13907.773359142389
 20
747.87474821464355
 30
0.0
 11
13922.254794457869
 21
784.25142868523744
 31
0.0
1001
AUTOCAD_POSTSCRIPT_FIGURE
1002
{
1000
PSFILL
1000
Grayscale
1000
Grayscale
1070
   100
1002
}
  0
LINE
  5
19365
  8
YODOROGO
 10
13951.02739540432
 20
747.87474821464355
 30
0.0
 11
13907.773359142389
 21
747.87474821464355
 31
0.0
1001
AUTOCAD_POSTSCRIPT_FIGURE
1002
{
1000
PSFILL
1000
Grayscale
1000
Grayscale
1070
   100
1002
}
  0
LINE
  5
19366
  8
YODOROGO
 10
13942.53250239547
 20
768.11690534884644
 30
0.0
 11
13951.02739540432
 21
747.87474821464355
 31
0.0
1001
AUTOCAD_POSTSCRIPT_FIGURE
1002
{
1000
PSFILL
1000
Grayscale
1000
Grayscale
1070
   100
1002
}
  0
LINE
  5
19367
  8
YODOROGO
 10
13950.53250239547
 20
768.11690534884644
 30
0.0
 11
13942.53250239547
 21
768.11690534884644
 31
0.0
1001
AUTOCAD_POSTSCRIPT_FIGURE
1002
{
1000
PSFILL
1000
Grayscale
1000
Grayscale
1070
   100
1002
}
  0
LINE
  5
19368
  8
YODOROGO
 10
13964.80217064596
 20
737.87474821464366
 30
0.0
 11
13950.53250239547
 21
768.11690534884644
 31
0.0
1001
AUTOCAD_POSTSCRIPT_FIGURE
1002
{
1000
PSFILL
1000
Grayscale
1000
Grayscale
1070
   100
1002
}
  0
LINE
  5
19369
  8
YODOROGO
 10
13892.80217064596
 20
737.87474821464366
 30
0.0
 11
13964.80217064596
 21
737.87474821464366
 31
0.0
1001
AUTOCAD_POSTSCRIPT_FIGURE
1002
{
1000
PSFILL
1000
Grayscale
1000
Grayscale
1070
   100
1002
}
  0
LINE
  5
1936A
  8
YODOROGO
 10
13888.80217064596
 20
809.98620702228561
 30
0.0
 11
13888.80217064596
 21
821.98620702228504
 31
0.0
  0
LINE
  5
1936B
  8
YODOROGO
 10
13968.80217064596
 20
821.98620702228504
 30
0.0
 11
13968.80217064596
 21
809.98620702228561
 31
0.0
  0
ARC
  5
1936C
  8
YODOROGO
 10
14112.970221073479
 20
800.43888266266299
 30
0.0
 40
87.999999999999943
 50
280.3644312771313
 51
3.5414836592180561
  0
ARC
  5
1936D
  8
YODOROGO
 10
14117.878015379651
 20
816.79890348095216
 30
0.0
 40
55.999999999999147
 50
281.2490582504156
 51
348.75094174958332
  0
LINE
  5
1936E
  8
YODOROGO
 10
14128.80217064596
 20
761.87474821464343
 30
0.0
 11
14128.80217064596
 21
713.87474821464377
 31
0.0
  0
LINE
  5
1936F
  8
YODOROGO
 10
14010.044451868451
 20
805.32528253095745
 30
0.0
 11
14020.456602008449
 21
829.874748214644
 31
0.0
  0
LINE
  5
19370
  8
YODOROGO
 10
14020.80217064596
 20
791.5602449742006
 30
0.0
 11
14010.044451868451
 21
805.32528253095745
 31
0.0
  0
LINE
  5
19371
  8
YODOROGO
 10
14020.80217064596
 20
781.56024497419946
 30
0.0
 11
14020.80217064596
 21
791.5602449742006
 31
0.0
  0
LINE
  5
19372
  8
YODOROGO
 10
14008.80217064596
 20
792.61853187476515
 30
0.0
 11
14020.80217064596
 21
781.56024497419946
 31
0.0
  0
LINE
  5
19373
  8
YODOROGO
 10
14008.80217064596
 20
737.87474821464366
 30
0.0
 11
14008.80217064596
 21
792.61853187476515
 31
0.0
  0
LINE
  5
19374
  8
YODOROGO
 10
14000.80217064596
 20
737.87474821464366
 30
0.0
 11
14008.80217064596
 21
737.87474821464366
 31
0.0
  0
LINE
  5
19375
  8
YODOROGO
 10
14000.80217064596
 20
790.00267484487404
 30
0.0
 11
14000.80217064596
 21
737.87474821464366
 31
0.0
  0
LINE
  5
19376
  8
YODOROGO
 10
13988.80217064596
 20
766.38403951671444
 30
0.0
 11
14000.80217064596
 21
790.00267484487404
 31
0.0
  0
LINE
  5
19377
  8
YODOROGO
 10
13988.80217064596
 20
778.38403951671489
 30
0.0
 11
13988.80217064596
 21
766.38403951671444
 31
0.0
  0
LINE
  5
19378
  8
YODOROGO
 10
14012.91438714568
 20
833.87474821464275
 30
0.0
 11
13988.80217064596
 21
778.38403951671489
 31
0.0
  0
LINE
  5
19379
  8
YODOROGO
 10
13988.80217064596
 20
833.87474821464275
 30
0.0
 11
14012.91438714568
 21
833.87474821464275
 31
0.0
  0
LINE
  5
1937A
  8
YODOROGO
 10
14025.067760115449
 20
827.75181863732803
 30
0.0
 11
14041.06776011546
 21
827.75181863732803
 31
0.0
1001
AUTOCAD_POSTSCRIPT_FIGURE
1002
{
1000
PSFILL
1000
Grayscale
1000
Grayscale
1070
   100
1002
}
  0
LINE
  5
1937B
  8
YODOROGO
 10
14025.067760115449
 20
815.7518186373286
 30
0.0
 11
14025.067760115449
 21
827.75181863732803
 31
0.0
1001
AUTOCAD_POSTSCRIPT_FIGURE
1002
{
1000
PSFILL
1000
Grayscale
1000
Grayscale
1070
   100
1002
}
  0
LINE
  5
1937C
  8
YODOROGO
 10
14041.06776011546
 20
815.7518186373286
 30
0.0
 11
14025.067760115449
 21
815.7518186373286
 31
0.0
1001
AUTOCAD_POSTSCRIPT_FIGURE
1002
{
1000
PSFILL
1000
Grayscale
1000
Grayscale
1070
   100
1002
}
  0
LINE
  5
1937D
  8
YODOROGO
 10
14041.06776011546
 20
749.87474821464411
 30
0.0
 11
14041.06776011546
 21
815.7518186373286
 31
0.0
1001
AUTOCAD_POSTSCRIPT_FIGURE
1002
{
1000
PSFILL
1000
Grayscale
1000
Grayscale
1070
   100
1002
}
  0
LINE
  5
1937E
  8
YODOROGO
 10
14025.06776011546
 20
749.87474821464411
 30
0.0
 11
14041.06776011546
 21
749.87474821464411
 31
0.0
1001
AUTOCAD_POSTSCRIPT_FIGURE
1002
{
1000
PSFILL
1000
Grayscale
1000
Grayscale
1070
   100
1002
}
  0
LINE
  5
1937F
  8
YODOROGO
 10
14025.06776011546
 20
737.87474821464366
 30
0.0
 11
14025.06776011546
 21
749.87474821464411
 31
0.0
1001
AUTOCAD_POSTSCRIPT_FIGURE
1002
{
1000
PSFILL
1000
Grayscale
1000
Grayscale
1070
   100
1002
}
  0
LINE
  5
19380
  8
YODOROGO
 10
14068.80217064596
 20
737.87474821464366
 30
0.0
 11
14025.06776011546
 21
737.87474821464366
 31
0.0
1001
AUTOCAD_POSTSCRIPT_FIGURE
1002
{
1000
PSFILL
1000
Grayscale
1000
Grayscale
1070
   100
1002
}
  0
LINE
  5
19381
  8
YODOROGO
 10
14068.80217064596
 20
749.87474821464411
 30
0.0
 11
14068.80217064596
 21
737.87474821464366
 31
0.0
1001
AUTOCAD_POSTSCRIPT_FIGURE
1002
{
1000
PSFILL
1000
Grayscale
1000
Grayscale
1070
   100
1002
}
  0
LINE
  5
19382
  8
YODOROGO
 10
14049.06776011546
 20
749.87474821464411
 30
0.0
 11
14068.80217064596
 21
749.87474821464411
 31
0.0
1001
AUTOCAD_POSTSCRIPT_FIGURE
1002
{
1000
PSFILL
1000
Grayscale
1000
Grayscale
1070
   100
1002
}
  0
LINE
  5
19383
  8
YODOROGO
 10
14049.06776011546
 20
815.7518186373286
 30
0.0
 11
14049.06776011546
 21
749.87474821464411
 31
0.0
1001
AUTOCAD_POSTSCRIPT_FIGURE
1002
{
1000
PSFILL
1000
Grayscale
1000
Grayscale
1070
   100
1002
}
  0
LINE
  5
19384
  8
YODOROGO
 10
14068.80217064596
 20
815.7518186373286
 30
0.0
 11
14049.06776011546
 21
815.7518186373286
 31
0.0
1001
AUTOCAD_POSTSCRIPT_FIGURE
1002
{
1000
PSFILL
1000
Grayscale
1000
Grayscale
1070
   100
1002
}
  0
LINE
  5
19385
  8
YODOROGO
 10
14068.80217064596
 20
827.75181863732803
 30
0.0
 11
14068.80217064596
 21
815.7518186373286
 31
0.0
1001
AUTOCAD_POSTSCRIPT_FIGURE
1002
{
1000
PSFILL
1000
Grayscale
1000
Grayscale
1070
   100
1002
}
  0
LINE
  5
19386
  8
YODOROGO
 10
14049.06776011546
 20
827.75181863732803
 30
0.0
 11
14068.80217064596
 21
827.75181863732803
 31
0.0
1001
AUTOCAD_POSTSCRIPT_FIGURE
1002
{
1000
PSFILL
1000
Grayscale
1000
Grayscale
1070
   100
1002
}
  0
LINE
  5
19387
  8
YODOROGO
 10
14200.802170645949
 20
833.87474821464389
 30
0.0
 11
14172.80217064596
 21
833.87474821464389
 31
0.0
  0
LINE
  5
19388
  8
YODOROGO
 10
14200.802170645949
 20
805.87474821464434
 30
0.0
 11
14200.802170645949
 21
833.87474821464389
 31
0.0
  0
LINE
  5
19389
  8
YODOROGO
 10
14172.80217064596
 20
833.87474821464389
 30
0.0
 11
14172.80217064596
 21
805.87474821464434
 31
0.0
  0
ARC
  5
1938A
  8
YODOROGO
 10
14256.802170645949
 20
753.87474821464389
 30
0.0
 40
40.0
 50
180.0
 51
270.0
  0
ARC
  5
1938B
  8
YODOROGO
 10
14268.802170645949
 20
781.87474821464343
 30
0.0
 40
20.0
 50
180.0
 51
270.0
  0
LINE
  5
1938C
  8
YODOROGO
 10
14280.80217064596
 20
761.87474821464343
 30
0.0
 11
14268.802170645949
 21
761.87474821464343
 31
0.0
  0
ARC
  5
1938D
  8
YODOROGO
 10
14280.80217064596
 20
773.87474821464275
 30
0.0
 40
11.999999999998179
 50
270.0
 51
0.0000000000054281
  0
LINE
  5
1938E
  8
YODOROGO
 10
13900.80217064596
 20
945.39329039685322
 30
0.0
 11
13888.80217064596
 21
921.8883739758362
 31
0.0
1001
AUTOCAD_POSTSCRIPT_FIGURE
1002
{
1000
PSFILL
1000
Grayscale
1000
Grayscale
1070
   100
1002
}
  0
LINE
  5
1938F
  8
YODOROGO
 10
13900.80217064596
 20
873.87474821464377
 30
0.0
 11
13900.80217064596
 21
945.39329039685322
 31
0.0
1001
AUTOCAD_POSTSCRIPT_FIGURE
1002
{
1000
PSFILL
1000
Grayscale
1000
Grayscale
1070
   100
1002
}
  0
LINE
  5
19390
  8
YODOROGO
 10
13908.80217064596
 20
873.87474821464377
 30
0.0
 11
13900.80217064596
 21
873.87474821464377
 31
0.0
1001
AUTOCAD_POSTSCRIPT_FIGURE
1002
{
1000
PSFILL
1000
Grayscale
1000
Grayscale
1070
   100
1002
}
  0
LINE
  5
19391
  8
YODOROGO
 10
13908.80217064596
 20
946.88566604263337
 30
0.0
 11
13908.80217064596
 21
873.87474821464377
 31
0.0
1001
AUTOCAD_POSTSCRIPT_FIGURE
1002
{
1000
PSFILL
1000
Grayscale
1000
Grayscale
1070
   100
1002
}
  0
LINE
  5
19392
  8
YODOROGO
 10
13920.80217064596
 20
933.82737914206837
 30
0.0
 11
13908.80217064596
 21
946.88566604263337
 31
0.0
1001
AUTOCAD_POSTSCRIPT_FIGURE
1002
{
1000
PSFILL
1000
Grayscale
1000
Grayscale
1070
   100
1002
}
  0
LINE
  5
19393
  8
YODOROGO
 10
13920.80217064596
 20
941.82737914206791
 30
0.0
 11
13920.80217064596
 21
933.82737914206837
 31
0.0
1001
AUTOCAD_POSTSCRIPT_FIGURE
1002
{
1000
PSFILL
1000
Grayscale
1000
Grayscale
1070
   100
1002
}
  0
LINE
  5
19394
  8
YODOROGO
 10
13908.80217064596
 20
958.88566604263258
 30
0.0
 11
13920.80217064596
 21
941.82737914206791
 31
0.0
1001
AUTOCAD_POSTSCRIPT_FIGURE
1002
{
1000
PSFILL
1000
Grayscale
1000
Grayscale
1070
   100
1002
}
  0
LINE
  5
19395
  8
YODOROGO
 10
13908.80217064596
 20
969.87474821464411
 30
0.0
 11
13908.80217064596
 21
958.88566604263258
 31
0.0
1001
AUTOCAD_POSTSCRIPT_FIGURE
1002
{
1000
PSFILL
1000
Grayscale
1000
Grayscale
1070
   100
1002
}
  0
LINE
  5
19396
  8
YODOROGO
 10
13944.80217064596
 20
969.87474821464411
 30
0.0
 11
13908.80217064596
 21
969.87474821464411
 31
0.0
1001
AUTOCAD_POSTSCRIPT_FIGURE
1002
{
1000
PSFILL
1000
Grayscale
1000
Grayscale
1070
   100
1002
}
  0
LINE
  5
19397
  8
YODOROGO
 10
13944.80217064596
 20
950.28417446814979
 30
0.0
 11
13944.80217064596
 21
969.87474821464411
 31
0.0
1001
AUTOCAD_POSTSCRIPT_FIGURE
1002
{
1000
PSFILL
1000
Grayscale
1000
Grayscale
1070
   100
1002
}
  0
LINE
  5
19398
  8
YODOROGO
 10
13928.80217064596
 20
950.28417446814979
 30
0.0
 11
13944.80217064596
 21
950.28417446814979
 31
0.0
1001
AUTOCAD_POSTSCRIPT_FIGURE
1002
{
1000
PSFILL
1000
Grayscale
1000
Grayscale
1070
   100
1002
}
  0
LINE
  5
19399
  8
YODOROGO
 10
13928.80217064596
 20
942.2841744681491
 30
0.0
 11
13928.80217064596
 21
950.28417446814979
 31
0.0
1001
AUTOCAD_POSTSCRIPT_FIGURE
1002
{
1000
PSFILL
1000
Grayscale
1000
Grayscale
1070
   100
1002
}
  0
LINE
  5
1939A
  8
YODOROGO
 10
13944.80217064596
 20
942.2841744681491
 30
0.0
 11
13928.80217064596
 21
942.2841744681491
 31
0.0
1001
AUTOCAD_POSTSCRIPT_FIGURE
1002
{
1000
PSFILL
1000
Grayscale
1000
Grayscale
1070
   100
1002
}
  0
LINE
  5
1939B
  8
YODOROGO
 10
13944.80217064596
 20
939.80958898221968
 30
0.0
 11
13944.80217064596
 21
942.2841744681491
 31
0.0
1001
AUTOCAD_POSTSCRIPT_FIGURE
1002
{
1000
PSFILL
1000
Grayscale
1000
Grayscale
1070
   100
1002
}
  0
LINE
  5
1939C
  8
YODOROGO
 10
13924.80217064596
 20
906.48749058070871
 30
0.0
 11
13944.80217064596
 21
939.80958898221968
 31
0.0
1001
AUTOCAD_POSTSCRIPT_FIGURE
1002
{
1000
PSFILL
1000
Grayscale
1000
Grayscale
1070
   100
1002
}
  0
LINE
  5
1939D
  8
YODOROGO
 10
13924.80217064596
 20
898.48749058070803
 30
0.0
 11
13924.80217064596
 21
906.48749058070871
 31
0.0
1001
AUTOCAD_POSTSCRIPT_FIGURE
1002
{
1000
PSFILL
1000
Grayscale
1000
Grayscale
1070
   100
1002
}
  0
LINE
  5
1939E
  8
YODOROGO
 10
13944.80217064596
 20
923.80958898221854
 30
0.0
 11
13924.80217064596
 21
898.48749058070803
 31
0.0
1001
AUTOCAD_POSTSCRIPT_FIGURE
1002
{
1000
PSFILL
1000
Grayscale
1000
Grayscale
1070
   100
1002
}
  0
LINE
  5
1939F
  8
YODOROGO
 10
13944.80217064596
 20
873.87474821464377
 30
0.0
 11
13944.80217064596
 21
923.80958898221854
 31
0.0
1001
AUTOCAD_POSTSCRIPT_FIGURE
1002
{
1000
PSFILL
1000
Grayscale
1000
Grayscale
1070
   100
1002
}
  0
LINE
  5
193A0
  8
YODOROGO
 10
13952.80217064596
 20
873.87474821464377
 30
0.0
 11
13944.80217064596
 21
873.87474821464377
 31
0.0
1001
AUTOCAD_POSTSCRIPT_FIGURE
1002
{
1000
PSFILL
1000
Grayscale
1000
Grayscale
1070
   100
1002
}
  0
LINE
  5
193A1
  8
YODOROGO
 10
13952.80217064596
 20
924.70450607940313
 30
0.0
 11
13952.80217064596
 21
873.87474821464377
 31
0.0
1001
AUTOCAD_POSTSCRIPT_FIGURE
1002
{
1000
PSFILL
1000
Grayscale
1000
Grayscale
1070
   100
1002
}
  0
LINE
  5
193A2
  8
YODOROGO
 10
13968.80217064596
 20
898.48749058070803
 30
0.0
 11
13952.80217064596
 21
924.70450607940313
 31
0.0
1001
AUTOCAD_POSTSCRIPT_FIGURE
1002
{
1000
PSFILL
1000
Grayscale
1000
Grayscale
1070
   100
1002
}
  0
LINE
  5
193A3
  8
YODOROGO
 10
13968.80217064596
 20
906.48749058070871
 30
0.0
 11
13968.80217064596
 21
898.48749058070803
 31
0.0
1001
AUTOCAD_POSTSCRIPT_FIGURE
1002
{
1000
PSFILL
1000
Grayscale
1000
Grayscale
1070
   100
1002
}
  0
LINE
  5
193A4
  8
YODOROGO
 10
13952.80217064596
 20
940.70450607940427
 30
0.0
 11
13968.80217064596
 21
906.48749058070871
 31
0.0
1001
AUTOCAD_POSTSCRIPT_FIGURE
1002
{
1000
PSFILL
1000
Grayscale
1000
Grayscale
1070
   100
1002
}
  0
LINE
  5
193A5
  8
YODOROGO
 10
13952.80217064596
 20
942.28417446815024
 30
0.0
 11
13952.80217064596
 21
940.70450607940427
 31
0.0
1001
AUTOCAD_POSTSCRIPT_FIGURE
1002
{
1000
PSFILL
1000
Grayscale
1000
Grayscale
1070
   100
1002
}
  0
LINE
  5
193A6
  8
YODOROGO
 10
13968.80217064596
 20
942.2841744681491
 30
0.0
 11
13952.80217064596
 21
942.28417446815024
 31
0.0
1001
AUTOCAD_POSTSCRIPT_FIGURE
1002
{
1000
PSFILL
1000
Grayscale
1000
Grayscale
1070
   100
1002
}
  0
LINE
  5
193A7
  8
YODOROGO
 10
13968.80217064596
 20
950.28417446814979
 30
0.0
 11
13968.80217064596
 21
942.2841744681491
 31
0.0
1001
AUTOCAD_POSTSCRIPT_FIGURE
1002
{
1000
PSFILL
1000
Grayscale
1000
Grayscale
1070
   100
1002
}
  0
LINE
  5
193A8
  8
YODOROGO
 10
13952.80217064596
 20
950.28417446814979
 30
0.0
 11
13968.80217064596
 21
950.28417446814979
 31
0.0
1001
AUTOCAD_POSTSCRIPT_FIGURE
1002
{
1000
PSFILL
1000
Grayscale
1000
Grayscale
1070
   100
1002
}
  0
LINE
  5
193A9
  8
YODOROGO
 10
13952.80217064596
 20
969.87474821464411
 30
0.0
 11
13952.80217064596
 21
950.28417446814979
 31
0.0
1001
AUTOCAD_POSTSCRIPT_FIGURE
1002
{
1000
PSFILL
1000
Grayscale
1000
Grayscale
1070
   100
1002
}
  0
LINE
  5
193AA
  8
YODOROGO
 10
13968.80217064596
 20
969.87474821464411
 30
0.0
 11
13952.80217064596
 21
969.87474821464411
 31
0.0
1001
AUTOCAD_POSTSCRIPT_FIGURE
1002
{
1000
PSFILL
1000
Grayscale
1000
Grayscale
1070
   100
1002
}
  0
LINE
  5
193AB
  8
YODOROGO
 10
13968.80217064596
 20
977.87474821464366
 30
0.0
 11
13968.80217064596
 21
969.87474821464411
 31
0.0
1001
AUTOCAD_POSTSCRIPT_FIGURE
1002
{
1000
PSFILL
1000
Grayscale
1000
Grayscale
1070
   100
1002
}
  0
LINE
  5
193AC
  8
YODOROGO
 10
13952.80217064596
 20
977.87474821464366
 30
0.0
 11
13968.80217064596
 21
977.87474821464366
 31
0.0
1001
AUTOCAD_POSTSCRIPT_FIGURE
1002
{
1000
PSFILL
1000
Grayscale
1000
Grayscale
1070
   100
1002
}
  0
LINE
  5
193AD
  8
YODOROGO
 10
13952.80217064596
 20
989.87474821464423
 30
0.0
 11
13952.80217064596
 21
977.87474821464366
 31
0.0
1001
AUTOCAD_POSTSCRIPT_FIGURE
1002
{
1000
PSFILL
1000
Grayscale
1000
Grayscale
1070
   100
1002
}
  0
LINE
  5
193AE
  8
YODOROGO
 10
13944.80217064596
 20
989.87474821464423
 30
0.0
 11
13952.80217064596
 21
989.87474821464423
 31
0.0
1001
AUTOCAD_POSTSCRIPT_FIGURE
1002
{
1000
PSFILL
1000
Grayscale
1000
Grayscale
1070
   100
1002
}
  0
LINE
  5
193AF
  8
YODOROGO
 10
13944.80217064596
 20
977.87474821464366
 30
0.0
 11
13944.80217064596
 21
989.87474821464423
 31
0.0
1001
AUTOCAD_POSTSCRIPT_FIGURE
1002
{
1000
PSFILL
1000
Grayscale
1000
Grayscale
1070
   100
1002
}
  0
LINE
  5
193B0
  8
YODOROGO
 10
13932.80217064596
 20
977.87474821464366
 30
0.0
 11
13944.80217064596
 21
977.87474821464366
 31
0.0
1001
AUTOCAD_POSTSCRIPT_FIGURE
1002
{
1000
PSFILL
1000
Grayscale
1000
Grayscale
1070
   100
1002
}
  0
LINE
  5
193B1
  8
YODOROGO
 10
13932.80217064596
 20
989.87474821464423
 30
0.0
 11
13932.80217064596
 21
977.87474821464366
 31
0.0
1001
AUTOCAD_POSTSCRIPT_FIGURE
1002
{
1000
PSFILL
1000
Grayscale
1000
Grayscale
1070
   100
1002
}
  0
LINE
  5
193B2
  8
YODOROGO
 10
13924.80217064596
 20
989.87474821464423
 30
0.0
 11
13932.80217064596
 21
989.87474821464423
 31
0.0
1001
AUTOCAD_POSTSCRIPT_FIGURE
1002
{
1000
PSFILL
1000
Grayscale
1000
Grayscale
1070
   100
1002
}
  0
LINE
  5
193B3
  8
YODOROGO
 10
13924.80217064596
 20
977.87474821464366
 30
0.0
 11
13924.80217064596
 21
989.87474821464423
 31
0.0
1001
AUTOCAD_POSTSCRIPT_FIGURE
1002
{
1000
PSFILL
1000
Grayscale
1000
Grayscale
1070
   100
1002
}
  0
LINE
  5
193B4
  8
YODOROGO
 10
13908.80217064596
 20
977.87474821464366
 30
0.0
 11
13924.80217064596
 21
977.87474821464366
 31
0.0
1001
AUTOCAD_POSTSCRIPT_FIGURE
1002
{
1000
PSFILL
1000
Grayscale
1000
Grayscale
1070
   100
1002
}
  0
LINE
  5
193B5
  8
YODOROGO
 10
13908.80217064596
 20
989.87474821464423
 30
0.0
 11
13908.80217064596
 21
977.87474821464366
 31
0.0
1001
AUTOCAD_POSTSCRIPT_FIGURE
1002
{
1000
PSFILL
1000
Grayscale
1000
Grayscale
1070
   100
1002
}
  0
LINE
  5
193B6
  8
YODOROGO
 10
13900.80217064596
 20
989.87474821464423
 30
0.0
 11
13908.80217064596
 21
989.87474821464423
 31
0.0
1001
AUTOCAD_POSTSCRIPT_FIGURE
1002
{
1000
PSFILL
1000
Grayscale
1000
Grayscale
1070
   100
1002
}
  0
LINE
  5
193B7
  8
YODOROGO
 10
13900.80217064596
 20
977.87474821464366
 30
0.0
 11
13900.80217064596
 21
989.87474821464423
 31
0.0
1001
AUTOCAD_POSTSCRIPT_FIGURE
1002
{
1000
PSFILL
1000
Grayscale
1000
Grayscale
1070
   100
1002
}
  0
LINE
  5
193B8
  8
YODOROGO
 10
13888.80217064596
 20
977.87474821464366
 30
0.0
 11
13900.80217064596
 21
977.87474821464366
 31
0.0
1001
AUTOCAD_POSTSCRIPT_FIGURE
1002
{
1000
PSFILL
1000
Grayscale
1000
Grayscale
1070
   100
1002
}
  0
LINE
  5
193B9
  8
YODOROGO
 10
13888.80217064596
 20
969.87474821464411
 30
0.0
 11
13888.80217064596
 21
977.87474821464366
 31
0.0
1001
AUTOCAD_POSTSCRIPT_FIGURE
1002
{
1000
PSFILL
1000
Grayscale
1000
Grayscale
1070
   100
1002
}
  0
LINE
  5
193BA
  8
YODOROGO
 10
13900.80217064596
 20
969.87474821464411
 30
0.0
 11
13888.80217064596
 21
969.87474821464411
 31
0.0
1001
AUTOCAD_POSTSCRIPT_FIGURE
1002
{
1000
PSFILL
1000
Grayscale
1000
Grayscale
1070
   100
1002
}
  0
LINE
  5
193BB
  8
YODOROGO
 10
13900.80217064596
 20
957.39329039685254
 30
0.0
 11
13900.80217064596
 21
969.87474821464411
 31
0.0
1001
AUTOCAD_POSTSCRIPT_FIGURE
1002
{
1000
PSFILL
1000
Grayscale
1000
Grayscale
1070
   100
1002
}
  0
LINE
  5
193BC
  8
YODOROGO
 10
13888.80217064596
 20
929.88837397583575
 30
0.0
 11
13900.80217064596
 21
957.39329039685254
 31
0.0
1001
AUTOCAD_POSTSCRIPT_FIGURE
1002
{
1000
PSFILL
1000
Grayscale
1000
Grayscale
1070
   100
1002
}
  0
LINE
  5
193BD
  8
YODOROGO
 10
13888.80217064596
 20
921.8883739758362
 30
0.0
 11
13888.80217064596
 21
929.88837397583575
 31
0.0
1001
AUTOCAD_POSTSCRIPT_FIGURE
1002
{
1000
PSFILL
1000
Grayscale
1000
Grayscale
1070
   100
1002
}
  0
LINE
  5
193BE
  8
YODOROGO
 10
14128.80217064596
 20
933.87474821464389
 30
0.0
 11
14200.802170645949
 21
912.4388128201532
 31
0.0
1001
AUTOCAD_POSTSCRIPT_FIGURE
1002
{
1000
PSFILL
1000
Grayscale
1000
Grayscale
1070
   100
1002
}
  0
LINE
  5
193BF
  8
YODOROGO
 10
14200.802170645949
 20
876.43881282015309
 30
0.0
 11
14128.80217064596
 21
897.87474821464355
 31
0.0
1001
AUTOCAD_POSTSCRIPT_FIGURE
1002
{
1000
PSFILL
1000
Grayscale
1000
Grayscale
1070
   100
1002
}
  0
LINE
  5
193C0
  8
YODOROGO
 10
14200.802170645949
 20
992.43881282015332
 30
0.0
 11
14128.80217064596
 21
1013.874748214644
 31
0.0
1001
AUTOCAD_POSTSCRIPT_FIGURE
1002
{
1000
PSFILL
1000
Grayscale
1000
Grayscale
1070
   100
1002
}
  0
LINE
  5
193C1
  8
YODOROGO
 10
14128.80217064596
 20
979.874748214644
 30
0.0
 11
14200.802170645949
 21
958.43881282015354
 31
0.0
1001
AUTOCAD_POSTSCRIPT_FIGURE
1002
{
1000
PSFILL
1000
Grayscale
1000
Grayscale
1070
   100
1002
}
  0
LINE
  5
193C2
  8
YODOROGO
 10
14128.80217064596
 20
897.87474821464355
 30
0.0
 11
14128.80217064596
 21
933.87474821464389
 31
0.0
1001
AUTOCAD_POSTSCRIPT_FIGURE
1002
{
1000
PSFILL
1000
Grayscale
1000
Grayscale
1070
   100
1002
}
  0
LINE
  5
193C3
  8
YODOROGO
 10
14128.80217064596
 20
1013.874748214644
 30
0.0
 11
14128.80217064596
 21
979.874748214644
 31
0.0
1001
AUTOCAD_POSTSCRIPT_FIGURE
1002
{
1000
PSFILL
1000
Grayscale
1000
Grayscale
1070
   100
1002
}
  0
LINE
  5
193C4
  8
YODOROGO
 10
14040.11816010337
 20
969.87474821464411
 30
0.0
 11
14064.80217064596
 21
873.87474821464377
 31
0.0
1001
AUTOCAD_POSTSCRIPT_FIGURE
1002
{
1000
PSFILL
1000
Grayscale
1000
Grayscale
1070
   100
1002
}
  0
LINE
  5
193C5
  8
YODOROGO
 10
13988.80217064596
 20
969.87474821464411
 30
0.0
 11
14040.11816010337
 21
969.87474821464411
 31
0.0
1001
AUTOCAD_POSTSCRIPT_FIGURE
1002
{
1000
PSFILL
1000
Grayscale
1000
Grayscale
1070
   100
1002
}
  0
LINE
  5
193C6
  8
YODOROGO
 10
13988.80217064596
 20
977.87474821464366
 30
0.0
 11
13988.80217064596
 21
969.87474821464411
 31
0.0
1001
AUTOCAD_POSTSCRIPT_FIGURE
1002
{
1000
PSFILL
1000
Grayscale
1000
Grayscale
1070
   100
1002
}
  0
LINE
  5
193C7
  8
YODOROGO
 10
14038.30343925996
 20
977.87474821464366
 30
0.0
 11
13988.80217064596
 21
977.87474821464366
 31
0.0
1001
AUTOCAD_POSTSCRIPT_FIGURE
1002
{
1000
PSFILL
1000
Grayscale
1000
Grayscale
1070
   100
1002
}
  0
LINE
  5
193C8
  8
YODOROGO
 10
14035.58135799485
 20
989.87474821464423
 30
0.0
 11
14038.30343925996
 21
977.87474821464366
 31
0.0
1001
AUTOCAD_POSTSCRIPT_FIGURE
1002
{
1000
PSFILL
1000
Grayscale
1000
Grayscale
1070
   100
1002
}
  0
LINE
  5
193C9
  8
YODOROGO
 10
14045.58135799485
 20
989.87474821464423
 30
0.0
 11
14035.58135799485
 21
989.87474821464423
 31
0.0
1001
AUTOCAD_POSTSCRIPT_FIGURE
1002
{
1000
PSFILL
1000
Grayscale
1000
Grayscale
1070
   100
1002
}
  0
LINE
  5
193CA
  8
YODOROGO
 10
14047.90343925997
 20
977.87474821464366
 30
0.0
 11
14045.58135799485
 21
989.87474821464423
 31
0.0
1001
AUTOCAD_POSTSCRIPT_FIGURE
1002
{
1000
PSFILL
1000
Grayscale
1000
Grayscale
1070
   100
1002
}
  0
LINE
  5
193CB
  8
YODOROGO
 10
14060.80217064596
 20
977.87474821464366
 30
0.0
 11
14047.90343925997
 21
977.87474821464366
 31
0.0
1001
AUTOCAD_POSTSCRIPT_FIGURE
1002
{
1000
PSFILL
1000
Grayscale
1000
Grayscale
1070
   100
1002
}
  0
LINE
  5
193CC
  8
YODOROGO
 10
14060.80217064596
 20
989.87474821464423
 30
0.0
 11
14060.80217064596
 21
977.87474821464366
 31
0.0
1001
AUTOCAD_POSTSCRIPT_FIGURE
1002
{
1000
PSFILL
1000
Grayscale
1000
Grayscale
1070
   100
1002
}
  0
LINE
  5
193CD
  8
YODOROGO
 10
14068.80217064596
 20
989.87474821464423
 30
0.0
 11
14060.80217064596
 21
989.87474821464423
 31
0.0
1001
AUTOCAD_POSTSCRIPT_FIGURE
1002
{
1000
PSFILL
1000
Grayscale
1000
Grayscale
1070
   100
1002
}
  0
LINE
  5
193CE
  8
YODOROGO
 10
14068.80217064596
 20
977.87474821464366
 30
0.0
 11
14068.80217064596
 21
989.87474821464423
 31
0.0
1001
AUTOCAD_POSTSCRIPT_FIGURE
1002
{
1000
PSFILL
1000
Grayscale
1000
Grayscale
1070
   100
1002
}
  0
LINE
  5
193CF
  8
YODOROGO
 10
14068.80217064596
 20
969.87474821464411
 30
0.0
 11
14068.80217064596
 21
977.87474821464366
 31
0.0
1001
AUTOCAD_POSTSCRIPT_FIGURE
1002
{
1000
PSFILL
1000
Grayscale
1000
Grayscale
1070
   100
1002
}
  0
LINE
  5
193D0
  8
YODOROGO
 10
14049.451493436711
 20
969.87474821464411
 30
0.0
 11
14068.80217064596
 21
969.87474821464411
 31
0.0
1001
AUTOCAD_POSTSCRIPT_FIGURE
1002
{
1000
PSFILL
1000
Grayscale
1000
Grayscale
1070
   100
1002
}
  0
LINE
  5
193D1
  8
YODOROGO
 10
14068.80217064596
 20
873.87474821464377
 30
0.0
 11
14049.451493436711
 21
969.87474821464411
 31
0.0
1001
AUTOCAD_POSTSCRIPT_FIGURE
1002
{
1000
PSFILL
1000
Grayscale
1000
Grayscale
1070
   100
1002
}
  0
LINE
  5
193D2
  8
YODOROGO
 10
14064.80217064596
 20
873.87474821464377
 30
0.0
 11
14068.80217064596
 21
873.87474821464377
 31
0.0
1001
AUTOCAD_POSTSCRIPT_FIGURE
1002
{
1000
PSFILL
1000
Grayscale
1000
Grayscale
1070
   100
1002
}
  0
LINE
  5
193D3
  8
YODOROGO
 10
14039.0346099669
 20
887.87038814939717
 30
0.0
 11
13988.80217064596
 21
873.87474821464377
 31
0.0
  0
LINE
  5
193D4
  8
YODOROGO
 10
14039.0346099669
 20
899.33448976453656
 30
0.0
 11
14039.0346099669
 21
887.87038814939717
 31
0.0
  0
LINE
  5
193D5
  8
YODOROGO
 10
14016.91839030643
 20
893.40846656688336
 30
0.0
 11
14039.0346099669
 21
899.33448976453656
 31
0.0
  0
LINE
  5
193D6
  8
YODOROGO
 10
14016.91839030643
 20
936.2841744681499
 30
0.0
 11
14016.91839030643
 21
893.40846656688336
 31
0.0
  0
LINE
  5
193D7
  8
YODOROGO
 10
14039.0346099669
 20
936.2841744681499
 30
0.0
 11
14016.91839030643
 21
936.2841744681499
 31
0.0
  0
LINE
  5
193D8
  8
YODOROGO
 10
14039.0346099669
 20
946.28417446814876
 30
0.0
 11
14039.0346099669
 21
936.2841744681499
 31
0.0
  0
LINE
  5
193D9
  8
YODOROGO
 10
13988.80217064596
 20
946.28417446814876
 30
0.0
 11
14039.0346099669
 21
946.28417446814876
 31
0.0
  0
LINE
  5
193DA
  8
YODOROGO
 10
13988.80217064596
 20
936.2841744681499
 30
0.0
 11
13988.80217064596
 21
946.28417446814876
 31
0.0
  0
LINE
  5
193DB
  8
YODOROGO
 10
14010.91839030643
 20
936.2841744681499
 30
0.0
 11
13988.80217064596
 21
936.2841744681499
 31
0.0
  0
LINE
  5
193DC
  8
YODOROGO
 10
14010.91839030643
 20
892.33666979715872
 30
0.0
 11
14010.91839030643
 21
936.2841744681499
 31
0.0
  0
LINE
  5
193DD
  8
YODOROGO
 10
13988.80217064596
 20
885.8747482146432
 30
0.0
 11
14010.91839030643
 21
892.33666979715872
 31
0.0
  0
LINE
  5
193DE
  8
YODOROGO
 10
13988.80217064596
 20
873.87474821464377
 30
0.0
 11
13988.80217064596
 21
885.8747482146432
 31
0.0
  0
LINE
  5
193DF
  8
YODOROGO
 10
14000.80217064596
 20
853.87474821464389
 30
0.0
 11
14000.80217064596
 21
841.87474821464343
 31
0.0
  0
LINE
  5
193E1
  8
YODOROGO
 10
14008.80217064596
 20
853.87474821464389
 30
0.0
 11
14000.80217064596
 21
853.87474821464389
 31
0.0
  0
LINE
  5
193E2
  8
YODOROGO
 10
14008.80217064596
 20
841.87474821464343
 30
0.0
 11
14008.80217064596
 21
853.87474821464389
 31
0.0
  0
LINE
  5
193E3
  8
YODOROGO
 10
14020.456602008449
 20
841.87474821464343
 30
0.0
 11
14008.80217064596
 21
841.87474821464343
 31
0.0
  0
LINE
  5
193E4
  8
YODOROGO
 10
14000.80217064596
 20
841.87474821464343
 30
0.0
 11
13988.80217064596
 21
841.87474821464343
 31
0.0
  0
LINE
  5
193E5
  8
YODOROGO
 10
14041.06776011546
 20
853.87474821464389
 30
0.0
 11
14049.06776011546
 21
853.87474821464389
 31
0.0
1001
AUTOCAD_POSTSCRIPT_FIGURE
1002
{
1000
PSFILL
1000
Grayscale
1000
Grayscale
1070
   100
1002
}
  0
LINE
  5
193E6
  8
YODOROGO
 10
14200.802170645949
 20
912.4388128201532
 30
0.0
 11
14200.802170645949
 21
876.43881282015309
 31
0.0
1001
AUTOCAD_POSTSCRIPT_FIGURE
1002
{
1000
PSFILL
1000
Grayscale
1000
Grayscale
1070
   100
1002
}
  0
LINE
  5
193E7
  8
YODOROGO
 10
14200.802170645949
 20
958.43881282015354
 30
0.0
 11
14200.802170645949
 21
992.43881282015332
 31
0.0
1001
AUTOCAD_POSTSCRIPT_FIGURE
1002
{
1000
PSFILL
1000
Grayscale
1000
Grayscale
1070
   100
1002
}
  0
LINE
  5
193E8
  8
YODOROGO
 10
14216.802170645949
 20
909.87474821464411
 30
0.0
 11
14216.802170645949
 21
873.87474821464502
 31
0.0
  0
LINE
  5
193E9
  8
YODOROGO
 10
14248.802170645949
 20
853.87474821464389
 30
0.0
 11
14216.802170645949
 21
853.87474821464389
 31
0.0
  0
LINE
  5
193EA
  8
YODOROGO
 10
14216.802170645949
 20
873.87474821464502
 30
0.0
 11
14292.80217064596
 21
873.87474821464502
 31
0.0
  0
LINE
  5
193EB
  8
YODOROGO
 10
14248.802170645949
 20
933.87474821464389
 30
0.0
 11
14216.802170645949
 21
933.87474821464389
 31
0.0
  0
LINE
  5
193EC
  8
YODOROGO
 10
14248.802170645949
 20
961.87474821464332
 30
0.0
 11
14248.802170645949
 21
933.87474821464389
 31
0.0
  0
LINE
  5
193ED
  8
YODOROGO
 10
14292.80217064596
 20
993.87474821464389
 30
0.0
 11
14292.80217064596
 21
1013.874748214644
 31
0.0
  0
LINE
  5
193EE
  8
YODOROGO
 10
14216.802170645949
 20
993.87474821464389
 30
0.0
 11
14292.80217064596
 21
993.87474821464389
 31
0.0
  0
LINE
  5
193EF
  8
YODOROGO
 10
14216.802170645949
 20
933.87474821464389
 30
0.0
 11
14216.802170645949
 21
993.87474821464389
 31
0.0
  0
LINE
  5
193F0
  8
YODOROGO
 10
14500.802170645949
 20
1013.874748214644
 30
0.0
 11
14500.802170645949
 21
809.87474821464411
 31
0.0
  0
LINE
  5
193F1
  8
YODOROGO
 10
14536.80217064596
 20
789.87474821464411
 30
0.0
 11
14536.80217064596
 21
1013.874748214644
 31
0.0
  0
LINE
  5
193F2
  8
YODOROGO
 10
14630.80217064596
 20
745.87474821464309
 30
0.0
 11
14630.80217064596
 21
1003.874748214644
 31
0.0
  0
LINE
  5
193F3
  8
YODOROGO
 10
14598.80217064596
 20
1003.874748214644
 30
0.0
 11
14598.80217064596
 21
745.87474821464309
 31
0.0
  0
LINE
  5
193F4
  8
YODOROGO
 10
14692.80217064596
 20
1013.874748214644
 30
0.0
 11
14692.80217064596
 21
713.87474821464377
 31
0.0
  0
LINE
  5
193F5
  8
YODOROGO
 10
14728.80217064596
 20
713.87474821464377
 30
0.0
 11
14728.80217064596
 21
1013.874748214644
 31
0.0
  0
LINE
  5
193F6
  8
YODOROGO
 10
14328.802170645949
 20
833.87474821464389
 30
0.0
 11
14328.802170645949
 21
873.87474821464502
 31
0.0
  0
LINE
  5
193F7
  8
YODOROGO
 10
14942.80217064596
 20
853.87474821464389
 30
0.0
 11
14942.80217064596
 21
833.87474821464389
 31
0.0
  0
LINE
  5
193F8
  8
YODOROGO
 10
14942.80217064596
 20
853.87474821464389
 30
0.0
 11
14942.80217064596
 21
833.87474821464389
 31
0.0
  0
ARC
  5
193F9
  8
YODOROGO
 10
14453.455788093421
 20
809.10893222113646
 30
0.0
 40
47.352575589370829
 50
274.0524416290711
 51
0.9266642149310712
  0
ARC
  5
193FA
  8
YODOROGO
 10
14454.593085359909
 20
796.30536430522
 30
0.0
 40
82.460211780427557
 50
271.53512106537778
 51
355.52727750585058
  0
LINE
  5
193FB
  8
YODOROGO
 10
14456.80217064596
 20
761.87474821464343
 30
0.0
 11
14456.80217064596
 21
713.87474821464377
 31
0.0
  0
LINE
  5
193FC
  8
YODOROGO
 10
14396.802170645949
 20
833.87474821464389
 30
0.0
 11
14328.802170645949
 21
833.87474821464389
 31
0.0
  0
LINE
  5
193FD
  8
YODOROGO
 10
14396.802170645949
 20
801.87474821464457
 30
0.0
 11
14396.802170645949
 21
833.87474821464389
 31
0.0
  0
LINE
  5
193FE
  8
YODOROGO
 10
14328.802170645949
 20
801.87474821464457
 30
0.0
 11
14396.802170645949
 21
801.87474821464457
 31
0.0
  0
LINE
  5
193FF
  8
YODOROGO
 10
14328.802170645949
 20
761.87474821464343
 30
0.0
 11
14328.802170645949
 21
801.87474821464457
 31
0.0
  0
LINE
  5
19400
  8
YODOROGO
 10
14396.802170645949
 20
761.87474821464343
 30
0.0
 11
14328.802170645949
 21
761.87474821464343
 31
0.0
  0
LINE
  5
19401
  8
YODOROGO
 10
14396.802170645949
 20
713.87474821464377
 30
0.0
 11
14396.802170645949
 21
761.87474821464343
 31
0.0
  0
LINE
  5
19402
  8
YODOROGO
 10
14598.80217064596
 20
745.87474821464309
 30
0.0
 11
14630.80217064596
 21
745.87474821464309
 31
0.0
  0
LINE
  5
19403
  8
YODOROGO
 10
14692.80217064596
 20
713.87474821464377
 30
0.0
 11
14728.80217064596
 21
713.87474821464377
 31
0.0
  0
LINE
  5
19404
  8
YODOROGO
 10
14868.80217064596
 20
764.22072608528208
 30
0.0
 11
14868.80217064596
 21
713.87474821464377
 31
0.0
  0
LINE
  5
19405
  8
YODOROGO
 10
14808.80217064596
 20
713.87474821464377
 30
0.0
 11
14868.80217064596
 21
764.22072608528208
 31
0.0
  0
LINE
  5
19406
  8
YODOROGO
 10
14808.80217064596
 20
773.87474821464389
 30
0.0
 11
14808.80217064596
 21
713.87474821464377
 31
0.0
  0
LINE
  5
19407
  8
YODOROGO
 10
14856.47231434973
 20
813.87474821464377
 30
0.0
 11
14808.80217064596
 21
773.87474821464389
 31
0.0
  0
LINE
  5
19408
  8
YODOROGO
 10
14808.80217064596
 20
813.87474821464377
 30
0.0
 11
14856.47231434973
 21
813.87474821464377
 31
0.0
  0
LINE
  5
19409
  8
YODOROGO
 10
14808.80217064596
 20
833.87474821464389
 30
0.0
 11
14808.80217064596
 21
813.87474821464377
 31
0.0
  0
LINE
  5
1940A
  8
YODOROGO
 10
14942.80217064596
 20
833.87474821464389
 30
0.0
 11
14808.80217064596
 21
833.87474821464389
 31
0.0
  0
LINE
  5
1940B
  8
YODOROGO
 10
14958.80217064596
 20
813.87474821464377
 30
0.0
 11
14888.80217064596
 21
813.87474821464377
 31
0.0
  0
LINE
  5
1940C
  8
YODOROGO
 10
14888.80217064596
 20
781.0027187088283
 30
0.0
 11
14885.70493649265
 21
778.403830673117
 31
0.0
  0
LINE
  5
1940D
  8
YODOROGO
 10
14888.80217064596
 20
813.87474821464377
 30
0.0
 11
14888.80217064596
 21
781.0027187088283
 31
0.0
  0
LINE
  5
1940E
  8
YODOROGO
 10
14868.80217064596
 20
764.22072608528208
 30
0.0
 11
14868.80217064596
 21
713.87474821464377
 31
0.0
  0
LINE
  5
1940F
  8
YODOROGO
 10
14808.80217064596
 20
713.87474821464377
 30
0.0
 11
14868.80217064596
 21
764.22072608528208
 31
0.0
  0
LINE
  5
19410
  8
YODOROGO
 10
14808.80217064596
 20
773.87474821464389
 30
0.0
 11
14808.80217064596
 21
713.87474821464377
 31
0.0
  0
LINE
  5
19411
  8
YODOROGO
 10
14856.47231434973
 20
813.87474821464377
 30
0.0
 11
14808.80217064596
 21
773.87474821464389
 31
0.0
  0
LINE
  5
19412
  8
YODOROGO
 10
14808.80217064596
 20
813.87474821464377
 30
0.0
 11
14856.47231434973
 21
813.87474821464377
 31
0.0
  0
LINE
  5
19413
  8
YODOROGO
 10
14808.80217064596
 20
833.87474821464389
 30
0.0
 11
14808.80217064596
 21
813.87474821464377
 31
0.0
  0
LINE
  5
19414
  8
YODOROGO
 10
14942.80217064596
 20
833.87474821464389
 30
0.0
 11
14808.80217064596
 21
833.87474821464389
 31
0.0
  0
LINE
  5
19415
  8
YODOROGO
 10
14396.802170645949
 20
873.87474821464502
 30
0.0
 11
14396.802170645949
 21
909.87474821464411
 31
0.0
  0
LINE
  5
19416
  8
YODOROGO
 10
14328.802170645949
 20
873.87474821464502
 30
0.0
 11
14396.802170645949
 21
873.87474821464502
 31
0.0
  0
LINE
  5
19417
  8
YODOROGO
 10
14364.80217064596
 20
933.87474821464389
 30
0.0
 11
14364.80217064596
 21
961.87474821464332
 31
0.0
  0
LINE
  5
19418
  8
YODOROGO
 10
14396.802170645949
 20
933.87474821464389
 30
0.0
 11
14364.80217064596
 21
933.87474821464389
 31
0.0
  0
LINE
  5
19419
  8
YODOROGO
 10
14396.802170645949
 20
973.87474821464377
 30
0.0
 11
14396.802170645949
 21
933.87474821464389
 31
0.0
  0
ARC
  5
1941A
  8
YODOROGO
 10
14376.802170645949
 20
973.87474821464377
 30
0.0
 40
20.0
 50
0.0
 51
90.0
  0
LINE
  5
1941B
  8
YODOROGO
 10
14328.80217064596
 20
993.87474821464389
 30
0.0
 11
14376.802170645949
 21
993.87474821464389
 31
0.0
  0
LINE
  5
1941C
  8
YODOROGO
 10
14328.80217064596
 20
1013.874748214644
 30
0.0
 11
14328.80217064596
 21
993.87474821464389
 31
0.0
  0
LINE
  5
1941D
  8
YODOROGO
 10
14536.80217064596
 20
1013.874748214644
 30
0.0
 11
14500.802170645949
 21
1013.874748214644
 31
0.0
  0
LINE
  5
1941E
  8
YODOROGO
 10
14630.80217064596
 20
1003.874748214644
 30
0.0
 11
14598.80217064596
 21
1003.874748214644
 31
0.0
  0
LINE
  5
1941F
  8
YODOROGO
 10
14728.80217064596
 20
1013.874748214644
 30
0.0
 11
14692.80217064596
 21
1013.874748214644
 31
0.0
  0
LINE
  5
19420
  8
YODOROGO
 10
14836.80217064596
 20
853.87474821464389
 30
0.0
 11
14836.80217064596
 21
885.87474821464423
 31
0.0
1001
AUTOCAD_POSTSCRIPT_FIGURE
1002
{
1000
PSFILL
1000
Grayscale
1000
Grayscale
1070
    25
1002
}
  0
LINE
  5
19421
  8
YODOROGO
 10
14808.80217064596
 20
853.87474821464389
 30
0.0
 11
14836.80217064596
 21
853.87474821464389
 31
0.0
1001
AUTOCAD_POSTSCRIPT_FIGURE
1002
{
1000
PSFILL
1000
Grayscale
1000
Grayscale
1070
    25
1002
}
  0
LINE
  5
19422
  8
YODOROGO
 10
14808.80217064596
 20
909.87474821464411
 30
0.0
 11
14808.80217064596
 21
853.87474821464389
 31
0.0
1001
AUTOCAD_POSTSCRIPT_FIGURE
1002
{
1000
PSFILL
1000
Grayscale
1000
Grayscale
1070
    25
1002
}
  0
LINE
  5
19423
  8
YODOROGO
 10
14882.80217064596
 20
909.87474821464411
 30
0.0
 11
14808.80217064596
 21
909.87474821464411
 31
0.0
1001
AUTOCAD_POSTSCRIPT_FIGURE
1002
{
1000
PSFILL
1000
Grayscale
1000
Grayscale
1070
    25
1002
}
  0
LINE
  5
19424
  8
YODOROGO
 10
14882.80217064596
 20
929.874748214644
 30
0.0
 11
14882.80217064596
 21
909.87474821464411
 31
0.0
1001
AUTOCAD_POSTSCRIPT_FIGURE
1002
{
1000
PSFILL
1000
Grayscale
1000
Grayscale
1070
    25
1002
}
  0
LINE
  5
19425
  8
YODOROGO
 10
14808.80217064596
 20
929.874748214644
 30
0.0
 11
14882.80217064596
 21
929.874748214644
 31
0.0
1001
AUTOCAD_POSTSCRIPT_FIGURE
1002
{
1000
PSFILL
1000
Grayscale
1000
Grayscale
1070
    25
1002
}
  0
LINE
  5
19426
  8
YODOROGO
 10
14808.80217064596
 20
953.87474821464389
 30
0.0
 11
14808.80217064596
 21
929.874748214644
 31
0.0
1001
AUTOCAD_POSTSCRIPT_FIGURE
1002
{
1000
PSFILL
1000
Grayscale
1000
Grayscale
1070
    25
1002
}
  0
LINE
  5
19427
  8
YODOROGO
 10
14882.80217064596
 20
953.87474821464389
 30
0.0
 11
14808.80217064596
 21
953.87474821464389
 31
0.0
1001
AUTOCAD_POSTSCRIPT_FIGURE
1002
{
1000
PSFILL
1000
Grayscale
1000
Grayscale
1070
    25
1002
}
  0
LINE
  5
19428
  8
YODOROGO
 10
14882.80217064596
 20
973.87474821464377
 30
0.0
 11
14882.80217064596
 21
953.87474821464389
 31
0.0
1001
AUTOCAD_POSTSCRIPT_FIGURE
1002
{
1000
PSFILL
1000
Grayscale
1000
Grayscale
1070
    25
1002
}
  0
LINE
  5
19429
  8
YODOROGO
 10
14808.80217064596
 20
973.87474821464377
 30
0.0
 11
14882.80217064596
 21
973.87474821464377
 31
0.0
1001
AUTOCAD_POSTSCRIPT_FIGURE
1002
{
1000
PSFILL
1000
Grayscale
1000
Grayscale
1070
    25
1002
}
  0
LINE
  5
1942A
  8
YODOROGO
 10
14808.80217064596
 20
1013.874748214644
 30
0.0
 11
14808.80217064596
 21
973.87474821464377
 31
0.0
1001
AUTOCAD_POSTSCRIPT_FIGURE
1002
{
1000
PSFILL
1000
Grayscale
1000
Grayscale
1070
    25
1002
}
  0
LINE
  5
1942B
  8
YODOROGO
 10
14832.80217064596
 20
1013.874748214644
 30
0.0
 11
14808.80217064596
 21
1013.874748214644
 31
0.0
1001
AUTOCAD_POSTSCRIPT_FIGURE
1002
{
1000
PSFILL
1000
Grayscale
1000
Grayscale
1070
    25
1002
}
  0
LINE
  5
1942C
  8
YODOROGO
 10
14832.80217064596
 20
997.87474821464355
 30
0.0
 11
14832.80217064596
 21
1013.874748214644
 31
0.0
1001
AUTOCAD_POSTSCRIPT_FIGURE
1002
{
1000
PSFILL
1000
Grayscale
1000
Grayscale
1070
    25
1002
}
  0
LINE
  5
1942D
  8
YODOROGO
 10
14882.80217064596
 20
997.87474821464355
 30
0.0
 11
14832.80217064596
 21
997.87474821464355
 31
0.0
1001
AUTOCAD_POSTSCRIPT_FIGURE
1002
{
1000
PSFILL
1000
Grayscale
1000
Grayscale
1070
    25
1002
}
  0
LINE
  5
1942E
  8
YODOROGO
 10
14882.80217064596
 20
1013.874748214644
 30
0.0
 11
14882.80217064596
 21
997.87474821464355
 31
0.0
1001
AUTOCAD_POSTSCRIPT_FIGURE
1002
{
1000
PSFILL
1000
Grayscale
1000
Grayscale
1070
    25
1002
}
  0
LINE
  5
1942F
  8
YODOROGO
 10
14914.80217064596
 20
1013.874748214644
 30
0.0
 11
14882.80217064596
 21
1013.874748214644
 31
0.0
1001
AUTOCAD_POSTSCRIPT_FIGURE
1002
{
1000
PSFILL
1000
Grayscale
1000
Grayscale
1070
    25
1002
}
  0
LINE
  5
19430
  8
YODOROGO
 10
14914.80217064596
 20
997.87474821464355
 30
0.0
 11
14914.80217064596
 21
1013.874748214644
 31
0.0
1001
AUTOCAD_POSTSCRIPT_FIGURE
1002
{
1000
PSFILL
1000
Grayscale
1000
Grayscale
1070
    25
1002
}
  0
LINE
  5
19431
  8
YODOROGO
 10
14914.80217064596
 20
953.87474821464389
 30
0.0
 11
14914.80217064596
 21
973.87474821464377
 31
0.0
1001
AUTOCAD_POSTSCRIPT_FIGURE
1002
{
1000
PSFILL
1000
Grayscale
1000
Grayscale
1070
    25
1002
}
  0
LINE
  5
19432
  8
YODOROGO
 10
14914.80217064596
 20
909.87474821464411
 30
0.0
 11
14914.80217064596
 21
929.874748214644
 31
0.0
1001
AUTOCAD_POSTSCRIPT_FIGURE
1002
{
1000
PSFILL
1000
Grayscale
1000
Grayscale
1070
    25
1002
}
  0
LINE
  5
19433
  8
YODOROGO
 10
14960.802170645949
 20
885.87474821464423
 30
0.0
 11
14960.802170645949
 21
853.87474821464389
 31
0.0
1001
AUTOCAD_POSTSCRIPT_FIGURE
1002
{
1000
PSFILL
1000
Grayscale
1000
Grayscale
1070
    25
1002
}
  0
LINE
  5
19434
  8
YODOROGO
 10
14914.80217064596
 20
885.87474821464423
 30
0.0
 11
14960.802170645949
 21
885.87474821464423
 31
0.0
1001
AUTOCAD_POSTSCRIPT_FIGURE
1002
{
1000
PSFILL
1000
Grayscale
1000
Grayscale
1070
    25
1002
}
  0
LINE
  5
19435
  8
YODOROGO
 10
14914.80217064596
 20
853.87474821464389
 30
0.0
 11
14914.80217064596
 21
885.87474821464423
 31
0.0
1001
AUTOCAD_POSTSCRIPT_FIGURE
1002
{
1000
PSFILL
1000
Grayscale
1000
Grayscale
1070
    25
1002
}
  0
LINE
  5
19436
  8
YODOROGO
 10
14882.80217064596
 20
853.87474821464389
 30
0.0
 11
14914.80217064596
 21
853.87474821464389
 31
0.0
1001
AUTOCAD_POSTSCRIPT_FIGURE
1002
{
1000
PSFILL
1000
Grayscale
1000
Grayscale
1070
    25
1002
}
  0
LINE
  5
19437
  8
YODOROGO
 10
14882.80217064596
 20
885.87474821464423
 30
0.0
 11
14882.80217064596
 21
853.87474821464389
 31
0.0
1001
AUTOCAD_POSTSCRIPT_FIGURE
1002
{
1000
PSFILL
1000
Grayscale
1000
Grayscale
1070
    25
1002
}
  0
LINE
  5
19438
  8
YODOROGO
 10
14836.80217064596
 20
885.87474821464423
 30
0.0
 11
14882.80217064596
 21
885.87474821464423
 31
0.0
1001
AUTOCAD_POSTSCRIPT_FIGURE
1002
{
1000
PSFILL
1000
Grayscale
1000
Grayscale
1070
    25
1002
}
  0
ARC
  5
19439
  8
YODOROGO
 10
15529.75894667896
 20
801.34036875778816
 30
0.0
 40
89.11064055536076
 50
281.02627495425361
 51
357.77113575573799
  0
LINE
  5
1943A
  8
YODOROGO
 10
15706.80217064596
 20
953.87474821464389
 30
0.0
 11
15582.80217064596
 21
953.87474821464389
 31
0.0
  0
LINE
  5
1943B
  8
YODOROGO
 10
15706.80217064596
 20
1013.874748214644
 30
0.0
 11
15582.80217064596
 21
1013.874748214644
 31
0.0
  0
LINE
  5
1943C
  8
YODOROGO
 10
15582.80217064596
 20
981.87474821464343
 30
0.0
 11
15706.80217064596
 21
981.87474821464343
 31
0.0
  0
LINE
  5
1943D
  8
YODOROGO
 10
15395.80217064596
 20
781.87474821464343
 30
0.0
 11
15395.80217064596
 21
877.87474821464366
 31
0.0
  0
LINE
  5
1943E
  8
YODOROGO
 10
15381.80217064596
 20
845.87474821464446
 30
0.0
 11
15381.80217064596
 21
781.87474821464343
 31
0.0
  0
LINE
  5
1943F
  8
YODOROGO
 10
15361.80217064596
 20
745.87474821464434
 30
0.0
 11
15361.80217064596
 21
845.87474821464446
 31
0.0
  0
LINE
  5
19440
  8
YODOROGO
 10
15449.80217064596
 20
845.87474821464446
 30
0.0
 11
15449.80217064596
 21
745.87474821464434
 31
0.0
  0
LINE
  5
19441
  8
YODOROGO
 10
15429.80217064596
 20
781.87474821464343
 30
0.0
 11
15429.80217064596
 21
845.87474821464446
 31
0.0
  0
LINE
  5
19442
  8
YODOROGO
 10
15415.80217064596
 20
877.87474821464366
 30
0.0
 11
15415.80217064596
 21
781.87474821464343
 31
0.0
  0
LINE
  5
19443
  8
YODOROGO
 10
15486.80217064596
 20
1013.874748214644
 30
0.0
 11
15486.80217064596
 21
733.87474821464377
 31
0.0
  0
LINE
  5
19444
  8
YODOROGO
 10
15322.80217064596
 20
713.87474821464377
 30
0.0
 11
15322.80217064596
 21
1013.874748214644
 31
0.0
  0
LINE
  5
19445
  8
YODOROGO
 10
15348.80217064596
 20
981.87474821464343
 30
0.0
 11
15348.80217064596
 21
713.87474821464377
 31
0.0
  0
LINE
  5
19446
  8
YODOROGO
 10
15462.80217064596
 20
773.87474821464389
 30
0.0
 11
15462.80217064596
 21
981.87474821464343
 31
0.0
  0
LINE
  5
19447
  8
YODOROGO
 10
15190.80217064596
 20
813.87474821464377
 30
0.0
 11
15190.80217064596
 21
839.87474821464423
 31
0.0
  0
LINE
  5
19448
  8
YODOROGO
 10
15308.80217064596
 20
839.87474821464423
 30
0.0
 11
15308.80217064596
 21
813.87474821464377
 31
0.0
  0
LINE
  5
19449
  8
YODOROGO
 10
15582.80217064596
 20
953.87474821464389
 30
0.0
 11
15582.80217064596
 21
817.87474821464355
 31
0.0
  0
LINE
  5
1944A
  8
YODOROGO
 10
14974.80217064596
 20
833.87474821464389
 30
0.0
 11
14974.80217064596
 21
853.87474821464389
 31
0.0
  0
LINE
  5
1944B
  8
YODOROGO
 10
14974.80217064596
 20
833.87474821464389
 30
0.0
 11
14974.80217064596
 21
853.87474821464389
 31
0.0
  0
ARC
  5
1944C
  8
YODOROGO
 10
15268.80217064596
 20
753.87474821464389
 30
0.0
 40
40.0
 50
270.0
 51
0.0
  0
LINE
  5
1944D
  8
YODOROGO
 10
15284.80217064596
 20
799.87474821464411
 30
0.0
 11
15308.80217064596
 21
799.87474821464411
 31
0.0
  0
LINE
  5
1944E
  8
YODOROGO
 10
15308.80217064596
 20
813.87474821464377
 30
0.0
 11
15264.80217064596
 21
813.87474821464377
 31
0.0
  0
LINE
  5
1944F
  8
YODOROGO
 10
15108.80217064596
 20
833.87474821464389
 30
0.0
 11
14974.80217064596
 21
833.87474821464389
 31
0.0
  0
LINE
  5
19450
  8
YODOROGO
 10
15108.80217064596
 20
813.87474821464377
 30
0.0
 11
15108.80217064596
 21
833.87474821464389
 31
0.0
  0
LINE
  5
19451
  8
YODOROGO
 10
15008.80217064596
 20
813.87474821464377
 30
0.0
 11
15108.80217064596
 21
813.87474821464377
 31
0.0
  0
ARC
  5
19452
  8
YODOROGO
 10
15115.02941435068
 20
934.44285747645131
 30
0.0
 40
160.68881814261411
 50
228.6181454618993
 51
245.660289248906
  0
LINE
  5
19453
  8
YODOROGO
 10
15052.80217064596
 20
801.87474821464457
 30
0.0
 11
15048.80217064598
 21
788.03640793495015
 31
0.0
  0
LINE
  5
19454
  8
YODOROGO
 10
15094.80217064596
 20
801.87474821464457
 30
0.0
 11
15052.80217064596
 21
801.87474821464457
 31
0.0
  0
LINE
  5
19455
  8
YODOROGO
 10
15088.80217064596
 20
775.90886123671362
 30
0.0
 11
15094.80217064596
 21
801.87474821464457
 31
0.0
  0
ARC
  5
19456
  8
YODOROGO
 10
15115.029414350231
 20
934.44285747650144
 30
0.0
 40
160.6888181426454
 50
260.60629297969928
 51
267.77903556555862
  0
LINE
  5
19457
  8
YODOROGO
 10
15108.80217064596
 20
713.87474821464275
 30
0.0
 11
15108.80217064596
 21
773.87474821464389
 31
0.0
  0
LINE
  5
19458
  8
YODOROGO
 10
14968.80217064596
 20
740.66966745775528
 30
0.0
 11
14968.80217064596
 21
797.26554526557061
 31
0.0
  0
LINE
  5
19459
  8
YODOROGO
 10
15108.80217064596
 20
833.87474821464389
 30
0.0
 11
14974.80217064596
 21
833.87474821464389
 31
0.0
  0
LINE
  5
1945A
  8
YODOROGO
 10
15108.80217064596
 20
813.87474821464377
 30
0.0
 11
15108.80217064596
 21
833.87474821464389
 31
0.0
  0
LINE
  5
1945B
  8
YODOROGO
 10
15008.80217064596
 20
813.87474821464377
 30
0.0
 11
15108.80217064596
 21
813.87474821464377
 31
0.0
  0
ARC
  5
1945C
  8
YODOROGO
 10
15115.02941435068
 20
934.44285747645131
 30
0.0
 40
160.68881814261411
 50
228.6181454618993
 51
245.660289248906
  0
LINE
  5
1945D
  8
YODOROGO
 10
15052.80217064596
 20
801.87474821464457
 30
0.0
 11
15048.80217064598
 21
788.03640793495015
 31
0.0
  0
LINE
  5
1945E
  8
YODOROGO
 10
15094.80217064596
 20
801.87474821464457
 30
0.0
 11
15052.80217064596
 21
801.87474821464457
 31
0.0
  0
LINE
  5
1945F
  8
YODOROGO
 10
15088.80217064596
 20
775.90886123671362
 30
0.0
 11
15094.80217064596
 21
801.87474821464457
 31
0.0
  0
ARC
  5
19460
  8
YODOROGO
 10
15115.029414350231
 20
934.44285747650144
 30
0.0
 40
160.6888181426454
 50
260.60629297969928
 51
267.77903556555862
  0
LINE
  5
19461
  8
YODOROGO
 10
15108.80217064596
 20
713.87474821464275
 30
0.0
 11
15108.80217064596
 21
773.87474821464389
 31
0.0
  0
LINE
  5
19462
  8
YODOROGO
 10
14968.80217064596
 20
740.66966745775528
 30
0.0
 11
14968.80217064596
 21
797.26554526557061
 31
0.0
  0
LINE
  5
19463
  8
YODOROGO
 10
15216.80217064596
 20
786.87474821464457
 30
0.0
 11
15190.80217064596
 21
786.87474821464457
 31
0.0
  0
LINE
  5
19464
  8
YODOROGO
 10
15216.80217064596
 20
800.8747482146432
 30
0.0
 11
15216.80217064596
 21
786.87474821464457
 31
0.0
  0
LINE
  5
19465
  8
YODOROGO
 10
15190.80217064596
 20
800.8747482146432
 30
0.0
 11
15216.80217064596
 21
800.8747482146432
 31
0.0
  0
LINE
  5
19466
  8
YODOROGO
 10
15190.80217064596
 20
786.87474821464457
 30
0.0
 11
15190.80217064596
 21
800.8747482146432
 31
0.0
  0
LINE
  5
19467
  8
YODOROGO
 10
15214.80217064596
 20
788.87474821464377
 30
0.0
 11
15192.80217064596
 21
788.87474821464377
 31
0.0
  0
LINE
  5
19468
  8
YODOROGO
 10
15214.80217064596
 20
798.87474821464389
 30
0.0
 11
15214.80217064596
 21
788.87474821464377
 31
0.0
  0
LINE
  5
19469
  8
YODOROGO
 10
15192.80217064596
 20
798.87474821464389
 30
0.0
 11
15214.80217064596
 21
798.87474821464389
 31
0.0
  0
LINE
  5
1946A
  8
YODOROGO
 10
15192.80217064596
 20
788.87474821464377
 30
0.0
 11
15192.80217064596
 21
798.87474821464389
 31
0.0
  0
LINE
  5
1946B
  8
YODOROGO
 10
15212.80217064596
 20
790.8747482146432
 30
0.0
 11
15194.80217064596
 21
790.8747482146432
 31
0.0
  0
LINE
  5
1946C
  8
YODOROGO
 10
15212.80217064596
 20
796.87474821464446
 30
0.0
 11
15212.80217064596
 21
790.8747482146432
 31
0.0
  0
LINE
  5
1946D
  8
YODOROGO
 10
15194.80217064596
 20
796.87474821464446
 30
0.0
 11
15212.80217064596
 21
796.87474821464446
 31
0.0
  0
LINE
  5
1946E
  8
YODOROGO
 10
15194.80217064596
 20
790.8747482146432
 30
0.0
 11
15194.80217064596
 21
796.87474821464446
 31
0.0
  0
LINE
  5
1946F
  8
YODOROGO
 10
15210.80217064596
 20
792.87474821464355
 30
0.0
 11
15196.80217064596
 21
792.87474821464355
 31
0.0
  0
LINE
  5
19470
  8
YODOROGO
 10
15210.80217064596
 20
794.87474821464411
 30
0.0
 11
15210.80217064596
 21
792.87474821464355
 31
0.0
  0
LINE
  5
19471
  8
YODOROGO
 10
15196.80217064596
 20
794.87474821464411
 30
0.0
 11
15210.80217064596
 21
794.87474821464411
 31
0.0
  0
LINE
  5
19472
  8
YODOROGO
 10
15196.80217064596
 20
792.87474821464355
 30
0.0
 11
15196.80217064596
 21
794.87474821464411
 31
0.0
  0
LINE
  5
19473
  8
YODOROGO
 10
15232.80217064596
 20
813.87474821464377
 30
0.0
 11
15190.80217064596
 21
813.87474821464377
 31
0.0
  0
LINE
  5
19474
  8
YODOROGO
 10
15232.80217064596
 20
773.87474821464389
 30
0.0
 11
15232.80217064596
 21
813.87474821464377
 31
0.0
  0
LINE
  5
19475
  8
YODOROGO
 10
15190.80217064596
 20
773.87474821464389
 30
0.0
 11
15232.80217064596
 21
773.87474821464389
 31
0.0
  0
LINE
  5
19476
  8
YODOROGO
 10
15190.80217064596
 20
713.87474821464377
 30
0.0
 11
15190.80217064596
 21
773.87474821464389
 31
0.0
  0
LINE
  5
19477
  8
YODOROGO
 10
15268.80217064596
 20
713.87474821464377
 30
0.0
 11
15190.80217064596
 21
713.87474821464377
 31
0.0
  0
LINE
  5
19478
  8
YODOROGO
 10
15284.80217064596
 20
785.8747482146432
 30
0.0
 11
15284.80217064596
 21
799.87474821464411
 31
0.0
  0
ARC
  5
19479
  8
YODOROGO
 10
15272.802170645949
 20
785.87474821464582
 30
0.0
 40
12.000000000001871
 50
270.0
 51
359.99999999998778
  0
LINE
  5
1947A
  8
YODOROGO
 10
15264.80217064596
 20
773.87474821464389
 30
0.0
 11
15272.802170645949
 21
773.87474821464389
 31
0.0
  0
LINE
  5
1947B
  8
YODOROGO
 10
15264.80217064596
 20
813.87474821464377
 30
0.0
 11
15264.80217064596
 21
773.87474821464389
 31
0.0
  0
LINE
  5
1947C
  8
YODOROGO
 10
15449.802170645969
 20
773.87474821464389
 30
0.0
 11
15462.80217064596
 21
773.87474821464389
 31
0.0
  0
LINE
  5
1947D
  8
YODOROGO
 10
15466.80217064596
 20
713.87474821464377
 30
0.0
 11
15449.80217064596
 21
713.87474821464377
 31
0.0
  0
LINE
  5
1947E
  8
YODOROGO
 10
15381.80217064596
 20
781.87474821464343
 30
0.0
 11
15395.80217064596
 21
781.87474821464343
 31
0.0
  0
LINE
  5
1947F
  8
YODOROGO
 10
15449.80217064596
 20
745.87474821464434
 30
0.0
 11
15361.80217064596
 21
745.87474821464434
 31
0.0
  0
LINE
  5
19480
  8
YODOROGO
 10
15415.80217064596
 20
781.87474821464343
 30
0.0
 11
15429.80217064596
 21
781.87474821464343
 31
0.0
  0
LINE
  5
19481
  8
YODOROGO
 10
15449.80217064596
 20
713.87474821464377
 30
0.0
 11
15449.802170645969
 21
773.87474821464389
 31
0.0
  0
LINE
  5
19482
  8
YODOROGO
 10
15348.80217064596
 20
713.87474821464377
 30
0.0
 11
15322.80217064596
 21
713.87474821464377
 31
0.0
  0
LINE
  5
19483
  8
YODOROGO
 10
15308.80217064596
 20
799.87474821464411
 30
0.0
 11
15308.80217064596
 21
753.87474821464389
 31
0.0
  0
ARC
  5
19484
  8
YODOROGO
 10
15466.80217064596
 20
733.87474821464377
 30
0.0
 40
20.0
 50
270.0
 51
0.0
  0
LINE
  5
19485
  8
YODOROGO
 10
15546.80217064596
 20
761.87474821464343
 30
0.0
 11
15546.80217064596
 21
713.87474821464377
 31
0.0
  0
ARC
  5
19486
  8
YODOROGO
 10
15519.86069778339
 20
818.76569505486657
 30
0.0
 40
62.947778295837708
 50
295.34052442160112
 51
359.18902303418668
  0
LINE
  5
19487
  8
YODOROGO
 10
15308.80217064596
 20
929.874748214644
 30
0.0
 11
15248.80217064596
 21
969.87474821464411
 31
0.0
  0
LINE
  5
19488
  8
YODOROGO
 10
15248.80217064596
 20
1013.874748214644
 30
0.0
 11
15308.80217064596
 21
973.87474821464377
 31
0.0
  0
LINE
  5
19489
  8
YODOROGO
 10
15264.80217064596
 20
839.87474821464423
 30
0.0
 11
15308.80217064596
 21
839.87474821464423
 31
0.0
  0
LINE
  5
1948A
  8
YODOROGO
 10
15308.80217064596
 20
867.87474821464355
 30
0.0
 11
15264.80217064596
 21
867.87474821464355
 31
0.0
  0
LINE
  5
1948B
  8
YODOROGO
 10
15190.80217064596
 20
897.87474821464355
 30
0.0
 11
15308.80217064596
 21
897.87474821464355
 31
0.0
  0
LINE
  5
1948C
  8
YODOROGO
 10
15040.80217064596
 20
1013.874748214644
 30
0.0
 11
15010.80217064596
 21
1013.874748214644
 31
0.0
  0
LINE
  5
1948D
  8
YODOROGO
 10
15040.80217064596
 20
913.87474821464377
 30
0.0
 11
15040.80217064596
 21
1013.874748214644
 31
0.0
  0
LINE
  5
1948E
  8
YODOROGO
 10
15010.80217064596
 20
913.87474821464377
 30
0.0
 11
15040.80217064596
 21
913.87474821464377
 31
0.0
  0
LINE
  5
1948F
  8
YODOROGO
 10
15010.80217064596
 20
1013.874748214644
 30
0.0
 11
15010.80217064596
 21
913.87474821464377
 31
0.0
  0
LINE
  5
19490
  8
YODOROGO
 10
15080.80217064596
 20
1013.874748214644
 30
0.0
 11
15108.80217064596
 21
1013.874748214644
 31
0.0
  0
LINE
  5
19491
  8
YODOROGO
 10
15080.80217064596
 20
905.87474821464434
 30
0.0
 11
15080.80217064596
 21
1013.874748214644
 31
0.0
  0
ARC
  5
19492
  8
YODOROGO
 10
15060.80217064596
 20
905.87474821464434
 30
0.0
 40
20.0
 50
270.0
 51
0.0
  0
LINE
  5
19493
  8
YODOROGO
 10
15010.80217064596
 20
885.87474821464423
 30
0.0
 11
15060.80217064596
 21
885.87474821464423
 31
0.0
  0
LINE
  5
19494
  8
YODOROGO
 10
15010.80217064596
 20
853.87474821464389
 30
0.0
 11
15010.80217064596
 21
885.87474821464423
 31
0.0
  0
LINE
  5
19495
  8
YODOROGO
 10
15068.80217064596
 20
853.87474821464389
 30
0.0
 11
15010.80217064596
 21
853.87474821464389
 31
0.0
  0
ARC
  5
19496
  8
YODOROGO
 10
15068.80217064596
 20
893.87474821464389
 30
0.0
 40
40.0
 50
270.0
 51
0.0
  0
LINE
  5
19497
  8
YODOROGO
 10
15108.80217064596
 20
1013.874748214644
 30
0.0
 11
15108.80217064596
 21
893.87474821464389
 31
0.0
  0
LINE
  5
19498
  8
YODOROGO
 10
14988.80217064596
 20
973.87474821464377
 30
0.0
 11
14988.80217064596
 21
997.87474821464355
 31
0.0
1001
AUTOCAD_POSTSCRIPT_FIGURE
1002
{
1000
PSFILL
1000
Grayscale
1000
Grayscale
1070
    25
1002
}
  0
LINE
  5
19499
  8
YODOROGO
 10
14988.80217064596
 20
929.874748214644
 30
0.0
 11
14988.80217064596
 21
953.87474821464389
 31
0.0
1001
AUTOCAD_POSTSCRIPT_FIGURE
1002
{
1000
PSFILL
1000
Grayscale
1000
Grayscale
1070
    25
1002
}
  0
LINE
  5
1949A
  8
YODOROGO
 10
14988.80217064596
 20
853.87474821464389
 30
0.0
 11
14988.80217064596
 21
909.87474821464411
 31
0.0
1001
AUTOCAD_POSTSCRIPT_FIGURE
1002
{
1000
PSFILL
1000
Grayscale
1000
Grayscale
1070
    25
1002
}
  0
LINE
  5
1949B
  8
YODOROGO
 10
15190.80217064596
 20
953.87474821464389
 30
0.0
 11
15248.80217064596
 21
1013.874748214644
 31
0.0
  0
LINE
  5
1949C
  8
YODOROGO
 10
15190.80217064596
 20
909.87474821464411
 30
0.0
 11
15190.80217064596
 21
953.87474821464389
 31
0.0
  0
LINE
  5
1949D
  8
YODOROGO
 10
15248.80217064596
 20
969.87474821464411
 30
0.0
 11
15190.80217064596
 21
909.87474821464411
 31
0.0
  0
LINE
  5
1949E
  8
YODOROGO
 10
15232.80217064596
 20
839.87474821464423
 30
0.0
 11
15232.80217064596
 21
867.87474821464355
 31
0.0
  0
LINE
  5
1949F
  8
YODOROGO
 10
15190.80217064596
 20
839.87474821464423
 30
0.0
 11
15232.80217064596
 21
839.87474821464423
 31
0.0
  0
LINE
  5
194A0
  8
YODOROGO
 10
15264.80217064596
 20
867.87474821464355
 30
0.0
 11
15264.80217064596
 21
839.87474821464423
 31
0.0
  0
LINE
  5
194A1
  8
YODOROGO
 10
15190.80217064596
 20
867.87474821464355
 30
0.0
 11
15190.80217064596
 21
897.87474821464355
 31
0.0
  0
LINE
  5
194A2
  8
YODOROGO
 10
15232.80217064596
 20
867.87474821464355
 30
0.0
 11
15190.80217064596
 21
867.87474821464355
 31
0.0
  0
LINE
  5
194A3
  8
YODOROGO
 10
15322.80217064596
 20
1013.874748214644
 30
0.0
 11
15486.80217064596
 21
1013.874748214644
 31
0.0
  0
LINE
  5
194A4
  8
YODOROGO
 10
15462.80217064596
 20
981.87474821464343
 30
0.0
 11
15348.80217064596
 21
981.87474821464343
 31
0.0
  0
LINE
  5
194A5
  8
YODOROGO
 10
15436.80217064596
 20
909.87474821464411
 30
0.0
 11
15449.80217064596
 21
909.87474821464411
 31
0.0
  0
LINE
  5
194A6
  8
YODOROGO
 10
15449.80217064596
 20
969.87474821464411
 30
0.0
 11
15436.80217064596
 21
909.87474821464411
 31
0.0
  0
LINE
  5
194A7
  8
YODOROGO
 10
15425.80217064596
 20
969.87474821464411
 30
0.0
 11
15449.80217064596
 21
969.87474821464411
 31
0.0
  0
LINE
  5
194A8
  8
YODOROGO
 10
15412.80217064596
 20
909.87474821464411
 30
0.0
 11
15425.80217064596
 21
969.87474821464411
 31
0.0
  0
LINE
  5
194A9
  8
YODOROGO
 10
15398.80217064596
 20
909.87474821464411
 30
0.0
 11
15412.80217064596
 21
909.87474821464411
 31
0.0
  0
LINE
  5
194AA
  8
YODOROGO
 10
15385.80217064596
 20
969.87474821464411
 30
0.0
 11
15398.80217064596
 21
909.87474821464411
 31
0.0
  0
LINE
  5
194AB
  8
YODOROGO
 10
15361.80217064596
 20
969.87474821464411
 30
0.0
 11
15385.80217064596
 21
969.87474821464411
 31
0.0
  0
LINE
  5
194AC
  8
YODOROGO
 10
15374.80217064596
 20
909.87474821464411
 30
0.0
 11
15361.80217064596
 21
969.87474821464411
 31
0.0
  0
LINE
  5
194AD
  8
YODOROGO
 10
15361.80217064596
 20
909.87474821464411
 30
0.0
 11
15374.80217064596
 21
909.87474821464411
 31
0.0
  0
LINE
  5
194AE
  8
YODOROGO
 10
15361.80217064596
 20
877.87474821464366
 30
0.0
 11
15361.80217064596
 21
909.87474821464411
 31
0.0
  0
LINE
  5
194AF
  8
YODOROGO
 10
15449.80217064596
 20
877.87474821464366
 30
0.0
 11
15361.80217064596
 21
877.87474821464366
 31
0.0
  0
LINE
  5
194B0
  8
YODOROGO
 10
15449.80217064596
 20
909.87474821464411
 30
0.0
 11
15449.80217064596
 21
877.87474821464366
 31
0.0
  0
LINE
  5
194B1
  8
YODOROGO
 10
15308.80217064596
 20
973.87474821464377
 30
0.0
 11
15308.80217064596
 21
929.874748214644
 31
0.0
  0
LINE
  5
194B2
  8
YODOROGO
 10
15395.80217064596
 20
877.87474821464366
 30
0.0
 11
15415.80217064596
 21
877.87474821464366
 31
0.0
  0
LINE
  5
194B3
  8
YODOROGO
 10
15361.80217064596
 20
845.87474821464446
 30
0.0
 11
15381.80217064596
 21
845.87474821464446
 31
0.0
  0
LINE
  5
194B4
  8
YODOROGO
 10
15429.80217064596
 20
845.87474821464446
 30
0.0
 11
15449.80217064596
 21
845.87474821464446
 31
0.0
  0
LINE
  5
194B5
  8
YODOROGO
 10
15308.80217064596
 20
897.87474821464355
 30
0.0
 11
15308.80217064596
 21
867.87474821464355
 31
0.0
  0
LINE
  5
194B6
  8
YODOROGO
 10
15582.80217064596
 20
1013.874748214644
 30
0.0
 11
15582.80217064596
 21
981.87474821464343
 31
0.0
  0
LINE
  5
194B7
  8
YODOROGO
 10
15766.80217064596
 20
797.87474821464355
 30
0.0
 11
15766.802170645949
 21
905.87474821464434
 31
0.0
  0
LINE
  5
194B8
  8
YODOROGO
 10
15730.802170645949
 20
993.87474821464389
 30
0.0
 11
15730.802170645949
 21
817.87474821464355
 31
0.0
  0
LINE
  5
194B9
  8
YODOROGO
 10
15826.80217064596
 20
713.87474821464377
 30
0.0
 11
15826.802170645949
 21
905.87474821464434
 31
0.0
  0
LINE
  5
194BA
  8
YODOROGO
 10
15794.80217064596
 20
905.87474821464434
 30
0.0
 11
15794.80217064596
 21
713.87474821464377
 31
0.0
  0
LINE
  5
194BB
  8
YODOROGO
 10
15618.80217064596
 20
797.87474821464355
 30
0.0
 11
15618.80217064596
 21
853.87474821464389
 31
0.0
  0
ARC
  5
194BC
  8
YODOROGO
 10
15676.957432558031
 20
803.89517564427877
 30
0.0
 40
90.046224287994292
 50
268.62849102169793
 51
356.16638457330322
  0
LINE
  5
194BD
  8
YODOROGO
 10
15674.80217064596
 20
763.87474821464377
 30
0.0
 11
15674.80217064596
 21
713.87474821464377
 31
0.0
  0
ARC
  5
194BE
  8
YODOROGO
 10
15675.759037862281
 20
818.91947850882752
 30
0.0
 40
55.053046491806079
 50
269.00410209305937
 51
358.91264455492478
  0
LINE
  5
194BF
  8
YODOROGO
 10
15794.80217064596
 20
713.87474821464377
 30
0.0
 11
15826.80217064596
 21
713.87474821464377
 31
0.0
  0
LINE
  5
194C0
  8
YODOROGO
 10
15766.802170645949
 20
905.87474821464434
 30
0.0
 11
15794.80217064596
 21
905.87474821464434
 31
0.0
  0
LINE
  5
194C1
  8
YODOROGO
 10
15810.80217064596
 20
993.87474821464389
 30
0.0
 11
15730.802170645949
 21
993.87474821464389
 31
0.0
  0
LINE
  5
194C2
  8
YODOROGO
 10
15766.802170645949
 20
957.87474821464355
 30
0.0
 11
15830.80217064596
 21
957.87474821464355
 31
0.0
  0
LINE
  5
194C3
  8
YODOROGO
 10
15850.80217064596
 20
937.87474821464366
 30
0.0
 11
15766.802170645949
 21
937.87474821464366
 31
0.0
  0
LINE
  5
194C4
  8
YODOROGO
 10
15618.80217064596
 20
889.87474821464423
 30
0.0
 11
15674.80217064596
 21
889.87474821464423
 31
0.0
  0
LINE
  5
194C5
  8
YODOROGO
 10
15618.80217064596
 20
917.87474821464355
 30
0.0
 11
15618.80217064596
 21
889.87474821464423
 31
0.0
  0
LINE
  5
194C6
  8
YODOROGO
 10
15674.80217064596
 20
917.87474821464355
 30
0.0
 11
15618.80217064596
 21
917.87474821464355
 31
0.0
  0
LINE
  5
194C7
  8
YODOROGO
 10
15674.80217064596
 20
889.87474821464423
 30
0.0
 11
15674.80217064596
 21
917.87474821464355
 31
0.0
  0
LINE
  5
194C8
  8
YODOROGO
 10
15766.802170645949
 20
937.87474821464366
 30
0.0
 11
15766.802170645949
 21
957.87474821464355
 31
0.0
  0
LINE
  5
194C9
  8
YODOROGO
 10
15706.80217064596
 20
853.87474821464389
 30
0.0
 11
15706.80217064596
 21
953.87474821464389
 31
0.0
  0
LINE
  5
194CA
  8
YODOROGO
 10
15618.80217064596
 20
853.87474821464389
 30
0.0
 11
15706.80217064596
 21
853.87474821464389
 31
0.0
  0
LINE
  5
194CB
  8
YODOROGO
 10
15706.80217064596
 20
981.87474821464343
 30
0.0
 11
15706.80217064596
 21
1013.874748214644
 31
0.0
  0
ARC
  5
194CC
  8
YODOROGO
 10
15810.80217064596
 20
1001.874748214642
 30
0.0
 40
7.9999999999972706
 50
270.0
 51
0.0000000000081422
  0
LINE
  5
194CD
  8
YODOROGO
 10
15818.80217064596
 20
1013.874748214644
 30
0.0
 11
15818.80217064596
 21
1001.874748214643
 31
0.0
  0
LINE
  5
194CE
  8
YODOROGO
 10
15850.80217064596
 20
1013.874748214644
 30
0.0
 11
15818.80217064596
 21
1013.874748214644
 31
0.0
  0
LINE
  5
194CF
  8
YODOROGO
 10
15850.80217064596
 20
977.87474821464366
 30
0.0
 11
15850.80217064596
 21
1013.874748214644
 31
0.0
  0
ARC
  5
194D0
  8
YODOROGO
 10
15830.80217064596
 20
977.87474821464366
 30
0.0
 40
20.0
 50
270.0
 51
0.0
  0
LINE
  5
194D1
  8
YODOROGO
 10
15850.80217064596
 20
905.87474821464434
 30
0.0
 11
15850.80217064596
 21
937.87474821464366
 31
0.0
  0
LINE
  5
194D2
  8
YODOROGO
 10
15826.802170645949
 20
905.87474821464434
 30
0.0
 11
15850.80217064596
 21
905.87474821464434
 31
0.0
  0
ENDSEC
  0
EOF
