  0
SECTION
  2
HEADER
  9
$ACADVER
  1
AC1015
  9
$ACADMAINTVER
 70
    13
  9
$DWGCODEPAGE
  3
ANSI_932
  9
$INSBASE
 10
267.0
 20
194.8999999999998
 30
0.0
  9
$EXTMIN
 10
433.9966216520333
 20
163.6908237492789
 30
-0.000000000000013
  9
$EXTMAX
 10
16382.6660542547
 20
11242.27663824599
 30
0.0000000000000023
  9
$LIMMIN
 10
0.0
 20
0.0
  9
$LIMMAX
 10
16800.0
 20
11880.0
  9
$ORTHOMODE
 70
     0
  9
$REGENMODE
 70
     1
  9
$FILLMODE
 70
     1
  9
$QTEXTMODE
 70
     0
  9
$MIRRTEXT
 70
     0
  9
$LTSCALE
 40
40.0
  9
$ATTMODE
 70
     1
  9
$TEXTSIZE
 40
0.2
  9
$TRACEWID
 40
0.05
  9
$TEXTSTYLE
  7
00
  9
$CLAYER
  8
SUNPOU
  9
$CELTYPE
  6
ByLayer
  9
$CECOLOR
 62
   256
  9
$CELTSCALE
 40
1.0
  9
$DISPSILH
 70
     0
  9
$DIMSCALE
 40
30.0
  9
$DIMASZ
 40
0.5
  9
$DIMEXO
 40
1.0
  9
$DIMDLI
 40
7.0
  9
$DIMRND
 40
0.0
  9
$DIMDLE
 40
3.0
  9
$DIMEXE
 40
1.5
  9
$DIMTP
 40
0.0
  9
$DIMTM
 40
0.0
  9
$DIMTXT
 40
3.0
  9
$DIMCEN
 40
0.0
  9
$DIMTSZ
 40
0.0
  9
$DIMTOL
 70
     0
  9
$DIMLIM
 70
     0
  9
$DIMTIH
 70
     0
  9
$DIMTOH
 70
     0
  9
$DIMSE1
 70
     0
  9
$DIMSE2
 70
     0
  9
$DIMTAD
 70
     1
  9
$DIMZIN
 70
     8
  9
$DIMBLK
  1
DOT
  9
$DIMASO
 70
     1
  9
$DIMSHO
 70
     0
  9
$DIMPOST
  1

  9
$DIMAPOST
  1

  9
$DIMALT
 70
     0
  9
$DIMALTD
 70
     2
  9
$DIMALTF
 40
25.4
  9
$DIMLFAC
 40
1.0
  9
$DIMTOFL
 70
     1
  9
$DIMTVP
 40
0.0
  9
$DIMTIX
 70
     0
  9
$DIMSOXD
 70
     0
  9
$DIMSAH
 70
     1
  9
$DIMBLK1
  1
DOT
  9
$DIMBLK2
  1
DOT
  9
$DIMSTYLE
  2
SUNPOU_図面名
  9
$DIMCLRD
 70
   256
  9
$DIMCLRE
 70
   256
  9
$DIMCLRT
 70
   256
  9
$DIMTFAC
 40
1.0
  9
$DIMGAP
 40
1.5
  9
$DIMJUST
 70
     0
  9
$DIMSD1
 70
     0
  9
$DIMSD2
 70
     0
  9
$DIMTOLJ
 70
     1
  9
$DIMTZIN
 70
     0
  9
$DIMALTZ
 70
     0
  9
$DIMALTTZ
 70
     0
  9
$DIMUPT
 70
     0
  9
$DIMDEC
 70
     4
  9
$DIMTDEC
 70
     4
  9
$DIMALTU
 70
     2
  9
$DIMALTTD
 70
     2
  9
$DIMTXSTY
  7
STANDARD
  9
$DIMAUNIT
 70
     0
  9
$DIMADEC
 70
     0
  9
$DIMALTRND
 40
0.0
  9
$DIMAZIN
 70
     0
  9
$DIMDSEP
 70
    46
  9
$DIMATFIT
 70
     3
  9
$DIMFRAC
 70
     0
  9
$DIMLDRBLK
  1
DOT
  9
$DIMLUNIT
 70
     2
  9
$DIMLWD
 70
    -2
  9
$DIMLWE
 70
    -2
  9
$DIMTMOVE
 70
     0
  9
$LUNITS
 70
     2
  9
$LUPREC
 70
     2
  9
$SKETCHINC
 40
0.1
  9
$FILLETRAD
 40
0.0
  9
$AUNITS
 70
     0
  9
$AUPREC
 70
     0
  9
$MENU
  1
A:\TIGER\MENU\TIGER
  9
$ELEVATION
 40
0.0
  9
$PELEVATION
 40
0.0
  9
$THICKNESS
 40
0.0
  9
$LIMCHECK
 70
     0
  9
$CHAMFERA
 40
0.0
  9
$CHAMFERB
 40
0.0
  9
$CHAMFERC
 40
0.0
  9
$CHAMFERD
 40
0.0
  9
$SKPOLY
 70
     0
  9
$TDCREATE
 40
2450266.571064815
  9
$TDUCREATE
 40
2450266.196064815
  9
$TDUPDATE
 40
2456332.387514467
  9
$TDUUPDATE
 40
2456332.012514467
  9
$TDINDWG
 40
0.1588805440
  9
$TDUSRTIMER
 40
0.1588805440
  9
$USRTIMER
 70
     1
  9
$ANGBASE
 50
0.0
  9
$ANGDIR
 70
     0
  9
$PDMODE
 70
     0
  9
$PDSIZE
 40
0.0
  9
$PLINEWID
 40
0.0
  9
$SPLFRAME
 70
     0
  9
$SPLINETYPE
 70
     6
  9
$SPLINESEGS
 70
     8
  9
$HANDSEED
  5
18AF5
  9
$SURFTAB1
 70
     6
  9
$SURFTAB2
 70
     6
  9
$SURFTYPE
 70
     6
  9
$SURFU
 70
     6
  9
$SURFV
 70
     6
  9
$UCSBASE
  2

  9
$UCSNAME
  2

  9
$UCSORG
 10
0.0
 20
0.0
 30
0.0
  9
$UCSXDIR
 10
1.0
 20
0.0
 30
0.0
  9
$UCSYDIR
 10
0.0
 20
1.0
 30
0.0
  9
$UCSORTHOREF
  2

  9
$UCSORTHOVIEW
 70
     0
  9
$UCSORGTOP
 10
0.0
 20
0.0
 30
0.0
  9
$UCSORGBOTTOM
 10
0.0
 20
0.0
 30
0.0
  9
$UCSORGLEFT
 10
0.0
 20
0.0
 30
0.0
  9
$UCSORGRIGHT
 10
0.0
 20
0.0
 30
0.0
  9
$UCSORGFRONT
 10
0.0
 20
0.0
 30
0.0
  9
$UCSORGBACK
 10
0.0
 20
0.0
 30
0.0
  9
$PUCSBASE
  2

  9
$PUCSNAME
  2

  9
$PUCSORG
 10
0.0
 20
0.0
 30
0.0
  9
$PUCSXDIR
 10
1.0
 20
0.0
 30
0.0
  9
$PUCSYDIR
 10
0.0
 20
1.0
 30
0.0
  9
$PUCSORTHOREF
  2

  9
$PUCSORTHOVIEW
 70
     0
  9
$PUCSORGTOP
 10
0.0
 20
0.0
 30
0.0
  9
$PUCSORGBOTTOM
 10
0.0
 20
0.0
 30
0.0
  9
$PUCSORGLEFT
 10
0.0
 20
0.0
 30
0.0
  9
$PUCSORGRIGHT
 10
0.0
 20
0.0
 30
0.0
  9
$PUCSORGFRONT
 10
0.0
 20
0.0
 30
0.0
  9
$PUCSORGBACK
 10
0.0
 20
0.0
 30
0.0
  9
$USERI1
 70
     3
  9
$USERI2
 70
     0
  9
$USERI3
 70
     0
  9
$USERI4
 70
     0
  9
$USERI5
 70
  1103
  9
$USERR1
 40
0.0
  9
$USERR2
 40
1.0
  9
$USERR3
 40
0.0
  9
$USERR4
 40
0.0
  9
$USERR5
 40
0.0
  9
$WORLDVIEW
 70
     1
  9
$SHADEDGE
 70
     3
  9
$SHADEDIF
 70
    70
  9
$TILEMODE
 70
     1
  9
$MAXACTVP
 70
    16
  9
$PINSBASE
 10
0.0
 20
0.0
 30
0.0
  9
$PLIMCHECK
 70
     0
  9
$PEXTMIN
 10
1.000000000000000E+20
 20
1.000000000000000E+20
 30
1.000000000000000E+20
  9
$PEXTMAX
 10
-1.000000000000000E+20
 20
-1.000000000000000E+20
 30
-1.000000000000000E+20
  9
$PLIMMIN
 10
0.0
 20
0.0
  9
$PLIMMAX
 10
12.0
 20
9.0
  9
$UNITMODE
 70
     0
  9
$VISRETAIN
 70
     0
  9
$PLINEGEN
 70
     1
  9
$PSLTSCALE
 70
     0
  9
$TREEDEPTH
 70
  3020
  9
$CMLSTYLE
  2
Standard
  9
$CMLJUST
 70
     0
  9
$CMLSCALE
 40
1.0
  9
$PROXYGRAPHICS
 70
     1
  9
$MEASUREMENT
 70
     0
  9
$CELWEIGHT
370
    -1
  9
$ENDCAPS
280
     0
  9
$JOINSTYLE
280
     0
  9
$LWDISPLAY
290
     0
  9
$INSUNITS
 70
     0
  9
$HYPERLINKBASE
  1

  9
$STYLESHEET
  1

  9
$XEDIT
290
     1
  9
$CEPSNTYPE
380
     0
  9
$PSTYLEMODE
290
     1
  9
$FINGERPRINTGUID
  2
{A835B31D-39F6-4F53-B958-32FA5A140996}
  9
$VERSIONGUID
  2
{54CE0747-8508-4D87-A9BF-C2901A68F9B4}
  9
$EXTNAMES
290
     1
  9
$PSVPSCALE
 40
0.0
  9
$OLESTARTUP
290
     0
  0
ENDSEC
  0
SECTION
  2
CLASSES
  0
CLASS
  1
ACDBDICTIONARYWDFLT
  2
AcDbDictionaryWithDefault
  3
AutoCAD 2000
 90
        0
280
     0
281
     0
  0
CLASS
  1
ACDBPLACEHOLDER
  2
AcDbPlaceHolder
  3
AutoCAD 2000
 90
        0
280
     0
281
     0
  0
CLASS
  1
LAYOUT
  2
AcDbLayout
  3
AutoCAD 2000
 90
        0
280
     0
281
     0
  0
CLASS
  1
DICTIONARYVAR
  2
AcDbDictionaryVar
  3
AutoCAD 2000
 90
        0
280
     0
281
     0
  0
ENDSEC
  0
SECTION
  2
TABLES
  0
TABLE
  2
VPORT
  5
183F2
330
0
100
AcDbSymbolTable
 70
     2
  0
VPORT
  5
18AF4
330
183F2
100
AcDbSymbolTableRecord
100
AcDbViewportTableRecord
  2
*Active
 70
     0
 10
0.0
 20
0.0
 11
1.0
 21
1.0
 12
8408.331337953367
 22
5702.983730997637
 13
0.0
 23
0.0
 14
1.0
 24
1.0
 15
0.0
 25
0.0
 16
0.0
 26
0.0
 36
1.0
 17
0.0
 27
0.0
 37
0.0
 40
11163.50538397298
 41
1.527918781725888
 42
50.0
 43
0.0
 44
0.0
 50
0.0
 51
0.0
 71
     0
 72
 10000
 73
     1
 74
     0
 75
     0
 76
     0
 77
     0
 78
     0
281
     0
 65
     1
110
0.0
120
0.0
130
0.0
111
1.0
121
0.0
131
0.0
112
0.0
122
1.0
132
0.0
 79
     0
146
0.0
  0
ENDTAB
  0
TABLE
  2
LTYPE
  5
183EF
330
0
100
AcDbSymbolTable
 70
     7
  0
LTYPE
  5
183FD
330
183EF
100
AcDbSymbolTableRecord
100
AcDbLinetypeTableRecord
  2
ByBlock
 70
     0
  3

 72
    65
 73
     0
 40
0.0
  0
LTYPE
  5
183FE
330
183EF
100
AcDbSymbolTableRecord
100
AcDbLinetypeTableRecord
  2
ByLayer
 70
     0
  3

 72
    65
 73
     0
 40
0.0
  0
LTYPE
  5
183FF
330
183EF
100
AcDbSymbolTableRecord
100
AcDbLinetypeTableRecord
  2
CONTINUOUS
 70
     0
  3
実線
 72
    65
 73
     0
 40
0.0
  0
LTYPE
  5
1840F
330
183EF
100
AcDbSymbolTableRecord
100
AcDbLinetypeTableRecord
  2
TENSEN-
 70
     0
  3

 72
    65
 73
     2
 40
0.6000000000000001
 49
0.2
 74
     0
 49
-0.4
 74
     0
  0
LTYPE
  5
18410
330
183EF
100
AcDbSymbolTableRecord
100
AcDbLinetypeTableRecord
  2
1PL-LL
 70
     0
  3

 72
    65
 73
     4
 40
106.0
 49
100.0
 74
     0
 49
-2.0
 74
     0
 49
2.0
 74
     0
 49
-2.0
 74
     0
  0
LTYPE
  5
18411
330
183EF
100
AcDbSymbolTableRecord
100
AcDbLinetypeTableRecord
  2
1PL-M
 70
     0
  3

 72
    65
 73
     4
 40
15.0
 49
12.0
 74
     0
 49
-1.0
 74
     0
 49
1.0
 74
     0
 49
-1.0
 74
     0
  0
LTYPE
  5
18412
330
183EF
100
AcDbSymbolTableRecord
100
AcDbLinetypeTableRecord
  2
1PL-S
 70
     0
  3

 72
    65
 73
     4
 40
4.0
 49
2.5
 74
     0
 49
-0.5
 74
     0
 49
0.5
 74
     0
 49
-0.5
 74
     0
  0
LTYPE
  5
18413
330
183EF
100
AcDbSymbolTableRecord
100
AcDbLinetypeTableRecord
  2
2PL-L
 70
     0
  3

 72
    65
 73
     6
 40
60.0
 49
50.0
 74
     0
 49
-2.0
 74
     0
 49
2.0
 74
     0
 49
-2.0
 74
     0
 49
2.0
 74
     0
 49
-2.0
 74
     0
  0
LTYPE
  5
18414
330
183EF
100
AcDbSymbolTableRecord
100
AcDbLinetypeTableRecord
  2
1PL-12
 70
     0
  3

 72
    65
 73
     4
 40
15.0
 49
12.0
 74
     0
 49
-1.0
 74
     0
 49
1.0
 74
     0
 49
-1.0
 74
     0
  0
ENDTAB
  0
TABLE
  2
LAYER
  5
183EC
330
0
100
AcDbSymbolTable
 70
    21
  0
LAYER
  5
183FA
330
183EC
100
AcDbSymbolTableRecord
100
AcDbLayerTableRecord
  2
0
 70
     0
 62
     7
  6
CONTINUOUS
370
    -3
390
183F9
  0
LAYER
  5
1840C
330
183EC
100
AcDbSymbolTableRecord
100
AcDbLayerTableRecord
  2
SUNPOU
 70
     0
 62
     4
  6
CONTINUOUS
370
    -3
390
183F9
  0
LAYER
  5
18415
330
183EC
100
AcDbSymbolTableRecord
100
AcDbLayerTableRecord
  2
U1
 70
     0
 62
     3
  6
CONTINUOUS
370
    -3
390
183F9
  0
LAYER
  5
18416
330
183EC
100
AcDbSymbolTableRecord
100
AcDbLayerTableRecord
  2
U3
 70
     0
 62
     6
  6
CONTINUOUS
370
    -3
390
183F9
  0
LAYER
  5
18417
330
183EC
100
AcDbSymbolTableRecord
100
AcDbLayerTableRecord
  2
HIKIDASHI
 70
     0
 62
     6
  6
CONTINUOUS
370
    -3
390
183F9
  0
LAYER
  5
18418
330
183EC
100
AcDbSymbolTableRecord
100
AcDbLayerTableRecord
  2
TENSEN-1
 70
     0
 62
     6
  6
TENSEN-
370
    -3
390
183F9
  0
LAYER
  5
18419
330
183EC
100
AcDbSymbolTableRecord
100
AcDbLayerTableRecord
  2
1PL-S1
 70
     0
 62
     6
  6
1PL-S
370
    -3
390
183F9
  0
LAYER
  5
1841A
330
183EC
100
AcDbSymbolTableRecord
100
AcDbLayerTableRecord
  2
1PL-M1
 70
     0
 62
     6
  6
1PL-M
370
    -3
390
183F9
  0
LAYER
  5
1841B
330
183EC
100
AcDbSymbolTableRecord
100
AcDbLayerTableRecord
  2
NAME
 70
     0
 62
    20
  6
CONTINUOUS
370
    -3
390
183F9
  0
LAYER
  5
1841C
330
183EC
100
AcDbSymbolTableRecord
100
AcDbLayerTableRecord
  2
FILENAME
 70
     0
 62
     7
  6
CONTINUOUS
370
    -3
390
183F9
  0
LAYER
  5
1841D
330
183EC
100
AcDbSymbolTableRecord
100
AcDbLayerTableRecord
  2
CENTER
 70
     0
 62
     6
  6
1PL-LL
370
    -3
390
183F9
  0
LAYER
  5
1841E
330
183EC
100
AcDbSymbolTableRecord
100
AcDbLayerTableRecord
  2
KISO
 70
     0
 62
     2
  6
CONTINUOUS
370
    -3
390
183F9
  0
LAYER
  5
1841F
330
183EC
100
AcDbSymbolTableRecord
100
AcDbLayerTableRecord
  2
BOLT
 70
     0
 62
     4
  6
CONTINUOUS
370
    -3
390
183F9
  0
LAYER
  5
18420
330
183EC
100
AcDbSymbolTableRecord
100
AcDbLayerTableRecord
  2
YANE
 70
     0
 62
     1
  6
1PL-12
370
    -3
390
183F9
  0
LAYER
  5
18421
330
183EC
100
AcDbSymbolTableRecord
100
AcDbLayerTableRecord
  2
HATCH
 70
     0
 62
     1
  6
CONTINUOUS
370
    -3
390
183F9
  0
LAYER
  5
18422
330
183EC
100
AcDbSymbolTableRecord
100
AcDbLayerTableRecord
  2
HASHIRA
 70
     0
 62
     3
  6
CONTINUOUS
370
    -3
390
183F9
  0
LAYER
  5
18423
330
183EC
100
AcDbSymbolTableRecord
100
AcDbLayerTableRecord
  2
DOMAKON
 70
     0
 62
     2
  6
CONTINUOUS
370
    -3
390
183F9
  0
LAYER
  5
18424
330
183EC
100
AcDbSymbolTableRecord
100
AcDbLayerTableRecord
  2
YODOROGO
 70
     0
 62
   130
  6
CONTINUOUS
370
    -3
390
183F9
  0
LAYER
  5
18425
330
183EC
100
AcDbSymbolTableRecord
100
AcDbLayerTableRecord
  2
WAKUSEN-01
 70
     0
 62
    50
  6
CONTINUOUS
370
    -3
390
183F9
  0
LAYER
  5
18426
330
183EC
100
AcDbSymbolTableRecord
100
AcDbLayerTableRecord
  2
WAKUSEN-02
 70
     0
 62
   130
  6
CONTINUOUS
370
    -3
390
183F9
  0
LAYER
  5
18427
330
183EC
100
AcDbSymbolTableRecord
100
AcDbLayerTableRecord
  2
WAKUMOJI-01
 70
     0
 62
   130
  6
CONTINUOUS
370
    -3
390
183F9
  0
ENDTAB
  0
TABLE
  2
STYLE
  5
183ED
330
0
100
AcDbSymbolTable
 70
     5
  0
STYLE
  5
183FB
330
183ED
100
AcDbSymbolTableRecord
100
AcDbTextStyleTableRecord
  2
STANDARD
 70
     0
 40
3.0
 41
1.0
 50
0.0
 71
     0
 42
0.2
  3
ROMANS
  4
EXTFONT
  0
STYLE
  5
1840D
330
183ED
100
AcDbSymbolTableRecord
100
AcDbTextStyleTableRecord
  2
00
 70
     0
 40
0.0
 41
0.6666666666666666
 50
0.0
 71
     0
 42
0.2
  3
ROMANS
  4
BIGFONT
  0
STYLE
  5
18428
330
183ED
100
AcDbSymbolTableRecord
100
AcDbTextStyleTableRecord
  2
01
 70
     0
 40
3.0
 41
1.0
 50
0.0
 71
     0
 42
0.2
  3
ROMANS
  4
BIGFONT
  0
STYLE
  5
18429
330
183ED
100
AcDbSymbolTableRecord
100
AcDbTextStyleTableRecord
  2
WAKUMOJI
 70
     0
 40
3.0
 41
1.0
 50
0.0
 71
     0
 42
3.0
  3
SIMPLEX
  4
BIGFONT
  0
STYLE
  5
1842A
330
183ED
100
AcDbSymbolTableRecord
100
AcDbTextStyleTableRecord
  2
FILENAME
 70
     0
 40
100.0
 41
1.0
 50
0.0
 71
     0
 42
100.0
  3
romans
  4
bigfont
  0
ENDTAB
  0
TABLE
  2
VIEW
  5
183F0
330
0
100
AcDbSymbolTable
 70
     0
  0
ENDTAB
  0
TABLE
  2
UCS
  5
183F1
330
0
100
AcDbSymbolTable
 70
     0
  0
ENDTAB
  0
TABLE
  2
APPID
  5
183F3
330
0
100
AcDbSymbolTable
 70
     3
  0
APPID
  5
183FC
330
183F3
100
AcDbSymbolTableRecord
100
AcDbRegAppTableRecord
  2
ACAD
 70
     0
  0
APPID
  5
1842B
330
183F3
100
AcDbSymbolTableRecord
100
AcDbRegAppTableRecord
  2
AUTOCAD_POSTSCRIPT_FIGURE
 70
     0
  0
APPID
  5
1842C
330
183F3
100
AcDbSymbolTableRecord
100
AcDbRegAppTableRecord
  2
ACAD_PSEXT
 70
     0
  0
ENDTAB
  0
TABLE
  2
DIMSTYLE
  5
183F4
330
0
100
AcDbSymbolTable
 70
     1
100
AcDbDimStyleTable
 71
     0
  0
DIMSTYLE
105
1842D
330
183F4
100
AcDbSymbolTableRecord
100
AcDbDimStyleTableRecord
  2
SUNPOU_図面名
 70
     0
 40
30.0
 41
0.5
 42
1.0
 43
7.0
 44
1.5
 46
3.0
 73
     0
 74
     0
 77
     1
 78
     8
140
3.0
141
0.0
147
1.5
172
     1
173
     1
176
   256
177
   256
178
   256
271
     2
272
     2
279
     2
284
     8
285
     8
286
     8
340
1840D
  0
ENDTAB
  0
TABLE
  2
BLOCK_RECORD
  5
183EB
330
0
100
AcDbSymbolTable
 70
    43
  0
BLOCK_RECORD
  5
18408
330
183EB
100
AcDbSymbolTableRecord
100
AcDbBlockTableRecord
  2
*Model_Space
340
1840B
  0
BLOCK_RECORD
  5
18404
330
183EB
100
AcDbSymbolTableRecord
100
AcDbBlockTableRecord
  2
*Paper_Space
340
18407
  0
BLOCK_RECORD
  5
18432
330
183EB
100
AcDbSymbolTableRecord
100
AcDbBlockTableRecord
  2
$MODEL_SPACE
340
0
  0
BLOCK_RECORD
  5
18435
330
183EB
100
AcDbSymbolTableRecord
100
AcDbBlockTableRecord
  2
$PAPER_SPACE
340
0
  0
BLOCK_RECORD
  5
18438
330
183EB
100
AcDbSymbolTableRecord
100
AcDbBlockTableRecord
  2
DOT
340
0
  0
BLOCK_RECORD
  5
18440
330
183EB
100
AcDbSymbolTableRecord
100
AcDbBlockTableRecord
  2
*U3
340
0
  0
BLOCK_RECORD
  5
18444
330
183EB
100
AcDbSymbolTableRecord
100
AcDbBlockTableRecord
  2
*U4
340
0
  0
BLOCK_RECORD
  5
18448
330
183EB
100
AcDbSymbolTableRecord
100
AcDbBlockTableRecord
  2
*U5
340
0
  0
BLOCK_RECORD
  5
1844C
330
183EB
100
AcDbSymbolTableRecord
100
AcDbBlockTableRecord
  2
*U6
340
0
  0
BLOCK_RECORD
  5
18450
330
183EB
100
AcDbSymbolTableRecord
100
AcDbBlockTableRecord
  2
*U7
340
0
  0
BLOCK_RECORD
  5
18454
330
183EB
100
AcDbSymbolTableRecord
100
AcDbBlockTableRecord
  2
*U8
340
0
  0
BLOCK_RECORD
  5
18458
330
183EB
100
AcDbSymbolTableRecord
100
AcDbBlockTableRecord
  2
*U9
340
0
  0
BLOCK_RECORD
  5
1845C
330
183EB
100
AcDbSymbolTableRecord
100
AcDbBlockTableRecord
  2
*U10
340
0
  0
BLOCK_RECORD
  5
18460
330
183EB
100
AcDbSymbolTableRecord
100
AcDbBlockTableRecord
  2
*U11
340
0
  0
BLOCK_RECORD
  5
18464
330
183EB
100
AcDbSymbolTableRecord
100
AcDbBlockTableRecord
  2
*U12
340
0
  0
BLOCK_RECORD
  5
18468
330
183EB
100
AcDbSymbolTableRecord
100
AcDbBlockTableRecord
  2
*U13
340
0
  0
BLOCK_RECORD
  5
1846C
330
183EB
100
AcDbSymbolTableRecord
100
AcDbBlockTableRecord
  2
*U14
340
0
  0
BLOCK_RECORD
  5
18470
330
183EB
100
AcDbSymbolTableRecord
100
AcDbBlockTableRecord
  2
*U15
340
0
  0
BLOCK_RECORD
  5
18474
330
183EB
100
AcDbSymbolTableRecord
100
AcDbBlockTableRecord
  2
*U16
340
0
  0
BLOCK_RECORD
  5
18478
330
183EB
100
AcDbSymbolTableRecord
100
AcDbBlockTableRecord
  2
*U17
340
0
  0
BLOCK_RECORD
  5
1847C
330
183EB
100
AcDbSymbolTableRecord
100
AcDbBlockTableRecord
  2
*U18
340
0
  0
BLOCK_RECORD
  5
18480
330
183EB
100
AcDbSymbolTableRecord
100
AcDbBlockTableRecord
  2
*U19
340
0
  0
BLOCK_RECORD
  5
18484
330
183EB
100
AcDbSymbolTableRecord
100
AcDbBlockTableRecord
  2
*U20
340
0
  0
BLOCK_RECORD
  5
18488
330
183EB
100
AcDbSymbolTableRecord
100
AcDbBlockTableRecord
  2
*U21
340
0
  0
BLOCK_RECORD
  5
1848C
330
183EB
100
AcDbSymbolTableRecord
100
AcDbBlockTableRecord
  2
*U22
340
0
  0
BLOCK_RECORD
  5
18490
330
183EB
100
AcDbSymbolTableRecord
100
AcDbBlockTableRecord
  2
*U23
340
0
  0
BLOCK_RECORD
  5
18494
330
183EB
100
AcDbSymbolTableRecord
100
AcDbBlockTableRecord
  2
*U24
340
0
  0
BLOCK_RECORD
  5
18498
330
183EB
100
AcDbSymbolTableRecord
100
AcDbBlockTableRecord
  2
*U25
340
0
  0
BLOCK_RECORD
  5
1849C
330
183EB
100
AcDbSymbolTableRecord
100
AcDbBlockTableRecord
  2
*U26
340
0
  0
BLOCK_RECORD
  5
184A0
330
183EB
100
AcDbSymbolTableRecord
100
AcDbBlockTableRecord
  2
*U27
340
0
  0
BLOCK_RECORD
  5
184A4
330
183EB
100
AcDbSymbolTableRecord
100
AcDbBlockTableRecord
  2
*U28
340
0
  0
BLOCK_RECORD
  5
184A8
330
183EB
100
AcDbSymbolTableRecord
100
AcDbBlockTableRecord
  2
*U29
340
0
  0
BLOCK_RECORD
  5
184AC
330
183EB
100
AcDbSymbolTableRecord
100
AcDbBlockTableRecord
  2
*U30
340
0
  0
BLOCK_RECORD
  5
184B0
330
183EB
100
AcDbSymbolTableRecord
100
AcDbBlockTableRecord
  2
*U31
340
0
  0
BLOCK_RECORD
  5
184B4
330
183EB
100
AcDbSymbolTableRecord
100
AcDbBlockTableRecord
  2
*U32
340
0
  0
BLOCK_RECORD
  5
184B8
330
183EB
100
AcDbSymbolTableRecord
100
AcDbBlockTableRecord
  2
*U33
340
0
  0
BLOCK_RECORD
  5
184BC
330
183EB
100
AcDbSymbolTableRecord
100
AcDbBlockTableRecord
  2
*U34
340
0
  0
BLOCK_RECORD
  5
184C0
330
183EB
100
AcDbSymbolTableRecord
100
AcDbBlockTableRecord
  2
*U35
340
0
  0
BLOCK_RECORD
  5
184C4
330
183EB
100
AcDbSymbolTableRecord
100
AcDbBlockTableRecord
  2
*U36
340
0
  0
BLOCK_RECORD
  5
184C8
330
183EB
100
AcDbSymbolTableRecord
100
AcDbBlockTableRecord
  2
*U37
340
0
  0
BLOCK_RECORD
  5
184CC
330
183EB
100
AcDbSymbolTableRecord
100
AcDbBlockTableRecord
  2
*U38
340
0
  0
BLOCK_RECORD
  5
184D0
330
183EB
100
AcDbSymbolTableRecord
100
AcDbBlockTableRecord
  2
*U39
340
0
  0
BLOCK_RECORD
  5
184D4
330
183EB
100
AcDbSymbolTableRecord
100
AcDbBlockTableRecord
  2
*U40
340
0
  0
BLOCK_RECORD
  5
184D8
330
183EB
100
AcDbSymbolTableRecord
100
AcDbBlockTableRecord
  2
*U41
340
0
  0
ENDTAB
  0
ENDSEC
  0
SECTION
  2
BLOCKS
  0
BLOCK
  5
18409
330
18408
100
AcDbEntity
  8
0
100
AcDbBlockBegin
  2
*Model_Space
 70
     0
 10
0.0
 20
0.0
 30
0.0
  3
*Model_Space
  1

  0
ENDBLK
  5
1840A
330
18408
100
AcDbEntity
  8
0
100
AcDbBlockEnd
  0
BLOCK
  5
18405
330
18404
100
AcDbEntity
 67
     1
  8
0
100
AcDbBlockBegin
  2
*Paper_Space
 70
     0
 10
0.0
 20
0.0
 30
0.0
  3
*Paper_Space
  1

  0
ENDBLK
  5
18406
330
18404
100
AcDbEntity
 67
     1
  8
0
100
AcDbBlockEnd
  0
BLOCK
  5
18433
330
18432
100
AcDbEntity
  8
0
100
AcDbBlockBegin
  2
$MODEL_SPACE
 70
     0
 10
0.0
 20
0.0
 30
0.0
  3
$MODEL_SPACE
  1

  0
ENDBLK
  5
18434
330
18432
100
AcDbEntity
  8
0
100
AcDbBlockEnd
  0
BLOCK
  5
18436
330
18435
100
AcDbEntity
  8
0
100
AcDbBlockBegin
  2
$PAPER_SPACE
 70
     0
 10
0.0
 20
0.0
 30
0.0
  3
$PAPER_SPACE
  1

  0
ENDBLK
  5
18437
330
18435
100
AcDbEntity
  8
0
100
AcDbBlockEnd
  0
BLOCK
  5
18439
330
18438
100
AcDbEntity
  8
0
100
AcDbBlockBegin
  2
DOT
 70
     0
 10
0.0
 20
0.0
 30
0.0
  3
DOT
  1

  0
LWPOLYLINE
  5
1843A
330
18438
100
AcDbEntity
  8
0
  6
ByBlock
 62
     0
100
AcDbPolyline
 90
        2
 70
     1
 43
0.75
 10
-0.375
 20
0.0
 42
1.0
 10
0.375
 20
0.0
 42
1.0
  0
LINE
  5
1843E
330
18438
100
AcDbEntity
  8
0
  6
ByBlock
 62
     0
100
AcDbLine
 10
-0.75
 20
0.0
 30
0.0
 11
-1.5
 21
0.0
 31
0.0
  0
ENDBLK
  5
1843F
330
18438
100
AcDbEntity
  8
0
100
AcDbBlockEnd
  0
BLOCK
  5
18441
330
18440
100
AcDbEntity
  8
0
100
AcDbBlockBegin
  2
*U3
 70
     1
 10
0.0
 20
0.0
 30
0.0
  3
*U3
  1

  0
TEXT
  5
18442
330
18440
100
AcDbEntity
  8
SUNPOU
100
AcDbText
 10
8899.12750789964
 20
8622.528896718042
 30
0.0
 40
90.0
  1
800
 50
90.0
 41
0.6666666666666666
  7
00
100
AcDbText
  0
ENDBLK
  5
18443
330
18440
100
AcDbEntity
  8
0
100
AcDbBlockEnd
  0
BLOCK
  5
18445
330
18444
100
AcDbEntity
  8
0
100
AcDbBlockBegin
  2
*U4
 70
     1
 10
0.0
 20
0.0
 30
0.0
  3
*U4
  1

  0
TEXT
  5
18446
330
18444
100
AcDbEntity
  8
SUNPOU
100
AcDbText
 10
9558.413222185356
 20
8053.243182432325
 30
0.0
 40
90.0
  1
800
 41
0.6666666666666666
  7
00
100
AcDbText
  0
ENDBLK
  5
18447
330
18444
100
AcDbEntity
  8
0
100
AcDbBlockEnd
  0
BLOCK
  5
18449
330
18448
100
AcDbEntity
  8
0
100
AcDbBlockBegin
  2
*U5
 70
     1
 10
0.0
 20
0.0
 30
0.0
  3
*U5
  1

  0
TEXT
  5
1844A
330
18448
100
AcDbEntity
  8
SUNPOU
100
AcDbText
 10
8304.841793613924
 20
9663.243182432324
 30
0.0
 40
90.0
  1
3250
 41
0.6666666666666666
  7
00
100
AcDbText
  0
ENDBLK
  5
1844B
330
18448
100
AcDbEntity
  8
0
100
AcDbBlockEnd
  0
BLOCK
  5
1844D
330
1844C
100
AcDbEntity
  8
0
100
AcDbBlockBegin
  2
*U6
 70
     1
 10
0.0
 20
0.0
 30
0.0
  3
*U6
  1

  0
TEXT
  5
1844E
330
1844C
100
AcDbEntity
  8
SUNPOU
100
AcDbText
 10
6908.413222185355
 20
9453.243182432325
 30
0.0
 40
90.0
  1
400
 41
0.6666666666666666
  7
00
100
AcDbText
  0
ENDBLK
  5
1844F
330
1844C
100
AcDbEntity
  8
0
100
AcDbBlockEnd
  0
BLOCK
  5
18451
330
18450
100
AcDbEntity
  8
0
100
AcDbBlockBegin
  2
*U7
 70
     1
 10
0.0
 20
0.0
 30
0.0
  3
*U7
  1

  0
TEXT
  5
18452
330
18450
100
AcDbEntity
  8
SUNPOU
100
AcDbText
 10
8304.841793613924
 20
9453.243182432325
 30
0.0
 40
90.0
  1
2450
 41
0.6666666666666666
  7
00
100
AcDbText
  0
ENDBLK
  5
18453
330
18450
100
AcDbEntity
  8
0
100
AcDbBlockEnd
  0
BLOCK
  5
18455
330
18454
100
AcDbEntity
  8
0
100
AcDbBlockBegin
  2
*U8
 70
     1
 10
0.0
 20
0.0
 30
0.0
  3
*U8
  1

  0
TEXT
  5
18456
330
18454
100
AcDbEntity
  8
SUNPOU
100
AcDbText
 10
9758.413222185355
 20
9453.243182432325
 30
0.0
 40
90.0
  1
400
 41
0.6666666666666666
  7
00
100
AcDbText
  0
ENDBLK
  5
18457
330
18454
100
AcDbEntity
  8
0
100
AcDbBlockEnd
  0
BLOCK
  5
18459
330
18458
100
AcDbEntity
  8
0
100
AcDbBlockBegin
  2
*U9
 70
     1
 10
0.0
 20
0.0
 30
0.0
  3
*U9
  1

  0
TEXT
  5
1845A
330
18458
100
AcDbEntity
  8
SUNPOU
100
AcDbText
 10
10399.12750789964
 20
9159.6717538609
 30
0.0
 40
90.0
  1
200
 50
90.0
 41
0.6666666666666666
  7
00
100
AcDbText
  0
ENDBLK
  5
1845B
330
18458
100
AcDbEntity
  8
0
100
AcDbBlockEnd
  0
BLOCK
  5
1845D
330
1845C
100
AcDbEntity
  8
0
100
AcDbBlockBegin
  2
*U10
 70
     1
 10
0.0
 20
0.0
 30
0.0
  3
*U10
  1

  0
TEXT
  5
1845E
330
1845C
100
AcDbEntity
  8
SUNPOU
100
AcDbText
 10
10399.12750789964
 20
8485.386039575185
 30
0.0
 40
90.0
  1
200
 50
90.0
 41
0.6666666666666666
  7
00
100
AcDbText
  0
ENDBLK
  5
1845F
330
1845C
100
AcDbEntity
  8
0
100
AcDbBlockEnd
  0
BLOCK
  5
18461
330
18460
100
AcDbEntity
  8
0
100
AcDbBlockBegin
  2
*U11
 70
     1
 10
0.0
 20
0.0
 30
0.0
  3
*U11
  1

  0
TEXT
  5
18462
330
18460
100
AcDbEntity
  8
SUNPOU
100
AcDbText
 10
12228.40680314954
 20
3937.765608013134
 30
0.0
 40
90.0
  1
40
 50
90.0
 41
0.6666666666666666
  7
00
100
AcDbText
  0
ENDBLK
  5
18463
330
18460
100
AcDbEntity
  8
0
100
AcDbBlockEnd
  0
BLOCK
  5
18465
330
18464
100
AcDbEntity
  8
0
100
AcDbBlockBegin
  2
*U12
 70
     1
 10
0.0
 20
0.0
 30
0.0
  3
*U12
  1

  0
TEXT
  5
18466
330
18464
100
AcDbEntity
  8
SUNPOU
100
AcDbText
 10
12228.40680314954
 20
3437.622750870277
 30
0.0
 40
90.0
  1
27
 50
90.0
 41
0.6666666666666666
  7
00
100
AcDbText
  0
ENDBLK
  5
18467
330
18464
100
AcDbEntity
  8
0
100
AcDbBlockEnd
  0
BLOCK
  5
18469
330
18468
100
AcDbEntity
  8
0
100
AcDbBlockBegin
  2
*U13
 70
     1
 10
0.0
 20
0.0
 30
0.0
  3
*U13
  1

  0
TEXT
  5
1846A
330
18468
100
AcDbEntity
  8
SUNPOU
100
AcDbText
 10
11927.76694549065
 20
2290.804976716086
 30
0.0
 40
90.0
  1
20
 41
0.6666666666666666
  7
00
100
AcDbText
  0
ENDBLK
  5
1846B
330
18468
100
AcDbEntity
  8
0
100
AcDbBlockEnd
  0
BLOCK
  5
1846D
330
1846C
100
AcDbEntity
  8
0
100
AcDbBlockBegin
  2
*U14
 70
     1
 10
0.0
 20
0.0
 30
0.0
  3
*U14
  1

  0
TEXT
  5
1846E
330
1846C
100
AcDbEntity
  8
SUNPOU
100
AcDbText
 10
11451.33837406209
 20
2290.804976716086
 30
0.0
 40
90.0
  1
120
 41
0.6666666666666666
  7
00
100
AcDbText
  0
ENDBLK
  5
1846F
330
1846C
100
AcDbEntity
  8
0
100
AcDbBlockEnd
  0
BLOCK
  5
18471
330
18470
100
AcDbEntity
  8
0
100
AcDbBlockBegin
  2
*U15
 70
     1
 10
0.0
 20
0.0
 30
0.0
  3
*U15
  1

  0
TEXT
  5
18472
330
18470
100
AcDbEntity
  8
SUNPOU
100
AcDbText
 10
11040.6240883478
 20
2290.804976716086
 30
0.0
 40
90.0
  1
20
 41
0.6666666666666666
  7
00
100
AcDbText
  0
ENDBLK
  5
18473
330
18470
100
AcDbEntity
  8
0
100
AcDbBlockEnd
  0
BLOCK
  5
18475
330
18474
100
AcDbEntity
  8
0
100
AcDbBlockBegin
  2
*U16
 70
     1
 10
0.0
 20
0.0
 30
0.0
  3
*U16
  1

  0
TEXT
  5
18476
330
18474
100
AcDbEntity
  8
SUNPOU
100
AcDbText
 10
11451.33837406208
 20
2080.804976716085
 30
0.0
 40
90.0
  1
160
 41
0.6666666666666666
  7
00
100
AcDbText
  0
ENDBLK
  5
18477
330
18474
100
AcDbEntity
  8
0
100
AcDbBlockEnd
  0
BLOCK
  5
18479
330
18478
100
AcDbEntity
  8
0
100
AcDbBlockBegin
  2
*U17
 70
     1
 10
0.0
 20
0.0
 30
0.0
  3
*U17
  1

  0
TEXT
  5
1847A
330
18478
100
AcDbEntity
  8
SUNPOU
100
AcDbText
 10
10873.33837406209
 20
2374.430058338865
 30
0.0
 40
90.0
  1
40
 50
90.0
 41
0.6666666666666666
  7
00
100
AcDbText
  0
ENDBLK
  5
1847B
330
18478
100
AcDbEntity
  8
0
100
AcDbBlockEnd
  0
BLOCK
  5
1847D
330
1847C
100
AcDbEntity
  8
0
100
AcDbBlockBegin
  2
*U18
 70
     1
 10
0.0
 20
0.0
 30
0.0
  3
*U18
  1

  0
TEXT
  5
1847E
330
1847C
100
AcDbEntity
  8
SUNPOU
100
AcDbText
 10
10873.33837406209
 20
2911.572915481723
 30
0.0
 40
90.0
  1
40
 50
90.0
 41
0.6666666666666666
  7
00
100
AcDbText
  0
ENDBLK
  5
1847F
330
1847C
100
AcDbEntity
  8
0
100
AcDbBlockEnd
  0
BLOCK
  5
18481
330
18480
100
AcDbEntity
  8
0
100
AcDbBlockBegin
  2
*U19
 70
     1
 10
0.0
 20
0.0
 30
0.0
  3
*U19
  1

  0
TEXT
  5
18482
330
18480
100
AcDbEntity
  8
SUNPOU
100
AcDbText
 10
10663.33837406209
 20
2643.001486910295
 30
0.0
 40
90.0
  1
80
 50
90.0
 41
0.6666666666666666
  7
00
100
AcDbText
  0
ENDBLK
  5
18483
330
18480
100
AcDbEntity
  8
0
100
AcDbBlockEnd
  0
BLOCK
  5
18485
330
18484
100
AcDbEntity
  8
0
100
AcDbBlockBegin
  2
*U20
 70
     1
 10
0.0
 20
0.0
 30
0.0
  3
*U20
  1

  0
TEXT
  5
18486
330
18484
100
AcDbEntity
  8
SUNPOU
100
AcDbText
 10
11927.76694549065
 20
3439.170862655058
 30
0.0
 40
90.0
  1
20
 41
0.6666666666666666
  7
00
100
AcDbText
  0
ENDBLK
  5
18487
330
18484
100
AcDbEntity
  8
0
100
AcDbBlockEnd
  0
BLOCK
  5
18489
330
18488
100
AcDbEntity
  8
0
100
AcDbBlockBegin
  2
*U21
 70
     1
 10
0.0
 20
0.0
 30
0.0
  3
*U21
  1

  0
TEXT
  5
1848A
330
18488
100
AcDbEntity
  8
SUNPOU
100
AcDbText
 10
11451.33837406209
 20
3439.170862655058
 30
0.0
 40
90.0
  1
120
 41
0.6666666666666666
  7
00
100
AcDbText
  0
ENDBLK
  5
1848B
330
18488
100
AcDbEntity
  8
0
100
AcDbBlockEnd
  0
BLOCK
  5
1848D
330
1848C
100
AcDbEntity
  8
0
100
AcDbBlockBegin
  2
*U22
 70
     1
 10
0.0
 20
0.0
 30
0.0
  3
*U22
  1

  0
TEXT
  5
1848E
330
1848C
100
AcDbEntity
  8
SUNPOU
100
AcDbText
 10
11040.6240883478
 20
3439.170862655058
 30
0.0
 40
90.0
  1
20
 41
0.6666666666666666
  7
00
100
AcDbText
  0
ENDBLK
  5
1848F
330
1848C
100
AcDbEntity
  8
0
100
AcDbBlockEnd
  0
BLOCK
  5
18491
330
18490
100
AcDbEntity
  8
0
100
AcDbBlockBegin
  2
*U23
 70
     1
 10
0.0
 20
0.0
 30
0.0
  3
*U23
  1

  0
TEXT
  5
18492
330
18490
100
AcDbEntity
  8
SUNPOU
100
AcDbText
 10
11451.33837406208
 20
3229.170862655058
 30
0.0
 40
90.0
  1
160
 41
0.6666666666666666
  7
00
100
AcDbText
  0
ENDBLK
  5
18493
330
18490
100
AcDbEntity
  8
0
100
AcDbBlockEnd
  0
BLOCK
  5
18495
330
18494
100
AcDbEntity
  8
0
100
AcDbBlockBegin
  2
*U24
 70
     1
 10
0.0
 20
0.0
 30
0.0
  3
*U24
  1

  0
TEXT
  5
18496
330
18494
100
AcDbEntity
  8
SUNPOU
100
AcDbText
 10
7400.498936476577
 20
2918.170553705316
 30
0.0
 40
90.0
  1
560
 50
90.0
 41
0.6666666666666666
  7
00
100
AcDbText
  0
ENDBLK
  5
18497
330
18494
100
AcDbEntity
  8
0
100
AcDbBlockEnd
  0
BLOCK
  5
18499
330
18498
100
AcDbEntity
  8
0
100
AcDbBlockBegin
  2
*U25
 70
     1
 10
0.0
 20
0.0
 30
0.0
  3
*U25
  1

  0
TEXT
  5
1849A
330
18498
100
AcDbEntity
  8
SUNPOU
100
AcDbText
 10
7615.76985579035
 20
2328.227696562456
 30
0.0
 40
90.0
  1
100
 50
90.0
 41
0.6666666666666666
  7
00
100
AcDbText
  0
ENDBLK
  5
1849B
330
18498
100
AcDbEntity
  8
0
100
AcDbBlockEnd
  0
BLOCK
  5
1849D
330
1849C
100
AcDbEntity
  8
0
100
AcDbBlockBegin
  2
*U26
 70
     1
 10
0.0
 20
0.0
 30
0.0
  3
*U26
  1

  0
TEXT
  5
1849E
330
1849C
100
AcDbEntity
  8
SUNPOU
100
AcDbText
 10
7615.76985579035
 20
3197.941982276743
 30
0.0
 40
90.0
  1
80
 50
90.0
 41
0.6666666666666666
  7
00
100
AcDbText
  0
ENDBLK
  5
1849F
330
1849C
100
AcDbEntity
  8
0
100
AcDbBlockEnd
  0
BLOCK
  5
184A1
330
184A0
100
AcDbEntity
  8
0
100
AcDbBlockBegin
  2
*U27
 70
     1
 10
0.0
 20
0.0
 30
0.0
  3
*U27
  1

  0
TEXT
  5
184A2
330
184A0
100
AcDbEntity
  8
SUNPOU
100
AcDbText
 10
7615.76985579035
 20
3508.113410848177
 30
0.0
 40
90.0
  1
80
 50
90.0
 41
0.6666666666666666
  7
00
100
AcDbText
  0
ENDBLK
  5
184A3
330
184A0
100
AcDbEntity
  8
0
100
AcDbBlockEnd
  0
BLOCK
  5
184A5
330
184A4
100
AcDbEntity
  8
0
100
AcDbBlockBegin
  2
*U28
 70
     1
 10
0.0
 20
0.0
 30
0.0
  3
*U28
  1

  0
TEXT
  5
184A6
330
184A4
100
AcDbEntity
  8
SUNPOU
100
AcDbText
 10
7615.76985579035
 20
2865.370553705315
 30
0.0
 40
90.0
  1
300
 50
90.0
 41
0.6666666666666666
  7
00
100
AcDbText
  0
ENDBLK
  5
184A7
330
184A4
100
AcDbEntity
  8
0
100
AcDbBlockEnd
  0
BLOCK
  5
184A9
330
184A8
100
AcDbEntity
  8
0
100
AcDbBlockBegin
  2
*U29
 70
     1
 10
0.0
 20
0.0
 30
0.0
  3
*U29
  1

  0
TEXT
  5
184AA
330
184A8
100
AcDbEntity
  8
SUNPOU
100
AcDbText
 10
8494.408966076823
 20
2193.684839419605
 30
0.0
 40
90.0
  1
800
 41
0.6666666666666666
  7
00
100
AcDbText
  0
ENDBLK
  5
184AB
330
184A8
100
AcDbEntity
  8
0
100
AcDbBlockEnd
  0
BLOCK
  5
184AD
330
184AC
100
AcDbEntity
  8
0
100
AcDbBlockBegin
  2
*U30
 70
     1
 10
0.0
 20
0.0
 30
0.0
  3
*U30
  1

  0
TEXT
  5
184AE
330
184AC
100
AcDbEntity
  8
SUNPOU
100
AcDbText
 10
8461.551823219677
 20
1983.684839419604
 30
0.0
 40
90.0
  1
1000
 41
0.6666666666666666
  7
00
100
AcDbText
  0
ENDBLK
  5
184AF
330
184AC
100
AcDbEntity
  8
0
100
AcDbBlockEnd
  0
BLOCK
  5
184B1
330
184B0
100
AcDbEntity
  8
0
100
AcDbBlockBegin
  2
*U31
 70
     1
 10
0.0
 20
0.0
 30
0.0
  3
*U31
  1

  0
TEXT
  5
184B2
330
184B0
100
AcDbEntity
  8
SUNPOU
100
AcDbText
 10
7195.769855790351
 20
3523.113410848177
 30
0.0
 40
90.0
  1
50
 50
90.0
 41
0.6666666666666666
  7
00
100
AcDbText
  0
ENDBLK
  5
184B3
330
184B0
100
AcDbEntity
  8
0
100
AcDbBlockEnd
  0
BLOCK
  5
184B5
330
184B4
100
AcDbEntity
  8
0
100
AcDbBlockBegin
  2
*U32
 70
     1
 10
0.0
 20
0.0
 30
0.0
  3
*U32
  1

  0
TEXT
  5
184B6
330
184B4
100
AcDbEntity
  8
SUNPOU
100
AcDbText
 10
8334.408966076827
 20
4175.485411556194
 30
0.0
 40
90.0
  1
200
 41
0.6666666666666666
  7
00
100
AcDbText
  0
ENDBLK
  5
184B7
330
184B4
100
AcDbEntity
  8
0
100
AcDbBlockEnd
  0
BLOCK
  5
184B9
330
184B8
100
AcDbEntity
  8
0
100
AcDbBlockBegin
  2
*U33
 70
     1
 10
0.0
 20
0.0
 30
0.0
  3
*U33
  1

  0
TEXT
  5
184BA
330
184B8
100
AcDbEntity
  8
SUNPOU
100
AcDbText
 10
4714.082765553178
 20
2193.684839419601
 30
0.0
 40
90.0
  1
800
 41
0.6666666666666666
  7
00
100
AcDbText
  0
ENDBLK
  5
184BB
330
184B8
100
AcDbEntity
  8
0
100
AcDbBlockEnd
  0
BLOCK
  5
184BD
330
184BC
100
AcDbEntity
  8
0
100
AcDbBlockBegin
  2
*U34
 70
     1
 10
0.0
 20
0.0
 30
0.0
  3
*U34
  1

  0
TEXT
  5
184BE
330
184BC
100
AcDbEntity
  8
SUNPOU
100
AcDbText
 10
4681.225622696032
 20
1983.6848394196
 30
0.0
 40
90.0
  1
1000
 41
0.6666666666666666
  7
00
100
AcDbText
  0
ENDBLK
  5
184BF
330
184BC
100
AcDbEntity
  8
0
100
AcDbBlockEnd
  0
BLOCK
  5
184C1
330
184C0
100
AcDbEntity
  8
0
100
AcDbBlockBegin
  2
*U35
 70
     1
 10
0.0
 20
0.0
 30
0.0
  3
*U35
  1

  0
TEXT
  5
184C2
330
184C0
100
AcDbEntity
  8
SUNPOU
100
AcDbText
 10
4394.082765553178
 20
4175.485411556191
 30
0.0
 40
90.0
  1
400
 41
0.6666666666666666
  7
00
100
AcDbText
  0
ENDBLK
  5
184C3
330
184C0
100
AcDbEntity
  8
0
100
AcDbBlockEnd
  0
BLOCK
  5
184C5
330
184C4
100
AcDbEntity
  8
0
100
AcDbBlockBegin
  2
*U36
 70
     1
 10
0.0
 20
0.0
 30
0.0
  3
*U36
  1

  0
TEXT
  5
184C6
330
184C4
100
AcDbEntity
  8
SUNPOU
100
AcDbText
 10
3619.240902195488
 20
2918.170553705319
 30
0.0
 40
90.0
  1
560
 50
90.0
 41
0.6666666666666666
  7
00
100
AcDbText
  0
ENDBLK
  5
184C7
330
184C4
100
AcDbEntity
  8
0
100
AcDbBlockEnd
  0
BLOCK
  5
184C9
330
184C8
100
AcDbEntity
  8
0
100
AcDbBlockBegin
  2
*U37
 70
     1
 10
0.0
 20
0.0
 30
0.0
  3
*U37
  1

  0
TEXT
  5
184CA
330
184C8
100
AcDbEntity
  8
SUNPOU
100
AcDbText
 10
3835.993474569397
 20
2326.927273218552
 30
0.0
 40
90.0
  1
100
 50
90.0
 41
0.6666666666666666
  7
00
100
AcDbText
  0
ENDBLK
  5
184CB
330
184C8
100
AcDbEntity
  8
0
100
AcDbBlockEnd
  0
BLOCK
  5
184CD
330
184CC
100
AcDbEntity
  8
0
100
AcDbBlockBegin
  2
*U38
 70
     1
 10
0.0
 20
0.0
 30
0.0
  3
*U38
  1

  0
TEXT
  5
184CE
330
184CC
100
AcDbEntity
  8
SUNPOU
100
AcDbText
 10
3415.443655266705
 20
3523.113410848177
 30
0.0
 40
90.0
  1
50
 50
90.0
 41
0.6666666666666666
  7
00
100
AcDbText
  0
ENDBLK
  5
184CF
330
184CC
100
AcDbEntity
  8
0
100
AcDbBlockEnd
  0
BLOCK
  5
184D1
330
184D0
100
AcDbEntity
  8
0
100
AcDbBlockBegin
  2
*U39
 70
     1
 10
0.0
 20
0.0
 30
0.0
  3
*U39
  1

  0
TEXT
  5
184D2
330
184D0
100
AcDbEntity
  8
SUNPOU
100
AcDbText
 10
3835.443655266704
 20
3197.941982276741
 30
0.0
 40
90.0
  1
80
 50
90.0
 41
0.6666666666666666
  7
00
100
AcDbText
  0
ENDBLK
  5
184D3
330
184D0
100
AcDbEntity
  8
0
100
AcDbBlockEnd
  0
BLOCK
  5
184D5
330
184D4
100
AcDbEntity
  8
0
100
AcDbBlockBegin
  2
*U40
 70
     1
 10
0.0
 20
0.0
 30
0.0
  3
*U40
  1

  0
TEXT
  5
184D6
330
184D4
100
AcDbEntity
  8
SUNPOU
100
AcDbText
 10
3835.443655266704
 20
3508.113410848177
 30
0.0
 40
90.0
  1
80
 50
90.0
 41
0.6666666666666666
  7
00
100
AcDbText
  0
ENDBLK
  5
184D7
330
184D4
100
AcDbEntity
  8
0
100
AcDbBlockEnd
  0
BLOCK
  5
184D9
330
184D8
100
AcDbEntity
  8
0
100
AcDbBlockBegin
  2
*U41
 70
     1
 10
0.0
 20
0.0
 30
0.0
  3
*U41
  1

  0
TEXT
  5
184DA
330
184D8
100
AcDbEntity
  8
SUNPOU
100
AcDbText
 10
3835.443655266704
 20
2865.370553705314
 30
0.0
 40
90.0
  1
300
 50
90.0
 41
0.6666666666666666
  7
00
100
AcDbText
  0
ENDBLK
  5
184DB
330
184D8
100
AcDbEntity
  8
0
100
AcDbBlockEnd
  0
ENDSEC
  0
SECTION
  2
ENTITIES
  0
TEXT
  5
184DC
330
18408
100
AcDbEntity
  8
HIKIDASHI
100
AcDbText
 10
9007.426279443023
 20
5992.059624263298
 30
0.0
 40
80.0
  1
)
 41
0.6700000000000001
  7
00
100
AcDbText
  0
TEXT
  5
184DD
330
18408
100
AcDbEntity
  8
HIKIDASHI
100
AcDbText
 10
8806.567530753644
 20
6007.621102011493
 30
0.0
 40
80.0
  1
1
 41
0.6700000000000001
  7
00
100
AcDbText
  0
TEXT
  5
184DE
330
18408
100
AcDbEntity
  8
HIKIDASHI
100
AcDbText
 10
8839.704668617951
 20
5992.059624263298
 30
0.0
 40
80.0
  1
/
 41
0.6700000000000001
  7
00
100
AcDbText
  0
TEXT
  5
184DF
330
18408
100
AcDbEntity
  8
HIKIDASHI
100
AcDbText
 10
8885.999823380595
 20
5965.891793063018
 30
0.0
 40
80.0
  1
40
 41
0.6700000000000001
  7
00
100
AcDbText
  0
TEXT
  5
184E0
330
18408
100
AcDbEntity
  8
HIKIDASHI
100
AcDbText
 10
8625.85961481597
 20
5992.059624263298
 30
0.0
 40
80.0
  1
(S=
 41
0.6700000000000001
  7
00
100
AcDbText
  0
TEXT
  5
184E1
330
18408
100
AcDbEntity
  8
HIKIDASHI
100
AcDbText
 10
7783.859614815971
 20
5968.243182432328
 30
0.0
 40
120.0
  1
基 礎 伏 図
  7
01
 72
     2
 11
8535.85961481597
 21
5968.243182432328
 31
0.0
100
AcDbText
  0
TEXT
  5
184E2
330
18408
100
AcDbEntity
  8
NAME
100
AcDbText
 10
12854.79999999999
 20
541.0000000000001
 30
0.0
 40
160.0
  1
<3／3>
 41
0.6
  7
01
 72
     2
 11
13354.0
 21
541.0000000000001
 31
0.0
100
AcDbText
  0
TEXT
  5
184E3
330
18408
100
AcDbEntity
  8
NAME
100
AcDbText
 10
10896.04264730428
 20
541.0
 30
0.0
 40
160.0
  1
YOKC-245
 41
0.7
  7
01
 72
     2
 11
11776.04264730429
 21
541.0
 31
0.0
100
AcDbText
  0
TEXT
  5
184E4
330
18408
100
AcDbEntity
  8
NAME
100
AcDbText
 10
11816.04264730429
 20
541.0
 30
0.0
 40
160.0
  1
型（一般地用）
 41
0.8
  7
01
100
AcDbText
  0
LINE
  5
184E5
330
18408
100
AcDbEntity
  8
CENTER
  6
1PL-M
100
AcDbLine
 10
6649.127507899642
 20
8708.243182432324
 30
0.0
 11
8779.127507899636
 21
8708.243182432328
 31
0.0
  0
LINE
  5
184E6
330
18408
100
AcDbEntity
  8
CENTER
  6
1PL-M
100
AcDbLine
 10
8929.127507899641
 20
8708.243182432328
 30
0.0
 11
10189.12750789964
 21
8708.243182432324
 31
0.0
  0
TEXT
  5
184E7
330
18408
100
AcDbEntity
  8
HIKIDASHI
100
AcDbText
 10
7820.055429329483
 20
6566.56402767579
 30
0.0
 40
90.0
  1
（土間コン前面位置）
  7
01
100
AcDbText
  0
LINE
  5
184E8
330
18408
100
AcDbEntity
  8
SUNPOU
100
AcDbLine
 10
6584.127507899639
 20
7118.243182432327
 30
0.0
 11
6584.127507899639
 21
6908.243182432326
 31
0.0
  0
LINE
  5
184E9
330
18408
100
AcDbEntity
  8
SUNPOU
100
AcDbLine
 10
6584.127507899641
 20
6908.243182432326
 30
0.0
 11
6734.12750789964
 21
6908.243182432326
 31
0.0
  0
TEXT
  5
184EA
330
18408
100
AcDbEntity
  8
SUNPOU
100
AcDbText
 10
6558.284650756782
 20
7253.243182432325
 30
0.0
 40
90.0
  1
A
 41
0.6700000000000001
  7
00
 72
     4
 11
6584.127507899639
 21
7298.243182432326
 31
0.0
100
AcDbText
  0
LINE
  5
184EB
330
18408
100
AcDbEntity
  8
CENTER
  6
1PL-M
100
AcDbLine
 10
7194.127507899643
 20
6308.243182432327
 30
0.0
 11
7194.127507899643
 21
9308.243182432326
 31
0.0
  0
LINE
  5
184EC
330
18408
100
AcDbEntity
  8
SUNPOU
100
AcDbLine
 10
7804.127507899638
 20
7118.243182432327
 30
0.0
 11
7804.127507899638
 21
6908.243182432326
 31
0.0
  0
LINE
  5
184ED
330
18408
100
AcDbEntity
  8
SUNPOU
100
AcDbLine
 10
7804.127507899638
 20
6908.243182432326
 30
0.0
 11
7654.127507899642
 21
6908.243182432326
 31
0.0
  0
TEXT
  5
184EE
330
18408
100
AcDbEntity
  8
SUNPOU
100
AcDbText
 10
7768.234650756781
 20
7244.671753860898
 30
0.0
 40
90.0
  1
A'
 41
0.6700000000000001
  7
00
 72
     4
 11
7804.127507899638
 21
7298.243182432326
 31
0.0
100
AcDbText
  0
TEXT
  5
184EF
330
18408
100
AcDbEntity
  8
HIKIDASHI
100
AcDbText
 10
7904.1640312455
 20
6265.132060441853
 30
0.0
 40
90.0
  1
（鼻隠し外面）
  7
01
100
AcDbText
  0
TEXT
  5
184F0
330
18408
100
AcDbEntity
  8
HIKIDASHI
100
AcDbText
 10
7830.315263925881
 20
9016.792454813669
 30
0.0
 40
90.0
  1
（屋根後面位置）
  7
01
100
AcDbText
  0
TEXT
  5
184F1
330
18408
100
AcDbEntity
  8
HIKIDASHI
100
AcDbText
 10
7746.206662009865
 20
8753.243182432333
 30
0.0
 40
90.0
  1
（土間コン後面位置）
  7
01
100
AcDbText
  0
LINE
  5
184F2
330
18408
100
AcDbEntity
  8
CENTER
  6
1PL-M
100
AcDbLine
 10
9644.127507899641
 20
6308.243182432327
 30
0.0
 11
9644.127507899641
 21
8023.243182432326
 31
0.0
  0
LINE
  5
184F3
330
18408
100
AcDbEntity
  8
CENTER
  6
1PL-M
100
AcDbLine
 10
9644.127507899641
 20
8173.243182432326
 30
0.0
 11
9644.127507899641
 21
9308.243182432326
 31
0.0
  0
LINE
  5
184F4
330
18408
100
AcDbEntity
  8
CENTER
  6
1PL-M
100
AcDbLine
 10
6649.127507899642
 20
6908.243182432326
 30
0.0
 11
10189.12750789964
 21
6908.243182432326
 31
0.0
  0
CIRCLE
  5
184F5
330
18408
100
AcDbEntity
  8
HASHIRA
100
AcDbCircle
 10
9644.127507899641
 20
6848.243182432327
 30
0.0
 40
9.0
  0
CIRCLE
  5
184F6
330
18408
100
AcDbEntity
  8
HASHIRA
100
AcDbCircle
 10
9644.127507899641
 20
6968.243182432328
 30
0.0
 40
9.0
  0
CIRCLE
  5
184F7
330
18408
100
AcDbEntity
  8
HASHIRA
100
AcDbCircle
 10
9644.127507899641
 20
8648.243182432326
 30
0.0
 40
9.0
  0
CIRCLE
  5
184F8
330
18408
100
AcDbEntity
  8
HASHIRA
100
AcDbCircle
 10
9644.127507899641
 20
8768.243182432325
 30
0.0
 40
9.0
  0
CIRCLE
  5
184F9
330
18408
100
AcDbEntity
  8
HASHIRA
100
AcDbCircle
 10
7194.127507899643
 20
8648.243182432326
 30
0.0
 40
9.0
  0
CIRCLE
  5
184FA
330
18408
100
AcDbEntity
  8
HASHIRA
100
AcDbCircle
 10
7194.127507899643
 20
8768.243182432325
 30
0.0
 40
9.0
  0
CIRCLE
  5
184FB
330
18408
100
AcDbEntity
  8
HASHIRA
100
AcDbCircle
 10
7194.127507899643
 20
6968.243182432328
 30
0.0
 40
9.0
  0
CIRCLE
  5
184FC
330
18408
100
AcDbEntity
  8
HASHIRA
100
AcDbCircle
 10
7194.127507899643
 20
6848.243182432327
 30
0.0
 40
9.0
  0
LINE
  5
184FD
330
18408
100
AcDbEntity
  8
SUNPOU
100
AcDbLine
 10
10219.12750789964
 20
6908.243182432326
 30
0.0
 11
10699.12750789964
 21
6908.243182432326
 31
0.0
  0
LINE
  5
184FE
330
18408
100
AcDbEntity
  8
SUNPOU
100
AcDbLine
 10
10219.12750789964
 20
8708.243182432324
 30
0.0
 11
10699.12750789964
 21
8708.243182432324
 31
0.0
  0
TEXT
  5
184FF
330
18408
100
AcDbEntity
  8
SUNPOU
100
AcDbText
 10
10609.12750789964
 20
8822.528896718038
 30
0.0
 40
90.0
  1
400
 50
90.0
 41
0.6666666666666666
  7
00
 72
     1
 11
10564.12750789964
 21
8908.243182432325
 31
0.0
100
AcDbText
 73
     2
  0
TEXT
  5
18500
330
18408
100
AcDbEntity
  8
SUNPOU
100
AcDbText
 10
10609.12750789964
 20
7689.671753860896
 30
0.0
 40
90.0
  1
1800
 50
90.0
 41
0.6666666666666666
  7
00
 72
     4
 11
10564.12750789964
 21
7808.243182432327
 31
0.0
100
AcDbText
  0
TEXT
  5
18501
330
18408
100
AcDbEntity
  8
SUNPOU
100
AcDbText
 10
10609.12750789964
 20
6622.528896718041
 30
0.0
 40
90.0
  1
400
 50
90.0
 41
0.6666666666666666
  7
00
 72
     4
 11
10564.12750789964
 21
6708.243182432326
 31
0.0
100
AcDbText
  0
LINE
  5
18502
330
18408
100
AcDbEntity
  8
SUNPOU
100
AcDbLine
 10
10074.12750789964
 20
6508.243182432327
 30
0.0
 11
10909.12750789964
 21
6508.243182432327
 31
0.0
  0
LINE
  5
18503
330
18408
100
AcDbEntity
  8
SUNPOU
100
AcDbLine
 10
10074.12750789964
 20
9108.243182432325
 30
0.0
 11
10909.12750789964
 21
9108.243182432325
 31
0.0
  0
LINE
  5
18504
330
18408
100
AcDbEntity
  8
SUNPOU
100
AcDbLine
 10
10654.12750789964
 20
9093.243182432329
 30
0.0
 11
10654.12750789964
 21
8723.243182432325
 31
0.0
  0
LINE
  5
18505
330
18408
100
AcDbEntity
  8
SUNPOU
100
AcDbLine
 10
10864.12750789964
 20
9093.243182432329
 30
0.0
 11
10864.12750789964
 21
6523.243182432327
 31
0.0
  0
LINE
  5
18506
330
18408
100
AcDbEntity
  8
SUNPOU
100
AcDbLine
 10
10654.12750789964
 20
8693.243182432324
 30
0.0
 11
10654.12750789964
 21
6923.243182432327
 31
0.0
  0
LINE
  5
18507
330
18408
100
AcDbEntity
  8
SUNPOU
100
AcDbLine
 10
10654.12750789964
 20
6893.243182432327
 30
0.0
 11
10654.12750789964
 21
6523.243182432327
 31
0.0
  0
LINE
  5
18508
330
18408
100
AcDbEntity
  8
SUNPOU
100
AcDbLine
 10
10624.12750789964
 20
6508.243182432327
 30
0.0
 11
10609.12750789964
 21
6508.243182432327
 31
0.0
  0
TEXT
  5
18509
330
18408
100
AcDbEntity
  8
SUNPOU
100
AcDbText
 10
10819.12750789964
 20
7693.957468146611
 30
0.0
 40
90.0
  1
2600
 50
90.0
 41
0.6666666666666666
  7
00
 72
     4
 11
10774.12750789964
 21
7808.243182432327
 31
0.0
100
AcDbText
  0
LINE
  5
1850A
330
18408
100
AcDbEntity
  8
SUNPOU
100
AcDbLine
 10
10624.12750789964
 20
9108.243182432325
 30
0.0
 11
10609.12750789964
 21
9108.243182432325
 31
0.0
  0
TEXT
  5
1850B
330
18408
100
AcDbEntity
  8
NAME
100
AcDbText
 10
12303.32857318295
 20
1055.0
 30
0.0
 40
120.0
  1
Y O K C
 41
0.6666666666666666
  7
00
100
AcDbText
  0
TEXT
  5
1850C
330
18408
100
AcDbEntity
  8
NAME
100
AcDbText
 10
11227.73587134625
 20
1055.0
 30
0.0
 40
120.0
  1
ヨド自転車置場　　　  型
  7
01
100
AcDbText
  0
TEXT
  5
1850D
330
18408
100
AcDbEntity
  8
NAME
100
AcDbText
 10
11228.07508082364
 20
875.0
 30
0.0
 40
120.0
  1
（アンカープレート方式）
  7
01
 72
     4
 11
12072.07508082364
 21
935.0
 31
0.0
100
AcDbText
  0
TEXT
  5
1850E
330
18408
100
AcDbEntity
  8
HIKIDASHI
100
AcDbText
 10
12606.97646118922
 20
3126.647348600799
 30
0.0
 40
89.99999909999997
  1
t
 41
0.6700000000000001
  7
00
100
AcDbText
  0
TEXT
  5
1850F
330
18408
100
AcDbEntity
  8
HIKIDASHI
100
AcDbText
 10
12520.97881071722
 20
3112.661600164834
 30
0.0
 40
90.0
  1
6
 41
0.6666666666666666
  7
00
 72
     2
 11
12569.55023928865
 21
3112.661600164834
 31
0.0
100
AcDbText
  0
TEXT
  5
18510
330
18408
100
AcDbEntity
  8
HIKIDASHI
100
AcDbText
 10
12092.52363003481
 20
3112.661600164834
 30
0.0
 40
90.0
  1
プレ－ト
  7
01
 72
     2
 11
12482.5236300348
 21
3112.661600164834
 31
0.0
100
AcDbText
  0
LINE
  5
18511
330
18408
100
AcDbEntity
  8
HIKIDASHI
100
AcDbLine
 10
12073.23363223807
 20
3067.661600164834
 30
0.0
 11
12657.27442780204
 21
3067.661600164834
 31
0.0
  0
TEXT
  5
18512
330
18408
100
AcDbEntity
  8
SUNPOU
100
AcDbText
 10
11778.05141017947
 20
1674.586261835072
 30
0.0
 40
92.30769230769228
  1
（ S = 　　  ）
 41
0.6700000000000001
  7
00
 11
11778.05141017947
 21
1662.27856952738
 31
0.0
100
AcDbText
 73
     1
  0
TEXT
  5
18513
330
18408
100
AcDbEntity
  8
SUNPOU
100
AcDbText
 10
12097.75411203255
 20
1690.586261835072
 30
0.0
 40
73.84615384615384
  1
1
 41
0.6700000000000001
  7
00
 11
12097.75411203255
 21
1680.740107988918
 31
0.0
100
AcDbText
 73
     1
  0
TEXT
  5
18514
330
18408
100
AcDbEntity
  8
SUNPOU
100
AcDbText
 10
12210.1096823023
 20
1653.663184911995
 30
0.0
 40
73.84615384615384
  1
10
 41
0.6700000000000001
  7
00
 11
12210.1096823023
 21
1643.817031065841
 31
0.0
100
AcDbText
 73
     1
  0
TEXT
  5
18515
330
18408
100
AcDbEntity
  8
SUNPOU
100
AcDbText
 10
12146.16023934792
 20
1672.124723373534
 30
0.0
 40
73.84615384615384
  1
/
 41
0.6700000000000001
  7
00
 11
12146.16023934792
 21
1662.27856952738
 31
0.0
100
AcDbText
 73
     1
  0
TEXT
  5
18516
330
18408
100
AcDbEntity
  8
SUNPOU
100
AcDbText
 10
10750.05141017947
 20
1674.586261835072
 30
0.0
 40
120.0
  1
柱脚金具詳細図
  7
01
 72
     4
 11
11234.05141017947
 21
1734.586261835072
 31
0.0
100
AcDbText
  0
LINE
  5
18517
330
18408
100
AcDbEntity
  8
1PL-S1
100
AcDbLine
 10
11477.33837406209
 20
3886.33703658456
 30
0.0
 11
11605.33837406209
 21
3886.33703658456
 31
0.0
  0
CIRCLE
  5
18518
330
18408
100
AcDbEntity
  8
U1
100
AcDbCircle
 10
11541.33837406209
 20
3726.33703658456
 30
0.0
 40
24.0
  0
LINE
  5
18519
330
18408
100
AcDbEntity
  8
1PL-S1
100
AcDbLine
 10
11781.33837406209
 20
3578.337036584561
 30
0.0
 11
11781.33837406209
 21
3682.337036584561
 31
0.0
  0
LINE
  5
1851A
330
18408
100
AcDbEntity
  8
1PL-S1
100
AcDbLine
 10
11301.33837406211
 20
3578.337036584561
 30
0.0
 11
11301.33837406209
 21
3682.337036584561
 31
0.0
  0
LINE
  5
1851B
330
18408
100
AcDbEntity
  8
1PL-S1
100
AcDbLine
 10
11477.33837406209
 20
3726.33703658456
 30
0.0
 11
11605.33837406209
 21
3726.33703658456
 31
0.0
  0
CIRCLE
  5
1851C
330
18408
100
AcDbEntity
  8
U1
100
AcDbCircle
 10
11781.33837406209
 20
2700.144344053149
 30
0.0
 40
36.0
  0
LINE
  5
1851D
330
18408
100
AcDbEntity
  8
U1
100
AcDbLine
 10
11691.33837406209
 20
2700.144344053149
 30
0.0
 11
11612.31129530375
 21
2700.144344053149
 31
0.0
  0
CIRCLE
  5
1851E
330
18408
100
AcDbEntity
  8
U1
100
AcDbCircle
 10
11301.33837406209
 20
2700.144344053149
 30
0.0
 40
36.0
  0
LINE
  5
1851F
330
18408
100
AcDbEntity
  8
1PL-S1
100
AcDbLine
 10
11541.33837406209
 20
2500.144344053149
 30
0.0
 11
11541.33837406209
 21
2900.144344053149
 31
0.0
  0
LINE
  5
18520
330
18408
100
AcDbEntity
  8
1PL-S1
100
AcDbLine
 10
11781.33837406209
 20
2624.144344053149
 30
0.0
 11
11781.33837406209
 21
2776.144344053149
 31
0.0
  0
LINE
  5
18521
330
18408
100
AcDbEntity
  8
1PL-S1
100
AcDbLine
 10
11301.33837406209
 20
2624.144344053149
 30
0.0
 11
11301.33837406209
 21
2776.144344053149
 31
0.0
  0
CIRCLE
  5
18522
330
18408
100
AcDbEntity
  8
U1
100
AcDbCircle
 10
11541.33837406209
 20
3886.33703658456
 30
0.0
 40
24.0
  0
LINE
  5
18523
330
18408
100
AcDbEntity
  8
1PL-S1
100
AcDbLine
 10
11541.33837406209
 20
3578.337036584561
 30
0.0
 11
11541.33837406209
 21
4066.401575763828
 31
0.0
  0
LINE
  5
18524
330
18408
100
AcDbEntity
  8
U1
100
AcDbLine
 10
11691.33837406209
 20
3642.337036584561
 30
0.0
 11
11691.33837406209
 21
4026.401575763828
 31
0.0
  0
LINE
  5
18525
330
18408
100
AcDbEntity
  8
U1
100
AcDbLine
 10
11391.3383740621
 20
3642.337036584561
 30
0.0
 11
11391.3383740621
 21
4026.401575763828
 31
0.0
  0
LINE
  5
18526
330
18408
100
AcDbEntity
  8
1PL-S1
100
AcDbLine
 10
11225.33837406209
 20
2700.144344053149
 30
0.0
 11
11857.33837406209
 21
2700.144344053149
 31
0.0
  0
TEXT
  5
18544
330
18408
100
AcDbEntity
  8
SUNPOU
100
AcDbText
 10
7533.082114877259
 20
9204.671753860896
 30
0.0
 40
90.0
  1
B'
 41
0.6700000000000001
  7
00
 72
     4
 11
7577.589257734404
 21
9258.243182432325
 31
0.0
100
AcDbText
  0
LINE
  5
18545
330
18408
100
AcDbEntity
  8
SUNPOU
100
AcDbLine
 10
7194.127507899643
 20
9258.243182432325
 30
0.0
 11
7194.127507899643
 21
9108.243182432325
 31
0.0
  0
LINE
  5
18546
330
18408
100
AcDbEntity
  8
SUNPOU
100
AcDbLine
 10
7404.127507899642
 20
9258.24318243233
 30
0.0
 11
7194.127507899643
 21
9258.24318243233
 31
0.0
  0
TEXT
  5
18547
330
18408
100
AcDbEntity
  8
SUNPOU
100
AcDbText
 10
7546.00354344869
 20
8113.243182432325
 30
0.0
 40
90.0
  1
B
 41
0.6700000000000001
  7
00
 72
     4
 11
7577.589257734404
 21
8158.243182432327
 31
0.0
100
AcDbText
  0
LINE
  5
18548
330
18408
100
AcDbEntity
  8
SUNPOU
100
AcDbLine
 10
7194.127507899643
 20
8158.243182432327
 30
0.0
 11
7194.127507899643
 21
8308.243182432326
 31
0.0
  0
LINE
  5
18549
330
18408
100
AcDbEntity
  8
SUNPOU
100
AcDbLine
 10
7404.127507899642
 20
8158.243182432324
 30
0.0
 11
7194.127507899643
 21
8158.243182432324
 31
0.0
  0
LINE
  5
1854A
330
18408
100
AcDbEntity
  8
HATCH
100
AcDbLine
 10
9234.719713683949
 20
2597.272860752942
 30
0.0
 11
9261.386380350613
 21
2551.084839419611
 31
0.0
  0
LINE
  5
1854B
330
18408
100
AcDbEntity
  8
HATCH
100
AcDbLine
 10
9247.09575635061
 20
2711.084839419611
 30
0.0
 11
9273.762423017281
 21
2664.896816752948
 31
0.0
  0
LINE
  5
1854C
330
18408
100
AcDbEntity
  8
HATCH
100
AcDbLine
 10
9208.05304701728
 20
2551.084839419611
 30
0.0
 11
9300.42908968395
 21
2711.084839419611
 31
0.0
  0
LINE
  5
1854D
330
18408
100
AcDbEntity
  8
HATCH
100
AcDbLine
 10
5454.393513160304
 20
2597.272860752933
 30
0.0
 11
5481.060179826972
 21
2551.084839419601
 31
0.0
  0
LINE
  5
1854E
330
18408
100
AcDbEntity
  8
HATCH
100
AcDbLine
 10
5466.769555826971
 20
2711.084839419601
 30
0.0
 11
5493.436222493635
 21
2664.896816752937
 31
0.0
  0
LINE
  5
1854F
330
18408
100
AcDbEntity
  8
HATCH
100
AcDbLine
 10
5427.726846493639
 20
2551.084839419601
 30
0.0
 11
5520.102889160304
 21
2711.084839419601
 31
0.0
  0
LINE
  5
18550
330
18408
100
AcDbEntity
  8
KISO
100
AcDbLine
 10
4159.797051267463
 20
3456.684839419605
 30
0.0
 11
4159.797051267463
 21
2711.084839419601
 31
0.0
  0
TEXT
  5
18551
330
18408
100
AcDbEntity
  8
SUNPOU
100
AcDbText
 10
9672.933675365676
 20
2713.884705856383
 30
0.0
 40
90.0
  1
ベース筋
  7
01
 72
     4
 11
9876.933675365677
 21
2758.884705856383
 31
0.0
100
AcDbText
  0
TEXT
  5
18552
330
18408
100
AcDbEntity
  8
SUNPOU
100
AcDbText
 10
9537.817961079962
 20
2578.884705856383
 30
0.0
 40
90.0
  1
5-D13×5-D13
 41
0.6700000000000001
  7
01
 72
     4
 11
9881.240818222821
 21
2623.884705856383
 31
0.0
100
AcDbText
  0
TEXT
  5
18553
330
18408
100
AcDbEntity
  8
SUNPOU
100
AcDbText
 10
5892.60747484203
 20
2713.884705856377
 30
0.0
 40
90.0
  1
ベース筋
  7
01
 72
     4
 11
6096.60747484203
 21
2758.884705856377
 31
0.0
100
AcDbText
  0
TEXT
  5
18554
330
18408
100
AcDbEntity
  8
SUNPOU
100
AcDbText
 10
5757.491760556316
 20
2578.884705856377
 30
0.0
 40
90.0
  1
5-D13×5-D13
 41
0.6700000000000001
  7
01
 72
     4
 11
6100.914617699173
 21
2623.884705856377
 31
0.0
100
AcDbText
  0
TEXT
  5
18555
330
18408
100
AcDbEntity
  8
HIKIDASHI
100
AcDbText
 10
8656.326854669883
 20
1664.635820576939
 30
0.0
 40
90.0
  1
断 面
  7
01
100
AcDbText
  0
LINE
  5
18556
330
18408
100
AcDbEntity
  8
HIKIDASHI
100
AcDbLine
 10
8232.309575173323
 20
1619.635820576939
 30
0.0
 11
8927.93692840889
 21
1619.635820576939
 31
0.0
  0
LINE
  5
18557
330
18408
100
AcDbEntity
  8
HIKIDASHI
100
AcDbLine
 10
8232.309575173323
 20
1589.635820576939
 30
0.0
 11
8927.93692840889
 21
1589.635820576939
 31
0.0
  0
TEXT
  5
18558
330
18408
100
AcDbEntity
  8
HIKIDASHI
100
AcDbText
 10
8262.30957517332
 20
1664.635820576939
 30
0.0
 40
90.0
  1
B  ~  B'
 41
0.6700000000000001
  7
00
100
AcDbText
  0
LINE
  5
18559
330
18408
100
AcDbEntity
  8
HIKIDASHI
100
AcDbLine
 10
6748.019393493152
 20
1938.684839419604
 30
0.0
 11
7568.025406890003
 21
1938.684839419604
 31
0.0
  0
TEXT
  5
1855A
330
18408
100
AcDbEntity
  8
HIKIDASHI
100
AcDbText
 10
6777.099002354859
 20
1983.684839419604
 30
0.0
 40
90.0
  1
アンカーボルト
  7
01
100
AcDbText
  0
TEXT
  5
1855B
330
18408
100
AcDbEntity
  8
HIKIDASHI
100
AcDbText
 10
7092.562165940511
 20
1803.475853219515
 30
0.0
 40
89.55223880597014
  1
300
 41
0.6700000000000001
  7
00
100
AcDbText
  0
TEXT
  5
1855C
330
18408
100
AcDbEntity
  8
HIKIDASHI
100
AcDbText
 10
6777.099002354859
 20
1803.684839419606
 30
0.0
 40
89.55223880597014
  1
W ／
 41
0.6700000000000001
  7
00
100
AcDbText
  0
TEXT
  5
1855D
330
18408
100
AcDbEntity
  8
HIKIDASHI
100
AcDbText
 10
6851.699813038081
 20
1830.1144490585
 30
0.0
 40
67.16417910447761
  1
1
 41
0.6700000000000001
  7
00
100
AcDbText
  0
TEXT
  5
1855E
330
18408
100
AcDbEntity
  8
HIKIDASHI
100
AcDbText
 10
6939.591849597005
 20
1803.088394027939
 30
0.0
 40
67.16417910447761
  1
2
 41
0.6700000000000001
  7
00
100
AcDbText
  0
TEXT
  5
1855F
330
18408
100
AcDbEntity
  8
HIKIDASHI
100
AcDbText
 10
7011.426786787378
 20
1814.878869270352
 30
0.0
 40
89.55223880597014
  1
x
 41
0.6700000000000001
  7
00
100
AcDbText
  0
LINE
  5
18560
330
18408
100
AcDbEntity
  8
SUNPOU
100
AcDbLine
 10
9599.120539080891
 20
3546.684839419604
 30
0.0
 11
9495.197490626756
 21
3546.684839419604
 31
0.0
  0
LINE
  5
18561
330
18408
100
AcDbEntity
  8
SUNPOU
100
AcDbLine
 10
9495.197490626756
 20
3546.684839419604
 30
0.0
 11
9547.159014853825
 21
3456.684839419605
 31
0.0
  0
LINE
  5
18562
330
18408
100
AcDbEntity
  8
SUNPOU
100
AcDbLine
 10
9547.159014853825
 20
3456.684839419605
 30
0.0
 11
9599.120539080891
 21
3546.684839419604
 31
0.0
  0
TEXT
  5
18563
330
18408
100
AcDbEntity
  8
SUNPOU
100
AcDbText
 10
9478.587586282396
 20
3591.684839419605
 30
0.0
 40
90.0
  1
F.L
 41
0.6666666666666666
  7
00
 72
     4
 11
9547.159014853825
 21
3636.684839419604
 31
0.0
100
AcDbText
  0
TEXT
  5
18564
330
18408
100
AcDbEntity
  8
HIKIDASHI
100
AcDbText
 10
9390.92125274889
 20
3965.485411556194
 30
0.0
 40
90.0
  1
土　間
  7
01
 72
     2
 11
9684.921252748893
 21
4010.485411556194
 31
0.0
100
AcDbText
 73
     2
  0
LINE
  5
18565
330
18408
100
AcDbEntity
  8
HIKIDASHI
100
AcDbLine
 10
9726.620021984601
 20
3920.485411556196
 30
0.0
 11
9357.853645156977
 21
3920.485411556196
 31
0.0
  0
LINE
  5
18566
330
18408
100
AcDbEntity
  8
U3
100
AcDbLine
 10
7690.146296056967
 20
3265.757122562824
 30
0.0
 11
7801.074012913748
 21
3376.684839419601
 31
0.0
  0
LINE
  5
18567
330
18408
100
AcDbEntity
  8
U3
100
AcDbLine
 10
7705.179855178061
 20
3280.790681683919
 30
0.0
 11
7777.285697442379
 21
3208.684839419603
 31
0.0
  0
LINE
  5
18568
330
18408
100
AcDbEntity
  8
U3
100
AcDbLine
 10
7756.091543423494
 20
3331.702369929347
 30
0.0
 11
7879.109073933242
 21
3208.684839419603
 31
0.0
  0
LINE
  5
18569
330
18408
100
AcDbEntity
  8
U3
100
AcDbLine
 10
7812.932450424101
 20
3376.684839419603
 30
0.0
 11
7940.12325179111
 21
3249.494038052592
 31
0.0
  0
LINE
  5
1856A
330
18408
100
AcDbEntity
  8
U3
100
AcDbLine
 10
7879.109073933235
 20
3310.508215910469
 30
0.0
 11
7940.12325179111
 21
3371.522393768344
 31
0.0
  0
LINE
  5
1856B
330
18408
100
AcDbEntity
  8
U3
100
AcDbLine
 10
8260.12325179111
 20
3376.684839419604
 30
0.0
 11
7690.146296056967
 21
3376.684839419603
 31
0.0
  0
LINE
  5
1856C
330
18408
100
AcDbEntity
  8
U3
100
AcDbLine
 10
7251.376170301178
 20
3259.596527665038
 30
0.0
 11
7368.464482055746
 21
3376.684839419603
 31
0.0
  0
LINE
  5
1856D
330
18408
100
AcDbEntity
  8
U3
100
AcDbLine
 10
7200.464482055746
 20
3310.508215910469
 30
0.0
 11
7266.641105564882
 21
3376.684839419603
 31
0.0
  0
LINE
  5
1856E
330
18408
100
AcDbEntity
  8
U3
100
AcDbLine
 10
7302.287858546612
 20
3208.684839419607
 30
0.0
 11
7370.146296056971
 21
3276.543276929964
 31
0.0
  0
LINE
  5
1856F
330
18408
100
AcDbEntity
  8
U3
100
AcDbLine
 10
7032.464482055747
 20
3274.86146292874
 30
0.0
 11
7098.641105564884
 21
3208.684839419603
 31
0.0
  0
LINE
  5
18570
330
18408
100
AcDbEntity
  8
U3
100
AcDbLine
 10
6966.287858546611
 20
3208.684839419606
 30
0.0
 11
7134.287858546611
 21
3376.684839419603
 31
0.0
  0
LINE
  5
18571
330
18408
100
AcDbEntity
  8
U3
100
AcDbLine
 10
6915.376170301178
 20
3259.596527665037
 30
0.0
 11
7032.464482055747
 21
3376.684839419601
 31
0.0
  0
LINE
  5
18572
330
18408
100
AcDbEntity
  8
U3
100
AcDbLine
 10
6798.287858546611
 20
3376.684839419601
 30
0.0
 11
6966.287858546611
 21
3208.684839419606
 31
0.0
  0
LINE
  5
18573
330
18408
100
AcDbEntity
  8
U3
100
AcDbLine
 10
6864.464482055746
 20
3310.508215910466
 30
0.0
 11
6930.64110556488
 21
3376.684839419601
 31
0.0
  0
LINE
  5
18574
330
18408
100
AcDbEntity
  8
U3
100
AcDbLine
 10
7370.146296056971
 20
3376.684839419604
 30
0.0
 11
6798.287858546611
 21
3376.684839419604
 31
0.0
  0
LINE
  5
18575
330
18408
100
AcDbEntity
  8
U3
100
AcDbLine
 10
7083.376170301177
 20
3325.773151174173
 30
0.0
 11
7200.464482055746
 21
3208.684839419603
 31
0.0
  0
LINE
  5
18576
330
18408
100
AcDbEntity
  8
U3
100
AcDbLine
 10
7134.287858546611
 20
3376.684839419603
 30
0.0
 11
7302.287858546612
 21
3208.684839419607
 31
0.0
  0
LINE
  5
18577
330
18408
100
AcDbEntity
  8
SUNPOU
100
AcDbLine
 10
6922.173430941829
 20
3376.684839419608
 30
0.0
 11
6974.134955168897
 21
3466.684839419608
 31
0.0
  0
LINE
  5
18578
330
18408
100
AcDbEntity
  8
SUNPOU
100
AcDbLine
 10
6870.211906714764
 20
3466.684839419608
 30
0.0
 11
6922.173430941829
 21
3376.684839419608
 31
0.0
  0
LINE
  5
18579
330
18408
100
AcDbEntity
  8
SUNPOU
100
AcDbLine
 10
6974.134955168897
 20
3466.684839419608
 30
0.0
 11
6870.211906714764
 21
3466.684839419608
 31
0.0
  0
TEXT
  5
1857A
330
18408
100
AcDbEntity
  8
SUNPOU
100
AcDbText
 10
6850.387716656114
 20
3511.684839419609
 30
0.0
 40
90.0
  1
G.L
 41
0.6700000000000001
  7
01
 72
     4
 11
6922.173430941829
 21
3556.684839419608
 31
0.0
100
AcDbText
  0
TEXT
  5
1857B
330
18408
100
AcDbEntity
  8
SUNPOU
100
AcDbText
 10
9361.665236645858
 20
4175.485411556197
 30
0.0
 40
90.0
  1
1800
 41
0.6666666666666666
  7
00
 72
     4
 11
9480.236665217288
 21
4220.485411556196
 31
0.0
100
AcDbText
  0
LINE
  5
1857C
330
18408
100
AcDbEntity
  8
SUNPOU
100
AcDbLine
 10
8580.123251791111
 20
4130.485411556196
 30
0.0
 11
10005.35375904135
 21
4130.485411556196
 31
0.0
  0
LINE
  5
1857D
330
18408
100
AcDbEntity
  8
HATCH
100
AcDbLine
 10
7834.719713683951
 20
2597.272860752938
 30
0.0
 11
7861.386380350618
 21
2551.084839419607
 31
0.0
  0
LINE
  5
1857E
330
18408
100
AcDbEntity
  8
HATCH
100
AcDbLine
 10
7808.053047017286
 20
2551.084839419607
 30
0.0
 11
7900.429089683949
 21
2711.084839419607
 31
0.0
  0
LINE
  5
1857F
330
18408
100
AcDbEntity
  8
HATCH
100
AcDbLine
 10
7847.095756350616
 20
2711.084839419607
 30
0.0
 11
7873.762423017281
 21
2664.896816752943
 31
0.0
  0
LINE
  5
18580
330
18408
100
AcDbEntity
  8
HATCH
100
AcDbLine
 10
9034.719713683948
 20
2597.272860752938
 30
0.0
 11
9061.386380350617
 21
2551.084839419607
 31
0.0
  0
LINE
  5
18581
330
18408
100
AcDbEntity
  8
HATCH
100
AcDbLine
 10
9047.095756350616
 20
2711.084839419607
 30
0.0
 11
9073.762423017281
 21
2664.896816752943
 31
0.0
  0
LINE
  5
18582
330
18408
100
AcDbEntity
  8
HATCH
100
AcDbLine
 10
9008.053047017282
 20
2551.084839419607
 30
0.0
 11
9100.429089683949
 21
2711.084839419607
 31
0.0
  0
LINE
  5
18583
330
18408
100
AcDbEntity
  8
HATCH
100
AcDbLine
 10
8834.71971368395
 20
2597.272860752938
 30
0.0
 11
8861.386380350618
 21
2551.084839419607
 31
0.0
  0
LINE
  5
18584
330
18408
100
AcDbEntity
  8
HATCH
100
AcDbLine
 10
8808.053047017287
 20
2551.084839419607
 30
0.0
 11
8900.429089683949
 21
2711.084839419607
 31
0.0
  0
LINE
  5
18585
330
18408
100
AcDbEntity
  8
HATCH
100
AcDbLine
 10
8847.095756350617
 20
2711.084839419607
 30
0.0
 11
8873.76242301728
 21
2664.896816752943
 31
0.0
  0
LINE
  5
18586
330
18408
100
AcDbEntity
  8
HATCH
100
AcDbLine
 10
8408.053047017286
 20
2551.084839419607
 30
0.0
 11
8500.429089683951
 21
2711.084839419607
 31
0.0
  0
LINE
  5
18587
330
18408
100
AcDbEntity
  8
HATCH
100
AcDbLine
 10
8008.053047017282
 20
2551.084839419607
 30
0.0
 11
8100.429089683949
 21
2711.084839419607
 31
0.0
  0
LINE
  5
18588
330
18408
100
AcDbEntity
  8
HATCH
100
AcDbLine
 10
8047.095756350616
 20
2711.084839419607
 30
0.0
 11
8073.762423017283
 21
2664.896816752943
 31
0.0
  0
LINE
  5
18589
330
18408
100
AcDbEntity
  8
HATCH
100
AcDbLine
 10
8034.719713683951
 20
2597.272860752938
 30
0.0
 11
8061.386380350617
 21
2551.084839419607
 31
0.0
  0
LINE
  5
1858A
330
18408
100
AcDbEntity
  8
HATCH
100
AcDbLine
 10
8247.095756350615
 20
2711.084839419607
 30
0.0
 11
8273.762423017283
 21
2664.896816752943
 31
0.0
  0
LINE
  5
1858B
330
18408
100
AcDbEntity
  8
HATCH
100
AcDbLine
 10
8208.053047017285
 20
2551.084839419607
 30
0.0
 11
8300.42908968395
 21
2711.084839419607
 31
0.0
  0
LINE
  5
1858C
330
18408
100
AcDbEntity
  8
HATCH
100
AcDbLine
 10
8234.719713683949
 20
2597.272860752938
 30
0.0
 11
8261.386380350618
 21
2551.084839419607
 31
0.0
  0
LINE
  5
1858D
330
18408
100
AcDbEntity
  8
HATCH
100
AcDbLine
 10
8447.095756350616
 20
2711.084839419607
 30
0.0
 11
8473.762423017282
 21
2664.896816752943
 31
0.0
  0
LINE
  5
1858E
330
18408
100
AcDbEntity
  8
HATCH
100
AcDbLine
 10
8434.71971368395
 20
2597.272860752938
 30
0.0
 11
8461.386380350617
 21
2551.084839419607
 31
0.0
  0
LINE
  5
1858F
330
18408
100
AcDbEntity
  8
HATCH
100
AcDbLine
 10
8634.719713683949
 20
2597.272860752938
 30
0.0
 11
8661.386380350618
 21
2551.084839419607
 31
0.0
  0
LINE
  5
18590
330
18408
100
AcDbEntity
  8
HATCH
100
AcDbLine
 10
8647.095756350616
 20
2711.084839419607
 30
0.0
 11
8673.762423017281
 21
2664.896816752943
 31
0.0
  0
LINE
  5
18591
330
18408
100
AcDbEntity
  8
HATCH
100
AcDbLine
 10
8608.053047017286
 20
2551.084839419607
 30
0.0
 11
8700.429089683948
 21
2711.084839419607
 31
0.0
  0
LINE
  5
18592
330
18408
100
AcDbEntity
  8
1PL-M1
100
AcDbLine
 10
8580.123251791111
 20
2428.17212587879
 30
0.0
 11
8580.123251791111
 21
4175.485411556194
 31
0.0
  0
LINE
  5
18593
330
18408
100
AcDbEntity
  8
U3
100
AcDbLine
 10
8164.932450424096
 20
3376.684839419604
 30
0.0
 11
8212.9324504241
 21
3328.684839419603
 31
0.0
  0
LINE
  5
18594
330
18408
100
AcDbEntity
  8
U3
100
AcDbLine
 10
8116.932450424092
 20
3328.684839419603
 30
0.0
 11
8164.9324504241
 21
3376.684839419605
 31
0.0
  0
LINE
  5
18595
330
18408
100
AcDbEntity
  8
U3
100
AcDbLine
 10
8015.109073933235
 20
3328.684839419603
 30
0.0
 11
8063.109073933231
 21
3376.684839419604
 31
0.0
  0
LINE
  5
18596
330
18408
100
AcDbEntity
  8
HATCH
100
AcDbLine
 10
8027.488100399645
 20
3319.084839419603
 30
0.0
 11
7940.12325179111
 21
3231.719990811074
 31
0.0
  0
LINE
  5
18597
330
18408
100
AcDbEntity
  8
HATCH
100
AcDbLine
 10
8473.723251791112
 20
3190.767263723866
 30
0.0
 11
7994.040827486853
 21
2711.084839419607
 31
0.0
  0
LINE
  5
18598
330
18408
100
AcDbEntity
  8
HATCH
100
AcDbLine
 10
8473.723251791112
 20
3238.284839419597
 30
0.0
 11
7946.523251791126
 21
2711.084839419607
 31
0.0
  0
LINE
  5
18599
330
18408
100
AcDbEntity
  8
HATCH
100
AcDbLine
 10
8473.723251791112
 20
3285.802415115337
 30
0.0
 11
7940.12325179111
 21
2752.202415115336
 31
0.0
  0
LINE
  5
1859A
330
18408
100
AcDbEntity
  8
HATCH
100
AcDbLine
 10
8665.723251791105
 20
2903.249688028129
 30
0.0
 11
8473.55840318259
 21
2711.084839419607
 31
0.0
  0
LINE
  5
1859B
330
18408
100
AcDbEntity
  8
HATCH
100
AcDbLine
 10
8665.723251791105
 20
2950.767263723859
 30
0.0
 11
8426.040827486863
 21
2711.084839419607
 31
0.0
  0
LINE
  5
1859C
330
18408
100
AcDbEntity
  8
HATCH
100
AcDbLine
 10
8665.723251791105
 20
2998.284839419597
 30
0.0
 11
8378.523251791122
 21
2711.084839419607
 31
0.0
  0
LINE
  5
1859D
330
18408
100
AcDbEntity
  8
HATCH
100
AcDbLine
 10
8075.005676095383
 20
3319.084839419601
 30
0.0
 11
7940.12325179111
 21
3184.202415115334
 31
0.0
  0
LINE
  5
1859E
330
18408
100
AcDbEntity
  8
HATCH
100
AcDbLine
 10
8122.523251791113
 20
3319.084839419603
 30
0.0
 11
7940.12325179111
 21
3136.684839419602
 31
0.0
  0
LINE
  5
1859F
330
18408
100
AcDbEntity
  8
KISO
100
AcDbLine
 10
7940.12325179111
 20
3319.084839419605
 30
0.0
 11
7940.12325179111
 21
2711.084839419607
 31
0.0
  0
LINE
  5
185A0
330
18408
100
AcDbEntity
  8
HATCH
100
AcDbLine
 10
8554.523251791115
 20
3319.084839419601
 30
0.0
 11
8494.523251791115
 21
3259.084839419598
 31
0.0
  0
LINE
  5
185A1
330
18408
100
AcDbEntity
  8
HATCH
100
AcDbLine
 10
8569.723251791113
 20
3286.767263723867
 30
0.0
 11
8494.523251791115
 21
3211.567263723865
 31
0.0
  0
LINE
  5
185A2
330
18408
100
AcDbEntity
  8
HATCH
100
AcDbLine
 10
8507.005676095374
 20
3319.084839419601
 30
0.0
 11
8494.523251791115
 21
3306.602415115337
 31
0.0
  0
LINE
  5
185A3
330
18408
100
AcDbEntity
  8
KISO
100
AcDbLine
 10
9220.123251791108
 20
3319.084839419605
 30
0.0
 11
9220.123251791108
 21
2711.084839419607
 31
0.0
  0
LINE
  5
185A4
330
18408
100
AcDbEntity
  8
HATCH
100
AcDbLine
 10
8986.52325179111
 20
3319.084839419601
 30
0.0
 11
8686.523251791106
 21
3019.084839419599
 31
0.0
  0
LINE
  5
185A5
330
18408
100
AcDbEntity
  8
HATCH
100
AcDbLine
 10
9081.558403182574
 20
3319.084839419601
 30
0.0
 11
8686.523251791106
 21
2924.049688028131
 31
0.0
  0
LINE
  5
185A6
330
18408
100
AcDbEntity
  8
HATCH
100
AcDbLine
 10
9034.040827486846
 20
3319.084839419601
 30
0.0
 11
8686.523251791106
 21
2971.567263723861
 31
0.0
  0
LINE
  5
185A7
330
18408
100
AcDbEntity
  8
HATCH
100
AcDbLine
 10
9220.123251791108
 20
2978.132112332395
 30
0.0
 11
8953.075978878326
 21
2711.084839419607
 31
0.0
  0
LINE
  5
185A8
330
18408
100
AcDbEntity
  8
HATCH
100
AcDbLine
 10
9220.123251791108
 20
3025.64968802813
 30
0.0
 11
8905.558403182586
 21
2711.084839419607
 31
0.0
  0
LINE
  5
185A9
330
18408
100
AcDbEntity
  8
HATCH
100
AcDbLine
 10
9220.123251791108
 20
3073.167263723867
 30
0.0
 11
8858.040827486858
 21
2711.084839419607
 31
0.0
  0
LINE
  5
185AA
330
18408
100
AcDbEntity
  8
HATCH
100
AcDbLine
 10
9220.123251791108
 20
3285.23600207479
 30
0.0
 11
9239.665887143591
 21
3319.084839419076
 31
0.0
  0
LINE
  5
185AB
330
18408
100
AcDbEntity
  8
HATCH
100
AcDbLine
 10
9771.481711982536
 20
3456.684839419605
 30
0.0
 11
9633.881711982537
 21
3319.084839419601
 31
0.0
  0
LINE
  5
185AC
330
18408
100
AcDbEntity
  8
HATCH
100
AcDbLine
 10
9818.999287678275
 20
3456.684839419605
 30
0.0
 11
9681.399287678276
 21
3319.084839419601
 31
0.0
  0
LINE
  5
185AD
330
18408
100
AcDbEntity
  8
HATCH
100
AcDbLine
 10
9866.516863374007
 20
3456.684839419605
 30
0.0
 11
9728.916863374005
 21
3319.084839419601
 31
0.0
  0
LINE
  5
185AE
330
18408
100
AcDbEntity
  8
HATCH
100
AcDbLine
 10
9386.516863374007
 20
3456.684839419605
 30
0.0
 11
9248.916863374001
 21
3319.084839419601
 31
0.0
  0
LINE
  5
185AF
330
18408
100
AcDbEntity
  8
HATCH
100
AcDbLine
 10
9338.999287678275
 20
3456.684839419605
 30
0.0
 11
9201.399287678276
 21
3319.084839419601
 31
0.0
  0
LINE
  5
185B0
330
18408
100
AcDbEntity
  8
HATCH
100
AcDbLine
 10
9291.481711982534
 20
3456.684839419605
 30
0.0
 11
9153.881711982537
 21
3319.084839419601
 31
0.0
  0
LINE
  5
185B1
330
18408
100
AcDbEntity
  8
HATCH
100
AcDbLine
 10
8906.516863374006
 20
3456.684839419605
 30
0.0
 11
8768.916863374002
 21
3319.084839419601
 31
0.0
  0
LINE
  5
185B2
330
18408
100
AcDbEntity
  8
1PL-S1
100
AcDbLine
 10
8676.123251791107
 20
3309.484839419607
 30
0.0
 11
8676.123251791107
 21
3338.284839419606
 31
0.0
  0
LINE
  5
185B3
330
18408
100
AcDbEntity
  8
HATCH
100
AcDbLine
 10
8858.999287678274
 20
3456.684839419605
 30
0.0
 11
8721.399287678272
 21
3319.084839419601
 31
0.0
  0
LINE
  5
185B4
330
18408
100
AcDbEntity
  8
HATCH
100
AcDbLine
 10
8811.481711982535
 20
3456.684839419605
 30
0.0
 11
8683.481711982539
 21
3328.684839419607
 31
0.0
  0
LINE
  5
185B5
330
18408
100
AcDbEntity
  8
1PL-S1
100
AcDbLine
 10
8484.12325179111
 20
3309.484839419607
 30
0.0
 11
8484.12325179111
 21
3338.284839419608
 31
0.0
  0
LINE
  5
185B6
330
18408
100
AcDbEntity
  8
HATCH
100
AcDbLine
 10
8378.999287678274
 20
3456.684839419605
 30
0.0
 11
8260.12325179111
 21
3337.808803532439
 31
0.0
  0
LINE
  5
185B7
330
18408
100
AcDbEntity
  8
HATCH
100
AcDbLine
 10
8426.516863374008
 20
3456.684839419605
 30
0.0
 11
8288.916863374003
 21
3319.084839419601
 31
0.0
  0
LINE
  5
185B8
330
18408
100
AcDbEntity
  8
HATCH
100
AcDbLine
 10
8331.481711982535
 20
3456.684839419605
 30
0.0
 11
8260.12325179111
 21
3385.326379228178
 31
0.0
  0
LINE
  5
185B9
330
18408
100
AcDbEntity
  8
HASHIRA
100
AcDbLine
 10
8528.123251791111
 20
3583.485411556191
 30
0.0
 11
8528.123251791111
 21
3328.684839419607
 31
0.0
  0
LINE
  5
185BA
330
18408
100
AcDbEntity
  8
HASHIRA
100
AcDbLine
 10
8632.123251791107
 20
3328.684839419607
 30
0.0
 11
8632.123251791101
 21
3583.485411556191
 31
0.0
  0
LINE
  5
185BB
330
18408
100
AcDbEntity
  8
KISO
100
AcDbLine
 10
7940.12325179111
 20
3319.084839419601
 30
0.0
 11
7940.12325179111
 21
3191.084839419601
 31
0.0
  0
LINE
  5
185BC
330
18408
100
AcDbEntity
  8
KISO
100
AcDbLine
 10
8260.12325179111
 20
3456.684839419607
 30
0.0
 11
8260.12325179111
 21
3319.084839419601
 31
0.0
  0
LINE
  5
185BD
330
18408
100
AcDbEntity
  8
KISO
100
AcDbLine
 10
8528.123251791111
 20
3456.684839419605
 30
0.0
 11
8260.12325179111
 21
3456.684839419605
 31
0.0
  0
LINE
  5
185BE
330
18408
100
AcDbEntity
  8
KISO
100
AcDbLine
 10
9220.123251791108
 20
3191.0848394196
 30
0.0
 11
9862.519974530416
 21
3191.084839419601
 31
0.0
  0
LINE
  5
185BF
330
18408
100
AcDbEntity
  8
KISO
100
AcDbLine
 10
9862.519974530416
 20
3319.084839419601
 30
0.0
 11
7940.12325179111
 21
3319.084839419601
 31
0.0
  0
LINE
  5
185C0
330
18408
100
AcDbEntity
  8
KISO
100
AcDbLine
 10
9862.519974530416
 20
3456.684839419605
 30
0.0
 11
8632.123251791107
 21
3456.684839419605
 31
0.0
  0
CIRCLE
  5
185C1
330
18408
100
AcDbEntity
  8
BOLT
100
AcDbCircle
 10
8580.123251791111
 20
3360.684839419607
 30
0.0
 40
13.2
  0
CIRCLE
  5
185C2
330
18408
100
AcDbEntity
  8
BOLT
100
AcDbCircle
 10
8580.123251791111
 20
3360.684839419607
 30
0.0
 40
16.8
  0
CIRCLE
  5
185C3
330
18408
100
AcDbEntity
  8
BOLT
100
AcDbCircle
 10
8580.123251791111
 20
3424.684839419607
 30
0.0
 40
16.8
  0
CIRCLE
  5
185C4
330
18408
100
AcDbEntity
  8
BOLT
100
AcDbCircle
 10
8580.123251791111
 20
3424.684839419607
 30
0.0
 40
13.2
  0
TEXT
  5
185C5
330
18408
100
AcDbEntity
  8
HIKIDASHI
100
AcDbText
 10
5358.925780378814
 20
3965.485411556191
 30
0.0
 40
90.0
  1
土間：コンクリ－ト天端コテ押え
  7
01
 72
     2
 11
6948.925780378814
 21
4010.48541155619
 31
0.0
100
AcDbText
 73
     2
  0
LINE
  5
185C6
330
18408
100
AcDbEntity
  8
HIKIDASHI
100
AcDbLine
 10
6961.513680660954
 20
3920.485411556192
 30
0.0
 11
5333.860047839355
 21
3920.485411556192
 31
0.0
  0
LINE
  5
185C7
330
18408
100
AcDbEntity
  8
HIKIDASHI
100
AcDbLine
 10
6185.104473630285
 20
2268.304238552882
 30
0.0
 11
5816.338096802661
 21
2268.304238552882
 31
0.0
  0
TEXT
  5
185C8
330
18408
100
AcDbEntity
  8
HIKIDASHI
100
AcDbText
 10
5843.40570439457
 20
2313.304238552882
 30
0.0
 40
90.0
  1
砕　石
  7
01
 72
     2
 11
6143.40570439457
 21
2358.304238552882
 31
0.0
100
AcDbText
 73
     2
  0
LINE
  5
185C9
330
18408
100
AcDbEntity
  8
HIKIDASHI
100
AcDbLine
 10
6475.935832338305
 20
2904.11470702088
 30
0.0
 11
5674.871662611158
 21
2904.11470702088
 31
0.0
  0
TEXT
  5
185CA
330
18408
100
AcDbEntity
  8
HIKIDASHI
100
AcDbText
 10
5718.705531692625
 20
2949.11470702088
 30
0.0
 40
90.0
  1
敷砂利又は砕石
  7
01
 72
     2
 11
6450.705531692626
 21
2994.11470702088
 31
0.0
100
AcDbText
 73
     2
  0
TEXT
  5
185CB
330
18408
100
AcDbEntity
  8
HIKIDASHI
100
AcDbText
 10
4481.983374649677
 20
1664.635820576935
 30
0.0
 40
90.0
  1
A  ~  A'
 41
0.6700000000000001
  7
00
100
AcDbText
  0
LINE
  5
185CC
330
18408
100
AcDbEntity
  8
HIKIDASHI
100
AcDbLine
 10
4451.983374649677
 20
1589.635820576935
 30
0.0
 11
5147.610727885247
 21
1589.635820576935
 31
0.0
  0
LINE
  5
185CD
330
18408
100
AcDbEntity
  8
HIKIDASHI
100
AcDbLine
 10
4451.983374649677
 20
1619.635820576936
 30
0.0
 11
5147.610727885247
 21
1619.635820576936
 31
0.0
  0
TEXT
  5
185CE
330
18408
100
AcDbEntity
  8
HIKIDASHI
100
AcDbText
 10
4876.000654146238
 20
1664.635820576935
 30
0.0
 40
90.0
  1
断 面
  7
01
100
AcDbText
  0
LINE
  5
185CF
330
18408
100
AcDbEntity
  8
HATCH
100
AcDbLine
 10
4054.393513160305
 20
2597.272860752933
 30
0.0
 11
4081.060179826971
 21
2551.084839419601
 31
0.0
  0
LINE
  5
185D0
330
18408
100
AcDbEntity
  8
HATCH
100
AcDbLine
 10
4027.726846493638
 20
2551.084839419601
 30
0.0
 11
4120.102889160301
 21
2711.084839419601
 31
0.0
  0
LINE
  5
185D1
330
18408
100
AcDbEntity
  8
HATCH
100
AcDbLine
 10
4066.76955582697
 20
2711.084839419601
 30
0.0
 11
4093.436222493635
 21
2664.896816752937
 31
0.0
  0
LINE
  5
185D2
330
18408
100
AcDbEntity
  8
HATCH
100
AcDbLine
 10
5254.393513160305
 20
2597.272860752933
 30
0.0
 11
5281.060179826972
 21
2551.084839419601
 31
0.0
  0
LINE
  5
185D3
330
18408
100
AcDbEntity
  8
HATCH
100
AcDbLine
 10
5266.769555826971
 20
2711.084839419601
 30
0.0
 11
5293.436222493635
 21
2664.896816752937
 31
0.0
  0
LINE
  5
185D4
330
18408
100
AcDbEntity
  8
HATCH
100
AcDbLine
 10
5227.726846493639
 20
2551.084839419601
 30
0.0
 11
5320.102889160303
 21
2711.084839419601
 31
0.0
  0
LINE
  5
185D5
330
18408
100
AcDbEntity
  8
HATCH
100
AcDbLine
 10
5054.393513160305
 20
2597.272860752933
 30
0.0
 11
5081.06017982697
 21
2551.084839419601
 31
0.0
  0
LINE
  5
185D6
330
18408
100
AcDbEntity
  8
HATCH
100
AcDbLine
 10
5027.726846493639
 20
2551.084839419601
 30
0.0
 11
5120.102889160303
 21
2711.084839419601
 31
0.0
  0
LINE
  5
185D7
330
18408
100
AcDbEntity
  8
HATCH
100
AcDbLine
 10
5066.76955582697
 20
2711.084839419601
 30
0.0
 11
5093.436222493636
 21
2664.896816752937
 31
0.0
  0
LINE
  5
185D8
330
18408
100
AcDbEntity
  8
HATCH
100
AcDbLine
 10
4627.726846493636
 20
2551.084839419601
 30
0.0
 11
4720.102889160303
 21
2711.084839419601
 31
0.0
  0
LINE
  5
185D9
330
18408
100
AcDbEntity
  8
HATCH
100
AcDbLine
 10
4227.726846493637
 20
2551.084839419601
 30
0.0
 11
4320.102889160303
 21
2711.084839419601
 31
0.0
  0
LINE
  5
185DA
330
18408
100
AcDbEntity
  8
HATCH
100
AcDbLine
 10
4266.76955582697
 20
2711.084839419601
 30
0.0
 11
4293.436222493635
 21
2664.896816752937
 31
0.0
  0
LINE
  5
185DB
330
18408
100
AcDbEntity
  8
HATCH
100
AcDbLine
 10
4254.393513160304
 20
2597.272860752933
 30
0.0
 11
4281.060179826972
 21
2551.084839419601
 31
0.0
  0
LINE
  5
185DC
330
18408
100
AcDbEntity
  8
HATCH
100
AcDbLine
 10
4466.76955582697
 20
2711.084839419601
 30
0.0
 11
4493.436222493635
 21
2664.896816752937
 31
0.0
  0
LINE
  5
185DD
330
18408
100
AcDbEntity
  8
HATCH
100
AcDbLine
 10
4427.726846493636
 20
2551.084839419601
 30
0.0
 11
4520.102889160303
 21
2711.084839419601
 31
0.0
  0
LINE
  5
185DE
330
18408
100
AcDbEntity
  8
HATCH
100
AcDbLine
 10
4454.393513160304
 20
2597.272860752933
 30
0.0
 11
4481.06017982697
 21
2551.084839419601
 31
0.0
  0
LINE
  5
185DF
330
18408
100
AcDbEntity
  8
HATCH
100
AcDbLine
 10
4666.769555826969
 20
2711.084839419601
 30
0.0
 11
4693.436222493637
 21
2664.896816752937
 31
0.0
  0
LINE
  5
185E0
330
18408
100
AcDbEntity
  8
HATCH
100
AcDbLine
 10
4654.393513160305
 20
2597.272860752933
 30
0.0
 11
4681.06017982697
 21
2551.084839419601
 31
0.0
  0
LINE
  5
185E1
330
18408
100
AcDbEntity
  8
HATCH
100
AcDbLine
 10
4854.393513160305
 20
2597.272860752933
 30
0.0
 11
4881.06017982697
 21
2551.084839419601
 31
0.0
  0
LINE
  5
185E2
330
18408
100
AcDbEntity
  8
HATCH
100
AcDbLine
 10
4866.769555826969
 20
2711.084839419601
 30
0.0
 11
4893.436222493637
 21
2664.896816752937
 31
0.0
  0
LINE
  5
185E3
330
18408
100
AcDbEntity
  8
HATCH
100
AcDbLine
 10
4827.726846493639
 20
2551.084839419601
 30
0.0
 11
4920.102889160304
 21
2711.084839419601
 31
0.0
  0
TEXT
  5
185E4
330
18408
100
AcDbEntity
  8
SUNPOU
100
AcDbText
 10
5585.624750407928
 20
4175.485411556191
 30
0.0
 40
90.0
  1
2800
 41
0.6666666666666666
  7
00
 72
     4
 11
5699.910464693643
 21
4220.485411556191
 31
0.0
100
AcDbText
  0
LINE
  5
185E5
330
18408
100
AcDbEntity
  8
SUNPOU
100
AcDbLine
 10
4799.797051267463
 20
4130.485411556192
 30
0.0
 11
6225.027558517715
 21
4130.485411556192
 31
0.0
  0
LINE
  5
185E6
330
18408
100
AcDbEntity
  8
HATCH
100
AcDbLine
 10
4551.155511458886
 20
3456.684839419605
 30
0.0
 11
4413.55551145889
 21
3319.084839419601
 31
0.0
  0
LINE
  5
185E7
330
18408
100
AcDbEntity
  8
HATCH
100
AcDbLine
 10
4598.673087154621
 20
3456.684839419603
 30
0.0
 11
4461.07308715463
 21
3319.084839419601
 31
0.0
  0
LINE
  5
185E8
330
18408
100
AcDbEntity
  8
HATCH
100
AcDbLine
 10
4646.190662850361
 20
3456.684839419603
 30
0.0
 11
4508.590662850362
 21
3319.084839419601
 31
0.0
  0
LINE
  5
185E9
330
18408
100
AcDbEntity
  8
HATCH
100
AcDbLine
 10
4792.91462696322
 20
2858.284839419607
 30
0.0
 11
4645.714626963214
 21
2711.084839419601
 31
0.0
  0
LINE
  5
185EA
330
18408
100
AcDbEntity
  8
U3
100
AcDbLine
 10
3924.853654654415
 20
3280.790681683919
 30
0.0
 11
3996.959496918732
 21
3208.684839419603
 31
0.0
  0
LINE
  5
185EB
330
18408
100
AcDbEntity
  8
HATCH
100
AcDbLine
 10
5439.797051267464
 20
3285.236002075317
 30
0.0
 11
5459.339686619942
 21
3319.084839419601
 31
0.0
  0
LINE
  5
185EC
330
18408
100
AcDbEntity
  8
HATCH
100
AcDbLine
 10
4745.397051267479
 20
2858.284839419607
 30
0.0
 11
4598.197051267473
 21
2711.084839419601
 31
0.0
  0
LINE
  5
185ED
330
18408
100
AcDbEntity
  8
HATCH
100
AcDbLine
 10
4789.397051267463
 20
2902.284839419595
 30
0.0
 11
4766.19705126748
 21
2879.084839419608
 31
0.0
  0
LINE
  5
185EE
330
18408
100
AcDbEntity
  8
HATCH
100
AcDbLine
 10
4294.679475571739
 20
3319.084839419601
 30
0.0
 11
4159.797051267463
 21
3184.202415115327
 31
0.0
  0
LINE
  5
185EF
330
18408
100
AcDbEntity
  8
HATCH
100
AcDbLine
 10
4247.161899876001
 20
3319.084839419603
 30
0.0
 11
4159.797051267463
 21
3231.719990811068
 31
0.0
  0
LINE
  5
185F0
330
18408
100
AcDbEntity
  8
HATCH
100
AcDbLine
 10
4342.197051267471
 20
3319.084839419601
 30
0.0
 11
4159.797051267463
 21
3136.684839419597
 31
0.0
  0
LINE
  5
185F1
330
18408
100
AcDbEntity
  8
HATCH
100
AcDbLine
 10
4789.397051267463
 20
3286.767263723862
 30
0.0
 11
4213.714626963207
 21
2711.084839419601
 31
0.0
  0
LINE
  5
185F2
330
18408
100
AcDbEntity
  8
HATCH
100
AcDbLine
 10
4726.679475571732
 20
3319.084839419601
 30
0.0
 11
4159.797051267463
 21
2752.202415115331
 31
0.0
  0
LINE
  5
185F3
330
18408
100
AcDbEntity
  8
HATCH
100
AcDbLine
 10
4774.197051267476
 20
3319.084839419601
 30
0.0
 11
4166.197051267473
 21
2711.084839419601
 31
0.0
  0
LINE
  5
185F4
330
18408
100
AcDbEntity
  8
HATCH
100
AcDbLine
 10
5439.797051267464
 20
2978.132112332392
 30
0.0
 11
5172.749778354678
 21
2711.084839419601
 31
0.0
  0
LINE
  5
185F5
330
18408
100
AcDbEntity
  8
HATCH
100
AcDbLine
 10
5439.797051267464
 20
3025.649688028125
 30
0.0
 11
5125.232202658947
 21
2711.084839419601
 31
0.0
  0
LINE
  5
185F6
330
18408
100
AcDbEntity
  8
HATCH
100
AcDbLine
 10
5206.197051267466
 20
3319.084839419601
 30
0.0
 11
4810.197051267465
 21
2923.084839419596
 31
0.0
  0
LINE
  5
185F7
330
18408
100
AcDbEntity
  8
HATCH
100
AcDbLine
 10
5253.714626963207
 20
3319.084839419601
 30
0.0
 11
4810.197051267465
 21
2875.567263723857
 31
0.0
  0
LINE
  5
185F8
330
18408
100
AcDbEntity
  8
HATCH
100
AcDbLine
 10
5301.232202658938
 20
3319.084839419601
 30
0.0
 11
4693.232202658947
 21
2711.084839419601
 31
0.0
  0
LINE
  5
185F9
330
18408
100
AcDbEntity
  8
HATCH
100
AcDbLine
 10
5439.797051267464
 20
3073.167263723862
 30
0.0
 11
5077.714626963206
 21
2711.084839419601
 31
0.0
  0
LINE
  5
185FA
330
18408
100
AcDbEntity
  8
KISO
100
AcDbLine
 10
5439.797051267464
 20
3319.084839419601
 30
0.0
 11
5439.797051267464
 21
2711.084839419601
 31
0.0
  0
LINE
  5
185FB
330
18408
100
AcDbEntity
  8
HATCH
100
AcDbLine
 10
5991.155511458885
 20
3456.684839419605
 30
0.0
 11
5853.555511458888
 21
3319.084839419603
 31
0.0
  0
LINE
  5
185FC
330
18408
100
AcDbEntity
  8
HATCH
100
AcDbLine
 10
5606.190662850362
 20
3456.684839419603
 30
0.0
 11
5468.590662850361
 21
3319.084839419601
 31
0.0
  0
LINE
  5
185FD
330
18408
100
AcDbEntity
  8
HATCH
100
AcDbLine
 10
5078.673087154623
 20
3456.684839419603
 30
0.0
 11
4941.073087154631
 21
3319.084839419601
 31
0.0
  0
LINE
  5
185FE
330
18408
100
AcDbEntity
  8
HATCH
100
AcDbLine
 10
5126.190662850362
 20
3456.684839419603
 30
0.0
 11
4988.590662850362
 21
3319.084839419601
 31
0.0
  0
LINE
  5
185FF
330
18408
100
AcDbEntity
  8
HATCH
100
AcDbLine
 10
5558.673087154621
 20
3456.684839419603
 30
0.0
 11
5421.07308715463
 21
3319.084839419601
 31
0.0
  0
LINE
  5
18600
330
18408
100
AcDbEntity
  8
HATCH
100
AcDbLine
 10
5511.155511458887
 20
3456.684839419605
 30
0.0
 11
5373.555511458888
 21
3319.084839419601
 31
0.0
  0
LINE
  5
18601
330
18408
100
AcDbEntity
  8
HATCH
100
AcDbLine
 10
6086.190662850363
 20
3456.684839419603
 30
0.0
 11
5948.590662850365
 21
3319.084839419603
 31
0.0
  0
LINE
  5
18602
330
18408
100
AcDbEntity
  8
HATCH
100
AcDbLine
 10
6038.673087154623
 20
3456.684839419603
 30
0.0
 11
5901.073087154633
 21
3319.084839419603
 31
0.0
  0
LINE
  5
18603
330
18408
100
AcDbEntity
  8
KISO
100
AcDbLine
 10
5439.797051267471
 20
3191.0848394196
 30
0.0
 11
6082.193774006775
 21
3191.084839419601
 31
0.0
  0
LINE
  5
18604
330
18408
100
AcDbEntity
  8
HATCH
100
AcDbLine
 10
4821.714626963203
 20
3319.084839419601
 30
0.0
 11
4810.197051267465
 21
3307.567263723864
 31
0.0
  0
LINE
  5
18605
330
18408
100
AcDbEntity
  8
KISO
100
AcDbLine
 10
4747.797051267458
 20
3456.684839419605
 30
0.0
 11
4159.797051267463
 21
3456.684839419605
 31
0.0
  0
LINE
  5
18606
330
18408
100
AcDbEntity
  8
U3
100
AcDbLine
 10
3975.765342899848
 20
3331.702369929347
 30
0.0
 11
4098.782873409595
 21
3208.684839419603
 31
0.0
  0
LINE
  5
18607
330
18408
100
AcDbEntity
  8
U3
100
AcDbLine
 10
4032.606249900456
 20
3376.684839419603
 30
0.0
 11
4159.797051267463
 21
3249.494038052592
 31
0.0
  0
LINE
  5
18608
330
18408
100
AcDbEntity
  8
U3
100
AcDbLine
 10
4098.782873409589
 20
3310.508215910469
 30
0.0
 11
4159.797051267463
 21
3371.522393768344
 31
0.0
  0
LINE
  5
18609
330
18408
100
AcDbEntity
  8
HASHIRA
100
AcDbLine
 10
4747.797051267458
 20
3718.91804462035
 30
0.0
 11
4747.797051267458
 21
3328.684839419607
 31
0.0
  0
LINE
  5
1860A
330
18408
100
AcDbEntity
  8
HASHIRA
100
AcDbLine
 10
4851.797051267459
 20
3328.684839419607
 30
0.0
 11
4851.797051267459
 21
3718.91804462035
 31
0.0
  0
LINE
  5
1860B
330
18408
100
AcDbEntity
  8
HATCH
100
AcDbLine
 10
5031.155511458886
 20
3456.684839419605
 30
0.0
 11
4893.555511458892
 21
3319.084839419601
 31
0.0
  0
LINE
  5
1860C
330
18408
100
AcDbEntity
  8
KISO
100
AcDbLine
 10
6082.193774006775
 20
3319.084839419603
 30
0.0
 11
4159.797051267463
 21
3319.084839419601
 31
0.0
  0
LINE
  5
1860D
330
18408
100
AcDbEntity
  8
KISO
100
AcDbLine
 10
6082.193774006775
 20
3456.684839419605
 30
0.0
 11
4851.797051267459
 21
3456.684839419605
 31
0.0
  0
LINE
  5
1860E
330
18408
100
AcDbEntity
  8
1PL-M1
100
AcDbLine
 10
4799.797051267463
 20
2428.172125878786
 30
0.0
 11
4799.797051267463
 21
4175.485411556191
 31
0.0
  0
LINE
  5
1860F
330
18408
100
AcDbEntity
  8
SUNPOU
100
AcDbLine
 10
3141.847230418183
 20
3376.684839419604
 30
0.0
 11
3193.80875464525
 21
3466.684839419605
 31
0.0
  0
LINE
  5
18610
330
18408
100
AcDbEntity
  8
SUNPOU
100
AcDbLine
 10
3089.885706191117
 20
3466.684839419605
 30
0.0
 11
3141.847230418183
 21
3376.684839419604
 31
0.0
  0
LINE
  5
18611
330
18408
100
AcDbEntity
  8
SUNPOU
100
AcDbLine
 10
3193.80875464525
 20
3466.684839419605
 30
0.0
 11
3089.885706191117
 21
3466.684839419605
 31
0.0
  0
TEXT
  5
18612
330
18408
100
AcDbEntity
  8
SUNPOU
100
AcDbText
 10
3070.061516132469
 20
3511.684839419604
 30
0.0
 40
90.0
  1
G.L
 41
0.6700000000000001
  7
01
 72
     4
 11
3141.847230418183
 21
3556.684839419605
 31
0.0
100
AcDbText
  0
LINE
  5
18613
330
18408
100
AcDbEntity
  8
U3
100
AcDbLine
 10
3909.820095533321
 20
3265.757122562824
 30
0.0
 11
4020.747812390101
 21
3376.684839419601
 31
0.0
  0
LINE
  5
18614
330
18408
100
AcDbEntity
  8
U3
100
AcDbLine
 10
4159.797051267463
 20
3376.684839419604
 30
0.0
 11
3909.820095533321
 21
3376.684839419603
 31
0.0
  0
LINE
  5
18615
330
18408
100
AcDbEntity
  8
U3
100
AcDbLine
 10
3471.049969777533
 20
3259.596527665038
 30
0.0
 11
3588.138281532103
 21
3376.684839419603
 31
0.0
  0
LINE
  5
18616
330
18408
100
AcDbEntity
  8
U3
100
AcDbLine
 10
3420.1382815321
 20
3310.508215910469
 30
0.0
 11
3486.314905041234
 21
3376.684839419603
 31
0.0
  0
LINE
  5
18617
330
18408
100
AcDbEntity
  8
U3
100
AcDbLine
 10
3521.961658022965
 20
3208.684839419607
 30
0.0
 11
3589.820095533321
 21
3276.543276929964
 31
0.0
  0
LINE
  5
18618
330
18408
100
AcDbEntity
  8
U3
100
AcDbLine
 10
3252.1382815321
 20
3274.86146292874
 30
0.0
 11
3318.314905041237
 21
3208.684839419603
 31
0.0
  0
LINE
  5
18619
330
18408
100
AcDbEntity
  8
U3
100
AcDbLine
 10
3185.961658022964
 20
3208.684839419606
 30
0.0
 11
3353.961658022964
 21
3376.684839419603
 31
0.0
  0
LINE
  5
1861A
330
18408
100
AcDbEntity
  8
U3
100
AcDbLine
 10
3135.049969777532
 20
3259.596527665037
 30
0.0
 11
3252.1382815321
 21
3376.684839419601
 31
0.0
  0
LINE
  5
1861B
330
18408
100
AcDbEntity
  8
U3
100
AcDbLine
 10
3017.961658022965
 20
3376.684839419601
 30
0.0
 11
3185.961658022964
 21
3208.684839419606
 31
0.0
  0
LINE
  5
1861C
330
18408
100
AcDbEntity
  8
U3
100
AcDbLine
 10
3084.1382815321
 20
3310.508215910466
 30
0.0
 11
3150.314905041233
 21
3376.684839419601
 31
0.0
  0
LINE
  5
1861D
330
18408
100
AcDbEntity
  8
U3
100
AcDbLine
 10
3589.820095533321
 20
3376.684839419604
 30
0.0
 11
3017.961658022965
 21
3376.684839419604
 31
0.0
  0
LINE
  5
1861E
330
18408
100
AcDbEntity
  8
U3
100
AcDbLine
 10
3303.049969777532
 20
3325.773151174173
 30
0.0
 11
3420.1382815321
 21
3208.684839419603
 31
0.0
  0
LINE
  5
1861F
330
18408
100
AcDbEntity
  8
U3
100
AcDbLine
 10
3353.961658022964
 20
3376.684839419603
 30
0.0
 11
3521.961658022965
 21
3208.684839419607
 31
0.0
  0
TEXT
  5
18620
330
18408
100
AcDbEntity
  8
HIKIDASHI
100
AcDbText
 10
12286.64239875644
 20
2290.804976716086
 30
0.0
 40
90.0
  1
2
 41
0.6666666666666666
  7
00
100
AcDbText
  0
TEXT
  5
18621
330
18408
100
AcDbEntity
  8
HIKIDASHI
100
AcDbText
 10
12365.21382732787
 20
2305.804976716085
 30
0.0
 40
90.0
  1
ｹ
  7
01
100
AcDbText
  0
TEXT
  5
18622
330
18408
100
AcDbEntity
  8
HIKIDASHI
100
AcDbText
 10
12446.21382732787
 20
2290.804976716086
 30
0.0
 40
90.0
  1
-
 41
0.6666666666666666
  7
00
100
AcDbText
  0
TEXT
  5
18623
330
18408
100
AcDbEntity
  8
HIKIDASHI
100
AcDbText
 10
12554.07097018501
 20
2290.804976716086
 30
0.0
 40
90.0
  1
18
 41
0.6666666666666666
  7
00
100
AcDbText
  0
TEXT
  5
18624
330
18408
100
AcDbEntity
  8
HIKIDASHI
100
AcDbText
 10
12689.78525589929
 20
2305.804976716085
 30
0.0
 40
90.0
  1
%%c
 41
0.6666666666666666
  7
00
100
AcDbText
  0
TEXT
  5
18625
330
18408
100
AcDbEntity
  8
HIKIDASHI
100
AcDbText
 10
12765.49954161357
 20
2290.804976716086
 30
0.0
 40
90.0
  1
孔
  7
01
100
AcDbText
  0
LINE
  5
18626
330
18408
100
AcDbEntity
  8
HIKIDASHI
100
AcDbLine
 10
12256.64239875644
 20
2245.804976716085
 30
0.0
 11
12879.49954161357
 21
2245.804976716085
 31
0.0
  0
TEXT
  5
18627
330
18408
100
AcDbEntity
  8
FILENAME
100
AcDbText
 10
13873.42857142857
 20
174.0
 30
0.0
 40
100.0
  1
＜YOKC-245-A1_3_JIS_GL.DXF ＞
  7
FILENAME
 72
     2
 11
16382.0
 21
174.0
 31
0.0
100
AcDbText
  0
LINE
  5
18628
330
18408
100
AcDbEntity
  8
WAKUSEN-01
100
AcDbLine
 10
434.0000000000008
 20
413.9999999999997
 30
0.0
 11
16382.0
 21
413.9999999999997
 31
0.0
  0
LINE
  5
18629
330
18408
100
AcDbEntity
  8
WAKUSEN-01
100
AcDbLine
 10
434.0000000000008
 20
11242.0
 30
0.0
 11
16382.0
 21
11242.0
 31
0.0
  0
LINE
  5
1862A
330
18408
100
AcDbEntity
  8
WAKUSEN-01
100
AcDbLine
 10
434.0000000000008
 20
413.9999999999997
 30
0.0
 11
434.0000000000008
 21
11242.0
 31
0.0
  0
LINE
  5
1862B
330
18408
100
AcDbEntity
  8
WAKUSEN-01
100
AcDbLine
 10
16382.0
 20
413.9999999999997
 30
0.0
 11
16382.0
 21
11242.0
 31
0.0
  0
LINE
  5
1862C
330
18408
100
AcDbEntity
  8
WAKUSEN-01
100
AcDbLine
 10
10280.0
 20
1242.0
 30
0.0
 11
16382.0
 21
1242.0
 31
0.0
  0
LINE
  5
1862D
330
18408
100
AcDbEntity
  8
WAKUSEN-02
100
AcDbLine
 10
10280.0
 20
827.9999999999997
 30
0.0
 11
13434.0
 21
827.9999999999997
 31
0.0
  0
TEXT
  5
1862E
330
18408
100
AcDbEntity
  8
WAKUMOJI-01
100
AcDbText
 10
10335.13012998137
 20
1062.951504669661
 30
0.0
 40
120.0
  1
名　称
  7
WAKUMOJI
100
AcDbText
  0
TEXT
  5
1862F
330
18408
100
AcDbEntity
  8
WAKUMOJI-01
100
AcDbText
 10
10328.25274254596
 20
659.5644874899107
 30
0.0
 40
120.0
  1
機種名
  7
WAKUMOJI
100
AcDbText
  0
LINE
  5
18630
330
18408
100
AcDbEntity
  8
WAKUSEN-01
100
AcDbLine
 10
10280.0
 20
413.9999999999985
 30
0.0
 11
10280.0
 21
1242.0
 31
0.0
  0
LINE
  5
18631
330
18408
100
AcDbEntity
  8
WAKUSEN-02
100
AcDbLine
 10
13434.0
 20
413.9999999999963
 30
0.0
 11
13434.0
 21
1242.0
 31
0.0
  0
LINE
  5
18632
330
18408
100
AcDbEntity
  8
YODOROGO
100
AcDbLine
 10
14988.80217064596
 20
997.8747482146435
 30
0.0
 11
14914.80217064596
 21
997.8747482146435
 31
0.0
1001
AUTOCAD_POSTSCRIPT_FIGURE
1002
{
1000
PSFILL
1000
Grayscale
1000
Grayscale
1070
    25
1002
}
  0
LINE
  5
18633
330
18408
100
AcDbEntity
  8
YODOROGO
100
AcDbLine
 10
14914.80217064596
 20
973.8747482146434
 30
0.0
 11
14988.80217064596
 21
973.8747482146434
 31
0.0
1001
AUTOCAD_POSTSCRIPT_FIGURE
1002
{
1000
PSFILL
1000
Grayscale
1000
Grayscale
1070
    25
1002
}
  0
LINE
  5
18634
330
18408
100
AcDbEntity
  8
YODOROGO
100
AcDbLine
 10
14988.80217064596
 20
953.874748214644
 30
0.0
 11
14914.80217064596
 21
953.874748214644
 31
0.0
1001
AUTOCAD_POSTSCRIPT_FIGURE
1002
{
1000
PSFILL
1000
Grayscale
1000
Grayscale
1070
    25
1002
}
  0
LINE
  5
18635
330
18408
100
AcDbEntity
  8
YODOROGO
100
AcDbLine
 10
14914.80217064596
 20
929.874748214644
 30
0.0
 11
14988.80217064596
 21
929.874748214644
 31
0.0
1001
AUTOCAD_POSTSCRIPT_FIGURE
1002
{
1000
PSFILL
1000
Grayscale
1000
Grayscale
1070
    25
1002
}
  0
LINE
  5
18636
330
18408
100
AcDbEntity
  8
YODOROGO
100
AcDbLine
 10
14988.80217064596
 20
909.8747482146439
 30
0.0
 11
14914.80217064596
 21
909.8747482146439
 31
0.0
1001
AUTOCAD_POSTSCRIPT_FIGURE
1002
{
1000
PSFILL
1000
Grayscale
1000
Grayscale
1070
    25
1002
}
  0
LINE
  5
18637
330
18408
100
AcDbEntity
  8
YODOROGO
100
AcDbLine
 10
14960.80217064594
 20
853.874748214644
 30
0.0
 11
14988.80217064596
 21
853.874748214644
 31
0.0
1001
AUTOCAD_POSTSCRIPT_FIGURE
1002
{
1000
PSFILL
1000
Grayscale
1000
Grayscale
1070
    25
1002
}
  0
LINE
  5
18638
330
18408
100
AcDbEntity
  8
YODOROGO
100
AcDbLine
 10
14868.80217064596
 20
713.8747482146436
 30
0.0
 11
14968.80217064596
 21
740.6696674577553
 31
0.0
  0
LINE
  5
18639
330
18408
100
AcDbEntity
  8
YODOROGO
100
AcDbLine
 10
14974.80217064595
 20
853.874748214644
 30
0.0
 11
14942.80217064596
 21
853.874748214644
 31
0.0
  0
ARC
  5
1863A
330
18408
100
AcDbEntity
  8
YODOROGO
100
AcDbCircle
 10
15127.17387491394
 20
903.9323046166312
 30
0.0
 40
190.9434321028236
100
AcDbArc
 50
213.9611167766784
 51
264.4787207431779
  0
ARC
  5
1863B
330
18408
100
AcDbEntity
  8
YODOROGO
100
AcDbCircle
 10
15127.17387491396
 20
903.9323046166513
 30
0.0
 40
190.9434321028408
100
AcDbArc
 50
208.141144204866
 51
212.9210361185994
  0
LINE
  5
1863C
330
18408
100
AcDbEntity
  8
YODOROGO
100
AcDbLine
 10
14885.70493649264
 20
778.403830673117
 30
0.0
 11
14966.89206625426
 21
800.1578565285436
 31
0.0
  0
LINE
  5
1863D
330
18408
100
AcDbEntity
  8
YODOROGO
100
AcDbLine
 10
14868.80217064596
 20
713.8747482146436
 30
0.0
 11
14968.80217064596
 21
740.6696674577553
 31
0.0
  0
LINE
  5
1863E
330
18408
100
AcDbEntity
  8
YODOROGO
100
AcDbLine
 10
14974.80217064595
 20
853.874748214644
 30
0.0
 11
14942.80217064596
 21
853.874748214644
 31
0.0
  0
ARC
  5
1863F
330
18408
100
AcDbEntity
  8
YODOROGO
100
AcDbCircle
 10
15127.17387491394
 20
903.9323046166312
 30
0.0
 40
190.9434321028236
100
AcDbArc
 50
213.9611167766784
 51
264.4787207431779
  0
LINE
  5
18640
330
18408
100
AcDbEntity
  8
YODOROGO
100
AcDbLine
 10
14396.80217064594
 20
909.8747482146439
 30
0.0
 11
14216.80217064594
 21
909.8747482146439
 31
0.0
  0
LINE
  5
18641
330
18408
100
AcDbEntity
  8
YODOROGO
100
AcDbLine
 10
14256.80217064594
 20
713.8747482146436
 30
0.0
 11
14396.80217064594
 21
713.8747482146436
 31
0.0
  0
LINE
  5
18642
330
18408
100
AcDbEntity
  8
YODOROGO
100
AcDbLine
 10
14364.80217064596
 20
961.8747482146432
 30
0.0
 11
14248.80217064594
 21
961.8747482146432
 31
0.0
  0
LINE
  5
18643
330
18408
100
AcDbEntity
  8
YODOROGO
100
AcDbLine
 10
14292.80217064596
 20
1013.874748214644
 30
0.0
 11
14328.80217064596
 21
1013.874748214644
 31
0.0
  0
LINE
  5
18644
330
18408
100
AcDbEntity
  8
YODOROGO
100
AcDbLine
 10
14216.80217064594
 20
853.874748214644
 30
0.0
 11
14216.80217064594
 21
753.8747482146439
 31
0.0
  0
LINE
  5
18645
330
18408
100
AcDbEntity
  8
YODOROGO
100
AcDbLine
 10
14248.80217064594
 20
781.8747482146434
 30
0.0
 11
14248.80217064594
 21
853.874748214644
 31
0.0
  0
LINE
  5
18646
330
18408
100
AcDbEntity
  8
YODOROGO
100
AcDbLine
 10
14292.80217064596
 20
873.8747482146449
 30
0.0
 11
14292.80217064596
 21
773.874748214644
 31
0.0
  0
LINE
  5
18647
330
18408
100
AcDbEntity
  8
YODOROGO
100
AcDbLine
 10
13928.80217064596
 20
841.8747482146445
 30
0.0
 11
13888.80217064596
 21
809.9862070222856
 31
0.0
  0
LINE
  5
18648
330
18408
100
AcDbEntity
  8
YODOROGO
100
AcDbLine
 10
13968.80217064596
 20
809.9862070222856
 30
0.0
 11
13928.80217064596
 21
841.8747482146445
 31
0.0
  0
LINE
  5
18649
330
18408
100
AcDbEntity
  8
YODOROGO
100
AcDbLine
 10
13928.80217064596
 20
853.874748214644
 30
0.0
 11
13968.80217064596
 21
821.986207022285
 31
0.0
  0
LINE
  5
1864A
330
18408
100
AcDbEntity
  8
YODOROGO
100
AcDbLine
 10
13888.80217064596
 20
821.986207022285
 30
0.0
 11
13928.80217064596
 21
853.874748214644
 31
0.0
  0
LINE
  5
1864B
330
18408
100
AcDbEntity
  8
YODOROGO
100
AcDbLine
 10
14020.45660200844
 20
829.874748214644
 30
0.0
 11
14020.45660200844
 21
841.8747482146434
 31
0.0
  0
LINE
  5
1864C
330
18408
100
AcDbEntity
  8
YODOROGO
100
AcDbLine
 10
13988.80217064596
 20
841.8747482146434
 30
0.0
 11
13988.80217064596
 21
833.8747482146427
 31
0.0
  0
LINE
  5
1864D
330
18408
100
AcDbEntity
  8
YODOROGO
100
AcDbLine
 10
14049.06776011545
 20
853.874748214644
 30
0.0
 11
14049.06776011545
 21
827.751818637328
 31
0.0
1001
AUTOCAD_POSTSCRIPT_FIGURE
1002
{
1000
PSFILL
1000
Grayscale
1000
Grayscale
1070
   100
1002
}
  0
LINE
  5
1864E
330
18408
100
AcDbEntity
  8
YODOROGO
100
AcDbLine
 10
14041.06776011546
 20
827.751818637328
 30
0.0
 11
14041.06776011546
 21
853.874748214644
 31
0.0
1001
AUTOCAD_POSTSCRIPT_FIGURE
1002
{
1000
PSFILL
1000
Grayscale
1000
Grayscale
1070
   100
1002
}
  0
LINE
  5
1864F
330
18408
100
AcDbEntity
  8
YODOROGO
100
AcDbLine
 10
13904.80217064596
 20
804.3859520216292
 30
0.0
 11
13904.80217064596
 21
816.3859520216298
 31
0.0
  0
LINE
  5
18650
330
18408
100
AcDbEntity
  8
YODOROGO
100
AcDbLine
 10
13952.80217064596
 20
804.3859520216292
 30
0.0
 11
13904.80217064596
 21
804.3859520216292
 31
0.0
  0
LINE
  5
18651
330
18408
100
AcDbEntity
  8
YODOROGO
100
AcDbLine
 10
13952.80217064596
 20
816.3859520216298
 30
0.0
 11
13952.80217064596
 21
804.3859520216292
 31
0.0
  0
LINE
  5
18652
330
18408
100
AcDbEntity
  8
YODOROGO
100
AcDbLine
 10
13904.80217064596
 20
816.3859520216298
 30
0.0
 11
13952.80217064596
 21
816.3859520216298
 31
0.0
  0
LINE
  5
18653
330
18408
100
AcDbEntity
  8
YODOROGO
100
AcDbLine
 10
13912.25479445787
 20
784.2514286852374
 30
0.0
 11
13892.80217064596
 21
737.8747482146435
 31
0.0
1001
AUTOCAD_POSTSCRIPT_FIGURE
1002
{
1000
PSFILL
1000
Grayscale
1000
Grayscale
1070
   100
1002
}
  0
LINE
  5
18654
330
18408
100
AcDbEntity
  8
YODOROGO
100
AcDbLine
 10
13888.80217064596
 20
784.2514286852374
 30
0.0
 11
13912.25479445787
 21
784.2514286852374
 31
0.0
1001
AUTOCAD_POSTSCRIPT_FIGURE
1002
{
1000
PSFILL
1000
Grayscale
1000
Grayscale
1070
   100
1002
}
  0
LINE
  5
18655
330
18408
100
AcDbEntity
  8
YODOROGO
100
AcDbLine
 10
13888.80217064596
 20
794.2514286852374
 30
0.0
 11
13888.80217064596
 21
784.2514286852374
 31
0.0
1001
AUTOCAD_POSTSCRIPT_FIGURE
1002
{
1000
PSFILL
1000
Grayscale
1000
Grayscale
1070
   100
1002
}
  0
LINE
  5
18656
330
18408
100
AcDbEntity
  8
YODOROGO
100
AcDbLine
 10
13968.80217064596
 20
794.2514286852374
 30
0.0
 11
13888.80217064596
 21
794.2514286852374
 31
0.0
1001
AUTOCAD_POSTSCRIPT_FIGURE
1002
{
1000
PSFILL
1000
Grayscale
1000
Grayscale
1070
   100
1002
}
  0
LINE
  5
18657
330
18408
100
AcDbEntity
  8
YODOROGO
100
AcDbLine
 10
13968.80217064596
 20
784.2514286852374
 30
0.0
 11
13968.80217064596
 21
794.2514286852374
 31
0.0
1001
AUTOCAD_POSTSCRIPT_FIGURE
1002
{
1000
PSFILL
1000
Grayscale
1000
Grayscale
1070
   100
1002
}
  0
LINE
  5
18658
330
18408
100
AcDbEntity
  8
YODOROGO
100
AcDbLine
 10
13922.25479445786
 20
784.2514286852374
 30
0.0
 11
13968.80217064596
 21
784.2514286852374
 31
0.0
1001
AUTOCAD_POSTSCRIPT_FIGURE
1002
{
1000
PSFILL
1000
Grayscale
1000
Grayscale
1070
   100
1002
}
  0
LINE
  5
18659
330
18408
100
AcDbEntity
  8
YODOROGO
100
AcDbLine
 10
13907.77335914238
 20
747.8747482146435
 30
0.0
 11
13922.25479445786
 21
784.2514286852374
 31
0.0
1001
AUTOCAD_POSTSCRIPT_FIGURE
1002
{
1000
PSFILL
1000
Grayscale
1000
Grayscale
1070
   100
1002
}
  0
LINE
  5
1865A
330
18408
100
AcDbEntity
  8
YODOROGO
100
AcDbLine
 10
13951.02739540432
 20
747.8747482146435
 30
0.0
 11
13907.77335914238
 21
747.8747482146435
 31
0.0
1001
AUTOCAD_POSTSCRIPT_FIGURE
1002
{
1000
PSFILL
1000
Grayscale
1000
Grayscale
1070
   100
1002
}
  0
LINE
  5
1865B
330
18408
100
AcDbEntity
  8
YODOROGO
100
AcDbLine
 10
13942.53250239547
 20
768.1169053488464
 30
0.0
 11
13951.02739540432
 21
747.8747482146435
 31
0.0
1001
AUTOCAD_POSTSCRIPT_FIGURE
1002
{
1000
PSFILL
1000
Grayscale
1000
Grayscale
1070
   100
1002
}
  0
LINE
  5
1865C
330
18408
100
AcDbEntity
  8
YODOROGO
100
AcDbLine
 10
13950.53250239547
 20
768.1169053488464
 30
0.0
 11
13942.53250239547
 21
768.1169053488464
 31
0.0
1001
AUTOCAD_POSTSCRIPT_FIGURE
1002
{
1000
PSFILL
1000
Grayscale
1000
Grayscale
1070
   100
1002
}
  0
LINE
  5
1865D
330
18408
100
AcDbEntity
  8
YODOROGO
100
AcDbLine
 10
13964.80217064596
 20
737.8747482146435
 30
0.0
 11
13950.53250239547
 21
768.1169053488464
 31
0.0
1001
AUTOCAD_POSTSCRIPT_FIGURE
1002
{
1000
PSFILL
1000
Grayscale
1000
Grayscale
1070
   100
1002
}
  0
LINE
  5
1865E
330
18408
100
AcDbEntity
  8
YODOROGO
100
AcDbLine
 10
13892.80217064596
 20
737.8747482146435
 30
0.0
 11
13964.80217064596
 21
737.8747482146435
 31
0.0
1001
AUTOCAD_POSTSCRIPT_FIGURE
1002
{
1000
PSFILL
1000
Grayscale
1000
Grayscale
1070
   100
1002
}
  0
LINE
  5
1865F
330
18408
100
AcDbEntity
  8
YODOROGO
100
AcDbLine
 10
13888.80217064596
 20
809.9862070222856
 30
0.0
 11
13888.80217064596
 21
821.986207022285
 31
0.0
  0
LINE
  5
18660
330
18408
100
AcDbEntity
  8
YODOROGO
100
AcDbLine
 10
13968.80217064596
 20
821.986207022285
 30
0.0
 11
13968.80217064596
 21
809.9862070222856
 31
0.0
  0
ARC
  5
18661
330
18408
100
AcDbEntity
  8
YODOROGO
100
AcDbCircle
 10
14112.97022107348
 20
800.438882662663
 30
0.0
 40
87.99999999999995
100
AcDbArc
 50
280.3644312771313
 51
3.541483659218056
  0
ARC
  5
18662
330
18408
100
AcDbEntity
  8
YODOROGO
100
AcDbCircle
 10
14117.87801537965
 20
816.798903480952
 30
0.0
 40
55.99999999999914
100
AcDbArc
 50
281.2490582504155
 51
348.7509417495832
  0
LINE
  5
18663
330
18408
100
AcDbEntity
  8
YODOROGO
100
AcDbLine
 10
14128.80217064596
 20
761.8747482146434
 30
0.0
 11
14128.80217064596
 21
713.8747482146436
 31
0.0
  0
LINE
  5
18664
330
18408
100
AcDbEntity
  8
YODOROGO
100
AcDbLine
 10
14010.04445186845
 20
805.3252825309574
 30
0.0
 11
14020.45660200844
 21
829.874748214644
 31
0.0
  0
LINE
  5
18665
330
18408
100
AcDbEntity
  8
YODOROGO
100
AcDbLine
 10
14020.80217064596
 20
791.5602449742006
 30
0.0
 11
14010.04445186845
 21
805.3252825309574
 31
0.0
  0
LINE
  5
18666
330
18408
100
AcDbEntity
  8
YODOROGO
100
AcDbLine
 10
14020.80217064596
 20
781.5602449741994
 30
0.0
 11
14020.80217064596
 21
791.5602449742006
 31
0.0
  0
LINE
  5
18667
330
18408
100
AcDbEntity
  8
YODOROGO
100
AcDbLine
 10
14008.80217064596
 20
792.6185318747651
 30
0.0
 11
14020.80217064596
 21
781.5602449741994
 31
0.0
  0
LINE
  5
18668
330
18408
100
AcDbEntity
  8
YODOROGO
100
AcDbLine
 10
14008.80217064596
 20
737.8747482146435
 30
0.0
 11
14008.80217064596
 21
792.6185318747651
 31
0.0
  0
LINE
  5
18669
330
18408
100
AcDbEntity
  8
YODOROGO
100
AcDbLine
 10
14000.80217064596
 20
737.8747482146435
 30
0.0
 11
14008.80217064596
 21
737.8747482146435
 31
0.0
  0
LINE
  5
1866A
330
18408
100
AcDbEntity
  8
YODOROGO
100
AcDbLine
 10
14000.80217064596
 20
790.0026748448738
 30
0.0
 11
14000.80217064596
 21
737.8747482146435
 31
0.0
  0
LINE
  5
1866B
330
18408
100
AcDbEntity
  8
YODOROGO
100
AcDbLine
 10
13988.80217064596
 20
766.3840395167142
 30
0.0
 11
14000.80217064596
 21
790.0026748448738
 31
0.0
  0
LINE
  5
1866C
330
18408
100
AcDbEntity
  8
YODOROGO
100
AcDbLine
 10
13988.80217064596
 20
778.3840395167149
 30
0.0
 11
13988.80217064596
 21
766.3840395167142
 31
0.0
  0
LINE
  5
1866D
330
18408
100
AcDbEntity
  8
YODOROGO
100
AcDbLine
 10
14012.91438714567
 20
833.8747482146427
 30
0.0
 11
13988.80217064596
 21
778.3840395167149
 31
0.0
  0
LINE
  5
1866E
330
18408
100
AcDbEntity
  8
YODOROGO
100
AcDbLine
 10
13988.80217064596
 20
833.8747482146427
 30
0.0
 11
14012.91438714567
 21
833.8747482146427
 31
0.0
  0
LINE
  5
1866F
330
18408
100
AcDbEntity
  8
YODOROGO
100
AcDbLine
 10
14025.06776011545
 20
827.751818637328
 30
0.0
 11
14041.06776011546
 21
827.751818637328
 31
0.0
1001
AUTOCAD_POSTSCRIPT_FIGURE
1002
{
1000
PSFILL
1000
Grayscale
1000
Grayscale
1070
   100
1002
}
  0
LINE
  5
18670
330
18408
100
AcDbEntity
  8
YODOROGO
100
AcDbLine
 10
14025.06776011545
 20
815.7518186373286
 30
0.0
 11
14025.06776011545
 21
827.751818637328
 31
0.0
1001
AUTOCAD_POSTSCRIPT_FIGURE
1002
{
1000
PSFILL
1000
Grayscale
1000
Grayscale
1070
   100
1002
}
  0
LINE
  5
18671
330
18408
100
AcDbEntity
  8
YODOROGO
100
AcDbLine
 10
14041.06776011546
 20
815.7518186373286
 30
0.0
 11
14025.06776011545
 21
815.7518186373286
 31
0.0
1001
AUTOCAD_POSTSCRIPT_FIGURE
1002
{
1000
PSFILL
1000
Grayscale
1000
Grayscale
1070
   100
1002
}
  0
LINE
  5
18672
330
18408
100
AcDbEntity
  8
YODOROGO
100
AcDbLine
 10
14041.06776011546
 20
749.8747482146441
 30
0.0
 11
14041.06776011546
 21
815.7518186373286
 31
0.0
1001
AUTOCAD_POSTSCRIPT_FIGURE
1002
{
1000
PSFILL
1000
Grayscale
1000
Grayscale
1070
   100
1002
}
  0
LINE
  5
18673
330
18408
100
AcDbEntity
  8
YODOROGO
100
AcDbLine
 10
14025.06776011545
 20
749.8747482146441
 30
0.0
 11
14041.06776011546
 21
749.8747482146441
 31
0.0
1001
AUTOCAD_POSTSCRIPT_FIGURE
1002
{
1000
PSFILL
1000
Grayscale
1000
Grayscale
1070
   100
1002
}
  0
LINE
  5
18674
330
18408
100
AcDbEntity
  8
YODOROGO
100
AcDbLine
 10
14025.06776011545
 20
737.8747482146435
 30
0.0
 11
14025.06776011545
 21
749.8747482146441
 31
0.0
1001
AUTOCAD_POSTSCRIPT_FIGURE
1002
{
1000
PSFILL
1000
Grayscale
1000
Grayscale
1070
   100
1002
}
  0
LINE
  5
18675
330
18408
100
AcDbEntity
  8
YODOROGO
100
AcDbLine
 10
14068.80217064596
 20
737.8747482146435
 30
0.0
 11
14025.06776011545
 21
737.8747482146435
 31
0.0
1001
AUTOCAD_POSTSCRIPT_FIGURE
1002
{
1000
PSFILL
1000
Grayscale
1000
Grayscale
1070
   100
1002
}
  0
LINE
  5
18676
330
18408
100
AcDbEntity
  8
YODOROGO
100
AcDbLine
 10
14068.80217064596
 20
749.8747482146441
 30
0.0
 11
14068.80217064596
 21
737.8747482146435
 31
0.0
1001
AUTOCAD_POSTSCRIPT_FIGURE
1002
{
1000
PSFILL
1000
Grayscale
1000
Grayscale
1070
   100
1002
}
  0
LINE
  5
18677
330
18408
100
AcDbEntity
  8
YODOROGO
100
AcDbLine
 10
14049.06776011545
 20
749.8747482146441
 30
0.0
 11
14068.80217064596
 21
749.8747482146441
 31
0.0
1001
AUTOCAD_POSTSCRIPT_FIGURE
1002
{
1000
PSFILL
1000
Grayscale
1000
Grayscale
1070
   100
1002
}
  0
LINE
  5
18678
330
18408
100
AcDbEntity
  8
YODOROGO
100
AcDbLine
 10
14049.06776011545
 20
815.7518186373286
 30
0.0
 11
14049.06776011545
 21
749.8747482146441
 31
0.0
1001
AUTOCAD_POSTSCRIPT_FIGURE
1002
{
1000
PSFILL
1000
Grayscale
1000
Grayscale
1070
   100
1002
}
  0
LINE
  5
18679
330
18408
100
AcDbEntity
  8
YODOROGO
100
AcDbLine
 10
14068.80217064596
 20
815.7518186373286
 30
0.0
 11
14049.06776011545
 21
815.7518186373286
 31
0.0
1001
AUTOCAD_POSTSCRIPT_FIGURE
1002
{
1000
PSFILL
1000
Grayscale
1000
Grayscale
1070
   100
1002
}
  0
LINE
  5
1867A
330
18408
100
AcDbEntity
  8
YODOROGO
100
AcDbLine
 10
14068.80217064596
 20
827.751818637328
 30
0.0
 11
14068.80217064596
 21
815.7518186373286
 31
0.0
1001
AUTOCAD_POSTSCRIPT_FIGURE
1002
{
1000
PSFILL
1000
Grayscale
1000
Grayscale
1070
   100
1002
}
  0
LINE
  5
1867B
330
18408
100
AcDbEntity
  8
YODOROGO
100
AcDbLine
 10
14049.06776011545
 20
827.751818637328
 30
0.0
 11
14068.80217064596
 21
827.751818637328
 31
0.0
1001
AUTOCAD_POSTSCRIPT_FIGURE
1002
{
1000
PSFILL
1000
Grayscale
1000
Grayscale
1070
   100
1002
}
  0
LINE
  5
1867C
330
18408
100
AcDbEntity
  8
YODOROGO
100
AcDbLine
 10
14200.80217064594
 20
833.8747482146439
 30
0.0
 11
14172.80217064596
 21
833.8747482146439
 31
0.0
  0
LINE
  5
1867D
330
18408
100
AcDbEntity
  8
YODOROGO
100
AcDbLine
 10
14200.80217064594
 20
805.8747482146443
 30
0.0
 11
14200.80217064594
 21
833.8747482146439
 31
0.0
  0
LINE
  5
1867E
330
18408
100
AcDbEntity
  8
YODOROGO
100
AcDbLine
 10
14172.80217064596
 20
833.8747482146439
 30
0.0
 11
14172.80217064596
 21
805.8747482146443
 31
0.0
  0
ARC
  5
1867F
330
18408
100
AcDbEntity
  8
YODOROGO
100
AcDbCircle
 10
14256.80217064594
 20
753.8747482146439
 30
0.0
 40
40.0
100
AcDbArc
 50
180.0
 51
270.0
  0
ARC
  5
18680
330
18408
100
AcDbEntity
  8
YODOROGO
100
AcDbCircle
 10
14268.80217064594
 20
781.8747482146434
 30
0.0
 40
20.0
100
AcDbArc
 50
180.0
 51
270.0
  0
LINE
  5
18681
330
18408
100
AcDbEntity
  8
YODOROGO
100
AcDbLine
 10
14280.80217064596
 20
761.8747482146434
 30
0.0
 11
14268.80217064594
 21
761.8747482146434
 31
0.0
  0
ARC
  5
18682
330
18408
100
AcDbEntity
  8
YODOROGO
100
AcDbCircle
 10
14280.80217064596
 20
773.8747482146427
 30
0.0
 40
11.99999999999818
100
AcDbArc
 50
270.0
 51
0.0000000000054281
  0
LINE
  5
18683
330
18408
100
AcDbEntity
  8
YODOROGO
100
AcDbLine
 10
13900.80217064596
 20
945.3932903968532
 30
0.0
 11
13888.80217064596
 21
921.8883739758362
 31
0.0
1001
AUTOCAD_POSTSCRIPT_FIGURE
1002
{
1000
PSFILL
1000
Grayscale
1000
Grayscale
1070
   100
1002
}
  0
LINE
  5
18684
330
18408
100
AcDbEntity
  8
YODOROGO
100
AcDbLine
 10
13900.80217064596
 20
873.8747482146434
 30
0.0
 11
13900.80217064596
 21
945.3932903968532
 31
0.0
1001
AUTOCAD_POSTSCRIPT_FIGURE
1002
{
1000
PSFILL
1000
Grayscale
1000
Grayscale
1070
   100
1002
}
  0
LINE
  5
18685
330
18408
100
AcDbEntity
  8
YODOROGO
100
AcDbLine
 10
13908.80217064596
 20
873.8747482146434
 30
0.0
 11
13900.80217064596
 21
873.8747482146434
 31
0.0
1001
AUTOCAD_POSTSCRIPT_FIGURE
1002
{
1000
PSFILL
1000
Grayscale
1000
Grayscale
1070
   100
1002
}
  0
LINE
  5
18686
330
18408
100
AcDbEntity
  8
YODOROGO
100
AcDbLine
 10
13908.80217064596
 20
946.8856660426332
 30
0.0
 11
13908.80217064596
 21
873.8747482146434
 31
0.0
1001
AUTOCAD_POSTSCRIPT_FIGURE
1002
{
1000
PSFILL
1000
Grayscale
1000
Grayscale
1070
   100
1002
}
  0
LINE
  5
18687
330
18408
100
AcDbEntity
  8
YODOROGO
100
AcDbLine
 10
13920.80217064596
 20
933.8273791420684
 30
0.0
 11
13908.80217064596
 21
946.8856660426332
 31
0.0
1001
AUTOCAD_POSTSCRIPT_FIGURE
1002
{
1000
PSFILL
1000
Grayscale
1000
Grayscale
1070
   100
1002
}
  0
LINE
  5
18688
330
18408
100
AcDbEntity
  8
YODOROGO
100
AcDbLine
 10
13920.80217064596
 20
941.8273791420681
 30
0.0
 11
13920.80217064596
 21
933.8273791420684
 31
0.0
1001
AUTOCAD_POSTSCRIPT_FIGURE
1002
{
1000
PSFILL
1000
Grayscale
1000
Grayscale
1070
   100
1002
}
  0
LINE
  5
18689
330
18408
100
AcDbEntity
  8
YODOROGO
100
AcDbLine
 10
13908.80217064596
 20
958.8856660426325
 30
0.0
 11
13920.80217064596
 21
941.8273791420681
 31
0.0
1001
AUTOCAD_POSTSCRIPT_FIGURE
1002
{
1000
PSFILL
1000
Grayscale
1000
Grayscale
1070
   100
1002
}
  0
LINE
  5
1868A
330
18408
100
AcDbEntity
  8
YODOROGO
100
AcDbLine
 10
13908.80217064596
 20
969.8747482146441
 30
0.0
 11
13908.80217064596
 21
958.8856660426325
 31
0.0
1001
AUTOCAD_POSTSCRIPT_FIGURE
1002
{
1000
PSFILL
1000
Grayscale
1000
Grayscale
1070
   100
1002
}
  0
LINE
  5
1868B
330
18408
100
AcDbEntity
  8
YODOROGO
100
AcDbLine
 10
13944.80217064596
 20
969.8747482146441
 30
0.0
 11
13908.80217064596
 21
969.8747482146441
 31
0.0
1001
AUTOCAD_POSTSCRIPT_FIGURE
1002
{
1000
PSFILL
1000
Grayscale
1000
Grayscale
1070
   100
1002
}
  0
LINE
  5
1868C
330
18408
100
AcDbEntity
  8
YODOROGO
100
AcDbLine
 10
13944.80217064596
 20
950.2841744681497
 30
0.0
 11
13944.80217064596
 21
969.8747482146441
 31
0.0
1001
AUTOCAD_POSTSCRIPT_FIGURE
1002
{
1000
PSFILL
1000
Grayscale
1000
Grayscale
1070
   100
1002
}
  0
LINE
  5
1868D
330
18408
100
AcDbEntity
  8
YODOROGO
100
AcDbLine
 10
13928.80217064596
 20
950.2841744681497
 30
0.0
 11
13944.80217064596
 21
950.2841744681497
 31
0.0
1001
AUTOCAD_POSTSCRIPT_FIGURE
1002
{
1000
PSFILL
1000
Grayscale
1000
Grayscale
1070
   100
1002
}
  0
LINE
  5
1868E
330
18408
100
AcDbEntity
  8
YODOROGO
100
AcDbLine
 10
13928.80217064596
 20
942.2841744681491
 30
0.0
 11
13928.80217064596
 21
950.2841744681497
 31
0.0
1001
AUTOCAD_POSTSCRIPT_FIGURE
1002
{
1000
PSFILL
1000
Grayscale
1000
Grayscale
1070
   100
1002
}
  0
LINE
  5
1868F
330
18408
100
AcDbEntity
  8
YODOROGO
100
AcDbLine
 10
13944.80217064596
 20
942.2841744681491
 30
0.0
 11
13928.80217064596
 21
942.2841744681491
 31
0.0
1001
AUTOCAD_POSTSCRIPT_FIGURE
1002
{
1000
PSFILL
1000
Grayscale
1000
Grayscale
1070
   100
1002
}
  0
LINE
  5
18690
330
18408
100
AcDbEntity
  8
YODOROGO
100
AcDbLine
 10
13944.80217064596
 20
939.8095889822196
 30
0.0
 11
13944.80217064596
 21
942.2841744681491
 31
0.0
1001
AUTOCAD_POSTSCRIPT_FIGURE
1002
{
1000
PSFILL
1000
Grayscale
1000
Grayscale
1070
   100
1002
}
  0
LINE
  5
18691
330
18408
100
AcDbEntity
  8
YODOROGO
100
AcDbLine
 10
13924.80217064596
 20
906.4874905807087
 30
0.0
 11
13944.80217064596
 21
939.8095889822196
 31
0.0
1001
AUTOCAD_POSTSCRIPT_FIGURE
1002
{
1000
PSFILL
1000
Grayscale
1000
Grayscale
1070
   100
1002
}
  0
LINE
  5
18692
330
18408
100
AcDbEntity
  8
YODOROGO
100
AcDbLine
 10
13924.80217064596
 20
898.487490580708
 30
0.0
 11
13924.80217064596
 21
906.4874905807087
 31
0.0
1001
AUTOCAD_POSTSCRIPT_FIGURE
1002
{
1000
PSFILL
1000
Grayscale
1000
Grayscale
1070
   100
1002
}
  0
LINE
  5
18693
330
18408
100
AcDbEntity
  8
YODOROGO
100
AcDbLine
 10
13944.80217064596
 20
923.8095889822183
 30
0.0
 11
13924.80217064596
 21
898.487490580708
 31
0.0
1001
AUTOCAD_POSTSCRIPT_FIGURE
1002
{
1000
PSFILL
1000
Grayscale
1000
Grayscale
1070
   100
1002
}
  0
LINE
  5
18694
330
18408
100
AcDbEntity
  8
YODOROGO
100
AcDbLine
 10
13944.80217064596
 20
873.8747482146434
 30
0.0
 11
13944.80217064596
 21
923.8095889822183
 31
0.0
1001
AUTOCAD_POSTSCRIPT_FIGURE
1002
{
1000
PSFILL
1000
Grayscale
1000
Grayscale
1070
   100
1002
}
  0
LINE
  5
18695
330
18408
100
AcDbEntity
  8
YODOROGO
100
AcDbLine
 10
13952.80217064596
 20
873.8747482146434
 30
0.0
 11
13944.80217064596
 21
873.8747482146434
 31
0.0
1001
AUTOCAD_POSTSCRIPT_FIGURE
1002
{
1000
PSFILL
1000
Grayscale
1000
Grayscale
1070
   100
1002
}
  0
LINE
  5
18696
330
18408
100
AcDbEntity
  8
YODOROGO
100
AcDbLine
 10
13952.80217064596
 20
924.7045060794032
 30
0.0
 11
13952.80217064596
 21
873.8747482146434
 31
0.0
1001
AUTOCAD_POSTSCRIPT_FIGURE
1002
{
1000
PSFILL
1000
Grayscale
1000
Grayscale
1070
   100
1002
}
  0
LINE
  5
18697
330
18408
100
AcDbEntity
  8
YODOROGO
100
AcDbLine
 10
13968.80217064596
 20
898.487490580708
 30
0.0
 11
13952.80217064596
 21
924.7045060794032
 31
0.0
1001
AUTOCAD_POSTSCRIPT_FIGURE
1002
{
1000
PSFILL
1000
Grayscale
1000
Grayscale
1070
   100
1002
}
  0
LINE
  5
18698
330
18408
100
AcDbEntity
  8
YODOROGO
100
AcDbLine
 10
13968.80217064596
 20
906.4874905807087
 30
0.0
 11
13968.80217064596
 21
898.487490580708
 31
0.0
1001
AUTOCAD_POSTSCRIPT_FIGURE
1002
{
1000
PSFILL
1000
Grayscale
1000
Grayscale
1070
   100
1002
}
  0
LINE
  5
18699
330
18408
100
AcDbEntity
  8
YODOROGO
100
AcDbLine
 10
13952.80217064596
 20
940.7045060794041
 30
0.0
 11
13968.80217064596
 21
906.4874905807087
 31
0.0
1001
AUTOCAD_POSTSCRIPT_FIGURE
1002
{
1000
PSFILL
1000
Grayscale
1000
Grayscale
1070
   100
1002
}
  0
LINE
  5
1869A
330
18408
100
AcDbEntity
  8
YODOROGO
100
AcDbLine
 10
13952.80217064596
 20
942.2841744681502
 30
0.0
 11
13952.80217064596
 21
940.7045060794041
 31
0.0
1001
AUTOCAD_POSTSCRIPT_FIGURE
1002
{
1000
PSFILL
1000
Grayscale
1000
Grayscale
1070
   100
1002
}
  0
LINE
  5
1869B
330
18408
100
AcDbEntity
  8
YODOROGO
100
AcDbLine
 10
13968.80217064596
 20
942.2841744681491
 30
0.0
 11
13952.80217064596
 21
942.2841744681502
 31
0.0
1001
AUTOCAD_POSTSCRIPT_FIGURE
1002
{
1000
PSFILL
1000
Grayscale
1000
Grayscale
1070
   100
1002
}
  0
LINE
  5
1869C
330
18408
100
AcDbEntity
  8
YODOROGO
100
AcDbLine
 10
13968.80217064596
 20
950.2841744681497
 30
0.0
 11
13968.80217064596
 21
942.2841744681491
 31
0.0
1001
AUTOCAD_POSTSCRIPT_FIGURE
1002
{
1000
PSFILL
1000
Grayscale
1000
Grayscale
1070
   100
1002
}
  0
LINE
  5
1869D
330
18408
100
AcDbEntity
  8
YODOROGO
100
AcDbLine
 10
13952.80217064596
 20
950.2841744681497
 30
0.0
 11
13968.80217064596
 21
950.2841744681497
 31
0.0
1001
AUTOCAD_POSTSCRIPT_FIGURE
1002
{
1000
PSFILL
1000
Grayscale
1000
Grayscale
1070
   100
1002
}
  0
LINE
  5
1869E
330
18408
100
AcDbEntity
  8
YODOROGO
100
AcDbLine
 10
13952.80217064596
 20
969.8747482146441
 30
0.0
 11
13952.80217064596
 21
950.2841744681497
 31
0.0
1001
AUTOCAD_POSTSCRIPT_FIGURE
1002
{
1000
PSFILL
1000
Grayscale
1000
Grayscale
1070
   100
1002
}
  0
LINE
  5
1869F
330
18408
100
AcDbEntity
  8
YODOROGO
100
AcDbLine
 10
13968.80217064596
 20
969.8747482146441
 30
0.0
 11
13952.80217064596
 21
969.8747482146441
 31
0.0
1001
AUTOCAD_POSTSCRIPT_FIGURE
1002
{
1000
PSFILL
1000
Grayscale
1000
Grayscale
1070
   100
1002
}
  0
LINE
  5
186A0
330
18408
100
AcDbEntity
  8
YODOROGO
100
AcDbLine
 10
13968.80217064596
 20
977.8747482146435
 30
0.0
 11
13968.80217064596
 21
969.8747482146441
 31
0.0
1001
AUTOCAD_POSTSCRIPT_FIGURE
1002
{
1000
PSFILL
1000
Grayscale
1000
Grayscale
1070
   100
1002
}
  0
LINE
  5
186A1
330
18408
100
AcDbEntity
  8
YODOROGO
100
AcDbLine
 10
13952.80217064596
 20
977.8747482146435
 30
0.0
 11
13968.80217064596
 21
977.8747482146435
 31
0.0
1001
AUTOCAD_POSTSCRIPT_FIGURE
1002
{
1000
PSFILL
1000
Grayscale
1000
Grayscale
1070
   100
1002
}
  0
LINE
  5
186A2
330
18408
100
AcDbEntity
  8
YODOROGO
100
AcDbLine
 10
13952.80217064596
 20
989.8747482146442
 30
0.0
 11
13952.80217064596
 21
977.8747482146435
 31
0.0
1001
AUTOCAD_POSTSCRIPT_FIGURE
1002
{
1000
PSFILL
1000
Grayscale
1000
Grayscale
1070
   100
1002
}
  0
LINE
  5
186A3
330
18408
100
AcDbEntity
  8
YODOROGO
100
AcDbLine
 10
13944.80217064596
 20
989.8747482146442
 30
0.0
 11
13952.80217064596
 21
989.8747482146442
 31
0.0
1001
AUTOCAD_POSTSCRIPT_FIGURE
1002
{
1000
PSFILL
1000
Grayscale
1000
Grayscale
1070
   100
1002
}
  0
LINE
  5
186A4
330
18408
100
AcDbEntity
  8
YODOROGO
100
AcDbLine
 10
13944.80217064596
 20
977.8747482146435
 30
0.0
 11
13944.80217064596
 21
989.8747482146442
 31
0.0
1001
AUTOCAD_POSTSCRIPT_FIGURE
1002
{
1000
PSFILL
1000
Grayscale
1000
Grayscale
1070
   100
1002
}
  0
LINE
  5
186A5
330
18408
100
AcDbEntity
  8
YODOROGO
100
AcDbLine
 10
13932.80217064596
 20
977.8747482146435
 30
0.0
 11
13944.80217064596
 21
977.8747482146435
 31
0.0
1001
AUTOCAD_POSTSCRIPT_FIGURE
1002
{
1000
PSFILL
1000
Grayscale
1000
Grayscale
1070
   100
1002
}
  0
LINE
  5
186A6
330
18408
100
AcDbEntity
  8
YODOROGO
100
AcDbLine
 10
13932.80217064596
 20
989.8747482146442
 30
0.0
 11
13932.80217064596
 21
977.8747482146435
 31
0.0
1001
AUTOCAD_POSTSCRIPT_FIGURE
1002
{
1000
PSFILL
1000
Grayscale
1000
Grayscale
1070
   100
1002
}
  0
LINE
  5
186A7
330
18408
100
AcDbEntity
  8
YODOROGO
100
AcDbLine
 10
13924.80217064596
 20
989.8747482146442
 30
0.0
 11
13932.80217064596
 21
989.8747482146442
 31
0.0
1001
AUTOCAD_POSTSCRIPT_FIGURE
1002
{
1000
PSFILL
1000
Grayscale
1000
Grayscale
1070
   100
1002
}
  0
LINE
  5
186A8
330
18408
100
AcDbEntity
  8
YODOROGO
100
AcDbLine
 10
13924.80217064596
 20
977.8747482146435
 30
0.0
 11
13924.80217064596
 21
989.8747482146442
 31
0.0
1001
AUTOCAD_POSTSCRIPT_FIGURE
1002
{
1000
PSFILL
1000
Grayscale
1000
Grayscale
1070
   100
1002
}
  0
LINE
  5
186A9
330
18408
100
AcDbEntity
  8
YODOROGO
100
AcDbLine
 10
13908.80217064596
 20
977.8747482146435
 30
0.0
 11
13924.80217064596
 21
977.8747482146435
 31
0.0
1001
AUTOCAD_POSTSCRIPT_FIGURE
1002
{
1000
PSFILL
1000
Grayscale
1000
Grayscale
1070
   100
1002
}
  0
LINE
  5
186AA
330
18408
100
AcDbEntity
  8
YODOROGO
100
AcDbLine
 10
13908.80217064596
 20
989.8747482146442
 30
0.0
 11
13908.80217064596
 21
977.8747482146435
 31
0.0
1001
AUTOCAD_POSTSCRIPT_FIGURE
1002
{
1000
PSFILL
1000
Grayscale
1000
Grayscale
1070
   100
1002
}
  0
LINE
  5
186AB
330
18408
100
AcDbEntity
  8
YODOROGO
100
AcDbLine
 10
13900.80217064596
 20
989.8747482146442
 30
0.0
 11
13908.80217064596
 21
989.8747482146442
 31
0.0
1001
AUTOCAD_POSTSCRIPT_FIGURE
1002
{
1000
PSFILL
1000
Grayscale
1000
Grayscale
1070
   100
1002
}
  0
LINE
  5
186AC
330
18408
100
AcDbEntity
  8
YODOROGO
100
AcDbLine
 10
13900.80217064596
 20
977.8747482146435
 30
0.0
 11
13900.80217064596
 21
989.8747482146442
 31
0.0
1001
AUTOCAD_POSTSCRIPT_FIGURE
1002
{
1000
PSFILL
1000
Grayscale
1000
Grayscale
1070
   100
1002
}
  0
LINE
  5
186AD
330
18408
100
AcDbEntity
  8
YODOROGO
100
AcDbLine
 10
13888.80217064596
 20
977.8747482146435
 30
0.0
 11
13900.80217064596
 21
977.8747482146435
 31
0.0
1001
AUTOCAD_POSTSCRIPT_FIGURE
1002
{
1000
PSFILL
1000
Grayscale
1000
Grayscale
1070
   100
1002
}
  0
LINE
  5
186AE
330
18408
100
AcDbEntity
  8
YODOROGO
100
AcDbLine
 10
13888.80217064596
 20
969.8747482146441
 30
0.0
 11
13888.80217064596
 21
977.8747482146435
 31
0.0
1001
AUTOCAD_POSTSCRIPT_FIGURE
1002
{
1000
PSFILL
1000
Grayscale
1000
Grayscale
1070
   100
1002
}
  0
LINE
  5
186AF
330
18408
100
AcDbEntity
  8
YODOROGO
100
AcDbLine
 10
13900.80217064596
 20
969.8747482146441
 30
0.0
 11
13888.80217064596
 21
969.8747482146441
 31
0.0
1001
AUTOCAD_POSTSCRIPT_FIGURE
1002
{
1000
PSFILL
1000
Grayscale
1000
Grayscale
1070
   100
1002
}
  0
LINE
  5
186B0
330
18408
100
AcDbEntity
  8
YODOROGO
100
AcDbLine
 10
13900.80217064596
 20
957.3932903968525
 30
0.0
 11
13900.80217064596
 21
969.8747482146441
 31
0.0
1001
AUTOCAD_POSTSCRIPT_FIGURE
1002
{
1000
PSFILL
1000
Grayscale
1000
Grayscale
1070
   100
1002
}
  0
LINE
  5
186B1
330
18408
100
AcDbEntity
  8
YODOROGO
100
AcDbLine
 10
13888.80217064596
 20
929.8883739758355
 30
0.0
 11
13900.80217064596
 21
957.3932903968525
 31
0.0
1001
AUTOCAD_POSTSCRIPT_FIGURE
1002
{
1000
PSFILL
1000
Grayscale
1000
Grayscale
1070
   100
1002
}
  0
LINE
  5
186B2
330
18408
100
AcDbEntity
  8
YODOROGO
100
AcDbLine
 10
13888.80217064596
 20
921.8883739758362
 30
0.0
 11
13888.80217064596
 21
929.8883739758355
 31
0.0
1001
AUTOCAD_POSTSCRIPT_FIGURE
1002
{
1000
PSFILL
1000
Grayscale
1000
Grayscale
1070
   100
1002
}
  0
LINE
  5
186B3
330
18408
100
AcDbEntity
  8
YODOROGO
100
AcDbLine
 10
14128.80217064596
 20
933.8747482146439
 30
0.0
 11
14200.80217064594
 21
912.4388128201532
 31
0.0
1001
AUTOCAD_POSTSCRIPT_FIGURE
1002
{
1000
PSFILL
1000
Grayscale
1000
Grayscale
1070
   100
1002
}
  0
LINE
  5
186B4
330
18408
100
AcDbEntity
  8
YODOROGO
100
AcDbLine
 10
14200.80217064594
 20
876.4388128201531
 30
0.0
 11
14128.80217064596
 21
897.8747482146435
 31
0.0
1001
AUTOCAD_POSTSCRIPT_FIGURE
1002
{
1000
PSFILL
1000
Grayscale
1000
Grayscale
1070
   100
1002
}
  0
LINE
  5
186B5
330
18408
100
AcDbEntity
  8
YODOROGO
100
AcDbLine
 10
14200.80217064594
 20
992.4388128201531
 30
0.0
 11
14128.80217064596
 21
1013.874748214644
 31
0.0
1001
AUTOCAD_POSTSCRIPT_FIGURE
1002
{
1000
PSFILL
1000
Grayscale
1000
Grayscale
1070
   100
1002
}
  0
LINE
  5
186B6
330
18408
100
AcDbEntity
  8
YODOROGO
100
AcDbLine
 10
14128.80217064596
 20
979.874748214644
 30
0.0
 11
14200.80217064594
 21
958.4388128201537
 31
0.0
1001
AUTOCAD_POSTSCRIPT_FIGURE
1002
{
1000
PSFILL
1000
Grayscale
1000
Grayscale
1070
   100
1002
}
  0
LINE
  5
186B7
330
18408
100
AcDbEntity
  8
YODOROGO
100
AcDbLine
 10
14128.80217064596
 20
897.8747482146435
 30
0.0
 11
14128.80217064596
 21
933.8747482146439
 31
0.0
1001
AUTOCAD_POSTSCRIPT_FIGURE
1002
{
1000
PSFILL
1000
Grayscale
1000
Grayscale
1070
   100
1002
}
  0
LINE
  5
186B8
330
18408
100
AcDbEntity
  8
YODOROGO
100
AcDbLine
 10
14128.80217064596
 20
1013.874748214644
 30
0.0
 11
14128.80217064596
 21
979.874748214644
 31
0.0
1001
AUTOCAD_POSTSCRIPT_FIGURE
1002
{
1000
PSFILL
1000
Grayscale
1000
Grayscale
1070
   100
1002
}
  0
LINE
  5
186B9
330
18408
100
AcDbEntity
  8
YODOROGO
100
AcDbLine
 10
14040.11816010337
 20
969.8747482146441
 30
0.0
 11
14064.80217064595
 21
873.8747482146434
 31
0.0
1001
AUTOCAD_POSTSCRIPT_FIGURE
1002
{
1000
PSFILL
1000
Grayscale
1000
Grayscale
1070
   100
1002
}
  0
LINE
  5
186BA
330
18408
100
AcDbEntity
  8
YODOROGO
100
AcDbLine
 10
13988.80217064596
 20
969.8747482146441
 30
0.0
 11
14040.11816010337
 21
969.8747482146441
 31
0.0
1001
AUTOCAD_POSTSCRIPT_FIGURE
1002
{
1000
PSFILL
1000
Grayscale
1000
Grayscale
1070
   100
1002
}
  0
LINE
  5
186BB
330
18408
100
AcDbEntity
  8
YODOROGO
100
AcDbLine
 10
13988.80217064596
 20
977.8747482146435
 30
0.0
 11
13988.80217064596
 21
969.8747482146441
 31
0.0
1001
AUTOCAD_POSTSCRIPT_FIGURE
1002
{
1000
PSFILL
1000
Grayscale
1000
Grayscale
1070
   100
1002
}
  0
LINE
  5
186BC
330
18408
100
AcDbEntity
  8
YODOROGO
100
AcDbLine
 10
14038.30343925995
 20
977.8747482146435
 30
0.0
 11
13988.80217064596
 21
977.8747482146435
 31
0.0
1001
AUTOCAD_POSTSCRIPT_FIGURE
1002
{
1000
PSFILL
1000
Grayscale
1000
Grayscale
1070
   100
1002
}
  0
LINE
  5
186BD
330
18408
100
AcDbEntity
  8
YODOROGO
100
AcDbLine
 10
14035.58135799485
 20
989.8747482146442
 30
0.0
 11
14038.30343925995
 21
977.8747482146435
 31
0.0
1001
AUTOCAD_POSTSCRIPT_FIGURE
1002
{
1000
PSFILL
1000
Grayscale
1000
Grayscale
1070
   100
1002
}
  0
LINE
  5
186BE
330
18408
100
AcDbEntity
  8
YODOROGO
100
AcDbLine
 10
14045.58135799485
 20
989.8747482146442
 30
0.0
 11
14035.58135799485
 21
989.8747482146442
 31
0.0
1001
AUTOCAD_POSTSCRIPT_FIGURE
1002
{
1000
PSFILL
1000
Grayscale
1000
Grayscale
1070
   100
1002
}
  0
LINE
  5
186BF
330
18408
100
AcDbEntity
  8
YODOROGO
100
AcDbLine
 10
14047.90343925997
 20
977.8747482146435
 30
0.0
 11
14045.58135799485
 21
989.8747482146442
 31
0.0
1001
AUTOCAD_POSTSCRIPT_FIGURE
1002
{
1000
PSFILL
1000
Grayscale
1000
Grayscale
1070
   100
1002
}
  0
LINE
  5
186C0
330
18408
100
AcDbEntity
  8
YODOROGO
100
AcDbLine
 10
14060.80217064596
 20
977.8747482146435
 30
0.0
 11
14047.90343925997
 21
977.8747482146435
 31
0.0
1001
AUTOCAD_POSTSCRIPT_FIGURE
1002
{
1000
PSFILL
1000
Grayscale
1000
Grayscale
1070
   100
1002
}
  0
LINE
  5
186C1
330
18408
100
AcDbEntity
  8
YODOROGO
100
AcDbLine
 10
14060.80217064596
 20
989.8747482146442
 30
0.0
 11
14060.80217064596
 21
977.8747482146435
 31
0.0
1001
AUTOCAD_POSTSCRIPT_FIGURE
1002
{
1000
PSFILL
1000
Grayscale
1000
Grayscale
1070
   100
1002
}
  0
LINE
  5
186C2
330
18408
100
AcDbEntity
  8
YODOROGO
100
AcDbLine
 10
14068.80217064596
 20
989.8747482146442
 30
0.0
 11
14060.80217064596
 21
989.8747482146442
 31
0.0
1001
AUTOCAD_POSTSCRIPT_FIGURE
1002
{
1000
PSFILL
1000
Grayscale
1000
Grayscale
1070
   100
1002
}
  0
LINE
  5
186C3
330
18408
100
AcDbEntity
  8
YODOROGO
100
AcDbLine
 10
14068.80217064596
 20
977.8747482146435
 30
0.0
 11
14068.80217064596
 21
989.8747482146442
 31
0.0
1001
AUTOCAD_POSTSCRIPT_FIGURE
1002
{
1000
PSFILL
1000
Grayscale
1000
Grayscale
1070
   100
1002
}
  0
LINE
  5
186C4
330
18408
100
AcDbEntity
  8
YODOROGO
100
AcDbLine
 10
14068.80217064596
 20
969.8747482146441
 30
0.0
 11
14068.80217064596
 21
977.8747482146435
 31
0.0
1001
AUTOCAD_POSTSCRIPT_FIGURE
1002
{
1000
PSFILL
1000
Grayscale
1000
Grayscale
1070
   100
1002
}
  0
LINE
  5
186C5
330
18408
100
AcDbEntity
  8
YODOROGO
100
AcDbLine
 10
14049.45149343671
 20
969.8747482146441
 30
0.0
 11
14068.80217064596
 21
969.8747482146441
 31
0.0
1001
AUTOCAD_POSTSCRIPT_FIGURE
1002
{
1000
PSFILL
1000
Grayscale
1000
Grayscale
1070
   100
1002
}
  0
LINE
  5
186C6
330
18408
100
AcDbEntity
  8
YODOROGO
100
AcDbLine
 10
14068.80217064596
 20
873.8747482146434
 30
0.0
 11
14049.45149343671
 21
969.8747482146441
 31
0.0
1001
AUTOCAD_POSTSCRIPT_FIGURE
1002
{
1000
PSFILL
1000
Grayscale
1000
Grayscale
1070
   100
1002
}
  0
LINE
  5
186C7
330
18408
100
AcDbEntity
  8
YODOROGO
100
AcDbLine
 10
14064.80217064595
 20
873.8747482146434
 30
0.0
 11
14068.80217064596
 21
873.8747482146434
 31
0.0
1001
AUTOCAD_POSTSCRIPT_FIGURE
1002
{
1000
PSFILL
1000
Grayscale
1000
Grayscale
1070
   100
1002
}
  0
LINE
  5
186C8
330
18408
100
AcDbEntity
  8
YODOROGO
100
AcDbLine
 10
14039.03460996689
 20
887.8703881493972
 30
0.0
 11
13988.80217064596
 21
873.8747482146434
 31
0.0
  0
LINE
  5
186C9
330
18408
100
AcDbEntity
  8
YODOROGO
100
AcDbLine
 10
14039.03460996689
 20
899.3344897645364
 30
0.0
 11
14039.03460996689
 21
887.8703881493972
 31
0.0
  0
LINE
  5
186CA
330
18408
100
AcDbEntity
  8
YODOROGO
100
AcDbLine
 10
14016.91839030643
 20
893.4084665668834
 30
0.0
 11
14039.03460996689
 21
899.3344897645364
 31
0.0
  0
LINE
  5
186CB
330
18408
100
AcDbEntity
  8
YODOROGO
100
AcDbLine
 10
14016.91839030643
 20
936.2841744681499
 30
0.0
 11
14016.91839030643
 21
893.4084665668834
 31
0.0
  0
LINE
  5
186CC
330
18408
100
AcDbEntity
  8
YODOROGO
100
AcDbLine
 10
14039.03460996689
 20
936.2841744681499
 30
0.0
 11
14016.91839030643
 21
936.2841744681499
 31
0.0
  0
LINE
  5
186CD
330
18408
100
AcDbEntity
  8
YODOROGO
100
AcDbLine
 10
14039.03460996689
 20
946.2841744681487
 30
0.0
 11
14039.03460996689
 21
936.2841744681499
 31
0.0
  0
LINE
  5
186CE
330
18408
100
AcDbEntity
  8
YODOROGO
100
AcDbLine
 10
13988.80217064596
 20
946.2841744681487
 30
0.0
 11
14039.03460996689
 21
946.2841744681487
 31
0.0
  0
LINE
  5
186CF
330
18408
100
AcDbEntity
  8
YODOROGO
100
AcDbLine
 10
13988.80217064596
 20
936.2841744681499
 30
0.0
 11
13988.80217064596
 21
946.2841744681487
 31
0.0
  0
LINE
  5
186D0
330
18408
100
AcDbEntity
  8
YODOROGO
100
AcDbLine
 10
14010.91839030643
 20
936.2841744681499
 30
0.0
 11
13988.80217064596
 21
936.2841744681499
 31
0.0
  0
LINE
  5
186D1
330
18408
100
AcDbEntity
  8
YODOROGO
100
AcDbLine
 10
14010.91839030643
 20
892.3366697971587
 30
0.0
 11
14010.91839030643
 21
936.2841744681499
 31
0.0
  0
LINE
  5
186D2
330
18408
100
AcDbEntity
  8
YODOROGO
100
AcDbLine
 10
13988.80217064596
 20
885.8747482146432
 30
0.0
 11
14010.91839030643
 21
892.3366697971587
 31
0.0
  0
LINE
  5
186D3
330
18408
100
AcDbEntity
  8
YODOROGO
100
AcDbLine
 10
13988.80217064596
 20
873.8747482146434
 30
0.0
 11
13988.80217064596
 21
885.8747482146432
 31
0.0
  0
LINE
  5
186D4
330
18408
100
AcDbEntity
  8
YODOROGO
100
AcDbLine
 10
14000.80217064596
 20
853.874748214644
 30
0.0
 11
14000.80217064596
 21
841.8747482146434
 31
0.0
  0
LINE
  5
186D5
330
18408
100
AcDbEntity
  8
YODOROGO
100
AcDbLine
 10
14000.80217064596
 20
853.874748214644
 30
0.0
 11
14000.80217064596
 21
853.874748214644
 31
0.0
  0
LINE
  5
186D6
330
18408
100
AcDbEntity
  8
YODOROGO
100
AcDbLine
 10
14008.80217064596
 20
853.874748214644
 30
0.0
 11
14000.80217064596
 21
853.874748214644
 31
0.0
  0
LINE
  5
186D7
330
18408
100
AcDbEntity
  8
YODOROGO
100
AcDbLine
 10
14008.80217064596
 20
841.8747482146434
 30
0.0
 11
14008.80217064596
 21
853.874748214644
 31
0.0
  0
LINE
  5
186D8
330
18408
100
AcDbEntity
  8
YODOROGO
100
AcDbLine
 10
14020.45660200844
 20
841.8747482146434
 30
0.0
 11
14008.80217064596
 21
841.8747482146434
 31
0.0
  0
LINE
  5
186D9
330
18408
100
AcDbEntity
  8
YODOROGO
100
AcDbLine
 10
14000.80217064596
 20
841.8747482146434
 30
0.0
 11
13988.80217064596
 21
841.8747482146434
 31
0.0
  0
LINE
  5
186DA
330
18408
100
AcDbEntity
  8
YODOROGO
100
AcDbLine
 10
14041.06776011546
 20
853.874748214644
 30
0.0
 11
14049.06776011545
 21
853.874748214644
 31
0.0
1001
AUTOCAD_POSTSCRIPT_FIGURE
1002
{
1000
PSFILL
1000
Grayscale
1000
Grayscale
1070
   100
1002
}
  0
LINE
  5
186DB
330
18408
100
AcDbEntity
  8
YODOROGO
100
AcDbLine
 10
14200.80217064594
 20
912.4388128201532
 30
0.0
 11
14200.80217064594
 21
876.4388128201531
 31
0.0
1001
AUTOCAD_POSTSCRIPT_FIGURE
1002
{
1000
PSFILL
1000
Grayscale
1000
Grayscale
1070
   100
1002
}
  0
LINE
  5
186DC
330
18408
100
AcDbEntity
  8
YODOROGO
100
AcDbLine
 10
14200.80217064594
 20
958.4388128201537
 30
0.0
 11
14200.80217064594
 21
992.4388128201531
 31
0.0
1001
AUTOCAD_POSTSCRIPT_FIGURE
1002
{
1000
PSFILL
1000
Grayscale
1000
Grayscale
1070
   100
1002
}
  0
LINE
  5
186DD
330
18408
100
AcDbEntity
  8
YODOROGO
100
AcDbLine
 10
14216.80217064594
 20
909.8747482146439
 30
0.0
 11
14216.80217064594
 21
873.8747482146449
 31
0.0
  0
LINE
  5
186DE
330
18408
100
AcDbEntity
  8
YODOROGO
100
AcDbLine
 10
14248.80217064594
 20
853.874748214644
 30
0.0
 11
14216.80217064594
 21
853.874748214644
 31
0.0
  0
LINE
  5
186DF
330
18408
100
AcDbEntity
  8
YODOROGO
100
AcDbLine
 10
14216.80217064594
 20
873.8747482146449
 30
0.0
 11
14292.80217064596
 21
873.8747482146449
 31
0.0
  0
LINE
  5
186E0
330
18408
100
AcDbEntity
  8
YODOROGO
100
AcDbLine
 10
14248.80217064594
 20
933.8747482146439
 30
0.0
 11
14216.80217064594
 21
933.8747482146439
 31
0.0
  0
LINE
  5
186E1
330
18408
100
AcDbEntity
  8
YODOROGO
100
AcDbLine
 10
14248.80217064594
 20
961.8747482146432
 30
0.0
 11
14248.80217064594
 21
933.8747482146439
 31
0.0
  0
LINE
  5
186E2
330
18408
100
AcDbEntity
  8
YODOROGO
100
AcDbLine
 10
14292.80217064596
 20
993.8747482146439
 30
0.0
 11
14292.80217064596
 21
1013.874748214644
 31
0.0
  0
LINE
  5
186E3
330
18408
100
AcDbEntity
  8
YODOROGO
100
AcDbLine
 10
14216.80217064594
 20
993.8747482146439
 30
0.0
 11
14292.80217064596
 21
993.8747482146439
 31
0.0
  0
LINE
  5
186E4
330
18408
100
AcDbEntity
  8
YODOROGO
100
AcDbLine
 10
14216.80217064594
 20
933.8747482146439
 30
0.0
 11
14216.80217064594
 21
993.8747482146439
 31
0.0
  0
LINE
  5
186E5
330
18408
100
AcDbEntity
  8
YODOROGO
100
AcDbLine
 10
14500.80217064594
 20
1013.874748214644
 30
0.0
 11
14500.80217064594
 21
809.8747482146441
 31
0.0
  0
LINE
  5
186E6
330
18408
100
AcDbEntity
  8
YODOROGO
100
AcDbLine
 10
14536.80217064596
 20
789.8747482146441
 30
0.0
 11
14536.80217064596
 21
1013.874748214644
 31
0.0
  0
LINE
  5
186E7
330
18408
100
AcDbEntity
  8
YODOROGO
100
AcDbLine
 10
14630.80217064596
 20
745.8747482146431
 30
0.0
 11
14630.80217064596
 21
1003.874748214644
 31
0.0
  0
LINE
  5
186E8
330
18408
100
AcDbEntity
  8
YODOROGO
100
AcDbLine
 10
14598.80217064596
 20
1003.874748214644
 30
0.0
 11
14598.80217064596
 21
745.8747482146431
 31
0.0
  0
LINE
  5
186E9
330
18408
100
AcDbEntity
  8
YODOROGO
100
AcDbLine
 10
14692.80217064596
 20
1013.874748214644
 30
0.0
 11
14692.80217064596
 21
713.8747482146436
 31
0.0
  0
LINE
  5
186EA
330
18408
100
AcDbEntity
  8
YODOROGO
100
AcDbLine
 10
14728.80217064596
 20
713.8747482146436
 30
0.0
 11
14728.80217064596
 21
1013.874748214644
 31
0.0
  0
LINE
  5
186EB
330
18408
100
AcDbEntity
  8
YODOROGO
100
AcDbLine
 10
14328.80217064594
 20
833.8747482146439
 30
0.0
 11
14328.80217064594
 21
873.8747482146449
 31
0.0
  0
LINE
  5
186EC
330
18408
100
AcDbEntity
  8
YODOROGO
100
AcDbLine
 10
14942.80217064596
 20
853.874748214644
 30
0.0
 11
14942.80217064596
 21
833.8747482146439
 31
0.0
  0
LINE
  5
186ED
330
18408
100
AcDbEntity
  8
YODOROGO
100
AcDbLine
 10
14942.80217064596
 20
853.874748214644
 30
0.0
 11
14942.80217064596
 21
833.8747482146439
 31
0.0
  0
ARC
  5
186EE
330
18408
100
AcDbEntity
  8
YODOROGO
100
AcDbCircle
 10
14453.45578809342
 20
809.1089322211363
 30
0.0
 40
47.35257558937082
100
AcDbArc
 50
274.052441629071
 51
0.9266642149310712
  0
ARC
  5
186EF
330
18408
100
AcDbEntity
  8
YODOROGO
100
AcDbCircle
 10
14454.5930853599
 20
796.30536430522
 30
0.0
 40
82.46021178042756
100
AcDbArc
 50
271.5351210653777
 51
355.5272775058505
  0
LINE
  5
186F0
330
18408
100
AcDbEntity
  8
YODOROGO
100
AcDbLine
 10
14456.80217064596
 20
761.8747482146434
 30
0.0
 11
14456.80217064596
 21
713.8747482146436
 31
0.0
  0
LINE
  5
186F1
330
18408
100
AcDbEntity
  8
YODOROGO
100
AcDbLine
 10
14396.80217064594
 20
833.8747482146439
 30
0.0
 11
14328.80217064594
 21
833.8747482146439
 31
0.0
  0
LINE
  5
186F2
330
18408
100
AcDbEntity
  8
YODOROGO
100
AcDbLine
 10
14396.80217064594
 20
801.8747482146444
 30
0.0
 11
14396.80217064594
 21
833.8747482146439
 31
0.0
  0
LINE
  5
186F3
330
18408
100
AcDbEntity
  8
YODOROGO
100
AcDbLine
 10
14328.80217064594
 20
801.8747482146444
 30
0.0
 11
14396.80217064594
 21
801.8747482146444
 31
0.0
  0
LINE
  5
186F4
330
18408
100
AcDbEntity
  8
YODOROGO
100
AcDbLine
 10
14328.80217064594
 20
761.8747482146434
 30
0.0
 11
14328.80217064594
 21
801.8747482146444
 31
0.0
  0
LINE
  5
186F5
330
18408
100
AcDbEntity
  8
YODOROGO
100
AcDbLine
 10
14396.80217064594
 20
761.8747482146434
 30
0.0
 11
14328.80217064594
 21
761.8747482146434
 31
0.0
  0
LINE
  5
186F6
330
18408
100
AcDbEntity
  8
YODOROGO
100
AcDbLine
 10
14396.80217064594
 20
713.8747482146436
 30
0.0
 11
14396.80217064594
 21
761.8747482146434
 31
0.0
  0
LINE
  5
186F7
330
18408
100
AcDbEntity
  8
YODOROGO
100
AcDbLine
 10
14598.80217064596
 20
745.8747482146431
 30
0.0
 11
14630.80217064596
 21
745.8747482146431
 31
0.0
  0
LINE
  5
186F8
330
18408
100
AcDbEntity
  8
YODOROGO
100
AcDbLine
 10
14692.80217064596
 20
713.8747482146436
 30
0.0
 11
14728.80217064596
 21
713.8747482146436
 31
0.0
  0
LINE
  5
186F9
330
18408
100
AcDbEntity
  8
YODOROGO
100
AcDbLine
 10
14868.80217064596
 20
764.2207260852818
 30
0.0
 11
14868.80217064596
 21
713.8747482146436
 31
0.0
  0
LINE
  5
186FA
330
18408
100
AcDbEntity
  8
YODOROGO
100
AcDbLine
 10
14808.80217064596
 20
713.8747482146436
 30
0.0
 11
14868.80217064596
 21
764.2207260852818
 31
0.0
  0
LINE
  5
186FB
330
18408
100
AcDbEntity
  8
YODOROGO
100
AcDbLine
 10
14808.80217064596
 20
773.874748214644
 30
0.0
 11
14808.80217064596
 21
713.8747482146436
 31
0.0
  0
LINE
  5
186FC
330
18408
100
AcDbEntity
  8
YODOROGO
100
AcDbLine
 10
14856.47231434973
 20
813.8747482146435
 30
0.0
 11
14808.80217064596
 21
773.874748214644
 31
0.0
  0
LINE
  5
186FD
330
18408
100
AcDbEntity
  8
YODOROGO
100
AcDbLine
 10
14808.80217064596
 20
813.8747482146435
 30
0.0
 11
14856.47231434973
 21
813.8747482146435
 31
0.0
  0
LINE
  5
186FE
330
18408
100
AcDbEntity
  8
YODOROGO
100
AcDbLine
 10
14808.80217064596
 20
833.8747482146439
 30
0.0
 11
14808.80217064596
 21
813.8747482146435
 31
0.0
  0
LINE
  5
186FF
330
18408
100
AcDbEntity
  8
YODOROGO
100
AcDbLine
 10
14942.80217064596
 20
833.8747482146439
 30
0.0
 11
14808.80217064596
 21
833.8747482146439
 31
0.0
  0
LINE
  5
18700
330
18408
100
AcDbEntity
  8
YODOROGO
100
AcDbLine
 10
14958.80217064596
 20
813.8747482146435
 30
0.0
 11
14888.80217064596
 21
813.8747482146435
 31
0.0
  0
LINE
  5
18701
330
18408
100
AcDbEntity
  8
YODOROGO
100
AcDbLine
 10
14888.80217064596
 20
781.0027187088283
 30
0.0
 11
14885.70493649264
 21
778.403830673117
 31
0.0
  0
LINE
  5
18702
330
18408
100
AcDbEntity
  8
YODOROGO
100
AcDbLine
 10
14888.80217064596
 20
813.8747482146435
 30
0.0
 11
14888.80217064596
 21
781.0027187088283
 31
0.0
  0
LINE
  5
18703
330
18408
100
AcDbEntity
  8
YODOROGO
100
AcDbLine
 10
14868.80217064596
 20
764.2207260852818
 30
0.0
 11
14868.80217064596
 21
713.8747482146436
 31
0.0
  0
LINE
  5
18704
330
18408
100
AcDbEntity
  8
YODOROGO
100
AcDbLine
 10
14808.80217064596
 20
713.8747482146436
 30
0.0
 11
14868.80217064596
 21
764.2207260852818
 31
0.0
  0
LINE
  5
18705
330
18408
100
AcDbEntity
  8
YODOROGO
100
AcDbLine
 10
14808.80217064596
 20
773.874748214644
 30
0.0
 11
14808.80217064596
 21
713.8747482146436
 31
0.0
  0
LINE
  5
18706
330
18408
100
AcDbEntity
  8
YODOROGO
100
AcDbLine
 10
14856.47231434973
 20
813.8747482146435
 30
0.0
 11
14808.80217064596
 21
773.874748214644
 31
0.0
  0
LINE
  5
18707
330
18408
100
AcDbEntity
  8
YODOROGO
100
AcDbLine
 10
14808.80217064596
 20
813.8747482146435
 30
0.0
 11
14856.47231434973
 21
813.8747482146435
 31
0.0
  0
LINE
  5
18708
330
18408
100
AcDbEntity
  8
YODOROGO
100
AcDbLine
 10
14808.80217064596
 20
833.8747482146439
 30
0.0
 11
14808.80217064596
 21
813.8747482146435
 31
0.0
  0
LINE
  5
18709
330
18408
100
AcDbEntity
  8
YODOROGO
100
AcDbLine
 10
14942.80217064596
 20
833.8747482146439
 30
0.0
 11
14808.80217064596
 21
833.8747482146439
 31
0.0
  0
LINE
  5
1870A
330
18408
100
AcDbEntity
  8
YODOROGO
100
AcDbLine
 10
14396.80217064594
 20
873.8747482146449
 30
0.0
 11
14396.80217064594
 21
909.8747482146439
 31
0.0
  0
LINE
  5
1870B
330
18408
100
AcDbEntity
  8
YODOROGO
100
AcDbLine
 10
14328.80217064594
 20
873.8747482146449
 30
0.0
 11
14396.80217064594
 21
873.8747482146449
 31
0.0
  0
LINE
  5
1870C
330
18408
100
AcDbEntity
  8
YODOROGO
100
AcDbLine
 10
14364.80217064596
 20
933.8747482146439
 30
0.0
 11
14364.80217064596
 21
961.8747482146432
 31
0.0
  0
LINE
  5
1870D
330
18408
100
AcDbEntity
  8
YODOROGO
100
AcDbLine
 10
14396.80217064594
 20
933.8747482146439
 30
0.0
 11
14364.80217064596
 21
933.8747482146439
 31
0.0
  0
LINE
  5
1870E
330
18408
100
AcDbEntity
  8
YODOROGO
100
AcDbLine
 10
14396.80217064594
 20
973.8747482146434
 30
0.0
 11
14396.80217064594
 21
933.8747482146439
 31
0.0
  0
ARC
  5
1870F
330
18408
100
AcDbEntity
  8
YODOROGO
100
AcDbCircle
 10
14376.80217064594
 20
973.8747482146434
 30
0.0
 40
20.0
100
AcDbArc
 50
0.0
 51
90.0
  0
LINE
  5
18710
330
18408
100
AcDbEntity
  8
YODOROGO
100
AcDbLine
 10
14328.80217064596
 20
993.8747482146439
 30
0.0
 11
14376.80217064594
 21
993.8747482146439
 31
0.0
  0
LINE
  5
18711
330
18408
100
AcDbEntity
  8
YODOROGO
100
AcDbLine
 10
14328.80217064596
 20
1013.874748214644
 30
0.0
 11
14328.80217064596
 21
993.8747482146439
 31
0.0
  0
LINE
  5
18712
330
18408
100
AcDbEntity
  8
YODOROGO
100
AcDbLine
 10
14536.80217064596
 20
1013.874748214644
 30
0.0
 11
14500.80217064594
 21
1013.874748214644
 31
0.0
  0
LINE
  5
18713
330
18408
100
AcDbEntity
  8
YODOROGO
100
AcDbLine
 10
14630.80217064596
 20
1003.874748214644
 30
0.0
 11
14598.80217064596
 21
1003.874748214644
 31
0.0
  0
LINE
  5
18714
330
18408
100
AcDbEntity
  8
YODOROGO
100
AcDbLine
 10
14728.80217064596
 20
1013.874748214644
 30
0.0
 11
14692.80217064596
 21
1013.874748214644
 31
0.0
  0
LINE
  5
18715
330
18408
100
AcDbEntity
  8
YODOROGO
100
AcDbLine
 10
14836.80217064596
 20
853.874748214644
 30
0.0
 11
14836.80217064596
 21
885.8747482146441
 31
0.0
1001
AUTOCAD_POSTSCRIPT_FIGURE
1002
{
1000
PSFILL
1000
Grayscale
1000
Grayscale
1070
    25
1002
}
  0
LINE
  5
18716
330
18408
100
AcDbEntity
  8
YODOROGO
100
AcDbLine
 10
14808.80217064596
 20
853.874748214644
 30
0.0
 11
14836.80217064596
 21
853.874748214644
 31
0.0
1001
AUTOCAD_POSTSCRIPT_FIGURE
1002
{
1000
PSFILL
1000
Grayscale
1000
Grayscale
1070
    25
1002
}
  0
LINE
  5
18717
330
18408
100
AcDbEntity
  8
YODOROGO
100
AcDbLine
 10
14808.80217064596
 20
909.8747482146439
 30
0.0
 11
14808.80217064596
 21
853.874748214644
 31
0.0
1001
AUTOCAD_POSTSCRIPT_FIGURE
1002
{
1000
PSFILL
1000
Grayscale
1000
Grayscale
1070
    25
1002
}
  0
LINE
  5
18718
330
18408
100
AcDbEntity
  8
YODOROGO
100
AcDbLine
 10
14882.80217064596
 20
909.8747482146439
 30
0.0
 11
14808.80217064596
 21
909.8747482146439
 31
0.0
1001
AUTOCAD_POSTSCRIPT_FIGURE
1002
{
1000
PSFILL
1000
Grayscale
1000
Grayscale
1070
    25
1002
}
  0
LINE
  5
18719
330
18408
100
AcDbEntity
  8
YODOROGO
100
AcDbLine
 10
14882.80217064596
 20
929.874748214644
 30
0.0
 11
14882.80217064596
 21
909.8747482146439
 31
0.0
1001
AUTOCAD_POSTSCRIPT_FIGURE
1002
{
1000
PSFILL
1000
Grayscale
1000
Grayscale
1070
    25
1002
}
  0
LINE
  5
1871A
330
18408
100
AcDbEntity
  8
YODOROGO
100
AcDbLine
 10
14808.80217064596
 20
929.874748214644
 30
0.0
 11
14882.80217064596
 21
929.874748214644
 31
0.0
1001
AUTOCAD_POSTSCRIPT_FIGURE
1002
{
1000
PSFILL
1000
Grayscale
1000
Grayscale
1070
    25
1002
}
  0
LINE
  5
1871B
330
18408
100
AcDbEntity
  8
YODOROGO
100
AcDbLine
 10
14808.80217064596
 20
953.874748214644
 30
0.0
 11
14808.80217064596
 21
929.874748214644
 31
0.0
1001
AUTOCAD_POSTSCRIPT_FIGURE
1002
{
1000
PSFILL
1000
Grayscale
1000
Grayscale
1070
    25
1002
}
  0
LINE
  5
1871C
330
18408
100
AcDbEntity
  8
YODOROGO
100
AcDbLine
 10
14882.80217064596
 20
953.874748214644
 30
0.0
 11
14808.80217064596
 21
953.874748214644
 31
0.0
1001
AUTOCAD_POSTSCRIPT_FIGURE
1002
{
1000
PSFILL
1000
Grayscale
1000
Grayscale
1070
    25
1002
}
  0
LINE
  5
1871D
330
18408
100
AcDbEntity
  8
YODOROGO
100
AcDbLine
 10
14882.80217064596
 20
973.8747482146434
 30
0.0
 11
14882.80217064596
 21
953.874748214644
 31
0.0
1001
AUTOCAD_POSTSCRIPT_FIGURE
1002
{
1000
PSFILL
1000
Grayscale
1000
Grayscale
1070
    25
1002
}
  0
LINE
  5
1871E
330
18408
100
AcDbEntity
  8
YODOROGO
100
AcDbLine
 10
14808.80217064596
 20
973.8747482146434
 30
0.0
 11
14882.80217064596
 21
973.8747482146434
 31
0.0
1001
AUTOCAD_POSTSCRIPT_FIGURE
1002
{
1000
PSFILL
1000
Grayscale
1000
Grayscale
1070
    25
1002
}
  0
LINE
  5
1871F
330
18408
100
AcDbEntity
  8
YODOROGO
100
AcDbLine
 10
14808.80217064596
 20
1013.874748214644
 30
0.0
 11
14808.80217064596
 21
973.8747482146434
 31
0.0
1001
AUTOCAD_POSTSCRIPT_FIGURE
1002
{
1000
PSFILL
1000
Grayscale
1000
Grayscale
1070
    25
1002
}
  0
LINE
  5
18720
330
18408
100
AcDbEntity
  8
YODOROGO
100
AcDbLine
 10
14832.80217064596
 20
1013.874748214644
 30
0.0
 11
14808.80217064596
 21
1013.874748214644
 31
0.0
1001
AUTOCAD_POSTSCRIPT_FIGURE
1002
{
1000
PSFILL
1000
Grayscale
1000
Grayscale
1070
    25
1002
}
  0
LINE
  5
18721
330
18408
100
AcDbEntity
  8
YODOROGO
100
AcDbLine
 10
14832.80217064596
 20
997.8747482146435
 30
0.0
 11
14832.80217064596
 21
1013.874748214644
 31
0.0
1001
AUTOCAD_POSTSCRIPT_FIGURE
1002
{
1000
PSFILL
1000
Grayscale
1000
Grayscale
1070
    25
1002
}
  0
LINE
  5
18722
330
18408
100
AcDbEntity
  8
YODOROGO
100
AcDbLine
 10
14882.80217064596
 20
997.8747482146435
 30
0.0
 11
14832.80217064596
 21
997.8747482146435
 31
0.0
1001
AUTOCAD_POSTSCRIPT_FIGURE
1002
{
1000
PSFILL
1000
Grayscale
1000
Grayscale
1070
    25
1002
}
  0
LINE
  5
18723
330
18408
100
AcDbEntity
  8
YODOROGO
100
AcDbLine
 10
14882.80217064596
 20
1013.874748214644
 30
0.0
 11
14882.80217064596
 21
997.8747482146435
 31
0.0
1001
AUTOCAD_POSTSCRIPT_FIGURE
1002
{
1000
PSFILL
1000
Grayscale
1000
Grayscale
1070
    25
1002
}
  0
LINE
  5
18724
330
18408
100
AcDbEntity
  8
YODOROGO
100
AcDbLine
 10
14914.80217064596
 20
1013.874748214644
 30
0.0
 11
14882.80217064596
 21
1013.874748214644
 31
0.0
1001
AUTOCAD_POSTSCRIPT_FIGURE
1002
{
1000
PSFILL
1000
Grayscale
1000
Grayscale
1070
    25
1002
}
  0
LINE
  5
18725
330
18408
100
AcDbEntity
  8
YODOROGO
100
AcDbLine
 10
14914.80217064596
 20
997.8747482146435
 30
0.0
 11
14914.80217064596
 21
1013.874748214644
 31
0.0
1001
AUTOCAD_POSTSCRIPT_FIGURE
1002
{
1000
PSFILL
1000
Grayscale
1000
Grayscale
1070
    25
1002
}
  0
LINE
  5
18726
330
18408
100
AcDbEntity
  8
YODOROGO
100
AcDbLine
 10
14914.80217064596
 20
953.874748214644
 30
0.0
 11
14914.80217064596
 21
973.8747482146434
 31
0.0
1001
AUTOCAD_POSTSCRIPT_FIGURE
1002
{
1000
PSFILL
1000
Grayscale
1000
Grayscale
1070
    25
1002
}
  0
LINE
  5
18727
330
18408
100
AcDbEntity
  8
YODOROGO
100
AcDbLine
 10
14914.80217064596
 20
909.8747482146439
 30
0.0
 11
14914.80217064596
 21
929.874748214644
 31
0.0
1001
AUTOCAD_POSTSCRIPT_FIGURE
1002
{
1000
PSFILL
1000
Grayscale
1000
Grayscale
1070
    25
1002
}
  0
LINE
  5
18728
330
18408
100
AcDbEntity
  8
YODOROGO
100
AcDbLine
 10
14960.80217064594
 20
885.8747482146441
 30
0.0
 11
14960.80217064594
 21
853.874748214644
 31
0.0
1001
AUTOCAD_POSTSCRIPT_FIGURE
1002
{
1000
PSFILL
1000
Grayscale
1000
Grayscale
1070
    25
1002
}
  0
LINE
  5
18729
330
18408
100
AcDbEntity
  8
YODOROGO
100
AcDbLine
 10
14914.80217064596
 20
885.8747482146441
 30
0.0
 11
14960.80217064594
 21
885.8747482146441
 31
0.0
1001
AUTOCAD_POSTSCRIPT_FIGURE
1002
{
1000
PSFILL
1000
Grayscale
1000
Grayscale
1070
    25
1002
}
  0
LINE
  5
1872A
330
18408
100
AcDbEntity
  8
YODOROGO
100
AcDbLine
 10
14914.80217064596
 20
853.874748214644
 30
0.0
 11
14914.80217064596
 21
885.8747482146441
 31
0.0
1001
AUTOCAD_POSTSCRIPT_FIGURE
1002
{
1000
PSFILL
1000
Grayscale
1000
Grayscale
1070
    25
1002
}
  0
LINE
  5
1872B
330
18408
100
AcDbEntity
  8
YODOROGO
100
AcDbLine
 10
14882.80217064596
 20
853.874748214644
 30
0.0
 11
14914.80217064596
 21
853.874748214644
 31
0.0
1001
AUTOCAD_POSTSCRIPT_FIGURE
1002
{
1000
PSFILL
1000
Grayscale
1000
Grayscale
1070
    25
1002
}
  0
LINE
  5
1872C
330
18408
100
AcDbEntity
  8
YODOROGO
100
AcDbLine
 10
14882.80217064596
 20
885.8747482146441
 30
0.0
 11
14882.80217064596
 21
853.874748214644
 31
0.0
1001
AUTOCAD_POSTSCRIPT_FIGURE
1002
{
1000
PSFILL
1000
Grayscale
1000
Grayscale
1070
    25
1002
}
  0
LINE
  5
1872D
330
18408
100
AcDbEntity
  8
YODOROGO
100
AcDbLine
 10
14836.80217064596
 20
885.8747482146441
 30
0.0
 11
14882.80217064596
 21
885.8747482146441
 31
0.0
1001
AUTOCAD_POSTSCRIPT_FIGURE
1002
{
1000
PSFILL
1000
Grayscale
1000
Grayscale
1070
    25
1002
}
  0
ARC
  5
1872E
330
18408
100
AcDbEntity
  8
YODOROGO
100
AcDbCircle
 10
15529.75894667896
 20
801.3403687577881
 30
0.0
 40
89.11064055536078
100
AcDbArc
 50
281.0262749542535
 51
357.771135755738
  0
LINE
  5
1872F
330
18408
100
AcDbEntity
  8
YODOROGO
100
AcDbLine
 10
15706.80217064596
 20
953.874748214644
 30
0.0
 11
15582.80217064596
 21
953.874748214644
 31
0.0
  0
LINE
  5
18730
330
18408
100
AcDbEntity
  8
YODOROGO
100
AcDbLine
 10
15706.80217064596
 20
1013.874748214644
 30
0.0
 11
15582.80217064596
 21
1013.874748214644
 31
0.0
  0
LINE
  5
18731
330
18408
100
AcDbEntity
  8
YODOROGO
100
AcDbLine
 10
15582.80217064596
 20
981.8747482146434
 30
0.0
 11
15706.80217064596
 21
981.8747482146434
 31
0.0
  0
LINE
  5
18732
330
18408
100
AcDbEntity
  8
YODOROGO
100
AcDbLine
 10
15395.80217064596
 20
781.8747482146434
 30
0.0
 11
15395.80217064596
 21
877.8747482146435
 31
0.0
  0
LINE
  5
18733
330
18408
100
AcDbEntity
  8
YODOROGO
100
AcDbLine
 10
15381.80217064596
 20
845.8747482146444
 30
0.0
 11
15381.80217064596
 21
781.8747482146434
 31
0.0
  0
LINE
  5
18734
330
18408
100
AcDbEntity
  8
YODOROGO
100
AcDbLine
 10
15361.80217064596
 20
745.8747482146443
 30
0.0
 11
15361.80217064596
 21
845.8747482146444
 31
0.0
  0
LINE
  5
18735
330
18408
100
AcDbEntity
  8
YODOROGO
100
AcDbLine
 10
15449.80217064596
 20
845.8747482146444
 30
0.0
 11
15449.80217064596
 21
745.8747482146443
 31
0.0
  0
LINE
  5
18736
330
18408
100
AcDbEntity
  8
YODOROGO
100
AcDbLine
 10
15429.80217064596
 20
781.8747482146434
 30
0.0
 11
15429.80217064596
 21
845.8747482146444
 31
0.0
  0
LINE
  5
18737
330
18408
100
AcDbEntity
  8
YODOROGO
100
AcDbLine
 10
15415.80217064596
 20
877.8747482146435
 30
0.0
 11
15415.80217064596
 21
781.8747482146434
 31
0.0
  0
LINE
  5
18738
330
18408
100
AcDbEntity
  8
YODOROGO
100
AcDbLine
 10
15486.80217064596
 20
1013.874748214644
 30
0.0
 11
15486.80217064596
 21
733.8747482146435
 31
0.0
  0
LINE
  5
18739
330
18408
100
AcDbEntity
  8
YODOROGO
100
AcDbLine
 10
15322.80217064596
 20
713.8747482146436
 30
0.0
 11
15322.80217064596
 21
1013.874748214644
 31
0.0
  0
LINE
  5
1873A
330
18408
100
AcDbEntity
  8
YODOROGO
100
AcDbLine
 10
15348.80217064596
 20
981.8747482146434
 30
0.0
 11
15348.80217064596
 21
713.8747482146436
 31
0.0
  0
LINE
  5
1873B
330
18408
100
AcDbEntity
  8
YODOROGO
100
AcDbLine
 10
15462.80217064596
 20
773.874748214644
 30
0.0
 11
15462.80217064596
 21
981.8747482146434
 31
0.0
  0
LINE
  5
1873C
330
18408
100
AcDbEntity
  8
YODOROGO
100
AcDbLine
 10
15190.80217064596
 20
813.8747482146435
 30
0.0
 11
15190.80217064596
 21
839.8747482146442
 31
0.0
  0
LINE
  5
1873D
330
18408
100
AcDbEntity
  8
YODOROGO
100
AcDbLine
 10
15308.80217064596
 20
839.8747482146442
 30
0.0
 11
15308.80217064596
 21
813.8747482146435
 31
0.0
  0
LINE
  5
1873E
330
18408
100
AcDbEntity
  8
YODOROGO
100
AcDbLine
 10
15582.80217064596
 20
953.874748214644
 30
0.0
 11
15582.80217064596
 21
817.8747482146436
 31
0.0
  0
LINE
  5
1873F
330
18408
100
AcDbEntity
  8
YODOROGO
100
AcDbLine
 10
14974.80217064595
 20
833.8747482146439
 30
0.0
 11
14974.80217064595
 21
853.874748214644
 31
0.0
  0
LINE
  5
18740
330
18408
100
AcDbEntity
  8
YODOROGO
100
AcDbLine
 10
14974.80217064595
 20
833.8747482146439
 30
0.0
 11
14974.80217064595
 21
853.874748214644
 31
0.0
  0
ARC
  5
18741
330
18408
100
AcDbEntity
  8
YODOROGO
100
AcDbCircle
 10
15268.80217064596
 20
753.8747482146439
 30
0.0
 40
40.0
100
AcDbArc
 50
270.0
 51
0.0
  0
LINE
  5
18742
330
18408
100
AcDbEntity
  8
YODOROGO
100
AcDbLine
 10
15284.80217064596
 20
799.8747482146441
 30
0.0
 11
15308.80217064596
 21
799.8747482146441
 31
0.0
  0
LINE
  5
18743
330
18408
100
AcDbEntity
  8
YODOROGO
100
AcDbLine
 10
15308.80217064596
 20
813.8747482146435
 30
0.0
 11
15264.80217064596
 21
813.8747482146435
 31
0.0
  0
LINE
  5
18744
330
18408
100
AcDbEntity
  8
YODOROGO
100
AcDbLine
 10
15108.80217064596
 20
833.8747482146439
 30
0.0
 11
14974.80217064595
 21
833.8747482146439
 31
0.0
  0
LINE
  5
18745
330
18408
100
AcDbEntity
  8
YODOROGO
100
AcDbLine
 10
15108.80217064596
 20
813.8747482146435
 30
0.0
 11
15108.80217064596
 21
833.8747482146439
 31
0.0
  0
LINE
  5
18746
330
18408
100
AcDbEntity
  8
YODOROGO
100
AcDbLine
 10
15008.80217064596
 20
813.8747482146435
 30
0.0
 11
15108.80217064596
 21
813.8747482146435
 31
0.0
  0
ARC
  5
18747
330
18408
100
AcDbEntity
  8
YODOROGO
100
AcDbCircle
 10
15115.02941435068
 20
934.4428574764513
 30
0.0
 40
160.6888181426141
100
AcDbArc
 50
228.6181454618993
 51
245.660289248906
  0
LINE
  5
18748
330
18408
100
AcDbEntity
  8
YODOROGO
100
AcDbLine
 10
15052.80217064596
 20
801.8747482146444
 30
0.0
 11
15048.80217064598
 21
788.0364079349501
 31
0.0
  0
LINE
  5
18749
330
18408
100
AcDbEntity
  8
YODOROGO
100
AcDbLine
 10
15094.80217064596
 20
801.8747482146444
 30
0.0
 11
15052.80217064596
 21
801.8747482146444
 31
0.0
  0
LINE
  5
1874A
330
18408
100
AcDbEntity
  8
YODOROGO
100
AcDbLine
 10
15088.80217064596
 20
775.9088612367134
 30
0.0
 11
15094.80217064596
 21
801.8747482146444
 31
0.0
  0
ARC
  5
1874B
330
18408
100
AcDbEntity
  8
YODOROGO
100
AcDbCircle
 10
15115.02941435023
 20
934.4428574765014
 30
0.0
 40
160.6888181426453
100
AcDbArc
 50
260.6062929796992
 51
267.7790355655586
  0
LINE
  5
1874C
330
18408
100
AcDbEntity
  8
YODOROGO
100
AcDbLine
 10
15108.80217064596
 20
713.8747482146428
 30
0.0
 11
15108.80217064596
 21
773.874748214644
 31
0.0
  0
LINE
  5
1874D
330
18408
100
AcDbEntity
  8
YODOROGO
100
AcDbLine
 10
14968.80217064596
 20
740.6696674577553
 30
0.0
 11
14968.80217064596
 21
797.2655452655705
 31
0.0
  0
LINE
  5
1874E
330
18408
100
AcDbEntity
  8
YODOROGO
100
AcDbLine
 10
15108.80217064596
 20
833.8747482146439
 30
0.0
 11
14974.80217064595
 21
833.8747482146439
 31
0.0
  0
LINE
  5
1874F
330
18408
100
AcDbEntity
  8
YODOROGO
100
AcDbLine
 10
15108.80217064596
 20
813.8747482146435
 30
0.0
 11
15108.80217064596
 21
833.8747482146439
 31
0.0
  0
LINE
  5
18750
330
18408
100
AcDbEntity
  8
YODOROGO
100
AcDbLine
 10
15008.80217064596
 20
813.8747482146435
 30
0.0
 11
15108.80217064596
 21
813.8747482146435
 31
0.0
  0
ARC
  5
18751
330
18408
100
AcDbEntity
  8
YODOROGO
100
AcDbCircle
 10
15115.02941435068
 20
934.4428574764513
 30
0.0
 40
160.6888181426141
100
AcDbArc
 50
228.6181454618993
 51
245.660289248906
  0
LINE
  5
18752
330
18408
100
AcDbEntity
  8
YODOROGO
100
AcDbLine
 10
15052.80217064596
 20
801.8747482146444
 30
0.0
 11
15048.80217064598
 21
788.0364079349501
 31
0.0
  0
LINE
  5
18753
330
18408
100
AcDbEntity
  8
YODOROGO
100
AcDbLine
 10
15094.80217064596
 20
801.8747482146444
 30
0.0
 11
15052.80217064596
 21
801.8747482146444
 31
0.0
  0
LINE
  5
18754
330
18408
100
AcDbEntity
  8
YODOROGO
100
AcDbLine
 10
15088.80217064596
 20
775.9088612367134
 30
0.0
 11
15094.80217064596
 21
801.8747482146444
 31
0.0
  0
ARC
  5
18755
330
18408
100
AcDbEntity
  8
YODOROGO
100
AcDbCircle
 10
15115.02941435023
 20
934.4428574765014
 30
0.0
 40
160.6888181426453
100
AcDbArc
 50
260.6062929796992
 51
267.7790355655586
  0
LINE
  5
18756
330
18408
100
AcDbEntity
  8
YODOROGO
100
AcDbLine
 10
15108.80217064596
 20
713.8747482146428
 30
0.0
 11
15108.80217064596
 21
773.874748214644
 31
0.0
  0
LINE
  5
18757
330
18408
100
AcDbEntity
  8
YODOROGO
100
AcDbLine
 10
14968.80217064596
 20
740.6696674577553
 30
0.0
 11
14968.80217064596
 21
797.2655452655705
 31
0.0
  0
LINE
  5
18758
330
18408
100
AcDbEntity
  8
YODOROGO
100
AcDbLine
 10
15216.80217064596
 20
786.8747482146444
 30
0.0
 11
15190.80217064596
 21
786.8747482146444
 31
0.0
  0
LINE
  5
18759
330
18408
100
AcDbEntity
  8
YODOROGO
100
AcDbLine
 10
15216.80217064596
 20
800.8747482146432
 30
0.0
 11
15216.80217064596
 21
786.8747482146444
 31
0.0
  0
LINE
  5
1875A
330
18408
100
AcDbEntity
  8
YODOROGO
100
AcDbLine
 10
15190.80217064596
 20
800.8747482146432
 30
0.0
 11
15216.80217064596
 21
800.8747482146432
 31
0.0
  0
LINE
  5
1875B
330
18408
100
AcDbEntity
  8
YODOROGO
100
AcDbLine
 10
15190.80217064596
 20
786.8747482146444
 30
0.0
 11
15190.80217064596
 21
800.8747482146432
 31
0.0
  0
LINE
  5
1875C
330
18408
100
AcDbEntity
  8
YODOROGO
100
AcDbLine
 10
15214.80217064596
 20
788.8747482146436
 30
0.0
 11
15192.80217064595
 21
788.8747482146436
 31
0.0
  0
LINE
  5
1875D
330
18408
100
AcDbEntity
  8
YODOROGO
100
AcDbLine
 10
15214.80217064596
 20
798.874748214644
 30
0.0
 11
15214.80217064596
 21
788.8747482146436
 31
0.0
  0
LINE
  5
1875E
330
18408
100
AcDbEntity
  8
YODOROGO
100
AcDbLine
 10
15192.80217064595
 20
798.874748214644
 30
0.0
 11
15214.80217064596
 21
798.874748214644
 31
0.0
  0
LINE
  5
1875F
330
18408
100
AcDbEntity
  8
YODOROGO
100
AcDbLine
 10
15192.80217064595
 20
788.8747482146436
 30
0.0
 11
15192.80217064595
 21
798.874748214644
 31
0.0
  0
LINE
  5
18760
330
18408
100
AcDbEntity
  8
YODOROGO
100
AcDbLine
 10
15212.80217064596
 20
790.8747482146432
 30
0.0
 11
15194.80217064596
 21
790.8747482146432
 31
0.0
  0
LINE
  5
18761
330
18408
100
AcDbEntity
  8
YODOROGO
100
AcDbLine
 10
15212.80217064596
 20
796.8747482146445
 30
0.0
 11
15212.80217064596
 21
790.8747482146432
 31
0.0
  0
LINE
  5
18762
330
18408
100
AcDbEntity
  8
YODOROGO
100
AcDbLine
 10
15194.80217064596
 20
796.8747482146445
 30
0.0
 11
15212.80217064596
 21
796.8747482146445
 31
0.0
  0
LINE
  5
18763
330
18408
100
AcDbEntity
  8
YODOROGO
100
AcDbLine
 10
15194.80217064596
 20
790.8747482146432
 30
0.0
 11
15194.80217064596
 21
796.8747482146445
 31
0.0
  0
LINE
  5
18764
330
18408
100
AcDbEntity
  8
YODOROGO
100
AcDbLine
 10
15210.80217064596
 20
792.8747482146435
 30
0.0
 11
15196.80217064596
 21
792.8747482146435
 31
0.0
  0
LINE
  5
18765
330
18408
100
AcDbEntity
  8
YODOROGO
100
AcDbLine
 10
15210.80217064596
 20
794.8747482146441
 30
0.0
 11
15210.80217064596
 21
792.8747482146435
 31
0.0
  0
LINE
  5
18766
330
18408
100
AcDbEntity
  8
YODOROGO
100
AcDbLine
 10
15196.80217064596
 20
794.8747482146441
 30
0.0
 11
15210.80217064596
 21
794.8747482146441
 31
0.0
  0
LINE
  5
18767
330
18408
100
AcDbEntity
  8
YODOROGO
100
AcDbLine
 10
15196.80217064596
 20
792.8747482146435
 30
0.0
 11
15196.80217064596
 21
794.8747482146441
 31
0.0
  0
LINE
  5
18768
330
18408
100
AcDbEntity
  8
YODOROGO
100
AcDbLine
 10
15232.80217064596
 20
813.8747482146435
 30
0.0
 11
15190.80217064596
 21
813.8747482146435
 31
0.0
  0
LINE
  5
18769
330
18408
100
AcDbEntity
  8
YODOROGO
100
AcDbLine
 10
15232.80217064596
 20
773.874748214644
 30
0.0
 11
15232.80217064596
 21
813.8747482146435
 31
0.0
  0
LINE
  5
1876A
330
18408
100
AcDbEntity
  8
YODOROGO
100
AcDbLine
 10
15190.80217064596
 20
773.874748214644
 30
0.0
 11
15232.80217064596
 21
773.874748214644
 31
0.0
  0
LINE
  5
1876B
330
18408
100
AcDbEntity
  8
YODOROGO
100
AcDbLine
 10
15190.80217064596
 20
713.8747482146436
 30
0.0
 11
15190.80217064596
 21
773.874748214644
 31
0.0
  0
LINE
  5
1876C
330
18408
100
AcDbEntity
  8
YODOROGO
100
AcDbLine
 10
15268.80217064596
 20
713.8747482146436
 30
0.0
 11
15190.80217064596
 21
713.8747482146436
 31
0.0
  0
LINE
  5
1876D
330
18408
100
AcDbEntity
  8
YODOROGO
100
AcDbLine
 10
15284.80217064596
 20
785.8747482146432
 30
0.0
 11
15284.80217064596
 21
799.8747482146441
 31
0.0
  0
ARC
  5
1876E
330
18408
100
AcDbEntity
  8
YODOROGO
100
AcDbCircle
 10
15272.80217064594
 20
785.8747482146457
 30
0.0
 40
12.00000000000187
100
AcDbArc
 50
270.0
 51
359.9999999999877
  0
LINE
  5
1876F
330
18408
100
AcDbEntity
  8
YODOROGO
100
AcDbLine
 10
15264.80217064596
 20
773.874748214644
 30
0.0
 11
15272.80217064594
 21
773.874748214644
 31
0.0
  0
LINE
  5
18770
330
18408
100
AcDbEntity
  8
YODOROGO
100
AcDbLine
 10
15264.80217064596
 20
813.8747482146435
 30
0.0
 11
15264.80217064596
 21
773.874748214644
 31
0.0
  0
LINE
  5
18771
330
18408
100
AcDbEntity
  8
YODOROGO
100
AcDbLine
 10
15449.80217064596
 20
773.874748214644
 30
0.0
 11
15462.80217064596
 21
773.874748214644
 31
0.0
  0
LINE
  5
18772
330
18408
100
AcDbEntity
  8
YODOROGO
100
AcDbLine
 10
15466.80217064596
 20
713.8747482146436
 30
0.0
 11
15449.80217064596
 21
713.8747482146436
 31
0.0
  0
LINE
  5
18773
330
18408
100
AcDbEntity
  8
YODOROGO
100
AcDbLine
 10
15381.80217064596
 20
781.8747482146434
 30
0.0
 11
15395.80217064596
 21
781.8747482146434
 31
0.0
  0
LINE
  5
18774
330
18408
100
AcDbEntity
  8
YODOROGO
100
AcDbLine
 10
15449.80217064596
 20
745.8747482146443
 30
0.0
 11
15361.80217064596
 21
745.8747482146443
 31
0.0
  0
LINE
  5
18775
330
18408
100
AcDbEntity
  8
YODOROGO
100
AcDbLine
 10
15415.80217064596
 20
781.8747482146434
 30
0.0
 11
15429.80217064596
 21
781.8747482146434
 31
0.0
  0
LINE
  5
18776
330
18408
100
AcDbEntity
  8
YODOROGO
100
AcDbLine
 10
15449.80217064596
 20
713.8747482146436
 30
0.0
 11
15449.80217064596
 21
773.874748214644
 31
0.0
  0
LINE
  5
18777
330
18408
100
AcDbEntity
  8
YODOROGO
100
AcDbLine
 10
15348.80217064596
 20
713.8747482146436
 30
0.0
 11
15322.80217064596
 21
713.8747482146436
 31
0.0
  0
LINE
  5
18778
330
18408
100
AcDbEntity
  8
YODOROGO
100
AcDbLine
 10
15308.80217064596
 20
799.8747482146441
 30
0.0
 11
15308.80217064596
 21
753.8747482146439
 31
0.0
  0
ARC
  5
18779
330
18408
100
AcDbEntity
  8
YODOROGO
100
AcDbCircle
 10
15466.80217064596
 20
733.8747482146435
 30
0.0
 40
20.0
100
AcDbArc
 50
270.0
 51
0.0
  0
LINE
  5
1877A
330
18408
100
AcDbEntity
  8
YODOROGO
100
AcDbLine
 10
15546.80217064596
 20
761.8747482146434
 30
0.0
 11
15546.80217064596
 21
713.8747482146436
 31
0.0
  0
ARC
  5
1877B
330
18408
100
AcDbEntity
  8
YODOROGO
100
AcDbCircle
 10
15519.86069778339
 20
818.7656950548664
 30
0.0
 40
62.94777829583771
100
AcDbArc
 50
295.3405244216011
 51
359.1890230341867
  0
LINE
  5
1877C
330
18408
100
AcDbEntity
  8
YODOROGO
100
AcDbLine
 10
15308.80217064596
 20
929.874748214644
 30
0.0
 11
15248.80217064596
 21
969.8747482146441
 31
0.0
  0
LINE
  5
1877D
330
18408
100
AcDbEntity
  8
YODOROGO
100
AcDbLine
 10
15248.80217064596
 20
1013.874748214644
 30
0.0
 11
15308.80217064596
 21
973.8747482146434
 31
0.0
  0
LINE
  5
1877E
330
18408
100
AcDbEntity
  8
YODOROGO
100
AcDbLine
 10
15264.80217064596
 20
839.8747482146442
 30
0.0
 11
15308.80217064596
 21
839.8747482146442
 31
0.0
  0
LINE
  5
1877F
330
18408
100
AcDbEntity
  8
YODOROGO
100
AcDbLine
 10
15308.80217064596
 20
867.8747482146436
 30
0.0
 11
15264.80217064596
 21
867.8747482146436
 31
0.0
  0
LINE
  5
18780
330
18408
100
AcDbEntity
  8
YODOROGO
100
AcDbLine
 10
15190.80217064596
 20
897.8747482146435
 30
0.0
 11
15308.80217064596
 21
897.8747482146435
 31
0.0
  0
LINE
  5
18781
330
18408
100
AcDbEntity
  8
YODOROGO
100
AcDbLine
 10
15040.80217064596
 20
1013.874748214644
 30
0.0
 11
15010.80217064596
 21
1013.874748214644
 31
0.0
  0
LINE
  5
18782
330
18408
100
AcDbEntity
  8
YODOROGO
100
AcDbLine
 10
15040.80217064596
 20
913.8747482146435
 30
0.0
 11
15040.80217064596
 21
1013.874748214644
 31
0.0
  0
LINE
  5
18783
330
18408
100
AcDbEntity
  8
YODOROGO
100
AcDbLine
 10
15010.80217064596
 20
913.8747482146435
 30
0.0
 11
15040.80217064596
 21
913.8747482146435
 31
0.0
  0
LINE
  5
18784
330
18408
100
AcDbEntity
  8
YODOROGO
100
AcDbLine
 10
15010.80217064596
 20
1013.874748214644
 30
0.0
 11
15010.80217064596
 21
913.8747482146435
 31
0.0
  0
LINE
  5
18785
330
18408
100
AcDbEntity
  8
YODOROGO
100
AcDbLine
 10
15080.80217064596
 20
1013.874748214644
 30
0.0
 11
15108.80217064596
 21
1013.874748214644
 31
0.0
  0
LINE
  5
18786
330
18408
100
AcDbEntity
  8
YODOROGO
100
AcDbLine
 10
15080.80217064596
 20
905.8747482146443
 30
0.0
 11
15080.80217064596
 21
1013.874748214644
 31
0.0
  0
ARC
  5
18787
330
18408
100
AcDbEntity
  8
YODOROGO
100
AcDbCircle
 10
15060.80217064596
 20
905.8747482146443
 30
0.0
 40
20.0
100
AcDbArc
 50
270.0
 51
0.0
  0
LINE
  5
18788
330
18408
100
AcDbEntity
  8
YODOROGO
100
AcDbLine
 10
15010.80217064596
 20
885.8747482146441
 30
0.0
 11
15060.80217064596
 21
885.8747482146441
 31
0.0
  0
LINE
  5
18789
330
18408
100
AcDbEntity
  8
YODOROGO
100
AcDbLine
 10
15010.80217064596
 20
853.874748214644
 30
0.0
 11
15010.80217064596
 21
885.8747482146441
 31
0.0
  0
LINE
  5
1878A
330
18408
100
AcDbEntity
  8
YODOROGO
100
AcDbLine
 10
15068.80217064596
 20
853.874748214644
 30
0.0
 11
15010.80217064596
 21
853.874748214644
 31
0.0
  0
ARC
  5
1878B
330
18408
100
AcDbEntity
  8
YODOROGO
100
AcDbCircle
 10
15068.80217064596
 20
893.8747482146439
 30
0.0
 40
40.0
100
AcDbArc
 50
270.0
 51
0.0
  0
LINE
  5
1878C
330
18408
100
AcDbEntity
  8
YODOROGO
100
AcDbLine
 10
15108.80217064596
 20
1013.874748214644
 30
0.0
 11
15108.80217064596
 21
893.8747482146439
 31
0.0
  0
LINE
  5
1878D
330
18408
100
AcDbEntity
  8
YODOROGO
100
AcDbLine
 10
14988.80217064596
 20
973.8747482146434
 30
0.0
 11
14988.80217064596
 21
997.8747482146435
 31
0.0
1001
AUTOCAD_POSTSCRIPT_FIGURE
1002
{
1000
PSFILL
1000
Grayscale
1000
Grayscale
1070
    25
1002
}
  0
LINE
  5
1878E
330
18408
100
AcDbEntity
  8
YODOROGO
100
AcDbLine
 10
14988.80217064596
 20
929.874748214644
 30
0.0
 11
14988.80217064596
 21
953.874748214644
 31
0.0
1001
AUTOCAD_POSTSCRIPT_FIGURE
1002
{
1000
PSFILL
1000
Grayscale
1000
Grayscale
1070
    25
1002
}
  0
LINE
  5
1878F
330
18408
100
AcDbEntity
  8
YODOROGO
100
AcDbLine
 10
14988.80217064596
 20
853.874748214644
 30
0.0
 11
14988.80217064596
 21
909.8747482146439
 31
0.0
1001
AUTOCAD_POSTSCRIPT_FIGURE
1002
{
1000
PSFILL
1000
Grayscale
1000
Grayscale
1070
    25
1002
}
  0
LINE
  5
18790
330
18408
100
AcDbEntity
  8
YODOROGO
100
AcDbLine
 10
15190.80217064596
 20
953.874748214644
 30
0.0
 11
15248.80217064596
 21
1013.874748214644
 31
0.0
  0
LINE
  5
18791
330
18408
100
AcDbEntity
  8
YODOROGO
100
AcDbLine
 10
15190.80217064596
 20
909.8747482146439
 30
0.0
 11
15190.80217064596
 21
953.874748214644
 31
0.0
  0
LINE
  5
18792
330
18408
100
AcDbEntity
  8
YODOROGO
100
AcDbLine
 10
15248.80217064596
 20
969.8747482146441
 30
0.0
 11
15190.80217064596
 21
909.8747482146439
 31
0.0
  0
LINE
  5
18793
330
18408
100
AcDbEntity
  8
YODOROGO
100
AcDbLine
 10
15232.80217064596
 20
839.8747482146442
 30
0.0
 11
15232.80217064596
 21
867.8747482146436
 31
0.0
  0
LINE
  5
18794
330
18408
100
AcDbEntity
  8
YODOROGO
100
AcDbLine
 10
15190.80217064596
 20
839.8747482146442
 30
0.0
 11
15232.80217064596
 21
839.8747482146442
 31
0.0
  0
LINE
  5
18795
330
18408
100
AcDbEntity
  8
YODOROGO
100
AcDbLine
 10
15264.80217064596
 20
867.8747482146436
 30
0.0
 11
15264.80217064596
 21
839.8747482146442
 31
0.0
  0
LINE
  5
18796
330
18408
100
AcDbEntity
  8
YODOROGO
100
AcDbLine
 10
15190.80217064596
 20
867.8747482146436
 30
0.0
 11
15190.80217064596
 21
897.8747482146435
 31
0.0
  0
LINE
  5
18797
330
18408
100
AcDbEntity
  8
YODOROGO
100
AcDbLine
 10
15232.80217064596
 20
867.8747482146436
 30
0.0
 11
15190.80217064596
 21
867.8747482146436
 31
0.0
  0
LINE
  5
18798
330
18408
100
AcDbEntity
  8
YODOROGO
100
AcDbLine
 10
15322.80217064596
 20
1013.874748214644
 30
0.0
 11
15486.80217064596
 21
1013.874748214644
 31
0.0
  0
LINE
  5
18799
330
18408
100
AcDbEntity
  8
YODOROGO
100
AcDbLine
 10
15462.80217064596
 20
981.8747482146434
 30
0.0
 11
15348.80217064596
 21
981.8747482146434
 31
0.0
  0
LINE
  5
1879A
330
18408
100
AcDbEntity
  8
YODOROGO
100
AcDbLine
 10
15436.80217064595
 20
909.8747482146439
 30
0.0
 11
15449.80217064596
 21
909.8747482146439
 31
0.0
  0
LINE
  5
1879B
330
18408
100
AcDbEntity
  8
YODOROGO
100
AcDbLine
 10
15449.80217064596
 20
969.8747482146441
 30
0.0
 11
15436.80217064595
 21
909.8747482146439
 31
0.0
  0
LINE
  5
1879C
330
18408
100
AcDbEntity
  8
YODOROGO
100
AcDbLine
 10
15425.80217064596
 20
969.8747482146441
 30
0.0
 11
15449.80217064596
 21
969.8747482146441
 31
0.0
  0
LINE
  5
1879D
330
18408
100
AcDbEntity
  8
YODOROGO
100
AcDbLine
 10
15412.80217064596
 20
909.8747482146439
 30
0.0
 11
15425.80217064596
 21
969.8747482146441
 31
0.0
  0
LINE
  5
1879E
330
18408
100
AcDbEntity
  8
YODOROGO
100
AcDbLine
 10
15398.80217064596
 20
909.8747482146439
 30
0.0
 11
15412.80217064596
 21
909.8747482146439
 31
0.0
  0
LINE
  5
1879F
330
18408
100
AcDbEntity
  8
YODOROGO
100
AcDbLine
 10
15385.80217064596
 20
969.8747482146441
 30
0.0
 11
15398.80217064596
 21
909.8747482146439
 31
0.0
  0
LINE
  5
187A0
330
18408
100
AcDbEntity
  8
YODOROGO
100
AcDbLine
 10
15361.80217064596
 20
969.8747482146441
 30
0.0
 11
15385.80217064596
 21
969.8747482146441
 31
0.0
  0
LINE
  5
187A1
330
18408
100
AcDbEntity
  8
YODOROGO
100
AcDbLine
 10
15374.80217064596
 20
909.8747482146439
 30
0.0
 11
15361.80217064596
 21
969.8747482146441
 31
0.0
  0
LINE
  5
187A2
330
18408
100
AcDbEntity
  8
YODOROGO
100
AcDbLine
 10
15361.80217064596
 20
909.8747482146439
 30
0.0
 11
15374.80217064596
 21
909.8747482146439
 31
0.0
  0
LINE
  5
187A3
330
18408
100
AcDbEntity
  8
YODOROGO
100
AcDbLine
 10
15361.80217064596
 20
877.8747482146435
 30
0.0
 11
15361.80217064596
 21
909.8747482146439
 31
0.0
  0
LINE
  5
187A4
330
18408
100
AcDbEntity
  8
YODOROGO
100
AcDbLine
 10
15449.80217064596
 20
877.8747482146435
 30
0.0
 11
15361.80217064596
 21
877.8747482146435
 31
0.0
  0
LINE
  5
187A5
330
18408
100
AcDbEntity
  8
YODOROGO
100
AcDbLine
 10
15449.80217064596
 20
909.8747482146439
 30
0.0
 11
15449.80217064596
 21
877.8747482146435
 31
0.0
  0
LINE
  5
187A6
330
18408
100
AcDbEntity
  8
YODOROGO
100
AcDbLine
 10
15308.80217064596
 20
973.8747482146434
 30
0.0
 11
15308.80217064596
 21
929.874748214644
 31
0.0
  0
LINE
  5
187A7
330
18408
100
AcDbEntity
  8
YODOROGO
100
AcDbLine
 10
15395.80217064596
 20
877.8747482146435
 30
0.0
 11
15415.80217064596
 21
877.8747482146435
 31
0.0
  0
LINE
  5
187A8
330
18408
100
AcDbEntity
  8
YODOROGO
100
AcDbLine
 10
15361.80217064596
 20
845.8747482146444
 30
0.0
 11
15381.80217064596
 21
845.8747482146444
 31
0.0
  0
LINE
  5
187A9
330
18408
100
AcDbEntity
  8
YODOROGO
100
AcDbLine
 10
15429.80217064596
 20
845.8747482146444
 30
0.0
 11
15449.80217064596
 21
845.8747482146444
 31
0.0
  0
LINE
  5
187AA
330
18408
100
AcDbEntity
  8
YODOROGO
100
AcDbLine
 10
15308.80217064596
 20
897.8747482146435
 30
0.0
 11
15308.80217064596
 21
867.8747482146436
 31
0.0
  0
LINE
  5
187AB
330
18408
100
AcDbEntity
  8
YODOROGO
100
AcDbLine
 10
15582.80217064596
 20
1013.874748214644
 30
0.0
 11
15582.80217064596
 21
981.8747482146434
 31
0.0
  0
LINE
  5
187AC
330
18408
100
AcDbEntity
  8
YODOROGO
100
AcDbLine
 10
15766.80217064596
 20
797.8747482146435
 30
0.0
 11
15766.80217064594
 21
905.8747482146443
 31
0.0
  0
LINE
  5
187AD
330
18408
100
AcDbEntity
  8
YODOROGO
100
AcDbLine
 10
15730.80217064594
 20
993.8747482146439
 30
0.0
 11
15730.80217064594
 21
817.8747482146436
 31
0.0
  0
LINE
  5
187AE
330
18408
100
AcDbEntity
  8
YODOROGO
100
AcDbLine
 10
15826.80217064596
 20
713.8747482146436
 30
0.0
 11
15826.80217064594
 21
905.8747482146443
 31
0.0
  0
LINE
  5
187AF
330
18408
100
AcDbEntity
  8
YODOROGO
100
AcDbLine
 10
15794.80217064596
 20
905.8747482146443
 30
0.0
 11
15794.80217064596
 21
713.8747482146436
 31
0.0
  0
LINE
  5
187B0
330
18408
100
AcDbEntity
  8
YODOROGO
100
AcDbLine
 10
15618.80217064596
 20
797.8747482146435
 30
0.0
 11
15618.80217064596
 21
853.874748214644
 31
0.0
  0
ARC
  5
187B1
330
18408
100
AcDbEntity
  8
YODOROGO
100
AcDbCircle
 10
15676.95743255803
 20
803.8951756442788
 30
0.0
 40
90.04622428799429
100
AcDbArc
 50
268.6284910216979
 51
356.1663845733032
  0
LINE
  5
187B2
330
18408
100
AcDbEntity
  8
YODOROGO
100
AcDbLine
 10
15674.80217064596
 20
763.8747482146435
 30
0.0
 11
15674.80217064596
 21
713.8747482146436
 31
0.0
  0
ARC
  5
187B3
330
18408
100
AcDbEntity
  8
YODOROGO
100
AcDbCircle
 10
15675.75903786228
 20
818.9194785088275
 30
0.0
 40
55.05304649180608
100
AcDbArc
 50
269.0041020930593
 51
358.9126445549248
  0
LINE
  5
187B4
330
18408
100
AcDbEntity
  8
YODOROGO
100
AcDbLine
 10
15794.80217064596
 20
713.8747482146436
 30
0.0
 11
15826.80217064596
 21
713.8747482146436
 31
0.0
  0
LINE
  5
187B5
330
18408
100
AcDbEntity
  8
YODOROGO
100
AcDbLine
 10
15766.80217064594
 20
905.8747482146443
 30
0.0
 11
15794.80217064596
 21
905.8747482146443
 31
0.0
  0
LINE
  5
187B6
330
18408
100
AcDbEntity
  8
YODOROGO
100
AcDbLine
 10
15810.80217064596
 20
993.8747482146439
 30
0.0
 11
15730.80217064594
 21
993.8747482146439
 31
0.0
  0
LINE
  5
187B7
330
18408
100
AcDbEntity
  8
YODOROGO
100
AcDbLine
 10
15766.80217064594
 20
957.8747482146436
 30
0.0
 11
15830.80217064596
 21
957.8747482146436
 31
0.0
  0
LINE
  5
187B8
330
18408
100
AcDbEntity
  8
YODOROGO
100
AcDbLine
 10
15850.80217064596
 20
937.8747482146435
 30
0.0
 11
15766.80217064594
 21
937.8747482146435
 31
0.0
  0
LINE
  5
187B9
330
18408
100
AcDbEntity
  8
YODOROGO
100
AcDbLine
 10
15618.80217064596
 20
889.8747482146442
 30
0.0
 11
15674.80217064596
 21
889.8747482146442
 31
0.0
  0
LINE
  5
187BA
330
18408
100
AcDbEntity
  8
YODOROGO
100
AcDbLine
 10
15618.80217064596
 20
917.8747482146436
 30
0.0
 11
15618.80217064596
 21
889.8747482146442
 31
0.0
  0
LINE
  5
187BB
330
18408
100
AcDbEntity
  8
YODOROGO
100
AcDbLine
 10
15674.80217064596
 20
917.8747482146436
 30
0.0
 11
15618.80217064596
 21
917.8747482146436
 31
0.0
  0
LINE
  5
187BC
330
18408
100
AcDbEntity
  8
YODOROGO
100
AcDbLine
 10
15674.80217064596
 20
889.8747482146442
 30
0.0
 11
15674.80217064596
 21
917.8747482146436
 31
0.0
  0
LINE
  5
187BD
330
18408
100
AcDbEntity
  8
YODOROGO
100
AcDbLine
 10
15766.80217064594
 20
937.8747482146435
 30
0.0
 11
15766.80217064594
 21
957.8747482146436
 31
0.0
  0
LINE
  5
187BE
330
18408
100
AcDbEntity
  8
YODOROGO
100
AcDbLine
 10
15706.80217064596
 20
853.874748214644
 30
0.0
 11
15706.80217064596
 21
953.874748214644
 31
0.0
  0
LINE
  5
187BF
330
18408
100
AcDbEntity
  8
YODOROGO
100
AcDbLine
 10
15618.80217064596
 20
853.874748214644
 30
0.0
 11
15706.80217064596
 21
853.874748214644
 31
0.0
  0
LINE
  5
187C0
330
18408
100
AcDbEntity
  8
YODOROGO
100
AcDbLine
 10
15706.80217064596
 20
981.8747482146434
 30
0.0
 11
15706.80217064596
 21
1013.874748214644
 31
0.0
  0
ARC
  5
187C1
330
18408
100
AcDbEntity
  8
YODOROGO
100
AcDbCircle
 10
15810.80217064596
 20
1001.874748214642
 30
0.0
 40
7.99999999999727
100
AcDbArc
 50
270.0
 51
0.0000000000081422
  0
LINE
  5
187C2
330
18408
100
AcDbEntity
  8
YODOROGO
100
AcDbLine
 10
15818.80217064596
 20
1013.874748214644
 30
0.0
 11
15818.80217064596
 21
1001.874748214643
 31
0.0
  0
LINE
  5
187C3
330
18408
100
AcDbEntity
  8
YODOROGO
100
AcDbLine
 10
15850.80217064596
 20
1013.874748214644
 30
0.0
 11
15818.80217064596
 21
1013.874748214644
 31
0.0
  0
LINE
  5
187C4
330
18408
100
AcDbEntity
  8
YODOROGO
100
AcDbLine
 10
15850.80217064596
 20
977.8747482146435
 30
0.0
 11
15850.80217064596
 21
1013.874748214644
 31
0.0
  0
ARC
  5
187C5
330
18408
100
AcDbEntity
  8
YODOROGO
100
AcDbCircle
 10
15830.80217064596
 20
977.8747482146435
 30
0.0
 40
20.0
100
AcDbArc
 50
270.0
 51
0.0
  0
LINE
  5
187C6
330
18408
100
AcDbEntity
  8
YODOROGO
100
AcDbLine
 10
15850.80217064596
 20
905.8747482146443
 30
0.0
 11
15850.80217064596
 21
937.8747482146435
 31
0.0
  0
LINE
  5
187C7
330
18408
100
AcDbEntity
  8
YODOROGO
100
AcDbLine
 10
15826.80217064594
 20
905.8747482146443
 30
0.0
 11
15850.80217064596
 21
905.8747482146443
 31
0.0
  0
LINE
  5
187C8
330
18408
100
AcDbEntity
  8
SUNPOU
100
AcDbLine
 10
3969.797051267461
 20
2711.084839419601
 30
0.0
 11
3835.443655266704
 21
2711.084839419601
 31
0.0
  0
LINE
  5
187C9
330
18408
100
AcDbEntity
  8
SUNPOU
100
AcDbLine
 10
4129.797051267463
 20
3191.084839419597
 30
0.0
 11
3835.443655266704
 21
3191.084839419597
 31
0.0
  0
LINE
  5
187CA
330
18408
100
AcDbEntity
  8
SUNPOU
100
AcDbLine
 10
3880.443655266704
 20
2726.084839419601
 30
0.0
 11
3880.443655266704
 21
3176.084839419596
 31
0.0
  0
LINE
  5
187CB
330
18408
100
AcDbEntity
  8
SUNPOU
100
AcDbLine
 10
4129.797051267463
 20
3319.084839419601
 30
0.0
 11
3835.443655266704
 21
3319.084839419601
 31
0.0
  0
LINE
  5
187CC
330
18408
100
AcDbEntity
  8
SUNPOU
100
AcDbLine
 10
4129.797051267463
 20
3456.684839419605
 30
0.0
 11
3835.443655266704
 21
3456.684839419605
 31
0.0
  0
LINE
  5
187CD
330
18408
100
AcDbEntity
  8
SUNPOU
100
AcDbLine
 10
3880.443655266704
 20
3334.0848394196
 30
0.0
 11
3880.443655266704
 21
3441.684839419605
 31
0.0
  0
LINE
  5
187CE
330
18408
100
AcDbEntity
  8
SUNPOU
100
AcDbLine
 10
3880.443655266704
 20
3456.684839419605
 30
0.0
 11
3880.443655266704
 21
3658.827696562461
 31
0.0
  0
LINE
  5
187CF
330
18408
100
AcDbEntity
  8
SUNPOU
100
AcDbLine
 10
4129.797051267463
 20
3319.084839419601
 30
0.0
 11
3835.443655266705
 21
3319.084839419601
 31
0.0
  0
LINE
  5
187D0
330
18408
100
AcDbEntity
  8
SUNPOU
100
AcDbLine
 10
4129.797051267463
 20
3191.084839419597
 30
0.0
 11
3835.443655266705
 21
3191.084839419597
 31
0.0
  0
LINE
  5
187D1
330
18408
100
AcDbEntity
  8
SUNPOU
100
AcDbLine
 10
3880.443655266705
 20
3304.0848394196
 30
0.0
 11
3880.443655266705
 21
3206.084839419597
 31
0.0
  0
LINE
  5
187D2
330
18408
100
AcDbEntity
  8
SUNPOU
100
AcDbLine
 10
3490.443655266703
 20
3376.684839419604
 30
0.0
 11
3505.443655266704
 21
3376.684839419604
 31
0.0
  0
LINE
  5
187D3
330
18408
100
AcDbEntity
  8
SUNPOU
100
AcDbLine
 10
4129.797051267463
 20
3456.684839419605
 30
0.0
 11
3415.443655266705
 21
3456.684839419605
 31
0.0
  0
LINE
  5
187D4
330
18408
100
AcDbEntity
  8
SUNPOU
100
AcDbLine
 10
3460.443655266704
 20
3361.684839419604
 30
0.0
 11
3460.443655266704
 21
3346.684839419604
 31
0.0
  0
LINE
  5
187D5
330
18408
100
AcDbEntity
  8
SUNPOU
100
AcDbLine
 10
3460.443655266704
 20
3471.684839419605
 30
0.0
 11
3460.443655266704
 21
3673.827696562461
 31
0.0
  0
LINE
  5
187D6
330
18408
100
AcDbEntity
  8
SUNPOU
100
AcDbLine
 10
3460.443655266704
 20
3376.684839419604
 30
0.0
 11
3460.443655266704
 21
3456.684839419605
 31
0.0
  0
LINE
  5
187D7
330
18408
100
AcDbEntity
  8
SUNPOU
100
AcDbLine
 10
3969.797051267461
 20
2551.084839419601
 30
0.0
 11
3835.993474569398
 21
2551.084839419601
 31
0.0
  0
LINE
  5
187D8
330
18408
100
AcDbEntity
  8
SUNPOU
100
AcDbLine
 10
3969.797051267461
 20
2711.084839419601
 30
0.0
 11
3835.993474569398
 21
2711.084839419601
 31
0.0
  0
LINE
  5
187D9
330
18408
100
AcDbEntity
  8
SUNPOU
100
AcDbLine
 10
3880.993474569399
 20
2696.084839419601
 30
0.0
 11
3880.993474569399
 21
2566.084839419601
 31
0.0
  0
LINE
  5
187DA
330
18408
100
AcDbEntity
  8
SUNPOU
100
AcDbLine
 10
3880.993474569399
 20
2551.084839419601
 30
0.0
 11
3880.993474569399
 21
2299.070130361409
 31
0.0
  0
LINE
  5
187DB
330
18408
100
AcDbEntity
  8
SUNPOU
100
AcDbLine
 10
4129.797051267463
 20
3456.684839419605
 30
0.0
 11
3619.240902195489
 21
3456.684839419605
 31
0.0
  0
LINE
  5
187DC
330
18408
100
AcDbEntity
  8
SUNPOU
100
AcDbLine
 10
3969.797051267461
 20
2551.084839419601
 30
0.0
 11
3619.240902195488
 21
2551.084839419601
 31
0.0
  0
LINE
  5
187DD
330
18408
100
AcDbEntity
  8
SUNPOU
100
AcDbLine
 10
3664.240902195489
 20
3441.684839419605
 30
0.0
 11
3664.240902195488
 21
2566.084839419601
 31
0.0
  0
LINE
  5
187DE
330
18408
100
AcDbEntity
  8
SUNPOU
100
AcDbLine
 10
4799.797051267463
 20
4160.485411556192
 30
0.0
 11
4799.797051267463
 21
4175.485411556191
 31
0.0
  0
LINE
  5
187DF
330
18408
100
AcDbEntity
  8
SUNPOU
100
AcDbLine
 10
4159.797051267463
 20
3486.684839419604
 30
0.0
 11
4159.797051267463
 21
4175.485411556191
 31
0.0
  0
LINE
  5
187E0
330
18408
100
AcDbEntity
  8
SUNPOU
100
AcDbLine
 10
4784.797051267463
 20
4130.485411556192
 30
0.0
 11
4174.797051267463
 21
4130.485411556192
 31
0.0
  0
LINE
  5
187E1
330
18408
100
AcDbEntity
  8
SUNPOU
100
AcDbLine
 10
6285.027558517714
 20
4130.485411556192
 30
0.0
 11
6225.027558517701
 21
4130.485411556192
 31
0.0
  0
LINE
  5
187E2
330
18408
100
AcDbEntity
  8
SUNPOU
100
AcDbLine
 10
6285.027558517706
 20
4130.485411556192
 30
0.0
 11
6225.027558517706
 21
4146.562363102062
 31
0.0
  0
LINE
  5
187E3
330
18408
100
AcDbEntity
  8
SUNPOU
100
AcDbLine
 10
6285.027558517714
 20
4130.485411556192
 30
0.0
 11
6225.027558517701
 21
4114.408460010323
 31
0.0
  0
LINE
  5
187E4
330
18408
100
AcDbEntity
  8
SUNPOU
100
AcDbLine
 10
6345.027558517712
 20
4130.485411556192
 30
0.0
 11
6285.0275585177
 21
4130.485411556192
 31
0.0
  0
LINE
  5
187E5
330
18408
100
AcDbEntity
  8
SUNPOU
100
AcDbLine
 10
6345.027558517706
 20
4130.485411556192
 30
0.0
 11
6285.027558517706
 21
4146.562363102062
 31
0.0
  0
LINE
  5
187E6
330
18408
100
AcDbEntity
  8
SUNPOU
100
AcDbLine
 10
6345.027558517712
 20
4130.485411556192
 30
0.0
 11
6285.0275585177
 21
4114.408460010323
 31
0.0
  0
LINE
  5
187E7
330
18408
100
AcDbEntity
  8
SUNPOU
100
AcDbLine
 10
3999.797051267461
 20
2521.084839419601
 30
0.0
 11
3999.797051267461
 21
1893.6848394196
 31
0.0
  0
LINE
  5
187E8
330
18408
100
AcDbEntity
  8
SUNPOU
100
AcDbLine
 10
5599.797051267461
 20
2521.084839419601
 30
0.0
 11
5599.797051267461
 21
1893.6848394196
 31
0.0
  0
LINE
  5
187E9
330
18408
100
AcDbEntity
  8
SUNPOU
100
AcDbLine
 10
4014.797051267462
 20
1938.6848394196
 30
0.0
 11
5584.797051267462
 21
1938.6848394196
 31
0.0
  0
LINE
  5
187EA
330
18408
100
AcDbEntity
  8
SUNPOU
100
AcDbLine
 10
4159.797051267463
 20
2681.084839419601
 30
0.0
 11
4159.797051267463
 21
2103.684839419599
 31
0.0
  0
LINE
  5
187EB
330
18408
100
AcDbEntity
  8
SUNPOU
100
AcDbLine
 10
5439.797051267464
 20
2681.084839419601
 30
0.0
 11
5439.797051267464
 21
2103.684839419599
 31
0.0
  0
LINE
  5
187EC
330
18408
100
AcDbEntity
  8
SUNPOU
100
AcDbLine
 10
4174.797051267463
 20
2148.684839419601
 30
0.0
 11
5424.797051267464
 21
2148.684839419601
 31
0.0
  0
LINE
  5
187ED
330
18408
100
AcDbEntity
  8
SUNPOU
100
AcDbLine
 10
8580.123251791111
 20
4160.485411556194
 30
0.0
 11
8580.123251791111
 21
4175.485411556194
 31
0.0
  0
LINE
  5
187EE
330
18408
100
AcDbEntity
  8
SUNPOU
100
AcDbLine
 10
8260.12325179111
 20
3486.684839419604
 30
0.0
 11
8260.12325179111
 21
4175.485411556194
 31
0.0
  0
LINE
  5
187EF
330
18408
100
AcDbEntity
  8
SUNPOU
100
AcDbLine
 10
8565.123251791112
 20
4130.485411556196
 30
0.0
 11
8275.123251791111
 21
4130.485411556196
 31
0.0
  0
LINE
  5
187F0
330
18408
100
AcDbEntity
  8
SUNPOU
100
AcDbLine
 10
10065.35375904135
 20
4130.485411556196
 30
0.0
 11
10005.35375904133
 21
4130.485411556196
 31
0.0
  0
LINE
  5
187F1
330
18408
100
AcDbEntity
  8
SUNPOU
100
AcDbLine
 10
10065.35375904135
 20
4130.485411556196
 30
0.0
 11
10005.35375904135
 21
4146.562363102066
 31
0.0
  0
LINE
  5
187F2
330
18408
100
AcDbEntity
  8
SUNPOU
100
AcDbLine
 10
10065.35375904135
 20
4130.485411556196
 30
0.0
 11
10005.35375904133
 21
4114.408460010326
 31
0.0
  0
LINE
  5
187F3
330
18408
100
AcDbEntity
  8
SUNPOU
100
AcDbLine
 10
10125.35375904136
 20
4130.485411556196
 30
0.0
 11
10065.35375904133
 21
4130.485411556196
 31
0.0
  0
LINE
  5
187F4
330
18408
100
AcDbEntity
  8
SUNPOU
100
AcDbLine
 10
10125.35375904135
 20
4130.485411556196
 30
0.0
 11
10065.35375904135
 21
4146.562363102066
 31
0.0
  0
LINE
  5
187F5
330
18408
100
AcDbEntity
  8
SUNPOU
100
AcDbLine
 10
10125.35375904136
 20
4130.485411556196
 30
0.0
 11
10065.35375904133
 21
4114.408460010326
 31
0.0
  0
LINE
  5
187F6
330
18408
100
AcDbEntity
  8
SUNPOU
100
AcDbLine
 10
7270.769855790351
 20
3376.684839419608
 30
0.0
 11
7285.769855790352
 21
3376.684839419608
 31
0.0
  0
LINE
  5
187F7
330
18408
100
AcDbEntity
  8
SUNPOU
100
AcDbLine
 10
8230.123251791111
 20
3456.684839419605
 30
0.0
 11
7195.769855790351
 21
3456.684839419605
 31
0.0
  0
LINE
  5
187F8
330
18408
100
AcDbEntity
  8
SUNPOU
100
AcDbLine
 10
7240.76985579035
 20
3361.684839419608
 30
0.0
 11
7240.76985579035
 21
3346.684839419608
 31
0.0
  0
LINE
  5
187F9
330
18408
100
AcDbEntity
  8
SUNPOU
100
AcDbLine
 10
7240.76985579035
 20
3471.684839419604
 30
0.0
 11
7240.76985579035
 21
3673.827696562461
 31
0.0
  0
LINE
  5
187FA
330
18408
100
AcDbEntity
  8
SUNPOU
100
AcDbLine
 10
7240.76985579035
 20
3376.684839419608
 30
0.0
 11
7240.76985579035
 21
3456.684839419605
 31
0.0
  0
LINE
  5
187FB
330
18408
100
AcDbEntity
  8
SUNPOU
100
AcDbLine
 10
7780.123251791109
 20
2521.084839419601
 30
0.0
 11
7780.123251791109
 21
1893.684839419604
 31
0.0
  0
LINE
  5
187FC
330
18408
100
AcDbEntity
  8
SUNPOU
100
AcDbLine
 10
9380.123251791109
 20
2521.084839419601
 30
0.0
 11
9380.123251791109
 21
1893.684839419604
 31
0.0
  0
LINE
  5
187FD
330
18408
100
AcDbEntity
  8
SUNPOU
100
AcDbLine
 10
7795.123251791108
 20
1938.684839419604
 30
0.0
 11
9365.123251791109
 21
1938.684839419604
 31
0.0
  0
LINE
  5
187FE
330
18408
100
AcDbEntity
  8
SUNPOU
100
AcDbLine
 10
7940.12325179111
 20
2681.084839419606
 30
0.0
 11
7940.12325179111
 21
2103.684839419604
 31
0.0
  0
LINE
  5
187FF
330
18408
100
AcDbEntity
  8
SUNPOU
100
AcDbLine
 10
9220.123251791108
 20
2681.084839419606
 30
0.0
 11
9220.123251791108
 21
2103.684839419604
 31
0.0
  0
LINE
  5
18800
330
18408
100
AcDbEntity
  8
SUNPOU
100
AcDbLine
 10
7955.123251791109
 20
2148.684839419604
 30
0.0
 11
9205.123251791109
 21
2148.684839419604
 31
0.0
  0
LINE
  5
18801
330
18408
100
AcDbEntity
  8
SUNPOU
100
AcDbLine
 10
7750.123251791109
 20
2711.084839419601
 30
0.0
 11
7615.76985579035
 21
2711.084839419601
 31
0.0
  0
LINE
  5
18802
330
18408
100
AcDbEntity
  8
SUNPOU
100
AcDbLine
 10
7910.12325179111
 20
3191.084839419597
 30
0.0
 11
7615.76985579035
 21
3191.084839419597
 31
0.0
  0
LINE
  5
18803
330
18408
100
AcDbEntity
  8
SUNPOU
100
AcDbLine
 10
7660.769855790352
 20
2726.084839419601
 30
0.0
 11
7660.769855790352
 21
3176.084839419596
 31
0.0
  0
LINE
  5
18804
330
18408
100
AcDbEntity
  8
SUNPOU
100
AcDbLine
 10
7910.12325179111
 20
3319.084839419601
 30
0.0
 11
7615.76985579035
 21
3319.084839419601
 31
0.0
  0
LINE
  5
18805
330
18408
100
AcDbEntity
  8
SUNPOU
100
AcDbLine
 10
7910.12325179111
 20
3456.684839419605
 30
0.0
 11
7615.76985579035
 21
3456.684839419605
 31
0.0
  0
LINE
  5
18806
330
18408
100
AcDbEntity
  8
SUNPOU
100
AcDbLine
 10
7660.769855790352
 20
3334.0848394196
 30
0.0
 11
7660.769855790352
 21
3441.684839419605
 31
0.0
  0
LINE
  5
18807
330
18408
100
AcDbEntity
  8
SUNPOU
100
AcDbLine
 10
7660.769855790352
 20
3456.684839419605
 30
0.0
 11
7660.769855790352
 21
3658.827696562461
 31
0.0
  0
LINE
  5
18808
330
18408
100
AcDbEntity
  8
SUNPOU
100
AcDbLine
 10
7910.12325179111
 20
3319.084839419601
 30
0.0
 11
7615.769855790354
 21
3319.084839419601
 31
0.0
  0
LINE
  5
18809
330
18408
100
AcDbEntity
  8
SUNPOU
100
AcDbLine
 10
7910.12325179111
 20
3191.084839419597
 30
0.0
 11
7615.769855790354
 21
3191.084839419597
 31
0.0
  0
LINE
  5
1880A
330
18408
100
AcDbEntity
  8
SUNPOU
100
AcDbLine
 10
7660.769855790352
 20
3304.0848394196
 30
0.0
 11
7660.769855790352
 21
3206.084839419597
 31
0.0
  0
LINE
  5
1880B
330
18408
100
AcDbEntity
  8
SUNPOU
100
AcDbLine
 10
7750.123251791109
 20
2711.084839419601
 30
0.0
 11
7615.76985579035
 21
2711.084839419601
 31
0.0
  0
LINE
  5
1880C
330
18408
100
AcDbEntity
  8
SUNPOU
100
AcDbLine
 10
7750.123251791109
 20
2551.084839419598
 30
0.0
 11
7615.76985579035
 21
2551.084839419598
 31
0.0
  0
LINE
  5
1880D
330
18408
100
AcDbEntity
  8
SUNPOU
100
AcDbLine
 10
7660.769855790352
 20
2696.084839419601
 30
0.0
 11
7660.769855790352
 21
2566.084839419596
 31
0.0
  0
LINE
  5
1880E
330
18408
100
AcDbEntity
  8
SUNPOU
100
AcDbLine
 10
7660.769855790352
 20
2551.084839419598
 30
0.0
 11
7660.769855790352
 21
2300.370553705311
 31
0.0
  0
LINE
  5
1880F
330
18408
100
AcDbEntity
  8
SUNPOU
100
AcDbLine
 10
7750.123251791109
 20
2551.084839419598
 30
0.0
 11
7400.49893647658
 21
2551.084839419598
 31
0.0
  0
LINE
  5
18810
330
18408
100
AcDbEntity
  8
SUNPOU
100
AcDbLine
 10
8230.123251791111
 20
3456.684839419605
 30
0.0
 11
7400.49893647658
 21
3456.684839419605
 31
0.0
  0
LINE
  5
18811
330
18408
100
AcDbEntity
  8
SUNPOU
100
AcDbLine
 10
7445.498936476579
 20
2566.084839419596
 30
0.0
 11
7445.498936476579
 21
3441.684839419604
 31
0.0
  0
LINE
  5
18812
330
18408
100
AcDbEntity
  8
SUNPOU
100
AcDbLine
 10
7404.127507899642
 20
8143.243182432323
 30
0.0
 11
7494.127507899642
 21
8158.243182432324
 31
0.0
  0
LINE
  5
18813
330
18408
100
AcDbEntity
  8
SUNPOU
100
AcDbLine
 10
7494.127507899642
 20
8158.243182432324
 30
0.0
 11
7404.127507899642
 21
8173.243182432326
 31
0.0
  0
SOLID
  5
18814
330
18408
100
AcDbEntity
  8
SUNPOU
100
AcDbTrace
 10
7404.127507899642
 20
8143.243182432323
 30
0.0
 11
7404.127507899642
 21
8173.243182432326
 31
0.0
 12
7494.127507899642
 22
8158.243182432324
 32
0.0
 13
7494.127507899642
 23
8158.243182432324
 33
0.0
  0
LINE
  5
18815
330
18408
100
AcDbEntity
  8
SUNPOU
100
AcDbLine
 10
7404.127507899642
 20
8173.243182432326
 30
0.0
 11
7404.127507899642
 21
8143.243182432323
 31
0.0
  0
LINE
  5
18816
330
18408
100
AcDbEntity
  8
SUNPOU
100
AcDbLine
 10
7404.127507899642
 20
9273.243182432329
 30
0.0
 11
7494.127507899642
 21
9258.24318243233
 31
0.0
  0
LINE
  5
18817
330
18408
100
AcDbEntity
  8
SUNPOU
100
AcDbLine
 10
7494.127507899642
 20
9258.24318243233
 30
0.0
 11
7404.127507899642
 21
9243.24318243233
 31
0.0
  0
SOLID
  5
18818
330
18408
100
AcDbEntity
  8
SUNPOU
100
AcDbTrace
 10
7404.127507899642
 20
9273.243182432329
 30
0.0
 11
7404.127507899642
 21
9243.24318243233
 31
0.0
 12
7494.127507899642
 22
9258.24318243233
 32
0.0
 13
7494.127507899642
 23
9258.24318243233
 33
0.0
  0
LINE
  5
18819
330
18408
100
AcDbEntity
  8
SUNPOU
100
AcDbLine
 10
7404.127507899642
 20
9243.24318243233
 30
0.0
 11
7404.127507899642
 21
9273.243182432329
 31
0.0
  0
LINE
  5
1881A
330
18408
100
AcDbEntity
  8
SUNPOU
100
AcDbLine
 10
11221.33837406209
 20
3588.337036584561
 30
0.0
 11
11221.33837406209
 21
3139.170862655058
 31
0.0
  0
LINE
  5
1881B
330
18408
100
AcDbEntity
  8
SUNPOU
100
AcDbLine
 10
11861.33837406209
 20
3588.337036584561
 30
0.0
 11
11861.33837406209
 21
3139.170862655058
 31
0.0
  0
LINE
  5
1881C
330
18408
100
AcDbEntity
  8
SUNPOU
100
AcDbLine
 10
11236.33837406209
 20
3184.170862655058
 30
0.0
 11
11846.33837406209
 21
3184.170862655058
 31
0.0
  0
LINE
  5
1881D
330
18408
100
AcDbEntity
  8
SUNPOU
100
AcDbLine
 10
11301.33837406211
 20
3548.33703658456
 30
0.0
 11
11301.33837406211
 21
3349.170862655058
 31
0.0
  0
LINE
  5
1881E
330
18408
100
AcDbEntity
  8
SUNPOU
100
AcDbLine
 10
11221.33837406209
 20
3588.337036584561
 30
0.0
 11
11221.33837406209
 21
3349.170862655058
 31
0.0
  0
LINE
  5
1881F
330
18408
100
AcDbEntity
  8
SUNPOU
100
AcDbLine
 10
11316.33837406211
 20
3394.170862655057
 30
0.0
 11
11331.3383740621
 21
3394.170862655057
 31
0.0
  0
LINE
  5
18820
330
18408
100
AcDbEntity
  8
SUNPOU
100
AcDbLine
 10
11206.33837406209
 20
3394.170862655057
 30
0.0
 11
11004.19551691924
 21
3394.170862655057
 31
0.0
  0
LINE
  5
18821
330
18408
100
AcDbEntity
  8
SUNPOU
100
AcDbLine
 10
11301.33837406211
 20
3394.170862655057
 30
0.0
 11
11221.33837406209
 21
3394.170862655057
 31
0.0
  0
LINE
  5
18822
330
18408
100
AcDbEntity
  8
SUNPOU
100
AcDbLine
 10
11301.33837406211
 20
3548.33703658456
 30
0.0
 11
11301.33837406211
 21
3349.170862655058
 31
0.0
  0
LINE
  5
18823
330
18408
100
AcDbEntity
  8
SUNPOU
100
AcDbLine
 10
11781.33837406209
 20
3548.33703658456
 30
0.0
 11
11781.33837406209
 21
3349.170862655058
 31
0.0
  0
LINE
  5
18824
330
18408
100
AcDbEntity
  8
SUNPOU
100
AcDbLine
 10
11316.33837406211
 20
3394.170862655057
 30
0.0
 11
11766.33837406209
 21
3394.170862655057
 31
0.0
  0
LINE
  5
18825
330
18408
100
AcDbEntity
  8
SUNPOU
100
AcDbLine
 10
11781.33837406209
 20
3548.33703658456
 30
0.0
 11
11781.33837406209
 21
3349.170862655058
 31
0.0
  0
LINE
  5
18826
330
18408
100
AcDbEntity
  8
SUNPOU
100
AcDbLine
 10
11861.33837406209
 20
3588.337036584561
 30
0.0
 11
11861.33837406209
 21
3349.170862655058
 31
0.0
  0
LINE
  5
18827
330
18408
100
AcDbEntity
  8
SUNPOU
100
AcDbLine
 10
11766.33837406209
 20
3394.170862655057
 30
0.0
 11
11751.33837406209
 21
3394.170862655057
 31
0.0
  0
LINE
  5
18828
330
18408
100
AcDbEntity
  8
SUNPOU
100
AcDbLine
 10
11876.33837406208
 20
3394.170862655057
 30
0.0
 11
12078.48123120495
 21
3394.170862655057
 31
0.0
  0
LINE
  5
18829
330
18408
100
AcDbEntity
  8
SUNPOU
100
AcDbLine
 10
11781.33837406209
 20
3394.170862655057
 30
0.0
 11
11861.33837406209
 21
3394.170862655057
 31
0.0
  0
LINE
  5
1882A
330
18408
100
AcDbEntity
  8
SUNPOU
100
AcDbLine
 10
11191.33837406208
 20
2540.144344053149
 30
0.0
 11
10663.33837406209
 21
2540.144344053149
 31
0.0
  0
LINE
  5
1882B
330
18408
100
AcDbEntity
  8
SUNPOU
100
AcDbLine
 10
11191.33837406208
 20
2860.144344053149
 30
0.0
 11
10663.33837406209
 21
2860.144344053149
 31
0.0
  0
LINE
  5
1882C
330
18408
100
AcDbEntity
  8
SUNPOU
100
AcDbLine
 10
10708.33837406208
 20
2555.144344053149
 30
0.0
 11
10708.33837406208
 21
2845.144344053149
 31
0.0
  0
LINE
  5
1882D
330
18408
100
AcDbEntity
  8
SUNPOU
100
AcDbLine
 10
11195.33837406209
 20
2700.144344053149
 30
0.0
 11
10873.33837406209
 21
2700.144344053149
 31
0.0
  0
LINE
  5
1882E
330
18408
100
AcDbEntity
  8
SUNPOU
100
AcDbLine
 10
11191.33837406208
 20
2860.144344053149
 30
0.0
 11
10873.33837406209
 21
2860.144344053149
 31
0.0
  0
LINE
  5
1882F
330
18408
100
AcDbEntity
  8
SUNPOU
100
AcDbLine
 10
10918.33837406209
 20
2715.144344053149
 30
0.0
 11
10918.33837406209
 21
2845.144344053149
 31
0.0
  0
LINE
  5
18830
330
18408
100
AcDbEntity
  8
SUNPOU
100
AcDbLine
 10
10918.33837406209
 20
2860.144344053149
 30
0.0
 11
10918.33837406209
 21
3062.287201196007
 31
0.0
  0
LINE
  5
18831
330
18408
100
AcDbEntity
  8
SUNPOU
100
AcDbLine
 10
11195.33837406209
 20
2700.144344053149
 30
0.0
 11
10873.33837406209
 21
2700.144344053149
 31
0.0
  0
LINE
  5
18832
330
18408
100
AcDbEntity
  8
SUNPOU
100
AcDbLine
 10
11191.33837406208
 20
2540.144344053149
 30
0.0
 11
10873.33837406209
 21
2540.144344053149
 31
0.0
  0
LINE
  5
18833
330
18408
100
AcDbEntity
  8
SUNPOU
100
AcDbLine
 10
10918.33837406209
 20
2685.144344053149
 30
0.0
 11
10918.33837406209
 21
2555.144344053149
 31
0.0
  0
LINE
  5
18834
330
18408
100
AcDbEntity
  8
SUNPOU
100
AcDbLine
 10
10918.33837406209
 20
2540.144344053149
 30
0.0
 11
10918.33837406209
 21
2338.001486910291
 31
0.0
  0
LINE
  5
18835
330
18408
100
AcDbEntity
  8
SUNPOU
100
AcDbLine
 10
11221.33837406209
 20
2510.144344053149
 30
0.0
 11
11221.33837406209
 21
1990.804976716086
 31
0.0
  0
LINE
  5
18836
330
18408
100
AcDbEntity
  8
SUNPOU
100
AcDbLine
 10
11861.33837406209
 20
2510.144344053149
 30
0.0
 11
11861.33837406209
 21
1990.804976716086
 31
0.0
  0
LINE
  5
18837
330
18408
100
AcDbEntity
  8
SUNPOU
100
AcDbLine
 10
11236.33837406209
 20
2035.804976716086
 30
0.0
 11
11846.33837406209
 21
2035.804976716086
 31
0.0
  0
LINE
  5
18838
330
18408
100
AcDbEntity
  8
SUNPOU
100
AcDbLine
 10
11301.33837406211
 20
2470.144344053149
 30
0.0
 11
11301.33837406211
 21
2200.804976716085
 31
0.0
  0
LINE
  5
18839
330
18408
100
AcDbEntity
  8
SUNPOU
100
AcDbLine
 10
11221.33837406209
 20
2510.144344053149
 30
0.0
 11
11221.33837406209
 21
2200.804976716085
 31
0.0
  0
LINE
  5
1883A
330
18408
100
AcDbEntity
  8
SUNPOU
100
AcDbLine
 10
11316.33837406211
 20
2245.804976716085
 30
0.0
 11
11331.3383740621
 21
2245.804976716085
 31
0.0
  0
LINE
  5
1883B
330
18408
100
AcDbEntity
  8
SUNPOU
100
AcDbLine
 10
11206.33837406209
 20
2245.804976716085
 30
0.0
 11
11004.19551691924
 21
2245.804976716085
 31
0.0
  0
LINE
  5
1883C
330
18408
100
AcDbEntity
  8
SUNPOU
100
AcDbLine
 10
11301.33837406211
 20
2245.804976716085
 30
0.0
 11
11221.33837406209
 21
2245.804976716085
 31
0.0
  0
LINE
  5
1883D
330
18408
100
AcDbEntity
  8
SUNPOU
100
AcDbLine
 10
11301.33837406211
 20
2470.144344053149
 30
0.0
 11
11301.33837406211
 21
2200.804976716085
 31
0.0
  0
LINE
  5
1883E
330
18408
100
AcDbEntity
  8
SUNPOU
100
AcDbLine
 10
11781.33837406209
 20
2470.144344053149
 30
0.0
 11
11781.33837406209
 21
2200.804976716085
 31
0.0
  0
LINE
  5
1883F
330
18408
100
AcDbEntity
  8
SUNPOU
100
AcDbLine
 10
11316.33837406211
 20
2245.804976716085
 30
0.0
 11
11766.33837406209
 21
2245.804976716085
 31
0.0
  0
LINE
  5
18840
330
18408
100
AcDbEntity
  8
SUNPOU
100
AcDbLine
 10
11781.33837406209
 20
2470.144344053149
 30
0.0
 11
11781.33837406209
 21
2200.804976716085
 31
0.0
  0
LINE
  5
18841
330
18408
100
AcDbEntity
  8
SUNPOU
100
AcDbLine
 10
11861.33837406209
 20
2510.144344053149
 30
0.0
 11
11861.33837406209
 21
2200.804976716085
 31
0.0
  0
LINE
  5
18842
330
18408
100
AcDbEntity
  8
SUNPOU
100
AcDbLine
 10
11766.33837406209
 20
2245.804976716085
 30
0.0
 11
11751.33837406209
 21
2245.804976716085
 31
0.0
  0
LINE
  5
18843
330
18408
100
AcDbEntity
  8
SUNPOU
100
AcDbLine
 10
11876.33837406208
 20
2245.804976716085
 30
0.0
 11
12078.48123120495
 21
2245.804976716085
 31
0.0
  0
LINE
  5
18844
330
18408
100
AcDbEntity
  8
SUNPOU
100
AcDbLine
 10
11781.33837406209
 20
2245.804976716085
 30
0.0
 11
11861.33837406209
 21
2245.804976716085
 31
0.0
  0
LINE
  5
18845
330
18408
100
AcDbEntity
  8
SUNPOU
100
AcDbLine
 10
11635.33837406208
 20
3726.33703658456
 30
0.0
 11
12318.40680314955
 21
3726.33703658456
 31
0.0
  0
LINE
  5
18846
330
18408
100
AcDbEntity
  8
SUNPOU
100
AcDbLine
 10
11891.33837406209
 20
3618.337036584561
 30
0.0
 11
12318.40680314955
 21
3618.337036584561
 31
0.0
  0
LINE
  5
18847
330
18408
100
AcDbEntity
  8
SUNPOU
100
AcDbLine
 10
12273.40680314955
 20
3741.33703658456
 30
0.0
 11
12273.40680314955
 21
3756.337036584561
 31
0.0
  0
LINE
  5
18848
330
18408
100
AcDbEntity
  8
SUNPOU
100
AcDbLine
 10
12273.40680314955
 20
3603.337036584561
 30
0.0
 11
12273.40680314955
 21
3401.194179441703
 31
0.0
  0
LINE
  5
18849
330
18408
100
AcDbEntity
  8
SUNPOU
100
AcDbLine
 10
12273.40680314955
 20
3726.33703658456
 30
0.0
 11
12273.40680314955
 21
3618.337036584561
 31
0.0
  0
LINE
  5
1884A
330
18408
100
AcDbEntity
  8
SUNPOU
100
AcDbLine
 10
11635.33837406208
 20
3726.33703658456
 30
0.0
 11
12318.40680314955
 21
3726.33703658456
 31
0.0
  0
LINE
  5
1884B
330
18408
100
AcDbEntity
  8
SUNPOU
100
AcDbLine
 10
11635.33837406208
 20
3886.33703658456
 30
0.0
 11
12318.40680314955
 21
3886.33703658456
 31
0.0
  0
LINE
  5
1884C
330
18408
100
AcDbEntity
  8
SUNPOU
100
AcDbLine
 10
12273.40680314955
 20
3741.33703658456
 30
0.0
 11
12273.40680314955
 21
3871.337036584561
 31
0.0
  0
LINE
  5
1884D
330
18408
100
AcDbEntity
  8
SUNPOU
100
AcDbLine
 10
12273.40680314955
 20
3886.33703658456
 30
0.0
 11
12273.40680314955
 21
4088.479893727416
 31
0.0
  0
LINE
  5
1884E
330
18408
100
AcDbEntity
  8
SUNPOU
100
AcDbLine
 10
10074.12750789964
 20
8908.243182432325
 30
0.0
 11
10489.12750789964
 21
8908.243182432325
 31
0.0
  0
LINE
  5
1884F
330
18408
100
AcDbEntity
  8
SUNPOU
100
AcDbLine
 10
10219.12750789964
 20
8708.243182432324
 30
0.0
 11
10489.12750789964
 21
8708.243182432324
 31
0.0
  0
LINE
  5
18850
330
18408
100
AcDbEntity
  8
SUNPOU
100
AcDbLine
 10
10444.12750789964
 20
8893.243182432325
 30
0.0
 11
10444.12750789964
 21
8723.243182432325
 31
0.0
  0
LINE
  5
18851
330
18408
100
AcDbEntity
  8
SUNPOU
100
AcDbLine
 10
10444.12750789964
 20
8708.243182432324
 30
0.0
 11
10444.12750789964
 21
8448.957468146613
 31
0.0
  0
LINE
  5
18852
330
18408
100
AcDbEntity
  8
SUNPOU
100
AcDbLine
 10
10074.12750789964
 20
8908.243182432325
 30
0.0
 11
10489.12750789964
 21
8908.243182432325
 31
0.0
  0
LINE
  5
18853
330
18408
100
AcDbEntity
  8
SUNPOU
100
AcDbLine
 10
10074.12750789964
 20
9108.243182432325
 30
0.0
 11
10489.12750789964
 21
9108.243182432325
 31
0.0
  0
LINE
  5
18854
330
18408
100
AcDbEntity
  8
SUNPOU
100
AcDbLine
 10
10444.12750789964
 20
8923.243182432328
 30
0.0
 11
10444.12750789964
 21
9093.243182432329
 31
0.0
  0
LINE
  5
18855
330
18408
100
AcDbEntity
  8
SUNPOU
100
AcDbLine
 10
10444.12750789964
 20
9108.243182432325
 30
0.0
 11
10444.12750789964
 21
9367.52889671804
 31
0.0
  0
LINE
  5
18856
330
18408
100
AcDbEntity
  8
SUNPOU
100
AcDbLine
 10
9244.127507899641
 20
8278.243182432325
 30
0.0
 11
9244.127507899641
 21
7963.243182432326
 31
0.0
  0
LINE
  5
18857
330
18408
100
AcDbEntity
  8
SUNPOU
100
AcDbLine
 10
10044.12750789964
 20
8278.243182432325
 30
0.0
 11
10044.12750789964
 21
7963.243182432326
 31
0.0
  0
LINE
  5
18858
330
18408
100
AcDbEntity
  8
SUNPOU
100
AcDbLine
 10
9259.12750789964
 20
8008.243182432327
 30
0.0
 11
10029.12750789964
 21
8008.243182432327
 31
0.0
  0
LINE
  5
18859
330
18408
100
AcDbEntity
  8
SUNPOU
100
AcDbLine
 10
9214.12750789964
 20
9108.243182432325
 30
0.0
 11
8899.12750789964
 21
9108.243182432325
 31
0.0
  0
LINE
  5
1885A
330
18408
100
AcDbEntity
  8
SUNPOU
100
AcDbLine
 10
9214.12750789964
 20
8308.243182432326
 30
0.0
 11
8899.12750789964
 21
8308.243182432326
 31
0.0
  0
LINE
  5
1885B
330
18408
100
AcDbEntity
  8
SUNPOU
100
AcDbLine
 10
8944.127507899642
 20
9093.243182432329
 30
0.0
 11
8944.127507899642
 21
8323.243182432326
 31
0.0
  0
LINE
  5
1885C
330
18408
100
AcDbEntity
  8
SUNPOU
100
AcDbLine
 10
10864.12750789964
 20
9096.993182432326
 30
0.0
 11
10864.12750789964
 21
9085.743182432326
 31
0.0
  0
LINE
  5
1885D
330
18408
100
AcDbEntity
  8
SUNPOU
100
AcDbLine
 10
10654.12750789964
 20
9096.993182432326
 30
0.0
 11
10654.12750789964
 21
9085.743182432326
 31
0.0
  0
LINE
  5
1885E
330
18408
100
AcDbEntity
  8
SUNPOU
100
AcDbLine
 10
10654.12750789964
 20
8696.993182432326
 30
0.0
 11
10654.12750789964
 21
8685.743182432325
 31
0.0
  0
LINE
  5
1885F
330
18408
100
AcDbEntity
  8
SUNPOU
100
AcDbLine
 10
10654.12750789964
 20
8719.493182432325
 30
0.0
 11
10654.12750789964
 21
8730.743182432325
 31
0.0
  0
LINE
  5
18860
330
18408
100
AcDbEntity
  8
SUNPOU
100
AcDbLine
 10
10654.12750789964
 20
6919.493182432326
 30
0.0
 11
10654.12750789964
 21
6930.743182432327
 31
0.0
  0
LINE
  5
18861
330
18408
100
AcDbEntity
  8
SUNPOU
100
AcDbLine
 10
10654.12750789964
 20
6896.993182432327
 30
0.0
 11
10654.12750789964
 21
6885.743182432327
 31
0.0
  0
LINE
  5
18862
330
18408
100
AcDbEntity
  8
SUNPOU
100
AcDbLine
 10
10864.12750789964
 20
6519.493182432326
 30
0.0
 11
10864.12750789964
 21
6530.743182432328
 31
0.0
  0
LINE
  5
18863
330
18408
100
AcDbEntity
  8
SUNPOU
100
AcDbLine
 10
10654.12750789964
 20
6519.493182432326
 30
0.0
 11
10654.12750789964
 21
6530.743182432328
 31
0.0
  0
LINE
  5
18864
330
18408
100
AcDbEntity
  8
SUNPOU
100
AcDbLine
 10
9644.127507899641
 20
9338.243182432325
 30
0.0
 11
9644.127507899641
 21
9453.243182432325
 31
0.0
  0
LINE
  5
18865
330
18408
100
AcDbEntity
  8
SUNPOU
100
AcDbLine
 10
10044.12750789964
 20
9138.243182432324
 30
0.0
 11
10044.12750789964
 21
9453.243182432325
 31
0.0
  0
LINE
  5
18866
330
18408
100
AcDbEntity
  8
SUNPOU
100
AcDbLine
 10
9659.12750789964
 20
9408.243182432325
 30
0.0
 11
10029.12750789964
 21
9408.243182432325
 31
0.0
  0
LINE
  5
18867
330
18408
100
AcDbEntity
  8
SUNPOU
100
AcDbLine
 10
9644.127507899641
 20
9338.243182432325
 30
0.0
 11
9644.127507899641
 21
9453.243182432325
 31
0.0
  0
LINE
  5
18868
330
18408
100
AcDbEntity
  8
SUNPOU
100
AcDbLine
 10
7194.127507899643
 20
9338.243182432325
 30
0.0
 11
7194.127507899643
 21
9453.243182432325
 31
0.0
  0
LINE
  5
18869
330
18408
100
AcDbEntity
  8
SUNPOU
100
AcDbLine
 10
9629.127507899641
 20
9408.243182432325
 30
0.0
 11
7209.127507899641
 21
9408.243182432325
 31
0.0
  0
LINE
  5
1886A
330
18408
100
AcDbEntity
  8
SUNPOU
100
AcDbLine
 10
7819.127507899643
 20
7118.243182432327
 30
0.0
 11
7804.127507899638
 21
7208.243182432326
 31
0.0
  0
LINE
  5
1886B
330
18408
100
AcDbEntity
  8
SUNPOU
100
AcDbLine
 10
7804.127507899638
 20
7208.243182432326
 30
0.0
 11
7789.127507899637
 21
7118.243182432327
 31
0.0
  0
SOLID
  5
1886C
330
18408
100
AcDbEntity
  8
SUNPOU
100
AcDbTrace
 10
7819.127507899643
 20
7118.243182432327
 30
0.0
 11
7789.127507899637
 21
7118.243182432327
 31
0.0
 12
7804.127507899638
 22
7208.243182432326
 32
0.0
 13
7804.127507899638
 23
7208.243182432326
 33
0.0
  0
LINE
  5
1886D
330
18408
100
AcDbEntity
  8
SUNPOU
100
AcDbLine
 10
7789.127507899637
 20
7118.243182432327
 30
0.0
 11
7819.127507899643
 21
7118.243182432327
 31
0.0
  0
LINE
  5
1886E
330
18408
100
AcDbEntity
  8
SUNPOU
100
AcDbLine
 10
6569.127507899638
 20
7118.243182432327
 30
0.0
 11
6584.127507899639
 21
7208.243182432326
 31
0.0
  0
LINE
  5
1886F
330
18408
100
AcDbEntity
  8
SUNPOU
100
AcDbLine
 10
6584.127507899639
 20
7208.243182432326
 30
0.0
 11
6599.127507899638
 21
7118.243182432327
 31
0.0
  0
SOLID
  5
18870
330
18408
100
AcDbEntity
  8
SUNPOU
100
AcDbTrace
 10
6569.127507899638
 20
7118.243182432327
 30
0.0
 11
6599.127507899638
 21
7118.243182432327
 31
0.0
 12
6584.127507899639
 22
7208.243182432326
 32
0.0
 13
6584.127507899639
 23
7208.243182432326
 33
0.0
  0
LINE
  5
18871
330
18408
100
AcDbEntity
  8
SUNPOU
100
AcDbLine
 10
6599.127507899638
 20
7118.243182432327
 30
0.0
 11
6569.127507899638
 21
7118.243182432327
 31
0.0
  0
LINE
  5
18872
330
18408
100
AcDbEntity
  8
SUNPOU
100
AcDbLine
 10
7194.127507899643
 20
9338.243182432325
 30
0.0
 11
7194.127507899643
 21
9453.243182432325
 31
0.0
  0
LINE
  5
18873
330
18408
100
AcDbEntity
  8
SUNPOU
100
AcDbLine
 10
6794.127507899642
 20
9138.243182432324
 30
0.0
 11
6794.127507899642
 21
9453.243182432325
 31
0.0
  0
LINE
  5
18874
330
18408
100
AcDbEntity
  8
SUNPOU
100
AcDbLine
 10
7179.127507899639
 20
9408.243182432325
 30
0.0
 11
6809.12750789964
 21
9408.243182432325
 31
0.0
  0
LINE
  5
18875
330
18408
100
AcDbEntity
  8
SUNPOU
100
AcDbLine
 10
6794.127507899642
 20
9138.243182432324
 30
0.0
 11
6794.127507899642
 21
9663.243182432324
 31
0.0
  0
LINE
  5
18876
330
18408
100
AcDbEntity
  8
SUNPOU
100
AcDbLine
 10
10044.12750789964
 20
9138.243182432324
 30
0.0
 11
10044.12750789964
 21
9663.243182432324
 31
0.0
  0
LINE
  5
18877
330
18408
100
AcDbEntity
  8
SUNPOU
100
AcDbLine
 10
6809.12750789964
 20
9618.243182432324
 30
0.0
 11
10029.12750789964
 21
9618.243182432324
 31
0.0
  0
TEXT
  5
18878
330
18408
100
AcDbEntity
  8
SUNPOU
100
AcDbText
 10
3835.443655266704
 20
2865.370553705314
 30
0.0
 40
90.0
  1
300
 50
90.0
 41
0.6666666666666666
  7
00
100
AcDbText
  0
LINE
  5
18879
330
18408
100
AcDbEntity
  8
SUNPOU
100
AcDbLine
 10
3880.443655266704
 20
3179.834839419596
 30
0.0
 11
3880.443655266704
 21
3168.584839419597
 31
0.0
  0
LINE
  5
1887A
330
18408
100
AcDbEntity
  8
SUNPOU
100
AcDbLine
 10
3880.443655266704
 20
2722.334839419601
 30
0.0
 11
3880.443655266704
 21
2733.584839419601
 31
0.0
  0
TEXT
  5
1887B
330
18408
100
AcDbEntity
  8
SUNPOU
100
AcDbText
 10
3835.443655266704
 20
3508.113410848177
 30
0.0
 40
90.0
  1
80
 50
90.0
 41
0.6666666666666666
  7
00
100
AcDbText
  0
LINE
  5
1887C
330
18408
100
AcDbEntity
  8
SUNPOU
100
AcDbLine
 10
3880.443655266704
 20
3445.434839419605
 30
0.0
 11
3880.443655266704
 21
3434.184839419605
 31
0.0
  0
LINE
  5
1887D
330
18408
100
AcDbEntity
  8
SUNPOU
100
AcDbLine
 10
3880.443655266704
 20
3330.3348394196
 30
0.0
 11
3880.443655266704
 21
3341.584839419601
 31
0.0
  0
TEXT
  5
1887E
330
18408
100
AcDbEntity
  8
SUNPOU
100
AcDbText
 10
3835.443655266704
 20
3197.941982276741
 30
0.0
 40
90.0
  1
80
 50
90.0
 41
0.6666666666666666
  7
00
100
AcDbText
  0
LINE
  5
1887F
330
18408
100
AcDbEntity
  8
SUNPOU
100
AcDbLine
 10
3880.443655266705
 20
3202.334839419596
 30
0.0
 11
3880.443655266705
 21
3213.584839419597
 31
0.0
  0
LINE
  5
18880
330
18408
100
AcDbEntity
  8
SUNPOU
100
AcDbLine
 10
3880.443655266705
 20
3307.8348394196
 30
0.0
 11
3880.443655266705
 21
3296.5848394196
 31
0.0
  0
TEXT
  5
18881
330
18408
100
AcDbEntity
  8
SUNPOU
100
AcDbText
 10
3415.443655266705
 20
3523.113410848177
 30
0.0
 40
90.0
  1
50
 50
90.0
 41
0.6666666666666666
  7
00
100
AcDbText
  0
LINE
  5
18882
330
18408
100
AcDbEntity
  8
SUNPOU
100
AcDbLine
 10
3460.443655266704
 20
3467.934839419605
 30
0.0
 11
3460.443655266704
 21
3479.184839419605
 31
0.0
  0
LINE
  5
18883
330
18408
100
AcDbEntity
  8
SUNPOU
100
AcDbLine
 10
3460.443655266704
 20
3365.434839419604
 30
0.0
 11
3460.443655266704
 21
3354.184839419604
 31
0.0
  0
TEXT
  5
18884
330
18408
100
AcDbEntity
  8
SUNPOU
100
AcDbText
 10
3835.993474569397
 20
2326.927273218552
 30
0.0
 40
90.0
  1
100
 50
90.0
 41
0.6666666666666666
  7
00
100
AcDbText
  0
LINE
  5
18885
330
18408
100
AcDbEntity
  8
SUNPOU
100
AcDbLine
 10
3880.993474569399
 20
2562.334839419601
 30
0.0
 11
3880.993474569399
 21
2573.584839419601
 31
0.0
  0
LINE
  5
18886
330
18408
100
AcDbEntity
  8
SUNPOU
100
AcDbLine
 10
3880.993474569399
 20
2699.834839419601
 30
0.0
 11
3880.993474569399
 21
2688.584839419601
 31
0.0
  0
TEXT
  5
18887
330
18408
100
AcDbEntity
  8
SUNPOU
100
AcDbText
 10
3619.240902195488
 20
2918.170553705319
 30
0.0
 40
90.0
  1
560
 50
90.0
 41
0.6666666666666666
  7
00
100
AcDbText
  0
LINE
  5
18888
330
18408
100
AcDbEntity
  8
SUNPOU
100
AcDbLine
 10
3664.240902195488
 20
2562.334839419601
 30
0.0
 11
3664.240902195488
 21
2573.584839419601
 31
0.0
  0
LINE
  5
18889
330
18408
100
AcDbEntity
  8
SUNPOU
100
AcDbLine
 10
3664.240902195489
 20
3445.434839419605
 30
0.0
 11
3664.240902195489
 21
3434.184839419605
 31
0.0
  0
TEXT
  5
1888A
330
18408
100
AcDbEntity
  8
SUNPOU
100
AcDbText
 10
4394.082765553178
 20
4175.485411556191
 30
0.0
 40
90.0
  1
400
 41
0.6666666666666666
  7
00
100
AcDbText
  0
LINE
  5
1888B
330
18408
100
AcDbEntity
  8
SUNPOU
100
AcDbLine
 10
4171.047051267463
 20
4130.485411556192
 30
0.0
 11
4182.297051267464
 21
4130.485411556192
 31
0.0
  0
LINE
  5
1888C
330
18408
100
AcDbEntity
  8
SUNPOU
100
AcDbLine
 10
4788.547051267463
 20
4130.485411556192
 30
0.0
 11
4777.297051267463
 21
4130.485411556192
 31
0.0
  0
TEXT
  5
1888D
330
18408
100
AcDbEntity
  8
SUNPOU
100
AcDbText
 10
4681.225622696032
 20
1983.6848394196
 30
0.0
 40
90.0
  1
1000
 41
0.6666666666666666
  7
00
100
AcDbText
  0
LINE
  5
1888E
330
18408
100
AcDbEntity
  8
SUNPOU
100
AcDbLine
 10
5588.547051267462
 20
1938.6848394196
 30
0.0
 11
5577.297051267462
 21
1938.6848394196
 31
0.0
  0
LINE
  5
1888F
330
18408
100
AcDbEntity
  8
SUNPOU
100
AcDbLine
 10
4011.04705126746
 20
1938.6848394196
 30
0.0
 11
4022.297051267461
 21
1938.6848394196
 31
0.0
  0
TEXT
  5
18890
330
18408
100
AcDbEntity
  8
SUNPOU
100
AcDbText
 10
4714.082765553178
 20
2193.684839419601
 30
0.0
 40
90.0
  1
800
 41
0.6666666666666666
  7
00
100
AcDbText
  0
LINE
  5
18891
330
18408
100
AcDbEntity
  8
SUNPOU
100
AcDbLine
 10
5428.547051267464
 20
2148.684839419601
 30
0.0
 11
5417.297051267464
 21
2148.684839419601
 31
0.0
  0
LINE
  5
18892
330
18408
100
AcDbEntity
  8
SUNPOU
100
AcDbLine
 10
4171.047051267463
 20
2148.684839419601
 30
0.0
 11
4182.297051267464
 21
2148.684839419601
 31
0.0
  0
TEXT
  5
18893
330
18408
100
AcDbEntity
  8
SUNPOU
100
AcDbText
 10
8334.408966076827
 20
4175.485411556194
 30
0.0
 40
90.0
  1
200
 41
0.6666666666666666
  7
00
100
AcDbText
  0
LINE
  5
18894
330
18408
100
AcDbEntity
  8
SUNPOU
100
AcDbLine
 10
8271.373251791111
 20
4130.485411556196
 30
0.0
 11
8282.623251791111
 21
4130.485411556196
 31
0.0
  0
LINE
  5
18895
330
18408
100
AcDbEntity
  8
SUNPOU
100
AcDbLine
 10
8568.87325179111
 20
4130.485411556196
 30
0.0
 11
8557.623251791111
 21
4130.485411556196
 31
0.0
  0
TEXT
  5
18896
330
18408
100
AcDbEntity
  8
SUNPOU
100
AcDbText
 10
7195.769855790351
 20
3523.113410848177
 30
0.0
 40
90.0
  1
50
 50
90.0
 41
0.6666666666666666
  7
00
100
AcDbText
  0
LINE
  5
18897
330
18408
100
AcDbEntity
  8
SUNPOU
100
AcDbLine
 10
7240.76985579035
 20
3467.934839419604
 30
0.0
 11
7240.76985579035
 21
3479.184839419604
 31
0.0
  0
LINE
  5
18898
330
18408
100
AcDbEntity
  8
SUNPOU
100
AcDbLine
 10
7240.76985579035
 20
3365.434839419608
 30
0.0
 11
7240.76985579035
 21
3354.184839419608
 31
0.0
  0
TEXT
  5
18899
330
18408
100
AcDbEntity
  8
SUNPOU
100
AcDbText
 10
8461.551823219677
 20
1983.684839419604
 30
0.0
 40
90.0
  1
1000
 41
0.6666666666666666
  7
00
100
AcDbText
  0
LINE
  5
1889A
330
18408
100
AcDbEntity
  8
SUNPOU
100
AcDbLine
 10
9368.873251791109
 20
1938.684839419604
 30
0.0
 11
9357.623251791109
 21
1938.684839419604
 31
0.0
  0
LINE
  5
1889B
330
18408
100
AcDbEntity
  8
SUNPOU
100
AcDbLine
 10
7791.373251791107
 20
1938.684839419604
 30
0.0
 11
7802.623251791108
 21
1938.684839419604
 31
0.0
  0
TEXT
  5
1889C
330
18408
100
AcDbEntity
  8
SUNPOU
100
AcDbText
 10
8494.408966076823
 20
2193.684839419605
 30
0.0
 40
90.0
  1
800
 41
0.6666666666666666
  7
00
100
AcDbText
  0
LINE
  5
1889D
330
18408
100
AcDbEntity
  8
SUNPOU
100
AcDbLine
 10
9208.873251791109
 20
2148.684839419604
 30
0.0
 11
9197.623251791108
 21
2148.684839419604
 31
0.0
  0
LINE
  5
1889E
330
18408
100
AcDbEntity
  8
SUNPOU
100
AcDbLine
 10
7951.373251791109
 20
2148.684839419604
 30
0.0
 11
7962.623251791109
 21
2148.684839419604
 31
0.0
  0
TEXT
  5
1889F
330
18408
100
AcDbEntity
  8
SUNPOU
100
AcDbText
 10
7615.76985579035
 20
2865.370553705315
 30
0.0
 40
90.0
  1
300
 50
90.0
 41
0.6666666666666666
  7
00
100
AcDbText
  0
LINE
  5
188A0
330
18408
100
AcDbEntity
  8
SUNPOU
100
AcDbLine
 10
7660.769855790352
 20
3179.834839419596
 30
0.0
 11
7660.769855790352
 21
3168.584839419597
 31
0.0
  0
LINE
  5
188A1
330
18408
100
AcDbEntity
  8
SUNPOU
100
AcDbLine
 10
7660.769855790352
 20
2722.334839419601
 30
0.0
 11
7660.769855790352
 21
2733.584839419601
 31
0.0
  0
TEXT
  5
188A2
330
18408
100
AcDbEntity
  8
SUNPOU
100
AcDbText
 10
7615.76985579035
 20
3508.113410848177
 30
0.0
 40
90.0
  1
80
 50
90.0
 41
0.6666666666666666
  7
00
100
AcDbText
  0
LINE
  5
188A3
330
18408
100
AcDbEntity
  8
SUNPOU
100
AcDbLine
 10
7660.769855790352
 20
3445.434839419605
 30
0.0
 11
7660.769855790352
 21
3434.184839419605
 31
0.0
  0
LINE
  5
188A4
330
18408
100
AcDbEntity
  8
SUNPOU
100
AcDbLine
 10
7660.769855790352
 20
3330.3348394196
 30
0.0
 11
7660.769855790352
 21
3341.584839419601
 31
0.0
  0
TEXT
  5
188A5
330
18408
100
AcDbEntity
  8
SUNPOU
100
AcDbText
 10
7615.76985579035
 20
3197.941982276743
 30
0.0
 40
90.0
  1
80
 50
90.0
 41
0.6666666666666666
  7
00
100
AcDbText
  0
LINE
  5
188A6
330
18408
100
AcDbEntity
  8
SUNPOU
100
AcDbLine
 10
7660.769855790352
 20
3202.334839419596
 30
0.0
 11
7660.769855790352
 21
3213.584839419597
 31
0.0
  0
LINE
  5
188A7
330
18408
100
AcDbEntity
  8
SUNPOU
100
AcDbLine
 10
7660.769855790352
 20
3307.8348394196
 30
0.0
 11
7660.769855790352
 21
3296.5848394196
 31
0.0
  0
TEXT
  5
188A8
330
18408
100
AcDbEntity
  8
SUNPOU
100
AcDbText
 10
7615.76985579035
 20
2328.227696562456
 30
0.0
 40
90.0
  1
100
 50
90.0
 41
0.6666666666666666
  7
00
100
AcDbText
  0
LINE
  5
188A9
330
18408
100
AcDbEntity
  8
SUNPOU
100
AcDbLine
 10
7660.769855790352
 20
2562.334839419596
 30
0.0
 11
7660.769855790352
 21
2573.584839419597
 31
0.0
  0
LINE
  5
188AA
330
18408
100
AcDbEntity
  8
SUNPOU
100
AcDbLine
 10
7660.769855790352
 20
2699.834839419601
 30
0.0
 11
7660.769855790352
 21
2688.584839419601
 31
0.0
  0
TEXT
  5
188AB
330
18408
100
AcDbEntity
  8
SUNPOU
100
AcDbText
 10
7400.498936476577
 20
2918.170553705316
 30
0.0
 40
90.0
  1
560
 50
90.0
 41
0.6666666666666666
  7
00
100
AcDbText
  0
LINE
  5
188AC
330
18408
100
AcDbEntity
  8
SUNPOU
100
AcDbLine
 10
7445.498936476579
 20
3445.434839419604
 30
0.0
 11
7445.498936476579
 21
3434.184839419604
 31
0.0
  0
LINE
  5
188AD
330
18408
100
AcDbEntity
  8
SUNPOU
100
AcDbLine
 10
7445.498936476579
 20
2562.334839419596
 30
0.0
 11
7445.498936476579
 21
2573.584839419597
 31
0.0
  0
TEXT
  5
188AE
330
18408
100
AcDbEntity
  8
SUNPOU
100
AcDbText
 10
11451.33837406208
 20
3229.170862655058
 30
0.0
 40
90.0
  1
160
 41
0.6666666666666666
  7
00
100
AcDbText
  0
LINE
  5
188AF
330
18408
100
AcDbEntity
  8
SUNPOU
100
AcDbLine
 10
11850.08837406209
 20
3184.170862655058
 30
0.0
 11
11838.83837406209
 21
3184.170862655058
 31
0.0
  0
LINE
  5
188B0
330
18408
100
AcDbEntity
  8
SUNPOU
100
AcDbLine
 10
11232.58837406209
 20
3184.170862655058
 30
0.0
 11
11243.83837406209
 21
3184.170862655058
 31
0.0
  0
TEXT
  5
188B1
330
18408
100
AcDbEntity
  8
SUNPOU
100
AcDbText
 10
11040.6240883478
 20
3439.170862655058
 30
0.0
 40
90.0
  1
20
 41
0.6666666666666666
  7
00
100
AcDbText
  0
LINE
  5
188B2
330
18408
100
AcDbEntity
  8
SUNPOU
100
AcDbLine
 10
11210.08837406209
 20
3394.170862655057
 30
0.0
 11
11198.83837406209
 21
3394.170862655057
 31
0.0
  0
LINE
  5
188B3
330
18408
100
AcDbEntity
  8
SUNPOU
100
AcDbLine
 10
11312.58837406211
 20
3394.170862655057
 30
0.0
 11
11323.83837406211
 21
3394.170862655057
 31
0.0
  0
TEXT
  5
188B4
330
18408
100
AcDbEntity
  8
SUNPOU
100
AcDbText
 10
11451.33837406209
 20
3439.170862655058
 30
0.0
 40
90.0
  1
120
 41
0.6666666666666666
  7
00
100
AcDbText
  0
LINE
  5
188B5
330
18408
100
AcDbEntity
  8
SUNPOU
100
AcDbLine
 10
11770.08837406209
 20
3394.170862655057
 30
0.0
 11
11758.83837406209
 21
3394.170862655057
 31
0.0
  0
LINE
  5
188B6
330
18408
100
AcDbEntity
  8
SUNPOU
100
AcDbLine
 10
11312.58837406211
 20
3394.170862655057
 30
0.0
 11
11323.83837406211
 21
3394.170862655057
 31
0.0
  0
TEXT
  5
188B7
330
18408
100
AcDbEntity
  8
SUNPOU
100
AcDbText
 10
11927.76694549065
 20
3439.170862655058
 30
0.0
 40
90.0
  1
20
 41
0.6666666666666666
  7
00
100
AcDbText
  0
LINE
  5
188B8
330
18408
100
AcDbEntity
  8
SUNPOU
100
AcDbLine
 10
11872.58837406209
 20
3394.170862655057
 30
0.0
 11
11883.83837406209
 21
3394.170862655057
 31
0.0
  0
LINE
  5
188B9
330
18408
100
AcDbEntity
  8
SUNPOU
100
AcDbLine
 10
11770.08837406209
 20
3394.170862655057
 30
0.0
 11
11758.83837406209
 21
3394.170862655057
 31
0.0
  0
TEXT
  5
188BA
330
18408
100
AcDbEntity
  8
SUNPOU
100
AcDbText
 10
10663.33837406209
 20
2643.001486910295
 30
0.0
 40
90.0
  1
80
 50
90.0
 41
0.6666666666666666
  7
00
100
AcDbText
  0
LINE
  5
188BB
330
18408
100
AcDbEntity
  8
SUNPOU
100
AcDbLine
 10
10708.33837406208
 20
2848.894344053149
 30
0.0
 11
10708.33837406208
 21
2837.644344053149
 31
0.0
  0
LINE
  5
188BC
330
18408
100
AcDbEntity
  8
SUNPOU
100
AcDbLine
 10
10708.33837406208
 20
2551.394344053149
 30
0.0
 11
10708.33837406208
 21
2562.644344053149
 31
0.0
  0
TEXT
  5
188BD
330
18408
100
AcDbEntity
  8
SUNPOU
100
AcDbText
 10
10873.33837406209
 20
2911.572915481723
 30
0.0
 40
90.0
  1
40
 50
90.0
 41
0.6666666666666666
  7
00
100
AcDbText
  0
LINE
  5
188BE
330
18408
100
AcDbEntity
  8
SUNPOU
100
AcDbLine
 10
10918.33837406209
 20
2848.894344053149
 30
0.0
 11
10918.33837406209
 21
2837.644344053149
 31
0.0
  0
LINE
  5
188BF
330
18408
100
AcDbEntity
  8
SUNPOU
100
AcDbLine
 10
10918.33837406209
 20
2711.394344053149
 30
0.0
 11
10918.33837406209
 21
2722.644344053149
 31
0.0
  0
TEXT
  5
188C0
330
18408
100
AcDbEntity
  8
SUNPOU
100
AcDbText
 10
10873.33837406209
 20
2374.430058338865
 30
0.0
 40
90.0
  1
40
 50
90.0
 41
0.6666666666666666
  7
00
100
AcDbText
  0
LINE
  5
188C1
330
18408
100
AcDbEntity
  8
SUNPOU
100
AcDbLine
 10
10918.33837406209
 20
2551.394344053149
 30
0.0
 11
10918.33837406209
 21
2562.644344053149
 31
0.0
  0
LINE
  5
188C2
330
18408
100
AcDbEntity
  8
SUNPOU
100
AcDbLine
 10
10918.33837406209
 20
2688.894344053149
 30
0.0
 11
10918.33837406209
 21
2677.644344053149
 31
0.0
  0
TEXT
  5
188C3
330
18408
100
AcDbEntity
  8
SUNPOU
100
AcDbText
 10
11451.33837406208
 20
2080.804976716085
 30
0.0
 40
90.0
  1
160
 41
0.6666666666666666
  7
00
100
AcDbText
  0
LINE
  5
188C4
330
18408
100
AcDbEntity
  8
SUNPOU
100
AcDbLine
 10
11850.08837406209
 20
2035.804976716086
 30
0.0
 11
11838.83837406209
 21
2035.804976716086
 31
0.0
  0
LINE
  5
188C5
330
18408
100
AcDbEntity
  8
SUNPOU
100
AcDbLine
 10
11232.58837406209
 20
2035.804976716086
 30
0.0
 11
11243.83837406209
 21
2035.804976716086
 31
0.0
  0
TEXT
  5
188C6
330
18408
100
AcDbEntity
  8
SUNPOU
100
AcDbText
 10
11040.6240883478
 20
2290.804976716086
 30
0.0
 40
90.0
  1
20
 41
0.6666666666666666
  7
00
100
AcDbText
  0
LINE
  5
188C7
330
18408
100
AcDbEntity
  8
SUNPOU
100
AcDbLine
 10
11210.08837406209
 20
2245.804976716085
 30
0.0
 11
11198.83837406209
 21
2245.804976716085
 31
0.0
  0
LINE
  5
188C8
330
18408
100
AcDbEntity
  8
SUNPOU
100
AcDbLine
 10
11312.58837406211
 20
2245.804976716085
 30
0.0
 11
11323.83837406211
 21
2245.804976716085
 31
0.0
  0
TEXT
  5
188C9
330
18408
100
AcDbEntity
  8
SUNPOU
100
AcDbText
 10
11451.33837406209
 20
2290.804976716086
 30
0.0
 40
90.0
  1
120
 41
0.6666666666666666
  7
00
100
AcDbText
  0
LINE
  5
188CA
330
18408
100
AcDbEntity
  8
SUNPOU
100
AcDbLine
 10
11770.08837406209
 20
2245.804976716085
 30
0.0
 11
11758.83837406209
 21
2245.804976716085
 31
0.0
  0
LINE
  5
188CB
330
18408
100
AcDbEntity
  8
SUNPOU
100
AcDbLine
 10
11312.58837406211
 20
2245.804976716085
 30
0.0
 11
11323.83837406211
 21
2245.804976716085
 31
0.0
  0
TEXT
  5
188CC
330
18408
100
AcDbEntity
  8
SUNPOU
100
AcDbText
 10
11927.76694549065
 20
2290.804976716086
 30
0.0
 40
90.0
  1
20
 41
0.6666666666666666
  7
00
100
AcDbText
  0
LINE
  5
188CD
330
18408
100
AcDbEntity
  8
SUNPOU
100
AcDbLine
 10
11872.58837406209
 20
2245.804976716085
 30
0.0
 11
11883.83837406209
 21
2245.804976716085
 31
0.0
  0
LINE
  5
188CE
330
18408
100
AcDbEntity
  8
SUNPOU
100
AcDbLine
 10
11770.08837406209
 20
2245.804976716085
 30
0.0
 11
11758.83837406209
 21
2245.804976716085
 31
0.0
  0
TEXT
  5
188CF
330
18408
100
AcDbEntity
  8
SUNPOU
100
AcDbText
 10
12228.40680314954
 20
3437.622750870277
 30
0.0
 40
90.0
  1
27
 50
90.0
 41
0.6666666666666666
  7
00
100
AcDbText
  0
LINE
  5
188D0
330
18408
100
AcDbEntity
  8
SUNPOU
100
AcDbLine
 10
12273.40680314955
 20
3607.087036584561
 30
0.0
 11
12273.40680314955
 21
3595.837036584561
 31
0.0
  0
LINE
  5
188D1
330
18408
100
AcDbEntity
  8
SUNPOU
100
AcDbLine
 10
12273.40680314955
 20
3737.587036584561
 30
0.0
 11
12273.40680314955
 21
3748.837036584561
 31
0.0
  0
TEXT
  5
188D2
330
18408
100
AcDbEntity
  8
SUNPOU
100
AcDbText
 10
12228.40680314954
 20
3937.765608013134
 30
0.0
 40
90.0
  1
40
 50
90.0
 41
0.6666666666666666
  7
00
100
AcDbText
  0
LINE
  5
188D3
330
18408
100
AcDbEntity
  8
SUNPOU
100
AcDbLine
 10
12273.40680314955
 20
3875.087036584561
 30
0.0
 11
12273.40680314955
 21
3863.83703658456
 31
0.0
  0
LINE
  5
188D4
330
18408
100
AcDbEntity
  8
SUNPOU
100
AcDbLine
 10
12273.40680314955
 20
3737.587036584561
 30
0.0
 11
12273.40680314955
 21
3748.837036584561
 31
0.0
  0
TEXT
  5
188D5
330
18408
100
AcDbEntity
  8
SUNPOU
100
AcDbText
 10
10399.12750789964
 20
8485.386039575185
 30
0.0
 40
90.0
  1
200
 50
90.0
 41
0.6666666666666666
  7
00
100
AcDbText
  0
LINE
  5
188D6
330
18408
100
AcDbEntity
  8
SUNPOU
100
AcDbLine
 10
10444.12750789964
 20
8719.493182432325
 30
0.0
 11
10444.12750789964
 21
8730.743182432325
 31
0.0
  0
LINE
  5
188D7
330
18408
100
AcDbEntity
  8
SUNPOU
100
AcDbLine
 10
10444.12750789964
 20
8896.993182432325
 30
0.0
 11
10444.12750789964
 21
8885.743182432326
 31
0.0
  0
TEXT
  5
188D8
330
18408
100
AcDbEntity
  8
SUNPOU
100
AcDbText
 10
10399.12750789964
 20
9159.6717538609
 30
0.0
 40
90.0
  1
200
 50
90.0
 41
0.6666666666666666
  7
00
100
AcDbText
  0
LINE
  5
188D9
330
18408
100
AcDbEntity
  8
SUNPOU
100
AcDbLine
 10
10444.12750789964
 20
9096.993182432326
 30
0.0
 11
10444.12750789964
 21
9085.743182432326
 31
0.0
  0
LINE
  5
188DA
330
18408
100
AcDbEntity
  8
SUNPOU
100
AcDbLine
 10
10444.12750789964
 20
8919.493182432324
 30
0.0
 11
10444.12750789964
 21
8930.743182432328
 31
0.0
  0
TEXT
  5
188DB
330
18408
100
AcDbEntity
  8
SUNPOU
100
AcDbText
 10
9558.413222185356
 20
8053.243182432325
 30
0.0
 40
90.0
  1
800
 41
0.6666666666666666
  7
00
100
AcDbText
  0
LINE
  5
188DC
330
18408
100
AcDbEntity
  8
SUNPOU
100
AcDbLine
 10
10032.87750789964
 20
8008.243182432327
 30
0.0
 11
10021.62750789964
 21
8008.243182432327
 31
0.0
  0
LINE
  5
188DD
330
18408
100
AcDbEntity
  8
SUNPOU
100
AcDbLine
 10
9255.377507899641
 20
8008.243182432327
 30
0.0
 11
9266.62750789964
 21
8008.243182432327
 31
0.0
  0
TEXT
  5
188DE
330
18408
100
AcDbEntity
  8
SUNPOU
100
AcDbText
 10
8899.12750789964
 20
8622.528896718042
 30
0.0
 40
90.0
  1
800
 50
90.0
 41
0.6666666666666666
  7
00
100
AcDbText
  0
LINE
  5
188DF
330
18408
100
AcDbEntity
  8
SUNPOU
100
AcDbLine
 10
8944.127507899642
 20
8319.493182432324
 30
0.0
 11
8944.127507899642
 21
8330.743182432325
 31
0.0
  0
LINE
  5
188E0
330
18408
100
AcDbEntity
  8
SUNPOU
100
AcDbLine
 10
8944.127507899642
 20
9096.993182432326
 30
0.0
 11
8944.127507899642
 21
9085.743182432326
 31
0.0
  0
ARC
  5
188E1
330
18408
100
AcDbEntity
  8
SUNPOU
100
AcDbCircle
 10
10864.12750789964
 20
9108.243182432325
 30
0.0
 40
5.625
100
AcDbArc
 50
270.0
 51
90.0
  0
ARC
  5
188E2
330
18408
100
AcDbEntity
  8
SUNPOU
100
AcDbCircle
 10
10864.12750789964
 20
9108.243182432325
 30
0.0
 40
5.625
100
AcDbArc
 50
90.0
 51
270.0
  0
ARC
  5
188E3
330
18408
100
AcDbEntity
  8
SUNPOU
100
AcDbCircle
 10
10654.12750789964
 20
9108.243182432325
 30
0.0
 40
5.625
100
AcDbArc
 50
270.0
 51
90.0
  0
ARC
  5
188E4
330
18408
100
AcDbEntity
  8
SUNPOU
100
AcDbCircle
 10
10654.12750789964
 20
9108.243182432325
 30
0.0
 40
5.625
100
AcDbArc
 50
90.0
 51
270.0
  0
ARC
  5
188E5
330
18408
100
AcDbEntity
  8
SUNPOU
100
AcDbCircle
 10
10654.12750789964
 20
8708.243182432324
 30
0.0
 40
5.625
100
AcDbArc
 50
270.0
 51
90.0
  0
ARC
  5
188E6
330
18408
100
AcDbEntity
  8
SUNPOU
100
AcDbCircle
 10
10654.12750789964
 20
8708.243182432324
 30
0.0
 40
5.625
100
AcDbArc
 50
90.0
 51
270.0
  0
ARC
  5
188E7
330
18408
100
AcDbEntity
  8
SUNPOU
100
AcDbCircle
 10
10654.12750789964
 20
8708.243182432324
 30
0.0
 40
5.625
100
AcDbArc
 50
90.0
 51
270.0
  0
ARC
  5
188E8
330
18408
100
AcDbEntity
  8
SUNPOU
100
AcDbCircle
 10
10654.12750789964
 20
8708.243182432324
 30
0.0
 40
5.625
100
AcDbArc
 50
270.0
 51
90.0
  0
ARC
  5
188E9
330
18408
100
AcDbEntity
  8
SUNPOU
100
AcDbCircle
 10
10654.12750789964
 20
6908.243182432326
 30
0.0
 40
5.625
100
AcDbArc
 50
90.0
 51
270.0
  0
ARC
  5
188EA
330
18408
100
AcDbEntity
  8
SUNPOU
100
AcDbCircle
 10
10654.12750789964
 20
6908.243182432326
 30
0.0
 40
5.625
100
AcDbArc
 50
270.0
 51
90.0
  0
ARC
  5
188EB
330
18408
100
AcDbEntity
  8
SUNPOU
100
AcDbCircle
 10
10654.12750789964
 20
6908.243182432326
 30
0.0
 40
5.625
100
AcDbArc
 50
270.0
 51
90.0
  0
ARC
  5
188EC
330
18408
100
AcDbEntity
  8
SUNPOU
100
AcDbCircle
 10
10654.12750789964
 20
6908.243182432326
 30
0.0
 40
5.625
100
AcDbArc
 50
90.0
 51
270.0
  0
ARC
  5
188ED
330
18408
100
AcDbEntity
  8
SUNPOU
100
AcDbCircle
 10
10864.12750789964
 20
6508.243182432327
 30
0.0
 40
5.625
100
AcDbArc
 50
90.0
 51
270.0
  0
ARC
  5
188EE
330
18408
100
AcDbEntity
  8
SUNPOU
100
AcDbCircle
 10
10864.12750789964
 20
6508.243182432327
 30
0.0
 40
5.625
100
AcDbArc
 50
270.0
 51
90.0
  0
ARC
  5
188EF
330
18408
100
AcDbEntity
  8
SUNPOU
100
AcDbCircle
 10
10654.12750789964
 20
6508.243182432327
 30
0.0
 40
5.625
100
AcDbArc
 50
90.0
 51
270.0
  0
ARC
  5
188F0
330
18408
100
AcDbEntity
  8
SUNPOU
100
AcDbCircle
 10
10654.12750789964
 20
6508.243182432327
 30
0.0
 40
5.625
100
AcDbArc
 50
270.0
 51
90.0
  0
TEXT
  5
188F1
330
18408
100
AcDbEntity
  8
SUNPOU
100
AcDbText
 10
9758.413222185355
 20
9453.243182432325
 30
0.0
 40
90.0
  1
400
 41
0.6666666666666666
  7
00
100
AcDbText
  0
LINE
  5
188F2
330
18408
100
AcDbEntity
  8
SUNPOU
100
AcDbLine
 10
10032.87750789964
 20
9408.243182432325
 30
0.0
 11
10021.62750789964
 21
9408.243182432325
 31
0.0
  0
LINE
  5
188F3
330
18408
100
AcDbEntity
  8
SUNPOU
100
AcDbLine
 10
9655.377507899641
 20
9408.243182432325
 30
0.0
 11
9666.62750789964
 21
9408.243182432325
 31
0.0
  0
TEXT
  5
188F4
330
18408
100
AcDbEntity
  8
SUNPOU
100
AcDbText
 10
8304.841793613924
 20
9453.243182432325
 30
0.0
 40
90.0
  1
2450
 41
0.6666666666666666
  7
00
100
AcDbText
  0
LINE
  5
188F5
330
18408
100
AcDbEntity
  8
SUNPOU
100
AcDbLine
 10
7205.37750789964
 20
9408.243182432325
 30
0.0
 11
7216.627507899642
 21
9408.243182432325
 31
0.0
  0
LINE
  5
188F6
330
18408
100
AcDbEntity
  8
SUNPOU
100
AcDbLine
 10
9632.877507899641
 20
9408.243182432325
 30
0.0
 11
9621.62750789964
 21
9408.243182432325
 31
0.0
  0
TEXT
  5
188F7
330
18408
100
AcDbEntity
  8
SUNPOU
100
AcDbText
 10
6908.413222185355
 20
9453.243182432325
 30
0.0
 40
90.0
  1
400
 41
0.6666666666666666
  7
00
100
AcDbText
  0
LINE
  5
188F8
330
18408
100
AcDbEntity
  8
SUNPOU
100
AcDbLine
 10
6805.377507899642
 20
9408.243182432325
 30
0.0
 11
6816.627507899642
 21
9408.243182432325
 31
0.0
  0
LINE
  5
188F9
330
18408
100
AcDbEntity
  8
SUNPOU
100
AcDbLine
 10
7182.87750789964
 20
9408.243182432325
 30
0.0
 11
7171.62750789964
 21
9408.243182432325
 31
0.0
  0
TEXT
  5
188FA
330
18408
100
AcDbEntity
  8
SUNPOU
100
AcDbText
 10
8304.841793613924
 20
9663.243182432324
 30
0.0
 40
90.0
  1
3250
 41
0.6666666666666666
  7
00
100
AcDbText
  0
LINE
  5
188FB
330
18408
100
AcDbEntity
  8
SUNPOU
100
AcDbLine
 10
10032.87750789964
 20
9618.243182432324
 30
0.0
 11
10021.62750789964
 21
9618.243182432324
 31
0.0
  0
LINE
  5
188FC
330
18408
100
AcDbEntity
  8
SUNPOU
100
AcDbLine
 10
6805.377507899642
 20
9618.243182432324
 30
0.0
 11
6816.627507899642
 21
9618.243182432324
 31
0.0
  0
ARC
  5
188FD
330
18408
100
AcDbEntity
  8
SUNPOU
100
AcDbCircle
 10
3880.443655266704
 20
3191.084839419597
 30
0.0
 40
5.625
100
AcDbArc
 50
270.0
 51
90.0
  0
ARC
  5
188FE
330
18408
100
AcDbEntity
  8
SUNPOU
100
AcDbCircle
 10
3880.443655266704
 20
3191.084839419597
 30
0.0
 40
5.625
100
AcDbArc
 50
90.0
 51
270.0
  0
ARC
  5
188FF
330
18408
100
AcDbEntity
  8
SUNPOU
100
AcDbCircle
 10
3880.443655266704
 20
2711.084839419601
 30
0.0
 40
5.625
100
AcDbArc
 50
90.0
 51
270.0
  0
ARC
  5
18900
330
18408
100
AcDbEntity
  8
SUNPOU
100
AcDbCircle
 10
3880.443655266704
 20
2711.084839419601
 30
0.0
 40
5.625
100
AcDbArc
 50
270.0
 51
90.0
  0
ARC
  5
18901
330
18408
100
AcDbEntity
  8
SUNPOU
100
AcDbCircle
 10
3880.443655266704
 20
3456.684839419605
 30
0.0
 40
5.625
100
AcDbArc
 50
270.0
 51
90.0
  0
ARC
  5
18902
330
18408
100
AcDbEntity
  8
SUNPOU
100
AcDbCircle
 10
3880.443655266704
 20
3456.684839419605
 30
0.0
 40
5.625
100
AcDbArc
 50
90.0
 51
270.0
  0
ARC
  5
18903
330
18408
100
AcDbEntity
  8
SUNPOU
100
AcDbCircle
 10
3880.443655266704
 20
3319.084839419601
 30
0.0
 40
5.625
100
AcDbArc
 50
90.0
 51
270.0
  0
ARC
  5
18904
330
18408
100
AcDbEntity
  8
SUNPOU
100
AcDbCircle
 10
3880.443655266704
 20
3319.084839419601
 30
0.0
 40
5.625
100
AcDbArc
 50
270.0
 51
90.0
  0
ARC
  5
18905
330
18408
100
AcDbEntity
  8
SUNPOU
100
AcDbCircle
 10
3880.443655266705
 20
3191.084839419597
 30
0.0
 40
5.625
100
AcDbArc
 50
90.0
 51
270.0
  0
ARC
  5
18906
330
18408
100
AcDbEntity
  8
SUNPOU
100
AcDbCircle
 10
3880.443655266705
 20
3191.084839419597
 30
0.0
 40
5.625
100
AcDbArc
 50
270.0
 51
90.0
  0
ARC
  5
18907
330
18408
100
AcDbEntity
  8
SUNPOU
100
AcDbCircle
 10
3880.443655266705
 20
3319.084839419601
 30
0.0
 40
5.625
100
AcDbArc
 50
270.0
 51
90.0
  0
ARC
  5
18908
330
18408
100
AcDbEntity
  8
SUNPOU
100
AcDbCircle
 10
3880.443655266705
 20
3319.084839419601
 30
0.0
 40
5.625
100
AcDbArc
 50
90.0
 51
270.0
  0
ARC
  5
18909
330
18408
100
AcDbEntity
  8
SUNPOU
100
AcDbCircle
 10
3460.443655266704
 20
3456.684839419605
 30
0.0
 40
5.625
100
AcDbArc
 50
90.0
 51
270.0
  0
ARC
  5
1890A
330
18408
100
AcDbEntity
  8
SUNPOU
100
AcDbCircle
 10
3460.443655266704
 20
3456.684839419605
 30
0.0
 40
5.625
100
AcDbArc
 50
270.0
 51
90.0
  0
ARC
  5
1890B
330
18408
100
AcDbEntity
  8
SUNPOU
100
AcDbCircle
 10
3460.443655266704
 20
3376.684839419604
 30
0.0
 40
5.625
100
AcDbArc
 50
270.0
 51
90.0
  0
ARC
  5
1890C
330
18408
100
AcDbEntity
  8
SUNPOU
100
AcDbCircle
 10
3460.443655266704
 20
3376.684839419604
 30
0.0
 40
5.625
100
AcDbArc
 50
90.0
 51
270.0
  0
ARC
  5
1890D
330
18408
100
AcDbEntity
  8
SUNPOU
100
AcDbCircle
 10
3880.993474569399
 20
2551.084839419601
 30
0.0
 40
5.625
100
AcDbArc
 50
90.0
 51
270.0
  0
ARC
  5
1890E
330
18408
100
AcDbEntity
  8
SUNPOU
100
AcDbCircle
 10
3880.993474569399
 20
2551.084839419601
 30
0.0
 40
5.625
100
AcDbArc
 50
270.0
 51
90.0
  0
ARC
  5
1890F
330
18408
100
AcDbEntity
  8
SUNPOU
100
AcDbCircle
 10
3880.993474569399
 20
2711.084839419601
 30
0.0
 40
5.625
100
AcDbArc
 50
270.0
 51
90.0
  0
ARC
  5
18910
330
18408
100
AcDbEntity
  8
SUNPOU
100
AcDbCircle
 10
3880.993474569399
 20
2711.084839419601
 30
0.0
 40
5.625
100
AcDbArc
 50
90.0
 51
270.0
  0
ARC
  5
18911
330
18408
100
AcDbEntity
  8
SUNPOU
100
AcDbCircle
 10
3664.240902195488
 20
2551.084839419601
 30
0.0
 40
5.625
100
AcDbArc
 50
90.0
 51
270.0
  0
ARC
  5
18912
330
18408
100
AcDbEntity
  8
SUNPOU
100
AcDbCircle
 10
3664.240902195488
 20
2551.084839419601
 30
0.0
 40
5.625
100
AcDbArc
 50
270.0
 51
90.0
  0
ARC
  5
18913
330
18408
100
AcDbEntity
  8
SUNPOU
100
AcDbCircle
 10
3664.240902195489
 20
3456.684839419605
 30
0.0
 40
5.625
100
AcDbArc
 50
270.0
 51
90.0
  0
ARC
  5
18914
330
18408
100
AcDbEntity
  8
SUNPOU
100
AcDbCircle
 10
3664.240902195489
 20
3456.684839419605
 30
0.0
 40
5.625
100
AcDbArc
 50
90.0
 51
270.0
  0
ARC
  5
18915
330
18408
100
AcDbEntity
  8
SUNPOU
100
AcDbCircle
 10
4159.797051267463
 20
4130.485411556192
 30
0.0
 40
5.625
100
AcDbArc
 50
0.0
 51
180.0
  0
ARC
  5
18916
330
18408
100
AcDbEntity
  8
SUNPOU
100
AcDbCircle
 10
4159.797051267463
 20
4130.485411556192
 30
0.0
 40
5.625
100
AcDbArc
 50
180.0
 51
0.0
  0
ARC
  5
18917
330
18408
100
AcDbEntity
  8
SUNPOU
100
AcDbCircle
 10
4799.797051267463
 20
4130.485411556192
 30
0.0
 40
5.625
100
AcDbArc
 50
180.0
 51
0.0
  0
ARC
  5
18918
330
18408
100
AcDbEntity
  8
SUNPOU
100
AcDbCircle
 10
4799.797051267463
 20
4130.485411556192
 30
0.0
 40
5.625
100
AcDbArc
 50
0.0
 51
180.0
  0
ARC
  5
18919
330
18408
100
AcDbEntity
  8
SUNPOU
100
AcDbCircle
 10
5599.797051267461
 20
1938.6848394196
 30
0.0
 40
5.625
100
AcDbArc
 50
180.0
 51
0.0
  0
ARC
  5
1891A
330
18408
100
AcDbEntity
  8
SUNPOU
100
AcDbCircle
 10
5599.797051267461
 20
1938.6848394196
 30
0.0
 40
5.625
100
AcDbArc
 50
0.0
 51
180.0
  0
ARC
  5
1891B
330
18408
100
AcDbEntity
  8
SUNPOU
100
AcDbCircle
 10
3999.797051267461
 20
1938.6848394196
 30
0.0
 40
5.625
100
AcDbArc
 50
0.0
 51
180.0
  0
ARC
  5
1891C
330
18408
100
AcDbEntity
  8
SUNPOU
100
AcDbCircle
 10
3999.797051267461
 20
1938.6848394196
 30
0.0
 40
5.625
100
AcDbArc
 50
180.0
 51
0.0
  0
ARC
  5
1891D
330
18408
100
AcDbEntity
  8
SUNPOU
100
AcDbCircle
 10
5439.797051267464
 20
2148.684839419601
 30
0.0
 40
5.625
100
AcDbArc
 50
180.0
 51
0.0
  0
ARC
  5
1891E
330
18408
100
AcDbEntity
  8
SUNPOU
100
AcDbCircle
 10
5439.797051267464
 20
2148.684839419601
 30
0.0
 40
5.625
100
AcDbArc
 50
0.0
 51
180.0
  0
ARC
  5
1891F
330
18408
100
AcDbEntity
  8
SUNPOU
100
AcDbCircle
 10
4159.797051267463
 20
2148.684839419601
 30
0.0
 40
5.625
100
AcDbArc
 50
0.0
 51
180.0
  0
ARC
  5
18920
330
18408
100
AcDbEntity
  8
SUNPOU
100
AcDbCircle
 10
4159.797051267463
 20
2148.684839419601
 30
0.0
 40
5.625
100
AcDbArc
 50
180.0
 51
0.0
  0
ARC
  5
18921
330
18408
100
AcDbEntity
  8
SUNPOU
100
AcDbCircle
 10
8260.12325179111
 20
4130.485411556196
 30
0.0
 40
5.625
100
AcDbArc
 50
0.0
 51
180.0
  0
ARC
  5
18922
330
18408
100
AcDbEntity
  8
SUNPOU
100
AcDbCircle
 10
8260.12325179111
 20
4130.485411556196
 30
0.0
 40
5.625
100
AcDbArc
 50
180.0
 51
0.0
  0
ARC
  5
18923
330
18408
100
AcDbEntity
  8
SUNPOU
100
AcDbCircle
 10
8580.123251791111
 20
4130.485411556196
 30
0.0
 40
5.625
100
AcDbArc
 50
180.0
 51
0.0
  0
ARC
  5
18924
330
18408
100
AcDbEntity
  8
SUNPOU
100
AcDbCircle
 10
8580.123251791111
 20
4130.485411556196
 30
0.0
 40
5.625
100
AcDbArc
 50
0.0
 51
180.0
  0
ARC
  5
18925
330
18408
100
AcDbEntity
  8
SUNPOU
100
AcDbCircle
 10
7240.76985579035
 20
3456.684839419605
 30
0.0
 40
5.625
100
AcDbArc
 50
90.0
 51
270.0
  0
ARC
  5
18926
330
18408
100
AcDbEntity
  8
SUNPOU
100
AcDbCircle
 10
7240.76985579035
 20
3456.684839419605
 30
0.0
 40
5.625
100
AcDbArc
 50
270.0
 51
90.0
  0
ARC
  5
18927
330
18408
100
AcDbEntity
  8
SUNPOU
100
AcDbCircle
 10
7240.76985579035
 20
3376.684839419608
 30
0.0
 40
5.625
100
AcDbArc
 50
270.0
 51
90.0
  0
ARC
  5
18928
330
18408
100
AcDbEntity
  8
SUNPOU
100
AcDbCircle
 10
7240.76985579035
 20
3376.684839419608
 30
0.0
 40
5.625
100
AcDbArc
 50
90.0
 51
270.0
  0
ARC
  5
18929
330
18408
100
AcDbEntity
  8
SUNPOU
100
AcDbCircle
 10
9380.123251791109
 20
1938.684839419604
 30
0.0
 40
5.625
100
AcDbArc
 50
180.0
 51
0.0
  0
ARC
  5
1892A
330
18408
100
AcDbEntity
  8
SUNPOU
100
AcDbCircle
 10
9380.123251791109
 20
1938.684839419604
 30
0.0
 40
5.625
100
AcDbArc
 50
0.0
 51
180.0
  0
ARC
  5
1892B
330
18408
100
AcDbEntity
  8
SUNPOU
100
AcDbCircle
 10
7780.123251791109
 20
1938.684839419604
 30
0.0
 40
5.625
100
AcDbArc
 50
0.0
 51
180.0
  0
ARC
  5
1892C
330
18408
100
AcDbEntity
  8
SUNPOU
100
AcDbCircle
 10
7780.123251791109
 20
1938.684839419604
 30
0.0
 40
5.625
100
AcDbArc
 50
180.0
 51
0.0
  0
ARC
  5
1892D
330
18408
100
AcDbEntity
  8
SUNPOU
100
AcDbCircle
 10
9220.123251791108
 20
2148.684839419604
 30
0.0
 40
5.625
100
AcDbArc
 50
180.0
 51
0.0
  0
ARC
  5
1892E
330
18408
100
AcDbEntity
  8
SUNPOU
100
AcDbCircle
 10
9220.123251791108
 20
2148.684839419604
 30
0.0
 40
5.625
100
AcDbArc
 50
0.0
 51
180.0
  0
ARC
  5
1892F
330
18408
100
AcDbEntity
  8
SUNPOU
100
AcDbCircle
 10
7940.12325179111
 20
2148.684839419604
 30
0.0
 40
5.625
100
AcDbArc
 50
0.0
 51
180.0
  0
ARC
  5
18930
330
18408
100
AcDbEntity
  8
SUNPOU
100
AcDbCircle
 10
7940.12325179111
 20
2148.684839419604
 30
0.0
 40
5.625
100
AcDbArc
 50
180.0
 51
0.0
  0
ARC
  5
18931
330
18408
100
AcDbEntity
  8
SUNPOU
100
AcDbCircle
 10
7660.769855790352
 20
3191.084839419597
 30
0.0
 40
5.625
100
AcDbArc
 50
270.0
 51
90.0
  0
ARC
  5
18932
330
18408
100
AcDbEntity
  8
SUNPOU
100
AcDbCircle
 10
7660.769855790352
 20
3191.084839419597
 30
0.0
 40
5.625
100
AcDbArc
 50
90.0
 51
270.0
  0
ARC
  5
18933
330
18408
100
AcDbEntity
  8
SUNPOU
100
AcDbCircle
 10
7660.769855790352
 20
2711.084839419601
 30
0.0
 40
5.625
100
AcDbArc
 50
90.0
 51
270.0
  0
ARC
  5
18934
330
18408
100
AcDbEntity
  8
SUNPOU
100
AcDbCircle
 10
7660.769855790352
 20
2711.084839419601
 30
0.0
 40
5.625
100
AcDbArc
 50
270.0
 51
90.0
  0
ARC
  5
18935
330
18408
100
AcDbEntity
  8
SUNPOU
100
AcDbCircle
 10
7660.769855790352
 20
3456.684839419605
 30
0.0
 40
5.625
100
AcDbArc
 50
270.0
 51
90.0
  0
ARC
  5
18936
330
18408
100
AcDbEntity
  8
SUNPOU
100
AcDbCircle
 10
7660.769855790352
 20
3456.684839419605
 30
0.0
 40
5.625
100
AcDbArc
 50
90.0
 51
270.0
  0
ARC
  5
18937
330
18408
100
AcDbEntity
  8
SUNPOU
100
AcDbCircle
 10
7660.769855790352
 20
3319.084839419601
 30
0.0
 40
5.625
100
AcDbArc
 50
90.0
 51
270.0
  0
ARC
  5
18938
330
18408
100
AcDbEntity
  8
SUNPOU
100
AcDbCircle
 10
7660.769855790352
 20
3319.084839419601
 30
0.0
 40
5.625
100
AcDbArc
 50
270.0
 51
90.0
  0
ARC
  5
18939
330
18408
100
AcDbEntity
  8
SUNPOU
100
AcDbCircle
 10
7660.769855790352
 20
3191.084839419597
 30
0.0
 40
5.625
100
AcDbArc
 50
90.0
 51
270.0
  0
ARC
  5
1893A
330
18408
100
AcDbEntity
  8
SUNPOU
100
AcDbCircle
 10
7660.769855790352
 20
3191.084839419597
 30
0.0
 40
5.625
100
AcDbArc
 50
270.0
 51
90.0
  0
ARC
  5
1893B
330
18408
100
AcDbEntity
  8
SUNPOU
100
AcDbCircle
 10
7660.769855790352
 20
3319.084839419601
 30
0.0
 40
5.625
100
AcDbArc
 50
270.0
 51
90.0
  0
ARC
  5
1893C
330
18408
100
AcDbEntity
  8
SUNPOU
100
AcDbCircle
 10
7660.769855790352
 20
3319.084839419601
 30
0.0
 40
5.625
100
AcDbArc
 50
90.0
 51
270.0
  0
ARC
  5
1893D
330
18408
100
AcDbEntity
  8
SUNPOU
100
AcDbCircle
 10
7660.769855790352
 20
2551.084839419598
 30
0.0
 40
5.625
100
AcDbArc
 50
90.0
 51
270.0
  0
ARC
  5
1893E
330
18408
100
AcDbEntity
  8
SUNPOU
100
AcDbCircle
 10
7660.769855790352
 20
2551.084839419598
 30
0.0
 40
5.625
100
AcDbArc
 50
270.0
 51
90.0
  0
ARC
  5
1893F
330
18408
100
AcDbEntity
  8
SUNPOU
100
AcDbCircle
 10
7660.769855790352
 20
2711.084839419601
 30
0.0
 40
5.625
100
AcDbArc
 50
270.0
 51
90.0
  0
ARC
  5
18940
330
18408
100
AcDbEntity
  8
SUNPOU
100
AcDbCircle
 10
7660.769855790352
 20
2711.084839419601
 30
0.0
 40
5.625
100
AcDbArc
 50
90.0
 51
270.0
  0
ARC
  5
18941
330
18408
100
AcDbEntity
  8
SUNPOU
100
AcDbCircle
 10
7445.498936476579
 20
3456.684839419605
 30
0.0
 40
5.625
100
AcDbArc
 50
270.0
 51
90.0
  0
ARC
  5
18942
330
18408
100
AcDbEntity
  8
SUNPOU
100
AcDbCircle
 10
7445.498936476579
 20
3456.684839419605
 30
0.0
 40
5.625
100
AcDbArc
 50
90.0
 51
270.0
  0
ARC
  5
18943
330
18408
100
AcDbEntity
  8
SUNPOU
100
AcDbCircle
 10
7445.498936476579
 20
2551.084839419598
 30
0.0
 40
5.625
100
AcDbArc
 50
90.0
 51
270.0
  0
ARC
  5
18944
330
18408
100
AcDbEntity
  8
SUNPOU
100
AcDbCircle
 10
7445.498936476579
 20
2551.084839419598
 30
0.0
 40
5.625
100
AcDbArc
 50
270.0
 51
90.0
  0
ARC
  5
18945
330
18408
100
AcDbEntity
  8
SUNPOU
100
AcDbCircle
 10
11861.33837406209
 20
3184.170862655058
 30
0.0
 40
5.625
100
AcDbArc
 50
180.0
 51
0.0
  0
ARC
  5
18946
330
18408
100
AcDbEntity
  8
SUNPOU
100
AcDbCircle
 10
11861.33837406209
 20
3184.170862655058
 30
0.0
 40
5.625
100
AcDbArc
 50
0.0
 51
180.0
  0
ARC
  5
18947
330
18408
100
AcDbEntity
  8
SUNPOU
100
AcDbCircle
 10
11221.33837406209
 20
3184.170862655058
 30
0.0
 40
5.625
100
AcDbArc
 50
0.0
 51
180.0
  0
ARC
  5
18948
330
18408
100
AcDbEntity
  8
SUNPOU
100
AcDbCircle
 10
11221.33837406209
 20
3184.170862655058
 30
0.0
 40
5.625
100
AcDbArc
 50
180.0
 51
0.0
  0
ARC
  5
18949
330
18408
100
AcDbEntity
  8
SUNPOU
100
AcDbCircle
 10
11221.33837406209
 20
3394.170862655057
 30
0.0
 40
5.625
100
AcDbArc
 50
180.0
 51
0.0
  0
ARC
  5
1894A
330
18408
100
AcDbEntity
  8
SUNPOU
100
AcDbCircle
 10
11221.33837406209
 20
3394.170862655057
 30
0.0
 40
5.625
100
AcDbArc
 50
0.0
 51
180.0
  0
ARC
  5
1894B
330
18408
100
AcDbEntity
  8
SUNPOU
100
AcDbCircle
 10
11301.33837406211
 20
3394.170862655057
 30
0.0
 40
5.625
100
AcDbArc
 50
0.0
 51
180.0
  0
ARC
  5
1894C
330
18408
100
AcDbEntity
  8
SUNPOU
100
AcDbCircle
 10
11301.33837406211
 20
3394.170862655057
 30
0.0
 40
5.625
100
AcDbArc
 50
180.0
 51
0.0
  0
ARC
  5
1894D
330
18408
100
AcDbEntity
  8
SUNPOU
100
AcDbCircle
 10
11781.33837406209
 20
3394.170862655057
 30
0.0
 40
5.625
100
AcDbArc
 50
180.0
 51
0.0
  0
ARC
  5
1894E
330
18408
100
AcDbEntity
  8
SUNPOU
100
AcDbCircle
 10
11781.33837406209
 20
3394.170862655057
 30
0.0
 40
5.625
100
AcDbArc
 50
0.0
 51
180.0
  0
ARC
  5
1894F
330
18408
100
AcDbEntity
  8
SUNPOU
100
AcDbCircle
 10
11301.33837406211
 20
3394.170862655057
 30
0.0
 40
5.625
100
AcDbArc
 50
0.0
 51
180.0
  0
ARC
  5
18950
330
18408
100
AcDbEntity
  8
SUNPOU
100
AcDbCircle
 10
11301.33837406211
 20
3394.170862655057
 30
0.0
 40
5.625
100
AcDbArc
 50
180.0
 51
0.0
  0
ARC
  5
18951
330
18408
100
AcDbEntity
  8
SUNPOU
100
AcDbCircle
 10
11861.33837406209
 20
3394.170862655057
 30
0.0
 40
5.625
100
AcDbArc
 50
0.0
 51
180.0
  0
ARC
  5
18952
330
18408
100
AcDbEntity
  8
SUNPOU
100
AcDbCircle
 10
11861.33837406209
 20
3394.170862655057
 30
0.0
 40
5.625
100
AcDbArc
 50
180.0
 51
0.0
  0
ARC
  5
18953
330
18408
100
AcDbEntity
  8
SUNPOU
100
AcDbCircle
 10
11781.33837406209
 20
3394.170862655057
 30
0.0
 40
5.625
100
AcDbArc
 50
180.0
 51
0.0
  0
ARC
  5
18954
330
18408
100
AcDbEntity
  8
SUNPOU
100
AcDbCircle
 10
11781.33837406209
 20
3394.170862655057
 30
0.0
 40
5.625
100
AcDbArc
 50
0.0
 51
180.0
  0
ARC
  5
18955
330
18408
100
AcDbEntity
  8
SUNPOU
100
AcDbCircle
 10
10708.33837406208
 20
2860.144344053149
 30
0.0
 40
5.625
100
AcDbArc
 50
270.0
 51
90.0
  0
ARC
  5
18956
330
18408
100
AcDbEntity
  8
SUNPOU
100
AcDbCircle
 10
10708.33837406208
 20
2860.144344053149
 30
0.0
 40
5.625
100
AcDbArc
 50
90.0
 51
270.0
  0
ARC
  5
18957
330
18408
100
AcDbEntity
  8
SUNPOU
100
AcDbCircle
 10
10708.33837406208
 20
2540.144344053149
 30
0.0
 40
5.625
100
AcDbArc
 50
90.0
 51
270.0
  0
ARC
  5
18958
330
18408
100
AcDbEntity
  8
SUNPOU
100
AcDbCircle
 10
10708.33837406208
 20
2540.144344053149
 30
0.0
 40
5.625
100
AcDbArc
 50
270.0
 51
90.0
  0
ARC
  5
18959
330
18408
100
AcDbEntity
  8
SUNPOU
100
AcDbCircle
 10
10918.33837406209
 20
2860.144344053149
 30
0.0
 40
5.625
100
AcDbArc
 50
270.0
 51
90.0
  0
ARC
  5
1895A
330
18408
100
AcDbEntity
  8
SUNPOU
100
AcDbCircle
 10
10918.33837406209
 20
2860.144344053149
 30
0.0
 40
5.625
100
AcDbArc
 50
90.0
 51
270.0
  0
ARC
  5
1895B
330
18408
100
AcDbEntity
  8
SUNPOU
100
AcDbCircle
 10
10918.33837406209
 20
2700.144344053149
 30
0.0
 40
5.625
100
AcDbArc
 50
90.0
 51
270.0
  0
ARC
  5
1895C
330
18408
100
AcDbEntity
  8
SUNPOU
100
AcDbCircle
 10
10918.33837406209
 20
2700.144344053149
 30
0.0
 40
5.625
100
AcDbArc
 50
270.0
 51
90.0
  0
ARC
  5
1895D
330
18408
100
AcDbEntity
  8
SUNPOU
100
AcDbCircle
 10
10918.33837406209
 20
2540.144344053149
 30
0.0
 40
5.625
100
AcDbArc
 50
90.0
 51
270.0
  0
ARC
  5
1895E
330
18408
100
AcDbEntity
  8
SUNPOU
100
AcDbCircle
 10
10918.33837406209
 20
2540.144344053149
 30
0.0
 40
5.625
100
AcDbArc
 50
270.0
 51
90.0
  0
ARC
  5
1895F
330
18408
100
AcDbEntity
  8
SUNPOU
100
AcDbCircle
 10
10918.33837406209
 20
2700.144344053149
 30
0.0
 40
5.625
100
AcDbArc
 50
270.0
 51
90.0
  0
ARC
  5
18960
330
18408
100
AcDbEntity
  8
SUNPOU
100
AcDbCircle
 10
10918.33837406209
 20
2700.144344053149
 30
0.0
 40
5.625
100
AcDbArc
 50
90.0
 51
270.0
  0
ARC
  5
18961
330
18408
100
AcDbEntity
  8
SUNPOU
100
AcDbCircle
 10
11861.33837406209
 20
2035.804976716086
 30
0.0
 40
5.625
100
AcDbArc
 50
180.0
 51
0.0
  0
ARC
  5
18962
330
18408
100
AcDbEntity
  8
SUNPOU
100
AcDbCircle
 10
11861.33837406209
 20
2035.804976716086
 30
0.0
 40
5.625
100
AcDbArc
 50
0.0
 51
180.0
  0
ARC
  5
18963
330
18408
100
AcDbEntity
  8
SUNPOU
100
AcDbCircle
 10
11221.33837406209
 20
2035.804976716086
 30
0.0
 40
5.625
100
AcDbArc
 50
0.0
 51
180.0
  0
ARC
  5
18964
330
18408
100
AcDbEntity
  8
SUNPOU
100
AcDbCircle
 10
11221.33837406209
 20
2035.804976716086
 30
0.0
 40
5.625
100
AcDbArc
 50
180.0
 51
0.0
  0
ARC
  5
18965
330
18408
100
AcDbEntity
  8
SUNPOU
100
AcDbCircle
 10
11221.33837406209
 20
2245.804976716085
 30
0.0
 40
5.625
100
AcDbArc
 50
180.0
 51
0.0
  0
ARC
  5
18966
330
18408
100
AcDbEntity
  8
SUNPOU
100
AcDbCircle
 10
11221.33837406209
 20
2245.804976716085
 30
0.0
 40
5.625
100
AcDbArc
 50
0.0
 51
180.0
  0
ARC
  5
18967
330
18408
100
AcDbEntity
  8
SUNPOU
100
AcDbCircle
 10
11301.33837406211
 20
2245.804976716085
 30
0.0
 40
5.625
100
AcDbArc
 50
0.0
 51
180.0
  0
ARC
  5
18968
330
18408
100
AcDbEntity
  8
SUNPOU
100
AcDbCircle
 10
11301.33837406211
 20
2245.804976716085
 30
0.0
 40
5.625
100
AcDbArc
 50
180.0
 51
0.0
  0
ARC
  5
18969
330
18408
100
AcDbEntity
  8
SUNPOU
100
AcDbCircle
 10
11781.33837406209
 20
2245.804976716085
 30
0.0
 40
5.625
100
AcDbArc
 50
180.0
 51
0.0
  0
ARC
  5
1896A
330
18408
100
AcDbEntity
  8
SUNPOU
100
AcDbCircle
 10
11781.33837406209
 20
2245.804976716085
 30
0.0
 40
5.625
100
AcDbArc
 50
0.0
 51
180.0
  0
ARC
  5
1896B
330
18408
100
AcDbEntity
  8
SUNPOU
100
AcDbCircle
 10
11301.33837406211
 20
2245.804976716085
 30
0.0
 40
5.625
100
AcDbArc
 50
0.0
 51
180.0
  0
ARC
  5
1896C
330
18408
100
AcDbEntity
  8
SUNPOU
100
AcDbCircle
 10
11301.33837406211
 20
2245.804976716085
 30
0.0
 40
5.625
100
AcDbArc
 50
180.0
 51
0.0
  0
ARC
  5
1896D
330
18408
100
AcDbEntity
  8
SUNPOU
100
AcDbCircle
 10
11861.33837406209
 20
2245.804976716085
 30
0.0
 40
5.625
100
AcDbArc
 50
0.0
 51
180.0
  0
ARC
  5
1896E
330
18408
100
AcDbEntity
  8
SUNPOU
100
AcDbCircle
 10
11861.33837406209
 20
2245.804976716085
 30
0.0
 40
5.625
100
AcDbArc
 50
180.0
 51
0.0
  0
ARC
  5
1896F
330
18408
100
AcDbEntity
  8
SUNPOU
100
AcDbCircle
 10
11781.33837406209
 20
2245.804976716085
 30
0.0
 40
5.625
100
AcDbArc
 50
180.0
 51
0.0
  0
ARC
  5
18970
330
18408
100
AcDbEntity
  8
SUNPOU
100
AcDbCircle
 10
11781.33837406209
 20
2245.804976716085
 30
0.0
 40
5.625
100
AcDbArc
 50
0.0
 51
180.0
  0
ARC
  5
18971
330
18408
100
AcDbEntity
  8
SUNPOU
100
AcDbCircle
 10
12273.40680314955
 20
3618.337036584561
 30
0.0
 40
5.625
100
AcDbArc
 50
270.0
 51
90.0
  0
ARC
  5
18972
330
18408
100
AcDbEntity
  8
SUNPOU
100
AcDbCircle
 10
12273.40680314955
 20
3618.337036584561
 30
0.0
 40
5.625
100
AcDbArc
 50
90.0
 51
270.0
  0
ARC
  5
18973
330
18408
100
AcDbEntity
  8
SUNPOU
100
AcDbCircle
 10
12273.40680314955
 20
3726.33703658456
 30
0.0
 40
5.625
100
AcDbArc
 50
90.0
 51
270.0
  0
ARC
  5
18974
330
18408
100
AcDbEntity
  8
SUNPOU
100
AcDbCircle
 10
12273.40680314955
 20
3726.33703658456
 30
0.0
 40
5.625
100
AcDbArc
 50
270.0
 51
90.0
  0
ARC
  5
18975
330
18408
100
AcDbEntity
  8
SUNPOU
100
AcDbCircle
 10
12273.40680314955
 20
3886.33703658456
 30
0.0
 40
5.625
100
AcDbArc
 50
270.0
 51
90.0
  0
ARC
  5
18976
330
18408
100
AcDbEntity
  8
SUNPOU
100
AcDbCircle
 10
12273.40680314955
 20
3886.33703658456
 30
0.0
 40
5.625
100
AcDbArc
 50
90.0
 51
270.0
  0
ARC
  5
18977
330
18408
100
AcDbEntity
  8
SUNPOU
100
AcDbCircle
 10
12273.40680314955
 20
3726.33703658456
 30
0.0
 40
5.625
100
AcDbArc
 50
90.0
 51
270.0
  0
ARC
  5
18978
330
18408
100
AcDbEntity
  8
SUNPOU
100
AcDbCircle
 10
12273.40680314955
 20
3726.33703658456
 30
0.0
 40
5.625
100
AcDbArc
 50
270.0
 51
90.0
  0
ARC
  5
18979
330
18408
100
AcDbEntity
  8
SUNPOU
100
AcDbCircle
 10
10444.12750789964
 20
8708.243182432324
 30
0.0
 40
5.625
100
AcDbArc
 50
90.0
 51
270.0
  0
ARC
  5
1897A
330
18408
100
AcDbEntity
  8
SUNPOU
100
AcDbCircle
 10
10444.12750789964
 20
8708.243182432324
 30
0.0
 40
5.625
100
AcDbArc
 50
270.0
 51
90.0
  0
ARC
  5
1897B
330
18408
100
AcDbEntity
  8
SUNPOU
100
AcDbCircle
 10
10444.12750789964
 20
8908.243182432325
 30
0.0
 40
5.625
100
AcDbArc
 50
270.0
 51
90.0
  0
ARC
  5
1897C
330
18408
100
AcDbEntity
  8
SUNPOU
100
AcDbCircle
 10
10444.12750789964
 20
8908.243182432325
 30
0.0
 40
5.625
100
AcDbArc
 50
90.0
 51
270.0
  0
ARC
  5
1897D
330
18408
100
AcDbEntity
  8
SUNPOU
100
AcDbCircle
 10
10444.12750789964
 20
9108.243182432325
 30
0.0
 40
5.625
100
AcDbArc
 50
270.0
 51
90.0
  0
ARC
  5
1897E
330
18408
100
AcDbEntity
  8
SUNPOU
100
AcDbCircle
 10
10444.12750789964
 20
9108.243182432325
 30
0.0
 40
5.625
100
AcDbArc
 50
90.0
 51
270.0
  0
ARC
  5
1897F
330
18408
100
AcDbEntity
  8
SUNPOU
100
AcDbCircle
 10
10444.12750789964
 20
8908.243182432325
 30
0.0
 40
5.625
100
AcDbArc
 50
90.0
 51
270.0
  0
ARC
  5
18980
330
18408
100
AcDbEntity
  8
SUNPOU
100
AcDbCircle
 10
10444.12750789964
 20
8908.243182432325
 30
0.0
 40
5.625
100
AcDbArc
 50
270.0
 51
90.0
  0
ARC
  5
18981
330
18408
100
AcDbEntity
  8
SUNPOU
100
AcDbCircle
 10
10044.12750789964
 20
8008.243182432327
 30
0.0
 40
5.625
100
AcDbArc
 50
180.0
 51
0.0
  0
ARC
  5
18982
330
18408
100
AcDbEntity
  8
SUNPOU
100
AcDbCircle
 10
10044.12750789964
 20
8008.243182432327
 30
0.0
 40
5.625
100
AcDbArc
 50
0.0
 51
180.0
  0
ARC
  5
18983
330
18408
100
AcDbEntity
  8
SUNPOU
100
AcDbCircle
 10
9244.127507899641
 20
8008.243182432327
 30
0.0
 40
5.625
100
AcDbArc
 50
0.0
 51
180.0
  0
ARC
  5
18984
330
18408
100
AcDbEntity
  8
SUNPOU
100
AcDbCircle
 10
9244.127507899641
 20
8008.243182432327
 30
0.0
 40
5.625
100
AcDbArc
 50
180.0
 51
0.0
  0
ARC
  5
18985
330
18408
100
AcDbEntity
  8
SUNPOU
100
AcDbCircle
 10
8944.127507899642
 20
8308.243182432326
 30
0.0
 40
5.625
100
AcDbArc
 50
90.0
 51
270.0
  0
ARC
  5
18986
330
18408
100
AcDbEntity
  8
SUNPOU
100
AcDbCircle
 10
8944.127507899642
 20
8308.243182432326
 30
0.0
 40
5.625
100
AcDbArc
 50
270.0
 51
90.0
  0
ARC
  5
18987
330
18408
100
AcDbEntity
  8
SUNPOU
100
AcDbCircle
 10
8944.127507899642
 20
9108.243182432325
 30
0.0
 40
5.625
100
AcDbArc
 50
270.0
 51
90.0
  0
ARC
  5
18988
330
18408
100
AcDbEntity
  8
SUNPOU
100
AcDbCircle
 10
8944.127507899642
 20
9108.243182432325
 30
0.0
 40
5.625
100
AcDbArc
 50
90.0
 51
270.0
  0
ARC
  5
18989
330
18408
100
AcDbEntity
  8
SUNPOU
100
AcDbCircle
 10
10044.12750789964
 20
9408.243182432325
 30
0.0
 40
5.625
100
AcDbArc
 50
180.0
 51
0.0
  0
ARC
  5
1898A
330
18408
100
AcDbEntity
  8
SUNPOU
100
AcDbCircle
 10
10044.12750789964
 20
9408.243182432325
 30
0.0
 40
5.625
100
AcDbArc
 50
0.0
 51
180.0
  0
ARC
  5
1898B
330
18408
100
AcDbEntity
  8
SUNPOU
100
AcDbCircle
 10
9644.127507899641
 20
9408.243182432325
 30
0.0
 40
5.625
100
AcDbArc
 50
0.0
 51
180.0
  0
ARC
  5
1898C
330
18408
100
AcDbEntity
  8
SUNPOU
100
AcDbCircle
 10
9644.127507899641
 20
9408.243182432325
 30
0.0
 40
5.625
100
AcDbArc
 50
180.0
 51
0.0
  0
ARC
  5
1898D
330
18408
100
AcDbEntity
  8
SUNPOU
100
AcDbCircle
 10
7194.127507899643
 20
9408.243182432325
 30
0.0
 40
5.625
100
AcDbArc
 50
0.0
 51
180.0
  0
ARC
  5
1898E
330
18408
100
AcDbEntity
  8
SUNPOU
100
AcDbCircle
 10
7194.127507899643
 20
9408.243182432325
 30
0.0
 40
5.625
100
AcDbArc
 50
180.0
 51
0.0
  0
ARC
  5
1898F
330
18408
100
AcDbEntity
  8
SUNPOU
100
AcDbCircle
 10
9644.127507899641
 20
9408.243182432325
 30
0.0
 40
5.625
100
AcDbArc
 50
180.0
 51
0.0
  0
ARC
  5
18990
330
18408
100
AcDbEntity
  8
SUNPOU
100
AcDbCircle
 10
9644.127507899641
 20
9408.243182432325
 30
0.0
 40
5.625
100
AcDbArc
 50
0.0
 51
180.0
  0
ARC
  5
18991
330
18408
100
AcDbEntity
  8
SUNPOU
100
AcDbCircle
 10
6794.127507899642
 20
9408.243182432325
 30
0.0
 40
5.625
100
AcDbArc
 50
0.0
 51
180.0
  0
ARC
  5
18992
330
18408
100
AcDbEntity
  8
SUNPOU
100
AcDbCircle
 10
6794.127507899642
 20
9408.243182432325
 30
0.0
 40
5.625
100
AcDbArc
 50
180.0
 51
0.0
  0
ARC
  5
18993
330
18408
100
AcDbEntity
  8
SUNPOU
100
AcDbCircle
 10
7194.127507899643
 20
9408.243182432325
 30
0.0
 40
5.625
100
AcDbArc
 50
180.0
 51
0.0
  0
ARC
  5
18994
330
18408
100
AcDbEntity
  8
SUNPOU
100
AcDbCircle
 10
7194.127507899643
 20
9408.243182432325
 30
0.0
 40
5.625
100
AcDbArc
 50
0.0
 51
180.0
  0
ARC
  5
18995
330
18408
100
AcDbEntity
  8
SUNPOU
100
AcDbCircle
 10
10044.12750789964
 20
9618.243182432324
 30
0.0
 40
5.625
100
AcDbArc
 50
180.0
 51
0.0
  0
ARC
  5
18996
330
18408
100
AcDbEntity
  8
SUNPOU
100
AcDbCircle
 10
10044.12750789964
 20
9618.243182432324
 30
0.0
 40
5.625
100
AcDbArc
 50
0.0
 51
180.0
  0
ARC
  5
18997
330
18408
100
AcDbEntity
  8
SUNPOU
100
AcDbCircle
 10
6794.127507899642
 20
9618.243182432324
 30
0.0
 40
5.625
100
AcDbArc
 50
0.0
 51
180.0
  0
ARC
  5
18998
330
18408
100
AcDbEntity
  8
SUNPOU
100
AcDbCircle
 10
6794.127507899642
 20
9618.243182432324
 30
0.0
 40
5.625
100
AcDbArc
 50
180.0
 51
0.0
  0
ARC
  5
18999
330
18408
100
AcDbEntity
  8
HIKIDASHI
100
AcDbCircle
 10
7368.753186178046
 20
1889.069567942468
 30
0.0
 40
74.66417910452284
100
AcDbArc
 50
164.8596129850915
 51
237.504500294165
  0
ARC
  5
1899A
330
18408
100
AcDbEntity
  8
HIKIDASHI
100
AcDbCircle
 10
7305.32939213174
 20
1906.230591426951
 30
0.0
 40
8.959701492542745
100
AcDbArc
 50
15.14038701503429
 51
164.8596129849655
  0
LINE
  5
1899B
330
18408
100
AcDbEntity
  8
HIKIDASHI
100
AcDbLine
 10
5517.958310807199
 20
3204.439659000036
 30
0.0
 11
5674.871662611158
 21
2904.11470702088
 31
0.0
1001
ACAD
1000
DSTYLE
1002
{
1070
    41
1040
2.0
1070
   173
1070
     0
1070
   341
1005
125B0
1002
}
  0
ARC
  5
1899C
330
18408
100
AcDbEntity
  8
HIKIDASHI
100
AcDbCircle
 10
5472.271108781362
 20
3259.491130329859
 30
0.0
 40
18.0
100
AcDbArc
 50
241.1434129563095
 51
354.0287934324676
  0
ARC
  5
1899D
330
18408
100
AcDbEntity
  8
HIKIDASHI
100
AcDbCircle
 10
5508.075783564776
 20
3255.746098466976
 30
0.0
 40
18.0
100
AcDbArc
 50
61.1434129563095
 51
174.0287934324675
  0
LINE
  5
1899E
330
18408
100
AcDbEntity
  8
HIKIDASHI
100
AcDbLine
 10
5490.173446173068
 20
3257.618614398416
 30
0.0
 11
5517.958310807205
 21
3204.439659000024
 31
0.0
  0
LINE
  5
1899F
330
18408
100
AcDbEntity
  8
HIKIDASHI
100
AcDbLine
 10
5648.43515171908
 20
2487.56842276644
 30
0.0
 11
5816.338096802661
 21
2268.304238552882
 31
0.0
1001
ACAD
1000
DSTYLE
1002
{
1070
   147
1040
1.0
1070
    77
1070
     0
1002
}
  0
LINE
  5
189A0
330
18408
100
AcDbEntity
  8
HIKIDASHI
100
AcDbLine
 10
5659.021221161275
 20
2495.674772841709
 30
0.0
 11
5599.797051267461
 21
2551.084839419601
 31
0.0
  0
LINE
  5
189A1
330
18408
100
AcDbEntity
  8
HIKIDASHI
100
AcDbLine
 10
5599.797051267461
 20
2551.084839419601
 30
0.0
 11
5637.849082276888
 21
2479.462072691169
 31
0.0
  0
SOLID
  5
189A2
330
18408
100
AcDbEntity
  8
HIKIDASHI
100
AcDbTrace
 10
5659.021221161275
 20
2495.674772841709
 30
0.0
 11
5637.849082276888
 21
2479.462072691169
 31
0.0
 12
5599.797051267461
 22
2551.084839419601
 32
0.0
 13
5599.797051267461
 23
2551.084839419601
 33
0.0
  0
LINE
  5
189A3
330
18408
100
AcDbEntity
  8
HIKIDASHI
100
AcDbLine
 10
5637.849082276888
 20
2479.462072691169
 30
0.0
 11
5659.021221161275
 21
2495.674772841709
 31
0.0
  0
LINE
  5
189A4
330
18408
100
AcDbEntity
  8
HIKIDASHI
100
AcDbLine
 10
5106.084662666018
 20
3525.966871722361
 30
0.0
 11
5333.860047839355
 21
3920.485411556192
 31
0.0
1001
ACAD
1000
DSTYLE
1002
{
1070
   147
1040
1.0
1070
    77
1070
     0
1002
}
  0
LINE
  5
189A5
330
18408
100
AcDbEntity
  8
HIKIDASHI
100
AcDbLine
 10
5094.537657282226
 20
3532.633538389028
 30
0.0
 11
5066.084662666021
 21
3456.684839419605
 31
0.0
  0
LINE
  5
189A6
330
18408
100
AcDbEntity
  8
HIKIDASHI
100
AcDbLine
 10
5066.084662666021
 20
3456.684839419605
 30
0.0
 11
5117.631668049813
 21
3519.300205055695
 31
0.0
  0
SOLID
  5
189A7
330
18408
100
AcDbEntity
  8
HIKIDASHI
100
AcDbTrace
 10
5094.537657282226
 20
3532.633538389028
 30
0.0
 11
5117.631668049813
 21
3519.300205055695
 31
0.0
 12
5066.084662666021
 22
3456.684839419605
 32
0.0
 13
5066.084662666021
 23
3456.684839419605
 33
0.0
  0
LINE
  5
189A8
330
18408
100
AcDbEntity
  8
HIKIDASHI
100
AcDbLine
 10
5117.631668049813
 20
3519.300205055695
 30
0.0
 11
5094.537657282226
 21
3532.633538389028
 31
0.0
  0
ARC
  5
189A9
330
18408
100
AcDbEntity
  8
HIKIDASHI
100
AcDbCircle
 10
7243.085124621173
 20
1890.249695302057
 30
0.0
 40
74.66417910452232
100
AcDbArc
 50
301.7712278330705
 51
15.14038701490951
  0
LINE
  5
189AA
330
18408
100
AcDbEntity
  8
HIKIDASHI
100
AcDbLine
 10
8365.443052330508
 20
2790.288985226448
 30
0.0
 11
7568.025406890003
 21
1938.684839419604
 31
0.0
1001
ACAD
1000
DSTYLE
1002
{
1070
   147
1040
1.0
1070
    77
1070
     0
1002
}
  0
LINE
  5
189AB
330
18408
100
AcDbEntity
  8
HIKIDASHI
100
AcDbLine
 10
8375.175694696034
 20
2781.17561864968
 30
0.0
 11
8420.12325179111
 21
2848.684839419607
 31
0.0
  0
LINE
  5
189AC
330
18408
100
AcDbEntity
  8
HIKIDASHI
100
AcDbLine
 10
8420.12325179111
 20
2848.684839419607
 30
0.0
 11
8355.710409964979
 21
2799.402351803216
 31
0.0
  0
SOLID
  5
189AD
330
18408
100
AcDbEntity
  8
HIKIDASHI
100
AcDbTrace
 10
8375.175694696034
 20
2781.17561864968
 30
0.0
 11
8355.710409964979
 21
2799.402351803216
 31
0.0
 12
8420.12325179111
 22
2848.684839419607
 32
0.0
 13
8420.12325179111
 23
2848.684839419607
 33
0.0
  0
LINE
  5
189AE
330
18408
100
AcDbEntity
  8
HIKIDASHI
100
AcDbLine
 10
8355.710409964979
 20
2799.402351803216
 30
0.0
 11
8375.175694696034
 21
2781.17561864968
 31
0.0
  0
LINE
  5
189AF
330
18408
100
AcDbEntity
  8
HIKIDASHI
100
AcDbLine
 10
11918.49428872015
 20
2916.119351150967
 30
0.0
 11
12073.23363223807
 21
3067.661600164834
 31
0.0
1001
ACAD
1000
DSTYLE
1002
{
1070
   147
1040
1.0
1070
    77
1070
     0
1002
}
  0
LINE
  5
189B0
330
18408
100
AcDbEntity
  8
HIKIDASHI
100
AcDbLine
 10
11909.16512087052
 20
2925.645336927309
 30
0.0
 11
11861.33837406209
 21
2860.144344053149
 31
0.0
  0
LINE
  5
189B1
330
18408
100
AcDbEntity
  8
HIKIDASHI
100
AcDbLine
 10
11861.33837406209
 20
2860.144344053149
 30
0.0
 11
11927.82345656978
 21
2906.593365374622
 31
0.0
  0
SOLID
  5
189B2
330
18408
100
AcDbEntity
  8
HIKIDASHI
100
AcDbTrace
 10
11909.16512087052
 20
2925.645336927309
 30
0.0
 11
11927.82345656978
 21
2906.593365374622
 31
0.0
 12
11861.33837406209
 22
2860.144344053149
 32
0.0
 13
11861.33837406209
 23
2860.144344053149
 33
0.0
  0
LINE
  5
189B3
330
18408
100
AcDbEntity
  8
HIKIDASHI
100
AcDbLine
 10
11927.82345656978
 20
2906.593365374622
 30
0.0
 11
11909.16512087052
 21
2925.645336927309
 31
0.0
  0
LINE
  5
189B4
330
18408
100
AcDbEntity
  8
HIKIDASHI
100
AcDbLine
 10
11865.19119696312
 20
2619.990092191335
 30
0.0
 11
12256.64239875644
 21
2245.804976716085
 31
0.0
1001
ACAD
1000
DSTYLE
1002
{
1070
   147
1040
1.0
1070
    77
1070
     0
1002
}
  0
LINE
  5
189B5
330
18408
100
AcDbEntity
  8
HIKIDASHI
100
AcDbLine
 10
11874.40432936103
 20
2629.628347697202
 30
0.0
 11
11807.36166392793
 21
2675.268886578793
 31
0.0
  0
LINE
  5
189B6
330
18408
100
AcDbEntity
  8
HIKIDASHI
100
AcDbLine
 10
11807.36166392793
 20
2675.268886578793
 30
0.0
 11
11855.97806456522
 21
2610.351836685468
 31
0.0
  0
SOLID
  5
189B7
330
18408
100
AcDbEntity
  8
HIKIDASHI
100
AcDbTrace
 10
11874.40432936103
 20
2629.628347697202
 30
0.0
 11
11855.97806456522
 21
2610.351836685468
 31
0.0
 12
11807.36166392793
 22
2675.268886578793
 32
0.0
 13
11807.36166392793
 23
2675.268886578793
 33
0.0
  0
LINE
  5
189B8
330
18408
100
AcDbEntity
  8
HIKIDASHI
100
AcDbLine
 10
11855.97806456522
 20
2610.351836685468
 30
0.0
 11
11874.40432936103
 21
2629.628347697202
 31
0.0
  0
LINE
  5
189B9
330
18408
100
AcDbEntity
  8
HATCH
100
AcDbLine
 10
5961.438852163285
 20
3191.084839420222
 30
0.0
 11
6035.339686619554
 21
3319.084839420217
 31
0.0
  0
LINE
  5
189BA
330
18408
100
AcDbEntity
  8
HATCH
100
AcDbLine
 10
5996.939686619556
 20
3319.084839420215
 30
0.0
 11
6016.139686619554
 21
3285.829463914896
 31
0.0
  0
LINE
  5
189BB
330
18408
100
AcDbEntity
  8
HATCH
100
AcDbLine
 10
5673.438852163286
 20
3191.084839420222
 30
0.0
 11
5747.339686619554
 21
3319.084839420217
 31
0.0
  0
LINE
  5
189BC
330
18408
100
AcDbEntity
  8
HATCH
100
AcDbLine
 10
5708.939686619554
 20
3319.084839420215
 30
0.0
 11
5728.139686619555
 21
3285.829463914896
 31
0.0
  0
LINE
  5
189BD
330
18408
100
AcDbEntity
  8
HATCH
100
AcDbLine
 10
5529.438852163284
 20
3191.084839420222
 30
0.0
 11
5603.339686619555
 21
3319.084839420217
 31
0.0
  0
LINE
  5
189BE
330
18408
100
AcDbEntity
  8
HATCH
100
AcDbLine
 10
5564.939686619556
 20
3319.084839420215
 30
0.0
 11
5584.139686619554
 21
3285.829463914896
 31
0.0
  0
LINE
  5
189BF
330
18408
100
AcDbEntity
  8
HATCH
100
AcDbLine
 10
5817.438852163284
 20
3191.084839420222
 30
0.0
 11
5891.339686619553
 21
3319.084839420217
 31
0.0
  0
LINE
  5
189C0
330
18408
100
AcDbEntity
  8
HATCH
100
AcDbLine
 10
5852.939686619555
 20
3319.084839420215
 30
0.0
 11
5872.139686619554
 21
3285.829463914896
 31
0.0
  0
LINE
  5
189C1
330
18408
100
AcDbEntity
  8
HATCH
100
AcDbLine
 10
9309.765052688851
 20
3191.084839419572
 30
0.0
 11
9383.66588714514
 21
3319.084839419601
 31
0.0
  0
LINE
  5
189C2
330
18408
100
AcDbEntity
  8
HATCH
100
AcDbLine
 10
9345.265887145131
 20
3319.084839419601
 30
0.0
 11
9364.465887145135
 21
3285.829463914274
 31
0.0
  0
LINE
  5
189C3
330
18408
100
AcDbEntity
  8
HATCH
100
AcDbLine
 10
9453.765052688849
 20
3191.084839419572
 30
0.0
 11
9527.66588714514
 21
3319.084839419601
 31
0.0
  0
LINE
  5
189C4
330
18408
100
AcDbEntity
  8
HATCH
100
AcDbLine
 10
9489.265887145132
 20
3319.084839419601
 30
0.0
 11
9508.465887145135
 21
3285.829463914274
 31
0.0
  0
LINE
  5
189C5
330
18408
100
AcDbEntity
  8
HATCH
100
AcDbLine
 10
9741.765052688851
 20
3191.084839419572
 30
0.0
 11
9815.66588714514
 21
3319.084839419601
 31
0.0
  0
LINE
  5
189C6
330
18408
100
AcDbEntity
  8
HATCH
100
AcDbLine
 10
9777.265887145132
 20
3319.084839419601
 30
0.0
 11
9796.465887145137
 21
3285.829463914274
 31
0.0
  0
LINE
  5
189C7
330
18408
100
AcDbEntity
  8
HATCH
100
AcDbLine
 10
9597.765052688851
 20
3191.084839419572
 30
0.0
 11
9671.66588714514
 21
3319.084839419601
 31
0.0
  0
LINE
  5
189C8
330
18408
100
AcDbEntity
  8
HATCH
100
AcDbLine
 10
9633.265887145132
 20
3319.084839419601
 30
0.0
 11
9652.465887145137
 21
3285.829463914274
 31
0.0
  0
LINE
  5
189C9
330
18408
100
AcDbEntity
  8
HATCH
100
AcDbLine
 10
9741.765052686934
 20
3191.084839418955
 30
0.0
 11
9815.665887143204
 21
3319.084839418948
 31
0.0
  0
LINE
  5
189CA
330
18408
100
AcDbEntity
  8
HATCH
100
AcDbLine
 10
9777.265887143206
 20
3319.084839418947
 30
0.0
 11
9796.465887143202
 21
3285.829463913629
 31
0.0
  0
LINE
  5
189CB
330
18408
100
AcDbEntity
  8
HATCH
100
AcDbLine
 10
9453.765052686932
 20
3191.084839418955
 30
0.0
 11
9527.665887143198
 21
3319.084839418948
 31
0.0
  0
LINE
  5
189CC
330
18408
100
AcDbEntity
  8
HATCH
100
AcDbLine
 10
9489.265887143199
 20
3319.084839418947
 30
0.0
 11
9508.465887143202
 21
3285.829463913629
 31
0.0
  0
LINE
  5
189CD
330
18408
100
AcDbEntity
  8
HATCH
100
AcDbLine
 10
9309.765052686932
 20
3191.084839418955
 30
0.0
 11
9383.6658871432
 21
3319.084839418948
 31
0.0
  0
LINE
  5
189CE
330
18408
100
AcDbEntity
  8
HATCH
100
AcDbLine
 10
9345.265887143204
 20
3319.084839418947
 30
0.0
 11
9364.465887143202
 21
3285.829463913629
 31
0.0
  0
LINE
  5
189CF
330
18408
100
AcDbEntity
  8
HATCH
100
AcDbLine
 10
9597.765052686932
 20
3191.084839418955
 30
0.0
 11
9671.665887143205
 21
3319.084839418948
 31
0.0
  0
LINE
  5
189D0
330
18408
100
AcDbEntity
  8
HATCH
100
AcDbLine
 10
9633.265887143204
 20
3319.084839418947
 30
0.0
 11
9652.465887143202
 21
3285.829463913629
 31
0.0
  0
LINE
  5
189D1
330
18408
100
AcDbEntity
  8
TENSEN-1
100
AcDbLine
 10
4735.797051267462
 20
2869.484839419607
 30
0.0
 11
4789.397051267463
 21
2869.484839419607
 31
0.0
  0
LINE
  5
189D2
330
18408
100
AcDbEntity
  8
TENSEN-1
100
AcDbLine
 10
4789.397051267463
 20
2869.484839419607
 30
0.0
 11
4789.397051267463
 21
3360.684839419607
 31
0.0
  0
LINE
  5
189D3
330
18408
100
AcDbEntity
  8
TENSEN-1
100
AcDbLine
 10
4789.397051267463
 20
3360.684839419607
 30
0.0
 11
4810.197051267465
 21
3360.684839419607
 31
0.0
  0
LINE
  5
189D4
330
18408
100
AcDbEntity
  8
TENSEN-1
100
AcDbLine
 10
4810.197051267465
 20
3360.684839419607
 30
0.0
 11
4810.197051267465
 21
2848.684839419607
 31
0.0
  0
LINE
  5
189D5
330
18408
100
AcDbEntity
  8
TENSEN-1
100
AcDbLine
 10
4810.197051267465
 20
2848.684839419607
 30
0.0
 11
4735.797051267462
 21
2848.684839419607
 31
0.0
  0
LINE
  5
189D6
330
18408
100
AcDbEntity
  8
TENSEN-1
100
AcDbLine
 10
4735.797051267462
 20
2848.684839419607
 30
0.0
 11
4735.797051267462
 21
2869.484839419607
 31
0.0
  0
LINE
  5
189D7
330
18408
100
AcDbEntity
  8
HASHIRA
100
AcDbLine
 10
4735.797051267462
 20
3319.084839419608
 30
0.0
 11
4863.797051267464
 21
3319.084839419608
 31
0.0
  0
LINE
  5
189D8
330
18408
100
AcDbEntity
  8
HASHIRA
100
AcDbLine
 10
4863.797051267464
 20
3319.084839419608
 30
0.0
 11
4863.797051267464
 21
3328.684839419607
 31
0.0
  0
LINE
  5
189D9
330
18408
100
AcDbEntity
  8
HASHIRA
100
AcDbLine
 10
4863.797051267464
 20
3328.684839419607
 30
0.0
 11
4735.797051267462
 21
3328.684839419607
 31
0.0
  0
LINE
  5
189DA
330
18408
100
AcDbEntity
  8
HASHIRA
100
AcDbLine
 10
4735.797051267462
 20
3328.684839419607
 30
0.0
 11
4735.797051267462
 21
3319.084839419608
 31
0.0
  0
LINE
  5
189DB
330
18408
100
AcDbEntity
  8
HATCH
100
AcDbLine
 10
5999.838852163279
 20
3191.084839420224
 30
0.0
 11
5980.63885216328
 21
3224.340214925541
 31
0.0
  0
LINE
  5
189DC
330
18408
100
AcDbEntity
  8
HATCH
100
AcDbLine
 10
5711.838852163278
 20
3191.084839420224
 30
0.0
 11
5692.63885216328
 21
3224.340214925541
 31
0.0
  0
LINE
  5
189DD
330
18408
100
AcDbEntity
  8
HATCH
100
AcDbLine
 10
5567.838852163279
 20
3191.084839420224
 30
0.0
 11
5548.638852163279
 21
3224.340214925541
 31
0.0
  0
LINE
  5
189DE
330
18408
100
AcDbEntity
  8
HATCH
100
AcDbLine
 10
5855.838852163278
 20
3191.084839420224
 30
0.0
 11
5836.63885216328
 21
3224.340214925541
 31
0.0
  0
LINE
  5
189DF
330
18408
100
AcDbEntity
  8
BOLT
100
AcDbLine
 10
8593.723251791109
 20
3424.684839419607
 30
0.0
 11
8593.723251791109
 21
3432.536803080584
 31
0.0
  0
LINE
  5
189E0
330
18408
100
AcDbEntity
  8
BOLT
100
AcDbLine
 10
8593.723251791109
 20
3432.536803080584
 30
0.0
 11
8580.123251791111
 21
3440.388766741566
 31
0.0
  0
LINE
  5
189E1
330
18408
100
AcDbEntity
  8
BOLT
100
AcDbLine
 10
8580.123251791111
 20
3440.388766741566
 30
0.0
 11
8566.523251791107
 21
3432.536803080584
 31
0.0
  0
LINE
  5
189E2
330
18408
100
AcDbEntity
  8
BOLT
100
AcDbLine
 10
8566.523251791107
 20
3432.536803080584
 30
0.0
 11
8566.523251791107
 21
3424.684839419607
 31
0.0
  0
LINE
  5
189E3
330
18408
100
AcDbEntity
  8
BOLT
100
AcDbLine
 10
8566.523251791107
 20
3424.684839419607
 30
0.0
 11
8566.523251791107
 21
3416.832875758626
 31
0.0
  0
LINE
  5
189E4
330
18408
100
AcDbEntity
  8
BOLT
100
AcDbLine
 10
8566.523251791107
 20
3416.832875758626
 30
0.0
 11
8580.123251791111
 21
3408.980912097646
 31
0.0
  0
LINE
  5
189E5
330
18408
100
AcDbEntity
  8
BOLT
100
AcDbLine
 10
8580.123251791111
 20
3408.980912097646
 30
0.0
 11
8593.723251791109
 21
3416.832875758626
 31
0.0
  0
LINE
  5
189E6
330
18408
100
AcDbEntity
  8
BOLT
100
AcDbLine
 10
8593.723251791109
 20
3416.832875758626
 30
0.0
 11
8593.723251791109
 21
3424.684839419607
 31
0.0
  0
LINE
  5
189E7
330
18408
100
AcDbEntity
  8
BOLT
100
AcDbLine
 10
8593.723251791109
 20
3360.684839419607
 30
0.0
 11
8593.723251791109
 21
3368.536803080584
 31
0.0
  0
LINE
  5
189E8
330
18408
100
AcDbEntity
  8
BOLT
100
AcDbLine
 10
8593.723251791109
 20
3368.536803080584
 30
0.0
 11
8580.123251791111
 21
3376.388766741566
 31
0.0
  0
LINE
  5
189E9
330
18408
100
AcDbEntity
  8
BOLT
100
AcDbLine
 10
8580.123251791111
 20
3376.388766741566
 30
0.0
 11
8566.523251791107
 21
3368.536803080584
 31
0.0
  0
LINE
  5
189EA
330
18408
100
AcDbEntity
  8
BOLT
100
AcDbLine
 10
8566.523251791107
 20
3368.536803080584
 30
0.0
 11
8566.523251791107
 21
3360.684839419607
 31
0.0
  0
LINE
  5
189EB
330
18408
100
AcDbEntity
  8
BOLT
100
AcDbLine
 10
8566.523251791107
 20
3360.684839419607
 30
0.0
 11
8566.523251791107
 21
3352.832875758626
 31
0.0
  0
LINE
  5
189EC
330
18408
100
AcDbEntity
  8
BOLT
100
AcDbLine
 10
8566.523251791107
 20
3352.832875758626
 30
0.0
 11
8580.123251791111
 21
3344.980912097646
 31
0.0
  0
LINE
  5
189ED
330
18408
100
AcDbEntity
  8
BOLT
100
AcDbLine
 10
8580.123251791111
 20
3344.980912097646
 30
0.0
 11
8593.723251791109
 21
3352.832875758626
 31
0.0
  0
LINE
  5
189EE
330
18408
100
AcDbEntity
  8
BOLT
100
AcDbLine
 10
8593.723251791109
 20
3352.832875758626
 30
0.0
 11
8593.723251791109
 21
3360.684839419607
 31
0.0
  0
LINE
  5
189EF
330
18408
100
AcDbEntity
  8
HASHIRA
100
AcDbLine
 10
8452.12325179111
 20
3319.084839419606
 30
0.0
 11
8708.123251791105
 21
3319.084839419606
 31
0.0
  0
LINE
  5
189F0
330
18408
100
AcDbEntity
  8
HASHIRA
100
AcDbLine
 10
8708.123251791105
 20
3319.084839419606
 30
0.0
 11
8708.123251791105
 21
3328.684839419607
 31
0.0
  0
LINE
  5
189F1
330
18408
100
AcDbEntity
  8
HASHIRA
100
AcDbLine
 10
8708.123251791105
 20
3328.684839419607
 30
0.0
 11
8452.12325179111
 21
3328.684839419607
 31
0.0
  0
LINE
  5
189F2
330
18408
100
AcDbEntity
  8
HASHIRA
100
AcDbLine
 10
8452.12325179111
 20
3328.684839419607
 30
0.0
 11
8452.12325179111
 21
3319.084839419606
 31
0.0
  0
LINE
  5
189F3
330
18408
100
AcDbEntity
  8
TENSEN-1
100
AcDbLine
 10
8420.12325179111
 20
2869.484839419605
 30
0.0
 11
8473.723251791112
 21
2869.484839419605
 31
0.0
  0
LINE
  5
189F4
330
18408
100
AcDbEntity
  8
TENSEN-1
100
AcDbLine
 10
8473.723251791112
 20
2869.484839419605
 30
0.0
 11
8473.723251791112
 21
3360.684839419607
 31
0.0
  0
LINE
  5
189F5
330
18408
100
AcDbEntity
  8
TENSEN-1
100
AcDbLine
 10
8473.723251791112
 20
3360.684839419607
 30
0.0
 11
8494.523251791115
 21
3360.684839419607
 31
0.0
  0
LINE
  5
189F6
330
18408
100
AcDbEntity
  8
TENSEN-1
100
AcDbLine
 10
8494.523251791115
 20
3360.684839419607
 30
0.0
 11
8494.523251791115
 21
2848.684839419607
 31
0.0
  0
LINE
  5
189F7
330
18408
100
AcDbEntity
  8
TENSEN-1
100
AcDbLine
 10
8494.523251791115
 20
2848.684839419607
 30
0.0
 11
8420.12325179111
 21
2848.684839419607
 31
0.0
  0
LINE
  5
189F8
330
18408
100
AcDbEntity
  8
TENSEN-1
100
AcDbLine
 10
8420.12325179111
 20
2848.684839419607
 30
0.0
 11
8420.12325179111
 21
2869.484839419605
 31
0.0
  0
LINE
  5
189F9
330
18408
100
AcDbEntity
  8
TENSEN-1
100
AcDbLine
 10
8740.123251791107
 20
2869.484839419605
 30
0.0
 11
8686.523251791106
 21
2869.484839419605
 31
0.0
  0
LINE
  5
189FA
330
18408
100
AcDbEntity
  8
TENSEN-1
100
AcDbLine
 10
8686.523251791106
 20
2869.484839419605
 30
0.0
 11
8686.523251791106
 21
3360.684839419607
 31
0.0
  0
LINE
  5
189FB
330
18408
100
AcDbEntity
  8
TENSEN-1
100
AcDbLine
 10
8686.523251791106
 20
3360.684839419607
 30
0.0
 11
8665.723251791112
 21
3360.684839419607
 31
0.0
  0
LINE
  5
189FC
330
18408
100
AcDbEntity
  8
TENSEN-1
100
AcDbLine
 10
8665.723251791112
 20
3360.684839419607
 30
0.0
 11
8665.723251791105
 21
2848.684839419607
 31
0.0
  0
LINE
  5
189FD
330
18408
100
AcDbEntity
  8
TENSEN-1
100
AcDbLine
 10
8665.723251791105
 20
2848.684839419607
 30
0.0
 11
8740.123251791107
 21
2848.684839419607
 31
0.0
  0
LINE
  5
189FE
330
18408
100
AcDbEntity
  8
TENSEN-1
100
AcDbLine
 10
8740.123251791107
 20
2848.684839419607
 30
0.0
 11
8740.123251791107
 21
2869.484839419605
 31
0.0
  0
LINE
  5
189FF
330
18408
100
AcDbEntity
  8
HATCH
100
AcDbLine
 10
9348.165052688857
 20
3191.084839419572
 30
0.0
 11
9328.965052688852
 21
3224.3402149249
 31
0.0
  0
LINE
  5
18A00
330
18408
100
AcDbEntity
  8
HATCH
100
AcDbLine
 10
9492.165052688857
 20
3191.084839419572
 30
0.0
 11
9472.965052688854
 21
3224.3402149249
 31
0.0
  0
LINE
  5
18A01
330
18408
100
AcDbEntity
  8
HATCH
100
AcDbLine
 10
9780.165052688857
 20
3191.084839419572
 30
0.0
 11
9760.965052688852
 21
3224.3402149249
 31
0.0
  0
LINE
  5
18A02
330
18408
100
AcDbEntity
  8
HATCH
100
AcDbLine
 10
9636.165052688857
 20
3191.084839419572
 30
0.0
 11
9616.965052688854
 21
3224.3402149249
 31
0.0
  0
LINE
  5
18A03
330
18408
100
AcDbEntity
  8
HATCH
100
AcDbLine
 10
9780.165052686927
 20
3191.084839418956
 30
0.0
 11
9760.965052686927
 21
3224.340214924272
 31
0.0
  0
LINE
  5
18A04
330
18408
100
AcDbEntity
  8
HATCH
100
AcDbLine
 10
9492.165052686925
 20
3191.084839418956
 30
0.0
 11
9472.965052686927
 21
3224.340214924272
 31
0.0
  0
LINE
  5
18A05
330
18408
100
AcDbEntity
  8
HATCH
100
AcDbLine
 10
9348.16505268693
 20
3191.084839418956
 30
0.0
 11
9328.965052686926
 21
3224.340214924272
 31
0.0
  0
LINE
  5
18A06
330
18408
100
AcDbEntity
  8
HATCH
100
AcDbLine
 10
9636.165052686925
 20
3191.084839418956
 30
0.0
 11
9616.965052686927
 21
3224.340214924272
 31
0.0
  0
LINE
  5
18A07
330
18408
100
AcDbEntity
  8
KISO
100
AcDbLine
 10
7780.123251791109
 20
2711.084839419607
 30
0.0
 11
9380.123251791109
 21
2711.084839419607
 31
0.0
  0
LINE
  5
18A08
330
18408
100
AcDbEntity
  8
KISO
100
AcDbLine
 10
9380.123251791109
 20
2711.084839419607
 30
0.0
 11
9380.123251791109
 21
2551.084839419601
 31
0.0
  0
LINE
  5
18A09
330
18408
100
AcDbEntity
  8
KISO
100
AcDbLine
 10
9380.123251791109
 20
2551.084839419601
 30
0.0
 11
7780.123251791109
 21
2551.084839419601
 31
0.0
  0
LINE
  5
18A0A
330
18408
100
AcDbEntity
  8
KISO
100
AcDbLine
 10
7780.123251791109
 20
2551.084839419601
 30
0.0
 11
7780.123251791109
 21
2711.084839419607
 31
0.0
  0
LINE
  5
18A0B
330
18408
100
AcDbEntity
  8
KISO
100
AcDbLine
 10
5599.797051267461
 20
2711.084839419601
 30
0.0
 11
3999.797051267461
 21
2711.084839419601
 31
0.0
  0
LINE
  5
18A0C
330
18408
100
AcDbEntity
  8
KISO
100
AcDbLine
 10
3999.797051267461
 20
2711.084839419601
 30
0.0
 11
3999.797051267461
 21
2551.084839419601
 31
0.0
  0
LINE
  5
18A0D
330
18408
100
AcDbEntity
  8
KISO
100
AcDbLine
 10
3999.797051267461
 20
2551.084839419601
 30
0.0
 11
5599.797051267461
 21
2551.084839419601
 31
0.0
  0
LINE
  5
18A0E
330
18408
100
AcDbEntity
  8
KISO
100
AcDbLine
 10
5599.797051267461
 20
2551.084839419601
 30
0.0
 11
5599.797051267461
 21
2711.084839419601
 31
0.0
  0
LINE
  5
18A0F
330
18408
100
AcDbEntity
  8
U1
100
AcDbLine
 10
11221.33837406209
 20
3618.337036584561
 30
0.0
 11
11861.33837406209
 21
3618.337036584561
 31
0.0
  0
LINE
  5
18A10
330
18408
100
AcDbEntity
  8
U1
100
AcDbLine
 10
11861.33837406209
 20
3618.337036584561
 30
0.0
 11
11861.33837406209
 21
3642.337036584561
 31
0.0
  0
LINE
  5
18A11
330
18408
100
AcDbEntity
  8
U1
100
AcDbLine
 10
11861.33837406209
 20
3642.337036584561
 30
0.0
 11
11221.33837406209
 21
3642.337036584561
 31
0.0
  0
LINE
  5
18A12
330
18408
100
AcDbEntity
  8
U1
100
AcDbLine
 10
11221.33837406209
 20
3642.337036584561
 30
0.0
 11
11221.33837406209
 21
3618.337036584561
 31
0.0
  0
LINE
  5
18A13
330
18408
100
AcDbEntity
  8
U1
100
AcDbLine
 10
11221.33837406209
 20
2540.144344053149
 30
0.0
 11
11861.33837406209
 21
2540.144344053149
 31
0.0
  0
LINE
  5
18A14
330
18408
100
AcDbEntity
  8
U1
100
AcDbLine
 10
11861.33837406209
 20
2540.144344053149
 30
0.0
 11
11861.33837406209
 21
2860.144344053149
 31
0.0
  0
LINE
  5
18A15
330
18408
100
AcDbEntity
  8
U1
100
AcDbLine
 10
11861.33837406209
 20
2860.144344053149
 30
0.0
 11
11221.33837406209
 21
2860.144344053149
 31
0.0
  0
LINE
  5
18A16
330
18408
100
AcDbEntity
  8
U1
100
AcDbLine
 10
11221.33837406209
 20
2860.144344053149
 30
0.0
 11
11221.33837406209
 21
2540.144344053149
 31
0.0
  0
LINE
  5
18A17
330
18408
100
AcDbEntity
  8
U1
100
AcDbLine
 10
11391.33837406208
 20
2550.144344053149
 30
0.0
 11
11691.33837406209
 21
2550.144344053149
 31
0.0
  0
LINE
  5
18A18
330
18408
100
AcDbEntity
  8
U1
100
AcDbLine
 10
11691.33837406209
 20
2550.144344053149
 30
0.0
 11
11691.33837406209
 21
2850.144344053148
 31
0.0
  0
LINE
  5
18A19
330
18408
100
AcDbEntity
  8
U1
100
AcDbLine
 10
11691.33837406209
 20
2850.144344053148
 30
0.0
 11
11391.33837406208
 21
2850.144344053148
 31
0.0
  0
LINE
  5
18A1A
330
18408
100
AcDbEntity
  8
U1
100
AcDbLine
 10
11391.33837406208
 20
2850.144344053148
 30
0.0
 11
11391.33837406208
 21
2550.144344053149
 31
0.0
  0
LINE
  5
18A1B
330
18408
100
AcDbEntity
  8
DOMAKON
100
AcDbLine
 10
6794.127507899642
 20
8908.243182432325
 30
0.0
 11
10044.12750789964
 21
8908.243182432325
 31
0.0
  0
LINE
  5
18A1C
330
18408
100
AcDbEntity
  8
DOMAKON
100
AcDbLine
 10
10044.12750789964
 20
8908.243182432325
 30
0.0
 11
10044.12750789964
 21
6508.243182432327
 31
0.0
  0
LINE
  5
18A1D
330
18408
100
AcDbEntity
  8
DOMAKON
100
AcDbLine
 10
10044.12750789964
 20
6508.243182432327
 30
0.0
 11
6794.127507899642
 21
6508.243182432327
 31
0.0
  0
LINE
  5
18A1E
330
18408
100
AcDbEntity
  8
DOMAKON
100
AcDbLine
 10
6794.127507899642
 20
6508.243182432327
 30
0.0
 11
6794.127507899642
 21
8908.243182432325
 31
0.0
  0
LINE
  5
18A1F
330
18408
100
AcDbEntity
  8
U1
100
AcDbLine
 10
7200.327507899641
 20
6938.443182432329
 30
0.0
 11
7167.927507899641
 21
6938.443182432329
 31
0.0
  0
LINE
  5
18A20
330
18408
100
AcDbEntity
  8
U1
100
AcDbLine
 10
7167.927507899641
 20
6878.043182432326
 30
0.0
 11
7220.327507899643
 21
6878.043182432326
 31
0.0
  0
ARC
  5
18A21
330
18408
100
AcDbEntity
  8
U1
100
AcDbCircle
 10
7167.927507899641
 20
6882.043182432325
 30
0.0
 40
4.0
100
AcDbArc
 50
180.0
 51
270.0
  0
ARC
  5
18A22
330
18408
100
AcDbEntity
  8
U1
100
AcDbCircle
 10
7167.927507899641
 20
6934.443182432325
 30
0.0
 40
4.0
100
AcDbArc
 50
90.0
 51
180.0
  0
LINE
  5
18A23
330
18408
100
AcDbEntity
  8
U1
100
AcDbLine
 10
7163.92750789964
 20
6934.443182432325
 30
0.0
 11
7163.92750789964
 21
6882.043182432325
 31
0.0
  0
ARC
  5
18A24
330
18408
100
AcDbEntity
  8
U1
100
AcDbCircle
 10
7220.327507899643
 20
6882.043182432325
 30
0.0
 40
4.0
100
AcDbArc
 50
270.0
 51
0.0
  0
ARC
  5
18A25
330
18408
100
AcDbEntity
  8
U1
100
AcDbCircle
 10
7200.327507899641
 20
6934.443182432325
 30
0.0
 40
4.0
100
AcDbArc
 50
0.0
 51
90.0
  0
ARC
  5
18A26
330
18408
100
AcDbEntity
  8
U1
100
AcDbCircle
 10
7207.777507899641
 20
6925.193182432328
 30
0.0
 40
1.149999999999977
100
AcDbArc
 50
180.0
 51
0.0
  0
LINE
  5
18A27
330
18408
100
AcDbEntity
  8
U1
100
AcDbLine
 10
7211.22750789964
 20
6932.743182432327
 30
0.0
 11
7211.22750789964
 21
6925.193182432328
 31
0.0
  0
LINE
  5
18A28
330
18408
100
AcDbEntity
  8
U1
100
AcDbLine
 10
7208.927507899639
 20
6932.743182432327
 30
0.0
 11
7211.22750789964
 21
6932.743182432327
 31
0.0
  0
LINE
  5
18A29
330
18408
100
AcDbEntity
  8
U1
100
AcDbLine
 10
7206.627507899643
 20
6925.743182432326
 30
0.0
 11
7208.927507899639
 21
6925.743182432326
 31
0.0
  0
ARC
  5
18A2A
330
18408
100
AcDbEntity
  8
U1
100
AcDbCircle
 10
7207.777507899641
 20
6925.193182432328
 30
0.0
 40
3.450000000000044
100
AcDbArc
 50
180.0
 51
0.0
  0
LINE
  5
18A2B
330
18408
100
AcDbEntity
  8
U1
100
AcDbLine
 10
7206.627507899643
 20
6925.193182432328
 30
0.0
 11
7206.627507899643
 21
6934.443182432325
 31
0.0
  0
LINE
  5
18A2C
330
18408
100
AcDbEntity
  8
U1
100
AcDbLine
 10
7208.927507899639
 20
6934.443182432325
 30
0.0
 11
7208.927507899639
 21
6925.193182432328
 31
0.0
  0
LINE
  5
18A2D
330
18408
100
AcDbEntity
  8
U1
100
AcDbLine
 10
7204.327507899641
 20
6925.193182432328
 30
0.0
 11
7204.327507899641
 21
6934.443182432325
 31
0.0
  0
ARC
  5
18A2E
330
18408
100
AcDbEntity
  8
U1
100
AcDbCircle
 10
7220.327507899638
 20
6934.443182432325
 30
0.0
 40
4.0
100
AcDbArc
 50
0.0
 51
90.0
  0
LINE
  5
18A2F
330
18408
100
AcDbEntity
  8
U1
100
AcDbLine
 10
7220.327507899638
 20
6938.443182432329
 30
0.0
 11
7212.92750789964
 21
6938.443182432329
 31
0.0
  0
ARC
  5
18A30
330
18408
100
AcDbEntity
  8
U1
100
AcDbCircle
 10
7212.92750789964
 20
6934.443182432325
 30
0.0
 40
4.0
100
AcDbArc
 50
90.0
 51
180.0
  0
LINE
  5
18A31
330
18408
100
AcDbEntity
  8
U1
100
AcDbLine
 10
7224.327507899642
 20
6882.043182432325
 30
0.0
 11
7224.327507899642
 21
6934.443182432325
 31
0.0
  0
LINE
  5
18A32
330
18408
100
AcDbEntity
  8
U1
100
AcDbLine
 10
7200.327507899641
 20
8738.443182432325
 30
0.0
 11
7167.927507899641
 21
8738.443182432325
 31
0.0
  0
LINE
  5
18A33
330
18408
100
AcDbEntity
  8
U1
100
AcDbLine
 10
7167.927507899641
 20
8678.043182432324
 30
0.0
 11
7220.327507899643
 21
8678.043182432324
 31
0.0
  0
ARC
  5
18A34
330
18408
100
AcDbEntity
  8
U1
100
AcDbCircle
 10
7167.927507899641
 20
8682.043182432327
 30
0.0
 40
4.0
100
AcDbArc
 50
180.0
 51
270.0
  0
ARC
  5
18A35
330
18408
100
AcDbEntity
  8
U1
100
AcDbCircle
 10
7167.927507899641
 20
8734.443182432325
 30
0.0
 40
4.0
100
AcDbArc
 50
90.0
 51
180.0
  0
LINE
  5
18A36
330
18408
100
AcDbEntity
  8
U1
100
AcDbLine
 10
7163.92750789964
 20
8734.443182432325
 30
0.0
 11
7163.92750789964
 21
8682.043182432327
 31
0.0
  0
ARC
  5
18A37
330
18408
100
AcDbEntity
  8
U1
100
AcDbCircle
 10
7220.327507899643
 20
8682.043182432327
 30
0.0
 40
4.0
100
AcDbArc
 50
270.0
 51
0.0
  0
ARC
  5
18A38
330
18408
100
AcDbEntity
  8
U1
100
AcDbCircle
 10
7200.327507899641
 20
8734.443182432325
 30
0.0
 40
4.0
100
AcDbArc
 50
0.0
 51
90.0
  0
ARC
  5
18A39
330
18408
100
AcDbEntity
  8
U1
100
AcDbCircle
 10
7207.777507899641
 20
8725.193182432326
 30
0.0
 40
1.149999999999977
100
AcDbArc
 50
180.0
 51
0.0
  0
LINE
  5
18A3A
330
18408
100
AcDbEntity
  8
U1
100
AcDbLine
 10
7211.22750789964
 20
8732.743182432328
 30
0.0
 11
7211.22750789964
 21
8725.193182432326
 31
0.0
  0
LINE
  5
18A3B
330
18408
100
AcDbEntity
  8
U1
100
AcDbLine
 10
7208.927507899639
 20
8732.743182432328
 30
0.0
 11
7211.22750789964
 21
8732.743182432328
 31
0.0
  0
LINE
  5
18A3C
330
18408
100
AcDbEntity
  8
U1
100
AcDbLine
 10
7206.627507899643
 20
8725.743182432324
 30
0.0
 11
7208.927507899639
 21
8725.743182432324
 31
0.0
  0
ARC
  5
18A3D
330
18408
100
AcDbEntity
  8
U1
100
AcDbCircle
 10
7207.777507899641
 20
8725.193182432326
 30
0.0
 40
3.450000000000044
100
AcDbArc
 50
180.0
 51
0.0
  0
LINE
  5
18A3E
330
18408
100
AcDbEntity
  8
U1
100
AcDbLine
 10
7206.627507899643
 20
8725.193182432326
 30
0.0
 11
7206.627507899643
 21
8734.443182432325
 31
0.0
  0
LINE
  5
18A3F
330
18408
100
AcDbEntity
  8
U1
100
AcDbLine
 10
7208.927507899639
 20
8734.443182432325
 30
0.0
 11
7208.927507899639
 21
8725.193182432326
 31
0.0
  0
LINE
  5
18A40
330
18408
100
AcDbEntity
  8
U1
100
AcDbLine
 10
7204.327507899641
 20
8725.193182432326
 30
0.0
 11
7204.327507899641
 21
8734.443182432325
 31
0.0
  0
ARC
  5
18A41
330
18408
100
AcDbEntity
  8
U1
100
AcDbCircle
 10
7220.327507899638
 20
8734.443182432325
 30
0.0
 40
4.0
100
AcDbArc
 50
0.0
 51
90.0
  0
LINE
  5
18A42
330
18408
100
AcDbEntity
  8
U1
100
AcDbLine
 10
7220.327507899638
 20
8738.443182432325
 30
0.0
 11
7212.92750789964
 21
8738.443182432325
 31
0.0
  0
ARC
  5
18A43
330
18408
100
AcDbEntity
  8
U1
100
AcDbCircle
 10
7212.92750789964
 20
8734.443182432325
 30
0.0
 40
4.0
100
AcDbArc
 50
90.0
 51
180.0
  0
LINE
  5
18A44
330
18408
100
AcDbEntity
  8
U1
100
AcDbLine
 10
7224.327507899642
 20
8682.043182432327
 30
0.0
 11
7224.327507899642
 21
8734.443182432325
 31
0.0
  0
LINE
  5
18A45
330
18408
100
AcDbEntity
  8
U1
100
AcDbLine
 10
9650.327507899639
 20
8738.443182432325
 30
0.0
 11
9617.92750789964
 21
8738.443182432325
 31
0.0
  0
LINE
  5
18A46
330
18408
100
AcDbEntity
  8
U1
100
AcDbLine
 10
9617.92750789964
 20
8678.043182432324
 30
0.0
 11
9670.32750789964
 21
8678.043182432324
 31
0.0
  0
ARC
  5
18A47
330
18408
100
AcDbEntity
  8
U1
100
AcDbCircle
 10
9617.92750789964
 20
8682.043182432327
 30
0.0
 40
4.0
100
AcDbArc
 50
180.0
 51
270.0
  0
ARC
  5
18A48
330
18408
100
AcDbEntity
  8
U1
100
AcDbCircle
 10
9617.92750789964
 20
8734.443182432325
 30
0.0
 40
4.0
100
AcDbArc
 50
90.0
 51
180.0
  0
LINE
  5
18A49
330
18408
100
AcDbEntity
  8
U1
100
AcDbLine
 10
9613.92750789964
 20
8734.443182432325
 30
0.0
 11
9613.92750789964
 21
8682.043182432327
 31
0.0
  0
ARC
  5
18A4A
330
18408
100
AcDbEntity
  8
U1
100
AcDbCircle
 10
9670.32750789964
 20
8682.043182432327
 30
0.0
 40
4.0
100
AcDbArc
 50
270.0
 51
0.0
  0
ARC
  5
18A4B
330
18408
100
AcDbEntity
  8
U1
100
AcDbCircle
 10
9650.327507899639
 20
8734.443182432325
 30
0.0
 40
4.0
100
AcDbArc
 50
0.0
 51
90.0
  0
ARC
  5
18A4C
330
18408
100
AcDbEntity
  8
U1
100
AcDbCircle
 10
9657.777507899645
 20
8725.193182432326
 30
0.0
 40
1.149999999999977
100
AcDbArc
 50
180.0
 51
0.0
  0
LINE
  5
18A4D
330
18408
100
AcDbEntity
  8
U1
100
AcDbLine
 10
9661.227507899644
 20
8732.743182432328
 30
0.0
 11
9661.227507899644
 21
8725.193182432326
 31
0.0
  0
LINE
  5
18A4E
330
18408
100
AcDbEntity
  8
U1
100
AcDbLine
 10
9658.92750789964
 20
8732.743182432328
 30
0.0
 11
9661.227507899644
 21
8732.743182432328
 31
0.0
  0
LINE
  5
18A4F
330
18408
100
AcDbEntity
  8
U1
100
AcDbLine
 10
9656.627507899642
 20
8725.743182432324
 30
0.0
 11
9658.92750789964
 21
8725.743182432324
 31
0.0
  0
ARC
  5
18A50
330
18408
100
AcDbEntity
  8
U1
100
AcDbCircle
 10
9657.777507899645
 20
8725.193182432326
 30
0.0
 40
3.450000000000044
100
AcDbArc
 50
180.0
 51
0.0
  0
LINE
  5
18A51
330
18408
100
AcDbEntity
  8
U1
100
AcDbLine
 10
9656.627507899642
 20
8725.193182432326
 30
0.0
 11
9656.627507899642
 21
8734.443182432325
 31
0.0
  0
LINE
  5
18A52
330
18408
100
AcDbEntity
  8
U1
100
AcDbLine
 10
9658.92750789964
 20
8734.443182432325
 30
0.0
 11
9658.92750789964
 21
8725.193182432326
 31
0.0
  0
LINE
  5
18A53
330
18408
100
AcDbEntity
  8
U1
100
AcDbLine
 10
9654.32750789964
 20
8725.193182432326
 30
0.0
 11
9654.32750789964
 21
8734.443182432325
 31
0.0
  0
ARC
  5
18A54
330
18408
100
AcDbEntity
  8
U1
100
AcDbCircle
 10
9670.32750789964
 20
8734.443182432325
 30
0.0
 40
4.0
100
AcDbArc
 50
0.0
 51
90.0
  0
LINE
  5
18A55
330
18408
100
AcDbEntity
  8
U1
100
AcDbLine
 10
9670.32750789964
 20
8738.443182432325
 30
0.0
 11
9662.92750789964
 21
8738.443182432325
 31
0.0
  0
ARC
  5
18A56
330
18408
100
AcDbEntity
  8
U1
100
AcDbCircle
 10
9662.92750789964
 20
8734.443182432325
 30
0.0
 40
4.0
100
AcDbArc
 50
90.0
 51
180.0
  0
LINE
  5
18A57
330
18408
100
AcDbEntity
  8
U1
100
AcDbLine
 10
9674.32750789964
 20
8682.043182432327
 30
0.0
 11
9674.32750789964
 21
8734.443182432325
 31
0.0
  0
LINE
  5
18A58
330
18408
100
AcDbEntity
  8
U1
100
AcDbLine
 10
9650.327507899639
 20
6938.443182432329
 30
0.0
 11
9617.92750789964
 21
6938.443182432329
 31
0.0
  0
LINE
  5
18A59
330
18408
100
AcDbEntity
  8
U1
100
AcDbLine
 10
9617.92750789964
 20
6878.043182432326
 30
0.0
 11
9670.32750789964
 21
6878.043182432326
 31
0.0
  0
ARC
  5
18A5A
330
18408
100
AcDbEntity
  8
U1
100
AcDbCircle
 10
9617.92750789964
 20
6882.043182432325
 30
0.0
 40
4.0
100
AcDbArc
 50
180.0
 51
270.0
  0
ARC
  5
18A5B
330
18408
100
AcDbEntity
  8
U1
100
AcDbCircle
 10
9617.92750789964
 20
6934.443182432325
 30
0.0
 40
4.0
100
AcDbArc
 50
90.0
 51
180.0
  0
LINE
  5
18A5C
330
18408
100
AcDbEntity
  8
U1
100
AcDbLine
 10
9613.92750789964
 20
6934.443182432325
 30
0.0
 11
9613.92750789964
 21
6882.043182432325
 31
0.0
  0
ARC
  5
18A5D
330
18408
100
AcDbEntity
  8
U1
100
AcDbCircle
 10
9670.32750789964
 20
6882.043182432325
 30
0.0
 40
4.0
100
AcDbArc
 50
270.0
 51
0.0
  0
ARC
  5
18A5E
330
18408
100
AcDbEntity
  8
U1
100
AcDbCircle
 10
9650.327507899639
 20
6934.443182432325
 30
0.0
 40
4.0
100
AcDbArc
 50
0.0
 51
90.0
  0
ARC
  5
18A5F
330
18408
100
AcDbEntity
  8
U1
100
AcDbCircle
 10
9657.777507899645
 20
6925.193182432328
 30
0.0
 40
1.149999999999977
100
AcDbArc
 50
180.0
 51
0.0
  0
LINE
  5
18A60
330
18408
100
AcDbEntity
  8
U1
100
AcDbLine
 10
9661.227507899644
 20
6932.743182432327
 30
0.0
 11
9661.227507899644
 21
6925.193182432328
 31
0.0
  0
LINE
  5
18A61
330
18408
100
AcDbEntity
  8
U1
100
AcDbLine
 10
9658.92750789964
 20
6932.743182432327
 30
0.0
 11
9661.227507899644
 21
6932.743182432327
 31
0.0
  0
LINE
  5
18A62
330
18408
100
AcDbEntity
  8
U1
100
AcDbLine
 10
9656.627507899642
 20
6925.743182432326
 30
0.0
 11
9658.92750789964
 21
6925.743182432326
 31
0.0
  0
ARC
  5
18A63
330
18408
100
AcDbEntity
  8
U1
100
AcDbCircle
 10
9657.777507899645
 20
6925.193182432328
 30
0.0
 40
3.450000000000044
100
AcDbArc
 50
180.0
 51
0.0
  0
LINE
  5
18A64
330
18408
100
AcDbEntity
  8
U1
100
AcDbLine
 10
9656.627507899642
 20
6925.193182432328
 30
0.0
 11
9656.627507899642
 21
6934.443182432325
 31
0.0
  0
LINE
  5
18A65
330
18408
100
AcDbEntity
  8
U1
100
AcDbLine
 10
9658.92750789964
 20
6934.443182432325
 30
0.0
 11
9658.92750789964
 21
6925.193182432328
 31
0.0
  0
LINE
  5
18A66
330
18408
100
AcDbEntity
  8
U1
100
AcDbLine
 10
9654.32750789964
 20
6925.193182432328
 30
0.0
 11
9654.32750789964
 21
6934.443182432325
 31
0.0
  0
ARC
  5
18A67
330
18408
100
AcDbEntity
  8
U1
100
AcDbCircle
 10
9670.32750789964
 20
6934.443182432325
 30
0.0
 40
4.0
100
AcDbArc
 50
0.0
 51
90.0
  0
LINE
  5
18A68
330
18408
100
AcDbEntity
  8
U1
100
AcDbLine
 10
9670.32750789964
 20
6938.443182432329
 30
0.0
 11
9662.92750789964
 21
6938.443182432329
 31
0.0
  0
ARC
  5
18A69
330
18408
100
AcDbEntity
  8
U1
100
AcDbCircle
 10
9662.92750789964
 20
6934.443182432325
 30
0.0
 40
4.0
100
AcDbArc
 50
90.0
 51
180.0
  0
LINE
  5
18A6A
330
18408
100
AcDbEntity
  8
U1
100
AcDbLine
 10
9674.32750789964
 20
6882.043182432325
 30
0.0
 11
9674.32750789964
 21
6934.443182432325
 31
0.0
  0
LINE
  5
18A6B
330
18408
100
AcDbEntity
  8
KISO
100
AcDbLine
 10
10044.12750789964
 20
6508.243182432327
 30
0.0
 11
9244.127507899641
 21
6508.243182432327
 31
0.0
  0
LINE
  5
18A6C
330
18408
100
AcDbEntity
  8
KISO
100
AcDbLine
 10
9244.127507899641
 20
6508.243182432327
 30
0.0
 11
9244.127507899641
 21
7308.243182432327
 31
0.0
  0
LINE
  5
18A6D
330
18408
100
AcDbEntity
  8
KISO
100
AcDbLine
 10
9244.127507899641
 20
7308.243182432327
 30
0.0
 11
10044.12750789964
 21
7308.243182432327
 31
0.0
  0
LINE
  5
18A6E
330
18408
100
AcDbEntity
  8
KISO
100
AcDbLine
 10
10044.12750789964
 20
7308.243182432327
 30
0.0
 11
10044.12750789964
 21
6508.243182432327
 31
0.0
  0
LINE
  5
18A6F
330
18408
100
AcDbEntity
  8
KISO
100
AcDbLine
 10
10044.12750789964
 20
8308.243182432326
 30
0.0
 11
9244.127507899641
 21
8308.243182432326
 31
0.0
  0
LINE
  5
18A70
330
18408
100
AcDbEntity
  8
KISO
100
AcDbLine
 10
9244.127507899641
 20
8308.243182432326
 30
0.0
 11
9244.127507899641
 21
9108.243182432325
 31
0.0
  0
LINE
  5
18A71
330
18408
100
AcDbEntity
  8
KISO
100
AcDbLine
 10
9244.127507899641
 20
9108.243182432325
 30
0.0
 11
10044.12750789964
 21
9108.243182432325
 31
0.0
  0
LINE
  5
18A72
330
18408
100
AcDbEntity
  8
KISO
100
AcDbLine
 10
10044.12750789964
 20
9108.243182432325
 30
0.0
 11
10044.12750789964
 21
8308.243182432326
 31
0.0
  0
LINE
  5
18A73
330
18408
100
AcDbEntity
  8
KISO
100
AcDbLine
 10
7594.127507899642
 20
8308.243182432326
 30
0.0
 11
6794.127507899642
 21
8308.243182432326
 31
0.0
  0
LINE
  5
18A74
330
18408
100
AcDbEntity
  8
KISO
100
AcDbLine
 10
6794.127507899642
 20
8308.243182432326
 30
0.0
 11
6794.127507899642
 21
9108.243182432325
 31
0.0
  0
LINE
  5
18A75
330
18408
100
AcDbEntity
  8
KISO
100
AcDbLine
 10
6794.127507899642
 20
9108.243182432325
 30
0.0
 11
7594.127507899642
 21
9108.243182432325
 31
0.0
  0
LINE
  5
18A76
330
18408
100
AcDbEntity
  8
KISO
100
AcDbLine
 10
7594.127507899642
 20
9108.243182432325
 30
0.0
 11
7594.127507899642
 21
8308.243182432326
 31
0.0
  0
LINE
  5
18A77
330
18408
100
AcDbEntity
  8
KISO
100
AcDbLine
 10
7594.127507899642
 20
6508.243182432327
 30
0.0
 11
6794.127507899642
 21
6508.243182432327
 31
0.0
  0
LINE
  5
18A78
330
18408
100
AcDbEntity
  8
KISO
100
AcDbLine
 10
6794.127507899642
 20
6508.243182432327
 30
0.0
 11
6794.127507899642
 21
7308.243182432327
 31
0.0
  0
LINE
  5
18A79
330
18408
100
AcDbEntity
  8
KISO
100
AcDbLine
 10
6794.127507899642
 20
7308.243182432327
 30
0.0
 11
7594.127507899642
 21
7308.243182432327
 31
0.0
  0
LINE
  5
18A7A
330
18408
100
AcDbEntity
  8
KISO
100
AcDbLine
 10
7594.127507899642
 20
7308.243182432327
 30
0.0
 11
7594.127507899642
 21
6508.243182432327
 31
0.0
  0
LINE
  5
18A7B
330
18408
100
AcDbEntity
  8
YANE
  6
2PL-L
 62
     6
100
AcDbLine
 10
10040.12750789964
 20
6408.243182432326
 30
0.0
 11
6798.127507899639
 21
6408.243182432326
 31
0.0
  0
LINE
  5
18A7C
330
18408
100
AcDbEntity
  8
YANE
  6
2PL-L
 62
     6
100
AcDbLine
 10
6798.127507899639
 20
6408.243182432326
 30
0.0
 11
6798.127507899639
 21
8958.243182432324
 31
0.0
  0
LINE
  5
18A7D
330
18408
100
AcDbEntity
  8
YANE
  6
2PL-L
 62
     6
100
AcDbLine
 10
6798.127507899639
 20
8958.243182432324
 30
0.0
 11
10040.12750789964
 21
8958.243182432324
 31
0.0
  0
LINE
  5
18A7E
330
18408
100
AcDbEntity
  8
YANE
  6
2PL-L
 62
     6
100
AcDbLine
 10
10040.12750789964
 20
8958.243182432324
 30
0.0
 11
10040.12750789964
 21
6408.243182432326
 31
0.0
  0
LINE
  5
18A7F
330
18408
100
AcDbEntity
  8
U3
100
AcDbLine
 10
9130.078259983639
 20
3525.966871722361
 30
0.0
 11
9357.853645156977
 21
3920.485411556196
 31
0.0
1001
ACAD
1000
DSTYLE
1002
{
1070
   147
1040
1.0
1070
    77
1070
     0
1002
}
  0
LINE
  5
18A80
330
18408
100
AcDbEntity
  8
0
100
AcDbLine
 10
9118.531254599844
 20
3532.633538389028
 30
0.0
 11
9090.07825998364
 21
3456.684839419605
 31
0.0
  0
LINE
  5
18A81
330
18408
100
AcDbEntity
  8
0
100
AcDbLine
 10
9090.07825998364
 20
3456.684839419605
 30
0.0
 11
9141.625265367435
 21
3519.300205055695
 31
0.0
  0
SOLID
  5
18A82
330
18408
100
AcDbEntity
  8
0
100
AcDbTrace
 10
9118.531254599844
 20
3532.633538389028
 30
0.0
 11
9141.625265367435
 21
3519.300205055695
 31
0.0
 12
9090.07825998364
 22
3456.684839419605
 32
0.0
 13
9090.07825998364
 23
3456.684839419605
 33
0.0
  0
LINE
  5
18A83
330
18408
100
AcDbEntity
  8
0
100
AcDbLine
 10
9141.625265367435
 20
3519.300205055695
 30
0.0
 11
9118.531254599844
 21
3532.633538389028
 31
0.0
  0
ARC
  5
18A84
330
18408
100
AcDbEntity
  8
U1
100
AcDbCircle
 10
7220.327507899643
 20
6934.443182432328
 30
0.0
 40
6.299999999999272
100
AcDbArc
 50
359.9999999999917
 51
90.00000000000826
  0
LINE
  5
18A85
330
18408
100
AcDbEntity
  8
U1
100
AcDbLine
 10
7220.327507899638
 20
6940.743182432327
 30
0.0
 11
7212.92750789964
 21
6940.743182432327
 31
0.0
  0
ARC
  5
18A86
330
18408
100
AcDbEntity
  8
U1
100
AcDbCircle
 10
7212.927507899637
 20
6934.443182432328
 30
0.0
 40
6.299999999999272
100
AcDbArc
 50
89.99999999999173
 51
180.0000000000082
  0
ARC
  5
18A87
330
18408
100
AcDbEntity
  8
U1
100
AcDbCircle
 10
7200.327507899641
 20
6934.443182432325
 30
0.0
 40
6.300000000000181
100
AcDbArc
 50
0.0
 51
90.0
  0
LINE
  5
18A88
330
18408
100
AcDbEntity
  8
U1
100
AcDbLine
 10
7200.327507899641
 20
6940.743182432327
 30
0.0
 11
7167.927507899641
 21
6940.743182432327
 31
0.0
  0
ARC
  5
18A89
330
18408
100
AcDbEntity
  8
U1
100
AcDbCircle
 10
7167.92750789964
 20
6934.443182432328
 30
0.0
 40
6.299999999999272
100
AcDbArc
 50
89.99999999999173
 51
180.0000000000082
  0
LINE
  5
18A8A
330
18408
100
AcDbEntity
  8
U1
100
AcDbLine
 10
7161.627507899642
 20
6934.443182432325
 30
0.0
 11
7161.627507899642
 21
6882.043182432325
 31
0.0
  0
ARC
  5
18A8B
330
18408
100
AcDbEntity
  8
U1
100
AcDbCircle
 10
7167.92750789964
 20
6882.043182432325
 30
0.0
 40
6.299999999999272
100
AcDbArc
 50
180.0
 51
270.0000000000081
  0
LINE
  5
18A8C
330
18408
100
AcDbEntity
  8
U1
100
AcDbLine
 10
7167.927507899641
 20
6875.743182432326
 30
0.0
 11
7220.327507899638
 21
6875.743182432326
 31
0.0
  0
ARC
  5
18A8D
330
18408
100
AcDbEntity
  8
U1
100
AcDbCircle
 10
7220.327507899643
 20
6882.043182432325
 30
0.0
 40
6.299999999999272
100
AcDbArc
 50
269.9999999999918
 51
0.0
  0
LINE
  5
18A8E
330
18408
100
AcDbEntity
  8
U1
100
AcDbLine
 10
7226.627507899637
 20
6882.043182432325
 30
0.0
 11
7226.627507899637
 21
6934.443182432325
 31
0.0
  0
ARC
  5
18A8F
330
18408
100
AcDbEntity
  8
U1
100
AcDbCircle
 10
7220.327507899638
 20
8734.443182432325
 30
0.0
 40
6.300000000000181
100
AcDbArc
 50
359.9999999999833
 51
90.0
  0
LINE
  5
18A90
330
18408
100
AcDbEntity
  8
U1
100
AcDbLine
 10
7220.327507899638
 20
8740.743182432325
 30
0.0
 11
7212.92750789964
 21
8740.743182432325
 31
0.0
  0
ARC
  5
18A91
330
18408
100
AcDbEntity
  8
U1
100
AcDbCircle
 10
7212.92750789964
 20
8734.443182432325
 30
0.0
 40
6.299999999999272
100
AcDbArc
 50
90.0
 51
180.0000000000165
  0
ARC
  5
18A92
330
18408
100
AcDbEntity
  8
U1
100
AcDbCircle
 10
7200.327507899641
 20
8734.443182432325
 30
0.0
 40
6.300000000000181
100
AcDbArc
 50
359.9999999999833
 51
90.0
  0
LINE
  5
18A93
330
18408
100
AcDbEntity
  8
U1
100
AcDbLine
 10
7200.327507899641
 20
8740.743182432325
 30
0.0
 11
7167.927507899641
 21
8740.743182432325
 31
0.0
  0
ARC
  5
18A94
330
18408
100
AcDbEntity
  8
U1
100
AcDbCircle
 10
7167.927507899641
 20
8734.443182432325
 30
0.0
 40
6.299999999999272
100
AcDbArc
 50
90.0
 51
180.0000000000165
  0
LINE
  5
18A95
330
18408
100
AcDbEntity
  8
U1
100
AcDbLine
 10
7161.627507899642
 20
8734.443182432325
 30
0.0
 11
7161.627507899642
 21
8682.043182432327
 31
0.0
  0
ARC
  5
18A96
330
18408
100
AcDbEntity
  8
U1
100
AcDbCircle
 10
7167.92750789964
 20
8682.043182432327
 30
0.0
 40
6.299999999999272
100
AcDbArc
 50
180.0
 51
270.0000000000081
  0
LINE
  5
18A97
330
18408
100
AcDbEntity
  8
U1
100
AcDbLine
 10
7167.927507899641
 20
8675.743182432324
 30
0.0
 11
7220.327507899638
 21
8675.743182432324
 31
0.0
  0
ARC
  5
18A98
330
18408
100
AcDbEntity
  8
U1
100
AcDbCircle
 10
7220.327507899643
 20
8682.043182432327
 30
0.0
 40
6.299999999999272
100
AcDbArc
 50
269.9999999999918
 51
0.0
  0
LINE
  5
18A99
330
18408
100
AcDbEntity
  8
U1
100
AcDbLine
 10
7226.627507899637
 20
8682.043182432327
 30
0.0
 11
7226.627507899637
 21
8734.443182432325
 31
0.0
  0
ARC
  5
18A9A
330
18408
100
AcDbEntity
  8
U1
100
AcDbCircle
 10
9670.32750789964
 20
8734.443182432325
 30
0.0
 40
6.299999999999272
100
AcDbArc
 50
359.9999999999833
 51
90.0
  0
LINE
  5
18A9B
330
18408
100
AcDbEntity
  8
U1
100
AcDbLine
 10
9670.32750789964
 20
8740.743182432325
 30
0.0
 11
9662.92750789964
 21
8740.743182432325
 31
0.0
  0
ARC
  5
18A9C
330
18408
100
AcDbEntity
  8
U1
100
AcDbCircle
 10
9662.92750789964
 20
8734.443182432325
 30
0.0
 40
6.299999999999272
100
AcDbArc
 50
90.0
 51
180.0000000000165
  0
ARC
  5
18A9D
330
18408
100
AcDbEntity
  8
U1
100
AcDbCircle
 10
9650.327507899639
 20
8734.443182432325
 30
0.0
 40
6.300000000001091
100
AcDbArc
 50
359.9999999999833
 51
89.99999999998346
  0
LINE
  5
18A9E
330
18408
100
AcDbEntity
  8
U1
100
AcDbLine
 10
9650.327507899639
 20
8740.743182432325
 30
0.0
 11
9617.92750789964
 21
8740.743182432325
 31
0.0
  0
ARC
  5
18A9F
330
18408
100
AcDbEntity
  8
U1
100
AcDbCircle
 10
9617.92750789964
 20
8734.443182432325
 30
0.0
 40
6.299999999999272
100
AcDbArc
 50
90.0
 51
180.0000000000165
  0
LINE
  5
18AA0
330
18408
100
AcDbEntity
  8
U1
100
AcDbLine
 10
9611.62750789964
 20
8734.443182432325
 30
0.0
 11
9611.62750789964
 21
8682.043182432327
 31
0.0
  0
ARC
  5
18AA1
330
18408
100
AcDbEntity
  8
U1
100
AcDbCircle
 10
9617.92750789964
 20
8682.043182432327
 30
0.0
 40
6.299999999999272
100
AcDbArc
 50
180.0
 51
270.0
  0
LINE
  5
18AA2
330
18408
100
AcDbEntity
  8
U1
100
AcDbLine
 10
9617.92750789964
 20
8675.743182432324
 30
0.0
 11
9670.32750789964
 21
8675.743182432324
 31
0.0
  0
ARC
  5
18AA3
330
18408
100
AcDbEntity
  8
U1
100
AcDbCircle
 10
9670.32750789964
 20
8682.043182432327
 30
0.0
 40
6.299999999999272
100
AcDbArc
 50
270.0
 51
0.0
  0
LINE
  5
18AA4
330
18408
100
AcDbEntity
  8
U1
100
AcDbLine
 10
9676.62750789964
 20
8682.043182432327
 30
0.0
 11
9676.62750789964
 21
8734.443182432325
 31
0.0
  0
ARC
  5
18AA5
330
18408
100
AcDbEntity
  8
U1
100
AcDbCircle
 10
9670.32750789964
 20
6934.443182432328
 30
0.0
 40
6.299999999999272
100
AcDbArc
 50
359.9999999999917
 51
90.0
  0
LINE
  5
18AA6
330
18408
100
AcDbEntity
  8
U1
100
AcDbLine
 10
9670.32750789964
 20
6940.743182432327
 30
0.0
 11
9662.92750789964
 21
6940.743182432327
 31
0.0
  0
ARC
  5
18AA7
330
18408
100
AcDbEntity
  8
U1
100
AcDbCircle
 10
9662.92750789964
 20
6934.443182432328
 30
0.0
 40
6.299999999999272
100
AcDbArc
 50
90.0
 51
180.0000000000082
  0
ARC
  5
18AA8
330
18408
100
AcDbEntity
  8
U1
100
AcDbCircle
 10
9650.327507899639
 20
6934.443182432328
 30
0.0
 40
6.299999999999272
100
AcDbArc
 50
359.9999999999917
 51
90.0
  0
LINE
  5
18AA9
330
18408
100
AcDbEntity
  8
U1
100
AcDbLine
 10
9650.327507899639
 20
6940.743182432327
 30
0.0
 11
9617.92750789964
 21
6940.743182432327
 31
0.0
  0
ARC
  5
18AAA
330
18408
100
AcDbEntity
  8
U1
100
AcDbCircle
 10
9617.92750789964
 20
6934.443182432328
 30
0.0
 40
6.299999999999272
100
AcDbArc
 50
90.0
 51
180.0000000000082
  0
LINE
  5
18AAB
330
18408
100
AcDbEntity
  8
U1
100
AcDbLine
 10
9611.62750789964
 20
6934.443182432325
 30
0.0
 11
9611.62750789964
 21
6882.043182432325
 31
0.0
  0
ARC
  5
18AAC
330
18408
100
AcDbEntity
  8
U1
100
AcDbCircle
 10
9617.92750789964
 20
6882.043182432325
 30
0.0
 40
6.299999999999272
100
AcDbArc
 50
180.0
 51
270.0
  0
LINE
  5
18AAD
330
18408
100
AcDbEntity
  8
U1
100
AcDbLine
 10
9617.92750789964
 20
6875.743182432326
 30
0.0
 11
9670.32750789964
 21
6875.743182432326
 31
0.0
  0
ARC
  5
18AAE
330
18408
100
AcDbEntity
  8
U1
100
AcDbCircle
 10
9670.32750789964
 20
6882.043182432325
 30
0.0
 40
6.299999999999272
100
AcDbArc
 50
270.0
 51
0.0
  0
LINE
  5
18AAF
330
18408
100
AcDbEntity
  8
U1
100
AcDbLine
 10
9676.62750789964
 20
6882.043182432325
 30
0.0
 11
9676.62750789964
 21
6934.443182432325
 31
0.0
  0
TEXT
  5
18AD3
330
18408
100
AcDbEntity
  8
SUNPOU
100
AcDbText
 10
1536.041186323298
 20
5188.28112834785
 30
0.0
 40
90.0
  1
寒冷地の場合、凍結深度等を考慮し、実情に
  7
01
100
AcDbText
  0
TEXT
  5
18AD4
330
18408
100
AcDbEntity
  8
SUNPOU
100
AcDbText
 10
1536.041186323298
 20
4879.709699776419
 30
0.0
 40
90.0
  1
その他現地の実情にあわせて設計して下さい。
  7
01
100
AcDbText
  0
TEXT
  5
18AD5
330
18408
100
AcDbEntity
  8
SUNPOU
100
AcDbText
 10
1161.085441233905
 20
5567.566842633563
 30
0.0
 40
89.9993750043402
  1
地耐力   　　　 以上,コンクリート設計基準強度　　　　　以上
  7
01
100
AcDbText
  0
TEXT
  5
18AD6
330
18408
100
AcDbEntity
  8
SUNPOU
100
AcDbText
 10
1872.729292737787
 20
5926.628537387212
 30
0.0
 40
92.30769230769228
  1
（ S = 　　  ）
 41
0.6700000000000001
  7
00
 11
1872.729292737787
 21
5914.32084507952
 31
0.0
100
AcDbText
 73
     1
  0
TEXT
  5
18AD7
330
18408
100
AcDbEntity
  8
SUNPOU
100
AcDbText
 10
1030.521812517674
 20
5756.82084507952
 30
0.0
 40
90.0
  1
<下記条件での参考図>
  7
01
 72
     4
 11
1619.378955374817
 21
5801.82084507952
 31
0.0
100
AcDbText
  0
TEXT
  5
18AD8
330
18408
100
AcDbEntity
  8
SUNPOU
100
AcDbText
 10
1536.041186323298
 20
5033.995414062133
 30
0.0
 40
90.0
  1
あわせて設計して下さい。
  7
01
100
AcDbText
  0
TEXT
  5
18AD9
330
18408
100
AcDbEntity
  8
SUNPOU
100
AcDbText
 10
1161.085441233905
 20
5413.281128347851
 30
0.0
 40
89.9993750043402
  1
基準風速   　　 , 地表面粗度区分
  7
01
100
AcDbText
  0
TEXT
  5
18ADA
330
18408
100
AcDbEntity
  8
SUNPOU
100
AcDbText
 10
1219.201521021162
 20
5188.28112834785
 30
0.0
 40
90.0
  1
注　）
  7
01
100
AcDbText
  0
TEXT
  5
18ADB
330
18408
100
AcDbEntity
  8
SUNPOU
100
AcDbText
 10
1219.201521021162
 20
4879.709699776419
 30
0.0
 40
90.0
  1
注　）
  7
01
100
AcDbText
  0
ARC
  5
18ADC
330
18408
100
AcDbEntity
  8
SUNPOU
100
AcDbCircle
 10
1314.04371514111
 20
5531.354266075394
 30
0.0
 40
225.0
100
AcDbArc
 50
148.3472725282829
 51
211.652727471717
  0
TEXT
  5
18ADD
330
18408
100
AcDbEntity
  8
SUNPOU
100
AcDbText
 10
1329.835441233904
 20
5188.28112834785
 30
0.0
 40
90.0
  1
1
 41
0.6700000000000001
  7
01
100
AcDbText
  0
TEXT
  5
18ADE
330
18408
100
AcDbEntity
  8
SUNPOU
100
AcDbText
 10
1329.835441233904
 20
4879.709699776419
 30
0.0
 40
90.0
  1
2
 41
0.6700000000000001
  7
01
100
AcDbText
  0
TEXT
  5
18ADF
330
18408
100
AcDbEntity
  8
SUNPOU
100
AcDbText
 10
1644.848869899073
 20
5413.281128347851
 30
0.0
 40
89.9993750043402
  1
34 m/s
 41
0.6700000000000001
  7
01
100
AcDbText
  0
TEXT
  5
18AE0
330
18408
100
AcDbEntity
  8
SUNPOU
100
AcDbText
 10
1535.343848658987
 20
5567.566842633563
 30
0.0
 40
89.9993750043402
  1
50  N/m
 41
0.6700000000000001
  7
01
100
AcDbText
  0
TEXT
  5
18AE1
330
18408
100
AcDbEntity
  8
SUNPOU
100
AcDbText
 10
1671.180301444941
 20
5567.566842633563
 30
0.0
 40
71.99950000347218
  1
K
 41
0.6700000000000001
  7
01
100
AcDbText
  0
TEXT
  5
18AE2
330
18408
100
AcDbEntity
  8
SUNPOU
100
AcDbText
 10
1938.820458173324
 20
5617.755268991049
 30
0.0
 40
46.28539285937498
  1
2
 41
0.6700000000000001
  7
00
100
AcDbText
  0
TEXT
  5
18AE3
330
18408
100
AcDbEntity
  8
SUNPOU
100
AcDbText
 10
1155.878955374816
 20
5914.32084507952
 30
0.0
 40
120.0
  1
基礎断面図
  7
01
 72
     4
 11
1495.878955374816
 21
5974.32084507952
 31
0.0
100
AcDbText
  0
LINE
  5
18AE4
330
18408
100
AcDbEntity
  8
SUNPOU
100
AcDbLine
 10
2952.901002800513
 20
5496.773492046629
 30
0.0
 11
3009.151002800513
 21
5496.773492046629
 31
0.0
  0
LINE
  5
18AE5
330
18408
100
AcDbEntity
  8
SUNPOU
100
AcDbLine
 10
2952.901002800513
 20
5413.281128347847
 30
0.0
 11
3009.151002800513
 21
5413.281128347847
 31
0.0
  0
LINE
  5
18AE6
330
18408
100
AcDbEntity
  8
SUNPOU
100
AcDbLine
 10
2964.151002800513
 20
5413.281128347851
 30
0.0
 11
2964.151002800513
 21
5496.773492046629
 31
0.0
  0
LINE
  5
18AE7
330
18408
100
AcDbEntity
  8
SUNPOU
100
AcDbLine
 10
2981.026002800513
 20
5413.281128347851
 30
0.0
 11
2981.026002800513
 21
5496.773492046629
 31
0.0
  0
LINE
  5
18AE8
330
18408
100
AcDbEntity
  8
SUNPOU
100
AcDbLine
 10
2997.901002800513
 20
5413.281128347851
 30
0.0
 11
2997.901002800513
 21
5496.773492046629
 31
0.0
  0
TEXT
  5
18AE9
330
18408
100
AcDbEntity
  8
SUNPOU
100
AcDbText
 10
2304.787564860612
 20
5905.705460464134
 30
0.0
 40
73.84615384615384
  1
25
 41
0.6700000000000001
  7
00
 11
2304.787564860612
 21
5895.85930661798
 31
0.0
100
AcDbText
 73
     1
  0
TEXT
  5
18AEA
330
18408
100
AcDbEntity
  8
SUNPOU
100
AcDbText
 10
2192.431994590872
 20
5942.628537387212
 30
0.0
 40
73.84615384615384
  1
1
 41
0.6700000000000001
  7
00
 11
2192.431994590872
 21
5932.782383541058
 31
0.0
100
AcDbText
 73
     1
  0
TEXT
  5
18AEB
330
18408
100
AcDbEntity
  8
SUNPOU
100
AcDbText
 10
2240.838121906243
 20
5924.166998925674
 30
0.0
 40
73.84615384615384
  1
/
 41
0.6700000000000001
  7
00
 11
2240.838121906243
 21
5914.32084507952
 31
0.0
100
AcDbText
 73
     1
  0
TEXT
  5
18AEC
330
18408
100
AcDbEntity
  8
SUNPOU
100
AcDbText
 10
3741.269118910551
 20
5567.566842633563
 30
0.0
 40
89.9993750043402
  1
N/mm
 41
0.6700000000000001
  7
01
100
AcDbText
  0
TEXT
  5
18AED
330
18408
100
AcDbEntity
  8
SUNPOU
100
AcDbText
 10
3605.432666124601
 20
5567.566842633563
 30
0.0
 40
89.9993750043402
  1
18
 41
0.6700000000000001
  7
01
100
AcDbText
  0
TEXT
  5
18AF0
330
18408
100
AcDbEntity
  8
SUNPOU
100
AcDbText
 10
4045.733600941956
 20
5617.755268991049
 30
0.0
 40
46.28539285937498
  1
2
 41
0.6700000000000001
  7
00
100
AcDbText
  0
ARC
  5
18AF1
330
18408
100
AcDbEntity
  8
SUNPOU
100
AcDbCircle
 10
4215.483998392672
 20
5531.354266075394
 30
0.0
 40
225.0
100
AcDbArc
 50
328.3472725282829
 51
31.65272747171703
  0
ENDSEC
  0
SECTION
  2
OBJECTS
  0
DICTIONARY
  5
183F6
330
0
100
AcDbDictionary
281
     1
  3
ACAD_GROUP
350
183F7
  3
ACAD_LAYOUT
350
18403
  3
ACAD_MLINESTYLE
350
18400
  3
ACAD_PLOTSETTINGS
350
18402
  3
ACAD_PLOTSTYLENAME
350
183F8
  3
AcDbVariableDictionary
350
18AF2
  0
DICTIONARY
  5
183F7
102
{ACAD_REACTORS
330
183F6
102
}
330
183F6
100
AcDbDictionary
281
     1
  0
DICTIONARY
  5
18403
102
{ACAD_REACTORS
330
183F6
102
}
330
183F6
100
AcDbDictionary
281
     1
  3
Model
350
1840B
  3
ﾚｲｱｳﾄ1
350
18407
  0
DICTIONARY
  5
18400
102
{ACAD_REACTORS
330
183F6
102
}
330
183F6
100
AcDbDictionary
281
     1
  3
Standard
350
18401
  0
DICTIONARY
  5
18402
102
{ACAD_REACTORS
330
183F6
102
}
330
183F6
100
AcDbDictionary
281
     1
  0
ACDBDICTIONARYWDFLT
  5
183F8
102
{ACAD_REACTORS
330
183F6
102
}
330
183F6
100
AcDbDictionary
281
     1
  3
Normal
350
183F9
100
AcDbDictionaryWithDefault
340
183F9
  0
DICTIONARY
  5
18AF2
102
{ACAD_REACTORS
330
183F6
102
}
330
183F6
100
AcDbDictionary
281
     1
  3
DIMASSOC
350
18AF3
  0
LAYOUT
  5
1840B
102
{ACAD_REACTORS
330
18403
102
}
330
18403
100
AcDbPlotSettings
  1

  2
Muratec V-1200 Is@Web Printer
  4

  6

 40
0.0
 41
0.0
 42
0.0
 43
0.0
 44
0.0
 45
0.0
 46
0.0
 47
0.0
 48
0.0
 49
0.0
140
0.0
141
0.0
142
1.0
143
1.0
 70
  1712
 72
     0
 73
     0
 74
     0
  7

 75
     0
147
1.0
148
0.0
149
0.0
100
AcDbLayout
  1
Model
 70
     1
 71
     0
 10
0.0
 20
0.0
 11
12.0
 21
9.0
 12
0.0
 22
0.0
 32
0.0
 14
0.0
 24
0.0
 34
0.0
 15
0.0
 25
0.0
 35
0.0
146
0.0
 13
0.0
 23
0.0
 33
0.0
 16
1.0
 26
0.0
 36
0.0
 17
0.0
 27
1.0
 37
0.0
 76
     0
330
18408
  0
LAYOUT
  5
18407
102
{ACAD_REACTORS
330
18403
102
}
330
18403
100
AcDbPlotSettings
  1

  2
Muratec V-1200 Is@Web Printer
  4

  6

 40
0.0
 41
0.0
 42
0.0
 43
0.0
 44
0.0
 45
0.0
 46
0.0
 47
0.0
 48
0.0
 49
0.0
140
0.0
141
0.0
142
1.0
143
1.0
 70
   688
 72
     0
 73
     0
 74
     5
  7

 75
    16
147
1.0
148
0.0
149
0.0
100
AcDbLayout
  1
ﾚｲｱｳﾄ1
 70
     0
 71
     1
 10
0.0
 20
0.0
 11
12.0
 21
9.0
 12
0.0
 22
0.0
 32
0.0
 14
1.000000000000000E+20
 24
1.000000000000000E+20
 34
1.000000000000000E+20
 15
-1.000000000000000E+20
 25
-1.000000000000000E+20
 35
-1.000000000000000E+20
146
0.0
 13
0.0
 23
0.0
 33
0.0
 16
1.0
 26
0.0
 36
0.0
 17
0.0
 27
1.0
 37
0.0
 76
     0
330
18404
  0
MLINESTYLE
  5
18401
102
{ACAD_REACTORS
330
18400
102
}
330
18400
100
AcDbMlineStyle
  2
STANDARD
 70
     0
  3

 62
   256
 51
90.0
 52
90.0
 71
     2
 49
0.5
 62
   256
  6
BYLAYER
 49
-0.5
 62
   256
  6
BYLAYER
  0
ACDBPLACEHOLDER
  5
183F9
102
{ACAD_REACTORS
330
183F8
102
}
330
183F8
  0
DICTIONARYVAR
  5
18AF3
102
{ACAD_REACTORS
330
18AF2
102
}
330
18AF2
100
DictionaryVariables
280
     0
  1
1
  0
ENDSEC
  0
EOF
