  0
SECTION
  2
HEADER
  9
$ACADVER
  1
AC1015
  9
$ACADMAINTVER
 70
    13
  9
$DWGCODEPAGE
  3
ANSI_932
  9
$INSBASE
 10
267.0
 20
194.8999999999998
 30
0.0
  9
$EXTMIN
 10
433.9966216520333
 20
163.6908237492789
 30
-0.000000000000013
  9
$EXTMAX
 10
16382.6660542547
 20
11242.27663824599
 30
0.0000000000000023
  9
$LIMMIN
 10
0.0
 20
0.0
  9
$LIMMAX
 10
16800.0
 20
11880.0
  9
$ORTHOMODE
 70
     0
  9
$REGENMODE
 70
     1
  9
$FILLMODE
 70
     1
  9
$QTEXTMODE
 70
     0
  9
$MIRRTEXT
 70
     0
  9
$LTSCALE
 40
40.0
  9
$ATTMODE
 70
     1
  9
$TEXTSIZE
 40
0.2
  9
$TRACEWID
 40
0.05
  9
$TEXTSTYLE
  7
00
  9
$CLAYER
  8
SUNPOU
  9
$CELTYPE
  6
ByLayer
  9
$CECOLOR
 62
   256
  9
$CELTSCALE
 40
1.0
  9
$DISPSILH
 70
     0
  9
$DIMSCALE
 40
30.0
  9
$DIMASZ
 40
0.5
  9
$DIMEXO
 40
1.0
  9
$DIMDLI
 40
7.0
  9
$DIMRND
 40
0.0
  9
$DIMDLE
 40
3.0
  9
$DIMEXE
 40
1.5
  9
$DIMTP
 40
0.0
  9
$DIMTM
 40
0.0
  9
$DIMTXT
 40
3.0
  9
$DIMCEN
 40
0.0
  9
$DIMTSZ
 40
0.0
  9
$DIMTOL
 70
     0
  9
$DIMLIM
 70
     0
  9
$DIMTIH
 70
     0
  9
$DIMTOH
 70
     0
  9
$DIMSE1
 70
     0
  9
$DIMSE2
 70
     0
  9
$DIMTAD
 70
     1
  9
$DIMZIN
 70
     8
  9
$DIMBLK
  1

  9
$DIMASO
 70
     1
  9
$DIMSHO
 70
     0
  9
$DIMPOST
  1

  9
$DIMAPOST
  1

  9
$DIMALT
 70
     0
  9
$DIMALTD
 70
     2
  9
$DIMALTF
 40
25.4
  9
$DIMLFAC
 40
0.625
  9
$DIMTOFL
 70
     1
  9
$DIMTVP
 40
0.0
  9
$DIMTIX
 70
     0
  9
$DIMSOXD
 70
     0
  9
$DIMSAH
 70
     1
  9
$DIMBLK1
  1
DOT
  9
$DIMBLK2
  1
DOT
  9
$DIMSTYLE
  2
SUNPOU_図面名
  9
$DIMCLRD
 70
   256
  9
$DIMCLRE
 70
   256
  9
$DIMCLRT
 70
   256
  9
$DIMTFAC
 40
1.0
  9
$DIMGAP
 40
1.5
  9
$DIMJUST
 70
     0
  9
$DIMSD1
 70
     0
  9
$DIMSD2
 70
     0
  9
$DIMTOLJ
 70
     1
  9
$DIMTZIN
 70
     0
  9
$DIMALTZ
 70
     0
  9
$DIMALTTZ
 70
     0
  9
$DIMUPT
 70
     0
  9
$DIMDEC
 70
     4
  9
$DIMTDEC
 70
     4
  9
$DIMALTU
 70
     2
  9
$DIMALTTD
 70
     2
  9
$DIMTXSTY
  7
STANDARD
  9
$DIMAUNIT
 70
     0
  9
$DIMADEC
 70
     0
  9
$DIMALTRND
 40
0.0
  9
$DIMAZIN
 70
     0
  9
$DIMDSEP
 70
    46
  9
$DIMATFIT
 70
     3
  9
$DIMFRAC
 70
     0
  9
$DIMLDRBLK
  1
DOT
  9
$DIMLUNIT
 70
     2
  9
$DIMLWD
 70
    -2
  9
$DIMLWE
 70
    -2
  9
$DIMTMOVE
 70
     0
  9
$LUNITS
 70
     2
  9
$LUPREC
 70
     2
  9
$SKETCHINC
 40
0.1
  9
$FILLETRAD
 40
0.0
  9
$AUNITS
 70
     0
  9
$AUPREC
 70
     0
  9
$MENU
  1
A:\TIGER\MENU\TIGER
  9
$ELEVATION
 40
0.0
  9
$PELEVATION
 40
0.0
  9
$THICKNESS
 40
0.0
  9
$LIMCHECK
 70
     0
  9
$CHAMFERA
 40
0.0
  9
$CHAMFERB
 40
0.0
  9
$CHAMFERC
 40
0.0
  9
$CHAMFERD
 40
0.0
  9
$SKPOLY
 70
     0
  9
$TDCREATE
 40
2450266.571064815
  9
$TDUCREATE
 40
2450266.196064815
  9
$TDUPDATE
 40
2456331.612731111
  9
$TDUUPDATE
 40
2456331.237731111
  9
$TDINDWG
 40
0.1695401042
  9
$TDUSRTIMER
 40
0.1695399306
  9
$USRTIMER
 70
     1
  9
$ANGBASE
 50
0.0
  9
$ANGDIR
 70
     0
  9
$PDMODE
 70
     0
  9
$PDSIZE
 40
0.0
  9
$PLINEWID
 40
0.0
  9
$SPLFRAME
 70
     0
  9
$SPLINETYPE
 70
     6
  9
$SPLINESEGS
 70
     8
  9
$HANDSEED
  5
18E17
  9
$SURFTAB1
 70
     6
  9
$SURFTAB2
 70
     6
  9
$SURFTYPE
 70
     6
  9
$SURFU
 70
     6
  9
$SURFV
 70
     6
  9
$UCSBASE
  2

  9
$UCSNAME
  2

  9
$UCSORG
 10
0.0
 20
0.0
 30
0.0
  9
$UCSXDIR
 10
1.0
 20
0.0
 30
0.0
  9
$UCSYDIR
 10
0.0
 20
1.0
 30
0.0
  9
$UCSORTHOREF
  2

  9
$UCSORTHOVIEW
 70
     0
  9
$UCSORGTOP
 10
0.0
 20
0.0
 30
0.0
  9
$UCSORGBOTTOM
 10
0.0
 20
0.0
 30
0.0
  9
$UCSORGLEFT
 10
0.0
 20
0.0
 30
0.0
  9
$UCSORGRIGHT
 10
0.0
 20
0.0
 30
0.0
  9
$UCSORGFRONT
 10
0.0
 20
0.0
 30
0.0
  9
$UCSORGBACK
 10
0.0
 20
0.0
 30
0.0
  9
$PUCSBASE
  2

  9
$PUCSNAME
  2

  9
$PUCSORG
 10
0.0
 20
0.0
 30
0.0
  9
$PUCSXDIR
 10
1.0
 20
0.0
 30
0.0
  9
$PUCSYDIR
 10
0.0
 20
1.0
 30
0.0
  9
$PUCSORTHOREF
  2

  9
$PUCSORTHOVIEW
 70
     0
  9
$PUCSORGTOP
 10
0.0
 20
0.0
 30
0.0
  9
$PUCSORGBOTTOM
 10
0.0
 20
0.0
 30
0.0
  9
$PUCSORGLEFT
 10
0.0
 20
0.0
 30
0.0
  9
$PUCSORGRIGHT
 10
0.0
 20
0.0
 30
0.0
  9
$PUCSORGFRONT
 10
0.0
 20
0.0
 30
0.0
  9
$PUCSORGBACK
 10
0.0
 20
0.0
 30
0.0
  9
$USERI1
 70
     3
  9
$USERI2
 70
     0
  9
$USERI3
 70
     0
  9
$USERI4
 70
     0
  9
$USERI5
 70
  1103
  9
$USERR1
 40
0.0
  9
$USERR2
 40
1.0
  9
$USERR3
 40
0.0
  9
$USERR4
 40
0.0
  9
$USERR5
 40
0.0
  9
$WORLDVIEW
 70
     1
  9
$SHADEDGE
 70
     3
  9
$SHADEDIF
 70
    70
  9
$TILEMODE
 70
     1
  9
$MAXACTVP
 70
    16
  9
$PINSBASE
 10
0.0
 20
0.0
 30
0.0
  9
$PLIMCHECK
 70
     0
  9
$PEXTMIN
 10
1.000000000000000E+20
 20
1.000000000000000E+20
 30
1.000000000000000E+20
  9
$PEXTMAX
 10
-1.000000000000000E+20
 20
-1.000000000000000E+20
 30
-1.000000000000000E+20
  9
$PLIMMIN
 10
0.0
 20
0.0
  9
$PLIMMAX
 10
12.0
 20
9.0
  9
$UNITMODE
 70
     0
  9
$VISRETAIN
 70
     0
  9
$PLINEGEN
 70
     1
  9
$PSLTSCALE
 70
     0
  9
$TREEDEPTH
 70
  3020
  9
$CMLSTYLE
  2
Standard
  9
$CMLJUST
 70
     0
  9
$CMLSCALE
 40
1.0
  9
$PROXYGRAPHICS
 70
     1
  9
$MEASUREMENT
 70
     0
  9
$CELWEIGHT
370
    -1
  9
$ENDCAPS
280
     0
  9
$JOINSTYLE
280
     0
  9
$LWDISPLAY
290
     0
  9
$INSUNITS
 70
     0
  9
$HYPERLINKBASE
  1

  9
$STYLESHEET
  1

  9
$XEDIT
290
     1
  9
$CEPSNTYPE
380
     0
  9
$PSTYLEMODE
290
     1
  9
$FINGERPRINTGUID
  2
{C63A2F82-6929-4507-BC99-6A2A71BCCCC3}
  9
$VERSIONGUID
  2
{0FF94137-6DE5-450A-A678-B554E260478F}
  9
$EXTNAMES
290
     1
  9
$PSVPSCALE
 40
0.0
  9
$OLESTARTUP
290
     0
  0
ENDSEC
  0
SECTION
  2
CLASSES
  0
CLASS
  1
ACDBDICTIONARYWDFLT
  2
AcDbDictionaryWithDefault
  3
AutoCAD 2000
 90
        0
280
     0
281
     0
  0
CLASS
  1
ACDBPLACEHOLDER
  2
AcDbPlaceHolder
  3
AutoCAD 2000
 90
        0
280
     0
281
     0
  0
CLASS
  1
LAYOUT
  2
AcDbLayout
  3
AutoCAD 2000
 90
        0
280
     0
281
     0
  0
CLASS
  1
DICTIONARYVAR
  2
AcDbDictionaryVar
  3
AutoCAD 2000
 90
        0
280
     0
281
     0
  0
ENDSEC
  0
SECTION
  2
TABLES
  0
TABLE
  2
VPORT
  5
1872F
330
0
100
AcDbSymbolTable
 70
     2
  0
VPORT
  5
18E16
330
1872F
100
AcDbSymbolTableRecord
100
AcDbViewportTableRecord
  2
*Active
 70
     0
 10
0.0
 20
0.0
 11
1.0
 21
1.0
 12
8408.331337953368
 22
5702.983730997637
 13
0.0
 23
0.0
 14
1.0
 24
1.0
 15
0.0
 25
0.0
 16
0.0
 26
0.0
 36
1.0
 17
0.0
 27
0.0
 37
0.0
 40
12985.73988638911
 41
1.236040609137055
 42
50.0
 43
0.0
 44
0.0
 50
0.0
 51
0.0
 71
     0
 72
 10000
 73
     1
 74
     0
 75
     0
 76
     0
 77
     0
 78
     0
281
     0
 65
     1
110
0.0
120
0.0
130
0.0
111
1.0
121
0.0
131
0.0
112
0.0
122
1.0
132
0.0
 79
     0
146
0.0
  0
ENDTAB
  0
TABLE
  2
LTYPE
  5
1872C
330
0
100
AcDbSymbolTable
 70
     5
  0
LTYPE
  5
1873A
330
1872C
100
AcDbSymbolTableRecord
100
AcDbLinetypeTableRecord
  2
ByBlock
 70
     0
  3

 72
    65
 73
     0
 40
0.0
  0
LTYPE
  5
1873B
330
1872C
100
AcDbSymbolTableRecord
100
AcDbLinetypeTableRecord
  2
ByLayer
 70
     0
  3

 72
    65
 73
     0
 40
0.0
  0
LTYPE
  5
1873C
330
1872C
100
AcDbSymbolTableRecord
100
AcDbLinetypeTableRecord
  2
CONTINUOUS
 70
     0
  3
実線
 72
    65
 73
     0
 40
0.0
  0
LTYPE
  5
1874C
330
1872C
100
AcDbSymbolTableRecord
100
AcDbLinetypeTableRecord
  2
1PL-LL
 70
     0
  3

 72
    65
 73
     4
 40
106.0
 49
100.0
 74
     0
 49
-2.0
 74
     0
 49
2.0
 74
     0
 49
-2.0
 74
     0
  0
LTYPE
  5
1874D
330
1872C
100
AcDbSymbolTableRecord
100
AcDbLinetypeTableRecord
  2
1PL-M
 70
     0
  3

 72
    65
 73
     4
 40
15.0
 49
12.0
 74
     0
 49
-1.0
 74
     0
 49
1.0
 74
     0
 49
-1.0
 74
     0
  0
LTYPE
  5
1874E
330
1872C
100
AcDbSymbolTableRecord
100
AcDbLinetypeTableRecord
  2
2PL-L
 70
     0
  3

 72
    65
 73
     6
 40
60.0
 49
50.0
 74
     0
 49
-2.0
 74
     0
 49
2.0
 74
     0
 49
-2.0
 74
     0
 49
2.0
 74
     0
 49
-2.0
 74
     0
  0
LTYPE
  5
1874F
330
1872C
100
AcDbSymbolTableRecord
100
AcDbLinetypeTableRecord
  2
1PL-12
 70
     0
  3

 72
    65
 73
     4
 40
15.0
 49
12.0
 74
     0
 49
-1.0
 74
     0
 49
1.0
 74
     0
 49
-1.0
 74
     0
  0
ENDTAB
  0
TABLE
  2
LAYER
  5
18729
330
0
100
AcDbSymbolTable
 70
    19
  0
LAYER
  5
18737
330
18729
100
AcDbSymbolTableRecord
100
AcDbLayerTableRecord
  2
0
 70
     0
 62
     7
  6
CONTINUOUS
370
    -3
390
18736
  0
LAYER
  5
18749
330
18729
100
AcDbSymbolTableRecord
100
AcDbLayerTableRecord
  2
SUNPOU
 70
     0
 62
     4
  6
CONTINUOUS
370
    -3
390
18736
  0
LAYER
  5
18750
330
18729
100
AcDbSymbolTableRecord
100
AcDbLayerTableRecord
  2
U1
 70
     0
 62
     3
  6
CONTINUOUS
370
    -3
390
18736
  0
LAYER
  5
18751
330
18729
100
AcDbSymbolTableRecord
100
AcDbLayerTableRecord
  2
U3
 70
     0
 62
     6
  6
CONTINUOUS
370
    -3
390
18736
  0
LAYER
  5
18752
330
18729
100
AcDbSymbolTableRecord
100
AcDbLayerTableRecord
  2
HIKIDASHI
 70
     0
 62
     6
  6
CONTINUOUS
370
    -3
390
18736
  0
LAYER
  5
18753
330
18729
100
AcDbSymbolTableRecord
100
AcDbLayerTableRecord
  2
1PL-M1
 70
     0
 62
     6
  6
1PL-M
370
    -3
390
18736
  0
LAYER
  5
18754
330
18729
100
AcDbSymbolTableRecord
100
AcDbLayerTableRecord
  2
NAME
 70
     0
 62
    20
  6
CONTINUOUS
370
    -3
390
18736
  0
LAYER
  5
18755
330
18729
100
AcDbSymbolTableRecord
100
AcDbLayerTableRecord
  2
FILENAME
 70
     0
 62
     7
  6
CONTINUOUS
370
    -3
390
18736
  0
LAYER
  5
18756
330
18729
100
AcDbSymbolTableRecord
100
AcDbLayerTableRecord
  2
CENTER
 70
     0
 62
     6
  6
1PL-LL
370
    -3
390
18736
  0
LAYER
  5
18757
330
18729
100
AcDbSymbolTableRecord
100
AcDbLayerTableRecord
  2
KISO
 70
     0
 62
     2
  6
CONTINUOUS
370
    -3
390
18736
  0
LAYER
  5
18758
330
18729
100
AcDbSymbolTableRecord
100
AcDbLayerTableRecord
  2
YANE
 70
     0
 62
     1
  6
1PL-12
370
    -3
390
18736
  0
LAYER
  5
18759
330
18729
100
AcDbSymbolTableRecord
100
AcDbLayerTableRecord
  2
HATCH
 70
     0
 62
     1
  6
CONTINUOUS
370
    -3
390
18736
  0
LAYER
  5
1875A
330
18729
100
AcDbSymbolTableRecord
100
AcDbLayerTableRecord
  2
HASHIRA
 70
     0
 62
     3
  6
CONTINUOUS
370
    -3
390
18736
  0
LAYER
  5
1875B
330
18729
100
AcDbSymbolTableRecord
100
AcDbLayerTableRecord
  2
TEKKIN
 70
     0
 62
     2
  6
CONTINUOUS
370
    -3
390
18736
  0
LAYER
  5
1875C
330
18729
100
AcDbSymbolTableRecord
100
AcDbLayerTableRecord
  2
DOMAKON
 70
     0
 62
     2
  6
CONTINUOUS
370
    -3
390
18736
  0
LAYER
  5
1875D
330
18729
100
AcDbSymbolTableRecord
100
AcDbLayerTableRecord
  2
YODOROGO
 70
     0
 62
   130
  6
CONTINUOUS
370
    -3
390
18736
  0
LAYER
  5
1875E
330
18729
100
AcDbSymbolTableRecord
100
AcDbLayerTableRecord
  2
WAKUSEN-01
 70
     0
 62
    50
  6
CONTINUOUS
370
    -3
390
18736
  0
LAYER
  5
1875F
330
18729
100
AcDbSymbolTableRecord
100
AcDbLayerTableRecord
  2
WAKUSEN-02
 70
     0
 62
   130
  6
CONTINUOUS
370
    -3
390
18736
  0
LAYER
  5
18760
330
18729
100
AcDbSymbolTableRecord
100
AcDbLayerTableRecord
  2
WAKUMOJI-01
 70
     0
 62
   130
  6
CONTINUOUS
370
    -3
390
18736
  0
ENDTAB
  0
TABLE
  2
STYLE
  5
1872A
330
0
100
AcDbSymbolTable
 70
     5
  0
STYLE
  5
18738
330
1872A
100
AcDbSymbolTableRecord
100
AcDbTextStyleTableRecord
  2
STANDARD
 70
     0
 40
3.0
 41
1.0
 50
0.0
 71
     0
 42
0.2
  3
ROMANS
  4
EXTFONT
  0
STYLE
  5
1874A
330
1872A
100
AcDbSymbolTableRecord
100
AcDbTextStyleTableRecord
  2
00
 70
     0
 40
0.0
 41
0.6666666666666666
 50
0.0
 71
     0
 42
0.2
  3
ROMANS
  4
BIGFONT
  0
STYLE
  5
18761
330
1872A
100
AcDbSymbolTableRecord
100
AcDbTextStyleTableRecord
  2
01
 70
     0
 40
3.0
 41
1.0
 50
0.0
 71
     0
 42
0.2
  3
ROMANS
  4
BIGFONT
  0
STYLE
  5
18762
330
1872A
100
AcDbSymbolTableRecord
100
AcDbTextStyleTableRecord
  2
WAKUMOJI
 70
     0
 40
3.0
 41
1.0
 50
0.0
 71
     0
 42
3.0
  3
SIMPLEX
  4
BIGFONT
  0
STYLE
  5
18763
330
1872A
100
AcDbSymbolTableRecord
100
AcDbTextStyleTableRecord
  2
FILENAME
 70
     0
 40
100.0
 41
1.0
 50
0.0
 71
     0
 42
100.0
  3
romans
  4
bigfont
  0
ENDTAB
  0
TABLE
  2
VIEW
  5
1872D
330
0
100
AcDbSymbolTable
 70
     0
  0
ENDTAB
  0
TABLE
  2
UCS
  5
1872E
330
0
100
AcDbSymbolTable
 70
     0
  0
ENDTAB
  0
TABLE
  2
APPID
  5
18730
330
0
100
AcDbSymbolTable
 70
     4
  0
APPID
  5
18739
330
18730
100
AcDbSymbolTableRecord
100
AcDbRegAppTableRecord
  2
ACAD
 70
     0
  0
APPID
  5
18764
330
18730
100
AcDbSymbolTableRecord
100
AcDbRegAppTableRecord
  2
AUTOCAD_POSTSCRIPT_FIGURE
 70
     0
  0
APPID
  5
18765
330
18730
100
AcDbSymbolTableRecord
100
AcDbRegAppTableRecord
  2
ACAD_EXEMPT_FROM_CAD_STANDARDS
 70
     0
  0
APPID
  5
18766
330
18730
100
AcDbSymbolTableRecord
100
AcDbRegAppTableRecord
  2
ACAD_PSEXT
 70
     0
  0
ENDTAB
  0
TABLE
  2
DIMSTYLE
  5
18731
330
0
100
AcDbSymbolTable
 70
     1
100
AcDbDimStyleTable
 71
     0
  0
DIMSTYLE
105
18767
330
18731
100
AcDbSymbolTableRecord
100
AcDbDimStyleTableRecord
  2
SUNPOU_図面名
 70
     0
 40
30.0
 41
0.5
 42
1.0
 43
7.0
 44
1.5
 46
3.0
 73
     0
 74
     0
 77
     1
 78
     8
140
3.0
141
0.0
147
1.5
172
     1
173
     1
176
   256
177
   256
178
   256
271
     2
272
     2
279
     2
284
     8
285
     8
286
     8
340
1874A
  0
ENDTAB
  0
TABLE
  2
BLOCK_RECORD
  5
18728
330
0
100
AcDbSymbolTable
 70
    29
  0
BLOCK_RECORD
  5
18745
330
18728
100
AcDbSymbolTableRecord
100
AcDbBlockTableRecord
  2
*Model_Space
340
18748
  0
BLOCK_RECORD
  5
18741
330
18728
100
AcDbSymbolTableRecord
100
AcDbBlockTableRecord
  2
*Paper_Space
340
18744
  0
BLOCK_RECORD
  5
1876C
330
18728
100
AcDbSymbolTableRecord
100
AcDbBlockTableRecord
  2
$MODEL_SPACE
340
0
  0
BLOCK_RECORD
  5
1876F
330
18728
100
AcDbSymbolTableRecord
100
AcDbBlockTableRecord
  2
$PAPER_SPACE
340
0
  0
BLOCK_RECORD
  5
18772
330
18728
100
AcDbSymbolTableRecord
100
AcDbBlockTableRecord
  2
DOT
340
0
  0
BLOCK_RECORD
  5
1877A
330
18728
100
AcDbSymbolTableRecord
100
AcDbBlockTableRecord
  2
*U3
340
0
  0
BLOCK_RECORD
  5
1877E
330
18728
100
AcDbSymbolTableRecord
100
AcDbBlockTableRecord
  2
*U4
340
0
  0
BLOCK_RECORD
  5
18782
330
18728
100
AcDbSymbolTableRecord
100
AcDbBlockTableRecord
  2
*U5
340
0
  0
BLOCK_RECORD
  5
18786
330
18728
100
AcDbSymbolTableRecord
100
AcDbBlockTableRecord
  2
*U6
340
0
  0
BLOCK_RECORD
  5
1878A
330
18728
100
AcDbSymbolTableRecord
100
AcDbBlockTableRecord
  2
*U7
340
0
  0
BLOCK_RECORD
  5
1878E
330
18728
100
AcDbSymbolTableRecord
100
AcDbBlockTableRecord
  2
*U8
340
0
  0
BLOCK_RECORD
  5
18792
330
18728
100
AcDbSymbolTableRecord
100
AcDbBlockTableRecord
  2
*U9
340
0
  0
BLOCK_RECORD
  5
18796
330
18728
100
AcDbSymbolTableRecord
100
AcDbBlockTableRecord
  2
*U10
340
0
  0
BLOCK_RECORD
  5
1879A
330
18728
100
AcDbSymbolTableRecord
100
AcDbBlockTableRecord
  2
*U11
340
0
  0
BLOCK_RECORD
  5
1879E
330
18728
100
AcDbSymbolTableRecord
100
AcDbBlockTableRecord
  2
*U12
340
0
  0
BLOCK_RECORD
  5
187A2
330
18728
100
AcDbSymbolTableRecord
100
AcDbBlockTableRecord
  2
*U13
340
0
  0
BLOCK_RECORD
  5
187A6
330
18728
100
AcDbSymbolTableRecord
100
AcDbBlockTableRecord
  2
*U14
340
0
  0
BLOCK_RECORD
  5
187AA
330
18728
100
AcDbSymbolTableRecord
100
AcDbBlockTableRecord
  2
*U15
340
0
  0
BLOCK_RECORD
  5
187AE
330
18728
100
AcDbSymbolTableRecord
100
AcDbBlockTableRecord
  2
*U16
340
0
  0
BLOCK_RECORD
  5
187B2
330
18728
100
AcDbSymbolTableRecord
100
AcDbBlockTableRecord
  2
*U17
340
0
  0
BLOCK_RECORD
  5
187B6
330
18728
100
AcDbSymbolTableRecord
100
AcDbBlockTableRecord
  2
*U18
340
0
  0
BLOCK_RECORD
  5
187BA
330
18728
100
AcDbSymbolTableRecord
100
AcDbBlockTableRecord
  2
*U19
340
0
  0
BLOCK_RECORD
  5
187BE
330
18728
100
AcDbSymbolTableRecord
100
AcDbBlockTableRecord
  2
*U20
340
0
  0
BLOCK_RECORD
  5
187C2
330
18728
100
AcDbSymbolTableRecord
100
AcDbBlockTableRecord
  2
*U21
340
0
  0
BLOCK_RECORD
  5
187C6
330
18728
100
AcDbSymbolTableRecord
100
AcDbBlockTableRecord
  2
*U22
340
0
  0
BLOCK_RECORD
  5
187CA
330
18728
100
AcDbSymbolTableRecord
100
AcDbBlockTableRecord
  2
*U23
340
0
  0
BLOCK_RECORD
  5
187CE
330
18728
100
AcDbSymbolTableRecord
100
AcDbBlockTableRecord
  2
*U24
340
0
  0
BLOCK_RECORD
  5
187D2
330
18728
100
AcDbSymbolTableRecord
100
AcDbBlockTableRecord
  2
*U25
340
0
  0
BLOCK_RECORD
  5
187D6
330
18728
100
AcDbSymbolTableRecord
100
AcDbBlockTableRecord
  2
*U26
340
0
  0
BLOCK_RECORD
  5
187DA
330
18728
100
AcDbSymbolTableRecord
100
AcDbBlockTableRecord
  2
*U27
340
0
  0
ENDTAB
  0
ENDSEC
  0
SECTION
  2
BLOCKS
  0
BLOCK
  5
18746
330
18745
100
AcDbEntity
  8
0
100
AcDbBlockBegin
  2
*Model_Space
 70
     0
 10
0.0
 20
0.0
 30
0.0
  3
*Model_Space
  1

  0
ENDBLK
  5
18747
330
18745
100
AcDbEntity
  8
0
100
AcDbBlockEnd
  0
BLOCK
  5
18742
330
18741
100
AcDbEntity
 67
     1
  8
0
100
AcDbBlockBegin
  2
*Paper_Space
 70
     0
 10
0.0
 20
0.0
 30
0.0
  3
*Paper_Space
  1

  0
ENDBLK
  5
18743
330
18741
100
AcDbEntity
 67
     1
  8
0
100
AcDbBlockEnd
  0
BLOCK
  5
1876D
330
1876C
100
AcDbEntity
  8
0
100
AcDbBlockBegin
  2
$MODEL_SPACE
 70
     0
 10
0.0
 20
0.0
 30
0.0
  3
$MODEL_SPACE
  1

  0
ENDBLK
  5
1876E
330
1876C
100
AcDbEntity
  8
0
100
AcDbBlockEnd
  0
BLOCK
  5
18770
330
1876F
100
AcDbEntity
  8
0
100
AcDbBlockBegin
  2
$PAPER_SPACE
 70
     0
 10
0.0
 20
0.0
 30
0.0
  3
$PAPER_SPACE
  1

  0
ENDBLK
  5
18771
330
1876F
100
AcDbEntity
  8
0
100
AcDbBlockEnd
  0
BLOCK
  5
18773
330
18772
100
AcDbEntity
  8
0
100
AcDbBlockBegin
  2
DOT
 70
     0
 10
0.0
 20
0.0
 30
0.0
  3
DOT
  1

  0
LWPOLYLINE
  5
18774
330
18772
100
AcDbEntity
  8
0
  6
ByBlock
 62
     0
100
AcDbPolyline
 90
        2
 70
     1
 43
0.75
 10
-0.375
 20
0.0
 42
1.0
 10
0.375
 20
0.0
 42
1.0
  0
LINE
  5
18778
330
18772
100
AcDbEntity
  8
0
  6
ByBlock
 62
     0
100
AcDbLine
 10
-0.75
 20
0.0
 30
0.0
 11
-1.5
 21
0.0
 31
0.0
  0
ENDBLK
  5
18779
330
18772
100
AcDbEntity
  8
0
100
AcDbBlockEnd
  0
BLOCK
  5
1877B
330
1877A
100
AcDbEntity
  8
0
100
AcDbBlockBegin
  2
*U3
 70
     1
 10
0.0
 20
0.0
 30
0.0
  3
*U3
  1

  0
TEXT
  5
1877C
330
1877A
100
AcDbEntity
  8
SUNPOU
100
AcDbText
 10
12039.21703198606
 20
6477.143931901827
 30
0.0
 40
90.0
  1
1800
 50
90.0
 41
0.6666666666666666
  7
00
100
AcDbText
  0
ENDBLK
  5
1877D
330
1877A
100
AcDbEntity
  8
0
100
AcDbBlockEnd
  0
BLOCK
  5
1877F
330
1877E
100
AcDbEntity
  8
0
100
AcDbBlockBegin
  2
*U4
 70
     1
 10
0.0
 20
0.0
 30
0.0
  3
*U4
  1

  0
TEXT
  5
18780
330
1877E
100
AcDbEntity
  8
SUNPOU
100
AcDbText
 10
12039.21703198606
 20
8277.143931901829
 30
0.0
 40
90.0
  1
1800
 50
90.0
 41
0.6666666666666666
  7
00
100
AcDbText
  0
ENDBLK
  5
18781
330
1877E
100
AcDbEntity
  8
0
100
AcDbBlockEnd
  0
BLOCK
  5
18783
330
18782
100
AcDbEntity
  8
0
100
AcDbBlockBegin
  2
*U5
 70
     1
 10
0.0
 20
0.0
 30
0.0
  3
*U5
  1

  0
TEXT
  5
18784
330
18782
100
AcDbEntity
  8
SUNPOU
100
AcDbText
 10
8747.074174843204
 20
6290.715360473253
 30
0.0
 40
90.0
  1
600
 41
0.6666666666666666
  7
00
100
AcDbText
  0
ENDBLK
  5
18785
330
18782
100
AcDbEntity
  8
0
100
AcDbBlockEnd
  0
BLOCK
  5
18787
330
18786
100
AcDbEntity
  8
0
100
AcDbBlockBegin
  2
*U6
 70
     1
 10
0.0
 20
0.0
 30
0.0
  3
*U6
  1

  0
TEXT
  5
18788
330
18786
100
AcDbEntity
  8
SUNPOU
100
AcDbText
 10
7447.074174843203
 20
8740.715360473251
 30
0.0
 40
90.0
  1
600
 41
0.6666666666666666
  7
00
100
AcDbText
  0
ENDBLK
  5
18789
330
18786
100
AcDbEntity
  8
0
100
AcDbBlockEnd
  0
BLOCK
  5
1878B
330
1878A
100
AcDbEntity
  8
0
100
AcDbBlockBegin
  2
*U7
 70
     1
 10
0.0
 20
0.0
 30
0.0
  3
*U7
  1

  0
TEXT
  5
1878C
330
1878A
100
AcDbEntity
  8
SUNPOU
100
AcDbText
 10
6889.21703198606
 20
9208.572503330399
 30
0.0
 40
90.0
  1
600
 50
90.0
 41
0.6666666666666666
  7
00
100
AcDbText
  0
ENDBLK
  5
1878D
330
1878A
100
AcDbEntity
  8
0
100
AcDbBlockEnd
  0
BLOCK
  5
1878F
330
1878E
100
AcDbEntity
  8
0
100
AcDbBlockBegin
  2
*U8
 70
     1
 10
0.0
 20
0.0
 30
0.0
  3
*U8
  1

  0
TEXT
  5
18790
330
1878E
100
AcDbEntity
  8
SUNPOU
100
AcDbText
 10
9944.931317700344
 20
10040.71536047325
 30
0.0
 40
90.0
  1
2450
 41
0.6666666666666666
  7
00
100
AcDbText
  0
ENDBLK
  5
18791
330
1878E
100
AcDbEntity
  8
0
100
AcDbBlockEnd
  0
BLOCK
  5
18793
330
18792
100
AcDbEntity
  8
0
100
AcDbBlockBegin
  2
*U9
 70
     1
 10
0.0
 20
0.0
 30
0.0
  3
*U9
  1

  0
TEXT
  5
18794
330
18792
100
AcDbEntity
  8
SUNPOU
100
AcDbText
 10
6194.931317700345
 20
10040.71536047325
 30
0.0
 40
90.0
  1
2450
 41
0.6666666666666666
  7
00
100
AcDbText
  0
ENDBLK
  5
18795
330
18792
100
AcDbEntity
  8
0
100
AcDbBlockEnd
  0
BLOCK
  5
18797
330
18796
100
AcDbEntity
  8
0
100
AcDbBlockBegin
  2
*U10
 70
     1
 10
0.0
 20
0.0
 30
0.0
  3
*U10
  1

  0
TEXT
  5
18798
330
18796
100
AcDbEntity
  8
SUNPOU
100
AcDbText
 10
9389.21703198606
 20
5608.572503330398
 30
0.0
 40
90.0
  1
600
 50
90.0
 41
0.6666666666666666
  7
00
100
AcDbText
  0
ENDBLK
  5
18799
330
18796
100
AcDbEntity
  8
0
100
AcDbBlockEnd
  0
BLOCK
  5
1879B
330
1879A
100
AcDbEntity
  8
0
100
AcDbBlockBegin
  2
*U11
 70
     1
 10
0.0
 20
0.0
 30
0.0
  3
*U11
  1

  0
TEXT
  5
1879C
330
1879A
100
AcDbEntity
  8
SUNPOU
100
AcDbText
 10
3378.619628952101
 20
3332.183932023017
 30
0.0
 40
90.0
  1
300
 41
0.6666666666666666
  7
00
100
AcDbText
  0
ENDBLK
  5
1879D
330
1879A
100
AcDbEntity
  8
0
100
AcDbBlockEnd
  0
BLOCK
  5
1879F
330
1879E
100
AcDbEntity
  8
0
100
AcDbBlockBegin
  2
*U12
 70
     1
 10
0.0
 20
0.0
 30
0.0
  3
*U12
  1

  0
TEXT
  5
187A0
330
1879E
100
AcDbEntity
  8
SUNPOU
100
AcDbText
 10
2698.333796409537
 20
2094.469646308733
 30
0.0
 40
90.0
  1
380
 50
90.0
 41
0.6666666666666666
  7
00
100
AcDbText
  0
ENDBLK
  5
187A1
330
1879E
100
AcDbEntity
  8
0
100
AcDbBlockEnd
  0
BLOCK
  5
187A3
330
187A2
100
AcDbEntity
  8
0
100
AcDbBlockBegin
  2
*U13
 70
     1
 10
0.0
 20
0.0
 30
0.0
  3
*U13
  1

  0
TEXT
  5
187A4
330
187A2
100
AcDbEntity
  8
SUNPOU
100
AcDbText
 10
8748.502746271773
 20
8110.715360473252
 30
0.0
 40
90.0
  1
800
 41
0.6666666666666666
  7
00
100
AcDbText
  0
ENDBLK
  5
187A5
330
187A2
100
AcDbEntity
  8
0
100
AcDbBlockEnd
  0
BLOCK
  5
187A7
330
187A6
100
AcDbEntity
  8
0
100
AcDbBlockBegin
  2
*U14
 70
     1
 10
0.0
 20
0.0
 30
0.0
  3
*U14
  1

  0
TEXT
  5
187A8
330
187A6
100
AcDbEntity
  8
SUNPOU
100
AcDbText
 10
6584.758582955732
 20
2094.469646308731
 30
0.0
 40
90.0
  1
380
 50
90.0
 41
0.6666666666666666
  7
00
100
AcDbText
  0
ENDBLK
  5
187A9
330
187A6
100
AcDbEntity
  8
0
100
AcDbBlockEnd
  0
BLOCK
  5
187AB
330
187AA
100
AcDbEntity
  8
0
100
AcDbBlockBegin
  2
*U15
 70
     1
 10
0.0
 20
0.0
 30
0.0
  3
*U15
  1

  0
TEXT
  5
187AC
330
187AA
100
AcDbEntity
  8
SUNPOU
100
AcDbText
 10
7345.044415498293
 20
3332.183932023015
 30
0.0
 40
90.0
  1
400
 41
0.6666666666666666
  7
00
100
AcDbText
  0
ENDBLK
  5
187AD
330
187AA
100
AcDbEntity
  8
0
100
AcDbBlockEnd
  0
BLOCK
  5
187AF
330
187AE
100
AcDbEntity
  8
0
100
AcDbBlockBegin
  2
*U16
 70
     1
 10
0.0
 20
0.0
 30
0.0
  3
*U16
  1

  0
TEXT
  5
187B0
330
187AE
100
AcDbEntity
  8
SUNPOU
100
AcDbText
 10
9524.217031986058
 20
7410.001074758966
 30
0.0
 40
90.0
  1
800
 50
90.0
 41
0.6666666666666666
  7
00
100
AcDbText
  0
ENDBLK
  5
187B1
330
187AE
100
AcDbEntity
  8
0
100
AcDbBlockEnd
  0
BLOCK
  5
187B3
330
187B2
100
AcDbEntity
  8
0
100
AcDbBlockBegin
  2
*U17
 70
     1
 10
0.0
 20
0.0
 30
0.0
  3
*U17
  1

  0
TEXT
  5
187B4
330
187B2
100
AcDbEntity
  8
SUNPOU
100
AcDbText
 10
4798.502746271775
 20
10040.71536047325
 30
0.0
 40
90.0
  1
400
 41
0.6666666666666666
  7
00
100
AcDbText
  0
ENDBLK
  5
187B5
330
187B2
100
AcDbEntity
  8
0
100
AcDbBlockEnd
  0
BLOCK
  5
187B7
330
187B6
100
AcDbEntity
  8
0
100
AcDbBlockBegin
  2
*U18
 70
     1
 10
0.0
 20
0.0
 30
0.0
  3
*U18
  1

  0
TEXT
  5
187B8
330
187B6
100
AcDbEntity
  8
SUNPOU
100
AcDbText
 10
11398.50274627177
 20
10040.71536047325
 30
0.0
 40
90.0
  1
400
 41
0.6666666666666666
  7
00
100
AcDbText
  0
ENDBLK
  5
187B9
330
187B6
100
AcDbEntity
  8
0
100
AcDbBlockEnd
  0
BLOCK
  5
187BB
330
187BA
100
AcDbEntity
  8
0
100
AcDbBlockBegin
  2
*U19
 70
     1
 10
0.0
 20
0.0
 30
0.0
  3
*U19
  1

  0
TEXT
  5
187BC
330
187BA
100
AcDbEntity
  8
SUNPOU
100
AcDbText
 10
3617.191057523529
 20
1504.183932023016
 30
0.0
 40
90.0
  1
600
 41
0.6666666666666666
  7
00
100
AcDbText
  0
ENDBLK
  5
187BD
330
187BA
100
AcDbEntity
  8
0
100
AcDbBlockEnd
  0
BLOCK
  5
187BF
330
187BE
100
AcDbEntity
  8
0
100
AcDbBlockBegin
  2
*U20
 70
     1
 10
0.0
 20
0.0
 30
0.0
  3
*U20
  1

  0
TEXT
  5
187C0
330
187BE
100
AcDbEntity
  8
SUNPOU
100
AcDbText
 10
7665.044415498293
 20
1504.183932023015
 30
0.0
 40
90.0
  1
800
 41
0.6666666666666666
  7
00
100
AcDbText
  0
ENDBLK
  5
187C1
330
187BE
100
AcDbEntity
  8
0
100
AcDbBlockEnd
  0
BLOCK
  5
187C3
330
187C2
100
AcDbEntity
  8
0
100
AcDbBlockBegin
  2
*U21
 70
     1
 10
0.0
 20
0.0
 30
0.0
  3
*U21
  1

  0
TEXT
  5
187C4
330
187C2
100
AcDbEntity
  8
SUNPOU
100
AcDbText
 10
7720.502746271773
 20
10250.71536047325
 30
0.0
 40
90.0
  1
L = 2450 x N + 800
 41
0.6666666666666666
  7
00
100
AcDbText
  0
ENDBLK
  5
187C5
330
187C2
100
AcDbEntity
  8
0
100
AcDbBlockEnd
  0
BLOCK
  5
187C7
330
187C6
100
AcDbEntity
  8
0
100
AcDbBlockBegin
  2
*U22
 70
     1
 10
0.0
 20
0.0
 30
0.0
  3
*U22
  1

  0
TEXT
  5
187C8
330
187C6
100
AcDbEntity
  8
SUNPOU
100
AcDbText
 10
3618.6196289521
 20
1294.183932023016
 30
0.0
 40
90.0
  1
800
 41
0.6666666666666666
  7
00
100
AcDbText
  0
ENDBLK
  5
187C9
330
187C6
100
AcDbEntity
  8
0
100
AcDbBlockEnd
  0
BLOCK
  5
187CB
330
187CA
100
AcDbEntity
  8
0
100
AcDbBlockBegin
  2
*U23
 70
     1
 10
0.0
 20
0.0
 30
0.0
  3
*U23
  1

  0
TEXT
  5
187CC
330
187CA
100
AcDbEntity
  8
SUNPOU
100
AcDbText
 10
2698.333796409538
 20
1706.183932023019
 30
0.0
 40
90.0
  1
100
 50
90.0
 41
0.6666666666666666
  7
00
100
AcDbText
  0
ENDBLK
  5
187CD
330
187CA
100
AcDbEntity
  8
0
100
AcDbBlockEnd
  0
BLOCK
  5
187CF
330
187CE
100
AcDbEntity
  8
0
100
AcDbBlockBegin
  2
*U24
 70
     1
 10
0.0
 20
0.0
 30
0.0
  3
*U24
  1

  0
TEXT
  5
187D0
330
187CE
100
AcDbEntity
  8
SUNPOU
100
AcDbText
 10
2498.333796409538
 20
2014.469646308733
 30
0.0
 40
90.0
  1
480
 50
90.0
 41
0.6666666666666666
  7
00
100
AcDbText
  0
ENDBLK
  5
187D1
330
187CE
100
AcDbEntity
  8
0
100
AcDbBlockEnd
  0
BLOCK
  5
187D3
330
187D2
100
AcDbEntity
  8
0
100
AcDbBlockBegin
  2
*U25
 70
     1
 10
0.0
 20
0.0
 30
0.0
  3
*U25
  1

  0
TEXT
  5
187D4
330
187D2
100
AcDbEntity
  8
SUNPOU
100
AcDbText
 10
6584.758582955732
 20
1706.183932023019
 30
0.0
 40
90.0
  1
100
 50
90.0
 41
0.6666666666666666
  7
00
100
AcDbText
  0
ENDBLK
  5
187D5
330
187D2
100
AcDbEntity
  8
0
100
AcDbBlockEnd
  0
BLOCK
  5
187D7
330
187D6
100
AcDbEntity
  8
0
100
AcDbBlockBegin
  2
*U26
 70
     1
 10
0.0
 20
0.0
 30
0.0
  3
*U26
  1

  0
TEXT
  5
187D8
330
187D6
100
AcDbEntity
  8
SUNPOU
100
AcDbText
 10
6384.758582955733
 20
2014.469646308732
 30
0.0
 40
90.0
  1
480
 50
90.0
 41
0.6666666666666666
  7
00
100
AcDbText
  0
ENDBLK
  5
187D9
330
187D6
100
AcDbEntity
  8
0
100
AcDbBlockEnd
  0
BLOCK
  5
187DB
330
187DA
100
AcDbEntity
  8
0
100
AcDbBlockBegin
  2
*U27
 70
     1
 10
0.0
 20
0.0
 30
0.0
  3
*U27
  1

  0
TEXT
  5
187DC
330
187DA
100
AcDbEntity
  8
SUNPOU
100
AcDbText
 10
7632.187272641154
 20
1294.183932023014
 30
0.0
 40
90.0
  1
1000
 41
0.6666666666666666
  7
00
100
AcDbText
  0
ENDBLK
  5
187DD
330
187DA
100
AcDbEntity
  8
0
100
AcDbBlockEnd
  0
ENDSEC
  0
SECTION
  2
ENTITIES
  0
TEXT
  5
187DE
330
18745
100
AcDbEntity
  8
NAME
100
AcDbText
 10
12303.32857318295
 20
1055.0
 30
0.0
 40
120.0
  1
Y O K C
 41
0.6666666666666666
  7
00
100
AcDbText
  0
TEXT
  5
187DF
330
18745
100
AcDbEntity
  8
NAME
100
AcDbText
 10
11227.73587134625
 20
1055.0
 30
0.0
 40
120.0
  1
ヨド自転車置場　　　  型
  7
01
100
AcDbText
  0
TEXT
  5
187E0
330
18745
100
AcDbEntity
  8
NAME
100
AcDbText
 10
11112.07508082364
 20
875.0
 30
0.0
 40
120.0
  1
背合せタイプ（埋め込み方式）
  7
01
 72
     4
 11
12072.07508082364
 21
935.0
 31
0.0
100
AcDbText
  0
TEXT
  5
187FE
330
18745
100
AcDbEntity
  8
NAME
100
AcDbText
 10
12854.79999999999
 20
541.0000000000001
 30
0.0
 40
160.0
  1
<3／3>
 41
0.6
  7
01
 72
     2
 11
13354.0
 21
541.0000000000001
 31
0.0
100
AcDbText
  0
TEXT
  5
187FF
330
18745
100
AcDbEntity
  8
NAME
100
AcDbText
 10
10896.04264730428
 20
541.0
 30
0.0
 40
160.0
  1
YOKC-245
 41
0.7
  7
01
 72
     2
 11
11776.04264730429
 21
541.0
 31
0.0
100
AcDbText
  0
TEXT
  5
18800
330
18745
100
AcDbEntity
  8
NAME
100
AcDbText
 10
11816.04264730429
 20
541.0
 30
0.0
 40
160.0
  1
型（一般地用）
 41
0.8
  7
01
100
AcDbText
  0
TEXT
  5
18801
330
18745
100
AcDbEntity
  8
SUNPOU
100
AcDbText
 10
4432.885652329143
 20
7840.715360473251
 30
0.0
 40
90.0
  1
B
 41
0.6700000000000001
  7
00
 72
     4
 11
4464.471366614856
 21
7885.715360473252
 31
0.0
100
AcDbText
  0
LINE
  5
18802
330
18745
100
AcDbEntity
  8
SUNPOU
100
AcDbLine
 10
4464.47136661486
 20
7495.715360473251
 30
0.0
 11
4614.47136661486
 21
7495.715360473251
 31
0.0
  0
LINE
  5
18803
330
18745
100
AcDbEntity
  8
SUNPOU
100
AcDbLine
 10
4464.47136661486
 20
7705.715360473253
 30
0.0
 11
4464.47136661486
 21
7495.715360473251
 31
0.0
  0
SOLID
  5
18804
330
18745
100
AcDbEntity
  8
SUNPOU
100
AcDbTrace
 10
4449.47136661486
 20
7705.715360473253
 30
0.0
 11
4479.47136661486
 21
7705.715360473253
 31
0.0
 12
4464.47136661486
 22
7795.715360473251
 32
0.0
 13
4464.47136661486
 23
7795.715360473251
 33
0.0
  0
LINE
  5
18805
330
18745
100
AcDbEntity
  8
SUNPOU
100
AcDbLine
 10
5569.630294679762
 20
7495.715360473251
 30
0.0
 11
5419.630294679759
 21
7495.715360473251
 31
0.0
  0
TEXT
  5
18806
330
18745
100
AcDbEntity
  8
SUNPOU
100
AcDbText
 10
5650.12315182262
 20
7832.143931901822
 30
0.0
 40
90.0
  1
B'
 41
0.6700000000000001
  7
00
 72
     4
 11
5694.630294679762
 21
7885.715360473252
 31
0.0
100
AcDbText
  0
LINE
  5
18807
330
18745
100
AcDbEntity
  8
SUNPOU
100
AcDbLine
 10
5694.630294679762
 20
7705.715360473253
 30
0.0
 11
5694.630294679762
 21
7495.715360473251
 31
0.0
  0
SOLID
  5
18808
330
18745
100
AcDbEntity
  8
SUNPOU
100
AcDbTrace
 10
5709.630294679762
 20
7705.715360473253
 30
0.0
 11
5679.630294679762
 21
7705.715360473253
 31
0.0
 12
5694.630294679762
 22
7795.715360473251
 32
0.0
 13
5694.630294679762
 23
7795.715360473251
 33
0.0
  0
LINE
  5
18809
330
18745
100
AcDbEntity
  8
CENTER
  6
1PL-M
100
AcDbLine
 10
8834.21703198606
 20
8245.715360473253
 30
0.0
 11
8834.21703198606
 21
9695.715360473252
 31
0.0
  0
LINE
  5
1880A
330
18745
100
AcDbEntity
  8
CENTER
  6
1PL-M
100
AcDbLine
 10
9609.217031986061
 20
7495.715360473251
 30
0.0
 11
12129.21703198605
 21
7495.715360473251
 31
0.0
  0
LINE
  5
1880B
330
18745
100
AcDbEntity
  8
CENTER
  6
1PL-M
100
AcDbLine
 10
8244.217031986062
 20
7495.715360473251
 30
0.0
 11
9404.217031986055
 21
7495.715360473251
 31
0.0
  0
LINE
  5
1880C
330
18745
100
AcDbEntity
  8
CENTER
  6
1PL-M
100
AcDbLine
 10
4614.21703198606
 20
7495.715360473251
 30
0.0
 11
8124.217031986061
 21
7495.715360473251
 31
0.0
  0
LINE
  5
1880D
330
18745
100
AcDbEntity
  8
CENTER
  6
1PL-M
100
AcDbLine
 10
8244.217031986062
 20
5695.715360473253
 30
0.0
 11
9274.217031986065
 21
5695.715360473253
 31
0.0
  0
LINE
  5
1880E
330
18745
100
AcDbEntity
  8
CENTER
  6
1PL-M
100
AcDbLine
 10
8244.217031986062
 20
9295.715360473252
 30
0.0
 11
12129.21703198605
 21
9295.715360473252
 31
0.0
  0
TEXT
  5
1880F
330
18745
100
AcDbEntity
  8
SUNPOU
100
AcDbText
 10
10531.34907160025
 20
4902.649361983672
 30
0.0
 40
90.0
  1
（  ：スパン数）
  7
01
 11
10531.34907160025
 21
4947.649361983672
 31
0.0
100
AcDbText
 73
     2
  0
TEXT
  5
18810
330
18745
100
AcDbEntity
  8
SUNPOU
100
AcDbText
 10
10661.81028265175
 20
4902.649361983672
 30
0.0
 40
90.0
  1
N
 41
0.6666666666666666
  7
00
 72
     4
 11
10693.23885408032
 21
4947.649361983672
 31
0.0
100
AcDbText
  0
LINE
  5
18811
330
18745
100
AcDbEntity
  8
CENTER
  6
1PL-M
100
AcDbLine
 10
4614.21703198606
 20
5695.715360473253
 30
0.0
 11
8124.217031986061
 21
5695.715360473253
 31
0.0
  0
LINE
  5
18812
330
18745
100
AcDbEntity
  8
CENTER
  6
1PL-M
100
AcDbLine
 10
6982.96703198606
 20
9295.715360473252
 30
0.0
 11
8124.217031986061
 21
9295.715360473252
 31
0.0
  0
LINE
  5
18813
330
18745
100
AcDbEntity
  8
SUNPOU
100
AcDbLine
 10
8124.217031986061
 20
9685.715360473253
 30
0.0
 11
8124.217031986061
 21
5275.715360473252
 31
0.0
  0
LINE
  5
18814
330
18745
100
AcDbEntity
  8
CENTER
  6
1PL-M
100
AcDbLine
 10
5084.21703198606
 20
5295.715360473253
 30
0.0
 11
5084.21703198606
 21
9695.715360473252
 31
0.0
  0
LINE
  5
18815
330
18745
100
AcDbEntity
  8
CENTER
  6
1PL-M
100
AcDbLine
 10
7534.217031986059
 20
8845.715360473255
 30
0.0
 11
7534.217031986059
 21
9695.715360473252
 31
0.0
  0
LINE
  5
18816
330
18745
100
AcDbEntity
  8
CENTER
  6
1PL-M
100
AcDbLine
 10
7534.217031986059
 20
5295.715360473253
 30
0.0
 11
7534.217031986059
 21
8650.715360473251
 31
0.0
  0
LINE
  5
18817
330
18745
100
AcDbEntity
  8
CENTER
  6
1PL-M
100
AcDbLine
 10
4614.21703198606
 20
9295.715360473252
 30
0.0
 11
6784.217031986064
 21
9295.715360473252
 31
0.0
  0
LINE
  5
18818
330
18745
100
AcDbEntity
  8
CENTER
  6
1PL-M
100
AcDbLine
 10
9469.217031986065
 20
5695.715360473253
 30
0.0
 11
12129.21703198605
 21
5695.715360473253
 31
0.0
  0
LINE
  5
18819
330
18745
100
AcDbEntity
  8
SUNPOU
100
AcDbLine
 10
11714.21703198606
 20
9595.715360473253
 30
0.0
 11
12339.21703198606
 21
9595.715360473253
 31
0.0
  0
LINE
  5
1881A
330
18745
100
AcDbEntity
  8
SUNPOU
100
AcDbLine
 10
11714.21703198606
 20
5395.715360473253
 30
0.0
 11
12339.21703198606
 21
5395.715360473253
 31
0.0
  0
LINE
  5
1881B
330
18745
100
AcDbEntity
  8
SUNPOU
100
AcDbLine
 10
8244.217031986062
 20
9685.715360473253
 30
0.0
 11
8244.217031986062
 21
5275.715360473252
 31
0.0
  0
LINE
  5
1881C
330
18745
100
AcDbEntity
  8
CENTER
  6
1PL-M
100
AcDbLine
 10
11284.21703198606
 20
5295.715360473253
 30
0.0
 11
11284.21703198606
 21
9695.715360473252
 31
0.0
  0
LINE
  5
1881D
330
18745
100
AcDbEntity
  8
CENTER
  6
1PL-M
100
AcDbLine
 10
8834.21703198606
 20
5295.715360473253
 30
0.0
 11
8834.21703198606
 21
6200.715360473253
 31
0.0
  0
LINE
  5
1881E
330
18745
100
AcDbEntity
  8
SUNPOU
100
AcDbLine
 10
12294.21703198606
 20
9580.715360473252
 30
0.0
 11
12294.21703198606
 21
5410.715360473253
 31
0.0
  0
LINE
  5
1881F
330
18745
100
AcDbEntity
  8
SUNPOU
100
AcDbLine
 10
12084.21703198605
 20
5680.715360473254
 30
0.0
 11
12084.21703198605
 21
5410.715360473253
 31
0.0
  0
LINE
  5
18820
330
18745
100
AcDbEntity
  8
SUNPOU
100
AcDbLine
 10
12054.21703198606
 20
5395.715360473253
 30
0.0
 11
12039.21703198606
 21
5395.715360473253
 31
0.0
  0
TEXT
  5
18821
330
18745
100
AcDbEntity
  8
SUNPOU
100
AcDbText
 10
12039.21703198606
 20
5460.001074758968
 30
0.0
 40
90.0
  1
300
 50
90.0
 41
0.6666666666666666
  7
00
 72
     4
 11
11994.21703198606
 21
5545.715360473253
 31
0.0
100
AcDbText
  0
TEXT
  5
18822
330
18745
100
AcDbEntity
  8
SUNPOU
100
AcDbText
 10
12249.21703198605
 20
7381.429646187537
 30
0.0
 40
90.0
  1
4200
 50
90.0
 41
0.6666666666666666
  7
00
 72
     4
 11
12204.21703198605
 21
7495.715360473251
 31
0.0
100
AcDbText
  0
LINE
  5
18823
330
18745
100
AcDbEntity
  8
SUNPOU
100
AcDbLine
 10
12084.21703198605
 20
9580.715360473252
 30
0.0
 11
12084.21703198605
 21
9310.715360473251
 31
0.0
  0
TEXT
  5
18824
330
18745
100
AcDbEntity
  8
SUNPOU
100
AcDbText
 10
12039.21703198606
 20
9360.001074758967
 30
0.0
 40
90.0
  1
300
 50
90.0
 41
0.6666666666666666
  7
00
 72
     1
 11
11994.21703198606
 21
9445.715360473252
 31
0.0
100
AcDbText
 73
     2
  0
LINE
  5
18825
330
18745
100
AcDbEntity
  8
SUNPOU
100
AcDbLine
 10
12054.21703198606
 20
9595.715360473253
 30
0.0
 11
12039.21703198606
 21
9595.715360473253
 31
0.0
  0
LINE
  5
18826
330
18745
100
AcDbEntity
  8
CENTER
  6
1PL-M
100
AcDbLine
 10
8834.21703198606
 20
6395.715360473253
 30
0.0
 11
8834.21703198606
 21
8020.715360473252
 31
0.0
  0
LINE
  5
18827
330
18745
100
AcDbEntity
  8
SUNPOU
100
AcDbLine
 10
8834.21703198606
 20
9725.715360473252
 30
0.0
 11
8834.21703198606
 21
10040.71536047325
 31
0.0
  0
LINE
  5
18828
330
18745
100
AcDbEntity
  8
SUNPOU
100
AcDbLine
 10
7534.217031986059
 20
9725.715360473252
 30
0.0
 11
7534.217031986059
 21
10040.71536047325
 31
0.0
  0
LINE
  5
18829
330
18745
100
AcDbEntity
  8
SUNPOU
100
AcDbLine
 10
8819.21703198606
 20
9995.715360473253
 30
0.0
 11
7549.21703198606
 21
9995.715360473253
 31
0.0
  0
TEXT
  5
1882A
330
18745
100
AcDbEntity
  8
HIKIDASHI
100
AcDbText
 10
5749.264373012014
 20
9740.715360473252
 30
0.0
 40
90.0
  1
（鼻隠し外面）
  7
01
100
AcDbText
  0
TEXT
  5
1882B
330
18745
100
AcDbEntity
  8
HIKIDASHI
100
AcDbText
 10
5665.155771095992
 20
9455.715360473243
 30
0.0
 40
90.0
  1
（土間コン後面位置）
  7
01
100
AcDbText
  0
SOLID
  5
1882C
330
18745
100
AcDbEntity
  8
SUNPOU
100
AcDbTrace
 10
4449.47136661486
 20
5905.715360473253
 30
0.0
 11
4479.47136661486
 21
5905.715360473253
 31
0.0
 12
4464.47136661486
 22
5995.715360473253
 32
0.0
 13
4464.47136661486
 23
5995.715360473253
 33
0.0
  0
TEXT
  5
1882D
330
18745
100
AcDbEntity
  8
SUNPOU
100
AcDbText
 10
4438.628509471999
 20
6040.715360473253
 30
0.0
 40
90.0
  1
A
 41
0.6700000000000001
  7
00
 72
     4
 11
4464.471366614856
 21
6085.715360473253
 31
0.0
100
AcDbText
  0
LINE
  5
1882E
330
18745
100
AcDbEntity
  8
SUNPOU
100
AcDbLine
 10
4464.47136661486
 20
5905.715360473253
 30
0.0
 11
4464.47136661486
 21
5695.715360473253
 31
0.0
  0
LINE
  5
1882F
330
18745
100
AcDbEntity
  8
SUNPOU
100
AcDbLine
 10
4464.47136661486
 20
5695.715360473253
 30
0.0
 11
4614.47136661486
 21
5695.715360473253
 31
0.0
  0
LINE
  5
18830
330
18745
100
AcDbEntity
  8
SUNPOU
100
AcDbLine
 10
5569.630294679762
 20
5695.715360473253
 30
0.0
 11
5419.630294679759
 21
5695.715360473253
 31
0.0
  0
LINE
  5
18831
330
18745
100
AcDbEntity
  8
SUNPOU
100
AcDbLine
 10
5569.630294679762
 20
5905.715360473253
 30
0.0
 11
5569.630294679762
 21
5695.715360473253
 31
0.0
  0
TEXT
  5
18832
330
18745
100
AcDbEntity
  8
SUNPOU
100
AcDbText
 10
5533.737437536905
 20
6032.143931901824
 30
0.0
 40
90.0
  1
A'
 41
0.6700000000000001
  7
00
 72
     4
 11
5569.630294679762
 21
6085.715360473253
 31
0.0
100
AcDbText
  0
SOLID
  5
18833
330
18745
100
AcDbEntity
  8
SUNPOU
100
AcDbTrace
 10
5584.630294679762
 20
5905.715360473253
 30
0.0
 11
5554.630294679762
 21
5905.715360473253
 31
0.0
 12
5569.630294679762
 22
5995.715360473253
 32
0.0
 13
5569.630294679762
 23
5995.715360473253
 33
0.0
  0
TEXT
  5
18834
330
18745
100
AcDbEntity
  8
HIKIDASHI
100
AcDbText
 10
5749.264373012014
 20
5160.715360473254
 30
0.0
 40
90.0
  1
（鼻隠し外面）
  7
01
100
AcDbText
  0
TEXT
  5
18835
330
18745
100
AcDbEntity
  8
HIKIDASHI
100
AcDbText
 10
5665.155771095992
 20
5445.71536047326
 30
0.0
 40
90.0
  1
（土間コン前面位置）
  7
01
100
AcDbText
  0
TEXT
  5
18836
330
18745
100
AcDbEntity
  8
HIKIDASHI
100
AcDbText
 10
8772.515803529449
 20
4879.531802304223
 30
0.0
 40
80.0
  1
)
 41
0.6700000000000001
  7
00
100
AcDbText
  0
TEXT
  5
18837
330
18745
100
AcDbEntity
  8
HIKIDASHI
100
AcDbText
 10
8571.657054840066
 20
4895.09328005242
 30
0.0
 40
80.0
  1
1
 41
0.6700000000000001
  7
00
100
AcDbText
  0
TEXT
  5
18838
330
18745
100
AcDbEntity
  8
HIKIDASHI
100
AcDbText
 10
8604.794192704373
 20
4879.531802304223
 30
0.0
 40
80.0
  1
/
 41
0.6700000000000001
  7
00
100
AcDbText
  0
TEXT
  5
18839
330
18745
100
AcDbEntity
  8
HIKIDASHI
100
AcDbText
 10
8651.089347467019
 20
4853.363971103946
 30
0.0
 40
80.0
  1
40
 41
0.6700000000000001
  7
00
100
AcDbText
  0
TEXT
  5
1883A
330
18745
100
AcDbEntity
  8
HIKIDASHI
100
AcDbText
 10
8390.949138902394
 20
4879.531802304223
 30
0.0
 40
80.0
  1
(S=
 41
0.6700000000000001
  7
00
100
AcDbText
  0
TEXT
  5
1883B
330
18745
100
AcDbEntity
  8
HIKIDASHI
100
AcDbText
 10
7548.949138902393
 20
4855.715360473254
 30
0.0
 40
120.0
  1
基 礎 伏 図
  7
01
 72
     2
 11
8300.949138902394
 21
4855.715360473254
 31
0.0
100
AcDbText
  0
LINE
  5
1883C
330
18745
100
AcDbEntity
  8
U3
100
AcDbLine
 10
3113.143113299374
 20
2404.183932023015
 30
0.0
 11
3224.333914666386
 21
2292.993130656007
 31
0.0
  0
LINE
  5
1883D
330
18745
100
AcDbEntity
  8
U3
100
AcDbLine
 10
3011.31973680851
 20
2302.360555532156
 30
0.0
 11
3077.496360317645
 21
2236.183932023021
 31
0.0
  0
LINE
  5
1883E
330
18745
100
AcDbEntity
  8
U3
100
AcDbLine
 10
3062.231425053941
 20
2353.272243777589
 30
0.0
 11
3179.31973680851
 21
2236.183932023021
 31
0.0
  0
LINE
  5
1883F
330
18745
100
AcDbEntity
  8
U3
100
AcDbLine
 10
2776.333914666386
 20
2303.169754165144
 30
0.0
 11
2843.31973680851
 21
2236.183932023019
 31
0.0
  0
LINE
  5
18840
330
18745
100
AcDbEntity
  8
U3
100
AcDbLine
 10
3224.333914666386
 20
2404.183932023017
 30
0.0
 11
2776.333914666386
 21
2404.183932023017
 31
0.0
  0
LINE
  5
18841
330
18745
100
AcDbEntity
  8
U3
100
AcDbLine
 10
2894.231425053934
 20
2287.095620268444
 30
0.0
 11
3011.31973680851
 21
2404.183932023017
 31
0.0
  0
LINE
  5
18842
330
18745
100
AcDbEntity
  8
U3
100
AcDbLine
 10
2945.143113299374
 20
2236.183932023021
 30
0.0
 11
3113.143113299374
 21
2404.183932023017
 31
0.0
  0
LINE
  5
18843
330
18745
100
AcDbEntity
  8
U3
100
AcDbLine
 10
2777.143113299321
 20
2404.183932023017
 30
0.0
 11
2945.143113299374
 21
2236.183932023021
 31
0.0
  0
LINE
  5
18844
330
18745
100
AcDbEntity
  8
U3
100
AcDbLine
 10
2712.333914666388
 20
2404.183932023017
 30
0.0
 11
2105.143113299378
 21
2404.183932023017
 31
0.0
  0
LINE
  5
18845
330
18745
100
AcDbEntity
  8
U3
100
AcDbLine
 10
2675.319736808516
 20
2302.360555532155
 30
0.0
 11
2690.829693650987
 21
2286.850598689685
 31
0.0
  0
LINE
  5
18846
330
18745
100
AcDbEntity
  8
U3
100
AcDbLine
 10
2659.809779966045
 20
2286.850598689685
 30
0.0
 11
2712.333914666388
 21
2339.374733390029
 31
0.0
  0
LINE
  5
18847
330
18745
100
AcDbEntity
  8
U3
100
AcDbLine
 10
2390.231425053941
 20
2353.272243777586
 30
0.0
 11
2507.319736808512
 21
2236.183932023017
 31
0.0
  0
LINE
  5
18848
330
18745
100
AcDbEntity
  8
U3
100
AcDbLine
 10
2339.319736808512
 20
2302.360555532155
 30
0.0
 11
2405.496360317653
 21
2236.183932023017
 31
0.0
  0
LINE
  5
18849
330
18745
100
AcDbEntity
  8
U3
100
AcDbLine
 10
2558.231425053949
 20
2287.095620268451
 30
0.0
 11
2675.319736808516
 21
2404.183932023015
 31
0.0
  0
LINE
  5
1884A
330
18745
100
AcDbEntity
  8
U3
100
AcDbLine
 10
2273.143113299378
 20
2236.183932023017
 30
0.0
 11
2441.143113299379
 21
2404.183932023015
 31
0.0
  0
LINE
  5
1884B
330
18745
100
AcDbEntity
  8
U3
100
AcDbLine
 10
2171.319736808516
 20
2338.007308513879
 30
0.0
 11
2237.496360317652
 21
2404.183932023013
 31
0.0
  0
LINE
  5
1884C
330
18745
100
AcDbEntity
  8
U3
100
AcDbLine
 10
2105.143113299378
 20
2404.183932023017
 30
0.0
 11
2273.143113299378
 21
2236.183932023017
 31
0.0
  0
LINE
  5
1884D
330
18745
100
AcDbEntity
  8
U3
100
AcDbLine
 10
2222.231425053946
 20
2287.095620268448
 30
0.0
 11
2339.319736808516
 21
2404.183932023013
 31
0.0
  0
LINE
  5
1884E
330
18745
100
AcDbEntity
  8
U3
100
AcDbLine
 10
2441.143113299379
 20
2404.183932023015
 30
0.0
 11
2558.476446632713
 21
2286.850598689685
 31
0.0
  0
LINE
  5
1884F
330
18745
100
AcDbEntity
  8
HATCH
100
AcDbLine
 10
4742.519737066388
 20
2293.439306423018
 30
0.0
 11
4761.719737066387
 21
2260.183932023017
 31
0.0
  0
LINE
  5
18850
330
18745
100
AcDbEntity
  8
HATCH
100
AcDbLine
 10
4886.519737066389
 20
2293.439306423018
 30
0.0
 11
4905.719737066387
 21
2260.183932023017
 31
0.0
  0
LINE
  5
18851
330
18745
100
AcDbEntity
  8
HATCH
100
AcDbLine
 10
4884.345362666385
 20
2356.183932023017
 30
0.0
 11
4903.545362666386
 21
2322.928556023017
 31
0.0
  0
LINE
  5
18852
330
18745
100
AcDbEntity
  8
HATCH
100
AcDbLine
 10
4867.319737066389
 20
2260.183932023017
 30
0.0
 11
4922.745362666384
 21
2356.183932023017
 31
0.0
  0
LINE
  5
18853
330
18745
100
AcDbEntity
  8
HATCH
100
AcDbLine
 10
4990.727527466386
 20
2484.183932023019
 30
0.0
 11
4862.727527466386
 21
2356.183932023017
 31
0.0
  0
LINE
  5
18854
330
18745
100
AcDbEntity
  8
HATCH
100
AcDbLine
 10
4895.692375466388
 20
2484.183932023019
 30
0.0
 11
4767.692375466388
 21
2356.183932023017
 31
0.0
  0
LINE
  5
18855
330
18745
100
AcDbEntity
  8
HATCH
100
AcDbLine
 10
4943.209951466386
 20
2484.183932023019
 30
0.0
 11
4815.209951466385
 21
2356.183932023017
 31
0.0
  0
LINE
  5
18856
330
18745
100
AcDbEntity
  8
HATCH
100
AcDbLine
 10
4614.519737066387
 20
2293.439306423018
 30
0.0
 11
4633.719737066387
 21
2260.183932023017
 31
0.0
  0
LINE
  5
18857
330
18745
100
AcDbEntity
  8
HATCH
100
AcDbLine
 10
4612.345362666385
 20
2356.183932023017
 30
0.0
 11
4631.545362666384
 21
2322.928556023017
 31
0.0
  0
LINE
  5
18858
330
18745
100
AcDbEntity
  8
HATCH
100
AcDbLine
 10
4595.319737066386
 20
2260.183932023017
 30
0.0
 11
4650.745362666384
 21
2356.183932023017
 31
0.0
  0
LINE
  5
18859
330
18745
100
AcDbEntity
  8
HATCH
100
AcDbLine
 10
4371.494221866386
 20
2356.183932023017
 30
0.0
 11
4355.494221866386
 21
2356.183932023017
 31
0.0
  0
LINE
  5
1885A
330
18745
100
AcDbEntity
  8
HATCH
100
AcDbLine
 10
4470.519737066386
 20
2293.439306423018
 30
0.0
 11
4489.719737066387
 21
2260.183932023017
 31
0.0
  0
LINE
  5
1885B
330
18745
100
AcDbEntity
  8
HATCH
100
AcDbLine
 10
4451.319737066387
 20
2260.183932023017
 30
0.0
 11
4506.745362666385
 21
2356.183932023017
 31
0.0
  0
LINE
  5
1885C
330
18745
100
AcDbEntity
  8
HATCH
100
AcDbLine
 10
4468.345362666385
 20
2356.183932023017
 30
0.0
 11
4487.545362666384
 21
2322.928556023017
 31
0.0
  0
LINE
  5
1885D
330
18745
100
AcDbEntity
  8
HATCH
100
AcDbLine
 10
4510.727527466386
 20
2484.183932023019
 30
0.0
 11
4382.727527466385
 21
2356.183932023017
 31
0.0
  0
LINE
  5
1885E
330
18745
100
AcDbEntity
  8
HATCH
100
AcDbLine
 10
4326.519737066386
 20
2293.439306423018
 30
0.0
 11
4345.719737066387
 21
2260.183932023017
 31
0.0
  0
LINE
  5
1885F
330
18745
100
AcDbEntity
  8
HATCH
100
AcDbLine
 10
4324.345362666385
 20
2356.183932023017
 30
0.0
 11
4343.545362666385
 21
2322.928556023017
 31
0.0
  0
LINE
  5
18860
330
18745
100
AcDbEntity
  8
HATCH
100
AcDbLine
 10
4184.333914666385
 20
2296.581555464547
 30
0.0
 11
4218.745362666385
 21
2356.183932023017
 31
0.0
  0
LINE
  5
18861
330
18745
100
AcDbEntity
  8
HATCH
100
AcDbLine
 10
4184.333914666385
 20
2349.275557207625
 30
0.0
 11
4199.545362666386
 21
2322.928556023017
 31
0.0
  0
LINE
  5
18862
330
18745
100
AcDbEntity
  8
HATCH
100
AcDbLine
 10
4184.333914666385
 20
2290.297058750307
 30
0.0
 11
4201.719737066387
 21
2260.183932023017
 31
0.0
  0
LINE
  5
18863
330
18745
100
AcDbEntity
  8
HATCH
100
AcDbLine
 10
4227.494221866386
 20
2356.183932023017
 30
0.0
 11
4211.494221866386
 21
2356.183932023017
 31
0.0
  0
LINE
  5
18864
330
18745
100
AcDbEntity
  8
HATCH
100
AcDbLine
 10
4463.209951466384
 20
2484.183932023019
 30
0.0
 11
4335.209951466388
 21
2356.183932023017
 31
0.0
  0
LINE
  5
18865
330
18745
100
AcDbEntity
  8
HATCH
100
AcDbLine
 10
4415.692375466385
 20
2484.183932023019
 30
0.0
 11
4287.692375466387
 21
2356.183932023017
 31
0.0
  0
LINE
  5
18866
330
18745
100
AcDbEntity
  8
HATCH
100
AcDbLine
 10
4307.319737066388
 20
2260.183932023017
 30
0.0
 11
4362.745362666386
 21
2356.183932023017
 31
0.0
  0
LINE
  5
18867
330
18745
100
AcDbEntity
  8
HATCH
100
AcDbLine
 10
4740.345362666385
 20
2356.183932023017
 30
0.0
 11
4759.545362666385
 21
2322.928556023017
 31
0.0
  0
LINE
  5
18868
330
18745
100
AcDbEntity
  8
HATCH
100
AcDbLine
 10
4723.319737066386
 20
2260.183932023017
 30
0.0
 11
4778.745362666384
 21
2356.183932023017
 31
0.0
  0
LINE
  5
18869
330
18745
100
AcDbEntity
  8
KISO
100
AcDbLine
 10
4184.333914666385
 20
2260.183932023017
 30
0.0
 11
5021.727409209538
 21
2260.183932023017
 31
0.0
  0
LINE
  5
1886A
330
18745
100
AcDbEntity
  8
KISO
100
AcDbLine
 10
5021.727409209538
 20
2356.183932023017
 30
0.0
 11
4184.333914666385
 21
2356.183932023017
 31
0.0
  0
LINE
  5
1886B
330
18745
100
AcDbEntity
  8
KISO
100
AcDbLine
 10
3064.333914666386
 20
1876.183932023018
 30
0.0
 11
3064.333914666386
 21
1764.183932023017
 31
0.0
  0
LINE
  5
1886C
330
18745
100
AcDbEntity
  8
1PL-M1
100
AcDbLine
 10
3704.333914666389
 20
1684.183932023018
 30
0.0
 11
3704.333914666387
 21
3332.183932023017
 31
0.0
  0
LINE
  5
1886D
330
18745
100
AcDbEntity
  8
HASHIRA
100
AcDbLine
 10
3652.333914666386
 20
1876.183932023019
 30
0.0
 11
3652.333914666386
 21
2964.183932023017
 31
0.0
  0
LINE
  5
1886E
330
18745
100
AcDbEntity
  8
HASHIRA
100
AcDbLine
 10
3756.333914666386
 20
1876.183932023019
 30
0.0
 11
3756.333914666384
 21
2964.183932023017
 31
0.0
  0
LINE
  5
1886F
330
18745
100
AcDbEntity
  8
KISO
100
AcDbLine
 10
4344.333914666385
 20
1876.183932023018
 30
0.0
 11
4344.333914666385
 21
1716.183932023017
 31
0.0
  0
LINE
  5
18870
330
18745
100
AcDbEntity
  8
HATCH
100
AcDbLine
 10
3758.930376559231
 20
1716.183932023018
 30
0.0
 11
3851.306419225895
 21
1876.183932023019
 31
0.0
  0
LINE
  5
18871
330
18745
100
AcDbEntity
  8
HATCH
100
AcDbLine
 10
3797.973085892562
 20
1876.183932023019
 30
0.0
 11
3824.639752559228
 21
1829.995909356355
 31
0.0
  0
LINE
  5
18872
330
18745
100
AcDbEntity
  8
HATCH
100
AcDbLine
 10
3785.597043225897
 20
1762.371953356349
 30
0.0
 11
3812.263709892564
 21
1716.183932023018
 31
0.0
  0
LINE
  5
18873
330
18745
100
AcDbEntity
  8
HATCH
100
AcDbLine
 10
3585.597043225897
 20
1762.371953356349
 30
0.0
 11
3612.263709892564
 21
1716.183932023018
 31
0.0
  0
LINE
  5
18874
330
18745
100
AcDbEntity
  8
HATCH
100
AcDbLine
 10
3597.973085892562
 20
1876.183932023019
 30
0.0
 11
3624.639752559229
 21
1829.995909356355
 31
0.0
  0
LINE
  5
18875
330
18745
100
AcDbEntity
  8
KISO
100
AcDbLine
 10
4184.333914666385
 20
2484.183932023019
 30
0.0
 11
4184.333914666385
 21
1876.183932023018
 31
0.0
  0
LINE
  5
18876
330
18745
100
AcDbEntity
  8
KISO
100
AcDbLine
 10
3652.333914666386
 20
2484.183932023019
 30
0.0
 11
3224.333914666386
 21
2484.183932023019
 31
0.0
  0
LINE
  5
18877
330
18745
100
AcDbEntity
  8
HATCH
100
AcDbLine
 10
3614.393906272658
 20
2484.183932023019
 30
0.0
 11
3224.333914666388
 21
2094.123940416748
 31
0.0
  0
LINE
  5
18878
330
18745
100
AcDbEntity
  8
HATCH
100
AcDbLine
 10
3566.876330272656
 20
2484.183932023019
 30
0.0
 11
3224.333914666386
 21
2141.641516416747
 31
0.0
  0
LINE
  5
18879
330
18745
100
AcDbEntity
  8
HATCH
100
AcDbLine
 10
3519.358755872656
 20
2484.183932023019
 30
0.0
 11
3224.333914666386
 21
2189.159090816747
 31
0.0
  0
LINE
  5
1887A
330
18745
100
AcDbEntity
  8
HATCH
100
AcDbLine
 10
3652.333914666386
 20
2134.531888053615
 30
0.0
 11
3497.985958635791
 21
1980.183932023019
 31
0.0
  0
LINE
  5
1887B
330
18745
100
AcDbEntity
  8
HATCH
100
AcDbLine
 10
3385.597043225897
 20
1762.371953356349
 30
0.0
 11
3412.263709892564
 21
1716.183932023018
 31
0.0
  0
LINE
  5
1887C
330
18745
100
AcDbEntity
  8
HATCH
100
AcDbLine
 10
3358.93037655923
 20
1716.183932023018
 30
0.0
 11
3451.306419225895
 21
1876.183932023019
 31
0.0
  0
LINE
  5
1887D
330
18745
100
AcDbEntity
  8
HATCH
100
AcDbLine
 10
3397.973085892562
 20
1876.183932023019
 30
0.0
 11
3424.639752559229
 21
1829.995909356355
 31
0.0
  0
LINE
  5
1887E
330
18745
100
AcDbEntity
  8
KISO
100
AcDbLine
 10
3064.333914666386
 20
1876.183932023019
 30
0.0
 11
3064.333914666386
 21
1716.183932023018
 31
0.0
  0
LINE
  5
1887F
330
18745
100
AcDbEntity
  8
HATCH
100
AcDbLine
 10
3185.597043225897
 20
1762.371953356349
 30
0.0
 11
3212.263709892564
 21
1716.183932023018
 31
0.0
  0
LINE
  5
18880
330
18745
100
AcDbEntity
  8
HATCH
100
AcDbLine
 10
3197.973085892562
 20
1876.183932023019
 30
0.0
 11
3224.639752559229
 21
1829.995909356355
 31
0.0
  0
LINE
  5
18881
330
18745
100
AcDbEntity
  8
HATCH
100
AcDbLine
 10
3158.930376559231
 20
1716.183932023018
 30
0.0
 11
3251.306419225895
 21
1876.183932023019
 31
0.0
  0
LINE
  5
18882
330
18745
100
AcDbEntity
  8
KISO
100
AcDbLine
 10
3224.333914666386
 20
2484.183932023019
 30
0.0
 11
3224.333914666386
 21
1876.183932023019
 31
0.0
  0
LINE
  5
18883
330
18745
100
AcDbEntity
  8
HATCH
100
AcDbLine
 10
3652.333914666386
 20
2229.567038453616
 30
0.0
 11
3298.95080823579
 21
1876.183932023019
 31
0.0
  0
LINE
  5
18884
330
18745
100
AcDbEntity
  8
HATCH
100
AcDbLine
 10
3652.333914666386
 20
2182.049464053616
 30
0.0
 11
3450.46838263579
 21
1980.183932023019
 31
0.0
  0
LINE
  5
18885
330
18745
100
AcDbEntity
  8
HATCH
100
AcDbLine
 10
3558.930376559231
 20
1716.183932023018
 30
0.0
 11
3651.306419225895
 21
1876.183932023019
 31
0.0
  0
LINE
  5
18886
330
18745
100
AcDbEntity
  8
HATCH
100
AcDbLine
 10
4001.985958635791
 20
2484.183932023019
 30
0.0
 11
3756.333914666386
 21
2238.531888053614
 31
0.0
  0
LINE
  5
18887
330
18745
100
AcDbEntity
  8
HATCH
100
AcDbLine
 10
3954.46838263579
 20
2484.183932023019
 30
0.0
 11
3756.333914666386
 21
2286.049464053613
 31
0.0
  0
LINE
  5
18888
330
18745
100
AcDbEntity
  8
HATCH
100
AcDbLine
 10
3906.95080823579
 20
2484.183932023019
 30
0.0
 11
3756.333914666386
 21
2333.567038453614
 31
0.0
  0
LINE
  5
18889
330
18745
100
AcDbEntity
  8
KISO
100
AcDbLine
 10
3064.333914666386
 20
1716.183932023018
 30
0.0
 11
4344.333914666385
 21
1716.183932023017
 31
0.0
  0
LINE
  5
1888A
330
18745
100
AcDbEntity
  8
KISO
100
AcDbLine
 10
5021.727409209538
 20
2484.183932023019
 30
0.0
 11
3756.333914666386
 21
2484.183932023019
 31
0.0
  0
LINE
  5
1888B
330
18745
100
AcDbEntity
  8
HATCH
100
AcDbLine
 10
3997.973085892562
 20
1876.183932023019
 30
0.0
 11
4024.639752559227
 21
1829.995909356355
 31
0.0
  0
LINE
  5
1888C
330
18745
100
AcDbEntity
  8
HATCH
100
AcDbLine
 10
3958.93037655923
 20
1716.183932023018
 30
0.0
 11
4051.306419225895
 21
1876.183932023019
 31
0.0
  0
LINE
  5
1888D
330
18745
100
AcDbEntity
  8
HATCH
100
AcDbLine
 10
3985.597043225897
 20
1762.371953356349
 30
0.0
 11
4012.263709892564
 21
1716.183932023018
 31
0.0
  0
LINE
  5
1888E
330
18745
100
AcDbEntity
  8
HATCH
100
AcDbLine
 10
4184.333914666385
 20
2278.939835690481
 30
0.0
 11
3885.578010998928
 21
1980.183932023019
 31
0.0
  0
LINE
  5
1888F
330
18745
100
AcDbEntity
  8
HATCH
100
AcDbLine
 10
4184.333914666385
 20
2326.457411690481
 30
0.0
 11
3838.060434998926
 21
1980.183932023019
 31
0.0
  0
LINE
  5
18890
330
18745
100
AcDbEntity
  8
HATCH
100
AcDbLine
 10
4184.333914666385
 20
2373.974986090479
 30
0.0
 11
3756.333914666386
 21
1945.974986090478
 31
0.0
  0
LINE
  5
18891
330
18745
100
AcDbEntity
  8
HATCH
100
AcDbLine
 10
4184.333914666385
 20
1986.382933727344
 30
0.0
 11
4074.134912962058
 21
1876.183932023019
 31
0.0
  0
LINE
  5
18892
330
18745
100
AcDbEntity
  8
HATCH
100
AcDbLine
 10
4184.333914666385
 20
1938.865359327343
 30
0.0
 11
4121.652487362065
 21
1876.183932023019
 31
0.0
  0
LINE
  5
18893
330
18745
100
AcDbEntity
  8
HATCH
100
AcDbLine
 10
4184.333914666385
 20
1891.347783327345
 30
0.0
 11
4169.17006336206
 21
1876.183932023019
 31
0.0
  0
LINE
  5
18894
330
18745
100
AcDbEntity
  8
HATCH
100
AcDbLine
 10
3434.46838263579
 20
1964.183932023018
 30
0.0
 11
3346.468382635791
 21
1876.183932023019
 31
0.0
  0
LINE
  5
18895
330
18745
100
AcDbEntity
  8
HATCH
100
AcDbLine
 10
3481.985958635791
 20
1964.183932023018
 30
0.0
 11
3393.985958635791
 21
1876.183932023019
 31
0.0
  0
LINE
  5
18896
330
18745
100
AcDbEntity
  8
HATCH
100
AcDbLine
 10
3774.542860598926
 20
1964.183932023018
 30
0.0
 11
3756.333914666386
 21
1945.974986090478
 31
0.0
  0
LINE
  5
18897
330
18745
100
AcDbEntity
  8
HATCH
100
AcDbLine
 10
3822.060434998928
 20
1964.183932023018
 30
0.0
 11
3756.333914666386
 21
1898.457411690476
 31
0.0
  0
LINE
  5
18898
330
18745
100
AcDbEntity
  8
HATCH
100
AcDbLine
 10
3869.578010998927
 20
1964.183932023018
 30
0.0
 11
3781.578010998928
 21
1876.183932023019
 31
0.0
  0
LINE
  5
18899
330
18745
100
AcDbEntity
  8
KISO
100
AcDbLine
 10
3064.333914666386
 20
1876.183932023019
 30
0.0
 11
3064.333914666386
 21
1876.183932023019
 31
0.0
  0
LINE
  5
1889A
330
18745
100
AcDbEntity
  8
SUNPOU
100
AcDbLine
 10
3719.333914666388
 20
3287.183932023017
 30
0.0
 11
4979.564421916637
 21
3287.183932023017
 31
0.0
  0
TEXT
  5
1889B
330
18745
100
AcDbEntity
  8
SUNPOU
100
AcDbText
 10
4340.161613806854
 20
3332.183932023017
 30
0.0
 40
90.0
  1
2450
 41
0.6666666666666666
  7
00
 72
     4
 11
4454.447328092569
 21
3377.183932023017
 31
0.0
100
AcDbText
  0
TEXT
  5
1889C
330
18745
100
AcDbEntity
  8
HIKIDASHI
100
AcDbText
 10
2665.84219057196
 20
2825.613541661912
 30
0.0
 40
90.0
  1
%%c
 41
0.6700000000000001
  7
00
100
AcDbText
  0
LINE
  5
1889D
330
18745
100
AcDbEntity
  8
HIKIDASHI
100
AcDbLine
 10
2275.958721952463
 20
2754.183932023015
 30
0.0
 11
3121.257717497342
 21
2754.183932023015
 31
0.0
  0
TEXT
  5
1889E
330
18745
100
AcDbEntity
  8
HIKIDASHI
100
AcDbText
 10
2831.547719537899
 20
2798.974945822925
 30
0.0
 40
89.55223880597014
  1
350
 41
0.6700000000000001
  7
00
100
AcDbText
  0
TEXT
  5
1889F
330
18745
100
AcDbEntity
  8
HIKIDASHI
100
AcDbText
 10
2750.412340384764
 20
2810.377961873764
 30
0.0
 40
89.55223880597014
  1
x
 41
0.6700000000000001
  7
00
100
AcDbText
  0
TEXT
  5
188A0
330
18745
100
AcDbEntity
  8
HIKIDASHI
100
AcDbText
 10
2305.958721952463
 20
2799.183932023015
 30
0.0
 40
90.0
  1
鉄筋
  7
01
100
AcDbText
  0
TEXT
  5
188A1
330
18745
100
AcDbEntity
  8
HIKIDASHI
100
AcDbText
 10
2537.465435554122
 20
2799.183932023015
 30
0.0
 40
89.55223880597014
  1
10
 41
0.6700000000000001
  7
00
100
AcDbText
  0
LINE
  5
188A2
330
18745
100
AcDbEntity
  8
HIKIDASHI
100
AcDbLine
 10
2780.663191527326
 20
2994.183932023015
 30
0.0
 11
3134.663191527326
 21
2994.183932023015
 31
0.0
  0
TEXT
  5
188A3
330
18745
100
AcDbEntity
  8
HIKIDASHI
100
AcDbText
 10
2810.663191527325
 20
3039.183932023015
 30
0.0
 40
90.0
  1
土　間
  7
01
100
AcDbText
  0
LINE
  5
188A4
330
18745
100
AcDbEntity
  8
HIKIDASHI
100
AcDbLine
 10
2839.167309682428
 20
1384.183932023019
 30
0.0
 11
2470.400932854805
 21
1384.183932023019
 31
0.0
  0
TEXT
  5
188A5
330
18745
100
AcDbEntity
  8
HIKIDASHI
100
AcDbText
 10
2497.468540446716
 20
1429.183932023019
 30
0.0
 40
90.0
  1
砕　石
  7
01
 72
     2
 11
2797.468540446716
 21
1474.183932023018
 31
0.0
100
AcDbText
 73
     2
  0
TEXT
  5
188A6
330
18745
100
AcDbEntity
  8
HIKIDASHI
100
AcDbText
 10
3780.537517545164
 20
1005.134913180347
 30
0.0
 40
90.0
  1
断 面
  7
01
100
AcDbText
  0
LINE
  5
188A7
330
18745
100
AcDbEntity
  8
HIKIDASHI
100
AcDbLine
 10
3356.520238048601
 20
960.134913180348
 30
0.0
 11
4052.14759128417
 21
960.134913180348
 31
0.0
  0
LINE
  5
188A8
330
18745
100
AcDbEntity
  8
HIKIDASHI
100
AcDbLine
 10
3356.520238048601
 20
930.134913180348
 30
0.0
 11
4052.14759128417
 21
930.134913180348
 31
0.0
  0
TEXT
  5
188A9
330
18745
100
AcDbEntity
  8
HIKIDASHI
100
AcDbText
 10
3386.520238048602
 20
1005.134913180347
 30
0.0
 40
90.0
  1
A  ~  A'
 41
0.6700000000000001
  7
00
100
AcDbText
  0
TEXT
  5
188AA
330
18745
100
AcDbEntity
  8
SUNPOU
100
AcDbText
 10
4660.022830783562
 20
1458.903907439804
 30
0.0
 40
90.0
  1
ベース筋
  7
01
 72
     4
 11
4864.022830783563
 21
1503.903907439804
 31
0.0
100
AcDbText
  0
TEXT
  5
188AB
330
18745
100
AcDbEntity
  8
SUNPOU
100
AcDbText
 10
4520.599973640699
 20
1293.65456534739
 30
0.0
 40
90.0
  1
4-D13×4-D13
 41
0.6700000000000001
  7
01
 72
     4
 11
4864.022830783557
 21
1338.65456534739
 31
0.0
100
AcDbText
  0
TEXT
  5
188AC
330
18745
100
AcDbEntity
  8
HIKIDASHI
100
AcDbText
 10
4444.49673216886
 20
2006.931554141245
 30
0.0
 40
90.0
  1
敷砂利又は砕石
  7
01
100
AcDbText
  0
LINE
  5
188AD
330
18745
100
AcDbEntity
  8
HIKIDASHI
100
AcDbLine
 10
4397.836947371135
 20
1961.931554141245
 30
0.0
 11
5200.487295746516
 21
1961.931554141245
 31
0.0
  0
TEXT
  5
188AE
330
18745
100
AcDbEntity
  8
SUNPOU
100
AcDbText
 10
4717.660162466765
 20
2619.183932023019
 30
0.0
 40
90.0
  1
F.L
 41
0.6666666666666666
  7
00
 72
     4
 11
4786.231591038194
 21
2664.183932023019
 31
0.0
100
AcDbText
  0
LINE
  5
188AF
330
18745
100
AcDbEntity
  8
SUNPOU
100
AcDbLine
 10
4786.231591038194
 20
2484.183932023019
 30
0.0
 11
4838.193115265261
 21
2574.183932023019
 31
0.0
  0
LINE
  5
188B0
330
18745
100
AcDbEntity
  8
SUNPOU
100
AcDbLine
 10
4734.270066811128
 20
2574.183932023019
 30
0.0
 11
4786.231591038194
 21
2484.183932023019
 31
0.0
  0
LINE
  5
188B1
330
18745
100
AcDbEntity
  8
SUNPOU
100
AcDbLine
 10
4838.193115265261
 20
2574.183932023019
 30
0.0
 11
4734.270066811128
 21
2574.183932023019
 31
0.0
  0
LINE
  5
188B2
330
18745
100
AcDbEntity
  8
U3
100
AcDbLine
 10
6598.75870121258
 20
2404.183932023014
 30
0.0
 11
5991.56789984557
 21
2404.183932023014
 31
0.0
  0
LINE
  5
188B3
330
18745
100
AcDbEntity
  8
U3
100
AcDbLine
 10
5991.56789984557
 20
2404.183932023014
 30
0.0
 11
6159.567899845569
 21
2236.183932023014
 31
0.0
  0
LINE
  5
188B4
330
18745
100
AcDbEntity
  8
U3
100
AcDbLine
 10
6057.744523354709
 20
2338.007308513876
 30
0.0
 11
6123.921146863847
 21
2404.183932023011
 31
0.0
  0
LINE
  5
188B5
330
18745
100
AcDbEntity
  8
U3
100
AcDbLine
 10
6546.234566512237
 20
2286.850598689682
 30
0.0
 11
6598.75870121258
 21
2339.374733390026
 31
0.0
  0
LINE
  5
188B6
330
18745
100
AcDbEntity
  8
U3
100
AcDbLine
 10
6159.567899845569
 20
2236.183932023014
 30
0.0
 11
6327.567899845568
 21
2404.183932023013
 31
0.0
  0
LINE
  5
188B7
330
18745
100
AcDbEntity
  8
U3
100
AcDbLine
 10
6225.744523354705
 20
2302.360555532152
 30
0.0
 11
6291.921146863845
 21
2236.183932023014
 31
0.0
  0
LINE
  5
188B8
330
18745
100
AcDbEntity
  8
U3
100
AcDbLine
 10
6276.656211600133
 20
2353.272243777583
 30
0.0
 11
6393.744523354705
 21
2236.183932023014
 31
0.0
  0
LINE
  5
188B9
330
18745
100
AcDbEntity
  8
U3
100
AcDbLine
 10
6108.65621160014
 20
2287.095620268444
 30
0.0
 11
6225.744523354709
 21
2404.183932023011
 31
0.0
  0
LINE
  5
188BA
330
18745
100
AcDbEntity
  8
U3
100
AcDbLine
 10
6444.65621160014
 20
2287.09562026845
 30
0.0
 11
6561.744523354708
 21
2404.183932023013
 31
0.0
  0
LINE
  5
188BB
330
18745
100
AcDbEntity
  8
U3
100
AcDbLine
 10
6327.567899845568
 20
2404.183932023013
 30
0.0
 11
6444.901233178907
 21
2286.850598689682
 31
0.0
  0
LINE
  5
188BC
330
18745
100
AcDbEntity
  8
U3
100
AcDbLine
 10
6561.744523354708
 20
2302.360555532152
 30
0.0
 11
6577.254480197176
 21
2286.850598689682
 31
0.0
  0
LINE
  5
188BD
330
18745
100
AcDbEntity
  8
U3
100
AcDbLine
 10
6662.75870121258
 20
2303.169754165141
 30
0.0
 11
6729.744523354703
 21
2236.183932023017
 31
0.0
  0
LINE
  5
188BE
330
18745
100
AcDbEntity
  8
U3
100
AcDbLine
 10
6663.567899845512
 20
2404.183932023014
 30
0.0
 11
6831.567899845566
 21
2236.183932023017
 31
0.0
  0
LINE
  5
188BF
330
18745
100
AcDbEntity
  8
U3
100
AcDbLine
 10
6831.567899845566
 20
2236.183932023017
 30
0.0
 11
6999.567899845565
 21
2404.183932023016
 31
0.0
  0
LINE
  5
188C0
330
18745
100
AcDbEntity
  8
U3
100
AcDbLine
 10
6897.744523354704
 20
2302.360555532156
 30
0.0
 11
6963.921146863839
 21
2236.183932023017
 31
0.0
  0
LINE
  5
188C1
330
18745
100
AcDbEntity
  8
U3
100
AcDbLine
 10
6948.656211600134
 20
2353.272243777587
 30
0.0
 11
7065.744523354704
 21
2236.183932023017
 31
0.0
  0
LINE
  5
188C2
330
18745
100
AcDbEntity
  8
U3
100
AcDbLine
 10
7110.758701212581
 20
2404.183932023014
 30
0.0
 11
6662.75870121258
 21
2404.183932023016
 31
0.0
  0
LINE
  5
188C3
330
18745
100
AcDbEntity
  8
U3
100
AcDbLine
 10
6780.656211600126
 20
2287.095620268441
 30
0.0
 11
6897.744523354704
 21
2404.183932023014
 31
0.0
  0
LINE
  5
188C4
330
18745
100
AcDbEntity
  8
U3
100
AcDbLine
 10
6999.567899845565
 20
2404.183932023013
 30
0.0
 11
7070.758701212584
 21
2332.993130655997
 31
0.0
  0
LINE
  5
188C5
330
18745
100
AcDbEntity
  8
KISO
100
AcDbLine
 10
8550.758701212577
 20
1876.183932023016
 30
0.0
 11
8550.758701212577
 21
1716.183932023017
 31
0.0
  0
LINE
  5
188C6
330
18745
100
AcDbEntity
  8
HATCH
100
AcDbLine
 10
7778.688496438757
 20
1716.183932023016
 30
0.0
 11
7871.064539105423
 21
1876.183932023016
 31
0.0
  0
LINE
  5
188C7
330
18745
100
AcDbEntity
  8
HATCH
100
AcDbLine
 10
7817.731205772083
 20
1876.183932023016
 30
0.0
 11
7844.397872438751
 21
1829.99590935635
 31
0.0
  0
LINE
  5
188C8
330
18745
100
AcDbEntity
  8
HATCH
100
AcDbLine
 10
7805.355163105422
 20
1762.371953356346
 30
0.0
 11
7832.02182977209
 21
1716.183932023016
 31
0.0
  0
LINE
  5
188C9
330
18745
100
AcDbEntity
  8
HATCH
100
AcDbLine
 10
7605.355163105421
 20
1762.371953356346
 30
0.0
 11
7632.02182977209
 21
1716.183932023016
 31
0.0
  0
LINE
  5
188CA
330
18745
100
AcDbEntity
  8
HATCH
100
AcDbLine
 10
7617.731205772082
 20
1876.183932023016
 30
0.0
 11
7644.397872438751
 21
1829.99590935635
 31
0.0
  0
LINE
  5
188CB
330
18745
100
AcDbEntity
  8
KISO
100
AcDbLine
 10
8390.758701212579
 20
2484.183932023016
 30
0.0
 11
8390.758701212579
 21
1876.183932023016
 31
0.0
  0
LINE
  5
188CC
330
18745
100
AcDbEntity
  8
KISO
100
AcDbLine
 10
7698.75870121258
 20
2484.183932023016
 30
0.0
 11
7110.758701212581
 21
2484.183932023016
 31
0.0
  0
LINE
  5
188CD
330
18745
100
AcDbEntity
  8
HATCH
100
AcDbLine
 10
7660.818692818849
 20
2484.183932023016
 30
0.0
 11
7110.758701212581
 21
1934.123940416742
 31
0.0
  0
LINE
  5
188CE
330
18745
100
AcDbEntity
  8
HATCH
100
AcDbLine
 10
7613.30111681885
 20
2484.183932023016
 30
0.0
 11
7110.758701212581
 21
1981.641516416744
 31
0.0
  0
LINE
  5
188CF
330
18745
100
AcDbEntity
  8
HATCH
100
AcDbLine
 10
7565.783542418848
 20
2484.183932023016
 30
0.0
 11
7110.758701212581
 21
2029.159090816739
 31
0.0
  0
LINE
  5
188D0
330
18745
100
AcDbEntity
  8
HATCH
100
AcDbLine
 10
7698.75870121258
 20
2134.531888053611
 30
0.0
 11
7544.410745181983
 21
1980.183932023016
 31
0.0
  0
LINE
  5
188D1
330
18745
100
AcDbEntity
  8
HATCH
100
AcDbLine
 10
7405.355163105422
 20
1762.371953356346
 30
0.0
 11
7432.021829772089
 21
1716.183932023016
 31
0.0
  0
LINE
  5
188D2
330
18745
100
AcDbEntity
  8
HATCH
100
AcDbLine
 10
7378.688496438757
 20
1716.183932023016
 30
0.0
 11
7471.064539105417
 21
1876.183932023016
 31
0.0
  0
LINE
  5
188D3
330
18745
100
AcDbEntity
  8
HATCH
100
AcDbLine
 10
7417.731205772082
 20
1876.183932023016
 30
0.0
 11
7444.39787243875
 21
1829.99590935635
 31
0.0
  0
LINE
  5
188D4
330
18745
100
AcDbEntity
  8
KISO
100
AcDbLine
 10
6950.758701212581
 20
1876.183932023016
 30
0.0
 11
6950.758701212581
 21
1716.183932023017
 31
0.0
  0
LINE
  5
188D5
330
18745
100
AcDbEntity
  8
HATCH
100
AcDbLine
 10
7205.355163105423
 20
1762.371953356346
 30
0.0
 11
7232.02182977209
 21
1716.183932023016
 31
0.0
  0
LINE
  5
188D6
330
18745
100
AcDbEntity
  8
HATCH
100
AcDbLine
 10
7217.731205772086
 20
1876.183932023016
 30
0.0
 11
7244.39787243875
 21
1829.99590935635
 31
0.0
  0
LINE
  5
188D7
330
18745
100
AcDbEntity
  8
HATCH
100
AcDbLine
 10
7178.688496438756
 20
1716.183932023016
 30
0.0
 11
7271.064539105417
 21
1876.183932023016
 31
0.0
  0
LINE
  5
188D8
330
18745
100
AcDbEntity
  8
KISO
100
AcDbLine
 10
7110.758701212581
 20
2484.183932023016
 30
0.0
 11
7110.758701212581
 21
1876.183932023016
 31
0.0
  0
LINE
  5
188D9
330
18745
100
AcDbEntity
  8
HATCH
100
AcDbLine
 10
7698.75870121258
 20
2229.567038453613
 30
0.0
 11
7345.375594781983
 21
1876.183932023016
 31
0.0
  0
LINE
  5
188DA
330
18745
100
AcDbEntity
  8
HATCH
100
AcDbLine
 10
7698.75870121258
 20
2182.049464053612
 30
0.0
 11
7496.893169181982
 21
1980.183932023016
 31
0.0
  0
LINE
  5
188DB
330
18745
100
AcDbEntity
  8
HATCH
100
AcDbLine
 10
7578.688496438757
 20
1716.183932023016
 30
0.0
 11
7671.064539105417
 21
1876.183932023016
 31
0.0
  0
LINE
  5
188DC
330
18745
100
AcDbEntity
  8
HATCH
100
AcDbLine
 10
8048.410745181982
 20
2484.183932023016
 30
0.0
 11
7802.758701212581
 21
2238.531888053611
 31
0.0
  0
LINE
  5
188DD
330
18745
100
AcDbEntity
  8
HATCH
100
AcDbLine
 10
8000.893169181983
 20
2484.183932023016
 30
0.0
 11
7802.758701212581
 21
2286.049464053611
 31
0.0
  0
LINE
  5
188DE
330
18745
100
AcDbEntity
  8
HATCH
100
AcDbLine
 10
7953.375594781983
 20
2484.183932023016
 30
0.0
 11
7802.758701212581
 21
2333.567038453611
 31
0.0
  0
LINE
  5
188DF
330
18745
100
AcDbEntity
  8
KISO
100
AcDbLine
 10
6950.758701212581
 20
1716.183932023017
 30
0.0
 11
8550.758701212577
 21
1716.183932023017
 31
0.0
  0
LINE
  5
188E0
330
18745
100
AcDbEntity
  8
HATCH
100
AcDbLine
 10
8017.731205772086
 20
1876.183932023016
 30
0.0
 11
8044.397872438755
 21
1829.99590935635
 31
0.0
  0
LINE
  5
188E1
330
18745
100
AcDbEntity
  8
HATCH
100
AcDbLine
 10
7978.688496438755
 20
1716.183932023016
 30
0.0
 11
8071.064539105421
 21
1876.183932023016
 31
0.0
  0
LINE
  5
188E2
330
18745
100
AcDbEntity
  8
HATCH
100
AcDbLine
 10
8005.355163105424
 20
1762.371953356346
 30
0.0
 11
8032.021829772089
 21
1716.183932023016
 31
0.0
  0
LINE
  5
188E3
330
18745
100
AcDbEntity
  8
HATCH
100
AcDbLine
 10
8390.758701212584
 20
2438.939835690478
 30
0.0
 11
7932.00279754512
 21
1980.183932023016
 31
0.0
  0
LINE
  5
188E4
330
18745
100
AcDbEntity
  8
HATCH
100
AcDbLine
 10
8388.485221545122
 20
2484.183932023016
 30
0.0
 11
7884.485221545121
 21
1980.183932023016
 31
0.0
  0
LINE
  5
188E5
330
18745
100
AcDbEntity
  8
HATCH
100
AcDbLine
 10
8340.96764714512
 20
2484.183932023016
 30
0.0
 11
7802.758701212581
 21
1945.974986090476
 31
0.0
  0
LINE
  5
188E6
330
18745
100
AcDbEntity
  8
HATCH
100
AcDbLine
 10
8390.758701212579
 20
2146.382933727341
 30
0.0
 11
8120.559699508254
 21
1876.183932023016
 31
0.0
  0
LINE
  5
188E7
330
18745
100
AcDbEntity
  8
HATCH
100
AcDbLine
 10
8390.758701212579
 20
2098.865359327338
 30
0.0
 11
8168.077273908258
 21
1876.183932023016
 31
0.0
  0
LINE
  5
188E8
330
18745
100
AcDbEntity
  8
HATCH
100
AcDbLine
 10
7480.893169181982
 20
1964.183932023016
 30
0.0
 11
7392.893169181981
 21
1876.183932023016
 31
0.0
  0
LINE
  5
188E9
330
18745
100
AcDbEntity
  8
HATCH
100
AcDbLine
 10
7528.410745181983
 20
1964.183932023016
 30
0.0
 11
7440.410745181982
 21
1876.183932023016
 31
0.0
  0
LINE
  5
188EA
330
18745
100
AcDbEntity
  8
HATCH
100
AcDbLine
 10
7820.967647145121
 20
1964.183932023016
 30
0.0
 11
7802.758701212581
 21
1945.974986090476
 31
0.0
  0
LINE
  5
188EB
330
18745
100
AcDbEntity
  8
HATCH
100
AcDbLine
 10
7868.485221545121
 20
1964.183932023016
 30
0.0
 11
7802.758701212581
 21
1898.457411690475
 31
0.0
  0
LINE
  5
188EC
330
18745
100
AcDbEntity
  8
HATCH
100
AcDbLine
 10
7916.00279754512
 20
1964.183932023016
 30
0.0
 11
7828.002797545119
 21
1876.183932023016
 31
0.0
  0
LINE
  5
188ED
330
18745
100
AcDbEntity
  8
KISO
100
AcDbLine
 10
6950.758701212581
 20
1876.183932023016
 30
0.0
 11
6950.758701212581
 21
1876.183932023016
 31
0.0
  0
LINE
  5
188EE
330
18745
100
AcDbEntity
  8
KISO
100
AcDbLine
 10
9228.152195755736
 20
2484.183932023016
 30
0.0
 11
7802.758701212581
 21
2484.183932023016
 31
0.0
  0
LINE
  5
188EF
330
18745
100
AcDbEntity
  8
1PL-M1
100
AcDbLine
 10
7750.758701212581
 20
1684.183932023017
 30
0.0
 11
7750.758701212581
 21
3332.183932023017
 31
0.0
  0
LINE
  5
188F0
330
18745
100
AcDbEntity
  8
HASHIRA
100
AcDbLine
 10
7698.75870121258
 20
1876.183932023016
 30
0.0
 11
7698.75870121258
 21
2964.183932023015
 31
0.0
  0
LINE
  5
188F1
330
18745
100
AcDbEntity
  8
HASHIRA
100
AcDbLine
 10
7802.758701212581
 20
1876.183932023016
 30
0.0
 11
7802.758701212581
 21
2964.183932023015
 31
0.0
  0
LINE
  5
188F2
330
18745
100
AcDbEntity
  8
HATCH
100
AcDbLine
 10
8390.758701212584
 20
2051.347783327336
 30
0.0
 11
8215.594849908258
 21
1876.183932023016
 31
0.0
  0
LINE
  5
188F3
330
18745
100
AcDbEntity
  8
HATCH
100
AcDbLine
 10
8217.731205772087
 20
1876.183932023016
 30
0.0
 11
8244.397872438755
 21
1829.99590935635
 31
0.0
  0
LINE
  5
188F4
330
18745
100
AcDbEntity
  8
HATCH
100
AcDbLine
 10
8178.688496438757
 20
1716.183932023016
 30
0.0
 11
8271.06453910542
 21
1876.183932023016
 31
0.0
  0
LINE
  5
188F5
330
18745
100
AcDbEntity
  8
HATCH
100
AcDbLine
 10
8205.355163105421
 20
1762.371953356346
 30
0.0
 11
8232.02182977209
 21
1716.183932023016
 31
0.0
  0
LINE
  5
188F6
330
18745
100
AcDbEntity
  8
HATCH
100
AcDbLine
 10
7005.355163105424
 20
1762.371953356346
 30
0.0
 11
7032.02182977209
 21
1716.183932023016
 31
0.0
  0
LINE
  5
188F7
330
18745
100
AcDbEntity
  8
HATCH
100
AcDbLine
 10
7017.731205772085
 20
1876.183932023016
 30
0.0
 11
7044.397872438752
 21
1829.99590935635
 31
0.0
  0
LINE
  5
188F8
330
18745
100
AcDbEntity
  8
HATCH
100
AcDbLine
 10
6978.688496438756
 20
1716.183932023016
 30
0.0
 11
7071.064539105417
 21
1876.183932023016
 31
0.0
  0
LINE
  5
188F9
330
18745
100
AcDbEntity
  8
HATCH
100
AcDbLine
 10
7273.226640455721
 20
2484.183932023017
 30
0.0
 11
7110.758701212581
 21
2321.715992779873
 31
0.0
  0
LINE
  5
188FA
330
18745
100
AcDbEntity
  8
HATCH
100
AcDbLine
 10
7225.70906445572
 20
2484.183932023016
 30
0.0
 11
7110.758701212581
 21
2369.233568779873
 31
0.0
  0
LINE
  5
188FB
330
18745
100
AcDbEntity
  8
HATCH
100
AcDbLine
 10
7178.191490055723
 20
2484.183932023016
 30
0.0
 11
7110.758701212581
 21
2416.751143179872
 31
0.0
  0
LINE
  5
188FC
330
18745
100
AcDbEntity
  8
SUNPOU
100
AcDbLine
 10
7765.75870121258
 20
3287.183932023015
 30
0.0
 11
9025.98920846283
 21
3287.183932023015
 31
0.0
  0
TEXT
  5
188FD
330
18745
100
AcDbEntity
  8
SUNPOU
100
AcDbText
 10
8386.586400353047
 20
3332.183932023017
 30
0.0
 40
90.0
  1
2450
 41
0.6666666666666666
  7
00
 72
     4
 11
8500.872114638761
 21
3377.183932023017
 31
0.0
100
AcDbText
  0
LINE
  5
188FE
330
18745
100
AcDbEntity
  8
KISO
100
AcDbLine
 10
8390.758701212579
 20
2260.183932023015
 30
0.0
 11
9228.152195755734
 21
2260.183932023015
 31
0.0
  0
LINE
  5
188FF
330
18745
100
AcDbEntity
  8
KISO
100
AcDbLine
 10
9228.152195755734
 20
2356.183932023015
 30
0.0
 11
8390.758701212579
 21
2356.183932023015
 31
0.0
  0
LINE
  5
18900
330
18745
100
AcDbEntity
  8
HATCH
100
AcDbLine
 10
8577.919008412584
 20
2356.183932023015
 30
0.0
 11
8561.919008412582
 21
2356.183932023015
 31
0.0
  0
LINE
  5
18901
330
18745
100
AcDbEntity
  8
HATCH
100
AcDbLine
 10
8513.744523612578
 20
2260.183932023015
 30
0.0
 11
8569.170149212579
 21
2356.183932023015
 31
0.0
  0
LINE
  5
18902
330
18745
100
AcDbEntity
  8
HATCH
100
AcDbLine
 10
8390.758701212579
 20
2290.297058750295
 30
0.0
 11
8408.144523612582
 21
2260.183932023015
 31
0.0
  0
LINE
  5
18903
330
18745
100
AcDbEntity
  8
HATCH
100
AcDbLine
 10
8532.944523612581
 20
2293.439306423015
 30
0.0
 11
8552.144523612581
 21
2260.183932023015
 31
0.0
  0
LINE
  5
18904
330
18745
100
AcDbEntity
  8
HATCH
100
AcDbLine
 10
8433.919008412582
 20
2356.183932023015
 30
0.0
 11
8417.919008412582
 21
2356.183932023015
 31
0.0
  0
LINE
  5
18905
330
18745
100
AcDbEntity
  8
HATCH
100
AcDbLine
 10
8390.758701212579
 20
2296.581555464544
 30
0.0
 11
8425.170149212579
 21
2356.183932023015
 31
0.0
  0
LINE
  5
18906
330
18745
100
AcDbEntity
  8
HATCH
100
AcDbLine
 10
8390.758701212579
 20
2349.275557207618
 30
0.0
 11
8405.970149212578
 21
2322.928556023014
 31
0.0
  0
LINE
  5
18907
330
18745
100
AcDbEntity
  8
HATCH
100
AcDbLine
 10
8530.77014921258
 20
2356.183932023015
 30
0.0
 11
8549.97014921258
 21
2322.928556023014
 31
0.0
  0
LINE
  5
18908
330
18745
100
AcDbEntity
  8
HATCH
100
AcDbLine
 10
9073.74452361258
 20
2260.183932023015
 30
0.0
 11
9129.170149212582
 21
2356.183932023015
 31
0.0
  0
LINE
  5
18909
330
18745
100
AcDbEntity
  8
HATCH
100
AcDbLine
 10
8676.944523612581
 20
2293.439306423015
 30
0.0
 11
8696.144523612582
 21
2260.183932023015
 31
0.0
  0
LINE
  5
1890A
330
18745
100
AcDbEntity
  8
HATCH
100
AcDbLine
 10
8657.744523612578
 20
2260.183932023015
 30
0.0
 11
8713.170149212579
 21
2356.183932023015
 31
0.0
  0
LINE
  5
1890B
330
18745
100
AcDbEntity
  8
HATCH
100
AcDbLine
 10
8820.944523612581
 20
2293.439306423015
 30
0.0
 11
8840.144523612583
 21
2260.183932023015
 31
0.0
  0
LINE
  5
1890C
330
18745
100
AcDbEntity
  8
HATCH
100
AcDbLine
 10
8801.74452361258
 20
2260.183932023015
 30
0.0
 11
8857.17014921258
 21
2356.183932023015
 31
0.0
  0
LINE
  5
1890D
330
18745
100
AcDbEntity
  8
HATCH
100
AcDbLine
 10
8948.944523612581
 20
2293.439306423015
 30
0.0
 11
8968.144523612583
 21
2260.183932023015
 31
0.0
  0
LINE
  5
1890E
330
18745
100
AcDbEntity
  8
HATCH
100
AcDbLine
 10
8929.744523612582
 20
2260.183932023015
 30
0.0
 11
8985.17014921258
 21
2356.183932023015
 31
0.0
  0
LINE
  5
1890F
330
18745
100
AcDbEntity
  8
HATCH
100
AcDbLine
 10
8818.77014921258
 20
2356.183932023015
 30
0.0
 11
8837.970149212578
 21
2322.928556023014
 31
0.0
  0
LINE
  5
18910
330
18745
100
AcDbEntity
  8
HATCH
100
AcDbLine
 10
8674.77014921258
 20
2356.183932023015
 30
0.0
 11
8693.97014921258
 21
2322.928556023014
 31
0.0
  0
LINE
  5
18911
330
18745
100
AcDbEntity
  8
HATCH
100
AcDbLine
 10
8946.77014921258
 20
2356.183932023015
 30
0.0
 11
8965.970149212578
 21
2322.928556023014
 31
0.0
  0
LINE
  5
18912
330
18745
100
AcDbEntity
  8
HATCH
100
AcDbLine
 10
9092.944523612581
 20
2293.439306423015
 30
0.0
 11
9112.144523612583
 21
2260.183932023015
 31
0.0
  0
LINE
  5
18913
330
18745
100
AcDbEntity
  8
HATCH
100
AcDbLine
 10
9090.770149212579
 20
2356.183932023015
 30
0.0
 11
9109.970149212578
 21
2322.928556023014
 31
0.0
  0
TEXT
  5
18914
330
18745
100
AcDbEntity
  8
HIKIDASHI
100
AcDbText
 10
8650.921518715056
 20
2006.931554141242
 30
0.0
 40
90.0
  1
敷砂利又は砕石
  7
01
100
AcDbText
  0
LINE
  5
18915
330
18745
100
AcDbEntity
  8
HIKIDASHI
100
AcDbLine
 10
8604.261733917331
 20
1961.931554141242
 30
0.0
 11
9406.912082292711
 21
1961.931554141242
 31
0.0
  0
TEXT
  5
18916
330
18745
100
AcDbEntity
  8
SUNPOU
100
AcDbText
 10
8924.084949012959
 20
2619.183932023016
 30
0.0
 40
90.0
  1
F.L
 41
0.6666666666666666
  7
00
 72
     4
 11
8992.656377584387
 21
2664.183932023016
 31
0.0
100
AcDbText
  0
LINE
  5
18917
330
18745
100
AcDbEntity
  8
SUNPOU
100
AcDbLine
 10
8992.656377584387
 20
2484.183932023016
 30
0.0
 11
9044.617901811456
 21
2574.183932023016
 31
0.0
  0
LINE
  5
18918
330
18745
100
AcDbEntity
  8
SUNPOU
100
AcDbLine
 10
8940.694853357323
 20
2574.183932023016
 30
0.0
 11
8992.656377584387
 21
2484.183932023016
 31
0.0
  0
LINE
  5
18919
330
18745
100
AcDbEntity
  8
SUNPOU
100
AcDbLine
 10
9044.617901811456
 20
2574.183932023016
 30
0.0
 11
8940.694853357323
 21
2574.183932023016
 31
0.0
  0
LINE
  5
1891A
330
18745
100
AcDbEntity
  8
HIKIDASHI
100
AcDbLine
 10
6725.592096228623
 20
1384.183932023017
 30
0.0
 11
6356.825719400998
 21
1384.183932023017
 31
0.0
  0
TEXT
  5
1891B
330
18745
100
AcDbEntity
  8
HIKIDASHI
100
AcDbText
 10
6383.893326992911
 20
1429.183932023017
 30
0.0
 40
90.0
  1
砕　石
  7
01
 72
     2
 11
6683.89332699291
 21
1474.183932023017
 31
0.0
100
AcDbText
 73
     2
  0
TEXT
  5
1891C
330
18745
100
AcDbEntity
  8
HIKIDASHI
100
AcDbText
 10
6592.266977118153
 20
2825.61354166191
 30
0.0
 40
90.0
  1
%%c
 41
0.6700000000000001
  7
00
100
AcDbText
  0
LINE
  5
1891D
330
18745
100
AcDbEntity
  8
HIKIDASHI
100
AcDbLine
 10
6202.383508498655
 20
2754.183932023012
 30
0.0
 11
7047.682504043535
 21
2754.183932023012
 31
0.0
  0
TEXT
  5
1891E
330
18745
100
AcDbEntity
  8
HIKIDASHI
100
AcDbText
 10
6757.972506084094
 20
2798.974945822921
 30
0.0
 40
89.55223880597014
  1
350
 41
0.6700000000000001
  7
00
100
AcDbText
  0
TEXT
  5
1891F
330
18745
100
AcDbEntity
  8
HIKIDASHI
100
AcDbText
 10
6676.837126930957
 20
2810.37796187376
 30
0.0
 40
89.55223880597014
  1
x
 41
0.6700000000000001
  7
00
100
AcDbText
  0
TEXT
  5
18920
330
18745
100
AcDbEntity
  8
HIKIDASHI
100
AcDbText
 10
6232.383508498656
 20
2799.183932023012
 30
0.0
 40
90.0
  1
鉄筋
  7
01
100
AcDbText
  0
TEXT
  5
18921
330
18745
100
AcDbEntity
  8
HIKIDASHI
100
AcDbText
 10
6463.890222100315
 20
2799.183932023012
 30
0.0
 40
89.55223880597014
  1
10
 41
0.6700000000000001
  7
00
100
AcDbText
  0
LINE
  5
18922
330
18745
100
AcDbEntity
  8
HIKIDASHI
100
AcDbLine
 10
6707.087978073521
 20
2994.183932023013
 30
0.0
 11
7061.08797807352
 21
2994.183932023013
 31
0.0
  0
TEXT
  5
18923
330
18745
100
AcDbEntity
  8
HIKIDASHI
100
AcDbText
 10
6737.087978073519
 20
3039.183932023012
 30
0.0
 40
90.0
  1
土　間
  7
01
100
AcDbText
  0
TEXT
  5
18924
330
18745
100
AcDbEntity
  8
SUNPOU
100
AcDbText
 10
8729.52476018689
 20
1293.654565347389
 30
0.0
 40
90.0
  1
5-D13×5-D13
 41
0.6700000000000001
  7
01
 72
     4
 11
9072.947617329749
 21
1338.654565347389
 31
0.0
100
AcDbText
  0
TEXT
  5
18925
330
18745
100
AcDbEntity
  8
SUNPOU
100
AcDbText
 10
8868.947617329755
 20
1458.903907439804
 30
0.0
 40
90.0
  1
ベース筋
  7
01
 72
     4
 11
9072.947617329756
 21
1503.903907439804
 31
0.0
100
AcDbText
  0
TEXT
  5
18926
330
18745
100
AcDbEntity
  8
HIKIDASHI
100
AcDbText
 10
7826.962304091357
 20
1005.134913180347
 30
0.0
 40
90.0
  1
断 面
  7
01
100
AcDbText
  0
LINE
  5
18927
330
18745
100
AcDbEntity
  8
HIKIDASHI
100
AcDbLine
 10
7402.945024594797
 20
960.1349131803468
 30
0.0
 11
8098.572377830365
 21
960.1349131803468
 31
0.0
  0
LINE
  5
18928
330
18745
100
AcDbEntity
  8
HIKIDASHI
100
AcDbLine
 10
7402.945024594797
 20
930.1349131803466
 30
0.0
 11
8098.572377830365
 21
930.1349131803466
 31
0.0
  0
TEXT
  5
18929
330
18745
100
AcDbEntity
  8
HIKIDASHI
100
AcDbText
 10
7432.945024594793
 20
1005.134913180347
 30
0.0
 40
90.0
  1
B  ~  B'
 41
0.6700000000000001
  7
00
100
AcDbText
  0
LINE
  5
1892A
330
18745
100
AcDbEntity
  8
DOMAKON
100
AcDbLine
 10
8124.217031986061
 20
5395.715360473253
 30
0.0
 11
4684.21703198606
 21
5395.715360473253
 31
0.0
  0
LINE
  5
1892B
330
18745
100
AcDbEntity
  8
DOMAKON
100
AcDbLine
 10
4684.21703198606
 20
5395.715360473253
 30
0.0
 11
4684.21703198606
 21
9595.715360473253
 31
0.0
  0
LINE
  5
1892C
330
18745
100
AcDbEntity
  8
DOMAKON
100
AcDbLine
 10
4684.21703198606
 20
9595.715360473253
 30
0.0
 11
8124.217031986061
 21
9595.715360473253
 31
0.0
  0
LINE
  5
1892D
330
18745
100
AcDbEntity
  8
DOMAKON
100
AcDbLine
 10
8244.217031986062
 20
9595.715360473253
 30
0.0
 11
11684.21703198605
 21
9595.715360473253
 31
0.0
  0
LINE
  5
1892E
330
18745
100
AcDbEntity
  8
DOMAKON
100
AcDbLine
 10
11684.21703198605
 20
9595.715360473253
 30
0.0
 11
11684.21703198605
 21
5395.715360473253
 31
0.0
  0
LINE
  5
1892F
330
18745
100
AcDbEntity
  8
DOMAKON
100
AcDbLine
 10
11684.21703198605
 20
5395.715360473253
 30
0.0
 11
8244.217031986062
 21
5395.715360473253
 31
0.0
  0
LINE
  5
18930
330
18745
100
AcDbEntity
  8
HATCH
100
AcDbLine
 10
4197.973085892561
 20
1876.183932023019
 30
0.0
 11
4224.639752559228
 21
1829.995909356355
 31
0.0
  0
LINE
  5
18931
330
18745
100
AcDbEntity
  8
HATCH
100
AcDbLine
 10
4158.93037655923
 20
1716.183932023018
 30
0.0
 11
4251.306419225894
 21
1876.183932023019
 31
0.0
  0
LINE
  5
18932
330
18745
100
AcDbEntity
  8
HATCH
100
AcDbLine
 10
4185.597043225896
 20
1762.371953356349
 30
0.0
 11
4212.263709892562
 21
1716.183932023018
 31
0.0
  0
LINE
  5
18933
330
18745
100
AcDbEntity
  8
HATCH
100
AcDbLine
 10
8417.731205772088
 20
1876.183932023016
 30
0.0
 11
8444.397872438754
 21
1829.99590935635
 31
0.0
  0
LINE
  5
18934
330
18745
100
AcDbEntity
  8
HATCH
100
AcDbLine
 10
8378.688496438755
 20
1716.183932023016
 30
0.0
 11
8471.06453910542
 21
1876.183932023016
 31
0.0
  0
LINE
  5
18935
330
18745
100
AcDbEntity
  8
HATCH
100
AcDbLine
 10
8405.355163105422
 20
1762.371953356346
 30
0.0
 11
8432.021829772089
 21
1716.183932023016
 31
0.0
  0
TEXT
  5
18936
330
18745
100
AcDbEntity
  8
FILENAME
100
AcDbText
 10
13644.85714285714
 20
174.0
 30
0.0
 40
100.0
  1
＜YOKC-245-SA-U_3_JIS_GL.DXF ＞
  7
FILENAME
 72
     2
 11
16382.0
 21
174.0
 31
0.0
100
AcDbText
  0
LINE
  5
18937
330
18745
100
AcDbEntity
  8
WAKUSEN-01
100
AcDbLine
 10
434.0000000000008
 20
413.9999999999997
 30
0.0
 11
16382.0
 21
413.9999999999997
 31
0.0
  0
LINE
  5
18938
330
18745
100
AcDbEntity
  8
WAKUSEN-01
100
AcDbLine
 10
434.0000000000008
 20
11242.0
 30
0.0
 11
16382.0
 21
11242.0
 31
0.0
  0
LINE
  5
18939
330
18745
100
AcDbEntity
  8
WAKUSEN-01
100
AcDbLine
 10
434.0000000000008
 20
413.9999999999997
 30
0.0
 11
434.0000000000008
 21
11242.0
 31
0.0
  0
LINE
  5
1893A
330
18745
100
AcDbEntity
  8
WAKUSEN-01
100
AcDbLine
 10
16382.0
 20
413.9999999999997
 30
0.0
 11
16382.0
 21
11242.0
 31
0.0
  0
LINE
  5
1893B
330
18745
100
AcDbEntity
  8
WAKUSEN-01
100
AcDbLine
 10
10280.0
 20
1242.0
 30
0.0
 11
16382.0
 21
1242.0
 31
0.0
  0
LINE
  5
1893C
330
18745
100
AcDbEntity
  8
WAKUSEN-02
100
AcDbLine
 10
10280.0
 20
827.9999999999997
 30
0.0
 11
13434.0
 21
827.9999999999997
 31
0.0
  0
TEXT
  5
1893D
330
18745
100
AcDbEntity
  8
WAKUMOJI-01
100
AcDbText
 10
10335.13012998137
 20
1062.951504669661
 30
0.0
 40
120.0
  1
名　称
  7
WAKUMOJI
100
AcDbText
  0
TEXT
  5
1893E
330
18745
100
AcDbEntity
  8
WAKUMOJI-01
100
AcDbText
 10
10328.25274254596
 20
659.5644874899107
 30
0.0
 40
120.0
  1
機種名
  7
WAKUMOJI
100
AcDbText
  0
LINE
  5
1893F
330
18745
100
AcDbEntity
  8
WAKUSEN-01
100
AcDbLine
 10
10280.0
 20
413.9999999999985
 30
0.0
 11
10280.0
 21
1242.0
 31
0.0
  0
LINE
  5
18940
330
18745
100
AcDbEntity
  8
WAKUSEN-02
100
AcDbLine
 10
13434.0
 20
413.9999999999963
 30
0.0
 11
13434.0
 21
1242.0
 31
0.0
  0
LINE
  5
18941
330
18745
100
AcDbEntity
  8
YODOROGO
100
AcDbLine
 10
14988.80217064596
 20
997.8747482146435
 30
0.0
 11
14914.80217064596
 21
997.8747482146435
 31
0.0
1001
AUTOCAD_POSTSCRIPT_FIGURE
1002
{
1000
PSFILL
1000
Grayscale
1000
Grayscale
1070
    25
1002
}
  0
LINE
  5
18942
330
18745
100
AcDbEntity
  8
YODOROGO
100
AcDbLine
 10
14914.80217064596
 20
973.8747482146434
 30
0.0
 11
14988.80217064596
 21
973.8747482146434
 31
0.0
1001
AUTOCAD_POSTSCRIPT_FIGURE
1002
{
1000
PSFILL
1000
Grayscale
1000
Grayscale
1070
    25
1002
}
  0
LINE
  5
18943
330
18745
100
AcDbEntity
  8
YODOROGO
100
AcDbLine
 10
14988.80217064596
 20
953.874748214644
 30
0.0
 11
14914.80217064596
 21
953.874748214644
 31
0.0
1001
AUTOCAD_POSTSCRIPT_FIGURE
1002
{
1000
PSFILL
1000
Grayscale
1000
Grayscale
1070
    25
1002
}
  0
LINE
  5
18944
330
18745
100
AcDbEntity
  8
YODOROGO
100
AcDbLine
 10
14914.80217064596
 20
929.874748214644
 30
0.0
 11
14988.80217064596
 21
929.874748214644
 31
0.0
1001
AUTOCAD_POSTSCRIPT_FIGURE
1002
{
1000
PSFILL
1000
Grayscale
1000
Grayscale
1070
    25
1002
}
  0
LINE
  5
18945
330
18745
100
AcDbEntity
  8
YODOROGO
100
AcDbLine
 10
14988.80217064596
 20
909.8747482146439
 30
0.0
 11
14914.80217064596
 21
909.8747482146439
 31
0.0
1001
AUTOCAD_POSTSCRIPT_FIGURE
1002
{
1000
PSFILL
1000
Grayscale
1000
Grayscale
1070
    25
1002
}
  0
LINE
  5
18946
330
18745
100
AcDbEntity
  8
YODOROGO
100
AcDbLine
 10
14960.80217064594
 20
853.874748214644
 30
0.0
 11
14988.80217064596
 21
853.874748214644
 31
0.0
1001
AUTOCAD_POSTSCRIPT_FIGURE
1002
{
1000
PSFILL
1000
Grayscale
1000
Grayscale
1070
    25
1002
}
  0
LINE
  5
18947
330
18745
100
AcDbEntity
  8
YODOROGO
100
AcDbLine
 10
14868.80217064596
 20
713.8747482146436
 30
0.0
 11
14968.80217064596
 21
740.6696674577553
 31
0.0
  0
LINE
  5
18948
330
18745
100
AcDbEntity
  8
YODOROGO
100
AcDbLine
 10
14974.80217064595
 20
853.874748214644
 30
0.0
 11
14942.80217064596
 21
853.874748214644
 31
0.0
  0
ARC
  5
18949
330
18745
100
AcDbEntity
  8
YODOROGO
100
AcDbCircle
 10
15127.17387491394
 20
903.9323046166312
 30
0.0
 40
190.9434321028236
100
AcDbArc
 50
213.9611167766784
 51
264.4787207431779
  0
ARC
  5
1894A
330
18745
100
AcDbEntity
  8
YODOROGO
100
AcDbCircle
 10
15127.17387491396
 20
903.9323046166513
 30
0.0
 40
190.9434321028408
100
AcDbArc
 50
208.141144204866
 51
212.9210361185994
  0
LINE
  5
1894B
330
18745
100
AcDbEntity
  8
YODOROGO
100
AcDbLine
 10
14885.70493649264
 20
778.403830673117
 30
0.0
 11
14966.89206625426
 21
800.1578565285436
 31
0.0
  0
LINE
  5
1894C
330
18745
100
AcDbEntity
  8
YODOROGO
100
AcDbLine
 10
14868.80217064596
 20
713.8747482146436
 30
0.0
 11
14968.80217064596
 21
740.6696674577553
 31
0.0
  0
LINE
  5
1894D
330
18745
100
AcDbEntity
  8
YODOROGO
100
AcDbLine
 10
14974.80217064595
 20
853.874748214644
 30
0.0
 11
14942.80217064596
 21
853.874748214644
 31
0.0
  0
ARC
  5
1894E
330
18745
100
AcDbEntity
  8
YODOROGO
100
AcDbCircle
 10
15127.17387491394
 20
903.9323046166312
 30
0.0
 40
190.9434321028236
100
AcDbArc
 50
213.9611167766784
 51
264.4787207431779
  0
LINE
  5
1894F
330
18745
100
AcDbEntity
  8
YODOROGO
100
AcDbLine
 10
14396.80217064594
 20
909.8747482146439
 30
0.0
 11
14216.80217064594
 21
909.8747482146439
 31
0.0
  0
LINE
  5
18950
330
18745
100
AcDbEntity
  8
YODOROGO
100
AcDbLine
 10
14256.80217064594
 20
713.8747482146436
 30
0.0
 11
14396.80217064594
 21
713.8747482146436
 31
0.0
  0
LINE
  5
18951
330
18745
100
AcDbEntity
  8
YODOROGO
100
AcDbLine
 10
14364.80217064596
 20
961.8747482146432
 30
0.0
 11
14248.80217064594
 21
961.8747482146432
 31
0.0
  0
LINE
  5
18952
330
18745
100
AcDbEntity
  8
YODOROGO
100
AcDbLine
 10
14292.80217064596
 20
1013.874748214644
 30
0.0
 11
14328.80217064596
 21
1013.874748214644
 31
0.0
  0
LINE
  5
18953
330
18745
100
AcDbEntity
  8
YODOROGO
100
AcDbLine
 10
14216.80217064594
 20
853.874748214644
 30
0.0
 11
14216.80217064594
 21
753.8747482146439
 31
0.0
  0
LINE
  5
18954
330
18745
100
AcDbEntity
  8
YODOROGO
100
AcDbLine
 10
14248.80217064594
 20
781.8747482146434
 30
0.0
 11
14248.80217064594
 21
853.874748214644
 31
0.0
  0
LINE
  5
18955
330
18745
100
AcDbEntity
  8
YODOROGO
100
AcDbLine
 10
14292.80217064596
 20
873.8747482146449
 30
0.0
 11
14292.80217064596
 21
773.874748214644
 31
0.0
  0
LINE
  5
18956
330
18745
100
AcDbEntity
  8
YODOROGO
100
AcDbLine
 10
13928.80217064596
 20
841.8747482146445
 30
0.0
 11
13888.80217064596
 21
809.9862070222856
 31
0.0
  0
LINE
  5
18957
330
18745
100
AcDbEntity
  8
YODOROGO
100
AcDbLine
 10
13968.80217064596
 20
809.9862070222856
 30
0.0
 11
13928.80217064596
 21
841.8747482146445
 31
0.0
  0
LINE
  5
18958
330
18745
100
AcDbEntity
  8
YODOROGO
100
AcDbLine
 10
13928.80217064596
 20
853.874748214644
 30
0.0
 11
13968.80217064596
 21
821.986207022285
 31
0.0
  0
LINE
  5
18959
330
18745
100
AcDbEntity
  8
YODOROGO
100
AcDbLine
 10
13888.80217064596
 20
821.986207022285
 30
0.0
 11
13928.80217064596
 21
853.874748214644
 31
0.0
  0
LINE
  5
1895A
330
18745
100
AcDbEntity
  8
YODOROGO
100
AcDbLine
 10
14020.45660200844
 20
829.874748214644
 30
0.0
 11
14020.45660200844
 21
841.8747482146434
 31
0.0
  0
LINE
  5
1895B
330
18745
100
AcDbEntity
  8
YODOROGO
100
AcDbLine
 10
13988.80217064596
 20
841.8747482146434
 30
0.0
 11
13988.80217064596
 21
833.8747482146427
 31
0.0
  0
LINE
  5
1895C
330
18745
100
AcDbEntity
  8
YODOROGO
100
AcDbLine
 10
14049.06776011545
 20
853.874748214644
 30
0.0
 11
14049.06776011545
 21
827.751818637328
 31
0.0
1001
AUTOCAD_POSTSCRIPT_FIGURE
1002
{
1000
PSFILL
1000
Grayscale
1000
Grayscale
1070
   100
1002
}
  0
LINE
  5
1895D
330
18745
100
AcDbEntity
  8
YODOROGO
100
AcDbLine
 10
14041.06776011546
 20
827.751818637328
 30
0.0
 11
14041.06776011546
 21
853.874748214644
 31
0.0
1001
AUTOCAD_POSTSCRIPT_FIGURE
1002
{
1000
PSFILL
1000
Grayscale
1000
Grayscale
1070
   100
1002
}
  0
LINE
  5
1895E
330
18745
100
AcDbEntity
  8
YODOROGO
100
AcDbLine
 10
13904.80217064596
 20
804.3859520216292
 30
0.0
 11
13904.80217064596
 21
816.3859520216298
 31
0.0
  0
LINE
  5
1895F
330
18745
100
AcDbEntity
  8
YODOROGO
100
AcDbLine
 10
13952.80217064596
 20
804.3859520216292
 30
0.0
 11
13904.80217064596
 21
804.3859520216292
 31
0.0
  0
LINE
  5
18960
330
18745
100
AcDbEntity
  8
YODOROGO
100
AcDbLine
 10
13952.80217064596
 20
816.3859520216298
 30
0.0
 11
13952.80217064596
 21
804.3859520216292
 31
0.0
  0
LINE
  5
18961
330
18745
100
AcDbEntity
  8
YODOROGO
100
AcDbLine
 10
13904.80217064596
 20
816.3859520216298
 30
0.0
 11
13952.80217064596
 21
816.3859520216298
 31
0.0
  0
LINE
  5
18962
330
18745
100
AcDbEntity
  8
YODOROGO
100
AcDbLine
 10
13912.25479445787
 20
784.2514286852374
 30
0.0
 11
13892.80217064596
 21
737.8747482146435
 31
0.0
1001
AUTOCAD_POSTSCRIPT_FIGURE
1002
{
1000
PSFILL
1000
Grayscale
1000
Grayscale
1070
   100
1002
}
  0
LINE
  5
18963
330
18745
100
AcDbEntity
  8
YODOROGO
100
AcDbLine
 10
13888.80217064596
 20
784.2514286852374
 30
0.0
 11
13912.25479445787
 21
784.2514286852374
 31
0.0
1001
AUTOCAD_POSTSCRIPT_FIGURE
1002
{
1000
PSFILL
1000
Grayscale
1000
Grayscale
1070
   100
1002
}
  0
LINE
  5
18964
330
18745
100
AcDbEntity
  8
YODOROGO
100
AcDbLine
 10
13888.80217064596
 20
794.2514286852374
 30
0.0
 11
13888.80217064596
 21
784.2514286852374
 31
0.0
1001
AUTOCAD_POSTSCRIPT_FIGURE
1002
{
1000
PSFILL
1000
Grayscale
1000
Grayscale
1070
   100
1002
}
  0
LINE
  5
18965
330
18745
100
AcDbEntity
  8
YODOROGO
100
AcDbLine
 10
13968.80217064596
 20
794.2514286852374
 30
0.0
 11
13888.80217064596
 21
794.2514286852374
 31
0.0
1001
AUTOCAD_POSTSCRIPT_FIGURE
1002
{
1000
PSFILL
1000
Grayscale
1000
Grayscale
1070
   100
1002
}
  0
LINE
  5
18966
330
18745
100
AcDbEntity
  8
YODOROGO
100
AcDbLine
 10
13968.80217064596
 20
784.2514286852374
 30
0.0
 11
13968.80217064596
 21
794.2514286852374
 31
0.0
1001
AUTOCAD_POSTSCRIPT_FIGURE
1002
{
1000
PSFILL
1000
Grayscale
1000
Grayscale
1070
   100
1002
}
  0
LINE
  5
18967
330
18745
100
AcDbEntity
  8
YODOROGO
100
AcDbLine
 10
13922.25479445786
 20
784.2514286852374
 30
0.0
 11
13968.80217064596
 21
784.2514286852374
 31
0.0
1001
AUTOCAD_POSTSCRIPT_FIGURE
1002
{
1000
PSFILL
1000
Grayscale
1000
Grayscale
1070
   100
1002
}
  0
LINE
  5
18968
330
18745
100
AcDbEntity
  8
YODOROGO
100
AcDbLine
 10
13907.77335914238
 20
747.8747482146435
 30
0.0
 11
13922.25479445786
 21
784.2514286852374
 31
0.0
1001
AUTOCAD_POSTSCRIPT_FIGURE
1002
{
1000
PSFILL
1000
Grayscale
1000
Grayscale
1070
   100
1002
}
  0
LINE
  5
18969
330
18745
100
AcDbEntity
  8
YODOROGO
100
AcDbLine
 10
13951.02739540432
 20
747.8747482146435
 30
0.0
 11
13907.77335914238
 21
747.8747482146435
 31
0.0
1001
AUTOCAD_POSTSCRIPT_FIGURE
1002
{
1000
PSFILL
1000
Grayscale
1000
Grayscale
1070
   100
1002
}
  0
LINE
  5
1896A
330
18745
100
AcDbEntity
  8
YODOROGO
100
AcDbLine
 10
13942.53250239547
 20
768.1169053488464
 30
0.0
 11
13951.02739540432
 21
747.8747482146435
 31
0.0
1001
AUTOCAD_POSTSCRIPT_FIGURE
1002
{
1000
PSFILL
1000
Grayscale
1000
Grayscale
1070
   100
1002
}
  0
LINE
  5
1896B
330
18745
100
AcDbEntity
  8
YODOROGO
100
AcDbLine
 10
13950.53250239547
 20
768.1169053488464
 30
0.0
 11
13942.53250239547
 21
768.1169053488464
 31
0.0
1001
AUTOCAD_POSTSCRIPT_FIGURE
1002
{
1000
PSFILL
1000
Grayscale
1000
Grayscale
1070
   100
1002
}
  0
LINE
  5
1896C
330
18745
100
AcDbEntity
  8
YODOROGO
100
AcDbLine
 10
13964.80217064596
 20
737.8747482146435
 30
0.0
 11
13950.53250239547
 21
768.1169053488464
 31
0.0
1001
AUTOCAD_POSTSCRIPT_FIGURE
1002
{
1000
PSFILL
1000
Grayscale
1000
Grayscale
1070
   100
1002
}
  0
LINE
  5
1896D
330
18745
100
AcDbEntity
  8
YODOROGO
100
AcDbLine
 10
13892.80217064596
 20
737.8747482146435
 30
0.0
 11
13964.80217064596
 21
737.8747482146435
 31
0.0
1001
AUTOCAD_POSTSCRIPT_FIGURE
1002
{
1000
PSFILL
1000
Grayscale
1000
Grayscale
1070
   100
1002
}
  0
LINE
  5
1896E
330
18745
100
AcDbEntity
  8
YODOROGO
100
AcDbLine
 10
13888.80217064596
 20
809.9862070222856
 30
0.0
 11
13888.80217064596
 21
821.986207022285
 31
0.0
  0
LINE
  5
1896F
330
18745
100
AcDbEntity
  8
YODOROGO
100
AcDbLine
 10
13968.80217064596
 20
821.986207022285
 30
0.0
 11
13968.80217064596
 21
809.9862070222856
 31
0.0
  0
ARC
  5
18970
330
18745
100
AcDbEntity
  8
YODOROGO
100
AcDbCircle
 10
14112.97022107348
 20
800.438882662663
 30
0.0
 40
87.99999999999995
100
AcDbArc
 50
280.3644312771313
 51
3.541483659218056
  0
ARC
  5
18971
330
18745
100
AcDbEntity
  8
YODOROGO
100
AcDbCircle
 10
14117.87801537965
 20
816.798903480952
 30
0.0
 40
55.99999999999914
100
AcDbArc
 50
281.2490582504155
 51
348.7509417495832
  0
LINE
  5
18972
330
18745
100
AcDbEntity
  8
YODOROGO
100
AcDbLine
 10
14128.80217064596
 20
761.8747482146434
 30
0.0
 11
14128.80217064596
 21
713.8747482146436
 31
0.0
  0
LINE
  5
18973
330
18745
100
AcDbEntity
  8
YODOROGO
100
AcDbLine
 10
14010.04445186845
 20
805.3252825309574
 30
0.0
 11
14020.45660200844
 21
829.874748214644
 31
0.0
  0
LINE
  5
18974
330
18745
100
AcDbEntity
  8
YODOROGO
100
AcDbLine
 10
14020.80217064596
 20
791.5602449742006
 30
0.0
 11
14010.04445186845
 21
805.3252825309574
 31
0.0
  0
LINE
  5
18975
330
18745
100
AcDbEntity
  8
YODOROGO
100
AcDbLine
 10
14020.80217064596
 20
781.5602449741994
 30
0.0
 11
14020.80217064596
 21
791.5602449742006
 31
0.0
  0
LINE
  5
18976
330
18745
100
AcDbEntity
  8
YODOROGO
100
AcDbLine
 10
14008.80217064596
 20
792.6185318747651
 30
0.0
 11
14020.80217064596
 21
781.5602449741994
 31
0.0
  0
LINE
  5
18977
330
18745
100
AcDbEntity
  8
YODOROGO
100
AcDbLine
 10
14008.80217064596
 20
737.8747482146435
 30
0.0
 11
14008.80217064596
 21
792.6185318747651
 31
0.0
  0
LINE
  5
18978
330
18745
100
AcDbEntity
  8
YODOROGO
100
AcDbLine
 10
14000.80217064596
 20
737.8747482146435
 30
0.0
 11
14008.80217064596
 21
737.8747482146435
 31
0.0
  0
LINE
  5
18979
330
18745
100
AcDbEntity
  8
YODOROGO
100
AcDbLine
 10
14000.80217064596
 20
790.0026748448738
 30
0.0
 11
14000.80217064596
 21
737.8747482146435
 31
0.0
  0
LINE
  5
1897A
330
18745
100
AcDbEntity
  8
YODOROGO
100
AcDbLine
 10
13988.80217064596
 20
766.3840395167142
 30
0.0
 11
14000.80217064596
 21
790.0026748448738
 31
0.0
  0
LINE
  5
1897B
330
18745
100
AcDbEntity
  8
YODOROGO
100
AcDbLine
 10
13988.80217064596
 20
778.3840395167149
 30
0.0
 11
13988.80217064596
 21
766.3840395167142
 31
0.0
  0
LINE
  5
1897C
330
18745
100
AcDbEntity
  8
YODOROGO
100
AcDbLine
 10
14012.91438714567
 20
833.8747482146427
 30
0.0
 11
13988.80217064596
 21
778.3840395167149
 31
0.0
  0
LINE
  5
1897D
330
18745
100
AcDbEntity
  8
YODOROGO
100
AcDbLine
 10
13988.80217064596
 20
833.8747482146427
 30
0.0
 11
14012.91438714567
 21
833.8747482146427
 31
0.0
  0
LINE
  5
1897E
330
18745
100
AcDbEntity
  8
YODOROGO
100
AcDbLine
 10
14025.06776011545
 20
827.751818637328
 30
0.0
 11
14041.06776011546
 21
827.751818637328
 31
0.0
1001
AUTOCAD_POSTSCRIPT_FIGURE
1002
{
1000
PSFILL
1000
Grayscale
1000
Grayscale
1070
   100
1002
}
  0
LINE
  5
1897F
330
18745
100
AcDbEntity
  8
YODOROGO
100
AcDbLine
 10
14025.06776011545
 20
815.7518186373286
 30
0.0
 11
14025.06776011545
 21
827.751818637328
 31
0.0
1001
AUTOCAD_POSTSCRIPT_FIGURE
1002
{
1000
PSFILL
1000
Grayscale
1000
Grayscale
1070
   100
1002
}
  0
LINE
  5
18980
330
18745
100
AcDbEntity
  8
YODOROGO
100
AcDbLine
 10
14041.06776011546
 20
815.7518186373286
 30
0.0
 11
14025.06776011545
 21
815.7518186373286
 31
0.0
1001
AUTOCAD_POSTSCRIPT_FIGURE
1002
{
1000
PSFILL
1000
Grayscale
1000
Grayscale
1070
   100
1002
}
  0
LINE
  5
18981
330
18745
100
AcDbEntity
  8
YODOROGO
100
AcDbLine
 10
14041.06776011546
 20
749.8747482146441
 30
0.0
 11
14041.06776011546
 21
815.7518186373286
 31
0.0
1001
AUTOCAD_POSTSCRIPT_FIGURE
1002
{
1000
PSFILL
1000
Grayscale
1000
Grayscale
1070
   100
1002
}
  0
LINE
  5
18982
330
18745
100
AcDbEntity
  8
YODOROGO
100
AcDbLine
 10
14025.06776011545
 20
749.8747482146441
 30
0.0
 11
14041.06776011546
 21
749.8747482146441
 31
0.0
1001
AUTOCAD_POSTSCRIPT_FIGURE
1002
{
1000
PSFILL
1000
Grayscale
1000
Grayscale
1070
   100
1002
}
  0
LINE
  5
18983
330
18745
100
AcDbEntity
  8
YODOROGO
100
AcDbLine
 10
14025.06776011545
 20
737.8747482146435
 30
0.0
 11
14025.06776011545
 21
749.8747482146441
 31
0.0
1001
AUTOCAD_POSTSCRIPT_FIGURE
1002
{
1000
PSFILL
1000
Grayscale
1000
Grayscale
1070
   100
1002
}
  0
LINE
  5
18984
330
18745
100
AcDbEntity
  8
YODOROGO
100
AcDbLine
 10
14068.80217064596
 20
737.8747482146435
 30
0.0
 11
14025.06776011545
 21
737.8747482146435
 31
0.0
1001
AUTOCAD_POSTSCRIPT_FIGURE
1002
{
1000
PSFILL
1000
Grayscale
1000
Grayscale
1070
   100
1002
}
  0
LINE
  5
18985
330
18745
100
AcDbEntity
  8
YODOROGO
100
AcDbLine
 10
14068.80217064596
 20
749.8747482146441
 30
0.0
 11
14068.80217064596
 21
737.8747482146435
 31
0.0
1001
AUTOCAD_POSTSCRIPT_FIGURE
1002
{
1000
PSFILL
1000
Grayscale
1000
Grayscale
1070
   100
1002
}
  0
LINE
  5
18986
330
18745
100
AcDbEntity
  8
YODOROGO
100
AcDbLine
 10
14049.06776011545
 20
749.8747482146441
 30
0.0
 11
14068.80217064596
 21
749.8747482146441
 31
0.0
1001
AUTOCAD_POSTSCRIPT_FIGURE
1002
{
1000
PSFILL
1000
Grayscale
1000
Grayscale
1070
   100
1002
}
  0
LINE
  5
18987
330
18745
100
AcDbEntity
  8
YODOROGO
100
AcDbLine
 10
14049.06776011545
 20
815.7518186373286
 30
0.0
 11
14049.06776011545
 21
749.8747482146441
 31
0.0
1001
AUTOCAD_POSTSCRIPT_FIGURE
1002
{
1000
PSFILL
1000
Grayscale
1000
Grayscale
1070
   100
1002
}
  0
LINE
  5
18988
330
18745
100
AcDbEntity
  8
YODOROGO
100
AcDbLine
 10
14068.80217064596
 20
815.7518186373286
 30
0.0
 11
14049.06776011545
 21
815.7518186373286
 31
0.0
1001
AUTOCAD_POSTSCRIPT_FIGURE
1002
{
1000
PSFILL
1000
Grayscale
1000
Grayscale
1070
   100
1002
}
  0
LINE
  5
18989
330
18745
100
AcDbEntity
  8
YODOROGO
100
AcDbLine
 10
14068.80217064596
 20
827.751818637328
 30
0.0
 11
14068.80217064596
 21
815.7518186373286
 31
0.0
1001
AUTOCAD_POSTSCRIPT_FIGURE
1002
{
1000
PSFILL
1000
Grayscale
1000
Grayscale
1070
   100
1002
}
  0
LINE
  5
1898A
330
18745
100
AcDbEntity
  8
YODOROGO
100
AcDbLine
 10
14049.06776011545
 20
827.751818637328
 30
0.0
 11
14068.80217064596
 21
827.751818637328
 31
0.0
1001
AUTOCAD_POSTSCRIPT_FIGURE
1002
{
1000
PSFILL
1000
Grayscale
1000
Grayscale
1070
   100
1002
}
  0
LINE
  5
1898B
330
18745
100
AcDbEntity
  8
YODOROGO
100
AcDbLine
 10
14200.80217064594
 20
833.8747482146439
 30
0.0
 11
14172.80217064596
 21
833.8747482146439
 31
0.0
  0
LINE
  5
1898C
330
18745
100
AcDbEntity
  8
YODOROGO
100
AcDbLine
 10
14200.80217064594
 20
805.8747482146443
 30
0.0
 11
14200.80217064594
 21
833.8747482146439
 31
0.0
  0
LINE
  5
1898D
330
18745
100
AcDbEntity
  8
YODOROGO
100
AcDbLine
 10
14172.80217064596
 20
833.8747482146439
 30
0.0
 11
14172.80217064596
 21
805.8747482146443
 31
0.0
  0
ARC
  5
1898E
330
18745
100
AcDbEntity
  8
YODOROGO
100
AcDbCircle
 10
14256.80217064594
 20
753.8747482146439
 30
0.0
 40
40.0
100
AcDbArc
 50
180.0
 51
270.0
  0
ARC
  5
1898F
330
18745
100
AcDbEntity
  8
YODOROGO
100
AcDbCircle
 10
14268.80217064594
 20
781.8747482146434
 30
0.0
 40
20.0
100
AcDbArc
 50
180.0
 51
270.0
  0
LINE
  5
18990
330
18745
100
AcDbEntity
  8
YODOROGO
100
AcDbLine
 10
14280.80217064596
 20
761.8747482146434
 30
0.0
 11
14268.80217064594
 21
761.8747482146434
 31
0.0
  0
ARC
  5
18991
330
18745
100
AcDbEntity
  8
YODOROGO
100
AcDbCircle
 10
14280.80217064596
 20
773.8747482146427
 30
0.0
 40
11.99999999999818
100
AcDbArc
 50
270.0
 51
0.0000000000054281
  0
LINE
  5
18992
330
18745
100
AcDbEntity
  8
YODOROGO
100
AcDbLine
 10
13900.80217064596
 20
945.3932903968532
 30
0.0
 11
13888.80217064596
 21
921.8883739758362
 31
0.0
1001
AUTOCAD_POSTSCRIPT_FIGURE
1002
{
1000
PSFILL
1000
Grayscale
1000
Grayscale
1070
   100
1002
}
  0
LINE
  5
18993
330
18745
100
AcDbEntity
  8
YODOROGO
100
AcDbLine
 10
13900.80217064596
 20
873.8747482146434
 30
0.0
 11
13900.80217064596
 21
945.3932903968532
 31
0.0
1001
AUTOCAD_POSTSCRIPT_FIGURE
1002
{
1000
PSFILL
1000
Grayscale
1000
Grayscale
1070
   100
1002
}
  0
LINE
  5
18994
330
18745
100
AcDbEntity
  8
YODOROGO
100
AcDbLine
 10
13908.80217064596
 20
873.8747482146434
 30
0.0
 11
13900.80217064596
 21
873.8747482146434
 31
0.0
1001
AUTOCAD_POSTSCRIPT_FIGURE
1002
{
1000
PSFILL
1000
Grayscale
1000
Grayscale
1070
   100
1002
}
  0
LINE
  5
18995
330
18745
100
AcDbEntity
  8
YODOROGO
100
AcDbLine
 10
13908.80217064596
 20
946.8856660426332
 30
0.0
 11
13908.80217064596
 21
873.8747482146434
 31
0.0
1001
AUTOCAD_POSTSCRIPT_FIGURE
1002
{
1000
PSFILL
1000
Grayscale
1000
Grayscale
1070
   100
1002
}
  0
LINE
  5
18996
330
18745
100
AcDbEntity
  8
YODOROGO
100
AcDbLine
 10
13920.80217064596
 20
933.8273791420684
 30
0.0
 11
13908.80217064596
 21
946.8856660426332
 31
0.0
1001
AUTOCAD_POSTSCRIPT_FIGURE
1002
{
1000
PSFILL
1000
Grayscale
1000
Grayscale
1070
   100
1002
}
  0
LINE
  5
18997
330
18745
100
AcDbEntity
  8
YODOROGO
100
AcDbLine
 10
13920.80217064596
 20
941.8273791420681
 30
0.0
 11
13920.80217064596
 21
933.8273791420684
 31
0.0
1001
AUTOCAD_POSTSCRIPT_FIGURE
1002
{
1000
PSFILL
1000
Grayscale
1000
Grayscale
1070
   100
1002
}
  0
LINE
  5
18998
330
18745
100
AcDbEntity
  8
YODOROGO
100
AcDbLine
 10
13908.80217064596
 20
958.8856660426325
 30
0.0
 11
13920.80217064596
 21
941.8273791420681
 31
0.0
1001
AUTOCAD_POSTSCRIPT_FIGURE
1002
{
1000
PSFILL
1000
Grayscale
1000
Grayscale
1070
   100
1002
}
  0
LINE
  5
18999
330
18745
100
AcDbEntity
  8
YODOROGO
100
AcDbLine
 10
13908.80217064596
 20
969.8747482146441
 30
0.0
 11
13908.80217064596
 21
958.8856660426325
 31
0.0
1001
AUTOCAD_POSTSCRIPT_FIGURE
1002
{
1000
PSFILL
1000
Grayscale
1000
Grayscale
1070
   100
1002
}
  0
LINE
  5
1899A
330
18745
100
AcDbEntity
  8
YODOROGO
100
AcDbLine
 10
13944.80217064596
 20
969.8747482146441
 30
0.0
 11
13908.80217064596
 21
969.8747482146441
 31
0.0
1001
AUTOCAD_POSTSCRIPT_FIGURE
1002
{
1000
PSFILL
1000
Grayscale
1000
Grayscale
1070
   100
1002
}
  0
LINE
  5
1899B
330
18745
100
AcDbEntity
  8
YODOROGO
100
AcDbLine
 10
13944.80217064596
 20
950.2841744681497
 30
0.0
 11
13944.80217064596
 21
969.8747482146441
 31
0.0
1001
AUTOCAD_POSTSCRIPT_FIGURE
1002
{
1000
PSFILL
1000
Grayscale
1000
Grayscale
1070
   100
1002
}
  0
LINE
  5
1899C
330
18745
100
AcDbEntity
  8
YODOROGO
100
AcDbLine
 10
13928.80217064596
 20
950.2841744681497
 30
0.0
 11
13944.80217064596
 21
950.2841744681497
 31
0.0
1001
AUTOCAD_POSTSCRIPT_FIGURE
1002
{
1000
PSFILL
1000
Grayscale
1000
Grayscale
1070
   100
1002
}
  0
LINE
  5
1899D
330
18745
100
AcDbEntity
  8
YODOROGO
100
AcDbLine
 10
13928.80217064596
 20
942.2841744681491
 30
0.0
 11
13928.80217064596
 21
950.2841744681497
 31
0.0
1001
AUTOCAD_POSTSCRIPT_FIGURE
1002
{
1000
PSFILL
1000
Grayscale
1000
Grayscale
1070
   100
1002
}
  0
LINE
  5
1899E
330
18745
100
AcDbEntity
  8
YODOROGO
100
AcDbLine
 10
13944.80217064596
 20
942.2841744681491
 30
0.0
 11
13928.80217064596
 21
942.2841744681491
 31
0.0
1001
AUTOCAD_POSTSCRIPT_FIGURE
1002
{
1000
PSFILL
1000
Grayscale
1000
Grayscale
1070
   100
1002
}
  0
LINE
  5
1899F
330
18745
100
AcDbEntity
  8
YODOROGO
100
AcDbLine
 10
13944.80217064596
 20
939.8095889822196
 30
0.0
 11
13944.80217064596
 21
942.2841744681491
 31
0.0
1001
AUTOCAD_POSTSCRIPT_FIGURE
1002
{
1000
PSFILL
1000
Grayscale
1000
Grayscale
1070
   100
1002
}
  0
LINE
  5
189A0
330
18745
100
AcDbEntity
  8
YODOROGO
100
AcDbLine
 10
13924.80217064596
 20
906.4874905807087
 30
0.0
 11
13944.80217064596
 21
939.8095889822196
 31
0.0
1001
AUTOCAD_POSTSCRIPT_FIGURE
1002
{
1000
PSFILL
1000
Grayscale
1000
Grayscale
1070
   100
1002
}
  0
LINE
  5
189A1
330
18745
100
AcDbEntity
  8
YODOROGO
100
AcDbLine
 10
13924.80217064596
 20
898.487490580708
 30
0.0
 11
13924.80217064596
 21
906.4874905807087
 31
0.0
1001
AUTOCAD_POSTSCRIPT_FIGURE
1002
{
1000
PSFILL
1000
Grayscale
1000
Grayscale
1070
   100
1002
}
  0
LINE
  5
189A2
330
18745
100
AcDbEntity
  8
YODOROGO
100
AcDbLine
 10
13944.80217064596
 20
923.8095889822183
 30
0.0
 11
13924.80217064596
 21
898.487490580708
 31
0.0
1001
AUTOCAD_POSTSCRIPT_FIGURE
1002
{
1000
PSFILL
1000
Grayscale
1000
Grayscale
1070
   100
1002
}
  0
LINE
  5
189A3
330
18745
100
AcDbEntity
  8
YODOROGO
100
AcDbLine
 10
13944.80217064596
 20
873.8747482146434
 30
0.0
 11
13944.80217064596
 21
923.8095889822183
 31
0.0
1001
AUTOCAD_POSTSCRIPT_FIGURE
1002
{
1000
PSFILL
1000
Grayscale
1000
Grayscale
1070
   100
1002
}
  0
LINE
  5
189A4
330
18745
100
AcDbEntity
  8
YODOROGO
100
AcDbLine
 10
13952.80217064596
 20
873.8747482146434
 30
0.0
 11
13944.80217064596
 21
873.8747482146434
 31
0.0
1001
AUTOCAD_POSTSCRIPT_FIGURE
1002
{
1000
PSFILL
1000
Grayscale
1000
Grayscale
1070
   100
1002
}
  0
LINE
  5
189A5
330
18745
100
AcDbEntity
  8
YODOROGO
100
AcDbLine
 10
13952.80217064596
 20
924.7045060794032
 30
0.0
 11
13952.80217064596
 21
873.8747482146434
 31
0.0
1001
AUTOCAD_POSTSCRIPT_FIGURE
1002
{
1000
PSFILL
1000
Grayscale
1000
Grayscale
1070
   100
1002
}
  0
LINE
  5
189A6
330
18745
100
AcDbEntity
  8
YODOROGO
100
AcDbLine
 10
13968.80217064596
 20
898.487490580708
 30
0.0
 11
13952.80217064596
 21
924.7045060794032
 31
0.0
1001
AUTOCAD_POSTSCRIPT_FIGURE
1002
{
1000
PSFILL
1000
Grayscale
1000
Grayscale
1070
   100
1002
}
  0
LINE
  5
189A7
330
18745
100
AcDbEntity
  8
YODOROGO
100
AcDbLine
 10
13968.80217064596
 20
906.4874905807087
 30
0.0
 11
13968.80217064596
 21
898.487490580708
 31
0.0
1001
AUTOCAD_POSTSCRIPT_FIGURE
1002
{
1000
PSFILL
1000
Grayscale
1000
Grayscale
1070
   100
1002
}
  0
LINE
  5
189A8
330
18745
100
AcDbEntity
  8
YODOROGO
100
AcDbLine
 10
13952.80217064596
 20
940.7045060794041
 30
0.0
 11
13968.80217064596
 21
906.4874905807087
 31
0.0
1001
AUTOCAD_POSTSCRIPT_FIGURE
1002
{
1000
PSFILL
1000
Grayscale
1000
Grayscale
1070
   100
1002
}
  0
LINE
  5
189A9
330
18745
100
AcDbEntity
  8
YODOROGO
100
AcDbLine
 10
13952.80217064596
 20
942.2841744681502
 30
0.0
 11
13952.80217064596
 21
940.7045060794041
 31
0.0
1001
AUTOCAD_POSTSCRIPT_FIGURE
1002
{
1000
PSFILL
1000
Grayscale
1000
Grayscale
1070
   100
1002
}
  0
LINE
  5
189AA
330
18745
100
AcDbEntity
  8
YODOROGO
100
AcDbLine
 10
13968.80217064596
 20
942.2841744681491
 30
0.0
 11
13952.80217064596
 21
942.2841744681502
 31
0.0
1001
AUTOCAD_POSTSCRIPT_FIGURE
1002
{
1000
PSFILL
1000
Grayscale
1000
Grayscale
1070
   100
1002
}
  0
LINE
  5
189AB
330
18745
100
AcDbEntity
  8
YODOROGO
100
AcDbLine
 10
13968.80217064596
 20
950.2841744681497
 30
0.0
 11
13968.80217064596
 21
942.2841744681491
 31
0.0
1001
AUTOCAD_POSTSCRIPT_FIGURE
1002
{
1000
PSFILL
1000
Grayscale
1000
Grayscale
1070
   100
1002
}
  0
LINE
  5
189AC
330
18745
100
AcDbEntity
  8
YODOROGO
100
AcDbLine
 10
13952.80217064596
 20
950.2841744681497
 30
0.0
 11
13968.80217064596
 21
950.2841744681497
 31
0.0
1001
AUTOCAD_POSTSCRIPT_FIGURE
1002
{
1000
PSFILL
1000
Grayscale
1000
Grayscale
1070
   100
1002
}
  0
LINE
  5
189AD
330
18745
100
AcDbEntity
  8
YODOROGO
100
AcDbLine
 10
13952.80217064596
 20
969.8747482146441
 30
0.0
 11
13952.80217064596
 21
950.2841744681497
 31
0.0
1001
AUTOCAD_POSTSCRIPT_FIGURE
1002
{
1000
PSFILL
1000
Grayscale
1000
Grayscale
1070
   100
1002
}
  0
LINE
  5
189AE
330
18745
100
AcDbEntity
  8
YODOROGO
100
AcDbLine
 10
13968.80217064596
 20
969.8747482146441
 30
0.0
 11
13952.80217064596
 21
969.8747482146441
 31
0.0
1001
AUTOCAD_POSTSCRIPT_FIGURE
1002
{
1000
PSFILL
1000
Grayscale
1000
Grayscale
1070
   100
1002
}
  0
LINE
  5
189AF
330
18745
100
AcDbEntity
  8
YODOROGO
100
AcDbLine
 10
13968.80217064596
 20
977.8747482146435
 30
0.0
 11
13968.80217064596
 21
969.8747482146441
 31
0.0
1001
AUTOCAD_POSTSCRIPT_FIGURE
1002
{
1000
PSFILL
1000
Grayscale
1000
Grayscale
1070
   100
1002
}
  0
LINE
  5
189B0
330
18745
100
AcDbEntity
  8
YODOROGO
100
AcDbLine
 10
13952.80217064596
 20
977.8747482146435
 30
0.0
 11
13968.80217064596
 21
977.8747482146435
 31
0.0
1001
AUTOCAD_POSTSCRIPT_FIGURE
1002
{
1000
PSFILL
1000
Grayscale
1000
Grayscale
1070
   100
1002
}
  0
LINE
  5
189B1
330
18745
100
AcDbEntity
  8
YODOROGO
100
AcDbLine
 10
13952.80217064596
 20
989.8747482146442
 30
0.0
 11
13952.80217064596
 21
977.8747482146435
 31
0.0
1001
AUTOCAD_POSTSCRIPT_FIGURE
1002
{
1000
PSFILL
1000
Grayscale
1000
Grayscale
1070
   100
1002
}
  0
LINE
  5
189B2
330
18745
100
AcDbEntity
  8
YODOROGO
100
AcDbLine
 10
13944.80217064596
 20
989.8747482146442
 30
0.0
 11
13952.80217064596
 21
989.8747482146442
 31
0.0
1001
AUTOCAD_POSTSCRIPT_FIGURE
1002
{
1000
PSFILL
1000
Grayscale
1000
Grayscale
1070
   100
1002
}
  0
LINE
  5
189B3
330
18745
100
AcDbEntity
  8
YODOROGO
100
AcDbLine
 10
13944.80217064596
 20
977.8747482146435
 30
0.0
 11
13944.80217064596
 21
989.8747482146442
 31
0.0
1001
AUTOCAD_POSTSCRIPT_FIGURE
1002
{
1000
PSFILL
1000
Grayscale
1000
Grayscale
1070
   100
1002
}
  0
LINE
  5
189B4
330
18745
100
AcDbEntity
  8
YODOROGO
100
AcDbLine
 10
13932.80217064596
 20
977.8747482146435
 30
0.0
 11
13944.80217064596
 21
977.8747482146435
 31
0.0
1001
AUTOCAD_POSTSCRIPT_FIGURE
1002
{
1000
PSFILL
1000
Grayscale
1000
Grayscale
1070
   100
1002
}
  0
LINE
  5
189B5
330
18745
100
AcDbEntity
  8
YODOROGO
100
AcDbLine
 10
13932.80217064596
 20
989.8747482146442
 30
0.0
 11
13932.80217064596
 21
977.8747482146435
 31
0.0
1001
AUTOCAD_POSTSCRIPT_FIGURE
1002
{
1000
PSFILL
1000
Grayscale
1000
Grayscale
1070
   100
1002
}
  0
LINE
  5
189B6
330
18745
100
AcDbEntity
  8
YODOROGO
100
AcDbLine
 10
13924.80217064596
 20
989.8747482146442
 30
0.0
 11
13932.80217064596
 21
989.8747482146442
 31
0.0
1001
AUTOCAD_POSTSCRIPT_FIGURE
1002
{
1000
PSFILL
1000
Grayscale
1000
Grayscale
1070
   100
1002
}
  0
LINE
  5
189B7
330
18745
100
AcDbEntity
  8
YODOROGO
100
AcDbLine
 10
13924.80217064596
 20
977.8747482146435
 30
0.0
 11
13924.80217064596
 21
989.8747482146442
 31
0.0
1001
AUTOCAD_POSTSCRIPT_FIGURE
1002
{
1000
PSFILL
1000
Grayscale
1000
Grayscale
1070
   100
1002
}
  0
LINE
  5
189B8
330
18745
100
AcDbEntity
  8
YODOROGO
100
AcDbLine
 10
13908.80217064596
 20
977.8747482146435
 30
0.0
 11
13924.80217064596
 21
977.8747482146435
 31
0.0
1001
AUTOCAD_POSTSCRIPT_FIGURE
1002
{
1000
PSFILL
1000
Grayscale
1000
Grayscale
1070
   100
1002
}
  0
LINE
  5
189B9
330
18745
100
AcDbEntity
  8
YODOROGO
100
AcDbLine
 10
13908.80217064596
 20
989.8747482146442
 30
0.0
 11
13908.80217064596
 21
977.8747482146435
 31
0.0
1001
AUTOCAD_POSTSCRIPT_FIGURE
1002
{
1000
PSFILL
1000
Grayscale
1000
Grayscale
1070
   100
1002
}
  0
LINE
  5
189BA
330
18745
100
AcDbEntity
  8
YODOROGO
100
AcDbLine
 10
13900.80217064596
 20
989.8747482146442
 30
0.0
 11
13908.80217064596
 21
989.8747482146442
 31
0.0
1001
AUTOCAD_POSTSCRIPT_FIGURE
1002
{
1000
PSFILL
1000
Grayscale
1000
Grayscale
1070
   100
1002
}
  0
LINE
  5
189BB
330
18745
100
AcDbEntity
  8
YODOROGO
100
AcDbLine
 10
13900.80217064596
 20
977.8747482146435
 30
0.0
 11
13900.80217064596
 21
989.8747482146442
 31
0.0
1001
AUTOCAD_POSTSCRIPT_FIGURE
1002
{
1000
PSFILL
1000
Grayscale
1000
Grayscale
1070
   100
1002
}
  0
LINE
  5
189BC
330
18745
100
AcDbEntity
  8
YODOROGO
100
AcDbLine
 10
13888.80217064596
 20
977.8747482146435
 30
0.0
 11
13900.80217064596
 21
977.8747482146435
 31
0.0
1001
AUTOCAD_POSTSCRIPT_FIGURE
1002
{
1000
PSFILL
1000
Grayscale
1000
Grayscale
1070
   100
1002
}
  0
LINE
  5
189BD
330
18745
100
AcDbEntity
  8
YODOROGO
100
AcDbLine
 10
13888.80217064596
 20
969.8747482146441
 30
0.0
 11
13888.80217064596
 21
977.8747482146435
 31
0.0
1001
AUTOCAD_POSTSCRIPT_FIGURE
1002
{
1000
PSFILL
1000
Grayscale
1000
Grayscale
1070
   100
1002
}
  0
LINE
  5
189BE
330
18745
100
AcDbEntity
  8
YODOROGO
100
AcDbLine
 10
13900.80217064596
 20
969.8747482146441
 30
0.0
 11
13888.80217064596
 21
969.8747482146441
 31
0.0
1001
AUTOCAD_POSTSCRIPT_FIGURE
1002
{
1000
PSFILL
1000
Grayscale
1000
Grayscale
1070
   100
1002
}
  0
LINE
  5
189BF
330
18745
100
AcDbEntity
  8
YODOROGO
100
AcDbLine
 10
13900.80217064596
 20
957.3932903968525
 30
0.0
 11
13900.80217064596
 21
969.8747482146441
 31
0.0
1001
AUTOCAD_POSTSCRIPT_FIGURE
1002
{
1000
PSFILL
1000
Grayscale
1000
Grayscale
1070
   100
1002
}
  0
LINE
  5
189C0
330
18745
100
AcDbEntity
  8
YODOROGO
100
AcDbLine
 10
13888.80217064596
 20
929.8883739758355
 30
0.0
 11
13900.80217064596
 21
957.3932903968525
 31
0.0
1001
AUTOCAD_POSTSCRIPT_FIGURE
1002
{
1000
PSFILL
1000
Grayscale
1000
Grayscale
1070
   100
1002
}
  0
LINE
  5
189C1
330
18745
100
AcDbEntity
  8
YODOROGO
100
AcDbLine
 10
13888.80217064596
 20
921.8883739758362
 30
0.0
 11
13888.80217064596
 21
929.8883739758355
 31
0.0
1001
AUTOCAD_POSTSCRIPT_FIGURE
1002
{
1000
PSFILL
1000
Grayscale
1000
Grayscale
1070
   100
1002
}
  0
LINE
  5
189C2
330
18745
100
AcDbEntity
  8
YODOROGO
100
AcDbLine
 10
14128.80217064596
 20
933.8747482146439
 30
0.0
 11
14200.80217064594
 21
912.4388128201532
 31
0.0
1001
AUTOCAD_POSTSCRIPT_FIGURE
1002
{
1000
PSFILL
1000
Grayscale
1000
Grayscale
1070
   100
1002
}
  0
LINE
  5
189C3
330
18745
100
AcDbEntity
  8
YODOROGO
100
AcDbLine
 10
14200.80217064594
 20
876.4388128201531
 30
0.0
 11
14128.80217064596
 21
897.8747482146435
 31
0.0
1001
AUTOCAD_POSTSCRIPT_FIGURE
1002
{
1000
PSFILL
1000
Grayscale
1000
Grayscale
1070
   100
1002
}
  0
LINE
  5
189C4
330
18745
100
AcDbEntity
  8
YODOROGO
100
AcDbLine
 10
14200.80217064594
 20
992.4388128201531
 30
0.0
 11
14128.80217064596
 21
1013.874748214644
 31
0.0
1001
AUTOCAD_POSTSCRIPT_FIGURE
1002
{
1000
PSFILL
1000
Grayscale
1000
Grayscale
1070
   100
1002
}
  0
LINE
  5
189C5
330
18745
100
AcDbEntity
  8
YODOROGO
100
AcDbLine
 10
14128.80217064596
 20
979.874748214644
 30
0.0
 11
14200.80217064594
 21
958.4388128201537
 31
0.0
1001
AUTOCAD_POSTSCRIPT_FIGURE
1002
{
1000
PSFILL
1000
Grayscale
1000
Grayscale
1070
   100
1002
}
  0
LINE
  5
189C6
330
18745
100
AcDbEntity
  8
YODOROGO
100
AcDbLine
 10
14128.80217064596
 20
897.8747482146435
 30
0.0
 11
14128.80217064596
 21
933.8747482146439
 31
0.0
1001
AUTOCAD_POSTSCRIPT_FIGURE
1002
{
1000
PSFILL
1000
Grayscale
1000
Grayscale
1070
   100
1002
}
  0
LINE
  5
189C7
330
18745
100
AcDbEntity
  8
YODOROGO
100
AcDbLine
 10
14128.80217064596
 20
1013.874748214644
 30
0.0
 11
14128.80217064596
 21
979.874748214644
 31
0.0
1001
AUTOCAD_POSTSCRIPT_FIGURE
1002
{
1000
PSFILL
1000
Grayscale
1000
Grayscale
1070
   100
1002
}
  0
LINE
  5
189C8
330
18745
100
AcDbEntity
  8
YODOROGO
100
AcDbLine
 10
14040.11816010337
 20
969.8747482146441
 30
0.0
 11
14064.80217064595
 21
873.8747482146434
 31
0.0
1001
AUTOCAD_POSTSCRIPT_FIGURE
1002
{
1000
PSFILL
1000
Grayscale
1000
Grayscale
1070
   100
1002
}
  0
LINE
  5
189C9
330
18745
100
AcDbEntity
  8
YODOROGO
100
AcDbLine
 10
13988.80217064596
 20
969.8747482146441
 30
0.0
 11
14040.11816010337
 21
969.8747482146441
 31
0.0
1001
AUTOCAD_POSTSCRIPT_FIGURE
1002
{
1000
PSFILL
1000
Grayscale
1000
Grayscale
1070
   100
1002
}
  0
LINE
  5
189CA
330
18745
100
AcDbEntity
  8
YODOROGO
100
AcDbLine
 10
13988.80217064596
 20
977.8747482146435
 30
0.0
 11
13988.80217064596
 21
969.8747482146441
 31
0.0
1001
AUTOCAD_POSTSCRIPT_FIGURE
1002
{
1000
PSFILL
1000
Grayscale
1000
Grayscale
1070
   100
1002
}
  0
LINE
  5
189CB
330
18745
100
AcDbEntity
  8
YODOROGO
100
AcDbLine
 10
14038.30343925995
 20
977.8747482146435
 30
0.0
 11
13988.80217064596
 21
977.8747482146435
 31
0.0
1001
AUTOCAD_POSTSCRIPT_FIGURE
1002
{
1000
PSFILL
1000
Grayscale
1000
Grayscale
1070
   100
1002
}
  0
LINE
  5
189CC
330
18745
100
AcDbEntity
  8
YODOROGO
100
AcDbLine
 10
14035.58135799485
 20
989.8747482146442
 30
0.0
 11
14038.30343925995
 21
977.8747482146435
 31
0.0
1001
AUTOCAD_POSTSCRIPT_FIGURE
1002
{
1000
PSFILL
1000
Grayscale
1000
Grayscale
1070
   100
1002
}
  0
LINE
  5
189CD
330
18745
100
AcDbEntity
  8
YODOROGO
100
AcDbLine
 10
14045.58135799485
 20
989.8747482146442
 30
0.0
 11
14035.58135799485
 21
989.8747482146442
 31
0.0
1001
AUTOCAD_POSTSCRIPT_FIGURE
1002
{
1000
PSFILL
1000
Grayscale
1000
Grayscale
1070
   100
1002
}
  0
LINE
  5
189CE
330
18745
100
AcDbEntity
  8
YODOROGO
100
AcDbLine
 10
14047.90343925997
 20
977.8747482146435
 30
0.0
 11
14045.58135799485
 21
989.8747482146442
 31
0.0
1001
AUTOCAD_POSTSCRIPT_FIGURE
1002
{
1000
PSFILL
1000
Grayscale
1000
Grayscale
1070
   100
1002
}
  0
LINE
  5
189CF
330
18745
100
AcDbEntity
  8
YODOROGO
100
AcDbLine
 10
14060.80217064596
 20
977.8747482146435
 30
0.0
 11
14047.90343925997
 21
977.8747482146435
 31
0.0
1001
AUTOCAD_POSTSCRIPT_FIGURE
1002
{
1000
PSFILL
1000
Grayscale
1000
Grayscale
1070
   100
1002
}
  0
LINE
  5
189D0
330
18745
100
AcDbEntity
  8
YODOROGO
100
AcDbLine
 10
14060.80217064596
 20
989.8747482146442
 30
0.0
 11
14060.80217064596
 21
977.8747482146435
 31
0.0
1001
AUTOCAD_POSTSCRIPT_FIGURE
1002
{
1000
PSFILL
1000
Grayscale
1000
Grayscale
1070
   100
1002
}
  0
LINE
  5
189D1
330
18745
100
AcDbEntity
  8
YODOROGO
100
AcDbLine
 10
14068.80217064596
 20
989.8747482146442
 30
0.0
 11
14060.80217064596
 21
989.8747482146442
 31
0.0
1001
AUTOCAD_POSTSCRIPT_FIGURE
1002
{
1000
PSFILL
1000
Grayscale
1000
Grayscale
1070
   100
1002
}
  0
LINE
  5
189D2
330
18745
100
AcDbEntity
  8
YODOROGO
100
AcDbLine
 10
14068.80217064596
 20
977.8747482146435
 30
0.0
 11
14068.80217064596
 21
989.8747482146442
 31
0.0
1001
AUTOCAD_POSTSCRIPT_FIGURE
1002
{
1000
PSFILL
1000
Grayscale
1000
Grayscale
1070
   100
1002
}
  0
LINE
  5
189D3
330
18745
100
AcDbEntity
  8
YODOROGO
100
AcDbLine
 10
14068.80217064596
 20
969.8747482146441
 30
0.0
 11
14068.80217064596
 21
977.8747482146435
 31
0.0
1001
AUTOCAD_POSTSCRIPT_FIGURE
1002
{
1000
PSFILL
1000
Grayscale
1000
Grayscale
1070
   100
1002
}
  0
LINE
  5
189D4
330
18745
100
AcDbEntity
  8
YODOROGO
100
AcDbLine
 10
14049.45149343671
 20
969.8747482146441
 30
0.0
 11
14068.80217064596
 21
969.8747482146441
 31
0.0
1001
AUTOCAD_POSTSCRIPT_FIGURE
1002
{
1000
PSFILL
1000
Grayscale
1000
Grayscale
1070
   100
1002
}
  0
LINE
  5
189D5
330
18745
100
AcDbEntity
  8
YODOROGO
100
AcDbLine
 10
14068.80217064596
 20
873.8747482146434
 30
0.0
 11
14049.45149343671
 21
969.8747482146441
 31
0.0
1001
AUTOCAD_POSTSCRIPT_FIGURE
1002
{
1000
PSFILL
1000
Grayscale
1000
Grayscale
1070
   100
1002
}
  0
LINE
  5
189D6
330
18745
100
AcDbEntity
  8
YODOROGO
100
AcDbLine
 10
14064.80217064595
 20
873.8747482146434
 30
0.0
 11
14068.80217064596
 21
873.8747482146434
 31
0.0
1001
AUTOCAD_POSTSCRIPT_FIGURE
1002
{
1000
PSFILL
1000
Grayscale
1000
Grayscale
1070
   100
1002
}
  0
LINE
  5
189D7
330
18745
100
AcDbEntity
  8
YODOROGO
100
AcDbLine
 10
14039.03460996689
 20
887.8703881493972
 30
0.0
 11
13988.80217064596
 21
873.8747482146434
 31
0.0
  0
LINE
  5
189D8
330
18745
100
AcDbEntity
  8
YODOROGO
100
AcDbLine
 10
14039.03460996689
 20
899.3344897645364
 30
0.0
 11
14039.03460996689
 21
887.8703881493972
 31
0.0
  0
LINE
  5
189D9
330
18745
100
AcDbEntity
  8
YODOROGO
100
AcDbLine
 10
14016.91839030643
 20
893.4084665668834
 30
0.0
 11
14039.03460996689
 21
899.3344897645364
 31
0.0
  0
LINE
  5
189DA
330
18745
100
AcDbEntity
  8
YODOROGO
100
AcDbLine
 10
14016.91839030643
 20
936.2841744681499
 30
0.0
 11
14016.91839030643
 21
893.4084665668834
 31
0.0
  0
LINE
  5
189DB
330
18745
100
AcDbEntity
  8
YODOROGO
100
AcDbLine
 10
14039.03460996689
 20
936.2841744681499
 30
0.0
 11
14016.91839030643
 21
936.2841744681499
 31
0.0
  0
LINE
  5
189DC
330
18745
100
AcDbEntity
  8
YODOROGO
100
AcDbLine
 10
14039.03460996689
 20
946.2841744681487
 30
0.0
 11
14039.03460996689
 21
936.2841744681499
 31
0.0
  0
LINE
  5
189DD
330
18745
100
AcDbEntity
  8
YODOROGO
100
AcDbLine
 10
13988.80217064596
 20
946.2841744681487
 30
0.0
 11
14039.03460996689
 21
946.2841744681487
 31
0.0
  0
LINE
  5
189DE
330
18745
100
AcDbEntity
  8
YODOROGO
100
AcDbLine
 10
13988.80217064596
 20
936.2841744681499
 30
0.0
 11
13988.80217064596
 21
946.2841744681487
 31
0.0
  0
LINE
  5
189DF
330
18745
100
AcDbEntity
  8
YODOROGO
100
AcDbLine
 10
14010.91839030643
 20
936.2841744681499
 30
0.0
 11
13988.80217064596
 21
936.2841744681499
 31
0.0
  0
LINE
  5
189E0
330
18745
100
AcDbEntity
  8
YODOROGO
100
AcDbLine
 10
14010.91839030643
 20
892.3366697971587
 30
0.0
 11
14010.91839030643
 21
936.2841744681499
 31
0.0
  0
LINE
  5
189E1
330
18745
100
AcDbEntity
  8
YODOROGO
100
AcDbLine
 10
13988.80217064596
 20
885.8747482146432
 30
0.0
 11
14010.91839030643
 21
892.3366697971587
 31
0.0
  0
LINE
  5
189E2
330
18745
100
AcDbEntity
  8
YODOROGO
100
AcDbLine
 10
13988.80217064596
 20
873.8747482146434
 30
0.0
 11
13988.80217064596
 21
885.8747482146432
 31
0.0
  0
LINE
  5
189E3
330
18745
100
AcDbEntity
  8
YODOROGO
100
AcDbLine
 10
14000.80217064596
 20
853.874748214644
 30
0.0
 11
14000.80217064596
 21
841.8747482146434
 31
0.0
  0
LINE
  5
189E4
330
18745
100
AcDbEntity
  8
YODOROGO
100
AcDbLine
 10
14000.80217064596
 20
853.874748214644
 30
0.0
 11
14000.80217064596
 21
853.874748214644
 31
0.0
  0
LINE
  5
189E5
330
18745
100
AcDbEntity
  8
YODOROGO
100
AcDbLine
 10
14008.80217064596
 20
853.874748214644
 30
0.0
 11
14000.80217064596
 21
853.874748214644
 31
0.0
  0
LINE
  5
189E6
330
18745
100
AcDbEntity
  8
YODOROGO
100
AcDbLine
 10
14008.80217064596
 20
841.8747482146434
 30
0.0
 11
14008.80217064596
 21
853.874748214644
 31
0.0
  0
LINE
  5
189E7
330
18745
100
AcDbEntity
  8
YODOROGO
100
AcDbLine
 10
14020.45660200844
 20
841.8747482146434
 30
0.0
 11
14008.80217064596
 21
841.8747482146434
 31
0.0
  0
LINE
  5
189E8
330
18745
100
AcDbEntity
  8
YODOROGO
100
AcDbLine
 10
14000.80217064596
 20
841.8747482146434
 30
0.0
 11
13988.80217064596
 21
841.8747482146434
 31
0.0
  0
LINE
  5
189E9
330
18745
100
AcDbEntity
  8
YODOROGO
100
AcDbLine
 10
14041.06776011546
 20
853.874748214644
 30
0.0
 11
14049.06776011545
 21
853.874748214644
 31
0.0
1001
AUTOCAD_POSTSCRIPT_FIGURE
1002
{
1000
PSFILL
1000
Grayscale
1000
Grayscale
1070
   100
1002
}
  0
LINE
  5
189EA
330
18745
100
AcDbEntity
  8
YODOROGO
100
AcDbLine
 10
14200.80217064594
 20
912.4388128201532
 30
0.0
 11
14200.80217064594
 21
876.4388128201531
 31
0.0
1001
AUTOCAD_POSTSCRIPT_FIGURE
1002
{
1000
PSFILL
1000
Grayscale
1000
Grayscale
1070
   100
1002
}
  0
LINE
  5
189EB
330
18745
100
AcDbEntity
  8
YODOROGO
100
AcDbLine
 10
14200.80217064594
 20
958.4388128201537
 30
0.0
 11
14200.80217064594
 21
992.4388128201531
 31
0.0
1001
AUTOCAD_POSTSCRIPT_FIGURE
1002
{
1000
PSFILL
1000
Grayscale
1000
Grayscale
1070
   100
1002
}
  0
LINE
  5
189EC
330
18745
100
AcDbEntity
  8
YODOROGO
100
AcDbLine
 10
14216.80217064594
 20
909.8747482146439
 30
0.0
 11
14216.80217064594
 21
873.8747482146449
 31
0.0
  0
LINE
  5
189ED
330
18745
100
AcDbEntity
  8
YODOROGO
100
AcDbLine
 10
14248.80217064594
 20
853.874748214644
 30
0.0
 11
14216.80217064594
 21
853.874748214644
 31
0.0
  0
LINE
  5
189EE
330
18745
100
AcDbEntity
  8
YODOROGO
100
AcDbLine
 10
14216.80217064594
 20
873.8747482146449
 30
0.0
 11
14292.80217064596
 21
873.8747482146449
 31
0.0
  0
LINE
  5
189EF
330
18745
100
AcDbEntity
  8
YODOROGO
100
AcDbLine
 10
14248.80217064594
 20
933.8747482146439
 30
0.0
 11
14216.80217064594
 21
933.8747482146439
 31
0.0
  0
LINE
  5
189F0
330
18745
100
AcDbEntity
  8
YODOROGO
100
AcDbLine
 10
14248.80217064594
 20
961.8747482146432
 30
0.0
 11
14248.80217064594
 21
933.8747482146439
 31
0.0
  0
LINE
  5
189F1
330
18745
100
AcDbEntity
  8
YODOROGO
100
AcDbLine
 10
14292.80217064596
 20
993.8747482146439
 30
0.0
 11
14292.80217064596
 21
1013.874748214644
 31
0.0
  0
LINE
  5
189F2
330
18745
100
AcDbEntity
  8
YODOROGO
100
AcDbLine
 10
14216.80217064594
 20
993.8747482146439
 30
0.0
 11
14292.80217064596
 21
993.8747482146439
 31
0.0
  0
LINE
  5
189F3
330
18745
100
AcDbEntity
  8
YODOROGO
100
AcDbLine
 10
14216.80217064594
 20
933.8747482146439
 30
0.0
 11
14216.80217064594
 21
993.8747482146439
 31
0.0
  0
LINE
  5
189F4
330
18745
100
AcDbEntity
  8
YODOROGO
100
AcDbLine
 10
14500.80217064594
 20
1013.874748214644
 30
0.0
 11
14500.80217064594
 21
809.8747482146441
 31
0.0
  0
LINE
  5
189F5
330
18745
100
AcDbEntity
  8
YODOROGO
100
AcDbLine
 10
14536.80217064596
 20
789.8747482146441
 30
0.0
 11
14536.80217064596
 21
1013.874748214644
 31
0.0
  0
LINE
  5
189F6
330
18745
100
AcDbEntity
  8
YODOROGO
100
AcDbLine
 10
14630.80217064596
 20
745.8747482146431
 30
0.0
 11
14630.80217064596
 21
1003.874748214644
 31
0.0
  0
LINE
  5
189F7
330
18745
100
AcDbEntity
  8
YODOROGO
100
AcDbLine
 10
14598.80217064596
 20
1003.874748214644
 30
0.0
 11
14598.80217064596
 21
745.8747482146431
 31
0.0
  0
LINE
  5
189F8
330
18745
100
AcDbEntity
  8
YODOROGO
100
AcDbLine
 10
14692.80217064596
 20
1013.874748214644
 30
0.0
 11
14692.80217064596
 21
713.8747482146436
 31
0.0
  0
LINE
  5
189F9
330
18745
100
AcDbEntity
  8
YODOROGO
100
AcDbLine
 10
14728.80217064596
 20
713.8747482146436
 30
0.0
 11
14728.80217064596
 21
1013.874748214644
 31
0.0
  0
LINE
  5
189FA
330
18745
100
AcDbEntity
  8
YODOROGO
100
AcDbLine
 10
14328.80217064594
 20
833.8747482146439
 30
0.0
 11
14328.80217064594
 21
873.8747482146449
 31
0.0
  0
LINE
  5
189FB
330
18745
100
AcDbEntity
  8
YODOROGO
100
AcDbLine
 10
14942.80217064596
 20
853.874748214644
 30
0.0
 11
14942.80217064596
 21
833.8747482146439
 31
0.0
  0
LINE
  5
189FC
330
18745
100
AcDbEntity
  8
YODOROGO
100
AcDbLine
 10
14942.80217064596
 20
853.874748214644
 30
0.0
 11
14942.80217064596
 21
833.8747482146439
 31
0.0
  0
ARC
  5
189FD
330
18745
100
AcDbEntity
  8
YODOROGO
100
AcDbCircle
 10
14453.45578809342
 20
809.1089322211363
 30
0.0
 40
47.35257558937082
100
AcDbArc
 50
274.052441629071
 51
0.9266642149310712
  0
ARC
  5
189FE
330
18745
100
AcDbEntity
  8
YODOROGO
100
AcDbCircle
 10
14454.5930853599
 20
796.30536430522
 30
0.0
 40
82.46021178042756
100
AcDbArc
 50
271.5351210653777
 51
355.5272775058505
  0
LINE
  5
189FF
330
18745
100
AcDbEntity
  8
YODOROGO
100
AcDbLine
 10
14456.80217064596
 20
761.8747482146434
 30
0.0
 11
14456.80217064596
 21
713.8747482146436
 31
0.0
  0
LINE
  5
18A00
330
18745
100
AcDbEntity
  8
YODOROGO
100
AcDbLine
 10
14396.80217064594
 20
833.8747482146439
 30
0.0
 11
14328.80217064594
 21
833.8747482146439
 31
0.0
  0
LINE
  5
18A01
330
18745
100
AcDbEntity
  8
YODOROGO
100
AcDbLine
 10
14396.80217064594
 20
801.8747482146444
 30
0.0
 11
14396.80217064594
 21
833.8747482146439
 31
0.0
  0
LINE
  5
18A02
330
18745
100
AcDbEntity
  8
YODOROGO
100
AcDbLine
 10
14328.80217064594
 20
801.8747482146444
 30
0.0
 11
14396.80217064594
 21
801.8747482146444
 31
0.0
  0
LINE
  5
18A03
330
18745
100
AcDbEntity
  8
YODOROGO
100
AcDbLine
 10
14328.80217064594
 20
761.8747482146434
 30
0.0
 11
14328.80217064594
 21
801.8747482146444
 31
0.0
  0
LINE
  5
18A04
330
18745
100
AcDbEntity
  8
YODOROGO
100
AcDbLine
 10
14396.80217064594
 20
761.8747482146434
 30
0.0
 11
14328.80217064594
 21
761.8747482146434
 31
0.0
  0
LINE
  5
18A05
330
18745
100
AcDbEntity
  8
YODOROGO
100
AcDbLine
 10
14396.80217064594
 20
713.8747482146436
 30
0.0
 11
14396.80217064594
 21
761.8747482146434
 31
0.0
  0
LINE
  5
18A06
330
18745
100
AcDbEntity
  8
YODOROGO
100
AcDbLine
 10
14598.80217064596
 20
745.8747482146431
 30
0.0
 11
14630.80217064596
 21
745.8747482146431
 31
0.0
  0
LINE
  5
18A07
330
18745
100
AcDbEntity
  8
YODOROGO
100
AcDbLine
 10
14692.80217064596
 20
713.8747482146436
 30
0.0
 11
14728.80217064596
 21
713.8747482146436
 31
0.0
  0
LINE
  5
18A08
330
18745
100
AcDbEntity
  8
YODOROGO
100
AcDbLine
 10
14868.80217064596
 20
764.2207260852818
 30
0.0
 11
14868.80217064596
 21
713.8747482146436
 31
0.0
  0
LINE
  5
18A09
330
18745
100
AcDbEntity
  8
YODOROGO
100
AcDbLine
 10
14808.80217064596
 20
713.8747482146436
 30
0.0
 11
14868.80217064596
 21
764.2207260852818
 31
0.0
  0
LINE
  5
18A0A
330
18745
100
AcDbEntity
  8
YODOROGO
100
AcDbLine
 10
14808.80217064596
 20
773.874748214644
 30
0.0
 11
14808.80217064596
 21
713.8747482146436
 31
0.0
  0
LINE
  5
18A0B
330
18745
100
AcDbEntity
  8
YODOROGO
100
AcDbLine
 10
14856.47231434973
 20
813.8747482146435
 30
0.0
 11
14808.80217064596
 21
773.874748214644
 31
0.0
  0
LINE
  5
18A0C
330
18745
100
AcDbEntity
  8
YODOROGO
100
AcDbLine
 10
14808.80217064596
 20
813.8747482146435
 30
0.0
 11
14856.47231434973
 21
813.8747482146435
 31
0.0
  0
LINE
  5
18A0D
330
18745
100
AcDbEntity
  8
YODOROGO
100
AcDbLine
 10
14808.80217064596
 20
833.8747482146439
 30
0.0
 11
14808.80217064596
 21
813.8747482146435
 31
0.0
  0
LINE
  5
18A0E
330
18745
100
AcDbEntity
  8
YODOROGO
100
AcDbLine
 10
14942.80217064596
 20
833.8747482146439
 30
0.0
 11
14808.80217064596
 21
833.8747482146439
 31
0.0
  0
LINE
  5
18A0F
330
18745
100
AcDbEntity
  8
YODOROGO
100
AcDbLine
 10
14958.80217064596
 20
813.8747482146435
 30
0.0
 11
14888.80217064596
 21
813.8747482146435
 31
0.0
  0
LINE
  5
18A10
330
18745
100
AcDbEntity
  8
YODOROGO
100
AcDbLine
 10
14888.80217064596
 20
781.0027187088283
 30
0.0
 11
14885.70493649264
 21
778.403830673117
 31
0.0
  0
LINE
  5
18A11
330
18745
100
AcDbEntity
  8
YODOROGO
100
AcDbLine
 10
14888.80217064596
 20
813.8747482146435
 30
0.0
 11
14888.80217064596
 21
781.0027187088283
 31
0.0
  0
LINE
  5
18A12
330
18745
100
AcDbEntity
  8
YODOROGO
100
AcDbLine
 10
14868.80217064596
 20
764.2207260852818
 30
0.0
 11
14868.80217064596
 21
713.8747482146436
 31
0.0
  0
LINE
  5
18A13
330
18745
100
AcDbEntity
  8
YODOROGO
100
AcDbLine
 10
14808.80217064596
 20
713.8747482146436
 30
0.0
 11
14868.80217064596
 21
764.2207260852818
 31
0.0
  0
LINE
  5
18A14
330
18745
100
AcDbEntity
  8
YODOROGO
100
AcDbLine
 10
14808.80217064596
 20
773.874748214644
 30
0.0
 11
14808.80217064596
 21
713.8747482146436
 31
0.0
  0
LINE
  5
18A15
330
18745
100
AcDbEntity
  8
YODOROGO
100
AcDbLine
 10
14856.47231434973
 20
813.8747482146435
 30
0.0
 11
14808.80217064596
 21
773.874748214644
 31
0.0
  0
LINE
  5
18A16
330
18745
100
AcDbEntity
  8
YODOROGO
100
AcDbLine
 10
14808.80217064596
 20
813.8747482146435
 30
0.0
 11
14856.47231434973
 21
813.8747482146435
 31
0.0
  0
LINE
  5
18A17
330
18745
100
AcDbEntity
  8
YODOROGO
100
AcDbLine
 10
14808.80217064596
 20
833.8747482146439
 30
0.0
 11
14808.80217064596
 21
813.8747482146435
 31
0.0
  0
LINE
  5
18A18
330
18745
100
AcDbEntity
  8
YODOROGO
100
AcDbLine
 10
14942.80217064596
 20
833.8747482146439
 30
0.0
 11
14808.80217064596
 21
833.8747482146439
 31
0.0
  0
LINE
  5
18A19
330
18745
100
AcDbEntity
  8
YODOROGO
100
AcDbLine
 10
14396.80217064594
 20
873.8747482146449
 30
0.0
 11
14396.80217064594
 21
909.8747482146439
 31
0.0
  0
LINE
  5
18A1A
330
18745
100
AcDbEntity
  8
YODOROGO
100
AcDbLine
 10
14328.80217064594
 20
873.8747482146449
 30
0.0
 11
14396.80217064594
 21
873.8747482146449
 31
0.0
  0
LINE
  5
18A1B
330
18745
100
AcDbEntity
  8
YODOROGO
100
AcDbLine
 10
14364.80217064596
 20
933.8747482146439
 30
0.0
 11
14364.80217064596
 21
961.8747482146432
 31
0.0
  0
LINE
  5
18A1C
330
18745
100
AcDbEntity
  8
YODOROGO
100
AcDbLine
 10
14396.80217064594
 20
933.8747482146439
 30
0.0
 11
14364.80217064596
 21
933.8747482146439
 31
0.0
  0
LINE
  5
18A1D
330
18745
100
AcDbEntity
  8
YODOROGO
100
AcDbLine
 10
14396.80217064594
 20
973.8747482146434
 30
0.0
 11
14396.80217064594
 21
933.8747482146439
 31
0.0
  0
ARC
  5
18A1E
330
18745
100
AcDbEntity
  8
YODOROGO
100
AcDbCircle
 10
14376.80217064594
 20
973.8747482146434
 30
0.0
 40
20.0
100
AcDbArc
 50
0.0
 51
90.0
  0
LINE
  5
18A1F
330
18745
100
AcDbEntity
  8
YODOROGO
100
AcDbLine
 10
14328.80217064596
 20
993.8747482146439
 30
0.0
 11
14376.80217064594
 21
993.8747482146439
 31
0.0
  0
LINE
  5
18A20
330
18745
100
AcDbEntity
  8
YODOROGO
100
AcDbLine
 10
14328.80217064596
 20
1013.874748214644
 30
0.0
 11
14328.80217064596
 21
993.8747482146439
 31
0.0
  0
LINE
  5
18A21
330
18745
100
AcDbEntity
  8
YODOROGO
100
AcDbLine
 10
14536.80217064596
 20
1013.874748214644
 30
0.0
 11
14500.80217064594
 21
1013.874748214644
 31
0.0
  0
LINE
  5
18A22
330
18745
100
AcDbEntity
  8
YODOROGO
100
AcDbLine
 10
14630.80217064596
 20
1003.874748214644
 30
0.0
 11
14598.80217064596
 21
1003.874748214644
 31
0.0
  0
LINE
  5
18A23
330
18745
100
AcDbEntity
  8
YODOROGO
100
AcDbLine
 10
14728.80217064596
 20
1013.874748214644
 30
0.0
 11
14692.80217064596
 21
1013.874748214644
 31
0.0
  0
LINE
  5
18A24
330
18745
100
AcDbEntity
  8
YODOROGO
100
AcDbLine
 10
14836.80217064596
 20
853.874748214644
 30
0.0
 11
14836.80217064596
 21
885.8747482146441
 31
0.0
1001
AUTOCAD_POSTSCRIPT_FIGURE
1002
{
1000
PSFILL
1000
Grayscale
1000
Grayscale
1070
    25
1002
}
  0
LINE
  5
18A25
330
18745
100
AcDbEntity
  8
YODOROGO
100
AcDbLine
 10
14808.80217064596
 20
853.874748214644
 30
0.0
 11
14836.80217064596
 21
853.874748214644
 31
0.0
1001
AUTOCAD_POSTSCRIPT_FIGURE
1002
{
1000
PSFILL
1000
Grayscale
1000
Grayscale
1070
    25
1002
}
  0
LINE
  5
18A26
330
18745
100
AcDbEntity
  8
YODOROGO
100
AcDbLine
 10
14808.80217064596
 20
909.8747482146439
 30
0.0
 11
14808.80217064596
 21
853.874748214644
 31
0.0
1001
AUTOCAD_POSTSCRIPT_FIGURE
1002
{
1000
PSFILL
1000
Grayscale
1000
Grayscale
1070
    25
1002
}
  0
LINE
  5
18A27
330
18745
100
AcDbEntity
  8
YODOROGO
100
AcDbLine
 10
14882.80217064596
 20
909.8747482146439
 30
0.0
 11
14808.80217064596
 21
909.8747482146439
 31
0.0
1001
AUTOCAD_POSTSCRIPT_FIGURE
1002
{
1000
PSFILL
1000
Grayscale
1000
Grayscale
1070
    25
1002
}
  0
LINE
  5
18A28
330
18745
100
AcDbEntity
  8
YODOROGO
100
AcDbLine
 10
14882.80217064596
 20
929.874748214644
 30
0.0
 11
14882.80217064596
 21
909.8747482146439
 31
0.0
1001
AUTOCAD_POSTSCRIPT_FIGURE
1002
{
1000
PSFILL
1000
Grayscale
1000
Grayscale
1070
    25
1002
}
  0
LINE
  5
18A29
330
18745
100
AcDbEntity
  8
YODOROGO
100
AcDbLine
 10
14808.80217064596
 20
929.874748214644
 30
0.0
 11
14882.80217064596
 21
929.874748214644
 31
0.0
1001
AUTOCAD_POSTSCRIPT_FIGURE
1002
{
1000
PSFILL
1000
Grayscale
1000
Grayscale
1070
    25
1002
}
  0
LINE
  5
18A2A
330
18745
100
AcDbEntity
  8
YODOROGO
100
AcDbLine
 10
14808.80217064596
 20
953.874748214644
 30
0.0
 11
14808.80217064596
 21
929.874748214644
 31
0.0
1001
AUTOCAD_POSTSCRIPT_FIGURE
1002
{
1000
PSFILL
1000
Grayscale
1000
Grayscale
1070
    25
1002
}
  0
LINE
  5
18A2B
330
18745
100
AcDbEntity
  8
YODOROGO
100
AcDbLine
 10
14882.80217064596
 20
953.874748214644
 30
0.0
 11
14808.80217064596
 21
953.874748214644
 31
0.0
1001
AUTOCAD_POSTSCRIPT_FIGURE
1002
{
1000
PSFILL
1000
Grayscale
1000
Grayscale
1070
    25
1002
}
  0
LINE
  5
18A2C
330
18745
100
AcDbEntity
  8
YODOROGO
100
AcDbLine
 10
14882.80217064596
 20
973.8747482146434
 30
0.0
 11
14882.80217064596
 21
953.874748214644
 31
0.0
1001
AUTOCAD_POSTSCRIPT_FIGURE
1002
{
1000
PSFILL
1000
Grayscale
1000
Grayscale
1070
    25
1002
}
  0
LINE
  5
18A2D
330
18745
100
AcDbEntity
  8
YODOROGO
100
AcDbLine
 10
14808.80217064596
 20
973.8747482146434
 30
0.0
 11
14882.80217064596
 21
973.8747482146434
 31
0.0
1001
AUTOCAD_POSTSCRIPT_FIGURE
1002
{
1000
PSFILL
1000
Grayscale
1000
Grayscale
1070
    25
1002
}
  0
LINE
  5
18A2E
330
18745
100
AcDbEntity
  8
YODOROGO
100
AcDbLine
 10
14808.80217064596
 20
1013.874748214644
 30
0.0
 11
14808.80217064596
 21
973.8747482146434
 31
0.0
1001
AUTOCAD_POSTSCRIPT_FIGURE
1002
{
1000
PSFILL
1000
Grayscale
1000
Grayscale
1070
    25
1002
}
  0
LINE
  5
18A2F
330
18745
100
AcDbEntity
  8
YODOROGO
100
AcDbLine
 10
14832.80217064596
 20
1013.874748214644
 30
0.0
 11
14808.80217064596
 21
1013.874748214644
 31
0.0
1001
AUTOCAD_POSTSCRIPT_FIGURE
1002
{
1000
PSFILL
1000
Grayscale
1000
Grayscale
1070
    25
1002
}
  0
LINE
  5
18A30
330
18745
100
AcDbEntity
  8
YODOROGO
100
AcDbLine
 10
14832.80217064596
 20
997.8747482146435
 30
0.0
 11
14832.80217064596
 21
1013.874748214644
 31
0.0
1001
AUTOCAD_POSTSCRIPT_FIGURE
1002
{
1000
PSFILL
1000
Grayscale
1000
Grayscale
1070
    25
1002
}
  0
LINE
  5
18A31
330
18745
100
AcDbEntity
  8
YODOROGO
100
AcDbLine
 10
14882.80217064596
 20
997.8747482146435
 30
0.0
 11
14832.80217064596
 21
997.8747482146435
 31
0.0
1001
AUTOCAD_POSTSCRIPT_FIGURE
1002
{
1000
PSFILL
1000
Grayscale
1000
Grayscale
1070
    25
1002
}
  0
LINE
  5
18A32
330
18745
100
AcDbEntity
  8
YODOROGO
100
AcDbLine
 10
14882.80217064596
 20
1013.874748214644
 30
0.0
 11
14882.80217064596
 21
997.8747482146435
 31
0.0
1001
AUTOCAD_POSTSCRIPT_FIGURE
1002
{
1000
PSFILL
1000
Grayscale
1000
Grayscale
1070
    25
1002
}
  0
LINE
  5
18A33
330
18745
100
AcDbEntity
  8
YODOROGO
100
AcDbLine
 10
14914.80217064596
 20
1013.874748214644
 30
0.0
 11
14882.80217064596
 21
1013.874748214644
 31
0.0
1001
AUTOCAD_POSTSCRIPT_FIGURE
1002
{
1000
PSFILL
1000
Grayscale
1000
Grayscale
1070
    25
1002
}
  0
LINE
  5
18A34
330
18745
100
AcDbEntity
  8
YODOROGO
100
AcDbLine
 10
14914.80217064596
 20
997.8747482146435
 30
0.0
 11
14914.80217064596
 21
1013.874748214644
 31
0.0
1001
AUTOCAD_POSTSCRIPT_FIGURE
1002
{
1000
PSFILL
1000
Grayscale
1000
Grayscale
1070
    25
1002
}
  0
LINE
  5
18A35
330
18745
100
AcDbEntity
  8
YODOROGO
100
AcDbLine
 10
14914.80217064596
 20
953.874748214644
 30
0.0
 11
14914.80217064596
 21
973.8747482146434
 31
0.0
1001
AUTOCAD_POSTSCRIPT_FIGURE
1002
{
1000
PSFILL
1000
Grayscale
1000
Grayscale
1070
    25
1002
}
  0
LINE
  5
18A36
330
18745
100
AcDbEntity
  8
YODOROGO
100
AcDbLine
 10
14914.80217064596
 20
909.8747482146439
 30
0.0
 11
14914.80217064596
 21
929.874748214644
 31
0.0
1001
AUTOCAD_POSTSCRIPT_FIGURE
1002
{
1000
PSFILL
1000
Grayscale
1000
Grayscale
1070
    25
1002
}
  0
LINE
  5
18A37
330
18745
100
AcDbEntity
  8
YODOROGO
100
AcDbLine
 10
14960.80217064594
 20
885.8747482146441
 30
0.0
 11
14960.80217064594
 21
853.874748214644
 31
0.0
1001
AUTOCAD_POSTSCRIPT_FIGURE
1002
{
1000
PSFILL
1000
Grayscale
1000
Grayscale
1070
    25
1002
}
  0
LINE
  5
18A38
330
18745
100
AcDbEntity
  8
YODOROGO
100
AcDbLine
 10
14914.80217064596
 20
885.8747482146441
 30
0.0
 11
14960.80217064594
 21
885.8747482146441
 31
0.0
1001
AUTOCAD_POSTSCRIPT_FIGURE
1002
{
1000
PSFILL
1000
Grayscale
1000
Grayscale
1070
    25
1002
}
  0
LINE
  5
18A39
330
18745
100
AcDbEntity
  8
YODOROGO
100
AcDbLine
 10
14914.80217064596
 20
853.874748214644
 30
0.0
 11
14914.80217064596
 21
885.8747482146441
 31
0.0
1001
AUTOCAD_POSTSCRIPT_FIGURE
1002
{
1000
PSFILL
1000
Grayscale
1000
Grayscale
1070
    25
1002
}
  0
LINE
  5
18A3A
330
18745
100
AcDbEntity
  8
YODOROGO
100
AcDbLine
 10
14882.80217064596
 20
853.874748214644
 30
0.0
 11
14914.80217064596
 21
853.874748214644
 31
0.0
1001
AUTOCAD_POSTSCRIPT_FIGURE
1002
{
1000
PSFILL
1000
Grayscale
1000
Grayscale
1070
    25
1002
}
  0
LINE
  5
18A3B
330
18745
100
AcDbEntity
  8
YODOROGO
100
AcDbLine
 10
14882.80217064596
 20
885.8747482146441
 30
0.0
 11
14882.80217064596
 21
853.874748214644
 31
0.0
1001
AUTOCAD_POSTSCRIPT_FIGURE
1002
{
1000
PSFILL
1000
Grayscale
1000
Grayscale
1070
    25
1002
}
  0
LINE
  5
18A3C
330
18745
100
AcDbEntity
  8
YODOROGO
100
AcDbLine
 10
14836.80217064596
 20
885.8747482146441
 30
0.0
 11
14882.80217064596
 21
885.8747482146441
 31
0.0
1001
AUTOCAD_POSTSCRIPT_FIGURE
1002
{
1000
PSFILL
1000
Grayscale
1000
Grayscale
1070
    25
1002
}
  0
ARC
  5
18A3D
330
18745
100
AcDbEntity
  8
YODOROGO
100
AcDbCircle
 10
15529.75894667896
 20
801.3403687577881
 30
0.0
 40
89.11064055536078
100
AcDbArc
 50
281.0262749542535
 51
357.771135755738
  0
LINE
  5
18A3E
330
18745
100
AcDbEntity
  8
YODOROGO
100
AcDbLine
 10
15706.80217064596
 20
953.874748214644
 30
0.0
 11
15582.80217064596
 21
953.874748214644
 31
0.0
  0
LINE
  5
18A3F
330
18745
100
AcDbEntity
  8
YODOROGO
100
AcDbLine
 10
15706.80217064596
 20
1013.874748214644
 30
0.0
 11
15582.80217064596
 21
1013.874748214644
 31
0.0
  0
LINE
  5
18A40
330
18745
100
AcDbEntity
  8
YODOROGO
100
AcDbLine
 10
15582.80217064596
 20
981.8747482146434
 30
0.0
 11
15706.80217064596
 21
981.8747482146434
 31
0.0
  0
LINE
  5
18A41
330
18745
100
AcDbEntity
  8
YODOROGO
100
AcDbLine
 10
15395.80217064596
 20
781.8747482146434
 30
0.0
 11
15395.80217064596
 21
877.8747482146435
 31
0.0
  0
LINE
  5
18A42
330
18745
100
AcDbEntity
  8
YODOROGO
100
AcDbLine
 10
15381.80217064596
 20
845.8747482146444
 30
0.0
 11
15381.80217064596
 21
781.8747482146434
 31
0.0
  0
LINE
  5
18A43
330
18745
100
AcDbEntity
  8
YODOROGO
100
AcDbLine
 10
15361.80217064596
 20
745.8747482146443
 30
0.0
 11
15361.80217064596
 21
845.8747482146444
 31
0.0
  0
LINE
  5
18A44
330
18745
100
AcDbEntity
  8
YODOROGO
100
AcDbLine
 10
15449.80217064596
 20
845.8747482146444
 30
0.0
 11
15449.80217064596
 21
745.8747482146443
 31
0.0
  0
LINE
  5
18A45
330
18745
100
AcDbEntity
  8
YODOROGO
100
AcDbLine
 10
15429.80217064596
 20
781.8747482146434
 30
0.0
 11
15429.80217064596
 21
845.8747482146444
 31
0.0
  0
LINE
  5
18A46
330
18745
100
AcDbEntity
  8
YODOROGO
100
AcDbLine
 10
15415.80217064596
 20
877.8747482146435
 30
0.0
 11
15415.80217064596
 21
781.8747482146434
 31
0.0
  0
LINE
  5
18A47
330
18745
100
AcDbEntity
  8
YODOROGO
100
AcDbLine
 10
15486.80217064596
 20
1013.874748214644
 30
0.0
 11
15486.80217064596
 21
733.8747482146435
 31
0.0
  0
LINE
  5
18A48
330
18745
100
AcDbEntity
  8
YODOROGO
100
AcDbLine
 10
15322.80217064596
 20
713.8747482146436
 30
0.0
 11
15322.80217064596
 21
1013.874748214644
 31
0.0
  0
LINE
  5
18A49
330
18745
100
AcDbEntity
  8
YODOROGO
100
AcDbLine
 10
15348.80217064596
 20
981.8747482146434
 30
0.0
 11
15348.80217064596
 21
713.8747482146436
 31
0.0
  0
LINE
  5
18A4A
330
18745
100
AcDbEntity
  8
YODOROGO
100
AcDbLine
 10
15462.80217064596
 20
773.874748214644
 30
0.0
 11
15462.80217064596
 21
981.8747482146434
 31
0.0
  0
LINE
  5
18A4B
330
18745
100
AcDbEntity
  8
YODOROGO
100
AcDbLine
 10
15190.80217064596
 20
813.8747482146435
 30
0.0
 11
15190.80217064596
 21
839.8747482146442
 31
0.0
  0
LINE
  5
18A4C
330
18745
100
AcDbEntity
  8
YODOROGO
100
AcDbLine
 10
15308.80217064596
 20
839.8747482146442
 30
0.0
 11
15308.80217064596
 21
813.8747482146435
 31
0.0
  0
LINE
  5
18A4D
330
18745
100
AcDbEntity
  8
YODOROGO
100
AcDbLine
 10
15582.80217064596
 20
953.874748214644
 30
0.0
 11
15582.80217064596
 21
817.8747482146436
 31
0.0
  0
LINE
  5
18A4E
330
18745
100
AcDbEntity
  8
YODOROGO
100
AcDbLine
 10
14974.80217064595
 20
833.8747482146439
 30
0.0
 11
14974.80217064595
 21
853.874748214644
 31
0.0
  0
LINE
  5
18A4F
330
18745
100
AcDbEntity
  8
YODOROGO
100
AcDbLine
 10
14974.80217064595
 20
833.8747482146439
 30
0.0
 11
14974.80217064595
 21
853.874748214644
 31
0.0
  0
ARC
  5
18A50
330
18745
100
AcDbEntity
  8
YODOROGO
100
AcDbCircle
 10
15268.80217064596
 20
753.8747482146439
 30
0.0
 40
40.0
100
AcDbArc
 50
270.0
 51
0.0
  0
LINE
  5
18A51
330
18745
100
AcDbEntity
  8
YODOROGO
100
AcDbLine
 10
15284.80217064596
 20
799.8747482146441
 30
0.0
 11
15308.80217064596
 21
799.8747482146441
 31
0.0
  0
LINE
  5
18A52
330
18745
100
AcDbEntity
  8
YODOROGO
100
AcDbLine
 10
15308.80217064596
 20
813.8747482146435
 30
0.0
 11
15264.80217064596
 21
813.8747482146435
 31
0.0
  0
LINE
  5
18A53
330
18745
100
AcDbEntity
  8
YODOROGO
100
AcDbLine
 10
15108.80217064596
 20
833.8747482146439
 30
0.0
 11
14974.80217064595
 21
833.8747482146439
 31
0.0
  0
LINE
  5
18A54
330
18745
100
AcDbEntity
  8
YODOROGO
100
AcDbLine
 10
15108.80217064596
 20
813.8747482146435
 30
0.0
 11
15108.80217064596
 21
833.8747482146439
 31
0.0
  0
LINE
  5
18A55
330
18745
100
AcDbEntity
  8
YODOROGO
100
AcDbLine
 10
15008.80217064596
 20
813.8747482146435
 30
0.0
 11
15108.80217064596
 21
813.8747482146435
 31
0.0
  0
ARC
  5
18A56
330
18745
100
AcDbEntity
  8
YODOROGO
100
AcDbCircle
 10
15115.02941435068
 20
934.4428574764513
 30
0.0
 40
160.6888181426141
100
AcDbArc
 50
228.6181454618993
 51
245.660289248906
  0
LINE
  5
18A57
330
18745
100
AcDbEntity
  8
YODOROGO
100
AcDbLine
 10
15052.80217064596
 20
801.8747482146444
 30
0.0
 11
15048.80217064598
 21
788.0364079349501
 31
0.0
  0
LINE
  5
18A58
330
18745
100
AcDbEntity
  8
YODOROGO
100
AcDbLine
 10
15094.80217064596
 20
801.8747482146444
 30
0.0
 11
15052.80217064596
 21
801.8747482146444
 31
0.0
  0
LINE
  5
18A59
330
18745
100
AcDbEntity
  8
YODOROGO
100
AcDbLine
 10
15088.80217064596
 20
775.9088612367134
 30
0.0
 11
15094.80217064596
 21
801.8747482146444
 31
0.0
  0
ARC
  5
18A5A
330
18745
100
AcDbEntity
  8
YODOROGO
100
AcDbCircle
 10
15115.02941435023
 20
934.4428574765014
 30
0.0
 40
160.6888181426453
100
AcDbArc
 50
260.6062929796992
 51
267.7790355655586
  0
LINE
  5
18A5B
330
18745
100
AcDbEntity
  8
YODOROGO
100
AcDbLine
 10
15108.80217064596
 20
713.8747482146428
 30
0.0
 11
15108.80217064596
 21
773.874748214644
 31
0.0
  0
LINE
  5
18A5C
330
18745
100
AcDbEntity
  8
YODOROGO
100
AcDbLine
 10
14968.80217064596
 20
740.6696674577553
 30
0.0
 11
14968.80217064596
 21
797.2655452655705
 31
0.0
  0
LINE
  5
18A5D
330
18745
100
AcDbEntity
  8
YODOROGO
100
AcDbLine
 10
15108.80217064596
 20
833.8747482146439
 30
0.0
 11
14974.80217064595
 21
833.8747482146439
 31
0.0
  0
LINE
  5
18A5E
330
18745
100
AcDbEntity
  8
YODOROGO
100
AcDbLine
 10
15108.80217064596
 20
813.8747482146435
 30
0.0
 11
15108.80217064596
 21
833.8747482146439
 31
0.0
  0
LINE
  5
18A5F
330
18745
100
AcDbEntity
  8
YODOROGO
100
AcDbLine
 10
15008.80217064596
 20
813.8747482146435
 30
0.0
 11
15108.80217064596
 21
813.8747482146435
 31
0.0
  0
ARC
  5
18A60
330
18745
100
AcDbEntity
  8
YODOROGO
100
AcDbCircle
 10
15115.02941435068
 20
934.4428574764513
 30
0.0
 40
160.6888181426141
100
AcDbArc
 50
228.6181454618993
 51
245.660289248906
  0
LINE
  5
18A61
330
18745
100
AcDbEntity
  8
YODOROGO
100
AcDbLine
 10
15052.80217064596
 20
801.8747482146444
 30
0.0
 11
15048.80217064598
 21
788.0364079349501
 31
0.0
  0
LINE
  5
18A62
330
18745
100
AcDbEntity
  8
YODOROGO
100
AcDbLine
 10
15094.80217064596
 20
801.8747482146444
 30
0.0
 11
15052.80217064596
 21
801.8747482146444
 31
0.0
  0
LINE
  5
18A63
330
18745
100
AcDbEntity
  8
YODOROGO
100
AcDbLine
 10
15088.80217064596
 20
775.9088612367134
 30
0.0
 11
15094.80217064596
 21
801.8747482146444
 31
0.0
  0
ARC
  5
18A64
330
18745
100
AcDbEntity
  8
YODOROGO
100
AcDbCircle
 10
15115.02941435023
 20
934.4428574765014
 30
0.0
 40
160.6888181426453
100
AcDbArc
 50
260.6062929796992
 51
267.7790355655586
  0
LINE
  5
18A65
330
18745
100
AcDbEntity
  8
YODOROGO
100
AcDbLine
 10
15108.80217064596
 20
713.8747482146428
 30
0.0
 11
15108.80217064596
 21
773.874748214644
 31
0.0
  0
LINE
  5
18A66
330
18745
100
AcDbEntity
  8
YODOROGO
100
AcDbLine
 10
14968.80217064596
 20
740.6696674577553
 30
0.0
 11
14968.80217064596
 21
797.2655452655705
 31
0.0
  0
LINE
  5
18A67
330
18745
100
AcDbEntity
  8
YODOROGO
100
AcDbLine
 10
15216.80217064596
 20
786.8747482146444
 30
0.0
 11
15190.80217064596
 21
786.8747482146444
 31
0.0
  0
LINE
  5
18A68
330
18745
100
AcDbEntity
  8
YODOROGO
100
AcDbLine
 10
15216.80217064596
 20
800.8747482146432
 30
0.0
 11
15216.80217064596
 21
786.8747482146444
 31
0.0
  0
LINE
  5
18A69
330
18745
100
AcDbEntity
  8
YODOROGO
100
AcDbLine
 10
15190.80217064596
 20
800.8747482146432
 30
0.0
 11
15216.80217064596
 21
800.8747482146432
 31
0.0
  0
LINE
  5
18A6A
330
18745
100
AcDbEntity
  8
YODOROGO
100
AcDbLine
 10
15190.80217064596
 20
786.8747482146444
 30
0.0
 11
15190.80217064596
 21
800.8747482146432
 31
0.0
  0
LINE
  5
18A6B
330
18745
100
AcDbEntity
  8
YODOROGO
100
AcDbLine
 10
15214.80217064596
 20
788.8747482146436
 30
0.0
 11
15192.80217064595
 21
788.8747482146436
 31
0.0
  0
LINE
  5
18A6C
330
18745
100
AcDbEntity
  8
YODOROGO
100
AcDbLine
 10
15214.80217064596
 20
798.874748214644
 30
0.0
 11
15214.80217064596
 21
788.8747482146436
 31
0.0
  0
LINE
  5
18A6D
330
18745
100
AcDbEntity
  8
YODOROGO
100
AcDbLine
 10
15192.80217064595
 20
798.874748214644
 30
0.0
 11
15214.80217064596
 21
798.874748214644
 31
0.0
  0
LINE
  5
18A6E
330
18745
100
AcDbEntity
  8
YODOROGO
100
AcDbLine
 10
15192.80217064595
 20
788.8747482146436
 30
0.0
 11
15192.80217064595
 21
798.874748214644
 31
0.0
  0
LINE
  5
18A6F
330
18745
100
AcDbEntity
  8
YODOROGO
100
AcDbLine
 10
15212.80217064596
 20
790.8747482146432
 30
0.0
 11
15194.80217064596
 21
790.8747482146432
 31
0.0
  0
LINE
  5
18A70
330
18745
100
AcDbEntity
  8
YODOROGO
100
AcDbLine
 10
15212.80217064596
 20
796.8747482146445
 30
0.0
 11
15212.80217064596
 21
790.8747482146432
 31
0.0
  0
LINE
  5
18A71
330
18745
100
AcDbEntity
  8
YODOROGO
100
AcDbLine
 10
15194.80217064596
 20
796.8747482146445
 30
0.0
 11
15212.80217064596
 21
796.8747482146445
 31
0.0
  0
LINE
  5
18A72
330
18745
100
AcDbEntity
  8
YODOROGO
100
AcDbLine
 10
15194.80217064596
 20
790.8747482146432
 30
0.0
 11
15194.80217064596
 21
796.8747482146445
 31
0.0
  0
LINE
  5
18A73
330
18745
100
AcDbEntity
  8
YODOROGO
100
AcDbLine
 10
15210.80217064596
 20
792.8747482146435
 30
0.0
 11
15196.80217064596
 21
792.8747482146435
 31
0.0
  0
LINE
  5
18A74
330
18745
100
AcDbEntity
  8
YODOROGO
100
AcDbLine
 10
15210.80217064596
 20
794.8747482146441
 30
0.0
 11
15210.80217064596
 21
792.8747482146435
 31
0.0
  0
LINE
  5
18A75
330
18745
100
AcDbEntity
  8
YODOROGO
100
AcDbLine
 10
15196.80217064596
 20
794.8747482146441
 30
0.0
 11
15210.80217064596
 21
794.8747482146441
 31
0.0
  0
LINE
  5
18A76
330
18745
100
AcDbEntity
  8
YODOROGO
100
AcDbLine
 10
15196.80217064596
 20
792.8747482146435
 30
0.0
 11
15196.80217064596
 21
794.8747482146441
 31
0.0
  0
LINE
  5
18A77
330
18745
100
AcDbEntity
  8
YODOROGO
100
AcDbLine
 10
15232.80217064596
 20
813.8747482146435
 30
0.0
 11
15190.80217064596
 21
813.8747482146435
 31
0.0
  0
LINE
  5
18A78
330
18745
100
AcDbEntity
  8
YODOROGO
100
AcDbLine
 10
15232.80217064596
 20
773.874748214644
 30
0.0
 11
15232.80217064596
 21
813.8747482146435
 31
0.0
  0
LINE
  5
18A79
330
18745
100
AcDbEntity
  8
YODOROGO
100
AcDbLine
 10
15190.80217064596
 20
773.874748214644
 30
0.0
 11
15232.80217064596
 21
773.874748214644
 31
0.0
  0
LINE
  5
18A7A
330
18745
100
AcDbEntity
  8
YODOROGO
100
AcDbLine
 10
15190.80217064596
 20
713.8747482146436
 30
0.0
 11
15190.80217064596
 21
773.874748214644
 31
0.0
  0
LINE
  5
18A7B
330
18745
100
AcDbEntity
  8
YODOROGO
100
AcDbLine
 10
15268.80217064596
 20
713.8747482146436
 30
0.0
 11
15190.80217064596
 21
713.8747482146436
 31
0.0
  0
LINE
  5
18A7C
330
18745
100
AcDbEntity
  8
YODOROGO
100
AcDbLine
 10
15284.80217064596
 20
785.8747482146432
 30
0.0
 11
15284.80217064596
 21
799.8747482146441
 31
0.0
  0
ARC
  5
18A7D
330
18745
100
AcDbEntity
  8
YODOROGO
100
AcDbCircle
 10
15272.80217064594
 20
785.8747482146457
 30
0.0
 40
12.00000000000187
100
AcDbArc
 50
270.0
 51
359.9999999999877
  0
LINE
  5
18A7E
330
18745
100
AcDbEntity
  8
YODOROGO
100
AcDbLine
 10
15264.80217064596
 20
773.874748214644
 30
0.0
 11
15272.80217064594
 21
773.874748214644
 31
0.0
  0
LINE
  5
18A7F
330
18745
100
AcDbEntity
  8
YODOROGO
100
AcDbLine
 10
15264.80217064596
 20
813.8747482146435
 30
0.0
 11
15264.80217064596
 21
773.874748214644
 31
0.0
  0
LINE
  5
18A80
330
18745
100
AcDbEntity
  8
YODOROGO
100
AcDbLine
 10
15449.80217064596
 20
773.874748214644
 30
0.0
 11
15462.80217064596
 21
773.874748214644
 31
0.0
  0
LINE
  5
18A81
330
18745
100
AcDbEntity
  8
YODOROGO
100
AcDbLine
 10
15466.80217064596
 20
713.8747482146436
 30
0.0
 11
15449.80217064596
 21
713.8747482146436
 31
0.0
  0
LINE
  5
18A82
330
18745
100
AcDbEntity
  8
YODOROGO
100
AcDbLine
 10
15381.80217064596
 20
781.8747482146434
 30
0.0
 11
15395.80217064596
 21
781.8747482146434
 31
0.0
  0
LINE
  5
18A83
330
18745
100
AcDbEntity
  8
YODOROGO
100
AcDbLine
 10
15449.80217064596
 20
745.8747482146443
 30
0.0
 11
15361.80217064596
 21
745.8747482146443
 31
0.0
  0
LINE
  5
18A84
330
18745
100
AcDbEntity
  8
YODOROGO
100
AcDbLine
 10
15415.80217064596
 20
781.8747482146434
 30
0.0
 11
15429.80217064596
 21
781.8747482146434
 31
0.0
  0
LINE
  5
18A85
330
18745
100
AcDbEntity
  8
YODOROGO
100
AcDbLine
 10
15449.80217064596
 20
713.8747482146436
 30
0.0
 11
15449.80217064596
 21
773.874748214644
 31
0.0
  0
LINE
  5
18A86
330
18745
100
AcDbEntity
  8
YODOROGO
100
AcDbLine
 10
15348.80217064596
 20
713.8747482146436
 30
0.0
 11
15322.80217064596
 21
713.8747482146436
 31
0.0
  0
LINE
  5
18A87
330
18745
100
AcDbEntity
  8
YODOROGO
100
AcDbLine
 10
15308.80217064596
 20
799.8747482146441
 30
0.0
 11
15308.80217064596
 21
753.8747482146439
 31
0.0
  0
ARC
  5
18A88
330
18745
100
AcDbEntity
  8
YODOROGO
100
AcDbCircle
 10
15466.80217064596
 20
733.8747482146435
 30
0.0
 40
20.0
100
AcDbArc
 50
270.0
 51
0.0
  0
LINE
  5
18A89
330
18745
100
AcDbEntity
  8
YODOROGO
100
AcDbLine
 10
15546.80217064596
 20
761.8747482146434
 30
0.0
 11
15546.80217064596
 21
713.8747482146436
 31
0.0
  0
ARC
  5
18A8A
330
18745
100
AcDbEntity
  8
YODOROGO
100
AcDbCircle
 10
15519.86069778339
 20
818.7656950548664
 30
0.0
 40
62.94777829583771
100
AcDbArc
 50
295.3405244216011
 51
359.1890230341867
  0
LINE
  5
18A8B
330
18745
100
AcDbEntity
  8
YODOROGO
100
AcDbLine
 10
15308.80217064596
 20
929.874748214644
 30
0.0
 11
15248.80217064596
 21
969.8747482146441
 31
0.0
  0
LINE
  5
18A8C
330
18745
100
AcDbEntity
  8
YODOROGO
100
AcDbLine
 10
15248.80217064596
 20
1013.874748214644
 30
0.0
 11
15308.80217064596
 21
973.8747482146434
 31
0.0
  0
LINE
  5
18A8D
330
18745
100
AcDbEntity
  8
YODOROGO
100
AcDbLine
 10
15264.80217064596
 20
839.8747482146442
 30
0.0
 11
15308.80217064596
 21
839.8747482146442
 31
0.0
  0
LINE
  5
18A8E
330
18745
100
AcDbEntity
  8
YODOROGO
100
AcDbLine
 10
15308.80217064596
 20
867.8747482146436
 30
0.0
 11
15264.80217064596
 21
867.8747482146436
 31
0.0
  0
LINE
  5
18A8F
330
18745
100
AcDbEntity
  8
YODOROGO
100
AcDbLine
 10
15190.80217064596
 20
897.8747482146435
 30
0.0
 11
15308.80217064596
 21
897.8747482146435
 31
0.0
  0
LINE
  5
18A90
330
18745
100
AcDbEntity
  8
YODOROGO
100
AcDbLine
 10
15040.80217064596
 20
1013.874748214644
 30
0.0
 11
15010.80217064596
 21
1013.874748214644
 31
0.0
  0
LINE
  5
18A91
330
18745
100
AcDbEntity
  8
YODOROGO
100
AcDbLine
 10
15040.80217064596
 20
913.8747482146435
 30
0.0
 11
15040.80217064596
 21
1013.874748214644
 31
0.0
  0
LINE
  5
18A92
330
18745
100
AcDbEntity
  8
YODOROGO
100
AcDbLine
 10
15010.80217064596
 20
913.8747482146435
 30
0.0
 11
15040.80217064596
 21
913.8747482146435
 31
0.0
  0
LINE
  5
18A93
330
18745
100
AcDbEntity
  8
YODOROGO
100
AcDbLine
 10
15010.80217064596
 20
1013.874748214644
 30
0.0
 11
15010.80217064596
 21
913.8747482146435
 31
0.0
  0
LINE
  5
18A94
330
18745
100
AcDbEntity
  8
YODOROGO
100
AcDbLine
 10
15080.80217064596
 20
1013.874748214644
 30
0.0
 11
15108.80217064596
 21
1013.874748214644
 31
0.0
  0
LINE
  5
18A95
330
18745
100
AcDbEntity
  8
YODOROGO
100
AcDbLine
 10
15080.80217064596
 20
905.8747482146443
 30
0.0
 11
15080.80217064596
 21
1013.874748214644
 31
0.0
  0
ARC
  5
18A96
330
18745
100
AcDbEntity
  8
YODOROGO
100
AcDbCircle
 10
15060.80217064596
 20
905.8747482146443
 30
0.0
 40
20.0
100
AcDbArc
 50
270.0
 51
0.0
  0
LINE
  5
18A97
330
18745
100
AcDbEntity
  8
YODOROGO
100
AcDbLine
 10
15010.80217064596
 20
885.8747482146441
 30
0.0
 11
15060.80217064596
 21
885.8747482146441
 31
0.0
  0
LINE
  5
18A98
330
18745
100
AcDbEntity
  8
YODOROGO
100
AcDbLine
 10
15010.80217064596
 20
853.874748214644
 30
0.0
 11
15010.80217064596
 21
885.8747482146441
 31
0.0
  0
LINE
  5
18A99
330
18745
100
AcDbEntity
  8
YODOROGO
100
AcDbLine
 10
15068.80217064596
 20
853.874748214644
 30
0.0
 11
15010.80217064596
 21
853.874748214644
 31
0.0
  0
ARC
  5
18A9A
330
18745
100
AcDbEntity
  8
YODOROGO
100
AcDbCircle
 10
15068.80217064596
 20
893.8747482146439
 30
0.0
 40
40.0
100
AcDbArc
 50
270.0
 51
0.0
  0
LINE
  5
18A9B
330
18745
100
AcDbEntity
  8
YODOROGO
100
AcDbLine
 10
15108.80217064596
 20
1013.874748214644
 30
0.0
 11
15108.80217064596
 21
893.8747482146439
 31
0.0
  0
LINE
  5
18A9C
330
18745
100
AcDbEntity
  8
YODOROGO
100
AcDbLine
 10
14988.80217064596
 20
973.8747482146434
 30
0.0
 11
14988.80217064596
 21
997.8747482146435
 31
0.0
1001
AUTOCAD_POSTSCRIPT_FIGURE
1002
{
1000
PSFILL
1000
Grayscale
1000
Grayscale
1070
    25
1002
}
  0
LINE
  5
18A9D
330
18745
100
AcDbEntity
  8
YODOROGO
100
AcDbLine
 10
14988.80217064596
 20
929.874748214644
 30
0.0
 11
14988.80217064596
 21
953.874748214644
 31
0.0
1001
AUTOCAD_POSTSCRIPT_FIGURE
1002
{
1000
PSFILL
1000
Grayscale
1000
Grayscale
1070
    25
1002
}
  0
LINE
  5
18A9E
330
18745
100
AcDbEntity
  8
YODOROGO
100
AcDbLine
 10
14988.80217064596
 20
853.874748214644
 30
0.0
 11
14988.80217064596
 21
909.8747482146439
 31
0.0
1001
AUTOCAD_POSTSCRIPT_FIGURE
1002
{
1000
PSFILL
1000
Grayscale
1000
Grayscale
1070
    25
1002
}
  0
LINE
  5
18A9F
330
18745
100
AcDbEntity
  8
YODOROGO
100
AcDbLine
 10
15190.80217064596
 20
953.874748214644
 30
0.0
 11
15248.80217064596
 21
1013.874748214644
 31
0.0
  0
LINE
  5
18AA0
330
18745
100
AcDbEntity
  8
YODOROGO
100
AcDbLine
 10
15190.80217064596
 20
909.8747482146439
 30
0.0
 11
15190.80217064596
 21
953.874748214644
 31
0.0
  0
LINE
  5
18AA1
330
18745
100
AcDbEntity
  8
YODOROGO
100
AcDbLine
 10
15248.80217064596
 20
969.8747482146441
 30
0.0
 11
15190.80217064596
 21
909.8747482146439
 31
0.0
  0
LINE
  5
18AA2
330
18745
100
AcDbEntity
  8
YODOROGO
100
AcDbLine
 10
15232.80217064596
 20
839.8747482146442
 30
0.0
 11
15232.80217064596
 21
867.8747482146436
 31
0.0
  0
LINE
  5
18AA3
330
18745
100
AcDbEntity
  8
YODOROGO
100
AcDbLine
 10
15190.80217064596
 20
839.8747482146442
 30
0.0
 11
15232.80217064596
 21
839.8747482146442
 31
0.0
  0
LINE
  5
18AA4
330
18745
100
AcDbEntity
  8
YODOROGO
100
AcDbLine
 10
15264.80217064596
 20
867.8747482146436
 30
0.0
 11
15264.80217064596
 21
839.8747482146442
 31
0.0
  0
LINE
  5
18AA5
330
18745
100
AcDbEntity
  8
YODOROGO
100
AcDbLine
 10
15190.80217064596
 20
867.8747482146436
 30
0.0
 11
15190.80217064596
 21
897.8747482146435
 31
0.0
  0
LINE
  5
18AA6
330
18745
100
AcDbEntity
  8
YODOROGO
100
AcDbLine
 10
15232.80217064596
 20
867.8747482146436
 30
0.0
 11
15190.80217064596
 21
867.8747482146436
 31
0.0
  0
LINE
  5
18AA7
330
18745
100
AcDbEntity
  8
YODOROGO
100
AcDbLine
 10
15322.80217064596
 20
1013.874748214644
 30
0.0
 11
15486.80217064596
 21
1013.874748214644
 31
0.0
  0
LINE
  5
18AA8
330
18745
100
AcDbEntity
  8
YODOROGO
100
AcDbLine
 10
15462.80217064596
 20
981.8747482146434
 30
0.0
 11
15348.80217064596
 21
981.8747482146434
 31
0.0
  0
LINE
  5
18AA9
330
18745
100
AcDbEntity
  8
YODOROGO
100
AcDbLine
 10
15436.80217064595
 20
909.8747482146439
 30
0.0
 11
15449.80217064596
 21
909.8747482146439
 31
0.0
  0
LINE
  5
18AAA
330
18745
100
AcDbEntity
  8
YODOROGO
100
AcDbLine
 10
15449.80217064596
 20
969.8747482146441
 30
0.0
 11
15436.80217064595
 21
909.8747482146439
 31
0.0
  0
LINE
  5
18AAB
330
18745
100
AcDbEntity
  8
YODOROGO
100
AcDbLine
 10
15425.80217064596
 20
969.8747482146441
 30
0.0
 11
15449.80217064596
 21
969.8747482146441
 31
0.0
  0
LINE
  5
18AAC
330
18745
100
AcDbEntity
  8
YODOROGO
100
AcDbLine
 10
15412.80217064596
 20
909.8747482146439
 30
0.0
 11
15425.80217064596
 21
969.8747482146441
 31
0.0
  0
LINE
  5
18AAD
330
18745
100
AcDbEntity
  8
YODOROGO
100
AcDbLine
 10
15398.80217064596
 20
909.8747482146439
 30
0.0
 11
15412.80217064596
 21
909.8747482146439
 31
0.0
  0
LINE
  5
18AAE
330
18745
100
AcDbEntity
  8
YODOROGO
100
AcDbLine
 10
15385.80217064596
 20
969.8747482146441
 30
0.0
 11
15398.80217064596
 21
909.8747482146439
 31
0.0
  0
LINE
  5
18AAF
330
18745
100
AcDbEntity
  8
YODOROGO
100
AcDbLine
 10
15361.80217064596
 20
969.8747482146441
 30
0.0
 11
15385.80217064596
 21
969.8747482146441
 31
0.0
  0
LINE
  5
18AB0
330
18745
100
AcDbEntity
  8
YODOROGO
100
AcDbLine
 10
15374.80217064596
 20
909.8747482146439
 30
0.0
 11
15361.80217064596
 21
969.8747482146441
 31
0.0
  0
LINE
  5
18AB1
330
18745
100
AcDbEntity
  8
YODOROGO
100
AcDbLine
 10
15361.80217064596
 20
909.8747482146439
 30
0.0
 11
15374.80217064596
 21
909.8747482146439
 31
0.0
  0
LINE
  5
18AB2
330
18745
100
AcDbEntity
  8
YODOROGO
100
AcDbLine
 10
15361.80217064596
 20
877.8747482146435
 30
0.0
 11
15361.80217064596
 21
909.8747482146439
 31
0.0
  0
LINE
  5
18AB3
330
18745
100
AcDbEntity
  8
YODOROGO
100
AcDbLine
 10
15449.80217064596
 20
877.8747482146435
 30
0.0
 11
15361.80217064596
 21
877.8747482146435
 31
0.0
  0
LINE
  5
18AB4
330
18745
100
AcDbEntity
  8
YODOROGO
100
AcDbLine
 10
15449.80217064596
 20
909.8747482146439
 30
0.0
 11
15449.80217064596
 21
877.8747482146435
 31
0.0
  0
LINE
  5
18AB5
330
18745
100
AcDbEntity
  8
YODOROGO
100
AcDbLine
 10
15308.80217064596
 20
973.8747482146434
 30
0.0
 11
15308.80217064596
 21
929.874748214644
 31
0.0
  0
LINE
  5
18AB6
330
18745
100
AcDbEntity
  8
YODOROGO
100
AcDbLine
 10
15395.80217064596
 20
877.8747482146435
 30
0.0
 11
15415.80217064596
 21
877.8747482146435
 31
0.0
  0
LINE
  5
18AB7
330
18745
100
AcDbEntity
  8
YODOROGO
100
AcDbLine
 10
15361.80217064596
 20
845.8747482146444
 30
0.0
 11
15381.80217064596
 21
845.8747482146444
 31
0.0
  0
LINE
  5
18AB8
330
18745
100
AcDbEntity
  8
YODOROGO
100
AcDbLine
 10
15429.80217064596
 20
845.8747482146444
 30
0.0
 11
15449.80217064596
 21
845.8747482146444
 31
0.0
  0
LINE
  5
18AB9
330
18745
100
AcDbEntity
  8
YODOROGO
100
AcDbLine
 10
15308.80217064596
 20
897.8747482146435
 30
0.0
 11
15308.80217064596
 21
867.8747482146436
 31
0.0
  0
LINE
  5
18ABA
330
18745
100
AcDbEntity
  8
YODOROGO
100
AcDbLine
 10
15582.80217064596
 20
1013.874748214644
 30
0.0
 11
15582.80217064596
 21
981.8747482146434
 31
0.0
  0
LINE
  5
18ABB
330
18745
100
AcDbEntity
  8
YODOROGO
100
AcDbLine
 10
15766.80217064596
 20
797.8747482146435
 30
0.0
 11
15766.80217064594
 21
905.8747482146443
 31
0.0
  0
LINE
  5
18ABC
330
18745
100
AcDbEntity
  8
YODOROGO
100
AcDbLine
 10
15730.80217064594
 20
993.8747482146439
 30
0.0
 11
15730.80217064594
 21
817.8747482146436
 31
0.0
  0
LINE
  5
18ABD
330
18745
100
AcDbEntity
  8
YODOROGO
100
AcDbLine
 10
15826.80217064596
 20
713.8747482146436
 30
0.0
 11
15826.80217064594
 21
905.8747482146443
 31
0.0
  0
LINE
  5
18ABE
330
18745
100
AcDbEntity
  8
YODOROGO
100
AcDbLine
 10
15794.80217064596
 20
905.8747482146443
 30
0.0
 11
15794.80217064596
 21
713.8747482146436
 31
0.0
  0
LINE
  5
18ABF
330
18745
100
AcDbEntity
  8
YODOROGO
100
AcDbLine
 10
15618.80217064596
 20
797.8747482146435
 30
0.0
 11
15618.80217064596
 21
853.874748214644
 31
0.0
  0
ARC
  5
18AC0
330
18745
100
AcDbEntity
  8
YODOROGO
100
AcDbCircle
 10
15676.95743255803
 20
803.8951756442788
 30
0.0
 40
90.04622428799429
100
AcDbArc
 50
268.6284910216979
 51
356.1663845733032
  0
LINE
  5
18AC1
330
18745
100
AcDbEntity
  8
YODOROGO
100
AcDbLine
 10
15674.80217064596
 20
763.8747482146435
 30
0.0
 11
15674.80217064596
 21
713.8747482146436
 31
0.0
  0
ARC
  5
18AC2
330
18745
100
AcDbEntity
  8
YODOROGO
100
AcDbCircle
 10
15675.75903786228
 20
818.9194785088275
 30
0.0
 40
55.05304649180608
100
AcDbArc
 50
269.0041020930593
 51
358.9126445549248
  0
LINE
  5
18AC3
330
18745
100
AcDbEntity
  8
YODOROGO
100
AcDbLine
 10
15794.80217064596
 20
713.8747482146436
 30
0.0
 11
15826.80217064596
 21
713.8747482146436
 31
0.0
  0
LINE
  5
18AC4
330
18745
100
AcDbEntity
  8
YODOROGO
100
AcDbLine
 10
15766.80217064594
 20
905.8747482146443
 30
0.0
 11
15794.80217064596
 21
905.8747482146443
 31
0.0
  0
LINE
  5
18AC5
330
18745
100
AcDbEntity
  8
YODOROGO
100
AcDbLine
 10
15810.80217064596
 20
993.8747482146439
 30
0.0
 11
15730.80217064594
 21
993.8747482146439
 31
0.0
  0
LINE
  5
18AC6
330
18745
100
AcDbEntity
  8
YODOROGO
100
AcDbLine
 10
15766.80217064594
 20
957.8747482146436
 30
0.0
 11
15830.80217064596
 21
957.8747482146436
 31
0.0
  0
LINE
  5
18AC7
330
18745
100
AcDbEntity
  8
YODOROGO
100
AcDbLine
 10
15850.80217064596
 20
937.8747482146435
 30
0.0
 11
15766.80217064594
 21
937.8747482146435
 31
0.0
  0
LINE
  5
18AC8
330
18745
100
AcDbEntity
  8
YODOROGO
100
AcDbLine
 10
15618.80217064596
 20
889.8747482146442
 30
0.0
 11
15674.80217064596
 21
889.8747482146442
 31
0.0
  0
LINE
  5
18AC9
330
18745
100
AcDbEntity
  8
YODOROGO
100
AcDbLine
 10
15618.80217064596
 20
917.8747482146436
 30
0.0
 11
15618.80217064596
 21
889.8747482146442
 31
0.0
  0
LINE
  5
18ACA
330
18745
100
AcDbEntity
  8
YODOROGO
100
AcDbLine
 10
15674.80217064596
 20
917.8747482146436
 30
0.0
 11
15618.80217064596
 21
917.8747482146436
 31
0.0
  0
LINE
  5
18ACB
330
18745
100
AcDbEntity
  8
YODOROGO
100
AcDbLine
 10
15674.80217064596
 20
889.8747482146442
 30
0.0
 11
15674.80217064596
 21
917.8747482146436
 31
0.0
  0
LINE
  5
18ACC
330
18745
100
AcDbEntity
  8
YODOROGO
100
AcDbLine
 10
15766.80217064594
 20
937.8747482146435
 30
0.0
 11
15766.80217064594
 21
957.8747482146436
 31
0.0
  0
LINE
  5
18ACD
330
18745
100
AcDbEntity
  8
YODOROGO
100
AcDbLine
 10
15706.80217064596
 20
853.874748214644
 30
0.0
 11
15706.80217064596
 21
953.874748214644
 31
0.0
  0
LINE
  5
18ACE
330
18745
100
AcDbEntity
  8
YODOROGO
100
AcDbLine
 10
15618.80217064596
 20
853.874748214644
 30
0.0
 11
15706.80217064596
 21
853.874748214644
 31
0.0
  0
LINE
  5
18ACF
330
18745
100
AcDbEntity
  8
YODOROGO
100
AcDbLine
 10
15706.80217064596
 20
981.8747482146434
 30
0.0
 11
15706.80217064596
 21
1013.874748214644
 31
0.0
  0
ARC
  5
18AD0
330
18745
100
AcDbEntity
  8
YODOROGO
100
AcDbCircle
 10
15810.80217064596
 20
1001.874748214642
 30
0.0
 40
7.99999999999727
100
AcDbArc
 50
270.0
 51
0.0000000000081422
  0
LINE
  5
18AD1
330
18745
100
AcDbEntity
  8
YODOROGO
100
AcDbLine
 10
15818.80217064596
 20
1013.874748214644
 30
0.0
 11
15818.80217064596
 21
1001.874748214643
 31
0.0
  0
LINE
  5
18AD2
330
18745
100
AcDbEntity
  8
YODOROGO
100
AcDbLine
 10
15850.80217064596
 20
1013.874748214644
 30
0.0
 11
15818.80217064596
 21
1013.874748214644
 31
0.0
  0
LINE
  5
18AD3
330
18745
100
AcDbEntity
  8
YODOROGO
100
AcDbLine
 10
15850.80217064596
 20
977.8747482146435
 30
0.0
 11
15850.80217064596
 21
1013.874748214644
 31
0.0
  0
ARC
  5
18AD4
330
18745
100
AcDbEntity
  8
YODOROGO
100
AcDbCircle
 10
15830.80217064596
 20
977.8747482146435
 30
0.0
 40
20.0
100
AcDbArc
 50
270.0
 51
0.0
  0
LINE
  5
18AD5
330
18745
100
AcDbEntity
  8
YODOROGO
100
AcDbLine
 10
15850.80217064596
 20
905.8747482146443
 30
0.0
 11
15850.80217064596
 21
937.8747482146435
 31
0.0
  0
LINE
  5
18AD6
330
18745
100
AcDbEntity
  8
YODOROGO
100
AcDbLine
 10
15826.80217064594
 20
905.8747482146443
 30
0.0
 11
15850.80217064596
 21
905.8747482146443
 31
0.0
  0
LINE
  5
18AD7
330
18745
100
AcDbEntity
  8
SUNPOU
100
AcDbLine
 10
9145.989208462832
 20
3287.183932023015
 30
0.0
 11
9085.989208462816
 21
3287.183932023015
 31
0.0
  0
LINE
  5
18AD8
330
18745
100
AcDbEntity
  8
SUNPOU
100
AcDbLine
 10
9145.989208462822
 20
3287.183932023015
 30
0.0
 11
9085.989208462823
 21
3303.260883568885
 31
0.0
  0
LINE
  5
18AD9
330
18745
100
AcDbEntity
  8
SUNPOU
100
AcDbLine
 10
9145.989208462832
 20
3287.183932023015
 30
0.0
 11
9085.989208462816
 21
3271.106980477146
 31
0.0
  0
LINE
  5
18ADA
330
18745
100
AcDbEntity
  8
SUNPOU
100
AcDbLine
 10
9085.98920846283
 20
3287.183932023015
 30
0.0
 11
9025.989208462815
 21
3287.183932023015
 31
0.0
  0
LINE
  5
18ADB
330
18745
100
AcDbEntity
  8
SUNPOU
100
AcDbLine
 10
9085.989208462823
 20
3287.183932023015
 30
0.0
 11
9025.989208462823
 21
3303.260883568885
 31
0.0
  0
LINE
  5
18ADC
330
18745
100
AcDbEntity
  8
SUNPOU
100
AcDbLine
 10
9085.98920846283
 20
3287.183932023015
 30
0.0
 11
9025.989208462815
 21
3271.106980477146
 31
0.0
  0
LINE
  5
18ADD
330
18745
100
AcDbEntity
  8
SUNPOU
100
AcDbLine
 10
7762.008701212581
 20
3287.183932023015
 30
0.0
 11
7773.258701212579
 21
3287.183932023015
 31
0.0
  0
LINE
  5
18ADE
330
18745
100
AcDbEntity
  8
SUNPOU
100
AcDbLine
 10
7750.758701212581
 20
3317.183932023015
 30
0.0
 11
7750.758701212581
 21
3332.183932023015
 31
0.0
  0
LINE
  5
18ADF
330
18745
100
AcDbEntity
  8
SUNPOU
100
AcDbLine
 10
7110.758701212581
 20
2514.183932023016
 30
0.0
 11
7110.758701212581
 21
3332.183932023015
 31
0.0
  0
LINE
  5
18AE0
330
18745
100
AcDbEntity
  8
SUNPOU
100
AcDbLine
 10
7735.758701212581
 20
3287.183932023015
 30
0.0
 11
7125.758701212581
 21
3287.183932023015
 31
0.0
  0
LINE
  5
18AE1
330
18745
100
AcDbEntity
  8
SUNPOU
100
AcDbLine
 10
7080.75870121258
 20
2484.183932023016
 30
0.0
 11
6584.758582955732
 21
2484.183932023016
 31
0.0
  0
LINE
  5
18AE2
330
18745
100
AcDbEntity
  8
SUNPOU
100
AcDbLine
 10
6920.758701212581
 20
1876.183932023016
 30
0.0
 11
6584.758582955732
 21
1876.183932023016
 31
0.0
  0
LINE
  5
18AE3
330
18745
100
AcDbEntity
  8
SUNPOU
100
AcDbLine
 10
6629.758582955734
 20
2469.183932023016
 30
0.0
 11
6629.758582955732
 21
1891.183932023016
 31
0.0
  0
LINE
  5
18AE4
330
18745
100
AcDbEntity
  8
SUNPOU
100
AcDbLine
 10
6920.758701212581
 20
1876.183932023017
 30
0.0
 11
6584.758582955732
 21
1876.183932023017
 31
0.0
  0
LINE
  5
18AE5
330
18745
100
AcDbEntity
  8
SUNPOU
100
AcDbLine
 10
6920.758701212581
 20
1716.183932023017
 30
0.0
 11
6584.758582955732
 21
1716.183932023017
 31
0.0
  0
LINE
  5
18AE6
330
18745
100
AcDbEntity
  8
SUNPOU
100
AcDbLine
 10
6629.758582955732
 20
1861.183932023017
 30
0.0
 11
6629.758582955732
 21
1731.183932023017
 31
0.0
  0
LINE
  5
18AE7
330
18745
100
AcDbEntity
  8
SUNPOU
100
AcDbLine
 10
7080.758701212582
 20
2484.183932023016
 30
0.0
 11
6384.758582955733
 21
2484.183932023016
 31
0.0
  0
LINE
  5
18AE8
330
18745
100
AcDbEntity
  8
SUNPOU
100
AcDbLine
 10
6920.758701212581
 20
1716.183932023017
 30
0.0
 11
6384.758582955733
 21
1716.183932023017
 31
0.0
  0
LINE
  5
18AE9
330
18745
100
AcDbEntity
  8
SUNPOU
100
AcDbLine
 10
6429.758582955732
 20
2469.183932023016
 30
0.0
 11
6429.758582955732
 21
1731.183932023017
 31
0.0
  0
LINE
  5
18AEA
330
18745
100
AcDbEntity
  8
SUNPOU
100
AcDbLine
 10
7110.758701212581
 20
1846.183932023016
 30
0.0
 11
7110.758701212581
 21
1414.183932023014
 31
0.0
  0
LINE
  5
18AEB
330
18745
100
AcDbEntity
  8
SUNPOU
100
AcDbLine
 10
8390.758701212579
 20
1846.183932023016
 30
0.0
 11
8390.758701212579
 21
1414.183932023014
 31
0.0
  0
LINE
  5
18AEC
330
18745
100
AcDbEntity
  8
SUNPOU
100
AcDbLine
 10
7125.758701212581
 20
1459.183932023015
 30
0.0
 11
8375.758701212578
 21
1459.183932023015
 31
0.0
  0
LINE
  5
18AED
330
18745
100
AcDbEntity
  8
SUNPOU
100
AcDbLine
 10
6950.758701212581
 20
1686.183932023017
 30
0.0
 11
6950.758701212581
 21
1204.183932023014
 31
0.0
  0
LINE
  5
18AEE
330
18745
100
AcDbEntity
  8
SUNPOU
100
AcDbLine
 10
8550.758701212577
 20
1686.183932023017
 30
0.0
 11
8550.758701212577
 21
1204.183932023014
 31
0.0
  0
LINE
  5
18AEF
330
18745
100
AcDbEntity
  8
SUNPOU
100
AcDbLine
 10
6965.75870121258
 20
1249.183932023014
 30
0.0
 11
8535.758701212579
 21
1249.183932023014
 31
0.0
  0
LINE
  5
18AF0
330
18745
100
AcDbEntity
  8
SUNPOU
100
AcDbLine
 10
3224.333914666386
 20
1846.183932023019
 30
0.0
 11
3224.333914666386
 21
1414.183932023016
 31
0.0
  0
LINE
  5
18AF1
330
18745
100
AcDbEntity
  8
SUNPOU
100
AcDbLine
 10
4184.333914666385
 20
1846.183932023017
 30
0.0
 11
4184.333914666385
 21
1414.183932023016
 31
0.0
  0
LINE
  5
18AF2
330
18745
100
AcDbEntity
  8
SUNPOU
100
AcDbLine
 10
3239.333914666387
 20
1459.183932023016
 30
0.0
 11
4169.333914666387
 21
1459.183932023016
 31
0.0
  0
LINE
  5
18AF3
330
18745
100
AcDbEntity
  8
SUNPOU
100
AcDbLine
 10
3064.333914666386
 20
1686.183932023018
 30
0.0
 11
3064.333914666386
 21
1204.183932023016
 31
0.0
  0
LINE
  5
18AF4
330
18745
100
AcDbEntity
  8
SUNPOU
100
AcDbLine
 10
4344.333914666385
 20
1686.183932023017
 30
0.0
 11
4344.333914666385
 21
1204.183932023016
 31
0.0
  0
LINE
  5
18AF5
330
18745
100
AcDbEntity
  8
SUNPOU
100
AcDbLine
 10
3079.333914666387
 20
1249.183932023016
 30
0.0
 11
4329.333914666387
 21
1249.183932023016
 31
0.0
  0
LINE
  5
18AF6
330
18745
100
AcDbEntity
  8
SUNPOU
100
AcDbLine
 10
3194.333914666385
 20
2484.183932023019
 30
0.0
 11
2698.333796409538
 21
2484.18393202302
 31
0.0
  0
LINE
  5
18AF7
330
18745
100
AcDbEntity
  8
SUNPOU
100
AcDbLine
 10
3034.333914666386
 20
1876.183932023018
 30
0.0
 11
2698.333796409538
 21
1876.183932023018
 31
0.0
  0
LINE
  5
18AF8
330
18745
100
AcDbEntity
  8
SUNPOU
100
AcDbLine
 10
2743.333796409538
 20
2469.18393202302
 30
0.0
 11
2743.333796409538
 21
1891.183932023017
 31
0.0
  0
LINE
  5
18AF9
330
18745
100
AcDbEntity
  8
SUNPOU
100
AcDbLine
 10
3034.333914666386
 20
1876.183932023019
 30
0.0
 11
2698.333796409539
 21
1876.183932023019
 31
0.0
  0
LINE
  5
18AFA
330
18745
100
AcDbEntity
  8
SUNPOU
100
AcDbLine
 10
3034.333914666386
 20
1716.183932023018
 30
0.0
 11
2698.333796409539
 21
1716.183932023018
 31
0.0
  0
LINE
  5
18AFB
330
18745
100
AcDbEntity
  8
SUNPOU
100
AcDbLine
 10
2743.333796409539
 20
1861.183932023019
 30
0.0
 11
2743.333796409539
 21
1731.183932023019
 31
0.0
  0
LINE
  5
18AFC
330
18745
100
AcDbEntity
  8
SUNPOU
100
AcDbLine
 10
3194.333914666386
 20
2484.183932023019
 30
0.0
 11
2498.333796409538
 21
2484.18393202302
 31
0.0
  0
LINE
  5
18AFD
330
18745
100
AcDbEntity
  8
SUNPOU
100
AcDbLine
 10
3034.333914666386
 20
1716.183932023018
 30
0.0
 11
2498.333796409538
 21
1716.183932023018
 31
0.0
  0
LINE
  5
18AFE
330
18745
100
AcDbEntity
  8
SUNPOU
100
AcDbLine
 10
2543.333796409538
 20
2469.18393202302
 30
0.0
 11
2543.333796409538
 21
1731.183932023019
 31
0.0
  0
LINE
  5
18AFF
330
18745
100
AcDbEntity
  8
SUNPOU
100
AcDbLine
 10
3704.333914666387
 20
3317.183932023015
 30
0.0
 11
3704.333914666387
 21
3332.183932023017
 31
0.0
  0
LINE
  5
18B00
330
18745
100
AcDbEntity
  8
SUNPOU
100
AcDbLine
 10
3224.333914666386
 20
2514.18393202302
 30
0.0
 11
3224.333914666386
 21
3332.183932023017
 31
0.0
  0
LINE
  5
18B01
330
18745
100
AcDbEntity
  8
SUNPOU
100
AcDbLine
 10
3689.333914666387
 20
3287.183932023017
 30
0.0
 11
3239.333914666387
 21
3287.183932023017
 31
0.0
  0
LINE
  5
18B02
330
18745
100
AcDbEntity
  8
SUNPOU
100
AcDbLine
 10
5099.564421916637
 20
3287.183932023017
 30
0.0
 11
5039.564421916624
 21
3287.183932023017
 31
0.0
  0
LINE
  5
18B03
330
18745
100
AcDbEntity
  8
SUNPOU
100
AcDbLine
 10
5099.564421916631
 20
3287.183932023017
 30
0.0
 11
5039.56442191663
 21
3303.260883568886
 31
0.0
  0
LINE
  5
18B04
330
18745
100
AcDbEntity
  8
SUNPOU
100
AcDbLine
 10
5099.564421916637
 20
3287.183932023017
 30
0.0
 11
5039.564421916624
 21
3271.106980477147
 31
0.0
  0
LINE
  5
18B05
330
18745
100
AcDbEntity
  8
SUNPOU
100
AcDbLine
 10
5039.564421916637
 20
3287.183932023017
 30
0.0
 11
4979.564421916624
 21
3287.183932023017
 31
0.0
  0
LINE
  5
18B06
330
18745
100
AcDbEntity
  8
SUNPOU
100
AcDbLine
 10
5039.56442191663
 20
3287.183932023017
 30
0.0
 11
4979.564421916631
 21
3303.260883568886
 31
0.0
  0
LINE
  5
18B07
330
18745
100
AcDbEntity
  8
SUNPOU
100
AcDbLine
 10
5039.564421916637
 20
3287.183932023017
 30
0.0
 11
4979.564421916624
 21
3271.106980477147
 31
0.0
  0
LINE
  5
18B08
330
18745
100
AcDbEntity
  8
SUNPOU
100
AcDbLine
 10
3715.583914666388
 20
3287.183932023017
 30
0.0
 11
3726.833914666387
 21
3287.183932023017
 31
0.0
  0
LINE
  5
18B09
330
18745
100
AcDbEntity
  8
SUNPOU
100
AcDbLine
 10
9164.21703198606
 20
5995.715360473255
 30
0.0
 11
9479.21703198606
 21
5995.715360473255
 31
0.0
  0
LINE
  5
18B0A
330
18745
100
AcDbEntity
  8
SUNPOU
100
AcDbLine
 10
9164.21703198606
 20
5395.715360473253
 30
0.0
 11
9479.21703198606
 21
5395.715360473253
 31
0.0
  0
LINE
  5
18B0B
330
18745
100
AcDbEntity
  8
SUNPOU
100
AcDbLine
 10
9434.21703198606
 20
5980.715360473254
 30
0.0
 11
9434.21703198606
 21
5410.715360473254
 31
0.0
  0
TEXT
  5
18B0C
330
18745
100
AcDbEntity
  8
SUNPOU
100
AcDbText
 10
7776.502746271773
 20
10040.71536047325
 30
0.0
 40
90.0
  1
2450 × （ N - 2 ）
 41
0.6666666666666666
  7
00
100
AcDbText
  0
LINE
  5
18B0D
330
18745
100
AcDbEntity
  8
SUNPOU
100
AcDbLine
 10
7545.46703198606
 20
9995.715360473253
 30
0.0
 11
7556.717031986058
 21
9995.715360473253
 31
0.0
  0
LINE
  5
18B0E
330
18745
100
AcDbEntity
  8
SUNPOU
100
AcDbLine
 10
8822.96703198606
 20
9995.715360473253
 30
0.0
 11
8811.717031986061
 21
9995.715360473253
 31
0.0
  0
LINE
  5
18B0F
330
18745
100
AcDbEntity
  8
SUNPOU
100
AcDbLine
 10
4684.21703198606
 20
9625.715360473252
 30
0.0
 11
4684.21703198606
 21
10250.71536047325
 31
0.0
  0
LINE
  5
18B10
330
18745
100
AcDbEntity
  8
SUNPOU
100
AcDbLine
 10
11684.21703198605
 20
9625.715360473252
 30
0.0
 11
11684.21703198605
 21
10250.71536047325
 31
0.0
  0
LINE
  5
18B11
330
18745
100
AcDbEntity
  8
SUNPOU
100
AcDbLine
 10
4699.21703198606
 20
10205.71536047325
 30
0.0
 11
11669.21703198606
 21
10205.71536047325
 31
0.0
  0
LINE
  5
18B12
330
18745
100
AcDbEntity
  8
SUNPOU
100
AcDbLine
 10
7534.217031986059
 20
9725.715360473252
 30
0.0
 11
7534.217031986059
 21
10040.71536047325
 31
0.0
  0
LINE
  5
18B13
330
18745
100
AcDbEntity
  8
SUNPOU
100
AcDbLine
 10
5084.21703198606
 20
9725.715360473252
 30
0.0
 11
5084.21703198606
 21
10040.71536047325
 31
0.0
  0
LINE
  5
18B14
330
18745
100
AcDbEntity
  8
SUNPOU
100
AcDbLine
 10
7519.217031986058
 20
9995.715360473253
 30
0.0
 11
5099.21703198606
 21
9995.715360473253
 31
0.0
  0
LINE
  5
18B15
330
18745
100
AcDbEntity
  8
SUNPOU
100
AcDbLine
 10
11284.21703198606
 20
9725.715360473252
 30
0.0
 11
11284.21703198606
 21
10040.71536047325
 31
0.0
  0
LINE
  5
18B16
330
18745
100
AcDbEntity
  8
SUNPOU
100
AcDbLine
 10
8834.21703198606
 20
9725.715360473252
 30
0.0
 11
8834.21703198606
 21
10040.71536047325
 31
0.0
  0
LINE
  5
18B17
330
18745
100
AcDbEntity
  8
SUNPOU
100
AcDbLine
 10
11269.21703198606
 20
9995.715360473253
 30
0.0
 11
8849.217031986063
 21
9995.715360473253
 31
0.0
  0
LINE
  5
18B18
330
18745
100
AcDbEntity
  8
SUNPOU
100
AcDbLine
 10
5084.21703198606
 20
9725.715360473252
 30
0.0
 11
5084.21703198606
 21
10040.71536047325
 31
0.0
  0
LINE
  5
18B19
330
18745
100
AcDbEntity
  8
SUNPOU
100
AcDbLine
 10
4684.21703198606
 20
9625.715360473252
 30
0.0
 11
4684.21703198606
 21
10040.71536047325
 31
0.0
  0
LINE
  5
18B1A
330
18745
100
AcDbEntity
  8
SUNPOU
100
AcDbLine
 10
5069.21703198606
 20
9995.715360473253
 30
0.0
 11
4699.21703198606
 21
9995.715360473253
 31
0.0
  0
LINE
  5
18B1B
330
18745
100
AcDbEntity
  8
SUNPOU
100
AcDbLine
 10
11284.21703198606
 20
9725.715360473252
 30
0.0
 11
11284.21703198606
 21
10040.71536047325
 31
0.0
  0
LINE
  5
18B1C
330
18745
100
AcDbEntity
  8
SUNPOU
100
AcDbLine
 10
11684.21703198605
 20
9625.715360473252
 30
0.0
 11
11684.21703198605
 21
10040.71536047325
 31
0.0
  0
LINE
  5
18B1D
330
18745
100
AcDbEntity
  8
SUNPOU
100
AcDbLine
 10
11299.21703198605
 20
9995.715360473253
 30
0.0
 11
11669.21703198606
 21
9995.715360473253
 31
0.0
  0
LINE
  5
18B1E
330
18745
100
AcDbEntity
  8
SUNPOU
100
AcDbLine
 10
12294.21703198606
 20
9584.465360473252
 30
0.0
 11
12294.21703198606
 21
9573.215360473252
 31
0.0
  0
LINE
  5
18B1F
330
18745
100
AcDbEntity
  8
SUNPOU
100
AcDbLine
 10
12084.21703198605
 20
9584.465360473252
 30
0.0
 11
12084.21703198605
 21
9573.215360473252
 31
0.0
  0
LINE
  5
18B20
330
18745
100
AcDbEntity
  8
SUNPOU
100
AcDbLine
 10
12084.21703198605
 20
9284.465360473253
 30
0.0
 11
12084.21703198605
 21
9273.215360473249
 31
0.0
  0
LINE
  5
18B21
330
18745
100
AcDbEntity
  8
SUNPOU
100
AcDbLine
 10
12084.21703198605
 20
9306.965360473252
 30
0.0
 11
12084.21703198605
 21
9318.215360473251
 31
0.0
  0
LINE
  5
18B22
330
18745
100
AcDbEntity
  8
SUNPOU
100
AcDbLine
 10
12084.21703198605
 20
5684.465360473253
 30
0.0
 11
12084.21703198605
 21
5673.215360473253
 31
0.0
  0
LINE
  5
18B23
330
18745
100
AcDbEntity
  8
SUNPOU
100
AcDbLine
 10
12084.21703198605
 20
5706.965360473253
 30
0.0
 11
12084.21703198605
 21
5718.215360473253
 31
0.0
  0
LINE
  5
18B24
330
18745
100
AcDbEntity
  8
SUNPOU
100
AcDbLine
 10
12294.21703198606
 20
5406.965360473253
 30
0.0
 11
12294.21703198606
 21
5418.215360473253
 31
0.0
  0
LINE
  5
18B25
330
18745
100
AcDbEntity
  8
SUNPOU
100
AcDbLine
 10
12084.21703198605
 20
5406.965360473253
 30
0.0
 11
12084.21703198605
 21
5418.215360473253
 31
0.0
  0
LINE
  5
18B26
330
18745
100
AcDbEntity
  8
SUNPOU
100
AcDbLine
 10
7204.21703198606
 20
9595.715360473253
 30
0.0
 11
6889.21703198606
 21
9595.715360473253
 31
0.0
  0
LINE
  5
18B27
330
18745
100
AcDbEntity
  8
SUNPOU
100
AcDbLine
 10
7204.21703198606
 20
8995.715360473253
 30
0.0
 11
6889.21703198606
 21
8995.715360473253
 31
0.0
  0
LINE
  5
18B28
330
18745
100
AcDbEntity
  8
SUNPOU
100
AcDbLine
 10
6934.21703198606
 20
9580.715360473252
 30
0.0
 11
6934.21703198606
 21
9010.715360473252
 31
0.0
  0
LINE
  5
18B29
330
18745
100
AcDbEntity
  8
SUNPOU
100
AcDbLine
 10
7234.21703198606
 20
8965.71536047325
 30
0.0
 11
7234.21703198606
 21
8650.715360473251
 31
0.0
  0
LINE
  5
18B2A
330
18745
100
AcDbEntity
  8
SUNPOU
100
AcDbLine
 10
7834.21703198606
 20
8965.71536047325
 30
0.0
 11
7834.21703198606
 21
8650.715360473251
 31
0.0
  0
LINE
  5
18B2B
330
18745
100
AcDbEntity
  8
SUNPOU
100
AcDbLine
 10
7249.21703198606
 20
8695.715360473251
 30
0.0
 11
7819.21703198606
 21
8695.715360473251
 31
0.0
  0
LINE
  5
18B2C
330
18745
100
AcDbEntity
  8
SUNPOU
100
AcDbLine
 10
8534.217031986059
 20
6025.715360473252
 30
0.0
 11
8534.217031986059
 21
6290.715360473253
 31
0.0
  0
LINE
  5
18B2D
330
18745
100
AcDbEntity
  8
SUNPOU
100
AcDbLine
 10
9134.217031986059
 20
6025.715360473252
 30
0.0
 11
9134.217031986059
 21
6290.715360473253
 31
0.0
  0
LINE
  5
18B2E
330
18745
100
AcDbEntity
  8
SUNPOU
100
AcDbLine
 10
8549.21703198606
 20
6245.715360473253
 30
0.0
 11
9119.217031986059
 21
6245.715360473253
 31
0.0
  0
LINE
  5
18B2F
330
18745
100
AcDbEntity
  8
SUNPOU
100
AcDbLine
 10
12084.21703198605
 20
9280.71536047325
 30
0.0
 11
12084.21703198605
 21
7510.715360473253
 31
0.0
  0
LINE
  5
18B30
330
18745
100
AcDbEntity
  8
SUNPOU
100
AcDbLine
 10
12084.21703198605
 20
7480.715360473253
 30
0.0
 11
12084.21703198605
 21
5710.715360473253
 31
0.0
  0
LINE
  5
18B31
330
18745
100
AcDbEntity
  8
SUNPOU
100
AcDbLine
 10
8434.21703198606
 20
7925.715360473251
 30
0.0
 11
8434.21703198606
 21
8110.715360473252
 31
0.0
  0
LINE
  5
18B32
330
18745
100
AcDbEntity
  8
SUNPOU
100
AcDbLine
 10
9234.217031986061
 20
7925.715360473251
 30
0.0
 11
9234.217031986061
 21
8110.715360473252
 31
0.0
  0
LINE
  5
18B33
330
18745
100
AcDbEntity
  8
SUNPOU
100
AcDbLine
 10
8449.21703198606
 20
8065.715360473253
 30
0.0
 11
9219.21703198606
 21
8065.715360473253
 31
0.0
  0
LINE
  5
18B34
330
18745
100
AcDbEntity
  8
SUNPOU
100
AcDbLine
 10
9264.21703198606
 20
7895.715360473253
 30
0.0
 11
9614.21703198606
 21
7895.715360473253
 31
0.0
  0
LINE
  5
18B35
330
18745
100
AcDbEntity
  8
SUNPOU
100
AcDbLine
 10
9264.21703198606
 20
7095.715360473253
 30
0.0
 11
9614.21703198606
 21
7095.715360473253
 31
0.0
  0
LINE
  5
18B36
330
18745
100
AcDbEntity
  8
SUNPOU
100
AcDbLine
 10
9569.21703198606
 20
7880.715360473252
 30
0.0
 11
9569.21703198606
 21
7110.715360473252
 31
0.0
  0
ARC
  5
18B37
330
18745
100
AcDbEntity
  8
SUNPOU
100
AcDbCircle
 10
7750.758701212581
 20
3287.183932023015
 30
0.0
 40
5.625
100
AcDbArc
 50
0.0
 51
180.0
  0
ARC
  5
18B38
330
18745
100
AcDbEntity
  8
SUNPOU
100
AcDbCircle
 10
7750.758701212581
 20
3287.183932023015
 30
0.0
 40
5.625
100
AcDbArc
 50
180.0
 51
0.0
  0
TEXT
  5
18B39
330
18745
100
AcDbEntity
  8
SUNPOU
100
AcDbText
 10
7345.044415498293
 20
3332.183932023015
 30
0.0
 40
90.0
  1
400
 41
0.6666666666666666
  7
00
100
AcDbText
  0
LINE
  5
18B3A
330
18745
100
AcDbEntity
  8
SUNPOU
100
AcDbLine
 10
7122.00870121258
 20
3287.183932023015
 30
0.0
 11
7133.258701212581
 21
3287.183932023015
 31
0.0
  0
LINE
  5
18B3B
330
18745
100
AcDbEntity
  8
SUNPOU
100
AcDbLine
 10
7739.508701212582
 20
3287.183932023015
 30
0.0
 11
7728.25870121258
 21
3287.183932023015
 31
0.0
  0
TEXT
  5
18B3C
330
18745
100
AcDbEntity
  8
SUNPOU
100
AcDbText
 10
6584.758582955732
 20
2094.469646308731
 30
0.0
 40
90.0
  1
380
 50
90.0
 41
0.6666666666666666
  7
00
100
AcDbText
  0
LINE
  5
18B3D
330
18745
100
AcDbEntity
  8
SUNPOU
100
AcDbLine
 10
6629.758582955732
 20
1887.433932023015
 30
0.0
 11
6629.758582955732
 21
1898.683932023016
 31
0.0
  0
LINE
  5
18B3E
330
18745
100
AcDbEntity
  8
SUNPOU
100
AcDbLine
 10
6629.758582955734
 20
2472.933932023016
 30
0.0
 11
6629.758582955734
 21
2461.683932023015
 31
0.0
  0
TEXT
  5
18B3F
330
18745
100
AcDbEntity
  8
SUNPOU
100
AcDbText
 10
6584.758582955732
 20
1706.183932023019
 30
0.0
 40
90.0
  1
100
 50
90.0
 41
0.6666666666666666
  7
00
100
AcDbText
  0
LINE
  5
18B40
330
18745
100
AcDbEntity
  8
SUNPOU
100
AcDbLine
 10
6629.758582955732
 20
1727.433932023018
 30
0.0
 11
6629.758582955732
 21
1738.683932023018
 31
0.0
  0
LINE
  5
18B41
330
18745
100
AcDbEntity
  8
SUNPOU
100
AcDbLine
 10
6629.758582955732
 20
1864.933932023016
 30
0.0
 11
6629.758582955732
 21
1853.683932023017
 31
0.0
  0
TEXT
  5
18B42
330
18745
100
AcDbEntity
  8
SUNPOU
100
AcDbText
 10
6384.758582955733
 20
2014.469646308732
 30
0.0
 40
90.0
  1
480
 50
90.0
 41
0.6666666666666666
  7
00
100
AcDbText
  0
LINE
  5
18B43
330
18745
100
AcDbEntity
  8
SUNPOU
100
AcDbLine
 10
6429.758582955732
 20
1727.433932023018
 30
0.0
 11
6429.758582955732
 21
1738.683932023018
 31
0.0
  0
LINE
  5
18B44
330
18745
100
AcDbEntity
  8
SUNPOU
100
AcDbLine
 10
6429.758582955732
 20
2472.933932023016
 30
0.0
 11
6429.758582955732
 21
2461.683932023015
 31
0.0
  0
TEXT
  5
18B45
330
18745
100
AcDbEntity
  8
SUNPOU
100
AcDbText
 10
7665.044415498293
 20
1504.183932023015
 30
0.0
 40
90.0
  1
800
 41
0.6666666666666666
  7
00
100
AcDbText
  0
LINE
  5
18B46
330
18745
100
AcDbEntity
  8
SUNPOU
100
AcDbLine
 10
8379.508701212579
 20
1459.183932023015
 30
0.0
 11
8368.25870121258
 21
1459.183932023015
 31
0.0
  0
LINE
  5
18B47
330
18745
100
AcDbEntity
  8
SUNPOU
100
AcDbLine
 10
7122.00870121258
 20
1459.183932023015
 30
0.0
 11
7133.258701212581
 21
1459.183932023015
 31
0.0
  0
TEXT
  5
18B48
330
18745
100
AcDbEntity
  8
SUNPOU
100
AcDbText
 10
7632.187272641154
 20
1294.183932023014
 30
0.0
 40
90.0
  1
1000
 41
0.6666666666666666
  7
00
100
AcDbText
  0
LINE
  5
18B49
330
18745
100
AcDbEntity
  8
SUNPOU
100
AcDbLine
 10
8539.508701212579
 20
1249.183932023014
 30
0.0
 11
8528.258701212578
 21
1249.183932023014
 31
0.0
  0
LINE
  5
18B4A
330
18745
100
AcDbEntity
  8
SUNPOU
100
AcDbLine
 10
6962.008701212581
 20
1249.183932023014
 30
0.0
 11
6973.25870121258
 21
1249.183932023014
 31
0.0
  0
TEXT
  5
18B4B
330
18745
100
AcDbEntity
  8
SUNPOU
100
AcDbText
 10
3617.191057523529
 20
1504.183932023016
 30
0.0
 40
90.0
  1
600
 41
0.6666666666666666
  7
00
100
AcDbText
  0
LINE
  5
18B4C
330
18745
100
AcDbEntity
  8
SUNPOU
100
AcDbLine
 10
4173.083914666387
 20
1459.183932023016
 30
0.0
 11
4161.833914666385
 21
1459.183932023016
 31
0.0
  0
LINE
  5
18B4D
330
18745
100
AcDbEntity
  8
SUNPOU
100
AcDbLine
 10
3235.583914666387
 20
1459.183932023016
 30
0.0
 11
3246.833914666386
 21
1459.183932023016
 31
0.0
  0
TEXT
  5
18B4E
330
18745
100
AcDbEntity
  8
SUNPOU
100
AcDbText
 10
3618.6196289521
 20
1294.183932023016
 30
0.0
 40
90.0
  1
800
 41
0.6666666666666666
  7
00
100
AcDbText
  0
LINE
  5
18B4F
330
18745
100
AcDbEntity
  8
SUNPOU
100
AcDbLine
 10
4333.083914666387
 20
1249.183932023016
 30
0.0
 11
4321.833914666386
 21
1249.183932023016
 31
0.0
  0
LINE
  5
18B50
330
18745
100
AcDbEntity
  8
SUNPOU
100
AcDbLine
 10
3075.583914666387
 20
1249.183932023016
 30
0.0
 11
3086.833914666387
 21
1249.183932023016
 31
0.0
  0
TEXT
  5
18B51
330
18745
100
AcDbEntity
  8
SUNPOU
100
AcDbText
 10
2698.333796409537
 20
2094.469646308733
 30
0.0
 40
90.0
  1
380
 50
90.0
 41
0.6666666666666666
  7
00
100
AcDbText
  0
LINE
  5
18B52
330
18745
100
AcDbEntity
  8
SUNPOU
100
AcDbLine
 10
2743.333796409538
 20
1887.433932023017
 30
0.0
 11
2743.333796409538
 21
1898.683932023017
 31
0.0
  0
LINE
  5
18B53
330
18745
100
AcDbEntity
  8
SUNPOU
100
AcDbLine
 10
2743.333796409538
 20
2472.93393202302
 30
0.0
 11
2743.333796409538
 21
2461.68393202302
 31
0.0
  0
TEXT
  5
18B54
330
18745
100
AcDbEntity
  8
SUNPOU
100
AcDbText
 10
2698.333796409538
 20
1706.183932023019
 30
0.0
 40
90.0
  1
100
 50
90.0
 41
0.6666666666666666
  7
00
100
AcDbText
  0
LINE
  5
18B55
330
18745
100
AcDbEntity
  8
SUNPOU
100
AcDbLine
 10
2743.333796409539
 20
1727.433932023019
 30
0.0
 11
2743.333796409539
 21
1738.683932023019
 31
0.0
  0
LINE
  5
18B56
330
18745
100
AcDbEntity
  8
SUNPOU
100
AcDbLine
 10
2743.333796409539
 20
1864.933932023019
 30
0.0
 11
2743.333796409539
 21
1853.683932023018
 31
0.0
  0
TEXT
  5
18B57
330
18745
100
AcDbEntity
  8
SUNPOU
100
AcDbText
 10
2498.333796409538
 20
2014.469646308733
 30
0.0
 40
90.0
  1
480
 50
90.0
 41
0.6666666666666666
  7
00
100
AcDbText
  0
LINE
  5
18B58
330
18745
100
AcDbEntity
  8
SUNPOU
100
AcDbLine
 10
2543.333796409538
 20
1727.433932023019
 30
0.0
 11
2543.333796409538
 21
1738.683932023019
 31
0.0
  0
LINE
  5
18B59
330
18745
100
AcDbEntity
  8
SUNPOU
100
AcDbLine
 10
2543.333796409538
 20
2472.93393202302
 30
0.0
 11
2543.333796409538
 21
2461.68393202302
 31
0.0
  0
TEXT
  5
18B5A
330
18745
100
AcDbEntity
  8
SUNPOU
100
AcDbText
 10
3378.619628952101
 20
3332.183932023017
 30
0.0
 40
90.0
  1
300
 41
0.6666666666666666
  7
00
100
AcDbText
  0
LINE
  5
18B5B
330
18745
100
AcDbEntity
  8
SUNPOU
100
AcDbLine
 10
3235.583914666387
 20
3287.183932023017
 30
0.0
 11
3246.833914666386
 21
3287.183932023017
 31
0.0
  0
LINE
  5
18B5C
330
18745
100
AcDbEntity
  8
SUNPOU
100
AcDbLine
 10
3693.083914666386
 20
3287.183932023017
 30
0.0
 11
3681.833914666388
 21
3287.183932023017
 31
0.0
  0
ARC
  5
18B5D
330
18745
100
AcDbEntity
  8
SUNPOU
100
AcDbCircle
 10
3704.333914666387
 20
3287.183932023017
 30
0.0
 40
5.625
100
AcDbArc
 50
0.0
 51
180.0
  0
ARC
  5
18B5E
330
18745
100
AcDbEntity
  8
SUNPOU
100
AcDbCircle
 10
3704.333914666387
 20
3287.183932023017
 30
0.0
 40
5.625
100
AcDbArc
 50
180.0
 51
0.0
  0
TEXT
  5
18B5F
330
18745
100
AcDbEntity
  8
SUNPOU
100
AcDbText
 10
9389.21703198606
 20
5608.572503330398
 30
0.0
 40
90.0
  1
600
 50
90.0
 41
0.6666666666666666
  7
00
100
AcDbText
  0
LINE
  5
18B60
330
18745
100
AcDbEntity
  8
SUNPOU
100
AcDbLine
 10
9434.21703198606
 20
5406.965360473254
 30
0.0
 11
9434.21703198606
 21
5418.215360473254
 31
0.0
  0
LINE
  5
18B61
330
18745
100
AcDbEntity
  8
SUNPOU
100
AcDbLine
 10
9434.21703198606
 20
5984.465360473254
 30
0.0
 11
9434.21703198606
 21
5973.215360473255
 31
0.0
  0
ARC
  5
18B62
330
18745
100
AcDbEntity
  8
SUNPOU
100
AcDbCircle
 10
7534.217031986059
 20
9995.715360473253
 30
0.0
 40
5.625
100
AcDbArc
 50
0.0
 51
180.0
  0
ARC
  5
18B63
330
18745
100
AcDbEntity
  8
SUNPOU
100
AcDbCircle
 10
7534.217031986059
 20
9995.715360473253
 30
0.0
 40
5.625
100
AcDbArc
 50
180.0
 51
0.0
  0
ARC
  5
18B64
330
18745
100
AcDbEntity
  8
SUNPOU
100
AcDbCircle
 10
8834.21703198606
 20
9995.715360473253
 30
0.0
 40
5.625
100
AcDbArc
 50
180.0
 51
0.0
  0
ARC
  5
18B65
330
18745
100
AcDbEntity
  8
SUNPOU
100
AcDbCircle
 10
8834.21703198606
 20
9995.715360473253
 30
0.0
 40
5.625
100
AcDbArc
 50
0.0
 51
180.0
  0
TEXT
  5
18B66
330
18745
100
AcDbEntity
  8
SUNPOU
100
AcDbText
 10
7720.502746271773
 20
10250.71536047325
 30
0.0
 40
90.0
  1
L = 2450 x N + 800
 41
0.6666666666666666
  7
00
100
AcDbText
  0
LINE
  5
18B67
330
18745
100
AcDbEntity
  8
SUNPOU
100
AcDbLine
 10
11672.96703198606
 20
10205.71536047325
 30
0.0
 11
11661.71703198606
 21
10205.71536047325
 31
0.0
  0
LINE
  5
18B68
330
18745
100
AcDbEntity
  8
SUNPOU
100
AcDbLine
 10
4695.467031986058
 20
10205.71536047325
 30
0.0
 11
4706.71703198606
 21
10205.71536047325
 31
0.0
  0
TEXT
  5
18B69
330
18745
100
AcDbEntity
  8
SUNPOU
100
AcDbText
 10
6194.931317700345
 20
10040.71536047325
 30
0.0
 40
90.0
  1
2450
 41
0.6666666666666666
  7
00
100
AcDbText
  0
LINE
  5
18B6A
330
18745
100
AcDbEntity
  8
SUNPOU
100
AcDbLine
 10
5095.46703198606
 20
9995.715360473253
 30
0.0
 11
5106.71703198606
 21
9995.715360473253
 31
0.0
  0
LINE
  5
18B6B
330
18745
100
AcDbEntity
  8
SUNPOU
100
AcDbLine
 10
7522.96703198606
 20
9995.715360473253
 30
0.0
 11
7511.71703198606
 21
9995.715360473253
 31
0.0
  0
TEXT
  5
18B6C
330
18745
100
AcDbEntity
  8
SUNPOU
100
AcDbText
 10
9944.931317700344
 20
10040.71536047325
 30
0.0
 40
90.0
  1
2450
 41
0.6666666666666666
  7
00
100
AcDbText
  0
LINE
  5
18B6D
330
18745
100
AcDbEntity
  8
SUNPOU
100
AcDbLine
 10
8845.467031986059
 20
9995.715360473253
 30
0.0
 11
8856.717031986059
 21
9995.715360473253
 31
0.0
  0
LINE
  5
18B6E
330
18745
100
AcDbEntity
  8
SUNPOU
100
AcDbLine
 10
11272.96703198606
 20
9995.715360473253
 30
0.0
 11
11261.71703198606
 21
9995.715360473253
 31
0.0
  0
TEXT
  5
18B6F
330
18745
100
AcDbEntity
  8
SUNPOU
100
AcDbText
 10
4798.502746271775
 20
10040.71536047325
 30
0.0
 40
90.0
  1
400
 41
0.6666666666666666
  7
00
100
AcDbText
  0
LINE
  5
18B70
330
18745
100
AcDbEntity
  8
SUNPOU
100
AcDbLine
 10
4695.467031986058
 20
9995.715360473253
 30
0.0
 11
4706.71703198606
 21
9995.715360473253
 31
0.0
  0
LINE
  5
18B71
330
18745
100
AcDbEntity
  8
SUNPOU
100
AcDbLine
 10
5072.96703198606
 20
9995.715360473253
 30
0.0
 11
5061.717031986058
 21
9995.715360473253
 31
0.0
  0
TEXT
  5
18B72
330
18745
100
AcDbEntity
  8
SUNPOU
100
AcDbText
 10
11398.50274627177
 20
10040.71536047325
 30
0.0
 40
90.0
  1
400
 41
0.6666666666666666
  7
00
100
AcDbText
  0
LINE
  5
18B73
330
18745
100
AcDbEntity
  8
SUNPOU
100
AcDbLine
 10
11672.96703198606
 20
9995.715360473253
 30
0.0
 11
11661.71703198606
 21
9995.715360473253
 31
0.0
  0
LINE
  5
18B74
330
18745
100
AcDbEntity
  8
SUNPOU
100
AcDbLine
 10
11295.46703198605
 20
9995.715360473253
 30
0.0
 11
11306.71703198605
 21
9995.715360473253
 31
0.0
  0
ARC
  5
18B75
330
18745
100
AcDbEntity
  8
SUNPOU
100
AcDbCircle
 10
12294.21703198606
 20
9595.715360473253
 30
0.0
 40
5.625
100
AcDbArc
 50
270.0
 51
90.0
  0
ARC
  5
18B76
330
18745
100
AcDbEntity
  8
SUNPOU
100
AcDbCircle
 10
12294.21703198606
 20
9595.715360473253
 30
0.0
 40
5.625
100
AcDbArc
 50
90.0
 51
270.0
  0
ARC
  5
18B77
330
18745
100
AcDbEntity
  8
SUNPOU
100
AcDbCircle
 10
12084.21703198605
 20
9595.715360473253
 30
0.0
 40
5.625
100
AcDbArc
 50
270.0
 51
90.0
  0
ARC
  5
18B78
330
18745
100
AcDbEntity
  8
SUNPOU
100
AcDbCircle
 10
12084.21703198605
 20
9595.715360473253
 30
0.0
 40
5.625
100
AcDbArc
 50
90.0
 51
270.0
  0
ARC
  5
18B79
330
18745
100
AcDbEntity
  8
SUNPOU
100
AcDbCircle
 10
12084.21703198605
 20
9295.715360473252
 30
0.0
 40
5.625
100
AcDbArc
 50
270.0
 51
90.0
  0
ARC
  5
18B7A
330
18745
100
AcDbEntity
  8
SUNPOU
100
AcDbCircle
 10
12084.21703198605
 20
9295.715360473252
 30
0.0
 40
5.625
100
AcDbArc
 50
90.0
 51
270.0
  0
ARC
  5
18B7B
330
18745
100
AcDbEntity
  8
SUNPOU
100
AcDbCircle
 10
12084.21703198605
 20
9295.715360473252
 30
0.0
 40
5.625
100
AcDbArc
 50
90.0
 51
270.0
  0
ARC
  5
18B7C
330
18745
100
AcDbEntity
  8
SUNPOU
100
AcDbCircle
 10
12084.21703198605
 20
9295.715360473252
 30
0.0
 40
5.625
100
AcDbArc
 50
270.0
 51
90.0
  0
ARC
  5
18B7D
330
18745
100
AcDbEntity
  8
SUNPOU
100
AcDbCircle
 10
12084.21703198605
 20
5695.715360473253
 30
0.0
 40
5.625
100
AcDbArc
 50
270.0
 51
90.0
  0
ARC
  5
18B7E
330
18745
100
AcDbEntity
  8
SUNPOU
100
AcDbCircle
 10
12084.21703198605
 20
5695.715360473253
 30
0.0
 40
5.625
100
AcDbArc
 50
90.0
 51
270.0
  0
ARC
  5
18B7F
330
18745
100
AcDbEntity
  8
SUNPOU
100
AcDbCircle
 10
12084.21703198605
 20
5695.715360473253
 30
0.0
 40
5.625
100
AcDbArc
 50
90.0
 51
270.0
  0
ARC
  5
18B80
330
18745
100
AcDbEntity
  8
SUNPOU
100
AcDbCircle
 10
12084.21703198605
 20
5695.715360473253
 30
0.0
 40
5.625
100
AcDbArc
 50
270.0
 51
90.0
  0
ARC
  5
18B81
330
18745
100
AcDbEntity
  8
SUNPOU
100
AcDbCircle
 10
12294.21703198606
 20
5395.715360473253
 30
0.0
 40
5.625
100
AcDbArc
 50
90.0
 51
270.0
  0
ARC
  5
18B82
330
18745
100
AcDbEntity
  8
SUNPOU
100
AcDbCircle
 10
12294.21703198606
 20
5395.715360473253
 30
0.0
 40
5.625
100
AcDbArc
 50
270.0
 51
90.0
  0
ARC
  5
18B83
330
18745
100
AcDbEntity
  8
SUNPOU
100
AcDbCircle
 10
12084.21703198605
 20
5395.715360473253
 30
0.0
 40
5.625
100
AcDbArc
 50
90.0
 51
270.0
  0
ARC
  5
18B84
330
18745
100
AcDbEntity
  8
SUNPOU
100
AcDbCircle
 10
12084.21703198605
 20
5395.715360473253
 30
0.0
 40
5.625
100
AcDbArc
 50
270.0
 51
90.0
  0
TEXT
  5
18B85
330
18745
100
AcDbEntity
  8
SUNPOU
100
AcDbText
 10
6889.21703198606
 20
9208.572503330399
 30
0.0
 40
90.0
  1
600
 50
90.0
 41
0.6666666666666666
  7
00
100
AcDbText
  0
LINE
  5
18B86
330
18745
100
AcDbEntity
  8
SUNPOU
100
AcDbLine
 10
6934.21703198606
 20
9006.96536047325
 30
0.0
 11
6934.21703198606
 21
9018.215360473252
 31
0.0
  0
LINE
  5
18B87
330
18745
100
AcDbEntity
  8
SUNPOU
100
AcDbLine
 10
6934.21703198606
 20
9584.465360473252
 30
0.0
 11
6934.21703198606
 21
9573.215360473252
 31
0.0
  0
TEXT
  5
18B88
330
18745
100
AcDbEntity
  8
SUNPOU
100
AcDbText
 10
7447.074174843203
 20
8740.715360473251
 30
0.0
 40
90.0
  1
600
 41
0.6666666666666666
  7
00
100
AcDbText
  0
LINE
  5
18B89
330
18745
100
AcDbEntity
  8
SUNPOU
100
AcDbLine
 10
7822.96703198606
 20
8695.715360473251
 30
0.0
 11
7811.71703198606
 21
8695.715360473251
 31
0.0
  0
LINE
  5
18B8A
330
18745
100
AcDbEntity
  8
SUNPOU
100
AcDbLine
 10
7245.467031986058
 20
8695.715360473251
 30
0.0
 11
7256.71703198606
 21
8695.715360473251
 31
0.0
  0
TEXT
  5
18B8B
330
18745
100
AcDbEntity
  8
SUNPOU
100
AcDbText
 10
8747.074174843204
 20
6290.715360473253
 30
0.0
 40
90.0
  1
600
 41
0.6666666666666666
  7
00
100
AcDbText
  0
LINE
  5
18B8C
330
18745
100
AcDbEntity
  8
SUNPOU
100
AcDbLine
 10
9122.96703198606
 20
6245.715360473253
 30
0.0
 11
9111.71703198606
 21
6245.715360473253
 31
0.0
  0
LINE
  5
18B8D
330
18745
100
AcDbEntity
  8
SUNPOU
100
AcDbLine
 10
8545.46703198606
 20
6245.715360473253
 30
0.0
 11
8556.717031986059
 21
6245.715360473253
 31
0.0
  0
TEXT
  5
18B8E
330
18745
100
AcDbEntity
  8
SUNPOU
100
AcDbText
 10
12039.21703198606
 20
8277.143931901829
 30
0.0
 40
90.0
  1
1800
 50
90.0
 41
0.6666666666666666
  7
00
100
AcDbText
  0
LINE
  5
18B8F
330
18745
100
AcDbEntity
  8
SUNPOU
100
AcDbLine
 10
12084.21703198605
 20
7506.965360473255
 30
0.0
 11
12084.21703198605
 21
7518.215360473253
 31
0.0
  0
LINE
  5
18B90
330
18745
100
AcDbEntity
  8
SUNPOU
100
AcDbLine
 10
12084.21703198605
 20
9284.465360473253
 30
0.0
 11
12084.21703198605
 21
9273.215360473249
 31
0.0
  0
TEXT
  5
18B91
330
18745
100
AcDbEntity
  8
SUNPOU
100
AcDbText
 10
12039.21703198606
 20
6477.143931901827
 30
0.0
 40
90.0
  1
1800
 50
90.0
 41
0.6666666666666666
  7
00
100
AcDbText
  0
LINE
  5
18B92
330
18745
100
AcDbEntity
  8
SUNPOU
100
AcDbLine
 10
12084.21703198605
 20
5706.965360473253
 30
0.0
 11
12084.21703198605
 21
5718.215360473253
 31
0.0
  0
LINE
  5
18B93
330
18745
100
AcDbEntity
  8
SUNPOU
100
AcDbLine
 10
12084.21703198605
 20
7484.465360473253
 30
0.0
 11
12084.21703198605
 21
7473.215360473253
 31
0.0
  0
TEXT
  5
18B94
330
18745
100
AcDbEntity
  8
SUNPOU
100
AcDbText
 10
8748.502746271773
 20
8110.715360473252
 30
0.0
 40
90.0
  1
800
 41
0.6666666666666666
  7
00
100
AcDbText
  0
LINE
  5
18B95
330
18745
100
AcDbEntity
  8
SUNPOU
100
AcDbLine
 10
9222.96703198606
 20
8065.715360473253
 30
0.0
 11
9211.71703198606
 21
8065.715360473253
 31
0.0
  0
LINE
  5
18B96
330
18745
100
AcDbEntity
  8
SUNPOU
100
AcDbLine
 10
8445.46703198606
 20
8065.715360473253
 30
0.0
 11
8456.717031986059
 21
8065.715360473253
 31
0.0
  0
TEXT
  5
18B97
330
18745
100
AcDbEntity
  8
SUNPOU
100
AcDbText
 10
9524.217031986058
 20
7410.001074758966
 30
0.0
 40
90.0
  1
800
 50
90.0
 41
0.6666666666666666
  7
00
100
AcDbText
  0
LINE
  5
18B98
330
18745
100
AcDbEntity
  8
SUNPOU
100
AcDbLine
 10
9569.21703198606
 20
7106.965360473252
 30
0.0
 11
9569.21703198606
 21
7118.215360473252
 31
0.0
  0
LINE
  5
18B99
330
18745
100
AcDbEntity
  8
SUNPOU
100
AcDbLine
 10
9569.21703198606
 20
7884.465360473253
 30
0.0
 11
9569.21703198606
 21
7873.215360473252
 31
0.0
  0
ARC
  5
18B9A
330
18745
100
AcDbEntity
  8
SUNPOU
100
AcDbCircle
 10
7110.758701212581
 20
3287.183932023015
 30
0.0
 40
5.625
100
AcDbArc
 50
0.0
 51
180.0
  0
ARC
  5
18B9B
330
18745
100
AcDbEntity
  8
SUNPOU
100
AcDbCircle
 10
7110.758701212581
 20
3287.183932023015
 30
0.0
 40
5.625
100
AcDbArc
 50
180.0
 51
0.0
  0
ARC
  5
18B9C
330
18745
100
AcDbEntity
  8
SUNPOU
100
AcDbCircle
 10
7750.758701212581
 20
3287.183932023015
 30
0.0
 40
5.625
100
AcDbArc
 50
180.0
 51
0.0
  0
ARC
  5
18B9D
330
18745
100
AcDbEntity
  8
SUNPOU
100
AcDbCircle
 10
7750.758701212581
 20
3287.183932023015
 30
0.0
 40
5.625
100
AcDbArc
 50
0.0
 51
180.0
  0
ARC
  5
18B9E
330
18745
100
AcDbEntity
  8
SUNPOU
100
AcDbCircle
 10
6629.758582955732
 20
1876.183932023016
 30
0.0
 40
5.625
100
AcDbArc
 50
90.0
 51
270.0
  0
ARC
  5
18B9F
330
18745
100
AcDbEntity
  8
SUNPOU
100
AcDbCircle
 10
6629.758582955732
 20
1876.183932023016
 30
0.0
 40
5.625
100
AcDbArc
 50
270.0
 51
90.0
  0
ARC
  5
18BA0
330
18745
100
AcDbEntity
  8
SUNPOU
100
AcDbCircle
 10
6629.758582955734
 20
2484.183932023016
 30
0.0
 40
5.625
100
AcDbArc
 50
270.0
 51
90.0
  0
ARC
  5
18BA1
330
18745
100
AcDbEntity
  8
SUNPOU
100
AcDbCircle
 10
6629.758582955734
 20
2484.183932023016
 30
0.0
 40
5.625
100
AcDbArc
 50
90.0
 51
270.0
  0
ARC
  5
18BA2
330
18745
100
AcDbEntity
  8
SUNPOU
100
AcDbCircle
 10
6629.758582955732
 20
1716.183932023017
 30
0.0
 40
5.625
100
AcDbArc
 50
90.0
 51
270.0
  0
ARC
  5
18BA3
330
18745
100
AcDbEntity
  8
SUNPOU
100
AcDbCircle
 10
6629.758582955732
 20
1716.183932023017
 30
0.0
 40
5.625
100
AcDbArc
 50
270.0
 51
90.0
  0
ARC
  5
18BA4
330
18745
100
AcDbEntity
  8
SUNPOU
100
AcDbCircle
 10
6629.758582955732
 20
1876.183932023017
 30
0.0
 40
5.625
100
AcDbArc
 50
270.0
 51
90.0
  0
ARC
  5
18BA5
330
18745
100
AcDbEntity
  8
SUNPOU
100
AcDbCircle
 10
6629.758582955732
 20
1876.183932023017
 30
0.0
 40
5.625
100
AcDbArc
 50
90.0
 51
270.0
  0
ARC
  5
18BA6
330
18745
100
AcDbEntity
  8
SUNPOU
100
AcDbCircle
 10
6429.758582955732
 20
1716.183932023017
 30
0.0
 40
5.625
100
AcDbArc
 50
90.0
 51
270.0
  0
ARC
  5
18BA7
330
18745
100
AcDbEntity
  8
SUNPOU
100
AcDbCircle
 10
6429.758582955732
 20
1716.183932023017
 30
0.0
 40
5.625
100
AcDbArc
 50
270.0
 51
90.0
  0
ARC
  5
18BA8
330
18745
100
AcDbEntity
  8
SUNPOU
100
AcDbCircle
 10
6429.758582955732
 20
2484.183932023016
 30
0.0
 40
5.625
100
AcDbArc
 50
270.0
 51
90.0
  0
ARC
  5
18BA9
330
18745
100
AcDbEntity
  8
SUNPOU
100
AcDbCircle
 10
6429.758582955732
 20
2484.183932023016
 30
0.0
 40
5.625
100
AcDbArc
 50
90.0
 51
270.0
  0
ARC
  5
18BAA
330
18745
100
AcDbEntity
  8
SUNPOU
100
AcDbCircle
 10
8390.758701212579
 20
1459.183932023015
 30
0.0
 40
5.625
100
AcDbArc
 50
180.0
 51
0.0
  0
ARC
  5
18BAB
330
18745
100
AcDbEntity
  8
SUNPOU
100
AcDbCircle
 10
8390.758701212579
 20
1459.183932023015
 30
0.0
 40
5.625
100
AcDbArc
 50
0.0
 51
180.0
  0
ARC
  5
18BAC
330
18745
100
AcDbEntity
  8
SUNPOU
100
AcDbCircle
 10
7110.758701212581
 20
1459.183932023015
 30
0.0
 40
5.625
100
AcDbArc
 50
0.0
 51
180.0
  0
ARC
  5
18BAD
330
18745
100
AcDbEntity
  8
SUNPOU
100
AcDbCircle
 10
7110.758701212581
 20
1459.183932023015
 30
0.0
 40
5.625
100
AcDbArc
 50
180.0
 51
0.0
  0
ARC
  5
18BAE
330
18745
100
AcDbEntity
  8
SUNPOU
100
AcDbCircle
 10
8550.758701212577
 20
1249.183932023014
 30
0.0
 40
5.625
100
AcDbArc
 50
180.0
 51
0.0
  0
ARC
  5
18BAF
330
18745
100
AcDbEntity
  8
SUNPOU
100
AcDbCircle
 10
8550.758701212577
 20
1249.183932023014
 30
0.0
 40
5.625
100
AcDbArc
 50
0.0
 51
180.0
  0
ARC
  5
18BB0
330
18745
100
AcDbEntity
  8
SUNPOU
100
AcDbCircle
 10
6950.758701212581
 20
1249.183932023014
 30
0.0
 40
5.625
100
AcDbArc
 50
0.0
 51
180.0
  0
ARC
  5
18BB1
330
18745
100
AcDbEntity
  8
SUNPOU
100
AcDbCircle
 10
6950.758701212581
 20
1249.183932023014
 30
0.0
 40
5.625
100
AcDbArc
 50
180.0
 51
0.0
  0
ARC
  5
18BB2
330
18745
100
AcDbEntity
  8
SUNPOU
100
AcDbCircle
 10
4184.333914666385
 20
1459.183932023016
 30
0.0
 40
5.625
100
AcDbArc
 50
180.0
 51
0.0
  0
ARC
  5
18BB3
330
18745
100
AcDbEntity
  8
SUNPOU
100
AcDbCircle
 10
4184.333914666385
 20
1459.183932023016
 30
0.0
 40
5.625
100
AcDbArc
 50
0.0
 51
180.0
  0
ARC
  5
18BB4
330
18745
100
AcDbEntity
  8
SUNPOU
100
AcDbCircle
 10
3224.333914666386
 20
1459.183932023016
 30
0.0
 40
5.625
100
AcDbArc
 50
0.0
 51
180.0
  0
ARC
  5
18BB5
330
18745
100
AcDbEntity
  8
SUNPOU
100
AcDbCircle
 10
3224.333914666386
 20
1459.183932023016
 30
0.0
 40
5.625
100
AcDbArc
 50
180.0
 51
0.0
  0
ARC
  5
18BB6
330
18745
100
AcDbEntity
  8
SUNPOU
100
AcDbCircle
 10
4344.333914666385
 20
1249.183932023016
 30
0.0
 40
5.625
100
AcDbArc
 50
180.0
 51
0.0
  0
ARC
  5
18BB7
330
18745
100
AcDbEntity
  8
SUNPOU
100
AcDbCircle
 10
4344.333914666385
 20
1249.183932023016
 30
0.0
 40
5.625
100
AcDbArc
 50
0.0
 51
180.0
  0
ARC
  5
18BB8
330
18745
100
AcDbEntity
  8
SUNPOU
100
AcDbCircle
 10
3064.333914666386
 20
1249.183932023016
 30
0.0
 40
5.625
100
AcDbArc
 50
0.0
 51
180.0
  0
ARC
  5
18BB9
330
18745
100
AcDbEntity
  8
SUNPOU
100
AcDbCircle
 10
3064.333914666386
 20
1249.183932023016
 30
0.0
 40
5.625
100
AcDbArc
 50
180.0
 51
0.0
  0
ARC
  5
18BBA
330
18745
100
AcDbEntity
  8
SUNPOU
100
AcDbCircle
 10
2743.333796409538
 20
1876.183932023018
 30
0.0
 40
5.625
100
AcDbArc
 50
90.0
 51
270.0
  0
ARC
  5
18BBB
330
18745
100
AcDbEntity
  8
SUNPOU
100
AcDbCircle
 10
2743.333796409538
 20
1876.183932023018
 30
0.0
 40
5.625
100
AcDbArc
 50
270.0
 51
90.0
  0
ARC
  5
18BBC
330
18745
100
AcDbEntity
  8
SUNPOU
100
AcDbCircle
 10
2743.333796409538
 20
2484.18393202302
 30
0.0
 40
5.625
100
AcDbArc
 50
270.0
 51
90.0
  0
ARC
  5
18BBD
330
18745
100
AcDbEntity
  8
SUNPOU
100
AcDbCircle
 10
2743.333796409538
 20
2484.18393202302
 30
0.0
 40
5.625
100
AcDbArc
 50
90.0
 51
270.0
  0
ARC
  5
18BBE
330
18745
100
AcDbEntity
  8
SUNPOU
100
AcDbCircle
 10
2743.333796409539
 20
1716.183932023018
 30
0.0
 40
5.625
100
AcDbArc
 50
90.0
 51
270.0
  0
ARC
  5
18BBF
330
18745
100
AcDbEntity
  8
SUNPOU
100
AcDbCircle
 10
2743.333796409539
 20
1716.183932023018
 30
0.0
 40
5.625
100
AcDbArc
 50
270.0
 51
90.0
  0
ARC
  5
18BC0
330
18745
100
AcDbEntity
  8
SUNPOU
100
AcDbCircle
 10
2743.333796409539
 20
1876.183932023019
 30
0.0
 40
5.625
100
AcDbArc
 50
270.0
 51
90.0
  0
ARC
  5
18BC1
330
18745
100
AcDbEntity
  8
SUNPOU
100
AcDbCircle
 10
2743.333796409539
 20
1876.183932023019
 30
0.0
 40
5.625
100
AcDbArc
 50
90.0
 51
270.0
  0
ARC
  5
18BC2
330
18745
100
AcDbEntity
  8
SUNPOU
100
AcDbCircle
 10
2543.333796409538
 20
1716.183932023018
 30
0.0
 40
5.625
100
AcDbArc
 50
90.0
 51
270.0
  0
ARC
  5
18BC3
330
18745
100
AcDbEntity
  8
SUNPOU
100
AcDbCircle
 10
2543.333796409538
 20
1716.183932023018
 30
0.0
 40
5.625
100
AcDbArc
 50
270.0
 51
90.0
  0
ARC
  5
18BC4
330
18745
100
AcDbEntity
  8
SUNPOU
100
AcDbCircle
 10
2543.333796409538
 20
2484.18393202302
 30
0.0
 40
5.625
100
AcDbArc
 50
270.0
 51
90.0
  0
ARC
  5
18BC5
330
18745
100
AcDbEntity
  8
SUNPOU
100
AcDbCircle
 10
2543.333796409538
 20
2484.18393202302
 30
0.0
 40
5.625
100
AcDbArc
 50
90.0
 51
270.0
  0
ARC
  5
18BC6
330
18745
100
AcDbEntity
  8
SUNPOU
100
AcDbCircle
 10
3224.333914666386
 20
3287.183932023017
 30
0.0
 40
5.625
100
AcDbArc
 50
0.0
 51
180.0
  0
ARC
  5
18BC7
330
18745
100
AcDbEntity
  8
SUNPOU
100
AcDbCircle
 10
3224.333914666386
 20
3287.183932023017
 30
0.0
 40
5.625
100
AcDbArc
 50
180.0
 51
0.0
  0
ARC
  5
18BC8
330
18745
100
AcDbEntity
  8
SUNPOU
100
AcDbCircle
 10
3704.333914666387
 20
3287.183932023017
 30
0.0
 40
5.625
100
AcDbArc
 50
180.0
 51
0.0
  0
ARC
  5
18BC9
330
18745
100
AcDbEntity
  8
SUNPOU
100
AcDbCircle
 10
3704.333914666387
 20
3287.183932023017
 30
0.0
 40
5.625
100
AcDbArc
 50
0.0
 51
180.0
  0
ARC
  5
18BCA
330
18745
100
AcDbEntity
  8
SUNPOU
100
AcDbCircle
 10
9434.21703198606
 20
5395.715360473253
 30
0.0
 40
5.625
100
AcDbArc
 50
90.0
 51
270.0
  0
ARC
  5
18BCB
330
18745
100
AcDbEntity
  8
SUNPOU
100
AcDbCircle
 10
9434.21703198606
 20
5395.715360473253
 30
0.0
 40
5.625
100
AcDbArc
 50
270.0
 51
90.0
  0
ARC
  5
18BCC
330
18745
100
AcDbEntity
  8
SUNPOU
100
AcDbCircle
 10
9434.21703198606
 20
5995.715360473255
 30
0.0
 40
5.625
100
AcDbArc
 50
270.0
 51
90.0
  0
ARC
  5
18BCD
330
18745
100
AcDbEntity
  8
SUNPOU
100
AcDbCircle
 10
9434.21703198606
 20
5995.715360473255
 30
0.0
 40
5.625
100
AcDbArc
 50
90.0
 51
270.0
  0
ARC
  5
18BCE
330
18745
100
AcDbEntity
  8
SUNPOU
100
AcDbCircle
 10
11684.21703198605
 20
10205.71536047325
 30
0.0
 40
5.625
100
AcDbArc
 50
180.0
 51
0.0
  0
ARC
  5
18BCF
330
18745
100
AcDbEntity
  8
SUNPOU
100
AcDbCircle
 10
11684.21703198605
 20
10205.71536047325
 30
0.0
 40
5.625
100
AcDbArc
 50
0.0
 51
180.0
  0
ARC
  5
18BD0
330
18745
100
AcDbEntity
  8
SUNPOU
100
AcDbCircle
 10
4684.21703198606
 20
10205.71536047325
 30
0.0
 40
5.625
100
AcDbArc
 50
0.0
 51
180.0
  0
ARC
  5
18BD1
330
18745
100
AcDbEntity
  8
SUNPOU
100
AcDbCircle
 10
4684.21703198606
 20
10205.71536047325
 30
0.0
 40
5.625
100
AcDbArc
 50
180.0
 51
0.0
  0
ARC
  5
18BD2
330
18745
100
AcDbEntity
  8
SUNPOU
100
AcDbCircle
 10
5084.21703198606
 20
9995.715360473253
 30
0.0
 40
5.625
100
AcDbArc
 50
0.0
 51
180.0
  0
ARC
  5
18BD3
330
18745
100
AcDbEntity
  8
SUNPOU
100
AcDbCircle
 10
5084.21703198606
 20
9995.715360473253
 30
0.0
 40
5.625
100
AcDbArc
 50
180.0
 51
0.0
  0
ARC
  5
18BD4
330
18745
100
AcDbEntity
  8
SUNPOU
100
AcDbCircle
 10
7534.217031986059
 20
9995.715360473253
 30
0.0
 40
5.625
100
AcDbArc
 50
180.0
 51
0.0
  0
ARC
  5
18BD5
330
18745
100
AcDbEntity
  8
SUNPOU
100
AcDbCircle
 10
7534.217031986059
 20
9995.715360473253
 30
0.0
 40
5.625
100
AcDbArc
 50
0.0
 51
180.0
  0
ARC
  5
18BD6
330
18745
100
AcDbEntity
  8
SUNPOU
100
AcDbCircle
 10
8834.21703198606
 20
9995.715360473253
 30
0.0
 40
5.625
100
AcDbArc
 50
0.0
 51
180.0
  0
ARC
  5
18BD7
330
18745
100
AcDbEntity
  8
SUNPOU
100
AcDbCircle
 10
8834.21703198606
 20
9995.715360473253
 30
0.0
 40
5.625
100
AcDbArc
 50
180.0
 51
0.0
  0
ARC
  5
18BD8
330
18745
100
AcDbEntity
  8
SUNPOU
100
AcDbCircle
 10
11284.21703198606
 20
9995.715360473253
 30
0.0
 40
5.625
100
AcDbArc
 50
180.0
 51
0.0
  0
ARC
  5
18BD9
330
18745
100
AcDbEntity
  8
SUNPOU
100
AcDbCircle
 10
11284.21703198606
 20
9995.715360473253
 30
0.0
 40
5.625
100
AcDbArc
 50
0.0
 51
180.0
  0
ARC
  5
18BDA
330
18745
100
AcDbEntity
  8
SUNPOU
100
AcDbCircle
 10
4684.21703198606
 20
9995.715360473253
 30
0.0
 40
5.625
100
AcDbArc
 50
0.0
 51
180.0
  0
ARC
  5
18BDB
330
18745
100
AcDbEntity
  8
SUNPOU
100
AcDbCircle
 10
4684.21703198606
 20
9995.715360473253
 30
0.0
 40
5.625
100
AcDbArc
 50
180.0
 51
0.0
  0
ARC
  5
18BDC
330
18745
100
AcDbEntity
  8
SUNPOU
100
AcDbCircle
 10
5084.21703198606
 20
9995.715360473253
 30
0.0
 40
5.625
100
AcDbArc
 50
180.0
 51
0.0
  0
ARC
  5
18BDD
330
18745
100
AcDbEntity
  8
SUNPOU
100
AcDbCircle
 10
5084.21703198606
 20
9995.715360473253
 30
0.0
 40
5.625
100
AcDbArc
 50
0.0
 51
180.0
  0
ARC
  5
18BDE
330
18745
100
AcDbEntity
  8
SUNPOU
100
AcDbCircle
 10
11684.21703198605
 20
9995.715360473253
 30
0.0
 40
5.625
100
AcDbArc
 50
180.0
 51
0.0
  0
ARC
  5
18BDF
330
18745
100
AcDbEntity
  8
SUNPOU
100
AcDbCircle
 10
11684.21703198605
 20
9995.715360473253
 30
0.0
 40
5.625
100
AcDbArc
 50
0.0
 51
180.0
  0
ARC
  5
18BE0
330
18745
100
AcDbEntity
  8
SUNPOU
100
AcDbCircle
 10
11284.21703198606
 20
9995.715360473253
 30
0.0
 40
5.625
100
AcDbArc
 50
0.0
 51
180.0
  0
ARC
  5
18BE1
330
18745
100
AcDbEntity
  8
SUNPOU
100
AcDbCircle
 10
11284.21703198606
 20
9995.715360473253
 30
0.0
 40
5.625
100
AcDbArc
 50
180.0
 51
0.0
  0
ARC
  5
18BE2
330
18745
100
AcDbEntity
  8
SUNPOU
100
AcDbCircle
 10
6934.21703198606
 20
8995.715360473253
 30
0.0
 40
5.625
100
AcDbArc
 50
90.0
 51
270.0
  0
ARC
  5
18BE3
330
18745
100
AcDbEntity
  8
SUNPOU
100
AcDbCircle
 10
6934.21703198606
 20
8995.715360473253
 30
0.0
 40
5.625
100
AcDbArc
 50
270.0
 51
90.0
  0
ARC
  5
18BE4
330
18745
100
AcDbEntity
  8
SUNPOU
100
AcDbCircle
 10
6934.21703198606
 20
9595.715360473253
 30
0.0
 40
5.625
100
AcDbArc
 50
270.0
 51
90.0
  0
ARC
  5
18BE5
330
18745
100
AcDbEntity
  8
SUNPOU
100
AcDbCircle
 10
6934.21703198606
 20
9595.715360473253
 30
0.0
 40
5.625
100
AcDbArc
 50
90.0
 51
270.0
  0
ARC
  5
18BE6
330
18745
100
AcDbEntity
  8
SUNPOU
100
AcDbCircle
 10
7834.21703198606
 20
8695.715360473251
 30
0.0
 40
5.625
100
AcDbArc
 50
180.0
 51
0.0
  0
ARC
  5
18BE7
330
18745
100
AcDbEntity
  8
SUNPOU
100
AcDbCircle
 10
7834.21703198606
 20
8695.715360473251
 30
0.0
 40
5.625
100
AcDbArc
 50
0.0
 51
180.0
  0
ARC
  5
18BE8
330
18745
100
AcDbEntity
  8
SUNPOU
100
AcDbCircle
 10
7234.21703198606
 20
8695.715360473251
 30
0.0
 40
5.625
100
AcDbArc
 50
0.0
 51
180.0
  0
ARC
  5
18BE9
330
18745
100
AcDbEntity
  8
SUNPOU
100
AcDbCircle
 10
7234.21703198606
 20
8695.715360473251
 30
0.0
 40
5.625
100
AcDbArc
 50
180.0
 51
0.0
  0
ARC
  5
18BEA
330
18745
100
AcDbEntity
  8
SUNPOU
100
AcDbCircle
 10
9134.217031986059
 20
6245.715360473253
 30
0.0
 40
5.625
100
AcDbArc
 50
180.0
 51
0.0
  0
ARC
  5
18BEB
330
18745
100
AcDbEntity
  8
SUNPOU
100
AcDbCircle
 10
9134.217031986059
 20
6245.715360473253
 30
0.0
 40
5.625
100
AcDbArc
 50
0.0
 51
180.0
  0
ARC
  5
18BEC
330
18745
100
AcDbEntity
  8
SUNPOU
100
AcDbCircle
 10
8534.217031986059
 20
6245.715360473253
 30
0.0
 40
5.625
100
AcDbArc
 50
0.0
 51
180.0
  0
ARC
  5
18BED
330
18745
100
AcDbEntity
  8
SUNPOU
100
AcDbCircle
 10
8534.217031986059
 20
6245.715360473253
 30
0.0
 40
5.625
100
AcDbArc
 50
180.0
 51
0.0
  0
ARC
  5
18BEE
330
18745
100
AcDbEntity
  8
SUNPOU
100
AcDbCircle
 10
12084.21703198605
 20
7495.715360473251
 30
0.0
 40
5.625
100
AcDbArc
 50
90.0
 51
270.0
  0
ARC
  5
18BEF
330
18745
100
AcDbEntity
  8
SUNPOU
100
AcDbCircle
 10
12084.21703198605
 20
7495.715360473251
 30
0.0
 40
5.625
100
AcDbArc
 50
270.0
 51
90.0
  0
ARC
  5
18BF0
330
18745
100
AcDbEntity
  8
SUNPOU
100
AcDbCircle
 10
12084.21703198605
 20
9295.715360473252
 30
0.0
 40
5.625
100
AcDbArc
 50
270.0
 51
90.0
  0
ARC
  5
18BF1
330
18745
100
AcDbEntity
  8
SUNPOU
100
AcDbCircle
 10
12084.21703198605
 20
9295.715360473252
 30
0.0
 40
5.625
100
AcDbArc
 50
90.0
 51
270.0
  0
ARC
  5
18BF2
330
18745
100
AcDbEntity
  8
SUNPOU
100
AcDbCircle
 10
12084.21703198605
 20
5695.715360473253
 30
0.0
 40
5.625
100
AcDbArc
 50
90.0
 51
270.0
  0
ARC
  5
18BF3
330
18745
100
AcDbEntity
  8
SUNPOU
100
AcDbCircle
 10
12084.21703198605
 20
5695.715360473253
 30
0.0
 40
5.625
100
AcDbArc
 50
270.0
 51
90.0
  0
ARC
  5
18BF4
330
18745
100
AcDbEntity
  8
SUNPOU
100
AcDbCircle
 10
12084.21703198605
 20
7495.715360473251
 30
0.0
 40
5.625
100
AcDbArc
 50
270.0
 51
90.0
  0
ARC
  5
18BF5
330
18745
100
AcDbEntity
  8
SUNPOU
100
AcDbCircle
 10
12084.21703198605
 20
7495.715360473251
 30
0.0
 40
5.625
100
AcDbArc
 50
90.0
 51
270.0
  0
ARC
  5
18BF6
330
18745
100
AcDbEntity
  8
SUNPOU
100
AcDbCircle
 10
9234.217031986061
 20
8065.715360473253
 30
0.0
 40
5.625
100
AcDbArc
 50
180.0
 51
0.0
  0
ARC
  5
18BF7
330
18745
100
AcDbEntity
  8
SUNPOU
100
AcDbCircle
 10
9234.217031986061
 20
8065.715360473253
 30
0.0
 40
5.625
100
AcDbArc
 50
0.0
 51
180.0
  0
ARC
  5
18BF8
330
18745
100
AcDbEntity
  8
SUNPOU
100
AcDbCircle
 10
8434.21703198606
 20
8065.715360473253
 30
0.0
 40
5.625
100
AcDbArc
 50
0.0
 51
180.0
  0
ARC
  5
18BF9
330
18745
100
AcDbEntity
  8
SUNPOU
100
AcDbCircle
 10
8434.21703198606
 20
8065.715360473253
 30
0.0
 40
5.625
100
AcDbArc
 50
180.0
 51
0.0
  0
ARC
  5
18BFA
330
18745
100
AcDbEntity
  8
SUNPOU
100
AcDbCircle
 10
9569.21703198606
 20
7095.715360473253
 30
0.0
 40
5.625
100
AcDbArc
 50
90.0
 51
270.0
  0
ARC
  5
18BFB
330
18745
100
AcDbEntity
  8
SUNPOU
100
AcDbCircle
 10
9569.21703198606
 20
7095.715360473253
 30
0.0
 40
5.625
100
AcDbArc
 50
270.0
 51
90.0
  0
ARC
  5
18BFC
330
18745
100
AcDbEntity
  8
SUNPOU
100
AcDbCircle
 10
9569.21703198606
 20
7895.715360473253
 30
0.0
 40
5.625
100
AcDbArc
 50
270.0
 51
90.0
  0
ARC
  5
18BFD
330
18745
100
AcDbEntity
  8
SUNPOU
100
AcDbCircle
 10
9569.21703198606
 20
7895.715360473253
 30
0.0
 40
5.625
100
AcDbArc
 50
90.0
 51
270.0
  0
ARC
  5
18BFE
330
18745
100
AcDbEntity
  8
HIKIDASHI
100
AcDbCircle
 10
7034.163526321626
 20
2884.568660545874
 30
0.0
 40
74.66417910452284
100
AcDbArc
 50
164.8596129850915
 51
237.5045002941574
  0
ARC
  5
18BFF
330
18745
100
AcDbEntity
  8
HIKIDASHI
100
AcDbCircle
 10
6970.739732275323
 20
2901.729684030359
 30
0.0
 40
8.959701492542745
100
AcDbArc
 50
15.14038701504827
 51
164.8596129849796
  0
ARC
  5
18C00
330
18745
100
AcDbEntity
  8
HIKIDASHI
100
AcDbCircle
 10
3107.738739775433
 20
2884.568660545875
 30
0.0
 40
74.66417910452284
100
AcDbArc
 50
164.859612985099
 51
237.5045002941329
  0
ARC
  5
18C01
330
18745
100
AcDbEntity
  8
HIKIDASHI
100
AcDbCircle
 10
3044.314945729129
 20
2901.72968403036
 30
0.0
 40
8.959701492542745
100
AcDbArc
 50
15.14038701504827
 51
164.8596129849796
  0
LINE
  5
18C02
330
18745
100
AcDbEntity
  8
HIKIDASHI
100
AcDbLine
 10
7373.188673061545
 20
2549.657897273409
 30
0.0
 11
7061.08797807352
 21
2994.183932023013
 31
0.0
1001
ACAD
1000
DSTYLE
1002
{
1070
   147
1040
1.0
1070
    77
1070
     0
1070
   144
1040
0.625
1002
}
  0
LINE
  5
18C03
330
18745
100
AcDbEntity
  8
HIKIDASHI
100
AcDbLine
 10
7362.276345519813
 20
2541.996377489465
 30
0.0
 11
7419.1577917652
 21
2484.183932023017
 31
0.0
  0
LINE
  5
18C04
330
18745
100
AcDbEntity
  8
HIKIDASHI
100
AcDbLine
 10
7419.1577917652
 20
2484.183932023017
 30
0.0
 11
7384.101000603277
 21
2557.319417057351
 31
0.0
  0
SOLID
  5
18C05
330
18745
100
AcDbEntity
  8
HIKIDASHI
100
AcDbTrace
 10
7362.276345519813
 20
2541.996377489465
 30
0.0
 11
7384.101000603277
 21
2557.319417057351
 31
0.0
 12
7419.1577917652
 22
2484.183932023017
 32
0.0
 13
7419.1577917652
 23
2484.183932023017
 33
0.0
  0
LINE
  5
18C06
330
18745
100
AcDbEntity
  8
HIKIDASHI
100
AcDbLine
 10
7384.101000603277
 20
2557.319417057351
 30
0.0
 11
7362.276345519813
 21
2541.996377489465
 31
0.0
  0
LINE
  5
18C07
330
18745
100
AcDbEntity
  8
HIKIDASHI
100
AcDbLine
 10
7528.904070814292
 20
2046.342848554359
 30
0.0
 11
7047.682504043535
 21
2754.183932023012
 31
0.0
1001
ACAD
1000
DSTYLE
1002
{
1070
   147
1040
1.0
1070
    77
1070
     0
1070
   144
1040
0.625
1002
}
  0
LINE
  5
18C08
330
18745
100
AcDbEntity
  8
HIKIDASHI
100
AcDbLine
 10
7517.877584725734
 20
2038.846557316912
 30
0.0
 11
7573.881818238977
 21
1980.183932023017
 31
0.0
  0
LINE
  5
18C09
330
18745
100
AcDbEntity
  8
HIKIDASHI
100
AcDbLine
 10
7573.881818238977
 20
1980.183932023017
 30
0.0
 11
7539.93055690285
 21
2053.839139791807
 31
0.0
  0
SOLID
  5
18C0A
330
18745
100
AcDbEntity
  8
HIKIDASHI
100
AcDbTrace
 10
7517.877584725734
 20
2038.846557316912
 30
0.0
 11
7539.93055690285
 21
2053.839139791807
 31
0.0
 12
7573.881818238977
 22
1980.183932023017
 32
0.0
 13
7573.881818238977
 23
1980.183932023017
 33
0.0
  0
LINE
  5
18C0B
330
18745
100
AcDbEntity
  8
HIKIDASHI
100
AcDbLine
 10
7539.93055690285
 20
2053.839139791807
 30
0.0
 11
7517.877584725734
 21
2038.846557316912
 31
0.0
  0
ARC
  5
18C0C
330
18745
100
AcDbEntity
  8
HIKIDASHI
100
AcDbCircle
 10
6908.495464764758
 20
2885.748787905465
 30
0.0
 40
74.66417910452253
100
AcDbArc
 50
301.7712278330703
 51
15.14038701490934
  0
LINE
  5
18C0D
330
18745
100
AcDbEntity
  8
HIKIDASHI
100
AcDbLine
 10
6911.215832494803
 20
1710.639978054548
 30
0.0
 11
6725.592096228623
 21
1384.183932023017
 31
0.0
1001
ACAD
1000
DSTYLE
1002
{
1070
   147
1040
1.0
1070
    77
1070
     0
1070
   144
1040
0.625
1002
}
  0
LINE
  5
18C0E
330
18745
100
AcDbEntity
  8
HIKIDASHI
100
AcDbLine
 10
6922.806491489545
 20
1704.049499934918
 30
0.0
 11
6950.758701212581
 21
1780.183932023017
 31
0.0
  0
LINE
  5
18C0F
330
18745
100
AcDbEntity
  8
HIKIDASHI
100
AcDbLine
 10
6950.758701212581
 20
1780.183932023017
 30
0.0
 11
6899.625173500055
 21
1717.230456174178
 31
0.0
  0
SOLID
  5
18C10
330
18745
100
AcDbEntity
  8
HIKIDASHI
100
AcDbTrace
 10
6922.806491489545
 20
1704.049499934918
 30
0.0
 11
6899.625173500055
 21
1717.230456174178
 31
0.0
 12
6950.758701212581
 22
1780.183932023017
 32
0.0
 13
6950.758701212581
 23
1780.183932023017
 33
0.0
  0
LINE
  5
18C11
330
18745
100
AcDbEntity
  8
HIKIDASHI
100
AcDbLine
 10
6899.625173500055
 20
1717.230456174178
 30
0.0
 11
6922.806491489545
 21
1704.049499934918
 31
0.0
  0
LINE
  5
18C12
330
18745
100
AcDbEntity
  8
HIKIDASHI
100
AcDbLine
 10
8512.255537304527
 20
2235.555264269678
 30
0.0
 11
8604.261733917331
 21
1961.931554141242
 31
0.0
1001
ACAD
1000
DSTYLE
1002
{
1070
   147
1040
1.0
1070
    77
1070
     0
1070
   144
1040
0.625
1070
   173
1070
     0
1070
   341
1005
125B0
1002
}
  0
ARC
  5
18C13
330
18745
100
AcDbEntity
  8
HIKIDASHI
100
AcDbCircle
 10
8463.573051272508
 20
2317.583646062626
 30
0.0
 40
24.0
100
AcDbArc
 50
232.1425703309788
 51
345.0279508071377
  0
ARC
  5
18C14
330
18745
100
AcDbEntity
  8
HIKIDASHI
100
AcDbCircle
 10
8509.943545927438
 20
2305.182951507191
 30
0.0
 40
24.0
100
AcDbArc
 50
52.14257033097887
 51
165.0279508071375
  0
LINE
  5
18C15
330
18745
100
AcDbEntity
  8
HIKIDASHI
100
AcDbLine
 10
8486.758298599971
 20
2311.383298784909
 30
0.0
 11
8512.255537304531
 21
2235.555264269661
 31
0.0
  0
LINE
  5
18C16
330
18745
100
AcDbEntity
  8
HIKIDASHI
100
AcDbLine
 10
4305.830750758332
 20
2235.555264269682
 30
0.0
 11
4397.836947371135
 21
1961.931554141245
 31
0.0
1001
ACAD
1000
DSTYLE
1002
{
1070
   147
1040
1.0
1070
    77
1070
     0
1070
   144
1040
0.625
1070
   173
1070
     0
1070
   341
1005
125B0
1002
}
  0
ARC
  5
18C17
330
18745
100
AcDbEntity
  8
HIKIDASHI
100
AcDbCircle
 10
4257.148264726313
 20
2317.58364606263
 30
0.0
 40
24.0
100
AcDbArc
 50
232.1425703309794
 51
345.0279508071377
  0
ARC
  5
18C18
330
18745
100
AcDbEntity
  8
HIKIDASHI
100
AcDbCircle
 10
4303.51875938124
 20
2305.182951507194
 30
0.0
 40
24.0
100
AcDbArc
 50
52.14257033097939
 51
165.0279508071375
  0
LINE
  5
18C19
330
18745
100
AcDbEntity
  8
HIKIDASHI
100
AcDbLine
 10
4280.333512053776
 20
2311.383298784912
 30
0.0
 11
4305.830750758338
 21
2235.555264269664
 31
0.0
  0
LINE
  5
18C1A
330
18745
100
AcDbEntity
  8
HIKIDASHI
100
AcDbLine
 10
3024.791045948607
 20
1710.639978054551
 30
0.0
 11
2839.167309682428
 21
1384.183932023019
 31
0.0
1001
ACAD
1000
DSTYLE
1002
{
1070
   147
1040
1.0
1070
    77
1070
     0
1070
   144
1040
0.625
1002
}
  0
LINE
  5
18C1B
330
18745
100
AcDbEntity
  8
HIKIDASHI
100
AcDbLine
 10
3036.381704943352
 20
1704.04949993492
 30
0.0
 11
3064.333914666386
 21
1780.183932023019
 31
0.0
  0
LINE
  5
18C1C
330
18745
100
AcDbEntity
  8
HIKIDASHI
100
AcDbLine
 10
3064.333914666386
 20
1780.183932023019
 30
0.0
 11
3013.200386953862
 21
1717.230456174181
 31
0.0
  0
SOLID
  5
18C1D
330
18745
100
AcDbEntity
  8
HIKIDASHI
100
AcDbTrace
 10
3036.381704943352
 20
1704.04949993492
 30
0.0
 11
3013.200386953862
 21
1717.230456174181
 31
0.0
 12
3064.333914666386
 22
1780.183932023019
 32
0.0
 13
3064.333914666386
 23
1780.183932023019
 33
0.0
  0
LINE
  5
18C1E
330
18745
100
AcDbEntity
  8
HIKIDASHI
100
AcDbLine
 10
3013.200386953862
 20
1717.230456174181
 30
0.0
 11
3036.381704943352
 21
1704.04949993492
 31
0.0
  0
LINE
  5
18C1F
330
18745
100
AcDbEntity
  8
HIKIDASHI
100
AcDbLine
 10
3397.405324605102
 20
2552.921480099711
 30
0.0
 11
3134.663191527326
 21
2994.183932023015
 31
0.0
1001
ACAD
1000
DSTYLE
1002
{
1070
   147
1040
1.0
1070
    77
1070
     0
1070
   144
1040
0.625
1002
}
  0
LINE
  5
18C20
330
18745
100
AcDbEntity
  8
HIKIDASHI
100
AcDbLine
 10
3385.949066592321
 20
2546.100048422829
 30
0.0
 11
3438.333914666386
 21
2484.183932023019
 31
0.0
  0
LINE
  5
18C21
330
18745
100
AcDbEntity
  8
HIKIDASHI
100
AcDbLine
 10
3438.333914666386
 20
2484.183932023019
 30
0.0
 11
3408.861582617884
 21
2559.742911776591
 31
0.0
  0
SOLID
  5
18C22
330
18745
100
AcDbEntity
  8
HIKIDASHI
100
AcDbTrace
 10
3385.949066592321
 20
2546.100048422829
 30
0.0
 11
3408.861582617884
 21
2559.742911776591
 31
0.0
 12
3438.333914666386
 22
2484.183932023019
 32
0.0
 13
3438.333914666386
 23
2484.183932023019
 33
0.0
  0
LINE
  5
18C23
330
18745
100
AcDbEntity
  8
HIKIDASHI
100
AcDbLine
 10
3408.861582617884
 20
2559.742911776591
 30
0.0
 11
3385.949066592321
 21
2546.100048422829
 31
0.0
  0
LINE
  5
18C24
330
18745
100
AcDbEntity
  8
HIKIDASHI
100
AcDbLine
 10
3500.3842778552
 20
2050.609957510043
 30
0.0
 11
3121.257717497342
 21
2754.183932023015
 31
0.0
1001
ACAD
1000
DSTYLE
1002
{
1070
   147
1040
1.0
1070
    77
1070
     0
1070
   144
1040
0.625
1002
}
  0
LINE
  5
18C25
330
18745
100
AcDbEntity
  8
HIKIDASHI
100
AcDbLine
 10
3488.646606940696
 20
2044.285018041513
 30
0.0
 11
3538.333914666386
 21
1980.183932023019
 31
0.0
  0
LINE
  5
18C26
330
18745
100
AcDbEntity
  8
HIKIDASHI
100
AcDbLine
 10
3538.333914666386
 20
1980.183932023019
 30
0.0
 11
3512.121948769705
 21
2056.934896978575
 31
0.0
  0
SOLID
  5
18C27
330
18745
100
AcDbEntity
  8
HIKIDASHI
100
AcDbTrace
 10
3488.646606940696
 20
2044.285018041513
 30
0.0
 11
3512.121948769705
 21
2056.934896978575
 31
0.0
 12
3538.333914666386
 22
1980.183932023019
 32
0.0
 13
3538.333914666386
 23
1980.183932023019
 33
0.0
  0
LINE
  5
18C28
330
18745
100
AcDbEntity
  8
HIKIDASHI
100
AcDbLine
 10
3512.121948769705
 20
2056.934896978575
 30
0.0
 11
3488.646606940696
 21
2044.285018041513
 31
0.0
  0
ARC
  5
18C29
330
18745
100
AcDbEntity
  8
HIKIDASHI
100
AcDbCircle
 10
2982.070678218562
 20
2885.748787905466
 30
0.0
 40
74.66417910452276
100
AcDbArc
 50
301.7712278330706
 51
15.14038701490924
  0
LINE
  5
18C2A
330
18745
100
AcDbEntity
  8
KISO
100
AcDbLine
 10
8550.758701212577
 20
1876.183932023016
 30
0.0
 11
8550.758701212577
 21
1876.183932023016
 31
0.0
  0
LINE
  5
18C2B
330
18745
100
AcDbEntity
  8
KISO
100
AcDbLine
 10
8550.758701212577
 20
1876.183932023016
 30
0.0
 11
6950.758701212581
 21
1876.183932023016
 31
0.0
  0
LINE
  5
18C2C
330
18745
100
AcDbEntity
  8
TEKKIN
100
AcDbLine
 10
7698.75870121258
 20
1980.183932023016
 30
0.0
 11
7470.758701212581
 21
1980.183932023016
 31
0.0
  0
LINE
  5
18C2D
330
18745
100
AcDbEntity
  8
TEKKIN
100
AcDbLine
 10
7470.758701212581
 20
1980.183932023016
 30
0.0
 11
7470.758701212581
 21
1964.183932023016
 31
0.0
  0
LINE
  5
18C2E
330
18745
100
AcDbEntity
  8
TEKKIN
100
AcDbLine
 10
7470.758701212581
 20
1964.183932023016
 30
0.0
 11
7698.75870121258
 21
1964.183932023016
 31
0.0
  0
LINE
  5
18C2F
330
18745
100
AcDbEntity
  8
TEKKIN
100
AcDbLine
 10
7802.758701212581
 20
1964.183932023016
 30
0.0
 11
8030.758701212581
 21
1964.183932023016
 31
0.0
  0
LINE
  5
18C30
330
18745
100
AcDbEntity
  8
TEKKIN
100
AcDbLine
 10
8030.758701212581
 20
1964.183932023016
 30
0.0
 11
8030.758701212581
 21
1980.183932023016
 31
0.0
  0
LINE
  5
18C31
330
18745
100
AcDbEntity
  8
TEKKIN
100
AcDbLine
 10
8030.758701212581
 20
1980.183932023016
 30
0.0
 11
7802.758701212581
 21
1980.183932023016
 31
0.0
  0
LINE
  5
18C32
330
18745
100
AcDbEntity
  8
KISO
100
AcDbLine
 10
7134.21703198606
 20
7095.715360473253
 30
0.0
 11
7934.21703198606
 21
7095.715360473253
 31
0.0
  0
LINE
  5
18C33
330
18745
100
AcDbEntity
  8
KISO
100
AcDbLine
 10
7934.21703198606
 20
7095.715360473253
 30
0.0
 11
7934.21703198606
 21
7895.715360473253
 31
0.0
  0
LINE
  5
18C34
330
18745
100
AcDbEntity
  8
KISO
100
AcDbLine
 10
7934.21703198606
 20
7895.715360473253
 30
0.0
 11
7134.21703198606
 21
7895.715360473253
 31
0.0
  0
LINE
  5
18C35
330
18745
100
AcDbEntity
  8
KISO
100
AcDbLine
 10
7134.21703198606
 20
7895.715360473253
 30
0.0
 11
7134.21703198606
 21
7095.715360473253
 31
0.0
  0
LINE
  5
18C36
330
18745
100
AcDbEntity
  8
KISO
100
AcDbLine
 10
4684.21703198606
 20
7095.715360473253
 30
0.0
 11
5484.21703198606
 21
7095.715360473253
 31
0.0
  0
LINE
  5
18C37
330
18745
100
AcDbEntity
  8
KISO
100
AcDbLine
 10
5484.21703198606
 20
7095.715360473253
 30
0.0
 11
5484.21703198606
 21
7895.715360473253
 31
0.0
  0
LINE
  5
18C38
330
18745
100
AcDbEntity
  8
KISO
100
AcDbLine
 10
5484.21703198606
 20
7895.715360473253
 30
0.0
 11
4684.21703198606
 21
7895.715360473253
 31
0.0
  0
LINE
  5
18C39
330
18745
100
AcDbEntity
  8
KISO
100
AcDbLine
 10
4684.21703198606
 20
7895.715360473253
 30
0.0
 11
4684.21703198606
 21
7095.715360473253
 31
0.0
  0
LINE
  5
18C3A
330
18745
100
AcDbEntity
  8
KISO
100
AcDbLine
 10
10884.21703198606
 20
7095.715360473253
 30
0.0
 11
11684.21703198605
 21
7095.715360473253
 31
0.0
  0
LINE
  5
18C3B
330
18745
100
AcDbEntity
  8
KISO
100
AcDbLine
 10
11684.21703198605
 20
7095.715360473253
 30
0.0
 11
11684.21703198605
 21
7895.715360473253
 31
0.0
  0
LINE
  5
18C3C
330
18745
100
AcDbEntity
  8
KISO
100
AcDbLine
 10
11684.21703198605
 20
7895.715360473253
 30
0.0
 11
10884.21703198606
 21
7895.715360473253
 31
0.0
  0
LINE
  5
18C3D
330
18745
100
AcDbEntity
  8
KISO
100
AcDbLine
 10
10884.21703198606
 20
7895.715360473253
 30
0.0
 11
10884.21703198606
 21
7095.715360473253
 31
0.0
  0
LINE
  5
18C3E
330
18745
100
AcDbEntity
  8
KISO
100
AcDbLine
 10
8434.21703198606
 20
7095.715360473253
 30
0.0
 11
9234.217031986061
 21
7095.715360473253
 31
0.0
  0
LINE
  5
18C3F
330
18745
100
AcDbEntity
  8
KISO
100
AcDbLine
 10
9234.217031986061
 20
7095.715360473253
 30
0.0
 11
9234.217031986061
 21
7895.715360473253
 31
0.0
  0
LINE
  5
18C40
330
18745
100
AcDbEntity
  8
KISO
100
AcDbLine
 10
9234.217031986061
 20
7895.715360473253
 30
0.0
 11
8434.21703198606
 21
7895.715360473253
 31
0.0
  0
LINE
  5
18C41
330
18745
100
AcDbEntity
  8
KISO
100
AcDbLine
 10
8434.21703198606
 20
7895.715360473253
 30
0.0
 11
8434.21703198606
 21
7095.715360473253
 31
0.0
  0
LINE
  5
18C42
330
18745
100
AcDbEntity
  8
KISO
100
AcDbLine
 10
4344.333914666385
 20
1876.183932023018
 30
0.0
 11
4344.333914666385
 21
1876.183932023018
 31
0.0
  0
LINE
  5
18C43
330
18745
100
AcDbEntity
  8
KISO
100
AcDbLine
 10
4344.333914666385
 20
1876.183932023018
 30
0.0
 11
3064.333914666386
 21
1876.183932023019
 31
0.0
  0
LINE
  5
18C44
330
18745
100
AcDbEntity
  8
TEKKIN
100
AcDbLine
 10
3652.333914666386
 20
1980.183932023019
 30
0.0
 11
3424.333914666386
 21
1980.183932023019
 31
0.0
  0
LINE
  5
18C45
330
18745
100
AcDbEntity
  8
TEKKIN
100
AcDbLine
 10
3424.333914666386
 20
1980.183932023019
 30
0.0
 11
3424.333914666386
 21
1964.183932023018
 31
0.0
  0
LINE
  5
18C46
330
18745
100
AcDbEntity
  8
TEKKIN
100
AcDbLine
 10
3424.333914666386
 20
1964.183932023018
 30
0.0
 11
3652.333914666386
 21
1964.183932023018
 31
0.0
  0
LINE
  5
18C47
330
18745
100
AcDbEntity
  8
TEKKIN
100
AcDbLine
 10
3756.333914666386
 20
1964.183932023018
 30
0.0
 11
3984.333914666386
 21
1964.183932023018
 31
0.0
  0
LINE
  5
18C48
330
18745
100
AcDbEntity
  8
TEKKIN
100
AcDbLine
 10
3984.333914666386
 20
1964.183932023018
 30
0.0
 11
3984.333914666386
 21
1980.183932023019
 31
0.0
  0
LINE
  5
18C49
330
18745
100
AcDbEntity
  8
TEKKIN
100
AcDbLine
 10
3984.333914666386
 20
1980.183932023019
 30
0.0
 11
3756.333914666386
 21
1980.183932023019
 31
0.0
  0
LINE
  5
18C4A
330
18745
100
AcDbEntity
  8
YANE
  6
2PL-L
 62
     6
100
AcDbLine
 10
11680.21703198605
 20
5295.715360473253
 30
0.0
 11
4688.217031986058
 21
5295.715360473253
 31
0.0
  0
LINE
  5
18C4B
330
18745
100
AcDbEntity
  8
YANE
  6
2PL-L
 62
     6
100
AcDbLine
 10
4688.217031986058
 20
5295.715360473253
 30
0.0
 11
4688.217031986058
 21
9695.715360473252
 31
0.0
  0
LINE
  5
18C4C
330
18745
100
AcDbEntity
  8
YANE
  6
2PL-L
 62
     6
100
AcDbLine
 10
4688.217031986058
 20
9695.715360473252
 30
0.0
 11
11680.21703198605
 21
9695.715360473252
 31
0.0
  0
LINE
  5
18C4D
330
18745
100
AcDbEntity
  8
YANE
  6
2PL-L
 62
     6
100
AcDbLine
 10
11680.21703198605
 20
9695.715360473252
 30
0.0
 11
11680.21703198605
 21
5295.715360473253
 31
0.0
  0
LINE
  5
18C4E
330
18745
100
AcDbEntity
  8
KISO
100
AcDbLine
 10
9134.217031986059
 20
8995.715360473253
 30
0.0
 11
8534.217031986059
 21
8995.715360473253
 31
0.0
  0
LINE
  5
18C4F
330
18745
100
AcDbEntity
  8
KISO
100
AcDbLine
 10
8534.217031986059
 20
8995.715360473253
 30
0.0
 11
8534.217031986059
 21
9595.715360473253
 31
0.0
  0
LINE
  5
18C50
330
18745
100
AcDbEntity
  8
KISO
100
AcDbLine
 10
8534.217031986059
 20
9595.715360473253
 30
0.0
 11
9134.217031986059
 21
9595.715360473253
 31
0.0
  0
LINE
  5
18C51
330
18745
100
AcDbEntity
  8
KISO
100
AcDbLine
 10
9134.217031986059
 20
9595.715360473253
 30
0.0
 11
9134.217031986059
 21
8995.715360473253
 31
0.0
  0
LINE
  5
18C52
330
18745
100
AcDbEntity
  8
KISO
100
AcDbLine
 10
7234.21703198606
 20
5395.715360473253
 30
0.0
 11
7834.21703198606
 21
5395.715360473253
 31
0.0
  0
LINE
  5
18C53
330
18745
100
AcDbEntity
  8
KISO
100
AcDbLine
 10
7834.21703198606
 20
5395.715360473253
 30
0.0
 11
7834.21703198606
 21
5995.715360473253
 31
0.0
  0
LINE
  5
18C54
330
18745
100
AcDbEntity
  8
KISO
100
AcDbLine
 10
7834.21703198606
 20
5995.715360473253
 30
0.0
 11
7234.21703198606
 21
5995.715360473253
 31
0.0
  0
LINE
  5
18C55
330
18745
100
AcDbEntity
  8
KISO
100
AcDbLine
 10
7234.21703198606
 20
5995.715360473253
 30
0.0
 11
7234.21703198606
 21
5395.715360473253
 31
0.0
  0
LINE
  5
18C56
330
18745
100
AcDbEntity
  8
KISO
100
AcDbLine
 10
4784.217031986058
 20
5395.715360473253
 30
0.0
 11
5384.21703198606
 21
5395.715360473253
 31
0.0
  0
LINE
  5
18C57
330
18745
100
AcDbEntity
  8
KISO
100
AcDbLine
 10
5384.21703198606
 20
5395.715360473253
 30
0.0
 11
5384.21703198606
 21
5995.715360473253
 31
0.0
  0
LINE
  5
18C58
330
18745
100
AcDbEntity
  8
KISO
100
AcDbLine
 10
5384.21703198606
 20
5995.715360473253
 30
0.0
 11
4784.217031986058
 21
5995.715360473253
 31
0.0
  0
LINE
  5
18C59
330
18745
100
AcDbEntity
  8
KISO
100
AcDbLine
 10
4784.217031986058
 20
5995.715360473253
 30
0.0
 11
4784.217031986058
 21
5395.715360473253
 31
0.0
  0
LINE
  5
18C5A
330
18745
100
AcDbEntity
  8
KISO
100
AcDbLine
 10
4784.217031986058
 20
8995.715360473253
 30
0.0
 11
5384.21703198606
 21
8995.715360473253
 31
0.0
  0
LINE
  5
18C5B
330
18745
100
AcDbEntity
  8
KISO
100
AcDbLine
 10
5384.21703198606
 20
8995.715360473253
 30
0.0
 11
5384.21703198606
 21
9595.715360473253
 31
0.0
  0
LINE
  5
18C5C
330
18745
100
AcDbEntity
  8
KISO
100
AcDbLine
 10
5384.21703198606
 20
9595.715360473253
 30
0.0
 11
4784.217031986058
 21
9595.715360473253
 31
0.0
  0
LINE
  5
18C5D
330
18745
100
AcDbEntity
  8
KISO
100
AcDbLine
 10
4784.217031986058
 20
9595.715360473253
 30
0.0
 11
4784.217031986058
 21
8995.715360473253
 31
0.0
  0
LINE
  5
18C5E
330
18745
100
AcDbEntity
  8
KISO
100
AcDbLine
 10
11584.21703198605
 20
8995.715360473253
 30
0.0
 11
10984.21703198606
 21
8995.715360473253
 31
0.0
  0
LINE
  5
18C5F
330
18745
100
AcDbEntity
  8
KISO
100
AcDbLine
 10
10984.21703198606
 20
8995.715360473253
 30
0.0
 11
10984.21703198606
 21
9595.715360473253
 31
0.0
  0
LINE
  5
18C60
330
18745
100
AcDbEntity
  8
KISO
100
AcDbLine
 10
10984.21703198606
 20
9595.715360473253
 30
0.0
 11
11584.21703198605
 21
9595.715360473253
 31
0.0
  0
LINE
  5
18C61
330
18745
100
AcDbEntity
  8
KISO
100
AcDbLine
 10
11584.21703198605
 20
9595.715360473253
 30
0.0
 11
11584.21703198605
 21
8995.715360473253
 31
0.0
  0
LINE
  5
18C62
330
18745
100
AcDbEntity
  8
KISO
100
AcDbLine
 10
11584.21703198605
 20
5395.715360473253
 30
0.0
 11
10984.21703198606
 21
5395.715360473253
 31
0.0
  0
LINE
  5
18C63
330
18745
100
AcDbEntity
  8
KISO
100
AcDbLine
 10
10984.21703198606
 20
5395.715360473253
 30
0.0
 11
10984.21703198606
 21
5995.715360473253
 31
0.0
  0
LINE
  5
18C64
330
18745
100
AcDbEntity
  8
KISO
100
AcDbLine
 10
10984.21703198606
 20
5995.715360473253
 30
0.0
 11
11584.21703198605
 21
5995.715360473253
 31
0.0
  0
LINE
  5
18C65
330
18745
100
AcDbEntity
  8
KISO
100
AcDbLine
 10
11584.21703198605
 20
5995.715360473253
 30
0.0
 11
11584.21703198605
 21
5395.715360473253
 31
0.0
  0
LINE
  5
18C66
330
18745
100
AcDbEntity
  8
KISO
100
AcDbLine
 10
9134.217031986059
 20
5395.715360473253
 30
0.0
 11
8534.217031986059
 21
5395.715360473253
 31
0.0
  0
LINE
  5
18C67
330
18745
100
AcDbEntity
  8
KISO
100
AcDbLine
 10
8534.217031986059
 20
5395.715360473253
 30
0.0
 11
8534.217031986059
 21
5995.715360473253
 31
0.0
  0
LINE
  5
18C68
330
18745
100
AcDbEntity
  8
KISO
100
AcDbLine
 10
8534.217031986059
 20
5995.715360473253
 30
0.0
 11
9134.217031986059
 21
5995.715360473253
 31
0.0
  0
LINE
  5
18C69
330
18745
100
AcDbEntity
  8
KISO
100
AcDbLine
 10
9134.217031986059
 20
5995.715360473253
 30
0.0
 11
9134.217031986059
 21
5395.715360473253
 31
0.0
  0
LINE
  5
18C6A
330
18745
100
AcDbEntity
  8
KISO
100
AcDbLine
 10
7834.21703198606
 20
8995.715360473253
 30
0.0
 11
7234.21703198606
 21
8995.715360473253
 31
0.0
  0
LINE
  5
18C6B
330
18745
100
AcDbEntity
  8
KISO
100
AcDbLine
 10
7234.21703198606
 20
8995.715360473253
 30
0.0
 11
7234.21703198606
 21
9595.715360473253
 31
0.0
  0
LINE
  5
18C6C
330
18745
100
AcDbEntity
  8
KISO
100
AcDbLine
 10
7234.21703198606
 20
9595.715360473253
 30
0.0
 11
7834.21703198606
 21
9595.715360473253
 31
0.0
  0
LINE
  5
18C6D
330
18745
100
AcDbEntity
  8
KISO
100
AcDbLine
 10
7834.21703198606
 20
9595.715360473253
 30
0.0
 11
7834.21703198606
 21
8995.715360473253
 31
0.0
  0
LINE
  5
18C6E
330
18745
100
AcDbEntity
  8
U1
100
AcDbLine
 10
11290.41703198606
 20
9265.515360473251
 30
0.0
 11
11258.01703198606
 21
9265.515360473251
 31
0.0
  0
LINE
  5
18C6F
330
18745
100
AcDbEntity
  8
U1
100
AcDbLine
 10
11258.01703198606
 20
9325.915360473253
 30
0.0
 11
11310.41703198606
 21
9325.915360473253
 31
0.0
  0
ARC
  5
18C70
330
18745
100
AcDbEntity
  8
U1
100
AcDbCircle
 10
11258.01703198606
 20
9321.915360473253
 30
0.0
 40
4.0
100
AcDbArc
 50
90.0
 51
180.0
  0
ARC
  5
18C71
330
18745
100
AcDbEntity
  8
U1
100
AcDbCircle
 10
11258.01703198606
 20
9269.515360473251
 30
0.0
 40
4.0
100
AcDbArc
 50
180.0
 51
270.0
  0
LINE
  5
18C72
330
18745
100
AcDbEntity
  8
U1
100
AcDbLine
 10
11254.01703198605
 20
9269.515360473251
 30
0.0
 11
11254.01703198605
 21
9321.915360473253
 31
0.0
  0
ARC
  5
18C73
330
18745
100
AcDbEntity
  8
U1
100
AcDbCircle
 10
11310.41703198606
 20
9321.915360473253
 30
0.0
 40
4.0
100
AcDbArc
 50
0.0
 51
90.0
  0
ARC
  5
18C74
330
18745
100
AcDbEntity
  8
U1
100
AcDbCircle
 10
11290.41703198606
 20
9269.515360473251
 30
0.0
 40
4.0
100
AcDbArc
 50
270.0
 51
0.0
  0
ARC
  5
18C75
330
18745
100
AcDbEntity
  8
U1
100
AcDbCircle
 10
11297.86703198605
 20
9278.765360473251
 30
0.0
 40
1.149999999999977
100
AcDbArc
 50
0.0
 51
180.0
  0
LINE
  5
18C76
330
18745
100
AcDbEntity
  8
U1
100
AcDbLine
 10
11301.31703198606
 20
9271.215360473252
 30
0.0
 11
11301.31703198606
 21
9278.765360473251
 31
0.0
  0
LINE
  5
18C77
330
18745
100
AcDbEntity
  8
U1
100
AcDbLine
 10
11299.01703198606
 20
9271.215360473252
 30
0.0
 11
11301.31703198606
 21
9271.215360473252
 31
0.0
  0
LINE
  5
18C78
330
18745
100
AcDbEntity
  8
U1
100
AcDbLine
 10
11296.71703198606
 20
9278.215360473252
 30
0.0
 11
11299.01703198606
 21
9278.215360473252
 31
0.0
  0
ARC
  5
18C79
330
18745
100
AcDbEntity
  8
U1
100
AcDbCircle
 10
11297.86703198605
 20
9278.765360473251
 30
0.0
 40
3.450000000000044
100
AcDbArc
 50
0.0
 51
180.0
  0
LINE
  5
18C7A
330
18745
100
AcDbEntity
  8
U1
100
AcDbLine
 10
11296.71703198606
 20
9278.765360473251
 30
0.0
 11
11296.71703198606
 21
9269.515360473251
 31
0.0
  0
LINE
  5
18C7B
330
18745
100
AcDbEntity
  8
U1
100
AcDbLine
 10
11299.01703198606
 20
9269.515360473251
 30
0.0
 11
11299.01703198606
 21
9278.765360473251
 31
0.0
  0
LINE
  5
18C7C
330
18745
100
AcDbEntity
  8
U1
100
AcDbLine
 10
11294.41703198606
 20
9278.765360473251
 30
0.0
 11
11294.41703198606
 21
9269.515360473251
 31
0.0
  0
ARC
  5
18C7D
330
18745
100
AcDbEntity
  8
U1
100
AcDbCircle
 10
11310.41703198606
 20
9269.515360473251
 30
0.0
 40
4.0
100
AcDbArc
 50
270.0
 51
0.0
  0
LINE
  5
18C7E
330
18745
100
AcDbEntity
  8
U1
100
AcDbLine
 10
11310.41703198606
 20
9265.515360473251
 30
0.0
 11
11303.01703198606
 21
9265.515360473251
 31
0.0
  0
ARC
  5
18C7F
330
18745
100
AcDbEntity
  8
U1
100
AcDbCircle
 10
11303.01703198606
 20
9269.515360473251
 30
0.0
 40
4.0
100
AcDbArc
 50
180.0
 51
270.0
  0
LINE
  5
18C80
330
18745
100
AcDbEntity
  8
U1
100
AcDbLine
 10
11314.41703198606
 20
9321.915360473253
 30
0.0
 11
11314.41703198606
 21
9269.515360473251
 31
0.0
  0
LINE
  5
18C81
330
18745
100
AcDbEntity
  8
U1
100
AcDbLine
 10
8840.417031986062
 20
9265.515360473251
 30
0.0
 11
8808.017031986059
 21
9265.515360473251
 31
0.0
  0
LINE
  5
18C82
330
18745
100
AcDbEntity
  8
U1
100
AcDbLine
 10
8808.017031986061
 20
9325.915360473253
 30
0.0
 11
8860.41703198606
 21
9325.915360473253
 31
0.0
  0
ARC
  5
18C83
330
18745
100
AcDbEntity
  8
U1
100
AcDbCircle
 10
8808.017031986061
 20
9321.915360473253
 30
0.0
 40
4.0
100
AcDbArc
 50
90.0
 51
180.0
  0
ARC
  5
18C84
330
18745
100
AcDbEntity
  8
U1
100
AcDbCircle
 10
8808.017031986059
 20
9269.515360473251
 30
0.0
 40
4.0
100
AcDbArc
 50
180.0
 51
270.0
  0
LINE
  5
18C85
330
18745
100
AcDbEntity
  8
U1
100
AcDbLine
 10
8804.017031986061
 20
9269.515360473251
 30
0.0
 11
8804.017031986061
 21
9321.915360473253
 31
0.0
  0
ARC
  5
18C86
330
18745
100
AcDbEntity
  8
U1
100
AcDbCircle
 10
8860.41703198606
 20
9321.915360473253
 30
0.0
 40
4.0
100
AcDbArc
 50
0.0
 51
90.0
  0
ARC
  5
18C87
330
18745
100
AcDbEntity
  8
U1
100
AcDbCircle
 10
8840.417031986062
 20
9269.515360473251
 30
0.0
 40
4.0
100
AcDbArc
 50
270.0
 51
0.0
  0
ARC
  5
18C88
330
18745
100
AcDbEntity
  8
U1
100
AcDbCircle
 10
8847.86703198606
 20
9278.765360473251
 30
0.0
 40
1.149999999999977
100
AcDbArc
 50
0.0
 51
180.0
  0
LINE
  5
18C89
330
18745
100
AcDbEntity
  8
U1
100
AcDbLine
 10
8851.317031986061
 20
9271.215360473252
 30
0.0
 11
8851.317031986061
 21
9278.765360473251
 31
0.0
  0
LINE
  5
18C8A
330
18745
100
AcDbEntity
  8
U1
100
AcDbLine
 10
8849.017031986059
 20
9271.215360473252
 30
0.0
 11
8851.317031986061
 21
9271.215360473252
 31
0.0
  0
LINE
  5
18C8B
330
18745
100
AcDbEntity
  8
U1
100
AcDbLine
 10
8846.717031986059
 20
9278.215360473252
 30
0.0
 11
8849.017031986059
 21
9278.215360473252
 31
0.0
  0
ARC
  5
18C8C
330
18745
100
AcDbEntity
  8
U1
100
AcDbCircle
 10
8847.86703198606
 20
9278.765360473251
 30
0.0
 40
3.450000000000044
100
AcDbArc
 50
0.0
 51
180.0
  0
LINE
  5
18C8D
330
18745
100
AcDbEntity
  8
U1
100
AcDbLine
 10
8846.717031986059
 20
9278.765360473251
 30
0.0
 11
8846.717031986059
 21
9269.515360473251
 31
0.0
  0
LINE
  5
18C8E
330
18745
100
AcDbEntity
  8
U1
100
AcDbLine
 10
8849.017031986059
 20
9269.515360473251
 30
0.0
 11
8849.017031986059
 21
9278.765360473251
 31
0.0
  0
LINE
  5
18C8F
330
18745
100
AcDbEntity
  8
U1
100
AcDbLine
 10
8844.417031986059
 20
9278.765360473251
 30
0.0
 11
8844.417031986059
 21
9269.515360473251
 31
0.0
  0
ARC
  5
18C90
330
18745
100
AcDbEntity
  8
U1
100
AcDbCircle
 10
8860.417031986058
 20
9269.515360473251
 30
0.0
 40
4.0
100
AcDbArc
 50
270.0
 51
0.0
  0
LINE
  5
18C91
330
18745
100
AcDbEntity
  8
U1
100
AcDbLine
 10
8860.417031986058
 20
9265.515360473251
 30
0.0
 11
8853.017031986059
 21
9265.515360473251
 31
0.0
  0
ARC
  5
18C92
330
18745
100
AcDbEntity
  8
U1
100
AcDbCircle
 10
8853.017031986059
 20
9269.515360473251
 30
0.0
 40
4.0
100
AcDbArc
 50
180.0
 51
270.0
  0
LINE
  5
18C93
330
18745
100
AcDbEntity
  8
U1
100
AcDbLine
 10
8864.417031986061
 20
9321.915360473253
 30
0.0
 11
8864.417031986059
 21
9269.515360473251
 31
0.0
  0
LINE
  5
18C94
330
18745
100
AcDbEntity
  8
U1
100
AcDbLine
 10
7540.417031986061
 20
9265.515360473251
 30
0.0
 11
7508.017031986061
 21
9265.515360473251
 31
0.0
  0
LINE
  5
18C95
330
18745
100
AcDbEntity
  8
U1
100
AcDbLine
 10
7508.017031986061
 20
9325.915360473253
 30
0.0
 11
7560.41703198606
 21
9325.915360473253
 31
0.0
  0
ARC
  5
18C96
330
18745
100
AcDbEntity
  8
U1
100
AcDbCircle
 10
7508.017031986061
 20
9321.915360473253
 30
0.0
 40
4.0
100
AcDbArc
 50
90.0
 51
180.0
  0
ARC
  5
18C97
330
18745
100
AcDbEntity
  8
U1
100
AcDbCircle
 10
7508.017031986061
 20
9269.515360473251
 30
0.0
 40
4.0
100
AcDbArc
 50
180.0
 51
270.0
  0
LINE
  5
18C98
330
18745
100
AcDbEntity
  8
U1
100
AcDbLine
 10
7504.017031986061
 20
9269.515360473251
 30
0.0
 11
7504.017031986061
 21
9321.915360473253
 31
0.0
  0
ARC
  5
18C99
330
18745
100
AcDbEntity
  8
U1
100
AcDbCircle
 10
7560.41703198606
 20
9321.915360473253
 30
0.0
 40
4.0
100
AcDbArc
 50
0.0
 51
90.0
  0
ARC
  5
18C9A
330
18745
100
AcDbEntity
  8
U1
100
AcDbCircle
 10
7540.417031986061
 20
9269.515360473251
 30
0.0
 40
4.0
100
AcDbArc
 50
270.0
 51
0.0
  0
ARC
  5
18C9B
330
18745
100
AcDbEntity
  8
U1
100
AcDbCircle
 10
7547.867031986061
 20
9278.765360473251
 30
0.0
 40
1.149999999999977
100
AcDbArc
 50
0.0
 51
180.0
  0
LINE
  5
18C9C
330
18745
100
AcDbEntity
  8
U1
100
AcDbLine
 10
7551.31703198606
 20
9271.215360473252
 30
0.0
 11
7551.31703198606
 21
9278.765360473251
 31
0.0
  0
LINE
  5
18C9D
330
18745
100
AcDbEntity
  8
U1
100
AcDbLine
 10
7549.01703198606
 20
9271.215360473252
 30
0.0
 11
7551.31703198606
 21
9271.215360473252
 31
0.0
  0
LINE
  5
18C9E
330
18745
100
AcDbEntity
  8
U1
100
AcDbLine
 10
7546.717031986061
 20
9278.215360473252
 30
0.0
 11
7549.01703198606
 21
9278.215360473252
 31
0.0
  0
ARC
  5
18C9F
330
18745
100
AcDbEntity
  8
U1
100
AcDbCircle
 10
7547.867031986061
 20
9278.765360473251
 30
0.0
 40
3.450000000000044
100
AcDbArc
 50
0.0
 51
180.0
  0
LINE
  5
18CA0
330
18745
100
AcDbEntity
  8
U1
100
AcDbLine
 10
7546.717031986061
 20
9278.765360473251
 30
0.0
 11
7546.71703198606
 21
9269.515360473251
 31
0.0
  0
LINE
  5
18CA1
330
18745
100
AcDbEntity
  8
U1
100
AcDbLine
 10
7549.01703198606
 20
9269.515360473251
 30
0.0
 11
7549.01703198606
 21
9278.765360473251
 31
0.0
  0
LINE
  5
18CA2
330
18745
100
AcDbEntity
  8
U1
100
AcDbLine
 10
7544.417031986061
 20
9278.765360473251
 30
0.0
 11
7544.417031986061
 21
9269.515360473251
 31
0.0
  0
ARC
  5
18CA3
330
18745
100
AcDbEntity
  8
U1
100
AcDbCircle
 10
7560.41703198606
 20
9269.515360473251
 30
0.0
 40
4.0
100
AcDbArc
 50
270.0
 51
0.0
  0
LINE
  5
18CA4
330
18745
100
AcDbEntity
  8
U1
100
AcDbLine
 10
7560.41703198606
 20
9265.515360473251
 30
0.0
 11
7553.017031986062
 21
9265.515360473251
 31
0.0
  0
ARC
  5
18CA5
330
18745
100
AcDbEntity
  8
U1
100
AcDbCircle
 10
7553.017031986062
 20
9269.515360473251
 30
0.0
 40
4.0
100
AcDbArc
 50
180.0
 51
270.0
  0
LINE
  5
18CA6
330
18745
100
AcDbEntity
  8
U1
100
AcDbLine
 10
7564.417031986059
 20
9321.915360473253
 30
0.0
 11
7564.417031986059
 21
9269.515360473251
 31
0.0
  0
LINE
  5
18CA7
330
18745
100
AcDbEntity
  8
U1
100
AcDbLine
 10
5078.017031986059
 20
9265.515360473251
 30
0.0
 11
5110.41703198606
 21
9265.515360473251
 31
0.0
  0
LINE
  5
18CA8
330
18745
100
AcDbEntity
  8
U1
100
AcDbLine
 10
5110.41703198606
 20
9325.915360473253
 30
0.0
 11
5058.017031986059
 21
9325.915360473253
 31
0.0
  0
ARC
  5
18CA9
330
18745
100
AcDbEntity
  8
U1
100
AcDbCircle
 10
5110.41703198606
 20
9321.915360473253
 30
0.0
 40
4.0
100
AcDbArc
 50
0.0
 51
90.0
  0
ARC
  5
18CAA
330
18745
100
AcDbEntity
  8
U1
100
AcDbCircle
 10
5110.41703198606
 20
9269.515360473251
 30
0.0
 40
4.0
100
AcDbArc
 50
270.0
 51
0.0
  0
LINE
  5
18CAB
330
18745
100
AcDbEntity
  8
U1
100
AcDbLine
 10
5114.417031986061
 20
9269.515360473251
 30
0.0
 11
5114.417031986061
 21
9321.915360473253
 31
0.0
  0
ARC
  5
18CAC
330
18745
100
AcDbEntity
  8
U1
100
AcDbCircle
 10
5058.017031986059
 20
9321.915360473253
 30
0.0
 40
4.0
100
AcDbArc
 50
90.0
 51
180.0
  0
ARC
  5
18CAD
330
18745
100
AcDbEntity
  8
U1
100
AcDbCircle
 10
5078.017031986059
 20
9269.515360473251
 30
0.0
 40
4.0
100
AcDbArc
 50
180.0
 51
270.0
  0
ARC
  5
18CAE
330
18745
100
AcDbEntity
  8
U1
100
AcDbCircle
 10
5070.567031986059
 20
9278.765360473251
 30
0.0
 40
1.149999999999977
100
AcDbArc
 50
0.0
 51
180.0
  0
LINE
  5
18CAF
330
18745
100
AcDbEntity
  8
U1
100
AcDbLine
 10
5067.117031986059
 20
9271.215360473252
 30
0.0
 11
5067.117031986059
 21
9278.765360473251
 31
0.0
  0
LINE
  5
18CB0
330
18745
100
AcDbEntity
  8
U1
100
AcDbLine
 10
5069.417031986057
 20
9271.215360473252
 30
0.0
 11
5067.117031986059
 21
9271.215360473252
 31
0.0
  0
LINE
  5
18CB1
330
18745
100
AcDbEntity
  8
U1
100
AcDbLine
 10
5071.717031986057
 20
9278.215360473252
 30
0.0
 11
5069.417031986057
 21
9278.215360473252
 31
0.0
  0
ARC
  5
18CB2
330
18745
100
AcDbEntity
  8
U1
100
AcDbCircle
 10
5070.567031986059
 20
9278.765360473251
 30
0.0
 40
3.450000000000044
100
AcDbArc
 50
0.0
 51
180.0
  0
LINE
  5
18CB3
330
18745
100
AcDbEntity
  8
U1
100
AcDbLine
 10
5071.717031986057
 20
9278.765360473251
 30
0.0
 11
5071.71703198606
 21
9269.515360473251
 31
0.0
  0
LINE
  5
18CB4
330
18745
100
AcDbEntity
  8
U1
100
AcDbLine
 10
5069.417031986057
 20
9269.515360473251
 30
0.0
 11
5069.417031986057
 21
9278.765360473251
 31
0.0
  0
LINE
  5
18CB5
330
18745
100
AcDbEntity
  8
U1
100
AcDbLine
 10
5074.017031986059
 20
9278.765360473251
 30
0.0
 11
5074.017031986059
 21
9269.515360473251
 31
0.0
  0
ARC
  5
18CB6
330
18745
100
AcDbEntity
  8
U1
100
AcDbCircle
 10
5058.01703198606
 20
9269.515360473251
 30
0.0
 40
4.0
100
AcDbArc
 50
180.0
 51
270.0
  0
LINE
  5
18CB7
330
18745
100
AcDbEntity
  8
U1
100
AcDbLine
 10
5058.01703198606
 20
9265.515360473251
 30
0.0
 11
5065.41703198606
 21
9265.515360473251
 31
0.0
  0
ARC
  5
18CB8
330
18745
100
AcDbEntity
  8
U1
100
AcDbCircle
 10
5065.41703198606
 20
9269.515360473251
 30
0.0
 40
4.0
100
AcDbArc
 50
270.0
 51
0.0
  0
LINE
  5
18CB9
330
18745
100
AcDbEntity
  8
U1
100
AcDbLine
 10
5054.01703198606
 20
9321.915360473253
 30
0.0
 11
5054.01703198606
 21
9269.515360473251
 31
0.0
  0
LINE
  5
18CBA
330
18745
100
AcDbEntity
  8
U1
100
AcDbLine
 10
7540.417031986061
 20
5725.915360473253
 30
0.0
 11
7508.017031986061
 21
5725.915360473253
 31
0.0
  0
LINE
  5
18CBB
330
18745
100
AcDbEntity
  8
U1
100
AcDbLine
 10
7508.017031986061
 20
5665.515360473253
 30
0.0
 11
7560.41703198606
 21
5665.515360473253
 31
0.0
  0
ARC
  5
18CBC
330
18745
100
AcDbEntity
  8
U1
100
AcDbCircle
 10
7508.017031986061
 20
5669.515360473252
 30
0.0
 40
4.0
100
AcDbArc
 50
180.0
 51
270.0
  0
ARC
  5
18CBD
330
18745
100
AcDbEntity
  8
U1
100
AcDbCircle
 10
7508.017031986061
 20
5721.915360473253
 30
0.0
 40
4.0
100
AcDbArc
 50
90.0
 51
180.0
  0
LINE
  5
18CBE
330
18745
100
AcDbEntity
  8
U1
100
AcDbLine
 10
7504.017031986061
 20
5721.915360473253
 30
0.0
 11
7504.017031986061
 21
5669.515360473252
 31
0.0
  0
ARC
  5
18CBF
330
18745
100
AcDbEntity
  8
U1
100
AcDbCircle
 10
7560.41703198606
 20
5669.515360473252
 30
0.0
 40
4.0
100
AcDbArc
 50
270.0
 51
0.0
  0
ARC
  5
18CC0
330
18745
100
AcDbEntity
  8
U1
100
AcDbCircle
 10
7540.417031986061
 20
5721.915360473253
 30
0.0
 40
4.0
100
AcDbArc
 50
0.0
 51
90.0
  0
ARC
  5
18CC1
330
18745
100
AcDbEntity
  8
U1
100
AcDbCircle
 10
7547.867031986061
 20
5712.665360473253
 30
0.0
 40
1.149999999999977
100
AcDbArc
 50
180.0
 51
0.0
  0
LINE
  5
18CC2
330
18745
100
AcDbEntity
  8
U1
100
AcDbLine
 10
7551.31703198606
 20
5720.215360473253
 30
0.0
 11
7551.31703198606
 21
5712.665360473253
 31
0.0
  0
LINE
  5
18CC3
330
18745
100
AcDbEntity
  8
U1
100
AcDbLine
 10
7549.01703198606
 20
5720.215360473253
 30
0.0
 11
7551.31703198606
 21
5720.215360473253
 31
0.0
  0
LINE
  5
18CC4
330
18745
100
AcDbEntity
  8
U1
100
AcDbLine
 10
7546.717031986061
 20
5713.215360473252
 30
0.0
 11
7549.01703198606
 21
5713.215360473252
 31
0.0
  0
ARC
  5
18CC5
330
18745
100
AcDbEntity
  8
U1
100
AcDbCircle
 10
7547.867031986061
 20
5712.665360473253
 30
0.0
 40
3.450000000000044
100
AcDbArc
 50
180.0
 51
0.0
  0
LINE
  5
18CC6
330
18745
100
AcDbEntity
  8
U1
100
AcDbLine
 10
7546.717031986061
 20
5712.665360473253
 30
0.0
 11
7546.71703198606
 21
5721.915360473252
 31
0.0
  0
LINE
  5
18CC7
330
18745
100
AcDbEntity
  8
U1
100
AcDbLine
 10
7549.01703198606
 20
5721.915360473253
 30
0.0
 11
7549.01703198606
 21
5712.665360473253
 31
0.0
  0
LINE
  5
18CC8
330
18745
100
AcDbEntity
  8
U1
100
AcDbLine
 10
7544.417031986061
 20
5712.665360473253
 30
0.0
 11
7544.417031986061
 21
5721.915360473253
 31
0.0
  0
ARC
  5
18CC9
330
18745
100
AcDbEntity
  8
U1
100
AcDbCircle
 10
7560.41703198606
 20
5721.915360473253
 30
0.0
 40
4.0
100
AcDbArc
 50
0.0
 51
90.0
  0
LINE
  5
18CCA
330
18745
100
AcDbEntity
  8
U1
100
AcDbLine
 10
7560.41703198606
 20
5725.915360473253
 30
0.0
 11
7553.017031986062
 21
5725.915360473253
 31
0.0
  0
ARC
  5
18CCB
330
18745
100
AcDbEntity
  8
U1
100
AcDbCircle
 10
7553.017031986062
 20
5721.915360473253
 30
0.0
 40
4.0
100
AcDbArc
 50
90.0
 51
180.0
  0
LINE
  5
18CCC
330
18745
100
AcDbEntity
  8
U1
100
AcDbLine
 10
7564.417031986059
 20
5669.515360473252
 30
0.0
 11
7564.417031986059
 21
5721.915360473253
 31
0.0
  0
LINE
  5
18CCD
330
18745
100
AcDbEntity
  8
U1
100
AcDbLine
 10
5078.017031986059
 20
5725.915360473253
 30
0.0
 11
5110.41703198606
 21
5725.915360473253
 31
0.0
  0
LINE
  5
18CCE
330
18745
100
AcDbEntity
  8
U1
100
AcDbLine
 10
5110.41703198606
 20
5665.515360473253
 30
0.0
 11
5058.017031986059
 21
5665.515360473253
 31
0.0
  0
ARC
  5
18CCF
330
18745
100
AcDbEntity
  8
U1
100
AcDbCircle
 10
5110.41703198606
 20
5669.515360473252
 30
0.0
 40
4.0
100
AcDbArc
 50
270.0
 51
0.0
  0
ARC
  5
18CD0
330
18745
100
AcDbEntity
  8
U1
100
AcDbCircle
 10
5110.41703198606
 20
5721.915360473253
 30
0.0
 40
4.0
100
AcDbArc
 50
0.0
 51
90.0
  0
LINE
  5
18CD1
330
18745
100
AcDbEntity
  8
U1
100
AcDbLine
 10
5114.417031986061
 20
5721.915360473253
 30
0.0
 11
5114.417031986061
 21
5669.515360473252
 31
0.0
  0
ARC
  5
18CD2
330
18745
100
AcDbEntity
  8
U1
100
AcDbCircle
 10
5058.017031986059
 20
5669.515360473252
 30
0.0
 40
4.0
100
AcDbArc
 50
180.0
 51
270.0
  0
ARC
  5
18CD3
330
18745
100
AcDbEntity
  8
U1
100
AcDbCircle
 10
5078.017031986059
 20
5721.915360473253
 30
0.0
 40
4.0
100
AcDbArc
 50
90.0
 51
180.0
  0
ARC
  5
18CD4
330
18745
100
AcDbEntity
  8
U1
100
AcDbCircle
 10
5070.567031986059
 20
5712.665360473253
 30
0.0
 40
1.149999999999977
100
AcDbArc
 50
180.0
 51
0.0
  0
LINE
  5
18CD5
330
18745
100
AcDbEntity
  8
U1
100
AcDbLine
 10
5067.117031986059
 20
5720.215360473253
 30
0.0
 11
5067.117031986059
 21
5712.665360473253
 31
0.0
  0
LINE
  5
18CD6
330
18745
100
AcDbEntity
  8
U1
100
AcDbLine
 10
5069.417031986057
 20
5720.215360473253
 30
0.0
 11
5067.117031986059
 21
5720.215360473253
 31
0.0
  0
LINE
  5
18CD7
330
18745
100
AcDbEntity
  8
U1
100
AcDbLine
 10
5071.717031986057
 20
5713.215360473252
 30
0.0
 11
5069.417031986057
 21
5713.215360473252
 31
0.0
  0
ARC
  5
18CD8
330
18745
100
AcDbEntity
  8
U1
100
AcDbCircle
 10
5070.567031986059
 20
5712.665360473253
 30
0.0
 40
3.450000000000044
100
AcDbArc
 50
180.0
 51
0.0
  0
LINE
  5
18CD9
330
18745
100
AcDbEntity
  8
U1
100
AcDbLine
 10
5071.717031986057
 20
5712.665360473253
 30
0.0
 11
5071.71703198606
 21
5721.915360473252
 31
0.0
  0
LINE
  5
18CDA
330
18745
100
AcDbEntity
  8
U1
100
AcDbLine
 10
5069.417031986057
 20
5721.915360473253
 30
0.0
 11
5069.417031986057
 21
5712.665360473253
 31
0.0
  0
LINE
  5
18CDB
330
18745
100
AcDbEntity
  8
U1
100
AcDbLine
 10
5074.017031986059
 20
5712.665360473253
 30
0.0
 11
5074.017031986059
 21
5721.915360473253
 31
0.0
  0
ARC
  5
18CDC
330
18745
100
AcDbEntity
  8
U1
100
AcDbCircle
 10
5058.01703198606
 20
5721.915360473253
 30
0.0
 40
4.0
100
AcDbArc
 50
90.0
 51
180.0
  0
LINE
  5
18CDD
330
18745
100
AcDbEntity
  8
U1
100
AcDbLine
 10
5058.01703198606
 20
5725.915360473253
 30
0.0
 11
5065.41703198606
 21
5725.915360473253
 31
0.0
  0
ARC
  5
18CDE
330
18745
100
AcDbEntity
  8
U1
100
AcDbCircle
 10
5065.41703198606
 20
5721.915360473253
 30
0.0
 40
4.0
100
AcDbArc
 50
0.0
 51
90.0
  0
LINE
  5
18CDF
330
18745
100
AcDbEntity
  8
U1
100
AcDbLine
 10
5054.01703198606
 20
5669.515360473252
 30
0.0
 11
5054.01703198606
 21
5721.915360473253
 31
0.0
  0
LINE
  5
18CE0
330
18745
100
AcDbEntity
  8
U1
100
AcDbLine
 10
8840.417031986062
 20
5725.915360473253
 30
0.0
 11
8808.017031986059
 21
5725.915360473253
 31
0.0
  0
LINE
  5
18CE1
330
18745
100
AcDbEntity
  8
U1
100
AcDbLine
 10
8808.017031986059
 20
5665.515360473253
 30
0.0
 11
8860.41703198606
 21
5665.515360473253
 31
0.0
  0
ARC
  5
18CE2
330
18745
100
AcDbEntity
  8
U1
100
AcDbCircle
 10
8808.017031986059
 20
5669.515360473252
 30
0.0
 40
4.0
100
AcDbArc
 50
180.0
 51
270.0
  0
ARC
  5
18CE3
330
18745
100
AcDbEntity
  8
U1
100
AcDbCircle
 10
8808.017031986059
 20
5721.915360473253
 30
0.0
 40
4.0
100
AcDbArc
 50
90.0
 51
180.0
  0
LINE
  5
18CE4
330
18745
100
AcDbEntity
  8
U1
100
AcDbLine
 10
8804.017031986061
 20
5721.915360473253
 30
0.0
 11
8804.017031986061
 21
5669.515360473252
 31
0.0
  0
ARC
  5
18CE5
330
18745
100
AcDbEntity
  8
U1
100
AcDbCircle
 10
8860.41703198606
 20
5669.515360473252
 30
0.0
 40
4.0
100
AcDbArc
 50
270.0
 51
0.0
  0
ARC
  5
18CE6
330
18745
100
AcDbEntity
  8
U1
100
AcDbCircle
 10
8840.417031986062
 20
5721.915360473253
 30
0.0
 40
4.0
100
AcDbArc
 50
0.0
 51
90.0
  0
ARC
  5
18CE7
330
18745
100
AcDbEntity
  8
U1
100
AcDbCircle
 10
8847.86703198606
 20
5712.665360473253
 30
0.0
 40
1.149999999999977
100
AcDbArc
 50
180.0
 51
0.0
  0
LINE
  5
18CE8
330
18745
100
AcDbEntity
  8
U1
100
AcDbLine
 10
8851.317031986061
 20
5720.215360473253
 30
0.0
 11
8851.317031986061
 21
5712.665360473253
 31
0.0
  0
LINE
  5
18CE9
330
18745
100
AcDbEntity
  8
U1
100
AcDbLine
 10
8849.017031986059
 20
5720.215360473253
 30
0.0
 11
8851.317031986061
 21
5720.215360473253
 31
0.0
  0
LINE
  5
18CEA
330
18745
100
AcDbEntity
  8
U1
100
AcDbLine
 10
8846.717031986059
 20
5713.215360473252
 30
0.0
 11
8849.017031986059
 21
5713.215360473252
 31
0.0
  0
ARC
  5
18CEB
330
18745
100
AcDbEntity
  8
U1
100
AcDbCircle
 10
8847.86703198606
 20
5712.665360473253
 30
0.0
 40
3.450000000000044
100
AcDbArc
 50
180.0
 51
0.0
  0
LINE
  5
18CEC
330
18745
100
AcDbEntity
  8
U1
100
AcDbLine
 10
8846.717031986059
 20
5712.665360473253
 30
0.0
 11
8846.717031986059
 21
5721.915360473252
 31
0.0
  0
LINE
  5
18CED
330
18745
100
AcDbEntity
  8
U1
100
AcDbLine
 10
8849.017031986059
 20
5721.915360473253
 30
0.0
 11
8849.017031986059
 21
5712.665360473253
 31
0.0
  0
LINE
  5
18CEE
330
18745
100
AcDbEntity
  8
U1
100
AcDbLine
 10
8844.417031986059
 20
5712.665360473253
 30
0.0
 11
8844.417031986059
 21
5721.915360473253
 31
0.0
  0
ARC
  5
18CEF
330
18745
100
AcDbEntity
  8
U1
100
AcDbCircle
 10
8860.41703198606
 20
5721.915360473253
 30
0.0
 40
4.0
100
AcDbArc
 50
0.0
 51
90.0
  0
LINE
  5
18CF0
330
18745
100
AcDbEntity
  8
U1
100
AcDbLine
 10
8860.41703198606
 20
5725.915360473253
 30
0.0
 11
8853.017031986059
 21
5725.915360473253
 31
0.0
  0
ARC
  5
18CF1
330
18745
100
AcDbEntity
  8
U1
100
AcDbCircle
 10
8853.017031986059
 20
5721.915360473253
 30
0.0
 40
4.0
100
AcDbArc
 50
90.0
 51
180.0
  0
LINE
  5
18CF2
330
18745
100
AcDbEntity
  8
U1
100
AcDbLine
 10
8864.417031986061
 20
5669.515360473252
 30
0.0
 11
8864.417031986061
 21
5721.915360473253
 31
0.0
  0
LINE
  5
18CF3
330
18745
100
AcDbEntity
  8
U1
100
AcDbLine
 10
11290.41703198606
 20
5725.915360473253
 30
0.0
 11
11258.01703198606
 21
5725.915360473253
 31
0.0
  0
LINE
  5
18CF4
330
18745
100
AcDbEntity
  8
U1
100
AcDbLine
 10
11258.01703198606
 20
5665.515360473253
 30
0.0
 11
11310.41703198606
 21
5665.515360473253
 31
0.0
  0
ARC
  5
18CF5
330
18745
100
AcDbEntity
  8
U1
100
AcDbCircle
 10
11258.01703198606
 20
5669.515360473252
 30
0.0
 40
4.0
100
AcDbArc
 50
180.0
 51
270.0
  0
ARC
  5
18CF6
330
18745
100
AcDbEntity
  8
U1
100
AcDbCircle
 10
11258.01703198606
 20
5721.915360473253
 30
0.0
 40
4.0
100
AcDbArc
 50
90.0
 51
180.0
  0
LINE
  5
18CF7
330
18745
100
AcDbEntity
  8
U1
100
AcDbLine
 10
11254.01703198605
 20
5721.915360473253
 30
0.0
 11
11254.01703198605
 21
5669.515360473252
 31
0.0
  0
ARC
  5
18CF8
330
18745
100
AcDbEntity
  8
U1
100
AcDbCircle
 10
11310.41703198606
 20
5669.515360473252
 30
0.0
 40
4.0
100
AcDbArc
 50
270.0
 51
0.0
  0
ARC
  5
18CF9
330
18745
100
AcDbEntity
  8
U1
100
AcDbCircle
 10
11290.41703198606
 20
5721.915360473253
 30
0.0
 40
4.0
100
AcDbArc
 50
0.0
 51
90.0
  0
ARC
  5
18CFA
330
18745
100
AcDbEntity
  8
U1
100
AcDbCircle
 10
11297.86703198605
 20
5712.665360473253
 30
0.0
 40
1.149999999999977
100
AcDbArc
 50
180.0
 51
0.0
  0
LINE
  5
18CFB
330
18745
100
AcDbEntity
  8
U1
100
AcDbLine
 10
11301.31703198606
 20
5720.215360473253
 30
0.0
 11
11301.31703198606
 21
5712.665360473253
 31
0.0
  0
LINE
  5
18CFC
330
18745
100
AcDbEntity
  8
U1
100
AcDbLine
 10
11299.01703198606
 20
5720.215360473253
 30
0.0
 11
11301.31703198606
 21
5720.215360473253
 31
0.0
  0
LINE
  5
18CFD
330
18745
100
AcDbEntity
  8
U1
100
AcDbLine
 10
11296.71703198606
 20
5713.215360473252
 30
0.0
 11
11299.01703198606
 21
5713.215360473252
 31
0.0
  0
ARC
  5
18CFE
330
18745
100
AcDbEntity
  8
U1
100
AcDbCircle
 10
11297.86703198605
 20
5712.665360473253
 30
0.0
 40
3.450000000000044
100
AcDbArc
 50
180.0
 51
0.0
  0
LINE
  5
18CFF
330
18745
100
AcDbEntity
  8
U1
100
AcDbLine
 10
11296.71703198606
 20
5712.665360473253
 30
0.0
 11
11296.71703198606
 21
5721.915360473252
 31
0.0
  0
LINE
  5
18D00
330
18745
100
AcDbEntity
  8
U1
100
AcDbLine
 10
11299.01703198606
 20
5721.915360473253
 30
0.0
 11
11299.01703198606
 21
5712.665360473253
 31
0.0
  0
LINE
  5
18D01
330
18745
100
AcDbEntity
  8
U1
100
AcDbLine
 10
11294.41703198606
 20
5712.665360473253
 30
0.0
 11
11294.41703198606
 21
5721.915360473253
 31
0.0
  0
ARC
  5
18D02
330
18745
100
AcDbEntity
  8
U1
100
AcDbCircle
 10
11310.41703198606
 20
5721.915360473253
 30
0.0
 40
4.0
100
AcDbArc
 50
0.0
 51
90.0
  0
LINE
  5
18D03
330
18745
100
AcDbEntity
  8
U1
100
AcDbLine
 10
11310.41703198606
 20
5725.915360473253
 30
0.0
 11
11303.01703198606
 21
5725.915360473253
 31
0.0
  0
ARC
  5
18D04
330
18745
100
AcDbEntity
  8
U1
100
AcDbCircle
 10
11303.01703198606
 20
5721.915360473253
 30
0.0
 40
4.0
100
AcDbArc
 50
90.0
 51
180.0
  0
LINE
  5
18D05
330
18745
100
AcDbEntity
  8
U1
100
AcDbLine
 10
11314.41703198606
 20
5669.515360473252
 30
0.0
 11
11314.41703198606
 21
5721.915360473253
 31
0.0
  0
LINE
  5
18D06
330
18745
100
AcDbEntity
  8
U1
100
AcDbLine
 10
5078.017031986059
 20
7525.915360473252
 30
0.0
 11
5110.41703198606
 21
7525.915360473252
 31
0.0
  0
LINE
  5
18D07
330
18745
100
AcDbEntity
  8
U1
100
AcDbLine
 10
5110.41703198606
 20
7465.515360473251
 30
0.0
 11
5058.017031986059
 21
7465.515360473251
 31
0.0
  0
ARC
  5
18D08
330
18745
100
AcDbEntity
  8
U1
100
AcDbCircle
 10
5110.41703198606
 20
7469.515360473251
 30
0.0
 40
4.0
100
AcDbArc
 50
270.0
 51
0.0
  0
ARC
  5
18D09
330
18745
100
AcDbEntity
  8
U1
100
AcDbCircle
 10
5110.41703198606
 20
7521.915360473252
 30
0.0
 40
4.0
100
AcDbArc
 50
0.0
 51
90.0
  0
LINE
  5
18D0A
330
18745
100
AcDbEntity
  8
U1
100
AcDbLine
 10
5114.417031986061
 20
7521.915360473252
 30
0.0
 11
5114.417031986061
 21
7469.515360473251
 31
0.0
  0
ARC
  5
18D0B
330
18745
100
AcDbEntity
  8
U1
100
AcDbCircle
 10
5058.017031986059
 20
7469.515360473251
 30
0.0
 40
4.0
100
AcDbArc
 50
180.0
 51
270.0
  0
ARC
  5
18D0C
330
18745
100
AcDbEntity
  8
U1
100
AcDbCircle
 10
5078.017031986059
 20
7521.915360473252
 30
0.0
 40
4.0
100
AcDbArc
 50
90.0
 51
180.0
  0
ARC
  5
18D0D
330
18745
100
AcDbEntity
  8
U1
100
AcDbCircle
 10
5070.567031986059
 20
7512.665360473251
 30
0.0
 40
1.149999999999977
100
AcDbArc
 50
180.0
 51
0.0
  0
LINE
  5
18D0E
330
18745
100
AcDbEntity
  8
U1
100
AcDbLine
 10
5067.117031986059
 20
7520.215360473253
 30
0.0
 11
5067.117031986059
 21
7512.665360473251
 31
0.0
  0
LINE
  5
18D0F
330
18745
100
AcDbEntity
  8
U1
100
AcDbLine
 10
5069.417031986057
 20
7520.215360473253
 30
0.0
 11
5067.117031986059
 21
7520.215360473253
 31
0.0
  0
LINE
  5
18D10
330
18745
100
AcDbEntity
  8
U1
100
AcDbLine
 10
5071.717031986057
 20
7513.215360473253
 30
0.0
 11
5069.417031986057
 21
7513.215360473253
 31
0.0
  0
ARC
  5
18D11
330
18745
100
AcDbEntity
  8
U1
100
AcDbCircle
 10
5070.567031986059
 20
7512.665360473251
 30
0.0
 40
3.450000000000044
100
AcDbArc
 50
180.0
 51
0.0
  0
LINE
  5
18D12
330
18745
100
AcDbEntity
  8
U1
100
AcDbLine
 10
5071.717031986057
 20
7512.665360473251
 30
0.0
 11
5071.71703198606
 21
7521.915360473252
 31
0.0
  0
LINE
  5
18D13
330
18745
100
AcDbEntity
  8
U1
100
AcDbLine
 10
5069.417031986057
 20
7521.915360473252
 30
0.0
 11
5069.417031986057
 21
7512.665360473251
 31
0.0
  0
LINE
  5
18D14
330
18745
100
AcDbEntity
  8
U1
100
AcDbLine
 10
5074.017031986059
 20
7512.665360473251
 30
0.0
 11
5074.017031986059
 21
7521.915360473252
 31
0.0
  0
ARC
  5
18D15
330
18745
100
AcDbEntity
  8
U1
100
AcDbCircle
 10
5058.01703198606
 20
7521.915360473252
 30
0.0
 40
4.0
100
AcDbArc
 50
90.0
 51
180.0
  0
LINE
  5
18D16
330
18745
100
AcDbEntity
  8
U1
100
AcDbLine
 10
5058.01703198606
 20
7525.915360473252
 30
0.0
 11
5065.41703198606
 21
7525.915360473252
 31
0.0
  0
ARC
  5
18D17
330
18745
100
AcDbEntity
  8
U1
100
AcDbCircle
 10
5065.41703198606
 20
7521.915360473252
 30
0.0
 40
4.0
100
AcDbArc
 50
0.0
 51
90.0
  0
LINE
  5
18D18
330
18745
100
AcDbEntity
  8
U1
100
AcDbLine
 10
5054.01703198606
 20
7469.515360473251
 30
0.0
 11
5054.01703198606
 21
7521.915360473252
 31
0.0
  0
LINE
  5
18D19
330
18745
100
AcDbEntity
  8
U1
100
AcDbLine
 10
7540.417031986061
 20
7525.915360473252
 30
0.0
 11
7508.017031986061
 21
7525.915360473252
 31
0.0
  0
LINE
  5
18D1A
330
18745
100
AcDbEntity
  8
U1
100
AcDbLine
 10
7508.017031986061
 20
7465.515360473251
 30
0.0
 11
7560.41703198606
 21
7465.515360473251
 31
0.0
  0
ARC
  5
18D1B
330
18745
100
AcDbEntity
  8
U1
100
AcDbCircle
 10
7508.017031986061
 20
7469.515360473251
 30
0.0
 40
4.0
100
AcDbArc
 50
180.0
 51
270.0
  0
ARC
  5
18D1C
330
18745
100
AcDbEntity
  8
U1
100
AcDbCircle
 10
7508.017031986061
 20
7521.915360473252
 30
0.0
 40
4.0
100
AcDbArc
 50
90.0
 51
180.0
  0
LINE
  5
18D1D
330
18745
100
AcDbEntity
  8
U1
100
AcDbLine
 10
7504.017031986061
 20
7521.915360473252
 30
0.0
 11
7504.017031986061
 21
7469.515360473251
 31
0.0
  0
ARC
  5
18D1E
330
18745
100
AcDbEntity
  8
U1
100
AcDbCircle
 10
7560.41703198606
 20
7469.515360473251
 30
0.0
 40
4.0
100
AcDbArc
 50
270.0
 51
0.0
  0
ARC
  5
18D1F
330
18745
100
AcDbEntity
  8
U1
100
AcDbCircle
 10
7540.417031986061
 20
7521.915360473252
 30
0.0
 40
4.0
100
AcDbArc
 50
0.0
 51
90.0
  0
ARC
  5
18D20
330
18745
100
AcDbEntity
  8
U1
100
AcDbCircle
 10
7547.867031986061
 20
7512.665360473251
 30
0.0
 40
1.149999999999977
100
AcDbArc
 50
180.0
 51
0.0
  0
LINE
  5
18D21
330
18745
100
AcDbEntity
  8
U1
100
AcDbLine
 10
7551.31703198606
 20
7520.215360473253
 30
0.0
 11
7551.31703198606
 21
7512.665360473251
 31
0.0
  0
LINE
  5
18D22
330
18745
100
AcDbEntity
  8
U1
100
AcDbLine
 10
7549.01703198606
 20
7520.215360473253
 30
0.0
 11
7551.31703198606
 21
7520.215360473253
 31
0.0
  0
LINE
  5
18D23
330
18745
100
AcDbEntity
  8
U1
100
AcDbLine
 10
7546.717031986061
 20
7513.215360473253
 30
0.0
 11
7549.01703198606
 21
7513.215360473253
 31
0.0
  0
ARC
  5
18D24
330
18745
100
AcDbEntity
  8
U1
100
AcDbCircle
 10
7547.867031986061
 20
7512.665360473251
 30
0.0
 40
3.450000000000044
100
AcDbArc
 50
180.0
 51
0.0
  0
LINE
  5
18D25
330
18745
100
AcDbEntity
  8
U1
100
AcDbLine
 10
7546.717031986061
 20
7512.665360473251
 30
0.0
 11
7546.71703198606
 21
7521.915360473252
 31
0.0
  0
LINE
  5
18D26
330
18745
100
AcDbEntity
  8
U1
100
AcDbLine
 10
7549.01703198606
 20
7521.915360473252
 30
0.0
 11
7549.01703198606
 21
7512.665360473251
 31
0.0
  0
LINE
  5
18D27
330
18745
100
AcDbEntity
  8
U1
100
AcDbLine
 10
7544.417031986061
 20
7512.665360473251
 30
0.0
 11
7544.417031986061
 21
7521.915360473252
 31
0.0
  0
ARC
  5
18D28
330
18745
100
AcDbEntity
  8
U1
100
AcDbCircle
 10
7560.41703198606
 20
7521.915360473252
 30
0.0
 40
4.0
100
AcDbArc
 50
0.0
 51
90.0
  0
LINE
  5
18D29
330
18745
100
AcDbEntity
  8
U1
100
AcDbLine
 10
7560.41703198606
 20
7525.915360473252
 30
0.0
 11
7553.017031986062
 21
7525.915360473252
 31
0.0
  0
ARC
  5
18D2A
330
18745
100
AcDbEntity
  8
U1
100
AcDbCircle
 10
7553.017031986062
 20
7521.915360473252
 30
0.0
 40
4.0
100
AcDbArc
 50
90.0
 51
180.0
  0
LINE
  5
18D2B
330
18745
100
AcDbEntity
  8
U1
100
AcDbLine
 10
7564.417031986059
 20
7469.515360473251
 30
0.0
 11
7564.417031986059
 21
7521.915360473252
 31
0.0
  0
LINE
  5
18D2C
330
18745
100
AcDbEntity
  8
U1
100
AcDbLine
 10
8840.417031986062
 20
7525.915360473252
 30
0.0
 11
8808.017031986059
 21
7525.915360473252
 31
0.0
  0
LINE
  5
18D2D
330
18745
100
AcDbEntity
  8
U1
100
AcDbLine
 10
8808.017031986059
 20
7465.515360473251
 30
0.0
 11
8860.41703198606
 21
7465.515360473251
 31
0.0
  0
ARC
  5
18D2E
330
18745
100
AcDbEntity
  8
U1
100
AcDbCircle
 10
8808.017031986059
 20
7469.515360473251
 30
0.0
 40
4.0
100
AcDbArc
 50
180.0
 51
270.0
  0
ARC
  5
18D2F
330
18745
100
AcDbEntity
  8
U1
100
AcDbCircle
 10
8808.017031986059
 20
7521.915360473252
 30
0.0
 40
4.0
100
AcDbArc
 50
90.0
 51
180.0
  0
LINE
  5
18D30
330
18745
100
AcDbEntity
  8
U1
100
AcDbLine
 10
8804.017031986061
 20
7521.915360473252
 30
0.0
 11
8804.017031986061
 21
7469.515360473251
 31
0.0
  0
ARC
  5
18D31
330
18745
100
AcDbEntity
  8
U1
100
AcDbCircle
 10
8860.41703198606
 20
7469.515360473251
 30
0.0
 40
4.0
100
AcDbArc
 50
270.0
 51
0.0
  0
ARC
  5
18D32
330
18745
100
AcDbEntity
  8
U1
100
AcDbCircle
 10
8840.417031986062
 20
7521.915360473252
 30
0.0
 40
4.0
100
AcDbArc
 50
0.0
 51
90.0
  0
ARC
  5
18D33
330
18745
100
AcDbEntity
  8
U1
100
AcDbCircle
 10
8847.86703198606
 20
7512.665360473251
 30
0.0
 40
1.149999999999977
100
AcDbArc
 50
180.0
 51
0.0
  0
LINE
  5
18D34
330
18745
100
AcDbEntity
  8
U1
100
AcDbLine
 10
8851.317031986061
 20
7520.215360473253
 30
0.0
 11
8851.317031986061
 21
7512.665360473251
 31
0.0
  0
LINE
  5
18D35
330
18745
100
AcDbEntity
  8
U1
100
AcDbLine
 10
8849.017031986059
 20
7520.215360473253
 30
0.0
 11
8851.317031986061
 21
7520.215360473253
 31
0.0
  0
LINE
  5
18D36
330
18745
100
AcDbEntity
  8
U1
100
AcDbLine
 10
8846.717031986059
 20
7513.215360473253
 30
0.0
 11
8849.017031986059
 21
7513.215360473253
 31
0.0
  0
ARC
  5
18D37
330
18745
100
AcDbEntity
  8
U1
100
AcDbCircle
 10
8847.86703198606
 20
7512.665360473251
 30
0.0
 40
3.450000000000044
100
AcDbArc
 50
180.0
 51
0.0
  0
LINE
  5
18D38
330
18745
100
AcDbEntity
  8
U1
100
AcDbLine
 10
8846.717031986059
 20
7512.665360473251
 30
0.0
 11
8846.717031986059
 21
7521.915360473252
 31
0.0
  0
LINE
  5
18D39
330
18745
100
AcDbEntity
  8
U1
100
AcDbLine
 10
8849.017031986059
 20
7521.915360473252
 30
0.0
 11
8849.017031986059
 21
7512.665360473251
 31
0.0
  0
LINE
  5
18D3A
330
18745
100
AcDbEntity
  8
U1
100
AcDbLine
 10
8844.417031986059
 20
7512.665360473251
 30
0.0
 11
8844.417031986059
 21
7521.915360473252
 31
0.0
  0
ARC
  5
18D3B
330
18745
100
AcDbEntity
  8
U1
100
AcDbCircle
 10
8860.41703198606
 20
7521.915360473252
 30
0.0
 40
4.0
100
AcDbArc
 50
0.0
 51
90.0
  0
LINE
  5
18D3C
330
18745
100
AcDbEntity
  8
U1
100
AcDbLine
 10
8860.41703198606
 20
7525.915360473252
 30
0.0
 11
8853.017031986059
 21
7525.915360473252
 31
0.0
  0
ARC
  5
18D3D
330
18745
100
AcDbEntity
  8
U1
100
AcDbCircle
 10
8853.017031986059
 20
7521.915360473252
 30
0.0
 40
4.0
100
AcDbArc
 50
90.0
 51
180.0
  0
LINE
  5
18D3E
330
18745
100
AcDbEntity
  8
U1
100
AcDbLine
 10
8864.417031986061
 20
7469.515360473251
 30
0.0
 11
8864.417031986061
 21
7521.915360473252
 31
0.0
  0
LINE
  5
18D3F
330
18745
100
AcDbEntity
  8
U1
100
AcDbLine
 10
11290.41703198606
 20
7525.915360473252
 30
0.0
 11
11258.01703198606
 21
7525.915360473252
 31
0.0
  0
LINE
  5
18D40
330
18745
100
AcDbEntity
  8
U1
100
AcDbLine
 10
11258.01703198606
 20
7465.515360473251
 30
0.0
 11
11310.41703198606
 21
7465.515360473251
 31
0.0
  0
ARC
  5
18D41
330
18745
100
AcDbEntity
  8
U1
100
AcDbCircle
 10
11258.01703198606
 20
7469.515360473251
 30
0.0
 40
4.0
100
AcDbArc
 50
180.0
 51
270.0
  0
ARC
  5
18D42
330
18745
100
AcDbEntity
  8
U1
100
AcDbCircle
 10
11258.01703198606
 20
7521.915360473252
 30
0.0
 40
4.0
100
AcDbArc
 50
90.0
 51
180.0
  0
LINE
  5
18D43
330
18745
100
AcDbEntity
  8
U1
100
AcDbLine
 10
11254.01703198605
 20
7521.915360473252
 30
0.0
 11
11254.01703198605
 21
7469.515360473251
 31
0.0
  0
ARC
  5
18D44
330
18745
100
AcDbEntity
  8
U1
100
AcDbCircle
 10
11310.41703198606
 20
7469.515360473251
 30
0.0
 40
4.0
100
AcDbArc
 50
270.0
 51
0.0
  0
ARC
  5
18D45
330
18745
100
AcDbEntity
  8
U1
100
AcDbCircle
 10
11290.41703198606
 20
7521.915360473252
 30
0.0
 40
4.0
100
AcDbArc
 50
0.0
 51
90.0
  0
ARC
  5
18D46
330
18745
100
AcDbEntity
  8
U1
100
AcDbCircle
 10
11297.86703198605
 20
7512.665360473251
 30
0.0
 40
1.149999999999977
100
AcDbArc
 50
180.0
 51
0.0
  0
LINE
  5
18D47
330
18745
100
AcDbEntity
  8
U1
100
AcDbLine
 10
11301.31703198606
 20
7520.215360473253
 30
0.0
 11
11301.31703198606
 21
7512.665360473251
 31
0.0
  0
LINE
  5
18D48
330
18745
100
AcDbEntity
  8
U1
100
AcDbLine
 10
11299.01703198606
 20
7520.215360473253
 30
0.0
 11
11301.31703198606
 21
7520.215360473253
 31
0.0
  0
LINE
  5
18D49
330
18745
100
AcDbEntity
  8
U1
100
AcDbLine
 10
11296.71703198606
 20
7513.215360473253
 30
0.0
 11
11299.01703198606
 21
7513.215360473253
 31
0.0
  0
ARC
  5
18D4A
330
18745
100
AcDbEntity
  8
U1
100
AcDbCircle
 10
11297.86703198605
 20
7512.665360473251
 30
0.0
 40
3.450000000000044
100
AcDbArc
 50
180.0
 51
0.0
  0
LINE
  5
18D4B
330
18745
100
AcDbEntity
  8
U1
100
AcDbLine
 10
11296.71703198606
 20
7512.665360473251
 30
0.0
 11
11296.71703198606
 21
7521.915360473252
 31
0.0
  0
LINE
  5
18D4C
330
18745
100
AcDbEntity
  8
U1
100
AcDbLine
 10
11299.01703198606
 20
7521.915360473252
 30
0.0
 11
11299.01703198606
 21
7512.665360473251
 31
0.0
  0
LINE
  5
18D4D
330
18745
100
AcDbEntity
  8
U1
100
AcDbLine
 10
11294.41703198606
 20
7512.665360473251
 30
0.0
 11
11294.41703198606
 21
7521.915360473252
 31
0.0
  0
ARC
  5
18D4E
330
18745
100
AcDbEntity
  8
U1
100
AcDbCircle
 10
11310.41703198606
 20
7521.915360473252
 30
0.0
 40
4.0
100
AcDbArc
 50
0.0
 51
90.0
  0
LINE
  5
18D4F
330
18745
100
AcDbEntity
  8
U1
100
AcDbLine
 10
11310.41703198606
 20
7525.915360473252
 30
0.0
 11
11303.01703198606
 21
7525.915360473252
 31
0.0
  0
ARC
  5
18D50
330
18745
100
AcDbEntity
  8
U1
100
AcDbCircle
 10
11303.01703198606
 20
7521.915360473252
 30
0.0
 40
4.0
100
AcDbArc
 50
90.0
 51
180.0
  0
LINE
  5
18D51
330
18745
100
AcDbEntity
  8
U1
100
AcDbLine
 10
11314.41703198606
 20
7469.515360473251
 30
0.0
 11
11314.41703198606
 21
7521.915360473252
 31
0.0
  0
ARC
  5
18D52
330
18745
100
AcDbEntity
  8
U1
100
AcDbCircle
 10
11310.41703198606
 20
9269.515360473251
 30
0.0
 40
6.300000000001091
100
AcDbArc
 50
270.0
 51
0.0
  0
LINE
  5
18D53
330
18745
100
AcDbEntity
  8
U1
100
AcDbLine
 10
11310.41703198606
 20
9263.215360473251
 30
0.0
 11
11303.01703198606
 21
9263.215360473251
 31
0.0
  0
ARC
  5
18D54
330
18745
100
AcDbEntity
  8
U1
100
AcDbCircle
 10
11303.01703198606
 20
9269.515360473251
 30
0.0
 40
6.299999999999272
100
AcDbArc
 50
180.0
 51
270.0
  0
ARC
  5
18D55
330
18745
100
AcDbEntity
  8
U1
100
AcDbCircle
 10
11290.41703198606
 20
9269.515360473251
 30
0.0
 40
6.300000000001091
100
AcDbArc
 50
270.0
 51
359.9999999999833
  0
LINE
  5
18D56
330
18745
100
AcDbEntity
  8
U1
100
AcDbLine
 10
11290.41703198606
 20
9263.215360473251
 30
0.0
 11
11258.01703198606
 21
9263.215360473251
 31
0.0
  0
ARC
  5
18D57
330
18745
100
AcDbEntity
  8
U1
100
AcDbCircle
 10
11258.01703198606
 20
9269.515360473251
 30
0.0
 40
6.300000000001091
100
AcDbArc
 50
180.0
 51
270.0
  0
LINE
  5
18D58
330
18745
100
AcDbEntity
  8
U1
100
AcDbLine
 10
11251.71703198605
 20
9269.515360473251
 30
0.0
 11
11251.71703198605
 21
9321.915360473253
 31
0.0
  0
ARC
  5
18D59
330
18745
100
AcDbEntity
  8
U1
100
AcDbCircle
 10
11258.01703198606
 20
9321.915360473253
 30
0.0
 40
6.300000000001091
100
AcDbArc
 50
90.0
 51
180.0
  0
LINE
  5
18D5A
330
18745
100
AcDbEntity
  8
U1
100
AcDbLine
 10
11258.01703198606
 20
9328.215360473253
 30
0.0
 11
11310.41703198606
 21
9328.215360473253
 31
0.0
  0
ARC
  5
18D5B
330
18745
100
AcDbEntity
  8
U1
100
AcDbCircle
 10
11310.41703198606
 20
9321.915360473253
 30
0.0
 40
6.299999999999272
100
AcDbArc
 50
0.0
 51
90.0
  0
LINE
  5
18D5C
330
18745
100
AcDbEntity
  8
U1
100
AcDbLine
 10
11316.71703198606
 20
9321.915360473253
 30
0.0
 11
11316.71703198606
 21
9269.515360473251
 31
0.0
  0
ARC
  5
18D5D
330
18745
100
AcDbEntity
  8
U1
100
AcDbCircle
 10
8860.417031986058
 20
9269.515360473251
 30
0.0
 40
6.300000000001091
100
AcDbArc
 50
270.0
 51
0.0
  0
LINE
  5
18D5E
330
18745
100
AcDbEntity
  8
U1
100
AcDbLine
 10
8860.417031986058
 20
9263.215360473251
 30
0.0
 11
8853.017031986059
 21
9263.215360473251
 31
0.0
  0
ARC
  5
18D5F
330
18745
100
AcDbEntity
  8
U1
100
AcDbCircle
 10
8853.017031986059
 20
9269.515360473251
 30
0.0
 40
6.299999999999272
100
AcDbArc
 50
180.0
 51
270.0
  0
ARC
  5
18D60
330
18745
100
AcDbEntity
  8
U1
100
AcDbCircle
 10
8840.417031986058
 20
9269.515360473251
 30
0.0
 40
6.300000000001091
100
AcDbArc
 50
270.0
 51
359.9999999999833
  0
LINE
  5
18D61
330
18745
100
AcDbEntity
  8
U1
100
AcDbLine
 10
8840.417031986058
 20
9263.215360473251
 30
0.0
 11
8808.017031986059
 21
9263.215360473251
 31
0.0
  0
ARC
  5
18D62
330
18745
100
AcDbEntity
  8
U1
100
AcDbCircle
 10
8808.017031986059
 20
9269.515360473251
 30
0.0
 40
6.300000000001091
100
AcDbArc
 50
180.0
 51
270.0
  0
LINE
  5
18D63
330
18745
100
AcDbEntity
  8
U1
100
AcDbLine
 10
8801.71703198606
 20
9269.515360473251
 30
0.0
 11
8801.71703198606
 21
9321.915360473253
 31
0.0
  0
ARC
  5
18D64
330
18745
100
AcDbEntity
  8
U1
100
AcDbCircle
 10
8808.017031986061
 20
9321.915360473253
 30
0.0
 40
6.300000000001091
100
AcDbArc
 50
90.0
 51
180.0
  0
LINE
  5
18D65
330
18745
100
AcDbEntity
  8
U1
100
AcDbLine
 10
8808.017031986061
 20
9328.215360473253
 30
0.0
 11
8860.41703198606
 21
9328.215360473253
 31
0.0
  0
ARC
  5
18D66
330
18745
100
AcDbEntity
  8
U1
100
AcDbCircle
 10
8860.41703198606
 20
9321.915360473253
 30
0.0
 40
6.299999999999272
100
AcDbArc
 50
0.0
 51
90.0
  0
LINE
  5
18D67
330
18745
100
AcDbEntity
  8
U1
100
AcDbLine
 10
8866.717031986061
 20
9321.915360473253
 30
0.0
 11
8866.717031986061
 21
9269.515360473251
 31
0.0
  0
ARC
  5
18D68
330
18745
100
AcDbEntity
  8
U1
100
AcDbCircle
 10
7560.41703198606
 20
9269.515360473251
 30
0.0
 40
6.299999999999272
100
AcDbArc
 50
269.9999999999918
 51
0.0
  0
LINE
  5
18D69
330
18745
100
AcDbEntity
  8
U1
100
AcDbLine
 10
7560.41703198606
 20
9263.215360473251
 30
0.0
 11
7553.017031986062
 21
9263.215360473251
 31
0.0
  0
ARC
  5
18D6A
330
18745
100
AcDbEntity
  8
U1
100
AcDbCircle
 10
7553.017031986058
 20
9269.515360473251
 30
0.0
 40
6.299999999999272
100
AcDbArc
 50
180.0
 51
270.0000000000081
  0
ARC
  5
18D6B
330
18745
100
AcDbEntity
  8
U1
100
AcDbCircle
 10
7540.417031986061
 20
9269.515360473251
 30
0.0
 40
6.299999999999272
100
AcDbArc
 50
269.9999999999918
 51
0.0
  0
LINE
  5
18D6C
330
18745
100
AcDbEntity
  8
U1
100
AcDbLine
 10
7540.417031986058
 20
9263.215360473251
 30
0.0
 11
7508.017031986061
 21
9263.215360473251
 31
0.0
  0
ARC
  5
18D6D
330
18745
100
AcDbEntity
  8
U1
100
AcDbCircle
 10
7508.017031986061
 20
9269.515360473251
 30
0.0
 40
6.300000000001091
100
AcDbArc
 50
180.0
 51
270.0
  0
LINE
  5
18D6E
330
18745
100
AcDbEntity
  8
U1
100
AcDbLine
 10
7501.71703198606
 20
9269.515360473251
 30
0.0
 11
7501.71703198606
 21
9321.915360473253
 31
0.0
  0
ARC
  5
18D6F
330
18745
100
AcDbEntity
  8
U1
100
AcDbCircle
 10
7508.017031986058
 20
9321.915360473253
 30
0.0
 40
6.299999999999272
100
AcDbArc
 50
89.99999999999173
 51
180.0
  0
LINE
  5
18D70
330
18745
100
AcDbEntity
  8
U1
100
AcDbLine
 10
7508.017031986061
 20
9328.215360473253
 30
0.0
 11
7560.41703198606
 21
9328.215360473253
 31
0.0
  0
ARC
  5
18D71
330
18745
100
AcDbEntity
  8
U1
100
AcDbCircle
 10
7560.41703198606
 20
9321.915360473253
 30
0.0
 40
6.299999999999272
100
AcDbArc
 50
0.0
 51
90.00000000000826
  0
LINE
  5
18D72
330
18745
100
AcDbEntity
  8
U1
100
AcDbLine
 10
7566.71703198606
 20
9321.915360473253
 30
0.0
 11
7566.71703198606
 21
9269.515360473251
 31
0.0
  0
ARC
  5
18D73
330
18745
100
AcDbEntity
  8
U1
100
AcDbCircle
 10
5058.01703198606
 20
9269.515360473251
 30
0.0
 40
6.300000000000181
100
AcDbArc
 50
180.0
 51
270.0
  0
LINE
  5
18D74
330
18745
100
AcDbEntity
  8
U1
100
AcDbLine
 10
5058.01703198606
 20
9263.215360473251
 30
0.0
 11
5065.41703198606
 21
9263.215360473251
 31
0.0
  0
ARC
  5
18D75
330
18745
100
AcDbEntity
  8
U1
100
AcDbCircle
 10
5065.41703198606
 20
9269.515360473251
 30
0.0
 40
6.299999999999272
100
AcDbArc
 50
269.9999999999918
 51
0.0
  0
ARC
  5
18D76
330
18745
100
AcDbEntity
  8
U1
100
AcDbCircle
 10
5078.017031986059
 20
9269.515360473251
 30
0.0
 40
6.299999999999272
100
AcDbArc
 50
180.0
 51
270.0000000000081
  0
LINE
  5
18D77
330
18745
100
AcDbEntity
  8
U1
100
AcDbLine
 10
5078.01703198606
 20
9263.215360473251
 30
0.0
 11
5110.41703198606
 21
9263.215360473251
 31
0.0
  0
ARC
  5
18D78
330
18745
100
AcDbEntity
  8
U1
100
AcDbCircle
 10
5110.41703198606
 20
9269.515360473251
 30
0.0
 40
6.299999999999272
100
AcDbArc
 50
269.9999999999918
 51
0.0
  0
LINE
  5
18D79
330
18745
100
AcDbEntity
  8
U1
100
AcDbLine
 10
5116.717031986058
 20
9269.515360473251
 30
0.0
 11
5116.717031986058
 21
9321.915360473253
 31
0.0
  0
ARC
  5
18D7A
330
18745
100
AcDbEntity
  8
U1
100
AcDbCircle
 10
5110.41703198606
 20
9321.915360473253
 30
0.0
 40
6.299999999999272
100
AcDbArc
 50
0.0
 51
90.00000000000826
  0
LINE
  5
18D7B
330
18745
100
AcDbEntity
  8
U1
100
AcDbLine
 10
5110.41703198606
 20
9328.215360473253
 30
0.0
 11
5058.01703198606
 21
9328.215360473253
 31
0.0
  0
ARC
  5
18D7C
330
18745
100
AcDbEntity
  8
U1
100
AcDbCircle
 10
5058.017031986059
 20
9321.915360473253
 30
0.0
 40
6.299999999999272
100
AcDbArc
 50
89.99999999999173
 51
180.0
  0
LINE
  5
18D7D
330
18745
100
AcDbEntity
  8
U1
100
AcDbLine
 10
5051.71703198606
 20
9321.915360473253
 30
0.0
 11
5051.71703198606
 21
9269.515360473251
 31
0.0
  0
ARC
  5
18D7E
330
18745
100
AcDbEntity
  8
U1
100
AcDbCircle
 10
7560.41703198606
 20
5721.915360473253
 30
0.0
 40
6.299999999999272
100
AcDbArc
 50
0.0
 51
90.00000000000826
  0
LINE
  5
18D7F
330
18745
100
AcDbEntity
  8
U1
100
AcDbLine
 10
7560.41703198606
 20
5728.215360473253
 30
0.0
 11
7553.017031986062
 21
5728.215360473253
 31
0.0
  0
ARC
  5
18D80
330
18745
100
AcDbEntity
  8
U1
100
AcDbCircle
 10
7553.017031986058
 20
5721.915360473253
 30
0.0
 40
6.300000000000181
100
AcDbArc
 50
89.99999999999173
 51
180.0
  0
ARC
  5
18D81
330
18745
100
AcDbEntity
  8
U1
100
AcDbCircle
 10
7540.417031986058
 20
5721.915360473252
 30
0.0
 40
6.300000000000181
100
AcDbArc
 50
0.0000000000082715
 51
90.0
  0
LINE
  5
18D82
330
18745
100
AcDbEntity
  8
U1
100
AcDbLine
 10
7540.417031986058
 20
5728.215360473253
 30
0.0
 11
7508.017031986061
 21
5728.215360473253
 31
0.0
  0
ARC
  5
18D83
330
18745
100
AcDbEntity
  8
U1
100
AcDbCircle
 10
7508.017031986058
 20
5721.915360473253
 30
0.0
 40
6.300000000000181
100
AcDbArc
 50
89.99999999999173
 51
180.0
  0
LINE
  5
18D84
330
18745
100
AcDbEntity
  8
U1
100
AcDbLine
 10
7501.71703198606
 20
5721.915360473253
 30
0.0
 11
7501.71703198606
 21
5669.515360473252
 31
0.0
  0
ARC
  5
18D85
330
18745
100
AcDbEntity
  8
U1
100
AcDbCircle
 10
7508.017031986058
 20
5669.515360473252
 30
0.0
 40
6.299999999999272
100
AcDbArc
 50
180.0
 51
270.0000000000081
  0
LINE
  5
18D86
330
18745
100
AcDbEntity
  8
U1
100
AcDbLine
 10
7508.017031986061
 20
5663.215360473253
 30
0.0
 11
7560.41703198606
 21
5663.215360473253
 31
0.0
  0
ARC
  5
18D87
330
18745
100
AcDbEntity
  8
U1
100
AcDbCircle
 10
7560.41703198606
 20
5669.515360473252
 30
0.0
 40
6.299999999999272
100
AcDbArc
 50
269.9999999999918
 51
0.0
  0
LINE
  5
18D88
330
18745
100
AcDbEntity
  8
U1
100
AcDbLine
 10
7566.71703198606
 20
5669.515360473252
 30
0.0
 11
7566.71703198606
 21
5721.915360473253
 31
0.0
  0
ARC
  5
18D89
330
18745
100
AcDbEntity
  8
U1
100
AcDbCircle
 10
5058.017031986059
 20
5721.915360473253
 30
0.0
 40
6.299999999999272
100
AcDbArc
 50
89.99999999999173
 51
180.0
  0
LINE
  5
18D8A
330
18745
100
AcDbEntity
  8
U1
100
AcDbLine
 10
5058.01703198606
 20
5728.215360473253
 30
0.0
 11
5065.41703198606
 21
5728.215360473253
 31
0.0
  0
ARC
  5
18D8B
330
18745
100
AcDbEntity
  8
U1
100
AcDbCircle
 10
5065.41703198606
 20
5721.915360473253
 30
0.0
 40
6.300000000000181
100
AcDbArc
 50
0.0
 51
90.00000000000826
  0
ARC
  5
18D8C
330
18745
100
AcDbEntity
  8
U1
100
AcDbCircle
 10
5078.01703198606
 20
5721.915360473252
 30
0.0
 40
6.300000000000181
100
AcDbArc
 50
90.0
 51
179.9999999999916
  0
LINE
  5
18D8D
330
18745
100
AcDbEntity
  8
U1
100
AcDbLine
 10
5078.01703198606
 20
5728.215360473253
 30
0.0
 11
5110.41703198606
 21
5728.215360473253
 31
0.0
  0
ARC
  5
18D8E
330
18745
100
AcDbEntity
  8
U1
100
AcDbCircle
 10
5110.41703198606
 20
5721.915360473253
 30
0.0
 40
6.300000000000181
100
AcDbArc
 50
0.0
 51
90.00000000000826
  0
LINE
  5
18D8F
330
18745
100
AcDbEntity
  8
U1
100
AcDbLine
 10
5116.717031986058
 20
5721.915360473253
 30
0.0
 11
5116.717031986058
 21
5669.515360473252
 31
0.0
  0
ARC
  5
18D90
330
18745
100
AcDbEntity
  8
U1
100
AcDbCircle
 10
5110.41703198606
 20
5669.515360473252
 30
0.0
 40
6.299999999999272
100
AcDbArc
 50
269.9999999999918
 51
0.0
  0
LINE
  5
18D91
330
18745
100
AcDbEntity
  8
U1
100
AcDbLine
 10
5110.41703198606
 20
5663.215360473253
 30
0.0
 11
5058.01703198606
 21
5663.215360473253
 31
0.0
  0
ARC
  5
18D92
330
18745
100
AcDbEntity
  8
U1
100
AcDbCircle
 10
5058.017031986059
 20
5669.515360473252
 30
0.0
 40
6.299999999999272
100
AcDbArc
 50
180.0
 51
270.0000000000081
  0
LINE
  5
18D93
330
18745
100
AcDbEntity
  8
U1
100
AcDbLine
 10
5051.71703198606
 20
5669.515360473252
 30
0.0
 11
5051.71703198606
 21
5721.915360473253
 31
0.0
  0
ARC
  5
18D94
330
18745
100
AcDbEntity
  8
U1
100
AcDbCircle
 10
8860.41703198606
 20
5721.915360473253
 30
0.0
 40
6.299999999999272
100
AcDbArc
 50
0.0
 51
90.0
  0
LINE
  5
18D95
330
18745
100
AcDbEntity
  8
U1
100
AcDbLine
 10
8860.41703198606
 20
5728.215360473253
 30
0.0
 11
8853.017031986059
 21
5728.215360473253
 31
0.0
  0
ARC
  5
18D96
330
18745
100
AcDbEntity
  8
U1
100
AcDbCircle
 10
8853.017031986059
 20
5721.915360473253
 30
0.0
 40
6.300000000000181
100
AcDbArc
 50
90.0
 51
180.0
  0
ARC
  5
18D97
330
18745
100
AcDbEntity
  8
U1
100
AcDbCircle
 10
8840.417031986062
 20
5721.915360473253
 30
0.0
 40
6.299999999999272
100
AcDbArc
 50
0.0
 51
90.0
  0
LINE
  5
18D98
330
18745
100
AcDbEntity
  8
U1
100
AcDbLine
 10
8840.417031986062
 20
5728.215360473253
 30
0.0
 11
8808.017031986059
 21
5728.215360473253
 31
0.0
  0
ARC
  5
18D99
330
18745
100
AcDbEntity
  8
U1
100
AcDbCircle
 10
8808.017031986059
 20
5721.915360473253
 30
0.0
 40
6.300000000000181
100
AcDbArc
 50
90.0
 51
180.0
  0
LINE
  5
18D9A
330
18745
100
AcDbEntity
  8
U1
100
AcDbLine
 10
8801.71703198606
 20
5721.915360473253
 30
0.0
 11
8801.71703198606
 21
5669.515360473252
 31
0.0
  0
ARC
  5
18D9B
330
18745
100
AcDbEntity
  8
U1
100
AcDbCircle
 10
8808.017031986059
 20
5669.515360473252
 30
0.0
 40
6.299999999999272
100
AcDbArc
 50
180.0
 51
270.0
  0
LINE
  5
18D9C
330
18745
100
AcDbEntity
  8
U1
100
AcDbLine
 10
8808.017031986059
 20
5663.215360473253
 30
0.0
 11
8860.41703198606
 21
5663.215360473253
 31
0.0
  0
ARC
  5
18D9D
330
18745
100
AcDbEntity
  8
U1
100
AcDbCircle
 10
8860.41703198606
 20
5669.515360473252
 30
0.0
 40
6.299999999999272
100
AcDbArc
 50
270.0
 51
0.0
  0
LINE
  5
18D9E
330
18745
100
AcDbEntity
  8
U1
100
AcDbLine
 10
8866.717031986061
 20
5669.515360473252
 30
0.0
 11
8866.717031986061
 21
5721.915360473253
 31
0.0
  0
ARC
  5
18D9F
330
18745
100
AcDbEntity
  8
U1
100
AcDbCircle
 10
11310.41703198606
 20
5721.915360473253
 30
0.0
 40
6.299999999999272
100
AcDbArc
 50
0.0
 51
90.0
  0
LINE
  5
18DA0
330
18745
100
AcDbEntity
  8
U1
100
AcDbLine
 10
11310.41703198606
 20
5728.215360473253
 30
0.0
 11
11303.01703198606
 21
5728.215360473253
 31
0.0
  0
ARC
  5
18DA1
330
18745
100
AcDbEntity
  8
U1
100
AcDbCircle
 10
11303.01703198606
 20
5721.915360473253
 30
0.0
 40
6.300000000000181
100
AcDbArc
 50
90.0
 51
180.0
  0
ARC
  5
18DA2
330
18745
100
AcDbEntity
  8
U1
100
AcDbCircle
 10
11290.41703198606
 20
5721.915360473253
 30
0.0
 40
6.299999999999272
100
AcDbArc
 50
0.0
 51
90.0
  0
LINE
  5
18DA3
330
18745
100
AcDbEntity
  8
U1
100
AcDbLine
 10
11290.41703198606
 20
5728.215360473253
 30
0.0
 11
11258.01703198606
 21
5728.215360473253
 31
0.0
  0
ARC
  5
18DA4
330
18745
100
AcDbEntity
  8
U1
100
AcDbCircle
 10
11258.01703198606
 20
5721.915360473253
 30
0.0
 40
6.300000000000181
100
AcDbArc
 50
90.0
 51
180.0
  0
LINE
  5
18DA5
330
18745
100
AcDbEntity
  8
U1
100
AcDbLine
 10
11251.71703198605
 20
5721.915360473253
 30
0.0
 11
11251.71703198605
 21
5669.515360473252
 31
0.0
  0
ARC
  5
18DA6
330
18745
100
AcDbEntity
  8
U1
100
AcDbCircle
 10
11258.01703198606
 20
5669.515360473252
 30
0.0
 40
6.299999999999272
100
AcDbArc
 50
180.0
 51
270.0
  0
LINE
  5
18DA7
330
18745
100
AcDbEntity
  8
U1
100
AcDbLine
 10
11258.01703198606
 20
5663.215360473253
 30
0.0
 11
11310.41703198606
 21
5663.215360473253
 31
0.0
  0
ARC
  5
18DA8
330
18745
100
AcDbEntity
  8
U1
100
AcDbCircle
 10
11310.41703198606
 20
5669.515360473252
 30
0.0
 40
6.299999999999272
100
AcDbArc
 50
270.0
 51
0.0
  0
LINE
  5
18DA9
330
18745
100
AcDbEntity
  8
U1
100
AcDbLine
 10
11316.71703198606
 20
5669.515360473252
 30
0.0
 11
11316.71703198606
 21
5721.915360473253
 31
0.0
  0
ARC
  5
18DAA
330
18745
100
AcDbEntity
  8
U1
100
AcDbCircle
 10
5058.017031986059
 20
7521.915360473252
 30
0.0
 40
6.299999999999272
100
AcDbArc
 50
89.99999999999173
 51
180.0
  0
LINE
  5
18DAB
330
18745
100
AcDbEntity
  8
U1
100
AcDbLine
 10
5058.01703198606
 20
7528.215360473253
 30
0.0
 11
5065.41703198606
 21
7528.215360473253
 31
0.0
  0
ARC
  5
18DAC
330
18745
100
AcDbEntity
  8
U1
100
AcDbCircle
 10
5065.41703198606
 20
7521.915360473252
 30
0.0
 40
6.300000000000181
100
AcDbArc
 50
0.0
 51
90.00000000000826
  0
ARC
  5
18DAD
330
18745
100
AcDbEntity
  8
U1
100
AcDbCircle
 10
5078.01703198606
 20
7521.915360473252
 30
0.0
 40
6.300000000000181
100
AcDbArc
 50
90.0
 51
179.9999999999916
  0
LINE
  5
18DAE
330
18745
100
AcDbEntity
  8
U1
100
AcDbLine
 10
5078.01703198606
 20
7528.215360473253
 30
0.0
 11
5110.41703198606
 21
7528.215360473253
 31
0.0
  0
ARC
  5
18DAF
330
18745
100
AcDbEntity
  8
U1
100
AcDbCircle
 10
5110.41703198606
 20
7521.915360473252
 30
0.0
 40
6.300000000000181
100
AcDbArc
 50
0.0
 51
90.00000000000826
  0
LINE
  5
18DB0
330
18745
100
AcDbEntity
  8
U1
100
AcDbLine
 10
5116.717031986058
 20
7521.915360473252
 30
0.0
 11
5116.717031986058
 21
7469.515360473251
 31
0.0
  0
ARC
  5
18DB1
330
18745
100
AcDbEntity
  8
U1
100
AcDbCircle
 10
5110.41703198606
 20
7469.515360473251
 30
0.0
 40
6.299999999999272
100
AcDbArc
 50
269.9999999999918
 51
0.0
  0
LINE
  5
18DB2
330
18745
100
AcDbEntity
  8
U1
100
AcDbLine
 10
5110.41703198606
 20
7463.215360473253
 30
0.0
 11
5058.01703198606
 21
7463.215360473253
 31
0.0
  0
ARC
  5
18DB3
330
18745
100
AcDbEntity
  8
U1
100
AcDbCircle
 10
5058.017031986059
 20
7469.515360473251
 30
0.0
 40
6.299999999999272
100
AcDbArc
 50
180.0
 51
270.0000000000081
  0
LINE
  5
18DB4
330
18745
100
AcDbEntity
  8
U1
100
AcDbLine
 10
5051.71703198606
 20
7469.515360473251
 30
0.0
 11
5051.71703198606
 21
7521.915360473252
 31
0.0
  0
ARC
  5
18DB5
330
18745
100
AcDbEntity
  8
U1
100
AcDbCircle
 10
7560.41703198606
 20
7521.915360473252
 30
0.0
 40
6.299999999999272
100
AcDbArc
 50
0.0
 51
90.00000000000826
  0
LINE
  5
18DB6
330
18745
100
AcDbEntity
  8
U1
100
AcDbLine
 10
7560.41703198606
 20
7528.215360473253
 30
0.0
 11
7553.017031986062
 21
7528.215360473253
 31
0.0
  0
ARC
  5
18DB7
330
18745
100
AcDbEntity
  8
U1
100
AcDbCircle
 10
7553.017031986058
 20
7521.915360473252
 30
0.0
 40
6.300000000000181
100
AcDbArc
 50
89.99999999999173
 51
180.0
  0
ARC
  5
18DB8
330
18745
100
AcDbEntity
  8
U1
100
AcDbCircle
 10
7540.417031986058
 20
7521.915360473252
 30
0.0
 40
6.300000000000181
100
AcDbArc
 50
0.0000000000082715
 51
90.0
  0
LINE
  5
18DB9
330
18745
100
AcDbEntity
  8
U1
100
AcDbLine
 10
7540.417031986058
 20
7528.215360473253
 30
0.0
 11
7508.017031986061
 21
7528.215360473253
 31
0.0
  0
ARC
  5
18DBA
330
18745
100
AcDbEntity
  8
U1
100
AcDbCircle
 10
7508.017031986058
 20
7521.915360473252
 30
0.0
 40
6.300000000000181
100
AcDbArc
 50
89.99999999999173
 51
180.0
  0
LINE
  5
18DBB
330
18745
100
AcDbEntity
  8
U1
100
AcDbLine
 10
7501.71703198606
 20
7521.915360473252
 30
0.0
 11
7501.71703198606
 21
7469.515360473251
 31
0.0
  0
ARC
  5
18DBC
330
18745
100
AcDbEntity
  8
U1
100
AcDbCircle
 10
7508.017031986058
 20
7469.515360473251
 30
0.0
 40
6.299999999999272
100
AcDbArc
 50
180.0
 51
270.0000000000081
  0
LINE
  5
18DBD
330
18745
100
AcDbEntity
  8
U1
100
AcDbLine
 10
7508.017031986061
 20
7463.215360473253
 30
0.0
 11
7560.41703198606
 21
7463.215360473253
 31
0.0
  0
ARC
  5
18DBE
330
18745
100
AcDbEntity
  8
U1
100
AcDbCircle
 10
7560.41703198606
 20
7469.515360473251
 30
0.0
 40
6.299999999999272
100
AcDbArc
 50
269.9999999999918
 51
0.0
  0
LINE
  5
18DBF
330
18745
100
AcDbEntity
  8
U1
100
AcDbLine
 10
7566.71703198606
 20
7469.515360473251
 30
0.0
 11
7566.71703198606
 21
7521.915360473252
 31
0.0
  0
ARC
  5
18DC0
330
18745
100
AcDbEntity
  8
U1
100
AcDbCircle
 10
8860.41703198606
 20
7521.915360473252
 30
0.0
 40
6.299999999999272
100
AcDbArc
 50
0.0
 51
90.0
  0
LINE
  5
18DC1
330
18745
100
AcDbEntity
  8
U1
100
AcDbLine
 10
8860.41703198606
 20
7528.215360473253
 30
0.0
 11
8853.017031986059
 21
7528.215360473253
 31
0.0
  0
ARC
  5
18DC2
330
18745
100
AcDbEntity
  8
U1
100
AcDbCircle
 10
8853.017031986059
 20
7521.915360473252
 30
0.0
 40
6.300000000000181
100
AcDbArc
 50
90.0
 51
180.0
  0
ARC
  5
18DC3
330
18745
100
AcDbEntity
  8
U1
100
AcDbCircle
 10
8840.417031986062
 20
7521.915360473252
 30
0.0
 40
6.299999999999272
100
AcDbArc
 50
0.0
 51
90.0
  0
LINE
  5
18DC4
330
18745
100
AcDbEntity
  8
U1
100
AcDbLine
 10
8840.417031986062
 20
7528.215360473253
 30
0.0
 11
8808.017031986059
 21
7528.215360473253
 31
0.0
  0
ARC
  5
18DC5
330
18745
100
AcDbEntity
  8
U1
100
AcDbCircle
 10
8808.017031986059
 20
7521.915360473252
 30
0.0
 40
6.300000000000181
100
AcDbArc
 50
90.0
 51
180.0
  0
LINE
  5
18DC6
330
18745
100
AcDbEntity
  8
U1
100
AcDbLine
 10
8801.71703198606
 20
7521.915360473252
 30
0.0
 11
8801.71703198606
 21
7469.515360473251
 31
0.0
  0
ARC
  5
18DC7
330
18745
100
AcDbEntity
  8
U1
100
AcDbCircle
 10
8808.017031986059
 20
7469.515360473251
 30
0.0
 40
6.299999999999272
100
AcDbArc
 50
180.0
 51
270.0
  0
LINE
  5
18DC8
330
18745
100
AcDbEntity
  8
U1
100
AcDbLine
 10
8808.017031986059
 20
7463.215360473253
 30
0.0
 11
8860.41703198606
 21
7463.215360473253
 31
0.0
  0
ARC
  5
18DC9
330
18745
100
AcDbEntity
  8
U1
100
AcDbCircle
 10
8860.41703198606
 20
7469.515360473251
 30
0.0
 40
6.299999999999272
100
AcDbArc
 50
270.0
 51
0.0
  0
LINE
  5
18DCA
330
18745
100
AcDbEntity
  8
U1
100
AcDbLine
 10
8866.717031986061
 20
7469.515360473251
 30
0.0
 11
8866.717031986061
 21
7521.915360473252
 31
0.0
  0
ARC
  5
18DCB
330
18745
100
AcDbEntity
  8
U1
100
AcDbCircle
 10
11310.41703198606
 20
7521.915360473252
 30
0.0
 40
6.299999999999272
100
AcDbArc
 50
0.0
 51
90.0
  0
LINE
  5
18DCC
330
18745
100
AcDbEntity
  8
U1
100
AcDbLine
 10
11310.41703198606
 20
7528.215360473253
 30
0.0
 11
11303.01703198606
 21
7528.215360473253
 31
0.0
  0
ARC
  5
18DCD
330
18745
100
AcDbEntity
  8
U1
100
AcDbCircle
 10
11303.01703198606
 20
7521.915360473252
 30
0.0
 40
6.300000000000181
100
AcDbArc
 50
90.0
 51
180.0
  0
ARC
  5
18DCE
330
18745
100
AcDbEntity
  8
U1
100
AcDbCircle
 10
11290.41703198606
 20
7521.915360473252
 30
0.0
 40
6.299999999999272
100
AcDbArc
 50
0.0
 51
90.0
  0
LINE
  5
18DCF
330
18745
100
AcDbEntity
  8
U1
100
AcDbLine
 10
11290.41703198606
 20
7528.215360473253
 30
0.0
 11
11258.01703198606
 21
7528.215360473253
 31
0.0
  0
ARC
  5
18DD0
330
18745
100
AcDbEntity
  8
U1
100
AcDbCircle
 10
11258.01703198606
 20
7521.915360473252
 30
0.0
 40
6.300000000000181
100
AcDbArc
 50
90.0
 51
180.0
  0
LINE
  5
18DD1
330
18745
100
AcDbEntity
  8
U1
100
AcDbLine
 10
11251.71703198605
 20
7521.915360473252
 30
0.0
 11
11251.71703198605
 21
7469.515360473251
 31
0.0
  0
ARC
  5
18DD2
330
18745
100
AcDbEntity
  8
U1
100
AcDbCircle
 10
11258.01703198606
 20
7469.515360473251
 30
0.0
 40
6.299999999999272
100
AcDbArc
 50
180.0
 51
270.0
  0
LINE
  5
18DD3
330
18745
100
AcDbEntity
  8
U1
100
AcDbLine
 10
11258.01703198606
 20
7463.215360473253
 30
0.0
 11
11310.41703198606
 21
7463.215360473253
 31
0.0
  0
ARC
  5
18DD4
330
18745
100
AcDbEntity
  8
U1
100
AcDbCircle
 10
11310.41703198606
 20
7469.515360473251
 30
0.0
 40
6.299999999999272
100
AcDbArc
 50
270.0
 51
0.0
  0
LINE
  5
18DD5
330
18745
100
AcDbEntity
  8
U1
100
AcDbLine
 10
11316.71703198606
 20
7469.515360473251
 30
0.0
 11
11316.71703198606
 21
7521.915360473252
 31
0.0
  0
TEXT
  5
18DF7
330
18745
100
AcDbEntity
  8
SUNPOU
100
AcDbText
 10
1603.716884162464
 20
4073.594287112353
 30
0.0
 40
90.0
  1
その他現地の実情にあわせて設計して下さい。
  7
01
100
AcDbText
  0
TEXT
  5
18DF8
330
18745
100
AcDbEntity
  8
SUNPOU
100
AcDbText
 10
1603.716884162464
 20
4382.165715683781
 30
0.0
 40
90.0
  1
寒冷地の場合、凍結深度等を考慮し、実情に
  7
01
100
AcDbText
  0
TEXT
  5
18DF9
330
18745
100
AcDbEntity
  8
SUNPOU
100
AcDbText
 10
1294.730661270575
 20
4725.704229354017
 30
0.0
 40
89.9993750043402
  1
地耐力   　　　 以上,コンクリート設計基準強度　　　　　以上
  7
01
100
AcDbText
  0
TEXT
  5
18DFA
330
18745
100
AcDbEntity
  8
SUNPOU
100
AcDbText
 10
1397.51113907307
 20
4073.594287112353
 30
0.0
 40
90.0
  1
2
 41
0.6700000000000001
  7
01
100
AcDbText
  0
TEXT
  5
18DFB
330
18745
100
AcDbEntity
  8
SUNPOU
100
AcDbText
 10
1286.877218860331
 20
4073.594287112353
 30
0.0
 40
90.0
  1
注　）
  7
01
100
AcDbText
  0
TEXT
  5
18DFC
330
18745
100
AcDbEntity
  8
SUNPOU
100
AcDbText
 10
1778.494089935738
 20
4571.418515068301
 30
0.0
 40
89.9993750043402
  1
34 m/s
 41
0.6700000000000001
  7
01
100
AcDbText
  0
TEXT
  5
18DFD
330
18745
100
AcDbEntity
  8
SUNPOU
100
AcDbText
 10
1603.716884162464
 20
4227.880001398061
 30
0.0
 40
90.0
  1
あわせて設計して下さい。
  7
01
100
AcDbText
  0
TEXT
  5
18DFE
330
18745
100
AcDbEntity
  8
SUNPOU
100
AcDbText
 10
1294.730661270575
 20
4571.418515068301
 30
0.0
 40
89.9993750043402
  1
基準風速   　　 , 地表面粗度区分
  7
01
100
AcDbText
  0
TEXT
  5
18DFF
330
18745
100
AcDbEntity
  8
SUNPOU
100
AcDbText
 10
1289.524175411487
 20
5072.458231799971
 30
0.0
 40
120.0
  1
基礎断面図
  7
01
 72
     4
 11
1629.524175411487
 21
5132.458231799971
 31
0.0
100
AcDbText
  0
TEXT
  5
18E00
330
18745
100
AcDbEntity
  8
SUNPOU
100
AcDbText
 10
1668.989068695649
 20
4725.704229354017
 30
0.0
 40
89.9993750043402
  1
50  N/m
 41
0.6700000000000001
  7
01
100
AcDbText
  0
TEXT
  5
18E01
330
18745
100
AcDbEntity
  8
SUNPOU
100
AcDbText
 10
1164.167032554344
 20
4914.958231799973
 30
0.0
 40
90.0
  1
<下記条件での参考図>
  7
01
 72
     4
 11
1753.024175411487
 21
4959.958231799973
 31
0.0
100
AcDbText
  0
TEXT
  5
18E02
330
18745
100
AcDbEntity
  8
SUNPOU
100
AcDbText
 10
1286.877218860331
 20
4382.165715683781
 30
0.0
 40
90.0
  1
注　）
  7
01
100
AcDbText
  0
ARC
  5
18E03
330
18745
100
AcDbEntity
  8
SUNPOU
100
AcDbCircle
 10
1447.688935177774
 20
4689.491652795848
 30
0.0
 40
225.0
100
AcDbArc
 50
148.3472725282829
 51
211.652727471717
  0
TEXT
  5
18E04
330
18745
100
AcDbEntity
  8
SUNPOU
100
AcDbText
 10
1397.51113907307
 20
4382.165715683781
 30
0.0
 40
90.0
  1
1
 41
0.6700000000000001
  7
01
100
AcDbText
  0
TEXT
  5
18E05
330
18745
100
AcDbEntity
  8
SUNPOU
100
AcDbText
 10
1804.825521481598
 20
4725.704229354017
 30
0.0
 40
71.99950000347218
  1
K
 41
0.6700000000000001
  7
01
100
AcDbText
  0
TEXT
  5
18E06
330
18745
100
AcDbEntity
  8
SUNPOU
100
AcDbText
 10
2072.465678209999
 20
4775.892655711501
 30
0.0
 40
46.28539285937498
  1
2
 41
0.6700000000000001
  7
00
100
AcDbText
  0
LINE
  5
18E07
330
18745
100
AcDbEntity
  8
SUNPOU
100
AcDbLine
 10
3086.546222837176
 20
4571.418515068301
 30
0.0
 11
3142.796222837177
 21
4571.418515068301
 31
0.0
  0
LINE
  5
18E08
330
18745
100
AcDbEntity
  8
SUNPOU
100
AcDbLine
 10
3086.546222837176
 20
4654.910878767084
 30
0.0
 11
3142.796222837177
 21
4654.910878767084
 31
0.0
  0
LINE
  5
18E09
330
18745
100
AcDbEntity
  8
SUNPOU
100
AcDbLine
 10
3114.671222837177
 20
4571.418515068301
 30
0.0
 11
3114.671222837177
 21
4654.910878767084
 31
0.0
  0
LINE
  5
18E0A
330
18745
100
AcDbEntity
  8
SUNPOU
100
AcDbLine
 10
3097.796222837177
 20
4571.418515068301
 30
0.0
 11
3097.796222837177
 21
4654.910878767084
 31
0.0
  0
LINE
  5
18E0B
330
18745
100
AcDbEntity
  8
SUNPOU
100
AcDbLine
 10
3131.546222837179
 20
4571.418515068301
 30
0.0
 11
3131.546222837179
 21
4654.910878767084
 31
0.0
  0
TEXT
  5
18E0C
330
18745
100
AcDbEntity
  8
SUNPOU
100
AcDbText
 10
2006.374512774457
 20
5084.765924107665
 30
0.0
 40
92.30769230769228
  1
（ S = 　　  ）
 41
0.6700000000000001
  7
00
 11
2006.374512774457
 21
5072.458231799974
 31
0.0
100
AcDbText
 73
     1
  0
TEXT
  5
18E0D
330
18745
100
AcDbEntity
  8
SUNPOU
100
AcDbText
 10
2438.432784897278
 20
5063.842847184588
 30
0.0
 40
73.84615384615384
  1
25
 41
0.6700000000000001
  7
00
 11
2438.432784897278
 21
5053.996693338434
 31
0.0
100
AcDbText
 73
     1
  0
TEXT
  5
18E0E
330
18745
100
AcDbEntity
  8
SUNPOU
100
AcDbText
 10
2326.077214627527
 20
5100.765924107667
 30
0.0
 40
73.84615384615384
  1
1
 41
0.6700000000000001
  7
00
 11
2326.077214627527
 21
5090.919770261513
 31
0.0
100
AcDbText
 73
     1
  0
TEXT
  5
18E0F
330
18745
100
AcDbEntity
  8
SUNPOU
100
AcDbText
 10
2374.483341942899
 20
5082.304385646128
 30
0.0
 40
73.84615384615384
  1
/
 41
0.6700000000000001
  7
00
 11
2374.483341942899
 21
5072.458231799974
 31
0.0
100
AcDbText
 73
     1
  0
TEXT
  5
18E10
330
18745
100
AcDbEntity
  8
SUNPOU
100
AcDbText
 10
3849.577592343237
 20
4725.704229354017
 30
0.0
 40
89.9993750043402
  1
N/mm
 41
0.6700000000000001
  7
01
100
AcDbText
  0
TEXT
  5
18E11
330
18745
100
AcDbEntity
  8
SUNPOU
100
AcDbText
 10
3713.741139557287
 20
4725.704229354017
 30
0.0
 40
89.9993750043402
  1
18
 41
0.6700000000000001
  7
01
100
AcDbText
  0
TEXT
  5
18E12
330
18745
100
AcDbEntity
  8
SUNPOU
100
AcDbText
 10
4154.04207437464
 20
4775.892655711501
 30
0.0
 40
46.28539285937498
  1
2
 41
0.6700000000000001
  7
00
100
AcDbText
  0
ARC
  5
18E13
330
18745
100
AcDbEntity
  8
SUNPOU
100
AcDbCircle
 10
4302.919338908256
 20
4711.975933581638
 30
0.0
 40
225.0
100
AcDbArc
 50
328.3472725282829
 51
31.65272747171703
  0
ENDSEC
  0
SECTION
  2
OBJECTS
  0
DICTIONARY
  5
18733
330
0
100
AcDbDictionary
281
     1
  3
ACAD_GROUP
350
18734
  3
ACAD_LAYOUT
350
18740
  3
ACAD_MLINESTYLE
350
1873D
  3
ACAD_PLOTSETTINGS
350
1873F
  3
ACAD_PLOTSTYLENAME
350
18735
  3
AcDbVariableDictionary
350
18E14
  0
DICTIONARY
  5
18734
102
{ACAD_REACTORS
330
18733
102
}
330
18733
100
AcDbDictionary
281
     1
  0
DICTIONARY
  5
18740
102
{ACAD_REACTORS
330
18733
102
}
330
18733
100
AcDbDictionary
281
     1
  3
Model
350
18748
  3
ﾚｲｱｳﾄ1
350
18744
  0
DICTIONARY
  5
1873D
102
{ACAD_REACTORS
330
18733
102
}
330
18733
100
AcDbDictionary
281
     1
  3
Standard
350
1873E
  0
DICTIONARY
  5
1873F
102
{ACAD_REACTORS
330
18733
102
}
330
18733
100
AcDbDictionary
281
     1
  0
ACDBDICTIONARYWDFLT
  5
18735
102
{ACAD_REACTORS
330
18733
102
}
330
18733
100
AcDbDictionary
281
     1
  3
Normal
350
18736
100
AcDbDictionaryWithDefault
340
18736
  0
DICTIONARY
  5
18E14
102
{ACAD_REACTORS
330
18733
102
}
330
18733
100
AcDbDictionary
281
     1
  3
DIMASSOC
350
18E15
  0
LAYOUT
  5
18748
102
{ACAD_REACTORS
330
18740
102
}
330
18740
100
AcDbPlotSettings
  1

  2
Muratec V-1200 Is@Web Printer
  4

  6

 40
0.0
 41
0.0
 42
0.0
 43
0.0
 44
0.0
 45
0.0
 46
0.0
 47
0.0
 48
0.0
 49
0.0
140
0.0
141
0.0
142
1.0
143
1.0
 70
  1712
 72
     0
 73
     0
 74
     0
  7

 75
     0
147
1.0
148
0.0
149
0.0
100
AcDbLayout
  1
Model
 70
     1
 71
     0
 10
0.0
 20
0.0
 11
12.0
 21
9.0
 12
0.0
 22
0.0
 32
0.0
 14
0.0
 24
0.0
 34
0.0
 15
0.0
 25
0.0
 35
0.0
146
0.0
 13
0.0
 23
0.0
 33
0.0
 16
1.0
 26
0.0
 36
0.0
 17
0.0
 27
1.0
 37
0.0
 76
     0
330
18745
  0
LAYOUT
  5
18744
102
{ACAD_REACTORS
330
18740
102
}
330
18740
100
AcDbPlotSettings
  1

  2
Muratec V-1200 Is@Web Printer
  4

  6

 40
0.0
 41
0.0
 42
0.0
 43
0.0
 44
0.0
 45
0.0
 46
0.0
 47
0.0
 48
0.0
 49
0.0
140
0.0
141
0.0
142
1.0
143
1.0
 70
   688
 72
     0
 73
     0
 74
     5
  7

 75
    16
147
1.0
148
0.0
149
0.0
100
AcDbLayout
  1
ﾚｲｱｳﾄ1
 70
     0
 71
     1
 10
0.0
 20
0.0
 11
12.0
 21
9.0
 12
0.0
 22
0.0
 32
0.0
 14
1.000000000000000E+20
 24
1.000000000000000E+20
 34
1.000000000000000E+20
 15
-1.000000000000000E+20
 25
-1.000000000000000E+20
 35
-1.000000000000000E+20
146
0.0
 13
0.0
 23
0.0
 33
0.0
 16
1.0
 26
0.0
 36
0.0
 17
0.0
 27
1.0
 37
0.0
 76
     0
330
18741
  0
MLINESTYLE
  5
1873E
102
{ACAD_REACTORS
330
1873D
102
}
330
1873D
100
AcDbMlineStyle
  2
STANDARD
 70
     0
  3

 62
   256
 51
90.0
 52
90.0
 71
     2
 49
0.5
 62
   256
  6
BYLAYER
 49
-0.5
 62
   256
  6
BYLAYER
  0
ACDBPLACEHOLDER
  5
18736
102
{ACAD_REACTORS
330
18735
102
}
330
18735
  0
DICTIONARYVAR
  5
18E15
102
{ACAD_REACTORS
330
18E14
102
}
330
18E14
100
DictionaryVariables
280
     0
  1
1
  0
ENDSEC
  0
EOF
